  0
SECTION
  2
HEADER
  9
$ACADVER
  1
AC1009
  9
$INSBASE
 10
267.00000000000011
 20
194.89999999999981
 30
0.0
  9
$EXTMIN
 10
867.99324330406671
 20
327.38164749855792
 30
-0.0000000000000053
  9
$EXTMAX
 10
32765.33210850941
 20
22484.553276491992
 30
0.0000000000000099
  9
$LIMMIN
 10
0.0
 20
0.0
  9
$LIMMAX
 10
33600.0
 20
23760.0
  9
$ORTHOMODE
 70
     0
  9
$REGENMODE
 70
     1
  9
$FILLMODE
 70
     1
  9
$QTEXTMODE
 70
     0
  9
$MIRRTEXT
 70
     0
  9
$DRAGMODE
 70
     2
  9
$LTSCALE
 40
80.0
  9
$OSMODE
 70
  3071
  9
$ATTMODE
 70
     1
  9
$TEXTSIZE
 40
0.2
  9
$TRACEWID
 40
0.05
  9
$TEXTSTYLE
  7
00
  9
$CLAYER
  8
SUNPOU
  9
$CELTYPE
  6
BYLAYER
  9
$CECOLOR
 62
   256
  9
$DIMSCALE
 40
80.0
  9
$DIMASZ
 40
0.5
  9
$DIMEXO
 40
1.0
  9
$DIMDLI
 40
7.0
  9
$DIMRND
 40
0.0
  9
$DIMDLE
 40
3.0
  9
$DIMEXE
 40
1.0
  9
$DIMTP
 40
0.0
  9
$DIMTM
 40
0.0
  9
$DIMTXT
 40
2.0
  9
$DIMCEN
 40
0.0
  9
$DIMTSZ
 40
0.0
  9
$DIMTOL
 70
     0
  9
$DIMLIM
 70
     0
  9
$DIMTIH
 70
     0
  9
$DIMTOH
 70
     0
  9
$DIMSE1
 70
     0
  9
$DIMSE2
 70
     0
  9
$DIMTAD
 70
     1
  9
$DIMZIN
 70
     8
  9
$DIMBLK
  1
DOT
  9
$DIMASO
 70
     1
  9
$DIMSHO
 70
     0
  9
$DIMPOST
  1

  9
$DIMAPOST
  1

  9
$DIMALT
 70
     0
  9
$DIMALTD
 70
     2
  9
$DIMALTF
 40
25.399999999999999
  9
$DIMLFAC
 40
1.0
  9
$DIMTOFL
 70
     1
  9
$DIMTVP
 40
0.0
  9
$DIMTIX
 70
     0
  9
$DIMSOXD
 70
     0
  9
$DIMSAH
 70
     1
  9
$DIMBLK1
  1
DOT
  9
$DIMBLK2
  1
DOT
  9
$DIMSTYLE
  2
SUNPOU_申請図
  9
$DIMCLRD
 70
   256
  9
$DIMCLRE
 70
   256
  9
$DIMCLRT
 70
   256
  9
$DIMTFAC
 40
1.0
  9
$DIMGAP
 40
1.0
  9
$LUNITS
 70
     2
  9
$LUPREC
 70
     2
  9
$SKETCHINC
 40
0.1
  9
$FILLETRAD
 40
0.0
  9
$AUNITS
 70
     0
  9
$AUPREC
 70
     0
  9
$MENU
  1
A:\TIGER\MENU\TIGER
  9
$ELEVATION
 40
0.0
  9
$PELEVATION
 40
0.0
  9
$THICKNESS
 40
0.0
  9
$LIMCHECK
 70
     0
  9
$BLIPMODE
 70
     1
  9
$CHAMFERA
 40
0.0
  9
$CHAMFERB
 40
0.0
  9
$SKPOLY
 70
     0
  9
$TDCREATE
 40
2450266.5710648149
  9
$TDUPDATE
 40
2456314.7270390159
  9
$TDINDWG
 40
0.6234471991
  9
$TDUSRTIMER
 40
0.6234471991
  9
$USRTIMER
 70
     1
  9
$ANGBASE
 50
0.0
  9
$ANGDIR
 70
     0
  9
$PDMODE
 70
     0
  9
$PDSIZE
 40
0.0
  9
$PLINEWID
 40
0.0
  9
$COORDS
 70
     0
  9
$SPLFRAME
 70
     0
  9
$SPLINETYPE
 70
     6
  9
$SPLINESEGS
 70
     8
  9
$ATTDIA
 70
     0
  9
$ATTREQ
 70
     1
  9
$HANDLING
 70
     1
  9
$HANDSEED
  5
760EF
  9
$SURFTAB1
 70
     6
  9
$SURFTAB2
 70
     6
  9
$SURFTYPE
 70
     6
  9
$SURFU
 70
     6
  9
$SURFV
 70
     6
  9
$UCSNAME
  2

  9
$UCSORG
 10
0.0
 20
0.0
 30
0.0
  9
$UCSXDIR
 10
1.0
 20
0.0
 30
0.0
  9
$UCSYDIR
 10
0.0
 20
1.0
 30
0.0
  9
$PUCSNAME
  2

  9
$PUCSORG
 10
0.0
 20
0.0
 30
0.0
  9
$PUCSXDIR
 10
1.0
 20
0.0
 30
0.0
  9
$PUCSYDIR
 10
0.0
 20
1.0
 30
0.0
  9
$USERI1
 70
     3
  9
$USERI2
 70
     0
  9
$USERI3
 70
     0
  9
$USERI4
 70
     0
  9
$USERI5
 70
  1103
  9
$USERR1
 40
0.0
  9
$USERR2
 40
1.0
  9
$USERR3
 40
0.0
  9
$USERR4
 40
0.0
  9
$USERR5
 40
0.0
  9
$WORLDVIEW
 70
     1
  9
$SHADEDGE
 70
     3
  9
$SHADEDIF
 70
    70
  9
$TILEMODE
 70
     1
  9
$MAXACTVP
 70
    16
  9
$PLIMCHECK
 70
     0
  9
$PEXTMIN
 10
1.0000000000000000E+020
 20
1.0000000000000000E+020
 30
1.0000000000000000E+020
  9
$PEXTMAX
 10
-1.0000000000000000E+020
 20
-1.0000000000000000E+020
 30
-1.0000000000000000E+020
  9
$PLIMMIN
 10
0.0
 20
0.0
  9
$PLIMMAX
 10
12.0
 20
9.0
  9
$UNITMODE
 70
     0
  9
$VISRETAIN
 70
     0
  9
$PLINEGEN
 70
     1
  9
$PSLTSCALE
 70
     0
  0
ENDSEC
  0
SECTION
  2
TABLES
  0
TABLE
  2
VPORT
 70
     1
  0
VPORT
  2
*ACTIVE
 70
     0
 10
0.0
 20
0.0
 11
1.0
 21
1.0
 12
16800.0
 22
11880.0
 13
0.0
 23
0.0
 14
1.0
 24
1.0
 15
0.0
 25
0.0
 16
0.0
 26
0.0
 36
1.0
 17
0.0
 27
0.0
 37
0.0
 40
23958.55153203342
 41
1.6471408647140859
 42
50.0
 43
0.0
 44
0.0
 50
0.0
 51
0.0
 71
     0
 72
 10000
 73
     1
 74
     0
 75
     0
 76
     0
 77
     0
 78
     0
  0
ENDTAB
  0
TABLE
  2
LTYPE
 70
     4
  0
LTYPE
  2
CONTINUOUS
 70
     0
  3
実線
 72
    65
 73
     0
 40
0.0
  0
LTYPE
  2
1PL-M
 70
     0
  3

 72
    65
 73
     4
 40
15.0
 49
12.0
 49
-1.0
 49
1.0
 49
-1.0
  0
ENDTAB
  0
TABLE
  2
LAYER
 70
    19
  0
LAYER
  2
0
 70
     0
 62
     7
  6
CONTINUOUS
  0
LAYER
  2
U1
 70
     0
 62
     3
  6
CONTINUOUS
  0
LAYER
  2
U3
 70
     0
 62
     6
  6
CONTINUOUS
  0
LAYER
  2
SUNPOU
 70
     0
 62
     4
  6
CONTINUOUS
  0
LAYER
  2
HIKIDASHI
 70
     0
 62
     6
  6
CONTINUOUS
  0
LAYER
  2
1PL-M1
 70
     0
 62
     6
  6
1PL-M
  0
LAYER
  2
NAME
 70
     0
 62
    20
  6
CONTINUOUS
  0
LAYER
  2
KERABA
 70
     0
 62
     3
  6
CONTINUOUS
  0
LAYER
  2
FILENAME
 70
     0
 62
     7
  6
CONTINUOUS
  0
LAYER
  2
YODOROGO
 70
     0
 62
   130
  6
CONTINUOUS
  0
LAYER
  2
WAKUSEN-01
 70
     0
 62
    50
  6
CONTINUOUS
  0
LAYER
  2
WAKUSEN-02
 70
     0
 62
   130
  6
CONTINUOUS
  0
LAYER
  2
WAKUMOJI-01
 70
     0
 62
   130
  6
CONTINUOUS
  0
LAYER
  2
下屋前桁
 70
     0
 62
     3
  6
CONTINUOUS
  0
LAYER
  2
U5
 70
     0
 62
     4
  6
CONTINUOUS
  0
LAYER
  2
TOI
 70
     0
 62
     3
  6
CONTINUOUS
  0
ENDTAB
  0
TABLE
  2
STYLE
 70
     5
  0
STYLE
  2
STANDARD
 70
     0
 40
3.0
 41
1.0
 50
0.0
 71
     0
 42
0.2
  3
ROMANS
  4
EXTFONT
  0
STYLE
  2
01
 70
     0
 40
3.0
 41
1.0
 50
0.0
 71
     0
 42
0.2
  3
ROMANS
  4
BIGFONT
  0
STYLE
  2
00
 70
     0
 40
0.0
 41
0.6666666666666666
 50
0.0
 71
     0
 42
0.2
  3
ROMANS
  4
BIGFONT
  0
STYLE
  2
FILENAME
 70
     0
 40
200.0
 41
1.0
 50
0.0
 71
     0
 42
200.0
  3
romans
  4
bigfont
  0
STYLE
  2
WAKUMOJI
 70
     0
 40
3.0
 41
1.0
 50
0.0
 71
     0
 42
3.0
  3
SIMPLEX
  4
BIGFONT
  0
ENDTAB
  0
TABLE
  2
VIEW
 70
     0
  0
ENDTAB
  0
TABLE
  2
UCS
 70
     0
  0
ENDTAB
  0
TABLE
  2
APPID
 70
    13
  0
APPID
  2
ACAD
 70
     0
  0
APPID
  2
AUTOCAD_POSTSCRIPT_FIGURE
 70
     0
  0
APPID
  2
CONTENTBLOCKICON
 70
     0
  0
APPID
  2
ACAD_PSEXT
 70
     0
  0
APPID
  2
ACAD_EXEMPT_FROM_CAD_STANDARDS
 70
     0
  0
APPID
  2
ACAD_NAV_VCDISPLAY
 70
     0
  0
APPID
  2
ACAECLAYERSTANDARD
 70
     0
  0
APPID
  2
ACCMTRANSPARENCY
 70
     0
  0
APPID
  2
ACLAYERTOOLS
 70
     0
  0
APPID
  2
GRADIENTCOLOR1ACI
 70
     0
  0
APPID
  2
GRADIENTCOLOR2ACI
 70
     0
  0
APPID
  2
AEC_XDATA_BOUND_SPACE
 70
     0
  0
APPID
  2
ACAD_MLEADERVER
 70
     0
  0
ENDTAB
  0
TABLE
  2
DIMSTYLE
 70
     4
  0
DIMSTYLE
  2
SUNPOU_申請図
 70
     0
  3

  4

  5
DOT
  6
DOT
  7
DOT
 40
80.0
 41
0.5
 42
1.0
 43
7.0
 44
1.0
 45
0.0
 46
3.0
 47
0.0
 48
0.0
140
2.0
141
0.0
142
0.0
143
25.399999999999999
144
1.0
145
0.0
146
1.0
147
1.0
 71
     0
 72
     0
 73
     0
 74
     0
 75
     0
 76
     0
 77
     1
 78
     8
170
     0
171
     2
172
     1
173
     1
174
     0
175
     0
176
   256
177
   256
178
   256
  0
ENDTAB
  0
ENDSEC
  0
SECTION
  2
BLOCKS
  0
BLOCK
  8
0
  2
$MODEL_SPACE
 70
     0
 10
0.0
 20
0.0
 30
0.0
  3
$MODEL_SPACE
  1

  0
ENDBLK
  5
125F7
  8
0
  0
BLOCK
 67
     1
  8
0
  2
$PAPER_SPACE
 70
     0
 10
0.0
 20
0.0
 30
0.0
  3
$PAPER_SPACE
  1

  0
ENDBLK
  5
125F5
 67
     1
  8
0
  0
BLOCK
  8
0
  2
DOT
 70
     0
 10
0.0
 20
0.0
 30
0.0
  3
DOT
  1

  0
POLYLINE
  5
12980
  8
0
  6
BYBLOCK
 62
     0
 66
     1
 10
0.0
 20
0.0
 30
0.0
 70
     1
 40
0.75
 41
0.75
  0
VERTEX
  5
760AF
  8
0
  6
BYBLOCK
 62
     0
 10
-0.375
 20
0.0
 30
0.0
 42
1.0
  0
VERTEX
  5
760B0
  8
0
  6
BYBLOCK
 62
     0
 10
0.375
 20
0.0
 30
0.0
 42
1.0
  0
SEQEND
  5
760B1
  8
0
  6
BYBLOCK
 62
     0
  0
LINE
  5
12981
  8
0
  6
BYBLOCK
 62
     0
 10
-0.75
 20
0.0
 30
0.0
 11
-1.5
 21
0.0
 31
0.0
  0
ENDBLK
  5
12982
  8
0
  0
ENDSEC
  0
SECTION
  2
ENTITIES
  0
TEXT
  5
591CB
  8
NAME
 10
21780.693652393769
 20
1877.7796840770311
 30
0.0
 40
360.0
  1
ヨ ド 倉 庫（下屋付き）
  7
01
  0
TEXT
  5
591CD
  8
NAME
 10
21605.457695437719
 20
1049.779684077017
 30
0.0
 40
340.0
  1
SOB-8657HB
 41
0.6400000000000001
  7
00
  0
TEXT
  5
591CE
  8
NAME
 10
23883.859666886681
 20
1050.2352588493079
 30
0.0
 40
340.0
  1
型（単棟）
 41
0.6400000000000001
  7
00
  0
TEXT
  5
598FC
  8
NAME
 10
25127.71276207015
 20
1049.779684077017
 30
0.0
 40
340.0
  1
+
 41
0.6400000000000001
  7
00
  0
TEXT
  5
598FD
  8
NAME
 10
25465.029220107899
 20
1050.2352588493079
 30
0.0
 40
340.0
  1
下屋
 41
0.6400000000000001
  7
00
  0
TEXT
  5
6C289
  8
HIKIDASHI
 10
15446.88740483039
 20
13118.121500361291
 30
0.0
 40
240.0
  1
正 面 立 面 図
  7
01
  0
TEXT
  5
6C2BA
  8
HIKIDASHI
 10
17943.922500677461
 20
13113.418721622669
 30
0.0
 40
160.0
  1
80
 41
0.6700000000000002
  7
00
  0
TEXT
  5
6C2BB
  8
HIKIDASHI
 10
17851.332191152182
 20
13165.754384023219
 30
0.0
 40
160.0
  1
/
 41
0.6700000000000002
  7
00
  0
TEXT
  5
6C2BC
  8
HIKIDASHI
 10
17423.64208354822
 20
13165.754384023219
 30
0.0
 40
160.0
  1
(S=
 41
0.6700000000000002
  7
00
  0
TEXT
  5
6C2BD
  8
HIKIDASHI
 10
17785.05791542356
 20
13196.87733951962
 30
0.0
 40
160.0
  1
1
 41
0.6700000000000002
  7
00
  0
TEXT
  5
6C2BE
  8
HIKIDASHI
 10
18186.77541280233
 20
13165.754384023219
 30
0.0
 40
160.0
  1
)
 41
0.6700000000000002
  7
00
  0
TEXT
  5
74686
  8
NAME
 10
26164.93975057283
 20
1050.2352588493161
 30
0.0
 40
340.0
  1
1/5
 41
0.6400000000000001
  7
00
  0
LINE
  5
751DD
  8
TOI
 10
11076.700000000021
 20
6679.3512883093053
 30
0.0
 11
11076.700000000021
 21
6689.3512883093072
 31
0.0
  0
LINE
  5
751DE
  8
TOI
 10
11186.700000000021
 20
6689.3512883093072
 30
0.0
 11
11076.700000000021
 21
6689.3512883093072
 31
0.0
  0
LINE
  5
751DF
  8
TOI
 10
11186.700000000021
 20
6679.3512883093053
 30
0.0
 11
11076.700000000021
 21
6679.3512883093053
 31
0.0
  0
LINE
  5
751E0
  8
KERABA
 10
14091.42785426009
 20
9625.814810388154
 30
0.0
 11
14076.65962675087
 21
9805.207952554294
 31
0.0
  0
LINE
  5
751E1
  8
TOI
 10
11081.700000000021
 20
9293.1498468246882
 30
0.0
 11
11141.700000000021
 21
9293.1498468246882
 31
0.0
  0
LINE
  5
751E4
  8
TOI
 10
11081.700000000021
 20
9323.1498468246864
 30
0.0
 11
11032.60910966033
 21
9331.8058952985593
 31
0.0
  0
ARC
  5
751E5
  8
TOI
 10
11091.700000000021
 20
9331.5408431364485
 30
0.0
 40
50.0
 50
0.0
 51
75.326571614878972
  0
LINE
  5
751E6
  8
TOI
 10
11081.700000000021
 20
9323.1498468246864
 30
0.0
 11
11091.5219314517
 21
9378.8527881001792
 31
0.0
  0
LINE
  5
751E7
  8
TOI
 10
11048.805117979129
 20
9375.3362009429984
 30
0.0
 11
11040.87262788364
 21
9330.3488140802219
 31
0.0
  0
ARC
  5
751E8
  8
TOI
 10
11041.29151854368
 20
9381.0462829491735
 30
0.0
 40
50.0
 50
191.95309128702959
 51
259.99999999951842
  0
LINE
  5
751E9
  8
KERABA
 10
17200.09355757515
 20
10062.33920262933
 30
0.0
 11
10953.225695924901
 21
9548.0767024790839
 31
0.0
  0
LINE
  5
751EA
  8
KERABA
 10
17237.272837275541
 20
10037.30520253027
 30
0.0
 11
10920.64097589401
 21
9517.2995027931611
 31
0.0
  0
LINE
  5
751EB
  8
KERABA
 10
17235.443671557128
 20
10035.147853978309
 30
0.0
 11
10922.79832444597
 21
9515.4703370747284
 31
0.0
  0
LINE
  5
751EC
  8
KERABA
 10
17236.264128640949
 20
10025.1815683024
 30
0.0
 11
10923.618781529791
 21
9505.5040513988497
 31
0.0
  0
LINE
  5
751ED
  8
KERABA
 10
17234.434962922551
 20
10023.02421975047
 30
0.0
 11
10925.776130081749
 21
9503.6748856804188
 31
0.0
  0
LINE
  5
751EE
  8
KERABA
 10
17235.255420006419
 20
10013.057934074561
 30
0.0
 11
10926.596587165621
 21
9493.7086000045383
 31
0.0
  0
LINE
  5
751EF
  8
KERABA
 10
17239.570117110281
 20
10009.399602637761
 30
0.0
 11
10922.938255728761
 21
9489.3939029006415
 31
0.0
  0
LINE
  5
751F0
  8
KERABA
 10
17242.311350927412
 20
9927.3478772618546
 30
0.0
 11
10933.65251808661
 21
9407.9985431918321
 31
0.0
  0
LINE
  5
751F1
  8
KERABA
 10
17243.320059562
 20
9939.4715114896971
 30
0.0
 11
10930.67471245084
 21
9419.7939945861435
 31
0.0
  0
LINE
  5
751F2
  8
KERABA
 10
17244.14051664581
 20
9929.5052258138185
 30
0.0
 11
10931.49516953465
 21
9409.8277089102321
 31
0.0
  0
LINE
  5
751F3
  8
KERABA
 10
17247.446505115149
 20
9913.7232601491414
 30
0.0
 11
10930.81464373362
 21
9393.7175604120257
 31
0.0
  0
LINE
  5
751F4
  8
KERABA
 10
17243.13180801128
 20
9917.3815915859741
 30
0.0
 11
10934.472975170491
 21
9398.0322575159225
 31
0.0
  0
LINE
  5
751F5
  8
KERABA
 10
17214.861785084249
 20
9882.9460604631895
 30
0.0
 11
10967.993923434011
 21
9368.683560312973
 31
0.0
  0
LINE
  5
751F6
  8
TOI
 10
11186.700000000021
 20
8893.1498468246864
 30
0.0
 11
11076.700000000021
 21
8893.1498468246864
 31
0.0
  0
LINE
  5
751F7
  8
TOI
 10
11186.700000000021
 20
8903.1498468246864
 30
0.0
 11
11076.700000000021
 21
8903.1498468246864
 31
0.0
  0
LINE
  5
751F8
  8
TOI
 10
11076.700000000021
 20
8893.1498468246864
 30
0.0
 11
11076.700000000021
 21
8903.1498468246864
 31
0.0
  0
LINE
  5
751F9
  8
TOI
 10
11076.700000000021
 20
7786.2512883093004
 30
0.0
 11
11076.700000000021
 21
7796.2512883093013
 31
0.0
  0
LINE
  5
751FA
  8
TOI
 10
11186.700000000021
 20
7796.2512883093013
 30
0.0
 11
11076.700000000021
 21
7796.2512883093013
 31
0.0
  0
LINE
  5
751FB
  8
TOI
 10
11186.700000000021
 20
7786.2512883093004
 30
0.0
 11
11076.700000000021
 21
7786.2512883093004
 31
0.0
  0
LINE
  5
751FC
  8
TOI
 10
11081.700000000021
 20
6325.2917521017798
 30
0.0
 11
11081.700000000021
 21
9323.1498468246864
 31
0.0
  0
LINE
  5
751FD
  8
TOI
 10
11141.700000000021
 20
6325.2917521017798
 30
0.0
 11
11081.700000000021
 21
6325.2917521017798
 31
0.0
  0
LINE
  5
751FE
  8
TOI
 10
11141.700000000021
 20
6325.2917521017798
 30
0.0
 11
11141.700000000021
 21
9331.5408431364485
 31
0.0
  0
LINE
  5
751FF
  8
U1
 10
16859.099999999929
 20
6285.2917521017798
 30
0.0
 11
16859.099999999929
 21
9853.6585920698853
 31
0.0
  0
LINE
  5
75200
  8
U1
 10
11385.40000000004
 20
6285.2917521017798
 30
0.0
 11
11189.40000000004
 21
6285.2917521017798
 31
0.0
  0
LINE
  5
75201
  8
U1
 10
11385.40000000004
 20
6285.2917521017798
 30
0.0
 11
11385.40000000004
 21
9403.0457874749118
 31
0.0
  0
LINE
  5
75202
  8
U1
 10
11189.40000000004
 20
6285.2917521017798
 30
0.0
 11
11189.40000000004
 21
9386.9104293623677
 31
0.0
  0
LINE
  5
75203
  8
U3
 10
15256.500000000009
 20
6285.2917521017798
 30
0.0
 11
15256.500000000009
 21
9721.7273425219901
 31
0.0
  0
LINE
  5
75204
  8
U3
 10
15260.500000000009
 20
6285.2917521017798
 30
0.0
 11
15260.500000000009
 21
9722.0566355447099
 31
0.0
  0
LINE
  5
75205
  8
U3
 10
15274.500000000009
 20
6285.2917521017798
 30
0.0
 11
15274.500000000009
 21
9723.2091611241794
 31
0.0
  0
LINE
  5
75206
  8
U3
 10
15303.000000000009
 20
6285.2917521017798
 30
0.0
 11
15303.000000000009
 21
9725.5553739109746
 31
0.0
  0
LINE
  5
75207
  8
U3
 10
15305.000000000009
 20
6285.2917521017798
 30
0.0
 11
15305.000000000009
 21
9725.7200204223209
 31
0.0
  0
LINE
  5
75208
  8
U3
 10
15387.000000000009
 20
6285.2917521017798
 30
0.0
 11
15387.000000000009
 21
9732.4705273878208
 31
0.0
  0
LINE
  5
75209
  8
U3
 10
15385.000000000009
 20
6285.2917521017798
 30
0.0
 11
15385.000000000009
 21
9732.3058808764763
 31
0.0
  0
LINE
  5
7520A
  8
U3
 10
15415.500000000009
 20
6285.2917521017798
 30
0.0
 11
15415.500000000009
 21
9734.8167401746177
 31
0.0
  0
LINE
  5
7520B
  8
U3
 10
15429.500000000009
 20
6285.2917521017798
 30
0.0
 11
15429.500000000009
 21
9735.9692657540872
 31
0.0
  0
LINE
  5
7520C
  8
U3
 10
15433.500000000009
 20
6285.2917521017798
 30
0.0
 11
15433.500000000009
 21
9736.2985587768053
 31
0.0
  0
LINE
  5
7520D
  8
U3
 10
15633.500000000009
 20
6285.2917521017798
 30
0.0
 11
15633.500000000009
 21
9752.7632099121547
 31
0.0
  0
LINE
  5
7520E
  8
U3
 10
15629.500000000009
 20
6285.2917521017798
 30
0.0
 11
15629.500000000009
 21
9752.4339168894658
 31
0.0
  0
LINE
  5
7520F
  8
U3
 10
15615.500000000009
 20
6285.2917521017798
 30
0.0
 11
15615.500000000009
 21
9751.2813913099671
 31
0.0
  0
LINE
  5
75210
  8
U3
 10
15585.000000000009
 20
6285.2917521017798
 30
0.0
 11
15585.000000000009
 21
9748.7705320118257
 31
0.0
  0
LINE
  5
75211
  8
U3
 10
15587.000000000009
 20
6285.2917521017798
 30
0.0
 11
15587.000000000009
 21
9748.9351785231993
 31
0.0
  0
LINE
  5
75212
  8
U3
 10
15505.000000000009
 20
6285.2917521017798
 30
0.0
 11
15505.000000000009
 21
9742.1846715576976
 31
0.0
  0
LINE
  5
75213
  8
U3
 10
15503.000000000009
 20
6285.2917521017798
 30
0.0
 11
15503.000000000009
 21
9742.020025046324
 31
0.0
  0
LINE
  5
75214
  8
U3
 10
15474.500000000009
 20
6285.2917521017798
 30
0.0
 11
15474.500000000009
 21
9739.6738122595561
 31
0.0
  0
LINE
  5
75215
  8
U3
 10
15460.500000000009
 20
6285.2917521017798
 30
0.0
 11
15460.500000000009
 21
9738.5212866800575
 31
0.0
  0
LINE
  5
75216
  8
U3
 10
15456.500000000009
 20
6285.2917521017798
 30
0.0
 11
15456.500000000009
 21
9738.1919936573704
 31
0.0
  0
LINE
  5
75217
  8
U3
 10
15656.500000000009
 20
6285.2917521017798
 30
0.0
 11
15656.500000000009
 21
9754.6566447927162
 31
0.0
  0
LINE
  5
75218
  8
U3
 10
15660.500000000009
 20
6285.2917521017798
 30
0.0
 11
15660.500000000009
 21
9754.9859378154379
 31
0.0
  0
LINE
  5
75219
  8
U3
 10
15674.500000000009
 20
6285.2917521017798
 30
0.0
 11
15674.500000000009
 21
9756.1384633949056
 31
0.0
  0
LINE
  5
7521A
  8
U3
 10
15703.000000000009
 20
6285.2917521017798
 30
0.0
 11
15703.000000000009
 21
9758.4846761817025
 31
0.0
  0
LINE
  5
7521B
  8
U3
 10
15705.000000000009
 20
6285.2917521017798
 30
0.0
 11
15705.000000000009
 21
9758.649322693047
 31
0.0
  0
LINE
  5
7521C
  8
U3
 10
15787.000000000009
 20
6285.2917521017798
 30
0.0
 11
15787.000000000009
 21
9765.3998296585487
 31
0.0
  0
LINE
  5
7521D
  8
U3
 10
15785.000000000009
 20
6285.2917521017798
 30
0.0
 11
15785.000000000009
 21
9765.2351831472042
 31
0.0
  0
LINE
  5
7521E
  8
U3
 10
15815.500000000009
 20
6285.2917521017798
 30
0.0
 11
15815.500000000009
 21
9767.7460424453457
 31
0.0
  0
LINE
  5
7521F
  8
U3
 10
15829.500000000009
 20
6285.2917521017798
 30
0.0
 11
15829.500000000009
 21
9768.8985680248152
 31
0.0
  0
LINE
  5
75220
  8
U3
 10
15833.500000000009
 20
6285.2917521017798
 30
0.0
 11
15833.500000000009
 21
9769.2278610475332
 31
0.0
  0
LINE
  5
75221
  8
U3
 10
16033.500000000009
 20
6285.2917521017798
 30
0.0
 11
16033.500000000009
 21
9785.6925121828826
 31
0.0
  0
LINE
  5
75222
  8
U3
 10
16029.500000000009
 20
6285.2917521017798
 30
0.0
 11
16029.500000000009
 21
9785.3632191601955
 31
0.0
  0
LINE
  5
75223
  8
U3
 10
16015.500000000009
 20
6285.2917521017798
 30
0.0
 11
16015.500000000009
 21
9784.2106935806969
 31
0.0
  0
LINE
  5
75224
  8
U3
 10
15985.000000000009
 20
6285.2917521017798
 30
0.0
 11
15985.000000000009
 21
9781.6998342825555
 31
0.0
  0
LINE
  5
75225
  8
U3
 10
15987.000000000009
 20
6285.2917521017798
 30
0.0
 11
15987.000000000009
 21
9781.8644807939272
 31
0.0
  0
LINE
  5
75226
  8
U3
 10
15905.000000000009
 20
6285.2917521017798
 30
0.0
 11
15905.000000000009
 21
9775.1139738284255
 31
0.0
  0
LINE
  5
75227
  8
U3
 10
15903.000000000009
 20
6285.2917521017798
 30
0.0
 11
15903.000000000009
 21
9774.9493273170519
 31
0.0
  0
LINE
  5
75228
  8
U3
 10
15874.500000000009
 20
6285.2917521017798
 30
0.0
 11
15874.500000000009
 21
9772.6031145302841
 31
0.0
  0
LINE
  5
75229
  8
U3
 10
15860.500000000009
 20
6285.2917521017798
 30
0.0
 11
15860.500000000009
 21
9771.4505889507855
 31
0.0
  0
LINE
  5
7522A
  8
U3
 10
15856.500000000009
 20
6285.2917521017798
 30
0.0
 11
15856.500000000009
 21
9771.1212959280965
 31
0.0
  0
LINE
  5
7522B
  8
U3
 10
16656.500000000011
 20
6285.2917521017798
 30
0.0
 11
16656.500000000011
 21
9836.9799004695524
 31
0.0
  0
LINE
  5
7522C
  8
U3
 10
16660.500000000011
 20
6285.2917521017798
 30
0.0
 11
16660.500000000011
 21
9837.3091934922413
 31
0.0
  0
LINE
  5
7522D
  8
U3
 10
16674.500000000011
 20
6285.2917521017798
 30
0.0
 11
16674.500000000011
 21
9838.4617190717418
 31
0.0
  0
LINE
  5
7522E
  8
U3
 10
16703.000000000011
 20
6285.2917521017798
 30
0.0
 11
16703.000000000011
 21
9840.8079318585078
 31
0.0
  0
LINE
  5
7522F
  8
U3
 10
16705.000000000011
 20
6285.2917521017798
 30
0.0
 11
16705.000000000011
 21
9840.9725783698814
 31
0.0
  0
LINE
  5
75230
  8
U3
 10
16633.500000000011
 20
6285.2917521017798
 30
0.0
 11
16633.500000000011
 21
9835.0864655889909
 31
0.0
  0
LINE
  5
75231
  8
U3
 10
16629.500000000011
 20
6285.2917521017798
 30
0.0
 11
16629.500000000011
 21
9834.7571725662729
 31
0.0
  0
LINE
  5
75232
  8
U3
 10
16615.500000000011
 20
6285.2917521017798
 30
0.0
 11
16615.500000000011
 21
9833.6046469868033
 31
0.0
  0
LINE
  5
75233
  8
U3
 10
16585.000000000011
 20
6285.2917521017798
 30
0.0
 11
16585.000000000011
 21
9831.0937876886601
 31
0.0
  0
LINE
  5
75234
  8
U3
 10
16587.000000000011
 20
6285.2917521017798
 30
0.0
 11
16587.000000000011
 21
9831.2584342000046
 31
0.0
  0
LINE
  5
75235
  8
U3
 10
16505.000000000011
 20
6285.2917521017798
 30
0.0
 11
16505.000000000011
 21
9824.5079272345047
 31
0.0
  0
LINE
  5
75236
  8
U3
 10
16503.000000000011
 20
6285.2917521017798
 30
0.0
 11
16503.000000000011
 21
9824.3432807231584
 31
0.0
  0
LINE
  5
75237
  8
U3
 10
16474.500000000011
 20
6285.2917521017798
 30
0.0
 11
16474.500000000011
 21
9821.9970679363614
 31
0.0
  0
LINE
  5
75238
  8
U3
 10
16460.500000000011
 20
6285.2917521017798
 30
0.0
 11
16460.500000000011
 21
9820.8445423568919
 31
0.0
  0
LINE
  5
75239
  8
U3
 10
16456.500000000011
 20
6285.2917521017798
 30
0.0
 11
16456.500000000011
 21
9820.5152493341739
 31
0.0
  0
LINE
  5
7523A
  8
U3
 10
16256.500000000009
 20
6285.2917521017798
 30
0.0
 11
16256.500000000009
 21
9804.0505981988244
 31
0.0
  0
LINE
  5
7523B
  8
U3
 10
16260.500000000009
 20
6285.2917521017798
 30
0.0
 11
16260.500000000009
 21
9804.3798912215152
 31
0.0
  0
LINE
  5
7523C
  8
U3
 10
16274.500000000009
 20
6285.2917521017798
 30
0.0
 11
16274.500000000009
 21
9805.532416801012
 31
0.0
  0
LINE
  5
7523D
  8
U3
 10
16303.000000000009
 20
6285.2917521017798
 30
0.0
 11
16303.000000000009
 21
9807.8786295877817
 31
0.0
  0
LINE
  5
7523E
  8
U3
 10
16305.000000000009
 20
6285.2917521017798
 30
0.0
 11
16305.000000000009
 21
9808.0432760991553
 31
0.0
  0
LINE
  5
7523F
  8
U3
 10
16387.000000000011
 20
6285.2917521017798
 30
0.0
 11
16387.000000000011
 21
9814.7937830646551
 31
0.0
  0
LINE
  5
75240
  8
U3
 10
16385.000000000011
 20
6285.2917521017798
 30
0.0
 11
16385.000000000011
 21
9814.6291365532816
 31
0.0
  0
LINE
  5
75241
  8
U3
 10
16415.500000000011
 20
6285.2917521017798
 30
0.0
 11
16415.500000000011
 21
9817.139995851423
 31
0.0
  0
LINE
  5
75242
  8
U3
 10
16429.500000000011
 20
6285.2917521017798
 30
0.0
 11
16429.500000000011
 21
9818.2925214309216
 31
0.0
  0
LINE
  5
75243
  8
U3
 10
16433.500000000011
 20
6285.2917521017798
 30
0.0
 11
16433.500000000011
 21
9818.6218144536124
 31
0.0
  0
LINE
  5
75244
  8
U3
 10
16233.500000000009
 20
6285.2917521017798
 30
0.0
 11
16233.500000000009
 21
9802.157163318263
 31
0.0
  0
LINE
  5
75245
  8
U3
 10
16229.500000000009
 20
6285.2917521017798
 30
0.0
 11
16229.500000000009
 21
9801.8278702955431
 31
0.0
  0
LINE
  5
75246
  8
U3
 10
16215.500000000009
 20
6285.2917521017798
 30
0.0
 11
16215.500000000009
 21
9800.6753447160736
 31
0.0
  0
LINE
  5
75247
  8
U3
 10
16185.000000000009
 20
6285.2917521017798
 30
0.0
 11
16185.000000000009
 21
9798.1644854179322
 31
0.0
  0
LINE
  5
75248
  8
U3
 10
16187.000000000009
 20
6285.2917521017798
 30
0.0
 11
16187.000000000009
 21
9798.3291319292784
 31
0.0
  0
LINE
  5
75249
  8
U3
 10
16105.000000000009
 20
6285.2917521017798
 30
0.0
 11
16105.000000000009
 21
9791.5786249637767
 31
0.0
  0
LINE
  5
7524A
  8
U3
 10
16103.000000000009
 20
6285.2917521017798
 30
0.0
 11
16103.000000000009
 21
9791.4139784524323
 31
0.0
  0
LINE
  5
7524B
  8
U3
 10
16074.500000000009
 20
6285.2917521017798
 30
0.0
 11
16074.500000000009
 21
9789.0677656656353
 31
0.0
  0
LINE
  5
7524C
  8
U3
 10
16060.500000000009
 20
6285.2917521017798
 30
0.0
 11
16060.500000000009
 21
9787.915240086164
 31
0.0
  0
LINE
  5
7524D
  8
U3
 10
16056.500000000009
 20
6285.2917521017798
 30
0.0
 11
16056.500000000009
 21
9787.5859470634477
 31
0.0
  0
LINE
  5
7524E
  8
U3
 10
14456.500000000009
 20
6285.2917521017798
 30
0.0
 11
14456.500000000009
 21
9655.8687379805342
 31
0.0
  0
LINE
  5
7524F
  8
U3
 10
15185.000000000009
 20
6285.2917521017798
 30
0.0
 11
15185.000000000009
 21
9715.8412297410978
 31
0.0
  0
LINE
  5
75250
  8
U3
 10
15187.000000000009
 20
6285.2917521017798
 30
0.0
 11
15187.000000000009
 21
9716.0058762524714
 31
0.0
  0
LINE
  5
75251
  8
U3
 10
15229.500000000009
 20
6285.2917521017798
 30
0.0
 11
15229.500000000009
 21
9719.5046146187378
 31
0.0
  0
LINE
  5
75252
  8
U3
 10
15233.500000000009
 20
6285.2917521017798
 30
0.0
 11
15233.500000000009
 21
9719.8339076414286
 31
0.0
  0
LINE
  5
75253
  8
U3
 10
15215.500000000009
 20
6285.2917521017798
 30
0.0
 11
15215.500000000009
 21
9718.352089039241
 31
0.0
  0
LINE
  5
75254
  8
U3
 10
14985.000000000009
 20
6285.2917521017798
 30
0.0
 11
14985.000000000009
 21
9699.3765786057484
 31
0.0
  0
LINE
  5
75255
  8
U3
 10
14987.000000000009
 20
6285.2917521017798
 30
0.0
 11
14987.000000000009
 21
9699.5412251170947
 31
0.0
  0
LINE
  5
75256
  8
U3
 10
15015.500000000009
 20
6285.2917521017798
 30
0.0
 11
15015.500000000009
 21
9701.8874379038916
 31
0.0
  0
LINE
  5
75257
  8
U3
 10
15029.500000000009
 20
6285.2917521017798
 30
0.0
 11
15029.500000000009
 21
9703.0399634833611
 31
0.0
  0
LINE
  5
75258
  8
U3
 10
15033.500000000009
 20
6285.2917521017798
 30
0.0
 11
15033.500000000009
 21
9703.3692565060774
 31
0.0
  0
LINE
  5
75259
  8
U3
 10
15060.500000000009
 20
6285.2917521017798
 30
0.0
 11
15060.500000000009
 21
9705.5919844093314
 31
0.0
  0
LINE
  5
7525A
  8
U3
 10
15056.500000000009
 20
6285.2917521017798
 30
0.0
 11
15056.500000000009
 21
9705.2626913866407
 31
0.0
  0
LINE
  5
7525B
  8
U3
 10
15074.500000000009
 20
6285.2917521017798
 30
0.0
 11
15074.500000000009
 21
9706.74450998883
 31
0.0
  0
LINE
  5
7525C
  8
U3
 10
15105.000000000009
 20
6285.2917521017798
 30
0.0
 11
15105.000000000009
 21
9709.2553692869715
 31
0.0
  0
LINE
  5
7525D
  8
U3
 10
15103.000000000009
 20
6285.2917521017798
 30
0.0
 11
15103.000000000009
 21
9709.0907227755979
 31
0.0
  0
LINE
  5
7525E
  8
U3
 10
14903.000000000009
 20
6285.2917521017798
 30
0.0
 11
14903.000000000009
 21
9692.6260716402485
 31
0.0
  0
LINE
  5
7525F
  8
U3
 10
14860.500000000009
 20
6285.2917521017798
 30
0.0
 11
14860.500000000009
 21
9689.1273332739802
 31
0.0
  0
LINE
  5
75260
  8
U3
 10
14874.500000000009
 20
6285.2917521017798
 30
0.0
 11
14874.500000000009
 21
9690.2798588534497
 31
0.0
  0
LINE
  5
75261
  8
U3
 10
14905.000000000009
 20
6285.2917521017798
 30
0.0
 11
14905.000000000009
 21
9692.7907181515911
 31
0.0
  0
LINE
  5
75262
  8
U3
 10
14856.500000000009
 20
6285.2917521017798
 30
0.0
 11
14856.500000000009
 21
9688.7980402512621
 31
0.0
  0
LINE
  5
75263
  8
U3
 10
14833.500000000009
 20
6285.2917521017798
 30
0.0
 11
14833.500000000009
 21
9686.9046053706988
 31
0.0
  0
LINE
  5
75264
  8
U3
 10
14829.500000000009
 20
6285.2917521017798
 30
0.0
 11
14829.500000000009
 21
9686.5753123480117
 31
0.0
  0
LINE
  5
75265
  8
U3
 10
14815.500000000009
 20
6285.2917521017798
 30
0.0
 11
14815.500000000009
 21
9685.4227867685113
 31
0.0
  0
LINE
  5
75266
  8
U3
 10
14785.000000000009
 20
6285.2917521017798
 30
0.0
 11
14785.000000000009
 21
9682.9119274703717
 31
0.0
  0
LINE
  5
75267
  8
U3
 10
14787.000000000009
 20
6285.2917521017798
 30
0.0
 11
14787.000000000009
 21
9683.0765739817434
 31
0.0
  0
LINE
  5
75268
  8
U3
 10
14705.000000000009
 20
6285.2917521017798
 30
0.0
 11
14705.000000000009
 21
9676.3260670162417
 31
0.0
  0
LINE
  5
75269
  8
U3
 10
14703.000000000009
 20
6285.2917521017798
 30
0.0
 11
14703.000000000009
 21
9676.1614205048681
 31
0.0
  0
LINE
  5
7526A
  8
U3
 10
14660.500000000009
 20
6285.2917521017798
 30
0.0
 11
14660.500000000009
 21
9672.6626821386017
 31
0.0
  0
LINE
  5
7526B
  8
U3
 10
14674.500000000009
 20
6285.2917521017798
 30
0.0
 11
14674.500000000009
 21
9673.8152077180985
 31
0.0
  0
LINE
  5
7526C
  8
U3
 10
14656.500000000009
 20
6285.2917521017798
 30
0.0
 11
14656.500000000009
 21
9672.3333891159127
 31
0.0
  0
LINE
  5
7526D
  8
U3
 10
14633.500000000009
 20
6285.2917521017798
 30
0.0
 11
14633.500000000009
 21
9670.4399542353494
 31
0.0
  0
LINE
  5
7526E
  8
U3
 10
14629.500000000009
 20
6285.2917521017798
 30
0.0
 11
14629.500000000009
 21
9670.1106612126314
 31
0.0
  0
LINE
  5
7526F
  8
U3
 10
14615.500000000009
 20
6285.2917521017798
 30
0.0
 11
14615.500000000009
 21
9668.9581356331619
 31
0.0
  0
LINE
  5
75270
  8
U3
 10
14587.000000000009
 20
6285.2917521017798
 30
0.0
 11
14587.000000000009
 21
9666.6119228463667
 31
0.0
  0
LINE
  5
75271
  8
U3
 10
14585.000000000009
 20
6285.2917521017798
 30
0.0
 11
14585.000000000009
 21
9666.4472763350204
 31
0.0
  0
LINE
  5
75272
  8
U3
 10
14503.000000000009
 20
6285.2917521017798
 30
0.0
 11
14503.000000000009
 21
9659.6967693695187
 31
0.0
  0
LINE
  5
75273
  8
U3
 10
14505.000000000009
 20
6285.2917521017798
 30
0.0
 11
14505.000000000009
 21
9659.8614158808632
 31
0.0
  0
LINE
  5
75274
  8
U3
 10
14460.500000000009
 20
6285.2917521017798
 30
0.0
 11
14460.500000000009
 21
9656.1980310032523
 31
0.0
  0
LINE
  5
75275
  8
U3
 10
14474.500000000009
 20
6285.2917521017798
 30
0.0
 11
14474.500000000009
 21
9657.3505565827218
 31
0.0
  0
LINE
  5
75276
  8
U3
 10
14303.000000000009
 20
6285.2917521017798
 30
0.0
 11
14303.000000000009
 21
9643.2321182341402
 31
0.0
  0
LINE
  5
75277
  8
U3
 10
14305.000000000009
 20
6285.2917521017798
 30
0.0
 11
14305.000000000009
 21
9643.3967647455138
 31
0.0
  0
LINE
  5
75278
  8
U3
 10
14274.500000000009
 20
6285.2917521017798
 30
0.0
 11
14274.500000000009
 21
9640.8859054473724
 31
0.0
  0
LINE
  5
75279
  8
U3
 10
14256.500000000009
 20
6285.2917521017798
 30
0.0
 11
14256.500000000009
 21
9639.4040868451866
 31
0.0
  0
LINE
  5
7527A
  8
U3
 10
14260.500000000009
 20
6285.2917521017798
 30
0.0
 11
14260.500000000009
 21
9639.7333798678756
 31
0.0
  0
LINE
  5
7527B
  8
U3
 10
14233.500000000009
 20
6285.2917521017798
 30
0.0
 11
14233.500000000009
 21
9637.5106519646233
 31
0.0
  0
LINE
  5
7527C
  8
U3
 10
14229.500000000009
 20
6285.2917521017798
 30
0.0
 11
14229.500000000009
 21
9637.1813589419035
 31
0.0
  0
LINE
  5
7527D
  8
U3
 10
14215.500000000009
 20
6285.2917521017798
 30
0.0
 11
14215.500000000009
 21
9636.0288333624339
 31
0.0
  0
LINE
  5
7527E
  8
U3
 10
14187.000000000009
 20
6285.2917521017798
 30
0.0
 11
14187.000000000009
 21
9633.682620575637
 31
0.0
  0
LINE
  5
7527F
  8
U3
 10
14185.000000000009
 20
6285.2917521017798
 30
0.0
 11
14185.000000000009
 21
9633.5179740642925
 31
0.0
  0
LINE
  5
75280
  8
U3
 10
14415.500000000009
 20
6285.2917521017798
 30
0.0
 11
14415.500000000009
 21
9652.4934844977834
 31
0.0
  0
LINE
  5
75281
  8
U3
 10
14433.500000000009
 20
6285.2917521017798
 30
0.0
 11
14433.500000000009
 21
9653.9753030999691
 31
0.0
  0
LINE
  5
75282
  8
U3
 10
14429.500000000009
 20
6285.2917521017798
 30
0.0
 11
14429.500000000009
 21
9653.6460100772838
 31
0.0
  0
LINE
  5
75283
  8
U3
 10
14387.000000000009
 20
6285.2917521017798
 30
0.0
 11
14387.000000000009
 21
9650.1472717110155
 31
0.0
  0
LINE
  5
75284
  8
U3
 10
14385.000000000009
 20
6285.2917521017798
 30
0.0
 11
14385.000000000009
 21
9649.9826251996419
 31
0.0
  0
LINE
  5
75285
  8
U3
 10
13674.500000000009
 20
6285.2917521017798
 30
0.0
 11
13674.500000000009
 21
9591.4919520412659
 31
0.0
  0
LINE
  5
75286
  8
U3
 10
13660.500000000009
 20
6285.2917521017798
 30
0.0
 11
13660.500000000009
 21
9590.3394264617964
 31
0.0
  0
LINE
  5
75287
  8
U3
 10
13705.000000000009
 20
6285.2917521017798
 30
0.0
 11
13705.000000000009
 21
9594.0028113394073
 31
0.0
  0
LINE
  5
75288
  8
U3
 10
13703.000000000009
 20
6285.2917521017798
 30
0.0
 11
13703.000000000009
 21
9593.8381648280629
 31
0.0
  0
LINE
  5
75289
  8
U3
 10
13785.000000000009
 20
6285.2917521017798
 30
0.0
 11
13785.000000000009
 21
9600.5886717935664
 31
0.0
  0
LINE
  5
7528A
  8
U3
 10
13787.000000000009
 20
6285.2917521017798
 30
0.0
 11
13787.000000000009
 21
9600.7533183049109
 31
0.0
  0
LINE
  5
7528B
  8
U3
 10
13815.500000000009
 20
6285.2917521017798
 30
0.0
 11
13815.500000000009
 21
9603.0995310917078
 31
0.0
  0
LINE
  5
7528C
  8
U3
 10
13829.500000000009
 20
6285.2917521017798
 30
0.0
 11
13829.500000000009
 21
9604.2520566711755
 31
0.0
  0
LINE
  5
7528D
  8
U3
 10
13833.500000000009
 20
6285.2917521017798
 30
0.0
 11
13833.500000000009
 21
9604.5813496938936
 31
0.0
  0
LINE
  5
7528E
  8
U3
 10
13856.500000000009
 20
6285.2917521017798
 30
0.0
 11
13856.500000000009
 21
9606.4747845744587
 31
0.0
  0
LINE
  5
7528F
  8
U3
 10
13874.500000000009
 20
6285.2917521017798
 30
0.0
 11
13874.500000000009
 21
9607.9566031766462
 31
0.0
  0
LINE
  5
75290
  8
U3
 10
13860.500000000009
 20
6285.2917521017798
 30
0.0
 11
13860.500000000009
 21
9606.8040775971749
 31
0.0
  0
LINE
  5
75291
  8
U3
 10
13903.000000000009
 20
6285.2917521017798
 30
0.0
 11
13903.000000000009
 21
9610.3028159634123
 31
0.0
  0
LINE
  5
75292
  8
U3
 10
13905.000000000009
 20
6285.2917521017798
 30
0.0
 11
13905.000000000009
 21
9610.4674624747877
 31
0.0
  0
LINE
  5
75293
  8
U3
 10
13987.000000000009
 20
6285.2917521017798
 30
0.0
 11
13987.000000000009
 21
9617.2179694402876
 31
0.0
  0
LINE
  5
75294
  8
U3
 10
13985.000000000009
 20
6285.2917521017798
 30
0.0
 11
13985.000000000009
 21
9617.0533229289158
 31
0.0
  0
LINE
  5
75295
  8
U3
 10
14015.500000000009
 20
6285.2917521017798
 30
0.0
 11
14015.500000000009
 21
9619.5641822270572
 31
0.0
  0
LINE
  5
75296
  8
U3
 10
14029.500000000009
 20
6285.2917521017798
 30
0.0
 11
14029.500000000009
 21
9620.716707806554
 31
0.0
  0
LINE
  5
75297
  8
U3
 10
14033.500000000009
 20
6285.2917521017798
 30
0.0
 11
14033.500000000009
 21
9621.046000829243
 31
0.0
  0
LINE
  5
75298
  8
U3
 10
14056.500000000009
 20
6285.2917521017798
 30
0.0
 11
14056.500000000009
 21
9622.9394357098063
 31
0.0
  0
LINE
  5
75299
  8
U3
 10
14105.000000000009
 20
6285.2917521017798
 30
0.0
 11
14105.000000000009
 21
9626.9321136101353
 31
0.0
  0
LINE
  5
7529A
  8
U3
 10
14074.500000000009
 20
6285.2917521017798
 30
0.0
 11
14074.500000000009
 21
9624.4212543119957
 31
0.0
  0
LINE
  5
7529B
  8
U3
 10
14060.500000000009
 20
6285.2917521017798
 30
0.0
 11
14060.500000000009
 21
9623.2687287325261
 31
0.0
  0
LINE
  5
7529C
  8
U3
 10
14103.000000000009
 20
6285.2917521017798
 30
0.0
 11
14103.000000000009
 21
9626.7674670987926
 31
0.0
  0
LINE
  5
7529D
  8
U3
 10
13656.500000000009
 20
6285.2917521017798
 30
0.0
 11
13656.500000000009
 21
9590.0101334390765
 31
0.0
  0
LINE
  5
7529E
  8
U3
 10
12856.500000000009
 20
6285.2917521017798
 30
0.0
 11
12856.500000000009
 21
9524.1515288976243
 31
0.0
  0
LINE
  5
7529F
  8
U3
 10
13303.000000000009
 20
6285.2917521017798
 30
0.0
 11
13303.000000000009
 21
9560.9088625573349
 31
0.0
  0
LINE
  5
752A0
  8
U3
 10
13260.500000000009
 20
6285.2917521017798
 30
0.0
 11
13260.500000000009
 21
9557.4101241910685
 31
0.0
  0
LINE
  5
752A1
  8
U3
 10
13274.500000000009
 20
6285.2917521017798
 30
0.0
 11
13274.500000000009
 21
9558.562649770538
 31
0.0
  0
LINE
  5
752A2
  8
U3
 10
13305.000000000009
 20
6285.2917521017798
 30
0.0
 11
13305.000000000009
 21
9561.0735090686794
 31
0.0
  0
LINE
  5
752A3
  8
U3
 10
13256.500000000009
 20
6285.2917521017798
 30
0.0
 11
13256.500000000009
 21
9557.0808311683504
 31
0.0
  0
LINE
  5
752A4
  8
U3
 10
13233.500000000009
 20
6285.2917521017798
 30
0.0
 11
13233.500000000009
 21
9555.1873962877871
 31
0.0
  0
LINE
  5
752A5
  8
U3
 10
13229.500000000009
 20
6285.2917521017798
 30
0.0
 11
13229.500000000009
 21
9554.8581032650982
 31
0.0
  0
LINE
  5
752A6
  8
U3
 10
13215.500000000009
 20
6285.2917521017798
 30
0.0
 11
13215.500000000009
 21
9553.7055776855996
 31
0.0
  0
LINE
  5
752A7
  8
U3
 10
13185.000000000009
 20
6285.2917521017798
 30
0.0
 11
13185.000000000009
 21
9551.1947183874581
 31
0.0
  0
LINE
  5
752A8
  8
U3
 10
13187.000000000009
 20
6285.2917521017798
 30
0.0
 11
13187.000000000009
 21
9551.3593648988317
 31
0.0
  0
LINE
  5
752A9
  8
U3
 10
13105.000000000009
 20
6285.2917521017798
 30
0.0
 11
13105.000000000009
 21
9544.6088579333318
 31
0.0
  0
LINE
  5
752AA
  8
U3
 10
13103.000000000009
 20
6285.2917521017798
 30
0.0
 11
13103.000000000009
 21
9544.4442114219564
 31
0.0
  0
LINE
  5
752AB
  8
U3
 10
13060.500000000009
 20
6285.2917521017798
 30
0.0
 11
13060.500000000009
 21
9540.945473055719
 31
0.0
  0
LINE
  5
752AC
  8
U3
 10
13074.500000000009
 20
6285.2917521017798
 30
0.0
 11
13074.500000000009
 21
9542.0979986351886
 31
0.0
  0
LINE
  5
752AD
  8
U3
 10
13056.500000000009
 20
6285.2917521017798
 30
0.0
 11
13056.500000000009
 21
9540.616180033001
 31
0.0
  0
LINE
  5
752AE
  8
U3
 10
13033.500000000009
 20
6285.2917521017798
 30
0.0
 11
13033.500000000009
 21
9538.7227451524395
 31
0.0
  0
LINE
  5
752AF
  8
U3
 10
13029.500000000009
 20
6285.2917521017798
 30
0.0
 11
13029.500000000009
 21
9538.3934521297197
 31
0.0
  0
LINE
  5
752B0
  8
U3
 10
13015.500000000009
 20
6285.2917521017798
 30
0.0
 11
13015.500000000009
 21
9537.2409265502502
 31
0.0
  0
LINE
  5
752B1
  8
U3
 10
12987.000000000009
 20
6285.2917521017798
 30
0.0
 11
12987.000000000009
 21
9534.8947137634532
 31
0.0
  0
LINE
  5
752B2
  8
U3
 10
12985.000000000009
 20
6285.2917521017798
 30
0.0
 11
12985.000000000009
 21
9534.7300672521087
 31
0.0
  0
LINE
  5
752B3
  8
U3
 10
12903.000000000009
 20
6285.2917521017798
 30
0.0
 11
12903.000000000009
 21
9527.9795602866088
 31
0.0
  0
LINE
  5
752B4
  8
U3
 10
12905.000000000009
 20
6285.2917521017798
 30
0.0
 11
12905.000000000009
 21
9528.1442067979515
 31
0.0
  0
LINE
  5
752B5
  8
U3
 10
12860.500000000009
 20
6285.2917521017798
 30
0.0
 11
12860.500000000009
 21
9524.4808219203405
 31
0.0
  0
LINE
  5
752B6
  8
U3
 10
12874.500000000009
 20
6285.2917521017798
 30
0.0
 11
12874.500000000009
 21
9525.6333474998119
 31
0.0
  0
LINE
  5
752B7
  8
U3
 10
13585.000000000009
 20
6285.2917521017798
 30
0.0
 11
13585.000000000009
 21
9584.1240206581842
 31
0.0
  0
LINE
  5
752B8
  8
U3
 10
13587.000000000009
 20
6285.2917521017798
 30
0.0
 11
13587.000000000009
 21
9584.2886671695596
 31
0.0
  0
LINE
  5
752B9
  8
U3
 10
13629.500000000009
 20
6285.2917521017798
 30
0.0
 11
13629.500000000009
 21
9587.7874055358243
 31
0.0
  0
LINE
  5
752BA
  8
U3
 10
13633.500000000009
 20
6285.2917521017798
 30
0.0
 11
13633.500000000009
 21
9588.1166985585151
 31
0.0
  0
LINE
  5
752BB
  8
U3
 10
13615.500000000009
 20
6285.2917521017798
 30
0.0
 11
13615.500000000009
 21
9586.6348799563275
 31
0.0
  0
LINE
  5
752BC
  8
U3
 10
13385.000000000009
 20
6285.2917521017798
 30
0.0
 11
13385.000000000009
 21
9567.6593695228366
 31
0.0
  0
LINE
  5
752BD
  8
U3
 10
13387.000000000009
 20
6285.2917521017798
 30
0.0
 11
13387.000000000009
 21
9567.8240160341811
 31
0.0
  0
LINE
  5
752BE
  8
U3
 10
13415.500000000009
 20
6285.2917521017798
 30
0.0
 11
13415.500000000009
 21
9570.1702288209799
 31
0.0
  0
LINE
  5
752BF
  8
U3
 10
13429.500000000009
 20
6285.2917521017798
 30
0.0
 11
13429.500000000009
 21
9571.3227544004476
 31
0.0
  0
LINE
  5
752C0
  8
U3
 10
13433.500000000009
 20
6285.2917521017798
 30
0.0
 11
13433.500000000009
 21
9571.6520474231656
 31
0.0
  0
LINE
  5
752C1
  8
U3
 10
13460.500000000009
 20
6285.2917521017798
 30
0.0
 11
13460.500000000009
 21
9573.8747753264488
 31
0.0
  0
LINE
  5
752C2
  8
U3
 10
13456.500000000009
 20
6285.2917521017798
 30
0.0
 11
13456.500000000009
 21
9573.5454823037271
 31
0.0
  0
LINE
  5
752C3
  8
U3
 10
13474.500000000009
 20
6285.2917521017798
 30
0.0
 11
13474.500000000009
 21
9575.0273009059165
 31
0.0
  0
LINE
  5
752C4
  8
U3
 10
13505.000000000009
 20
6285.2917521017798
 30
0.0
 11
13505.000000000009
 21
9577.5381602040579
 31
0.0
  0
LINE
  5
752C5
  8
U3
 10
13503.000000000009
 20
6285.2917521017798
 30
0.0
 11
13503.000000000009
 21
9577.3735136926844
 31
0.0
  0
LINE
  5
752C6
  8
U3
 10
12703.000000000009
 20
6285.2917521017798
 30
0.0
 11
12703.000000000009
 21
9511.5149091512285
 31
0.0
  0
LINE
  5
752C7
  8
U3
 10
12705.000000000009
 20
6285.2917521017798
 30
0.0
 11
12705.000000000009
 21
9511.6795556626003
 31
0.0
  0
LINE
  5
752C8
  8
U3
 10
12674.500000000009
 20
6285.2917521017798
 30
0.0
 11
12674.500000000009
 21
9509.1686963644606
 31
0.0
  0
LINE
  5
752C9
  8
U3
 10
12656.500000000009
 20
6285.2917521017798
 30
0.0
 11
12656.500000000009
 21
9507.6868777622731
 31
0.0
  0
LINE
  5
752CA
  8
U3
 10
12660.500000000009
 20
6285.2917521017798
 30
0.0
 11
12660.500000000009
 21
9508.0161707849911
 31
0.0
  0
LINE
  5
752CB
  8
U3
 10
12633.500000000009
 20
6285.2917521017798
 30
0.0
 11
12633.500000000009
 21
9505.7934428817098
 31
0.0
  0
LINE
  5
752CC
  8
U3
 10
12629.500000000009
 20
6285.2917521017798
 30
0.0
 11
12629.500000000009
 21
9505.4641498589917
 31
0.0
  0
LINE
  5
752CD
  8
U3
 10
12615.500000000009
 20
6285.2917521017798
 30
0.0
 11
12615.500000000009
 21
9504.3116242795204
 31
0.0
  0
LINE
  5
752CE
  8
U3
 10
12587.000000000009
 20
6285.2917521017798
 30
0.0
 11
12587.000000000009
 21
9501.9654114927234
 31
0.0
  0
LINE
  5
752CF
  8
U3
 10
12585.000000000009
 20
6285.2917521017798
 30
0.0
 11
12585.000000000009
 21
9501.8007649813808
 31
0.0
  0
LINE
  5
752D0
  8
U3
 10
12815.500000000009
 20
6285.2917521017798
 30
0.0
 11
12815.500000000009
 21
9520.7762754148716
 31
0.0
  0
LINE
  5
752D1
  8
U3
 10
12833.500000000009
 20
6285.2917521017798
 30
0.0
 11
12833.500000000009
 21
9522.2580940170592
 31
0.0
  0
LINE
  5
752D2
  8
U3
 10
12829.500000000009
 20
6285.2917521017798
 30
0.0
 11
12829.500000000009
 21
9521.9288009943721
 31
0.0
  0
LINE
  5
752D3
  8
U3
 10
12787.000000000009
 20
6285.2917521017798
 30
0.0
 11
12787.000000000009
 21
9518.4300626281038
 31
0.0
  0
LINE
  5
752D4
  8
U3
 10
12785.000000000009
 20
6285.2917521017798
 30
0.0
 11
12785.000000000009
 21
9518.2654161167302
 31
0.0
  0
LINE
  5
752D5
  8
U3
 10
12074.500000000009
 20
6285.2917521017798
 30
0.0
 11
12074.500000000009
 21
9459.7747429583542
 31
0.0
  0
LINE
  5
752D6
  8
U3
 10
12060.500000000009
 20
6285.2917521017798
 30
0.0
 11
12060.500000000009
 21
9458.6222173788865
 31
0.0
  0
LINE
  5
752D7
  8
U3
 10
12105.000000000009
 20
6285.2917521017798
 30
0.0
 11
12105.000000000009
 21
9462.2856022564956
 31
0.0
  0
LINE
  5
752D8
  8
U3
 10
12103.000000000009
 20
6285.2917521017798
 30
0.0
 11
12103.000000000009
 21
9462.1209557451512
 31
0.0
  0
LINE
  5
752D9
  8
U3
 10
12185.000000000009
 20
6285.2917521017798
 30
0.0
 11
12185.000000000009
 21
9468.8714627106528
 31
0.0
  0
LINE
  5
752DA
  8
U3
 10
12187.000000000009
 20
6285.2917521017798
 30
0.0
 11
12187.000000000009
 21
9469.0361092219973
 31
0.0
  0
LINE
  5
752DB
  8
U3
 10
12215.500000000009
 20
6285.2917521017798
 30
0.0
 11
12215.500000000009
 21
9471.3823220087943
 31
0.0
  0
LINE
  5
752DC
  8
U3
 10
12229.500000000009
 20
6285.2917521017798
 30
0.0
 11
12229.500000000009
 21
9472.5348475882638
 31
0.0
  0
LINE
  5
752DD
  8
U3
 10
12233.500000000009
 20
6285.2917521017798
 30
0.0
 11
12233.500000000009
 21
9472.8641406109818
 31
0.0
  0
LINE
  5
752DE
  8
U3
 10
12256.500000000009
 20
6285.2917521017798
 30
0.0
 11
12256.500000000009
 21
9474.7575754915451
 31
0.0
  0
LINE
  5
752DF
  8
U3
 10
12274.500000000009
 20
6285.2917521017798
 30
0.0
 11
12274.500000000009
 21
9476.2393940937327
 31
0.0
  0
LINE
  5
752E0
  8
U3
 10
12260.500000000009
 20
6285.2917521017798
 30
0.0
 11
12260.500000000009
 21
9475.0868685142632
 31
0.0
  0
LINE
  5
752E1
  8
U3
 10
12303.000000000009
 20
6285.2917521017798
 30
0.0
 11
12303.000000000009
 21
9478.5856068805297
 31
0.0
  0
LINE
  5
752E2
  8
U3
 10
12305.000000000009
 20
6285.2917521017798
 30
0.0
 11
12305.000000000009
 21
9478.7502533918741
 31
0.0
  0
LINE
  5
752E3
  8
U3
 10
12387.000000000009
 20
6285.2917521017798
 30
0.0
 11
12387.000000000009
 21
9485.5007603573758
 31
0.0
  0
LINE
  5
752E4
  8
U3
 10
12385.000000000009
 20
6285.2917521017798
 30
0.0
 11
12385.000000000009
 21
9485.3361138460023
 31
0.0
  0
LINE
  5
752E5
  8
U3
 10
12415.500000000009
 20
6285.2917521017798
 30
0.0
 11
12415.500000000009
 21
9487.8469731441437
 31
0.0
  0
LINE
  5
752E6
  8
U3
 10
12429.500000000009
 20
6285.2917521017798
 30
0.0
 11
12429.500000000009
 21
9488.9994987236405
 31
0.0
  0
LINE
  5
752E7
  8
U3
 10
12433.500000000009
 20
6285.2917521017798
 30
0.0
 11
12433.500000000009
 21
9489.3287917463313
 31
0.0
  0
LINE
  5
752E8
  8
U3
 10
12456.500000000009
 20
6285.2917521017798
 30
0.0
 11
12456.500000000009
 21
9491.2222266268927
 31
0.0
  0
LINE
  5
752E9
  8
U3
 10
12505.000000000009
 20
6285.2917521017798
 30
0.0
 11
12505.000000000009
 21
9495.2149045272236
 31
0.0
  0
LINE
  5
752EA
  8
U3
 10
12474.500000000009
 20
6285.2917521017798
 30
0.0
 11
12474.500000000009
 21
9492.7040452290821
 31
0.0
  0
LINE
  5
752EB
  8
U3
 10
12460.500000000009
 20
6285.2917521017798
 30
0.0
 11
12460.500000000009
 21
9491.5515196496126
 31
0.0
  0
LINE
  5
752EC
  8
U3
 10
12503.000000000009
 20
6285.2917521017798
 30
0.0
 11
12503.000000000009
 21
9495.0502580158791
 31
0.0
  0
LINE
  5
752ED
  8
U3
 10
12056.500000000009
 20
6285.2917521017798
 30
0.0
 11
12056.500000000009
 21
9458.2929243561666
 31
0.0
  0
LINE
  5
752EE
  8
U3
 10
11703.000000000009
 20
6285.2917521017798
 30
0.0
 11
11703.000000000009
 21
9429.1916534744232
 31
0.0
  0
LINE
  5
752EF
  8
U3
 10
11660.500000000009
 20
6285.2917521017798
 30
0.0
 11
11660.500000000009
 21
9425.6929151081567
 31
0.0
  0
LINE
  5
752F0
  8
U3
 10
11674.500000000009
 20
6285.2917521017798
 30
0.0
 11
11674.500000000009
 21
9426.8454406876263
 31
0.0
  0
LINE
  5
752F1
  8
U3
 10
11705.000000000009
 20
6285.2917521017798
 30
0.0
 11
11705.000000000009
 21
9429.3562999857677
 31
0.0
  0
LINE
  5
752F2
  8
U3
 10
11656.500000000009
 20
6285.2917521017798
 30
0.0
 11
11656.500000000009
 21
9425.3636220854387
 31
0.0
  0
LINE
  5
752F3
  8
U3
 10
11633.500000000009
 20
6285.2917521017798
 30
0.0
 11
11633.500000000009
 21
9423.4701872048754
 31
0.0
  0
LINE
  5
752F4
  8
U3
 10
11629.500000000009
 20
6285.2917521017798
 30
0.0
 11
11629.500000000009
 21
9423.1408941821865
 31
0.0
  0
LINE
  5
752F5
  8
U3
 10
11615.500000000009
 20
6285.2917521017798
 30
0.0
 11
11615.500000000009
 21
9421.9883686027169
 31
0.0
  0
LINE
  5
752F6
  8
U3
 10
11585.000000000009
 20
6285.2917521017798
 30
0.0
 11
11585.000000000009
 21
9419.4775093045464
 31
0.0
  0
LINE
  5
752F7
  8
U3
 10
11587.000000000009
 20
6285.2917521017798
 30
0.0
 11
11587.000000000009
 21
9419.6421558159182
 31
0.0
  0
LINE
  5
752F8
  8
U3
 10
11505.000000000009
 20
6285.2917521017798
 30
0.0
 11
11505.000000000009
 21
9412.8916488504183
 31
0.0
  0
LINE
  5
752F9
  8
U3
 10
11503.000000000009
 20
6285.2917521017798
 30
0.0
 11
11503.000000000009
 21
9412.7270023390738
 31
0.0
  0
LINE
  5
752FA
  8
U3
 10
11460.500000000009
 20
6285.2917521017798
 30
0.0
 11
11460.500000000009
 21
9409.2282639728055
 31
0.0
  0
LINE
  5
752FB
  8
U3
 10
11474.500000000009
 20
6285.2917521017798
 30
0.0
 11
11474.500000000009
 21
9410.380789552275
 31
0.0
  0
LINE
  5
752FC
  8
U3
 10
11456.500000000009
 20
6285.2917521017798
 30
0.0
 11
11456.500000000009
 21
9408.8989709500875
 31
0.0
  0
LINE
  5
752FD
  8
U3
 10
11433.500000000009
 20
6285.2917521017798
 30
0.0
 11
11433.500000000009
 21
9407.005536069526
 31
0.0
  0
LINE
  5
752FE
  8
U3
 10
11429.500000000009
 20
6285.2917521017798
 30
0.0
 11
11429.500000000009
 21
9406.6762430468079
 31
0.0
  0
LINE
  5
752FF
  8
U3
 10
11415.500000000009
 20
6285.2917521017798
 30
0.0
 11
11415.500000000009
 21
9405.5237174673366
 31
0.0
  0
LINE
  5
75300
  8
U3
 10
11387.000000000009
 20
6285.2917521017798
 30
0.0
 11
11387.000000000009
 21
9403.1775046805415
 31
0.0
  0
LINE
  5
75301
  8
U3
 10
11985.000000000009
 20
6285.2917521017798
 30
0.0
 11
11985.000000000009
 21
9452.4068115752743
 31
0.0
  0
LINE
  5
75302
  8
U3
 10
11987.000000000009
 20
6285.2917521017798
 30
0.0
 11
11987.000000000009
 21
9452.5714580866479
 31
0.0
  0
LINE
  5
75303
  8
U3
 10
12029.500000000009
 20
6285.2917521017798
 30
0.0
 11
12029.500000000009
 21
9456.0701964529144
 31
0.0
  0
LINE
  5
75304
  8
U3
 10
12033.500000000009
 20
6285.2917521017798
 30
0.0
 11
12033.500000000009
 21
9456.3994894756033
 31
0.0
  0
LINE
  5
75305
  8
U3
 10
12015.500000000009
 20
6285.2917521017798
 30
0.0
 11
12015.500000000009
 21
9454.9176708734176
 31
0.0
  0
LINE
  5
75306
  8
U3
 10
11785.000000000009
 20
6285.2917521017798
 30
0.0
 11
11785.000000000009
 21
9435.9421604399249
 31
0.0
  0
LINE
  5
75307
  8
U3
 10
11787.000000000009
 20
6285.2917521017798
 30
0.0
 11
11787.000000000009
 21
9436.1068069512694
 31
0.0
  0
LINE
  5
75308
  8
U3
 10
11815.500000000009
 20
6285.2917521017798
 30
0.0
 11
11815.500000000009
 21
9438.4530197380682
 31
0.0
  0
LINE
  5
75309
  8
U3
 10
11829.500000000009
 20
6285.2917521017798
 30
0.0
 11
11829.500000000009
 21
9439.6055453175377
 31
0.0
  0
LINE
  5
7530A
  8
U3
 10
11833.500000000009
 20
6285.2917521017798
 30
0.0
 11
11833.500000000009
 21
9439.9348383402557
 31
0.0
  0
LINE
  5
7530B
  8
U3
 10
11860.500000000009
 20
6285.2917521017798
 30
0.0
 11
11860.500000000009
 21
9442.1575662435353
 31
0.0
  0
LINE
  5
7530C
  8
U3
 10
11856.500000000009
 20
6285.2917521017798
 30
0.0
 11
11856.500000000009
 21
9441.8282732208172
 31
0.0
  0
LINE
  5
7530D
  8
U3
 10
11874.500000000009
 20
6285.2917521017798
 30
0.0
 11
11874.500000000009
 21
9443.3100918230066
 31
0.0
  0
LINE
  5
7530E
  8
U3
 10
11905.000000000009
 20
6285.2917521017798
 30
0.0
 11
11905.000000000009
 21
9445.8209511211462
 31
0.0
  0
LINE
  5
7530F
  8
U3
 10
11903.000000000009
 20
6285.2917521017798
 30
0.0
 11
11903.000000000009
 21
9445.6563046098036
 31
0.0
  0
LINE
  5
75310
  8
U3
 10
16854.500000000011
 20
6285.2917521017798
 30
0.0
 11
11245.000000000009
 21
6285.2917521017798
 31
0.0
  0
LINE
  5
75311
  8
1PL-M1
 10
16816.000000000011
 20
4445.2917521017798
 30
0.0
 11
16816.000000000011
 21
6785.2917521017807
 31
0.0
  0
LINE
  5
75312
  8
1PL-M1
 10
11316.000000000009
 20
4445.2917521017798
 30
0.0
 11
11316.000000000009
 21
6785.2917521017807
 31
0.0
  0
LINE
  5
75313
  8
U1
 10
11196.499999999951
 20
6285.2917521017798
 30
0.0
 11
11196.499999999951
 21
5885.2917521017807
 31
0.0
  0
LINE
  5
75314
  8
U1
 10
16935.999999999949
 20
6285.2917521017798
 30
0.0
 11
11196.499999999951
 21
6285.2917521017798
 31
0.0
  0
LINE
  5
75315
  8
U1
 10
16936.000000000011
 20
6275.2917521017807
 30
0.0
 11
16936.000000000011
 21
6285.2917521017798
 31
0.0
  0
LINE
  5
75316
  8
U1
 10
16936.000000000011
 20
5885.2917521017807
 30
0.0
 11
16936.000000000011
 21
6285.2917521017798
 31
0.0
  0
LINE
  5
75317
  8
U1
 10
16925.726345596671
 20
8893.1654065050388
 30
0.0
 11
16924.099999999991
 21
8894.7917521017807
 31
0.0
  0
LINE
  5
75318
  8
U1
 10
17002.726345596959
 20
8970.1654065052717
 30
0.0
 11
16925.72634559673
 21
8893.1654065050661
 31
0.0
  0
ARC
  5
75319
  8
U1
 10
16893.73402719247
 20
8889.7917521017807
 30
0.0
 40
5.0
 50
90.0
 51
145.56101069130401
  0
LINE
  5
7531A
  8
U1
 10
16889.610382933301
 20
8892.6193938795332
 30
0.0
 11
16868.58961706662
 21
8861.9641103240283
 31
0.0
  0
LINE
  5
7531B
  8
U1
 10
16924.099999999991
 20
8894.7917521017807
 30
0.0
 11
16893.73402719247
 21
8894.7917521017807
 31
0.0
  0
ARC
  5
7531C
  8
U1
 10
16864.465972807389
 20
8864.7917521017807
 30
0.0
 40
5.0
 50
270.0
 51
325.56101069130398
  0
LINE
  5
7531D
  8
U1
 10
16864.465972807389
 20
8859.7917521017807
 30
0.0
 11
16859.099999999991
 21
8859.7917521017807
 31
0.0
  0
LINE
  5
7531E
  8
U1
 10
22273.49999999996
 20
9363.2917521018098
 30
0.0
 11
22273.49999999996
 21
5885.2917521017807
 31
0.0
  0
LINE
  5
7531F
  8
U1
 10
22358.49999999996
 20
5885.2917521017807
 30
0.0
 11
22358.49999999996
 21
9366.1123026301066
 31
0.0
  0
LINE
  5
75320
  8
U1
 10
19523.499999999949
 20
9363.2917521017807
 30
0.0
 11
19523.499999999949
 21
5885.2917521017807
 31
0.0
  0
LINE
  5
75321
  8
U1
 10
19608.49999999996
 20
5885.2917521017807
 30
0.0
 11
19608.49999999996
 21
9363.2917521018098
 31
0.0
  0
LINE
  5
75322
  8
1PL-M1
 10
19565.999999999949
 20
5206.8744580871607
 30
0.0
 11
19565.999999999949
 21
6791.2917521017807
 31
0.0
  0
LINE
  5
75323
  8
1PL-M1
 10
22315.99999999996
 20
4451.2917521017798
 30
0.0
 11
22315.99999999996
 21
6791.2917521017807
 31
0.0
  0
ARC
  5
75324
  8
U1
 10
16871.599999999991
 20
9014.8184822220228
 30
0.0
 40
5.0
 50
180.0
 51
270.0
  0
LINE
  5
75325
  8
U1
 10
17008.599999999999
 20
8969.8184822220228
 30
0.0
 11
17008.599999999929
 21
9363.2917521017807
 31
0.0
  0
LINE
  5
75326
  8
U1
 10
16866.599999999991
 20
9014.8184822220228
 30
0.0
 11
16866.599999999991
 21
9363.3077777840226
 31
0.0
  0
ARC
  5
75327
  8
U1
 10
19570.999999999902
 20
9368.2917521018098
 30
0.0
 40
5.0
 50
180.0
 51
270.0
  0
LINE
  5
75328
  8
U1
 10
19611.999999999902
 20
9363.2917521018098
 30
0.0
 11
19611.999999999902
 21
9360.2917521018098
 31
0.0
  0
LINE
  5
75329
  8
U1
 10
19611.999999999902
 20
9360.2917521018098
 30
0.0
 11
22268.999999999902
 21
9360.2917521018098
 31
0.0
  0
LINE
  5
7532A
  8
U1
 10
22268.999999999902
 20
9363.2917521018098
 30
0.0
 11
22353.999999999902
 21
9363.2917521018098
 31
0.0
  0
LINE
  5
7532B
  8
U1
 10
22358.999999999902
 20
9368.2917521018098
 30
0.0
 11
22358.999999999902
 21
9471.4572048277914
 31
0.0
  0
ARC
  5
7532C
  8
U1
 10
22353.999999999902
 20
9368.2917521018098
 30
0.0
 40
5.0
 50
270.0
 51
0.0
  0
LINE
  5
7532D
  8
U1
 10
22268.999999999902
 20
9360.2917521018098
 30
0.0
 11
22268.999999999902
 21
9363.2917521018098
 31
0.0
  0
LINE
  5
7532E
  8
U1
 10
19570.999999999902
 20
9363.2917521018098
 30
0.0
 11
19611.999999999902
 21
9363.2917521018098
 31
0.0
  0
LINE
  5
7532F
  8
U1
 10
17011.99999999996
 20
9360.2917521017807
 30
0.0
 11
19520.499999999949
 21
9360.2917521017807
 31
0.0
  0
LINE
  5
75330
  8
U1
 10
19520.499999999949
 20
9363.2917521017807
 30
0.0
 11
19560.999999999949
 21
9363.2917521017807
 31
0.0
  0
LINE
  5
75331
  8
U1
 10
19565.999999999949
 20
9368.2917521017807
 30
0.0
 11
19565.999999999902
 21
9533.9572048408882
 31
0.0
  0
ARC
  5
75332
  8
U1
 10
19560.999999999949
 20
9368.2917521017807
 30
0.0
 40
5.0
 50
270.0
 51
0.0
  0
LINE
  5
75333
  8
U1
 10
19520.499999999949
 20
9360.2917521017807
 30
0.0
 11
19520.499999999949
 21
9363.2917521017807
 31
0.0
  0
LINE
  5
75334
  8
U1
 10
17011.99999999996
 20
9363.2917521017807
 30
0.0
 11
17011.99999999996
 21
9360.2917521017807
 31
0.0
  0
LINE
  5
75335
  8
U1
 10
16866.999999999949
 20
9363.2917521017807
 30
0.0
 11
17011.99999999996
 21
9363.2917521017807
 31
0.0
  0
LINE
  5
75336
  8
U1
 10
22658.47856664834
 20
9642.7825503064232
 30
0.0
 11
22603.49294175582
 21
9644.0399504729012
 31
0.0
  0
LINE
  5
75337
  8
U1
 10
22667.858683819839
 20
9615.5609889652842
 30
0.0
 11
22665.813482908601
 21
9613.6072353388754
 31
0.0
  0
LINE
  5
75338
  8
U1
 10
22665.584864696499
 20
9603.6098489948072
 30
0.0
 11
22663.539663785268
 21
9601.6560953683675
 31
0.0
  0
LINE
  5
75339
  8
U1
 10
22665.813482908601
 20
9613.6072353388754
 30
0.0
 11
22665.584864696499
 21
9603.6098489948072
 31
0.0
  0
LINE
  5
7533A
  8
U1
 10
22663.311045573169
 20
9591.6587090242683
 30
0.0
 11
22667.218552825991
 21
9587.5683072018001
 31
0.0
  0
LINE
  5
7533B
  8
U1
 10
22663.539663785268
 20
9601.6560953683675
 30
0.0
 11
22663.311045573169
 21
9591.6587090242683
 31
0.0
  0
LINE
  5
7533C
  8
U1
 10
22665.663948983842
 20
9519.5860800619266
 30
0.0
 11
22663.618748072611
 21
9517.6323264355742
 31
0.0
  0
LINE
  5
7533D
  8
U1
 10
22663.618748072611
 20
9517.6323264355742
 30
0.0
 11
22663.390129860509
 21
9507.6349400914478
 31
0.0
  0
LINE
  5
7533E
  8
U1
 10
22661.344928949271
 20
9505.6811864650663
 30
0.0
 11
22661.116310737169
 21
9495.6838001209417
 31
0.0
  0
LINE
  5
7533F
  8
U1
 10
22661.116310737169
 20
9495.6838001209417
 30
0.0
 11
22665.02381798999
 21
9491.5933982984716
 31
0.0
  0
LINE
  5
75340
  8
U1
 10
22663.390129860509
 20
9507.6349400914478
 30
0.0
 11
22661.344928949271
 21
9505.6811864650663
 31
0.0
  0
LINE
  5
75341
  8
U1
 10
22665.663948983842
 20
9519.5860800619266
 30
0.0
 11
22667.218552825991
 21
9587.5683072018001
 31
0.0
  0
LINE
  5
75342
  8
U1
 10
22667.858683819839
 20
9615.5609889652842
 30
0.0
 11
22668.247334780361
 21
9632.5565457502234
 31
0.0
  0
LINE
  5
75343
  8
U1
 10
22654.409162473301
 20
9464.8290733815084
 30
0.0
 11
22618.418571634578
 21
9465.6520989450073
 31
0.0
  0
ARC
  5
75344
  8
U1
 10
22654.637780685342
 20
9474.8264597256057
 30
0.0
 40
10.0
 50
268.69000000003979
 51
358.69000000170951
  0
LINE
  5
75345
  8
U1
 10
22665.02381798999
 20
9491.5933982984716
 30
0.0
 11
22664.635167029472
 21
9474.5978415135323
 31
0.0
  0
LINE
  5
75346
  8
U1
 10
22658.47856664834
 20
9642.7825503064232
 30
0.0
 11
22603.49294175582
 21
9644.0399504729012
 31
0.0
  0
LINE
  5
75347
  8
U1
 10
22667.858683819839
 20
9615.5609889652842
 30
0.0
 11
22665.813482908601
 21
9613.6072353388754
 31
0.0
  0
LINE
  5
75348
  8
U1
 10
22665.584864696499
 20
9603.6098489948072
 30
0.0
 11
22663.539663785268
 21
9601.6560953683675
 31
0.0
  0
LINE
  5
75349
  8
U1
 10
22665.813482908601
 20
9613.6072353388754
 30
0.0
 11
22665.584864696499
 21
9603.6098489948072
 31
0.0
  0
LINE
  5
7534A
  8
U1
 10
22663.311045573169
 20
9591.6587090242683
 30
0.0
 11
22667.218552825991
 21
9587.5683072018001
 31
0.0
  0
LINE
  5
7534B
  8
U1
 10
22663.539663785268
 20
9601.6560953683675
 30
0.0
 11
22663.311045573169
 21
9591.6587090242683
 31
0.0
  0
LINE
  5
7534C
  8
U1
 10
22665.663948983842
 20
9519.5860800619266
 30
0.0
 11
22663.618748072611
 21
9517.6323264355742
 31
0.0
  0
LINE
  5
7534D
  8
U1
 10
22663.618748072611
 20
9517.6323264355742
 30
0.0
 11
22663.390129860509
 21
9507.6349400914478
 31
0.0
  0
LINE
  5
7534E
  8
U1
 10
22661.344928949271
 20
9505.6811864650663
 30
0.0
 11
22661.116310737169
 21
9495.6838001209417
 31
0.0
  0
LINE
  5
7534F
  8
U1
 10
22661.116310737169
 20
9495.6838001209417
 30
0.0
 11
22665.02381798999
 21
9491.5933982984716
 31
0.0
  0
LINE
  5
75350
  8
U1
 10
22663.390129860509
 20
9507.6349400914478
 30
0.0
 11
22661.344928949271
 21
9505.6811864650663
 31
0.0
  0
LINE
  5
75351
  8
U1
 10
22665.663948983842
 20
9519.5860800619266
 30
0.0
 11
22667.218552825991
 21
9587.5683072018001
 31
0.0
  0
LINE
  5
75352
  8
U1
 10
22667.858683819839
 20
9615.5609889652842
 30
0.0
 11
22668.247334780361
 21
9632.5565457502234
 31
0.0
  0
ARC
  5
75353
  8
U1
 10
22658.249948436289
 20
9632.7851639623259
 30
0.0
 40
10.0
 50
358.69000000170951
 51
88.690000000039745
  0
LINE
  5
75354
  8
U1
 10
22654.409162473301
 20
9464.8290733815084
 30
0.0
 11
22618.418571634578
 21
9465.6520989450073
 31
0.0
  0
ARC
  5
75355
  8
U1
 10
22654.637780685342
 20
9474.8264597256057
 30
0.0
 40
10.0
 50
268.69000000003979
 51
358.69000000170951
  0
LINE
  5
75356
  8
U1
 10
22665.02381798999
 20
9491.5933982984716
 30
0.0
 11
22664.635167029472
 21
9474.5978415135323
 31
0.0
  0
LINE
  5
75357
  8
U1
 10
23568.63816616308
 20
5885.2917521017807
 30
0.0
 11
10688.73284919509
 21
5885.2917521017807
 31
0.0
  0
LINE
  5
75358
  8
U1
 10
19569.593520646289
 20
9711.9213521780766
 30
0.0
 11
22640.824662335821
 21
9643.1952704036812
 31
0.0
  0
LINE
  5
75359
  8
U1
 10
22636.842487024682
 20
9465.2398201365286
 30
0.0
 11
22640.824662335821
 21
9643.1952704036812
 31
0.0
  0
LINE
  5
7535A
  8
U1
 10
19568.989482818179
 20
9684.92810972179
 30
0.0
 11
22667.859199724349
 21
9615.5835492680926
 31
0.0
  0
LINE
  5
7535B
  8
U1
 10
19568.944739275332
 20
9682.9286102806072
 30
0.0
 11
22665.83556718858
 21
9613.6283321620576
 31
0.0
  0
LINE
  5
7535C
  8
U1
 10
19568.721021561261
 20
9672.9311130745773
 30
0.0
 11
22665.58535815544
 21
9603.6314277621132
 31
0.0
  0
LINE
  5
7535D
  8
U1
 10
19568.676278018411
 20
9670.9316136333655
 30
0.0
 11
22663.560743591759
 21
9601.6762326312473
 31
0.0
  0
LINE
  5
7535E
  8
U1
 10
19568.452560304329
 20
9660.9341164273355
 30
0.0
 11
22663.311516586531
 21
9591.6793062561337
 31
0.0
  0
LINE
  5
7535F
  8
U1
 10
19568.363073218628
 20
9656.935117544941
 30
0.0
 11
22667.196522512371
 21
9587.5913686650892
 31
0.0
  0
LINE
  5
75360
  8
U1
 10
19566.215383163199
 20
9560.9591443671525
 30
0.0
 11
22665.00179893717
 21
9491.6164479738381
 31
0.0
  0
LINE
  5
75361
  8
U1
 10
19566.304870248841
 20
9564.9581432495452
 30
0.0
 11
22661.11678148686
 21
9495.7043858227698
 31
0.0
  0
LINE
  5
75362
  8
U1
 10
19566.528587962919
 20
9574.9556404555769
 30
0.0
 11
22661.36599695632
 21
9505.7013124560617
 31
0.0
  0
LINE
  5
75363
  8
U1
 10
19566.57333150577
 20
9576.9551398967888
 30
0.0
 11
22663.3906230557
 21
9507.6565073287784
 31
0.0
  0
LINE
  5
75364
  8
U1
 10
19566.797049219851
 20
9586.9526371027896
 30
0.0
 11
22663.640820553079
 21
9517.6534119868447
 31
0.0
  0
LINE
  5
75365
  8
U1
 10
19566.841792762702
 20
9588.9521365440014
 30
0.0
 11
22665.664464624671
 21
9519.6086288347287
 31
0.0
  0
LINE
  5
75366
  8
U1
 10
19565.611345335099
 20
9533.9659019108949
 30
0.0
 11
22636.842487024682
 21
9465.2398201365286
 31
0.0
  0
LINE
  5
75367
  8
U1
 10
19565.611345335099
 20
9533.9659019108949
 30
0.0
 11
19569.593520646289
 21
9711.9213521780766
 31
0.0
  0
LINE
  5
75368
  8
U1
 10
19569.593520646289
 20
9711.9213521780766
 30
0.0
 11
16909.259514124151
 21
9771.4526359035954
 31
0.0
  0
LINE
  5
75369
  8
U1
 10
19568.989482818179
 20
9684.9281097218209
 30
0.0
 11
16873.65571412288
 21
9745.2425961456465
 31
0.0
  0
LINE
  5
7536A
  8
U1
 10
19568.944739275332
 20
9682.9286102806072
 30
0.0
 11
16875.608889918029
 21
9743.1983885201771
 31
0.0
  0
LINE
  5
7536B
  8
U1
 10
19568.721021561261
 20
9672.9311130745773
 30
0.0
 11
16875.382965647219
 21
9733.2009406910965
 31
0.0
  0
LINE
  5
7536C
  8
U1
 10
19568.676278018411
 20
9670.9316136333964
 30
0.0
 11
16877.335511112309
 21
9731.1567471707385
 31
0.0
  0
LINE
  5
7536D
  8
U1
 10
19568.452560304271
 20
9660.9341164273646
 30
0.0
 11
16877.110217171561
 21
9721.1592852365429
 31
0.0
  0
LINE
  5
7536E
  8
U1
 10
19568.363073218628
 20
9656.935117544941
 30
0.0
 11
16873.020161458891
 21
9717.2498085665447
 31
0.0
  0
LINE
  5
7536F
  8
U1
 10
19566.21538316314
 20
9560.9591443671525
 30
0.0
 11
16870.842172544351
 21
9621.2745133975859
 31
0.0
  0
LINE
  5
75370
  8
U1
 10
19566.304870248779
 20
9564.9581432495761
 30
0.0
 11
16874.932233039592
 21
9625.1839899605693
 31
0.0
  0
LINE
  5
75371
  8
U1
 10
19566.528587962919
 20
9574.9556404556042
 30
0.0
 11
16875.157531759949
 21
9635.1814517878374
 31
0.0
  0
LINE
  5
75372
  8
U1
 10
19566.573331505711
 20
9576.9551398967888
 30
0.0
 11
16873.20498151525
 21
9637.2256454151211
 31
0.0
  0
LINE
  5
75373
  8
U1
 10
19566.797049219851
 20
9586.9526371028187
 30
0.0
 11
16873.43091056561
 21
9647.2230931372196
 31
0.0
  0
LINE
  5
75374
  8
U1
 10
19566.84179276264
 20
9588.9521365440305
 30
0.0
 11
16871.477729990918
 21
9649.2673008696747
 31
0.0
  0
LINE
  5
75375
  8
U1
 10
19565.611345335099
 20
9533.9659019108949
 30
0.0
 11
16905.277338812961
 21
9593.4971856364427
 31
0.0
  0
LINE
  5
75376
  8
U1
 10
19565.611345335099
 20
9533.9659019108949
 30
0.0
 11
19569.593520646289
 21
9711.9213521780766
 31
0.0
  0
ARC
  5
75377
  8
TOI
 10
22456.199999999972
 20
9397.2473631474859
 30
0.0
 40
50.0
 50
100.00000000048151
 51
180.0
  0
ARC
  5
75378
  8
TOI
 10
22555.3046636705
 20
9452.5976018900546
 30
0.0
 40
50.0
 50
280.00000000048158
 51
0.0
  0
LINE
  5
75379
  8
TOI
 10
22535.996249349981
 20
9398.4216768963524
 30
0.0
 11
22525.108508610239
 21
9460.1691230102297
 31
0.0
  0
LINE
  5
7537A
  8
TOI
 10
22563.987072553849
 20
9403.3572142394405
 30
0.0
 11
22466.199999999972
 21
9386.1147149836597
 31
0.0
  0
LINE
  5
7537B
  8
TOI
 10
22447.517591116211
 20
9446.4877507980418
 30
0.0
 11
22544.804663670438
 21
9463.6420865635591
 31
0.0
  0
LINE
  5
7537C
  8
TOI
 10
22605.3046636705
 20
9464.6420865635882
 30
0.0
 11
22605.3046636705
 21
9452.5976018900546
 31
0.0
  0
LINE
  5
7537D
  8
U1
 10
16776.08999999992
 20
6285.2917521017798
 30
0.0
 11
16776.08999999992
 21
9846.8249386161788
 31
0.0
  0
LINE
  5
7537E
  8
U1
 10
17060.66496690701
 20
9768.016765530585
 30
0.0
 11
16862.31603321743
 21
9772.5179325114168
 31
0.0
  0
LINE
  5
7537F
  8
U1
 10
17060.678579307169
 20
9768.6166110963259
 30
0.0
 11
16862.32964561753
 21
9773.1177780770377
 31
0.0
  0
ARC
  5
75380
  8
U1
 10
16862.352332951159
 20
9774.1175206863427
 30
0.0
 40
1.0
 50
178.69999999971211
 51
268.6999999997135
  0
ARC
  5
75381
  8
U1
 10
16862.352332951159
 20
9774.1175206863427
 30
0.0
 40
1.6000000000000001
 50
178.69999999971211
 51
268.6999999997135
  0
LINE
  5
75382
  8
U1
 10
16861.39706504975
 20
9802.5465105247713
 30
0.0
 11
16860.75274477627
 21
9774.1538204200751
 31
0.0
  0
LINE
  5
75383
  8
U1
 10
17060.678579307169
 20
9768.6166110963259
 30
0.0
 11
17060.66496690701
 21
9768.016765530585
 31
0.0
  0
LINE
  5
75384
  8
U1
 10
16861.99691061526
 20
9802.5328981246421
 30
0.0
 11
16861.35259034183
 21
9774.1402080199205
 31
0.0
  0
LINE
  5
75385
  8
U1
 10
16861.99691061526
 20
9802.5328981246421
 30
0.0
 11
16861.39706504975
 21
9802.5465105247713
 31
0.0
  0
LINE
  5
75386
  8
U1
 10
16874.063773912389
 20
9763.2379639213759
 30
0.0
 11
16873.655401907989
 21
9745.2425969535707
 31
0.0
  0
ARC
  5
75387
  8
U1
 10
16884.039075555349
 20
9762.0223931498349
 30
0.0
 40
10.0
 50
88.699999999713583
 51
178.69999999971211
  0
LINE
  5
75388
  8
U1
 10
16873.43152843598
 20
9647.2224465728086
 30
0.0
 11
16871.477417884518
 21
9649.2673064585979
 31
0.0
  0
LINE
  5
75389
  8
U1
 10
16873.204655100199
 20
9637.2250204795691
 30
0.0
 11
16873.43152843598
 21
9647.2224465728086
 31
0.0
  0
LINE
  5
7538A
  8
U1
 10
16875.1587656517
 20
9635.1801605937799
 30
0.0
 11
16873.204655100199
 21
9637.2250204795691
 31
0.0
  0
LINE
  5
7538B
  8
U1
 10
16874.93189231593
 20
9625.182734500544
 30
0.0
 11
16875.1587656517
 21
9635.1801605937799
 31
0.0
  0
LINE
  5
7538C
  8
U1
 10
16870.842172544351
 20
9621.274513397555
 30
0.0
 11
16874.93189231593
 21
9625.182734500544
 31
0.0
  0
LINE
  5
7538D
  8
U1
 10
16871.477417884518
 20
9649.2673064585979
 30
0.0
 11
16873.020156567811
 21
9717.249803892526
 31
0.0
  0
LINE
  5
7538E
  8
U1
 10
16905.198230602971
 20
9592.4876565793966
 30
0.0
 11
16909.259514124151
 21
9771.4526359035954
 31
0.0
  0
LINE
  5
7538F
  8
U1
 10
16909.259514124151
 20
9771.4526359035954
 30
0.0
 11
16884.26594889113
 21
9772.0198192430416
 31
0.0
  0
LINE
  5
75390
  8
U1
 10
16870.433800539951
 20
9603.279146429777
 30
0.0
 11
16870.842172544351
 21
9621.274513397555
 31
0.0
  0
LINE
  5
75391
  8
U1
 10
16877.1098763394
 20
9721.158024995515
 30
0.0
 11
16877.336749675171
 21
9731.1554510887509
 31
0.0
  0
LINE
  5
75392
  8
U1
 10
16873.020156567811
 20
9717.249803892526
 30
0.0
 11
16877.1098763394
 21
9721.158024995515
 31
0.0
  0
LINE
  5
75393
  8
U1
 10
16875.382639123662
 20
9733.2003109745419
 30
0.0
 11
16875.609512459439
 21
9743.1977370677796
 31
0.0
  0
LINE
  5
75394
  8
U1
 10
16877.336749675171
 20
9731.1554510887509
 30
0.0
 11
16875.382639123662
 21
9733.2003109745419
 31
0.0
  0
LINE
  5
75395
  8
U1
 10
16875.609512459439
 20
9743.1977370677796
 30
0.0
 11
16873.655401907989
 21
9745.2425969535707
 31
0.0
  0
ARC
  5
75396
  8
U1
 10
16880.431226633151
 20
9603.0522730939992
 30
0.0
 40
10.0
 50
178.69999999971211
 51
268.6999999997135
  0
LINE
  5
75397
  8
U1
 10
16905.197918530452
 20
9592.4876636613189
 30
0.0
 11
16880.204353297369
 21
9593.0548470007634
 31
0.0
  0
LINE
  5
75398
  8
TOI
 10
22471.199999999972
 20
6279.3512883093072
 30
0.0
 11
22471.199999999972
 21
6289.3512883093072
 31
0.0
  0
LINE
  5
75399
  8
TOI
 10
22361.199999999972
 20
6289.3512883093072
 30
0.0
 11
22471.199999999972
 21
6289.3512883093072
 31
0.0
  0
LINE
  5
7539A
  8
TOI
 10
22361.199999999972
 20
6279.3512883093072
 30
0.0
 11
22471.199999999972
 21
6279.3512883093072
 31
0.0
  0
LINE
  5
7539B
  8
TOI
 10
22466.19999999991
 20
9358.1147149836615
 30
0.0
 11
22406.19999999991
 21
9358.1147149836615
 31
0.0
  0
LINE
  5
7539C
  8
TOI
 10
22494.190823203779
 20
9391.0502523267496
 30
0.0
 11
22483.303082464099
 21
9452.7976984405977
 31
0.0
  0
LINE
  5
7539D
  8
TOI
 10
22361.199999999972
 20
8958.1147149836615
 30
0.0
 11
22471.199999999972
 21
8958.1147149836615
 31
0.0
  0
LINE
  5
7539E
  8
TOI
 10
22361.199999999972
 20
8968.1147149836615
 30
0.0
 11
22471.199999999972
 21
8968.1147149836615
 31
0.0
  0
LINE
  5
7539F
  8
TOI
 10
22471.199999999972
 20
8958.1147149836615
 30
0.0
 11
22471.199999999972
 21
8968.1147149836615
 31
0.0
  0
LINE
  5
753A0
  8
TOI
 10
22471.199999999972
 20
7618.7330016464839
 30
0.0
 11
22471.199999999972
 21
7628.7330016464839
 31
0.0
  0
LINE
  5
753A1
  8
TOI
 10
22361.199999999972
 20
7628.7330016464839
 30
0.0
 11
22471.199999999972
 21
7628.7330016464839
 31
0.0
  0
LINE
  5
753A2
  8
TOI
 10
22361.199999999972
 20
7618.7330016464839
 30
0.0
 11
22471.199999999972
 21
7618.7330016464839
 31
0.0
  0
LINE
  5
753A3
  8
TOI
 10
22466.199999999972
 20
5925.2917521017807
 30
0.0
 11
22466.19999999991
 21
9386.1147149836597
 31
0.0
  0
LINE
  5
753A4
  8
TOI
 10
22406.199999999972
 20
5925.2917521017807
 30
0.0
 11
22466.199999999972
 21
5925.2917521017807
 31
0.0
  0
LINE
  5
753A5
  8
TOI
 10
22406.199999999972
 20
5925.2917521017807
 30
0.0
 11
22406.199999999972
 21
9397.2473631474859
 31
0.0
  0
TEXT
  5
753A6
  8
HIKIDASHI
 10
12075.197591624001
 20
5525.2917521017807
 30
0.0
 40
160.0
  1
壁 ヨドサイディング
  7
01
  0
LINE
  5
753A7
  8
HIKIDASHI
 10
12058.72189976393
 20
5485.2917521017798
 30
0.0
 11
14603.649335926881
 21
5485.2917521017798
 31
0.0
  0
TEXT
  5
753A8
  8
HIKIDASHI
 10
12384.656784468691
 20
10296.872704482739
 30
0.0
 40
160.0
  1
型断熱材付
  7
01
  0
LINE
  5
753A9
  8
HIKIDASHI
 10
11090.75424865169
 20
10496.872704482739
 30
0.0
 11
14046.54994973821
 21
10496.872704482739
 31
0.0
  0
TEXT
  5
753AA
  8
HIKIDASHI
 10
11150.107575982711
 20
10536.872704482739
 30
0.0
 40
160.0
  1
屋根板
  7
01
  0
TEXT
  5
753AB
  8
HIKIDASHI
 10
11150.107575982711
 20
10296.872704482739
 30
0.0
 40
160.0
  1
ヨドルーフ
  7
01
  0
TEXT
  5
753AC
  8
HIKIDASHI
 10
12134.2212812825
 20
10296.872704482739
 30
0.0
 40
160.0
  1
88
 41
0.6700000000000002
  7
00
  0
TEXT
  5
753AE
  8
HIKIDASHI
 10
14235.65870647436
 20
5525.2917521017807
 30
0.0
 40
160.0
  1
0.4
 41
0.6700000000000002
  7
00
  0
TEXT
  5
753AF
  8
HIKIDASHI
 10
13832.05608062319
 20
5525.2917521017807
 30
0.0
 40
160.0
  1
（
  7
01
  0
TEXT
  5
753B0
  8
HIKIDASHI
 10
14016.36062341563
 20
5545.2917521017807
 30
0.0
 40
120.0
  1
ア
  7
01
  0
CIRCLE
  5
753B1
  8
HIKIDASHI
 10
14067.73863584561
 20
5605.2917521017807
 30
0.0
 40
80.0
  0
LINE
  5
753B2
  8
HIKIDASHI
 10
15101.25103105955
 20
6427.0258846908264
 30
0.0
 11
14603.649335926881
 21
5485.2917521017798
 31
0.0
  0
TEXT
  5
753B3
  8
HIKIDASHI
 10
14496.81334673102
 20
5525.2917521017807
 30
0.0
 40
160.0
  1
）
  7
01
  0
LINE
  5
753B4
  8
HIKIDASHI
 10
14572.55426261872
 20
9968.7713057981309
 30
0.0
 11
14046.54994973821
 21
10496.872704482739
 31
0.0
  0
TEXT
  5
753B5
  8
HIKIDASHI
 10
13274.95669443447
 20
10296.872704482739
 30
0.0
 40
160.0
  1
（
  7
01
  0
TEXT
  5
753B6
  8
HIKIDASHI
 10
13459.26123722696
 20
10316.872704482739
 30
0.0
 40
120.0
  1
ア
  7
01
  0
CIRCLE
  5
753B7
  8
HIKIDASHI
 10
13510.63924965689
 20
10376.872704482739
 30
0.0
 40
80.0
  0
TEXT
  5
753B8
  8
HIKIDASHI
 10
13657.49950437493
 20
10296.872704482739
 30
0.0
 40
160.0
  1
0.5
 41
0.6700000000000002
  7
00
  0
TEXT
  5
753B9
  8
HIKIDASHI
 10
13939.7139605423
 20
10296.872704482739
 30
0.0
 40
160.0
  1
）
  7
01
  0
TEXT
  5
753BB
  8
HIKIDASHI
 10
18225.461093499049
 20
3480.588973363178
 30
0.0
 40
160.0
  1
80
 41
0.6700000000000002
  7
00
  0
TEXT
  5
753BC
  8
HIKIDASHI
 10
18066.596508245111
 20
3564.047591260126
 30
0.0
 40
160.0
  1
1
 41
0.6700000000000002
  7
00
  0
TEXT
  5
753BD
  8
HIKIDASHI
 10
18132.870783973729
 20
3532.9246357637312
 30
0.0
 40
160.0
  1
/
 41
0.6700000000000002
  7
00
  0
TEXT
  5
753BE
  8
HIKIDASHI
 10
18468.314005623881
 20
3532.9246357637312
 30
0.0
 40
160.0
  1
)
 41
0.6700000000000002
  7
00
  0
TEXT
  5
753BF
  8
HIKIDASHI
 10
17705.180676369771
 20
3532.9246357637312
 30
0.0
 40
160.0
  1
(S=
 41
0.6700000000000002
  7
00
  0
TEXT
  5
753C0
  8
HIKIDASHI
 10
15578.28784423503
 20
3485.2917521017812
 30
0.0
 40
240.0
  1
側 面 立 面 図
  7
01
  0
CIRCLE
  5
753C1
  8
SUNPOU
 10
11316.000000000009
 20
4245.2917521017798
 30
0.0
 40
200.0
  0
TEXT
  5
753C2
  8
SUNPOU
 10
11235.600000000009
 20
4125.2917521017798
 30
0.0
 40
240.0
  1
C
 41
0.6700000000000002
  7
00
 72
     4
 11
11316.000000000009
 21
4245.2917521017798
 31
0.0
  0
LINE
  5
753C3
  8
SUNPOU
 10
10118.35269704189
 20
9505.2917521017807
 30
0.0
 11
10118.35269704189
 21
6325.2917521017798
 31
0.0
  0
LINE
  5
753C4
  8
SUNPOU
 10
11146.700000000021
 20
6285.2917521017798
 30
0.0
 11
9998.3526970418898
 21
6285.2917521017798
 31
0.0
  0
TEXT
  5
753C6
  8
SUNPOU
 10
10038.35269704189
 20
7726.4155616256039
 30
0.0
 40
160.0
  1
3260
 50
90.0
 41
0.6700000000000002
  7
00
  0
LINE
  5
753C7
  8
SUNPOU
 10
10838.35269704189
 20
9545.2917521017807
 30
0.0
 11
9998.3526970418898
 21
9545.2917521017807
 31
0.0
  0
CIRCLE
  5
753C9
  8
SUNPOU
 10
16816.000000000011
 20
4245.2917521017798
 30
0.0
 40
200.0
  0
TEXT
  5
753CA
  8
SUNPOU
 10
16747.08571428572
 20
4125.2917521017798
 30
0.0
 40
240.0
  1
A
 41
0.6700000000000002
  7
00
 72
     4
 11
16816.000000000011
 21
4245.2917521017798
 31
0.0
  0
LINE
  5
753CB
  8
SUNPOU
 10
18049.753093279211
 20
10025.291752101781
 30
0.0
 11
18049.753093279211
 21
6325.2917521017798
 31
0.0
  0
TEXT
  5
753CD
  8
SUNPOU
 10
17969.753093279211
 20
7989.415561625603
 30
0.0
 40
160.0
  1
3780
 50
90.0
 41
0.6700000000000002
  7
00
  0
LINE
  5
753CE
  8
SUNPOU
 10
17314.985027643339
 20
10065.291752101781
 30
0.0
 11
18169.753093279211
 21
10065.291752101781
 31
0.0
  0
LINE
  5
753D0
  8
SUNPOU
 10
10859.76407180111
 20
10744.52791441195
 30
0.0
 11
17096.666111072831
 21
11257.96432968489
 31
0.0
  0
LINE
  5
753D1
  8
SUNPOU
 10
17228.42144291634
 20
10145.022043431571
 30
0.0
 11
17126.685879647161
 21
11380.84155904308
 31
0.0
  0
TEXT
  5
753D3
  8
SUNPOU
 10
13783.41208556086
 20
11065.48010238928
 30
0.0
 40
160.0
  1
6338
 50
4.7061111437861802
 41
0.6700000000000002
  7
00
  0
LINE
  5
753D4
  8
SUNPOU
 10
10911.789112314829
 20
9625.0220434315706
 30
0.0
 11
10810.05354904565
 21
10860.84155904308
 31
0.0
  0
LINE
  5
753D6
  8
SUNPOU
 10
16340.070510998379
 20
10500.40672552686
 30
0.0
 11
14740.070510998379
 21
10500.40672552686
 31
0.0
  0
LINE
  5
753D7
  8
SUNPOU
 10
14740.070510998379
 20
10368.690969970001
 30
0.0
 11
16340.070510998379
 21
10500.40672552686
 31
0.0
  0
TEXT
  5
753D8
  8
SUNPOU
 10
15381.91238300998
 20
10569.42250270709
 30
0.0
 40
160.0
  1
12
 41
0.6700000000000002
  7
00
  0
TEXT
  5
753D9
  8
SUNPOU
 10
14581.524157965339
 20
10344.34218447811
 30
0.0
 40
160.0
  1
1
 41
0.6700000000000002
  7
00
  0
LINE
  5
753DA
  8
SUNPOU
 10
14740.070510998379
 20
10500.40672552686
 30
0.0
 11
14740.070510998379
 21
10368.690969970001
 31
0.0
  0
TEXT
  5
753DB
  8
SUNPOU
 10
22197.714285714239
 20
4136.2917521017798
 30
0.0
 40
230.0
  1
A0
 41
0.6
  7
00
 72
     4
 11
22315.99999999996
 21
4251.2917521017807
 31
0.0
  0
CIRCLE
  5
753DC
  8
SUNPOU
 10
22315.99999999996
 20
4251.2917521017807
 30
0.0
 40
200.0
  0
LINE
  5
753E0
  8
SUNPOU
 10
17674.461403175039
 20
10447.06715688704
 30
0.0
 11
18794.461403175039
 21
10447.06715688704
 31
0.0
  0
LINE
  5
753E1
  8
SUNPOU
 10
18794.461403175039
 20
10422.00450024046
 30
0.0
 11
17674.461403175039
 21
10447.06715688704
 31
0.0
  0
TEXT
  5
753E2
  8
SUNPOU
 10
18188.038723776372
 20
10516.082934067281
 30
0.0
 40
160.0
  1
44
 41
0.6700000000000002
  7
00
  0
TEXT
  5
753E3
  8
SUNPOU
 10
18866.226803827129
 20
10343.45895566696
 30
0.0
 40
160.0
  1
1
 41
0.6700000000000002
  7
00
  0
LINE
  5
753E4
  8
SUNPOU
 10
18794.461403175039
 20
10447.06715688704
 30
0.0
 11
18794.461403175039
 21
10422.00450024046
 31
0.0
  0
TEXT
  5
753E7
  8
HIKIDASHI
 10
20886.006113692962
 20
10147.340522398221
 30
0.0
 40
160.0
  1
型断熱材付
  7
01
  0
LINE
  5
753E8
  8
HIKIDASHI
 10
19592.103577875951
 20
10347.340522398221
 30
0.0
 11
22547.899278962472
 21
10347.340522398221
 31
0.0
  0
TEXT
  5
753E9
  8
HIKIDASHI
 10
19651.456905206971
 20
10387.340522398221
 30
0.0
 40
160.0
  1
屋根板
  7
01
  0
TEXT
  5
753EA
  8
HIKIDASHI
 10
19651.456905206971
 20
10147.340522398221
 30
0.0
 40
160.0
  1
ヨドルーフ
  7
01
  0
TEXT
  5
753EB
  8
HIKIDASHI
 10
20635.570610506769
 20
10147.340522398221
 30
0.0
 40
160.0
  1
88
 41
0.6700000000000002
  7
00
  0
TEXT
  5
753EC
  8
HIKIDASHI
 10
21776.30602365873
 20
10147.340522398221
 30
0.0
 40
160.0
  1
（
  7
01
  0
TEXT
  5
753ED
  8
HIKIDASHI
 10
21960.610566451229
 20
10167.340522398221
 30
0.0
 40
120.0
  1
ア
  7
01
  0
CIRCLE
  5
753EE
  8
HIKIDASHI
 10
22011.988578881152
 20
10227.340522398221
 30
0.0
 40
80.0
  0
TEXT
  5
753EF
  8
HIKIDASHI
 10
22158.848833599201
 20
10147.340522398221
 30
0.0
 40
160.0
  1
0.5
 41
0.6700000000000002
  7
00
  0
TEXT
  5
753F0
  8
HIKIDASHI
 10
22441.06328976656
 20
10147.340522398221
 30
0.0
 40
160.0
  1
）
  7
01
  0
LINE
  5
753F2
  8
U1
 10
22273.49999999996
 20
5885.2917521017807
 30
0.0
 11
22273.49999999996
 21
5385.2917521017807
 31
0.0
  0
LINE
  5
753F3
  8
U1
 10
22358.49999999996
 20
5385.2917521017807
 30
0.0
 11
22358.49999999996
 21
5885.2917521017807
 31
0.0
  0
LINE
  5
753F4
  8
U1
 10
19523.499999999949
 20
5885.2917521017807
 30
0.0
 11
19523.499999999949
 21
5385.2917521017807
 31
0.0
  0
LINE
  5
753F5
  8
U1
 10
19608.49999999996
 20
5385.2917521017807
 30
0.0
 11
19608.49999999996
 21
5885.2917521017807
 31
0.0
  0
LINE
  5
753F6
  8
U1
 10
19523.499999999949
 20
5385.2917521017807
 30
0.0
 11
19608.49999999996
 21
5385.2917521017807
 31
0.0
  0
LINE
  5
753F7
  8
U1
 10
22273.49999999996
 20
5385.2917521017807
 30
0.0
 11
22358.49999999996
 21
5385.2917521017807
 31
0.0
  0
LINE
  5
753FA
  8
U1
 10
16871.599999999991
 20
9009.818482222021
 30
0.0
 11
16951.528932188041
 21
9009.8184822220028
 31
0.0
  0
LINE
  5
753FB
  8
U1
 10
17008.599999999991
 20
8969.8184822220228
 30
0.0
 11
16995.671067811822
 21
8969.8184822220228
 31
0.0
  0
ARC
  5
753FC
  8
U1
 10
16995.671067811822
 20
8974.818482222021
 30
0.0
 40
5.0
 50
225.0000000007139
 51
270.0
  0
LINE
  5
753FD
  8
U1
 10
16955.064466093969
 20
9008.3540161279525
 30
0.0
 11
16992.135533905908
 21
8971.2829483160895
 31
0.0
  0
ARC
  5
753FE
  8
U1
 10
16951.528932188041
 20
9004.8184822220192
 30
0.0
 40
5.0
 50
45.000000000713911
 51
90.0
  0
TEXT
  5
75400
  8
SUNPOU
 10
20961.3871066635
 20
6590.7099449986417
 30
0.0
 40
160.0
  1
下屋側面有効開口高サ
 50
90.0
  7
01
  0
LINE
  5
7559F
  8
SUNPOU
 10
12531.000000000009
 20
14318.121500361291
 30
0.0
 11
21101.000000000011
 21
14318.121500361291
 31
0.0
  0
LINE
  5
755A0
  8
SUNPOU
 10
12496.000000000009
 20
21298.121500361289
 30
0.0
 11
21136.000000000018
 21
21298.121500361289
 31
0.0
  0
LINE
  5
755A1
  8
SUNPOU
 10
12531.000000000009
 20
20898.121500361289
 30
0.0
 11
21101.000000000011
 21
20898.121500361289
 31
0.0
  0
LINE
  5
755A2
  8
SUNPOU
 10
15456.000000000009
 20
14718.121500361291
 30
0.0
 11
18176.0
 21
14718.121500361291
 31
0.0
  0
TEXT
  5
755A3
  8
SUNPOU
 10
16627.123809523811
 20
14398.121500361291
 30
0.0
 40
160.0
  1
8650
 41
0.6700000000000002
  7
00
  0
TEXT
  5
755A4
  8
SUNPOU
 10
16627.123809523819
 20
20978.121500361289
 30
0.0
 40
160.0
  1
8650
 41
0.6700000000000002
  7
00
  0
TEXT
  5
755A5
  8
SUNPOU
 10
16627.123809523819
 20
21378.121500361289
 30
0.0
 40
160.0
  1
8720
 41
0.6700000000000002
  7
00
  0
LINE
  5
755A6
  8
U1
 10
12491.000000000009
 20
16318.121500361291
 30
0.0
 11
12573.500000000009
 21
16318.121500361291
 31
0.0
  0
LINE
  5
755A7
  8
U1
 10
12466.000000000009
 20
20098.121500361289
 30
0.0
 11
21166.000000000011
 21
20098.121500361289
 31
0.0
  0
LINE
  5
755A9
  8
U1
 10
12466.000000000009
 20
19918.121500361289
 30
0.0
 11
21166.000000000011
 21
19918.121500361289
 31
0.0
  0
LINE
  5
755AA
  8
U1
 10
12456.000000000009
 20
20058.121500361289
 30
0.0
 11
21176.000000000011
 21
20058.121500361289
 31
0.0
  0
LINE
  5
755AB
  8
U1
 10
12456.000000000009
 20
20043.121500361289
 30
0.0
 11
21176.000000000011
 21
20043.121500361289
 31
0.0
  0
LINE
  5
755AC
  8
U1
 10
12456.000000000009
 20
19973.121500361289
 30
0.0
 11
21176.000000000011
 21
19973.121500361289
 31
0.0
  0
LINE
  5
755AD
  8
U1
 10
12456.000000000009
 20
19958.121500361289
 30
0.0
 11
21176.000000000011
 21
19958.121500361289
 31
0.0
  0
LINE
  5
755AE
  8
1PL-M1
 10
12616.000000000009
 20
14078.121500361291
 30
0.0
 11
12616.000000000009
 21
16818.121500361289
 31
0.0
  0
LINE
  5
755AF
  8
1PL-M1
 10
15416.0
 20
14078.121500361291
 30
0.0
 11
15416.0
 21
16818.121500361289
 31
0.0
  0
LINE
  5
755B0
  8
SUNPOU
 10
12491.000000000009
 20
16238.121500361291
 30
0.0
 11
12491.000000000009
 21
14198.121500361291
 31
0.0
  0
CIRCLE
  5
755B1
  8
SUNPOU
 10
12616.000000000009
 20
13878.121500361291
 30
0.0
 40
200.0
  0
TEXT
  5
755B2
  8
SUNPOU
 10
12550.9142857143
 20
13758.121500361291
 30
0.0
 40
240.0
  1
1
 41
0.6700000000000002
  7
00
 72
     4
 11
12616.000000000009
 21
13878.121500361291
 31
0.0
  0
CIRCLE
  5
755B3
  8
SUNPOU
 10
15416.000000000009
 20
13878.121500361291
 30
0.0
 40
200.0
  0
TEXT
  5
755B4
  8
SUNPOU
 10
15339.42857142858
 20
13758.121500361291
 30
0.0
 40
240.0
  1
2
 41
0.6700000000000002
  7
00
 72
     4
 11
15416.000000000009
 21
13878.121500361291
 31
0.0
  0
LINE
  5
755B5
  8
U1
 10
12664.29427045179
 20
19918.691127034319
 30
0.0
 11
12664.29427045179
 21
19689.121500361289
 31
0.0
  0
LINE
  5
755B6
  8
U1
 10
12491.000000000009
 20
16318.121500361291
 30
0.0
 11
12491.000000000009
 21
19470.556065383062
 31
0.0
  0
LINE
  5
755B7
  8
U1
 10
12721.99999999998
 20
16318.121500361291
 30
0.0
 11
12721.99999999998
 21
18988.121500361289
 31
0.0
  0
LINE
  5
755B8
  8
U1
 10
18322.0
 20
16318.121500361291
 30
0.0
 11
18322.0
 21
18988.121500361289
 31
0.0
  0
LINE
  5
755B9
  8
U1
 10
18276.5
 20
16318.121500361291
 30
0.0
 11
18276.5
 21
18988.121500361289
 31
0.0
  0
LINE
  5
755BA
  8
U1
 10
18155.499999999989
 20
16318.121500361291
 30
0.0
 11
18155.5
 21
18988.121500361289
 31
0.0
  0
LINE
  5
755BB
  8
U1
 10
18110.0
 20
16318.121500361291
 30
0.0
 11
18110.0
 21
18988.121500361289
 31
0.0
  0
LINE
  5
755BC
  8
SUNPOU
 10
12656.000000000009
 20
14718.121500361291
 30
0.0
 11
15376.000000000009
 21
14718.121500361291
 31
0.0
  0
TEXT
  5
755BD
  8
SUNPOU
 10
14115.99200123542
 20
14798.121500361291
 30
0.0
 40
160.0
  1
2800
 41
0.6700000000000002
  7
00
  0
LINE
  5
755BE
  8
SUNPOU
 10
12491.0
 20
14718.121500361291
 30
0.0
 11
12049.65262541413
 21
14718.121500361291
 31
0.0
  0
TEXT
  5
755BF
  8
SUNPOU
 10
12122.7220639097
 20
14798.121500361291
 30
0.0
 40
160.0
  1
125
 41
0.6700000000000002
  7
00
  0
LINE
  5
755C4
  8
SUNPOU
 10
12531.0
 20
14718.121500361291
 30
0.0
 11
12576.000000000009
 21
14718.121500361291
 31
0.0
  0
TEXT
  5
755C5
  8
SUNPOU
 10
13469.506315504241
 20
14798.121500361291
 30
0.0
 40
160.0
  1
柱芯寸
  7
01
  0
TEXT
  5
755C8
  8
SUNPOU
 10
16269.506315504241
 20
14798.121500361291
 30
0.0
 40
160.0
  1
柱芯寸
  7
01
  0
LINE
  5
755C9
  8
SUNPOU
 10
12456.000000000009
 20
20178.121500361289
 30
0.0
 11
12456.000000000009
 21
21418.121500361289
 31
0.0
  0
LINE
  5
755CA
  8
SUNPOU
 10
12491.000000000009
 20
20178.121500361289
 30
0.0
 11
12491.000000000009
 21
21018.121500361289
 31
0.0
  0
LINE
  5
755CB
  8
U1
 10
12456.000000000009
 20
19928.121500361289
 30
0.0
 11
12456.000000000009
 21
20088.121500361289
 31
0.0
  0
ARC
  5
755CE
  8
U1
 10
12466.000000000009
 20
19928.121500361289
 30
0.0
 40
10.0
 50
180.0
 51
270.0
  0
ARC
  5
755CF
  8
U1
 10
12466.000000000009
 20
20088.121500361289
 30
0.0
 40
10.0
 50
90.0
 51
180.0
  0
TEXT
  5
755D0
  8
SUNPOU
 10
12162.4380952381
 20
20978.121500361289
 30
0.0
 40
160.0
  1
35
 41
0.6700000000000002
  7
00
  0
LINE
  5
755D1
  8
SUNPOU
 10
12396.000000000009
 20
20898.121500361289
 30
0.0
 11
12110.82137393905
 21
20898.121500361289
 31
0.0
  0
LINE
  5
755D5
  8
U1
 10
15541.0
 20
19918.121500361289
 30
0.0
 11
15541.0
 21
20098.121500361289
 31
0.0
  0
LINE
  5
755D6
  8
1PL-M1
 10
21016.000000000011
 20
14078.121500361291
 30
0.0
 11
21016.000000000011
 21
16818.121500361289
 31
0.0
  0
LINE
  5
755D7
  8
1PL-M1
 10
18216.0
 20
14078.121500361291
 30
0.0
 11
18216.0
 21
16818.121500361289
 31
0.0
  0
LINE
  5
755D8
  8
SUNPOU
 10
21141.000000000011
 20
16238.121500361291
 30
0.0
 11
21141.000000000011
 21
14198.121500361291
 31
0.0
  0
CIRCLE
  5
755D9
  8
SUNPOU
 10
18216.000000000011
 20
13878.121500361291
 30
0.0
 40
200.0
  0
TEXT
  5
755DF
  8
SUNPOU
 10
18139.428571428591
 20
13758.121500361291
 30
0.0
 40
240.0
  1
3
 41
0.6700000000000002
  7
00
 72
     4
 11
18216.000000000011
 21
13878.121500361291
 31
0.0
  0
CIRCLE
  5
755E0
  8
SUNPOU
 10
21016.000000000018
 20
13878.121500361291
 30
0.0
 40
200.0
  0
TEXT
  5
755E1
  8
SUNPOU
 10
20935.60000000002
 20
13758.121500361291
 30
0.0
 40
240.0
  1
4
 41
0.6700000000000002
  7
00
 72
     4
 11
21016.000000000018
 21
13878.121500361291
 31
0.0
  0
LINE
  5
755E2
  8
U1
 10
20967.70572954823
 20
19918.121500361289
 30
0.0
 11
20967.70572954823
 21
19689.121500361289
 31
0.0
  0
LINE
  5
755E3
  8
U1
 10
21141.000000000011
 20
16318.121500361291
 30
0.0
 11
21141.000000000011
 21
19470.556065383062
 31
0.0
  0
LINE
  5
755E4
  8
U1
 10
15471.000000000009
 20
16318.121500361291
 30
0.0
 11
15471.000000000009
 21
19374.555091614991
 31
0.0
  0
LINE
  5
755E5
  8
U1
 10
15522.0
 20
16318.121500361291
 30
0.0
 11
15522.0
 21
18988.121500361289
 31
0.0
  0
LINE
  5
755E6
  8
U1
 10
15361.000000000009
 20
16318.121500361291
 30
0.0
 11
15361.000000000009
 21
19374.555091614991
 31
0.0
  0
LINE
  5
755E7
  8
U1
 10
15310.0
 20
16318.121500361291
 30
0.0
 11
15310.0
 21
18988.121500361289
 31
0.0
  0
LINE
  5
755E8
  8
U1
 10
20910.000000000051
 20
16318.121500361291
 30
0.0
 11
20910.000000000051
 21
18988.121500361289
 31
0.0
  0
LINE
  5
755EA
  8
SUNPOU
 10
12761.999999999991
 20
15518.121500361291
 30
0.0
 11
15270.000000000009
 21
15518.121500361291
 31
0.0
  0
LINE
  5
755EB
  8
SUNPOU
 10
18256.000000000011
 20
14718.121500361291
 30
0.0
 11
20976.000000000011
 21
14718.121500361291
 31
0.0
  0
TEXT
  5
755EC
  8
SUNPOU
 10
19069.506315504241
 20
14798.121500361291
 30
0.0
 40
160.0
  1
柱芯寸
  7
01
  0
TEXT
  5
755ED
  8
SUNPOU
 10
16915.99200123542
 20
14798.121500361291
 30
0.0
 40
160.0
  1
2800
 41
0.6700000000000002
  7
00
  0
LINE
  5
755EE
  8
SUNPOU
 10
15522.000000000009
 20
16238.121500361291
 30
0.0
 11
15522.000000000009
 21
15398.121500361291
 31
0.0
  0
TEXT
  5
755F3
  8
SUNPOU
 10
19715.99200123542
 20
14798.121500361291
 30
0.0
 40
160.0
  1
2800
 41
0.6700000000000002
  7
00
  0
LINE
  5
755F5
  8
SUNPOU
 10
15310.000000000009
 20
16238.121500361291
 30
0.0
 11
15310.000000000009
 21
15398.121500361291
 31
0.0
  0
LINE
  5
755F6
  8
SUNPOU
 10
21016.000000000011
 20
14718.121500361291
 30
0.0
 11
21582.34737458589
 21
14718.121500361291
 31
0.0
  0
TEXT
  5
755F7
  8
SUNPOU
 10
21254.03984085222
 20
14798.121500361291
 30
0.0
 40
160.0
  1
125
 41
0.6700000000000002
  7
00
  0
LINE
  5
755FE
  8
U1
 10
18341.0
 20
19918.121500361289
 30
0.0
 11
18341.0
 21
20098.121500361289
 31
0.0
  0
LINE
  5
755FF
  8
SUNPOU
 10
21176.000000000018
 20
20178.121500361289
 30
0.0
 11
21176.000000000018
 21
21418.121500361289
 31
0.0
  0
LINE
  5
75600
  8
SUNPOU
 10
21141.000000000011
 20
20178.121500361289
 30
0.0
 11
21141.000000000011
 21
21018.121500361289
 31
0.0
  0
LINE
  5
75601
  8
U1
 10
21176.000000000011
 20
19928.121500361289
 30
0.0
 11
21176.000000000011
 21
20088.121500361289
 31
0.0
  0
ARC
  5
75604
  8
U1
 10
21166.000000000011
 20
19928.121500361289
 30
0.0
 40
10.0
 50
270.0
 51
0.0
  0
ARC
  5
75605
  8
U1
 10
21166.000000000011
 20
20088.121500361289
 30
0.0
 40
10.0
 50
0.0
 51
90.0
  0
TEXT
  5
75606
  8
SUNPOU
 10
21296.000000000018
 20
20978.121500361289
 30
0.0
 40
160.0
  1
35
 41
0.6700000000000002
  7
00
  0
LINE
  5
75607
  8
SUNPOU
 10
21236.000000000011
 20
20898.121500361289
 30
0.0
 11
21521.17862606097
 21
20898.121500361289
 31
0.0
  0
LINE
  5
7560B
  8
SUNPOU
 10
12376.000000000009
 20
20098.121500361289
 30
0.0
 11
11171.000000000009
 21
20098.121500361289
 31
0.0
  0
LINE
  5
7560C
  8
SUNPOU
 10
12411.000000000009
 20
16318.121500361291
 30
0.0
 11
11171.000000000009
 21
16318.121500361291
 31
0.0
  0
LINE
  5
7560D
  8
SUNPOU
 10
11291.000000000009
 20
16358.121500361291
 30
0.0
 11
11291.000000000009
 21
20058.121500361289
 31
0.0
  0
TEXT
  5
7560E
  8
SUNPOU
 10
11211.000000000009
 20
18019.2453098851
 30
0.0
 40
160.0
  1
3780
 50
90.0
 41
0.6700000000000002
  7
00
  0
LINE
  5
75611
  8
U1
 10
12721.99999999998
 20
16459.721500361291
 30
0.0
 11
15310.000000000029
 21
16459.721500361291
 31
0.0
  0
LINE
  5
75612
  8
U1
 10
12721.99999999998
 20
16530.52150036129
 30
0.0
 11
15310.000000000029
 21
16530.52150036129
 31
0.0
  0
LINE
  5
75613
  8
U1
 10
12721.99999999998
 20
16601.32150036129
 30
0.0
 11
15310.000000000029
 21
16601.32150036129
 31
0.0
  0
LINE
  5
75614
  8
U1
 10
12721.99999999998
 20
16672.121500361289
 30
0.0
 11
15310.000000000029
 21
16672.121500361289
 31
0.0
  0
LINE
  5
75615
  8
U1
 10
12721.99999999998
 20
16742.921500361292
 30
0.0
 11
15310.000000000029
 21
16742.921500361292
 31
0.0
  0
LINE
  5
75616
  8
U1
 10
12721.99999999998
 20
16813.72150036128
 30
0.0
 11
15310.000000000029
 21
16813.72150036128
 31
0.0
  0
LINE
  5
75617
  8
U1
 10
12721.99999999998
 20
16884.52150036129
 30
0.0
 11
15310.000000000029
 21
16884.52150036129
 31
0.0
  0
LINE
  5
75618
  8
U1
 10
12721.99999999998
 20
16955.32150036129
 30
0.0
 11
15310.000000000029
 21
16955.32150036129
 31
0.0
  0
LINE
  5
75619
  8
U1
 10
12721.99999999998
 20
17026.121500361289
 30
0.0
 11
15310.000000000029
 21
17026.121500361289
 31
0.0
  0
LINE
  5
7561A
  8
U1
 10
12721.99999999998
 20
17096.921500361292
 30
0.0
 11
15310.000000000029
 21
17096.921500361292
 31
0.0
  0
LINE
  5
7561B
  8
U1
 10
12721.99999999998
 20
17167.721500361291
 30
0.0
 11
15310.000000000029
 21
17167.721500361291
 31
0.0
  0
LINE
  5
7561C
  8
U1
 10
12721.99999999998
 20
17238.52150036129
 30
0.0
 11
15310.000000000029
 21
17238.52150036129
 31
0.0
  0
LINE
  5
7561D
  8
U1
 10
12722.000000000009
 20
17309.32150036129
 30
0.0
 11
15310.000000000029
 21
17309.32150036129
 31
0.0
  0
LINE
  5
7561E
  8
U1
 10
12722.000000000009
 20
18088.121500361289
 30
0.0
 11
15310.000000000029
 21
18088.121500361289
 31
0.0
  0
LINE
  5
7561F
  8
U1
 10
12722.000000000009
 20
18017.32150036129
 30
0.0
 11
15310.000000000029
 21
18017.32150036129
 31
0.0
  0
LINE
  5
75620
  8
U1
 10
12722.000000000009
 20
17946.52150036129
 30
0.0
 11
15310.000000000029
 21
17946.52150036129
 31
0.0
  0
LINE
  5
75621
  8
U1
 10
12722.000000000009
 20
17875.721500361291
 30
0.0
 11
15310.000000000029
 21
17875.721500361291
 31
0.0
  0
LINE
  5
75622
  8
U1
 10
12722.000000000009
 20
17804.921500361292
 30
0.0
 11
15310.000000000029
 21
17804.921500361292
 31
0.0
  0
LINE
  5
75623
  8
U1
 10
12722.000000000009
 20
17734.121500361289
 30
0.0
 11
15310.000000000029
 21
17734.121500361289
 31
0.0
  0
LINE
  5
75624
  8
U1
 10
12722.000000000009
 20
17663.32150036129
 30
0.0
 11
15310.000000000029
 21
17663.32150036129
 31
0.0
  0
LINE
  5
75625
  8
U1
 10
12722.000000000009
 20
17592.52150036129
 30
0.0
 11
15310.000000000029
 21
17592.52150036129
 31
0.0
  0
LINE
  5
75626
  8
U1
 10
12722.000000000009
 20
17521.721500361291
 30
0.0
 11
15310.000000000029
 21
17521.721500361291
 31
0.0
  0
LINE
  5
75627
  8
U1
 10
12722.000000000009
 20
17450.921500361292
 30
0.0
 11
15310.000000000029
 21
17450.921500361292
 31
0.0
  0
LINE
  5
75628
  8
U1
 10
12722.000000000009
 20
17380.121500361289
 30
0.0
 11
15310.000000000029
 21
17380.121500361289
 31
0.0
  0
LINE
  5
75629
  8
U1
 10
12722.000000000009
 20
18158.921500361292
 30
0.0
 11
15310.000000000029
 21
18158.921500361292
 31
0.0
  0
LINE
  5
7562A
  8
U1
 10
12721.99999999998
 20
16388.921500361292
 30
0.0
 11
15310.000000000029
 21
16388.921500361292
 31
0.0
  0
LINE
  5
7562B
  8
U1
 10
12722.000000000009
 20
18229.721500361291
 30
0.0
 11
15310.000000000029
 21
18229.721500361291
 31
0.0
  0
LINE
  5
7562C
  8
U1
 10
12722.000000000009
 20
18300.52150036129
 30
0.0
 11
15310.000000000029
 21
18300.52150036129
 31
0.0
  0
LINE
  5
7562D
  8
U1
 10
12722.0
 20
18512.921500361292
 30
0.0
 11
15310.000000000029
 21
18512.921500361292
 31
0.0
  0
LINE
  5
7562E
  8
U1
 10
12722.0
 20
18442.121500361289
 30
0.0
 11
15310.000000000029
 21
18442.121500361289
 31
0.0
  0
LINE
  5
7562F
  8
U1
 10
12722.0
 20
18371.32150036129
 30
0.0
 11
15310.000000000029
 21
18371.32150036129
 31
0.0
  0
LINE
  5
75630
  8
U1
 10
12722.0
 20
18866.921500361281
 30
0.0
 11
15310.00000000002
 21
18866.921500361281
 31
0.0
  0
LINE
  5
75631
  8
U1
 10
12722.0
 20
18937.72150036128
 30
0.0
 11
15310.00000000002
 21
18937.72150036128
 31
0.0
  0
LINE
  5
75632
  8
U1
 10
12722.0
 20
18796.121500361282
 30
0.0
 11
15310.000000000029
 21
18796.121500361282
 31
0.0
  0
LINE
  5
75633
  8
U1
 10
12722.0
 20
18725.321500361279
 30
0.0
 11
15310.000000000029
 21
18725.321500361279
 31
0.0
  0
LINE
  5
75634
  8
U1
 10
12722.0
 20
18654.521500361279
 30
0.0
 11
15310.000000000029
 21
18654.521500361279
 31
0.0
  0
LINE
  5
75635
  8
U1
 10
12722.0
 20
18583.72150036128
 30
0.0
 11
15310.000000000029
 21
18583.72150036128
 31
0.0
  0
LINE
  5
75636
  8
U1
 10
15522.000000000029
 20
18583.72150036128
 30
0.0
 11
18110.000000000029
 21
18583.72150036128
 31
0.0
  0
LINE
  5
75637
  8
U1
 10
15522.000000000029
 20
18654.521500361279
 30
0.0
 11
18110.000000000018
 21
18654.521500361279
 31
0.0
  0
LINE
  5
75638
  8
U1
 10
15522.000000000029
 20
18725.321500361279
 30
0.0
 11
18110.000000000018
 21
18725.321500361279
 31
0.0
  0
LINE
  5
75639
  8
U1
 10
15522.000000000029
 20
18796.121500361282
 30
0.0
 11
18110.000000000018
 21
18796.121500361282
 31
0.0
  0
LINE
  5
7563A
  8
U1
 10
15522.00000000002
 20
18937.72150036128
 30
0.0
 11
18110.000000000011
 21
18937.72150036128
 31
0.0
  0
LINE
  5
7563B
  8
U1
 10
15522.00000000002
 20
18866.921500361281
 30
0.0
 11
18110.000000000011
 21
18866.921500361281
 31
0.0
  0
LINE
  5
7563C
  8
U1
 10
15522.000000000029
 20
18371.32150036129
 30
0.0
 11
18110.000000000029
 21
18371.32150036129
 31
0.0
  0
LINE
  5
7563D
  8
U1
 10
15522.000000000029
 20
18442.121500361289
 30
0.0
 11
18110.000000000029
 21
18442.121500361289
 31
0.0
  0
LINE
  5
7563E
  8
U1
 10
15522.000000000029
 20
18512.921500361292
 30
0.0
 11
18110.000000000029
 21
18512.921500361292
 31
0.0
  0
LINE
  5
7563F
  8
U1
 10
15522.000000000029
 20
18300.52150036129
 30
0.0
 11
18110.000000000029
 21
18300.52150036129
 31
0.0
  0
LINE
  5
75640
  8
U1
 10
15522.000000000029
 20
18229.721500361291
 30
0.0
 11
18110.000000000029
 21
18229.721500361291
 31
0.0
  0
LINE
  5
75641
  8
U1
 10
15522.000000000029
 20
18158.921500361292
 30
0.0
 11
18110.000000000029
 21
18158.921500361292
 31
0.0
  0
LINE
  5
75642
  8
U1
 10
15522.00000000004
 20
17380.121500361289
 30
0.0
 11
18110.000000000029
 21
17380.121500361289
 31
0.0
  0
LINE
  5
75643
  8
U1
 10
15522.00000000004
 20
17450.921500361292
 30
0.0
 11
18110.000000000029
 21
17450.921500361292
 31
0.0
  0
LINE
  5
75644
  8
U1
 10
15522.00000000004
 20
17521.721500361291
 30
0.0
 11
18110.000000000029
 21
17521.721500361291
 31
0.0
  0
LINE
  5
75645
  8
U1
 10
15522.00000000004
 20
17592.52150036129
 30
0.0
 11
18110.000000000029
 21
17592.52150036129
 31
0.0
  0
LINE
  5
75646
  8
U1
 10
15522.00000000004
 20
17663.32150036129
 30
0.0
 11
18110.000000000029
 21
17663.32150036129
 31
0.0
  0
LINE
  5
75647
  8
U1
 10
15522.00000000004
 20
17734.121500361289
 30
0.0
 11
18110.000000000029
 21
17734.121500361289
 31
0.0
  0
LINE
  5
75648
  8
U1
 10
15522.00000000004
 20
17804.921500361292
 30
0.0
 11
18110.000000000029
 21
17804.921500361292
 31
0.0
  0
LINE
  5
75649
  8
U1
 10
15522.00000000004
 20
17875.721500361291
 30
0.0
 11
18110.000000000029
 21
17875.721500361291
 31
0.0
  0
LINE
  5
7564A
  8
U1
 10
15522.00000000004
 20
17946.52150036129
 30
0.0
 11
18110.000000000029
 21
17946.52150036129
 31
0.0
  0
LINE
  5
7564B
  8
U1
 10
15522.00000000004
 20
18017.32150036129
 30
0.0
 11
18110.000000000029
 21
18017.32150036129
 31
0.0
  0
LINE
  5
7564C
  8
U1
 10
15522.00000000004
 20
18088.121500361289
 30
0.0
 11
18110.000000000029
 21
18088.121500361289
 31
0.0
  0
LINE
  5
7564D
  8
U1
 10
15522.00000000004
 20
17309.32150036129
 30
0.0
 11
18110.000000000029
 21
17309.32150036129
 31
0.0
  0
LINE
  5
7564E
  8
U1
 10
15522.00000000004
 20
17238.52150036129
 30
0.0
 11
18110.000000000029
 21
17238.52150036129
 31
0.0
  0
LINE
  5
7564F
  8
U1
 10
15522.00000000004
 20
17167.721500361291
 30
0.0
 11
18110.000000000029
 21
17167.721500361291
 31
0.0
  0
LINE
  5
75650
  8
U1
 10
15522.00000000004
 20
17096.921500361292
 30
0.0
 11
18110.000000000029
 21
17096.921500361292
 31
0.0
  0
LINE
  5
75651
  8
U1
 10
15522.00000000004
 20
17026.121500361289
 30
0.0
 11
18110.000000000029
 21
17026.121500361289
 31
0.0
  0
LINE
  5
75652
  8
U1
 10
15522.00000000004
 20
16955.32150036129
 30
0.0
 11
18110.000000000029
 21
16955.32150036129
 31
0.0
  0
LINE
  5
75653
  8
U1
 10
15522.00000000004
 20
16884.52150036129
 30
0.0
 11
18110.000000000029
 21
16884.52150036129
 31
0.0
  0
LINE
  5
75654
  8
U1
 10
15522.00000000004
 20
16813.72150036128
 30
0.0
 11
18110.000000000029
 21
16813.72150036128
 31
0.0
  0
LINE
  5
75655
  8
U1
 10
15522.00000000004
 20
16742.921500361292
 30
0.0
 11
18110.000000000029
 21
16742.921500361292
 31
0.0
  0
LINE
  5
75656
  8
U1
 10
15522.00000000004
 20
16672.121500361289
 30
0.0
 11
18110.000000000029
 21
16672.121500361289
 31
0.0
  0
LINE
  5
75657
  8
U1
 10
15522.00000000004
 20
16601.32150036129
 30
0.0
 11
18110.000000000029
 21
16601.32150036129
 31
0.0
  0
LINE
  5
75658
  8
U1
 10
15522.00000000004
 20
16530.52150036129
 30
0.0
 11
18109.099999999999
 21
16530.52150036129
 31
0.0
  0
LINE
  5
75659
  8
U1
 10
15522.00000000004
 20
16459.721500361291
 30
0.0
 11
18109.099999999999
 21
16459.721500361291
 31
0.0
  0
LINE
  5
7565A
  8
U1
 10
15522.00000000004
 20
16388.921500361292
 30
0.0
 11
18109.099999999999
 21
16388.921500361292
 31
0.0
  0
LINE
  5
7565B
  8
U1
 10
18322.000000000029
 20
18371.32150036129
 30
0.0
 11
20910.000000000058
 21
18371.32150036129
 31
0.0
  0
LINE
  5
7565C
  8
U1
 10
18322.000000000029
 20
18300.52150036129
 30
0.0
 11
20910.000000000069
 21
18300.52150036129
 31
0.0
  0
LINE
  5
7565D
  8
U1
 10
18322.000000000029
 20
18229.721500361291
 30
0.0
 11
20910.000000000069
 21
18229.721500361291
 31
0.0
  0
LINE
  5
7565E
  8
U1
 10
18322.000000000011
 20
16388.921500361292
 30
0.0
 11
20910.000000000051
 21
16388.921500361292
 31
0.0
  0
LINE
  5
7565F
  8
U1
 10
18322.000000000011
 20
18158.921500361292
 30
0.0
 11
20910.000000000069
 21
18158.921500361292
 31
0.0
  0
LINE
  5
75660
  8
U1
 10
18322.000000000011
 20
17380.121500361289
 30
0.0
 11
20910.000000000069
 21
17380.121500361289
 31
0.0
  0
LINE
  5
75661
  8
U1
 10
18322.000000000011
 20
17450.921500361292
 30
0.0
 11
20910.000000000069
 21
17450.921500361292
 31
0.0
  0
LINE
  5
75662
  8
U1
 10
18322.000000000011
 20
17521.721500361291
 30
0.0
 11
20910.000000000069
 21
17521.721500361291
 31
0.0
  0
LINE
  5
75663
  8
U1
 10
18322.000000000011
 20
17592.52150036129
 30
0.0
 11
20910.000000000069
 21
17592.52150036129
 31
0.0
  0
LINE
  5
75664
  8
U1
 10
18322.000000000011
 20
17663.32150036129
 30
0.0
 11
20910.000000000069
 21
17663.32150036129
 31
0.0
  0
LINE
  5
75665
  8
U1
 10
18322.000000000011
 20
17734.121500361289
 30
0.0
 11
20910.000000000069
 21
17734.121500361289
 31
0.0
  0
LINE
  5
75666
  8
U1
 10
18322.000000000011
 20
17804.921500361292
 30
0.0
 11
20910.000000000069
 21
17804.921500361292
 31
0.0
  0
LINE
  5
75667
  8
U1
 10
18322.000000000011
 20
17875.721500361291
 30
0.0
 11
20910.000000000069
 21
17875.721500361291
 31
0.0
  0
LINE
  5
75668
  8
U1
 10
18322.000000000011
 20
17946.52150036129
 30
0.0
 11
20910.000000000069
 21
17946.52150036129
 31
0.0
  0
LINE
  5
75669
  8
U1
 10
18322.000000000011
 20
18017.32150036129
 30
0.0
 11
20910.000000000069
 21
18017.32150036129
 31
0.0
  0
LINE
  5
7566A
  8
U1
 10
18322.000000000011
 20
18088.121500361289
 30
0.0
 11
20910.000000000069
 21
18088.121500361289
 31
0.0
  0
LINE
  5
7566B
  8
U1
 10
18322.000000000011
 20
17309.32150036129
 30
0.0
 11
20910.000000000069
 21
17309.32150036129
 31
0.0
  0
LINE
  5
7566C
  8
U1
 10
18322.000000000011
 20
17238.52150036129
 30
0.0
 11
20910.000000000069
 21
17238.52150036129
 31
0.0
  0
LINE
  5
7566D
  8
U1
 10
18322.000000000011
 20
17167.721500361291
 30
0.0
 11
20910.000000000069
 21
17167.721500361291
 31
0.0
  0
LINE
  5
7566E
  8
U1
 10
18322.000000000011
 20
17096.921500361292
 30
0.0
 11
20910.000000000069
 21
17096.921500361292
 31
0.0
  0
LINE
  5
7566F
  8
U1
 10
18322.000000000011
 20
17026.121500361289
 30
0.0
 11
20910.000000000069
 21
17026.121500361289
 31
0.0
  0
LINE
  5
75670
  8
U1
 10
18322.000000000011
 20
16955.32150036129
 30
0.0
 11
20910.000000000069
 21
16955.32150036129
 31
0.0
  0
LINE
  5
75671
  8
U1
 10
18322.000000000011
 20
16884.52150036129
 30
0.0
 11
20910.000000000069
 21
16884.52150036129
 31
0.0
  0
LINE
  5
75672
  8
U1
 10
18322.000000000011
 20
16813.72150036128
 30
0.0
 11
20910.000000000069
 21
16813.72150036128
 31
0.0
  0
LINE
  5
75673
  8
U1
 10
18322.000000000011
 20
16742.921500361292
 30
0.0
 11
20910.000000000069
 21
16742.921500361292
 31
0.0
  0
LINE
  5
75674
  8
U1
 10
18322.000000000011
 20
16672.121500361289
 30
0.0
 11
20910.000000000069
 21
16672.121500361289
 31
0.0
  0
LINE
  5
75675
  8
U1
 10
18322.000000000011
 20
16601.32150036129
 30
0.0
 11
20910.000000000051
 21
16601.32150036129
 31
0.0
  0
LINE
  5
75676
  8
U1
 10
18322.000000000011
 20
16530.52150036129
 30
0.0
 11
20910.000000000051
 21
16530.52150036129
 31
0.0
  0
LINE
  5
75677
  8
U1
 10
18322.000000000011
 20
16459.721500361291
 30
0.0
 11
20910.000000000051
 21
16459.721500361291
 31
0.0
  0
LINE
  5
75678
  8
U1
 10
18322.000000000029
 20
18583.72150036128
 30
0.0
 11
20910.000000000058
 21
18583.72150036128
 31
0.0
  0
LINE
  5
75679
  8
U1
 10
18322.000000000018
 20
18654.521500361279
 30
0.0
 11
20910.000000000058
 21
18654.521500361279
 31
0.0
  0
LINE
  5
7567A
  8
U1
 10
18322.000000000018
 20
18725.321500361279
 30
0.0
 11
20910.000000000058
 21
18725.321500361279
 31
0.0
  0
LINE
  5
7567B
  8
U1
 10
18322.000000000018
 20
18796.121500361282
 30
0.0
 11
20910.000000000058
 21
18796.121500361282
 31
0.0
  0
LINE
  5
7567C
  8
U1
 10
18322.000000000011
 20
18937.72150036128
 30
0.0
 11
20910.000000000058
 21
18937.72150036128
 31
0.0
  0
LINE
  5
7567D
  8
U1
 10
18322.000000000011
 20
18866.921500361281
 30
0.0
 11
20910.000000000058
 21
18866.921500361281
 31
0.0
  0
LINE
  5
7567E
  8
U1
 10
18322.000000000029
 20
18442.121500361289
 30
0.0
 11
20910.000000000058
 21
18442.121500361289
 31
0.0
  0
LINE
  5
7567F
  8
U1
 10
18322.000000000029
 20
18512.921500361292
 30
0.0
 11
20910.000000000058
 21
18512.921500361292
 31
0.0
  0
LINE
  5
75680
  8
U1
 10
15355.5
 20
16318.121500361291
 30
0.0
 11
15355.5
 21
18988.121500361289
 31
0.0
  0
LINE
  5
75681
  8
U1
 10
15476.5
 20
16318.121500361291
 30
0.0
 11
15476.5
 21
18988.121500361289
 31
0.0
  0
LINE
  5
75684
  8
U1
 10
12676.33745930752
 20
16318.121500361291
 30
0.0
 11
12676.33745930752
 21
18988.121500361289
 31
0.0
  0
LINE
  5
75685
  8
U1
 10
20955.500000000051
 20
16318.121500361291
 30
0.0
 11
20955.500000000051
 21
18988.121500361289
 31
0.0
  0
LINE
  5
7568B
  8
U1
 10
19641.00000000004
 20
17333.921500361292
 30
0.0
 11
19622.25000000004
 21
17344.746817908592
 31
0.0
  0
LINE
  5
7568C
  8
U1
 10
19591.00000000004
 20
17333.921500361292
 30
0.0
 11
19609.75000000004
 21
17344.746817908592
 31
0.0
  0
LINE
  5
7568D
  8
U1
 10
19591.00000000004
 20
17333.921500361292
 30
0.0
 11
19609.75000000004
 21
17323.096182813981
 31
0.0
  0
LINE
  5
7568E
  8
U1
 10
19641.00000000004
 20
17333.921500361292
 30
0.0
 11
19622.25000000004
 21
17323.096182813981
 31
0.0
  0
ARC
  5
7568F
  8
U1
 10
19616.00000000004
 20
17333.921500361292
 30
0.0
 40
12.5
 50
60.000000000002721
 51
119.9999999999972
  0
ARC
  5
75690
  8
U1
 10
19616.00000000004
 20
17333.921500361292
 30
0.0
 40
12.5
 50
240.0000000000027
 51
299.99999999999733
  0
LINE
  5
75693
  8
U1
 10
16841.000000000058
 20
17333.921500361292
 30
0.0
 11
16822.250000000058
 21
17344.746817908592
 31
0.0
  0
LINE
  5
75694
  8
U1
 10
16791.000000000058
 20
17333.921500361292
 30
0.0
 11
16809.750000000058
 21
17344.746817908592
 31
0.0
  0
LINE
  5
75695
  8
U1
 10
16791.000000000058
 20
17333.921500361292
 30
0.0
 11
16809.750000000058
 21
17323.096182813981
 31
0.0
  0
LINE
  5
75696
  8
U1
 10
16841.000000000058
 20
17333.921500361292
 30
0.0
 11
16822.250000000058
 21
17323.096182813981
 31
0.0
  0
ARC
  5
75697
  8
U1
 10
16816.000000000058
 20
17333.921500361292
 30
0.0
 40
12.5
 50
60.000000000002721
 51
119.9999999999972
  0
ARC
  5
75698
  8
U1
 10
16816.000000000058
 20
17333.921500361292
 30
0.0
 40
12.5
 50
240.0000000000027
 51
299.99999999999733
  0
LINE
  5
7569B
  8
U1
 10
14041.000000000029
 20
17333.921500361292
 30
0.0
 11
14022.250000000029
 21
17344.746817908592
 31
0.0
  0
LINE
  5
7569C
  8
U1
 10
13991.00000000004
 20
17333.921500361292
 30
0.0
 11
14009.750000000029
 21
17344.746817908592
 31
0.0
  0
LINE
  5
7569D
  8
U1
 10
13991.00000000004
 20
17333.921500361292
 30
0.0
 11
14009.750000000029
 21
17323.096182813981
 31
0.0
  0
LINE
  5
7569E
  8
U1
 10
14041.000000000029
 20
17333.921500361292
 30
0.0
 11
14022.250000000029
 21
17323.096182813981
 31
0.0
  0
ARC
  5
7569F
  8
U1
 10
14016.000000000029
 20
17333.921500361292
 30
0.0
 40
12.5
 50
60.000000000002721
 51
119.9999999999972
  0
ARC
  5
756A0
  8
U1
 10
14016.000000000029
 20
17333.921500361292
 30
0.0
 40
12.5
 50
240.0000000000027
 51
299.99999999999733
  0
LINE
  5
756A1
  8
U1
 10
18271.0
 20
18988.121500361289
 30
0.0
 11
20960.000000000011
 21
18988.121500361289
 31
0.0
  0
LINE
  5
756A2
  8
U1
 10
15361.000000000009
 20
18988.121500361289
 30
0.0
 11
12664.294270451781
 21
18988.121500361289
 31
0.0
  0
LINE
  5
756A3
  8
U1
 10
20967.705729548219
 20
18988.121500361289
 30
0.0
 11
15471.000000000009
 21
18988.121500361289
 31
0.0
  0
LINE
  5
756A4
  8
SUNPOU
 10
11691.000000000009
 20
16358.121500361291
 30
0.0
 11
11691.000000000009
 21
18948.121500361289
 31
0.0
  0
LINE
  5
756A9
  8
SUNPOU
 10
12376.000000000009
 20
18988.121500361289
 30
0.0
 11
11571.000000000009
 21
18988.121500361289
 31
0.0
  0
LINE
  5
756AA
  8
U1
 10
20967.705729548219
 20
19188.537354019831
 30
0.0
 11
15471.000000000009
 21
19188.537354019831
 31
0.0
  0
LINE
  5
756AB
  8
U1
 10
15361.000000000009
 20
19188.537354019831
 30
0.0
 11
12664.294270451781
 21
19188.537354019831
 31
0.0
  0
LINE
  5
756AC
  8
U1
 10
15361.000000000009
 20
19188.537354019831
 30
0.0
 11
12672.0
 21
19188.537354019831
 31
0.0
  0
LINE
  5
756AE
  8
SUNPOU
 10
12721.99999999998
 20
16238.121500361291
 30
0.0
 11
12721.99999999998
 21
15398.121500361291
 31
0.0
  0
LINE
  5
756AF
  8
SUNPOU
 10
15562.000000000009
 20
15518.121500361291
 30
0.0
 11
20628.000000000018
 21
15518.121500361291
 31
0.0
  0
LINE
  5
756B3
  8
SUNPOU
 10
20688.000000000018
 20
16238.121500361291
 30
0.0
 11
20688.000000000018
 21
15398.121500361291
 31
0.0
  0
TEXT
  5
758B4
  8
SUNPOU
 10
22644.18766515889
 20
17133.403468037661
 30
0.0
 40
160.0
  1
下屋前桁下面カラ
 50
90.0
  7
01
 72
     1
 11
22644.18766515889
 21
17874.736801370989
 31
0.0
  0
TEXT
  5
758B5
  8
SUNPOU
 10
22895.273568788059
 20
17128.070134704321
 30
0.0
 40
160.0
  1
本体基礎天端マデ
 50
90.0
  7
01
 72
     1
 11
22895.273568788059
 21
17874.736801370989
 31
0.0
  0
TEXT
  5
758B6
  8
SUNPOU
 10
22322.387106663609
 20
16779.570277695078
 30
0.0
 40
160.0
  1
下屋有効開口高サ
 50
90.0
  7
01
  0
TEXT
  5
758B8
  8
SUNPOU
 10
23462.2054226129
 20
17261.580870923772
 30
0.0
 40
160.0
  1
下屋高サ
 50
90.0
  7
01
  0
LINE
  5
758B9
  8
U1
 10
12573.500000000009
 20
19495.975870572482
 30
0.0
 11
12573.500000000009
 21
15918.12150036126
 31
0.0
  0
LINE
  5
758BA
  8
U1
 10
12658.500000000009
 20
15918.12150036126
 30
0.0
 11
12658.500000000009
 21
19401.121500361289
 31
0.0
  0
LINE
  5
758BB
  8
KERABA
 10
12456.000000000009
 20
19495.975870572482
 30
0.0
 11
12456.000000000009
 21
19675.40624389947
 31
0.0
  0
LINE
  5
758BC
  8
KERABA
 10
12491.000000000009
 20
19495.975870572482
 30
0.0
 11
12491.000000000009
 21
19675.40624389947
 31
0.0
  0
LINE
  5
758BD
  8
KERABA
 10
21176.0
 20
19551.975870572482
 30
0.0
 11
15416.0
 21
19551.975870572482
 31
0.0
  0
LINE
  5
758BE
  8
KERABA
 10
21176.0
 20
19549.975870572482
 30
0.0
 11
15416.0
 21
19549.975870572482
 31
0.0
  0
LINE
  5
758BF
  8
KERABA
 10
21176.0
 20
19539.975870572482
 30
0.0
 11
15416.0
 21
19539.975870572482
 31
0.0
  0
LINE
  5
758C0
  8
KERABA
 10
21176.0
 20
19537.975870572482
 30
0.0
 11
15416.0
 21
19537.975870572482
 31
0.0
  0
LINE
  5
758C1
  8
KERABA
 10
21176.0
 20
19527.975870572482
 30
0.0
 11
15416.0
 21
19527.975870572482
 31
0.0
  0
LINE
  5
758C2
  8
KERABA
 10
21176.0
 20
19619.40624389947
 30
0.0
 11
15416.0
 21
19619.40624389947
 31
0.0
  0
LINE
  5
758C3
  8
KERABA
 10
21176.0
 20
19623.40624389947
 30
0.0
 11
15416.0
 21
19623.40624389947
 31
0.0
  0
LINE
  5
758C4
  8
KERABA
 10
21176.0
 20
19633.40624389947
 30
0.0
 11
15416.0
 21
19633.40624389947
 31
0.0
  0
LINE
  5
758C5
  8
KERABA
 10
21176.0
 20
19635.40624389947
 30
0.0
 11
15416.0
 21
19635.40624389947
 31
0.0
  0
LINE
  5
758C6
  8
KERABA
 10
21176.0
 20
19645.40624389947
 30
0.0
 11
15416.0
 21
19645.40624389947
 31
0.0
  0
LINE
  5
758C7
  8
KERABA
 10
21176.0
 20
19523.975870572482
 30
0.0
 11
15416.0
 21
19523.975870572482
 31
0.0
  0
LINE
  5
758C8
  8
KERABA
 10
21176.0
 20
19647.40624389947
 30
0.0
 11
15416.0
 21
19647.40624389947
 31
0.0
  0
LINE
  5
758C9
  8
KERABA
 10
21176.0
 20
19495.975870572482
 30
0.0
 11
15416.00000000002
 21
19495.975870572482
 31
0.0
  0
LINE
  5
758CA
  8
KERABA
 10
21176.0
 20
19675.40624389947
 30
0.0
 11
15416.0
 21
19675.40624389947
 31
0.0
  0
LINE
  5
758CB
  8
下屋前桁
 10
15459.00000000008
 20
19393.121500361322
 30
0.0
 11
20972.999999999942
 21
19393.121500361322
 31
0.0
  0
LINE
  5
758CC
  8
下屋前桁
 10
12659.000000000009
 20
19401.121500361322
 30
0.0
 11
12621.000000000009
 21
19401.121500361289
 31
0.0
  0
ARC
  5
758CD
  8
下屋前桁
 10
12621.000000000009
 20
19406.121500361289
 30
0.0
 40
5.0
 50
180.0
 51
270.0
  0
LINE
  5
758CE
  8
下屋前桁
 10
12659.000000000069
 20
19401.121500361322
 30
0.0
 11
12659.000000000069
 21
19393.121500361289
 31
0.0
  0
LINE
  5
758CF
  8
下屋前桁
 10
12616.000000000009
 20
19495.975870572482
 30
0.0
 11
12616.000000000009
 21
19406.121500361289
 31
0.0
  0
LINE
  5
758D0
  8
U1
 10
21058.500000000011
 20
19495.975870572482
 30
0.0
 11
21058.500000000011
 21
15918.12150036126
 31
0.0
  0
LINE
  5
758D1
  8
U1
 10
20973.500000000011
 20
15918.12150036126
 30
0.0
 11
20973.500000000011
 21
19401.121500361289
 31
0.0
  0
LINE
  5
758D2
  8
KERABA
 10
12456.0
 20
19551.975870572482
 30
0.0
 11
15416.0
 21
19551.975870572482
 31
0.0
  0
LINE
  5
758D3
  8
KERABA
 10
12456.0
 20
19549.975870572482
 30
0.0
 11
15416.0
 21
19549.975870572482
 31
0.0
  0
LINE
  5
758D4
  8
KERABA
 10
12456.0
 20
19539.975870572482
 30
0.0
 11
15416.0
 21
19539.975870572482
 31
0.0
  0
LINE
  5
758D5
  8
KERABA
 10
12456.0
 20
19537.975870572482
 30
0.0
 11
15416.0
 21
19537.975870572482
 31
0.0
  0
LINE
  5
758D6
  8
KERABA
 10
12456.0
 20
19527.975870572482
 30
0.0
 11
15416.0
 21
19527.975870572482
 31
0.0
  0
LINE
  5
758D7
  8
KERABA
 10
12456.0
 20
19619.40624389947
 30
0.0
 11
15416.0
 21
19619.40624389947
 31
0.0
  0
LINE
  5
758D8
  8
KERABA
 10
12456.0
 20
19623.40624389947
 30
0.0
 11
15416.0
 21
19623.40624389947
 31
0.0
  0
LINE
  5
758D9
  8
KERABA
 10
12456.0
 20
19633.40624389947
 30
0.0
 11
15416.0
 21
19633.40624389947
 31
0.0
  0
LINE
  5
758DA
  8
KERABA
 10
12456.0
 20
19635.40624389947
 30
0.0
 11
15416.0
 21
19635.40624389947
 31
0.0
  0
LINE
  5
758DB
  8
KERABA
 10
12456.0
 20
19645.40624389947
 30
0.0
 11
15416.0
 21
19645.40624389947
 31
0.0
  0
LINE
  5
758DC
  8
KERABA
 10
12456.0
 20
19523.975870572482
 30
0.0
 11
15416.0
 21
19523.975870572482
 31
0.0
  0
LINE
  5
758DD
  8
KERABA
 10
12456.0
 20
19647.40624389947
 30
0.0
 11
15416.0
 21
19647.40624389947
 31
0.0
  0
LINE
  5
758DE
  8
KERABA
 10
12456.0
 20
19495.975870572482
 30
0.0
 11
15416.0
 21
19495.975870572482
 31
0.0
  0
LINE
  5
758DF
  8
KERABA
 10
12456.0
 20
19675.40624389947
 30
0.0
 11
15416.0
 21
19675.40624389947
 31
0.0
  0
LINE
  5
758E0
  8
下屋前桁
 10
15372.99999999996
 20
19393.121500361322
 30
0.0
 11
12659.00000000006
 21
19393.121500361322
 31
0.0
  0
LINE
  5
758E1
  8
下屋前桁
 10
20973.000000000011
 20
19401.121500361322
 30
0.0
 11
21011.000000000011
 21
19401.121500361289
 31
0.0
  0
ARC
  5
758E2
  8
下屋前桁
 10
21011.000000000011
 20
19406.121500361289
 30
0.0
 40
5.0
 50
270.0
 51
0.0
  0
LINE
  5
758E3
  8
下屋前桁
 10
20972.999999999949
 20
19401.121500361322
 30
0.0
 11
20972.999999999949
 21
19393.121500361289
 31
0.0
  0
LINE
  5
758E4
  8
下屋前桁
 10
21016.000000000011
 20
19495.975870572482
 30
0.0
 11
21016.000000000011
 21
19406.121500361289
 31
0.0
  0
TEXT
  5
758E5
  8
SUNPOU
 10
11611.000000000009
 20
16374.41990886522
 30
0.0
 40
160.0
  1
シャッター有効開口高サ
 50
90.0
  7
01
  0
TEXT
  5
758E6
  8
SUNPOU
 10
11611.00000000006
 20
18500.257522980632
 30
0.0
 40
160.0
  1
2670
 50
90.0
 41
0.6700000000000002
  7
00
  0
LINE
  5
758E7
  8
KERABA
 10
21176.000000000011
 20
19495.975870572482
 30
0.0
 11
21176.000000000011
 21
19675.40624389947
 31
0.0
  0
LINE
  5
758E8
  8
KERABA
 10
21141.000000000011
 20
19495.975870572482
 30
0.0
 11
21141.000000000011
 21
19675.40624389947
 31
0.0
  0
LINE
  5
758E9
  8
U1
 10
18216.0
 20
15918.12150036126
 30
0.0
 11
11517.093139678071
 21
15918.12150036126
 31
0.0
  0
LINE
  5
758EA
  8
U1
 10
18216.0
 20
15918.12150036126
 30
0.0
 11
22114.906860321938
 21
15918.12150036126
 31
0.0
  0
LINE
  5
758EB
  8
U1
 10
12496.00000000006
 20
15918.12150036126
 30
0.0
 11
12496.00000000012
 21
16318.12150036126
 31
0.0
  0
LINE
  5
758EC
  8
U1
 10
21135.999999999949
 20
15918.12150036132
 30
0.0
 11
21135.999999999862
 21
16318.12150036132
 31
0.0
  0
LINE
  5
7599F
  8
U1
 10
21141.000000000011
 20
19689.121500361289
 30
0.0
 11
21141.000000000011
 21
20098.121500361289
 31
0.0
  0
LINE
  5
759A0
  8
U1
 10
12491.000000000009
 20
19689.121500361289
 30
0.0
 11
12491.000000000009
 21
20098.121500361289
 31
0.0
  0
LINE
  5
759A1
  8
U1
 10
12664.29427045179
 20
19374.555091614991
 30
0.0
 11
12664.29427045179
 21
16318.121500361291
 31
0.0
  0
LINE
  5
759A2
  8
U1
 10
15361.000000000009
 20
19689.121500361289
 30
0.0
 11
15361.000000000009
 21
19918.121500361289
 31
0.0
  0
LINE
  5
759A3
  8
U1
 10
15471.000000000009
 20
19689.121500361289
 30
0.0
 11
15471.000000000009
 21
19918.121500361289
 31
0.0
  0
LINE
  5
759A4
  8
U1
 10
20967.70572954823
 20
19374.555091614991
 30
0.0
 11
20967.705729548241
 21
16318.121500361291
 31
0.0
  0
LINE
  5
759A5
  8
HIKIDASHI
 10
11375.056212936001
 20
15537.63741541309
 30
0.0
 11
12345.528500625
 21
15537.63741541309
 31
0.0
  0
TEXT
  5
759A6
  8
HIKIDASHI
 10
11392.116531612601
 20
15577.63741541309
 30
0.0
 40
160.0
  1
シャッター
  7
01
  0
TEXT
  5
759A9
  8
SUNPOU
 10
14777.112439540781
 20
15598.121500361291
 30
0.0
 40
160.0
  1
2588
 41
0.6700000000000002
  7
00
  0
TEXT
  5
759AA
  8
SUNPOU
 10
18896.225254073412
 20
15598.121500361291
 30
0.0
 40
160.0
  1
5166
 41
0.6700000000000002
  7
00
  0
TEXT
  5
759AB
  8
SUNPOU
 10
16885.9833177613
 20
15598.121500361291
 30
0.0
 40
160.0
  1
シャッター有効開口巾
  7
01
  0
TEXT
  5
759AC
  8
SUNPOU
 10
12828.84377571143
 20
15598.121500361291
 30
0.0
 40
160.0
  1
シャッター有効開口巾
  7
01
  0
LINE
  5
759ED
  8
U1
 10
20973.499999999989
 20
16318.121500361291
 30
0.0
 11
15458.500000000009
 21
16318.121500361291
 31
0.0
  0
LINE
  5
759EE
  8
U1
 10
15373.50000000002
 20
19401.121500361322
 30
0.0
 11
15373.500000000009
 21
15918.12150036126
 31
0.0
  0
LINE
  5
759EF
  8
U1
 10
15458.500000000009
 20
15918.12150036126
 30
0.0
 11
15458.500000000009
 21
19401.121500361289
 31
0.0
  0
LINE
  5
759F0
  8
下屋前桁
 10
15459.000000000009
 20
19401.121500361322
 30
0.0
 11
15421.000000000009
 21
19401.121500361289
 31
0.0
  0
ARC
  5
759F1
  8
下屋前桁
 10
15421.000000000009
 20
19406.121500361289
 30
0.0
 40
5.0
 50
180.0
 51
270.0
  0
LINE
  5
759F2
  8
下屋前桁
 10
15459.000000000069
 20
19401.121500361322
 30
0.0
 11
15459.000000000069
 21
19393.121500361289
 31
0.0
  0
LINE
  5
759F3
  8
下屋前桁
 10
15416.000000000009
 20
19495.975870572482
 30
0.0
 11
15416.000000000009
 21
19406.121500361289
 31
0.0
  0
LINE
  5
759F4
  8
下屋前桁
 10
15373.000000000009
 20
19401.121500361322
 30
0.0
 11
15411.000000000009
 21
19401.121500361289
 31
0.0
  0
ARC
  5
759F5
  8
下屋前桁
 10
15411.000000000009
 20
19406.121500361289
 30
0.0
 40
5.0
 50
270.0
 51
0.000000000000007
  0
LINE
  5
759F6
  8
下屋前桁
 10
15372.999999999951
 20
19401.121500361322
 30
0.0
 11
15372.999999999951
 21
19393.121500361289
 31
0.0
  0
LINE
  5
759F8
  8
U1
 10
15373.500000000029
 20
16318.121500361291
 30
0.0
 11
12658.500000000009
 21
16318.121500361291
 31
0.0
  0
LINE
  5
759F9
  8
U1
 10
21058.500000000011
 20
16318.121500361291
 30
0.0
 11
21141.000000000011
 21
16318.121500361291
 31
0.0
  0
TEXT
  5
75C54
  8
SUNPOU
 10
17468.81673982145
 20
15198.12150036126
 30
0.0
 40
160.0
  1
下屋有効開口巾
  7
01
  0
TEXT
  5
75C5B
  8
SUNPOU
 10
13068.756101028661
 20
15198.12150036126
 30
0.0
 40
160.0
  1
下屋有効開口巾
  7
01
  0
TEXT
  5
75D89
  8
FILENAME
 10
27870.666666666672
 20
348.0
 30
0.0
 40
200.0
  1
＜SOB-86HB-G_1_JIS_GL.DXF ＞
  7
FILENAME
 72
     2
 11
32764.0
 21
348.0
 31
0.0
  0
LINE
  5
75D8B
  8
WAKUSEN-01
 10
868.00000000000193
 20
827.99999999999955
 30
0.0
 11
32764.000000000011
 21
827.99999999999943
 31
0.0
  0
LINE
  5
75D8C
  8
WAKUSEN-01
 10
868.00000000000193
 20
22484.000000000011
 30
0.0
 11
32764.000000000011
 21
22484.000000000011
 31
0.0
  0
LINE
  5
75D8D
  8
WAKUSEN-01
 10
868.00000000000193
 20
827.99999999999955
 30
0.0
 11
868.00000000000193
 21
22484.000000000011
 31
0.0
  0
LINE
  5
75D8E
  8
WAKUSEN-01
 10
32764.000000000011
 20
827.99999999999943
 30
0.0
 11
32764.000000000011
 21
22484.000000000011
 31
0.0
  0
LINE
  5
75D8F
  8
WAKUSEN-01
 10
20560.0
 20
2484.0
 30
0.0
 11
32764.0
 21
2484.0
 31
0.0
  0
LINE
  5
75D90
  8
WAKUSEN-02
 10
20560.0
 20
1655.9999999999991
 30
0.0
 11
26868.0
 21
1655.9999999999991
 31
0.0
  0
TEXT
  5
75D91
  8
WAKUMOJI-01
 10
20670.260259962772
 20
2125.9030093393221
 30
0.0
 40
240.0
  1
名　称
  7
WAKUMOJI
  0
TEXT
  5
75D92
  8
WAKUMOJI-01
 10
20656.505485091919
 20
1319.1289749798209
 30
0.0
 40
240.0
  1
機種名
  7
WAKUMOJI
  0
LINE
  5
75D93
  8
WAKUSEN-01
 10
20560.0
 20
827.99999999999716
 30
0.0
 11
20560.0
 21
2484.0
 31
0.0
  0
LINE
  5
75D94
  8
WAKUSEN-02
 10
26868.0
 20
827.99999999999261
 30
0.0
 11
26868.0
 21
2484.0
 31
0.0
  0
LINE
  5
75D95
  8
YODOROGO
 10
29977.604341291921
 20
1995.7494964292871
 30
0.0
 11
29829.604341291921
 21
1995.7494964292871
 31
0.0
1001
AUTOCAD_POSTSCRIPT_FIGURE
1002
{
1000
PSFILL
1000
Grayscale
1000
Grayscale
1070
    25
1002
}
  0
LINE
  5
75D96
  8
YODOROGO
 10
29829.604341291921
 20
1947.749496429288
 30
0.0
 11
29977.604341291921
 21
1947.749496429288
 31
0.0
1001
AUTOCAD_POSTSCRIPT_FIGURE
1002
{
1000
PSFILL
1000
Grayscale
1000
Grayscale
1070
    25
1002
}
  0
LINE
  5
75D97
  8
YODOROGO
 10
29977.604341291921
 20
1907.7494964292871
 30
0.0
 11
29829.604341291921
 21
1907.7494964292871
 31
0.0
1001
AUTOCAD_POSTSCRIPT_FIGURE
1002
{
1000
PSFILL
1000
Grayscale
1000
Grayscale
1070
    25
1002
}
  0
LINE
  5
75D98
  8
YODOROGO
 10
29829.604341291921
 20
1859.749496429288
 30
0.0
 11
29977.604341291921
 21
1859.749496429288
 31
0.0
1001
AUTOCAD_POSTSCRIPT_FIGURE
1002
{
1000
PSFILL
1000
Grayscale
1000
Grayscale
1070
    25
1002
}
  0
LINE
  5
75D99
  8
YODOROGO
 10
29977.604341291921
 20
1819.749496429288
 30
0.0
 11
29829.604341291921
 21
1819.749496429288
 31
0.0
1001
AUTOCAD_POSTSCRIPT_FIGURE
1002
{
1000
PSFILL
1000
Grayscale
1000
Grayscale
1070
    25
1002
}
  0
LINE
  5
75D9A
  8
YODOROGO
 10
29921.60434129191
 20
1707.749496429288
 30
0.0
 11
29977.604341291921
 21
1707.749496429288
 31
0.0
1001
AUTOCAD_POSTSCRIPT_FIGURE
1002
{
1000
PSFILL
1000
Grayscale
1000
Grayscale
1070
    25
1002
}
  0
LINE
  5
75D9B
  8
YODOROGO
 10
29737.604341291921
 20
1427.749496429288
 30
0.0
 11
29937.604341291932
 21
1481.339334915511
 31
0.0
  0
LINE
  5
75D9C
  8
YODOROGO
 10
29949.604341291921
 20
1707.749496429288
 30
0.0
 11
29885.604341291921
 21
1707.749496429288
 31
0.0
  0
ARC
  5
75D9D
  8
YODOROGO
 10
30254.34774982791
 20
1807.8646092332619
 30
0.0
 40
381.88686420564733
 50
213.96111677667849
 51
264.47872074317792
  0
ARC
  5
75D9E
  8
YODOROGO
 10
30254.347749827921
 20
1807.864609233302
 30
0.0
 40
381.8868642056816
 50
208.14114420486601
 51
212.92103611859949
  0
LINE
  5
75D9F
  8
YODOROGO
 10
29771.40987298531
 20
1556.807661346234
 30
0.0
 11
29933.78413250855
 21
1600.3157130570869
 31
0.0
  0
LINE
  5
75DA0
  8
YODOROGO
 10
29737.604341291921
 20
1427.749496429288
 30
0.0
 11
29937.604341291932
 21
1481.339334915511
 31
0.0
  0
LINE
  5
75DA1
  8
YODOROGO
 10
29949.604341291921
 20
1707.749496429288
 30
0.0
 11
29885.604341291921
 21
1707.749496429288
 31
0.0
  0
ARC
  5
75DA2
  8
YODOROGO
 10
30254.34774982791
 20
1807.8646092332619
 30
0.0
 40
381.88686420564733
 50
213.96111677667849
 51
264.47872074317792
  0
LINE
  5
75DA3
  8
YODOROGO
 10
28793.60434129191
 20
1819.749496429288
 30
0.0
 11
28433.60434129191
 21
1819.749496429288
 31
0.0
  0
LINE
  5
75DA4
  8
YODOROGO
 10
28513.60434129191
 20
1427.749496429288
 30
0.0
 11
28793.60434129191
 21
1427.749496429288
 31
0.0
  0
LINE
  5
75DA5
  8
YODOROGO
 10
28729.604341291921
 20
1923.7494964292871
 30
0.0
 11
28497.60434129191
 21
1923.7494964292871
 31
0.0
  0
LINE
  5
75DA6
  8
YODOROGO
 10
28585.604341291921
 20
2027.749496429288
 30
0.0
 11
28657.604341291921
 21
2027.749496429288
 31
0.0
  0
LINE
  5
75DA7
  8
YODOROGO
 10
28433.60434129191
 20
1707.749496429288
 30
0.0
 11
28433.60434129191
 21
1507.749496429288
 31
0.0
  0
LINE
  5
75DA8
  8
YODOROGO
 10
28497.60434129191
 20
1563.7494964292871
 30
0.0
 11
28497.60434129191
 21
1707.749496429288
 31
0.0
  0
LINE
  5
75DA9
  8
YODOROGO
 10
28585.604341291921
 20
1747.74949642929
 30
0.0
 11
28585.604341291921
 21
1547.749496429288
 31
0.0
  0
LINE
  5
75DAA
  8
YODOROGO
 10
27857.604341291921
 20
1683.7494964292889
 30
0.0
 11
27777.604341291921
 21
1619.972414044571
 31
0.0
  0
LINE
  5
75DAB
  8
YODOROGO
 10
27937.604341291921
 20
1619.972414044571
 30
0.0
 11
27857.604341291921
 21
1683.7494964292889
 31
0.0
  0
LINE
  5
75DAC
  8
YODOROGO
 10
27857.604341291921
 20
1707.749496429288
 30
0.0
 11
27937.604341291921
 21
1643.9724140445701
 31
0.0
  0
LINE
  5
75DAD
  8
YODOROGO
 10
27777.604341291921
 20
1643.9724140445701
 30
0.0
 11
27857.604341291921
 21
1707.749496429288
 31
0.0
  0
LINE
  5
75DAE
  8
YODOROGO
 10
28040.913204016899
 20
1659.749496429288
 30
0.0
 11
28040.913204016899
 21
1683.7494964292871
 31
0.0
  0
LINE
  5
75DAF
  8
YODOROGO
 10
27977.604341291921
 20
1683.7494964292871
 30
0.0
 11
27977.604341291921
 21
1667.749496429285
 31
0.0
  0
LINE
  5
75DB0
  8
YODOROGO
 10
28098.135520230931
 20
1707.749496429288
 30
0.0
 11
28098.135520230931
 21
1655.5036372746561
 31
0.0
1001
AUTOCAD_POSTSCRIPT_FIGURE
1002
{
1000
PSFILL
1000
Grayscale
1000
Grayscale
1070
   100
1002
}
  0
LINE
  5
75DB1
  8
YODOROGO
 10
28082.135520230921
 20
1655.5036372746561
 30
0.0
 11
28082.135520230921
 21
1707.749496429288
 31
0.0
1001
AUTOCAD_POSTSCRIPT_FIGURE
1002
{
1000
PSFILL
1000
Grayscale
1000
Grayscale
1070
   100
1002
}
  0
LINE
  5
75DB2
  8
YODOROGO
 10
27809.604341291921
 20
1608.771904043258
 30
0.0
 11
27809.604341291921
 21
1632.7719040432589
 31
0.0
  0
LINE
  5
75DB3
  8
YODOROGO
 10
27905.604341291921
 20
1608.771904043258
 30
0.0
 11
27809.604341291921
 21
1608.771904043258
 31
0.0
  0
LINE
  5
75DB4
  8
YODOROGO
 10
27905.604341291921
 20
1632.7719040432589
 30
0.0
 11
27905.604341291921
 21
1608.771904043258
 31
0.0
  0
LINE
  5
75DB5
  8
YODOROGO
 10
27809.604341291921
 20
1632.7719040432589
 30
0.0
 11
27905.604341291921
 21
1632.7719040432589
 31
0.0
  0
LINE
  5
75DB6
  8
YODOROGO
 10
27824.509588915749
 20
1568.5028573704751
 30
0.0
 11
27785.604341291921
 21
1475.7494964292871
 31
0.0
1001
AUTOCAD_POSTSCRIPT_FIGURE
1002
{
1000
PSFILL
1000
Grayscale
1000
Grayscale
1070
   100
1002
}
  0
LINE
  5
75DB7
  8
YODOROGO
 10
27777.604341291921
 20
1568.5028573704751
 30
0.0
 11
27824.509588915749
 21
1568.5028573704751
 31
0.0
1001
AUTOCAD_POSTSCRIPT_FIGURE
1002
{
1000
PSFILL
1000
Grayscale
1000
Grayscale
1070
   100
1002
}
  0
LINE
  5
75DB8
  8
YODOROGO
 10
27777.604341291921
 20
1588.5028573704751
 30
0.0
 11
27777.604341291921
 21
1568.5028573704751
 31
0.0
1001
AUTOCAD_POSTSCRIPT_FIGURE
1002
{
1000
PSFILL
1000
Grayscale
1000
Grayscale
1070
   100
1002
}
  0
LINE
  5
75DB9
  8
YODOROGO
 10
27937.604341291921
 20
1588.5028573704751
 30
0.0
 11
27777.604341291921
 21
1588.5028573704751
 31
0.0
1001
AUTOCAD_POSTSCRIPT_FIGURE
1002
{
1000
PSFILL
1000
Grayscale
1000
Grayscale
1070
   100
1002
}
  0
LINE
  5
75DBA
  8
YODOROGO
 10
27937.604341291921
 20
1568.5028573704751
 30
0.0
 11
27937.604341291921
 21
1588.5028573704751
 31
0.0
1001
AUTOCAD_POSTSCRIPT_FIGURE
1002
{
1000
PSFILL
1000
Grayscale
1000
Grayscale
1070
   100
1002
}
  0
LINE
  5
75DBB
  8
YODOROGO
 10
27844.509588915749
 20
1568.5028573704751
 30
0.0
 11
27937.604341291921
 21
1568.5028573704751
 31
0.0
1001
AUTOCAD_POSTSCRIPT_FIGURE
1002
{
1000
PSFILL
1000
Grayscale
1000
Grayscale
1070
   100
1002
}
  0
LINE
  5
75DBC
  8
YODOROGO
 10
27815.546718284779
 20
1495.7494964292871
 30
0.0
 11
27844.509588915749
 21
1568.5028573704751
 31
0.0
1001
AUTOCAD_POSTSCRIPT_FIGURE
1002
{
1000
PSFILL
1000
Grayscale
1000
Grayscale
1070
   100
1002
}
  0
LINE
  5
75DBD
  8
YODOROGO
 10
27902.054790808648
 20
1495.7494964292871
 30
0.0
 11
27815.546718284779
 21
1495.7494964292871
 31
0.0
1001
AUTOCAD_POSTSCRIPT_FIGURE
1002
{
1000
PSFILL
1000
Grayscale
1000
Grayscale
1070
   100
1002
}
  0
LINE
  5
75DBE
  8
YODOROGO
 10
27885.065004790951
 20
1536.2338106976929
 30
0.0
 11
27902.054790808648
 21
1495.7494964292871
 31
0.0
1001
AUTOCAD_POSTSCRIPT_FIGURE
1002
{
1000
PSFILL
1000
Grayscale
1000
Grayscale
1070
   100
1002
}
  0
LINE
  5
75DBF
  8
YODOROGO
 10
27901.065004790951
 20
1536.2338106976929
 30
0.0
 11
27885.065004790951
 21
1536.2338106976929
 31
0.0
1001
AUTOCAD_POSTSCRIPT_FIGURE
1002
{
1000
PSFILL
1000
Grayscale
1000
Grayscale
1070
   100
1002
}
  0
LINE
  5
75DC0
  8
YODOROGO
 10
27929.604341291921
 20
1475.7494964292871
 30
0.0
 11
27901.065004790951
 21
1536.2338106976929
 31
0.0
1001
AUTOCAD_POSTSCRIPT_FIGURE
1002
{
1000
PSFILL
1000
Grayscale
1000
Grayscale
1070
   100
1002
}
  0
LINE
  5
75DC1
  8
YODOROGO
 10
27785.604341291921
 20
1475.7494964292871
 30
0.0
 11
27929.604341291921
 21
1475.7494964292871
 31
0.0
1001
AUTOCAD_POSTSCRIPT_FIGURE
1002
{
1000
PSFILL
1000
Grayscale
1000
Grayscale
1070
   100
1002
}
  0
LINE
  5
75DC2
  8
YODOROGO
 10
27777.604341291921
 20
1619.972414044571
 30
0.0
 11
27777.604341291921
 21
1643.9724140445701
 31
0.0
  0
LINE
  5
75DC3
  8
YODOROGO
 10
27937.604341291921
 20
1643.9724140445701
 30
0.0
 11
27937.604341291921
 21
1619.972414044571
 31
0.0
  0
ARC
  5
75DC4
  8
YODOROGO
 10
28225.94044214697
 20
1600.877765325326
 30
0.0
 40
175.99999999999989
 50
280.3644312771313
 51
3.5414836592180561
  0
ARC
  5
75DC5
  8
YODOROGO
 10
28235.756030759301
 20
1633.5978069619041
 30
0.0
 40
111.99999999999829
 50
281.2490582504156
 51
348.75094174958332
  0
LINE
  5
75DC6
  8
YODOROGO
 10
28257.604341291921
 20
1523.7494964292871
 30
0.0
 11
28257.604341291921
 21
1427.749496429288
 31
0.0
  0
LINE
  5
75DC7
  8
YODOROGO
 10
28020.088903736902
 20
1610.6505650619149
 30
0.0
 11
28040.913204016899
 21
1659.749496429288
 31
0.0
  0
LINE
  5
75DC8
  8
YODOROGO
 10
28041.604341291921
 20
1583.120489948401
 30
0.0
 11
28020.088903736902
 21
1610.6505650619149
 31
0.0
  0
LINE
  5
75DC9
  8
YODOROGO
 10
28041.604341291921
 20
1563.1204899483989
 30
0.0
 11
28041.604341291921
 21
1583.120489948401
 31
0.0
  0
LINE
  5
75DCA
  8
YODOROGO
 10
28017.604341291921
 20
1585.2370637495301
 30
0.0
 11
28041.604341291921
 21
1563.1204899483989
 31
0.0
  0
LINE
  5
75DCB
  8
YODOROGO
 10
28017.604341291921
 20
1475.7494964292871
 30
0.0
 11
28017.604341291921
 21
1585.2370637495301
 31
0.0
  0
LINE
  5
75DCC
  8
YODOROGO
 10
28001.604341291921
 20
1475.7494964292871
 30
0.0
 11
28017.604341291921
 21
1475.7494964292871
 31
0.0
  0
LINE
  5
75DCD
  8
YODOROGO
 10
28001.604341291921
 20
1580.0053496897481
 30
0.0
 11
28001.604341291921
 21
1475.7494964292871
 31
0.0
  0
LINE
  5
75DCE
  8
YODOROGO
 10
27977.604341291921
 20
1532.7680790334291
 30
0.0
 11
28001.604341291921
 21
1580.0053496897481
 31
0.0
  0
LINE
  5
75DCF
  8
YODOROGO
 10
27977.604341291921
 20
1556.76807903343
 30
0.0
 11
27977.604341291921
 21
1532.7680790334291
 31
0.0
  0
LINE
  5
75DD0
  8
YODOROGO
 10
28025.82877429136
 20
1667.749496429285
 30
0.0
 11
27977.604341291921
 21
1556.76807903343
 31
0.0
  0
LINE
  5
75DD1
  8
YODOROGO
 10
27977.604341291921
 20
1667.749496429285
 30
0.0
 11
28025.82877429136
 21
1667.749496429285
 31
0.0
  0
LINE
  5
75DD2
  8
YODOROGO
 10
28050.13552023091
 20
1655.5036372746561
 30
0.0
 11
28082.135520230921
 21
1655.5036372746561
 31
0.0
1001
AUTOCAD_POSTSCRIPT_FIGURE
1002
{
1000
PSFILL
1000
Grayscale
1000
Grayscale
1070
   100
1002
}
  0
LINE
  5
75DD3
  8
YODOROGO
 10
28050.13552023091
 20
1631.503637274657
 30
0.0
 11
28050.13552023091
 21
1655.5036372746561
 31
0.0
1001
AUTOCAD_POSTSCRIPT_FIGURE
1002
{
1000
PSFILL
1000
Grayscale
1000
Grayscale
1070
   100
1002
}
  0
LINE
  5
75DD4
  8
YODOROGO
 10
28082.135520230921
 20
1631.503637274657
 30
0.0
 11
28050.13552023091
 21
1631.503637274657
 31
0.0
1001
AUTOCAD_POSTSCRIPT_FIGURE
1002
{
1000
PSFILL
1000
Grayscale
1000
Grayscale
1070
   100
1002
}
  0
LINE
  5
75DD5
  8
YODOROGO
 10
28082.135520230921
 20
1499.749496429288
 30
0.0
 11
28082.135520230921
 21
1631.503637274657
 31
0.0
1001
AUTOCAD_POSTSCRIPT_FIGURE
1002
{
1000
PSFILL
1000
Grayscale
1000
Grayscale
1070
   100
1002
}
  0
LINE
  5
75DD6
  8
YODOROGO
 10
28050.135520230931
 20
1499.749496429288
 30
0.0
 11
28082.135520230921
 21
1499.749496429288
 31
0.0
1001
AUTOCAD_POSTSCRIPT_FIGURE
1002
{
1000
PSFILL
1000
Grayscale
1000
Grayscale
1070
   100
1002
}
  0
LINE
  5
75DD7
  8
YODOROGO
 10
28050.135520230931
 20
1475.7494964292871
 30
0.0
 11
28050.135520230931
 21
1499.749496429288
 31
0.0
1001
AUTOCAD_POSTSCRIPT_FIGURE
1002
{
1000
PSFILL
1000
Grayscale
1000
Grayscale
1070
   100
1002
}
  0
LINE
  5
75DD8
  8
YODOROGO
 10
28137.604341291921
 20
1475.7494964292871
 30
0.0
 11
28050.135520230931
 21
1475.7494964292871
 31
0.0
1001
AUTOCAD_POSTSCRIPT_FIGURE
1002
{
1000
PSFILL
1000
Grayscale
1000
Grayscale
1070
   100
1002
}
  0
LINE
  5
75DD9
  8
YODOROGO
 10
28137.604341291921
 20
1499.749496429288
 30
0.0
 11
28137.604341291921
 21
1475.7494964292871
 31
0.0
1001
AUTOCAD_POSTSCRIPT_FIGURE
1002
{
1000
PSFILL
1000
Grayscale
1000
Grayscale
1070
   100
1002
}
  0
LINE
  5
75DDA
  8
YODOROGO
 10
28098.135520230931
 20
1499.749496429288
 30
0.0
 11
28137.604341291921
 21
1499.749496429288
 31
0.0
1001
AUTOCAD_POSTSCRIPT_FIGURE
1002
{
1000
PSFILL
1000
Grayscale
1000
Grayscale
1070
   100
1002
}
  0
LINE
  5
75DDB
  8
YODOROGO
 10
28098.135520230931
 20
1631.503637274657
 30
0.0
 11
28098.135520230931
 21
1499.749496429288
 31
0.0
1001
AUTOCAD_POSTSCRIPT_FIGURE
1002
{
1000
PSFILL
1000
Grayscale
1000
Grayscale
1070
   100
1002
}
  0
LINE
  5
75DDC
  8
YODOROGO
 10
28137.604341291921
 20
1631.503637274657
 30
0.0
 11
28098.135520230931
 21
1631.503637274657
 31
0.0
1001
AUTOCAD_POSTSCRIPT_FIGURE
1002
{
1000
PSFILL
1000
Grayscale
1000
Grayscale
1070
   100
1002
}
  0
LINE
  5
75DDD
  8
YODOROGO
 10
28137.604341291921
 20
1655.5036372746561
 30
0.0
 11
28137.604341291921
 21
1631.503637274657
 31
0.0
1001
AUTOCAD_POSTSCRIPT_FIGURE
1002
{
1000
PSFILL
1000
Grayscale
1000
Grayscale
1070
   100
1002
}
  0
LINE
  5
75DDE
  8
YODOROGO
 10
28098.135520230931
 20
1655.5036372746561
 30
0.0
 11
28137.604341291921
 21
1655.5036372746561
 31
0.0
1001
AUTOCAD_POSTSCRIPT_FIGURE
1002
{
1000
PSFILL
1000
Grayscale
1000
Grayscale
1070
   100
1002
}
  0
LINE
  5
75DDF
  8
YODOROGO
 10
28401.60434129191
 20
1667.749496429288
 30
0.0
 11
28345.604341291921
 21
1667.749496429288
 31
0.0
  0
LINE
  5
75DE0
  8
YODOROGO
 10
28401.60434129191
 20
1611.7494964292889
 30
0.0
 11
28401.60434129191
 21
1667.749496429288
 31
0.0
  0
LINE
  5
75DE1
  8
YODOROGO
 10
28345.604341291921
 20
1667.749496429288
 30
0.0
 11
28345.604341291921
 21
1611.7494964292889
 31
0.0
  0
ARC
  5
75DE2
  8
YODOROGO
 10
28513.60434129191
 20
1507.749496429288
 30
0.0
 40
80.0
 50
180.0
 51
270.0
  0
ARC
  5
75DE3
  8
YODOROGO
 10
28537.60434129191
 20
1563.7494964292871
 30
0.0
 40
40.0
 50
180.0
 51
270.0
  0
LINE
  5
75DE4
  8
YODOROGO
 10
28561.604341291932
 20
1523.7494964292871
 30
0.0
 11
28537.60434129191
 21
1523.7494964292871
 31
0.0
  0
ARC
  5
75DE5
  8
YODOROGO
 10
28561.604341291932
 20
1547.749496429285
 30
0.0
 40
23.999999999996358
 50
270.0
 51
0.0000000000054281
  0
LINE
  5
75DE6
  8
YODOROGO
 10
27801.604341291921
 20
1890.786580793706
 30
0.0
 11
27777.604341291921
 21
1843.776747951672
 31
0.0
1001
AUTOCAD_POSTSCRIPT_FIGURE
1002
{
1000
PSFILL
1000
Grayscale
1000
Grayscale
1070
   100
1002
}
  0
LINE
  5
75DE7
  8
YODOROGO
 10
27801.604341291921
 20
1747.7494964292871
 30
0.0
 11
27801.604341291921
 21
1890.786580793706
 31
0.0
1001
AUTOCAD_POSTSCRIPT_FIGURE
1002
{
1000
PSFILL
1000
Grayscale
1000
Grayscale
1070
   100
1002
}
  0
LINE
  5
75DE8
  8
YODOROGO
 10
27817.604341291921
 20
1747.7494964292871
 30
0.0
 11
27801.604341291921
 21
1747.7494964292871
 31
0.0
1001
AUTOCAD_POSTSCRIPT_FIGURE
1002
{
1000
PSFILL
1000
Grayscale
1000
Grayscale
1070
   100
1002
}
  0
LINE
  5
75DE9
  8
YODOROGO
 10
27817.604341291921
 20
1893.771332085267
 30
0.0
 11
27817.604341291921
 21
1747.7494964292871
 31
0.0
1001
AUTOCAD_POSTSCRIPT_FIGURE
1002
{
1000
PSFILL
1000
Grayscale
1000
Grayscale
1070
   100
1002
}
  0
LINE
  5
75DEA
  8
YODOROGO
 10
27841.604341291921
 20
1867.654758284137
 30
0.0
 11
27817.604341291921
 21
1893.771332085267
 31
0.0
1001
AUTOCAD_POSTSCRIPT_FIGURE
1002
{
1000
PSFILL
1000
Grayscale
1000
Grayscale
1070
   100
1002
}
  0
LINE
  5
75DEB
  8
YODOROGO
 10
27841.604341291921
 20
1883.6547582841361
 30
0.0
 11
27841.604341291921
 21
1867.654758284137
 31
0.0
1001
AUTOCAD_POSTSCRIPT_FIGURE
1002
{
1000
PSFILL
1000
Grayscale
1000
Grayscale
1070
   100
1002
}
  0
LINE
  5
75DEC
  8
YODOROGO
 10
27817.604341291921
 20
1917.7713320852649
 30
0.0
 11
27841.604341291921
 21
1883.6547582841361
 31
0.0
1001
AUTOCAD_POSTSCRIPT_FIGURE
1002
{
1000
PSFILL
1000
Grayscale
1000
Grayscale
1070
   100
1002
}
  0
LINE
  5
75DED
  8
YODOROGO
 10
27817.604341291921
 20
1939.749496429288
 30
0.0
 11
27817.604341291921
 21
1917.7713320852649
 31
0.0
1001
AUTOCAD_POSTSCRIPT_FIGURE
1002
{
1000
PSFILL
1000
Grayscale
1000
Grayscale
1070
   100
1002
}
  0
LINE
  5
75DEE
  8
YODOROGO
 10
27889.604341291921
 20
1939.749496429288
 30
0.0
 11
27817.604341291921
 21
1939.749496429288
 31
0.0
1001
AUTOCAD_POSTSCRIPT_FIGURE
1002
{
1000
PSFILL
1000
Grayscale
1000
Grayscale
1070
   100
1002
}
  0
LINE
  5
75DEF
  8
YODOROGO
 10
27889.604341291921
 20
1900.5683489363
 30
0.0
 11
27889.604341291921
 21
1939.749496429288
 31
0.0
1001
AUTOCAD_POSTSCRIPT_FIGURE
1002
{
1000
PSFILL
1000
Grayscale
1000
Grayscale
1070
   100
1002
}
  0
LINE
  5
75DF0
  8
YODOROGO
 10
27857.604341291921
 20
1900.5683489363
 30
0.0
 11
27889.604341291921
 21
1900.5683489363
 31
0.0
1001
AUTOCAD_POSTSCRIPT_FIGURE
1002
{
1000
PSFILL
1000
Grayscale
1000
Grayscale
1070
   100
1002
}
  0
LINE
  5
75DF1
  8
YODOROGO
 10
27857.604341291921
 20
1884.568348936298
 30
0.0
 11
27857.604341291921
 21
1900.5683489363
 31
0.0
1001
AUTOCAD_POSTSCRIPT_FIGURE
1002
{
1000
PSFILL
1000
Grayscale
1000
Grayscale
1070
   100
1002
}
  0
LINE
  5
75DF2
  8
YODOROGO
 10
27889.604341291921
 20
1884.568348936298
 30
0.0
 11
27857.604341291921
 21
1884.568348936298
 31
0.0
1001
AUTOCAD_POSTSCRIPT_FIGURE
1002
{
1000
PSFILL
1000
Grayscale
1000
Grayscale
1070
   100
1002
}
  0
LINE
  5
75DF3
  8
YODOROGO
 10
27889.604341291921
 20
1879.6191779644389
 30
0.0
 11
27889.604341291921
 21
1884.568348936298
 31
0.0
1001
AUTOCAD_POSTSCRIPT_FIGURE
1002
{
1000
PSFILL
1000
Grayscale
1000
Grayscale
1070
   100
1002
}
  0
LINE
  5
75DF4
  8
YODOROGO
 10
27849.604341291921
 20
1812.974981161417
 30
0.0
 11
27889.604341291921
 21
1879.6191779644389
 31
0.0
1001
AUTOCAD_POSTSCRIPT_FIGURE
1002
{
1000
PSFILL
1000
Grayscale
1000
Grayscale
1070
   100
1002
}
  0
LINE
  5
75DF5
  8
YODOROGO
 10
27849.604341291921
 20
1796.9749811614161
 30
0.0
 11
27849.604341291921
 21
1812.974981161417
 31
0.0
1001
AUTOCAD_POSTSCRIPT_FIGURE
1002
{
1000
PSFILL
1000
Grayscale
1000
Grayscale
1070
   100
1002
}
  0
LINE
  5
75DF6
  8
YODOROGO
 10
27889.604341291921
 20
1847.6191779644371
 30
0.0
 11
27849.604341291921
 21
1796.9749811614161
 31
0.0
1001
AUTOCAD_POSTSCRIPT_FIGURE
1002
{
1000
PSFILL
1000
Grayscale
1000
Grayscale
1070
   100
1002
}
  0
LINE
  5
75DF7
  8
YODOROGO
 10
27889.604341291921
 20
1747.7494964292871
 30
0.0
 11
27889.604341291921
 21
1847.6191779644371
 31
0.0
1001
AUTOCAD_POSTSCRIPT_FIGURE
1002
{
1000
PSFILL
1000
Grayscale
1000
Grayscale
1070
   100
1002
}
  0
LINE
  5
75DF8
  8
YODOROGO
 10
27905.604341291921
 20
1747.7494964292871
 30
0.0
 11
27889.604341291921
 21
1747.7494964292871
 31
0.0
1001
AUTOCAD_POSTSCRIPT_FIGURE
1002
{
1000
PSFILL
1000
Grayscale
1000
Grayscale
1070
   100
1002
}
  0
LINE
  5
75DF9
  8
YODOROGO
 10
27905.604341291921
 20
1849.409012158806
 30
0.0
 11
27905.604341291921
 21
1747.7494964292871
 31
0.0
1001
AUTOCAD_POSTSCRIPT_FIGURE
1002
{
1000
PSFILL
1000
Grayscale
1000
Grayscale
1070
   100
1002
}
  0
LINE
  5
75DFA
  8
YODOROGO
 10
27937.604341291921
 20
1796.9749811614161
 30
0.0
 11
27905.604341291921
 21
1849.409012158806
 31
0.0
1001
AUTOCAD_POSTSCRIPT_FIGURE
1002
{
1000
PSFILL
1000
Grayscale
1000
Grayscale
1070
   100
1002
}
  0
LINE
  5
75DFB
  8
YODOROGO
 10
27937.604341291921
 20
1812.974981161417
 30
0.0
 11
27937.604341291921
 21
1796.9749811614161
 31
0.0
1001
AUTOCAD_POSTSCRIPT_FIGURE
1002
{
1000
PSFILL
1000
Grayscale
1000
Grayscale
1070
   100
1002
}
  0
LINE
  5
75DFC
  8
YODOROGO
 10
27905.604341291921
 20
1881.4090121588081
 30
0.0
 11
27937.604341291921
 21
1812.974981161417
 31
0.0
1001
AUTOCAD_POSTSCRIPT_FIGURE
1002
{
1000
PSFILL
1000
Grayscale
1000
Grayscale
1070
   100
1002
}
  0
LINE
  5
75DFD
  8
YODOROGO
 10
27905.604341291932
 20
1884.5683489363
 30
0.0
 11
27905.604341291921
 21
1881.4090121588081
 31
0.0
1001
AUTOCAD_POSTSCRIPT_FIGURE
1002
{
1000
PSFILL
1000
Grayscale
1000
Grayscale
1070
   100
1002
}
  0
LINE
  5
75DFE
  8
YODOROGO
 10
27937.604341291921
 20
1884.568348936298
 30
0.0
 11
27905.604341291932
 21
1884.5683489363
 31
0.0
1001
AUTOCAD_POSTSCRIPT_FIGURE
1002
{
1000
PSFILL
1000
Grayscale
1000
Grayscale
1070
   100
1002
}
  0
LINE
  5
75DFF
  8
YODOROGO
 10
27937.604341291921
 20
1900.5683489363
 30
0.0
 11
27937.604341291921
 21
1884.568348936298
 31
0.0
1001
AUTOCAD_POSTSCRIPT_FIGURE
1002
{
1000
PSFILL
1000
Grayscale
1000
Grayscale
1070
   100
1002
}
  0
LINE
  5
75E00
  8
YODOROGO
 10
27905.604341291921
 20
1900.5683489363
 30
0.0
 11
27937.604341291921
 21
1900.5683489363
 31
0.0
1001
AUTOCAD_POSTSCRIPT_FIGURE
1002
{
1000
PSFILL
1000
Grayscale
1000
Grayscale
1070
   100
1002
}
  0
LINE
  5
75E01
  8
YODOROGO
 10
27905.604341291921
 20
1939.749496429288
 30
0.0
 11
27905.604341291921
 21
1900.5683489363
 31
0.0
1001
AUTOCAD_POSTSCRIPT_FIGURE
1002
{
1000
PSFILL
1000
Grayscale
1000
Grayscale
1070
   100
1002
}
  0
LINE
  5
75E02
  8
YODOROGO
 10
27937.604341291921
 20
1939.749496429288
 30
0.0
 11
27905.604341291921
 21
1939.749496429288
 31
0.0
1001
AUTOCAD_POSTSCRIPT_FIGURE
1002
{
1000
PSFILL
1000
Grayscale
1000
Grayscale
1070
   100
1002
}
  0
LINE
  5
75E03
  8
YODOROGO
 10
27937.604341291921
 20
1955.7494964292871
 30
0.0
 11
27937.604341291921
 21
1939.749496429288
 31
0.0
1001
AUTOCAD_POSTSCRIPT_FIGURE
1002
{
1000
PSFILL
1000
Grayscale
1000
Grayscale
1070
   100
1002
}
  0
LINE
  5
75E04
  8
YODOROGO
 10
27905.604341291921
 20
1955.7494964292871
 30
0.0
 11
27937.604341291921
 21
1955.7494964292871
 31
0.0
1001
AUTOCAD_POSTSCRIPT_FIGURE
1002
{
1000
PSFILL
1000
Grayscale
1000
Grayscale
1070
   100
1002
}
  0
LINE
  5
75E05
  8
YODOROGO
 10
27905.604341291921
 20
1979.749496429288
 30
0.0
 11
27905.604341291921
 21
1955.7494964292871
 31
0.0
1001
AUTOCAD_POSTSCRIPT_FIGURE
1002
{
1000
PSFILL
1000
Grayscale
1000
Grayscale
1070
   100
1002
}
  0
LINE
  5
75E06
  8
YODOROGO
 10
27889.604341291921
 20
1979.749496429288
 30
0.0
 11
27905.604341291921
 21
1979.749496429288
 31
0.0
1001
AUTOCAD_POSTSCRIPT_FIGURE
1002
{
1000
PSFILL
1000
Grayscale
1000
Grayscale
1070
   100
1002
}
  0
LINE
  5
75E07
  8
YODOROGO
 10
27889.604341291921
 20
1955.7494964292871
 30
0.0
 11
27889.604341291921
 21
1979.749496429288
 31
0.0
1001
AUTOCAD_POSTSCRIPT_FIGURE
1002
{
1000
PSFILL
1000
Grayscale
1000
Grayscale
1070
   100
1002
}
  0
LINE
  5
75E08
  8
YODOROGO
 10
27865.604341291921
 20
1955.7494964292871
 30
0.0
 11
27889.604341291921
 21
1955.7494964292871
 31
0.0
1001
AUTOCAD_POSTSCRIPT_FIGURE
1002
{
1000
PSFILL
1000
Grayscale
1000
Grayscale
1070
   100
1002
}
  0
LINE
  5
75E09
  8
YODOROGO
 10
27865.604341291921
 20
1979.749496429288
 30
0.0
 11
27865.604341291921
 21
1955.7494964292871
 31
0.0
1001
AUTOCAD_POSTSCRIPT_FIGURE
1002
{
1000
PSFILL
1000
Grayscale
1000
Grayscale
1070
   100
1002
}
  0
LINE
  5
75E0A
  8
YODOROGO
 10
27849.604341291921
 20
1979.749496429288
 30
0.0
 11
27865.604341291921
 21
1979.749496429288
 31
0.0
1001
AUTOCAD_POSTSCRIPT_FIGURE
1002
{
1000
PSFILL
1000
Grayscale
1000
Grayscale
1070
   100
1002
}
  0
LINE
  5
75E0B
  8
YODOROGO
 10
27849.604341291921
 20
1955.7494964292871
 30
0.0
 11
27849.604341291921
 21
1979.749496429288
 31
0.0
1001
AUTOCAD_POSTSCRIPT_FIGURE
1002
{
1000
PSFILL
1000
Grayscale
1000
Grayscale
1070
   100
1002
}
  0
LINE
  5
75E0C
  8
YODOROGO
 10
27817.604341291921
 20
1955.7494964292871
 30
0.0
 11
27849.604341291921
 21
1955.7494964292871
 31
0.0
1001
AUTOCAD_POSTSCRIPT_FIGURE
1002
{
1000
PSFILL
1000
Grayscale
1000
Grayscale
1070
   100
1002
}
  0
LINE
  5
75E0D
  8
YODOROGO
 10
27817.604341291921
 20
1979.749496429288
 30
0.0
 11
27817.604341291921
 21
1955.7494964292871
 31
0.0
1001
AUTOCAD_POSTSCRIPT_FIGURE
1002
{
1000
PSFILL
1000
Grayscale
1000
Grayscale
1070
   100
1002
}
  0
LINE
  5
75E0E
  8
YODOROGO
 10
27801.604341291921
 20
1979.749496429288
 30
0.0
 11
27817.604341291921
 21
1979.749496429288
 31
0.0
1001
AUTOCAD_POSTSCRIPT_FIGURE
1002
{
1000
PSFILL
1000
Grayscale
1000
Grayscale
1070
   100
1002
}
  0
LINE
  5
75E0F
  8
YODOROGO
 10
27801.604341291921
 20
1955.7494964292871
 30
0.0
 11
27801.604341291921
 21
1979.749496429288
 31
0.0
1001
AUTOCAD_POSTSCRIPT_FIGURE
1002
{
1000
PSFILL
1000
Grayscale
1000
Grayscale
1070
   100
1002
}
  0
LINE
  5
75E10
  8
YODOROGO
 10
27777.604341291921
 20
1955.7494964292871
 30
0.0
 11
27801.604341291921
 21
1955.7494964292871
 31
0.0
1001
AUTOCAD_POSTSCRIPT_FIGURE
1002
{
1000
PSFILL
1000
Grayscale
1000
Grayscale
1070
   100
1002
}
  0
LINE
  5
75E11
  8
YODOROGO
 10
27777.604341291921
 20
1939.749496429288
 30
0.0
 11
27777.604341291921
 21
1955.7494964292871
 31
0.0
1001
AUTOCAD_POSTSCRIPT_FIGURE
1002
{
1000
PSFILL
1000
Grayscale
1000
Grayscale
1070
   100
1002
}
  0
LINE
  5
75E12
  8
YODOROGO
 10
27801.604341291921
 20
1939.749496429288
 30
0.0
 11
27777.604341291921
 21
1939.749496429288
 31
0.0
1001
AUTOCAD_POSTSCRIPT_FIGURE
1002
{
1000
PSFILL
1000
Grayscale
1000
Grayscale
1070
   100
1002
}
  0
LINE
  5
75E13
  8
YODOROGO
 10
27801.604341291921
 20
1914.7865807937051
 30
0.0
 11
27801.604341291921
 21
1939.749496429288
 31
0.0
1001
AUTOCAD_POSTSCRIPT_FIGURE
1002
{
1000
PSFILL
1000
Grayscale
1000
Grayscale
1070
   100
1002
}
  0
LINE
  5
75E14
  8
YODOROGO
 10
27777.604341291921
 20
1859.776747951671
 30
0.0
 11
27801.604341291921
 21
1914.7865807937051
 31
0.0
1001
AUTOCAD_POSTSCRIPT_FIGURE
1002
{
1000
PSFILL
1000
Grayscale
1000
Grayscale
1070
   100
1002
}
  0
LINE
  5
75E15
  8
YODOROGO
 10
27777.604341291921
 20
1843.776747951672
 30
0.0
 11
27777.604341291921
 21
1859.776747951671
 31
0.0
1001
AUTOCAD_POSTSCRIPT_FIGURE
1002
{
1000
PSFILL
1000
Grayscale
1000
Grayscale
1070
   100
1002
}
  0
LINE
  5
75E16
  8
YODOROGO
 10
28257.604341291921
 20
1867.749496429288
 30
0.0
 11
28401.60434129191
 21
1824.877625640306
 31
0.0
1001
AUTOCAD_POSTSCRIPT_FIGURE
1002
{
1000
PSFILL
1000
Grayscale
1000
Grayscale
1070
   100
1002
}
  0
LINE
  5
75E17
  8
YODOROGO
 10
28401.60434129191
 20
1752.877625640306
 30
0.0
 11
28257.604341291921
 21
1795.7494964292871
 31
0.0
1001
AUTOCAD_POSTSCRIPT_FIGURE
1002
{
1000
PSFILL
1000
Grayscale
1000
Grayscale
1070
   100
1002
}
  0
LINE
  5
75E18
  8
YODOROGO
 10
28401.60434129191
 20
1984.877625640306
 30
0.0
 11
28257.604341291921
 21
2027.749496429288
 31
0.0
1001
AUTOCAD_POSTSCRIPT_FIGURE
1002
{
1000
PSFILL
1000
Grayscale
1000
Grayscale
1070
   100
1002
}
  0
LINE
  5
75E19
  8
YODOROGO
 10
28257.604341291921
 20
1959.749496429288
 30
0.0
 11
28401.60434129191
 21
1916.8776256403071
 31
0.0
1001
AUTOCAD_POSTSCRIPT_FIGURE
1002
{
1000
PSFILL
1000
Grayscale
1000
Grayscale
1070
   100
1002
}
  0
LINE
  5
75E1A
  8
YODOROGO
 10
28257.604341291921
 20
1795.7494964292871
 30
0.0
 11
28257.604341291921
 21
1867.749496429288
 31
0.0
1001
AUTOCAD_POSTSCRIPT_FIGURE
1002
{
1000
PSFILL
1000
Grayscale
1000
Grayscale
1070
   100
1002
}
  0
LINE
  5
75E1B
  8
YODOROGO
 10
28257.604341291921
 20
2027.749496429288
 30
0.0
 11
28257.604341291921
 21
1959.749496429288
 31
0.0
1001
AUTOCAD_POSTSCRIPT_FIGURE
1002
{
1000
PSFILL
1000
Grayscale
1000
Grayscale
1070
   100
1002
}
  0
LINE
  5
75E1C
  8
YODOROGO
 10
28080.236320206739
 20
1939.749496429288
 30
0.0
 11
28129.604341291921
 21
1747.7494964292871
 31
0.0
1001
AUTOCAD_POSTSCRIPT_FIGURE
1002
{
1000
PSFILL
1000
Grayscale
1000
Grayscale
1070
   100
1002
}
  0
LINE
  5
75E1D
  8
YODOROGO
 10
27977.604341291921
 20
1939.749496429288
 30
0.0
 11
28080.236320206739
 21
1939.749496429288
 31
0.0
1001
AUTOCAD_POSTSCRIPT_FIGURE
1002
{
1000
PSFILL
1000
Grayscale
1000
Grayscale
1070
   100
1002
}
  0
LINE
  5
75E1E
  8
YODOROGO
 10
27977.604341291921
 20
1955.7494964292871
 30
0.0
 11
27977.604341291921
 21
1939.749496429288
 31
0.0
1001
AUTOCAD_POSTSCRIPT_FIGURE
1002
{
1000
PSFILL
1000
Grayscale
1000
Grayscale
1070
   100
1002
}
  0
LINE
  5
75E1F
  8
YODOROGO
 10
28076.60687851992
 20
1955.7494964292871
 30
0.0
 11
27977.604341291921
 21
1955.7494964292871
 31
0.0
1001
AUTOCAD_POSTSCRIPT_FIGURE
1002
{
1000
PSFILL
1000
Grayscale
1000
Grayscale
1070
   100
1002
}
  0
LINE
  5
75E20
  8
YODOROGO
 10
28071.162715989711
 20
1979.749496429288
 30
0.0
 11
28076.60687851992
 21
1955.7494964292871
 31
0.0
1001
AUTOCAD_POSTSCRIPT_FIGURE
1002
{
1000
PSFILL
1000
Grayscale
1000
Grayscale
1070
   100
1002
}
  0
LINE
  5
75E21
  8
YODOROGO
 10
28091.162715989711
 20
1979.749496429288
 30
0.0
 11
28071.162715989711
 21
1979.749496429288
 31
0.0
1001
AUTOCAD_POSTSCRIPT_FIGURE
1002
{
1000
PSFILL
1000
Grayscale
1000
Grayscale
1070
   100
1002
}
  0
LINE
  5
75E22
  8
YODOROGO
 10
28095.806878519939
 20
1955.7494964292871
 30
0.0
 11
28091.162715989711
 21
1979.749496429288
 31
0.0
1001
AUTOCAD_POSTSCRIPT_FIGURE
1002
{
1000
PSFILL
1000
Grayscale
1000
Grayscale
1070
   100
1002
}
  0
LINE
  5
75E23
  8
YODOROGO
 10
28121.604341291921
 20
1955.7494964292871
 30
0.0
 11
28095.806878519939
 21
1955.7494964292871
 31
0.0
1001
AUTOCAD_POSTSCRIPT_FIGURE
1002
{
1000
PSFILL
1000
Grayscale
1000
Grayscale
1070
   100
1002
}
  0
LINE
  5
75E24
  8
YODOROGO
 10
28121.604341291921
 20
1979.749496429288
 30
0.0
 11
28121.604341291921
 21
1955.7494964292871
 31
0.0
1001
AUTOCAD_POSTSCRIPT_FIGURE
1002
{
1000
PSFILL
1000
Grayscale
1000
Grayscale
1070
   100
1002
}
  0
LINE
  5
75E25
  8
YODOROGO
 10
28137.604341291921
 20
1979.749496429288
 30
0.0
 11
28121.604341291921
 21
1979.749496429288
 31
0.0
1001
AUTOCAD_POSTSCRIPT_FIGURE
1002
{
1000
PSFILL
1000
Grayscale
1000
Grayscale
1070
   100
1002
}
  0
LINE
  5
75E26
  8
YODOROGO
 10
28137.604341291921
 20
1955.7494964292871
 30
0.0
 11
28137.604341291921
 21
1979.749496429288
 31
0.0
1001
AUTOCAD_POSTSCRIPT_FIGURE
1002
{
1000
PSFILL
1000
Grayscale
1000
Grayscale
1070
   100
1002
}
  0
LINE
  5
75E27
  8
YODOROGO
 10
28137.604341291921
 20
1939.749496429288
 30
0.0
 11
28137.604341291921
 21
1955.7494964292871
 31
0.0
1001
AUTOCAD_POSTSCRIPT_FIGURE
1002
{
1000
PSFILL
1000
Grayscale
1000
Grayscale
1070
   100
1002
}
  0
LINE
  5
75E28
  8
YODOROGO
 10
28098.902986873421
 20
1939.749496429288
 30
0.0
 11
28137.604341291921
 21
1939.749496429288
 31
0.0
1001
AUTOCAD_POSTSCRIPT_FIGURE
1002
{
1000
PSFILL
1000
Grayscale
1000
Grayscale
1070
   100
1002
}
  0
LINE
  5
75E29
  8
YODOROGO
 10
28137.604341291921
 20
1747.7494964292871
 30
0.0
 11
28098.902986873421
 21
1939.749496429288
 31
0.0
1001
AUTOCAD_POSTSCRIPT_FIGURE
1002
{
1000
PSFILL
1000
Grayscale
1000
Grayscale
1070
   100
1002
}
  0
LINE
  5
75E2A
  8
YODOROGO
 10
28129.604341291921
 20
1747.7494964292871
 30
0.0
 11
28137.604341291921
 21
1747.7494964292871
 31
0.0
1001
AUTOCAD_POSTSCRIPT_FIGURE
1002
{
1000
PSFILL
1000
Grayscale
1000
Grayscale
1070
   100
1002
}
  0
LINE
  5
75E2B
  8
YODOROGO
 10
28078.069219933801
 20
1775.7407762987939
 30
0.0
 11
27977.604341291921
 21
1747.7494964292871
 31
0.0
  0
LINE
  5
75E2C
  8
YODOROGO
 10
28078.069219933801
 20
1798.6689795290731
 30
0.0
 11
28078.069219933801
 21
1775.7407762987939
 31
0.0
  0
LINE
  5
75E2D
  8
YODOROGO
 10
28033.83678061287
 20
1786.816933133767
 30
0.0
 11
28078.069219933801
 21
1798.6689795290731
 31
0.0
  0
LINE
  5
75E2E
  8
YODOROGO
 10
28033.83678061287
 20
1872.5683489363
 30
0.0
 11
28033.83678061287
 21
1786.816933133767
 31
0.0
  0
LINE
  5
75E2F
  8
YODOROGO
 10
28078.069219933801
 20
1872.5683489363
 30
0.0
 11
28033.83678061287
 21
1872.5683489363
 31
0.0
  0
LINE
  5
75E30
  8
YODOROGO
 10
28078.069219933801
 20
1892.568348936298
 30
0.0
 11
28078.069219933801
 21
1872.5683489363
 31
0.0
  0
LINE
  5
75E31
  8
YODOROGO
 10
27977.604341291921
 20
1892.568348936298
 30
0.0
 11
28078.069219933801
 21
1892.568348936298
 31
0.0
  0
LINE
  5
75E32
  8
YODOROGO
 10
27977.604341291921
 20
1872.5683489363
 30
0.0
 11
27977.604341291921
 21
1892.568348936298
 31
0.0
  0
LINE
  5
75E33
  8
YODOROGO
 10
28021.836780612859
 20
1872.5683489363
 30
0.0
 11
27977.604341291921
 21
1872.5683489363
 31
0.0
  0
LINE
  5
75E34
  8
YODOROGO
 10
28021.836780612859
 20
1784.673339594317
 30
0.0
 11
28021.836780612859
 21
1872.5683489363
 31
0.0
  0
LINE
  5
75E35
  8
YODOROGO
 10
27977.604341291921
 20
1771.749496429286
 30
0.0
 11
28021.836780612859
 21
1784.673339594317
 31
0.0
  0
LINE
  5
75E36
  8
YODOROGO
 10
27977.604341291921
 20
1747.7494964292871
 30
0.0
 11
27977.604341291921
 21
1771.749496429286
 31
0.0
  0
LINE
  5
75E37
  8
YODOROGO
 10
28001.604341291921
 20
1707.749496429288
 30
0.0
 11
28001.604341291921
 21
1683.7494964292871
 31
0.0
  0
LINE
  5
75E39
  8
YODOROGO
 10
28017.604341291921
 20
1707.749496429288
 30
0.0
 11
28001.604341291921
 21
1707.749496429288
 31
0.0
  0
LINE
  5
75E3A
  8
YODOROGO
 10
28017.604341291921
 20
1683.7494964292871
 30
0.0
 11
28017.604341291921
 21
1707.749496429288
 31
0.0
  0
LINE
  5
75E3B
  8
YODOROGO
 10
28040.913204016899
 20
1683.7494964292871
 30
0.0
 11
28017.604341291921
 21
1683.7494964292871
 31
0.0
  0
LINE
  5
75E3C
  8
YODOROGO
 10
28001.604341291921
 20
1683.7494964292871
 30
0.0
 11
27977.604341291921
 21
1683.7494964292871
 31
0.0
  0
LINE
  5
75E3D
  8
YODOROGO
 10
28082.135520230921
 20
1707.749496429288
 30
0.0
 11
28098.135520230931
 21
1707.749496429288
 31
0.0
1001
AUTOCAD_POSTSCRIPT_FIGURE
1002
{
1000
PSFILL
1000
Grayscale
1000
Grayscale
1070
   100
1002
}
  0
LINE
  5
75E3E
  8
YODOROGO
 10
28401.60434129191
 20
1824.877625640306
 30
0.0
 11
28401.60434129191
 21
1752.877625640306
 31
0.0
1001
AUTOCAD_POSTSCRIPT_FIGURE
1002
{
1000
PSFILL
1000
Grayscale
1000
Grayscale
1070
   100
1002
}
  0
LINE
  5
75E3F
  8
YODOROGO
 10
28401.60434129191
 20
1916.8776256403071
 30
0.0
 11
28401.60434129191
 21
1984.877625640306
 31
0.0
1001
AUTOCAD_POSTSCRIPT_FIGURE
1002
{
1000
PSFILL
1000
Grayscale
1000
Grayscale
1070
   100
1002
}
  0
LINE
  5
75E40
  8
YODOROGO
 10
28433.60434129191
 20
1819.749496429288
 30
0.0
 11
28433.60434129191
 21
1747.74949642929
 31
0.0
  0
LINE
  5
75E41
  8
YODOROGO
 10
28497.60434129191
 20
1707.749496429288
 30
0.0
 11
28433.60434129191
 21
1707.749496429288
 31
0.0
  0
LINE
  5
75E42
  8
YODOROGO
 10
28433.60434129191
 20
1747.74949642929
 30
0.0
 11
28585.604341291921
 21
1747.74949642929
 31
0.0
  0
LINE
  5
75E43
  8
YODOROGO
 10
28497.60434129191
 20
1867.749496429288
 30
0.0
 11
28433.60434129191
 21
1867.749496429288
 31
0.0
  0
LINE
  5
75E44
  8
YODOROGO
 10
28497.60434129191
 20
1923.7494964292871
 30
0.0
 11
28497.60434129191
 21
1867.749496429288
 31
0.0
  0
LINE
  5
75E45
  8
YODOROGO
 10
28585.604341291921
 20
1987.749496429288
 30
0.0
 11
28585.604341291921
 21
2027.749496429288
 31
0.0
  0
LINE
  5
75E46
  8
YODOROGO
 10
28433.60434129191
 20
1987.749496429288
 30
0.0
 11
28585.604341291921
 21
1987.749496429288
 31
0.0
  0
LINE
  5
75E47
  8
YODOROGO
 10
28433.60434129191
 20
1867.749496429288
 30
0.0
 11
28433.60434129191
 21
1987.749496429288
 31
0.0
  0
LINE
  5
75E48
  8
YODOROGO
 10
29001.60434129191
 20
2027.749496429288
 30
0.0
 11
29001.60434129191
 21
1619.749496429288
 31
0.0
  0
LINE
  5
75E49
  8
YODOROGO
 10
29073.604341291921
 20
1579.749496429288
 30
0.0
 11
29073.604341291921
 21
2027.749496429288
 31
0.0
  0
LINE
  5
75E4A
  8
YODOROGO
 10
29261.604341291921
 20
1491.749496429286
 30
0.0
 11
29261.604341291921
 21
2007.749496429288
 31
0.0
  0
LINE
  5
75E4B
  8
YODOROGO
 10
29197.604341291921
 20
2007.749496429288
 30
0.0
 11
29197.604341291921
 21
1491.749496429286
 31
0.0
  0
LINE
  5
75E4C
  8
YODOROGO
 10
29385.604341291921
 20
2027.749496429288
 30
0.0
 11
29385.604341291921
 21
1427.749496429288
 31
0.0
  0
LINE
  5
75E4D
  8
YODOROGO
 10
29457.604341291921
 20
1427.749496429288
 30
0.0
 11
29457.604341291921
 21
2027.749496429288
 31
0.0
  0
LINE
  5
75E4E
  8
YODOROGO
 10
28657.60434129191
 20
1667.749496429288
 30
0.0
 11
28657.60434129191
 21
1747.74949642929
 31
0.0
  0
LINE
  5
75E4F
  8
YODOROGO
 10
29885.604341291921
 20
1707.749496429288
 30
0.0
 11
29885.604341291921
 21
1667.749496429288
 31
0.0
  0
LINE
  5
75E50
  8
YODOROGO
 10
29885.604341291921
 20
1707.749496429288
 30
0.0
 11
29885.604341291921
 21
1667.749496429288
 31
0.0
  0
ARC
  5
75E51
  8
YODOROGO
 10
28906.911576186842
 20
1618.2178644422729
 30
0.0
 40
94.705151178741659
 50
274.0524416290711
 51
0.9266642149310712
  0
ARC
  5
75E52
  8
YODOROGO
 10
28909.18617071983
 20
1592.61072861044
 30
0.0
 40
164.92042356085511
 50
271.53512106537778
 51
355.52727750585058
  0
LINE
  5
75E53
  8
YODOROGO
 10
28913.604341291921
 20
1523.7494964292871
 30
0.0
 11
28913.604341291921
 21
1427.749496429288
 31
0.0
  0
LINE
  5
75E54
  8
YODOROGO
 10
28793.60434129191
 20
1667.749496429288
 30
0.0
 11
28657.60434129191
 21
1667.749496429288
 31
0.0
  0
LINE
  5
75E55
  8
YODOROGO
 10
28793.60434129191
 20
1603.7494964292889
 30
0.0
 11
28793.60434129191
 21
1667.749496429288
 31
0.0
  0
LINE
  5
75E56
  8
YODOROGO
 10
28657.60434129191
 20
1603.7494964292889
 30
0.0
 11
28793.60434129191
 21
1603.7494964292889
 31
0.0
  0
LINE
  5
75E57
  8
YODOROGO
 10
28657.60434129191
 20
1523.7494964292871
 30
0.0
 11
28657.60434129191
 21
1603.7494964292889
 31
0.0
  0
LINE
  5
75E58
  8
YODOROGO
 10
28793.60434129191
 20
1523.7494964292871
 30
0.0
 11
28657.60434129191
 21
1523.7494964292871
 31
0.0
  0
LINE
  5
75E59
  8
YODOROGO
 10
28793.60434129191
 20
1427.749496429288
 30
0.0
 11
28793.60434129191
 21
1523.7494964292871
 31
0.0
  0
LINE
  5
75E5A
  8
YODOROGO
 10
29197.604341291921
 20
1491.749496429286
 30
0.0
 11
29261.604341291921
 21
1491.749496429286
 31
0.0
  0
LINE
  5
75E5B
  8
YODOROGO
 10
29385.604341291921
 20
1427.749496429288
 30
0.0
 11
29457.604341291921
 21
1427.749496429288
 31
0.0
  0
LINE
  5
75E5C
  8
YODOROGO
 10
29737.604341291921
 20
1528.4414521705639
 30
0.0
 11
29737.604341291921
 21
1427.749496429288
 31
0.0
  0
LINE
  5
75E5D
  8
YODOROGO
 10
29617.604341291921
 20
1427.749496429288
 30
0.0
 11
29737.604341291921
 21
1528.4414521705639
 31
0.0
  0
LINE
  5
75E5E
  8
YODOROGO
 10
29617.604341291921
 20
1547.749496429288
 30
0.0
 11
29617.604341291921
 21
1427.749496429288
 31
0.0
  0
LINE
  5
75E5F
  8
YODOROGO
 10
29712.944628699461
 20
1627.749496429288
 30
0.0
 11
29617.604341291921
 21
1547.749496429288
 31
0.0
  0
LINE
  5
75E60
  8
YODOROGO
 10
29617.604341291921
 20
1627.749496429288
 30
0.0
 11
29712.944628699461
 21
1627.749496429288
 31
0.0
  0
LINE
  5
75E61
  8
YODOROGO
 10
29617.604341291921
 20
1667.749496429288
 30
0.0
 11
29617.604341291921
 21
1627.749496429288
 31
0.0
  0
LINE
  5
75E62
  8
YODOROGO
 10
29885.604341291921
 20
1667.749496429288
 30
0.0
 11
29617.604341291921
 21
1667.749496429288
 31
0.0
  0
LINE
  5
75E63
  8
YODOROGO
 10
29917.604341291921
 20
1627.749496429288
 30
0.0
 11
29777.604341291921
 21
1627.749496429288
 31
0.0
  0
LINE
  5
75E64
  8
YODOROGO
 10
29777.604341291921
 20
1562.005437417657
 30
0.0
 11
29771.40987298531
 21
1556.807661346234
 31
0.0
  0
LINE
  5
75E65
  8
YODOROGO
 10
29777.604341291921
 20
1627.749496429288
 30
0.0
 11
29777.604341291921
 21
1562.005437417657
 31
0.0
  0
LINE
  5
75E66
  8
YODOROGO
 10
29737.604341291921
 20
1528.4414521705639
 30
0.0
 11
29737.604341291921
 21
1427.749496429288
 31
0.0
  0
LINE
  5
75E67
  8
YODOROGO
 10
29617.604341291921
 20
1427.749496429288
 30
0.0
 11
29737.604341291921
 21
1528.4414521705639
 31
0.0
  0
LINE
  5
75E68
  8
YODOROGO
 10
29617.604341291921
 20
1547.749496429288
 30
0.0
 11
29617.604341291921
 21
1427.749496429288
 31
0.0
  0
LINE
  5
75E69
  8
YODOROGO
 10
29712.944628699461
 20
1627.749496429288
 30
0.0
 11
29617.604341291921
 21
1547.749496429288
 31
0.0
  0
LINE
  5
75E6A
  8
YODOROGO
 10
29617.604341291921
 20
1627.749496429288
 30
0.0
 11
29712.944628699461
 21
1627.749496429288
 31
0.0
  0
LINE
  5
75E6B
  8
YODOROGO
 10
29617.604341291921
 20
1667.749496429288
 30
0.0
 11
29617.604341291921
 21
1627.749496429288
 31
0.0
  0
LINE
  5
75E6C
  8
YODOROGO
 10
29885.604341291921
 20
1667.749496429288
 30
0.0
 11
29617.604341291921
 21
1667.749496429288
 31
0.0
  0
LINE
  5
75E6D
  8
YODOROGO
 10
28793.60434129191
 20
1747.74949642929
 30
0.0
 11
28793.60434129191
 21
1819.749496429288
 31
0.0
  0
LINE
  5
75E6E
  8
YODOROGO
 10
28657.60434129191
 20
1747.74949642929
 30
0.0
 11
28793.60434129191
 21
1747.74949642929
 31
0.0
  0
LINE
  5
75E6F
  8
YODOROGO
 10
28729.604341291921
 20
1867.749496429288
 30
0.0
 11
28729.604341291921
 21
1923.7494964292871
 31
0.0
  0
LINE
  5
75E70
  8
YODOROGO
 10
28793.60434129191
 20
1867.749496429288
 30
0.0
 11
28729.604341291921
 21
1867.749496429288
 31
0.0
  0
LINE
  5
75E71
  8
YODOROGO
 10
28793.60434129191
 20
1947.749496429288
 30
0.0
 11
28793.60434129191
 21
1867.749496429288
 31
0.0
  0
ARC
  5
75E72
  8
YODOROGO
 10
28753.60434129191
 20
1947.749496429288
 30
0.0
 40
40.0
 50
0.0
 51
90.0
  0
LINE
  5
75E73
  8
YODOROGO
 10
28657.604341291921
 20
1987.749496429288
 30
0.0
 11
28753.60434129191
 21
1987.749496429288
 31
0.0
  0
LINE
  5
75E74
  8
YODOROGO
 10
28657.604341291921
 20
2027.749496429288
 30
0.0
 11
28657.604341291921
 21
1987.749496429288
 31
0.0
  0
LINE
  5
75E75
  8
YODOROGO
 10
29073.604341291921
 20
2027.749496429288
 30
0.0
 11
29001.60434129191
 21
2027.749496429288
 31
0.0
  0
LINE
  5
75E76
  8
YODOROGO
 10
29261.604341291921
 20
2007.749496429288
 30
0.0
 11
29197.604341291921
 21
2007.749496429288
 31
0.0
  0
LINE
  5
75E77
  8
YODOROGO
 10
29457.604341291921
 20
2027.749496429288
 30
0.0
 11
29385.604341291921
 21
2027.749496429288
 31
0.0
  0
LINE
  5
75E78
  8
YODOROGO
 10
29673.604341291921
 20
1707.749496429288
 30
0.0
 11
29673.604341291921
 21
1771.749496429288
 31
0.0
1001
AUTOCAD_POSTSCRIPT_FIGURE
1002
{
1000
PSFILL
1000
Grayscale
1000
Grayscale
1070
    25
1002
}
  0
LINE
  5
75E79
  8
YODOROGO
 10
29617.604341291921
 20
1707.749496429288
 30
0.0
 11
29673.604341291921
 21
1707.749496429288
 31
0.0
1001
AUTOCAD_POSTSCRIPT_FIGURE
1002
{
1000
PSFILL
1000
Grayscale
1000
Grayscale
1070
    25
1002
}
  0
LINE
  5
75E7A
  8
YODOROGO
 10
29617.604341291921
 20
1819.749496429288
 30
0.0
 11
29617.604341291921
 21
1707.749496429288
 31
0.0
1001
AUTOCAD_POSTSCRIPT_FIGURE
1002
{
1000
PSFILL
1000
Grayscale
1000
Grayscale
1070
    25
1002
}
  0
LINE
  5
75E7B
  8
YODOROGO
 10
29765.604341291921
 20
1819.749496429288
 30
0.0
 11
29617.604341291921
 21
1819.749496429288
 31
0.0
1001
AUTOCAD_POSTSCRIPT_FIGURE
1002
{
1000
PSFILL
1000
Grayscale
1000
Grayscale
1070
    25
1002
}
  0
LINE
  5
75E7C
  8
YODOROGO
 10
29765.604341291921
 20
1859.749496429288
 30
0.0
 11
29765.604341291921
 21
1819.749496429288
 31
0.0
1001
AUTOCAD_POSTSCRIPT_FIGURE
1002
{
1000
PSFILL
1000
Grayscale
1000
Grayscale
1070
    25
1002
}
  0
LINE
  5
75E7D
  8
YODOROGO
 10
29617.604341291921
 20
1859.749496429288
 30
0.0
 11
29765.604341291921
 21
1859.749496429288
 31
0.0
1001
AUTOCAD_POSTSCRIPT_FIGURE
1002
{
1000
PSFILL
1000
Grayscale
1000
Grayscale
1070
    25
1002
}
  0
LINE
  5
75E7E
  8
YODOROGO
 10
29617.604341291921
 20
1907.7494964292871
 30
0.0
 11
29617.604341291921
 21
1859.749496429288
 31
0.0
1001
AUTOCAD_POSTSCRIPT_FIGURE
1002
{
1000
PSFILL
1000
Grayscale
1000
Grayscale
1070
    25
1002
}
  0
LINE
  5
75E7F
  8
YODOROGO
 10
29765.604341291921
 20
1907.7494964292871
 30
0.0
 11
29617.604341291921
 21
1907.7494964292871
 31
0.0
1001
AUTOCAD_POSTSCRIPT_FIGURE
1002
{
1000
PSFILL
1000
Grayscale
1000
Grayscale
1070
    25
1002
}
  0
LINE
  5
75E80
  8
YODOROGO
 10
29765.604341291921
 20
1947.749496429288
 30
0.0
 11
29765.604341291921
 21
1907.7494964292871
 31
0.0
1001
AUTOCAD_POSTSCRIPT_FIGURE
1002
{
1000
PSFILL
1000
Grayscale
1000
Grayscale
1070
    25
1002
}
  0
LINE
  5
75E81
  8
YODOROGO
 10
29617.604341291921
 20
1947.749496429288
 30
0.0
 11
29765.604341291921
 21
1947.749496429288
 31
0.0
1001
AUTOCAD_POSTSCRIPT_FIGURE
1002
{
1000
PSFILL
1000
Grayscale
1000
Grayscale
1070
    25
1002
}
  0
LINE
  5
75E82
  8
YODOROGO
 10
29617.604341291921
 20
2027.749496429288
 30
0.0
 11
29617.604341291921
 21
1947.749496429288
 31
0.0
1001
AUTOCAD_POSTSCRIPT_FIGURE
1002
{
1000
PSFILL
1000
Grayscale
1000
Grayscale
1070
    25
1002
}
  0
LINE
  5
75E83
  8
YODOROGO
 10
29665.604341291921
 20
2027.749496429288
 30
0.0
 11
29617.604341291921
 21
2027.749496429288
 31
0.0
1001
AUTOCAD_POSTSCRIPT_FIGURE
1002
{
1000
PSFILL
1000
Grayscale
1000
Grayscale
1070
    25
1002
}
  0
LINE
  5
75E84
  8
YODOROGO
 10
29665.604341291921
 20
1995.7494964292871
 30
0.0
 11
29665.604341291921
 21
2027.749496429288
 31
0.0
1001
AUTOCAD_POSTSCRIPT_FIGURE
1002
{
1000
PSFILL
1000
Grayscale
1000
Grayscale
1070
    25
1002
}
  0
LINE
  5
75E85
  8
YODOROGO
 10
29765.604341291921
 20
1995.7494964292871
 30
0.0
 11
29665.604341291921
 21
1995.7494964292871
 31
0.0
1001
AUTOCAD_POSTSCRIPT_FIGURE
1002
{
1000
PSFILL
1000
Grayscale
1000
Grayscale
1070
    25
1002
}
  0
LINE
  5
75E86
  8
YODOROGO
 10
29765.604341291921
 20
2027.749496429288
 30
0.0
 11
29765.604341291921
 21
1995.7494964292871
 31
0.0
1001
AUTOCAD_POSTSCRIPT_FIGURE
1002
{
1000
PSFILL
1000
Grayscale
1000
Grayscale
1070
    25
1002
}
  0
LINE
  5
75E87
  8
YODOROGO
 10
29829.604341291921
 20
2027.749496429288
 30
0.0
 11
29765.604341291921
 21
2027.749496429288
 31
0.0
1001
AUTOCAD_POSTSCRIPT_FIGURE
1002
{
1000
PSFILL
1000
Grayscale
1000
Grayscale
1070
    25
1002
}
  0
LINE
  5
75E88
  8
YODOROGO
 10
29829.604341291921
 20
1995.7494964292871
 30
0.0
 11
29829.604341291921
 21
2027.749496429288
 31
0.0
1001
AUTOCAD_POSTSCRIPT_FIGURE
1002
{
1000
PSFILL
1000
Grayscale
1000
Grayscale
1070
    25
1002
}
  0
LINE
  5
75E89
  8
YODOROGO
 10
29829.604341291921
 20
1907.7494964292871
 30
0.0
 11
29829.604341291921
 21
1947.749496429288
 31
0.0
1001
AUTOCAD_POSTSCRIPT_FIGURE
1002
{
1000
PSFILL
1000
Grayscale
1000
Grayscale
1070
    25
1002
}
  0
LINE
  5
75E8A
  8
YODOROGO
 10
29829.604341291921
 20
1819.749496429288
 30
0.0
 11
29829.604341291921
 21
1859.749496429288
 31
0.0
1001
AUTOCAD_POSTSCRIPT_FIGURE
1002
{
1000
PSFILL
1000
Grayscale
1000
Grayscale
1070
    25
1002
}
  0
LINE
  5
75E8B
  8
YODOROGO
 10
29921.60434129191
 20
1771.749496429288
 30
0.0
 11
29921.60434129191
 21
1707.749496429288
 31
0.0
1001
AUTOCAD_POSTSCRIPT_FIGURE
1002
{
1000
PSFILL
1000
Grayscale
1000
Grayscale
1070
    25
1002
}
  0
LINE
  5
75E8C
  8
YODOROGO
 10
29829.604341291921
 20
1771.749496429288
 30
0.0
 11
29921.60434129191
 21
1771.749496429288
 31
0.0
1001
AUTOCAD_POSTSCRIPT_FIGURE
1002
{
1000
PSFILL
1000
Grayscale
1000
Grayscale
1070
    25
1002
}
  0
LINE
  5
75E8D
  8
YODOROGO
 10
29829.604341291921
 20
1707.749496429288
 30
0.0
 11
29829.604341291921
 21
1771.749496429288
 31
0.0
1001
AUTOCAD_POSTSCRIPT_FIGURE
1002
{
1000
PSFILL
1000
Grayscale
1000
Grayscale
1070
    25
1002
}
  0
LINE
  5
75E8E
  8
YODOROGO
 10
29765.604341291921
 20
1707.749496429288
 30
0.0
 11
29829.604341291921
 21
1707.749496429288
 31
0.0
1001
AUTOCAD_POSTSCRIPT_FIGURE
1002
{
1000
PSFILL
1000
Grayscale
1000
Grayscale
1070
    25
1002
}
  0
LINE
  5
75E8F
  8
YODOROGO
 10
29765.604341291921
 20
1771.749496429288
 30
0.0
 11
29765.604341291921
 21
1707.749496429288
 31
0.0
1001
AUTOCAD_POSTSCRIPT_FIGURE
1002
{
1000
PSFILL
1000
Grayscale
1000
Grayscale
1070
    25
1002
}
  0
LINE
  5
75E90
  8
YODOROGO
 10
29673.604341291921
 20
1771.749496429288
 30
0.0
 11
29765.604341291921
 21
1771.749496429288
 31
0.0
1001
AUTOCAD_POSTSCRIPT_FIGURE
1002
{
1000
PSFILL
1000
Grayscale
1000
Grayscale
1070
    25
1002
}
  0
ARC
  5
75E91
  8
YODOROGO
 10
31059.517893357912
 20
1602.6807375155761
 30
0.0
 40
178.22128111072149
 50
281.02627495425361
 51
357.77113575573799
  0
LINE
  5
75E92
  8
YODOROGO
 10
31413.604341291921
 20
1907.7494964292871
 30
0.0
 11
31165.604341291921
 21
1907.7494964292871
 31
0.0
  0
LINE
  5
75E93
  8
YODOROGO
 10
31413.604341291921
 20
2027.749496429288
 30
0.0
 11
31165.604341291921
 21
2027.749496429288
 31
0.0
  0
LINE
  5
75E94
  8
YODOROGO
 10
31165.604341291921
 20
1963.7494964292871
 30
0.0
 11
31413.604341291921
 21
1963.7494964292871
 31
0.0
  0
LINE
  5
75E95
  8
YODOROGO
 10
30791.604341291921
 20
1563.7494964292871
 30
0.0
 11
30791.604341291921
 21
1755.7494964292871
 31
0.0
  0
LINE
  5
75E96
  8
YODOROGO
 10
30763.604341291921
 20
1691.7494964292889
 30
0.0
 11
30763.604341291921
 21
1563.7494964292871
 31
0.0
  0
LINE
  5
75E97
  8
YODOROGO
 10
30723.604341291921
 20
1491.7494964292889
 30
0.0
 11
30723.604341291921
 21
1691.7494964292889
 31
0.0
  0
LINE
  5
75E98
  8
YODOROGO
 10
30899.604341291932
 20
1691.7494964292889
 30
0.0
 11
30899.604341291932
 21
1491.7494964292889
 31
0.0
  0
LINE
  5
75E99
  8
YODOROGO
 10
30859.604341291932
 20
1563.7494964292871
 30
0.0
 11
30859.604341291932
 21
1691.7494964292889
 31
0.0
  0
LINE
  5
75E9A
  8
YODOROGO
 10
30831.604341291921
 20
1755.7494964292871
 30
0.0
 11
30831.604341291921
 21
1563.7494964292871
 31
0.0
  0
LINE
  5
75E9B
  8
YODOROGO
 10
30973.604341291921
 20
2027.749496429288
 30
0.0
 11
30973.604341291921
 21
1467.749496429288
 31
0.0
  0
LINE
  5
75E9C
  8
YODOROGO
 10
30645.604341291921
 20
1427.749496429288
 30
0.0
 11
30645.604341291921
 21
2027.749496429288
 31
0.0
  0
LINE
  5
75E9D
  8
YODOROGO
 10
30697.604341291932
 20
1963.7494964292871
 30
0.0
 11
30697.604341291932
 21
1427.749496429288
 31
0.0
  0
LINE
  5
75E9E
  8
YODOROGO
 10
30925.604341291921
 20
1547.749496429288
 30
0.0
 11
30925.604341291921
 21
1963.7494964292871
 31
0.0
  0
LINE
  5
75E9F
  8
YODOROGO
 10
30381.604341291932
 20
1627.749496429288
 30
0.0
 11
30381.604341291932
 21
1679.749496429288
 31
0.0
  0
LINE
  5
75EA0
  8
YODOROGO
 10
30617.604341291921
 20
1679.749496429288
 30
0.0
 11
30617.604341291921
 21
1627.749496429288
 31
0.0
  0
LINE
  5
75EA1
  8
YODOROGO
 10
31165.604341291921
 20
1907.7494964292871
 30
0.0
 11
31165.604341291921
 21
1635.7494964292871
 31
0.0
  0
LINE
  5
75EA2
  8
YODOROGO
 10
29949.604341291921
 20
1667.749496429288
 30
0.0
 11
29949.604341291921
 21
1707.749496429288
 31
0.0
  0
LINE
  5
75EA3
  8
YODOROGO
 10
29949.604341291921
 20
1667.749496429288
 30
0.0
 11
29949.604341291921
 21
1707.749496429288
 31
0.0
  0
ARC
  5
75EA4
  8
YODOROGO
 10
30537.604341291921
 20
1507.749496429288
 30
0.0
 40
80.0
 50
270.0
 51
0.0
  0
LINE
  5
75EA5
  8
YODOROGO
 10
30569.604341291921
 20
1599.749496429288
 30
0.0
 11
30617.604341291921
 21
1599.749496429288
 31
0.0
  0
LINE
  5
75EA6
  8
YODOROGO
 10
30617.604341291921
 20
1627.749496429288
 30
0.0
 11
30529.604341291932
 21
1627.749496429288
 31
0.0
  0
LINE
  5
75EA7
  8
YODOROGO
 10
30217.604341291921
 20
1667.749496429288
 30
0.0
 11
29949.604341291921
 21
1667.749496429288
 31
0.0
  0
LINE
  5
75EA8
  8
YODOROGO
 10
30217.604341291921
 20
1627.749496429288
 30
0.0
 11
30217.604341291921
 21
1667.749496429288
 31
0.0
  0
LINE
  5
75EA9
  8
YODOROGO
 10
30017.604341291921
 20
1627.749496429288
 30
0.0
 11
30217.604341291921
 21
1627.749496429288
 31
0.0
  0
ARC
  5
75EAA
  8
YODOROGO
 10
30230.058828701371
 20
1868.8857149529019
 30
0.0
 40
321.37763628522828
 50
228.6181454618993
 51
245.660289248906
  0
LINE
  5
75EAB
  8
YODOROGO
 10
30105.604341291921
 20
1603.7494964292889
 30
0.0
 11
30097.604341291961
 21
1576.0728158699001
 31
0.0
  0
LINE
  5
75EAC
  8
YODOROGO
 10
30189.604341291921
 20
1603.7494964292889
 30
0.0
 11
30105.604341291921
 21
1603.7494964292889
 31
0.0
  0
LINE
  5
75EAD
  8
YODOROGO
 10
30177.604341291921
 20
1551.817722473427
 30
0.0
 11
30189.604341291921
 21
1603.7494964292889
 31
0.0
  0
ARC
  5
75EAE
  8
YODOROGO
 10
30230.058828700461
 20
1868.8857149530029
 30
0.0
 40
321.37763628529092
 50
260.60629297969928
 51
267.77903556555862
  0
LINE
  5
75EAF
  8
YODOROGO
 10
30217.604341291921
 20
1427.749496429285
 30
0.0
 11
30217.604341291921
 21
1547.749496429288
 31
0.0
  0
LINE
  5
75EB0
  8
YODOROGO
 10
29937.604341291932
 20
1481.339334915511
 30
0.0
 11
29937.604341291921
 21
1594.531090531141
 31
0.0
  0
LINE
  5
75EB1
  8
YODOROGO
 10
30217.604341291921
 20
1667.749496429288
 30
0.0
 11
29949.604341291921
 21
1667.749496429288
 31
0.0
  0
LINE
  5
75EB2
  8
YODOROGO
 10
30217.604341291921
 20
1627.749496429288
 30
0.0
 11
30217.604341291921
 21
1667.749496429288
 31
0.0
  0
LINE
  5
75EB3
  8
YODOROGO
 10
30017.604341291921
 20
1627.749496429288
 30
0.0
 11
30217.604341291921
 21
1627.749496429288
 31
0.0
  0
ARC
  5
75EB4
  8
YODOROGO
 10
30230.058828701371
 20
1868.8857149529019
 30
0.0
 40
321.37763628522828
 50
228.6181454618993
 51
245.660289248906
  0
LINE
  5
75EB5
  8
YODOROGO
 10
30105.604341291921
 20
1603.7494964292889
 30
0.0
 11
30097.604341291961
 21
1576.0728158699001
 31
0.0
  0
LINE
  5
75EB6
  8
YODOROGO
 10
30189.604341291921
 20
1603.7494964292889
 30
0.0
 11
30105.604341291921
 21
1603.7494964292889
 31
0.0
  0
LINE
  5
75EB7
  8
YODOROGO
 10
30177.604341291921
 20
1551.817722473427
 30
0.0
 11
30189.604341291921
 21
1603.7494964292889
 31
0.0
  0
ARC
  5
75EB8
  8
YODOROGO
 10
30230.058828700461
 20
1868.8857149530029
 30
0.0
 40
321.37763628529092
 50
260.60629297969928
 51
267.77903556555862
  0
LINE
  5
75EB9
  8
YODOROGO
 10
30217.604341291921
 20
1427.749496429285
 30
0.0
 11
30217.604341291921
 21
1547.749496429288
 31
0.0
  0
LINE
  5
75EBA
  8
YODOROGO
 10
29937.604341291932
 20
1481.339334915511
 30
0.0
 11
29937.604341291921
 21
1594.531090531141
 31
0.0
  0
LINE
  5
75EBB
  8
YODOROGO
 10
30433.604341291932
 20
1573.7494964292889
 30
0.0
 11
30381.604341291932
 21
1573.7494964292889
 31
0.0
  0
LINE
  5
75EBC
  8
YODOROGO
 10
30433.604341291932
 20
1601.749496429286
 30
0.0
 11
30433.604341291932
 21
1573.7494964292889
 31
0.0
  0
LINE
  5
75EBD
  8
YODOROGO
 10
30381.604341291932
 20
1601.749496429286
 30
0.0
 11
30433.604341291932
 21
1601.749496429286
 31
0.0
  0
LINE
  5
75EBE
  8
YODOROGO
 10
30381.604341291932
 20
1573.7494964292889
 30
0.0
 11
30381.604341291932
 21
1601.749496429286
 31
0.0
  0
LINE
  5
75EBF
  8
YODOROGO
 10
30429.604341291921
 20
1577.7494964292871
 30
0.0
 11
30385.604341291932
 21
1577.7494964292871
 31
0.0
  0
LINE
  5
75EC0
  8
YODOROGO
 10
30429.604341291921
 20
1597.749496429288
 30
0.0
 11
30429.604341291921
 21
1577.7494964292871
 31
0.0
  0
LINE
  5
75EC1
  8
YODOROGO
 10
30385.604341291932
 20
1597.749496429288
 30
0.0
 11
30429.604341291921
 21
1597.749496429288
 31
0.0
  0
LINE
  5
75EC2
  8
YODOROGO
 10
30385.604341291932
 20
1577.7494964292871
 30
0.0
 11
30385.604341291932
 21
1597.749496429288
 31
0.0
  0
LINE
  5
75EC3
  8
YODOROGO
 10
30425.604341291921
 20
1581.749496429286
 30
0.0
 11
30389.604341291932
 21
1581.749496429286
 31
0.0
  0
LINE
  5
75EC4
  8
YODOROGO
 10
30425.604341291932
 20
1593.7494964292889
 30
0.0
 11
30425.604341291921
 21
1581.749496429286
 31
0.0
  0
LINE
  5
75EC5
  8
YODOROGO
 10
30389.604341291932
 20
1593.7494964292889
 30
0.0
 11
30425.604341291932
 21
1593.7494964292889
 31
0.0
  0
LINE
  5
75EC6
  8
YODOROGO
 10
30389.604341291932
 20
1581.749496429286
 30
0.0
 11
30389.604341291932
 21
1593.7494964292889
 31
0.0
  0
LINE
  5
75EC7
  8
YODOROGO
 10
30421.604341291932
 20
1585.7494964292871
 30
0.0
 11
30393.604341291932
 21
1585.7494964292871
 31
0.0
  0
LINE
  5
75EC8
  8
YODOROGO
 10
30421.604341291932
 20
1589.749496429288
 30
0.0
 11
30421.604341291932
 21
1585.7494964292871
 31
0.0
  0
LINE
  5
75EC9
  8
YODOROGO
 10
30393.604341291932
 20
1589.749496429288
 30
0.0
 11
30421.604341291932
 21
1589.749496429288
 31
0.0
  0
LINE
  5
75ECA
  8
YODOROGO
 10
30393.604341291932
 20
1585.7494964292871
 30
0.0
 11
30393.604341291932
 21
1589.749496429288
 31
0.0
  0
LINE
  5
75ECB
  8
YODOROGO
 10
30465.604341291921
 20
1627.749496429288
 30
0.0
 11
30381.604341291932
 21
1627.749496429288
 31
0.0
  0
LINE
  5
75ECC
  8
YODOROGO
 10
30465.604341291921
 20
1547.749496429288
 30
0.0
 11
30465.604341291921
 21
1627.749496429288
 31
0.0
  0
LINE
  5
75ECD
  8
YODOROGO
 10
30381.604341291932
 20
1547.749496429288
 30
0.0
 11
30465.604341291921
 21
1547.749496429288
 31
0.0
  0
LINE
  5
75ECE
  8
YODOROGO
 10
30381.604341291932
 20
1427.749496429288
 30
0.0
 11
30381.604341291932
 21
1547.749496429288
 31
0.0
  0
LINE
  5
75ECF
  8
YODOROGO
 10
30537.604341291921
 20
1427.749496429288
 30
0.0
 11
30381.604341291932
 21
1427.749496429288
 31
0.0
  0
LINE
  5
75ED0
  8
YODOROGO
 10
30569.604341291921
 20
1571.749496429286
 30
0.0
 11
30569.604341291921
 21
1599.749496429288
 31
0.0
  0
ARC
  5
75ED1
  8
YODOROGO
 10
30545.60434129191
 20
1571.749496429291
 30
0.0
 40
24.000000000003752
 50
270.0
 51
359.99999999998778
  0
LINE
  5
75ED2
  8
YODOROGO
 10
30529.604341291932
 20
1547.749496429288
 30
0.0
 11
30545.60434129191
 21
1547.749496429288
 31
0.0
  0
LINE
  5
75ED3
  8
YODOROGO
 10
30529.604341291932
 20
1627.749496429288
 30
0.0
 11
30529.604341291932
 21
1547.749496429288
 31
0.0
  0
LINE
  5
75ED4
  8
YODOROGO
 10
30899.604341291932
 20
1547.749496429288
 30
0.0
 11
30925.604341291921
 21
1547.749496429288
 31
0.0
  0
LINE
  5
75ED5
  8
YODOROGO
 10
30933.604341291921
 20
1427.749496429288
 30
0.0
 11
30899.604341291932
 21
1427.749496429288
 31
0.0
  0
LINE
  5
75ED6
  8
YODOROGO
 10
30763.604341291921
 20
1563.7494964292871
 30
0.0
 11
30791.604341291921
 21
1563.7494964292871
 31
0.0
  0
LINE
  5
75ED7
  8
YODOROGO
 10
30899.604341291932
 20
1491.7494964292889
 30
0.0
 11
30723.604341291921
 21
1491.7494964292889
 31
0.0
  0
LINE
  5
75ED8
  8
YODOROGO
 10
30831.604341291921
 20
1563.7494964292871
 30
0.0
 11
30859.604341291932
 21
1563.7494964292871
 31
0.0
  0
LINE
  5
75ED9
  8
YODOROGO
 10
30899.604341291932
 20
1427.749496429288
 30
0.0
 11
30899.604341291932
 21
1547.749496429288
 31
0.0
  0
LINE
  5
75EDA
  8
YODOROGO
 10
30697.604341291932
 20
1427.749496429288
 30
0.0
 11
30645.604341291921
 21
1427.749496429288
 31
0.0
  0
LINE
  5
75EDB
  8
YODOROGO
 10
30617.604341291921
 20
1599.749496429288
 30
0.0
 11
30617.604341291921
 21
1507.749496429288
 31
0.0
  0
ARC
  5
75EDC
  8
YODOROGO
 10
30933.604341291921
 20
1467.749496429288
 30
0.0
 40
40.0
 50
270.0
 51
0.0
  0
LINE
  5
75EDD
  8
YODOROGO
 10
31093.604341291921
 20
1523.7494964292871
 30
0.0
 11
31093.604341291921
 21
1427.749496429288
 31
0.0
  0
ARC
  5
75EDE
  8
YODOROGO
 10
31039.721395566779
 20
1637.5313901097329
 30
0.0
 40
125.8955565916754
 50
295.34052442160112
 51
359.18902303418668
  0
LINE
  5
75EDF
  8
YODOROGO
 10
30617.604341291921
 20
1859.749496429288
 30
0.0
 11
30497.604341291921
 21
1939.749496429288
 31
0.0
  0
LINE
  5
75EE0
  8
YODOROGO
 10
30497.604341291921
 20
2027.749496429288
 30
0.0
 11
30617.604341291921
 21
1947.749496429288
 31
0.0
  0
LINE
  5
75EE1
  8
YODOROGO
 10
30529.604341291932
 20
1679.749496429288
 30
0.0
 11
30617.604341291921
 21
1679.749496429288
 31
0.0
  0
LINE
  5
75EE2
  8
YODOROGO
 10
30617.604341291921
 20
1735.7494964292871
 30
0.0
 11
30529.604341291932
 21
1735.7494964292871
 31
0.0
  0
LINE
  5
75EE3
  8
YODOROGO
 10
30381.604341291932
 20
1795.7494964292871
 30
0.0
 11
30617.604341291921
 21
1795.7494964292871
 31
0.0
  0
LINE
  5
75EE4
  8
YODOROGO
 10
30081.604341291932
 20
2027.749496429288
 30
0.0
 11
30021.604341291921
 21
2027.749496429288
 31
0.0
  0
LINE
  5
75EE5
  8
YODOROGO
 10
30081.604341291932
 20
1827.7494964292871
 30
0.0
 11
30081.604341291932
 21
2027.749496429288
 31
0.0
  0
LINE
  5
75EE6
  8
YODOROGO
 10
30021.604341291921
 20
1827.7494964292871
 30
0.0
 11
30081.604341291932
 21
1827.7494964292871
 31
0.0
  0
LINE
  5
75EE7
  8
YODOROGO
 10
30021.604341291921
 20
2027.749496429288
 30
0.0
 11
30021.604341291921
 21
1827.7494964292871
 31
0.0
  0
LINE
  5
75EE8
  8
YODOROGO
 10
30161.604341291932
 20
2027.749496429288
 30
0.0
 11
30217.604341291921
 21
2027.749496429288
 31
0.0
  0
LINE
  5
75EE9
  8
YODOROGO
 10
30161.604341291932
 20
1811.7494964292889
 30
0.0
 11
30161.604341291932
 21
2027.749496429288
 31
0.0
  0
ARC
  5
75EEA
  8
YODOROGO
 10
30121.604341291932
 20
1811.7494964292889
 30
0.0
 40
40.0
 50
270.0
 51
0.0
  0
LINE
  5
75EEB
  8
YODOROGO
 10
30021.604341291921
 20
1771.749496429288
 30
0.0
 11
30121.604341291932
 21
1771.749496429288
 31
0.0
  0
LINE
  5
75EEC
  8
YODOROGO
 10
30021.604341291921
 20
1707.749496429288
 30
0.0
 11
30021.604341291921
 21
1771.749496429288
 31
0.0
  0
LINE
  5
75EED
  8
YODOROGO
 10
30137.604341291921
 20
1707.749496429288
 30
0.0
 11
30021.604341291921
 21
1707.749496429288
 31
0.0
  0
ARC
  5
75EEE
  8
YODOROGO
 10
30137.604341291921
 20
1787.749496429288
 30
0.0
 40
80.0
 50
270.0
 51
0.0
  0
LINE
  5
75EEF
  8
YODOROGO
 10
30217.604341291921
 20
2027.749496429288
 30
0.0
 11
30217.604341291921
 21
1787.749496429288
 31
0.0
  0
LINE
  5
75EF0
  8
YODOROGO
 10
29977.604341291921
 20
1947.749496429288
 30
0.0
 11
29977.604341291921
 21
1995.7494964292871
 31
0.0
1001
AUTOCAD_POSTSCRIPT_FIGURE
1002
{
1000
PSFILL
1000
Grayscale
1000
Grayscale
1070
    25
1002
}
  0
LINE
  5
75EF1
  8
YODOROGO
 10
29977.604341291921
 20
1859.749496429288
 30
0.0
 11
29977.604341291921
 21
1907.7494964292871
 31
0.0
1001
AUTOCAD_POSTSCRIPT_FIGURE
1002
{
1000
PSFILL
1000
Grayscale
1000
Grayscale
1070
    25
1002
}
  0
LINE
  5
75EF2
  8
YODOROGO
 10
29977.604341291921
 20
1707.749496429288
 30
0.0
 11
29977.604341291921
 21
1819.749496429288
 31
0.0
1001
AUTOCAD_POSTSCRIPT_FIGURE
1002
{
1000
PSFILL
1000
Grayscale
1000
Grayscale
1070
    25
1002
}
  0
LINE
  5
75EF3
  8
YODOROGO
 10
30381.604341291932
 20
1907.7494964292871
 30
0.0
 11
30497.604341291921
 21
2027.749496429288
 31
0.0
  0
LINE
  5
75EF4
  8
YODOROGO
 10
30381.604341291932
 20
1819.749496429288
 30
0.0
 11
30381.604341291932
 21
1907.7494964292871
 31
0.0
  0
LINE
  5
75EF5
  8
YODOROGO
 10
30497.604341291921
 20
1939.749496429288
 30
0.0
 11
30381.604341291932
 21
1819.749496429288
 31
0.0
  0
LINE
  5
75EF6
  8
YODOROGO
 10
30465.604341291921
 20
1679.749496429288
 30
0.0
 11
30465.604341291921
 21
1735.7494964292871
 31
0.0
  0
LINE
  5
75EF7
  8
YODOROGO
 10
30381.604341291932
 20
1679.749496429288
 30
0.0
 11
30465.604341291921
 21
1679.749496429288
 31
0.0
  0
LINE
  5
75EF8
  8
YODOROGO
 10
30529.604341291932
 20
1735.7494964292871
 30
0.0
 11
30529.604341291932
 21
1679.749496429288
 31
0.0
  0
LINE
  5
75EF9
  8
YODOROGO
 10
30381.604341291932
 20
1735.7494964292871
 30
0.0
 11
30381.604341291932
 21
1795.7494964292871
 31
0.0
  0
LINE
  5
75EFA
  8
YODOROGO
 10
30465.604341291921
 20
1735.7494964292871
 30
0.0
 11
30381.604341291932
 21
1735.7494964292871
 31
0.0
  0
LINE
  5
75EFB
  8
YODOROGO
 10
30645.604341291921
 20
2027.749496429288
 30
0.0
 11
30973.604341291921
 21
2027.749496429288
 31
0.0
  0
LINE
  5
75EFC
  8
YODOROGO
 10
30925.604341291921
 20
1963.7494964292871
 30
0.0
 11
30697.604341291932
 21
1963.7494964292871
 31
0.0
  0
LINE
  5
75EFD
  8
YODOROGO
 10
30873.604341291921
 20
1819.749496429288
 30
0.0
 11
30899.604341291932
 21
1819.749496429288
 31
0.0
  0
LINE
  5
75EFE
  8
YODOROGO
 10
30899.604341291932
 20
1939.749496429288
 30
0.0
 11
30873.604341291921
 21
1819.749496429288
 31
0.0
  0
LINE
  5
75EFF
  8
YODOROGO
 10
30851.604341291932
 20
1939.749496429288
 30
0.0
 11
30899.604341291932
 21
1939.749496429288
 31
0.0
  0
LINE
  5
75F00
  8
YODOROGO
 10
30825.604341291921
 20
1819.749496429288
 30
0.0
 11
30851.604341291932
 21
1939.749496429288
 31
0.0
  0
LINE
  5
75F01
  8
YODOROGO
 10
30797.604341291921
 20
1819.749496429288
 30
0.0
 11
30825.604341291921
 21
1819.749496429288
 31
0.0
  0
LINE
  5
75F02
  8
YODOROGO
 10
30771.604341291932
 20
1939.749496429288
 30
0.0
 11
30797.604341291921
 21
1819.749496429288
 31
0.0
  0
LINE
  5
75F03
  8
YODOROGO
 10
30723.604341291921
 20
1939.749496429288
 30
0.0
 11
30771.604341291932
 21
1939.749496429288
 31
0.0
  0
LINE
  5
75F04
  8
YODOROGO
 10
30749.604341291921
 20
1819.749496429288
 30
0.0
 11
30723.604341291921
 21
1939.749496429288
 31
0.0
  0
LINE
  5
75F05
  8
YODOROGO
 10
30723.604341291921
 20
1819.749496429288
 30
0.0
 11
30749.604341291921
 21
1819.749496429288
 31
0.0
  0
LINE
  5
75F06
  8
YODOROGO
 10
30723.604341291921
 20
1755.7494964292871
 30
0.0
 11
30723.604341291921
 21
1819.749496429288
 31
0.0
  0
LINE
  5
75F07
  8
YODOROGO
 10
30899.604341291932
 20
1755.7494964292871
 30
0.0
 11
30723.604341291921
 21
1755.7494964292871
 31
0.0
  0
LINE
  5
75F08
  8
YODOROGO
 10
30899.604341291932
 20
1819.749496429288
 30
0.0
 11
30899.604341291932
 21
1755.7494964292871
 31
0.0
  0
LINE
  5
75F09
  8
YODOROGO
 10
30617.604341291921
 20
1947.749496429288
 30
0.0
 11
30617.604341291921
 21
1859.749496429288
 31
0.0
  0
LINE
  5
75F0A
  8
YODOROGO
 10
30791.604341291921
 20
1755.7494964292871
 30
0.0
 11
30831.604341291921
 21
1755.7494964292871
 31
0.0
  0
LINE
  5
75F0B
  8
YODOROGO
 10
30723.604341291921
 20
1691.7494964292889
 30
0.0
 11
30763.604341291921
 21
1691.7494964292889
 31
0.0
  0
LINE
  5
75F0C
  8
YODOROGO
 10
30859.604341291932
 20
1691.7494964292889
 30
0.0
 11
30899.604341291932
 21
1691.7494964292889
 31
0.0
  0
LINE
  5
75F0D
  8
YODOROGO
 10
30617.604341291921
 20
1795.7494964292871
 30
0.0
 11
30617.604341291921
 21
1735.7494964292871
 31
0.0
  0
LINE
  5
75F0E
  8
YODOROGO
 10
31165.604341291921
 20
2027.749496429288
 30
0.0
 11
31165.604341291921
 21
1963.7494964292871
 31
0.0
  0
LINE
  5
75F0F
  8
YODOROGO
 10
31533.604341291921
 20
1595.7494964292871
 30
0.0
 11
31533.60434129191
 21
1811.7494964292889
 31
0.0
  0
LINE
  5
75F10
  8
YODOROGO
 10
31461.60434129191
 20
1987.749496429288
 30
0.0
 11
31461.60434129191
 21
1635.7494964292871
 31
0.0
  0
LINE
  5
75F11
  8
YODOROGO
 10
31653.604341291921
 20
1427.749496429288
 30
0.0
 11
31653.60434129191
 21
1811.7494964292889
 31
0.0
  0
LINE
  5
75F12
  8
YODOROGO
 10
31589.604341291921
 20
1811.7494964292889
 30
0.0
 11
31589.604341291921
 21
1427.749496429288
 31
0.0
  0
LINE
  5
75F13
  8
YODOROGO
 10
31237.604341291921
 20
1595.7494964292871
 30
0.0
 11
31237.604341291921
 21
1707.749496429288
 31
0.0
  0
ARC
  5
75F14
  8
YODOROGO
 10
31353.914865116069
 20
1607.790351288558
 30
0.0
 40
180.09244857598861
 50
268.62849102169793
 51
356.16638457330322
  0
LINE
  5
75F15
  8
YODOROGO
 10
31349.604341291932
 20
1527.749496429288
 30
0.0
 11
31349.604341291932
 21
1427.749496429288
 31
0.0
  0
ARC
  5
75F16
  8
YODOROGO
 10
31351.518075724562
 20
1637.838957017655
 30
0.0
 40
110.1060929836122
 50
269.00410209305937
 51
358.91264455492478
  0
LINE
  5
75F17
  8
YODOROGO
 10
31589.604341291921
 20
1427.749496429288
 30
0.0
 11
31653.604341291921
 21
1427.749496429288
 31
0.0
  0
LINE
  5
75F18
  8
YODOROGO
 10
31533.60434129191
 20
1811.7494964292889
 30
0.0
 11
31589.604341291921
 21
1811.7494964292889
 31
0.0
  0
LINE
  5
75F19
  8
YODOROGO
 10
31621.604341291932
 20
1987.749496429288
 30
0.0
 11
31461.60434129191
 21
1987.749496429288
 31
0.0
  0
LINE
  5
75F1A
  8
YODOROGO
 10
31533.60434129191
 20
1915.7494964292871
 30
0.0
 11
31661.604341291932
 21
1915.7494964292871
 31
0.0
  0
LINE
  5
75F1B
  8
YODOROGO
 10
31701.604341291932
 20
1875.7494964292871
 30
0.0
 11
31533.60434129191
 21
1875.7494964292871
 31
0.0
  0
LINE
  5
75F1C
  8
YODOROGO
 10
31237.604341291921
 20
1779.749496429288
 30
0.0
 11
31349.604341291932
 21
1779.749496429288
 31
0.0
  0
LINE
  5
75F1D
  8
YODOROGO
 10
31237.604341291921
 20
1835.7494964292871
 30
0.0
 11
31237.604341291921
 21
1779.749496429288
 31
0.0
  0
LINE
  5
75F1E
  8
YODOROGO
 10
31349.604341291932
 20
1835.7494964292871
 30
0.0
 11
31237.604341291921
 21
1835.7494964292871
 31
0.0
  0
LINE
  5
75F1F
  8
YODOROGO
 10
31349.604341291932
 20
1779.749496429288
 30
0.0
 11
31349.604341291932
 21
1835.7494964292871
 31
0.0
  0
LINE
  5
75F20
  8
YODOROGO
 10
31533.60434129191
 20
1875.7494964292871
 30
0.0
 11
31533.60434129191
 21
1915.7494964292871
 31
0.0
  0
LINE
  5
75F21
  8
YODOROGO
 10
31413.604341291921
 20
1707.749496429288
 30
0.0
 11
31413.604341291921
 21
1907.7494964292871
 31
0.0
  0
LINE
  5
75F22
  8
YODOROGO
 10
31237.604341291921
 20
1707.749496429288
 30
0.0
 11
31413.604341291921
 21
1707.749496429288
 31
0.0
  0
LINE
  5
75F23
  8
YODOROGO
 10
31413.604341291921
 20
1963.7494964292871
 30
0.0
 11
31413.604341291921
 21
2027.749496429288
 31
0.0
  0
ARC
  5
75F24
  8
YODOROGO
 10
31621.604341291932
 20
2003.749496429285
 30
0.0
 40
15.999999999994539
 50
270.0
 51
0.0000000000081422
  0
LINE
  5
75F25
  8
YODOROGO
 10
31637.604341291921
 20
2027.749496429288
 30
0.0
 11
31637.604341291921
 21
2003.7494964292871
 31
0.0
  0
LINE
  5
75F26
  8
YODOROGO
 10
31701.604341291932
 20
2027.749496429288
 30
0.0
 11
31637.604341291921
 21
2027.749496429288
 31
0.0
  0
LINE
  5
75F27
  8
YODOROGO
 10
31701.604341291932
 20
1955.7494964292871
 30
0.0
 11
31701.604341291932
 21
2027.749496429288
 31
0.0
  0
ARC
  5
75F28
  8
YODOROGO
 10
31661.604341291932
 20
1955.7494964292871
 30
0.0
 40
40.0
 50
270.0
 51
0.0
  0
LINE
  5
75F29
  8
YODOROGO
 10
31701.604341291932
 20
1811.7494964292889
 30
0.0
 11
31701.604341291932
 21
1875.7494964292871
 31
0.0
  0
LINE
  5
75F2A
  8
YODOROGO
 10
31653.60434129191
 20
1811.7494964292889
 30
0.0
 11
31701.604341291932
 21
1811.7494964292889
 31
0.0
  0
LINE
  5
75F2B
  8
SUNPOU
 10
12658.499999999951
 20
15838.12150036126
 30
0.0
 11
12658.499999999951
 21
15038.12150036126
 31
0.0
  0
LINE
  5
75F2C
  8
SUNPOU
 10
15373.500000000009
 20
15838.12150036126
 30
0.0
 11
15373.500000000009
 21
15038.12150036126
 31
0.0
  0
LINE
  5
75F2D
  8
SUNPOU
 10
12698.499999999951
 20
15118.12150036126
 30
0.0
 11
15333.500000000009
 21
15118.12150036126
 31
0.0
  0
LINE
  5
75F31
  8
SUNPOU
 10
15458.500000000009
 20
15838.12150036126
 30
0.0
 11
15458.500000000009
 21
15038.12150036126
 31
0.0
  0
LINE
  5
75F32
  8
SUNPOU
 10
20973.499999999989
 20
15838.121500361231
 30
0.0
 11
20973.499999999989
 21
15038.12150036126
 31
0.0
  0
LINE
  5
75F33
  8
SUNPOU
 10
15498.500000000009
 20
15118.12150036126
 30
0.0
 11
20933.499999999989
 21
15118.12150036126
 31
0.0
  0
LINE
  5
75F37
  8
SUNPOU
 10
21256.000000000069
 20
19674.40624389955
 30
0.0
 11
23622.205422612918
 21
19674.40624389955
 31
0.0
  0
LINE
  5
75F38
  8
SUNPOU
 10
21221.000000000069
 20
16318.121500361291
 30
0.0
 11
23622.205422612918
 21
16318.121500361291
 31
0.0
  0
LINE
  5
75F39
  8
SUNPOU
 10
23542.205422612918
 20
19634.40624389955
 30
0.0
 11
23542.205422612918
 21
16358.121500361291
 31
0.0
  0
LINE
  5
75F3D
  8
SUNPOU
 10
21221.000000000069
 20
16318.121500361291
 30
0.0
 11
22482.38710666362
 21
16318.121500361291
 31
0.0
  0
LINE
  5
75F3E
  8
SUNPOU
 10
21053.000000000011
 20
19393.121500361322
 30
0.0
 11
22482.38710666362
 21
19393.121500361322
 31
0.0
  0
LINE
  5
75F3F
  8
SUNPOU
 10
22402.38710666362
 20
16358.121500361291
 30
0.0
 11
22402.38710666362
 21
19353.121500361322
 31
0.0
  0
LINE
  5
75F44
  8
SUNPOU
 10
20658.000000000018
 20
15518.121500361291
 30
0.0
 11
20628.000000000011
 21
15518.121500361291
 31
0.0
  0
LINE
  5
75F46
  8
SUNPOU
 10
12751.99999999998
 20
15518.121500361291
 30
0.0
 11
12781.99999999998
 21
15518.121500361291
 31
0.0
  0
LINE
  5
75F48
  8
SUNPOU
 10
11691.000000000009
 20
18958.121500361289
 30
0.0
 11
11691.000000000009
 21
18928.121500361289
 31
0.0
  0
LINE
  5
75F4A
  8
SUNPOU
 10
11691.000000000009
 20
16348.121500361291
 30
0.0
 11
11691.000000000009
 21
16378.121500361291
 31
0.0
  0
LINE
  5
75F4C
  8
SUNPOU
 10
11291.000000000009
 20
20068.121500361289
 30
0.0
 11
11291.000000000009
 21
20038.121500361289
 31
0.0
  0
LINE
  5
75F4E
  8
SUNPOU
 10
11291.000000000009
 20
16348.121500361291
 30
0.0
 11
11291.000000000009
 21
16378.121500361291
 31
0.0
  0
LINE
  5
75F50
  8
SUNPOU
 10
21146.000000000018
 20
21298.121500361289
 30
0.0
 11
21116.000000000011
 21
21298.121500361289
 31
0.0
  0
LINE
  5
75F52
  8
SUNPOU
 10
21226.000000000018
 20
20898.121500361289
 30
0.0
 11
21256.000000000018
 21
20898.121500361289
 31
0.0
  0
LINE
  5
75F54
  8
SUNPOU
 10
21111.000000000011
 20
20898.121500361289
 30
0.0
 11
21081.000000000011
 21
20898.121500361289
 31
0.0
  0
LINE
  5
75F56
  8
SUNPOU
 10
15280.00000000002
 20
15518.121500361291
 30
0.0
 11
15250.000000000009
 21
15518.121500361291
 31
0.0
  0
LINE
  5
75F58
  8
SUNPOU
 10
21111.000000000011
 20
14318.121500361291
 30
0.0
 11
21081.000000000011
 21
14318.121500361291
 31
0.0
  0
LINE
  5
75F5A
  8
SUNPOU
 10
20986.000000000011
 20
14718.121500361291
 30
0.0
 11
20956.000000000011
 21
14718.121500361291
 31
0.0
  0
LINE
  5
75F5C
  8
SUNPOU
 10
20986.000000000011
 20
14718.121500361291
 30
0.0
 11
20956.000000000011
 21
14718.121500361291
 31
0.0
  0
LINE
  5
75F5E
  8
SUNPOU
 10
21046.000000000011
 20
14718.121500361291
 30
0.0
 11
21076.000000000011
 21
14718.121500361291
 31
0.0
  0
LINE
  5
75F60
  8
SUNPOU
 10
21111.000000000011
 20
14718.121500361291
 30
0.0
 11
21081.000000000011
 21
14718.121500361291
 31
0.0
  0
LINE
  5
75F62
  8
SUNPOU
 10
15552.000000000009
 20
15518.121500361291
 30
0.0
 11
15582.000000000009
 21
15518.121500361291
 31
0.0
  0
LINE
  5
75F64
  8
SUNPOU
 10
18186.000000000011
 20
14718.121500361291
 30
0.0
 11
18156.0
 21
14718.121500361291
 31
0.0
  0
LINE
  5
75F66
  8
SUNPOU
 10
18186.000000000011
 20
14718.121500361291
 30
0.0
 11
18156.0
 21
14718.121500361291
 31
0.0
  0
LINE
  5
75F68
  8
SUNPOU
 10
18246.000000000011
 20
14718.121500361291
 30
0.0
 11
18276.000000000011
 21
14718.121500361291
 31
0.0
  0
LINE
  5
75F6A
  8
SUNPOU
 10
12486.000000000009
 20
21298.121500361289
 30
0.0
 11
12516.000000000009
 21
21298.121500361289
 31
0.0
  0
LINE
  5
75F6C
  8
SUNPOU
 10
12406.000000000009
 20
20898.121500361289
 30
0.0
 11
12376.000000000009
 21
20898.121500361289
 31
0.0
  0
LINE
  5
75F6E
  8
SUNPOU
 10
12521.000000000009
 20
20898.121500361289
 30
0.0
 11
12551.000000000009
 21
20898.121500361289
 31
0.0
  0
LINE
  5
75F70
  8
SUNPOU
 10
15446.000000000009
 20
14718.121500361291
 30
0.0
 11
15476.0
 21
14718.121500361291
 31
0.0
  0
LINE
  5
75F72
  8
SUNPOU
 10
15386.000000000009
 20
14718.121500361291
 30
0.0
 11
15356.0
 21
14718.121500361291
 31
0.0
  0
LINE
  5
75F74
  8
SUNPOU
 10
12521.000000000009
 20
14318.121500361291
 30
0.0
 11
12551.000000000009
 21
14318.121500361291
 31
0.0
  0
LINE
  5
75F76
  8
SUNPOU
 10
12586.000000000009
 20
14718.121500361291
 30
0.0
 11
12556.000000000009
 21
14718.121500361291
 31
0.0
  0
LINE
  5
75F78
  8
SUNPOU
 10
12646.000000000009
 20
14718.121500361291
 30
0.0
 11
12676.000000000009
 21
14718.121500361291
 31
0.0
  0
LINE
  5
75F7A
  8
SUNPOU
 10
12521.000000000009
 20
14718.121500361291
 30
0.0
 11
12551.0
 21
14718.121500361291
 31
0.0
  0
LINE
  5
75F7B
  8
SUNPOU
 10
19728.812735259951
 20
6285.2917521017798
 30
0.0
 11
21121.387106663518
 21
6285.2917521017798
 31
0.0
  0
LINE
  5
75F7C
  8
SUNPOU
 10
19691.999999999902
 20
9360.2917521018098
 30
0.0
 11
21121.387106663518
 21
9360.291752101808
 31
0.0
  0
LINE
  5
75F7D
  8
SUNPOU
 10
21041.387106663518
 20
6325.2917521017798
 30
0.0
 11
21041.387106663518
 21
9320.2917521018062
 31
0.0
  0
LINE
  5
75F81
  8
SUNPOU
 10
16954.268210725349
 20
9772.2466996605654
 30
0.0
 11
18694.503844154959
 21
9772.2466996605654
 31
0.0
  0
LINE
  5
75F82
  8
SUNPOU
 10
17015.99999999996
 20
6285.2917521017798
 30
0.0
 11
18694.503844154951
 21
6285.2917521017798
 31
0.0
  0
LINE
  5
75F83
  8
SUNPOU
 10
18614.503844154959
 20
9732.2466996605654
 30
0.0
 11
18614.503844154951
 21
6325.2917521017789
 31
0.0
  0
LINE
  5
75F87
  8
SUNPOU
 10
16861.733969015349
 20
9852.5517371573878
 30
0.0
 11
16888.143873135868
 21
11023.60767065668
 31
0.0
  0
LINE
  5
75F88
  8
SUNPOU
 10
22670.280187468739
 20
9721.5561593026378
 30
0.0
 11
22696.690091589258
 21
10892.61209280193
 31
0.0
  0
LINE
  5
75F89
  8
SUNPOU
 10
16926.329986469609
 20
10942.726147745319
 30
0.0
 11
22654.896541260419
 21
10813.53428838812
 31
0.0
  0
LINE
  5
75F8D
  8
SUNPOU
 10
22748.476468971188
 20
9641.5764956400453
 30
0.0
 11
23292.44287204343
 21
9641.5764956400453
 31
0.0
  0
LINE
  5
75F8E
  8
SUNPOU
 10
17015.99999999996
 20
6285.2917521017798
 30
0.0
 11
23292.442872043419
 21
6285.2917521017789
 31
0.0
  0
LINE
  5
75F8F
  8
SUNPOU
 10
23212.44287204343
 20
9601.5764956400453
 30
0.0
 11
23212.442872043419
 21
6325.2917521017789
 31
0.0
  0
LINE
  5
75F93
  8
SUNPOU
 10
22358.49999999996
 20
5405.2917521017807
 30
0.0
 11
22358.49999999996
 21
4605.2917521017807
 31
0.0
  0
LINE
  5
75F94
  8
SUNPOU
 10
16858.499999999949
 20
6205.2917521017807
 30
0.0
 11
16858.499999999949
 21
4605.2917521017807
 31
0.0
  0
LINE
  5
75F95
  8
SUNPOU
 10
22318.49999999996
 20
4685.2917521017807
 30
0.0
 11
16898.499999999949
 21
4685.2917521017807
 31
0.0
  0
LINE
  5
75F99
  8
SUNPOU
 10
11190.499999999951
 20
6205.2917521017807
 30
0.0
 11
11190.499999999951
 21
4605.2917521017807
 31
0.0
  0
LINE
  5
75F9A
  8
SUNPOU
 10
16858.499999999949
 20
6205.2917521017807
 30
0.0
 11
16858.499999999949
 21
4605.2917521017807
 31
0.0
  0
LINE
  5
75F9B
  8
SUNPOU
 10
11230.499999999951
 20
4685.2917521017807
 30
0.0
 11
16818.499999999949
 21
4685.2917521017807
 31
0.0
  0
LINE
  5
75FA0
  8
SUNPOU
 10
10849.797785384881
 20
10743.707466321061
 30
0.0
 11
10879.696644633539
 21
10746.168810593699
 31
0.0
  0
LINE
  5
75FA2
  8
SUNPOU
 10
17106.632397489058
 20
11258.78477777578
 30
0.0
 11
17076.733538240391
 21
11256.323433503139
 31
0.0
  0
LINE
  5
75FA4
  8
SUNPOU
 10
18049.753093279211
 20
10035.291752101781
 30
0.0
 11
18049.753093279211
 21
10005.291752101781
 31
0.0
  0
LINE
  5
75FA6
  8
SUNPOU
 10
18049.753093279211
 20
6315.2917521017807
 30
0.0
 11
18049.753093279211
 21
6345.2917521017807
 31
0.0
  0
LINE
  5
75FA8
  8
SUNPOU
 10
10118.35269704189
 20
9515.2917521017807
 30
0.0
 11
10118.35269704189
 21
9485.2917521017807
 31
0.0
  0
LINE
  5
75FAA
  8
SUNPOU
 10
10118.35269704189
 20
6315.2917521017807
 30
0.0
 11
10118.35269704189
 21
6345.2917521017807
 31
0.0
  0
ARC
  5
75FAB
  8
SUNPOU
 10
18216.0
 20
14718.121500361291
 30
0.0
 40
15.0
 50
180.0
 51
0.0
  0
ARC
  5
75FAC
  8
SUNPOU
 10
18216.0
 20
14718.121500361291
 30
0.0
 40
15.0
 50
0.0
 51
180.0
  0
ARC
  5
75FAD
  8
SUNPOU
 10
21141.000000000011
 20
14718.121500361291
 30
0.0
 40
15.0
 50
0.0
 51
180.0
  0
ARC
  5
75FAE
  8
SUNPOU
 10
21141.000000000011
 20
14718.121500361291
 30
0.0
 40
15.0
 50
180.0
 51
0.0
  0
ARC
  5
75FAF
  8
SUNPOU
 10
21016.000000000011
 20
14718.121500361291
 30
0.0
 40
15.0
 50
180.0
 51
0.0
  0
ARC
  5
75FB0
  8
SUNPOU
 10
21016.000000000011
 20
14718.121500361291
 30
0.0
 40
15.0
 50
0.0
 51
180.0
  0
ARC
  5
75FB1
  8
SUNPOU
 10
21196.000000000011
 20
20898.121500361289
 30
0.0
 40
15.0
 50
180.0
 51
0.0
  0
ARC
  5
75FB2
  8
SUNPOU
 10
21196.000000000011
 20
20898.121500361289
 30
0.0
 40
15.0
 50
0.0
 51
180.0
  0
TEXT
  5
75FB3
  8
SUNPOU
 10
14475.80622758191
 20
15198.12150036126
 30
0.0
 40
160.0
  1
2715
 41
0.6666666666666666
  7
00
  0
LINE
  5
75FB5
  8
SUNPOU
 10
15343.500000000009
 20
15118.12150036126
 30
0.0
 11
15313.500000000009
 21
15118.12150036126
 31
0.0
  0
LINE
  5
75FB7
  8
SUNPOU
 10
12688.499999999951
 20
15118.12150036126
 30
0.0
 11
12718.499999999951
 21
15118.12150036126
 31
0.0
  0
TEXT
  5
75FB8
  8
SUNPOU
 10
18900.755986119439
 20
15198.12150036126
 30
0.0
 40
160.0
  1
5515
 41
0.6666666666666666
  7
00
  0
LINE
  5
75FBA
  8
SUNPOU
 10
20943.499999999989
 20
15118.12150036126
 30
0.0
 11
20913.499999999982
 21
15118.12150036126
 31
0.0
  0
LINE
  5
75FBC
  8
SUNPOU
 10
15488.500000000009
 20
15118.12150036126
 30
0.0
 11
15518.500000000009
 21
15118.12150036126
 31
0.0
  0
TEXT
  5
75FBD
  8
SUNPOU
 10
23462.205422612918
 20
18064.046136873869
 30
0.0
 40
160.0
  1
3356
 50
90.0
 41
0.6666666666666666
  7
00
  0
LINE
  5
75FBF
  8
SUNPOU
 10
23542.205422612918
 20
16348.121500361291
 30
0.0
 11
23542.205422612918
 21
16378.121500361291
 31
0.0
  0
LINE
  5
75FC1
  8
SUNPOU
 10
23542.205422612918
 20
19644.40624389955
 30
0.0
 11
23542.205422612918
 21
19614.40624389955
 31
0.0
  0
TEXT
  5
75FC2
  8
SUNPOU
 10
22322.387106663609
 20
18356.0397598944
 30
0.0
 40
160.0
  1
3075
 50
90.0
 41
0.6666666666666666
  7
00
  0
LINE
  5
75FC4
  8
SUNPOU
 10
22402.38710666362
 20
19363.121500361311
 30
0.0
 11
22402.38710666362
 21
19333.121500361322
 31
0.0
  0
LINE
  5
75FC6
  8
SUNPOU
 10
22402.38710666362
 20
16348.121500361291
 30
0.0
 11
22402.38710666362
 21
16378.121500361291
 31
0.0
  0
ARC
  5
75FC7
  8
SUNPOU
 10
20688.000000000018
 20
15518.121500361291
 30
0.0
 40
15.0
 50
180.0
 51
0.0
  0
ARC
  5
75FC8
  8
SUNPOU
 10
20688.000000000018
 20
15518.121500361291
 30
0.0
 40
15.0
 50
0.0
 51
180.0
  0
ARC
  5
75FC9
  8
SUNPOU
 10
12721.99999999998
 20
15518.121500361291
 30
0.0
 40
15.0
 50
0.0
 51
180.0
  0
ARC
  5
75FCA
  8
SUNPOU
 10
12721.99999999998
 20
15518.121500361291
 30
0.0
 40
15.0
 50
180.0
 51
0.0
  0
ARC
  5
75FCB
  8
SUNPOU
 10
11691.000000000009
 20
18988.121500361289
 30
0.0
 40
15.0
 50
270.0
 51
90.0
  0
ARC
  5
75FCC
  8
SUNPOU
 10
11691.000000000009
 20
18988.121500361289
 30
0.0
 40
15.0
 50
90.0
 51
270.0
  0
ARC
  5
75FCD
  8
SUNPOU
 10
11691.000000000009
 20
16318.121500361291
 30
0.0
 40
15.0
 50
90.0
 51
270.0
  0
ARC
  5
75FCE
  8
SUNPOU
 10
11691.000000000009
 20
16318.121500361291
 30
0.0
 40
15.0
 50
270.0
 51
90.0
  0
ARC
  5
75FCF
  8
SUNPOU
 10
11291.000000000009
 20
20098.121500361289
 30
0.0
 40
15.0
 50
270.0
 51
90.0
  0
ARC
  5
75FD0
  8
SUNPOU
 10
11291.000000000009
 20
20098.121500361289
 30
0.0
 40
15.0
 50
90.0
 51
270.0
  0
ARC
  5
75FD1
  8
SUNPOU
 10
11291.000000000009
 20
16318.121500361291
 30
0.0
 40
15.0
 50
90.0
 51
270.0
  0
ARC
  5
75FD2
  8
SUNPOU
 10
11291.000000000009
 20
16318.121500361291
 30
0.0
 40
15.0
 50
270.0
 51
90.0
  0
ARC
  5
75FD3
  8
SUNPOU
 10
21176.000000000018
 20
21298.121500361289
 30
0.0
 40
15.0
 50
180.0
 51
0.0
  0
ARC
  5
75FD4
  8
SUNPOU
 10
21176.000000000018
 20
21298.121500361289
 30
0.0
 40
15.0
 50
0.0
 51
180.0
  0
ARC
  5
75FD5
  8
SUNPOU
 10
21141.000000000011
 20
20898.121500361289
 30
0.0
 40
15.0
 50
180.0
 51
0.0
  0
ARC
  5
75FD6
  8
SUNPOU
 10
21141.000000000011
 20
20898.121500361289
 30
0.0
 40
15.0
 50
0.0
 51
180.0
  0
ARC
  5
75FD7
  8
SUNPOU
 10
15310.000000000009
 20
15518.121500361291
 30
0.0
 40
15.0
 50
180.0
 51
0.0
  0
ARC
  5
75FD8
  8
SUNPOU
 10
15310.000000000009
 20
15518.121500361291
 30
0.0
 40
15.0
 50
0.0
 51
180.0
  0
ARC
  5
75FD9
  8
SUNPOU
 10
21141.000000000011
 20
14318.121500361291
 30
0.0
 40
15.0
 50
180.0
 51
0.0
  0
ARC
  5
75FDA
  8
SUNPOU
 10
21141.000000000011
 20
14318.121500361291
 30
0.0
 40
15.0
 50
0.0
 51
180.0
  0
ARC
  5
75FDB
  8
SUNPOU
 10
21016.000000000011
 20
14718.121500361291
 30
0.0
 40
15.0
 50
180.0
 51
0.0
  0
ARC
  5
75FDC
  8
SUNPOU
 10
21016.000000000011
 20
14718.121500361291
 30
0.0
 40
15.0
 50
0.0
 51
180.0
  0
ARC
  5
75FDD
  8
SUNPOU
 10
21016.000000000011
 20
14718.121500361291
 30
0.0
 40
15.0
 50
180.0
 51
0.0
  0
ARC
  5
75FDE
  8
SUNPOU
 10
21016.000000000011
 20
14718.121500361291
 30
0.0
 40
15.0
 50
0.0
 51
180.0
  0
ARC
  5
75FDF
  8
SUNPOU
 10
15522.000000000009
 20
15518.121500361291
 30
0.0
 40
15.0
 50
0.0
 51
180.0
  0
ARC
  5
75FE0
  8
SUNPOU
 10
15522.000000000009
 20
15518.121500361291
 30
0.0
 40
15.0
 50
180.0
 51
0.0
  0
ARC
  5
75FE1
  8
SUNPOU
 10
18216.0
 20
14718.121500361291
 30
0.0
 40
15.0
 50
180.0
 51
0.0
  0
ARC
  5
75FE2
  8
SUNPOU
 10
18216.0
 20
14718.121500361291
 30
0.0
 40
15.0
 50
0.0
 51
180.0
  0
ARC
  5
75FE3
  8
SUNPOU
 10
18216.0
 20
14718.121500361291
 30
0.0
 40
15.0
 50
180.0
 51
0.0
  0
ARC
  5
75FE4
  8
SUNPOU
 10
18216.0
 20
14718.121500361291
 30
0.0
 40
15.0
 50
0.0
 51
180.0
  0
ARC
  5
75FE5
  8
SUNPOU
 10
12456.000000000009
 20
21298.121500361289
 30
0.0
 40
15.0
 50
0.0
 51
180.0
  0
ARC
  5
75FE6
  8
SUNPOU
 10
12456.000000000009
 20
21298.121500361289
 30
0.0
 40
15.0
 50
180.0
 51
0.0
  0
ARC
  5
75FE7
  8
SUNPOU
 10
12436.000000000009
 20
20898.121500361289
 30
0.0
 40
15.0
 50
180.0
 51
0.0
  0
ARC
  5
75FE8
  8
SUNPOU
 10
12436.000000000009
 20
20898.121500361289
 30
0.0
 40
15.0
 50
0.0
 51
180.0
  0
ARC
  5
75FE9
  8
SUNPOU
 10
12491.000000000009
 20
20898.121500361289
 30
0.0
 40
15.0
 50
0.0
 51
180.0
  0
ARC
  5
75FEA
  8
SUNPOU
 10
12491.000000000009
 20
20898.121500361289
 30
0.0
 40
15.0
 50
180.0
 51
0.0
  0
ARC
  5
75FEB
  8
SUNPOU
 10
15416.0
 20
14718.121500361291
 30
0.0
 40
15.0
 50
0.0
 51
180.0
  0
ARC
  5
75FEC
  8
SUNPOU
 10
15416.0
 20
14718.121500361291
 30
0.0
 40
15.0
 50
180.0
 51
0.0
  0
ARC
  5
75FED
  8
SUNPOU
 10
15416.0
 20
14718.121500361291
 30
0.0
 40
15.0
 50
180.0
 51
0.0
  0
ARC
  5
75FEE
  8
SUNPOU
 10
15416.0
 20
14718.121500361291
 30
0.0
 40
15.0
 50
0.0
 51
180.0
  0
ARC
  5
75FEF
  8
SUNPOU
 10
12491.000000000009
 20
14318.121500361291
 30
0.0
 40
15.0
 50
0.0
 51
180.0
  0
ARC
  5
75FF0
  8
SUNPOU
 10
12491.000000000009
 20
14318.121500361291
 30
0.0
 40
15.0
 50
180.0
 51
0.0
  0
ARC
  5
75FF1
  8
SUNPOU
 10
12616.000000000009
 20
14718.121500361291
 30
0.0
 40
15.0
 50
180.0
 51
0.0
  0
ARC
  5
75FF2
  8
SUNPOU
 10
12616.000000000009
 20
14718.121500361291
 30
0.0
 40
15.0
 50
0.0
 51
180.0
  0
ARC
  5
75FF3
  8
SUNPOU
 10
12616.000000000009
 20
14718.121500361291
 30
0.0
 40
15.0
 50
0.0
 51
180.0
  0
ARC
  5
75FF4
  8
SUNPOU
 10
12616.000000000009
 20
14718.121500361291
 30
0.0
 40
15.0
 50
180.0
 51
0.0
  0
ARC
  5
75FF5
  8
SUNPOU
 10
12491.0
 20
14718.121500361291
 30
0.0
 40
15.0
 50
0.0
 51
180.0
  0
ARC
  5
75FF6
  8
SUNPOU
 10
12491.0
 20
14718.121500361291
 30
0.0
 40
15.0
 50
180.0
 51
0.0
  0
TEXT
  5
75FF7
  8
SUNPOU
 10
20961.387106663518
 20
8521.1791976675213
 30
0.0
 40
160.0
  1
3075
 50
90.0
 41
0.6666666666666666
  7
00
  0
LINE
  5
75FF9
  8
SUNPOU
 10
21041.387106663518
 20
9330.2917521018098
 30
0.0
 11
21041.387106663518
 21
9300.291752101808
 31
0.0
  0
LINE
  5
75FFB
  8
SUNPOU
 10
21041.387106663518
 20
6315.2917521017807
 30
0.0
 11
21041.387106663518
 21
6345.2917521017807
 31
0.0
  0
TEXT
  5
75FFC
  8
SUNPOU
 10
18534.503844154951
 20
7825.5946227065724
 30
0.0
 40
160.0
  1
3487
 50
90.0
 41
0.6666666666666666
  7
00
  0
LINE
  5
75FFE
  8
SUNPOU
 10
18614.503844154951
 20
6315.2917521017798
 30
0.0
 11
18614.503844154951
 21
6345.2917521017798
 31
0.0
  0
LINE
  5
76000
  8
SUNPOU
 10
18614.503844154959
 20
9742.2466996605654
 30
0.0
 11
18614.503844154959
 21
9712.2466996605654
 31
0.0
  0
TEXT
  5
76001
  8
SUNPOU
 10
19589.294027028991
 20
10962.690754104049
 30
0.0
 40
160.0
  1
5810
 50
358.70807231024628
 41
0.6666666666666666
  7
00
  0
LINE
  5
76003
  8
SUNPOU
 10
22664.893999218239
 20
10813.308823575921
 30
0.0
 11
22634.901625344759
 21
10813.9852180125
 31
0.0
  0
LINE
  5
76005
  8
SUNPOU
 10
16916.33252851179
 20
10942.95161255751
 30
0.0
 11
16946.324902385259
 21
10942.275218120931
 31
0.0
  0
TEXT
  5
76006
  8
SUNPOU
 10
23132.442872043419
 20
7760.2595206963133
 30
0.0
 40
160.0
  1
3356
 50
90.0
 41
0.6666666666666666
  7
00
  0
LINE
  5
76008
  8
SUNPOU
 10
23212.442872043419
 20
6315.2917521017789
 30
0.0
 11
23212.442872043419
 21
6345.2917521017789
 31
0.0
  0
LINE
  5
7600A
  8
SUNPOU
 10
23212.44287204343
 20
9611.5764956400453
 30
0.0
 11
23212.44287204343
 21
9581.5764956400453
 31
0.0
  0
TEXT
  5
7600B
  8
SUNPOU
 10
19405.325396825348
 20
4765.2917521017798
 30
0.0
 40
160.0
  1
5500
 41
0.6666666666666666
  7
00
  0
LINE
  5
7600D
  8
SUNPOU
 10
16888.499999999949
 20
4685.2917521017807
 30
0.0
 11
16918.499999999949
 21
4685.2917521017807
 31
0.0
  0
LINE
  5
7600F
  8
SUNPOU
 10
22328.49999999996
 20
4685.2917521017807
 30
0.0
 11
22298.49999999996
 21
4685.2917521017807
 31
0.0
  0
TEXT
  5
76010
  8
SUNPOU
 10
13821.32539682535
 20
4765.2917521017798
 30
0.0
 40
160.0
  1
5668
 41
0.6666666666666666
  7
00
  0
LINE
  5
76012
  8
SUNPOU
 10
16828.499999999949
 20
4685.2917521017807
 30
0.0
 11
16798.499999999949
 21
4685.2917521017807
 31
0.0
  0
LINE
  5
76014
  8
SUNPOU
 10
11220.499999999951
 20
4685.2917521017807
 30
0.0
 11
11250.499999999951
 21
4685.2917521017807
 31
0.0
  0
ARC
  5
76015
  8
SUNPOU
 10
10819.898926136209
 20
10741.24612204842
 30
0.0
 40
15.00000000000079
 50
4.706111143730177
 51
184.7061111437302
  0
ARC
  5
76016
  8
SUNPOU
 10
10819.898926136209
 20
10741.24612204842
 30
0.0
 40
15.00000000000079
 50
184.7061111437302
 51
4.706111143730177
  0
ARC
  5
76017
  8
SUNPOU
 10
17136.531256737719
 20
11261.24612204842
 30
0.0
 40
14.99999999999897
 50
184.70611114373071
 51
4.7061111437307472
  0
ARC
  5
76018
  8
SUNPOU
 10
17136.531256737719
 20
11261.24612204842
 30
0.0
 40
14.99999999999897
 50
4.7061111437307472
 51
184.70611114373071
  0
ARC
  5
76019
  8
SUNPOU
 10
18049.753093279211
 20
10065.291752101781
 30
0.0
 40
15.0
 50
270.0
 51
90.0
  0
ARC
  5
7601A
  8
SUNPOU
 10
18049.753093279211
 20
10065.291752101781
 30
0.0
 40
15.0
 50
90.0
 51
270.0
  0
ARC
  5
7601B
  8
SUNPOU
 10
18049.753093279211
 20
6285.2917521017798
 30
0.0
 40
15.0
 50
90.0
 51
270.0
  0
ARC
  5
7601C
  8
SUNPOU
 10
18049.753093279211
 20
6285.2917521017798
 30
0.0
 40
15.0
 50
270.0
 51
90.0
  0
ARC
  5
7601D
  8
SUNPOU
 10
10118.35269704189
 20
9545.2917521017807
 30
0.0
 40
15.0
 50
270.0
 51
90.0
  0
ARC
  5
7601E
  8
SUNPOU
 10
10118.35269704189
 20
9545.2917521017807
 30
0.0
 40
15.0
 50
90.0
 51
270.0
  0
ARC
  5
7601F
  8
SUNPOU
 10
10118.35269704189
 20
6285.2917521017798
 30
0.0
 40
15.0
 50
90.0
 51
270.0
  0
ARC
  5
76020
  8
SUNPOU
 10
10118.35269704189
 20
6285.2917521017798
 30
0.0
 40
15.0
 50
270.0
 51
90.0
  0
ARC
  5
76021
  8
SUNPOU
 10
15373.500000000009
 20
15118.12150036126
 30
0.0
 40
15.0
 50
180.0
 51
0.0
  0
ARC
  5
76022
  8
SUNPOU
 10
15373.500000000009
 20
15118.12150036126
 30
0.0
 40
15.0
 50
0.0
 51
180.0
  0
ARC
  5
76023
  8
SUNPOU
 10
12658.499999999951
 20
15118.12150036126
 30
0.0
 40
15.0
 50
0.0
 51
180.0
  0
ARC
  5
76024
  8
SUNPOU
 10
12658.499999999951
 20
15118.12150036126
 30
0.0
 40
15.0
 50
180.0
 51
0.0
  0
ARC
  5
76025
  8
SUNPOU
 10
20973.499999999989
 20
15118.12150036126
 30
0.0
 40
15.0
 50
180.0
 51
0.0
  0
ARC
  5
76026
  8
SUNPOU
 10
20973.499999999989
 20
15118.12150036126
 30
0.0
 40
15.0
 50
0.0
 51
180.0
  0
ARC
  5
76027
  8
SUNPOU
 10
15458.500000000009
 20
15118.12150036126
 30
0.0
 40
15.0
 50
0.0
 51
180.0
  0
ARC
  5
76028
  8
SUNPOU
 10
15458.500000000009
 20
15118.12150036126
 30
0.0
 40
15.0
 50
180.0
 51
0.0
  0
ARC
  5
76029
  8
SUNPOU
 10
23542.205422612918
 20
16318.121500361291
 30
0.0
 40
15.0
 50
90.0
 51
270.0
  0
ARC
  5
7602A
  8
SUNPOU
 10
23542.205422612918
 20
16318.121500361291
 30
0.0
 40
15.0
 50
270.0
 51
90.0
  0
ARC
  5
7602B
  8
SUNPOU
 10
23542.205422612918
 20
19674.40624389955
 30
0.0
 40
15.0
 50
270.0
 51
90.0
  0
ARC
  5
7602C
  8
SUNPOU
 10
23542.205422612918
 20
19674.40624389955
 30
0.0
 40
15.0
 50
90.0
 51
270.0
  0
ARC
  5
7602D
  8
SUNPOU
 10
22402.38710666362
 20
19393.121500361322
 30
0.0
 40
15.0
 50
270.0
 51
90.0
  0
ARC
  5
7602E
  8
SUNPOU
 10
22402.38710666362
 20
19393.121500361322
 30
0.0
 40
15.0
 50
90.0
 51
270.0
  0
ARC
  5
7602F
  8
SUNPOU
 10
22402.38710666362
 20
16318.121500361291
 30
0.0
 40
15.0
 50
90.0
 51
270.0
  0
ARC
  5
76030
  8
SUNPOU
 10
22402.38710666362
 20
16318.121500361291
 30
0.0
 40
15.0
 50
270.0
 51
90.0
  0
ARC
  5
76031
  8
SUNPOU
 10
21041.387106663518
 20
9360.291752101808
 30
0.0
 40
15.0
 50
270.0
 51
90.0
  0
ARC
  5
76032
  8
SUNPOU
 10
21041.387106663518
 20
9360.291752101808
 30
0.0
 40
15.0
 50
90.0
 51
270.0
  0
ARC
  5
76033
  8
SUNPOU
 10
21041.387106663518
 20
6285.2917521017798
 30
0.0
 40
15.0
 50
90.0
 51
270.0
  0
ARC
  5
76034
  8
SUNPOU
 10
21041.387106663518
 20
6285.2917521017798
 30
0.0
 40
15.0
 50
270.0
 51
90.0
  0
ARC
  5
76035
  8
SUNPOU
 10
18614.503844154951
 20
6285.2917521017798
 30
0.0
 40
15.0
 50
90.0
 51
270.0
  0
ARC
  5
76036
  8
SUNPOU
 10
18614.503844154951
 20
6285.2917521017798
 30
0.0
 40
15.0
 50
270.0
 51
90.0
  0
ARC
  5
76037
  8
SUNPOU
 10
18614.503844154959
 20
9772.2466996605654
 30
0.0
 40
15.0
 50
270.0
 51
90.0
  0
ARC
  5
76038
  8
SUNPOU
 10
18614.503844154959
 20
9772.2466996605654
 30
0.0
 40
15.0
 50
90.0
 51
270.0
  0
ARC
  5
76039
  8
SUNPOU
 10
22694.886373091711
 20
10812.632429139339
 30
0.0
 40
14.99999999999989
 50
178.70807231024779
 51
358.70807231024781
  0
ARC
  5
7603A
  8
SUNPOU
 10
22694.886373091711
 20
10812.632429139339
 30
0.0
 40
14.99999999999989
 50
358.70807231024781
 51
178.70807231024779
  0
ARC
  5
7603B
  8
SUNPOU
 10
16886.340154638321
 20
10943.628006994089
 30
0.0
 40
14.99999999999989
 50
358.70807231024781
 51
178.70807231024779
  0
ARC
  5
7603C
  8
SUNPOU
 10
16886.340154638321
 20
10943.628006994089
 30
0.0
 40
14.99999999999989
 50
178.70807231024779
 51
358.70807231024781
  0
ARC
  5
7603D
  8
SUNPOU
 10
23212.442872043419
 20
6285.2917521017789
 30
0.0
 40
15.0
 50
90.0
 51
270.0
  0
ARC
  5
7603E
  8
SUNPOU
 10
23212.442872043419
 20
6285.2917521017789
 30
0.0
 40
15.0
 50
270.0
 51
90.0
  0
ARC
  5
7603F
  8
SUNPOU
 10
23212.44287204343
 20
9641.5764956400453
 30
0.0
 40
15.0
 50
270.0
 51
90.0
  0
ARC
  5
76040
  8
SUNPOU
 10
23212.44287204343
 20
9641.5764956400453
 30
0.0
 40
15.0
 50
90.0
 51
270.0
  0
ARC
  5
76041
  8
SUNPOU
 10
16858.499999999949
 20
4685.2917521017807
 30
0.0
 40
15.0
 50
0.0
 51
180.0
  0
ARC
  5
76042
  8
SUNPOU
 10
16858.499999999949
 20
4685.2917521017807
 30
0.0
 40
15.0
 50
180.0
 51
0.0
  0
ARC
  5
76043
  8
SUNPOU
 10
22358.49999999996
 20
4685.2917521017807
 30
0.0
 40
15.0
 50
180.0
 51
0.0
  0
ARC
  5
76044
  8
SUNPOU
 10
22358.49999999996
 20
4685.2917521017807
 30
0.0
 40
15.0
 50
0.0
 51
180.0
  0
ARC
  5
76045
  8
SUNPOU
 10
16858.499999999949
 20
4685.2917521017807
 30
0.0
 40
15.0
 50
180.0
 51
0.0
  0
ARC
  5
76046
  8
SUNPOU
 10
16858.499999999949
 20
4685.2917521017807
 30
0.0
 40
15.0
 50
0.0
 51
180.0
  0
ARC
  5
76047
  8
SUNPOU
 10
11190.499999999951
 20
4685.2917521017807
 30
0.0
 40
15.0
 50
0.0
 51
180.0
  0
ARC
  5
76048
  8
SUNPOU
 10
11190.499999999951
 20
4685.2917521017807
 30
0.0
 40
15.0
 50
180.0
 51
0.0
  0
LINE
  5
7604D
  8
HIKIDASHI
 10
14553.660605833549
 20
9949.9526755505431
 30
0.0
 11
14685.46604410426
 21
9855.4093650871509
 31
0.0
  0
LINE
  5
7604E
  8
HIKIDASHI
 10
14685.46604410426
 20
9855.4093650871509
 30
0.0
 11
14591.447919403879
 21
9987.5899360457279
 31
0.0
  0
SOLID
  5
7604F
  8
HIKIDASHI
 10
14553.660605833549
 20
9949.9526755505431
 30
0.0
 11
14591.447919403879
 21
9987.5899360457279
 31
0.0
 12
14685.46604410426
 22
9855.4093650871509
 32
0.0
 13
14685.46604410426
 23
9855.4093650871509
 33
0.0
  0
LINE
  5
76050
  8
HIKIDASHI
 10
14591.447919403879
 20
9987.5899360457279
 30
0.0
 11
14553.660605833549
 21
9949.9526755505431
 31
0.0
  0
LINE
  5
76051
  8
HIKIDASHI
 10
15124.828675628019
 20
6414.5677232007602
 30
0.0
 11
15176.000000000009
 21
6568.4917521017924
 31
0.0
  0
LINE
  5
76052
  8
HIKIDASHI
 10
15176.000000000009
 20
6568.4917521017924
 30
0.0
 11
15077.673386491029
 21
6439.4840461809217
 31
0.0
  0
SOLID
  5
76053
  8
HIKIDASHI
 10
15124.828675628019
 20
6414.5677232007602
 30
0.0
 11
15077.673386491029
 21
6439.4840461809217
 31
0.0
 12
15176.000000000009
 22
6568.4917521017924
 32
0.0
 13
15176.000000000009
 23
6568.4917521017924
 33
0.0
  0
LINE
  5
76054
  8
HIKIDASHI
 10
15077.673386491029
 20
6439.4840461809217
 30
0.0
 11
15124.828675628019
 21
6414.5677232007602
 31
0.0
  0
LINE
  5
76055
  8
HIKIDASHI
 10
13640.892703830121
 20
16549.62455118067
 30
0.0
 11
12345.528500625
 21
15537.63741541309
 31
0.0
1001
ACAD
1000
DSTYLE
1002
{
1070
   147
1040
1.0
1070
    77
1070
     0
1002
}
  0
LINE
  5
76056
  8
HIKIDASHI
 10
13657.309715608721
 20
16528.610440793309
 30
0.0
 11
13766.977366154269
 21
16648.12662185232
 31
0.0
  0
LINE
  5
76057
  8
HIKIDASHI
 10
13766.977366154269
 20
16648.12662185232
 30
0.0
 11
13624.475692051499
 21
16570.638661568031
 31
0.0
  0
SOLID
  5
76058
  8
HIKIDASHI
 10
13657.309715608721
 20
16528.610440793309
 30
0.0
 11
13624.475692051499
 21
16570.638661568031
 31
0.0
 12
13766.977366154269
 22
16648.12662185232
 32
0.0
 13
13766.977366154269
 23
16648.12662185232
 33
0.0
  0
LINE
  5
76059
  8
HIKIDASHI
 10
13624.475692051499
 20
16570.638661568031
 30
0.0
 11
13657.309715608721
 21
16528.610440793309
 31
0.0
  0
LINE
  5
7605A
  8
HIKIDASHI
 10
19229.09244282568
 20
9850.8159589273837
 30
0.0
 11
19592.103577875951
 21
10347.340522398221
 31
0.0
1001
ACAD
1000
DSTYLE
1002
{
1070
   147
1040
1.0
1070
    77
1070
     0
1002
}
  0
LINE
  5
7605B
  8
HIKIDASHI
 10
19207.565447276509
 20
9866.5544332415284
 30
0.0
 11
19134.661596940809
 21
9721.6539856323434
 31
0.0
  0
LINE
  5
7605C
  8
HIKIDASHI
 10
19134.661596940809
 20
9721.6539856323434
 30
0.0
 11
19250.619438374852
 21
9835.0774846132408
 31
0.0
  0
SOLID
  5
7605D
  8
HIKIDASHI
 10
19207.565447276509
 20
9866.5544332415284
 30
0.0
 11
19250.619438374852
 21
9835.0774846132408
 31
0.0
 12
19134.661596940809
 22
9721.6539856323434
 32
0.0
 13
19134.661596940809
 23
9721.6539856323434
 33
0.0
  0
LINE
  5
7605E
  8
HIKIDASHI
 10
19250.619438374852
 20
9835.0774846132408
 30
0.0
 11
19207.565447276509
 21
9866.5544332415284
 31
0.0
  0
LINE
  5
7605F
  8
U1
 10
14216.00000000004
 20
17218.921500361292
 30
0.0
 11
14316.000000000029
 21
17218.921500361292
 31
0.0
  0
LINE
  5
76060
  8
U1
 10
14316.000000000029
 20
17218.921500361292
 30
0.0
 11
14316.000000000029
 21
17188.921500361292
 31
0.0
  0
LINE
  5
76061
  8
U1
 10
14316.000000000029
 20
17188.921500361292
 30
0.0
 11
14216.00000000004
 21
17188.921500361292
 31
0.0
  0
LINE
  5
76062
  8
U1
 10
14216.00000000004
 20
17188.921500361292
 30
0.0
 11
14216.00000000004
 21
17218.921500361292
 31
0.0
  0
LINE
  5
76063
  8
U1
 10
13716.000000000029
 20
17218.921500361292
 30
0.0
 11
13816.000000000029
 21
17218.921500361292
 31
0.0
  0
LINE
  5
76064
  8
U1
 10
13816.000000000029
 20
17218.921500361292
 30
0.0
 11
13816.000000000029
 21
17188.921500361292
 31
0.0
  0
LINE
  5
76065
  8
U1
 10
13816.000000000029
 20
17188.921500361292
 30
0.0
 11
13716.000000000029
 21
17188.921500361292
 31
0.0
  0
LINE
  5
76066
  8
U1
 10
13716.000000000029
 20
17188.921500361292
 30
0.0
 11
13716.000000000029
 21
17218.921500361292
 31
0.0
  0
LINE
  5
76067
  8
U1
 10
17016.000000000058
 20
17218.921500361292
 30
0.0
 11
17116.000000000058
 21
17218.921500361292
 31
0.0
  0
LINE
  5
76068
  8
U1
 10
17116.000000000058
 20
17218.921500361292
 30
0.0
 11
17116.000000000058
 21
17188.921500361292
 31
0.0
  0
LINE
  5
76069
  8
U1
 10
17116.000000000058
 20
17188.921500361292
 30
0.0
 11
17016.000000000058
 21
17188.921500361292
 31
0.0
  0
LINE
  5
7606A
  8
U1
 10
17016.000000000058
 20
17188.921500361292
 30
0.0
 11
17016.000000000058
 21
17218.921500361292
 31
0.0
  0
LINE
  5
7606B
  8
U1
 10
16516.000000000058
 20
17218.921500361292
 30
0.0
 11
16616.000000000058
 21
17218.921500361292
 31
0.0
  0
LINE
  5
7606C
  8
U1
 10
16616.000000000058
 20
17218.921500361292
 30
0.0
 11
16616.000000000058
 21
17188.921500361292
 31
0.0
  0
LINE
  5
7606D
  8
U1
 10
16616.000000000058
 20
17188.921500361292
 30
0.0
 11
16516.000000000058
 21
17188.921500361292
 31
0.0
  0
LINE
  5
7606E
  8
U1
 10
16516.000000000058
 20
17188.921500361292
 30
0.0
 11
16516.000000000058
 21
17218.921500361292
 31
0.0
  0
LINE
  5
7606F
  8
U1
 10
19816.00000000004
 20
17218.921500361292
 30
0.0
 11
19916.00000000004
 21
17218.921500361292
 31
0.0
  0
LINE
  5
76070
  8
U1
 10
19916.00000000004
 20
17218.921500361292
 30
0.0
 11
19916.00000000004
 21
17188.921500361292
 31
0.0
  0
LINE
  5
76071
  8
U1
 10
19916.00000000004
 20
17188.921500361292
 30
0.0
 11
19816.00000000004
 21
17188.921500361292
 31
0.0
  0
LINE
  5
76072
  8
U1
 10
19816.00000000004
 20
17188.921500361292
 30
0.0
 11
19816.00000000004
 21
17218.921500361292
 31
0.0
  0
LINE
  5
76073
  8
U1
 10
19316.00000000004
 20
17218.921500361292
 30
0.0
 11
19416.00000000004
 21
17218.921500361292
 31
0.0
  0
LINE
  5
76074
  8
U1
 10
19416.00000000004
 20
17218.921500361292
 30
0.0
 11
19416.00000000004
 21
17188.921500361292
 31
0.0
  0
LINE
  5
76075
  8
U1
 10
19416.00000000004
 20
17188.921500361292
 30
0.0
 11
19316.00000000004
 21
17188.921500361292
 31
0.0
  0
LINE
  5
76076
  8
U1
 10
19316.00000000004
 20
17188.921500361292
 30
0.0
 11
19316.00000000004
 21
17218.921500361292
 31
0.0
  0
LINE
  5
76077
  8
U5
 10
19090.99999999996
 20
5385.2917521017807
 30
0.0
 11
20040.99999999996
 21
5385.2917521017807
 31
0.0
  0
LINE
  5
76078
  8
U5
 10
20040.99999999996
 20
5385.2917521017807
 30
0.0
 11
20040.99999999996
 21
5885.2917521017807
 31
0.0
  0
LINE
  5
76079
  8
U5
 10
20040.99999999996
 20
5885.2917521017807
 30
0.0
 11
19090.99999999996
 21
5885.2917521017807
 31
0.0
  0
LINE
  5
7607A
  8
U5
 10
19090.99999999996
 20
5885.2917521017807
 30
0.0
 11
19090.99999999996
 21
5385.2917521017807
 31
0.0
  0
LINE
  5
7607B
  8
U5
 10
21840.99999999996
 20
5385.2917521017807
 30
0.0
 11
22790.99999999996
 21
5385.2917521017807
 31
0.0
  0
LINE
  5
7607C
  8
U5
 10
22790.99999999996
 20
5385.2917521017807
 30
0.0
 11
22790.99999999996
 21
5885.2917521017807
 31
0.0
  0
LINE
  5
7607D
  8
U5
 10
22790.99999999996
 20
5885.2917521017807
 30
0.0
 11
21840.99999999996
 21
5885.2917521017807
 31
0.0
  0
LINE
  5
7607E
  8
U5
 10
21840.99999999996
 20
5885.2917521017807
 30
0.0
 11
21840.99999999996
 21
5385.2917521017807
 31
0.0
  0
LINE
  5
7607F
  8
KERABA
 10
10928.47380611343
 20
9421.6195885777252
 30
0.0
 11
10922.938255728761
 21
9489.3939029006415
 31
0.0
  0
LINE
  5
76080
  8
KERABA
 10
10922.938255728761
 20
9489.3939029006415
 30
0.0
 11
10926.596587165621
 21
9493.7086000045383
 31
0.0
  0
LINE
  5
76081
  8
KERABA
 10
10926.596587165621
 20
9493.7086000045383
 30
0.0
 11
10925.776130081749
 21
9503.6748856804188
 31
0.0
  0
LINE
  5
76082
  8
KERABA
 10
10925.776130081749
 20
9503.6748856804188
 30
0.0
 11
10923.61878152984
 21
9505.5040513988497
 31
0.0
  0
LINE
  5
76083
  8
KERABA
 10
10923.61878152984
 20
9505.5040513988497
 30
0.0
 11
10922.79832444597
 21
9515.4703370747284
 31
0.0
  0
LINE
  5
76084
  8
KERABA
 10
10922.79832444597
 20
9515.4703370747284
 30
0.0
 11
10920.64097589401
 21
9517.299502793132
 31
0.0
  0
LINE
  5
76085
  8
KERABA
 10
10920.64097589401
 20
9517.299502793132
 30
0.0
 11
10919.21338056815
 21
9534.6408398692001
 31
0.0
  0
ARC
  5
76086
  8
KERABA
 10
10929.777643384599
 20
9535.5105243780799
 30
0.0
 40
10.600000000005849
 50
94.706162844004695
 51
184.7061628439549
  0
LINE
  5
76087
  8
KERABA
 10
10928.90795887571
 20
9546.0747871945368
 30
0.0
 11
10953.225695924901
 21
9548.0767024790839
 31
0.0
  0
LINE
  5
76088
  8
KERABA
 10
10953.225695924901
 20
9548.0767024790839
 30
0.0
 11
10967.993923434011
 21
9368.6835603129439
 31
0.0
  0
LINE
  5
76089
  8
KERABA
 10
10967.993923434011
 20
9368.6835603129439
 30
0.0
 11
10943.676186384881
 21
9366.6816450283932
 31
0.0
  0
ARC
  5
7608A
  8
KERABA
 10
10942.80650187599
 20
9377.2459078448392
 30
0.0
 40
10.599999999995569
 50
184.7061628439491
 51
274.70616284399892
  0
LINE
  5
7608B
  8
KERABA
 10
10932.24223905954
 20
9376.3762233359594
 30
0.0
 11
10930.81464373362
 21
9393.7175604120257
 31
0.0
  0
LINE
  5
7608C
  8
KERABA
 10
10930.81464373362
 20
9393.7175604120257
 30
0.0
 11
10934.472975170491
 21
9398.0322575159225
 31
0.0
  0
LINE
  5
7608D
  8
KERABA
 10
10934.472975170491
 20
9398.0322575159225
 30
0.0
 11
10933.65251808661
 21
9407.998543191803
 31
0.0
  0
LINE
  5
7608E
  8
KERABA
 10
10933.65251808661
 20
9407.998543191803
 30
0.0
 11
10931.49516953471
 21
9409.8277089102321
 31
0.0
  0
LINE
  5
7608F
  8
KERABA
 10
10931.49516953471
 20
9409.8277089102321
 30
0.0
 11
10930.67471245084
 21
9419.7939945861144
 31
0.0
  0
LINE
  5
76090
  8
KERABA
 10
10930.67471245084
 20
9419.7939945861144
 30
0.0
 11
10928.51736389888
 21
9421.6231603045453
 31
0.0
  0
LINE
  5
76091
  8
KERABA
 10
17245.149225280398
 20
9941.6288600416592
 30
0.0
 11
17243.320059562
 21
9939.4715114897281
 31
0.0
  0
LINE
  5
76092
  8
KERABA
 10
17243.320059562
 20
9939.4715114897281
 30
0.0
 11
17244.14051664581
 21
9929.5052258138185
 31
0.0
  0
LINE
  5
76093
  8
KERABA
 10
17244.14051664581
 20
9929.5052258138185
 30
0.0
 11
17242.311350927412
 21
9927.3478772618546
 31
0.0
  0
LINE
  5
76094
  8
KERABA
 10
17242.311350927412
 20
9927.3478772618546
 30
0.0
 11
17243.13180801128
 21
9917.3815915859741
 31
0.0
  0
LINE
  5
76095
  8
KERABA
 10
17243.13180801128
 20
9917.3815915859741
 30
0.0
 11
17247.446505115149
 21
9913.7232601491414
 31
0.0
  0
LINE
  5
76096
  8
KERABA
 10
17247.446505115149
 20
9913.7232601491414
 30
0.0
 11
17248.874100441069
 21
9896.3819230730733
 31
0.0
  0
ARC
  5
76097
  8
KERABA
 10
17238.309837624602
 20
9895.5122385642353
 30
0.0
 40
10.60000000001496
 50
274.7061628437533
 51
4.7061628437140808
  0
LINE
  5
76098
  8
KERABA
 10
17239.17952213344
 20
9884.9479757477693
 30
0.0
 11
17214.861785084249
 21
9882.9460604631895
 31
0.0
  0
LINE
  5
76099
  8
KERABA
 10
17214.861785084249
 20
9882.9460604631895
 30
0.0
 11
17200.09355757515
 21
10062.33920262933
 31
0.0
  0
LINE
  5
7609A
  8
KERABA
 10
17200.09355757515
 20
10062.33920262933
 30
0.0
 11
17224.41129462434
 21
10064.341117913909
 31
0.0
  0
ARC
  5
7609B
  8
KERABA
 10
17225.280979133211
 20
10053.776855097451
 30
0.0
 40
10.60000000000888
 50
4.7061628438642931
 51
94.706162843914086
  0
LINE
  5
7609C
  8
KERABA
 10
17235.845241949672
 20
10054.64653960631
 30
0.0
 11
17237.272837275541
 21
10037.30520253027
 31
0.0
  0
LINE
  5
7609D
  8
KERABA
 10
17237.272837275541
 20
10037.30520253027
 30
0.0
 11
17235.443671557128
 21
10035.147853978309
 31
0.0
  0
LINE
  5
7609E
  8
KERABA
 10
17235.443671557128
 20
10035.147853978309
 30
0.0
 11
17236.264128640949
 21
10025.181568302431
 31
0.0
  0
LINE
  5
7609F
  8
KERABA
 10
17236.264128640949
 20
10025.181568302431
 30
0.0
 11
17234.434962922551
 21
10023.02421975047
 31
0.0
  0
LINE
  5
760A0
  8
KERABA
 10
17234.434962922551
 20
10023.02421975047
 30
0.0
 11
17235.255420006419
 21
10013.05793407459
 31
0.0
  0
LINE
  5
760A1
  8
KERABA
 10
17235.255420006419
 20
10013.05793407459
 30
0.0
 11
17239.570117110281
 21
10009.399602637761
 31
0.0
  0
LINE
  5
760A2
  8
KERABA
 10
17239.570117110281
 20
10009.399602637761
 30
0.0
 11
17245.149225280398
 21
9941.6288600416592
 31
0.0
  0
ENDSEC
  0
EOF
