  0
SECTION
  2
HEADER
  9
$ACADVER
  1
AC1009
  9
$INSBASE
 10
267.00000000000011
 20
194.89999999999981
 30
0.0
  9
$EXTMIN
 10
867.99324330406671
 20
327.38164749855792
 30
-0.0000000000000053
  9
$EXTMAX
 10
32765.33210850941
 20
22484.553276491992
 30
0.0000000000000099
  9
$LIMMIN
 10
0.0
 20
0.0
  9
$LIMMAX
 10
33600.0
 20
23760.0
  9
$ORTHOMODE
 70
     0
  9
$REGENMODE
 70
     1
  9
$FILLMODE
 70
     1
  9
$QTEXTMODE
 70
     0
  9
$MIRRTEXT
 70
     0
  9
$DRAGMODE
 70
     2
  9
$LTSCALE
 40
80.0
  9
$OSMODE
 70
  3071
  9
$ATTMODE
 70
     1
  9
$TEXTSIZE
 40
0.2
  9
$TRACEWID
 40
0.05
  9
$TEXTSTYLE
  7
00
  9
$CLAYER
  8
SUNPOU
  9
$CELTYPE
  6
BYLAYER
  9
$CECOLOR
 62
   256
  9
$DIMSCALE
 40
80.0
  9
$DIMASZ
 40
0.5
  9
$DIMEXO
 40
1.0
  9
$DIMDLI
 40
7.0
  9
$DIMRND
 40
0.0
  9
$DIMDLE
 40
3.0
  9
$DIMEXE
 40
1.0
  9
$DIMTP
 40
0.0
  9
$DIMTM
 40
0.0
  9
$DIMTXT
 40
2.0
  9
$DIMCEN
 40
0.0
  9
$DIMTSZ
 40
0.0
  9
$DIMTOL
 70
     0
  9
$DIMLIM
 70
     0
  9
$DIMTIH
 70
     0
  9
$DIMTOH
 70
     0
  9
$DIMSE1
 70
     0
  9
$DIMSE2
 70
     0
  9
$DIMTAD
 70
     1
  9
$DIMZIN
 70
     8
  9
$DIMBLK
  1
DOT
  9
$DIMASO
 70
     1
  9
$DIMSHO
 70
     0
  9
$DIMPOST
  1

  9
$DIMAPOST
  1

  9
$DIMALT
 70
     0
  9
$DIMALTD
 70
     2
  9
$DIMALTF
 40
25.399999999999999
  9
$DIMLFAC
 40
1.0
  9
$DIMTOFL
 70
     1
  9
$DIMTVP
 40
0.0
  9
$DIMTIX
 70
     0
  9
$DIMSOXD
 70
     0
  9
$DIMSAH
 70
     1
  9
$DIMBLK1
  1
DOT
  9
$DIMBLK2
  1
DOT
  9
$DIMSTYLE
  2
SUNPOU_申請図
  9
$DIMCLRD
 70
   256
  9
$DIMCLRE
 70
   256
  9
$DIMCLRT
 70
   256
  9
$DIMTFAC
 40
1.0
  9
$DIMGAP
 40
1.0
  9
$LUNITS
 70
     2
  9
$LUPREC
 70
     2
  9
$SKETCHINC
 40
0.1
  9
$FILLETRAD
 40
0.0
  9
$AUNITS
 70
     0
  9
$AUPREC
 70
     0
  9
$MENU
  1
A:\TIGER\MENU\TIGER
  9
$ELEVATION
 40
0.0
  9
$PELEVATION
 40
0.0
  9
$THICKNESS
 40
0.0
  9
$LIMCHECK
 70
     0
  9
$BLIPMODE
 70
     1
  9
$CHAMFERA
 40
0.0
  9
$CHAMFERB
 40
0.0
  9
$SKPOLY
 70
     0
  9
$TDCREATE
 40
2450266.5710648149
  9
$TDUPDATE
 40
2456314.7747263778
  9
$TDINDWG
 40
0.5977948843000001
  9
$TDUSRTIMER
 40
0.5977948843000001
  9
$USRTIMER
 70
     1
  9
$ANGBASE
 50
0.0
  9
$ANGDIR
 70
     0
  9
$PDMODE
 70
     0
  9
$PDSIZE
 40
0.0
  9
$PLINEWID
 40
0.0
  9
$COORDS
 70
     0
  9
$SPLFRAME
 70
     0
  9
$SPLINETYPE
 70
     6
  9
$SPLINESEGS
 70
     8
  9
$ATTDIA
 70
     0
  9
$ATTREQ
 70
     1
  9
$HANDLING
 70
     1
  9
$HANDSEED
  5
6D280
  9
$SURFTAB1
 70
     6
  9
$SURFTAB2
 70
     6
  9
$SURFTYPE
 70
     6
  9
$SURFU
 70
     6
  9
$SURFV
 70
     6
  9
$UCSNAME
  2

  9
$UCSORG
 10
0.0
 20
0.0
 30
0.0
  9
$UCSXDIR
 10
1.0
 20
0.0
 30
0.0
  9
$UCSYDIR
 10
0.0
 20
1.0
 30
0.0
  9
$PUCSNAME
  2

  9
$PUCSORG
 10
0.0
 20
0.0
 30
0.0
  9
$PUCSXDIR
 10
1.0
 20
0.0
 30
0.0
  9
$PUCSYDIR
 10
0.0
 20
1.0
 30
0.0
  9
$USERI1
 70
     3
  9
$USERI2
 70
     0
  9
$USERI3
 70
     0
  9
$USERI4
 70
     0
  9
$USERI5
 70
  1103
  9
$USERR1
 40
0.0
  9
$USERR2
 40
1.0
  9
$USERR3
 40
0.0
  9
$USERR4
 40
0.0
  9
$USERR5
 40
0.0
  9
$WORLDVIEW
 70
     1
  9
$SHADEDGE
 70
     3
  9
$SHADEDIF
 70
    70
  9
$TILEMODE
 70
     1
  9
$MAXACTVP
 70
    16
  9
$PLIMCHECK
 70
     0
  9
$PEXTMIN
 10
1.0000000000000000E+020
 20
1.0000000000000000E+020
 30
1.0000000000000000E+020
  9
$PEXTMAX
 10
-1.0000000000000000E+020
 20
-1.0000000000000000E+020
 30
-1.0000000000000000E+020
  9
$PLIMMIN
 10
0.0
 20
0.0
  9
$PLIMMAX
 10
12.0
 20
9.0
  9
$UNITMODE
 70
     0
  9
$VISRETAIN
 70
     0
  9
$PLINEGEN
 70
     1
  9
$PSLTSCALE
 70
     0
  0
ENDSEC
  0
SECTION
  2
TABLES
  0
TABLE
  2
VPORT
 70
     1
  0
VPORT
  2
*ACTIVE
 70
     0
 10
0.0
 20
0.0
 11
1.0
 21
1.0
 12
16800.0
 22
11880.0
 13
0.0
 23
0.0
 14
1.0
 24
1.0
 15
0.0
 25
0.0
 16
0.0
 26
0.0
 36
1.0
 17
0.0
 27
0.0
 37
0.0
 40
23958.55153203342
 41
1.6471408647140859
 42
50.0
 43
0.0
 44
0.0
 50
0.0
 51
0.0
 71
     0
 72
 10000
 73
     1
 74
     0
 75
     0
 76
     0
 77
     0
 78
     0
  0
ENDTAB
  0
TABLE
  2
LTYPE
 70
     4
  0
LTYPE
  2
CONTINUOUS
 70
     0
  3
実線
 72
    65
 73
     0
 40
0.0
  0
LTYPE
  2
1PL-M
 70
     0
  3

 72
    65
 73
     4
 40
15.0
 49
12.0
 49
-1.0
 49
1.0
 49
-1.0
  0
ENDTAB
  0
TABLE
  2
LAYER
 70
    19
  0
LAYER
  2
0
 70
     0
 62
     7
  6
CONTINUOUS
  0
LAYER
  2
U1
 70
     0
 62
     3
  6
CONTINUOUS
  0
LAYER
  2
U3
 70
     0
 62
     6
  6
CONTINUOUS
  0
LAYER
  2
SUNPOU
 70
     0
 62
     4
  6
CONTINUOUS
  0
LAYER
  2
HIKIDASHI
 70
     0
 62
     6
  6
CONTINUOUS
  0
LAYER
  2
1PL-M1
 70
     0
 62
     6
  6
1PL-M
  0
LAYER
  2
NAME
 70
     0
 62
    20
  6
CONTINUOUS
  0
LAYER
  2
KERABA
 70
     0
 62
     3
  6
CONTINUOUS
  0
LAYER
  2
FILENAME
 70
     0
 62
     7
  6
CONTINUOUS
  0
LAYER
  2
YODOROGO
 70
     0
 62
   130
  6
CONTINUOUS
  0
LAYER
  2
WAKUSEN-01
 70
     0
 62
    50
  6
CONTINUOUS
  0
LAYER
  2
WAKUSEN-02
 70
     0
 62
   130
  6
CONTINUOUS
  0
LAYER
  2
WAKUMOJI-01
 70
     0
 62
   130
  6
CONTINUOUS
  0
LAYER
  2
下屋前桁
 70
     0
 62
     3
  6
CONTINUOUS
  0
LAYER
  2
U5
 70
     0
 62
     4
  6
CONTINUOUS
  0
LAYER
  2
TOI
 70
     0
 62
     3
  6
CONTINUOUS
  0
ENDTAB
  0
TABLE
  2
STYLE
 70
     5
  0
STYLE
  2
STANDARD
 70
     0
 40
3.0
 41
1.0
 50
0.0
 71
     0
 42
0.2
  3
ROMANS
  4
EXTFONT
  0
STYLE
  2
01
 70
     0
 40
3.0
 41
1.0
 50
0.0
 71
     0
 42
0.2
  3
ROMANS
  4
BIGFONT
  0
STYLE
  2
00
 70
     0
 40
0.0
 41
0.6666666666666666
 50
0.0
 71
     0
 42
0.2
  3
ROMANS
  4
BIGFONT
  0
STYLE
  2
FILENAME
 70
     0
 40
200.0
 41
1.0
 50
0.0
 71
     0
 42
200.0
  3
romans
  4
bigfont
  0
STYLE
  2
WAKUMOJI
 70
     0
 40
3.0
 41
1.0
 50
0.0
 71
     0
 42
3.0
  3
SIMPLEX
  4
BIGFONT
  0
ENDTAB
  0
TABLE
  2
VIEW
 70
     0
  0
ENDTAB
  0
TABLE
  2
UCS
 70
     0
  0
ENDTAB
  0
TABLE
  2
APPID
 70
    13
  0
APPID
  2
ACAD
 70
     0
  0
APPID
  2
AUTOCAD_POSTSCRIPT_FIGURE
 70
     0
  0
APPID
  2
CONTENTBLOCKICON
 70
     0
  0
APPID
  2
ACAD_PSEXT
 70
     0
  0
APPID
  2
ACAD_EXEMPT_FROM_CAD_STANDARDS
 70
     0
  0
APPID
  2
ACAD_NAV_VCDISPLAY
 70
     0
  0
APPID
  2
ACAECLAYERSTANDARD
 70
     0
  0
APPID
  2
ACCMTRANSPARENCY
 70
     0
  0
APPID
  2
ACLAYERTOOLS
 70
     0
  0
APPID
  2
GRADIENTCOLOR1ACI
 70
     0
  0
APPID
  2
GRADIENTCOLOR2ACI
 70
     0
  0
APPID
  2
AEC_XDATA_BOUND_SPACE
 70
     0
  0
APPID
  2
ACAD_MLEADERVER
 70
     0
  0
ENDTAB
  0
TABLE
  2
DIMSTYLE
 70
     4
  0
DIMSTYLE
  2
SUNPOU_申請図
 70
     0
  3

  4

  5
DOT
  6
DOT
  7
DOT
 40
80.0
 41
0.5
 42
1.0
 43
7.0
 44
1.0
 45
0.0
 46
3.0
 47
0.0
 48
0.0
140
2.0
141
0.0
142
0.0
143
25.399999999999999
144
1.0
145
0.0
146
1.0
147
1.0
 71
     0
 72
     0
 73
     0
 74
     0
 75
     0
 76
     0
 77
     1
 78
     8
170
     0
171
     2
172
     1
173
     1
174
     0
175
     0
176
   256
177
   256
178
   256
  0
ENDTAB
  0
ENDSEC
  0
SECTION
  2
BLOCKS
  0
BLOCK
  8
0
  2
$MODEL_SPACE
 70
     0
 10
0.0
 20
0.0
 30
0.0
  3
$MODEL_SPACE
  1

  0
ENDBLK
  5
125F7
  8
0
  0
BLOCK
 67
     1
  8
0
  2
$PAPER_SPACE
 70
     0
 10
0.0
 20
0.0
 30
0.0
  3
$PAPER_SPACE
  1

  0
ENDBLK
  5
125F5
 67
     1
  8
0
  0
BLOCK
  8
0
  2
DOT
 70
     0
 10
0.0
 20
0.0
 30
0.0
  3
DOT
  1

  0
POLYLINE
  5
12980
  8
0
  6
BYBLOCK
 62
     0
 66
     1
 10
0.0
 20
0.0
 30
0.0
 70
     1
 40
0.75
 41
0.75
  0
VERTEX
  5
6D240
  8
0
  6
BYBLOCK
 62
     0
 10
-0.375
 20
0.0
 30
0.0
 42
1.0
  0
VERTEX
  5
6D241
  8
0
  6
BYBLOCK
 62
     0
 10
0.375
 20
0.0
 30
0.0
 42
1.0
  0
SEQEND
  5
6D242
  8
0
  6
BYBLOCK
 62
     0
  0
LINE
  5
12981
  8
0
  6
BYBLOCK
 62
     0
 10
-0.75
 20
0.0
 30
0.0
 11
-1.5
 21
0.0
 31
0.0
  0
ENDBLK
  5
12982
  8
0
  0
ENDSEC
  0
SECTION
  2
ENTITIES
  0
TEXT
  5
64097
  8
HIKIDASHI
 10
6864.5594784388559
 20
15550.86973626476
 30
0.0
 40
160.0
  1
シャッター
  7
01
  0
LINE
  5
64098
  8
HIKIDASHI
 10
6864.5594784388559
 20
15510.86973626476
 30
0.0
 11
7783.6097956923077
 21
15510.86973626476
 31
0.0
  0
TEXT
  5
640D9
  8
SUNPOU
 10
26837.381935610509
 20
17133.403468037661
 30
0.0
 40
160.0
  1
下屋前桁下面カラ
 50
90.0
  7
01
 72
     1
 11
26837.381935610509
 21
17874.736801371
 31
0.0
  0
TEXT
  5
640DA
  8
SUNPOU
 10
27088.467839239671
 20
17128.070134704329
 30
0.0
 40
160.0
  1
本体基礎天端マデ
 50
90.0
  7
01
 72
     1
 11
27088.467839239671
 21
17874.736801371
 31
0.0
  0
TEXT
  5
640DB
  8
SUNPOU
 10
26515.581377115232
 20
16779.570277695089
 30
0.0
 40
160.0
  1
下屋有効開口高サ
 50
90.0
  7
01
  0
TEXT
  5
640DD
  8
SUNPOU
 10
27655.399693064512
 20
17261.580870923779
 30
0.0
 40
160.0
  1
下屋高サ
 50
90.0
  7
01
  0
TEXT
  5
64219
  8
SUNPOU
 10
7410.9999999999882
 20
18697.378108948629
 30
0.0
 40
160.0
  1
3170
 50
90.0
 41
0.6700000000000002
  7
00
  0
TEXT
  5
6421A
  8
SUNPOU
 10
7410.9999999999882
 20
16568.84645083189
 30
0.0
 40
160.0
  1
シャッター有効開口高サ
 50
90.0
  7
01
  0
LINE
  5
64224
  8
U1
 10
16815.999999999982
 20
16018.12150036126
 30
0.0
 11
7317.0931396780543
 21
16018.12150036126
 31
0.0
  0
LINE
  5
64226
  8
U1
 10
8373.4999999999891
 20
19495.975870572482
 30
0.0
 11
8373.4999999999891
 21
16018.12150036126
 31
0.0
  0
LINE
  5
64227
  8
U1
 10
8458.4999999999909
 20
16018.12150036126
 30
0.0
 11
8458.4999999999909
 21
19401.121500361289
 31
0.0
  0
LINE
  5
64228
  8
KERABA
 10
8255.9999999999891
 20
19495.975870572482
 30
0.0
 11
8255.9999999999891
 21
19675.40624389947
 31
0.0
  0
LINE
  5
64229
  8
KERABA
 10
8290.9999999999891
 20
19495.975870572482
 30
0.0
 11
8290.9999999999891
 21
19675.40624389947
 31
0.0
  0
LINE
  5
6422A
  8
KERABA
 10
8255.9999999999891
 20
19551.975870572482
 30
0.0
 11
14015.99999999998
 21
19551.975870572482
 31
0.0
  0
LINE
  5
6422B
  8
KERABA
 10
8255.9999999999891
 20
19549.975870572482
 30
0.0
 11
14015.99999999998
 21
19549.975870572482
 31
0.0
  0
LINE
  5
6422C
  8
KERABA
 10
8255.9999999999891
 20
19539.975870572482
 30
0.0
 11
14015.99999999998
 21
19539.975870572482
 31
0.0
  0
LINE
  5
6422D
  8
KERABA
 10
8255.9999999999891
 20
19537.975870572482
 30
0.0
 11
14015.99999999998
 21
19537.975870572482
 31
0.0
  0
LINE
  5
6422E
  8
KERABA
 10
8255.9999999999891
 20
19527.975870572482
 30
0.0
 11
14015.99999999998
 21
19527.975870572482
 31
0.0
  0
LINE
  5
6422F
  8
KERABA
 10
8255.9999999999891
 20
19619.40624389947
 30
0.0
 11
14015.99999999998
 21
19619.40624389947
 31
0.0
  0
LINE
  5
64230
  8
KERABA
 10
8255.9999999999891
 20
19623.40624389947
 30
0.0
 11
14015.99999999998
 21
19623.40624389947
 31
0.0
  0
LINE
  5
64231
  8
KERABA
 10
8255.9999999999891
 20
19633.40624389947
 30
0.0
 11
14015.99999999998
 21
19633.40624389947
 31
0.0
  0
LINE
  5
64232
  8
KERABA
 10
8255.9999999999891
 20
19635.40624389947
 30
0.0
 11
14015.99999999998
 21
19635.40624389947
 31
0.0
  0
LINE
  5
64233
  8
KERABA
 10
8255.9999999999891
 20
19645.40624389947
 30
0.0
 11
14015.99999999998
 21
19645.40624389947
 31
0.0
  0
LINE
  5
64234
  8
KERABA
 10
8255.9999999999891
 20
19523.975870572482
 30
0.0
 11
14015.99999999998
 21
19523.975870572482
 31
0.0
  0
LINE
  5
64235
  8
KERABA
 10
8255.9999999999891
 20
19647.40624389947
 30
0.0
 11
14015.99999999998
 21
19647.40624389947
 31
0.0
  0
LINE
  5
64236
  8
KERABA
 10
8255.9999999999891
 20
19495.975870572482
 30
0.0
 11
14015.999999999991
 21
19495.975870572482
 31
0.0
  0
LINE
  5
64237
  8
KERABA
 10
8255.9999999999891
 20
19675.40624389947
 30
0.0
 11
14015.99999999998
 21
19675.40624389947
 31
0.0
  0
LINE
  5
64238
  8
下屋前桁
 10
13972.999999999931
 20
19393.121500361322
 30
0.0
 11
8459.0000000000473
 21
19393.121500361322
 31
0.0
  0
LINE
  5
64239
  8
下屋前桁
 10
8458.9999999999873
 20
19401.121500361322
 30
0.0
 11
8420.9999999999909
 21
19401.121500361289
 31
0.0
  0
ARC
  5
6423A
  8
下屋前桁
 10
8420.9999999999909
 20
19406.121500361289
 30
0.0
 40
5.0
 50
180.0
 51
270.0
  0
LINE
  5
6423B
  8
下屋前桁
 10
8459.0000000000473
 20
19401.121500361322
 30
0.0
 11
8459.0000000000473
 21
19393.121500361289
 31
0.0
  0
LINE
  5
6423C
  8
下屋前桁
 10
8415.9999999999891
 20
19495.975870572482
 30
0.0
 11
8415.9999999999891
 21
19406.121500361289
 31
0.0
  0
LINE
  5
69CB7
  8
TOI
 10
11076.700000000021
 20
6671.4886956308237
 30
0.0
 11
11076.700000000021
 21
6681.4886956308237
 31
0.0
  0
LINE
  5
69CB8
  8
TOI
 10
11186.700000000021
 20
6681.4886956308237
 30
0.0
 11
11076.700000000021
 21
6681.4886956308237
 31
0.0
  0
LINE
  5
69CB9
  8
TOI
 10
11186.700000000021
 20
6671.4886956308237
 30
0.0
 11
11076.700000000021
 21
6671.4886956308237
 31
0.0
  0
LINE
  5
69CBA
  8
KERABA
 10
14091.42785426008
 20
9617.9522177096715
 30
0.0
 11
14076.659626750859
 21
9797.3453598758115
 31
0.0
  0
LINE
  5
69CBB
  8
TOI
 10
11081.700000000021
 20
9285.2872541462038
 30
0.0
 11
11141.700000000021
 21
9285.2872541462038
 31
0.0
  0
LINE
  5
69CBE
  8
TOI
 10
11081.700000000021
 20
9315.2872541462038
 30
0.0
 11
11032.60910966032
 21
9323.9433026200786
 31
0.0
  0
ARC
  5
69CBF
  8
TOI
 10
11091.700000000021
 20
9323.678250457966
 30
0.0
 40
50.0
 50
0.0
 51
75.326571614878716
  0
LINE
  5
69CC0
  8
TOI
 10
11081.700000000021
 20
9315.2872541462038
 30
0.0
 11
11091.521931451691
 21
9370.9901954216966
 31
0.0
  0
LINE
  5
69CC1
  8
TOI
 10
11048.805117979129
 20
9367.4736082645159
 30
0.0
 11
11040.872627883629
 21
9322.4862214017394
 31
0.0
  0
ARC
  5
69CC2
  8
TOI
 10
11041.29151854368
 20
9373.1836902706909
 30
0.0
 40
50.0
 50
191.95309128704119
 51
259.99999999951871
  0
LINE
  5
69CC3
  8
KERABA
 10
17200.093557575139
 20
10054.47660995084
 30
0.0
 11
10953.225695924901
 21
9540.2141098006014
 31
0.0
  0
LINE
  5
69CC4
  8
KERABA
 10
17237.27283727553
 20
10029.442609851791
 30
0.0
 11
10920.640975894001
 21
9509.4369101146767
 31
0.0
  0
LINE
  5
69CC5
  8
KERABA
 10
17235.443671557128
 20
10027.28526129983
 30
0.0
 11
10922.79832444597
 21
9507.6077443962477
 31
0.0
  0
LINE
  5
69CC6
  8
KERABA
 10
17236.264128640942
 20
10017.318975623921
 30
0.0
 11
10923.61878152978
 21
9497.6414587203672
 31
0.0
  0
LINE
  5
69CC7
  8
KERABA
 10
17234.43496292254
 20
10015.16162707199
 30
0.0
 11
10925.77613008174
 21
9495.8122930019381
 31
0.0
  0
LINE
  5
69CC8
  8
KERABA
 10
17235.255420006411
 20
10005.19534139608
 30
0.0
 11
10926.59658716561
 21
9485.8460073260558
 31
0.0
  0
LINE
  5
69CC9
  8
KERABA
 10
17239.570117110281
 20
10001.537009959269
 30
0.0
 11
10922.93825572875
 21
9481.5313102221608
 31
0.0
  0
LINE
  5
69CCA
  8
KERABA
 10
17242.311350927401
 20
9919.4852845833739
 30
0.0
 11
10933.65251808661
 21
9400.1359505133496
 31
0.0
  0
LINE
  5
69CCB
  8
KERABA
 10
17243.320059561989
 20
9931.6089188112146
 30
0.0
 11
10930.674712450829
 21
9411.931401907661
 31
0.0
  0
LINE
  5
69CCC
  8
KERABA
 10
17244.140516645799
 20
9921.6426331353341
 30
0.0
 11
10931.495169534641
 21
9401.9651162317514
 31
0.0
  0
LINE
  5
69CCD
  8
KERABA
 10
17247.446505115138
 20
9905.8606674706607
 30
0.0
 11
10930.81464373362
 21
9385.8549677335432
 31
0.0
  0
LINE
  5
69CCE
  8
KERABA
 10
17243.131808011269
 20
9909.5189989074934
 30
0.0
 11
10934.47297517048
 21
9390.16966483744
 31
0.0
  0
LINE
  5
69CCF
  8
KERABA
 10
17214.861785084249
 20
9875.083467784707
 30
0.0
 11
10967.993923434
 21
9360.8209676344923
 31
0.0
  0
LINE
  5
69CD0
  8
TOI
 10
11186.700000000021
 20
8885.2872541462038
 30
0.0
 11
11076.700000000021
 21
8885.2872541462038
 31
0.0
  0
LINE
  5
69CD1
  8
TOI
 10
11186.700000000021
 20
8895.2872541462038
 30
0.0
 11
11076.700000000021
 21
8895.2872541462038
 31
0.0
  0
LINE
  5
69CD2
  8
TOI
 10
11076.700000000021
 20
8885.2872541462038
 30
0.0
 11
11076.700000000021
 21
8895.2872541462038
 31
0.0
  0
LINE
  5
69CD3
  8
TOI
 10
11076.700000000021
 20
7778.3886956308179
 30
0.0
 11
11076.700000000021
 21
7788.3886956308179
 31
0.0
  0
LINE
  5
69CD4
  8
TOI
 10
11186.700000000021
 20
7788.3886956308179
 30
0.0
 11
11076.700000000021
 21
7788.3886956308179
 31
0.0
  0
LINE
  5
69CD5
  8
TOI
 10
11186.700000000021
 20
7778.3886956308179
 30
0.0
 11
11076.700000000021
 21
7778.3886956308179
 31
0.0
  0
LINE
  5
69CD6
  8
TOI
 10
11081.700000000021
 20
6317.4291594232982
 30
0.0
 11
11081.700000000021
 21
9315.2872541462038
 31
0.0
  0
LINE
  5
69CD7
  8
TOI
 10
11141.700000000021
 20
6317.4291594232982
 30
0.0
 11
11081.700000000021
 21
6317.4291594232982
 31
0.0
  0
LINE
  5
69CD8
  8
TOI
 10
11141.700000000021
 20
6317.4291594232982
 30
0.0
 11
11141.700000000021
 21
9323.678250457966
 31
0.0
  0
LINE
  5
69CD9
  8
U1
 10
16859.099999999919
 20
6277.4291594232991
 30
0.0
 11
16859.099999999919
 21
9845.7959993914046
 31
0.0
  0
LINE
  5
69CDA
  8
U1
 10
11385.400000000031
 20
6277.4291594232991
 30
0.0
 11
11189.400000000031
 21
6277.4291594232991
 31
0.0
  0
LINE
  5
69CDB
  8
U1
 10
11385.400000000031
 20
6277.4291594232991
 30
0.0
 11
11385.400000000031
 21
9395.1831947964292
 31
0.0
  0
LINE
  5
69CDC
  8
U1
 10
11189.400000000031
 20
6277.4291594232991
 30
0.0
 11
11189.400000000031
 21
9379.0478366838852
 31
0.0
  0
LINE
  5
69CDD
  8
U3
 10
15256.500000000009
 20
6277.4291594232991
 30
0.0
 11
15256.500000000009
 21
9713.8647498435093
 31
0.0
  0
LINE
  5
69CDE
  8
U3
 10
15260.500000000009
 20
6277.4291594232991
 30
0.0
 11
15260.500000000009
 21
9714.1940428662256
 31
0.0
  0
LINE
  5
69CDF
  8
U3
 10
15274.500000000009
 20
6277.4291594232991
 30
0.0
 11
15274.500000000009
 21
9715.3465684456969
 31
0.0
  0
LINE
  5
69CE0
  8
U3
 10
15303.000000000009
 20
6277.4291594232991
 30
0.0
 11
15303.000000000009
 21
9717.6927812324939
 31
0.0
  0
LINE
  5
69CE1
  8
U3
 10
15305.000000000009
 20
6277.4291594232991
 30
0.0
 11
15305.000000000009
 21
9717.8574277438365
 31
0.0
  0
LINE
  5
69CE2
  8
U3
 10
15387.000000000009
 20
6277.4291594232991
 30
0.0
 11
15387.000000000009
 21
9724.6079347093382
 31
0.0
  0
LINE
  5
69CE3
  8
U3
 10
15385.000000000009
 20
6277.4291594232991
 30
0.0
 11
15385.000000000009
 21
9724.4432881979956
 31
0.0
  0
LINE
  5
69CE4
  8
U3
 10
15415.500000000009
 20
6277.4291594232991
 30
0.0
 11
15415.500000000009
 21
9726.954147496137
 31
0.0
  0
LINE
  5
69CE5
  8
U3
 10
15429.5
 20
6277.4291594232991
 30
0.0
 11
15429.5
 21
9728.1066730756065
 31
0.0
  0
LINE
  5
69CE6
  8
U3
 10
15433.500000000009
 20
6277.4291594232991
 30
0.0
 11
15433.500000000009
 21
9728.4359660983246
 31
0.0
  0
LINE
  5
69CE7
  8
U3
 10
15633.500000000009
 20
6277.4291594232991
 30
0.0
 11
15633.500000000009
 21
9744.9006172336722
 31
0.0
  0
LINE
  5
69CE8
  8
U3
 10
15629.5
 20
6277.4291594232991
 30
0.0
 11
15629.5
 21
9744.5713242109832
 31
0.0
  0
LINE
  5
69CE9
  8
U3
 10
15615.500000000009
 20
6277.4291594232991
 30
0.0
 11
15615.500000000009
 21
9743.4187986314864
 31
0.0
  0
LINE
  5
69CEA
  8
U3
 10
15585.000000000009
 20
6277.4291594232991
 30
0.0
 11
15585.000000000009
 21
9740.9079393333432
 31
0.0
  0
LINE
  5
69CEB
  8
U3
 10
15587.000000000009
 20
6277.4291594232991
 30
0.0
 11
15587.000000000009
 21
9741.0725858447167
 31
0.0
  0
LINE
  5
69CEC
  8
U3
 10
15505.000000000009
 20
6277.4291594232991
 30
0.0
 11
15505.000000000009
 21
9734.3220788792169
 31
0.0
  0
LINE
  5
69CED
  8
U3
 10
15503.000000000009
 20
6277.4291594232991
 30
0.0
 11
15503.000000000009
 21
9734.1574323678415
 31
0.0
  0
LINE
  5
69CEE
  8
U3
 10
15474.500000000009
 20
6277.4291594232991
 30
0.0
 11
15474.500000000009
 21
9731.8112195810754
 31
0.0
  0
LINE
  5
69CEF
  8
U3
 10
15460.500000000009
 20
6277.4291594232991
 30
0.0
 11
15460.500000000009
 21
9730.6586940015768
 31
0.0
  0
LINE
  5
69CF0
  8
U3
 10
15456.500000000009
 20
6277.4291594232991
 30
0.0
 11
15456.500000000009
 21
9730.329400978886
 31
0.0
  0
LINE
  5
69CF1
  8
U3
 10
15656.500000000009
 20
6277.4291594232991
 30
0.0
 11
15656.500000000009
 21
9746.7940521142355
 31
0.0
  0
LINE
  5
69CF2
  8
U3
 10
15660.500000000009
 20
6277.4291594232991
 30
0.0
 11
15660.500000000009
 21
9747.1233451369553
 31
0.0
  0
LINE
  5
69CF3
  8
U3
 10
15674.500000000009
 20
6277.4291594232991
 30
0.0
 11
15674.500000000009
 21
9748.2758707164248
 31
0.0
  0
LINE
  5
69CF4
  8
U3
 10
15703.0
 20
6277.4291594232991
 30
0.0
 11
15703.0
 21
9750.62208350322
 31
0.0
  0
LINE
  5
69CF5
  8
U3
 10
15705.000000000009
 20
6277.4291594232991
 30
0.0
 11
15705.000000000009
 21
9750.7867300145645
 31
0.0
  0
LINE
  5
69CF6
  8
U3
 10
15787.000000000009
 20
6277.4291594232991
 30
0.0
 11
15787.000000000009
 21
9757.5372369800662
 31
0.0
  0
LINE
  5
69CF7
  8
U3
 10
15785.000000000009
 20
6277.4291594232991
 30
0.0
 11
15785.000000000009
 21
9757.3725904687217
 31
0.0
  0
LINE
  5
69CF8
  8
U3
 10
15815.500000000009
 20
6277.4291594232991
 30
0.0
 11
15815.500000000009
 21
9759.8834497668631
 31
0.0
  0
LINE
  5
69CF9
  8
U3
 10
15829.500000000009
 20
6277.4291594232991
 30
0.0
 11
15829.500000000009
 21
9761.0359753463326
 31
0.0
  0
LINE
  5
69CFA
  8
U3
 10
15833.5
 20
6277.4291594232991
 30
0.0
 11
15833.5
 21
9761.3652683690507
 31
0.0
  0
LINE
  5
69CFB
  8
U3
 10
16033.5
 20
6277.4291594232991
 30
0.0
 11
16033.5
 21
9777.8299195044001
 31
0.0
  0
LINE
  5
69CFC
  8
U3
 10
16029.5
 20
6277.4291594232991
 30
0.0
 11
16029.5
 21
9777.5006264817093
 31
0.0
  0
LINE
  5
69CFD
  8
U3
 10
16015.5
 20
6277.4291594232991
 30
0.0
 11
16015.5
 21
9776.3481009022125
 31
0.0
  0
LINE
  5
69CFE
  8
U3
 10
15985.0
 20
6277.4291594232991
 30
0.0
 11
15985.0
 21
9773.8372416040711
 31
0.0
  0
LINE
  5
69CFF
  8
U3
 10
15987.000000000009
 20
6277.4291594232991
 30
0.0
 11
15987.000000000009
 21
9774.0018881154465
 31
0.0
  0
LINE
  5
69D00
  8
U3
 10
15905.000000000009
 20
6277.4291594232991
 30
0.0
 11
15905.000000000009
 21
9767.251381149943
 31
0.0
  0
LINE
  5
69D01
  8
U3
 10
15903.0
 20
6277.4291594232991
 30
0.0
 11
15903.0
 21
9767.0867346385694
 31
0.0
  0
LINE
  5
69D02
  8
U3
 10
15874.5
 20
6277.4291594232991
 30
0.0
 11
15874.5
 21
9764.7405218518015
 31
0.0
  0
LINE
  5
69D03
  8
U3
 10
15860.500000000009
 20
6277.4291594232991
 30
0.0
 11
15860.500000000009
 21
9763.5879962723047
 31
0.0
  0
LINE
  5
69D04
  8
U3
 10
15856.500000000009
 20
6277.4291594232991
 30
0.0
 11
15856.500000000009
 21
9763.2587032496158
 31
0.0
  0
LINE
  5
69D05
  8
U3
 10
16656.500000000011
 20
6277.4291594232991
 30
0.0
 11
16656.500000000011
 21
9829.1173077910698
 31
0.0
  0
LINE
  5
69D06
  8
U3
 10
16660.5
 20
6277.4291594232991
 30
0.0
 11
16660.5
 21
9829.4466008137606
 31
0.0
  0
LINE
  5
69D07
  8
U3
 10
16674.5
 20
6277.4291594232991
 30
0.0
 11
16674.5
 21
9830.5991263932592
 31
0.0
  0
LINE
  5
69D08
  8
U3
 10
16703.000000000011
 20
6277.4291594232991
 30
0.0
 11
16703.000000000011
 21
9832.9453391800253
 31
0.0
  0
LINE
  5
69D09
  8
U3
 10
16705.0
 20
6277.4291594232991
 30
0.0
 11
16705.0
 21
9833.1099856914007
 31
0.0
  0
LINE
  5
69D0A
  8
U3
 10
16633.500000000011
 20
6277.4291594232991
 30
0.0
 11
16633.500000000011
 21
9827.2238729105084
 31
0.0
  0
LINE
  5
69D0B
  8
U3
 10
16629.500000000011
 20
6277.4291594232991
 30
0.0
 11
16629.500000000011
 21
9826.8945798877903
 31
0.0
  0
LINE
  5
69D0C
  8
U3
 10
16615.5
 20
6277.4291594232991
 30
0.0
 11
16615.5
 21
9825.742054308319
 31
0.0
  0
LINE
  5
69D0D
  8
U3
 10
16585.0
 20
6277.4291594232991
 30
0.0
 11
16585.0
 21
9823.2311950101775
 31
0.0
  0
LINE
  5
69D0E
  8
U3
 10
16587.0
 20
6277.4291594232991
 30
0.0
 11
16587.0
 21
9823.3958415215238
 31
0.0
  0
LINE
  5
69D0F
  8
U3
 10
16505.0
 20
6277.4291594232991
 30
0.0
 11
16505.0
 21
9816.6453345560203
 31
0.0
  0
LINE
  5
69D10
  8
U3
 10
16503.0
 20
6277.4291594232991
 30
0.0
 11
16503.0
 21
9816.4806880446777
 31
0.0
  0
LINE
  5
69D11
  8
U3
 10
16474.5
 20
6277.4291594232991
 30
0.0
 11
16474.5
 21
9814.1344752578807
 31
0.0
  0
LINE
  5
69D12
  8
U3
 10
16460.500000000011
 20
6277.4291594232991
 30
0.0
 11
16460.500000000011
 21
9812.9819496784094
 31
0.0
  0
LINE
  5
69D13
  8
U3
 10
16456.5
 20
6277.4291594232991
 30
0.0
 11
16456.5
 21
9812.6526566556931
 31
0.0
  0
LINE
  5
69D14
  8
U3
 10
16256.5
 20
6277.4291594232991
 30
0.0
 11
16256.5
 21
9796.1880055203419
 31
0.0
  0
LINE
  5
69D15
  8
U3
 10
16260.500000000009
 20
6277.4291594232991
 30
0.0
 11
16260.500000000009
 21
9796.5172985430308
 31
0.0
  0
LINE
  5
69D16
  8
U3
 10
16274.5
 20
6277.4291594232991
 30
0.0
 11
16274.5
 21
9797.6698241225295
 31
0.0
  0
LINE
  5
69D17
  8
U3
 10
16303.0
 20
6277.4291594232991
 30
0.0
 11
16303.0
 21
9800.0160369092973
 31
0.0
  0
LINE
  5
69D18
  8
U3
 10
16305.0
 20
6277.4291594232991
 30
0.0
 11
16305.0
 21
9800.1806834206727
 31
0.0
  0
LINE
  5
69D19
  8
U3
 10
16387.0
 20
6277.4291594232991
 30
0.0
 11
16387.0
 21
9806.9311903861726
 31
0.0
  0
LINE
  5
69D1A
  8
U3
 10
16385.0
 20
6277.4291594232991
 30
0.0
 11
16385.0
 21
9806.7665438748008
 31
0.0
  0
LINE
  5
69D1B
  8
U3
 10
16415.5
 20
6277.4291594232991
 30
0.0
 11
16415.5
 21
9809.2774031729405
 31
0.0
  0
LINE
  5
69D1C
  8
U3
 10
16429.5
 20
6277.4291594232991
 30
0.0
 11
16429.5
 21
9810.4299287524409
 31
0.0
  0
LINE
  5
69D1D
  8
U3
 10
16433.5
 20
6277.4291594232991
 30
0.0
 11
16433.5
 21
9810.759221775128
 31
0.0
  0
LINE
  5
69D1E
  8
U3
 10
16233.500000000009
 20
6277.4291594232991
 30
0.0
 11
16233.500000000009
 21
9794.2945706397786
 31
0.0
  0
LINE
  5
69D1F
  8
U3
 10
16229.500000000009
 20
6277.4291594232991
 30
0.0
 11
16229.500000000009
 21
9793.9652776170606
 31
0.0
  0
LINE
  5
69D20
  8
U3
 10
16215.5
 20
6277.4291594232991
 30
0.0
 11
16215.5
 21
9792.8127520375892
 31
0.0
  0
LINE
  5
69D21
  8
U3
 10
16185.0
 20
6277.4291594232991
 30
0.0
 11
16185.0
 21
9790.3018927394496
 31
0.0
  0
LINE
  5
69D22
  8
U3
 10
16187.000000000009
 20
6277.4291594232991
 30
0.0
 11
16187.000000000009
 21
9790.4665392507923
 31
0.0
  0
LINE
  5
69D23
  8
U3
 10
16105.0
 20
6277.4291594232991
 30
0.0
 11
16105.0
 21
9783.7160322852924
 31
0.0
  0
LINE
  5
69D24
  8
U3
 10
16103.0
 20
6277.4291594232991
 30
0.0
 11
16103.0
 21
9783.5513857739479
 31
0.0
  0
LINE
  5
69D25
  8
U3
 10
16074.5
 20
6277.4291594232991
 30
0.0
 11
16074.5
 21
9781.2051729871509
 31
0.0
  0
LINE
  5
69D26
  8
U3
 10
16060.500000000009
 20
6277.4291594232991
 30
0.0
 11
16060.500000000009
 21
9780.0526474076814
 31
0.0
  0
LINE
  5
69D27
  8
U3
 10
16056.500000000009
 20
6277.4291594232991
 30
0.0
 11
16056.500000000009
 21
9779.7233543849634
 31
0.0
  0
LINE
  5
69D28
  8
U3
 10
14456.5
 20
6277.4291594232991
 30
0.0
 11
14456.5
 21
9648.0061453020535
 31
0.0
  0
LINE
  5
69D29
  8
U3
 10
15185.000000000009
 20
6277.4291594232991
 30
0.0
 11
15185.000000000009
 21
9707.9786370626152
 31
0.0
  0
LINE
  5
69D2A
  8
U3
 10
15187.000000000009
 20
6277.4291594232991
 30
0.0
 11
15187.000000000009
 21
9708.1432835739888
 31
0.0
  0
LINE
  5
69D2B
  8
U3
 10
15229.5
 20
6277.4291594232991
 30
0.0
 11
15229.5
 21
9711.6420219402571
 31
0.0
  0
LINE
  5
69D2C
  8
U3
 10
15233.500000000009
 20
6277.4291594232991
 30
0.0
 11
15233.500000000009
 21
9711.9713149629442
 31
0.0
  0
LINE
  5
69D2D
  8
U3
 10
15215.500000000009
 20
6277.4291594232991
 30
0.0
 11
15215.500000000009
 21
9710.4894963607567
 31
0.0
  0
LINE
  5
69D2E
  8
U3
 10
14985.000000000009
 20
6277.4291594232991
 30
0.0
 11
14985.000000000009
 21
9691.5139859272658
 31
0.0
  0
LINE
  5
69D2F
  8
U3
 10
14987.000000000009
 20
6277.4291594232991
 30
0.0
 11
14987.000000000009
 21
9691.6786324386103
 31
0.0
  0
LINE
  5
69D30
  8
U3
 10
15015.500000000009
 20
6277.4291594232991
 30
0.0
 11
15015.500000000009
 21
9694.0248452254073
 31
0.0
  0
LINE
  5
69D31
  8
U3
 10
15029.500000000009
 20
6277.4291594232991
 30
0.0
 11
15029.500000000009
 21
9695.1773708048768
 31
0.0
  0
LINE
  5
69D32
  8
U3
 10
15033.500000000009
 20
6277.4291594232991
 30
0.0
 11
15033.500000000009
 21
9695.5066638275948
 31
0.0
  0
LINE
  5
69D33
  8
U3
 10
15060.5
 20
6277.4291594232991
 30
0.0
 11
15060.5
 21
9697.7293917308471
 31
0.0
  0
LINE
  5
69D34
  8
U3
 10
15056.500000000009
 20
6277.4291594232991
 30
0.0
 11
15056.500000000009
 21
9697.4000987081581
 31
0.0
  0
LINE
  5
69D35
  8
U3
 10
15074.500000000009
 20
6277.4291594232991
 30
0.0
 11
15074.500000000009
 21
9698.8819173103457
 31
0.0
  0
LINE
  5
69D36
  8
U3
 10
15105.000000000009
 20
6277.4291594232991
 30
0.0
 11
15105.000000000009
 21
9701.3927766084871
 31
0.0
  0
LINE
  5
69D37
  8
U3
 10
15103.000000000009
 20
6277.4291594232991
 30
0.0
 11
15103.000000000009
 21
9701.2281300971135
 31
0.0
  0
LINE
  5
69D38
  8
U3
 10
14903.000000000009
 20
6277.4291594232991
 30
0.0
 11
14903.000000000009
 21
9684.7634789617641
 31
0.0
  0
LINE
  5
69D39
  8
U3
 10
14860.5
 20
6277.4291594232991
 30
0.0
 11
14860.5
 21
9681.2647405954976
 31
0.0
  0
LINE
  5
69D3A
  8
U3
 10
14874.500000000009
 20
6277.4291594232991
 30
0.0
 11
14874.500000000009
 21
9682.4172661749672
 31
0.0
  0
LINE
  5
69D3B
  8
U3
 10
14905.000000000009
 20
6277.4291594232991
 30
0.0
 11
14905.000000000009
 21
9684.9281254731086
 31
0.0
  0
LINE
  5
69D3C
  8
U3
 10
14856.500000000009
 20
6277.4291594232991
 30
0.0
 11
14856.500000000009
 21
9680.9354475727796
 31
0.0
  0
LINE
  5
69D3D
  8
U3
 10
14833.500000000009
 20
6277.4291594232991
 30
0.0
 11
14833.500000000009
 21
9679.0420126922163
 31
0.0
  0
LINE
  5
69D3E
  8
U3
 10
14829.500000000009
 20
6277.4291594232991
 30
0.0
 11
14829.500000000009
 21
9678.7127196695274
 31
0.0
  0
LINE
  5
69D3F
  8
U3
 10
14815.500000000009
 20
6277.4291594232991
 30
0.0
 11
14815.500000000009
 21
9677.5601940900287
 31
0.0
  0
LINE
  5
69D40
  8
U3
 10
14785.000000000009
 20
6277.4291594232991
 30
0.0
 11
14785.000000000009
 21
9675.0493347918873
 31
0.0
  0
LINE
  5
69D41
  8
U3
 10
14787.0
 20
6277.4291594232991
 30
0.0
 11
14787.0
 21
9675.2139813032627
 31
0.0
  0
LINE
  5
69D42
  8
U3
 10
14705.000000000009
 20
6277.4291594232991
 30
0.0
 11
14705.000000000009
 21
9668.463474337761
 31
0.0
  0
LINE
  5
69D43
  8
U3
 10
14703.000000000009
 20
6277.4291594232991
 30
0.0
 11
14703.000000000009
 21
9668.2988278263874
 31
0.0
  0
LINE
  5
69D44
  8
U3
 10
14660.5
 20
6277.4291594232991
 30
0.0
 11
14660.5
 21
9664.8000894601191
 31
0.0
  0
LINE
  5
69D45
  8
U3
 10
14674.500000000009
 20
6277.4291594232991
 30
0.0
 11
14674.500000000009
 21
9665.9526150396177
 31
0.0
  0
LINE
  5
69D46
  8
U3
 10
14656.500000000009
 20
6277.4291594232991
 30
0.0
 11
14656.500000000009
 21
9664.4707964374302
 31
0.0
  0
LINE
  5
69D47
  8
U3
 10
14633.500000000009
 20
6277.4291594232991
 30
0.0
 11
14633.500000000009
 21
9662.5773615568687
 31
0.0
  0
LINE
  5
69D48
  8
U3
 10
14629.500000000009
 20
6277.4291594232991
 30
0.0
 11
14629.500000000009
 21
9662.2480685341488
 31
0.0
  0
LINE
  5
69D49
  8
U3
 10
14615.5
 20
6277.4291594232991
 30
0.0
 11
14615.5
 21
9661.0955429546793
 31
0.0
  0
LINE
  5
69D4A
  8
U3
 10
14587.000000000009
 20
6277.4291594232991
 30
0.0
 11
14587.000000000009
 21
9658.7493301678824
 31
0.0
  0
LINE
  5
69D4B
  8
U3
 10
14585.0
 20
6277.4291594232991
 30
0.0
 11
14585.0
 21
9658.5846836565379
 31
0.0
  0
LINE
  5
69D4C
  8
U3
 10
14503.000000000009
 20
6277.4291594232991
 30
0.0
 11
14503.000000000009
 21
9651.8341766910362
 31
0.0
  0
LINE
  5
69D4D
  8
U3
 10
14505.0
 20
6277.4291594232991
 30
0.0
 11
14505.0
 21
9651.9988232023807
 31
0.0
  0
LINE
  5
69D4E
  8
U3
 10
14460.5
 20
6277.4291594232991
 30
0.0
 11
14460.5
 21
9648.3354383247715
 31
0.0
  0
LINE
  5
69D4F
  8
U3
 10
14474.5
 20
6277.4291594232991
 30
0.0
 11
14474.5
 21
9649.4879639042392
 31
0.0
  0
LINE
  5
69D50
  8
U3
 10
14303.0
 20
6277.4291594232991
 30
0.0
 11
14303.0
 21
9635.3695255556577
 31
0.0
  0
LINE
  5
69D51
  8
U3
 10
14305.000000000009
 20
6277.4291594232991
 30
0.0
 11
14305.000000000009
 21
9635.5341720670312
 31
0.0
  0
LINE
  5
69D52
  8
U3
 10
14274.500000000009
 20
6277.4291594232991
 30
0.0
 11
14274.500000000009
 21
9633.0233127688916
 31
0.0
  0
LINE
  5
69D53
  8
U3
 10
14256.5
 20
6277.4291594232991
 30
0.0
 11
14256.5
 21
9631.5414941667041
 31
0.0
  0
LINE
  5
69D54
  8
U3
 10
14260.5
 20
6277.4291594232991
 30
0.0
 11
14260.5
 21
9631.8707871893912
 31
0.0
  0
LINE
  5
69D55
  8
U3
 10
14233.500000000009
 20
6277.4291594232991
 30
0.0
 11
14233.500000000009
 21
9629.648059286139
 31
0.0
  0
LINE
  5
69D56
  8
U3
 10
14229.500000000009
 20
6277.4291594232991
 30
0.0
 11
14229.500000000009
 21
9629.3187662634227
 31
0.0
  0
LINE
  5
69D57
  8
U3
 10
14215.5
 20
6277.4291594232991
 30
0.0
 11
14215.5
 21
9628.1662406839514
 31
0.0
  0
LINE
  5
69D58
  8
U3
 10
14187.000000000009
 20
6277.4291594232991
 30
0.0
 11
14187.000000000009
 21
9625.8200278971544
 31
0.0
  0
LINE
  5
69D59
  8
U3
 10
14185.0
 20
6277.4291594232991
 30
0.0
 11
14185.0
 21
9625.6553813858118
 31
0.0
  0
LINE
  5
69D5A
  8
U3
 10
14415.500000000009
 20
6277.4291594232991
 30
0.0
 11
14415.500000000009
 21
9644.6308918193026
 31
0.0
  0
LINE
  5
69D5B
  8
U3
 10
14433.500000000009
 20
6277.4291594232991
 30
0.0
 11
14433.500000000009
 21
9646.1127104214884
 31
0.0
  0
LINE
  5
69D5C
  8
U3
 10
14429.500000000009
 20
6277.4291594232991
 30
0.0
 11
14429.500000000009
 21
9645.7834173987994
 31
0.0
  0
LINE
  5
69D5D
  8
U3
 10
14387.0
 20
6277.4291594232991
 30
0.0
 11
14387.0
 21
9642.2846790325348
 31
0.0
  0
LINE
  5
69D5E
  8
U3
 10
14385.000000000009
 20
6277.4291594232991
 30
0.0
 11
14385.000000000009
 21
9642.1200325211612
 31
0.0
  0
LINE
  5
69D5F
  8
U3
 10
13674.5
 20
6277.4291594232991
 30
0.0
 11
13674.5
 21
9583.6293593627834
 31
0.0
  0
LINE
  5
69D60
  8
U3
 10
13660.500000000009
 20
6277.4291594232991
 30
0.0
 11
13660.500000000009
 21
9582.4768337833139
 31
0.0
  0
LINE
  5
69D61
  8
U3
 10
13705.0
 20
6277.4291594232991
 30
0.0
 11
13705.0
 21
9586.1402186609266
 31
0.0
  0
LINE
  5
69D62
  8
U3
 10
13703.0
 20
6277.4291594232991
 30
0.0
 11
13703.0
 21
9585.9755721495803
 31
0.0
  0
LINE
  5
69D63
  8
U3
 10
13785.0
 20
6277.4291594232991
 30
0.0
 11
13785.0
 21
9592.7260791150838
 31
0.0
  0
LINE
  5
69D64
  8
U3
 10
13787.0
 20
6277.4291594232991
 30
0.0
 11
13787.0
 21
9592.8907256264265
 31
0.0
  0
LINE
  5
69D65
  8
U3
 10
13815.5
 20
6277.4291594232991
 30
0.0
 11
13815.5
 21
9595.2369384132235
 31
0.0
  0
LINE
  5
69D66
  8
U3
 10
13829.500000000009
 20
6277.4291594232991
 30
0.0
 11
13829.500000000009
 21
9596.389463992693
 31
0.0
  0
LINE
  5
69D67
  8
U3
 10
13833.5
 20
6277.4291594232991
 30
0.0
 11
13833.5
 21
9596.718757015411
 31
0.0
  0
LINE
  5
69D68
  8
U3
 10
13856.5
 20
6277.4291594232991
 30
0.0
 11
13856.5
 21
9598.6121918959725
 31
0.0
  0
LINE
  5
69D69
  8
U3
 10
13874.5
 20
6277.4291594232991
 30
0.0
 11
13874.5
 21
9600.0940104981619
 31
0.0
  0
LINE
  5
69D6A
  8
U3
 10
13860.500000000009
 20
6277.4291594232991
 30
0.0
 11
13860.500000000009
 21
9598.9414849186924
 31
0.0
  0
LINE
  5
69D6B
  8
U3
 10
13903.0
 20
6277.4291594232991
 30
0.0
 11
13903.0
 21
9602.4402232849297
 31
0.0
  0
LINE
  5
69D6C
  8
U3
 10
13905.0
 20
6277.4291594232991
 30
0.0
 11
13905.0
 21
9602.6048697963033
 31
0.0
  0
LINE
  5
69D6D
  8
U3
 10
13987.0
 20
6277.4291594232991
 30
0.0
 11
13987.0
 21
9609.3553767618032
 31
0.0
  0
LINE
  5
69D6E
  8
U3
 10
13985.0
 20
6277.4291594232991
 30
0.0
 11
13985.0
 21
9609.1907302504314
 31
0.0
  0
LINE
  5
69D6F
  8
U3
 10
14015.500000000009
 20
6277.4291594232991
 30
0.0
 11
14015.500000000009
 21
9611.7015895485729
 31
0.0
  0
LINE
  5
69D70
  8
U3
 10
14029.500000000009
 20
6277.4291594232991
 30
0.0
 11
14029.500000000009
 21
9612.8541151280715
 31
0.0
  0
LINE
  5
69D71
  8
U3
 10
14033.5
 20
6277.4291594232991
 30
0.0
 11
14033.5
 21
9613.1834081507604
 31
0.0
  0
LINE
  5
69D72
  8
U3
 10
14056.5
 20
6277.4291594232991
 30
0.0
 11
14056.5
 21
9615.0768430313237
 31
0.0
  0
LINE
  5
69D73
  8
U3
 10
14105.0
 20
6277.4291594232991
 30
0.0
 11
14105.0
 21
9619.0695209316527
 31
0.0
  0
LINE
  5
69D74
  8
U3
 10
14074.5
 20
6277.4291594232991
 30
0.0
 11
14074.5
 21
9616.5586616335113
 31
0.0
  0
LINE
  5
69D75
  8
U3
 10
14060.5
 20
6277.4291594232991
 30
0.0
 11
14060.5
 21
9615.4061360540418
 31
0.0
  0
LINE
  5
69D76
  8
U3
 10
14103.000000000009
 20
6277.4291594232991
 30
0.0
 11
14103.000000000009
 21
9618.9048744203083
 31
0.0
  0
LINE
  5
69D77
  8
U3
 10
13656.5
 20
6277.4291594232991
 30
0.0
 11
13656.5
 21
9582.1475407605958
 31
0.0
  0
LINE
  5
69D78
  8
U3
 10
12856.500000000009
 20
6277.4291594232991
 30
0.0
 11
12856.500000000009
 21
9516.2889362191399
 31
0.0
  0
LINE
  5
69D79
  8
U3
 10
13303.0
 20
6277.4291594232991
 30
0.0
 11
13303.0
 21
9553.0462698788524
 31
0.0
  0
LINE
  5
69D7A
  8
U3
 10
13260.500000000009
 20
6277.4291594232991
 30
0.0
 11
13260.500000000009
 21
9549.5475315125841
 31
0.0
  0
LINE
  5
69D7B
  8
U3
 10
13274.5
 20
6277.4291594232991
 30
0.0
 11
13274.5
 21
9550.7000570920554
 31
0.0
  0
LINE
  5
69D7C
  8
U3
 10
13305.0
 20
6277.4291594232991
 30
0.0
 11
13305.0
 21
9553.2109163901969
 31
0.0
  0
LINE
  5
69D7D
  8
U3
 10
13256.500000000009
 20
6277.4291594232991
 30
0.0
 11
13256.500000000009
 21
9549.2182384898697
 31
0.0
  0
LINE
  5
69D7E
  8
U3
 10
13233.5
 20
6277.4291594232991
 30
0.0
 11
13233.5
 21
9547.3248036093046
 31
0.0
  0
LINE
  5
69D7F
  8
U3
 10
13229.5
 20
6277.4291594232991
 30
0.0
 11
13229.5
 21
9546.9955105866175
 31
0.0
  0
LINE
  5
69D80
  8
U3
 10
13215.500000000009
 20
6277.4291594232991
 30
0.0
 11
13215.500000000009
 21
9545.8429850071188
 31
0.0
  0
LINE
  5
69D81
  8
U3
 10
13185.000000000009
 20
6277.4291594232991
 30
0.0
 11
13185.000000000009
 21
9543.3321257089756
 31
0.0
  0
LINE
  5
69D82
  8
U3
 10
13187.000000000009
 20
6277.4291594232991
 30
0.0
 11
13187.000000000009
 21
9543.4967722203492
 31
0.0
  0
LINE
  5
69D83
  8
U3
 10
13105.000000000009
 20
6277.4291594232991
 30
0.0
 11
13105.000000000009
 21
9536.7462652548475
 31
0.0
  0
LINE
  5
69D84
  8
U3
 10
13103.0
 20
6277.4291594232991
 30
0.0
 11
13103.0
 21
9536.5816187434739
 31
0.0
  0
LINE
  5
69D85
  8
U3
 10
13060.500000000009
 20
6277.4291594232991
 30
0.0
 11
13060.500000000009
 21
9533.0828803772365
 31
0.0
  0
LINE
  5
69D86
  8
U3
 10
13074.500000000009
 20
6277.4291594232991
 30
0.0
 11
13074.500000000009
 21
9534.2354059567042
 31
0.0
  0
LINE
  5
69D87
  8
U3
 10
13056.500000000009
 20
6277.4291594232991
 30
0.0
 11
13056.500000000009
 21
9532.7535873545185
 31
0.0
  0
LINE
  5
69D88
  8
U3
 10
13033.500000000009
 20
6277.4291594232991
 30
0.0
 11
13033.500000000009
 21
9530.8601524739552
 31
0.0
  0
LINE
  5
69D89
  8
U3
 10
13029.5
 20
6277.4291594232991
 30
0.0
 11
13029.5
 21
9530.5308594512371
 31
0.0
  0
LINE
  5
69D8A
  8
U3
 10
13015.500000000009
 20
6277.4291594232991
 30
0.0
 11
13015.500000000009
 21
9529.3783338717676
 31
0.0
  0
LINE
  5
69D8B
  8
U3
 10
12987.000000000009
 20
6277.4291594232991
 30
0.0
 11
12987.000000000009
 21
9527.0321210849688
 31
0.0
  0
LINE
  5
69D8C
  8
U3
 10
12985.000000000009
 20
6277.4291594232991
 30
0.0
 11
12985.000000000009
 21
9526.8674745736243
 31
0.0
  0
LINE
  5
69D8D
  8
U3
 10
12903.000000000009
 20
6277.4291594232991
 30
0.0
 11
12903.000000000009
 21
9520.1169676081245
 31
0.0
  0
LINE
  5
69D8E
  8
U3
 10
12905.000000000009
 20
6277.4291594232991
 30
0.0
 11
12905.000000000009
 21
9520.2816141194671
 31
0.0
  0
LINE
  5
69D8F
  8
U3
 10
12860.500000000009
 20
6277.4291594232991
 30
0.0
 11
12860.500000000009
 21
9516.618229241858
 31
0.0
  0
LINE
  5
69D90
  8
U3
 10
12874.500000000009
 20
6277.4291594232991
 30
0.0
 11
12874.500000000009
 21
9517.7707548213275
 31
0.0
  0
LINE
  5
69D91
  8
U3
 10
13585.0
 20
6277.4291594232991
 30
0.0
 11
13585.0
 21
9576.2614279797035
 31
0.0
  0
LINE
  5
69D92
  8
U3
 10
13587.0
 20
6277.4291594232991
 30
0.0
 11
13587.0
 21
9576.4260744910771
 31
0.0
  0
LINE
  5
69D93
  8
U3
 10
13629.5
 20
6277.4291594232991
 30
0.0
 11
13629.5
 21
9579.9248128573436
 31
0.0
  0
LINE
  5
69D94
  8
U3
 10
13633.5
 20
6277.4291594232991
 30
0.0
 11
13633.5
 21
9580.2541058800325
 31
0.0
  0
LINE
  5
69D95
  8
U3
 10
13615.5
 20
6277.4291594232991
 30
0.0
 11
13615.5
 21
9578.7722872778431
 31
0.0
  0
LINE
  5
69D96
  8
U3
 10
13385.0
 20
6277.4291594232991
 30
0.0
 11
13385.0
 21
9559.7967768443541
 31
0.0
  0
LINE
  5
69D97
  8
U3
 10
13387.000000000009
 20
6277.4291594232991
 30
0.0
 11
13387.000000000009
 21
9559.9614233557004
 31
0.0
  0
LINE
  5
69D98
  8
U3
 10
13415.5
 20
6277.4291594232991
 30
0.0
 11
13415.5
 21
9562.3076361424974
 31
0.0
  0
LINE
  5
69D99
  8
U3
 10
13429.5
 20
6277.4291594232991
 30
0.0
 11
13429.5
 21
9563.4601617219669
 31
0.0
  0
LINE
  5
69D9A
  8
U3
 10
13433.5
 20
6277.4291594232991
 30
0.0
 11
13433.5
 21
9563.7894547446831
 31
0.0
  0
LINE
  5
69D9B
  8
U3
 10
13460.500000000009
 20
6277.4291594232991
 30
0.0
 11
13460.500000000009
 21
9566.0121826479644
 31
0.0
  0
LINE
  5
69D9C
  8
U3
 10
13456.500000000009
 20
6277.4291594232991
 30
0.0
 11
13456.500000000009
 21
9565.6828896252464
 31
0.0
  0
LINE
  5
69D9D
  8
U3
 10
13474.5
 20
6277.4291594232991
 30
0.0
 11
13474.5
 21
9567.1647082274358
 31
0.0
  0
LINE
  5
69D9E
  8
U3
 10
13505.0
 20
6277.4291594232991
 30
0.0
 11
13505.0
 21
9569.6755675255754
 31
0.0
  0
LINE
  5
69D9F
  8
U3
 10
13503.0
 20
6277.4291594232991
 30
0.0
 11
13503.0
 21
9569.5109210142018
 31
0.0
  0
LINE
  5
69DA0
  8
U3
 10
12703.000000000009
 20
6277.4291594232991
 30
0.0
 11
12703.000000000009
 21
9503.6523164727441
 31
0.0
  0
LINE
  5
69DA1
  8
U3
 10
12705.000000000009
 20
6277.4291594232991
 30
0.0
 11
12705.000000000009
 21
9503.8169629841195
 31
0.0
  0
LINE
  5
69DA2
  8
U3
 10
12674.500000000009
 20
6277.4291594232991
 30
0.0
 11
12674.500000000009
 21
9501.3061036859781
 31
0.0
  0
LINE
  5
69DA3
  8
U3
 10
12656.500000000009
 20
6277.4291594232991
 30
0.0
 11
12656.500000000009
 21
9499.8242850837905
 31
0.0
  0
LINE
  5
69DA4
  8
U3
 10
12660.500000000009
 20
6277.4291594232991
 30
0.0
 11
12660.500000000009
 21
9500.1535781065086
 31
0.0
  0
LINE
  5
69DA5
  8
U3
 10
12633.500000000009
 20
6277.4291594232991
 30
0.0
 11
12633.500000000009
 21
9497.9308502032272
 31
0.0
  0
LINE
  5
69DA6
  8
U3
 10
12629.5
 20
6277.4291594232991
 30
0.0
 11
12629.5
 21
9497.6015571805092
 31
0.0
  0
LINE
  5
69DA7
  8
U3
 10
12615.500000000009
 20
6277.4291594232991
 30
0.0
 11
12615.500000000009
 21
9496.4490316010397
 31
0.0
  0
LINE
  5
69DA8
  8
U3
 10
12587.000000000009
 20
6277.4291594232991
 30
0.0
 11
12587.000000000009
 21
9494.1028188142427
 31
0.0
  0
LINE
  5
69DA9
  8
U3
 10
12585.000000000009
 20
6277.4291594232991
 30
0.0
 11
12585.000000000009
 21
9493.9381723028982
 31
0.0
  0
LINE
  5
69DAA
  8
U3
 10
12815.500000000009
 20
6277.4291594232991
 30
0.0
 11
12815.500000000009
 21
9512.9136827363891
 31
0.0
  0
LINE
  5
69DAB
  8
U3
 10
12833.500000000009
 20
6277.4291594232991
 30
0.0
 11
12833.500000000009
 21
9514.3955013385767
 31
0.0
  0
LINE
  5
69DAC
  8
U3
 10
12829.5
 20
6277.4291594232991
 30
0.0
 11
12829.5
 21
9514.0662083158859
 31
0.0
  0
LINE
  5
69DAD
  8
U3
 10
12787.000000000009
 20
6277.4291594232991
 30
0.0
 11
12787.000000000009
 21
9510.5674699496212
 31
0.0
  0
LINE
  5
69DAE
  8
U3
 10
12785.000000000009
 20
6277.4291594232991
 30
0.0
 11
12785.000000000009
 21
9510.4028234382477
 31
0.0
  0
LINE
  5
69DAF
  8
U3
 10
12074.500000000009
 20
6277.4291594232991
 30
0.0
 11
12074.500000000009
 21
9451.9121502798716
 31
0.0
  0
LINE
  5
69DB0
  8
U3
 10
12060.5
 20
6277.4291594232991
 30
0.0
 11
12060.5
 21
9450.7596247004003
 31
0.0
  0
LINE
  5
69DB1
  8
U3
 10
12105.000000000009
 20
6277.4291594232991
 30
0.0
 11
12105.000000000009
 21
9454.4230095780131
 31
0.0
  0
LINE
  5
69DB2
  8
U3
 10
12103.000000000009
 20
6277.4291594232991
 30
0.0
 11
12103.000000000009
 21
9454.2583630666686
 31
0.0
  0
LINE
  5
69DB3
  8
U3
 10
12185.000000000009
 20
6277.4291594232991
 30
0.0
 11
12185.000000000009
 21
9461.0088700321721
 31
0.0
  0
LINE
  5
69DB4
  8
U3
 10
12187.000000000009
 20
6277.4291594232991
 30
0.0
 11
12187.000000000009
 21
9461.1735165435166
 31
0.0
  0
LINE
  5
69DB5
  8
U3
 10
12215.500000000009
 20
6277.4291594232991
 30
0.0
 11
12215.500000000009
 21
9463.5197293303136
 31
0.0
  0
LINE
  5
69DB6
  8
U3
 10
12229.500000000009
 20
6277.4291594232991
 30
0.0
 11
12229.500000000009
 21
9464.6722549097813
 31
0.0
  0
LINE
  5
69DB7
  8
U3
 10
12233.500000000009
 20
6277.4291594232991
 30
0.0
 11
12233.500000000009
 21
9465.0015479324993
 31
0.0
  0
LINE
  5
69DB8
  8
U3
 10
12256.500000000009
 20
6277.4291594232991
 30
0.0
 11
12256.500000000009
 21
9466.8949828130626
 31
0.0
  0
LINE
  5
69DB9
  8
U3
 10
12274.500000000009
 20
6277.4291594232991
 30
0.0
 11
12274.500000000009
 21
9468.3768014152502
 31
0.0
  0
LINE
  5
69DBA
  8
U3
 10
12260.5
 20
6277.4291594232991
 30
0.0
 11
12260.5
 21
9467.2242758357806
 31
0.0
  0
LINE
  5
69DBB
  8
U3
 10
12303.000000000009
 20
6277.4291594232991
 30
0.0
 11
12303.000000000009
 21
9470.7230142020471
 31
0.0
  0
LINE
  5
69DBC
  8
U3
 10
12305.000000000009
 20
6277.4291594232991
 30
0.0
 11
12305.000000000009
 21
9470.8876607133916
 31
0.0
  0
LINE
  5
69DBD
  8
U3
 10
12387.000000000009
 20
6277.4291594232991
 30
0.0
 11
12387.000000000009
 21
9477.6381676788933
 31
0.0
  0
LINE
  5
69DBE
  8
U3
 10
12385.000000000009
 20
6277.4291594232991
 30
0.0
 11
12385.000000000009
 21
9477.4735211675197
 31
0.0
  0
LINE
  5
69DBF
  8
U3
 10
12415.500000000009
 20
6277.4291594232991
 30
0.0
 11
12415.500000000009
 21
9479.9843804656612
 31
0.0
  0
LINE
  5
69DC0
  8
U3
 10
12429.500000000009
 20
6277.4291594232991
 30
0.0
 11
12429.500000000009
 21
9481.1369060451598
 31
0.0
  0
LINE
  5
69DC1
  8
U3
 10
12433.500000000009
 20
6277.4291594232991
 30
0.0
 11
12433.500000000009
 21
9481.4661990678487
 31
0.0
  0
LINE
  5
69DC2
  8
U3
 10
12456.500000000009
 20
6277.4291594232991
 30
0.0
 11
12456.500000000009
 21
9483.359633948412
 31
0.0
  0
LINE
  5
69DC3
  8
U3
 10
12505.000000000009
 20
6277.4291594232991
 30
0.0
 11
12505.000000000009
 21
9487.352311848741
 31
0.0
  0
LINE
  5
69DC4
  8
U3
 10
12474.500000000009
 20
6277.4291594232991
 30
0.0
 11
12474.500000000009
 21
9484.8414525505996
 31
0.0
  0
LINE
  5
69DC5
  8
U3
 10
12460.5
 20
6277.4291594232991
 30
0.0
 11
12460.5
 21
9483.6889269711319
 31
0.0
  0
LINE
  5
69DC6
  8
U3
 10
12503.000000000009
 20
6277.4291594232991
 30
0.0
 11
12503.000000000009
 21
9487.1876653373984
 31
0.0
  0
LINE
  5
69DC7
  8
U3
 10
12056.5
 20
6277.4291594232991
 30
0.0
 11
12056.5
 21
9450.4303316776859
 31
0.0
  0
LINE
  5
69DC8
  8
U3
 10
11703.000000000009
 20
6277.4291594232991
 30
0.0
 11
11703.000000000009
 21
9421.3290607959407
 31
0.0
  0
LINE
  5
69DC9
  8
U3
 10
11660.5
 20
6277.4291594232991
 30
0.0
 11
11660.5
 21
9417.8303224296742
 31
0.0
  0
LINE
  5
69DCA
  8
U3
 10
11674.5
 20
6277.4291594232991
 30
0.0
 11
11674.5
 21
9418.9828480091437
 31
0.0
  0
LINE
  5
69DCB
  8
U3
 10
11705.0
 20
6277.4291594232991
 30
0.0
 11
11705.0
 21
9421.4937073072833
 31
0.0
  0
LINE
  5
69DCC
  8
U3
 10
11656.5
 20
6277.4291594232991
 30
0.0
 11
11656.5
 21
9417.5010294069561
 31
0.0
  0
LINE
  5
69DCD
  8
U3
 10
11633.5
 20
6277.4291594232991
 30
0.0
 11
11633.5
 21
9415.6075945263929
 31
0.0
  0
LINE
  5
69DCE
  8
U3
 10
11629.500000000009
 20
6277.4291594232991
 30
0.0
 11
11629.500000000009
 21
9415.2783015037039
 31
0.0
  0
LINE
  5
69DCF
  8
U3
 10
11615.5
 20
6277.4291594232991
 30
0.0
 11
11615.5
 21
9414.1257759242344
 31
0.0
  0
LINE
  5
69DD0
  8
U3
 10
11585.0
 20
6277.4291594232991
 30
0.0
 11
11585.0
 21
9411.6149166260639
 31
0.0
  0
LINE
  5
69DD1
  8
U3
 10
11587.0
 20
6277.4291594232991
 30
0.0
 11
11587.0
 21
9411.7795631374374
 31
0.0
  0
LINE
  5
69DD2
  8
U3
 10
11505.0
 20
6277.4291594232991
 30
0.0
 11
11505.0
 21
9405.0290561719376
 31
0.0
  0
LINE
  5
69DD3
  8
U3
 10
11503.0
 20
6277.4291594232991
 30
0.0
 11
11503.0
 21
9404.8644096605913
 31
0.0
  0
LINE
  5
69DD4
  8
U3
 10
11460.5
 20
6277.4291594232991
 30
0.0
 11
11460.5
 21
9401.3656712943248
 31
0.0
  0
LINE
  5
69DD5
  8
U3
 10
11474.5
 20
6277.4291594232991
 30
0.0
 11
11474.5
 21
9402.5181968737943
 31
0.0
  0
LINE
  5
69DD6
  8
U3
 10
11456.5
 20
6277.4291594232991
 30
0.0
 11
11456.5
 21
9401.0363782716067
 31
0.0
  0
LINE
  5
69DD7
  8
U3
 10
11433.5
 20
6277.4291594232991
 30
0.0
 11
11433.5
 21
9399.1429433910434
 31
0.0
  0
LINE
  5
69DD8
  8
U3
 10
11429.500000000009
 20
6277.4291594232991
 30
0.0
 11
11429.500000000009
 21
9398.8136503683254
 31
0.0
  0
LINE
  5
69DD9
  8
U3
 10
11415.5
 20
6277.4291594232991
 30
0.0
 11
11415.5
 21
9397.6611247888559
 31
0.0
  0
LINE
  5
69DDA
  8
U3
 10
11387.0
 20
6277.4291594232991
 30
0.0
 11
11387.0
 21
9395.3149120020607
 31
0.0
  0
LINE
  5
69DDB
  8
U3
 10
11985.000000000009
 20
6277.4291594232991
 30
0.0
 11
11985.000000000009
 21
9444.5442188967918
 31
0.0
  0
LINE
  5
69DDC
  8
U3
 10
11987.0
 20
6277.4291594232991
 30
0.0
 11
11987.0
 21
9444.7088654081654
 31
0.0
  0
LINE
  5
69DDD
  8
U3
 10
12029.500000000009
 20
6277.4291594232991
 30
0.0
 11
12029.500000000009
 21
9448.2076037744337
 31
0.0
  0
LINE
  5
69DDE
  8
U3
 10
12033.500000000009
 20
6277.4291594232991
 30
0.0
 11
12033.500000000009
 21
9448.5368967971208
 31
0.0
  0
LINE
  5
69DDF
  8
U3
 10
12015.500000000009
 20
6277.4291594232991
 30
0.0
 11
12015.500000000009
 21
9447.0550781949332
 31
0.0
  0
LINE
  5
69DE0
  8
U3
 10
11785.0
 20
6277.4291594232991
 30
0.0
 11
11785.0
 21
9428.0795677614406
 31
0.0
  0
LINE
  5
69DE1
  8
U3
 10
11787.0
 20
6277.4291594232991
 30
0.0
 11
11787.0
 21
9428.2442142727868
 31
0.0
  0
LINE
  5
69DE2
  8
U3
 10
11815.5
 20
6277.4291594232991
 30
0.0
 11
11815.5
 21
9430.5904270595838
 31
0.0
  0
LINE
  5
69DE3
  8
U3
 10
11829.500000000009
 20
6277.4291594232991
 30
0.0
 11
11829.500000000009
 21
9431.7429526390533
 31
0.0
  0
LINE
  5
69DE4
  8
U3
 10
11833.500000000009
 20
6277.4291594232991
 30
0.0
 11
11833.500000000009
 21
9432.0722456617714
 31
0.0
  0
LINE
  5
69DE5
  8
U3
 10
11860.5
 20
6277.4291594232991
 30
0.0
 11
11860.5
 21
9434.2949735650527
 31
0.0
  0
LINE
  5
69DE6
  8
U3
 10
11856.5
 20
6277.4291594232991
 30
0.0
 11
11856.5
 21
9433.9656805423347
 31
0.0
  0
LINE
  5
69DE7
  8
U3
 10
11874.500000000009
 20
6277.4291594232991
 30
0.0
 11
11874.500000000009
 21
9435.4474991445222
 31
0.0
  0
LINE
  5
69DE8
  8
U3
 10
11905.000000000009
 20
6277.4291594232991
 30
0.0
 11
11905.000000000009
 21
9437.9583584426637
 31
0.0
  0
LINE
  5
69DE9
  8
U3
 10
11903.000000000009
 20
6277.4291594232991
 30
0.0
 11
11903.000000000009
 21
9437.7937119313174
 31
0.0
  0
LINE
  5
69DEA
  8
U3
 10
16854.500000000011
 20
6277.4291594232991
 30
0.0
 11
11245.0
 21
6277.4291594232991
 31
0.0
  0
LINE
  5
69DEB
  8
1PL-M1
 10
16816.000000000011
 20
4437.4291594232982
 30
0.0
 11
16816.000000000011
 21
6777.4291594232982
 31
0.0
  0
LINE
  5
69DEC
  8
1PL-M1
 10
11316.000000000009
 20
4437.4291594232982
 30
0.0
 11
11316.000000000009
 21
6777.4291594232982
 31
0.0
  0
LINE
  5
69DED
  8
U1
 10
11196.499999999951
 20
6277.4291594232991
 30
0.0
 11
11196.499999999951
 21
5977.4291594232982
 31
0.0
  0
LINE
  5
69DEE
  8
U1
 10
16935.999999999949
 20
6277.4291594232991
 30
0.0
 11
11196.499999999951
 21
6277.4291594232991
 31
0.0
  0
LINE
  5
69DEF
  8
U1
 10
16936.000000000011
 20
6267.4291594232982
 30
0.0
 11
16936.000000000011
 21
6277.4291594232991
 31
0.0
  0
LINE
  5
69DF0
  8
U1
 10
16936.000000000011
 20
5977.4291594232982
 30
0.0
 11
16936.000000000011
 21
6277.4291594232991
 31
0.0
  0
LINE
  5
69DF1
  8
U1
 10
16925.726345596671
 20
8885.3028138265563
 30
0.0
 11
16924.09999999998
 21
8886.9291594232982
 31
0.0
  0
LINE
  5
69DF2
  8
U1
 10
17002.726345596959
 20
8962.3028138267891
 30
0.0
 11
16925.726345596719
 21
8885.3028138265854
 31
0.0
  0
ARC
  5
69DF3
  8
U1
 10
16893.73402719247
 20
8881.9291594232982
 30
0.0
 40
5.0
 50
90.0
 51
145.56101069121851
  0
LINE
  5
69DF4
  8
U1
 10
16889.61038293329
 20
8884.7568012010506
 30
0.0
 11
16868.58961706662
 21
8854.1015176455458
 31
0.0
  0
LINE
  5
69DF5
  8
U1
 10
16924.09999999998
 20
8886.9291594232982
 30
0.0
 11
16893.73402719247
 21
8886.9291594232982
 31
0.0
  0
ARC
  5
69DF6
  8
U1
 10
16864.465972807378
 20
8856.9291594232982
 30
0.0
 40
5.0
 50
270.0
 51
325.5610106912186
  0
LINE
  5
69DF7
  8
U1
 10
16864.465972807378
 20
8851.9291594232964
 30
0.0
 11
16859.09999999998
 21
8851.9291594232964
 31
0.0
  0
LINE
  5
69DF8
  8
U1
 10
22273.499999999942
 20
9355.4291594233273
 30
0.0
 11
22273.499999999942
 21
5977.4291594232982
 31
0.0
  0
LINE
  5
69DF9
  8
U1
 10
22358.499999999942
 20
5977.4291594232982
 30
0.0
 11
22358.499999999942
 21
9358.2497099516258
 31
0.0
  0
LINE
  5
69DFA
  8
U1
 10
19523.499999999942
 20
9355.4291594232982
 30
0.0
 11
19523.499999999942
 21
5977.4291594232982
 31
0.0
  0
LINE
  5
69DFB
  8
U1
 10
19608.499999999942
 20
5977.4291594232982
 30
0.0
 11
19608.499999999942
 21
9355.4291594233273
 31
0.0
  0
LINE
  5
69DFC
  8
1PL-M1
 10
19565.999999999942
 20
5199.0118654086818
 30
0.0
 11
19565.999999999942
 21
6783.4291594232982
 31
0.0
  0
LINE
  5
69DFD
  8
1PL-M1
 10
22315.999999999942
 20
4443.4291594232982
 30
0.0
 11
22315.999999999942
 21
6783.4291594232982
 31
0.0
  0
ARC
  5
69DFE
  8
U1
 10
16871.59999999998
 20
9006.9558895435384
 30
0.0
 40
5.0
 50
180.0
 51
270.0
  0
LINE
  5
69DFF
  8
U1
 10
17008.599999999919
 20
8961.9558895435384
 30
0.0
 11
17008.599999999919
 21
9355.4291594232982
 31
0.0
  0
LINE
  5
69E00
  8
U1
 10
16866.59999999998
 20
9006.9558895435384
 30
0.0
 11
16866.59999999998
 21
9355.4451851055419
 31
0.0
  0
ARC
  5
69E01
  8
U1
 10
19570.99999999988
 20
9360.4291594233273
 30
0.0
 40
5.0
 50
180.0
 51
270.0
  0
LINE
  5
69E02
  8
U1
 10
19611.99999999988
 20
9355.4291594233273
 30
0.0
 11
19611.99999999988
 21
9352.4291594233273
 31
0.0
  0
LINE
  5
69E03
  8
U1
 10
19611.99999999988
 20
9352.4291594233273
 30
0.0
 11
22268.99999999988
 21
9352.4291594233273
 31
0.0
  0
LINE
  5
69E04
  8
U1
 10
22268.99999999988
 20
9355.4291594233273
 30
0.0
 11
22353.99999999988
 21
9355.4291594233273
 31
0.0
  0
LINE
  5
69E05
  8
U1
 10
22358.99999999988
 20
9360.4291594233273
 30
0.0
 11
22358.99999999988
 21
9463.5946121493089
 31
0.0
  0
ARC
  5
69E06
  8
U1
 10
22353.99999999988
 20
9360.4291594233273
 30
0.0
 40
5.0
 50
270.0
 51
0.0
  0
LINE
  5
69E07
  8
U1
 10
22268.99999999988
 20
9352.4291594233273
 30
0.0
 11
22268.99999999988
 21
9355.4291594233273
 31
0.0
  0
LINE
  5
69E08
  8
U1
 10
19570.99999999988
 20
9355.4291594233273
 30
0.0
 11
19611.99999999988
 21
9355.4291594233273
 31
0.0
  0
LINE
  5
69E09
  8
U1
 10
17011.999999999949
 20
9352.4291594232982
 30
0.0
 11
19520.499999999942
 21
9352.4291594232982
 31
0.0
  0
LINE
  5
69E0A
  8
U1
 10
19520.499999999942
 20
9355.4291594232982
 30
0.0
 11
19560.999999999942
 21
9355.4291594232982
 31
0.0
  0
LINE
  5
69E0B
  8
U1
 10
19565.999999999942
 20
9360.4291594232982
 30
0.0
 11
19565.99999999988
 21
9526.0946121624056
 31
0.0
  0
ARC
  5
69E0C
  8
U1
 10
19560.999999999942
 20
9360.4291594232982
 30
0.0
 40
5.0
 50
270.0
 51
0.0
  0
LINE
  5
69E0D
  8
U1
 10
19520.499999999942
 20
9352.4291594232982
 30
0.0
 11
19520.499999999942
 21
9355.4291594232982
 31
0.0
  0
LINE
  5
69E0E
  8
U1
 10
17011.999999999949
 20
9355.4291594232982
 30
0.0
 11
17011.999999999949
 21
9352.4291594232982
 31
0.0
  0
LINE
  5
69E0F
  8
U1
 10
16866.999999999949
 20
9355.4291594232982
 30
0.0
 11
17011.999999999949
 21
9355.4291594232982
 31
0.0
  0
LINE
  5
69E10
  8
U1
 10
22658.478566648319
 20
9634.9199576279407
 30
0.0
 11
22603.492941755801
 21
9636.1773577944186
 31
0.0
  0
LINE
  5
69E11
  8
U1
 10
22667.858683819821
 20
9607.6983962868017
 30
0.0
 11
22665.81348290859
 21
9605.7446426603929
 31
0.0
  0
LINE
  5
69E12
  8
U1
 10
22665.584864696491
 20
9595.7472563163228
 30
0.0
 11
22663.53966378525
 21
9593.7935026898813
 31
0.0
  0
LINE
  5
69E13
  8
U1
 10
22665.81348290859
 20
9605.7446426603929
 30
0.0
 11
22665.584864696491
 21
9595.7472563163228
 31
0.0
  0
LINE
  5
69E14
  8
U1
 10
22663.311045573151
 20
9583.7961163457858
 30
0.0
 11
22667.218552825969
 21
9579.7057145233193
 31
0.0
  0
LINE
  5
69E15
  8
U1
 10
22663.53966378525
 20
9593.7935026898813
 30
0.0
 11
22663.311045573151
 21
9583.7961163457858
 31
0.0
  0
LINE
  5
69E16
  8
U1
 10
22665.663948983831
 20
9511.7234873834459
 30
0.0
 11
22663.618748072589
 21
9509.7697337570917
 31
0.0
  0
LINE
  5
69E17
  8
U1
 10
22663.618748072589
 20
9509.7697337570917
 30
0.0
 11
22663.390129860491
 21
9499.7723474129652
 31
0.0
  0
LINE
  5
69E18
  8
U1
 10
22661.34492894926
 20
9497.8185937865837
 30
0.0
 11
22661.11631073715
 21
9487.8212074424573
 31
0.0
  0
LINE
  5
69E19
  8
U1
 10
22661.11631073715
 20
9487.8212074424573
 30
0.0
 11
22665.023817989979
 21
9483.730805619989
 31
0.0
  0
LINE
  5
69E1A
  8
U1
 10
22663.390129860491
 20
9499.7723474129652
 30
0.0
 11
22661.34492894926
 21
9497.8185937865837
 31
0.0
  0
LINE
  5
69E1B
  8
U1
 10
22665.663948983831
 20
9511.7234873834459
 30
0.0
 11
22667.218552825969
 21
9579.7057145233193
 31
0.0
  0
LINE
  5
69E1C
  8
U1
 10
22667.858683819821
 20
9607.6983962868017
 30
0.0
 11
22668.24733478035
 21
9624.6939530717409
 31
0.0
  0
LINE
  5
69E1D
  8
U1
 10
22654.40916247329
 20
9456.9664807030276
 30
0.0
 11
22618.418571634571
 21
9457.7895062665248
 31
0.0
  0
ARC
  5
69E1E
  8
U1
 10
22654.637780685331
 20
9466.9638670471231
 30
0.0
 40
10.0
 50
268.69000000003967
 51
358.69000000171462
  0
LINE
  5
69E1F
  8
U1
 10
22665.023817989979
 20
9483.730805619989
 30
0.0
 11
22664.635167029461
 21
9466.7352488350498
 31
0.0
  0
LINE
  5
69E20
  8
U1
 10
22658.478566648319
 20
9634.9199576279407
 30
0.0
 11
22603.492941755801
 21
9636.1773577944186
 31
0.0
  0
LINE
  5
69E21
  8
U1
 10
22667.858683819821
 20
9607.6983962868017
 30
0.0
 11
22665.81348290859
 21
9605.7446426603929
 31
0.0
  0
LINE
  5
69E22
  8
U1
 10
22665.584864696491
 20
9595.7472563163228
 30
0.0
 11
22663.53966378525
 21
9593.7935026898813
 31
0.0
  0
LINE
  5
69E23
  8
U1
 10
22665.81348290859
 20
9605.7446426603929
 30
0.0
 11
22665.584864696491
 21
9595.7472563163228
 31
0.0
  0
LINE
  5
69E24
  8
U1
 10
22663.311045573151
 20
9583.7961163457858
 30
0.0
 11
22667.218552825969
 21
9579.7057145233193
 31
0.0
  0
LINE
  5
69E25
  8
U1
 10
22663.53966378525
 20
9593.7935026898813
 30
0.0
 11
22663.311045573151
 21
9583.7961163457858
 31
0.0
  0
LINE
  5
69E26
  8
U1
 10
22665.663948983831
 20
9511.7234873834459
 30
0.0
 11
22663.618748072589
 21
9509.7697337570917
 31
0.0
  0
LINE
  5
69E27
  8
U1
 10
22663.618748072589
 20
9509.7697337570917
 30
0.0
 11
22663.390129860491
 21
9499.7723474129652
 31
0.0
  0
LINE
  5
69E28
  8
U1
 10
22661.34492894926
 20
9497.8185937865837
 30
0.0
 11
22661.11631073715
 21
9487.8212074424573
 31
0.0
  0
LINE
  5
69E29
  8
U1
 10
22661.11631073715
 20
9487.8212074424573
 30
0.0
 11
22665.023817989979
 21
9483.730805619989
 31
0.0
  0
LINE
  5
69E2A
  8
U1
 10
22663.390129860491
 20
9499.7723474129652
 30
0.0
 11
22661.34492894926
 21
9497.8185937865837
 31
0.0
  0
LINE
  5
69E2B
  8
U1
 10
22665.663948983831
 20
9511.7234873834459
 30
0.0
 11
22667.218552825969
 21
9579.7057145233193
 31
0.0
  0
LINE
  5
69E2C
  8
U1
 10
22667.858683819821
 20
9607.6983962868017
 30
0.0
 11
22668.24733478035
 21
9624.6939530717409
 31
0.0
  0
ARC
  5
69E2D
  8
U1
 10
22658.249948436282
 20
9624.9225712838434
 30
0.0
 40
10.0
 50
358.69000000171462
 51
88.690000000039674
  0
LINE
  5
69E2E
  8
U1
 10
22654.40916247329
 20
9456.9664807030276
 30
0.0
 11
22618.418571634571
 21
9457.7895062665248
 31
0.0
  0
ARC
  5
69E2F
  8
U1
 10
22654.637780685331
 20
9466.9638670471231
 30
0.0
 40
10.0
 50
268.69000000003967
 51
358.69000000171462
  0
LINE
  5
69E30
  8
U1
 10
22665.023817989979
 20
9483.730805619989
 30
0.0
 11
22664.635167029461
 21
9466.7352488350498
 31
0.0
  0
LINE
  5
69E31
  8
U1
 10
23568.638166163058
 20
5977.4291594232982
 30
0.0
 11
10688.732849195079
 21
5977.4291594232982
 31
0.0
  0
LINE
  5
69E32
  8
U1
 10
19569.593520646271
 20
9704.0587594995959
 30
0.0
 11
22640.824662335799
 21
9635.3326777252005
 31
0.0
  0
LINE
  5
69E33
  8
U1
 10
22636.842487024671
 20
9457.377227458046
 30
0.0
 11
22640.824662335799
 21
9635.3326777252005
 31
0.0
  0
LINE
  5
69E34
  8
U1
 10
19568.989482818171
 20
9677.0655170433074
 30
0.0
 11
22667.859199724331
 21
9607.7209565896082
 31
0.0
  0
LINE
  5
69E35
  8
U1
 10
19568.944739275321
 20
9675.0660176021265
 30
0.0
 11
22665.835567188569
 21
9605.7657394835769
 31
0.0
  0
LINE
  5
69E36
  8
U1
 10
19568.721021561239
 20
9665.0685203960948
 30
0.0
 11
22665.585358155418
 21
9595.7688350836306
 31
0.0
  0
LINE
  5
69E37
  8
U1
 10
19568.676278018389
 20
9663.0690209548848
 30
0.0
 11
22663.560743591752
 21
9593.813639952763
 31
0.0
  0
LINE
  5
69E38
  8
U1
 10
19568.452560304311
 20
9653.0715237488548
 30
0.0
 11
22663.31151658652
 21
9583.8167135776512
 31
0.0
  0
LINE
  5
69E39
  8
U1
 10
19568.36307321861
 20
9649.0725248664585
 30
0.0
 11
22667.19652251236
 21
9579.7287759866067
 31
0.0
  0
LINE
  5
69E3A
  8
U1
 10
19566.21538316318
 20
9553.0965516886681
 30
0.0
 11
22665.001798937159
 21
9483.7538552953538
 31
0.0
  0
LINE
  5
69E3B
  8
U1
 10
19566.30487024883
 20
9557.0955505710645
 30
0.0
 11
22661.116781486839
 21
9487.8417931442873
 31
0.0
  0
LINE
  5
69E3C
  8
U1
 10
19566.528587962908
 20
9567.0930477770944
 30
0.0
 11
22661.365996956301
 21
9497.8387197775792
 31
0.0
  0
LINE
  5
69E3D
  8
U1
 10
19566.573331505759
 20
9569.0925472183062
 30
0.0
 11
22663.39062305569
 21
9499.7939146502958
 31
0.0
  0
LINE
  5
69E3E
  8
U1
 10
19566.797049219829
 20
9579.0900444243089
 30
0.0
 11
22663.640820553061
 21
9509.7908193083622
 31
0.0
  0
LINE
  5
69E3F
  8
U1
 10
19566.841792762691
 20
9581.0895438655207
 30
0.0
 11
22665.66446462466
 21
9511.7460361562462
 31
0.0
  0
LINE
  5
69E40
  8
U1
 10
19565.611345335081
 20
9526.1033092324124
 30
0.0
 11
22636.842487024671
 21
9457.377227458046
 31
0.0
  0
LINE
  5
69E41
  8
U1
 10
19565.611345335081
 20
9526.1033092324124
 30
0.0
 11
19569.593520646271
 21
9704.0587594995959
 31
0.0
  0
LINE
  5
69E42
  8
U1
 10
19569.593520646271
 20
9704.0587594995959
 30
0.0
 11
16909.25951412414
 21
9763.5900432251146
 31
0.0
  0
LINE
  5
69E43
  8
U1
 10
19568.989482818171
 20
9677.0655170433383
 30
0.0
 11
16873.65571412287
 21
9737.3800034671658
 31
0.0
  0
LINE
  5
69E44
  8
U1
 10
19568.944739275321
 20
9675.0660176021265
 30
0.0
 11
16875.608889918021
 21
9735.3357958416946
 31
0.0
  0
LINE
  5
69E45
  8
U1
 10
19568.721021561239
 20
9665.0685203960948
 30
0.0
 11
16875.382965647212
 21
9725.3383480126122
 31
0.0
  0
LINE
  5
69E46
  8
U1
 10
19568.676278018389
 20
9663.0690209549139
 30
0.0
 11
16877.335511112298
 21
9723.2941544922578
 31
0.0
  0
LINE
  5
69E47
  8
U1
 10
19568.452560304249
 20
9653.0715237488821
 30
0.0
 11
16877.11021717155
 21
9713.2966925580604
 31
0.0
  0
LINE
  5
69E48
  8
U1
 10
19568.36307321861
 20
9649.0725248664585
 30
0.0
 11
16873.02016145888
 21
9709.3872158880604
 31
0.0
  0
LINE
  5
69E49
  8
U1
 10
19566.215383163129
 20
9553.0965516886681
 30
0.0
 11
16870.84217254434
 21
9613.4119207191015
 31
0.0
  0
LINE
  5
69E4A
  8
U1
 10
19566.304870248769
 20
9557.0955505710936
 30
0.0
 11
16874.932233039592
 21
9617.3213972820886
 31
0.0
  0
LINE
  5
69E4B
  8
U1
 10
19566.528587962908
 20
9567.0930477771235
 30
0.0
 11
16875.157531759942
 21
9627.3188591093567
 31
0.0
  0
LINE
  5
69E4C
  8
U1
 10
19566.5733315057
 20
9569.0925472183062
 30
0.0
 11
16873.20498151525
 21
9629.3630527366386
 31
0.0
  0
LINE
  5
69E4D
  8
U1
 10
19566.797049219829
 20
9579.0900444243362
 30
0.0
 11
16873.430910565599
 21
9639.3605004587353
 31
0.0
  0
LINE
  5
69E4E
  8
U1
 10
19566.841792762629
 20
9581.089543865548
 30
0.0
 11
16871.477729990911
 21
9641.4047081911904
 31
0.0
  0
LINE
  5
69E4F
  8
U1
 10
19565.611345335081
 20
9526.1033092324124
 30
0.0
 11
16905.27733881295
 21
9585.6345929579602
 31
0.0
  0
LINE
  5
69E50
  8
U1
 10
19565.611345335081
 20
9526.1033092324124
 30
0.0
 11
19569.593520646271
 21
9704.0587594995959
 31
0.0
  0
ARC
  5
69E51
  8
TOI
 10
22456.19999999995
 20
9389.3847704690033
 30
0.0
 40
50.0
 50
100.00000000048129
 51
180.0
  0
ARC
  5
69E52
  8
TOI
 10
22555.304663670478
 20
9444.7350092115721
 30
0.0
 40
50.0
 50
280.00000000048141
 51
0.0
  0
LINE
  5
69E53
  8
TOI
 10
22535.996249349959
 20
9390.5590842178699
 30
0.0
 11
22525.108508610221
 21
9452.3065303317453
 31
0.0
  0
LINE
  5
69E54
  8
TOI
 10
22563.987072553831
 20
9395.494621560958
 30
0.0
 11
22466.199999999961
 21
9378.252122305179
 31
0.0
  0
LINE
  5
69E55
  8
TOI
 10
22447.51759111619
 20
9438.6251581195593
 30
0.0
 11
22544.80466367042
 21
9455.7794938850766
 31
0.0
  0
LINE
  5
69E56
  8
TOI
 10
22605.304663670478
 20
9456.7794938851057
 30
0.0
 11
22605.304663670478
 21
9444.7350092115721
 31
0.0
  0
LINE
  5
69E57
  8
U1
 10
16776.089999999909
 20
6277.4291594232991
 30
0.0
 11
16776.089999999909
 21
9838.9623459376944
 31
0.0
  0
LINE
  5
69E58
  8
U1
 10
17060.66496690701
 20
9760.1541728521042
 30
0.0
 11
16862.316033217419
 21
9764.6553398329343
 31
0.0
  0
LINE
  5
69E59
  8
U1
 10
17060.678579307169
 20
9760.7540184178415
 30
0.0
 11
16862.329645617519
 21
9765.2551853985551
 31
0.0
  0
ARC
  5
69E5A
  8
U1
 10
16862.352332951159
 20
9766.2549280078583
 30
0.0
 40
1.0
 50
178.69999999972319
 51
268.69999999971361
  0
ARC
  5
69E5B
  8
U1
 10
16862.352332951159
 20
9766.2549280078583
 30
0.0
 40
1.6000000000000001
 50
178.69999999972319
 51
268.69999999971361
  0
LINE
  5
69E5C
  8
U1
 10
16861.397065049739
 20
9794.6839178462906
 30
0.0
 11
16860.752744776259
 21
9766.2912277415944
 31
0.0
  0
LINE
  5
69E5D
  8
U1
 10
17060.678579307169
 20
9760.7540184178415
 30
0.0
 11
17060.66496690701
 21
9760.1541728521042
 31
0.0
  0
LINE
  5
69E5E
  8
U1
 10
16861.996910615249
 20
9794.6703054461595
 30
0.0
 11
16861.352590341819
 21
9766.2776153414361
 31
0.0
  0
LINE
  5
69E5F
  8
U1
 10
16861.996910615249
 20
9794.6703054461595
 30
0.0
 11
16861.397065049739
 21
9794.6839178462906
 31
0.0
  0
LINE
  5
69E60
  8
U1
 10
16874.063773912381
 20
9755.3753712428934
 30
0.0
 11
16873.655401907981
 21
9737.3800042750881
 31
0.0
  0
ARC
  5
69E61
  8
U1
 10
16884.039075555342
 20
9754.1598004713505
 30
0.0
 40
10.0
 50
88.699999999713626
 51
178.69999999972319
  0
LINE
  5
69E62
  8
U1
 10
16873.431528435969
 20
9639.3598538943261
 30
0.0
 11
16871.477417884518
 21
9641.4047137801172
 31
0.0
  0
LINE
  5
69E63
  8
U1
 10
16873.204655100191
 20
9629.3624278010884
 30
0.0
 11
16873.431528435969
 21
9639.3598538943261
 31
0.0
  0
LINE
  5
69E64
  8
U1
 10
16875.1587656517
 20
9627.3175679152973
 30
0.0
 11
16873.204655100191
 21
9629.3624278010884
 31
0.0
  0
LINE
  5
69E65
  8
U1
 10
16874.931892315919
 20
9617.3201418220615
 30
0.0
 11
16875.1587656517
 21
9627.3175679152973
 31
0.0
  0
LINE
  5
69E66
  8
U1
 10
16870.84217254434
 20
9613.4119207190724
 30
0.0
 11
16874.931892315919
 21
9617.3201418220615
 31
0.0
  0
LINE
  5
69E67
  8
U1
 10
16871.477417884518
 20
9641.4047137801172
 30
0.0
 11
16873.020156567811
 21
9709.3872112140434
 31
0.0
  0
LINE
  5
69E68
  8
U1
 10
16905.19823060296
 20
9584.6250639009122
 30
0.0
 11
16909.25951412414
 21
9763.5900432251146
 31
0.0
  0
LINE
  5
69E69
  8
U1
 10
16909.25951412414
 20
9763.5900432251146
 30
0.0
 11
16884.265948891119
 21
9764.1572265645573
 31
0.0
  0
LINE
  5
69E6A
  8
U1
 10
16870.43380053994
 20
9595.4165537512945
 30
0.0
 11
16870.84217254434
 21
9613.4119207190724
 31
0.0
  0
LINE
  5
69E6B
  8
U1
 10
16877.109876339389
 20
9713.2954323170325
 30
0.0
 11
16877.33674967516
 21
9723.2928584102683
 31
0.0
  0
LINE
  5
69E6C
  8
U1
 10
16873.020156567811
 20
9709.3872112140434
 30
0.0
 11
16877.109876339389
 21
9713.2954323170325
 31
0.0
  0
LINE
  5
69E6D
  8
U1
 10
16875.382639123662
 20
9725.3377182960594
 30
0.0
 11
16875.609512459429
 21
9735.3351443892952
 31
0.0
  0
LINE
  5
69E6E
  8
U1
 10
16877.33674967516
 20
9723.2928584102683
 30
0.0
 11
16875.382639123662
 21
9725.3377182960594
 31
0.0
  0
LINE
  5
69E6F
  8
U1
 10
16875.609512459429
 20
9735.3351443892952
 30
0.0
 11
16873.655401907981
 21
9737.3800042750881
 31
0.0
  0
ARC
  5
69E70
  8
U1
 10
16880.431226633151
 20
9595.1896804155167
 30
0.0
 40
10.0
 50
178.69999999972319
 51
268.69999999971361
  0
LINE
  5
69E71
  8
U1
 10
16905.197918530441
 20
9584.6250709828364
 30
0.0
 11
16880.204353297369
 21
9585.1922543222809
 31
0.0
  0
LINE
  5
69E72
  8
TOI
 10
22471.19999999995
 20
6371.4886956308237
 30
0.0
 11
22471.19999999995
 21
6381.4886956308237
 31
0.0
  0
LINE
  5
69E73
  8
TOI
 10
22361.199999999961
 20
6381.4886956308237
 30
0.0
 11
22471.19999999995
 21
6381.4886956308237
 31
0.0
  0
LINE
  5
69E74
  8
TOI
 10
22361.199999999961
 20
6371.4886956308237
 30
0.0
 11
22471.19999999995
 21
6371.4886956308237
 31
0.0
  0
LINE
  5
69E75
  8
TOI
 10
22466.199999999899
 20
9350.2521223051772
 30
0.0
 11
22406.199999999899
 21
9350.2521223051772
 31
0.0
  0
LINE
  5
69E76
  8
TOI
 10
22494.190823203771
 20
9383.1876596482671
 30
0.0
 11
22483.303082464088
 21
9444.9351057621152
 31
0.0
  0
LINE
  5
69E77
  8
TOI
 10
22361.199999999961
 20
8950.2521223051772
 30
0.0
 11
22471.19999999995
 21
8950.2521223051772
 31
0.0
  0
LINE
  5
69E78
  8
TOI
 10
22361.199999999961
 20
8960.252122305179
 30
0.0
 11
22471.19999999995
 21
8960.252122305179
 31
0.0
  0
LINE
  5
69E79
  8
TOI
 10
22471.19999999995
 20
8950.2521223051772
 30
0.0
 11
22471.19999999995
 21
8960.252122305179
 31
0.0
  0
LINE
  5
69E7A
  8
TOI
 10
22471.19999999995
 20
7660.8704089680014
 30
0.0
 11
22471.19999999995
 21
7670.8704089680014
 31
0.0
  0
LINE
  5
69E7B
  8
TOI
 10
22361.199999999961
 20
7670.8704089680014
 30
0.0
 11
22471.19999999995
 21
7670.8704089680014
 31
0.0
  0
LINE
  5
69E7C
  8
TOI
 10
22361.199999999961
 20
7660.8704089680014
 30
0.0
 11
22471.19999999995
 21
7660.8704089680014
 31
0.0
  0
LINE
  5
69E7D
  8
TOI
 10
22466.199999999961
 20
6017.4291594232982
 30
0.0
 11
22466.199999999899
 21
9378.252122305179
 31
0.0
  0
LINE
  5
69E7E
  8
TOI
 10
22406.19999999995
 20
6017.4291594232982
 30
0.0
 11
22466.199999999961
 21
6017.4291594232982
 31
0.0
  0
LINE
  5
69E7F
  8
TOI
 10
22406.19999999995
 20
6017.4291594232982
 30
0.0
 11
22406.19999999995
 21
9389.3847704690033
 31
0.0
  0
TEXT
  5
69E80
  8
HIKIDASHI
 10
12075.197591624001
 20
5517.4291594232982
 30
0.0
 40
160.0
  1
壁 ヨドサイディング
  7
01
  0
LINE
  5
69E81
  8
HIKIDASHI
 10
12058.721899763919
 20
5477.4291594232982
 30
0.0
 11
14603.64933592687
 21
5477.4291594232982
 31
0.0
  0
TEXT
  5
69E82
  8
HIKIDASHI
 10
12384.656784468691
 20
10289.010111804249
 30
0.0
 40
160.0
  1
型断熱材付
  7
01
  0
LINE
  5
69E83
  8
HIKIDASHI
 10
11090.75424865168
 20
10489.01011180426
 30
0.0
 11
14046.549949738201
 21
10489.01011180426
 31
0.0
  0
TEXT
  5
69E84
  8
HIKIDASHI
 10
11150.1075759827
 20
10529.01011180426
 30
0.0
 40
160.0
  1
屋根板
  7
01
  0
TEXT
  5
69E85
  8
HIKIDASHI
 10
11150.1075759827
 20
10289.010111804249
 30
0.0
 40
160.0
  1
ヨドルーフ
  7
01
  0
TEXT
  5
69E86
  8
HIKIDASHI
 10
12134.221281282489
 20
10289.010111804249
 30
0.0
 40
160.0
  1
88
 41
0.6700000000000002
  7
00
  0
TEXT
  5
69E88
  8
HIKIDASHI
 10
14235.65870647436
 20
5517.4291594232982
 30
0.0
 40
160.0
  1
0.4
 41
0.6700000000000002
  7
00
  0
TEXT
  5
69E89
  8
HIKIDASHI
 10
13832.05608062319
 20
5517.4291594232982
 30
0.0
 40
160.0
  1
（
  7
01
  0
TEXT
  5
69E8A
  8
HIKIDASHI
 10
14016.36062341562
 20
5537.4291594232982
 30
0.0
 40
120.0
  1
ア
  7
01
  0
CIRCLE
  5
69E8B
  8
HIKIDASHI
 10
14067.738635845601
 20
5597.4291594232982
 30
0.0
 40
80.0
  0
LINE
  5
69E8C
  8
HIKIDASHI
 10
15101.251031059541
 20
6419.163292012342
 30
0.0
 11
14603.64933592687
 21
5477.4291594232982
 31
0.0
  0
TEXT
  5
69E8D
  8
HIKIDASHI
 10
14496.81334673102
 20
5517.4291594232982
 30
0.0
 40
160.0
  1
）
  7
01
  0
LINE
  5
69E8E
  8
HIKIDASHI
 10
14572.554262618711
 20
9960.9087131196502
 30
0.0
 11
14046.549949738201
 21
10489.01011180426
 31
0.0
  0
TEXT
  5
69E8F
  8
HIKIDASHI
 10
13274.956694434461
 20
10289.010111804249
 30
0.0
 40
160.0
  1
（
  7
01
  0
TEXT
  5
69E90
  8
HIKIDASHI
 10
13459.26123722696
 20
10309.010111804249
 30
0.0
 40
120.0
  1
ア
  7
01
  0
CIRCLE
  5
69E91
  8
HIKIDASHI
 10
13510.639249656881
 20
10369.010111804249
 30
0.0
 40
80.0
  0
TEXT
  5
69E92
  8
HIKIDASHI
 10
13657.49950437493
 20
10289.010111804249
 30
0.0
 40
160.0
  1
0.5
 41
0.6700000000000002
  7
00
  0
TEXT
  5
69E93
  8
HIKIDASHI
 10
13939.713960542291
 20
10289.010111804249
 30
0.0
 40
160.0
  1
）
  7
01
  0
TEXT
  5
69E95
  8
HIKIDASHI
 10
18225.461093499041
 20
3472.726380684695
 30
0.0
 40
160.0
  1
80
 41
0.6700000000000002
  7
00
  0
TEXT
  5
69E96
  8
HIKIDASHI
 10
18066.5965082451
 20
3556.184998581642
 30
0.0
 40
160.0
  1
1
 41
0.6700000000000002
  7
00
  0
TEXT
  5
69E97
  8
HIKIDASHI
 10
18132.870783973722
 20
3525.0620430852491
 30
0.0
 40
160.0
  1
/
 41
0.6700000000000002
  7
00
  0
TEXT
  5
69E98
  8
HIKIDASHI
 10
18468.31400562387
 20
3525.0620430852491
 30
0.0
 40
160.0
  1
)
 41
0.6700000000000002
  7
00
  0
TEXT
  5
69E99
  8
HIKIDASHI
 10
17705.18067636976
 20
3525.0620430852491
 30
0.0
 40
160.0
  1
(S=
 41
0.6700000000000002
  7
00
  0
TEXT
  5
69E9A
  8
HIKIDASHI
 10
15578.287844235019
 20
3477.4291594232982
 30
0.0
 40
240.0
  1
側 面 立 面 図
  7
01
  0
CIRCLE
  5
69E9B
  8
SUNPOU
 10
11316.000000000009
 20
4237.4291594232991
 30
0.0
 40
200.0
  0
TEXT
  5
69E9C
  8
SUNPOU
 10
11235.600000000009
 20
4117.4291594232982
 30
0.0
 40
240.0
  1
C
 41
0.6700000000000002
  7
00
 72
     4
 11
11316.000000000009
 21
4237.4291594232991
 31
0.0
  0
LINE
  5
69E9D
  8
SUNPOU
 10
10118.352697041881
 20
9497.4291594232982
 30
0.0
 11
10118.352697041881
 21
6317.4291594232982
 31
0.0
  0
LINE
  5
69E9E
  8
SUNPOU
 10
11146.700000000021
 20
6277.4291594232991
 30
0.0
 11
9998.3526970418825
 21
6277.4291594232991
 31
0.0
  0
TEXT
  5
69EA0
  8
SUNPOU
 10
10038.352697041881
 20
7718.5529689471214
 30
0.0
 40
160.0
  1
3260
 50
90.0
 41
0.6700000000000002
  7
00
  0
LINE
  5
69EA1
  8
SUNPOU
 10
10838.352697041881
 20
9537.4291594232982
 30
0.0
 11
9998.3526970418825
 21
9537.4291594232982
 31
0.0
  0
CIRCLE
  5
69EA3
  8
SUNPOU
 10
16816.000000000011
 20
4237.4291594232991
 30
0.0
 40
200.0
  0
TEXT
  5
69EA4
  8
SUNPOU
 10
16747.08571428572
 20
4117.4291594232982
 30
0.0
 40
240.0
  1
A
 41
0.6700000000000002
  7
00
 72
     4
 11
16816.000000000011
 21
4237.4291594232991
 31
0.0
  0
LINE
  5
69EA5
  8
SUNPOU
 10
18049.753093279211
 20
10017.4291594233
 30
0.0
 11
18049.753093279211
 21
6317.4291594232982
 31
0.0
  0
TEXT
  5
69EA7
  8
SUNPOU
 10
17969.753093279211
 20
7981.5529689471196
 30
0.0
 40
160.0
  1
3780
 50
90.0
 41
0.6700000000000002
  7
00
  0
LINE
  5
69EA8
  8
SUNPOU
 10
17314.985027643332
 20
10057.4291594233
 30
0.0
 11
18169.753093279211
 21
10057.4291594233
 31
0.0
  0
LINE
  5
69EAA
  8
SUNPOU
 10
10859.764071801101
 20
10736.66532173347
 30
0.0
 11
17096.66611107282
 21
11250.101737006409
 31
0.0
  0
LINE
  5
69EAB
  8
SUNPOU
 10
17228.421442916329
 20
10137.15945075309
 30
0.0
 11
17126.685879647161
 21
11372.978966364601
 31
0.0
  0
TEXT
  5
69EAD
  8
SUNPOU
 10
13783.412085560851
 20
11057.61750971079
 30
0.0
 40
160.0
  1
6338
 50
4.7061111437861802
 41
0.6700000000000002
  7
00
  0
LINE
  5
69EAE
  8
SUNPOU
 10
10911.78911231482
 20
9617.1594507530881
 30
0.0
 11
10810.05354904564
 21
10852.978966364601
 31
0.0
  0
LINE
  5
69EB0
  8
SUNPOU
 10
16340.07051099837
 20
10492.544132848379
 30
0.0
 11
14740.07051099837
 21
10492.544132848379
 31
0.0
  0
LINE
  5
69EB1
  8
SUNPOU
 10
14740.07051099837
 20
10360.82837729152
 30
0.0
 11
16340.07051099837
 21
10492.544132848379
 31
0.0
  0
TEXT
  5
69EB2
  8
SUNPOU
 10
15381.91238300998
 20
10561.559910028611
 30
0.0
 40
160.0
  1
12
 41
0.6700000000000002
  7
00
  0
TEXT
  5
69EB3
  8
SUNPOU
 10
14581.52415796533
 20
10336.479591799631
 30
0.0
 40
160.0
  1
1
 41
0.6700000000000002
  7
00
  0
LINE
  5
69EB4
  8
SUNPOU
 10
14740.07051099837
 20
10492.544132848379
 30
0.0
 11
14740.07051099837
 21
10360.82837729152
 31
0.0
  0
TEXT
  5
69EB5
  8
SUNPOU
 10
22197.714285714232
 20
4128.4291594232982
 30
0.0
 40
230.0
  1
A0
 41
0.6
  7
00
 72
     4
 11
22315.999999999942
 21
4243.4291594232982
 31
0.0
  0
CIRCLE
  5
69EB6
  8
SUNPOU
 10
22315.999999999942
 20
4243.4291594232982
 30
0.0
 40
200.0
  0
LINE
  5
69EBA
  8
SUNPOU
 10
17674.461403175032
 20
10439.20456420856
 30
0.0
 11
18794.461403175032
 21
10439.20456420856
 31
0.0
  0
LINE
  5
69EBB
  8
SUNPOU
 10
18794.461403175032
 20
10414.14190756198
 30
0.0
 11
17674.461403175032
 21
10439.20456420856
 31
0.0
  0
TEXT
  5
69EBC
  8
SUNPOU
 10
18188.038723776361
 20
10508.220341388789
 30
0.0
 40
160.0
  1
44
 41
0.6700000000000002
  7
00
  0
TEXT
  5
69EBD
  8
SUNPOU
 10
18866.226803827121
 20
10335.596362988481
 30
0.0
 40
160.0
  1
1
 41
0.6700000000000002
  7
00
  0
LINE
  5
69EBE
  8
SUNPOU
 10
18794.461403175032
 20
10439.20456420856
 30
0.0
 11
18794.461403175032
 21
10414.14190756198
 31
0.0
  0
TEXT
  5
69EC1
  8
HIKIDASHI
 10
20886.00611369294
 20
10139.47792971974
 30
0.0
 40
160.0
  1
型断熱材付
  7
01
  0
LINE
  5
69EC2
  8
HIKIDASHI
 10
19592.10357787594
 20
10339.47792971974
 30
0.0
 11
22547.899278962461
 21
10339.47792971974
 31
0.0
  0
TEXT
  5
69EC3
  8
HIKIDASHI
 10
19651.456905206949
 20
10379.47792971974
 30
0.0
 40
160.0
  1
屋根板
  7
01
  0
TEXT
  5
69EC4
  8
HIKIDASHI
 10
19651.456905206949
 20
10139.47792971974
 30
0.0
 40
160.0
  1
ヨドルーフ
  7
01
  0
TEXT
  5
69EC5
  8
HIKIDASHI
 10
20635.570610506751
 20
10139.47792971974
 30
0.0
 40
160.0
  1
88
 41
0.6700000000000002
  7
00
  0
TEXT
  5
69EC6
  8
HIKIDASHI
 10
21776.306023658719
 20
10139.47792971974
 30
0.0
 40
160.0
  1
（
  7
01
  0
TEXT
  5
69EC7
  8
HIKIDASHI
 10
21960.610566451222
 20
10159.47792971974
 30
0.0
 40
120.0
  1
ア
  7
01
  0
CIRCLE
  5
69EC8
  8
HIKIDASHI
 10
22011.988578881141
 20
10219.47792971974
 30
0.0
 40
80.0
  0
TEXT
  5
69EC9
  8
HIKIDASHI
 10
22158.848833599179
 20
10139.47792971974
 30
0.0
 40
160.0
  1
0.5
 41
0.6700000000000002
  7
00
  0
TEXT
  5
69ECA
  8
HIKIDASHI
 10
22441.063289766549
 20
10139.47792971974
 30
0.0
 40
160.0
  1
）
  7
01
  0
LINE
  5
69ECC
  8
U1
 10
22273.499999999942
 20
5977.4291594232982
 30
0.0
 11
22273.499999999942
 21
5477.4291594232982
 31
0.0
  0
LINE
  5
69ECD
  8
U1
 10
22358.499999999942
 20
5477.4291594232982
 30
0.0
 11
22358.499999999942
 21
5977.4291594232982
 31
0.0
  0
LINE
  5
69ECE
  8
U1
 10
19523.499999999942
 20
5977.4291594232982
 30
0.0
 11
19523.499999999942
 21
5477.4291594232982
 31
0.0
  0
LINE
  5
69ECF
  8
U1
 10
19608.499999999942
 20
5477.4291594232982
 30
0.0
 11
19608.499999999942
 21
5977.4291594232982
 31
0.0
  0
LINE
  5
69ED0
  8
U1
 10
19523.499999999942
 20
5477.4291594232982
 30
0.0
 11
19608.499999999942
 21
5477.4291594232982
 31
0.0
  0
LINE
  5
69ED1
  8
U1
 10
22273.499999999942
 20
5477.4291594232982
 30
0.0
 11
22358.499999999942
 21
5477.4291594232982
 31
0.0
  0
LINE
  5
6AC0B
  8
U1
 10
16871.59999999998
 20
9001.9558895435384
 30
0.0
 11
16951.52893218803
 21
9001.9558895435221
 31
0.0
  0
LINE
  5
6AC0C
  8
U1
 10
17008.59999999998
 20
8961.9558895435384
 30
0.0
 11
16995.671067811822
 21
8961.9558895435384
 31
0.0
  0
ARC
  5
6AC0D
  8
U1
 10
16995.671067811822
 20
8966.9558895435384
 30
0.0
 40
5.0
 50
225.00000000072981
 51
270.0
  0
LINE
  5
6AC0E
  8
U1
 10
16955.064466093962
 20
9000.4914234494718
 30
0.0
 11
16992.135533905901
 21
8963.4203556376069
 31
0.0
  0
ARC
  5
6AC0F
  8
U1
 10
16951.52893218803
 20
8996.9558895435384
 30
0.0
 40
5.0
 50
45.000000000729798
 51
90.0
  0
TEXT
  5
6AC11
  8
SUNPOU
 10
20961.387106663489
 20
6582.8473523201592
 30
0.0
 40
160.0
  1
下屋側面有効開口高サ
 50
90.0
  7
01
  0
TEXT
  5
6B321
  8
NAME
 10
21780.69365239378
 20
1877.7796840770311
 30
0.0
 40
360.0
  1
ヨ ド 倉 庫（下屋付き）
  7
01
  0
TEXT
  5
6B322
  8
NAME
 10
21528.924877815309
 20
1049.7796840770241
 30
0.0
 40
340.0
  1
SOB-8657FHA
 41
0.6
  7
00
  0
TEXT
  5
6B323
  8
NAME
 10
23807.326849264278
 20
1050.2352588493161
 30
0.0
 40
340.0
  1
型（　連棟）
 41
0.6
  7
00
  0
TEXT
  5
6B324
  8
NAME
 10
25297.321196260378
 20
1049.7796840770241
 30
0.0
 40
340.0
  1
+
 41
0.6
  7
00
  0
TEXT
  5
6B325
  8
NAME
 10
26164.939750572819
 20
1050.2352588493161
 30
0.0
 40
340.0
  1
1/6
 41
0.6
  7
00
  0
TEXT
  5
6B326
  8
NAME
 10
24318.53488405003
 20
1050.2352588493161
 30
0.0
 40
340.0
  1
2
 41
0.6
  7
00
  0
TEXT
  5
6B327
  8
NAME
 10
25617.466981473652
 20
1050.2352588493161
 30
0.0
 40
340.0
  1
下屋
 41
0.6
  7
00
  0
LINE
  5
6BBC5
  8
U1
 10
13973.499999999991
 20
16018.12150036126
 30
0.0
 11
13973.499999999991
 21
19401.121500361289
 31
0.0
  0
LINE
  5
6BBC6
  8
下屋前桁
 10
13972.999999999991
 20
19401.121500361322
 30
0.0
 11
14010.999999999991
 21
19401.121500361289
 31
0.0
  0
ARC
  5
6BBC7
  8
下屋前桁
 10
14010.999999999991
 20
19406.121500361289
 30
0.0
 40
5.0
 50
270.0
 51
0.0
  0
LINE
  5
6BBC8
  8
下屋前桁
 10
13972.999999999931
 20
19401.121500361322
 30
0.0
 11
13972.999999999931
 21
19393.121500361289
 31
0.0
  0
LINE
  5
6BBC9
  8
下屋前桁
 10
14015.999999999991
 20
19495.975870572482
 30
0.0
 11
14015.999999999991
 21
19406.121500361289
 31
0.0
  0
LINE
  5
6BBCB
  8
U1
 10
25258.499999999971
 20
19495.975870572482
 30
0.0
 11
25258.499999999971
 21
16018.12150036126
 31
0.0
  0
LINE
  5
6BBCC
  8
U1
 10
25173.49999999996
 20
16018.12150036126
 30
0.0
 11
25173.49999999996
 21
19401.121500361289
 31
0.0
  0
LINE
  5
6BBCD
  8
KERABA
 10
25375.99999999996
 20
19495.975870572482
 30
0.0
 11
25375.99999999996
 21
19675.406243899481
 31
0.0
  0
LINE
  5
6BBCE
  8
KERABA
 10
25340.99999999996
 20
19495.975870572482
 30
0.0
 11
25340.99999999996
 21
19675.406243899481
 31
0.0
  0
LINE
  5
6BBCF
  8
KERABA
 10
16815.999999999982
 20
19551.975870572482
 30
0.0
 11
14015.99999999998
 21
19551.975870572482
 31
0.0
  0
LINE
  5
6BBD0
  8
KERABA
 10
16815.999999999982
 20
19549.975870572482
 30
0.0
 11
14015.99999999998
 21
19549.975870572482
 31
0.0
  0
LINE
  5
6BBD1
  8
KERABA
 10
16815.999999999982
 20
19539.975870572482
 30
0.0
 11
14015.99999999998
 21
19539.975870572482
 31
0.0
  0
LINE
  5
6BBD2
  8
KERABA
 10
16815.999999999982
 20
19537.975870572482
 30
0.0
 11
14015.99999999998
 21
19537.975870572482
 31
0.0
  0
LINE
  5
6BBD3
  8
KERABA
 10
16815.999999999982
 20
19527.975870572482
 30
0.0
 11
14015.99999999998
 21
19527.975870572482
 31
0.0
  0
LINE
  5
6BBD4
  8
KERABA
 10
16815.999999999982
 20
19619.40624389947
 30
0.0
 11
14015.99999999998
 21
19619.40624389947
 31
0.0
  0
LINE
  5
6BBD5
  8
KERABA
 10
16815.999999999982
 20
19623.40624389947
 30
0.0
 11
14015.99999999998
 21
19623.40624389947
 31
0.0
  0
LINE
  5
6BBD6
  8
KERABA
 10
16815.999999999982
 20
19633.40624389947
 30
0.0
 11
14015.99999999998
 21
19633.40624389947
 31
0.0
  0
LINE
  5
6BBD7
  8
KERABA
 10
16815.999999999982
 20
19635.40624389947
 30
0.0
 11
14015.99999999998
 21
19635.40624389947
 31
0.0
  0
LINE
  5
6BBD8
  8
KERABA
 10
16815.999999999982
 20
19645.40624389947
 30
0.0
 11
14015.99999999998
 21
19645.40624389947
 31
0.0
  0
LINE
  5
6BBD9
  8
KERABA
 10
16815.999999999982
 20
19523.975870572482
 30
0.0
 11
14015.99999999998
 21
19523.975870572482
 31
0.0
  0
LINE
  5
6BBDA
  8
KERABA
 10
16815.999999999982
 20
19647.40624389947
 30
0.0
 11
14015.99999999998
 21
19647.40624389947
 31
0.0
  0
LINE
  5
6BBDB
  8
KERABA
 10
16815.999999999982
 20
19495.975870572482
 30
0.0
 11
14015.99999999998
 21
19495.975870572482
 31
0.0
  0
LINE
  5
6BBDC
  8
KERABA
 10
16815.999999999982
 20
19675.40624389947
 30
0.0
 11
14015.99999999998
 21
19675.40624389947
 31
0.0
  0
LINE
  5
6BBDD
  8
下屋前桁
 10
14059.00000000004
 20
19393.121500361322
 30
0.0
 11
16772.999999999931
 21
19393.121500361322
 31
0.0
  0
LINE
  5
6BBDE
  8
下屋前桁
 10
25172.99999999996
 20
19401.121500361322
 30
0.0
 11
25210.999999999971
 21
19401.121500361289
 31
0.0
  0
ARC
  5
6BBDF
  8
下屋前桁
 10
25210.999999999971
 20
19406.121500361289
 30
0.0
 40
5.0
 50
270.0
 51
0.0
  0
LINE
  5
6BBE0
  8
下屋前桁
 10
25172.999999999909
 20
19401.121500361322
 30
0.0
 11
25172.999999999909
 21
19393.121500361289
 31
0.0
  0
LINE
  5
6BBE1
  8
下屋前桁
 10
25215.99999999996
 20
19495.975870572482
 30
0.0
 11
25215.99999999996
 21
19406.121500361289
 31
0.0
  0
LINE
  5
6BBE2
  8
U1
 10
14058.49999999998
 20
16018.12150036126
 30
0.0
 11
14058.49999999998
 21
19401.121500361289
 31
0.0
  0
LINE
  5
6BBE3
  8
下屋前桁
 10
14058.99999999998
 20
19401.121500361322
 30
0.0
 11
14020.99999999998
 21
19401.121500361289
 31
0.0
  0
ARC
  5
6BBE4
  8
下屋前桁
 10
14020.99999999998
 20
19406.121500361289
 30
0.0
 40
5.0
 50
180.0
 51
270.0
  0
LINE
  5
6BBE5
  8
下屋前桁
 10
14059.00000000004
 20
19401.121500361322
 30
0.0
 11
14059.00000000004
 21
19393.121500361289
 31
0.0
  0
LINE
  5
6BBE7
  8
U1
 10
16815.999999999982
 20
16018.12150036126
 30
0.0
 11
26314.906860321898
 21
16018.12150036126
 31
0.0
  0
LINE
  5
6BBE9
  8
U1
 10
8296.0000000000473
 20
16018.12150036126
 30
0.0
 11
8296.0000000001055
 21
16318.12150036126
 31
0.0
  0
LINE
  5
6BBEA
  8
U1
 10
25335.999999999902
 20
16018.12150036126
 30
0.0
 11
25335.999999999851
 21
16318.12150036126
 31
0.0
  0
LINE
  5
6C9AE
  8
1PL-M1
 10
16815.999999999982
 20
14598.116227108871
 30
0.0
 11
16815.999999999982
 21
16818.121500361289
 31
0.0
  0
LINE
  5
6C9AF
  8
SUNPOU
 10
8295.9999999999964
 20
21298.121500361289
 30
0.0
 11
25336.0
 21
21298.121500361289
 31
0.0
  0
LINE
  5
6C9B0
  8
SUNPOU
 10
8330.9999999999982
 20
20898.121500361289
 30
0.0
 11
25301.0
 21
20898.121500361289
 31
0.0
  0
LINE
  5
6C9B1
  8
SUNPOU
 10
8255.9999999999982
 20
20178.121500361289
 30
0.0
 11
8255.9999999999982
 21
21418.121500361289
 31
0.0
  0
LINE
  5
6C9B2
  8
SUNPOU
 10
8290.9999999999982
 20
20178.121500361289
 30
0.0
 11
8290.9999999999982
 21
21018.121500361289
 31
0.0
  0
TEXT
  5
6C9B3
  8
SUNPOU
 10
7962.438095238088
 20
20978.121500361289
 30
0.0
 40
160.0
  1
35
 41
0.6700000000000002
  7
00
  0
LINE
  5
6C9B4
  8
SUNPOU
 10
8195.9999999999964
 20
20898.121500361289
 30
0.0
 11
7910.8213739390321
 21
20898.121500361289
 31
0.0
  0
TEXT
  5
6C9B8
  8
SUNPOU
 10
16553.10476190476
 20
20978.121500361289
 30
0.0
 40
160.0
  1
17050
 41
0.6700000000000002
  7
00
 72
     4
 11
16816.0
 21
21058.121500361289
 31
0.0
  0
TEXT
  5
6C9B9
  8
SUNPOU
 10
16553.10476190476
 20
21378.121500361289
 30
0.0
 40
160.0
  1
17120
 41
0.6700000000000002
  7
00
 72
     4
 11
16816.0
 21
21458.121500361289
 31
0.0
  0
LINE
  5
6C9BA
  8
SUNPOU
 10
25376.0
 20
20178.121500361289
 30
0.0
 11
25376.0
 21
21418.121500361289
 31
0.0
  0
LINE
  5
6C9BB
  8
SUNPOU
 10
25341.0
 20
20178.121500361289
 30
0.0
 11
25341.0
 21
21018.121500361289
 31
0.0
  0
LINE
  5
6C9BE
  8
SUNPOU
 10
25436.0
 20
20898.121500361289
 30
0.0
 11
25721.17862606097
 21
20898.121500361289
 31
0.0
  0
TEXT
  5
6C9BF
  8
SUNPOU
 10
25496.0
 20
20978.121500361289
 30
0.0
 40
160.0
  1
35
 41
0.6700000000000002
  7
00
  0
TEXT
  5
6C9C1
  8
HIKIDASHI
 10
17851.332191152149
 20
13165.754384023219
 30
0.0
 40
160.0
  1
/
 41
0.6700000000000002
  7
00
  0
TEXT
  5
6C9C2
  8
HIKIDASHI
 10
15446.887404830381
 20
13118.121500361291
 30
0.0
 40
240.0
  1
正 面 立 面 図
  7
01
  0
TEXT
  5
6C9C3
  8
HIKIDASHI
 10
17423.642083548191
 20
13165.754384023219
 30
0.0
 40
160.0
  1
(S=
 41
0.6700000000000002
  7
00
  0
TEXT
  5
6C9C4
  8
HIKIDASHI
 10
17785.057915423538
 20
13196.87733951962
 30
0.0
 40
160.0
  1
1
 41
0.6700000000000002
  7
00
  0
TEXT
  5
6C9C5
  8
HIKIDASHI
 10
18186.775412802301
 20
13165.754384023219
 30
0.0
 40
160.0
  1
)
 41
0.6700000000000002
  7
00
  0
TEXT
  5
6C9C6
  8
HIKIDASHI
 10
17943.92250067744
 20
13113.418721622669
 30
0.0
 40
160.0
  1
80
 41
0.6700000000000002
  7
00
  0
LINE
  5
6C9C7
  8
SUNPOU
 10
8350.9999999999909
 20
14318.121500361291
 30
0.0
 11
25280.999999999989
 21
14318.121500361291
 31
0.0
  0
LINE
  5
6C9C8
  8
SUNPOU
 10
11255.999999999991
 20
14718.121500361291
 30
0.0
 11
13975.999999999991
 21
14718.121500361291
 31
0.0
  0
LINE
  5
6C9C9
  8
SUNPOU
 10
8290.9999999999909
 20
16238.121500361291
 30
0.0
 11
8290.9999999999909
 21
14198.121500361291
 31
0.0
  0
CIRCLE
  5
6C9CA
  8
SUNPOU
 10
8415.9999999999909
 20
13878.121500361291
 30
0.0
 40
200.0
  0
TEXT
  5
6C9CB
  8
SUNPOU
 10
8350.914285714276
 20
13758.121500361291
 30
0.0
 40
240.0
  1
1
 41
0.6700000000000002
  7
00
 72
     4
 11
8415.9999999999909
 21
13878.121500361291
 31
0.0
  0
CIRCLE
  5
6C9CC
  8
SUNPOU
 10
11215.999999999991
 20
13878.121500361291
 30
0.0
 40
200.0
  0
TEXT
  5
6C9CD
  8
SUNPOU
 10
11139.42857142856
 20
13758.121500361291
 30
0.0
 40
240.0
  1
2
 41
0.6700000000000002
  7
00
 72
     4
 11
11215.999999999991
 21
13878.121500361291
 31
0.0
  0
LINE
  5
6C9D1
  8
SUNPOU
 10
8290.9999999999909
 20
14718.121500361291
 30
0.0
 11
7849.6526254141118
 21
14718.121500361291
 31
0.0
  0
LINE
  5
6C9D3
  8
SUNPOU
 10
8330.9999999999927
 20
14718.121500361291
 30
0.0
 11
8375.9999999999909
 21
14718.121500361291
 31
0.0
  0
TEXT
  5
6C9D4
  8
SUNPOU
 10
7922.7220639096831
 20
14798.121500361291
 30
0.0
 40
160.0
  1
125
 41
0.6700000000000002
  7
00
  0
LINE
  5
6C9D6
  8
SUNPOU
 10
16670.00000000004
 20
15518.121500361291
 30
0.0
 11
14162.0
 21
15518.121500361291
 31
0.0
  0
LINE
  5
6C9D7
  8
SUNPOU
 10
8455.9999999999927
 20
14718.121500361291
 30
0.0
 11
11175.999999999991
 21
14718.121500361291
 31
0.0
  0
TEXT
  5
6C9D9
  8
SUNPOU
 10
9269.5063155042208
 20
14798.121500361291
 30
0.0
 40
160.0
  1
柱芯寸
  7
01
  0
LINE
  5
6C9DA
  8
SUNPOU
 10
16710.000000000029
 20
16238.121500361291
 30
0.0
 11
16710.000000000029
 21
15398.121500361291
 31
0.0
  0
TEXT
  5
6C9DC
  8
SUNPOU
 10
9915.9920012354032
 20
14798.121500361291
 30
0.0
 40
160.0
  1
2800
 41
0.6700000000000002
  7
00
  0
TEXT
  5
6C9DE
  8
SUNPOU
 10
12069.506315504221
 20
14798.121500361291
 30
0.0
 40
160.0
  1
柱芯寸
  7
01
  0
LINE
  5
6C9DF
  8
SUNPOU
 10
14122.000000000009
 20
16238.121500361291
 30
0.0
 11
14122.000000000009
 21
15398.121500361291
 31
0.0
  0
TEXT
  5
6C9E2
  8
SUNPOU
 10
12715.9920012354
 20
14798.121500361291
 30
0.0
 40
160.0
  1
2800
 41
0.6700000000000002
  7
00
  0
TEXT
  5
6C9E3
  8
SUNPOU
 10
16553.104761904749
 20
14398.121500361291
 30
0.0
 40
160.0
  1
17050
 41
0.6700000000000002
  7
00
 72
     4
 11
16815.999999999989
 21
14478.121500361291
 31
0.0
  0
LINE
  5
6C9E4
  8
SUNPOU
 10
25341.0
 20
16238.121500361291
 30
0.0
 11
25341.0
 21
14198.121500361291
 31
0.0
  0
CIRCLE
  5
6C9E5
  8
SUNPOU
 10
14015.999999999991
 20
13878.121500361291
 30
0.0
 40
200.0
  0
TEXT
  5
6C9E6
  8
SUNPOU
 10
13939.42857142856
 20
13758.121500361291
 30
0.0
 40
240.0
  1
3
 41
0.6700000000000002
  7
00
 72
     4
 11
14015.999999999991
 21
13878.121500361291
 31
0.0
  0
CIRCLE
  5
6C9E7
  8
SUNPOU
 10
16816.000000000011
 20
13878.121500361291
 30
0.0
 40
200.0
  0
TEXT
  5
6C9E8
  8
SUNPOU
 10
16735.599999999999
 20
13758.121500361291
 30
0.0
 40
240.0
  1
4
 41
0.6700000000000002
  7
00
 72
     4
 11
16816.000000000011
 21
13878.121500361291
 31
0.0
  0
LINE
  5
6C9E9
  8
SUNPOU
 10
14055.999999999991
 20
14718.121500361291
 30
0.0
 11
16775.999999999989
 21
14718.121500361291
 31
0.0
  0
TEXT
  5
6C9EA
  8
SUNPOU
 10
14869.506315504221
 20
14798.121500361291
 30
0.0
 40
160.0
  1
柱芯寸
  7
01
  0
TEXT
  5
6C9EE
  8
SUNPOU
 10
15515.9920012354
 20
14798.121500361291
 30
0.0
 40
160.0
  1
2800
 41
0.6700000000000002
  7
00
  0
LINE
  5
6C9EF
  8
SUNPOU
 10
25215.999999999989
 20
14718.121500361291
 30
0.0
 11
25782.347374585868
 21
14718.121500361291
 31
0.0
  0
TEXT
  5
6C9F4
  8
SUNPOU
 10
25454.039840852191
 20
14798.121500361291
 30
0.0
 40
160.0
  1
125
 41
0.6700000000000002
  7
00
  0
LINE
  5
6C9F5
  8
SUNPOU
 10
16855.999999999989
 20
14718.121500361291
 30
0.0
 11
19575.999999999989
 21
14718.121500361291
 31
0.0
  0
LINE
  5
6C9FC
  8
SUNPOU
 10
22456.0
 20
14718.121500361291
 30
0.0
 11
25175.999999999989
 21
14718.121500361291
 31
0.0
  0
LINE
  5
6C9FF
  8
SUNPOU
 10
19655.999999999989
 20
14718.121500361291
 30
0.0
 11
22376.0
 21
14718.121500361291
 31
0.0
  0
TEXT
  5
6CA00
  8
SUNPOU
 10
23915.992001235409
 20
14798.121500361291
 30
0.0
 40
160.0
  1
2800
 41
0.6700000000000002
  7
00
  0
TEXT
  5
6CA01
  8
SUNPOU
 10
23269.506315504219
 20
14798.121500361291
 30
0.0
 40
160.0
  1
柱芯寸
  7
01
  0
TEXT
  5
6CA02
  8
SUNPOU
 10
21115.992001235401
 20
14798.121500361291
 30
0.0
 40
160.0
  1
2800
 41
0.6700000000000002
  7
00
  0
TEXT
  5
6CA03
  8
SUNPOU
 10
20469.506315504219
 20
14798.121500361291
 30
0.0
 40
160.0
  1
柱芯寸
  7
01
  0
TEXT
  5
6CA04
  8
SUNPOU
 10
18315.992001235401
 20
14798.121500361291
 30
0.0
 40
160.0
  1
2800
 41
0.6700000000000002
  7
00
  0
TEXT
  5
6CA05
  8
SUNPOU
 10
17669.506315504219
 20
14798.121500361291
 30
0.0
 40
160.0
  1
柱芯寸
  7
01
  0
LINE
  5
6CA07
  8
SUNPOU
 10
22522.000000000011
 20
16238.121500361291
 30
0.0
 11
22522.000000000011
 21
15398.121500361291
 31
0.0
  0
LINE
  5
6CA09
  8
SUNPOU
 10
25070.00000000004
 20
15518.121500361291
 30
0.0
 11
22562.000000000011
 21
15518.121500361291
 31
0.0
  0
LINE
  5
6CA0C
  8
SUNPOU
 10
25110.00000000004
 20
16238.121500361291
 30
0.0
 11
25110.00000000004
 21
15398.121500361291
 31
0.0
  0
TEXT
  5
6CA0D
  8
SUNPOU
 10
25139.428571428569
 20
13758.121500361291
 30
0.0
 40
240.0
  1
7
 41
0.6700000000000002
  7
00
 72
     4
 11
25215.999999999989
 21
13878.121500361291
 31
0.0
  0
CIRCLE
  5
6CA0E
  8
SUNPOU
 10
25215.999999999989
 20
13878.121500361291
 30
0.0
 40
200.0
  0
TEXT
  5
6CA0F
  8
SUNPOU
 10
22335.599999999991
 20
13758.121500361291
 30
0.0
 40
240.0
  1
6
 41
0.6700000000000002
  7
00
 72
     4
 11
22416.0
 21
13878.121500361291
 31
0.0
  0
CIRCLE
  5
6CA10
  8
SUNPOU
 10
22416.0
 20
13878.121500361291
 30
0.0
 40
200.0
  0
TEXT
  5
6CA11
  8
SUNPOU
 10
19539.428571428562
 20
13758.121500361291
 30
0.0
 40
240.0
  1
5
 41
0.6700000000000002
  7
00
 72
     4
 11
19615.999999999989
 21
13878.121500361291
 31
0.0
  0
CIRCLE
  5
6CA12
  8
SUNPOU
 10
19615.999999999989
 20
13878.121500361291
 30
0.0
 40
200.0
  0
LINE
  5
6CA14
  8
1PL-M1
 10
16815.999999999982
 20
14078.121500361291
 30
0.0
 11
16815.999999999982
 21
14358.116227108871
 31
0.0
  0
LINE
  5
6CA15
  8
1PL-M1
 10
19615.999999999982
 20
14078.121500361291
 30
0.0
 11
19615.999999999982
 21
16818.121500361289
 31
0.0
  0
LINE
  5
6CA16
  8
U1
 10
16864.294270451759
 20
19918.691127034312
 30
0.0
 11
16864.294270451759
 21
19689.121500361289
 31
0.0
  0
LINE
  5
6CA17
  8
U1
 10
16921.999999999949
 20
16318.121500361291
 30
0.0
 11
16921.999999999949
 21
19374.555091614999
 31
0.0
  0
LINE
  5
6CA18
  8
U1
 10
19509.999999999982
 20
16318.121500361291
 30
0.0
 11
19509.999999999982
 21
19374.555091614999
 31
0.0
  0
LINE
  5
6CA19
  8
U1
 10
19555.499999999982
 20
16318.121500361291
 30
0.0
 11
19555.499999999982
 21
19374.555091614999
 31
0.0
  0
LINE
  5
6CA1A
  8
U1
 10
19676.499999999989
 20
16318.121500361291
 30
0.0
 11
19676.499999999982
 21
19374.555091614999
 31
0.0
  0
LINE
  5
6CA1B
  8
U1
 10
19721.999999999982
 20
16318.121500361291
 30
0.0
 11
19721.999999999982
 21
19374.555091614999
 31
0.0
  0
LINE
  5
6CA1C
  8
U1
 10
19740.999999999982
 20
19918.121500361289
 30
0.0
 11
19740.999999999982
 21
20098.121500361289
 31
0.0
  0
LINE
  5
6CA1D
  8
1PL-M1
 10
25215.999999999982
 20
14078.121500361291
 30
0.0
 11
25215.999999999982
 21
16818.121500361289
 31
0.0
  0
LINE
  5
6CA1E
  8
1PL-M1
 10
22415.999999999982
 20
14078.121500361291
 30
0.0
 11
22415.999999999982
 21
16818.121500361289
 31
0.0
  0
LINE
  5
6CA1F
  8
U1
 10
25167.705729548201
 20
19918.121500361289
 30
0.0
 11
25167.705729548201
 21
19689.121500361289
 31
0.0
  0
LINE
  5
6CA20
  8
U1
 10
25340.999999999982
 20
16318.121500361291
 30
0.0
 11
25340.999999999982
 21
19470.556065383062
 31
0.0
  0
LINE
  5
6CA21
  8
U1
 10
22360.999999999982
 20
16318.121500361291
 30
0.0
 11
22360.999999999971
 21
19374.555091614999
 31
0.0
  0
LINE
  5
6CA22
  8
U1
 10
22309.999999999982
 20
16318.121500361291
 30
0.0
 11
22309.999999999982
 21
19374.555091614999
 31
0.0
  0
LINE
  5
6CA23
  8
U1
 10
22470.999999999982
 20
16318.121500361291
 30
0.0
 11
22470.999999999971
 21
19374.555091614999
 31
0.0
  0
LINE
  5
6CA24
  8
U1
 10
22521.999999999989
 20
16318.121500361291
 30
0.0
 11
22521.999999999989
 21
19374.555091614999
 31
0.0
  0
LINE
  5
6CA25
  8
U1
 10
25110.000000000011
 20
16318.121500361291
 30
0.0
 11
25110.000000000011
 21
19374.555091614999
 31
0.0
  0
LINE
  5
6CA26
  8
U1
 10
22540.999999999982
 20
19918.121500361289
 30
0.0
 11
22540.999999999982
 21
20098.121500361289
 31
0.0
  0
LINE
  5
6CA27
  8
U1
 10
25375.999999999982
 20
19928.121500361289
 30
0.0
 11
25375.999999999982
 21
20088.121500361289
 31
0.0
  0
ARC
  5
6CA2A
  8
U1
 10
25365.999999999982
 20
19928.121500361289
 30
0.0
 40
10.0
 50
270.0
 51
0.0
  0
ARC
  5
6CA2B
  8
U1
 10
25365.999999999982
 20
20088.121500361289
 30
0.0
 40
10.0
 50
0.0
 51
90.0
  0
LINE
  5
6CA2C
  8
U1
 10
16921.999999999949
 20
16459.721500361291
 30
0.0
 11
19510.0
 21
16459.721500361291
 31
0.0
  0
LINE
  5
6CA2D
  8
U1
 10
16921.999999999949
 20
16530.52150036129
 30
0.0
 11
19510.0
 21
16530.52150036129
 31
0.0
  0
LINE
  5
6CA2E
  8
U1
 10
16921.999999999949
 20
16601.321500361279
 30
0.0
 11
19510.0
 21
16601.321500361279
 31
0.0
  0
LINE
  5
6CA2F
  8
U1
 10
16921.999999999949
 20
16672.121500361282
 30
0.0
 11
19510.0
 21
16672.121500361289
 31
0.0
  0
LINE
  5
6CA30
  8
U1
 10
16921.999999999949
 20
16742.921500361292
 30
0.0
 11
19510.0
 21
16742.921500361292
 31
0.0
  0
LINE
  5
6CA31
  8
U1
 10
16921.999999999949
 20
16813.72150036128
 30
0.0
 11
19510.0
 21
16813.72150036128
 31
0.0
  0
LINE
  5
6CA32
  8
U1
 10
16921.999999999949
 20
16884.521500361279
 30
0.0
 11
19510.0
 21
16884.52150036129
 31
0.0
  0
LINE
  5
6CA33
  8
U1
 10
16921.999999999949
 20
16955.321500361279
 30
0.0
 11
19510.0
 21
16955.321500361279
 31
0.0
  0
LINE
  5
6CA34
  8
U1
 10
16921.999999999949
 20
17026.121500361289
 30
0.0
 11
19510.0
 21
17026.121500361289
 31
0.0
  0
LINE
  5
6CA35
  8
U1
 10
16921.999999999949
 20
17096.921500361292
 30
0.0
 11
19510.0
 21
17096.921500361292
 31
0.0
  0
LINE
  5
6CA36
  8
U1
 10
16921.999999999949
 20
17167.721500361291
 30
0.0
 11
19510.0
 21
17167.721500361291
 31
0.0
  0
LINE
  5
6CA37
  8
U1
 10
16921.999999999949
 20
17238.52150036129
 30
0.0
 11
19510.0
 21
17238.52150036129
 31
0.0
  0
LINE
  5
6CA38
  8
U1
 10
16921.999999999982
 20
17309.32150036129
 30
0.0
 11
19510.0
 21
17309.32150036129
 31
0.0
  0
LINE
  5
6CA39
  8
U1
 10
16921.999999999982
 20
18088.121500361289
 30
0.0
 11
19510.0
 21
18088.121500361289
 31
0.0
  0
LINE
  5
6CA3A
  8
U1
 10
16921.999999999982
 20
18017.32150036129
 30
0.0
 11
19510.0
 21
18017.32150036129
 31
0.0
  0
LINE
  5
6CA3B
  8
U1
 10
16921.999999999982
 20
17946.52150036129
 30
0.0
 11
19510.0
 21
17946.52150036129
 31
0.0
  0
LINE
  5
6CA3C
  8
U1
 10
16921.999999999982
 20
17875.721500361291
 30
0.0
 11
19510.0
 21
17875.721500361291
 31
0.0
  0
LINE
  5
6CA3D
  8
U1
 10
16921.999999999982
 20
17804.921500361292
 30
0.0
 11
19510.0
 21
17804.921500361292
 31
0.0
  0
LINE
  5
6CA3E
  8
U1
 10
16921.999999999982
 20
17734.121500361289
 30
0.0
 11
19510.0
 21
17734.121500361289
 31
0.0
  0
LINE
  5
6CA3F
  8
U1
 10
16921.999999999982
 20
17663.32150036129
 30
0.0
 11
19510.0
 21
17663.32150036129
 31
0.0
  0
LINE
  5
6CA40
  8
U1
 10
16921.999999999982
 20
17592.52150036129
 30
0.0
 11
19510.0
 21
17592.52150036129
 31
0.0
  0
LINE
  5
6CA41
  8
U1
 10
16921.999999999982
 20
17521.721500361291
 30
0.0
 11
19510.0
 21
17521.721500361291
 31
0.0
  0
LINE
  5
6CA42
  8
U1
 10
16921.999999999982
 20
17450.921500361292
 30
0.0
 11
19510.0
 21
17450.921500361292
 31
0.0
  0
LINE
  5
6CA43
  8
U1
 10
16921.999999999982
 20
17380.121500361289
 30
0.0
 11
19510.0
 21
17380.121500361289
 31
0.0
  0
LINE
  5
6CA44
  8
U1
 10
16921.999999999982
 20
18158.921500361292
 30
0.0
 11
19510.0
 21
18158.921500361292
 31
0.0
  0
LINE
  5
6CA45
  8
U1
 10
16921.999999999949
 20
16388.921500361281
 30
0.0
 11
19510.0
 21
16388.921500361281
 31
0.0
  0
LINE
  5
6CA46
  8
U1
 10
16921.999999999982
 20
18229.721500361291
 30
0.0
 11
19510.0
 21
18229.721500361291
 31
0.0
  0
LINE
  5
6CA47
  8
U1
 10
16921.999999999982
 20
18300.521500361279
 30
0.0
 11
19510.0
 21
18300.521500361279
 31
0.0
  0
LINE
  5
6CA48
  8
U1
 10
16921.999999999971
 20
18512.921500361281
 30
0.0
 11
19510.0
 21
18512.921500361281
 31
0.0
  0
LINE
  5
6CA49
  8
U1
 10
16921.999999999971
 20
18442.121500361289
 30
0.0
 11
19510.0
 21
18442.121500361289
 31
0.0
  0
LINE
  5
6CA4A
  8
U1
 10
16921.999999999971
 20
18371.321500361279
 30
0.0
 11
19510.0
 21
18371.321500361279
 31
0.0
  0
LINE
  5
6CA4B
  8
U1
 10
16921.99999999996
 20
18866.921500361281
 30
0.0
 11
19509.999999999989
 21
18866.921500361281
 31
0.0
  0
LINE
  5
6CA4C
  8
U1
 10
16921.99999999996
 20
18937.72150036128
 30
0.0
 11
19509.999999999989
 21
18937.72150036128
 31
0.0
  0
LINE
  5
6CA4D
  8
U1
 10
16921.99999999996
 20
19008.521500361279
 30
0.0
 11
19509.999999999989
 21
19008.521500361279
 31
0.0
  0
LINE
  5
6CA4E
  8
U1
 10
16921.999999999971
 20
18796.121500361282
 30
0.0
 11
19510.0
 21
18796.121500361282
 31
0.0
  0
LINE
  5
6CA4F
  8
U1
 10
16921.999999999971
 20
18725.321500361279
 30
0.0
 11
19510.0
 21
18725.321500361279
 31
0.0
  0
LINE
  5
6CA50
  8
U1
 10
16921.999999999971
 20
18654.521500361279
 30
0.0
 11
19510.0
 21
18654.521500361279
 31
0.0
  0
LINE
  5
6CA51
  8
U1
 10
16921.999999999971
 20
18583.72150036128
 30
0.0
 11
19510.0
 21
18583.72150036128
 31
0.0
  0
LINE
  5
6CA52
  8
U1
 10
16921.99999999996
 20
19079.321500361279
 30
0.0
 11
19509.999999999982
 21
19079.321500361279
 31
0.0
  0
LINE
  5
6CA53
  8
U1
 10
16921.99999999996
 20
19150.121500361282
 30
0.0
 11
19509.999999999982
 21
19150.121500361282
 31
0.0
  0
LINE
  5
6CA54
  8
U1
 10
16921.99999999996
 20
19220.921500361281
 30
0.0
 11
19509.999999999982
 21
19220.921500361281
 31
0.0
  0
LINE
  5
6CA56
  8
U1
 10
16921.999999999949
 20
19362.521500361268
 30
0.0
 11
19509.999999999982
 21
19362.521500361268
 31
0.0
  0
LINE
  5
6CA57
  8
U1
 10
16921.999999999949
 20
19291.72150036128
 30
0.0
 11
19509.999999999982
 21
19291.72150036128
 31
0.0
  0
LINE
  5
6CA58
  8
U1
 10
19721.999999999982
 20
19291.72150036128
 30
0.0
 11
22309.999999999982
 21
19291.72150036128
 31
0.0
  0
LINE
  5
6CA59
  8
U1
 10
19721.999999999982
 20
19362.521500361268
 30
0.0
 11
22309.999999999982
 21
19362.521500361268
 31
0.0
  0
LINE
  5
6CA5B
  8
U1
 10
19721.999999999982
 20
19220.921500361281
 30
0.0
 11
22309.999999999982
 21
19220.921500361281
 31
0.0
  0
LINE
  5
6CA5C
  8
U1
 10
19721.999999999982
 20
19150.121500361282
 30
0.0
 11
22309.999999999982
 21
19150.121500361282
 31
0.0
  0
LINE
  5
6CA5D
  8
U1
 10
19721.999999999982
 20
19079.321500361279
 30
0.0
 11
22309.999999999982
 21
19079.321500361279
 31
0.0
  0
LINE
  5
6CA5E
  8
U1
 10
19722.0
 20
18583.72150036128
 30
0.0
 11
22310.0
 21
18583.72150036128
 31
0.0
  0
LINE
  5
6CA5F
  8
U1
 10
19722.0
 20
18654.521500361279
 30
0.0
 11
22309.999999999989
 21
18654.521500361279
 31
0.0
  0
LINE
  5
6CA60
  8
U1
 10
19722.0
 20
18725.321500361279
 30
0.0
 11
22309.999999999989
 21
18725.321500361279
 31
0.0
  0
LINE
  5
6CA61
  8
U1
 10
19722.0
 20
18796.121500361282
 30
0.0
 11
22309.999999999989
 21
18796.121500361282
 31
0.0
  0
LINE
  5
6CA62
  8
U1
 10
19721.999999999989
 20
19008.521500361279
 30
0.0
 11
22309.999999999982
 21
19008.521500361279
 31
0.0
  0
LINE
  5
6CA63
  8
U1
 10
19721.999999999989
 20
18937.72150036128
 30
0.0
 11
22309.999999999982
 21
18937.72150036128
 31
0.0
  0
LINE
  5
6CA64
  8
U1
 10
19721.999999999989
 20
18866.921500361281
 30
0.0
 11
22309.999999999982
 21
18866.921500361281
 31
0.0
  0
LINE
  5
6CA65
  8
U1
 10
19722.0
 20
18371.321500361279
 30
0.0
 11
22310.0
 21
18371.321500361279
 31
0.0
  0
LINE
  5
6CA66
  8
U1
 10
19722.0
 20
18442.121500361289
 30
0.0
 11
22310.0
 21
18442.121500361289
 31
0.0
  0
LINE
  5
6CA67
  8
U1
 10
19722.0
 20
18512.921500361281
 30
0.0
 11
22310.0
 21
18512.921500361281
 31
0.0
  0
LINE
  5
6CA68
  8
U1
 10
19722.0
 20
18300.521500361279
 30
0.0
 11
22310.0
 21
18300.521500361279
 31
0.0
  0
LINE
  5
6CA69
  8
U1
 10
19722.0
 20
18229.721500361291
 30
0.0
 11
22310.0
 21
18229.721500361291
 31
0.0
  0
LINE
  5
6CA6A
  8
U1
 10
19722.0
 20
18158.921500361292
 30
0.0
 11
22310.0
 21
18158.921500361292
 31
0.0
  0
LINE
  5
6CA6B
  8
U1
 10
19722.000000000011
 20
17380.121500361289
 30
0.0
 11
22310.0
 21
17380.121500361289
 31
0.0
  0
LINE
  5
6CA6C
  8
U1
 10
19722.000000000011
 20
17450.921500361292
 30
0.0
 11
22310.0
 21
17450.921500361292
 31
0.0
  0
LINE
  5
6CA6D
  8
U1
 10
19722.000000000011
 20
17521.721500361291
 30
0.0
 11
22310.0
 21
17521.721500361291
 31
0.0
  0
LINE
  5
6CA6E
  8
U1
 10
19722.000000000011
 20
17592.52150036129
 30
0.0
 11
22310.0
 21
17592.52150036129
 31
0.0
  0
LINE
  5
6CA6F
  8
U1
 10
19722.000000000011
 20
17663.32150036129
 30
0.0
 11
22310.0
 21
17663.32150036129
 31
0.0
  0
LINE
  5
6CA70
  8
U1
 10
19722.000000000011
 20
17734.121500361289
 30
0.0
 11
22310.0
 21
17734.121500361289
 31
0.0
  0
LINE
  5
6CA71
  8
U1
 10
19722.000000000011
 20
17804.921500361292
 30
0.0
 11
22310.0
 21
17804.921500361292
 31
0.0
  0
LINE
  5
6CA72
  8
U1
 10
19722.000000000011
 20
17875.721500361291
 30
0.0
 11
22310.0
 21
17875.721500361291
 31
0.0
  0
LINE
  5
6CA73
  8
U1
 10
19722.000000000011
 20
17946.52150036129
 30
0.0
 11
22310.0
 21
17946.52150036129
 31
0.0
  0
LINE
  5
6CA74
  8
U1
 10
19722.000000000011
 20
18017.32150036129
 30
0.0
 11
22310.0
 21
18017.32150036129
 31
0.0
  0
LINE
  5
6CA75
  8
U1
 10
19722.000000000011
 20
18088.121500361289
 30
0.0
 11
22310.0
 21
18088.121500361289
 31
0.0
  0
LINE
  5
6CA76
  8
U1
 10
19722.000000000011
 20
17309.32150036129
 30
0.0
 11
22310.0
 21
17309.32150036129
 31
0.0
  0
LINE
  5
6CA77
  8
U1
 10
19722.000000000011
 20
17238.52150036129
 30
0.0
 11
22310.0
 21
17238.52150036129
 31
0.0
  0
LINE
  5
6CA78
  8
U1
 10
19722.000000000011
 20
17167.721500361291
 30
0.0
 11
22310.0
 21
17167.721500361291
 31
0.0
  0
LINE
  5
6CA79
  8
U1
 10
19722.000000000011
 20
17096.921500361292
 30
0.0
 11
22310.0
 21
17096.921500361292
 31
0.0
  0
LINE
  5
6CA7A
  8
U1
 10
19722.000000000011
 20
17026.121500361289
 30
0.0
 11
22310.0
 21
17026.121500361289
 31
0.0
  0
LINE
  5
6CA7B
  8
U1
 10
19722.000000000011
 20
16955.321500361279
 30
0.0
 11
22310.0
 21
16955.321500361279
 31
0.0
  0
LINE
  5
6CA7C
  8
U1
 10
19722.000000000011
 20
16884.521500361279
 30
0.0
 11
22310.0
 21
16884.521500361279
 31
0.0
  0
LINE
  5
6CA7D
  8
U1
 10
19722.000000000011
 20
16813.72150036128
 30
0.0
 11
22310.0
 21
16813.72150036128
 31
0.0
  0
LINE
  5
6CA7E
  8
U1
 10
19722.000000000011
 20
16742.921500361292
 30
0.0
 11
22310.0
 21
16742.921500361292
 31
0.0
  0
LINE
  5
6CA7F
  8
U1
 10
19722.000000000011
 20
16672.121500361282
 30
0.0
 11
22310.0
 21
16672.121500361282
 31
0.0
  0
LINE
  5
6CA80
  8
U1
 10
19722.000000000011
 20
16601.321500361279
 30
0.0
 11
22310.0
 21
16601.321500361279
 31
0.0
  0
LINE
  5
6CA81
  8
U1
 10
19722.000000000011
 20
16530.52150036129
 30
0.0
 11
22309.09999999998
 21
16530.52150036129
 31
0.0
  0
LINE
  5
6CA82
  8
U1
 10
19722.000000000011
 20
16459.721500361291
 30
0.0
 11
22309.09999999998
 21
16459.721500361291
 31
0.0
  0
LINE
  5
6CA83
  8
U1
 10
19722.000000000011
 20
16388.921500361281
 30
0.0
 11
22309.09999999998
 21
16388.921500361281
 31
0.0
  0
LINE
  5
6CA84
  8
U1
 10
22522.0
 20
18371.321500361279
 30
0.0
 11
25110.000000000029
 21
18371.321500361279
 31
0.0
  0
LINE
  5
6CA85
  8
U1
 10
22522.0
 20
18300.521500361279
 30
0.0
 11
25110.00000000004
 21
18300.521500361279
 31
0.0
  0
LINE
  5
6CA86
  8
U1
 10
22522.0
 20
18229.721500361291
 30
0.0
 11
25110.00000000004
 21
18229.721500361291
 31
0.0
  0
LINE
  5
6CA87
  8
U1
 10
22521.999999999989
 20
16388.921500361281
 30
0.0
 11
25110.000000000011
 21
16388.921500361281
 31
0.0
  0
LINE
  5
6CA88
  8
U1
 10
22521.999999999989
 20
18158.921500361292
 30
0.0
 11
25110.00000000004
 21
18158.921500361292
 31
0.0
  0
LINE
  5
6CA89
  8
U1
 10
22521.999999999989
 20
17380.121500361289
 30
0.0
 11
25110.000000000051
 21
17380.121500361289
 31
0.0
  0
LINE
  5
6CA8A
  8
U1
 10
22521.999999999989
 20
17450.921500361292
 30
0.0
 11
25110.000000000051
 21
17450.921500361292
 31
0.0
  0
LINE
  5
6CA8B
  8
U1
 10
22521.999999999989
 20
17521.721500361291
 30
0.0
 11
25110.000000000051
 21
17521.721500361291
 31
0.0
  0
LINE
  5
6CA8C
  8
U1
 10
22521.999999999989
 20
17592.52150036129
 30
0.0
 11
25110.000000000051
 21
17592.52150036129
 31
0.0
  0
LINE
  5
6CA8D
  8
U1
 10
22521.999999999989
 20
17663.32150036129
 30
0.0
 11
25110.000000000051
 21
17663.32150036129
 31
0.0
  0
LINE
  5
6CA8E
  8
U1
 10
22521.999999999989
 20
17734.121500361289
 30
0.0
 11
25110.000000000051
 21
17734.121500361289
 31
0.0
  0
LINE
  5
6CA8F
  8
U1
 10
22521.999999999989
 20
17804.921500361292
 30
0.0
 11
25110.000000000051
 21
17804.921500361292
 31
0.0
  0
LINE
  5
6CA90
  8
U1
 10
22521.999999999989
 20
17875.721500361291
 30
0.0
 11
25110.000000000051
 21
17875.721500361291
 31
0.0
  0
LINE
  5
6CA91
  8
U1
 10
22521.999999999989
 20
17946.52150036129
 30
0.0
 11
25110.000000000051
 21
17946.52150036129
 31
0.0
  0
LINE
  5
6CA92
  8
U1
 10
22521.999999999989
 20
18017.32150036129
 30
0.0
 11
25110.000000000051
 21
18017.32150036129
 31
0.0
  0
LINE
  5
6CA93
  8
U1
 10
22521.999999999989
 20
18088.121500361289
 30
0.0
 11
25110.000000000051
 21
18088.121500361289
 31
0.0
  0
LINE
  5
6CA94
  8
U1
 10
22521.999999999989
 20
17309.32150036129
 30
0.0
 11
25110.000000000051
 21
17309.32150036129
 31
0.0
  0
LINE
  5
6CA95
  8
U1
 10
22521.999999999989
 20
17238.52150036129
 30
0.0
 11
25110.000000000051
 21
17238.52150036129
 31
0.0
  0
LINE
  5
6CA96
  8
U1
 10
22521.999999999989
 20
17167.721500361291
 30
0.0
 11
25110.000000000051
 21
17167.721500361291
 31
0.0
  0
LINE
  5
6CA97
  8
U1
 10
22521.999999999989
 20
17096.921500361292
 30
0.0
 11
25110.000000000051
 21
17096.921500361292
 31
0.0
  0
LINE
  5
6CA98
  8
U1
 10
22521.999999999989
 20
17026.121500361289
 30
0.0
 11
25110.000000000051
 21
17026.121500361289
 31
0.0
  0
LINE
  5
6CA99
  8
U1
 10
22521.999999999989
 20
16955.321500361279
 30
0.0
 11
25110.000000000051
 21
16955.321500361279
 31
0.0
  0
LINE
  5
6CA9A
  8
U1
 10
22521.999999999989
 20
16884.52150036129
 30
0.0
 11
25110.000000000051
 21
16884.52150036129
 31
0.0
  0
LINE
  5
6CA9B
  8
U1
 10
22521.999999999989
 20
16813.72150036128
 30
0.0
 11
25110.000000000051
 21
16813.72150036128
 31
0.0
  0
LINE
  5
6CA9C
  8
U1
 10
22521.999999999989
 20
16742.921500361292
 30
0.0
 11
25110.000000000051
 21
16742.921500361292
 31
0.0
  0
LINE
  5
6CA9D
  8
U1
 10
22521.999999999989
 20
16672.121500361289
 30
0.0
 11
25110.000000000051
 21
16672.121500361289
 31
0.0
  0
LINE
  5
6CA9E
  8
U1
 10
22521.999999999989
 20
16601.321500361279
 30
0.0
 11
25110.000000000011
 21
16601.321500361279
 31
0.0
  0
LINE
  5
6CA9F
  8
U1
 10
22521.999999999989
 20
16530.52150036129
 30
0.0
 11
25110.000000000011
 21
16530.52150036129
 31
0.0
  0
LINE
  5
6CAA0
  8
U1
 10
22521.999999999989
 20
16459.721500361291
 30
0.0
 11
25110.000000000011
 21
16459.721500361291
 31
0.0
  0
LINE
  5
6CAA1
  8
U1
 10
22521.999999999989
 20
19291.72150036128
 30
0.0
 11
25110.000000000011
 21
19291.72150036128
 31
0.0
  0
LINE
  5
6CAA2
  8
U1
 10
22521.999999999989
 20
19362.521500361268
 30
0.0
 11
25110.000000000011
 21
19362.521500361268
 31
0.0
  0
LINE
  5
6CAA4
  8
U1
 10
22521.999999999989
 20
19220.921500361281
 30
0.0
 11
25110.000000000018
 21
19220.921500361281
 31
0.0
  0
LINE
  5
6CAA5
  8
U1
 10
22521.999999999989
 20
19150.121500361282
 30
0.0
 11
25110.000000000018
 21
19150.121500361282
 31
0.0
  0
LINE
  5
6CAA6
  8
U1
 10
22521.999999999989
 20
19079.321500361279
 30
0.0
 11
25110.000000000018
 21
19079.321500361279
 31
0.0
  0
LINE
  5
6CAA7
  8
U1
 10
22522.0
 20
18583.72150036128
 30
0.0
 11
25110.000000000029
 21
18583.72150036128
 31
0.0
  0
LINE
  5
6CAA8
  8
U1
 10
22521.999999999989
 20
18654.521500361279
 30
0.0
 11
25110.000000000029
 21
18654.521500361279
 31
0.0
  0
LINE
  5
6CAA9
  8
U1
 10
22521.999999999989
 20
18725.321500361279
 30
0.0
 11
25110.000000000029
 21
18725.321500361279
 31
0.0
  0
LINE
  5
6CAAA
  8
U1
 10
22521.999999999989
 20
18796.121500361282
 30
0.0
 11
25110.000000000029
 21
18796.121500361282
 31
0.0
  0
LINE
  5
6CAAB
  8
U1
 10
22521.999999999989
 20
19008.521500361279
 30
0.0
 11
25110.000000000029
 21
19008.521500361279
 31
0.0
  0
LINE
  5
6CAAC
  8
U1
 10
22521.999999999989
 20
18937.72150036128
 30
0.0
 11
25110.000000000029
 21
18937.72150036128
 31
0.0
  0
LINE
  5
6CAAD
  8
U1
 10
22521.999999999989
 20
18866.921500361281
 30
0.0
 11
25110.000000000029
 21
18866.921500361281
 31
0.0
  0
LINE
  5
6CAAE
  8
U1
 10
22522.0
 20
18442.121500361289
 30
0.0
 11
25110.000000000029
 21
18442.121500361289
 31
0.0
  0
LINE
  5
6CAAF
  8
U1
 10
22522.0
 20
18512.921500361281
 30
0.0
 11
25110.000000000029
 21
18512.921500361281
 31
0.0
  0
LINE
  5
6CAB0
  8
U1
 10
22476.499999999989
 20
16318.12150036128
 30
0.0
 11
22476.499999999989
 21
19374.555091614999
 31
0.0
  0
LINE
  5
6CAB1
  8
U1
 10
22355.499999999989
 20
16318.121500361291
 30
0.0
 11
22355.499999999989
 21
19374.555091614999
 31
0.0
  0
LINE
  5
6CAB4
  8
U1
 10
16876.337459307491
 20
16318.121500361291
 30
0.0
 11
16876.337459307491
 21
19374.555091614999
 31
0.0
  0
LINE
  5
6CAB5
  8
U1
 10
25155.500000000011
 20
16318.121500361291
 30
0.0
 11
25155.500000000011
 21
19374.555091614999
 31
0.0
  0
LINE
  5
6CABB
  8
U1
 10
23841.000000000011
 20
17333.921500361281
 30
0.0
 11
23822.250000000011
 21
17344.746817908592
 31
0.0
  0
LINE
  5
6CABC
  8
U1
 10
23791.000000000011
 20
17333.921500361281
 30
0.0
 11
23809.750000000018
 21
17344.746817908592
 31
0.0
  0
LINE
  5
6CABD
  8
U1
 10
23791.000000000011
 20
17333.921500361281
 30
0.0
 11
23809.750000000018
 21
17323.096182813981
 31
0.0
  0
LINE
  5
6CABE
  8
U1
 10
23841.000000000011
 20
17333.921500361281
 30
0.0
 11
23822.250000000011
 21
17323.096182813981
 31
0.0
  0
ARC
  5
6CABF
  8
U1
 10
23816.000000000011
 20
17333.921500361281
 30
0.0
 40
12.5
 50
60.00000000001225
 51
119.99999999998769
  0
ARC
  5
6CAC0
  8
U1
 10
23816.000000000011
 20
17333.921500361281
 30
0.0
 40
12.5
 50
240.00000000001219
 51
299.99999999998778
  0
LINE
  5
6CAC3
  8
U1
 10
21041.000000000011
 20
17333.921500361281
 30
0.0
 11
21022.250000000011
 21
17344.746817908592
 31
0.0
  0
LINE
  5
6CAC4
  8
U1
 10
20991.000000000011
 20
17333.921500361281
 30
0.0
 11
21009.750000000011
 21
17344.746817908592
 31
0.0
  0
LINE
  5
6CAC5
  8
U1
 10
20991.000000000011
 20
17333.921500361281
 30
0.0
 11
21009.750000000011
 21
17323.096182813981
 31
0.0
  0
LINE
  5
6CAC6
  8
U1
 10
21041.000000000011
 20
17333.921500361281
 30
0.0
 11
21022.250000000011
 21
17323.096182813981
 31
0.0
  0
ARC
  5
6CAC7
  8
U1
 10
21016.000000000011
 20
17333.921500361281
 30
0.0
 40
12.5
 50
60.00000000001225
 51
119.99999999998769
  0
ARC
  5
6CAC8
  8
U1
 10
21016.000000000011
 20
17333.921500361281
 30
0.0
 40
12.5
 50
240.00000000001219
 51
299.99999999998778
  0
LINE
  5
6CACB
  8
U1
 10
18240.999999999982
 20
17333.921500361281
 30
0.0
 11
18222.249999999982
 21
17344.746817908592
 31
0.0
  0
LINE
  5
6CACC
  8
U1
 10
18190.999999999982
 20
17333.921500361281
 30
0.0
 11
18209.749999999982
 21
17344.746817908592
 31
0.0
  0
LINE
  5
6CACD
  8
U1
 10
18190.999999999982
 20
17333.921500361281
 30
0.0
 11
18209.749999999982
 21
17323.096182813981
 31
0.0
  0
LINE
  5
6CACE
  8
U1
 10
18240.999999999982
 20
17333.921500361281
 30
0.0
 11
18222.249999999982
 21
17323.096182813981
 31
0.0
  0
ARC
  5
6CACF
  8
U1
 10
18215.999999999982
 20
17333.921500361281
 30
0.0
 40
12.5
 50
60.00000000001225
 51
119.99999999998769
  0
ARC
  5
6CAD0
  8
U1
 10
18215.999999999982
 20
17333.921500361281
 30
0.0
 40
12.5
 50
240.00000000001219
 51
299.99999999998778
  0
ARC
  5
6CAD1
  8
U1
 10
9815.9999999999909
 20
17333.921500361281
 30
0.0
 40
12.5
 50
240.00000000001219
 51
299.99999999998778
  0
ARC
  5
6CAD2
  8
U1
 10
9815.9999999999909
 20
17333.921500361281
 30
0.0
 40
12.5
 50
60.00000000001225
 51
119.99999999998769
  0
LINE
  5
6CAD3
  8
U1
 10
9840.9999999999927
 20
17333.921500361281
 30
0.0
 11
9822.2499999999909
 21
17323.096182813981
 31
0.0
  0
LINE
  5
6CAD4
  8
U1
 10
9790.9999999999909
 20
17333.921500361281
 30
0.0
 11
9809.7499999999927
 21
17323.096182813981
 31
0.0
  0
LINE
  5
6CAD5
  8
U1
 10
9790.9999999999909
 20
17333.921500361281
 30
0.0
 11
9809.7499999999927
 21
17344.746817908592
 31
0.0
  0
LINE
  5
6CAD6
  8
U1
 10
9840.9999999999927
 20
17333.921500361281
 30
0.0
 11
9822.2499999999909
 21
17344.746817908592
 31
0.0
  0
ARC
  5
6CAD9
  8
U1
 10
12616.000000000009
 20
17333.921500361281
 30
0.0
 40
12.5
 50
240.00000000001219
 51
299.99999999998778
  0
ARC
  5
6CADA
  8
U1
 10
12616.000000000009
 20
17333.921500361281
 30
0.0
 40
12.5
 50
60.00000000001225
 51
119.99999999998769
  0
LINE
  5
6CADB
  8
U1
 10
12641.000000000009
 20
17333.921500361281
 30
0.0
 11
12622.250000000009
 21
17323.096182813981
 31
0.0
  0
LINE
  5
6CADC
  8
U1
 10
12591.000000000009
 20
17333.921500361281
 30
0.0
 11
12609.750000000009
 21
17323.096182813981
 31
0.0
  0
LINE
  5
6CADD
  8
U1
 10
12591.000000000009
 20
17333.921500361281
 30
0.0
 11
12609.750000000009
 21
17344.746817908592
 31
0.0
  0
LINE
  5
6CADE
  8
U1
 10
12641.000000000009
 20
17333.921500361281
 30
0.0
 11
12622.250000000009
 21
17344.746817908592
 31
0.0
  0
ARC
  5
6CAE1
  8
U1
 10
15416.00000000002
 20
17333.921500361281
 30
0.0
 40
12.5
 50
240.00000000001219
 51
299.99999999998778
  0
ARC
  5
6CAE2
  8
U1
 10
15416.00000000002
 20
17333.921500361281
 30
0.0
 40
12.5
 50
60.00000000001225
 51
119.99999999998769
  0
LINE
  5
6CAE3
  8
U1
 10
15441.00000000002
 20
17333.921500361281
 30
0.0
 11
15422.25000000002
 21
17323.096182813981
 31
0.0
  0
LINE
  5
6CAE4
  8
U1
 10
15391.00000000002
 20
17333.921500361281
 30
0.0
 11
15409.75000000002
 21
17323.096182813981
 31
0.0
  0
LINE
  5
6CAE5
  8
U1
 10
15391.00000000002
 20
17333.921500361281
 30
0.0
 11
15409.75000000002
 21
17344.746817908592
 31
0.0
  0
LINE
  5
6CAE6
  8
U1
 10
15441.00000000002
 20
17333.921500361281
 30
0.0
 11
15422.25000000002
 21
17344.746817908592
 31
0.0
  0
LINE
  5
6CAEC
  8
U1
 10
16755.500000000011
 20
16318.121500361291
 30
0.0
 11
16755.500000000018
 21
19374.555091614999
 31
0.0
  0
LINE
  5
6CAED
  8
U1
 10
8476.3374593074968
 20
16318.121500361291
 30
0.0
 11
8476.3374593074968
 21
19374.555091614999
 31
0.0
  0
LINE
  5
6CAF0
  8
U1
 10
13955.499999999991
 20
16318.121500361291
 30
0.0
 11
13955.499999999991
 21
19374.555091614999
 31
0.0
  0
LINE
  5
6CAF1
  8
U1
 10
14076.499999999991
 20
16318.12150036128
 30
0.0
 11
14076.499999999991
 21
19374.555091614999
 31
0.0
  0
LINE
  5
6CAF2
  8
U1
 10
14122.0
 20
18512.921500361281
 30
0.0
 11
16710.000000000029
 21
18512.921500361281
 31
0.0
  0
LINE
  5
6CAF3
  8
U1
 10
14122.0
 20
18442.121500361289
 30
0.0
 11
16710.000000000029
 21
18442.121500361289
 31
0.0
  0
LINE
  5
6CAF4
  8
U1
 10
14121.999999999991
 20
18866.921500361281
 30
0.0
 11
16710.000000000029
 21
18866.921500361281
 31
0.0
  0
LINE
  5
6CAF5
  8
U1
 10
14121.999999999991
 20
18937.72150036128
 30
0.0
 11
16710.000000000029
 21
18937.72150036128
 31
0.0
  0
LINE
  5
6CAF6
  8
U1
 10
14121.999999999991
 20
19008.521500361279
 30
0.0
 11
16710.000000000029
 21
19008.521500361279
 31
0.0
  0
LINE
  5
6CAF7
  8
U1
 10
14122.0
 20
18796.121500361282
 30
0.0
 11
16710.000000000029
 21
18796.121500361282
 31
0.0
  0
LINE
  5
6CAF8
  8
U1
 10
14122.0
 20
18725.321500361279
 30
0.0
 11
16710.000000000029
 21
18725.321500361279
 31
0.0
  0
LINE
  5
6CAF9
  8
U1
 10
14122.0
 20
18654.521500361279
 30
0.0
 11
16710.000000000029
 21
18654.521500361279
 31
0.0
  0
LINE
  5
6CAFA
  8
U1
 10
14122.0
 20
18583.72150036128
 30
0.0
 11
16710.000000000029
 21
18583.72150036128
 31
0.0
  0
LINE
  5
6CAFB
  8
U1
 10
14121.999999999991
 20
19079.321500361279
 30
0.0
 11
16710.000000000029
 21
19079.321500361279
 31
0.0
  0
LINE
  5
6CAFC
  8
U1
 10
14121.999999999991
 20
19150.121500361282
 30
0.0
 11
16710.000000000029
 21
19150.121500361282
 31
0.0
  0
LINE
  5
6CAFD
  8
U1
 10
14121.999999999991
 20
19220.921500361281
 30
0.0
 11
16710.000000000029
 21
19220.921500361281
 31
0.0
  0
LINE
  5
6CAFF
  8
U1
 10
14121.99999999998
 20
19362.521500361268
 30
0.0
 11
16710.000000000018
 21
19362.521500361268
 31
0.0
  0
LINE
  5
6CB00
  8
U1
 10
14121.99999999998
 20
19291.72150036128
 30
0.0
 11
16710.000000000018
 21
19291.72150036128
 31
0.0
  0
LINE
  5
6CB01
  8
U1
 10
14121.999999999991
 20
16459.721500361291
 30
0.0
 11
16710.000000000011
 21
16459.721500361291
 31
0.0
  0
LINE
  5
6CB02
  8
U1
 10
14121.999999999991
 20
16530.52150036129
 30
0.0
 11
16710.000000000011
 21
16530.52150036129
 31
0.0
  0
LINE
  5
6CB03
  8
U1
 10
14121.999999999991
 20
16601.321500361279
 30
0.0
 11
16710.000000000011
 21
16601.321500361279
 31
0.0
  0
LINE
  5
6CB04
  8
U1
 10
14121.999999999991
 20
16672.121500361289
 30
0.0
 11
16710.00000000004
 21
16672.121500361289
 31
0.0
  0
LINE
  5
6CB05
  8
U1
 10
14121.999999999991
 20
16742.921500361292
 30
0.0
 11
16710.00000000004
 21
16742.921500361292
 31
0.0
  0
LINE
  5
6CB06
  8
U1
 10
14121.999999999991
 20
16813.72150036128
 30
0.0
 11
16710.00000000004
 21
16813.72150036128
 31
0.0
  0
LINE
  5
6CB07
  8
U1
 10
14121.999999999991
 20
16884.52150036129
 30
0.0
 11
16710.00000000004
 21
16884.52150036129
 31
0.0
  0
LINE
  5
6CB08
  8
U1
 10
14121.999999999991
 20
16955.321500361279
 30
0.0
 11
16710.00000000004
 21
16955.321500361279
 31
0.0
  0
LINE
  5
6CB09
  8
U1
 10
14121.999999999991
 20
17026.121500361289
 30
0.0
 11
16710.00000000004
 21
17026.121500361289
 31
0.0
  0
LINE
  5
6CB0A
  8
U1
 10
14121.999999999991
 20
17096.921500361292
 30
0.0
 11
16710.00000000004
 21
17096.921500361292
 31
0.0
  0
LINE
  5
6CB0B
  8
U1
 10
14121.999999999991
 20
17167.721500361291
 30
0.0
 11
16710.00000000004
 21
17167.721500361291
 31
0.0
  0
LINE
  5
6CB0C
  8
U1
 10
14121.999999999991
 20
17238.52150036129
 30
0.0
 11
16710.00000000004
 21
17238.52150036129
 31
0.0
  0
LINE
  5
6CB0D
  8
U1
 10
14121.999999999991
 20
17309.32150036129
 30
0.0
 11
16710.00000000004
 21
17309.32150036129
 31
0.0
  0
LINE
  5
6CB0E
  8
U1
 10
14121.999999999991
 20
18088.121500361289
 30
0.0
 11
16710.00000000004
 21
18088.121500361289
 31
0.0
  0
LINE
  5
6CB0F
  8
U1
 10
14121.999999999991
 20
18017.32150036129
 30
0.0
 11
16710.00000000004
 21
18017.32150036129
 31
0.0
  0
LINE
  5
6CB10
  8
U1
 10
14121.999999999991
 20
17946.52150036129
 30
0.0
 11
16710.00000000004
 21
17946.52150036129
 31
0.0
  0
LINE
  5
6CB11
  8
U1
 10
14121.999999999991
 20
17875.721500361291
 30
0.0
 11
16710.00000000004
 21
17875.721500361291
 31
0.0
  0
LINE
  5
6CB12
  8
U1
 10
14121.999999999991
 20
17804.921500361292
 30
0.0
 11
16710.00000000004
 21
17804.921500361292
 31
0.0
  0
LINE
  5
6CB13
  8
U1
 10
14121.999999999991
 20
17734.121500361289
 30
0.0
 11
16710.00000000004
 21
17734.121500361289
 31
0.0
  0
LINE
  5
6CB14
  8
U1
 10
14121.999999999991
 20
17663.32150036129
 30
0.0
 11
16710.00000000004
 21
17663.32150036129
 31
0.0
  0
LINE
  5
6CB15
  8
U1
 10
14121.999999999991
 20
17592.52150036129
 30
0.0
 11
16710.00000000004
 21
17592.52150036129
 31
0.0
  0
LINE
  5
6CB16
  8
U1
 10
14121.999999999991
 20
17521.721500361291
 30
0.0
 11
16710.00000000004
 21
17521.721500361291
 31
0.0
  0
LINE
  5
6CB17
  8
U1
 10
14121.999999999991
 20
17450.921500361292
 30
0.0
 11
16710.00000000004
 21
17450.921500361292
 31
0.0
  0
LINE
  5
6CB18
  8
U1
 10
14121.999999999991
 20
17380.121500361289
 30
0.0
 11
16710.00000000004
 21
17380.121500361289
 31
0.0
  0
LINE
  5
6CB19
  8
U1
 10
14121.999999999991
 20
18158.921500361292
 30
0.0
 11
16710.00000000004
 21
18158.921500361292
 31
0.0
  0
LINE
  5
6CB1A
  8
U1
 10
14121.999999999991
 20
16388.921500361281
 30
0.0
 11
16710.000000000011
 21
16388.921500361281
 31
0.0
  0
LINE
  5
6CB1B
  8
U1
 10
14122.000000000009
 20
18229.721500361291
 30
0.0
 11
16710.00000000004
 21
18229.721500361291
 31
0.0
  0
LINE
  5
6CB1C
  8
U1
 10
14122.000000000009
 20
18300.521500361279
 30
0.0
 11
16710.00000000004
 21
18300.521500361279
 31
0.0
  0
LINE
  5
6CB1D
  8
U1
 10
14122.0
 20
18371.321500361279
 30
0.0
 11
16710.000000000029
 21
18371.321500361279
 31
0.0
  0
LINE
  5
6CB1E
  8
U1
 10
11322.000000000009
 20
16388.921500361281
 30
0.0
 11
13909.099999999969
 21
16388.921500361281
 31
0.0
  0
LINE
  5
6CB1F
  8
U1
 10
11322.000000000009
 20
16459.721500361291
 30
0.0
 11
13909.099999999969
 21
16459.721500361291
 31
0.0
  0
LINE
  5
6CB20
  8
U1
 10
11322.000000000009
 20
16530.52150036129
 30
0.0
 11
13909.099999999969
 21
16530.52150036129
 31
0.0
  0
LINE
  5
6CB21
  8
U1
 10
11322.000000000009
 20
16601.321500361279
 30
0.0
 11
13910.000000000009
 21
16601.321500361279
 31
0.0
  0
LINE
  5
6CB22
  8
U1
 10
11322.000000000009
 20
16672.121500361282
 30
0.0
 11
13910.000000000009
 21
16672.121500361282
 31
0.0
  0
LINE
  5
6CB23
  8
U1
 10
11322.000000000009
 20
16742.921500361292
 30
0.0
 11
13910.000000000009
 21
16742.921500361292
 31
0.0
  0
LINE
  5
6CB24
  8
U1
 10
11322.000000000009
 20
16813.72150036128
 30
0.0
 11
13910.000000000009
 21
16813.72150036128
 31
0.0
  0
LINE
  5
6CB25
  8
U1
 10
11322.000000000009
 20
16884.521500361279
 30
0.0
 11
13910.000000000009
 21
16884.521500361279
 31
0.0
  0
LINE
  5
6CB26
  8
U1
 10
11322.000000000009
 20
16955.321500361279
 30
0.0
 11
13910.000000000009
 21
16955.321500361279
 31
0.0
  0
LINE
  5
6CB27
  8
U1
 10
11322.000000000009
 20
17026.121500361289
 30
0.0
 11
13910.000000000009
 21
17026.121500361289
 31
0.0
  0
LINE
  5
6CB28
  8
U1
 10
11322.000000000009
 20
17096.921500361292
 30
0.0
 11
13910.000000000009
 21
17096.921500361292
 31
0.0
  0
LINE
  5
6CB29
  8
U1
 10
11322.000000000009
 20
17167.721500361291
 30
0.0
 11
13910.000000000009
 21
17167.721500361291
 31
0.0
  0
LINE
  5
6CB2A
  8
U1
 10
11322.000000000009
 20
17238.52150036129
 30
0.0
 11
13910.000000000009
 21
17238.52150036129
 31
0.0
  0
LINE
  5
6CB2B
  8
U1
 10
11322.000000000009
 20
17309.32150036129
 30
0.0
 11
13910.000000000009
 21
17309.32150036129
 31
0.0
  0
LINE
  5
6CB2C
  8
U1
 10
11322.000000000009
 20
18088.121500361289
 30
0.0
 11
13910.000000000009
 21
18088.121500361289
 31
0.0
  0
LINE
  5
6CB2D
  8
U1
 10
11322.000000000009
 20
18017.32150036129
 30
0.0
 11
13910.000000000009
 21
18017.32150036129
 31
0.0
  0
LINE
  5
6CB2E
  8
U1
 10
11322.000000000009
 20
17946.52150036129
 30
0.0
 11
13910.000000000009
 21
17946.52150036129
 31
0.0
  0
LINE
  5
6CB2F
  8
U1
 10
11322.000000000009
 20
17875.721500361291
 30
0.0
 11
13910.000000000009
 21
17875.721500361291
 31
0.0
  0
LINE
  5
6CB30
  8
U1
 10
11322.000000000009
 20
17804.921500361292
 30
0.0
 11
13910.000000000009
 21
17804.921500361292
 31
0.0
  0
LINE
  5
6CB31
  8
U1
 10
11322.000000000009
 20
17734.121500361289
 30
0.0
 11
13910.000000000009
 21
17734.121500361289
 31
0.0
  0
LINE
  5
6CB32
  8
U1
 10
11322.000000000009
 20
17663.32150036129
 30
0.0
 11
13910.000000000009
 21
17663.32150036129
 31
0.0
  0
LINE
  5
6CB33
  8
U1
 10
11322.000000000009
 20
17592.52150036129
 30
0.0
 11
13910.000000000009
 21
17592.52150036129
 31
0.0
  0
LINE
  5
6CB34
  8
U1
 10
11322.000000000009
 20
17521.721500361291
 30
0.0
 11
13910.000000000009
 21
17521.721500361291
 31
0.0
  0
LINE
  5
6CB35
  8
U1
 10
11322.000000000009
 20
17450.921500361292
 30
0.0
 11
13910.000000000009
 21
17450.921500361292
 31
0.0
  0
LINE
  5
6CB36
  8
U1
 10
11322.000000000009
 20
17380.121500361289
 30
0.0
 11
13910.000000000009
 21
17380.121500361289
 31
0.0
  0
LINE
  5
6CB37
  8
U1
 10
11322.0
 20
18158.921500361292
 30
0.0
 11
13910.000000000009
 21
18158.921500361292
 31
0.0
  0
LINE
  5
6CB38
  8
U1
 10
11322.0
 20
18229.721500361291
 30
0.0
 11
13910.000000000009
 21
18229.721500361291
 31
0.0
  0
LINE
  5
6CB39
  8
U1
 10
11322.0
 20
18300.521500361279
 30
0.0
 11
13910.000000000009
 21
18300.521500361279
 31
0.0
  0
LINE
  5
6CB3A
  8
U1
 10
11322.0
 20
18512.921500361281
 30
0.0
 11
13910.0
 21
18512.921500361281
 31
0.0
  0
LINE
  5
6CB3B
  8
U1
 10
11322.0
 20
18442.121500361289
 30
0.0
 11
13910.0
 21
18442.121500361289
 31
0.0
  0
LINE
  5
6CB3C
  8
U1
 10
11322.0
 20
18371.321500361279
 30
0.0
 11
13910.0
 21
18371.321500361279
 31
0.0
  0
LINE
  5
6CB3D
  8
U1
 10
11322.0
 20
18866.921500361281
 30
0.0
 11
13909.999999999991
 21
18866.921500361281
 31
0.0
  0
LINE
  5
6CB3E
  8
U1
 10
11322.0
 20
18937.72150036128
 30
0.0
 11
13909.999999999991
 21
18937.72150036128
 31
0.0
  0
LINE
  5
6CB3F
  8
U1
 10
11322.0
 20
19008.521500361279
 30
0.0
 11
13909.999999999991
 21
19008.521500361279
 31
0.0
  0
LINE
  5
6CB40
  8
U1
 10
11322.0
 20
18796.121500361282
 30
0.0
 11
13910.0
 21
18796.121500361282
 31
0.0
  0
LINE
  5
6CB41
  8
U1
 10
11322.0
 20
18725.321500361279
 30
0.0
 11
13910.0
 21
18725.321500361279
 31
0.0
  0
LINE
  5
6CB42
  8
U1
 10
11322.0
 20
18654.521500361279
 30
0.0
 11
13910.0
 21
18654.521500361279
 31
0.0
  0
LINE
  5
6CB43
  8
U1
 10
11322.0
 20
18583.72150036128
 30
0.0
 11
13910.0
 21
18583.72150036128
 31
0.0
  0
LINE
  5
6CB44
  8
U1
 10
11321.999999999991
 20
19079.321500361279
 30
0.0
 11
13909.999999999991
 21
19079.321500361279
 31
0.0
  0
LINE
  5
6CB45
  8
U1
 10
11321.999999999991
 20
19150.121500361282
 30
0.0
 11
13909.999999999991
 21
19150.121500361282
 31
0.0
  0
LINE
  5
6CB46
  8
U1
 10
11321.999999999991
 20
19220.921500361281
 30
0.0
 11
13909.999999999991
 21
19220.921500361281
 31
0.0
  0
LINE
  5
6CB48
  8
U1
 10
11321.999999999991
 20
19362.521500361268
 30
0.0
 11
13909.99999999998
 21
19362.521500361268
 31
0.0
  0
LINE
  5
6CB49
  8
U1
 10
11321.999999999991
 20
19291.72150036128
 30
0.0
 11
13909.99999999998
 21
19291.72150036128
 31
0.0
  0
LINE
  5
6CB4A
  8
U1
 10
8521.9999999999654
 20
19291.72150036128
 30
0.0
 11
11109.999999999991
 21
19291.72150036128
 31
0.0
  0
LINE
  5
6CB4B
  8
U1
 10
8521.9999999999654
 20
19362.521500361268
 30
0.0
 11
11109.999999999991
 21
19362.521500361268
 31
0.0
  0
LINE
  5
6CB4D
  8
U1
 10
8521.9999999999673
 20
19220.921500361281
 30
0.0
 11
11109.999999999991
 21
19220.921500361281
 31
0.0
  0
LINE
  5
6CB4E
  8
U1
 10
8521.9999999999673
 20
19150.121500361282
 30
0.0
 11
11109.999999999991
 21
19150.121500361282
 31
0.0
  0
LINE
  5
6CB4F
  8
U1
 10
8521.9999999999673
 20
19079.321500361279
 30
0.0
 11
11109.999999999991
 21
19079.321500361279
 31
0.0
  0
LINE
  5
6CB50
  8
U1
 10
8521.99999999998
 20
18583.72150036128
 30
0.0
 11
11110.000000000009
 21
18583.72150036128
 31
0.0
  0
LINE
  5
6CB51
  8
U1
 10
8521.9999999999764
 20
18654.521500361279
 30
0.0
 11
11110.0
 21
18654.521500361279
 31
0.0
  0
LINE
  5
6CB52
  8
U1
 10
8521.9999999999764
 20
18725.321500361279
 30
0.0
 11
11110.0
 21
18725.321500361279
 31
0.0
  0
LINE
  5
6CB53
  8
U1
 10
8521.9999999999764
 20
18796.121500361282
 30
0.0
 11
11110.0
 21
18796.121500361282
 31
0.0
  0
LINE
  5
6CB54
  8
U1
 10
8521.9999999999727
 20
19008.521500361279
 30
0.0
 11
11110.0
 21
19008.521500361279
 31
0.0
  0
LINE
  5
6CB55
  8
U1
 10
8521.9999999999727
 20
18937.72150036128
 30
0.0
 11
11110.0
 21
18937.72150036128
 31
0.0
  0
LINE
  5
6CB56
  8
U1
 10
8521.9999999999727
 20
18866.921500361281
 30
0.0
 11
11110.0
 21
18866.921500361281
 31
0.0
  0
LINE
  5
6CB57
  8
U1
 10
8521.99999999998
 20
18371.321500361279
 30
0.0
 11
11110.000000000009
 21
18371.321500361279
 31
0.0
  0
LINE
  5
6CB58
  8
U1
 10
8521.99999999998
 20
18442.121500361289
 30
0.0
 11
11110.000000000009
 21
18442.121500361289
 31
0.0
  0
LINE
  5
6CB59
  8
U1
 10
8521.99999999998
 20
18512.921500361281
 30
0.0
 11
11110.000000000009
 21
18512.921500361281
 31
0.0
  0
LINE
  5
6CB5A
  8
U1
 10
8521.9999999999836
 20
18300.521500361279
 30
0.0
 11
11110.000000000009
 21
18300.521500361279
 31
0.0
  0
LINE
  5
6CB5B
  8
U1
 10
8521.9999999999836
 20
18229.721500361291
 30
0.0
 11
11110.000000000009
 21
18229.721500361291
 31
0.0
  0
LINE
  5
6CB5C
  8
U1
 10
8521.9999999999654
 20
16388.921500361281
 30
0.0
 11
11110.000000000009
 21
16388.921500361281
 31
0.0
  0
LINE
  5
6CB5D
  8
U1
 10
8521.9999999999836
 20
18158.921500361292
 30
0.0
 11
11110.000000000009
 21
18158.921500361292
 31
0.0
  0
LINE
  5
6CB5E
  8
U1
 10
8521.9999999999873
 20
17380.121500361289
 30
0.0
 11
11110.000000000009
 21
17380.121500361289
 31
0.0
  0
LINE
  5
6CB5F
  8
U1
 10
8521.9999999999873
 20
17450.921500361292
 30
0.0
 11
11110.000000000009
 21
17450.921500361292
 31
0.0
  0
LINE
  5
6CB60
  8
U1
 10
8521.9999999999873
 20
17521.721500361291
 30
0.0
 11
11110.000000000009
 21
17521.721500361291
 31
0.0
  0
LINE
  5
6CB61
  8
U1
 10
8521.9999999999873
 20
17592.52150036129
 30
0.0
 11
11110.000000000009
 21
17592.52150036129
 31
0.0
  0
LINE
  5
6CB62
  8
U1
 10
8521.9999999999873
 20
17663.32150036129
 30
0.0
 11
11110.000000000009
 21
17663.32150036129
 31
0.0
  0
LINE
  5
6CB63
  8
U1
 10
8521.9999999999873
 20
17734.121500361289
 30
0.0
 11
11110.000000000009
 21
17734.121500361289
 31
0.0
  0
LINE
  5
6CB64
  8
U1
 10
8521.9999999999873
 20
17804.921500361292
 30
0.0
 11
11110.000000000009
 21
17804.921500361292
 31
0.0
  0
LINE
  5
6CB65
  8
U1
 10
8521.9999999999873
 20
17875.721500361291
 30
0.0
 11
11110.000000000009
 21
17875.721500361291
 31
0.0
  0
LINE
  5
6CB66
  8
U1
 10
8521.9999999999873
 20
17946.52150036129
 30
0.0
 11
11110.000000000009
 21
17946.52150036129
 31
0.0
  0
LINE
  5
6CB67
  8
U1
 10
8521.9999999999873
 20
18017.32150036129
 30
0.0
 11
11110.000000000009
 21
18017.32150036129
 31
0.0
  0
LINE
  5
6CB68
  8
U1
 10
8521.9999999999873
 20
18088.121500361289
 30
0.0
 11
11110.000000000009
 21
18088.121500361289
 31
0.0
  0
LINE
  5
6CB69
  8
U1
 10
8521.9999999999873
 20
17309.32150036129
 30
0.0
 11
11110.000000000009
 21
17309.32150036129
 31
0.0
  0
LINE
  5
6CB6A
  8
U1
 10
8521.9999999999654
 20
17238.52150036129
 30
0.0
 11
11110.000000000009
 21
17238.52150036129
 31
0.0
  0
LINE
  5
6CB6B
  8
U1
 10
8521.9999999999654
 20
17167.721500361291
 30
0.0
 11
11110.000000000009
 21
17167.721500361291
 31
0.0
  0
LINE
  5
6CB6C
  8
U1
 10
8521.9999999999654
 20
17096.921500361292
 30
0.0
 11
11110.000000000009
 21
17096.921500361292
 31
0.0
  0
LINE
  5
6CB6D
  8
U1
 10
8521.9999999999654
 20
17026.121500361289
 30
0.0
 11
11110.000000000009
 21
17026.121500361289
 31
0.0
  0
LINE
  5
6CB6E
  8
U1
 10
8521.9999999999654
 20
16955.321500361279
 30
0.0
 11
11110.000000000009
 21
16955.321500361279
 31
0.0
  0
LINE
  5
6CB6F
  8
U1
 10
8521.9999999999654
 20
16884.521500361279
 30
0.0
 11
11110.000000000009
 21
16884.52150036129
 31
0.0
  0
LINE
  5
6CB70
  8
U1
 10
8521.9999999999654
 20
16813.72150036128
 30
0.0
 11
11110.000000000009
 21
16813.72150036128
 31
0.0
  0
LINE
  5
6CB71
  8
U1
 10
8521.9999999999654
 20
16742.921500361292
 30
0.0
 11
11110.000000000009
 21
16742.921500361292
 31
0.0
  0
LINE
  5
6CB72
  8
U1
 10
8521.9999999999654
 20
16672.121500361282
 30
0.0
 11
11110.000000000009
 21
16672.121500361289
 31
0.0
  0
LINE
  5
6CB73
  8
U1
 10
8521.9999999999654
 20
16601.321500361279
 30
0.0
 11
11110.000000000009
 21
16601.321500361279
 31
0.0
  0
LINE
  5
6CB74
  8
U1
 10
8521.9999999999654
 20
16530.52150036129
 30
0.0
 11
11110.000000000009
 21
16530.52150036129
 31
0.0
  0
LINE
  5
6CB75
  8
U1
 10
8521.9999999999654
 20
16459.721500361291
 30
0.0
 11
11110.000000000009
 21
16459.721500361291
 31
0.0
  0
TEXT
  5
6CB7C
  8
SUNPOU
 10
7010.9999999999918
 20
18019.245309885089
 30
0.0
 40
160.0
  1
3780
 50
90.0
 41
0.6700000000000002
  7
00
  0
LINE
  5
6CB7D
  8
SUNPOU
 10
7490.9999999999909
 20
16358.121500361291
 30
0.0
 11
7490.9999999999909
 21
19448.121500361289
 31
0.0
  0
LINE
  5
6CB7E
  8
SUNPOU
 10
7090.9999999999909
 20
16358.121500361291
 30
0.0
 11
7090.9999999999909
 21
20058.121500361289
 31
0.0
  0
LINE
  5
6CB7F
  8
SUNPOU
 10
8210.9999999999909
 20
16318.121500361291
 30
0.0
 11
6970.9999999999909
 21
16318.121500361291
 31
0.0
  0
LINE
  5
6CB80
  8
SUNPOU
 10
8175.9999999999909
 20
20098.121500361289
 30
0.0
 11
6970.9999999999909
 21
20098.121500361289
 31
0.0
  0
LINE
  5
6CB81
  8
SUNPOU
 10
8175.9999999999909
 20
19488.121500361289
 30
0.0
 11
7370.9999999999909
 21
19488.121500361289
 31
0.0
  0
LINE
  5
6CB82
  8
U1
 10
14140.99999999998
 20
19918.121500361289
 30
0.0
 11
14140.99999999998
 21
20098.121500361289
 31
0.0
  0
LINE
  5
6CB83
  8
U1
 10
16710.000000000011
 20
16318.121500361291
 30
0.0
 11
16710.000000000018
 21
19374.555091614999
 31
0.0
  0
LINE
  5
6CB84
  8
U1
 10
14121.999999999991
 20
16318.121500361291
 30
0.0
 11
14121.999999999991
 21
19374.555091614999
 31
0.0
  0
LINE
  5
6CB85
  8
U1
 10
14070.99999999998
 20
16318.121500361291
 30
0.0
 11
14070.99999999998
 21
19374.555091614999
 31
0.0
  0
LINE
  5
6CB86
  8
U1
 10
13909.999999999991
 20
16318.121500361291
 30
0.0
 11
13909.999999999991
 21
19374.555091614999
 31
0.0
  0
LINE
  5
6CB87
  8
U1
 10
13960.99999999998
 20
16318.121500361291
 30
0.0
 11
13960.99999999998
 21
19374.555091614999
 31
0.0
  0
LINE
  5
6CB88
  8
U1
 10
16767.705729548201
 20
19918.121500361289
 30
0.0
 11
16767.705729548201
 21
19689.121500361289
 31
0.0
  0
LINE
  5
6CB89
  8
1PL-M1
 10
14015.99999999998
 20
14078.121500361291
 30
0.0
 11
14015.99999999998
 21
16818.121500361289
 31
0.0
  0
LINE
  5
6CB8A
  8
U1
 10
11340.99999999998
 20
19918.121500361289
 30
0.0
 11
11340.99999999998
 21
20098.121500361289
 31
0.0
  0
ARC
  5
6CB8B
  8
U1
 10
8265.9999999999909
 20
20088.121500361289
 30
0.0
 40
10.0
 50
90.0
 51
180.0
  0
ARC
  5
6CB8C
  8
U1
 10
8265.9999999999909
 20
19928.121500361289
 30
0.0
 40
10.0
 50
180.0
 51
270.0
  0
LINE
  5
6CB8F
  8
U1
 10
8255.9999999999891
 20
19928.121500361289
 30
0.0
 11
8255.9999999999909
 21
20088.121500361289
 31
0.0
  0
LINE
  5
6CB92
  8
U1
 10
11321.999999999991
 20
16318.121500361291
 30
0.0
 11
11321.999999999991
 21
19374.555091614999
 31
0.0
  0
LINE
  5
6CB93
  8
U1
 10
11276.5
 20
16318.121500361291
 30
0.0
 11
11276.499999999991
 21
19374.555091614999
 31
0.0
  0
LINE
  5
6CB94
  8
U1
 10
11155.499999999991
 20
16318.121500361291
 30
0.0
 11
11155.499999999991
 21
19374.555091614999
 31
0.0
  0
LINE
  5
6CB95
  8
U1
 10
11109.999999999991
 20
16318.121500361291
 30
0.0
 11
11109.999999999991
 21
19374.555091614999
 31
0.0
  0
LINE
  5
6CB96
  8
U1
 10
8521.9999999999654
 20
16318.121500361291
 30
0.0
 11
8521.9999999999654
 21
19374.555091614999
 31
0.0
  0
LINE
  5
6CB97
  8
U1
 10
8290.9999999999909
 20
16318.121500361291
 30
0.0
 11
8290.9999999999909
 21
19470.556065383062
 31
0.0
  0
LINE
  5
6CB98
  8
U1
 10
8464.2942704517718
 20
19918.691127034312
 30
0.0
 11
8464.2942704517718
 21
19689.121500361289
 31
0.0
  0
LINE
  5
6CB9B
  8
1PL-M1
 10
11215.99999999998
 20
14078.121500361291
 30
0.0
 11
11215.99999999998
 21
16818.121500361289
 31
0.0
  0
LINE
  5
6CB9C
  8
1PL-M1
 10
8415.9999999999909
 20
14078.121500361291
 30
0.0
 11
8415.9999999999909
 21
16818.121500361289
 31
0.0
  0
LINE
  5
6CB9D
  8
U1
 10
8255.9999999999909
 20
19958.121500361289
 30
0.0
 11
25375.999999999982
 21
19958.121500361289
 31
0.0
  0
LINE
  5
6CB9E
  8
U1
 10
8255.9999999999909
 20
19973.121500361289
 30
0.0
 11
25375.999999999982
 21
19973.121500361289
 31
0.0
  0
LINE
  5
6CB9F
  8
U1
 10
8255.9999999999909
 20
20043.121500361289
 30
0.0
 11
25375.999999999982
 21
20043.121500361289
 31
0.0
  0
LINE
  5
6CBA0
  8
U1
 10
8255.9999999999909
 20
20058.121500361289
 30
0.0
 11
25375.999999999982
 21
20058.121500361289
 31
0.0
  0
LINE
  5
6CBA1
  8
U1
 10
8265.9999999999909
 20
19918.121500361289
 30
0.0
 11
25365.999999999982
 21
19918.121500361289
 31
0.0
  0
LINE
  5
6CBA3
  8
U1
 10
8265.9999999999909
 20
20098.121500361289
 30
0.0
 11
25365.999999999982
 21
20098.121500361289
 31
0.0
  0
LINE
  5
6CBA4
  8
U1
 10
8290.9999999999909
 20
16318.121500361291
 30
0.0
 11
8373.4999999999873
 21
16318.121500361291
 31
0.0
  0
LINE
  5
6CBA5
  8
SUNPOU
 10
8561.9999999999618
 20
15518.121500361291
 30
0.0
 11
13627.99999999996
 21
15518.121500361291
 31
0.0
  0
LINE
  5
6CBA6
  8
SUNPOU
 10
8521.9999999999618
 20
16238.121500361291
 30
0.0
 11
8521.9999999999618
 21
15398.121500361291
 31
0.0
  0
LINE
  5
6CBAB
  8
SUNPOU
 10
13687.99999999996
 20
16238.121500361291
 30
0.0
 11
13687.99999999996
 21
15398.121500361291
 31
0.0
  0
LINE
  5
6CBAC
  8
SUNPOU
 10
16961.99999999996
 20
15518.121500361291
 30
0.0
 11
22027.99999999996
 21
15518.121500361291
 31
0.0
  0
LINE
  5
6CBAD
  8
SUNPOU
 10
16921.99999999996
 20
16238.121500361291
 30
0.0
 11
16921.99999999996
 21
15398.121500361291
 31
0.0
  0
LINE
  5
6CBB2
  8
SUNPOU
 10
22087.99999999996
 20
16238.121500361291
 30
0.0
 11
22087.99999999996
 21
15398.121500361291
 31
0.0
  0
LINE
  5
6CBB3
  8
U1
 10
16940.999999999982
 20
19918.121500361289
 30
0.0
 11
16940.999999999982
 21
20098.121500361289
 31
0.0
  0
LINE
  5
6CBDD
  8
U1
 10
25340.999999999982
 20
19689.121500361289
 30
0.0
 11
25340.999999999982
 21
20098.121500361289
 31
0.0
  0
LINE
  5
6CBDE
  8
U1
 10
8290.9999999999909
 20
19689.121500361289
 30
0.0
 11
8290.9999999999909
 21
20098.121500361289
 31
0.0
  0
LINE
  5
6CBDF
  8
U1
 10
8464.2942704517718
 20
19374.555091614999
 30
0.0
 11
8464.2942704517718
 21
16318.121500361291
 31
0.0
  0
LINE
  5
6CBE0
  8
U1
 10
14070.99999999998
 20
19689.121500361289
 30
0.0
 11
14070.99999999998
 21
19918.121500361289
 31
0.0
  0
LINE
  5
6CBE1
  8
U1
 10
13960.99999999998
 20
19689.121500361289
 30
0.0
 11
13960.99999999998
 21
19918.121500361289
 31
0.0
  0
LINE
  5
6CBE2
  8
U1
 10
16864.294270451759
 20
19374.555091614999
 30
0.0
 11
16864.294270451759
 21
16318.121500361291
 31
0.0
  0
LINE
  5
6CBE3
  8
U1
 10
16767.705729548201
 20
19374.555091614999
 30
0.0
 11
16767.705729548201
 21
16318.121500361291
 31
0.0
  0
LINE
  5
6CBE4
  8
U1
 10
22470.999999999971
 20
19689.121500361289
 30
0.0
 11
22470.999999999971
 21
19918.121500361289
 31
0.0
  0
LINE
  5
6CBE5
  8
U1
 10
22360.999999999971
 20
19689.121500361289
 30
0.0
 11
22360.999999999971
 21
19918.121500361289
 31
0.0
  0
LINE
  5
6CBE6
  8
U1
 10
25167.705729548201
 20
19374.555091614999
 30
0.0
 11
25167.705729548208
 21
16318.121500361291
 31
0.0
  0
LINE
  5
6CBE8
  8
U1
 10
8458.4999999999909
 20
16318.121500361291
 30
0.0
 11
13973.499999999991
 21
16318.121500361291
 31
0.0
  0
LINE
  5
6CBF0
  8
U1
 10
14058.49999999998
 20
16318.121500361291
 30
0.0
 11
16773.499999999982
 21
16318.12150036128
 31
0.0
  0
LINE
  5
6CBF2
  8
U1
 10
16773.499999999982
 20
16018.12150036126
 30
0.0
 11
16773.499999999982
 21
19401.121500361289
 31
0.0
  0
LINE
  5
6CBF3
  8
下屋前桁
 10
16772.999999999982
 20
19401.121500361322
 30
0.0
 11
16810.999999999982
 21
19401.121500361289
 31
0.0
  0
ARC
  5
6CBF4
  8
下屋前桁
 10
16810.999999999982
 20
19406.121500361289
 30
0.0
 40
5.0
 50
270.0
 51
0.0
  0
LINE
  5
6CBF5
  8
下屋前桁
 10
16772.999999999931
 20
19401.121500361322
 30
0.0
 11
16772.999999999931
 21
19393.121500361289
 31
0.0
  0
LINE
  5
6CBF6
  8
下屋前桁
 10
16815.999999999982
 20
19495.975870572482
 30
0.0
 11
16815.999999999982
 21
19406.121500361289
 31
0.0
  0
LINE
  5
6CBF7
  8
U1
 10
16858.499999999982
 20
16018.12150036126
 30
0.0
 11
16858.499999999982
 21
19401.121500361289
 31
0.0
  0
LINE
  5
6CBF8
  8
下屋前桁
 10
16858.999999999982
 20
19401.121500361322
 30
0.0
 11
16820.999999999982
 21
19401.121500361289
 31
0.0
  0
ARC
  5
6CBF9
  8
下屋前桁
 10
16820.999999999982
 20
19406.121500361289
 30
0.0
 40
5.0
 50
180.0
 51
270.0
  0
LINE
  5
6CBFA
  8
下屋前桁
 10
16859.000000000029
 20
19401.121500361322
 30
0.0
 11
16859.000000000029
 21
19393.121500361289
 31
0.0
  0
LINE
  5
6CC0D
  8
KERABA
 10
16815.999999999982
 20
19551.975870572482
 30
0.0
 11
22575.999999999982
 21
19551.975870572482
 31
0.0
  0
LINE
  5
6CC0E
  8
KERABA
 10
16815.999999999982
 20
19549.975870572482
 30
0.0
 11
22575.999999999982
 21
19549.975870572482
 31
0.0
  0
LINE
  5
6CC0F
  8
KERABA
 10
16815.999999999982
 20
19539.975870572482
 30
0.0
 11
22575.999999999982
 21
19539.975870572482
 31
0.0
  0
LINE
  5
6CC10
  8
KERABA
 10
16815.999999999982
 20
19537.975870572482
 30
0.0
 11
22575.999999999982
 21
19537.975870572482
 31
0.0
  0
LINE
  5
6CC11
  8
KERABA
 10
16815.999999999982
 20
19527.975870572482
 30
0.0
 11
22575.999999999982
 21
19527.975870572482
 31
0.0
  0
LINE
  5
6CC12
  8
KERABA
 10
16815.999999999982
 20
19619.40624389947
 30
0.0
 11
22575.999999999982
 21
19619.40624389947
 31
0.0
  0
LINE
  5
6CC13
  8
KERABA
 10
16815.999999999982
 20
19623.40624389947
 30
0.0
 11
22575.999999999982
 21
19623.40624389947
 31
0.0
  0
LINE
  5
6CC14
  8
KERABA
 10
16815.999999999982
 20
19633.40624389947
 30
0.0
 11
22575.999999999982
 21
19633.40624389947
 31
0.0
  0
LINE
  5
6CC15
  8
KERABA
 10
16815.999999999982
 20
19635.40624389947
 30
0.0
 11
22575.999999999982
 21
19635.40624389947
 31
0.0
  0
LINE
  5
6CC16
  8
KERABA
 10
16815.999999999982
 20
19645.40624389947
 30
0.0
 11
22575.999999999982
 21
19645.40624389947
 31
0.0
  0
LINE
  5
6CC17
  8
KERABA
 10
16815.999999999982
 20
19523.975870572482
 30
0.0
 11
22575.999999999982
 21
19523.975870572482
 31
0.0
  0
LINE
  5
6CC18
  8
KERABA
 10
16815.999999999982
 20
19647.40624389947
 30
0.0
 11
22575.999999999982
 21
19647.40624389947
 31
0.0
  0
LINE
  5
6CC19
  8
KERABA
 10
16815.999999999982
 20
19495.975870572482
 30
0.0
 11
22575.999999999989
 21
19495.975870572482
 31
0.0
  0
LINE
  5
6CC1A
  8
KERABA
 10
16815.999999999982
 20
19675.40624389947
 30
0.0
 11
22575.999999999982
 21
19675.40624389947
 31
0.0
  0
LINE
  5
6CC1B
  8
下屋前桁
 10
22372.99999999992
 20
19393.121500361322
 30
0.0
 11
16859.00000000004
 21
19393.121500361322
 31
0.0
  0
LINE
  5
6CC1C
  8
U1
 10
22373.499999999982
 20
16018.12150036126
 30
0.0
 11
22373.499999999982
 21
19401.121500361289
 31
0.0
  0
LINE
  5
6CC1D
  8
下屋前桁
 10
22372.999999999982
 20
19401.121500361322
 30
0.0
 11
22410.999999999982
 21
19401.121500361289
 31
0.0
  0
ARC
  5
6CC1E
  8
下屋前桁
 10
22410.999999999982
 20
19406.121500361289
 30
0.0
 40
5.0
 50
270.0
 51
0.0
  0
LINE
  5
6CC1F
  8
下屋前桁
 10
22372.99999999992
 20
19401.121500361322
 30
0.0
 11
22372.99999999992
 21
19393.121500361289
 31
0.0
  0
LINE
  5
6CC20
  8
下屋前桁
 10
22415.999999999982
 20
19495.975870572482
 30
0.0
 11
22415.999999999982
 21
19406.121500361289
 31
0.0
  0
LINE
  5
6CC21
  8
KERABA
 10
25375.999999999982
 20
19551.975870572482
 30
0.0
 11
22575.999999999982
 21
19551.975870572482
 31
0.0
  0
LINE
  5
6CC22
  8
KERABA
 10
25375.999999999982
 20
19549.975870572482
 30
0.0
 11
22575.999999999982
 21
19549.975870572482
 31
0.0
  0
LINE
  5
6CC23
  8
KERABA
 10
25375.999999999982
 20
19539.975870572482
 30
0.0
 11
22575.999999999982
 21
19539.975870572482
 31
0.0
  0
LINE
  5
6CC24
  8
KERABA
 10
25375.999999999982
 20
19537.975870572482
 30
0.0
 11
22575.999999999982
 21
19537.975870572482
 31
0.0
  0
LINE
  5
6CC25
  8
KERABA
 10
25375.999999999982
 20
19527.975870572482
 30
0.0
 11
22575.999999999982
 21
19527.975870572482
 31
0.0
  0
LINE
  5
6CC26
  8
KERABA
 10
25375.999999999982
 20
19619.40624389947
 30
0.0
 11
22575.999999999982
 21
19619.40624389947
 31
0.0
  0
LINE
  5
6CC27
  8
KERABA
 10
25375.999999999982
 20
19623.40624389947
 30
0.0
 11
22575.999999999982
 21
19623.40624389947
 31
0.0
  0
LINE
  5
6CC28
  8
KERABA
 10
25375.999999999982
 20
19633.40624389947
 30
0.0
 11
22575.999999999982
 21
19633.40624389947
 31
0.0
  0
LINE
  5
6CC29
  8
KERABA
 10
25375.999999999982
 20
19635.40624389947
 30
0.0
 11
22575.999999999982
 21
19635.40624389947
 31
0.0
  0
LINE
  5
6CC2A
  8
KERABA
 10
25375.999999999982
 20
19645.40624389947
 30
0.0
 11
22575.999999999982
 21
19645.40624389947
 31
0.0
  0
LINE
  5
6CC2B
  8
KERABA
 10
25375.999999999982
 20
19523.975870572482
 30
0.0
 11
22575.999999999982
 21
19523.975870572482
 31
0.0
  0
LINE
  5
6CC2C
  8
KERABA
 10
25375.999999999982
 20
19647.40624389947
 30
0.0
 11
22575.999999999982
 21
19647.40624389947
 31
0.0
  0
LINE
  5
6CC2D
  8
KERABA
 10
25375.999999999982
 20
19495.975870572482
 30
0.0
 11
22575.999999999982
 21
19495.975870572482
 31
0.0
  0
LINE
  5
6CC2E
  8
KERABA
 10
25375.999999999982
 20
19675.40624389947
 30
0.0
 11
22575.999999999982
 21
19675.40624389947
 31
0.0
  0
LINE
  5
6CC2F
  8
下屋前桁
 10
22459.000000000029
 20
19393.121500361322
 30
0.0
 11
25172.99999999992
 21
19393.121500361322
 31
0.0
  0
LINE
  5
6CC30
  8
U1
 10
22458.499999999982
 20
16018.12150036126
 30
0.0
 11
22458.499999999982
 21
19401.121500361289
 31
0.0
  0
LINE
  5
6CC31
  8
下屋前桁
 10
22458.999999999982
 20
19401.121500361322
 30
0.0
 11
22420.999999999971
 21
19401.121500361289
 31
0.0
  0
ARC
  5
6CC32
  8
下屋前桁
 10
22420.999999999971
 20
19406.121500361289
 30
0.0
 40
5.0
 50
180.0
 51
270.0
  0
LINE
  5
6CC33
  8
下屋前桁
 10
22459.000000000029
 20
19401.121500361322
 30
0.0
 11
22459.000000000029
 21
19393.121500361289
 31
0.0
  0
LINE
  5
6CC34
  8
U1
 10
22458.499999999982
 20
16318.121500361291
 30
0.0
 11
25173.49999999996
 21
16318.121500361291
 31
0.0
  0
LINE
  5
6CC35
  8
U1
 10
25258.49999999996
 20
16318.121500361291
 30
0.0
 11
25340.999999999989
 21
16318.121500361291
 31
0.0
  0
LINE
  5
6CC36
  8
U1
 10
16858.499999999982
 20
16318.121500361291
 30
0.0
 11
22373.499999999982
 21
16318.121500361291
 31
0.0
  0
TEXT
  5
6CCB6
  8
SUNPOU
 10
10468.816739821459
 20
15198.12150036132
 30
0.0
 40
160.0
  1
下屋有効開口巾
  7
01
  0
TEXT
  5
6CCB7
  8
SUNPOU
 10
16177.112439540781
 20
15598.12150036132
 30
0.0
 40
160.0
  1
2588
 41
0.6700000000000002
  7
00
  0
TEXT
  5
6CCB8
  8
SUNPOU
 10
11896.22525407335
 20
15598.12150036132
 30
0.0
 40
160.0
  1
5166
 41
0.6700000000000002
  7
00
  0
TEXT
  5
6CCB9
  8
SUNPOU
 10
9885.9833177612454
 20
15598.12150036132
 30
0.0
 40
160.0
  1
シャッター有効開口巾
  7
01
  0
TEXT
  5
6CCBA
  8
SUNPOU
 10
14228.84377571143
 20
15598.12150036132
 30
0.0
 40
160.0
  1
シャッター有効開口巾
  7
01
  0
TEXT
  5
6CCBC
  8
SUNPOU
 10
14468.75610102861
 20
15198.121500361291
 30
0.0
 40
160.0
  1
下屋有効開口巾
  7
01
  0
TEXT
  5
6CCBE
  8
SUNPOU
 10
18868.816739821461
 20
15198.12150036132
 30
0.0
 40
160.0
  1
下屋有効開口巾
  7
01
  0
TEXT
  5
6CCBF
  8
SUNPOU
 10
24577.112439540779
 20
15598.12150036132
 30
0.0
 40
160.0
  1
2588
 41
0.6700000000000002
  7
00
  0
TEXT
  5
6CCC0
  8
SUNPOU
 10
20296.225254073361
 20
15598.12150036132
 30
0.0
 40
160.0
  1
5166
 41
0.6700000000000002
  7
00
  0
TEXT
  5
6CCC1
  8
SUNPOU
 10
18285.983317761242
 20
15598.12150036132
 30
0.0
 40
160.0
  1
シャッター有効開口巾
  7
01
  0
TEXT
  5
6CCC2
  8
SUNPOU
 10
22628.843775711441
 20
15598.12150036132
 30
0.0
 40
160.0
  1
シャッター有効開口巾
  7
01
  0
TEXT
  5
6CCC4
  8
SUNPOU
 10
22868.756101028619
 20
15198.121500361291
 30
0.0
 40
160.0
  1
下屋有効開口巾
  7
01
  0
TEXT
  5
6CEB8
  8
FILENAME
 10
27337.333333333328
 20
348.0
 30
0.0
 40
200.0
  1
＜SOB-2R86FHA-G_1_JIS_GL.DXF ＞
  7
FILENAME
 72
     2
 11
32764.0
 21
348.0
 31
0.0
  0
LINE
  5
6CEBA
  8
WAKUSEN-01
 10
868.00000000000193
 20
827.99999999999955
 30
0.0
 11
32764.000000000011
 21
827.99999999999943
 31
0.0
  0
LINE
  5
6CEBB
  8
WAKUSEN-01
 10
868.00000000000193
 20
22484.000000000011
 30
0.0
 11
32764.000000000011
 21
22484.000000000011
 31
0.0
  0
LINE
  5
6CEBC
  8
WAKUSEN-01
 10
868.00000000000193
 20
827.99999999999955
 30
0.0
 11
868.00000000000193
 21
22484.000000000011
 31
0.0
  0
LINE
  5
6CEBD
  8
WAKUSEN-01
 10
32764.000000000011
 20
827.99999999999943
 30
0.0
 11
32764.000000000011
 21
22484.000000000011
 31
0.0
  0
LINE
  5
6CEBE
  8
WAKUSEN-01
 10
20560.0
 20
2484.0
 30
0.0
 11
32764.0
 21
2484.0
 31
0.0
  0
LINE
  5
6CEBF
  8
WAKUSEN-02
 10
20560.0
 20
1655.9999999999991
 30
0.0
 11
26868.0
 21
1655.9999999999991
 31
0.0
  0
TEXT
  5
6CEC0
  8
WAKUMOJI-01
 10
20670.260259962772
 20
2125.9030093393221
 30
0.0
 40
240.0
  1
名　称
  7
WAKUMOJI
  0
TEXT
  5
6CEC1
  8
WAKUMOJI-01
 10
20656.505485091919
 20
1319.1289749798209
 30
0.0
 40
240.0
  1
機種名
  7
WAKUMOJI
  0
LINE
  5
6CEC2
  8
WAKUSEN-01
 10
20560.0
 20
827.99999999999716
 30
0.0
 11
20560.0
 21
2484.0
 31
0.0
  0
LINE
  5
6CEC3
  8
WAKUSEN-02
 10
26868.0
 20
827.99999999999261
 30
0.0
 11
26868.0
 21
2484.0
 31
0.0
  0
LINE
  5
6CEC4
  8
YODOROGO
 10
29977.604341291921
 20
1995.7494964292871
 30
0.0
 11
29829.604341291921
 21
1995.7494964292871
 31
0.0
1001
AUTOCAD_POSTSCRIPT_FIGURE
1002
{
1000
PSFILL
1000
Grayscale
1000
Grayscale
1070
    25
1002
}
  0
LINE
  5
6CEC5
  8
YODOROGO
 10
29829.604341291921
 20
1947.749496429288
 30
0.0
 11
29977.604341291921
 21
1947.749496429288
 31
0.0
1001
AUTOCAD_POSTSCRIPT_FIGURE
1002
{
1000
PSFILL
1000
Grayscale
1000
Grayscale
1070
    25
1002
}
  0
LINE
  5
6CEC6
  8
YODOROGO
 10
29977.604341291921
 20
1907.7494964292871
 30
0.0
 11
29829.604341291921
 21
1907.7494964292871
 31
0.0
1001
AUTOCAD_POSTSCRIPT_FIGURE
1002
{
1000
PSFILL
1000
Grayscale
1000
Grayscale
1070
    25
1002
}
  0
LINE
  5
6CEC7
  8
YODOROGO
 10
29829.604341291921
 20
1859.749496429288
 30
0.0
 11
29977.604341291921
 21
1859.749496429288
 31
0.0
1001
AUTOCAD_POSTSCRIPT_FIGURE
1002
{
1000
PSFILL
1000
Grayscale
1000
Grayscale
1070
    25
1002
}
  0
LINE
  5
6CEC8
  8
YODOROGO
 10
29977.604341291921
 20
1819.749496429288
 30
0.0
 11
29829.604341291921
 21
1819.749496429288
 31
0.0
1001
AUTOCAD_POSTSCRIPT_FIGURE
1002
{
1000
PSFILL
1000
Grayscale
1000
Grayscale
1070
    25
1002
}
  0
LINE
  5
6CEC9
  8
YODOROGO
 10
29921.60434129191
 20
1707.749496429288
 30
0.0
 11
29977.604341291921
 21
1707.749496429288
 31
0.0
1001
AUTOCAD_POSTSCRIPT_FIGURE
1002
{
1000
PSFILL
1000
Grayscale
1000
Grayscale
1070
    25
1002
}
  0
LINE
  5
6CECA
  8
YODOROGO
 10
29737.604341291921
 20
1427.749496429288
 30
0.0
 11
29937.604341291932
 21
1481.339334915511
 31
0.0
  0
LINE
  5
6CECB
  8
YODOROGO
 10
29949.604341291921
 20
1707.749496429288
 30
0.0
 11
29885.604341291921
 21
1707.749496429288
 31
0.0
  0
ARC
  5
6CECC
  8
YODOROGO
 10
30254.34774982791
 20
1807.8646092332619
 30
0.0
 40
381.88686420564733
 50
213.96111677667849
 51
264.47872074317792
  0
ARC
  5
6CECD
  8
YODOROGO
 10
30254.347749827921
 20
1807.864609233302
 30
0.0
 40
381.8868642056816
 50
208.14114420486601
 51
212.92103611859949
  0
LINE
  5
6CECE
  8
YODOROGO
 10
29771.40987298531
 20
1556.807661346234
 30
0.0
 11
29933.78413250855
 21
1600.3157130570869
 31
0.0
  0
LINE
  5
6CECF
  8
YODOROGO
 10
29737.604341291921
 20
1427.749496429288
 30
0.0
 11
29937.604341291932
 21
1481.339334915511
 31
0.0
  0
LINE
  5
6CED0
  8
YODOROGO
 10
29949.604341291921
 20
1707.749496429288
 30
0.0
 11
29885.604341291921
 21
1707.749496429288
 31
0.0
  0
ARC
  5
6CED1
  8
YODOROGO
 10
30254.34774982791
 20
1807.8646092332619
 30
0.0
 40
381.88686420564733
 50
213.96111677667849
 51
264.47872074317792
  0
LINE
  5
6CED2
  8
YODOROGO
 10
28793.60434129191
 20
1819.749496429288
 30
0.0
 11
28433.60434129191
 21
1819.749496429288
 31
0.0
  0
LINE
  5
6CED3
  8
YODOROGO
 10
28513.60434129191
 20
1427.749496429288
 30
0.0
 11
28793.60434129191
 21
1427.749496429288
 31
0.0
  0
LINE
  5
6CED4
  8
YODOROGO
 10
28729.604341291921
 20
1923.7494964292871
 30
0.0
 11
28497.60434129191
 21
1923.7494964292871
 31
0.0
  0
LINE
  5
6CED5
  8
YODOROGO
 10
28585.604341291921
 20
2027.749496429288
 30
0.0
 11
28657.604341291921
 21
2027.749496429288
 31
0.0
  0
LINE
  5
6CED6
  8
YODOROGO
 10
28433.60434129191
 20
1707.749496429288
 30
0.0
 11
28433.60434129191
 21
1507.749496429288
 31
0.0
  0
LINE
  5
6CED7
  8
YODOROGO
 10
28497.60434129191
 20
1563.7494964292871
 30
0.0
 11
28497.60434129191
 21
1707.749496429288
 31
0.0
  0
LINE
  5
6CED8
  8
YODOROGO
 10
28585.604341291921
 20
1747.74949642929
 30
0.0
 11
28585.604341291921
 21
1547.749496429288
 31
0.0
  0
LINE
  5
6CED9
  8
YODOROGO
 10
27857.604341291921
 20
1683.7494964292889
 30
0.0
 11
27777.604341291921
 21
1619.972414044571
 31
0.0
  0
LINE
  5
6CEDA
  8
YODOROGO
 10
27937.604341291921
 20
1619.972414044571
 30
0.0
 11
27857.604341291921
 21
1683.7494964292889
 31
0.0
  0
LINE
  5
6CEDB
  8
YODOROGO
 10
27857.604341291921
 20
1707.749496429288
 30
0.0
 11
27937.604341291921
 21
1643.9724140445701
 31
0.0
  0
LINE
  5
6CEDC
  8
YODOROGO
 10
27777.604341291921
 20
1643.9724140445701
 30
0.0
 11
27857.604341291921
 21
1707.749496429288
 31
0.0
  0
LINE
  5
6CEDD
  8
YODOROGO
 10
28040.913204016899
 20
1659.749496429288
 30
0.0
 11
28040.913204016899
 21
1683.7494964292871
 31
0.0
  0
LINE
  5
6CEDE
  8
YODOROGO
 10
27977.604341291921
 20
1683.7494964292871
 30
0.0
 11
27977.604341291921
 21
1667.749496429285
 31
0.0
  0
LINE
  5
6CEDF
  8
YODOROGO
 10
28098.135520230931
 20
1707.749496429288
 30
0.0
 11
28098.135520230931
 21
1655.5036372746561
 31
0.0
1001
AUTOCAD_POSTSCRIPT_FIGURE
1002
{
1000
PSFILL
1000
Grayscale
1000
Grayscale
1070
   100
1002
}
  0
LINE
  5
6CEE0
  8
YODOROGO
 10
28082.135520230921
 20
1655.5036372746561
 30
0.0
 11
28082.135520230921
 21
1707.749496429288
 31
0.0
1001
AUTOCAD_POSTSCRIPT_FIGURE
1002
{
1000
PSFILL
1000
Grayscale
1000
Grayscale
1070
   100
1002
}
  0
LINE
  5
6CEE1
  8
YODOROGO
 10
27809.604341291921
 20
1608.771904043258
 30
0.0
 11
27809.604341291921
 21
1632.7719040432589
 31
0.0
  0
LINE
  5
6CEE2
  8
YODOROGO
 10
27905.604341291921
 20
1608.771904043258
 30
0.0
 11
27809.604341291921
 21
1608.771904043258
 31
0.0
  0
LINE
  5
6CEE3
  8
YODOROGO
 10
27905.604341291921
 20
1632.7719040432589
 30
0.0
 11
27905.604341291921
 21
1608.771904043258
 31
0.0
  0
LINE
  5
6CEE4
  8
YODOROGO
 10
27809.604341291921
 20
1632.7719040432589
 30
0.0
 11
27905.604341291921
 21
1632.7719040432589
 31
0.0
  0
LINE
  5
6CEE5
  8
YODOROGO
 10
27824.509588915749
 20
1568.5028573704751
 30
0.0
 11
27785.604341291921
 21
1475.7494964292871
 31
0.0
1001
AUTOCAD_POSTSCRIPT_FIGURE
1002
{
1000
PSFILL
1000
Grayscale
1000
Grayscale
1070
   100
1002
}
  0
LINE
  5
6CEE6
  8
YODOROGO
 10
27777.604341291921
 20
1568.5028573704751
 30
0.0
 11
27824.509588915749
 21
1568.5028573704751
 31
0.0
1001
AUTOCAD_POSTSCRIPT_FIGURE
1002
{
1000
PSFILL
1000
Grayscale
1000
Grayscale
1070
   100
1002
}
  0
LINE
  5
6CEE7
  8
YODOROGO
 10
27777.604341291921
 20
1588.5028573704751
 30
0.0
 11
27777.604341291921
 21
1568.5028573704751
 31
0.0
1001
AUTOCAD_POSTSCRIPT_FIGURE
1002
{
1000
PSFILL
1000
Grayscale
1000
Grayscale
1070
   100
1002
}
  0
LINE
  5
6CEE8
  8
YODOROGO
 10
27937.604341291921
 20
1588.5028573704751
 30
0.0
 11
27777.604341291921
 21
1588.5028573704751
 31
0.0
1001
AUTOCAD_POSTSCRIPT_FIGURE
1002
{
1000
PSFILL
1000
Grayscale
1000
Grayscale
1070
   100
1002
}
  0
LINE
  5
6CEE9
  8
YODOROGO
 10
27937.604341291921
 20
1568.5028573704751
 30
0.0
 11
27937.604341291921
 21
1588.5028573704751
 31
0.0
1001
AUTOCAD_POSTSCRIPT_FIGURE
1002
{
1000
PSFILL
1000
Grayscale
1000
Grayscale
1070
   100
1002
}
  0
LINE
  5
6CEEA
  8
YODOROGO
 10
27844.509588915749
 20
1568.5028573704751
 30
0.0
 11
27937.604341291921
 21
1568.5028573704751
 31
0.0
1001
AUTOCAD_POSTSCRIPT_FIGURE
1002
{
1000
PSFILL
1000
Grayscale
1000
Grayscale
1070
   100
1002
}
  0
LINE
  5
6CEEB
  8
YODOROGO
 10
27815.546718284779
 20
1495.7494964292871
 30
0.0
 11
27844.509588915749
 21
1568.5028573704751
 31
0.0
1001
AUTOCAD_POSTSCRIPT_FIGURE
1002
{
1000
PSFILL
1000
Grayscale
1000
Grayscale
1070
   100
1002
}
  0
LINE
  5
6CEEC
  8
YODOROGO
 10
27902.054790808648
 20
1495.7494964292871
 30
0.0
 11
27815.546718284779
 21
1495.7494964292871
 31
0.0
1001
AUTOCAD_POSTSCRIPT_FIGURE
1002
{
1000
PSFILL
1000
Grayscale
1000
Grayscale
1070
   100
1002
}
  0
LINE
  5
6CEED
  8
YODOROGO
 10
27885.065004790951
 20
1536.2338106976929
 30
0.0
 11
27902.054790808648
 21
1495.7494964292871
 31
0.0
1001
AUTOCAD_POSTSCRIPT_FIGURE
1002
{
1000
PSFILL
1000
Grayscale
1000
Grayscale
1070
   100
1002
}
  0
LINE
  5
6CEEE
  8
YODOROGO
 10
27901.065004790951
 20
1536.2338106976929
 30
0.0
 11
27885.065004790951
 21
1536.2338106976929
 31
0.0
1001
AUTOCAD_POSTSCRIPT_FIGURE
1002
{
1000
PSFILL
1000
Grayscale
1000
Grayscale
1070
   100
1002
}
  0
LINE
  5
6CEEF
  8
YODOROGO
 10
27929.604341291921
 20
1475.7494964292871
 30
0.0
 11
27901.065004790951
 21
1536.2338106976929
 31
0.0
1001
AUTOCAD_POSTSCRIPT_FIGURE
1002
{
1000
PSFILL
1000
Grayscale
1000
Grayscale
1070
   100
1002
}
  0
LINE
  5
6CEF0
  8
YODOROGO
 10
27785.604341291921
 20
1475.7494964292871
 30
0.0
 11
27929.604341291921
 21
1475.7494964292871
 31
0.0
1001
AUTOCAD_POSTSCRIPT_FIGURE
1002
{
1000
PSFILL
1000
Grayscale
1000
Grayscale
1070
   100
1002
}
  0
LINE
  5
6CEF1
  8
YODOROGO
 10
27777.604341291921
 20
1619.972414044571
 30
0.0
 11
27777.604341291921
 21
1643.9724140445701
 31
0.0
  0
LINE
  5
6CEF2
  8
YODOROGO
 10
27937.604341291921
 20
1643.9724140445701
 30
0.0
 11
27937.604341291921
 21
1619.972414044571
 31
0.0
  0
ARC
  5
6CEF3
  8
YODOROGO
 10
28225.94044214697
 20
1600.877765325326
 30
0.0
 40
175.99999999999989
 50
280.3644312771313
 51
3.5414836592180561
  0
ARC
  5
6CEF4
  8
YODOROGO
 10
28235.756030759301
 20
1633.5978069619041
 30
0.0
 40
111.99999999999829
 50
281.2490582504156
 51
348.75094174958332
  0
LINE
  5
6CEF5
  8
YODOROGO
 10
28257.604341291921
 20
1523.7494964292871
 30
0.0
 11
28257.604341291921
 21
1427.749496429288
 31
0.0
  0
LINE
  5
6CEF6
  8
YODOROGO
 10
28020.088903736902
 20
1610.6505650619149
 30
0.0
 11
28040.913204016899
 21
1659.749496429288
 31
0.0
  0
LINE
  5
6CEF7
  8
YODOROGO
 10
28041.604341291921
 20
1583.120489948401
 30
0.0
 11
28020.088903736902
 21
1610.6505650619149
 31
0.0
  0
LINE
  5
6CEF8
  8
YODOROGO
 10
28041.604341291921
 20
1563.1204899483989
 30
0.0
 11
28041.604341291921
 21
1583.120489948401
 31
0.0
  0
LINE
  5
6CEF9
  8
YODOROGO
 10
28017.604341291921
 20
1585.2370637495301
 30
0.0
 11
28041.604341291921
 21
1563.1204899483989
 31
0.0
  0
LINE
  5
6CEFA
  8
YODOROGO
 10
28017.604341291921
 20
1475.7494964292871
 30
0.0
 11
28017.604341291921
 21
1585.2370637495301
 31
0.0
  0
LINE
  5
6CEFB
  8
YODOROGO
 10
28001.604341291921
 20
1475.7494964292871
 30
0.0
 11
28017.604341291921
 21
1475.7494964292871
 31
0.0
  0
LINE
  5
6CEFC
  8
YODOROGO
 10
28001.604341291921
 20
1580.0053496897481
 30
0.0
 11
28001.604341291921
 21
1475.7494964292871
 31
0.0
  0
LINE
  5
6CEFD
  8
YODOROGO
 10
27977.604341291921
 20
1532.7680790334291
 30
0.0
 11
28001.604341291921
 21
1580.0053496897481
 31
0.0
  0
LINE
  5
6CEFE
  8
YODOROGO
 10
27977.604341291921
 20
1556.76807903343
 30
0.0
 11
27977.604341291921
 21
1532.7680790334291
 31
0.0
  0
LINE
  5
6CEFF
  8
YODOROGO
 10
28025.82877429136
 20
1667.749496429285
 30
0.0
 11
27977.604341291921
 21
1556.76807903343
 31
0.0
  0
LINE
  5
6CF00
  8
YODOROGO
 10
27977.604341291921
 20
1667.749496429285
 30
0.0
 11
28025.82877429136
 21
1667.749496429285
 31
0.0
  0
LINE
  5
6CF01
  8
YODOROGO
 10
28050.13552023091
 20
1655.5036372746561
 30
0.0
 11
28082.135520230921
 21
1655.5036372746561
 31
0.0
1001
AUTOCAD_POSTSCRIPT_FIGURE
1002
{
1000
PSFILL
1000
Grayscale
1000
Grayscale
1070
   100
1002
}
  0
LINE
  5
6CF02
  8
YODOROGO
 10
28050.13552023091
 20
1631.503637274657
 30
0.0
 11
28050.13552023091
 21
1655.5036372746561
 31
0.0
1001
AUTOCAD_POSTSCRIPT_FIGURE
1002
{
1000
PSFILL
1000
Grayscale
1000
Grayscale
1070
   100
1002
}
  0
LINE
  5
6CF03
  8
YODOROGO
 10
28082.135520230921
 20
1631.503637274657
 30
0.0
 11
28050.13552023091
 21
1631.503637274657
 31
0.0
1001
AUTOCAD_POSTSCRIPT_FIGURE
1002
{
1000
PSFILL
1000
Grayscale
1000
Grayscale
1070
   100
1002
}
  0
LINE
  5
6CF04
  8
YODOROGO
 10
28082.135520230921
 20
1499.749496429288
 30
0.0
 11
28082.135520230921
 21
1631.503637274657
 31
0.0
1001
AUTOCAD_POSTSCRIPT_FIGURE
1002
{
1000
PSFILL
1000
Grayscale
1000
Grayscale
1070
   100
1002
}
  0
LINE
  5
6CF05
  8
YODOROGO
 10
28050.135520230931
 20
1499.749496429288
 30
0.0
 11
28082.135520230921
 21
1499.749496429288
 31
0.0
1001
AUTOCAD_POSTSCRIPT_FIGURE
1002
{
1000
PSFILL
1000
Grayscale
1000
Grayscale
1070
   100
1002
}
  0
LINE
  5
6CF06
  8
YODOROGO
 10
28050.135520230931
 20
1475.7494964292871
 30
0.0
 11
28050.135520230931
 21
1499.749496429288
 31
0.0
1001
AUTOCAD_POSTSCRIPT_FIGURE
1002
{
1000
PSFILL
1000
Grayscale
1000
Grayscale
1070
   100
1002
}
  0
LINE
  5
6CF07
  8
YODOROGO
 10
28137.604341291921
 20
1475.7494964292871
 30
0.0
 11
28050.135520230931
 21
1475.7494964292871
 31
0.0
1001
AUTOCAD_POSTSCRIPT_FIGURE
1002
{
1000
PSFILL
1000
Grayscale
1000
Grayscale
1070
   100
1002
}
  0
LINE
  5
6CF08
  8
YODOROGO
 10
28137.604341291921
 20
1499.749496429288
 30
0.0
 11
28137.604341291921
 21
1475.7494964292871
 31
0.0
1001
AUTOCAD_POSTSCRIPT_FIGURE
1002
{
1000
PSFILL
1000
Grayscale
1000
Grayscale
1070
   100
1002
}
  0
LINE
  5
6CF09
  8
YODOROGO
 10
28098.135520230931
 20
1499.749496429288
 30
0.0
 11
28137.604341291921
 21
1499.749496429288
 31
0.0
1001
AUTOCAD_POSTSCRIPT_FIGURE
1002
{
1000
PSFILL
1000
Grayscale
1000
Grayscale
1070
   100
1002
}
  0
LINE
  5
6CF0A
  8
YODOROGO
 10
28098.135520230931
 20
1631.503637274657
 30
0.0
 11
28098.135520230931
 21
1499.749496429288
 31
0.0
1001
AUTOCAD_POSTSCRIPT_FIGURE
1002
{
1000
PSFILL
1000
Grayscale
1000
Grayscale
1070
   100
1002
}
  0
LINE
  5
6CF0B
  8
YODOROGO
 10
28137.604341291921
 20
1631.503637274657
 30
0.0
 11
28098.135520230931
 21
1631.503637274657
 31
0.0
1001
AUTOCAD_POSTSCRIPT_FIGURE
1002
{
1000
PSFILL
1000
Grayscale
1000
Grayscale
1070
   100
1002
}
  0
LINE
  5
6CF0C
  8
YODOROGO
 10
28137.604341291921
 20
1655.5036372746561
 30
0.0
 11
28137.604341291921
 21
1631.503637274657
 31
0.0
1001
AUTOCAD_POSTSCRIPT_FIGURE
1002
{
1000
PSFILL
1000
Grayscale
1000
Grayscale
1070
   100
1002
}
  0
LINE
  5
6CF0D
  8
YODOROGO
 10
28098.135520230931
 20
1655.5036372746561
 30
0.0
 11
28137.604341291921
 21
1655.5036372746561
 31
0.0
1001
AUTOCAD_POSTSCRIPT_FIGURE
1002
{
1000
PSFILL
1000
Grayscale
1000
Grayscale
1070
   100
1002
}
  0
LINE
  5
6CF0E
  8
YODOROGO
 10
28401.60434129191
 20
1667.749496429288
 30
0.0
 11
28345.604341291921
 21
1667.749496429288
 31
0.0
  0
LINE
  5
6CF0F
  8
YODOROGO
 10
28401.60434129191
 20
1611.7494964292889
 30
0.0
 11
28401.60434129191
 21
1667.749496429288
 31
0.0
  0
LINE
  5
6CF10
  8
YODOROGO
 10
28345.604341291921
 20
1667.749496429288
 30
0.0
 11
28345.604341291921
 21
1611.7494964292889
 31
0.0
  0
ARC
  5
6CF11
  8
YODOROGO
 10
28513.60434129191
 20
1507.749496429288
 30
0.0
 40
80.0
 50
180.0
 51
270.0
  0
ARC
  5
6CF12
  8
YODOROGO
 10
28537.60434129191
 20
1563.7494964292871
 30
0.0
 40
40.0
 50
180.0
 51
270.0
  0
LINE
  5
6CF13
  8
YODOROGO
 10
28561.604341291932
 20
1523.7494964292871
 30
0.0
 11
28537.60434129191
 21
1523.7494964292871
 31
0.0
  0
ARC
  5
6CF14
  8
YODOROGO
 10
28561.604341291932
 20
1547.749496429285
 30
0.0
 40
23.999999999996358
 50
270.0
 51
0.0000000000054281
  0
LINE
  5
6CF15
  8
YODOROGO
 10
27801.604341291921
 20
1890.786580793706
 30
0.0
 11
27777.604341291921
 21
1843.776747951672
 31
0.0
1001
AUTOCAD_POSTSCRIPT_FIGURE
1002
{
1000
PSFILL
1000
Grayscale
1000
Grayscale
1070
   100
1002
}
  0
LINE
  5
6CF16
  8
YODOROGO
 10
27801.604341291921
 20
1747.7494964292871
 30
0.0
 11
27801.604341291921
 21
1890.786580793706
 31
0.0
1001
AUTOCAD_POSTSCRIPT_FIGURE
1002
{
1000
PSFILL
1000
Grayscale
1000
Grayscale
1070
   100
1002
}
  0
LINE
  5
6CF17
  8
YODOROGO
 10
27817.604341291921
 20
1747.7494964292871
 30
0.0
 11
27801.604341291921
 21
1747.7494964292871
 31
0.0
1001
AUTOCAD_POSTSCRIPT_FIGURE
1002
{
1000
PSFILL
1000
Grayscale
1000
Grayscale
1070
   100
1002
}
  0
LINE
  5
6CF18
  8
YODOROGO
 10
27817.604341291921
 20
1893.771332085267
 30
0.0
 11
27817.604341291921
 21
1747.7494964292871
 31
0.0
1001
AUTOCAD_POSTSCRIPT_FIGURE
1002
{
1000
PSFILL
1000
Grayscale
1000
Grayscale
1070
   100
1002
}
  0
LINE
  5
6CF19
  8
YODOROGO
 10
27841.604341291921
 20
1867.654758284137
 30
0.0
 11
27817.604341291921
 21
1893.771332085267
 31
0.0
1001
AUTOCAD_POSTSCRIPT_FIGURE
1002
{
1000
PSFILL
1000
Grayscale
1000
Grayscale
1070
   100
1002
}
  0
LINE
  5
6CF1A
  8
YODOROGO
 10
27841.604341291921
 20
1883.6547582841361
 30
0.0
 11
27841.604341291921
 21
1867.654758284137
 31
0.0
1001
AUTOCAD_POSTSCRIPT_FIGURE
1002
{
1000
PSFILL
1000
Grayscale
1000
Grayscale
1070
   100
1002
}
  0
LINE
  5
6CF1B
  8
YODOROGO
 10
27817.604341291921
 20
1917.7713320852649
 30
0.0
 11
27841.604341291921
 21
1883.6547582841361
 31
0.0
1001
AUTOCAD_POSTSCRIPT_FIGURE
1002
{
1000
PSFILL
1000
Grayscale
1000
Grayscale
1070
   100
1002
}
  0
LINE
  5
6CF1C
  8
YODOROGO
 10
27817.604341291921
 20
1939.749496429288
 30
0.0
 11
27817.604341291921
 21
1917.7713320852649
 31
0.0
1001
AUTOCAD_POSTSCRIPT_FIGURE
1002
{
1000
PSFILL
1000
Grayscale
1000
Grayscale
1070
   100
1002
}
  0
LINE
  5
6CF1D
  8
YODOROGO
 10
27889.604341291921
 20
1939.749496429288
 30
0.0
 11
27817.604341291921
 21
1939.749496429288
 31
0.0
1001
AUTOCAD_POSTSCRIPT_FIGURE
1002
{
1000
PSFILL
1000
Grayscale
1000
Grayscale
1070
   100
1002
}
  0
LINE
  5
6CF1E
  8
YODOROGO
 10
27889.604341291921
 20
1900.5683489363
 30
0.0
 11
27889.604341291921
 21
1939.749496429288
 31
0.0
1001
AUTOCAD_POSTSCRIPT_FIGURE
1002
{
1000
PSFILL
1000
Grayscale
1000
Grayscale
1070
   100
1002
}
  0
LINE
  5
6CF1F
  8
YODOROGO
 10
27857.604341291921
 20
1900.5683489363
 30
0.0
 11
27889.604341291921
 21
1900.5683489363
 31
0.0
1001
AUTOCAD_POSTSCRIPT_FIGURE
1002
{
1000
PSFILL
1000
Grayscale
1000
Grayscale
1070
   100
1002
}
  0
LINE
  5
6CF20
  8
YODOROGO
 10
27857.604341291921
 20
1884.568348936298
 30
0.0
 11
27857.604341291921
 21
1900.5683489363
 31
0.0
1001
AUTOCAD_POSTSCRIPT_FIGURE
1002
{
1000
PSFILL
1000
Grayscale
1000
Grayscale
1070
   100
1002
}
  0
LINE
  5
6CF21
  8
YODOROGO
 10
27889.604341291921
 20
1884.568348936298
 30
0.0
 11
27857.604341291921
 21
1884.568348936298
 31
0.0
1001
AUTOCAD_POSTSCRIPT_FIGURE
1002
{
1000
PSFILL
1000
Grayscale
1000
Grayscale
1070
   100
1002
}
  0
LINE
  5
6CF22
  8
YODOROGO
 10
27889.604341291921
 20
1879.6191779644389
 30
0.0
 11
27889.604341291921
 21
1884.568348936298
 31
0.0
1001
AUTOCAD_POSTSCRIPT_FIGURE
1002
{
1000
PSFILL
1000
Grayscale
1000
Grayscale
1070
   100
1002
}
  0
LINE
  5
6CF23
  8
YODOROGO
 10
27849.604341291921
 20
1812.974981161417
 30
0.0
 11
27889.604341291921
 21
1879.6191779644389
 31
0.0
1001
AUTOCAD_POSTSCRIPT_FIGURE
1002
{
1000
PSFILL
1000
Grayscale
1000
Grayscale
1070
   100
1002
}
  0
LINE
  5
6CF24
  8
YODOROGO
 10
27849.604341291921
 20
1796.9749811614161
 30
0.0
 11
27849.604341291921
 21
1812.974981161417
 31
0.0
1001
AUTOCAD_POSTSCRIPT_FIGURE
1002
{
1000
PSFILL
1000
Grayscale
1000
Grayscale
1070
   100
1002
}
  0
LINE
  5
6CF25
  8
YODOROGO
 10
27889.604341291921
 20
1847.6191779644371
 30
0.0
 11
27849.604341291921
 21
1796.9749811614161
 31
0.0
1001
AUTOCAD_POSTSCRIPT_FIGURE
1002
{
1000
PSFILL
1000
Grayscale
1000
Grayscale
1070
   100
1002
}
  0
LINE
  5
6CF26
  8
YODOROGO
 10
27889.604341291921
 20
1747.7494964292871
 30
0.0
 11
27889.604341291921
 21
1847.6191779644371
 31
0.0
1001
AUTOCAD_POSTSCRIPT_FIGURE
1002
{
1000
PSFILL
1000
Grayscale
1000
Grayscale
1070
   100
1002
}
  0
LINE
  5
6CF27
  8
YODOROGO
 10
27905.604341291921
 20
1747.7494964292871
 30
0.0
 11
27889.604341291921
 21
1747.7494964292871
 31
0.0
1001
AUTOCAD_POSTSCRIPT_FIGURE
1002
{
1000
PSFILL
1000
Grayscale
1000
Grayscale
1070
   100
1002
}
  0
LINE
  5
6CF28
  8
YODOROGO
 10
27905.604341291921
 20
1849.409012158806
 30
0.0
 11
27905.604341291921
 21
1747.7494964292871
 31
0.0
1001
AUTOCAD_POSTSCRIPT_FIGURE
1002
{
1000
PSFILL
1000
Grayscale
1000
Grayscale
1070
   100
1002
}
  0
LINE
  5
6CF29
  8
YODOROGO
 10
27937.604341291921
 20
1796.9749811614161
 30
0.0
 11
27905.604341291921
 21
1849.409012158806
 31
0.0
1001
AUTOCAD_POSTSCRIPT_FIGURE
1002
{
1000
PSFILL
1000
Grayscale
1000
Grayscale
1070
   100
1002
}
  0
LINE
  5
6CF2A
  8
YODOROGO
 10
27937.604341291921
 20
1812.974981161417
 30
0.0
 11
27937.604341291921
 21
1796.9749811614161
 31
0.0
1001
AUTOCAD_POSTSCRIPT_FIGURE
1002
{
1000
PSFILL
1000
Grayscale
1000
Grayscale
1070
   100
1002
}
  0
LINE
  5
6CF2B
  8
YODOROGO
 10
27905.604341291921
 20
1881.4090121588081
 30
0.0
 11
27937.604341291921
 21
1812.974981161417
 31
0.0
1001
AUTOCAD_POSTSCRIPT_FIGURE
1002
{
1000
PSFILL
1000
Grayscale
1000
Grayscale
1070
   100
1002
}
  0
LINE
  5
6CF2C
  8
YODOROGO
 10
27905.604341291932
 20
1884.5683489363
 30
0.0
 11
27905.604341291921
 21
1881.4090121588081
 31
0.0
1001
AUTOCAD_POSTSCRIPT_FIGURE
1002
{
1000
PSFILL
1000
Grayscale
1000
Grayscale
1070
   100
1002
}
  0
LINE
  5
6CF2D
  8
YODOROGO
 10
27937.604341291921
 20
1884.568348936298
 30
0.0
 11
27905.604341291932
 21
1884.5683489363
 31
0.0
1001
AUTOCAD_POSTSCRIPT_FIGURE
1002
{
1000
PSFILL
1000
Grayscale
1000
Grayscale
1070
   100
1002
}
  0
LINE
  5
6CF2E
  8
YODOROGO
 10
27937.604341291921
 20
1900.5683489363
 30
0.0
 11
27937.604341291921
 21
1884.568348936298
 31
0.0
1001
AUTOCAD_POSTSCRIPT_FIGURE
1002
{
1000
PSFILL
1000
Grayscale
1000
Grayscale
1070
   100
1002
}
  0
LINE
  5
6CF2F
  8
YODOROGO
 10
27905.604341291921
 20
1900.5683489363
 30
0.0
 11
27937.604341291921
 21
1900.5683489363
 31
0.0
1001
AUTOCAD_POSTSCRIPT_FIGURE
1002
{
1000
PSFILL
1000
Grayscale
1000
Grayscale
1070
   100
1002
}
  0
LINE
  5
6CF30
  8
YODOROGO
 10
27905.604341291921
 20
1939.749496429288
 30
0.0
 11
27905.604341291921
 21
1900.5683489363
 31
0.0
1001
AUTOCAD_POSTSCRIPT_FIGURE
1002
{
1000
PSFILL
1000
Grayscale
1000
Grayscale
1070
   100
1002
}
  0
LINE
  5
6CF31
  8
YODOROGO
 10
27937.604341291921
 20
1939.749496429288
 30
0.0
 11
27905.604341291921
 21
1939.749496429288
 31
0.0
1001
AUTOCAD_POSTSCRIPT_FIGURE
1002
{
1000
PSFILL
1000
Grayscale
1000
Grayscale
1070
   100
1002
}
  0
LINE
  5
6CF32
  8
YODOROGO
 10
27937.604341291921
 20
1955.7494964292871
 30
0.0
 11
27937.604341291921
 21
1939.749496429288
 31
0.0
1001
AUTOCAD_POSTSCRIPT_FIGURE
1002
{
1000
PSFILL
1000
Grayscale
1000
Grayscale
1070
   100
1002
}
  0
LINE
  5
6CF33
  8
YODOROGO
 10
27905.604341291921
 20
1955.7494964292871
 30
0.0
 11
27937.604341291921
 21
1955.7494964292871
 31
0.0
1001
AUTOCAD_POSTSCRIPT_FIGURE
1002
{
1000
PSFILL
1000
Grayscale
1000
Grayscale
1070
   100
1002
}
  0
LINE
  5
6CF34
  8
YODOROGO
 10
27905.604341291921
 20
1979.749496429288
 30
0.0
 11
27905.604341291921
 21
1955.7494964292871
 31
0.0
1001
AUTOCAD_POSTSCRIPT_FIGURE
1002
{
1000
PSFILL
1000
Grayscale
1000
Grayscale
1070
   100
1002
}
  0
LINE
  5
6CF35
  8
YODOROGO
 10
27889.604341291921
 20
1979.749496429288
 30
0.0
 11
27905.604341291921
 21
1979.749496429288
 31
0.0
1001
AUTOCAD_POSTSCRIPT_FIGURE
1002
{
1000
PSFILL
1000
Grayscale
1000
Grayscale
1070
   100
1002
}
  0
LINE
  5
6CF36
  8
YODOROGO
 10
27889.604341291921
 20
1955.7494964292871
 30
0.0
 11
27889.604341291921
 21
1979.749496429288
 31
0.0
1001
AUTOCAD_POSTSCRIPT_FIGURE
1002
{
1000
PSFILL
1000
Grayscale
1000
Grayscale
1070
   100
1002
}
  0
LINE
  5
6CF37
  8
YODOROGO
 10
27865.604341291921
 20
1955.7494964292871
 30
0.0
 11
27889.604341291921
 21
1955.7494964292871
 31
0.0
1001
AUTOCAD_POSTSCRIPT_FIGURE
1002
{
1000
PSFILL
1000
Grayscale
1000
Grayscale
1070
   100
1002
}
  0
LINE
  5
6CF38
  8
YODOROGO
 10
27865.604341291921
 20
1979.749496429288
 30
0.0
 11
27865.604341291921
 21
1955.7494964292871
 31
0.0
1001
AUTOCAD_POSTSCRIPT_FIGURE
1002
{
1000
PSFILL
1000
Grayscale
1000
Grayscale
1070
   100
1002
}
  0
LINE
  5
6CF39
  8
YODOROGO
 10
27849.604341291921
 20
1979.749496429288
 30
0.0
 11
27865.604341291921
 21
1979.749496429288
 31
0.0
1001
AUTOCAD_POSTSCRIPT_FIGURE
1002
{
1000
PSFILL
1000
Grayscale
1000
Grayscale
1070
   100
1002
}
  0
LINE
  5
6CF3A
  8
YODOROGO
 10
27849.604341291921
 20
1955.7494964292871
 30
0.0
 11
27849.604341291921
 21
1979.749496429288
 31
0.0
1001
AUTOCAD_POSTSCRIPT_FIGURE
1002
{
1000
PSFILL
1000
Grayscale
1000
Grayscale
1070
   100
1002
}
  0
LINE
  5
6CF3B
  8
YODOROGO
 10
27817.604341291921
 20
1955.7494964292871
 30
0.0
 11
27849.604341291921
 21
1955.7494964292871
 31
0.0
1001
AUTOCAD_POSTSCRIPT_FIGURE
1002
{
1000
PSFILL
1000
Grayscale
1000
Grayscale
1070
   100
1002
}
  0
LINE
  5
6CF3C
  8
YODOROGO
 10
27817.604341291921
 20
1979.749496429288
 30
0.0
 11
27817.604341291921
 21
1955.7494964292871
 31
0.0
1001
AUTOCAD_POSTSCRIPT_FIGURE
1002
{
1000
PSFILL
1000
Grayscale
1000
Grayscale
1070
   100
1002
}
  0
LINE
  5
6CF3D
  8
YODOROGO
 10
27801.604341291921
 20
1979.749496429288
 30
0.0
 11
27817.604341291921
 21
1979.749496429288
 31
0.0
1001
AUTOCAD_POSTSCRIPT_FIGURE
1002
{
1000
PSFILL
1000
Grayscale
1000
Grayscale
1070
   100
1002
}
  0
LINE
  5
6CF3E
  8
YODOROGO
 10
27801.604341291921
 20
1955.7494964292871
 30
0.0
 11
27801.604341291921
 21
1979.749496429288
 31
0.0
1001
AUTOCAD_POSTSCRIPT_FIGURE
1002
{
1000
PSFILL
1000
Grayscale
1000
Grayscale
1070
   100
1002
}
  0
LINE
  5
6CF3F
  8
YODOROGO
 10
27777.604341291921
 20
1955.7494964292871
 30
0.0
 11
27801.604341291921
 21
1955.7494964292871
 31
0.0
1001
AUTOCAD_POSTSCRIPT_FIGURE
1002
{
1000
PSFILL
1000
Grayscale
1000
Grayscale
1070
   100
1002
}
  0
LINE
  5
6CF40
  8
YODOROGO
 10
27777.604341291921
 20
1939.749496429288
 30
0.0
 11
27777.604341291921
 21
1955.7494964292871
 31
0.0
1001
AUTOCAD_POSTSCRIPT_FIGURE
1002
{
1000
PSFILL
1000
Grayscale
1000
Grayscale
1070
   100
1002
}
  0
LINE
  5
6CF41
  8
YODOROGO
 10
27801.604341291921
 20
1939.749496429288
 30
0.0
 11
27777.604341291921
 21
1939.749496429288
 31
0.0
1001
AUTOCAD_POSTSCRIPT_FIGURE
1002
{
1000
PSFILL
1000
Grayscale
1000
Grayscale
1070
   100
1002
}
  0
LINE
  5
6CF42
  8
YODOROGO
 10
27801.604341291921
 20
1914.7865807937051
 30
0.0
 11
27801.604341291921
 21
1939.749496429288
 31
0.0
1001
AUTOCAD_POSTSCRIPT_FIGURE
1002
{
1000
PSFILL
1000
Grayscale
1000
Grayscale
1070
   100
1002
}
  0
LINE
  5
6CF43
  8
YODOROGO
 10
27777.604341291921
 20
1859.776747951671
 30
0.0
 11
27801.604341291921
 21
1914.7865807937051
 31
0.0
1001
AUTOCAD_POSTSCRIPT_FIGURE
1002
{
1000
PSFILL
1000
Grayscale
1000
Grayscale
1070
   100
1002
}
  0
LINE
  5
6CF44
  8
YODOROGO
 10
27777.604341291921
 20
1843.776747951672
 30
0.0
 11
27777.604341291921
 21
1859.776747951671
 31
0.0
1001
AUTOCAD_POSTSCRIPT_FIGURE
1002
{
1000
PSFILL
1000
Grayscale
1000
Grayscale
1070
   100
1002
}
  0
LINE
  5
6CF45
  8
YODOROGO
 10
28257.604341291921
 20
1867.749496429288
 30
0.0
 11
28401.60434129191
 21
1824.877625640306
 31
0.0
1001
AUTOCAD_POSTSCRIPT_FIGURE
1002
{
1000
PSFILL
1000
Grayscale
1000
Grayscale
1070
   100
1002
}
  0
LINE
  5
6CF46
  8
YODOROGO
 10
28401.60434129191
 20
1752.877625640306
 30
0.0
 11
28257.604341291921
 21
1795.7494964292871
 31
0.0
1001
AUTOCAD_POSTSCRIPT_FIGURE
1002
{
1000
PSFILL
1000
Grayscale
1000
Grayscale
1070
   100
1002
}
  0
LINE
  5
6CF47
  8
YODOROGO
 10
28401.60434129191
 20
1984.877625640306
 30
0.0
 11
28257.604341291921
 21
2027.749496429288
 31
0.0
1001
AUTOCAD_POSTSCRIPT_FIGURE
1002
{
1000
PSFILL
1000
Grayscale
1000
Grayscale
1070
   100
1002
}
  0
LINE
  5
6CF48
  8
YODOROGO
 10
28257.604341291921
 20
1959.749496429288
 30
0.0
 11
28401.60434129191
 21
1916.8776256403071
 31
0.0
1001
AUTOCAD_POSTSCRIPT_FIGURE
1002
{
1000
PSFILL
1000
Grayscale
1000
Grayscale
1070
   100
1002
}
  0
LINE
  5
6CF49
  8
YODOROGO
 10
28257.604341291921
 20
1795.7494964292871
 30
0.0
 11
28257.604341291921
 21
1867.749496429288
 31
0.0
1001
AUTOCAD_POSTSCRIPT_FIGURE
1002
{
1000
PSFILL
1000
Grayscale
1000
Grayscale
1070
   100
1002
}
  0
LINE
  5
6CF4A
  8
YODOROGO
 10
28257.604341291921
 20
2027.749496429288
 30
0.0
 11
28257.604341291921
 21
1959.749496429288
 31
0.0
1001
AUTOCAD_POSTSCRIPT_FIGURE
1002
{
1000
PSFILL
1000
Grayscale
1000
Grayscale
1070
   100
1002
}
  0
LINE
  5
6CF4B
  8
YODOROGO
 10
28080.236320206739
 20
1939.749496429288
 30
0.0
 11
28129.604341291921
 21
1747.7494964292871
 31
0.0
1001
AUTOCAD_POSTSCRIPT_FIGURE
1002
{
1000
PSFILL
1000
Grayscale
1000
Grayscale
1070
   100
1002
}
  0
LINE
  5
6CF4C
  8
YODOROGO
 10
27977.604341291921
 20
1939.749496429288
 30
0.0
 11
28080.236320206739
 21
1939.749496429288
 31
0.0
1001
AUTOCAD_POSTSCRIPT_FIGURE
1002
{
1000
PSFILL
1000
Grayscale
1000
Grayscale
1070
   100
1002
}
  0
LINE
  5
6CF4D
  8
YODOROGO
 10
27977.604341291921
 20
1955.7494964292871
 30
0.0
 11
27977.604341291921
 21
1939.749496429288
 31
0.0
1001
AUTOCAD_POSTSCRIPT_FIGURE
1002
{
1000
PSFILL
1000
Grayscale
1000
Grayscale
1070
   100
1002
}
  0
LINE
  5
6CF4E
  8
YODOROGO
 10
28076.60687851992
 20
1955.7494964292871
 30
0.0
 11
27977.604341291921
 21
1955.7494964292871
 31
0.0
1001
AUTOCAD_POSTSCRIPT_FIGURE
1002
{
1000
PSFILL
1000
Grayscale
1000
Grayscale
1070
   100
1002
}
  0
LINE
  5
6CF4F
  8
YODOROGO
 10
28071.162715989711
 20
1979.749496429288
 30
0.0
 11
28076.60687851992
 21
1955.7494964292871
 31
0.0
1001
AUTOCAD_POSTSCRIPT_FIGURE
1002
{
1000
PSFILL
1000
Grayscale
1000
Grayscale
1070
   100
1002
}
  0
LINE
  5
6CF50
  8
YODOROGO
 10
28091.162715989711
 20
1979.749496429288
 30
0.0
 11
28071.162715989711
 21
1979.749496429288
 31
0.0
1001
AUTOCAD_POSTSCRIPT_FIGURE
1002
{
1000
PSFILL
1000
Grayscale
1000
Grayscale
1070
   100
1002
}
  0
LINE
  5
6CF51
  8
YODOROGO
 10
28095.806878519939
 20
1955.7494964292871
 30
0.0
 11
28091.162715989711
 21
1979.749496429288
 31
0.0
1001
AUTOCAD_POSTSCRIPT_FIGURE
1002
{
1000
PSFILL
1000
Grayscale
1000
Grayscale
1070
   100
1002
}
  0
LINE
  5
6CF52
  8
YODOROGO
 10
28121.604341291921
 20
1955.7494964292871
 30
0.0
 11
28095.806878519939
 21
1955.7494964292871
 31
0.0
1001
AUTOCAD_POSTSCRIPT_FIGURE
1002
{
1000
PSFILL
1000
Grayscale
1000
Grayscale
1070
   100
1002
}
  0
LINE
  5
6CF53
  8
YODOROGO
 10
28121.604341291921
 20
1979.749496429288
 30
0.0
 11
28121.604341291921
 21
1955.7494964292871
 31
0.0
1001
AUTOCAD_POSTSCRIPT_FIGURE
1002
{
1000
PSFILL
1000
Grayscale
1000
Grayscale
1070
   100
1002
}
  0
LINE
  5
6CF54
  8
YODOROGO
 10
28137.604341291921
 20
1979.749496429288
 30
0.0
 11
28121.604341291921
 21
1979.749496429288
 31
0.0
1001
AUTOCAD_POSTSCRIPT_FIGURE
1002
{
1000
PSFILL
1000
Grayscale
1000
Grayscale
1070
   100
1002
}
  0
LINE
  5
6CF55
  8
YODOROGO
 10
28137.604341291921
 20
1955.7494964292871
 30
0.0
 11
28137.604341291921
 21
1979.749496429288
 31
0.0
1001
AUTOCAD_POSTSCRIPT_FIGURE
1002
{
1000
PSFILL
1000
Grayscale
1000
Grayscale
1070
   100
1002
}
  0
LINE
  5
6CF56
  8
YODOROGO
 10
28137.604341291921
 20
1939.749496429288
 30
0.0
 11
28137.604341291921
 21
1955.7494964292871
 31
0.0
1001
AUTOCAD_POSTSCRIPT_FIGURE
1002
{
1000
PSFILL
1000
Grayscale
1000
Grayscale
1070
   100
1002
}
  0
LINE
  5
6CF57
  8
YODOROGO
 10
28098.902986873421
 20
1939.749496429288
 30
0.0
 11
28137.604341291921
 21
1939.749496429288
 31
0.0
1001
AUTOCAD_POSTSCRIPT_FIGURE
1002
{
1000
PSFILL
1000
Grayscale
1000
Grayscale
1070
   100
1002
}
  0
LINE
  5
6CF58
  8
YODOROGO
 10
28137.604341291921
 20
1747.7494964292871
 30
0.0
 11
28098.902986873421
 21
1939.749496429288
 31
0.0
1001
AUTOCAD_POSTSCRIPT_FIGURE
1002
{
1000
PSFILL
1000
Grayscale
1000
Grayscale
1070
   100
1002
}
  0
LINE
  5
6CF59
  8
YODOROGO
 10
28129.604341291921
 20
1747.7494964292871
 30
0.0
 11
28137.604341291921
 21
1747.7494964292871
 31
0.0
1001
AUTOCAD_POSTSCRIPT_FIGURE
1002
{
1000
PSFILL
1000
Grayscale
1000
Grayscale
1070
   100
1002
}
  0
LINE
  5
6CF5A
  8
YODOROGO
 10
28078.069219933801
 20
1775.7407762987939
 30
0.0
 11
27977.604341291921
 21
1747.7494964292871
 31
0.0
  0
LINE
  5
6CF5B
  8
YODOROGO
 10
28078.069219933801
 20
1798.6689795290731
 30
0.0
 11
28078.069219933801
 21
1775.7407762987939
 31
0.0
  0
LINE
  5
6CF5C
  8
YODOROGO
 10
28033.83678061287
 20
1786.816933133767
 30
0.0
 11
28078.069219933801
 21
1798.6689795290731
 31
0.0
  0
LINE
  5
6CF5D
  8
YODOROGO
 10
28033.83678061287
 20
1872.5683489363
 30
0.0
 11
28033.83678061287
 21
1786.816933133767
 31
0.0
  0
LINE
  5
6CF5E
  8
YODOROGO
 10
28078.069219933801
 20
1872.5683489363
 30
0.0
 11
28033.83678061287
 21
1872.5683489363
 31
0.0
  0
LINE
  5
6CF5F
  8
YODOROGO
 10
28078.069219933801
 20
1892.568348936298
 30
0.0
 11
28078.069219933801
 21
1872.5683489363
 31
0.0
  0
LINE
  5
6CF60
  8
YODOROGO
 10
27977.604341291921
 20
1892.568348936298
 30
0.0
 11
28078.069219933801
 21
1892.568348936298
 31
0.0
  0
LINE
  5
6CF61
  8
YODOROGO
 10
27977.604341291921
 20
1872.5683489363
 30
0.0
 11
27977.604341291921
 21
1892.568348936298
 31
0.0
  0
LINE
  5
6CF62
  8
YODOROGO
 10
28021.836780612859
 20
1872.5683489363
 30
0.0
 11
27977.604341291921
 21
1872.5683489363
 31
0.0
  0
LINE
  5
6CF63
  8
YODOROGO
 10
28021.836780612859
 20
1784.673339594317
 30
0.0
 11
28021.836780612859
 21
1872.5683489363
 31
0.0
  0
LINE
  5
6CF64
  8
YODOROGO
 10
27977.604341291921
 20
1771.749496429286
 30
0.0
 11
28021.836780612859
 21
1784.673339594317
 31
0.0
  0
LINE
  5
6CF65
  8
YODOROGO
 10
27977.604341291921
 20
1747.7494964292871
 30
0.0
 11
27977.604341291921
 21
1771.749496429286
 31
0.0
  0
LINE
  5
6CF66
  8
YODOROGO
 10
28001.604341291921
 20
1707.749496429288
 30
0.0
 11
28001.604341291921
 21
1683.7494964292871
 31
0.0
  0
LINE
  5
6CF68
  8
YODOROGO
 10
28017.604341291921
 20
1707.749496429288
 30
0.0
 11
28001.604341291921
 21
1707.749496429288
 31
0.0
  0
LINE
  5
6CF69
  8
YODOROGO
 10
28017.604341291921
 20
1683.7494964292871
 30
0.0
 11
28017.604341291921
 21
1707.749496429288
 31
0.0
  0
LINE
  5
6CF6A
  8
YODOROGO
 10
28040.913204016899
 20
1683.7494964292871
 30
0.0
 11
28017.604341291921
 21
1683.7494964292871
 31
0.0
  0
LINE
  5
6CF6B
  8
YODOROGO
 10
28001.604341291921
 20
1683.7494964292871
 30
0.0
 11
27977.604341291921
 21
1683.7494964292871
 31
0.0
  0
LINE
  5
6CF6C
  8
YODOROGO
 10
28082.135520230921
 20
1707.749496429288
 30
0.0
 11
28098.135520230931
 21
1707.749496429288
 31
0.0
1001
AUTOCAD_POSTSCRIPT_FIGURE
1002
{
1000
PSFILL
1000
Grayscale
1000
Grayscale
1070
   100
1002
}
  0
LINE
  5
6CF6D
  8
YODOROGO
 10
28401.60434129191
 20
1824.877625640306
 30
0.0
 11
28401.60434129191
 21
1752.877625640306
 31
0.0
1001
AUTOCAD_POSTSCRIPT_FIGURE
1002
{
1000
PSFILL
1000
Grayscale
1000
Grayscale
1070
   100
1002
}
  0
LINE
  5
6CF6E
  8
YODOROGO
 10
28401.60434129191
 20
1916.8776256403071
 30
0.0
 11
28401.60434129191
 21
1984.877625640306
 31
0.0
1001
AUTOCAD_POSTSCRIPT_FIGURE
1002
{
1000
PSFILL
1000
Grayscale
1000
Grayscale
1070
   100
1002
}
  0
LINE
  5
6CF6F
  8
YODOROGO
 10
28433.60434129191
 20
1819.749496429288
 30
0.0
 11
28433.60434129191
 21
1747.74949642929
 31
0.0
  0
LINE
  5
6CF70
  8
YODOROGO
 10
28497.60434129191
 20
1707.749496429288
 30
0.0
 11
28433.60434129191
 21
1707.749496429288
 31
0.0
  0
LINE
  5
6CF71
  8
YODOROGO
 10
28433.60434129191
 20
1747.74949642929
 30
0.0
 11
28585.604341291921
 21
1747.74949642929
 31
0.0
  0
LINE
  5
6CF72
  8
YODOROGO
 10
28497.60434129191
 20
1867.749496429288
 30
0.0
 11
28433.60434129191
 21
1867.749496429288
 31
0.0
  0
LINE
  5
6CF73
  8
YODOROGO
 10
28497.60434129191
 20
1923.7494964292871
 30
0.0
 11
28497.60434129191
 21
1867.749496429288
 31
0.0
  0
LINE
  5
6CF74
  8
YODOROGO
 10
28585.604341291921
 20
1987.749496429288
 30
0.0
 11
28585.604341291921
 21
2027.749496429288
 31
0.0
  0
LINE
  5
6CF75
  8
YODOROGO
 10
28433.60434129191
 20
1987.749496429288
 30
0.0
 11
28585.604341291921
 21
1987.749496429288
 31
0.0
  0
LINE
  5
6CF76
  8
YODOROGO
 10
28433.60434129191
 20
1867.749496429288
 30
0.0
 11
28433.60434129191
 21
1987.749496429288
 31
0.0
  0
LINE
  5
6CF77
  8
YODOROGO
 10
29001.60434129191
 20
2027.749496429288
 30
0.0
 11
29001.60434129191
 21
1619.749496429288
 31
0.0
  0
LINE
  5
6CF78
  8
YODOROGO
 10
29073.604341291921
 20
1579.749496429288
 30
0.0
 11
29073.604341291921
 21
2027.749496429288
 31
0.0
  0
LINE
  5
6CF79
  8
YODOROGO
 10
29261.604341291921
 20
1491.749496429286
 30
0.0
 11
29261.604341291921
 21
2007.749496429288
 31
0.0
  0
LINE
  5
6CF7A
  8
YODOROGO
 10
29197.604341291921
 20
2007.749496429288
 30
0.0
 11
29197.604341291921
 21
1491.749496429286
 31
0.0
  0
LINE
  5
6CF7B
  8
YODOROGO
 10
29385.604341291921
 20
2027.749496429288
 30
0.0
 11
29385.604341291921
 21
1427.749496429288
 31
0.0
  0
LINE
  5
6CF7C
  8
YODOROGO
 10
29457.604341291921
 20
1427.749496429288
 30
0.0
 11
29457.604341291921
 21
2027.749496429288
 31
0.0
  0
LINE
  5
6CF7D
  8
YODOROGO
 10
28657.60434129191
 20
1667.749496429288
 30
0.0
 11
28657.60434129191
 21
1747.74949642929
 31
0.0
  0
LINE
  5
6CF7E
  8
YODOROGO
 10
29885.604341291921
 20
1707.749496429288
 30
0.0
 11
29885.604341291921
 21
1667.749496429288
 31
0.0
  0
LINE
  5
6CF7F
  8
YODOROGO
 10
29885.604341291921
 20
1707.749496429288
 30
0.0
 11
29885.604341291921
 21
1667.749496429288
 31
0.0
  0
ARC
  5
6CF80
  8
YODOROGO
 10
28906.911576186842
 20
1618.2178644422729
 30
0.0
 40
94.705151178741659
 50
274.0524416290711
 51
0.9266642149310712
  0
ARC
  5
6CF81
  8
YODOROGO
 10
28909.18617071983
 20
1592.61072861044
 30
0.0
 40
164.92042356085511
 50
271.53512106537778
 51
355.52727750585058
  0
LINE
  5
6CF82
  8
YODOROGO
 10
28913.604341291921
 20
1523.7494964292871
 30
0.0
 11
28913.604341291921
 21
1427.749496429288
 31
0.0
  0
LINE
  5
6CF83
  8
YODOROGO
 10
28793.60434129191
 20
1667.749496429288
 30
0.0
 11
28657.60434129191
 21
1667.749496429288
 31
0.0
  0
LINE
  5
6CF84
  8
YODOROGO
 10
28793.60434129191
 20
1603.7494964292889
 30
0.0
 11
28793.60434129191
 21
1667.749496429288
 31
0.0
  0
LINE
  5
6CF85
  8
YODOROGO
 10
28657.60434129191
 20
1603.7494964292889
 30
0.0
 11
28793.60434129191
 21
1603.7494964292889
 31
0.0
  0
LINE
  5
6CF86
  8
YODOROGO
 10
28657.60434129191
 20
1523.7494964292871
 30
0.0
 11
28657.60434129191
 21
1603.7494964292889
 31
0.0
  0
LINE
  5
6CF87
  8
YODOROGO
 10
28793.60434129191
 20
1523.7494964292871
 30
0.0
 11
28657.60434129191
 21
1523.7494964292871
 31
0.0
  0
LINE
  5
6CF88
  8
YODOROGO
 10
28793.60434129191
 20
1427.749496429288
 30
0.0
 11
28793.60434129191
 21
1523.7494964292871
 31
0.0
  0
LINE
  5
6CF89
  8
YODOROGO
 10
29197.604341291921
 20
1491.749496429286
 30
0.0
 11
29261.604341291921
 21
1491.749496429286
 31
0.0
  0
LINE
  5
6CF8A
  8
YODOROGO
 10
29385.604341291921
 20
1427.749496429288
 30
0.0
 11
29457.604341291921
 21
1427.749496429288
 31
0.0
  0
LINE
  5
6CF8B
  8
YODOROGO
 10
29737.604341291921
 20
1528.4414521705639
 30
0.0
 11
29737.604341291921
 21
1427.749496429288
 31
0.0
  0
LINE
  5
6CF8C
  8
YODOROGO
 10
29617.604341291921
 20
1427.749496429288
 30
0.0
 11
29737.604341291921
 21
1528.4414521705639
 31
0.0
  0
LINE
  5
6CF8D
  8
YODOROGO
 10
29617.604341291921
 20
1547.749496429288
 30
0.0
 11
29617.604341291921
 21
1427.749496429288
 31
0.0
  0
LINE
  5
6CF8E
  8
YODOROGO
 10
29712.944628699461
 20
1627.749496429288
 30
0.0
 11
29617.604341291921
 21
1547.749496429288
 31
0.0
  0
LINE
  5
6CF8F
  8
YODOROGO
 10
29617.604341291921
 20
1627.749496429288
 30
0.0
 11
29712.944628699461
 21
1627.749496429288
 31
0.0
  0
LINE
  5
6CF90
  8
YODOROGO
 10
29617.604341291921
 20
1667.749496429288
 30
0.0
 11
29617.604341291921
 21
1627.749496429288
 31
0.0
  0
LINE
  5
6CF91
  8
YODOROGO
 10
29885.604341291921
 20
1667.749496429288
 30
0.0
 11
29617.604341291921
 21
1667.749496429288
 31
0.0
  0
LINE
  5
6CF92
  8
YODOROGO
 10
29917.604341291921
 20
1627.749496429288
 30
0.0
 11
29777.604341291921
 21
1627.749496429288
 31
0.0
  0
LINE
  5
6CF93
  8
YODOROGO
 10
29777.604341291921
 20
1562.005437417657
 30
0.0
 11
29771.40987298531
 21
1556.807661346234
 31
0.0
  0
LINE
  5
6CF94
  8
YODOROGO
 10
29777.604341291921
 20
1627.749496429288
 30
0.0
 11
29777.604341291921
 21
1562.005437417657
 31
0.0
  0
LINE
  5
6CF95
  8
YODOROGO
 10
29737.604341291921
 20
1528.4414521705639
 30
0.0
 11
29737.604341291921
 21
1427.749496429288
 31
0.0
  0
LINE
  5
6CF96
  8
YODOROGO
 10
29617.604341291921
 20
1427.749496429288
 30
0.0
 11
29737.604341291921
 21
1528.4414521705639
 31
0.0
  0
LINE
  5
6CF97
  8
YODOROGO
 10
29617.604341291921
 20
1547.749496429288
 30
0.0
 11
29617.604341291921
 21
1427.749496429288
 31
0.0
  0
LINE
  5
6CF98
  8
YODOROGO
 10
29712.944628699461
 20
1627.749496429288
 30
0.0
 11
29617.604341291921
 21
1547.749496429288
 31
0.0
  0
LINE
  5
6CF99
  8
YODOROGO
 10
29617.604341291921
 20
1627.749496429288
 30
0.0
 11
29712.944628699461
 21
1627.749496429288
 31
0.0
  0
LINE
  5
6CF9A
  8
YODOROGO
 10
29617.604341291921
 20
1667.749496429288
 30
0.0
 11
29617.604341291921
 21
1627.749496429288
 31
0.0
  0
LINE
  5
6CF9B
  8
YODOROGO
 10
29885.604341291921
 20
1667.749496429288
 30
0.0
 11
29617.604341291921
 21
1667.749496429288
 31
0.0
  0
LINE
  5
6CF9C
  8
YODOROGO
 10
28793.60434129191
 20
1747.74949642929
 30
0.0
 11
28793.60434129191
 21
1819.749496429288
 31
0.0
  0
LINE
  5
6CF9D
  8
YODOROGO
 10
28657.60434129191
 20
1747.74949642929
 30
0.0
 11
28793.60434129191
 21
1747.74949642929
 31
0.0
  0
LINE
  5
6CF9E
  8
YODOROGO
 10
28729.604341291921
 20
1867.749496429288
 30
0.0
 11
28729.604341291921
 21
1923.7494964292871
 31
0.0
  0
LINE
  5
6CF9F
  8
YODOROGO
 10
28793.60434129191
 20
1867.749496429288
 30
0.0
 11
28729.604341291921
 21
1867.749496429288
 31
0.0
  0
LINE
  5
6CFA0
  8
YODOROGO
 10
28793.60434129191
 20
1947.749496429288
 30
0.0
 11
28793.60434129191
 21
1867.749496429288
 31
0.0
  0
ARC
  5
6CFA1
  8
YODOROGO
 10
28753.60434129191
 20
1947.749496429288
 30
0.0
 40
40.0
 50
0.0
 51
90.0
  0
LINE
  5
6CFA2
  8
YODOROGO
 10
28657.604341291921
 20
1987.749496429288
 30
0.0
 11
28753.60434129191
 21
1987.749496429288
 31
0.0
  0
LINE
  5
6CFA3
  8
YODOROGO
 10
28657.604341291921
 20
2027.749496429288
 30
0.0
 11
28657.604341291921
 21
1987.749496429288
 31
0.0
  0
LINE
  5
6CFA4
  8
YODOROGO
 10
29073.604341291921
 20
2027.749496429288
 30
0.0
 11
29001.60434129191
 21
2027.749496429288
 31
0.0
  0
LINE
  5
6CFA5
  8
YODOROGO
 10
29261.604341291921
 20
2007.749496429288
 30
0.0
 11
29197.604341291921
 21
2007.749496429288
 31
0.0
  0
LINE
  5
6CFA6
  8
YODOROGO
 10
29457.604341291921
 20
2027.749496429288
 30
0.0
 11
29385.604341291921
 21
2027.749496429288
 31
0.0
  0
LINE
  5
6CFA7
  8
YODOROGO
 10
29673.604341291921
 20
1707.749496429288
 30
0.0
 11
29673.604341291921
 21
1771.749496429288
 31
0.0
1001
AUTOCAD_POSTSCRIPT_FIGURE
1002
{
1000
PSFILL
1000
Grayscale
1000
Grayscale
1070
    25
1002
}
  0
LINE
  5
6CFA8
  8
YODOROGO
 10
29617.604341291921
 20
1707.749496429288
 30
0.0
 11
29673.604341291921
 21
1707.749496429288
 31
0.0
1001
AUTOCAD_POSTSCRIPT_FIGURE
1002
{
1000
PSFILL
1000
Grayscale
1000
Grayscale
1070
    25
1002
}
  0
LINE
  5
6CFA9
  8
YODOROGO
 10
29617.604341291921
 20
1819.749496429288
 30
0.0
 11
29617.604341291921
 21
1707.749496429288
 31
0.0
1001
AUTOCAD_POSTSCRIPT_FIGURE
1002
{
1000
PSFILL
1000
Grayscale
1000
Grayscale
1070
    25
1002
}
  0
LINE
  5
6CFAA
  8
YODOROGO
 10
29765.604341291921
 20
1819.749496429288
 30
0.0
 11
29617.604341291921
 21
1819.749496429288
 31
0.0
1001
AUTOCAD_POSTSCRIPT_FIGURE
1002
{
1000
PSFILL
1000
Grayscale
1000
Grayscale
1070
    25
1002
}
  0
LINE
  5
6CFAB
  8
YODOROGO
 10
29765.604341291921
 20
1859.749496429288
 30
0.0
 11
29765.604341291921
 21
1819.749496429288
 31
0.0
1001
AUTOCAD_POSTSCRIPT_FIGURE
1002
{
1000
PSFILL
1000
Grayscale
1000
Grayscale
1070
    25
1002
}
  0
LINE
  5
6CFAC
  8
YODOROGO
 10
29617.604341291921
 20
1859.749496429288
 30
0.0
 11
29765.604341291921
 21
1859.749496429288
 31
0.0
1001
AUTOCAD_POSTSCRIPT_FIGURE
1002
{
1000
PSFILL
1000
Grayscale
1000
Grayscale
1070
    25
1002
}
  0
LINE
  5
6CFAD
  8
YODOROGO
 10
29617.604341291921
 20
1907.7494964292871
 30
0.0
 11
29617.604341291921
 21
1859.749496429288
 31
0.0
1001
AUTOCAD_POSTSCRIPT_FIGURE
1002
{
1000
PSFILL
1000
Grayscale
1000
Grayscale
1070
    25
1002
}
  0
LINE
  5
6CFAE
  8
YODOROGO
 10
29765.604341291921
 20
1907.7494964292871
 30
0.0
 11
29617.604341291921
 21
1907.7494964292871
 31
0.0
1001
AUTOCAD_POSTSCRIPT_FIGURE
1002
{
1000
PSFILL
1000
Grayscale
1000
Grayscale
1070
    25
1002
}
  0
LINE
  5
6CFAF
  8
YODOROGO
 10
29765.604341291921
 20
1947.749496429288
 30
0.0
 11
29765.604341291921
 21
1907.7494964292871
 31
0.0
1001
AUTOCAD_POSTSCRIPT_FIGURE
1002
{
1000
PSFILL
1000
Grayscale
1000
Grayscale
1070
    25
1002
}
  0
LINE
  5
6CFB0
  8
YODOROGO
 10
29617.604341291921
 20
1947.749496429288
 30
0.0
 11
29765.604341291921
 21
1947.749496429288
 31
0.0
1001
AUTOCAD_POSTSCRIPT_FIGURE
1002
{
1000
PSFILL
1000
Grayscale
1000
Grayscale
1070
    25
1002
}
  0
LINE
  5
6CFB1
  8
YODOROGO
 10
29617.604341291921
 20
2027.749496429288
 30
0.0
 11
29617.604341291921
 21
1947.749496429288
 31
0.0
1001
AUTOCAD_POSTSCRIPT_FIGURE
1002
{
1000
PSFILL
1000
Grayscale
1000
Grayscale
1070
    25
1002
}
  0
LINE
  5
6CFB2
  8
YODOROGO
 10
29665.604341291921
 20
2027.749496429288
 30
0.0
 11
29617.604341291921
 21
2027.749496429288
 31
0.0
1001
AUTOCAD_POSTSCRIPT_FIGURE
1002
{
1000
PSFILL
1000
Grayscale
1000
Grayscale
1070
    25
1002
}
  0
LINE
  5
6CFB3
  8
YODOROGO
 10
29665.604341291921
 20
1995.7494964292871
 30
0.0
 11
29665.604341291921
 21
2027.749496429288
 31
0.0
1001
AUTOCAD_POSTSCRIPT_FIGURE
1002
{
1000
PSFILL
1000
Grayscale
1000
Grayscale
1070
    25
1002
}
  0
LINE
  5
6CFB4
  8
YODOROGO
 10
29765.604341291921
 20
1995.7494964292871
 30
0.0
 11
29665.604341291921
 21
1995.7494964292871
 31
0.0
1001
AUTOCAD_POSTSCRIPT_FIGURE
1002
{
1000
PSFILL
1000
Grayscale
1000
Grayscale
1070
    25
1002
}
  0
LINE
  5
6CFB5
  8
YODOROGO
 10
29765.604341291921
 20
2027.749496429288
 30
0.0
 11
29765.604341291921
 21
1995.7494964292871
 31
0.0
1001
AUTOCAD_POSTSCRIPT_FIGURE
1002
{
1000
PSFILL
1000
Grayscale
1000
Grayscale
1070
    25
1002
}
  0
LINE
  5
6CFB6
  8
YODOROGO
 10
29829.604341291921
 20
2027.749496429288
 30
0.0
 11
29765.604341291921
 21
2027.749496429288
 31
0.0
1001
AUTOCAD_POSTSCRIPT_FIGURE
1002
{
1000
PSFILL
1000
Grayscale
1000
Grayscale
1070
    25
1002
}
  0
LINE
  5
6CFB7
  8
YODOROGO
 10
29829.604341291921
 20
1995.7494964292871
 30
0.0
 11
29829.604341291921
 21
2027.749496429288
 31
0.0
1001
AUTOCAD_POSTSCRIPT_FIGURE
1002
{
1000
PSFILL
1000
Grayscale
1000
Grayscale
1070
    25
1002
}
  0
LINE
  5
6CFB8
  8
YODOROGO
 10
29829.604341291921
 20
1907.7494964292871
 30
0.0
 11
29829.604341291921
 21
1947.749496429288
 31
0.0
1001
AUTOCAD_POSTSCRIPT_FIGURE
1002
{
1000
PSFILL
1000
Grayscale
1000
Grayscale
1070
    25
1002
}
  0
LINE
  5
6CFB9
  8
YODOROGO
 10
29829.604341291921
 20
1819.749496429288
 30
0.0
 11
29829.604341291921
 21
1859.749496429288
 31
0.0
1001
AUTOCAD_POSTSCRIPT_FIGURE
1002
{
1000
PSFILL
1000
Grayscale
1000
Grayscale
1070
    25
1002
}
  0
LINE
  5
6CFBA
  8
YODOROGO
 10
29921.60434129191
 20
1771.749496429288
 30
0.0
 11
29921.60434129191
 21
1707.749496429288
 31
0.0
1001
AUTOCAD_POSTSCRIPT_FIGURE
1002
{
1000
PSFILL
1000
Grayscale
1000
Grayscale
1070
    25
1002
}
  0
LINE
  5
6CFBB
  8
YODOROGO
 10
29829.604341291921
 20
1771.749496429288
 30
0.0
 11
29921.60434129191
 21
1771.749496429288
 31
0.0
1001
AUTOCAD_POSTSCRIPT_FIGURE
1002
{
1000
PSFILL
1000
Grayscale
1000
Grayscale
1070
    25
1002
}
  0
LINE
  5
6CFBC
  8
YODOROGO
 10
29829.604341291921
 20
1707.749496429288
 30
0.0
 11
29829.604341291921
 21
1771.749496429288
 31
0.0
1001
AUTOCAD_POSTSCRIPT_FIGURE
1002
{
1000
PSFILL
1000
Grayscale
1000
Grayscale
1070
    25
1002
}
  0
LINE
  5
6CFBD
  8
YODOROGO
 10
29765.604341291921
 20
1707.749496429288
 30
0.0
 11
29829.604341291921
 21
1707.749496429288
 31
0.0
1001
AUTOCAD_POSTSCRIPT_FIGURE
1002
{
1000
PSFILL
1000
Grayscale
1000
Grayscale
1070
    25
1002
}
  0
LINE
  5
6CFBE
  8
YODOROGO
 10
29765.604341291921
 20
1771.749496429288
 30
0.0
 11
29765.604341291921
 21
1707.749496429288
 31
0.0
1001
AUTOCAD_POSTSCRIPT_FIGURE
1002
{
1000
PSFILL
1000
Grayscale
1000
Grayscale
1070
    25
1002
}
  0
LINE
  5
6CFBF
  8
YODOROGO
 10
29673.604341291921
 20
1771.749496429288
 30
0.0
 11
29765.604341291921
 21
1771.749496429288
 31
0.0
1001
AUTOCAD_POSTSCRIPT_FIGURE
1002
{
1000
PSFILL
1000
Grayscale
1000
Grayscale
1070
    25
1002
}
  0
ARC
  5
6CFC0
  8
YODOROGO
 10
31059.517893357912
 20
1602.6807375155761
 30
0.0
 40
178.22128111072149
 50
281.02627495425361
 51
357.77113575573799
  0
LINE
  5
6CFC1
  8
YODOROGO
 10
31413.604341291921
 20
1907.7494964292871
 30
0.0
 11
31165.604341291921
 21
1907.7494964292871
 31
0.0
  0
LINE
  5
6CFC2
  8
YODOROGO
 10
31413.604341291921
 20
2027.749496429288
 30
0.0
 11
31165.604341291921
 21
2027.749496429288
 31
0.0
  0
LINE
  5
6CFC3
  8
YODOROGO
 10
31165.604341291921
 20
1963.7494964292871
 30
0.0
 11
31413.604341291921
 21
1963.7494964292871
 31
0.0
  0
LINE
  5
6CFC4
  8
YODOROGO
 10
30791.604341291921
 20
1563.7494964292871
 30
0.0
 11
30791.604341291921
 21
1755.7494964292871
 31
0.0
  0
LINE
  5
6CFC5
  8
YODOROGO
 10
30763.604341291921
 20
1691.7494964292889
 30
0.0
 11
30763.604341291921
 21
1563.7494964292871
 31
0.0
  0
LINE
  5
6CFC6
  8
YODOROGO
 10
30723.604341291921
 20
1491.7494964292889
 30
0.0
 11
30723.604341291921
 21
1691.7494964292889
 31
0.0
  0
LINE
  5
6CFC7
  8
YODOROGO
 10
30899.604341291932
 20
1691.7494964292889
 30
0.0
 11
30899.604341291932
 21
1491.7494964292889
 31
0.0
  0
LINE
  5
6CFC8
  8
YODOROGO
 10
30859.604341291932
 20
1563.7494964292871
 30
0.0
 11
30859.604341291932
 21
1691.7494964292889
 31
0.0
  0
LINE
  5
6CFC9
  8
YODOROGO
 10
30831.604341291921
 20
1755.7494964292871
 30
0.0
 11
30831.604341291921
 21
1563.7494964292871
 31
0.0
  0
LINE
  5
6CFCA
  8
YODOROGO
 10
30973.604341291921
 20
2027.749496429288
 30
0.0
 11
30973.604341291921
 21
1467.749496429288
 31
0.0
  0
LINE
  5
6CFCB
  8
YODOROGO
 10
30645.604341291921
 20
1427.749496429288
 30
0.0
 11
30645.604341291921
 21
2027.749496429288
 31
0.0
  0
LINE
  5
6CFCC
  8
YODOROGO
 10
30697.604341291932
 20
1963.7494964292871
 30
0.0
 11
30697.604341291932
 21
1427.749496429288
 31
0.0
  0
LINE
  5
6CFCD
  8
YODOROGO
 10
30925.604341291921
 20
1547.749496429288
 30
0.0
 11
30925.604341291921
 21
1963.7494964292871
 31
0.0
  0
LINE
  5
6CFCE
  8
YODOROGO
 10
30381.604341291932
 20
1627.749496429288
 30
0.0
 11
30381.604341291932
 21
1679.749496429288
 31
0.0
  0
LINE
  5
6CFCF
  8
YODOROGO
 10
30617.604341291921
 20
1679.749496429288
 30
0.0
 11
30617.604341291921
 21
1627.749496429288
 31
0.0
  0
LINE
  5
6CFD0
  8
YODOROGO
 10
31165.604341291921
 20
1907.7494964292871
 30
0.0
 11
31165.604341291921
 21
1635.7494964292871
 31
0.0
  0
LINE
  5
6CFD1
  8
YODOROGO
 10
29949.604341291921
 20
1667.749496429288
 30
0.0
 11
29949.604341291921
 21
1707.749496429288
 31
0.0
  0
LINE
  5
6CFD2
  8
YODOROGO
 10
29949.604341291921
 20
1667.749496429288
 30
0.0
 11
29949.604341291921
 21
1707.749496429288
 31
0.0
  0
ARC
  5
6CFD3
  8
YODOROGO
 10
30537.604341291921
 20
1507.749496429288
 30
0.0
 40
80.0
 50
270.0
 51
0.0
  0
LINE
  5
6CFD4
  8
YODOROGO
 10
30569.604341291921
 20
1599.749496429288
 30
0.0
 11
30617.604341291921
 21
1599.749496429288
 31
0.0
  0
LINE
  5
6CFD5
  8
YODOROGO
 10
30617.604341291921
 20
1627.749496429288
 30
0.0
 11
30529.604341291932
 21
1627.749496429288
 31
0.0
  0
LINE
  5
6CFD6
  8
YODOROGO
 10
30217.604341291921
 20
1667.749496429288
 30
0.0
 11
29949.604341291921
 21
1667.749496429288
 31
0.0
  0
LINE
  5
6CFD7
  8
YODOROGO
 10
30217.604341291921
 20
1627.749496429288
 30
0.0
 11
30217.604341291921
 21
1667.749496429288
 31
0.0
  0
LINE
  5
6CFD8
  8
YODOROGO
 10
30017.604341291921
 20
1627.749496429288
 30
0.0
 11
30217.604341291921
 21
1627.749496429288
 31
0.0
  0
ARC
  5
6CFD9
  8
YODOROGO
 10
30230.058828701371
 20
1868.8857149529019
 30
0.0
 40
321.37763628522828
 50
228.6181454618993
 51
245.660289248906
  0
LINE
  5
6CFDA
  8
YODOROGO
 10
30105.604341291921
 20
1603.7494964292889
 30
0.0
 11
30097.604341291961
 21
1576.0728158699001
 31
0.0
  0
LINE
  5
6CFDB
  8
YODOROGO
 10
30189.604341291921
 20
1603.7494964292889
 30
0.0
 11
30105.604341291921
 21
1603.7494964292889
 31
0.0
  0
LINE
  5
6CFDC
  8
YODOROGO
 10
30177.604341291921
 20
1551.817722473427
 30
0.0
 11
30189.604341291921
 21
1603.7494964292889
 31
0.0
  0
ARC
  5
6CFDD
  8
YODOROGO
 10
30230.058828700461
 20
1868.8857149530029
 30
0.0
 40
321.37763628529092
 50
260.60629297969928
 51
267.77903556555862
  0
LINE
  5
6CFDE
  8
YODOROGO
 10
30217.604341291921
 20
1427.749496429285
 30
0.0
 11
30217.604341291921
 21
1547.749496429288
 31
0.0
  0
LINE
  5
6CFDF
  8
YODOROGO
 10
29937.604341291932
 20
1481.339334915511
 30
0.0
 11
29937.604341291921
 21
1594.531090531141
 31
0.0
  0
LINE
  5
6CFE0
  8
YODOROGO
 10
30217.604341291921
 20
1667.749496429288
 30
0.0
 11
29949.604341291921
 21
1667.749496429288
 31
0.0
  0
LINE
  5
6CFE1
  8
YODOROGO
 10
30217.604341291921
 20
1627.749496429288
 30
0.0
 11
30217.604341291921
 21
1667.749496429288
 31
0.0
  0
LINE
  5
6CFE2
  8
YODOROGO
 10
30017.604341291921
 20
1627.749496429288
 30
0.0
 11
30217.604341291921
 21
1627.749496429288
 31
0.0
  0
ARC
  5
6CFE3
  8
YODOROGO
 10
30230.058828701371
 20
1868.8857149529019
 30
0.0
 40
321.37763628522828
 50
228.6181454618993
 51
245.660289248906
  0
LINE
  5
6CFE4
  8
YODOROGO
 10
30105.604341291921
 20
1603.7494964292889
 30
0.0
 11
30097.604341291961
 21
1576.0728158699001
 31
0.0
  0
LINE
  5
6CFE5
  8
YODOROGO
 10
30189.604341291921
 20
1603.7494964292889
 30
0.0
 11
30105.604341291921
 21
1603.7494964292889
 31
0.0
  0
LINE
  5
6CFE6
  8
YODOROGO
 10
30177.604341291921
 20
1551.817722473427
 30
0.0
 11
30189.604341291921
 21
1603.7494964292889
 31
0.0
  0
ARC
  5
6CFE7
  8
YODOROGO
 10
30230.058828700461
 20
1868.8857149530029
 30
0.0
 40
321.37763628529092
 50
260.60629297969928
 51
267.77903556555862
  0
LINE
  5
6CFE8
  8
YODOROGO
 10
30217.604341291921
 20
1427.749496429285
 30
0.0
 11
30217.604341291921
 21
1547.749496429288
 31
0.0
  0
LINE
  5
6CFE9
  8
YODOROGO
 10
29937.604341291932
 20
1481.339334915511
 30
0.0
 11
29937.604341291921
 21
1594.531090531141
 31
0.0
  0
LINE
  5
6CFEA
  8
YODOROGO
 10
30433.604341291932
 20
1573.7494964292889
 30
0.0
 11
30381.604341291932
 21
1573.7494964292889
 31
0.0
  0
LINE
  5
6CFEB
  8
YODOROGO
 10
30433.604341291932
 20
1601.749496429286
 30
0.0
 11
30433.604341291932
 21
1573.7494964292889
 31
0.0
  0
LINE
  5
6CFEC
  8
YODOROGO
 10
30381.604341291932
 20
1601.749496429286
 30
0.0
 11
30433.604341291932
 21
1601.749496429286
 31
0.0
  0
LINE
  5
6CFED
  8
YODOROGO
 10
30381.604341291932
 20
1573.7494964292889
 30
0.0
 11
30381.604341291932
 21
1601.749496429286
 31
0.0
  0
LINE
  5
6CFEE
  8
YODOROGO
 10
30429.604341291921
 20
1577.7494964292871
 30
0.0
 11
30385.604341291932
 21
1577.7494964292871
 31
0.0
  0
LINE
  5
6CFEF
  8
YODOROGO
 10
30429.604341291921
 20
1597.749496429288
 30
0.0
 11
30429.604341291921
 21
1577.7494964292871
 31
0.0
  0
LINE
  5
6CFF0
  8
YODOROGO
 10
30385.604341291932
 20
1597.749496429288
 30
0.0
 11
30429.604341291921
 21
1597.749496429288
 31
0.0
  0
LINE
  5
6CFF1
  8
YODOROGO
 10
30385.604341291932
 20
1577.7494964292871
 30
0.0
 11
30385.604341291932
 21
1597.749496429288
 31
0.0
  0
LINE
  5
6CFF2
  8
YODOROGO
 10
30425.604341291921
 20
1581.749496429286
 30
0.0
 11
30389.604341291932
 21
1581.749496429286
 31
0.0
  0
LINE
  5
6CFF3
  8
YODOROGO
 10
30425.604341291932
 20
1593.7494964292889
 30
0.0
 11
30425.604341291921
 21
1581.749496429286
 31
0.0
  0
LINE
  5
6CFF4
  8
YODOROGO
 10
30389.604341291932
 20
1593.7494964292889
 30
0.0
 11
30425.604341291932
 21
1593.7494964292889
 31
0.0
  0
LINE
  5
6CFF5
  8
YODOROGO
 10
30389.604341291932
 20
1581.749496429286
 30
0.0
 11
30389.604341291932
 21
1593.7494964292889
 31
0.0
  0
LINE
  5
6CFF6
  8
YODOROGO
 10
30421.604341291932
 20
1585.7494964292871
 30
0.0
 11
30393.604341291932
 21
1585.7494964292871
 31
0.0
  0
LINE
  5
6CFF7
  8
YODOROGO
 10
30421.604341291932
 20
1589.749496429288
 30
0.0
 11
30421.604341291932
 21
1585.7494964292871
 31
0.0
  0
LINE
  5
6CFF8
  8
YODOROGO
 10
30393.604341291932
 20
1589.749496429288
 30
0.0
 11
30421.604341291932
 21
1589.749496429288
 31
0.0
  0
LINE
  5
6CFF9
  8
YODOROGO
 10
30393.604341291932
 20
1585.7494964292871
 30
0.0
 11
30393.604341291932
 21
1589.749496429288
 31
0.0
  0
LINE
  5
6CFFA
  8
YODOROGO
 10
30465.604341291921
 20
1627.749496429288
 30
0.0
 11
30381.604341291932
 21
1627.749496429288
 31
0.0
  0
LINE
  5
6CFFB
  8
YODOROGO
 10
30465.604341291921
 20
1547.749496429288
 30
0.0
 11
30465.604341291921
 21
1627.749496429288
 31
0.0
  0
LINE
  5
6CFFC
  8
YODOROGO
 10
30381.604341291932
 20
1547.749496429288
 30
0.0
 11
30465.604341291921
 21
1547.749496429288
 31
0.0
  0
LINE
  5
6CFFD
  8
YODOROGO
 10
30381.604341291932
 20
1427.749496429288
 30
0.0
 11
30381.604341291932
 21
1547.749496429288
 31
0.0
  0
LINE
  5
6CFFE
  8
YODOROGO
 10
30537.604341291921
 20
1427.749496429288
 30
0.0
 11
30381.604341291932
 21
1427.749496429288
 31
0.0
  0
LINE
  5
6CFFF
  8
YODOROGO
 10
30569.604341291921
 20
1571.749496429286
 30
0.0
 11
30569.604341291921
 21
1599.749496429288
 31
0.0
  0
ARC
  5
6D000
  8
YODOROGO
 10
30545.60434129191
 20
1571.749496429291
 30
0.0
 40
24.000000000003752
 50
270.0
 51
359.99999999998778
  0
LINE
  5
6D001
  8
YODOROGO
 10
30529.604341291932
 20
1547.749496429288
 30
0.0
 11
30545.60434129191
 21
1547.749496429288
 31
0.0
  0
LINE
  5
6D002
  8
YODOROGO
 10
30529.604341291932
 20
1627.749496429288
 30
0.0
 11
30529.604341291932
 21
1547.749496429288
 31
0.0
  0
LINE
  5
6D003
  8
YODOROGO
 10
30899.604341291932
 20
1547.749496429288
 30
0.0
 11
30925.604341291921
 21
1547.749496429288
 31
0.0
  0
LINE
  5
6D004
  8
YODOROGO
 10
30933.604341291921
 20
1427.749496429288
 30
0.0
 11
30899.604341291932
 21
1427.749496429288
 31
0.0
  0
LINE
  5
6D005
  8
YODOROGO
 10
30763.604341291921
 20
1563.7494964292871
 30
0.0
 11
30791.604341291921
 21
1563.7494964292871
 31
0.0
  0
LINE
  5
6D006
  8
YODOROGO
 10
30899.604341291932
 20
1491.7494964292889
 30
0.0
 11
30723.604341291921
 21
1491.7494964292889
 31
0.0
  0
LINE
  5
6D007
  8
YODOROGO
 10
30831.604341291921
 20
1563.7494964292871
 30
0.0
 11
30859.604341291932
 21
1563.7494964292871
 31
0.0
  0
LINE
  5
6D008
  8
YODOROGO
 10
30899.604341291932
 20
1427.749496429288
 30
0.0
 11
30899.604341291932
 21
1547.749496429288
 31
0.0
  0
LINE
  5
6D009
  8
YODOROGO
 10
30697.604341291932
 20
1427.749496429288
 30
0.0
 11
30645.604341291921
 21
1427.749496429288
 31
0.0
  0
LINE
  5
6D00A
  8
YODOROGO
 10
30617.604341291921
 20
1599.749496429288
 30
0.0
 11
30617.604341291921
 21
1507.749496429288
 31
0.0
  0
ARC
  5
6D00B
  8
YODOROGO
 10
30933.604341291921
 20
1467.749496429288
 30
0.0
 40
40.0
 50
270.0
 51
0.0
  0
LINE
  5
6D00C
  8
YODOROGO
 10
31093.604341291921
 20
1523.7494964292871
 30
0.0
 11
31093.604341291921
 21
1427.749496429288
 31
0.0
  0
ARC
  5
6D00D
  8
YODOROGO
 10
31039.721395566779
 20
1637.5313901097329
 30
0.0
 40
125.8955565916754
 50
295.34052442160112
 51
359.18902303418668
  0
LINE
  5
6D00E
  8
YODOROGO
 10
30617.604341291921
 20
1859.749496429288
 30
0.0
 11
30497.604341291921
 21
1939.749496429288
 31
0.0
  0
LINE
  5
6D00F
  8
YODOROGO
 10
30497.604341291921
 20
2027.749496429288
 30
0.0
 11
30617.604341291921
 21
1947.749496429288
 31
0.0
  0
LINE
  5
6D010
  8
YODOROGO
 10
30529.604341291932
 20
1679.749496429288
 30
0.0
 11
30617.604341291921
 21
1679.749496429288
 31
0.0
  0
LINE
  5
6D011
  8
YODOROGO
 10
30617.604341291921
 20
1735.7494964292871
 30
0.0
 11
30529.604341291932
 21
1735.7494964292871
 31
0.0
  0
LINE
  5
6D012
  8
YODOROGO
 10
30381.604341291932
 20
1795.7494964292871
 30
0.0
 11
30617.604341291921
 21
1795.7494964292871
 31
0.0
  0
LINE
  5
6D013
  8
YODOROGO
 10
30081.604341291932
 20
2027.749496429288
 30
0.0
 11
30021.604341291921
 21
2027.749496429288
 31
0.0
  0
LINE
  5
6D014
  8
YODOROGO
 10
30081.604341291932
 20
1827.7494964292871
 30
0.0
 11
30081.604341291932
 21
2027.749496429288
 31
0.0
  0
LINE
  5
6D015
  8
YODOROGO
 10
30021.604341291921
 20
1827.7494964292871
 30
0.0
 11
30081.604341291932
 21
1827.7494964292871
 31
0.0
  0
LINE
  5
6D016
  8
YODOROGO
 10
30021.604341291921
 20
2027.749496429288
 30
0.0
 11
30021.604341291921
 21
1827.7494964292871
 31
0.0
  0
LINE
  5
6D017
  8
YODOROGO
 10
30161.604341291932
 20
2027.749496429288
 30
0.0
 11
30217.604341291921
 21
2027.749496429288
 31
0.0
  0
LINE
  5
6D018
  8
YODOROGO
 10
30161.604341291932
 20
1811.7494964292889
 30
0.0
 11
30161.604341291932
 21
2027.749496429288
 31
0.0
  0
ARC
  5
6D019
  8
YODOROGO
 10
30121.604341291932
 20
1811.7494964292889
 30
0.0
 40
40.0
 50
270.0
 51
0.0
  0
LINE
  5
6D01A
  8
YODOROGO
 10
30021.604341291921
 20
1771.749496429288
 30
0.0
 11
30121.604341291932
 21
1771.749496429288
 31
0.0
  0
LINE
  5
6D01B
  8
YODOROGO
 10
30021.604341291921
 20
1707.749496429288
 30
0.0
 11
30021.604341291921
 21
1771.749496429288
 31
0.0
  0
LINE
  5
6D01C
  8
YODOROGO
 10
30137.604341291921
 20
1707.749496429288
 30
0.0
 11
30021.604341291921
 21
1707.749496429288
 31
0.0
  0
ARC
  5
6D01D
  8
YODOROGO
 10
30137.604341291921
 20
1787.749496429288
 30
0.0
 40
80.0
 50
270.0
 51
0.0
  0
LINE
  5
6D01E
  8
YODOROGO
 10
30217.604341291921
 20
2027.749496429288
 30
0.0
 11
30217.604341291921
 21
1787.749496429288
 31
0.0
  0
LINE
  5
6D01F
  8
YODOROGO
 10
29977.604341291921
 20
1947.749496429288
 30
0.0
 11
29977.604341291921
 21
1995.7494964292871
 31
0.0
1001
AUTOCAD_POSTSCRIPT_FIGURE
1002
{
1000
PSFILL
1000
Grayscale
1000
Grayscale
1070
    25
1002
}
  0
LINE
  5
6D020
  8
YODOROGO
 10
29977.604341291921
 20
1859.749496429288
 30
0.0
 11
29977.604341291921
 21
1907.7494964292871
 31
0.0
1001
AUTOCAD_POSTSCRIPT_FIGURE
1002
{
1000
PSFILL
1000
Grayscale
1000
Grayscale
1070
    25
1002
}
  0
LINE
  5
6D021
  8
YODOROGO
 10
29977.604341291921
 20
1707.749496429288
 30
0.0
 11
29977.604341291921
 21
1819.749496429288
 31
0.0
1001
AUTOCAD_POSTSCRIPT_FIGURE
1002
{
1000
PSFILL
1000
Grayscale
1000
Grayscale
1070
    25
1002
}
  0
LINE
  5
6D022
  8
YODOROGO
 10
30381.604341291932
 20
1907.7494964292871
 30
0.0
 11
30497.604341291921
 21
2027.749496429288
 31
0.0
  0
LINE
  5
6D023
  8
YODOROGO
 10
30381.604341291932
 20
1819.749496429288
 30
0.0
 11
30381.604341291932
 21
1907.7494964292871
 31
0.0
  0
LINE
  5
6D024
  8
YODOROGO
 10
30497.604341291921
 20
1939.749496429288
 30
0.0
 11
30381.604341291932
 21
1819.749496429288
 31
0.0
  0
LINE
  5
6D025
  8
YODOROGO
 10
30465.604341291921
 20
1679.749496429288
 30
0.0
 11
30465.604341291921
 21
1735.7494964292871
 31
0.0
  0
LINE
  5
6D026
  8
YODOROGO
 10
30381.604341291932
 20
1679.749496429288
 30
0.0
 11
30465.604341291921
 21
1679.749496429288
 31
0.0
  0
LINE
  5
6D027
  8
YODOROGO
 10
30529.604341291932
 20
1735.7494964292871
 30
0.0
 11
30529.604341291932
 21
1679.749496429288
 31
0.0
  0
LINE
  5
6D028
  8
YODOROGO
 10
30381.604341291932
 20
1735.7494964292871
 30
0.0
 11
30381.604341291932
 21
1795.7494964292871
 31
0.0
  0
LINE
  5
6D029
  8
YODOROGO
 10
30465.604341291921
 20
1735.7494964292871
 30
0.0
 11
30381.604341291932
 21
1735.7494964292871
 31
0.0
  0
LINE
  5
6D02A
  8
YODOROGO
 10
30645.604341291921
 20
2027.749496429288
 30
0.0
 11
30973.604341291921
 21
2027.749496429288
 31
0.0
  0
LINE
  5
6D02B
  8
YODOROGO
 10
30925.604341291921
 20
1963.7494964292871
 30
0.0
 11
30697.604341291932
 21
1963.7494964292871
 31
0.0
  0
LINE
  5
6D02C
  8
YODOROGO
 10
30873.604341291921
 20
1819.749496429288
 30
0.0
 11
30899.604341291932
 21
1819.749496429288
 31
0.0
  0
LINE
  5
6D02D
  8
YODOROGO
 10
30899.604341291932
 20
1939.749496429288
 30
0.0
 11
30873.604341291921
 21
1819.749496429288
 31
0.0
  0
LINE
  5
6D02E
  8
YODOROGO
 10
30851.604341291932
 20
1939.749496429288
 30
0.0
 11
30899.604341291932
 21
1939.749496429288
 31
0.0
  0
LINE
  5
6D02F
  8
YODOROGO
 10
30825.604341291921
 20
1819.749496429288
 30
0.0
 11
30851.604341291932
 21
1939.749496429288
 31
0.0
  0
LINE
  5
6D030
  8
YODOROGO
 10
30797.604341291921
 20
1819.749496429288
 30
0.0
 11
30825.604341291921
 21
1819.749496429288
 31
0.0
  0
LINE
  5
6D031
  8
YODOROGO
 10
30771.604341291932
 20
1939.749496429288
 30
0.0
 11
30797.604341291921
 21
1819.749496429288
 31
0.0
  0
LINE
  5
6D032
  8
YODOROGO
 10
30723.604341291921
 20
1939.749496429288
 30
0.0
 11
30771.604341291932
 21
1939.749496429288
 31
0.0
  0
LINE
  5
6D033
  8
YODOROGO
 10
30749.604341291921
 20
1819.749496429288
 30
0.0
 11
30723.604341291921
 21
1939.749496429288
 31
0.0
  0
LINE
  5
6D034
  8
YODOROGO
 10
30723.604341291921
 20
1819.749496429288
 30
0.0
 11
30749.604341291921
 21
1819.749496429288
 31
0.0
  0
LINE
  5
6D035
  8
YODOROGO
 10
30723.604341291921
 20
1755.7494964292871
 30
0.0
 11
30723.604341291921
 21
1819.749496429288
 31
0.0
  0
LINE
  5
6D036
  8
YODOROGO
 10
30899.604341291932
 20
1755.7494964292871
 30
0.0
 11
30723.604341291921
 21
1755.7494964292871
 31
0.0
  0
LINE
  5
6D037
  8
YODOROGO
 10
30899.604341291932
 20
1819.749496429288
 30
0.0
 11
30899.604341291932
 21
1755.7494964292871
 31
0.0
  0
LINE
  5
6D038
  8
YODOROGO
 10
30617.604341291921
 20
1947.749496429288
 30
0.0
 11
30617.604341291921
 21
1859.749496429288
 31
0.0
  0
LINE
  5
6D039
  8
YODOROGO
 10
30791.604341291921
 20
1755.7494964292871
 30
0.0
 11
30831.604341291921
 21
1755.7494964292871
 31
0.0
  0
LINE
  5
6D03A
  8
YODOROGO
 10
30723.604341291921
 20
1691.7494964292889
 30
0.0
 11
30763.604341291921
 21
1691.7494964292889
 31
0.0
  0
LINE
  5
6D03B
  8
YODOROGO
 10
30859.604341291932
 20
1691.7494964292889
 30
0.0
 11
30899.604341291932
 21
1691.7494964292889
 31
0.0
  0
LINE
  5
6D03C
  8
YODOROGO
 10
30617.604341291921
 20
1795.7494964292871
 30
0.0
 11
30617.604341291921
 21
1735.7494964292871
 31
0.0
  0
LINE
  5
6D03D
  8
YODOROGO
 10
31165.604341291921
 20
2027.749496429288
 30
0.0
 11
31165.604341291921
 21
1963.7494964292871
 31
0.0
  0
LINE
  5
6D03E
  8
YODOROGO
 10
31533.604341291921
 20
1595.7494964292871
 30
0.0
 11
31533.60434129191
 21
1811.7494964292889
 31
0.0
  0
LINE
  5
6D03F
  8
YODOROGO
 10
31461.60434129191
 20
1987.749496429288
 30
0.0
 11
31461.60434129191
 21
1635.7494964292871
 31
0.0
  0
LINE
  5
6D040
  8
YODOROGO
 10
31653.604341291921
 20
1427.749496429288
 30
0.0
 11
31653.60434129191
 21
1811.7494964292889
 31
0.0
  0
LINE
  5
6D041
  8
YODOROGO
 10
31589.604341291921
 20
1811.7494964292889
 30
0.0
 11
31589.604341291921
 21
1427.749496429288
 31
0.0
  0
LINE
  5
6D042
  8
YODOROGO
 10
31237.604341291921
 20
1595.7494964292871
 30
0.0
 11
31237.604341291921
 21
1707.749496429288
 31
0.0
  0
ARC
  5
6D043
  8
YODOROGO
 10
31353.914865116069
 20
1607.790351288558
 30
0.0
 40
180.09244857598861
 50
268.62849102169793
 51
356.16638457330322
  0
LINE
  5
6D044
  8
YODOROGO
 10
31349.604341291932
 20
1527.749496429288
 30
0.0
 11
31349.604341291932
 21
1427.749496429288
 31
0.0
  0
ARC
  5
6D045
  8
YODOROGO
 10
31351.518075724562
 20
1637.838957017655
 30
0.0
 40
110.1060929836122
 50
269.00410209305937
 51
358.91264455492478
  0
LINE
  5
6D046
  8
YODOROGO
 10
31589.604341291921
 20
1427.749496429288
 30
0.0
 11
31653.604341291921
 21
1427.749496429288
 31
0.0
  0
LINE
  5
6D047
  8
YODOROGO
 10
31533.60434129191
 20
1811.7494964292889
 30
0.0
 11
31589.604341291921
 21
1811.7494964292889
 31
0.0
  0
LINE
  5
6D048
  8
YODOROGO
 10
31621.604341291932
 20
1987.749496429288
 30
0.0
 11
31461.60434129191
 21
1987.749496429288
 31
0.0
  0
LINE
  5
6D049
  8
YODOROGO
 10
31533.60434129191
 20
1915.7494964292871
 30
0.0
 11
31661.604341291932
 21
1915.7494964292871
 31
0.0
  0
LINE
  5
6D04A
  8
YODOROGO
 10
31701.604341291932
 20
1875.7494964292871
 30
0.0
 11
31533.60434129191
 21
1875.7494964292871
 31
0.0
  0
LINE
  5
6D04B
  8
YODOROGO
 10
31237.604341291921
 20
1779.749496429288
 30
0.0
 11
31349.604341291932
 21
1779.749496429288
 31
0.0
  0
LINE
  5
6D04C
  8
YODOROGO
 10
31237.604341291921
 20
1835.7494964292871
 30
0.0
 11
31237.604341291921
 21
1779.749496429288
 31
0.0
  0
LINE
  5
6D04D
  8
YODOROGO
 10
31349.604341291932
 20
1835.7494964292871
 30
0.0
 11
31237.604341291921
 21
1835.7494964292871
 31
0.0
  0
LINE
  5
6D04E
  8
YODOROGO
 10
31349.604341291932
 20
1779.749496429288
 30
0.0
 11
31349.604341291932
 21
1835.7494964292871
 31
0.0
  0
LINE
  5
6D04F
  8
YODOROGO
 10
31533.60434129191
 20
1875.7494964292871
 30
0.0
 11
31533.60434129191
 21
1915.7494964292871
 31
0.0
  0
LINE
  5
6D050
  8
YODOROGO
 10
31413.604341291921
 20
1707.749496429288
 30
0.0
 11
31413.604341291921
 21
1907.7494964292871
 31
0.0
  0
LINE
  5
6D051
  8
YODOROGO
 10
31237.604341291921
 20
1707.749496429288
 30
0.0
 11
31413.604341291921
 21
1707.749496429288
 31
0.0
  0
LINE
  5
6D052
  8
YODOROGO
 10
31413.604341291921
 20
1963.7494964292871
 30
0.0
 11
31413.604341291921
 21
2027.749496429288
 31
0.0
  0
ARC
  5
6D053
  8
YODOROGO
 10
31621.604341291932
 20
2003.749496429285
 30
0.0
 40
15.999999999994539
 50
270.0
 51
0.0000000000081422
  0
LINE
  5
6D054
  8
YODOROGO
 10
31637.604341291921
 20
2027.749496429288
 30
0.0
 11
31637.604341291921
 21
2003.7494964292871
 31
0.0
  0
LINE
  5
6D055
  8
YODOROGO
 10
31701.604341291932
 20
2027.749496429288
 30
0.0
 11
31637.604341291921
 21
2027.749496429288
 31
0.0
  0
LINE
  5
6D056
  8
YODOROGO
 10
31701.604341291932
 20
1955.7494964292871
 30
0.0
 11
31701.604341291932
 21
2027.749496429288
 31
0.0
  0
ARC
  5
6D057
  8
YODOROGO
 10
31661.604341291932
 20
1955.7494964292871
 30
0.0
 40
40.0
 50
270.0
 51
0.0
  0
LINE
  5
6D058
  8
YODOROGO
 10
31701.604341291932
 20
1811.7494964292889
 30
0.0
 11
31701.604341291932
 21
1875.7494964292871
 31
0.0
  0
LINE
  5
6D059
  8
YODOROGO
 10
31653.60434129191
 20
1811.7494964292889
 30
0.0
 11
31701.604341291932
 21
1811.7494964292889
 31
0.0
  0
LINE
  5
6D05A
  8
SUNPOU
 10
22458.49999999992
 20
15938.12150036126
 30
0.0
 11
22458.49999999992
 21
15038.121500361291
 31
0.0
  0
LINE
  5
6D05B
  8
SUNPOU
 10
25173.499999999982
 20
15938.12150036126
 30
0.0
 11
25173.499999999982
 21
15038.121500361291
 31
0.0
  0
LINE
  5
6D05C
  8
SUNPOU
 10
22498.49999999992
 20
15118.121500361291
 30
0.0
 11
25133.499999999982
 21
15118.121500361291
 31
0.0
  0
LINE
  5
6D060
  8
SUNPOU
 10
16858.500000000018
 20
15938.121500361291
 30
0.0
 11
16858.500000000018
 21
15038.12150036132
 31
0.0
  0
LINE
  5
6D061
  8
SUNPOU
 10
22373.499999999982
 20
15938.12150036126
 30
0.0
 11
22373.499999999982
 21
15038.12150036132
 31
0.0
  0
LINE
  5
6D062
  8
SUNPOU
 10
16898.500000000018
 20
15118.12150036132
 30
0.0
 11
22333.499999999982
 21
15118.12150036132
 31
0.0
  0
LINE
  5
6D066
  8
SUNPOU
 10
14058.499999999911
 20
15938.12150036126
 30
0.0
 11
14058.499999999911
 21
15038.121500361291
 31
0.0
  0
LINE
  5
6D067
  8
SUNPOU
 10
16773.499999999971
 20
15938.12150036126
 30
0.0
 11
16773.499999999971
 21
15038.121500361291
 31
0.0
  0
LINE
  5
6D068
  8
SUNPOU
 10
14098.499999999911
 20
15118.121500361291
 30
0.0
 11
16733.499999999971
 21
15118.121500361291
 31
0.0
  0
LINE
  5
6D06C
  8
SUNPOU
 10
8458.5000000000182
 20
15938.121500361291
 30
0.0
 11
8458.5000000000182
 21
15038.12150036132
 31
0.0
  0
LINE
  5
6D06D
  8
SUNPOU
 10
13973.499999999991
 20
15938.12150036126
 30
0.0
 11
13973.499999999991
 21
15038.12150036132
 31
0.0
  0
LINE
  5
6D06E
  8
SUNPOU
 10
8498.5000000000182
 20
15118.12150036132
 30
0.0
 11
13933.499999999991
 21
15118.12150036132
 31
0.0
  0
LINE
  5
6D073
  8
SUNPOU
 10
22057.99999999996
 20
15518.121500361291
 30
0.0
 11
22027.99999999996
 21
15518.121500361291
 31
0.0
  0
LINE
  5
6D075
  8
SUNPOU
 10
16951.99999999996
 20
15518.121500361291
 30
0.0
 11
16981.99999999996
 21
15518.121500361291
 31
0.0
  0
LINE
  5
6D077
  8
SUNPOU
 10
13657.99999999996
 20
15518.121500361291
 30
0.0
 11
13627.99999999996
 21
15518.121500361291
 31
0.0
  0
LINE
  5
6D079
  8
SUNPOU
 10
8551.9999999999618
 20
15518.121500361291
 30
0.0
 11
8581.9999999999636
 21
15518.121500361291
 31
0.0
  0
LINE
  5
6D07B
  8
SUNPOU
 10
7490.9999999999909
 20
16348.121500361291
 30
0.0
 11
7490.9999999999909
 21
16378.121500361291
 31
0.0
  0
LINE
  5
6D07D
  8
SUNPOU
 10
7090.9999999999909
 20
16348.121500361291
 30
0.0
 11
7090.9999999999909
 21
16378.121500361291
 31
0.0
  0
LINE
  5
6D07F
  8
SUNPOU
 10
7090.9999999999909
 20
20068.121500361289
 30
0.0
 11
7090.9999999999909
 21
20038.121500361289
 31
0.0
  0
LINE
  5
6D081
  8
SUNPOU
 10
7490.9999999999909
 20
19458.121500361289
 30
0.0
 11
7490.9999999999909
 21
19428.121500361289
 31
0.0
  0
LINE
  5
6D083
  8
SUNPOU
 10
25080.00000000004
 20
15518.121500361291
 30
0.0
 11
25050.00000000004
 21
15518.121500361291
 31
0.0
  0
LINE
  5
6D085
  8
SUNPOU
 10
22552.000000000011
 20
15518.121500361291
 30
0.0
 11
22582.000000000011
 21
15518.121500361291
 31
0.0
  0
LINE
  5
6D087
  8
SUNPOU
 10
19585.999999999989
 20
14718.121500361291
 30
0.0
 11
19555.999999999989
 21
14718.121500361291
 31
0.0
  0
LINE
  5
6D089
  8
SUNPOU
 10
19645.999999999989
 20
14718.121500361291
 30
0.0
 11
19675.999999999989
 21
14718.121500361291
 31
0.0
  0
LINE
  5
6D08B
  8
SUNPOU
 10
22445.999999999989
 20
14718.121500361291
 30
0.0
 11
22475.999999999989
 21
14718.121500361291
 31
0.0
  0
LINE
  5
6D08D
  8
SUNPOU
 10
22385.999999999989
 20
14718.121500361291
 30
0.0
 11
22355.999999999989
 21
14718.121500361291
 31
0.0
  0
LINE
  5
6D08F
  8
SUNPOU
 10
22385.999999999989
 20
14718.121500361291
 30
0.0
 11
22355.999999999989
 21
14718.121500361291
 31
0.0
  0
LINE
  5
6D091
  8
SUNPOU
 10
25185.999999999989
 20
14718.121500361291
 30
0.0
 11
25156.0
 21
14718.121500361291
 31
0.0
  0
LINE
  5
6D093
  8
SUNPOU
 10
25185.999999999989
 20
14718.121500361291
 30
0.0
 11
25156.0
 21
14718.121500361291
 31
0.0
  0
LINE
  5
6D095
  8
SUNPOU
 10
16845.999999999989
 20
14718.121500361291
 30
0.0
 11
16875.999999999989
 21
14718.121500361291
 31
0.0
  0
LINE
  5
6D097
  8
SUNPOU
 10
16785.999999999989
 20
14718.121500361291
 30
0.0
 11
16755.999999999989
 21
14718.121500361291
 31
0.0
  0
LINE
  5
6D099
  8
SUNPOU
 10
16785.999999999989
 20
14718.121500361291
 30
0.0
 11
16755.999999999989
 21
14718.121500361291
 31
0.0
  0
LINE
  5
6D09B
  8
SUNPOU
 10
25310.999999999989
 20
14318.121500361291
 30
0.0
 11
25280.999999999989
 21
14318.121500361291
 31
0.0
  0
LINE
  5
6D09D
  8
SUNPOU
 10
25310.999999999989
 20
14718.121500361291
 30
0.0
 11
25280.999999999989
 21
14718.121500361291
 31
0.0
  0
LINE
  5
6D09F
  8
SUNPOU
 10
13985.999999999991
 20
14718.121500361291
 30
0.0
 11
13955.999999999991
 21
14718.121500361291
 31
0.0
  0
LINE
  5
6D0A1
  8
SUNPOU
 10
13985.999999999991
 20
14718.121500361291
 30
0.0
 11
13955.999999999991
 21
14718.121500361291
 31
0.0
  0
LINE
  5
6D0A3
  8
SUNPOU
 10
14045.999999999991
 20
14718.121500361291
 30
0.0
 11
14075.999999999991
 21
14718.121500361291
 31
0.0
  0
LINE
  5
6D0A5
  8
SUNPOU
 10
11245.999999999991
 20
14718.121500361291
 30
0.0
 11
11275.999999999991
 21
14718.121500361291
 31
0.0
  0
LINE
  5
6D0A7
  8
SUNPOU
 10
11185.999999999991
 20
14718.121500361291
 30
0.0
 11
11155.999999999991
 21
14718.121500361291
 31
0.0
  0
LINE
  5
6D0A9
  8
SUNPOU
 10
16680.000000000029
 20
15518.121500361291
 30
0.0
 11
16650.00000000004
 21
15518.121500361291
 31
0.0
  0
LINE
  5
6D0AB
  8
SUNPOU
 10
14152.000000000009
 20
15518.121500361291
 30
0.0
 11
14182.000000000009
 21
15518.121500361291
 31
0.0
  0
LINE
  5
6D0AD
  8
SUNPOU
 10
8320.9999999999909
 20
14318.121500361291
 30
0.0
 11
8350.9999999999909
 21
14318.121500361291
 31
0.0
  0
LINE
  5
6D0AF
  8
SUNPOU
 10
8320.9999999999909
 20
14718.121500361291
 30
0.0
 11
8350.9999999999909
 21
14718.121500361291
 31
0.0
  0
LINE
  5
6D0B1
  8
SUNPOU
 10
8385.9999999999927
 20
14718.121500361291
 30
0.0
 11
8355.9999999999927
 21
14718.121500361291
 31
0.0
  0
LINE
  5
6D0B3
  8
SUNPOU
 10
8445.9999999999909
 20
14718.121500361291
 30
0.0
 11
8475.9999999999909
 21
14718.121500361291
 31
0.0
  0
LINE
  5
6D0B5
  8
SUNPOU
 10
25346.0
 20
21298.121500361289
 30
0.0
 11
25316.0
 21
21298.121500361289
 31
0.0
  0
LINE
  5
6D0B7
  8
SUNPOU
 10
25426.0
 20
20898.121500361289
 30
0.0
 11
25456.0
 21
20898.121500361289
 31
0.0
  0
LINE
  5
6D0B9
  8
SUNPOU
 10
25311.0
 20
20898.121500361289
 30
0.0
 11
25281.0
 21
20898.121500361289
 31
0.0
  0
LINE
  5
6D0BB
  8
SUNPOU
 10
8285.9999999999982
 20
21298.121500361289
 30
0.0
 11
8315.9999999999982
 21
21298.121500361289
 31
0.0
  0
LINE
  5
6D0BD
  8
SUNPOU
 10
8205.9999999999982
 20
20898.121500361289
 30
0.0
 11
8175.9999999999982
 21
20898.121500361289
 31
0.0
  0
LINE
  5
6D0BF
  8
SUNPOU
 10
8320.9999999999964
 20
20898.121500361289
 30
0.0
 11
8350.9999999999964
 21
20898.121500361289
 31
0.0
  0
LINE
  5
6D0C0
  8
SUNPOU
 10
19728.81273525994
 20
6277.4291594232991
 30
0.0
 11
21121.387106663489
 21
6277.4291594232991
 31
0.0
  0
LINE
  5
6D0C1
  8
SUNPOU
 10
19691.99999999988
 20
9352.4291594233273
 30
0.0
 11
21121.387106663489
 21
9352.4291594233255
 31
0.0
  0
LINE
  5
6D0C2
  8
SUNPOU
 10
21041.387106663489
 20
6317.4291594232982
 30
0.0
 11
21041.3871066635
 21
9312.4291594233255
 31
0.0
  0
LINE
  5
6D0C6
  8
SUNPOU
 10
16954.268210725339
 20
9764.3841069820846
 30
0.0
 11
18694.503844154951
 21
9764.3841069820846
 31
0.0
  0
LINE
  5
6D0C7
  8
SUNPOU
 10
17015.999999999949
 20
6277.4291594232991
 30
0.0
 11
18694.503844154951
 21
6277.4291594232982
 31
0.0
  0
LINE
  5
6D0C8
  8
SUNPOU
 10
18614.503844154951
 20
9724.3841069820846
 30
0.0
 11
18614.50384415494
 21
6317.4291594232982
 31
0.0
  0
LINE
  5
6D0CC
  8
SUNPOU
 10
16861.733969015349
 20
9844.6891444788998
 30
0.0
 11
16888.143873135868
 21
11015.745077978199
 31
0.0
  0
LINE
  5
6D0CD
  8
SUNPOU
 10
22670.280187468728
 20
9713.6935666241552
 30
0.0
 11
22696.690091589251
 21
10884.749500123449
 31
0.0
  0
LINE
  5
6D0CE
  8
SUNPOU
 10
16926.329986469609
 20
10934.86355506683
 30
0.0
 11
22654.896541260401
 21
10805.671695709631
 31
0.0
  0
LINE
  5
6D0D2
  8
SUNPOU
 10
22748.47646897117
 20
9633.7139029615628
 30
0.0
 11
23292.442872043412
 21
9633.7139029615628
 31
0.0
  0
LINE
  5
6D0D3
  8
SUNPOU
 10
17015.999999999949
 20
6277.4291594232991
 30
0.0
 11
23292.442872043412
 21
6277.4291594232964
 31
0.0
  0
LINE
  5
6D0D4
  8
SUNPOU
 10
23212.442872043412
 20
9593.7139029615646
 30
0.0
 11
23212.442872043412
 21
6317.4291594232964
 31
0.0
  0
LINE
  5
6D0D8
  8
SUNPOU
 10
22358.499999999942
 20
5397.4291594232982
 30
0.0
 11
22358.499999999942
 21
4597.4291594232982
 31
0.0
  0
LINE
  5
6D0D9
  8
SUNPOU
 10
16858.499999999949
 20
6197.4291594232982
 30
0.0
 11
16858.499999999949
 21
4597.4291594232982
 31
0.0
  0
LINE
  5
6D0DA
  8
SUNPOU
 10
22318.499999999942
 20
4677.4291594232982
 30
0.0
 11
16898.499999999949
 21
4677.4291594232982
 31
0.0
  0
LINE
  5
6D0DE
  8
SUNPOU
 10
11190.499999999951
 20
6197.4291594232982
 30
0.0
 11
11190.499999999951
 21
4597.4291594232982
 31
0.0
  0
LINE
  5
6D0DF
  8
SUNPOU
 10
16858.499999999949
 20
6197.4291594232982
 30
0.0
 11
16858.499999999949
 21
4597.4291594232982
 31
0.0
  0
LINE
  5
6D0E0
  8
SUNPOU
 10
11230.499999999951
 20
4677.4291594232982
 30
0.0
 11
16818.499999999949
 21
4677.4291594232982
 31
0.0
  0
LINE
  5
6D0E5
  8
SUNPOU
 10
10849.79778538487
 20
10735.84487364258
 30
0.0
 11
10879.696644633539
 21
10738.30621791522
 31
0.0
  0
LINE
  5
6D0E7
  8
SUNPOU
 10
17106.632397489051
 20
11250.922185097301
 30
0.0
 11
17076.73353824038
 21
11248.46084082466
 31
0.0
  0
LINE
  5
6D0E9
  8
SUNPOU
 10
18049.753093279211
 20
10027.4291594233
 30
0.0
 11
18049.753093279211
 21
9997.4291594232982
 31
0.0
  0
LINE
  5
6D0EB
  8
SUNPOU
 10
18049.753093279211
 20
6307.4291594232982
 30
0.0
 11
18049.753093279211
 21
6337.4291594232982
 31
0.0
  0
LINE
  5
6D0ED
  8
SUNPOU
 10
10118.352697041881
 20
9507.4291594232982
 30
0.0
 11
10118.352697041881
 21
9477.4291594232982
 31
0.0
  0
LINE
  5
6D0EF
  8
SUNPOU
 10
10118.352697041881
 20
6307.4291594232982
 30
0.0
 11
10118.352697041881
 21
6337.4291594232982
 31
0.0
  0
LINE
  5
6D0F0
  8
SUNPOU
 10
25449.19427045168
 20
19674.406243899561
 30
0.0
 11
27815.39969306453
 21
19674.406243899561
 31
0.0
  0
LINE
  5
6D0F1
  8
SUNPOU
 10
25414.19427045168
 20
16318.121500361291
 30
0.0
 11
27815.39969306453
 21
16318.121500361291
 31
0.0
  0
LINE
  5
6D0F2
  8
SUNPOU
 10
27735.39969306453
 20
19634.406243899561
 30
0.0
 11
27735.39969306453
 21
16358.121500361291
 31
0.0
  0
LINE
  5
6D0F6
  8
SUNPOU
 10
25414.19427045168
 20
16318.121500361291
 30
0.0
 11
26675.581377115232
 21
16318.121500361291
 31
0.0
  0
LINE
  5
6D0F7
  8
SUNPOU
 10
25246.194270451619
 20
19393.121500361322
 30
0.0
 11
26675.581377115232
 21
19393.121500361322
 31
0.0
  0
LINE
  5
6D0F8
  8
SUNPOU
 10
26595.581377115232
 20
16358.121500361291
 30
0.0
 11
26595.581377115232
 21
19353.121500361322
 31
0.0
  0
ARC
  5
6D0FC
  8
SUNPOU
 10
25396.0
 20
20898.121500361289
 30
0.0
 40
15.0
 50
180.0
 51
0.0
  0
ARC
  5
6D0FD
  8
SUNPOU
 10
25396.0
 20
20898.121500361289
 30
0.0
 40
15.0
 50
0.0
 51
180.0
  0
ARC
  5
6D0FE
  8
SUNPOU
 10
14122.000000000009
 20
15518.121500361291
 30
0.0
 40
15.0
 50
180.0
 51
0.0
  0
ARC
  5
6D0FF
  8
SUNPOU
 10
14122.000000000009
 20
15518.121500361291
 30
0.0
 40
15.0
 50
0.0
 51
180.0
  0
ARC
  5
6D100
  8
SUNPOU
 10
16710.000000000029
 20
15518.121500361291
 30
0.0
 40
15.0
 50
0.0
 51
180.0
  0
ARC
  5
6D101
  8
SUNPOU
 10
16710.000000000029
 20
15518.121500361291
 30
0.0
 40
15.0
 50
180.0
 51
0.0
  0
ARC
  5
6D102
  8
SUNPOU
 10
14015.999999999991
 20
14718.121500361291
 30
0.0
 40
15.0
 50
180.0
 51
0.0
  0
ARC
  5
6D103
  8
SUNPOU
 10
14015.999999999991
 20
14718.121500361291
 30
0.0
 40
15.0
 50
0.0
 51
180.0
  0
ARC
  5
6D104
  8
SUNPOU
 10
25341.0
 20
14718.121500361291
 30
0.0
 40
15.0
 50
0.0
 51
180.0
  0
ARC
  5
6D105
  8
SUNPOU
 10
25341.0
 20
14718.121500361291
 30
0.0
 40
15.0
 50
180.0
 51
0.0
  0
ARC
  5
6D106
  8
SUNPOU
 10
22416.0
 20
14718.121500361291
 30
0.0
 40
15.0
 50
180.0
 51
0.0
  0
ARC
  5
6D107
  8
SUNPOU
 10
22416.0
 20
14718.121500361291
 30
0.0
 40
15.0
 50
0.0
 51
180.0
  0
ARC
  5
6D108
  8
SUNPOU
 10
22522.000000000011
 20
15518.121500361291
 30
0.0
 40
15.0
 50
180.0
 51
0.0
  0
ARC
  5
6D109
  8
SUNPOU
 10
22522.000000000011
 20
15518.121500361291
 30
0.0
 40
15.0
 50
0.0
 51
180.0
  0
ARC
  5
6D10A
  8
SUNPOU
 10
25110.00000000004
 20
15518.121500361291
 30
0.0
 40
15.0
 50
0.0
 51
180.0
  0
ARC
  5
6D10B
  8
SUNPOU
 10
25110.00000000004
 20
15518.121500361291
 30
0.0
 40
15.0
 50
180.0
 51
0.0
  0
TEXT
  5
6D10C
  8
SUNPOU
 10
24275.806227581859
 20
15198.121500361291
 30
0.0
 40
160.0
  1
2715
 41
0.6666666666666666
  7
00
  0
LINE
  5
6D10E
  8
SUNPOU
 10
25143.499999999982
 20
15118.121500361291
 30
0.0
 11
25113.499999999982
 21
15118.121500361291
 31
0.0
  0
LINE
  5
6D110
  8
SUNPOU
 10
22488.49999999992
 20
15118.121500361291
 30
0.0
 11
22518.499999999931
 21
15118.121500361291
 31
0.0
  0
TEXT
  5
6D111
  8
SUNPOU
 10
20300.755986119439
 20
15198.12150036132
 30
0.0
 40
160.0
  1
5515
 41
0.6666666666666666
  7
00
  0
LINE
  5
6D113
  8
SUNPOU
 10
22343.499999999982
 20
15118.12150036132
 30
0.0
 11
22313.499999999982
 21
15118.12150036132
 31
0.0
  0
LINE
  5
6D115
  8
SUNPOU
 10
16888.500000000018
 20
15118.12150036132
 30
0.0
 11
16918.500000000018
 21
15118.12150036132
 31
0.0
  0
TEXT
  5
6D116
  8
SUNPOU
 10
15875.806227581859
 20
15198.121500361291
 30
0.0
 40
160.0
  1
2715
 41
0.6666666666666666
  7
00
  0
LINE
  5
6D118
  8
SUNPOU
 10
16743.499999999971
 20
15118.121500361291
 30
0.0
 11
16713.499999999971
 21
15118.121500361291
 31
0.0
  0
LINE
  5
6D11A
  8
SUNPOU
 10
14088.499999999911
 20
15118.121500361291
 30
0.0
 11
14118.499999999911
 21
15118.121500361291
 31
0.0
  0
TEXT
  5
6D11B
  8
SUNPOU
 10
11900.75598611944
 20
15198.12150036132
 30
0.0
 40
160.0
  1
5515
 41
0.6666666666666666
  7
00
  0
LINE
  5
6D11D
  8
SUNPOU
 10
13943.499999999991
 20
15118.12150036132
 30
0.0
 11
13913.499999999991
 21
15118.12150036132
 31
0.0
  0
LINE
  5
6D11F
  8
SUNPOU
 10
8488.5000000000182
 20
15118.12150036132
 30
0.0
 11
8518.5000000000182
 21
15118.12150036132
 31
0.0
  0
ARC
  5
6D120
  8
SUNPOU
 10
22087.99999999996
 20
15518.121500361291
 30
0.0
 40
15.0
 50
180.0
 51
0.0
  0
ARC
  5
6D121
  8
SUNPOU
 10
22087.99999999996
 20
15518.121500361291
 30
0.0
 40
15.0
 50
0.0
 51
180.0
  0
ARC
  5
6D122
  8
SUNPOU
 10
16921.99999999996
 20
15518.121500361291
 30
0.0
 40
15.0
 50
0.0
 51
180.0
  0
ARC
  5
6D123
  8
SUNPOU
 10
16921.99999999996
 20
15518.121500361291
 30
0.0
 40
15.0
 50
180.0
 51
0.0
  0
ARC
  5
6D124
  8
SUNPOU
 10
13687.99999999996
 20
15518.121500361291
 30
0.0
 40
15.0
 50
180.0
 51
0.0
  0
ARC
  5
6D125
  8
SUNPOU
 10
13687.99999999996
 20
15518.121500361291
 30
0.0
 40
15.0
 50
0.0
 51
180.0
  0
ARC
  5
6D126
  8
SUNPOU
 10
8521.9999999999618
 20
15518.121500361291
 30
0.0
 40
15.0
 50
0.0
 51
180.0
  0
ARC
  5
6D127
  8
SUNPOU
 10
8521.9999999999618
 20
15518.121500361291
 30
0.0
 40
15.0
 50
180.0
 51
0.0
  0
ARC
  5
6D128
  8
SUNPOU
 10
7490.9999999999909
 20
16318.121500361291
 30
0.0
 40
15.0
 50
90.0
 51
270.0
  0
ARC
  5
6D129
  8
SUNPOU
 10
7490.9999999999909
 20
16318.121500361291
 30
0.0
 40
15.0
 50
270.0
 51
90.0
  0
ARC
  5
6D12A
  8
SUNPOU
 10
7090.9999999999909
 20
16318.121500361291
 30
0.0
 40
15.0
 50
90.0
 51
270.0
  0
ARC
  5
6D12B
  8
SUNPOU
 10
7090.9999999999909
 20
16318.121500361291
 30
0.0
 40
15.0
 50
270.0
 51
90.0
  0
ARC
  5
6D12C
  8
SUNPOU
 10
7090.9999999999909
 20
20098.121500361289
 30
0.0
 40
15.0
 50
270.0
 51
90.0
  0
ARC
  5
6D12D
  8
SUNPOU
 10
7090.9999999999909
 20
20098.121500361289
 30
0.0
 40
15.0
 50
90.0
 51
270.0
  0
ARC
  5
6D12E
  8
SUNPOU
 10
7490.9999999999909
 20
19488.121500361289
 30
0.0
 40
15.0
 50
270.0
 51
90.0
  0
ARC
  5
6D12F
  8
SUNPOU
 10
7490.9999999999909
 20
19488.121500361289
 30
0.0
 40
15.0
 50
90.0
 51
270.0
  0
ARC
  5
6D130
  8
SUNPOU
 10
19615.999999999989
 20
14718.121500361291
 30
0.0
 40
15.0
 50
180.0
 51
0.0
  0
ARC
  5
6D131
  8
SUNPOU
 10
19615.999999999989
 20
14718.121500361291
 30
0.0
 40
15.0
 50
0.0
 51
180.0
  0
ARC
  5
6D132
  8
SUNPOU
 10
19615.999999999989
 20
14718.121500361291
 30
0.0
 40
15.0
 50
0.0
 51
180.0
  0
ARC
  5
6D133
  8
SUNPOU
 10
19615.999999999989
 20
14718.121500361291
 30
0.0
 40
15.0
 50
180.0
 51
0.0
  0
ARC
  5
6D134
  8
SUNPOU
 10
22416.0
 20
14718.121500361291
 30
0.0
 40
15.0
 50
180.0
 51
0.0
  0
ARC
  5
6D135
  8
SUNPOU
 10
22416.0
 20
14718.121500361291
 30
0.0
 40
15.0
 50
0.0
 51
180.0
  0
ARC
  5
6D136
  8
SUNPOU
 10
22416.0
 20
14718.121500361291
 30
0.0
 40
15.0
 50
180.0
 51
0.0
  0
ARC
  5
6D137
  8
SUNPOU
 10
22416.0
 20
14718.121500361291
 30
0.0
 40
15.0
 50
0.0
 51
180.0
  0
ARC
  5
6D138
  8
SUNPOU
 10
25215.999999999989
 20
14718.121500361291
 30
0.0
 40
15.0
 50
180.0
 51
0.0
  0
ARC
  5
6D139
  8
SUNPOU
 10
25215.999999999989
 20
14718.121500361291
 30
0.0
 40
15.0
 50
0.0
 51
180.0
  0
ARC
  5
6D13A
  8
SUNPOU
 10
25215.999999999989
 20
14718.121500361291
 30
0.0
 40
15.0
 50
180.0
 51
0.0
  0
ARC
  5
6D13B
  8
SUNPOU
 10
25215.999999999989
 20
14718.121500361291
 30
0.0
 40
15.0
 50
0.0
 51
180.0
  0
ARC
  5
6D13C
  8
SUNPOU
 10
16815.999999999989
 20
14718.121500361291
 30
0.0
 40
15.0
 50
0.0
 51
180.0
  0
ARC
  5
6D13D
  8
SUNPOU
 10
16815.999999999989
 20
14718.121500361291
 30
0.0
 40
15.0
 50
180.0
 51
0.0
  0
ARC
  5
6D13E
  8
SUNPOU
 10
16815.999999999989
 20
14718.121500361291
 30
0.0
 40
15.0
 50
180.0
 51
0.0
  0
ARC
  5
6D13F
  8
SUNPOU
 10
16815.999999999989
 20
14718.121500361291
 30
0.0
 40
15.0
 50
0.0
 51
180.0
  0
ARC
  5
6D140
  8
SUNPOU
 10
16815.999999999989
 20
14718.121500361291
 30
0.0
 40
15.0
 50
180.0
 51
0.0
  0
ARC
  5
6D141
  8
SUNPOU
 10
16815.999999999989
 20
14718.121500361291
 30
0.0
 40
15.0
 50
0.0
 51
180.0
  0
ARC
  5
6D142
  8
SUNPOU
 10
25341.0
 20
14318.121500361291
 30
0.0
 40
15.0
 50
180.0
 51
0.0
  0
ARC
  5
6D143
  8
SUNPOU
 10
25341.0
 20
14318.121500361291
 30
0.0
 40
15.0
 50
0.0
 51
180.0
  0
ARC
  5
6D144
  8
SUNPOU
 10
14015.999999999991
 20
14718.121500361291
 30
0.0
 40
15.0
 50
180.0
 51
0.0
  0
ARC
  5
6D145
  8
SUNPOU
 10
14015.999999999991
 20
14718.121500361291
 30
0.0
 40
15.0
 50
0.0
 51
180.0
  0
ARC
  5
6D146
  8
SUNPOU
 10
14015.999999999991
 20
14718.121500361291
 30
0.0
 40
15.0
 50
180.0
 51
0.0
  0
ARC
  5
6D147
  8
SUNPOU
 10
14015.999999999991
 20
14718.121500361291
 30
0.0
 40
15.0
 50
0.0
 51
180.0
  0
ARC
  5
6D148
  8
SUNPOU
 10
11215.999999999991
 20
14718.121500361291
 30
0.0
 40
15.0
 50
0.0
 51
180.0
  0
ARC
  5
6D149
  8
SUNPOU
 10
11215.999999999991
 20
14718.121500361291
 30
0.0
 40
15.0
 50
180.0
 51
0.0
  0
ARC
  5
6D14A
  8
SUNPOU
 10
11215.999999999991
 20
14718.121500361291
 30
0.0
 40
15.0
 50
180.0
 51
0.0
  0
ARC
  5
6D14B
  8
SUNPOU
 10
11215.999999999991
 20
14718.121500361291
 30
0.0
 40
15.0
 50
0.0
 51
180.0
  0
ARC
  5
6D14C
  8
SUNPOU
 10
8290.9999999999909
 20
14318.121500361291
 30
0.0
 40
15.0
 50
0.0
 51
180.0
  0
ARC
  5
6D14D
  8
SUNPOU
 10
8290.9999999999909
 20
14318.121500361291
 30
0.0
 40
15.0
 50
180.0
 51
0.0
  0
ARC
  5
6D14E
  8
SUNPOU
 10
8290.9999999999909
 20
14718.121500361291
 30
0.0
 40
15.0
 50
0.0
 51
180.0
  0
ARC
  5
6D14F
  8
SUNPOU
 10
8290.9999999999909
 20
14718.121500361291
 30
0.0
 40
15.0
 50
180.0
 51
0.0
  0
ARC
  5
6D150
  8
SUNPOU
 10
8415.9999999999909
 20
14718.121500361291
 30
0.0
 40
15.0
 50
180.0
 51
0.0
  0
ARC
  5
6D151
  8
SUNPOU
 10
8415.9999999999909
 20
14718.121500361291
 30
0.0
 40
15.0
 50
0.0
 51
180.0
  0
ARC
  5
6D152
  8
SUNPOU
 10
8415.9999999999909
 20
14718.121500361291
 30
0.0
 40
15.0
 50
0.0
 51
180.0
  0
ARC
  5
6D153
  8
SUNPOU
 10
8415.9999999999909
 20
14718.121500361291
 30
0.0
 40
15.0
 50
180.0
 51
0.0
  0
ARC
  5
6D154
  8
SUNPOU
 10
25376.0
 20
21298.121500361289
 30
0.0
 40
15.0
 50
180.0
 51
0.0
  0
ARC
  5
6D155
  8
SUNPOU
 10
25376.0
 20
21298.121500361289
 30
0.0
 40
15.0
 50
0.0
 51
180.0
  0
ARC
  5
6D156
  8
SUNPOU
 10
25341.0
 20
20898.121500361289
 30
0.0
 40
15.0
 50
180.0
 51
0.0
  0
ARC
  5
6D157
  8
SUNPOU
 10
25341.0
 20
20898.121500361289
 30
0.0
 40
15.0
 50
0.0
 51
180.0
  0
ARC
  5
6D158
  8
SUNPOU
 10
8255.9999999999982
 20
21298.121500361289
 30
0.0
 40
15.0
 50
0.0
 51
180.0
  0
ARC
  5
6D159
  8
SUNPOU
 10
8255.9999999999982
 20
21298.121500361289
 30
0.0
 40
15.0
 50
180.0
 51
0.0
  0
ARC
  5
6D15A
  8
SUNPOU
 10
8235.9999999999982
 20
20898.121500361289
 30
0.0
 40
15.0
 50
180.0
 51
0.0
  0
ARC
  5
6D15B
  8
SUNPOU
 10
8235.9999999999982
 20
20898.121500361289
 30
0.0
 40
15.0
 50
0.0
 51
180.0
  0
ARC
  5
6D15C
  8
SUNPOU
 10
8290.9999999999982
 20
20898.121500361289
 30
0.0
 40
15.0
 50
0.0
 51
180.0
  0
ARC
  5
6D15D
  8
SUNPOU
 10
8290.9999999999982
 20
20898.121500361289
 30
0.0
 40
15.0
 50
180.0
 51
0.0
  0
TEXT
  5
6D15E
  8
SUNPOU
 10
20961.387106663489
 20
8513.3166049890388
 30
0.0
 40
160.0
  1
3075
 50
90.0
 41
0.6666666666666666
  7
00
  0
LINE
  5
6D160
  8
SUNPOU
 10
21041.3871066635
 20
9322.4291594233255
 30
0.0
 11
21041.3871066635
 21
9292.4291594233255
 31
0.0
  0
LINE
  5
6D162
  8
SUNPOU
 10
21041.387106663489
 20
6307.4291594232982
 30
0.0
 11
21041.387106663489
 21
6337.4291594232982
 31
0.0
  0
TEXT
  5
6D163
  8
SUNPOU
 10
18534.503844154951
 20
7817.732030028089
 30
0.0
 40
160.0
  1
3487
 50
90.0
 41
0.6666666666666666
  7
00
  0
LINE
  5
6D165
  8
SUNPOU
 10
18614.50384415494
 20
6307.4291594232973
 30
0.0
 11
18614.50384415494
 21
6337.4291594232973
 31
0.0
  0
LINE
  5
6D167
  8
SUNPOU
 10
18614.503844154951
 20
9734.3841069820846
 30
0.0
 11
18614.503844154951
 21
9704.3841069820828
 31
0.0
  0
TEXT
  5
6D168
  8
SUNPOU
 10
19589.294027028991
 20
10954.828161425559
 30
0.0
 40
160.0
  1
5810
 50
358.70807231024628
 41
0.6666666666666666
  7
00
  0
LINE
  5
6D16A
  8
SUNPOU
 10
22664.89399921822
 20
10805.44623089744
 30
0.0
 11
22634.901625344752
 21
10806.122625334019
 31
0.0
  0
LINE
  5
6D16C
  8
SUNPOU
 10
16916.33252851179
 20
10935.08901987902
 30
0.0
 11
16946.324902385259
 21
10934.412625442439
 31
0.0
  0
TEXT
  5
6D16D
  8
SUNPOU
 10
23132.442872043412
 20
7752.3969280178299
 30
0.0
 40
160.0
  1
3356
 50
90.0
 41
0.6666666666666666
  7
00
  0
LINE
  5
6D16F
  8
SUNPOU
 10
23212.442872043412
 20
6307.4291594232964
 30
0.0
 11
23212.442872043412
 21
6337.4291594232964
 31
0.0
  0
LINE
  5
6D171
  8
SUNPOU
 10
23212.442872043412
 20
9603.7139029615646
 30
0.0
 11
23212.442872043412
 21
9573.7139029615628
 31
0.0
  0
TEXT
  5
6D172
  8
SUNPOU
 10
19405.325396825341
 20
4757.4291594232982
 30
0.0
 40
160.0
  1
5500
 41
0.6666666666666666
  7
00
  0
LINE
  5
6D174
  8
SUNPOU
 10
16888.499999999949
 20
4677.4291594232982
 30
0.0
 11
16918.499999999949
 21
4677.4291594232982
 31
0.0
  0
LINE
  5
6D176
  8
SUNPOU
 10
22328.499999999942
 20
4677.4291594232982
 30
0.0
 11
22298.499999999942
 21
4677.4291594232982
 31
0.0
  0
TEXT
  5
6D177
  8
SUNPOU
 10
13821.32539682535
 20
4757.4291594232982
 30
0.0
 40
160.0
  1
5668
 41
0.6666666666666666
  7
00
  0
LINE
  5
6D179
  8
SUNPOU
 10
16828.499999999949
 20
4677.4291594232982
 30
0.0
 11
16798.499999999949
 21
4677.4291594232982
 31
0.0
  0
LINE
  5
6D17B
  8
SUNPOU
 10
11220.499999999951
 20
4677.4291594232982
 30
0.0
 11
11250.499999999951
 21
4677.4291594232982
 31
0.0
  0
ARC
  5
6D17C
  8
SUNPOU
 10
10819.898926136209
 20
10733.383529369939
 30
0.0
 40
15.00000000000079
 50
4.706111143730177
 51
184.7061111437302
  0
ARC
  5
6D17D
  8
SUNPOU
 10
10819.898926136209
 20
10733.383529369939
 30
0.0
 40
15.00000000000079
 50
184.7061111437302
 51
4.706111143730177
  0
ARC
  5
6D17E
  8
SUNPOU
 10
17136.531256737719
 20
11253.383529369939
 30
0.0
 40
14.99999999999897
 50
184.70611114373071
 51
4.7061111437307472
  0
ARC
  5
6D17F
  8
SUNPOU
 10
17136.531256737719
 20
11253.383529369939
 30
0.0
 40
14.99999999999897
 50
4.7061111437307472
 51
184.70611114373071
  0
ARC
  5
6D180
  8
SUNPOU
 10
18049.753093279211
 20
10057.4291594233
 30
0.0
 40
15.0
 50
270.0
 51
90.0
  0
ARC
  5
6D181
  8
SUNPOU
 10
18049.753093279211
 20
10057.4291594233
 30
0.0
 40
15.0
 50
90.0
 51
270.0
  0
ARC
  5
6D182
  8
SUNPOU
 10
18049.753093279211
 20
6277.4291594232991
 30
0.0
 40
15.0
 50
90.0
 51
270.0
  0
ARC
  5
6D183
  8
SUNPOU
 10
18049.753093279211
 20
6277.4291594232991
 30
0.0
 40
15.0
 50
270.0
 51
90.0
  0
ARC
  5
6D184
  8
SUNPOU
 10
10118.352697041881
 20
9537.4291594232982
 30
0.0
 40
15.0
 50
270.0
 51
90.0
  0
ARC
  5
6D185
  8
SUNPOU
 10
10118.352697041881
 20
9537.4291594232982
 30
0.0
 40
15.0
 50
90.0
 51
270.0
  0
ARC
  5
6D186
  8
SUNPOU
 10
10118.352697041881
 20
6277.4291594232991
 30
0.0
 40
15.0
 50
90.0
 51
270.0
  0
ARC
  5
6D187
  8
SUNPOU
 10
10118.352697041881
 20
6277.4291594232991
 30
0.0
 40
15.0
 50
270.0
 51
90.0
  0
TEXT
  5
6D188
  8
SUNPOU
 10
27655.39969306453
 20
18064.046136873869
 30
0.0
 40
160.0
  1
3356
 50
90.0
 41
0.6666666666666666
  7
00
  0
LINE
  5
6D18A
  8
SUNPOU
 10
27735.39969306453
 20
16348.121500361291
 30
0.0
 11
27735.39969306453
 21
16378.121500361291
 31
0.0
  0
LINE
  5
6D18C
  8
SUNPOU
 10
27735.39969306453
 20
19644.406243899561
 30
0.0
 11
27735.39969306453
 21
19614.406243899561
 31
0.0
  0
TEXT
  5
6D18D
  8
SUNPOU
 10
26515.581377115232
 20
18356.0397598944
 30
0.0
 40
160.0
  1
3075
 50
90.0
 41
0.6666666666666666
  7
00
  0
LINE
  5
6D18F
  8
SUNPOU
 10
26595.581377115232
 20
19363.121500361322
 30
0.0
 11
26595.581377115232
 21
19333.121500361322
 31
0.0
  0
LINE
  5
6D191
  8
SUNPOU
 10
26595.581377115232
 20
16348.121500361291
 30
0.0
 11
26595.581377115232
 21
16378.121500361291
 31
0.0
  0
ARC
  5
6D192
  8
SUNPOU
 10
25173.499999999982
 20
15118.121500361291
 30
0.0
 40
15.0
 50
180.0
 51
0.0
  0
ARC
  5
6D193
  8
SUNPOU
 10
25173.499999999982
 20
15118.121500361291
 30
0.0
 40
15.0
 50
0.0
 51
180.0
  0
ARC
  5
6D194
  8
SUNPOU
 10
22458.49999999992
 20
15118.121500361291
 30
0.0
 40
15.0
 50
0.0
 51
180.0
  0
ARC
  5
6D195
  8
SUNPOU
 10
22458.49999999992
 20
15118.121500361291
 30
0.0
 40
15.0
 50
180.0
 51
0.0
  0
ARC
  5
6D196
  8
SUNPOU
 10
22373.499999999982
 20
15118.12150036132
 30
0.0
 40
15.0
 50
180.0
 51
0.0
  0
ARC
  5
6D197
  8
SUNPOU
 10
22373.499999999982
 20
15118.12150036132
 30
0.0
 40
15.0
 50
0.0
 51
180.0
  0
ARC
  5
6D198
  8
SUNPOU
 10
16858.500000000018
 20
15118.12150036132
 30
0.0
 40
15.0
 50
0.0
 51
180.0
  0
ARC
  5
6D199
  8
SUNPOU
 10
16858.500000000018
 20
15118.12150036132
 30
0.0
 40
15.0
 50
180.0
 51
0.0
  0
ARC
  5
6D19A
  8
SUNPOU
 10
16773.499999999971
 20
15118.121500361291
 30
0.0
 40
15.0
 50
180.0
 51
0.0
  0
ARC
  5
6D19B
  8
SUNPOU
 10
16773.499999999971
 20
15118.121500361291
 30
0.0
 40
15.0
 50
0.0
 51
180.0
  0
ARC
  5
6D19C
  8
SUNPOU
 10
14058.499999999911
 20
15118.121500361291
 30
0.0
 40
15.0
 50
0.0
 51
180.0
  0
ARC
  5
6D19D
  8
SUNPOU
 10
14058.499999999911
 20
15118.121500361291
 30
0.0
 40
15.0
 50
180.0
 51
0.0
  0
ARC
  5
6D19E
  8
SUNPOU
 10
13973.499999999991
 20
15118.12150036132
 30
0.0
 40
15.0
 50
180.0
 51
0.0
  0
ARC
  5
6D19F
  8
SUNPOU
 10
13973.499999999991
 20
15118.12150036132
 30
0.0
 40
15.0
 50
0.0
 51
180.0
  0
ARC
  5
6D1A0
  8
SUNPOU
 10
8458.5000000000182
 20
15118.12150036132
 30
0.0
 40
15.0
 50
0.0
 51
180.0
  0
ARC
  5
6D1A1
  8
SUNPOU
 10
8458.5000000000182
 20
15118.12150036132
 30
0.0
 40
15.0
 50
180.0
 51
0.0
  0
ARC
  5
6D1A2
  8
SUNPOU
 10
21041.3871066635
 20
9352.4291594233255
 30
0.0
 40
15.0
 50
270.0
 51
90.0
  0
ARC
  5
6D1A3
  8
SUNPOU
 10
21041.3871066635
 20
9352.4291594233255
 30
0.0
 40
15.0
 50
90.0
 51
270.0
  0
ARC
  5
6D1A4
  8
SUNPOU
 10
21041.387106663489
 20
6277.4291594232991
 30
0.0
 40
15.0
 50
90.0
 51
270.0
  0
ARC
  5
6D1A5
  8
SUNPOU
 10
21041.387106663489
 20
6277.4291594232991
 30
0.0
 40
15.0
 50
270.0
 51
90.0
  0
ARC
  5
6D1A6
  8
SUNPOU
 10
18614.50384415494
 20
6277.4291594232982
 30
0.0
 40
15.0
 50
90.0
 51
270.0
  0
ARC
  5
6D1A7
  8
SUNPOU
 10
18614.50384415494
 20
6277.4291594232982
 30
0.0
 40
15.0
 50
270.0
 51
90.0
  0
ARC
  5
6D1A8
  8
SUNPOU
 10
18614.503844154951
 20
9764.3841069820846
 30
0.0
 40
15.0
 50
270.0
 51
90.0
  0
ARC
  5
6D1A9
  8
SUNPOU
 10
18614.503844154951
 20
9764.3841069820846
 30
0.0
 40
15.0
 50
90.0
 51
270.0
  0
ARC
  5
6D1AA
  8
SUNPOU
 10
22694.886373091689
 20
10804.76983646086
 30
0.0
 40
14.99999999999989
 50
178.70807231024779
 51
358.70807231024781
  0
ARC
  5
6D1AB
  8
SUNPOU
 10
22694.886373091689
 20
10804.76983646086
 30
0.0
 40
14.99999999999989
 50
358.70807231024781
 51
178.70807231024779
  0
ARC
  5
6D1AC
  8
SUNPOU
 10
16886.34015463831
 20
10935.765414315611
 30
0.0
 40
14.99999999999989
 50
358.70807231024781
 51
178.70807231024779
  0
ARC
  5
6D1AD
  8
SUNPOU
 10
16886.34015463831
 20
10935.765414315611
 30
0.0
 40
14.99999999999989
 50
178.70807231024779
 51
358.70807231024781
  0
ARC
  5
6D1AE
  8
SUNPOU
 10
23212.442872043412
 20
6277.4291594232964
 30
0.0
 40
15.0
 50
90.0
 51
270.0
  0
ARC
  5
6D1AF
  8
SUNPOU
 10
23212.442872043412
 20
6277.4291594232964
 30
0.0
 40
15.0
 50
270.0
 51
90.0
  0
ARC
  5
6D1B0
  8
SUNPOU
 10
23212.442872043412
 20
9633.7139029615628
 30
0.0
 40
15.0
 50
270.0
 51
90.0
  0
ARC
  5
6D1B1
  8
SUNPOU
 10
23212.442872043412
 20
9633.7139029615628
 30
0.0
 40
15.0
 50
90.0
 51
270.0
  0
ARC
  5
6D1B2
  8
SUNPOU
 10
16858.499999999949
 20
4677.4291594232982
 30
0.0
 40
15.0
 50
0.0
 51
180.0
  0
ARC
  5
6D1B3
  8
SUNPOU
 10
16858.499999999949
 20
4677.4291594232982
 30
0.0
 40
15.0
 50
180.0
 51
0.0
  0
ARC
  5
6D1B4
  8
SUNPOU
 10
22358.499999999942
 20
4677.4291594232982
 30
0.0
 40
15.0
 50
180.0
 51
0.0
  0
ARC
  5
6D1B5
  8
SUNPOU
 10
22358.499999999942
 20
4677.4291594232982
 30
0.0
 40
15.0
 50
0.0
 51
180.0
  0
ARC
  5
6D1B6
  8
SUNPOU
 10
16858.499999999949
 20
4677.4291594232982
 30
0.0
 40
15.0
 50
180.0
 51
0.0
  0
ARC
  5
6D1B7
  8
SUNPOU
 10
16858.499999999949
 20
4677.4291594232982
 30
0.0
 40
15.0
 50
0.0
 51
180.0
  0
ARC
  5
6D1B8
  8
SUNPOU
 10
11190.499999999951
 20
4677.4291594232982
 30
0.0
 40
15.0
 50
0.0
 51
180.0
  0
ARC
  5
6D1B9
  8
SUNPOU
 10
11190.499999999951
 20
4677.4291594232982
 30
0.0
 40
15.0
 50
180.0
 51
0.0
  0
ARC
  5
6D1BA
  8
SUNPOU
 10
27735.39969306453
 20
16318.121500361291
 30
0.0
 40
15.0
 50
90.0
 51
270.0
  0
ARC
  5
6D1BB
  8
SUNPOU
 10
27735.39969306453
 20
16318.121500361291
 30
0.0
 40
15.0
 50
270.0
 51
90.0
  0
ARC
  5
6D1BC
  8
SUNPOU
 10
27735.39969306453
 20
19674.406243899561
 30
0.0
 40
15.0
 50
270.0
 51
90.0
  0
ARC
  5
6D1BD
  8
SUNPOU
 10
27735.39969306453
 20
19674.406243899561
 30
0.0
 40
15.0
 50
90.0
 51
270.0
  0
ARC
  5
6D1BE
  8
SUNPOU
 10
26595.581377115232
 20
19393.121500361322
 30
0.0
 40
15.0
 50
270.0
 51
90.0
  0
ARC
  5
6D1BF
  8
SUNPOU
 10
26595.581377115232
 20
19393.121500361322
 30
0.0
 40
15.0
 50
90.0
 51
270.0
  0
ARC
  5
6D1C0
  8
SUNPOU
 10
26595.581377115232
 20
16318.121500361291
 30
0.0
 40
15.0
 50
90.0
 51
270.0
  0
ARC
  5
6D1C1
  8
SUNPOU
 10
26595.581377115232
 20
16318.121500361291
 30
0.0
 40
15.0
 50
270.0
 51
90.0
  0
LINE
  5
6D1C4
  8
HIKIDASHI
 10
14553.66060583354
 20
9942.0900828720605
 30
0.0
 11
14685.46604410426
 21
9847.5467724086684
 31
0.0
  0
LINE
  5
6D1C5
  8
HIKIDASHI
 10
14685.46604410426
 20
9847.5467724086684
 30
0.0
 11
14591.44791940387
 21
9979.7273433672435
 31
0.0
  0
SOLID
  5
6D1C6
  8
HIKIDASHI
 10
14553.66060583354
 20
9942.0900828720605
 30
0.0
 11
14591.44791940387
 21
9979.7273433672435
 31
0.0
 12
14685.46604410426
 22
9847.5467724086684
 32
0.0
 13
14685.46604410426
 23
9847.5467724086684
 33
0.0
  0
LINE
  5
6D1C7
  8
HIKIDASHI
 10
14591.44791940387
 20
9979.7273433672435
 30
0.0
 11
14553.66060583354
 21
9942.0900828720605
 31
0.0
  0
LINE
  5
6D1C8
  8
HIKIDASHI
 10
15124.82867562801
 20
6406.7051305222758
 30
0.0
 11
15176.0
 21
6560.6291594233098
 31
0.0
  0
LINE
  5
6D1C9
  8
HIKIDASHI
 10
15176.0
 20
6560.6291594233098
 30
0.0
 11
15077.67338649102
 21
6431.6214535024401
 31
0.0
  0
SOLID
  5
6D1CA
  8
HIKIDASHI
 10
15124.82867562801
 20
6406.7051305222758
 30
0.0
 11
15077.67338649102
 21
6431.6214535024401
 31
0.0
 12
15176.0
 22
6560.6291594233098
 32
0.0
 13
15176.0
 23
6560.6291594233098
 33
0.0
  0
LINE
  5
6D1CB
  8
HIKIDASHI
 10
15077.67338649102
 20
6431.6214535024401
 30
0.0
 11
15124.82867562801
 21
6406.7051305222758
 31
0.0
  0
LINE
  5
6D1CE
  8
HIKIDASHI
 10
19229.092442825659
 20
9842.9533662489011
 30
0.0
 11
19592.10357787594
 21
10339.47792971974
 31
0.0
1001
ACAD
1000
DSTYLE
1002
{
1070
   147
1040
1.0
1070
    77
1070
     0
1002
}
  0
LINE
  5
6D1CF
  8
HIKIDASHI
 10
19207.565447276491
 20
9858.6918405630477
 30
0.0
 11
19134.661596940801
 21
9713.7913929538608
 31
0.0
  0
LINE
  5
6D1D0
  8
HIKIDASHI
 10
19134.661596940801
 20
9713.7913929538608
 30
0.0
 11
19250.619438374841
 21
9827.2148919347583
 31
0.0
  0
SOLID
  5
6D1D1
  8
HIKIDASHI
 10
19207.565447276491
 20
9858.6918405630477
 30
0.0
 11
19250.619438374841
 21
9827.2148919347583
 31
0.0
 12
19134.661596940801
 22
9713.7913929538608
 32
0.0
 13
19134.661596940801
 23
9713.7913929538608
 33
0.0
  0
LINE
  5
6D1D2
  8
HIKIDASHI
 10
19250.619438374841
 20
9827.2148919347583
 30
0.0
 11
19207.565447276491
 21
9858.6918405630477
 31
0.0
  0
LINE
  5
6D1D3
  8
HIKIDASHI
 10
9078.9739988974216
 20
16522.856872032338
 30
0.0
 11
7783.6097956923077
 21
15510.86973626476
 31
0.0
1001
ACAD
1000
DSTYLE
1002
{
1070
   147
1040
1.0
1070
    77
1070
     0
1002
}
  0
LINE
  5
6D1D4
  8
HIKIDASHI
 10
9095.3910106760304
 20
16501.842761644981
 30
0.0
 11
9205.0586612215739
 21
16621.358942703999
 31
0.0
  0
LINE
  5
6D1D5
  8
HIKIDASHI
 10
9205.0586612215739
 20
16621.358942703999
 30
0.0
 11
9062.5569871188072
 21
16543.870982419699
 31
0.0
  0
SOLID
  5
6D1D6
  8
HIKIDASHI
 10
9095.3910106760304
 20
16501.842761644981
 30
0.0
 11
9062.5569871188072
 21
16543.870982419699
 31
0.0
 12
9205.0586612215739
 22
16621.358942703999
 32
0.0
 13
9205.0586612215739
 23
16621.358942703999
 33
0.0
  0
LINE
  5
6D1D7
  8
HIKIDASHI
 10
9062.5569871188072
 20
16543.870982419699
 30
0.0
 11
9095.3910106760304
 21
16501.842761644981
 31
0.0
  0
LINE
  5
6D1D8
  8
U1
 10
15116.00000000002
 20
17218.921500361281
 30
0.0
 11
15216.00000000002
 21
17218.921500361281
 31
0.0
  0
LINE
  5
6D1D9
  8
U1
 10
15216.00000000002
 20
17218.921500361281
 30
0.0
 11
15216.00000000002
 21
17188.921500361281
 31
0.0
  0
LINE
  5
6D1DA
  8
U1
 10
15216.00000000002
 20
17188.921500361281
 30
0.0
 11
15116.00000000002
 21
17188.921500361281
 31
0.0
  0
LINE
  5
6D1DB
  8
U1
 10
15116.00000000002
 20
17188.921500361281
 30
0.0
 11
15116.00000000002
 21
17218.921500361281
 31
0.0
  0
LINE
  5
6D1DC
  8
U1
 10
15616.00000000002
 20
17218.921500361281
 30
0.0
 11
15716.00000000002
 21
17218.921500361281
 31
0.0
  0
LINE
  5
6D1DD
  8
U1
 10
15716.00000000002
 20
17218.921500361281
 30
0.0
 11
15716.00000000002
 21
17188.921500361281
 31
0.0
  0
LINE
  5
6D1DE
  8
U1
 10
15716.00000000002
 20
17188.921500361281
 30
0.0
 11
15616.00000000002
 21
17188.921500361281
 31
0.0
  0
LINE
  5
6D1DF
  8
U1
 10
15616.00000000002
 20
17188.921500361281
 30
0.0
 11
15616.00000000002
 21
17218.921500361281
 31
0.0
  0
LINE
  5
6D1E0
  8
U1
 10
12316.000000000009
 20
17218.921500361281
 30
0.0
 11
12416.000000000009
 21
17218.921500361281
 31
0.0
  0
LINE
  5
6D1E1
  8
U1
 10
12416.000000000009
 20
17218.921500361281
 30
0.0
 11
12416.000000000009
 21
17188.921500361281
 31
0.0
  0
LINE
  5
6D1E2
  8
U1
 10
12416.000000000009
 20
17188.921500361281
 30
0.0
 11
12316.000000000009
 21
17188.921500361281
 31
0.0
  0
LINE
  5
6D1E3
  8
U1
 10
12316.000000000009
 20
17188.921500361281
 30
0.0
 11
12316.000000000009
 21
17218.921500361281
 31
0.0
  0
LINE
  5
6D1E4
  8
U1
 10
12816.000000000009
 20
17218.921500361281
 30
0.0
 11
12916.000000000009
 21
17218.921500361281
 31
0.0
  0
LINE
  5
6D1E5
  8
U1
 10
12916.000000000009
 20
17218.921500361281
 30
0.0
 11
12916.000000000009
 21
17188.921500361281
 31
0.0
  0
LINE
  5
6D1E6
  8
U1
 10
12916.000000000009
 20
17188.921500361281
 30
0.0
 11
12816.000000000009
 21
17188.921500361281
 31
0.0
  0
LINE
  5
6D1E7
  8
U1
 10
12816.000000000009
 20
17188.921500361281
 30
0.0
 11
12816.000000000009
 21
17218.921500361281
 31
0.0
  0
LINE
  5
6D1E8
  8
U1
 10
9515.9999999999909
 20
17218.921500361281
 30
0.0
 11
9615.9999999999927
 21
17218.921500361281
 31
0.0
  0
LINE
  5
6D1E9
  8
U1
 10
9615.9999999999927
 20
17218.921500361281
 30
0.0
 11
9615.9999999999927
 21
17188.921500361281
 31
0.0
  0
LINE
  5
6D1EA
  8
U1
 10
9615.9999999999927
 20
17188.921500361281
 30
0.0
 11
9515.9999999999909
 21
17188.921500361281
 31
0.0
  0
LINE
  5
6D1EB
  8
U1
 10
9515.9999999999909
 20
17188.921500361281
 30
0.0
 11
9515.9999999999909
 21
17218.921500361281
 31
0.0
  0
LINE
  5
6D1EC
  8
U1
 10
10015.999999999991
 20
17218.921500361281
 30
0.0
 11
10115.999999999991
 21
17218.921500361281
 31
0.0
  0
LINE
  5
6D1ED
  8
U1
 10
10115.999999999991
 20
17218.921500361281
 30
0.0
 11
10115.999999999991
 21
17188.921500361281
 31
0.0
  0
LINE
  5
6D1EE
  8
U1
 10
10115.999999999991
 20
17188.921500361281
 30
0.0
 11
10015.999999999991
 21
17188.921500361281
 31
0.0
  0
LINE
  5
6D1EF
  8
U1
 10
10015.999999999991
 20
17188.921500361281
 30
0.0
 11
10015.999999999991
 21
17218.921500361281
 31
0.0
  0
LINE
  5
6D1F0
  8
U1
 10
18415.999999999982
 20
17218.921500361281
 30
0.0
 11
18515.999999999982
 21
17218.921500361281
 31
0.0
  0
LINE
  5
6D1F1
  8
U1
 10
18515.999999999982
 20
17218.921500361281
 30
0.0
 11
18515.999999999982
 21
17188.921500361281
 31
0.0
  0
LINE
  5
6D1F2
  8
U1
 10
18515.999999999982
 20
17188.921500361281
 30
0.0
 11
18415.999999999982
 21
17188.921500361281
 31
0.0
  0
LINE
  5
6D1F3
  8
U1
 10
18415.999999999982
 20
17188.921500361281
 30
0.0
 11
18415.999999999982
 21
17218.921500361281
 31
0.0
  0
LINE
  5
6D1F4
  8
U1
 10
17915.999999999982
 20
17218.921500361281
 30
0.0
 11
18015.999999999982
 21
17218.921500361281
 31
0.0
  0
LINE
  5
6D1F5
  8
U1
 10
18015.999999999982
 20
17218.921500361281
 30
0.0
 11
18015.999999999982
 21
17188.921500361281
 31
0.0
  0
LINE
  5
6D1F6
  8
U1
 10
18015.999999999982
 20
17188.921500361281
 30
0.0
 11
17915.999999999982
 21
17188.921500361281
 31
0.0
  0
LINE
  5
6D1F7
  8
U1
 10
17915.999999999982
 20
17188.921500361281
 30
0.0
 11
17915.999999999982
 21
17218.921500361281
 31
0.0
  0
LINE
  5
6D1F8
  8
U1
 10
21216.000000000011
 20
17218.921500361281
 30
0.0
 11
21316.000000000011
 21
17218.921500361281
 31
0.0
  0
LINE
  5
6D1F9
  8
U1
 10
21316.000000000011
 20
17218.921500361281
 30
0.0
 11
21316.000000000011
 21
17188.921500361281
 31
0.0
  0
LINE
  5
6D1FA
  8
U1
 10
21316.000000000011
 20
17188.921500361281
 30
0.0
 11
21216.000000000011
 21
17188.921500361281
 31
0.0
  0
LINE
  5
6D1FB
  8
U1
 10
21216.000000000011
 20
17188.921500361281
 30
0.0
 11
21216.000000000011
 21
17218.921500361281
 31
0.0
  0
LINE
  5
6D1FC
  8
U1
 10
20716.000000000011
 20
17218.921500361281
 30
0.0
 11
20816.000000000011
 21
17218.921500361281
 31
0.0
  0
LINE
  5
6D1FD
  8
U1
 10
20816.000000000011
 20
17218.921500361281
 30
0.0
 11
20816.000000000011
 21
17188.921500361281
 31
0.0
  0
LINE
  5
6D1FE
  8
U1
 10
20816.000000000011
 20
17188.921500361281
 30
0.0
 11
20716.000000000011
 21
17188.921500361281
 31
0.0
  0
LINE
  5
6D1FF
  8
U1
 10
20716.000000000011
 20
17188.921500361281
 30
0.0
 11
20716.000000000011
 21
17218.921500361281
 31
0.0
  0
LINE
  5
6D200
  8
U1
 10
24016.000000000011
 20
17218.921500361281
 30
0.0
 11
24116.000000000018
 21
17218.921500361281
 31
0.0
  0
LINE
  5
6D201
  8
U1
 10
24116.000000000018
 20
17218.921500361281
 30
0.0
 11
24116.000000000018
 21
17188.921500361281
 31
0.0
  0
LINE
  5
6D202
  8
U1
 10
24116.000000000018
 20
17188.921500361281
 30
0.0
 11
24016.000000000011
 21
17188.921500361281
 31
0.0
  0
LINE
  5
6D203
  8
U1
 10
24016.000000000011
 20
17188.921500361281
 30
0.0
 11
24016.000000000011
 21
17218.921500361281
 31
0.0
  0
LINE
  5
6D204
  8
U1
 10
23516.000000000018
 20
17218.921500361281
 30
0.0
 11
23616.000000000011
 21
17218.921500361281
 31
0.0
  0
LINE
  5
6D205
  8
U1
 10
23616.000000000011
 20
17218.921500361281
 30
0.0
 11
23616.000000000011
 21
17188.921500361281
 31
0.0
  0
LINE
  5
6D206
  8
U1
 10
23616.000000000011
 20
17188.921500361281
 30
0.0
 11
23516.000000000018
 21
17188.921500361281
 31
0.0
  0
LINE
  5
6D207
  8
U1
 10
23516.000000000018
 20
17188.921500361281
 30
0.0
 11
23516.000000000018
 21
17218.921500361281
 31
0.0
  0
LINE
  5
6D208
  8
U5
 10
19090.999999999942
 20
5477.4291594232982
 30
0.0
 11
20040.999999999942
 21
5477.4291594232982
 31
0.0
  0
LINE
  5
6D209
  8
U5
 10
20040.999999999942
 20
5477.4291594232982
 30
0.0
 11
20040.999999999942
 21
5977.4291594232982
 31
0.0
  0
LINE
  5
6D20A
  8
U5
 10
20040.999999999942
 20
5977.4291594232982
 30
0.0
 11
19090.999999999942
 21
5977.4291594232982
 31
0.0
  0
LINE
  5
6D20B
  8
U5
 10
19090.999999999942
 20
5977.4291594232982
 30
0.0
 11
19090.999999999942
 21
5477.4291594232982
 31
0.0
  0
LINE
  5
6D20C
  8
U5
 10
21840.999999999942
 20
5477.4291594232982
 30
0.0
 11
22790.999999999942
 21
5477.4291594232982
 31
0.0
  0
LINE
  5
6D20D
  8
U5
 10
22790.999999999942
 20
5477.4291594232982
 30
0.0
 11
22790.999999999942
 21
5977.4291594232982
 31
0.0
  0
LINE
  5
6D20E
  8
U5
 10
22790.999999999942
 20
5977.4291594232982
 30
0.0
 11
21840.999999999942
 21
5977.4291594232982
 31
0.0
  0
LINE
  5
6D20F
  8
U5
 10
21840.999999999942
 20
5977.4291594232982
 30
0.0
 11
21840.999999999942
 21
5477.4291594232982
 31
0.0
  0
LINE
  5
6D210
  8
KERABA
 10
10928.473806113419
 20
9413.7569958992444
 30
0.0
 11
10922.93825572875
 21
9481.5313102221608
 31
0.0
  0
LINE
  5
6D211
  8
KERABA
 10
10922.93825572875
 20
9481.5313102221608
 30
0.0
 11
10926.59658716561
 21
9485.8460073260558
 31
0.0
  0
LINE
  5
6D212
  8
KERABA
 10
10926.59658716561
 20
9485.8460073260558
 30
0.0
 11
10925.77613008174
 21
9495.8122930019381
 31
0.0
  0
LINE
  5
6D213
  8
KERABA
 10
10925.77613008174
 20
9495.8122930019381
 30
0.0
 11
10923.61878152984
 21
9497.6414587203672
 31
0.0
  0
LINE
  5
6D214
  8
KERABA
 10
10923.61878152984
 20
9497.6414587203672
 30
0.0
 11
10922.79832444597
 21
9507.6077443962477
 31
0.0
  0
LINE
  5
6D215
  8
KERABA
 10
10922.79832444597
 20
9507.6077443962477
 30
0.0
 11
10920.640975894001
 21
9509.4369101146494
 31
0.0
  0
LINE
  5
6D216
  8
KERABA
 10
10920.640975894001
 20
9509.4369101146494
 30
0.0
 11
10919.213380568141
 21
9526.7782471907176
 31
0.0
  0
ARC
  5
6D217
  8
KERABA
 10
10929.777643384599
 20
9527.6479316995992
 30
0.0
 40
10.600000000005849
 50
94.706162844004695
 51
184.7061628439549
  0
LINE
  5
6D218
  8
KERABA
 10
10928.90795887571
 20
9538.2121945160525
 30
0.0
 11
10953.225695924901
 21
9540.2141098006014
 31
0.0
  0
LINE
  5
6D219
  8
KERABA
 10
10953.225695924901
 20
9540.2141098006014
 30
0.0
 11
10967.993923434
 21
9360.8209676344613
 31
0.0
  0
LINE
  5
6D21A
  8
KERABA
 10
10967.993923434
 20
9360.8209676344613
 30
0.0
 11
10943.67618638487
 21
9358.8190523499125
 31
0.0
  0
ARC
  5
6D21B
  8
KERABA
 10
10942.806501875981
 20
9369.3833151663566
 30
0.0
 40
10.599999999995569
 50
184.7061628439491
 51
274.70616284399892
  0
LINE
  5
6D21C
  8
KERABA
 10
10932.24223905954
 20
9368.5136306574786
 30
0.0
 11
10930.81464373362
 21
9385.8549677335432
 31
0.0
  0
LINE
  5
6D21D
  8
KERABA
 10
10930.81464373362
 20
9385.8549677335432
 30
0.0
 11
10934.47297517048
 21
9390.16966483744
 31
0.0
  0
LINE
  5
6D21E
  8
KERABA
 10
10934.47297517048
 20
9390.16966483744
 30
0.0
 11
10933.65251808661
 21
9400.1359505133205
 31
0.0
  0
LINE
  5
6D21F
  8
KERABA
 10
10933.65251808661
 20
9400.1359505133205
 30
0.0
 11
10931.495169534701
 21
9401.9651162317514
 31
0.0
  0
LINE
  5
6D220
  8
KERABA
 10
10931.495169534701
 20
9401.9651162317514
 30
0.0
 11
10930.674712450829
 21
9411.9314019076337
 31
0.0
  0
LINE
  5
6D221
  8
KERABA
 10
10930.674712450829
 20
9411.9314019076337
 30
0.0
 11
10928.517363898871
 21
9413.7605676260628
 31
0.0
  0
LINE
  5
6D222
  8
KERABA
 10
17245.149225280391
 20
9933.7662673631767
 30
0.0
 11
17243.320059561989
 21
9931.6089188112437
 31
0.0
  0
LINE
  5
6D223
  8
KERABA
 10
17243.320059561989
 20
9931.6089188112437
 30
0.0
 11
17244.140516645799
 21
9921.6426331353341
 31
0.0
  0
LINE
  5
6D224
  8
KERABA
 10
17244.140516645799
 20
9921.6426331353341
 30
0.0
 11
17242.311350927401
 21
9919.4852845833739
 31
0.0
  0
LINE
  5
6D225
  8
KERABA
 10
17242.311350927401
 20
9919.4852845833739
 30
0.0
 11
17243.131808011269
 21
9909.5189989074934
 31
0.0
  0
LINE
  5
6D226
  8
KERABA
 10
17243.131808011269
 20
9909.5189989074934
 30
0.0
 11
17247.446505115138
 21
9905.8606674706607
 31
0.0
  0
LINE
  5
6D227
  8
KERABA
 10
17247.446505115138
 20
9905.8606674706607
 30
0.0
 11
17248.874100441059
 21
9888.5193303945925
 31
0.0
  0
ARC
  5
6D228
  8
KERABA
 10
17238.309837624591
 20
9887.6496458857528
 30
0.0
 40
10.60000000001496
 50
274.7061628437533
 51
4.7061628437140808
  0
LINE
  5
6D229
  8
KERABA
 10
17239.17952213344
 20
9877.0853830692849
 30
0.0
 11
17214.861785084249
 21
9875.083467784707
 31
0.0
  0
LINE
  5
6D22A
  8
KERABA
 10
17214.861785084249
 20
9875.083467784707
 30
0.0
 11
17200.093557575139
 21
10054.47660995084
 31
0.0
  0
LINE
  5
6D22B
  8
KERABA
 10
17200.093557575139
 20
10054.47660995084
 30
0.0
 11
17224.411294624329
 21
10056.47852523542
 31
0.0
  0
ARC
  5
6D22C
  8
KERABA
 10
17225.280979133211
 20
10045.914262418961
 30
0.0
 40
10.60000000000888
 50
4.7061628438642931
 51
94.706162843914086
  0
LINE
  5
6D22D
  8
KERABA
 10
17235.845241949672
 20
10046.78394692783
 30
0.0
 11
17237.27283727553
 21
10029.442609851791
 31
0.0
  0
LINE
  5
6D22E
  8
KERABA
 10
17237.27283727553
 20
10029.442609851791
 30
0.0
 11
17235.443671557128
 21
10027.28526129983
 31
0.0
  0
LINE
  5
6D22F
  8
KERABA
 10
17235.443671557128
 20
10027.28526129983
 30
0.0
 11
17236.264128640942
 21
10017.31897562395
 31
0.0
  0
LINE
  5
6D230
  8
KERABA
 10
17236.264128640942
 20
10017.31897562395
 30
0.0
 11
17234.43496292254
 21
10015.16162707199
 31
0.0
  0
LINE
  5
6D231
  8
KERABA
 10
17234.43496292254
 20
10015.16162707199
 30
0.0
 11
17235.255420006411
 21
10005.1953413961
 31
0.0
  0
LINE
  5
6D232
  8
KERABA
 10
17235.255420006411
 20
10005.1953413961
 30
0.0
 11
17239.570117110281
 21
10001.537009959269
 31
0.0
  0
LINE
  5
6D233
  8
KERABA
 10
17239.570117110281
 20
10001.537009959269
 30
0.0
 11
17245.149225280391
 21
9933.7662673631767
 31
0.0
  0
ENDSEC
  0
EOF
