  0
SECTION
  2
HEADER
  9
$ACADVER
  1
AC1009
  9
$INSBASE
 10
267.00000000000011
 20
194.89999999999981
 30
0.0
  9
$EXTMIN
 10
867.99324330406671
 20
327.38164749855792
 30
-0.0000000000112498
  9
$EXTMAX
 10
32765.33210850941
 20
22484.553276491992
 30
0.0000000000002956
  9
$LIMMIN
 10
0.0
 20
0.0
  9
$LIMMAX
 10
33600.0
 20
23760.0
  9
$ORTHOMODE
 70
     0
  9
$REGENMODE
 70
     1
  9
$FILLMODE
 70
     1
  9
$QTEXTMODE
 70
     0
  9
$MIRRTEXT
 70
     0
  9
$DRAGMODE
 70
     2
  9
$LTSCALE
 40
80.0
  9
$OSMODE
 70
  3071
  9
$ATTMODE
 70
     1
  9
$TEXTSIZE
 40
0.2
  9
$TRACEWID
 40
0.05
  9
$TEXTSTYLE
  7
00
  9
$CLAYER
  8
SUNPOU
  9
$CELTYPE
  6
BYLAYER
  9
$CECOLOR
 62
   256
  9
$DIMSCALE
 40
80.0
  9
$DIMASZ
 40
0.5
  9
$DIMEXO
 40
1.0
  9
$DIMDLI
 40
7.0
  9
$DIMRND
 40
0.0
  9
$DIMDLE
 40
3.0
  9
$DIMEXE
 40
1.0
  9
$DIMTP
 40
0.0
  9
$DIMTM
 40
0.0
  9
$DIMTXT
 40
2.0
  9
$DIMCEN
 40
0.0
  9
$DIMTSZ
 40
0.0
  9
$DIMTOL
 70
     0
  9
$DIMLIM
 70
     0
  9
$DIMTIH
 70
     0
  9
$DIMTOH
 70
     0
  9
$DIMSE1
 70
     0
  9
$DIMSE2
 70
     0
  9
$DIMTAD
 70
     1
  9
$DIMZIN
 70
     8
  9
$DIMBLK
  1
DOT
  9
$DIMASO
 70
     1
  9
$DIMSHO
 70
     0
  9
$DIMPOST
  1

  9
$DIMAPOST
  1

  9
$DIMALT
 70
     0
  9
$DIMALTD
 70
     2
  9
$DIMALTF
 40
25.399999999999999
  9
$DIMLFAC
 40
1.0
  9
$DIMTOFL
 70
     1
  9
$DIMTVP
 40
0.0
  9
$DIMTIX
 70
     0
  9
$DIMSOXD
 70
     0
  9
$DIMSAH
 70
     1
  9
$DIMBLK1
  1
DOT
  9
$DIMBLK2
  1
DOT
  9
$DIMSTYLE
  2
SUNPOU_申請図
  9
$DIMCLRD
 70
   256
  9
$DIMCLRE
 70
   256
  9
$DIMCLRT
 70
   256
  9
$DIMTFAC
 40
1.0
  9
$DIMGAP
 40
1.0
  9
$LUNITS
 70
     2
  9
$LUPREC
 70
     2
  9
$SKETCHINC
 40
0.1
  9
$FILLETRAD
 40
0.0
  9
$AUNITS
 70
     0
  9
$AUPREC
 70
     0
  9
$MENU
  1
A:\TIGER\MENU\TIGER
  9
$ELEVATION
 40
0.0
  9
$PELEVATION
 40
0.0
  9
$THICKNESS
 40
0.0
  9
$LIMCHECK
 70
     0
  9
$BLIPMODE
 70
     1
  9
$CHAMFERA
 40
0.0
  9
$CHAMFERB
 40
0.0
  9
$SKPOLY
 70
     0
  9
$TDCREATE
 40
2450266.5710648149
  9
$TDUPDATE
 40
2456314.7220625351
  9
$TDINDWG
 40
0.4677816667
  9
$TDUSRTIMER
 40
0.4677816667
  9
$USRTIMER
 70
     1
  9
$ANGBASE
 50
0.0
  9
$ANGDIR
 70
     0
  9
$PDMODE
 70
     0
  9
$PDSIZE
 40
0.0
  9
$PLINEWID
 40
0.0
  9
$COORDS
 70
     0
  9
$SPLFRAME
 70
     0
  9
$SPLINETYPE
 70
     6
  9
$SPLINESEGS
 70
     8
  9
$ATTDIA
 70
     0
  9
$ATTREQ
 70
     1
  9
$HANDLING
 70
     1
  9
$HANDSEED
  5
60F63
  9
$SURFTAB1
 70
     6
  9
$SURFTAB2
 70
     6
  9
$SURFTYPE
 70
     6
  9
$SURFU
 70
     6
  9
$SURFV
 70
     6
  9
$UCSNAME
  2

  9
$UCSORG
 10
0.0
 20
0.0
 30
0.0
  9
$UCSXDIR
 10
1.0
 20
0.0
 30
0.0
  9
$UCSYDIR
 10
0.0
 20
1.0
 30
0.0
  9
$PUCSNAME
  2

  9
$PUCSORG
 10
0.0
 20
0.0
 30
0.0
  9
$PUCSXDIR
 10
1.0
 20
0.0
 30
0.0
  9
$PUCSYDIR
 10
0.0
 20
1.0
 30
0.0
  9
$USERI1
 70
     3
  9
$USERI2
 70
     0
  9
$USERI3
 70
     0
  9
$USERI4
 70
     0
  9
$USERI5
 70
  1103
  9
$USERR1
 40
0.0
  9
$USERR2
 40
1.0
  9
$USERR3
 40
0.0
  9
$USERR4
 40
0.0
  9
$USERR5
 40
0.0
  9
$WORLDVIEW
 70
     1
  9
$SHADEDGE
 70
     3
  9
$SHADEDIF
 70
    70
  9
$TILEMODE
 70
     1
  9
$MAXACTVP
 70
    16
  9
$PLIMCHECK
 70
     0
  9
$PEXTMIN
 10
1.0000000000000000E+020
 20
1.0000000000000000E+020
 30
1.0000000000000000E+020
  9
$PEXTMAX
 10
-1.0000000000000000E+020
 20
-1.0000000000000000E+020
 30
-1.0000000000000000E+020
  9
$PLIMMIN
 10
0.0
 20
0.0
  9
$PLIMMAX
 10
12.0
 20
9.0
  9
$UNITMODE
 70
     0
  9
$VISRETAIN
 70
     0
  9
$PLINEGEN
 70
     1
  9
$PSLTSCALE
 70
     0
  0
ENDSEC
  0
SECTION
  2
TABLES
  0
TABLE
  2
VPORT
 70
     1
  0
VPORT
  2
*ACTIVE
 70
     0
 10
0.0
 20
0.0
 11
1.0
 21
1.0
 12
16800.0
 22
11880.0
 13
0.0
 23
0.0
 14
1.0
 24
1.0
 15
0.0
 25
0.0
 16
0.0
 26
0.0
 36
1.0
 17
0.0
 27
0.0
 37
0.0
 40
23958.55153203342
 41
1.6471408647140859
 42
50.0
 43
0.0
 44
0.0
 50
0.0
 51
0.0
 71
     0
 72
 10000
 73
     1
 74
     0
 75
     0
 76
     0
 77
     0
 78
     0
  0
ENDTAB
  0
TABLE
  2
LTYPE
 70
     4
  0
LTYPE
  2
CONTINUOUS
 70
     0
  3
実線
 72
    65
 73
     0
 40
0.0
  0
LTYPE
  2
1PL-M
 70
     0
  3

 72
    65
 73
     4
 40
15.0
 49
12.0
 49
-1.0
 49
1.0
 49
-1.0
  0
ENDTAB
  0
TABLE
  2
LAYER
 70
    19
  0
LAYER
  2
0
 70
     0
 62
     7
  6
CONTINUOUS
  0
LAYER
  2
U1
 70
     0
 62
     3
  6
CONTINUOUS
  0
LAYER
  2
U3
 70
     0
 62
     6
  6
CONTINUOUS
  0
LAYER
  2
SUNPOU
 70
     0
 62
     4
  6
CONTINUOUS
  0
LAYER
  2
HIKIDASHI
 70
     0
 62
     6
  6
CONTINUOUS
  0
LAYER
  2
1PL-M1
 70
     0
 62
     6
  6
1PL-M
  0
LAYER
  2
NAME
 70
     0
 62
    20
  6
CONTINUOUS
  0
LAYER
  2
KERABA
 70
     0
 62
     3
  6
CONTINUOUS
  0
LAYER
  2
FILENAME
 70
     0
 62
     7
  6
CONTINUOUS
  0
LAYER
  2
YODOROGO
 70
     0
 62
   130
  6
CONTINUOUS
  0
LAYER
  2
WAKUSEN-01
 70
     0
 62
    50
  6
CONTINUOUS
  0
LAYER
  2
WAKUSEN-02
 70
     0
 62
   130
  6
CONTINUOUS
  0
LAYER
  2
WAKUMOJI-01
 70
     0
 62
   130
  6
CONTINUOUS
  0
LAYER
  2
下屋前桁
 70
     0
 62
     3
  6
CONTINUOUS
  0
LAYER
  2
U5
 70
     0
 62
     4
  6
CONTINUOUS
  0
LAYER
  2
TOI
 70
     0
 62
     3
  6
CONTINUOUS
  0
ENDTAB
  0
TABLE
  2
STYLE
 70
     5
  0
STYLE
  2
STANDARD
 70
     0
 40
3.0
 41
1.0
 50
0.0
 71
     0
 42
0.2
  3
ROMANS
  4
EXTFONT
  0
STYLE
  2
01
 70
     0
 40
3.0
 41
1.0
 50
0.0
 71
     0
 42
0.2
  3
ROMANS
  4
BIGFONT
  0
STYLE
  2
00
 70
     0
 40
0.0
 41
0.6666666666666666
 50
0.0
 71
     0
 42
0.2
  3
ROMANS
  4
BIGFONT
  0
STYLE
  2
FILENAME
 70
     0
 40
200.0
 41
1.0
 50
0.0
 71
     0
 42
200.0
  3
romans
  4
bigfont
  0
STYLE
  2
WAKUMOJI
 70
     0
 40
3.0
 41
1.0
 50
0.0
 71
     0
 42
3.0
  3
SIMPLEX
  4
BIGFONT
  0
ENDTAB
  0
TABLE
  2
VIEW
 70
     0
  0
ENDTAB
  0
TABLE
  2
UCS
 70
     0
  0
ENDTAB
  0
TABLE
  2
APPID
 70
    13
  0
APPID
  2
ACAD
 70
     0
  0
APPID
  2
AUTOCAD_POSTSCRIPT_FIGURE
 70
     0
  0
APPID
  2
CONTENTBLOCKICON
 70
     0
  0
APPID
  2
ACAD_PSEXT
 70
     0
  0
APPID
  2
ACAD_EXEMPT_FROM_CAD_STANDARDS
 70
     0
  0
APPID
  2
ACAD_NAV_VCDISPLAY
 70
     0
  0
APPID
  2
ACAECLAYERSTANDARD
 70
     0
  0
APPID
  2
ACCMTRANSPARENCY
 70
     0
  0
APPID
  2
ACLAYERTOOLS
 70
     0
  0
APPID
  2
GRADIENTCOLOR1ACI
 70
     0
  0
APPID
  2
GRADIENTCOLOR2ACI
 70
     0
  0
APPID
  2
AEC_XDATA_BOUND_SPACE
 70
     0
  0
APPID
  2
ACAD_MLEADERVER
 70
     0
  0
ENDTAB
  0
TABLE
  2
DIMSTYLE
 70
     4
  0
DIMSTYLE
  2
SUNPOU_申請図
 70
     0
  3

  4

  5
DOT
  6
DOT
  7
DOT
 40
80.0
 41
0.5
 42
1.0
 43
7.0
 44
1.0
 45
0.0
 46
3.0
 47
0.0
 48
0.0
140
2.0
141
0.0
142
0.0
143
25.399999999999999
144
1.0
145
0.0
146
1.0
147
1.0
 71
     0
 72
     0
 73
     0
 74
     0
 75
     0
 76
     0
 77
     1
 78
     8
170
     0
171
     2
172
     1
173
     1
174
     0
175
     0
176
   256
177
   256
178
   256
  0
ENDTAB
  0
ENDSEC
  0
SECTION
  2
BLOCKS
  0
BLOCK
  8
0
  2
$MODEL_SPACE
 70
     0
 10
0.0
 20
0.0
 30
0.0
  3
$MODEL_SPACE
  1

  0
ENDBLK
  5
125F7
  8
0
  0
BLOCK
 67
     1
  8
0
  2
$PAPER_SPACE
 70
     0
 10
0.0
 20
0.0
 30
0.0
  3
$PAPER_SPACE
  1

  0
ENDBLK
  5
125F5
 67
     1
  8
0
  0
BLOCK
  8
0
  2
DOT
 70
     0
 10
0.0
 20
0.0
 30
0.0
  3
DOT
  1

  0
POLYLINE
  5
12980
  8
0
  6
BYBLOCK
 62
     0
 66
     1
 10
0.0
 20
0.0
 30
0.0
 70
     1
 40
0.75
 41
0.75
  0
VERTEX
  5
60F23
  8
0
  6
BYBLOCK
 62
     0
 10
-0.375
 20
0.0
 30
0.0
 42
1.0
  0
VERTEX
  5
60F24
  8
0
  6
BYBLOCK
 62
     0
 10
0.375
 20
0.0
 30
0.0
 42
1.0
  0
SEQEND
  5
60F25
  8
0
  6
BYBLOCK
 62
     0
  0
LINE
  5
12981
  8
0
  6
BYBLOCK
 62
     0
 10
-0.75
 20
0.0
 30
0.0
 11
-1.5
 21
0.0
 31
0.0
  0
ENDBLK
  5
12982
  8
0
  0
ENDSEC
  0
SECTION
  2
ENTITIES
  0
TEXT
  5
5F5B6
  8
SUNPOU
 10
22644.187665158901
 20
17133.40346803765
 30
0.0
 40
160.0
  1
下屋前桁下面カラ
 50
90.0
  7
01
 72
     1
 11
22644.187665158901
 21
17874.736801370989
 31
0.0
  0
TEXT
  5
5F5B7
  8
SUNPOU
 10
22895.27356878807
 20
17128.070134704321
 30
0.0
 40
160.0
  1
本体基礎天端マデ
 50
90.0
  7
01
 72
     1
 11
22895.27356878807
 21
17874.736801370989
 31
0.0
  0
TEXT
  5
5F5B8
  8
SUNPOU
 10
22322.38710666362
 20
16779.570277695078
 30
0.0
 40
160.0
  1
下屋有効開口高サ
 50
90.0
  7
01
  0
TEXT
  5
5F5BA
  8
SUNPOU
 10
23462.205422612911
 20
17261.580870923772
 30
0.0
 40
160.0
  1
下屋高サ
 50
90.0
  7
01
  0
LINE
  5
5F5BB
  8
U1
 10
12573.500000000029
 20
19495.975870572482
 30
0.0
 11
12573.500000000029
 21
16018.121500361251
 31
0.0
  0
LINE
  5
5F5BC
  8
U1
 10
12658.500000000029
 20
16018.121500361251
 30
0.0
 11
12658.500000000029
 21
19401.121500361282
 31
0.0
  0
LINE
  5
5F5BD
  8
KERABA
 10
12456.000000000029
 20
19495.975870572482
 30
0.0
 11
12456.000000000029
 21
19675.40624389947
 31
0.0
  0
LINE
  5
5F5BE
  8
KERABA
 10
12491.000000000029
 20
19495.975870572482
 30
0.0
 11
12491.000000000029
 21
19675.40624389947
 31
0.0
  0
LINE
  5
5F5BF
  8
KERABA
 10
12456.000000000029
 20
19551.975870572482
 30
0.0
 11
18216.000000000011
 21
19551.975870572482
 31
0.0
  0
LINE
  5
5F5C0
  8
KERABA
 10
12456.000000000029
 20
19549.975870572471
 30
0.0
 11
18216.000000000011
 21
19549.975870572471
 31
0.0
  0
LINE
  5
5F5C1
  8
KERABA
 10
12456.000000000029
 20
19539.975870572482
 30
0.0
 11
18216.000000000011
 21
19539.975870572482
 31
0.0
  0
LINE
  5
5F5C2
  8
KERABA
 10
12456.000000000029
 20
19537.975870572482
 30
0.0
 11
18216.000000000011
 21
19537.975870572482
 31
0.0
  0
LINE
  5
5F5C3
  8
KERABA
 10
12456.000000000029
 20
19527.975870572471
 30
0.0
 11
18216.000000000011
 21
19527.975870572471
 31
0.0
  0
LINE
  5
5F5C4
  8
KERABA
 10
12456.000000000029
 20
19619.40624389947
 30
0.0
 11
18216.000000000011
 21
19619.40624389947
 31
0.0
  0
LINE
  5
5F5C5
  8
KERABA
 10
12456.000000000029
 20
19623.40624389947
 30
0.0
 11
18216.000000000011
 21
19623.40624389947
 31
0.0
  0
LINE
  5
5F5C6
  8
KERABA
 10
12456.000000000029
 20
19633.40624389947
 30
0.0
 11
18216.000000000011
 21
19633.40624389947
 31
0.0
  0
LINE
  5
5F5C7
  8
KERABA
 10
12456.000000000029
 20
19635.40624389947
 30
0.0
 11
18216.000000000011
 21
19635.40624389947
 31
0.0
  0
LINE
  5
5F5C8
  8
KERABA
 10
12456.000000000029
 20
19645.40624389947
 30
0.0
 11
18216.000000000011
 21
19645.40624389947
 31
0.0
  0
LINE
  5
5F5C9
  8
KERABA
 10
12456.000000000029
 20
19523.975870572482
 30
0.0
 11
18216.000000000011
 21
19523.975870572482
 31
0.0
  0
LINE
  5
5F5CA
  8
KERABA
 10
12456.000000000029
 20
19647.40624389947
 30
0.0
 11
18216.000000000011
 21
19647.40624389947
 31
0.0
  0
LINE
  5
5F5CB
  8
KERABA
 10
12456.000000000029
 20
19495.975870572482
 30
0.0
 11
18216.000000000011
 21
19495.975870572482
 31
0.0
  0
LINE
  5
5F5CC
  8
KERABA
 10
12456.000000000029
 20
19675.40624389947
 30
0.0
 11
18216.000000000011
 21
19675.40624389947
 31
0.0
  0
LINE
  5
5F5CD
  8
下屋前桁
 10
18173.000000000189
 20
19393.121500361311
 30
0.0
 11
12659.00000000008
 21
19393.121500361311
 31
0.0
  0
LINE
  5
5F5CE
  8
下屋前桁
 10
12659.000000000029
 20
19401.121500361311
 30
0.0
 11
12621.000000000029
 21
19401.121500361282
 31
0.0
  0
ARC
  5
5F5CF
  8
下屋前桁
 10
12621.000000000029
 20
19406.121500361282
 30
0.0
 40
5.0
 50
180.0
 51
270.0
  0
LINE
  5
5F5D0
  8
下屋前桁
 10
12659.00000000008
 20
19401.121500361311
 30
0.0
 11
12659.00000000008
 21
19393.121500361282
 31
0.0
  0
LINE
  5
5F5D1
  8
下屋前桁
 10
12616.000000000029
 20
19495.975870572482
 30
0.0
 11
12616.000000000029
 21
19406.121500361282
 31
0.0
  0
LINE
  5
5F5D2
  8
U1
 10
21058.5
 20
19495.975870572482
 30
0.0
 11
21058.5
 21
16018.12150036126
 31
0.0
  0
LINE
  5
5F5D3
  8
U1
 10
20973.5
 20
16018.12150036126
 30
0.0
 11
20973.5
 21
19401.121500361289
 31
0.0
  0
LINE
  5
5F5D4
  8
KERABA
 10
21176.0
 20
19551.975870572482
 30
0.0
 11
18216.0
 21
19551.975870572482
 31
0.0
  0
LINE
  5
5F5D5
  8
KERABA
 10
21176.0
 20
19549.975870572482
 30
0.0
 11
18216.0
 21
19549.975870572482
 31
0.0
  0
LINE
  5
5F5D6
  8
KERABA
 10
21176.0
 20
19539.975870572482
 30
0.0
 11
18216.0
 21
19539.975870572482
 31
0.0
  0
LINE
  5
5F5D7
  8
KERABA
 10
21176.0
 20
19537.975870572482
 30
0.0
 11
18216.0
 21
19537.975870572482
 31
0.0
  0
LINE
  5
5F5D8
  8
KERABA
 10
21176.0
 20
19527.975870572482
 30
0.0
 11
18216.0
 21
19527.975870572482
 31
0.0
  0
LINE
  5
5F5D9
  8
KERABA
 10
21176.0
 20
19619.40624389947
 30
0.0
 11
18216.0
 21
19619.40624389947
 31
0.0
  0
LINE
  5
5F5DA
  8
KERABA
 10
21176.0
 20
19623.40624389947
 30
0.0
 11
18216.0
 21
19623.40624389947
 31
0.0
  0
LINE
  5
5F5DB
  8
KERABA
 10
21176.0
 20
19633.40624389947
 30
0.0
 11
18216.0
 21
19633.40624389947
 31
0.0
  0
LINE
  5
5F5DC
  8
KERABA
 10
21176.0
 20
19635.40624389947
 30
0.0
 11
18216.0
 21
19635.40624389947
 31
0.0
  0
LINE
  5
5F5DD
  8
KERABA
 10
21176.0
 20
19645.40624389947
 30
0.0
 11
18216.0
 21
19645.40624389947
 31
0.0
  0
LINE
  5
5F5DE
  8
KERABA
 10
21176.0
 20
19523.975870572482
 30
0.0
 11
18216.0
 21
19523.975870572482
 31
0.0
  0
LINE
  5
5F5DF
  8
KERABA
 10
21176.0
 20
19647.40624389947
 30
0.0
 11
18216.0
 21
19647.40624389947
 31
0.0
  0
LINE
  5
5F5E0
  8
KERABA
 10
21176.0
 20
19495.975870572482
 30
0.0
 11
18216.0
 21
19495.975870572482
 31
0.0
  0
LINE
  5
5F5E1
  8
KERABA
 10
21176.0
 20
19675.40624389947
 30
0.0
 11
18216.0
 21
19675.40624389947
 31
0.0
  0
LINE
  5
5F5E2
  8
下屋前桁
 10
18259.000000000298
 20
19393.121500361311
 30
0.0
 11
20972.999999999942
 21
19393.121500361322
 31
0.0
  0
LINE
  5
5F5E3
  8
下屋前桁
 10
20973.0
 20
19401.121500361322
 30
0.0
 11
21011.0
 21
19401.121500361289
 31
0.0
  0
ARC
  5
5F5E4
  8
下屋前桁
 10
21011.0
 20
19406.121500361289
 30
0.0
 40
5.0
 50
270.0
 51
0.0
  0
LINE
  5
5F5E5
  8
下屋前桁
 10
20972.999999999942
 20
19401.121500361322
 30
0.0
 11
20972.999999999942
 21
19393.121500361289
 31
0.0
  0
LINE
  5
5F5E6
  8
下屋前桁
 10
21016.0
 20
19495.975870572482
 30
0.0
 11
21016.0
 21
19406.121500361289
 31
0.0
  0
LINE
  5
5F5E9
  8
KERABA
 10
21176.0
 20
19495.975870572482
 30
0.0
 11
21176.0
 21
19675.40624389947
 31
0.0
  0
LINE
  5
5F5EA
  8
KERABA
 10
21141.0
 20
19495.975870572482
 30
0.0
 11
21141.0
 21
19675.40624389947
 31
0.0
  0
LINE
  5
5F5EB
  8
U1
 10
18216.000000000011
 20
16018.12150036126
 30
0.0
 11
11517.09313967808
 21
16018.12150036126
 31
0.0
  0
LINE
  5
5F5EC
  8
U1
 10
18215.999999999982
 20
16018.12150036126
 30
0.0
 11
22114.906860321938
 21
16018.12150036126
 31
0.0
  0
LINE
  5
5F5ED
  8
U1
 10
12496.000000000069
 20
16018.121500361251
 30
0.0
 11
12496.000000000129
 21
16318.121500361251
 31
0.0
  0
LINE
  5
5F5EE
  8
U1
 10
21135.999999999942
 20
16018.121500361311
 30
0.0
 11
21135.999999999862
 21
16318.12150036132
 31
0.0
  0
TEXT
  5
5F855
  8
SUNPOU
 10
11610.99999999998
 20
18697.378108948618
 30
0.0
 40
160.0
  1
3170
 50
90.0
 41
0.6700000000000002
  7
00
  0
TEXT
  5
5F857
  8
SUNPOU
 10
11610.99999999998
 20
16568.846450831868
 30
0.0
 40
160.0
  1
シャッター有効開口高サ
 50
90.0
  7
01
  0
TEXT
  5
5FE02
  8
NAME
 10
21780.693652393769
 20
1877.7796840770311
 30
0.0
 40
360.0
  1
ヨ ド 倉 庫（下屋付き）
  7
01
  0
TEXT
  5
5FE04
  8
NAME
 10
21605.457695437719
 20
1049.779684077017
 30
0.0
 40
340.0
  1
SOB-8657FHA
 41
0.6400000000000001
  7
00
  0
TEXT
  5
5FE05
  8
NAME
 10
24033.859666886681
 20
1050.2352588493079
 30
0.0
 40
340.0
  1
型（単棟）
 41
0.6400000000000001
  7
00
  0
TEXT
  5
5FE06
  8
NAME
 10
25277.71276207015
 20
1049.779684077017
 30
0.0
 40
340.0
  1
+
 41
0.6400000000000001
  7
00
  0
TEXT
  5
5FE07
  8
NAME
 10
25615.029220107899
 20
1050.2352588493079
 30
0.0
 40
340.0
  1
下屋
 41
0.6400000000000001
  7
00
  0
TEXT
  5
5FE08
  8
HIKIDASHI
 10
15446.88740483039
 20
13118.121500361291
 30
0.0
 40
240.0
  1
正 面 立 面 図
  7
01
  0
TEXT
  5
5FE09
  8
HIKIDASHI
 10
17943.922500677461
 20
13113.418721622669
 30
0.0
 40
160.0
  1
80
 41
0.6700000000000002
  7
00
  0
TEXT
  5
5FE0A
  8
HIKIDASHI
 10
17851.332191152182
 20
13165.754384023219
 30
0.0
 40
160.0
  1
/
 41
0.6700000000000002
  7
00
  0
TEXT
  5
5FE0B
  8
HIKIDASHI
 10
17423.64208354822
 20
13165.754384023219
 30
0.0
 40
160.0
  1
(S=
 41
0.6700000000000002
  7
00
  0
TEXT
  5
5FE0C
  8
HIKIDASHI
 10
17785.05791542356
 20
13196.87733951962
 30
0.0
 40
160.0
  1
1
 41
0.6700000000000002
  7
00
  0
TEXT
  5
5FE0D
  8
HIKIDASHI
 10
18186.77541280233
 20
13165.754384023219
 30
0.0
 40
160.0
  1
)
 41
0.6700000000000002
  7
00
  0
TEXT
  5
5FE0E
  8
NAME
 10
26164.93975057283
 20
1050.2352588493161
 30
0.0
 40
340.0
  1
1/5
 41
0.6400000000000001
  7
00
  0
LINE
  5
60176
  8
HIKIDASHI
 10
11375.056212936021
 20
15537.63741541309
 30
0.0
 11
12345.52850062502
 21
15537.63741541309
 31
0.0
  0
TEXT
  5
60177
  8
HIKIDASHI
 10
11392.11653161261
 20
15577.63741541309
 30
0.0
 40
160.0
  1
シャッター
  7
01
  0
TEXT
  5
60179
  8
SUNPOU
 10
14668.816739821499
 20
15198.121500361291
 30
0.0
 40
160.0
  1
下屋有効開口巾
  7
01
  0
TEXT
  5
6017A
  8
SUNPOU
 10
20377.112439540819
 20
15598.121500361291
 30
0.0
 40
160.0
  1
2588
 41
0.6700000000000002
  7
00
  0
TEXT
  5
6017B
  8
SUNPOU
 10
16096.225254073401
 20
15598.121500361291
 30
0.0
 40
160.0
  1
5166
 41
0.6700000000000002
  7
00
  0
TEXT
  5
6017C
  8
SUNPOU
 10
14085.983317761291
 20
15598.121500361291
 30
0.0
 40
160.0
  1
シャッター有効開口巾
  7
01
  0
TEXT
  5
6017D
  8
SUNPOU
 10
18428.84377571147
 20
15598.121500361291
 30
0.0
 40
160.0
  1
シャッター有効開口巾
  7
01
  0
TEXT
  5
60180
  8
SUNPOU
 10
18668.756101028659
 20
15198.12150036126
 30
0.0
 40
160.0
  1
下屋有効開口巾
  7
01
  0
LINE
  5
604CE
  8
TOI
 10
11076.700000000021
 20
6679.3512883093053
 30
0.0
 11
11076.700000000021
 21
6689.3512883093072
 31
0.0
  0
LINE
  5
604CF
  8
TOI
 10
11186.700000000021
 20
6689.3512883093072
 30
0.0
 11
11076.700000000021
 21
6689.3512883093072
 31
0.0
  0
LINE
  5
604D0
  8
TOI
 10
11186.700000000021
 20
6679.3512883093053
 30
0.0
 11
11076.700000000021
 21
6679.3512883093053
 31
0.0
  0
LINE
  5
604D1
  8
KERABA
 10
14091.42785426009
 20
9625.814810388154
 30
0.0
 11
14076.65962675087
 21
9805.207952554294
 31
0.0
  0
LINE
  5
604D2
  8
TOI
 10
11081.700000000021
 20
9293.1498468246882
 30
0.0
 11
11141.700000000021
 21
9293.1498468246882
 31
0.0
  0
LINE
  5
604D5
  8
TOI
 10
11081.700000000021
 20
9323.1498468246864
 30
0.0
 11
11032.60910966033
 21
9331.8058952985593
 31
0.0
  0
ARC
  5
604D6
  8
TOI
 10
11091.700000000021
 20
9331.5408431364485
 30
0.0
 40
50.0
 50
0.0
 51
75.326571614878972
  0
LINE
  5
604D7
  8
TOI
 10
11081.700000000021
 20
9323.1498468246864
 30
0.0
 11
11091.5219314517
 21
9378.8527881001792
 31
0.0
  0
LINE
  5
604D8
  8
TOI
 10
11048.805117979129
 20
9375.3362009429984
 30
0.0
 11
11040.87262788364
 21
9330.3488140802219
 31
0.0
  0
ARC
  5
604D9
  8
TOI
 10
11041.29151854368
 20
9381.0462829491735
 30
0.0
 40
50.0
 50
191.95309128701689
 51
259.99999999951621
  0
LINE
  5
604DA
  8
KERABA
 10
17200.09355757515
 20
10062.33920262933
 30
0.0
 11
10953.225695924901
 21
9548.0767024790839
 31
0.0
  0
LINE
  5
604DB
  8
KERABA
 10
17237.272837275541
 20
10037.30520253027
 30
0.0
 11
10920.64097589401
 21
9517.2995027931611
 31
0.0
  0
LINE
  5
604DC
  8
KERABA
 10
17235.443671557128
 20
10035.147853978309
 30
0.0
 11
10922.79832444597
 21
9515.4703370747284
 31
0.0
  0
LINE
  5
604DD
  8
KERABA
 10
17236.264128640949
 20
10025.1815683024
 30
0.0
 11
10923.618781529791
 21
9505.5040513988497
 31
0.0
  0
LINE
  5
604DE
  8
KERABA
 10
17234.434962922551
 20
10023.02421975047
 30
0.0
 11
10925.776130081749
 21
9503.6748856804188
 31
0.0
  0
LINE
  5
604DF
  8
KERABA
 10
17235.255420006419
 20
10013.057934074561
 30
0.0
 11
10926.596587165621
 21
9493.7086000045383
 31
0.0
  0
LINE
  5
604E0
  8
KERABA
 10
17239.570117110281
 20
10009.399602637761
 30
0.0
 11
10922.938255728761
 21
9489.3939029006415
 31
0.0
  0
LINE
  5
604E1
  8
KERABA
 10
17242.311350927412
 20
9927.3478772618546
 30
0.0
 11
10933.65251808661
 21
9407.9985431918321
 31
0.0
  0
LINE
  5
604E2
  8
KERABA
 10
17243.320059562
 20
9939.4715114896971
 30
0.0
 11
10930.67471245084
 21
9419.7939945861435
 31
0.0
  0
LINE
  5
604E3
  8
KERABA
 10
17244.14051664581
 20
9929.5052258138185
 30
0.0
 11
10931.49516953465
 21
9409.8277089102321
 31
0.0
  0
LINE
  5
604E4
  8
KERABA
 10
17247.446505115149
 20
9913.7232601491414
 30
0.0
 11
10930.81464373362
 21
9393.7175604120257
 31
0.0
  0
LINE
  5
604E5
  8
KERABA
 10
17243.13180801128
 20
9917.3815915859741
 30
0.0
 11
10934.472975170491
 21
9398.0322575159225
 31
0.0
  0
LINE
  5
604E6
  8
KERABA
 10
17214.861785084249
 20
9882.9460604631895
 30
0.0
 11
10967.993923434011
 21
9368.683560312973
 31
0.0
  0
LINE
  5
604E7
  8
TOI
 10
11186.700000000021
 20
8893.1498468246864
 30
0.0
 11
11076.700000000021
 21
8893.1498468246864
 31
0.0
  0
LINE
  5
604E8
  8
TOI
 10
11186.700000000021
 20
8903.1498468246864
 30
0.0
 11
11076.700000000021
 21
8903.1498468246864
 31
0.0
  0
LINE
  5
604E9
  8
TOI
 10
11076.700000000021
 20
8893.1498468246864
 30
0.0
 11
11076.700000000021
 21
8903.1498468246864
 31
0.0
  0
LINE
  5
604EA
  8
TOI
 10
11076.700000000021
 20
7786.2512883093004
 30
0.0
 11
11076.700000000021
 21
7796.2512883093013
 31
0.0
  0
LINE
  5
604EB
  8
TOI
 10
11186.700000000021
 20
7796.2512883093013
 30
0.0
 11
11076.700000000021
 21
7796.2512883093013
 31
0.0
  0
LINE
  5
604EC
  8
TOI
 10
11186.700000000021
 20
7786.2512883093004
 30
0.0
 11
11076.700000000021
 21
7786.2512883093004
 31
0.0
  0
LINE
  5
604ED
  8
TOI
 10
11081.700000000021
 20
6325.2917521017798
 30
0.0
 11
11081.700000000021
 21
9323.1498468246864
 31
0.0
  0
LINE
  5
604EE
  8
TOI
 10
11141.700000000021
 20
6325.2917521017798
 30
0.0
 11
11081.700000000021
 21
6325.2917521017798
 31
0.0
  0
LINE
  5
604EF
  8
TOI
 10
11141.700000000021
 20
6325.2917521017798
 30
0.0
 11
11141.700000000021
 21
9331.5408431364485
 31
0.0
  0
LINE
  5
604F0
  8
U1
 10
16859.099999999929
 20
6285.2917521017798
 30
0.0
 11
16859.099999999929
 21
9853.6585920698853
 31
0.0
  0
LINE
  5
604F1
  8
U1
 10
11385.40000000004
 20
6285.2917521017798
 30
0.0
 11
11189.40000000004
 21
6285.2917521017798
 31
0.0
  0
LINE
  5
604F2
  8
U1
 10
11385.40000000004
 20
6285.2917521017798
 30
0.0
 11
11385.40000000004
 21
9403.0457874749118
 31
0.0
  0
LINE
  5
604F3
  8
U1
 10
11189.40000000004
 20
6285.2917521017798
 30
0.0
 11
11189.40000000004
 21
9386.9104293623677
 31
0.0
  0
LINE
  5
604F4
  8
U3
 10
15256.500000000009
 20
6285.2917521017798
 30
0.0
 11
15256.500000000009
 21
9721.7273425219901
 31
0.0
  0
LINE
  5
604F5
  8
U3
 10
15260.500000000009
 20
6285.2917521017798
 30
0.0
 11
15260.500000000009
 21
9722.0566355447099
 31
0.0
  0
LINE
  5
604F6
  8
U3
 10
15274.500000000009
 20
6285.2917521017798
 30
0.0
 11
15274.500000000009
 21
9723.2091611241794
 31
0.0
  0
LINE
  5
604F7
  8
U3
 10
15303.000000000009
 20
6285.2917521017798
 30
0.0
 11
15303.000000000009
 21
9725.5553739109746
 31
0.0
  0
LINE
  5
604F8
  8
U3
 10
15305.000000000009
 20
6285.2917521017798
 30
0.0
 11
15305.000000000009
 21
9725.7200204223209
 31
0.0
  0
LINE
  5
604F9
  8
U3
 10
15387.000000000009
 20
6285.2917521017798
 30
0.0
 11
15387.000000000009
 21
9732.4705273878208
 31
0.0
  0
LINE
  5
604FA
  8
U3
 10
15385.000000000009
 20
6285.2917521017798
 30
0.0
 11
15385.000000000009
 21
9732.3058808764763
 31
0.0
  0
LINE
  5
604FB
  8
U3
 10
15415.500000000009
 20
6285.2917521017798
 30
0.0
 11
15415.500000000009
 21
9734.8167401746177
 31
0.0
  0
LINE
  5
604FC
  8
U3
 10
15429.500000000009
 20
6285.2917521017798
 30
0.0
 11
15429.500000000009
 21
9735.9692657540872
 31
0.0
  0
LINE
  5
604FD
  8
U3
 10
15433.500000000009
 20
6285.2917521017798
 30
0.0
 11
15433.500000000009
 21
9736.2985587768053
 31
0.0
  0
LINE
  5
604FE
  8
U3
 10
15633.500000000009
 20
6285.2917521017798
 30
0.0
 11
15633.500000000009
 21
9752.7632099121547
 31
0.0
  0
LINE
  5
604FF
  8
U3
 10
15629.500000000009
 20
6285.2917521017798
 30
0.0
 11
15629.500000000009
 21
9752.4339168894658
 31
0.0
  0
LINE
  5
60500
  8
U3
 10
15615.500000000009
 20
6285.2917521017798
 30
0.0
 11
15615.500000000009
 21
9751.2813913099671
 31
0.0
  0
LINE
  5
60501
  8
U3
 10
15585.000000000009
 20
6285.2917521017798
 30
0.0
 11
15585.000000000009
 21
9748.7705320118257
 31
0.0
  0
LINE
  5
60502
  8
U3
 10
15587.000000000009
 20
6285.2917521017798
 30
0.0
 11
15587.000000000009
 21
9748.9351785231993
 31
0.0
  0
LINE
  5
60503
  8
U3
 10
15505.000000000009
 20
6285.2917521017798
 30
0.0
 11
15505.000000000009
 21
9742.1846715576976
 31
0.0
  0
LINE
  5
60504
  8
U3
 10
15503.000000000009
 20
6285.2917521017798
 30
0.0
 11
15503.000000000009
 21
9742.020025046324
 31
0.0
  0
LINE
  5
60505
  8
U3
 10
15474.500000000009
 20
6285.2917521017798
 30
0.0
 11
15474.500000000009
 21
9739.6738122595561
 31
0.0
  0
LINE
  5
60506
  8
U3
 10
15460.500000000009
 20
6285.2917521017798
 30
0.0
 11
15460.500000000009
 21
9738.5212866800575
 31
0.0
  0
LINE
  5
60507
  8
U3
 10
15456.500000000009
 20
6285.2917521017798
 30
0.0
 11
15456.500000000009
 21
9738.1919936573704
 31
0.0
  0
LINE
  5
60508
  8
U3
 10
15656.500000000009
 20
6285.2917521017798
 30
0.0
 11
15656.500000000009
 21
9754.6566447927162
 31
0.0
  0
LINE
  5
60509
  8
U3
 10
15660.500000000009
 20
6285.2917521017798
 30
0.0
 11
15660.500000000009
 21
9754.9859378154379
 31
0.0
  0
LINE
  5
6050A
  8
U3
 10
15674.500000000009
 20
6285.2917521017798
 30
0.0
 11
15674.500000000009
 21
9756.1384633949056
 31
0.0
  0
LINE
  5
6050B
  8
U3
 10
15703.000000000009
 20
6285.2917521017798
 30
0.0
 11
15703.000000000009
 21
9758.4846761817025
 31
0.0
  0
LINE
  5
6050C
  8
U3
 10
15705.000000000009
 20
6285.2917521017798
 30
0.0
 11
15705.000000000009
 21
9758.649322693047
 31
0.0
  0
LINE
  5
6050D
  8
U3
 10
15787.000000000009
 20
6285.2917521017798
 30
0.0
 11
15787.000000000009
 21
9765.3998296585487
 31
0.0
  0
LINE
  5
6050E
  8
U3
 10
15785.000000000009
 20
6285.2917521017798
 30
0.0
 11
15785.000000000009
 21
9765.2351831472042
 31
0.0
  0
LINE
  5
6050F
  8
U3
 10
15815.500000000009
 20
6285.2917521017798
 30
0.0
 11
15815.500000000009
 21
9767.7460424453457
 31
0.0
  0
LINE
  5
60510
  8
U3
 10
15829.500000000009
 20
6285.2917521017798
 30
0.0
 11
15829.500000000009
 21
9768.8985680248152
 31
0.0
  0
LINE
  5
60511
  8
U3
 10
15833.500000000009
 20
6285.2917521017798
 30
0.0
 11
15833.500000000009
 21
9769.2278610475332
 31
0.0
  0
LINE
  5
60512
  8
U3
 10
16033.500000000009
 20
6285.2917521017798
 30
0.0
 11
16033.500000000009
 21
9785.6925121828826
 31
0.0
  0
LINE
  5
60513
  8
U3
 10
16029.500000000009
 20
6285.2917521017798
 30
0.0
 11
16029.500000000009
 21
9785.3632191601955
 31
0.0
  0
LINE
  5
60514
  8
U3
 10
16015.500000000009
 20
6285.2917521017798
 30
0.0
 11
16015.500000000009
 21
9784.2106935806969
 31
0.0
  0
LINE
  5
60515
  8
U3
 10
15985.000000000009
 20
6285.2917521017798
 30
0.0
 11
15985.000000000009
 21
9781.6998342825555
 31
0.0
  0
LINE
  5
60516
  8
U3
 10
15987.000000000009
 20
6285.2917521017798
 30
0.0
 11
15987.000000000009
 21
9781.8644807939272
 31
0.0
  0
LINE
  5
60517
  8
U3
 10
15905.000000000009
 20
6285.2917521017798
 30
0.0
 11
15905.000000000009
 21
9775.1139738284255
 31
0.0
  0
LINE
  5
60518
  8
U3
 10
15903.000000000009
 20
6285.2917521017798
 30
0.0
 11
15903.000000000009
 21
9774.9493273170519
 31
0.0
  0
LINE
  5
60519
  8
U3
 10
15874.500000000009
 20
6285.2917521017798
 30
0.0
 11
15874.500000000009
 21
9772.6031145302841
 31
0.0
  0
LINE
  5
6051A
  8
U3
 10
15860.500000000009
 20
6285.2917521017798
 30
0.0
 11
15860.500000000009
 21
9771.4505889507855
 31
0.0
  0
LINE
  5
6051B
  8
U3
 10
15856.500000000009
 20
6285.2917521017798
 30
0.0
 11
15856.500000000009
 21
9771.1212959280965
 31
0.0
  0
LINE
  5
6051C
  8
U3
 10
16656.500000000011
 20
6285.2917521017798
 30
0.0
 11
16656.500000000011
 21
9836.9799004695524
 31
0.0
  0
LINE
  5
6051D
  8
U3
 10
16660.500000000011
 20
6285.2917521017798
 30
0.0
 11
16660.500000000011
 21
9837.3091934922413
 31
0.0
  0
LINE
  5
6051E
  8
U3
 10
16674.500000000011
 20
6285.2917521017798
 30
0.0
 11
16674.500000000011
 21
9838.4617190717418
 31
0.0
  0
LINE
  5
6051F
  8
U3
 10
16703.000000000011
 20
6285.2917521017798
 30
0.0
 11
16703.000000000011
 21
9840.8079318585078
 31
0.0
  0
LINE
  5
60520
  8
U3
 10
16705.000000000011
 20
6285.2917521017798
 30
0.0
 11
16705.000000000011
 21
9840.9725783698814
 31
0.0
  0
LINE
  5
60521
  8
U3
 10
16633.500000000011
 20
6285.2917521017798
 30
0.0
 11
16633.500000000011
 21
9835.0864655889909
 31
0.0
  0
LINE
  5
60522
  8
U3
 10
16629.500000000011
 20
6285.2917521017798
 30
0.0
 11
16629.500000000011
 21
9834.7571725662729
 31
0.0
  0
LINE
  5
60523
  8
U3
 10
16615.500000000011
 20
6285.2917521017798
 30
0.0
 11
16615.500000000011
 21
9833.6046469868033
 31
0.0
  0
LINE
  5
60524
  8
U3
 10
16585.000000000011
 20
6285.2917521017798
 30
0.0
 11
16585.000000000011
 21
9831.0937876886601
 31
0.0
  0
LINE
  5
60525
  8
U3
 10
16587.000000000011
 20
6285.2917521017798
 30
0.0
 11
16587.000000000011
 21
9831.2584342000046
 31
0.0
  0
LINE
  5
60526
  8
U3
 10
16505.000000000011
 20
6285.2917521017798
 30
0.0
 11
16505.000000000011
 21
9824.5079272345047
 31
0.0
  0
LINE
  5
60527
  8
U3
 10
16503.000000000011
 20
6285.2917521017798
 30
0.0
 11
16503.000000000011
 21
9824.3432807231584
 31
0.0
  0
LINE
  5
60528
  8
U3
 10
16474.500000000011
 20
6285.2917521017798
 30
0.0
 11
16474.500000000011
 21
9821.9970679363614
 31
0.0
  0
LINE
  5
60529
  8
U3
 10
16460.500000000011
 20
6285.2917521017798
 30
0.0
 11
16460.500000000011
 21
9820.8445423568919
 31
0.0
  0
LINE
  5
6052A
  8
U3
 10
16456.500000000011
 20
6285.2917521017798
 30
0.0
 11
16456.500000000011
 21
9820.5152493341739
 31
0.0
  0
LINE
  5
6052B
  8
U3
 10
16256.500000000009
 20
6285.2917521017798
 30
0.0
 11
16256.500000000009
 21
9804.0505981988244
 31
0.0
  0
LINE
  5
6052C
  8
U3
 10
16260.500000000009
 20
6285.2917521017798
 30
0.0
 11
16260.500000000009
 21
9804.3798912215152
 31
0.0
  0
LINE
  5
6052D
  8
U3
 10
16274.500000000009
 20
6285.2917521017798
 30
0.0
 11
16274.500000000009
 21
9805.532416801012
 31
0.0
  0
LINE
  5
6052E
  8
U3
 10
16303.000000000009
 20
6285.2917521017798
 30
0.0
 11
16303.000000000009
 21
9807.8786295877817
 31
0.0
  0
LINE
  5
6052F
  8
U3
 10
16305.000000000009
 20
6285.2917521017798
 30
0.0
 11
16305.000000000009
 21
9808.0432760991553
 31
0.0
  0
LINE
  5
60530
  8
U3
 10
16387.000000000011
 20
6285.2917521017798
 30
0.0
 11
16387.000000000011
 21
9814.7937830646551
 31
0.0
  0
LINE
  5
60531
  8
U3
 10
16385.000000000011
 20
6285.2917521017798
 30
0.0
 11
16385.000000000011
 21
9814.6291365532816
 31
0.0
  0
LINE
  5
60532
  8
U3
 10
16415.500000000011
 20
6285.2917521017798
 30
0.0
 11
16415.500000000011
 21
9817.139995851423
 31
0.0
  0
LINE
  5
60533
  8
U3
 10
16429.500000000011
 20
6285.2917521017798
 30
0.0
 11
16429.500000000011
 21
9818.2925214309216
 31
0.0
  0
LINE
  5
60534
  8
U3
 10
16433.500000000011
 20
6285.2917521017798
 30
0.0
 11
16433.500000000011
 21
9818.6218144536124
 31
0.0
  0
LINE
  5
60535
  8
U3
 10
16233.500000000009
 20
6285.2917521017798
 30
0.0
 11
16233.500000000009
 21
9802.157163318263
 31
0.0
  0
LINE
  5
60536
  8
U3
 10
16229.500000000009
 20
6285.2917521017798
 30
0.0
 11
16229.500000000009
 21
9801.8278702955431
 31
0.0
  0
LINE
  5
60537
  8
U3
 10
16215.500000000009
 20
6285.2917521017798
 30
0.0
 11
16215.500000000009
 21
9800.6753447160736
 31
0.0
  0
LINE
  5
60538
  8
U3
 10
16185.000000000009
 20
6285.2917521017798
 30
0.0
 11
16185.000000000009
 21
9798.1644854179322
 31
0.0
  0
LINE
  5
60539
  8
U3
 10
16187.000000000009
 20
6285.2917521017798
 30
0.0
 11
16187.000000000009
 21
9798.3291319292784
 31
0.0
  0
LINE
  5
6053A
  8
U3
 10
16105.000000000009
 20
6285.2917521017798
 30
0.0
 11
16105.000000000009
 21
9791.5786249637767
 31
0.0
  0
LINE
  5
6053B
  8
U3
 10
16103.000000000009
 20
6285.2917521017798
 30
0.0
 11
16103.000000000009
 21
9791.4139784524323
 31
0.0
  0
LINE
  5
6053C
  8
U3
 10
16074.500000000009
 20
6285.2917521017798
 30
0.0
 11
16074.500000000009
 21
9789.0677656656353
 31
0.0
  0
LINE
  5
6053D
  8
U3
 10
16060.500000000009
 20
6285.2917521017798
 30
0.0
 11
16060.500000000009
 21
9787.915240086164
 31
0.0
  0
LINE
  5
6053E
  8
U3
 10
16056.500000000009
 20
6285.2917521017798
 30
0.0
 11
16056.500000000009
 21
9787.5859470634477
 31
0.0
  0
LINE
  5
6053F
  8
U3
 10
14456.500000000009
 20
6285.2917521017798
 30
0.0
 11
14456.500000000009
 21
9655.8687379805342
 31
0.0
  0
LINE
  5
60540
  8
U3
 10
15185.000000000009
 20
6285.2917521017798
 30
0.0
 11
15185.000000000009
 21
9715.8412297410978
 31
0.0
  0
LINE
  5
60541
  8
U3
 10
15187.000000000009
 20
6285.2917521017798
 30
0.0
 11
15187.000000000009
 21
9716.0058762524714
 31
0.0
  0
LINE
  5
60542
  8
U3
 10
15229.500000000009
 20
6285.2917521017798
 30
0.0
 11
15229.500000000009
 21
9719.5046146187378
 31
0.0
  0
LINE
  5
60543
  8
U3
 10
15233.500000000009
 20
6285.2917521017798
 30
0.0
 11
15233.500000000009
 21
9719.8339076414286
 31
0.0
  0
LINE
  5
60544
  8
U3
 10
15215.500000000009
 20
6285.2917521017798
 30
0.0
 11
15215.500000000009
 21
9718.352089039241
 31
0.0
  0
LINE
  5
60545
  8
U3
 10
14985.000000000009
 20
6285.2917521017798
 30
0.0
 11
14985.000000000009
 21
9699.3765786057484
 31
0.0
  0
LINE
  5
60546
  8
U3
 10
14987.000000000009
 20
6285.2917521017798
 30
0.0
 11
14987.000000000009
 21
9699.5412251170947
 31
0.0
  0
LINE
  5
60547
  8
U3
 10
15015.500000000009
 20
6285.2917521017798
 30
0.0
 11
15015.500000000009
 21
9701.8874379038916
 31
0.0
  0
LINE
  5
60548
  8
U3
 10
15029.500000000009
 20
6285.2917521017798
 30
0.0
 11
15029.500000000009
 21
9703.0399634833611
 31
0.0
  0
LINE
  5
60549
  8
U3
 10
15033.500000000009
 20
6285.2917521017798
 30
0.0
 11
15033.500000000009
 21
9703.3692565060774
 31
0.0
  0
LINE
  5
6054A
  8
U3
 10
15060.500000000009
 20
6285.2917521017798
 30
0.0
 11
15060.500000000009
 21
9705.5919844093314
 31
0.0
  0
LINE
  5
6054B
  8
U3
 10
15056.500000000009
 20
6285.2917521017798
 30
0.0
 11
15056.500000000009
 21
9705.2626913866407
 31
0.0
  0
LINE
  5
6054C
  8
U3
 10
15074.500000000009
 20
6285.2917521017798
 30
0.0
 11
15074.500000000009
 21
9706.74450998883
 31
0.0
  0
LINE
  5
6054D
  8
U3
 10
15105.000000000009
 20
6285.2917521017798
 30
0.0
 11
15105.000000000009
 21
9709.2553692869715
 31
0.0
  0
LINE
  5
6054E
  8
U3
 10
15103.000000000009
 20
6285.2917521017798
 30
0.0
 11
15103.000000000009
 21
9709.0907227755979
 31
0.0
  0
LINE
  5
6054F
  8
U3
 10
14903.000000000009
 20
6285.2917521017798
 30
0.0
 11
14903.000000000009
 21
9692.6260716402485
 31
0.0
  0
LINE
  5
60550
  8
U3
 10
14860.500000000009
 20
6285.2917521017798
 30
0.0
 11
14860.500000000009
 21
9689.1273332739802
 31
0.0
  0
LINE
  5
60551
  8
U3
 10
14874.500000000009
 20
6285.2917521017798
 30
0.0
 11
14874.500000000009
 21
9690.2798588534497
 31
0.0
  0
LINE
  5
60552
  8
U3
 10
14905.000000000009
 20
6285.2917521017798
 30
0.0
 11
14905.000000000009
 21
9692.7907181515911
 31
0.0
  0
LINE
  5
60553
  8
U3
 10
14856.500000000009
 20
6285.2917521017798
 30
0.0
 11
14856.500000000009
 21
9688.7980402512621
 31
0.0
  0
LINE
  5
60554
  8
U3
 10
14833.500000000009
 20
6285.2917521017798
 30
0.0
 11
14833.500000000009
 21
9686.9046053706988
 31
0.0
  0
LINE
  5
60555
  8
U3
 10
14829.500000000009
 20
6285.2917521017798
 30
0.0
 11
14829.500000000009
 21
9686.5753123480117
 31
0.0
  0
LINE
  5
60556
  8
U3
 10
14815.500000000009
 20
6285.2917521017798
 30
0.0
 11
14815.500000000009
 21
9685.4227867685113
 31
0.0
  0
LINE
  5
60557
  8
U3
 10
14785.000000000009
 20
6285.2917521017798
 30
0.0
 11
14785.000000000009
 21
9682.9119274703717
 31
0.0
  0
LINE
  5
60558
  8
U3
 10
14787.000000000009
 20
6285.2917521017798
 30
0.0
 11
14787.000000000009
 21
9683.0765739817434
 31
0.0
  0
LINE
  5
60559
  8
U3
 10
14705.000000000009
 20
6285.2917521017798
 30
0.0
 11
14705.000000000009
 21
9676.3260670162417
 31
0.0
  0
LINE
  5
6055A
  8
U3
 10
14703.000000000009
 20
6285.2917521017798
 30
0.0
 11
14703.000000000009
 21
9676.1614205048681
 31
0.0
  0
LINE
  5
6055B
  8
U3
 10
14660.500000000009
 20
6285.2917521017798
 30
0.0
 11
14660.500000000009
 21
9672.6626821386017
 31
0.0
  0
LINE
  5
6055C
  8
U3
 10
14674.500000000009
 20
6285.2917521017798
 30
0.0
 11
14674.500000000009
 21
9673.8152077180985
 31
0.0
  0
LINE
  5
6055D
  8
U3
 10
14656.500000000009
 20
6285.2917521017798
 30
0.0
 11
14656.500000000009
 21
9672.3333891159127
 31
0.0
  0
LINE
  5
6055E
  8
U3
 10
14633.500000000009
 20
6285.2917521017798
 30
0.0
 11
14633.500000000009
 21
9670.4399542353494
 31
0.0
  0
LINE
  5
6055F
  8
U3
 10
14629.500000000009
 20
6285.2917521017798
 30
0.0
 11
14629.500000000009
 21
9670.1106612126314
 31
0.0
  0
LINE
  5
60560
  8
U3
 10
14615.500000000009
 20
6285.2917521017798
 30
0.0
 11
14615.500000000009
 21
9668.9581356331619
 31
0.0
  0
LINE
  5
60561
  8
U3
 10
14587.000000000009
 20
6285.2917521017798
 30
0.0
 11
14587.000000000009
 21
9666.6119228463667
 31
0.0
  0
LINE
  5
60562
  8
U3
 10
14585.000000000009
 20
6285.2917521017798
 30
0.0
 11
14585.000000000009
 21
9666.4472763350204
 31
0.0
  0
LINE
  5
60563
  8
U3
 10
14503.000000000009
 20
6285.2917521017798
 30
0.0
 11
14503.000000000009
 21
9659.6967693695187
 31
0.0
  0
LINE
  5
60564
  8
U3
 10
14505.000000000009
 20
6285.2917521017798
 30
0.0
 11
14505.000000000009
 21
9659.8614158808632
 31
0.0
  0
LINE
  5
60565
  8
U3
 10
14460.500000000009
 20
6285.2917521017798
 30
0.0
 11
14460.500000000009
 21
9656.1980310032523
 31
0.0
  0
LINE
  5
60566
  8
U3
 10
14474.500000000009
 20
6285.2917521017798
 30
0.0
 11
14474.500000000009
 21
9657.3505565827218
 31
0.0
  0
LINE
  5
60567
  8
U3
 10
14303.000000000009
 20
6285.2917521017798
 30
0.0
 11
14303.000000000009
 21
9643.2321182341402
 31
0.0
  0
LINE
  5
60568
  8
U3
 10
14305.000000000009
 20
6285.2917521017798
 30
0.0
 11
14305.000000000009
 21
9643.3967647455138
 31
0.0
  0
LINE
  5
60569
  8
U3
 10
14274.500000000009
 20
6285.2917521017798
 30
0.0
 11
14274.500000000009
 21
9640.8859054473724
 31
0.0
  0
LINE
  5
6056A
  8
U3
 10
14256.500000000009
 20
6285.2917521017798
 30
0.0
 11
14256.500000000009
 21
9639.4040868451866
 31
0.0
  0
LINE
  5
6056B
  8
U3
 10
14260.500000000009
 20
6285.2917521017798
 30
0.0
 11
14260.500000000009
 21
9639.7333798678756
 31
0.0
  0
LINE
  5
6056C
  8
U3
 10
14233.500000000009
 20
6285.2917521017798
 30
0.0
 11
14233.500000000009
 21
9637.5106519646233
 31
0.0
  0
LINE
  5
6056D
  8
U3
 10
14229.500000000009
 20
6285.2917521017798
 30
0.0
 11
14229.500000000009
 21
9637.1813589419035
 31
0.0
  0
LINE
  5
6056E
  8
U3
 10
14215.500000000009
 20
6285.2917521017798
 30
0.0
 11
14215.500000000009
 21
9636.0288333624339
 31
0.0
  0
LINE
  5
6056F
  8
U3
 10
14187.000000000009
 20
6285.2917521017798
 30
0.0
 11
14187.000000000009
 21
9633.682620575637
 31
0.0
  0
LINE
  5
60570
  8
U3
 10
14185.000000000009
 20
6285.2917521017798
 30
0.0
 11
14185.000000000009
 21
9633.5179740642925
 31
0.0
  0
LINE
  5
60571
  8
U3
 10
14415.500000000009
 20
6285.2917521017798
 30
0.0
 11
14415.500000000009
 21
9652.4934844977834
 31
0.0
  0
LINE
  5
60572
  8
U3
 10
14433.500000000009
 20
6285.2917521017798
 30
0.0
 11
14433.500000000009
 21
9653.9753030999691
 31
0.0
  0
LINE
  5
60573
  8
U3
 10
14429.500000000009
 20
6285.2917521017798
 30
0.0
 11
14429.500000000009
 21
9653.6460100772838
 31
0.0
  0
LINE
  5
60574
  8
U3
 10
14387.000000000009
 20
6285.2917521017798
 30
0.0
 11
14387.000000000009
 21
9650.1472717110155
 31
0.0
  0
LINE
  5
60575
  8
U3
 10
14385.000000000009
 20
6285.2917521017798
 30
0.0
 11
14385.000000000009
 21
9649.9826251996419
 31
0.0
  0
LINE
  5
60576
  8
U3
 10
13674.500000000009
 20
6285.2917521017798
 30
0.0
 11
13674.500000000009
 21
9591.4919520412659
 31
0.0
  0
LINE
  5
60577
  8
U3
 10
13660.500000000009
 20
6285.2917521017798
 30
0.0
 11
13660.500000000009
 21
9590.3394264617964
 31
0.0
  0
LINE
  5
60578
  8
U3
 10
13705.000000000009
 20
6285.2917521017798
 30
0.0
 11
13705.000000000009
 21
9594.0028113394073
 31
0.0
  0
LINE
  5
60579
  8
U3
 10
13703.000000000009
 20
6285.2917521017798
 30
0.0
 11
13703.000000000009
 21
9593.8381648280629
 31
0.0
  0
LINE
  5
6057A
  8
U3
 10
13785.000000000009
 20
6285.2917521017798
 30
0.0
 11
13785.000000000009
 21
9600.5886717935664
 31
0.0
  0
LINE
  5
6057B
  8
U3
 10
13787.000000000009
 20
6285.2917521017798
 30
0.0
 11
13787.000000000009
 21
9600.7533183049109
 31
0.0
  0
LINE
  5
6057C
  8
U3
 10
13815.500000000009
 20
6285.2917521017798
 30
0.0
 11
13815.500000000009
 21
9603.0995310917078
 31
0.0
  0
LINE
  5
6057D
  8
U3
 10
13829.500000000009
 20
6285.2917521017798
 30
0.0
 11
13829.500000000009
 21
9604.2520566711755
 31
0.0
  0
LINE
  5
6057E
  8
U3
 10
13833.500000000009
 20
6285.2917521017798
 30
0.0
 11
13833.500000000009
 21
9604.5813496938936
 31
0.0
  0
LINE
  5
6057F
  8
U3
 10
13856.500000000009
 20
6285.2917521017798
 30
0.0
 11
13856.500000000009
 21
9606.4747845744587
 31
0.0
  0
LINE
  5
60580
  8
U3
 10
13874.500000000009
 20
6285.2917521017798
 30
0.0
 11
13874.500000000009
 21
9607.9566031766462
 31
0.0
  0
LINE
  5
60581
  8
U3
 10
13860.500000000009
 20
6285.2917521017798
 30
0.0
 11
13860.500000000009
 21
9606.8040775971749
 31
0.0
  0
LINE
  5
60582
  8
U3
 10
13903.000000000009
 20
6285.2917521017798
 30
0.0
 11
13903.000000000009
 21
9610.3028159634123
 31
0.0
  0
LINE
  5
60583
  8
U3
 10
13905.000000000009
 20
6285.2917521017798
 30
0.0
 11
13905.000000000009
 21
9610.4674624747877
 31
0.0
  0
LINE
  5
60584
  8
U3
 10
13987.000000000009
 20
6285.2917521017798
 30
0.0
 11
13987.000000000009
 21
9617.2179694402876
 31
0.0
  0
LINE
  5
60585
  8
U3
 10
13985.000000000009
 20
6285.2917521017798
 30
0.0
 11
13985.000000000009
 21
9617.0533229289158
 31
0.0
  0
LINE
  5
60586
  8
U3
 10
14015.500000000009
 20
6285.2917521017798
 30
0.0
 11
14015.500000000009
 21
9619.5641822270572
 31
0.0
  0
LINE
  5
60587
  8
U3
 10
14029.500000000009
 20
6285.2917521017798
 30
0.0
 11
14029.500000000009
 21
9620.716707806554
 31
0.0
  0
LINE
  5
60588
  8
U3
 10
14033.500000000009
 20
6285.2917521017798
 30
0.0
 11
14033.500000000009
 21
9621.046000829243
 31
0.0
  0
LINE
  5
60589
  8
U3
 10
14056.500000000009
 20
6285.2917521017798
 30
0.0
 11
14056.500000000009
 21
9622.9394357098063
 31
0.0
  0
LINE
  5
6058A
  8
U3
 10
14105.000000000009
 20
6285.2917521017798
 30
0.0
 11
14105.000000000009
 21
9626.9321136101353
 31
0.0
  0
LINE
  5
6058B
  8
U3
 10
14074.500000000009
 20
6285.2917521017798
 30
0.0
 11
14074.500000000009
 21
9624.4212543119957
 31
0.0
  0
LINE
  5
6058C
  8
U3
 10
14060.500000000009
 20
6285.2917521017798
 30
0.0
 11
14060.500000000009
 21
9623.2687287325261
 31
0.0
  0
LINE
  5
6058D
  8
U3
 10
14103.000000000009
 20
6285.2917521017798
 30
0.0
 11
14103.000000000009
 21
9626.7674670987926
 31
0.0
  0
LINE
  5
6058E
  8
U3
 10
13656.500000000009
 20
6285.2917521017798
 30
0.0
 11
13656.500000000009
 21
9590.0101334390765
 31
0.0
  0
LINE
  5
6058F
  8
U3
 10
12856.500000000009
 20
6285.2917521017798
 30
0.0
 11
12856.500000000009
 21
9524.1515288976243
 31
0.0
  0
LINE
  5
60590
  8
U3
 10
13303.000000000009
 20
6285.2917521017798
 30
0.0
 11
13303.000000000009
 21
9560.9088625573349
 31
0.0
  0
LINE
  5
60591
  8
U3
 10
13260.500000000009
 20
6285.2917521017798
 30
0.0
 11
13260.500000000009
 21
9557.4101241910685
 31
0.0
  0
LINE
  5
60592
  8
U3
 10
13274.500000000009
 20
6285.2917521017798
 30
0.0
 11
13274.500000000009
 21
9558.562649770538
 31
0.0
  0
LINE
  5
60593
  8
U3
 10
13305.000000000009
 20
6285.2917521017798
 30
0.0
 11
13305.000000000009
 21
9561.0735090686794
 31
0.0
  0
LINE
  5
60594
  8
U3
 10
13256.500000000009
 20
6285.2917521017798
 30
0.0
 11
13256.500000000009
 21
9557.0808311683504
 31
0.0
  0
LINE
  5
60595
  8
U3
 10
13233.500000000009
 20
6285.2917521017798
 30
0.0
 11
13233.500000000009
 21
9555.1873962877871
 31
0.0
  0
LINE
  5
60596
  8
U3
 10
13229.500000000009
 20
6285.2917521017798
 30
0.0
 11
13229.500000000009
 21
9554.8581032650982
 31
0.0
  0
LINE
  5
60597
  8
U3
 10
13215.500000000009
 20
6285.2917521017798
 30
0.0
 11
13215.500000000009
 21
9553.7055776855996
 31
0.0
  0
LINE
  5
60598
  8
U3
 10
13185.000000000009
 20
6285.2917521017798
 30
0.0
 11
13185.000000000009
 21
9551.1947183874581
 31
0.0
  0
LINE
  5
60599
  8
U3
 10
13187.000000000009
 20
6285.2917521017798
 30
0.0
 11
13187.000000000009
 21
9551.3593648988317
 31
0.0
  0
LINE
  5
6059A
  8
U3
 10
13105.000000000009
 20
6285.2917521017798
 30
0.0
 11
13105.000000000009
 21
9544.6088579333318
 31
0.0
  0
LINE
  5
6059B
  8
U3
 10
13103.000000000009
 20
6285.2917521017798
 30
0.0
 11
13103.000000000009
 21
9544.4442114219564
 31
0.0
  0
LINE
  5
6059C
  8
U3
 10
13060.500000000009
 20
6285.2917521017798
 30
0.0
 11
13060.500000000009
 21
9540.945473055719
 31
0.0
  0
LINE
  5
6059D
  8
U3
 10
13074.500000000009
 20
6285.2917521017798
 30
0.0
 11
13074.500000000009
 21
9542.0979986351886
 31
0.0
  0
LINE
  5
6059E
  8
U3
 10
13056.500000000009
 20
6285.2917521017798
 30
0.0
 11
13056.500000000009
 21
9540.616180033001
 31
0.0
  0
LINE
  5
6059F
  8
U3
 10
13033.500000000009
 20
6285.2917521017798
 30
0.0
 11
13033.500000000009
 21
9538.7227451524395
 31
0.0
  0
LINE
  5
605A0
  8
U3
 10
13029.500000000009
 20
6285.2917521017798
 30
0.0
 11
13029.500000000009
 21
9538.3934521297197
 31
0.0
  0
LINE
  5
605A1
  8
U3
 10
13015.500000000009
 20
6285.2917521017798
 30
0.0
 11
13015.500000000009
 21
9537.2409265502502
 31
0.0
  0
LINE
  5
605A2
  8
U3
 10
12987.000000000009
 20
6285.2917521017798
 30
0.0
 11
12987.000000000009
 21
9534.8947137634532
 31
0.0
  0
LINE
  5
605A3
  8
U3
 10
12985.000000000009
 20
6285.2917521017798
 30
0.0
 11
12985.000000000009
 21
9534.7300672521087
 31
0.0
  0
LINE
  5
605A4
  8
U3
 10
12903.000000000009
 20
6285.2917521017798
 30
0.0
 11
12903.000000000009
 21
9527.9795602866088
 31
0.0
  0
LINE
  5
605A5
  8
U3
 10
12905.000000000009
 20
6285.2917521017798
 30
0.0
 11
12905.000000000009
 21
9528.1442067979515
 31
0.0
  0
LINE
  5
605A6
  8
U3
 10
12860.500000000009
 20
6285.2917521017798
 30
0.0
 11
12860.500000000009
 21
9524.4808219203405
 31
0.0
  0
LINE
  5
605A7
  8
U3
 10
12874.500000000009
 20
6285.2917521017798
 30
0.0
 11
12874.500000000009
 21
9525.6333474998119
 31
0.0
  0
LINE
  5
605A8
  8
U3
 10
13585.000000000009
 20
6285.2917521017798
 30
0.0
 11
13585.000000000009
 21
9584.1240206581842
 31
0.0
  0
LINE
  5
605A9
  8
U3
 10
13587.000000000009
 20
6285.2917521017798
 30
0.0
 11
13587.000000000009
 21
9584.2886671695596
 31
0.0
  0
LINE
  5
605AA
  8
U3
 10
13629.500000000009
 20
6285.2917521017798
 30
0.0
 11
13629.500000000009
 21
9587.7874055358243
 31
0.0
  0
LINE
  5
605AB
  8
U3
 10
13633.500000000009
 20
6285.2917521017798
 30
0.0
 11
13633.500000000009
 21
9588.1166985585151
 31
0.0
  0
LINE
  5
605AC
  8
U3
 10
13615.500000000009
 20
6285.2917521017798
 30
0.0
 11
13615.500000000009
 21
9586.6348799563275
 31
0.0
  0
LINE
  5
605AD
  8
U3
 10
13385.000000000009
 20
6285.2917521017798
 30
0.0
 11
13385.000000000009
 21
9567.6593695228366
 31
0.0
  0
LINE
  5
605AE
  8
U3
 10
13387.000000000009
 20
6285.2917521017798
 30
0.0
 11
13387.000000000009
 21
9567.8240160341811
 31
0.0
  0
LINE
  5
605AF
  8
U3
 10
13415.500000000009
 20
6285.2917521017798
 30
0.0
 11
13415.500000000009
 21
9570.1702288209799
 31
0.0
  0
LINE
  5
605B0
  8
U3
 10
13429.500000000009
 20
6285.2917521017798
 30
0.0
 11
13429.500000000009
 21
9571.3227544004476
 31
0.0
  0
LINE
  5
605B1
  8
U3
 10
13433.500000000009
 20
6285.2917521017798
 30
0.0
 11
13433.500000000009
 21
9571.6520474231656
 31
0.0
  0
LINE
  5
605B2
  8
U3
 10
13460.500000000009
 20
6285.2917521017798
 30
0.0
 11
13460.500000000009
 21
9573.8747753264488
 31
0.0
  0
LINE
  5
605B3
  8
U3
 10
13456.500000000009
 20
6285.2917521017798
 30
0.0
 11
13456.500000000009
 21
9573.5454823037271
 31
0.0
  0
LINE
  5
605B4
  8
U3
 10
13474.500000000009
 20
6285.2917521017798
 30
0.0
 11
13474.500000000009
 21
9575.0273009059165
 31
0.0
  0
LINE
  5
605B5
  8
U3
 10
13505.000000000009
 20
6285.2917521017798
 30
0.0
 11
13505.000000000009
 21
9577.5381602040579
 31
0.0
  0
LINE
  5
605B6
  8
U3
 10
13503.000000000009
 20
6285.2917521017798
 30
0.0
 11
13503.000000000009
 21
9577.3735136926844
 31
0.0
  0
LINE
  5
605B7
  8
U3
 10
12703.000000000009
 20
6285.2917521017798
 30
0.0
 11
12703.000000000009
 21
9511.5149091512285
 31
0.0
  0
LINE
  5
605B8
  8
U3
 10
12705.000000000009
 20
6285.2917521017798
 30
0.0
 11
12705.000000000009
 21
9511.6795556626003
 31
0.0
  0
LINE
  5
605B9
  8
U3
 10
12674.500000000009
 20
6285.2917521017798
 30
0.0
 11
12674.500000000009
 21
9509.1686963644606
 31
0.0
  0
LINE
  5
605BA
  8
U3
 10
12656.500000000009
 20
6285.2917521017798
 30
0.0
 11
12656.500000000009
 21
9507.6868777622731
 31
0.0
  0
LINE
  5
605BB
  8
U3
 10
12660.500000000009
 20
6285.2917521017798
 30
0.0
 11
12660.500000000009
 21
9508.0161707849911
 31
0.0
  0
LINE
  5
605BC
  8
U3
 10
12633.500000000009
 20
6285.2917521017798
 30
0.0
 11
12633.500000000009
 21
9505.7934428817098
 31
0.0
  0
LINE
  5
605BD
  8
U3
 10
12629.500000000009
 20
6285.2917521017798
 30
0.0
 11
12629.500000000009
 21
9505.4641498589917
 31
0.0
  0
LINE
  5
605BE
  8
U3
 10
12615.500000000009
 20
6285.2917521017798
 30
0.0
 11
12615.500000000009
 21
9504.3116242795204
 31
0.0
  0
LINE
  5
605BF
  8
U3
 10
12587.000000000009
 20
6285.2917521017798
 30
0.0
 11
12587.000000000009
 21
9501.9654114927234
 31
0.0
  0
LINE
  5
605C0
  8
U3
 10
12585.000000000009
 20
6285.2917521017798
 30
0.0
 11
12585.000000000009
 21
9501.8007649813808
 31
0.0
  0
LINE
  5
605C1
  8
U3
 10
12815.500000000009
 20
6285.2917521017798
 30
0.0
 11
12815.500000000009
 21
9520.7762754148716
 31
0.0
  0
LINE
  5
605C2
  8
U3
 10
12833.500000000009
 20
6285.2917521017798
 30
0.0
 11
12833.500000000009
 21
9522.2580940170592
 31
0.0
  0
LINE
  5
605C3
  8
U3
 10
12829.500000000009
 20
6285.2917521017798
 30
0.0
 11
12829.500000000009
 21
9521.9288009943721
 31
0.0
  0
LINE
  5
605C4
  8
U3
 10
12787.000000000009
 20
6285.2917521017798
 30
0.0
 11
12787.000000000009
 21
9518.4300626281038
 31
0.0
  0
LINE
  5
605C5
  8
U3
 10
12785.000000000009
 20
6285.2917521017798
 30
0.0
 11
12785.000000000009
 21
9518.2654161167302
 31
0.0
  0
LINE
  5
605C6
  8
U3
 10
12074.500000000009
 20
6285.2917521017798
 30
0.0
 11
12074.500000000009
 21
9459.7747429583542
 31
0.0
  0
LINE
  5
605C7
  8
U3
 10
12060.500000000009
 20
6285.2917521017798
 30
0.0
 11
12060.500000000009
 21
9458.6222173788865
 31
0.0
  0
LINE
  5
605C8
  8
U3
 10
12105.000000000009
 20
6285.2917521017798
 30
0.0
 11
12105.000000000009
 21
9462.2856022564956
 31
0.0
  0
LINE
  5
605C9
  8
U3
 10
12103.000000000009
 20
6285.2917521017798
 30
0.0
 11
12103.000000000009
 21
9462.1209557451512
 31
0.0
  0
LINE
  5
605CA
  8
U3
 10
12185.000000000009
 20
6285.2917521017798
 30
0.0
 11
12185.000000000009
 21
9468.8714627106528
 31
0.0
  0
LINE
  5
605CB
  8
U3
 10
12187.000000000009
 20
6285.2917521017798
 30
0.0
 11
12187.000000000009
 21
9469.0361092219973
 31
0.0
  0
LINE
  5
605CC
  8
U3
 10
12215.500000000009
 20
6285.2917521017798
 30
0.0
 11
12215.500000000009
 21
9471.3823220087943
 31
0.0
  0
LINE
  5
605CD
  8
U3
 10
12229.500000000009
 20
6285.2917521017798
 30
0.0
 11
12229.500000000009
 21
9472.5348475882638
 31
0.0
  0
LINE
  5
605CE
  8
U3
 10
12233.500000000009
 20
6285.2917521017798
 30
0.0
 11
12233.500000000009
 21
9472.8641406109818
 31
0.0
  0
LINE
  5
605CF
  8
U3
 10
12256.500000000009
 20
6285.2917521017798
 30
0.0
 11
12256.500000000009
 21
9474.7575754915451
 31
0.0
  0
LINE
  5
605D0
  8
U3
 10
12274.500000000009
 20
6285.2917521017798
 30
0.0
 11
12274.500000000009
 21
9476.2393940937327
 31
0.0
  0
LINE
  5
605D1
  8
U3
 10
12260.500000000009
 20
6285.2917521017798
 30
0.0
 11
12260.500000000009
 21
9475.0868685142632
 31
0.0
  0
LINE
  5
605D2
  8
U3
 10
12303.000000000009
 20
6285.2917521017798
 30
0.0
 11
12303.000000000009
 21
9478.5856068805297
 31
0.0
  0
LINE
  5
605D3
  8
U3
 10
12305.000000000009
 20
6285.2917521017798
 30
0.0
 11
12305.000000000009
 21
9478.7502533918741
 31
0.0
  0
LINE
  5
605D4
  8
U3
 10
12387.000000000009
 20
6285.2917521017798
 30
0.0
 11
12387.000000000009
 21
9485.5007603573758
 31
0.0
  0
LINE
  5
605D5
  8
U3
 10
12385.000000000009
 20
6285.2917521017798
 30
0.0
 11
12385.000000000009
 21
9485.3361138460023
 31
0.0
  0
LINE
  5
605D6
  8
U3
 10
12415.500000000009
 20
6285.2917521017798
 30
0.0
 11
12415.500000000009
 21
9487.8469731441437
 31
0.0
  0
LINE
  5
605D7
  8
U3
 10
12429.500000000009
 20
6285.2917521017798
 30
0.0
 11
12429.500000000009
 21
9488.9994987236405
 31
0.0
  0
LINE
  5
605D8
  8
U3
 10
12433.500000000009
 20
6285.2917521017798
 30
0.0
 11
12433.500000000009
 21
9489.3287917463313
 31
0.0
  0
LINE
  5
605D9
  8
U3
 10
12456.500000000009
 20
6285.2917521017798
 30
0.0
 11
12456.500000000009
 21
9491.2222266268927
 31
0.0
  0
LINE
  5
605DA
  8
U3
 10
12505.000000000009
 20
6285.2917521017798
 30
0.0
 11
12505.000000000009
 21
9495.2149045272236
 31
0.0
  0
LINE
  5
605DB
  8
U3
 10
12474.500000000009
 20
6285.2917521017798
 30
0.0
 11
12474.500000000009
 21
9492.7040452290821
 31
0.0
  0
LINE
  5
605DC
  8
U3
 10
12460.500000000009
 20
6285.2917521017798
 30
0.0
 11
12460.500000000009
 21
9491.5515196496126
 31
0.0
  0
LINE
  5
605DD
  8
U3
 10
12503.000000000009
 20
6285.2917521017798
 30
0.0
 11
12503.000000000009
 21
9495.0502580158791
 31
0.0
  0
LINE
  5
605DE
  8
U3
 10
12056.500000000009
 20
6285.2917521017798
 30
0.0
 11
12056.500000000009
 21
9458.2929243561666
 31
0.0
  0
LINE
  5
605DF
  8
U3
 10
11703.000000000009
 20
6285.2917521017798
 30
0.0
 11
11703.000000000009
 21
9429.1916534744232
 31
0.0
  0
LINE
  5
605E0
  8
U3
 10
11660.500000000009
 20
6285.2917521017798
 30
0.0
 11
11660.500000000009
 21
9425.6929151081567
 31
0.0
  0
LINE
  5
605E1
  8
U3
 10
11674.500000000009
 20
6285.2917521017798
 30
0.0
 11
11674.500000000009
 21
9426.8454406876263
 31
0.0
  0
LINE
  5
605E2
  8
U3
 10
11705.000000000009
 20
6285.2917521017798
 30
0.0
 11
11705.000000000009
 21
9429.3562999857677
 31
0.0
  0
LINE
  5
605E3
  8
U3
 10
11656.500000000009
 20
6285.2917521017798
 30
0.0
 11
11656.500000000009
 21
9425.3636220854387
 31
0.0
  0
LINE
  5
605E4
  8
U3
 10
11633.500000000009
 20
6285.2917521017798
 30
0.0
 11
11633.500000000009
 21
9423.4701872048754
 31
0.0
  0
LINE
  5
605E5
  8
U3
 10
11629.500000000009
 20
6285.2917521017798
 30
0.0
 11
11629.500000000009
 21
9423.1408941821865
 31
0.0
  0
LINE
  5
605E6
  8
U3
 10
11615.500000000009
 20
6285.2917521017798
 30
0.0
 11
11615.500000000009
 21
9421.9883686027169
 31
0.0
  0
LINE
  5
605E7
  8
U3
 10
11585.000000000009
 20
6285.2917521017798
 30
0.0
 11
11585.000000000009
 21
9419.4775093045464
 31
0.0
  0
LINE
  5
605E8
  8
U3
 10
11587.000000000009
 20
6285.2917521017798
 30
0.0
 11
11587.000000000009
 21
9419.6421558159182
 31
0.0
  0
LINE
  5
605E9
  8
U3
 10
11505.000000000009
 20
6285.2917521017798
 30
0.0
 11
11505.000000000009
 21
9412.8916488504183
 31
0.0
  0
LINE
  5
605EA
  8
U3
 10
11503.000000000009
 20
6285.2917521017798
 30
0.0
 11
11503.000000000009
 21
9412.7270023390738
 31
0.0
  0
LINE
  5
605EB
  8
U3
 10
11460.500000000009
 20
6285.2917521017798
 30
0.0
 11
11460.500000000009
 21
9409.2282639728055
 31
0.0
  0
LINE
  5
605EC
  8
U3
 10
11474.500000000009
 20
6285.2917521017798
 30
0.0
 11
11474.500000000009
 21
9410.380789552275
 31
0.0
  0
LINE
  5
605ED
  8
U3
 10
11456.500000000009
 20
6285.2917521017798
 30
0.0
 11
11456.500000000009
 21
9408.8989709500875
 31
0.0
  0
LINE
  5
605EE
  8
U3
 10
11433.500000000009
 20
6285.2917521017798
 30
0.0
 11
11433.500000000009
 21
9407.005536069526
 31
0.0
  0
LINE
  5
605EF
  8
U3
 10
11429.500000000009
 20
6285.2917521017798
 30
0.0
 11
11429.500000000009
 21
9406.6762430468079
 31
0.0
  0
LINE
  5
605F0
  8
U3
 10
11415.500000000009
 20
6285.2917521017798
 30
0.0
 11
11415.500000000009
 21
9405.5237174673366
 31
0.0
  0
LINE
  5
605F1
  8
U3
 10
11387.000000000009
 20
6285.2917521017798
 30
0.0
 11
11387.000000000009
 21
9403.1775046805415
 31
0.0
  0
LINE
  5
605F2
  8
U3
 10
11985.000000000009
 20
6285.2917521017798
 30
0.0
 11
11985.000000000009
 21
9452.4068115752743
 31
0.0
  0
LINE
  5
605F3
  8
U3
 10
11987.000000000009
 20
6285.2917521017798
 30
0.0
 11
11987.000000000009
 21
9452.5714580866479
 31
0.0
  0
LINE
  5
605F4
  8
U3
 10
12029.500000000009
 20
6285.2917521017798
 30
0.0
 11
12029.500000000009
 21
9456.0701964529144
 31
0.0
  0
LINE
  5
605F5
  8
U3
 10
12033.500000000009
 20
6285.2917521017798
 30
0.0
 11
12033.500000000009
 21
9456.3994894756033
 31
0.0
  0
LINE
  5
605F6
  8
U3
 10
12015.500000000009
 20
6285.2917521017798
 30
0.0
 11
12015.500000000009
 21
9454.9176708734176
 31
0.0
  0
LINE
  5
605F7
  8
U3
 10
11785.000000000009
 20
6285.2917521017798
 30
0.0
 11
11785.000000000009
 21
9435.9421604399249
 31
0.0
  0
LINE
  5
605F8
  8
U3
 10
11787.000000000009
 20
6285.2917521017798
 30
0.0
 11
11787.000000000009
 21
9436.1068069512694
 31
0.0
  0
LINE
  5
605F9
  8
U3
 10
11815.500000000009
 20
6285.2917521017798
 30
0.0
 11
11815.500000000009
 21
9438.4530197380682
 31
0.0
  0
LINE
  5
605FA
  8
U3
 10
11829.500000000009
 20
6285.2917521017798
 30
0.0
 11
11829.500000000009
 21
9439.6055453175377
 31
0.0
  0
LINE
  5
605FB
  8
U3
 10
11833.500000000009
 20
6285.2917521017798
 30
0.0
 11
11833.500000000009
 21
9439.9348383402557
 31
0.0
  0
LINE
  5
605FC
  8
U3
 10
11860.500000000009
 20
6285.2917521017798
 30
0.0
 11
11860.500000000009
 21
9442.1575662435353
 31
0.0
  0
LINE
  5
605FD
  8
U3
 10
11856.500000000009
 20
6285.2917521017798
 30
0.0
 11
11856.500000000009
 21
9441.8282732208172
 31
0.0
  0
LINE
  5
605FE
  8
U3
 10
11874.500000000009
 20
6285.2917521017798
 30
0.0
 11
11874.500000000009
 21
9443.3100918230066
 31
0.0
  0
LINE
  5
605FF
  8
U3
 10
11905.000000000009
 20
6285.2917521017798
 30
0.0
 11
11905.000000000009
 21
9445.8209511211462
 31
0.0
  0
LINE
  5
60600
  8
U3
 10
11903.000000000009
 20
6285.2917521017798
 30
0.0
 11
11903.000000000009
 21
9445.6563046098036
 31
0.0
  0
LINE
  5
60601
  8
U3
 10
16854.500000000011
 20
6285.2917521017798
 30
0.0
 11
11245.000000000009
 21
6285.2917521017798
 31
0.0
  0
LINE
  5
60602
  8
1PL-M1
 10
16816.000000000011
 20
4445.2917521017798
 30
0.0
 11
16816.000000000011
 21
6785.2917521017807
 31
0.0
  0
LINE
  5
60603
  8
1PL-M1
 10
11316.000000000009
 20
4445.2917521017798
 30
0.0
 11
11316.000000000009
 21
6785.2917521017807
 31
0.0
  0
LINE
  5
60604
  8
U1
 10
11196.499999999951
 20
6285.2917521017798
 30
0.0
 11
11196.499999999951
 21
5985.2917521017798
 31
0.0
  0
LINE
  5
60605
  8
U1
 10
16935.999999999949
 20
6285.2917521017798
 30
0.0
 11
11196.499999999951
 21
6285.2917521017798
 31
0.0
  0
LINE
  5
60606
  8
U1
 10
16936.000000000011
 20
6275.2917521017807
 30
0.0
 11
16936.000000000011
 21
6285.2917521017798
 31
0.0
  0
LINE
  5
60607
  8
U1
 10
16936.000000000011
 20
5985.2917521017798
 30
0.0
 11
16936.000000000011
 21
6285.2917521017798
 31
0.0
  0
LINE
  5
60608
  8
U1
 10
16925.726345596671
 20
8893.1654065050388
 30
0.0
 11
16924.099999999991
 21
8894.7917521017807
 31
0.0
  0
LINE
  5
60609
  8
U1
 10
17002.726345596959
 20
8970.1654065052717
 30
0.0
 11
16925.72634559673
 21
8893.1654065050661
 31
0.0
  0
ARC
  5
6060A
  8
U1
 10
16893.73402719247
 20
8889.7917521017807
 30
0.0
 40
5.0
 50
90.0
 51
145.56101069130941
  0
LINE
  5
6060B
  8
U1
 10
16889.610382933301
 20
8892.6193938795332
 30
0.0
 11
16868.58961706662
 21
8861.9641103240283
 31
0.0
  0
LINE
  5
6060C
  8
U1
 10
16924.099999999991
 20
8894.7917521017807
 30
0.0
 11
16893.73402719247
 21
8894.7917521017807
 31
0.0
  0
ARC
  5
6060D
  8
U1
 10
16864.465972807389
 20
8864.7917521017807
 30
0.0
 40
5.0
 50
270.0
 51
325.56101069130938
  0
LINE
  5
6060E
  8
U1
 10
16864.465972807389
 20
8859.7917521017807
 30
0.0
 11
16859.099999999991
 21
8859.7917521017807
 31
0.0
  0
LINE
  5
6060F
  8
U1
 10
22273.49999999996
 20
9363.2917521018098
 30
0.0
 11
22273.49999999996
 21
5985.2917521017798
 31
0.0
  0
LINE
  5
60610
  8
U1
 10
22358.49999999996
 20
5985.2917521017798
 30
0.0
 11
22358.49999999996
 21
9366.1123026301066
 31
0.0
  0
LINE
  5
60611
  8
U1
 10
19523.499999999949
 20
9363.2917521017807
 30
0.0
 11
19523.499999999949
 21
5985.2917521017798
 31
0.0
  0
LINE
  5
60612
  8
U1
 10
19608.49999999996
 20
5985.2917521017798
 30
0.0
 11
19608.49999999996
 21
9363.2917521018098
 31
0.0
  0
LINE
  5
60613
  8
1PL-M1
 10
19565.999999999949
 20
5206.8744580871607
 30
0.0
 11
19565.999999999949
 21
6791.2917521017807
 31
0.0
  0
LINE
  5
60614
  8
1PL-M1
 10
22315.99999999996
 20
4451.2917521017798
 30
0.0
 11
22315.99999999996
 21
6791.2917521017807
 31
0.0
  0
ARC
  5
60615
  8
U1
 10
16871.599999999991
 20
9014.8184822220228
 30
0.0
 40
5.0
 50
180.0
 51
270.0
  0
LINE
  5
60616
  8
U1
 10
17008.599999999929
 20
8969.8184822220228
 30
0.0
 11
17008.599999999929
 21
9363.2917521017807
 31
0.0
  0
LINE
  5
60617
  8
U1
 10
16866.599999999991
 20
9014.8184822220228
 30
0.0
 11
16866.599999999991
 21
9363.3077777840226
 31
0.0
  0
ARC
  5
60618
  8
U1
 10
19570.999999999902
 20
9368.2917521018098
 30
0.0
 40
5.0
 50
180.0
 51
270.0
  0
LINE
  5
60619
  8
U1
 10
19611.999999999902
 20
9363.2917521018098
 30
0.0
 11
19611.999999999902
 21
9360.2917521018098
 31
0.0
  0
LINE
  5
6061A
  8
U1
 10
19611.999999999902
 20
9360.2917521018098
 30
0.0
 11
22268.999999999902
 21
9360.2917521018098
 31
0.0
  0
LINE
  5
6061B
  8
U1
 10
22268.999999999902
 20
9363.2917521018098
 30
0.0
 11
22353.999999999902
 21
9363.2917521018098
 31
0.0
  0
LINE
  5
6061C
  8
U1
 10
22358.999999999902
 20
9368.2917521018098
 30
0.0
 11
22358.999999999902
 21
9471.4572048277914
 31
0.0
  0
ARC
  5
6061D
  8
U1
 10
22353.999999999902
 20
9368.2917521018098
 30
0.0
 40
5.0
 50
270.0
 51
0.0
  0
LINE
  5
6061E
  8
U1
 10
22268.999999999902
 20
9360.2917521018098
 30
0.0
 11
22268.999999999902
 21
9363.2917521018098
 31
0.0
  0
LINE
  5
6061F
  8
U1
 10
19570.999999999902
 20
9363.2917521018098
 30
0.0
 11
19611.999999999902
 21
9363.2917521018098
 31
0.0
  0
LINE
  5
60620
  8
U1
 10
17011.99999999996
 20
9360.2917521017807
 30
0.0
 11
19520.499999999949
 21
9360.2917521017807
 31
0.0
  0
LINE
  5
60621
  8
U1
 10
19520.499999999949
 20
9363.2917521017807
 30
0.0
 11
19560.999999999949
 21
9363.2917521017807
 31
0.0
  0
LINE
  5
60622
  8
U1
 10
19565.999999999949
 20
9368.2917521017807
 30
0.0
 11
19565.999999999902
 21
9533.9572048408882
 31
0.0
  0
ARC
  5
60623
  8
U1
 10
19560.999999999949
 20
9368.2917521017807
 30
0.0
 40
5.0
 50
270.0
 51
0.0
  0
LINE
  5
60624
  8
U1
 10
19520.499999999949
 20
9360.2917521017807
 30
0.0
 11
19520.499999999949
 21
9363.2917521017807
 31
0.0
  0
LINE
  5
60625
  8
U1
 10
17011.99999999996
 20
9363.2917521017807
 30
0.0
 11
17011.99999999996
 21
9360.2917521017807
 31
0.0
  0
LINE
  5
60626
  8
U1
 10
16866.999999999949
 20
9363.2917521017807
 30
0.0
 11
17011.99999999996
 21
9363.2917521017807
 31
0.0
  0
LINE
  5
60627
  8
U1
 10
22658.47856664834
 20
9642.7825503064232
 30
0.0
 11
22603.49294175582
 21
9644.0399504729012
 31
0.0
  0
LINE
  5
60628
  8
U1
 10
22667.858683819839
 20
9615.5609889652842
 30
0.0
 11
22665.813482908601
 21
9613.6072353388754
 31
0.0
  0
LINE
  5
60629
  8
U1
 10
22665.584864696499
 20
9603.6098489948072
 30
0.0
 11
22663.539663785268
 21
9601.6560953683675
 31
0.0
  0
LINE
  5
6062A
  8
U1
 10
22665.813482908601
 20
9613.6072353388754
 30
0.0
 11
22665.584864696499
 21
9603.6098489948072
 31
0.0
  0
LINE
  5
6062B
  8
U1
 10
22663.311045573169
 20
9591.6587090242683
 30
0.0
 11
22667.218552825991
 21
9587.5683072018001
 31
0.0
  0
LINE
  5
6062C
  8
U1
 10
22663.539663785268
 20
9601.6560953683675
 30
0.0
 11
22663.311045573169
 21
9591.6587090242683
 31
0.0
  0
LINE
  5
6062D
  8
U1
 10
22665.663948983842
 20
9519.5860800619266
 30
0.0
 11
22663.618748072611
 21
9517.6323264355742
 31
0.0
  0
LINE
  5
6062E
  8
U1
 10
22663.618748072611
 20
9517.6323264355742
 30
0.0
 11
22663.390129860509
 21
9507.6349400914478
 31
0.0
  0
LINE
  5
6062F
  8
U1
 10
22661.344928949271
 20
9505.6811864650663
 30
0.0
 11
22661.116310737169
 21
9495.6838001209417
 31
0.0
  0
LINE
  5
60630
  8
U1
 10
22661.116310737169
 20
9495.6838001209417
 30
0.0
 11
22665.02381798999
 21
9491.5933982984716
 31
0.0
  0
LINE
  5
60631
  8
U1
 10
22663.390129860509
 20
9507.6349400914478
 30
0.0
 11
22661.344928949271
 21
9505.6811864650663
 31
0.0
  0
LINE
  5
60632
  8
U1
 10
22665.663948983842
 20
9519.5860800619266
 30
0.0
 11
22667.218552825991
 21
9587.5683072018001
 31
0.0
  0
LINE
  5
60633
  8
U1
 10
22667.858683819839
 20
9615.5609889652842
 30
0.0
 11
22668.247334780361
 21
9632.5565457502234
 31
0.0
  0
LINE
  5
60634
  8
U1
 10
22654.409162473301
 20
9464.8290733815084
 30
0.0
 11
22618.418571634578
 21
9465.6520989450073
 31
0.0
  0
ARC
  5
60635
  8
U1
 10
22654.637780685342
 20
9474.8264597256057
 30
0.0
 40
10.0
 50
268.69000000004002
 51
358.69000000170951
  0
LINE
  5
60636
  8
U1
 10
22665.02381798999
 20
9491.5933982984716
 30
0.0
 11
22664.635167029472
 21
9474.5978415135323
 31
0.0
  0
LINE
  5
60637
  8
U1
 10
22658.47856664834
 20
9642.7825503064232
 30
0.0
 11
22603.49294175582
 21
9644.0399504729012
 31
0.0
  0
LINE
  5
60638
  8
U1
 10
22667.858683819839
 20
9615.5609889652842
 30
0.0
 11
22665.813482908601
 21
9613.6072353388754
 31
0.0
  0
LINE
  5
60639
  8
U1
 10
22665.584864696499
 20
9603.6098489948072
 30
0.0
 11
22663.539663785268
 21
9601.6560953683675
 31
0.0
  0
LINE
  5
6063A
  8
U1
 10
22665.813482908601
 20
9613.6072353388754
 30
0.0
 11
22665.584864696499
 21
9603.6098489948072
 31
0.0
  0
LINE
  5
6063B
  8
U1
 10
22663.311045573169
 20
9591.6587090242683
 30
0.0
 11
22667.218552825991
 21
9587.5683072018001
 31
0.0
  0
LINE
  5
6063C
  8
U1
 10
22663.539663785268
 20
9601.6560953683675
 30
0.0
 11
22663.311045573169
 21
9591.6587090242683
 31
0.0
  0
LINE
  5
6063D
  8
U1
 10
22665.663948983842
 20
9519.5860800619266
 30
0.0
 11
22663.618748072611
 21
9517.6323264355742
 31
0.0
  0
LINE
  5
6063E
  8
U1
 10
22663.618748072611
 20
9517.6323264355742
 30
0.0
 11
22663.390129860509
 21
9507.6349400914478
 31
0.0
  0
LINE
  5
6063F
  8
U1
 10
22661.344928949271
 20
9505.6811864650663
 30
0.0
 11
22661.116310737169
 21
9495.6838001209417
 31
0.0
  0
LINE
  5
60640
  8
U1
 10
22661.116310737169
 20
9495.6838001209417
 30
0.0
 11
22665.02381798999
 21
9491.5933982984716
 31
0.0
  0
LINE
  5
60641
  8
U1
 10
22663.390129860509
 20
9507.6349400914478
 30
0.0
 11
22661.344928949271
 21
9505.6811864650663
 31
0.0
  0
LINE
  5
60642
  8
U1
 10
22665.663948983842
 20
9519.5860800619266
 30
0.0
 11
22667.218552825991
 21
9587.5683072018001
 31
0.0
  0
LINE
  5
60643
  8
U1
 10
22667.858683819839
 20
9615.5609889652842
 30
0.0
 11
22668.247334780361
 21
9632.5565457502234
 31
0.0
  0
ARC
  5
60644
  8
U1
 10
22658.249948436289
 20
9632.7851639623259
 30
0.0
 40
10.0
 50
358.69000000170951
 51
88.690000000040044
  0
LINE
  5
60645
  8
U1
 10
22654.409162473301
 20
9464.8290733815084
 30
0.0
 11
22618.418571634578
 21
9465.6520989450073
 31
0.0
  0
ARC
  5
60646
  8
U1
 10
22654.637780685342
 20
9474.8264597256057
 30
0.0
 40
10.0
 50
268.69000000004002
 51
358.69000000170951
  0
LINE
  5
60647
  8
U1
 10
22665.02381798999
 20
9491.5933982984716
 30
0.0
 11
22664.635167029472
 21
9474.5978415135323
 31
0.0
  0
LINE
  5
60648
  8
U1
 10
23568.63816616308
 20
5985.2917521017798
 30
0.0
 11
10688.73284919509
 21
5985.2917521017798
 31
0.0
  0
LINE
  5
60649
  8
U1
 10
19569.593520646289
 20
9711.9213521780766
 30
0.0
 11
22640.824662335821
 21
9643.1952704036812
 31
0.0
  0
LINE
  5
6064A
  8
U1
 10
22636.842487024682
 20
9465.2398201365286
 30
0.0
 11
22640.824662335821
 21
9643.1952704036812
 31
0.0
  0
LINE
  5
6064B
  8
U1
 10
19568.989482818179
 20
9684.92810972179
 30
0.0
 11
22667.859199724349
 21
9615.5835492680926
 31
0.0
  0
LINE
  5
6064C
  8
U1
 10
19568.944739275332
 20
9682.9286102806072
 30
0.0
 11
22665.83556718858
 21
9613.6283321620576
 31
0.0
  0
LINE
  5
6064D
  8
U1
 10
19568.721021561261
 20
9672.9311130745773
 30
0.0
 11
22665.58535815544
 21
9603.6314277621132
 31
0.0
  0
LINE
  5
6064E
  8
U1
 10
19568.676278018411
 20
9670.9316136333655
 30
0.0
 11
22663.560743591759
 21
9601.6762326312473
 31
0.0
  0
LINE
  5
6064F
  8
U1
 10
19568.452560304329
 20
9660.9341164273355
 30
0.0
 11
22663.311516586531
 21
9591.6793062561337
 31
0.0
  0
LINE
  5
60650
  8
U1
 10
19568.363073218628
 20
9656.935117544941
 30
0.0
 11
22667.196522512371
 21
9587.5913686650892
 31
0.0
  0
LINE
  5
60651
  8
U1
 10
19566.215383163199
 20
9560.9591443671525
 30
0.0
 11
22665.00179893717
 21
9491.6164479738381
 31
0.0
  0
LINE
  5
60652
  8
U1
 10
19566.304870248841
 20
9564.9581432495452
 30
0.0
 11
22661.11678148686
 21
9495.7043858227698
 31
0.0
  0
LINE
  5
60653
  8
U1
 10
19566.528587962919
 20
9574.9556404555769
 30
0.0
 11
22661.36599695632
 21
9505.7013124560617
 31
0.0
  0
LINE
  5
60654
  8
U1
 10
19566.57333150577
 20
9576.9551398967888
 30
0.0
 11
22663.3906230557
 21
9507.6565073287784
 31
0.0
  0
LINE
  5
60655
  8
U1
 10
19566.797049219851
 20
9586.9526371027896
 30
0.0
 11
22663.640820553079
 21
9517.6534119868447
 31
0.0
  0
LINE
  5
60656
  8
U1
 10
19566.841792762702
 20
9588.9521365440014
 30
0.0
 11
22665.664464624671
 21
9519.6086288347287
 31
0.0
  0
LINE
  5
60657
  8
U1
 10
19565.611345335099
 20
9533.9659019108949
 30
0.0
 11
22636.842487024682
 21
9465.2398201365286
 31
0.0
  0
LINE
  5
60658
  8
U1
 10
19565.611345335099
 20
9533.9659019108949
 30
0.0
 11
19569.593520646289
 21
9711.9213521780766
 31
0.0
  0
LINE
  5
60659
  8
U1
 10
19569.593520646289
 20
9711.9213521780766
 30
0.0
 11
16909.259514124151
 21
9771.4526359035954
 31
0.0
  0
LINE
  5
6065A
  8
U1
 10
19568.989482818179
 20
9684.9281097218209
 30
0.0
 11
16873.65571412288
 21
9745.2425961456465
 31
0.0
  0
LINE
  5
6065B
  8
U1
 10
19568.944739275332
 20
9682.9286102806072
 30
0.0
 11
16875.608889918029
 21
9743.1983885201771
 31
0.0
  0
LINE
  5
6065C
  8
U1
 10
19568.721021561261
 20
9672.9311130745773
 30
0.0
 11
16875.382965647219
 21
9733.2009406910965
 31
0.0
  0
LINE
  5
6065D
  8
U1
 10
19568.676278018411
 20
9670.9316136333964
 30
0.0
 11
16877.335511112309
 21
9731.1567471707385
 31
0.0
  0
LINE
  5
6065E
  8
U1
 10
19568.452560304271
 20
9660.9341164273646
 30
0.0
 11
16877.110217171561
 21
9721.1592852365429
 31
0.0
  0
LINE
  5
6065F
  8
U1
 10
19568.363073218628
 20
9656.935117544941
 30
0.0
 11
16873.020161458891
 21
9717.2498085665447
 31
0.0
  0
LINE
  5
60660
  8
U1
 10
19566.21538316314
 20
9560.9591443671525
 30
0.0
 11
16870.842172544351
 21
9621.2745133975859
 31
0.0
  0
LINE
  5
60661
  8
U1
 10
19566.304870248779
 20
9564.9581432495761
 30
0.0
 11
16874.932233039592
 21
9625.1839899605693
 31
0.0
  0
LINE
  5
60662
  8
U1
 10
19566.528587962919
 20
9574.9556404556042
 30
0.0
 11
16875.157531759949
 21
9635.1814517878374
 31
0.0
  0
LINE
  5
60663
  8
U1
 10
19566.573331505711
 20
9576.9551398967888
 30
0.0
 11
16873.20498151525
 21
9637.2256454151211
 31
0.0
  0
LINE
  5
60664
  8
U1
 10
19566.797049219851
 20
9586.9526371028187
 30
0.0
 11
16873.43091056561
 21
9647.2230931372196
 31
0.0
  0
LINE
  5
60665
  8
U1
 10
19566.84179276264
 20
9588.9521365440305
 30
0.0
 11
16871.477729990918
 21
9649.2673008696747
 31
0.0
  0
LINE
  5
60666
  8
U1
 10
19565.611345335099
 20
9533.9659019108949
 30
0.0
 11
16905.277338812961
 21
9593.4971856364427
 31
0.0
  0
LINE
  5
60667
  8
U1
 10
19565.611345335099
 20
9533.9659019108949
 30
0.0
 11
19569.593520646289
 21
9711.9213521780766
 31
0.0
  0
ARC
  5
60668
  8
TOI
 10
22456.199999999972
 20
9397.2473631474859
 30
0.0
 40
50.0
 50
100.00000000048379
 51
180.0
  0
ARC
  5
60669
  8
TOI
 10
22555.3046636705
 20
9452.5976018900546
 30
0.0
 40
50.0
 50
280.00000000048391
 51
0.0
  0
LINE
  5
6066A
  8
TOI
 10
22535.996249349981
 20
9398.4216768963524
 30
0.0
 11
22525.108508610239
 21
9460.1691230102297
 31
0.0
  0
LINE
  5
6066B
  8
TOI
 10
22563.987072553849
 20
9403.3572142394405
 30
0.0
 11
22466.199999999972
 21
9386.1147149836597
 31
0.0
  0
LINE
  5
6066C
  8
TOI
 10
22447.517591116211
 20
9446.4877507980418
 30
0.0
 11
22544.804663670438
 21
9463.6420865635591
 31
0.0
  0
LINE
  5
6066D
  8
TOI
 10
22605.3046636705
 20
9464.6420865635882
 30
0.0
 11
22605.3046636705
 21
9452.5976018900546
 31
0.0
  0
LINE
  5
6066E
  8
U1
 10
16776.08999999992
 20
6285.2917521017798
 30
0.0
 11
16776.08999999992
 21
9846.8249386161788
 31
0.0
  0
LINE
  5
6066F
  8
U1
 10
17060.66496690701
 20
9768.016765530585
 30
0.0
 11
16862.31603321743
 21
9772.5179325114168
 31
0.0
  0
LINE
  5
60670
  8
U1
 10
17060.678579307169
 20
9768.6166110963259
 30
0.0
 11
16862.32964561753
 21
9773.1177780770377
 31
0.0
  0
ARC
  5
60671
  8
U1
 10
16862.352332951159
 20
9774.1175206863427
 30
0.0
 40
1.0
 50
178.69999999971679
 51
268.69999999971333
  0
ARC
  5
60672
  8
U1
 10
16862.352332951159
 20
9774.1175206863427
 30
0.0
 40
1.6000000000000001
 50
178.69999999971679
 51
268.69999999971333
  0
LINE
  5
60673
  8
U1
 10
16861.39706504975
 20
9802.5465105247713
 30
0.0
 11
16860.75274477627
 21
9774.1538204200751
 31
0.0
  0
LINE
  5
60674
  8
U1
 10
17060.678579307169
 20
9768.6166110963259
 30
0.0
 11
17060.66496690701
 21
9768.016765530585
 31
0.0
  0
LINE
  5
60675
  8
U1
 10
16861.99691061526
 20
9802.5328981246421
 30
0.0
 11
16861.35259034183
 21
9774.1402080199205
 31
0.0
  0
LINE
  5
60676
  8
U1
 10
16861.99691061526
 20
9802.5328981246421
 30
0.0
 11
16861.39706504975
 21
9802.5465105247713
 31
0.0
  0
LINE
  5
60677
  8
U1
 10
16874.063773912389
 20
9763.2379639213759
 30
0.0
 11
16873.655401907989
 21
9745.2425969535707
 31
0.0
  0
ARC
  5
60678
  8
U1
 10
16884.039075555349
 20
9762.0223931498349
 30
0.0
 40
10.0
 50
88.69999999971327
 51
178.69999999971679
  0
LINE
  5
60679
  8
U1
 10
16873.43152843598
 20
9647.2224465728086
 30
0.0
 11
16871.477417884518
 21
9649.2673064585979
 31
0.0
  0
LINE
  5
6067A
  8
U1
 10
16873.204655100199
 20
9637.2250204795691
 30
0.0
 11
16873.43152843598
 21
9647.2224465728086
 31
0.0
  0
LINE
  5
6067B
  8
U1
 10
16875.1587656517
 20
9635.1801605937799
 30
0.0
 11
16873.204655100199
 21
9637.2250204795691
 31
0.0
  0
LINE
  5
6067C
  8
U1
 10
16874.93189231593
 20
9625.182734500544
 30
0.0
 11
16875.1587656517
 21
9635.1801605937799
 31
0.0
  0
LINE
  5
6067D
  8
U1
 10
16870.842172544351
 20
9621.274513397555
 30
0.0
 11
16874.93189231593
 21
9625.182734500544
 31
0.0
  0
LINE
  5
6067E
  8
U1
 10
16871.477417884518
 20
9649.2673064585979
 30
0.0
 11
16873.020156567811
 21
9717.249803892526
 31
0.0
  0
LINE
  5
6067F
  8
U1
 10
16905.198230602971
 20
9592.4876565793966
 30
0.0
 11
16909.259514124151
 21
9771.4526359035954
 31
0.0
  0
LINE
  5
60680
  8
U1
 10
16909.259514124151
 20
9771.4526359035954
 30
0.0
 11
16884.26594889113
 21
9772.0198192430416
 31
0.0
  0
LINE
  5
60681
  8
U1
 10
16870.433800539951
 20
9603.279146429777
 30
0.0
 11
16870.842172544351
 21
9621.274513397555
 31
0.0
  0
LINE
  5
60682
  8
U1
 10
16877.1098763394
 20
9721.158024995515
 30
0.0
 11
16877.336749675171
 21
9731.1554510887509
 31
0.0
  0
LINE
  5
60683
  8
U1
 10
16873.020156567811
 20
9717.249803892526
 30
0.0
 11
16877.1098763394
 21
9721.158024995515
 31
0.0
  0
LINE
  5
60684
  8
U1
 10
16875.382639123662
 20
9733.2003109745419
 30
0.0
 11
16875.609512459439
 21
9743.1977370677796
 31
0.0
  0
LINE
  5
60685
  8
U1
 10
16877.336749675171
 20
9731.1554510887509
 30
0.0
 11
16875.382639123662
 21
9733.2003109745419
 31
0.0
  0
LINE
  5
60686
  8
U1
 10
16875.609512459439
 20
9743.1977370677796
 30
0.0
 11
16873.655401907989
 21
9745.2425969535707
 31
0.0
  0
ARC
  5
60687
  8
U1
 10
16880.431226633151
 20
9603.0522730939992
 30
0.0
 40
10.0
 50
178.69999999971679
 51
268.69999999971333
  0
LINE
  5
60688
  8
U1
 10
16905.197918530452
 20
9592.4876636613189
 30
0.0
 11
16880.204353297369
 21
9593.0548470007634
 31
0.0
  0
LINE
  5
60689
  8
TOI
 10
22471.199999999972
 20
6379.3512883093063
 30
0.0
 11
22471.199999999972
 21
6389.3512883093063
 31
0.0
  0
LINE
  5
6068A
  8
TOI
 10
22361.199999999972
 20
6389.3512883093063
 30
0.0
 11
22471.199999999972
 21
6389.3512883093063
 31
0.0
  0
LINE
  5
6068B
  8
TOI
 10
22361.199999999972
 20
6379.3512883093063
 30
0.0
 11
22471.199999999972
 21
6379.3512883093063
 31
0.0
  0
LINE
  5
6068C
  8
TOI
 10
22466.19999999991
 20
9358.1147149836615
 30
0.0
 11
22406.19999999991
 21
9358.1147149836615
 31
0.0
  0
LINE
  5
6068D
  8
TOI
 10
22494.190823203779
 20
9391.0502523267496
 30
0.0
 11
22483.303082464099
 21
9452.7976984405977
 31
0.0
  0
LINE
  5
6068E
  8
TOI
 10
22361.199999999972
 20
8958.1147149836615
 30
0.0
 11
22471.199999999972
 21
8958.1147149836615
 31
0.0
  0
LINE
  5
6068F
  8
TOI
 10
22361.199999999972
 20
8968.1147149836615
 30
0.0
 11
22471.199999999972
 21
8968.1147149836615
 31
0.0
  0
LINE
  5
60690
  8
TOI
 10
22471.199999999972
 20
8958.1147149836615
 30
0.0
 11
22471.199999999972
 21
8968.1147149836615
 31
0.0
  0
LINE
  5
60691
  8
TOI
 10
22471.199999999972
 20
7668.7330016464839
 30
0.0
 11
22471.199999999972
 21
7678.7330016464839
 31
0.0
  0
LINE
  5
60692
  8
TOI
 10
22361.199999999972
 20
7678.7330016464839
 30
0.0
 11
22471.199999999972
 21
7678.7330016464839
 31
0.0
  0
LINE
  5
60693
  8
TOI
 10
22361.199999999972
 20
7668.7330016464839
 30
0.0
 11
22471.199999999972
 21
7668.7330016464839
 31
0.0
  0
LINE
  5
60694
  8
TOI
 10
22466.199999999972
 20
6025.2917521017807
 30
0.0
 11
22466.19999999991
 21
9386.1147149836597
 31
0.0
  0
LINE
  5
60695
  8
TOI
 10
22406.199999999972
 20
6025.2917521017807
 30
0.0
 11
22466.199999999972
 21
6025.2917521017807
 31
0.0
  0
LINE
  5
60696
  8
TOI
 10
22406.199999999972
 20
6025.2917521017807
 30
0.0
 11
22406.199999999972
 21
9397.2473631474859
 31
0.0
  0
TEXT
  5
60697
  8
HIKIDASHI
 10
12075.197591624001
 20
5525.2917521017807
 30
0.0
 40
160.0
  1
壁 ヨドサイディング
  7
01
  0
LINE
  5
60698
  8
HIKIDASHI
 10
12058.72189976393
 20
5485.2917521017798
 30
0.0
 11
14603.649335926881
 21
5485.2917521017798
 31
0.0
  0
TEXT
  5
60699
  8
HIKIDASHI
 10
12384.656784468691
 20
10296.872704482739
 30
0.0
 40
160.0
  1
型断熱材付
  7
01
  0
LINE
  5
6069A
  8
HIKIDASHI
 10
11090.75424865169
 20
10496.872704482739
 30
0.0
 11
14046.54994973821
 21
10496.872704482739
 31
0.0
  0
TEXT
  5
6069B
  8
HIKIDASHI
 10
11150.107575982711
 20
10536.872704482739
 30
0.0
 40
160.0
  1
屋根板
  7
01
  0
TEXT
  5
6069C
  8
HIKIDASHI
 10
11150.107575982711
 20
10296.872704482739
 30
0.0
 40
160.0
  1
ヨドルーフ
  7
01
  0
TEXT
  5
6069D
  8
HIKIDASHI
 10
12134.2212812825
 20
10296.872704482739
 30
0.0
 40
160.0
  1
88
 41
0.6700000000000002
  7
00
  0
TEXT
  5
6069F
  8
HIKIDASHI
 10
14235.65870647436
 20
5525.2917521017807
 30
0.0
 40
160.0
  1
0.4
 41
0.6700000000000002
  7
00
  0
TEXT
  5
606A0
  8
HIKIDASHI
 10
13832.05608062319
 20
5525.2917521017807
 30
0.0
 40
160.0
  1
（
  7
01
  0
TEXT
  5
606A1
  8
HIKIDASHI
 10
14016.36062341563
 20
5545.2917521017807
 30
0.0
 40
120.0
  1
ア
  7
01
  0
CIRCLE
  5
606A2
  8
HIKIDASHI
 10
14067.73863584561
 20
5605.2917521017807
 30
0.0
 40
80.0
  0
LINE
  5
606A3
  8
HIKIDASHI
 10
15101.25103105955
 20
6427.0258846908264
 30
0.0
 11
14603.649335926881
 21
5485.2917521017798
 31
0.0
  0
TEXT
  5
606A4
  8
HIKIDASHI
 10
14496.81334673102
 20
5525.2917521017807
 30
0.0
 40
160.0
  1
）
  7
01
  0
LINE
  5
606A5
  8
HIKIDASHI
 10
14572.55426261872
 20
9968.7713057981309
 30
0.0
 11
14046.54994973821
 21
10496.872704482739
 31
0.0
  0
TEXT
  5
606A6
  8
HIKIDASHI
 10
13274.95669443447
 20
10296.872704482739
 30
0.0
 40
160.0
  1
（
  7
01
  0
TEXT
  5
606A7
  8
HIKIDASHI
 10
13459.26123722696
 20
10316.872704482739
 30
0.0
 40
120.0
  1
ア
  7
01
  0
CIRCLE
  5
606A8
  8
HIKIDASHI
 10
13510.63924965689
 20
10376.872704482739
 30
0.0
 40
80.0
  0
TEXT
  5
606A9
  8
HIKIDASHI
 10
13657.49950437493
 20
10296.872704482739
 30
0.0
 40
160.0
  1
0.5
 41
0.6700000000000002
  7
00
  0
TEXT
  5
606AA
  8
HIKIDASHI
 10
13939.7139605423
 20
10296.872704482739
 30
0.0
 40
160.0
  1
）
  7
01
  0
TEXT
  5
606AC
  8
HIKIDASHI
 10
18225.461093499049
 20
3480.588973363178
 30
0.0
 40
160.0
  1
80
 41
0.6700000000000002
  7
00
  0
TEXT
  5
606AD
  8
HIKIDASHI
 10
18066.596508245111
 20
3564.047591260126
 30
0.0
 40
160.0
  1
1
 41
0.6700000000000002
  7
00
  0
TEXT
  5
606AE
  8
HIKIDASHI
 10
18132.870783973729
 20
3532.9246357637312
 30
0.0
 40
160.0
  1
/
 41
0.6700000000000002
  7
00
  0
TEXT
  5
606AF
  8
HIKIDASHI
 10
18468.314005623881
 20
3532.9246357637312
 30
0.0
 40
160.0
  1
)
 41
0.6700000000000002
  7
00
  0
TEXT
  5
606B0
  8
HIKIDASHI
 10
17705.180676369771
 20
3532.9246357637312
 30
0.0
 40
160.0
  1
(S=
 41
0.6700000000000002
  7
00
  0
TEXT
  5
606B1
  8
HIKIDASHI
 10
15578.28784423503
 20
3485.2917521017812
 30
0.0
 40
240.0
  1
側 面 立 面 図
  7
01
  0
CIRCLE
  5
606B2
  8
SUNPOU
 10
11316.000000000009
 20
4245.2917521017798
 30
0.0
 40
200.0
  0
TEXT
  5
606B3
  8
SUNPOU
 10
11235.600000000009
 20
4125.2917521017798
 30
0.0
 40
240.0
  1
C
 41
0.6700000000000002
  7
00
 72
     4
 11
11316.000000000009
 21
4245.2917521017798
 31
0.0
  0
LINE
  5
606B4
  8
SUNPOU
 10
10118.35269704189
 20
9505.2917521017807
 30
0.0
 11
10118.35269704189
 21
6325.2917521017798
 31
0.0
  0
LINE
  5
606B5
  8
SUNPOU
 10
11146.700000000021
 20
6285.2917521017798
 30
0.0
 11
9998.3526970418898
 21
6285.2917521017798
 31
0.0
  0
TEXT
  5
606B7
  8
SUNPOU
 10
10038.35269704189
 20
7726.4155616256039
 30
0.0
 40
160.0
  1
3260
 50
90.0
 41
0.6700000000000002
  7
00
  0
LINE
  5
606B8
  8
SUNPOU
 10
10838.35269704189
 20
9545.2917521017807
 30
0.0
 11
9998.3526970418898
 21
9545.2917521017807
 31
0.0
  0
CIRCLE
  5
606BA
  8
SUNPOU
 10
16816.000000000011
 20
4245.2917521017798
 30
0.0
 40
200.0
  0
TEXT
  5
606BB
  8
SUNPOU
 10
16747.08571428572
 20
4125.2917521017798
 30
0.0
 40
240.0
  1
A
 41
0.6700000000000002
  7
00
 72
     4
 11
16816.000000000011
 21
4245.2917521017798
 31
0.0
  0
LINE
  5
606BC
  8
SUNPOU
 10
18049.753093279211
 20
10025.291752101781
 30
0.0
 11
18049.753093279211
 21
6325.2917521017798
 31
0.0
  0
TEXT
  5
606BE
  8
SUNPOU
 10
17969.753093279211
 20
7989.415561625603
 30
0.0
 40
160.0
  1
3780
 50
90.0
 41
0.6700000000000002
  7
00
  0
LINE
  5
606BF
  8
SUNPOU
 10
17314.985027643339
 20
10065.291752101781
 30
0.0
 11
18169.753093279211
 21
10065.291752101781
 31
0.0
  0
LINE
  5
606C1
  8
SUNPOU
 10
10859.76407180111
 20
10744.52791441195
 30
0.0
 11
17096.666111072831
 21
11257.96432968489
 31
0.0
  0
LINE
  5
606C2
  8
SUNPOU
 10
17228.42144291634
 20
10145.022043431571
 30
0.0
 11
17126.685879647161
 21
11380.84155904308
 31
0.0
  0
TEXT
  5
606C4
  8
SUNPOU
 10
13783.41208556086
 20
11065.48010238928
 30
0.0
 40
160.0
  1
6338
 50
4.7061111437861802
 41
0.6700000000000002
  7
00
  0
LINE
  5
606C5
  8
SUNPOU
 10
10911.789112314829
 20
9625.0220434315706
 30
0.0
 11
10810.05354904565
 21
10860.84155904308
 31
0.0
  0
LINE
  5
606C7
  8
SUNPOU
 10
16340.070510998379
 20
10500.40672552686
 30
0.0
 11
14740.070510998379
 21
10500.40672552686
 31
0.0
  0
LINE
  5
606C8
  8
SUNPOU
 10
14740.070510998379
 20
10368.690969970001
 30
0.0
 11
16340.070510998379
 21
10500.40672552686
 31
0.0
  0
TEXT
  5
606C9
  8
SUNPOU
 10
15381.91238300998
 20
10569.42250270709
 30
0.0
 40
160.0
  1
12
 41
0.6700000000000002
  7
00
  0
TEXT
  5
606CA
  8
SUNPOU
 10
14581.524157965339
 20
10344.34218447811
 30
0.0
 40
160.0
  1
1
 41
0.6700000000000002
  7
00
  0
LINE
  5
606CB
  8
SUNPOU
 10
14740.070510998379
 20
10500.40672552686
 30
0.0
 11
14740.070510998379
 21
10368.690969970001
 31
0.0
  0
TEXT
  5
606CC
  8
SUNPOU
 10
22197.714285714239
 20
4136.2917521017798
 30
0.0
 40
230.0
  1
A0
 41
0.6
  7
00
 72
     4
 11
22315.99999999996
 21
4251.2917521017807
 31
0.0
  0
CIRCLE
  5
606CD
  8
SUNPOU
 10
22315.99999999996
 20
4251.2917521017807
 30
0.0
 40
200.0
  0
LINE
  5
606D1
  8
SUNPOU
 10
17674.461403175039
 20
10447.06715688704
 30
0.0
 11
18794.461403175039
 21
10447.06715688704
 31
0.0
  0
LINE
  5
606D2
  8
SUNPOU
 10
18794.461403175039
 20
10422.00450024046
 30
0.0
 11
17674.461403175039
 21
10447.06715688704
 31
0.0
  0
TEXT
  5
606D3
  8
SUNPOU
 10
18188.038723776372
 20
10516.082934067281
 30
0.0
 40
160.0
  1
44
 41
0.6700000000000002
  7
00
  0
TEXT
  5
606D4
  8
SUNPOU
 10
18866.226803827129
 20
10343.45895566696
 30
0.0
 40
160.0
  1
1
 41
0.6700000000000002
  7
00
  0
LINE
  5
606D5
  8
SUNPOU
 10
18794.461403175039
 20
10447.06715688704
 30
0.0
 11
18794.461403175039
 21
10422.00450024046
 31
0.0
  0
TEXT
  5
606D8
  8
HIKIDASHI
 10
20886.006113692962
 20
10147.340522398221
 30
0.0
 40
160.0
  1
型断熱材付
  7
01
  0
LINE
  5
606D9
  8
HIKIDASHI
 10
19592.103577875951
 20
10347.340522398221
 30
0.0
 11
22547.899278962472
 21
10347.340522398221
 31
0.0
  0
TEXT
  5
606DA
  8
HIKIDASHI
 10
19651.456905206971
 20
10387.340522398221
 30
0.0
 40
160.0
  1
屋根板
  7
01
  0
TEXT
  5
606DB
  8
HIKIDASHI
 10
19651.456905206971
 20
10147.340522398221
 30
0.0
 40
160.0
  1
ヨドルーフ
  7
01
  0
TEXT
  5
606DC
  8
HIKIDASHI
 10
20635.570610506769
 20
10147.340522398221
 30
0.0
 40
160.0
  1
88
 41
0.6700000000000002
  7
00
  0
TEXT
  5
606DD
  8
HIKIDASHI
 10
21776.30602365873
 20
10147.340522398221
 30
0.0
 40
160.0
  1
（
  7
01
  0
TEXT
  5
606DE
  8
HIKIDASHI
 10
21960.610566451229
 20
10167.340522398221
 30
0.0
 40
120.0
  1
ア
  7
01
  0
CIRCLE
  5
606DF
  8
HIKIDASHI
 10
22011.988578881152
 20
10227.340522398221
 30
0.0
 40
80.0
  0
TEXT
  5
606E0
  8
HIKIDASHI
 10
22158.848833599201
 20
10147.340522398221
 30
0.0
 40
160.0
  1
0.5
 41
0.6700000000000002
  7
00
  0
TEXT
  5
606E1
  8
HIKIDASHI
 10
22441.06328976656
 20
10147.340522398221
 30
0.0
 40
160.0
  1
）
  7
01
  0
LINE
  5
606E3
  8
U1
 10
22273.49999999996
 20
5985.2917521017798
 30
0.0
 11
22273.49999999996
 21
5485.2917521017798
 31
0.0
  0
LINE
  5
606E4
  8
U1
 10
22358.49999999996
 20
5485.2917521017798
 30
0.0
 11
22358.49999999996
 21
5985.2917521017798
 31
0.0
  0
LINE
  5
606E5
  8
U1
 10
19523.499999999949
 20
5985.2917521017798
 30
0.0
 11
19523.499999999949
 21
5485.2917521017798
 31
0.0
  0
LINE
  5
606E6
  8
U1
 10
19608.49999999996
 20
5485.2917521017798
 30
0.0
 11
19608.49999999996
 21
5985.2917521017798
 31
0.0
  0
LINE
  5
606E7
  8
U1
 10
19523.499999999949
 20
5485.2917521017798
 30
0.0
 11
19608.49999999996
 21
5485.2917521017798
 31
0.0
  0
LINE
  5
606E8
  8
U1
 10
22273.49999999996
 20
5485.2917521017798
 30
0.0
 11
22358.49999999996
 21
5485.2917521017798
 31
0.0
  0
LINE
  5
606EB
  8
U1
 10
16871.599999999991
 20
9009.818482222021
 30
0.0
 11
16951.528932188041
 21
9009.8184822220028
 31
0.0
  0
LINE
  5
606EC
  8
U1
 10
17008.599999999991
 20
8969.8184822220228
 30
0.0
 11
16995.671067811822
 21
8969.8184822220228
 31
0.0
  0
ARC
  5
606ED
  8
U1
 10
16995.671067811822
 20
8974.818482222021
 30
0.0
 40
5.0
 50
225.000000000737
 51
270.0
  0
LINE
  5
606EE
  8
U1
 10
16955.064466093969
 20
9008.3540161279525
 30
0.0
 11
16992.135533905908
 21
8971.2829483160895
 31
0.0
  0
ARC
  5
606EF
  8
U1
 10
16951.528932188041
 20
9004.8184822220192
 30
0.0
 40
5.0
 50
45.000000000736947
 51
90.0
  0
TEXT
  5
606F1
  8
SUNPOU
 10
20961.3871066635
 20
6590.7099449986417
 30
0.0
 40
160.0
  1
下屋側面有効開口高サ
 50
90.0
  7
01
  0
LINE
  5
60906
  8
SUNPOU
 10
12531.000000000029
 20
14318.121500361291
 30
0.0
 11
21101.000000000011
 21
14318.121500361291
 31
0.0
  0
LINE
  5
60907
  8
SUNPOU
 10
12496.000000000029
 20
21298.121500361289
 30
0.0
 11
21136.000000000029
 21
21298.121500361289
 31
0.0
  0
LINE
  5
60908
  8
SUNPOU
 10
12531.000000000029
 20
20898.121500361289
 30
0.0
 11
21101.000000000011
 21
20898.121500361289
 31
0.0
  0
LINE
  5
60909
  8
SUNPOU
 10
15456.000000000009
 20
14718.121500361291
 30
0.0
 11
18176.000000000011
 21
14718.121500361291
 31
0.0
  0
TEXT
  5
6090A
  8
SUNPOU
 10
16627.12380952384
 20
14398.121500361291
 30
0.0
 40
160.0
  1
8650
 41
0.6700000000000002
  7
00
  0
TEXT
  5
6090B
  8
SUNPOU
 10
16627.12380952384
 20
20978.121500361289
 30
0.0
 40
160.0
  1
8650
 41
0.6700000000000002
  7
00
  0
TEXT
  5
6090C
  8
SUNPOU
 10
16627.12380952384
 20
21378.121500361289
 30
0.0
 40
160.0
  1
8720
 41
0.6700000000000002
  7
00
  0
LINE
  5
6090D
  8
U1
 10
12491.000000000029
 20
16318.121500361291
 30
0.0
 11
12573.500000000029
 21
16318.121500361291
 31
0.0
  0
LINE
  5
6090E
  8
U1
 10
12466.000000000029
 20
20098.121500361289
 30
0.0
 11
21166.000000000011
 21
20098.121500361289
 31
0.0
  0
LINE
  5
60910
  8
U1
 10
12466.000000000029
 20
19918.121500361289
 30
0.0
 11
21166.000000000011
 21
19918.121500361289
 31
0.0
  0
LINE
  5
60911
  8
U1
 10
12456.000000000029
 20
20058.121500361289
 30
0.0
 11
21176.000000000018
 21
20058.121500361289
 31
0.0
  0
LINE
  5
60912
  8
U1
 10
12456.000000000029
 20
20043.121500361289
 30
0.0
 11
21176.000000000018
 21
20043.121500361289
 31
0.0
  0
LINE
  5
60913
  8
U1
 10
12456.000000000029
 20
19973.121500361289
 30
0.0
 11
21176.000000000018
 21
19973.121500361289
 31
0.0
  0
LINE
  5
60914
  8
U1
 10
12456.000000000029
 20
19958.121500361289
 30
0.0
 11
21176.000000000018
 21
19958.121500361289
 31
0.0
  0
LINE
  5
60915
  8
1PL-M1
 10
12616.000000000029
 20
14078.121500361291
 30
0.0
 11
12616.000000000029
 21
16818.121500361289
 31
0.0
  0
LINE
  5
60916
  8
1PL-M1
 10
15416.000000000009
 20
14078.121500361291
 30
0.0
 11
15416.000000000009
 21
16818.121500361289
 31
0.0
  0
LINE
  5
60917
  8
SUNPOU
 10
12491.000000000029
 20
16238.121500361291
 30
0.0
 11
12491.000000000029
 21
14198.121500361291
 31
0.0
  0
CIRCLE
  5
60918
  8
SUNPOU
 10
12616.000000000029
 20
13878.121500361291
 30
0.0
 40
200.0
  0
TEXT
  5
60919
  8
SUNPOU
 10
12550.914285714311
 20
13758.121500361291
 30
0.0
 40
240.0
  1
1
 41
0.6700000000000002
  7
00
 72
     4
 11
12616.000000000029
 21
13878.121500361291
 31
0.0
  0
CIRCLE
  5
6091A
  8
SUNPOU
 10
15416.000000000029
 20
13878.121500361291
 30
0.0
 40
200.0
  0
TEXT
  5
6091B
  8
SUNPOU
 10
15339.4285714286
 20
13758.121500361291
 30
0.0
 40
240.0
  1
2
 41
0.6700000000000002
  7
00
 72
     4
 11
15416.000000000029
 21
13878.121500361291
 31
0.0
  0
LINE
  5
6091E
  8
U1
 10
12664.29427045181
 20
19918.691127034319
 30
0.0
 11
12664.29427045181
 21
19689.121500361289
 31
0.0
  0
LINE
  5
6091F
  8
U1
 10
12491.000000000029
 20
16318.121500361291
 30
0.0
 11
12491.000000000029
 21
19470.556065383062
 31
0.0
  0
LINE
  5
60920
  8
U1
 10
12722.0
 20
16318.121500361291
 30
0.0
 11
12722.0
 21
19374.555091614991
 31
0.0
  0
LINE
  5
60921
  8
U1
 10
15310.000000000029
 20
16318.121500361291
 30
0.0
 11
15310.000000000029
 21
19374.555091614991
 31
0.0
  0
LINE
  5
60922
  8
U1
 10
15355.500000000029
 20
16318.121500361291
 30
0.0
 11
15355.500000000029
 21
19374.555091614991
 31
0.0
  0
LINE
  5
60923
  8
U1
 10
15476.50000000004
 20
16318.121500361291
 30
0.0
 11
15476.500000000029
 21
19374.555091614991
 31
0.0
  0
LINE
  5
60924
  8
U1
 10
15522.000000000029
 20
16318.121500361291
 30
0.0
 11
15522.000000000029
 21
19374.555091614991
 31
0.0
  0
LINE
  5
60925
  8
SUNPOU
 10
12656.000000000029
 20
14718.121500361291
 30
0.0
 11
15376.000000000009
 21
14718.121500361291
 31
0.0
  0
TEXT
  5
60926
  8
SUNPOU
 10
14115.99200123544
 20
14798.121500361291
 30
0.0
 40
160.0
  1
2800
 41
0.6700000000000002
  7
00
  0
LINE
  5
60929
  8
SUNPOU
 10
12491.000000000009
 20
14718.121500361291
 30
0.0
 11
12049.65262541415
 21
14718.121500361291
 31
0.0
  0
TEXT
  5
6092A
  8
SUNPOU
 10
12122.72206390972
 20
14798.121500361291
 30
0.0
 40
160.0
  1
125
 41
0.6700000000000002
  7
00
  0
LINE
  5
6092F
  8
SUNPOU
 10
12531.000000000009
 20
14718.121500361291
 30
0.0
 11
12576.000000000029
 21
14718.121500361291
 31
0.0
  0
TEXT
  5
60930
  8
SUNPOU
 10
13469.506315504261
 20
14798.121500361291
 30
0.0
 40
160.0
  1
柱芯寸
  7
01
  0
TEXT
  5
60933
  8
SUNPOU
 10
16269.506315504241
 20
14798.121500361291
 30
0.0
 40
160.0
  1
柱芯寸
  7
01
  0
LINE
  5
60934
  8
SUNPOU
 10
12456.000000000029
 20
20178.121500361289
 30
0.0
 11
12456.000000000029
 21
21418.121500361289
 31
0.0
  0
LINE
  5
60935
  8
SUNPOU
 10
12491.000000000029
 20
20178.121500361289
 30
0.0
 11
12491.000000000029
 21
21018.121500361289
 31
0.0
  0
LINE
  5
60936
  8
U1
 10
12456.000000000029
 20
19928.121500361289
 30
0.0
 11
12456.000000000029
 21
20088.121500361289
 31
0.0
  0
ARC
  5
60939
  8
U1
 10
12466.000000000029
 20
19928.121500361289
 30
0.0
 40
10.0
 50
180.0
 51
270.0
  0
ARC
  5
6093A
  8
U1
 10
12466.000000000029
 20
20088.121500361289
 30
0.0
 40
10.0
 50
90.0
 51
180.0
  0
TEXT
  5
6093B
  8
SUNPOU
 10
12162.43809523812
 20
20978.121500361289
 30
0.0
 40
160.0
  1
35
 41
0.6700000000000002
  7
00
  0
LINE
  5
6093C
  8
SUNPOU
 10
12396.000000000029
 20
20898.121500361289
 30
0.0
 11
12110.821373939059
 21
20898.121500361289
 31
0.0
  0
LINE
  5
60940
  8
U1
 10
15541.000000000009
 20
19918.121500361289
 30
0.0
 11
15541.000000000009
 21
20098.121500361289
 31
0.0
  0
LINE
  5
60941
  8
1PL-M1
 10
21016.000000000018
 20
14078.121500361291
 30
0.0
 11
21016.000000000018
 21
16818.121500361289
 31
0.0
  0
LINE
  5
60942
  8
1PL-M1
 10
18216.000000000011
 20
14078.121500361291
 30
0.0
 11
18216.000000000011
 21
16818.121500361289
 31
0.0
  0
LINE
  5
60943
  8
SUNPOU
 10
21141.000000000011
 20
16238.121500361291
 30
0.0
 11
21141.000000000011
 21
14198.121500361291
 31
0.0
  0
CIRCLE
  5
60944
  8
SUNPOU
 10
18216.000000000029
 20
13878.121500361291
 30
0.0
 40
200.0
  0
TEXT
  5
60945
  8
SUNPOU
 10
18139.428571428602
 20
13758.121500361291
 30
0.0
 40
240.0
  1
3
 41
0.6700000000000002
  7
00
 72
     4
 11
18216.000000000029
 21
13878.121500361291
 31
0.0
  0
CIRCLE
  5
60946
  8
SUNPOU
 10
21016.00000000004
 20
13878.121500361291
 30
0.0
 40
200.0
  0
TEXT
  5
60947
  8
SUNPOU
 10
20935.600000000039
 20
13758.121500361291
 30
0.0
 40
240.0
  1
4
 41
0.6700000000000002
  7
00
 72
     4
 11
21016.00000000004
 21
13878.121500361291
 31
0.0
  0
LINE
  5
60948
  8
U1
 10
20967.705729548248
 20
19918.121500361289
 30
0.0
 11
20967.705729548248
 21
19689.121500361289
 31
0.0
  0
LINE
  5
60949
  8
U1
 10
21141.000000000011
 20
16318.121500361291
 30
0.0
 11
21141.000000000011
 21
19470.556065383062
 31
0.0
  0
LINE
  5
6094A
  8
U1
 10
18161.000000000011
 20
16318.121500361291
 30
0.0
 11
18161.000000000011
 21
19374.555091614991
 31
0.0
  0
LINE
  5
6094B
  8
U1
 10
18110.000000000029
 20
16318.121500361291
 30
0.0
 11
18110.000000000029
 21
19374.555091614991
 31
0.0
  0
LINE
  5
6094C
  8
U1
 10
18271.000000000011
 20
16318.121500361291
 30
0.0
 11
18271.000000000011
 21
19374.555091614991
 31
0.0
  0
LINE
  5
6094D
  8
U1
 10
18322.000000000029
 20
16318.121500361291
 30
0.0
 11
18322.000000000029
 21
19374.555091614991
 31
0.0
  0
LINE
  5
6094E
  8
U1
 10
20910.000000000058
 20
16318.121500361291
 30
0.0
 11
20910.000000000058
 21
19374.555091614991
 31
0.0
  0
LINE
  5
60950
  8
SUNPOU
 10
18362.000000000029
 20
15518.121500361291
 30
0.0
 11
20870.000000000058
 21
15518.121500361291
 31
0.0
  0
LINE
  5
60951
  8
SUNPOU
 10
18256.000000000011
 20
14718.121500361291
 30
0.0
 11
20976.000000000018
 21
14718.121500361291
 31
0.0
  0
TEXT
  5
60952
  8
SUNPOU
 10
19069.506315504241
 20
14798.121500361291
 30
0.0
 40
160.0
  1
柱芯寸
  7
01
  0
TEXT
  5
60953
  8
SUNPOU
 10
16915.992001235441
 20
14798.121500361291
 30
0.0
 40
160.0
  1
2800
 41
0.6700000000000002
  7
00
  0
LINE
  5
60954
  8
SUNPOU
 10
18322.000000000029
 20
16238.121500361291
 30
0.0
 11
18322.000000000029
 21
15398.121500361291
 31
0.0
  0
TEXT
  5
60959
  8
SUNPOU
 10
19715.992001235441
 20
14798.121500361291
 30
0.0
 40
160.0
  1
2800
 41
0.6700000000000002
  7
00
  0
LINE
  5
6095B
  8
SUNPOU
 10
20910.000000000058
 20
16238.121500361291
 30
0.0
 11
20910.000000000058
 21
15398.121500361291
 31
0.0
  0
LINE
  5
6095C
  8
SUNPOU
 10
21016.000000000018
 20
14718.121500361291
 30
0.0
 11
21582.347374585908
 21
14718.121500361291
 31
0.0
  0
TEXT
  5
6095D
  8
SUNPOU
 10
21254.039840852231
 20
14798.121500361291
 30
0.0
 40
160.0
  1
125
 41
0.6700000000000002
  7
00
  0
LINE
  5
60964
  8
U1
 10
18341.000000000011
 20
19918.121500361289
 30
0.0
 11
18341.000000000011
 21
20098.121500361289
 31
0.0
  0
LINE
  5
60965
  8
SUNPOU
 10
21176.000000000029
 20
20178.121500361289
 30
0.0
 11
21176.000000000029
 21
21418.121500361289
 31
0.0
  0
LINE
  5
60966
  8
SUNPOU
 10
21141.000000000011
 20
20178.121500361289
 30
0.0
 11
21141.000000000011
 21
21018.121500361289
 31
0.0
  0
LINE
  5
60967
  8
U1
 10
21176.000000000018
 20
19928.121500361289
 30
0.0
 11
21176.000000000018
 21
20088.121500361289
 31
0.0
  0
ARC
  5
6096A
  8
U1
 10
21166.000000000011
 20
19928.121500361289
 30
0.0
 40
10.0
 50
270.0
 51
0.0
  0
ARC
  5
6096B
  8
U1
 10
21166.000000000011
 20
20088.121500361289
 30
0.0
 40
10.0
 50
0.0
 51
90.0
  0
TEXT
  5
6096C
  8
SUNPOU
 10
21296.000000000029
 20
20978.121500361289
 30
0.0
 40
160.0
  1
35
 41
0.6700000000000002
  7
00
  0
LINE
  5
6096D
  8
SUNPOU
 10
21236.000000000029
 20
20898.121500361289
 30
0.0
 11
21521.178626060992
 21
20898.121500361289
 31
0.0
  0
LINE
  5
60971
  8
SUNPOU
 10
12376.000000000029
 20
19488.121500361289
 30
0.0
 11
11571.000000000029
 21
19488.121500361289
 31
0.0
  0
LINE
  5
60972
  8
SUNPOU
 10
12376.000000000029
 20
20098.121500361289
 30
0.0
 11
11171.000000000029
 21
20098.121500361289
 31
0.0
  0
LINE
  5
60973
  8
SUNPOU
 10
12411.000000000029
 20
16318.121500361291
 30
0.0
 11
11171.000000000029
 21
16318.121500361291
 31
0.0
  0
LINE
  5
60974
  8
SUNPOU
 10
11291.000000000029
 20
16358.121500361291
 30
0.0
 11
11291.000000000029
 21
20058.121500361289
 31
0.0
  0
LINE
  5
60975
  8
SUNPOU
 10
11691.000000000029
 20
16358.121500361291
 30
0.0
 11
11691.000000000029
 21
19448.121500361289
 31
0.0
  0
TEXT
  5
60976
  8
SUNPOU
 10
11211.000000000029
 20
18019.2453098851
 30
0.0
 40
160.0
  1
3780
 50
90.0
 41
0.6700000000000002
  7
00
  0
LINE
  5
6097D
  8
U1
 10
12722.0
 20
16459.721500361291
 30
0.0
 11
15310.00000000004
 21
16459.721500361291
 31
0.0
  0
LINE
  5
6097E
  8
U1
 10
12722.0
 20
16530.52150036129
 30
0.0
 11
15310.00000000004
 21
16530.52150036129
 31
0.0
  0
LINE
  5
6097F
  8
U1
 10
12722.0
 20
16601.32150036129
 30
0.0
 11
15310.00000000004
 21
16601.32150036129
 31
0.0
  0
LINE
  5
60980
  8
U1
 10
12722.0
 20
16672.121500361289
 30
0.0
 11
15310.00000000004
 21
16672.121500361289
 31
0.0
  0
LINE
  5
60981
  8
U1
 10
12722.0
 20
16742.921500361292
 30
0.0
 11
15310.00000000004
 21
16742.921500361292
 31
0.0
  0
LINE
  5
60982
  8
U1
 10
12722.0
 20
16813.72150036128
 30
0.0
 11
15310.00000000004
 21
16813.72150036128
 31
0.0
  0
LINE
  5
60983
  8
U1
 10
12722.0
 20
16884.52150036129
 30
0.0
 11
15310.00000000004
 21
16884.52150036129
 31
0.0
  0
LINE
  5
60984
  8
U1
 10
12722.0
 20
16955.32150036129
 30
0.0
 11
15310.00000000004
 21
16955.32150036129
 31
0.0
  0
LINE
  5
60985
  8
U1
 10
12722.0
 20
17026.121500361289
 30
0.0
 11
15310.00000000004
 21
17026.121500361289
 31
0.0
  0
LINE
  5
60986
  8
U1
 10
12722.0
 20
17096.921500361292
 30
0.0
 11
15310.00000000004
 21
17096.921500361292
 31
0.0
  0
LINE
  5
60987
  8
U1
 10
12722.0
 20
17167.721500361291
 30
0.0
 11
15310.00000000004
 21
17167.721500361291
 31
0.0
  0
LINE
  5
60988
  8
U1
 10
12722.0
 20
17238.52150036129
 30
0.0
 11
15310.00000000004
 21
17238.52150036129
 31
0.0
  0
LINE
  5
60989
  8
U1
 10
12722.000000000029
 20
17309.32150036129
 30
0.0
 11
15310.00000000004
 21
17309.32150036129
 31
0.0
  0
LINE
  5
6098A
  8
U1
 10
12722.000000000029
 20
18088.121500361289
 30
0.0
 11
15310.00000000004
 21
18088.121500361289
 31
0.0
  0
LINE
  5
6098B
  8
U1
 10
12722.000000000029
 20
18017.32150036129
 30
0.0
 11
15310.00000000004
 21
18017.32150036129
 31
0.0
  0
LINE
  5
6098C
  8
U1
 10
12722.000000000029
 20
17946.52150036129
 30
0.0
 11
15310.00000000004
 21
17946.52150036129
 31
0.0
  0
LINE
  5
6098D
  8
U1
 10
12722.000000000029
 20
17875.721500361291
 30
0.0
 11
15310.00000000004
 21
17875.721500361291
 31
0.0
  0
LINE
  5
6098E
  8
U1
 10
12722.000000000029
 20
17804.921500361292
 30
0.0
 11
15310.00000000004
 21
17804.921500361292
 31
0.0
  0
LINE
  5
6098F
  8
U1
 10
12722.000000000029
 20
17734.121500361289
 30
0.0
 11
15310.00000000004
 21
17734.121500361289
 31
0.0
  0
LINE
  5
60990
  8
U1
 10
12722.000000000029
 20
17663.32150036129
 30
0.0
 11
15310.00000000004
 21
17663.32150036129
 31
0.0
  0
LINE
  5
60991
  8
U1
 10
12722.000000000029
 20
17592.52150036129
 30
0.0
 11
15310.00000000004
 21
17592.52150036129
 31
0.0
  0
LINE
  5
60992
  8
U1
 10
12722.000000000029
 20
17521.721500361291
 30
0.0
 11
15310.00000000004
 21
17521.721500361291
 31
0.0
  0
LINE
  5
60993
  8
U1
 10
12722.000000000029
 20
17450.921500361292
 30
0.0
 11
15310.00000000004
 21
17450.921500361292
 31
0.0
  0
LINE
  5
60994
  8
U1
 10
12722.000000000029
 20
17380.121500361289
 30
0.0
 11
15310.00000000004
 21
17380.121500361289
 31
0.0
  0
LINE
  5
60995
  8
U1
 10
12722.000000000009
 20
18158.921500361292
 30
0.0
 11
15310.00000000004
 21
18158.921500361292
 31
0.0
  0
LINE
  5
60996
  8
U1
 10
12722.0
 20
16388.921500361292
 30
0.0
 11
15310.00000000004
 21
16388.921500361292
 31
0.0
  0
LINE
  5
60997
  8
U1
 10
12722.000000000009
 20
18229.721500361291
 30
0.0
 11
15310.00000000004
 21
18229.721500361291
 31
0.0
  0
LINE
  5
60998
  8
U1
 10
12722.000000000009
 20
18300.52150036129
 30
0.0
 11
15310.00000000004
 21
18300.52150036129
 31
0.0
  0
LINE
  5
60999
  8
U1
 10
12722.000000000009
 20
18512.921500361292
 30
0.0
 11
15310.00000000004
 21
18512.921500361292
 31
0.0
  0
LINE
  5
6099A
  8
U1
 10
12722.000000000009
 20
18442.121500361289
 30
0.0
 11
15310.00000000004
 21
18442.121500361289
 31
0.0
  0
LINE
  5
6099B
  8
U1
 10
12722.000000000009
 20
18371.32150036129
 30
0.0
 11
15310.00000000004
 21
18371.32150036129
 31
0.0
  0
LINE
  5
6099C
  8
U1
 10
12722.000000000009
 20
18866.921500361281
 30
0.0
 11
15310.00000000004
 21
18866.921500361281
 31
0.0
  0
LINE
  5
6099D
  8
U1
 10
12722.000000000009
 20
18937.72150036128
 30
0.0
 11
15310.00000000004
 21
18937.72150036128
 31
0.0
  0
LINE
  5
6099E
  8
U1
 10
12722.000000000009
 20
19008.521500361279
 30
0.0
 11
15310.00000000004
 21
19008.521500361279
 31
0.0
  0
LINE
  5
6099F
  8
U1
 10
12722.000000000009
 20
18796.121500361282
 30
0.0
 11
15310.00000000004
 21
18796.121500361282
 31
0.0
  0
LINE
  5
609A0
  8
U1
 10
12722.000000000009
 20
18725.321500361279
 30
0.0
 11
15310.00000000004
 21
18725.321500361279
 31
0.0
  0
LINE
  5
609A1
  8
U1
 10
12722.000000000009
 20
18654.521500361279
 30
0.0
 11
15310.00000000004
 21
18654.521500361279
 31
0.0
  0
LINE
  5
609A2
  8
U1
 10
12722.000000000009
 20
18583.72150036128
 30
0.0
 11
15310.00000000004
 21
18583.72150036128
 31
0.0
  0
LINE
  5
609A3
  8
U1
 10
12722.000000000009
 20
19079.321500361279
 30
0.0
 11
15310.000000000029
 21
19079.321500361279
 31
0.0
  0
LINE
  5
609A4
  8
U1
 10
12722.000000000009
 20
19150.121500361282
 30
0.0
 11
15310.000000000029
 21
19150.121500361282
 31
0.0
  0
LINE
  5
609A5
  8
U1
 10
12722.000000000009
 20
19220.921500361281
 30
0.0
 11
15310.000000000029
 21
19220.921500361281
 31
0.0
  0
LINE
  5
609A7
  8
U1
 10
12722.0
 20
19362.521500361279
 30
0.0
 11
15310.000000000029
 21
19362.521500361279
 31
0.0
  0
LINE
  5
609A8
  8
U1
 10
12722.0
 20
19291.72150036128
 30
0.0
 11
15310.000000000029
 21
19291.72150036128
 31
0.0
  0
LINE
  5
609A9
  8
U1
 10
15522.000000000029
 20
19291.72150036128
 30
0.0
 11
18110.000000000029
 21
19291.72150036128
 31
0.0
  0
LINE
  5
609AA
  8
U1
 10
15522.000000000029
 20
19362.521500361279
 30
0.0
 11
18110.000000000029
 21
19362.521500361279
 31
0.0
  0
LINE
  5
609AC
  8
U1
 10
15522.000000000029
 20
19220.921500361281
 30
0.0
 11
18110.000000000029
 21
19220.921500361281
 31
0.0
  0
LINE
  5
609AD
  8
U1
 10
15522.000000000029
 20
19150.121500361282
 30
0.0
 11
18110.000000000029
 21
19150.121500361282
 31
0.0
  0
LINE
  5
609AE
  8
U1
 10
15522.000000000029
 20
19079.321500361279
 30
0.0
 11
18110.000000000029
 21
19079.321500361279
 31
0.0
  0
LINE
  5
609AF
  8
U1
 10
15522.00000000004
 20
18583.72150036128
 30
0.0
 11
18110.00000000004
 21
18583.72150036128
 31
0.0
  0
LINE
  5
609B0
  8
U1
 10
15522.00000000004
 20
18654.521500361279
 30
0.0
 11
18110.00000000004
 21
18654.521500361279
 31
0.0
  0
LINE
  5
609B1
  8
U1
 10
15522.00000000004
 20
18725.321500361279
 30
0.0
 11
18110.00000000004
 21
18725.321500361279
 31
0.0
  0
LINE
  5
609B2
  8
U1
 10
15522.00000000004
 20
18796.121500361282
 30
0.0
 11
18110.00000000004
 21
18796.121500361282
 31
0.0
  0
LINE
  5
609B3
  8
U1
 10
15522.00000000004
 20
19008.521500361279
 30
0.0
 11
18110.000000000029
 21
19008.521500361279
 31
0.0
  0
LINE
  5
609B4
  8
U1
 10
15522.00000000004
 20
18937.72150036128
 30
0.0
 11
18110.000000000029
 21
18937.72150036128
 31
0.0
  0
LINE
  5
609B5
  8
U1
 10
15522.00000000004
 20
18866.921500361281
 30
0.0
 11
18110.000000000029
 21
18866.921500361281
 31
0.0
  0
LINE
  5
609B6
  8
U1
 10
15522.00000000004
 20
18371.32150036129
 30
0.0
 11
18110.00000000004
 21
18371.32150036129
 31
0.0
  0
LINE
  5
609B7
  8
U1
 10
15522.00000000004
 20
18442.121500361289
 30
0.0
 11
18110.00000000004
 21
18442.121500361289
 31
0.0
  0
LINE
  5
609B8
  8
U1
 10
15522.00000000004
 20
18512.921500361292
 30
0.0
 11
18110.00000000004
 21
18512.921500361292
 31
0.0
  0
LINE
  5
609B9
  8
U1
 10
15522.00000000004
 20
18300.52150036129
 30
0.0
 11
18110.00000000004
 21
18300.52150036129
 31
0.0
  0
LINE
  5
609BA
  8
U1
 10
15522.00000000004
 20
18229.721500361291
 30
0.0
 11
18110.00000000004
 21
18229.721500361291
 31
0.0
  0
LINE
  5
609BB
  8
U1
 10
15522.00000000004
 20
18158.921500361292
 30
0.0
 11
18110.00000000004
 21
18158.921500361292
 31
0.0
  0
LINE
  5
609BC
  8
U1
 10
15522.00000000004
 20
17380.121500361289
 30
0.0
 11
18110.00000000004
 21
17380.121500361289
 31
0.0
  0
LINE
  5
609BD
  8
U1
 10
15522.00000000004
 20
17450.921500361292
 30
0.0
 11
18110.00000000004
 21
17450.921500361292
 31
0.0
  0
LINE
  5
609BE
  8
U1
 10
15522.00000000004
 20
17521.721500361291
 30
0.0
 11
18110.00000000004
 21
17521.721500361291
 31
0.0
  0
LINE
  5
609BF
  8
U1
 10
15522.00000000004
 20
17592.52150036129
 30
0.0
 11
18110.00000000004
 21
17592.52150036129
 31
0.0
  0
LINE
  5
609C0
  8
U1
 10
15522.00000000004
 20
17663.32150036129
 30
0.0
 11
18110.00000000004
 21
17663.32150036129
 31
0.0
  0
LINE
  5
609C1
  8
U1
 10
15522.00000000004
 20
17734.121500361289
 30
0.0
 11
18110.00000000004
 21
17734.121500361289
 31
0.0
  0
LINE
  5
609C2
  8
U1
 10
15522.00000000004
 20
17804.921500361292
 30
0.0
 11
18110.00000000004
 21
17804.921500361292
 31
0.0
  0
LINE
  5
609C3
  8
U1
 10
15522.00000000004
 20
17875.721500361291
 30
0.0
 11
18110.00000000004
 21
17875.721500361291
 31
0.0
  0
LINE
  5
609C4
  8
U1
 10
15522.00000000004
 20
17946.52150036129
 30
0.0
 11
18110.00000000004
 21
17946.52150036129
 31
0.0
  0
LINE
  5
609C5
  8
U1
 10
15522.00000000004
 20
18017.32150036129
 30
0.0
 11
18110.00000000004
 21
18017.32150036129
 31
0.0
  0
LINE
  5
609C6
  8
U1
 10
15522.00000000004
 20
18088.121500361289
 30
0.0
 11
18110.00000000004
 21
18088.121500361289
 31
0.0
  0
LINE
  5
609C7
  8
U1
 10
15522.00000000004
 20
17309.32150036129
 30
0.0
 11
18110.00000000004
 21
17309.32150036129
 31
0.0
  0
LINE
  5
609C8
  8
U1
 10
15522.00000000004
 20
17238.52150036129
 30
0.0
 11
18110.00000000004
 21
17238.52150036129
 31
0.0
  0
LINE
  5
609C9
  8
U1
 10
15522.00000000004
 20
17167.721500361291
 30
0.0
 11
18110.00000000004
 21
17167.721500361291
 31
0.0
  0
LINE
  5
609CA
  8
U1
 10
15522.00000000004
 20
17096.921500361292
 30
0.0
 11
18110.00000000004
 21
17096.921500361292
 31
0.0
  0
LINE
  5
609CB
  8
U1
 10
15522.00000000004
 20
17026.121500361289
 30
0.0
 11
18110.00000000004
 21
17026.121500361289
 31
0.0
  0
LINE
  5
609CC
  8
U1
 10
15522.00000000004
 20
16955.32150036129
 30
0.0
 11
18110.00000000004
 21
16955.32150036129
 31
0.0
  0
LINE
  5
609CD
  8
U1
 10
15522.00000000004
 20
16884.52150036129
 30
0.0
 11
18110.00000000004
 21
16884.52150036129
 31
0.0
  0
LINE
  5
609CE
  8
U1
 10
15522.00000000004
 20
16813.72150036128
 30
0.0
 11
18110.00000000004
 21
16813.72150036128
 31
0.0
  0
LINE
  5
609CF
  8
U1
 10
15522.00000000004
 20
16742.921500361292
 30
0.0
 11
18110.00000000004
 21
16742.921500361292
 31
0.0
  0
LINE
  5
609D0
  8
U1
 10
15522.00000000004
 20
16672.121500361289
 30
0.0
 11
18110.00000000004
 21
16672.121500361289
 31
0.0
  0
LINE
  5
609D1
  8
U1
 10
15522.00000000004
 20
16601.32150036129
 30
0.0
 11
18110.00000000004
 21
16601.32150036129
 31
0.0
  0
LINE
  5
609D2
  8
U1
 10
15522.00000000004
 20
16530.52150036129
 30
0.0
 11
18109.10000000002
 21
16530.52150036129
 31
0.0
  0
LINE
  5
609D3
  8
U1
 10
15522.00000000004
 20
16459.721500361291
 30
0.0
 11
18109.10000000002
 21
16459.721500361291
 31
0.0
  0
LINE
  5
609D4
  8
U1
 10
15522.00000000004
 20
16388.921500361292
 30
0.0
 11
18109.10000000002
 21
16388.921500361292
 31
0.0
  0
LINE
  5
609D5
  8
U1
 10
18322.00000000004
 20
18371.32150036129
 30
0.0
 11
20910.000000000069
 21
18371.32150036129
 31
0.0
  0
LINE
  5
609D6
  8
U1
 10
18322.00000000004
 20
18300.52150036129
 30
0.0
 11
20910.000000000069
 21
18300.52150036129
 31
0.0
  0
LINE
  5
609D7
  8
U1
 10
18322.00000000004
 20
18229.721500361291
 30
0.0
 11
20910.000000000069
 21
18229.721500361291
 31
0.0
  0
LINE
  5
609D8
  8
U1
 10
18322.000000000029
 20
16388.921500361292
 30
0.0
 11
20910.000000000058
 21
16388.921500361292
 31
0.0
  0
LINE
  5
609D9
  8
U1
 10
18322.000000000029
 20
18158.921500361292
 30
0.0
 11
20910.000000000069
 21
18158.921500361292
 31
0.0
  0
LINE
  5
609DA
  8
U1
 10
18322.000000000029
 20
17380.121500361289
 30
0.0
 11
20910.000000000091
 21
17380.121500361289
 31
0.0
  0
LINE
  5
609DB
  8
U1
 10
18322.000000000029
 20
17450.921500361292
 30
0.0
 11
20910.000000000091
 21
17450.921500361292
 31
0.0
  0
LINE
  5
609DC
  8
U1
 10
18322.000000000029
 20
17521.721500361291
 30
0.0
 11
20910.000000000091
 21
17521.721500361291
 31
0.0
  0
LINE
  5
609DD
  8
U1
 10
18322.000000000029
 20
17592.52150036129
 30
0.0
 11
20910.000000000091
 21
17592.52150036129
 31
0.0
  0
LINE
  5
609DE
  8
U1
 10
18322.000000000029
 20
17663.32150036129
 30
0.0
 11
20910.000000000091
 21
17663.32150036129
 31
0.0
  0
LINE
  5
609DF
  8
U1
 10
18322.000000000029
 20
17734.121500361289
 30
0.0
 11
20910.000000000091
 21
17734.121500361289
 31
0.0
  0
LINE
  5
609E0
  8
U1
 10
18322.000000000029
 20
17804.921500361292
 30
0.0
 11
20910.000000000091
 21
17804.921500361292
 31
0.0
  0
LINE
  5
609E1
  8
U1
 10
18322.000000000029
 20
17875.721500361291
 30
0.0
 11
20910.000000000091
 21
17875.721500361291
 31
0.0
  0
LINE
  5
609E2
  8
U1
 10
18322.000000000029
 20
17946.52150036129
 30
0.0
 11
20910.000000000091
 21
17946.52150036129
 31
0.0
  0
LINE
  5
609E3
  8
U1
 10
18322.000000000029
 20
18017.32150036129
 30
0.0
 11
20910.000000000091
 21
18017.32150036129
 31
0.0
  0
LINE
  5
609E4
  8
U1
 10
18322.000000000029
 20
18088.121500361289
 30
0.0
 11
20910.000000000091
 21
18088.121500361289
 31
0.0
  0
LINE
  5
609E5
  8
U1
 10
18322.000000000029
 20
17309.32150036129
 30
0.0
 11
20910.000000000091
 21
17309.32150036129
 31
0.0
  0
LINE
  5
609E6
  8
U1
 10
18322.000000000029
 20
17238.52150036129
 30
0.0
 11
20910.000000000091
 21
17238.52150036129
 31
0.0
  0
LINE
  5
609E7
  8
U1
 10
18322.000000000029
 20
17167.721500361291
 30
0.0
 11
20910.000000000091
 21
17167.721500361291
 31
0.0
  0
LINE
  5
609E8
  8
U1
 10
18322.000000000029
 20
17096.921500361292
 30
0.0
 11
20910.000000000091
 21
17096.921500361292
 31
0.0
  0
LINE
  5
609E9
  8
U1
 10
18322.000000000029
 20
17026.121500361289
 30
0.0
 11
20910.000000000091
 21
17026.121500361289
 31
0.0
  0
LINE
  5
609EA
  8
U1
 10
18322.000000000029
 20
16955.32150036129
 30
0.0
 11
20910.000000000091
 21
16955.32150036129
 31
0.0
  0
LINE
  5
609EB
  8
U1
 10
18322.000000000029
 20
16884.52150036129
 30
0.0
 11
20910.000000000091
 21
16884.52150036129
 31
0.0
  0
LINE
  5
609EC
  8
U1
 10
18322.000000000029
 20
16813.72150036128
 30
0.0
 11
20910.000000000091
 21
16813.72150036128
 31
0.0
  0
LINE
  5
609ED
  8
U1
 10
18322.000000000029
 20
16742.921500361292
 30
0.0
 11
20910.000000000091
 21
16742.921500361292
 31
0.0
  0
LINE
  5
609EE
  8
U1
 10
18322.000000000029
 20
16672.121500361289
 30
0.0
 11
20910.000000000091
 21
16672.121500361289
 31
0.0
  0
LINE
  5
609EF
  8
U1
 10
18322.000000000029
 20
16601.32150036129
 30
0.0
 11
20910.000000000058
 21
16601.32150036129
 31
0.0
  0
LINE
  5
609F0
  8
U1
 10
18322.000000000029
 20
16530.52150036129
 30
0.0
 11
20910.000000000058
 21
16530.52150036129
 31
0.0
  0
LINE
  5
609F1
  8
U1
 10
18322.000000000029
 20
16459.721500361291
 30
0.0
 11
20910.000000000058
 21
16459.721500361291
 31
0.0
  0
LINE
  5
609F2
  8
U1
 10
18322.000000000029
 20
19291.72150036128
 30
0.0
 11
20910.000000000058
 21
19291.72150036128
 31
0.0
  0
LINE
  5
609F3
  8
U1
 10
18322.000000000029
 20
19362.521500361279
 30
0.0
 11
20910.000000000058
 21
19362.521500361279
 31
0.0
  0
LINE
  5
609F5
  8
U1
 10
18322.000000000029
 20
19220.921500361281
 30
0.0
 11
20910.000000000069
 21
19220.921500361281
 31
0.0
  0
LINE
  5
609F6
  8
U1
 10
18322.000000000029
 20
19150.121500361282
 30
0.0
 11
20910.000000000069
 21
19150.121500361282
 31
0.0
  0
LINE
  5
609F7
  8
U1
 10
18322.000000000029
 20
19079.321500361279
 30
0.0
 11
20910.000000000069
 21
19079.321500361279
 31
0.0
  0
LINE
  5
609F8
  8
U1
 10
18322.00000000004
 20
18583.72150036128
 30
0.0
 11
20910.000000000069
 21
18583.72150036128
 31
0.0
  0
LINE
  5
609F9
  8
U1
 10
18322.00000000004
 20
18654.521500361279
 30
0.0
 11
20910.000000000069
 21
18654.521500361279
 31
0.0
  0
LINE
  5
609FA
  8
U1
 10
18322.00000000004
 20
18725.321500361279
 30
0.0
 11
20910.000000000069
 21
18725.321500361279
 31
0.0
  0
LINE
  5
609FB
  8
U1
 10
18322.00000000004
 20
18796.121500361282
 30
0.0
 11
20910.000000000069
 21
18796.121500361282
 31
0.0
  0
LINE
  5
609FC
  8
U1
 10
18322.000000000029
 20
19008.521500361279
 30
0.0
 11
20910.000000000069
 21
19008.521500361279
 31
0.0
  0
LINE
  5
609FD
  8
U1
 10
18322.000000000029
 20
18937.72150036128
 30
0.0
 11
20910.000000000069
 21
18937.72150036128
 31
0.0
  0
LINE
  5
609FE
  8
U1
 10
18322.000000000029
 20
18866.921500361281
 30
0.0
 11
20910.000000000069
 21
18866.921500361281
 31
0.0
  0
LINE
  5
609FF
  8
U1
 10
18322.00000000004
 20
18442.121500361289
 30
0.0
 11
20910.000000000069
 21
18442.121500361289
 31
0.0
  0
LINE
  5
60A00
  8
U1
 10
18322.00000000004
 20
18512.921500361292
 30
0.0
 11
20910.000000000069
 21
18512.921500361292
 31
0.0
  0
LINE
  5
60A01
  8
U1
 10
18276.500000000029
 20
16318.121500361291
 30
0.0
 11
18276.500000000029
 21
19374.555091614991
 31
0.0
  0
LINE
  5
60A02
  8
U1
 10
18155.500000000029
 20
16318.121500361291
 30
0.0
 11
18155.500000000029
 21
19374.555091614991
 31
0.0
  0
LINE
  5
60A05
  8
U1
 10
12676.33745930752
 20
16318.121500361291
 30
0.0
 11
12676.33745930752
 21
19374.555091614991
 31
0.0
  0
LINE
  5
60A06
  8
U1
 10
20955.500000000058
 20
16318.121500361291
 30
0.0
 11
20955.500000000058
 21
19374.555091614991
 31
0.0
  0
LINE
  5
60A0C
  8
U1
 10
19641.000000000058
 20
17333.921500361292
 30
0.0
 11
19622.250000000058
 21
17344.746817908592
 31
0.0
  0
LINE
  5
60A0D
  8
U1
 10
19591.000000000058
 20
17333.921500361292
 30
0.0
 11
19609.750000000058
 21
17344.746817908592
 31
0.0
  0
LINE
  5
60A0E
  8
U1
 10
19591.000000000058
 20
17333.921500361292
 30
0.0
 11
19609.750000000058
 21
17323.096182813981
 31
0.0
  0
LINE
  5
60A0F
  8
U1
 10
19641.000000000058
 20
17333.921500361292
 30
0.0
 11
19622.250000000058
 21
17323.096182813981
 31
0.0
  0
ARC
  5
60A10
  8
U1
 10
19616.000000000058
 20
17333.921500361292
 30
0.0
 40
12.5
 50
60.000000000015739
 51
119.9999999999842
  0
ARC
  5
60A11
  8
U1
 10
19616.000000000058
 20
17333.921500361292
 30
0.0
 40
12.5
 50
240.0000000000158
 51
299.99999999998431
  0
LINE
  5
60A14
  8
U1
 10
16841.00000000004
 20
17333.921500361292
 30
0.0
 11
16822.25000000004
 21
17344.746817908592
 31
0.0
  0
LINE
  5
60A15
  8
U1
 10
16791.00000000004
 20
17333.921500361292
 30
0.0
 11
16809.75000000004
 21
17344.746817908592
 31
0.0
  0
LINE
  5
60A16
  8
U1
 10
16791.00000000004
 20
17333.921500361292
 30
0.0
 11
16809.75000000004
 21
17323.096182813981
 31
0.0
  0
LINE
  5
60A17
  8
U1
 10
16841.00000000004
 20
17333.921500361292
 30
0.0
 11
16822.25000000004
 21
17323.096182813981
 31
0.0
  0
ARC
  5
60A18
  8
U1
 10
16816.00000000004
 20
17333.921500361292
 30
0.0
 40
12.5
 50
60.000000000015739
 51
119.9999999999842
  0
ARC
  5
60A19
  8
U1
 10
16816.00000000004
 20
17333.921500361292
 30
0.0
 40
12.5
 50
240.0000000000158
 51
299.99999999998431
  0
LINE
  5
60A1C
  8
U1
 10
14041.000000000029
 20
17333.921500361292
 30
0.0
 11
14022.250000000029
 21
17344.746817908592
 31
0.0
  0
LINE
  5
60A1D
  8
U1
 10
13991.000000000029
 20
17333.921500361292
 30
0.0
 11
14009.750000000029
 21
17344.746817908592
 31
0.0
  0
LINE
  5
60A1E
  8
U1
 10
13991.000000000029
 20
17333.921500361292
 30
0.0
 11
14009.750000000029
 21
17323.096182813981
 31
0.0
  0
LINE
  5
60A1F
  8
U1
 10
14041.000000000029
 20
17333.921500361292
 30
0.0
 11
14022.250000000029
 21
17323.096182813981
 31
0.0
  0
ARC
  5
60A20
  8
U1
 10
14016.000000000029
 20
17333.921500361292
 30
0.0
 40
12.5
 50
60.000000000015739
 51
119.9999999999842
  0
ARC
  5
60A21
  8
U1
 10
14016.000000000029
 20
17333.921500361292
 30
0.0
 40
12.5
 50
240.0000000000158
 51
299.99999999998431
  0
LINE
  5
60A23
  8
SUNPOU
 10
12722.0
 20
16238.121500361291
 30
0.0
 11
12722.0
 21
15398.121500361291
 31
0.0
  0
LINE
  5
60A24
  8
SUNPOU
 10
12762.0
 20
15518.121500361291
 30
0.0
 11
17828.000000000011
 21
15518.121500361291
 31
0.0
  0
LINE
  5
60A28
  8
SUNPOU
 10
17888.0
 20
16238.121500361291
 30
0.0
 11
17888.0
 21
15398.121500361291
 31
0.0
  0
LINE
  5
60A47
  8
U1
 10
12491.000000000029
 20
19689.121500361289
 30
0.0
 11
12491.000000000029
 21
20098.121500361289
 31
0.0
  0
LINE
  5
60A48
  8
U1
 10
21141.000000000011
 20
19689.121500361289
 30
0.0
 11
21141.000000000011
 21
20098.121500361289
 31
0.0
  0
LINE
  5
60A49
  8
U1
 10
12664.29427045181
 20
19374.555091614991
 30
0.0
 11
12664.29427045181
 21
16318.121500361291
 31
0.0
  0
LINE
  5
60A4A
  8
U1
 10
18271.000000000011
 20
19689.121500361289
 30
0.0
 11
18271.000000000011
 21
19918.121500361289
 31
0.0
  0
LINE
  5
60A4B
  8
U1
 10
18161.000000000011
 20
19689.121500361289
 30
0.0
 11
18161.000000000011
 21
19918.121500361289
 31
0.0
  0
LINE
  5
60A4C
  8
U1
 10
20967.705729548248
 20
19374.555091614991
 30
0.0
 11
20967.705729548248
 21
16318.121500361291
 31
0.0
  0
LINE
  5
60A69
  8
U1
 10
18258.500000000258
 20
19401.121500361089
 30
0.0
 11
18258.499999999982
 21
16018.12150036103
 31
0.0
  0
LINE
  5
60A6A
  8
U1
 10
18173.499999999982
 20
16018.12150036104
 30
0.0
 11
18173.500000000251
 21
19401.12150036106
 31
0.0
  0
LINE
  5
60A6B
  8
下屋前桁
 10
18173.000000000251
 20
19401.121500361089
 30
0.0
 11
18211.000000000251
 21
19401.12150036106
 31
0.0
  0
ARC
  5
60A6C
  8
下屋前桁
 10
18211.000000000251
 20
19406.12150036106
 30
0.0
 40
5.0
 50
270.0
 51
0.0
  0
LINE
  5
60A6D
  8
下屋前桁
 10
18173.000000000189
 20
19401.121500361089
 30
0.0
 11
18173.000000000189
 21
19393.121500361071
 31
0.0
  0
LINE
  5
60A6E
  8
下屋前桁
 10
18216.000000000258
 20
19495.975870572249
 30
0.0
 11
18216.00000000024
 21
19406.12150036106
 31
0.0
  0
LINE
  5
60A6F
  8
U1
 10
18258.5
 20
16318.121500361291
 30
0.0
 11
20973.500000000011
 21
16318.121500361291
 31
0.0
  0
LINE
  5
60A70
  8
U1
 10
12658.500000000029
 20
16318.121500361291
 30
0.0
 11
18173.500000000011
 21
16318.121500361291
 31
0.0
  0
LINE
  5
60A71
  8
U1
 10
21058.5
 20
16318.121500361291
 30
0.0
 11
21141.000000000011
 21
16318.121500361291
 31
0.0
  0
LINE
  5
60A73
  8
下屋前桁
 10
18259.00000000024
 20
19401.121500361089
 30
0.0
 11
18221.000000000251
 21
19401.12150036106
 31
0.0
  0
ARC
  5
60A74
  8
下屋前桁
 10
18221.000000000251
 20
19406.12150036106
 30
0.0
 40
5.0
 50
180.0
 51
270.0
  0
LINE
  5
60A75
  8
下屋前桁
 10
18259.000000000298
 20
19401.121500361089
 30
0.0
 11
18259.000000000298
 21
19393.121500361071
 31
0.0
  0
TEXT
  5
60BFD
  8
FILENAME
 10
27727.809523809519
 20
348.0
 30
0.0
 40
200.0
  1
＜SOB-86FHA-G_1_JIS_GL.DXF ＞
  7
FILENAME
 72
     2
 11
32764.0
 21
348.0
 31
0.0
  0
LINE
  5
60BFF
  8
WAKUSEN-01
 10
868.00000000000193
 20
827.99999999999955
 30
0.0
 11
32764.000000000011
 21
827.99999999999943
 31
0.0
  0
LINE
  5
60C00
  8
WAKUSEN-01
 10
868.00000000000193
 20
22484.000000000011
 30
0.0
 11
32764.000000000011
 21
22484.000000000011
 31
0.0
  0
LINE
  5
60C01
  8
WAKUSEN-01
 10
868.00000000000193
 20
827.99999999999955
 30
0.0
 11
868.00000000000193
 21
22484.000000000011
 31
0.0
  0
LINE
  5
60C02
  8
WAKUSEN-01
 10
32764.000000000011
 20
827.99999999999943
 30
0.0
 11
32764.000000000011
 21
22484.000000000011
 31
0.0
  0
LINE
  5
60C03
  8
WAKUSEN-01
 10
20560.0
 20
2484.0
 30
0.0
 11
32764.0
 21
2484.0
 31
0.0
  0
LINE
  5
60C04
  8
WAKUSEN-02
 10
20560.0
 20
1655.9999999999991
 30
0.0
 11
26868.0
 21
1655.9999999999991
 31
0.0
  0
TEXT
  5
60C05
  8
WAKUMOJI-01
 10
20670.260259962772
 20
2125.9030093393221
 30
0.0
 40
240.0
  1
名　称
  7
WAKUMOJI
  0
TEXT
  5
60C06
  8
WAKUMOJI-01
 10
20656.505485091919
 20
1319.1289749798209
 30
0.0
 40
240.0
  1
機種名
  7
WAKUMOJI
  0
LINE
  5
60C07
  8
WAKUSEN-01
 10
20560.0
 20
827.99999999999716
 30
0.0
 11
20560.0
 21
2484.0
 31
0.0
  0
LINE
  5
60C08
  8
WAKUSEN-02
 10
26868.0
 20
827.99999999999261
 30
0.0
 11
26868.0
 21
2484.0
 31
0.0
  0
LINE
  5
60C09
  8
YODOROGO
 10
29977.604341291921
 20
1995.7494964292871
 30
0.0
 11
29829.604341291921
 21
1995.7494964292871
 31
0.0
1001
AUTOCAD_POSTSCRIPT_FIGURE
1002
{
1000
PSFILL
1000
Grayscale
1000
Grayscale
1070
    25
1002
}
  0
LINE
  5
60C0A
  8
YODOROGO
 10
29829.604341291921
 20
1947.749496429288
 30
0.0
 11
29977.604341291921
 21
1947.749496429288
 31
0.0
1001
AUTOCAD_POSTSCRIPT_FIGURE
1002
{
1000
PSFILL
1000
Grayscale
1000
Grayscale
1070
    25
1002
}
  0
LINE
  5
60C0B
  8
YODOROGO
 10
29977.604341291921
 20
1907.7494964292871
 30
0.0
 11
29829.604341291921
 21
1907.7494964292871
 31
0.0
1001
AUTOCAD_POSTSCRIPT_FIGURE
1002
{
1000
PSFILL
1000
Grayscale
1000
Grayscale
1070
    25
1002
}
  0
LINE
  5
60C0C
  8
YODOROGO
 10
29829.604341291921
 20
1859.749496429288
 30
0.0
 11
29977.604341291921
 21
1859.749496429288
 31
0.0
1001
AUTOCAD_POSTSCRIPT_FIGURE
1002
{
1000
PSFILL
1000
Grayscale
1000
Grayscale
1070
    25
1002
}
  0
LINE
  5
60C0D
  8
YODOROGO
 10
29977.604341291921
 20
1819.749496429288
 30
0.0
 11
29829.604341291921
 21
1819.749496429288
 31
0.0
1001
AUTOCAD_POSTSCRIPT_FIGURE
1002
{
1000
PSFILL
1000
Grayscale
1000
Grayscale
1070
    25
1002
}
  0
LINE
  5
60C0E
  8
YODOROGO
 10
29921.60434129191
 20
1707.749496429288
 30
0.0
 11
29977.604341291921
 21
1707.749496429288
 31
0.0
1001
AUTOCAD_POSTSCRIPT_FIGURE
1002
{
1000
PSFILL
1000
Grayscale
1000
Grayscale
1070
    25
1002
}
  0
LINE
  5
60C0F
  8
YODOROGO
 10
29737.604341291921
 20
1427.749496429288
 30
0.0
 11
29937.604341291932
 21
1481.339334915511
 31
0.0
  0
LINE
  5
60C10
  8
YODOROGO
 10
29949.604341291921
 20
1707.749496429288
 30
0.0
 11
29885.604341291921
 21
1707.749496429288
 31
0.0
  0
ARC
  5
60C11
  8
YODOROGO
 10
30254.34774982791
 20
1807.8646092332619
 30
0.0
 40
381.88686420564733
 50
213.96111677667849
 51
264.47872074317792
  0
ARC
  5
60C12
  8
YODOROGO
 10
30254.347749827921
 20
1807.864609233302
 30
0.0
 40
381.8868642056816
 50
208.14114420486601
 51
212.92103611859949
  0
LINE
  5
60C13
  8
YODOROGO
 10
29771.40987298531
 20
1556.807661346234
 30
0.0
 11
29933.78413250855
 21
1600.3157130570869
 31
0.0
  0
LINE
  5
60C14
  8
YODOROGO
 10
29737.604341291921
 20
1427.749496429288
 30
0.0
 11
29937.604341291932
 21
1481.339334915511
 31
0.0
  0
LINE
  5
60C15
  8
YODOROGO
 10
29949.604341291921
 20
1707.749496429288
 30
0.0
 11
29885.604341291921
 21
1707.749496429288
 31
0.0
  0
ARC
  5
60C16
  8
YODOROGO
 10
30254.34774982791
 20
1807.8646092332619
 30
0.0
 40
381.88686420564733
 50
213.96111677667849
 51
264.47872074317792
  0
LINE
  5
60C17
  8
YODOROGO
 10
28793.60434129191
 20
1819.749496429288
 30
0.0
 11
28433.60434129191
 21
1819.749496429288
 31
0.0
  0
LINE
  5
60C18
  8
YODOROGO
 10
28513.60434129191
 20
1427.749496429288
 30
0.0
 11
28793.60434129191
 21
1427.749496429288
 31
0.0
  0
LINE
  5
60C19
  8
YODOROGO
 10
28729.604341291921
 20
1923.7494964292871
 30
0.0
 11
28497.60434129191
 21
1923.7494964292871
 31
0.0
  0
LINE
  5
60C1A
  8
YODOROGO
 10
28585.604341291921
 20
2027.749496429288
 30
0.0
 11
28657.604341291921
 21
2027.749496429288
 31
0.0
  0
LINE
  5
60C1B
  8
YODOROGO
 10
28433.60434129191
 20
1707.749496429288
 30
0.0
 11
28433.60434129191
 21
1507.749496429288
 31
0.0
  0
LINE
  5
60C1C
  8
YODOROGO
 10
28497.60434129191
 20
1563.7494964292871
 30
0.0
 11
28497.60434129191
 21
1707.749496429288
 31
0.0
  0
LINE
  5
60C1D
  8
YODOROGO
 10
28585.604341291921
 20
1747.74949642929
 30
0.0
 11
28585.604341291921
 21
1547.749496429288
 31
0.0
  0
LINE
  5
60C1E
  8
YODOROGO
 10
27857.604341291921
 20
1683.7494964292889
 30
0.0
 11
27777.604341291921
 21
1619.972414044571
 31
0.0
  0
LINE
  5
60C1F
  8
YODOROGO
 10
27937.604341291921
 20
1619.972414044571
 30
0.0
 11
27857.604341291921
 21
1683.7494964292889
 31
0.0
  0
LINE
  5
60C20
  8
YODOROGO
 10
27857.604341291921
 20
1707.749496429288
 30
0.0
 11
27937.604341291921
 21
1643.9724140445701
 31
0.0
  0
LINE
  5
60C21
  8
YODOROGO
 10
27777.604341291921
 20
1643.9724140445701
 30
0.0
 11
27857.604341291921
 21
1707.749496429288
 31
0.0
  0
LINE
  5
60C22
  8
YODOROGO
 10
28040.913204016899
 20
1659.749496429288
 30
0.0
 11
28040.913204016899
 21
1683.7494964292871
 31
0.0
  0
LINE
  5
60C23
  8
YODOROGO
 10
27977.604341291921
 20
1683.7494964292871
 30
0.0
 11
27977.604341291921
 21
1667.749496429285
 31
0.0
  0
LINE
  5
60C24
  8
YODOROGO
 10
28098.135520230931
 20
1707.749496429288
 30
0.0
 11
28098.135520230931
 21
1655.5036372746561
 31
0.0
1001
AUTOCAD_POSTSCRIPT_FIGURE
1002
{
1000
PSFILL
1000
Grayscale
1000
Grayscale
1070
   100
1002
}
  0
LINE
  5
60C25
  8
YODOROGO
 10
28082.135520230921
 20
1655.5036372746561
 30
0.0
 11
28082.135520230921
 21
1707.749496429288
 31
0.0
1001
AUTOCAD_POSTSCRIPT_FIGURE
1002
{
1000
PSFILL
1000
Grayscale
1000
Grayscale
1070
   100
1002
}
  0
LINE
  5
60C26
  8
YODOROGO
 10
27809.604341291921
 20
1608.771904043258
 30
0.0
 11
27809.604341291921
 21
1632.7719040432589
 31
0.0
  0
LINE
  5
60C27
  8
YODOROGO
 10
27905.604341291921
 20
1608.771904043258
 30
0.0
 11
27809.604341291921
 21
1608.771904043258
 31
0.0
  0
LINE
  5
60C28
  8
YODOROGO
 10
27905.604341291921
 20
1632.7719040432589
 30
0.0
 11
27905.604341291921
 21
1608.771904043258
 31
0.0
  0
LINE
  5
60C29
  8
YODOROGO
 10
27809.604341291921
 20
1632.7719040432589
 30
0.0
 11
27905.604341291921
 21
1632.7719040432589
 31
0.0
  0
LINE
  5
60C2A
  8
YODOROGO
 10
27824.509588915749
 20
1568.5028573704751
 30
0.0
 11
27785.604341291921
 21
1475.7494964292871
 31
0.0
1001
AUTOCAD_POSTSCRIPT_FIGURE
1002
{
1000
PSFILL
1000
Grayscale
1000
Grayscale
1070
   100
1002
}
  0
LINE
  5
60C2B
  8
YODOROGO
 10
27777.604341291921
 20
1568.5028573704751
 30
0.0
 11
27824.509588915749
 21
1568.5028573704751
 31
0.0
1001
AUTOCAD_POSTSCRIPT_FIGURE
1002
{
1000
PSFILL
1000
Grayscale
1000
Grayscale
1070
   100
1002
}
  0
LINE
  5
60C2C
  8
YODOROGO
 10
27777.604341291921
 20
1588.5028573704751
 30
0.0
 11
27777.604341291921
 21
1568.5028573704751
 31
0.0
1001
AUTOCAD_POSTSCRIPT_FIGURE
1002
{
1000
PSFILL
1000
Grayscale
1000
Grayscale
1070
   100
1002
}
  0
LINE
  5
60C2D
  8
YODOROGO
 10
27937.604341291921
 20
1588.5028573704751
 30
0.0
 11
27777.604341291921
 21
1588.5028573704751
 31
0.0
1001
AUTOCAD_POSTSCRIPT_FIGURE
1002
{
1000
PSFILL
1000
Grayscale
1000
Grayscale
1070
   100
1002
}
  0
LINE
  5
60C2E
  8
YODOROGO
 10
27937.604341291921
 20
1568.5028573704751
 30
0.0
 11
27937.604341291921
 21
1588.5028573704751
 31
0.0
1001
AUTOCAD_POSTSCRIPT_FIGURE
1002
{
1000
PSFILL
1000
Grayscale
1000
Grayscale
1070
   100
1002
}
  0
LINE
  5
60C2F
  8
YODOROGO
 10
27844.509588915749
 20
1568.5028573704751
 30
0.0
 11
27937.604341291921
 21
1568.5028573704751
 31
0.0
1001
AUTOCAD_POSTSCRIPT_FIGURE
1002
{
1000
PSFILL
1000
Grayscale
1000
Grayscale
1070
   100
1002
}
  0
LINE
  5
60C30
  8
YODOROGO
 10
27815.546718284779
 20
1495.7494964292871
 30
0.0
 11
27844.509588915749
 21
1568.5028573704751
 31
0.0
1001
AUTOCAD_POSTSCRIPT_FIGURE
1002
{
1000
PSFILL
1000
Grayscale
1000
Grayscale
1070
   100
1002
}
  0
LINE
  5
60C31
  8
YODOROGO
 10
27902.054790808648
 20
1495.7494964292871
 30
0.0
 11
27815.546718284779
 21
1495.7494964292871
 31
0.0
1001
AUTOCAD_POSTSCRIPT_FIGURE
1002
{
1000
PSFILL
1000
Grayscale
1000
Grayscale
1070
   100
1002
}
  0
LINE
  5
60C32
  8
YODOROGO
 10
27885.065004790951
 20
1536.2338106976929
 30
0.0
 11
27902.054790808648
 21
1495.7494964292871
 31
0.0
1001
AUTOCAD_POSTSCRIPT_FIGURE
1002
{
1000
PSFILL
1000
Grayscale
1000
Grayscale
1070
   100
1002
}
  0
LINE
  5
60C33
  8
YODOROGO
 10
27901.065004790951
 20
1536.2338106976929
 30
0.0
 11
27885.065004790951
 21
1536.2338106976929
 31
0.0
1001
AUTOCAD_POSTSCRIPT_FIGURE
1002
{
1000
PSFILL
1000
Grayscale
1000
Grayscale
1070
   100
1002
}
  0
LINE
  5
60C34
  8
YODOROGO
 10
27929.604341291921
 20
1475.7494964292871
 30
0.0
 11
27901.065004790951
 21
1536.2338106976929
 31
0.0
1001
AUTOCAD_POSTSCRIPT_FIGURE
1002
{
1000
PSFILL
1000
Grayscale
1000
Grayscale
1070
   100
1002
}
  0
LINE
  5
60C35
  8
YODOROGO
 10
27785.604341291921
 20
1475.7494964292871
 30
0.0
 11
27929.604341291921
 21
1475.7494964292871
 31
0.0
1001
AUTOCAD_POSTSCRIPT_FIGURE
1002
{
1000
PSFILL
1000
Grayscale
1000
Grayscale
1070
   100
1002
}
  0
LINE
  5
60C36
  8
YODOROGO
 10
27777.604341291921
 20
1619.972414044571
 30
0.0
 11
27777.604341291921
 21
1643.9724140445701
 31
0.0
  0
LINE
  5
60C37
  8
YODOROGO
 10
27937.604341291921
 20
1643.9724140445701
 30
0.0
 11
27937.604341291921
 21
1619.972414044571
 31
0.0
  0
ARC
  5
60C38
  8
YODOROGO
 10
28225.94044214697
 20
1600.877765325326
 30
0.0
 40
175.99999999999989
 50
280.3644312771313
 51
3.5414836592180561
  0
ARC
  5
60C39
  8
YODOROGO
 10
28235.756030759301
 20
1633.5978069619041
 30
0.0
 40
111.99999999999829
 50
281.2490582504156
 51
348.75094174958332
  0
LINE
  5
60C3A
  8
YODOROGO
 10
28257.604341291921
 20
1523.7494964292871
 30
0.0
 11
28257.604341291921
 21
1427.749496429288
 31
0.0
  0
LINE
  5
60C3B
  8
YODOROGO
 10
28020.088903736902
 20
1610.6505650619149
 30
0.0
 11
28040.913204016899
 21
1659.749496429288
 31
0.0
  0
LINE
  5
60C3C
  8
YODOROGO
 10
28041.604341291921
 20
1583.120489948401
 30
0.0
 11
28020.088903736902
 21
1610.6505650619149
 31
0.0
  0
LINE
  5
60C3D
  8
YODOROGO
 10
28041.604341291921
 20
1563.1204899483989
 30
0.0
 11
28041.604341291921
 21
1583.120489948401
 31
0.0
  0
LINE
  5
60C3E
  8
YODOROGO
 10
28017.604341291921
 20
1585.2370637495301
 30
0.0
 11
28041.604341291921
 21
1563.1204899483989
 31
0.0
  0
LINE
  5
60C3F
  8
YODOROGO
 10
28017.604341291921
 20
1475.7494964292871
 30
0.0
 11
28017.604341291921
 21
1585.2370637495301
 31
0.0
  0
LINE
  5
60C40
  8
YODOROGO
 10
28001.604341291921
 20
1475.7494964292871
 30
0.0
 11
28017.604341291921
 21
1475.7494964292871
 31
0.0
  0
LINE
  5
60C41
  8
YODOROGO
 10
28001.604341291921
 20
1580.0053496897481
 30
0.0
 11
28001.604341291921
 21
1475.7494964292871
 31
0.0
  0
LINE
  5
60C42
  8
YODOROGO
 10
27977.604341291921
 20
1532.7680790334291
 30
0.0
 11
28001.604341291921
 21
1580.0053496897481
 31
0.0
  0
LINE
  5
60C43
  8
YODOROGO
 10
27977.604341291921
 20
1556.76807903343
 30
0.0
 11
27977.604341291921
 21
1532.7680790334291
 31
0.0
  0
LINE
  5
60C44
  8
YODOROGO
 10
28025.82877429136
 20
1667.749496429285
 30
0.0
 11
27977.604341291921
 21
1556.76807903343
 31
0.0
  0
LINE
  5
60C45
  8
YODOROGO
 10
27977.604341291921
 20
1667.749496429285
 30
0.0
 11
28025.82877429136
 21
1667.749496429285
 31
0.0
  0
LINE
  5
60C46
  8
YODOROGO
 10
28050.13552023091
 20
1655.5036372746561
 30
0.0
 11
28082.135520230921
 21
1655.5036372746561
 31
0.0
1001
AUTOCAD_POSTSCRIPT_FIGURE
1002
{
1000
PSFILL
1000
Grayscale
1000
Grayscale
1070
   100
1002
}
  0
LINE
  5
60C47
  8
YODOROGO
 10
28050.13552023091
 20
1631.503637274657
 30
0.0
 11
28050.13552023091
 21
1655.5036372746561
 31
0.0
1001
AUTOCAD_POSTSCRIPT_FIGURE
1002
{
1000
PSFILL
1000
Grayscale
1000
Grayscale
1070
   100
1002
}
  0
LINE
  5
60C48
  8
YODOROGO
 10
28082.135520230921
 20
1631.503637274657
 30
0.0
 11
28050.13552023091
 21
1631.503637274657
 31
0.0
1001
AUTOCAD_POSTSCRIPT_FIGURE
1002
{
1000
PSFILL
1000
Grayscale
1000
Grayscale
1070
   100
1002
}
  0
LINE
  5
60C49
  8
YODOROGO
 10
28082.135520230921
 20
1499.749496429288
 30
0.0
 11
28082.135520230921
 21
1631.503637274657
 31
0.0
1001
AUTOCAD_POSTSCRIPT_FIGURE
1002
{
1000
PSFILL
1000
Grayscale
1000
Grayscale
1070
   100
1002
}
  0
LINE
  5
60C4A
  8
YODOROGO
 10
28050.135520230931
 20
1499.749496429288
 30
0.0
 11
28082.135520230921
 21
1499.749496429288
 31
0.0
1001
AUTOCAD_POSTSCRIPT_FIGURE
1002
{
1000
PSFILL
1000
Grayscale
1000
Grayscale
1070
   100
1002
}
  0
LINE
  5
60C4B
  8
YODOROGO
 10
28050.135520230931
 20
1475.7494964292871
 30
0.0
 11
28050.135520230931
 21
1499.749496429288
 31
0.0
1001
AUTOCAD_POSTSCRIPT_FIGURE
1002
{
1000
PSFILL
1000
Grayscale
1000
Grayscale
1070
   100
1002
}
  0
LINE
  5
60C4C
  8
YODOROGO
 10
28137.604341291921
 20
1475.7494964292871
 30
0.0
 11
28050.135520230931
 21
1475.7494964292871
 31
0.0
1001
AUTOCAD_POSTSCRIPT_FIGURE
1002
{
1000
PSFILL
1000
Grayscale
1000
Grayscale
1070
   100
1002
}
  0
LINE
  5
60C4D
  8
YODOROGO
 10
28137.604341291921
 20
1499.749496429288
 30
0.0
 11
28137.604341291921
 21
1475.7494964292871
 31
0.0
1001
AUTOCAD_POSTSCRIPT_FIGURE
1002
{
1000
PSFILL
1000
Grayscale
1000
Grayscale
1070
   100
1002
}
  0
LINE
  5
60C4E
  8
YODOROGO
 10
28098.135520230931
 20
1499.749496429288
 30
0.0
 11
28137.604341291921
 21
1499.749496429288
 31
0.0
1001
AUTOCAD_POSTSCRIPT_FIGURE
1002
{
1000
PSFILL
1000
Grayscale
1000
Grayscale
1070
   100
1002
}
  0
LINE
  5
60C4F
  8
YODOROGO
 10
28098.135520230931
 20
1631.503637274657
 30
0.0
 11
28098.135520230931
 21
1499.749496429288
 31
0.0
1001
AUTOCAD_POSTSCRIPT_FIGURE
1002
{
1000
PSFILL
1000
Grayscale
1000
Grayscale
1070
   100
1002
}
  0
LINE
  5
60C50
  8
YODOROGO
 10
28137.604341291921
 20
1631.503637274657
 30
0.0
 11
28098.135520230931
 21
1631.503637274657
 31
0.0
1001
AUTOCAD_POSTSCRIPT_FIGURE
1002
{
1000
PSFILL
1000
Grayscale
1000
Grayscale
1070
   100
1002
}
  0
LINE
  5
60C51
  8
YODOROGO
 10
28137.604341291921
 20
1655.5036372746561
 30
0.0
 11
28137.604341291921
 21
1631.503637274657
 31
0.0
1001
AUTOCAD_POSTSCRIPT_FIGURE
1002
{
1000
PSFILL
1000
Grayscale
1000
Grayscale
1070
   100
1002
}
  0
LINE
  5
60C52
  8
YODOROGO
 10
28098.135520230931
 20
1655.5036372746561
 30
0.0
 11
28137.604341291921
 21
1655.5036372746561
 31
0.0
1001
AUTOCAD_POSTSCRIPT_FIGURE
1002
{
1000
PSFILL
1000
Grayscale
1000
Grayscale
1070
   100
1002
}
  0
LINE
  5
60C53
  8
YODOROGO
 10
28401.60434129191
 20
1667.749496429288
 30
0.0
 11
28345.604341291921
 21
1667.749496429288
 31
0.0
  0
LINE
  5
60C54
  8
YODOROGO
 10
28401.60434129191
 20
1611.7494964292889
 30
0.0
 11
28401.60434129191
 21
1667.749496429288
 31
0.0
  0
LINE
  5
60C55
  8
YODOROGO
 10
28345.604341291921
 20
1667.749496429288
 30
0.0
 11
28345.604341291921
 21
1611.7494964292889
 31
0.0
  0
ARC
  5
60C56
  8
YODOROGO
 10
28513.60434129191
 20
1507.749496429288
 30
0.0
 40
80.0
 50
180.0
 51
270.0
  0
ARC
  5
60C57
  8
YODOROGO
 10
28537.60434129191
 20
1563.7494964292871
 30
0.0
 40
40.0
 50
180.0
 51
270.0
  0
LINE
  5
60C58
  8
YODOROGO
 10
28561.604341291932
 20
1523.7494964292871
 30
0.0
 11
28537.60434129191
 21
1523.7494964292871
 31
0.0
  0
ARC
  5
60C59
  8
YODOROGO
 10
28561.604341291932
 20
1547.749496429285
 30
0.0
 40
23.999999999996358
 50
270.0
 51
0.0000000000054281
  0
LINE
  5
60C5A
  8
YODOROGO
 10
27801.604341291921
 20
1890.786580793706
 30
0.0
 11
27777.604341291921
 21
1843.776747951672
 31
0.0
1001
AUTOCAD_POSTSCRIPT_FIGURE
1002
{
1000
PSFILL
1000
Grayscale
1000
Grayscale
1070
   100
1002
}
  0
LINE
  5
60C5B
  8
YODOROGO
 10
27801.604341291921
 20
1747.7494964292871
 30
0.0
 11
27801.604341291921
 21
1890.786580793706
 31
0.0
1001
AUTOCAD_POSTSCRIPT_FIGURE
1002
{
1000
PSFILL
1000
Grayscale
1000
Grayscale
1070
   100
1002
}
  0
LINE
  5
60C5C
  8
YODOROGO
 10
27817.604341291921
 20
1747.7494964292871
 30
0.0
 11
27801.604341291921
 21
1747.7494964292871
 31
0.0
1001
AUTOCAD_POSTSCRIPT_FIGURE
1002
{
1000
PSFILL
1000
Grayscale
1000
Grayscale
1070
   100
1002
}
  0
LINE
  5
60C5D
  8
YODOROGO
 10
27817.604341291921
 20
1893.771332085267
 30
0.0
 11
27817.604341291921
 21
1747.7494964292871
 31
0.0
1001
AUTOCAD_POSTSCRIPT_FIGURE
1002
{
1000
PSFILL
1000
Grayscale
1000
Grayscale
1070
   100
1002
}
  0
LINE
  5
60C5E
  8
YODOROGO
 10
27841.604341291921
 20
1867.654758284137
 30
0.0
 11
27817.604341291921
 21
1893.771332085267
 31
0.0
1001
AUTOCAD_POSTSCRIPT_FIGURE
1002
{
1000
PSFILL
1000
Grayscale
1000
Grayscale
1070
   100
1002
}
  0
LINE
  5
60C5F
  8
YODOROGO
 10
27841.604341291921
 20
1883.6547582841361
 30
0.0
 11
27841.604341291921
 21
1867.654758284137
 31
0.0
1001
AUTOCAD_POSTSCRIPT_FIGURE
1002
{
1000
PSFILL
1000
Grayscale
1000
Grayscale
1070
   100
1002
}
  0
LINE
  5
60C60
  8
YODOROGO
 10
27817.604341291921
 20
1917.7713320852649
 30
0.0
 11
27841.604341291921
 21
1883.6547582841361
 31
0.0
1001
AUTOCAD_POSTSCRIPT_FIGURE
1002
{
1000
PSFILL
1000
Grayscale
1000
Grayscale
1070
   100
1002
}
  0
LINE
  5
60C61
  8
YODOROGO
 10
27817.604341291921
 20
1939.749496429288
 30
0.0
 11
27817.604341291921
 21
1917.7713320852649
 31
0.0
1001
AUTOCAD_POSTSCRIPT_FIGURE
1002
{
1000
PSFILL
1000
Grayscale
1000
Grayscale
1070
   100
1002
}
  0
LINE
  5
60C62
  8
YODOROGO
 10
27889.604341291921
 20
1939.749496429288
 30
0.0
 11
27817.604341291921
 21
1939.749496429288
 31
0.0
1001
AUTOCAD_POSTSCRIPT_FIGURE
1002
{
1000
PSFILL
1000
Grayscale
1000
Grayscale
1070
   100
1002
}
  0
LINE
  5
60C63
  8
YODOROGO
 10
27889.604341291921
 20
1900.5683489363
 30
0.0
 11
27889.604341291921
 21
1939.749496429288
 31
0.0
1001
AUTOCAD_POSTSCRIPT_FIGURE
1002
{
1000
PSFILL
1000
Grayscale
1000
Grayscale
1070
   100
1002
}
  0
LINE
  5
60C64
  8
YODOROGO
 10
27857.604341291921
 20
1900.5683489363
 30
0.0
 11
27889.604341291921
 21
1900.5683489363
 31
0.0
1001
AUTOCAD_POSTSCRIPT_FIGURE
1002
{
1000
PSFILL
1000
Grayscale
1000
Grayscale
1070
   100
1002
}
  0
LINE
  5
60C65
  8
YODOROGO
 10
27857.604341291921
 20
1884.568348936298
 30
0.0
 11
27857.604341291921
 21
1900.5683489363
 31
0.0
1001
AUTOCAD_POSTSCRIPT_FIGURE
1002
{
1000
PSFILL
1000
Grayscale
1000
Grayscale
1070
   100
1002
}
  0
LINE
  5
60C66
  8
YODOROGO
 10
27889.604341291921
 20
1884.568348936298
 30
0.0
 11
27857.604341291921
 21
1884.568348936298
 31
0.0
1001
AUTOCAD_POSTSCRIPT_FIGURE
1002
{
1000
PSFILL
1000
Grayscale
1000
Grayscale
1070
   100
1002
}
  0
LINE
  5
60C67
  8
YODOROGO
 10
27889.604341291921
 20
1879.6191779644389
 30
0.0
 11
27889.604341291921
 21
1884.568348936298
 31
0.0
1001
AUTOCAD_POSTSCRIPT_FIGURE
1002
{
1000
PSFILL
1000
Grayscale
1000
Grayscale
1070
   100
1002
}
  0
LINE
  5
60C68
  8
YODOROGO
 10
27849.604341291921
 20
1812.974981161417
 30
0.0
 11
27889.604341291921
 21
1879.6191779644389
 31
0.0
1001
AUTOCAD_POSTSCRIPT_FIGURE
1002
{
1000
PSFILL
1000
Grayscale
1000
Grayscale
1070
   100
1002
}
  0
LINE
  5
60C69
  8
YODOROGO
 10
27849.604341291921
 20
1796.9749811614161
 30
0.0
 11
27849.604341291921
 21
1812.974981161417
 31
0.0
1001
AUTOCAD_POSTSCRIPT_FIGURE
1002
{
1000
PSFILL
1000
Grayscale
1000
Grayscale
1070
   100
1002
}
  0
LINE
  5
60C6A
  8
YODOROGO
 10
27889.604341291921
 20
1847.6191779644371
 30
0.0
 11
27849.604341291921
 21
1796.9749811614161
 31
0.0
1001
AUTOCAD_POSTSCRIPT_FIGURE
1002
{
1000
PSFILL
1000
Grayscale
1000
Grayscale
1070
   100
1002
}
  0
LINE
  5
60C6B
  8
YODOROGO
 10
27889.604341291921
 20
1747.7494964292871
 30
0.0
 11
27889.604341291921
 21
1847.6191779644371
 31
0.0
1001
AUTOCAD_POSTSCRIPT_FIGURE
1002
{
1000
PSFILL
1000
Grayscale
1000
Grayscale
1070
   100
1002
}
  0
LINE
  5
60C6C
  8
YODOROGO
 10
27905.604341291921
 20
1747.7494964292871
 30
0.0
 11
27889.604341291921
 21
1747.7494964292871
 31
0.0
1001
AUTOCAD_POSTSCRIPT_FIGURE
1002
{
1000
PSFILL
1000
Grayscale
1000
Grayscale
1070
   100
1002
}
  0
LINE
  5
60C6D
  8
YODOROGO
 10
27905.604341291921
 20
1849.409012158806
 30
0.0
 11
27905.604341291921
 21
1747.7494964292871
 31
0.0
1001
AUTOCAD_POSTSCRIPT_FIGURE
1002
{
1000
PSFILL
1000
Grayscale
1000
Grayscale
1070
   100
1002
}
  0
LINE
  5
60C6E
  8
YODOROGO
 10
27937.604341291921
 20
1796.9749811614161
 30
0.0
 11
27905.604341291921
 21
1849.409012158806
 31
0.0
1001
AUTOCAD_POSTSCRIPT_FIGURE
1002
{
1000
PSFILL
1000
Grayscale
1000
Grayscale
1070
   100
1002
}
  0
LINE
  5
60C6F
  8
YODOROGO
 10
27937.604341291921
 20
1812.974981161417
 30
0.0
 11
27937.604341291921
 21
1796.9749811614161
 31
0.0
1001
AUTOCAD_POSTSCRIPT_FIGURE
1002
{
1000
PSFILL
1000
Grayscale
1000
Grayscale
1070
   100
1002
}
  0
LINE
  5
60C70
  8
YODOROGO
 10
27905.604341291921
 20
1881.4090121588081
 30
0.0
 11
27937.604341291921
 21
1812.974981161417
 31
0.0
1001
AUTOCAD_POSTSCRIPT_FIGURE
1002
{
1000
PSFILL
1000
Grayscale
1000
Grayscale
1070
   100
1002
}
  0
LINE
  5
60C71
  8
YODOROGO
 10
27905.604341291932
 20
1884.5683489363
 30
0.0
 11
27905.604341291921
 21
1881.4090121588081
 31
0.0
1001
AUTOCAD_POSTSCRIPT_FIGURE
1002
{
1000
PSFILL
1000
Grayscale
1000
Grayscale
1070
   100
1002
}
  0
LINE
  5
60C72
  8
YODOROGO
 10
27937.604341291921
 20
1884.568348936298
 30
0.0
 11
27905.604341291932
 21
1884.5683489363
 31
0.0
1001
AUTOCAD_POSTSCRIPT_FIGURE
1002
{
1000
PSFILL
1000
Grayscale
1000
Grayscale
1070
   100
1002
}
  0
LINE
  5
60C73
  8
YODOROGO
 10
27937.604341291921
 20
1900.5683489363
 30
0.0
 11
27937.604341291921
 21
1884.568348936298
 31
0.0
1001
AUTOCAD_POSTSCRIPT_FIGURE
1002
{
1000
PSFILL
1000
Grayscale
1000
Grayscale
1070
   100
1002
}
  0
LINE
  5
60C74
  8
YODOROGO
 10
27905.604341291921
 20
1900.5683489363
 30
0.0
 11
27937.604341291921
 21
1900.5683489363
 31
0.0
1001
AUTOCAD_POSTSCRIPT_FIGURE
1002
{
1000
PSFILL
1000
Grayscale
1000
Grayscale
1070
   100
1002
}
  0
LINE
  5
60C75
  8
YODOROGO
 10
27905.604341291921
 20
1939.749496429288
 30
0.0
 11
27905.604341291921
 21
1900.5683489363
 31
0.0
1001
AUTOCAD_POSTSCRIPT_FIGURE
1002
{
1000
PSFILL
1000
Grayscale
1000
Grayscale
1070
   100
1002
}
  0
LINE
  5
60C76
  8
YODOROGO
 10
27937.604341291921
 20
1939.749496429288
 30
0.0
 11
27905.604341291921
 21
1939.749496429288
 31
0.0
1001
AUTOCAD_POSTSCRIPT_FIGURE
1002
{
1000
PSFILL
1000
Grayscale
1000
Grayscale
1070
   100
1002
}
  0
LINE
  5
60C77
  8
YODOROGO
 10
27937.604341291921
 20
1955.7494964292871
 30
0.0
 11
27937.604341291921
 21
1939.749496429288
 31
0.0
1001
AUTOCAD_POSTSCRIPT_FIGURE
1002
{
1000
PSFILL
1000
Grayscale
1000
Grayscale
1070
   100
1002
}
  0
LINE
  5
60C78
  8
YODOROGO
 10
27905.604341291921
 20
1955.7494964292871
 30
0.0
 11
27937.604341291921
 21
1955.7494964292871
 31
0.0
1001
AUTOCAD_POSTSCRIPT_FIGURE
1002
{
1000
PSFILL
1000
Grayscale
1000
Grayscale
1070
   100
1002
}
  0
LINE
  5
60C79
  8
YODOROGO
 10
27905.604341291921
 20
1979.749496429288
 30
0.0
 11
27905.604341291921
 21
1955.7494964292871
 31
0.0
1001
AUTOCAD_POSTSCRIPT_FIGURE
1002
{
1000
PSFILL
1000
Grayscale
1000
Grayscale
1070
   100
1002
}
  0
LINE
  5
60C7A
  8
YODOROGO
 10
27889.604341291921
 20
1979.749496429288
 30
0.0
 11
27905.604341291921
 21
1979.749496429288
 31
0.0
1001
AUTOCAD_POSTSCRIPT_FIGURE
1002
{
1000
PSFILL
1000
Grayscale
1000
Grayscale
1070
   100
1002
}
  0
LINE
  5
60C7B
  8
YODOROGO
 10
27889.604341291921
 20
1955.7494964292871
 30
0.0
 11
27889.604341291921
 21
1979.749496429288
 31
0.0
1001
AUTOCAD_POSTSCRIPT_FIGURE
1002
{
1000
PSFILL
1000
Grayscale
1000
Grayscale
1070
   100
1002
}
  0
LINE
  5
60C7C
  8
YODOROGO
 10
27865.604341291921
 20
1955.7494964292871
 30
0.0
 11
27889.604341291921
 21
1955.7494964292871
 31
0.0
1001
AUTOCAD_POSTSCRIPT_FIGURE
1002
{
1000
PSFILL
1000
Grayscale
1000
Grayscale
1070
   100
1002
}
  0
LINE
  5
60C7D
  8
YODOROGO
 10
27865.604341291921
 20
1979.749496429288
 30
0.0
 11
27865.604341291921
 21
1955.7494964292871
 31
0.0
1001
AUTOCAD_POSTSCRIPT_FIGURE
1002
{
1000
PSFILL
1000
Grayscale
1000
Grayscale
1070
   100
1002
}
  0
LINE
  5
60C7E
  8
YODOROGO
 10
27849.604341291921
 20
1979.749496429288
 30
0.0
 11
27865.604341291921
 21
1979.749496429288
 31
0.0
1001
AUTOCAD_POSTSCRIPT_FIGURE
1002
{
1000
PSFILL
1000
Grayscale
1000
Grayscale
1070
   100
1002
}
  0
LINE
  5
60C7F
  8
YODOROGO
 10
27849.604341291921
 20
1955.7494964292871
 30
0.0
 11
27849.604341291921
 21
1979.749496429288
 31
0.0
1001
AUTOCAD_POSTSCRIPT_FIGURE
1002
{
1000
PSFILL
1000
Grayscale
1000
Grayscale
1070
   100
1002
}
  0
LINE
  5
60C80
  8
YODOROGO
 10
27817.604341291921
 20
1955.7494964292871
 30
0.0
 11
27849.604341291921
 21
1955.7494964292871
 31
0.0
1001
AUTOCAD_POSTSCRIPT_FIGURE
1002
{
1000
PSFILL
1000
Grayscale
1000
Grayscale
1070
   100
1002
}
  0
LINE
  5
60C81
  8
YODOROGO
 10
27817.604341291921
 20
1979.749496429288
 30
0.0
 11
27817.604341291921
 21
1955.7494964292871
 31
0.0
1001
AUTOCAD_POSTSCRIPT_FIGURE
1002
{
1000
PSFILL
1000
Grayscale
1000
Grayscale
1070
   100
1002
}
  0
LINE
  5
60C82
  8
YODOROGO
 10
27801.604341291921
 20
1979.749496429288
 30
0.0
 11
27817.604341291921
 21
1979.749496429288
 31
0.0
1001
AUTOCAD_POSTSCRIPT_FIGURE
1002
{
1000
PSFILL
1000
Grayscale
1000
Grayscale
1070
   100
1002
}
  0
LINE
  5
60C83
  8
YODOROGO
 10
27801.604341291921
 20
1955.7494964292871
 30
0.0
 11
27801.604341291921
 21
1979.749496429288
 31
0.0
1001
AUTOCAD_POSTSCRIPT_FIGURE
1002
{
1000
PSFILL
1000
Grayscale
1000
Grayscale
1070
   100
1002
}
  0
LINE
  5
60C84
  8
YODOROGO
 10
27777.604341291921
 20
1955.7494964292871
 30
0.0
 11
27801.604341291921
 21
1955.7494964292871
 31
0.0
1001
AUTOCAD_POSTSCRIPT_FIGURE
1002
{
1000
PSFILL
1000
Grayscale
1000
Grayscale
1070
   100
1002
}
  0
LINE
  5
60C85
  8
YODOROGO
 10
27777.604341291921
 20
1939.749496429288
 30
0.0
 11
27777.604341291921
 21
1955.7494964292871
 31
0.0
1001
AUTOCAD_POSTSCRIPT_FIGURE
1002
{
1000
PSFILL
1000
Grayscale
1000
Grayscale
1070
   100
1002
}
  0
LINE
  5
60C86
  8
YODOROGO
 10
27801.604341291921
 20
1939.749496429288
 30
0.0
 11
27777.604341291921
 21
1939.749496429288
 31
0.0
1001
AUTOCAD_POSTSCRIPT_FIGURE
1002
{
1000
PSFILL
1000
Grayscale
1000
Grayscale
1070
   100
1002
}
  0
LINE
  5
60C87
  8
YODOROGO
 10
27801.604341291921
 20
1914.7865807937051
 30
0.0
 11
27801.604341291921
 21
1939.749496429288
 31
0.0
1001
AUTOCAD_POSTSCRIPT_FIGURE
1002
{
1000
PSFILL
1000
Grayscale
1000
Grayscale
1070
   100
1002
}
  0
LINE
  5
60C88
  8
YODOROGO
 10
27777.604341291921
 20
1859.776747951671
 30
0.0
 11
27801.604341291921
 21
1914.7865807937051
 31
0.0
1001
AUTOCAD_POSTSCRIPT_FIGURE
1002
{
1000
PSFILL
1000
Grayscale
1000
Grayscale
1070
   100
1002
}
  0
LINE
  5
60C89
  8
YODOROGO
 10
27777.604341291921
 20
1843.776747951672
 30
0.0
 11
27777.604341291921
 21
1859.776747951671
 31
0.0
1001
AUTOCAD_POSTSCRIPT_FIGURE
1002
{
1000
PSFILL
1000
Grayscale
1000
Grayscale
1070
   100
1002
}
  0
LINE
  5
60C8A
  8
YODOROGO
 10
28257.604341291921
 20
1867.749496429288
 30
0.0
 11
28401.60434129191
 21
1824.877625640306
 31
0.0
1001
AUTOCAD_POSTSCRIPT_FIGURE
1002
{
1000
PSFILL
1000
Grayscale
1000
Grayscale
1070
   100
1002
}
  0
LINE
  5
60C8B
  8
YODOROGO
 10
28401.60434129191
 20
1752.877625640306
 30
0.0
 11
28257.604341291921
 21
1795.7494964292871
 31
0.0
1001
AUTOCAD_POSTSCRIPT_FIGURE
1002
{
1000
PSFILL
1000
Grayscale
1000
Grayscale
1070
   100
1002
}
  0
LINE
  5
60C8C
  8
YODOROGO
 10
28401.60434129191
 20
1984.877625640306
 30
0.0
 11
28257.604341291921
 21
2027.749496429288
 31
0.0
1001
AUTOCAD_POSTSCRIPT_FIGURE
1002
{
1000
PSFILL
1000
Grayscale
1000
Grayscale
1070
   100
1002
}
  0
LINE
  5
60C8D
  8
YODOROGO
 10
28257.604341291921
 20
1959.749496429288
 30
0.0
 11
28401.60434129191
 21
1916.8776256403071
 31
0.0
1001
AUTOCAD_POSTSCRIPT_FIGURE
1002
{
1000
PSFILL
1000
Grayscale
1000
Grayscale
1070
   100
1002
}
  0
LINE
  5
60C8E
  8
YODOROGO
 10
28257.604341291921
 20
1795.7494964292871
 30
0.0
 11
28257.604341291921
 21
1867.749496429288
 31
0.0
1001
AUTOCAD_POSTSCRIPT_FIGURE
1002
{
1000
PSFILL
1000
Grayscale
1000
Grayscale
1070
   100
1002
}
  0
LINE
  5
60C8F
  8
YODOROGO
 10
28257.604341291921
 20
2027.749496429288
 30
0.0
 11
28257.604341291921
 21
1959.749496429288
 31
0.0
1001
AUTOCAD_POSTSCRIPT_FIGURE
1002
{
1000
PSFILL
1000
Grayscale
1000
Grayscale
1070
   100
1002
}
  0
LINE
  5
60C90
  8
YODOROGO
 10
28080.236320206739
 20
1939.749496429288
 30
0.0
 11
28129.604341291921
 21
1747.7494964292871
 31
0.0
1001
AUTOCAD_POSTSCRIPT_FIGURE
1002
{
1000
PSFILL
1000
Grayscale
1000
Grayscale
1070
   100
1002
}
  0
LINE
  5
60C91
  8
YODOROGO
 10
27977.604341291921
 20
1939.749496429288
 30
0.0
 11
28080.236320206739
 21
1939.749496429288
 31
0.0
1001
AUTOCAD_POSTSCRIPT_FIGURE
1002
{
1000
PSFILL
1000
Grayscale
1000
Grayscale
1070
   100
1002
}
  0
LINE
  5
60C92
  8
YODOROGO
 10
27977.604341291921
 20
1955.7494964292871
 30
0.0
 11
27977.604341291921
 21
1939.749496429288
 31
0.0
1001
AUTOCAD_POSTSCRIPT_FIGURE
1002
{
1000
PSFILL
1000
Grayscale
1000
Grayscale
1070
   100
1002
}
  0
LINE
  5
60C93
  8
YODOROGO
 10
28076.60687851992
 20
1955.7494964292871
 30
0.0
 11
27977.604341291921
 21
1955.7494964292871
 31
0.0
1001
AUTOCAD_POSTSCRIPT_FIGURE
1002
{
1000
PSFILL
1000
Grayscale
1000
Grayscale
1070
   100
1002
}
  0
LINE
  5
60C94
  8
YODOROGO
 10
28071.162715989711
 20
1979.749496429288
 30
0.0
 11
28076.60687851992
 21
1955.7494964292871
 31
0.0
1001
AUTOCAD_POSTSCRIPT_FIGURE
1002
{
1000
PSFILL
1000
Grayscale
1000
Grayscale
1070
   100
1002
}
  0
LINE
  5
60C95
  8
YODOROGO
 10
28091.162715989711
 20
1979.749496429288
 30
0.0
 11
28071.162715989711
 21
1979.749496429288
 31
0.0
1001
AUTOCAD_POSTSCRIPT_FIGURE
1002
{
1000
PSFILL
1000
Grayscale
1000
Grayscale
1070
   100
1002
}
  0
LINE
  5
60C96
  8
YODOROGO
 10
28095.806878519939
 20
1955.7494964292871
 30
0.0
 11
28091.162715989711
 21
1979.749496429288
 31
0.0
1001
AUTOCAD_POSTSCRIPT_FIGURE
1002
{
1000
PSFILL
1000
Grayscale
1000
Grayscale
1070
   100
1002
}
  0
LINE
  5
60C97
  8
YODOROGO
 10
28121.604341291921
 20
1955.7494964292871
 30
0.0
 11
28095.806878519939
 21
1955.7494964292871
 31
0.0
1001
AUTOCAD_POSTSCRIPT_FIGURE
1002
{
1000
PSFILL
1000
Grayscale
1000
Grayscale
1070
   100
1002
}
  0
LINE
  5
60C98
  8
YODOROGO
 10
28121.604341291921
 20
1979.749496429288
 30
0.0
 11
28121.604341291921
 21
1955.7494964292871
 31
0.0
1001
AUTOCAD_POSTSCRIPT_FIGURE
1002
{
1000
PSFILL
1000
Grayscale
1000
Grayscale
1070
   100
1002
}
  0
LINE
  5
60C99
  8
YODOROGO
 10
28137.604341291921
 20
1979.749496429288
 30
0.0
 11
28121.604341291921
 21
1979.749496429288
 31
0.0
1001
AUTOCAD_POSTSCRIPT_FIGURE
1002
{
1000
PSFILL
1000
Grayscale
1000
Grayscale
1070
   100
1002
}
  0
LINE
  5
60C9A
  8
YODOROGO
 10
28137.604341291921
 20
1955.7494964292871
 30
0.0
 11
28137.604341291921
 21
1979.749496429288
 31
0.0
1001
AUTOCAD_POSTSCRIPT_FIGURE
1002
{
1000
PSFILL
1000
Grayscale
1000
Grayscale
1070
   100
1002
}
  0
LINE
  5
60C9B
  8
YODOROGO
 10
28137.604341291921
 20
1939.749496429288
 30
0.0
 11
28137.604341291921
 21
1955.7494964292871
 31
0.0
1001
AUTOCAD_POSTSCRIPT_FIGURE
1002
{
1000
PSFILL
1000
Grayscale
1000
Grayscale
1070
   100
1002
}
  0
LINE
  5
60C9C
  8
YODOROGO
 10
28098.902986873421
 20
1939.749496429288
 30
0.0
 11
28137.604341291921
 21
1939.749496429288
 31
0.0
1001
AUTOCAD_POSTSCRIPT_FIGURE
1002
{
1000
PSFILL
1000
Grayscale
1000
Grayscale
1070
   100
1002
}
  0
LINE
  5
60C9D
  8
YODOROGO
 10
28137.604341291921
 20
1747.7494964292871
 30
0.0
 11
28098.902986873421
 21
1939.749496429288
 31
0.0
1001
AUTOCAD_POSTSCRIPT_FIGURE
1002
{
1000
PSFILL
1000
Grayscale
1000
Grayscale
1070
   100
1002
}
  0
LINE
  5
60C9E
  8
YODOROGO
 10
28129.604341291921
 20
1747.7494964292871
 30
0.0
 11
28137.604341291921
 21
1747.7494964292871
 31
0.0
1001
AUTOCAD_POSTSCRIPT_FIGURE
1002
{
1000
PSFILL
1000
Grayscale
1000
Grayscale
1070
   100
1002
}
  0
LINE
  5
60C9F
  8
YODOROGO
 10
28078.069219933801
 20
1775.7407762987939
 30
0.0
 11
27977.604341291921
 21
1747.7494964292871
 31
0.0
  0
LINE
  5
60CA0
  8
YODOROGO
 10
28078.069219933801
 20
1798.6689795290731
 30
0.0
 11
28078.069219933801
 21
1775.7407762987939
 31
0.0
  0
LINE
  5
60CA1
  8
YODOROGO
 10
28033.83678061287
 20
1786.816933133767
 30
0.0
 11
28078.069219933801
 21
1798.6689795290731
 31
0.0
  0
LINE
  5
60CA2
  8
YODOROGO
 10
28033.83678061287
 20
1872.5683489363
 30
0.0
 11
28033.83678061287
 21
1786.816933133767
 31
0.0
  0
LINE
  5
60CA3
  8
YODOROGO
 10
28078.069219933801
 20
1872.5683489363
 30
0.0
 11
28033.83678061287
 21
1872.5683489363
 31
0.0
  0
LINE
  5
60CA4
  8
YODOROGO
 10
28078.069219933801
 20
1892.568348936298
 30
0.0
 11
28078.069219933801
 21
1872.5683489363
 31
0.0
  0
LINE
  5
60CA5
  8
YODOROGO
 10
27977.604341291921
 20
1892.568348936298
 30
0.0
 11
28078.069219933801
 21
1892.568348936298
 31
0.0
  0
LINE
  5
60CA6
  8
YODOROGO
 10
27977.604341291921
 20
1872.5683489363
 30
0.0
 11
27977.604341291921
 21
1892.568348936298
 31
0.0
  0
LINE
  5
60CA7
  8
YODOROGO
 10
28021.836780612859
 20
1872.5683489363
 30
0.0
 11
27977.604341291921
 21
1872.5683489363
 31
0.0
  0
LINE
  5
60CA8
  8
YODOROGO
 10
28021.836780612859
 20
1784.673339594317
 30
0.0
 11
28021.836780612859
 21
1872.5683489363
 31
0.0
  0
LINE
  5
60CA9
  8
YODOROGO
 10
27977.604341291921
 20
1771.749496429286
 30
0.0
 11
28021.836780612859
 21
1784.673339594317
 31
0.0
  0
LINE
  5
60CAA
  8
YODOROGO
 10
27977.604341291921
 20
1747.7494964292871
 30
0.0
 11
27977.604341291921
 21
1771.749496429286
 31
0.0
  0
LINE
  5
60CAB
  8
YODOROGO
 10
28001.604341291921
 20
1707.749496429288
 30
0.0
 11
28001.604341291921
 21
1683.7494964292871
 31
0.0
  0
LINE
  5
60CAD
  8
YODOROGO
 10
28017.604341291921
 20
1707.749496429288
 30
0.0
 11
28001.604341291921
 21
1707.749496429288
 31
0.0
  0
LINE
  5
60CAE
  8
YODOROGO
 10
28017.604341291921
 20
1683.7494964292871
 30
0.0
 11
28017.604341291921
 21
1707.749496429288
 31
0.0
  0
LINE
  5
60CAF
  8
YODOROGO
 10
28040.913204016899
 20
1683.7494964292871
 30
0.0
 11
28017.604341291921
 21
1683.7494964292871
 31
0.0
  0
LINE
  5
60CB0
  8
YODOROGO
 10
28001.604341291921
 20
1683.7494964292871
 30
0.0
 11
27977.604341291921
 21
1683.7494964292871
 31
0.0
  0
LINE
  5
60CB1
  8
YODOROGO
 10
28082.135520230921
 20
1707.749496429288
 30
0.0
 11
28098.135520230931
 21
1707.749496429288
 31
0.0
1001
AUTOCAD_POSTSCRIPT_FIGURE
1002
{
1000
PSFILL
1000
Grayscale
1000
Grayscale
1070
   100
1002
}
  0
LINE
  5
60CB2
  8
YODOROGO
 10
28401.60434129191
 20
1824.877625640306
 30
0.0
 11
28401.60434129191
 21
1752.877625640306
 31
0.0
1001
AUTOCAD_POSTSCRIPT_FIGURE
1002
{
1000
PSFILL
1000
Grayscale
1000
Grayscale
1070
   100
1002
}
  0
LINE
  5
60CB3
  8
YODOROGO
 10
28401.60434129191
 20
1916.8776256403071
 30
0.0
 11
28401.60434129191
 21
1984.877625640306
 31
0.0
1001
AUTOCAD_POSTSCRIPT_FIGURE
1002
{
1000
PSFILL
1000
Grayscale
1000
Grayscale
1070
   100
1002
}
  0
LINE
  5
60CB4
  8
YODOROGO
 10
28433.60434129191
 20
1819.749496429288
 30
0.0
 11
28433.60434129191
 21
1747.74949642929
 31
0.0
  0
LINE
  5
60CB5
  8
YODOROGO
 10
28497.60434129191
 20
1707.749496429288
 30
0.0
 11
28433.60434129191
 21
1707.749496429288
 31
0.0
  0
LINE
  5
60CB6
  8
YODOROGO
 10
28433.60434129191
 20
1747.74949642929
 30
0.0
 11
28585.604341291921
 21
1747.74949642929
 31
0.0
  0
LINE
  5
60CB7
  8
YODOROGO
 10
28497.60434129191
 20
1867.749496429288
 30
0.0
 11
28433.60434129191
 21
1867.749496429288
 31
0.0
  0
LINE
  5
60CB8
  8
YODOROGO
 10
28497.60434129191
 20
1923.7494964292871
 30
0.0
 11
28497.60434129191
 21
1867.749496429288
 31
0.0
  0
LINE
  5
60CB9
  8
YODOROGO
 10
28585.604341291921
 20
1987.749496429288
 30
0.0
 11
28585.604341291921
 21
2027.749496429288
 31
0.0
  0
LINE
  5
60CBA
  8
YODOROGO
 10
28433.60434129191
 20
1987.749496429288
 30
0.0
 11
28585.604341291921
 21
1987.749496429288
 31
0.0
  0
LINE
  5
60CBB
  8
YODOROGO
 10
28433.60434129191
 20
1867.749496429288
 30
0.0
 11
28433.60434129191
 21
1987.749496429288
 31
0.0
  0
LINE
  5
60CBC
  8
YODOROGO
 10
29001.60434129191
 20
2027.749496429288
 30
0.0
 11
29001.60434129191
 21
1619.749496429288
 31
0.0
  0
LINE
  5
60CBD
  8
YODOROGO
 10
29073.604341291921
 20
1579.749496429288
 30
0.0
 11
29073.604341291921
 21
2027.749496429288
 31
0.0
  0
LINE
  5
60CBE
  8
YODOROGO
 10
29261.604341291921
 20
1491.749496429286
 30
0.0
 11
29261.604341291921
 21
2007.749496429288
 31
0.0
  0
LINE
  5
60CBF
  8
YODOROGO
 10
29197.604341291921
 20
2007.749496429288
 30
0.0
 11
29197.604341291921
 21
1491.749496429286
 31
0.0
  0
LINE
  5
60CC0
  8
YODOROGO
 10
29385.604341291921
 20
2027.749496429288
 30
0.0
 11
29385.604341291921
 21
1427.749496429288
 31
0.0
  0
LINE
  5
60CC1
  8
YODOROGO
 10
29457.604341291921
 20
1427.749496429288
 30
0.0
 11
29457.604341291921
 21
2027.749496429288
 31
0.0
  0
LINE
  5
60CC2
  8
YODOROGO
 10
28657.60434129191
 20
1667.749496429288
 30
0.0
 11
28657.60434129191
 21
1747.74949642929
 31
0.0
  0
LINE
  5
60CC3
  8
YODOROGO
 10
29885.604341291921
 20
1707.749496429288
 30
0.0
 11
29885.604341291921
 21
1667.749496429288
 31
0.0
  0
LINE
  5
60CC4
  8
YODOROGO
 10
29885.604341291921
 20
1707.749496429288
 30
0.0
 11
29885.604341291921
 21
1667.749496429288
 31
0.0
  0
ARC
  5
60CC5
  8
YODOROGO
 10
28906.911576186842
 20
1618.2178644422729
 30
0.0
 40
94.705151178741659
 50
274.0524416290711
 51
0.9266642149310712
  0
ARC
  5
60CC6
  8
YODOROGO
 10
28909.18617071983
 20
1592.61072861044
 30
0.0
 40
164.92042356085511
 50
271.53512106537778
 51
355.52727750585058
  0
LINE
  5
60CC7
  8
YODOROGO
 10
28913.604341291921
 20
1523.7494964292871
 30
0.0
 11
28913.604341291921
 21
1427.749496429288
 31
0.0
  0
LINE
  5
60CC8
  8
YODOROGO
 10
28793.60434129191
 20
1667.749496429288
 30
0.0
 11
28657.60434129191
 21
1667.749496429288
 31
0.0
  0
LINE
  5
60CC9
  8
YODOROGO
 10
28793.60434129191
 20
1603.7494964292889
 30
0.0
 11
28793.60434129191
 21
1667.749496429288
 31
0.0
  0
LINE
  5
60CCA
  8
YODOROGO
 10
28657.60434129191
 20
1603.7494964292889
 30
0.0
 11
28793.60434129191
 21
1603.7494964292889
 31
0.0
  0
LINE
  5
60CCB
  8
YODOROGO
 10
28657.60434129191
 20
1523.7494964292871
 30
0.0
 11
28657.60434129191
 21
1603.7494964292889
 31
0.0
  0
LINE
  5
60CCC
  8
YODOROGO
 10
28793.60434129191
 20
1523.7494964292871
 30
0.0
 11
28657.60434129191
 21
1523.7494964292871
 31
0.0
  0
LINE
  5
60CCD
  8
YODOROGO
 10
28793.60434129191
 20
1427.749496429288
 30
0.0
 11
28793.60434129191
 21
1523.7494964292871
 31
0.0
  0
LINE
  5
60CCE
  8
YODOROGO
 10
29197.604341291921
 20
1491.749496429286
 30
0.0
 11
29261.604341291921
 21
1491.749496429286
 31
0.0
  0
LINE
  5
60CCF
  8
YODOROGO
 10
29385.604341291921
 20
1427.749496429288
 30
0.0
 11
29457.604341291921
 21
1427.749496429288
 31
0.0
  0
LINE
  5
60CD0
  8
YODOROGO
 10
29737.604341291921
 20
1528.4414521705639
 30
0.0
 11
29737.604341291921
 21
1427.749496429288
 31
0.0
  0
LINE
  5
60CD1
  8
YODOROGO
 10
29617.604341291921
 20
1427.749496429288
 30
0.0
 11
29737.604341291921
 21
1528.4414521705639
 31
0.0
  0
LINE
  5
60CD2
  8
YODOROGO
 10
29617.604341291921
 20
1547.749496429288
 30
0.0
 11
29617.604341291921
 21
1427.749496429288
 31
0.0
  0
LINE
  5
60CD3
  8
YODOROGO
 10
29712.944628699461
 20
1627.749496429288
 30
0.0
 11
29617.604341291921
 21
1547.749496429288
 31
0.0
  0
LINE
  5
60CD4
  8
YODOROGO
 10
29617.604341291921
 20
1627.749496429288
 30
0.0
 11
29712.944628699461
 21
1627.749496429288
 31
0.0
  0
LINE
  5
60CD5
  8
YODOROGO
 10
29617.604341291921
 20
1667.749496429288
 30
0.0
 11
29617.604341291921
 21
1627.749496429288
 31
0.0
  0
LINE
  5
60CD6
  8
YODOROGO
 10
29885.604341291921
 20
1667.749496429288
 30
0.0
 11
29617.604341291921
 21
1667.749496429288
 31
0.0
  0
LINE
  5
60CD7
  8
YODOROGO
 10
29917.604341291921
 20
1627.749496429288
 30
0.0
 11
29777.604341291921
 21
1627.749496429288
 31
0.0
  0
LINE
  5
60CD8
  8
YODOROGO
 10
29777.604341291921
 20
1562.005437417657
 30
0.0
 11
29771.40987298531
 21
1556.807661346234
 31
0.0
  0
LINE
  5
60CD9
  8
YODOROGO
 10
29777.604341291921
 20
1627.749496429288
 30
0.0
 11
29777.604341291921
 21
1562.005437417657
 31
0.0
  0
LINE
  5
60CDA
  8
YODOROGO
 10
29737.604341291921
 20
1528.4414521705639
 30
0.0
 11
29737.604341291921
 21
1427.749496429288
 31
0.0
  0
LINE
  5
60CDB
  8
YODOROGO
 10
29617.604341291921
 20
1427.749496429288
 30
0.0
 11
29737.604341291921
 21
1528.4414521705639
 31
0.0
  0
LINE
  5
60CDC
  8
YODOROGO
 10
29617.604341291921
 20
1547.749496429288
 30
0.0
 11
29617.604341291921
 21
1427.749496429288
 31
0.0
  0
LINE
  5
60CDD
  8
YODOROGO
 10
29712.944628699461
 20
1627.749496429288
 30
0.0
 11
29617.604341291921
 21
1547.749496429288
 31
0.0
  0
LINE
  5
60CDE
  8
YODOROGO
 10
29617.604341291921
 20
1627.749496429288
 30
0.0
 11
29712.944628699461
 21
1627.749496429288
 31
0.0
  0
LINE
  5
60CDF
  8
YODOROGO
 10
29617.604341291921
 20
1667.749496429288
 30
0.0
 11
29617.604341291921
 21
1627.749496429288
 31
0.0
  0
LINE
  5
60CE0
  8
YODOROGO
 10
29885.604341291921
 20
1667.749496429288
 30
0.0
 11
29617.604341291921
 21
1667.749496429288
 31
0.0
  0
LINE
  5
60CE1
  8
YODOROGO
 10
28793.60434129191
 20
1747.74949642929
 30
0.0
 11
28793.60434129191
 21
1819.749496429288
 31
0.0
  0
LINE
  5
60CE2
  8
YODOROGO
 10
28657.60434129191
 20
1747.74949642929
 30
0.0
 11
28793.60434129191
 21
1747.74949642929
 31
0.0
  0
LINE
  5
60CE3
  8
YODOROGO
 10
28729.604341291921
 20
1867.749496429288
 30
0.0
 11
28729.604341291921
 21
1923.7494964292871
 31
0.0
  0
LINE
  5
60CE4
  8
YODOROGO
 10
28793.60434129191
 20
1867.749496429288
 30
0.0
 11
28729.604341291921
 21
1867.749496429288
 31
0.0
  0
LINE
  5
60CE5
  8
YODOROGO
 10
28793.60434129191
 20
1947.749496429288
 30
0.0
 11
28793.60434129191
 21
1867.749496429288
 31
0.0
  0
ARC
  5
60CE6
  8
YODOROGO
 10
28753.60434129191
 20
1947.749496429288
 30
0.0
 40
40.0
 50
0.0
 51
90.0
  0
LINE
  5
60CE7
  8
YODOROGO
 10
28657.604341291921
 20
1987.749496429288
 30
0.0
 11
28753.60434129191
 21
1987.749496429288
 31
0.0
  0
LINE
  5
60CE8
  8
YODOROGO
 10
28657.604341291921
 20
2027.749496429288
 30
0.0
 11
28657.604341291921
 21
1987.749496429288
 31
0.0
  0
LINE
  5
60CE9
  8
YODOROGO
 10
29073.604341291921
 20
2027.749496429288
 30
0.0
 11
29001.60434129191
 21
2027.749496429288
 31
0.0
  0
LINE
  5
60CEA
  8
YODOROGO
 10
29261.604341291921
 20
2007.749496429288
 30
0.0
 11
29197.604341291921
 21
2007.749496429288
 31
0.0
  0
LINE
  5
60CEB
  8
YODOROGO
 10
29457.604341291921
 20
2027.749496429288
 30
0.0
 11
29385.604341291921
 21
2027.749496429288
 31
0.0
  0
LINE
  5
60CEC
  8
YODOROGO
 10
29673.604341291921
 20
1707.749496429288
 30
0.0
 11
29673.604341291921
 21
1771.749496429288
 31
0.0
1001
AUTOCAD_POSTSCRIPT_FIGURE
1002
{
1000
PSFILL
1000
Grayscale
1000
Grayscale
1070
    25
1002
}
  0
LINE
  5
60CED
  8
YODOROGO
 10
29617.604341291921
 20
1707.749496429288
 30
0.0
 11
29673.604341291921
 21
1707.749496429288
 31
0.0
1001
AUTOCAD_POSTSCRIPT_FIGURE
1002
{
1000
PSFILL
1000
Grayscale
1000
Grayscale
1070
    25
1002
}
  0
LINE
  5
60CEE
  8
YODOROGO
 10
29617.604341291921
 20
1819.749496429288
 30
0.0
 11
29617.604341291921
 21
1707.749496429288
 31
0.0
1001
AUTOCAD_POSTSCRIPT_FIGURE
1002
{
1000
PSFILL
1000
Grayscale
1000
Grayscale
1070
    25
1002
}
  0
LINE
  5
60CEF
  8
YODOROGO
 10
29765.604341291921
 20
1819.749496429288
 30
0.0
 11
29617.604341291921
 21
1819.749496429288
 31
0.0
1001
AUTOCAD_POSTSCRIPT_FIGURE
1002
{
1000
PSFILL
1000
Grayscale
1000
Grayscale
1070
    25
1002
}
  0
LINE
  5
60CF0
  8
YODOROGO
 10
29765.604341291921
 20
1859.749496429288
 30
0.0
 11
29765.604341291921
 21
1819.749496429288
 31
0.0
1001
AUTOCAD_POSTSCRIPT_FIGURE
1002
{
1000
PSFILL
1000
Grayscale
1000
Grayscale
1070
    25
1002
}
  0
LINE
  5
60CF1
  8
YODOROGO
 10
29617.604341291921
 20
1859.749496429288
 30
0.0
 11
29765.604341291921
 21
1859.749496429288
 31
0.0
1001
AUTOCAD_POSTSCRIPT_FIGURE
1002
{
1000
PSFILL
1000
Grayscale
1000
Grayscale
1070
    25
1002
}
  0
LINE
  5
60CF2
  8
YODOROGO
 10
29617.604341291921
 20
1907.7494964292871
 30
0.0
 11
29617.604341291921
 21
1859.749496429288
 31
0.0
1001
AUTOCAD_POSTSCRIPT_FIGURE
1002
{
1000
PSFILL
1000
Grayscale
1000
Grayscale
1070
    25
1002
}
  0
LINE
  5
60CF3
  8
YODOROGO
 10
29765.604341291921
 20
1907.7494964292871
 30
0.0
 11
29617.604341291921
 21
1907.7494964292871
 31
0.0
1001
AUTOCAD_POSTSCRIPT_FIGURE
1002
{
1000
PSFILL
1000
Grayscale
1000
Grayscale
1070
    25
1002
}
  0
LINE
  5
60CF4
  8
YODOROGO
 10
29765.604341291921
 20
1947.749496429288
 30
0.0
 11
29765.604341291921
 21
1907.7494964292871
 31
0.0
1001
AUTOCAD_POSTSCRIPT_FIGURE
1002
{
1000
PSFILL
1000
Grayscale
1000
Grayscale
1070
    25
1002
}
  0
LINE
  5
60CF5
  8
YODOROGO
 10
29617.604341291921
 20
1947.749496429288
 30
0.0
 11
29765.604341291921
 21
1947.749496429288
 31
0.0
1001
AUTOCAD_POSTSCRIPT_FIGURE
1002
{
1000
PSFILL
1000
Grayscale
1000
Grayscale
1070
    25
1002
}
  0
LINE
  5
60CF6
  8
YODOROGO
 10
29617.604341291921
 20
2027.749496429288
 30
0.0
 11
29617.604341291921
 21
1947.749496429288
 31
0.0
1001
AUTOCAD_POSTSCRIPT_FIGURE
1002
{
1000
PSFILL
1000
Grayscale
1000
Grayscale
1070
    25
1002
}
  0
LINE
  5
60CF7
  8
YODOROGO
 10
29665.604341291921
 20
2027.749496429288
 30
0.0
 11
29617.604341291921
 21
2027.749496429288
 31
0.0
1001
AUTOCAD_POSTSCRIPT_FIGURE
1002
{
1000
PSFILL
1000
Grayscale
1000
Grayscale
1070
    25
1002
}
  0
LINE
  5
60CF8
  8
YODOROGO
 10
29665.604341291921
 20
1995.7494964292871
 30
0.0
 11
29665.604341291921
 21
2027.749496429288
 31
0.0
1001
AUTOCAD_POSTSCRIPT_FIGURE
1002
{
1000
PSFILL
1000
Grayscale
1000
Grayscale
1070
    25
1002
}
  0
LINE
  5
60CF9
  8
YODOROGO
 10
29765.604341291921
 20
1995.7494964292871
 30
0.0
 11
29665.604341291921
 21
1995.7494964292871
 31
0.0
1001
AUTOCAD_POSTSCRIPT_FIGURE
1002
{
1000
PSFILL
1000
Grayscale
1000
Grayscale
1070
    25
1002
}
  0
LINE
  5
60CFA
  8
YODOROGO
 10
29765.604341291921
 20
2027.749496429288
 30
0.0
 11
29765.604341291921
 21
1995.7494964292871
 31
0.0
1001
AUTOCAD_POSTSCRIPT_FIGURE
1002
{
1000
PSFILL
1000
Grayscale
1000
Grayscale
1070
    25
1002
}
  0
LINE
  5
60CFB
  8
YODOROGO
 10
29829.604341291921
 20
2027.749496429288
 30
0.0
 11
29765.604341291921
 21
2027.749496429288
 31
0.0
1001
AUTOCAD_POSTSCRIPT_FIGURE
1002
{
1000
PSFILL
1000
Grayscale
1000
Grayscale
1070
    25
1002
}
  0
LINE
  5
60CFC
  8
YODOROGO
 10
29829.604341291921
 20
1995.7494964292871
 30
0.0
 11
29829.604341291921
 21
2027.749496429288
 31
0.0
1001
AUTOCAD_POSTSCRIPT_FIGURE
1002
{
1000
PSFILL
1000
Grayscale
1000
Grayscale
1070
    25
1002
}
  0
LINE
  5
60CFD
  8
YODOROGO
 10
29829.604341291921
 20
1907.7494964292871
 30
0.0
 11
29829.604341291921
 21
1947.749496429288
 31
0.0
1001
AUTOCAD_POSTSCRIPT_FIGURE
1002
{
1000
PSFILL
1000
Grayscale
1000
Grayscale
1070
    25
1002
}
  0
LINE
  5
60CFE
  8
YODOROGO
 10
29829.604341291921
 20
1819.749496429288
 30
0.0
 11
29829.604341291921
 21
1859.749496429288
 31
0.0
1001
AUTOCAD_POSTSCRIPT_FIGURE
1002
{
1000
PSFILL
1000
Grayscale
1000
Grayscale
1070
    25
1002
}
  0
LINE
  5
60CFF
  8
YODOROGO
 10
29921.60434129191
 20
1771.749496429288
 30
0.0
 11
29921.60434129191
 21
1707.749496429288
 31
0.0
1001
AUTOCAD_POSTSCRIPT_FIGURE
1002
{
1000
PSFILL
1000
Grayscale
1000
Grayscale
1070
    25
1002
}
  0
LINE
  5
60D00
  8
YODOROGO
 10
29829.604341291921
 20
1771.749496429288
 30
0.0
 11
29921.60434129191
 21
1771.749496429288
 31
0.0
1001
AUTOCAD_POSTSCRIPT_FIGURE
1002
{
1000
PSFILL
1000
Grayscale
1000
Grayscale
1070
    25
1002
}
  0
LINE
  5
60D01
  8
YODOROGO
 10
29829.604341291921
 20
1707.749496429288
 30
0.0
 11
29829.604341291921
 21
1771.749496429288
 31
0.0
1001
AUTOCAD_POSTSCRIPT_FIGURE
1002
{
1000
PSFILL
1000
Grayscale
1000
Grayscale
1070
    25
1002
}
  0
LINE
  5
60D02
  8
YODOROGO
 10
29765.604341291921
 20
1707.749496429288
 30
0.0
 11
29829.604341291921
 21
1707.749496429288
 31
0.0
1001
AUTOCAD_POSTSCRIPT_FIGURE
1002
{
1000
PSFILL
1000
Grayscale
1000
Grayscale
1070
    25
1002
}
  0
LINE
  5
60D03
  8
YODOROGO
 10
29765.604341291921
 20
1771.749496429288
 30
0.0
 11
29765.604341291921
 21
1707.749496429288
 31
0.0
1001
AUTOCAD_POSTSCRIPT_FIGURE
1002
{
1000
PSFILL
1000
Grayscale
1000
Grayscale
1070
    25
1002
}
  0
LINE
  5
60D04
  8
YODOROGO
 10
29673.604341291921
 20
1771.749496429288
 30
0.0
 11
29765.604341291921
 21
1771.749496429288
 31
0.0
1001
AUTOCAD_POSTSCRIPT_FIGURE
1002
{
1000
PSFILL
1000
Grayscale
1000
Grayscale
1070
    25
1002
}
  0
ARC
  5
60D05
  8
YODOROGO
 10
31059.517893357912
 20
1602.6807375155761
 30
0.0
 40
178.22128111072149
 50
281.02627495425361
 51
357.77113575573799
  0
LINE
  5
60D06
  8
YODOROGO
 10
31413.604341291921
 20
1907.7494964292871
 30
0.0
 11
31165.604341291921
 21
1907.7494964292871
 31
0.0
  0
LINE
  5
60D07
  8
YODOROGO
 10
31413.604341291921
 20
2027.749496429288
 30
0.0
 11
31165.604341291921
 21
2027.749496429288
 31
0.0
  0
LINE
  5
60D08
  8
YODOROGO
 10
31165.604341291921
 20
1963.7494964292871
 30
0.0
 11
31413.604341291921
 21
1963.7494964292871
 31
0.0
  0
LINE
  5
60D09
  8
YODOROGO
 10
30791.604341291921
 20
1563.7494964292871
 30
0.0
 11
30791.604341291921
 21
1755.7494964292871
 31
0.0
  0
LINE
  5
60D0A
  8
YODOROGO
 10
30763.604341291921
 20
1691.7494964292889
 30
0.0
 11
30763.604341291921
 21
1563.7494964292871
 31
0.0
  0
LINE
  5
60D0B
  8
YODOROGO
 10
30723.604341291921
 20
1491.7494964292889
 30
0.0
 11
30723.604341291921
 21
1691.7494964292889
 31
0.0
  0
LINE
  5
60D0C
  8
YODOROGO
 10
30899.604341291932
 20
1691.7494964292889
 30
0.0
 11
30899.604341291932
 21
1491.7494964292889
 31
0.0
  0
LINE
  5
60D0D
  8
YODOROGO
 10
30859.604341291932
 20
1563.7494964292871
 30
0.0
 11
30859.604341291932
 21
1691.7494964292889
 31
0.0
  0
LINE
  5
60D0E
  8
YODOROGO
 10
30831.604341291921
 20
1755.7494964292871
 30
0.0
 11
30831.604341291921
 21
1563.7494964292871
 31
0.0
  0
LINE
  5
60D0F
  8
YODOROGO
 10
30973.604341291921
 20
2027.749496429288
 30
0.0
 11
30973.604341291921
 21
1467.749496429288
 31
0.0
  0
LINE
  5
60D10
  8
YODOROGO
 10
30645.604341291921
 20
1427.749496429288
 30
0.0
 11
30645.604341291921
 21
2027.749496429288
 31
0.0
  0
LINE
  5
60D11
  8
YODOROGO
 10
30697.604341291932
 20
1963.7494964292871
 30
0.0
 11
30697.604341291932
 21
1427.749496429288
 31
0.0
  0
LINE
  5
60D12
  8
YODOROGO
 10
30925.604341291921
 20
1547.749496429288
 30
0.0
 11
30925.604341291921
 21
1963.7494964292871
 31
0.0
  0
LINE
  5
60D13
  8
YODOROGO
 10
30381.604341291932
 20
1627.749496429288
 30
0.0
 11
30381.604341291932
 21
1679.749496429288
 31
0.0
  0
LINE
  5
60D14
  8
YODOROGO
 10
30617.604341291921
 20
1679.749496429288
 30
0.0
 11
30617.604341291921
 21
1627.749496429288
 31
0.0
  0
LINE
  5
60D15
  8
YODOROGO
 10
31165.604341291921
 20
1907.7494964292871
 30
0.0
 11
31165.604341291921
 21
1635.7494964292871
 31
0.0
  0
LINE
  5
60D16
  8
YODOROGO
 10
29949.604341291921
 20
1667.749496429288
 30
0.0
 11
29949.604341291921
 21
1707.749496429288
 31
0.0
  0
LINE
  5
60D17
  8
YODOROGO
 10
29949.604341291921
 20
1667.749496429288
 30
0.0
 11
29949.604341291921
 21
1707.749496429288
 31
0.0
  0
ARC
  5
60D18
  8
YODOROGO
 10
30537.604341291921
 20
1507.749496429288
 30
0.0
 40
80.0
 50
270.0
 51
0.0
  0
LINE
  5
60D19
  8
YODOROGO
 10
30569.604341291921
 20
1599.749496429288
 30
0.0
 11
30617.604341291921
 21
1599.749496429288
 31
0.0
  0
LINE
  5
60D1A
  8
YODOROGO
 10
30617.604341291921
 20
1627.749496429288
 30
0.0
 11
30529.604341291932
 21
1627.749496429288
 31
0.0
  0
LINE
  5
60D1B
  8
YODOROGO
 10
30217.604341291921
 20
1667.749496429288
 30
0.0
 11
29949.604341291921
 21
1667.749496429288
 31
0.0
  0
LINE
  5
60D1C
  8
YODOROGO
 10
30217.604341291921
 20
1627.749496429288
 30
0.0
 11
30217.604341291921
 21
1667.749496429288
 31
0.0
  0
LINE
  5
60D1D
  8
YODOROGO
 10
30017.604341291921
 20
1627.749496429288
 30
0.0
 11
30217.604341291921
 21
1627.749496429288
 31
0.0
  0
ARC
  5
60D1E
  8
YODOROGO
 10
30230.058828701371
 20
1868.8857149529019
 30
0.0
 40
321.37763628522828
 50
228.6181454618993
 51
245.660289248906
  0
LINE
  5
60D1F
  8
YODOROGO
 10
30105.604341291921
 20
1603.7494964292889
 30
0.0
 11
30097.604341291961
 21
1576.0728158699001
 31
0.0
  0
LINE
  5
60D20
  8
YODOROGO
 10
30189.604341291921
 20
1603.7494964292889
 30
0.0
 11
30105.604341291921
 21
1603.7494964292889
 31
0.0
  0
LINE
  5
60D21
  8
YODOROGO
 10
30177.604341291921
 20
1551.817722473427
 30
0.0
 11
30189.604341291921
 21
1603.7494964292889
 31
0.0
  0
ARC
  5
60D22
  8
YODOROGO
 10
30230.058828700461
 20
1868.8857149530029
 30
0.0
 40
321.37763628529092
 50
260.60629297969928
 51
267.77903556555862
  0
LINE
  5
60D23
  8
YODOROGO
 10
30217.604341291921
 20
1427.749496429285
 30
0.0
 11
30217.604341291921
 21
1547.749496429288
 31
0.0
  0
LINE
  5
60D24
  8
YODOROGO
 10
29937.604341291932
 20
1481.339334915511
 30
0.0
 11
29937.604341291921
 21
1594.531090531141
 31
0.0
  0
LINE
  5
60D25
  8
YODOROGO
 10
30217.604341291921
 20
1667.749496429288
 30
0.0
 11
29949.604341291921
 21
1667.749496429288
 31
0.0
  0
LINE
  5
60D26
  8
YODOROGO
 10
30217.604341291921
 20
1627.749496429288
 30
0.0
 11
30217.604341291921
 21
1667.749496429288
 31
0.0
  0
LINE
  5
60D27
  8
YODOROGO
 10
30017.604341291921
 20
1627.749496429288
 30
0.0
 11
30217.604341291921
 21
1627.749496429288
 31
0.0
  0
ARC
  5
60D28
  8
YODOROGO
 10
30230.058828701371
 20
1868.8857149529019
 30
0.0
 40
321.37763628522828
 50
228.6181454618993
 51
245.660289248906
  0
LINE
  5
60D29
  8
YODOROGO
 10
30105.604341291921
 20
1603.7494964292889
 30
0.0
 11
30097.604341291961
 21
1576.0728158699001
 31
0.0
  0
LINE
  5
60D2A
  8
YODOROGO
 10
30189.604341291921
 20
1603.7494964292889
 30
0.0
 11
30105.604341291921
 21
1603.7494964292889
 31
0.0
  0
LINE
  5
60D2B
  8
YODOROGO
 10
30177.604341291921
 20
1551.817722473427
 30
0.0
 11
30189.604341291921
 21
1603.7494964292889
 31
0.0
  0
ARC
  5
60D2C
  8
YODOROGO
 10
30230.058828700461
 20
1868.8857149530029
 30
0.0
 40
321.37763628529092
 50
260.60629297969928
 51
267.77903556555862
  0
LINE
  5
60D2D
  8
YODOROGO
 10
30217.604341291921
 20
1427.749496429285
 30
0.0
 11
30217.604341291921
 21
1547.749496429288
 31
0.0
  0
LINE
  5
60D2E
  8
YODOROGO
 10
29937.604341291932
 20
1481.339334915511
 30
0.0
 11
29937.604341291921
 21
1594.531090531141
 31
0.0
  0
LINE
  5
60D2F
  8
YODOROGO
 10
30433.604341291932
 20
1573.7494964292889
 30
0.0
 11
30381.604341291932
 21
1573.7494964292889
 31
0.0
  0
LINE
  5
60D30
  8
YODOROGO
 10
30433.604341291932
 20
1601.749496429286
 30
0.0
 11
30433.604341291932
 21
1573.7494964292889
 31
0.0
  0
LINE
  5
60D31
  8
YODOROGO
 10
30381.604341291932
 20
1601.749496429286
 30
0.0
 11
30433.604341291932
 21
1601.749496429286
 31
0.0
  0
LINE
  5
60D32
  8
YODOROGO
 10
30381.604341291932
 20
1573.7494964292889
 30
0.0
 11
30381.604341291932
 21
1601.749496429286
 31
0.0
  0
LINE
  5
60D33
  8
YODOROGO
 10
30429.604341291921
 20
1577.7494964292871
 30
0.0
 11
30385.604341291932
 21
1577.7494964292871
 31
0.0
  0
LINE
  5
60D34
  8
YODOROGO
 10
30429.604341291921
 20
1597.749496429288
 30
0.0
 11
30429.604341291921
 21
1577.7494964292871
 31
0.0
  0
LINE
  5
60D35
  8
YODOROGO
 10
30385.604341291932
 20
1597.749496429288
 30
0.0
 11
30429.604341291921
 21
1597.749496429288
 31
0.0
  0
LINE
  5
60D36
  8
YODOROGO
 10
30385.604341291932
 20
1577.7494964292871
 30
0.0
 11
30385.604341291932
 21
1597.749496429288
 31
0.0
  0
LINE
  5
60D37
  8
YODOROGO
 10
30425.604341291921
 20
1581.749496429286
 30
0.0
 11
30389.604341291932
 21
1581.749496429286
 31
0.0
  0
LINE
  5
60D38
  8
YODOROGO
 10
30425.604341291932
 20
1593.7494964292889
 30
0.0
 11
30425.604341291921
 21
1581.749496429286
 31
0.0
  0
LINE
  5
60D39
  8
YODOROGO
 10
30389.604341291932
 20
1593.7494964292889
 30
0.0
 11
30425.604341291932
 21
1593.7494964292889
 31
0.0
  0
LINE
  5
60D3A
  8
YODOROGO
 10
30389.604341291932
 20
1581.749496429286
 30
0.0
 11
30389.604341291932
 21
1593.7494964292889
 31
0.0
  0
LINE
  5
60D3B
  8
YODOROGO
 10
30421.604341291932
 20
1585.7494964292871
 30
0.0
 11
30393.604341291932
 21
1585.7494964292871
 31
0.0
  0
LINE
  5
60D3C
  8
YODOROGO
 10
30421.604341291932
 20
1589.749496429288
 30
0.0
 11
30421.604341291932
 21
1585.7494964292871
 31
0.0
  0
LINE
  5
60D3D
  8
YODOROGO
 10
30393.604341291932
 20
1589.749496429288
 30
0.0
 11
30421.604341291932
 21
1589.749496429288
 31
0.0
  0
LINE
  5
60D3E
  8
YODOROGO
 10
30393.604341291932
 20
1585.7494964292871
 30
0.0
 11
30393.604341291932
 21
1589.749496429288
 31
0.0
  0
LINE
  5
60D3F
  8
YODOROGO
 10
30465.604341291921
 20
1627.749496429288
 30
0.0
 11
30381.604341291932
 21
1627.749496429288
 31
0.0
  0
LINE
  5
60D40
  8
YODOROGO
 10
30465.604341291921
 20
1547.749496429288
 30
0.0
 11
30465.604341291921
 21
1627.749496429288
 31
0.0
  0
LINE
  5
60D41
  8
YODOROGO
 10
30381.604341291932
 20
1547.749496429288
 30
0.0
 11
30465.604341291921
 21
1547.749496429288
 31
0.0
  0
LINE
  5
60D42
  8
YODOROGO
 10
30381.604341291932
 20
1427.749496429288
 30
0.0
 11
30381.604341291932
 21
1547.749496429288
 31
0.0
  0
LINE
  5
60D43
  8
YODOROGO
 10
30537.604341291921
 20
1427.749496429288
 30
0.0
 11
30381.604341291932
 21
1427.749496429288
 31
0.0
  0
LINE
  5
60D44
  8
YODOROGO
 10
30569.604341291921
 20
1571.749496429286
 30
0.0
 11
30569.604341291921
 21
1599.749496429288
 31
0.0
  0
ARC
  5
60D45
  8
YODOROGO
 10
30545.60434129191
 20
1571.749496429291
 30
0.0
 40
24.000000000003752
 50
270.0
 51
359.99999999998778
  0
LINE
  5
60D46
  8
YODOROGO
 10
30529.604341291932
 20
1547.749496429288
 30
0.0
 11
30545.60434129191
 21
1547.749496429288
 31
0.0
  0
LINE
  5
60D47
  8
YODOROGO
 10
30529.604341291932
 20
1627.749496429288
 30
0.0
 11
30529.604341291932
 21
1547.749496429288
 31
0.0
  0
LINE
  5
60D48
  8
YODOROGO
 10
30899.604341291932
 20
1547.749496429288
 30
0.0
 11
30925.604341291921
 21
1547.749496429288
 31
0.0
  0
LINE
  5
60D49
  8
YODOROGO
 10
30933.604341291921
 20
1427.749496429288
 30
0.0
 11
30899.604341291932
 21
1427.749496429288
 31
0.0
  0
LINE
  5
60D4A
  8
YODOROGO
 10
30763.604341291921
 20
1563.7494964292871
 30
0.0
 11
30791.604341291921
 21
1563.7494964292871
 31
0.0
  0
LINE
  5
60D4B
  8
YODOROGO
 10
30899.604341291932
 20
1491.7494964292889
 30
0.0
 11
30723.604341291921
 21
1491.7494964292889
 31
0.0
  0
LINE
  5
60D4C
  8
YODOROGO
 10
30831.604341291921
 20
1563.7494964292871
 30
0.0
 11
30859.604341291932
 21
1563.7494964292871
 31
0.0
  0
LINE
  5
60D4D
  8
YODOROGO
 10
30899.604341291932
 20
1427.749496429288
 30
0.0
 11
30899.604341291932
 21
1547.749496429288
 31
0.0
  0
LINE
  5
60D4E
  8
YODOROGO
 10
30697.604341291932
 20
1427.749496429288
 30
0.0
 11
30645.604341291921
 21
1427.749496429288
 31
0.0
  0
LINE
  5
60D4F
  8
YODOROGO
 10
30617.604341291921
 20
1599.749496429288
 30
0.0
 11
30617.604341291921
 21
1507.749496429288
 31
0.0
  0
ARC
  5
60D50
  8
YODOROGO
 10
30933.604341291921
 20
1467.749496429288
 30
0.0
 40
40.0
 50
270.0
 51
0.0
  0
LINE
  5
60D51
  8
YODOROGO
 10
31093.604341291921
 20
1523.7494964292871
 30
0.0
 11
31093.604341291921
 21
1427.749496429288
 31
0.0
  0
ARC
  5
60D52
  8
YODOROGO
 10
31039.721395566779
 20
1637.5313901097329
 30
0.0
 40
125.8955565916754
 50
295.34052442160112
 51
359.18902303418668
  0
LINE
  5
60D53
  8
YODOROGO
 10
30617.604341291921
 20
1859.749496429288
 30
0.0
 11
30497.604341291921
 21
1939.749496429288
 31
0.0
  0
LINE
  5
60D54
  8
YODOROGO
 10
30497.604341291921
 20
2027.749496429288
 30
0.0
 11
30617.604341291921
 21
1947.749496429288
 31
0.0
  0
LINE
  5
60D55
  8
YODOROGO
 10
30529.604341291932
 20
1679.749496429288
 30
0.0
 11
30617.604341291921
 21
1679.749496429288
 31
0.0
  0
LINE
  5
60D56
  8
YODOROGO
 10
30617.604341291921
 20
1735.7494964292871
 30
0.0
 11
30529.604341291932
 21
1735.7494964292871
 31
0.0
  0
LINE
  5
60D57
  8
YODOROGO
 10
30381.604341291932
 20
1795.7494964292871
 30
0.0
 11
30617.604341291921
 21
1795.7494964292871
 31
0.0
  0
LINE
  5
60D58
  8
YODOROGO
 10
30081.604341291932
 20
2027.749496429288
 30
0.0
 11
30021.604341291921
 21
2027.749496429288
 31
0.0
  0
LINE
  5
60D59
  8
YODOROGO
 10
30081.604341291932
 20
1827.7494964292871
 30
0.0
 11
30081.604341291932
 21
2027.749496429288
 31
0.0
  0
LINE
  5
60D5A
  8
YODOROGO
 10
30021.604341291921
 20
1827.7494964292871
 30
0.0
 11
30081.604341291932
 21
1827.7494964292871
 31
0.0
  0
LINE
  5
60D5B
  8
YODOROGO
 10
30021.604341291921
 20
2027.749496429288
 30
0.0
 11
30021.604341291921
 21
1827.7494964292871
 31
0.0
  0
LINE
  5
60D5C
  8
YODOROGO
 10
30161.604341291932
 20
2027.749496429288
 30
0.0
 11
30217.604341291921
 21
2027.749496429288
 31
0.0
  0
LINE
  5
60D5D
  8
YODOROGO
 10
30161.604341291932
 20
1811.7494964292889
 30
0.0
 11
30161.604341291932
 21
2027.749496429288
 31
0.0
  0
ARC
  5
60D5E
  8
YODOROGO
 10
30121.604341291932
 20
1811.7494964292889
 30
0.0
 40
40.0
 50
270.0
 51
0.0
  0
LINE
  5
60D5F
  8
YODOROGO
 10
30021.604341291921
 20
1771.749496429288
 30
0.0
 11
30121.604341291932
 21
1771.749496429288
 31
0.0
  0
LINE
  5
60D60
  8
YODOROGO
 10
30021.604341291921
 20
1707.749496429288
 30
0.0
 11
30021.604341291921
 21
1771.749496429288
 31
0.0
  0
LINE
  5
60D61
  8
YODOROGO
 10
30137.604341291921
 20
1707.749496429288
 30
0.0
 11
30021.604341291921
 21
1707.749496429288
 31
0.0
  0
ARC
  5
60D62
  8
YODOROGO
 10
30137.604341291921
 20
1787.749496429288
 30
0.0
 40
80.0
 50
270.0
 51
0.0
  0
LINE
  5
60D63
  8
YODOROGO
 10
30217.604341291921
 20
2027.749496429288
 30
0.0
 11
30217.604341291921
 21
1787.749496429288
 31
0.0
  0
LINE
  5
60D64
  8
YODOROGO
 10
29977.604341291921
 20
1947.749496429288
 30
0.0
 11
29977.604341291921
 21
1995.7494964292871
 31
0.0
1001
AUTOCAD_POSTSCRIPT_FIGURE
1002
{
1000
PSFILL
1000
Grayscale
1000
Grayscale
1070
    25
1002
}
  0
LINE
  5
60D65
  8
YODOROGO
 10
29977.604341291921
 20
1859.749496429288
 30
0.0
 11
29977.604341291921
 21
1907.7494964292871
 31
0.0
1001
AUTOCAD_POSTSCRIPT_FIGURE
1002
{
1000
PSFILL
1000
Grayscale
1000
Grayscale
1070
    25
1002
}
  0
LINE
  5
60D66
  8
YODOROGO
 10
29977.604341291921
 20
1707.749496429288
 30
0.0
 11
29977.604341291921
 21
1819.749496429288
 31
0.0
1001
AUTOCAD_POSTSCRIPT_FIGURE
1002
{
1000
PSFILL
1000
Grayscale
1000
Grayscale
1070
    25
1002
}
  0
LINE
  5
60D67
  8
YODOROGO
 10
30381.604341291932
 20
1907.7494964292871
 30
0.0
 11
30497.604341291921
 21
2027.749496429288
 31
0.0
  0
LINE
  5
60D68
  8
YODOROGO
 10
30381.604341291932
 20
1819.749496429288
 30
0.0
 11
30381.604341291932
 21
1907.7494964292871
 31
0.0
  0
LINE
  5
60D69
  8
YODOROGO
 10
30497.604341291921
 20
1939.749496429288
 30
0.0
 11
30381.604341291932
 21
1819.749496429288
 31
0.0
  0
LINE
  5
60D6A
  8
YODOROGO
 10
30465.604341291921
 20
1679.749496429288
 30
0.0
 11
30465.604341291921
 21
1735.7494964292871
 31
0.0
  0
LINE
  5
60D6B
  8
YODOROGO
 10
30381.604341291932
 20
1679.749496429288
 30
0.0
 11
30465.604341291921
 21
1679.749496429288
 31
0.0
  0
LINE
  5
60D6C
  8
YODOROGO
 10
30529.604341291932
 20
1735.7494964292871
 30
0.0
 11
30529.604341291932
 21
1679.749496429288
 31
0.0
  0
LINE
  5
60D6D
  8
YODOROGO
 10
30381.604341291932
 20
1735.7494964292871
 30
0.0
 11
30381.604341291932
 21
1795.7494964292871
 31
0.0
  0
LINE
  5
60D6E
  8
YODOROGO
 10
30465.604341291921
 20
1735.7494964292871
 30
0.0
 11
30381.604341291932
 21
1735.7494964292871
 31
0.0
  0
LINE
  5
60D6F
  8
YODOROGO
 10
30645.604341291921
 20
2027.749496429288
 30
0.0
 11
30973.604341291921
 21
2027.749496429288
 31
0.0
  0
LINE
  5
60D70
  8
YODOROGO
 10
30925.604341291921
 20
1963.7494964292871
 30
0.0
 11
30697.604341291932
 21
1963.7494964292871
 31
0.0
  0
LINE
  5
60D71
  8
YODOROGO
 10
30873.604341291921
 20
1819.749496429288
 30
0.0
 11
30899.604341291932
 21
1819.749496429288
 31
0.0
  0
LINE
  5
60D72
  8
YODOROGO
 10
30899.604341291932
 20
1939.749496429288
 30
0.0
 11
30873.604341291921
 21
1819.749496429288
 31
0.0
  0
LINE
  5
60D73
  8
YODOROGO
 10
30851.604341291932
 20
1939.749496429288
 30
0.0
 11
30899.604341291932
 21
1939.749496429288
 31
0.0
  0
LINE
  5
60D74
  8
YODOROGO
 10
30825.604341291921
 20
1819.749496429288
 30
0.0
 11
30851.604341291932
 21
1939.749496429288
 31
0.0
  0
LINE
  5
60D75
  8
YODOROGO
 10
30797.604341291921
 20
1819.749496429288
 30
0.0
 11
30825.604341291921
 21
1819.749496429288
 31
0.0
  0
LINE
  5
60D76
  8
YODOROGO
 10
30771.604341291932
 20
1939.749496429288
 30
0.0
 11
30797.604341291921
 21
1819.749496429288
 31
0.0
  0
LINE
  5
60D77
  8
YODOROGO
 10
30723.604341291921
 20
1939.749496429288
 30
0.0
 11
30771.604341291932
 21
1939.749496429288
 31
0.0
  0
LINE
  5
60D78
  8
YODOROGO
 10
30749.604341291921
 20
1819.749496429288
 30
0.0
 11
30723.604341291921
 21
1939.749496429288
 31
0.0
  0
LINE
  5
60D79
  8
YODOROGO
 10
30723.604341291921
 20
1819.749496429288
 30
0.0
 11
30749.604341291921
 21
1819.749496429288
 31
0.0
  0
LINE
  5
60D7A
  8
YODOROGO
 10
30723.604341291921
 20
1755.7494964292871
 30
0.0
 11
30723.604341291921
 21
1819.749496429288
 31
0.0
  0
LINE
  5
60D7B
  8
YODOROGO
 10
30899.604341291932
 20
1755.7494964292871
 30
0.0
 11
30723.604341291921
 21
1755.7494964292871
 31
0.0
  0
LINE
  5
60D7C
  8
YODOROGO
 10
30899.604341291932
 20
1819.749496429288
 30
0.0
 11
30899.604341291932
 21
1755.7494964292871
 31
0.0
  0
LINE
  5
60D7D
  8
YODOROGO
 10
30617.604341291921
 20
1947.749496429288
 30
0.0
 11
30617.604341291921
 21
1859.749496429288
 31
0.0
  0
LINE
  5
60D7E
  8
YODOROGO
 10
30791.604341291921
 20
1755.7494964292871
 30
0.0
 11
30831.604341291921
 21
1755.7494964292871
 31
0.0
  0
LINE
  5
60D7F
  8
YODOROGO
 10
30723.604341291921
 20
1691.7494964292889
 30
0.0
 11
30763.604341291921
 21
1691.7494964292889
 31
0.0
  0
LINE
  5
60D80
  8
YODOROGO
 10
30859.604341291932
 20
1691.7494964292889
 30
0.0
 11
30899.604341291932
 21
1691.7494964292889
 31
0.0
  0
LINE
  5
60D81
  8
YODOROGO
 10
30617.604341291921
 20
1795.7494964292871
 30
0.0
 11
30617.604341291921
 21
1735.7494964292871
 31
0.0
  0
LINE
  5
60D82
  8
YODOROGO
 10
31165.604341291921
 20
2027.749496429288
 30
0.0
 11
31165.604341291921
 21
1963.7494964292871
 31
0.0
  0
LINE
  5
60D83
  8
YODOROGO
 10
31533.604341291921
 20
1595.7494964292871
 30
0.0
 11
31533.60434129191
 21
1811.7494964292889
 31
0.0
  0
LINE
  5
60D84
  8
YODOROGO
 10
31461.60434129191
 20
1987.749496429288
 30
0.0
 11
31461.60434129191
 21
1635.7494964292871
 31
0.0
  0
LINE
  5
60D85
  8
YODOROGO
 10
31653.604341291921
 20
1427.749496429288
 30
0.0
 11
31653.60434129191
 21
1811.7494964292889
 31
0.0
  0
LINE
  5
60D86
  8
YODOROGO
 10
31589.604341291921
 20
1811.7494964292889
 30
0.0
 11
31589.604341291921
 21
1427.749496429288
 31
0.0
  0
LINE
  5
60D87
  8
YODOROGO
 10
31237.604341291921
 20
1595.7494964292871
 30
0.0
 11
31237.604341291921
 21
1707.749496429288
 31
0.0
  0
ARC
  5
60D88
  8
YODOROGO
 10
31353.914865116069
 20
1607.790351288558
 30
0.0
 40
180.09244857598861
 50
268.62849102169793
 51
356.16638457330322
  0
LINE
  5
60D89
  8
YODOROGO
 10
31349.604341291932
 20
1527.749496429288
 30
0.0
 11
31349.604341291932
 21
1427.749496429288
 31
0.0
  0
ARC
  5
60D8A
  8
YODOROGO
 10
31351.518075724562
 20
1637.838957017655
 30
0.0
 40
110.1060929836122
 50
269.00410209305937
 51
358.91264455492478
  0
LINE
  5
60D8B
  8
YODOROGO
 10
31589.604341291921
 20
1427.749496429288
 30
0.0
 11
31653.604341291921
 21
1427.749496429288
 31
0.0
  0
LINE
  5
60D8C
  8
YODOROGO
 10
31533.60434129191
 20
1811.7494964292889
 30
0.0
 11
31589.604341291921
 21
1811.7494964292889
 31
0.0
  0
LINE
  5
60D8D
  8
YODOROGO
 10
31621.604341291932
 20
1987.749496429288
 30
0.0
 11
31461.60434129191
 21
1987.749496429288
 31
0.0
  0
LINE
  5
60D8E
  8
YODOROGO
 10
31533.60434129191
 20
1915.7494964292871
 30
0.0
 11
31661.604341291932
 21
1915.7494964292871
 31
0.0
  0
LINE
  5
60D8F
  8
YODOROGO
 10
31701.604341291932
 20
1875.7494964292871
 30
0.0
 11
31533.60434129191
 21
1875.7494964292871
 31
0.0
  0
LINE
  5
60D90
  8
YODOROGO
 10
31237.604341291921
 20
1779.749496429288
 30
0.0
 11
31349.604341291932
 21
1779.749496429288
 31
0.0
  0
LINE
  5
60D91
  8
YODOROGO
 10
31237.604341291921
 20
1835.7494964292871
 30
0.0
 11
31237.604341291921
 21
1779.749496429288
 31
0.0
  0
LINE
  5
60D92
  8
YODOROGO
 10
31349.604341291932
 20
1835.7494964292871
 30
0.0
 11
31237.604341291921
 21
1835.7494964292871
 31
0.0
  0
LINE
  5
60D93
  8
YODOROGO
 10
31349.604341291932
 20
1779.749496429288
 30
0.0
 11
31349.604341291932
 21
1835.7494964292871
 31
0.0
  0
LINE
  5
60D94
  8
YODOROGO
 10
31533.60434129191
 20
1875.7494964292871
 30
0.0
 11
31533.60434129191
 21
1915.7494964292871
 31
0.0
  0
LINE
  5
60D95
  8
YODOROGO
 10
31413.604341291921
 20
1707.749496429288
 30
0.0
 11
31413.604341291921
 21
1907.7494964292871
 31
0.0
  0
LINE
  5
60D96
  8
YODOROGO
 10
31237.604341291921
 20
1707.749496429288
 30
0.0
 11
31413.604341291921
 21
1707.749496429288
 31
0.0
  0
LINE
  5
60D97
  8
YODOROGO
 10
31413.604341291921
 20
1963.7494964292871
 30
0.0
 11
31413.604341291921
 21
2027.749496429288
 31
0.0
  0
ARC
  5
60D98
  8
YODOROGO
 10
31621.604341291932
 20
2003.749496429285
 30
0.0
 40
15.999999999994539
 50
270.0
 51
0.0000000000081422
  0
LINE
  5
60D99
  8
YODOROGO
 10
31637.604341291921
 20
2027.749496429288
 30
0.0
 11
31637.604341291921
 21
2003.7494964292871
 31
0.0
  0
LINE
  5
60D9A
  8
YODOROGO
 10
31701.604341291932
 20
2027.749496429288
 30
0.0
 11
31637.604341291921
 21
2027.749496429288
 31
0.0
  0
LINE
  5
60D9B
  8
YODOROGO
 10
31701.604341291932
 20
1955.7494964292871
 30
0.0
 11
31701.604341291932
 21
2027.749496429288
 31
0.0
  0
ARC
  5
60D9C
  8
YODOROGO
 10
31661.604341291932
 20
1955.7494964292871
 30
0.0
 40
40.0
 50
270.0
 51
0.0
  0
LINE
  5
60D9D
  8
YODOROGO
 10
31701.604341291932
 20
1811.7494964292889
 30
0.0
 11
31701.604341291932
 21
1875.7494964292871
 31
0.0
  0
LINE
  5
60D9E
  8
YODOROGO
 10
31653.60434129191
 20
1811.7494964292889
 30
0.0
 11
31701.604341291932
 21
1811.7494964292889
 31
0.0
  0
LINE
  5
60DA0
  8
SUNPOU
 10
17858.0
 20
15518.121500361291
 30
0.0
 11
17828.0
 21
15518.121500361291
 31
0.0
  0
LINE
  5
60DA2
  8
SUNPOU
 10
12752.0
 20
15518.121500361291
 30
0.0
 11
12782.0
 21
15518.121500361291
 31
0.0
  0
LINE
  5
60DA4
  8
SUNPOU
 10
11691.000000000029
 20
19458.121500361289
 30
0.0
 11
11691.000000000029
 21
19428.121500361289
 31
0.0
  0
LINE
  5
60DA6
  8
SUNPOU
 10
11291.000000000029
 20
20068.121500361289
 30
0.0
 11
11291.000000000029
 21
20038.121500361289
 31
0.0
  0
LINE
  5
60DA8
  8
SUNPOU
 10
11291.000000000029
 20
16348.121500361291
 30
0.0
 11
11291.000000000029
 21
16378.121500361291
 31
0.0
  0
LINE
  5
60DAA
  8
SUNPOU
 10
11691.000000000029
 20
16348.121500361291
 30
0.0
 11
11691.000000000029
 21
16378.121500361291
 31
0.0
  0
LINE
  5
60DAC
  8
SUNPOU
 10
21146.000000000029
 20
21298.121500361289
 30
0.0
 11
21116.000000000029
 21
21298.121500361289
 31
0.0
  0
LINE
  5
60DAE
  8
SUNPOU
 10
21226.000000000029
 20
20898.121500361289
 30
0.0
 11
21256.000000000029
 21
20898.121500361289
 31
0.0
  0
LINE
  5
60DB0
  8
SUNPOU
 10
21111.000000000018
 20
20898.121500361289
 30
0.0
 11
21081.000000000018
 21
20898.121500361289
 31
0.0
  0
LINE
  5
60DB2
  8
SUNPOU
 10
20880.000000000058
 20
15518.121500361291
 30
0.0
 11
20850.000000000058
 21
15518.121500361291
 31
0.0
  0
LINE
  5
60DB4
  8
SUNPOU
 10
21111.000000000018
 20
14318.121500361291
 30
0.0
 11
21081.000000000018
 21
14318.121500361291
 31
0.0
  0
LINE
  5
60DB6
  8
SUNPOU
 10
20986.000000000018
 20
14718.121500361291
 30
0.0
 11
20956.000000000011
 21
14718.121500361291
 31
0.0
  0
LINE
  5
60DB8
  8
SUNPOU
 10
20986.000000000018
 20
14718.121500361291
 30
0.0
 11
20956.000000000011
 21
14718.121500361291
 31
0.0
  0
LINE
  5
60DBA
  8
SUNPOU
 10
21046.000000000011
 20
14718.121500361291
 30
0.0
 11
21076.000000000011
 21
14718.121500361291
 31
0.0
  0
LINE
  5
60DBC
  8
SUNPOU
 10
21111.000000000018
 20
14718.121500361291
 30
0.0
 11
21081.000000000018
 21
14718.121500361291
 31
0.0
  0
LINE
  5
60DBE
  8
SUNPOU
 10
18352.000000000029
 20
15518.121500361291
 30
0.0
 11
18382.000000000029
 21
15518.121500361291
 31
0.0
  0
LINE
  5
60DC0
  8
SUNPOU
 10
18186.000000000011
 20
14718.121500361291
 30
0.0
 11
18156.000000000011
 21
14718.121500361291
 31
0.0
  0
LINE
  5
60DC2
  8
SUNPOU
 10
18186.000000000011
 20
14718.121500361291
 30
0.0
 11
18156.000000000011
 21
14718.121500361291
 31
0.0
  0
LINE
  5
60DC4
  8
SUNPOU
 10
18246.000000000011
 20
14718.121500361291
 30
0.0
 11
18276.000000000011
 21
14718.121500361291
 31
0.0
  0
LINE
  5
60DC6
  8
SUNPOU
 10
12486.000000000029
 20
21298.121500361289
 30
0.0
 11
12516.000000000029
 21
21298.121500361289
 31
0.0
  0
LINE
  5
60DC8
  8
SUNPOU
 10
12406.000000000029
 20
20898.121500361289
 30
0.0
 11
12376.000000000029
 21
20898.121500361289
 31
0.0
  0
LINE
  5
60DCA
  8
SUNPOU
 10
12521.000000000029
 20
20898.121500361289
 30
0.0
 11
12551.000000000029
 21
20898.121500361289
 31
0.0
  0
LINE
  5
60DCC
  8
SUNPOU
 10
15446.000000000009
 20
14718.121500361291
 30
0.0
 11
15476.000000000009
 21
14718.121500361291
 31
0.0
  0
LINE
  5
60DCE
  8
SUNPOU
 10
15386.000000000009
 20
14718.121500361291
 30
0.0
 11
15356.000000000009
 21
14718.121500361291
 31
0.0
  0
LINE
  5
60DD0
  8
SUNPOU
 10
12521.000000000029
 20
14318.121500361291
 30
0.0
 11
12551.000000000029
 21
14318.121500361291
 31
0.0
  0
LINE
  5
60DD2
  8
SUNPOU
 10
12586.000000000029
 20
14718.121500361291
 30
0.0
 11
12556.000000000029
 21
14718.121500361291
 31
0.0
  0
LINE
  5
60DD4
  8
SUNPOU
 10
12646.000000000029
 20
14718.121500361291
 30
0.0
 11
12676.000000000029
 21
14718.121500361291
 31
0.0
  0
LINE
  5
60DD6
  8
SUNPOU
 10
12521.000000000009
 20
14718.121500361291
 30
0.0
 11
12551.000000000009
 21
14718.121500361291
 31
0.0
  0
LINE
  5
60DD7
  8
SUNPOU
 10
19728.81273525994
 20
6285.2917521017798
 30
0.0
 11
21121.3871066635
 21
6285.2917521017798
 31
0.0
  0
LINE
  5
60DD8
  8
SUNPOU
 10
19691.999999999902
 20
9360.2917521018098
 30
0.0
 11
21121.387106663511
 21
9360.291752101808
 31
0.0
  0
LINE
  5
60DD9
  8
SUNPOU
 10
21041.3871066635
 20
6325.2917521017798
 30
0.0
 11
21041.387106663511
 21
9320.2917521018062
 31
0.0
  0
LINE
  5
60DDD
  8
SUNPOU
 10
16954.268210725349
 20
9772.2466996605654
 30
0.0
 11
18694.503844154959
 21
9772.2466996605654
 31
0.0
  0
LINE
  5
60DDE
  8
SUNPOU
 10
17015.99999999996
 20
6285.2917521017798
 30
0.0
 11
18694.503844154951
 21
6285.2917521017798
 31
0.0
  0
LINE
  5
60DDF
  8
SUNPOU
 10
18614.503844154959
 20
9732.2466996605654
 30
0.0
 11
18614.503844154951
 21
6325.2917521017789
 31
0.0
  0
LINE
  5
60DE3
  8
SUNPOU
 10
16861.733969015349
 20
9852.5517371573878
 30
0.0
 11
16888.143873135868
 21
11023.607670656689
 31
0.0
  0
LINE
  5
60DE4
  8
SUNPOU
 10
22670.280187468739
 20
9721.5561593026378
 30
0.0
 11
22696.690091589258
 21
10892.612092801941
 31
0.0
  0
LINE
  5
60DE5
  8
SUNPOU
 10
16926.329986469609
 20
10942.726147745319
 30
0.0
 11
22654.896541260419
 21
10813.53428838812
 31
0.0
  0
LINE
  5
60DE9
  8
SUNPOU
 10
22748.476468971188
 20
9641.5764956400453
 30
0.0
 11
23292.44287204343
 21
9641.5764956400453
 31
0.0
  0
LINE
  5
60DEA
  8
SUNPOU
 10
17015.99999999996
 20
6285.2917521017798
 30
0.0
 11
23292.442872043419
 21
6285.2917521017789
 31
0.0
  0
LINE
  5
60DEB
  8
SUNPOU
 10
23212.44287204343
 20
9601.5764956400453
 30
0.0
 11
23212.442872043419
 21
6325.2917521017789
 31
0.0
  0
LINE
  5
60DEF
  8
SUNPOU
 10
22358.49999999996
 20
5405.2917521017807
 30
0.0
 11
22358.49999999996
 21
4605.2917521017807
 31
0.0
  0
LINE
  5
60DF0
  8
SUNPOU
 10
16858.499999999949
 20
6205.2917521017816
 30
0.0
 11
16858.499999999949
 21
4605.2917521017807
 31
0.0
  0
LINE
  5
60DF1
  8
SUNPOU
 10
22318.49999999996
 20
4685.2917521017807
 30
0.0
 11
16898.499999999949
 21
4685.2917521017807
 31
0.0
  0
LINE
  5
60DF5
  8
SUNPOU
 10
11190.499999999951
 20
6205.2917521017816
 30
0.0
 11
11190.499999999951
 21
4605.2917521017807
 31
0.0
  0
LINE
  5
60DF6
  8
SUNPOU
 10
16858.499999999949
 20
6205.2917521017816
 30
0.0
 11
16858.499999999949
 21
4605.2917521017807
 31
0.0
  0
LINE
  5
60DF7
  8
SUNPOU
 10
11230.499999999951
 20
4685.2917521017807
 30
0.0
 11
16818.499999999949
 21
4685.2917521017807
 31
0.0
  0
LINE
  5
60DFC
  8
SUNPOU
 10
10849.797785384881
 20
10743.707466321061
 30
0.0
 11
10879.696644633539
 21
10746.168810593699
 31
0.0
  0
LINE
  5
60DFE
  8
SUNPOU
 10
17106.632397489058
 20
11258.78477777578
 30
0.0
 11
17076.733538240391
 21
11256.323433503139
 31
0.0
  0
LINE
  5
60E00
  8
SUNPOU
 10
18049.753093279211
 20
10035.291752101781
 30
0.0
 11
18049.753093279211
 21
10005.291752101781
 31
0.0
  0
LINE
  5
60E02
  8
SUNPOU
 10
18049.753093279211
 20
6315.2917521017807
 30
0.0
 11
18049.753093279211
 21
6345.2917521017807
 31
0.0
  0
LINE
  5
60E04
  8
SUNPOU
 10
10118.35269704189
 20
9515.2917521017807
 30
0.0
 11
10118.35269704189
 21
9485.2917521017807
 31
0.0
  0
LINE
  5
60E06
  8
SUNPOU
 10
10118.35269704189
 20
6315.2917521017807
 30
0.0
 11
10118.35269704189
 21
6345.2917521017807
 31
0.0
  0
LINE
  5
60E07
  8
SUNPOU
 10
18258.499999999909
 20
15938.12150036104
 30
0.0
 11
18258.499999999909
 21
15038.12150036126
 31
0.0
  0
LINE
  5
60E08
  8
SUNPOU
 10
20973.499999999971
 20
15938.12150036104
 30
0.0
 11
20973.499999999971
 21
15038.12150036126
 31
0.0
  0
LINE
  5
60E09
  8
SUNPOU
 10
18298.499999999909
 20
15118.12150036126
 30
0.0
 11
20933.499999999971
 21
15118.12150036126
 31
0.0
  0
LINE
  5
60E0D
  8
SUNPOU
 10
12658.500000000029
 20
15938.121500361251
 30
0.0
 11
12658.500000000029
 21
15038.121500361291
 31
0.0
  0
LINE
  5
60E0E
  8
SUNPOU
 10
18173.499999999982
 20
15938.12150036104
 30
0.0
 11
18173.499999999982
 21
15038.121500361291
 31
0.0
  0
LINE
  5
60E0F
  8
SUNPOU
 10
12698.500000000029
 20
15118.121500361291
 30
0.0
 11
18133.499999999982
 21
15118.121500361291
 31
0.0
  0
LINE
  5
60E13
  8
SUNPOU
 10
21256.000000000069
 20
19674.40624389955
 30
0.0
 11
23622.205422612929
 21
19674.40624389955
 31
0.0
  0
LINE
  5
60E14
  8
SUNPOU
 10
21221.000000000069
 20
16318.12150036128
 30
0.0
 11
23622.205422612929
 21
16318.12150036128
 31
0.0
  0
LINE
  5
60E15
  8
SUNPOU
 10
23542.205422612929
 20
19634.40624389955
 30
0.0
 11
23542.205422612929
 21
16358.12150036128
 31
0.0
  0
LINE
  5
60E19
  8
SUNPOU
 10
21221.000000000069
 20
16318.12150036128
 30
0.0
 11
22482.38710666362
 21
16318.12150036128
 31
0.0
  0
LINE
  5
60E1A
  8
SUNPOU
 10
21053.000000000011
 20
19393.121500361311
 30
0.0
 11
22482.38710666362
 21
19393.121500361311
 31
0.0
  0
LINE
  5
60E1B
  8
SUNPOU
 10
22402.38710666362
 20
16358.12150036128
 30
0.0
 11
22402.38710666362
 21
19353.121500361311
 31
0.0
  0
ARC
  5
60E1F
  8
SUNPOU
 10
18216.000000000011
 20
14718.121500361291
 30
0.0
 40
15.0
 50
180.0
 51
0.0
  0
ARC
  5
60E20
  8
SUNPOU
 10
18216.000000000011
 20
14718.121500361291
 30
0.0
 40
15.0
 50
0.0
 51
180.0
  0
ARC
  5
60E21
  8
SUNPOU
 10
21141.000000000011
 20
14718.121500361291
 30
0.0
 40
15.0
 50
0.0
 51
180.0
  0
ARC
  5
60E22
  8
SUNPOU
 10
21141.000000000011
 20
14718.121500361291
 30
0.0
 40
15.0
 50
180.0
 51
0.0
  0
ARC
  5
60E23
  8
SUNPOU
 10
21016.000000000018
 20
14718.121500361291
 30
0.0
 40
15.0
 50
180.0
 51
0.0
  0
ARC
  5
60E24
  8
SUNPOU
 10
21016.000000000018
 20
14718.121500361291
 30
0.0
 40
15.0
 50
0.0
 51
180.0
  0
ARC
  5
60E25
  8
SUNPOU
 10
21196.000000000029
 20
20898.121500361289
 30
0.0
 40
15.0
 50
180.0
 51
0.0
  0
ARC
  5
60E26
  8
SUNPOU
 10
21196.000000000029
 20
20898.121500361289
 30
0.0
 40
15.0
 50
0.0
 51
180.0
  0
ARC
  5
60E27
  8
SUNPOU
 10
17888.0
 20
15518.121500361291
 30
0.0
 40
15.0
 50
180.0
 51
0.0
  0
ARC
  5
60E28
  8
SUNPOU
 10
17888.0
 20
15518.121500361291
 30
0.0
 40
15.0
 50
0.0
 51
180.0
  0
ARC
  5
60E29
  8
SUNPOU
 10
12722.0
 20
15518.121500361291
 30
0.0
 40
15.0
 50
0.0
 51
180.0
  0
ARC
  5
60E2A
  8
SUNPOU
 10
12722.0
 20
15518.121500361291
 30
0.0
 40
15.0
 50
180.0
 51
0.0
  0
ARC
  5
60E2B
  8
SUNPOU
 10
11691.000000000029
 20
19488.121500361289
 30
0.0
 40
15.0
 50
270.0
 51
90.0
  0
ARC
  5
60E2C
  8
SUNPOU
 10
11691.000000000029
 20
19488.121500361289
 30
0.0
 40
15.0
 50
90.0
 51
270.0
  0
ARC
  5
60E2D
  8
SUNPOU
 10
11291.000000000029
 20
20098.121500361289
 30
0.0
 40
15.0
 50
270.0
 51
90.0
  0
ARC
  5
60E2E
  8
SUNPOU
 10
11291.000000000029
 20
20098.121500361289
 30
0.0
 40
15.0
 50
90.0
 51
270.0
  0
ARC
  5
60E2F
  8
SUNPOU
 10
11291.000000000029
 20
16318.121500361291
 30
0.0
 40
15.0
 50
90.0
 51
270.0
  0
ARC
  5
60E30
  8
SUNPOU
 10
11291.000000000029
 20
16318.121500361291
 30
0.0
 40
15.0
 50
270.0
 51
90.0
  0
ARC
  5
60E31
  8
SUNPOU
 10
11691.000000000029
 20
16318.121500361291
 30
0.0
 40
15.0
 50
90.0
 51
270.0
  0
ARC
  5
60E32
  8
SUNPOU
 10
11691.000000000029
 20
16318.121500361291
 30
0.0
 40
15.0
 50
270.0
 51
90.0
  0
ARC
  5
60E33
  8
SUNPOU
 10
21176.000000000029
 20
21298.121500361289
 30
0.0
 40
15.0
 50
180.0
 51
0.0
  0
ARC
  5
60E34
  8
SUNPOU
 10
21176.000000000029
 20
21298.121500361289
 30
0.0
 40
15.0
 50
0.0
 51
180.0
  0
ARC
  5
60E35
  8
SUNPOU
 10
21141.000000000011
 20
20898.121500361289
 30
0.0
 40
15.0
 50
180.0
 51
0.0
  0
ARC
  5
60E36
  8
SUNPOU
 10
21141.000000000011
 20
20898.121500361289
 30
0.0
 40
15.0
 50
0.0
 51
180.0
  0
ARC
  5
60E37
  8
SUNPOU
 10
20910.000000000058
 20
15518.121500361291
 30
0.0
 40
15.0
 50
180.0
 51
0.0
  0
ARC
  5
60E38
  8
SUNPOU
 10
20910.000000000058
 20
15518.121500361291
 30
0.0
 40
15.0
 50
0.0
 51
180.0
  0
ARC
  5
60E39
  8
SUNPOU
 10
21141.000000000011
 20
14318.121500361291
 30
0.0
 40
15.0
 50
180.0
 51
0.0
  0
ARC
  5
60E3A
  8
SUNPOU
 10
21141.000000000011
 20
14318.121500361291
 30
0.0
 40
15.0
 50
0.0
 51
180.0
  0
ARC
  5
60E3B
  8
SUNPOU
 10
21016.000000000018
 20
14718.121500361291
 30
0.0
 40
15.0
 50
180.0
 51
0.0
  0
ARC
  5
60E3C
  8
SUNPOU
 10
21016.000000000018
 20
14718.121500361291
 30
0.0
 40
15.0
 50
0.0
 51
180.0
  0
ARC
  5
60E3D
  8
SUNPOU
 10
21016.000000000018
 20
14718.121500361291
 30
0.0
 40
15.0
 50
180.0
 51
0.0
  0
ARC
  5
60E3E
  8
SUNPOU
 10
21016.000000000018
 20
14718.121500361291
 30
0.0
 40
15.0
 50
0.0
 51
180.0
  0
ARC
  5
60E3F
  8
SUNPOU
 10
18322.000000000029
 20
15518.121500361291
 30
0.0
 40
15.0
 50
0.0
 51
180.0
  0
ARC
  5
60E40
  8
SUNPOU
 10
18322.000000000029
 20
15518.121500361291
 30
0.0
 40
15.0
 50
180.0
 51
0.0
  0
ARC
  5
60E41
  8
SUNPOU
 10
18216.000000000011
 20
14718.121500361291
 30
0.0
 40
15.0
 50
180.0
 51
0.0
  0
ARC
  5
60E42
  8
SUNPOU
 10
18216.000000000011
 20
14718.121500361291
 30
0.0
 40
15.0
 50
0.0
 51
180.0
  0
ARC
  5
60E43
  8
SUNPOU
 10
18216.000000000011
 20
14718.121500361291
 30
0.0
 40
15.0
 50
180.0
 51
0.0
  0
ARC
  5
60E44
  8
SUNPOU
 10
18216.000000000011
 20
14718.121500361291
 30
0.0
 40
15.0
 50
0.0
 51
180.0
  0
ARC
  5
60E45
  8
SUNPOU
 10
12456.000000000029
 20
21298.121500361289
 30
0.0
 40
15.0
 50
0.0
 51
180.0
  0
ARC
  5
60E46
  8
SUNPOU
 10
12456.000000000029
 20
21298.121500361289
 30
0.0
 40
15.0
 50
180.0
 51
0.0
  0
ARC
  5
60E47
  8
SUNPOU
 10
12436.000000000029
 20
20898.121500361289
 30
0.0
 40
15.0
 50
180.0
 51
0.0
  0
ARC
  5
60E48
  8
SUNPOU
 10
12436.000000000029
 20
20898.121500361289
 30
0.0
 40
15.0
 50
0.0
 51
180.0
  0
ARC
  5
60E49
  8
SUNPOU
 10
12491.000000000029
 20
20898.121500361289
 30
0.0
 40
15.0
 50
0.0
 51
180.0
  0
ARC
  5
60E4A
  8
SUNPOU
 10
12491.000000000029
 20
20898.121500361289
 30
0.0
 40
15.0
 50
180.0
 51
0.0
  0
ARC
  5
60E4B
  8
SUNPOU
 10
15416.000000000009
 20
14718.121500361291
 30
0.0
 40
15.0
 50
0.0
 51
180.0
  0
ARC
  5
60E4C
  8
SUNPOU
 10
15416.000000000009
 20
14718.121500361291
 30
0.0
 40
15.0
 50
180.0
 51
0.0
  0
ARC
  5
60E4D
  8
SUNPOU
 10
15416.000000000009
 20
14718.121500361291
 30
0.0
 40
15.0
 50
180.0
 51
0.0
  0
ARC
  5
60E4E
  8
SUNPOU
 10
15416.000000000009
 20
14718.121500361291
 30
0.0
 40
15.0
 50
0.0
 51
180.0
  0
ARC
  5
60E4F
  8
SUNPOU
 10
12491.000000000029
 20
14318.121500361291
 30
0.0
 40
15.0
 50
0.0
 51
180.0
  0
ARC
  5
60E50
  8
SUNPOU
 10
12491.000000000029
 20
14318.121500361291
 30
0.0
 40
15.0
 50
180.0
 51
0.0
  0
ARC
  5
60E51
  8
SUNPOU
 10
12616.000000000029
 20
14718.121500361291
 30
0.0
 40
15.0
 50
180.0
 51
0.0
  0
ARC
  5
60E52
  8
SUNPOU
 10
12616.000000000029
 20
14718.121500361291
 30
0.0
 40
15.0
 50
0.0
 51
180.0
  0
ARC
  5
60E53
  8
SUNPOU
 10
12616.000000000029
 20
14718.121500361291
 30
0.0
 40
15.0
 50
0.0
 51
180.0
  0
ARC
  5
60E54
  8
SUNPOU
 10
12616.000000000029
 20
14718.121500361291
 30
0.0
 40
15.0
 50
180.0
 51
0.0
  0
ARC
  5
60E55
  8
SUNPOU
 10
12491.000000000009
 20
14718.121500361291
 30
0.0
 40
15.0
 50
0.0
 51
180.0
  0
ARC
  5
60E56
  8
SUNPOU
 10
12491.000000000009
 20
14718.121500361291
 30
0.0
 40
15.0
 50
180.0
 51
0.0
  0
TEXT
  5
60E57
  8
SUNPOU
 10
20961.3871066635
 20
8521.1791976675213
 30
0.0
 40
160.0
  1
3075
 50
90.0
 41
0.6666666666666666
  7
00
  0
LINE
  5
60E59
  8
SUNPOU
 10
21041.387106663511
 20
9330.2917521018098
 30
0.0
 11
21041.387106663511
 21
9300.291752101808
 31
0.0
  0
LINE
  5
60E5B
  8
SUNPOU
 10
21041.3871066635
 20
6315.2917521017807
 30
0.0
 11
21041.3871066635
 21
6345.2917521017807
 31
0.0
  0
TEXT
  5
60E5C
  8
SUNPOU
 10
18534.503844154951
 20
7825.5946227065724
 30
0.0
 40
160.0
  1
3487
 50
90.0
 41
0.6666666666666666
  7
00
  0
LINE
  5
60E5E
  8
SUNPOU
 10
18614.503844154951
 20
6315.2917521017798
 30
0.0
 11
18614.503844154951
 21
6345.2917521017798
 31
0.0
  0
LINE
  5
60E60
  8
SUNPOU
 10
18614.503844154959
 20
9742.2466996605654
 30
0.0
 11
18614.503844154959
 21
9712.2466996605654
 31
0.0
  0
TEXT
  5
60E61
  8
SUNPOU
 10
19589.294027028991
 20
10962.690754104049
 30
0.0
 40
160.0
  1
5810
 50
358.70807231024628
 41
0.6666666666666666
  7
00
  0
LINE
  5
60E63
  8
SUNPOU
 10
22664.893999218239
 20
10813.30882357593
 30
0.0
 11
22634.901625344759
 21
10813.985218012511
 31
0.0
  0
LINE
  5
60E65
  8
SUNPOU
 10
16916.33252851179
 20
10942.951612557519
 30
0.0
 11
16946.324902385259
 21
10942.275218120931
 31
0.0
  0
TEXT
  5
60E66
  8
SUNPOU
 10
23132.442872043419
 20
7760.2595206963133
 30
0.0
 40
160.0
  1
3356
 50
90.0
 41
0.6666666666666666
  7
00
  0
LINE
  5
60E68
  8
SUNPOU
 10
23212.442872043419
 20
6315.2917521017789
 30
0.0
 11
23212.442872043419
 21
6345.2917521017789
 31
0.0
  0
LINE
  5
60E6A
  8
SUNPOU
 10
23212.44287204343
 20
9611.5764956400453
 30
0.0
 11
23212.44287204343
 21
9581.5764956400453
 31
0.0
  0
TEXT
  5
60E6B
  8
SUNPOU
 10
19405.325396825348
 20
4765.2917521017798
 30
0.0
 40
160.0
  1
5500
 41
0.6666666666666666
  7
00
  0
LINE
  5
60E6D
  8
SUNPOU
 10
16888.499999999949
 20
4685.2917521017807
 30
0.0
 11
16918.499999999949
 21
4685.2917521017807
 31
0.0
  0
LINE
  5
60E6F
  8
SUNPOU
 10
22328.49999999996
 20
4685.2917521017807
 30
0.0
 11
22298.49999999996
 21
4685.2917521017807
 31
0.0
  0
TEXT
  5
60E70
  8
SUNPOU
 10
13821.32539682535
 20
4765.2917521017798
 30
0.0
 40
160.0
  1
5668
 41
0.6666666666666666
  7
00
  0
LINE
  5
60E72
  8
SUNPOU
 10
16828.499999999949
 20
4685.2917521017807
 30
0.0
 11
16798.499999999949
 21
4685.2917521017807
 31
0.0
  0
LINE
  5
60E74
  8
SUNPOU
 10
11220.499999999951
 20
4685.2917521017807
 30
0.0
 11
11250.499999999951
 21
4685.2917521017807
 31
0.0
  0
ARC
  5
60E75
  8
SUNPOU
 10
10819.898926136209
 20
10741.24612204842
 30
0.0
 40
15.00000000000079
 50
4.706111143730177
 51
184.7061111437302
  0
ARC
  5
60E76
  8
SUNPOU
 10
10819.898926136209
 20
10741.24612204842
 30
0.0
 40
15.00000000000079
 50
184.7061111437302
 51
4.706111143730177
  0
ARC
  5
60E77
  8
SUNPOU
 10
17136.531256737719
 20
11261.24612204842
 30
0.0
 40
14.99999999999897
 50
184.70611114373071
 51
4.7061111437307472
  0
ARC
  5
60E78
  8
SUNPOU
 10
17136.531256737719
 20
11261.24612204842
 30
0.0
 40
14.99999999999897
 50
4.7061111437307472
 51
184.70611114373071
  0
ARC
  5
60E79
  8
SUNPOU
 10
18049.753093279211
 20
10065.291752101781
 30
0.0
 40
15.0
 50
270.0
 51
90.0
  0
ARC
  5
60E7A
  8
SUNPOU
 10
18049.753093279211
 20
10065.291752101781
 30
0.0
 40
15.0
 50
90.0
 51
270.0
  0
ARC
  5
60E7B
  8
SUNPOU
 10
18049.753093279211
 20
6285.2917521017798
 30
0.0
 40
15.0
 50
90.0
 51
270.0
  0
ARC
  5
60E7C
  8
SUNPOU
 10
18049.753093279211
 20
6285.2917521017798
 30
0.0
 40
15.0
 50
270.0
 51
90.0
  0
ARC
  5
60E7D
  8
SUNPOU
 10
10118.35269704189
 20
9545.2917521017807
 30
0.0
 40
15.0
 50
270.0
 51
90.0
  0
ARC
  5
60E7E
  8
SUNPOU
 10
10118.35269704189
 20
9545.2917521017807
 30
0.0
 40
15.0
 50
90.0
 51
270.0
  0
ARC
  5
60E7F
  8
SUNPOU
 10
10118.35269704189
 20
6285.2917521017798
 30
0.0
 40
15.0
 50
90.0
 51
270.0
  0
ARC
  5
60E80
  8
SUNPOU
 10
10118.35269704189
 20
6285.2917521017798
 30
0.0
 40
15.0
 50
270.0
 51
90.0
  0
TEXT
  5
60E81
  8
SUNPOU
 10
20075.80622758191
 20
15198.12150036126
 30
0.0
 40
160.0
  1
2715
 41
0.6666666666666666
  7
00
  0
LINE
  5
60E83
  8
SUNPOU
 10
20943.499999999971
 20
15118.12150036126
 30
0.0
 11
20913.499999999971
 21
15118.12150036126
 31
0.0
  0
LINE
  5
60E85
  8
SUNPOU
 10
18288.499999999909
 20
15118.12150036126
 30
0.0
 11
18318.499999999909
 21
15118.12150036126
 31
0.0
  0
TEXT
  5
60E86
  8
SUNPOU
 10
16100.75598611948
 20
15198.121500361291
 30
0.0
 40
160.0
  1
5515
 41
0.6666666666666666
  7
00
  0
LINE
  5
60E88
  8
SUNPOU
 10
18143.499999999982
 20
15118.121500361291
 30
0.0
 11
18113.499999999982
 21
15118.121500361291
 31
0.0
  0
LINE
  5
60E8A
  8
SUNPOU
 10
12688.500000000029
 20
15118.121500361291
 30
0.0
 11
12718.500000000029
 21
15118.121500361291
 31
0.0
  0
TEXT
  5
60E8B
  8
SUNPOU
 10
23462.205422612918
 20
18064.046136873869
 30
0.0
 40
160.0
  1
3356
 50
90.0
 41
0.6666666666666666
  7
00
  0
LINE
  5
60E8D
  8
SUNPOU
 10
23542.205422612929
 20
16348.12150036128
 30
0.0
 11
23542.205422612929
 21
16378.12150036128
 31
0.0
  0
LINE
  5
60E8F
  8
SUNPOU
 10
23542.205422612929
 20
19644.40624389955
 30
0.0
 11
23542.205422612929
 21
19614.40624389955
 31
0.0
  0
TEXT
  5
60E90
  8
SUNPOU
 10
22322.38710666362
 20
18356.0397598944
 30
0.0
 40
160.0
  1
3075
 50
90.0
 41
0.6666666666666666
  7
00
  0
LINE
  5
60E92
  8
SUNPOU
 10
22402.38710666362
 20
19363.121500361311
 30
0.0
 11
22402.38710666362
 21
19333.121500361311
 31
0.0
  0
LINE
  5
60E94
  8
SUNPOU
 10
22402.38710666362
 20
16348.12150036128
 30
0.0
 11
22402.38710666362
 21
16378.12150036128
 31
0.0
  0
ARC
  5
60E95
  8
SUNPOU
 10
21041.387106663511
 20
9360.291752101808
 30
0.0
 40
15.0
 50
270.0
 51
90.0
  0
ARC
  5
60E96
  8
SUNPOU
 10
21041.387106663511
 20
9360.291752101808
 30
0.0
 40
15.0
 50
90.0
 51
270.0
  0
ARC
  5
60E97
  8
SUNPOU
 10
21041.3871066635
 20
6285.2917521017798
 30
0.0
 40
15.0
 50
90.0
 51
270.0
  0
ARC
  5
60E98
  8
SUNPOU
 10
21041.3871066635
 20
6285.2917521017798
 30
0.0
 40
15.0
 50
270.0
 51
90.0
  0
ARC
  5
60E99
  8
SUNPOU
 10
18614.503844154951
 20
6285.2917521017798
 30
0.0
 40
15.0
 50
90.0
 51
270.0
  0
ARC
  5
60E9A
  8
SUNPOU
 10
18614.503844154951
 20
6285.2917521017798
 30
0.0
 40
15.0
 50
270.0
 51
90.0
  0
ARC
  5
60E9B
  8
SUNPOU
 10
18614.503844154959
 20
9772.2466996605654
 30
0.0
 40
15.0
 50
270.0
 51
90.0
  0
ARC
  5
60E9C
  8
SUNPOU
 10
18614.503844154959
 20
9772.2466996605654
 30
0.0
 40
15.0
 50
90.0
 51
270.0
  0
ARC
  5
60E9D
  8
SUNPOU
 10
22694.886373091711
 20
10812.63242913935
 30
0.0
 40
14.99999999999989
 50
178.70807231024779
 51
358.70807231024781
  0
ARC
  5
60E9E
  8
SUNPOU
 10
22694.886373091711
 20
10812.63242913935
 30
0.0
 40
14.99999999999989
 50
358.70807231024781
 51
178.70807231024779
  0
ARC
  5
60E9F
  8
SUNPOU
 10
16886.340154638321
 20
10943.6280069941
 30
0.0
 40
14.99999999999989
 50
358.70807231024781
 51
178.70807231024779
  0
ARC
  5
60EA0
  8
SUNPOU
 10
16886.340154638321
 20
10943.6280069941
 30
0.0
 40
14.99999999999989
 50
178.70807231024779
 51
358.70807231024781
  0
ARC
  5
60EA1
  8
SUNPOU
 10
23212.442872043419
 20
6285.2917521017789
 30
0.0
 40
15.0
 50
90.0
 51
270.0
  0
ARC
  5
60EA2
  8
SUNPOU
 10
23212.442872043419
 20
6285.2917521017789
 30
0.0
 40
15.0
 50
270.0
 51
90.0
  0
ARC
  5
60EA3
  8
SUNPOU
 10
23212.44287204343
 20
9641.5764956400453
 30
0.0
 40
15.0
 50
270.0
 51
90.0
  0
ARC
  5
60EA4
  8
SUNPOU
 10
23212.44287204343
 20
9641.5764956400453
 30
0.0
 40
15.0
 50
90.0
 51
270.0
  0
ARC
  5
60EA5
  8
SUNPOU
 10
16858.499999999949
 20
4685.2917521017807
 30
0.0
 40
15.0
 50
0.0
 51
180.0
  0
ARC
  5
60EA6
  8
SUNPOU
 10
16858.499999999949
 20
4685.2917521017807
 30
0.0
 40
15.0
 50
180.0
 51
0.0
  0
ARC
  5
60EA7
  8
SUNPOU
 10
22358.49999999996
 20
4685.2917521017807
 30
0.0
 40
15.0
 50
180.0
 51
0.0
  0
ARC
  5
60EA8
  8
SUNPOU
 10
22358.49999999996
 20
4685.2917521017807
 30
0.0
 40
15.0
 50
0.0
 51
180.0
  0
ARC
  5
60EA9
  8
SUNPOU
 10
16858.499999999949
 20
4685.2917521017807
 30
0.0
 40
15.0
 50
180.0
 51
0.0
  0
ARC
  5
60EAA
  8
SUNPOU
 10
16858.499999999949
 20
4685.2917521017807
 30
0.0
 40
15.0
 50
0.0
 51
180.0
  0
ARC
  5
60EAB
  8
SUNPOU
 10
11190.499999999951
 20
4685.2917521017807
 30
0.0
 40
15.0
 50
0.0
 51
180.0
  0
ARC
  5
60EAC
  8
SUNPOU
 10
11190.499999999951
 20
4685.2917521017807
 30
0.0
 40
15.0
 50
180.0
 51
0.0
  0
ARC
  5
60EAD
  8
SUNPOU
 10
20973.499999999971
 20
15118.12150036126
 30
0.0
 40
15.0
 50
180.0
 51
0.0
  0
ARC
  5
60EAE
  8
SUNPOU
 10
20973.499999999971
 20
15118.12150036126
 30
0.0
 40
15.0
 50
0.0
 51
180.0
  0
ARC
  5
60EAF
  8
SUNPOU
 10
18258.499999999909
 20
15118.12150036126
 30
0.0
 40
15.0
 50
0.0
 51
180.0
  0
ARC
  5
60EB0
  8
SUNPOU
 10
18258.499999999909
 20
15118.12150036126
 30
0.0
 40
15.0
 50
180.0
 51
0.0
  0
ARC
  5
60EB1
  8
SUNPOU
 10
18173.499999999982
 20
15118.121500361291
 30
0.0
 40
15.0
 50
180.0
 51
0.0
  0
ARC
  5
60EB2
  8
SUNPOU
 10
18173.499999999982
 20
15118.121500361291
 30
0.0
 40
15.0
 50
0.0
 51
180.0
  0
ARC
  5
60EB3
  8
SUNPOU
 10
12658.500000000029
 20
15118.121500361291
 30
0.0
 40
15.0
 50
0.0
 51
180.0
  0
ARC
  5
60EB4
  8
SUNPOU
 10
12658.500000000029
 20
15118.121500361291
 30
0.0
 40
15.0
 50
180.0
 51
0.0
  0
ARC
  5
60EB5
  8
SUNPOU
 10
23542.205422612929
 20
16318.12150036128
 30
0.0
 40
15.0
 50
90.0
 51
270.0
  0
ARC
  5
60EB6
  8
SUNPOU
 10
23542.205422612929
 20
16318.12150036128
 30
0.0
 40
15.0
 50
270.0
 51
90.0
  0
ARC
  5
60EB7
  8
SUNPOU
 10
23542.205422612929
 20
19674.40624389955
 30
0.0
 40
15.0
 50
270.0
 51
90.0
  0
ARC
  5
60EB8
  8
SUNPOU
 10
23542.205422612929
 20
19674.40624389955
 30
0.0
 40
15.0
 50
90.0
 51
270.0
  0
ARC
  5
60EB9
  8
SUNPOU
 10
22402.38710666362
 20
19393.121500361311
 30
0.0
 40
15.0
 50
270.0
 51
90.0
  0
ARC
  5
60EBA
  8
SUNPOU
 10
22402.38710666362
 20
19393.121500361311
 30
0.0
 40
15.0
 50
90.0
 51
270.0
  0
ARC
  5
60EBB
  8
SUNPOU
 10
22402.38710666362
 20
16318.12150036128
 30
0.0
 40
15.0
 50
90.0
 51
270.0
  0
ARC
  5
60EBC
  8
SUNPOU
 10
22402.38710666362
 20
16318.12150036128
 30
0.0
 40
15.0
 50
270.0
 51
90.0
  0
LINE
  5
60EBF
  8
HIKIDASHI
 10
14553.660605833549
 20
9949.9526755505431
 30
0.0
 11
14685.46604410426
 21
9855.4093650871509
 31
0.0
  0
LINE
  5
60EC0
  8
HIKIDASHI
 10
14685.46604410426
 20
9855.4093650871509
 30
0.0
 11
14591.447919403879
 21
9987.5899360457279
 31
0.0
  0
SOLID
  5
60EC1
  8
HIKIDASHI
 10
14553.660605833549
 20
9949.9526755505431
 30
0.0
 11
14591.447919403879
 21
9987.5899360457279
 31
0.0
 12
14685.46604410426
 22
9855.4093650871509
 32
0.0
 13
14685.46604410426
 23
9855.4093650871509
 33
0.0
  0
LINE
  5
60EC2
  8
HIKIDASHI
 10
14591.447919403879
 20
9987.5899360457279
 30
0.0
 11
14553.660605833549
 21
9949.9526755505431
 31
0.0
  0
LINE
  5
60EC3
  8
HIKIDASHI
 10
15124.828675628019
 20
6414.5677232007602
 30
0.0
 11
15176.000000000009
 21
6568.4917521017924
 31
0.0
  0
LINE
  5
60EC4
  8
HIKIDASHI
 10
15176.000000000009
 20
6568.4917521017924
 30
0.0
 11
15077.673386491029
 21
6439.4840461809217
 31
0.0
  0
SOLID
  5
60EC5
  8
HIKIDASHI
 10
15124.828675628019
 20
6414.5677232007602
 30
0.0
 11
15077.673386491029
 21
6439.4840461809217
 31
0.0
 12
15176.000000000009
 22
6568.4917521017924
 32
0.0
 13
15176.000000000009
 23
6568.4917521017924
 33
0.0
  0
LINE
  5
60EC6
  8
HIKIDASHI
 10
15077.673386491029
 20
6439.4840461809217
 30
0.0
 11
15124.828675628019
 21
6414.5677232007602
 31
0.0
  0
LINE
  5
60EC9
  8
HIKIDASHI
 10
19229.09244282568
 20
9850.8159589273837
 30
0.0
 11
19592.103577875951
 21
10347.340522398221
 31
0.0
1001
ACAD
1000
DSTYLE
1002
{
1070
   147
1040
1.0
1070
    77
1070
     0
1002
}
  0
LINE
  5
60ECA
  8
HIKIDASHI
 10
19207.565447276509
 20
9866.5544332415284
 30
0.0
 11
19134.661596940809
 21
9721.6539856323434
 31
0.0
  0
LINE
  5
60ECB
  8
HIKIDASHI
 10
19134.661596940809
 20
9721.6539856323434
 30
0.0
 11
19250.619438374852
 21
9835.0774846132408
 31
0.0
  0
SOLID
  5
60ECC
  8
HIKIDASHI
 10
19207.565447276509
 20
9866.5544332415284
 30
0.0
 11
19250.619438374852
 21
9835.0774846132408
 31
0.0
 12
19134.661596940809
 22
9721.6539856323434
 32
0.0
 13
19134.661596940809
 23
9721.6539856323434
 33
0.0
  0
LINE
  5
60ECD
  8
HIKIDASHI
 10
19250.619438374852
 20
9835.0774846132408
 30
0.0
 11
19207.565447276509
 21
9866.5544332415284
 31
0.0
  0
LINE
  5
60ECE
  8
HIKIDASHI
 10
13640.89270383013
 20
16549.62455118067
 30
0.0
 11
12345.52850062502
 21
15537.63741541309
 31
0.0
1001
ACAD
1000
DSTYLE
1002
{
1070
   147
1040
1.0
1070
    77
1070
     0
1002
}
  0
LINE
  5
60ECF
  8
HIKIDASHI
 10
13657.309715608741
 20
16528.610440793309
 30
0.0
 11
13766.97736615428
 21
16648.12662185232
 31
0.0
  0
LINE
  5
60ED0
  8
HIKIDASHI
 10
13766.97736615428
 20
16648.12662185232
 30
0.0
 11
13624.475692051519
 21
16570.638661568031
 31
0.0
  0
SOLID
  5
60ED1
  8
HIKIDASHI
 10
13657.309715608741
 20
16528.610440793309
 30
0.0
 11
13624.475692051519
 21
16570.638661568031
 31
0.0
 12
13766.97736615428
 22
16648.12662185232
 32
0.0
 13
13766.97736615428
 23
16648.12662185232
 33
0.0
  0
LINE
  5
60ED2
  8
HIKIDASHI
 10
13624.475692051519
 20
16570.638661568031
 30
0.0
 11
13657.309715608741
 21
16528.610440793309
 31
0.0
  0
LINE
  5
60ED3
  8
U1
 10
14216.000000000029
 20
17218.921500361292
 30
0.0
 11
14316.000000000029
 21
17218.921500361292
 31
0.0
  0
LINE
  5
60ED4
  8
U1
 10
14316.000000000029
 20
17218.921500361292
 30
0.0
 11
14316.000000000029
 21
17188.921500361292
 31
0.0
  0
LINE
  5
60ED5
  8
U1
 10
14316.000000000029
 20
17188.921500361292
 30
0.0
 11
14216.000000000029
 21
17188.921500361292
 31
0.0
  0
LINE
  5
60ED6
  8
U1
 10
14216.000000000029
 20
17188.921500361292
 30
0.0
 11
14216.000000000029
 21
17218.921500361292
 31
0.0
  0
LINE
  5
60ED7
  8
U1
 10
13716.000000000029
 20
17218.921500361292
 30
0.0
 11
13816.000000000029
 21
17218.921500361292
 31
0.0
  0
LINE
  5
60ED8
  8
U1
 10
13816.000000000029
 20
17218.921500361292
 30
0.0
 11
13816.000000000029
 21
17188.921500361292
 31
0.0
  0
LINE
  5
60ED9
  8
U1
 10
13816.000000000029
 20
17188.921500361292
 30
0.0
 11
13716.000000000029
 21
17188.921500361292
 31
0.0
  0
LINE
  5
60EDA
  8
U1
 10
13716.000000000029
 20
17188.921500361292
 30
0.0
 11
13716.000000000029
 21
17218.921500361292
 31
0.0
  0
LINE
  5
60EDB
  8
U1
 10
17016.00000000004
 20
17218.921500361292
 30
0.0
 11
17116.00000000004
 21
17218.921500361292
 31
0.0
  0
LINE
  5
60EDC
  8
U1
 10
17116.00000000004
 20
17218.921500361292
 30
0.0
 11
17116.00000000004
 21
17188.921500361292
 31
0.0
  0
LINE
  5
60EDD
  8
U1
 10
17116.00000000004
 20
17188.921500361292
 30
0.0
 11
17016.00000000004
 21
17188.921500361292
 31
0.0
  0
LINE
  5
60EDE
  8
U1
 10
17016.00000000004
 20
17188.921500361292
 30
0.0
 11
17016.00000000004
 21
17218.921500361292
 31
0.0
  0
LINE
  5
60EDF
  8
U1
 10
16516.00000000004
 20
17218.921500361292
 30
0.0
 11
16616.00000000004
 21
17218.921500361292
 31
0.0
  0
LINE
  5
60EE0
  8
U1
 10
16616.00000000004
 20
17218.921500361292
 30
0.0
 11
16616.00000000004
 21
17188.921500361292
 31
0.0
  0
LINE
  5
60EE1
  8
U1
 10
16616.00000000004
 20
17188.921500361292
 30
0.0
 11
16516.00000000004
 21
17188.921500361292
 31
0.0
  0
LINE
  5
60EE2
  8
U1
 10
16516.00000000004
 20
17188.921500361292
 30
0.0
 11
16516.00000000004
 21
17218.921500361292
 31
0.0
  0
LINE
  5
60EE3
  8
U1
 10
19816.000000000058
 20
17218.921500361292
 30
0.0
 11
19916.000000000058
 21
17218.921500361292
 31
0.0
  0
LINE
  5
60EE4
  8
U1
 10
19916.000000000058
 20
17218.921500361292
 30
0.0
 11
19916.000000000058
 21
17188.921500361292
 31
0.0
  0
LINE
  5
60EE5
  8
U1
 10
19916.000000000058
 20
17188.921500361292
 30
0.0
 11
19816.000000000058
 21
17188.921500361292
 31
0.0
  0
LINE
  5
60EE6
  8
U1
 10
19816.000000000058
 20
17188.921500361292
 30
0.0
 11
19816.000000000058
 21
17218.921500361292
 31
0.0
  0
LINE
  5
60EE7
  8
U1
 10
19316.000000000058
 20
17218.921500361292
 30
0.0
 11
19416.000000000058
 21
17218.921500361292
 31
0.0
  0
LINE
  5
60EE8
  8
U1
 10
19416.000000000058
 20
17218.921500361292
 30
0.0
 11
19416.000000000058
 21
17188.921500361292
 31
0.0
  0
LINE
  5
60EE9
  8
U1
 10
19416.000000000058
 20
17188.921500361292
 30
0.0
 11
19316.000000000058
 21
17188.921500361292
 31
0.0
  0
LINE
  5
60EEA
  8
U1
 10
19316.000000000058
 20
17188.921500361292
 30
0.0
 11
19316.000000000058
 21
17218.921500361292
 31
0.0
  0
LINE
  5
60EEB
  8
U5
 10
19090.99999999996
 20
5485.2917521017798
 30
0.0
 11
20040.99999999996
 21
5485.2917521017798
 31
0.0
  0
LINE
  5
60EEC
  8
U5
 10
20040.99999999996
 20
5485.2917521017798
 30
0.0
 11
20040.99999999996
 21
5985.2917521017798
 31
0.0
  0
LINE
  5
60EED
  8
U5
 10
20040.99999999996
 20
5985.2917521017798
 30
0.0
 11
19090.99999999996
 21
5985.2917521017798
 31
0.0
  0
LINE
  5
60EEE
  8
U5
 10
19090.99999999996
 20
5985.2917521017798
 30
0.0
 11
19090.99999999996
 21
5485.2917521017798
 31
0.0
  0
LINE
  5
60EEF
  8
U5
 10
21840.99999999996
 20
5485.2917521017798
 30
0.0
 11
22790.99999999996
 21
5485.2917521017798
 31
0.0
  0
LINE
  5
60EF0
  8
U5
 10
22790.99999999996
 20
5485.2917521017798
 30
0.0
 11
22790.99999999996
 21
5985.2917521017798
 31
0.0
  0
LINE
  5
60EF1
  8
U5
 10
22790.99999999996
 20
5985.2917521017798
 30
0.0
 11
21840.99999999996
 21
5985.2917521017798
 31
0.0
  0
LINE
  5
60EF2
  8
U5
 10
21840.99999999996
 20
5985.2917521017798
 30
0.0
 11
21840.99999999996
 21
5485.2917521017798
 31
0.0
  0
LINE
  5
60EF3
  8
KERABA
 10
10928.47380611343
 20
9421.6195885777252
 30
0.0
 11
10922.938255728761
 21
9489.3939029006415
 31
0.0
  0
LINE
  5
60EF4
  8
KERABA
 10
10922.938255728761
 20
9489.3939029006415
 30
0.0
 11
10926.596587165621
 21
9493.7086000045383
 31
0.0
  0
LINE
  5
60EF5
  8
KERABA
 10
10926.596587165621
 20
9493.7086000045383
 30
0.0
 11
10925.776130081749
 21
9503.6748856804188
 31
0.0
  0
LINE
  5
60EF6
  8
KERABA
 10
10925.776130081749
 20
9503.6748856804188
 30
0.0
 11
10923.61878152984
 21
9505.5040513988497
 31
0.0
  0
LINE
  5
60EF7
  8
KERABA
 10
10923.61878152984
 20
9505.5040513988497
 30
0.0
 11
10922.79832444597
 21
9515.4703370747284
 31
0.0
  0
LINE
  5
60EF8
  8
KERABA
 10
10922.79832444597
 20
9515.4703370747284
 30
0.0
 11
10920.64097589401
 21
9517.299502793132
 31
0.0
  0
LINE
  5
60EF9
  8
KERABA
 10
10920.64097589401
 20
9517.299502793132
 30
0.0
 11
10919.21338056815
 21
9534.6408398692001
 31
0.0
  0
ARC
  5
60EFA
  8
KERABA
 10
10929.777643384599
 20
9535.5105243780799
 30
0.0
 40
10.600000000005849
 50
94.706162844004695
 51
184.7061628439549
  0
LINE
  5
60EFB
  8
KERABA
 10
10928.90795887571
 20
9546.0747871945368
 30
0.0
 11
10953.225695924901
 21
9548.0767024790839
 31
0.0
  0
LINE
  5
60EFC
  8
KERABA
 10
10953.225695924901
 20
9548.0767024790839
 30
0.0
 11
10967.993923434011
 21
9368.6835603129439
 31
0.0
  0
LINE
  5
60EFD
  8
KERABA
 10
10967.993923434011
 20
9368.6835603129439
 30
0.0
 11
10943.676186384881
 21
9366.6816450283932
 31
0.0
  0
ARC
  5
60EFE
  8
KERABA
 10
10942.80650187599
 20
9377.2459078448392
 30
0.0
 40
10.599999999995569
 50
184.7061628439491
 51
274.70616284399892
  0
LINE
  5
60EFF
  8
KERABA
 10
10932.24223905954
 20
9376.3762233359594
 30
0.0
 11
10930.81464373362
 21
9393.7175604120257
 31
0.0
  0
LINE
  5
60F00
  8
KERABA
 10
10930.81464373362
 20
9393.7175604120257
 30
0.0
 11
10934.472975170491
 21
9398.0322575159225
 31
0.0
  0
LINE
  5
60F01
  8
KERABA
 10
10934.472975170491
 20
9398.0322575159225
 30
0.0
 11
10933.65251808661
 21
9407.998543191803
 31
0.0
  0
LINE
  5
60F02
  8
KERABA
 10
10933.65251808661
 20
9407.998543191803
 30
0.0
 11
10931.49516953471
 21
9409.8277089102321
 31
0.0
  0
LINE
  5
60F03
  8
KERABA
 10
10931.49516953471
 20
9409.8277089102321
 30
0.0
 11
10930.67471245084
 21
9419.7939945861144
 31
0.0
  0
LINE
  5
60F04
  8
KERABA
 10
10930.67471245084
 20
9419.7939945861144
 30
0.0
 11
10928.51736389888
 21
9421.6231603045453
 31
0.0
  0
LINE
  5
60F05
  8
KERABA
 10
17245.149225280398
 20
9941.6288600416592
 30
0.0
 11
17243.320059562
 21
9939.4715114897281
 31
0.0
  0
LINE
  5
60F06
  8
KERABA
 10
17243.320059562
 20
9939.4715114897281
 30
0.0
 11
17244.14051664581
 21
9929.5052258138185
 31
0.0
  0
LINE
  5
60F07
  8
KERABA
 10
17244.14051664581
 20
9929.5052258138185
 30
0.0
 11
17242.311350927412
 21
9927.3478772618546
 31
0.0
  0
LINE
  5
60F08
  8
KERABA
 10
17242.311350927412
 20
9927.3478772618546
 30
0.0
 11
17243.13180801128
 21
9917.3815915859741
 31
0.0
  0
LINE
  5
60F09
  8
KERABA
 10
17243.13180801128
 20
9917.3815915859741
 30
0.0
 11
17247.446505115149
 21
9913.7232601491414
 31
0.0
  0
LINE
  5
60F0A
  8
KERABA
 10
17247.446505115149
 20
9913.7232601491414
 30
0.0
 11
17248.874100441069
 21
9896.3819230730733
 31
0.0
  0
ARC
  5
60F0B
  8
KERABA
 10
17238.309837624602
 20
9895.5122385642353
 30
0.0
 40
10.60000000001496
 50
274.7061628437533
 51
4.7061628437140808
  0
LINE
  5
60F0C
  8
KERABA
 10
17239.17952213344
 20
9884.9479757477693
 30
0.0
 11
17214.861785084249
 21
9882.9460604631895
 31
0.0
  0
LINE
  5
60F0D
  8
KERABA
 10
17214.861785084249
 20
9882.9460604631895
 30
0.0
 11
17200.09355757515
 21
10062.33920262933
 31
0.0
  0
LINE
  5
60F0E
  8
KERABA
 10
17200.09355757515
 20
10062.33920262933
 30
0.0
 11
17224.41129462434
 21
10064.341117913909
 31
0.0
  0
ARC
  5
60F0F
  8
KERABA
 10
17225.280979133211
 20
10053.776855097451
 30
0.0
 40
10.60000000000888
 50
4.7061628438642931
 51
94.706162843914086
  0
LINE
  5
60F10
  8
KERABA
 10
17235.845241949672
 20
10054.64653960631
 30
0.0
 11
17237.272837275541
 21
10037.30520253027
 31
0.0
  0
LINE
  5
60F11
  8
KERABA
 10
17237.272837275541
 20
10037.30520253027
 30
0.0
 11
17235.443671557128
 21
10035.147853978309
 31
0.0
  0
LINE
  5
60F12
  8
KERABA
 10
17235.443671557128
 20
10035.147853978309
 30
0.0
 11
17236.264128640949
 21
10025.181568302431
 31
0.0
  0
LINE
  5
60F13
  8
KERABA
 10
17236.264128640949
 20
10025.181568302431
 30
0.0
 11
17234.434962922551
 21
10023.02421975047
 31
0.0
  0
LINE
  5
60F14
  8
KERABA
 10
17234.434962922551
 20
10023.02421975047
 30
0.0
 11
17235.255420006419
 21
10013.05793407459
 31
0.0
  0
LINE
  5
60F15
  8
KERABA
 10
17235.255420006419
 20
10013.05793407459
 30
0.0
 11
17239.570117110281
 21
10009.399602637761
 31
0.0
  0
LINE
  5
60F16
  8
KERABA
 10
17239.570117110281
 20
10009.399602637761
 30
0.0
 11
17245.149225280398
 21
9941.6288600416592
 31
0.0
  0
ENDSEC
  0
EOF
