  0
SECTION
  2
HEADER
  9
$ACADVER
  1
AC1009
  9
$INSBASE
 10
267.00000000000011
 20
194.89999999999981
 30
0.0
  9
$EXTMIN
 10
867.99324330406671
 20
309.25420607120031
 30
-0.000000000000013
  9
$EXTMAX
 10
32765.33210850941
 20
22484.553276491992
 30
0.0000000000000023
  9
$LIMMIN
 10
0.0
 20
0.0
  9
$LIMMAX
 10
33600.0
 20
23760.0
  9
$ORTHOMODE
 70
     0
  9
$REGENMODE
 70
     1
  9
$FILLMODE
 70
     1
  9
$QTEXTMODE
 70
     0
  9
$MIRRTEXT
 70
     0
  9
$DRAGMODE
 70
     2
  9
$LTSCALE
 40
80.0
  9
$OSMODE
 70
  3071
  9
$ATTMODE
 70
     1
  9
$TEXTSIZE
 40
0.2
  9
$TRACEWID
 40
0.05
  9
$TEXTSTYLE
  7
00
  9
$CLAYER
  8
SUNPOU
  9
$CELTYPE
  6
BYLAYER
  9
$CECOLOR
 62
   256
  9
$DIMSCALE
 40
80.0
  9
$DIMASZ
 40
0.5
  9
$DIMEXO
 40
1.0
  9
$DIMDLI
 40
7.0
  9
$DIMRND
 40
0.0
  9
$DIMDLE
 40
3.0
  9
$DIMEXE
 40
1.0
  9
$DIMTP
 40
0.0
  9
$DIMTM
 40
0.0
  9
$DIMTXT
 40
2.0
  9
$DIMCEN
 40
0.0
  9
$DIMTSZ
 40
0.0
  9
$DIMTOL
 70
     0
  9
$DIMLIM
 70
     0
  9
$DIMTIH
 70
     0
  9
$DIMTOH
 70
     0
  9
$DIMSE1
 70
     0
  9
$DIMSE2
 70
     0
  9
$DIMTAD
 70
     1
  9
$DIMZIN
 70
     8
  9
$DIMBLK
  1
DOT
  9
$DIMASO
 70
     1
  9
$DIMSHO
 70
     0
  9
$DIMPOST
  1

  9
$DIMAPOST
  1

  9
$DIMALT
 70
     0
  9
$DIMALTD
 70
     2
  9
$DIMALTF
 40
25.399999999999999
  9
$DIMLFAC
 40
1.0
  9
$DIMTOFL
 70
     1
  9
$DIMTVP
 40
0.0
  9
$DIMTIX
 70
     0
  9
$DIMSOXD
 70
     0
  9
$DIMSAH
 70
     1
  9
$DIMBLK1
  1
DOT
  9
$DIMBLK2
  1
DOT
  9
$DIMSTYLE
  2
SUNPOU_申請図
  9
$DIMCLRD
 70
   256
  9
$DIMCLRE
 70
   256
  9
$DIMCLRT
 70
   256
  9
$DIMTFAC
 40
1.0
  9
$DIMGAP
 40
1.0
  9
$LUNITS
 70
     2
  9
$LUPREC
 70
     2
  9
$SKETCHINC
 40
0.1
  9
$FILLETRAD
 40
0.0
  9
$AUNITS
 70
     0
  9
$AUPREC
 70
     0
  9
$MENU
  1
A:\TIGER\MENU\TIGER
  9
$ELEVATION
 40
0.0
  9
$PELEVATION
 40
0.0
  9
$THICKNESS
 40
0.0
  9
$LIMCHECK
 70
     0
  9
$BLIPMODE
 70
     1
  9
$CHAMFERA
 40
0.0
  9
$CHAMFERB
 40
0.0
  9
$SKPOLY
 70
     0
  9
$TDCREATE
 40
2450266.5710648149
  9
$TDUPDATE
 40
2456314.709176424
  9
$TDINDWG
 40
0.5115432292
  9
$TDUSRTIMER
 40
0.5115432292
  9
$USRTIMER
 70
     1
  9
$ANGBASE
 50
0.0
  9
$ANGDIR
 70
     0
  9
$PDMODE
 70
     0
  9
$PDSIZE
 40
0.0
  9
$PLINEWID
 40
0.0
  9
$COORDS
 70
     0
  9
$SPLFRAME
 70
     0
  9
$SPLINETYPE
 70
     6
  9
$SPLINESEGS
 70
     8
  9
$ATTDIA
 70
     0
  9
$ATTREQ
 70
     1
  9
$HANDLING
 70
     1
  9
$HANDSEED
  5
640E0
  9
$SURFTAB1
 70
     6
  9
$SURFTAB2
 70
     6
  9
$SURFTYPE
 70
     6
  9
$SURFU
 70
     6
  9
$SURFV
 70
     6
  9
$UCSNAME
  2

  9
$UCSORG
 10
0.0
 20
0.0
 30
0.0
  9
$UCSXDIR
 10
1.0
 20
0.0
 30
0.0
  9
$UCSYDIR
 10
0.0
 20
1.0
 30
0.0
  9
$PUCSNAME
  2

  9
$PUCSORG
 10
0.0
 20
0.0
 30
0.0
  9
$PUCSXDIR
 10
1.0
 20
0.0
 30
0.0
  9
$PUCSYDIR
 10
0.0
 20
1.0
 30
0.0
  9
$USERI1
 70
     3
  9
$USERI2
 70
     0
  9
$USERI3
 70
     0
  9
$USERI4
 70
     0
  9
$USERI5
 70
  1103
  9
$USERR1
 40
0.0
  9
$USERR2
 40
1.0
  9
$USERR3
 40
0.0
  9
$USERR4
 40
0.0
  9
$USERR5
 40
0.0
  9
$WORLDVIEW
 70
     1
  9
$SHADEDGE
 70
     3
  9
$SHADEDIF
 70
    70
  9
$TILEMODE
 70
     1
  9
$MAXACTVP
 70
    16
  9
$PLIMCHECK
 70
     0
  9
$PEXTMIN
 10
1.0000000000000000E+020
 20
1.0000000000000000E+020
 30
1.0000000000000000E+020
  9
$PEXTMAX
 10
-1.0000000000000000E+020
 20
-1.0000000000000000E+020
 30
-1.0000000000000000E+020
  9
$PLIMMIN
 10
0.0
 20
0.0
  9
$PLIMMAX
 10
12.0
 20
9.0
  9
$UNITMODE
 70
     0
  9
$VISRETAIN
 70
     0
  9
$PLINEGEN
 70
     1
  9
$PSLTSCALE
 70
     0
  0
ENDSEC
  0
SECTION
  2
TABLES
  0
TABLE
  2
VPORT
 70
     1
  0
VPORT
  2
*ACTIVE
 70
     0
 10
0.0
 20
0.0
 11
1.0
 21
1.0
 12
16800.0
 22
11880.0
 13
0.0
 23
0.0
 14
1.0
 24
1.0
 15
0.0
 25
0.0
 16
0.0
 26
0.0
 36
1.0
 17
0.0
 27
0.0
 37
0.0
 40
23958.55153203342
 41
1.6471408647140859
 42
50.0
 43
0.0
 44
0.0
 50
0.0
 51
0.0
 71
     0
 72
 10000
 73
     1
 74
     0
 75
     0
 76
     0
 77
     0
 78
     0
  0
ENDTAB
  0
TABLE
  2
LTYPE
 70
     7
  0
LTYPE
  2
CONTINUOUS
 70
     0
  3
実線
 72
    65
 73
     0
 40
0.0
  0
LTYPE
  2
HIDE-L
 70
     0
  3

 72
    65
 73
     2
 40
3.0
 49
2.0
 49
-1.0
  0
LTYPE
  2
1PL-L
 70
     0
  3

 72
    65
 73
     4
 40
56.0
 49
50.0
 49
-2.0
 49
2.0
 49
-2.0
  0
LTYPE
  2
1PL-M
 70
     0
  3

 72
    65
 73
     4
 40
15.0
 49
12.0
 49
-1.0
 49
1.0
 49
-1.0
  0
LTYPE
  2
1PL-S
 70
     0
  3

 72
    65
 73
     4
 40
4.0
 49
2.5
 49
-0.5
 49
0.5
 49
-0.5
  0
ENDTAB
  0
TABLE
  2
LAYER
 70
    20
  0
LAYER
  2
0
 70
     0
 62
     7
  6
CONTINUOUS
  0
LAYER
  2
U1
 70
     0
 62
     3
  6
CONTINUOUS
  0
LAYER
  2
U3
 70
     0
 62
     6
  6
CONTINUOUS
  0
LAYER
  2
U6
 70
     0
 62
     1
  6
CONTINUOUS
  0
LAYER
  2
SUNPOU
 70
     0
 62
     4
  6
CONTINUOUS
  0
LAYER
  2
HIKIDASHI
 70
     0
 62
     6
  6
CONTINUOUS
  0
LAYER
  2
1PL-M1
 70
     0
 62
     6
  6
1PL-M
  0
LAYER
  2
1PL-L1
 70
     0
 62
     6
  6
1PL-L
  0
LAYER
  2
NAME
 70
     0
 62
    20
  6
CONTINUOUS
  0
LAYER
  2
HATCH
 70
     0
 62
     2
  6
CONTINUOUS
  0
LAYER
  2
KISO_U
 70
     0
 62
     6
  6
CONTINUOUS
  0
LAYER
  2
FILENAME
 70
     0
 62
     7
  6
CONTINUOUS
  0
LAYER
  2
YODOROGO
 70
     0
 62
   130
  6
CONTINUOUS
  0
LAYER
  2
WAKUSEN-01
 70
     0
 62
    50
  6
CONTINUOUS
  0
LAYER
  2
WAKUSEN-02
 70
     0
 62
   130
  6
CONTINUOUS
  0
LAYER
  2
WAKUMOJI-01
 70
     0
 62
   130
  6
CONTINUOUS
  0
LAYER
  2
耐風型受皿
 70
     0
 62
     3
  6
CONTINUOUS
  0
ENDTAB
  0
TABLE
  2
STYLE
 70
     5
  0
STYLE
  2
STANDARD
 70
     0
 40
3.0
 41
1.0
 50
0.0
 71
     0
 42
0.2
  3
ROMANS
  4
EXTFONT
  0
STYLE
  2
01
 70
     0
 40
3.0
 41
1.0
 50
0.0
 71
     0
 42
0.2
  3
ROMANS
  4
BIGFONT
  0
STYLE
  2
00
 70
     0
 40
0.0
 41
0.6666666666666666
 50
0.0
 71
     0
 42
0.2
  3
ROMANS
  4
BIGFONT
  0
STYLE
  2
FILENAME
 70
     0
 40
200.0
 41
1.0
 50
0.0
 71
     0
 42
200.0
  3
romans
  4
bigfont
  0
STYLE
  2
WAKUMOJI
 70
     0
 40
3.0
 41
1.0
 50
0.0
 71
     0
 42
3.0
  3
SIMPLEX
  4
BIGFONT
  0
ENDTAB
  0
TABLE
  2
VIEW
 70
     0
  0
ENDTAB
  0
TABLE
  2
UCS
 70
     0
  0
ENDTAB
  0
TABLE
  2
APPID
 70
    13
  0
APPID
  2
ACAD
 70
     0
  0
APPID
  2
AUTOCAD_POSTSCRIPT_FIGURE
 70
     0
  0
APPID
  2
CONTENTBLOCKICON
 70
     0
  0
APPID
  2
ACAD_PSEXT
 70
     0
  0
APPID
  2
ACAD_EXEMPT_FROM_CAD_STANDARDS
 70
     0
  0
APPID
  2
ACAD_NAV_VCDISPLAY
 70
     0
  0
APPID
  2
ACAECLAYERSTANDARD
 70
     0
  0
APPID
  2
ACCMTRANSPARENCY
 70
     0
  0
APPID
  2
ACLAYERTOOLS
 70
     0
  0
APPID
  2
GRADIENTCOLOR1ACI
 70
     0
  0
APPID
  2
GRADIENTCOLOR2ACI
 70
     0
  0
APPID
  2
AEC_XDATA_BOUND_SPACE
 70
     0
  0
APPID
  2
ACAD_MLEADERVER
 70
     0
  0
ENDTAB
  0
TABLE
  2
DIMSTYLE
 70
     4
  0
DIMSTYLE
  2
SUNPOU_申請図
 70
     0
  3

  4

  5
DOT
  6
DOT
  7
DOT
 40
80.0
 41
0.5
 42
1.0
 43
7.0
 44
1.0
 45
0.0
 46
3.0
 47
0.0
 48
0.0
140
2.0
141
0.0
142
0.0
143
25.399999999999999
144
1.0
145
0.0
146
1.0
147
1.0
 71
     0
 72
     0
 73
     0
 74
     0
 75
     0
 76
     0
 77
     1
 78
     8
170
     0
171
     2
172
     1
173
     1
174
     0
175
     0
176
   256
177
   256
178
   256
  0
ENDTAB
  0
ENDSEC
  0
SECTION
  2
BLOCKS
  0
BLOCK
  8
0
  2
$MODEL_SPACE
 70
     0
 10
0.0
 20
0.0
 30
0.0
  3
$MODEL_SPACE
  1

  0
ENDBLK
  5
125F7
  8
0
  0
BLOCK
 67
     1
  8
0
  2
$PAPER_SPACE
 70
     0
 10
0.0
 20
0.0
 30
0.0
  3
$PAPER_SPACE
  1

  0
ENDBLK
  5
125F5
 67
     1
  8
0
  0
BLOCK
  8
0
  2
DOT
 70
     0
 10
0.0
 20
0.0
 30
0.0
  3
DOT
  1

  0
POLYLINE
  5
12980
  8
0
  6
BYBLOCK
 62
     0
 66
     1
 10
0.0
 20
0.0
 30
0.0
 70
     1
 40
0.75
 41
0.75
  0
VERTEX
  5
63D94
  8
0
  6
BYBLOCK
 62
     0
 10
-0.375
 20
0.0
 30
0.0
 42
1.0
  0
VERTEX
  5
63D95
  8
0
  6
BYBLOCK
 62
     0
 10
0.375
 20
0.0
 30
0.0
 42
1.0
  0
SEQEND
  5
63D96
  8
0
  6
BYBLOCK
 62
     0
  0
LINE
  5
12981
  8
0
  6
BYBLOCK
 62
     0
 10
-0.75
 20
0.0
 30
0.0
 11
-1.5
 21
0.0
 31
0.0
  0
ENDBLK
  5
12982
  8
0
  0
ENDSEC
  0
SECTION
  2
ENTITIES
  0
LINE
  5
61B46
  8
1PL-M1
 10
3967.391910066618
 20
6063.8263218307384
 30
0.0
 11
3967.391910066618
 21
12514.580924221889
 31
0.0
  0
LINE
  5
61B47
  8
1PL-M1
 10
9567.3919100666153
 20
6063.8263218307284
 30
0.0
 11
9567.3919100666153
 21
12514.58092422188
 31
0.0
  0
LINE
  5
61B48
  8
1PL-M1
 10
10181.207527613829
 20
9884.5809242219366
 30
0.0
 11
3384.8919100666099
 21
9884.5809242219511
 31
0.0
  0
LINE
  5
61B49
  8
1PL-M1
 10
10181.207527613829
 20
7134.5809242219366
 30
0.0
 11
3384.8919100666099
 21
7134.580924221952
 31
0.0
  0
LINE
  5
61B4A
  8
SUNPOU
 10
3384.8919100666171
 20
9884.5809242219621
 30
0.0
 11
2867.3919100666171
 21
9884.5809242218966
 31
0.0
  0
TEXT
  5
61B4B
  8
SUNPOU
 10
2529.391910066618
 20
9769.5809242218984
 30
0.0
 40
230.0
  1
B0
 41
0.6
  7
00
 72
     4
 11
2667.3919100666171
 21
9884.5809242218966
 31
0.0
  0
CIRCLE
  5
61B4C
  8
SUNPOU
 10
2667.3919100666171
 20
9884.5809242218966
 30
0.0
 40
200.0
  0
LINE
  5
61B4D
  8
SUNPOU
 10
3384.8919100666171
 20
7134.5809242219611
 30
0.0
 11
2867.3919100666171
 21
7134.5809242218957
 31
0.0
  0
TEXT
  5
61B4E
  8
SUNPOU
 10
2549.1061957809029
 20
7019.5809242218966
 30
0.0
 40
230.0
  1
A0
 41
0.6
  7
00
 72
     4
 11
2667.3919100666171
 21
7134.5809242218957
 31
0.0
  0
CIRCLE
  5
61B4F
  8
SUNPOU
 10
2667.3919100666171
 20
7134.5809242218957
 30
0.0
 40
200.0
  0
LINE
  5
61B50
  8
U1
  6
HIDE-L
 10
3392.3919100666171
 20
9309.5809242219693
 30
0.0
 11
4542.3919100666171
 21
9309.5809242219693
 31
0.0
  0
LINE
  5
61B51
  8
U1
  6
HIDE-L
 10
4542.3919100666171
 20
9309.5809242219693
 30
0.0
 11
4542.3919100666171
 21
10459.580924221969
 31
0.0
  0
LINE
  5
61B52
  8
U1
  6
HIDE-L
 10
4542.3919100666171
 20
10459.580924221969
 30
0.0
 11
3392.3919100666171
 21
10459.580924221969
 31
0.0
  0
LINE
  5
61B53
  8
U1
  6
HIDE-L
 10
3392.3919100666171
 20
10459.580924221969
 30
0.0
 11
3392.3919100666171
 21
9309.5809242219693
 31
0.0
  0
LINE
  5
61B54
  8
U1
 10
3927.191910066635
 20
9921.7809242219682
 30
0.0
 11
3927.191910066635
 21
9847.3809242219431
 31
0.0
  0
LINE
  5
61B55
  8
U1
 10
3924.8919100666171
 20
9921.880924221945
 30
0.0
 11
3924.8919100666171
 21
9847.2809242219664
 31
0.0
  0
LINE
  5
61B56
  8
U1
 10
4009.8919100666171
 20
9847.2809242219664
 30
0.0
 11
4009.8919100666171
 21
9921.880924221945
 31
0.0
  0
LINE
  5
61B57
  8
U1
 10
4007.5919100666279
 20
9847.3809242219431
 30
0.0
 11
4007.5919100666279
 21
9921.7809242219682
 31
0.0
  0
ARC
  5
61B58
  8
U1
 10
3962.191910066635
 20
9921.880924221945
 30
0.0
 40
5.2000000000000002
 50
0.0
 51
90.0
  0
ARC
  5
61B59
  8
U1
 10
3972.5919100666292
 20
9921.880924221945
 30
0.0
 40
5.2000000000000002
 50
90.0
 51
180.0
  0
ARC
  5
61B5A
  8
U1
 10
3966.2419100666229
 20
9910.5309242219664
 30
0.0
 40
3.4499999999999309
 50
180.0
 51
0.0
  0
LINE
  5
61B5B
  8
U1
 10
3962.191910066635
 20
9927.0809242219548
 30
0.0
 11
3930.0919100666292
 21
9927.0809242219548
 31
0.0
  0
LINE
  5
61B5C
  8
U1
 10
3962.0919100666292
 20
9924.7809242219664
 30
0.0
 11
3930.191910066635
 21
9924.7809242219664
 31
0.0
  0
ARC
  5
61B5D
  8
U1
 10
3930.0919100666292
 20
9921.880924221945
 30
0.0
 40
5.2000000000000002
 50
90.0
 51
180.0
  0
ARC
  5
61B5E
  8
U1
 10
3930.191910066635
 20
9921.7809242219682
 30
0.0
 40
3.0
 50
90.0
 51
180.0
  0
LINE
  5
61B5F
  8
U1
 10
3967.391910066618
 20
9921.880924221945
 30
0.0
 11
3967.391910066618
 21
9910.5309242219664
 31
0.0
  0
LINE
  5
61B60
  8
U1
 10
3965.0919100666292
 20
9921.7809242219682
 30
0.0
 11
3965.0919100666292
 21
9910.5309242219664
 31
0.0
  0
LINE
  5
61B61
  8
U1
 10
3962.7919100666109
 20
9918.0809242219548
 30
0.0
 11
3962.7919100666109
 21
9910.5309242219664
 31
0.0
  0
ARC
  5
61B62
  8
U1
 10
3962.0919100666292
 20
9921.7809242219682
 30
0.0
 40
3.0
 50
0.0
 51
90.0
  0
LINE
  5
61B63
  8
U1
 10
3962.7919100666109
 20
9918.0809242219548
 30
0.0
 11
3965.0919100666292
 21
9918.0809242219548
 31
0.0
  0
LINE
  5
61B64
  8
U1
 10
3965.0919100666292
 20
9912.0809242219548
 30
0.0
 11
3967.391910066618
 21
9912.0809242219548
 31
0.0
  0
ARC
  5
61B65
  8
U1
 10
3966.2419100666229
 20
9910.5309242219664
 30
0.0
 40
1.1499999999998629
 50
180.0
 51
0.0
  0
LINE
  5
61B66
  8
U1
 10
4004.6919100666341
 20
9927.0809242219548
 30
0.0
 11
3972.5919100666292
 21
9927.0809242219548
 31
0.0
  0
LINE
  5
61B67
  8
U1
 10
4004.5919100666279
 20
9924.7809242219664
 30
0.0
 11
3972.691910066635
 21
9924.7809242219664
 31
0.0
  0
LINE
  5
61B68
  8
U1
 10
3969.691910066635
 20
9921.7809242219682
 30
0.0
 11
3969.691910066635
 21
9910.5309242219664
 31
0.0
  0
ARC
  5
61B69
  8
U1
 10
3972.691910066635
 20
9921.7809242219682
 30
0.0
 40
3.0
 50
90.0
 51
180.0
  0
ARC
  5
61B6A
  8
U1
 10
4004.6919100666341
 20
9921.880924221945
 30
0.0
 40
5.2000000000000002
 50
0.0
 51
90.0
  0
ARC
  5
61B6B
  8
U1
 10
4004.5919100666279
 20
9921.7809242219682
 30
0.0
 40
3.0
 50
0.0
 51
90.0
  0
LINE
  5
61B6C
  8
U1
 10
3930.0919100666292
 20
9842.0809242219548
 30
0.0
 11
4004.6919100666341
 21
9842.0809242219548
 31
0.0
  0
LINE
  5
61B6D
  8
U1
 10
3930.191910066635
 20
9844.3809242219431
 30
0.0
 11
4004.5919100666279
 21
9844.3809242219431
 31
0.0
  0
ARC
  5
61B6E
  8
U1
 10
3930.0919100666292
 20
9847.2809242219664
 30
0.0
 40
5.2000000000000002
 50
180.0
 51
270.0
  0
ARC
  5
61B6F
  8
U1
 10
3930.191910066635
 20
9847.3809242219431
 30
0.0
 40
3.0
 50
180.0
 51
270.0
  0
ARC
  5
61B70
  8
U1
 10
4004.6919100666341
 20
9847.2809242219664
 30
0.0
 40
5.2000000000000002
 50
270.0
 51
0.0
  0
ARC
  5
61B71
  8
U1
 10
4004.6919100666341
 20
9847.2809242219664
 30
0.0
 40
5.2000000000000011
 50
270.0
 51
0.0
  0
ARC
  5
61B72
  8
U1
 10
4004.5919100666279
 20
9847.3809242219431
 30
0.0
 40
3.0
 50
270.0
 51
0.0
  0
LINE
  5
61B73
  8
U1
 10
3927.191910066635
 20
7171.7809242219673
 30
0.0
 11
3927.191910066635
 21
7097.3809242219431
 31
0.0
  0
LINE
  5
61B74
  8
U1
 10
3924.8919100666171
 20
7171.880924221944
 30
0.0
 11
3924.8919100666171
 21
7097.2809242219664
 31
0.0
  0
LINE
  5
61B75
  8
U1
 10
4009.8919100666171
 20
7097.2809242219664
 30
0.0
 11
4009.8919100666171
 21
7171.880924221944
 31
0.0
  0
LINE
  5
61B76
  8
U1
 10
4007.5919100666279
 20
7097.3809242219431
 30
0.0
 11
4007.5919100666279
 21
7171.7809242219673
 31
0.0
  0
ARC
  5
61B77
  8
U1
 10
3962.191910066635
 20
7171.880924221944
 30
0.0
 40
5.2000000000000002
 50
0.0
 51
90.0
  0
ARC
  5
61B78
  8
U1
 10
3972.5919100666292
 20
7171.880924221944
 30
0.0
 40
5.2000000000000002
 50
90.0
 51
180.0
  0
ARC
  5
61B79
  8
U1
 10
3966.2419100666229
 20
7160.5309242219664
 30
0.0
 40
3.4499999999999309
 50
180.0
 51
0.0
  0
LINE
  5
61B7A
  8
U1
 10
3962.191910066635
 20
7177.0809242219548
 30
0.0
 11
3930.0919100666292
 21
7177.0809242219548
 31
0.0
  0
LINE
  5
61B7B
  8
U1
 10
3962.0919100666292
 20
7174.7809242219664
 30
0.0
 11
3930.191910066635
 21
7174.7809242219664
 31
0.0
  0
ARC
  5
61B7C
  8
U1
 10
3930.0919100666292
 20
7171.880924221944
 30
0.0
 40
5.2000000000000002
 50
90.0
 51
180.0
  0
ARC
  5
61B7D
  8
U1
 10
3930.191910066635
 20
7171.7809242219673
 30
0.0
 40
3.0
 50
90.0
 51
180.0
  0
LINE
  5
61B7E
  8
U1
 10
3967.391910066618
 20
7171.880924221944
 30
0.0
 11
3967.391910066618
 21
7160.5309242219664
 31
0.0
  0
LINE
  5
61B7F
  8
U1
 10
3965.0919100666292
 20
7171.7809242219673
 30
0.0
 11
3965.0919100666292
 21
7160.5309242219664
 31
0.0
  0
LINE
  5
61B80
  8
U1
 10
3962.7919100666109
 20
7168.0809242219548
 30
0.0
 11
3962.7919100666109
 21
7160.5309242219664
 31
0.0
  0
ARC
  5
61B81
  8
U1
 10
3962.0919100666292
 20
7171.7809242219673
 30
0.0
 40
3.0
 50
0.0
 51
90.0
  0
LINE
  5
61B82
  8
U1
 10
3962.7919100666109
 20
7168.0809242219548
 30
0.0
 11
3965.0919100666292
 21
7168.0809242219548
 31
0.0
  0
LINE
  5
61B83
  8
U1
 10
3965.0919100666292
 20
7162.0809242219548
 30
0.0
 11
3967.391910066618
 21
7162.0809242219548
 31
0.0
  0
ARC
  5
61B84
  8
U1
 10
3966.2419100666229
 20
7160.5309242219664
 30
0.0
 40
1.1499999999998629
 50
180.0
 51
0.0
  0
LINE
  5
61B85
  8
U1
 10
4004.6919100666341
 20
7177.0809242219548
 30
0.0
 11
3972.5919100666292
 21
7177.0809242219548
 31
0.0
  0
LINE
  5
61B86
  8
U1
 10
4004.5919100666279
 20
7174.7809242219664
 30
0.0
 11
3972.691910066635
 21
7174.7809242219664
 31
0.0
  0
LINE
  5
61B87
  8
U1
 10
3969.691910066635
 20
7171.7809242219673
 30
0.0
 11
3969.691910066635
 21
7160.5309242219664
 31
0.0
  0
ARC
  5
61B88
  8
U1
 10
3972.691910066635
 20
7171.7809242219673
 30
0.0
 40
3.0
 50
90.0
 51
180.0
  0
ARC
  5
61B89
  8
U1
 10
4004.6919100666341
 20
7171.880924221944
 30
0.0
 40
5.2000000000000002
 50
0.0
 51
90.0
  0
ARC
  5
61B8A
  8
U1
 10
4004.5919100666279
 20
7171.7809242219673
 30
0.0
 40
3.0
 50
0.0
 51
90.0
  0
LINE
  5
61B8B
  8
U1
 10
3930.0919100666292
 20
7092.0809242219548
 30
0.0
 11
4004.6919100666341
 21
7092.0809242219548
 31
0.0
  0
LINE
  5
61B8C
  8
U1
 10
3930.191910066635
 20
7094.3809242219431
 30
0.0
 11
4004.5919100666279
 21
7094.3809242219431
 31
0.0
  0
ARC
  5
61B8D
  8
U1
 10
3930.0919100666292
 20
7097.2809242219664
 30
0.0
 40
5.2000000000000002
 50
180.0
 51
270.0
  0
ARC
  5
61B8E
  8
U1
 10
3930.191910066635
 20
7097.3809242219431
 30
0.0
 40
3.0
 50
180.0
 51
270.0
  0
ARC
  5
61B8F
  8
U1
 10
4004.6919100666341
 20
7097.2809242219664
 30
0.0
 40
5.2000000000000002
 50
270.0
 51
0.0
  0
ARC
  5
61B90
  8
U1
 10
4004.6919100666341
 20
7097.2809242219664
 30
0.0
 40
5.2000000000000011
 50
270.0
 51
0.0
  0
ARC
  5
61B91
  8
U1
 10
4004.5919100666279
 20
7097.3809242219431
 30
0.0
 40
3.0
 50
270.0
 51
0.0
  0
LINE
  5
61B92
  8
U1
 10
9607.5919100666797
 20
9921.7809242219482
 30
0.0
 11
9607.5919100666797
 21
9847.3809242219249
 31
0.0
  0
LINE
  5
61B93
  8
U1
 10
9609.8919100666972
 20
9921.8809242219249
 30
0.0
 11
9609.8919100666972
 21
9847.2809242219482
 31
0.0
  0
LINE
  5
61B94
  8
U1
 10
9524.8919100666972
 20
9847.2809242219482
 30
0.0
 11
9524.8919100666972
 21
9921.8809242219249
 31
0.0
  0
LINE
  5
61B95
  8
U1
 10
9527.1919100666873
 20
9847.3809242219249
 30
0.0
 11
9527.1919100666873
 21
9921.7809242219482
 31
0.0
  0
ARC
  5
61B96
  8
U1
 10
9572.5919100666797
 20
9921.8809242219249
 30
0.0
 40
5.2000000000000002
 50
90.0
 51
180.0
  0
ARC
  5
61B97
  8
U1
 10
9562.1919100666855
 20
9921.8809242219249
 30
0.0
 40
5.2000000000000002
 50
0.0
 51
90.0
  0
ARC
  5
61B98
  8
U1
 10
9568.5419100666913
 20
9910.53092422195
 30
0.0
 40
3.4499999999999309
 50
180.0
 51
0.0
  0
LINE
  5
61B99
  8
U1
 10
9572.5919100666797
 20
9927.0809242219384
 30
0.0
 11
9604.6919100666855
 21
9927.0809242219384
 31
0.0
  0
LINE
  5
61B9A
  8
U1
 10
9572.6919100666855
 20
9924.7809242219482
 30
0.0
 11
9604.5919100666797
 21
9924.7809242219482
 31
0.0
  0
ARC
  5
61B9B
  8
U1
 10
9604.6919100666855
 20
9921.8809242219249
 30
0.0
 40
5.2000000000000002
 50
0.0
 51
90.0
  0
ARC
  5
61B9C
  8
U1
 10
9604.5919100666797
 20
9921.7809242219482
 30
0.0
 40
3.0
 50
0.0
 51
90.0
  0
LINE
  5
61B9D
  8
U1
 10
9567.3919100666972
 20
9921.8809242219249
 30
0.0
 11
9567.3919100666972
 21
9910.53092422195
 31
0.0
  0
LINE
  5
61B9E
  8
U1
 10
9569.6919100666855
 20
9921.7809242219482
 30
0.0
 11
9569.6919100666855
 21
9910.53092422195
 31
0.0
  0
LINE
  5
61B9F
  8
U1
 10
9571.991910066703
 20
9918.0809242219366
 30
0.0
 11
9571.991910066703
 21
9910.53092422195
 31
0.0
  0
ARC
  5
61BA0
  8
U1
 10
9572.6919100666855
 20
9921.7809242219482
 30
0.0
 40
3.0
 50
90.0
 51
180.0
  0
LINE
  5
61BA1
  8
U1
 10
9571.991910066703
 20
9918.0809242219366
 30
0.0
 11
9569.6919100666855
 21
9918.0809242219366
 31
0.0
  0
LINE
  5
61BA2
  8
U1
 10
9569.6919100666855
 20
9912.0809242219366
 30
0.0
 11
9567.3919100666972
 21
9912.0809242219366
 31
0.0
  0
ARC
  5
61BA3
  8
U1
 10
9568.5419100666913
 20
9910.53092422195
 30
0.0
 40
1.1499999999998629
 50
180.0
 51
0.0
  0
LINE
  5
61BA4
  8
U1
 10
9530.0919100666797
 20
9927.0809242219384
 30
0.0
 11
9562.1919100666855
 21
9927.0809242219384
 31
0.0
  0
LINE
  5
61BA5
  8
U1
 10
9530.1919100666855
 20
9924.7809242219482
 30
0.0
 11
9562.0919100666797
 21
9924.7809242219482
 31
0.0
  0
LINE
  5
61BA6
  8
U1
 10
9565.0919100666797
 20
9921.7809242219482
 30
0.0
 11
9565.0919100666797
 21
9910.53092422195
 31
0.0
  0
ARC
  5
61BA7
  8
U1
 10
9562.0919100666797
 20
9921.7809242219482
 30
0.0
 40
3.0
 50
0.0
 51
90.0
  0
ARC
  5
61BA8
  8
U1
 10
9530.0919100666797
 20
9921.8809242219249
 30
0.0
 40
5.2000000000000002
 50
90.0
 51
180.0
  0
ARC
  5
61BA9
  8
U1
 10
9530.1919100666855
 20
9921.7809242219482
 30
0.0
 40
3.0
 50
90.0
 51
180.0
  0
LINE
  5
61BAA
  8
U1
 10
9604.6919100666855
 20
9842.0809242219366
 30
0.0
 11
9530.0919100666797
 21
9842.0809242219366
 31
0.0
  0
LINE
  5
61BAB
  8
U1
 10
9604.5919100666797
 20
9844.3809242219231
 30
0.0
 11
9530.1919100666855
 21
9844.3809242219231
 31
0.0
  0
ARC
  5
61BAC
  8
U1
 10
9604.6919100666855
 20
9847.2809242219482
 30
0.0
 40
5.2000000000000002
 50
270.0
 51
0.0
  0
ARC
  5
61BAD
  8
U1
 10
9604.5919100666797
 20
9847.3809242219249
 30
0.0
 40
3.0
 50
270.0
 51
0.0
  0
ARC
  5
61BAE
  8
U1
 10
9530.0919100666797
 20
9847.2809242219482
 30
0.0
 40
5.2000000000000002
 50
180.0
 51
270.0
  0
ARC
  5
61BAF
  8
U1
 10
9530.0919100666797
 20
9847.2809242219482
 30
0.0
 40
5.2000000000000011
 50
180.0
 51
270.0
  0
ARC
  5
61BB0
  8
U1
 10
9530.1919100666855
 20
9847.3809242219249
 30
0.0
 40
3.0
 50
180.0
 51
270.0
  0
LINE
  5
61BB1
  8
U1
 10
9607.5919100666797
 20
7171.7809242219482
 30
0.0
 11
9607.5919100666797
 21
7097.3809242219249
 31
0.0
  0
LINE
  5
61BB2
  8
U1
 10
9609.8919100666972
 20
7171.8809242219249
 30
0.0
 11
9609.8919100666972
 21
7097.2809242219482
 31
0.0
  0
LINE
  5
61BB3
  8
U1
 10
9524.8919100666972
 20
7097.2809242219482
 30
0.0
 11
9524.8919100666972
 21
7171.8809242219249
 31
0.0
  0
LINE
  5
61BB4
  8
U1
 10
9527.1919100666873
 20
7097.3809242219249
 30
0.0
 11
9527.1919100666873
 21
7171.7809242219482
 31
0.0
  0
ARC
  5
61BB5
  8
U1
 10
9572.5919100666797
 20
7171.8809242219249
 30
0.0
 40
5.2000000000000002
 50
90.0
 51
180.0
  0
ARC
  5
61BB6
  8
U1
 10
9562.1919100666855
 20
7171.8809242219249
 30
0.0
 40
5.2000000000000002
 50
0.0
 51
90.0
  0
ARC
  5
61BB7
  8
U1
 10
9568.5419100666913
 20
7160.5309242219491
 30
0.0
 40
3.4499999999999309
 50
180.0
 51
0.0
  0
LINE
  5
61BB8
  8
U1
 10
9572.5919100666797
 20
7177.0809242219366
 30
0.0
 11
9604.6919100666855
 21
7177.0809242219366
 31
0.0
  0
LINE
  5
61BB9
  8
U1
 10
9572.6919100666855
 20
7174.7809242219482
 30
0.0
 11
9604.5919100666797
 21
7174.7809242219482
 31
0.0
  0
ARC
  5
61BBA
  8
U1
 10
9604.6919100666855
 20
7171.8809242219249
 30
0.0
 40
5.2000000000000002
 50
0.0
 51
90.0
  0
ARC
  5
61BBB
  8
U1
 10
9604.5919100666797
 20
7171.7809242219482
 30
0.0
 40
3.0
 50
0.0
 51
90.0
  0
LINE
  5
61BBC
  8
U1
 10
9567.3919100666972
 20
7171.8809242219249
 30
0.0
 11
9567.3919100666972
 21
7160.5309242219491
 31
0.0
  0
LINE
  5
61BBD
  8
U1
 10
9569.6919100666855
 20
7171.7809242219482
 30
0.0
 11
9569.6919100666855
 21
7160.5309242219491
 31
0.0
  0
LINE
  5
61BBE
  8
U1
 10
9571.991910066703
 20
7168.0809242219357
 30
0.0
 11
9571.991910066703
 21
7160.5309242219491
 31
0.0
  0
ARC
  5
61BBF
  8
U1
 10
9572.6919100666855
 20
7171.7809242219482
 30
0.0
 40
3.0
 50
90.0
 51
180.0
  0
LINE
  5
61BC0
  8
U1
 10
9571.991910066703
 20
7168.0809242219357
 30
0.0
 11
9569.6919100666855
 21
7168.0809242219357
 31
0.0
  0
LINE
  5
61BC1
  8
U1
 10
9569.6919100666855
 20
7162.0809242219357
 30
0.0
 11
9567.3919100666972
 21
7162.0809242219357
 31
0.0
  0
ARC
  5
61BC2
  8
U1
 10
9568.5419100666913
 20
7160.5309242219491
 30
0.0
 40
1.1499999999998629
 50
180.0
 51
0.0
  0
LINE
  5
61BC3
  8
U1
 10
9530.0919100666797
 20
7177.0809242219366
 30
0.0
 11
9562.1919100666855
 21
7177.0809242219366
 31
0.0
  0
LINE
  5
61BC4
  8
U1
 10
9530.1919100666855
 20
7174.7809242219482
 30
0.0
 11
9562.0919100666797
 21
7174.7809242219482
 31
0.0
  0
LINE
  5
61BC5
  8
U1
 10
9565.0919100666797
 20
7171.7809242219482
 30
0.0
 11
9565.0919100666797
 21
7160.5309242219491
 31
0.0
  0
ARC
  5
61BC6
  8
U1
 10
9562.0919100666797
 20
7171.7809242219482
 30
0.0
 40
3.0
 50
0.0
 51
90.0
  0
ARC
  5
61BC7
  8
U1
 10
9530.0919100666797
 20
7171.8809242219249
 30
0.0
 40
5.2000000000000002
 50
90.0
 51
180.0
  0
ARC
  5
61BC8
  8
U1
 10
9530.1919100666855
 20
7171.7809242219482
 30
0.0
 40
3.0
 50
90.0
 51
180.0
  0
LINE
  5
61BC9
  8
U1
 10
9604.6919100666855
 20
7092.0809242219357
 30
0.0
 11
9530.0919100666797
 21
7092.0809242219357
 31
0.0
  0
LINE
  5
61BCA
  8
U1
 10
9604.5919100666797
 20
7094.380924221924
 30
0.0
 11
9530.1919100666855
 21
7094.380924221924
 31
0.0
  0
ARC
  5
61BCB
  8
U1
 10
9604.6919100666855
 20
7097.2809242219482
 30
0.0
 40
5.2000000000000002
 50
270.0
 51
0.0
  0
ARC
  5
61BCC
  8
U1
 10
9604.5919100666797
 20
7097.3809242219249
 30
0.0
 40
3.0
 50
270.0
 51
0.0
  0
ARC
  5
61BCD
  8
U1
 10
9530.0919100666797
 20
7097.2809242219482
 30
0.0
 40
5.2000000000000002
 50
180.0
 51
270.0
  0
ARC
  5
61BCE
  8
U1
 10
9530.0919100666797
 20
7097.2809242219482
 30
0.0
 40
5.2000000000000011
 50
180.0
 51
270.0
  0
ARC
  5
61BCF
  8
U1
 10
9530.1919100666855
 20
7097.3809242219249
 30
0.0
 40
3.0
 50
180.0
 51
270.0
  0
LINE
  5
61BD0
  8
U1
  6
HIDE-L
 10
8992.3919100666099
 20
9309.5809242219457
 30
0.0
 11
10142.39191006661
 21
9309.5809242219457
 31
0.0
  0
LINE
  5
61BD1
  8
U1
  6
HIDE-L
 10
10142.39191006661
 20
9309.5809242219457
 30
0.0
 11
10142.39191006661
 21
10459.58092422194
 31
0.0
  0
LINE
  5
61BD2
  8
U1
  6
HIDE-L
 10
10142.39191006661
 20
10459.58092422194
 30
0.0
 11
8992.3919100666099
 21
10459.58092422194
 31
0.0
  0
LINE
  5
61BD3
  8
U1
  6
HIDE-L
 10
8992.3919100666099
 20
10459.58092422194
 30
0.0
 11
8992.3919100666099
 21
9309.5809242219457
 31
0.0
  0
LINE
  5
61BD4
  8
U1
  6
HIDE-L
 10
3392.3919100666171
 20
6559.5809242219702
 30
0.0
 11
4542.3919100666171
 21
6559.5809242219702
 31
0.0
  0
LINE
  5
61BD5
  8
U1
  6
HIDE-L
 10
4542.3919100666171
 20
6559.5809242219702
 30
0.0
 11
4542.3919100666171
 21
7709.5809242219702
 31
0.0
  0
LINE
  5
61BD6
  8
U1
  6
HIDE-L
 10
4542.3919100666171
 20
7709.5809242219702
 30
0.0
 11
3392.3919100666171
 21
7709.5809242219702
 31
0.0
  0
LINE
  5
61BD7
  8
U1
  6
HIDE-L
 10
3392.3919100666171
 20
7709.5809242219702
 30
0.0
 11
3392.3919100666171
 21
6559.5809242219702
 31
0.0
  0
LINE
  5
61BD8
  8
U1
  6
HIDE-L
 10
8992.3919100666099
 20
6559.5809242219466
 30
0.0
 11
10142.39191006661
 21
6559.5809242219466
 31
0.0
  0
LINE
  5
61BD9
  8
U1
  6
HIDE-L
 10
10142.39191006661
 20
6559.5809242219466
 30
0.0
 11
10142.39191006661
 21
7709.5809242219448
 31
0.0
  0
LINE
  5
61BDA
  8
U1
  6
HIDE-L
 10
10142.39191006661
 20
7709.5809242219448
 30
0.0
 11
8992.3919100666099
 21
7709.5809242219448
 31
0.0
  0
LINE
  5
61BDB
  8
U1
  6
HIDE-L
 10
8992.3919100666099
 20
7709.5809242219448
 30
0.0
 11
8992.3919100666099
 21
6559.5809242219466
 31
0.0
  0
LINE
  5
61BDE
  8
HIKIDASHI
 10
4960.5166540896244
 20
7507.9142575552387
 30
0.0
 11
4960.5166540896244
 21
7134.5809242219257
 31
0.0
  0
SOLID
  5
61BDF
  8
HIKIDASHI
 10
4987.1833207562522
 20
7507.9142575552387
 30
0.0
 11
4933.8499874229383
 21
7507.9142575552387
 31
0.0
 12
4960.5166540896244
 22
7667.9142575552396
 32
0.0
 13
4960.5166540896244
 23
7667.9142575552396
 33
0.0
  0
LINE
  5
61BE0
  8
HIKIDASHI
 10
4960.5166540896244
 20
7134.5809242219257
 30
0.0
 11
4693.8499874229392
 21
7134.5809242219257
 31
0.0
  0
TEXT
  5
61BE1
  8
HIKIDASHI
 10
4881.3928445658148
 20
7732.6761623171451
 30
0.0
 40
160.0
  1
B'
 41
0.6700000000000002
  7
00
 72
     4
 11
4960.5166540896244
 21
7827.9142575552396
 31
0.0
  0
LINE
  5
61BE2
  8
HIKIDASHI
 10
3094.7326770235591
 20
7134.5809242219257
 30
0.0
 11
3195.855114749801
 21
7134.5809242219257
 31
0.0
  0
SOLID
  5
61BE3
  8
HIKIDASHI
 10
3068.066010356873
 20
7507.9142575552387
 30
0.0
 11
3121.399343690246
 21
7507.9142575552387
 31
0.0
 12
3094.7326770235591
 22
7667.9142575552396
 32
0.0
 13
3094.7326770235591
 23
7667.9142575552396
 33
0.0
  0
LINE
  5
61BE4
  8
HIKIDASHI
 10
3094.7326770235591
 20
7507.9142575552387
 30
0.0
 11
3094.7326770235591
 21
7134.5809242219257
 31
0.0
  0
TEXT
  5
61BE5
  8
HIKIDASHI
 10
3038.580296071179
 20
7747.9142575552396
 30
0.0
 40
160.0
  1
B
 41
0.6700000000000002
  7
00
 72
     4
 11
3094.7326770235591
 21
7827.9142575552396
 31
0.0
  0
TEXT
  5
61BE8
  8
SUNPOU
 10
29007.162736824001
 20
8898.9725678490759
 30
0.0
 40
147.69230769230771
  1
20
 41
0.6700000000000002
  7
00
 11
29007.162736824001
 21
8879.2802601567655
 31
0.0
 73
     1
  0
TEXT
  5
61BE9
  8
SUNPOU
 10
28782.451596284511
 20
8972.8187216952301
 30
0.0
 40
147.69230769230771
  1
1
 41
0.6700000000000002
  7
00
 11
28782.451596284511
 21
8953.1264140029234
 31
0.0
 73
     1
  0
TEXT
  5
61BEA
  8
SUNPOU
 10
28879.26385091526
 20
8935.8956447721393
 30
0.0
 40
147.69230769230771
  1
/
 41
0.6700000000000002
  7
00
 11
28879.26385091526
 21
8916.2033370798308
 31
0.0
 73
     1
  0
TEXT
  5
61BEB
  8
SUNPOU
 10
28143.046192578349
 20
8940.8187216952156
 30
0.0
 40
184.61538461538461
  1
（ S = 　　  ）
 41
0.6700000000000002
  7
00
 11
28143.046192578349
 21
8916.2033370798308
 31
0.0
 73
     1
  0
TEXT
  5
61BEC
  8
SUNPOU
 10
26124.425188796002
 20
8916.2033370798308
 30
0.0
 40
240.0
  1
独立基礎断面図
  7
01
 72
     4
 11
27092.425188796002
 21
9036.2033370798308
 31
0.0
  0
TEXT
  5
61BED
  8
SUNPOU
 10
26577.681163656602
 20
7076.8946343187708
 30
0.0
 40
160.0
  1
2
 41
0.6700000000000002
  7
01
  0
TEXT
  5
61BEE
  8
SUNPOU
 10
26380.998638833949
 20
7076.8946343187708
 30
0.0
 40
160.0
  1
注　）
  7
01
  0
TEXT
  5
61BEF
  8
SUNPOU
 10
26380.998638833949
 20
7625.4660628901993
 30
0.0
 40
160.0
  1
注　）
  7
01
  0
TEXT
  5
61BF0
  8
SUNPOU
 10
26577.681163656602
 20
7625.4660628901993
 30
0.0
 40
160.0
  1
1
 41
0.6700000000000002
  7
01
  0
TEXT
  5
61BF1
  8
SUNPOU
 10
26944.269154926631
 20
7351.180348604481
 30
0.0
 40
160.0
  1
あわせて設計して下さい。
  7
01
  0
TEXT
  5
61BF2
  8
SUNPOU
 10
26944.269154926631
 20
7076.8946343187708
 30
0.0
 40
160.0
  1
その他現地の実情にあわせて設計して下さい。
  7
01
  0
TEXT
  5
61BF3
  8
SUNPOU
 10
26944.269154926631
 20
7625.4660628901993
 30
0.0
 40
160.0
  1
寒冷地の場合、凍結深度等を考慮し、実情に
  7
01
  0
TEXT
  5
61BF4
  8
SUNPOU
 10
26045.56804593886
 20
8636.2033370798326
 30
0.0
 40
160.0
  1
<下記条件での参考図>
  7
01
 72
     4
 11
27092.425188796002
 21
8716.2033370798308
 31
0.0
  0
TEXT
  5
61BF5
  8
SUNPOU
 10
31394.832377165982
 20
8388.9756462558871
 30
0.0
 40
82.285142861111055
  1
2
 41
0.6700000000000002
  7
00
  0
TEXT
  5
61BF6
  8
SUNPOU
 10
30853.56218688791
 20
8299.7517771759085
 30
0.0
 40
159.9988888966048
  1
N/mm
 41
0.6700000000000002
  7
01
  0
TEXT
  5
61BF7
  8
SUNPOU
 10
30612.075159712891
 20
8299.7517771759085
 30
0.0
 40
159.9988888966048
  1
18
 41
0.6700000000000002
  7
01
  0
LINE
  5
61BF8
  8
SUNPOU
 10
29543.131050886139
 20
8025.4660628901993
 30
0.0
 11
29543.131050886139
 21
8173.8969316880248
 31
0.0
  0
LINE
  5
61BF9
  8
SUNPOU
 10
29513.131050886139
 20
8025.4660628901993
 30
0.0
 11
29513.131050886139
 21
8173.8969316880248
 31
0.0
  0
LINE
  5
61BFA
  8
SUNPOU
 10
29483.131050886139
 20
8025.4660628901993
 30
0.0
 11
29483.131050886139
 21
8173.8969316880248
 31
0.0
  0
LINE
  5
61BFB
  8
SUNPOU
 10
29463.131050886139
 20
8025.466062890192
 30
0.0
 11
29563.131050886139
 21
8025.466062890192
 31
0.0
  0
LINE
  5
61BFC
  8
SUNPOU
 10
29463.131050886139
 20
8173.8969316880248
 30
0.0
 11
29563.131050886139
 21
8173.8969316880248
 31
0.0
  0
ARC
  5
61BFD
  8
SUNPOU
 10
31634.503746919931
 20
8235.3738632947206
 30
0.0
 40
400.0
 50
328.34727252828128
 51
31.652727471718659
  0
TEXT
  5
61BFE
  8
SUNPOU
 10
27660.321193771138
 20
8388.9756462558871
 30
0.0
 40
82.285142861111055
  1
2
 41
0.6700000000000002
  7
00
  0
TEXT
  5
61BFF
  8
SUNPOU
 10
27184.516470698461
 20
8299.7517771759085
 30
0.0
 40
127.9991111172839
  1
K
 41
0.6700000000000002
  7
01
  0
TEXT
  5
61C00
  8
SUNPOU
 10
26943.029443523428
 20
8299.7517771759085
 30
0.0
 40
159.9988888966048
  1
50  N/m
 41
0.6700000000000002
  7
01
  0
ARC
  5
61C01
  8
SUNPOU
 10
26549.60698393609
 20
8235.3738632947206
 30
0.0
 40
400.0
 50
148.34727252828131
 51
211.65272747171869
  0
TEXT
  5
61C02
  8
SUNPOU
 10
26277.681163656602
 20
8025.4660628901993
 30
0.0
 40
159.9988888966048
  1
基準風速   　　 , 地表面粗度区分
  7
01
  0
TEXT
  5
61C03
  8
SUNPOU
 10
26277.681163656602
 20
8299.7517771759085
 30
0.0
 40
159.9988888966048
  1
地耐力   　　　 以上,コンクリート設計基準強度   　　　 以上
  7
01
  0
TEXT
  5
61C04
  8
SUNPOU
 10
27137.705036839139
 20
8025.4660628901993
 30
0.0
 40
159.9988888966048
  1
34 m/s
 41
0.6700000000000002
  7
01
  0
TEXT
  5
61C05
  8
NAME
 10
21780.693652393751
 20
1877.7796840770311
 30
0.0
 40
360.0
  1
ヨ ド 倉 庫（下屋付き）
  7
01
  0
TEXT
  5
61DEB
  8
HIKIDASHI
 10
7146.662057195128
 20
2836.8699903249371
 30
0.0
 40
160.0
  1
30
 41
0.6666666666666666
  7
01
  0
TEXT
  5
61DEC
  8
HIKIDASHI
 10
7146.662057195128
 20
3076.8699903249371
 30
0.0
 40
160.0
  1
110 x 67
 41
0.6666666666666666
  7
01
  0
TEXT
  5
61DED
  8
HIKIDASHI
 10
6256.6574135757764
 20
2836.8699903249371
 30
0.0
 40
160.0
  1
金具厚み
  7
01
  0
TEXT
  5
61DEE
  8
HIKIDASHI
 10
6256.6574135757764
 20
3076.8699903249371
 30
0.0
 40
160.0
  1
金具底面
  7
01
  0
LINE
  5
61DEF
  8
1PL-M1
 10
5500.9253295401513
 20
3504.6610656976918
 30
0.0
 11
7966.88279743163
 21
3504.6610656976918
 31
0.0
  0
TEXT
  5
61DF0
  8
HIKIDASHI
 10
5442.2179444593567
 20
1240.4397056054661
 30
0.0
 40
240.0
  1
埋金具詳細図
  7
01
 72
     4
 11
6266.2179444593567
 21
1360.4397056054661
 31
0.0
  0
CIRCLE
  5
61DF1
  8
SUNPOU
 10
5300.9253295401513
 20
3504.6610656976918
 30
0.0
 40
200.0
  0
LINE
  5
61DF2
  8
SUNPOU
 10
6041.2192562177006
 20
2939.5817006183279
 30
0.0
 11
6041.2192562177006
 21
1834.837569241419
 31
0.0
  0
TEXT
  5
61DF3
  8
SUNPOU
 10
5721.2192562176997
 20
1890.837569241419
 30
0.0
 40
160.0
  1
柱芯より
 50
90.0
 41
0.9
  7
01
1001
ACAD
1000
MTEXTBEGIN
1070
    73
1070
     1
1070
    44
1040
1.0
1070
    74
1070
     0
1000
MTEXTEND
  0
TEXT
  5
61DF4
  8
SUNPOU
 10
5961.2192562177006
 20
1890.837569241419
 30
0.0
 40
160.0
  1
埋金具前端迄
 50
90.0
 41
0.9
  7
01
1001
ACAD
1000
MTEXTBEGIN
1070
    73
1070
     1
1070
    44
1040
1.0
1070
    74
1070
     0
1000
MTEXTEND
  0
TEXT
  5
61DF5
  8
SUNPOU
 10
5232.0110438258644
 20
3384.6610656976918
 30
0.0
 40
240.0
  1
A
 41
0.6700000000000002
  7
00
 72
     4
 11
5300.9253295401513
 21
3504.6610656976918
 31
0.0
  0
TEXT
  5
61DF6
  8
HIKIDASHI
 10
7166.8389482417042
 20
1265.0550902208499
 30
0.0
 40
184.61538461538461
  1
（ S = 　　  ）
 41
0.6700000000000002
  7
00
 11
7166.8389482417042
 21
1240.4397056054661
 31
0.0
 73
     1
  0
TEXT
  5
61DF7
  8
HIKIDASHI
 10
8030.9554924873592
 20
1223.208936374695
 30
0.0
 40
147.69230769230771
  1
20
 41
0.6700000000000002
  7
00
 11
8030.9554924873592
 21
1203.516628682388
 31
0.0
 73
     1
  0
TEXT
  5
61DF8
  8
HIKIDASHI
 10
7806.2443519478757
 20
1297.0550902208511
 30
0.0
 40
147.69230769230771
  1
1
 41
0.6700000000000002
  7
00
 11
7806.2443519478757
 21
1277.3627825285439
 31
0.0
 73
     1
  0
TEXT
  5
61DF9
  8
HIKIDASHI
 10
7903.0566065786188
 20
1260.132013297773
 30
0.0
 40
147.69230769230771
  1
/
 41
0.6700000000000002
  7
00
 11
7903.0566065786188
 21
1240.4397056054661
 31
0.0
 73
     1
  0
LINE
  5
61DFE
  8
耐風型受皿
  6
1PL-S
 62
     6
 10
6826.2192562177006
 20
3544.6610656976918
 30
0.0
 11
6826.2192562177006
 21
4138.6610656976918
 31
0.0
  0
LINE
  5
61DFF
  8
耐風型受皿
  6
1PL-S
 62
     6
 10
7226.2192562176997
 20
3891.0610656976792
 30
0.0
 11
6426.2192562176997
 21
3891.0610656976792
 31
0.0
  0
LINE
  5
61E15
  8
SUNPOU
 10
4007.3919100666171
 20
6179.4959334949972
 30
0.0
 11
9527.3919100666171
 21
6179.4959334949972
 31
0.0
  0
TEXT
  5
61E16
  8
SUNPOU
 10
6578.5157195904239
 20
6259.4959334949963
 30
0.0
 40
160.0
  1
5600
 41
0.6700000000000002
  7
00
  0
TEXT
  5
61E17
  8
HIKIDASHI
 10
7928.6276189169948
 20
5363.5616660537708
 30
0.0
 40
160.0
  1
)
 41
0.6700000000000002
  7
00
  0
TEXT
  5
61E18
  8
HIKIDASHI
 10
7593.1843972668503
 20
5363.5616660537708
 30
0.0
 40
160.0
  1
/
 41
0.6700000000000002
  7
00
  0
TEXT
  5
61E19
  8
HIKIDASHI
 10
7526.9101215382316
 20
5394.6846215501637
 30
0.0
 40
160.0
  1
1
 41
0.6700000000000002
  7
00
  0
TEXT
  5
61E1A
  8
HIKIDASHI
 10
7685.77470679213
 20
5311.226003653217
 30
0.0
 40
160.0
  1
80
 41
0.6700000000000002
  7
00
  0
TEXT
  5
61E1B
  8
HIKIDASHI
 10
7165.4942896628854
 20
5363.5616660537708
 30
0.0
 40
160.0
  1
(S=
 41
0.6700000000000002
  7
00
  0
TEXT
  5
61E1C
  8
HIKIDASHI
 10
5578.3535915920884
 20
5315.9287823918348
 30
0.0
 40
240.0
  1
基 礎 伏 図
  7
01
  0
LINE
  5
61EB9
  8
U1
 10
27472.737364424331
 20
14552.8992135218
 30
0.0
 11
27472.737364424331
 21
11770.74307247373
 31
0.0
  0
LINE
  5
61EBA
  8
U1
 10
27812.73736442432
 20
11770.74307247373
 30
0.0
 11
27812.73736442432
 21
14552.8992135218
 31
0.0
  0
LINE
  5
61EBB
  8
1PL-M1
 10
27642.737364424331
 20
11093.821142997769
 30
0.0
 11
27642.737364424331
 21
14552.8992135218
 31
0.0
  0
LINE
  5
61EBC
  8
U1
 10
27472.737364424331
 20
13770.74307247373
 30
0.0
 11
24708.391098152209
 21
13770.74307247373
 31
0.0
  0
LINE
  5
61EBD
  8
U1
 10
25342.737364424342
 20
13770.74307247373
 30
0.0
 11
25342.737364424342
 21
11770.74307247373
 31
0.0
  0
LINE
  5
61EBE
  8
U1
 10
29942.737364424342
 20
11770.743072473741
 30
0.0
 11
29942.737364424342
 21
13770.743072473741
 31
0.0
  0
LINE
  5
61EBF
  8
U1
 10
30407.73736442432
 20
13770.74307247373
 30
0.0
 11
27812.73736442432
 21
13770.74307247373
 31
0.0
  0
LINE
  5
61EC0
  8
U1
 10
25142.737364424342
 20
11170.74307247373
 30
0.0
 11
30142.737364424342
 21
11170.74307247373
 31
0.0
  0
LINE
  5
61EC1
  8
U1
 10
30142.737364424342
 20
11170.74307247373
 30
0.0
 11
30142.737364424342
 21
11570.74307247373
 31
0.0
  0
LINE
  5
61EC2
  8
U1
 10
30142.737364424342
 20
11570.74307247373
 30
0.0
 11
25142.737364424342
 21
11570.74307247373
 31
0.0
  0
LINE
  5
61EC3
  8
U1
 10
25142.737364424342
 20
11570.74307247373
 30
0.0
 11
25142.737364424342
 21
11170.74307247373
 31
0.0
  0
LINE
  5
61EC4
  8
U1
 10
30142.737364424342
 20
11570.74307247373
 30
0.0
 11
30142.737364424342
 21
11770.74307247373
 31
0.0
  0
LINE
  5
61EC5
  8
U1
 10
30142.737364424342
 20
11770.74307247373
 30
0.0
 11
25142.737364424342
 21
11770.74307247373
 31
0.0
  0
LINE
  5
61EC6
  8
U1
 10
25142.737364424342
 20
11770.74307247373
 30
0.0
 11
25142.737364424342
 21
11570.74307247373
 31
0.0
  0
LINE
  5
61EC7
  8
KISO_U
 10
26402.619635659292
 20
11570.743072474081
 30
0.0
 11
26202.619635659292
 21
11770.743072474081
 31
0.0
  0
LINE
  5
61EC8
  8
HATCH
 10
25704.395439797448
 20
11570.74307247373
 30
0.0
 11
25542.737364424469
 21
11170.743072474081
 31
0.0
  0
LINE
  5
61EC9
  8
HATCH
 10
25623.024577260148
 20
11570.742831993501
 30
0.0
 11
25670.88973334742
 21
11487.83794973811
 31
0.0
  0
LINE
  5
61ECA
  8
KISO_U
 10
25832.109876976949
 20
11570.74307247373
 30
0.0
 11
25632.109876976599
 21
11770.743072474081
 31
0.0
  0
LINE
  5
61ECB
  8
HATCH
 10
25624.108129772841
 20
11170.743072474081
 30
0.0
 11
25576.24297368557
 21
11253.647954729469
 31
0.0
  0
LINE
  5
61ECC
  8
HATCH
 10
26304.395023273439
 20
11570.74307247373
 30
0.0
 11
26142.736947900459
 21
11170.743072474081
 31
0.0
  0
LINE
  5
61ECD
  8
HATCH
 10
25904.395300956108
 20
11570.74307247373
 30
0.0
 11
25742.737225583129
 21
11170.743072474081
 31
0.0
  0
LINE
  5
61ECE
  8
HATCH
 10
26104.395162114772
 20
11570.74307247373
 30
0.0
 11
25942.737086741799
 21
11170.743072474081
 31
0.0
  0
LINE
  5
61ECF
  8
HATCH
 10
26024.107852090168
 20
11170.743072474081
 30
0.0
 11
25976.242696002901
 21
11253.647954729469
 31
0.0
  0
LINE
  5
61ED0
  8
HATCH
 10
25824.107990931509
 20
11170.743072474081
 30
0.0
 11
25776.242834844241
 21
11253.647954729469
 31
0.0
  0
LINE
  5
61ED1
  8
HATCH
 10
26224.107713248832
 20
11170.743072474081
 30
0.0
 11
26176.24255716156
 21
11253.647954729469
 31
0.0
  0
LINE
  5
61ED2
  8
KISO_U
 10
25922.619635659641
 20
11570.74307247373
 30
0.0
 11
25722.619635659292
 21
11770.743072474081
 31
0.0
  0
LINE
  5
61ED3
  8
HATCH
 10
25823.024438418819
 20
11570.742831993501
 30
0.0
 11
25870.889594506079
 21
11487.83794973811
 31
0.0
  0
LINE
  5
61ED4
  8
KISO_U
 10
26312.109876976599
 20
11570.743072474081
 30
0.0
 11
26112.109876976599
 21
11770.743072474081
 31
0.0
  0
LINE
  5
61ED5
  8
HATCH
 10
26223.024160736139
 20
11570.742831993501
 30
0.0
 11
26270.88931682341
 21
11487.83794973811
 31
0.0
  0
LINE
  5
61ED6
  8
HATCH
 10
26023.024299577479
 20
11570.742831993501
 30
0.0
 11
26070.88945566475
 21
11487.83794973811
 31
0.0
  0
LINE
  5
61ED7
  8
HATCH
 10
26504.394884432098
 20
11570.74307247373
 30
0.0
 11
26342.736809059119
 21
11170.743072474081
 31
0.0
  0
LINE
  5
61ED8
  8
HATCH
 10
26424.107574407499
 20
11170.743072474081
 30
0.0
 11
26376.242418320231
 21
11253.647954729469
 31
0.0
  0
LINE
  5
61ED9
  8
HATCH
 10
26423.024021894809
 20
11570.742831993501
 30
0.0
 11
26470.88917798207
 21
11487.83794973811
 31
0.0
  0
LINE
  5
61EDA
  8
KISO_U
 10
26882.61963565935
 20
11570.743072474081
 30
0.0
 11
26682.61963565935
 21
11770.743072474081
 31
0.0
  0
LINE
  5
61EDB
  8
KISO_U
 10
26792.109876976661
 20
11570.743072474081
 30
0.0
 11
26592.109876976661
 21
11770.743072474081
 31
0.0
  0
LINE
  5
61EDC
  8
KISO_U
 10
27362.619635659059
 20
11570.74307247443
 30
0.0
 11
27162.619635659052
 21
11770.74307247443
 31
0.0
  0
LINE
  5
61EDD
  8
KISO_U
 10
27272.10987697637
 20
11570.74307247443
 30
0.0
 11
27072.10987697637
 21
11770.74307247443
 31
0.0
  0
LINE
  5
61EDE
  8
KISO_U
 10
27842.619635658772
 20
11570.743072474779
 30
0.0
 11
27642.619635658772
 21
11770.743072474779
 31
0.0
  0
LINE
  5
61EDF
  8
KISO_U
 10
27752.109876976079
 20
11570.743072474779
 30
0.0
 11
27552.109876976079
 21
11770.743072474779
 31
0.0
  0
LINE
  5
61EE0
  8
KISO_U
 10
28322.619635658481
 20
11570.74307247513
 30
0.0
 11
28122.61963565847
 21
11770.74307247513
 31
0.0
  0
LINE
  5
61EE1
  8
KISO_U
 10
28232.109876975781
 20
11570.74307247513
 30
0.0
 11
28032.109876975781
 21
11770.74307247513
 31
0.0
  0
LINE
  5
61EE2
  8
KISO_U
 10
28802.619635658179
 20
11570.743072475479
 30
0.0
 11
28602.619635658179
 21
11770.743072475479
 31
0.0
  0
LINE
  5
61EE3
  8
KISO_U
 10
28712.109876975501
 20
11570.743072475479
 30
0.0
 11
28512.109876975501
 21
11770.743072475479
 31
0.0
  0
LINE
  5
61EE4
  8
KISO_U
 10
29282.619635657891
 20
11570.743072475831
 30
0.0
 11
29082.619635657891
 21
11770.743072475831
 31
0.0
  0
LINE
  5
61EE5
  8
KISO_U
 10
29192.109876975199
 20
11570.743072475831
 30
0.0
 11
28992.109876975199
 21
11770.743072475831
 31
0.0
  0
LINE
  5
61EE6
  8
HATCH
 10
27104.394467908089
 20
11570.74307247373
 30
0.0
 11
26942.736392535109
 21
11170.743072474081
 31
0.0
  0
LINE
  5
61EE7
  8
HATCH
 10
26704.394745590758
 20
11570.74307247373
 30
0.0
 11
26542.73667021779
 21
11170.743072474081
 31
0.0
  0
LINE
  5
61EE8
  8
HATCH
 10
26904.394606749429
 20
11570.74307247373
 30
0.0
 11
26742.736531376449
 21
11170.743072474081
 31
0.0
  0
LINE
  5
61EE9
  8
HATCH
 10
26824.107296724818
 20
11170.743072474081
 30
0.0
 11
26776.242140637551
 21
11253.647954729469
 31
0.0
  0
LINE
  5
61EEA
  8
HATCH
 10
26624.107435566159
 20
11170.743072474081
 30
0.0
 11
26576.242279478891
 21
11253.647954729469
 31
0.0
  0
LINE
  5
61EEB
  8
HATCH
 10
27024.107157883489
 20
11170.743072474081
 30
0.0
 11
26976.242001796221
 21
11253.647954729469
 31
0.0
  0
LINE
  5
61EEC
  8
HATCH
 10
26623.023883053469
 20
11570.742831993501
 30
0.0
 11
26670.88903914074
 21
11487.83794973811
 31
0.0
  0
LINE
  5
61EED
  8
HATCH
 10
27023.023605370799
 20
11570.742831993501
 30
0.0
 11
27070.88876145806
 21
11487.83794973811
 31
0.0
  0
LINE
  5
61EEE
  8
HATCH
 10
26823.023744212129
 20
11570.742831993501
 30
0.0
 11
26870.8889002994
 21
11487.83794973811
 31
0.0
  0
LINE
  5
61EEF
  8
HATCH
 10
27304.394329066759
 20
11570.74307247373
 30
0.0
 11
27142.736253693769
 21
11170.743072474081
 31
0.0
  0
LINE
  5
61EF0
  8
HATCH
 10
27224.107019042149
 20
11170.743072474081
 30
0.0
 11
27176.241862954881
 21
11253.647954729469
 31
0.0
  0
LINE
  5
61EF1
  8
HATCH
 10
27223.023466529459
 20
11570.742831993501
 30
0.0
 11
27270.888622616731
 21
11487.83794973811
 31
0.0
  0
LINE
  5
61EF2
  8
HATCH
 10
27904.39391254275
 20
11570.74307247373
 30
0.0
 11
27742.73583716977
 21
11170.743072474081
 31
0.0
  0
LINE
  5
61EF3
  8
HATCH
 10
27504.394190225419
 20
11570.74307247373
 30
0.0
 11
27342.73611485244
 21
11170.743072474081
 31
0.0
  0
LINE
  5
61EF4
  8
HATCH
 10
27704.394051384079
 20
11570.74307247373
 30
0.0
 11
27542.735976011099
 21
11170.743072474081
 31
0.0
  0
LINE
  5
61EF5
  8
HATCH
 10
27624.106741359468
 20
11170.743072474081
 30
0.0
 11
27576.241585272212
 21
11253.647954729469
 31
0.0
  0
LINE
  5
61EF6
  8
HATCH
 10
27424.106880200809
 20
11170.743072474081
 30
0.0
 11
27376.241724113541
 21
11253.647954729469
 31
0.0
  0
LINE
  5
61EF7
  8
HATCH
 10
27824.106602518139
 20
11170.743072474081
 30
0.0
 11
27776.241446430871
 21
11253.647954729469
 31
0.0
  0
LINE
  5
61EF8
  8
HATCH
 10
27423.023327688119
 20
11570.742831993501
 30
0.0
 11
27470.88848377539
 21
11487.83794973811
 31
0.0
  0
LINE
  5
61EF9
  8
HATCH
 10
27823.023050005449
 20
11570.742831993501
 30
0.0
 11
27870.888206092721
 21
11487.83794973811
 31
0.0
  0
LINE
  5
61EFA
  8
HATCH
 10
27623.02318884679
 20
11570.742831993501
 30
0.0
 11
27670.888344934061
 21
11487.83794973811
 31
0.0
  0
LINE
  5
61EFB
  8
HATCH
 10
28104.393773701409
 20
11570.74307247373
 30
0.0
 11
27942.73569832843
 21
11170.743072474081
 31
0.0
  0
LINE
  5
61EFC
  8
HATCH
 10
28024.106463676799
 20
11170.743072474081
 30
0.0
 11
27976.241307589538
 21
11253.647954729469
 31
0.0
  0
LINE
  5
61EFD
  8
HATCH
 10
28023.022911164109
 20
11570.742831993501
 30
0.0
 11
28070.888067251381
 21
11487.83794973811
 31
0.0
  0
LINE
  5
61EFE
  8
HATCH
 10
28704.3933571774
 20
11570.74307247373
 30
0.0
 11
28542.73528180442
 21
11170.743072474081
 31
0.0
  0
LINE
  5
61EFF
  8
HATCH
 10
28304.393634860069
 20
11570.74307247373
 30
0.0
 11
28142.73555948709
 21
11170.743072474081
 31
0.0
  0
LINE
  5
61F00
  8
HATCH
 10
28504.39349601874
 20
11570.74307247373
 30
0.0
 11
28342.73542064576
 21
11170.743072474081
 31
0.0
  0
LINE
  5
61F01
  8
HATCH
 10
28424.106185994129
 20
11170.743072474081
 30
0.0
 11
28376.241029906862
 21
11253.647954729469
 31
0.0
  0
LINE
  5
61F02
  8
HATCH
 10
28224.106324835459
 20
11170.743072474081
 30
0.0
 11
28176.241168748202
 21
11253.647954729469
 31
0.0
  0
LINE
  5
61F03
  8
HATCH
 10
28624.106047152789
 20
11170.743072474081
 30
0.0
 11
28576.240891065529
 21
11253.647954729469
 31
0.0
  0
LINE
  5
61F04
  8
HATCH
 10
28223.02277232278
 20
11570.742831993501
 30
0.0
 11
28270.887928410051
 21
11487.83794973811
 31
0.0
  0
LINE
  5
61F05
  8
HATCH
 10
28623.022494640099
 20
11570.742831993501
 30
0.0
 11
28670.887650727371
 21
11487.83794973811
 31
0.0
  0
LINE
  5
61F06
  8
HATCH
 10
28423.02263348144
 20
11570.742831993501
 30
0.0
 11
28470.887789568711
 21
11487.83794973811
 31
0.0
  0
LINE
  5
61F07
  8
HATCH
 10
28904.39321833607
 20
11570.74307247373
 30
0.0
 11
28742.73514296308
 21
11170.743072474081
 31
0.0
  0
LINE
  5
61F08
  8
HATCH
 10
28824.10590831146
 20
11170.743072474081
 30
0.0
 11
28776.240752224188
 21
11253.647954729469
 31
0.0
  0
LINE
  5
61F09
  8
HATCH
 10
28823.022355798759
 20
11570.742831993501
 30
0.0
 11
28870.887511886041
 21
11487.83794973811
 31
0.0
  0
LINE
  5
61F0A
  8
HATCH
 10
29504.392801811849
 20
11570.743072474081
 30
0.0
 11
29342.73472643887
 21
11170.74307247443
 31
0.0
  0
LINE
  5
61F0B
  8
HATCH
 10
29104.393079494519
 20
11570.743072474081
 30
0.0
 11
28942.73500412154
 21
11170.74307247443
 31
0.0
  0
LINE
  5
61F0C
  8
HATCH
 10
29304.39294065319
 20
11570.743072474081
 30
0.0
 11
29142.73486528021
 21
11170.74307247443
 31
0.0
  0
LINE
  5
61F0D
  8
HATCH
 10
29224.105630628579
 20
11170.74307247443
 30
0.0
 11
29176.240474541311
 21
11253.64795472982
 31
0.0
  0
LINE
  5
61F0E
  8
HATCH
 10
29024.105769469919
 20
11170.74307247443
 30
0.0
 11
28976.240613382652
 21
11253.64795472982
 31
0.0
  0
LINE
  5
61F0F
  8
HATCH
 10
29424.105491787239
 20
11170.74307247443
 30
0.0
 11
29376.240335699971
 21
11253.64795472982
 31
0.0
  0
LINE
  5
61F10
  8
HATCH
 10
29023.02221695723
 20
11570.742831993841
 30
0.0
 11
29070.88737304449
 21
11487.837949738459
 31
0.0
  0
LINE
  5
61F11
  8
HATCH
 10
29423.02193927456
 20
11570.742831993841
 30
0.0
 11
29470.887095361821
 21
11487.837949738459
 31
0.0
  0
LINE
  5
61F12
  8
HATCH
 10
29223.02207811589
 20
11570.742831993841
 30
0.0
 11
29270.887234203161
 21
11487.837949738459
 31
0.0
  0
LINE
  5
61F13
  8
HATCH
 10
29704.392662970509
 20
11570.743072474081
 30
0.0
 11
29542.73458759753
 21
11170.74307247443
 31
0.0
  0
LINE
  5
61F14
  8
HATCH
 10
29624.10535294591
 20
11170.74307247443
 30
0.0
 11
29576.240196858638
 21
11253.64795472982
 31
0.0
  0
LINE
  5
61F15
  8
HATCH
 10
29623.02180043322
 20
11570.742831993841
 30
0.0
 11
29670.88695652048
 21
11487.837949738459
 31
0.0
  0
LINE
  5
61F17
  8
U1
 62
     4
 10
28342.73736442432
 20
12170.74307247373
 30
0.0
 11
26942.73736442432
 21
12170.74307247373
 31
0.0
  0
LINE
  5
61F18
  8
HIKIDASHI
 10
23861.030419395989
 20
12709.3799716495
 30
0.0
 11
25165.480271538479
 21
12709.3799716495
 31
0.0
  0
TEXT
  5
61F19
  8
HIKIDASHI
 10
23941.030419395989
 20
12789.3799716495
 30
0.0
 40
160.0
  1
鉄筋 D10\U+00D7350
 41
0.6666666666666666
  7
00
  0
TEXT
  5
61F1A
  8
HIKIDASHI
 10
23941.030419395989
 20
13001.540572941851
 30
0.0
 40
160.0
  1
カンザシ
 41
0.6666666666666666
  7
00
  0
LINE
  5
61F1D
  8
KISO_U
 10
27472.737364424331
 20
13249.24313484421
 30
0.0
 11
25994.237302053509
 21
11770.74307247338
 31
0.0
  0
LINE
  5
61F1E
  8
KISO_U
 10
27472.737364424331
 20
13158.733376161519
 30
0.0
 11
26084.74706073619
 21
11770.74307247338
 31
0.0
  0
LINE
  5
61F1F
  8
KISO_U
 10
27472.737364424331
 20
13339.752893526889
 30
0.0
 11
25903.72754337082
 21
11770.74307247338
 31
0.0
  0
LINE
  5
61F20
  8
KISO_U
 10
27472.737364424331
 20
12769.24313484415
 30
0.0
 11
26474.23730205356
 21
11770.74307247338
 31
0.0
  0
LINE
  5
61F21
  8
KISO_U
 10
27472.737364424331
 20
12678.73337616145
 30
0.0
 11
26564.747060736248
 21
11770.74307247338
 31
0.0
  0
LINE
  5
61F22
  8
KISO_U
 10
27472.737364424331
 20
12859.75289352684
 30
0.0
 11
26383.727543370871
 21
11770.74307247338
 31
0.0
  0
LINE
  5
61F23
  8
KISO_U
 10
27472.737364424331
 20
12289.24313484409
 30
0.0
 11
26954.237302053269
 21
11770.743072473029
 31
0.0
  0
LINE
  5
61F24
  8
KISO_U
 10
27472.737364424331
 20
12198.733376161401
 30
0.0
 11
27044.747060735961
 21
11770.743072473029
 31
0.0
  0
LINE
  5
61F25
  8
KISO_U
 10
27472.737364424331
 20
12379.75289352678
 30
0.0
 11
26863.727543370591
 21
11770.743072473029
 31
0.0
  0
LINE
  5
61F26
  8
KISO_U
 10
27472.737364424331
 20
13729.243134844261
 30
0.0
 11
25514.237302053789
 21
11770.74307247373
 31
0.0
  0
LINE
  5
61F27
  8
KISO_U
 10
27472.737364424331
 20
13638.73337616157
 30
0.0
 11
25604.747060736481
 21
11770.74307247373
 31
0.0
  0
LINE
  5
61F28
  8
KISO_U
 10
27423.727543371111
 20
13770.74307247373
 30
0.0
 11
25423.727543371111
 21
11770.74307247373
 31
0.0
  0
LINE
  5
61F29
  8
KISO_U
 10
27034.237302053742
 20
13770.74307247373
 30
0.0
 11
25342.737364424342
 21
12079.24313484433
 31
0.0
  0
LINE
  5
61F2A
  8
KISO_U
 10
27124.74706073643
 20
13770.74307247373
 30
0.0
 11
25342.737364424342
 21
11988.73337616165
 31
0.0
  0
LINE
  5
61F2B
  8
KISO_U
 10
26943.727543371049
 20
13770.74307247373
 30
0.0
 11
25342.737364424342
 21
12169.75289352702
 31
0.0
  0
LINE
  5
61F2C
  8
KISO_U
 10
26554.23730205368
 20
13770.74307247373
 30
0.0
 11
25342.737364424342
 21
12559.24313484439
 31
0.0
  0
LINE
  5
61F2D
  8
KISO_U
 10
26644.747060736368
 20
13770.74307247373
 30
0.0
 11
25342.737364424342
 21
12468.733376161699
 31
0.0
  0
LINE
  5
61F2E
  8
KISO_U
 10
26463.727543370991
 20
13770.74307247373
 30
0.0
 11
25342.737364424342
 21
12649.75289352708
 31
0.0
  0
LINE
  5
61F2F
  8
KISO_U
 10
26074.237302053622
 20
13770.74307247373
 30
0.0
 11
25342.737364424342
 21
13039.24313484445
 31
0.0
  0
LINE
  5
61F30
  8
KISO_U
 10
26164.74706073631
 20
13770.74307247373
 30
0.0
 11
25342.737364424342
 21
12948.733376161759
 31
0.0
  0
LINE
  5
61F31
  8
KISO_U
 10
25983.727543370951
 20
13770.74307247373
 30
0.0
 11
25342.737364424342
 21
13129.75289352714
 31
0.0
  0
LINE
  5
61F32
  8
KISO_U
 10
29434.237302054029
 20
13770.74307247373
 30
0.0
 11
27812.73736442432
 21
12149.24313484403
 31
0.0
  0
LINE
  5
61F33
  8
KISO_U
 10
27472.737364424331
 20
11809.24313484403
 30
0.0
 11
27434.23730205333
 21
11770.743072473029
 31
0.0
  0
LINE
  5
61F34
  8
KISO_U
 10
29524.747060736721
 20
13770.74307247373
 30
0.0
 11
27812.73736442432
 21
12058.733376161341
 31
0.0
  0
LINE
  5
61F35
  8
KISO_U
 10
29343.72754337134
 20
13770.74307247373
 30
0.0
 11
27812.73736442432
 21
12239.75289352672
 31
0.0
  0
LINE
  5
61F36
  8
KISO_U
 10
27472.737364424331
 20
11899.75289352672
 30
0.0
 11
27343.727543370642
 21
11770.743072473029
 31
0.0
  0
LINE
  5
61F37
  8
KISO_U
 10
29914.237302054069
 20
13770.74307247373
 30
0.0
 11
27914.237302053039
 21
11770.74307247268
 31
0.0
  0
LINE
  5
61F38
  8
KISO_U
 10
29942.737364424342
 20
13708.73337616129
 30
0.0
 11
28004.747060735732
 21
11770.74307247268
 31
0.0
  0
LINE
  5
61F39
  8
KISO_U
 10
29823.727543371398
 20
13770.74307247373
 30
0.0
 11
27823.727543370351
 21
11770.74307247268
 31
0.0
  0
LINE
  5
61F3A
  8
KISO_U
 10
29942.737364424342
 20
13319.24313484394
 30
0.0
 11
28394.237302054149
 21
11770.74307247373
 31
0.0
  0
LINE
  5
61F3B
  8
KISO_U
 10
29942.737364424342
 20
13228.733376161241
 30
0.0
 11
28484.747060736841
 21
11770.74307247373
 31
0.0
  0
LINE
  5
61F3C
  8
KISO_U
 10
29942.737364424342
 20
13409.75289352662
 30
0.0
 11
28303.72754337146
 21
11770.74307247373
 31
0.0
  0
LINE
  5
61F3D
  8
KISO_U
 10
29942.737364424342
 20
12839.24313484386
 30
0.0
 11
28874.237302053862
 21
11770.74307247338
 31
0.0
  0
LINE
  5
61F3E
  8
KISO_U
 10
29942.737364424342
 20
12748.733376161181
 30
0.0
 11
28964.74706073655
 21
11770.74307247338
 31
0.0
  0
LINE
  5
61F3F
  8
KISO_U
 10
29942.737364424342
 20
12929.75289352656
 30
0.0
 11
28783.727543371169
 21
11770.74307247338
 31
0.0
  0
LINE
  5
61F40
  8
KISO_U
 10
29942.737364424342
 20
12359.24313484382
 30
0.0
 11
29354.237302053909
 21
11770.74307247338
 31
0.0
  0
LINE
  5
61F41
  8
KISO_U
 10
29942.737364424342
 20
12268.733376161121
 30
0.0
 11
29444.747060736601
 21
11770.74307247338
 31
0.0
  0
LINE
  5
61F42
  8
KISO_U
 10
29942.737364424342
 20
12449.7528935265
 30
0.0
 11
29263.727543371231
 21
11770.74307247338
 31
0.0
  0
LINE
  5
61F43
  8
KISO_U
 10
28954.237302053971
 20
13770.74307247373
 30
0.0
 11
27812.73736442432
 21
12629.24313484409
 31
0.0
  0
LINE
  5
61F44
  8
KISO_U
 10
29044.747060736659
 20
13770.74307247373
 30
0.0
 11
27812.73736442432
 21
12538.733376161401
 31
0.0
  0
LINE
  5
61F45
  8
KISO_U
 10
28863.727543371289
 20
13770.74307247373
 30
0.0
 11
27812.73736442432
 21
12719.752893526769
 31
0.0
  0
LINE
  5
61F46
  8
KISO_U
 10
28474.237302053909
 20
13770.74307247373
 30
0.0
 11
27812.73736442432
 21
13109.243134844141
 31
0.0
  0
LINE
  5
61F47
  8
KISO_U
 10
28564.747060736601
 20
13770.74307247373
 30
0.0
 11
27812.73736442432
 21
13018.73337616145
 31
0.0
  0
LINE
  5
61F48
  8
KISO_U
 10
28383.727543371231
 20
13770.74307247373
 30
0.0
 11
27812.73736442432
 21
13199.752893526829
 31
0.0
  0
LINE
  5
61F49
  8
KISO_U
 10
27994.237302053851
 20
13770.74307247373
 30
0.0
 11
27812.73736442432
 21
13589.243134844201
 31
0.0
  0
LINE
  5
61F4A
  8
KISO_U
 10
28084.74706073655
 20
13770.74307247373
 30
0.0
 11
27812.73736442432
 21
13498.73337616151
 31
0.0
  0
LINE
  5
61F4B
  8
KISO_U
 10
27903.727543371169
 20
13770.74307247373
 30
0.0
 11
27812.73736442432
 21
13679.752893526889
 31
0.0
  0
TEXT
  5
61F4C
  8
SUNPOU
 10
27817.55443064262
 20
9639.988904098951
 30
0.0
 40
240.0
  1
断 面
  7
01
  0
TEXT
  5
61F4D
  8
SUNPOU
 10
26767.43606460734
 20
9639.988904098951
 30
0.0
 40
240.0
  1
B  ~  B'
 41
0.6700000000000002
  7
00
  0
LINE
  5
61F4E
  8
HIKIDASHI
 10
28292.11074941156
 20
14409.70317803151
 30
0.0
 11
28525.976025141939
 21
14409.70317803151
 31
0.0
  0
TEXT
  5
61F4F
  8
HIKIDASHI
 10
28372.11074941156
 20
14489.70317803151
 30
0.0
 40
160.0
  1
柱
 41
0.6666666666666666
  7
00
  0
LINE
  5
61F51
  8
SUNPOU
 10
24964.015661851779
 20
13770.74307247373
 30
0.0
 11
25083.95581201684
 21
13978.48550642704
 31
0.0
  0
LINE
  5
61F52
  8
SUNPOU
 10
24844.075511686719
 20
13978.48550642704
 30
0.0
 11
24964.015661851779
 21
13770.74307247373
 31
0.0
  0
LINE
  5
61F53
  8
SUNPOU
 10
25083.95581201684
 20
13978.48550642704
 30
0.0
 11
24844.075511686719
 21
13978.48550642704
 31
0.0
  0
TEXT
  5
61F54
  8
SUNPOU
 10
24849.424718460989
 20
14063.35737431521
 30
0.0
 40
160.00016032016029
  1
G.L
 41
0.6700000000000002
  7
00
  0
TEXT
  5
61F5A
  8
HIKIDASHI
 10
30331.776506769638
 20
10599.33265605528
 30
0.0
 40
160.0
  1
6-D13\U+00D76-D13
 41
0.6666666666666666
  7
00
  0
TEXT
  5
61F5B
  8
HIKIDASHI
 10
30331.776506769638
 20
10811.49325734764
 30
0.0
 40
160.0
  1
ベース筋
 41
0.6666666666666666
  7
00
  0
LINE
  5
61F5C
  8
KISO_U
 10
29762.6196356576
 20
11570.74307247618
 30
0.0
 11
29562.6196356576
 21
11770.74307247618
 31
0.0
  0
LINE
  5
61F5D
  8
KISO_U
 10
29672.109876974911
 20
11570.74307247618
 30
0.0
 11
29472.109876974911
 21
11770.74307247618
 31
0.0
  0
TEXT
  5
61F5E
  8
NAME
 10
21493.503006010109
 20
1049.7796840770141
 30
0.0
 40
340.0
  1
SOB-5857H,FH
 41
0.6400000000000001
  7
00
  0
TEXT
  5
61F5F
  8
NAME
 10
24101.165691067308
 20
1050.235258849305
 30
0.0
 40
340.0
  1
型（単棟）
 41
0.6400000000000001
  7
00
  0
TEXT
  5
61F60
  8
NAME
 10
25286.811772828511
 20
1049.7796840770141
 30
0.0
 40
340.0
  1
+
 41
0.6400000000000001
  7
00
  0
TEXT
  5
61F61
  8
NAME
 10
25631.889245620481
 20
1050.235258849305
 30
0.0
 40
340.0
  1
下屋
 41
0.6400000000000001
  7
00
  0
TEXT
  5
61F62
  8
NAME
 10
26164.939750572819
 20
1050.235258849305
 30
0.0
 40
340.0
  1
3/4
 41
0.6400000000000001
  7
00
  0
LINE
  5
61F69
  8
HATCH
 10
25504.395578638781
 20
11570.74307247373
 30
0.0
 11
25342.737503265809
 21
11170.743072474081
 31
0.0
  0
LINE
  5
61F6A
  8
HATCH
 10
25423.024716101489
 20
11570.742831993501
 30
0.0
 11
25470.889872188749
 21
11487.83794973811
 31
0.0
  0
LINE
  5
61F6B
  8
HATCH
 10
25424.108268614182
 20
11170.743072474081
 30
0.0
 11
25376.24311252691
 21
11253.647954729469
 31
0.0
  0
LINE
  5
61F6C
  8
HATCH
 10
25304.395717480122
 20
11570.74307247373
 30
0.0
 11
25142.737642107139
 21
11170.743072474081
 31
0.0
  0
LINE
  5
61F6D
  8
HATCH
 10
25223.024854942829
 20
11570.742831993501
 30
0.0
 11
25270.890011030089
 21
11487.83794973811
 31
0.0
  0
LINE
  5
61F6E
  8
HATCH
 10
25224.108407455518
 20
11170.743072474081
 30
0.0
 11
25176.243251368251
 21
11253.647954729469
 31
0.0
  0
LINE
  5
61F6F
  8
KISO_U
 10
25352.109876976949
 20
11570.74307247373
 30
0.0
 11
25152.109876976599
 21
11770.743072474081
 31
0.0
  0
LINE
  5
61F70
  8
KISO_U
 10
25442.619635659641
 20
11570.74307247373
 30
0.0
 11
25242.619635659292
 21
11770.743072474081
 31
0.0
  0
LINE
  5
61F71
  8
KISO_U
 10
25594.237302053582
 20
13770.74307247373
 30
0.0
 11
25342.737364424342
 21
13519.24313484449
 31
0.0
  0
LINE
  5
61F72
  8
KISO_U
 10
25684.74706073627
 20
13770.74307247373
 30
0.0
 11
25342.737364424342
 21
13428.733376161799
 31
0.0
  0
LINE
  5
61F73
  8
KISO_U
 10
25503.7275433709
 20
13770.74307247373
 30
0.0
 11
25342.737364424342
 21
13609.752893527169
 31
0.0
  0
LINE
  5
61F74
  8
HATCH
 10
29904.39252412918
 20
11570.743072474081
 30
0.0
 11
29742.7344487562
 21
11170.74307247443
 31
0.0
  0
LINE
  5
61F75
  8
HATCH
 10
29824.105214104569
 20
11170.74307247443
 30
0.0
 11
29776.240058017302
 21
11253.64795472982
 31
0.0
  0
LINE
  5
61F76
  8
HATCH
 10
29823.02166159188
 20
11570.742831993841
 30
0.0
 11
29870.886817679151
 21
11487.837949738459
 31
0.0
  0
LINE
  5
61F77
  8
HATCH
 10
30104.39238528784
 20
11570.743072474081
 30
0.0
 11
29942.73430991486
 21
11170.74307247443
 31
0.0
  0
LINE
  5
61F78
  8
HATCH
 10
30024.105075263229
 20
11170.74307247443
 30
0.0
 11
29976.239919175961
 21
11253.64795472982
 31
0.0
  0
LINE
  5
61F79
  8
HATCH
 10
30023.021522750551
 20
11570.742831993841
 30
0.0
 11
30070.886678837811
 21
11487.837949738459
 31
0.0
  0
LINE
  5
61F7A
  8
KISO_U
 10
30142.737364424342
 20
11670.6253437095
 30
0.0
 11
30042.619635655221
 21
11770.743072478621
 31
0.0
  0
LINE
  5
61F7B
  8
KISO_U
 10
30142.737364424342
 20
11580.11558502681
 30
0.0
 11
29952.109876972529
 21
11770.743072478621
 31
0.0
  0
LINE
  5
61F7C
  8
KISO_U
 10
29942.737364424342
 20
11879.243134843749
 30
0.0
 11
29834.237302053622
 21
11770.743072473029
 31
0.0
  0
LINE
  5
61F7D
  8
KISO_U
 10
29942.737364424342
 20
11788.733376161061
 30
0.0
 11
29924.74706073631
 21
11770.743072473029
 31
0.0
  0
LINE
  5
61F7E
  8
KISO_U
 10
29942.737364424342
 20
11969.75289352644
 30
0.0
 11
29743.727543370929
 21
11770.743072473029
 31
0.0
  0
TEXT
  5
62846
  8
U3
 10
18967.91086262677
 20
13612.772254533391
 30
0.0
 40
160.00016032016029
  1
内
  7
01
  0
CIRCLE
  5
62847
  8
U3
 10
19042.991050793229
 20
13692.77233469346
 30
0.0
 40
140.00014028014019
  0
LINE
  5
62848
  8
SUNPOU
 10
18965.250925598339
 20
12837.740239125649
 30
0.0
 11
19085.1910757634
 21
13045.482673078919
 31
0.0
  0
LINE
  5
62849
  8
HATCH
 10
19132.846771061799
 20
12437.74023912564
 30
0.0
 11
19167.036179009971
 21
12378.52244747875
 31
0.0
  0
LINE
  5
6284A
  8
HATCH
 10
18989.989628204701
 20
12437.74023912564
 30
0.0
 11
19024.179036152811
 21
12378.52244747875
 31
0.0
  0
LINE
  5
6284B
  8
KISO_U
 10
18980.24054196474
 20
12437.74023912564
 30
0.0
 11
19293.609904982412
 21
12751.10960214332
 31
0.0
  0
LINE
  5
6284C
  8
HATCH
 10
19168.261720398928
 20
12237.74023912562
 30
0.0
 11
19134.072312450819
 21
12296.95803077251
 31
0.0
  0
LINE
  5
6284D
  8
HATCH
 10
19025.404577541769
 20
12237.74023912562
 30
0.0
 11
18991.215169593659
 21
12296.95803077251
 31
0.0
  0
LINE
  5
6284E
  8
HATCH
 10
19190.968764573649
 20
12437.74023912564
 30
0.0
 11
19110.139726887079
 21
12237.74023912562
 31
0.0
  0
LINE
  5
6284F
  8
HATCH
 10
19048.111621716489
 20
12437.74023912564
 30
0.0
 11
18967.282584029981
 21
12237.74023912562
 31
0.0
  0
LINE
  5
62851
  8
SUNPOU
 10
18546.35288024801
 20
13277.74023912562
 30
0.0
 11
18546.35288024801
 21
13879.530614496991
 31
0.0
  0
LINE
  5
62854
  8
U1
 10
17739.250097945529
 20
13437.740239125649
 30
0.0
 11
17791.2501500496
 21
13437.740239125649
 31
0.0
  0
LINE
  5
62856
  8
U1
 10
17791.2501500496
 20
13277.74023912562
 30
0.0
 11
18005.250123997539
 21
13277.74023912562
 31
0.0
  0
LINE
  5
62857
  8
SUNPOU
 10
17765.250123997539
 20
13519.04573399794
 30
0.0
 11
17765.250123997539
 21
14037.741000646371
 31
0.0
  0
LINE
  5
62858
  8
SUNPOU
 10
18085.250123997539
 20
13277.74023912562
 30
0.0
 11
18626.35288024801
 21
13277.74023912562
 31
0.0
  0
LINE
  5
62859
  8
SUNPOU
 10
18005.250524797972
 20
13357.74023912562
 30
0.0
 11
18005.250524797972
 21
14357.74132128671
 31
0.0
  0
LINE
  5
6285A
  8
HIKIDASHI
 10
17845.250123997539
 20
13576.30430373116
 30
0.0
 11
18273.318985670368
 21
14317.74132128671
 31
0.0
  0
LINE
  5
6285D
  8
SUNPOU
 10
17285.250123997539
 20
13357.74023912562
 30
0.0
 11
17285.250123997539
 21
14037.741000646371
 31
0.0
  0
TEXT
  5
6285E
  8
HIKIDASHI
 10
16800.034454076111
 20
13629.50982164155
 30
0.0
 40
160.0
  1
D13
 41
0.6666666666666666
  7
00
  0
LINE
  5
6285F
  8
HIKIDASHI
 10
16759.919431170129
 20
13549.50982164155
 30
0.0
 11
17162.876235158441
 21
13549.50982164155
 31
0.0
  0
LINE
  5
62860
  8
SUNPOU
 10
17285.250123997539
 20
13357.74023912562
 30
0.0
 11
17285.250123997539
 21
14357.74132128671
 31
0.0
  0
LINE
  5
62861
  8
SUNPOU
 10
17765.250123997539
 20
13957.7410006464
 30
0.0
 11
17285.250123997539
 21
13957.7410006464
 31
0.0
  0
LINE
  5
62862
  8
U1
 10
17285.250123997539
 20
13277.74023912562
 30
0.0
 11
17739.250097945529
 21
13277.74023912562
 31
0.0
  0
LINE
  5
62864
  8
SUNPOU
 10
17325.250123997539
 20
14277.74132128671
 30
0.0
 11
17965.250524797972
 21
14277.74132128671
 31
0.0
  0
LINE
  5
62866
  8
SUNPOU
 10
17205.250123997539
 20
13277.74023912562
 30
0.0
 11
15871.148232486819
 21
13277.74023912562
 31
0.0
  0
LINE
  5
62867
  8
SUNPOU
 10
17205.250123997539
 20
13277.74023912562
 30
0.0
 11
15871.148232486819
 21
13277.74023912562
 31
0.0
  0
TEXT
  5
62868
  8
U3
 10
15910.381087009881
 20
13612.772254533391
 30
0.0
 40
160.00016032016029
  1
外
  7
01
  0
CIRCLE
  5
62869
  8
U3
 10
15978.9744023029
 20
13692.77233469346
 30
0.0
 40
140.00014028014019
  0
LINE
  5
6286A
  8
SUNPOU
 10
18546.35288024801
 20
13237.74023912562
 30
0.0
 11
18546.35288024801
 21
12837.740239125649
 31
0.0
  0
LINE
  5
6286C
  8
HATCH
 10
18704.275342490379
 20
12437.74023912564
 30
0.0
 11
18738.464750438488
 21
12378.52244747875
 31
0.0
  0
LINE
  5
6286D
  8
HATCH
 10
18847.132485347542
 20
12437.74023912564
 30
0.0
 11
18881.321893295652
 21
12378.52244747875
 31
0.0
  0
LINE
  5
6286E
  8
HATCH
 10
18275.703913918958
 20
12437.74023912564
 30
0.0
 11
18309.893321867072
 21
12378.52244747875
 31
0.0
  0
LINE
  5
6286F
  8
HATCH
 10
18418.56105677606
 20
12437.74023912564
 30
0.0
 11
18452.750464724231
 21
12378.52244747875
 31
0.0
  0
LINE
  5
62870
  8
HATCH
 10
18561.418199633219
 20
12437.74023912564
 30
0.0
 11
18595.607607581329
 21
12378.52244747875
 31
0.0
  0
LINE
  5
62871
  8
KISO_U
 10
18319.221024599359
 20
12437.74023912564
 30
0.0
 11
18719.221024599421
 21
12837.740239125649
 31
0.0
  0
LINE
  5
62872
  8
KISO_U
 10
18409.730783282052
 20
12437.74023912564
 30
0.0
 11
18809.730783282052
 21
12837.740239125649
 31
0.0
  0
ARC
  5
62873
  8
U1
 10
17677.250097945529
 20
13038.76373929428
 30
0.0
 40
61.999999999999993
 50
0.0
 51
180.0
  0
ARC
  5
62874
  8
U1
 10
17677.250045841469
 20
13038.76373929428
 30
0.0
 40
26.0
 50
90.0
 51
179.8852938315091
  0
ARC
  5
62875
  8
U1
 10
17677.250097945529
 20
13038.76373929428
 30
0.0
 40
26.0
 50
0.0
 51
90.0
  0
LINE
  5
62876
  8
U1
 10
17739.250097945529
 20
13012.763739294251
 30
0.0
 11
17703.25009794554
 21
13012.763739294251
 31
0.0
  0
LINE
  5
62877
  8
KISO_U
 10
17651.250097945529
 20
12839.25995458951
 30
0.0
 11
17739.250097945529
 21
12927.259954589499
 31
0.0
  0
LINE
  5
62878
  8
KISO_U
 10
17651.250097945529
 20
12929.769713272161
 30
0.0
 11
17739.250097945529
 21
13017.769713272161
 31
0.0
  0
CIRCLE
  5
62879
  8
U1
 10
17677.250097945529
 20
13038.76373929428
 30
0.0
 40
26.0
  0
LINE
  5
6287A
  8
U1
 10
17739.250097945529
 20
13012.763739294251
 30
0.0
 11
17739.250097945529
 21
13038.76373929428
 31
0.0
  0
LINE
  5
6287B
  8
U1
 10
17703.25009794554
 20
13012.763739294251
 30
0.0
 11
17703.25009794554
 21
13038.76373929428
 31
0.0
  0
LINE
  5
6287C
  8
KISO_U
 10
17791.2501500496
 20
12888.75024801088
 30
0.0
 11
18005.250123997539
 21
13102.75022195885
 31
0.0
  0
LINE
  5
6287D
  8
KISO_U
 10
17791.2501500496
 20
12979.260006693539
 30
0.0
 11
18005.250123997539
 21
13193.25998064154
 31
0.0
  0
LINE
  5
6287E
  8
HATCH
 10
18132.846771061799
 20
12437.74023912564
 30
0.0
 11
18167.036179009909
 21
12378.52244747875
 31
0.0
  0
LINE
  5
6287F
  8
HATCH
 10
18005.250123997539
 20
12411.3082850636
 30
0.0
 11
18024.179036152749
 21
12378.52244747875
 31
0.0
  0
LINE
  5
62880
  8
HATCH
 10
18048.111621716489
 20
12437.74023912564
 30
0.0
 11
18005.250123997539
 21
12331.685536643279
 31
0.0
  0
LINE
  5
62881
  8
U1
 10
17671.250029809449
 20
12597.73939744479
 30
0.0
 11
17671.250029809449
 21
12649.73944954885
 31
0.0
  0
LINE
  5
62882
  8
U1
 10
17751.250109969551
 20
12597.73939744479
 30
0.0
 11
17671.250029809449
 21
12597.73939744479
 31
0.0
  0
LINE
  5
62883
  8
U1
 10
17671.250029809449
 20
12649.73944954885
 30
0.0
 11
17739.250097945529
 21
12649.73944954885
 31
0.0
  0
ARC
  5
62884
  8
U1
 10
17751.250109969551
 20
12637.73943752484
 30
0.0
 40
40.000040080040073
 50
270.0
 51
0.0
  0
LINE
  5
62885
  8
KISO_U
 10
17651.250097945529
 20
12359.259954589499
 30
0.0
 11
18005.25012399759
 21
12713.25998064154
 31
0.0
  0
LINE
  5
62886
  8
KISO_U
 10
17651.250097945529
 20
12449.769713272161
 30
0.0
 11
18005.25012399759
 21
12803.769739324171
 31
0.0
  0
LINE
  5
62887
  8
KISO_U
 10
17651.250097945529
 20
12748.75019590685
 30
0.0
 11
17739.250097945529
 21
12836.75019590684
 31
0.0
  0
LINE
  5
62888
  8
KISO_U
 10
18020.24054196474
 20
12437.74023912564
 30
0.0
 11
18420.24054196474
 21
12837.740239125649
 31
0.0
  0
LINE
  5
62889
  8
KISO_U
 10
18005.250123997539
 20
12513.25957984116
 30
0.0
 11
18329.730783282052
 21
12837.740239125649
 31
0.0
  0
LINE
  5
6288A
  8
KISO_U
 10
18005.250123997539
 20
12603.76933852382
 30
0.0
 11
18239.221024599359
 21
12837.740239125649
 31
0.0
  0
LINE
  5
6288B
  8
HATCH
 10
18739.690291827508
 20
12237.74023912562
 30
0.0
 11
18705.50088387934
 21
12296.95803077251
 31
0.0
  0
LINE
  5
6288C
  8
HATCH
 10
18882.547434684609
 20
12237.74023912562
 30
0.0
 11
18848.3580267365
 21
12296.95803077251
 31
0.0
  0
LINE
  5
6288D
  8
HATCH
 10
18311.11886325603
 20
12237.74023912562
 30
0.0
 11
18276.92945530792
 21
12296.95803077251
 31
0.0
  0
TEXT
  5
6288E
  8
HIKIDASHI
 10
18231.73898363861
 20
11953.51114907494
 30
0.0
 40
160.0
  1
D13
 41
0.6666666666666666
  7
00
  0
LINE
  5
6288F
  8
HATCH
 10
18453.976006113189
 20
12237.74023912562
 30
0.0
 11
18419.786598165079
 21
12296.95803077251
 31
0.0
  0
LINE
  5
62890
  8
HATCH
 10
18596.833148970349
 20
12237.74023912562
 30
0.0
 11
18562.643741022239
 21
12296.95803077251
 31
0.0
  0
LINE
  5
62891
  8
HATCH
 10
18168.261720398881
 20
12237.74023912562
 30
0.0
 11
18134.07231245076
 21
12296.95803077251
 31
0.0
  0
LINE
  5
62892
  8
HATCH
 10
18025.404577541769
 20
12237.74023912562
 30
0.0
 11
18005.250123997539
 21
12272.648776662971
 31
0.0
  0
LINE
  5
62893
  8
KISO_U
 10
17651.250097945529
 20
11969.76971327219
 30
0.0
 11
18005.25012399759
 21
12323.769739324191
 31
0.0
  0
LINE
  5
62894
  8
KISO_U
 10
17651.250097945529
 20
11879.25995458953
 30
0.0
 11
18005.25012399759
 21
12233.259980641569
 31
0.0
  0
LINE
  5
62895
  8
U1
 10
18005.25012399759
 20
11717.74023912564
 30
0.0
 11
18125.250524797972
 21
11717.74023912564
 31
0.0
  0
LINE
  5
62896
  8
KISO_U
 10
17651.250097945529
 20
11489.76971327219
 30
0.0
 11
18005.250123997539
 21
11843.7697393242
 31
0.0
  0
LINE
  5
62897
  8
KISO_U
 10
17651.250097945529
 20
11788.75019590687
 30
0.0
 11
18005.25012399759
 21
12142.750221958881
 31
0.0
  0
LINE
  5
62898
  8
HIKIDASHI
 10
17809.186436048269
 20
11493.870930423491
 30
0.0
 11
18191.623960732632
 21
11873.51114907497
 31
0.0
  0
LINE
  5
62899
  8
HIKIDASHI
 10
18191.623960732632
 20
11873.51114907497
 30
0.0
 11
18594.58076472094
 21
11873.51114907497
 31
0.0
  0
LINE
  5
6289A
  8
HATCH
 10
18619.540193145069
 20
12437.74023912564
 30
0.0
 11
18538.711155458499
 21
12237.74023912562
 31
0.0
  0
LINE
  5
6289B
  8
HATCH
 10
18476.683050287909
 20
12437.74023912564
 30
0.0
 11
18395.854012601339
 21
12237.74023912562
 31
0.0
  0
LINE
  5
6289C
  8
HATCH
 10
18333.825907430761
 20
12437.74023912564
 30
0.0
 11
18252.996869744238
 21
12237.74023912562
 31
0.0
  0
LINE
  5
6289D
  8
HATCH
 10
18190.968764573601
 20
12437.74023912564
 30
0.0
 11
18110.139726887079
 21
12237.74023912562
 31
0.0
  0
LINE
  5
6289E
  8
U1
 10
18005.250123997539
 20
12837.740239125649
 30
0.0
 11
18005.250123997539
 21
12237.74023912564
 31
0.0
  0
LINE
  5
6289F
  8
KISO_U
 10
17651.250097945529
 20
12268.75019590685
 30
0.0
 11
18005.25012399759
 21
12622.750221958881
 31
0.0
  0
LINE
  5
628A0
  8
HATCH
 10
18762.397336002228
 20
12437.74023912564
 30
0.0
 11
18681.568298315658
 21
12237.74023912562
 31
0.0
  0
LINE
  5
628A1
  8
U3
 10
17053.996336240409
 20
12371.5636156165
 30
0.0
 11
17120.172959749551
 21
12437.74023912564
 31
0.0
  0
LINE
  5
628A2
  8
HIKIDASHI
 10
17522.028600320598
 20
12523.257209061931
 30
0.0
 11
17220.596633393521
 21
12943.734078555421
 31
0.0
  0
TEXT
  5
628A3
  8
HIKIDASHI
 10
16435.013659085871
 20
13050.40074522211
 30
0.0
 40
160.0
  1
%%c
 41
0.6666666666666666
  7
00
  0
TEXT
  5
628A4
  8
HIKIDASHI
 10
16557.179794612832
 20
13023.734078555421
 30
0.0
 40
160.0
  1
9
 41
0.6666666666666666
  7
00
  0
LINE
  5
628A5
  8
SUNPOU
 10
16625.793838760961
 20
12437.74023912564
 30
0.0
 11
16745.733988926018
 21
12645.482673078919
 31
0.0
  0
LINE
  5
628A6
  8
U3
 10
16717.996336240409
 20
12371.5636156165
 30
0.0
 11
16784.172959749561
 21
12437.74023912564
 31
0.0
  0
LINE
  5
628A7
  8
U3
 10
16483.819712731311
 20
12371.5636156165
 30
0.0
 11
16549.996336240409
 21
12437.74023912564
 31
0.0
  0
LINE
  5
628A8
  8
SUNPOU
 10
16745.733988926018
 20
12645.482673078919
 30
0.0
 11
16505.853688595958
 21
12645.482673078919
 31
0.0
  0
LINE
  5
628A9
  8
SUNPOU
 10
16505.853688595958
 20
12645.482673078919
 30
0.0
 11
16625.793838760961
 21
12437.74023912564
 31
0.0
  0
TEXT
  5
628AA
  8
SUNPOU
 10
16511.202895370221
 20
12730.35454096709
 30
0.0
 40
160.00016032016029
  1
G.L
 41
0.6700000000000002
  7
00
  0
LINE
  5
628AB
  8
HIKIDASHI
 10
16382.0747713774
 20
12943.734078555421
 30
0.0
 11
17220.596633393521
 21
12943.734078555421
 31
0.0
  0
LINE
  5
628AC
  8
U3
 10
17285.250123997539
 20
12437.74023912564
 30
0.0
 11
16444.434153892191
 21
12437.74023912564
 31
0.0
  0
TEXT
  5
628AD
  8
HIKIDASHI
 10
16719.090323752978
 20
13023.734078555421
 30
0.0
 40
160.0
  1
@150
 41
0.6666666666666666
  7
00
  0
LINE
  5
628AE
  8
U1
 10
17165.249723197161
 20
11717.74023912564
 30
0.0
 11
17285.250123997539
 21
11717.74023912564
 31
0.0
  0
LINE
  5
628B0
  8
SUNPOU
 10
17085.249723197161
 20
11717.74023912564
 30
0.0
 11
16511.14823248683
 21
11717.74023912564
 31
0.0
  0
LINE
  5
628B1
  8
U3
 10
17104.908024485831
 20
12320.651927371069
 30
0.0
 11
17221.996336240409
 21
12437.74023912564
 31
0.0
  0
LINE
  5
628B2
  8
U3
 10
16768.908024485831
 20
12320.651927371069
 30
0.0
 11
16885.996336240409
 21
12437.74023912564
 31
0.0
  0
LINE
  5
628B3
  8
U3
 10
16819.81971273126
 20
12269.740239125649
 30
0.0
 11
16987.81971273126
 21
12437.74023912564
 31
0.0
  0
LINE
  5
628B4
  8
U3
 10
16885.996336240409
 20
12335.916862634769
 30
0.0
 11
16952.172959749561
 21
12269.740239125649
 31
0.0
  0
LINE
  5
628B5
  8
U3
 10
16936.908024485831
 20
12386.828550880189
 30
0.0
 11
17053.996336240409
 21
12269.740239125649
 31
0.0
  0
LINE
  5
628B6
  8
U3
 10
16987.81971273126
 20
12437.74023912564
 30
0.0
 11
17155.81971273126
 21
12269.740239125649
 31
0.0
  0
LINE
  5
628B7
  8
U3
 10
16483.81971273126
 20
12269.740239125649
 30
0.0
 11
16651.81971273126
 21
12437.74023912564
 31
0.0
  0
LINE
  5
628B8
  8
U3
 10
16549.996336240409
 20
12335.916862634769
 30
0.0
 11
16616.172959749561
 21
12269.740239125649
 31
0.0
  0
LINE
  5
628B9
  8
U3
 10
16600.908024485831
 20
12386.828550880189
 30
0.0
 11
16717.996336240409
 21
12269.740239125649
 31
0.0
  0
LINE
  5
628BA
  8
U3
 10
16651.81971273126
 20
12437.74023912564
 30
0.0
 11
16819.81971273126
 21
12269.740239125649
 31
0.0
  0
LINE
  5
628BB
  8
KISO_U
 10
17285.250123997539
 20
12382.75022195891
 30
0.0
 11
17615.250061873488
 21
12712.75015983483
 31
0.0
  0
LINE
  5
628BC
  8
KISO_U
 10
17285.250123997539
 20
12473.259980641569
 30
0.0
 11
17615.250061873488
 21
12803.259918517489
 31
0.0
  0
LINE
  5
628BD
  8
KISO_U
 10
17285.250123997539
 20
12563.76973932422
 30
0.0
 11
17615.250061873488
 21
12893.76967720012
 31
0.0
  0
LINE
  5
628BE
  8
KISO_U
 10
17165.249723197161
 20
11483.76933852382
 30
0.0
 11
17615.250061873488
 21
11933.769677200151
 31
0.0
  0
LINE
  5
628BF
  8
KISO_U
 10
17285.250123997539
 20
12083.769739324231
 30
0.0
 11
17615.250061873488
 21
12413.769677200151
 31
0.0
  0
LINE
  5
628C0
  8
KISO_U
 10
17285.250123997539
 20
11902.750221958881
 30
0.0
 11
17615.250061873488
 21
12232.75015983483
 31
0.0
  0
LINE
  5
628C1
  8
KISO_U
 10
17285.250123997539
 20
11993.259980641569
 30
0.0
 11
17615.250061873488
 21
12323.259918517489
 31
0.0
  0
LINE
  5
628C4
  8
U1
 10
18245.250645038061
 20
11117.740239125649
 30
0.0
 11
18245.250645038061
 21
10517.740239125649
 31
0.0
  0
LINE
  5
628C5
  8
KISO_U
 10
17940.2401411643
 20
11117.740239125649
 30
0.0
 11
18125.250524797972
 21
11302.75062275928
 31
0.0
  0
ARC
  5
628C6
  8
U1
 10
17677.250045841469
 20
11362.765081975611
 30
0.0
 40
61.999999999999993
 50
180.0
 51
270.0
  0
LINE
  5
628C7
  8
U1
 10
17703.25009794554
 20
11388.765081975611
 30
0.0
 11
17703.25009794554
 21
11362.765081975611
 31
0.0
  0
LINE
  5
628C8
  8
U1
 10
17739.250097945529
 20
11388.765081975611
 30
0.0
 11
17739.250097945529
 21
11362.765081975611
 31
0.0
  0
LINE
  5
628C9
  8
U1
 10
17739.250097945529
 20
11388.765081975611
 30
0.0
 11
17703.25009794554
 21
11388.765081975611
 31
0.0
  0
ARC
  5
628CA
  8
U1
 10
17677.250045841469
 20
11362.765081975611
 30
0.0
 40
26.0
 50
180.0
 51
270.0
  0
ARC
  5
628CB
  8
U1
 10
17677.250097945529
 20
11362.765081975611
 30
0.0
 40
26.0
 50
270.0
 51
0.0
  0
ARC
  5
628CC
  8
U1
 10
17677.250097945529
 20
11362.765081975611
 30
0.0
 40
61.999999999999993
 50
270.0
 51
0.0
  0
CIRCLE
  5
628CD
  8
U1
 10
17677.250097945529
 20
11362.765081975611
 30
0.0
 40
26.0
  0
LINE
  5
628CE
  8
KISO_U
 10
17849.730382481681
 20
11117.740239125649
 30
0.0
 11
18125.250524797972
 21
11393.260381441971
 31
0.0
  0
LINE
  5
628D2
  8
KISO_U
 10
17956.081600750771
 20
10917.740239125649
 30
0.0
 11
18156.081600750771
 21
11117.740239125649
 31
0.0
  0
LINE
  5
628D3
  8
KISO_U
 10
18046.593600750752
 20
10917.740239125649
 30
0.0
 11
18245.250645038061
 21
11116.397283412951
 31
0.0
  0
LINE
  5
628D4
  8
HATCH
 10
18245.250645038061
 20
10670.06063257984
 30
0.0
 11
18183.69109092341
 21
10517.740239125649
 31
0.0
  0
LINE
  5
628D5
  8
HATCH
 10
18245.250645038119
 20
10552.054263542001
 30
0.0
 11
18217.196700184519
 21
10600.64512138112
 31
0.0
  0
LINE
  5
628D7
  8
SUNPOU
 10
18125.250524797972
 20
10437.740239125649
 30
0.0
 11
18125.250524797972
 21
10037.73983832524
 31
0.0
  0
TEXT
  5
628D8
  8
SUNPOU
 10
17889.928734662852
 20
9639.988904098951
 30
0.0
 40
240.0
  1
断 面
  7
01
  0
LINE
  5
628D9
  8
KISO_U
 10
17045.24960295701
 20
10966.908241331919
 30
0.0
 11
17196.08160075076
 21
11117.740239125649
 31
0.0
  0
LINE
  5
628DB
  8
HATCH
 10
17063.97783169863
 20
10917.739998645409
 30
0.0
 11
17111.842987785902
 21
10834.83511638993
 31
0.0
  0
LINE
  5
628DC
  8
HATCH
 10
17145.348694235989
 20
10917.740239125649
 30
0.0
 11
17045.24960295701
 21
10670.059222144861
 31
0.0
  0
LINE
  5
628DE
  8
KISO_U
 10
17086.593600750752
 20
10917.740239125649
 30
0.0
 11
17286.593600750752
 21
11117.740239125649
 31
0.0
  0
LINE
  5
628DF
  8
U1
 10
17045.24960295701
 20
10517.740239125649
 30
0.0
 11
17045.24960295701
 21
11117.740239125649
 31
0.0
  0
LINE
  5
628E0
  8
SUNPOU
 10
15951.148232486819
 20
10957.740239125649
 30
0.0
 11
15951.148232486819
 21
10997.740239125649
 31
0.0
  0
LINE
  5
628E2
  8
SUNPOU
 10
15951.148232486819
 20
10877.740239125649
 30
0.0
 11
15951.148232486819
 21
10837.740239125649
 31
0.0
  0
LINE
  5
628E3
  8
SUNPOU
 10
15951.148232486819
 20
10917.74023912562
 30
0.0
 11
15951.148232486819
 21
10517.740239125649
 31
0.0
  0
LINE
  5
628E4
  8
SUNPOU
 10
15951.148232486819
 20
10917.74023912562
 30
0.0
 11
15951.148232486819
 21
11117.740239125649
 31
0.0
  0
LINE
  5
628E5
  8
SUNPOU
 10
16965.24960295701
 20
11117.740239125649
 30
0.0
 11
16511.14823248683
 21
11117.740239125649
 31
0.0
  0
LINE
  5
628E7
  8
SUNPOU
 10
17165.249723197161
 20
10437.740239125649
 30
0.0
 11
17165.249723197161
 21
10037.73983832524
 31
0.0
  0
TEXT
  5
628E8
  8
SUNPOU
 10
16839.810368627572
 20
9639.988904098951
 30
0.0
 40
240.0
  1
A  ~  A'
 41
0.6700000000000002
  7
00
  0
LINE
  5
628E9
  8
SUNPOU
 10
17205.249723197161
 20
10117.73983832524
 30
0.0
 11
18085.250524797972
 21
10117.73983832524
 31
0.0
  0
LINE
  5
628EA
  8
U1
 10
18245.250645038061
 20
10517.740239125649
 30
0.0
 11
17045.24960295701
 21
10517.740239125649
 31
0.0
  0
LINE
  5
628EB
  8
U1
 10
17045.24960295701
 20
11117.740239125649
 30
0.0
 11
18245.250645038061
 21
11117.740239125649
 31
0.0
  0
LINE
  5
628EC
  8
U1
 10
17045.24960295701
 20
10917.740239125649
 30
0.0
 11
18245.250645038061
 21
10917.740239125649
 31
0.0
  0
LINE
  5
628EE
  8
KISO_U
 10
17476.081600750771
 20
10917.740239125649
 30
0.0
 11
17676.08160075076
 21
11117.740239125649
 31
0.0
  0
LINE
  5
628EF
  8
KISO_U
 10
17566.593600750752
 20
10917.740239125649
 30
0.0
 11
17766.593600750752
 21
11117.740239125649
 31
0.0
  0
LINE
  5
628F0
  8
KISO_U
 10
17460.240141164311
 20
11117.740239125649
 30
0.0
 11
17649.71487647303
 21
11307.214974434321
 31
0.0
  0
LINE
  5
628F1
  8
KISO_U
 10
17369.730382481619
 20
11117.740239125649
 30
0.0
 11
17615.25006187355
 21
11363.25991851752
 31
0.0
  0
LINE
  5
628F2
  8
U1
 10
18125.250524797972
 20
11717.74023912564
 30
0.0
 11
18125.250524797972
 21
11117.740239125649
 31
0.0
  0
LINE
  5
628F4
  8
KISO_U
 10
17651.250097945529
 20
11399.25995458953
 30
0.0
 11
18005.250123997539
 21
11753.25998064154
 31
0.0
  0
LINE
  5
628F5
  8
KISO_U
 10
17165.249723197161
 20
11393.25957984116
 30
0.0
 11
17615.250061873488
 21
11843.259918517489
 31
0.0
  0
LINE
  5
628F6
  8
KISO_U
 10
17165.249723197161
 20
11302.74982115847
 30
0.0
 11
17615.250061873488
 21
11752.75015983483
 31
0.0
  0
LINE
  5
628F8
  8
SUNPOU
 10
16591.14823248683
 20
11157.740239125649
 30
0.0
 11
16591.14823248683
 21
11677.74023912564
 31
0.0
  0
LINE
  5
628F9
  8
U1
 10
17165.249723197161
 20
11717.74023912564
 30
0.0
 11
17165.249723197161
 21
11117.740239125649
 31
0.0
  0
LINE
  5
628FA
  8
KISO_U
 10
17279.220623798989
 20
11117.740239125649
 30
0.0
 11
17615.25006187355
 21
11453.76967720018
 31
0.0
  0
LINE
  5
628FB
  8
KISO_U
 10
17731.264984014299
 20
11388.765081975611
 30
0.0
 11
18060.240141164311
 21
11717.74023912564
 31
0.0
  0
LINE
  5
628FC
  8
KISO_U
 10
17759.220623798989
 20
11117.740239125649
 30
0.0
 11
18125.250524797972
 21
11483.770140124599
 31
0.0
  0
LINE
  5
628FD
  8
U1
 10
17651.250097945529
 20
11362.71302999995
 30
0.0
 11
17651.250097945529
 21
13038.76373929428
 31
0.0
  0
LINE
  5
628FE
  8
U1
 10
17615.25006187355
 20
11362.720495309009
 30
0.0
 11
17615.250061873488
 21
13038.76373929428
 31
0.0
  0
LINE
  5
628FF
  8
SUNPOU
 10
15951.148232486819
 20
13237.74023912562
 30
0.0
 11
15951.148232486819
 21
11157.740239125649
 31
0.0
  0
LINE
  5
62903
  8
SUNPOU
 10
16965.24960295701
 20
11117.740239125649
 30
0.0
 11
15871.148232486819
 21
11117.740239125649
 31
0.0
  0
LINE
  5
62904
  8
SUNPOU
 10
16965.24960295701
 20
10517.740239125649
 30
0.0
 11
15871.148232486819
 21
10517.740239125649
 31
0.0
  0
LINE
  5
62905
  8
SUNPOU
 10
16965.249602957068
 20
10917.740239125649
 30
0.0
 11
15871.148232486819
 21
10917.74023912562
 31
0.0
  0
LINE
  5
62906
  8
SUNPOU
 10
16965.24960295701
 20
10917.740239125649
 30
0.0
 11
15871.148232486819
 21
10917.74023912562
 31
0.0
  0
LINE
  5
6290C
  8
KISO_U
 10
17791.2501500496
 20
13069.76976537623
 30
0.0
 11
17999.22062379905
 21
13277.74023912562
 31
0.0
  0
LINE
  5
6290D
  8
HIKIDASHI
 10
17545.313761618188
 20
13169.86960122766
 30
0.0
 11
17162.876235158441
 21
13549.50982164155
 31
0.0
  0
LINE
  5
6290E
  8
KISO_U
 10
17285.250123997539
 20
13043.76973932422
 30
0.0
 11
17519.220623798989
 21
13277.74023912562
 31
0.0
  0
LINE
  5
62910
  8
U1
 10
18005.25012399759
 20
11717.74023912564
 30
0.0
 11
18005.250123997539
 21
13277.74023912562
 31
0.0
  0
LINE
  5
62911
  8
U1
 10
17285.250123997539
 20
11717.74023912564
 30
0.0
 11
17285.250123997539
 21
13277.74023912562
 31
0.0
  0
LINE
  5
62912
  8
KISO_U
 10
17285.250123997539
 20
12862.750221958881
 30
0.0
 11
17700.240141164311
 21
13277.74023912562
 31
0.0
  0
LINE
  5
62913
  8
KISO_U
 10
17285.250123997539
 20
12953.25998064156
 30
0.0
 11
17609.730382481681
 21
13277.74023912562
 31
0.0
  0
LINE
  5
62914
  8
U1
 10
17739.250097945529
 20
12649.73944954885
 30
0.0
 11
17739.250097945529
 21
13437.740239125649
 31
0.0
  0
LINE
  5
62915
  8
U1
 10
17791.2501500496
 20
13437.740239125649
 30
0.0
 11
17791.2501500496
 21
12637.73943752484
 31
0.0
  0
LINE
  5
62916
  8
KISO_U
 10
18500.240541964678
 20
12437.74023912564
 30
0.0
 11
18900.24054196474
 21
12837.740239125649
 31
0.0
  0
LINE
  5
62917
  8
U1
 10
18005.250123997539
 20
12237.74023912562
 30
0.0
 11
19293.609904982412
 21
12237.74023912562
 31
0.0
  0
LINE
  5
62918
  8
U1
 10
18005.250123997539
 20
12437.74023912564
 30
0.0
 11
19293.609904982412
 21
12437.74023912564
 31
0.0
  0
LINE
  5
62919
  8
U1
 10
18005.250123997539
 20
12837.740239125649
 30
0.0
 11
19293.609904982412
 21
12837.740239125649
 31
0.0
  0
LINE
  5
6291A
  8
HATCH
 10
18905.25447885933
 20
12437.74023912564
 30
0.0
 11
18824.425441172822
 21
12237.74023912562
 31
0.0
  0
LINE
  5
6291B
  8
KISO_U
 10
18889.730783282052
 20
12437.74023912564
 30
0.0
 11
19289.730783282052
 21
12837.740239125649
 31
0.0
  0
LINE
  5
6291C
  8
KISO_U
 10
18799.221024599359
 20
12437.74023912564
 30
0.0
 11
19199.221024599421
 21
12837.740239125649
 31
0.0
  0
LINE
  5
6291D
  8
SUNPOU
 10
19085.1910757634
 20
13045.482673078919
 30
0.0
 11
18845.31077543335
 21
13045.482673078919
 31
0.0
  0
TEXT
  5
6291E
  8
SUNPOU
 10
18850.65998220761
 20
13090.35454096709
 30
0.0
 40
160.00016032016029
  1
F.L
 41
0.6700000000000002
  7
00
  0
LINE
  5
6291F
  8
SUNPOU
 10
18845.31077543335
 20
13045.482673078919
 30
0.0
 11
18965.250925598339
 21
12837.740239125649
 31
0.0
  0
TEXT
  5
62921
  8
SUNPOU
 10
18610.84364531772
 20
8935.8956447721393
 30
0.0
 40
147.69230769230771
  1
/
 41
0.6700000000000002
  7
00
 11
18610.84364531772
 21
8916.2033370798308
 31
0.0
 73
     1
  0
TEXT
  5
62922
  8
SUNPOU
 10
18738.74253122649
 20
8898.9725678490486
 30
0.0
 40
147.69230769230771
  1
20
 41
0.6700000000000002
  7
00
 11
18738.74253122649
 21
8879.2802601567382
 31
0.0
 73
     1
  0
TEXT
  5
62923
  8
SUNPOU
 10
18514.031390687
 20
8972.8187216952028
 30
0.0
 40
147.69230769230771
  1
1
 41
0.6700000000000002
  7
00
 11
18514.031390687
 21
8953.1264140028925
 31
0.0
 73
     1
  0
TEXT
  5
62924
  8
SUNPOU
 10
17874.625986980809
 20
8940.8187216952156
 30
0.0
 40
184.61538461538461
  1
（ S = 　　  ）
 41
0.6700000000000002
  7
00
 11
17874.625986980809
 21
8916.2033370798308
 31
0.0
 73
     1
  0
TEXT
  5
62925
  8
SUNPOU
 10
16150.004983198491
 20
8916.2033370798308
 30
0.0
 40
240.0
  1
布基礎断面図
  7
01
 72
     4
 11
16974.004983198491
 21
9036.2033370798308
 31
0.0
  0
TEXT
  5
62927
  8
HIKIDASHI
 10
18353.318985670368
 20
14397.74132128671
 30
0.0
 40
160.0001603201604
  1
アンカーボルト（別途）
  7
01
  0
TEXT
  5
62928
  8
HIKIDASHI
 10
18353.318985670368
 20
14077.74132128671
 30
0.0
 40
159.20398009950239
  1
W ／
 41
0.6700000000000002
  7
00
  0
TEXT
  5
62929
  8
HIKIDASHI
 10
18485.942649107219
 20
14124.727293978091
 30
0.0
 40
119.4029850746269
  1
1
 41
0.6700000000000002
  7
00
  0
TEXT
  5
6292A
  8
HIKIDASHI
 10
18914.142387600408
 20
14077.36979026432
 30
0.0
 40
159.20398009950239
  1
210
 41
0.6700000000000002
  7
00
  0
TEXT
  5
6292B
  8
HIKIDASHI
 10
18769.901713550411
 20
14097.641818799129
 30
0.0
 40
159.20398009950239
  1
x
 41
0.6700000000000002
  7
00
  0
TEXT
  5
6292C
  8
HIKIDASHI
 10
18642.195158545299
 20
14076.680973923731
 30
0.0
 40
119.4029850746269
  1
2
 41
0.6700000000000002
  7
00
  0
LINE
  5
6292D
  8
HIKIDASHI
 10
18273.318985670368
 20
14317.74132128671
 30
0.0
 11
20417.320973640341
 21
14317.74132128671
 31
0.0
  0
TEXT
  5
6292E
  8
HIKIDASHI
 10
18696.200350065261
 20
15500.688256134101
 30
0.0
 40
160.0001603201604
  1
アンカーボルトの止結は、
  7
01
  0
TEXT
  5
6292F
  8
HIKIDASHI
 10
18696.200350065261
 20
15260.688095813941
 30
0.0
 40
160.0001603201604
  1
ダブルナット等の戻り止め
  7
01
  0
TEXT
  5
62930
  8
HIKIDASHI
 10
18696.200350065261
 20
15020.687935493799
 30
0.0
 40
160.0001603201604
  1
を施す事。
  7
01
  0
LINE
  5
62931
  8
HIKIDASHI
 10
21026.869271902149
 20
15740.68841645427
 30
0.0
 11
18616.200350065261
 21
15740.68841645427
 31
0.0
  0
LINE
  5
62932
  8
HIKIDASHI
 10
18616.200350065261
 20
15740.68841645427
 30
0.0
 11
18616.200350065261
 21
14940.687935493799
 31
0.0
  0
LINE
  5
62933
  8
HIKIDASHI
 10
18616.200350065261
 20
14940.687935493799
 30
0.0
 11
21026.869271902149
 21
14940.687935493799
 31
0.0
  0
LINE
  5
62934
  8
HIKIDASHI
 10
21026.869271902149
 20
14940.687935493799
 30
0.0
 11
21026.869271902149
 21
15740.68841645427
 31
0.0
  0
TEXT
  5
629E0
  8
SUNPOU
 10
16969.848949329109
 20
6802.6089200330534
 30
0.0
 40
160.0
  1
間仕切りが付く場合は、間仕切り部分に布基礎が必要です。
  7
01
  0
TEXT
  5
629E1
  8
SUNPOU
 10
16406.578433236438
 20
6802.6089200330534
 30
0.0
 40
160.0
  1
注　）
  7
01
  0
TEXT
  5
629E2
  8
SUNPOU
 10
16603.260958059091
 20
6802.6089200330534
 30
0.0
 40
160.0
  1
3
 41
0.6700000000000002
  7
01
  0
TEXT
  5
629E3
  8
SUNPOU
 10
16603.260958059091
 20
7076.8946343187708
 30
0.0
 40
160.0
  1
2
 41
0.6700000000000002
  7
01
  0
TEXT
  5
629E4
  8
SUNPOU
 10
16406.578433236438
 20
7076.8946343187708
 30
0.0
 40
160.0
  1
注　）
  7
01
  0
TEXT
  5
629E5
  8
SUNPOU
 10
16406.578433236438
 20
7625.4660628901993
 30
0.0
 40
160.0
  1
注　）
  7
01
  0
TEXT
  5
629E6
  8
SUNPOU
 10
16603.260958059091
 20
7625.4660628901993
 30
0.0
 40
160.0
  1
1
 41
0.6700000000000002
  7
01
  0
TEXT
  5
629E7
  8
SUNPOU
 10
16969.84894932912
 20
7351.180348604481
 30
0.0
 40
160.0
  1
あわせて設計して下さい。
  7
01
  0
TEXT
  5
629E8
  8
SUNPOU
 10
16969.84894932912
 20
7076.8946343187708
 30
0.0
 40
160.0
  1
その他現地の実情にあわせて設計して下さい。
  7
01
  0
TEXT
  5
629E9
  8
SUNPOU
 10
16969.84894932912
 20
7625.4660628901993
 30
0.0
 40
160.0
  1
寒冷地の場合、凍結深度等を考慮し、実情に
  7
01
  0
TEXT
  5
629EA
  8
SUNPOU
 10
16071.147840341349
 20
8636.2033370798326
 30
0.0
 40
160.0
  1
<下記条件での参考図>
  7
01
 72
     4
 11
17118.004983198491
 21
8716.2033370798308
 31
0.0
  0
TEXT
  5
629EB
  8
SUNPOU
 10
21420.412171568471
 20
8388.9756462558871
 30
0.0
 40
82.285142861111055
  1
2
 41
0.6700000000000002
  7
00
  0
TEXT
  5
629EC
  8
SUNPOU
 10
20879.14198129041
 20
8299.7517771759085
 30
0.0
 40
159.9988888966048
  1
N/mm
 41
0.6700000000000002
  7
01
  0
TEXT
  5
629ED
  8
SUNPOU
 10
20637.65495411538
 20
8299.7517771759085
 30
0.0
 40
159.9988888966048
  1
18
 41
0.6700000000000002
  7
01
  0
LINE
  5
629EE
  8
SUNPOU
 10
19568.710845288631
 20
8025.4660628901993
 30
0.0
 11
19568.710845288631
 21
8173.8969316880248
 31
0.0
  0
LINE
  5
629EF
  8
SUNPOU
 10
19538.710845288631
 20
8025.4660628901993
 30
0.0
 11
19538.710845288631
 21
8173.8969316880248
 31
0.0
  0
LINE
  5
629F0
  8
SUNPOU
 10
19508.710845288631
 20
8025.4660628901993
 30
0.0
 11
19508.710845288631
 21
8173.8969316880248
 31
0.0
  0
LINE
  5
629F1
  8
SUNPOU
 10
19488.710845288631
 20
8025.466062890192
 30
0.0
 11
19588.710845288631
 21
8025.466062890192
 31
0.0
  0
LINE
  5
629F2
  8
SUNPOU
 10
19488.710845288631
 20
8173.8969316880248
 30
0.0
 11
19588.710845288631
 21
8173.8969316880248
 31
0.0
  0
ARC
  5
629F3
  8
SUNPOU
 10
21660.08354132243
 20
8235.3738632947206
 30
0.0
 40
400.0
 50
328.34727252827611
 51
31.652727471723871
  0
TEXT
  5
629F4
  8
SUNPOU
 10
17685.900988173631
 20
8388.9756462558871
 30
0.0
 40
82.285142861111055
  1
2
 41
0.6700000000000002
  7
00
  0
TEXT
  5
629F5
  8
SUNPOU
 10
17210.096265100939
 20
8299.7517771759085
 30
0.0
 40
127.9991111172839
  1
K
 41
0.6700000000000002
  7
01
  0
TEXT
  5
629F6
  8
SUNPOU
 10
16968.609237925921
 20
8299.7517771759085
 30
0.0
 40
159.9988888966048
  1
50  N/m
 41
0.6700000000000002
  7
01
  0
ARC
  5
629F7
  8
SUNPOU
 10
16575.186778338579
 20
8235.3738632947206
 30
0.0
 40
400.0
 50
148.34727252827611
 51
211.65272747172389
  0
TEXT
  5
629F8
  8
SUNPOU
 10
16303.260958059091
 20
8025.4660628901993
 30
0.0
 40
159.9988888966048
  1
基準風速   　　 , 地表面粗度区分
  7
01
  0
TEXT
  5
629F9
  8
SUNPOU
 10
16303.260958059091
 20
8299.7517771759085
 30
0.0
 40
159.9988888966048
  1
地耐力   　　　 以上,コンクリート設計基準強度   　　　 以上
  7
01
  0
TEXT
  5
629FA
  8
SUNPOU
 10
17163.284831241632
 20
8025.4660628901993
 30
0.0
 40
159.9988888966048
  1
34 m/s
 41
0.6700000000000002
  7
01
  0
LINE
  5
63327
  8
SUNPOU
 10
9667.3919100666099
 20
18134.580924221889
 30
0.0
 11
11056.545636438081
 21
18134.580924221889
 31
0.0
  0
TEXT
  5
6332B
  8
SUNPOU
 10
10496.545636438081
 20
16570.704733745679
 30
0.0
 40
160.0
  1
2750
 50
90.0
 41
0.6700000000000002
  7
00
  0
LINE
  5
6332C
  8
SUNPOU
 10
9667.3919100666099
 20
15384.580924221889
 30
0.0
 11
10696.545636438081
 21
15384.580924221889
 31
0.0
  0
TEXT
  5
6332D
  8
SUNPOU
 10
10496.545636438081
 20
13820.70473374571
 30
0.0
 40
160.0
  1
2750
 50
90.0
 41
0.6700000000000002
  7
00
  0
TEXT
  5
6332E
  8
SUNPOU
 10
10896.545636438081
 20
15195.70473374571
 30
0.0
 40
160.0
  1
5500
 50
90.0
 41
0.6700000000000002
  7
00
  0
LINE
  5
63333
  8
SUNPOU
 10
9667.3919100666099
 20
12634.580924221889
 30
0.0
 11
11056.545636438081
 21
12634.580924221889
 31
0.0
  0
LINE
  5
63334
  8
SUNPOU
 10
10576.545636438081
 20
15344.580924221889
 30
0.0
 11
10576.545636438081
 21
12674.580924221889
 31
0.0
  0
LINE
  5
63336
  8
SUNPOU
 10
10576.545636438081
 20
18094.580924221889
 30
0.0
 11
10576.545636438081
 21
15424.580924221889
 31
0.0
  0
LINE
  5
63337
  8
SUNPOU
 10
10976.545636438081
 20
18094.580924221889
 30
0.0
 11
10976.545636438081
 21
12674.580924221889
 31
0.0
  0
TEXT
  5
63338
  8
HIKIDASHI
 10
2648.6468971626532
 20
20448.997634699768
 30
0.0
 40
270.0
  1
布基礎＋独立基礎
  7
01
  0
LINE
  5
6333C
  8
U1
 10
9300.3919100666171
 20
12747.580924221889
 30
0.0
 11
9390.3919100666153
 21
12747.580924221889
 31
0.0
  0
LINE
  5
6333D
  8
U1
 10
9390.3919100666153
 20
12692.580924221889
 30
0.0
 11
9300.3919100666171
 21
12692.580924221889
 31
0.0
  0
LINE
  5
6333E
  8
U1
 10
9300.3919100666171
 20
12692.580924221889
 30
0.0
 11
9300.3919100666171
 21
12747.580924221889
 31
0.0
  0
LINE
  5
6333F
  8
U1
 10
9390.3919100666153
 20
12747.580924221889
 30
0.0
 11
9390.3919100666153
 21
12692.580924221889
 31
0.0
  0
LINE
  5
63340
  8
SUNPOU
 10
9345.3919100666153
 20
12394.580924221889
 30
0.0
 11
9345.3919100666153
 21
12267.91425755522
 31
0.0
  0
LINE
  5
63341
  8
1PL-M1
 10
9345.3919100666153
 20
12474.580924221889
 30
0.0
 11
9345.3919100666153
 21
12907.580924221889
 31
0.0
  0
TEXT
  5
63342
  8
SUNPOU
 10
9712.1538148285181
 20
11654.5809242219
 30
0.0
 40
160.0
  1
222
 41
0.6666666666666666
  7
00
  0
LINE
  5
63344
  8
SUNPOU
 10
9597.3919100666171
 20
11574.580924221889
 30
0.0
 11
9627.3919100666171
 21
11574.580924221889
 31
0.0
  0
LINE
  5
63345
  8
SUNPOU
 10
9607.3919100666171
 20
11574.580924221889
 30
0.0
 11
10081.67762435232
 21
11574.580924221889
 31
0.0
  0
LINE
  5
63346
  8
SUNPOU
 10
9305.3919100666171
 20
11574.580924221889
 30
0.0
 11
9265.3919100666153
 21
11574.580924221889
 31
0.0
  0
LINE
  5
63348
  8
SUNPOU
 10
9315.3919100666171
 20
11574.580924221889
 30
0.0
 11
9285.3919100666171
 21
11574.580924221889
 31
0.0
  0
LINE
  5
6334A
  8
SUNPOU
 10
9315.3919100666171
 20
11574.580924221889
 30
0.0
 11
9285.3919100666171
 21
11574.580924221889
 31
0.0
  0
LINE
  5
6334B
  8
SUNPOU
 10
9345.3919100666153
 20
11894.5809242219
 30
0.0
 11
9345.3919100666153
 21
11494.580924221889
 31
0.0
  0
LINE
  5
6334C
  8
SUNPOU
 10
6797.3919100666162
 20
11574.580924221889
 30
0.0
 11
6827.391910066618
 21
11574.580924221889
 31
0.0
  0
LINE
  5
6334D
  8
SUNPOU
 10
6807.3919100666171
 20
11574.580924221889
 30
0.0
 11
9305.3919100666171
 21
11574.580924221889
 31
0.0
  0
TEXT
  5
6334E
  8
SUNPOU
 10
7853.2173068920174
 20
11654.5809242219
 30
0.0
 40
160.0
  1
2578
 41
0.6666666666666666
  7
00
  0
LINE
  5
6334F
  8
SUNPOU
 10
9345.3919100666153
 20
11574.580924221889
 30
0.0
 11
9567.3919100666153
 21
11574.580924221889
 31
0.0
  0
TEXT
  5
63350
  8
SUNPOU
 10
5178.5157195904249
 20
11654.5809242219
 30
0.0
 40
160.0
  1
2800
 41
0.6700000000000002
  7
00
  0
LINE
  5
63351
  8
SUNPOU
 10
6767.3919100666171
 20
12394.580924221889
 30
0.0
 11
6767.3919100666171
 21
11454.580924221889
 31
0.0
  0
LINE
  5
63352
  8
SUNPOU
 10
6767.3919100666171
 20
12394.580924221889
 30
0.0
 11
6767.3919100666171
 21
11494.580924221889
 31
0.0
  0
LINE
  5
63354
  8
SUNPOU
 10
4007.3919100666171
 20
11574.580924221889
 30
0.0
 11
6727.391910066618
 21
11574.580924221889
 31
0.0
  0
TEXT
  5
63357
  8
SUNPOU
 10
9490.8204814951878
 20
19718.904273277501
 30
0.0
 40
240.0
  1
3
 41
0.6700000000000002
  7
00
 72
     4
 11
9567.3919100666153
 21
19838.904273277491
 31
0.0
  0
LINE
  5
63358
  8
1PL-L1
 10
9607.3919100666171
 20
18197.0809242219
 30
0.0
 11
9527.3919100666171
 21
18197.0809242219
 31
0.0
  0
LINE
  5
6335A
  8
1PL-L1
 10
9567.3919100666153
 20
18032.0809242219
 30
0.0
 11
9567.3919100666153
 21
18237.080924221889
 31
0.0
  0
LINE
  5
6335C
  8
1PL-L1
 10
9607.3919100666171
 20
18072.0809242219
 30
0.0
 11
9527.3919100666171
 21
18072.0809242219
 31
0.0
  0
LINE
  5
6335D
  8
SUNPOU
 10
9567.3919100666153
 20
18317.080924221889
 30
0.0
 11
9567.3919100666153
 21
19638.904273277501
 31
0.0
  0
LINE
  5
63360
  8
1PL-L1
 10
6829.8919100666171
 20
18174.580924221889
 30
0.0
 11
6829.8919100666171
 21
18094.580924221889
 31
0.0
  0
CIRCLE
  5
63361
  8
SUNPOU
 10
9567.3919100666153
 20
19838.904273277491
 30
0.0
 40
200.0
  0
LINE
  5
63363
  8
1PL-L1
 10
6704.8919100666171
 20
18174.580924221889
 30
0.0
 11
6704.8919100666171
 21
18094.580924221889
 31
0.0
  0
LINE
  5
63365
  8
SUNPOU
 10
6767.3919100666171
 20
18327.080924221889
 30
0.0
 11
6767.3919100666171
 21
19638.904273277501
 31
0.0
  0
CIRCLE
  5
63366
  8
SUNPOU
 10
3967.391910066618
 20
19838.904273277491
 30
0.0
 40
200.0
  0
TEXT
  5
63367
  8
SUNPOU
 10
3902.3061957809032
 20
19718.904273277501
 30
0.0
 40
240.0
  1
1
 41
0.6700000000000002
  7
00
 72
     4
 11
3967.391910066618
 21
19838.904273277491
 31
0.0
  0
LINE
  5
63368
  8
1PL-L1
 10
4007.3919100666171
 20
18072.0809242219
 30
0.0
 11
3927.3919100666171
 21
18072.0809242219
 31
0.0
  0
LINE
  5
6336A
  8
1PL-L1
 10
3967.391910066618
 20
18032.0809242219
 30
0.0
 11
3967.391910066618
 21
18237.080924221889
 31
0.0
  0
LINE
  5
6336C
  8
1PL-L1
 10
4007.3919100666171
 20
18197.0809242219
 30
0.0
 11
3927.3919100666171
 21
18197.0809242219
 31
0.0
  0
LINE
  5
6336D
  8
SUNPOU
 10
3827.3919100666099
 20
18134.580924221889
 30
0.0
 11
2867.3919100666171
 21
18134.580924221889
 31
0.0
  0
TEXT
  5
63370
  8
SUNPOU
 10
2586.991910066617
 20
18014.580924221889
 30
0.0
 40
240.0
  1
C
 41
0.6700000000000002
  7
00
 72
     4
 11
2667.3919100666171
 21
18134.580924221889
 31
0.0
  0
CIRCLE
  5
63371
  8
SUNPOU
 10
2667.3919100666171
 20
18134.580924221889
 30
0.0
 40
200.0
  0
LINE
  5
63372
  8
SUNPOU
 10
3967.391910066618
 20
18317.080924221889
 30
0.0
 11
3967.391910066618
 21
19638.904273277501
 31
0.0
  0
LINE
  5
63375
  8
U1
 10
4027.3919100666171
 20
18074.580924221889
 30
0.0
 11
9507.3919100666171
 21
18074.580924221889
 31
0.0
  0
LINE
  5
63376
  8
U1
 10
3847.3919100666171
 20
18254.580924221889
 30
0.0
 11
9687.3919100666171
 21
18254.580924221889
 31
0.0
  0
TEXT
  5
63377
  8
SUNPOU
 10
6690.8204814951887
 20
19718.904273277501
 30
0.0
 40
240.0
  1
2
 41
0.6700000000000002
  7
00
 72
     4
 11
6767.3919100666171
 21
19838.904273277491
 31
0.0
  0
CIRCLE
  5
63378
  8
SUNPOU
 10
6767.3919100666171
 20
19838.904273277491
 30
0.0
 40
200.0
  0
LINE
  5
63379
  8
1PL-L1
 10
6869.8919100666171
 20
18134.580924221889
 30
0.0
 11
6664.891910066618
 21
18134.580924221889
 31
0.0
  0
LINE
  5
6337C
  8
1PL-L1
 10
9607.3919100666171
 20
15447.080924221889
 30
0.0
 11
9527.3919100666171
 21
15447.080924221889
 31
0.0
  0
LINE
  5
6337D
  8
1PL-L1
 10
9567.3919100666153
 20
15282.080924221889
 30
0.0
 11
9567.3919100666153
 21
15487.080924221889
 31
0.0
  0
LINE
  5
6337E
  8
1PL-L1
 10
9607.3919100666171
 20
15322.080924221889
 30
0.0
 11
9527.3919100666171
 21
15322.080924221889
 31
0.0
  0
LINE
  5
63380
  8
U1
 10
9687.3919100666099
 20
12514.580924221889
 30
0.0
 11
9507.3919100666171
 21
12514.580924221889
 31
0.0
  0
LINE
  5
63381
  8
1PL-L1
 10
9607.3919100666171
 20
12697.080924221889
 30
0.0
 11
9527.3919100666171
 21
12697.080924221889
 31
0.0
  0
LINE
  5
63383
  8
1PL-L1
 10
9567.3919100666153
 20
12532.0809242219
 30
0.0
 11
9567.3919100666153
 21
12737.080924221889
 31
0.0
  0
LINE
  5
63385
  8
1PL-L1
 10
9607.3919100666171
 20
12572.0809242219
 30
0.0
 11
9527.3919100666171
 21
12572.0809242219
 31
0.0
  0
LINE
  5
63387
  8
U1
 10
6812.3919100666171
 20
12747.580924221889
 30
0.0
 11
6812.3919100666171
 21
12692.580924221889
 31
0.0
  0
LINE
  5
6338A
  8
HIKIDASHI
 10
4207.3919100666171
 20
14649.580924221889
 30
0.0
 11
4207.3919100666171
 21
14409.580924221889
 31
0.0
  0
LINE
  5
6338C
  8
1PL-L1
 10
4007.3919100666171
 20
15447.080924221889
 30
0.0
 11
3927.3919100666171
 21
15447.080924221889
 31
0.0
  0
LINE
  5
6338E
  8
1PL-L1
 10
3967.391910066618
 20
15282.080924221889
 30
0.0
 11
3967.391910066618
 21
15487.080924221889
 31
0.0
  0
LINE
  5
63390
  8
1PL-L1
 10
4007.3919100666171
 20
15322.080924221889
 30
0.0
 11
3927.3919100666171
 21
15322.080924221889
 31
0.0
  0
TEXT
  5
63391
  8
HIKIDASHI
 10
3596.5101396501782
 20
14917.17002227732
 30
0.0
 40
160.0
  1
A
 41
0.6700000000000002
  7
00
  0
LINE
  5
63392
  8
SUNPOU
 10
3827.3919100666171
 20
15384.5809242219
 30
0.0
 11
2867.3919100666171
 21
15384.5809242219
 31
0.0
  0
LINE
  5
63393
  8
HIKIDASHI
 10
3647.3919100666171
 20
14649.580924221889
 30
0.0
 11
3647.3919100666171
 21
14409.580924221889
 31
0.0
  0
TEXT
  5
63395
  8
SUNPOU
 10
2583.1633386380458
 20
15264.580924221889
 30
0.0
 40
240.0
  1
B
 41
0.6700000000000002
  7
00
 72
     4
 11
2667.3919100666171
 21
15384.5809242219
 31
0.0
  0
CIRCLE
  5
63396
  8
SUNPOU
 10
2667.3919100666171
 20
15384.5809242219
 30
0.0
 40
200.0
  0
LINE
  5
63398
  8
HIKIDASHI
 10
4207.3919100666171
 20
14409.580924221889
 30
0.0
 11
3647.3919100666171
 21
14409.580924221889
 31
0.0
  0
TEXT
  5
63399
  8
HIKIDASHI
 10
4156.5101396501777
 20
14917.17002227732
 30
0.0
 40
160.0
  1
A'
 41
0.6700000000000002
  7
00
  0
LINE
  5
6339A
  8
U1
 10
6722.3919100666162
 20
12692.580924221889
 30
0.0
 11
6722.3919100666162
 21
12747.580924221889
 31
0.0
  0
LINE
  5
6339B
  8
1PL-M1
 10
6767.3919100666171
 20
12474.580924221889
 30
0.0
 11
6767.3919100666171
 21
12907.580924221889
 31
0.0
  0
LINE
  5
6339D
  8
1PL-L1
 10
4007.3919100666171
 20
12697.080924221889
 30
0.0
 11
3927.3919100666171
 21
12697.080924221889
 31
0.0
  0
LINE
  5
6339E
  8
1PL-L1
 10
3967.391910066618
 20
12532.0809242219
 30
0.0
 11
3967.391910066618
 21
12737.080924221889
 31
0.0
  0
LINE
  5
6339F
  8
1PL-L1
 10
4007.3919100666171
 20
12572.0809242219
 30
0.0
 11
3927.3919100666171
 21
12572.0809242219
 31
0.0
  0
LINE
  5
633A1
  8
U1
 10
3847.3919100666171
 20
12514.580924221889
 30
0.0
 11
4027.3919100666171
 21
12514.580924221889
 31
0.0
  0
LINE
  5
633A2
  8
SUNPOU
 10
3827.3919100666171
 20
12634.580924221889
 30
0.0
 11
2867.391910066624
 21
12634.580924221889
 31
0.0
  0
TEXT
  5
633A5
  8
SUNPOU
 10
2598.4776243523388
 20
12514.580924221889
 30
0.0
 40
240.0
  1
A
 41
0.6700000000000002
  7
00
 72
     4
 11
2667.3919100666249
 21
12634.580924221889
 31
0.0
  0
CIRCLE
  5
633A6
  8
SUNPOU
 10
2667.3919100666249
 20
12634.580924221889
 30
0.0
 40
200.0
  0
LINE
  5
633A8
  8
1PL-M1
 10
6619.4638696849288
 20
12634.580924221889
 30
0.0
 11
9507.3919100666171
 21
12634.580924221889
 31
0.0
  0
LINE
  5
633A9
  8
U1
 10
6812.3919100666171
 20
12692.580924221889
 30
0.0
 11
6722.3919100666162
 21
12692.580924221889
 31
0.0
  0
LINE
  5
633AA
  8
U1
 10
6722.3919100666162
 20
12747.580924221889
 30
0.0
 11
6812.3919100666171
 21
12747.580924221889
 31
0.0
  0
LINE
  5
633AC
  8
U1
 10
3847.3919100666171
 20
12514.580924221889
 30
0.0
 11
3847.3919100666171
 21
18254.580924221889
 31
0.0
  0
LINE
  5
633AD
  8
U1
 10
4027.3919100666171
 20
12514.580924221889
 30
0.0
 11
4027.3919100666171
 21
18074.580924221889
 31
0.0
  0
LINE
  5
633AE
  8
U1
 10
9507.3919100666171
 20
12514.580924221889
 30
0.0
 11
9507.3919100666171
 21
18074.580924221889
 31
0.0
  0
LINE
  5
633AF
  8
U1
 10
9687.3919100666099
 20
12514.580924221889
 30
0.0
 11
9687.3919100666171
 21
18254.580924221889
 31
0.0
  0
LINE
  5
633B1
  8
SUNPOU
 10
6829.8919100666171
 20
18134.580924221889
 30
0.0
 11
3967.391910066618
 21
12572.0809242219
 31
0.0
  0
LINE
  5
633B2
  8
SUNPOU
 10
3967.391910066618
 20
12572.0809242219
 30
0.0
 11
9567.3919100666153
 21
18197.0809242219
 31
0.0
  0
LINE
  5
633B3
  8
HIKIDASHI
 10
6828.4195683584758
 20
12898.768142436789
 30
0.0
 11
7071.1668198712568
 21
13599.580924221889
 31
0.0
  0
LINE
  5
633B4
  8
HIKIDASHI
 10
7071.1668198712568
 20
13599.580924221889
 30
0.0
 11
7690.2705498291107
 21
13599.580924221889
 31
0.0
  0
TEXT
  5
633B5
  8
HIKIDASHI
 10
7132.5947444523326
 20
13639.580924221889
 30
0.0
 40
160.0
  1
埋金具
  7
01
  0
TEXT
  5
638D9
  8
FILENAME
 10
27594.476190476191
 20
348.0
 30
0.0
 40
200.0
  1
＜SOB-58H,FH-G_3_JIS_GL.DXF ＞
  7
FILENAME
 72
     2
 11
32764.0
 21
348.0
 31
0.0
  0
LINE
  5
638DB
  8
WAKUSEN-01
 10
868.00000000000193
 20
827.99999999999955
 30
0.0
 11
32764.000000000011
 21
827.99999999999943
 31
0.0
  0
LINE
  5
638DC
  8
WAKUSEN-01
 10
868.00000000000193
 20
22484.000000000011
 30
0.0
 11
32764.000000000011
 21
22484.000000000011
 31
0.0
  0
LINE
  5
638DD
  8
WAKUSEN-01
 10
868.00000000000193
 20
827.99999999999955
 30
0.0
 11
868.00000000000193
 21
22484.000000000011
 31
0.0
  0
LINE
  5
638DE
  8
WAKUSEN-01
 10
32764.000000000011
 20
827.99999999999943
 30
0.0
 11
32764.000000000011
 21
22484.000000000011
 31
0.0
  0
LINE
  5
638DF
  8
WAKUSEN-01
 10
20560.0
 20
2484.0
 30
0.0
 11
32764.0
 21
2484.0
 31
0.0
  0
LINE
  5
638E0
  8
WAKUSEN-02
 10
20560.0
 20
1655.9999999999991
 30
0.0
 11
26868.0
 21
1655.9999999999991
 31
0.0
  0
TEXT
  5
638E1
  8
WAKUMOJI-01
 10
20670.260259962772
 20
2125.9030093393221
 30
0.0
 40
240.0
  1
名　称
  7
WAKUMOJI
  0
TEXT
  5
638E2
  8
WAKUMOJI-01
 10
20656.505485091919
 20
1319.1289749798209
 30
0.0
 40
240.0
  1
機種名
  7
WAKUMOJI
  0
LINE
  5
638E3
  8
WAKUSEN-01
 10
20560.0
 20
827.99999999999716
 30
0.0
 11
20560.0
 21
2484.0
 31
0.0
  0
LINE
  5
638E4
  8
WAKUSEN-02
 10
26868.0
 20
827.99999999999261
 30
0.0
 11
26868.0
 21
2484.0
 31
0.0
  0
LINE
  5
638E5
  8
YODOROGO
 10
29977.604341291921
 20
1995.7494964292871
 30
0.0
 11
29829.604341291921
 21
1995.7494964292871
 31
0.0
1001
AUTOCAD_POSTSCRIPT_FIGURE
1002
{
1000
PSFILL
1000
Grayscale
1000
Grayscale
1070
    25
1002
}
  0
LINE
  5
638E6
  8
YODOROGO
 10
29829.604341291921
 20
1947.749496429288
 30
0.0
 11
29977.604341291921
 21
1947.749496429288
 31
0.0
1001
AUTOCAD_POSTSCRIPT_FIGURE
1002
{
1000
PSFILL
1000
Grayscale
1000
Grayscale
1070
    25
1002
}
  0
LINE
  5
638E7
  8
YODOROGO
 10
29977.604341291921
 20
1907.7494964292871
 30
0.0
 11
29829.604341291921
 21
1907.7494964292871
 31
0.0
1001
AUTOCAD_POSTSCRIPT_FIGURE
1002
{
1000
PSFILL
1000
Grayscale
1000
Grayscale
1070
    25
1002
}
  0
LINE
  5
638E8
  8
YODOROGO
 10
29829.604341291921
 20
1859.749496429288
 30
0.0
 11
29977.604341291921
 21
1859.749496429288
 31
0.0
1001
AUTOCAD_POSTSCRIPT_FIGURE
1002
{
1000
PSFILL
1000
Grayscale
1000
Grayscale
1070
    25
1002
}
  0
LINE
  5
638E9
  8
YODOROGO
 10
29977.604341291921
 20
1819.749496429288
 30
0.0
 11
29829.604341291921
 21
1819.749496429288
 31
0.0
1001
AUTOCAD_POSTSCRIPT_FIGURE
1002
{
1000
PSFILL
1000
Grayscale
1000
Grayscale
1070
    25
1002
}
  0
LINE
  5
638EA
  8
YODOROGO
 10
29921.60434129191
 20
1707.749496429288
 30
0.0
 11
29977.604341291921
 21
1707.749496429288
 31
0.0
1001
AUTOCAD_POSTSCRIPT_FIGURE
1002
{
1000
PSFILL
1000
Grayscale
1000
Grayscale
1070
    25
1002
}
  0
LINE
  5
638EB
  8
YODOROGO
 10
29737.604341291921
 20
1427.749496429288
 30
0.0
 11
29937.604341291932
 21
1481.339334915511
 31
0.0
  0
LINE
  5
638EC
  8
YODOROGO
 10
29949.604341291921
 20
1707.749496429288
 30
0.0
 11
29885.604341291921
 21
1707.749496429288
 31
0.0
  0
ARC
  5
638ED
  8
YODOROGO
 10
30254.34774982791
 20
1807.8646092332619
 30
0.0
 40
381.88686420564733
 50
213.96111677667849
 51
264.47872074317792
  0
ARC
  5
638EE
  8
YODOROGO
 10
30254.347749827921
 20
1807.864609233302
 30
0.0
 40
381.8868642056816
 50
208.14114420486601
 51
212.92103611859949
  0
LINE
  5
638EF
  8
YODOROGO
 10
29771.40987298531
 20
1556.807661346234
 30
0.0
 11
29933.78413250855
 21
1600.3157130570869
 31
0.0
  0
LINE
  5
638F0
  8
YODOROGO
 10
29737.604341291921
 20
1427.749496429288
 30
0.0
 11
29937.604341291932
 21
1481.339334915511
 31
0.0
  0
LINE
  5
638F1
  8
YODOROGO
 10
29949.604341291921
 20
1707.749496429288
 30
0.0
 11
29885.604341291921
 21
1707.749496429288
 31
0.0
  0
ARC
  5
638F2
  8
YODOROGO
 10
30254.34774982791
 20
1807.8646092332619
 30
0.0
 40
381.88686420564733
 50
213.96111677667849
 51
264.47872074317792
  0
LINE
  5
638F3
  8
YODOROGO
 10
28793.60434129191
 20
1819.749496429288
 30
0.0
 11
28433.60434129191
 21
1819.749496429288
 31
0.0
  0
LINE
  5
638F4
  8
YODOROGO
 10
28513.60434129191
 20
1427.749496429288
 30
0.0
 11
28793.60434129191
 21
1427.749496429288
 31
0.0
  0
LINE
  5
638F5
  8
YODOROGO
 10
28729.604341291921
 20
1923.7494964292871
 30
0.0
 11
28497.60434129191
 21
1923.7494964292871
 31
0.0
  0
LINE
  5
638F6
  8
YODOROGO
 10
28585.604341291921
 20
2027.749496429288
 30
0.0
 11
28657.604341291921
 21
2027.749496429288
 31
0.0
  0
LINE
  5
638F7
  8
YODOROGO
 10
28433.60434129191
 20
1707.749496429288
 30
0.0
 11
28433.60434129191
 21
1507.749496429288
 31
0.0
  0
LINE
  5
638F8
  8
YODOROGO
 10
28497.60434129191
 20
1563.7494964292871
 30
0.0
 11
28497.60434129191
 21
1707.749496429288
 31
0.0
  0
LINE
  5
638F9
  8
YODOROGO
 10
28585.604341291921
 20
1747.74949642929
 30
0.0
 11
28585.604341291921
 21
1547.749496429288
 31
0.0
  0
LINE
  5
638FA
  8
YODOROGO
 10
27857.604341291921
 20
1683.7494964292889
 30
0.0
 11
27777.604341291921
 21
1619.972414044571
 31
0.0
  0
LINE
  5
638FB
  8
YODOROGO
 10
27937.604341291921
 20
1619.972414044571
 30
0.0
 11
27857.604341291921
 21
1683.7494964292889
 31
0.0
  0
LINE
  5
638FC
  8
YODOROGO
 10
27857.604341291921
 20
1707.749496429288
 30
0.0
 11
27937.604341291921
 21
1643.9724140445701
 31
0.0
  0
LINE
  5
638FD
  8
YODOROGO
 10
27777.604341291921
 20
1643.9724140445701
 30
0.0
 11
27857.604341291921
 21
1707.749496429288
 31
0.0
  0
LINE
  5
638FE
  8
YODOROGO
 10
28040.913204016899
 20
1659.749496429288
 30
0.0
 11
28040.913204016899
 21
1683.7494964292871
 31
0.0
  0
LINE
  5
638FF
  8
YODOROGO
 10
27977.604341291921
 20
1683.7494964292871
 30
0.0
 11
27977.604341291921
 21
1667.749496429285
 31
0.0
  0
LINE
  5
63900
  8
YODOROGO
 10
28098.135520230931
 20
1707.749496429288
 30
0.0
 11
28098.135520230931
 21
1655.5036372746561
 31
0.0
1001
AUTOCAD_POSTSCRIPT_FIGURE
1002
{
1000
PSFILL
1000
Grayscale
1000
Grayscale
1070
   100
1002
}
  0
LINE
  5
63901
  8
YODOROGO
 10
28082.135520230921
 20
1655.5036372746561
 30
0.0
 11
28082.135520230921
 21
1707.749496429288
 31
0.0
1001
AUTOCAD_POSTSCRIPT_FIGURE
1002
{
1000
PSFILL
1000
Grayscale
1000
Grayscale
1070
   100
1002
}
  0
LINE
  5
63902
  8
YODOROGO
 10
27809.604341291921
 20
1608.771904043258
 30
0.0
 11
27809.604341291921
 21
1632.7719040432589
 31
0.0
  0
LINE
  5
63903
  8
YODOROGO
 10
27905.604341291921
 20
1608.771904043258
 30
0.0
 11
27809.604341291921
 21
1608.771904043258
 31
0.0
  0
LINE
  5
63904
  8
YODOROGO
 10
27905.604341291921
 20
1632.7719040432589
 30
0.0
 11
27905.604341291921
 21
1608.771904043258
 31
0.0
  0
LINE
  5
63905
  8
YODOROGO
 10
27809.604341291921
 20
1632.7719040432589
 30
0.0
 11
27905.604341291921
 21
1632.7719040432589
 31
0.0
  0
LINE
  5
63906
  8
YODOROGO
 10
27824.509588915749
 20
1568.5028573704751
 30
0.0
 11
27785.604341291921
 21
1475.7494964292871
 31
0.0
1001
AUTOCAD_POSTSCRIPT_FIGURE
1002
{
1000
PSFILL
1000
Grayscale
1000
Grayscale
1070
   100
1002
}
  0
LINE
  5
63907
  8
YODOROGO
 10
27777.604341291921
 20
1568.5028573704751
 30
0.0
 11
27824.509588915749
 21
1568.5028573704751
 31
0.0
1001
AUTOCAD_POSTSCRIPT_FIGURE
1002
{
1000
PSFILL
1000
Grayscale
1000
Grayscale
1070
   100
1002
}
  0
LINE
  5
63908
  8
YODOROGO
 10
27777.604341291921
 20
1588.5028573704751
 30
0.0
 11
27777.604341291921
 21
1568.5028573704751
 31
0.0
1001
AUTOCAD_POSTSCRIPT_FIGURE
1002
{
1000
PSFILL
1000
Grayscale
1000
Grayscale
1070
   100
1002
}
  0
LINE
  5
63909
  8
YODOROGO
 10
27937.604341291921
 20
1588.5028573704751
 30
0.0
 11
27777.604341291921
 21
1588.5028573704751
 31
0.0
1001
AUTOCAD_POSTSCRIPT_FIGURE
1002
{
1000
PSFILL
1000
Grayscale
1000
Grayscale
1070
   100
1002
}
  0
LINE
  5
6390A
  8
YODOROGO
 10
27937.604341291921
 20
1568.5028573704751
 30
0.0
 11
27937.604341291921
 21
1588.5028573704751
 31
0.0
1001
AUTOCAD_POSTSCRIPT_FIGURE
1002
{
1000
PSFILL
1000
Grayscale
1000
Grayscale
1070
   100
1002
}
  0
LINE
  5
6390B
  8
YODOROGO
 10
27844.509588915749
 20
1568.5028573704751
 30
0.0
 11
27937.604341291921
 21
1568.5028573704751
 31
0.0
1001
AUTOCAD_POSTSCRIPT_FIGURE
1002
{
1000
PSFILL
1000
Grayscale
1000
Grayscale
1070
   100
1002
}
  0
LINE
  5
6390C
  8
YODOROGO
 10
27815.546718284779
 20
1495.7494964292871
 30
0.0
 11
27844.509588915749
 21
1568.5028573704751
 31
0.0
1001
AUTOCAD_POSTSCRIPT_FIGURE
1002
{
1000
PSFILL
1000
Grayscale
1000
Grayscale
1070
   100
1002
}
  0
LINE
  5
6390D
  8
YODOROGO
 10
27902.054790808648
 20
1495.7494964292871
 30
0.0
 11
27815.546718284779
 21
1495.7494964292871
 31
0.0
1001
AUTOCAD_POSTSCRIPT_FIGURE
1002
{
1000
PSFILL
1000
Grayscale
1000
Grayscale
1070
   100
1002
}
  0
LINE
  5
6390E
  8
YODOROGO
 10
27885.065004790951
 20
1536.2338106976929
 30
0.0
 11
27902.054790808648
 21
1495.7494964292871
 31
0.0
1001
AUTOCAD_POSTSCRIPT_FIGURE
1002
{
1000
PSFILL
1000
Grayscale
1000
Grayscale
1070
   100
1002
}
  0
LINE
  5
6390F
  8
YODOROGO
 10
27901.065004790951
 20
1536.2338106976929
 30
0.0
 11
27885.065004790951
 21
1536.2338106976929
 31
0.0
1001
AUTOCAD_POSTSCRIPT_FIGURE
1002
{
1000
PSFILL
1000
Grayscale
1000
Grayscale
1070
   100
1002
}
  0
LINE
  5
63910
  8
YODOROGO
 10
27929.604341291921
 20
1475.7494964292871
 30
0.0
 11
27901.065004790951
 21
1536.2338106976929
 31
0.0
1001
AUTOCAD_POSTSCRIPT_FIGURE
1002
{
1000
PSFILL
1000
Grayscale
1000
Grayscale
1070
   100
1002
}
  0
LINE
  5
63911
  8
YODOROGO
 10
27785.604341291921
 20
1475.7494964292871
 30
0.0
 11
27929.604341291921
 21
1475.7494964292871
 31
0.0
1001
AUTOCAD_POSTSCRIPT_FIGURE
1002
{
1000
PSFILL
1000
Grayscale
1000
Grayscale
1070
   100
1002
}
  0
LINE
  5
63912
  8
YODOROGO
 10
27777.604341291921
 20
1619.972414044571
 30
0.0
 11
27777.604341291921
 21
1643.9724140445701
 31
0.0
  0
LINE
  5
63913
  8
YODOROGO
 10
27937.604341291921
 20
1643.9724140445701
 30
0.0
 11
27937.604341291921
 21
1619.972414044571
 31
0.0
  0
ARC
  5
63914
  8
YODOROGO
 10
28225.94044214697
 20
1600.877765325326
 30
0.0
 40
175.99999999999989
 50
280.3644312771313
 51
3.5414836592180561
  0
ARC
  5
63915
  8
YODOROGO
 10
28235.756030759301
 20
1633.5978069619041
 30
0.0
 40
111.99999999999829
 50
281.2490582504156
 51
348.75094174958332
  0
LINE
  5
63916
  8
YODOROGO
 10
28257.604341291921
 20
1523.7494964292871
 30
0.0
 11
28257.604341291921
 21
1427.749496429288
 31
0.0
  0
LINE
  5
63917
  8
YODOROGO
 10
28020.088903736902
 20
1610.6505650619149
 30
0.0
 11
28040.913204016899
 21
1659.749496429288
 31
0.0
  0
LINE
  5
63918
  8
YODOROGO
 10
28041.604341291921
 20
1583.120489948401
 30
0.0
 11
28020.088903736902
 21
1610.6505650619149
 31
0.0
  0
LINE
  5
63919
  8
YODOROGO
 10
28041.604341291921
 20
1563.1204899483989
 30
0.0
 11
28041.604341291921
 21
1583.120489948401
 31
0.0
  0
LINE
  5
6391A
  8
YODOROGO
 10
28017.604341291921
 20
1585.2370637495301
 30
0.0
 11
28041.604341291921
 21
1563.1204899483989
 31
0.0
  0
LINE
  5
6391B
  8
YODOROGO
 10
28017.604341291921
 20
1475.7494964292871
 30
0.0
 11
28017.604341291921
 21
1585.2370637495301
 31
0.0
  0
LINE
  5
6391C
  8
YODOROGO
 10
28001.604341291921
 20
1475.7494964292871
 30
0.0
 11
28017.604341291921
 21
1475.7494964292871
 31
0.0
  0
LINE
  5
6391D
  8
YODOROGO
 10
28001.604341291921
 20
1580.0053496897481
 30
0.0
 11
28001.604341291921
 21
1475.7494964292871
 31
0.0
  0
LINE
  5
6391E
  8
YODOROGO
 10
27977.604341291921
 20
1532.7680790334291
 30
0.0
 11
28001.604341291921
 21
1580.0053496897481
 31
0.0
  0
LINE
  5
6391F
  8
YODOROGO
 10
27977.604341291921
 20
1556.76807903343
 30
0.0
 11
27977.604341291921
 21
1532.7680790334291
 31
0.0
  0
LINE
  5
63920
  8
YODOROGO
 10
28025.82877429136
 20
1667.749496429285
 30
0.0
 11
27977.604341291921
 21
1556.76807903343
 31
0.0
  0
LINE
  5
63921
  8
YODOROGO
 10
27977.604341291921
 20
1667.749496429285
 30
0.0
 11
28025.82877429136
 21
1667.749496429285
 31
0.0
  0
LINE
  5
63922
  8
YODOROGO
 10
28050.13552023091
 20
1655.5036372746561
 30
0.0
 11
28082.135520230921
 21
1655.5036372746561
 31
0.0
1001
AUTOCAD_POSTSCRIPT_FIGURE
1002
{
1000
PSFILL
1000
Grayscale
1000
Grayscale
1070
   100
1002
}
  0
LINE
  5
63923
  8
YODOROGO
 10
28050.13552023091
 20
1631.503637274657
 30
0.0
 11
28050.13552023091
 21
1655.5036372746561
 31
0.0
1001
AUTOCAD_POSTSCRIPT_FIGURE
1002
{
1000
PSFILL
1000
Grayscale
1000
Grayscale
1070
   100
1002
}
  0
LINE
  5
63924
  8
YODOROGO
 10
28082.135520230921
 20
1631.503637274657
 30
0.0
 11
28050.13552023091
 21
1631.503637274657
 31
0.0
1001
AUTOCAD_POSTSCRIPT_FIGURE
1002
{
1000
PSFILL
1000
Grayscale
1000
Grayscale
1070
   100
1002
}
  0
LINE
  5
63925
  8
YODOROGO
 10
28082.135520230921
 20
1499.749496429288
 30
0.0
 11
28082.135520230921
 21
1631.503637274657
 31
0.0
1001
AUTOCAD_POSTSCRIPT_FIGURE
1002
{
1000
PSFILL
1000
Grayscale
1000
Grayscale
1070
   100
1002
}
  0
LINE
  5
63926
  8
YODOROGO
 10
28050.135520230931
 20
1499.749496429288
 30
0.0
 11
28082.135520230921
 21
1499.749496429288
 31
0.0
1001
AUTOCAD_POSTSCRIPT_FIGURE
1002
{
1000
PSFILL
1000
Grayscale
1000
Grayscale
1070
   100
1002
}
  0
LINE
  5
63927
  8
YODOROGO
 10
28050.135520230931
 20
1475.7494964292871
 30
0.0
 11
28050.135520230931
 21
1499.749496429288
 31
0.0
1001
AUTOCAD_POSTSCRIPT_FIGURE
1002
{
1000
PSFILL
1000
Grayscale
1000
Grayscale
1070
   100
1002
}
  0
LINE
  5
63928
  8
YODOROGO
 10
28137.604341291921
 20
1475.7494964292871
 30
0.0
 11
28050.135520230931
 21
1475.7494964292871
 31
0.0
1001
AUTOCAD_POSTSCRIPT_FIGURE
1002
{
1000
PSFILL
1000
Grayscale
1000
Grayscale
1070
   100
1002
}
  0
LINE
  5
63929
  8
YODOROGO
 10
28137.604341291921
 20
1499.749496429288
 30
0.0
 11
28137.604341291921
 21
1475.7494964292871
 31
0.0
1001
AUTOCAD_POSTSCRIPT_FIGURE
1002
{
1000
PSFILL
1000
Grayscale
1000
Grayscale
1070
   100
1002
}
  0
LINE
  5
6392A
  8
YODOROGO
 10
28098.135520230931
 20
1499.749496429288
 30
0.0
 11
28137.604341291921
 21
1499.749496429288
 31
0.0
1001
AUTOCAD_POSTSCRIPT_FIGURE
1002
{
1000
PSFILL
1000
Grayscale
1000
Grayscale
1070
   100
1002
}
  0
LINE
  5
6392B
  8
YODOROGO
 10
28098.135520230931
 20
1631.503637274657
 30
0.0
 11
28098.135520230931
 21
1499.749496429288
 31
0.0
1001
AUTOCAD_POSTSCRIPT_FIGURE
1002
{
1000
PSFILL
1000
Grayscale
1000
Grayscale
1070
   100
1002
}
  0
LINE
  5
6392C
  8
YODOROGO
 10
28137.604341291921
 20
1631.503637274657
 30
0.0
 11
28098.135520230931
 21
1631.503637274657
 31
0.0
1001
AUTOCAD_POSTSCRIPT_FIGURE
1002
{
1000
PSFILL
1000
Grayscale
1000
Grayscale
1070
   100
1002
}
  0
LINE
  5
6392D
  8
YODOROGO
 10
28137.604341291921
 20
1655.5036372746561
 30
0.0
 11
28137.604341291921
 21
1631.503637274657
 31
0.0
1001
AUTOCAD_POSTSCRIPT_FIGURE
1002
{
1000
PSFILL
1000
Grayscale
1000
Grayscale
1070
   100
1002
}
  0
LINE
  5
6392E
  8
YODOROGO
 10
28098.135520230931
 20
1655.5036372746561
 30
0.0
 11
28137.604341291921
 21
1655.5036372746561
 31
0.0
1001
AUTOCAD_POSTSCRIPT_FIGURE
1002
{
1000
PSFILL
1000
Grayscale
1000
Grayscale
1070
   100
1002
}
  0
LINE
  5
6392F
  8
YODOROGO
 10
28401.60434129191
 20
1667.749496429288
 30
0.0
 11
28345.604341291921
 21
1667.749496429288
 31
0.0
  0
LINE
  5
63930
  8
YODOROGO
 10
28401.60434129191
 20
1611.7494964292889
 30
0.0
 11
28401.60434129191
 21
1667.749496429288
 31
0.0
  0
LINE
  5
63931
  8
YODOROGO
 10
28345.604341291921
 20
1667.749496429288
 30
0.0
 11
28345.604341291921
 21
1611.7494964292889
 31
0.0
  0
ARC
  5
63932
  8
YODOROGO
 10
28513.60434129191
 20
1507.749496429288
 30
0.0
 40
80.0
 50
180.0
 51
270.0
  0
ARC
  5
63933
  8
YODOROGO
 10
28537.60434129191
 20
1563.7494964292871
 30
0.0
 40
40.0
 50
180.0
 51
270.0
  0
LINE
  5
63934
  8
YODOROGO
 10
28561.604341291932
 20
1523.7494964292871
 30
0.0
 11
28537.60434129191
 21
1523.7494964292871
 31
0.0
  0
ARC
  5
63935
  8
YODOROGO
 10
28561.604341291932
 20
1547.749496429285
 30
0.0
 40
23.999999999996358
 50
270.0
 51
0.0000000000054281
  0
LINE
  5
63936
  8
YODOROGO
 10
27801.604341291921
 20
1890.786580793706
 30
0.0
 11
27777.604341291921
 21
1843.776747951672
 31
0.0
1001
AUTOCAD_POSTSCRIPT_FIGURE
1002
{
1000
PSFILL
1000
Grayscale
1000
Grayscale
1070
   100
1002
}
  0
LINE
  5
63937
  8
YODOROGO
 10
27801.604341291921
 20
1747.7494964292871
 30
0.0
 11
27801.604341291921
 21
1890.786580793706
 31
0.0
1001
AUTOCAD_POSTSCRIPT_FIGURE
1002
{
1000
PSFILL
1000
Grayscale
1000
Grayscale
1070
   100
1002
}
  0
LINE
  5
63938
  8
YODOROGO
 10
27817.604341291921
 20
1747.7494964292871
 30
0.0
 11
27801.604341291921
 21
1747.7494964292871
 31
0.0
1001
AUTOCAD_POSTSCRIPT_FIGURE
1002
{
1000
PSFILL
1000
Grayscale
1000
Grayscale
1070
   100
1002
}
  0
LINE
  5
63939
  8
YODOROGO
 10
27817.604341291921
 20
1893.771332085267
 30
0.0
 11
27817.604341291921
 21
1747.7494964292871
 31
0.0
1001
AUTOCAD_POSTSCRIPT_FIGURE
1002
{
1000
PSFILL
1000
Grayscale
1000
Grayscale
1070
   100
1002
}
  0
LINE
  5
6393A
  8
YODOROGO
 10
27841.604341291921
 20
1867.654758284137
 30
0.0
 11
27817.604341291921
 21
1893.771332085267
 31
0.0
1001
AUTOCAD_POSTSCRIPT_FIGURE
1002
{
1000
PSFILL
1000
Grayscale
1000
Grayscale
1070
   100
1002
}
  0
LINE
  5
6393B
  8
YODOROGO
 10
27841.604341291921
 20
1883.6547582841361
 30
0.0
 11
27841.604341291921
 21
1867.654758284137
 31
0.0
1001
AUTOCAD_POSTSCRIPT_FIGURE
1002
{
1000
PSFILL
1000
Grayscale
1000
Grayscale
1070
   100
1002
}
  0
LINE
  5
6393C
  8
YODOROGO
 10
27817.604341291921
 20
1917.7713320852649
 30
0.0
 11
27841.604341291921
 21
1883.6547582841361
 31
0.0
1001
AUTOCAD_POSTSCRIPT_FIGURE
1002
{
1000
PSFILL
1000
Grayscale
1000
Grayscale
1070
   100
1002
}
  0
LINE
  5
6393D
  8
YODOROGO
 10
27817.604341291921
 20
1939.749496429288
 30
0.0
 11
27817.604341291921
 21
1917.7713320852649
 31
0.0
1001
AUTOCAD_POSTSCRIPT_FIGURE
1002
{
1000
PSFILL
1000
Grayscale
1000
Grayscale
1070
   100
1002
}
  0
LINE
  5
6393E
  8
YODOROGO
 10
27889.604341291921
 20
1939.749496429288
 30
0.0
 11
27817.604341291921
 21
1939.749496429288
 31
0.0
1001
AUTOCAD_POSTSCRIPT_FIGURE
1002
{
1000
PSFILL
1000
Grayscale
1000
Grayscale
1070
   100
1002
}
  0
LINE
  5
6393F
  8
YODOROGO
 10
27889.604341291921
 20
1900.5683489363
 30
0.0
 11
27889.604341291921
 21
1939.749496429288
 31
0.0
1001
AUTOCAD_POSTSCRIPT_FIGURE
1002
{
1000
PSFILL
1000
Grayscale
1000
Grayscale
1070
   100
1002
}
  0
LINE
  5
63940
  8
YODOROGO
 10
27857.604341291921
 20
1900.5683489363
 30
0.0
 11
27889.604341291921
 21
1900.5683489363
 31
0.0
1001
AUTOCAD_POSTSCRIPT_FIGURE
1002
{
1000
PSFILL
1000
Grayscale
1000
Grayscale
1070
   100
1002
}
  0
LINE
  5
63941
  8
YODOROGO
 10
27857.604341291921
 20
1884.568348936298
 30
0.0
 11
27857.604341291921
 21
1900.5683489363
 31
0.0
1001
AUTOCAD_POSTSCRIPT_FIGURE
1002
{
1000
PSFILL
1000
Grayscale
1000
Grayscale
1070
   100
1002
}
  0
LINE
  5
63942
  8
YODOROGO
 10
27889.604341291921
 20
1884.568348936298
 30
0.0
 11
27857.604341291921
 21
1884.568348936298
 31
0.0
1001
AUTOCAD_POSTSCRIPT_FIGURE
1002
{
1000
PSFILL
1000
Grayscale
1000
Grayscale
1070
   100
1002
}
  0
LINE
  5
63943
  8
YODOROGO
 10
27889.604341291921
 20
1879.6191779644389
 30
0.0
 11
27889.604341291921
 21
1884.568348936298
 31
0.0
1001
AUTOCAD_POSTSCRIPT_FIGURE
1002
{
1000
PSFILL
1000
Grayscale
1000
Grayscale
1070
   100
1002
}
  0
LINE
  5
63944
  8
YODOROGO
 10
27849.604341291921
 20
1812.974981161417
 30
0.0
 11
27889.604341291921
 21
1879.6191779644389
 31
0.0
1001
AUTOCAD_POSTSCRIPT_FIGURE
1002
{
1000
PSFILL
1000
Grayscale
1000
Grayscale
1070
   100
1002
}
  0
LINE
  5
63945
  8
YODOROGO
 10
27849.604341291921
 20
1796.9749811614161
 30
0.0
 11
27849.604341291921
 21
1812.974981161417
 31
0.0
1001
AUTOCAD_POSTSCRIPT_FIGURE
1002
{
1000
PSFILL
1000
Grayscale
1000
Grayscale
1070
   100
1002
}
  0
LINE
  5
63946
  8
YODOROGO
 10
27889.604341291921
 20
1847.6191779644371
 30
0.0
 11
27849.604341291921
 21
1796.9749811614161
 31
0.0
1001
AUTOCAD_POSTSCRIPT_FIGURE
1002
{
1000
PSFILL
1000
Grayscale
1000
Grayscale
1070
   100
1002
}
  0
LINE
  5
63947
  8
YODOROGO
 10
27889.604341291921
 20
1747.7494964292871
 30
0.0
 11
27889.604341291921
 21
1847.6191779644371
 31
0.0
1001
AUTOCAD_POSTSCRIPT_FIGURE
1002
{
1000
PSFILL
1000
Grayscale
1000
Grayscale
1070
   100
1002
}
  0
LINE
  5
63948
  8
YODOROGO
 10
27905.604341291921
 20
1747.7494964292871
 30
0.0
 11
27889.604341291921
 21
1747.7494964292871
 31
0.0
1001
AUTOCAD_POSTSCRIPT_FIGURE
1002
{
1000
PSFILL
1000
Grayscale
1000
Grayscale
1070
   100
1002
}
  0
LINE
  5
63949
  8
YODOROGO
 10
27905.604341291921
 20
1849.409012158806
 30
0.0
 11
27905.604341291921
 21
1747.7494964292871
 31
0.0
1001
AUTOCAD_POSTSCRIPT_FIGURE
1002
{
1000
PSFILL
1000
Grayscale
1000
Grayscale
1070
   100
1002
}
  0
LINE
  5
6394A
  8
YODOROGO
 10
27937.604341291921
 20
1796.9749811614161
 30
0.0
 11
27905.604341291921
 21
1849.409012158806
 31
0.0
1001
AUTOCAD_POSTSCRIPT_FIGURE
1002
{
1000
PSFILL
1000
Grayscale
1000
Grayscale
1070
   100
1002
}
  0
LINE
  5
6394B
  8
YODOROGO
 10
27937.604341291921
 20
1812.974981161417
 30
0.0
 11
27937.604341291921
 21
1796.9749811614161
 31
0.0
1001
AUTOCAD_POSTSCRIPT_FIGURE
1002
{
1000
PSFILL
1000
Grayscale
1000
Grayscale
1070
   100
1002
}
  0
LINE
  5
6394C
  8
YODOROGO
 10
27905.604341291921
 20
1881.4090121588081
 30
0.0
 11
27937.604341291921
 21
1812.974981161417
 31
0.0
1001
AUTOCAD_POSTSCRIPT_FIGURE
1002
{
1000
PSFILL
1000
Grayscale
1000
Grayscale
1070
   100
1002
}
  0
LINE
  5
6394D
  8
YODOROGO
 10
27905.604341291932
 20
1884.5683489363
 30
0.0
 11
27905.604341291921
 21
1881.4090121588081
 31
0.0
1001
AUTOCAD_POSTSCRIPT_FIGURE
1002
{
1000
PSFILL
1000
Grayscale
1000
Grayscale
1070
   100
1002
}
  0
LINE
  5
6394E
  8
YODOROGO
 10
27937.604341291921
 20
1884.568348936298
 30
0.0
 11
27905.604341291932
 21
1884.5683489363
 31
0.0
1001
AUTOCAD_POSTSCRIPT_FIGURE
1002
{
1000
PSFILL
1000
Grayscale
1000
Grayscale
1070
   100
1002
}
  0
LINE
  5
6394F
  8
YODOROGO
 10
27937.604341291921
 20
1900.5683489363
 30
0.0
 11
27937.604341291921
 21
1884.568348936298
 31
0.0
1001
AUTOCAD_POSTSCRIPT_FIGURE
1002
{
1000
PSFILL
1000
Grayscale
1000
Grayscale
1070
   100
1002
}
  0
LINE
  5
63950
  8
YODOROGO
 10
27905.604341291921
 20
1900.5683489363
 30
0.0
 11
27937.604341291921
 21
1900.5683489363
 31
0.0
1001
AUTOCAD_POSTSCRIPT_FIGURE
1002
{
1000
PSFILL
1000
Grayscale
1000
Grayscale
1070
   100
1002
}
  0
LINE
  5
63951
  8
YODOROGO
 10
27905.604341291921
 20
1939.749496429288
 30
0.0
 11
27905.604341291921
 21
1900.5683489363
 31
0.0
1001
AUTOCAD_POSTSCRIPT_FIGURE
1002
{
1000
PSFILL
1000
Grayscale
1000
Grayscale
1070
   100
1002
}
  0
LINE
  5
63952
  8
YODOROGO
 10
27937.604341291921
 20
1939.749496429288
 30
0.0
 11
27905.604341291921
 21
1939.749496429288
 31
0.0
1001
AUTOCAD_POSTSCRIPT_FIGURE
1002
{
1000
PSFILL
1000
Grayscale
1000
Grayscale
1070
   100
1002
}
  0
LINE
  5
63953
  8
YODOROGO
 10
27937.604341291921
 20
1955.7494964292871
 30
0.0
 11
27937.604341291921
 21
1939.749496429288
 31
0.0
1001
AUTOCAD_POSTSCRIPT_FIGURE
1002
{
1000
PSFILL
1000
Grayscale
1000
Grayscale
1070
   100
1002
}
  0
LINE
  5
63954
  8
YODOROGO
 10
27905.604341291921
 20
1955.7494964292871
 30
0.0
 11
27937.604341291921
 21
1955.7494964292871
 31
0.0
1001
AUTOCAD_POSTSCRIPT_FIGURE
1002
{
1000
PSFILL
1000
Grayscale
1000
Grayscale
1070
   100
1002
}
  0
LINE
  5
63955
  8
YODOROGO
 10
27905.604341291921
 20
1979.749496429288
 30
0.0
 11
27905.604341291921
 21
1955.7494964292871
 31
0.0
1001
AUTOCAD_POSTSCRIPT_FIGURE
1002
{
1000
PSFILL
1000
Grayscale
1000
Grayscale
1070
   100
1002
}
  0
LINE
  5
63956
  8
YODOROGO
 10
27889.604341291921
 20
1979.749496429288
 30
0.0
 11
27905.604341291921
 21
1979.749496429288
 31
0.0
1001
AUTOCAD_POSTSCRIPT_FIGURE
1002
{
1000
PSFILL
1000
Grayscale
1000
Grayscale
1070
   100
1002
}
  0
LINE
  5
63957
  8
YODOROGO
 10
27889.604341291921
 20
1955.7494964292871
 30
0.0
 11
27889.604341291921
 21
1979.749496429288
 31
0.0
1001
AUTOCAD_POSTSCRIPT_FIGURE
1002
{
1000
PSFILL
1000
Grayscale
1000
Grayscale
1070
   100
1002
}
  0
LINE
  5
63958
  8
YODOROGO
 10
27865.604341291921
 20
1955.7494964292871
 30
0.0
 11
27889.604341291921
 21
1955.7494964292871
 31
0.0
1001
AUTOCAD_POSTSCRIPT_FIGURE
1002
{
1000
PSFILL
1000
Grayscale
1000
Grayscale
1070
   100
1002
}
  0
LINE
  5
63959
  8
YODOROGO
 10
27865.604341291921
 20
1979.749496429288
 30
0.0
 11
27865.604341291921
 21
1955.7494964292871
 31
0.0
1001
AUTOCAD_POSTSCRIPT_FIGURE
1002
{
1000
PSFILL
1000
Grayscale
1000
Grayscale
1070
   100
1002
}
  0
LINE
  5
6395A
  8
YODOROGO
 10
27849.604341291921
 20
1979.749496429288
 30
0.0
 11
27865.604341291921
 21
1979.749496429288
 31
0.0
1001
AUTOCAD_POSTSCRIPT_FIGURE
1002
{
1000
PSFILL
1000
Grayscale
1000
Grayscale
1070
   100
1002
}
  0
LINE
  5
6395B
  8
YODOROGO
 10
27849.604341291921
 20
1955.7494964292871
 30
0.0
 11
27849.604341291921
 21
1979.749496429288
 31
0.0
1001
AUTOCAD_POSTSCRIPT_FIGURE
1002
{
1000
PSFILL
1000
Grayscale
1000
Grayscale
1070
   100
1002
}
  0
LINE
  5
6395C
  8
YODOROGO
 10
27817.604341291921
 20
1955.7494964292871
 30
0.0
 11
27849.604341291921
 21
1955.7494964292871
 31
0.0
1001
AUTOCAD_POSTSCRIPT_FIGURE
1002
{
1000
PSFILL
1000
Grayscale
1000
Grayscale
1070
   100
1002
}
  0
LINE
  5
6395D
  8
YODOROGO
 10
27817.604341291921
 20
1979.749496429288
 30
0.0
 11
27817.604341291921
 21
1955.7494964292871
 31
0.0
1001
AUTOCAD_POSTSCRIPT_FIGURE
1002
{
1000
PSFILL
1000
Grayscale
1000
Grayscale
1070
   100
1002
}
  0
LINE
  5
6395E
  8
YODOROGO
 10
27801.604341291921
 20
1979.749496429288
 30
0.0
 11
27817.604341291921
 21
1979.749496429288
 31
0.0
1001
AUTOCAD_POSTSCRIPT_FIGURE
1002
{
1000
PSFILL
1000
Grayscale
1000
Grayscale
1070
   100
1002
}
  0
LINE
  5
6395F
  8
YODOROGO
 10
27801.604341291921
 20
1955.7494964292871
 30
0.0
 11
27801.604341291921
 21
1979.749496429288
 31
0.0
1001
AUTOCAD_POSTSCRIPT_FIGURE
1002
{
1000
PSFILL
1000
Grayscale
1000
Grayscale
1070
   100
1002
}
  0
LINE
  5
63960
  8
YODOROGO
 10
27777.604341291921
 20
1955.7494964292871
 30
0.0
 11
27801.604341291921
 21
1955.7494964292871
 31
0.0
1001
AUTOCAD_POSTSCRIPT_FIGURE
1002
{
1000
PSFILL
1000
Grayscale
1000
Grayscale
1070
   100
1002
}
  0
LINE
  5
63961
  8
YODOROGO
 10
27777.604341291921
 20
1939.749496429288
 30
0.0
 11
27777.604341291921
 21
1955.7494964292871
 31
0.0
1001
AUTOCAD_POSTSCRIPT_FIGURE
1002
{
1000
PSFILL
1000
Grayscale
1000
Grayscale
1070
   100
1002
}
  0
LINE
  5
63962
  8
YODOROGO
 10
27801.604341291921
 20
1939.749496429288
 30
0.0
 11
27777.604341291921
 21
1939.749496429288
 31
0.0
1001
AUTOCAD_POSTSCRIPT_FIGURE
1002
{
1000
PSFILL
1000
Grayscale
1000
Grayscale
1070
   100
1002
}
  0
LINE
  5
63963
  8
YODOROGO
 10
27801.604341291921
 20
1914.7865807937051
 30
0.0
 11
27801.604341291921
 21
1939.749496429288
 31
0.0
1001
AUTOCAD_POSTSCRIPT_FIGURE
1002
{
1000
PSFILL
1000
Grayscale
1000
Grayscale
1070
   100
1002
}
  0
LINE
  5
63964
  8
YODOROGO
 10
27777.604341291921
 20
1859.776747951671
 30
0.0
 11
27801.604341291921
 21
1914.7865807937051
 31
0.0
1001
AUTOCAD_POSTSCRIPT_FIGURE
1002
{
1000
PSFILL
1000
Grayscale
1000
Grayscale
1070
   100
1002
}
  0
LINE
  5
63965
  8
YODOROGO
 10
27777.604341291921
 20
1843.776747951672
 30
0.0
 11
27777.604341291921
 21
1859.776747951671
 31
0.0
1001
AUTOCAD_POSTSCRIPT_FIGURE
1002
{
1000
PSFILL
1000
Grayscale
1000
Grayscale
1070
   100
1002
}
  0
LINE
  5
63966
  8
YODOROGO
 10
28257.604341291921
 20
1867.749496429288
 30
0.0
 11
28401.60434129191
 21
1824.877625640306
 31
0.0
1001
AUTOCAD_POSTSCRIPT_FIGURE
1002
{
1000
PSFILL
1000
Grayscale
1000
Grayscale
1070
   100
1002
}
  0
LINE
  5
63967
  8
YODOROGO
 10
28401.60434129191
 20
1752.877625640306
 30
0.0
 11
28257.604341291921
 21
1795.7494964292871
 31
0.0
1001
AUTOCAD_POSTSCRIPT_FIGURE
1002
{
1000
PSFILL
1000
Grayscale
1000
Grayscale
1070
   100
1002
}
  0
LINE
  5
63968
  8
YODOROGO
 10
28401.60434129191
 20
1984.877625640306
 30
0.0
 11
28257.604341291921
 21
2027.749496429288
 31
0.0
1001
AUTOCAD_POSTSCRIPT_FIGURE
1002
{
1000
PSFILL
1000
Grayscale
1000
Grayscale
1070
   100
1002
}
  0
LINE
  5
63969
  8
YODOROGO
 10
28257.604341291921
 20
1959.749496429288
 30
0.0
 11
28401.60434129191
 21
1916.8776256403071
 31
0.0
1001
AUTOCAD_POSTSCRIPT_FIGURE
1002
{
1000
PSFILL
1000
Grayscale
1000
Grayscale
1070
   100
1002
}
  0
LINE
  5
6396A
  8
YODOROGO
 10
28257.604341291921
 20
1795.7494964292871
 30
0.0
 11
28257.604341291921
 21
1867.749496429288
 31
0.0
1001
AUTOCAD_POSTSCRIPT_FIGURE
1002
{
1000
PSFILL
1000
Grayscale
1000
Grayscale
1070
   100
1002
}
  0
LINE
  5
6396B
  8
YODOROGO
 10
28257.604341291921
 20
2027.749496429288
 30
0.0
 11
28257.604341291921
 21
1959.749496429288
 31
0.0
1001
AUTOCAD_POSTSCRIPT_FIGURE
1002
{
1000
PSFILL
1000
Grayscale
1000
Grayscale
1070
   100
1002
}
  0
LINE
  5
6396C
  8
YODOROGO
 10
28080.236320206739
 20
1939.749496429288
 30
0.0
 11
28129.604341291921
 21
1747.7494964292871
 31
0.0
1001
AUTOCAD_POSTSCRIPT_FIGURE
1002
{
1000
PSFILL
1000
Grayscale
1000
Grayscale
1070
   100
1002
}
  0
LINE
  5
6396D
  8
YODOROGO
 10
27977.604341291921
 20
1939.749496429288
 30
0.0
 11
28080.236320206739
 21
1939.749496429288
 31
0.0
1001
AUTOCAD_POSTSCRIPT_FIGURE
1002
{
1000
PSFILL
1000
Grayscale
1000
Grayscale
1070
   100
1002
}
  0
LINE
  5
6396E
  8
YODOROGO
 10
27977.604341291921
 20
1955.7494964292871
 30
0.0
 11
27977.604341291921
 21
1939.749496429288
 31
0.0
1001
AUTOCAD_POSTSCRIPT_FIGURE
1002
{
1000
PSFILL
1000
Grayscale
1000
Grayscale
1070
   100
1002
}
  0
LINE
  5
6396F
  8
YODOROGO
 10
28076.60687851992
 20
1955.7494964292871
 30
0.0
 11
27977.604341291921
 21
1955.7494964292871
 31
0.0
1001
AUTOCAD_POSTSCRIPT_FIGURE
1002
{
1000
PSFILL
1000
Grayscale
1000
Grayscale
1070
   100
1002
}
  0
LINE
  5
63970
  8
YODOROGO
 10
28071.162715989711
 20
1979.749496429288
 30
0.0
 11
28076.60687851992
 21
1955.7494964292871
 31
0.0
1001
AUTOCAD_POSTSCRIPT_FIGURE
1002
{
1000
PSFILL
1000
Grayscale
1000
Grayscale
1070
   100
1002
}
  0
LINE
  5
63971
  8
YODOROGO
 10
28091.162715989711
 20
1979.749496429288
 30
0.0
 11
28071.162715989711
 21
1979.749496429288
 31
0.0
1001
AUTOCAD_POSTSCRIPT_FIGURE
1002
{
1000
PSFILL
1000
Grayscale
1000
Grayscale
1070
   100
1002
}
  0
LINE
  5
63972
  8
YODOROGO
 10
28095.806878519939
 20
1955.7494964292871
 30
0.0
 11
28091.162715989711
 21
1979.749496429288
 31
0.0
1001
AUTOCAD_POSTSCRIPT_FIGURE
1002
{
1000
PSFILL
1000
Grayscale
1000
Grayscale
1070
   100
1002
}
  0
LINE
  5
63973
  8
YODOROGO
 10
28121.604341291921
 20
1955.7494964292871
 30
0.0
 11
28095.806878519939
 21
1955.7494964292871
 31
0.0
1001
AUTOCAD_POSTSCRIPT_FIGURE
1002
{
1000
PSFILL
1000
Grayscale
1000
Grayscale
1070
   100
1002
}
  0
LINE
  5
63974
  8
YODOROGO
 10
28121.604341291921
 20
1979.749496429288
 30
0.0
 11
28121.604341291921
 21
1955.7494964292871
 31
0.0
1001
AUTOCAD_POSTSCRIPT_FIGURE
1002
{
1000
PSFILL
1000
Grayscale
1000
Grayscale
1070
   100
1002
}
  0
LINE
  5
63975
  8
YODOROGO
 10
28137.604341291921
 20
1979.749496429288
 30
0.0
 11
28121.604341291921
 21
1979.749496429288
 31
0.0
1001
AUTOCAD_POSTSCRIPT_FIGURE
1002
{
1000
PSFILL
1000
Grayscale
1000
Grayscale
1070
   100
1002
}
  0
LINE
  5
63976
  8
YODOROGO
 10
28137.604341291921
 20
1955.7494964292871
 30
0.0
 11
28137.604341291921
 21
1979.749496429288
 31
0.0
1001
AUTOCAD_POSTSCRIPT_FIGURE
1002
{
1000
PSFILL
1000
Grayscale
1000
Grayscale
1070
   100
1002
}
  0
LINE
  5
63977
  8
YODOROGO
 10
28137.604341291921
 20
1939.749496429288
 30
0.0
 11
28137.604341291921
 21
1955.7494964292871
 31
0.0
1001
AUTOCAD_POSTSCRIPT_FIGURE
1002
{
1000
PSFILL
1000
Grayscale
1000
Grayscale
1070
   100
1002
}
  0
LINE
  5
63978
  8
YODOROGO
 10
28098.902986873421
 20
1939.749496429288
 30
0.0
 11
28137.604341291921
 21
1939.749496429288
 31
0.0
1001
AUTOCAD_POSTSCRIPT_FIGURE
1002
{
1000
PSFILL
1000
Grayscale
1000
Grayscale
1070
   100
1002
}
  0
LINE
  5
63979
  8
YODOROGO
 10
28137.604341291921
 20
1747.7494964292871
 30
0.0
 11
28098.902986873421
 21
1939.749496429288
 31
0.0
1001
AUTOCAD_POSTSCRIPT_FIGURE
1002
{
1000
PSFILL
1000
Grayscale
1000
Grayscale
1070
   100
1002
}
  0
LINE
  5
6397A
  8
YODOROGO
 10
28129.604341291921
 20
1747.7494964292871
 30
0.0
 11
28137.604341291921
 21
1747.7494964292871
 31
0.0
1001
AUTOCAD_POSTSCRIPT_FIGURE
1002
{
1000
PSFILL
1000
Grayscale
1000
Grayscale
1070
   100
1002
}
  0
LINE
  5
6397B
  8
YODOROGO
 10
28078.069219933801
 20
1775.7407762987939
 30
0.0
 11
27977.604341291921
 21
1747.7494964292871
 31
0.0
  0
LINE
  5
6397C
  8
YODOROGO
 10
28078.069219933801
 20
1798.6689795290731
 30
0.0
 11
28078.069219933801
 21
1775.7407762987939
 31
0.0
  0
LINE
  5
6397D
  8
YODOROGO
 10
28033.83678061287
 20
1786.816933133767
 30
0.0
 11
28078.069219933801
 21
1798.6689795290731
 31
0.0
  0
LINE
  5
6397E
  8
YODOROGO
 10
28033.83678061287
 20
1872.5683489363
 30
0.0
 11
28033.83678061287
 21
1786.816933133767
 31
0.0
  0
LINE
  5
6397F
  8
YODOROGO
 10
28078.069219933801
 20
1872.5683489363
 30
0.0
 11
28033.83678061287
 21
1872.5683489363
 31
0.0
  0
LINE
  5
63980
  8
YODOROGO
 10
28078.069219933801
 20
1892.568348936298
 30
0.0
 11
28078.069219933801
 21
1872.5683489363
 31
0.0
  0
LINE
  5
63981
  8
YODOROGO
 10
27977.604341291921
 20
1892.568348936298
 30
0.0
 11
28078.069219933801
 21
1892.568348936298
 31
0.0
  0
LINE
  5
63982
  8
YODOROGO
 10
27977.604341291921
 20
1872.5683489363
 30
0.0
 11
27977.604341291921
 21
1892.568348936298
 31
0.0
  0
LINE
  5
63983
  8
YODOROGO
 10
28021.836780612859
 20
1872.5683489363
 30
0.0
 11
27977.604341291921
 21
1872.5683489363
 31
0.0
  0
LINE
  5
63984
  8
YODOROGO
 10
28021.836780612859
 20
1784.673339594317
 30
0.0
 11
28021.836780612859
 21
1872.5683489363
 31
0.0
  0
LINE
  5
63985
  8
YODOROGO
 10
27977.604341291921
 20
1771.749496429286
 30
0.0
 11
28021.836780612859
 21
1784.673339594317
 31
0.0
  0
LINE
  5
63986
  8
YODOROGO
 10
27977.604341291921
 20
1747.7494964292871
 30
0.0
 11
27977.604341291921
 21
1771.749496429286
 31
0.0
  0
LINE
  5
63987
  8
YODOROGO
 10
28001.604341291921
 20
1707.749496429288
 30
0.0
 11
28001.604341291921
 21
1683.7494964292871
 31
0.0
  0
LINE
  5
63989
  8
YODOROGO
 10
28017.604341291921
 20
1707.749496429288
 30
0.0
 11
28001.604341291921
 21
1707.749496429288
 31
0.0
  0
LINE
  5
6398A
  8
YODOROGO
 10
28017.604341291921
 20
1683.7494964292871
 30
0.0
 11
28017.604341291921
 21
1707.749496429288
 31
0.0
  0
LINE
  5
6398B
  8
YODOROGO
 10
28040.913204016899
 20
1683.7494964292871
 30
0.0
 11
28017.604341291921
 21
1683.7494964292871
 31
0.0
  0
LINE
  5
6398C
  8
YODOROGO
 10
28001.604341291921
 20
1683.7494964292871
 30
0.0
 11
27977.604341291921
 21
1683.7494964292871
 31
0.0
  0
LINE
  5
6398D
  8
YODOROGO
 10
28082.135520230921
 20
1707.749496429288
 30
0.0
 11
28098.135520230931
 21
1707.749496429288
 31
0.0
1001
AUTOCAD_POSTSCRIPT_FIGURE
1002
{
1000
PSFILL
1000
Grayscale
1000
Grayscale
1070
   100
1002
}
  0
LINE
  5
6398E
  8
YODOROGO
 10
28401.60434129191
 20
1824.877625640306
 30
0.0
 11
28401.60434129191
 21
1752.877625640306
 31
0.0
1001
AUTOCAD_POSTSCRIPT_FIGURE
1002
{
1000
PSFILL
1000
Grayscale
1000
Grayscale
1070
   100
1002
}
  0
LINE
  5
6398F
  8
YODOROGO
 10
28401.60434129191
 20
1916.8776256403071
 30
0.0
 11
28401.60434129191
 21
1984.877625640306
 31
0.0
1001
AUTOCAD_POSTSCRIPT_FIGURE
1002
{
1000
PSFILL
1000
Grayscale
1000
Grayscale
1070
   100
1002
}
  0
LINE
  5
63990
  8
YODOROGO
 10
28433.60434129191
 20
1819.749496429288
 30
0.0
 11
28433.60434129191
 21
1747.74949642929
 31
0.0
  0
LINE
  5
63991
  8
YODOROGO
 10
28497.60434129191
 20
1707.749496429288
 30
0.0
 11
28433.60434129191
 21
1707.749496429288
 31
0.0
  0
LINE
  5
63992
  8
YODOROGO
 10
28433.60434129191
 20
1747.74949642929
 30
0.0
 11
28585.604341291921
 21
1747.74949642929
 31
0.0
  0
LINE
  5
63993
  8
YODOROGO
 10
28497.60434129191
 20
1867.749496429288
 30
0.0
 11
28433.60434129191
 21
1867.749496429288
 31
0.0
  0
LINE
  5
63994
  8
YODOROGO
 10
28497.60434129191
 20
1923.7494964292871
 30
0.0
 11
28497.60434129191
 21
1867.749496429288
 31
0.0
  0
LINE
  5
63995
  8
YODOROGO
 10
28585.604341291921
 20
1987.749496429288
 30
0.0
 11
28585.604341291921
 21
2027.749496429288
 31
0.0
  0
LINE
  5
63996
  8
YODOROGO
 10
28433.60434129191
 20
1987.749496429288
 30
0.0
 11
28585.604341291921
 21
1987.749496429288
 31
0.0
  0
LINE
  5
63997
  8
YODOROGO
 10
28433.60434129191
 20
1867.749496429288
 30
0.0
 11
28433.60434129191
 21
1987.749496429288
 31
0.0
  0
LINE
  5
63998
  8
YODOROGO
 10
29001.60434129191
 20
2027.749496429288
 30
0.0
 11
29001.60434129191
 21
1619.749496429288
 31
0.0
  0
LINE
  5
63999
  8
YODOROGO
 10
29073.604341291921
 20
1579.749496429288
 30
0.0
 11
29073.604341291921
 21
2027.749496429288
 31
0.0
  0
LINE
  5
6399A
  8
YODOROGO
 10
29261.604341291921
 20
1491.749496429286
 30
0.0
 11
29261.604341291921
 21
2007.749496429288
 31
0.0
  0
LINE
  5
6399B
  8
YODOROGO
 10
29197.604341291921
 20
2007.749496429288
 30
0.0
 11
29197.604341291921
 21
1491.749496429286
 31
0.0
  0
LINE
  5
6399C
  8
YODOROGO
 10
29385.604341291921
 20
2027.749496429288
 30
0.0
 11
29385.604341291921
 21
1427.749496429288
 31
0.0
  0
LINE
  5
6399D
  8
YODOROGO
 10
29457.604341291921
 20
1427.749496429288
 30
0.0
 11
29457.604341291921
 21
2027.749496429288
 31
0.0
  0
LINE
  5
6399E
  8
YODOROGO
 10
28657.60434129191
 20
1667.749496429288
 30
0.0
 11
28657.60434129191
 21
1747.74949642929
 31
0.0
  0
LINE
  5
6399F
  8
YODOROGO
 10
29885.604341291921
 20
1707.749496429288
 30
0.0
 11
29885.604341291921
 21
1667.749496429288
 31
0.0
  0
LINE
  5
639A0
  8
YODOROGO
 10
29885.604341291921
 20
1707.749496429288
 30
0.0
 11
29885.604341291921
 21
1667.749496429288
 31
0.0
  0
ARC
  5
639A1
  8
YODOROGO
 10
28906.911576186842
 20
1618.2178644422729
 30
0.0
 40
94.705151178741659
 50
274.0524416290711
 51
0.9266642149310712
  0
ARC
  5
639A2
  8
YODOROGO
 10
28909.18617071983
 20
1592.61072861044
 30
0.0
 40
164.92042356085511
 50
271.53512106537778
 51
355.52727750585058
  0
LINE
  5
639A3
  8
YODOROGO
 10
28913.604341291921
 20
1523.7494964292871
 30
0.0
 11
28913.604341291921
 21
1427.749496429288
 31
0.0
  0
LINE
  5
639A4
  8
YODOROGO
 10
28793.60434129191
 20
1667.749496429288
 30
0.0
 11
28657.60434129191
 21
1667.749496429288
 31
0.0
  0
LINE
  5
639A5
  8
YODOROGO
 10
28793.60434129191
 20
1603.7494964292889
 30
0.0
 11
28793.60434129191
 21
1667.749496429288
 31
0.0
  0
LINE
  5
639A6
  8
YODOROGO
 10
28657.60434129191
 20
1603.7494964292889
 30
0.0
 11
28793.60434129191
 21
1603.7494964292889
 31
0.0
  0
LINE
  5
639A7
  8
YODOROGO
 10
28657.60434129191
 20
1523.7494964292871
 30
0.0
 11
28657.60434129191
 21
1603.7494964292889
 31
0.0
  0
LINE
  5
639A8
  8
YODOROGO
 10
28793.60434129191
 20
1523.7494964292871
 30
0.0
 11
28657.60434129191
 21
1523.7494964292871
 31
0.0
  0
LINE
  5
639A9
  8
YODOROGO
 10
28793.60434129191
 20
1427.749496429288
 30
0.0
 11
28793.60434129191
 21
1523.7494964292871
 31
0.0
  0
LINE
  5
639AA
  8
YODOROGO
 10
29197.604341291921
 20
1491.749496429286
 30
0.0
 11
29261.604341291921
 21
1491.749496429286
 31
0.0
  0
LINE
  5
639AB
  8
YODOROGO
 10
29385.604341291921
 20
1427.749496429288
 30
0.0
 11
29457.604341291921
 21
1427.749496429288
 31
0.0
  0
LINE
  5
639AC
  8
YODOROGO
 10
29737.604341291921
 20
1528.4414521705639
 30
0.0
 11
29737.604341291921
 21
1427.749496429288
 31
0.0
  0
LINE
  5
639AD
  8
YODOROGO
 10
29617.604341291921
 20
1427.749496429288
 30
0.0
 11
29737.604341291921
 21
1528.4414521705639
 31
0.0
  0
LINE
  5
639AE
  8
YODOROGO
 10
29617.604341291921
 20
1547.749496429288
 30
0.0
 11
29617.604341291921
 21
1427.749496429288
 31
0.0
  0
LINE
  5
639AF
  8
YODOROGO
 10
29712.944628699461
 20
1627.749496429288
 30
0.0
 11
29617.604341291921
 21
1547.749496429288
 31
0.0
  0
LINE
  5
639B0
  8
YODOROGO
 10
29617.604341291921
 20
1627.749496429288
 30
0.0
 11
29712.944628699461
 21
1627.749496429288
 31
0.0
  0
LINE
  5
639B1
  8
YODOROGO
 10
29617.604341291921
 20
1667.749496429288
 30
0.0
 11
29617.604341291921
 21
1627.749496429288
 31
0.0
  0
LINE
  5
639B2
  8
YODOROGO
 10
29885.604341291921
 20
1667.749496429288
 30
0.0
 11
29617.604341291921
 21
1667.749496429288
 31
0.0
  0
LINE
  5
639B3
  8
YODOROGO
 10
29917.604341291921
 20
1627.749496429288
 30
0.0
 11
29777.604341291921
 21
1627.749496429288
 31
0.0
  0
LINE
  5
639B4
  8
YODOROGO
 10
29777.604341291921
 20
1562.005437417657
 30
0.0
 11
29771.40987298531
 21
1556.807661346234
 31
0.0
  0
LINE
  5
639B5
  8
YODOROGO
 10
29777.604341291921
 20
1627.749496429288
 30
0.0
 11
29777.604341291921
 21
1562.005437417657
 31
0.0
  0
LINE
  5
639B6
  8
YODOROGO
 10
29737.604341291921
 20
1528.4414521705639
 30
0.0
 11
29737.604341291921
 21
1427.749496429288
 31
0.0
  0
LINE
  5
639B7
  8
YODOROGO
 10
29617.604341291921
 20
1427.749496429288
 30
0.0
 11
29737.604341291921
 21
1528.4414521705639
 31
0.0
  0
LINE
  5
639B8
  8
YODOROGO
 10
29617.604341291921
 20
1547.749496429288
 30
0.0
 11
29617.604341291921
 21
1427.749496429288
 31
0.0
  0
LINE
  5
639B9
  8
YODOROGO
 10
29712.944628699461
 20
1627.749496429288
 30
0.0
 11
29617.604341291921
 21
1547.749496429288
 31
0.0
  0
LINE
  5
639BA
  8
YODOROGO
 10
29617.604341291921
 20
1627.749496429288
 30
0.0
 11
29712.944628699461
 21
1627.749496429288
 31
0.0
  0
LINE
  5
639BB
  8
YODOROGO
 10
29617.604341291921
 20
1667.749496429288
 30
0.0
 11
29617.604341291921
 21
1627.749496429288
 31
0.0
  0
LINE
  5
639BC
  8
YODOROGO
 10
29885.604341291921
 20
1667.749496429288
 30
0.0
 11
29617.604341291921
 21
1667.749496429288
 31
0.0
  0
LINE
  5
639BD
  8
YODOROGO
 10
28793.60434129191
 20
1747.74949642929
 30
0.0
 11
28793.60434129191
 21
1819.749496429288
 31
0.0
  0
LINE
  5
639BE
  8
YODOROGO
 10
28657.60434129191
 20
1747.74949642929
 30
0.0
 11
28793.60434129191
 21
1747.74949642929
 31
0.0
  0
LINE
  5
639BF
  8
YODOROGO
 10
28729.604341291921
 20
1867.749496429288
 30
0.0
 11
28729.604341291921
 21
1923.7494964292871
 31
0.0
  0
LINE
  5
639C0
  8
YODOROGO
 10
28793.60434129191
 20
1867.749496429288
 30
0.0
 11
28729.604341291921
 21
1867.749496429288
 31
0.0
  0
LINE
  5
639C1
  8
YODOROGO
 10
28793.60434129191
 20
1947.749496429288
 30
0.0
 11
28793.60434129191
 21
1867.749496429288
 31
0.0
  0
ARC
  5
639C2
  8
YODOROGO
 10
28753.60434129191
 20
1947.749496429288
 30
0.0
 40
40.0
 50
0.0
 51
90.0
  0
LINE
  5
639C3
  8
YODOROGO
 10
28657.604341291921
 20
1987.749496429288
 30
0.0
 11
28753.60434129191
 21
1987.749496429288
 31
0.0
  0
LINE
  5
639C4
  8
YODOROGO
 10
28657.604341291921
 20
2027.749496429288
 30
0.0
 11
28657.604341291921
 21
1987.749496429288
 31
0.0
  0
LINE
  5
639C5
  8
YODOROGO
 10
29073.604341291921
 20
2027.749496429288
 30
0.0
 11
29001.60434129191
 21
2027.749496429288
 31
0.0
  0
LINE
  5
639C6
  8
YODOROGO
 10
29261.604341291921
 20
2007.749496429288
 30
0.0
 11
29197.604341291921
 21
2007.749496429288
 31
0.0
  0
LINE
  5
639C7
  8
YODOROGO
 10
29457.604341291921
 20
2027.749496429288
 30
0.0
 11
29385.604341291921
 21
2027.749496429288
 31
0.0
  0
LINE
  5
639C8
  8
YODOROGO
 10
29673.604341291921
 20
1707.749496429288
 30
0.0
 11
29673.604341291921
 21
1771.749496429288
 31
0.0
1001
AUTOCAD_POSTSCRIPT_FIGURE
1002
{
1000
PSFILL
1000
Grayscale
1000
Grayscale
1070
    25
1002
}
  0
LINE
  5
639C9
  8
YODOROGO
 10
29617.604341291921
 20
1707.749496429288
 30
0.0
 11
29673.604341291921
 21
1707.749496429288
 31
0.0
1001
AUTOCAD_POSTSCRIPT_FIGURE
1002
{
1000
PSFILL
1000
Grayscale
1000
Grayscale
1070
    25
1002
}
  0
LINE
  5
639CA
  8
YODOROGO
 10
29617.604341291921
 20
1819.749496429288
 30
0.0
 11
29617.604341291921
 21
1707.749496429288
 31
0.0
1001
AUTOCAD_POSTSCRIPT_FIGURE
1002
{
1000
PSFILL
1000
Grayscale
1000
Grayscale
1070
    25
1002
}
  0
LINE
  5
639CB
  8
YODOROGO
 10
29765.604341291921
 20
1819.749496429288
 30
0.0
 11
29617.604341291921
 21
1819.749496429288
 31
0.0
1001
AUTOCAD_POSTSCRIPT_FIGURE
1002
{
1000
PSFILL
1000
Grayscale
1000
Grayscale
1070
    25
1002
}
  0
LINE
  5
639CC
  8
YODOROGO
 10
29765.604341291921
 20
1859.749496429288
 30
0.0
 11
29765.604341291921
 21
1819.749496429288
 31
0.0
1001
AUTOCAD_POSTSCRIPT_FIGURE
1002
{
1000
PSFILL
1000
Grayscale
1000
Grayscale
1070
    25
1002
}
  0
LINE
  5
639CD
  8
YODOROGO
 10
29617.604341291921
 20
1859.749496429288
 30
0.0
 11
29765.604341291921
 21
1859.749496429288
 31
0.0
1001
AUTOCAD_POSTSCRIPT_FIGURE
1002
{
1000
PSFILL
1000
Grayscale
1000
Grayscale
1070
    25
1002
}
  0
LINE
  5
639CE
  8
YODOROGO
 10
29617.604341291921
 20
1907.7494964292871
 30
0.0
 11
29617.604341291921
 21
1859.749496429288
 31
0.0
1001
AUTOCAD_POSTSCRIPT_FIGURE
1002
{
1000
PSFILL
1000
Grayscale
1000
Grayscale
1070
    25
1002
}
  0
LINE
  5
639CF
  8
YODOROGO
 10
29765.604341291921
 20
1907.7494964292871
 30
0.0
 11
29617.604341291921
 21
1907.7494964292871
 31
0.0
1001
AUTOCAD_POSTSCRIPT_FIGURE
1002
{
1000
PSFILL
1000
Grayscale
1000
Grayscale
1070
    25
1002
}
  0
LINE
  5
639D0
  8
YODOROGO
 10
29765.604341291921
 20
1947.749496429288
 30
0.0
 11
29765.604341291921
 21
1907.7494964292871
 31
0.0
1001
AUTOCAD_POSTSCRIPT_FIGURE
1002
{
1000
PSFILL
1000
Grayscale
1000
Grayscale
1070
    25
1002
}
  0
LINE
  5
639D1
  8
YODOROGO
 10
29617.604341291921
 20
1947.749496429288
 30
0.0
 11
29765.604341291921
 21
1947.749496429288
 31
0.0
1001
AUTOCAD_POSTSCRIPT_FIGURE
1002
{
1000
PSFILL
1000
Grayscale
1000
Grayscale
1070
    25
1002
}
  0
LINE
  5
639D2
  8
YODOROGO
 10
29617.604341291921
 20
2027.749496429288
 30
0.0
 11
29617.604341291921
 21
1947.749496429288
 31
0.0
1001
AUTOCAD_POSTSCRIPT_FIGURE
1002
{
1000
PSFILL
1000
Grayscale
1000
Grayscale
1070
    25
1002
}
  0
LINE
  5
639D3
  8
YODOROGO
 10
29665.604341291921
 20
2027.749496429288
 30
0.0
 11
29617.604341291921
 21
2027.749496429288
 31
0.0
1001
AUTOCAD_POSTSCRIPT_FIGURE
1002
{
1000
PSFILL
1000
Grayscale
1000
Grayscale
1070
    25
1002
}
  0
LINE
  5
639D4
  8
YODOROGO
 10
29665.604341291921
 20
1995.7494964292871
 30
0.0
 11
29665.604341291921
 21
2027.749496429288
 31
0.0
1001
AUTOCAD_POSTSCRIPT_FIGURE
1002
{
1000
PSFILL
1000
Grayscale
1000
Grayscale
1070
    25
1002
}
  0
LINE
  5
639D5
  8
YODOROGO
 10
29765.604341291921
 20
1995.7494964292871
 30
0.0
 11
29665.604341291921
 21
1995.7494964292871
 31
0.0
1001
AUTOCAD_POSTSCRIPT_FIGURE
1002
{
1000
PSFILL
1000
Grayscale
1000
Grayscale
1070
    25
1002
}
  0
LINE
  5
639D6
  8
YODOROGO
 10
29765.604341291921
 20
2027.749496429288
 30
0.0
 11
29765.604341291921
 21
1995.7494964292871
 31
0.0
1001
AUTOCAD_POSTSCRIPT_FIGURE
1002
{
1000
PSFILL
1000
Grayscale
1000
Grayscale
1070
    25
1002
}
  0
LINE
  5
639D7
  8
YODOROGO
 10
29829.604341291921
 20
2027.749496429288
 30
0.0
 11
29765.604341291921
 21
2027.749496429288
 31
0.0
1001
AUTOCAD_POSTSCRIPT_FIGURE
1002
{
1000
PSFILL
1000
Grayscale
1000
Grayscale
1070
    25
1002
}
  0
LINE
  5
639D8
  8
YODOROGO
 10
29829.604341291921
 20
1995.7494964292871
 30
0.0
 11
29829.604341291921
 21
2027.749496429288
 31
0.0
1001
AUTOCAD_POSTSCRIPT_FIGURE
1002
{
1000
PSFILL
1000
Grayscale
1000
Grayscale
1070
    25
1002
}
  0
LINE
  5
639D9
  8
YODOROGO
 10
29829.604341291921
 20
1907.7494964292871
 30
0.0
 11
29829.604341291921
 21
1947.749496429288
 31
0.0
1001
AUTOCAD_POSTSCRIPT_FIGURE
1002
{
1000
PSFILL
1000
Grayscale
1000
Grayscale
1070
    25
1002
}
  0
LINE
  5
639DA
  8
YODOROGO
 10
29829.604341291921
 20
1819.749496429288
 30
0.0
 11
29829.604341291921
 21
1859.749496429288
 31
0.0
1001
AUTOCAD_POSTSCRIPT_FIGURE
1002
{
1000
PSFILL
1000
Grayscale
1000
Grayscale
1070
    25
1002
}
  0
LINE
  5
639DB
  8
YODOROGO
 10
29921.60434129191
 20
1771.749496429288
 30
0.0
 11
29921.60434129191
 21
1707.749496429288
 31
0.0
1001
AUTOCAD_POSTSCRIPT_FIGURE
1002
{
1000
PSFILL
1000
Grayscale
1000
Grayscale
1070
    25
1002
}
  0
LINE
  5
639DC
  8
YODOROGO
 10
29829.604341291921
 20
1771.749496429288
 30
0.0
 11
29921.60434129191
 21
1771.749496429288
 31
0.0
1001
AUTOCAD_POSTSCRIPT_FIGURE
1002
{
1000
PSFILL
1000
Grayscale
1000
Grayscale
1070
    25
1002
}
  0
LINE
  5
639DD
  8
YODOROGO
 10
29829.604341291921
 20
1707.749496429288
 30
0.0
 11
29829.604341291921
 21
1771.749496429288
 31
0.0
1001
AUTOCAD_POSTSCRIPT_FIGURE
1002
{
1000
PSFILL
1000
Grayscale
1000
Grayscale
1070
    25
1002
}
  0
LINE
  5
639DE
  8
YODOROGO
 10
29765.604341291921
 20
1707.749496429288
 30
0.0
 11
29829.604341291921
 21
1707.749496429288
 31
0.0
1001
AUTOCAD_POSTSCRIPT_FIGURE
1002
{
1000
PSFILL
1000
Grayscale
1000
Grayscale
1070
    25
1002
}
  0
LINE
  5
639DF
  8
YODOROGO
 10
29765.604341291921
 20
1771.749496429288
 30
0.0
 11
29765.604341291921
 21
1707.749496429288
 31
0.0
1001
AUTOCAD_POSTSCRIPT_FIGURE
1002
{
1000
PSFILL
1000
Grayscale
1000
Grayscale
1070
    25
1002
}
  0
LINE
  5
639E0
  8
YODOROGO
 10
29673.604341291921
 20
1771.749496429288
 30
0.0
 11
29765.604341291921
 21
1771.749496429288
 31
0.0
1001
AUTOCAD_POSTSCRIPT_FIGURE
1002
{
1000
PSFILL
1000
Grayscale
1000
Grayscale
1070
    25
1002
}
  0
ARC
  5
639E1
  8
YODOROGO
 10
31059.517893357912
 20
1602.6807375155761
 30
0.0
 40
178.22128111072149
 50
281.02627495425361
 51
357.77113575573799
  0
LINE
  5
639E2
  8
YODOROGO
 10
31413.604341291921
 20
1907.7494964292871
 30
0.0
 11
31165.604341291921
 21
1907.7494964292871
 31
0.0
  0
LINE
  5
639E3
  8
YODOROGO
 10
31413.604341291921
 20
2027.749496429288
 30
0.0
 11
31165.604341291921
 21
2027.749496429288
 31
0.0
  0
LINE
  5
639E4
  8
YODOROGO
 10
31165.604341291921
 20
1963.7494964292871
 30
0.0
 11
31413.604341291921
 21
1963.7494964292871
 31
0.0
  0
LINE
  5
639E5
  8
YODOROGO
 10
30791.604341291921
 20
1563.7494964292871
 30
0.0
 11
30791.604341291921
 21
1755.7494964292871
 31
0.0
  0
LINE
  5
639E6
  8
YODOROGO
 10
30763.604341291921
 20
1691.7494964292889
 30
0.0
 11
30763.604341291921
 21
1563.7494964292871
 31
0.0
  0
LINE
  5
639E7
  8
YODOROGO
 10
30723.604341291921
 20
1491.7494964292889
 30
0.0
 11
30723.604341291921
 21
1691.7494964292889
 31
0.0
  0
LINE
  5
639E8
  8
YODOROGO
 10
30899.604341291932
 20
1691.7494964292889
 30
0.0
 11
30899.604341291932
 21
1491.7494964292889
 31
0.0
  0
LINE
  5
639E9
  8
YODOROGO
 10
30859.604341291932
 20
1563.7494964292871
 30
0.0
 11
30859.604341291932
 21
1691.7494964292889
 31
0.0
  0
LINE
  5
639EA
  8
YODOROGO
 10
30831.604341291921
 20
1755.7494964292871
 30
0.0
 11
30831.604341291921
 21
1563.7494964292871
 31
0.0
  0
LINE
  5
639EB
  8
YODOROGO
 10
30973.604341291921
 20
2027.749496429288
 30
0.0
 11
30973.604341291921
 21
1467.749496429288
 31
0.0
  0
LINE
  5
639EC
  8
YODOROGO
 10
30645.604341291921
 20
1427.749496429288
 30
0.0
 11
30645.604341291921
 21
2027.749496429288
 31
0.0
  0
LINE
  5
639ED
  8
YODOROGO
 10
30697.604341291932
 20
1963.7494964292871
 30
0.0
 11
30697.604341291932
 21
1427.749496429288
 31
0.0
  0
LINE
  5
639EE
  8
YODOROGO
 10
30925.604341291921
 20
1547.749496429288
 30
0.0
 11
30925.604341291921
 21
1963.7494964292871
 31
0.0
  0
LINE
  5
639EF
  8
YODOROGO
 10
30381.604341291932
 20
1627.749496429288
 30
0.0
 11
30381.604341291932
 21
1679.749496429288
 31
0.0
  0
LINE
  5
639F0
  8
YODOROGO
 10
30617.604341291921
 20
1679.749496429288
 30
0.0
 11
30617.604341291921
 21
1627.749496429288
 31
0.0
  0
LINE
  5
639F1
  8
YODOROGO
 10
31165.604341291921
 20
1907.7494964292871
 30
0.0
 11
31165.604341291921
 21
1635.7494964292871
 31
0.0
  0
LINE
  5
639F2
  8
YODOROGO
 10
29949.604341291921
 20
1667.749496429288
 30
0.0
 11
29949.604341291921
 21
1707.749496429288
 31
0.0
  0
LINE
  5
639F3
  8
YODOROGO
 10
29949.604341291921
 20
1667.749496429288
 30
0.0
 11
29949.604341291921
 21
1707.749496429288
 31
0.0
  0
ARC
  5
639F4
  8
YODOROGO
 10
30537.604341291921
 20
1507.749496429288
 30
0.0
 40
80.0
 50
270.0
 51
0.0
  0
LINE
  5
639F5
  8
YODOROGO
 10
30569.604341291921
 20
1599.749496429288
 30
0.0
 11
30617.604341291921
 21
1599.749496429288
 31
0.0
  0
LINE
  5
639F6
  8
YODOROGO
 10
30617.604341291921
 20
1627.749496429288
 30
0.0
 11
30529.604341291932
 21
1627.749496429288
 31
0.0
  0
LINE
  5
639F7
  8
YODOROGO
 10
30217.604341291921
 20
1667.749496429288
 30
0.0
 11
29949.604341291921
 21
1667.749496429288
 31
0.0
  0
LINE
  5
639F8
  8
YODOROGO
 10
30217.604341291921
 20
1627.749496429288
 30
0.0
 11
30217.604341291921
 21
1667.749496429288
 31
0.0
  0
LINE
  5
639F9
  8
YODOROGO
 10
30017.604341291921
 20
1627.749496429288
 30
0.0
 11
30217.604341291921
 21
1627.749496429288
 31
0.0
  0
ARC
  5
639FA
  8
YODOROGO
 10
30230.058828701371
 20
1868.8857149529019
 30
0.0
 40
321.37763628522828
 50
228.6181454618993
 51
245.660289248906
  0
LINE
  5
639FB
  8
YODOROGO
 10
30105.604341291921
 20
1603.7494964292889
 30
0.0
 11
30097.604341291961
 21
1576.0728158699001
 31
0.0
  0
LINE
  5
639FC
  8
YODOROGO
 10
30189.604341291921
 20
1603.7494964292889
 30
0.0
 11
30105.604341291921
 21
1603.7494964292889
 31
0.0
  0
LINE
  5
639FD
  8
YODOROGO
 10
30177.604341291921
 20
1551.817722473427
 30
0.0
 11
30189.604341291921
 21
1603.7494964292889
 31
0.0
  0
ARC
  5
639FE
  8
YODOROGO
 10
30230.058828700461
 20
1868.8857149530029
 30
0.0
 40
321.37763628529092
 50
260.60629297969928
 51
267.77903556555862
  0
LINE
  5
639FF
  8
YODOROGO
 10
30217.604341291921
 20
1427.749496429285
 30
0.0
 11
30217.604341291921
 21
1547.749496429288
 31
0.0
  0
LINE
  5
63A00
  8
YODOROGO
 10
29937.604341291932
 20
1481.339334915511
 30
0.0
 11
29937.604341291921
 21
1594.531090531141
 31
0.0
  0
LINE
  5
63A01
  8
YODOROGO
 10
30217.604341291921
 20
1667.749496429288
 30
0.0
 11
29949.604341291921
 21
1667.749496429288
 31
0.0
  0
LINE
  5
63A02
  8
YODOROGO
 10
30217.604341291921
 20
1627.749496429288
 30
0.0
 11
30217.604341291921
 21
1667.749496429288
 31
0.0
  0
LINE
  5
63A03
  8
YODOROGO
 10
30017.604341291921
 20
1627.749496429288
 30
0.0
 11
30217.604341291921
 21
1627.749496429288
 31
0.0
  0
ARC
  5
63A04
  8
YODOROGO
 10
30230.058828701371
 20
1868.8857149529019
 30
0.0
 40
321.37763628522828
 50
228.6181454618993
 51
245.660289248906
  0
LINE
  5
63A05
  8
YODOROGO
 10
30105.604341291921
 20
1603.7494964292889
 30
0.0
 11
30097.604341291961
 21
1576.0728158699001
 31
0.0
  0
LINE
  5
63A06
  8
YODOROGO
 10
30189.604341291921
 20
1603.7494964292889
 30
0.0
 11
30105.604341291921
 21
1603.7494964292889
 31
0.0
  0
LINE
  5
63A07
  8
YODOROGO
 10
30177.604341291921
 20
1551.817722473427
 30
0.0
 11
30189.604341291921
 21
1603.7494964292889
 31
0.0
  0
ARC
  5
63A08
  8
YODOROGO
 10
30230.058828700461
 20
1868.8857149530029
 30
0.0
 40
321.37763628529092
 50
260.60629297969928
 51
267.77903556555862
  0
LINE
  5
63A09
  8
YODOROGO
 10
30217.604341291921
 20
1427.749496429285
 30
0.0
 11
30217.604341291921
 21
1547.749496429288
 31
0.0
  0
LINE
  5
63A0A
  8
YODOROGO
 10
29937.604341291932
 20
1481.339334915511
 30
0.0
 11
29937.604341291921
 21
1594.531090531141
 31
0.0
  0
LINE
  5
63A0B
  8
YODOROGO
 10
30433.604341291932
 20
1573.7494964292889
 30
0.0
 11
30381.604341291932
 21
1573.7494964292889
 31
0.0
  0
LINE
  5
63A0C
  8
YODOROGO
 10
30433.604341291932
 20
1601.749496429286
 30
0.0
 11
30433.604341291932
 21
1573.7494964292889
 31
0.0
  0
LINE
  5
63A0D
  8
YODOROGO
 10
30381.604341291932
 20
1601.749496429286
 30
0.0
 11
30433.604341291932
 21
1601.749496429286
 31
0.0
  0
LINE
  5
63A0E
  8
YODOROGO
 10
30381.604341291932
 20
1573.7494964292889
 30
0.0
 11
30381.604341291932
 21
1601.749496429286
 31
0.0
  0
LINE
  5
63A0F
  8
YODOROGO
 10
30429.604341291921
 20
1577.7494964292871
 30
0.0
 11
30385.604341291932
 21
1577.7494964292871
 31
0.0
  0
LINE
  5
63A10
  8
YODOROGO
 10
30429.604341291921
 20
1597.749496429288
 30
0.0
 11
30429.604341291921
 21
1577.7494964292871
 31
0.0
  0
LINE
  5
63A11
  8
YODOROGO
 10
30385.604341291932
 20
1597.749496429288
 30
0.0
 11
30429.604341291921
 21
1597.749496429288
 31
0.0
  0
LINE
  5
63A12
  8
YODOROGO
 10
30385.604341291932
 20
1577.7494964292871
 30
0.0
 11
30385.604341291932
 21
1597.749496429288
 31
0.0
  0
LINE
  5
63A13
  8
YODOROGO
 10
30425.604341291921
 20
1581.749496429286
 30
0.0
 11
30389.604341291932
 21
1581.749496429286
 31
0.0
  0
LINE
  5
63A14
  8
YODOROGO
 10
30425.604341291932
 20
1593.7494964292889
 30
0.0
 11
30425.604341291921
 21
1581.749496429286
 31
0.0
  0
LINE
  5
63A15
  8
YODOROGO
 10
30389.604341291932
 20
1593.7494964292889
 30
0.0
 11
30425.604341291932
 21
1593.7494964292889
 31
0.0
  0
LINE
  5
63A16
  8
YODOROGO
 10
30389.604341291932
 20
1581.749496429286
 30
0.0
 11
30389.604341291932
 21
1593.7494964292889
 31
0.0
  0
LINE
  5
63A17
  8
YODOROGO
 10
30421.604341291932
 20
1585.7494964292871
 30
0.0
 11
30393.604341291932
 21
1585.7494964292871
 31
0.0
  0
LINE
  5
63A18
  8
YODOROGO
 10
30421.604341291932
 20
1589.749496429288
 30
0.0
 11
30421.604341291932
 21
1585.7494964292871
 31
0.0
  0
LINE
  5
63A19
  8
YODOROGO
 10
30393.604341291932
 20
1589.749496429288
 30
0.0
 11
30421.604341291932
 21
1589.749496429288
 31
0.0
  0
LINE
  5
63A1A
  8
YODOROGO
 10
30393.604341291932
 20
1585.7494964292871
 30
0.0
 11
30393.604341291932
 21
1589.749496429288
 31
0.0
  0
LINE
  5
63A1B
  8
YODOROGO
 10
30465.604341291921
 20
1627.749496429288
 30
0.0
 11
30381.604341291932
 21
1627.749496429288
 31
0.0
  0
LINE
  5
63A1C
  8
YODOROGO
 10
30465.604341291921
 20
1547.749496429288
 30
0.0
 11
30465.604341291921
 21
1627.749496429288
 31
0.0
  0
LINE
  5
63A1D
  8
YODOROGO
 10
30381.604341291932
 20
1547.749496429288
 30
0.0
 11
30465.604341291921
 21
1547.749496429288
 31
0.0
  0
LINE
  5
63A1E
  8
YODOROGO
 10
30381.604341291932
 20
1427.749496429288
 30
0.0
 11
30381.604341291932
 21
1547.749496429288
 31
0.0
  0
LINE
  5
63A1F
  8
YODOROGO
 10
30537.604341291921
 20
1427.749496429288
 30
0.0
 11
30381.604341291932
 21
1427.749496429288
 31
0.0
  0
LINE
  5
63A20
  8
YODOROGO
 10
30569.604341291921
 20
1571.749496429286
 30
0.0
 11
30569.604341291921
 21
1599.749496429288
 31
0.0
  0
ARC
  5
63A21
  8
YODOROGO
 10
30545.60434129191
 20
1571.749496429291
 30
0.0
 40
24.000000000003752
 50
270.0
 51
359.99999999998778
  0
LINE
  5
63A22
  8
YODOROGO
 10
30529.604341291932
 20
1547.749496429288
 30
0.0
 11
30545.60434129191
 21
1547.749496429288
 31
0.0
  0
LINE
  5
63A23
  8
YODOROGO
 10
30529.604341291932
 20
1627.749496429288
 30
0.0
 11
30529.604341291932
 21
1547.749496429288
 31
0.0
  0
LINE
  5
63A24
  8
YODOROGO
 10
30899.604341291932
 20
1547.749496429288
 30
0.0
 11
30925.604341291921
 21
1547.749496429288
 31
0.0
  0
LINE
  5
63A25
  8
YODOROGO
 10
30933.604341291921
 20
1427.749496429288
 30
0.0
 11
30899.604341291932
 21
1427.749496429288
 31
0.0
  0
LINE
  5
63A26
  8
YODOROGO
 10
30763.604341291921
 20
1563.7494964292871
 30
0.0
 11
30791.604341291921
 21
1563.7494964292871
 31
0.0
  0
LINE
  5
63A27
  8
YODOROGO
 10
30899.604341291932
 20
1491.7494964292889
 30
0.0
 11
30723.604341291921
 21
1491.7494964292889
 31
0.0
  0
LINE
  5
63A28
  8
YODOROGO
 10
30831.604341291921
 20
1563.7494964292871
 30
0.0
 11
30859.604341291932
 21
1563.7494964292871
 31
0.0
  0
LINE
  5
63A29
  8
YODOROGO
 10
30899.604341291932
 20
1427.749496429288
 30
0.0
 11
30899.604341291932
 21
1547.749496429288
 31
0.0
  0
LINE
  5
63A2A
  8
YODOROGO
 10
30697.604341291932
 20
1427.749496429288
 30
0.0
 11
30645.604341291921
 21
1427.749496429288
 31
0.0
  0
LINE
  5
63A2B
  8
YODOROGO
 10
30617.604341291921
 20
1599.749496429288
 30
0.0
 11
30617.604341291921
 21
1507.749496429288
 31
0.0
  0
ARC
  5
63A2C
  8
YODOROGO
 10
30933.604341291921
 20
1467.749496429288
 30
0.0
 40
40.0
 50
270.0
 51
0.0
  0
LINE
  5
63A2D
  8
YODOROGO
 10
31093.604341291921
 20
1523.7494964292871
 30
0.0
 11
31093.604341291921
 21
1427.749496429288
 31
0.0
  0
ARC
  5
63A2E
  8
YODOROGO
 10
31039.721395566779
 20
1637.5313901097329
 30
0.0
 40
125.8955565916754
 50
295.34052442160112
 51
359.18902303418668
  0
LINE
  5
63A2F
  8
YODOROGO
 10
30617.604341291921
 20
1859.749496429288
 30
0.0
 11
30497.604341291921
 21
1939.749496429288
 31
0.0
  0
LINE
  5
63A30
  8
YODOROGO
 10
30497.604341291921
 20
2027.749496429288
 30
0.0
 11
30617.604341291921
 21
1947.749496429288
 31
0.0
  0
LINE
  5
63A31
  8
YODOROGO
 10
30529.604341291932
 20
1679.749496429288
 30
0.0
 11
30617.604341291921
 21
1679.749496429288
 31
0.0
  0
LINE
  5
63A32
  8
YODOROGO
 10
30617.604341291921
 20
1735.7494964292871
 30
0.0
 11
30529.604341291932
 21
1735.7494964292871
 31
0.0
  0
LINE
  5
63A33
  8
YODOROGO
 10
30381.604341291932
 20
1795.7494964292871
 30
0.0
 11
30617.604341291921
 21
1795.7494964292871
 31
0.0
  0
LINE
  5
63A34
  8
YODOROGO
 10
30081.604341291932
 20
2027.749496429288
 30
0.0
 11
30021.604341291921
 21
2027.749496429288
 31
0.0
  0
LINE
  5
63A35
  8
YODOROGO
 10
30081.604341291932
 20
1827.7494964292871
 30
0.0
 11
30081.604341291932
 21
2027.749496429288
 31
0.0
  0
LINE
  5
63A36
  8
YODOROGO
 10
30021.604341291921
 20
1827.7494964292871
 30
0.0
 11
30081.604341291932
 21
1827.7494964292871
 31
0.0
  0
LINE
  5
63A37
  8
YODOROGO
 10
30021.604341291921
 20
2027.749496429288
 30
0.0
 11
30021.604341291921
 21
1827.7494964292871
 31
0.0
  0
LINE
  5
63A38
  8
YODOROGO
 10
30161.604341291932
 20
2027.749496429288
 30
0.0
 11
30217.604341291921
 21
2027.749496429288
 31
0.0
  0
LINE
  5
63A39
  8
YODOROGO
 10
30161.604341291932
 20
1811.7494964292889
 30
0.0
 11
30161.604341291932
 21
2027.749496429288
 31
0.0
  0
ARC
  5
63A3A
  8
YODOROGO
 10
30121.604341291932
 20
1811.7494964292889
 30
0.0
 40
40.0
 50
270.0
 51
0.0
  0
LINE
  5
63A3B
  8
YODOROGO
 10
30021.604341291921
 20
1771.749496429288
 30
0.0
 11
30121.604341291932
 21
1771.749496429288
 31
0.0
  0
LINE
  5
63A3C
  8
YODOROGO
 10
30021.604341291921
 20
1707.749496429288
 30
0.0
 11
30021.604341291921
 21
1771.749496429288
 31
0.0
  0
LINE
  5
63A3D
  8
YODOROGO
 10
30137.604341291921
 20
1707.749496429288
 30
0.0
 11
30021.604341291921
 21
1707.749496429288
 31
0.0
  0
ARC
  5
63A3E
  8
YODOROGO
 10
30137.604341291921
 20
1787.749496429288
 30
0.0
 40
80.0
 50
270.0
 51
0.0
  0
LINE
  5
63A3F
  8
YODOROGO
 10
30217.604341291921
 20
2027.749496429288
 30
0.0
 11
30217.604341291921
 21
1787.749496429288
 31
0.0
  0
LINE
  5
63A40
  8
YODOROGO
 10
29977.604341291921
 20
1947.749496429288
 30
0.0
 11
29977.604341291921
 21
1995.7494964292871
 31
0.0
1001
AUTOCAD_POSTSCRIPT_FIGURE
1002
{
1000
PSFILL
1000
Grayscale
1000
Grayscale
1070
    25
1002
}
  0
LINE
  5
63A41
  8
YODOROGO
 10
29977.604341291921
 20
1859.749496429288
 30
0.0
 11
29977.604341291921
 21
1907.7494964292871
 31
0.0
1001
AUTOCAD_POSTSCRIPT_FIGURE
1002
{
1000
PSFILL
1000
Grayscale
1000
Grayscale
1070
    25
1002
}
  0
LINE
  5
63A42
  8
YODOROGO
 10
29977.604341291921
 20
1707.749496429288
 30
0.0
 11
29977.604341291921
 21
1819.749496429288
 31
0.0
1001
AUTOCAD_POSTSCRIPT_FIGURE
1002
{
1000
PSFILL
1000
Grayscale
1000
Grayscale
1070
    25
1002
}
  0
LINE
  5
63A43
  8
YODOROGO
 10
30381.604341291932
 20
1907.7494964292871
 30
0.0
 11
30497.604341291921
 21
2027.749496429288
 31
0.0
  0
LINE
  5
63A44
  8
YODOROGO
 10
30381.604341291932
 20
1819.749496429288
 30
0.0
 11
30381.604341291932
 21
1907.7494964292871
 31
0.0
  0
LINE
  5
63A45
  8
YODOROGO
 10
30497.604341291921
 20
1939.749496429288
 30
0.0
 11
30381.604341291932
 21
1819.749496429288
 31
0.0
  0
LINE
  5
63A46
  8
YODOROGO
 10
30465.604341291921
 20
1679.749496429288
 30
0.0
 11
30465.604341291921
 21
1735.7494964292871
 31
0.0
  0
LINE
  5
63A47
  8
YODOROGO
 10
30381.604341291932
 20
1679.749496429288
 30
0.0
 11
30465.604341291921
 21
1679.749496429288
 31
0.0
  0
LINE
  5
63A48
  8
YODOROGO
 10
30529.604341291932
 20
1735.7494964292871
 30
0.0
 11
30529.604341291932
 21
1679.749496429288
 31
0.0
  0
LINE
  5
63A49
  8
YODOROGO
 10
30381.604341291932
 20
1735.7494964292871
 30
0.0
 11
30381.604341291932
 21
1795.7494964292871
 31
0.0
  0
LINE
  5
63A4A
  8
YODOROGO
 10
30465.604341291921
 20
1735.7494964292871
 30
0.0
 11
30381.604341291932
 21
1735.7494964292871
 31
0.0
  0
LINE
  5
63A4B
  8
YODOROGO
 10
30645.604341291921
 20
2027.749496429288
 30
0.0
 11
30973.604341291921
 21
2027.749496429288
 31
0.0
  0
LINE
  5
63A4C
  8
YODOROGO
 10
30925.604341291921
 20
1963.7494964292871
 30
0.0
 11
30697.604341291932
 21
1963.7494964292871
 31
0.0
  0
LINE
  5
63A4D
  8
YODOROGO
 10
30873.604341291921
 20
1819.749496429288
 30
0.0
 11
30899.604341291932
 21
1819.749496429288
 31
0.0
  0
LINE
  5
63A4E
  8
YODOROGO
 10
30899.604341291932
 20
1939.749496429288
 30
0.0
 11
30873.604341291921
 21
1819.749496429288
 31
0.0
  0
LINE
  5
63A4F
  8
YODOROGO
 10
30851.604341291932
 20
1939.749496429288
 30
0.0
 11
30899.604341291932
 21
1939.749496429288
 31
0.0
  0
LINE
  5
63A50
  8
YODOROGO
 10
30825.604341291921
 20
1819.749496429288
 30
0.0
 11
30851.604341291932
 21
1939.749496429288
 31
0.0
  0
LINE
  5
63A51
  8
YODOROGO
 10
30797.604341291921
 20
1819.749496429288
 30
0.0
 11
30825.604341291921
 21
1819.749496429288
 31
0.0
  0
LINE
  5
63A52
  8
YODOROGO
 10
30771.604341291932
 20
1939.749496429288
 30
0.0
 11
30797.604341291921
 21
1819.749496429288
 31
0.0
  0
LINE
  5
63A53
  8
YODOROGO
 10
30723.604341291921
 20
1939.749496429288
 30
0.0
 11
30771.604341291932
 21
1939.749496429288
 31
0.0
  0
LINE
  5
63A54
  8
YODOROGO
 10
30749.604341291921
 20
1819.749496429288
 30
0.0
 11
30723.604341291921
 21
1939.749496429288
 31
0.0
  0
LINE
  5
63A55
  8
YODOROGO
 10
30723.604341291921
 20
1819.749496429288
 30
0.0
 11
30749.604341291921
 21
1819.749496429288
 31
0.0
  0
LINE
  5
63A56
  8
YODOROGO
 10
30723.604341291921
 20
1755.7494964292871
 30
0.0
 11
30723.604341291921
 21
1819.749496429288
 31
0.0
  0
LINE
  5
63A57
  8
YODOROGO
 10
30899.604341291932
 20
1755.7494964292871
 30
0.0
 11
30723.604341291921
 21
1755.7494964292871
 31
0.0
  0
LINE
  5
63A58
  8
YODOROGO
 10
30899.604341291932
 20
1819.749496429288
 30
0.0
 11
30899.604341291932
 21
1755.7494964292871
 31
0.0
  0
LINE
  5
63A59
  8
YODOROGO
 10
30617.604341291921
 20
1947.749496429288
 30
0.0
 11
30617.604341291921
 21
1859.749496429288
 31
0.0
  0
LINE
  5
63A5A
  8
YODOROGO
 10
30791.604341291921
 20
1755.7494964292871
 30
0.0
 11
30831.604341291921
 21
1755.7494964292871
 31
0.0
  0
LINE
  5
63A5B
  8
YODOROGO
 10
30723.604341291921
 20
1691.7494964292889
 30
0.0
 11
30763.604341291921
 21
1691.7494964292889
 31
0.0
  0
LINE
  5
63A5C
  8
YODOROGO
 10
30859.604341291932
 20
1691.7494964292889
 30
0.0
 11
30899.604341291932
 21
1691.7494964292889
 31
0.0
  0
LINE
  5
63A5D
  8
YODOROGO
 10
30617.604341291921
 20
1795.7494964292871
 30
0.0
 11
30617.604341291921
 21
1735.7494964292871
 31
0.0
  0
LINE
  5
63A5E
  8
YODOROGO
 10
31165.604341291921
 20
2027.749496429288
 30
0.0
 11
31165.604341291921
 21
1963.7494964292871
 31
0.0
  0
LINE
  5
63A5F
  8
YODOROGO
 10
31533.604341291921
 20
1595.7494964292871
 30
0.0
 11
31533.60434129191
 21
1811.7494964292889
 31
0.0
  0
LINE
  5
63A60
  8
YODOROGO
 10
31461.60434129191
 20
1987.749496429288
 30
0.0
 11
31461.60434129191
 21
1635.7494964292871
 31
0.0
  0
LINE
  5
63A61
  8
YODOROGO
 10
31653.604341291921
 20
1427.749496429288
 30
0.0
 11
31653.60434129191
 21
1811.7494964292889
 31
0.0
  0
LINE
  5
63A62
  8
YODOROGO
 10
31589.604341291921
 20
1811.7494964292889
 30
0.0
 11
31589.604341291921
 21
1427.749496429288
 31
0.0
  0
LINE
  5
63A63
  8
YODOROGO
 10
31237.604341291921
 20
1595.7494964292871
 30
0.0
 11
31237.604341291921
 21
1707.749496429288
 31
0.0
  0
ARC
  5
63A64
  8
YODOROGO
 10
31353.914865116069
 20
1607.790351288558
 30
0.0
 40
180.09244857598861
 50
268.62849102169793
 51
356.16638457330322
  0
LINE
  5
63A65
  8
YODOROGO
 10
31349.604341291932
 20
1527.749496429288
 30
0.0
 11
31349.604341291932
 21
1427.749496429288
 31
0.0
  0
ARC
  5
63A66
  8
YODOROGO
 10
31351.518075724562
 20
1637.838957017655
 30
0.0
 40
110.1060929836122
 50
269.00410209305937
 51
358.91264455492478
  0
LINE
  5
63A67
  8
YODOROGO
 10
31589.604341291921
 20
1427.749496429288
 30
0.0
 11
31653.604341291921
 21
1427.749496429288
 31
0.0
  0
LINE
  5
63A68
  8
YODOROGO
 10
31533.60434129191
 20
1811.7494964292889
 30
0.0
 11
31589.604341291921
 21
1811.7494964292889
 31
0.0
  0
LINE
  5
63A69
  8
YODOROGO
 10
31621.604341291932
 20
1987.749496429288
 30
0.0
 11
31461.60434129191
 21
1987.749496429288
 31
0.0
  0
LINE
  5
63A6A
  8
YODOROGO
 10
31533.60434129191
 20
1915.7494964292871
 30
0.0
 11
31661.604341291932
 21
1915.7494964292871
 31
0.0
  0
LINE
  5
63A6B
  8
YODOROGO
 10
31701.604341291932
 20
1875.7494964292871
 30
0.0
 11
31533.60434129191
 21
1875.7494964292871
 31
0.0
  0
LINE
  5
63A6C
  8
YODOROGO
 10
31237.604341291921
 20
1779.749496429288
 30
0.0
 11
31349.604341291932
 21
1779.749496429288
 31
0.0
  0
LINE
  5
63A6D
  8
YODOROGO
 10
31237.604341291921
 20
1835.7494964292871
 30
0.0
 11
31237.604341291921
 21
1779.749496429288
 31
0.0
  0
LINE
  5
63A6E
  8
YODOROGO
 10
31349.604341291932
 20
1835.7494964292871
 30
0.0
 11
31237.604341291921
 21
1835.7494964292871
 31
0.0
  0
LINE
  5
63A6F
  8
YODOROGO
 10
31349.604341291932
 20
1779.749496429288
 30
0.0
 11
31349.604341291932
 21
1835.7494964292871
 31
0.0
  0
LINE
  5
63A70
  8
YODOROGO
 10
31533.60434129191
 20
1875.7494964292871
 30
0.0
 11
31533.60434129191
 21
1915.7494964292871
 31
0.0
  0
LINE
  5
63A71
  8
YODOROGO
 10
31413.604341291921
 20
1707.749496429288
 30
0.0
 11
31413.604341291921
 21
1907.7494964292871
 31
0.0
  0
LINE
  5
63A72
  8
YODOROGO
 10
31237.604341291921
 20
1707.749496429288
 30
0.0
 11
31413.604341291921
 21
1707.749496429288
 31
0.0
  0
LINE
  5
63A73
  8
YODOROGO
 10
31413.604341291921
 20
1963.7494964292871
 30
0.0
 11
31413.604341291921
 21
2027.749496429288
 31
0.0
  0
ARC
  5
63A74
  8
YODOROGO
 10
31621.604341291932
 20
2003.749496429285
 30
0.0
 40
15.999999999994539
 50
270.0
 51
0.0000000000081422
  0
LINE
  5
63A75
  8
YODOROGO
 10
31637.604341291921
 20
2027.749496429288
 30
0.0
 11
31637.604341291921
 21
2003.7494964292871
 31
0.0
  0
LINE
  5
63A76
  8
YODOROGO
 10
31701.604341291932
 20
2027.749496429288
 30
0.0
 11
31637.604341291921
 21
2027.749496429288
 31
0.0
  0
LINE
  5
63A77
  8
YODOROGO
 10
31701.604341291932
 20
1955.7494964292871
 30
0.0
 11
31701.604341291932
 21
2027.749496429288
 31
0.0
  0
ARC
  5
63A78
  8
YODOROGO
 10
31661.604341291932
 20
1955.7494964292871
 30
0.0
 40
40.0
 50
270.0
 51
0.0
  0
LINE
  5
63A79
  8
YODOROGO
 10
31701.604341291932
 20
1811.7494964292889
 30
0.0
 11
31701.604341291932
 21
1875.7494964292871
 31
0.0
  0
LINE
  5
63A7A
  8
YODOROGO
 10
31653.60434129191
 20
1811.7494964292889
 30
0.0
 11
31701.604341291932
 21
1811.7494964292889
 31
0.0
  0
LINE
  5
63A7B
  8
SUNPOU
 10
3847.3919100666171
 20
18072.0809242219
 30
0.0
 11
3197.391910066618
 21
18072.0809242219
 31
0.0
  0
LINE
  5
63A7C
  8
SUNPOU
 10
3847.3919100666171
 20
15447.080924221889
 30
0.0
 11
3197.3919100666171
 21
15447.080924221889
 31
0.0
  0
LINE
  5
63A7D
  8
SUNPOU
 10
3277.391910066618
 20
18032.0809242219
 30
0.0
 11
3277.3919100666171
 21
15487.080924221889
 31
0.0
  0
TEXT
  5
63A81
  8
SUNPOU
 10
6566.9557375806562
 20
15297.28147724289
 30
0.0
 40
160.0
  1
7937
 50
45.0
 41
0.6666666666666666
  7
00
  0
LINE
  5
63A82
  8
SUNPOU
 10
3847.3919100666171
 20
15322.080924221889
 30
0.0
 11
3197.391910066618
 21
15322.080924221889
 31
0.0
  0
LINE
  5
63A83
  8
SUNPOU
 10
3847.3919100666171
 20
12697.080924221889
 30
0.0
 11
3197.3919100666171
 21
12697.080924221889
 31
0.0
  0
LINE
  5
63A84
  8
SUNPOU
 10
3277.391910066618
 20
15282.080924221889
 30
0.0
 11
3277.3919100666171
 21
12737.080924221889
 31
0.0
  0
LINE
  5
63A88
  8
SUNPOU
 10
3847.3919100666171
 20
12572.0809242219
 30
0.0
 11
3197.3919100666171
 21
12572.0809242219
 31
0.0
  0
LINE
  5
63A89
  8
SUNPOU
 10
3847.3919100666171
 20
12697.080924221889
 30
0.0
 11
3197.3919100666171
 21
12697.080924221889
 31
0.0
  0
LINE
  5
63A8A
  8
SUNPOU
 10
3277.3919100666171
 20
12532.0809242219
 30
0.0
 11
3277.3919100666171
 21
12492.080924221889
 31
0.0
  0
LINE
  5
63A8B
  8
SUNPOU
 10
3277.3919100666171
 20
12737.080924221889
 30
0.0
 11
3277.3919100666171
 21
13196.128543269509
 31
0.0
  0
LINE
  5
63A8C
  8
SUNPOU
 10
3277.3919100666171
 20
12572.0809242219
 30
0.0
 11
3277.3919100666171
 21
12697.080924221889
 31
0.0
  0
LINE
  5
63A90
  8
SUNPOU
 10
3847.3919100666171
 20
12572.0809242219
 30
0.0
 11
3197.3919100666171
 21
12572.0809242219
 31
0.0
  0
LINE
  5
63A91
  8
SUNPOU
 10
3767.3919100666171
 20
12514.580924221889
 30
0.0
 11
3197.3919100666171
 21
12514.580924221889
 31
0.0
  0
LINE
  5
63A92
  8
SUNPOU
 10
3277.3919100666171
 20
12612.0809242219
 30
0.0
 11
3277.3919100666171
 21
12652.0809242219
 31
0.0
  0
LINE
  5
63A93
  8
SUNPOU
 10
3277.3919100666171
 20
12474.580924221889
 30
0.0
 11
3277.3919100666171
 21
11949.501559142531
 31
0.0
  0
LINE
  5
63A94
  8
SUNPOU
 10
3277.3919100666171
 20
12572.0809242219
 30
0.0
 11
3277.3919100666171
 21
12514.580924221889
 31
0.0
  0
LINE
  5
63A98
  8
SUNPOU
 10
3847.3919100666171
 20
15322.080924221889
 30
0.0
 11
3197.3919100666171
 21
15322.080924221889
 31
0.0
  0
LINE
  5
63A99
  8
SUNPOU
 10
3847.3919100666171
 20
15447.080924221889
 30
0.0
 11
3197.3919100666171
 21
15447.080924221889
 31
0.0
  0
LINE
  5
63A9A
  8
SUNPOU
 10
3277.3919100666171
 20
15282.080924221889
 30
0.0
 11
3277.3919100666171
 21
15242.080924221889
 31
0.0
  0
LINE
  5
63A9B
  8
SUNPOU
 10
3277.3919100666171
 20
15487.080924221889
 30
0.0
 11
3277.3919100666171
 21
15946.128543269509
 31
0.0
  0
LINE
  5
63A9C
  8
SUNPOU
 10
3277.3919100666171
 20
15322.080924221889
 30
0.0
 11
3277.3919100666171
 21
15447.080924221889
 31
0.0
  0
TEXT
  5
63AA0
  8
SUNPOU
 10
5233.0000000340633
 20
15208.156159540849
 30
0.0
 40
160.0
  1
6256
 50
63.0
 41
0.6666666666666666
  7
00
  0
LINE
  5
63AA1
  8
SUNPOU
 10
9567.3919100666153
 20
12452.080924221889
 30
0.0
 11
9567.3919100666153
 21
11894.5809242219
 31
0.0
  0
LINE
  5
63AA2
  8
SUNPOU
 10
9507.3919100666171
 20
12434.580924221889
 30
0.0
 11
9507.3919100666171
 21
11894.5809242219
 31
0.0
  0
LINE
  5
63AA3
  8
SUNPOU
 10
9607.3919100666171
 20
11974.5809242219
 30
0.0
 11
9647.3919100666171
 21
11974.5809242219
 31
0.0
  0
LINE
  5
63AA4
  8
SUNPOU
 10
9467.3919100666153
 20
11974.5809242219
 30
0.0
 11
9099.7728624475694
 21
11974.5809242219
 31
0.0
  0
LINE
  5
63AA5
  8
SUNPOU
 10
9567.3919100666153
 20
11974.5809242219
 30
0.0
 11
9507.3919100666171
 21
11974.5809242219
 31
0.0
  0
LINE
  5
63AA9
  8
SUNPOU
 10
9567.3919100666153
 20
12452.080924221889
 30
0.0
 11
9567.3919100666153
 21
11894.5809242219
 31
0.0
  0
LINE
  5
63AAA
  8
SUNPOU
 10
9687.3919100666099
 20
12434.580924221889
 30
0.0
 11
9687.3919100666099
 21
11894.5809242219
 31
0.0
  0
LINE
  5
63AAB
  8
SUNPOU
 10
9527.3919100666171
 20
11974.5809242219
 30
0.0
 11
9487.3919100666171
 21
11974.5809242219
 31
0.0
  0
LINE
  5
63AAC
  8
SUNPOU
 10
9727.3919100666117
 20
11974.5809242219
 30
0.0
 11
10186.43952911423
 21
11974.5809242219
 31
0.0
  0
LINE
  5
63AAD
  8
SUNPOU
 10
9567.3919100666153
 20
11974.5809242219
 30
0.0
 11
9687.3919100666099
 21
11974.5809242219
 31
0.0
  0
LINE
  5
63AB1
  8
SUNPOU
 10
6704.8919100666171
 20
18254.580924221889
 30
0.0
 11
6704.8919100666171
 21
18904.580924221889
 31
0.0
  0
LINE
  5
63AB2
  8
SUNPOU
 10
6829.8919100666171
 20
18254.580924221889
 30
0.0
 11
6829.8919100666171
 21
18904.580924221889
 31
0.0
  0
LINE
  5
63AB3
  8
SUNPOU
 10
6664.891910066618
 20
18824.580924221889
 30
0.0
 11
6624.8919100666171
 21
18824.580924221889
 31
0.0
  0
LINE
  5
63AB4
  8
SUNPOU
 10
6869.8919100666171
 20
18824.580924221889
 30
0.0
 11
7328.9395291142364
 21
18824.580924221889
 31
0.0
  0
LINE
  5
63AB5
  8
SUNPOU
 10
6704.8919100666171
 20
18824.580924221889
 30
0.0
 11
6829.8919100666171
 21
18824.580924221889
 31
0.0
  0
LINE
  5
63AB9
  8
SUNPOU
 10
3967.3919100666099
 20
18317.080924221878
 30
0.0
 11
3967.3919100666099
 21
18904.580924221889
 31
0.0
  0
LINE
  5
63ABA
  8
SUNPOU
 10
6704.8919100666171
 20
18254.580924221889
 30
0.0
 11
6704.8919100666171
 21
18904.580924221889
 31
0.0
  0
LINE
  5
63ABB
  8
SUNPOU
 10
4007.3919100666089
 20
18824.580924221889
 30
0.0
 11
6664.891910066618
 21
18824.580924221889
 31
0.0
  0
LINE
  5
63ABF
  8
SUNPOU
 10
3967.391910066618
 20
18317.080924221889
 30
0.0
 11
3967.391910066618
 21
18904.580924221889
 31
0.0
  0
LINE
  5
63AC0
  8
SUNPOU
 10
3847.3919100666171
 20
18334.580924221889
 30
0.0
 11
3847.3919100666171
 21
18904.580924221889
 31
0.0
  0
LINE
  5
63AC1
  8
SUNPOU
 10
4007.3919100666171
 20
18824.580924221889
 30
0.0
 11
4047.3919100666171
 21
18824.580924221889
 31
0.0
  0
LINE
  5
63AC2
  8
SUNPOU
 10
3807.391910066618
 20
18824.580924221889
 30
0.0
 11
3348.3442910189979
 21
18824.580924221889
 31
0.0
  0
LINE
  5
63AC3
  8
SUNPOU
 10
3967.391910066618
 20
18824.580924221889
 30
0.0
 11
3847.3919100666171
 21
18824.580924221889
 31
0.0
  0
LINE
  5
63AC7
  8
SUNPOU
 10
3847.3919100666171
 20
18197.0809242219
 30
0.0
 11
3197.3919100666171
 21
18197.0809242219
 31
0.0
  0
LINE
  5
63AC8
  8
SUNPOU
 10
3767.3919100666171
 20
18254.580924221889
 30
0.0
 11
3197.3919100666171
 21
18254.580924221889
 31
0.0
  0
LINE
  5
63AC9
  8
SUNPOU
 10
3277.3919100666171
 20
18157.080924221889
 30
0.0
 11
3277.3919100666171
 21
18117.0809242219
 31
0.0
  0
LINE
  5
63ACA
  8
SUNPOU
 10
3277.3919100666171
 20
18294.580924221889
 30
0.0
 11
3277.3919100666171
 21
18819.66028930125
 31
0.0
  0
LINE
  5
63ACB
  8
SUNPOU
 10
3277.3919100666171
 20
18197.0809242219
 30
0.0
 11
3277.3919100666171
 21
18254.580924221889
 31
0.0
  0
LINE
  5
63ACF
  8
SUNPOU
 10
3847.3919100666171
 20
18197.0809242219
 30
0.0
 11
3197.3919100666171
 21
18197.0809242219
 31
0.0
  0
LINE
  5
63AD0
  8
SUNPOU
 10
3847.3919100666171
 20
18072.0809242219
 30
0.0
 11
3197.3919100666171
 21
18072.0809242219
 31
0.0
  0
LINE
  5
63AD1
  8
SUNPOU
 10
3277.3919100666171
 20
18237.080924221889
 30
0.0
 11
3277.3919100666171
 21
18277.0809242219
 31
0.0
  0
LINE
  5
63AD2
  8
SUNPOU
 10
3277.3919100666171
 20
18032.0809242219
 30
0.0
 11
3277.3919100666171
 21
17573.033305174278
 31
0.0
  0
LINE
  5
63AD3
  8
SUNPOU
 10
3277.3919100666171
 20
18197.0809242219
 30
0.0
 11
3277.3919100666171
 21
18072.0809242219
 31
0.0
  0
LINE
  5
63AD7
  8
SUNPOU
 10
6829.8919100666171
 20
18254.580924221889
 30
0.0
 11
6829.8919100666171
 21
18904.580924221889
 31
0.0
  0
LINE
  5
63AD8
  8
SUNPOU
 10
9567.3919100666099
 20
18317.080924221878
 30
0.0
 11
9567.3919100666099
 21
18904.580924221889
 31
0.0
  0
LINE
  5
63AD9
  8
SUNPOU
 10
6869.8919100666171
 20
18824.580924221889
 30
0.0
 11
9527.3919100666099
 21
18824.580924221889
 31
0.0
  0
LINE
  5
63ADD
  8
SUNPOU
 10
9567.3919100666153
 20
18317.080924221889
 30
0.0
 11
9567.3919100666153
 21
18904.580924221889
 31
0.0
  0
LINE
  5
63ADE
  8
SUNPOU
 10
9687.3919100666171
 20
18334.580924221889
 30
0.0
 11
9687.3919100666171
 21
18904.580924221889
 31
0.0
  0
LINE
  5
63ADF
  8
SUNPOU
 10
9527.3919100666171
 20
18824.580924221889
 30
0.0
 11
9487.3919100666171
 21
18824.580924221889
 31
0.0
  0
LINE
  5
63AE0
  8
SUNPOU
 10
9727.3919100666171
 20
18824.580924221889
 30
0.0
 11
10186.43952911423
 21
18824.580924221889
 31
0.0
  0
LINE
  5
63AE1
  8
SUNPOU
 10
9567.3919100666153
 20
18824.580924221889
 30
0.0
 11
9687.3919100666171
 21
18824.580924221889
 31
0.0
  0
ARC
  5
63AE5
  8
SUNPOU
 10
6767.3919100666171
 20
11574.580924221889
 30
0.0
 40
15.0
 50
0.0
 51
180.0
  0
ARC
  5
63AE6
  8
SUNPOU
 10
6767.3919100666171
 20
11574.580924221889
 30
0.0
 40
15.0
 50
180.0
 51
0.0
  0
LINE
  5
63AE8
  8
SUNPOU
 10
6737.3919100666171
 20
11574.580924221889
 30
0.0
 11
6707.3919100666171
 21
11574.580924221889
 31
0.0
  0
LINE
  5
63AEA
  8
SUNPOU
 10
3997.3919100666171
 20
11574.580924221889
 30
0.0
 11
4027.3919100666171
 21
11574.580924221889
 31
0.0
  0
ARC
  5
63AEB
  8
SUNPOU
 10
9345.3919100666153
 20
11574.580924221889
 30
0.0
 40
15.0
 50
180.0
 51
0.0
  0
ARC
  5
63AEC
  8
SUNPOU
 10
9345.3919100666153
 20
11574.580924221889
 30
0.0
 40
15.0
 50
0.0
 51
180.0
  0
ARC
  5
63AED
  8
SUNPOU
 10
9345.3919100666153
 20
11574.580924221889
 30
0.0
 40
15.0
 50
180.0
 51
0.0
  0
ARC
  5
63AEE
  8
SUNPOU
 10
9345.3919100666153
 20
11574.580924221889
 30
0.0
 40
15.0
 50
0.0
 51
180.0
  0
ARC
  5
63AEF
  8
SUNPOU
 10
9567.3919100666153
 20
11574.580924221889
 30
0.0
 40
15.0
 50
0.0
 51
180.0
  0
ARC
  5
63AF0
  8
SUNPOU
 10
9567.3919100666153
 20
11574.580924221889
 30
0.0
 40
15.0
 50
180.0
 51
0.0
  0
LINE
  5
63AF1
  8
SUNPOU
 10
9567.3919100666153
 20
19057.99259874969
 30
0.0
 11
9567.3919100666153
 21
19304.580924221889
 31
0.0
  0
LINE
  5
63AF2
  8
SUNPOU
 10
6767.3919100666171
 20
19062.99259874969
 30
0.0
 11
6767.3919100666171
 21
19304.580924221889
 31
0.0
  0
LINE
  5
63AF3
  8
SUNPOU
 10
9527.3919100666171
 20
19224.580924221889
 30
0.0
 11
6807.3919100666171
 21
19224.580924221889
 31
0.0
  0
LINE
  5
63AF7
  8
SUNPOU
 10
6767.3919100666171
 20
19062.99259874969
 30
0.0
 11
6767.3919100666171
 21
19304.580924221889
 31
0.0
  0
LINE
  5
63AF8
  8
SUNPOU
 10
3967.391910066618
 20
19057.99259874969
 30
0.0
 11
3967.391910066618
 21
19304.580924221889
 31
0.0
  0
LINE
  5
63AF9
  8
SUNPOU
 10
6727.391910066618
 20
19224.580924221889
 30
0.0
 11
4007.3919100666171
 21
19224.580924221889
 31
0.0
  0
LINE
  5
63AFD
  8
SUNPOU
 10
9687.3919100666099
 20
12634.580924221889
 30
0.0
 11
11056.545636438081
 21
12634.580924221889
 31
0.0
  0
LINE
  5
63AFE
  8
SUNPOU
 10
9767.3919100666099
 20
12514.580924221889
 30
0.0
 11
11056.545636438081
 21
12514.580924221889
 31
0.0
  0
LINE
  5
63AFF
  8
SUNPOU
 10
10976.545636438081
 20
12674.580924221889
 30
0.0
 11
10976.545636438081
 21
12714.580924221889
 31
0.0
  0
LINE
  5
63B00
  8
SUNPOU
 10
10976.545636438081
 20
12474.580924221889
 30
0.0
 11
10976.545636438081
 21
12015.533305174269
 31
0.0
  0
LINE
  5
63B01
  8
SUNPOU
 10
10976.545636438081
 20
12634.580924221889
 30
0.0
 11
10976.545636438081
 21
12514.580924221889
 31
0.0
  0
LINE
  5
63B06
  8
SUNPOU
 10
10576.545636438081
 20
12664.580924221889
 30
0.0
 11
10576.545636438081
 21
12694.580924221889
 31
0.0
  0
LINE
  5
63B08
  8
SUNPOU
 10
10976.545636438081
 20
12664.580924221889
 30
0.0
 11
10976.545636438081
 21
12694.580924221889
 31
0.0
  0
LINE
  5
63B0A
  8
SUNPOU
 10
10576.545636438081
 20
15414.580924221889
 30
0.0
 11
10576.545636438081
 21
15444.580924221889
 31
0.0
  0
LINE
  5
63B0C
  8
SUNPOU
 10
10576.545636438081
 20
15354.580924221889
 30
0.0
 11
10576.545636438081
 21
15324.580924221889
 31
0.0
  0
LINE
  5
63B0D
  8
SUNPOU
 10
9687.3919100666099
 20
18134.580924221889
 30
0.0
 11
11056.545636438081
 21
18134.580924221889
 31
0.0
  0
LINE
  5
63B0E
  8
SUNPOU
 10
9767.3919100666099
 20
18254.580924221889
 30
0.0
 11
11056.545636438081
 21
18254.580924221889
 31
0.0
  0
LINE
  5
63B0F
  8
SUNPOU
 10
10976.545636438081
 20
18094.580924221889
 30
0.0
 11
10976.545636438081
 21
18054.580924221889
 31
0.0
  0
LINE
  5
63B10
  8
SUNPOU
 10
10976.545636438081
 20
18294.580924221889
 30
0.0
 11
10976.545636438081
 21
18753.628543269511
 31
0.0
  0
LINE
  5
63B11
  8
SUNPOU
 10
10976.545636438081
 20
18134.580924221889
 30
0.0
 11
10976.545636438081
 21
18254.580924221889
 31
0.0
  0
LINE
  5
63B16
  8
SUNPOU
 10
10576.545636438081
 20
18104.580924221889
 30
0.0
 11
10576.545636438081
 21
18074.580924221889
 31
0.0
  0
LINE
  5
63B18
  8
SUNPOU
 10
10976.545636438081
 20
18104.580924221889
 30
0.0
 11
10976.545636438081
 21
18074.580924221889
 31
0.0
  0
LINE
  5
63B19
  8
SUNPOU
 10
16364.434153892191
 20
12437.74023912564
 30
0.0
 11
16191.14791184649
 21
12437.74023912564
 31
0.0
  0
LINE
  5
63B1A
  8
SUNPOU
 10
17205.250123997539
 20
13277.74023912562
 30
0.0
 11
16191.14791184649
 21
13277.74023912562
 31
0.0
  0
LINE
  5
63B1B
  8
SUNPOU
 10
16271.14791184649
 20
12477.74023912564
 30
0.0
 11
16271.14791184649
 21
13237.74023912562
 31
0.0
  0
LINE
  5
63B1F
  8
SUNPOU
 10
16965.24960295701
 20
11117.740239125649
 30
0.0
 11
16191.14791184649
 21
11117.740239125649
 31
0.0
  0
LINE
  5
63B20
  8
SUNPOU
 10
16364.434153892191
 20
12437.74023912564
 30
0.0
 11
16191.14791184649
 21
12437.74023912564
 31
0.0
  0
LINE
  5
63B21
  8
SUNPOU
 10
16271.14791184649
 20
11157.740239125649
 30
0.0
 11
16271.14791184649
 21
12397.74023912564
 31
0.0
  0
LINE
  5
63B25
  8
SUNPOU
 10
17205.250123997539
 20
13277.74023912562
 30
0.0
 11
15871.14823248683
 21
13277.74023912562
 31
0.0
  0
LINE
  5
63B26
  8
SUNPOU
 10
17659.250097945529
 20
13437.740239125649
 30
0.0
 11
15871.14823248683
 21
13437.740239125649
 31
0.0
  0
LINE
  5
63B27
  8
SUNPOU
 10
15951.14823248683
 20
13237.74023912562
 30
0.0
 11
15951.14823248683
 21
13197.74023912562
 31
0.0
  0
LINE
  5
63B28
  8
SUNPOU
 10
15951.14823248683
 20
13477.740239125649
 30
0.0
 11
15951.14823248683
 21
13517.740239125649
 31
0.0
  0
LINE
  5
63B29
  8
SUNPOU
 10
15951.14823248683
 20
13277.74023912562
 30
0.0
 11
15951.14823248683
 21
13437.740239125649
 31
0.0
  0
LINE
  5
63B2E
  8
SUNPOU
 10
15951.148232486819
 20
13247.74023912562
 30
0.0
 11
15951.148232486819
 21
13217.74023912562
 31
0.0
  0
LINE
  5
63B30
  8
SUNPOU
 10
18546.35288024801
 20
13247.74023912562
 30
0.0
 11
18546.35288024801
 21
13217.74023912562
 31
0.0
  0
LINE
  5
63B32
  8
SUNPOU
 10
15951.148232486819
 20
11147.74023912564
 30
0.0
 11
15951.148232486819
 21
11177.74023912564
 31
0.0
  0
POLYLINE
  5
63B33
  8
SUNPOU
 10
15951.148232486819
 20
10532.740239125647
 30
0.0
 66
     1
 70
     8
  0
VERTEX
  8
SUNPOU
  5
63DD4
 10
15951.1
 20
10532.7
 30
0.000000
  70
    32
  0
VERTEX
  8
SUNPOU
  5
63DD5
 10
15951.5
 20
10532.7
 30
0.000000
  70
    32
  0
VERTEX
  8
SUNPOU
  5
63DD6
 10
15951.9
 20
10532.7
 30
0.000000
  70
    32
  0
VERTEX
  8
SUNPOU
  5
63DD7
 10
15952.3
 20
10532.7
 30
0.000000
  70
    32
  0
VERTEX
  8
SUNPOU
  5
63DD8
 10
15952.6
 20
10532.7
 30
0.000000
  70
    32
  0
VERTEX
  8
SUNPOU
  5
63DD9
 10
15953.0
 20
10532.6
 30
0.000000
  70
    32
  0
VERTEX
  8
SUNPOU
  5
63DDA
 10
15953.3
 20
10532.6
 30
0.000000
  70
    32
  0
VERTEX
  8
SUNPOU
  5
63DDB
 10
15953.7
 20
10532.5
 30
0.000000
  70
    32
  0
VERTEX
  8
SUNPOU
  5
63DDC
 10
15954.1
 20
10532.5
 30
0.000000
  70
    32
  0
VERTEX
  8
SUNPOU
  5
63DDD
 10
15954.4
 20
10532.4
 30
0.000000
  70
    32
  0
VERTEX
  8
SUNPOU
  5
63DDE
 10
15954.8
 20
10532.3
 30
0.000000
  70
    32
  0
VERTEX
  8
SUNPOU
  5
63DDF
 10
15955.1
 20
10532.2
 30
0.000000
  70
    32
  0
VERTEX
  8
SUNPOU
  5
63DE0
 10
15955.5
 20
10532.1
 30
0.000000
  70
    32
  0
VERTEX
  8
SUNPOU
  5
63DE1
 10
15955.9
 20
10532.0
 30
0.000000
  70
    32
  0
VERTEX
  8
SUNPOU
  5
63DE2
 10
15956.2
 20
10531.9
 30
0.000000
  70
    32
  0
VERTEX
  8
SUNPOU
  5
63DE3
 10
15956.5
 20
10531.7
 30
0.000000
  70
    32
  0
VERTEX
  8
SUNPOU
  5
63DE4
 10
15956.9
 20
10531.6
 30
0.000000
  70
    32
  0
VERTEX
  8
SUNPOU
  5
63DE5
 10
15957.2
 20
10531.5
 30
0.000000
  70
    32
  0
VERTEX
  8
SUNPOU
  5
63DE6
 10
15957.6
 20
10531.3
 30
0.000000
  70
    32
  0
VERTEX
  8
SUNPOU
  5
63DE7
 10
15957.9
 20
10531.1
 30
0.000000
  70
    32
  0
VERTEX
  8
SUNPOU
  5
63DE8
 10
15958.2
 20
10531.0
 30
0.000000
  70
    32
  0
VERTEX
  8
SUNPOU
  5
63DE9
 10
15958.5
 20
10530.8
 30
0.000000
  70
    32
  0
VERTEX
  8
SUNPOU
  5
63DEA
 10
15958.9
 20
10530.6
 30
0.000000
  70
    32
  0
VERTEX
  8
SUNPOU
  5
63DEB
 10
15959.2
 20
10530.4
 30
0.000000
  70
    32
  0
VERTEX
  8
SUNPOU
  5
63DEC
 10
15959.5
 20
10530.2
 30
0.000000
  70
    32
  0
VERTEX
  8
SUNPOU
  5
63DED
 10
15959.8
 20
10530.0
 30
0.000000
  70
    32
  0
VERTEX
  8
SUNPOU
  5
63DEE
 10
15960.1
 20
10529.8
 30
0.000000
  70
    32
  0
VERTEX
  8
SUNPOU
  5
63DEF
 10
15960.4
 20
10529.6
 30
0.000000
  70
    32
  0
VERTEX
  8
SUNPOU
  5
63DF0
 10
15960.7
 20
10529.3
 30
0.000000
  70
    32
  0
VERTEX
  8
SUNPOU
  5
63DF1
 10
15960.9
 20
10529.1
 30
0.000000
  70
    32
  0
VERTEX
  8
SUNPOU
  5
63DF2
 10
15961.2
 20
10528.9
 30
0.000000
  70
    32
  0
VERTEX
  8
SUNPOU
  5
63DF3
 10
15961.5
 20
10528.6
 30
0.000000
  70
    32
  0
VERTEX
  8
SUNPOU
  5
63DF4
 10
15961.8
 20
10528.3
 30
0.000000
  70
    32
  0
VERTEX
  8
SUNPOU
  5
63DF5
 10
15962.0
 20
10528.1
 30
0.000000
  70
    32
  0
VERTEX
  8
SUNPOU
  5
63DF6
 10
15962.3
 20
10527.8
 30
0.000000
  70
    32
  0
VERTEX
  8
SUNPOU
  5
63DF7
 10
15962.5
 20
10527.5
 30
0.000000
  70
    32
  0
VERTEX
  8
SUNPOU
  5
63DF8
 10
15962.7
 20
10527.3
 30
0.000000
  70
    32
  0
VERTEX
  8
SUNPOU
  5
63DF9
 10
15963.0
 20
10527.0
 30
0.000000
  70
    32
  0
VERTEX
  8
SUNPOU
  5
63DFA
 10
15963.2
 20
10526.7
 30
0.000000
  70
    32
  0
VERTEX
  8
SUNPOU
  5
63DFB
 10
15963.4
 20
10526.4
 30
0.000000
  70
    32
  0
VERTEX
  8
SUNPOU
  5
63DFC
 10
15963.6
 20
10526.1
 30
0.000000
  70
    32
  0
VERTEX
  8
SUNPOU
  5
63DFD
 10
15963.8
 20
10525.8
 30
0.000000
  70
    32
  0
VERTEX
  8
SUNPOU
  5
63DFE
 10
15964.0
 20
10525.5
 30
0.000000
  70
    32
  0
VERTEX
  8
SUNPOU
  5
63DFF
 10
15964.2
 20
10525.1
 30
0.000000
  70
    32
  0
VERTEX
  8
SUNPOU
  5
63E00
 10
15964.4
 20
10524.8
 30
0.000000
  70
    32
  0
VERTEX
  8
SUNPOU
  5
63E01
 10
15964.5
 20
10524.5
 30
0.000000
  70
    32
  0
VERTEX
  8
SUNPOU
  5
63E02
 10
15964.7
 20
10524.2
 30
0.000000
  70
    32
  0
VERTEX
  8
SUNPOU
  5
63E03
 10
15964.9
 20
10523.8
 30
0.000000
  70
    32
  0
VERTEX
  8
SUNPOU
  5
63E04
 10
15965.0
 20
10523.5
 30
0.000000
  70
    32
  0
VERTEX
  8
SUNPOU
  5
63E05
 10
15965.1
 20
10523.1
 30
0.000000
  70
    32
  0
VERTEX
  8
SUNPOU
  5
63E06
 10
15965.3
 20
10522.8
 30
0.000000
  70
    32
  0
VERTEX
  8
SUNPOU
  5
63E07
 10
15965.4
 20
10522.4
 30
0.000000
  70
    32
  0
VERTEX
  8
SUNPOU
  5
63E08
 10
15965.5
 20
10522.1
 30
0.000000
  70
    32
  0
VERTEX
  8
SUNPOU
  5
63E09
 10
15965.6
 20
10521.7
 30
0.000000
  70
    32
  0
VERTEX
  8
SUNPOU
  5
63E0A
 10
15965.7
 20
10521.4
 30
0.000000
  70
    32
  0
VERTEX
  8
SUNPOU
  5
63E0B
 10
15965.8
 20
10521.0
 30
0.000000
  70
    32
  0
VERTEX
  8
SUNPOU
  5
63E0C
 10
15965.9
 20
10520.7
 30
0.000000
  70
    32
  0
VERTEX
  8
SUNPOU
  5
63E0D
 10
15965.9
 20
10520.3
 30
0.000000
  70
    32
  0
VERTEX
  8
SUNPOU
  5
63E0E
 10
15966.0
 20
10519.9
 30
0.000000
  70
    32
  0
VERTEX
  8
SUNPOU
  5
63E0F
 10
15966.0
 20
10519.6
 30
0.000000
  70
    32
  0
VERTEX
  8
SUNPOU
  5
63E10
 10
15966.1
 20
10519.2
 30
0.000000
  70
    32
  0
VERTEX
  8
SUNPOU
  5
63E11
 10
15966.1
 20
10518.8
 30
0.000000
  70
    32
  0
VERTEX
  8
SUNPOU
  5
63E12
 10
15966.1
 20
10518.5
 30
0.000000
  70
    32
  0
VERTEX
  8
SUNPOU
  5
63E13
 10
15966.1
 20
10518.1
 30
0.000000
  70
    32
  0
VERTEX
  8
SUNPOU
  5
63E14
 10
15966.1
 20
10517.7
 30
0.000000
  70
    32
  0
VERTEX
  8
SUNPOU
  5
63E15
 10
15966.1
 20
10517.4
 30
0.000000
  70
    32
  0
VERTEX
  8
SUNPOU
  5
63E16
 10
15966.1
 20
10517.0
 30
0.000000
  70
    32
  0
VERTEX
  8
SUNPOU
  5
63E17
 10
15966.1
 20
10516.6
 30
0.000000
  70
    32
  0
VERTEX
  8
SUNPOU
  5
63E18
 10
15966.1
 20
10516.3
 30
0.000000
  70
    32
  0
VERTEX
  8
SUNPOU
  5
63E19
 10
15966.0
 20
10515.9
 30
0.000000
  70
    32
  0
VERTEX
  8
SUNPOU
  5
63E1A
 10
15966.0
 20
10515.5
 30
0.000000
  70
    32
  0
VERTEX
  8
SUNPOU
  5
63E1B
 10
15965.9
 20
10515.2
 30
0.000000
  70
    32
  0
VERTEX
  8
SUNPOU
  5
63E1C
 10
15965.9
 20
10514.8
 30
0.000000
  70
    32
  0
VERTEX
  8
SUNPOU
  5
63E1D
 10
15965.8
 20
10514.5
 30
0.000000
  70
    32
  0
VERTEX
  8
SUNPOU
  5
63E1E
 10
15965.7
 20
10514.1
 30
0.000000
  70
    32
  0
VERTEX
  8
SUNPOU
  5
63E1F
 10
15965.6
 20
10513.7
 30
0.000000
  70
    32
  0
VERTEX
  8
SUNPOU
  5
63E20
 10
15965.5
 20
10513.4
 30
0.000000
  70
    32
  0
VERTEX
  8
SUNPOU
  5
63E21
 10
15965.4
 20
10513.0
 30
0.000000
  70
    32
  0
VERTEX
  8
SUNPOU
  5
63E22
 10
15965.3
 20
10512.7
 30
0.000000
  70
    32
  0
VERTEX
  8
SUNPOU
  5
63E23
 10
15965.1
 20
10512.3
 30
0.000000
  70
    32
  0
VERTEX
  8
SUNPOU
  5
63E24
 10
15965.0
 20
10512.0
 30
0.000000
  70
    32
  0
VERTEX
  8
SUNPOU
  5
63E25
 10
15964.9
 20
10511.7
 30
0.000000
  70
    32
  0
VERTEX
  8
SUNPOU
  5
63E26
 10
15964.7
 20
10511.3
 30
0.000000
  70
    32
  0
VERTEX
  8
SUNPOU
  5
63E27
 10
15964.5
 20
10511.0
 30
0.000000
  70
    32
  0
VERTEX
  8
SUNPOU
  5
63E28
 10
15964.4
 20
10510.7
 30
0.000000
  70
    32
  0
VERTEX
  8
SUNPOU
  5
63E29
 10
15964.2
 20
10510.3
 30
0.000000
  70
    32
  0
VERTEX
  8
SUNPOU
  5
63E2A
 10
15964.0
 20
10510.0
 30
0.000000
  70
    32
  0
VERTEX
  8
SUNPOU
  5
63E2B
 10
15963.8
 20
10509.7
 30
0.000000
  70
    32
  0
VERTEX
  8
SUNPOU
  5
63E2C
 10
15963.6
 20
10509.4
 30
0.000000
  70
    32
  0
VERTEX
  8
SUNPOU
  5
63E2D
 10
15963.4
 20
10509.1
 30
0.000000
  70
    32
  0
VERTEX
  8
SUNPOU
  5
63E2E
 10
15963.2
 20
10508.8
 30
0.000000
  70
    32
  0
VERTEX
  8
SUNPOU
  5
63E2F
 10
15963.0
 20
10508.5
 30
0.000000
  70
    32
  0
VERTEX
  8
SUNPOU
  5
63E30
 10
15962.7
 20
10508.2
 30
0.000000
  70
    32
  0
VERTEX
  8
SUNPOU
  5
63E31
 10
15962.5
 20
10507.9
 30
0.000000
  70
    32
  0
VERTEX
  8
SUNPOU
  5
63E32
 10
15962.3
 20
10507.7
 30
0.000000
  70
    32
  0
VERTEX
  8
SUNPOU
  5
63E33
 10
15962.0
 20
10507.4
 30
0.000000
  70
    32
  0
VERTEX
  8
SUNPOU
  5
63E34
 10
15961.8
 20
10507.1
 30
0.000000
  70
    32
  0
VERTEX
  8
SUNPOU
  5
63E35
 10
15961.5
 20
10506.9
 30
0.000000
  70
    32
  0
VERTEX
  8
SUNPOU
  5
63E36
 10
15961.2
 20
10506.6
 30
0.000000
  70
    32
  0
VERTEX
  8
SUNPOU
  5
63E37
 10
15960.9
 20
10506.4
 30
0.000000
  70
    32
  0
VERTEX
  8
SUNPOU
  5
63E38
 10
15960.7
 20
10506.1
 30
0.000000
  70
    32
  0
VERTEX
  8
SUNPOU
  5
63E39
 10
15960.4
 20
10505.9
 30
0.000000
  70
    32
  0
VERTEX
  8
SUNPOU
  5
63E3A
 10
15960.1
 20
10505.7
 30
0.000000
  70
    32
  0
VERTEX
  8
SUNPOU
  5
63E3B
 10
15959.8
 20
10505.5
 30
0.000000
  70
    32
  0
VERTEX
  8
SUNPOU
  5
63E3C
 10
15959.5
 20
10505.3
 30
0.000000
  70
    32
  0
VERTEX
  8
SUNPOU
  5
63E3D
 10
15959.2
 20
10505.1
 30
0.000000
  70
    32
  0
VERTEX
  8
SUNPOU
  5
63E3E
 10
15958.9
 20
10504.9
 30
0.000000
  70
    32
  0
VERTEX
  8
SUNPOU
  5
63E3F
 10
15958.5
 20
10504.7
 30
0.000000
  70
    32
  0
VERTEX
  8
SUNPOU
  5
63E40
 10
15958.2
 20
10504.5
 30
0.000000
  70
    32
  0
VERTEX
  8
SUNPOU
  5
63E41
 10
15957.9
 20
10504.3
 30
0.000000
  70
    32
  0
VERTEX
  8
SUNPOU
  5
63E42
 10
15957.6
 20
10504.2
 30
0.000000
  70
    32
  0
VERTEX
  8
SUNPOU
  5
63E43
 10
15957.2
 20
10504.0
 30
0.000000
  70
    32
  0
VERTEX
  8
SUNPOU
  5
63E44
 10
15956.9
 20
10503.9
 30
0.000000
  70
    32
  0
VERTEX
  8
SUNPOU
  5
63E45
 10
15956.5
 20
10503.7
 30
0.000000
  70
    32
  0
VERTEX
  8
SUNPOU
  5
63E46
 10
15956.2
 20
10503.6
 30
0.000000
  70
    32
  0
VERTEX
  8
SUNPOU
  5
63E47
 10
15955.9
 20
10503.5
 30
0.000000
  70
    32
  0
VERTEX
  8
SUNPOU
  5
63E48
 10
15955.5
 20
10503.4
 30
0.000000
  70
    32
  0
VERTEX
  8
SUNPOU
  5
63E49
 10
15955.1
 20
10503.3
 30
0.000000
  70
    32
  0
VERTEX
  8
SUNPOU
  5
63E4A
 10
15954.8
 20
10503.2
 30
0.000000
  70
    32
  0
VERTEX
  8
SUNPOU
  5
63E4B
 10
15954.4
 20
10503.1
 30
0.000000
  70
    32
  0
VERTEX
  8
SUNPOU
  5
63E4C
 10
15954.1
 20
10503.0
 30
0.000000
  70
    32
  0
VERTEX
  8
SUNPOU
  5
63E4D
 10
15953.7
 20
10503.0
 30
0.000000
  70
    32
  0
VERTEX
  8
SUNPOU
  5
63E4E
 10
15953.3
 20
10502.9
 30
0.000000
  70
    32
  0
VERTEX
  8
SUNPOU
  5
63E4F
 10
15953.0
 20
10502.9
 30
0.000000
  70
    32
  0
VERTEX
  8
SUNPOU
  5
63E50
 10
15952.6
 20
10502.8
 30
0.000000
  70
    32
  0
VERTEX
  8
SUNPOU
  5
63E51
 10
15952.3
 20
10502.8
 30
0.000000
  70
    32
  0
VERTEX
  8
SUNPOU
  5
63E52
 10
15951.9
 20
10502.8
 30
0.000000
  70
    32
  0
VERTEX
  8
SUNPOU
  5
63E53
 10
15951.5
 20
10502.7
 30
0.000000
  70
    32
  0
VERTEX
  8
SUNPOU
  5
63E54
 10
15951.1
 20
10502.7
 30
0.000000
  70
    32
  0
SEQEND
  8
SUNPOU
  5
63E55
  0
POLYLINE
  5
63B34
  8
SUNPOU
 10
15951.148232486819
 20
10502.740239125651
 30
0.0
 66
     1
 70
     8
  0
VERTEX
  8
SUNPOU
  5
63E56
 10
15951.1
 20
10502.7
 30
0.000000
  70
    32
  0
VERTEX
  8
SUNPOU
  5
63E57
 10
15950.8
 20
10502.7
 30
0.000000
  70
    32
  0
VERTEX
  8
SUNPOU
  5
63E58
 10
15950.4
 20
10502.8
 30
0.000000
  70
    32
  0
VERTEX
  8
SUNPOU
  5
63E59
 10
15950.0
 20
10502.8
 30
0.000000
  70
    32
  0
VERTEX
  8
SUNPOU
  5
63E5A
 10
15949.7
 20
10502.8
 30
0.000000
  70
    32
  0
VERTEX
  8
SUNPOU
  5
63E5B
 10
15949.3
 20
10502.9
 30
0.000000
  70
    32
  0
VERTEX
  8
SUNPOU
  5
63E5C
 10
15948.9
 20
10502.9
 30
0.000000
  70
    32
  0
VERTEX
  8
SUNPOU
  5
63E5D
 10
15948.6
 20
10503.0
 30
0.000000
  70
    32
  0
VERTEX
  8
SUNPOU
  5
63E5E
 10
15948.2
 20
10503.0
 30
0.000000
  70
    32
  0
VERTEX
  8
SUNPOU
  5
63E5F
 10
15947.9
 20
10503.1
 30
0.000000
  70
    32
  0
VERTEX
  8
SUNPOU
  5
63E60
 10
15947.5
 20
10503.2
 30
0.000000
  70
    32
  0
VERTEX
  8
SUNPOU
  5
63E61
 10
15947.1
 20
10503.3
 30
0.000000
  70
    32
  0
VERTEX
  8
SUNPOU
  5
63E62
 10
15946.8
 20
10503.4
 30
0.000000
  70
    32
  0
VERTEX
  8
SUNPOU
  5
63E63
 10
15946.4
 20
10503.5
 30
0.000000
  70
    32
  0
VERTEX
  8
SUNPOU
  5
63E64
 10
15946.1
 20
10503.6
 30
0.000000
  70
    32
  0
VERTEX
  8
SUNPOU
  5
63E65
 10
15945.7
 20
10503.7
 30
0.000000
  70
    32
  0
VERTEX
  8
SUNPOU
  5
63E66
 10
15945.4
 20
10503.9
 30
0.000000
  70
    32
  0
VERTEX
  8
SUNPOU
  5
63E67
 10
15945.1
 20
10504.0
 30
0.000000
  70
    32
  0
VERTEX
  8
SUNPOU
  5
63E68
 10
15944.7
 20
10504.2
 30
0.000000
  70
    32
  0
VERTEX
  8
SUNPOU
  5
63E69
 10
15944.4
 20
10504.3
 30
0.000000
  70
    32
  0
VERTEX
  8
SUNPOU
  5
63E6A
 10
15944.1
 20
10504.5
 30
0.000000
  70
    32
  0
VERTEX
  8
SUNPOU
  5
63E6B
 10
15943.8
 20
10504.7
 30
0.000000
  70
    32
  0
VERTEX
  8
SUNPOU
  5
63E6C
 10
15943.4
 20
10504.9
 30
0.000000
  70
    32
  0
VERTEX
  8
SUNPOU
  5
63E6D
 10
15943.1
 20
10505.1
 30
0.000000
  70
    32
  0
VERTEX
  8
SUNPOU
  5
63E6E
 10
15942.8
 20
10505.3
 30
0.000000
  70
    32
  0
VERTEX
  8
SUNPOU
  5
63E6F
 10
15942.5
 20
10505.5
 30
0.000000
  70
    32
  0
VERTEX
  8
SUNPOU
  5
63E70
 10
15942.2
 20
10505.7
 30
0.000000
  70
    32
  0
VERTEX
  8
SUNPOU
  5
63E71
 10
15941.9
 20
10505.9
 30
0.000000
  70
    32
  0
VERTEX
  8
SUNPOU
  5
63E72
 10
15941.6
 20
10506.1
 30
0.000000
  70
    32
  0
VERTEX
  8
SUNPOU
  5
63E73
 10
15941.4
 20
10506.4
 30
0.000000
  70
    32
  0
VERTEX
  8
SUNPOU
  5
63E74
 10
15941.1
 20
10506.6
 30
0.000000
  70
    32
  0
VERTEX
  8
SUNPOU
  5
63E75
 10
15940.8
 20
10506.9
 30
0.000000
  70
    32
  0
VERTEX
  8
SUNPOU
  5
63E76
 10
15940.5
 20
10507.1
 30
0.000000
  70
    32
  0
VERTEX
  8
SUNPOU
  5
63E77
 10
15940.3
 20
10507.4
 30
0.000000
  70
    32
  0
VERTEX
  8
SUNPOU
  5
63E78
 10
15940.0
 20
10507.7
 30
0.000000
  70
    32
  0
VERTEX
  8
SUNPOU
  5
63E79
 10
15939.8
 20
10507.9
 30
0.000000
  70
    32
  0
VERTEX
  8
SUNPOU
  5
63E7A
 10
15939.6
 20
10508.2
 30
0.000000
  70
    32
  0
VERTEX
  8
SUNPOU
  5
63E7B
 10
15939.3
 20
10508.5
 30
0.000000
  70
    32
  0
VERTEX
  8
SUNPOU
  5
63E7C
 10
15939.1
 20
10508.8
 30
0.000000
  70
    32
  0
VERTEX
  8
SUNPOU
  5
63E7D
 10
15938.9
 20
10509.1
 30
0.000000
  70
    32
  0
VERTEX
  8
SUNPOU
  5
63E7E
 10
15938.7
 20
10509.4
 30
0.000000
  70
    32
  0
VERTEX
  8
SUNPOU
  5
63E7F
 10
15938.5
 20
10509.7
 30
0.000000
  70
    32
  0
VERTEX
  8
SUNPOU
  5
63E80
 10
15938.3
 20
10510.0
 30
0.000000
  70
    32
  0
VERTEX
  8
SUNPOU
  5
63E81
 10
15938.1
 20
10510.3
 30
0.000000
  70
    32
  0
VERTEX
  8
SUNPOU
  5
63E82
 10
15937.9
 20
10510.7
 30
0.000000
  70
    32
  0
VERTEX
  8
SUNPOU
  5
63E83
 10
15937.7
 20
10511.0
 30
0.000000
  70
    32
  0
VERTEX
  8
SUNPOU
  5
63E84
 10
15937.6
 20
10511.3
 30
0.000000
  70
    32
  0
VERTEX
  8
SUNPOU
  5
63E85
 10
15937.4
 20
10511.7
 30
0.000000
  70
    32
  0
VERTEX
  8
SUNPOU
  5
63E86
 10
15937.3
 20
10512.0
 30
0.000000
  70
    32
  0
VERTEX
  8
SUNPOU
  5
63E87
 10
15937.2
 20
10512.3
 30
0.000000
  70
    32
  0
VERTEX
  8
SUNPOU
  5
63E88
 10
15937.0
 20
10512.7
 30
0.000000
  70
    32
  0
VERTEX
  8
SUNPOU
  5
63E89
 10
15936.9
 20
10513.0
 30
0.000000
  70
    32
  0
VERTEX
  8
SUNPOU
  5
63E8A
 10
15936.8
 20
10513.4
 30
0.000000
  70
    32
  0
VERTEX
  8
SUNPOU
  5
63E8B
 10
15936.7
 20
10513.7
 30
0.000000
  70
    32
  0
VERTEX
  8
SUNPOU
  5
63E8C
 10
15936.6
 20
10514.1
 30
0.000000
  70
    32
  0
VERTEX
  8
SUNPOU
  5
63E8D
 10
15936.5
 20
10514.5
 30
0.000000
  70
    32
  0
VERTEX
  8
SUNPOU
  5
63E8E
 10
15936.4
 20
10514.8
 30
0.000000
  70
    32
  0
VERTEX
  8
SUNPOU
  5
63E8F
 10
15936.4
 20
10515.2
 30
0.000000
  70
    32
  0
VERTEX
  8
SUNPOU
  5
63E90
 10
15936.3
 20
10515.5
 30
0.000000
  70
    32
  0
VERTEX
  8
SUNPOU
  5
63E91
 10
15936.3
 20
10515.9
 30
0.000000
  70
    32
  0
VERTEX
  8
SUNPOU
  5
63E92
 10
15936.2
 20
10516.3
 30
0.000000
  70
    32
  0
VERTEX
  8
SUNPOU
  5
63E93
 10
15936.2
 20
10516.6
 30
0.000000
  70
    32
  0
VERTEX
  8
SUNPOU
  5
63E94
 10
15936.2
 20
10517.0
 30
0.000000
  70
    32
  0
VERTEX
  8
SUNPOU
  5
63E95
 10
15936.2
 20
10517.4
 30
0.000000
  70
    32
  0
VERTEX
  8
SUNPOU
  5
63E96
 10
15936.1
 20
10517.7
 30
0.000000
  70
    32
  0
VERTEX
  8
SUNPOU
  5
63E97
 10
15936.2
 20
10518.1
 30
0.000000
  70
    32
  0
VERTEX
  8
SUNPOU
  5
63E98
 10
15936.2
 20
10518.5
 30
0.000000
  70
    32
  0
VERTEX
  8
SUNPOU
  5
63E99
 10
15936.2
 20
10518.8
 30
0.000000
  70
    32
  0
VERTEX
  8
SUNPOU
  5
63E9A
 10
15936.2
 20
10519.2
 30
0.000000
  70
    32
  0
VERTEX
  8
SUNPOU
  5
63E9B
 10
15936.3
 20
10519.6
 30
0.000000
  70
    32
  0
VERTEX
  8
SUNPOU
  5
63E9C
 10
15936.3
 20
10519.9
 30
0.000000
  70
    32
  0
VERTEX
  8
SUNPOU
  5
63E9D
 10
15936.4
 20
10520.3
 30
0.000000
  70
    32
  0
VERTEX
  8
SUNPOU
  5
63E9E
 10
15936.4
 20
10520.7
 30
0.000000
  70
    32
  0
VERTEX
  8
SUNPOU
  5
63E9F
 10
15936.5
 20
10521.0
 30
0.000000
  70
    32
  0
VERTEX
  8
SUNPOU
  5
63EA0
 10
15936.6
 20
10521.4
 30
0.000000
  70
    32
  0
VERTEX
  8
SUNPOU
  5
63EA1
 10
15936.7
 20
10521.7
 30
0.000000
  70
    32
  0
VERTEX
  8
SUNPOU
  5
63EA2
 10
15936.8
 20
10522.1
 30
0.000000
  70
    32
  0
VERTEX
  8
SUNPOU
  5
63EA3
 10
15936.9
 20
10522.4
 30
0.000000
  70
    32
  0
VERTEX
  8
SUNPOU
  5
63EA4
 10
15937.0
 20
10522.8
 30
0.000000
  70
    32
  0
VERTEX
  8
SUNPOU
  5
63EA5
 10
15937.2
 20
10523.1
 30
0.000000
  70
    32
  0
VERTEX
  8
SUNPOU
  5
63EA6
 10
15937.3
 20
10523.5
 30
0.000000
  70
    32
  0
VERTEX
  8
SUNPOU
  5
63EA7
 10
15937.4
 20
10523.8
 30
0.000000
  70
    32
  0
VERTEX
  8
SUNPOU
  5
63EA8
 10
15937.6
 20
10524.2
 30
0.000000
  70
    32
  0
VERTEX
  8
SUNPOU
  5
63EA9
 10
15937.7
 20
10524.5
 30
0.000000
  70
    32
  0
VERTEX
  8
SUNPOU
  5
63EAA
 10
15937.9
 20
10524.8
 30
0.000000
  70
    32
  0
VERTEX
  8
SUNPOU
  5
63EAB
 10
15938.1
 20
10525.1
 30
0.000000
  70
    32
  0
VERTEX
  8
SUNPOU
  5
63EAC
 10
15938.3
 20
10525.5
 30
0.000000
  70
    32
  0
VERTEX
  8
SUNPOU
  5
63EAD
 10
15938.5
 20
10525.8
 30
0.000000
  70
    32
  0
VERTEX
  8
SUNPOU
  5
63EAE
 10
15938.7
 20
10526.1
 30
0.000000
  70
    32
  0
VERTEX
  8
SUNPOU
  5
63EAF
 10
15938.9
 20
10526.4
 30
0.000000
  70
    32
  0
VERTEX
  8
SUNPOU
  5
63EB0
 10
15939.1
 20
10526.7
 30
0.000000
  70
    32
  0
VERTEX
  8
SUNPOU
  5
63EB1
 10
15939.3
 20
10527.0
 30
0.000000
  70
    32
  0
VERTEX
  8
SUNPOU
  5
63EB2
 10
15939.6
 20
10527.3
 30
0.000000
  70
    32
  0
VERTEX
  8
SUNPOU
  5
63EB3
 10
15939.8
 20
10527.5
 30
0.000000
  70
    32
  0
VERTEX
  8
SUNPOU
  5
63EB4
 10
15940.0
 20
10527.8
 30
0.000000
  70
    32
  0
VERTEX
  8
SUNPOU
  5
63EB5
 10
15940.3
 20
10528.1
 30
0.000000
  70
    32
  0
VERTEX
  8
SUNPOU
  5
63EB6
 10
15940.5
 20
10528.3
 30
0.000000
  70
    32
  0
VERTEX
  8
SUNPOU
  5
63EB7
 10
15940.8
 20
10528.6
 30
0.000000
  70
    32
  0
VERTEX
  8
SUNPOU
  5
63EB8
 10
15941.1
 20
10528.9
 30
0.000000
  70
    32
  0
VERTEX
  8
SUNPOU
  5
63EB9
 10
15941.4
 20
10529.1
 30
0.000000
  70
    32
  0
VERTEX
  8
SUNPOU
  5
63EBA
 10
15941.6
 20
10529.3
 30
0.000000
  70
    32
  0
VERTEX
  8
SUNPOU
  5
63EBB
 10
15941.9
 20
10529.6
 30
0.000000
  70
    32
  0
VERTEX
  8
SUNPOU
  5
63EBC
 10
15942.2
 20
10529.8
 30
0.000000
  70
    32
  0
VERTEX
  8
SUNPOU
  5
63EBD
 10
15942.5
 20
10530.0
 30
0.000000
  70
    32
  0
VERTEX
  8
SUNPOU
  5
63EBE
 10
15942.8
 20
10530.2
 30
0.000000
  70
    32
  0
VERTEX
  8
SUNPOU
  5
63EBF
 10
15943.1
 20
10530.4
 30
0.000000
  70
    32
  0
VERTEX
  8
SUNPOU
  5
63EC0
 10
15943.4
 20
10530.6
 30
0.000000
  70
    32
  0
VERTEX
  8
SUNPOU
  5
63EC1
 10
15943.8
 20
10530.8
 30
0.000000
  70
    32
  0
VERTEX
  8
SUNPOU
  5
63EC2
 10
15944.1
 20
10531.0
 30
0.000000
  70
    32
  0
VERTEX
  8
SUNPOU
  5
63EC3
 10
15944.4
 20
10531.1
 30
0.000000
  70
    32
  0
VERTEX
  8
SUNPOU
  5
63EC4
 10
15944.7
 20
10531.3
 30
0.000000
  70
    32
  0
VERTEX
  8
SUNPOU
  5
63EC5
 10
15945.1
 20
10531.5
 30
0.000000
  70
    32
  0
VERTEX
  8
SUNPOU
  5
63EC6
 10
15945.4
 20
10531.6
 30
0.000000
  70
    32
  0
VERTEX
  8
SUNPOU
  5
63EC7
 10
15945.7
 20
10531.7
 30
0.000000
  70
    32
  0
VERTEX
  8
SUNPOU
  5
63EC8
 10
15946.1
 20
10531.9
 30
0.000000
  70
    32
  0
VERTEX
  8
SUNPOU
  5
63EC9
 10
15946.4
 20
10532.0
 30
0.000000
  70
    32
  0
VERTEX
  8
SUNPOU
  5
63ECA
 10
15946.8
 20
10532.1
 30
0.000000
  70
    32
  0
VERTEX
  8
SUNPOU
  5
63ECB
 10
15947.1
 20
10532.2
 30
0.000000
  70
    32
  0
VERTEX
  8
SUNPOU
  5
63ECC
 10
15947.5
 20
10532.3
 30
0.000000
  70
    32
  0
VERTEX
  8
SUNPOU
  5
63ECD
 10
15947.9
 20
10532.4
 30
0.000000
  70
    32
  0
VERTEX
  8
SUNPOU
  5
63ECE
 10
15948.2
 20
10532.5
 30
0.000000
  70
    32
  0
VERTEX
  8
SUNPOU
  5
63ECF
 10
15948.6
 20
10532.5
 30
0.000000
  70
    32
  0
VERTEX
  8
SUNPOU
  5
63ED0
 10
15948.9
 20
10532.6
 30
0.000000
  70
    32
  0
VERTEX
  8
SUNPOU
  5
63ED1
 10
15949.3
 20
10532.6
 30
0.000000
  70
    32
  0
VERTEX
  8
SUNPOU
  5
63ED2
 10
15949.7
 20
10532.7
 30
0.000000
  70
    32
  0
VERTEX
  8
SUNPOU
  5
63ED3
 10
15950.0
 20
10532.7
 30
0.000000
  70
    32
  0
VERTEX
  8
SUNPOU
  5
63ED4
 10
15950.4
 20
10532.7
 30
0.000000
  70
    32
  0
VERTEX
  8
SUNPOU
  5
63ED5
 10
15950.8
 20
10532.7
 30
0.000000
  70
    32
  0
VERTEX
  8
SUNPOU
  5
63ED6
 10
15951.1
 20
10532.7
 30
0.000000
  70
    32
  0
SEQEND
  8
SUNPOU
  5
63ED7
  0
LINE
  5
63B35
  8
SUNPOU
 10
15951.148232486819
 20
10547.74023912564
 30
0.0
 11
15951.148232486819
 21
10577.74023912564
 31
0.0
  0
POLYLINE
  5
63B36
  8
SUNPOU
 10
15951.148232486819
 20
10932.740239125618
 30
0.0
 66
     1
 70
     8
  0
VERTEX
  8
SUNPOU
  5
63ED8
 10
15951.1
 20
10932.7
 30
0.000000
  70
    32
  0
VERTEX
  8
SUNPOU
  5
63ED9
 10
15951.5
 20
10932.7
 30
0.000000
  70
    32
  0
VERTEX
  8
SUNPOU
  5
63EDA
 10
15951.9
 20
10932.7
 30
0.000000
  70
    32
  0
VERTEX
  8
SUNPOU
  5
63EDB
 10
15952.3
 20
10932.7
 30
0.000000
  70
    32
  0
VERTEX
  8
SUNPOU
  5
63EDC
 10
15952.6
 20
10932.7
 30
0.000000
  70
    32
  0
VERTEX
  8
SUNPOU
  5
63EDD
 10
15953.0
 20
10932.6
 30
0.000000
  70
    32
  0
VERTEX
  8
SUNPOU
  5
63EDE
 10
15953.3
 20
10932.6
 30
0.000000
  70
    32
  0
VERTEX
  8
SUNPOU
  5
63EDF
 10
15953.7
 20
10932.5
 30
0.000000
  70
    32
  0
VERTEX
  8
SUNPOU
  5
63EE0
 10
15954.1
 20
10932.5
 30
0.000000
  70
    32
  0
VERTEX
  8
SUNPOU
  5
63EE1
 10
15954.4
 20
10932.4
 30
0.000000
  70
    32
  0
VERTEX
  8
SUNPOU
  5
63EE2
 10
15954.8
 20
10932.3
 30
0.000000
  70
    32
  0
VERTEX
  8
SUNPOU
  5
63EE3
 10
15955.1
 20
10932.2
 30
0.000000
  70
    32
  0
VERTEX
  8
SUNPOU
  5
63EE4
 10
15955.5
 20
10932.1
 30
0.000000
  70
    32
  0
VERTEX
  8
SUNPOU
  5
63EE5
 10
15955.9
 20
10932.0
 30
0.000000
  70
    32
  0
VERTEX
  8
SUNPOU
  5
63EE6
 10
15956.2
 20
10931.9
 30
0.000000
  70
    32
  0
VERTEX
  8
SUNPOU
  5
63EE7
 10
15956.5
 20
10931.7
 30
0.000000
  70
    32
  0
VERTEX
  8
SUNPOU
  5
63EE8
 10
15956.9
 20
10931.6
 30
0.000000
  70
    32
  0
VERTEX
  8
SUNPOU
  5
63EE9
 10
15957.2
 20
10931.5
 30
0.000000
  70
    32
  0
VERTEX
  8
SUNPOU
  5
63EEA
 10
15957.6
 20
10931.3
 30
0.000000
  70
    32
  0
VERTEX
  8
SUNPOU
  5
63EEB
 10
15957.9
 20
10931.1
 30
0.000000
  70
    32
  0
VERTEX
  8
SUNPOU
  5
63EEC
 10
15958.2
 20
10931.0
 30
0.000000
  70
    32
  0
VERTEX
  8
SUNPOU
  5
63EED
 10
15958.5
 20
10930.8
 30
0.000000
  70
    32
  0
VERTEX
  8
SUNPOU
  5
63EEE
 10
15958.9
 20
10930.6
 30
0.000000
  70
    32
  0
VERTEX
  8
SUNPOU
  5
63EEF
 10
15959.2
 20
10930.4
 30
0.000000
  70
    32
  0
VERTEX
  8
SUNPOU
  5
63EF0
 10
15959.5
 20
10930.2
 30
0.000000
  70
    32
  0
VERTEX
  8
SUNPOU
  5
63EF1
 10
15959.8
 20
10930.0
 30
0.000000
  70
    32
  0
VERTEX
  8
SUNPOU
  5
63EF2
 10
15960.1
 20
10929.8
 30
0.000000
  70
    32
  0
VERTEX
  8
SUNPOU
  5
63EF3
 10
15960.4
 20
10929.6
 30
0.000000
  70
    32
  0
VERTEX
  8
SUNPOU
  5
63EF4
 10
15960.7
 20
10929.3
 30
0.000000
  70
    32
  0
VERTEX
  8
SUNPOU
  5
63EF5
 10
15960.9
 20
10929.1
 30
0.000000
  70
    32
  0
VERTEX
  8
SUNPOU
  5
63EF6
 10
15961.2
 20
10928.9
 30
0.000000
  70
    32
  0
VERTEX
  8
SUNPOU
  5
63EF7
 10
15961.5
 20
10928.6
 30
0.000000
  70
    32
  0
VERTEX
  8
SUNPOU
  5
63EF8
 10
15961.8
 20
10928.3
 30
0.000000
  70
    32
  0
VERTEX
  8
SUNPOU
  5
63EF9
 10
15962.0
 20
10928.1
 30
0.000000
  70
    32
  0
VERTEX
  8
SUNPOU
  5
63EFA
 10
15962.3
 20
10927.8
 30
0.000000
  70
    32
  0
VERTEX
  8
SUNPOU
  5
63EFB
 10
15962.5
 20
10927.5
 30
0.000000
  70
    32
  0
VERTEX
  8
SUNPOU
  5
63EFC
 10
15962.7
 20
10927.3
 30
0.000000
  70
    32
  0
VERTEX
  8
SUNPOU
  5
63EFD
 10
15963.0
 20
10927.0
 30
0.000000
  70
    32
  0
VERTEX
  8
SUNPOU
  5
63EFE
 10
15963.2
 20
10926.7
 30
0.000000
  70
    32
  0
VERTEX
  8
SUNPOU
  5
63EFF
 10
15963.4
 20
10926.4
 30
0.000000
  70
    32
  0
VERTEX
  8
SUNPOU
  5
63F00
 10
15963.6
 20
10926.1
 30
0.000000
  70
    32
  0
VERTEX
  8
SUNPOU
  5
63F01
 10
15963.8
 20
10925.8
 30
0.000000
  70
    32
  0
VERTEX
  8
SUNPOU
  5
63F02
 10
15964.0
 20
10925.5
 30
0.000000
  70
    32
  0
VERTEX
  8
SUNPOU
  5
63F03
 10
15964.2
 20
10925.1
 30
0.000000
  70
    32
  0
VERTEX
  8
SUNPOU
  5
63F04
 10
15964.4
 20
10924.8
 30
0.000000
  70
    32
  0
VERTEX
  8
SUNPOU
  5
63F05
 10
15964.5
 20
10924.5
 30
0.000000
  70
    32
  0
VERTEX
  8
SUNPOU
  5
63F06
 10
15964.7
 20
10924.2
 30
0.000000
  70
    32
  0
VERTEX
  8
SUNPOU
  5
63F07
 10
15964.9
 20
10923.8
 30
0.000000
  70
    32
  0
VERTEX
  8
SUNPOU
  5
63F08
 10
15965.0
 20
10923.5
 30
0.000000
  70
    32
  0
VERTEX
  8
SUNPOU
  5
63F09
 10
15965.1
 20
10923.1
 30
0.000000
  70
    32
  0
VERTEX
  8
SUNPOU
  5
63F0A
 10
15965.3
 20
10922.8
 30
0.000000
  70
    32
  0
VERTEX
  8
SUNPOU
  5
63F0B
 10
15965.4
 20
10922.4
 30
0.000000
  70
    32
  0
VERTEX
  8
SUNPOU
  5
63F0C
 10
15965.5
 20
10922.1
 30
0.000000
  70
    32
  0
VERTEX
  8
SUNPOU
  5
63F0D
 10
15965.6
 20
10921.7
 30
0.000000
  70
    32
  0
VERTEX
  8
SUNPOU
  5
63F0E
 10
15965.7
 20
10921.4
 30
0.000000
  70
    32
  0
VERTEX
  8
SUNPOU
  5
63F0F
 10
15965.8
 20
10921.0
 30
0.000000
  70
    32
  0
VERTEX
  8
SUNPOU
  5
63F10
 10
15965.9
 20
10920.7
 30
0.000000
  70
    32
  0
VERTEX
  8
SUNPOU
  5
63F11
 10
15965.9
 20
10920.3
 30
0.000000
  70
    32
  0
VERTEX
  8
SUNPOU
  5
63F12
 10
15966.0
 20
10919.9
 30
0.000000
  70
    32
  0
VERTEX
  8
SUNPOU
  5
63F13
 10
15966.0
 20
10919.6
 30
0.000000
  70
    32
  0
VERTEX
  8
SUNPOU
  5
63F14
 10
15966.1
 20
10919.2
 30
0.000000
  70
    32
  0
VERTEX
  8
SUNPOU
  5
63F15
 10
15966.1
 20
10918.8
 30
0.000000
  70
    32
  0
VERTEX
  8
SUNPOU
  5
63F16
 10
15966.1
 20
10918.5
 30
0.000000
  70
    32
  0
VERTEX
  8
SUNPOU
  5
63F17
 10
15966.1
 20
10918.1
 30
0.000000
  70
    32
  0
VERTEX
  8
SUNPOU
  5
63F18
 10
15966.1
 20
10917.7
 30
0.000000
  70
    32
  0
VERTEX
  8
SUNPOU
  5
63F19
 10
15966.1
 20
10917.4
 30
0.000000
  70
    32
  0
VERTEX
  8
SUNPOU
  5
63F1A
 10
15966.1
 20
10917.0
 30
0.000000
  70
    32
  0
VERTEX
  8
SUNPOU
  5
63F1B
 10
15966.1
 20
10916.6
 30
0.000000
  70
    32
  0
VERTEX
  8
SUNPOU
  5
63F1C
 10
15966.1
 20
10916.3
 30
0.000000
  70
    32
  0
VERTEX
  8
SUNPOU
  5
63F1D
 10
15966.0
 20
10915.9
 30
0.000000
  70
    32
  0
VERTEX
  8
SUNPOU
  5
63F1E
 10
15966.0
 20
10915.5
 30
0.000000
  70
    32
  0
VERTEX
  8
SUNPOU
  5
63F1F
 10
15965.9
 20
10915.2
 30
0.000000
  70
    32
  0
VERTEX
  8
SUNPOU
  5
63F20
 10
15965.9
 20
10914.8
 30
0.000000
  70
    32
  0
VERTEX
  8
SUNPOU
  5
63F21
 10
15965.8
 20
10914.5
 30
0.000000
  70
    32
  0
VERTEX
  8
SUNPOU
  5
63F22
 10
15965.7
 20
10914.1
 30
0.000000
  70
    32
  0
VERTEX
  8
SUNPOU
  5
63F23
 10
15965.6
 20
10913.7
 30
0.000000
  70
    32
  0
VERTEX
  8
SUNPOU
  5
63F24
 10
15965.5
 20
10913.4
 30
0.000000
  70
    32
  0
VERTEX
  8
SUNPOU
  5
63F25
 10
15965.4
 20
10913.0
 30
0.000000
  70
    32
  0
VERTEX
  8
SUNPOU
  5
63F26
 10
15965.3
 20
10912.7
 30
0.000000
  70
    32
  0
VERTEX
  8
SUNPOU
  5
63F27
 10
15965.1
 20
10912.3
 30
0.000000
  70
    32
  0
VERTEX
  8
SUNPOU
  5
63F28
 10
15965.0
 20
10912.0
 30
0.000000
  70
    32
  0
VERTEX
  8
SUNPOU
  5
63F29
 10
15964.9
 20
10911.7
 30
0.000000
  70
    32
  0
VERTEX
  8
SUNPOU
  5
63F2A
 10
15964.7
 20
10911.3
 30
0.000000
  70
    32
  0
VERTEX
  8
SUNPOU
  5
63F2B
 10
15964.5
 20
10911.0
 30
0.000000
  70
    32
  0
VERTEX
  8
SUNPOU
  5
63F2C
 10
15964.4
 20
10910.7
 30
0.000000
  70
    32
  0
VERTEX
  8
SUNPOU
  5
63F2D
 10
15964.2
 20
10910.3
 30
0.000000
  70
    32
  0
VERTEX
  8
SUNPOU
  5
63F2E
 10
15964.0
 20
10910.0
 30
0.000000
  70
    32
  0
VERTEX
  8
SUNPOU
  5
63F2F
 10
15963.8
 20
10909.7
 30
0.000000
  70
    32
  0
VERTEX
  8
SUNPOU
  5
63F30
 10
15963.6
 20
10909.4
 30
0.000000
  70
    32
  0
VERTEX
  8
SUNPOU
  5
63F31
 10
15963.4
 20
10909.1
 30
0.000000
  70
    32
  0
VERTEX
  8
SUNPOU
  5
63F32
 10
15963.2
 20
10908.8
 30
0.000000
  70
    32
  0
VERTEX
  8
SUNPOU
  5
63F33
 10
15963.0
 20
10908.5
 30
0.000000
  70
    32
  0
VERTEX
  8
SUNPOU
  5
63F34
 10
15962.7
 20
10908.2
 30
0.000000
  70
    32
  0
VERTEX
  8
SUNPOU
  5
63F35
 10
15962.5
 20
10907.9
 30
0.000000
  70
    32
  0
VERTEX
  8
SUNPOU
  5
63F36
 10
15962.3
 20
10907.7
 30
0.000000
  70
    32
  0
VERTEX
  8
SUNPOU
  5
63F37
 10
15962.0
 20
10907.4
 30
0.000000
  70
    32
  0
VERTEX
  8
SUNPOU
  5
63F38
 10
15961.8
 20
10907.1
 30
0.000000
  70
    32
  0
VERTEX
  8
SUNPOU
  5
63F39
 10
15961.5
 20
10906.9
 30
0.000000
  70
    32
  0
VERTEX
  8
SUNPOU
  5
63F3A
 10
15961.2
 20
10906.6
 30
0.000000
  70
    32
  0
VERTEX
  8
SUNPOU
  5
63F3B
 10
15960.9
 20
10906.4
 30
0.000000
  70
    32
  0
VERTEX
  8
SUNPOU
  5
63F3C
 10
15960.7
 20
10906.1
 30
0.000000
  70
    32
  0
VERTEX
  8
SUNPOU
  5
63F3D
 10
15960.4
 20
10905.9
 30
0.000000
  70
    32
  0
VERTEX
  8
SUNPOU
  5
63F3E
 10
15960.1
 20
10905.7
 30
0.000000
  70
    32
  0
VERTEX
  8
SUNPOU
  5
63F3F
 10
15959.8
 20
10905.5
 30
0.000000
  70
    32
  0
VERTEX
  8
SUNPOU
  5
63F40
 10
15959.5
 20
10905.3
 30
0.000000
  70
    32
  0
VERTEX
  8
SUNPOU
  5
63F41
 10
15959.2
 20
10905.1
 30
0.000000
  70
    32
  0
VERTEX
  8
SUNPOU
  5
63F42
 10
15958.9
 20
10904.9
 30
0.000000
  70
    32
  0
VERTEX
  8
SUNPOU
  5
63F43
 10
15958.5
 20
10904.7
 30
0.000000
  70
    32
  0
VERTEX
  8
SUNPOU
  5
63F44
 10
15958.2
 20
10904.5
 30
0.000000
  70
    32
  0
VERTEX
  8
SUNPOU
  5
63F45
 10
15957.9
 20
10904.3
 30
0.000000
  70
    32
  0
VERTEX
  8
SUNPOU
  5
63F46
 10
15957.6
 20
10904.2
 30
0.000000
  70
    32
  0
VERTEX
  8
SUNPOU
  5
63F47
 10
15957.2
 20
10904.0
 30
0.000000
  70
    32
  0
VERTEX
  8
SUNPOU
  5
63F48
 10
15956.9
 20
10903.9
 30
0.000000
  70
    32
  0
VERTEX
  8
SUNPOU
  5
63F49
 10
15956.5
 20
10903.7
 30
0.000000
  70
    32
  0
VERTEX
  8
SUNPOU
  5
63F4A
 10
15956.2
 20
10903.6
 30
0.000000
  70
    32
  0
VERTEX
  8
SUNPOU
  5
63F4B
 10
15955.9
 20
10903.5
 30
0.000000
  70
    32
  0
VERTEX
  8
SUNPOU
  5
63F4C
 10
15955.5
 20
10903.4
 30
0.000000
  70
    32
  0
VERTEX
  8
SUNPOU
  5
63F4D
 10
15955.1
 20
10903.3
 30
0.000000
  70
    32
  0
VERTEX
  8
SUNPOU
  5
63F4E
 10
15954.8
 20
10903.2
 30
0.000000
  70
    32
  0
VERTEX
  8
SUNPOU
  5
63F4F
 10
15954.4
 20
10903.1
 30
0.000000
  70
    32
  0
VERTEX
  8
SUNPOU
  5
63F50
 10
15954.1
 20
10903.0
 30
0.000000
  70
    32
  0
VERTEX
  8
SUNPOU
  5
63F51
 10
15953.7
 20
10903.0
 30
0.000000
  70
    32
  0
VERTEX
  8
SUNPOU
  5
63F52
 10
15953.3
 20
10902.9
 30
0.000000
  70
    32
  0
VERTEX
  8
SUNPOU
  5
63F53
 10
15953.0
 20
10902.9
 30
0.000000
  70
    32
  0
VERTEX
  8
SUNPOU
  5
63F54
 10
15952.6
 20
10902.8
 30
0.000000
  70
    32
  0
VERTEX
  8
SUNPOU
  5
63F55
 10
15952.3
 20
10902.8
 30
0.000000
  70
    32
  0
VERTEX
  8
SUNPOU
  5
63F56
 10
15951.9
 20
10902.8
 30
0.000000
  70
    32
  0
VERTEX
  8
SUNPOU
  5
63F57
 10
15951.5
 20
10902.7
 30
0.000000
  70
    32
  0
VERTEX
  8
SUNPOU
  5
63F58
 10
15951.1
 20
10902.7
 30
0.000000
  70
    32
  0
SEQEND
  8
SUNPOU
  5
63F59
  0
POLYLINE
  5
63B37
  8
SUNPOU
 10
15951.148232486819
 20
10902.740239125622
 30
0.0
 66
     1
 70
     8
  0
VERTEX
  8
SUNPOU
  5
63F5A
 10
15951.1
 20
10902.7
 30
0.000000
  70
    32
  0
VERTEX
  8
SUNPOU
  5
63F5B
 10
15950.8
 20
10902.7
 30
0.000000
  70
    32
  0
VERTEX
  8
SUNPOU
  5
63F5C
 10
15950.4
 20
10902.8
 30
0.000000
  70
    32
  0
VERTEX
  8
SUNPOU
  5
63F5D
 10
15950.0
 20
10902.8
 30
0.000000
  70
    32
  0
VERTEX
  8
SUNPOU
  5
63F5E
 10
15949.7
 20
10902.8
 30
0.000000
  70
    32
  0
VERTEX
  8
SUNPOU
  5
63F5F
 10
15949.3
 20
10902.9
 30
0.000000
  70
    32
  0
VERTEX
  8
SUNPOU
  5
63F60
 10
15948.9
 20
10902.9
 30
0.000000
  70
    32
  0
VERTEX
  8
SUNPOU
  5
63F61
 10
15948.6
 20
10903.0
 30
0.000000
  70
    32
  0
VERTEX
  8
SUNPOU
  5
63F62
 10
15948.2
 20
10903.0
 30
0.000000
  70
    32
  0
VERTEX
  8
SUNPOU
  5
63F63
 10
15947.9
 20
10903.1
 30
0.000000
  70
    32
  0
VERTEX
  8
SUNPOU
  5
63F64
 10
15947.5
 20
10903.2
 30
0.000000
  70
    32
  0
VERTEX
  8
SUNPOU
  5
63F65
 10
15947.1
 20
10903.3
 30
0.000000
  70
    32
  0
VERTEX
  8
SUNPOU
  5
63F66
 10
15946.8
 20
10903.4
 30
0.000000
  70
    32
  0
VERTEX
  8
SUNPOU
  5
63F67
 10
15946.4
 20
10903.5
 30
0.000000
  70
    32
  0
VERTEX
  8
SUNPOU
  5
63F68
 10
15946.1
 20
10903.6
 30
0.000000
  70
    32
  0
VERTEX
  8
SUNPOU
  5
63F69
 10
15945.7
 20
10903.7
 30
0.000000
  70
    32
  0
VERTEX
  8
SUNPOU
  5
63F6A
 10
15945.4
 20
10903.9
 30
0.000000
  70
    32
  0
VERTEX
  8
SUNPOU
  5
63F6B
 10
15945.1
 20
10904.0
 30
0.000000
  70
    32
  0
VERTEX
  8
SUNPOU
  5
63F6C
 10
15944.7
 20
10904.2
 30
0.000000
  70
    32
  0
VERTEX
  8
SUNPOU
  5
63F6D
 10
15944.4
 20
10904.3
 30
0.000000
  70
    32
  0
VERTEX
  8
SUNPOU
  5
63F6E
 10
15944.1
 20
10904.5
 30
0.000000
  70
    32
  0
VERTEX
  8
SUNPOU
  5
63F6F
 10
15943.8
 20
10904.7
 30
0.000000
  70
    32
  0
VERTEX
  8
SUNPOU
  5
63F70
 10
15943.4
 20
10904.9
 30
0.000000
  70
    32
  0
VERTEX
  8
SUNPOU
  5
63F71
 10
15943.1
 20
10905.1
 30
0.000000
  70
    32
  0
VERTEX
  8
SUNPOU
  5
63F72
 10
15942.8
 20
10905.3
 30
0.000000
  70
    32
  0
VERTEX
  8
SUNPOU
  5
63F73
 10
15942.5
 20
10905.5
 30
0.000000
  70
    32
  0
VERTEX
  8
SUNPOU
  5
63F74
 10
15942.2
 20
10905.7
 30
0.000000
  70
    32
  0
VERTEX
  8
SUNPOU
  5
63F75
 10
15941.9
 20
10905.9
 30
0.000000
  70
    32
  0
VERTEX
  8
SUNPOU
  5
63F76
 10
15941.6
 20
10906.1
 30
0.000000
  70
    32
  0
VERTEX
  8
SUNPOU
  5
63F77
 10
15941.4
 20
10906.4
 30
0.000000
  70
    32
  0
VERTEX
  8
SUNPOU
  5
63F78
 10
15941.1
 20
10906.6
 30
0.000000
  70
    32
  0
VERTEX
  8
SUNPOU
  5
63F79
 10
15940.8
 20
10906.9
 30
0.000000
  70
    32
  0
VERTEX
  8
SUNPOU
  5
63F7A
 10
15940.5
 20
10907.1
 30
0.000000
  70
    32
  0
VERTEX
  8
SUNPOU
  5
63F7B
 10
15940.3
 20
10907.4
 30
0.000000
  70
    32
  0
VERTEX
  8
SUNPOU
  5
63F7C
 10
15940.0
 20
10907.7
 30
0.000000
  70
    32
  0
VERTEX
  8
SUNPOU
  5
63F7D
 10
15939.8
 20
10907.9
 30
0.000000
  70
    32
  0
VERTEX
  8
SUNPOU
  5
63F7E
 10
15939.6
 20
10908.2
 30
0.000000
  70
    32
  0
VERTEX
  8
SUNPOU
  5
63F7F
 10
15939.3
 20
10908.5
 30
0.000000
  70
    32
  0
VERTEX
  8
SUNPOU
  5
63F80
 10
15939.1
 20
10908.8
 30
0.000000
  70
    32
  0
VERTEX
  8
SUNPOU
  5
63F81
 10
15938.9
 20
10909.1
 30
0.000000
  70
    32
  0
VERTEX
  8
SUNPOU
  5
63F82
 10
15938.7
 20
10909.4
 30
0.000000
  70
    32
  0
VERTEX
  8
SUNPOU
  5
63F83
 10
15938.5
 20
10909.7
 30
0.000000
  70
    32
  0
VERTEX
  8
SUNPOU
  5
63F84
 10
15938.3
 20
10910.0
 30
0.000000
  70
    32
  0
VERTEX
  8
SUNPOU
  5
63F85
 10
15938.1
 20
10910.3
 30
0.000000
  70
    32
  0
VERTEX
  8
SUNPOU
  5
63F86
 10
15937.9
 20
10910.7
 30
0.000000
  70
    32
  0
VERTEX
  8
SUNPOU
  5
63F87
 10
15937.7
 20
10911.0
 30
0.000000
  70
    32
  0
VERTEX
  8
SUNPOU
  5
63F88
 10
15937.6
 20
10911.3
 30
0.000000
  70
    32
  0
VERTEX
  8
SUNPOU
  5
63F89
 10
15937.4
 20
10911.7
 30
0.000000
  70
    32
  0
VERTEX
  8
SUNPOU
  5
63F8A
 10
15937.3
 20
10912.0
 30
0.000000
  70
    32
  0
VERTEX
  8
SUNPOU
  5
63F8B
 10
15937.2
 20
10912.3
 30
0.000000
  70
    32
  0
VERTEX
  8
SUNPOU
  5
63F8C
 10
15937.0
 20
10912.7
 30
0.000000
  70
    32
  0
VERTEX
  8
SUNPOU
  5
63F8D
 10
15936.9
 20
10913.0
 30
0.000000
  70
    32
  0
VERTEX
  8
SUNPOU
  5
63F8E
 10
15936.8
 20
10913.4
 30
0.000000
  70
    32
  0
VERTEX
  8
SUNPOU
  5
63F8F
 10
15936.7
 20
10913.7
 30
0.000000
  70
    32
  0
VERTEX
  8
SUNPOU
  5
63F90
 10
15936.6
 20
10914.1
 30
0.000000
  70
    32
  0
VERTEX
  8
SUNPOU
  5
63F91
 10
15936.5
 20
10914.5
 30
0.000000
  70
    32
  0
VERTEX
  8
SUNPOU
  5
63F92
 10
15936.4
 20
10914.8
 30
0.000000
  70
    32
  0
VERTEX
  8
SUNPOU
  5
63F93
 10
15936.4
 20
10915.2
 30
0.000000
  70
    32
  0
VERTEX
  8
SUNPOU
  5
63F94
 10
15936.3
 20
10915.5
 30
0.000000
  70
    32
  0
VERTEX
  8
SUNPOU
  5
63F95
 10
15936.3
 20
10915.9
 30
0.000000
  70
    32
  0
VERTEX
  8
SUNPOU
  5
63F96
 10
15936.2
 20
10916.3
 30
0.000000
  70
    32
  0
VERTEX
  8
SUNPOU
  5
63F97
 10
15936.2
 20
10916.6
 30
0.000000
  70
    32
  0
VERTEX
  8
SUNPOU
  5
63F98
 10
15936.2
 20
10917.0
 30
0.000000
  70
    32
  0
VERTEX
  8
SUNPOU
  5
63F99
 10
15936.2
 20
10917.4
 30
0.000000
  70
    32
  0
VERTEX
  8
SUNPOU
  5
63F9A
 10
15936.1
 20
10917.7
 30
0.000000
  70
    32
  0
VERTEX
  8
SUNPOU
  5
63F9B
 10
15936.2
 20
10918.1
 30
0.000000
  70
    32
  0
VERTEX
  8
SUNPOU
  5
63F9C
 10
15936.2
 20
10918.5
 30
0.000000
  70
    32
  0
VERTEX
  8
SUNPOU
  5
63F9D
 10
15936.2
 20
10918.8
 30
0.000000
  70
    32
  0
VERTEX
  8
SUNPOU
  5
63F9E
 10
15936.2
 20
10919.2
 30
0.000000
  70
    32
  0
VERTEX
  8
SUNPOU
  5
63F9F
 10
15936.3
 20
10919.6
 30
0.000000
  70
    32
  0
VERTEX
  8
SUNPOU
  5
63FA0
 10
15936.3
 20
10919.9
 30
0.000000
  70
    32
  0
VERTEX
  8
SUNPOU
  5
63FA1
 10
15936.4
 20
10920.3
 30
0.000000
  70
    32
  0
VERTEX
  8
SUNPOU
  5
63FA2
 10
15936.4
 20
10920.7
 30
0.000000
  70
    32
  0
VERTEX
  8
SUNPOU
  5
63FA3
 10
15936.5
 20
10921.0
 30
0.000000
  70
    32
  0
VERTEX
  8
SUNPOU
  5
63FA4
 10
15936.6
 20
10921.4
 30
0.000000
  70
    32
  0
VERTEX
  8
SUNPOU
  5
63FA5
 10
15936.7
 20
10921.7
 30
0.000000
  70
    32
  0
VERTEX
  8
SUNPOU
  5
63FA6
 10
15936.8
 20
10922.1
 30
0.000000
  70
    32
  0
VERTEX
  8
SUNPOU
  5
63FA7
 10
15936.9
 20
10922.4
 30
0.000000
  70
    32
  0
VERTEX
  8
SUNPOU
  5
63FA8
 10
15937.0
 20
10922.8
 30
0.000000
  70
    32
  0
VERTEX
  8
SUNPOU
  5
63FA9
 10
15937.2
 20
10923.1
 30
0.000000
  70
    32
  0
VERTEX
  8
SUNPOU
  5
63FAA
 10
15937.3
 20
10923.5
 30
0.000000
  70
    32
  0
VERTEX
  8
SUNPOU
  5
63FAB
 10
15937.4
 20
10923.8
 30
0.000000
  70
    32
  0
VERTEX
  8
SUNPOU
  5
63FAC
 10
15937.6
 20
10924.2
 30
0.000000
  70
    32
  0
VERTEX
  8
SUNPOU
  5
63FAD
 10
15937.7
 20
10924.5
 30
0.000000
  70
    32
  0
VERTEX
  8
SUNPOU
  5
63FAE
 10
15937.9
 20
10924.8
 30
0.000000
  70
    32
  0
VERTEX
  8
SUNPOU
  5
63FAF
 10
15938.1
 20
10925.1
 30
0.000000
  70
    32
  0
VERTEX
  8
SUNPOU
  5
63FB0
 10
15938.3
 20
10925.5
 30
0.000000
  70
    32
  0
VERTEX
  8
SUNPOU
  5
63FB1
 10
15938.5
 20
10925.8
 30
0.000000
  70
    32
  0
VERTEX
  8
SUNPOU
  5
63FB2
 10
15938.7
 20
10926.1
 30
0.000000
  70
    32
  0
VERTEX
  8
SUNPOU
  5
63FB3
 10
15938.9
 20
10926.4
 30
0.000000
  70
    32
  0
VERTEX
  8
SUNPOU
  5
63FB4
 10
15939.1
 20
10926.7
 30
0.000000
  70
    32
  0
VERTEX
  8
SUNPOU
  5
63FB5
 10
15939.3
 20
10927.0
 30
0.000000
  70
    32
  0
VERTEX
  8
SUNPOU
  5
63FB6
 10
15939.6
 20
10927.3
 30
0.000000
  70
    32
  0
VERTEX
  8
SUNPOU
  5
63FB7
 10
15939.8
 20
10927.5
 30
0.000000
  70
    32
  0
VERTEX
  8
SUNPOU
  5
63FB8
 10
15940.0
 20
10927.8
 30
0.000000
  70
    32
  0
VERTEX
  8
SUNPOU
  5
63FB9
 10
15940.3
 20
10928.1
 30
0.000000
  70
    32
  0
VERTEX
  8
SUNPOU
  5
63FBA
 10
15940.5
 20
10928.3
 30
0.000000
  70
    32
  0
VERTEX
  8
SUNPOU
  5
63FBB
 10
15940.8
 20
10928.6
 30
0.000000
  70
    32
  0
VERTEX
  8
SUNPOU
  5
63FBC
 10
15941.1
 20
10928.9
 30
0.000000
  70
    32
  0
VERTEX
  8
SUNPOU
  5
63FBD
 10
15941.4
 20
10929.1
 30
0.000000
  70
    32
  0
VERTEX
  8
SUNPOU
  5
63FBE
 10
15941.6
 20
10929.3
 30
0.000000
  70
    32
  0
VERTEX
  8
SUNPOU
  5
63FBF
 10
15941.9
 20
10929.6
 30
0.000000
  70
    32
  0
VERTEX
  8
SUNPOU
  5
63FC0
 10
15942.2
 20
10929.8
 30
0.000000
  70
    32
  0
VERTEX
  8
SUNPOU
  5
63FC1
 10
15942.5
 20
10930.0
 30
0.000000
  70
    32
  0
VERTEX
  8
SUNPOU
  5
63FC2
 10
15942.8
 20
10930.2
 30
0.000000
  70
    32
  0
VERTEX
  8
SUNPOU
  5
63FC3
 10
15943.1
 20
10930.4
 30
0.000000
  70
    32
  0
VERTEX
  8
SUNPOU
  5
63FC4
 10
15943.4
 20
10930.6
 30
0.000000
  70
    32
  0
VERTEX
  8
SUNPOU
  5
63FC5
 10
15943.8
 20
10930.8
 30
0.000000
  70
    32
  0
VERTEX
  8
SUNPOU
  5
63FC6
 10
15944.1
 20
10931.0
 30
0.000000
  70
    32
  0
VERTEX
  8
SUNPOU
  5
63FC7
 10
15944.4
 20
10931.1
 30
0.000000
  70
    32
  0
VERTEX
  8
SUNPOU
  5
63FC8
 10
15944.7
 20
10931.3
 30
0.000000
  70
    32
  0
VERTEX
  8
SUNPOU
  5
63FC9
 10
15945.1
 20
10931.5
 30
0.000000
  70
    32
  0
VERTEX
  8
SUNPOU
  5
63FCA
 10
15945.4
 20
10931.6
 30
0.000000
  70
    32
  0
VERTEX
  8
SUNPOU
  5
63FCB
 10
15945.7
 20
10931.7
 30
0.000000
  70
    32
  0
VERTEX
  8
SUNPOU
  5
63FCC
 10
15946.1
 20
10931.9
 30
0.000000
  70
    32
  0
VERTEX
  8
SUNPOU
  5
63FCD
 10
15946.4
 20
10932.0
 30
0.000000
  70
    32
  0
VERTEX
  8
SUNPOU
  5
63FCE
 10
15946.8
 20
10932.1
 30
0.000000
  70
    32
  0
VERTEX
  8
SUNPOU
  5
63FCF
 10
15947.1
 20
10932.2
 30
0.000000
  70
    32
  0
VERTEX
  8
SUNPOU
  5
63FD0
 10
15947.5
 20
10932.3
 30
0.000000
  70
    32
  0
VERTEX
  8
SUNPOU
  5
63FD1
 10
15947.9
 20
10932.4
 30
0.000000
  70
    32
  0
VERTEX
  8
SUNPOU
  5
63FD2
 10
15948.2
 20
10932.5
 30
0.000000
  70
    32
  0
VERTEX
  8
SUNPOU
  5
63FD3
 10
15948.6
 20
10932.5
 30
0.000000
  70
    32
  0
VERTEX
  8
SUNPOU
  5
63FD4
 10
15948.9
 20
10932.6
 30
0.000000
  70
    32
  0
VERTEX
  8
SUNPOU
  5
63FD5
 10
15949.3
 20
10932.6
 30
0.000000
  70
    32
  0
VERTEX
  8
SUNPOU
  5
63FD6
 10
15949.7
 20
10932.7
 30
0.000000
  70
    32
  0
VERTEX
  8
SUNPOU
  5
63FD7
 10
15950.0
 20
10932.7
 30
0.000000
  70
    32
  0
VERTEX
  8
SUNPOU
  5
63FD8
 10
15950.4
 20
10932.7
 30
0.000000
  70
    32
  0
VERTEX
  8
SUNPOU
  5
63FD9
 10
15950.8
 20
10932.7
 30
0.000000
  70
    32
  0
VERTEX
  8
SUNPOU
  5
63FDA
 10
15951.1
 20
10932.7
 30
0.000000
  70
    32
  0
SEQEND
  8
SUNPOU
  5
63FDB
  0
LINE
  5
63B38
  8
SUNPOU
 10
15951.148232486819
 20
10947.740239125609
 30
0.0
 11
15951.148232486819
 21
10977.740239125609
 31
0.0
  0
POLYLINE
  5
63B39
  8
SUNPOU
 10
15951.148232486819
 20
10902.740239125622
 30
0.0
 66
     1
 70
     8
  0
VERTEX
  8
SUNPOU
  5
63FDC
 10
15951.1
 20
10902.7
 30
0.000000
  70
    32
  0
VERTEX
  8
SUNPOU
  5
63FDD
 10
15950.8
 20
10902.7
 30
0.000000
  70
    32
  0
VERTEX
  8
SUNPOU
  5
63FDE
 10
15950.4
 20
10902.8
 30
0.000000
  70
    32
  0
VERTEX
  8
SUNPOU
  5
63FDF
 10
15950.0
 20
10902.8
 30
0.000000
  70
    32
  0
VERTEX
  8
SUNPOU
  5
63FE0
 10
15949.7
 20
10902.8
 30
0.000000
  70
    32
  0
VERTEX
  8
SUNPOU
  5
63FE1
 10
15949.3
 20
10902.9
 30
0.000000
  70
    32
  0
VERTEX
  8
SUNPOU
  5
63FE2
 10
15948.9
 20
10902.9
 30
0.000000
  70
    32
  0
VERTEX
  8
SUNPOU
  5
63FE3
 10
15948.6
 20
10903.0
 30
0.000000
  70
    32
  0
VERTEX
  8
SUNPOU
  5
63FE4
 10
15948.2
 20
10903.0
 30
0.000000
  70
    32
  0
VERTEX
  8
SUNPOU
  5
63FE5
 10
15947.9
 20
10903.1
 30
0.000000
  70
    32
  0
VERTEX
  8
SUNPOU
  5
63FE6
 10
15947.5
 20
10903.2
 30
0.000000
  70
    32
  0
VERTEX
  8
SUNPOU
  5
63FE7
 10
15947.1
 20
10903.3
 30
0.000000
  70
    32
  0
VERTEX
  8
SUNPOU
  5
63FE8
 10
15946.8
 20
10903.4
 30
0.000000
  70
    32
  0
VERTEX
  8
SUNPOU
  5
63FE9
 10
15946.4
 20
10903.5
 30
0.000000
  70
    32
  0
VERTEX
  8
SUNPOU
  5
63FEA
 10
15946.1
 20
10903.6
 30
0.000000
  70
    32
  0
VERTEX
  8
SUNPOU
  5
63FEB
 10
15945.7
 20
10903.7
 30
0.000000
  70
    32
  0
VERTEX
  8
SUNPOU
  5
63FEC
 10
15945.4
 20
10903.9
 30
0.000000
  70
    32
  0
VERTEX
  8
SUNPOU
  5
63FED
 10
15945.1
 20
10904.0
 30
0.000000
  70
    32
  0
VERTEX
  8
SUNPOU
  5
63FEE
 10
15944.7
 20
10904.2
 30
0.000000
  70
    32
  0
VERTEX
  8
SUNPOU
  5
63FEF
 10
15944.4
 20
10904.3
 30
0.000000
  70
    32
  0
VERTEX
  8
SUNPOU
  5
63FF0
 10
15944.1
 20
10904.5
 30
0.000000
  70
    32
  0
VERTEX
  8
SUNPOU
  5
63FF1
 10
15943.8
 20
10904.7
 30
0.000000
  70
    32
  0
VERTEX
  8
SUNPOU
  5
63FF2
 10
15943.4
 20
10904.9
 30
0.000000
  70
    32
  0
VERTEX
  8
SUNPOU
  5
63FF3
 10
15943.1
 20
10905.1
 30
0.000000
  70
    32
  0
VERTEX
  8
SUNPOU
  5
63FF4
 10
15942.8
 20
10905.3
 30
0.000000
  70
    32
  0
VERTEX
  8
SUNPOU
  5
63FF5
 10
15942.5
 20
10905.5
 30
0.000000
  70
    32
  0
VERTEX
  8
SUNPOU
  5
63FF6
 10
15942.2
 20
10905.7
 30
0.000000
  70
    32
  0
VERTEX
  8
SUNPOU
  5
63FF7
 10
15941.9
 20
10905.9
 30
0.000000
  70
    32
  0
VERTEX
  8
SUNPOU
  5
63FF8
 10
15941.6
 20
10906.1
 30
0.000000
  70
    32
  0
VERTEX
  8
SUNPOU
  5
63FF9
 10
15941.4
 20
10906.4
 30
0.000000
  70
    32
  0
VERTEX
  8
SUNPOU
  5
63FFA
 10
15941.1
 20
10906.6
 30
0.000000
  70
    32
  0
VERTEX
  8
SUNPOU
  5
63FFB
 10
15940.8
 20
10906.9
 30
0.000000
  70
    32
  0
VERTEX
  8
SUNPOU
  5
63FFC
 10
15940.5
 20
10907.1
 30
0.000000
  70
    32
  0
VERTEX
  8
SUNPOU
  5
63FFD
 10
15940.3
 20
10907.4
 30
0.000000
  70
    32
  0
VERTEX
  8
SUNPOU
  5
63FFE
 10
15940.0
 20
10907.7
 30
0.000000
  70
    32
  0
VERTEX
  8
SUNPOU
  5
63FFF
 10
15939.8
 20
10907.9
 30
0.000000
  70
    32
  0
VERTEX
  8
SUNPOU
  5
64000
 10
15939.6
 20
10908.2
 30
0.000000
  70
    32
  0
VERTEX
  8
SUNPOU
  5
64001
 10
15939.3
 20
10908.5
 30
0.000000
  70
    32
  0
VERTEX
  8
SUNPOU
  5
64002
 10
15939.1
 20
10908.8
 30
0.000000
  70
    32
  0
VERTEX
  8
SUNPOU
  5
64003
 10
15938.9
 20
10909.1
 30
0.000000
  70
    32
  0
VERTEX
  8
SUNPOU
  5
64004
 10
15938.7
 20
10909.4
 30
0.000000
  70
    32
  0
VERTEX
  8
SUNPOU
  5
64005
 10
15938.5
 20
10909.7
 30
0.000000
  70
    32
  0
VERTEX
  8
SUNPOU
  5
64006
 10
15938.3
 20
10910.0
 30
0.000000
  70
    32
  0
VERTEX
  8
SUNPOU
  5
64007
 10
15938.1
 20
10910.3
 30
0.000000
  70
    32
  0
VERTEX
  8
SUNPOU
  5
64008
 10
15937.9
 20
10910.7
 30
0.000000
  70
    32
  0
VERTEX
  8
SUNPOU
  5
64009
 10
15937.7
 20
10911.0
 30
0.000000
  70
    32
  0
VERTEX
  8
SUNPOU
  5
6400A
 10
15937.6
 20
10911.3
 30
0.000000
  70
    32
  0
VERTEX
  8
SUNPOU
  5
6400B
 10
15937.4
 20
10911.7
 30
0.000000
  70
    32
  0
VERTEX
  8
SUNPOU
  5
6400C
 10
15937.3
 20
10912.0
 30
0.000000
  70
    32
  0
VERTEX
  8
SUNPOU
  5
6400D
 10
15937.2
 20
10912.3
 30
0.000000
  70
    32
  0
VERTEX
  8
SUNPOU
  5
6400E
 10
15937.0
 20
10912.7
 30
0.000000
  70
    32
  0
VERTEX
  8
SUNPOU
  5
6400F
 10
15936.9
 20
10913.0
 30
0.000000
  70
    32
  0
VERTEX
  8
SUNPOU
  5
64010
 10
15936.8
 20
10913.4
 30
0.000000
  70
    32
  0
VERTEX
  8
SUNPOU
  5
64011
 10
15936.7
 20
10913.7
 30
0.000000
  70
    32
  0
VERTEX
  8
SUNPOU
  5
64012
 10
15936.6
 20
10914.1
 30
0.000000
  70
    32
  0
VERTEX
  8
SUNPOU
  5
64013
 10
15936.5
 20
10914.5
 30
0.000000
  70
    32
  0
VERTEX
  8
SUNPOU
  5
64014
 10
15936.4
 20
10914.8
 30
0.000000
  70
    32
  0
VERTEX
  8
SUNPOU
  5
64015
 10
15936.4
 20
10915.2
 30
0.000000
  70
    32
  0
VERTEX
  8
SUNPOU
  5
64016
 10
15936.3
 20
10915.5
 30
0.000000
  70
    32
  0
VERTEX
  8
SUNPOU
  5
64017
 10
15936.3
 20
10915.9
 30
0.000000
  70
    32
  0
VERTEX
  8
SUNPOU
  5
64018
 10
15936.2
 20
10916.3
 30
0.000000
  70
    32
  0
VERTEX
  8
SUNPOU
  5
64019
 10
15936.2
 20
10916.6
 30
0.000000
  70
    32
  0
VERTEX
  8
SUNPOU
  5
6401A
 10
15936.2
 20
10917.0
 30
0.000000
  70
    32
  0
VERTEX
  8
SUNPOU
  5
6401B
 10
15936.2
 20
10917.4
 30
0.000000
  70
    32
  0
VERTEX
  8
SUNPOU
  5
6401C
 10
15936.1
 20
10917.7
 30
0.000000
  70
    32
  0
VERTEX
  8
SUNPOU
  5
6401D
 10
15936.2
 20
10918.1
 30
0.000000
  70
    32
  0
VERTEX
  8
SUNPOU
  5
6401E
 10
15936.2
 20
10918.5
 30
0.000000
  70
    32
  0
VERTEX
  8
SUNPOU
  5
6401F
 10
15936.2
 20
10918.8
 30
0.000000
  70
    32
  0
VERTEX
  8
SUNPOU
  5
64020
 10
15936.2
 20
10919.2
 30
0.000000
  70
    32
  0
VERTEX
  8
SUNPOU
  5
64021
 10
15936.3
 20
10919.6
 30
0.000000
  70
    32
  0
VERTEX
  8
SUNPOU
  5
64022
 10
15936.3
 20
10919.9
 30
0.000000
  70
    32
  0
VERTEX
  8
SUNPOU
  5
64023
 10
15936.4
 20
10920.3
 30
0.000000
  70
    32
  0
VERTEX
  8
SUNPOU
  5
64024
 10
15936.4
 20
10920.7
 30
0.000000
  70
    32
  0
VERTEX
  8
SUNPOU
  5
64025
 10
15936.5
 20
10921.0
 30
0.000000
  70
    32
  0
VERTEX
  8
SUNPOU
  5
64026
 10
15936.6
 20
10921.4
 30
0.000000
  70
    32
  0
VERTEX
  8
SUNPOU
  5
64027
 10
15936.7
 20
10921.7
 30
0.000000
  70
    32
  0
VERTEX
  8
SUNPOU
  5
64028
 10
15936.8
 20
10922.1
 30
0.000000
  70
    32
  0
VERTEX
  8
SUNPOU
  5
64029
 10
15936.9
 20
10922.4
 30
0.000000
  70
    32
  0
VERTEX
  8
SUNPOU
  5
6402A
 10
15937.0
 20
10922.8
 30
0.000000
  70
    32
  0
VERTEX
  8
SUNPOU
  5
6402B
 10
15937.2
 20
10923.1
 30
0.000000
  70
    32
  0
VERTEX
  8
SUNPOU
  5
6402C
 10
15937.3
 20
10923.5
 30
0.000000
  70
    32
  0
VERTEX
  8
SUNPOU
  5
6402D
 10
15937.4
 20
10923.8
 30
0.000000
  70
    32
  0
VERTEX
  8
SUNPOU
  5
6402E
 10
15937.6
 20
10924.2
 30
0.000000
  70
    32
  0
VERTEX
  8
SUNPOU
  5
6402F
 10
15937.7
 20
10924.5
 30
0.000000
  70
    32
  0
VERTEX
  8
SUNPOU
  5
64030
 10
15937.9
 20
10924.8
 30
0.000000
  70
    32
  0
VERTEX
  8
SUNPOU
  5
64031
 10
15938.1
 20
10925.1
 30
0.000000
  70
    32
  0
VERTEX
  8
SUNPOU
  5
64032
 10
15938.3
 20
10925.5
 30
0.000000
  70
    32
  0
VERTEX
  8
SUNPOU
  5
64033
 10
15938.5
 20
10925.8
 30
0.000000
  70
    32
  0
VERTEX
  8
SUNPOU
  5
64034
 10
15938.7
 20
10926.1
 30
0.000000
  70
    32
  0
VERTEX
  8
SUNPOU
  5
64035
 10
15938.9
 20
10926.4
 30
0.000000
  70
    32
  0
VERTEX
  8
SUNPOU
  5
64036
 10
15939.1
 20
10926.7
 30
0.000000
  70
    32
  0
VERTEX
  8
SUNPOU
  5
64037
 10
15939.3
 20
10927.0
 30
0.000000
  70
    32
  0
VERTEX
  8
SUNPOU
  5
64038
 10
15939.6
 20
10927.3
 30
0.000000
  70
    32
  0
VERTEX
  8
SUNPOU
  5
64039
 10
15939.8
 20
10927.5
 30
0.000000
  70
    32
  0
VERTEX
  8
SUNPOU
  5
6403A
 10
15940.0
 20
10927.8
 30
0.000000
  70
    32
  0
VERTEX
  8
SUNPOU
  5
6403B
 10
15940.3
 20
10928.1
 30
0.000000
  70
    32
  0
VERTEX
  8
SUNPOU
  5
6403C
 10
15940.5
 20
10928.3
 30
0.000000
  70
    32
  0
VERTEX
  8
SUNPOU
  5
6403D
 10
15940.8
 20
10928.6
 30
0.000000
  70
    32
  0
VERTEX
  8
SUNPOU
  5
6403E
 10
15941.1
 20
10928.9
 30
0.000000
  70
    32
  0
VERTEX
  8
SUNPOU
  5
6403F
 10
15941.4
 20
10929.1
 30
0.000000
  70
    32
  0
VERTEX
  8
SUNPOU
  5
64040
 10
15941.6
 20
10929.3
 30
0.000000
  70
    32
  0
VERTEX
  8
SUNPOU
  5
64041
 10
15941.9
 20
10929.6
 30
0.000000
  70
    32
  0
VERTEX
  8
SUNPOU
  5
64042
 10
15942.2
 20
10929.8
 30
0.000000
  70
    32
  0
VERTEX
  8
SUNPOU
  5
64043
 10
15942.5
 20
10930.0
 30
0.000000
  70
    32
  0
VERTEX
  8
SUNPOU
  5
64044
 10
15942.8
 20
10930.2
 30
0.000000
  70
    32
  0
VERTEX
  8
SUNPOU
  5
64045
 10
15943.1
 20
10930.4
 30
0.000000
  70
    32
  0
VERTEX
  8
SUNPOU
  5
64046
 10
15943.4
 20
10930.6
 30
0.000000
  70
    32
  0
VERTEX
  8
SUNPOU
  5
64047
 10
15943.8
 20
10930.8
 30
0.000000
  70
    32
  0
VERTEX
  8
SUNPOU
  5
64048
 10
15944.1
 20
10931.0
 30
0.000000
  70
    32
  0
VERTEX
  8
SUNPOU
  5
64049
 10
15944.4
 20
10931.1
 30
0.000000
  70
    32
  0
VERTEX
  8
SUNPOU
  5
6404A
 10
15944.7
 20
10931.3
 30
0.000000
  70
    32
  0
VERTEX
  8
SUNPOU
  5
6404B
 10
15945.1
 20
10931.5
 30
0.000000
  70
    32
  0
VERTEX
  8
SUNPOU
  5
6404C
 10
15945.4
 20
10931.6
 30
0.000000
  70
    32
  0
VERTEX
  8
SUNPOU
  5
6404D
 10
15945.7
 20
10931.7
 30
0.000000
  70
    32
  0
VERTEX
  8
SUNPOU
  5
6404E
 10
15946.1
 20
10931.9
 30
0.000000
  70
    32
  0
VERTEX
  8
SUNPOU
  5
6404F
 10
15946.4
 20
10932.0
 30
0.000000
  70
    32
  0
VERTEX
  8
SUNPOU
  5
64050
 10
15946.8
 20
10932.1
 30
0.000000
  70
    32
  0
VERTEX
  8
SUNPOU
  5
64051
 10
15947.1
 20
10932.2
 30
0.000000
  70
    32
  0
VERTEX
  8
SUNPOU
  5
64052
 10
15947.5
 20
10932.3
 30
0.000000
  70
    32
  0
VERTEX
  8
SUNPOU
  5
64053
 10
15947.9
 20
10932.4
 30
0.000000
  70
    32
  0
VERTEX
  8
SUNPOU
  5
64054
 10
15948.2
 20
10932.5
 30
0.000000
  70
    32
  0
VERTEX
  8
SUNPOU
  5
64055
 10
15948.6
 20
10932.5
 30
0.000000
  70
    32
  0
VERTEX
  8
SUNPOU
  5
64056
 10
15948.9
 20
10932.6
 30
0.000000
  70
    32
  0
VERTEX
  8
SUNPOU
  5
64057
 10
15949.3
 20
10932.6
 30
0.000000
  70
    32
  0
VERTEX
  8
SUNPOU
  5
64058
 10
15949.7
 20
10932.7
 30
0.000000
  70
    32
  0
VERTEX
  8
SUNPOU
  5
64059
 10
15950.0
 20
10932.7
 30
0.000000
  70
    32
  0
VERTEX
  8
SUNPOU
  5
6405A
 10
15950.4
 20
10932.7
 30
0.000000
  70
    32
  0
VERTEX
  8
SUNPOU
  5
6405B
 10
15950.8
 20
10932.7
 30
0.000000
  70
    32
  0
VERTEX
  8
SUNPOU
  5
6405C
 10
15951.1
 20
10932.7
 30
0.000000
  70
    32
  0
SEQEND
  8
SUNPOU
  5
6405D
  0
POLYLINE
  5
63B3A
  8
SUNPOU
 10
15951.148232486819
 20
10932.740239125618
 30
0.0
 66
     1
 70
     8
  0
VERTEX
  8
SUNPOU
  5
6405E
 10
15951.1
 20
10932.7
 30
0.000000
  70
    32
  0
VERTEX
  8
SUNPOU
  5
6405F
 10
15951.5
 20
10932.7
 30
0.000000
  70
    32
  0
VERTEX
  8
SUNPOU
  5
64060
 10
15951.9
 20
10932.7
 30
0.000000
  70
    32
  0
VERTEX
  8
SUNPOU
  5
64061
 10
15952.3
 20
10932.7
 30
0.000000
  70
    32
  0
VERTEX
  8
SUNPOU
  5
64062
 10
15952.6
 20
10932.7
 30
0.000000
  70
    32
  0
VERTEX
  8
SUNPOU
  5
64063
 10
15953.0
 20
10932.6
 30
0.000000
  70
    32
  0
VERTEX
  8
SUNPOU
  5
64064
 10
15953.3
 20
10932.6
 30
0.000000
  70
    32
  0
VERTEX
  8
SUNPOU
  5
64065
 10
15953.7
 20
10932.5
 30
0.000000
  70
    32
  0
VERTEX
  8
SUNPOU
  5
64066
 10
15954.1
 20
10932.5
 30
0.000000
  70
    32
  0
VERTEX
  8
SUNPOU
  5
64067
 10
15954.4
 20
10932.4
 30
0.000000
  70
    32
  0
VERTEX
  8
SUNPOU
  5
64068
 10
15954.8
 20
10932.3
 30
0.000000
  70
    32
  0
VERTEX
  8
SUNPOU
  5
64069
 10
15955.1
 20
10932.2
 30
0.000000
  70
    32
  0
VERTEX
  8
SUNPOU
  5
6406A
 10
15955.5
 20
10932.1
 30
0.000000
  70
    32
  0
VERTEX
  8
SUNPOU
  5
6406B
 10
15955.9
 20
10932.0
 30
0.000000
  70
    32
  0
VERTEX
  8
SUNPOU
  5
6406C
 10
15956.2
 20
10931.9
 30
0.000000
  70
    32
  0
VERTEX
  8
SUNPOU
  5
6406D
 10
15956.5
 20
10931.7
 30
0.000000
  70
    32
  0
VERTEX
  8
SUNPOU
  5
6406E
 10
15956.9
 20
10931.6
 30
0.000000
  70
    32
  0
VERTEX
  8
SUNPOU
  5
6406F
 10
15957.2
 20
10931.5
 30
0.000000
  70
    32
  0
VERTEX
  8
SUNPOU
  5
64070
 10
15957.6
 20
10931.3
 30
0.000000
  70
    32
  0
VERTEX
  8
SUNPOU
  5
64071
 10
15957.9
 20
10931.1
 30
0.000000
  70
    32
  0
VERTEX
  8
SUNPOU
  5
64072
 10
15958.2
 20
10931.0
 30
0.000000
  70
    32
  0
VERTEX
  8
SUNPOU
  5
64073
 10
15958.5
 20
10930.8
 30
0.000000
  70
    32
  0
VERTEX
  8
SUNPOU
  5
64074
 10
15958.9
 20
10930.6
 30
0.000000
  70
    32
  0
VERTEX
  8
SUNPOU
  5
64075
 10
15959.2
 20
10930.4
 30
0.000000
  70
    32
  0
VERTEX
  8
SUNPOU
  5
64076
 10
15959.5
 20
10930.2
 30
0.000000
  70
    32
  0
VERTEX
  8
SUNPOU
  5
64077
 10
15959.8
 20
10930.0
 30
0.000000
  70
    32
  0
VERTEX
  8
SUNPOU
  5
64078
 10
15960.1
 20
10929.8
 30
0.000000
  70
    32
  0
VERTEX
  8
SUNPOU
  5
64079
 10
15960.4
 20
10929.6
 30
0.000000
  70
    32
  0
VERTEX
  8
SUNPOU
  5
6407A
 10
15960.7
 20
10929.3
 30
0.000000
  70
    32
  0
VERTEX
  8
SUNPOU
  5
6407B
 10
15960.9
 20
10929.1
 30
0.000000
  70
    32
  0
VERTEX
  8
SUNPOU
  5
6407C
 10
15961.2
 20
10928.9
 30
0.000000
  70
    32
  0
VERTEX
  8
SUNPOU
  5
6407D
 10
15961.5
 20
10928.6
 30
0.000000
  70
    32
  0
VERTEX
  8
SUNPOU
  5
6407E
 10
15961.8
 20
10928.3
 30
0.000000
  70
    32
  0
VERTEX
  8
SUNPOU
  5
6407F
 10
15962.0
 20
10928.1
 30
0.000000
  70
    32
  0
VERTEX
  8
SUNPOU
  5
64080
 10
15962.3
 20
10927.8
 30
0.000000
  70
    32
  0
VERTEX
  8
SUNPOU
  5
64081
 10
15962.5
 20
10927.5
 30
0.000000
  70
    32
  0
VERTEX
  8
SUNPOU
  5
64082
 10
15962.7
 20
10927.3
 30
0.000000
  70
    32
  0
VERTEX
  8
SUNPOU
  5
64083
 10
15963.0
 20
10927.0
 30
0.000000
  70
    32
  0
VERTEX
  8
SUNPOU
  5
64084
 10
15963.2
 20
10926.7
 30
0.000000
  70
    32
  0
VERTEX
  8
SUNPOU
  5
64085
 10
15963.4
 20
10926.4
 30
0.000000
  70
    32
  0
VERTEX
  8
SUNPOU
  5
64086
 10
15963.6
 20
10926.1
 30
0.000000
  70
    32
  0
VERTEX
  8
SUNPOU
  5
64087
 10
15963.8
 20
10925.8
 30
0.000000
  70
    32
  0
VERTEX
  8
SUNPOU
  5
64088
 10
15964.0
 20
10925.5
 30
0.000000
  70
    32
  0
VERTEX
  8
SUNPOU
  5
64089
 10
15964.2
 20
10925.1
 30
0.000000
  70
    32
  0
VERTEX
  8
SUNPOU
  5
6408A
 10
15964.4
 20
10924.8
 30
0.000000
  70
    32
  0
VERTEX
  8
SUNPOU
  5
6408B
 10
15964.5
 20
10924.5
 30
0.000000
  70
    32
  0
VERTEX
  8
SUNPOU
  5
6408C
 10
15964.7
 20
10924.2
 30
0.000000
  70
    32
  0
VERTEX
  8
SUNPOU
  5
6408D
 10
15964.9
 20
10923.8
 30
0.000000
  70
    32
  0
VERTEX
  8
SUNPOU
  5
6408E
 10
15965.0
 20
10923.5
 30
0.000000
  70
    32
  0
VERTEX
  8
SUNPOU
  5
6408F
 10
15965.1
 20
10923.1
 30
0.000000
  70
    32
  0
VERTEX
  8
SUNPOU
  5
64090
 10
15965.3
 20
10922.8
 30
0.000000
  70
    32
  0
VERTEX
  8
SUNPOU
  5
64091
 10
15965.4
 20
10922.4
 30
0.000000
  70
    32
  0
VERTEX
  8
SUNPOU
  5
64092
 10
15965.5
 20
10922.1
 30
0.000000
  70
    32
  0
VERTEX
  8
SUNPOU
  5
64093
 10
15965.6
 20
10921.7
 30
0.000000
  70
    32
  0
VERTEX
  8
SUNPOU
  5
64094
 10
15965.7
 20
10921.4
 30
0.000000
  70
    32
  0
VERTEX
  8
SUNPOU
  5
64095
 10
15965.8
 20
10921.0
 30
0.000000
  70
    32
  0
VERTEX
  8
SUNPOU
  5
64096
 10
15965.9
 20
10920.7
 30
0.000000
  70
    32
  0
VERTEX
  8
SUNPOU
  5
64097
 10
15965.9
 20
10920.3
 30
0.000000
  70
    32
  0
VERTEX
  8
SUNPOU
  5
64098
 10
15966.0
 20
10919.9
 30
0.000000
  70
    32
  0
VERTEX
  8
SUNPOU
  5
64099
 10
15966.0
 20
10919.6
 30
0.000000
  70
    32
  0
VERTEX
  8
SUNPOU
  5
6409A
 10
15966.1
 20
10919.2
 30
0.000000
  70
    32
  0
VERTEX
  8
SUNPOU
  5
6409B
 10
15966.1
 20
10918.8
 30
0.000000
  70
    32
  0
VERTEX
  8
SUNPOU
  5
6409C
 10
15966.1
 20
10918.5
 30
0.000000
  70
    32
  0
VERTEX
  8
SUNPOU
  5
6409D
 10
15966.1
 20
10918.1
 30
0.000000
  70
    32
  0
VERTEX
  8
SUNPOU
  5
6409E
 10
15966.1
 20
10917.7
 30
0.000000
  70
    32
  0
VERTEX
  8
SUNPOU
  5
6409F
 10
15966.1
 20
10917.4
 30
0.000000
  70
    32
  0
VERTEX
  8
SUNPOU
  5
640A0
 10
15966.1
 20
10917.0
 30
0.000000
  70
    32
  0
VERTEX
  8
SUNPOU
  5
640A1
 10
15966.1
 20
10916.6
 30
0.000000
  70
    32
  0
VERTEX
  8
SUNPOU
  5
640A2
 10
15966.1
 20
10916.3
 30
0.000000
  70
    32
  0
VERTEX
  8
SUNPOU
  5
640A3
 10
15966.0
 20
10915.9
 30
0.000000
  70
    32
  0
VERTEX
  8
SUNPOU
  5
640A4
 10
15966.0
 20
10915.5
 30
0.000000
  70
    32
  0
VERTEX
  8
SUNPOU
  5
640A5
 10
15965.9
 20
10915.2
 30
0.000000
  70
    32
  0
VERTEX
  8
SUNPOU
  5
640A6
 10
15965.9
 20
10914.8
 30
0.000000
  70
    32
  0
VERTEX
  8
SUNPOU
  5
640A7
 10
15965.8
 20
10914.5
 30
0.000000
  70
    32
  0
VERTEX
  8
SUNPOU
  5
640A8
 10
15965.7
 20
10914.1
 30
0.000000
  70
    32
  0
VERTEX
  8
SUNPOU
  5
640A9
 10
15965.6
 20
10913.7
 30
0.000000
  70
    32
  0
VERTEX
  8
SUNPOU
  5
640AA
 10
15965.5
 20
10913.4
 30
0.000000
  70
    32
  0
VERTEX
  8
SUNPOU
  5
640AB
 10
15965.4
 20
10913.0
 30
0.000000
  70
    32
  0
VERTEX
  8
SUNPOU
  5
640AC
 10
15965.3
 20
10912.7
 30
0.000000
  70
    32
  0
VERTEX
  8
SUNPOU
  5
640AD
 10
15965.1
 20
10912.3
 30
0.000000
  70
    32
  0
VERTEX
  8
SUNPOU
  5
640AE
 10
15965.0
 20
10912.0
 30
0.000000
  70
    32
  0
VERTEX
  8
SUNPOU
  5
640AF
 10
15964.9
 20
10911.7
 30
0.000000
  70
    32
  0
VERTEX
  8
SUNPOU
  5
640B0
 10
15964.7
 20
10911.3
 30
0.000000
  70
    32
  0
VERTEX
  8
SUNPOU
  5
640B1
 10
15964.5
 20
10911.0
 30
0.000000
  70
    32
  0
VERTEX
  8
SUNPOU
  5
640B2
 10
15964.4
 20
10910.7
 30
0.000000
  70
    32
  0
VERTEX
  8
SUNPOU
  5
640B3
 10
15964.2
 20
10910.3
 30
0.000000
  70
    32
  0
VERTEX
  8
SUNPOU
  5
640B4
 10
15964.0
 20
10910.0
 30
0.000000
  70
    32
  0
VERTEX
  8
SUNPOU
  5
640B5
 10
15963.8
 20
10909.7
 30
0.000000
  70
    32
  0
VERTEX
  8
SUNPOU
  5
640B6
 10
15963.6
 20
10909.4
 30
0.000000
  70
    32
  0
VERTEX
  8
SUNPOU
  5
640B7
 10
15963.4
 20
10909.1
 30
0.000000
  70
    32
  0
VERTEX
  8
SUNPOU
  5
640B8
 10
15963.2
 20
10908.8
 30
0.000000
  70
    32
  0
VERTEX
  8
SUNPOU
  5
640B9
 10
15963.0
 20
10908.5
 30
0.000000
  70
    32
  0
VERTEX
  8
SUNPOU
  5
640BA
 10
15962.7
 20
10908.2
 30
0.000000
  70
    32
  0
VERTEX
  8
SUNPOU
  5
640BB
 10
15962.5
 20
10907.9
 30
0.000000
  70
    32
  0
VERTEX
  8
SUNPOU
  5
640BC
 10
15962.3
 20
10907.7
 30
0.000000
  70
    32
  0
VERTEX
  8
SUNPOU
  5
640BD
 10
15962.0
 20
10907.4
 30
0.000000
  70
    32
  0
VERTEX
  8
SUNPOU
  5
640BE
 10
15961.8
 20
10907.1
 30
0.000000
  70
    32
  0
VERTEX
  8
SUNPOU
  5
640BF
 10
15961.5
 20
10906.9
 30
0.000000
  70
    32
  0
VERTEX
  8
SUNPOU
  5
640C0
 10
15961.2
 20
10906.6
 30
0.000000
  70
    32
  0
VERTEX
  8
SUNPOU
  5
640C1
 10
15960.9
 20
10906.4
 30
0.000000
  70
    32
  0
VERTEX
  8
SUNPOU
  5
640C2
 10
15960.7
 20
10906.1
 30
0.000000
  70
    32
  0
VERTEX
  8
SUNPOU
  5
640C3
 10
15960.4
 20
10905.9
 30
0.000000
  70
    32
  0
VERTEX
  8
SUNPOU
  5
640C4
 10
15960.1
 20
10905.7
 30
0.000000
  70
    32
  0
VERTEX
  8
SUNPOU
  5
640C5
 10
15959.8
 20
10905.5
 30
0.000000
  70
    32
  0
VERTEX
  8
SUNPOU
  5
640C6
 10
15959.5
 20
10905.3
 30
0.000000
  70
    32
  0
VERTEX
  8
SUNPOU
  5
640C7
 10
15959.2
 20
10905.1
 30
0.000000
  70
    32
  0
VERTEX
  8
SUNPOU
  5
640C8
 10
15958.9
 20
10904.9
 30
0.000000
  70
    32
  0
VERTEX
  8
SUNPOU
  5
640C9
 10
15958.5
 20
10904.7
 30
0.000000
  70
    32
  0
VERTEX
  8
SUNPOU
  5
640CA
 10
15958.2
 20
10904.5
 30
0.000000
  70
    32
  0
VERTEX
  8
SUNPOU
  5
640CB
 10
15957.9
 20
10904.3
 30
0.000000
  70
    32
  0
VERTEX
  8
SUNPOU
  5
640CC
 10
15957.6
 20
10904.2
 30
0.000000
  70
    32
  0
VERTEX
  8
SUNPOU
  5
640CD
 10
15957.2
 20
10904.0
 30
0.000000
  70
    32
  0
VERTEX
  8
SUNPOU
  5
640CE
 10
15956.9
 20
10903.9
 30
0.000000
  70
    32
  0
VERTEX
  8
SUNPOU
  5
640CF
 10
15956.5
 20
10903.7
 30
0.000000
  70
    32
  0
VERTEX
  8
SUNPOU
  5
640D0
 10
15956.2
 20
10903.6
 30
0.000000
  70
    32
  0
VERTEX
  8
SUNPOU
  5
640D1
 10
15955.9
 20
10903.5
 30
0.000000
  70
    32
  0
VERTEX
  8
SUNPOU
  5
640D2
 10
15955.5
 20
10903.4
 30
0.000000
  70
    32
  0
VERTEX
  8
SUNPOU
  5
640D3
 10
15955.1
 20
10903.3
 30
0.000000
  70
    32
  0
VERTEX
  8
SUNPOU
  5
640D4
 10
15954.8
 20
10903.2
 30
0.000000
  70
    32
  0
VERTEX
  8
SUNPOU
  5
640D5
 10
15954.4
 20
10903.1
 30
0.000000
  70
    32
  0
VERTEX
  8
SUNPOU
  5
640D6
 10
15954.1
 20
10903.0
 30
0.000000
  70
    32
  0
VERTEX
  8
SUNPOU
  5
640D7
 10
15953.7
 20
10903.0
 30
0.000000
  70
    32
  0
VERTEX
  8
SUNPOU
  5
640D8
 10
15953.3
 20
10902.9
 30
0.000000
  70
    32
  0
VERTEX
  8
SUNPOU
  5
640D9
 10
15953.0
 20
10902.9
 30
0.000000
  70
    32
  0
VERTEX
  8
SUNPOU
  5
640DA
 10
15952.6
 20
10902.8
 30
0.000000
  70
    32
  0
VERTEX
  8
SUNPOU
  5
640DB
 10
15952.3
 20
10902.8
 30
0.000000
  70
    32
  0
VERTEX
  8
SUNPOU
  5
640DC
 10
15951.9
 20
10902.8
 30
0.000000
  70
    32
  0
VERTEX
  8
SUNPOU
  5
640DD
 10
15951.5
 20
10902.7
 30
0.000000
  70
    32
  0
VERTEX
  8
SUNPOU
  5
640DE
 10
15951.1
 20
10902.7
 30
0.000000
  70
    32
  0
SEQEND
  8
SUNPOU
  5
640DF
  0
LINE
  5
63B3B
  8
SUNPOU
 10
15951.148232486819
 20
10887.74023912562
 30
0.0
 11
15951.148232486819
 21
10857.74023912562
 31
0.0
  0
TEXT
  5
63B3C
  8
SUNPOU
 10
15871.148232486819
 20
10916.15293753834
 30
0.0
 40
160.0
  1
50
 50
90.0
 41
0.6666666666666666
  7
00
  0
TEXT
  5
63B3D
  8
SUNPOU
 10
15871.148232486819
 20
10557.740239125649
 30
0.0
 40
160.0
  1
100
 50
90.0
 41
0.6666666666666666
  7
00
  0
TEXT
  5
63B3E
  8
SUNPOU
 10
15871.148232486819
 20
12045.35928674469
 30
0.0
 40
160.0
  1
540
 50
90.0
 41
0.6666666666666666
  7
00
  0
TEXT
  5
63B3F
  8
SUNPOU
 10
16511.14823248683
 20
11257.740239125649
 30
0.0
 40
160.0
  1
150
 50
90.0
 41
0.6666666666666666
  7
00
  0
TEXT
  5
63B40
  8
SUNPOU
 10
17492.869171616581
 20
10197.73983832524
 30
0.0
 40
160.0
  1
240
 41
0.6666666666666666
  7
00
  0
LINE
  5
63B42
  8
SUNPOU
 10
17195.249723197161
 20
10117.73983832524
 30
0.0
 11
17225.249723197161
 21
10117.73983832524
 31
0.0
  0
LINE
  5
63B44
  8
SUNPOU
 10
16591.14823248683
 20
11147.74023912564
 30
0.0
 11
16591.14823248683
 21
11177.740239125649
 31
0.0
  0
LINE
  5
63B46
  8
SUNPOU
 10
18095.250524797972
 20
10117.73983832524
 30
0.0
 11
18065.250524797972
 21
10117.73983832524
 31
0.0
  0
LINE
  5
63B48
  8
SUNPOU
 10
16591.14823248683
 20
11687.740239125649
 30
0.0
 11
16591.14823248683
 21
11657.74023912564
 31
0.0
  0
LINE
  5
63B4A
  8
SUNPOU
 10
18546.35288024801
 20
12867.74023912564
 30
0.0
 11
18546.35288024801
 21
12897.74023912564
 31
0.0
  0
TEXT
  5
63B4B
  8
SUNPOU
 10
17485.250324397781
 20
14357.74132128671
 30
0.0
 40
160.0
  1
180
 41
0.6666666666666666
  7
00
  0
TEXT
  5
63B4C
  8
SUNPOU
 10
17365.250123997539
 20
14037.741000646371
 30
0.0
 40
160.0
  1
120
 41
0.6666666666666666
  7
00
  0
LINE
  5
63B4E
  8
SUNPOU
 10
17315.250123997539
 20
13957.7410006464
 30
0.0
 11
17345.250123997532
 21
13957.7410006464
 31
0.0
  0
LINE
  5
63B50
  8
SUNPOU
 10
17315.250123997539
 20
14277.74132128671
 30
0.0
 11
17345.250123997532
 21
14277.74132128671
 31
0.0
  0
LINE
  5
63B52
  8
SUNPOU
 10
17735.250123997539
 20
13957.7410006464
 30
0.0
 11
17705.250123997539
 21
13957.7410006464
 31
0.0
  0
TEXT
  5
63B53
  8
SUNPOU
 10
18466.35288024801
 20
13328.029059264851
 30
0.0
 40
160.0
  1
0~200
 50
90.0
 41
0.6666666666666666
  7
00
  0
LINE
  5
63B55
  8
SUNPOU
 10
17975.250524797972
 20
14277.74132128671
 30
0.0
 11
17945.250524797972
 21
14277.74132128671
 31
0.0
  0
LINE
  5
63B56
  8
SUNPOU
 10
30222.737364424342
 20
11570.74307247373
 30
0.0
 11
31063.51566806289
 21
11570.74307247373
 31
0.0
  0
LINE
  5
63B57
  8
SUNPOU
 10
30222.737364424342
 20
11170.74307247373
 30
0.0
 11
31063.51566806289
 21
11170.74307247373
 31
0.0
  0
LINE
  5
63B58
  8
SUNPOU
 10
30983.51566806289
 20
11530.74307247373
 30
0.0
 11
30983.51566806289
 21
11210.74307247373
 31
0.0
  0
LINE
  5
63B5C
  8
SUNPOU
 10
30222.737364424342
 20
11770.74307247373
 30
0.0
 11
31063.51566806289
 21
11770.74307247373
 31
0.0
  0
LINE
  5
63B5D
  8
SUNPOU
 10
30222.737364424342
 20
11570.74307247373
 30
0.0
 11
31063.51566806289
 21
11570.74307247373
 31
0.0
  0
LINE
  5
63B5E
  8
SUNPOU
 10
30983.51566806289
 20
11810.74307247373
 30
0.0
 11
30983.51566806289
 21
11850.74307247373
 31
0.0
  0
LINE
  5
63B5F
  8
SUNPOU
 10
30983.51566806289
 20
11530.74307247373
 30
0.0
 11
30983.51566806289
 21
11490.74307247373
 31
0.0
  0
LINE
  5
63B61
  8
SUNPOU
 10
30983.51566806289
 20
11770.74307247373
 30
0.0
 11
30983.51566806289
 21
11570.74307247373
 31
0.0
  0
LINE
  5
63B64
  8
SUNPOU
 10
30487.73736442432
 20
13770.74307247373
 30
0.0
 11
31063.51566806289
 21
13770.74307247373
 31
0.0
  0
LINE
  5
63B65
  8
SUNPOU
 10
30222.737364424342
 20
11770.74307247373
 30
0.0
 11
31063.51566806289
 21
11770.74307247373
 31
0.0
  0
LINE
  5
63B66
  8
SUNPOU
 10
30983.51566806289
 20
13730.74307247373
 30
0.0
 11
30983.51566806289
 21
11810.74307247373
 31
0.0
  0
LINE
  5
63B6A
  8
SUNPOU
 10
30142.737364424342
 20
11090.74307247373
 30
0.0
 11
30142.737364424342
 21
10119.953832662721
 31
0.0
  0
LINE
  5
63B6B
  8
SUNPOU
 10
25142.737364424342
 20
11090.74307247373
 30
0.0
 11
25142.737364424342
 21
10119.953832662721
 31
0.0
  0
LINE
  5
63B6C
  8
SUNPOU
 10
30102.737364424342
 20
10199.953832662721
 30
0.0
 11
25182.737364424342
 21
10199.953832662721
 31
0.0
  0
LINE
  5
63B70
  8
SUNPOU
 10
25342.737364424342
 20
11690.74307247373
 30
0.0
 11
25342.737364424342
 21
10483.09172259114
 31
0.0
  0
LINE
  5
63B71
  8
SUNPOU
 10
29942.737364424342
 20
11690.74307247373
 30
0.0
 11
29942.737364424342
 21
10483.09172259114
 31
0.0
  0
LINE
  5
63B72
  8
SUNPOU
 10
25382.737364424342
 20
10563.09172259114
 30
0.0
 11
29902.737364424342
 21
10563.09172259114
 31
0.0
  0
LINE
  5
63B77
  8
SUNPOU
 10
3997.3919100666171
 20
6179.4959334949972
 30
0.0
 11
4027.3919100666171
 21
6179.4959334949972
 31
0.0
  0
LINE
  5
63B79
  8
SUNPOU
 10
9537.3919100666171
 20
6179.4959334949972
 30
0.0
 11
9507.3919100666171
 21
6179.4959334949972
 31
0.0
  0
LINE
  5
63B7A
  8
SUNPOU
 10
6546.2192562177006
 20
3679.0610773730368
 30
0.0
 11
5961.2192562177006
 21
3679.0610773730368
 31
0.0
  0
LINE
  5
63B7B
  8
SUNPOU
 10
6041.2192562177006
 20
3719.0610773730368
 30
0.0
 11
6041.2192562177006
 21
3759.0610773730368
 31
0.0
  0
LINE
  5
63B7C
  8
SUNPOU
 10
6041.2192562177006
 20
3464.6610656976918
 30
0.0
 11
6041.2192562177006
 21
2939.581700618327
 31
0.0
  0
LINE
  5
63B7D
  8
SUNPOU
 10
6041.2192562177006
 20
3679.0610773730368
 30
0.0
 11
6041.2192562177006
 21
3504.6610656976918
 31
0.0
  0
LINE
  5
63B81
  8
SUNPOU
 10
6546.2192562177006
 20
3679.0610773730368
 30
0.0
 11
5961.2192562177006
 21
3679.0610773730368
 31
0.0
  0
LINE
  5
63B82
  8
SUNPOU
 10
6546.2192562177006
 20
3947.0610773730368
 30
0.0
 11
5961.2192562177006
 21
3947.0610773730368
 31
0.0
  0
LINE
  5
63B83
  8
SUNPOU
 10
6041.2192562177006
 20
3719.0610773730368
 30
0.0
 11
6041.2192562177006
 21
3907.0610773730368
 31
0.0
  0
LINE
  5
63B84
  8
SUNPOU
 10
6041.2192562177006
 20
3947.0610773730368
 30
0.0
 11
6041.2192562177006
 21
4314.6801249920854
 31
0.0
  0
LINE
  5
63B88
  8
SUNPOU
 10
6626.2192562177006
 20
4027.0610773730359
 30
0.0
 11
6626.2192562177006
 21
4572.7886712148684
 31
0.0
  0
LINE
  5
63B89
  8
SUNPOU
 10
7026.2192562176997
 20
4027.0610773730359
 30
0.0
 11
7026.2192562176997
 21
4572.7886712148684
 31
0.0
  0
LINE
  5
63B8A
  8
SUNPOU
 10
6666.2192562177006
 20
4492.7886712148684
 30
0.0
 11
6986.2192562177006
 21
4492.7886712148684
 31
0.0
  0
LINE
  5
63B8E
  8
SUNPOU
 10
7306.2192562176997
 20
3891.0610656976792
 30
0.0
 11
7691.2192562177006
 21
3891.0610656976792
 31
0.0
  0
LINE
  5
63B8F
  8
SUNPOU
 10
7611.2192562177006
 20
3544.6610656976918
 30
0.0
 11
7611.2192562177006
 21
3851.0610656976792
 31
0.0
  0
LINE
  5
63B93
  8
SUNPOU
 10
4622.3919100666171
 20
9309.5809242219693
 30
0.0
 11
5119.2976200700787
 21
9309.5809242219693
 31
0.0
  0
LINE
  5
63B94
  8
SUNPOU
 10
4622.3919100666171
 20
10459.580924221969
 30
0.0
 11
5119.2976200700796
 21
10459.580924221969
 31
0.0
  0
LINE
  5
63B95
  8
SUNPOU
 10
5039.2976200700787
 20
9349.5809242219693
 30
0.0
 11
5039.2976200700796
 21
10419.580924221969
 31
0.0
  0
LINE
  5
63B99
  8
SUNPOU
 10
3392.3919100666171
 20
10539.580924221969
 30
0.0
 11
3392.3919100666171
 21
10902.738818958809
 31
0.0
  0
LINE
  5
63B9A
  8
SUNPOU
 10
4542.3919100666171
 20
10539.580924221969
 30
0.0
 11
4542.3919100666171
 21
10902.738818958809
 31
0.0
  0
LINE
  5
63B9B
  8
SUNPOU
 10
3432.391910066618
 20
10822.738818958809
 30
0.0
 11
4502.3919100666162
 21
10822.738818958809
 31
0.0
  0
LINE
  5
63B9F
  8
SUNPOU
 10
10261.2075276138
 20
9884.5809242219366
 30
0.0
 11
10656.545636438081
 21
9884.5809242219366
 31
0.0
  0
LINE
  5
63BA0
  8
SUNPOU
 10
9687.3919100666099
 20
12634.58092422188
 30
0.0
 11
10656.545636438081
 21
12634.58092422188
 31
0.0
  0
LINE
  5
63BA1
  8
SUNPOU
 10
10576.545636438081
 20
9924.5809242219366
 30
0.0
 11
10576.545636438081
 21
12594.58092422188
 31
0.0
  0
LINE
  5
63BA5
  8
SUNPOU
 10
10261.207527613829
 20
7134.5809242219357
 30
0.0
 11
10656.545636438081
 21
7134.5809242219357
 31
0.0
  0
LINE
  5
63BA6
  8
SUNPOU
 10
10261.2075276138
 20
9884.5809242219366
 30
0.0
 11
10656.545636438081
 21
9884.5809242219366
 31
0.0
  0
LINE
  5
63BA7
  8
SUNPOU
 10
10576.545636438081
 20
7174.5809242219348
 30
0.0
 11
10576.545636438081
 21
9844.5809242219366
 31
0.0
  0
TEXT
  5
63BAB
  8
SUNPOU
 10
3197.3919100666149
 20
16556.406321047289
 30
0.0
 40
160.0
  1
2625
 50
90.0
 41
0.6666666666666666
  7
00
  0
LINE
  5
63BAD
  8
SUNPOU
 10
3277.3919100666171
 20
15477.080924221889
 30
0.0
 11
3277.3919100666171
 21
15507.080924221889
 31
0.0
  0
LINE
  5
63BAF
  8
SUNPOU
 10
3277.391910066618
 20
18042.080924221889
 30
0.0
 11
3277.391910066618
 21
18012.080924221889
 31
0.0
  0
TEXT
  5
63BB0
  8
SUNPOU
 10
3197.3919100666149
 20
13806.40632104729
 30
0.0
 40
160.0
  1
2625
 50
90.0
 41
0.6666666666666666
  7
00
  0
LINE
  5
63BB2
  8
SUNPOU
 10
3277.3919100666171
 20
12727.080924221889
 30
0.0
 11
3277.3919100666171
 21
12757.080924221889
 31
0.0
  0
LINE
  5
63BB4
  8
SUNPOU
 10
3277.391910066618
 20
15292.0809242219
 30
0.0
 11
3277.391910066618
 21
15262.080924221889
 31
0.0
  0
TEXT
  5
63BB5
  8
SUNPOU
 10
3197.3919100666149
 20
12826.6047337457
 30
0.0
 40
160.0
  1
125
 50
90.0
 41
0.6666666666666666
  7
00
  0
LINE
  5
63BB7
  8
SUNPOU
 10
3277.3919100666171
 20
12727.080924221889
 30
0.0
 11
3277.3919100666171
 21
12757.080924221889
 31
0.0
  0
LINE
  5
63BB9
  8
SUNPOU
 10
3277.3919100666171
 20
12542.080924221889
 30
0.0
 11
3277.3919100666171
 21
12512.080924221889
 31
0.0
  0
TEXT
  5
63BBA
  8
SUNPOU
 10
3197.3919100666149
 20
12014.26346390443
 30
0.0
 40
160.0
  1
57.5
 50
90.0
 41
0.6666666666666666
  7
00
  0
LINE
  5
63BBC
  8
SUNPOU
 10
3277.3919100666171
 20
12484.580924221889
 30
0.0
 11
3277.3919100666171
 21
12454.580924221889
 31
0.0
  0
LINE
  5
63BBE
  8
SUNPOU
 10
3277.3919100666171
 20
12602.080924221889
 30
0.0
 11
3277.3919100666171
 21
12632.0809242219
 31
0.0
  0
TEXT
  5
63BBF
  8
SUNPOU
 10
3197.3919100666149
 20
15576.6047337457
 30
0.0
 40
160.0
  1
125
 50
90.0
 41
0.6666666666666666
  7
00
  0
LINE
  5
63BC1
  8
SUNPOU
 10
3277.3919100666171
 20
15477.080924221889
 30
0.0
 11
3277.3919100666171
 21
15507.080924221889
 31
0.0
  0
LINE
  5
63BC3
  8
SUNPOU
 10
3277.3919100666171
 20
15292.0809242219
 30
0.0
 11
3277.3919100666171
 21
15262.080924221889
 31
0.0
  0
TEXT
  5
63BC4
  8
SUNPOU
 10
9159.4554021301119
 20
12054.5809242219
 30
0.0
 40
160.0
  1
60
 41
0.6666666666666666
  7
00
  0
LINE
  5
63BC6
  8
SUNPOU
 10
9477.3919100666171
 20
11974.5809242219
 30
0.0
 11
9447.3919100666189
 21
11974.5809242219
 31
0.0
  0
LINE
  5
63BC8
  8
SUNPOU
 10
9597.3919100666171
 20
11974.5809242219
 30
0.0
 11
9627.3919100666171
 21
11974.5809242219
 31
0.0
  0
TEXT
  5
63BC9
  8
SUNPOU
 10
9816.915719590419
 20
12054.5809242219
 30
0.0
 40
160.0
  1
120
 41
0.6666666666666666
  7
00
  0
LINE
  5
63BCB
  8
SUNPOU
 10
9717.3919100666099
 20
11974.5809242219
 30
0.0
 11
9747.3919100666099
 21
11974.5809242219
 31
0.0
  0
LINE
  5
63BCD
  8
SUNPOU
 10
9537.3919100666171
 20
11974.5809242219
 30
0.0
 11
9507.3919100666171
 21
11974.5809242219
 31
0.0
  0
TEXT
  5
63BCE
  8
SUNPOU
 10
6959.4157195904263
 20
18904.580924221889
 30
0.0
 40
160.0
  1
125
 41
0.6666666666666666
  7
00
  0
LINE
  5
63BD0
  8
SUNPOU
 10
6859.891910066618
 20
18824.580924221889
 30
0.0
 11
6889.891910066618
 21
18824.580924221889
 31
0.0
  0
LINE
  5
63BD2
  8
SUNPOU
 10
6674.8919100666171
 20
18824.580924221889
 30
0.0
 11
6644.8919100666171
 21
18824.580924221889
 31
0.0
  0
TEXT
  5
63BD3
  8
SUNPOU
 10
5056.776830701534
 20
18904.580924221889
 30
0.0
 40
160.0
  1
2737.5
 41
0.6666666666666666
  7
00
  0
LINE
  5
63BD5
  8
SUNPOU
 10
6674.8919100666171
 20
18824.580924221889
 30
0.0
 11
6644.8919100666171
 21
18824.580924221889
 31
0.0
  0
LINE
  5
63BD7
  8
SUNPOU
 10
3997.3919100666099
 20
18824.580924221889
 30
0.0
 11
4027.3919100666099
 21
18824.580924221889
 31
0.0
  0
TEXT
  5
63BD8
  8
SUNPOU
 10
3397.868100542807
 20
18904.580924221889
 30
0.0
 40
160.0
  1
120
 41
0.6666666666666666
  7
00
  0
LINE
  5
63BDA
  8
SUNPOU
 10
3817.391910066618
 20
18824.580924221889
 30
0.0
 11
3787.3919100666171
 21
18824.580924221889
 31
0.0
  0
LINE
  5
63BDC
  8
SUNPOU
 10
3997.3919100666171
 20
18824.580924221889
 30
0.0
 11
4027.3919100666171
 21
18824.580924221889
 31
0.0
  0
TEXT
  5
63BDD
  8
SUNPOU
 10
3197.3919100666149
 20
18399.34282898379
 30
0.0
 40
160.0
  1
57.5
 50
90.0
 41
0.6666666666666666
  7
00
  0
LINE
  5
63BDF
  8
SUNPOU
 10
3277.3919100666171
 20
18284.580924221889
 30
0.0
 11
3277.3919100666171
 21
18314.580924221889
 31
0.0
  0
LINE
  5
63BE1
  8
SUNPOU
 10
3277.3919100666171
 20
18167.080924221889
 30
0.0
 11
3277.3919100666171
 21
18137.080924221889
 31
0.0
  0
TEXT
  5
63BE2
  8
SUNPOU
 10
3197.3919100666139
 20
17622.55711469808
 30
0.0
 40
160.0
  1
125
 50
90.0
 41
0.6666666666666666
  7
00
  0
LINE
  5
63BE4
  8
SUNPOU
 10
3277.3919100666171
 20
18042.080924221889
 30
0.0
 11
3277.3919100666171
 21
18012.080924221889
 31
0.0
  0
LINE
  5
63BE6
  8
SUNPOU
 10
3277.3919100666171
 20
18227.080924221889
 30
0.0
 11
3277.3919100666171
 21
18257.080924221889
 31
0.0
  0
TEXT
  5
63BE7
  8
SUNPOU
 10
7919.276830701534
 20
18904.580924221889
 30
0.0
 40
160.0
  1
2737.5
 41
0.6666666666666666
  7
00
  0
LINE
  5
63BE9
  8
SUNPOU
 10
9537.3919100666099
 20
18824.580924221889
 30
0.0
 11
9507.3919100666099
 21
18824.580924221889
 31
0.0
  0
LINE
  5
63BEB
  8
SUNPOU
 10
6859.891910066618
 20
18824.580924221889
 30
0.0
 11
6889.891910066618
 21
18824.580924221889
 31
0.0
  0
TEXT
  5
63BEC
  8
SUNPOU
 10
9816.9157195904263
 20
18904.580924221889
 30
0.0
 40
160.0
  1
120
 41
0.6666666666666666
  7
00
  0
LINE
  5
63BEE
  8
SUNPOU
 10
9717.3919100666153
 20
18824.580924221889
 30
0.0
 11
9747.3919100666171
 21
18824.580924221889
 31
0.0
  0
LINE
  5
63BF0
  8
SUNPOU
 10
9537.3919100666171
 20
18824.580924221889
 30
0.0
 11
9507.3919100666171
 21
18824.580924221889
 31
0.0
  0
ARC
  5
63BF1
  8
SUNPOU
 10
6767.3919100666171
 20
11574.580924221889
 30
0.0
 40
15.0
 50
180.0
 51
0.0
  0
ARC
  5
63BF2
  8
SUNPOU
 10
6767.3919100666171
 20
11574.580924221889
 30
0.0
 40
15.0
 50
0.0
 51
180.0
  0
ARC
  5
63BF3
  8
SUNPOU
 10
3967.391910066618
 20
11574.580924221889
 30
0.0
 40
15.0
 50
0.0
 51
180.0
  0
ARC
  5
63BF4
  8
SUNPOU
 10
3967.391910066618
 20
11574.580924221889
 30
0.0
 40
15.0
 50
180.0
 51
0.0
  0
TEXT
  5
63BF5
  8
SUNPOU
 10
7964.2173068920138
 20
19304.580924221889
 30
0.0
 40
160.0
  1
2800
 41
0.6666666666666666
  7
00
  0
LINE
  5
63BF7
  8
SUNPOU
 10
6797.3919100666162
 20
19224.580924221889
 30
0.0
 11
6827.391910066618
 21
19224.580924221889
 31
0.0
  0
LINE
  5
63BF9
  8
SUNPOU
 10
9537.3919100666171
 20
19224.580924221889
 30
0.0
 11
9507.3919100666171
 21
19224.580924221889
 31
0.0
  0
TEXT
  5
63BFA
  8
SUNPOU
 10
5164.2173068920129
 20
19304.580924221889
 30
0.0
 40
160.0
  1
2800
 41
0.6666666666666666
  7
00
  0
LINE
  5
63BFC
  8
SUNPOU
 10
3997.3919100666171
 20
19224.580924221889
 30
0.0
 11
4027.3919100666171
 21
19224.580924221889
 31
0.0
  0
LINE
  5
63BFE
  8
SUNPOU
 10
6737.3919100666171
 20
19224.580924221889
 30
0.0
 11
6707.3919100666171
 21
19224.580924221889
 31
0.0
  0
TEXT
  5
63BFF
  8
SUNPOU
 10
10896.54563643807
 20
12065.05711469808
 30
0.0
 40
160.0
  1
120
 50
90.0
 41
0.6666666666666666
  7
00
  0
LINE
  5
63C01
  8
SUNPOU
 10
10976.545636438081
 20
12484.580924221889
 30
0.0
 11
10976.545636438081
 21
12454.580924221889
 31
0.0
  0
LINE
  5
63C03
  8
SUNPOU
 10
10976.545636438081
 20
12664.580924221889
 30
0.0
 11
10976.545636438081
 21
12694.580924221889
 31
0.0
  0
ARC
  5
63C04
  8
SUNPOU
 10
10576.545636438081
 20
12634.580924221889
 30
0.0
 40
15.0
 50
90.0
 51
270.0
  0
ARC
  5
63C05
  8
SUNPOU
 10
10576.545636438081
 20
12634.580924221889
 30
0.0
 40
15.0
 50
270.0
 51
90.0
  0
ARC
  5
63C06
  8
SUNPOU
 10
10976.545636438081
 20
12634.580924221889
 30
0.0
 40
15.0
 50
90.0
 51
270.0
  0
ARC
  5
63C07
  8
SUNPOU
 10
10976.545636438081
 20
12634.580924221889
 30
0.0
 40
15.0
 50
270.0
 51
90.0
  0
ARC
  5
63C08
  8
SUNPOU
 10
10576.545636438081
 20
15384.580924221889
 30
0.0
 40
15.0
 50
90.0
 51
270.0
  0
ARC
  5
63C09
  8
SUNPOU
 10
10576.545636438081
 20
15384.580924221889
 30
0.0
 40
15.0
 50
270.0
 51
90.0
  0
ARC
  5
63C0A
  8
SUNPOU
 10
10576.545636438081
 20
15384.580924221889
 30
0.0
 40
15.0
 50
270.0
 51
90.0
  0
ARC
  5
63C0B
  8
SUNPOU
 10
10576.545636438081
 20
15384.580924221889
 30
0.0
 40
15.0
 50
90.0
 51
270.0
  0
TEXT
  5
63C0C
  8
SUNPOU
 10
10896.545636438081
 20
18384.104733745698
 30
0.0
 40
160.0
  1
120
 50
90.0
 41
0.6666666666666666
  7
00
  0
LINE
  5
63C0E
  8
SUNPOU
 10
10976.545636438081
 20
18284.580924221889
 30
0.0
 11
10976.545636438081
 21
18314.580924221889
 31
0.0
  0
LINE
  5
63C10
  8
SUNPOU
 10
10976.545636438081
 20
18104.580924221889
 30
0.0
 11
10976.545636438081
 21
18074.580924221889
 31
0.0
  0
ARC
  5
63C11
  8
SUNPOU
 10
10576.545636438081
 20
18134.580924221889
 30
0.0
 40
15.0
 50
270.0
 51
90.0
  0
ARC
  5
63C12
  8
SUNPOU
 10
10576.545636438081
 20
18134.580924221889
 30
0.0
 40
15.0
 50
90.0
 51
270.0
  0
ARC
  5
63C13
  8
SUNPOU
 10
10976.545636438081
 20
18134.580924221889
 30
0.0
 40
15.0
 50
270.0
 51
90.0
  0
ARC
  5
63C14
  8
SUNPOU
 10
10976.545636438081
 20
18134.580924221889
 30
0.0
 40
15.0
 50
90.0
 51
270.0
  0
TEXT
  5
63C15
  8
SUNPOU
 10
16191.14791184649
 20
12595.13706452246
 30
0.0
 40
160.0
  1
（300）
 50
90.0
 41
0.6666666666666666
  7
00
  0
LINE
  5
63C17
  8
SUNPOU
 10
16271.14791184649
 20
13247.74023912562
 30
0.0
 11
16271.14791184649
 21
13217.74023912562
 31
0.0
  0
LINE
  5
63C19
  8
SUNPOU
 10
16271.14791184649
 20
12467.740239125649
 30
0.0
 11
16271.14791184649
 21
12497.74023912564
 31
0.0
  0
TEXT
  5
63C1A
  8
SUNPOU
 10
16191.14791184649
 20
11471.96246134787
 30
0.0
 40
160.0
  1
240 以上
 50
90.0
 41
0.6666666666666666
  7
00
  0
LINE
  5
63C1C
  8
SUNPOU
 10
16271.14791184649
 20
12407.740239125649
 30
0.0
 11
16271.14791184649
 21
12377.74023912564
 31
0.0
  0
LINE
  5
63C1E
  8
SUNPOU
 10
16271.14791184649
 20
11147.74023912564
 30
0.0
 11
16271.14791184649
 21
11177.740239125649
 31
0.0
  0
TEXT
  5
63C1F
  8
SUNPOU
 10
15871.148232486819
 20
13256.152937538331
 30
0.0
 40
160.0
  1
40
 50
90.0
 41
0.6666666666666666
  7
00
  0
LINE
  5
63C21
  8
SUNPOU
 10
15951.14823248683
 20
13467.74023912564
 30
0.0
 11
15951.14823248683
 21
13497.740239125649
 31
0.0
  0
LINE
  5
63C23
  8
SUNPOU
 10
15951.14823248683
 20
13247.74023912562
 30
0.0
 11
15951.14823248683
 21
13217.74023912562
 31
0.0
  0
ARC
  5
63C24
  8
SUNPOU
 10
15951.148232486819
 20
13277.74023912562
 30
0.0
 40
14.999999999998179
 50
270.0
 51
90.0
  0
ARC
  5
63C25
  8
SUNPOU
 10
15951.148232486819
 20
13277.74023912562
 30
0.0
 40
14.999999999998179
 50
90.0
 51
270.0
  0
ARC
  5
63C26
  8
SUNPOU
 10
18546.35288024801
 20
13277.74023912562
 30
0.0
 40
14.999999999998179
 50
270.0
 51
90.0
  0
ARC
  5
63C27
  8
SUNPOU
 10
18546.35288024801
 20
13277.74023912562
 30
0.0
 40
14.999999999998179
 50
90.0
 51
270.0
  0
ARC
  5
63C28
  8
SUNPOU
 10
15951.148232486819
 20
11117.740239125649
 30
0.0
 40
14.999999999998179
 50
90.0
 51
270.0
  0
ARC
  5
63C29
  8
SUNPOU
 10
15951.148232486819
 20
11117.740239125649
 30
0.0
 40
14.999999999998179
 50
270.0
 51
90.0
  0
ARC
  5
63C2A
  8
SUNPOU
 10
17165.249723197161
 20
10117.73983832524
 30
0.0
 40
15.0
 50
0.0
 51
180.0
  0
ARC
  5
63C2B
  8
SUNPOU
 10
17165.249723197161
 20
10117.73983832524
 30
0.0
 40
15.0
 50
180.0
 51
0.0
  0
ARC
  5
63C2C
  8
SUNPOU
 10
16591.14823248683
 20
11117.740239125649
 30
0.0
 40
15.0
 50
90.0
 51
270.0
  0
ARC
  5
63C2D
  8
SUNPOU
 10
16591.14823248683
 20
11117.740239125649
 30
0.0
 40
15.0
 50
270.0
 51
90.0
  0
ARC
  5
63C2E
  8
SUNPOU
 10
18125.250524797972
 20
10117.73983832524
 30
0.0
 40
15.0
 50
180.0
 51
0.0
  0
ARC
  5
63C2F
  8
SUNPOU
 10
18125.250524797972
 20
10117.73983832524
 30
0.0
 40
15.0
 50
0.0
 51
180.0
  0
ARC
  5
63C30
  8
SUNPOU
 10
16591.14823248683
 20
11717.74023912564
 30
0.0
 40
15.0
 50
270.0
 51
90.0
  0
ARC
  5
63C31
  8
SUNPOU
 10
16591.14823248683
 20
11717.74023912564
 30
0.0
 40
15.0
 50
90.0
 51
270.0
  0
ARC
  5
63C32
  8
SUNPOU
 10
18546.35288024801
 20
12837.740239125649
 30
0.0
 40
14.999999999998179
 50
90.0
 51
270.0
  0
ARC
  5
63C33
  8
SUNPOU
 10
18546.35288024801
 20
12837.740239125649
 30
0.0
 40
14.999999999998179
 50
270.0
 51
90.0
  0
ARC
  5
63C34
  8
SUNPOU
 10
17285.250123997539
 20
13957.7410006464
 30
0.0
 40
15.0
 50
0.0
 51
180.0
  0
ARC
  5
63C35
  8
SUNPOU
 10
17285.250123997539
 20
13957.7410006464
 30
0.0
 40
15.0
 50
180.0
 51
0.0
  0
ARC
  5
63C36
  8
SUNPOU
 10
17285.250123997539
 20
14277.74132128671
 30
0.0
 40
15.0
 50
0.0
 51
180.0
  0
ARC
  5
63C37
  8
SUNPOU
 10
17285.250123997539
 20
14277.74132128671
 30
0.0
 40
15.0
 50
180.0
 51
0.0
  0
ARC
  5
63C38
  8
SUNPOU
 10
17765.250123997539
 20
13957.7410006464
 30
0.0
 40
15.0
 50
180.0
 51
0.0
  0
ARC
  5
63C39
  8
SUNPOU
 10
17765.250123997539
 20
13957.7410006464
 30
0.0
 40
15.0
 50
0.0
 51
180.0
  0
ARC
  5
63C3A
  8
SUNPOU
 10
18005.250524797972
 20
14277.74132128671
 30
0.0
 40
15.0
 50
180.0
 51
0.0
  0
ARC
  5
63C3B
  8
SUNPOU
 10
18005.250524797972
 20
14277.74132128671
 30
0.0
 40
15.0
 50
0.0
 51
180.0
  0
TEXT
  5
63C3C
  8
SUNPOU
 10
30903.51566806289
 20
11210.743072473741
 30
0.0
 40
160.0
  1
100
 50
90.0
 41
0.6666666666666666
  7
00
  0
LINE
  5
63C3E
  8
SUNPOU
 10
30983.51566806289
 20
11200.74307247373
 30
0.0
 11
30983.51566806289
 21
11230.74307247373
 31
0.0
  0
LINE
  5
63C40
  8
SUNPOU
 10
30983.51566806289
 20
11540.74307247373
 30
0.0
 11
30983.51566806289
 21
11510.74307247373
 31
0.0
  0
LINE
  5
63C42
  8
SUNPOU
 10
30983.51566806289
 20
11540.74307247373
 30
0.0
 11
30983.51566806289
 21
11510.74307247373
 31
0.0
  0
LINE
  5
63C44
  8
SUNPOU
 10
30983.51566806289
 20
11800.74307247373
 30
0.0
 11
30983.51566806289
 21
11830.74307247373
 31
0.0
  0
TEXT
  5
63C45
  8
SUNPOU
 10
30910.081628667122
 20
11598.14877743434
 30
0.0
 40
160.0
  1
50
 50
90.0
 41
0.6666666666666666
  7
00
  0
TEXT
  5
63C46
  8
SUNPOU
 10
30903.51566806289
 20
12618.36212009279
 30
0.0
 40
160.0
  1
500
 50
90.0
 41
0.6666666666666666
  7
00
  0
LINE
  5
63C48
  8
SUNPOU
 10
30983.51566806289
 20
11800.74307247373
 30
0.0
 11
30983.51566806289
 21
11830.74307247373
 31
0.0
  0
LINE
  5
63C4A
  8
SUNPOU
 10
30983.51566806289
 20
13740.74307247373
 30
0.0
 11
30983.51566806289
 21
13710.74307247373
 31
0.0
  0
TEXT
  5
63C4B
  8
SUNPOU
 10
27379.626253313229
 20
10279.953832662721
 30
0.0
 40
160.0
  1
□1250
 41
0.6666666666666666
  7
00
  0
LINE
  5
63C4D
  8
SUNPOU
 10
25172.737364424342
 20
10199.953832662721
 30
0.0
 11
25202.737364424342
 21
10199.953832662721
 31
0.0
  0
LINE
  5
63C4F
  8
SUNPOU
 10
30112.737364424342
 20
10199.953832662721
 30
0.0
 11
30082.737364424342
 21
10199.953832662721
 31
0.0
  0
TEXT
  5
63C50
  8
SUNPOU
 10
27379.626253313229
 20
10643.09172259114
 30
0.0
 40
160.0
  1
□1150
 41
0.6666666666666666
  7
00
  0
LINE
  5
63C52
  8
SUNPOU
 10
29912.737364424342
 20
10563.09172259114
 30
0.0
 11
29882.737364424342
 21
10563.09172259114
 31
0.0
  0
LINE
  5
63C54
  8
SUNPOU
 10
25372.737364424342
 20
10563.09172259114
 30
0.0
 11
25402.737364424342
 21
10563.09172259114
 31
0.0
  0
ARC
  5
63C55
  8
SUNPOU
 10
3967.391910066618
 20
6179.4959334949972
 30
0.0
 40
15.0
 50
0.0
 51
180.0
  0
ARC
  5
63C56
  8
SUNPOU
 10
3967.391910066618
 20
6179.4959334949972
 30
0.0
 40
15.0
 50
180.0
 51
0.0
  0
ARC
  5
63C57
  8
SUNPOU
 10
9567.3919100666153
 20
6179.4959334949972
 30
0.0
 40
15.0
 50
180.0
 51
0.0
  0
ARC
  5
63C58
  8
SUNPOU
 10
9567.3919100666153
 20
6179.4959334949972
 30
0.0
 40
15.0
 50
0.0
 51
180.0
  0
TEXT
  5
63C59
  8
SUNPOU
 10
5961.2192562176997
 20
3004.3436053802329
 30
0.0
 40
160.0
  1
43.6
 50
90.0
 41
0.6666666666666666
  7
00
  0
LINE
  5
63C5B
  8
SUNPOU
 10
6041.2192562177006
 20
3474.6610656976918
 30
0.0
 11
6041.2192562177006
 21
3444.6610656976932
 31
0.0
  0
LINE
  5
63C5D
  8
SUNPOU
 10
6041.2192562177006
 20
3709.0610773730368
 30
0.0
 11
6041.2192562177006
 21
3739.0610773730368
 31
0.0
  0
TEXT
  5
63C5E
  8
SUNPOU
 10
5961.2192562176997
 20
4046.7436170555779
 30
0.0
 40
160.0
  1
67
 50
90.0
 41
0.6666666666666666
  7
00
  0
LINE
  5
63C60
  8
SUNPOU
 10
6041.2192562177006
 20
3917.0610773730368
 30
0.0
 11
6041.2192562177006
 21
3887.0610773730368
 31
0.0
  0
LINE
  5
63C62
  8
SUNPOU
 10
6041.2192562177006
 20
3709.0610773730368
 30
0.0
 11
6041.2192562177006
 21
3739.0610773730368
 31
0.0
  0
TEXT
  5
63C63
  8
SUNPOU
 10
6666.2192562177006
 20
4572.7886712148684
 30
0.0
 40
160.0
  1
100
 41
0.6666666666666666
  7
00
  0
LINE
  5
63C65
  8
SUNPOU
 10
6996.2192562177006
 20
4492.7886712148684
 30
0.0
 11
6966.2192562177006
 21
4492.7886712148684
 31
0.0
  0
LINE
  5
63C67
  8
SUNPOU
 10
6656.2192562176997
 20
4492.7886712148684
 30
0.0
 11
6686.2192562176997
 21
4492.7886712148684
 31
0.0
  0
TEXT
  5
63C68
  8
SUNPOU
 10
7531.2192562176997
 20
3520.0832879199088
 30
0.0
 40
160.0
  1
96.6
 50
90.0
 41
0.6666666666666666
  7
00
  0
LINE
  5
63C6A
  8
SUNPOU
 10
7611.2192562177006
 20
3861.0610656976792
 30
0.0
 11
7611.2192562177006
 21
3831.0610656976778
 31
0.0
  0
LINE
  5
63C6C
  8
SUNPOU
 10
7611.2192562177006
 20
3534.6610656976918
 30
0.0
 11
7611.2192562177006
 21
3564.6610656976918
 31
0.0
  0
TEXT
  5
63C6D
  8
SUNPOU
 10
4959.2976200700778
 20
9673.7872734283192
 30
0.0
 40
160.0
  1
1150
 50
90.0
 41
0.6666666666666666
  7
00
  0
LINE
  5
63C6F
  8
SUNPOU
 10
5039.2976200700796
 20
10429.580924221969
 30
0.0
 11
5039.2976200700796
 21
10399.580924221969
 31
0.0
  0
LINE
  5
63C71
  8
SUNPOU
 10
5039.2976200700787
 20
9339.5809242219693
 30
0.0
 11
5039.2976200700787
 21
9369.5809242219693
 31
0.0
  0
TEXT
  5
63C72
  8
SUNPOU
 10
3756.598259272967
 20
10902.738818958809
 30
0.0
 40
160.0
  1
1150
 41
0.6666666666666666
  7
00
  0
LINE
  5
63C74
  8
SUNPOU
 10
4512.3919100666171
 20
10822.738818958809
 30
0.0
 11
4482.3919100666171
 21
10822.738818958809
 31
0.0
  0
LINE
  5
63C76
  8
SUNPOU
 10
3422.3919100666171
 20
10822.738818958809
 30
0.0
 11
3452.3919100666171
 21
10822.738818958809
 31
0.0
  0
TEXT
  5
63C77
  8
SUNPOU
 10
10496.54563643807
 20
11056.40632104731
 30
0.0
 40
160.0
  1
2750
 50
90.0
 41
0.6666666666666666
  7
00
  0
LINE
  5
63C79
  8
SUNPOU
 10
10576.545636438081
 20
12604.58092422188
 30
0.0
 11
10576.545636438081
 21
12574.58092422188
 31
0.0
  0
LINE
  5
63C7B
  8
SUNPOU
 10
10576.545636438081
 20
9914.5809242219366
 30
0.0
 11
10576.545636438081
 21
9944.5809242219384
 31
0.0
  0
TEXT
  5
63C7C
  8
SUNPOU
 10
10496.545636438081
 20
8306.4063210473378
 30
0.0
 40
160.0
  1
2750
 50
90.0
 41
0.6666666666666666
  7
00
  0
LINE
  5
63C7E
  8
SUNPOU
 10
10576.545636438081
 20
9854.5809242219366
 30
0.0
 11
10576.545636438081
 21
9824.5809242219366
 31
0.0
  0
LINE
  5
63C80
  8
SUNPOU
 10
10576.545636438081
 20
7164.5809242219357
 30
0.0
 11
10576.545636438081
 21
7194.5809242219348
 31
0.0
  0
ARC
  5
63C81
  8
SUNPOU
 10
3277.3919100666171
 20
15447.080924221889
 30
0.0
 40
15.0
 50
90.0
 51
270.0
  0
ARC
  5
63C82
  8
SUNPOU
 10
3277.3919100666171
 20
15447.080924221889
 30
0.0
 40
15.0
 50
270.0
 51
90.0
  0
ARC
  5
63C83
  8
SUNPOU
 10
3277.391910066618
 20
18072.0809242219
 30
0.0
 40
15.0
 50
270.0
 51
90.0
  0
ARC
  5
63C84
  8
SUNPOU
 10
3277.391910066618
 20
18072.0809242219
 30
0.0
 40
15.0
 50
90.0
 51
270.0
  0
ARC
  5
63C85
  8
SUNPOU
 10
3277.3919100666171
 20
12697.080924221889
 30
0.0
 40
15.0
 50
90.0
 51
270.0
  0
ARC
  5
63C86
  8
SUNPOU
 10
3277.3919100666171
 20
12697.080924221889
 30
0.0
 40
15.0
 50
270.0
 51
90.0
  0
ARC
  5
63C87
  8
SUNPOU
 10
3277.391910066618
 20
15322.080924221889
 30
0.0
 40
15.0
 50
270.0
 51
90.0
  0
ARC
  5
63C88
  8
SUNPOU
 10
3277.391910066618
 20
15322.080924221889
 30
0.0
 40
15.0
 50
90.0
 51
270.0
  0
ARC
  5
63C89
  8
SUNPOU
 10
3277.3919100666171
 20
12697.080924221889
 30
0.0
 40
15.0
 50
90.0
 51
270.0
  0
ARC
  5
63C8A
  8
SUNPOU
 10
3277.3919100666171
 20
12697.080924221889
 30
0.0
 40
15.0
 50
270.0
 51
90.0
  0
ARC
  5
63C8B
  8
SUNPOU
 10
3277.3919100666171
 20
12572.0809242219
 30
0.0
 40
15.0
 50
270.0
 51
90.0
  0
ARC
  5
63C8C
  8
SUNPOU
 10
3277.3919100666171
 20
12572.0809242219
 30
0.0
 40
15.0
 50
90.0
 51
270.0
  0
ARC
  5
63C8D
  8
SUNPOU
 10
3277.3919100666171
 20
12514.580924221889
 30
0.0
 40
15.0
 50
270.0
 51
90.0
  0
ARC
  5
63C8E
  8
SUNPOU
 10
3277.3919100666171
 20
12514.580924221889
 30
0.0
 40
15.0
 50
90.0
 51
270.0
  0
ARC
  5
63C8F
  8
SUNPOU
 10
3277.3919100666171
 20
12572.0809242219
 30
0.0
 40
15.0
 50
90.0
 51
270.0
  0
ARC
  5
63C90
  8
SUNPOU
 10
3277.3919100666171
 20
12572.0809242219
 30
0.0
 40
15.0
 50
270.0
 51
90.0
  0
ARC
  5
63C91
  8
SUNPOU
 10
3277.3919100666171
 20
15447.080924221889
 30
0.0
 40
15.0
 50
90.0
 51
270.0
  0
ARC
  5
63C92
  8
SUNPOU
 10
3277.3919100666171
 20
15447.080924221889
 30
0.0
 40
15.0
 50
270.0
 51
90.0
  0
ARC
  5
63C93
  8
SUNPOU
 10
3277.3919100666171
 20
15322.080924221889
 30
0.0
 40
15.0
 50
270.0
 51
90.0
  0
ARC
  5
63C94
  8
SUNPOU
 10
3277.3919100666171
 20
15322.080924221889
 30
0.0
 40
15.0
 50
90.0
 51
270.0
  0
ARC
  5
63C95
  8
SUNPOU
 10
9507.3919100666171
 20
11974.5809242219
 30
0.0
 40
15.0
 50
180.0
 51
0.0
  0
ARC
  5
63C96
  8
SUNPOU
 10
9507.3919100666171
 20
11974.5809242219
 30
0.0
 40
15.0
 50
0.0
 51
180.0
  0
ARC
  5
63C97
  8
SUNPOU
 10
9567.3919100666153
 20
11974.5809242219
 30
0.0
 40
15.0
 50
0.0
 51
180.0
  0
ARC
  5
63C98
  8
SUNPOU
 10
9567.3919100666153
 20
11974.5809242219
 30
0.0
 40
15.0
 50
180.0
 51
0.0
  0
ARC
  5
63C99
  8
SUNPOU
 10
9687.3919100666099
 20
11974.5809242219
 30
0.0
 40
15.0
 50
0.0
 51
180.0
  0
ARC
  5
63C9A
  8
SUNPOU
 10
9687.3919100666099
 20
11974.5809242219
 30
0.0
 40
15.0
 50
180.0
 51
0.0
  0
ARC
  5
63C9B
  8
SUNPOU
 10
9567.3919100666153
 20
11974.5809242219
 30
0.0
 40
15.0
 50
180.0
 51
0.0
  0
ARC
  5
63C9C
  8
SUNPOU
 10
9567.3919100666153
 20
11974.5809242219
 30
0.0
 40
15.0
 50
0.0
 51
180.0
  0
ARC
  5
63C9D
  8
SUNPOU
 10
6829.8919100666171
 20
18824.580924221889
 30
0.0
 40
15.0
 50
0.0
 51
180.0
  0
ARC
  5
63C9E
  8
SUNPOU
 10
6829.8919100666171
 20
18824.580924221889
 30
0.0
 40
15.0
 50
180.0
 51
0.0
  0
ARC
  5
63C9F
  8
SUNPOU
 10
6704.8919100666171
 20
18824.580924221889
 30
0.0
 40
15.0
 50
180.0
 51
0.0
  0
ARC
  5
63CA0
  8
SUNPOU
 10
6704.8919100666171
 20
18824.580924221889
 30
0.0
 40
15.0
 50
0.0
 51
180.0
  0
ARC
  5
63CA1
  8
SUNPOU
 10
6704.8919100666171
 20
18824.580924221889
 30
0.0
 40
15.0
 50
180.0
 51
0.0
  0
ARC
  5
63CA2
  8
SUNPOU
 10
6704.8919100666171
 20
18824.580924221889
 30
0.0
 40
15.0
 50
0.0
 51
180.0
  0
ARC
  5
63CA3
  8
SUNPOU
 10
3967.3919100666099
 20
18824.580924221889
 30
0.0
 40
15.0
 50
0.0
 51
180.0
  0
ARC
  5
63CA4
  8
SUNPOU
 10
3967.3919100666099
 20
18824.580924221889
 30
0.0
 40
15.0
 50
180.0
 51
0.0
  0
ARC
  5
63CA5
  8
SUNPOU
 10
3847.3919100666171
 20
18824.580924221889
 30
0.0
 40
15.0
 50
180.0
 51
0.0
  0
ARC
  5
63CA6
  8
SUNPOU
 10
3847.3919100666171
 20
18824.580924221889
 30
0.0
 40
15.0
 50
0.0
 51
180.0
  0
ARC
  5
63CA7
  8
SUNPOU
 10
3967.391910066618
 20
18824.580924221889
 30
0.0
 40
15.0
 50
0.0
 51
180.0
  0
ARC
  5
63CA8
  8
SUNPOU
 10
3967.391910066618
 20
18824.580924221889
 30
0.0
 40
15.0
 50
180.0
 51
0.0
  0
ARC
  5
63CA9
  8
SUNPOU
 10
3277.3919100666171
 20
18254.580924221889
 30
0.0
 40
15.0
 50
90.0
 51
270.0
  0
ARC
  5
63CAA
  8
SUNPOU
 10
3277.3919100666171
 20
18254.580924221889
 30
0.0
 40
15.0
 50
270.0
 51
90.0
  0
ARC
  5
63CAB
  8
SUNPOU
 10
3277.3919100666171
 20
18197.0809242219
 30
0.0
 40
15.0
 50
270.0
 51
90.0
  0
ARC
  5
63CAC
  8
SUNPOU
 10
3277.3919100666171
 20
18197.0809242219
 30
0.0
 40
15.0
 50
90.0
 51
270.0
  0
ARC
  5
63CAD
  8
SUNPOU
 10
3277.3919100666171
 20
18072.0809242219
 30
0.0
 40
15.0
 50
270.0
 51
90.0
  0
ARC
  5
63CAE
  8
SUNPOU
 10
3277.3919100666171
 20
18072.0809242219
 30
0.0
 40
15.0
 50
90.0
 51
270.0
  0
ARC
  5
63CAF
  8
SUNPOU
 10
3277.3919100666171
 20
18197.0809242219
 30
0.0
 40
15.0
 50
90.0
 51
270.0
  0
ARC
  5
63CB0
  8
SUNPOU
 10
3277.3919100666171
 20
18197.0809242219
 30
0.0
 40
15.0
 50
270.0
 51
90.0
  0
ARC
  5
63CB1
  8
SUNPOU
 10
9567.3919100666099
 20
18824.580924221889
 30
0.0
 40
15.0
 50
180.0
 51
0.0
  0
ARC
  5
63CB2
  8
SUNPOU
 10
9567.3919100666099
 20
18824.580924221889
 30
0.0
 40
15.0
 50
0.0
 51
180.0
  0
ARC
  5
63CB3
  8
SUNPOU
 10
6829.8919100666171
 20
18824.580924221889
 30
0.0
 40
15.0
 50
0.0
 51
180.0
  0
ARC
  5
63CB4
  8
SUNPOU
 10
6829.8919100666171
 20
18824.580924221889
 30
0.0
 40
15.0
 50
180.0
 51
0.0
  0
ARC
  5
63CB5
  8
SUNPOU
 10
9687.3919100666171
 20
18824.580924221889
 30
0.0
 40
15.0
 50
0.0
 51
180.0
  0
ARC
  5
63CB6
  8
SUNPOU
 10
9687.3919100666171
 20
18824.580924221889
 30
0.0
 40
15.0
 50
180.0
 51
0.0
  0
ARC
  5
63CB7
  8
SUNPOU
 10
9567.3919100666153
 20
18824.580924221889
 30
0.0
 40
15.0
 50
180.0
 51
0.0
  0
ARC
  5
63CB8
  8
SUNPOU
 10
9567.3919100666153
 20
18824.580924221889
 30
0.0
 40
15.0
 50
0.0
 51
180.0
  0
ARC
  5
63CB9
  8
SUNPOU
 10
6767.3919100666171
 20
19224.580924221889
 30
0.0
 40
15.0
 50
0.0
 51
180.0
  0
ARC
  5
63CBA
  8
SUNPOU
 10
6767.3919100666171
 20
19224.580924221889
 30
0.0
 40
15.0
 50
180.0
 51
0.0
  0
ARC
  5
63CBB
  8
SUNPOU
 10
9567.3919100666153
 20
19224.580924221889
 30
0.0
 40
15.0
 50
180.0
 51
0.0
  0
ARC
  5
63CBC
  8
SUNPOU
 10
9567.3919100666153
 20
19224.580924221889
 30
0.0
 40
15.0
 50
0.0
 51
180.0
  0
ARC
  5
63CBD
  8
SUNPOU
 10
3967.391910066618
 20
19224.580924221889
 30
0.0
 40
15.0
 50
0.0
 51
180.0
  0
ARC
  5
63CBE
  8
SUNPOU
 10
3967.391910066618
 20
19224.580924221889
 30
0.0
 40
15.0
 50
180.0
 51
0.0
  0
ARC
  5
63CBF
  8
SUNPOU
 10
6767.3919100666171
 20
19224.580924221889
 30
0.0
 40
15.0
 50
180.0
 51
0.0
  0
ARC
  5
63CC0
  8
SUNPOU
 10
6767.3919100666171
 20
19224.580924221889
 30
0.0
 40
15.0
 50
0.0
 51
180.0
  0
ARC
  5
63CC1
  8
SUNPOU
 10
10976.545636438081
 20
12514.580924221889
 30
0.0
 40
15.0
 50
270.0
 51
90.0
  0
ARC
  5
63CC2
  8
SUNPOU
 10
10976.545636438081
 20
12514.580924221889
 30
0.0
 40
15.0
 50
90.0
 51
270.0
  0
ARC
  5
63CC3
  8
SUNPOU
 10
10976.545636438081
 20
12634.580924221889
 30
0.0
 40
15.0
 50
90.0
 51
270.0
  0
ARC
  5
63CC4
  8
SUNPOU
 10
10976.545636438081
 20
12634.580924221889
 30
0.0
 40
15.0
 50
270.0
 51
90.0
  0
ARC
  5
63CC5
  8
SUNPOU
 10
10976.545636438081
 20
18254.580924221889
 30
0.0
 40
15.0
 50
90.0
 51
270.0
  0
ARC
  5
63CC6
  8
SUNPOU
 10
10976.545636438081
 20
18254.580924221889
 30
0.0
 40
15.0
 50
270.0
 51
90.0
  0
ARC
  5
63CC7
  8
SUNPOU
 10
10976.545636438081
 20
18134.580924221889
 30
0.0
 40
15.0
 50
270.0
 51
90.0
  0
ARC
  5
63CC8
  8
SUNPOU
 10
10976.545636438081
 20
18134.580924221889
 30
0.0
 40
15.0
 50
90.0
 51
270.0
  0
ARC
  5
63CC9
  8
SUNPOU
 10
16271.14791184649
 20
13277.74023912562
 30
0.0
 40
15.0
 50
270.0
 51
90.0
  0
ARC
  5
63CCA
  8
SUNPOU
 10
16271.14791184649
 20
13277.74023912562
 30
0.0
 40
15.0
 50
90.0
 51
270.0
  0
ARC
  5
63CCB
  8
SUNPOU
 10
16271.14791184649
 20
12437.74023912564
 30
0.0
 40
15.0
 50
90.0
 51
270.0
  0
ARC
  5
63CCC
  8
SUNPOU
 10
16271.14791184649
 20
12437.74023912564
 30
0.0
 40
15.0
 50
270.0
 51
90.0
  0
ARC
  5
63CCD
  8
SUNPOU
 10
16271.14791184649
 20
12437.74023912564
 30
0.0
 40
15.0
 50
270.0
 51
90.0
  0
ARC
  5
63CCE
  8
SUNPOU
 10
16271.14791184649
 20
12437.74023912564
 30
0.0
 40
15.0
 50
90.0
 51
270.0
  0
ARC
  5
63CCF
  8
SUNPOU
 10
16271.14791184649
 20
11117.740239125649
 30
0.0
 40
15.0
 50
90.0
 51
270.0
  0
ARC
  5
63CD0
  8
SUNPOU
 10
16271.14791184649
 20
11117.740239125649
 30
0.0
 40
15.0
 50
270.0
 51
90.0
  0
ARC
  5
63CD1
  8
SUNPOU
 10
15951.14823248683
 20
13437.740239125649
 30
0.0
 40
15.0
 50
90.0
 51
270.0
  0
ARC
  5
63CD2
  8
SUNPOU
 10
15951.14823248683
 20
13437.740239125649
 30
0.0
 40
15.0
 50
270.0
 51
90.0
  0
ARC
  5
63CD3
  8
SUNPOU
 10
15951.14823248683
 20
13277.74023912562
 30
0.0
 40
15.0
 50
270.0
 51
90.0
  0
ARC
  5
63CD4
  8
SUNPOU
 10
15951.14823248683
 20
13277.74023912562
 30
0.0
 40
15.0
 50
90.0
 51
270.0
  0
ARC
  5
63CD5
  8
SUNPOU
 10
30983.51566806289
 20
11170.74307247373
 30
0.0
 40
15.0
 50
90.0
 51
270.0
  0
ARC
  5
63CD6
  8
SUNPOU
 10
30983.51566806289
 20
11170.74307247373
 30
0.0
 40
15.0
 50
270.0
 51
90.0
  0
ARC
  5
63CD7
  8
SUNPOU
 10
30983.51566806289
 20
11570.74307247373
 30
0.0
 40
15.0
 50
270.0
 51
90.0
  0
ARC
  5
63CD8
  8
SUNPOU
 10
30983.51566806289
 20
11570.74307247373
 30
0.0
 40
15.0
 50
90.0
 51
270.0
  0
ARC
  5
63CD9
  8
SUNPOU
 10
30983.51566806289
 20
11570.74307247373
 30
0.0
 40
15.0
 50
270.0
 51
90.0
  0
ARC
  5
63CDA
  8
SUNPOU
 10
30983.51566806289
 20
11570.74307247373
 30
0.0
 40
15.0
 50
90.0
 51
270.0
  0
ARC
  5
63CDB
  8
SUNPOU
 10
30983.51566806289
 20
11770.74307247373
 30
0.0
 40
15.0
 50
90.0
 51
270.0
  0
ARC
  5
63CDC
  8
SUNPOU
 10
30983.51566806289
 20
11770.74307247373
 30
0.0
 40
15.0
 50
270.0
 51
90.0
  0
ARC
  5
63CDD
  8
SUNPOU
 10
30983.51566806289
 20
11770.74307247373
 30
0.0
 40
15.0
 50
90.0
 51
270.0
  0
ARC
  5
63CDE
  8
SUNPOU
 10
30983.51566806289
 20
11770.74307247373
 30
0.0
 40
15.0
 50
270.0
 51
90.0
  0
ARC
  5
63CDF
  8
SUNPOU
 10
30983.51566806289
 20
13770.74307247373
 30
0.0
 40
15.0
 50
270.0
 51
90.0
  0
ARC
  5
63CE0
  8
SUNPOU
 10
30983.51566806289
 20
13770.74307247373
 30
0.0
 40
15.0
 50
90.0
 51
270.0
  0
ARC
  5
63CE1
  8
SUNPOU
 10
25142.737364424342
 20
10199.953832662721
 30
0.0
 40
15.0
 50
0.0
 51
180.0
  0
ARC
  5
63CE2
  8
SUNPOU
 10
25142.737364424342
 20
10199.953832662721
 30
0.0
 40
15.0
 50
180.0
 51
0.0
  0
ARC
  5
63CE3
  8
SUNPOU
 10
30142.737364424342
 20
10199.953832662721
 30
0.0
 40
15.0
 50
180.0
 51
0.0
  0
ARC
  5
63CE4
  8
SUNPOU
 10
30142.737364424342
 20
10199.953832662721
 30
0.0
 40
15.0
 50
0.0
 51
180.0
  0
ARC
  5
63CE5
  8
SUNPOU
 10
29942.737364424342
 20
10563.09172259114
 30
0.0
 40
15.0
 50
180.0
 51
0.0
  0
ARC
  5
63CE6
  8
SUNPOU
 10
29942.737364424342
 20
10563.09172259114
 30
0.0
 40
15.0
 50
0.0
 51
180.0
  0
ARC
  5
63CE7
  8
SUNPOU
 10
25342.737364424342
 20
10563.09172259114
 30
0.0
 40
15.0
 50
0.0
 51
180.0
  0
ARC
  5
63CE8
  8
SUNPOU
 10
25342.737364424342
 20
10563.09172259114
 30
0.0
 40
15.0
 50
180.0
 51
0.0
  0
ARC
  5
63CE9
  8
SUNPOU
 10
6041.2192562177006
 20
3504.6610656976918
 30
0.0
 40
15.0
 50
270.0
 51
90.0
  0
ARC
  5
63CEA
  8
SUNPOU
 10
6041.2192562177006
 20
3504.6610656976918
 30
0.0
 40
15.0
 50
90.0
 51
270.0
  0
ARC
  5
63CEB
  8
SUNPOU
 10
6041.2192562177006
 20
3679.0610773730368
 30
0.0
 40
15.0
 50
90.0
 51
270.0
  0
ARC
  5
63CEC
  8
SUNPOU
 10
6041.2192562177006
 20
3679.0610773730368
 30
0.0
 40
15.0
 50
270.0
 51
90.0
  0
ARC
  5
63CED
  8
SUNPOU
 10
6041.2192562177006
 20
3947.0610773730368
 30
0.0
 40
15.0
 50
270.0
 51
90.0
  0
ARC
  5
63CEE
  8
SUNPOU
 10
6041.2192562177006
 20
3947.0610773730368
 30
0.0
 40
15.0
 50
90.0
 51
270.0
  0
ARC
  5
63CEF
  8
SUNPOU
 10
6041.2192562177006
 20
3679.0610773730368
 30
0.0
 40
15.0
 50
90.0
 51
270.0
  0
ARC
  5
63CF0
  8
SUNPOU
 10
6041.2192562177006
 20
3679.0610773730368
 30
0.0
 40
15.0
 50
270.0
 51
90.0
  0
ARC
  5
63CF1
  8
SUNPOU
 10
7026.2192562176997
 20
4492.7886712148684
 30
0.0
 40
15.0
 50
180.0
 51
0.0
  0
ARC
  5
63CF2
  8
SUNPOU
 10
7026.2192562176997
 20
4492.7886712148684
 30
0.0
 40
15.0
 50
0.0
 51
180.0
  0
ARC
  5
63CF3
  8
SUNPOU
 10
6626.2192562177006
 20
4492.7886712148684
 30
0.0
 40
15.0
 50
0.0
 51
180.0
  0
ARC
  5
63CF4
  8
SUNPOU
 10
6626.2192562177006
 20
4492.7886712148684
 30
0.0
 40
15.0
 50
180.0
 51
0.0
  0
ARC
  5
63CF5
  8
SUNPOU
 10
7611.2192562177006
 20
3891.0610656976792
 30
0.0
 40
15.0
 50
270.0
 51
90.0
  0
ARC
  5
63CF6
  8
SUNPOU
 10
7611.2192562177006
 20
3891.0610656976792
 30
0.0
 40
15.0
 50
90.0
 51
270.0
  0
ARC
  5
63CF7
  8
SUNPOU
 10
7611.2192562177006
 20
3504.6610656976918
 30
0.0
 40
15.0
 50
90.0
 51
270.0
  0
ARC
  5
63CF8
  8
SUNPOU
 10
7611.2192562177006
 20
3504.6610656976918
 30
0.0
 40
15.0
 50
270.0
 51
90.0
  0
ARC
  5
63CF9
  8
SUNPOU
 10
5039.2976200700796
 20
10459.580924221969
 30
0.0
 40
15.0
 50
270.0
 51
90.0
  0
ARC
  5
63CFA
  8
SUNPOU
 10
5039.2976200700796
 20
10459.580924221969
 30
0.0
 40
15.0
 50
90.0
 51
270.0
  0
ARC
  5
63CFB
  8
SUNPOU
 10
5039.2976200700787
 20
9309.5809242219693
 30
0.0
 40
15.0
 50
90.0
 51
270.0
  0
ARC
  5
63CFC
  8
SUNPOU
 10
5039.2976200700787
 20
9309.5809242219693
 30
0.0
 40
15.0
 50
270.0
 51
90.0
  0
ARC
  5
63CFD
  8
SUNPOU
 10
4542.3919100666171
 20
10822.738818958809
 30
0.0
 40
15.0
 50
180.0
 51
0.0
  0
ARC
  5
63CFE
  8
SUNPOU
 10
4542.3919100666171
 20
10822.738818958809
 30
0.0
 40
15.0
 50
0.0
 51
180.0
  0
ARC
  5
63CFF
  8
SUNPOU
 10
3392.3919100666171
 20
10822.738818958809
 30
0.0
 40
15.0
 50
0.0
 51
180.0
  0
ARC
  5
63D00
  8
SUNPOU
 10
3392.3919100666171
 20
10822.738818958809
 30
0.0
 40
15.0
 50
180.0
 51
0.0
  0
ARC
  5
63D01
  8
SUNPOU
 10
10576.545636438081
 20
12634.58092422188
 30
0.0
 40
15.0
 50
270.0
 51
90.0
  0
ARC
  5
63D02
  8
SUNPOU
 10
10576.545636438081
 20
12634.58092422188
 30
0.0
 40
15.0
 50
90.0
 51
270.0
  0
ARC
  5
63D03
  8
SUNPOU
 10
10576.545636438081
 20
9884.5809242219366
 30
0.0
 40
15.0
 50
90.0
 51
270.0
  0
ARC
  5
63D04
  8
SUNPOU
 10
10576.545636438081
 20
9884.5809242219366
 30
0.0
 40
15.0
 50
270.0
 51
90.0
  0
ARC
  5
63D05
  8
SUNPOU
 10
10576.545636438081
 20
9884.5809242219366
 30
0.0
 40
15.0
 50
270.0
 51
90.0
  0
ARC
  5
63D06
  8
SUNPOU
 10
10576.545636438081
 20
9884.5809242219366
 30
0.0
 40
15.0
 50
90.0
 51
270.0
  0
ARC
  5
63D07
  8
SUNPOU
 10
10576.545636438081
 20
7134.5809242219357
 30
0.0
 40
15.0
 50
90.0
 51
270.0
  0
ARC
  5
63D08
  8
SUNPOU
 10
10576.545636438081
 20
7134.5809242219357
 30
0.0
 40
15.0
 50
270.0
 51
90.0
  0
LINE
  5
63D09
  8
HIKIDASHI
 10
6803.2216986559934
 20
12907.496170482569
 30
0.0
 11
6776.0514000838521
 21
12747.580924221889
 31
0.0
  0
LINE
  5
63D0A
  8
HIKIDASHI
 10
6776.0514000838521
 20
12747.580924221889
 30
0.0
 11
6853.6174380609609
 21
12890.040114391029
 31
0.0
  0
SOLID
  5
63D0B
  8
HIKIDASHI
 10
6803.2216986559934
 20
12907.496170482569
 30
0.0
 11
6853.6174380609609
 21
12890.040114391029
 31
0.0
 12
6776.0514000838521
 22
12747.580924221889
 32
0.0
 13
6776.0514000838521
 23
12747.580924221889
 33
0.0
  0
LINE
  5
63D0C
  8
HIKIDASHI
 10
6853.6174380609609
 20
12890.040114391029
 30
0.0
 11
6803.2216986559934
 21
12907.496170482569
 31
0.0
  0
LINE
  5
63D0D
  8
HIKIDASHI
 10
3674.058576733285
 20
14649.580924221889
 30
0.0
 11
3647.3919100666171
 21
14809.580924221889
 31
0.0
  0
LINE
  5
63D0E
  8
HIKIDASHI
 10
3647.3919100666171
 20
14809.580924221889
 30
0.0
 11
3620.7252433999502
 21
14649.580924221889
 31
0.0
  0
SOLID
  5
63D0F
  8
HIKIDASHI
 10
3674.058576733285
 20
14649.580924221889
 30
0.0
 11
3620.7252433999502
 21
14649.580924221889
 31
0.0
 12
3647.3919100666171
 22
14809.580924221889
 32
0.0
 13
3647.3919100666171
 23
14809.580924221889
 33
0.0
  0
LINE
  5
63D10
  8
HIKIDASHI
 10
3620.7252433999502
 20
14649.580924221889
 30
0.0
 11
3674.058576733285
 21
14649.580924221889
 31
0.0
  0
LINE
  5
63D11
  8
HIKIDASHI
 10
4234.0585767332841
 20
14649.580924221889
 30
0.0
 11
4207.3919100666171
 21
14809.580924221889
 31
0.0
  0
LINE
  5
63D12
  8
HIKIDASHI
 10
4207.3919100666171
 20
14809.580924221889
 30
0.0
 11
4180.7252433999492
 21
14649.580924221889
 31
0.0
  0
SOLID
  5
63D13
  8
HIKIDASHI
 10
4234.0585767332841
 20
14649.580924221889
 30
0.0
 11
4180.7252433999492
 21
14649.580924221889
 31
0.0
 12
4207.3919100666171
 22
14809.580924221889
 32
0.0
 13
4207.3919100666171
 23
14809.580924221889
 33
0.0
  0
LINE
  5
63D14
  8
HIKIDASHI
 10
4180.7252433999492
 20
14649.580924221889
 30
0.0
 11
4234.0585767332841
 21
14649.580924221889
 31
0.0
  0
LINE
  5
63D15
  8
HIKIDASHI
 10
2568.6468971626532
 20
20328.997634699768
 30
0.0
 11
5248.6468971626527
 21
20328.997634699768
 31
0.0
  0
LINE
  5
63D16
  8
HIKIDASHI
 10
5248.6468971626527
 20
20328.997634699768
 30
0.0
 11
5248.6468971626527
 21
20838.997634699768
 31
0.0
  0
LINE
  5
63D17
  8
HIKIDASHI
 10
5248.6468971626527
 20
20838.997634699768
 30
0.0
 11
2568.6468971626532
 21
20838.997634699768
 31
0.0
  0
LINE
  5
63D18
  8
HIKIDASHI
 10
2568.6468971626532
 20
20838.997634699768
 30
0.0
 11
2568.6468971626532
 21
20328.997634699768
 31
0.0
  0
ARC
  5
63D1A
  8
HIKIDASHI
 10
19405.148645799731
 20
14229.536394216
 30
0.0
 40
132.73631840783941
 50
164.8596129850871
 51
237.5045002941435
  0
ARC
  5
63D1B
  8
HIKIDASHI
 10
19292.395234162021
 20
14260.044880410591
 30
0.0
 40
15.928358208940731
 50
15.14038701503865
 51
164.8596129849613
  0
LINE
  5
63D1C
  8
HIKIDASHI
 10
17827.973276239769
 20
11474.945663008441
 30
0.0
 11
17695.634831558131
 21
11381.149889274469
 31
0.0
  0
LINE
  5
63D1D
  8
HIKIDASHI
 10
17695.634831558131
 20
11381.149889274469
 30
0.0
 11
17790.399595856768
 21
11512.79619783849
 31
0.0
  0
SOLID
  5
63D1E
  8
HIKIDASHI
 10
17827.973276239769
 20
11474.945663008441
 30
0.0
 11
17790.399595856768
 21
11512.79619783849
 31
0.0
 12
17695.634831558131
 22
11381.149889274469
 32
0.0
 13
17695.634831558131
 23
11381.149889274469
 33
0.0
  0
LINE
  5
63D1F
  8
HIKIDASHI
 10
17790.399595856768
 20
11512.79619783849
 30
0.0
 11
17827.973276239769
 21
11474.945663008441
 31
0.0
  0
LINE
  5
63D20
  8
HIKIDASHI
 10
17526.526921426688
 20
13150.944333812609
 30
0.0
 11
17658.865366108341
 21
13057.14856007864
 31
0.0
  0
LINE
  5
63D21
  8
HIKIDASHI
 10
17658.865366108341
 20
13057.14856007864
 30
0.0
 11
17564.100601809689
 21
13188.794868642661
 31
0.0
  0
SOLID
  5
63D22
  8
HIKIDASHI
 10
17526.526921426688
 20
13150.944333812609
 30
0.0
 11
17564.100601809689
 21
13188.794868642661
 31
0.0
 12
17658.865366108341
 22
13057.14856007864
 32
0.0
 13
17658.865366108341
 23
13057.14856007864
 33
0.0
  0
LINE
  5
63D23
  8
HIKIDASHI
 10
17564.100601809689
 20
13188.794868642661
 30
0.0
 11
17526.526921426688
 21
13150.944333812609
 31
0.0
  0
LINE
  5
63D24
  8
HIKIDASHI
 10
17543.701521921539
 20
12538.794119320741
 30
0.0
 11
17615.250061873488
 21
12393.219679456261
 31
0.0
  0
LINE
  5
63D25
  8
HIKIDASHI
 10
17615.250061873488
 20
12393.219679456261
 30
0.0
 11
17500.355678719661
 21
12507.720298803109
 31
0.0
  0
SOLID
  5
63D26
  8
HIKIDASHI
 10
17543.701521921539
 20
12538.794119320741
 30
0.0
 11
17500.355678719661
 21
12507.720298803109
 31
0.0
 12
17615.250061873488
 22
12393.219679456261
 32
0.0
 13
17615.250061873488
 23
12393.219679456261
 33
0.0
  0
LINE
  5
63D27
  8
HIKIDASHI
 10
17500.355678719661
 20
12507.720298803109
 30
0.0
 11
17543.701521921539
 21
12538.794119320741
 31
0.0
  0
LINE
  5
63D28
  8
HIKIDASHI
 10
17822.156113230001
 20
13589.63763706449
 30
0.0
 11
17765.25012399759
 21
13437.740239125649
 31
0.0
  0
LINE
  5
63D29
  8
HIKIDASHI
 10
17765.25012399759
 20
13437.740239125649
 30
0.0
 11
17868.344134765171
 21
13562.97097039783
 31
0.0
  0
SOLID
  5
63D2A
  8
HIKIDASHI
 10
17822.156113230001
 20
13589.63763706449
 30
0.0
 11
17868.344134765171
 21
13562.97097039783
 31
0.0
 12
17765.25012399759
 22
13437.740239125649
 32
0.0
 13
17765.25012399759
 23
13437.740239125649
 33
0.0
  0
LINE
  5
63D2B
  8
HIKIDASHI
 10
17868.344134765171
 20
13562.97097039783
 30
0.0
 11
17822.156113230001
 21
13589.63763706449
 31
0.0
  0
ARC
  5
63D31
  8
HIKIDASHI
 10
25199.867515405949
 20
13014.572842873429
 30
0.0
 40
132.73631840783941
 50
164.8596129850871
 51
237.5045002941435
  0
ARC
  5
63D32
  8
HIKIDASHI
 10
25087.11410376825
 20
13045.08132906802
 30
0.0
 40
15.928358208940731
 50
15.14038701503865
 51
164.8596129849613
  0
ARC
  5
63D33
  8
HIKIDASHI
 10
19181.73875858785
 20
14231.63439841083
 30
0.0
 40
132.73631840783949
 50
301.7712278330693
 51
15.140387014908811
  0
LINE
  5
63D34
  8
HIKIDASHI
 10
27958.55815629417
 20
14259.07564547467
 30
0.0
 11
28292.11074941156
 21
14409.70317803151
 31
0.0
1001
ACAD
1000
DSTYLE
1002
{
1070
   147
1040
1.0
1070
    77
1070
     0
1002
}
  0
LINE
  5
63D35
  8
HIKIDASHI
 10
27947.583062446869
 20
14283.379110786311
 30
0.0
 11
27812.73736442432
 21
14193.22508239088
 31
0.0
  0
LINE
  5
63D36
  8
HIKIDASHI
 10
27812.73736442432
 20
14193.22508239088
 30
0.0
 11
27969.53325014146
 21
14234.77218016303
 31
0.0
  0
SOLID
  5
63D37
  8
HIKIDASHI
 10
27947.583062446869
 20
14283.379110786311
 30
0.0
 11
27969.53325014146
 21
14234.77218016303
 31
0.0
 12
27812.73736442432
 22
14193.22508239088
 32
0.0
 13
27812.73736442432
 23
14193.22508239088
 33
0.0
  0
LINE
  5
63D38
  8
HIKIDASHI
 10
27969.53325014146
 20
14234.77218016303
 30
0.0
 11
27947.583062446869
 21
14283.379110786311
 31
0.0
  0
LINE
  5
63D39
  8
HIKIDASHI
 10
26789.143643819309
 20
12235.56459621744
 30
0.0
 11
25165.480271538479
 21
12709.3799716495
 31
0.0
1001
ACAD
1000
DSTYLE
1002
{
1070
   147
1040
1.0
1070
    77
1070
     0
1002
}
  0
LINE
  5
63D3A
  8
HIKIDASHI
 10
26781.673389862019
 20
12209.965642783271
 30
0.0
 11
26942.73736442432
 21
12190.74307247373
 31
0.0
  0
LINE
  5
63D3B
  8
HIKIDASHI
 10
26942.73736442432
 20
12190.74307247373
 30
0.0
 11
26796.613897776591
 21
12261.16354965161
 31
0.0
  0
SOLID
  5
63D3C
  8
HIKIDASHI
 10
26781.673389862019
 20
12209.965642783271
 30
0.0
 11
26796.613897776591
 21
12261.16354965161
 31
0.0
 12
26942.73736442432
 22
12190.74307247373
 32
0.0
 13
26942.73736442432
 23
12190.74307247373
 33
0.0
  0
LINE
  5
63D3D
  8
HIKIDASHI
 10
26796.613897776591
 20
12261.16354965161
 30
0.0
 11
26781.673389862019
 21
12209.965642783271
 31
0.0
  0
ARC
  5
63D3E
  8
HIKIDASHI
 10
24976.457628194072
 20
13016.67084706825
 30
0.0
 40
132.73631840783949
 50
301.7712278330693
 51
15.140387014908811
  0
ARC
  5
63D3F
  8
U6
 10
3967.391910066618
 20
12572.0809242219
 30
0.0
 40
10.0
 50
90.0
 51
270.0
  0
ARC
  5
63D40
  8
U6
 10
3967.391910066618
 20
12572.0809242219
 30
0.0
 40
10.0
 50
270.0
 51
90.0
  0
ARC
  5
63D41
  8
U6
 10
3967.391910066618
 20
12697.080924221889
 30
0.0
 40
10.0
 50
90.0
 51
270.0
  0
ARC
  5
63D42
  8
U6
 10
3967.391910066618
 20
12697.080924221889
 30
0.0
 40
10.0
 50
270.0
 51
90.0
  0
ARC
  5
63D43
  8
U6
 10
3967.391910066618
 20
15322.080924221889
 30
0.0
 40
10.0
 50
90.0
 51
270.0
  0
ARC
  5
63D44
  8
U6
 10
3967.391910066618
 20
15322.080924221889
 30
0.0
 40
10.0
 50
270.0
 51
90.0
  0
ARC
  5
63D45
  8
U6
 10
3967.391910066618
 20
15447.080924221889
 30
0.0
 40
10.0
 50
90.0
 51
270.0
  0
ARC
  5
63D46
  8
U6
 10
3967.391910066618
 20
15447.080924221889
 30
0.0
 40
10.0
 50
270.0
 51
90.0
  0
ARC
  5
63D47
  8
U6
 10
9567.3919100666153
 20
12572.0809242219
 30
0.0
 40
10.0
 50
90.0
 51
270.0
  0
ARC
  5
63D48
  8
U6
 10
9567.3919100666153
 20
12572.0809242219
 30
0.0
 40
10.0
 50
270.0
 51
90.0
  0
ARC
  5
63D49
  8
U6
 10
9567.3919100666153
 20
12697.080924221889
 30
0.0
 40
10.0
 50
90.0
 51
270.0
  0
ARC
  5
63D4A
  8
U6
 10
9567.3919100666153
 20
12697.080924221889
 30
0.0
 40
10.0
 50
270.0
 51
90.0
  0
ARC
  5
63D4B
  8
U6
 10
9567.3919100666153
 20
15322.080924221889
 30
0.0
 40
10.0
 50
90.0
 51
270.0
  0
ARC
  5
63D4C
  8
U6
 10
9567.3919100666153
 20
15322.080924221889
 30
0.0
 40
10.0
 50
270.0
 51
90.0
  0
ARC
  5
63D4D
  8
U6
 10
9567.3919100666153
 20
15447.080924221889
 30
0.0
 40
10.0
 50
90.0
 51
270.0
  0
ARC
  5
63D4E
  8
U6
 10
9567.3919100666153
 20
15447.080924221889
 30
0.0
 40
10.0
 50
270.0
 51
90.0
  0
ARC
  5
63D4F
  8
U6
 10
3967.391910066618
 20
18197.0809242219
 30
0.0
 40
10.0
 50
90.0
 51
270.0
  0
ARC
  5
63D50
  8
U6
 10
3967.391910066618
 20
18197.0809242219
 30
0.0
 40
10.0
 50
270.0
 51
90.0
  0
ARC
  5
63D51
  8
U6
 10
3967.391910066618
 20
18072.0809242219
 30
0.0
 40
10.0
 50
90.0
 51
270.0
  0
ARC
  5
63D52
  8
U6
 10
3967.391910066618
 20
18072.0809242219
 30
0.0
 40
10.0
 50
270.0
 51
90.0
  0
ARC
  5
63D53
  8
U6
 10
6704.8919100666171
 20
18134.580924221889
 30
0.0
 40
10.0
 50
180.0
 51
0.0
  0
ARC
  5
63D54
  8
U6
 10
6704.8919100666171
 20
18134.580924221889
 30
0.0
 40
10.0
 50
0.0
 51
180.0
  0
ARC
  5
63D55
  8
U6
 10
6829.8919100666171
 20
18134.580924221889
 30
0.0
 40
10.0
 50
180.0
 51
0.0
  0
ARC
  5
63D56
  8
U6
 10
6829.8919100666171
 20
18134.580924221889
 30
0.0
 40
10.0
 50
0.0
 51
180.0
  0
ARC
  5
63D57
  8
U6
 10
9567.3919100666153
 20
18072.0809242219
 30
0.0
 40
10.0
 50
90.0
 51
270.0
  0
ARC
  5
63D58
  8
U6
 10
9567.3919100666153
 20
18072.0809242219
 30
0.0
 40
10.0
 50
270.0
 51
90.0
  0
ARC
  5
63D59
  8
U6
 10
9567.3919100666153
 20
18197.0809242219
 30
0.0
 40
10.0
 50
90.0
 51
270.0
  0
ARC
  5
63D5A
  8
U6
 10
9567.3919100666153
 20
18197.0809242219
 30
0.0
 40
10.0
 50
270.0
 51
90.0
  0
LINE
  5
63D5B
  8
HATCH
 10
17344.26541940586
 20
10917.74023912528
 30
0.0
 11
17182.607344032898
 21
10517.740239125649
 31
0.0
  0
LINE
  5
63D5C
  8
HATCH
 10
17263.978109381249
 20
10517.740239125649
 30
0.0
 11
17216.112953293989
 21
10600.64512138102
 31
0.0
  0
LINE
  5
63D5D
  8
HATCH
 10
17262.894556868581
 20
10917.73999864504
 30
0.0
 11
17310.759712955842
 21
10834.83511638966
 31
0.0
  0
LINE
  5
63D5E
  8
HATCH
 10
17544.265280564581
 20
10917.74023912528
 30
0.0
 11
17382.60720519162
 21
10517.740239125649
 31
0.0
  0
LINE
  5
63D5F
  8
HATCH
 10
17463.977970539971
 20
10517.740239125649
 30
0.0
 11
17416.112814452721
 21
10600.64512138102
 31
0.0
  0
LINE
  5
63D60
  8
HATCH
 10
17462.89441802731
 20
10917.73999864504
 30
0.0
 11
17510.75957411456
 21
10834.83511638966
 31
0.0
  0
LINE
  5
63D61
  8
HATCH
 10
17944.265002881912
 20
10917.74023912528
 30
0.0
 11
17782.60692750895
 21
10517.740239125649
 31
0.0
  0
LINE
  5
63D62
  8
HATCH
 10
17863.977692857301
 20
10517.740239125649
 30
0.0
 11
17816.112536770041
 21
10600.64512138102
 31
0.0
  0
LINE
  5
63D63
  8
HATCH
 10
17862.89414034463
 20
10917.73999864504
 30
0.0
 11
17910.75929643189
 21
10834.83511638966
 31
0.0
  0
LINE
  5
63D64
  8
HATCH
 10
17744.265141723248
 20
10917.74023912528
 30
0.0
 11
17582.60706635028
 21
10517.740239125649
 31
0.0
  0
LINE
  5
63D65
  8
HATCH
 10
17663.97783169863
 20
10517.740239125649
 30
0.0
 11
17616.112675611381
 21
10600.64512138102
 31
0.0
  0
LINE
  5
63D66
  8
HATCH
 10
17662.89427918597
 20
10917.73999864504
 30
0.0
 11
17710.759435273219
 21
10834.83511638966
 31
0.0
  0
LINE
  5
63D67
  8
HATCH
 10
18144.264864040571
 20
10917.74023912528
 30
0.0
 11
17982.60678866761
 21
10517.740239125649
 31
0.0
  0
LINE
  5
63D68
  8
HATCH
 10
18063.977554015961
 20
10517.740239125649
 30
0.0
 11
18016.112397928711
 21
10600.64512138102
 31
0.0
  0
LINE
  5
63D69
  8
HATCH
 10
18062.8940015033
 20
10917.73999864504
 30
0.0
 11
18110.75915759055
 21
10834.83511638966
 31
0.0
  0
LINE
  5
63D6A
  8
U1
 62
     4
 10
26942.73736442432
 20
12150.74307247373
 30
0.0
 11
28342.73736442432
 21
12150.74307247373
 31
0.0
  0
LINE
  5
63D6B
  8
U1
 62
     4
 10
28342.73736442432
 20
12150.74307247373
 30
0.0
 11
28342.73736442432
 21
12190.74307247373
 31
0.0
  0
LINE
  5
63D6C
  8
U1
 62
     4
 10
28342.73736442432
 20
12190.74307247373
 30
0.0
 11
26942.73736442432
 21
12190.74307247373
 31
0.0
  0
LINE
  5
63D6D
  8
U1
 62
     4
 10
26942.73736442432
 20
12190.74307247373
 30
0.0
 11
26942.73736442432
 21
12150.74307247373
 31
0.0
  0
LINE
  5
63D6E
  8
耐風型受皿
 10
6986.2191802176894
 20
3721.0610773730368
 30
0.0
 11
6986.2191802176894
 21
3905.0610773730368
 31
0.0
  0
LINE
  5
63D6F
  8
耐風型受皿
 10
6986.2191802176894
 20
3905.0610773730368
 30
0.0
 11
6912.2191442176909
 21
3905.0610773730368
 31
0.0
  0
LINE
  5
63D70
  8
耐風型受皿
 10
6912.2191442176909
 20
3905.0610773730368
 30
0.0
 11
6912.2191442176909
 21
3855.0610773730368
 31
0.0
  0
LINE
  5
63D71
  8
耐風型受皿
 10
6912.2191442176909
 20
3855.0610773730368
 30
0.0
 11
6740.2191442176909
 21
3855.0610773730368
 31
0.0
  0
LINE
  5
63D72
  8
耐風型受皿
 10
6740.2191442176909
 20
3855.0610773730368
 30
0.0
 11
6740.2191442176909
 21
3905.0610773730368
 31
0.0
  0
LINE
  5
63D73
  8
耐風型受皿
 10
6740.2191442176909
 20
3905.0610773730368
 30
0.0
 11
6666.2191202176982
 21
3905.0610773730368
 31
0.0
  0
LINE
  5
63D74
  8
耐風型受皿
 10
6666.2191202176982
 20
3905.0610773730368
 30
0.0
 11
6666.2191202176982
 21
3721.0610773730368
 31
0.0
  0
LINE
  5
63D75
  8
耐風型受皿
 10
6666.2191202176982
 20
3721.0610773730368
 30
0.0
 11
6986.2191802176894
 21
3721.0610773730368
 31
0.0
  0
LINE
  5
63D76
  8
耐風型受皿
 10
6880.2192811795176
 20
3907.0610540223279
 30
0.0
 11
6772.2192811795176
 21
3907.0610540223279
 31
0.0
  0
LINE
  5
63D77
  8
耐風型受皿
 10
6772.2192811795176
 20
3907.0610540223279
 30
0.0
 11
6772.2192811795176
 21
3875.0610540223279
 31
0.0
  0
LINE
  5
63D78
  8
耐風型受皿
 10
6772.2192811795176
 20
3875.0610540223279
 30
0.0
 11
6880.2192811795176
 21
3875.0610540223279
 31
0.0
  0
LINE
  5
63D79
  8
耐風型受皿
 10
6880.2192811795176
 20
3875.0610540223279
 30
0.0
 11
6880.2192811795176
 21
3907.0610540223279
 31
0.0
  0
LINE
  5
63D7A
  8
耐風型受皿
 10
6926.2192562176997
 20
3743.060999805668
 30
0.0
 11
6726.2191962176948
 21
3743.060999805668
 31
0.0
  0
LINE
  5
63D7B
  8
耐風型受皿
 10
6726.2191962176948
 20
3743.060999805668
 30
0.0
 11
6726.2191962176948
 21
3783.060999805668
 31
0.0
  0
LINE
  5
63D7C
  8
耐風型受皿
 10
6726.2191962176948
 20
3783.060999805668
 30
0.0
 11
6778.2191272946147
 21
3783.060967805679
 31
0.0
  0
ARC
  5
63D7D
  8
耐風型受皿
 10
6778.2191322177032
 20
3791.0609678056771
 30
0.0
 40
7.9999999999996954
 50
269.9999647409827
 51
359.99999999996089
  0
LINE
  5
63D7E
  8
耐風型受皿
 10
6786.2191322177023
 20
3791.0609678056721
 30
0.0
 11
6786.2191322177023
 21
3806.2610398056709
 31
0.0
  0
LINE
  5
63D7F
  8
耐風型受皿
 10
6786.2191322177023
 20
3806.2610398056709
 30
0.0
 11
6866.2191322177023
 21
3806.2610398056709
 31
0.0
  0
LINE
  5
63D80
  8
耐風型受皿
 10
6866.2191322177023
 20
3806.2610398056709
 30
0.0
 11
6866.2191322177023
 21
3791.0610598056742
 31
0.0
  0
ARC
  5
63D81
  8
耐風型受皿
 10
6874.2191322176986
 20
3791.0610598056701
 30
0.0
 40
7.9999999999972706
 50
179.99999999997391
 51
270.0000352588284
  0
LINE
  5
63D82
  8
耐風型受皿
 10
6874.2191371407607
 20
3783.0610598056742
 30
0.0
 11
6926.2192562176997
 21
3783.06109180567
 31
0.0
  0
LINE
  5
63D83
  8
耐風型受皿
 10
6926.2192562176997
 20
3783.06109180567
 30
0.0
 11
6926.2192562176997
 21
3743.060999805668
 31
0.0
  0
LINE
  5
63D84
  8
耐風型受皿
 10
7026.2192562176997
 20
3947.0610773730368
 30
0.0
 11
6626.2192562177006
 21
3947.0610773730368
 31
0.0
  0
LINE
  5
63D85
  8
耐風型受皿
 10
6626.2192562177006
 20
3947.0610773730368
 30
0.0
 11
6626.2192562177006
 21
3679.0610773730368
 31
0.0
  0
LINE
  5
63D86
  8
耐風型受皿
 10
6626.2192562177006
 20
3679.0610773730368
 30
0.0
 11
7026.2192562176997
 21
3679.0610773730368
 31
0.0
  0
LINE
  5
63D87
  8
耐風型受皿
 10
7026.2192562176997
 20
3679.0610773730368
 30
0.0
 11
7026.2192562176997
 21
3947.0610773730368
 31
0.0
  0
ENDSEC
  0
EOF
