  0
SECTION
  2
HEADER
  9
$ACADVER
  1
AC1009
  9
$INSBASE
 10
267.00000000000011
 20
194.89999999999981
 30
0.0
  9
$EXTMIN
 10
867.99324330406671
 20
327.38164749855792
 30
-0.0000000000000053
  9
$EXTMAX
 10
32765.33210850941
 20
22484.553276491992
 30
0.0000000000000099
  9
$LIMMIN
 10
0.0
 20
0.0
  9
$LIMMAX
 10
33600.0
 20
23760.0
  9
$ORTHOMODE
 70
     0
  9
$REGENMODE
 70
     1
  9
$FILLMODE
 70
     1
  9
$QTEXTMODE
 70
     0
  9
$MIRRTEXT
 70
     0
  9
$DRAGMODE
 70
     2
  9
$LTSCALE
 40
80.0
  9
$OSMODE
 70
  3071
  9
$ATTMODE
 70
     1
  9
$TEXTSIZE
 40
0.2
  9
$TRACEWID
 40
0.05
  9
$TEXTSTYLE
  7
00
  9
$CLAYER
  8
SUNPOU
  9
$CELTYPE
  6
BYLAYER
  9
$CECOLOR
 62
   256
  9
$DIMSCALE
 40
80.0
  9
$DIMASZ
 40
0.5
  9
$DIMEXO
 40
1.0
  9
$DIMDLI
 40
7.0
  9
$DIMRND
 40
0.0
  9
$DIMDLE
 40
3.0
  9
$DIMEXE
 40
1.0
  9
$DIMTP
 40
0.0
  9
$DIMTM
 40
0.0
  9
$DIMTXT
 40
2.0
  9
$DIMCEN
 40
0.0
  9
$DIMTSZ
 40
0.0
  9
$DIMTOL
 70
     0
  9
$DIMLIM
 70
     0
  9
$DIMTIH
 70
     0
  9
$DIMTOH
 70
     0
  9
$DIMSE1
 70
     0
  9
$DIMSE2
 70
     0
  9
$DIMTAD
 70
     1
  9
$DIMZIN
 70
     8
  9
$DIMBLK
  1
DOT
  9
$DIMASO
 70
     1
  9
$DIMSHO
 70
     0
  9
$DIMPOST
  1

  9
$DIMAPOST
  1

  9
$DIMALT
 70
     0
  9
$DIMALTD
 70
     2
  9
$DIMALTF
 40
25.399999999999999
  9
$DIMLFAC
 40
1.0
  9
$DIMTOFL
 70
     1
  9
$DIMTVP
 40
0.0
  9
$DIMTIX
 70
     0
  9
$DIMSOXD
 70
     0
  9
$DIMSAH
 70
     1
  9
$DIMBLK1
  1
DOT
  9
$DIMBLK2
  1
DOT
  9
$DIMSTYLE
  2
SUNPOU_申請図
  9
$DIMCLRD
 70
   256
  9
$DIMCLRE
 70
   256
  9
$DIMCLRT
 70
   256
  9
$DIMTFAC
 40
1.0
  9
$DIMGAP
 40
1.0
  9
$LUNITS
 70
     2
  9
$LUPREC
 70
     2
  9
$SKETCHINC
 40
0.1
  9
$FILLETRAD
 40
0.0
  9
$AUNITS
 70
     0
  9
$AUPREC
 70
     0
  9
$MENU
  1
A:\TIGER\MENU\TIGER
  9
$ELEVATION
 40
0.0
  9
$PELEVATION
 40
0.0
  9
$THICKNESS
 40
0.0
  9
$LIMCHECK
 70
     0
  9
$BLIPMODE
 70
     1
  9
$CHAMFERA
 40
0.0
  9
$CHAMFERB
 40
0.0
  9
$SKPOLY
 70
     0
  9
$TDCREATE
 40
2450266.5710648149
  9
$TDUPDATE
 40
2456314.7647755672
  9
$TDINDWG
 40
0.5900724421
  9
$TDUSRTIMER
 40
0.5900724421
  9
$USRTIMER
 70
     1
  9
$ANGBASE
 50
0.0
  9
$ANGDIR
 70
     0
  9
$PDMODE
 70
     0
  9
$PDSIZE
 40
0.0
  9
$PLINEWID
 40
0.0
  9
$COORDS
 70
     0
  9
$SPLFRAME
 70
     0
  9
$SPLINETYPE
 70
     6
  9
$SPLINESEGS
 70
     8
  9
$ATTDIA
 70
     0
  9
$ATTREQ
 70
     1
  9
$HANDLING
 70
     1
  9
$HANDSEED
  5
6C0C6
  9
$SURFTAB1
 70
     6
  9
$SURFTAB2
 70
     6
  9
$SURFTYPE
 70
     6
  9
$SURFU
 70
     6
  9
$SURFV
 70
     6
  9
$UCSNAME
  2

  9
$UCSORG
 10
0.0
 20
0.0
 30
0.0
  9
$UCSXDIR
 10
1.0
 20
0.0
 30
0.0
  9
$UCSYDIR
 10
0.0
 20
1.0
 30
0.0
  9
$PUCSNAME
  2

  9
$PUCSORG
 10
0.0
 20
0.0
 30
0.0
  9
$PUCSXDIR
 10
1.0
 20
0.0
 30
0.0
  9
$PUCSYDIR
 10
0.0
 20
1.0
 30
0.0
  9
$USERI1
 70
     3
  9
$USERI2
 70
     0
  9
$USERI3
 70
     0
  9
$USERI4
 70
     0
  9
$USERI5
 70
  1103
  9
$USERR1
 40
0.0
  9
$USERR2
 40
1.0
  9
$USERR3
 40
0.0
  9
$USERR4
 40
0.0
  9
$USERR5
 40
0.0
  9
$WORLDVIEW
 70
     1
  9
$SHADEDGE
 70
     3
  9
$SHADEDIF
 70
    70
  9
$TILEMODE
 70
     1
  9
$MAXACTVP
 70
    16
  9
$PLIMCHECK
 70
     0
  9
$PEXTMIN
 10
1.0000000000000000E+020
 20
1.0000000000000000E+020
 30
1.0000000000000000E+020
  9
$PEXTMAX
 10
-1.0000000000000000E+020
 20
-1.0000000000000000E+020
 30
-1.0000000000000000E+020
  9
$PLIMMIN
 10
0.0
 20
0.0
  9
$PLIMMAX
 10
12.0
 20
9.0
  9
$UNITMODE
 70
     0
  9
$VISRETAIN
 70
     0
  9
$PLINEGEN
 70
     1
  9
$PSLTSCALE
 70
     0
  0
ENDSEC
  0
SECTION
  2
TABLES
  0
TABLE
  2
VPORT
 70
     1
  0
VPORT
  2
*ACTIVE
 70
     0
 10
0.0
 20
0.0
 11
1.0
 21
1.0
 12
16800.0
 22
11880.0
 13
0.0
 23
0.0
 14
1.0
 24
1.0
 15
0.0
 25
0.0
 16
0.0
 26
0.0
 36
1.0
 17
0.0
 27
0.0
 37
0.0
 40
23958.55153203342
 41
1.6471408647140859
 42
50.0
 43
0.0
 44
0.0
 50
0.0
 51
0.0
 71
     0
 72
 10000
 73
     1
 74
     0
 75
     0
 76
     0
 77
     0
 78
     0
  0
ENDTAB
  0
TABLE
  2
LTYPE
 70
     4
  0
LTYPE
  2
CONTINUOUS
 70
     0
  3
実線
 72
    65
 73
     0
 40
0.0
  0
LTYPE
  2
1PL-M
 70
     0
  3

 72
    65
 73
     4
 40
15.0
 49
12.0
 49
-1.0
 49
1.0
 49
-1.0
  0
ENDTAB
  0
TABLE
  2
LAYER
 70
    19
  0
LAYER
  2
0
 70
     0
 62
     7
  6
CONTINUOUS
  0
LAYER
  2
U1
 70
     0
 62
     3
  6
CONTINUOUS
  0
LAYER
  2
U3
 70
     0
 62
     6
  6
CONTINUOUS
  0
LAYER
  2
SUNPOU
 70
     0
 62
     4
  6
CONTINUOUS
  0
LAYER
  2
HIKIDASHI
 70
     0
 62
     6
  6
CONTINUOUS
  0
LAYER
  2
1PL-M1
 70
     0
 62
     6
  6
1PL-M
  0
LAYER
  2
NAME
 70
     0
 62
    20
  6
CONTINUOUS
  0
LAYER
  2
KERABA
 70
     0
 62
     3
  6
CONTINUOUS
  0
LAYER
  2
FILENAME
 70
     0
 62
     7
  6
CONTINUOUS
  0
LAYER
  2
YODOROGO
 70
     0
 62
   130
  6
CONTINUOUS
  0
LAYER
  2
WAKUSEN-01
 70
     0
 62
    50
  6
CONTINUOUS
  0
LAYER
  2
WAKUSEN-02
 70
     0
 62
   130
  6
CONTINUOUS
  0
LAYER
  2
WAKUMOJI-01
 70
     0
 62
   130
  6
CONTINUOUS
  0
LAYER
  2
下屋前桁
 70
     0
 62
     3
  6
CONTINUOUS
  0
LAYER
  2
U5
 70
     0
 62
     4
  6
CONTINUOUS
  0
LAYER
  2
TOI
 70
     0
 62
     3
  6
CONTINUOUS
  0
ENDTAB
  0
TABLE
  2
STYLE
 70
     5
  0
STYLE
  2
STANDARD
 70
     0
 40
3.0
 41
1.0
 50
0.0
 71
     0
 42
0.2
  3
ROMANS
  4
EXTFONT
  0
STYLE
  2
01
 70
     0
 40
3.0
 41
1.0
 50
0.0
 71
     0
 42
0.2
  3
ROMANS
  4
BIGFONT
  0
STYLE
  2
00
 70
     0
 40
0.0
 41
0.6666666666666666
 50
0.0
 71
     0
 42
0.2
  3
ROMANS
  4
BIGFONT
  0
STYLE
  2
FILENAME
 70
     0
 40
200.0
 41
1.0
 50
0.0
 71
     0
 42
200.0
  3
romans
  4
bigfont
  0
STYLE
  2
WAKUMOJI
 70
     0
 40
3.0
 41
1.0
 50
0.0
 71
     0
 42
3.0
  3
SIMPLEX
  4
BIGFONT
  0
ENDTAB
  0
TABLE
  2
VIEW
 70
     0
  0
ENDTAB
  0
TABLE
  2
UCS
 70
     0
  0
ENDTAB
  0
TABLE
  2
APPID
 70
    13
  0
APPID
  2
ACAD
 70
     0
  0
APPID
  2
AUTOCAD_POSTSCRIPT_FIGURE
 70
     0
  0
APPID
  2
CONTENTBLOCKICON
 70
     0
  0
APPID
  2
ACAD_PSEXT
 70
     0
  0
APPID
  2
ACAD_EXEMPT_FROM_CAD_STANDARDS
 70
     0
  0
APPID
  2
ACAD_NAV_VCDISPLAY
 70
     0
  0
APPID
  2
ACAECLAYERSTANDARD
 70
     0
  0
APPID
  2
ACCMTRANSPARENCY
 70
     0
  0
APPID
  2
ACLAYERTOOLS
 70
     0
  0
APPID
  2
GRADIENTCOLOR1ACI
 70
     0
  0
APPID
  2
GRADIENTCOLOR2ACI
 70
     0
  0
APPID
  2
AEC_XDATA_BOUND_SPACE
 70
     0
  0
APPID
  2
ACAD_MLEADERVER
 70
     0
  0
ENDTAB
  0
TABLE
  2
DIMSTYLE
 70
     4
  0
DIMSTYLE
  2
SUNPOU_申請図
 70
     0
  3

  4

  5
DOT
  6
DOT
  7
DOT
 40
80.0
 41
0.5
 42
1.0
 43
7.0
 44
1.0
 45
0.0
 46
3.0
 47
0.0
 48
0.0
140
2.0
141
0.0
142
0.0
143
25.399999999999999
144
1.0
145
0.0
146
1.0
147
1.0
 71
     0
 72
     0
 73
     0
 74
     0
 75
     0
 76
     0
 77
     1
 78
     8
170
     0
171
     2
172
     1
173
     1
174
     0
175
     0
176
   256
177
   256
178
   256
  0
ENDTAB
  0
ENDSEC
  0
SECTION
  2
BLOCKS
  0
BLOCK
  8
0
  2
$MODEL_SPACE
 70
     0
 10
0.0
 20
0.0
 30
0.0
  3
$MODEL_SPACE
  1

  0
ENDBLK
  5
125F7
  8
0
  0
BLOCK
 67
     1
  8
0
  2
$PAPER_SPACE
 70
     0
 10
0.0
 20
0.0
 30
0.0
  3
$PAPER_SPACE
  1

  0
ENDBLK
  5
125F5
 67
     1
  8
0
  0
BLOCK
  8
0
  2
DOT
 70
     0
 10
0.0
 20
0.0
 30
0.0
  3
DOT
  1

  0
POLYLINE
  5
12980
  8
0
  6
BYBLOCK
 62
     0
 66
     1
 10
0.0
 20
0.0
 30
0.0
 70
     1
 40
0.75
 41
0.75
  0
VERTEX
  5
6C086
  8
0
  6
BYBLOCK
 62
     0
 10
-0.375
 20
0.0
 30
0.0
 42
1.0
  0
VERTEX
  5
6C087
  8
0
  6
BYBLOCK
 62
     0
 10
0.375
 20
0.0
 30
0.0
 42
1.0
  0
SEQEND
  5
6C088
  8
0
  6
BYBLOCK
 62
     0
  0
LINE
  5
12981
  8
0
  6
BYBLOCK
 62
     0
 10
-0.75
 20
0.0
 30
0.0
 11
-1.5
 21
0.0
 31
0.0
  0
ENDBLK
  5
12982
  8
0
  0
ENDSEC
  0
SECTION
  2
ENTITIES
  0
TEXT
  5
64097
  8
HIKIDASHI
 10
9664.5594784388777
 20
15550.869736264771
 30
0.0
 40
160.0
  1
シャッター
  7
01
  0
LINE
  5
64098
  8
HIKIDASHI
 10
9664.5594784388777
 20
15510.869736264771
 30
0.0
 11
10583.609795692329
 21
15510.869736264771
 31
0.0
  0
TEXT
  5
640D9
  8
SUNPOU
 10
24037.381935610549
 20
17133.403468037661
 30
0.0
 40
160.0
  1
下屋前桁下面カラ
 50
90.0
  7
01
 72
     1
 11
24037.381935610549
 21
17874.736801371
 31
0.0
  0
TEXT
  5
640DA
  8
SUNPOU
 10
24288.467839239722
 20
17128.070134704329
 30
0.0
 40
160.0
  1
本体基礎天端マデ
 50
90.0
  7
01
 72
     1
 11
24288.467839239722
 21
17874.736801371
 31
0.0
  0
TEXT
  5
640DB
  8
SUNPOU
 10
23715.581377115261
 20
16779.570277695089
 30
0.0
 40
160.0
  1
下屋有効開口高サ
 50
90.0
  7
01
  0
TEXT
  5
640DD
  8
SUNPOU
 10
24855.399693064559
 20
17261.580870923779
 30
0.0
 40
160.0
  1
下屋高サ
 50
90.0
  7
01
  0
TEXT
  5
64219
  8
SUNPOU
 10
10211.000000000009
 20
18697.37810894864
 30
0.0
 40
160.0
  1
3170
 50
90.0
 41
0.6700000000000002
  7
00
  0
TEXT
  5
6421A
  8
SUNPOU
 10
10211.000000000009
 20
16568.846450831901
 30
0.0
 40
160.0
  1
シャッター有効開口高サ
 50
90.0
  7
01
  0
LINE
  5
64224
  8
U1
 10
16816.000000000011
 20
16018.121500361271
 30
0.0
 11
10117.093139678071
 21
16018.12150036126
 31
0.0
  0
LINE
  5
64226
  8
U1
 10
11173.500000000009
 20
19495.975870572482
 30
0.0
 11
11173.500000000009
 21
16018.12150036126
 31
0.0
  0
LINE
  5
64227
  8
U1
 10
11258.500000000009
 20
16018.12150036126
 30
0.0
 11
11258.500000000009
 21
19401.121500361289
 31
0.0
  0
LINE
  5
64228
  8
KERABA
 10
11056.000000000009
 20
19495.975870572482
 30
0.0
 11
11056.000000000009
 21
19675.406243899481
 31
0.0
  0
LINE
  5
64229
  8
KERABA
 10
11091.000000000009
 20
19495.975870572482
 30
0.0
 11
11091.000000000009
 21
19675.406243899481
 31
0.0
  0
LINE
  5
6422A
  8
KERABA
 10
11056.000000000009
 20
19551.975870572482
 30
0.0
 11
16816.000000000011
 21
19551.975870572482
 31
0.0
  0
LINE
  5
6422B
  8
KERABA
 10
11056.000000000009
 20
19549.975870572482
 30
0.0
 11
16816.000000000011
 21
19549.975870572482
 31
0.0
  0
LINE
  5
6422C
  8
KERABA
 10
11056.000000000009
 20
19539.975870572482
 30
0.0
 11
16816.000000000011
 21
19539.975870572482
 31
0.0
  0
LINE
  5
6422D
  8
KERABA
 10
11056.000000000009
 20
19537.975870572482
 30
0.0
 11
16816.000000000011
 21
19537.975870572482
 31
0.0
  0
LINE
  5
6422E
  8
KERABA
 10
11056.000000000009
 20
19527.975870572489
 30
0.0
 11
16816.000000000011
 21
19527.975870572489
 31
0.0
  0
LINE
  5
6422F
  8
KERABA
 10
11056.000000000009
 20
19619.40624389947
 30
0.0
 11
16816.000000000011
 21
19619.40624389947
 31
0.0
  0
LINE
  5
64230
  8
KERABA
 10
11056.000000000009
 20
19623.40624389947
 30
0.0
 11
16816.000000000011
 21
19623.40624389947
 31
0.0
  0
LINE
  5
64231
  8
KERABA
 10
11056.000000000009
 20
19633.406243899481
 30
0.0
 11
16816.000000000011
 21
19633.406243899481
 31
0.0
  0
LINE
  5
64232
  8
KERABA
 10
11056.000000000009
 20
19635.40624389947
 30
0.0
 11
16816.000000000011
 21
19635.40624389947
 31
0.0
  0
LINE
  5
64233
  8
KERABA
 10
11056.000000000009
 20
19645.40624389947
 30
0.0
 11
16816.000000000011
 21
19645.40624389947
 31
0.0
  0
LINE
  5
64234
  8
KERABA
 10
11056.000000000009
 20
19523.975870572482
 30
0.0
 11
16816.000000000011
 21
19523.975870572482
 31
0.0
  0
LINE
  5
64235
  8
KERABA
 10
11056.000000000009
 20
19647.406243899481
 30
0.0
 11
16816.000000000011
 21
19647.406243899481
 31
0.0
  0
LINE
  5
64236
  8
KERABA
 10
11056.000000000009
 20
19495.975870572482
 30
0.0
 11
16816.000000000011
 21
19495.975870572482
 31
0.0
  0
LINE
  5
64237
  8
KERABA
 10
11056.000000000009
 20
19675.406243899481
 30
0.0
 11
16816.000000000011
 21
19675.406243899481
 31
0.0
  0
LINE
  5
64238
  8
下屋前桁
 10
16772.999999999949
 20
19393.121500361322
 30
0.0
 11
11259.000000000069
 21
19393.121500361322
 31
0.0
  0
LINE
  5
64239
  8
下屋前桁
 10
11259.000000000009
 20
19401.121500361322
 30
0.0
 11
11221.000000000009
 21
19401.121500361289
 31
0.0
  0
ARC
  5
6423A
  8
下屋前桁
 10
11221.000000000009
 20
19406.121500361289
 30
0.0
 40
5.0
 50
180.0
 51
270.0
  0
LINE
  5
6423B
  8
下屋前桁
 10
11259.000000000069
 20
19401.121500361322
 30
0.0
 11
11259.000000000069
 21
19393.121500361289
 31
0.0
  0
LINE
  5
6423C
  8
下屋前桁
 10
11216.000000000009
 20
19495.975870572482
 30
0.0
 11
11216.000000000009
 21
19406.121500361289
 31
0.0
  0
LINE
  5
69CB7
  8
TOI
 10
11076.700000000021
 20
6671.4886956308237
 30
0.0
 11
11076.700000000021
 21
6681.4886956308237
 31
0.0
  0
LINE
  5
69CB8
  8
TOI
 10
11186.700000000021
 20
6681.4886956308237
 30
0.0
 11
11076.700000000021
 21
6681.4886956308237
 31
0.0
  0
LINE
  5
69CB9
  8
TOI
 10
11186.700000000021
 20
6671.4886956308237
 30
0.0
 11
11076.700000000021
 21
6671.4886956308237
 31
0.0
  0
LINE
  5
69CBA
  8
KERABA
 10
14091.42785426008
 20
9617.9522177096715
 30
0.0
 11
14076.659626750859
 21
9797.3453598758115
 31
0.0
  0
LINE
  5
69CBB
  8
TOI
 10
11081.700000000021
 20
9285.2872541462038
 30
0.0
 11
11141.700000000021
 21
9285.2872541462038
 31
0.0
  0
LINE
  5
69CBE
  8
TOI
 10
11081.700000000021
 20
9315.2872541462038
 30
0.0
 11
11032.60910966032
 21
9323.9433026200786
 31
0.0
  0
ARC
  5
69CBF
  8
TOI
 10
11091.700000000021
 20
9323.678250457966
 30
0.0
 40
50.0
 50
0.0
 51
75.326571614878716
  0
LINE
  5
69CC0
  8
TOI
 10
11081.700000000021
 20
9315.2872541462038
 30
0.0
 11
11091.521931451691
 21
9370.9901954216966
 31
0.0
  0
LINE
  5
69CC1
  8
TOI
 10
11048.805117979129
 20
9367.4736082645159
 30
0.0
 11
11040.872627883629
 21
9322.4862214017394
 31
0.0
  0
ARC
  5
69CC2
  8
TOI
 10
11041.29151854368
 20
9373.1836902706909
 30
0.0
 40
50.0
 50
191.95309128704119
 51
259.99999999951871
  0
LINE
  5
69CC3
  8
KERABA
 10
17200.093557575139
 20
10054.47660995084
 30
0.0
 11
10953.225695924901
 21
9540.2141098006014
 31
0.0
  0
LINE
  5
69CC4
  8
KERABA
 10
17237.27283727553
 20
10029.442609851791
 30
0.0
 11
10920.640975894001
 21
9509.4369101146767
 31
0.0
  0
LINE
  5
69CC5
  8
KERABA
 10
17235.443671557128
 20
10027.28526129983
 30
0.0
 11
10922.79832444597
 21
9507.6077443962477
 31
0.0
  0
LINE
  5
69CC6
  8
KERABA
 10
17236.264128640942
 20
10017.318975623921
 30
0.0
 11
10923.61878152978
 21
9497.6414587203672
 31
0.0
  0
LINE
  5
69CC7
  8
KERABA
 10
17234.43496292254
 20
10015.16162707199
 30
0.0
 11
10925.77613008174
 21
9495.8122930019381
 31
0.0
  0
LINE
  5
69CC8
  8
KERABA
 10
17235.255420006411
 20
10005.19534139608
 30
0.0
 11
10926.59658716561
 21
9485.8460073260558
 31
0.0
  0
LINE
  5
69CC9
  8
KERABA
 10
17239.570117110281
 20
10001.537009959269
 30
0.0
 11
10922.93825572875
 21
9481.5313102221608
 31
0.0
  0
LINE
  5
69CCA
  8
KERABA
 10
17242.311350927401
 20
9919.4852845833739
 30
0.0
 11
10933.65251808661
 21
9400.1359505133496
 31
0.0
  0
LINE
  5
69CCB
  8
KERABA
 10
17243.320059561989
 20
9931.6089188112146
 30
0.0
 11
10930.674712450829
 21
9411.931401907661
 31
0.0
  0
LINE
  5
69CCC
  8
KERABA
 10
17244.140516645799
 20
9921.6426331353341
 30
0.0
 11
10931.495169534641
 21
9401.9651162317514
 31
0.0
  0
LINE
  5
69CCD
  8
KERABA
 10
17247.446505115138
 20
9905.8606674706607
 30
0.0
 11
10930.81464373362
 21
9385.8549677335432
 31
0.0
  0
LINE
  5
69CCE
  8
KERABA
 10
17243.131808011269
 20
9909.5189989074934
 30
0.0
 11
10934.47297517048
 21
9390.16966483744
 31
0.0
  0
LINE
  5
69CCF
  8
KERABA
 10
17214.861785084249
 20
9875.083467784707
 30
0.0
 11
10967.993923434
 21
9360.8209676344923
 31
0.0
  0
LINE
  5
69CD0
  8
TOI
 10
11186.700000000021
 20
8885.2872541462038
 30
0.0
 11
11076.700000000021
 21
8885.2872541462038
 31
0.0
  0
LINE
  5
69CD1
  8
TOI
 10
11186.700000000021
 20
8895.2872541462038
 30
0.0
 11
11076.700000000021
 21
8895.2872541462038
 31
0.0
  0
LINE
  5
69CD2
  8
TOI
 10
11076.700000000021
 20
8885.2872541462038
 30
0.0
 11
11076.700000000021
 21
8895.2872541462038
 31
0.0
  0
LINE
  5
69CD3
  8
TOI
 10
11076.700000000021
 20
7778.3886956308179
 30
0.0
 11
11076.700000000021
 21
7788.3886956308179
 31
0.0
  0
LINE
  5
69CD4
  8
TOI
 10
11186.700000000021
 20
7788.3886956308179
 30
0.0
 11
11076.700000000021
 21
7788.3886956308179
 31
0.0
  0
LINE
  5
69CD5
  8
TOI
 10
11186.700000000021
 20
7778.3886956308179
 30
0.0
 11
11076.700000000021
 21
7778.3886956308179
 31
0.0
  0
LINE
  5
69CD6
  8
TOI
 10
11081.700000000021
 20
6317.4291594232982
 30
0.0
 11
11081.700000000021
 21
9315.2872541462038
 31
0.0
  0
LINE
  5
69CD7
  8
TOI
 10
11141.700000000021
 20
6317.4291594232982
 30
0.0
 11
11081.700000000021
 21
6317.4291594232982
 31
0.0
  0
LINE
  5
69CD8
  8
TOI
 10
11141.700000000021
 20
6317.4291594232982
 30
0.0
 11
11141.700000000021
 21
9323.678250457966
 31
0.0
  0
LINE
  5
69CD9
  8
U1
 10
16859.099999999919
 20
6277.4291594232991
 30
0.0
 11
16859.099999999919
 21
9845.7959993914046
 31
0.0
  0
LINE
  5
69CDA
  8
U1
 10
11385.400000000031
 20
6277.4291594232991
 30
0.0
 11
11189.400000000031
 21
6277.4291594232991
 31
0.0
  0
LINE
  5
69CDB
  8
U1
 10
11385.400000000031
 20
6277.4291594232991
 30
0.0
 11
11385.400000000031
 21
9395.1831947964292
 31
0.0
  0
LINE
  5
69CDC
  8
U1
 10
11189.400000000031
 20
6277.4291594232991
 30
0.0
 11
11189.400000000031
 21
9379.0478366838852
 31
0.0
  0
LINE
  5
69CDD
  8
U3
 10
15256.500000000009
 20
6277.4291594232991
 30
0.0
 11
15256.500000000009
 21
9713.8647498435093
 31
0.0
  0
LINE
  5
69CDE
  8
U3
 10
15260.500000000009
 20
6277.4291594232991
 30
0.0
 11
15260.500000000009
 21
9714.1940428662256
 31
0.0
  0
LINE
  5
69CDF
  8
U3
 10
15274.500000000009
 20
6277.4291594232991
 30
0.0
 11
15274.500000000009
 21
9715.3465684456969
 31
0.0
  0
LINE
  5
69CE0
  8
U3
 10
15303.000000000009
 20
6277.4291594232991
 30
0.0
 11
15303.000000000009
 21
9717.6927812324939
 31
0.0
  0
LINE
  5
69CE1
  8
U3
 10
15305.000000000009
 20
6277.4291594232991
 30
0.0
 11
15305.000000000009
 21
9717.8574277438365
 31
0.0
  0
LINE
  5
69CE2
  8
U3
 10
15387.000000000009
 20
6277.4291594232991
 30
0.0
 11
15387.000000000009
 21
9724.6079347093382
 31
0.0
  0
LINE
  5
69CE3
  8
U3
 10
15385.000000000009
 20
6277.4291594232991
 30
0.0
 11
15385.000000000009
 21
9724.4432881979956
 31
0.0
  0
LINE
  5
69CE4
  8
U3
 10
15415.500000000009
 20
6277.4291594232991
 30
0.0
 11
15415.500000000009
 21
9726.954147496137
 31
0.0
  0
LINE
  5
69CE5
  8
U3
 10
15429.5
 20
6277.4291594232991
 30
0.0
 11
15429.5
 21
9728.1066730756065
 31
0.0
  0
LINE
  5
69CE6
  8
U3
 10
15433.500000000009
 20
6277.4291594232991
 30
0.0
 11
15433.500000000009
 21
9728.4359660983246
 31
0.0
  0
LINE
  5
69CE7
  8
U3
 10
15633.500000000009
 20
6277.4291594232991
 30
0.0
 11
15633.500000000009
 21
9744.9006172336722
 31
0.0
  0
LINE
  5
69CE8
  8
U3
 10
15629.5
 20
6277.4291594232991
 30
0.0
 11
15629.5
 21
9744.5713242109832
 31
0.0
  0
LINE
  5
69CE9
  8
U3
 10
15615.500000000009
 20
6277.4291594232991
 30
0.0
 11
15615.500000000009
 21
9743.4187986314864
 31
0.0
  0
LINE
  5
69CEA
  8
U3
 10
15585.000000000009
 20
6277.4291594232991
 30
0.0
 11
15585.000000000009
 21
9740.9079393333432
 31
0.0
  0
LINE
  5
69CEB
  8
U3
 10
15587.000000000009
 20
6277.4291594232991
 30
0.0
 11
15587.000000000009
 21
9741.0725858447167
 31
0.0
  0
LINE
  5
69CEC
  8
U3
 10
15505.000000000009
 20
6277.4291594232991
 30
0.0
 11
15505.000000000009
 21
9734.3220788792169
 31
0.0
  0
LINE
  5
69CED
  8
U3
 10
15503.000000000009
 20
6277.4291594232991
 30
0.0
 11
15503.000000000009
 21
9734.1574323678415
 31
0.0
  0
LINE
  5
69CEE
  8
U3
 10
15474.500000000009
 20
6277.4291594232991
 30
0.0
 11
15474.500000000009
 21
9731.8112195810754
 31
0.0
  0
LINE
  5
69CEF
  8
U3
 10
15460.500000000009
 20
6277.4291594232991
 30
0.0
 11
15460.500000000009
 21
9730.6586940015768
 31
0.0
  0
LINE
  5
69CF0
  8
U3
 10
15456.500000000009
 20
6277.4291594232991
 30
0.0
 11
15456.500000000009
 21
9730.329400978886
 31
0.0
  0
LINE
  5
69CF1
  8
U3
 10
15656.500000000009
 20
6277.4291594232991
 30
0.0
 11
15656.500000000009
 21
9746.7940521142355
 31
0.0
  0
LINE
  5
69CF2
  8
U3
 10
15660.500000000009
 20
6277.4291594232991
 30
0.0
 11
15660.500000000009
 21
9747.1233451369553
 31
0.0
  0
LINE
  5
69CF3
  8
U3
 10
15674.500000000009
 20
6277.4291594232991
 30
0.0
 11
15674.500000000009
 21
9748.2758707164248
 31
0.0
  0
LINE
  5
69CF4
  8
U3
 10
15703.0
 20
6277.4291594232991
 30
0.0
 11
15703.0
 21
9750.62208350322
 31
0.0
  0
LINE
  5
69CF5
  8
U3
 10
15705.000000000009
 20
6277.4291594232991
 30
0.0
 11
15705.000000000009
 21
9750.7867300145645
 31
0.0
  0
LINE
  5
69CF6
  8
U3
 10
15787.000000000009
 20
6277.4291594232991
 30
0.0
 11
15787.000000000009
 21
9757.5372369800662
 31
0.0
  0
LINE
  5
69CF7
  8
U3
 10
15785.000000000009
 20
6277.4291594232991
 30
0.0
 11
15785.000000000009
 21
9757.3725904687217
 31
0.0
  0
LINE
  5
69CF8
  8
U3
 10
15815.500000000009
 20
6277.4291594232991
 30
0.0
 11
15815.500000000009
 21
9759.8834497668631
 31
0.0
  0
LINE
  5
69CF9
  8
U3
 10
15829.500000000009
 20
6277.4291594232991
 30
0.0
 11
15829.500000000009
 21
9761.0359753463326
 31
0.0
  0
LINE
  5
69CFA
  8
U3
 10
15833.5
 20
6277.4291594232991
 30
0.0
 11
15833.5
 21
9761.3652683690507
 31
0.0
  0
LINE
  5
69CFB
  8
U3
 10
16033.5
 20
6277.4291594232991
 30
0.0
 11
16033.5
 21
9777.8299195044001
 31
0.0
  0
LINE
  5
69CFC
  8
U3
 10
16029.5
 20
6277.4291594232991
 30
0.0
 11
16029.5
 21
9777.5006264817093
 31
0.0
  0
LINE
  5
69CFD
  8
U3
 10
16015.5
 20
6277.4291594232991
 30
0.0
 11
16015.5
 21
9776.3481009022125
 31
0.0
  0
LINE
  5
69CFE
  8
U3
 10
15985.0
 20
6277.4291594232991
 30
0.0
 11
15985.0
 21
9773.8372416040711
 31
0.0
  0
LINE
  5
69CFF
  8
U3
 10
15987.000000000009
 20
6277.4291594232991
 30
0.0
 11
15987.000000000009
 21
9774.0018881154465
 31
0.0
  0
LINE
  5
69D00
  8
U3
 10
15905.000000000009
 20
6277.4291594232991
 30
0.0
 11
15905.000000000009
 21
9767.251381149943
 31
0.0
  0
LINE
  5
69D01
  8
U3
 10
15903.0
 20
6277.4291594232991
 30
0.0
 11
15903.0
 21
9767.0867346385694
 31
0.0
  0
LINE
  5
69D02
  8
U3
 10
15874.5
 20
6277.4291594232991
 30
0.0
 11
15874.5
 21
9764.7405218518015
 31
0.0
  0
LINE
  5
69D03
  8
U3
 10
15860.500000000009
 20
6277.4291594232991
 30
0.0
 11
15860.500000000009
 21
9763.5879962723047
 31
0.0
  0
LINE
  5
69D04
  8
U3
 10
15856.500000000009
 20
6277.4291594232991
 30
0.0
 11
15856.500000000009
 21
9763.2587032496158
 31
0.0
  0
LINE
  5
69D05
  8
U3
 10
16656.500000000011
 20
6277.4291594232991
 30
0.0
 11
16656.500000000011
 21
9829.1173077910698
 31
0.0
  0
LINE
  5
69D06
  8
U3
 10
16660.5
 20
6277.4291594232991
 30
0.0
 11
16660.5
 21
9829.4466008137606
 31
0.0
  0
LINE
  5
69D07
  8
U3
 10
16674.5
 20
6277.4291594232991
 30
0.0
 11
16674.5
 21
9830.5991263932592
 31
0.0
  0
LINE
  5
69D08
  8
U3
 10
16703.000000000011
 20
6277.4291594232991
 30
0.0
 11
16703.000000000011
 21
9832.9453391800253
 31
0.0
  0
LINE
  5
69D09
  8
U3
 10
16705.0
 20
6277.4291594232991
 30
0.0
 11
16705.0
 21
9833.1099856914007
 31
0.0
  0
LINE
  5
69D0A
  8
U3
 10
16633.500000000011
 20
6277.4291594232991
 30
0.0
 11
16633.500000000011
 21
9827.2238729105084
 31
0.0
  0
LINE
  5
69D0B
  8
U3
 10
16629.500000000011
 20
6277.4291594232991
 30
0.0
 11
16629.500000000011
 21
9826.8945798877903
 31
0.0
  0
LINE
  5
69D0C
  8
U3
 10
16615.5
 20
6277.4291594232991
 30
0.0
 11
16615.5
 21
9825.742054308319
 31
0.0
  0
LINE
  5
69D0D
  8
U3
 10
16585.0
 20
6277.4291594232991
 30
0.0
 11
16585.0
 21
9823.2311950101775
 31
0.0
  0
LINE
  5
69D0E
  8
U3
 10
16587.0
 20
6277.4291594232991
 30
0.0
 11
16587.0
 21
9823.3958415215238
 31
0.0
  0
LINE
  5
69D0F
  8
U3
 10
16505.0
 20
6277.4291594232991
 30
0.0
 11
16505.0
 21
9816.6453345560203
 31
0.0
  0
LINE
  5
69D10
  8
U3
 10
16503.0
 20
6277.4291594232991
 30
0.0
 11
16503.0
 21
9816.4806880446777
 31
0.0
  0
LINE
  5
69D11
  8
U3
 10
16474.5
 20
6277.4291594232991
 30
0.0
 11
16474.5
 21
9814.1344752578807
 31
0.0
  0
LINE
  5
69D12
  8
U3
 10
16460.500000000011
 20
6277.4291594232991
 30
0.0
 11
16460.500000000011
 21
9812.9819496784094
 31
0.0
  0
LINE
  5
69D13
  8
U3
 10
16456.5
 20
6277.4291594232991
 30
0.0
 11
16456.5
 21
9812.6526566556931
 31
0.0
  0
LINE
  5
69D14
  8
U3
 10
16256.5
 20
6277.4291594232991
 30
0.0
 11
16256.5
 21
9796.1880055203419
 31
0.0
  0
LINE
  5
69D15
  8
U3
 10
16260.500000000009
 20
6277.4291594232991
 30
0.0
 11
16260.500000000009
 21
9796.5172985430308
 31
0.0
  0
LINE
  5
69D16
  8
U3
 10
16274.5
 20
6277.4291594232991
 30
0.0
 11
16274.5
 21
9797.6698241225295
 31
0.0
  0
LINE
  5
69D17
  8
U3
 10
16303.0
 20
6277.4291594232991
 30
0.0
 11
16303.0
 21
9800.0160369092973
 31
0.0
  0
LINE
  5
69D18
  8
U3
 10
16305.0
 20
6277.4291594232991
 30
0.0
 11
16305.0
 21
9800.1806834206727
 31
0.0
  0
LINE
  5
69D19
  8
U3
 10
16387.0
 20
6277.4291594232991
 30
0.0
 11
16387.0
 21
9806.9311903861726
 31
0.0
  0
LINE
  5
69D1A
  8
U3
 10
16385.0
 20
6277.4291594232991
 30
0.0
 11
16385.0
 21
9806.7665438748008
 31
0.0
  0
LINE
  5
69D1B
  8
U3
 10
16415.5
 20
6277.4291594232991
 30
0.0
 11
16415.5
 21
9809.2774031729405
 31
0.0
  0
LINE
  5
69D1C
  8
U3
 10
16429.5
 20
6277.4291594232991
 30
0.0
 11
16429.5
 21
9810.4299287524409
 31
0.0
  0
LINE
  5
69D1D
  8
U3
 10
16433.5
 20
6277.4291594232991
 30
0.0
 11
16433.5
 21
9810.759221775128
 31
0.0
  0
LINE
  5
69D1E
  8
U3
 10
16233.500000000009
 20
6277.4291594232991
 30
0.0
 11
16233.500000000009
 21
9794.2945706397786
 31
0.0
  0
LINE
  5
69D1F
  8
U3
 10
16229.500000000009
 20
6277.4291594232991
 30
0.0
 11
16229.500000000009
 21
9793.9652776170606
 31
0.0
  0
LINE
  5
69D20
  8
U3
 10
16215.5
 20
6277.4291594232991
 30
0.0
 11
16215.5
 21
9792.8127520375892
 31
0.0
  0
LINE
  5
69D21
  8
U3
 10
16185.0
 20
6277.4291594232991
 30
0.0
 11
16185.0
 21
9790.3018927394496
 31
0.0
  0
LINE
  5
69D22
  8
U3
 10
16187.000000000009
 20
6277.4291594232991
 30
0.0
 11
16187.000000000009
 21
9790.4665392507923
 31
0.0
  0
LINE
  5
69D23
  8
U3
 10
16105.0
 20
6277.4291594232991
 30
0.0
 11
16105.0
 21
9783.7160322852924
 31
0.0
  0
LINE
  5
69D24
  8
U3
 10
16103.0
 20
6277.4291594232991
 30
0.0
 11
16103.0
 21
9783.5513857739479
 31
0.0
  0
LINE
  5
69D25
  8
U3
 10
16074.5
 20
6277.4291594232991
 30
0.0
 11
16074.5
 21
9781.2051729871509
 31
0.0
  0
LINE
  5
69D26
  8
U3
 10
16060.500000000009
 20
6277.4291594232991
 30
0.0
 11
16060.500000000009
 21
9780.0526474076814
 31
0.0
  0
LINE
  5
69D27
  8
U3
 10
16056.500000000009
 20
6277.4291594232991
 30
0.0
 11
16056.500000000009
 21
9779.7233543849634
 31
0.0
  0
LINE
  5
69D28
  8
U3
 10
14456.5
 20
6277.4291594232991
 30
0.0
 11
14456.5
 21
9648.0061453020535
 31
0.0
  0
LINE
  5
69D29
  8
U3
 10
15185.000000000009
 20
6277.4291594232991
 30
0.0
 11
15185.000000000009
 21
9707.9786370626152
 31
0.0
  0
LINE
  5
69D2A
  8
U3
 10
15187.000000000009
 20
6277.4291594232991
 30
0.0
 11
15187.000000000009
 21
9708.1432835739888
 31
0.0
  0
LINE
  5
69D2B
  8
U3
 10
15229.5
 20
6277.4291594232991
 30
0.0
 11
15229.5
 21
9711.6420219402571
 31
0.0
  0
LINE
  5
69D2C
  8
U3
 10
15233.500000000009
 20
6277.4291594232991
 30
0.0
 11
15233.500000000009
 21
9711.9713149629442
 31
0.0
  0
LINE
  5
69D2D
  8
U3
 10
15215.500000000009
 20
6277.4291594232991
 30
0.0
 11
15215.500000000009
 21
9710.4894963607567
 31
0.0
  0
LINE
  5
69D2E
  8
U3
 10
14985.000000000009
 20
6277.4291594232991
 30
0.0
 11
14985.000000000009
 21
9691.5139859272658
 31
0.0
  0
LINE
  5
69D2F
  8
U3
 10
14987.000000000009
 20
6277.4291594232991
 30
0.0
 11
14987.000000000009
 21
9691.6786324386103
 31
0.0
  0
LINE
  5
69D30
  8
U3
 10
15015.500000000009
 20
6277.4291594232991
 30
0.0
 11
15015.500000000009
 21
9694.0248452254073
 31
0.0
  0
LINE
  5
69D31
  8
U3
 10
15029.500000000009
 20
6277.4291594232991
 30
0.0
 11
15029.500000000009
 21
9695.1773708048768
 31
0.0
  0
LINE
  5
69D32
  8
U3
 10
15033.500000000009
 20
6277.4291594232991
 30
0.0
 11
15033.500000000009
 21
9695.5066638275948
 31
0.0
  0
LINE
  5
69D33
  8
U3
 10
15060.5
 20
6277.4291594232991
 30
0.0
 11
15060.5
 21
9697.7293917308471
 31
0.0
  0
LINE
  5
69D34
  8
U3
 10
15056.500000000009
 20
6277.4291594232991
 30
0.0
 11
15056.500000000009
 21
9697.4000987081581
 31
0.0
  0
LINE
  5
69D35
  8
U3
 10
15074.500000000009
 20
6277.4291594232991
 30
0.0
 11
15074.500000000009
 21
9698.8819173103457
 31
0.0
  0
LINE
  5
69D36
  8
U3
 10
15105.000000000009
 20
6277.4291594232991
 30
0.0
 11
15105.000000000009
 21
9701.3927766084871
 31
0.0
  0
LINE
  5
69D37
  8
U3
 10
15103.000000000009
 20
6277.4291594232991
 30
0.0
 11
15103.000000000009
 21
9701.2281300971135
 31
0.0
  0
LINE
  5
69D38
  8
U3
 10
14903.000000000009
 20
6277.4291594232991
 30
0.0
 11
14903.000000000009
 21
9684.7634789617641
 31
0.0
  0
LINE
  5
69D39
  8
U3
 10
14860.5
 20
6277.4291594232991
 30
0.0
 11
14860.5
 21
9681.2647405954976
 31
0.0
  0
LINE
  5
69D3A
  8
U3
 10
14874.500000000009
 20
6277.4291594232991
 30
0.0
 11
14874.500000000009
 21
9682.4172661749672
 31
0.0
  0
LINE
  5
69D3B
  8
U3
 10
14905.000000000009
 20
6277.4291594232991
 30
0.0
 11
14905.000000000009
 21
9684.9281254731086
 31
0.0
  0
LINE
  5
69D3C
  8
U3
 10
14856.500000000009
 20
6277.4291594232991
 30
0.0
 11
14856.500000000009
 21
9680.9354475727796
 31
0.0
  0
LINE
  5
69D3D
  8
U3
 10
14833.500000000009
 20
6277.4291594232991
 30
0.0
 11
14833.500000000009
 21
9679.0420126922163
 31
0.0
  0
LINE
  5
69D3E
  8
U3
 10
14829.500000000009
 20
6277.4291594232991
 30
0.0
 11
14829.500000000009
 21
9678.7127196695274
 31
0.0
  0
LINE
  5
69D3F
  8
U3
 10
14815.500000000009
 20
6277.4291594232991
 30
0.0
 11
14815.500000000009
 21
9677.5601940900287
 31
0.0
  0
LINE
  5
69D40
  8
U3
 10
14785.000000000009
 20
6277.4291594232991
 30
0.0
 11
14785.000000000009
 21
9675.0493347918873
 31
0.0
  0
LINE
  5
69D41
  8
U3
 10
14787.0
 20
6277.4291594232991
 30
0.0
 11
14787.0
 21
9675.2139813032627
 31
0.0
  0
LINE
  5
69D42
  8
U3
 10
14705.000000000009
 20
6277.4291594232991
 30
0.0
 11
14705.000000000009
 21
9668.463474337761
 31
0.0
  0
LINE
  5
69D43
  8
U3
 10
14703.000000000009
 20
6277.4291594232991
 30
0.0
 11
14703.000000000009
 21
9668.2988278263874
 31
0.0
  0
LINE
  5
69D44
  8
U3
 10
14660.5
 20
6277.4291594232991
 30
0.0
 11
14660.5
 21
9664.8000894601191
 31
0.0
  0
LINE
  5
69D45
  8
U3
 10
14674.500000000009
 20
6277.4291594232991
 30
0.0
 11
14674.500000000009
 21
9665.9526150396177
 31
0.0
  0
LINE
  5
69D46
  8
U3
 10
14656.500000000009
 20
6277.4291594232991
 30
0.0
 11
14656.500000000009
 21
9664.4707964374302
 31
0.0
  0
LINE
  5
69D47
  8
U3
 10
14633.500000000009
 20
6277.4291594232991
 30
0.0
 11
14633.500000000009
 21
9662.5773615568687
 31
0.0
  0
LINE
  5
69D48
  8
U3
 10
14629.500000000009
 20
6277.4291594232991
 30
0.0
 11
14629.500000000009
 21
9662.2480685341488
 31
0.0
  0
LINE
  5
69D49
  8
U3
 10
14615.5
 20
6277.4291594232991
 30
0.0
 11
14615.5
 21
9661.0955429546793
 31
0.0
  0
LINE
  5
69D4A
  8
U3
 10
14587.000000000009
 20
6277.4291594232991
 30
0.0
 11
14587.000000000009
 21
9658.7493301678824
 31
0.0
  0
LINE
  5
69D4B
  8
U3
 10
14585.0
 20
6277.4291594232991
 30
0.0
 11
14585.0
 21
9658.5846836565379
 31
0.0
  0
LINE
  5
69D4C
  8
U3
 10
14503.000000000009
 20
6277.4291594232991
 30
0.0
 11
14503.000000000009
 21
9651.8341766910362
 31
0.0
  0
LINE
  5
69D4D
  8
U3
 10
14505.0
 20
6277.4291594232991
 30
0.0
 11
14505.0
 21
9651.9988232023807
 31
0.0
  0
LINE
  5
69D4E
  8
U3
 10
14460.5
 20
6277.4291594232991
 30
0.0
 11
14460.5
 21
9648.3354383247715
 31
0.0
  0
LINE
  5
69D4F
  8
U3
 10
14474.5
 20
6277.4291594232991
 30
0.0
 11
14474.5
 21
9649.4879639042392
 31
0.0
  0
LINE
  5
69D50
  8
U3
 10
14303.0
 20
6277.4291594232991
 30
0.0
 11
14303.0
 21
9635.3695255556577
 31
0.0
  0
LINE
  5
69D51
  8
U3
 10
14305.000000000009
 20
6277.4291594232991
 30
0.0
 11
14305.000000000009
 21
9635.5341720670312
 31
0.0
  0
LINE
  5
69D52
  8
U3
 10
14274.500000000009
 20
6277.4291594232991
 30
0.0
 11
14274.500000000009
 21
9633.0233127688916
 31
0.0
  0
LINE
  5
69D53
  8
U3
 10
14256.5
 20
6277.4291594232991
 30
0.0
 11
14256.5
 21
9631.5414941667041
 31
0.0
  0
LINE
  5
69D54
  8
U3
 10
14260.5
 20
6277.4291594232991
 30
0.0
 11
14260.5
 21
9631.8707871893912
 31
0.0
  0
LINE
  5
69D55
  8
U3
 10
14233.500000000009
 20
6277.4291594232991
 30
0.0
 11
14233.500000000009
 21
9629.648059286139
 31
0.0
  0
LINE
  5
69D56
  8
U3
 10
14229.500000000009
 20
6277.4291594232991
 30
0.0
 11
14229.500000000009
 21
9629.3187662634227
 31
0.0
  0
LINE
  5
69D57
  8
U3
 10
14215.5
 20
6277.4291594232991
 30
0.0
 11
14215.5
 21
9628.1662406839514
 31
0.0
  0
LINE
  5
69D58
  8
U3
 10
14187.000000000009
 20
6277.4291594232991
 30
0.0
 11
14187.000000000009
 21
9625.8200278971544
 31
0.0
  0
LINE
  5
69D59
  8
U3
 10
14185.0
 20
6277.4291594232991
 30
0.0
 11
14185.0
 21
9625.6553813858118
 31
0.0
  0
LINE
  5
69D5A
  8
U3
 10
14415.500000000009
 20
6277.4291594232991
 30
0.0
 11
14415.500000000009
 21
9644.6308918193026
 31
0.0
  0
LINE
  5
69D5B
  8
U3
 10
14433.500000000009
 20
6277.4291594232991
 30
0.0
 11
14433.500000000009
 21
9646.1127104214884
 31
0.0
  0
LINE
  5
69D5C
  8
U3
 10
14429.500000000009
 20
6277.4291594232991
 30
0.0
 11
14429.500000000009
 21
9645.7834173987994
 31
0.0
  0
LINE
  5
69D5D
  8
U3
 10
14387.0
 20
6277.4291594232991
 30
0.0
 11
14387.0
 21
9642.2846790325348
 31
0.0
  0
LINE
  5
69D5E
  8
U3
 10
14385.000000000009
 20
6277.4291594232991
 30
0.0
 11
14385.000000000009
 21
9642.1200325211612
 31
0.0
  0
LINE
  5
69D5F
  8
U3
 10
13674.5
 20
6277.4291594232991
 30
0.0
 11
13674.5
 21
9583.6293593627834
 31
0.0
  0
LINE
  5
69D60
  8
U3
 10
13660.500000000009
 20
6277.4291594232991
 30
0.0
 11
13660.500000000009
 21
9582.4768337833139
 31
0.0
  0
LINE
  5
69D61
  8
U3
 10
13705.0
 20
6277.4291594232991
 30
0.0
 11
13705.0
 21
9586.1402186609266
 31
0.0
  0
LINE
  5
69D62
  8
U3
 10
13703.0
 20
6277.4291594232991
 30
0.0
 11
13703.0
 21
9585.9755721495803
 31
0.0
  0
LINE
  5
69D63
  8
U3
 10
13785.0
 20
6277.4291594232991
 30
0.0
 11
13785.0
 21
9592.7260791150838
 31
0.0
  0
LINE
  5
69D64
  8
U3
 10
13787.0
 20
6277.4291594232991
 30
0.0
 11
13787.0
 21
9592.8907256264265
 31
0.0
  0
LINE
  5
69D65
  8
U3
 10
13815.5
 20
6277.4291594232991
 30
0.0
 11
13815.5
 21
9595.2369384132235
 31
0.0
  0
LINE
  5
69D66
  8
U3
 10
13829.500000000009
 20
6277.4291594232991
 30
0.0
 11
13829.500000000009
 21
9596.389463992693
 31
0.0
  0
LINE
  5
69D67
  8
U3
 10
13833.5
 20
6277.4291594232991
 30
0.0
 11
13833.5
 21
9596.718757015411
 31
0.0
  0
LINE
  5
69D68
  8
U3
 10
13856.5
 20
6277.4291594232991
 30
0.0
 11
13856.5
 21
9598.6121918959725
 31
0.0
  0
LINE
  5
69D69
  8
U3
 10
13874.5
 20
6277.4291594232991
 30
0.0
 11
13874.5
 21
9600.0940104981619
 31
0.0
  0
LINE
  5
69D6A
  8
U3
 10
13860.500000000009
 20
6277.4291594232991
 30
0.0
 11
13860.500000000009
 21
9598.9414849186924
 31
0.0
  0
LINE
  5
69D6B
  8
U3
 10
13903.0
 20
6277.4291594232991
 30
0.0
 11
13903.0
 21
9602.4402232849297
 31
0.0
  0
LINE
  5
69D6C
  8
U3
 10
13905.0
 20
6277.4291594232991
 30
0.0
 11
13905.0
 21
9602.6048697963033
 31
0.0
  0
LINE
  5
69D6D
  8
U3
 10
13987.0
 20
6277.4291594232991
 30
0.0
 11
13987.0
 21
9609.3553767618032
 31
0.0
  0
LINE
  5
69D6E
  8
U3
 10
13985.0
 20
6277.4291594232991
 30
0.0
 11
13985.0
 21
9609.1907302504314
 31
0.0
  0
LINE
  5
69D6F
  8
U3
 10
14015.500000000009
 20
6277.4291594232991
 30
0.0
 11
14015.500000000009
 21
9611.7015895485729
 31
0.0
  0
LINE
  5
69D70
  8
U3
 10
14029.500000000009
 20
6277.4291594232991
 30
0.0
 11
14029.500000000009
 21
9612.8541151280715
 31
0.0
  0
LINE
  5
69D71
  8
U3
 10
14033.5
 20
6277.4291594232991
 30
0.0
 11
14033.5
 21
9613.1834081507604
 31
0.0
  0
LINE
  5
69D72
  8
U3
 10
14056.5
 20
6277.4291594232991
 30
0.0
 11
14056.5
 21
9615.0768430313237
 31
0.0
  0
LINE
  5
69D73
  8
U3
 10
14105.0
 20
6277.4291594232991
 30
0.0
 11
14105.0
 21
9619.0695209316527
 31
0.0
  0
LINE
  5
69D74
  8
U3
 10
14074.5
 20
6277.4291594232991
 30
0.0
 11
14074.5
 21
9616.5586616335113
 31
0.0
  0
LINE
  5
69D75
  8
U3
 10
14060.5
 20
6277.4291594232991
 30
0.0
 11
14060.5
 21
9615.4061360540418
 31
0.0
  0
LINE
  5
69D76
  8
U3
 10
14103.000000000009
 20
6277.4291594232991
 30
0.0
 11
14103.000000000009
 21
9618.9048744203083
 31
0.0
  0
LINE
  5
69D77
  8
U3
 10
13656.5
 20
6277.4291594232991
 30
0.0
 11
13656.5
 21
9582.1475407605958
 31
0.0
  0
LINE
  5
69D78
  8
U3
 10
12856.500000000009
 20
6277.4291594232991
 30
0.0
 11
12856.500000000009
 21
9516.2889362191399
 31
0.0
  0
LINE
  5
69D79
  8
U3
 10
13303.0
 20
6277.4291594232991
 30
0.0
 11
13303.0
 21
9553.0462698788524
 31
0.0
  0
LINE
  5
69D7A
  8
U3
 10
13260.500000000009
 20
6277.4291594232991
 30
0.0
 11
13260.500000000009
 21
9549.5475315125841
 31
0.0
  0
LINE
  5
69D7B
  8
U3
 10
13274.5
 20
6277.4291594232991
 30
0.0
 11
13274.5
 21
9550.7000570920554
 31
0.0
  0
LINE
  5
69D7C
  8
U3
 10
13305.0
 20
6277.4291594232991
 30
0.0
 11
13305.0
 21
9553.2109163901969
 31
0.0
  0
LINE
  5
69D7D
  8
U3
 10
13256.500000000009
 20
6277.4291594232991
 30
0.0
 11
13256.500000000009
 21
9549.2182384898697
 31
0.0
  0
LINE
  5
69D7E
  8
U3
 10
13233.5
 20
6277.4291594232991
 30
0.0
 11
13233.5
 21
9547.3248036093046
 31
0.0
  0
LINE
  5
69D7F
  8
U3
 10
13229.5
 20
6277.4291594232991
 30
0.0
 11
13229.5
 21
9546.9955105866175
 31
0.0
  0
LINE
  5
69D80
  8
U3
 10
13215.500000000009
 20
6277.4291594232991
 30
0.0
 11
13215.500000000009
 21
9545.8429850071188
 31
0.0
  0
LINE
  5
69D81
  8
U3
 10
13185.000000000009
 20
6277.4291594232991
 30
0.0
 11
13185.000000000009
 21
9543.3321257089756
 31
0.0
  0
LINE
  5
69D82
  8
U3
 10
13187.000000000009
 20
6277.4291594232991
 30
0.0
 11
13187.000000000009
 21
9543.4967722203492
 31
0.0
  0
LINE
  5
69D83
  8
U3
 10
13105.000000000009
 20
6277.4291594232991
 30
0.0
 11
13105.000000000009
 21
9536.7462652548475
 31
0.0
  0
LINE
  5
69D84
  8
U3
 10
13103.0
 20
6277.4291594232991
 30
0.0
 11
13103.0
 21
9536.5816187434739
 31
0.0
  0
LINE
  5
69D85
  8
U3
 10
13060.500000000009
 20
6277.4291594232991
 30
0.0
 11
13060.500000000009
 21
9533.0828803772365
 31
0.0
  0
LINE
  5
69D86
  8
U3
 10
13074.500000000009
 20
6277.4291594232991
 30
0.0
 11
13074.500000000009
 21
9534.2354059567042
 31
0.0
  0
LINE
  5
69D87
  8
U3
 10
13056.500000000009
 20
6277.4291594232991
 30
0.0
 11
13056.500000000009
 21
9532.7535873545185
 31
0.0
  0
LINE
  5
69D88
  8
U3
 10
13033.500000000009
 20
6277.4291594232991
 30
0.0
 11
13033.500000000009
 21
9530.8601524739552
 31
0.0
  0
LINE
  5
69D89
  8
U3
 10
13029.5
 20
6277.4291594232991
 30
0.0
 11
13029.5
 21
9530.5308594512371
 31
0.0
  0
LINE
  5
69D8A
  8
U3
 10
13015.500000000009
 20
6277.4291594232991
 30
0.0
 11
13015.500000000009
 21
9529.3783338717676
 31
0.0
  0
LINE
  5
69D8B
  8
U3
 10
12987.000000000009
 20
6277.4291594232991
 30
0.0
 11
12987.000000000009
 21
9527.0321210849688
 31
0.0
  0
LINE
  5
69D8C
  8
U3
 10
12985.000000000009
 20
6277.4291594232991
 30
0.0
 11
12985.000000000009
 21
9526.8674745736243
 31
0.0
  0
LINE
  5
69D8D
  8
U3
 10
12903.000000000009
 20
6277.4291594232991
 30
0.0
 11
12903.000000000009
 21
9520.1169676081245
 31
0.0
  0
LINE
  5
69D8E
  8
U3
 10
12905.000000000009
 20
6277.4291594232991
 30
0.0
 11
12905.000000000009
 21
9520.2816141194671
 31
0.0
  0
LINE
  5
69D8F
  8
U3
 10
12860.500000000009
 20
6277.4291594232991
 30
0.0
 11
12860.500000000009
 21
9516.618229241858
 31
0.0
  0
LINE
  5
69D90
  8
U3
 10
12874.500000000009
 20
6277.4291594232991
 30
0.0
 11
12874.500000000009
 21
9517.7707548213275
 31
0.0
  0
LINE
  5
69D91
  8
U3
 10
13585.0
 20
6277.4291594232991
 30
0.0
 11
13585.0
 21
9576.2614279797035
 31
0.0
  0
LINE
  5
69D92
  8
U3
 10
13587.0
 20
6277.4291594232991
 30
0.0
 11
13587.0
 21
9576.4260744910771
 31
0.0
  0
LINE
  5
69D93
  8
U3
 10
13629.5
 20
6277.4291594232991
 30
0.0
 11
13629.5
 21
9579.9248128573436
 31
0.0
  0
LINE
  5
69D94
  8
U3
 10
13633.5
 20
6277.4291594232991
 30
0.0
 11
13633.5
 21
9580.2541058800325
 31
0.0
  0
LINE
  5
69D95
  8
U3
 10
13615.5
 20
6277.4291594232991
 30
0.0
 11
13615.5
 21
9578.7722872778431
 31
0.0
  0
LINE
  5
69D96
  8
U3
 10
13385.0
 20
6277.4291594232991
 30
0.0
 11
13385.0
 21
9559.7967768443541
 31
0.0
  0
LINE
  5
69D97
  8
U3
 10
13387.000000000009
 20
6277.4291594232991
 30
0.0
 11
13387.000000000009
 21
9559.9614233557004
 31
0.0
  0
LINE
  5
69D98
  8
U3
 10
13415.5
 20
6277.4291594232991
 30
0.0
 11
13415.5
 21
9562.3076361424974
 31
0.0
  0
LINE
  5
69D99
  8
U3
 10
13429.5
 20
6277.4291594232991
 30
0.0
 11
13429.5
 21
9563.4601617219669
 31
0.0
  0
LINE
  5
69D9A
  8
U3
 10
13433.5
 20
6277.4291594232991
 30
0.0
 11
13433.5
 21
9563.7894547446831
 31
0.0
  0
LINE
  5
69D9B
  8
U3
 10
13460.500000000009
 20
6277.4291594232991
 30
0.0
 11
13460.500000000009
 21
9566.0121826479644
 31
0.0
  0
LINE
  5
69D9C
  8
U3
 10
13456.500000000009
 20
6277.4291594232991
 30
0.0
 11
13456.500000000009
 21
9565.6828896252464
 31
0.0
  0
LINE
  5
69D9D
  8
U3
 10
13474.5
 20
6277.4291594232991
 30
0.0
 11
13474.5
 21
9567.1647082274358
 31
0.0
  0
LINE
  5
69D9E
  8
U3
 10
13505.0
 20
6277.4291594232991
 30
0.0
 11
13505.0
 21
9569.6755675255754
 31
0.0
  0
LINE
  5
69D9F
  8
U3
 10
13503.0
 20
6277.4291594232991
 30
0.0
 11
13503.0
 21
9569.5109210142018
 31
0.0
  0
LINE
  5
69DA0
  8
U3
 10
12703.000000000009
 20
6277.4291594232991
 30
0.0
 11
12703.000000000009
 21
9503.6523164727441
 31
0.0
  0
LINE
  5
69DA1
  8
U3
 10
12705.000000000009
 20
6277.4291594232991
 30
0.0
 11
12705.000000000009
 21
9503.8169629841195
 31
0.0
  0
LINE
  5
69DA2
  8
U3
 10
12674.500000000009
 20
6277.4291594232991
 30
0.0
 11
12674.500000000009
 21
9501.3061036859781
 31
0.0
  0
LINE
  5
69DA3
  8
U3
 10
12656.500000000009
 20
6277.4291594232991
 30
0.0
 11
12656.500000000009
 21
9499.8242850837905
 31
0.0
  0
LINE
  5
69DA4
  8
U3
 10
12660.500000000009
 20
6277.4291594232991
 30
0.0
 11
12660.500000000009
 21
9500.1535781065086
 31
0.0
  0
LINE
  5
69DA5
  8
U3
 10
12633.500000000009
 20
6277.4291594232991
 30
0.0
 11
12633.500000000009
 21
9497.9308502032272
 31
0.0
  0
LINE
  5
69DA6
  8
U3
 10
12629.5
 20
6277.4291594232991
 30
0.0
 11
12629.5
 21
9497.6015571805092
 31
0.0
  0
LINE
  5
69DA7
  8
U3
 10
12615.500000000009
 20
6277.4291594232991
 30
0.0
 11
12615.500000000009
 21
9496.4490316010397
 31
0.0
  0
LINE
  5
69DA8
  8
U3
 10
12587.000000000009
 20
6277.4291594232991
 30
0.0
 11
12587.000000000009
 21
9494.1028188142427
 31
0.0
  0
LINE
  5
69DA9
  8
U3
 10
12585.000000000009
 20
6277.4291594232991
 30
0.0
 11
12585.000000000009
 21
9493.9381723028982
 31
0.0
  0
LINE
  5
69DAA
  8
U3
 10
12815.500000000009
 20
6277.4291594232991
 30
0.0
 11
12815.500000000009
 21
9512.9136827363891
 31
0.0
  0
LINE
  5
69DAB
  8
U3
 10
12833.500000000009
 20
6277.4291594232991
 30
0.0
 11
12833.500000000009
 21
9514.3955013385767
 31
0.0
  0
LINE
  5
69DAC
  8
U3
 10
12829.5
 20
6277.4291594232991
 30
0.0
 11
12829.5
 21
9514.0662083158859
 31
0.0
  0
LINE
  5
69DAD
  8
U3
 10
12787.000000000009
 20
6277.4291594232991
 30
0.0
 11
12787.000000000009
 21
9510.5674699496212
 31
0.0
  0
LINE
  5
69DAE
  8
U3
 10
12785.000000000009
 20
6277.4291594232991
 30
0.0
 11
12785.000000000009
 21
9510.4028234382477
 31
0.0
  0
LINE
  5
69DAF
  8
U3
 10
12074.500000000009
 20
6277.4291594232991
 30
0.0
 11
12074.500000000009
 21
9451.9121502798716
 31
0.0
  0
LINE
  5
69DB0
  8
U3
 10
12060.5
 20
6277.4291594232991
 30
0.0
 11
12060.5
 21
9450.7596247004003
 31
0.0
  0
LINE
  5
69DB1
  8
U3
 10
12105.000000000009
 20
6277.4291594232991
 30
0.0
 11
12105.000000000009
 21
9454.4230095780131
 31
0.0
  0
LINE
  5
69DB2
  8
U3
 10
12103.000000000009
 20
6277.4291594232991
 30
0.0
 11
12103.000000000009
 21
9454.2583630666686
 31
0.0
  0
LINE
  5
69DB3
  8
U3
 10
12185.000000000009
 20
6277.4291594232991
 30
0.0
 11
12185.000000000009
 21
9461.0088700321721
 31
0.0
  0
LINE
  5
69DB4
  8
U3
 10
12187.000000000009
 20
6277.4291594232991
 30
0.0
 11
12187.000000000009
 21
9461.1735165435166
 31
0.0
  0
LINE
  5
69DB5
  8
U3
 10
12215.500000000009
 20
6277.4291594232991
 30
0.0
 11
12215.500000000009
 21
9463.5197293303136
 31
0.0
  0
LINE
  5
69DB6
  8
U3
 10
12229.500000000009
 20
6277.4291594232991
 30
0.0
 11
12229.500000000009
 21
9464.6722549097813
 31
0.0
  0
LINE
  5
69DB7
  8
U3
 10
12233.500000000009
 20
6277.4291594232991
 30
0.0
 11
12233.500000000009
 21
9465.0015479324993
 31
0.0
  0
LINE
  5
69DB8
  8
U3
 10
12256.500000000009
 20
6277.4291594232991
 30
0.0
 11
12256.500000000009
 21
9466.8949828130626
 31
0.0
  0
LINE
  5
69DB9
  8
U3
 10
12274.500000000009
 20
6277.4291594232991
 30
0.0
 11
12274.500000000009
 21
9468.3768014152502
 31
0.0
  0
LINE
  5
69DBA
  8
U3
 10
12260.5
 20
6277.4291594232991
 30
0.0
 11
12260.5
 21
9467.2242758357806
 31
0.0
  0
LINE
  5
69DBB
  8
U3
 10
12303.000000000009
 20
6277.4291594232991
 30
0.0
 11
12303.000000000009
 21
9470.7230142020471
 31
0.0
  0
LINE
  5
69DBC
  8
U3
 10
12305.000000000009
 20
6277.4291594232991
 30
0.0
 11
12305.000000000009
 21
9470.8876607133916
 31
0.0
  0
LINE
  5
69DBD
  8
U3
 10
12387.000000000009
 20
6277.4291594232991
 30
0.0
 11
12387.000000000009
 21
9477.6381676788933
 31
0.0
  0
LINE
  5
69DBE
  8
U3
 10
12385.000000000009
 20
6277.4291594232991
 30
0.0
 11
12385.000000000009
 21
9477.4735211675197
 31
0.0
  0
LINE
  5
69DBF
  8
U3
 10
12415.500000000009
 20
6277.4291594232991
 30
0.0
 11
12415.500000000009
 21
9479.9843804656612
 31
0.0
  0
LINE
  5
69DC0
  8
U3
 10
12429.500000000009
 20
6277.4291594232991
 30
0.0
 11
12429.500000000009
 21
9481.1369060451598
 31
0.0
  0
LINE
  5
69DC1
  8
U3
 10
12433.500000000009
 20
6277.4291594232991
 30
0.0
 11
12433.500000000009
 21
9481.4661990678487
 31
0.0
  0
LINE
  5
69DC2
  8
U3
 10
12456.500000000009
 20
6277.4291594232991
 30
0.0
 11
12456.500000000009
 21
9483.359633948412
 31
0.0
  0
LINE
  5
69DC3
  8
U3
 10
12505.000000000009
 20
6277.4291594232991
 30
0.0
 11
12505.000000000009
 21
9487.352311848741
 31
0.0
  0
LINE
  5
69DC4
  8
U3
 10
12474.500000000009
 20
6277.4291594232991
 30
0.0
 11
12474.500000000009
 21
9484.8414525505996
 31
0.0
  0
LINE
  5
69DC5
  8
U3
 10
12460.5
 20
6277.4291594232991
 30
0.0
 11
12460.5
 21
9483.6889269711319
 31
0.0
  0
LINE
  5
69DC6
  8
U3
 10
12503.000000000009
 20
6277.4291594232991
 30
0.0
 11
12503.000000000009
 21
9487.1876653373984
 31
0.0
  0
LINE
  5
69DC7
  8
U3
 10
12056.5
 20
6277.4291594232991
 30
0.0
 11
12056.5
 21
9450.4303316776859
 31
0.0
  0
LINE
  5
69DC8
  8
U3
 10
11703.000000000009
 20
6277.4291594232991
 30
0.0
 11
11703.000000000009
 21
9421.3290607959407
 31
0.0
  0
LINE
  5
69DC9
  8
U3
 10
11660.5
 20
6277.4291594232991
 30
0.0
 11
11660.5
 21
9417.8303224296742
 31
0.0
  0
LINE
  5
69DCA
  8
U3
 10
11674.5
 20
6277.4291594232991
 30
0.0
 11
11674.5
 21
9418.9828480091437
 31
0.0
  0
LINE
  5
69DCB
  8
U3
 10
11705.0
 20
6277.4291594232991
 30
0.0
 11
11705.0
 21
9421.4937073072833
 31
0.0
  0
LINE
  5
69DCC
  8
U3
 10
11656.5
 20
6277.4291594232991
 30
0.0
 11
11656.5
 21
9417.5010294069561
 31
0.0
  0
LINE
  5
69DCD
  8
U3
 10
11633.5
 20
6277.4291594232991
 30
0.0
 11
11633.5
 21
9415.6075945263929
 31
0.0
  0
LINE
  5
69DCE
  8
U3
 10
11629.500000000009
 20
6277.4291594232991
 30
0.0
 11
11629.500000000009
 21
9415.2783015037039
 31
0.0
  0
LINE
  5
69DCF
  8
U3
 10
11615.5
 20
6277.4291594232991
 30
0.0
 11
11615.5
 21
9414.1257759242344
 31
0.0
  0
LINE
  5
69DD0
  8
U3
 10
11585.0
 20
6277.4291594232991
 30
0.0
 11
11585.0
 21
9411.6149166260639
 31
0.0
  0
LINE
  5
69DD1
  8
U3
 10
11587.0
 20
6277.4291594232991
 30
0.0
 11
11587.0
 21
9411.7795631374374
 31
0.0
  0
LINE
  5
69DD2
  8
U3
 10
11505.0
 20
6277.4291594232991
 30
0.0
 11
11505.0
 21
9405.0290561719376
 31
0.0
  0
LINE
  5
69DD3
  8
U3
 10
11503.0
 20
6277.4291594232991
 30
0.0
 11
11503.0
 21
9404.8644096605913
 31
0.0
  0
LINE
  5
69DD4
  8
U3
 10
11460.5
 20
6277.4291594232991
 30
0.0
 11
11460.5
 21
9401.3656712943248
 31
0.0
  0
LINE
  5
69DD5
  8
U3
 10
11474.5
 20
6277.4291594232991
 30
0.0
 11
11474.5
 21
9402.5181968737943
 31
0.0
  0
LINE
  5
69DD6
  8
U3
 10
11456.5
 20
6277.4291594232991
 30
0.0
 11
11456.5
 21
9401.0363782716067
 31
0.0
  0
LINE
  5
69DD7
  8
U3
 10
11433.5
 20
6277.4291594232991
 30
0.0
 11
11433.5
 21
9399.1429433910434
 31
0.0
  0
LINE
  5
69DD8
  8
U3
 10
11429.500000000009
 20
6277.4291594232991
 30
0.0
 11
11429.500000000009
 21
9398.8136503683254
 31
0.0
  0
LINE
  5
69DD9
  8
U3
 10
11415.5
 20
6277.4291594232991
 30
0.0
 11
11415.5
 21
9397.6611247888559
 31
0.0
  0
LINE
  5
69DDA
  8
U3
 10
11387.0
 20
6277.4291594232991
 30
0.0
 11
11387.0
 21
9395.3149120020607
 31
0.0
  0
LINE
  5
69DDB
  8
U3
 10
11985.000000000009
 20
6277.4291594232991
 30
0.0
 11
11985.000000000009
 21
9444.5442188967918
 31
0.0
  0
LINE
  5
69DDC
  8
U3
 10
11987.0
 20
6277.4291594232991
 30
0.0
 11
11987.0
 21
9444.7088654081654
 31
0.0
  0
LINE
  5
69DDD
  8
U3
 10
12029.500000000009
 20
6277.4291594232991
 30
0.0
 11
12029.500000000009
 21
9448.2076037744337
 31
0.0
  0
LINE
  5
69DDE
  8
U3
 10
12033.500000000009
 20
6277.4291594232991
 30
0.0
 11
12033.500000000009
 21
9448.5368967971208
 31
0.0
  0
LINE
  5
69DDF
  8
U3
 10
12015.500000000009
 20
6277.4291594232991
 30
0.0
 11
12015.500000000009
 21
9447.0550781949332
 31
0.0
  0
LINE
  5
69DE0
  8
U3
 10
11785.0
 20
6277.4291594232991
 30
0.0
 11
11785.0
 21
9428.0795677614406
 31
0.0
  0
LINE
  5
69DE1
  8
U3
 10
11787.0
 20
6277.4291594232991
 30
0.0
 11
11787.0
 21
9428.2442142727868
 31
0.0
  0
LINE
  5
69DE2
  8
U3
 10
11815.5
 20
6277.4291594232991
 30
0.0
 11
11815.5
 21
9430.5904270595838
 31
0.0
  0
LINE
  5
69DE3
  8
U3
 10
11829.500000000009
 20
6277.4291594232991
 30
0.0
 11
11829.500000000009
 21
9431.7429526390533
 31
0.0
  0
LINE
  5
69DE4
  8
U3
 10
11833.500000000009
 20
6277.4291594232991
 30
0.0
 11
11833.500000000009
 21
9432.0722456617714
 31
0.0
  0
LINE
  5
69DE5
  8
U3
 10
11860.5
 20
6277.4291594232991
 30
0.0
 11
11860.5
 21
9434.2949735650527
 31
0.0
  0
LINE
  5
69DE6
  8
U3
 10
11856.5
 20
6277.4291594232991
 30
0.0
 11
11856.5
 21
9433.9656805423347
 31
0.0
  0
LINE
  5
69DE7
  8
U3
 10
11874.500000000009
 20
6277.4291594232991
 30
0.0
 11
11874.500000000009
 21
9435.4474991445222
 31
0.0
  0
LINE
  5
69DE8
  8
U3
 10
11905.000000000009
 20
6277.4291594232991
 30
0.0
 11
11905.000000000009
 21
9437.9583584426637
 31
0.0
  0
LINE
  5
69DE9
  8
U3
 10
11903.000000000009
 20
6277.4291594232991
 30
0.0
 11
11903.000000000009
 21
9437.7937119313174
 31
0.0
  0
LINE
  5
69DEA
  8
U3
 10
16854.500000000011
 20
6277.4291594232991
 30
0.0
 11
11245.0
 21
6277.4291594232991
 31
0.0
  0
LINE
  5
69DEB
  8
1PL-M1
 10
16816.000000000011
 20
4437.4291594232982
 30
0.0
 11
16816.000000000011
 21
6777.4291594232982
 31
0.0
  0
LINE
  5
69DEC
  8
1PL-M1
 10
11316.000000000009
 20
4437.4291594232982
 30
0.0
 11
11316.000000000009
 21
6777.4291594232982
 31
0.0
  0
LINE
  5
69DED
  8
U1
 10
11196.499999999951
 20
6277.4291594232991
 30
0.0
 11
11196.499999999951
 21
5977.4291594232982
 31
0.0
  0
LINE
  5
69DEE
  8
U1
 10
16935.999999999949
 20
6277.4291594232991
 30
0.0
 11
11196.499999999951
 21
6277.4291594232991
 31
0.0
  0
LINE
  5
69DEF
  8
U1
 10
16936.000000000011
 20
6267.4291594232982
 30
0.0
 11
16936.000000000011
 21
6277.4291594232991
 31
0.0
  0
LINE
  5
69DF0
  8
U1
 10
16936.000000000011
 20
5977.4291594232982
 30
0.0
 11
16936.000000000011
 21
6277.4291594232991
 31
0.0
  0
LINE
  5
69DF1
  8
U1
 10
16925.726345596671
 20
8885.3028138265563
 30
0.0
 11
16924.09999999998
 21
8886.9291594232982
 31
0.0
  0
LINE
  5
69DF2
  8
U1
 10
17002.726345596959
 20
8962.3028138267891
 30
0.0
 11
16925.726345596719
 21
8885.3028138265854
 31
0.0
  0
ARC
  5
69DF3
  8
U1
 10
16893.73402719247
 20
8881.9291594232982
 30
0.0
 40
5.0
 50
90.0
 51
145.56101069121851
  0
LINE
  5
69DF4
  8
U1
 10
16889.61038293329
 20
8884.7568012010506
 30
0.0
 11
16868.58961706662
 21
8854.1015176455458
 31
0.0
  0
LINE
  5
69DF5
  8
U1
 10
16924.09999999998
 20
8886.9291594232982
 30
0.0
 11
16893.73402719247
 21
8886.9291594232982
 31
0.0
  0
ARC
  5
69DF6
  8
U1
 10
16864.465972807378
 20
8856.9291594232982
 30
0.0
 40
5.0
 50
270.0
 51
325.5610106912186
  0
LINE
  5
69DF7
  8
U1
 10
16864.465972807378
 20
8851.9291594232964
 30
0.0
 11
16859.09999999998
 21
8851.9291594232964
 31
0.0
  0
LINE
  5
69DF8
  8
U1
 10
22273.499999999942
 20
9355.4291594233273
 30
0.0
 11
22273.499999999942
 21
5977.4291594232982
 31
0.0
  0
LINE
  5
69DF9
  8
U1
 10
22358.499999999942
 20
5977.4291594232982
 30
0.0
 11
22358.499999999942
 21
9358.2497099516258
 31
0.0
  0
LINE
  5
69DFA
  8
U1
 10
19523.499999999942
 20
9355.4291594232982
 30
0.0
 11
19523.499999999942
 21
5977.4291594232982
 31
0.0
  0
LINE
  5
69DFB
  8
U1
 10
19608.499999999942
 20
5977.4291594232982
 30
0.0
 11
19608.499999999942
 21
9355.4291594233273
 31
0.0
  0
LINE
  5
69DFC
  8
1PL-M1
 10
19565.999999999942
 20
5199.0118654086818
 30
0.0
 11
19565.999999999942
 21
6783.4291594232982
 31
0.0
  0
LINE
  5
69DFD
  8
1PL-M1
 10
22315.999999999942
 20
4443.4291594232982
 30
0.0
 11
22315.999999999942
 21
6783.4291594232982
 31
0.0
  0
ARC
  5
69DFE
  8
U1
 10
16871.59999999998
 20
9006.9558895435384
 30
0.0
 40
5.0
 50
180.0
 51
270.0
  0
LINE
  5
69DFF
  8
U1
 10
17008.599999999919
 20
8961.9558895435384
 30
0.0
 11
17008.599999999919
 21
9355.4291594232982
 31
0.0
  0
LINE
  5
69E00
  8
U1
 10
16866.59999999998
 20
9006.9558895435384
 30
0.0
 11
16866.59999999998
 21
9355.4451851055419
 31
0.0
  0
ARC
  5
69E01
  8
U1
 10
19570.99999999988
 20
9360.4291594233273
 30
0.0
 40
5.0
 50
180.0
 51
270.0
  0
LINE
  5
69E02
  8
U1
 10
19611.99999999988
 20
9355.4291594233273
 30
0.0
 11
19611.99999999988
 21
9352.4291594233273
 31
0.0
  0
LINE
  5
69E03
  8
U1
 10
19611.99999999988
 20
9352.4291594233273
 30
0.0
 11
22268.99999999988
 21
9352.4291594233273
 31
0.0
  0
LINE
  5
69E04
  8
U1
 10
22268.99999999988
 20
9355.4291594233273
 30
0.0
 11
22353.99999999988
 21
9355.4291594233273
 31
0.0
  0
LINE
  5
69E05
  8
U1
 10
22358.99999999988
 20
9360.4291594233273
 30
0.0
 11
22358.99999999988
 21
9463.5946121493089
 31
0.0
  0
ARC
  5
69E06
  8
U1
 10
22353.99999999988
 20
9360.4291594233273
 30
0.0
 40
5.0
 50
270.0
 51
0.0
  0
LINE
  5
69E07
  8
U1
 10
22268.99999999988
 20
9352.4291594233273
 30
0.0
 11
22268.99999999988
 21
9355.4291594233273
 31
0.0
  0
LINE
  5
69E08
  8
U1
 10
19570.99999999988
 20
9355.4291594233273
 30
0.0
 11
19611.99999999988
 21
9355.4291594233273
 31
0.0
  0
LINE
  5
69E09
  8
U1
 10
17011.999999999949
 20
9352.4291594232982
 30
0.0
 11
19520.499999999942
 21
9352.4291594232982
 31
0.0
  0
LINE
  5
69E0A
  8
U1
 10
19520.499999999942
 20
9355.4291594232982
 30
0.0
 11
19560.999999999942
 21
9355.4291594232982
 31
0.0
  0
LINE
  5
69E0B
  8
U1
 10
19565.999999999942
 20
9360.4291594232982
 30
0.0
 11
19565.99999999988
 21
9526.0946121624056
 31
0.0
  0
ARC
  5
69E0C
  8
U1
 10
19560.999999999942
 20
9360.4291594232982
 30
0.0
 40
5.0
 50
270.0
 51
0.0
  0
LINE
  5
69E0D
  8
U1
 10
19520.499999999942
 20
9352.4291594232982
 30
0.0
 11
19520.499999999942
 21
9355.4291594232982
 31
0.0
  0
LINE
  5
69E0E
  8
U1
 10
17011.999999999949
 20
9355.4291594232982
 30
0.0
 11
17011.999999999949
 21
9352.4291594232982
 31
0.0
  0
LINE
  5
69E0F
  8
U1
 10
16866.999999999949
 20
9355.4291594232982
 30
0.0
 11
17011.999999999949
 21
9355.4291594232982
 31
0.0
  0
LINE
  5
69E10
  8
U1
 10
22658.478566648319
 20
9634.9199576279407
 30
0.0
 11
22603.492941755801
 21
9636.1773577944186
 31
0.0
  0
LINE
  5
69E11
  8
U1
 10
22667.858683819821
 20
9607.6983962868017
 30
0.0
 11
22665.81348290859
 21
9605.7446426603929
 31
0.0
  0
LINE
  5
69E12
  8
U1
 10
22665.584864696491
 20
9595.7472563163228
 30
0.0
 11
22663.53966378525
 21
9593.7935026898813
 31
0.0
  0
LINE
  5
69E13
  8
U1
 10
22665.81348290859
 20
9605.7446426603929
 30
0.0
 11
22665.584864696491
 21
9595.7472563163228
 31
0.0
  0
LINE
  5
69E14
  8
U1
 10
22663.311045573151
 20
9583.7961163457858
 30
0.0
 11
22667.218552825969
 21
9579.7057145233193
 31
0.0
  0
LINE
  5
69E15
  8
U1
 10
22663.53966378525
 20
9593.7935026898813
 30
0.0
 11
22663.311045573151
 21
9583.7961163457858
 31
0.0
  0
LINE
  5
69E16
  8
U1
 10
22665.663948983831
 20
9511.7234873834459
 30
0.0
 11
22663.618748072589
 21
9509.7697337570917
 31
0.0
  0
LINE
  5
69E17
  8
U1
 10
22663.618748072589
 20
9509.7697337570917
 30
0.0
 11
22663.390129860491
 21
9499.7723474129652
 31
0.0
  0
LINE
  5
69E18
  8
U1
 10
22661.34492894926
 20
9497.8185937865837
 30
0.0
 11
22661.11631073715
 21
9487.8212074424573
 31
0.0
  0
LINE
  5
69E19
  8
U1
 10
22661.11631073715
 20
9487.8212074424573
 30
0.0
 11
22665.023817989979
 21
9483.730805619989
 31
0.0
  0
LINE
  5
69E1A
  8
U1
 10
22663.390129860491
 20
9499.7723474129652
 30
0.0
 11
22661.34492894926
 21
9497.8185937865837
 31
0.0
  0
LINE
  5
69E1B
  8
U1
 10
22665.663948983831
 20
9511.7234873834459
 30
0.0
 11
22667.218552825969
 21
9579.7057145233193
 31
0.0
  0
LINE
  5
69E1C
  8
U1
 10
22667.858683819821
 20
9607.6983962868017
 30
0.0
 11
22668.24733478035
 21
9624.6939530717409
 31
0.0
  0
LINE
  5
69E1D
  8
U1
 10
22654.40916247329
 20
9456.9664807030276
 30
0.0
 11
22618.418571634571
 21
9457.7895062665248
 31
0.0
  0
ARC
  5
69E1E
  8
U1
 10
22654.637780685331
 20
9466.9638670471231
 30
0.0
 40
10.0
 50
268.69000000003967
 51
358.69000000171462
  0
LINE
  5
69E1F
  8
U1
 10
22665.023817989979
 20
9483.730805619989
 30
0.0
 11
22664.635167029461
 21
9466.7352488350498
 31
0.0
  0
LINE
  5
69E20
  8
U1
 10
22658.478566648319
 20
9634.9199576279407
 30
0.0
 11
22603.492941755801
 21
9636.1773577944186
 31
0.0
  0
LINE
  5
69E21
  8
U1
 10
22667.858683819821
 20
9607.6983962868017
 30
0.0
 11
22665.81348290859
 21
9605.7446426603929
 31
0.0
  0
LINE
  5
69E22
  8
U1
 10
22665.584864696491
 20
9595.7472563163228
 30
0.0
 11
22663.53966378525
 21
9593.7935026898813
 31
0.0
  0
LINE
  5
69E23
  8
U1
 10
22665.81348290859
 20
9605.7446426603929
 30
0.0
 11
22665.584864696491
 21
9595.7472563163228
 31
0.0
  0
LINE
  5
69E24
  8
U1
 10
22663.311045573151
 20
9583.7961163457858
 30
0.0
 11
22667.218552825969
 21
9579.7057145233193
 31
0.0
  0
LINE
  5
69E25
  8
U1
 10
22663.53966378525
 20
9593.7935026898813
 30
0.0
 11
22663.311045573151
 21
9583.7961163457858
 31
0.0
  0
LINE
  5
69E26
  8
U1
 10
22665.663948983831
 20
9511.7234873834459
 30
0.0
 11
22663.618748072589
 21
9509.7697337570917
 31
0.0
  0
LINE
  5
69E27
  8
U1
 10
22663.618748072589
 20
9509.7697337570917
 30
0.0
 11
22663.390129860491
 21
9499.7723474129652
 31
0.0
  0
LINE
  5
69E28
  8
U1
 10
22661.34492894926
 20
9497.8185937865837
 30
0.0
 11
22661.11631073715
 21
9487.8212074424573
 31
0.0
  0
LINE
  5
69E29
  8
U1
 10
22661.11631073715
 20
9487.8212074424573
 30
0.0
 11
22665.023817989979
 21
9483.730805619989
 31
0.0
  0
LINE
  5
69E2A
  8
U1
 10
22663.390129860491
 20
9499.7723474129652
 30
0.0
 11
22661.34492894926
 21
9497.8185937865837
 31
0.0
  0
LINE
  5
69E2B
  8
U1
 10
22665.663948983831
 20
9511.7234873834459
 30
0.0
 11
22667.218552825969
 21
9579.7057145233193
 31
0.0
  0
LINE
  5
69E2C
  8
U1
 10
22667.858683819821
 20
9607.6983962868017
 30
0.0
 11
22668.24733478035
 21
9624.6939530717409
 31
0.0
  0
ARC
  5
69E2D
  8
U1
 10
22658.249948436282
 20
9624.9225712838434
 30
0.0
 40
10.0
 50
358.69000000171462
 51
88.690000000039674
  0
LINE
  5
69E2E
  8
U1
 10
22654.40916247329
 20
9456.9664807030276
 30
0.0
 11
22618.418571634571
 21
9457.7895062665248
 31
0.0
  0
ARC
  5
69E2F
  8
U1
 10
22654.637780685331
 20
9466.9638670471231
 30
0.0
 40
10.0
 50
268.69000000003967
 51
358.69000000171462
  0
LINE
  5
69E30
  8
U1
 10
22665.023817989979
 20
9483.730805619989
 30
0.0
 11
22664.635167029461
 21
9466.7352488350498
 31
0.0
  0
LINE
  5
69E31
  8
U1
 10
23568.638166163058
 20
5977.4291594232982
 30
0.0
 11
10688.732849195079
 21
5977.4291594232982
 31
0.0
  0
LINE
  5
69E32
  8
U1
 10
19569.593520646271
 20
9704.0587594995959
 30
0.0
 11
22640.824662335799
 21
9635.3326777252005
 31
0.0
  0
LINE
  5
69E33
  8
U1
 10
22636.842487024671
 20
9457.377227458046
 30
0.0
 11
22640.824662335799
 21
9635.3326777252005
 31
0.0
  0
LINE
  5
69E34
  8
U1
 10
19568.989482818171
 20
9677.0655170433074
 30
0.0
 11
22667.859199724331
 21
9607.7209565896082
 31
0.0
  0
LINE
  5
69E35
  8
U1
 10
19568.944739275321
 20
9675.0660176021265
 30
0.0
 11
22665.835567188569
 21
9605.7657394835769
 31
0.0
  0
LINE
  5
69E36
  8
U1
 10
19568.721021561239
 20
9665.0685203960948
 30
0.0
 11
22665.585358155418
 21
9595.7688350836306
 31
0.0
  0
LINE
  5
69E37
  8
U1
 10
19568.676278018389
 20
9663.0690209548848
 30
0.0
 11
22663.560743591752
 21
9593.813639952763
 31
0.0
  0
LINE
  5
69E38
  8
U1
 10
19568.452560304311
 20
9653.0715237488548
 30
0.0
 11
22663.31151658652
 21
9583.8167135776512
 31
0.0
  0
LINE
  5
69E39
  8
U1
 10
19568.36307321861
 20
9649.0725248664585
 30
0.0
 11
22667.19652251236
 21
9579.7287759866067
 31
0.0
  0
LINE
  5
69E3A
  8
U1
 10
19566.21538316318
 20
9553.0965516886681
 30
0.0
 11
22665.001798937159
 21
9483.7538552953538
 31
0.0
  0
LINE
  5
69E3B
  8
U1
 10
19566.30487024883
 20
9557.0955505710645
 30
0.0
 11
22661.116781486839
 21
9487.8417931442873
 31
0.0
  0
LINE
  5
69E3C
  8
U1
 10
19566.528587962908
 20
9567.0930477770944
 30
0.0
 11
22661.365996956301
 21
9497.8387197775792
 31
0.0
  0
LINE
  5
69E3D
  8
U1
 10
19566.573331505759
 20
9569.0925472183062
 30
0.0
 11
22663.39062305569
 21
9499.7939146502958
 31
0.0
  0
LINE
  5
69E3E
  8
U1
 10
19566.797049219829
 20
9579.0900444243089
 30
0.0
 11
22663.640820553061
 21
9509.7908193083622
 31
0.0
  0
LINE
  5
69E3F
  8
U1
 10
19566.841792762691
 20
9581.0895438655207
 30
0.0
 11
22665.66446462466
 21
9511.7460361562462
 31
0.0
  0
LINE
  5
69E40
  8
U1
 10
19565.611345335081
 20
9526.1033092324124
 30
0.0
 11
22636.842487024671
 21
9457.377227458046
 31
0.0
  0
LINE
  5
69E41
  8
U1
 10
19565.611345335081
 20
9526.1033092324124
 30
0.0
 11
19569.593520646271
 21
9704.0587594995959
 31
0.0
  0
LINE
  5
69E42
  8
U1
 10
19569.593520646271
 20
9704.0587594995959
 30
0.0
 11
16909.25951412414
 21
9763.5900432251146
 31
0.0
  0
LINE
  5
69E43
  8
U1
 10
19568.989482818171
 20
9677.0655170433383
 30
0.0
 11
16873.65571412287
 21
9737.3800034671658
 31
0.0
  0
LINE
  5
69E44
  8
U1
 10
19568.944739275321
 20
9675.0660176021265
 30
0.0
 11
16875.608889918021
 21
9735.3357958416946
 31
0.0
  0
LINE
  5
69E45
  8
U1
 10
19568.721021561239
 20
9665.0685203960948
 30
0.0
 11
16875.382965647212
 21
9725.3383480126122
 31
0.0
  0
LINE
  5
69E46
  8
U1
 10
19568.676278018389
 20
9663.0690209549139
 30
0.0
 11
16877.335511112298
 21
9723.2941544922578
 31
0.0
  0
LINE
  5
69E47
  8
U1
 10
19568.452560304249
 20
9653.0715237488821
 30
0.0
 11
16877.11021717155
 21
9713.2966925580604
 31
0.0
  0
LINE
  5
69E48
  8
U1
 10
19568.36307321861
 20
9649.0725248664585
 30
0.0
 11
16873.02016145888
 21
9709.3872158880604
 31
0.0
  0
LINE
  5
69E49
  8
U1
 10
19566.215383163129
 20
9553.0965516886681
 30
0.0
 11
16870.84217254434
 21
9613.4119207191015
 31
0.0
  0
LINE
  5
69E4A
  8
U1
 10
19566.304870248769
 20
9557.0955505710936
 30
0.0
 11
16874.932233039592
 21
9617.3213972820886
 31
0.0
  0
LINE
  5
69E4B
  8
U1
 10
19566.528587962908
 20
9567.0930477771235
 30
0.0
 11
16875.157531759942
 21
9627.3188591093567
 31
0.0
  0
LINE
  5
69E4C
  8
U1
 10
19566.5733315057
 20
9569.0925472183062
 30
0.0
 11
16873.20498151525
 21
9629.3630527366386
 31
0.0
  0
LINE
  5
69E4D
  8
U1
 10
19566.797049219829
 20
9579.0900444243362
 30
0.0
 11
16873.430910565599
 21
9639.3605004587353
 31
0.0
  0
LINE
  5
69E4E
  8
U1
 10
19566.841792762629
 20
9581.089543865548
 30
0.0
 11
16871.477729990911
 21
9641.4047081911904
 31
0.0
  0
LINE
  5
69E4F
  8
U1
 10
19565.611345335081
 20
9526.1033092324124
 30
0.0
 11
16905.27733881295
 21
9585.6345929579602
 31
0.0
  0
LINE
  5
69E50
  8
U1
 10
19565.611345335081
 20
9526.1033092324124
 30
0.0
 11
19569.593520646271
 21
9704.0587594995959
 31
0.0
  0
ARC
  5
69E51
  8
TOI
 10
22456.19999999995
 20
9389.3847704690033
 30
0.0
 40
50.0
 50
100.00000000048129
 51
180.0
  0
ARC
  5
69E52
  8
TOI
 10
22555.304663670478
 20
9444.7350092115721
 30
0.0
 40
50.0
 50
280.00000000048141
 51
0.0
  0
LINE
  5
69E53
  8
TOI
 10
22535.996249349959
 20
9390.5590842178699
 30
0.0
 11
22525.108508610221
 21
9452.3065303317453
 31
0.0
  0
LINE
  5
69E54
  8
TOI
 10
22563.987072553831
 20
9395.494621560958
 30
0.0
 11
22466.199999999961
 21
9378.252122305179
 31
0.0
  0
LINE
  5
69E55
  8
TOI
 10
22447.51759111619
 20
9438.6251581195593
 30
0.0
 11
22544.80466367042
 21
9455.7794938850766
 31
0.0
  0
LINE
  5
69E56
  8
TOI
 10
22605.304663670478
 20
9456.7794938851057
 30
0.0
 11
22605.304663670478
 21
9444.7350092115721
 31
0.0
  0
LINE
  5
69E57
  8
U1
 10
16776.089999999909
 20
6277.4291594232991
 30
0.0
 11
16776.089999999909
 21
9838.9623459376944
 31
0.0
  0
LINE
  5
69E58
  8
U1
 10
17060.66496690701
 20
9760.1541728521042
 30
0.0
 11
16862.316033217419
 21
9764.6553398329343
 31
0.0
  0
LINE
  5
69E59
  8
U1
 10
17060.678579307169
 20
9760.7540184178415
 30
0.0
 11
16862.329645617519
 21
9765.2551853985551
 31
0.0
  0
ARC
  5
69E5A
  8
U1
 10
16862.352332951159
 20
9766.2549280078583
 30
0.0
 40
1.0
 50
178.69999999972319
 51
268.69999999971361
  0
ARC
  5
69E5B
  8
U1
 10
16862.352332951159
 20
9766.2549280078583
 30
0.0
 40
1.6000000000000001
 50
178.69999999972319
 51
268.69999999971361
  0
LINE
  5
69E5C
  8
U1
 10
16861.397065049739
 20
9794.6839178462906
 30
0.0
 11
16860.752744776259
 21
9766.2912277415944
 31
0.0
  0
LINE
  5
69E5D
  8
U1
 10
17060.678579307169
 20
9760.7540184178415
 30
0.0
 11
17060.66496690701
 21
9760.1541728521042
 31
0.0
  0
LINE
  5
69E5E
  8
U1
 10
16861.996910615249
 20
9794.6703054461595
 30
0.0
 11
16861.352590341819
 21
9766.2776153414361
 31
0.0
  0
LINE
  5
69E5F
  8
U1
 10
16861.996910615249
 20
9794.6703054461595
 30
0.0
 11
16861.397065049739
 21
9794.6839178462906
 31
0.0
  0
LINE
  5
69E60
  8
U1
 10
16874.063773912381
 20
9755.3753712428934
 30
0.0
 11
16873.655401907981
 21
9737.3800042750881
 31
0.0
  0
ARC
  5
69E61
  8
U1
 10
16884.039075555342
 20
9754.1598004713505
 30
0.0
 40
10.0
 50
88.699999999713626
 51
178.69999999972319
  0
LINE
  5
69E62
  8
U1
 10
16873.431528435969
 20
9639.3598538943261
 30
0.0
 11
16871.477417884518
 21
9641.4047137801172
 31
0.0
  0
LINE
  5
69E63
  8
U1
 10
16873.204655100191
 20
9629.3624278010884
 30
0.0
 11
16873.431528435969
 21
9639.3598538943261
 31
0.0
  0
LINE
  5
69E64
  8
U1
 10
16875.1587656517
 20
9627.3175679152973
 30
0.0
 11
16873.204655100191
 21
9629.3624278010884
 31
0.0
  0
LINE
  5
69E65
  8
U1
 10
16874.931892315919
 20
9617.3201418220615
 30
0.0
 11
16875.1587656517
 21
9627.3175679152973
 31
0.0
  0
LINE
  5
69E66
  8
U1
 10
16870.84217254434
 20
9613.4119207190724
 30
0.0
 11
16874.931892315919
 21
9617.3201418220615
 31
0.0
  0
LINE
  5
69E67
  8
U1
 10
16871.477417884518
 20
9641.4047137801172
 30
0.0
 11
16873.020156567811
 21
9709.3872112140434
 31
0.0
  0
LINE
  5
69E68
  8
U1
 10
16905.19823060296
 20
9584.6250639009122
 30
0.0
 11
16909.25951412414
 21
9763.5900432251146
 31
0.0
  0
LINE
  5
69E69
  8
U1
 10
16909.25951412414
 20
9763.5900432251146
 30
0.0
 11
16884.265948891119
 21
9764.1572265645573
 31
0.0
  0
LINE
  5
69E6A
  8
U1
 10
16870.43380053994
 20
9595.4165537512945
 30
0.0
 11
16870.84217254434
 21
9613.4119207190724
 31
0.0
  0
LINE
  5
69E6B
  8
U1
 10
16877.109876339389
 20
9713.2954323170325
 30
0.0
 11
16877.33674967516
 21
9723.2928584102683
 31
0.0
  0
LINE
  5
69E6C
  8
U1
 10
16873.020156567811
 20
9709.3872112140434
 30
0.0
 11
16877.109876339389
 21
9713.2954323170325
 31
0.0
  0
LINE
  5
69E6D
  8
U1
 10
16875.382639123662
 20
9725.3377182960594
 30
0.0
 11
16875.609512459429
 21
9735.3351443892952
 31
0.0
  0
LINE
  5
69E6E
  8
U1
 10
16877.33674967516
 20
9723.2928584102683
 30
0.0
 11
16875.382639123662
 21
9725.3377182960594
 31
0.0
  0
LINE
  5
69E6F
  8
U1
 10
16875.609512459429
 20
9735.3351443892952
 30
0.0
 11
16873.655401907981
 21
9737.3800042750881
 31
0.0
  0
ARC
  5
69E70
  8
U1
 10
16880.431226633151
 20
9595.1896804155167
 30
0.0
 40
10.0
 50
178.69999999972319
 51
268.69999999971361
  0
LINE
  5
69E71
  8
U1
 10
16905.197918530441
 20
9584.6250709828364
 30
0.0
 11
16880.204353297369
 21
9585.1922543222809
 31
0.0
  0
LINE
  5
69E72
  8
TOI
 10
22471.19999999995
 20
6371.4886956308237
 30
0.0
 11
22471.19999999995
 21
6381.4886956308237
 31
0.0
  0
LINE
  5
69E73
  8
TOI
 10
22361.199999999961
 20
6381.4886956308237
 30
0.0
 11
22471.19999999995
 21
6381.4886956308237
 31
0.0
  0
LINE
  5
69E74
  8
TOI
 10
22361.199999999961
 20
6371.4886956308237
 30
0.0
 11
22471.19999999995
 21
6371.4886956308237
 31
0.0
  0
LINE
  5
69E75
  8
TOI
 10
22466.199999999899
 20
9350.2521223051772
 30
0.0
 11
22406.199999999899
 21
9350.2521223051772
 31
0.0
  0
LINE
  5
69E76
  8
TOI
 10
22494.190823203771
 20
9383.1876596482671
 30
0.0
 11
22483.303082464088
 21
9444.9351057621152
 31
0.0
  0
LINE
  5
69E77
  8
TOI
 10
22361.199999999961
 20
8950.2521223051772
 30
0.0
 11
22471.19999999995
 21
8950.2521223051772
 31
0.0
  0
LINE
  5
69E78
  8
TOI
 10
22361.199999999961
 20
8960.252122305179
 30
0.0
 11
22471.19999999995
 21
8960.252122305179
 31
0.0
  0
LINE
  5
69E79
  8
TOI
 10
22471.19999999995
 20
8950.2521223051772
 30
0.0
 11
22471.19999999995
 21
8960.252122305179
 31
0.0
  0
LINE
  5
69E7A
  8
TOI
 10
22471.19999999995
 20
7660.8704089680014
 30
0.0
 11
22471.19999999995
 21
7670.8704089680014
 31
0.0
  0
LINE
  5
69E7B
  8
TOI
 10
22361.199999999961
 20
7670.8704089680014
 30
0.0
 11
22471.19999999995
 21
7670.8704089680014
 31
0.0
  0
LINE
  5
69E7C
  8
TOI
 10
22361.199999999961
 20
7660.8704089680014
 30
0.0
 11
22471.19999999995
 21
7660.8704089680014
 31
0.0
  0
LINE
  5
69E7D
  8
TOI
 10
22466.199999999961
 20
6017.4291594232982
 30
0.0
 11
22466.199999999899
 21
9378.252122305179
 31
0.0
  0
LINE
  5
69E7E
  8
TOI
 10
22406.19999999995
 20
6017.4291594232982
 30
0.0
 11
22466.199999999961
 21
6017.4291594232982
 31
0.0
  0
LINE
  5
69E7F
  8
TOI
 10
22406.19999999995
 20
6017.4291594232982
 30
0.0
 11
22406.19999999995
 21
9389.3847704690033
 31
0.0
  0
TEXT
  5
69E80
  8
HIKIDASHI
 10
12075.197591624001
 20
5517.4291594232982
 30
0.0
 40
160.0
  1
壁 ヨドサイディング
  7
01
  0
LINE
  5
69E81
  8
HIKIDASHI
 10
12058.721899763919
 20
5477.4291594232982
 30
0.0
 11
14603.64933592687
 21
5477.4291594232982
 31
0.0
  0
TEXT
  5
69E82
  8
HIKIDASHI
 10
12384.656784468691
 20
10289.010111804249
 30
0.0
 40
160.0
  1
型断熱材付
  7
01
  0
LINE
  5
69E83
  8
HIKIDASHI
 10
11090.75424865168
 20
10489.01011180426
 30
0.0
 11
14046.549949738201
 21
10489.01011180426
 31
0.0
  0
TEXT
  5
69E84
  8
HIKIDASHI
 10
11150.1075759827
 20
10529.01011180426
 30
0.0
 40
160.0
  1
屋根板
  7
01
  0
TEXT
  5
69E85
  8
HIKIDASHI
 10
11150.1075759827
 20
10289.010111804249
 30
0.0
 40
160.0
  1
ヨドルーフ
  7
01
  0
TEXT
  5
69E86
  8
HIKIDASHI
 10
12134.221281282489
 20
10289.010111804249
 30
0.0
 40
160.0
  1
88
 41
0.6700000000000002
  7
00
  0
TEXT
  5
69E88
  8
HIKIDASHI
 10
14235.65870647436
 20
5517.4291594232982
 30
0.0
 40
160.0
  1
0.4
 41
0.6700000000000002
  7
00
  0
TEXT
  5
69E89
  8
HIKIDASHI
 10
13832.05608062319
 20
5517.4291594232982
 30
0.0
 40
160.0
  1
（
  7
01
  0
TEXT
  5
69E8A
  8
HIKIDASHI
 10
14016.36062341562
 20
5537.4291594232982
 30
0.0
 40
120.0
  1
ア
  7
01
  0
CIRCLE
  5
69E8B
  8
HIKIDASHI
 10
14067.738635845601
 20
5597.4291594232982
 30
0.0
 40
80.0
  0
LINE
  5
69E8C
  8
HIKIDASHI
 10
15101.251031059541
 20
6419.163292012342
 30
0.0
 11
14603.64933592687
 21
5477.4291594232982
 31
0.0
  0
TEXT
  5
69E8D
  8
HIKIDASHI
 10
14496.81334673102
 20
5517.4291594232982
 30
0.0
 40
160.0
  1
）
  7
01
  0
LINE
  5
69E8E
  8
HIKIDASHI
 10
14572.554262618711
 20
9960.9087131196502
 30
0.0
 11
14046.549949738201
 21
10489.01011180426
 31
0.0
  0
TEXT
  5
69E8F
  8
HIKIDASHI
 10
13274.956694434461
 20
10289.010111804249
 30
0.0
 40
160.0
  1
（
  7
01
  0
TEXT
  5
69E90
  8
HIKIDASHI
 10
13459.26123722696
 20
10309.010111804249
 30
0.0
 40
120.0
  1
ア
  7
01
  0
CIRCLE
  5
69E91
  8
HIKIDASHI
 10
13510.639249656881
 20
10369.010111804249
 30
0.0
 40
80.0
  0
TEXT
  5
69E92
  8
HIKIDASHI
 10
13657.49950437493
 20
10289.010111804249
 30
0.0
 40
160.0
  1
0.5
 41
0.6700000000000002
  7
00
  0
TEXT
  5
69E93
  8
HIKIDASHI
 10
13939.713960542291
 20
10289.010111804249
 30
0.0
 40
160.0
  1
）
  7
01
  0
TEXT
  5
69E95
  8
HIKIDASHI
 10
18225.461093499041
 20
3472.726380684695
 30
0.0
 40
160.0
  1
80
 41
0.6700000000000002
  7
00
  0
TEXT
  5
69E96
  8
HIKIDASHI
 10
18066.5965082451
 20
3556.184998581642
 30
0.0
 40
160.0
  1
1
 41
0.6700000000000002
  7
00
  0
TEXT
  5
69E97
  8
HIKIDASHI
 10
18132.870783973722
 20
3525.0620430852491
 30
0.0
 40
160.0
  1
/
 41
0.6700000000000002
  7
00
  0
TEXT
  5
69E98
  8
HIKIDASHI
 10
18468.31400562387
 20
3525.0620430852491
 30
0.0
 40
160.0
  1
)
 41
0.6700000000000002
  7
00
  0
TEXT
  5
69E99
  8
HIKIDASHI
 10
17705.18067636976
 20
3525.0620430852491
 30
0.0
 40
160.0
  1
(S=
 41
0.6700000000000002
  7
00
  0
TEXT
  5
69E9A
  8
HIKIDASHI
 10
15578.287844235019
 20
3477.4291594232982
 30
0.0
 40
240.0
  1
側 面 立 面 図
  7
01
  0
CIRCLE
  5
69E9B
  8
SUNPOU
 10
11316.000000000009
 20
4237.4291594232991
 30
0.0
 40
200.0
  0
TEXT
  5
69E9C
  8
SUNPOU
 10
11235.600000000009
 20
4117.4291594232982
 30
0.0
 40
240.0
  1
C
 41
0.6700000000000002
  7
00
 72
     4
 11
11316.000000000009
 21
4237.4291594232991
 31
0.0
  0
LINE
  5
69E9D
  8
SUNPOU
 10
10118.352697041881
 20
9497.4291594232982
 30
0.0
 11
10118.352697041881
 21
6317.4291594232982
 31
0.0
  0
LINE
  5
69E9E
  8
SUNPOU
 10
11146.700000000021
 20
6277.4291594232991
 30
0.0
 11
9998.3526970418825
 21
6277.4291594232991
 31
0.0
  0
TEXT
  5
69EA0
  8
SUNPOU
 10
10038.352697041881
 20
7718.5529689471214
 30
0.0
 40
160.0
  1
3260
 50
90.0
 41
0.6700000000000002
  7
00
  0
LINE
  5
69EA1
  8
SUNPOU
 10
10838.352697041881
 20
9537.4291594232982
 30
0.0
 11
9998.3526970418825
 21
9537.4291594232982
 31
0.0
  0
CIRCLE
  5
69EA3
  8
SUNPOU
 10
16816.000000000011
 20
4237.4291594232991
 30
0.0
 40
200.0
  0
TEXT
  5
69EA4
  8
SUNPOU
 10
16747.08571428572
 20
4117.4291594232982
 30
0.0
 40
240.0
  1
A
 41
0.6700000000000002
  7
00
 72
     4
 11
16816.000000000011
 21
4237.4291594232991
 31
0.0
  0
LINE
  5
69EA5
  8
SUNPOU
 10
18049.753093279211
 20
10017.4291594233
 30
0.0
 11
18049.753093279211
 21
6317.4291594232982
 31
0.0
  0
TEXT
  5
69EA7
  8
SUNPOU
 10
17969.753093279211
 20
7981.5529689471196
 30
0.0
 40
160.0
  1
3780
 50
90.0
 41
0.6700000000000002
  7
00
  0
LINE
  5
69EA8
  8
SUNPOU
 10
17314.985027643332
 20
10057.4291594233
 30
0.0
 11
18169.753093279211
 21
10057.4291594233
 31
0.0
  0
LINE
  5
69EAA
  8
SUNPOU
 10
10859.764071801101
 20
10736.66532173347
 30
0.0
 11
17096.66611107282
 21
11250.101737006409
 31
0.0
  0
LINE
  5
69EAB
  8
SUNPOU
 10
17228.421442916329
 20
10137.15945075309
 30
0.0
 11
17126.685879647161
 21
11372.978966364601
 31
0.0
  0
TEXT
  5
69EAD
  8
SUNPOU
 10
13783.412085560851
 20
11057.61750971079
 30
0.0
 40
160.0
  1
6338
 50
4.7061111437861802
 41
0.6700000000000002
  7
00
  0
LINE
  5
69EAE
  8
SUNPOU
 10
10911.78911231482
 20
9617.1594507530881
 30
0.0
 11
10810.05354904564
 21
10852.978966364601
 31
0.0
  0
LINE
  5
69EB0
  8
SUNPOU
 10
16340.07051099837
 20
10492.544132848379
 30
0.0
 11
14740.07051099837
 21
10492.544132848379
 31
0.0
  0
LINE
  5
69EB1
  8
SUNPOU
 10
14740.07051099837
 20
10360.82837729152
 30
0.0
 11
16340.07051099837
 21
10492.544132848379
 31
0.0
  0
TEXT
  5
69EB2
  8
SUNPOU
 10
15381.91238300998
 20
10561.559910028611
 30
0.0
 40
160.0
  1
12
 41
0.6700000000000002
  7
00
  0
TEXT
  5
69EB3
  8
SUNPOU
 10
14581.52415796533
 20
10336.479591799631
 30
0.0
 40
160.0
  1
1
 41
0.6700000000000002
  7
00
  0
LINE
  5
69EB4
  8
SUNPOU
 10
14740.07051099837
 20
10492.544132848379
 30
0.0
 11
14740.07051099837
 21
10360.82837729152
 31
0.0
  0
TEXT
  5
69EB5
  8
SUNPOU
 10
22197.714285714232
 20
4128.4291594232982
 30
0.0
 40
230.0
  1
A0
 41
0.6
  7
00
 72
     4
 11
22315.999999999942
 21
4243.4291594232982
 31
0.0
  0
CIRCLE
  5
69EB6
  8
SUNPOU
 10
22315.999999999942
 20
4243.4291594232982
 30
0.0
 40
200.0
  0
LINE
  5
69EBA
  8
SUNPOU
 10
17674.461403175032
 20
10439.20456420856
 30
0.0
 11
18794.461403175032
 21
10439.20456420856
 31
0.0
  0
LINE
  5
69EBB
  8
SUNPOU
 10
18794.461403175032
 20
10414.14190756198
 30
0.0
 11
17674.461403175032
 21
10439.20456420856
 31
0.0
  0
TEXT
  5
69EBC
  8
SUNPOU
 10
18188.038723776361
 20
10508.220341388789
 30
0.0
 40
160.0
  1
44
 41
0.6700000000000002
  7
00
  0
TEXT
  5
69EBD
  8
SUNPOU
 10
18866.226803827121
 20
10335.596362988481
 30
0.0
 40
160.0
  1
1
 41
0.6700000000000002
  7
00
  0
LINE
  5
69EBE
  8
SUNPOU
 10
18794.461403175032
 20
10439.20456420856
 30
0.0
 11
18794.461403175032
 21
10414.14190756198
 31
0.0
  0
TEXT
  5
69EC1
  8
HIKIDASHI
 10
20886.00611369294
 20
10139.47792971974
 30
0.0
 40
160.0
  1
型断熱材付
  7
01
  0
LINE
  5
69EC2
  8
HIKIDASHI
 10
19592.10357787594
 20
10339.47792971974
 30
0.0
 11
22547.899278962461
 21
10339.47792971974
 31
0.0
  0
TEXT
  5
69EC3
  8
HIKIDASHI
 10
19651.456905206949
 20
10379.47792971974
 30
0.0
 40
160.0
  1
屋根板
  7
01
  0
TEXT
  5
69EC4
  8
HIKIDASHI
 10
19651.456905206949
 20
10139.47792971974
 30
0.0
 40
160.0
  1
ヨドルーフ
  7
01
  0
TEXT
  5
69EC5
  8
HIKIDASHI
 10
20635.570610506751
 20
10139.47792971974
 30
0.0
 40
160.0
  1
88
 41
0.6700000000000002
  7
00
  0
TEXT
  5
69EC6
  8
HIKIDASHI
 10
21776.306023658719
 20
10139.47792971974
 30
0.0
 40
160.0
  1
（
  7
01
  0
TEXT
  5
69EC7
  8
HIKIDASHI
 10
21960.610566451222
 20
10159.47792971974
 30
0.0
 40
120.0
  1
ア
  7
01
  0
CIRCLE
  5
69EC8
  8
HIKIDASHI
 10
22011.988578881141
 20
10219.47792971974
 30
0.0
 40
80.0
  0
TEXT
  5
69EC9
  8
HIKIDASHI
 10
22158.848833599179
 20
10139.47792971974
 30
0.0
 40
160.0
  1
0.5
 41
0.6700000000000002
  7
00
  0
TEXT
  5
69ECA
  8
HIKIDASHI
 10
22441.063289766549
 20
10139.47792971974
 30
0.0
 40
160.0
  1
）
  7
01
  0
LINE
  5
69ECC
  8
U1
 10
22273.499999999942
 20
5977.4291594232982
 30
0.0
 11
22273.499999999942
 21
5477.4291594232982
 31
0.0
  0
LINE
  5
69ECD
  8
U1
 10
22358.499999999942
 20
5477.4291594232982
 30
0.0
 11
22358.499999999942
 21
5977.4291594232982
 31
0.0
  0
LINE
  5
69ECE
  8
U1
 10
19523.499999999942
 20
5977.4291594232982
 30
0.0
 11
19523.499999999942
 21
5477.4291594232982
 31
0.0
  0
LINE
  5
69ECF
  8
U1
 10
19608.499999999942
 20
5477.4291594232982
 30
0.0
 11
19608.499999999942
 21
5977.4291594232982
 31
0.0
  0
LINE
  5
69ED0
  8
U1
 10
19523.499999999942
 20
5477.4291594232982
 30
0.0
 11
19608.499999999942
 21
5477.4291594232982
 31
0.0
  0
LINE
  5
69ED1
  8
U1
 10
22273.499999999942
 20
5477.4291594232982
 30
0.0
 11
22358.499999999942
 21
5477.4291594232982
 31
0.0
  0
LINE
  5
6AC0B
  8
U1
 10
16871.59999999998
 20
9001.9558895435384
 30
0.0
 11
16951.52893218803
 21
9001.9558895435221
 31
0.0
  0
LINE
  5
6AC0C
  8
U1
 10
17008.59999999998
 20
8961.9558895435384
 30
0.0
 11
16995.671067811822
 21
8961.9558895435384
 31
0.0
  0
ARC
  5
6AC0D
  8
U1
 10
16995.671067811822
 20
8966.9558895435384
 30
0.0
 40
5.0
 50
225.00000000072981
 51
270.0
  0
LINE
  5
6AC0E
  8
U1
 10
16955.064466093962
 20
9000.4914234494718
 30
0.0
 11
16992.135533905901
 21
8963.4203556376069
 31
0.0
  0
ARC
  5
6AC0F
  8
U1
 10
16951.52893218803
 20
8996.9558895435384
 30
0.0
 40
5.0
 50
45.000000000729798
 51
90.0
  0
TEXT
  5
6AC11
  8
SUNPOU
 10
20961.387106663489
 20
6582.8473523201592
 30
0.0
 40
160.0
  1
下屋側面有効開口高サ
 50
90.0
  7
01
  0
TEXT
  5
6B321
  8
NAME
 10
21780.69365239378
 20
1877.7796840770311
 30
0.0
 40
360.0
  1
ヨ ド 倉 庫（下屋付き）
  7
01
  0
TEXT
  5
6B322
  8
NAME
 10
21528.924877815309
 20
1049.7796840770241
 30
0.0
 40
340.0
  1
SOB-5857FH
 41
0.6400000000000001
  7
00
  0
TEXT
  5
6B323
  8
NAME
 10
23807.326849264278
 20
1050.2352588493161
 30
0.0
 40
340.0
  1
型（　連棟）
 41
0.6400000000000001
  7
00
  0
TEXT
  5
6B324
  8
NAME
 10
25297.321196260378
 20
1049.7796840770241
 30
0.0
 40
340.0
  1
+
 41
0.6400000000000001
  7
00
  0
TEXT
  5
6B325
  8
NAME
 10
26164.939750572819
 20
1050.2352588493161
 30
0.0
 40
340.0
  1
1/5
 41
0.6400000000000001
  7
00
  0
TEXT
  5
6B326
  8
NAME
 10
24318.53488405003
 20
1050.2352588493161
 30
0.0
 40
340.0
  1
2
 41
0.6400000000000001
  7
00
  0
TEXT
  5
6B327
  8
NAME
 10
25617.466981473652
 20
1050.2352588493161
 30
0.0
 40
340.0
  1
下屋
 41
0.6400000000000001
  7
00
  0
TEXT
  5
6B6D8
  8
SUNPOU
 10
14676.44985715917
 20
15598.121500361291
 30
0.0
 40
160.0
  1
5166
 41
0.6700000000000002
  7
00
  0
TEXT
  5
6B6D9
  8
SUNPOU
 10
12695.100330913559
 20
15598.121500361291
 30
0.0
 40
160.0
  1
シャッター有効開口巾
  7
01
  0
TEXT
  5
6B6DB
  8
SUNPOU
 10
13268.81673982149
 20
15198.121500361291
 30
0.0
 40
160.0
  1
下屋有効開口巾
  7
01
  0
TEXT
  5
6B6DD
  8
SUNPOU
 10
18868.81673982149
 20
15198.121500361291
 30
0.0
 40
160.0
  1
下屋有効開口巾
  7
01
  0
TEXT
  5
6B6DE
  8
SUNPOU
 10
20276.449857159179
 20
15598.121500361291
 30
0.0
 40
160.0
  1
5166
 41
0.6700000000000002
  7
00
  0
TEXT
  5
6B6DF
  8
SUNPOU
 10
18295.100330913559
 20
15598.121500361291
 30
0.0
 40
160.0
  1
シャッター有効開口巾
  7
01
  0
TEXT
  5
6BA0A
  8
HIKIDASHI
 10
15446.887404830381
 20
13118.121500361291
 30
0.0
 40
240.0
  1
正 面 立 面 図
  7
01
  0
TEXT
  5
6BA0B
  8
HIKIDASHI
 10
17423.642083548199
 20
13165.754384023219
 30
0.0
 40
160.0
  1
(S=
 41
0.6700000000000002
  7
00
  0
TEXT
  5
6BA0C
  8
HIKIDASHI
 10
17851.332191152171
 20
13165.754384023219
 30
0.0
 40
160.0
  1
/
 41
0.6700000000000002
  7
00
  0
TEXT
  5
6BA0D
  8
HIKIDASHI
 10
17785.057915423549
 20
13196.87733951962
 30
0.0
 40
160.0
  1
1
 41
0.6700000000000002
  7
00
  0
TEXT
  5
6BA0E
  8
HIKIDASHI
 10
17943.92250067745
 20
13113.418721622669
 30
0.0
 40
160.0
  1
80
 41
0.6700000000000002
  7
00
  0
TEXT
  5
6BA0F
  8
HIKIDASHI
 10
18186.775412802312
 20
13165.754384023219
 30
0.0
 40
160.0
  1
)
 41
0.6700000000000002
  7
00
  0
LINE
  5
6BA10
  8
SUNPOU
 10
22087.999999999989
 20
16238.121500361291
 30
0.0
 11
22087.999999999989
 21
15398.121500361291
 31
0.0
  0
LINE
  5
6BA15
  8
SUNPOU
 10
16921.999999999982
 20
16238.121500361291
 30
0.0
 11
16921.999999999982
 21
15398.121500361291
 31
0.0
  0
LINE
  5
6BA16
  8
SUNPOU
 10
16961.999999999982
 20
15518.121500361291
 30
0.0
 11
22027.999999999982
 21
15518.121500361291
 31
0.0
  0
LINE
  5
6BA17
  8
SUNPOU
 10
16487.999999999982
 20
16238.121500361291
 30
0.0
 11
16487.999999999982
 21
15398.121500361291
 31
0.0
  0
LINE
  5
6BA1C
  8
SUNPOU
 10
11321.99999999998
 20
16238.121500361291
 30
0.0
 11
11321.99999999998
 21
15398.121500361291
 31
0.0
  0
LINE
  5
6BA1D
  8
SUNPOU
 10
11361.99999999998
 20
15518.121500361291
 30
0.0
 11
16427.999999999982
 21
15518.121500361291
 31
0.0
  0
LINE
  5
6BA1E
  8
U1
 10
11056.000000000009
 20
19958.121500361289
 30
0.0
 11
22576.000000000018
 21
19958.121500361289
 31
0.0
  0
LINE
  5
6BA1F
  8
U1
 10
11056.000000000009
 20
19973.121500361289
 30
0.0
 11
22576.000000000018
 21
19973.121500361289
 31
0.0
  0
LINE
  5
6BA20
  8
U1
 10
11056.000000000009
 20
20043.121500361289
 30
0.0
 11
22576.000000000018
 21
20043.121500361289
 31
0.0
  0
LINE
  5
6BA21
  8
U1
 10
11056.000000000009
 20
20058.121500361289
 30
0.0
 11
22576.000000000018
 21
20058.121500361289
 31
0.0
  0
LINE
  5
6BA22
  8
U1
 10
11066.000000000009
 20
19918.121500361289
 30
0.0
 11
22566.000000000018
 21
19918.121500361289
 31
0.0
  0
LINE
  5
6BA24
  8
U1
 10
11066.000000000009
 20
20098.121500361289
 30
0.0
 11
22566.000000000018
 21
20098.121500361289
 31
0.0
  0
LINE
  5
6BA25
  8
U1
 10
11091.00000000002
 20
16318.121500361291
 30
0.0
 11
11173.500000000009
 21
16318.121500361291
 31
0.0
  0
LINE
  5
6BA26
  8
1PL-M1
 10
14016.000000000009
 20
14078.121500361291
 30
0.0
 11
14016.000000000009
 21
16818.121500361289
 31
0.0
  0
LINE
  5
6BA27
  8
1PL-M1
 10
11216.000000000009
 20
14078.121500361291
 30
0.0
 11
11216.000000000009
 21
16818.121500361289
 31
0.0
  0
LINE
  5
6BA28
  8
U1
 10
11091.000000000009
 20
16318.121500361291
 30
0.0
 11
11091.000000000009
 21
19470.556065383062
 31
0.0
  0
LINE
  5
6BA29
  8
U1
 10
11321.99999999998
 20
16318.121500361291
 30
0.0
 11
11321.99999999998
 21
19374.555091614999
 31
0.0
  0
LINE
  5
6BA2A
  8
U1
 10
13955.50000000002
 20
16318.121500361291
 30
0.0
 11
13955.500000000009
 21
19374.555091614999
 31
0.0
  0
LINE
  5
6BA2B
  8
U1
 10
13910.000000000009
 20
16318.121500361291
 30
0.0
 11
13910.000000000009
 21
19374.555091614999
 31
0.0
  0
LINE
  5
6BA2C
  8
U1
 10
14076.500000000009
 20
16318.121500361291
 30
0.0
 11
14076.500000000009
 21
19374.555091614999
 31
0.0
  0
LINE
  5
6BA2F
  8
U1
 10
11056.000000000009
 20
19928.121500361289
 30
0.0
 11
11056.000000000009
 21
20088.121500361289
 31
0.0
  0
ARC
  5
6BA32
  8
U1
 10
11066.000000000009
 20
19928.121500361289
 30
0.0
 40
10.0
 50
180.0
 51
270.0
  0
ARC
  5
6BA33
  8
U1
 10
11066.000000000009
 20
20088.121500361289
 30
0.0
 40
10.0
 50
90.0
 51
180.0
  0
LINE
  5
6BA34
  8
U1
 10
16767.705729548241
 20
19918.121500361289
 30
0.0
 11
16767.705729548241
 21
19689.121500361289
 31
0.0
  0
LINE
  5
6BA35
  8
U1
 10
14122.00000000002
 20
16318.121500361291
 30
0.0
 11
14122.00000000002
 21
19374.555091614999
 31
0.0
  0
LINE
  5
6BA36
  8
U1
 10
16710.000000000029
 20
16318.121500361291
 30
0.0
 11
16710.000000000029
 21
19374.555091614999
 31
0.0
  0
LINE
  5
6BA37
  8
U1
 10
14141.000000000009
 20
19918.121500361289
 30
0.0
 11
14141.000000000009
 21
20098.121500361289
 31
0.0
  0
LINE
  5
6BA38
  8
U1
 10
14122.00000000004
 20
16459.721500361291
 30
0.0
 11
16710.000000000029
 21
16459.721500361291
 31
0.0
  0
LINE
  5
6BA39
  8
U1
 10
14122.00000000004
 20
16530.52150036129
 30
0.0
 11
16710.000000000029
 21
16530.52150036129
 31
0.0
  0
LINE
  5
6BA3A
  8
U1
 10
14122.00000000004
 20
16601.32150036129
 30
0.0
 11
16710.000000000029
 21
16601.32150036129
 31
0.0
  0
LINE
  5
6BA3B
  8
U1
 10
14122.00000000004
 20
16672.121500361289
 30
0.0
 11
16710.000000000029
 21
16672.121500361289
 31
0.0
  0
LINE
  5
6BA3C
  8
U1
 10
14122.00000000004
 20
16742.921500361292
 30
0.0
 11
16710.000000000029
 21
16742.921500361292
 31
0.0
  0
LINE
  5
6BA3D
  8
U1
 10
14122.00000000004
 20
16813.721500361291
 30
0.0
 11
16710.000000000029
 21
16813.721500361291
 31
0.0
  0
LINE
  5
6BA3E
  8
U1
 10
14122.00000000004
 20
16884.52150036129
 30
0.0
 11
16710.000000000029
 21
16884.52150036129
 31
0.0
  0
LINE
  5
6BA3F
  8
U1
 10
14122.00000000004
 20
16955.32150036129
 30
0.0
 11
16710.000000000029
 21
16955.32150036129
 31
0.0
  0
LINE
  5
6BA40
  8
U1
 10
14122.00000000004
 20
17026.121500361289
 30
0.0
 11
16710.000000000029
 21
17026.121500361289
 31
0.0
  0
LINE
  5
6BA41
  8
U1
 10
14122.00000000004
 20
17096.921500361292
 30
0.0
 11
16710.000000000029
 21
17096.921500361292
 31
0.0
  0
LINE
  5
6BA42
  8
U1
 10
14122.00000000004
 20
17167.721500361291
 30
0.0
 11
16710.000000000029
 21
17167.721500361291
 31
0.0
  0
LINE
  5
6BA43
  8
U1
 10
14122.00000000004
 20
17238.52150036129
 30
0.0
 11
16710.000000000029
 21
17238.52150036129
 31
0.0
  0
LINE
  5
6BA44
  8
U1
 10
14122.00000000004
 20
17309.32150036129
 30
0.0
 11
16710.000000000029
 21
17309.32150036129
 31
0.0
  0
LINE
  5
6BA45
  8
U1
 10
14122.00000000004
 20
18088.121500361289
 30
0.0
 11
16694.50000000008
 21
18088.121500361289
 31
0.0
  0
LINE
  5
6BA46
  8
U1
 10
14122.00000000004
 20
18017.32150036129
 30
0.0
 11
16710.000000000029
 21
18017.32150036129
 31
0.0
  0
LINE
  5
6BA47
  8
U1
 10
14122.00000000004
 20
17946.52150036129
 30
0.0
 11
16710.000000000029
 21
17946.52150036129
 31
0.0
  0
LINE
  5
6BA48
  8
U1
 10
14122.00000000004
 20
17875.721500361291
 30
0.0
 11
16710.000000000029
 21
17875.721500361291
 31
0.0
  0
LINE
  5
6BA49
  8
U1
 10
14122.00000000004
 20
17804.921500361292
 30
0.0
 11
16710.000000000029
 21
17804.921500361292
 31
0.0
  0
LINE
  5
6BA4A
  8
U1
 10
14122.00000000004
 20
17734.121500361289
 30
0.0
 11
16710.000000000029
 21
17734.121500361289
 31
0.0
  0
LINE
  5
6BA4B
  8
U1
 10
14122.00000000004
 20
17663.32150036129
 30
0.0
 11
16710.000000000029
 21
17663.32150036129
 31
0.0
  0
LINE
  5
6BA4C
  8
U1
 10
14122.00000000004
 20
17592.52150036129
 30
0.0
 11
16710.000000000029
 21
17592.52150036129
 31
0.0
  0
LINE
  5
6BA4D
  8
U1
 10
14122.00000000004
 20
17521.721500361291
 30
0.0
 11
16710.000000000029
 21
17521.721500361291
 31
0.0
  0
LINE
  5
6BA4E
  8
U1
 10
14122.00000000004
 20
17450.921500361292
 30
0.0
 11
16710.000000000029
 21
17450.921500361292
 31
0.0
  0
LINE
  5
6BA4F
  8
U1
 10
14122.00000000004
 20
17380.121500361289
 30
0.0
 11
16710.000000000029
 21
17380.121500361289
 31
0.0
  0
LINE
  5
6BA50
  8
U1
 10
14122.000000000029
 20
18158.921500361292
 30
0.0
 11
16710.000000000051
 21
18158.921500361292
 31
0.0
  0
LINE
  5
6BA51
  8
U1
 10
14122.000000000029
 20
18229.721500361291
 30
0.0
 11
16710.000000000051
 21
18229.721500361291
 31
0.0
  0
LINE
  5
6BA52
  8
U1
 10
14122.000000000029
 20
18300.52150036129
 30
0.0
 11
16710.000000000051
 21
18300.52150036129
 31
0.0
  0
LINE
  5
6BA53
  8
U1
 10
14122.000000000029
 20
18371.32150036129
 30
0.0
 11
16710.000000000051
 21
18371.32150036129
 31
0.0
  0
LINE
  5
6BA54
  8
U1
 10
14122.00000000004
 20
16388.921500361292
 30
0.0
 11
16710.000000000029
 21
16388.921500361292
 31
0.0
  0
LINE
  5
6BA55
  8
U1
 10
14122.000000000029
 20
18442.121500361289
 30
0.0
 11
16710.000000000051
 21
18442.121500361289
 31
0.0
  0
TEXT
  5
6BA57
  8
SUNPOU
 10
9811.0000000000127
 20
18019.2453098851
 30
0.0
 40
160.0
  1
3780
 50
90.0
 41
0.6700000000000002
  7
00
  0
LINE
  5
6BA58
  8
SUNPOU
 10
10291.000000000009
 20
16358.121500361291
 30
0.0
 11
10291.000000000009
 21
19448.121500361289
 31
0.0
  0
LINE
  5
6BA59
  8
SUNPOU
 10
9891.0000000000127
 20
16358.121500361291
 30
0.0
 11
9891.0000000000127
 21
20058.121500361289
 31
0.0
  0
LINE
  5
6BA5A
  8
SUNPOU
 10
11011.000000000009
 20
16318.121500361291
 30
0.0
 11
9771.0000000000109
 21
16318.121500361291
 31
0.0
  0
LINE
  5
6BA5E
  8
SUNPOU
 10
10976.000000000009
 20
20098.121500361289
 30
0.0
 11
9771.0000000000109
 21
20098.121500361289
 31
0.0
  0
LINE
  5
6BA5F
  8
SUNPOU
 10
10976.000000000009
 20
19488.121500361289
 30
0.0
 11
10171.000000000009
 21
19488.121500361289
 31
0.0
  0
LINE
  5
6BA62
  8
U1
 10
11321.99999999998
 20
16388.921500361292
 30
0.0
 11
13910.00000000004
 21
16388.921500361292
 31
0.0
  0
LINE
  5
6BA63
  8
U1
 10
11321.99999999998
 20
19291.72150036128
 30
0.0
 11
13910.000000000009
 21
19291.72150036128
 31
0.0
  0
LINE
  5
6BA64
  8
U1
 10
11321.99999999998
 20
19362.521500361279
 30
0.0
 11
13910.000000000009
 21
19362.521500361279
 31
0.0
  0
LINE
  5
6BA66
  8
U1
 10
11321.999999999991
 20
19220.921500361281
 30
0.0
 11
13910.00000000002
 21
19220.921500361281
 31
0.0
  0
LINE
  5
6BA67
  8
U1
 10
11321.999999999991
 20
19150.121500361282
 30
0.0
 11
13910.00000000002
 21
19150.121500361282
 31
0.0
  0
LINE
  5
6BA68
  8
U1
 10
11321.999999999991
 20
19079.321500361279
 30
0.0
 11
13910.00000000002
 21
19079.321500361279
 31
0.0
  0
LINE
  5
6BA69
  8
U1
 10
11322.0
 20
18583.721500361291
 30
0.0
 11
13910.000000000029
 21
18583.721500361291
 31
0.0
  0
LINE
  5
6BA6A
  8
U1
 10
11321.999999999991
 20
18654.521500361279
 30
0.0
 11
13910.00000000002
 21
18654.521500361279
 31
0.0
  0
LINE
  5
6BA6B
  8
U1
 10
11321.999999999991
 20
18725.32150036129
 30
0.0
 11
13910.00000000002
 21
18725.32150036129
 31
0.0
  0
LINE
  5
6BA6C
  8
U1
 10
11321.999999999991
 20
18796.121500361282
 30
0.0
 11
13910.00000000002
 21
18796.121500361282
 31
0.0
  0
LINE
  5
6BA6D
  8
U1
 10
11321.999999999991
 20
19008.52150036129
 30
0.0
 11
13910.00000000002
 21
19008.52150036129
 31
0.0
  0
LINE
  5
6BA6E
  8
U1
 10
11321.999999999991
 20
18937.72150036128
 30
0.0
 11
13910.00000000002
 21
18937.72150036128
 31
0.0
  0
LINE
  5
6BA6F
  8
U1
 10
11321.999999999991
 20
18866.921500361292
 30
0.0
 11
13910.00000000002
 21
18866.921500361292
 31
0.0
  0
LINE
  5
6BA70
  8
U1
 10
11322.0
 20
18371.32150036129
 30
0.0
 11
13910.000000000029
 21
18371.32150036129
 31
0.0
  0
LINE
  5
6BA71
  8
U1
 10
11322.0
 20
18442.121500361289
 30
0.0
 11
13910.000000000029
 21
18442.121500361289
 31
0.0
  0
LINE
  5
6BA72
  8
U1
 10
11322.0
 20
18512.921500361292
 30
0.0
 11
13910.000000000029
 21
18512.921500361292
 31
0.0
  0
LINE
  5
6BA73
  8
U1
 10
11322.0
 20
18300.52150036129
 30
0.0
 11
13910.000000000029
 21
18300.52150036129
 31
0.0
  0
LINE
  5
6BA74
  8
U1
 10
11322.0
 20
18229.721500361291
 30
0.0
 11
13910.000000000029
 21
18229.721500361291
 31
0.0
  0
LINE
  5
6BA75
  8
U1
 10
11322.0
 20
18158.921500361292
 30
0.0
 11
13910.000000000029
 21
18158.921500361292
 31
0.0
  0
LINE
  5
6BA76
  8
U1
 10
11321.99999999998
 20
17380.121500361289
 30
0.0
 11
13910.00000000004
 21
17380.121500361289
 31
0.0
  0
LINE
  5
6BA77
  8
U1
 10
11321.99999999998
 20
17450.921500361292
 30
0.0
 11
13910.00000000004
 21
17450.921500361292
 31
0.0
  0
LINE
  5
6BA78
  8
U1
 10
11321.99999999998
 20
17521.721500361291
 30
0.0
 11
13910.00000000004
 21
17521.721500361291
 31
0.0
  0
LINE
  5
6BA79
  8
U1
 10
11321.99999999998
 20
17592.52150036129
 30
0.0
 11
13910.00000000004
 21
17592.52150036129
 31
0.0
  0
LINE
  5
6BA7A
  8
U1
 10
11321.99999999998
 20
17663.32150036129
 30
0.0
 11
13910.00000000004
 21
17663.32150036129
 31
0.0
  0
LINE
  5
6BA7B
  8
U1
 10
11321.99999999998
 20
17734.121500361289
 30
0.0
 11
13910.00000000004
 21
17734.121500361289
 31
0.0
  0
LINE
  5
6BA7C
  8
U1
 10
11322.0
 20
17804.921500361292
 30
0.0
 11
13910.00000000004
 21
17804.921500361292
 31
0.0
  0
LINE
  5
6BA7D
  8
U1
 10
11322.0
 20
17875.721500361291
 30
0.0
 11
13910.00000000004
 21
17875.721500361291
 31
0.0
  0
LINE
  5
6BA7E
  8
U1
 10
11322.0
 20
17946.52150036129
 30
0.0
 11
13910.00000000004
 21
17946.52150036129
 31
0.0
  0
LINE
  5
6BA7F
  8
U1
 10
11322.0
 20
18017.3215003613
 30
0.0
 11
13910.00000000004
 21
18017.3215003613
 31
0.0
  0
LINE
  5
6BA80
  8
U1
 10
11322.0
 20
18088.121500361289
 30
0.0
 11
13910.00000000004
 21
18088.121500361289
 31
0.0
  0
LINE
  5
6BA81
  8
U1
 10
11321.99999999998
 20
17309.32150036129
 30
0.0
 11
13910.00000000004
 21
17309.32150036129
 31
0.0
  0
LINE
  5
6BA82
  8
U1
 10
11321.99999999998
 20
17238.52150036129
 30
0.0
 11
13910.00000000004
 21
17238.52150036129
 31
0.0
  0
LINE
  5
6BA83
  8
U1
 10
11321.99999999998
 20
17167.721500361291
 30
0.0
 11
13910.00000000004
 21
17167.721500361291
 31
0.0
  0
LINE
  5
6BA84
  8
U1
 10
11321.99999999998
 20
17096.921500361292
 30
0.0
 11
13910.00000000004
 21
17096.921500361292
 31
0.0
  0
LINE
  5
6BA85
  8
U1
 10
11321.99999999998
 20
17026.121500361289
 30
0.0
 11
13910.00000000004
 21
17026.121500361289
 31
0.0
  0
LINE
  5
6BA86
  8
U1
 10
11321.99999999998
 20
16955.32150036129
 30
0.0
 11
13910.00000000004
 21
16955.32150036129
 31
0.0
  0
LINE
  5
6BA87
  8
U1
 10
11321.99999999998
 20
16884.52150036129
 30
0.0
 11
13910.00000000004
 21
16884.52150036129
 31
0.0
  0
LINE
  5
6BA88
  8
U1
 10
11321.99999999998
 20
16813.721500361291
 30
0.0
 11
13910.00000000004
 21
16813.721500361291
 31
0.0
  0
LINE
  5
6BA89
  8
U1
 10
11321.99999999998
 20
16742.921500361292
 30
0.0
 11
13910.00000000004
 21
16742.921500361292
 31
0.0
  0
LINE
  5
6BA8A
  8
U1
 10
11321.99999999998
 20
16672.121500361289
 30
0.0
 11
13910.00000000004
 21
16672.121500361289
 31
0.0
  0
LINE
  5
6BA8B
  8
U1
 10
11321.99999999998
 20
16601.32150036129
 30
0.0
 11
13910.00000000004
 21
16601.32150036129
 31
0.0
  0
LINE
  5
6BA8C
  8
U1
 10
11321.99999999998
 20
16530.52150036129
 30
0.0
 11
13910.00000000004
 21
16530.52150036129
 31
0.0
  0
LINE
  5
6BA8D
  8
U1
 10
11321.99999999998
 20
16459.721500361291
 30
0.0
 11
13910.00000000004
 21
16459.721500361291
 31
0.0
  0
LINE
  5
6BA8E
  8
U1
 10
14122.000000000029
 20
18512.921500361292
 30
0.0
 11
16710.000000000051
 21
18512.921500361292
 31
0.0
  0
LINE
  5
6BA8F
  8
U1
 10
14122.000000000029
 20
18583.72150036128
 30
0.0
 11
16710.000000000051
 21
18583.72150036128
 31
0.0
  0
LINE
  5
6BA90
  8
U1
 10
14122.00000000002
 20
18866.921500361281
 30
0.0
 11
16710.00000000004
 21
18866.921500361281
 31
0.0
  0
LINE
  5
6BA91
  8
U1
 10
14122.00000000002
 20
18937.72150036128
 30
0.0
 11
16710.00000000004
 21
18937.72150036128
 31
0.0
  0
LINE
  5
6BA92
  8
U1
 10
14122.00000000002
 20
19008.521500361279
 30
0.0
 11
16710.00000000004
 21
19008.521500361279
 31
0.0
  0
LINE
  5
6BA93
  8
U1
 10
14122.000000000029
 20
18796.121500361282
 30
0.0
 11
16710.00000000004
 21
18796.121500361282
 31
0.0
  0
LINE
  5
6BA94
  8
U1
 10
14122.000000000029
 20
18725.321500361279
 30
0.0
 11
16710.00000000004
 21
18725.321500361279
 31
0.0
  0
LINE
  5
6BA95
  8
U1
 10
14122.000000000029
 20
18654.521500361279
 30
0.0
 11
16710.00000000004
 21
18654.521500361279
 31
0.0
  0
LINE
  5
6BA96
  8
U1
 10
14122.00000000002
 20
19079.321500361279
 30
0.0
 11
16710.00000000004
 21
19079.321500361279
 31
0.0
  0
LINE
  5
6BA97
  8
U1
 10
14122.00000000002
 20
19150.121500361282
 30
0.0
 11
16710.00000000004
 21
19150.121500361282
 31
0.0
  0
LINE
  5
6BA98
  8
U1
 10
14122.00000000002
 20
19220.921500361281
 30
0.0
 11
16710.00000000004
 21
19220.921500361281
 31
0.0
  0
LINE
  5
6BA9A
  8
U1
 10
14122.00000000002
 20
19362.521500361279
 30
0.0
 11
16710.000000000029
 21
19362.521500361279
 31
0.0
  0
LINE
  5
6BA9B
  8
U1
 10
14122.00000000002
 20
19291.72150036128
 30
0.0
 11
16710.000000000029
 21
19291.72150036128
 31
0.0
  0
LINE
  5
6BA9F
  8
U1
 10
12641.000000000009
 20
17333.921500361292
 30
0.0
 11
12622.250000000009
 21
17344.746817908592
 31
0.0
  0
LINE
  5
6BAA0
  8
U1
 10
12591.000000000009
 20
17333.921500361292
 30
0.0
 11
12609.750000000009
 21
17344.746817908592
 31
0.0
  0
LINE
  5
6BAA1
  8
U1
 10
12591.000000000009
 20
17333.921500361292
 30
0.0
 11
12609.750000000009
 21
17323.096182813981
 31
0.0
  0
LINE
  5
6BAA2
  8
U1
 10
12641.000000000009
 20
17333.921500361292
 30
0.0
 11
12622.250000000009
 21
17323.096182813981
 31
0.0
  0
ARC
  5
6BAA3
  8
U1
 10
12616.000000000009
 20
17333.921500361292
 30
0.0
 40
12.5
 50
60.000000000034809
 51
119.9999999999652
  0
ARC
  5
6BAA4
  8
U1
 10
12616.000000000009
 20
17333.921500361292
 30
0.0
 40
12.5
 50
240.00000000003479
 51
299.99999999996521
  0
LINE
  5
6BAA7
  8
U1
 10
15441.000000000009
 20
17333.921500361292
 30
0.0
 11
15422.250000000009
 21
17344.746817908592
 31
0.0
  0
LINE
  5
6BAA8
  8
U1
 10
15391.000000000009
 20
17333.921500361292
 30
0.0
 11
15409.750000000009
 21
17344.746817908592
 31
0.0
  0
LINE
  5
6BAA9
  8
U1
 10
15391.000000000009
 20
17333.921500361292
 30
0.0
 11
15409.750000000009
 21
17323.096182813981
 31
0.0
  0
LINE
  5
6BAAA
  8
U1
 10
15441.000000000009
 20
17333.921500361292
 30
0.0
 11
15422.250000000009
 21
17323.096182813981
 31
0.0
  0
ARC
  5
6BAAB
  8
U1
 10
15416.000000000009
 20
17333.921500361292
 30
0.0
 40
12.5
 50
60.000000000034809
 51
119.9999999999652
  0
ARC
  5
6BAAC
  8
U1
 10
15416.000000000009
 20
17333.921500361292
 30
0.0
 40
12.5
 50
240.00000000003479
 51
299.99999999996521
  0
LINE
  5
6BAAD
  8
U1
 10
16755.500000000029
 20
16318.121500361291
 30
0.0
 11
16755.500000000029
 21
19374.555091614999
 31
0.0
  0
LINE
  5
6BAAE
  8
U1
 10
11264.294270451781
 20
19918.121500361289
 30
0.0
 11
11264.294270451781
 21
19689.121500361289
 31
0.0
  0
LINE
  5
6BAAF
  8
U1
 10
11276.49999999998
 20
16318.121500361291
 30
0.0
 11
11276.49999999998
 21
19374.555091614999
 31
0.0
  0
LINE
  5
6BAB0
  8
U1
 10
22355.50000000004
 20
16318.121500361291
 30
0.0
 11
22355.50000000004
 21
19374.555091614999
 31
0.0
  0
LINE
  5
6BAB1
  8
U1
 10
22367.705729548241
 20
19918.121500361289
 30
0.0
 11
22367.705729548241
 21
19689.121500361289
 31
0.0
  0
LINE
  5
6BAB2
  8
U1
 10
16876.499999999989
 20
16318.121500361291
 30
0.0
 11
16876.499999999989
 21
19374.555091614999
 31
0.0
  0
ARC
  5
6BAB3
  8
U1
 10
18216.000000000011
 20
17333.921500361292
 30
0.0
 40
12.5
 50
240.00000000003479
 51
299.99999999996521
  0
ARC
  5
6BAB4
  8
U1
 10
18216.000000000011
 20
17333.921500361292
 30
0.0
 40
12.5
 50
60.000000000034809
 51
119.9999999999652
  0
LINE
  5
6BAB5
  8
U1
 10
18191.000000000011
 20
17333.921500361292
 30
0.0
 11
18209.750000000011
 21
17323.096182813981
 31
0.0
  0
LINE
  5
6BAB6
  8
U1
 10
18241.000000000011
 20
17333.921500361292
 30
0.0
 11
18222.250000000011
 21
17323.096182813981
 31
0.0
  0
LINE
  5
6BAB7
  8
U1
 10
18241.000000000011
 20
17333.921500361292
 30
0.0
 11
18222.250000000011
 21
17344.746817908592
 31
0.0
  0
LINE
  5
6BAB8
  8
U1
 10
18191.000000000011
 20
17333.921500361292
 30
0.0
 11
18209.750000000011
 21
17344.746817908592
 31
0.0
  0
ARC
  5
6BABB
  8
U1
 10
21016.000000000018
 20
17333.921500361292
 30
0.0
 40
12.5
 50
240.00000000003479
 51
299.99999999996521
  0
ARC
  5
6BABC
  8
U1
 10
21016.000000000018
 20
17333.921500361292
 30
0.0
 40
12.5
 50
60.000000000034809
 51
119.9999999999652
  0
LINE
  5
6BABD
  8
U1
 10
20991.000000000018
 20
17333.921500361292
 30
0.0
 11
21009.750000000011
 21
17323.096182813981
 31
0.0
  0
LINE
  5
6BABE
  8
U1
 10
21041.000000000018
 20
17333.921500361292
 30
0.0
 11
21022.250000000018
 21
17323.096182813981
 31
0.0
  0
LINE
  5
6BABF
  8
U1
 10
21041.000000000018
 20
17333.921500361292
 30
0.0
 11
21022.250000000018
 21
17344.746817908592
 31
0.0
  0
LINE
  5
6BAC0
  8
U1
 10
20991.000000000018
 20
17333.921500361292
 30
0.0
 11
21009.750000000011
 21
17344.746817908592
 31
0.0
  0
LINE
  5
6BAC4
  8
U1
 10
19510.0
 20
19291.72150036128
 30
0.0
 11
16921.999999999989
 21
19291.72150036128
 31
0.0
  0
LINE
  5
6BAC5
  8
U1
 10
19510.0
 20
19362.521500361279
 30
0.0
 11
16921.999999999989
 21
19362.521500361279
 31
0.0
  0
LINE
  5
6BAC7
  8
U1
 10
19510.0
 20
19220.921500361281
 30
0.0
 11
16921.999999999982
 21
19220.921500361281
 31
0.0
  0
LINE
  5
6BAC8
  8
U1
 10
19510.0
 20
19150.121500361282
 30
0.0
 11
16921.999999999982
 21
19150.121500361282
 31
0.0
  0
LINE
  5
6BAC9
  8
U1
 10
19510.0
 20
19079.321500361279
 30
0.0
 11
16921.999999999982
 21
19079.321500361279
 31
0.0
  0
LINE
  5
6BACA
  8
U1
 10
19509.999999999989
 20
18654.521500361279
 30
0.0
 11
16921.999999999982
 21
18654.521500361279
 31
0.0
  0
LINE
  5
6BACB
  8
U1
 10
19509.999999999989
 20
18725.321500361279
 30
0.0
 11
16921.999999999982
 21
18725.321500361279
 31
0.0
  0
LINE
  5
6BACC
  8
U1
 10
19509.999999999989
 20
18796.121500361282
 30
0.0
 11
16921.999999999982
 21
18796.121500361282
 31
0.0
  0
LINE
  5
6BACD
  8
U1
 10
19510.0
 20
19008.521500361279
 30
0.0
 11
16921.999999999982
 21
19008.521500361279
 31
0.0
  0
LINE
  5
6BACE
  8
U1
 10
19510.0
 20
18937.72150036128
 30
0.0
 11
16921.999999999982
 21
18937.72150036128
 31
0.0
  0
LINE
  5
6BACF
  8
U1
 10
19510.0
 20
18866.921500361281
 30
0.0
 11
16921.999999999982
 21
18866.921500361281
 31
0.0
  0
LINE
  5
6BAD0
  8
U1
 10
19509.999999999989
 20
18583.72150036128
 30
0.0
 11
16921.999999999971
 21
18583.72150036128
 31
0.0
  0
LINE
  5
6BAD1
  8
U1
 10
19509.999999999989
 20
18512.921500361292
 30
0.0
 11
16921.999999999971
 21
18512.921500361292
 31
0.0
  0
LINE
  5
6BAD2
  8
U1
 10
22310.00000000004
 20
16459.721500361291
 30
0.0
 11
19721.999999999989
 21
16459.721500361291
 31
0.0
  0
LINE
  5
6BAD3
  8
U1
 10
22310.00000000004
 20
16530.52150036129
 30
0.0
 11
19721.999999999989
 21
16530.52150036129
 31
0.0
  0
LINE
  5
6BAD4
  8
U1
 10
22310.00000000004
 20
16601.32150036129
 30
0.0
 11
19721.999999999989
 21
16601.32150036129
 31
0.0
  0
LINE
  5
6BAD5
  8
U1
 10
22310.00000000004
 20
16672.121500361289
 30
0.0
 11
19721.999999999989
 21
16672.121500361289
 31
0.0
  0
LINE
  5
6BAD6
  8
U1
 10
22310.00000000004
 20
16742.921500361292
 30
0.0
 11
19721.999999999989
 21
16742.921500361292
 31
0.0
  0
LINE
  5
6BAD7
  8
U1
 10
22310.00000000004
 20
16813.721500361291
 30
0.0
 11
19721.999999999989
 21
16813.721500361291
 31
0.0
  0
LINE
  5
6BAD8
  8
U1
 10
22310.00000000004
 20
16884.52150036129
 30
0.0
 11
19721.999999999989
 21
16884.52150036129
 31
0.0
  0
LINE
  5
6BAD9
  8
U1
 10
22310.00000000004
 20
16955.32150036129
 30
0.0
 11
19721.999999999989
 21
16955.32150036129
 31
0.0
  0
LINE
  5
6BADA
  8
U1
 10
22310.00000000004
 20
17026.121500361289
 30
0.0
 11
19721.999999999989
 21
17026.121500361289
 31
0.0
  0
LINE
  5
6BADB
  8
U1
 10
22310.00000000004
 20
17096.921500361292
 30
0.0
 11
19721.999999999989
 21
17096.921500361292
 31
0.0
  0
LINE
  5
6BADC
  8
U1
 10
22310.00000000004
 20
17167.721500361291
 30
0.0
 11
19721.999999999989
 21
17167.721500361291
 31
0.0
  0
LINE
  5
6BADD
  8
U1
 10
22310.00000000004
 20
17238.52150036129
 30
0.0
 11
19721.999999999989
 21
17238.52150036129
 31
0.0
  0
LINE
  5
6BADE
  8
U1
 10
22310.00000000004
 20
17309.32150036129
 30
0.0
 11
19721.999999999989
 21
17309.32150036129
 31
0.0
  0
LINE
  5
6BADF
  8
U1
 10
22310.000000000018
 20
18088.121500361289
 30
0.0
 11
19721.999999999989
 21
18088.121500361289
 31
0.0
  0
LINE
  5
6BAE0
  8
U1
 10
22310.000000000018
 20
18017.3215003613
 30
0.0
 11
19721.999999999989
 21
18017.3215003613
 31
0.0
  0
LINE
  5
6BAE1
  8
U1
 10
22310.000000000018
 20
17946.52150036129
 30
0.0
 11
19721.999999999989
 21
17946.52150036129
 31
0.0
  0
LINE
  5
6BAE2
  8
U1
 10
22310.000000000018
 20
17875.721500361291
 30
0.0
 11
19721.999999999989
 21
17875.721500361291
 31
0.0
  0
LINE
  5
6BAE3
  8
U1
 10
22310.000000000018
 20
17804.921500361292
 30
0.0
 11
19721.999999999989
 21
17804.921500361292
 31
0.0
  0
LINE
  5
6BAE4
  8
U1
 10
22310.00000000004
 20
17734.121500361289
 30
0.0
 11
19721.999999999989
 21
17734.121500361289
 31
0.0
  0
LINE
  5
6BAE5
  8
U1
 10
22310.00000000004
 20
17663.32150036129
 30
0.0
 11
19721.999999999989
 21
17663.32150036129
 31
0.0
  0
LINE
  5
6BAE6
  8
U1
 10
22310.00000000004
 20
17592.52150036129
 30
0.0
 11
19721.999999999989
 21
17592.52150036129
 31
0.0
  0
LINE
  5
6BAE7
  8
U1
 10
22310.00000000004
 20
17521.721500361291
 30
0.0
 11
19721.999999999989
 21
17521.721500361291
 31
0.0
  0
LINE
  5
6BAE8
  8
U1
 10
22310.00000000004
 20
17450.921500361292
 30
0.0
 11
19721.999999999989
 21
17450.921500361292
 31
0.0
  0
LINE
  5
6BAE9
  8
U1
 10
22310.00000000004
 20
17380.121500361289
 30
0.0
 11
19721.999999999989
 21
17380.121500361289
 31
0.0
  0
LINE
  5
6BAEA
  8
U1
 10
22310.000000000018
 20
18158.921500361292
 30
0.0
 11
19721.999999999989
 21
18158.921500361292
 31
0.0
  0
LINE
  5
6BAEB
  8
U1
 10
22310.000000000018
 20
18229.721500361291
 30
0.0
 11
19721.999999999989
 21
18229.721500361291
 31
0.0
  0
LINE
  5
6BAEC
  8
U1
 10
22310.000000000018
 20
18300.52150036129
 30
0.0
 11
19721.999999999989
 21
18300.52150036129
 31
0.0
  0
LINE
  5
6BAED
  8
U1
 10
22310.000000000018
 20
18512.921500361292
 30
0.0
 11
19721.999999999989
 21
18512.921500361292
 31
0.0
  0
LINE
  5
6BAEE
  8
U1
 10
22310.000000000018
 20
18442.121500361289
 30
0.0
 11
19721.999999999989
 21
18442.121500361289
 31
0.0
  0
LINE
  5
6BAEF
  8
U1
 10
22310.000000000018
 20
18371.32150036129
 30
0.0
 11
19721.999999999989
 21
18371.32150036129
 31
0.0
  0
LINE
  5
6BAF0
  8
U1
 10
22310.000000000029
 20
18866.921500361292
 30
0.0
 11
19722.0
 21
18866.921500361292
 31
0.0
  0
LINE
  5
6BAF1
  8
U1
 10
22310.000000000029
 20
18937.72150036128
 30
0.0
 11
19722.0
 21
18937.72150036128
 31
0.0
  0
LINE
  5
6BAF2
  8
U1
 10
22310.000000000029
 20
19008.52150036129
 30
0.0
 11
19722.0
 21
19008.52150036129
 31
0.0
  0
LINE
  5
6BAF3
  8
U1
 10
22310.000000000029
 20
18796.121500361282
 30
0.0
 11
19722.0
 21
18796.121500361282
 31
0.0
  0
LINE
  5
6BAF4
  8
U1
 10
22310.000000000029
 20
18725.32150036129
 30
0.0
 11
19722.0
 21
18725.32150036129
 31
0.0
  0
LINE
  5
6BAF5
  8
U1
 10
22310.000000000029
 20
18654.521500361279
 30
0.0
 11
19722.0
 21
18654.521500361279
 31
0.0
  0
LINE
  5
6BAF6
  8
U1
 10
22310.000000000018
 20
18583.721500361291
 30
0.0
 11
19721.999999999989
 21
18583.721500361291
 31
0.0
  0
LINE
  5
6BAF7
  8
U1
 10
22310.00000000004
 20
19079.321500361279
 30
0.0
 11
19722.000000000011
 21
19079.321500361279
 31
0.0
  0
LINE
  5
6BAF8
  8
U1
 10
22310.00000000004
 20
19150.121500361282
 30
0.0
 11
19722.000000000011
 21
19150.121500361282
 31
0.0
  0
LINE
  5
6BAF9
  8
U1
 10
22310.00000000004
 20
19220.921500361281
 30
0.0
 11
19722.000000000011
 21
19220.921500361281
 31
0.0
  0
LINE
  5
6BAFB
  8
U1
 10
22310.00000000004
 20
19362.521500361279
 30
0.0
 11
19722.000000000011
 21
19362.521500361279
 31
0.0
  0
LINE
  5
6BAFC
  8
U1
 10
22310.00000000004
 20
19291.72150036128
 30
0.0
 11
19722.000000000011
 21
19291.72150036128
 31
0.0
  0
LINE
  5
6BAFD
  8
U1
 10
22310.00000000004
 20
16388.921500361292
 30
0.0
 11
19721.999999999989
 21
16388.921500361292
 31
0.0
  0
LINE
  5
6BAFE
  8
U1
 10
19509.999999999989
 20
18442.121500361289
 30
0.0
 11
16921.999999999971
 21
18442.121500361289
 31
0.0
  0
LINE
  5
6BAFF
  8
U1
 10
19509.999999999982
 20
16388.921500361292
 30
0.0
 11
16921.999999999989
 21
16388.921500361292
 31
0.0
  0
LINE
  5
6BB00
  8
U1
 10
19509.999999999989
 20
18371.32150036129
 30
0.0
 11
16921.999999999971
 21
18371.32150036129
 31
0.0
  0
LINE
  5
6BB01
  8
U1
 10
19509.999999999989
 20
18300.52150036129
 30
0.0
 11
16921.999999999971
 21
18300.52150036129
 31
0.0
  0
LINE
  5
6BB02
  8
U1
 10
19509.999999999989
 20
18229.721500361291
 30
0.0
 11
16921.999999999971
 21
18229.721500361291
 31
0.0
  0
LINE
  5
6BB03
  8
U1
 10
19509.999999999989
 20
18158.921500361292
 30
0.0
 11
16921.999999999971
 21
18158.921500361292
 31
0.0
  0
LINE
  5
6BB04
  8
U1
 10
19509.999999999982
 20
17380.121500361289
 30
0.0
 11
16921.999999999989
 21
17380.121500361289
 31
0.0
  0
LINE
  5
6BB05
  8
U1
 10
19509.999999999982
 20
17450.921500361292
 30
0.0
 11
16921.999999999989
 21
17450.921500361292
 31
0.0
  0
LINE
  5
6BB06
  8
U1
 10
19509.999999999982
 20
17521.721500361291
 30
0.0
 11
16921.999999999989
 21
17521.721500361291
 31
0.0
  0
LINE
  5
6BB07
  8
U1
 10
19509.999999999982
 20
17592.52150036129
 30
0.0
 11
16921.999999999989
 21
17592.52150036129
 31
0.0
  0
LINE
  5
6BB08
  8
U1
 10
19509.999999999982
 20
17663.32150036129
 30
0.0
 11
16921.999999999989
 21
17663.32150036129
 31
0.0
  0
LINE
  5
6BB09
  8
U1
 10
19509.999999999982
 20
17734.121500361289
 30
0.0
 11
16921.999999999989
 21
17734.121500361289
 31
0.0
  0
LINE
  5
6BB0A
  8
U1
 10
19509.999999999982
 20
17804.921500361292
 30
0.0
 11
16921.999999999989
 21
17804.921500361292
 31
0.0
  0
LINE
  5
6BB0B
  8
U1
 10
19509.999999999982
 20
17875.721500361291
 30
0.0
 11
16921.999999999989
 21
17875.721500361291
 31
0.0
  0
LINE
  5
6BB0C
  8
U1
 10
19509.999999999982
 20
17946.52150036129
 30
0.0
 11
16921.999999999989
 21
17946.52150036129
 31
0.0
  0
LINE
  5
6BB0D
  8
U1
 10
19509.999999999982
 20
18017.32150036129
 30
0.0
 11
16921.999999999989
 21
18017.32150036129
 31
0.0
  0
LINE
  5
6BB0E
  8
U1
 10
19509.999999999982
 20
18088.121500361289
 30
0.0
 11
16937.499999999942
 21
18088.121500361289
 31
0.0
  0
LINE
  5
6BB0F
  8
U1
 10
19509.999999999982
 20
17309.32150036129
 30
0.0
 11
16921.999999999989
 21
17309.32150036129
 31
0.0
  0
LINE
  5
6BB10
  8
U1
 10
19509.999999999982
 20
17238.52150036129
 30
0.0
 11
16921.999999999989
 21
17238.52150036129
 31
0.0
  0
LINE
  5
6BB11
  8
U1
 10
19509.999999999982
 20
17167.721500361291
 30
0.0
 11
16921.999999999989
 21
17167.721500361291
 31
0.0
  0
LINE
  5
6BB12
  8
U1
 10
19509.999999999982
 20
17096.921500361292
 30
0.0
 11
16921.999999999989
 21
17096.921500361292
 31
0.0
  0
LINE
  5
6BB13
  8
U1
 10
19509.999999999982
 20
17026.121500361289
 30
0.0
 11
16921.999999999989
 21
17026.121500361289
 31
0.0
  0
LINE
  5
6BB14
  8
U1
 10
19509.999999999982
 20
16955.32150036129
 30
0.0
 11
16921.999999999989
 21
16955.32150036129
 31
0.0
  0
LINE
  5
6BB15
  8
U1
 10
19509.999999999982
 20
16884.52150036129
 30
0.0
 11
16921.999999999989
 21
16884.52150036129
 31
0.0
  0
LINE
  5
6BB16
  8
U1
 10
19509.999999999982
 20
16813.721500361291
 30
0.0
 11
16921.999999999989
 21
16813.721500361291
 31
0.0
  0
LINE
  5
6BB17
  8
U1
 10
19509.999999999982
 20
16742.921500361292
 30
0.0
 11
16921.999999999989
 21
16742.921500361292
 31
0.0
  0
LINE
  5
6BB18
  8
U1
 10
19509.999999999982
 20
16672.121500361289
 30
0.0
 11
16921.999999999989
 21
16672.121500361289
 31
0.0
  0
LINE
  5
6BB19
  8
U1
 10
19509.999999999982
 20
16601.32150036129
 30
0.0
 11
16921.999999999989
 21
16601.32150036129
 31
0.0
  0
LINE
  5
6BB1A
  8
U1
 10
19509.999999999982
 20
16530.52150036129
 30
0.0
 11
16921.999999999989
 21
16530.52150036129
 31
0.0
  0
LINE
  5
6BB1B
  8
U1
 10
19509.999999999982
 20
16459.721500361291
 30
0.0
 11
16921.999999999989
 21
16459.721500361291
 31
0.0
  0
LINE
  5
6BB1C
  8
U1
 10
19741.000000000011
 20
19918.121500361289
 30
0.0
 11
19741.000000000011
 21
20098.121500361289
 31
0.0
  0
LINE
  5
6BB1D
  8
U1
 10
16921.999999999989
 20
16318.121500361291
 30
0.0
 11
16921.999999999989
 21
19374.555091614999
 31
0.0
  0
LINE
  5
6BB1E
  8
U1
 10
19510.0
 20
16318.121500361291
 30
0.0
 11
19510.0
 21
19374.555091614999
 31
0.0
  0
LINE
  5
6BB1F
  8
U1
 10
16864.294270451792
 20
19918.121500361289
 30
0.0
 11
16864.294270451792
 21
19689.121500361289
 31
0.0
  0
ARC
  5
6BB20
  8
U1
 10
22566.000000000018
 20
20088.121500361289
 30
0.0
 40
10.0
 50
0.0
 51
90.0
  0
ARC
  5
6BB21
  8
U1
 10
22566.000000000018
 20
19928.121500361289
 30
0.0
 40
10.0
 50
270.0
 51
0.0
  0
LINE
  5
6BB24
  8
U1
 10
22576.000000000018
 20
19928.121500361289
 30
0.0
 11
22576.000000000018
 21
20088.121500361289
 31
0.0
  0
LINE
  5
6BB25
  8
U1
 10
19555.500000000011
 20
16318.121500361291
 30
0.0
 11
19555.500000000011
 21
19374.555091614999
 31
0.0
  0
LINE
  5
6BB26
  8
U1
 10
19722.000000000011
 20
16318.121500361291
 30
0.0
 11
19722.000000000011
 21
19374.555091614999
 31
0.0
  0
LINE
  5
6BB27
  8
U1
 10
19676.5
 20
16318.121500361291
 30
0.0
 11
19676.500000000011
 21
19374.555091614999
 31
0.0
  0
LINE
  5
6BB28
  8
U1
 10
22310.00000000004
 20
16318.121500361291
 30
0.0
 11
22310.00000000004
 21
19374.555091614999
 31
0.0
  0
LINE
  5
6BB29
  8
U1
 10
22541.000000000018
 20
16318.121500361291
 30
0.0
 11
22541.000000000018
 21
19470.556065383062
 31
0.0
  0
LINE
  5
6BB2A
  8
1PL-M1
 10
22416.000000000018
 20
14078.121500361291
 30
0.0
 11
22416.000000000018
 21
16818.121500361289
 31
0.0
  0
LINE
  5
6BB2B
  8
1PL-M1
 10
19616.000000000011
 20
14078.121500361291
 30
0.0
 11
19616.000000000011
 21
16818.121500361289
 31
0.0
  0
LINE
  5
6BB2C
  8
U1
 10
22541.000000000011
 20
16318.121500361291
 30
0.0
 11
22458.5
 21
16318.121500361291
 31
0.0
  0
LINE
  5
6BB2E
  8
U1
 10
16941.000000000011
 20
20098.121500361289
 30
0.0
 11
16941.000000000011
 21
19918.121500361289
 31
0.0
  0
TEXT
  5
6BB2F
  8
SUNPOU
 10
16874.337357692471
 20
14398.121500361291
 30
0.0
 40
160.0
  1
11450
 41
0.6700000000000002
  7
00
 72
     4
 11
17137.232595787711
 21
14478.121500361291
 31
0.0
  0
CIRCLE
  5
6BB31
  8
SUNPOU
 10
14016.000000000009
 20
13878.121500361291
 30
0.0
 40
200.0
  0
TEXT
  5
6BB32
  8
SUNPOU
 10
13939.42857142858
 20
13758.121500361291
 30
0.0
 40
240.0
  1
2
 41
0.6700000000000002
  7
00
 72
     4
 11
14016.000000000009
 21
13878.121500361291
 31
0.0
  0
LINE
  5
6BB33
  8
SUNPOU
 10
11131.000000000009
 20
14318.121500361291
 30
0.0
 11
22501.000000000011
 21
14318.121500361291
 31
0.0
  0
LINE
  5
6BB34
  8
SUNPOU
 10
11091.000000000009
 20
16238.121500361291
 30
0.0
 11
11091.000000000009
 21
14198.121500361291
 31
0.0
  0
CIRCLE
  5
6BB35
  8
SUNPOU
 10
11216.000000000009
 20
13878.121500361291
 30
0.0
 40
200.0
  0
TEXT
  5
6BB36
  8
SUNPOU
 10
11150.914285714291
 20
13758.121500361291
 30
0.0
 40
240.0
  1
1
 41
0.6700000000000002
  7
00
 72
     4
 11
11216.000000000009
 21
13878.121500361291
 31
0.0
  0
LINE
  5
6BB38
  8
SUNPOU
 10
11256.000000000009
 20
14718.121500361291
 30
0.0
 11
13976.000000000009
 21
14718.121500361291
 31
0.0
  0
TEXT
  5
6BB39
  8
SUNPOU
 10
10722.7220639097
 20
14798.121500361291
 30
0.0
 40
160.0
  1
125
 41
0.6700000000000002
  7
00
  0
LINE
  5
6BB3A
  8
SUNPOU
 10
11091.000000000009
 20
14718.121500361291
 30
0.0
 11
10649.652625414121
 21
14718.121500361291
 31
0.0
  0
LINE
  5
6BB3C
  8
SUNPOU
 10
11131.000000000009
 20
14718.121500361291
 30
0.0
 11
11176.000000000009
 21
14718.121500361291
 31
0.0
  0
TEXT
  5
6BB3F
  8
SUNPOU
 10
12715.992001235431
 20
14798.121500361291
 30
0.0
 40
160.0
  1
2800
 41
0.6700000000000002
  7
00
  0
TEXT
  5
6BB40
  8
SUNPOU
 10
12069.50631550423
 20
14798.121500361291
 30
0.0
 40
160.0
  1
柱芯寸
  7
01
  0
LINE
  5
6BB42
  8
SUNPOU
 10
22541.000000000011
 20
16238.121500361291
 30
0.0
 11
22541.000000000011
 21
14198.121500361291
 31
0.0
  0
CIRCLE
  5
6BB43
  8
SUNPOU
 10
16816.000000000011
 20
13878.121500361291
 30
0.0
 40
200.0
  0
TEXT
  5
6BB44
  8
SUNPOU
 10
16739.42857142858
 20
13758.121500361291
 30
0.0
 40
240.0
  1
3
 41
0.6700000000000002
  7
00
 72
     4
 11
16816.000000000011
 21
13878.121500361291
 31
0.0
  0
LINE
  5
6BB46
  8
SUNPOU
 10
14056.000000000009
 20
14718.121500361291
 30
0.0
 11
16776.000000000011
 21
14718.121500361291
 31
0.0
  0
TEXT
  5
6BB47
  8
SUNPOU
 10
14869.50631550423
 20
14798.121500361291
 30
0.0
 40
160.0
  1
柱芯寸
  7
01
  0
TEXT
  5
6BB48
  8
SUNPOU
 10
15515.992001235431
 20
14798.121500361291
 30
0.0
 40
160.0
  1
2800
 41
0.6700000000000002
  7
00
  0
TEXT
  5
6BB49
  8
SUNPOU
 10
22654.03984085222
 20
14798.121500361291
 30
0.0
 40
160.0
  1
125
 41
0.6700000000000002
  7
00
  0
LINE
  5
6BB4A
  8
SUNPOU
 10
22416.0
 20
14718.121500361291
 30
0.0
 11
22982.347374585901
 21
14718.121500361291
 31
0.0
  0
TEXT
  5
6BB4E
  8
SUNPOU
 10
19535.599999999999
 20
13758.121500361291
 30
0.0
 40
240.0
  1
4
 41
0.6700000000000002
  7
00
 72
     4
 11
19616.000000000011
 21
13878.121500361291
 31
0.0
  0
CIRCLE
  5
6BB4F
  8
SUNPOU
 10
19616.000000000011
 20
13878.121500361291
 30
0.0
 40
200.0
  0
TEXT
  5
6BB50
  8
SUNPOU
 10
22339.42857142858
 20
13758.121500361291
 30
0.0
 40
240.0
  1
5
 41
0.6700000000000002
  7
00
 72
     4
 11
22416.0
 21
13878.121500361291
 31
0.0
  0
CIRCLE
  5
6BB51
  8
SUNPOU
 10
22416.0
 20
13878.121500361291
 30
0.0
 40
200.0
  0
TEXT
  5
6BB52
  8
SUNPOU
 10
17669.50631550423
 20
14798.121500361291
 30
0.0
 40
160.0
  1
柱芯寸
  7
01
  0
TEXT
  5
6BB53
  8
SUNPOU
 10
18315.992001235431
 20
14798.121500361291
 30
0.0
 40
160.0
  1
2800
 41
0.6700000000000002
  7
00
  0
LINE
  5
6BB54
  8
SUNPOU
 10
16856.000000000011
 20
14718.121500361291
 30
0.0
 11
19576.000000000011
 21
14718.121500361291
 31
0.0
  0
TEXT
  5
6BB58
  8
SUNPOU
 10
20469.506315504241
 20
14798.121500361291
 30
0.0
 40
160.0
  1
柱芯寸
  7
01
  0
LINE
  5
6BB59
  8
SUNPOU
 10
19656.000000000011
 20
14718.121500361291
 30
0.0
 11
22376.000000000011
 21
14718.121500361291
 31
0.0
  0
TEXT
  5
6BB5A
  8
SUNPOU
 10
21115.992001235431
 20
14798.121500361291
 30
0.0
 40
160.0
  1
2800
 41
0.6700000000000002
  7
00
  0
LINE
  5
6BB5D
  8
1PL-M1
 10
16816.000000000011
 20
14078.121500361291
 30
0.0
 11
16816.000000000011
 21
16818.121500361289
 31
0.0
  0
TEXT
  5
6BB5E
  8
SUNPOU
 10
16553.104761904771
 20
21378.1215003613
 30
0.0
 40
160.0
  1
11520
 41
0.6700000000000002
  7
00
 72
     4
 11
16816.000000000011
 21
21458.121500361289
 31
0.0
  0
TEXT
  5
6BB5F
  8
SUNPOU
 10
16553.104761904771
 20
20978.121500361289
 30
0.0
 40
160.0
  1
11450
 41
0.6700000000000002
  7
00
 72
     4
 11
16816.000000000011
 21
21058.121500361289
 31
0.0
  0
LINE
  5
6BB60
  8
SUNPOU
 10
11096.000000000009
 20
21298.1215003613
 30
0.0
 11
22536.000000000018
 21
21298.1215003613
 31
0.0
  0
LINE
  5
6BB61
  8
SUNPOU
 10
11131.000000000009
 20
20898.121500361289
 30
0.0
 11
22501.000000000011
 21
20898.121500361289
 31
0.0
  0
LINE
  5
6BB62
  8
SUNPOU
 10
11091.000000000009
 20
20178.121500361289
 30
0.0
 11
11091.000000000009
 21
21018.121500361289
 31
0.0
  0
LINE
  5
6BB63
  8
SUNPOU
 10
11056.000000000009
 20
20178.121500361289
 30
0.0
 11
11056.000000000009
 21
21418.121500361289
 31
0.0
  0
LINE
  5
6BB64
  8
SUNPOU
 10
10996.000000000009
 20
20898.121500361289
 30
0.0
 11
10710.82137393905
 21
20898.121500361289
 31
0.0
  0
TEXT
  5
6BB68
  8
SUNPOU
 10
10762.4380952381
 20
20978.121500361289
 30
0.0
 40
160.0
  1
35
 41
0.6700000000000002
  7
00
  0
LINE
  5
6BB69
  8
SUNPOU
 10
22541.000000000011
 20
20178.121500361289
 30
0.0
 11
22541.000000000011
 21
21018.121500361289
 31
0.0
  0
LINE
  5
6BB6A
  8
SUNPOU
 10
22576.000000000018
 20
20178.121500361289
 30
0.0
 11
22576.000000000018
 21
21418.121500361289
 31
0.0
  0
LINE
  5
6BB6D
  8
SUNPOU
 10
22636.000000000018
 20
20898.121500361289
 30
0.0
 11
22921.17862606097
 21
20898.121500361289
 31
0.0
  0
TEXT
  5
6BB6F
  8
SUNPOU
 10
22696.000000000018
 20
20978.121500361289
 30
0.0
 40
160.0
  1
35
 41
0.6700000000000002
  7
00
  0
LINE
  5
6BBAC
  8
U1
 10
22541.000000000018
 20
19689.121500361289
 30
0.0
 11
22541.000000000018
 21
20098.121500361289
 31
0.0
  0
LINE
  5
6BBAD
  8
U1
 10
11091.000000000009
 20
19689.121500361289
 30
0.0
 11
11091.000000000009
 21
20098.121500361289
 31
0.0
  0
LINE
  5
6BBAE
  8
U1
 10
11264.294270451781
 20
19374.555091614999
 30
0.0
 11
11264.29427045179
 21
16318.121500361291
 31
0.0
  0
LINE
  5
6BBAF
  8
U1
 10
16864.294270451792
 20
19374.555091614999
 30
0.0
 11
16864.294270451792
 21
16318.121500361291
 31
0.0
  0
LINE
  5
6BBB0
  8
U1
 10
16767.705729548241
 20
19374.555091614999
 30
0.0
 11
16767.70572954823
 21
16318.121500361291
 31
0.0
  0
LINE
  5
6BBB1
  8
U1
 10
22367.705729548241
 20
19374.555091614999
 30
0.0
 11
22367.70572954823
 21
16318.121500361291
 31
0.0
  0
LINE
  5
6BBC4
  8
U1
 10
11258.500000000009
 20
16318.1215003613
 30
0.0
 11
16773.500000000011
 21
16318.12150036128
 31
0.0
  0
LINE
  5
6BBC5
  8
U1
 10
16773.500000000011
 20
16018.12150036126
 30
0.0
 11
16773.500000000011
 21
19401.121500361289
 31
0.0
  0
LINE
  5
6BBC6
  8
下屋前桁
 10
16773.000000000011
 20
19401.121500361322
 30
0.0
 11
16811.000000000011
 21
19401.121500361289
 31
0.0
  0
ARC
  5
6BBC7
  8
下屋前桁
 10
16811.000000000011
 20
19406.121500361289
 30
0.0
 40
5.0
 50
270.0
 51
0.0
  0
LINE
  5
6BBC8
  8
下屋前桁
 10
16772.999999999949
 20
19401.121500361322
 30
0.0
 11
16772.999999999949
 21
19393.121500361289
 31
0.0
  0
LINE
  5
6BBC9
  8
下屋前桁
 10
16816.000000000011
 20
19495.975870572482
 30
0.0
 11
16816.000000000011
 21
19406.121500361289
 31
0.0
  0
LINE
  5
6BBCB
  8
U1
 10
22458.5
 20
19495.975870572482
 30
0.0
 11
22458.5
 21
16018.12150036126
 31
0.0
  0
LINE
  5
6BBCC
  8
U1
 10
22373.500000000011
 20
16018.12150036126
 30
0.0
 11
22373.500000000011
 21
19401.121500361289
 31
0.0
  0
LINE
  5
6BBCD
  8
KERABA
 10
22576.0
 20
19495.975870572482
 30
0.0
 11
22576.0
 21
19675.406243899481
 31
0.0
  0
LINE
  5
6BBCE
  8
KERABA
 10
22541.000000000011
 20
19495.975870572482
 30
0.0
 11
22541.000000000011
 21
19675.406243899481
 31
0.0
  0
LINE
  5
6BBCF
  8
KERABA
 10
22576.0
 20
19551.975870572482
 30
0.0
 11
16816.000000000011
 21
19551.975870572482
 31
0.0
  0
LINE
  5
6BBD0
  8
KERABA
 10
22576.0
 20
19549.975870572482
 30
0.0
 11
16816.000000000011
 21
19549.975870572482
 31
0.0
  0
LINE
  5
6BBD1
  8
KERABA
 10
22576.0
 20
19539.975870572482
 30
0.0
 11
16816.000000000011
 21
19539.975870572482
 31
0.0
  0
LINE
  5
6BBD2
  8
KERABA
 10
22576.0
 20
19537.975870572482
 30
0.0
 11
16816.000000000011
 21
19537.975870572482
 31
0.0
  0
LINE
  5
6BBD3
  8
KERABA
 10
22576.0
 20
19527.975870572489
 30
0.0
 11
16816.000000000011
 21
19527.975870572489
 31
0.0
  0
LINE
  5
6BBD4
  8
KERABA
 10
22576.0
 20
19619.40624389947
 30
0.0
 11
16816.000000000011
 21
19619.40624389947
 31
0.0
  0
LINE
  5
6BBD5
  8
KERABA
 10
22576.0
 20
19623.40624389947
 30
0.0
 11
16816.000000000011
 21
19623.40624389947
 31
0.0
  0
LINE
  5
6BBD6
  8
KERABA
 10
22576.0
 20
19633.406243899481
 30
0.0
 11
16816.000000000011
 21
19633.406243899481
 31
0.0
  0
LINE
  5
6BBD7
  8
KERABA
 10
22576.0
 20
19635.40624389947
 30
0.0
 11
16816.000000000011
 21
19635.40624389947
 31
0.0
  0
LINE
  5
6BBD8
  8
KERABA
 10
22576.0
 20
19645.40624389947
 30
0.0
 11
16816.000000000011
 21
19645.40624389947
 31
0.0
  0
LINE
  5
6BBD9
  8
KERABA
 10
22576.0
 20
19523.975870572482
 30
0.0
 11
16816.000000000011
 21
19523.975870572482
 31
0.0
  0
LINE
  5
6BBDA
  8
KERABA
 10
22576.0
 20
19647.406243899481
 30
0.0
 11
16816.000000000011
 21
19647.406243899481
 31
0.0
  0
LINE
  5
6BBDB
  8
KERABA
 10
22576.0
 20
19495.975870572482
 30
0.0
 11
16816.0
 21
19495.975870572482
 31
0.0
  0
LINE
  5
6BBDC
  8
KERABA
 10
22576.0
 20
19675.406243899481
 30
0.0
 11
16816.000000000011
 21
19675.406243899481
 31
0.0
  0
LINE
  5
6BBDD
  8
下屋前桁
 10
16859.000000000058
 20
19393.121500361322
 30
0.0
 11
22372.999999999942
 21
19393.121500361322
 31
0.0
  0
LINE
  5
6BBDE
  8
下屋前桁
 10
22373.0
 20
19401.121500361322
 30
0.0
 11
22411.0
 21
19401.121500361289
 31
0.0
  0
ARC
  5
6BBDF
  8
下屋前桁
 10
22411.0
 20
19406.121500361289
 30
0.0
 40
5.0
 50
270.0
 51
0.0
  0
LINE
  5
6BBE0
  8
下屋前桁
 10
22372.999999999942
 20
19401.121500361322
 30
0.0
 11
22372.999999999942
 21
19393.121500361289
 31
0.0
  0
LINE
  5
6BBE1
  8
下屋前桁
 10
22416.0
 20
19495.975870572482
 30
0.0
 11
22416.0
 21
19406.121500361289
 31
0.0
  0
LINE
  5
6BBE2
  8
U1
 10
16858.5
 20
16018.12150036126
 30
0.0
 11
16858.5
 21
19401.121500361289
 31
0.0
  0
LINE
  5
6BBE3
  8
下屋前桁
 10
16859.0
 20
19401.121500361322
 30
0.0
 11
16821.0
 21
19401.121500361289
 31
0.0
  0
ARC
  5
6BBE4
  8
下屋前桁
 10
16821.0
 20
19406.121500361289
 30
0.0
 40
5.0
 50
180.0
 51
270.0
  0
LINE
  5
6BBE5
  8
下屋前桁
 10
16859.000000000058
 20
19401.121500361322
 30
0.0
 11
16859.000000000058
 21
19393.121500361289
 31
0.0
  0
LINE
  5
6BBE7
  8
U1
 10
16816.000000000011
 20
16018.121500361271
 30
0.0
 11
23514.906860321949
 21
16018.12150036126
 31
0.0
  0
LINE
  5
6BBE8
  8
U1
 10
22373.500000000011
 20
16318.121500361291
 30
0.0
 11
16858.5
 21
16318.121500361291
 31
0.0
  0
LINE
  5
6BBE9
  8
U1
 10
11096.000000000069
 20
16018.12150036126
 30
0.0
 11
11096.000000000129
 21
16318.12150036126
 31
0.0
  0
LINE
  5
6BBEA
  8
U1
 10
22535.999999999949
 20
16018.12150036126
 30
0.0
 11
22535.999999999891
 21
16318.12150036126
 31
0.0
  0
TEXT
  5
6BD54
  8
FILENAME
 10
27508.761904761901
 20
348.0
 30
0.0
 40
200.0
  1
＜SOB-2R58FH-G_1_JIS_GL.DXF ＞
  7
FILENAME
 72
     2
 11
32764.0
 21
348.0
 31
0.0
  0
LINE
  5
6BD56
  8
WAKUSEN-01
 10
868.00000000000193
 20
827.99999999999955
 30
0.0
 11
32764.000000000011
 21
827.99999999999943
 31
0.0
  0
LINE
  5
6BD57
  8
WAKUSEN-01
 10
868.00000000000193
 20
22484.000000000011
 30
0.0
 11
32764.000000000011
 21
22484.000000000011
 31
0.0
  0
LINE
  5
6BD58
  8
WAKUSEN-01
 10
868.00000000000193
 20
827.99999999999955
 30
0.0
 11
868.00000000000193
 21
22484.000000000011
 31
0.0
  0
LINE
  5
6BD59
  8
WAKUSEN-01
 10
32764.000000000011
 20
827.99999999999943
 30
0.0
 11
32764.000000000011
 21
22484.000000000011
 31
0.0
  0
LINE
  5
6BD5A
  8
WAKUSEN-01
 10
20560.0
 20
2484.0
 30
0.0
 11
32764.0
 21
2484.0
 31
0.0
  0
LINE
  5
6BD5B
  8
WAKUSEN-02
 10
20560.0
 20
1655.9999999999991
 30
0.0
 11
26868.0
 21
1655.9999999999991
 31
0.0
  0
TEXT
  5
6BD5C
  8
WAKUMOJI-01
 10
20670.260259962772
 20
2125.9030093393221
 30
0.0
 40
240.0
  1
名　称
  7
WAKUMOJI
  0
TEXT
  5
6BD5D
  8
WAKUMOJI-01
 10
20656.505485091919
 20
1319.1289749798209
 30
0.0
 40
240.0
  1
機種名
  7
WAKUMOJI
  0
LINE
  5
6BD5E
  8
WAKUSEN-01
 10
20560.0
 20
827.99999999999716
 30
0.0
 11
20560.0
 21
2484.0
 31
0.0
  0
LINE
  5
6BD5F
  8
WAKUSEN-02
 10
26868.0
 20
827.99999999999261
 30
0.0
 11
26868.0
 21
2484.0
 31
0.0
  0
LINE
  5
6BD60
  8
YODOROGO
 10
29977.604341291921
 20
1995.7494964292871
 30
0.0
 11
29829.604341291921
 21
1995.7494964292871
 31
0.0
1001
AUTOCAD_POSTSCRIPT_FIGURE
1002
{
1000
PSFILL
1000
Grayscale
1000
Grayscale
1070
    25
1002
}
  0
LINE
  5
6BD61
  8
YODOROGO
 10
29829.604341291921
 20
1947.749496429288
 30
0.0
 11
29977.604341291921
 21
1947.749496429288
 31
0.0
1001
AUTOCAD_POSTSCRIPT_FIGURE
1002
{
1000
PSFILL
1000
Grayscale
1000
Grayscale
1070
    25
1002
}
  0
LINE
  5
6BD62
  8
YODOROGO
 10
29977.604341291921
 20
1907.7494964292871
 30
0.0
 11
29829.604341291921
 21
1907.7494964292871
 31
0.0
1001
AUTOCAD_POSTSCRIPT_FIGURE
1002
{
1000
PSFILL
1000
Grayscale
1000
Grayscale
1070
    25
1002
}
  0
LINE
  5
6BD63
  8
YODOROGO
 10
29829.604341291921
 20
1859.749496429288
 30
0.0
 11
29977.604341291921
 21
1859.749496429288
 31
0.0
1001
AUTOCAD_POSTSCRIPT_FIGURE
1002
{
1000
PSFILL
1000
Grayscale
1000
Grayscale
1070
    25
1002
}
  0
LINE
  5
6BD64
  8
YODOROGO
 10
29977.604341291921
 20
1819.749496429288
 30
0.0
 11
29829.604341291921
 21
1819.749496429288
 31
0.0
1001
AUTOCAD_POSTSCRIPT_FIGURE
1002
{
1000
PSFILL
1000
Grayscale
1000
Grayscale
1070
    25
1002
}
  0
LINE
  5
6BD65
  8
YODOROGO
 10
29921.60434129191
 20
1707.749496429288
 30
0.0
 11
29977.604341291921
 21
1707.749496429288
 31
0.0
1001
AUTOCAD_POSTSCRIPT_FIGURE
1002
{
1000
PSFILL
1000
Grayscale
1000
Grayscale
1070
    25
1002
}
  0
LINE
  5
6BD66
  8
YODOROGO
 10
29737.604341291921
 20
1427.749496429288
 30
0.0
 11
29937.604341291932
 21
1481.339334915511
 31
0.0
  0
LINE
  5
6BD67
  8
YODOROGO
 10
29949.604341291921
 20
1707.749496429288
 30
0.0
 11
29885.604341291921
 21
1707.749496429288
 31
0.0
  0
ARC
  5
6BD68
  8
YODOROGO
 10
30254.34774982791
 20
1807.8646092332619
 30
0.0
 40
381.88686420564733
 50
213.96111677667849
 51
264.47872074317792
  0
ARC
  5
6BD69
  8
YODOROGO
 10
30254.347749827921
 20
1807.864609233302
 30
0.0
 40
381.8868642056816
 50
208.14114420486601
 51
212.92103611859949
  0
LINE
  5
6BD6A
  8
YODOROGO
 10
29771.40987298531
 20
1556.807661346234
 30
0.0
 11
29933.78413250855
 21
1600.3157130570869
 31
0.0
  0
LINE
  5
6BD6B
  8
YODOROGO
 10
29737.604341291921
 20
1427.749496429288
 30
0.0
 11
29937.604341291932
 21
1481.339334915511
 31
0.0
  0
LINE
  5
6BD6C
  8
YODOROGO
 10
29949.604341291921
 20
1707.749496429288
 30
0.0
 11
29885.604341291921
 21
1707.749496429288
 31
0.0
  0
ARC
  5
6BD6D
  8
YODOROGO
 10
30254.34774982791
 20
1807.8646092332619
 30
0.0
 40
381.88686420564733
 50
213.96111677667849
 51
264.47872074317792
  0
LINE
  5
6BD6E
  8
YODOROGO
 10
28793.60434129191
 20
1819.749496429288
 30
0.0
 11
28433.60434129191
 21
1819.749496429288
 31
0.0
  0
LINE
  5
6BD6F
  8
YODOROGO
 10
28513.60434129191
 20
1427.749496429288
 30
0.0
 11
28793.60434129191
 21
1427.749496429288
 31
0.0
  0
LINE
  5
6BD70
  8
YODOROGO
 10
28729.604341291921
 20
1923.7494964292871
 30
0.0
 11
28497.60434129191
 21
1923.7494964292871
 31
0.0
  0
LINE
  5
6BD71
  8
YODOROGO
 10
28585.604341291921
 20
2027.749496429288
 30
0.0
 11
28657.604341291921
 21
2027.749496429288
 31
0.0
  0
LINE
  5
6BD72
  8
YODOROGO
 10
28433.60434129191
 20
1707.749496429288
 30
0.0
 11
28433.60434129191
 21
1507.749496429288
 31
0.0
  0
LINE
  5
6BD73
  8
YODOROGO
 10
28497.60434129191
 20
1563.7494964292871
 30
0.0
 11
28497.60434129191
 21
1707.749496429288
 31
0.0
  0
LINE
  5
6BD74
  8
YODOROGO
 10
28585.604341291921
 20
1747.74949642929
 30
0.0
 11
28585.604341291921
 21
1547.749496429288
 31
0.0
  0
LINE
  5
6BD75
  8
YODOROGO
 10
27857.604341291921
 20
1683.7494964292889
 30
0.0
 11
27777.604341291921
 21
1619.972414044571
 31
0.0
  0
LINE
  5
6BD76
  8
YODOROGO
 10
27937.604341291921
 20
1619.972414044571
 30
0.0
 11
27857.604341291921
 21
1683.7494964292889
 31
0.0
  0
LINE
  5
6BD77
  8
YODOROGO
 10
27857.604341291921
 20
1707.749496429288
 30
0.0
 11
27937.604341291921
 21
1643.9724140445701
 31
0.0
  0
LINE
  5
6BD78
  8
YODOROGO
 10
27777.604341291921
 20
1643.9724140445701
 30
0.0
 11
27857.604341291921
 21
1707.749496429288
 31
0.0
  0
LINE
  5
6BD79
  8
YODOROGO
 10
28040.913204016899
 20
1659.749496429288
 30
0.0
 11
28040.913204016899
 21
1683.7494964292871
 31
0.0
  0
LINE
  5
6BD7A
  8
YODOROGO
 10
27977.604341291921
 20
1683.7494964292871
 30
0.0
 11
27977.604341291921
 21
1667.749496429285
 31
0.0
  0
LINE
  5
6BD7B
  8
YODOROGO
 10
28098.135520230931
 20
1707.749496429288
 30
0.0
 11
28098.135520230931
 21
1655.5036372746561
 31
0.0
1001
AUTOCAD_POSTSCRIPT_FIGURE
1002
{
1000
PSFILL
1000
Grayscale
1000
Grayscale
1070
   100
1002
}
  0
LINE
  5
6BD7C
  8
YODOROGO
 10
28082.135520230921
 20
1655.5036372746561
 30
0.0
 11
28082.135520230921
 21
1707.749496429288
 31
0.0
1001
AUTOCAD_POSTSCRIPT_FIGURE
1002
{
1000
PSFILL
1000
Grayscale
1000
Grayscale
1070
   100
1002
}
  0
LINE
  5
6BD7D
  8
YODOROGO
 10
27809.604341291921
 20
1608.771904043258
 30
0.0
 11
27809.604341291921
 21
1632.7719040432589
 31
0.0
  0
LINE
  5
6BD7E
  8
YODOROGO
 10
27905.604341291921
 20
1608.771904043258
 30
0.0
 11
27809.604341291921
 21
1608.771904043258
 31
0.0
  0
LINE
  5
6BD7F
  8
YODOROGO
 10
27905.604341291921
 20
1632.7719040432589
 30
0.0
 11
27905.604341291921
 21
1608.771904043258
 31
0.0
  0
LINE
  5
6BD80
  8
YODOROGO
 10
27809.604341291921
 20
1632.7719040432589
 30
0.0
 11
27905.604341291921
 21
1632.7719040432589
 31
0.0
  0
LINE
  5
6BD81
  8
YODOROGO
 10
27824.509588915749
 20
1568.5028573704751
 30
0.0
 11
27785.604341291921
 21
1475.7494964292871
 31
0.0
1001
AUTOCAD_POSTSCRIPT_FIGURE
1002
{
1000
PSFILL
1000
Grayscale
1000
Grayscale
1070
   100
1002
}
  0
LINE
  5
6BD82
  8
YODOROGO
 10
27777.604341291921
 20
1568.5028573704751
 30
0.0
 11
27824.509588915749
 21
1568.5028573704751
 31
0.0
1001
AUTOCAD_POSTSCRIPT_FIGURE
1002
{
1000
PSFILL
1000
Grayscale
1000
Grayscale
1070
   100
1002
}
  0
LINE
  5
6BD83
  8
YODOROGO
 10
27777.604341291921
 20
1588.5028573704751
 30
0.0
 11
27777.604341291921
 21
1568.5028573704751
 31
0.0
1001
AUTOCAD_POSTSCRIPT_FIGURE
1002
{
1000
PSFILL
1000
Grayscale
1000
Grayscale
1070
   100
1002
}
  0
LINE
  5
6BD84
  8
YODOROGO
 10
27937.604341291921
 20
1588.5028573704751
 30
0.0
 11
27777.604341291921
 21
1588.5028573704751
 31
0.0
1001
AUTOCAD_POSTSCRIPT_FIGURE
1002
{
1000
PSFILL
1000
Grayscale
1000
Grayscale
1070
   100
1002
}
  0
LINE
  5
6BD85
  8
YODOROGO
 10
27937.604341291921
 20
1568.5028573704751
 30
0.0
 11
27937.604341291921
 21
1588.5028573704751
 31
0.0
1001
AUTOCAD_POSTSCRIPT_FIGURE
1002
{
1000
PSFILL
1000
Grayscale
1000
Grayscale
1070
   100
1002
}
  0
LINE
  5
6BD86
  8
YODOROGO
 10
27844.509588915749
 20
1568.5028573704751
 30
0.0
 11
27937.604341291921
 21
1568.5028573704751
 31
0.0
1001
AUTOCAD_POSTSCRIPT_FIGURE
1002
{
1000
PSFILL
1000
Grayscale
1000
Grayscale
1070
   100
1002
}
  0
LINE
  5
6BD87
  8
YODOROGO
 10
27815.546718284779
 20
1495.7494964292871
 30
0.0
 11
27844.509588915749
 21
1568.5028573704751
 31
0.0
1001
AUTOCAD_POSTSCRIPT_FIGURE
1002
{
1000
PSFILL
1000
Grayscale
1000
Grayscale
1070
   100
1002
}
  0
LINE
  5
6BD88
  8
YODOROGO
 10
27902.054790808648
 20
1495.7494964292871
 30
0.0
 11
27815.546718284779
 21
1495.7494964292871
 31
0.0
1001
AUTOCAD_POSTSCRIPT_FIGURE
1002
{
1000
PSFILL
1000
Grayscale
1000
Grayscale
1070
   100
1002
}
  0
LINE
  5
6BD89
  8
YODOROGO
 10
27885.065004790951
 20
1536.2338106976929
 30
0.0
 11
27902.054790808648
 21
1495.7494964292871
 31
0.0
1001
AUTOCAD_POSTSCRIPT_FIGURE
1002
{
1000
PSFILL
1000
Grayscale
1000
Grayscale
1070
   100
1002
}
  0
LINE
  5
6BD8A
  8
YODOROGO
 10
27901.065004790951
 20
1536.2338106976929
 30
0.0
 11
27885.065004790951
 21
1536.2338106976929
 31
0.0
1001
AUTOCAD_POSTSCRIPT_FIGURE
1002
{
1000
PSFILL
1000
Grayscale
1000
Grayscale
1070
   100
1002
}
  0
LINE
  5
6BD8B
  8
YODOROGO
 10
27929.604341291921
 20
1475.7494964292871
 30
0.0
 11
27901.065004790951
 21
1536.2338106976929
 31
0.0
1001
AUTOCAD_POSTSCRIPT_FIGURE
1002
{
1000
PSFILL
1000
Grayscale
1000
Grayscale
1070
   100
1002
}
  0
LINE
  5
6BD8C
  8
YODOROGO
 10
27785.604341291921
 20
1475.7494964292871
 30
0.0
 11
27929.604341291921
 21
1475.7494964292871
 31
0.0
1001
AUTOCAD_POSTSCRIPT_FIGURE
1002
{
1000
PSFILL
1000
Grayscale
1000
Grayscale
1070
   100
1002
}
  0
LINE
  5
6BD8D
  8
YODOROGO
 10
27777.604341291921
 20
1619.972414044571
 30
0.0
 11
27777.604341291921
 21
1643.9724140445701
 31
0.0
  0
LINE
  5
6BD8E
  8
YODOROGO
 10
27937.604341291921
 20
1643.9724140445701
 30
0.0
 11
27937.604341291921
 21
1619.972414044571
 31
0.0
  0
ARC
  5
6BD8F
  8
YODOROGO
 10
28225.94044214697
 20
1600.877765325326
 30
0.0
 40
175.99999999999989
 50
280.3644312771313
 51
3.5414836592180561
  0
ARC
  5
6BD90
  8
YODOROGO
 10
28235.756030759301
 20
1633.5978069619041
 30
0.0
 40
111.99999999999829
 50
281.2490582504156
 51
348.75094174958332
  0
LINE
  5
6BD91
  8
YODOROGO
 10
28257.604341291921
 20
1523.7494964292871
 30
0.0
 11
28257.604341291921
 21
1427.749496429288
 31
0.0
  0
LINE
  5
6BD92
  8
YODOROGO
 10
28020.088903736902
 20
1610.6505650619149
 30
0.0
 11
28040.913204016899
 21
1659.749496429288
 31
0.0
  0
LINE
  5
6BD93
  8
YODOROGO
 10
28041.604341291921
 20
1583.120489948401
 30
0.0
 11
28020.088903736902
 21
1610.6505650619149
 31
0.0
  0
LINE
  5
6BD94
  8
YODOROGO
 10
28041.604341291921
 20
1563.1204899483989
 30
0.0
 11
28041.604341291921
 21
1583.120489948401
 31
0.0
  0
LINE
  5
6BD95
  8
YODOROGO
 10
28017.604341291921
 20
1585.2370637495301
 30
0.0
 11
28041.604341291921
 21
1563.1204899483989
 31
0.0
  0
LINE
  5
6BD96
  8
YODOROGO
 10
28017.604341291921
 20
1475.7494964292871
 30
0.0
 11
28017.604341291921
 21
1585.2370637495301
 31
0.0
  0
LINE
  5
6BD97
  8
YODOROGO
 10
28001.604341291921
 20
1475.7494964292871
 30
0.0
 11
28017.604341291921
 21
1475.7494964292871
 31
0.0
  0
LINE
  5
6BD98
  8
YODOROGO
 10
28001.604341291921
 20
1580.0053496897481
 30
0.0
 11
28001.604341291921
 21
1475.7494964292871
 31
0.0
  0
LINE
  5
6BD99
  8
YODOROGO
 10
27977.604341291921
 20
1532.7680790334291
 30
0.0
 11
28001.604341291921
 21
1580.0053496897481
 31
0.0
  0
LINE
  5
6BD9A
  8
YODOROGO
 10
27977.604341291921
 20
1556.76807903343
 30
0.0
 11
27977.604341291921
 21
1532.7680790334291
 31
0.0
  0
LINE
  5
6BD9B
  8
YODOROGO
 10
28025.82877429136
 20
1667.749496429285
 30
0.0
 11
27977.604341291921
 21
1556.76807903343
 31
0.0
  0
LINE
  5
6BD9C
  8
YODOROGO
 10
27977.604341291921
 20
1667.749496429285
 30
0.0
 11
28025.82877429136
 21
1667.749496429285
 31
0.0
  0
LINE
  5
6BD9D
  8
YODOROGO
 10
28050.13552023091
 20
1655.5036372746561
 30
0.0
 11
28082.135520230921
 21
1655.5036372746561
 31
0.0
1001
AUTOCAD_POSTSCRIPT_FIGURE
1002
{
1000
PSFILL
1000
Grayscale
1000
Grayscale
1070
   100
1002
}
  0
LINE
  5
6BD9E
  8
YODOROGO
 10
28050.13552023091
 20
1631.503637274657
 30
0.0
 11
28050.13552023091
 21
1655.5036372746561
 31
0.0
1001
AUTOCAD_POSTSCRIPT_FIGURE
1002
{
1000
PSFILL
1000
Grayscale
1000
Grayscale
1070
   100
1002
}
  0
LINE
  5
6BD9F
  8
YODOROGO
 10
28082.135520230921
 20
1631.503637274657
 30
0.0
 11
28050.13552023091
 21
1631.503637274657
 31
0.0
1001
AUTOCAD_POSTSCRIPT_FIGURE
1002
{
1000
PSFILL
1000
Grayscale
1000
Grayscale
1070
   100
1002
}
  0
LINE
  5
6BDA0
  8
YODOROGO
 10
28082.135520230921
 20
1499.749496429288
 30
0.0
 11
28082.135520230921
 21
1631.503637274657
 31
0.0
1001
AUTOCAD_POSTSCRIPT_FIGURE
1002
{
1000
PSFILL
1000
Grayscale
1000
Grayscale
1070
   100
1002
}
  0
LINE
  5
6BDA1
  8
YODOROGO
 10
28050.135520230931
 20
1499.749496429288
 30
0.0
 11
28082.135520230921
 21
1499.749496429288
 31
0.0
1001
AUTOCAD_POSTSCRIPT_FIGURE
1002
{
1000
PSFILL
1000
Grayscale
1000
Grayscale
1070
   100
1002
}
  0
LINE
  5
6BDA2
  8
YODOROGO
 10
28050.135520230931
 20
1475.7494964292871
 30
0.0
 11
28050.135520230931
 21
1499.749496429288
 31
0.0
1001
AUTOCAD_POSTSCRIPT_FIGURE
1002
{
1000
PSFILL
1000
Grayscale
1000
Grayscale
1070
   100
1002
}
  0
LINE
  5
6BDA3
  8
YODOROGO
 10
28137.604341291921
 20
1475.7494964292871
 30
0.0
 11
28050.135520230931
 21
1475.7494964292871
 31
0.0
1001
AUTOCAD_POSTSCRIPT_FIGURE
1002
{
1000
PSFILL
1000
Grayscale
1000
Grayscale
1070
   100
1002
}
  0
LINE
  5
6BDA4
  8
YODOROGO
 10
28137.604341291921
 20
1499.749496429288
 30
0.0
 11
28137.604341291921
 21
1475.7494964292871
 31
0.0
1001
AUTOCAD_POSTSCRIPT_FIGURE
1002
{
1000
PSFILL
1000
Grayscale
1000
Grayscale
1070
   100
1002
}
  0
LINE
  5
6BDA5
  8
YODOROGO
 10
28098.135520230931
 20
1499.749496429288
 30
0.0
 11
28137.604341291921
 21
1499.749496429288
 31
0.0
1001
AUTOCAD_POSTSCRIPT_FIGURE
1002
{
1000
PSFILL
1000
Grayscale
1000
Grayscale
1070
   100
1002
}
  0
LINE
  5
6BDA6
  8
YODOROGO
 10
28098.135520230931
 20
1631.503637274657
 30
0.0
 11
28098.135520230931
 21
1499.749496429288
 31
0.0
1001
AUTOCAD_POSTSCRIPT_FIGURE
1002
{
1000
PSFILL
1000
Grayscale
1000
Grayscale
1070
   100
1002
}
  0
LINE
  5
6BDA7
  8
YODOROGO
 10
28137.604341291921
 20
1631.503637274657
 30
0.0
 11
28098.135520230931
 21
1631.503637274657
 31
0.0
1001
AUTOCAD_POSTSCRIPT_FIGURE
1002
{
1000
PSFILL
1000
Grayscale
1000
Grayscale
1070
   100
1002
}
  0
LINE
  5
6BDA8
  8
YODOROGO
 10
28137.604341291921
 20
1655.5036372746561
 30
0.0
 11
28137.604341291921
 21
1631.503637274657
 31
0.0
1001
AUTOCAD_POSTSCRIPT_FIGURE
1002
{
1000
PSFILL
1000
Grayscale
1000
Grayscale
1070
   100
1002
}
  0
LINE
  5
6BDA9
  8
YODOROGO
 10
28098.135520230931
 20
1655.5036372746561
 30
0.0
 11
28137.604341291921
 21
1655.5036372746561
 31
0.0
1001
AUTOCAD_POSTSCRIPT_FIGURE
1002
{
1000
PSFILL
1000
Grayscale
1000
Grayscale
1070
   100
1002
}
  0
LINE
  5
6BDAA
  8
YODOROGO
 10
28401.60434129191
 20
1667.749496429288
 30
0.0
 11
28345.604341291921
 21
1667.749496429288
 31
0.0
  0
LINE
  5
6BDAB
  8
YODOROGO
 10
28401.60434129191
 20
1611.7494964292889
 30
0.0
 11
28401.60434129191
 21
1667.749496429288
 31
0.0
  0
LINE
  5
6BDAC
  8
YODOROGO
 10
28345.604341291921
 20
1667.749496429288
 30
0.0
 11
28345.604341291921
 21
1611.7494964292889
 31
0.0
  0
ARC
  5
6BDAD
  8
YODOROGO
 10
28513.60434129191
 20
1507.749496429288
 30
0.0
 40
80.0
 50
180.0
 51
270.0
  0
ARC
  5
6BDAE
  8
YODOROGO
 10
28537.60434129191
 20
1563.7494964292871
 30
0.0
 40
40.0
 50
180.0
 51
270.0
  0
LINE
  5
6BDAF
  8
YODOROGO
 10
28561.604341291932
 20
1523.7494964292871
 30
0.0
 11
28537.60434129191
 21
1523.7494964292871
 31
0.0
  0
ARC
  5
6BDB0
  8
YODOROGO
 10
28561.604341291932
 20
1547.749496429285
 30
0.0
 40
23.999999999996358
 50
270.0
 51
0.0000000000054281
  0
LINE
  5
6BDB1
  8
YODOROGO
 10
27801.604341291921
 20
1890.786580793706
 30
0.0
 11
27777.604341291921
 21
1843.776747951672
 31
0.0
1001
AUTOCAD_POSTSCRIPT_FIGURE
1002
{
1000
PSFILL
1000
Grayscale
1000
Grayscale
1070
   100
1002
}
  0
LINE
  5
6BDB2
  8
YODOROGO
 10
27801.604341291921
 20
1747.7494964292871
 30
0.0
 11
27801.604341291921
 21
1890.786580793706
 31
0.0
1001
AUTOCAD_POSTSCRIPT_FIGURE
1002
{
1000
PSFILL
1000
Grayscale
1000
Grayscale
1070
   100
1002
}
  0
LINE
  5
6BDB3
  8
YODOROGO
 10
27817.604341291921
 20
1747.7494964292871
 30
0.0
 11
27801.604341291921
 21
1747.7494964292871
 31
0.0
1001
AUTOCAD_POSTSCRIPT_FIGURE
1002
{
1000
PSFILL
1000
Grayscale
1000
Grayscale
1070
   100
1002
}
  0
LINE
  5
6BDB4
  8
YODOROGO
 10
27817.604341291921
 20
1893.771332085267
 30
0.0
 11
27817.604341291921
 21
1747.7494964292871
 31
0.0
1001
AUTOCAD_POSTSCRIPT_FIGURE
1002
{
1000
PSFILL
1000
Grayscale
1000
Grayscale
1070
   100
1002
}
  0
LINE
  5
6BDB5
  8
YODOROGO
 10
27841.604341291921
 20
1867.654758284137
 30
0.0
 11
27817.604341291921
 21
1893.771332085267
 31
0.0
1001
AUTOCAD_POSTSCRIPT_FIGURE
1002
{
1000
PSFILL
1000
Grayscale
1000
Grayscale
1070
   100
1002
}
  0
LINE
  5
6BDB6
  8
YODOROGO
 10
27841.604341291921
 20
1883.6547582841361
 30
0.0
 11
27841.604341291921
 21
1867.654758284137
 31
0.0
1001
AUTOCAD_POSTSCRIPT_FIGURE
1002
{
1000
PSFILL
1000
Grayscale
1000
Grayscale
1070
   100
1002
}
  0
LINE
  5
6BDB7
  8
YODOROGO
 10
27817.604341291921
 20
1917.7713320852649
 30
0.0
 11
27841.604341291921
 21
1883.6547582841361
 31
0.0
1001
AUTOCAD_POSTSCRIPT_FIGURE
1002
{
1000
PSFILL
1000
Grayscale
1000
Grayscale
1070
   100
1002
}
  0
LINE
  5
6BDB8
  8
YODOROGO
 10
27817.604341291921
 20
1939.749496429288
 30
0.0
 11
27817.604341291921
 21
1917.7713320852649
 31
0.0
1001
AUTOCAD_POSTSCRIPT_FIGURE
1002
{
1000
PSFILL
1000
Grayscale
1000
Grayscale
1070
   100
1002
}
  0
LINE
  5
6BDB9
  8
YODOROGO
 10
27889.604341291921
 20
1939.749496429288
 30
0.0
 11
27817.604341291921
 21
1939.749496429288
 31
0.0
1001
AUTOCAD_POSTSCRIPT_FIGURE
1002
{
1000
PSFILL
1000
Grayscale
1000
Grayscale
1070
   100
1002
}
  0
LINE
  5
6BDBA
  8
YODOROGO
 10
27889.604341291921
 20
1900.5683489363
 30
0.0
 11
27889.604341291921
 21
1939.749496429288
 31
0.0
1001
AUTOCAD_POSTSCRIPT_FIGURE
1002
{
1000
PSFILL
1000
Grayscale
1000
Grayscale
1070
   100
1002
}
  0
LINE
  5
6BDBB
  8
YODOROGO
 10
27857.604341291921
 20
1900.5683489363
 30
0.0
 11
27889.604341291921
 21
1900.5683489363
 31
0.0
1001
AUTOCAD_POSTSCRIPT_FIGURE
1002
{
1000
PSFILL
1000
Grayscale
1000
Grayscale
1070
   100
1002
}
  0
LINE
  5
6BDBC
  8
YODOROGO
 10
27857.604341291921
 20
1884.568348936298
 30
0.0
 11
27857.604341291921
 21
1900.5683489363
 31
0.0
1001
AUTOCAD_POSTSCRIPT_FIGURE
1002
{
1000
PSFILL
1000
Grayscale
1000
Grayscale
1070
   100
1002
}
  0
LINE
  5
6BDBD
  8
YODOROGO
 10
27889.604341291921
 20
1884.568348936298
 30
0.0
 11
27857.604341291921
 21
1884.568348936298
 31
0.0
1001
AUTOCAD_POSTSCRIPT_FIGURE
1002
{
1000
PSFILL
1000
Grayscale
1000
Grayscale
1070
   100
1002
}
  0
LINE
  5
6BDBE
  8
YODOROGO
 10
27889.604341291921
 20
1879.6191779644389
 30
0.0
 11
27889.604341291921
 21
1884.568348936298
 31
0.0
1001
AUTOCAD_POSTSCRIPT_FIGURE
1002
{
1000
PSFILL
1000
Grayscale
1000
Grayscale
1070
   100
1002
}
  0
LINE
  5
6BDBF
  8
YODOROGO
 10
27849.604341291921
 20
1812.974981161417
 30
0.0
 11
27889.604341291921
 21
1879.6191779644389
 31
0.0
1001
AUTOCAD_POSTSCRIPT_FIGURE
1002
{
1000
PSFILL
1000
Grayscale
1000
Grayscale
1070
   100
1002
}
  0
LINE
  5
6BDC0
  8
YODOROGO
 10
27849.604341291921
 20
1796.9749811614161
 30
0.0
 11
27849.604341291921
 21
1812.974981161417
 31
0.0
1001
AUTOCAD_POSTSCRIPT_FIGURE
1002
{
1000
PSFILL
1000
Grayscale
1000
Grayscale
1070
   100
1002
}
  0
LINE
  5
6BDC1
  8
YODOROGO
 10
27889.604341291921
 20
1847.6191779644371
 30
0.0
 11
27849.604341291921
 21
1796.9749811614161
 31
0.0
1001
AUTOCAD_POSTSCRIPT_FIGURE
1002
{
1000
PSFILL
1000
Grayscale
1000
Grayscale
1070
   100
1002
}
  0
LINE
  5
6BDC2
  8
YODOROGO
 10
27889.604341291921
 20
1747.7494964292871
 30
0.0
 11
27889.604341291921
 21
1847.6191779644371
 31
0.0
1001
AUTOCAD_POSTSCRIPT_FIGURE
1002
{
1000
PSFILL
1000
Grayscale
1000
Grayscale
1070
   100
1002
}
  0
LINE
  5
6BDC3
  8
YODOROGO
 10
27905.604341291921
 20
1747.7494964292871
 30
0.0
 11
27889.604341291921
 21
1747.7494964292871
 31
0.0
1001
AUTOCAD_POSTSCRIPT_FIGURE
1002
{
1000
PSFILL
1000
Grayscale
1000
Grayscale
1070
   100
1002
}
  0
LINE
  5
6BDC4
  8
YODOROGO
 10
27905.604341291921
 20
1849.409012158806
 30
0.0
 11
27905.604341291921
 21
1747.7494964292871
 31
0.0
1001
AUTOCAD_POSTSCRIPT_FIGURE
1002
{
1000
PSFILL
1000
Grayscale
1000
Grayscale
1070
   100
1002
}
  0
LINE
  5
6BDC5
  8
YODOROGO
 10
27937.604341291921
 20
1796.9749811614161
 30
0.0
 11
27905.604341291921
 21
1849.409012158806
 31
0.0
1001
AUTOCAD_POSTSCRIPT_FIGURE
1002
{
1000
PSFILL
1000
Grayscale
1000
Grayscale
1070
   100
1002
}
  0
LINE
  5
6BDC6
  8
YODOROGO
 10
27937.604341291921
 20
1812.974981161417
 30
0.0
 11
27937.604341291921
 21
1796.9749811614161
 31
0.0
1001
AUTOCAD_POSTSCRIPT_FIGURE
1002
{
1000
PSFILL
1000
Grayscale
1000
Grayscale
1070
   100
1002
}
  0
LINE
  5
6BDC7
  8
YODOROGO
 10
27905.604341291921
 20
1881.4090121588081
 30
0.0
 11
27937.604341291921
 21
1812.974981161417
 31
0.0
1001
AUTOCAD_POSTSCRIPT_FIGURE
1002
{
1000
PSFILL
1000
Grayscale
1000
Grayscale
1070
   100
1002
}
  0
LINE
  5
6BDC8
  8
YODOROGO
 10
27905.604341291932
 20
1884.5683489363
 30
0.0
 11
27905.604341291921
 21
1881.4090121588081
 31
0.0
1001
AUTOCAD_POSTSCRIPT_FIGURE
1002
{
1000
PSFILL
1000
Grayscale
1000
Grayscale
1070
   100
1002
}
  0
LINE
  5
6BDC9
  8
YODOROGO
 10
27937.604341291921
 20
1884.568348936298
 30
0.0
 11
27905.604341291932
 21
1884.5683489363
 31
0.0
1001
AUTOCAD_POSTSCRIPT_FIGURE
1002
{
1000
PSFILL
1000
Grayscale
1000
Grayscale
1070
   100
1002
}
  0
LINE
  5
6BDCA
  8
YODOROGO
 10
27937.604341291921
 20
1900.5683489363
 30
0.0
 11
27937.604341291921
 21
1884.568348936298
 31
0.0
1001
AUTOCAD_POSTSCRIPT_FIGURE
1002
{
1000
PSFILL
1000
Grayscale
1000
Grayscale
1070
   100
1002
}
  0
LINE
  5
6BDCB
  8
YODOROGO
 10
27905.604341291921
 20
1900.5683489363
 30
0.0
 11
27937.604341291921
 21
1900.5683489363
 31
0.0
1001
AUTOCAD_POSTSCRIPT_FIGURE
1002
{
1000
PSFILL
1000
Grayscale
1000
Grayscale
1070
   100
1002
}
  0
LINE
  5
6BDCC
  8
YODOROGO
 10
27905.604341291921
 20
1939.749496429288
 30
0.0
 11
27905.604341291921
 21
1900.5683489363
 31
0.0
1001
AUTOCAD_POSTSCRIPT_FIGURE
1002
{
1000
PSFILL
1000
Grayscale
1000
Grayscale
1070
   100
1002
}
  0
LINE
  5
6BDCD
  8
YODOROGO
 10
27937.604341291921
 20
1939.749496429288
 30
0.0
 11
27905.604341291921
 21
1939.749496429288
 31
0.0
1001
AUTOCAD_POSTSCRIPT_FIGURE
1002
{
1000
PSFILL
1000
Grayscale
1000
Grayscale
1070
   100
1002
}
  0
LINE
  5
6BDCE
  8
YODOROGO
 10
27937.604341291921
 20
1955.7494964292871
 30
0.0
 11
27937.604341291921
 21
1939.749496429288
 31
0.0
1001
AUTOCAD_POSTSCRIPT_FIGURE
1002
{
1000
PSFILL
1000
Grayscale
1000
Grayscale
1070
   100
1002
}
  0
LINE
  5
6BDCF
  8
YODOROGO
 10
27905.604341291921
 20
1955.7494964292871
 30
0.0
 11
27937.604341291921
 21
1955.7494964292871
 31
0.0
1001
AUTOCAD_POSTSCRIPT_FIGURE
1002
{
1000
PSFILL
1000
Grayscale
1000
Grayscale
1070
   100
1002
}
  0
LINE
  5
6BDD0
  8
YODOROGO
 10
27905.604341291921
 20
1979.749496429288
 30
0.0
 11
27905.604341291921
 21
1955.7494964292871
 31
0.0
1001
AUTOCAD_POSTSCRIPT_FIGURE
1002
{
1000
PSFILL
1000
Grayscale
1000
Grayscale
1070
   100
1002
}
  0
LINE
  5
6BDD1
  8
YODOROGO
 10
27889.604341291921
 20
1979.749496429288
 30
0.0
 11
27905.604341291921
 21
1979.749496429288
 31
0.0
1001
AUTOCAD_POSTSCRIPT_FIGURE
1002
{
1000
PSFILL
1000
Grayscale
1000
Grayscale
1070
   100
1002
}
  0
LINE
  5
6BDD2
  8
YODOROGO
 10
27889.604341291921
 20
1955.7494964292871
 30
0.0
 11
27889.604341291921
 21
1979.749496429288
 31
0.0
1001
AUTOCAD_POSTSCRIPT_FIGURE
1002
{
1000
PSFILL
1000
Grayscale
1000
Grayscale
1070
   100
1002
}
  0
LINE
  5
6BDD3
  8
YODOROGO
 10
27865.604341291921
 20
1955.7494964292871
 30
0.0
 11
27889.604341291921
 21
1955.7494964292871
 31
0.0
1001
AUTOCAD_POSTSCRIPT_FIGURE
1002
{
1000
PSFILL
1000
Grayscale
1000
Grayscale
1070
   100
1002
}
  0
LINE
  5
6BDD4
  8
YODOROGO
 10
27865.604341291921
 20
1979.749496429288
 30
0.0
 11
27865.604341291921
 21
1955.7494964292871
 31
0.0
1001
AUTOCAD_POSTSCRIPT_FIGURE
1002
{
1000
PSFILL
1000
Grayscale
1000
Grayscale
1070
   100
1002
}
  0
LINE
  5
6BDD5
  8
YODOROGO
 10
27849.604341291921
 20
1979.749496429288
 30
0.0
 11
27865.604341291921
 21
1979.749496429288
 31
0.0
1001
AUTOCAD_POSTSCRIPT_FIGURE
1002
{
1000
PSFILL
1000
Grayscale
1000
Grayscale
1070
   100
1002
}
  0
LINE
  5
6BDD6
  8
YODOROGO
 10
27849.604341291921
 20
1955.7494964292871
 30
0.0
 11
27849.604341291921
 21
1979.749496429288
 31
0.0
1001
AUTOCAD_POSTSCRIPT_FIGURE
1002
{
1000
PSFILL
1000
Grayscale
1000
Grayscale
1070
   100
1002
}
  0
LINE
  5
6BDD7
  8
YODOROGO
 10
27817.604341291921
 20
1955.7494964292871
 30
0.0
 11
27849.604341291921
 21
1955.7494964292871
 31
0.0
1001
AUTOCAD_POSTSCRIPT_FIGURE
1002
{
1000
PSFILL
1000
Grayscale
1000
Grayscale
1070
   100
1002
}
  0
LINE
  5
6BDD8
  8
YODOROGO
 10
27817.604341291921
 20
1979.749496429288
 30
0.0
 11
27817.604341291921
 21
1955.7494964292871
 31
0.0
1001
AUTOCAD_POSTSCRIPT_FIGURE
1002
{
1000
PSFILL
1000
Grayscale
1000
Grayscale
1070
   100
1002
}
  0
LINE
  5
6BDD9
  8
YODOROGO
 10
27801.604341291921
 20
1979.749496429288
 30
0.0
 11
27817.604341291921
 21
1979.749496429288
 31
0.0
1001
AUTOCAD_POSTSCRIPT_FIGURE
1002
{
1000
PSFILL
1000
Grayscale
1000
Grayscale
1070
   100
1002
}
  0
LINE
  5
6BDDA
  8
YODOROGO
 10
27801.604341291921
 20
1955.7494964292871
 30
0.0
 11
27801.604341291921
 21
1979.749496429288
 31
0.0
1001
AUTOCAD_POSTSCRIPT_FIGURE
1002
{
1000
PSFILL
1000
Grayscale
1000
Grayscale
1070
   100
1002
}
  0
LINE
  5
6BDDB
  8
YODOROGO
 10
27777.604341291921
 20
1955.7494964292871
 30
0.0
 11
27801.604341291921
 21
1955.7494964292871
 31
0.0
1001
AUTOCAD_POSTSCRIPT_FIGURE
1002
{
1000
PSFILL
1000
Grayscale
1000
Grayscale
1070
   100
1002
}
  0
LINE
  5
6BDDC
  8
YODOROGO
 10
27777.604341291921
 20
1939.749496429288
 30
0.0
 11
27777.604341291921
 21
1955.7494964292871
 31
0.0
1001
AUTOCAD_POSTSCRIPT_FIGURE
1002
{
1000
PSFILL
1000
Grayscale
1000
Grayscale
1070
   100
1002
}
  0
LINE
  5
6BDDD
  8
YODOROGO
 10
27801.604341291921
 20
1939.749496429288
 30
0.0
 11
27777.604341291921
 21
1939.749496429288
 31
0.0
1001
AUTOCAD_POSTSCRIPT_FIGURE
1002
{
1000
PSFILL
1000
Grayscale
1000
Grayscale
1070
   100
1002
}
  0
LINE
  5
6BDDE
  8
YODOROGO
 10
27801.604341291921
 20
1914.7865807937051
 30
0.0
 11
27801.604341291921
 21
1939.749496429288
 31
0.0
1001
AUTOCAD_POSTSCRIPT_FIGURE
1002
{
1000
PSFILL
1000
Grayscale
1000
Grayscale
1070
   100
1002
}
  0
LINE
  5
6BDDF
  8
YODOROGO
 10
27777.604341291921
 20
1859.776747951671
 30
0.0
 11
27801.604341291921
 21
1914.7865807937051
 31
0.0
1001
AUTOCAD_POSTSCRIPT_FIGURE
1002
{
1000
PSFILL
1000
Grayscale
1000
Grayscale
1070
   100
1002
}
  0
LINE
  5
6BDE0
  8
YODOROGO
 10
27777.604341291921
 20
1843.776747951672
 30
0.0
 11
27777.604341291921
 21
1859.776747951671
 31
0.0
1001
AUTOCAD_POSTSCRIPT_FIGURE
1002
{
1000
PSFILL
1000
Grayscale
1000
Grayscale
1070
   100
1002
}
  0
LINE
  5
6BDE1
  8
YODOROGO
 10
28257.604341291921
 20
1867.749496429288
 30
0.0
 11
28401.60434129191
 21
1824.877625640306
 31
0.0
1001
AUTOCAD_POSTSCRIPT_FIGURE
1002
{
1000
PSFILL
1000
Grayscale
1000
Grayscale
1070
   100
1002
}
  0
LINE
  5
6BDE2
  8
YODOROGO
 10
28401.60434129191
 20
1752.877625640306
 30
0.0
 11
28257.604341291921
 21
1795.7494964292871
 31
0.0
1001
AUTOCAD_POSTSCRIPT_FIGURE
1002
{
1000
PSFILL
1000
Grayscale
1000
Grayscale
1070
   100
1002
}
  0
LINE
  5
6BDE3
  8
YODOROGO
 10
28401.60434129191
 20
1984.877625640306
 30
0.0
 11
28257.604341291921
 21
2027.749496429288
 31
0.0
1001
AUTOCAD_POSTSCRIPT_FIGURE
1002
{
1000
PSFILL
1000
Grayscale
1000
Grayscale
1070
   100
1002
}
  0
LINE
  5
6BDE4
  8
YODOROGO
 10
28257.604341291921
 20
1959.749496429288
 30
0.0
 11
28401.60434129191
 21
1916.8776256403071
 31
0.0
1001
AUTOCAD_POSTSCRIPT_FIGURE
1002
{
1000
PSFILL
1000
Grayscale
1000
Grayscale
1070
   100
1002
}
  0
LINE
  5
6BDE5
  8
YODOROGO
 10
28257.604341291921
 20
1795.7494964292871
 30
0.0
 11
28257.604341291921
 21
1867.749496429288
 31
0.0
1001
AUTOCAD_POSTSCRIPT_FIGURE
1002
{
1000
PSFILL
1000
Grayscale
1000
Grayscale
1070
   100
1002
}
  0
LINE
  5
6BDE6
  8
YODOROGO
 10
28257.604341291921
 20
2027.749496429288
 30
0.0
 11
28257.604341291921
 21
1959.749496429288
 31
0.0
1001
AUTOCAD_POSTSCRIPT_FIGURE
1002
{
1000
PSFILL
1000
Grayscale
1000
Grayscale
1070
   100
1002
}
  0
LINE
  5
6BDE7
  8
YODOROGO
 10
28080.236320206739
 20
1939.749496429288
 30
0.0
 11
28129.604341291921
 21
1747.7494964292871
 31
0.0
1001
AUTOCAD_POSTSCRIPT_FIGURE
1002
{
1000
PSFILL
1000
Grayscale
1000
Grayscale
1070
   100
1002
}
  0
LINE
  5
6BDE8
  8
YODOROGO
 10
27977.604341291921
 20
1939.749496429288
 30
0.0
 11
28080.236320206739
 21
1939.749496429288
 31
0.0
1001
AUTOCAD_POSTSCRIPT_FIGURE
1002
{
1000
PSFILL
1000
Grayscale
1000
Grayscale
1070
   100
1002
}
  0
LINE
  5
6BDE9
  8
YODOROGO
 10
27977.604341291921
 20
1955.7494964292871
 30
0.0
 11
27977.604341291921
 21
1939.749496429288
 31
0.0
1001
AUTOCAD_POSTSCRIPT_FIGURE
1002
{
1000
PSFILL
1000
Grayscale
1000
Grayscale
1070
   100
1002
}
  0
LINE
  5
6BDEA
  8
YODOROGO
 10
28076.60687851992
 20
1955.7494964292871
 30
0.0
 11
27977.604341291921
 21
1955.7494964292871
 31
0.0
1001
AUTOCAD_POSTSCRIPT_FIGURE
1002
{
1000
PSFILL
1000
Grayscale
1000
Grayscale
1070
   100
1002
}
  0
LINE
  5
6BDEB
  8
YODOROGO
 10
28071.162715989711
 20
1979.749496429288
 30
0.0
 11
28076.60687851992
 21
1955.7494964292871
 31
0.0
1001
AUTOCAD_POSTSCRIPT_FIGURE
1002
{
1000
PSFILL
1000
Grayscale
1000
Grayscale
1070
   100
1002
}
  0
LINE
  5
6BDEC
  8
YODOROGO
 10
28091.162715989711
 20
1979.749496429288
 30
0.0
 11
28071.162715989711
 21
1979.749496429288
 31
0.0
1001
AUTOCAD_POSTSCRIPT_FIGURE
1002
{
1000
PSFILL
1000
Grayscale
1000
Grayscale
1070
   100
1002
}
  0
LINE
  5
6BDED
  8
YODOROGO
 10
28095.806878519939
 20
1955.7494964292871
 30
0.0
 11
28091.162715989711
 21
1979.749496429288
 31
0.0
1001
AUTOCAD_POSTSCRIPT_FIGURE
1002
{
1000
PSFILL
1000
Grayscale
1000
Grayscale
1070
   100
1002
}
  0
LINE
  5
6BDEE
  8
YODOROGO
 10
28121.604341291921
 20
1955.7494964292871
 30
0.0
 11
28095.806878519939
 21
1955.7494964292871
 31
0.0
1001
AUTOCAD_POSTSCRIPT_FIGURE
1002
{
1000
PSFILL
1000
Grayscale
1000
Grayscale
1070
   100
1002
}
  0
LINE
  5
6BDEF
  8
YODOROGO
 10
28121.604341291921
 20
1979.749496429288
 30
0.0
 11
28121.604341291921
 21
1955.7494964292871
 31
0.0
1001
AUTOCAD_POSTSCRIPT_FIGURE
1002
{
1000
PSFILL
1000
Grayscale
1000
Grayscale
1070
   100
1002
}
  0
LINE
  5
6BDF0
  8
YODOROGO
 10
28137.604341291921
 20
1979.749496429288
 30
0.0
 11
28121.604341291921
 21
1979.749496429288
 31
0.0
1001
AUTOCAD_POSTSCRIPT_FIGURE
1002
{
1000
PSFILL
1000
Grayscale
1000
Grayscale
1070
   100
1002
}
  0
LINE
  5
6BDF1
  8
YODOROGO
 10
28137.604341291921
 20
1955.7494964292871
 30
0.0
 11
28137.604341291921
 21
1979.749496429288
 31
0.0
1001
AUTOCAD_POSTSCRIPT_FIGURE
1002
{
1000
PSFILL
1000
Grayscale
1000
Grayscale
1070
   100
1002
}
  0
LINE
  5
6BDF2
  8
YODOROGO
 10
28137.604341291921
 20
1939.749496429288
 30
0.0
 11
28137.604341291921
 21
1955.7494964292871
 31
0.0
1001
AUTOCAD_POSTSCRIPT_FIGURE
1002
{
1000
PSFILL
1000
Grayscale
1000
Grayscale
1070
   100
1002
}
  0
LINE
  5
6BDF3
  8
YODOROGO
 10
28098.902986873421
 20
1939.749496429288
 30
0.0
 11
28137.604341291921
 21
1939.749496429288
 31
0.0
1001
AUTOCAD_POSTSCRIPT_FIGURE
1002
{
1000
PSFILL
1000
Grayscale
1000
Grayscale
1070
   100
1002
}
  0
LINE
  5
6BDF4
  8
YODOROGO
 10
28137.604341291921
 20
1747.7494964292871
 30
0.0
 11
28098.902986873421
 21
1939.749496429288
 31
0.0
1001
AUTOCAD_POSTSCRIPT_FIGURE
1002
{
1000
PSFILL
1000
Grayscale
1000
Grayscale
1070
   100
1002
}
  0
LINE
  5
6BDF5
  8
YODOROGO
 10
28129.604341291921
 20
1747.7494964292871
 30
0.0
 11
28137.604341291921
 21
1747.7494964292871
 31
0.0
1001
AUTOCAD_POSTSCRIPT_FIGURE
1002
{
1000
PSFILL
1000
Grayscale
1000
Grayscale
1070
   100
1002
}
  0
LINE
  5
6BDF6
  8
YODOROGO
 10
28078.069219933801
 20
1775.7407762987939
 30
0.0
 11
27977.604341291921
 21
1747.7494964292871
 31
0.0
  0
LINE
  5
6BDF7
  8
YODOROGO
 10
28078.069219933801
 20
1798.6689795290731
 30
0.0
 11
28078.069219933801
 21
1775.7407762987939
 31
0.0
  0
LINE
  5
6BDF8
  8
YODOROGO
 10
28033.83678061287
 20
1786.816933133767
 30
0.0
 11
28078.069219933801
 21
1798.6689795290731
 31
0.0
  0
LINE
  5
6BDF9
  8
YODOROGO
 10
28033.83678061287
 20
1872.5683489363
 30
0.0
 11
28033.83678061287
 21
1786.816933133767
 31
0.0
  0
LINE
  5
6BDFA
  8
YODOROGO
 10
28078.069219933801
 20
1872.5683489363
 30
0.0
 11
28033.83678061287
 21
1872.5683489363
 31
0.0
  0
LINE
  5
6BDFB
  8
YODOROGO
 10
28078.069219933801
 20
1892.568348936298
 30
0.0
 11
28078.069219933801
 21
1872.5683489363
 31
0.0
  0
LINE
  5
6BDFC
  8
YODOROGO
 10
27977.604341291921
 20
1892.568348936298
 30
0.0
 11
28078.069219933801
 21
1892.568348936298
 31
0.0
  0
LINE
  5
6BDFD
  8
YODOROGO
 10
27977.604341291921
 20
1872.5683489363
 30
0.0
 11
27977.604341291921
 21
1892.568348936298
 31
0.0
  0
LINE
  5
6BDFE
  8
YODOROGO
 10
28021.836780612859
 20
1872.5683489363
 30
0.0
 11
27977.604341291921
 21
1872.5683489363
 31
0.0
  0
LINE
  5
6BDFF
  8
YODOROGO
 10
28021.836780612859
 20
1784.673339594317
 30
0.0
 11
28021.836780612859
 21
1872.5683489363
 31
0.0
  0
LINE
  5
6BE00
  8
YODOROGO
 10
27977.604341291921
 20
1771.749496429286
 30
0.0
 11
28021.836780612859
 21
1784.673339594317
 31
0.0
  0
LINE
  5
6BE01
  8
YODOROGO
 10
27977.604341291921
 20
1747.7494964292871
 30
0.0
 11
27977.604341291921
 21
1771.749496429286
 31
0.0
  0
LINE
  5
6BE02
  8
YODOROGO
 10
28001.604341291921
 20
1707.749496429288
 30
0.0
 11
28001.604341291921
 21
1683.7494964292871
 31
0.0
  0
LINE
  5
6BE04
  8
YODOROGO
 10
28017.604341291921
 20
1707.749496429288
 30
0.0
 11
28001.604341291921
 21
1707.749496429288
 31
0.0
  0
LINE
  5
6BE05
  8
YODOROGO
 10
28017.604341291921
 20
1683.7494964292871
 30
0.0
 11
28017.604341291921
 21
1707.749496429288
 31
0.0
  0
LINE
  5
6BE06
  8
YODOROGO
 10
28040.913204016899
 20
1683.7494964292871
 30
0.0
 11
28017.604341291921
 21
1683.7494964292871
 31
0.0
  0
LINE
  5
6BE07
  8
YODOROGO
 10
28001.604341291921
 20
1683.7494964292871
 30
0.0
 11
27977.604341291921
 21
1683.7494964292871
 31
0.0
  0
LINE
  5
6BE08
  8
YODOROGO
 10
28082.135520230921
 20
1707.749496429288
 30
0.0
 11
28098.135520230931
 21
1707.749496429288
 31
0.0
1001
AUTOCAD_POSTSCRIPT_FIGURE
1002
{
1000
PSFILL
1000
Grayscale
1000
Grayscale
1070
   100
1002
}
  0
LINE
  5
6BE09
  8
YODOROGO
 10
28401.60434129191
 20
1824.877625640306
 30
0.0
 11
28401.60434129191
 21
1752.877625640306
 31
0.0
1001
AUTOCAD_POSTSCRIPT_FIGURE
1002
{
1000
PSFILL
1000
Grayscale
1000
Grayscale
1070
   100
1002
}
  0
LINE
  5
6BE0A
  8
YODOROGO
 10
28401.60434129191
 20
1916.8776256403071
 30
0.0
 11
28401.60434129191
 21
1984.877625640306
 31
0.0
1001
AUTOCAD_POSTSCRIPT_FIGURE
1002
{
1000
PSFILL
1000
Grayscale
1000
Grayscale
1070
   100
1002
}
  0
LINE
  5
6BE0B
  8
YODOROGO
 10
28433.60434129191
 20
1819.749496429288
 30
0.0
 11
28433.60434129191
 21
1747.74949642929
 31
0.0
  0
LINE
  5
6BE0C
  8
YODOROGO
 10
28497.60434129191
 20
1707.749496429288
 30
0.0
 11
28433.60434129191
 21
1707.749496429288
 31
0.0
  0
LINE
  5
6BE0D
  8
YODOROGO
 10
28433.60434129191
 20
1747.74949642929
 30
0.0
 11
28585.604341291921
 21
1747.74949642929
 31
0.0
  0
LINE
  5
6BE0E
  8
YODOROGO
 10
28497.60434129191
 20
1867.749496429288
 30
0.0
 11
28433.60434129191
 21
1867.749496429288
 31
0.0
  0
LINE
  5
6BE0F
  8
YODOROGO
 10
28497.60434129191
 20
1923.7494964292871
 30
0.0
 11
28497.60434129191
 21
1867.749496429288
 31
0.0
  0
LINE
  5
6BE10
  8
YODOROGO
 10
28585.604341291921
 20
1987.749496429288
 30
0.0
 11
28585.604341291921
 21
2027.749496429288
 31
0.0
  0
LINE
  5
6BE11
  8
YODOROGO
 10
28433.60434129191
 20
1987.749496429288
 30
0.0
 11
28585.604341291921
 21
1987.749496429288
 31
0.0
  0
LINE
  5
6BE12
  8
YODOROGO
 10
28433.60434129191
 20
1867.749496429288
 30
0.0
 11
28433.60434129191
 21
1987.749496429288
 31
0.0
  0
LINE
  5
6BE13
  8
YODOROGO
 10
29001.60434129191
 20
2027.749496429288
 30
0.0
 11
29001.60434129191
 21
1619.749496429288
 31
0.0
  0
LINE
  5
6BE14
  8
YODOROGO
 10
29073.604341291921
 20
1579.749496429288
 30
0.0
 11
29073.604341291921
 21
2027.749496429288
 31
0.0
  0
LINE
  5
6BE15
  8
YODOROGO
 10
29261.604341291921
 20
1491.749496429286
 30
0.0
 11
29261.604341291921
 21
2007.749496429288
 31
0.0
  0
LINE
  5
6BE16
  8
YODOROGO
 10
29197.604341291921
 20
2007.749496429288
 30
0.0
 11
29197.604341291921
 21
1491.749496429286
 31
0.0
  0
LINE
  5
6BE17
  8
YODOROGO
 10
29385.604341291921
 20
2027.749496429288
 30
0.0
 11
29385.604341291921
 21
1427.749496429288
 31
0.0
  0
LINE
  5
6BE18
  8
YODOROGO
 10
29457.604341291921
 20
1427.749496429288
 30
0.0
 11
29457.604341291921
 21
2027.749496429288
 31
0.0
  0
LINE
  5
6BE19
  8
YODOROGO
 10
28657.60434129191
 20
1667.749496429288
 30
0.0
 11
28657.60434129191
 21
1747.74949642929
 31
0.0
  0
LINE
  5
6BE1A
  8
YODOROGO
 10
29885.604341291921
 20
1707.749496429288
 30
0.0
 11
29885.604341291921
 21
1667.749496429288
 31
0.0
  0
LINE
  5
6BE1B
  8
YODOROGO
 10
29885.604341291921
 20
1707.749496429288
 30
0.0
 11
29885.604341291921
 21
1667.749496429288
 31
0.0
  0
ARC
  5
6BE1C
  8
YODOROGO
 10
28906.911576186842
 20
1618.2178644422729
 30
0.0
 40
94.705151178741659
 50
274.0524416290711
 51
0.9266642149310712
  0
ARC
  5
6BE1D
  8
YODOROGO
 10
28909.18617071983
 20
1592.61072861044
 30
0.0
 40
164.92042356085511
 50
271.53512106537778
 51
355.52727750585058
  0
LINE
  5
6BE1E
  8
YODOROGO
 10
28913.604341291921
 20
1523.7494964292871
 30
0.0
 11
28913.604341291921
 21
1427.749496429288
 31
0.0
  0
LINE
  5
6BE1F
  8
YODOROGO
 10
28793.60434129191
 20
1667.749496429288
 30
0.0
 11
28657.60434129191
 21
1667.749496429288
 31
0.0
  0
LINE
  5
6BE20
  8
YODOROGO
 10
28793.60434129191
 20
1603.7494964292889
 30
0.0
 11
28793.60434129191
 21
1667.749496429288
 31
0.0
  0
LINE
  5
6BE21
  8
YODOROGO
 10
28657.60434129191
 20
1603.7494964292889
 30
0.0
 11
28793.60434129191
 21
1603.7494964292889
 31
0.0
  0
LINE
  5
6BE22
  8
YODOROGO
 10
28657.60434129191
 20
1523.7494964292871
 30
0.0
 11
28657.60434129191
 21
1603.7494964292889
 31
0.0
  0
LINE
  5
6BE23
  8
YODOROGO
 10
28793.60434129191
 20
1523.7494964292871
 30
0.0
 11
28657.60434129191
 21
1523.7494964292871
 31
0.0
  0
LINE
  5
6BE24
  8
YODOROGO
 10
28793.60434129191
 20
1427.749496429288
 30
0.0
 11
28793.60434129191
 21
1523.7494964292871
 31
0.0
  0
LINE
  5
6BE25
  8
YODOROGO
 10
29197.604341291921
 20
1491.749496429286
 30
0.0
 11
29261.604341291921
 21
1491.749496429286
 31
0.0
  0
LINE
  5
6BE26
  8
YODOROGO
 10
29385.604341291921
 20
1427.749496429288
 30
0.0
 11
29457.604341291921
 21
1427.749496429288
 31
0.0
  0
LINE
  5
6BE27
  8
YODOROGO
 10
29737.604341291921
 20
1528.4414521705639
 30
0.0
 11
29737.604341291921
 21
1427.749496429288
 31
0.0
  0
LINE
  5
6BE28
  8
YODOROGO
 10
29617.604341291921
 20
1427.749496429288
 30
0.0
 11
29737.604341291921
 21
1528.4414521705639
 31
0.0
  0
LINE
  5
6BE29
  8
YODOROGO
 10
29617.604341291921
 20
1547.749496429288
 30
0.0
 11
29617.604341291921
 21
1427.749496429288
 31
0.0
  0
LINE
  5
6BE2A
  8
YODOROGO
 10
29712.944628699461
 20
1627.749496429288
 30
0.0
 11
29617.604341291921
 21
1547.749496429288
 31
0.0
  0
LINE
  5
6BE2B
  8
YODOROGO
 10
29617.604341291921
 20
1627.749496429288
 30
0.0
 11
29712.944628699461
 21
1627.749496429288
 31
0.0
  0
LINE
  5
6BE2C
  8
YODOROGO
 10
29617.604341291921
 20
1667.749496429288
 30
0.0
 11
29617.604341291921
 21
1627.749496429288
 31
0.0
  0
LINE
  5
6BE2D
  8
YODOROGO
 10
29885.604341291921
 20
1667.749496429288
 30
0.0
 11
29617.604341291921
 21
1667.749496429288
 31
0.0
  0
LINE
  5
6BE2E
  8
YODOROGO
 10
29917.604341291921
 20
1627.749496429288
 30
0.0
 11
29777.604341291921
 21
1627.749496429288
 31
0.0
  0
LINE
  5
6BE2F
  8
YODOROGO
 10
29777.604341291921
 20
1562.005437417657
 30
0.0
 11
29771.40987298531
 21
1556.807661346234
 31
0.0
  0
LINE
  5
6BE30
  8
YODOROGO
 10
29777.604341291921
 20
1627.749496429288
 30
0.0
 11
29777.604341291921
 21
1562.005437417657
 31
0.0
  0
LINE
  5
6BE31
  8
YODOROGO
 10
29737.604341291921
 20
1528.4414521705639
 30
0.0
 11
29737.604341291921
 21
1427.749496429288
 31
0.0
  0
LINE
  5
6BE32
  8
YODOROGO
 10
29617.604341291921
 20
1427.749496429288
 30
0.0
 11
29737.604341291921
 21
1528.4414521705639
 31
0.0
  0
LINE
  5
6BE33
  8
YODOROGO
 10
29617.604341291921
 20
1547.749496429288
 30
0.0
 11
29617.604341291921
 21
1427.749496429288
 31
0.0
  0
LINE
  5
6BE34
  8
YODOROGO
 10
29712.944628699461
 20
1627.749496429288
 30
0.0
 11
29617.604341291921
 21
1547.749496429288
 31
0.0
  0
LINE
  5
6BE35
  8
YODOROGO
 10
29617.604341291921
 20
1627.749496429288
 30
0.0
 11
29712.944628699461
 21
1627.749496429288
 31
0.0
  0
LINE
  5
6BE36
  8
YODOROGO
 10
29617.604341291921
 20
1667.749496429288
 30
0.0
 11
29617.604341291921
 21
1627.749496429288
 31
0.0
  0
LINE
  5
6BE37
  8
YODOROGO
 10
29885.604341291921
 20
1667.749496429288
 30
0.0
 11
29617.604341291921
 21
1667.749496429288
 31
0.0
  0
LINE
  5
6BE38
  8
YODOROGO
 10
28793.60434129191
 20
1747.74949642929
 30
0.0
 11
28793.60434129191
 21
1819.749496429288
 31
0.0
  0
LINE
  5
6BE39
  8
YODOROGO
 10
28657.60434129191
 20
1747.74949642929
 30
0.0
 11
28793.60434129191
 21
1747.74949642929
 31
0.0
  0
LINE
  5
6BE3A
  8
YODOROGO
 10
28729.604341291921
 20
1867.749496429288
 30
0.0
 11
28729.604341291921
 21
1923.7494964292871
 31
0.0
  0
LINE
  5
6BE3B
  8
YODOROGO
 10
28793.60434129191
 20
1867.749496429288
 30
0.0
 11
28729.604341291921
 21
1867.749496429288
 31
0.0
  0
LINE
  5
6BE3C
  8
YODOROGO
 10
28793.60434129191
 20
1947.749496429288
 30
0.0
 11
28793.60434129191
 21
1867.749496429288
 31
0.0
  0
ARC
  5
6BE3D
  8
YODOROGO
 10
28753.60434129191
 20
1947.749496429288
 30
0.0
 40
40.0
 50
0.0
 51
90.0
  0
LINE
  5
6BE3E
  8
YODOROGO
 10
28657.604341291921
 20
1987.749496429288
 30
0.0
 11
28753.60434129191
 21
1987.749496429288
 31
0.0
  0
LINE
  5
6BE3F
  8
YODOROGO
 10
28657.604341291921
 20
2027.749496429288
 30
0.0
 11
28657.604341291921
 21
1987.749496429288
 31
0.0
  0
LINE
  5
6BE40
  8
YODOROGO
 10
29073.604341291921
 20
2027.749496429288
 30
0.0
 11
29001.60434129191
 21
2027.749496429288
 31
0.0
  0
LINE
  5
6BE41
  8
YODOROGO
 10
29261.604341291921
 20
2007.749496429288
 30
0.0
 11
29197.604341291921
 21
2007.749496429288
 31
0.0
  0
LINE
  5
6BE42
  8
YODOROGO
 10
29457.604341291921
 20
2027.749496429288
 30
0.0
 11
29385.604341291921
 21
2027.749496429288
 31
0.0
  0
LINE
  5
6BE43
  8
YODOROGO
 10
29673.604341291921
 20
1707.749496429288
 30
0.0
 11
29673.604341291921
 21
1771.749496429288
 31
0.0
1001
AUTOCAD_POSTSCRIPT_FIGURE
1002
{
1000
PSFILL
1000
Grayscale
1000
Grayscale
1070
    25
1002
}
  0
LINE
  5
6BE44
  8
YODOROGO
 10
29617.604341291921
 20
1707.749496429288
 30
0.0
 11
29673.604341291921
 21
1707.749496429288
 31
0.0
1001
AUTOCAD_POSTSCRIPT_FIGURE
1002
{
1000
PSFILL
1000
Grayscale
1000
Grayscale
1070
    25
1002
}
  0
LINE
  5
6BE45
  8
YODOROGO
 10
29617.604341291921
 20
1819.749496429288
 30
0.0
 11
29617.604341291921
 21
1707.749496429288
 31
0.0
1001
AUTOCAD_POSTSCRIPT_FIGURE
1002
{
1000
PSFILL
1000
Grayscale
1000
Grayscale
1070
    25
1002
}
  0
LINE
  5
6BE46
  8
YODOROGO
 10
29765.604341291921
 20
1819.749496429288
 30
0.0
 11
29617.604341291921
 21
1819.749496429288
 31
0.0
1001
AUTOCAD_POSTSCRIPT_FIGURE
1002
{
1000
PSFILL
1000
Grayscale
1000
Grayscale
1070
    25
1002
}
  0
LINE
  5
6BE47
  8
YODOROGO
 10
29765.604341291921
 20
1859.749496429288
 30
0.0
 11
29765.604341291921
 21
1819.749496429288
 31
0.0
1001
AUTOCAD_POSTSCRIPT_FIGURE
1002
{
1000
PSFILL
1000
Grayscale
1000
Grayscale
1070
    25
1002
}
  0
LINE
  5
6BE48
  8
YODOROGO
 10
29617.604341291921
 20
1859.749496429288
 30
0.0
 11
29765.604341291921
 21
1859.749496429288
 31
0.0
1001
AUTOCAD_POSTSCRIPT_FIGURE
1002
{
1000
PSFILL
1000
Grayscale
1000
Grayscale
1070
    25
1002
}
  0
LINE
  5
6BE49
  8
YODOROGO
 10
29617.604341291921
 20
1907.7494964292871
 30
0.0
 11
29617.604341291921
 21
1859.749496429288
 31
0.0
1001
AUTOCAD_POSTSCRIPT_FIGURE
1002
{
1000
PSFILL
1000
Grayscale
1000
Grayscale
1070
    25
1002
}
  0
LINE
  5
6BE4A
  8
YODOROGO
 10
29765.604341291921
 20
1907.7494964292871
 30
0.0
 11
29617.604341291921
 21
1907.7494964292871
 31
0.0
1001
AUTOCAD_POSTSCRIPT_FIGURE
1002
{
1000
PSFILL
1000
Grayscale
1000
Grayscale
1070
    25
1002
}
  0
LINE
  5
6BE4B
  8
YODOROGO
 10
29765.604341291921
 20
1947.749496429288
 30
0.0
 11
29765.604341291921
 21
1907.7494964292871
 31
0.0
1001
AUTOCAD_POSTSCRIPT_FIGURE
1002
{
1000
PSFILL
1000
Grayscale
1000
Grayscale
1070
    25
1002
}
  0
LINE
  5
6BE4C
  8
YODOROGO
 10
29617.604341291921
 20
1947.749496429288
 30
0.0
 11
29765.604341291921
 21
1947.749496429288
 31
0.0
1001
AUTOCAD_POSTSCRIPT_FIGURE
1002
{
1000
PSFILL
1000
Grayscale
1000
Grayscale
1070
    25
1002
}
  0
LINE
  5
6BE4D
  8
YODOROGO
 10
29617.604341291921
 20
2027.749496429288
 30
0.0
 11
29617.604341291921
 21
1947.749496429288
 31
0.0
1001
AUTOCAD_POSTSCRIPT_FIGURE
1002
{
1000
PSFILL
1000
Grayscale
1000
Grayscale
1070
    25
1002
}
  0
LINE
  5
6BE4E
  8
YODOROGO
 10
29665.604341291921
 20
2027.749496429288
 30
0.0
 11
29617.604341291921
 21
2027.749496429288
 31
0.0
1001
AUTOCAD_POSTSCRIPT_FIGURE
1002
{
1000
PSFILL
1000
Grayscale
1000
Grayscale
1070
    25
1002
}
  0
LINE
  5
6BE4F
  8
YODOROGO
 10
29665.604341291921
 20
1995.7494964292871
 30
0.0
 11
29665.604341291921
 21
2027.749496429288
 31
0.0
1001
AUTOCAD_POSTSCRIPT_FIGURE
1002
{
1000
PSFILL
1000
Grayscale
1000
Grayscale
1070
    25
1002
}
  0
LINE
  5
6BE50
  8
YODOROGO
 10
29765.604341291921
 20
1995.7494964292871
 30
0.0
 11
29665.604341291921
 21
1995.7494964292871
 31
0.0
1001
AUTOCAD_POSTSCRIPT_FIGURE
1002
{
1000
PSFILL
1000
Grayscale
1000
Grayscale
1070
    25
1002
}
  0
LINE
  5
6BE51
  8
YODOROGO
 10
29765.604341291921
 20
2027.749496429288
 30
0.0
 11
29765.604341291921
 21
1995.7494964292871
 31
0.0
1001
AUTOCAD_POSTSCRIPT_FIGURE
1002
{
1000
PSFILL
1000
Grayscale
1000
Grayscale
1070
    25
1002
}
  0
LINE
  5
6BE52
  8
YODOROGO
 10
29829.604341291921
 20
2027.749496429288
 30
0.0
 11
29765.604341291921
 21
2027.749496429288
 31
0.0
1001
AUTOCAD_POSTSCRIPT_FIGURE
1002
{
1000
PSFILL
1000
Grayscale
1000
Grayscale
1070
    25
1002
}
  0
LINE
  5
6BE53
  8
YODOROGO
 10
29829.604341291921
 20
1995.7494964292871
 30
0.0
 11
29829.604341291921
 21
2027.749496429288
 31
0.0
1001
AUTOCAD_POSTSCRIPT_FIGURE
1002
{
1000
PSFILL
1000
Grayscale
1000
Grayscale
1070
    25
1002
}
  0
LINE
  5
6BE54
  8
YODOROGO
 10
29829.604341291921
 20
1907.7494964292871
 30
0.0
 11
29829.604341291921
 21
1947.749496429288
 31
0.0
1001
AUTOCAD_POSTSCRIPT_FIGURE
1002
{
1000
PSFILL
1000
Grayscale
1000
Grayscale
1070
    25
1002
}
  0
LINE
  5
6BE55
  8
YODOROGO
 10
29829.604341291921
 20
1819.749496429288
 30
0.0
 11
29829.604341291921
 21
1859.749496429288
 31
0.0
1001
AUTOCAD_POSTSCRIPT_FIGURE
1002
{
1000
PSFILL
1000
Grayscale
1000
Grayscale
1070
    25
1002
}
  0
LINE
  5
6BE56
  8
YODOROGO
 10
29921.60434129191
 20
1771.749496429288
 30
0.0
 11
29921.60434129191
 21
1707.749496429288
 31
0.0
1001
AUTOCAD_POSTSCRIPT_FIGURE
1002
{
1000
PSFILL
1000
Grayscale
1000
Grayscale
1070
    25
1002
}
  0
LINE
  5
6BE57
  8
YODOROGO
 10
29829.604341291921
 20
1771.749496429288
 30
0.0
 11
29921.60434129191
 21
1771.749496429288
 31
0.0
1001
AUTOCAD_POSTSCRIPT_FIGURE
1002
{
1000
PSFILL
1000
Grayscale
1000
Grayscale
1070
    25
1002
}
  0
LINE
  5
6BE58
  8
YODOROGO
 10
29829.604341291921
 20
1707.749496429288
 30
0.0
 11
29829.604341291921
 21
1771.749496429288
 31
0.0
1001
AUTOCAD_POSTSCRIPT_FIGURE
1002
{
1000
PSFILL
1000
Grayscale
1000
Grayscale
1070
    25
1002
}
  0
LINE
  5
6BE59
  8
YODOROGO
 10
29765.604341291921
 20
1707.749496429288
 30
0.0
 11
29829.604341291921
 21
1707.749496429288
 31
0.0
1001
AUTOCAD_POSTSCRIPT_FIGURE
1002
{
1000
PSFILL
1000
Grayscale
1000
Grayscale
1070
    25
1002
}
  0
LINE
  5
6BE5A
  8
YODOROGO
 10
29765.604341291921
 20
1771.749496429288
 30
0.0
 11
29765.604341291921
 21
1707.749496429288
 31
0.0
1001
AUTOCAD_POSTSCRIPT_FIGURE
1002
{
1000
PSFILL
1000
Grayscale
1000
Grayscale
1070
    25
1002
}
  0
LINE
  5
6BE5B
  8
YODOROGO
 10
29673.604341291921
 20
1771.749496429288
 30
0.0
 11
29765.604341291921
 21
1771.749496429288
 31
0.0
1001
AUTOCAD_POSTSCRIPT_FIGURE
1002
{
1000
PSFILL
1000
Grayscale
1000
Grayscale
1070
    25
1002
}
  0
ARC
  5
6BE5C
  8
YODOROGO
 10
31059.517893357912
 20
1602.6807375155761
 30
0.0
 40
178.22128111072149
 50
281.02627495425361
 51
357.77113575573799
  0
LINE
  5
6BE5D
  8
YODOROGO
 10
31413.604341291921
 20
1907.7494964292871
 30
0.0
 11
31165.604341291921
 21
1907.7494964292871
 31
0.0
  0
LINE
  5
6BE5E
  8
YODOROGO
 10
31413.604341291921
 20
2027.749496429288
 30
0.0
 11
31165.604341291921
 21
2027.749496429288
 31
0.0
  0
LINE
  5
6BE5F
  8
YODOROGO
 10
31165.604341291921
 20
1963.7494964292871
 30
0.0
 11
31413.604341291921
 21
1963.7494964292871
 31
0.0
  0
LINE
  5
6BE60
  8
YODOROGO
 10
30791.604341291921
 20
1563.7494964292871
 30
0.0
 11
30791.604341291921
 21
1755.7494964292871
 31
0.0
  0
LINE
  5
6BE61
  8
YODOROGO
 10
30763.604341291921
 20
1691.7494964292889
 30
0.0
 11
30763.604341291921
 21
1563.7494964292871
 31
0.0
  0
LINE
  5
6BE62
  8
YODOROGO
 10
30723.604341291921
 20
1491.7494964292889
 30
0.0
 11
30723.604341291921
 21
1691.7494964292889
 31
0.0
  0
LINE
  5
6BE63
  8
YODOROGO
 10
30899.604341291932
 20
1691.7494964292889
 30
0.0
 11
30899.604341291932
 21
1491.7494964292889
 31
0.0
  0
LINE
  5
6BE64
  8
YODOROGO
 10
30859.604341291932
 20
1563.7494964292871
 30
0.0
 11
30859.604341291932
 21
1691.7494964292889
 31
0.0
  0
LINE
  5
6BE65
  8
YODOROGO
 10
30831.604341291921
 20
1755.7494964292871
 30
0.0
 11
30831.604341291921
 21
1563.7494964292871
 31
0.0
  0
LINE
  5
6BE66
  8
YODOROGO
 10
30973.604341291921
 20
2027.749496429288
 30
0.0
 11
30973.604341291921
 21
1467.749496429288
 31
0.0
  0
LINE
  5
6BE67
  8
YODOROGO
 10
30645.604341291921
 20
1427.749496429288
 30
0.0
 11
30645.604341291921
 21
2027.749496429288
 31
0.0
  0
LINE
  5
6BE68
  8
YODOROGO
 10
30697.604341291932
 20
1963.7494964292871
 30
0.0
 11
30697.604341291932
 21
1427.749496429288
 31
0.0
  0
LINE
  5
6BE69
  8
YODOROGO
 10
30925.604341291921
 20
1547.749496429288
 30
0.0
 11
30925.604341291921
 21
1963.7494964292871
 31
0.0
  0
LINE
  5
6BE6A
  8
YODOROGO
 10
30381.604341291932
 20
1627.749496429288
 30
0.0
 11
30381.604341291932
 21
1679.749496429288
 31
0.0
  0
LINE
  5
6BE6B
  8
YODOROGO
 10
30617.604341291921
 20
1679.749496429288
 30
0.0
 11
30617.604341291921
 21
1627.749496429288
 31
0.0
  0
LINE
  5
6BE6C
  8
YODOROGO
 10
31165.604341291921
 20
1907.7494964292871
 30
0.0
 11
31165.604341291921
 21
1635.7494964292871
 31
0.0
  0
LINE
  5
6BE6D
  8
YODOROGO
 10
29949.604341291921
 20
1667.749496429288
 30
0.0
 11
29949.604341291921
 21
1707.749496429288
 31
0.0
  0
LINE
  5
6BE6E
  8
YODOROGO
 10
29949.604341291921
 20
1667.749496429288
 30
0.0
 11
29949.604341291921
 21
1707.749496429288
 31
0.0
  0
ARC
  5
6BE6F
  8
YODOROGO
 10
30537.604341291921
 20
1507.749496429288
 30
0.0
 40
80.0
 50
270.0
 51
0.0
  0
LINE
  5
6BE70
  8
YODOROGO
 10
30569.604341291921
 20
1599.749496429288
 30
0.0
 11
30617.604341291921
 21
1599.749496429288
 31
0.0
  0
LINE
  5
6BE71
  8
YODOROGO
 10
30617.604341291921
 20
1627.749496429288
 30
0.0
 11
30529.604341291932
 21
1627.749496429288
 31
0.0
  0
LINE
  5
6BE72
  8
YODOROGO
 10
30217.604341291921
 20
1667.749496429288
 30
0.0
 11
29949.604341291921
 21
1667.749496429288
 31
0.0
  0
LINE
  5
6BE73
  8
YODOROGO
 10
30217.604341291921
 20
1627.749496429288
 30
0.0
 11
30217.604341291921
 21
1667.749496429288
 31
0.0
  0
LINE
  5
6BE74
  8
YODOROGO
 10
30017.604341291921
 20
1627.749496429288
 30
0.0
 11
30217.604341291921
 21
1627.749496429288
 31
0.0
  0
ARC
  5
6BE75
  8
YODOROGO
 10
30230.058828701371
 20
1868.8857149529019
 30
0.0
 40
321.37763628522828
 50
228.6181454618993
 51
245.660289248906
  0
LINE
  5
6BE76
  8
YODOROGO
 10
30105.604341291921
 20
1603.7494964292889
 30
0.0
 11
30097.604341291961
 21
1576.0728158699001
 31
0.0
  0
LINE
  5
6BE77
  8
YODOROGO
 10
30189.604341291921
 20
1603.7494964292889
 30
0.0
 11
30105.604341291921
 21
1603.7494964292889
 31
0.0
  0
LINE
  5
6BE78
  8
YODOROGO
 10
30177.604341291921
 20
1551.817722473427
 30
0.0
 11
30189.604341291921
 21
1603.7494964292889
 31
0.0
  0
ARC
  5
6BE79
  8
YODOROGO
 10
30230.058828700461
 20
1868.8857149530029
 30
0.0
 40
321.37763628529092
 50
260.60629297969928
 51
267.77903556555862
  0
LINE
  5
6BE7A
  8
YODOROGO
 10
30217.604341291921
 20
1427.749496429285
 30
0.0
 11
30217.604341291921
 21
1547.749496429288
 31
0.0
  0
LINE
  5
6BE7B
  8
YODOROGO
 10
29937.604341291932
 20
1481.339334915511
 30
0.0
 11
29937.604341291921
 21
1594.531090531141
 31
0.0
  0
LINE
  5
6BE7C
  8
YODOROGO
 10
30217.604341291921
 20
1667.749496429288
 30
0.0
 11
29949.604341291921
 21
1667.749496429288
 31
0.0
  0
LINE
  5
6BE7D
  8
YODOROGO
 10
30217.604341291921
 20
1627.749496429288
 30
0.0
 11
30217.604341291921
 21
1667.749496429288
 31
0.0
  0
LINE
  5
6BE7E
  8
YODOROGO
 10
30017.604341291921
 20
1627.749496429288
 30
0.0
 11
30217.604341291921
 21
1627.749496429288
 31
0.0
  0
ARC
  5
6BE7F
  8
YODOROGO
 10
30230.058828701371
 20
1868.8857149529019
 30
0.0
 40
321.37763628522828
 50
228.6181454618993
 51
245.660289248906
  0
LINE
  5
6BE80
  8
YODOROGO
 10
30105.604341291921
 20
1603.7494964292889
 30
0.0
 11
30097.604341291961
 21
1576.0728158699001
 31
0.0
  0
LINE
  5
6BE81
  8
YODOROGO
 10
30189.604341291921
 20
1603.7494964292889
 30
0.0
 11
30105.604341291921
 21
1603.7494964292889
 31
0.0
  0
LINE
  5
6BE82
  8
YODOROGO
 10
30177.604341291921
 20
1551.817722473427
 30
0.0
 11
30189.604341291921
 21
1603.7494964292889
 31
0.0
  0
ARC
  5
6BE83
  8
YODOROGO
 10
30230.058828700461
 20
1868.8857149530029
 30
0.0
 40
321.37763628529092
 50
260.60629297969928
 51
267.77903556555862
  0
LINE
  5
6BE84
  8
YODOROGO
 10
30217.604341291921
 20
1427.749496429285
 30
0.0
 11
30217.604341291921
 21
1547.749496429288
 31
0.0
  0
LINE
  5
6BE85
  8
YODOROGO
 10
29937.604341291932
 20
1481.339334915511
 30
0.0
 11
29937.604341291921
 21
1594.531090531141
 31
0.0
  0
LINE
  5
6BE86
  8
YODOROGO
 10
30433.604341291932
 20
1573.7494964292889
 30
0.0
 11
30381.604341291932
 21
1573.7494964292889
 31
0.0
  0
LINE
  5
6BE87
  8
YODOROGO
 10
30433.604341291932
 20
1601.749496429286
 30
0.0
 11
30433.604341291932
 21
1573.7494964292889
 31
0.0
  0
LINE
  5
6BE88
  8
YODOROGO
 10
30381.604341291932
 20
1601.749496429286
 30
0.0
 11
30433.604341291932
 21
1601.749496429286
 31
0.0
  0
LINE
  5
6BE89
  8
YODOROGO
 10
30381.604341291932
 20
1573.7494964292889
 30
0.0
 11
30381.604341291932
 21
1601.749496429286
 31
0.0
  0
LINE
  5
6BE8A
  8
YODOROGO
 10
30429.604341291921
 20
1577.7494964292871
 30
0.0
 11
30385.604341291932
 21
1577.7494964292871
 31
0.0
  0
LINE
  5
6BE8B
  8
YODOROGO
 10
30429.604341291921
 20
1597.749496429288
 30
0.0
 11
30429.604341291921
 21
1577.7494964292871
 31
0.0
  0
LINE
  5
6BE8C
  8
YODOROGO
 10
30385.604341291932
 20
1597.749496429288
 30
0.0
 11
30429.604341291921
 21
1597.749496429288
 31
0.0
  0
LINE
  5
6BE8D
  8
YODOROGO
 10
30385.604341291932
 20
1577.7494964292871
 30
0.0
 11
30385.604341291932
 21
1597.749496429288
 31
0.0
  0
LINE
  5
6BE8E
  8
YODOROGO
 10
30425.604341291921
 20
1581.749496429286
 30
0.0
 11
30389.604341291932
 21
1581.749496429286
 31
0.0
  0
LINE
  5
6BE8F
  8
YODOROGO
 10
30425.604341291932
 20
1593.7494964292889
 30
0.0
 11
30425.604341291921
 21
1581.749496429286
 31
0.0
  0
LINE
  5
6BE90
  8
YODOROGO
 10
30389.604341291932
 20
1593.7494964292889
 30
0.0
 11
30425.604341291932
 21
1593.7494964292889
 31
0.0
  0
LINE
  5
6BE91
  8
YODOROGO
 10
30389.604341291932
 20
1581.749496429286
 30
0.0
 11
30389.604341291932
 21
1593.7494964292889
 31
0.0
  0
LINE
  5
6BE92
  8
YODOROGO
 10
30421.604341291932
 20
1585.7494964292871
 30
0.0
 11
30393.604341291932
 21
1585.7494964292871
 31
0.0
  0
LINE
  5
6BE93
  8
YODOROGO
 10
30421.604341291932
 20
1589.749496429288
 30
0.0
 11
30421.604341291932
 21
1585.7494964292871
 31
0.0
  0
LINE
  5
6BE94
  8
YODOROGO
 10
30393.604341291932
 20
1589.749496429288
 30
0.0
 11
30421.604341291932
 21
1589.749496429288
 31
0.0
  0
LINE
  5
6BE95
  8
YODOROGO
 10
30393.604341291932
 20
1585.7494964292871
 30
0.0
 11
30393.604341291932
 21
1589.749496429288
 31
0.0
  0
LINE
  5
6BE96
  8
YODOROGO
 10
30465.604341291921
 20
1627.749496429288
 30
0.0
 11
30381.604341291932
 21
1627.749496429288
 31
0.0
  0
LINE
  5
6BE97
  8
YODOROGO
 10
30465.604341291921
 20
1547.749496429288
 30
0.0
 11
30465.604341291921
 21
1627.749496429288
 31
0.0
  0
LINE
  5
6BE98
  8
YODOROGO
 10
30381.604341291932
 20
1547.749496429288
 30
0.0
 11
30465.604341291921
 21
1547.749496429288
 31
0.0
  0
LINE
  5
6BE99
  8
YODOROGO
 10
30381.604341291932
 20
1427.749496429288
 30
0.0
 11
30381.604341291932
 21
1547.749496429288
 31
0.0
  0
LINE
  5
6BE9A
  8
YODOROGO
 10
30537.604341291921
 20
1427.749496429288
 30
0.0
 11
30381.604341291932
 21
1427.749496429288
 31
0.0
  0
LINE
  5
6BE9B
  8
YODOROGO
 10
30569.604341291921
 20
1571.749496429286
 30
0.0
 11
30569.604341291921
 21
1599.749496429288
 31
0.0
  0
ARC
  5
6BE9C
  8
YODOROGO
 10
30545.60434129191
 20
1571.749496429291
 30
0.0
 40
24.000000000003752
 50
270.0
 51
359.99999999998778
  0
LINE
  5
6BE9D
  8
YODOROGO
 10
30529.604341291932
 20
1547.749496429288
 30
0.0
 11
30545.60434129191
 21
1547.749496429288
 31
0.0
  0
LINE
  5
6BE9E
  8
YODOROGO
 10
30529.604341291932
 20
1627.749496429288
 30
0.0
 11
30529.604341291932
 21
1547.749496429288
 31
0.0
  0
LINE
  5
6BE9F
  8
YODOROGO
 10
30899.604341291932
 20
1547.749496429288
 30
0.0
 11
30925.604341291921
 21
1547.749496429288
 31
0.0
  0
LINE
  5
6BEA0
  8
YODOROGO
 10
30933.604341291921
 20
1427.749496429288
 30
0.0
 11
30899.604341291932
 21
1427.749496429288
 31
0.0
  0
LINE
  5
6BEA1
  8
YODOROGO
 10
30763.604341291921
 20
1563.7494964292871
 30
0.0
 11
30791.604341291921
 21
1563.7494964292871
 31
0.0
  0
LINE
  5
6BEA2
  8
YODOROGO
 10
30899.604341291932
 20
1491.7494964292889
 30
0.0
 11
30723.604341291921
 21
1491.7494964292889
 31
0.0
  0
LINE
  5
6BEA3
  8
YODOROGO
 10
30831.604341291921
 20
1563.7494964292871
 30
0.0
 11
30859.604341291932
 21
1563.7494964292871
 31
0.0
  0
LINE
  5
6BEA4
  8
YODOROGO
 10
30899.604341291932
 20
1427.749496429288
 30
0.0
 11
30899.604341291932
 21
1547.749496429288
 31
0.0
  0
LINE
  5
6BEA5
  8
YODOROGO
 10
30697.604341291932
 20
1427.749496429288
 30
0.0
 11
30645.604341291921
 21
1427.749496429288
 31
0.0
  0
LINE
  5
6BEA6
  8
YODOROGO
 10
30617.604341291921
 20
1599.749496429288
 30
0.0
 11
30617.604341291921
 21
1507.749496429288
 31
0.0
  0
ARC
  5
6BEA7
  8
YODOROGO
 10
30933.604341291921
 20
1467.749496429288
 30
0.0
 40
40.0
 50
270.0
 51
0.0
  0
LINE
  5
6BEA8
  8
YODOROGO
 10
31093.604341291921
 20
1523.7494964292871
 30
0.0
 11
31093.604341291921
 21
1427.749496429288
 31
0.0
  0
ARC
  5
6BEA9
  8
YODOROGO
 10
31039.721395566779
 20
1637.5313901097329
 30
0.0
 40
125.8955565916754
 50
295.34052442160112
 51
359.18902303418668
  0
LINE
  5
6BEAA
  8
YODOROGO
 10
30617.604341291921
 20
1859.749496429288
 30
0.0
 11
30497.604341291921
 21
1939.749496429288
 31
0.0
  0
LINE
  5
6BEAB
  8
YODOROGO
 10
30497.604341291921
 20
2027.749496429288
 30
0.0
 11
30617.604341291921
 21
1947.749496429288
 31
0.0
  0
LINE
  5
6BEAC
  8
YODOROGO
 10
30529.604341291932
 20
1679.749496429288
 30
0.0
 11
30617.604341291921
 21
1679.749496429288
 31
0.0
  0
LINE
  5
6BEAD
  8
YODOROGO
 10
30617.604341291921
 20
1735.7494964292871
 30
0.0
 11
30529.604341291932
 21
1735.7494964292871
 31
0.0
  0
LINE
  5
6BEAE
  8
YODOROGO
 10
30381.604341291932
 20
1795.7494964292871
 30
0.0
 11
30617.604341291921
 21
1795.7494964292871
 31
0.0
  0
LINE
  5
6BEAF
  8
YODOROGO
 10
30081.604341291932
 20
2027.749496429288
 30
0.0
 11
30021.604341291921
 21
2027.749496429288
 31
0.0
  0
LINE
  5
6BEB0
  8
YODOROGO
 10
30081.604341291932
 20
1827.7494964292871
 30
0.0
 11
30081.604341291932
 21
2027.749496429288
 31
0.0
  0
LINE
  5
6BEB1
  8
YODOROGO
 10
30021.604341291921
 20
1827.7494964292871
 30
0.0
 11
30081.604341291932
 21
1827.7494964292871
 31
0.0
  0
LINE
  5
6BEB2
  8
YODOROGO
 10
30021.604341291921
 20
2027.749496429288
 30
0.0
 11
30021.604341291921
 21
1827.7494964292871
 31
0.0
  0
LINE
  5
6BEB3
  8
YODOROGO
 10
30161.604341291932
 20
2027.749496429288
 30
0.0
 11
30217.604341291921
 21
2027.749496429288
 31
0.0
  0
LINE
  5
6BEB4
  8
YODOROGO
 10
30161.604341291932
 20
1811.7494964292889
 30
0.0
 11
30161.604341291932
 21
2027.749496429288
 31
0.0
  0
ARC
  5
6BEB5
  8
YODOROGO
 10
30121.604341291932
 20
1811.7494964292889
 30
0.0
 40
40.0
 50
270.0
 51
0.0
  0
LINE
  5
6BEB6
  8
YODOROGO
 10
30021.604341291921
 20
1771.749496429288
 30
0.0
 11
30121.604341291932
 21
1771.749496429288
 31
0.0
  0
LINE
  5
6BEB7
  8
YODOROGO
 10
30021.604341291921
 20
1707.749496429288
 30
0.0
 11
30021.604341291921
 21
1771.749496429288
 31
0.0
  0
LINE
  5
6BEB8
  8
YODOROGO
 10
30137.604341291921
 20
1707.749496429288
 30
0.0
 11
30021.604341291921
 21
1707.749496429288
 31
0.0
  0
ARC
  5
6BEB9
  8
YODOROGO
 10
30137.604341291921
 20
1787.749496429288
 30
0.0
 40
80.0
 50
270.0
 51
0.0
  0
LINE
  5
6BEBA
  8
YODOROGO
 10
30217.604341291921
 20
2027.749496429288
 30
0.0
 11
30217.604341291921
 21
1787.749496429288
 31
0.0
  0
LINE
  5
6BEBB
  8
YODOROGO
 10
29977.604341291921
 20
1947.749496429288
 30
0.0
 11
29977.604341291921
 21
1995.7494964292871
 31
0.0
1001
AUTOCAD_POSTSCRIPT_FIGURE
1002
{
1000
PSFILL
1000
Grayscale
1000
Grayscale
1070
    25
1002
}
  0
LINE
  5
6BEBC
  8
YODOROGO
 10
29977.604341291921
 20
1859.749496429288
 30
0.0
 11
29977.604341291921
 21
1907.7494964292871
 31
0.0
1001
AUTOCAD_POSTSCRIPT_FIGURE
1002
{
1000
PSFILL
1000
Grayscale
1000
Grayscale
1070
    25
1002
}
  0
LINE
  5
6BEBD
  8
YODOROGO
 10
29977.604341291921
 20
1707.749496429288
 30
0.0
 11
29977.604341291921
 21
1819.749496429288
 31
0.0
1001
AUTOCAD_POSTSCRIPT_FIGURE
1002
{
1000
PSFILL
1000
Grayscale
1000
Grayscale
1070
    25
1002
}
  0
LINE
  5
6BEBE
  8
YODOROGO
 10
30381.604341291932
 20
1907.7494964292871
 30
0.0
 11
30497.604341291921
 21
2027.749496429288
 31
0.0
  0
LINE
  5
6BEBF
  8
YODOROGO
 10
30381.604341291932
 20
1819.749496429288
 30
0.0
 11
30381.604341291932
 21
1907.7494964292871
 31
0.0
  0
LINE
  5
6BEC0
  8
YODOROGO
 10
30497.604341291921
 20
1939.749496429288
 30
0.0
 11
30381.604341291932
 21
1819.749496429288
 31
0.0
  0
LINE
  5
6BEC1
  8
YODOROGO
 10
30465.604341291921
 20
1679.749496429288
 30
0.0
 11
30465.604341291921
 21
1735.7494964292871
 31
0.0
  0
LINE
  5
6BEC2
  8
YODOROGO
 10
30381.604341291932
 20
1679.749496429288
 30
0.0
 11
30465.604341291921
 21
1679.749496429288
 31
0.0
  0
LINE
  5
6BEC3
  8
YODOROGO
 10
30529.604341291932
 20
1735.7494964292871
 30
0.0
 11
30529.604341291932
 21
1679.749496429288
 31
0.0
  0
LINE
  5
6BEC4
  8
YODOROGO
 10
30381.604341291932
 20
1735.7494964292871
 30
0.0
 11
30381.604341291932
 21
1795.7494964292871
 31
0.0
  0
LINE
  5
6BEC5
  8
YODOROGO
 10
30465.604341291921
 20
1735.7494964292871
 30
0.0
 11
30381.604341291932
 21
1735.7494964292871
 31
0.0
  0
LINE
  5
6BEC6
  8
YODOROGO
 10
30645.604341291921
 20
2027.749496429288
 30
0.0
 11
30973.604341291921
 21
2027.749496429288
 31
0.0
  0
LINE
  5
6BEC7
  8
YODOROGO
 10
30925.604341291921
 20
1963.7494964292871
 30
0.0
 11
30697.604341291932
 21
1963.7494964292871
 31
0.0
  0
LINE
  5
6BEC8
  8
YODOROGO
 10
30873.604341291921
 20
1819.749496429288
 30
0.0
 11
30899.604341291932
 21
1819.749496429288
 31
0.0
  0
LINE
  5
6BEC9
  8
YODOROGO
 10
30899.604341291932
 20
1939.749496429288
 30
0.0
 11
30873.604341291921
 21
1819.749496429288
 31
0.0
  0
LINE
  5
6BECA
  8
YODOROGO
 10
30851.604341291932
 20
1939.749496429288
 30
0.0
 11
30899.604341291932
 21
1939.749496429288
 31
0.0
  0
LINE
  5
6BECB
  8
YODOROGO
 10
30825.604341291921
 20
1819.749496429288
 30
0.0
 11
30851.604341291932
 21
1939.749496429288
 31
0.0
  0
LINE
  5
6BECC
  8
YODOROGO
 10
30797.604341291921
 20
1819.749496429288
 30
0.0
 11
30825.604341291921
 21
1819.749496429288
 31
0.0
  0
LINE
  5
6BECD
  8
YODOROGO
 10
30771.604341291932
 20
1939.749496429288
 30
0.0
 11
30797.604341291921
 21
1819.749496429288
 31
0.0
  0
LINE
  5
6BECE
  8
YODOROGO
 10
30723.604341291921
 20
1939.749496429288
 30
0.0
 11
30771.604341291932
 21
1939.749496429288
 31
0.0
  0
LINE
  5
6BECF
  8
YODOROGO
 10
30749.604341291921
 20
1819.749496429288
 30
0.0
 11
30723.604341291921
 21
1939.749496429288
 31
0.0
  0
LINE
  5
6BED0
  8
YODOROGO
 10
30723.604341291921
 20
1819.749496429288
 30
0.0
 11
30749.604341291921
 21
1819.749496429288
 31
0.0
  0
LINE
  5
6BED1
  8
YODOROGO
 10
30723.604341291921
 20
1755.7494964292871
 30
0.0
 11
30723.604341291921
 21
1819.749496429288
 31
0.0
  0
LINE
  5
6BED2
  8
YODOROGO
 10
30899.604341291932
 20
1755.7494964292871
 30
0.0
 11
30723.604341291921
 21
1755.7494964292871
 31
0.0
  0
LINE
  5
6BED3
  8
YODOROGO
 10
30899.604341291932
 20
1819.749496429288
 30
0.0
 11
30899.604341291932
 21
1755.7494964292871
 31
0.0
  0
LINE
  5
6BED4
  8
YODOROGO
 10
30617.604341291921
 20
1947.749496429288
 30
0.0
 11
30617.604341291921
 21
1859.749496429288
 31
0.0
  0
LINE
  5
6BED5
  8
YODOROGO
 10
30791.604341291921
 20
1755.7494964292871
 30
0.0
 11
30831.604341291921
 21
1755.7494964292871
 31
0.0
  0
LINE
  5
6BED6
  8
YODOROGO
 10
30723.604341291921
 20
1691.7494964292889
 30
0.0
 11
30763.604341291921
 21
1691.7494964292889
 31
0.0
  0
LINE
  5
6BED7
  8
YODOROGO
 10
30859.604341291932
 20
1691.7494964292889
 30
0.0
 11
30899.604341291932
 21
1691.7494964292889
 31
0.0
  0
LINE
  5
6BED8
  8
YODOROGO
 10
30617.604341291921
 20
1795.7494964292871
 30
0.0
 11
30617.604341291921
 21
1735.7494964292871
 31
0.0
  0
LINE
  5
6BED9
  8
YODOROGO
 10
31165.604341291921
 20
2027.749496429288
 30
0.0
 11
31165.604341291921
 21
1963.7494964292871
 31
0.0
  0
LINE
  5
6BEDA
  8
YODOROGO
 10
31533.604341291921
 20
1595.7494964292871
 30
0.0
 11
31533.60434129191
 21
1811.7494964292889
 31
0.0
  0
LINE
  5
6BEDB
  8
YODOROGO
 10
31461.60434129191
 20
1987.749496429288
 30
0.0
 11
31461.60434129191
 21
1635.7494964292871
 31
0.0
  0
LINE
  5
6BEDC
  8
YODOROGO
 10
31653.604341291921
 20
1427.749496429288
 30
0.0
 11
31653.60434129191
 21
1811.7494964292889
 31
0.0
  0
LINE
  5
6BEDD
  8
YODOROGO
 10
31589.604341291921
 20
1811.7494964292889
 30
0.0
 11
31589.604341291921
 21
1427.749496429288
 31
0.0
  0
LINE
  5
6BEDE
  8
YODOROGO
 10
31237.604341291921
 20
1595.7494964292871
 30
0.0
 11
31237.604341291921
 21
1707.749496429288
 31
0.0
  0
ARC
  5
6BEDF
  8
YODOROGO
 10
31353.914865116069
 20
1607.790351288558
 30
0.0
 40
180.09244857598861
 50
268.62849102169793
 51
356.16638457330322
  0
LINE
  5
6BEE0
  8
YODOROGO
 10
31349.604341291932
 20
1527.749496429288
 30
0.0
 11
31349.604341291932
 21
1427.749496429288
 31
0.0
  0
ARC
  5
6BEE1
  8
YODOROGO
 10
31351.518075724562
 20
1637.838957017655
 30
0.0
 40
110.1060929836122
 50
269.00410209305937
 51
358.91264455492478
  0
LINE
  5
6BEE2
  8
YODOROGO
 10
31589.604341291921
 20
1427.749496429288
 30
0.0
 11
31653.604341291921
 21
1427.749496429288
 31
0.0
  0
LINE
  5
6BEE3
  8
YODOROGO
 10
31533.60434129191
 20
1811.7494964292889
 30
0.0
 11
31589.604341291921
 21
1811.7494964292889
 31
0.0
  0
LINE
  5
6BEE4
  8
YODOROGO
 10
31621.604341291932
 20
1987.749496429288
 30
0.0
 11
31461.60434129191
 21
1987.749496429288
 31
0.0
  0
LINE
  5
6BEE5
  8
YODOROGO
 10
31533.60434129191
 20
1915.7494964292871
 30
0.0
 11
31661.604341291932
 21
1915.7494964292871
 31
0.0
  0
LINE
  5
6BEE6
  8
YODOROGO
 10
31701.604341291932
 20
1875.7494964292871
 30
0.0
 11
31533.60434129191
 21
1875.7494964292871
 31
0.0
  0
LINE
  5
6BEE7
  8
YODOROGO
 10
31237.604341291921
 20
1779.749496429288
 30
0.0
 11
31349.604341291932
 21
1779.749496429288
 31
0.0
  0
LINE
  5
6BEE8
  8
YODOROGO
 10
31237.604341291921
 20
1835.7494964292871
 30
0.0
 11
31237.604341291921
 21
1779.749496429288
 31
0.0
  0
LINE
  5
6BEE9
  8
YODOROGO
 10
31349.604341291932
 20
1835.7494964292871
 30
0.0
 11
31237.604341291921
 21
1835.7494964292871
 31
0.0
  0
LINE
  5
6BEEA
  8
YODOROGO
 10
31349.604341291932
 20
1779.749496429288
 30
0.0
 11
31349.604341291932
 21
1835.7494964292871
 31
0.0
  0
LINE
  5
6BEEB
  8
YODOROGO
 10
31533.60434129191
 20
1875.7494964292871
 30
0.0
 11
31533.60434129191
 21
1915.7494964292871
 31
0.0
  0
LINE
  5
6BEEC
  8
YODOROGO
 10
31413.604341291921
 20
1707.749496429288
 30
0.0
 11
31413.604341291921
 21
1907.7494964292871
 31
0.0
  0
LINE
  5
6BEED
  8
YODOROGO
 10
31237.604341291921
 20
1707.749496429288
 30
0.0
 11
31413.604341291921
 21
1707.749496429288
 31
0.0
  0
LINE
  5
6BEEE
  8
YODOROGO
 10
31413.604341291921
 20
1963.7494964292871
 30
0.0
 11
31413.604341291921
 21
2027.749496429288
 31
0.0
  0
ARC
  5
6BEEF
  8
YODOROGO
 10
31621.604341291932
 20
2003.749496429285
 30
0.0
 40
15.999999999994539
 50
270.0
 51
0.0000000000081422
  0
LINE
  5
6BEF0
  8
YODOROGO
 10
31637.604341291921
 20
2027.749496429288
 30
0.0
 11
31637.604341291921
 21
2003.7494964292871
 31
0.0
  0
LINE
  5
6BEF1
  8
YODOROGO
 10
31701.604341291932
 20
2027.749496429288
 30
0.0
 11
31637.604341291921
 21
2027.749496429288
 31
0.0
  0
LINE
  5
6BEF2
  8
YODOROGO
 10
31701.604341291932
 20
1955.7494964292871
 30
0.0
 11
31701.604341291932
 21
2027.749496429288
 31
0.0
  0
ARC
  5
6BEF3
  8
YODOROGO
 10
31661.604341291932
 20
1955.7494964292871
 30
0.0
 40
40.0
 50
270.0
 51
0.0
  0
LINE
  5
6BEF4
  8
YODOROGO
 10
31701.604341291932
 20
1811.7494964292889
 30
0.0
 11
31701.604341291932
 21
1875.7494964292871
 31
0.0
  0
LINE
  5
6BEF5
  8
YODOROGO
 10
31653.60434129191
 20
1811.7494964292889
 30
0.0
 11
31701.604341291932
 21
1811.7494964292889
 31
0.0
  0
LINE
  5
6BEF7
  8
SUNPOU
 10
22546.000000000018
 20
21298.1215003613
 30
0.0
 11
22516.000000000018
 21
21298.1215003613
 31
0.0
  0
LINE
  5
6BEF9
  8
SUNPOU
 10
22511.0
 20
20898.121500361289
 30
0.0
 11
22481.0
 21
20898.121500361289
 31
0.0
  0
LINE
  5
6BEFB
  8
SUNPOU
 10
22626.000000000018
 20
20898.121500361289
 30
0.0
 11
22656.000000000018
 21
20898.121500361289
 31
0.0
  0
LINE
  5
6BEFD
  8
SUNPOU
 10
11086.000000000009
 20
21298.1215003613
 30
0.0
 11
11116.000000000009
 21
21298.1215003613
 31
0.0
  0
LINE
  5
6BEFF
  8
SUNPOU
 10
11006.000000000009
 20
20898.121500361289
 30
0.0
 11
10976.000000000009
 21
20898.121500361289
 31
0.0
  0
LINE
  5
6BF01
  8
SUNPOU
 10
11121.000000000009
 20
20898.121500361289
 30
0.0
 11
11151.000000000009
 21
20898.121500361289
 31
0.0
  0
LINE
  5
6BF03
  8
SUNPOU
 10
22386.0
 20
14718.121500361291
 30
0.0
 11
22356.0
 21
14718.121500361291
 31
0.0
  0
LINE
  5
6BF05
  8
SUNPOU
 10
22386.0
 20
14718.121500361291
 30
0.0
 11
22356.0
 21
14718.121500361291
 31
0.0
  0
LINE
  5
6BF07
  8
SUNPOU
 10
19646.0
 20
14718.121500361291
 30
0.0
 11
19676.000000000011
 21
14718.121500361291
 31
0.0
  0
LINE
  5
6BF09
  8
SUNPOU
 10
19586.0
 20
14718.121500361291
 30
0.0
 11
19556.000000000011
 21
14718.121500361291
 31
0.0
  0
LINE
  5
6BF0B
  8
SUNPOU
 10
16846.0
 20
14718.121500361291
 30
0.0
 11
16876.000000000011
 21
14718.121500361291
 31
0.0
  0
LINE
  5
6BF0D
  8
SUNPOU
 10
22511.0
 20
14718.121500361291
 30
0.0
 11
22481.0
 21
14718.121500361291
 31
0.0
  0
LINE
  5
6BF0F
  8
SUNPOU
 10
16786.000000000011
 20
14718.121500361291
 30
0.0
 11
16756.000000000011
 21
14718.121500361291
 31
0.0
  0
LINE
  5
6BF11
  8
SUNPOU
 10
16786.000000000011
 20
14718.121500361291
 30
0.0
 11
16756.000000000011
 21
14718.121500361291
 31
0.0
  0
LINE
  5
6BF13
  8
SUNPOU
 10
22511.0
 20
14318.121500361291
 30
0.0
 11
22481.0
 21
14318.121500361291
 31
0.0
  0
LINE
  5
6BF15
  8
SUNPOU
 10
13986.0
 20
14718.121500361291
 30
0.0
 11
13956.000000000009
 21
14718.121500361291
 31
0.0
  0
LINE
  5
6BF17
  8
SUNPOU
 10
11186.000000000009
 20
14718.121500361291
 30
0.0
 11
11156.000000000009
 21
14718.121500361291
 31
0.0
  0
LINE
  5
6BF19
  8
SUNPOU
 10
11246.000000000009
 20
14718.121500361291
 30
0.0
 11
11276.000000000009
 21
14718.121500361291
 31
0.0
  0
LINE
  5
6BF1B
  8
SUNPOU
 10
11121.000000000009
 20
14718.121500361291
 30
0.0
 11
11151.000000000009
 21
14718.121500361291
 31
0.0
  0
LINE
  5
6BF1D
  8
SUNPOU
 10
11121.000000000009
 20
14318.121500361291
 30
0.0
 11
11151.000000000009
 21
14318.121500361291
 31
0.0
  0
LINE
  5
6BF1F
  8
SUNPOU
 10
14046.000000000009
 20
14718.121500361291
 30
0.0
 11
14076.000000000009
 21
14718.121500361291
 31
0.0
  0
LINE
  5
6BF21
  8
SUNPOU
 10
10291.000000000009
 20
19458.121500361289
 30
0.0
 11
10291.000000000009
 21
19428.121500361289
 31
0.0
  0
LINE
  5
6BF23
  8
SUNPOU
 10
9891.0000000000127
 20
20068.121500361289
 30
0.0
 11
9891.0000000000127
 21
20038.121500361289
 31
0.0
  0
LINE
  5
6BF25
  8
SUNPOU
 10
10291.000000000009
 20
16348.121500361291
 30
0.0
 11
10291.000000000009
 21
16378.121500361291
 31
0.0
  0
LINE
  5
6BF27
  8
SUNPOU
 10
9891.0000000000127
 20
16348.121500361291
 30
0.0
 11
9891.0000000000127
 21
16378.121500361291
 31
0.0
  0
LINE
  5
6BF29
  8
SUNPOU
 10
11351.99999999998
 20
15518.121500361291
 30
0.0
 11
11381.99999999998
 21
15518.121500361291
 31
0.0
  0
LINE
  5
6BF2B
  8
SUNPOU
 10
16457.999999999982
 20
15518.121500361291
 30
0.0
 11
16427.999999999982
 21
15518.121500361291
 31
0.0
  0
LINE
  5
6BF2D
  8
SUNPOU
 10
16951.999999999982
 20
15518.121500361291
 30
0.0
 11
16981.999999999982
 21
15518.121500361291
 31
0.0
  0
LINE
  5
6BF2F
  8
SUNPOU
 10
22057.999999999989
 20
15518.121500361291
 30
0.0
 11
22027.999999999982
 21
15518.121500361291
 31
0.0
  0
LINE
  5
6BF30
  8
SUNPOU
 10
16858.500000000029
 20
15938.121500361271
 30
0.0
 11
16858.500000000029
 21
15038.121500361291
 31
0.0
  0
LINE
  5
6BF31
  8
SUNPOU
 10
22373.500000000011
 20
15938.12150036126
 30
0.0
 11
22373.500000000011
 21
15038.121500361291
 31
0.0
  0
LINE
  5
6BF32
  8
SUNPOU
 10
16898.500000000029
 20
15118.121500361291
 30
0.0
 11
22333.500000000011
 21
15118.121500361291
 31
0.0
  0
LINE
  5
6BF36
  8
SUNPOU
 10
11258.500000000009
 20
15938.12150036126
 30
0.0
 11
11258.500000000009
 21
15038.121500361291
 31
0.0
  0
LINE
  5
6BF37
  8
SUNPOU
 10
16773.500000000018
 20
15938.121500361271
 30
0.0
 11
16773.500000000018
 21
15038.121500361291
 31
0.0
  0
LINE
  5
6BF38
  8
SUNPOU
 10
11298.500000000009
 20
15118.121500361291
 30
0.0
 11
16733.500000000018
 21
15118.121500361291
 31
0.0
  0
LINE
  5
6BF3C
  8
SUNPOU
 10
19728.81273525994
 20
6277.4291594232991
 30
0.0
 11
21121.387106663489
 21
6277.4291594232991
 31
0.0
  0
LINE
  5
6BF3D
  8
SUNPOU
 10
19691.99999999988
 20
9352.4291594233273
 30
0.0
 11
21121.387106663489
 21
9352.4291594233255
 31
0.0
  0
LINE
  5
6BF3E
  8
SUNPOU
 10
21041.387106663489
 20
6317.4291594232982
 30
0.0
 11
21041.3871066635
 21
9312.4291594233255
 31
0.0
  0
LINE
  5
6BF42
  8
SUNPOU
 10
16954.268210725339
 20
9764.3841069820846
 30
0.0
 11
18694.503844154951
 21
9764.3841069820846
 31
0.0
  0
LINE
  5
6BF43
  8
SUNPOU
 10
17015.999999999949
 20
6277.4291594232991
 30
0.0
 11
18694.503844154951
 21
6277.4291594232982
 31
0.0
  0
LINE
  5
6BF44
  8
SUNPOU
 10
18614.503844154951
 20
9724.3841069820846
 30
0.0
 11
18614.50384415494
 21
6317.4291594232982
 31
0.0
  0
LINE
  5
6BF48
  8
SUNPOU
 10
16861.733969015349
 20
9844.6891444788998
 30
0.0
 11
16888.143873135868
 21
11015.745077978199
 31
0.0
  0
LINE
  5
6BF49
  8
SUNPOU
 10
22670.280187468728
 20
9713.6935666241552
 30
0.0
 11
22696.690091589251
 21
10884.749500123449
 31
0.0
  0
LINE
  5
6BF4A
  8
SUNPOU
 10
16926.329986469609
 20
10934.86355506683
 30
0.0
 11
22654.896541260401
 21
10805.671695709631
 31
0.0
  0
LINE
  5
6BF4E
  8
SUNPOU
 10
22748.47646897117
 20
9633.7139029615628
 30
0.0
 11
23292.442872043412
 21
9633.7139029615628
 31
0.0
  0
LINE
  5
6BF4F
  8
SUNPOU
 10
17015.999999999949
 20
6277.4291594232991
 30
0.0
 11
23292.442872043412
 21
6277.4291594232964
 31
0.0
  0
LINE
  5
6BF50
  8
SUNPOU
 10
23212.442872043412
 20
9593.7139029615646
 30
0.0
 11
23212.442872043412
 21
6317.4291594232964
 31
0.0
  0
LINE
  5
6BF54
  8
SUNPOU
 10
22358.499999999942
 20
5397.4291594232982
 30
0.0
 11
22358.499999999942
 21
4597.4291594232982
 31
0.0
  0
LINE
  5
6BF55
  8
SUNPOU
 10
16858.499999999949
 20
6197.4291594232982
 30
0.0
 11
16858.499999999949
 21
4597.4291594232982
 31
0.0
  0
LINE
  5
6BF56
  8
SUNPOU
 10
22318.499999999942
 20
4677.4291594232982
 30
0.0
 11
16898.499999999949
 21
4677.4291594232982
 31
0.0
  0
LINE
  5
6BF5A
  8
SUNPOU
 10
11190.499999999951
 20
6197.4291594232982
 30
0.0
 11
11190.499999999951
 21
4597.4291594232982
 31
0.0
  0
LINE
  5
6BF5B
  8
SUNPOU
 10
16858.499999999949
 20
6197.4291594232982
 30
0.0
 11
16858.499999999949
 21
4597.4291594232982
 31
0.0
  0
LINE
  5
6BF5C
  8
SUNPOU
 10
11230.499999999951
 20
4677.4291594232982
 30
0.0
 11
16818.499999999949
 21
4677.4291594232982
 31
0.0
  0
LINE
  5
6BF61
  8
SUNPOU
 10
10849.79778538487
 20
10735.84487364258
 30
0.0
 11
10879.696644633539
 21
10738.30621791522
 31
0.0
  0
LINE
  5
6BF63
  8
SUNPOU
 10
17106.632397489051
 20
11250.922185097301
 30
0.0
 11
17076.73353824038
 21
11248.46084082466
 31
0.0
  0
LINE
  5
6BF65
  8
SUNPOU
 10
18049.753093279211
 20
10027.4291594233
 30
0.0
 11
18049.753093279211
 21
9997.4291594232982
 31
0.0
  0
LINE
  5
6BF67
  8
SUNPOU
 10
18049.753093279211
 20
6307.4291594232982
 30
0.0
 11
18049.753093279211
 21
6337.4291594232982
 31
0.0
  0
LINE
  5
6BF69
  8
SUNPOU
 10
10118.352697041881
 20
9507.4291594232982
 30
0.0
 11
10118.352697041881
 21
9477.4291594232982
 31
0.0
  0
LINE
  5
6BF6B
  8
SUNPOU
 10
10118.352697041881
 20
6307.4291594232982
 30
0.0
 11
10118.352697041881
 21
6337.4291594232982
 31
0.0
  0
LINE
  5
6BF6C
  8
SUNPOU
 10
22649.194270451721
 20
19674.406243899561
 30
0.0
 11
25015.39969306457
 21
19674.40624389955
 31
0.0
  0
LINE
  5
6BF6D
  8
SUNPOU
 10
22614.194270451721
 20
16318.121500361291
 30
0.0
 11
25015.39969306457
 21
16318.121500361291
 31
0.0
  0
LINE
  5
6BF6E
  8
SUNPOU
 10
24935.39969306457
 20
19634.40624389955
 30
0.0
 11
24935.39969306457
 21
16358.121500361291
 31
0.0
  0
LINE
  5
6BF72
  8
SUNPOU
 10
22614.194270451721
 20
16318.121500361291
 30
0.0
 11
23875.581377115272
 21
16318.121500361291
 31
0.0
  0
LINE
  5
6BF73
  8
SUNPOU
 10
22446.194270451659
 20
19393.121500361322
 30
0.0
 11
23875.581377115272
 21
19393.121500361322
 31
0.0
  0
LINE
  5
6BF74
  8
SUNPOU
 10
23795.581377115272
 20
16358.121500361291
 30
0.0
 11
23795.581377115272
 21
19353.121500361322
 31
0.0
  0
ARC
  5
6BF78
  8
SUNPOU
 10
22541.000000000011
 20
14718.121500361291
 30
0.0
 40
15.0
 50
0.0
 51
180.0
  0
ARC
  5
6BF79
  8
SUNPOU
 10
22541.000000000011
 20
14718.121500361291
 30
0.0
 40
15.0
 50
180.0
 51
0.0
  0
ARC
  5
6BF7A
  8
SUNPOU
 10
22596.000000000018
 20
20898.121500361289
 30
0.0
 40
15.0
 50
180.0
 51
0.0
  0
ARC
  5
6BF7B
  8
SUNPOU
 10
22596.000000000018
 20
20898.121500361289
 30
0.0
 40
15.0
 50
0.0
 51
180.0
  0
ARC
  5
6BF7C
  8
SUNPOU
 10
22576.000000000018
 20
21298.1215003613
 30
0.0
 40
15.0
 50
180.0
 51
0.0
  0
ARC
  5
6BF7D
  8
SUNPOU
 10
22576.000000000018
 20
21298.1215003613
 30
0.0
 40
15.0
 50
0.0
 51
180.0
  0
ARC
  5
6BF7E
  8
SUNPOU
 10
22541.000000000011
 20
20898.121500361289
 30
0.0
 40
15.0
 50
180.0
 51
0.0
  0
ARC
  5
6BF7F
  8
SUNPOU
 10
22541.000000000011
 20
20898.121500361289
 30
0.0
 40
15.0
 50
0.0
 51
180.0
  0
ARC
  5
6BF80
  8
SUNPOU
 10
11056.000000000009
 20
21298.1215003613
 30
0.0
 40
15.0
 50
0.0
 51
180.0
  0
ARC
  5
6BF81
  8
SUNPOU
 10
11056.000000000009
 20
21298.1215003613
 30
0.0
 40
15.0
 50
180.0
 51
0.0
  0
ARC
  5
6BF82
  8
SUNPOU
 10
11036.000000000009
 20
20898.121500361289
 30
0.0
 40
15.0
 50
180.0
 51
0.0
  0
ARC
  5
6BF83
  8
SUNPOU
 10
11036.000000000009
 20
20898.121500361289
 30
0.0
 40
15.0
 50
0.0
 51
180.0
  0
ARC
  5
6BF84
  8
SUNPOU
 10
11091.000000000009
 20
20898.121500361289
 30
0.0
 40
15.0
 50
0.0
 51
180.0
  0
ARC
  5
6BF85
  8
SUNPOU
 10
11091.000000000009
 20
20898.121500361289
 30
0.0
 40
15.0
 50
180.0
 51
0.0
  0
ARC
  5
6BF86
  8
SUNPOU
 10
22416.0
 20
14718.121500361291
 30
0.0
 40
15.0
 50
180.0
 51
0.0
  0
ARC
  5
6BF87
  8
SUNPOU
 10
22416.0
 20
14718.121500361291
 30
0.0
 40
15.0
 50
0.0
 51
180.0
  0
ARC
  5
6BF88
  8
SUNPOU
 10
22416.0
 20
14718.121500361291
 30
0.0
 40
15.0
 50
180.0
 51
0.0
  0
ARC
  5
6BF89
  8
SUNPOU
 10
22416.0
 20
14718.121500361291
 30
0.0
 40
15.0
 50
0.0
 51
180.0
  0
ARC
  5
6BF8A
  8
SUNPOU
 10
19616.000000000011
 20
14718.121500361291
 30
0.0
 40
15.0
 50
0.0
 51
180.0
  0
ARC
  5
6BF8B
  8
SUNPOU
 10
19616.000000000011
 20
14718.121500361291
 30
0.0
 40
15.0
 50
180.0
 51
0.0
  0
ARC
  5
6BF8C
  8
SUNPOU
 10
19616.000000000011
 20
14718.121500361291
 30
0.0
 40
15.0
 50
180.0
 51
0.0
  0
ARC
  5
6BF8D
  8
SUNPOU
 10
19616.000000000011
 20
14718.121500361291
 30
0.0
 40
15.0
 50
0.0
 51
180.0
  0
ARC
  5
6BF8E
  8
SUNPOU
 10
16816.000000000011
 20
14718.121500361291
 30
0.0
 40
15.0
 50
0.0
 51
180.0
  0
ARC
  5
6BF8F
  8
SUNPOU
 10
16816.000000000011
 20
14718.121500361291
 30
0.0
 40
15.0
 50
180.0
 51
0.0
  0
ARC
  5
6BF90
  8
SUNPOU
 10
16816.000000000011
 20
14718.121500361291
 30
0.0
 40
15.0
 50
180.0
 51
0.0
  0
ARC
  5
6BF91
  8
SUNPOU
 10
16816.000000000011
 20
14718.121500361291
 30
0.0
 40
15.0
 50
0.0
 51
180.0
  0
ARC
  5
6BF92
  8
SUNPOU
 10
16816.000000000011
 20
14718.121500361291
 30
0.0
 40
15.0
 50
180.0
 51
0.0
  0
ARC
  5
6BF93
  8
SUNPOU
 10
16816.000000000011
 20
14718.121500361291
 30
0.0
 40
15.0
 50
0.0
 51
180.0
  0
ARC
  5
6BF94
  8
SUNPOU
 10
22541.000000000011
 20
14318.121500361291
 30
0.0
 40
15.0
 50
180.0
 51
0.0
  0
ARC
  5
6BF95
  8
SUNPOU
 10
22541.000000000011
 20
14318.121500361291
 30
0.0
 40
15.0
 50
0.0
 51
180.0
  0
ARC
  5
6BF96
  8
SUNPOU
 10
14016.000000000009
 20
14718.121500361291
 30
0.0
 40
15.0
 50
180.0
 51
0.0
  0
ARC
  5
6BF97
  8
SUNPOU
 10
14016.000000000009
 20
14718.121500361291
 30
0.0
 40
15.0
 50
0.0
 51
180.0
  0
ARC
  5
6BF98
  8
SUNPOU
 10
11216.000000000009
 20
14718.121500361291
 30
0.0
 40
15.0
 50
180.0
 51
0.0
  0
ARC
  5
6BF99
  8
SUNPOU
 10
11216.000000000009
 20
14718.121500361291
 30
0.0
 40
15.0
 50
0.0
 51
180.0
  0
ARC
  5
6BF9A
  8
SUNPOU
 10
11216.000000000009
 20
14718.121500361291
 30
0.0
 40
15.0
 50
0.0
 51
180.0
  0
ARC
  5
6BF9B
  8
SUNPOU
 10
11216.000000000009
 20
14718.121500361291
 30
0.0
 40
15.0
 50
180.0
 51
0.0
  0
ARC
  5
6BF9C
  8
SUNPOU
 10
11091.000000000009
 20
14718.121500361291
 30
0.0
 40
15.0
 50
0.0
 51
180.0
  0
ARC
  5
6BF9D
  8
SUNPOU
 10
11091.000000000009
 20
14718.121500361291
 30
0.0
 40
15.0
 50
180.0
 51
0.0
  0
ARC
  5
6BF9E
  8
SUNPOU
 10
11091.000000000009
 20
14318.121500361291
 30
0.0
 40
15.0
 50
0.0
 51
180.0
  0
ARC
  5
6BF9F
  8
SUNPOU
 10
11091.000000000009
 20
14318.121500361291
 30
0.0
 40
15.0
 50
180.0
 51
0.0
  0
ARC
  5
6BFA0
  8
SUNPOU
 10
14016.000000000009
 20
14718.121500361291
 30
0.0
 40
15.0
 50
0.0
 51
180.0
  0
ARC
  5
6BFA1
  8
SUNPOU
 10
14016.000000000009
 20
14718.121500361291
 30
0.0
 40
15.0
 50
180.0
 51
0.0
  0
ARC
  5
6BFA2
  8
SUNPOU
 10
10291.000000000009
 20
19488.121500361289
 30
0.0
 40
15.0
 50
270.0
 51
90.0
  0
ARC
  5
6BFA3
  8
SUNPOU
 10
10291.000000000009
 20
19488.121500361289
 30
0.0
 40
15.0
 50
90.0
 51
270.0
  0
ARC
  5
6BFA4
  8
SUNPOU
 10
9891.0000000000127
 20
20098.121500361289
 30
0.0
 40
15.0
 50
270.0
 51
90.0
  0
ARC
  5
6BFA5
  8
SUNPOU
 10
9891.0000000000127
 20
20098.121500361289
 30
0.0
 40
15.0
 50
90.0
 51
270.0
  0
ARC
  5
6BFA6
  8
SUNPOU
 10
10291.000000000009
 20
16318.121500361291
 30
0.0
 40
15.0
 50
90.0
 51
270.0
  0
ARC
  5
6BFA7
  8
SUNPOU
 10
10291.000000000009
 20
16318.121500361291
 30
0.0
 40
15.0
 50
270.0
 51
90.0
  0
ARC
  5
6BFA8
  8
SUNPOU
 10
9891.0000000000127
 20
16318.121500361291
 30
0.0
 40
15.0
 50
90.0
 51
270.0
  0
ARC
  5
6BFA9
  8
SUNPOU
 10
9891.0000000000127
 20
16318.121500361291
 30
0.0
 40
15.0
 50
270.0
 51
90.0
  0
ARC
  5
6BFAA
  8
SUNPOU
 10
11321.99999999998
 20
15518.121500361291
 30
0.0
 40
15.0
 50
0.0
 51
180.0
  0
ARC
  5
6BFAB
  8
SUNPOU
 10
11321.99999999998
 20
15518.121500361291
 30
0.0
 40
15.0
 50
180.0
 51
0.0
  0
ARC
  5
6BFAC
  8
SUNPOU
 10
16487.999999999982
 20
15518.121500361291
 30
0.0
 40
15.0
 50
180.0
 51
0.0
  0
ARC
  5
6BFAD
  8
SUNPOU
 10
16487.999999999982
 20
15518.121500361291
 30
0.0
 40
15.0
 50
0.0
 51
180.0
  0
ARC
  5
6BFAE
  8
SUNPOU
 10
16921.999999999982
 20
15518.121500361291
 30
0.0
 40
15.0
 50
0.0
 51
180.0
  0
ARC
  5
6BFAF
  8
SUNPOU
 10
16921.999999999982
 20
15518.121500361291
 30
0.0
 40
15.0
 50
180.0
 51
0.0
  0
ARC
  5
6BFB0
  8
SUNPOU
 10
22087.999999999989
 20
15518.121500361291
 30
0.0
 40
15.0
 50
180.0
 51
0.0
  0
ARC
  5
6BFB1
  8
SUNPOU
 10
22087.999999999989
 20
15518.121500361291
 30
0.0
 40
15.0
 50
0.0
 51
180.0
  0
TEXT
  5
6BFB2
  8
SUNPOU
 10
20300.755986119479
 20
15198.121500361291
 30
0.0
 40
160.0
  1
5515
 41
0.6666666666666666
  7
00
  0
LINE
  5
6BFB4
  8
SUNPOU
 10
22343.5
 20
15118.121500361291
 30
0.0
 11
22313.5
 21
15118.121500361291
 31
0.0
  0
LINE
  5
6BFB6
  8
SUNPOU
 10
16888.500000000029
 20
15118.121500361291
 30
0.0
 11
16918.500000000029
 21
15118.121500361291
 31
0.0
  0
TEXT
  5
6BFB7
  8
SUNPOU
 10
14700.75598611947
 20
15198.121500361291
 30
0.0
 40
160.0
  1
5515
 41
0.6666666666666666
  7
00
  0
LINE
  5
6BFB9
  8
SUNPOU
 10
16743.500000000018
 20
15118.121500361291
 30
0.0
 11
16713.500000000018
 21
15118.121500361291
 31
0.0
  0
LINE
  5
6BFBB
  8
SUNPOU
 10
11288.500000000009
 20
15118.121500361291
 30
0.0
 11
11318.500000000009
 21
15118.121500361291
 31
0.0
  0
TEXT
  5
6BFBC
  8
SUNPOU
 10
20961.387106663489
 20
8513.3166049890388
 30
0.0
 40
160.0
  1
3075
 50
90.0
 41
0.6666666666666666
  7
00
  0
LINE
  5
6BFBE
  8
SUNPOU
 10
21041.3871066635
 20
9322.4291594233255
 30
0.0
 11
21041.3871066635
 21
9292.4291594233255
 31
0.0
  0
LINE
  5
6BFC0
  8
SUNPOU
 10
21041.387106663489
 20
6307.4291594232982
 30
0.0
 11
21041.387106663489
 21
6337.4291594232982
 31
0.0
  0
TEXT
  5
6BFC1
  8
SUNPOU
 10
18534.503844154951
 20
7817.732030028089
 30
0.0
 40
160.0
  1
3487
 50
90.0
 41
0.6666666666666666
  7
00
  0
LINE
  5
6BFC3
  8
SUNPOU
 10
18614.50384415494
 20
6307.4291594232973
 30
0.0
 11
18614.50384415494
 21
6337.4291594232973
 31
0.0
  0
LINE
  5
6BFC5
  8
SUNPOU
 10
18614.503844154951
 20
9734.3841069820846
 30
0.0
 11
18614.503844154951
 21
9704.3841069820828
 31
0.0
  0
TEXT
  5
6BFC6
  8
SUNPOU
 10
19589.294027028991
 20
10954.828161425559
 30
0.0
 40
160.0
  1
5810
 50
358.70807231024628
 41
0.6666666666666666
  7
00
  0
LINE
  5
6BFC8
  8
SUNPOU
 10
22664.89399921822
 20
10805.44623089744
 30
0.0
 11
22634.901625344752
 21
10806.122625334019
 31
0.0
  0
LINE
  5
6BFCA
  8
SUNPOU
 10
16916.33252851179
 20
10935.08901987902
 30
0.0
 11
16946.324902385259
 21
10934.412625442439
 31
0.0
  0
TEXT
  5
6BFCB
  8
SUNPOU
 10
23132.442872043412
 20
7752.3969280178299
 30
0.0
 40
160.0
  1
3356
 50
90.0
 41
0.6666666666666666
  7
00
  0
LINE
  5
6BFCD
  8
SUNPOU
 10
23212.442872043412
 20
6307.4291594232964
 30
0.0
 11
23212.442872043412
 21
6337.4291594232964
 31
0.0
  0
LINE
  5
6BFCF
  8
SUNPOU
 10
23212.442872043412
 20
9603.7139029615646
 30
0.0
 11
23212.442872043412
 21
9573.7139029615628
 31
0.0
  0
TEXT
  5
6BFD0
  8
SUNPOU
 10
19405.325396825341
 20
4757.4291594232982
 30
0.0
 40
160.0
  1
5500
 41
0.6666666666666666
  7
00
  0
LINE
  5
6BFD2
  8
SUNPOU
 10
16888.499999999949
 20
4677.4291594232982
 30
0.0
 11
16918.499999999949
 21
4677.4291594232982
 31
0.0
  0
LINE
  5
6BFD4
  8
SUNPOU
 10
22328.499999999942
 20
4677.4291594232982
 30
0.0
 11
22298.499999999942
 21
4677.4291594232982
 31
0.0
  0
TEXT
  5
6BFD5
  8
SUNPOU
 10
13821.32539682535
 20
4757.4291594232982
 30
0.0
 40
160.0
  1
5668
 41
0.6666666666666666
  7
00
  0
LINE
  5
6BFD7
  8
SUNPOU
 10
16828.499999999949
 20
4677.4291594232982
 30
0.0
 11
16798.499999999949
 21
4677.4291594232982
 31
0.0
  0
LINE
  5
6BFD9
  8
SUNPOU
 10
11220.499999999951
 20
4677.4291594232982
 30
0.0
 11
11250.499999999951
 21
4677.4291594232982
 31
0.0
  0
ARC
  5
6BFDA
  8
SUNPOU
 10
10819.898926136209
 20
10733.383529369939
 30
0.0
 40
15.00000000000079
 50
4.706111143730177
 51
184.7061111437302
  0
ARC
  5
6BFDB
  8
SUNPOU
 10
10819.898926136209
 20
10733.383529369939
 30
0.0
 40
15.00000000000079
 50
184.7061111437302
 51
4.706111143730177
  0
ARC
  5
6BFDC
  8
SUNPOU
 10
17136.531256737719
 20
11253.383529369939
 30
0.0
 40
14.99999999999897
 50
184.70611114373071
 51
4.7061111437307472
  0
ARC
  5
6BFDD
  8
SUNPOU
 10
17136.531256737719
 20
11253.383529369939
 30
0.0
 40
14.99999999999897
 50
4.7061111437307472
 51
184.70611114373071
  0
ARC
  5
6BFDE
  8
SUNPOU
 10
18049.753093279211
 20
10057.4291594233
 30
0.0
 40
15.0
 50
270.0
 51
90.0
  0
ARC
  5
6BFDF
  8
SUNPOU
 10
18049.753093279211
 20
10057.4291594233
 30
0.0
 40
15.0
 50
90.0
 51
270.0
  0
ARC
  5
6BFE0
  8
SUNPOU
 10
18049.753093279211
 20
6277.4291594232991
 30
0.0
 40
15.0
 50
90.0
 51
270.0
  0
ARC
  5
6BFE1
  8
SUNPOU
 10
18049.753093279211
 20
6277.4291594232991
 30
0.0
 40
15.0
 50
270.0
 51
90.0
  0
ARC
  5
6BFE2
  8
SUNPOU
 10
10118.352697041881
 20
9537.4291594232982
 30
0.0
 40
15.0
 50
270.0
 51
90.0
  0
ARC
  5
6BFE3
  8
SUNPOU
 10
10118.352697041881
 20
9537.4291594232982
 30
0.0
 40
15.0
 50
90.0
 51
270.0
  0
ARC
  5
6BFE4
  8
SUNPOU
 10
10118.352697041881
 20
6277.4291594232991
 30
0.0
 40
15.0
 50
90.0
 51
270.0
  0
ARC
  5
6BFE5
  8
SUNPOU
 10
10118.352697041881
 20
6277.4291594232991
 30
0.0
 40
15.0
 50
270.0
 51
90.0
  0
TEXT
  5
6BFE6
  8
SUNPOU
 10
24855.39969306457
 20
18064.046136873869
 30
0.0
 40
160.0
  1
3356
 50
90.0
 41
0.6666666666666666
  7
00
  0
LINE
  5
6BFE8
  8
SUNPOU
 10
24935.39969306457
 20
16348.121500361291
 30
0.0
 11
24935.39969306457
 21
16378.121500361291
 31
0.0
  0
LINE
  5
6BFEA
  8
SUNPOU
 10
24935.39969306457
 20
19644.40624389955
 30
0.0
 11
24935.39969306457
 21
19614.40624389955
 31
0.0
  0
TEXT
  5
6BFEB
  8
SUNPOU
 10
23715.581377115261
 20
18356.0397598944
 30
0.0
 40
160.0
  1
3075
 50
90.0
 41
0.6666666666666666
  7
00
  0
LINE
  5
6BFED
  8
SUNPOU
 10
23795.581377115272
 20
19363.121500361322
 30
0.0
 11
23795.581377115272
 21
19333.121500361322
 31
0.0
  0
LINE
  5
6BFEF
  8
SUNPOU
 10
23795.581377115272
 20
16348.121500361291
 30
0.0
 11
23795.581377115272
 21
16378.121500361291
 31
0.0
  0
ARC
  5
6BFF0
  8
SUNPOU
 10
22373.500000000011
 20
15118.121500361291
 30
0.0
 40
15.0
 50
180.0
 51
0.0
  0
ARC
  5
6BFF1
  8
SUNPOU
 10
22373.500000000011
 20
15118.121500361291
 30
0.0
 40
15.0
 50
0.0
 51
180.0
  0
ARC
  5
6BFF2
  8
SUNPOU
 10
16858.500000000029
 20
15118.121500361291
 30
0.0
 40
15.0
 50
0.0
 51
180.0
  0
ARC
  5
6BFF3
  8
SUNPOU
 10
16858.500000000029
 20
15118.121500361291
 30
0.0
 40
15.0
 50
180.0
 51
0.0
  0
ARC
  5
6BFF4
  8
SUNPOU
 10
16773.500000000018
 20
15118.121500361291
 30
0.0
 40
15.0
 50
180.0
 51
0.0
  0
ARC
  5
6BFF5
  8
SUNPOU
 10
16773.500000000018
 20
15118.121500361291
 30
0.0
 40
15.0
 50
0.0
 51
180.0
  0
ARC
  5
6BFF6
  8
SUNPOU
 10
11258.500000000009
 20
15118.121500361291
 30
0.0
 40
15.0
 50
0.0
 51
180.0
  0
ARC
  5
6BFF7
  8
SUNPOU
 10
11258.500000000009
 20
15118.121500361291
 30
0.0
 40
15.0
 50
180.0
 51
0.0
  0
ARC
  5
6BFF8
  8
SUNPOU
 10
21041.3871066635
 20
9352.4291594233255
 30
0.0
 40
15.0
 50
270.0
 51
90.0
  0
ARC
  5
6BFF9
  8
SUNPOU
 10
21041.3871066635
 20
9352.4291594233255
 30
0.0
 40
15.0
 50
90.0
 51
270.0
  0
ARC
  5
6BFFA
  8
SUNPOU
 10
21041.387106663489
 20
6277.4291594232991
 30
0.0
 40
15.0
 50
90.0
 51
270.0
  0
ARC
  5
6BFFB
  8
SUNPOU
 10
21041.387106663489
 20
6277.4291594232991
 30
0.0
 40
15.0
 50
270.0
 51
90.0
  0
ARC
  5
6BFFC
  8
SUNPOU
 10
18614.50384415494
 20
6277.4291594232982
 30
0.0
 40
15.0
 50
90.0
 51
270.0
  0
ARC
  5
6BFFD
  8
SUNPOU
 10
18614.50384415494
 20
6277.4291594232982
 30
0.0
 40
15.0
 50
270.0
 51
90.0
  0
ARC
  5
6BFFE
  8
SUNPOU
 10
18614.503844154951
 20
9764.3841069820846
 30
0.0
 40
15.0
 50
270.0
 51
90.0
  0
ARC
  5
6BFFF
  8
SUNPOU
 10
18614.503844154951
 20
9764.3841069820846
 30
0.0
 40
15.0
 50
90.0
 51
270.0
  0
ARC
  5
6C000
  8
SUNPOU
 10
22694.886373091689
 20
10804.76983646086
 30
0.0
 40
14.99999999999989
 50
178.70807231024779
 51
358.70807231024781
  0
ARC
  5
6C001
  8
SUNPOU
 10
22694.886373091689
 20
10804.76983646086
 30
0.0
 40
14.99999999999989
 50
358.70807231024781
 51
178.70807231024779
  0
ARC
  5
6C002
  8
SUNPOU
 10
16886.34015463831
 20
10935.765414315611
 30
0.0
 40
14.99999999999989
 50
358.70807231024781
 51
178.70807231024779
  0
ARC
  5
6C003
  8
SUNPOU
 10
16886.34015463831
 20
10935.765414315611
 30
0.0
 40
14.99999999999989
 50
178.70807231024779
 51
358.70807231024781
  0
ARC
  5
6C004
  8
SUNPOU
 10
23212.442872043412
 20
6277.4291594232964
 30
0.0
 40
15.0
 50
90.0
 51
270.0
  0
ARC
  5
6C005
  8
SUNPOU
 10
23212.442872043412
 20
6277.4291594232964
 30
0.0
 40
15.0
 50
270.0
 51
90.0
  0
ARC
  5
6C006
  8
SUNPOU
 10
23212.442872043412
 20
9633.7139029615628
 30
0.0
 40
15.0
 50
270.0
 51
90.0
  0
ARC
  5
6C007
  8
SUNPOU
 10
23212.442872043412
 20
9633.7139029615628
 30
0.0
 40
15.0
 50
90.0
 51
270.0
  0
ARC
  5
6C008
  8
SUNPOU
 10
16858.499999999949
 20
4677.4291594232982
 30
0.0
 40
15.0
 50
0.0
 51
180.0
  0
ARC
  5
6C009
  8
SUNPOU
 10
16858.499999999949
 20
4677.4291594232982
 30
0.0
 40
15.0
 50
180.0
 51
0.0
  0
ARC
  5
6C00A
  8
SUNPOU
 10
22358.499999999942
 20
4677.4291594232982
 30
0.0
 40
15.0
 50
180.0
 51
0.0
  0
ARC
  5
6C00B
  8
SUNPOU
 10
22358.499999999942
 20
4677.4291594232982
 30
0.0
 40
15.0
 50
0.0
 51
180.0
  0
ARC
  5
6C00C
  8
SUNPOU
 10
16858.499999999949
 20
4677.4291594232982
 30
0.0
 40
15.0
 50
180.0
 51
0.0
  0
ARC
  5
6C00D
  8
SUNPOU
 10
16858.499999999949
 20
4677.4291594232982
 30
0.0
 40
15.0
 50
0.0
 51
180.0
  0
ARC
  5
6C00E
  8
SUNPOU
 10
11190.499999999951
 20
4677.4291594232982
 30
0.0
 40
15.0
 50
0.0
 51
180.0
  0
ARC
  5
6C00F
  8
SUNPOU
 10
11190.499999999951
 20
4677.4291594232982
 30
0.0
 40
15.0
 50
180.0
 51
0.0
  0
ARC
  5
6C010
  8
SUNPOU
 10
24935.39969306457
 20
16318.121500361291
 30
0.0
 40
15.0
 50
90.0
 51
270.0
  0
ARC
  5
6C011
  8
SUNPOU
 10
24935.39969306457
 20
16318.121500361291
 30
0.0
 40
15.0
 50
270.0
 51
90.0
  0
ARC
  5
6C012
  8
SUNPOU
 10
24935.39969306457
 20
19674.40624389955
 30
0.0
 40
15.0
 50
270.0
 51
90.0
  0
ARC
  5
6C013
  8
SUNPOU
 10
24935.39969306457
 20
19674.40624389955
 30
0.0
 40
15.0
 50
90.0
 51
270.0
  0
ARC
  5
6C014
  8
SUNPOU
 10
23795.581377115272
 20
19393.121500361322
 30
0.0
 40
15.0
 50
270.0
 51
90.0
  0
ARC
  5
6C015
  8
SUNPOU
 10
23795.581377115272
 20
19393.121500361322
 30
0.0
 40
15.0
 50
90.0
 51
270.0
  0
ARC
  5
6C016
  8
SUNPOU
 10
23795.581377115272
 20
16318.121500361291
 30
0.0
 40
15.0
 50
90.0
 51
270.0
  0
ARC
  5
6C017
  8
SUNPOU
 10
23795.581377115272
 20
16318.121500361291
 30
0.0
 40
15.0
 50
270.0
 51
90.0
  0
LINE
  5
6C01A
  8
HIKIDASHI
 10
14553.66060583354
 20
9942.0900828720605
 30
0.0
 11
14685.46604410426
 21
9847.5467724086684
 31
0.0
  0
LINE
  5
6C01B
  8
HIKIDASHI
 10
14685.46604410426
 20
9847.5467724086684
 30
0.0
 11
14591.44791940387
 21
9979.7273433672435
 31
0.0
  0
SOLID
  5
6C01C
  8
HIKIDASHI
 10
14553.66060583354
 20
9942.0900828720605
 30
0.0
 11
14591.44791940387
 21
9979.7273433672435
 31
0.0
 12
14685.46604410426
 22
9847.5467724086684
 32
0.0
 13
14685.46604410426
 23
9847.5467724086684
 33
0.0
  0
LINE
  5
6C01D
  8
HIKIDASHI
 10
14591.44791940387
 20
9979.7273433672435
 30
0.0
 11
14553.66060583354
 21
9942.0900828720605
 31
0.0
  0
LINE
  5
6C01E
  8
HIKIDASHI
 10
15124.82867562801
 20
6406.7051305222758
 30
0.0
 11
15176.0
 21
6560.6291594233098
 31
0.0
  0
LINE
  5
6C01F
  8
HIKIDASHI
 10
15176.0
 20
6560.6291594233098
 30
0.0
 11
15077.67338649102
 21
6431.6214535024401
 31
0.0
  0
SOLID
  5
6C020
  8
HIKIDASHI
 10
15124.82867562801
 20
6406.7051305222758
 30
0.0
 11
15077.67338649102
 21
6431.6214535024401
 31
0.0
 12
15176.0
 22
6560.6291594233098
 32
0.0
 13
15176.0
 23
6560.6291594233098
 33
0.0
  0
LINE
  5
6C021
  8
HIKIDASHI
 10
15077.67338649102
 20
6431.6214535024401
 30
0.0
 11
15124.82867562801
 21
6406.7051305222758
 31
0.0
  0
LINE
  5
6C024
  8
HIKIDASHI
 10
19229.092442825659
 20
9842.9533662489011
 30
0.0
 11
19592.10357787594
 21
10339.47792971974
 31
0.0
1001
ACAD
1000
DSTYLE
1002
{
1070
   147
1040
1.0
1070
    77
1070
     0
1002
}
  0
LINE
  5
6C025
  8
HIKIDASHI
 10
19207.565447276491
 20
9858.6918405630477
 30
0.0
 11
19134.661596940801
 21
9713.7913929538608
 31
0.0
  0
LINE
  5
6C026
  8
HIKIDASHI
 10
19134.661596940801
 20
9713.7913929538608
 30
0.0
 11
19250.619438374841
 21
9827.2148919347583
 31
0.0
  0
SOLID
  5
6C027
  8
HIKIDASHI
 10
19207.565447276491
 20
9858.6918405630477
 30
0.0
 11
19250.619438374841
 21
9827.2148919347583
 31
0.0
 12
19134.661596940801
 22
9713.7913929538608
 32
0.0
 13
19134.661596940801
 23
9713.7913929538608
 33
0.0
  0
LINE
  5
6C028
  8
HIKIDASHI
 10
19250.619438374841
 20
9827.2148919347583
 30
0.0
 11
19207.565447276491
 21
9858.6918405630477
 31
0.0
  0
LINE
  5
6C029
  8
HIKIDASHI
 10
11878.97399889744
 20
16522.856872032338
 30
0.0
 11
10583.609795692329
 21
15510.869736264771
 31
0.0
1001
ACAD
1000
DSTYLE
1002
{
1070
   147
1040
1.0
1070
    77
1070
     0
1002
}
  0
LINE
  5
6C02A
  8
HIKIDASHI
 10
11895.39101067605
 20
16501.842761644992
 30
0.0
 11
12005.05866122159
 21
16621.358942703999
 31
0.0
  0
LINE
  5
6C02B
  8
HIKIDASHI
 10
12005.05866122159
 20
16621.358942703999
 30
0.0
 11
11862.556987118831
 21
16543.87098241971
 31
0.0
  0
SOLID
  5
6C02C
  8
HIKIDASHI
 10
11895.39101067605
 20
16501.842761644992
 30
0.0
 11
11862.556987118831
 21
16543.87098241971
 31
0.0
 12
12005.05866122159
 22
16621.358942703999
 32
0.0
 13
12005.05866122159
 23
16621.358942703999
 33
0.0
  0
LINE
  5
6C02D
  8
HIKIDASHI
 10
11862.556987118831
 20
16543.87098241971
 30
0.0
 11
11895.39101067605
 21
16501.842761644992
 31
0.0
  0
LINE
  5
6C02E
  8
U1
 10
21316.000000000011
 20
17218.921500361292
 30
0.0
 11
21216.000000000018
 21
17218.921500361292
 31
0.0
  0
LINE
  5
6C02F
  8
U1
 10
21216.000000000018
 20
17218.921500361292
 30
0.0
 11
21216.000000000018
 21
17188.921500361292
 31
0.0
  0
LINE
  5
6C030
  8
U1
 10
21216.000000000018
 20
17188.921500361292
 30
0.0
 11
21316.000000000011
 21
17188.921500361292
 31
0.0
  0
LINE
  5
6C031
  8
U1
 10
21316.000000000011
 20
17188.921500361292
 30
0.0
 11
21316.000000000011
 21
17218.921500361292
 31
0.0
  0
LINE
  5
6C032
  8
U1
 10
20816.000000000018
 20
17218.921500361292
 30
0.0
 11
20716.000000000011
 21
17218.921500361292
 31
0.0
  0
LINE
  5
6C033
  8
U1
 10
20716.000000000011
 20
17218.921500361292
 30
0.0
 11
20716.000000000011
 21
17188.921500361292
 31
0.0
  0
LINE
  5
6C034
  8
U1
 10
20716.000000000011
 20
17188.921500361292
 30
0.0
 11
20816.000000000018
 21
17188.921500361292
 31
0.0
  0
LINE
  5
6C035
  8
U1
 10
20816.000000000018
 20
17188.921500361292
 30
0.0
 11
20816.000000000018
 21
17218.921500361292
 31
0.0
  0
LINE
  5
6C036
  8
U1
 10
18516.000000000011
 20
17218.921500361292
 30
0.0
 11
18416.000000000011
 21
17218.921500361292
 31
0.0
  0
LINE
  5
6C037
  8
U1
 10
18416.000000000011
 20
17218.921500361292
 30
0.0
 11
18416.000000000011
 21
17188.921500361292
 31
0.0
  0
LINE
  5
6C038
  8
U1
 10
18416.000000000011
 20
17188.921500361292
 30
0.0
 11
18516.000000000011
 21
17188.921500361292
 31
0.0
  0
LINE
  5
6C039
  8
U1
 10
18516.000000000011
 20
17188.921500361292
 30
0.0
 11
18516.000000000011
 21
17218.921500361292
 31
0.0
  0
LINE
  5
6C03A
  8
U1
 10
18016.000000000011
 20
17218.921500361292
 30
0.0
 11
17916.000000000011
 21
17218.921500361292
 31
0.0
  0
LINE
  5
6C03B
  8
U1
 10
17916.000000000011
 20
17218.921500361292
 30
0.0
 11
17916.000000000011
 21
17188.921500361292
 31
0.0
  0
LINE
  5
6C03C
  8
U1
 10
17916.000000000011
 20
17188.921500361292
 30
0.0
 11
18016.000000000011
 21
17188.921500361292
 31
0.0
  0
LINE
  5
6C03D
  8
U1
 10
18016.000000000011
 20
17188.921500361292
 30
0.0
 11
18016.000000000011
 21
17218.921500361292
 31
0.0
  0
LINE
  5
6C03E
  8
U1
 10
15616.000000000009
 20
17218.921500361292
 30
0.0
 11
15716.000000000009
 21
17218.921500361292
 31
0.0
  0
LINE
  5
6C03F
  8
U1
 10
15716.000000000009
 20
17218.921500361292
 30
0.0
 11
15716.000000000009
 21
17188.921500361292
 31
0.0
  0
LINE
  5
6C040
  8
U1
 10
15716.000000000009
 20
17188.921500361292
 30
0.0
 11
15616.000000000009
 21
17188.921500361292
 31
0.0
  0
LINE
  5
6C041
  8
U1
 10
15616.000000000009
 20
17188.921500361292
 30
0.0
 11
15616.000000000009
 21
17218.921500361292
 31
0.0
  0
LINE
  5
6C042
  8
U1
 10
15116.000000000009
 20
17218.921500361292
 30
0.0
 11
15216.000000000009
 21
17218.921500361292
 31
0.0
  0
LINE
  5
6C043
  8
U1
 10
15216.000000000009
 20
17218.921500361292
 30
0.0
 11
15216.000000000009
 21
17188.921500361292
 31
0.0
  0
LINE
  5
6C044
  8
U1
 10
15216.000000000009
 20
17188.921500361292
 30
0.0
 11
15116.000000000009
 21
17188.921500361292
 31
0.0
  0
LINE
  5
6C045
  8
U1
 10
15116.000000000009
 20
17188.921500361292
 30
0.0
 11
15116.000000000009
 21
17218.921500361292
 31
0.0
  0
LINE
  5
6C046
  8
U1
 10
12816.000000000009
 20
17218.921500361292
 30
0.0
 11
12916.000000000009
 21
17218.921500361292
 31
0.0
  0
LINE
  5
6C047
  8
U1
 10
12916.000000000009
 20
17218.921500361292
 30
0.0
 11
12916.000000000009
 21
17188.921500361292
 31
0.0
  0
LINE
  5
6C048
  8
U1
 10
12916.000000000009
 20
17188.921500361292
 30
0.0
 11
12816.000000000009
 21
17188.921500361292
 31
0.0
  0
LINE
  5
6C049
  8
U1
 10
12816.000000000009
 20
17188.921500361292
 30
0.0
 11
12816.000000000009
 21
17218.921500361292
 31
0.0
  0
LINE
  5
6C04A
  8
U1
 10
12316.000000000009
 20
17218.921500361292
 30
0.0
 11
12416.000000000009
 21
17218.921500361292
 31
0.0
  0
LINE
  5
6C04B
  8
U1
 10
12416.000000000009
 20
17218.921500361292
 30
0.0
 11
12416.000000000009
 21
17188.921500361292
 31
0.0
  0
LINE
  5
6C04C
  8
U1
 10
12416.000000000009
 20
17188.921500361292
 30
0.0
 11
12316.000000000009
 21
17188.921500361292
 31
0.0
  0
LINE
  5
6C04D
  8
U1
 10
12316.000000000009
 20
17188.921500361292
 30
0.0
 11
12316.000000000009
 21
17218.921500361292
 31
0.0
  0
LINE
  5
6C04E
  8
U5
 10
19090.999999999942
 20
5477.4291594232982
 30
0.0
 11
20040.999999999942
 21
5477.4291594232982
 31
0.0
  0
LINE
  5
6C04F
  8
U5
 10
20040.999999999942
 20
5477.4291594232982
 30
0.0
 11
20040.999999999942
 21
5977.4291594232982
 31
0.0
  0
LINE
  5
6C050
  8
U5
 10
20040.999999999942
 20
5977.4291594232982
 30
0.0
 11
19090.999999999942
 21
5977.4291594232982
 31
0.0
  0
LINE
  5
6C051
  8
U5
 10
19090.999999999942
 20
5977.4291594232982
 30
0.0
 11
19090.999999999942
 21
5477.4291594232982
 31
0.0
  0
LINE
  5
6C052
  8
U5
 10
21840.999999999942
 20
5477.4291594232982
 30
0.0
 11
22790.999999999942
 21
5477.4291594232982
 31
0.0
  0
LINE
  5
6C053
  8
U5
 10
22790.999999999942
 20
5477.4291594232982
 30
0.0
 11
22790.999999999942
 21
5977.4291594232982
 31
0.0
  0
LINE
  5
6C054
  8
U5
 10
22790.999999999942
 20
5977.4291594232982
 30
0.0
 11
21840.999999999942
 21
5977.4291594232982
 31
0.0
  0
LINE
  5
6C055
  8
U5
 10
21840.999999999942
 20
5977.4291594232982
 30
0.0
 11
21840.999999999942
 21
5477.4291594232982
 31
0.0
  0
LINE
  5
6C056
  8
KERABA
 10
10928.473806113419
 20
9413.7569958992444
 30
0.0
 11
10922.93825572875
 21
9481.5313102221608
 31
0.0
  0
LINE
  5
6C057
  8
KERABA
 10
10922.93825572875
 20
9481.5313102221608
 30
0.0
 11
10926.59658716561
 21
9485.8460073260558
 31
0.0
  0
LINE
  5
6C058
  8
KERABA
 10
10926.59658716561
 20
9485.8460073260558
 30
0.0
 11
10925.77613008174
 21
9495.8122930019381
 31
0.0
  0
LINE
  5
6C059
  8
KERABA
 10
10925.77613008174
 20
9495.8122930019381
 30
0.0
 11
10923.61878152984
 21
9497.6414587203672
 31
0.0
  0
LINE
  5
6C05A
  8
KERABA
 10
10923.61878152984
 20
9497.6414587203672
 30
0.0
 11
10922.79832444597
 21
9507.6077443962477
 31
0.0
  0
LINE
  5
6C05B
  8
KERABA
 10
10922.79832444597
 20
9507.6077443962477
 30
0.0
 11
10920.640975894001
 21
9509.4369101146494
 31
0.0
  0
LINE
  5
6C05C
  8
KERABA
 10
10920.640975894001
 20
9509.4369101146494
 30
0.0
 11
10919.213380568141
 21
9526.7782471907176
 31
0.0
  0
ARC
  5
6C05D
  8
KERABA
 10
10929.777643384599
 20
9527.6479316995992
 30
0.0
 40
10.600000000005849
 50
94.706162844004695
 51
184.7061628439549
  0
LINE
  5
6C05E
  8
KERABA
 10
10928.90795887571
 20
9538.2121945160525
 30
0.0
 11
10953.225695924901
 21
9540.2141098006014
 31
0.0
  0
LINE
  5
6C05F
  8
KERABA
 10
10953.225695924901
 20
9540.2141098006014
 30
0.0
 11
10967.993923434
 21
9360.8209676344613
 31
0.0
  0
LINE
  5
6C060
  8
KERABA
 10
10967.993923434
 20
9360.8209676344613
 30
0.0
 11
10943.67618638487
 21
9358.8190523499125
 31
0.0
  0
ARC
  5
6C061
  8
KERABA
 10
10942.806501875981
 20
9369.3833151663566
 30
0.0
 40
10.599999999995569
 50
184.7061628439491
 51
274.70616284399892
  0
LINE
  5
6C062
  8
KERABA
 10
10932.24223905954
 20
9368.5136306574786
 30
0.0
 11
10930.81464373362
 21
9385.8549677335432
 31
0.0
  0
LINE
  5
6C063
  8
KERABA
 10
10930.81464373362
 20
9385.8549677335432
 30
0.0
 11
10934.47297517048
 21
9390.16966483744
 31
0.0
  0
LINE
  5
6C064
  8
KERABA
 10
10934.47297517048
 20
9390.16966483744
 30
0.0
 11
10933.65251808661
 21
9400.1359505133205
 31
0.0
  0
LINE
  5
6C065
  8
KERABA
 10
10933.65251808661
 20
9400.1359505133205
 30
0.0
 11
10931.495169534701
 21
9401.9651162317514
 31
0.0
  0
LINE
  5
6C066
  8
KERABA
 10
10931.495169534701
 20
9401.9651162317514
 30
0.0
 11
10930.674712450829
 21
9411.9314019076337
 31
0.0
  0
LINE
  5
6C067
  8
KERABA
 10
10930.674712450829
 20
9411.9314019076337
 30
0.0
 11
10928.517363898871
 21
9413.7605676260628
 31
0.0
  0
LINE
  5
6C068
  8
KERABA
 10
17245.149225280391
 20
9933.7662673631767
 30
0.0
 11
17243.320059561989
 21
9931.6089188112437
 31
0.0
  0
LINE
  5
6C069
  8
KERABA
 10
17243.320059561989
 20
9931.6089188112437
 30
0.0
 11
17244.140516645799
 21
9921.6426331353341
 31
0.0
  0
LINE
  5
6C06A
  8
KERABA
 10
17244.140516645799
 20
9921.6426331353341
 30
0.0
 11
17242.311350927401
 21
9919.4852845833739
 31
0.0
  0
LINE
  5
6C06B
  8
KERABA
 10
17242.311350927401
 20
9919.4852845833739
 30
0.0
 11
17243.131808011269
 21
9909.5189989074934
 31
0.0
  0
LINE
  5
6C06C
  8
KERABA
 10
17243.131808011269
 20
9909.5189989074934
 30
0.0
 11
17247.446505115138
 21
9905.8606674706607
 31
0.0
  0
LINE
  5
6C06D
  8
KERABA
 10
17247.446505115138
 20
9905.8606674706607
 30
0.0
 11
17248.874100441059
 21
9888.5193303945925
 31
0.0
  0
ARC
  5
6C06E
  8
KERABA
 10
17238.309837624591
 20
9887.6496458857528
 30
0.0
 40
10.60000000001496
 50
274.7061628437533
 51
4.7061628437140808
  0
LINE
  5
6C06F
  8
KERABA
 10
17239.17952213344
 20
9877.0853830692849
 30
0.0
 11
17214.861785084249
 21
9875.083467784707
 31
0.0
  0
LINE
  5
6C070
  8
KERABA
 10
17214.861785084249
 20
9875.083467784707
 30
0.0
 11
17200.093557575139
 21
10054.47660995084
 31
0.0
  0
LINE
  5
6C071
  8
KERABA
 10
17200.093557575139
 20
10054.47660995084
 30
0.0
 11
17224.411294624329
 21
10056.47852523542
 31
0.0
  0
ARC
  5
6C072
  8
KERABA
 10
17225.280979133211
 20
10045.914262418961
 30
0.0
 40
10.60000000000888
 50
4.7061628438642931
 51
94.706162843914086
  0
LINE
  5
6C073
  8
KERABA
 10
17235.845241949672
 20
10046.78394692783
 30
0.0
 11
17237.27283727553
 21
10029.442609851791
 31
0.0
  0
LINE
  5
6C074
  8
KERABA
 10
17237.27283727553
 20
10029.442609851791
 30
0.0
 11
17235.443671557128
 21
10027.28526129983
 31
0.0
  0
LINE
  5
6C075
  8
KERABA
 10
17235.443671557128
 20
10027.28526129983
 30
0.0
 11
17236.264128640942
 21
10017.31897562395
 31
0.0
  0
LINE
  5
6C076
  8
KERABA
 10
17236.264128640942
 20
10017.31897562395
 30
0.0
 11
17234.43496292254
 21
10015.16162707199
 31
0.0
  0
LINE
  5
6C077
  8
KERABA
 10
17234.43496292254
 20
10015.16162707199
 30
0.0
 11
17235.255420006411
 21
10005.1953413961
 31
0.0
  0
LINE
  5
6C078
  8
KERABA
 10
17235.255420006411
 20
10005.1953413961
 30
0.0
 11
17239.570117110281
 21
10001.537009959269
 31
0.0
  0
LINE
  5
6C079
  8
KERABA
 10
17239.570117110281
 20
10001.537009959269
 30
0.0
 11
17245.149225280391
 21
9933.7662673631767
 31
0.0
  0
ENDSEC
  0
EOF
