  0
SECTION
  2
HEADER
  9
$ACADVER
  1
AC1009
  9
$INSBASE
 10
0.0
 20
0.0
 30
0.0
  9
$EXTMIN
 10
867.99324330406671
 20
327.38164749855792
 30
-0.0000000000000053
  9
$EXTMAX
 10
32765.33210850941
 20
22484.553276491992
 30
0.0000000000000099
  9
$LIMMIN
 10
0.0
 20
0.0
  9
$LIMMAX
 10
33600.0
 20
23760.0
  9
$ORTHOMODE
 70
     1
  9
$REGENMODE
 70
     1
  9
$FILLMODE
 70
     1
  9
$QTEXTMODE
 70
     0
  9
$MIRRTEXT
 70
     1
  9
$DRAGMODE
 70
     2
  9
$LTSCALE
 40
80.0
  9
$OSMODE
 70
  3071
  9
$ATTMODE
 70
     1
  9
$TEXTSIZE
 40
0.2
  9
$TRACEWID
 40
0.05
  9
$TEXTSTYLE
  7
00
  9
$CLAYER
  8
0
  9
$CELTYPE
  6
BYLAYER
  9
$CECOLOR
 62
   256
  9
$DIMSCALE
 40
80.0
  9
$DIMASZ
 40
3.0
  9
$DIMEXO
 40
1.0
  9
$DIMDLI
 40
0.38
  9
$DIMRND
 40
0.5
  9
$DIMDLE
 40
0.0
  9
$DIMEXE
 40
1.0
  9
$DIMTP
 40
0.0
  9
$DIMTM
 40
0.0
  9
$DIMTXT
 40
2.0
  9
$DIMCEN
 40
0.09
  9
$DIMTSZ
 40
0.0
  9
$DIMTOL
 70
     0
  9
$DIMLIM
 70
     0
  9
$DIMTIH
 70
     0
  9
$DIMTOH
 70
     0
  9
$DIMSE1
 70
     0
  9
$DIMSE2
 70
     0
  9
$DIMTAD
 70
     1
  9
$DIMZIN
 70
     8
  9
$DIMBLK
  1
DOTSMALL
  9
$DIMASO
 70
     1
  9
$DIMSHO
 70
     1
  9
$DIMPOST
  1

  9
$DIMAPOST
  1

  9
$DIMALT
 70
     0
  9
$DIMALTD
 70
     2
  9
$DIMALTF
 40
25.399999999999999
  9
$DIMLFAC
 40
1.0
  9
$DIMTOFL
 70
     1
  9
$DIMTVP
 40
0.0
  9
$DIMTIX
 70
     0
  9
$DIMSOXD
 70
     0
  9
$DIMSAH
 70
     0
  9
$DIMBLK1
  1

  9
$DIMBLK2
  1

  9
$DIMSTYLE
  2
SUNPOU
  9
$DIMCLRD
 70
     4
  9
$DIMCLRE
 70
     4
  9
$DIMCLRT
 70
     7
  9
$DIMTFAC
 40
1.0
  9
$DIMGAP
 40
1.0
  9
$LUNITS
 70
     2
  9
$LUPREC
 70
     4
  9
$SKETCHINC
 40
0.1
  9
$FILLETRAD
 40
0.0
  9
$AUNITS
 70
     0
  9
$AUPREC
 70
     0
  9
$MENU
  1
acad
  9
$ELEVATION
 40
0.0
  9
$PELEVATION
 40
0.0
  9
$THICKNESS
 40
0.0
  9
$LIMCHECK
 70
     0
  9
$BLIPMODE
 70
     1
  9
$CHAMFERA
 40
0.0
  9
$CHAMFERB
 40
0.0
  9
$SKPOLY
 70
     0
  9
$TDCREATE
 40
2311940.0750535652
  9
$TDUPDATE
 40
2458942.4396526851
  9
$TDINDWG
 40
0.0595831134
  9
$TDUSRTIMER
 40
0.059582037
  9
$USRTIMER
 70
     1
  9
$ANGBASE
 50
0.0
  9
$ANGDIR
 70
     0
  9
$PDMODE
 70
     0
  9
$PDSIZE
 40
0.0
  9
$PLINEWID
 40
0.0
  9
$COORDS
 70
     1
  9
$SPLFRAME
 70
     0
  9
$SPLINETYPE
 70
     6
  9
$SPLINESEGS
 70
     8
  9
$ATTDIA
 70
     1
  9
$ATTREQ
 70
     1
  9
$HANDLING
 70
     1
  9
$HANDSEED
  5
55E2
  9
$SURFTAB1
 70
     6
  9
$SURFTAB2
 70
     6
  9
$SURFTYPE
 70
     6
  9
$SURFU
 70
     6
  9
$SURFV
 70
     6
  9
$UCSNAME
  2

  9
$UCSORG
 10
0.0
 20
0.0
 30
0.0
  9
$UCSXDIR
 10
1.0
 20
0.0
 30
0.0
  9
$UCSYDIR
 10
0.0
 20
1.0
 30
0.0
  9
$PUCSNAME
  2

  9
$PUCSORG
 10
0.0
 20
0.0
 30
0.0
  9
$PUCSXDIR
 10
1.0
 20
0.0
 30
0.0
  9
$PUCSYDIR
 10
0.0
 20
1.0
 30
0.0
  9
$USERI1
 70
     0
  9
$USERI2
 70
     0
  9
$USERI3
 70
     0
  9
$USERI4
 70
     0
  9
$USERI5
 70
     0
  9
$USERR1
 40
0.0
  9
$USERR2
 40
0.0
  9
$USERR3
 40
0.0
  9
$USERR4
 40
0.0
  9
$USERR5
 40
0.0
  9
$WORLDVIEW
 70
     1
  9
$SHADEDGE
 70
     3
  9
$SHADEDIF
 70
    70
  9
$TILEMODE
 70
     1
  9
$MAXACTVP
 70
    16
  9
$PLIMCHECK
 70
     0
  9
$PEXTMIN
 10
1.0000000000000000E+020
 20
1.0000000000000000E+020
 30
1.0000000000000000E+020
  9
$PEXTMAX
 10
-1.0000000000000000E+020
 20
-1.0000000000000000E+020
 30
-1.0000000000000000E+020
  9
$PLIMMIN
 10
0.0
 20
0.0
  9
$PLIMMAX
 10
12.0
 20
9.0
  9
$UNITMODE
 70
     0
  9
$VISRETAIN
 70
     0
  9
$PLINEGEN
 70
     1
  9
$PSLTSCALE
 70
     0
  0
ENDSEC
  0
SECTION
  2
TABLES
  0
TABLE
  2
VPORT
 70
     1
  0
VPORT
  2
*ACTIVE
 70
     0
 10
0.0
 20
0.0
 11
1.0
 21
1.0
 12
16800.0
 22
11880.0
 13
0.0
 23
0.0
 14
1.0
 24
1.0
 15
0.0
 25
0.0
 16
0.0
 26
0.0
 36
1.0
 17
0.0
 27
0.0
 37
0.0
 40
23981.023255813951
 41
2.195652173913043
 42
50.0
 43
0.0
 44
0.0
 50
0.0
 51
0.0
 71
     0
 72
 10000
 73
     1
 74
     1
 75
     0
 76
     0
 77
     0
 78
     0
  0
ENDTAB
  0
TABLE
  2
LTYPE
 70
     3
  0
LTYPE
  2
CONTINUOUS
 70
     0
  3
Solid line
 72
    65
 73
     0
 40
0.0
  0
LTYPE
  2
DASHED3
 70
     0
  3
------  ------  ------  ------  
 72
    65
 73
     2
 40
5.0
 49
3.75
 49
-1.25
  0
LTYPE
  2
CENTER2
 70
     0
  3
----------  --  ----------  --  
 72
    65
 73
     4
 40
20.0
 49
12.5
 49
-2.5
 49
2.5
 49
-2.5
  0
ENDTAB
  0
TABLE
  2
LAYER
 70
    17
  0
LAYER
  2
0
 70
     0
 62
     7
  6
CONTINUOUS
  0
LAYER
  2
SUNPOU
 70
     0
 62
     4
  6
CONTINUOUS
  0
LAYER
  2
0-1
 70
     0
 62
     7
  6
CONTINUOUS
  0
LAYER
  2
0-2
 70
     0
 62
     7
  6
CONTINUOUS
  0
LAYER
  2
0-4
 70
     0
 62
     7
  6
CONTINUOUS
  0
LAYER
  2
0-5
 70
     0
 62
     7
  6
CONTINUOUS
  0
LAYER
  2
2-0
 70
     0
 62
     7
  6
CONTINUOUS
  0
LAYER
  2
0-6
 70
     0
 62
     7
  6
CONTINUOUS
  0
LAYER
  2
0-7
 70
     0
 62
     7
  6
CONTINUOUS
  0
LAYER
  2
YODOROGO
 70
     0
 62
   130
  6
CONTINUOUS
  0
LAYER
  2
WAKUSEN-01
 70
     0
 62
    50
  6
CONTINUOUS
  0
LAYER
  2
WAKUSEN-02
 70
     0
 62
   130
  6
CONTINUOUS
  0
LAYER
  2
WAKUMOJI-01
 70
     0
 62
   130
  6
CONTINUOUS
  0
LAYER
  2
FILENAME
 70
     0
 62
     7
  6
CONTINUOUS
  0
LAYER
  2
NAME
 70
     0
 62
    20
  6
CONTINUOUS
  0
ENDTAB
  0
TABLE
  2
STYLE
 70
     5
  0
STYLE
  2
STANDARD
 70
     0
 40
0.0
 41
1.0
 50
0.0
 71
     0
 42
0.0
  3
txt
  4
BIGFONT
  0
STYLE
  2
00
 70
     0
 40
0.0
 41
0.6666666666666666
 50
0.0
 71
     0
 42
0.2
  3
ROMANS
  4
BIGFONT
  0
STYLE
  2
01
 70
     0
 40
3.0
 41
1.0
 50
0.0
 71
     0
 42
0.2
  3
ROMANS
  4
BIGFONT
  0
STYLE
  2
WAKUMOJI
 70
     0
 40
3.0
 41
1.0
 50
0.0
 71
     0
 42
3.0
  3
SIMPLEX
  4
BIGFONT
  0
STYLE
  2
FILENAME
 70
     0
 40
200.0
 41
1.0
 50
0.0
 71
     0
 42
200.0
  3
romans
  4
bigfont
  0
ENDTAB
  0
TABLE
  2
VIEW
 70
     0
  0
ENDTAB
  0
TABLE
  2
UCS
 70
     0
  0
ENDTAB
  0
TABLE
  2
APPID
 70
    13
  0
APPID
  2
ACAD
 70
     0
  0
APPID
  2
ACADANNOTATIVE
 70
     0
  0
APPID
  2
ACAD_PSEXT
 70
     0
  0
APPID
  2
DCO15
 70
     0
  0
APPID
  2
ACAD_MLEADERVER
 70
     0
  0
APPID
  2
AUTOCAD_POSTSCRIPT_FIGURE
 70
     0
  0
APPID
  2
ACAD_EXEMPT_FROM_CAD_STANDARDS
 70
     0
  0
APPID
  2
ACAD_DSTYLE_DIMJAG
 70
     0
  0
APPID
  2
ACAD_DSTYLE_DIMTALN
 70
     0
  0
APPID
  2
ACAD_DSTYLE_DIM_LINETYPE
 70
     0
  0
APPID
  2
ACAD_DSTYLE_DIM_EXT1_LINETYPE
 70
     0
  0
APPID
  2
ACAD_DSTYLE_DIM_EXT2_LINETYPE
 70
     0
  0
APPID
  2
ACAD_NAV_VCDISPLAY
 70
     0
  0
ENDTAB
  0
TABLE
  2
DIMSTYLE
 70
     2
  0
DIMSTYLE
  2
SUNPOU
 70
     0
  3

  4

  5

  6

  7

 40
80.0
 41
3.0
 42
1.0
 43
0.38
 44
1.0
 45
0.5
 46
0.0
 47
0.0
 48
0.0
140
2.0
141
0.09
142
0.0
143
25.399999999999999
144
1.0
145
0.0
146
1.0
147
1.0
 71
     0
 72
     0
 73
     0
 74
     0
 75
     0
 76
     0
 77
     1
 78
     8
170
     0
171
     2
172
     1
173
     0
174
     0
175
     0
176
     4
177
     4
178
     7
  0
ENDTAB
  0
ENDSEC
  0
SECTION
  2
BLOCKS
  0
BLOCK
  8
0
  2
$MODEL_SPACE
 70
     0
 10
0.0
 20
0.0
 30
0.0
  3
$MODEL_SPACE
  1

  0
ENDBLK
  5
4954
  8
0
  0
BLOCK
 67
     1
  8
0
  2
$PAPER_SPACE
 70
     0
 10
0.0
 20
0.0
 30
0.0
  3
$PAPER_SPACE
  1

  0
ENDBLK
  5
4950
 67
     1
  8
0
  0
BLOCK
  8
0
  2
_DOTSMALL
 70
     0
 10
0.0
 20
0.0
 30
0.0
  3
_DOTSMALL
  1

  0
POLYLINE
  5
4983
  8
0
  6
BYBLOCK
 62
     0
 66
     1
 10
0.0
 20
0.0
 30
0.0
 70
     1
 40
0.5
 41
0.5
  0
VERTEX
  5
55AA
  8
0
  6
BYBLOCK
 62
     0
 10
-0.0625
 20
0.0
 30
0.0
 42
1.0
  0
VERTEX
  5
55AB
  8
0
  6
BYBLOCK
 62
     0
 10
0.0625
 20
0.0
 30
0.0
 42
1.0
  0
SEQEND
  5
55AC
  8
0
  6
BYBLOCK
 62
     0
  0
ENDBLK
  5
4987
  8
0
  0
ENDSEC
  0
SECTION
  2
ENTITIES
  0
LINE
  5
4988
  8
0-1
  6
CONTINUOUS
 62
     3
 10
9045.860958999996
 20
19393.282197
 30
0.0
 11
9045.860958999996
 21
20094.226823000012
 31
0.0
  0
LINE
  5
4989
  8
0-1
  6
CONTINUOUS
 62
     3
 10
9008.8627670000005
 20
19412.03813500001
 30
0.0
 11
9008.8627670000005
 21
20094.226823000012
 31
0.0
  0
LINE
  5
498A
  8
0-1
  6
CONTINUOUS
 62
     3
 10
8487.8623049999915
 20
17007.729145999991
 30
0.0
 11
13213.112793
 21
17007.729145999991
 31
0.0
  0
LINE
  5
498B
  8
0-1
  6
CONTINUOUS
 62
     3
 10
8537.8629249999976
 20
13544.73055799999
 30
0.0
 11
8537.8629249999976
 21
20094.226823000001
 31
0.0
  0
LINE
  5
498C
  8
0-1
  6
CONTINUOUS
 62
     3
 10
8402.3628989999979
 20
13512.729660999999
 30
0.0
 11
8402.3628989999979
 21
20104.228275000009
 31
0.0
  0
LINE
  5
498D
  8
0-1
  6
CONTINUOUS
 62
     3
 10
8596.3616979999933
 20
19615.797901000002
 30
0.0
 11
8596.3616979999933
 21
20094.226823000001
 31
0.0
  0
LINE
  5
498E
  8
0-1
  6
CONTINUOUS
 62
     3
 10
8633.3628589999917
 20
19597.045921000012
 30
0.0
 11
8633.3628589999917
 21
20094.226823000012
 31
0.0
  0
LINE
  5
498F
  8
0-1
  6
CONTINUOUS
 62
     3
 10
8796.3633469999932
 20
19514.426754
 30
0.0
 11
8796.3633469999932
 21
20094.226823000001
 31
0.0
  0
LINE
  5
4990
  8
0-1
  6
CONTINUOUS
 62
     3
 10
8833.3615389999941
 20
19495.670816000009
 30
0.0
 11
8833.3615389999941
 21
20094.226823000001
 31
0.0
  0
LINE
  5
4991
  8
0-1
  6
CONTINUOUS
 62
     3
 10
9208.8624370000034
 20
19310.66303
 30
0.0
 11
9208.8624370000034
 21
20094.226823000001
 31
0.0
  0
LINE
  5
4992
  8
0-1
  6
CONTINUOUS
 62
     3
 10
9245.8626090000034
 20
19291.909070999991
 30
0.0
 11
9245.8626090000034
 21
20094.226823000001
 31
0.0
  0
LINE
  5
4993
  8
0-1
  6
CONTINUOUS
 62
     3
 10
9408.8611170000004
 20
19209.289904000001
 30
0.0
 11
9408.8611170000004
 21
20094.226823000001
 31
0.0
  0
LINE
  5
4994
  8
0-1
  6
CONTINUOUS
 62
     3
 10
9445.8622790000045
 20
19190.537924
 30
0.0
 11
9445.8622790000045
 21
20094.226823000012
 31
0.0
  0
LINE
  5
4995
  8
0-1
  6
CONTINUOUS
 62
     3
 10
11374.159826999979
 20
18208.142653999988
 30
0.0
 11
11536.397211
 21
18398.350634999992
 31
0.0
  0
LINE
  5
4996
  8
0-1
  6
CONTINUOUS
 62
     3
 10
11972.753379
 20
17363.985084999989
 30
0.0
 11
12134.990762999991
 21
17554.193066
 31
0.0
  0
LINE
  5
4997
  8
0-1
  6
CONTINUOUS
 62
     3
 10
11972.753379
 20
17363.985084999989
 30
0.0
 11
11536.397211
 21
18398.350634999992
 31
0.0
  0
LINE
  5
4998
  8
0-1
  6
CONTINUOUS
 62
     3
 10
8487.8623049999915
 20
16928.728538999982
 30
0.0
 11
13368.970189
 21
16928.728538999982
 31
0.0
  0
LINE
  5
4999
  8
0-1
  6
CONTINUOUS
 62
     3
 10
8445.3620409999967
 20
13668.73057099998
 30
0.0
 11
15067.36157899998
 21
13668.73057099998
 31
0.0
  0
LINE
  5
499A
  8
0-1
  6
CONTINUOUS
 62
     3
 10
8487.8623049999915
 20
13747.731177999991
 30
0.0
 11
15024.86230499999
 21
13747.731177999991
 31
0.0
  0
LINE
  5
499B
  8
0-1
  6
CONTINUOUS
 62
     3
 10
8402.3628989999979
 20
13512.729660999999
 30
0.0
 11
15110.36270099998
 21
13512.729660999999
 31
0.0
  0
LINE
  5
499C
  8
0-1
  6
CONTINUOUS
 62
     3
 10
8402.3628989999979
 20
13544.73055799999
 30
0.0
 11
15110.36270099998
 21
13544.73055799999
 31
0.0
  0
LINE
  5
499D
  8
0-1
  6
CONTINUOUS
 62
     3
 10
15258.55931999998
 20
15976.278224999989
 30
0.0
 11
12134.990762999991
 21
17554.193066
 31
0.0
  0
LINE
  5
499E
  8
0-1
  6
CONTINUOUS
 62
     3
 10
8487.8623049999915
 20
13668.73057099998
 30
0.0
 11
8487.8623049999915
 21
19670.794866
 31
0.0
  0
LINE
  5
499F
  8
0-1
  6
CONTINUOUS
 62
     3
 10
8445.3620409999967
 20
13668.73057099998
 30
0.0
 11
8445.3620409999967
 21
19692.335986999991
 31
0.0
  0
LINE
  5
49A0
  8
0-1
  6
CONTINUOUS
 62
     3
 10
9608.8627669999969
 20
19107.91875700001
 30
0.0
 11
9608.8627669999969
 21
20094.226823000001
 31
0.0
  0
LINE
  5
49A1
  8
0-1
  6
CONTINUOUS
 62
     3
 10
9645.8609590000033
 20
19089.162818000001
 30
0.0
 11
9645.8609590000033
 21
20094.226823000001
 31
0.0
  0
LINE
  5
49A2
  8
0-1
  6
CONTINUOUS
 62
     3
 10
9808.8624370000034
 20
19006.543651
 30
0.0
 11
9808.8624370000034
 21
20094.226823000012
 31
0.0
  0
LINE
  5
49A3
  8
0-1
  6
CONTINUOUS
 62
     3
 10
10208.861777
 20
18803.79739900001
 30
0.0
 11
10208.861777
 21
20094.226823000001
 31
0.0
  0
LINE
  5
49A4
  8
0-1
  6
CONTINUOUS
 62
     3
 10
10245.861949
 20
18785.041461000001
 30
0.0
 11
10245.861949
 21
20094.226823000001
 31
0.0
  0
LINE
  5
49A5
  8
0-1
  6
CONTINUOUS
 62
     3
 10
10408.862436999991
 20
18702.422294
 30
0.0
 11
10408.862436999991
 21
20094.226823000001
 31
0.0
  0
LINE
  5
49A6
  8
0-1
  6
CONTINUOUS
 62
     3
 10
10445.861618999979
 20
18683.666355000008
 30
0.0
 11
10445.861618999979
 21
20094.226823000001
 31
0.0
  0
LINE
  5
49A7
  8
0-1
  6
CONTINUOUS
 62
     3
 10
10608.862106999981
 20
18601.047188
 30
0.0
 11
10608.862106999981
 21
20094.226823000001
 31
0.0
  0
LINE
  5
49A8
  8
0-1
  6
CONTINUOUS
 62
     3
 10
10645.862279000001
 20
18577.293175999999
 30
0.0
 11
10645.862279000001
 21
20094.226823000001
 31
0.0
  0
LINE
  5
49A9
  8
0-1
  6
CONTINUOUS
 62
     3
 10
10808.861777
 20
18494.674008999991
 30
0.0
 11
10808.861777
 21
20094.226823000001
 31
0.0
  0
LINE
  5
49AA
  8
0-1
  6
CONTINUOUS
 62
     3
 10
10845.861948999989
 20
18475.922030000002
 30
0.0
 11
10845.861948999989
 21
20094.226823000001
 31
0.0
  0
LINE
  5
49AB
  8
0-1
  6
CONTINUOUS
 62
     3
 10
11008.863426999989
 20
18393.302863000001
 30
0.0
 11
11008.863426999989
 21
20094.226823000001
 31
0.0
  0
LINE
  5
49AC
  8
0-1
  6
CONTINUOUS
 62
     3
 10
11045.86161899999
 20
18374.546923999991
 30
0.0
 11
11045.86161899999
 21
20094.226823000001
 31
0.0
  0
LINE
  5
49AD
  8
0-1
  6
CONTINUOUS
 62
     3
 10
11208.862107000001
 20
18291.92775699999
 30
0.0
 11
11208.86210699999
 21
20094.226823000001
 31
0.0
  0
LINE
  5
49AE
  8
0-1
  6
CONTINUOUS
 62
     3
 10
11245.863267999999
 20
18273.171817999992
 30
0.0
 11
11245.863267999999
 21
20094.226823000001
 31
0.0
  0
LINE
  5
49AF
  8
0-1
  6
CONTINUOUS
 62
     3
 10
11408.861777
 20
18248.827699000001
 30
0.0
 11
11408.861777
 21
20094.226823000001
 31
0.0
  0
LINE
  5
49B0
  8
0-1
  6
CONTINUOUS
 62
     3
 10
11445.861949
 20
18292.208848999991
 30
0.0
 11
11445.861949
 21
20094.226823000001
 31
0.0
  0
LINE
  5
49B1
  8
0-1
  6
CONTINUOUS
 62
     3
 10
11608.863427
 20
18227.405349000001
 30
0.0
 11
11608.863427
 21
20094.226823000001
 31
0.0
  0
LINE
  5
49B2
  8
0-1
  6
CONTINUOUS
 62
     3
 10
11645.86161899999
 20
18140.124415999991
 30
0.0
 11
11645.86161899999
 21
20094.226823000001
 31
0.0
  0
LINE
  5
49B3
  8
0-1
  6
CONTINUOUS
 62
     3
 10
9845.8626090000034
 20
18987.787713000002
 30
0.0
 11
9845.8626090000034
 21
20094.226823000001
 31
0.0
  0
LINE
  5
49B4
  8
0-1
  6
CONTINUOUS
 62
     3
 10
10008.862106999981
 20
18905.168546000001
 30
0.0
 11
10008.862106999981
 21
20094.226823000001
 31
0.0
  0
LINE
  5
49B5
  8
0-1
  6
CONTINUOUS
 62
     3
 10
10045.862279000001
 20
18886.416566
 30
0.0
 11
10045.862279000001
 21
20094.226823000001
 31
0.0
  0
LINE
  5
49B6
  8
0-1
  6
CONTINUOUS
 62
     3
 10
12845.862609
 20
17193.875155000002
 30
0.0
 11
12845.862609
 21
17320.730623999982
 31
0.0
  0
LINE
  5
49B7
  8
0-1
  6
CONTINUOUS
 62
     3
 10
12808.862437
 20
17212.631094
 30
0.0
 11
12808.862437
 21
17320.730623999982
 31
0.0
  0
LINE
  5
49B8
  8
0-1
  6
CONTINUOUS
 62
     3
 10
12645.860958999991
 20
17295.250261000001
 30
0.0
 11
12645.860958999991
 21
17320.730623999982
 31
0.0
  0
LINE
  5
49B9
  8
0-1
  6
CONTINUOUS
 62
     3
 10
12608.861776999989
 20
17314.006199999982
 30
0.0
 11
12608.861776999989
 21
17320.730623999982
 31
0.0
  0
LINE
  5
49BA
  8
0-1
  6
CONTINUOUS
 62
     3
 10
12445.86326799999
 20
17720.729963999991
 30
0.0
 11
12445.86326799999
 21
18784.730675999999
 31
0.0
  0
LINE
  5
49BB
  8
0-1
  6
CONTINUOUS
 62
     3
 10
12408.86210699999
 20
17720.729963999991
 30
0.0
 11
12408.86210699999
 21
18784.730675999999
 31
0.0
  0
LINE
  5
49BC
  8
0-1
  6
CONTINUOUS
 62
     3
 10
12245.862609
 20
17720.729963999991
 30
0.0
 11
12245.862609
 21
18784.730675999999
 31
0.0
  0
LINE
  5
49BD
  8
0-1
  6
CONTINUOUS
 62
     3
 10
12208.862437
 20
17720.729963999991
 30
0.0
 11
12208.862437
 21
18784.730675999999
 31
0.0
  0
LINE
  5
49BE
  8
0-1
  6
CONTINUOUS
 62
     3
 10
12045.860959
 20
17449.69625999999
 30
0.0
 11
12045.860959
 21
20094.226823000001
 31
0.0
  0
LINE
  5
49BF
  8
0-1
  6
CONTINUOUS
 62
     3
 10
12008.862767000001
 20
17406.319069000001
 30
0.0
 11
12008.862767000001
 21
20094.226823000001
 31
0.0
  0
LINE
  5
49C0
  8
0-1
  6
CONTINUOUS
 62
     3
 10
11845.863267999979
 20
17663.323925000001
 30
0.0
 11
11845.863267999979
 21
20094.226823000001
 31
0.0
  0
LINE
  5
49C1
  8
0-1
  6
CONTINUOUS
 62
     3
 10
11808.862107000001
 20
17750.608818000001
 30
0.0
 11
11808.862107000001
 21
20094.226823000001
 31
0.0
  0
LINE
  5
49C2
  8
0-1
  6
CONTINUOUS
 62
     3
 10
15067.36157899998
 20
13668.73057099998
 30
0.0
 11
15067.36157899998
 21
16073.189516
 31
0.0
  0
LINE
  5
49C3
  8
0-1
  6
CONTINUOUS
 62
     3
 10
15024.86230499999
 20
13668.73057099998
 30
0.0
 11
15024.86230499999
 21
16094.72964799999
 31
0.0
  0
LINE
  5
49C4
  8
0-1
  6
CONTINUOUS
 62
     3
 10
15110.36270099998
 20
13512.729660999999
 30
0.0
 11
15110.36270099998
 21
20104.228275000009
 31
0.0
  0
LINE
  5
49C5
  8
0-1
  6
CONTINUOUS
 62
     3
 10
14974.86168399999
 20
13544.73055799999
 30
0.0
 11
14974.86168399999
 21
20094.22682299999
 31
0.0
  0
LINE
  5
49C6
  8
0-1
  6
CONTINUOUS
 62
     3
 10
14879.36273999999
 20
16168.481561000001
 30
0.0
 11
14879.36273999999
 21
20094.226823000001
 31
0.0
  0
LINE
  5
49C7
  8
0-1
  6
CONTINUOUS
 62
     3
 10
14916.36291199998
 20
16149.727601999981
 30
0.0
 11
14916.36291199998
 21
20094.226823000001
 31
0.0
  0
LINE
  5
49C8
  8
0-1
  6
CONTINUOUS
 62
     3
 10
11374.159826999979
 20
18208.142653999988
 30
0.0
 11
8254.1672689999941
 21
19789.247277999992
 31
0.0
  0
LINE
  5
49C9
  8
0-1
  6
CONTINUOUS
 62
     3
 10
13045.86326799999
 20
17092.504008999978
 30
0.0
 11
13045.86326799999
 21
17320.730623999982
 31
0.0
  0
LINE
  5
49CA
  8
0-1
  6
CONTINUOUS
 62
     3
 10
13082.861461
 20
17073.748070000001
 30
0.0
 11
13082.861461
 21
17320.730623999982
 31
0.0
  0
LINE
  5
49CB
  8
0-1
  6
CONTINUOUS
 62
     3
 10
13245.861949
 20
16991.128903000001
 30
0.0
 11
13245.861949
 21
17320.730623999982
 31
0.0
  0
LINE
  5
49CC
  8
0-1
  6
CONTINUOUS
 62
     3
 10
13282.86212
 20
16972.372964999991
 30
0.0
 11
13282.86212
 21
17320.730623999982
 31
0.0
  0
LINE
  5
49CD
  8
0-1
  6
CONTINUOUS
 62
     3
 10
13445.862609
 20
16889.753798000002
 30
0.0
 11
13445.862609
 21
17320.730623999982
 31
0.0
  0
LINE
  5
49CE
  8
0-1
  6
CONTINUOUS
 62
     3
 10
13482.861790000001
 20
16870.999838999978
 30
0.0
 11
13482.861790000001
 21
17320.730623999982
 31
0.0
  0
LINE
  5
49CF
  8
0-1
  6
CONTINUOUS
 62
     3
 10
14119.862951999999
 20
16548.126500999992
 30
0.0
 11
14119.862951999999
 21
17320.730623999982
 31
0.0
  0
LINE
  5
49D0
  8
0-1
  6
CONTINUOUS
 62
     3
 10
14082.86080099999
 20
16566.882439999979
 30
0.0
 11
14082.86080099999
 21
17320.730623999982
 31
0.0
  0
LINE
  5
49D1
  8
0-1
  6
CONTINUOUS
 62
     3
 10
13919.862291999991
 20
16649.49764799999
 30
0.0
 11
13919.862291999991
 21
17320.730623999982
 31
0.0
  0
LINE
  5
49D2
  8
0-1
  6
CONTINUOUS
 62
     3
 10
13882.86310999998
 20
16668.253586999981
 30
0.0
 11
13882.86310999998
 21
17320.730623999982
 31
0.0
  0
LINE
  5
49D3
  8
0-1
  6
CONTINUOUS
 62
     3
 10
13719.862621999981
 20
16750.872754
 30
0.0
 11
13719.862621999981
 21
17320.730623999982
 31
0.0
  0
LINE
  5
49D4
  8
0-1
  6
CONTINUOUS
 62
     3
 10
13682.861461
 20
16769.628691999991
 30
0.0
 11
13682.861461
 21
17320.730623999982
 31
0.0
  0
LINE
  5
49D5
  8
0-1
  6
CONTINUOUS
 62
     3
 10
14319.862621999981
 20
16446.751396
 30
0.0
 11
14319.862621999981
 21
20094.226823000001
 31
0.0
  0
LINE
  5
49D6
  8
0-1
  6
CONTINUOUS
 62
     3
 10
14356.862793
 20
16427.997436999991
 30
0.0
 11
14356.862793
 21
20094.226823000001
 31
0.0
  0
LINE
  5
49D7
  8
0-1
  6
CONTINUOUS
 62
     3
 10
14519.862291999991
 20
16345.37628999998
 30
0.0
 11
14519.862291999991
 21
20094.226823000001
 31
0.0
  0
LINE
  5
49D8
  8
0-1
  6
CONTINUOUS
 62
     3
 10
14556.863453
 20
16326.622331
 30
0.0
 11
14556.863453
 21
20094.226823000001
 31
0.0
  0
LINE
  5
49D9
  8
0-1
  6
CONTINUOUS
 62
     3
 10
14719.86295199999
 20
16244.00613399999
 30
0.0
 11
14719.86295199999
 21
20094.226823000001
 31
0.0
  0
LINE
  5
49DA
  8
0-1
  6
CONTINUOUS
 62
     3
 10
14756.861144
 20
16225.250195000001
 30
0.0
 11
14756.861144
 21
20094.226823000001
 31
0.0
  0
LINE
  5
49DB
  8
0-1
  6
CONTINUOUS
 62
     3
 10
8420.3636509999978
 20
20074.22867
 30
0.0
 11
8470.8621599999933
 21
20074.22867
 31
0.0
  0
LINE
  5
49DC
  8
0-1
  6
CONTINUOUS
 62
     3
 10
8420.3636509999978
 20
20096.727878999998
 30
0.0
 11
8402.3628989999979
 21
20096.727878999998
 31
0.0
  0
LINE
  5
49DD
  8
0-1
  6
CONTINUOUS
 62
     3
 10
8470.8621599999933
 20
20114.230781999991
 30
0.0
 11
8407.3621729999995
 21
20114.230781999991
 31
0.0
  0
LINE
  5
49DE
  8
0-1
  6
CONTINUOUS
 62
     3
 10
8402.3628989999979
 20
20109.22853800001
 30
0.0
 11
8402.3628989999979
 21
20074.22867
 31
0.0
  0
LINE
  5
49DF
  8
0-1
  6
CONTINUOUS
 62
     3
 10
8475.8614339999949
 20
20079.228933999992
 30
0.0
 11
8475.8614339999949
 21
20109.22853800001
 31
0.0
  0
LINE
  5
49E0
  8
0-1
  6
CONTINUOUS
 62
     3
 10
8475.8614339999949
 20
20094.226823000001
 30
0.0
 11
15036.86317599999
 21
20094.226823000001
 31
0.0
  0
LINE
  5
49E1
  8
0-1
  6
CONTINUOUS
 62
     3
 10
8420.3636509999978
 20
19703.488593999991
 30
0.0
 11
8420.3636509999978
 21
20096.727878999998
 31
0.0
  0
LINE
  5
49E2
  8
0-1
  6
CONTINUOUS
 62
     3
 10
15041.863439999979
 20
20114.230781999991
 30
0.0
 11
15105.362436999991
 21
20114.230781999991
 31
0.0
  0
LINE
  5
49E3
  8
0-1
  6
CONTINUOUS
 62
     3
 10
15092.36293799998
 20
20074.22867
 30
0.0
 11
15041.863439999979
 21
20074.22867
 31
0.0
  0
LINE
  5
49E4
  8
0-1
  6
CONTINUOUS
 62
     3
 10
15036.86317599999
 20
20079.228933999992
 30
0.0
 11
15036.86317599999
 21
20109.22853800001
 31
0.0
  0
LINE
  5
49E5
  8
0-1
  6
CONTINUOUS
 62
     3
 10
15110.36270099998
 20
20109.22853800001
 30
0.0
 11
15110.36270099998
 21
20074.22867
 31
0.0
  0
LINE
  5
49E6
  8
0-1
  6
CONTINUOUS
 62
     3
 10
15092.36293799998
 20
20096.727878999998
 30
0.0
 11
15110.36270099998
 21
20096.727878999998
 31
0.0
  0
LINE
  5
49E7
  8
0-1
  6
CONTINUOUS
 62
     3
 10
15092.36293799998
 20
16062.038887999999
 30
0.0
 11
15092.36293799998
 21
20096.727878999998
 31
0.0
  0
LINE
  5
49E8
  8
0-1
  6
CONTINUOUS
 62
     3
 10
8487.8623049999915
 20
15559.731309999999
 30
0.0
 11
15024.86230499999
 21
15559.731309999999
 31
0.0
  0
LINE
  5
49E9
  8
0-1
  6
CONTINUOUS
 62
     3
 10
8487.8623049999915
 20
15469.73150799999
 30
0.0
 11
15024.86230499999
 21
15469.73150799999
 31
0.0
  0
LINE
  5
49EA
  8
0-1
  6
CONTINUOUS
 62
     3
 10
8487.8623049999915
 20
18477.729329999991
 30
0.0
 11
10842.293867
 21
18477.729329999991
 31
0.0
  0
LINE
  5
49EB
  8
0-1
  6
CONTINUOUS
 62
     3
 10
8487.8623049999915
 20
18387.728537999999
 30
0.0
 11
11019.854703999999
 21
18387.728537999999
 31
0.0
  0
LINE
  5
49EC
  8
0-1
  6
CONTINUOUS
 62
     3
 10
11813.362542999979
 20
13747.731177999991
 30
0.0
 11
11813.362542999979
 21
15469.73150799999
 31
0.0
  0
LINE
  5
49ED
  8
0-1
  6
CONTINUOUS
 62
     3
 10
11699.362068
 20
13747.731177999991
 30
0.0
 11
11699.362068
 21
15469.73150799999
 31
0.0
  0
LINE
  5
49EE
  8
0-1
  6
CONTINUOUS
 62
     3
 10
11756.362304999981
 20
13747.731177999991
 30
0.0
 11
11756.362304999981
 21
15119.729858000001
 31
0.0
  0
LINE
  5
49EF
  8
0-1
  6
CONTINUOUS
 62
     3
 10
11756.362304999981
 20
13668.73057099998
 30
0.0
 11
11756.362304999981
 21
15469.73150799999
 31
0.0
  0
LINE
  5
49F0
  8
0-1
  6
CONTINUOUS
 62
     3
 10
11756.362304999981
 20
15559.731309999999
 30
0.0
 11
11756.362304999981
 21
16928.728538999982
 31
0.0
  0
LINE
  5
49F1
  8
0-1
  6
CONTINUOUS
 62
     3
 10
11756.362304999981
 20
17007.729145999991
 30
0.0
 11
11756.362304999981
 21
17524.45673799999
 31
0.0
  0
LINE
  5
49F2
  8
0-1
  6
CONTINUOUS
 62
     3
 10
11756.362304999981
 20
17007.729145999991
 30
0.0
 11
11756.362304999981
 21
17884.453544000011
 31
0.0
  0
LINE
  5
49F3
  8
0-1
  6
CONTINUOUS
 62
     3
 10
11699.362068
 20
17007.729145999991
 30
0.0
 11
11699.362068
 21
18018.918281999999
 31
0.0
  0
LINE
  5
49F4
  8
0-1
  6
CONTINUOUS
 62
     3
 10
11813.362542999979
 20
17007.729145999991
 30
0.0
 11
11813.362542999979
 21
17739.99266
 31
0.0
  0
LINE
  5
49F5
  8
0-1
  6
CONTINUOUS
 62
     3
 10
11699.362068
 20
15559.731309999999
 30
0.0
 11
11699.362068
 21
16928.728538999982
 31
0.0
  0
LINE
  5
49F6
  8
0-1
  6
CONTINUOUS
 62
     3
 10
11813.362542999979
 20
15559.731309999999
 30
0.0
 11
11813.362542999979
 21
16928.728538999982
 31
0.0
  0
LINE
  5
49F7
  8
0-1
  6
CONTINUOUS
 62
     3
 10
11756.362304999981
 20
15559.731309999999
 30
0.0
 11
11756.362304999981
 21
15469.73150799999
 31
0.0
  0
LINE
  5
49F8
  8
0-1
  6
CONTINUOUS
 62
     3
 10
11756.362304999981
 20
17007.729145999991
 30
0.0
 11
11756.362304999981
 21
16928.728538999982
 31
0.0
  0
LINE
  5
49F9
  8
0-1
  6
CONTINUOUS
 62
     3
 10
8557.8630309999971
 20
13705.230913999991
 30
0.0
 11
11686.362569000001
 21
15514.730913999991
 31
0.0
  0
LINE
  5
49FA
  8
0-1
  6
CONTINUOUS
 62
     3
 10
11686.362569000001
 20
13705.230913999991
 30
0.0
 11
8557.8630309999971
 21
15514.730913999991
 31
0.0
  0
LINE
  5
49FB
  8
0-1
  6
CONTINUOUS
 62
     3
 10
11686.362569000001
 20
15514.730913999991
 30
0.0
 11
8557.8630309999971
 21
16973.730914
 31
0.0
  0
LINE
  5
49FC
  8
0-1
  6
CONTINUOUS
 62
     3
 10
11686.362569000001
 20
16973.730914
 30
0.0
 11
8557.8630309999971
 21
15514.730913999991
 31
0.0
  0
LINE
  5
49FD
  8
0-1
  6
CONTINUOUS
 62
     3
 10
11686.362569000001
 20
16973.730914
 30
0.0
 11
8557.8630309999971
 21
18432.730914
 31
0.0
  0
LINE
  5
49FE
  8
0-1
  6
CONTINUOUS
 62
     3
 10
9798.9341620000014
 20
19011.575588
 30
0.0
 11
8557.8630309999971
 21
18432.730914
 31
0.0
  0
LINE
  5
49FF
  8
0-1
  6
CONTINUOUS
 62
     3
 10
11292.98471899998
 20
18249.286947000001
 30
0.0
 11
8557.8630309999971
 21
16973.730914
 31
0.0
  0
LINE
  5
4A00
  8
0-1
  6
CONTINUOUS
 62
     3
 10
11548.980020000001
 20
18368.663795
 30
0.0
 11
11486.044195999981
 21
18339.315451999999
 31
0.0
  0
LINE
  5
4A01
  8
0-1
  6
CONTINUOUS
 62
     3
 10
11826.36204099998
 20
13705.230913999991
 30
0.0
 11
14954.86256899999
 21
15514.730913999991
 31
0.0
  0
LINE
  5
4A02
  8
0-1
  6
CONTINUOUS
 62
     3
 10
14954.86256899999
 20
13705.230913999991
 30
0.0
 11
12702.651368000001
 21
15007.731665999991
 31
0.0
  0
LINE
  5
4A03
  8
0-1
  6
CONTINUOUS
 62
     3
 10
11826.36204099998
 20
16973.730914
 30
0.0
 11
14954.86256899999
 21
15514.730913999991
 31
0.0
  0
LINE
  5
4A04
  8
0-1
  6
CONTINUOUS
 62
     3
 10
11826.36204099998
 20
15514.730913999991
 30
0.0
 11
14077.611117
 21
16569.540932999989
 31
0.0
  0
LINE
  5
4A05
  8
0-1
  6
CONTINUOUS
 62
     3
 10
11826.36204099998
 20
16973.730914
 30
0.0
 11
12583.56056
 21
17326.829520999981
 31
0.0
  0
LINE
  5
4A06
  8
0-1
  6
CONTINUOUS
 62
     3
 10
13919.862291999991
 20
19184.730016999991
 30
0.0
 11
13919.862291999991
 21
20094.226823000001
 31
0.0
  0
LINE
  5
4A07
  8
0-1
  6
CONTINUOUS
 62
     3
 10
13682.861461
 20
19184.730016999991
 30
0.0
 11
13682.861461
 21
20094.226823000001
 31
0.0
  0
LINE
  5
4A08
  8
0-1
  6
CONTINUOUS
 62
     3
 10
13719.862621999981
 20
19184.730016999991
 30
0.0
 11
13719.862621999981
 21
20094.226823000001
 31
0.0
  0
LINE
  5
4A09
  8
0-1
  6
CONTINUOUS
 62
     3
 10
13882.86310999998
 20
19184.730016999991
 30
0.0
 11
13882.86310999998
 21
20094.226823000001
 31
0.0
  0
LINE
  5
4A0A
  8
0-1
  6
CONTINUOUS
 62
     3
 10
13482.861790000001
 20
19184.730016999991
 30
0.0
 11
13482.861790000001
 21
20094.226823000001
 31
0.0
  0
LINE
  5
4A0B
  8
0-1
  6
CONTINUOUS
 62
     3
 10
13445.862609
 20
19184.730016999991
 30
0.0
 11
13445.862609
 21
20094.226823000001
 31
0.0
  0
LINE
  5
4A0C
  8
0-1
  6
CONTINUOUS
 62
     3
 10
13282.86212
 20
19184.730016999991
 30
0.0
 11
13282.86212
 21
20094.226823000001
 31
0.0
  0
LINE
  5
4A0D
  8
0-1
  6
CONTINUOUS
 62
     3
 10
13245.861949
 20
19184.730016999991
 30
0.0
 11
13245.861949
 21
20094.226823000001
 31
0.0
  0
LINE
  5
4A0E
  8
0-1
  6
CONTINUOUS
 62
     3
 10
13082.861461
 20
19184.730016999991
 30
0.0
 11
13082.861461
 21
20094.226823000001
 31
0.0
  0
LINE
  5
4A0F
  8
0-1
  6
CONTINUOUS
 62
     3
 10
13045.86326799999
 20
19184.730016999991
 30
0.0
 11
13045.86326799999
 21
20094.226823000001
 31
0.0
  0
LINE
  5
4A10
  8
0-1
  6
CONTINUOUS
 62
     3
 10
12208.862437
 20
19184.730016999991
 30
0.0
 11
12208.862437
 21
20094.226823000001
 31
0.0
  0
LINE
  5
4A11
  8
0-1
  6
CONTINUOUS
 62
     3
 10
12245.862609
 20
19184.730016999991
 30
0.0
 11
12245.862609
 21
20094.226823000001
 31
0.0
  0
LINE
  5
4A12
  8
0-1
  6
CONTINUOUS
 62
     3
 10
12408.86210699999
 20
19184.730016999991
 30
0.0
 11
12408.86210699999
 21
20094.226823000001
 31
0.0
  0
LINE
  5
4A13
  8
0-1
  6
CONTINUOUS
 62
     3
 10
12445.86326799999
 20
19184.730016999991
 30
0.0
 11
12445.86326799999
 21
20094.226823000001
 31
0.0
  0
LINE
  5
4A14
  8
0-1
  6
CONTINUOUS
 62
     3
 10
12608.861776999989
 20
19184.730016999991
 30
0.0
 11
12608.861776999989
 21
20094.226823000001
 31
0.0
  0
LINE
  5
4A15
  8
0-1
  6
CONTINUOUS
 62
     3
 10
12645.860958999991
 20
19184.730016999991
 30
0.0
 11
12645.860958999991
 21
20094.226823000001
 31
0.0
  0
LINE
  5
4A16
  8
0-1
  6
CONTINUOUS
 62
     3
 10
12808.862437
 20
19184.730016999991
 30
0.0
 11
12808.862437
 21
20094.226823000001
 31
0.0
  0
LINE
  5
4A17
  8
0-1
  6
CONTINUOUS
 62
     3
 10
12845.862609
 20
19184.730016999991
 30
0.0
 11
12845.862609
 21
20094.226823000001
 31
0.0
  0
LINE
  5
4A18
  8
0-1
  6
CONTINUOUS
 62
     3
 10
14082.86080099999
 20
19184.730016999991
 30
0.0
 11
14082.86080099999
 21
20094.226823000001
 31
0.0
  0
LINE
  5
4A19
  8
0-1
  6
CONTINUOUS
 62
     3
 10
14119.862951999999
 20
19184.730016999991
 30
0.0
 11
14119.862951999999
 21
20094.226823000001
 31
0.0
  0
LINE
  5
4A1A
  8
0-1
  6
CONTINUOUS
 62
     3
 10
13482.861790000001
 20
17720.729963999991
 30
0.0
 11
13482.861790000001
 21
18784.730675999999
 31
0.0
  0
LINE
  5
4A1B
  8
0-1
  6
CONTINUOUS
 62
     3
 10
13445.862609
 20
17720.729963999991
 30
0.0
 11
13445.862609
 21
18784.730675999999
 31
0.0
  0
LINE
  5
4A1C
  8
0-1
  6
CONTINUOUS
 62
     3
 10
13282.86212
 20
17720.729963999991
 30
0.0
 11
13282.86212
 21
18784.730675999999
 31
0.0
  0
LINE
  5
4A1D
  8
0-1
  6
CONTINUOUS
 62
     3
 10
13245.861949
 20
17720.729963999991
 30
0.0
 11
13245.861949
 21
18784.730675999999
 31
0.0
  0
LINE
  5
4A1E
  8
0-1
  6
CONTINUOUS
 62
     3
 10
13082.861461
 20
17720.729963999991
 30
0.0
 11
13082.861461
 21
18784.730675999999
 31
0.0
  0
LINE
  5
4A1F
  8
0-1
  6
CONTINUOUS
 62
     3
 10
13045.86326799999
 20
17720.729963999991
 30
0.0
 11
13045.86326799999
 21
18784.730675999999
 31
0.0
  0
LINE
  5
4A20
  8
0-1
  6
CONTINUOUS
 62
     3
 10
12808.862437
 20
17720.729963999991
 30
0.0
 11
12808.862437
 21
18784.730675999999
 31
0.0
  0
LINE
  5
4A21
  8
0-1
  6
CONTINUOUS
 62
     3
 10
12845.862609
 20
17720.729963999991
 30
0.0
 11
12845.862609
 21
18784.730675999999
 31
0.0
  0
LINE
  5
4A22
  8
0-1
  6
CONTINUOUS
 62
     3
 10
12608.861776999989
 20
17720.729963999991
 30
0.0
 11
12608.861776999989
 21
18784.730675999999
 31
0.0
  0
LINE
  5
4A23
  8
0-1
  6
CONTINUOUS
 62
     3
 10
12645.860958999991
 20
17720.729963999991
 30
0.0
 11
12645.860958999991
 21
18784.730675999999
 31
0.0
  0
LINE
  5
4A24
  8
0-1
  6
CONTINUOUS
 62
     3
 10
13682.861461
 20
17720.729963999991
 30
0.0
 11
13682.861461
 21
18784.730675999999
 31
0.0
  0
LINE
  5
4A25
  8
0-1
  6
CONTINUOUS
 62
     3
 10
13719.862621999981
 20
17720.729963999991
 30
0.0
 11
13719.862621999981
 21
18784.730675999999
 31
0.0
  0
LINE
  5
4A26
  8
0-1
  6
CONTINUOUS
 62
     3
 10
13882.86310999998
 20
17720.729963999991
 30
0.0
 11
13882.86310999998
 21
18784.730675999999
 31
0.0
  0
LINE
  5
4A27
  8
0-1
  6
CONTINUOUS
 62
     3
 10
13919.862291999991
 20
17720.729963999991
 30
0.0
 11
13919.862291999991
 21
18784.730675999999
 31
0.0
  0
LINE
  5
4A28
  8
0-1
  6
CONTINUOUS
 62
     3
 10
14082.86080099999
 20
17720.729963999991
 30
0.0
 11
14082.86080099999
 21
18784.730675999999
 31
0.0
  0
LINE
  5
4A29
  8
0-1
  6
CONTINUOUS
 62
     3
 10
14119.862951999999
 20
17720.729963999991
 30
0.0
 11
14119.862951999999
 21
18784.730675999999
 31
0.0
  0
LINE
  5
4A2A
  8
0-1
  6
CONTINUOUS
 62
     3
 10
12218.14044099999
 20
15288.05822099999
 30
0.0
 11
11826.36204099998
 21
15514.730913999991
 31
0.0
  0
LINE
  5
4A2B
  8
0-1
  6
CONTINUOUS
 62
     3
 10
11756.362304999981
 20
13668.73057099998
 30
0.0
 11
11756.362304999981
 21
13512.729660999999
 31
0.0
  0
LINE
  5
4A2C
  8
0-4
  6
CONTINUOUS
 62
     4
 10
17611.938609000001
 20
6384.4362370000017
 30
0.0
 11
17731.940983999979
 21
6176.5902500000002
 31
0.0
  0
LINE
  5
4A2D
  8
0-4
  6
CONTINUOUS
 62
     4
 10
15426.53135600001
 20
6176.5902500000002
 30
0.0
 11
19363.820470999999
 21
6176.5902500000002
 31
0.0
  0
LINE
  5
4A2E
  8
0-4
  6
CONTINUOUS
 62
     4
 10
17731.940983999979
 20
6176.5902500000002
 30
0.0
 11
17851.939401
 21
6384.4362370000017
 31
0.0
  0
LINE
  5
4A2F
  8
0-4
  6
CONTINUOUS
 62
     4
 10
17851.939401
 20
6384.4362370000017
 30
0.0
 11
17611.938609000001
 21
6384.4362370000017
 31
0.0
  0
LINE
  5
4A30
  8
0-5
  6
CONTINUOUS
 62
     6
 10
10574.328415999969
 20
19831.955391
 30
0.0
 11
10718.22951899999
 21
20344.231046000001
 31
0.0
  0
LINE
  5
4A31
  8
0-5
  6
CONTINUOUS
 62
     6
 10
10718.22951899999
 20
20344.231046000001
 30
0.0
 11
11235.919156999989
 21
20344.231046000001
 31
0.0
  0
LINE
  5
4A32
  8
0-5
  6
CONTINUOUS
 62
     6
 10
8652.3909809999968
 20
18771.428311
 30
0.0
 11
9182.8891740000035
 21
18771.428311
 31
0.0
  0
LINE
  5
4A33
  8
0-5
  6
CONTINUOUS
 62
     6
 10
9648.7431379999998
 20
13899.61963899998
 30
0.0
 11
9731.6305300000022
 21
14076.558907000001
 31
0.0
  0
LINE
  5
4A34
  8
0-5
  6
CONTINUOUS
 62
     6
 10
9731.6305300000022
 20
14076.558907000001
 30
0.0
 11
10531.630199999991
 21
14076.558907000001
 31
0.0
  0
LINE
  5
4A35
  8
0-5
  6
CONTINUOUS
 62
     6
 10
10639.156660000001
 20
12712.72999099998
 30
0.0
 11
11501.735839999999
 21
12712.72999099998
 31
0.0
  0
LINE
  5
4A36
  8
0-5
  6
CONTINUOUS
 62
     6
 10
10233.042586
 20
13376.26165
 30
0.0
 11
10639.156660000001
 21
12712.72999099998
 31
0.0
  0
LINE
  5
4A37
  8
0-5
  6
CONTINUOUS
 62
     6
 10
6671.9652859999951
 20
12312.730651
 30
0.0
 11
7751.9638999999979
 21
12312.730651
 31
0.0
  0
LINE
  5
4A38
  8
0-5
  6
CONTINUOUS
 62
     6
 10
8310.4687369999956
 20
14093.00276799998
 30
0.0
 11
7751.9638999999979
 21
12312.730651
 31
0.0
  0
LINE
  5
4A39
  8
0-5
  6
CONTINUOUS
 62
     6
 10
8553.3477489999932
 20
18992.217874999991
 30
0.0
 11
8652.3909809999968
 21
18771.428311
 31
0.0
  0
LINE
  5
4A3A
  8
0-5
  6
CONTINUOUS
 62
     6
 10
9853.3461790000001
 20
16539.016757000001
 30
0.0
 11
9958.9792289999878
 21
16640.04742599999
 31
0.0
  0
LINE
  5
4A3B
  8
0-5
  6
CONTINUOUS
 62
     6
 10
8550.0835229999975
 20
20257.009497999999
 30
0.0
 11
8711.6053109999957
 21
20592.767521999998
 31
0.0
  0
LINE
  5
4A3C
  8
0-5
  6
CONTINUOUS
 62
     6
 10
8773.2673139999988
 20
20720.953227000002
 30
0.0
 11
8949.5999400000001
 21
21065.672531000011
 31
0.0
  0
LINE
  5
4A3D
  8
0-5
  6
CONTINUOUS
 62
     6
 10
8949.5999400000001
 20
21065.672531000011
 30
0.0
 11
10602.44549799999
 21
21065.672531000011
 31
0.0
  0
LINE
  5
4A3E
  8
0-5
  6
CONTINUOUS
 62
     6
 10
10590.75842
 20
16103.757241999991
 30
0.0
 11
11538.70335
 21
16103.757241999991
 31
0.0
  0
LINE
  5
4A3F
  8
0-5
  6
CONTINUOUS
 62
     6
 10
11699.362068
 20
15678.734807999979
 30
0.0
 11
11538.70335
 21
16103.757241999991
 31
0.0
  0
LINE
  5
4A40
  8
0-5
  6
CONTINUOUS
 62
     6
 10
12218.14044099999
 20
18864.730940000009
 30
0.0
 11
14212.583602000001
 21
18864.730940000009
 31
0.0
  0
LINE
  5
4A41
  8
0-5
  6
CONTINUOUS
 62
     6
 10
12218.14044099999
 20
17400.730887999998
 30
0.0
 11
14212.583602000001
 21
17400.730887999998
 31
0.0
  0
LINE
  5
4A42
  8
0-5
  6
CONTINUOUS
 62
     6
 10
9958.9792289999878
 20
16640.04742599999
 30
0.0
 11
10838.981142000001
 21
16640.04742599999
 31
0.0
  0
LINE
  5
4A43
  8
0-5
  6
CONTINUOUS
 62
     6
 10
14353.130411
 20
18621.29172500001
 30
0.0
 11
14212.583602000001
 21
18864.730940000009
 31
0.0
  0
LINE
  5
4A44
  8
0-5
  6
CONTINUOUS
 62
     6
 10
14353.130411
 20
17157.291671999999
 30
0.0
 11
14212.583602000001
 21
17400.730887999998
 31
0.0
  0
LINE
  5
4A45
  8
0-5
  6
CONTINUOUS
 62
     6
 10
12218.14044099999
 20
15087.73093999999
 30
0.0
 11
14212.583602000001
 21
15087.73093999999
 31
0.0
  0
LINE
  5
4A46
  8
0-5
  6
CONTINUOUS
 62
     6
 10
14353.130411
 20
15331.167186000001
 30
0.0
 11
14212.583602000001
 21
15087.73093999999
 31
0.0
  0
LINE
  5
4A47
  8
0-5
  6
CONTINUOUS
 62
     6
 10
8577.6799909999936
 20
19003.13492
 30
0.0
 11
8487.8623049999915
 21
19138.203411999992
 31
0.0
  0
LINE
  5
4A48
  8
0-5
  6
CONTINUOUS
 62
     6
 10
8487.8623049999915
 20
19138.203411999992
 30
0.0
 11
8529.0164959999984
 21
18981.302810000001
 31
0.0
  0
LINE
  5
4A49
  8
0-5
  6
CONTINUOUS
 62
     6
 10
8487.8623049999915
 20
19138.203411999992
 30
0.0
 11
8577.6799909999936
 21
19003.13492
 31
0.0
  0
LINE
  5
4A4A
  8
0-5
  6
CONTINUOUS
 62
     6
 10
8577.6799909999936
 20
19003.13492
 30
0.0
 11
8529.0164959999984
 21
18981.302810000001
 31
0.0
  0
LINE
  5
4A4B
  8
0-5
  6
CONTINUOUS
 62
     6
 10
8529.0164959999984
 20
18981.302810000001
 30
0.0
 11
8487.8623049999915
 21
19138.203411999992
 31
0.0
  0
LINE
  5
4A4C
  8
0-5
  6
CONTINUOUS
 62
     6
 10
8529.0164959999984
 20
18981.302810000001
 30
0.0
 11
8577.6799909999936
 21
19003.13492
 31
0.0
  0
LINE
  5
4A4D
  8
0-5
  6
CONTINUOUS
 62
     6
 10
10255.78725499999
 20
13390.18261399999
 30
0.0
 11
10149.517789999991
 21
13512.729660999999
 31
0.0
  0
LINE
  5
4A4E
  8
0-5
  6
CONTINUOUS
 62
     6
 10
10149.517789999991
 20
13512.729660999999
 30
0.0
 11
10210.296927999991
 21
13362.341675
 31
0.0
  0
LINE
  5
4A4F
  8
0-5
  6
CONTINUOUS
 62
     6
 10
10149.517789999991
 20
13512.729660999999
 30
0.0
 11
10255.78725499999
 21
13390.18261399999
 31
0.0
  0
LINE
  5
4A50
  8
0-5
  6
CONTINUOUS
 62
     6
 10
10255.78725499999
 20
13390.18261399999
 30
0.0
 11
10210.296927999991
 21
13362.341675
 31
0.0
  0
LINE
  5
4A51
  8
0-5
  6
CONTINUOUS
 62
     6
 10
10210.296927999991
 20
13362.341675
 30
0.0
 11
10149.517789999991
 21
13512.729660999999
 31
0.0
  0
LINE
  5
4A52
  8
0-5
  6
CONTINUOUS
 62
     6
 10
10210.296927999991
 20
13362.341675
 30
0.0
 11
10255.78725499999
 21
13390.18261399999
 31
0.0
  0
LINE
  5
4A53
  8
0-5
  6
CONTINUOUS
 62
     6
 10
8335.9124789999951
 20
14085.02035999999
 30
0.0
 11
8358.3621989999956
 21
14245.666211
 31
0.0
  0
LINE
  5
4A54
  8
0-5
  6
CONTINUOUS
 62
     6
 10
8358.3621989999956
 20
14245.666211
 30
0.0
 11
8285.0259849999984
 21
14100.98418699998
 31
0.0
  0
LINE
  5
4A55
  8
0-5
  6
CONTINUOUS
 62
     6
 10
8358.3621989999956
 20
14245.666211
 30
0.0
 11
8335.9124789999951
 21
14085.02035999999
 31
0.0
  0
LINE
  5
4A56
  8
0-5
  6
CONTINUOUS
 62
     6
 10
8335.9124789999951
 20
14085.02035999999
 30
0.0
 11
8285.0259849999984
 21
14100.98418699998
 31
0.0
  0
LINE
  5
4A57
  8
0-5
  6
CONTINUOUS
 62
     6
 10
8285.0259849999984
 20
14100.98418699998
 30
0.0
 11
8358.3621989999956
 21
14245.666211
 31
0.0
  0
LINE
  5
4A58
  8
0-5
  6
CONTINUOUS
 62
     6
 10
8285.0259849999984
 20
14100.98418699998
 30
0.0
 11
8335.9124789999951
 21
14085.02035999999
 31
0.0
  0
LINE
  5
4A59
  8
0-5
  6
CONTINUOUS
 62
     6
 10
9624.5959809999986
 20
13910.932588
 30
0.0
 11
9580.8703950000036
 21
13754.73075599999
 31
0.0
  0
LINE
  5
4A5A
  8
0-5
  6
CONTINUOUS
 62
     6
 10
9580.8703950000036
 20
13754.73075599999
 30
0.0
 11
9672.8912849999997
 21
13888.307679999991
 31
0.0
  0
LINE
  5
4A5B
  8
0-5
  6
CONTINUOUS
 62
     6
 10
9580.8703950000036
 20
13754.73075599999
 30
0.0
 11
9624.5959809999986
 21
13910.932588
 31
0.0
  0
LINE
  5
4A5C
  8
0-5
  6
CONTINUOUS
 62
     6
 10
9624.5959809999986
 20
13910.932588
 30
0.0
 11
9672.8912849999997
 21
13888.307679999991
 31
0.0
  0
LINE
  5
4A5D
  8
0-5
  6
CONTINUOUS
 62
     6
 10
9672.8912849999997
 20
13888.307679999991
 30
0.0
 11
9580.8703950000036
 21
13754.73075599999
 31
0.0
  0
LINE
  5
4A5E
  8
0-5
  6
CONTINUOUS
 62
     6
 10
9672.8912849999997
 20
13888.307679999991
 30
0.0
 11
9624.5959809999986
 21
13910.932588
 31
0.0
  0
LINE
  5
4A5F
  8
0-5
  6
CONTINUOUS
 62
     6
 10
9834.9148810000006
 20
16558.289349999988
 30
0.0
 11
9737.7195290000036
 21
16428.430950999991
 31
0.0
  0
LINE
  5
4A60
  8
0-5
  6
CONTINUOUS
 62
     6
 10
9737.7195290000036
 20
16428.430950999991
 30
0.0
 11
9871.7794560000002
 21
16519.74812299999
 31
0.0
  0
LINE
  5
4A61
  8
0-5
  6
CONTINUOUS
 62
     6
 10
9737.7195290000036
 20
16428.430950999991
 30
0.0
 11
9834.9148810000006
 21
16558.289349999988
 31
0.0
  0
LINE
  5
4A62
  8
0-5
  6
CONTINUOUS
 62
     6
 10
9834.9148810000006
 20
16558.289349999988
 30
0.0
 11
9871.7794560000002
 21
16519.74812299999
 31
0.0
  0
LINE
  5
4A63
  8
0-5
  6
CONTINUOUS
 62
     6
 10
9871.7794560000002
 20
16519.74812299999
 30
0.0
 11
9737.7195290000036
 21
16428.430950999991
 31
0.0
  0
LINE
  5
4A64
  8
0-5
  6
CONTINUOUS
 62
     6
 10
9871.7794560000002
 20
16519.74812299999
 30
0.0
 11
9834.9148810000006
 21
16558.289349999988
 31
0.0
  0
LINE
  5
4A65
  8
0-5
  6
CONTINUOUS
 62
     6
 10
11667.021682999981
 20
15837.68520099998
 30
0.0
 11
11699.362068
 21
15678.734807999979
 31
0.0
  0
LINE
  5
4A66
  8
0-5
  6
CONTINUOUS
 62
     6
 10
11699.362068
 20
15678.734807999979
 30
0.0
 11
11617.218975
 21
15818.603630999991
 31
0.0
  0
LINE
  5
4A67
  8
0-5
  6
CONTINUOUS
 62
     6
 10
11699.362068
 20
15678.734807999979
 30
0.0
 11
11667.021682999981
 21
15837.68520099998
 31
0.0
  0
LINE
  5
4A68
  8
0-5
  6
CONTINUOUS
 62
     6
 10
11667.021682999981
 20
15837.68520099998
 30
0.0
 11
11617.218975
 21
15818.603630999991
 31
0.0
  0
LINE
  5
4A69
  8
0-5
  6
CONTINUOUS
 62
     6
 10
11617.218975
 20
15818.603630999991
 30
0.0
 11
11699.362068
 21
15678.734807999979
 31
0.0
  0
LINE
  5
4A6A
  8
0-5
  6
CONTINUOUS
 62
     6
 10
11617.218975
 20
15818.603630999991
 30
0.0
 11
11667.021682999981
 21
15837.68520099998
 31
0.0
  0
LINE
  5
4A6B
  8
0-5
  6
CONTINUOUS
 62
     6
 10
14330.038337
 20
15344.50023399999
 30
0.0
 11
14433.131664999981
 21
15469.73150799999
 31
0.0
  0
LINE
  5
4A6C
  8
0-5
  6
CONTINUOUS
 62
     6
 10
14433.131664999981
 20
15469.73150799999
 30
0.0
 11
14376.22545399999
 21
15317.834139000001
 31
0.0
  0
LINE
  5
4A6D
  8
0-5
  6
CONTINUOUS
 62
     6
 10
14433.131664999981
 20
15469.73150799999
 30
0.0
 11
14330.038337
 21
15344.50023399999
 31
0.0
  0
LINE
  5
4A6E
  8
0-5
  6
CONTINUOUS
 62
     6
 10
14330.038337
 20
15344.50023399999
 30
0.0
 11
14376.22545399999
 21
15317.834139000001
 31
0.0
  0
LINE
  5
4A6F
  8
0-5
  6
CONTINUOUS
 62
     6
 10
14376.22545399999
 20
15317.834139000001
 30
0.0
 11
14433.131664999981
 21
15469.73150799999
 31
0.0
  0
LINE
  5
4A70
  8
0-5
  6
CONTINUOUS
 62
     6
 10
14376.22545399999
 20
15317.834139000001
 30
0.0
 11
14330.038337
 21
15344.50023399999
 31
0.0
  0
LINE
  5
4A71
  8
0-5
  6
CONTINUOUS
 62
     6
 10
14330.038337
 20
17143.959614999989
 30
0.0
 11
14433.131664999981
 21
17018.727351000001
 31
0.0
  0
LINE
  5
4A72
  8
0-5
  6
CONTINUOUS
 62
     6
 10
14433.131664999981
 20
17018.727351000001
 30
0.0
 11
14376.22545399999
 21
17170.625709999978
 31
0.0
  0
LINE
  5
4A73
  8
0-5
  6
CONTINUOUS
 62
     6
 10
14433.131664999981
 20
17018.727351000001
 30
0.0
 11
14330.038337
 21
17143.959614999989
 31
0.0
  0
LINE
  5
4A74
  8
0-5
  6
CONTINUOUS
 62
     6
 10
14330.038337
 20
17143.959614999989
 30
0.0
 11
14376.22545399999
 21
17170.625709999978
 31
0.0
  0
LINE
  5
4A75
  8
0-5
  6
CONTINUOUS
 62
     6
 10
14376.22545399999
 20
17170.625709999978
 30
0.0
 11
14433.131664999981
 21
17018.727351000001
 31
0.0
  0
LINE
  5
4A76
  8
0-5
  6
CONTINUOUS
 62
     6
 10
14376.22545399999
 20
17170.625709999978
 30
0.0
 11
14330.038337
 21
17143.959614999989
 31
0.0
  0
LINE
  5
4A77
  8
0-5
  6
CONTINUOUS
 62
     6
 10
14330.038337
 20
18607.95966700001
 30
0.0
 11
14433.131664999981
 21
18477.729329999991
 31
0.0
  0
LINE
  5
4A78
  8
0-5
  6
CONTINUOUS
 62
     6
 10
14433.131664999981
 20
18477.729329999991
 30
0.0
 11
14376.22545399999
 21
18634.625762
 31
0.0
  0
LINE
  5
4A79
  8
0-5
  6
CONTINUOUS
 62
     6
 10
14433.131664999981
 20
18477.729329999991
 30
0.0
 11
14330.038337
 21
18607.95966700001
 31
0.0
  0
LINE
  5
4A7A
  8
0-5
  6
CONTINUOUS
 62
     6
 10
14330.038337
 20
18607.95966700001
 30
0.0
 11
14376.22545399999
 21
18634.625762
 31
0.0
  0
LINE
  5
4A7B
  8
0-5
  6
CONTINUOUS
 62
     6
 10
14376.22545399999
 20
18634.625762
 30
0.0
 11
14433.131664999981
 21
18477.729329999991
 31
0.0
  0
LINE
  5
4A7C
  8
0-5
  6
CONTINUOUS
 62
     6
 10
14376.22545399999
 20
18634.625762
 30
0.0
 11
14330.038337
 21
18607.95966700001
 31
0.0
  0
LINE
  5
4A7D
  8
0-5
  6
CONTINUOUS
 62
     6
 10
8525.7017919999962
 20
20267.803812999999
 30
0.0
 11
8485.3077360000007
 21
20110.705258999998
 31
0.0
  0
LINE
  5
4A7E
  8
0-5
  6
CONTINUOUS
 62
     6
 10
8485.3077360000007
 20
20110.705258999998
 30
0.0
 11
8574.4672329999976
 21
20246.21122400001
 31
0.0
  0
LINE
  5
4A7F
  8
0-5
  6
CONTINUOUS
 62
     6
 10
8485.3077360000007
 20
20110.705258999998
 30
0.0
 11
8525.7017919999962
 21
20267.803812999999
 31
0.0
  0
LINE
  5
4A80
  8
0-5
  6
CONTINUOUS
 62
     6
 10
8525.7017919999962
 20
20267.803812999999
 30
0.0
 11
8574.4672329999976
 21
20246.21122400001
 31
0.0
  0
LINE
  5
4A81
  8
0-5
  6
CONTINUOUS
 62
     6
 10
8574.4672329999976
 20
20246.21122400001
 30
0.0
 11
8485.3077360000007
 21
20110.705258999998
 31
0.0
  0
LINE
  5
4A82
  8
0-5
  6
CONTINUOUS
 62
     6
 10
8574.4672329999976
 20
20246.21122400001
 30
0.0
 11
8525.7017919999962
 21
20267.803812999999
 31
0.0
  0
LINE
  5
4A83
  8
0-5
  6
CONTINUOUS
 62
     6
 10
10548.440271999991
 20
19838.35121600001
 30
0.0
 11
10535.941591000001
 21
19676.626526999989
 31
0.0
  0
LINE
  5
4A84
  8
0-5
  6
CONTINUOUS
 62
     6
 10
10535.941591000001
 20
19676.626526999989
 30
0.0
 11
10600.21754999999
 21
19825.55560800001
 31
0.0
  0
LINE
  5
4A85
  8
0-5
  6
CONTINUOUS
 62
     6
 10
10535.941591000001
 20
19676.626526999989
 30
0.0
 11
10548.440271999991
 21
19838.35121600001
 31
0.0
  0
LINE
  5
4A86
  8
0-5
  6
CONTINUOUS
 62
     6
 10
10548.440271999991
 20
19838.35121600001
 30
0.0
 11
10600.21754999999
 21
19825.55560800001
 31
0.0
  0
LINE
  5
4A87
  8
0-5
  6
CONTINUOUS
 62
     6
 10
10600.21754999999
 20
19825.55560800001
 30
0.0
 11
10535.941591000001
 21
19676.626526999989
 31
0.0
  0
LINE
  5
4A88
  8
0-5
  6
CONTINUOUS
 62
     6
 10
10600.21754999999
 20
19825.55560800001
 30
0.0
 11
10548.440271999991
 21
19838.35121600001
 31
0.0
  0
LINE
  5
4A89
  8
2-0
  6
DASHED3
 62
     6
 10
8487.8623049999915
 20
19852.728459000002
 30
0.0
 11
15024.86230499999
 21
19852.728459000002
 31
0.0
  0
LINE
  5
4A8A
  8
0-6
  6
CONTINUOUS
 62
     6
 10
8445.3620409999967
 20
19692.335986999991
 30
0.0
 11
8445.3620409999967
 21
19937.728986999991
 31
0.0
  0
LINE
  5
4A8B
  8
0-6
  6
CONTINUOUS
 62
     6
 10
8487.8623049999915
 20
19670.794866
 30
0.0
 11
8487.8623049999915
 21
19937.728986999991
 31
0.0
  0
LINE
  5
4A8C
  8
2-0
  6
DASHED3
 62
     6
 10
8445.3620409999967
 20
19937.728986999991
 30
0.0
 11
15067.36157899998
 21
19937.728986999991
 31
0.0
  0
LINE
  5
4A8D
  8
2-0
  6
DASHED3
 62
     6
 10
13368.970189
 20
16928.728538999982
 30
0.0
 11
15024.86230499999
 21
16928.728538999982
 31
0.0
  0
LINE
  5
4A8E
  8
2-0
  6
DASHED3
 62
     6
 10
13213.112793
 20
17007.729145999991
 30
0.0
 11
15024.86230499999
 21
17007.729145999991
 31
0.0
  0
LINE
  5
4A8F
  8
2-0
  6
DASHED3
 62
     6
 10
15024.86230499999
 20
16094.72964799999
 30
0.0
 11
15024.86230499999
 21
19937.728986999991
 31
0.0
  0
LINE
  5
4A90
  8
2-0
  6
DASHED3
 62
     6
 10
15067.36157899998
 20
16073.189516
 30
0.0
 11
15067.36157899998
 21
19937.728986999991
 31
0.0
  0
LINE
  5
4A91
  8
2-0
  6
DASHED3
 62
     6
 10
11019.854703999999
 20
18387.728537999999
 30
0.0
 11
15024.86230499999
 21
18387.728537999999
 31
0.0
  0
LINE
  5
4A92
  8
2-0
  6
DASHED3
 62
     6
 10
10842.293867
 20
18477.729329999991
 30
0.0
 11
15024.86230499999
 21
18477.729329999991
 31
0.0
  0
LINE
  5
4A93
  8
2-0
  6
DASHED3
 62
     6
 10
11813.362542999979
 20
17739.99266
 30
0.0
 11
11813.362542999979
 21
18042.727931000001
 31
0.0
  0
LINE
  5
4A94
  8
2-0
  6
DASHED3
 62
     6
 10
11699.362068
 20
18018.918281999999
 30
0.0
 11
11699.362068
 21
18042.727931000001
 31
0.0
  0
LINE
  5
4A95
  8
2-0
  6
DASHED3
 62
     6
 10
11756.362304999981
 20
17884.453544000011
 30
0.0
 11
11756.362304999981
 21
18387.728537999999
 31
0.0
  0
LINE
  5
4A96
  8
2-0
  6
DASHED3
 62
     6
 10
11756.362304999981
 20
18477.729329999991
 30
0.0
 11
11756.362304999981
 21
18387.728537999999
 31
0.0
  0
LINE
  5
4A97
  8
0-6
  6
CONTINUOUS
 62
     6
 10
11686.362569000001
 20
18432.730914
 30
0.0
 11
11548.980020000001
 21
18368.663795
 31
0.0
  0
LINE
  5
4A98
  8
2-0
  6
DASHED3
 62
     6
 10
11686.362569000001
 20
19891.730914
 30
0.0
 11
9798.9341620000014
 21
19011.575588
 31
0.0
  0
LINE
  5
4A99
  8
2-0
  6
DASHED3
 62
     6
 10
11686.362569000001
 20
18432.730914
 30
0.0
 11
8557.8630309999971
 21
19891.730914
 31
0.0
  0
LINE
  5
4A9A
  8
0-6
  6
CONTINUOUS
 62
     6
 10
11486.044195999981
 20
18339.315451999999
 30
0.0
 11
11292.98471899998
 21
18249.286947000001
 31
0.0
  0
LINE
  5
4A9B
  8
2-0
  6
DASHED3
 62
     6
 10
11826.36204099998
 20
18432.730914
 30
0.0
 11
13342.47433299998
 21
17720.729963999991
 31
0.0
  0
LINE
  5
4A9C
  8
2-0
  6
DASHED3
 62
     6
 10
11826.36204099998
 20
19891.730914
 30
0.0
 11
13342.47433299998
 21
19184.730016999991
 31
0.0
  0
LINE
  5
4A9D
  8
2-0
  6
DASHED3
 62
     6
 10
11826.36204099998
 20
18432.730914
 30
0.0
 11
12570.47891199998
 21
18784.730675999999
 31
0.0
  0
LINE
  5
4A9E
  8
2-0
  6
DASHED3
 62
     6
 10
14077.611117
 20
16569.540932999989
 30
0.0
 11
14954.86256899999
 21
16973.730914
 31
0.0
  0
LINE
  5
4A9F
  8
2-0
  6
DASHED3
 62
     6
 10
13428.24984199999
 20
19184.730016999991
 30
0.0
 11
14954.86256899999
 21
19891.730914
 31
0.0
  0
LINE
  5
4AA0
  8
0-6
  6
CONTINUOUS
 62
     6
 10
14200.245263000001
 20
18784.730675999999
 30
0.0
 11
14954.86256899999
 21
18432.730914
 31
0.0
  0
LINE
  5
4AA1
  8
0-6
  6
CONTINUOUS
 62
     6
 10
14200.245263000001
 20
17320.730623999982
 30
0.0
 11
14954.86256899999
 21
16973.730914
 31
0.0
  0
LINE
  5
4AA2
  8
0-6
  6
CONTINUOUS
 62
     6
 10
13428.24984199999
 20
17720.729963999991
 30
0.0
 11
14954.86256899999
 21
18432.730914
 31
0.0
  0
LINE
  5
4AA3
  8
0-7
  6
CONTINUOUS
 62
     6
 10
15024.86230499999
 20
21134.229198000001
 30
0.0
 11
15024.86230499999
 21
20184.22853800001
 31
0.0
  0
LINE
  5
4AA4
  8
0-7
  6
CONTINUOUS
 62
     6
 10
11756.362304999981
 20
21064.22946200001
 30
0.0
 11
11756.362304999981
 21
20184.22853800001
 31
0.0
  0
LINE
  5
4AA5
  8
2-0
  6
CENTER2
 62
     6
 10
7158.3607149999916
 20
19891.730914
 30
0.0
 11
8804.8614209999978
 21
19891.730914
 31
0.0
  0
LINE
  5
4AA6
  8
0-7
  6
CONTINUOUS
 62
     6
 10
8487.8623049999915
 20
21064.22946200001
 30
0.0
 11
8487.8623049999915
 21
20184.22853800001
 31
0.0
  0
LINE
  5
4AA7
  8
2-0
  6
CENTER2
 62
     6
 10
7158.3607149999916
 20
16973.730914
 30
0.0
 11
8804.8614209999978
 21
16973.730914
 31
0.0
  0
LINE
  5
4AA8
  8
2-0
  6
CENTER2
 62
     6
 10
7158.3607149999916
 20
13705.230913999991
 30
0.0
 11
8804.8614209999978
 21
13705.230913999991
 31
0.0
  0
LINE
  5
4AA9
  8
2-0
  6
CENTER2
 62
     6
 10
14697.362753999991
 20
16973.730914
 30
0.0
 11
15323.62708499998
 21
16973.730914
 31
0.0
  0
LINE
  5
4AAA
  8
2-0
  6
CENTER2
 62
     6
 10
14697.362753999991
 20
13705.230913999991
 30
0.0
 11
15323.62708499998
 21
13705.230913999991
 31
0.0
  0
LINE
  5
4AAB
  8
2-0
  6
CENTER2
 62
     6
 10
8269.0641369999994
 20
15514.730913999991
 30
0.0
 11
15243.66047299998
 21
15514.730913999991
 31
0.0
  0
LINE
  5
4AAC
  8
2-0
  6
CENTER2
 62
     6
 10
8269.0641369999994
 20
18432.730914
 30
0.0
 11
15243.66047299998
 21
18432.730914
 31
0.0
  0
LINE
  5
4AAD
  8
2-0
  6
DASHED3
 62
     6
 10
11699.362068
 20
18477.729329999991
 30
0.0
 11
11699.362068
 21
19852.728459000002
 31
0.0
  0
LINE
  5
4AAE
  8
2-0
  6
DASHED3
 62
     6
 10
11756.362304999981
 20
18477.729329999991
 30
0.0
 11
11756.362304999981
 21
19852.728459000002
 31
0.0
  0
LINE
  5
4AAF
  8
2-0
  6
DASHED3
 62
     6
 10
11813.362542999979
 20
18477.729329999991
 30
0.0
 11
11813.362542999979
 21
19852.728459000002
 31
0.0
  0
LINE
  5
4AB0
  8
2-0
  6
DASHED3
 62
     6
 10
11699.362068
 20
18042.727931000001
 30
0.0
 11
11699.362068
 21
18387.728537999999
 31
0.0
  0
LINE
  5
4AB1
  8
2-0
  6
DASHED3
 62
     6
 10
11813.362542999979
 20
18042.727931000001
 30
0.0
 11
11813.362542999979
 21
18387.728537999999
 31
0.0
  0
ARC
  5
4AB2
  8
0-1
  6
CONTINUOUS
 62
     3
 10
8407.3621729999995
 20
20109.22853800001
 30
0.0
 40
5.0
 50
90.0
 51
180.0
  0
ARC
  5
4AB3
  8
0-1
  6
CONTINUOUS
 62
     3
 10
8470.8621599999933
 20
20109.22853800001
 30
0.0
 40
5.0
 50
0.0
 51
90.0
  0
ARC
  5
4AB4
  8
0-1
  6
CONTINUOUS
 62
     3
 10
8470.8621599999933
 20
20079.228933999992
 30
0.0
 40
5.0
 50
269.9999850001808
 51
0.0
  0
ARC
  5
4AB5
  8
0-1
  6
CONTINUOUS
 62
     3
 10
15041.863439999979
 20
20079.228933999992
 30
0.0
 40
5.0
 50
180.0
 51
269.9999850001808
  0
ARC
  5
4AB6
  8
0-1
  6
CONTINUOUS
 62
     3
 10
15041.863439999979
 20
20109.22853800001
 30
0.0
 40
5.0
 50
90.0
 51
180.0
  0
ARC
  5
4AB7
  8
0-1
  6
CONTINUOUS
 62
     3
 10
15105.362436999991
 20
20109.22853800001
 30
0.0
 40
5.0
 50
0.0
 51
90.0
  0
CIRCLE
  5
4AB8
  8
0-4
  6
CONTINUOUS
 62
     4
 10
11756.362304999981
 20
21264.230122000001
 30
0.0
 40
199.9999949999999
  0
CIRCLE
  5
4AB9
  8
0-4
  6
CONTINUOUS
 62
     4
 10
8487.8623049999915
 20
21264.230122000001
 30
0.0
 40
199.9999949999999
  0
CIRCLE
  5
4ABA
  8
0-4
  6
CONTINUOUS
 62
     4
 10
6958.3610449999906
 20
19891.730914
 30
0.0
 40
199.9999949999999
  0
CIRCLE
  5
4ABB
  8
0-4
  6
CONTINUOUS
 62
     4
 10
6958.3610449999906
 20
16973.730914
 30
0.0
 40
199.9999949999999
  0
CIRCLE
  5
4ABC
  8
0-4
  6
CONTINUOUS
 62
     4
 10
6958.3610449999906
 20
13705.230913999991
 30
0.0
 40
199.9999949999999
  0
CIRCLE
  5
4ABD
  8
0-4
  6
CONTINUOUS
 62
     4
 10
15024.86230499999
 20
21334.227879000009
 30
0.0
 40
199.9999949999999
  0
CIRCLE
  5
4ABE
  8
0-4
  6
CONTINUOUS
 62
     4
 10
15128.71667899999
 20
1375.999857999999
 30
0.0
 40
20.0
  0
ARC
  5
4ABF
  8
0-4
  6
CONTINUOUS
 62
     4
 10
15128.71667899999
 20
1375.999857999999
 30
0.0
 40
20.0
 50
180.0
 51
0.0
  0
ARC
  5
4AC0
  8
0-4
  6
CONTINUOUS
 62
     4
 10
15128.71667899999
 20
1375.999857999999
 30
0.0
 40
20.0
 50
0.0
 51
179.99998499999839
  0
CIRCLE
  5
4AC1
  8
0-4
  6
CONTINUOUS
 62
     4
 10
15128.71667899999
 20
1776.000188
 30
0.0
 40
20.0
  0
ARC
  5
4AC2
  8
0-4
  6
CONTINUOUS
 62
     4
 10
15128.71667899999
 20
1776.000188
 30
0.0
 40
20.0
 50
180.0
 51
0.0
  0
ARC
  5
4AC3
  8
0-4
  6
CONTINUOUS
 62
     4
 10
15128.71667899999
 20
1776.000188
 30
0.0
 40
20.0
 50
0.0
 51
179.99998499999839
  0
TEXT
  5
4AC4
  8
0-4
  6
CONTINUOUS
 62
     7
 10
14969.966294999969
 20
21249.49062700001
 30
0.0
 40
160.0
  1
3
 72
     4
 11
15023.29962833331
 21
21329.49062700001
 31
0.0
  0
TEXT
  5
4AC5
  8
0-4
  6
CONTINUOUS
 62
     7
 10
11708.099662999981
 20
21171.74305500001
 30
0.0
 40
160.0
  1
2
 72
     4
 11
11761.43299633332
 21
21251.74305500001
 31
0.0
  0
TEXT
  5
4AC6
  8
0-4
  6
CONTINUOUS
 62
     7
 10
8441.4435839999951
 20
21173.708717000001
 30
0.0
 40
160.0
  1
1
 72
     4
 11
8468.1102506666612
 21
21253.708717000001
 31
0.0
  0
TEXT
  5
4AC7
  8
0-4
  6
CONTINUOUS
 62
     7
 10
6905.4895879999922
 20
19804.046159000009
 30
0.0
 40
160.0
  1
C
 72
     4
 11
6958.8229213333252
 21
19884.046159000009
 31
0.0
  0
TEXT
  5
4AC8
  8
0-4
  6
CONTINUOUS
 62
     7
 10
6905.4895879999922
 20
16886.046159000001
 30
0.0
 40
160.0
  1
B
 72
     4
 11
6958.8229213333252
 21
16966.046159000001
 31
0.0
  0
TEXT
  5
4AC9
  8
0-4
  6
CONTINUOUS
 62
     7
 10
6905.4895879999922
 20
13617.547148999991
 30
0.0
 40
160.0
  1
A
 72
     4
 11
6958.8229213333252
 21
13697.547148999991
 31
0.0
  0
TEXT
  5
4ACA
  8
0-4
  6
CONTINUOUS
 62
     7
 10
17611.938609000001
 20
6464.4365009999983
 30
0.0
 40
160.0
  1
G.L
 72
     4
 11
17771.938609000001
 21
6544.4365009999992
 31
0.0
  0
TEXT
  5
4ACB
  8
0-4
  6
CONTINUOUS
 62
     7
 10
16644.392263023608
 20
1656.0000399999999
 30
0.0
 40
160.0
  1
H
  0
TEXT
  5
4ACC
  8
0-4
  6
CONTINUOUS
 62
     7
 10
15176.146933
 20
1656.0000399999999
 30
0.0
 40
160.0
  1
（ ）内寸法ハ、  タ イプヲ示ス。
  0
TEXT
  5
4ACD
  8
0-4
  6
CONTINUOUS
 62
     7
 10
15288.715227000001
 20
1256.0000809999999
 30
0.0
 40
160.0
  1
有効高サハ、基礎高サヲ含ミマセン。
  0
TEXT
  5
4ACE
  8
0-5
  6
CONTINUOUS
 62
     7
 10
10798.230772999979
 20
20424.231309999999
 30
0.0
 40
160.0
  1
屋根
 72
     4
 11
10968.897439666651
 21
20504.231309999999
 31
0.0
  0
TEXT
  5
4ACF
  8
0-5
  6
CONTINUOUS
 62
     7
 10
9811.6298039999911
 20
14156.559171000001
 30
0.0
 40
160.0
  1
桁（前）
 72
     4
 11
10131.629803999989
 21
14236.559171000001
 31
0.0
  0
TEXT
  5
4AD0
  8
0-5
  6
CONTINUOUS
 62
     7
 10
10719.155933999989
 20
12792.731244000001
 30
0.0
 40
160.0
  1
鼻隠し前
 72
     4
 11
11081.822600666659
 21
12872.731244000001
 31
0.0
  0
TEXT
  5
4AD1
  8
0-5
  6
CONTINUOUS
 62
     7
 10
6751.9635699999972
 20
12392.730914
 30
0.0
 40
160.0
  1
ケラバ 左
 72
     4
 11
7167.9635699999963
 21
12472.730914
 31
0.0
  0
TEXT
  5
4AD2
  8
0-5
  6
CONTINUOUS
 62
     7
 10
8732.3902560000006
 20
18851.428575000002
 30
0.0
 40
160.0
  1
上枠
 72
     4
 11
8903.0569226666667
 21
18931.428575000002
 31
0.0
  0
TEXT
  5
4AD3
  8
0-5
  6
CONTINUOUS
 62
     7
 10
9029.5992140000017
 20
21145.668836000012
 30
0.0
 40
160.0
  1
鼻隠しコーナー後
 72
     4
 11
9776.2658806666677
 21
21225.668836000012
 31
0.0
  0
TEXT
  5
4AD4
  8
0-5
  6
CONTINUOUS
 62
     7
 10
10606.99740099999
 20
16183.757506
 30
0.0
 40
160.0
  1
梁　梁補強
 72
     4
 11
11065.664067666659
 21
16263.757506
 31
0.0
  0
TEXT
  5
4AD5
  8
0-5
  6
CONTINUOUS
 62
     7
 10
10826.84768299998
 20
16186.13094899998
 30
0.0
 40
160.0
  1
+
 72
     4
 11
10880.181016333319
 21
16266.13094899998
 31
0.0
  0
TEXT
  5
4AD6
  8
0-5
  6
CONTINUOUS
 62
     7
 10
10038.979492999981
 20
16720.047689999981
 30
0.0
 40
160.0
  1
ブレース
 72
     4
 11
10401.64615966665
 21
16805.38102333331
 31
0.0
  0
TEXT
  5
4AD7
  8
2-0
  6
CONTINUOUS
 62
     7
 10
12308.8745418053
 20
18928.307139000011
 30
0.0
 40
160.0
  1
桁中B +  桁中補強B
 72
     4
 11
13242.20787513864
 21
19008.307139000011
 31
0.0
  0
TEXT
  5
4AD8
  8
2-0
  6
CONTINUOUS
 62
     7
 10
12308.8745418053
 20
17464.29916799999
 30
0.0
 40
160.0
  1
桁中A +  桁中補強A
 72
     4
 11
13242.20787513864
 21
17544.29916799999
 31
0.0
  0
TEXT
  5
4AD9
  8
2-0
  6
CONTINUOUS
 62
     7
 10
12308.874541805289
 20
15151.570414
 30
0.0
 40
160.0
  1
桁中B +  桁中補強B
 50
0.000236
 72
     4
 11
13242.207545612549
 21
15231.57425837789
 31
0.0
  0
TEXT
  5
4ADA
  8
2-0
  6
CONTINUOUS
 62
     7
 10
21681.395296999988
 20
11453.23951899999
 30
0.0
 40
160.0
  1
平　面　図
 50
359.99978700000008
 72
     4
 11
22134.72890790736
 21
11527.90450037622
 31
0.0
  0
TEXT
  5
4ADB
  8
2-0
  6
CONTINUOUS
 62
     7
 10
10577.253154
 20
11445.72031699999
 30
0.0
 40
160.0
  1
小 屋 伏 図
 50
0.000193
 72
     4
 11
11078.586217851651
 21
11525.72200573358
 31
0.0
  0
TEXT
  5
4AE4
  8
2-0
  6
CONTINUOUS
 62
     7
 10
23486.22109304498
 20
11475.09986937623
 30
0.0
 40
160.0
  1
1
 72
     4
 11
23512.887759711652
 21
11555.09986937623
 31
0.0
  0
TEXT
  5
4AE5
  8
2-0
  6
CONTINUOUS
 62
     7
 10
23729.309810295679
 20
11395.101337376231
 30
0.0
 40
160.0
  1
80
 72
     4
 11
23849.309810295679
 21
11475.101337376231
 31
0.0
  0
TEXT
  5
4AE6
  8
2-0
  6
CONTINUOUS
 62
     7
 10
22987.223059044991
 20
11447.90450037622
 30
0.0
 40
160.0
  1
(S=  /   )
 72
     4
 11
23547.223059044991
 21
11527.90450037622
 31
0.0
  0
TEXT
  5
4AE7
  8
2-0
  6
CONTINUOUS
 62
     7
 10
12430.07840298928
 20
11472.917374733581
 30
0.0
 40
160.0
  1
1
 72
     4
 11
12456.74506965595
 21
11552.917374733581
 31
0.0
  0
TEXT
  5
4AE8
  8
2-0
  6
CONTINUOUS
 62
     7
 10
12673.167120239959
 20
11392.918842733559
 30
0.0
 40
160.0
  1
80
 72
     4
 11
12793.167120239959
 21
11472.918842733559
 31
0.0
  0
TEXT
  5
4AE9
  8
2-0
  6
CONTINUOUS
 62
     7
 10
11931.08036898928
 20
11445.72200573358
 30
0.0
 40
160.0
  1
(S=  /   )
 72
     4
 11
12491.08036898928
 21
11525.72200573358
 31
0.0
  0
TEXT
  5
4AEA
  8
0-6
  6
CONTINUOUS
 62
     7
 10
9002.1462111448091
 20
20424.227350000008
 30
0.0
 40
160.0
  1
桁後+桁後補強
 72
     4
 11
9636.8128778114751
 21
20504.227350000008
 31
0.0
  0
LINE
  5
4AEB
  8
0-6
  6
CONTINUOUS
 62
     6
 10
10445.861618999979
 20
19937.728986999991
 30
0.0
 11
10312.46767111874
 21
20344.229066000011
 31
0.0
  0
LINE
  5
4AEC
  8
0-6
  6
CONTINUOUS
 62
     6
 10
8962.725317549528
 20
20344.229066000011
 30
0.0
 11
10312.46767111874
 21
20344.229066000011
 31
0.0
  0
LINE
  5
4AED
  8
0-6
  6
CONTINUOUS
 62
     6
 10
10422.254163632701
 20
20098.210425424921
 30
0.0
 11
10371.48051985975
 21
20081.87690924016
 31
0.0
  0
LINE
  5
4AEE
  8
0-6
  6
CONTINUOUS
 62
     6
 10
10422.254163632701
 20
20098.210425424921
 30
0.0
 11
10445.861618999979
 21
19937.728986999991
 31
0.0
  0
LINE
  5
4AEF
  8
0-6
  6
CONTINUOUS
 62
     6
 10
10371.48051985975
 20
20081.87690924016
 30
0.0
 11
10422.254163632701
 21
20098.210425424921
 31
0.0
  0
LINE
  5
4AF0
  8
0-6
  6
CONTINUOUS
 62
     6
 10
10445.861618999979
 20
19937.728986999991
 30
0.0
 11
10371.48051985975
 21
20081.87690924016
 31
0.0
  0
LINE
  5
4AF1
  8
0-6
  6
CONTINUOUS
 62
     6
 10
10445.861618999979
 20
19937.728986999991
 30
0.0
 11
10422.254163632701
 21
20098.210425424921
 31
0.0
  0
LINE
  5
4AF2
  8
0-6
  6
CONTINUOUS
 62
     6
 10
10371.48051985975
 20
20081.87690924016
 30
0.0
 11
10445.861618999979
 21
19937.728986999991
 31
0.0
  0
LINE
  5
4AF3
  8
0-1
  6
CONTINUOUS
 62
     3
 10
9509.0335860000068
 20
6326.5902500000011
 30
0.0
 11
9509.0335860000068
 21
8187.6361290000032
 31
0.0
  0
LINE
  5
4AF4
  8
0-1
  6
CONTINUOUS
 62
     3
 10
9529.0346419999969
 20
6326.5902500000011
 30
0.0
 11
9529.0346419999969
 21
8187.6361290000032
 31
0.0
  0
LINE
  5
4AF5
  8
0-1
  6
CONTINUOUS
 62
     3
 10
9459.0339160000131
 20
6326.5902500000011
 30
0.0
 11
9459.0339160000131
 21
8187.6361290000032
 31
0.0
  0
LINE
  5
4AF6
  8
0-1
  6
CONTINUOUS
 62
     3
 10
9579.0333220000066
 20
6326.5902500000011
 30
0.0
 11
9579.0333220000066
 21
8187.6361290000032
 31
0.0
  0
LINE
  5
4AF7
  8
0-1
  6
CONTINUOUS
 62
     3
 10
9712.0342059999984
 20
6326.5902500000011
 30
0.0
 11
9712.0342059999984
 21
8187.6361290000032
 31
0.0
  0
LINE
  5
4AF8
  8
0-1
  6
CONTINUOUS
 62
     3
 10
9727.0340080000115
 20
6326.5902500000011
 30
0.0
 11
9727.0340080000115
 21
8187.6361290000032
 31
0.0
  0
LINE
  5
4AF9
  8
0-1
  6
CONTINUOUS
 62
     3
 10
9326.0340210000086
 20
6326.5902500000011
 30
0.0
 11
9326.0340210000086
 21
8187.6361290000032
 31
0.0
  0
LINE
  5
4AFA
  8
0-1
  6
CONTINUOUS
 62
     3
 10
9311.0342190000083
 20
6326.5902500000011
 30
0.0
 11
9311.0342190000083
 21
8187.6361290000032
 31
0.0
  0
LINE
  5
4AFB
  8
0-1
  6
CONTINUOUS
 62
     3
 10
10587.533705000011
 20
8187.6361290000032
 30
0.0
 11
10587.533705000011
 21
6326.5902500000011
 31
0.0
  0
LINE
  5
4AFC
  8
0-1
  6
CONTINUOUS
 62
     3
 10
10550.535513000001
 20
8187.6361290000032
 30
0.0
 11
10550.535513000001
 21
6326.5902500000011
 31
0.0
  0
LINE
  5
4AFD
  8
0-1
  6
CONTINUOUS
 62
     3
 10
9887.5343640000083
 20
8187.6361290000032
 30
0.0
 11
9887.5343640000083
 21
6326.5902500000011
 31
0.0
  0
LINE
  5
4AFE
  8
0-1
  6
CONTINUOUS
 62
     3
 10
9850.534192999994
 20
8187.6361290000032
 30
0.0
 11
9850.534192999994
 21
6326.5902500000011
 31
0.0
  0
LINE
  5
4AFF
  8
0-1
  6
CONTINUOUS
 62
     3
 10
11287.53304499998
 20
8187.6361290000032
 30
0.0
 11
11287.53304499998
 21
6326.5902500000011
 31
0.0
  0
LINE
  5
4B00
  8
0-1
  6
CONTINUOUS
 62
     3
 10
11250.534852999999
 20
8187.6361290000032
 30
0.0
 11
11250.534852999999
 21
6326.5902500000011
 31
0.0
  0
LINE
  5
4B01
  8
0-1
  6
CONTINUOUS
 62
     3
 10
10909.033255999981
 20
6326.5902500000011
 30
0.0
 11
10909.033255999981
 21
8187.6361290000032
 31
0.0
  0
LINE
  5
4B02
  8
0-1
  6
CONTINUOUS
 62
     3
 10
10929.034312
 20
6326.5902500000011
 30
0.0
 11
10929.034312
 21
8187.6361290000032
 31
0.0
  0
LINE
  5
4B03
  8
0-1
  6
CONTINUOUS
 62
     3
 10
10859.034575999989
 20
6326.5902500000011
 30
0.0
 11
10859.034575999989
 21
8187.6361290000032
 31
0.0
  0
LINE
  5
4B04
  8
0-1
  6
CONTINUOUS
 62
     3
 10
10979.03398200001
 20
6326.5902500000011
 30
0.0
 11
10979.03398200001
 21
8187.6361290000032
 31
0.0
  0
LINE
  5
4B05
  8
0-1
  6
CONTINUOUS
 62
     3
 10
11112.03387599999
 20
6326.5902500000011
 30
0.0
 11
11112.03387599999
 21
8187.6361290000032
 31
0.0
  0
LINE
  5
4B06
  8
0-1
  6
CONTINUOUS
 62
     3
 10
11127.033678
 20
6326.5902500000011
 30
0.0
 11
11127.033678
 21
8187.6361290000032
 31
0.0
  0
LINE
  5
4B07
  8
0-1
  6
CONTINUOUS
 62
     3
 10
10726.033691000001
 20
6326.5902500000011
 30
0.0
 11
10726.033691000001
 21
8187.6361290000032
 31
0.0
  0
LINE
  5
4B08
  8
0-1
  6
CONTINUOUS
 62
     3
 10
10711.034879000001
 20
6326.5902500000011
 30
0.0
 11
10711.034879000001
 21
8187.6361290000032
 31
0.0
  0
LINE
  5
4B09
  8
0-1
  6
CONTINUOUS
 62
     3
 10
10011.03355899999
 20
6326.5902500000011
 30
0.0
 11
10011.03355899999
 21
8187.6361290000032
 31
0.0
  0
LINE
  5
4B0A
  8
0-1
  6
CONTINUOUS
 62
     3
 10
10026.03435099998
 20
6326.5902500000011
 30
0.0
 11
10026.03435099998
 21
8187.6361290000032
 31
0.0
  0
LINE
  5
4B0B
  8
0-1
  6
CONTINUOUS
 62
     3
 10
10427.034337999999
 20
6326.5902500000011
 30
0.0
 11
10427.034337999999
 21
8187.6361290000032
 31
0.0
  0
LINE
  5
4B0C
  8
0-1
  6
CONTINUOUS
 62
     3
 10
10412.033546000001
 20
6326.5902500000011
 30
0.0
 11
10412.033546000001
 21
8187.6361290000032
 31
0.0
  0
LINE
  5
4B0D
  8
0-1
  6
CONTINUOUS
 62
     3
 10
10279.034642000001
 20
6326.5902500000011
 30
0.0
 11
10279.034642000001
 21
8187.6361290000032
 31
0.0
  0
LINE
  5
4B0E
  8
0-1
  6
CONTINUOUS
 62
     3
 10
10159.033256000001
 20
6326.5902500000011
 30
0.0
 11
10159.033256000001
 21
8187.6361290000032
 31
0.0
  0
LINE
  5
4B0F
  8
0-1
  6
CONTINUOUS
 62
     3
 10
10229.035961000011
 20
6326.5902500000011
 30
0.0
 11
10229.035961000011
 21
8187.6361290000032
 31
0.0
  0
LINE
  5
4B10
  8
0-1
  6
CONTINUOUS
 62
     3
 10
10209.034906000001
 20
6326.5902500000011
 30
0.0
 11
10209.034906000001
 21
8187.6361290000032
 31
0.0
  0
LINE
  5
4B11
  8
0-1
  6
CONTINUOUS
 62
     3
 10
11411.033229999999
 20
6326.5902500000011
 30
0.0
 11
11411.033229999999
 21
8187.6361290000032
 31
0.0
  0
LINE
  5
4B12
  8
0-1
  6
CONTINUOUS
 62
     3
 10
11426.03402099999
 20
6326.5902500000011
 30
0.0
 11
11426.03402099999
 21
8187.6361290000032
 31
0.0
  0
LINE
  5
4B13
  8
0-1
  6
CONTINUOUS
 62
     3
 10
11559.034906000001
 20
6326.5902500000011
 30
0.0
 11
11559.034906000001
 21
8187.6361290000032
 31
0.0
  0
LINE
  5
4B14
  8
0-1
  6
CONTINUOUS
 62
     3
 10
11827.034008000001
 20
6326.5902500000011
 30
0.0
 11
11827.034008000001
 21
8187.6361290000032
 31
0.0
  0
LINE
  5
4B15
  8
0-1
  6
CONTINUOUS
 62
     3
 10
11812.035196000001
 20
6326.5902500000011
 30
0.0
 11
11812.035196000001
 21
8187.6361290000032
 31
0.0
  0
LINE
  5
4B16
  8
0-1
  6
CONTINUOUS
 62
     3
 10
11679.034311999991
 20
6326.5902500000011
 30
0.0
 11
11679.034311999991
 21
8187.6361290000032
 31
0.0
  0
LINE
  5
4B17
  8
0-1
  6
CONTINUOUS
 62
     3
 10
11629.034642000001
 20
6326.5902500000011
 30
0.0
 11
11629.034642000001
 21
8187.6361290000032
 31
0.0
  0
LINE
  5
4B18
  8
0-1
  6
CONTINUOUS
 62
     3
 10
11609.035565
 20
6326.5902500000011
 30
0.0
 11
11609.035565
 21
8187.6361290000032
 31
0.0
  0
LINE
  5
4B19
  8
0-1
  6
CONTINUOUS
 62
     3
 10
12437.034535999999
 20
6326.5902500000011
 30
0.0
 11
12437.034535999999
 21
8187.6361290000032
 31
0.0
  0
LINE
  5
4B1A
  8
0-1
  6
CONTINUOUS
 62
     3
 10
12417.03545999999
 20
6326.5902500000011
 30
0.0
 11
12417.03545999999
 21
8187.6361290000032
 31
0.0
  0
LINE
  5
4B1B
  8
0-1
  6
CONTINUOUS
 62
     3
 10
12487.035196000001
 20
6326.5902500000011
 30
0.0
 11
12487.035196000001
 21
8187.6361290000032
 31
0.0
  0
LINE
  5
4B1C
  8
0-1
  6
CONTINUOUS
 62
     3
 10
12367.03480000001
 20
6326.5902500000011
 30
0.0
 11
12367.03480000001
 21
8187.6361290000032
 31
0.0
  0
LINE
  5
4B1D
  8
0-1
  6
CONTINUOUS
 62
     3
 10
12234.03490599999
 20
6326.5902500000011
 30
0.0
 11
12234.03490599999
 21
8187.6361290000032
 31
0.0
  0
LINE
  5
4B1E
  8
0-1
  6
CONTINUOUS
 62
     3
 10
12219.03312399999
 20
6326.5902500000011
 30
0.0
 11
12219.03312399999
 21
8187.6361290000032
 31
0.0
  0
LINE
  5
4B1F
  8
0-1
  6
CONTINUOUS
 62
     3
 10
12620.03508999999
 20
6326.5902500000011
 30
0.0
 11
12620.03508999999
 21
8187.6361290000032
 31
0.0
  0
LINE
  5
4B20
  8
0-1
  6
CONTINUOUS
 62
     3
 10
12635.03390300001
 20
6326.5902500000011
 30
0.0
 11
12635.03390300001
 21
8187.6361290000032
 31
0.0
  0
LINE
  5
4B21
  8
0-1
  6
CONTINUOUS
 62
     3
 10
14735.03390300001
 20
6326.5902500000011
 30
0.0
 11
14735.03390300001
 21
8187.6361290000032
 31
0.0
  0
LINE
  5
4B22
  8
0-1
  6
CONTINUOUS
 62
     3
 10
14720.03509000001
 20
6326.5902500000011
 30
0.0
 11
14720.03509000001
 21
8187.6361290000032
 31
0.0
  0
LINE
  5
4B23
  8
0-1
  6
CONTINUOUS
 62
     3
 10
14319.03411399998
 20
6326.5902500000011
 30
0.0
 11
14319.03411399998
 21
8187.6361290000032
 31
0.0
  0
LINE
  5
4B24
  8
0-1
  6
CONTINUOUS
 62
     3
 10
14334.033916
 20
6326.5902500000011
 30
0.0
 11
14334.033916
 21
8187.6361290000032
 31
0.0
  0
LINE
  5
4B25
  8
0-1
  6
CONTINUOUS
 62
     3
 10
14467.03480000001
 20
6326.5902500000011
 30
0.0
 11
14467.03480000001
 21
8187.6361290000032
 31
0.0
  0
LINE
  5
4B26
  8
0-1
  6
CONTINUOUS
 62
     3
 10
14587.034206
 20
6326.5902500000011
 30
0.0
 11
14587.034206
 21
8187.6361290000032
 31
0.0
  0
LINE
  5
4B27
  8
0-1
  6
CONTINUOUS
 62
     3
 10
14517.035459999999
 20
6326.5902500000011
 30
0.0
 11
14517.035459999999
 21
8187.6361290000032
 31
0.0
  0
LINE
  5
4B28
  8
0-1
  6
CONTINUOUS
 62
     3
 10
14537.034535999999
 20
6326.5902500000011
 30
0.0
 11
14537.034535999999
 21
8187.6361290000032
 31
0.0
  0
LINE
  5
4B29
  8
0-1
  6
CONTINUOUS
 62
     3
 10
13837.035196000001
 20
6326.5902500000011
 30
0.0
 11
13837.035196000001
 21
8187.6361290000032
 31
0.0
  0
LINE
  5
4B2A
  8
0-1
  6
CONTINUOUS
 62
     3
 10
13817.034140000011
 20
6326.5902500000011
 30
0.0
 11
13817.034140000011
 21
8187.6361290000032
 31
0.0
  0
LINE
  5
4B2B
  8
0-1
  6
CONTINUOUS
 62
     3
 10
13887.03387600001
 20
6326.5902500000011
 30
0.0
 11
13887.03387600001
 21
8187.6361290000032
 31
0.0
  0
LINE
  5
4B2C
  8
0-1
  6
CONTINUOUS
 62
     3
 10
13767.03545999999
 20
6326.5902500000011
 30
0.0
 11
13767.03545999999
 21
8187.6361290000032
 31
0.0
  0
LINE
  5
4B2D
  8
0-1
  6
CONTINUOUS
 62
     3
 10
13634.034575999989
 20
6326.5902500000011
 30
0.0
 11
13634.034575999989
 21
8187.6361290000032
 31
0.0
  0
LINE
  5
4B2E
  8
0-1
  6
CONTINUOUS
 62
     3
 10
13619.034773999991
 20
6326.5902500000011
 30
0.0
 11
13619.034773999991
 21
8187.6361290000032
 31
0.0
  0
LINE
  5
4B2F
  8
0-1
  6
CONTINUOUS
 62
     3
 10
14020.032781000011
 20
6326.5902500000011
 30
0.0
 11
14020.032781000011
 21
8187.6361290000032
 31
0.0
  0
LINE
  5
4B30
  8
0-1
  6
CONTINUOUS
 62
     3
 10
14035.03456200001
 20
6326.5902500000011
 30
0.0
 11
14035.03456200001
 21
8187.6361290000032
 31
0.0
  0
LINE
  5
4B31
  8
0-1
  6
CONTINUOUS
 62
     3
 10
13335.035222
 20
6326.5902500000011
 30
0.0
 11
13335.035222
 21
8187.6361290000032
 31
0.0
  0
LINE
  5
4B32
  8
0-1
  6
CONTINUOUS
 62
     3
 10
13320.033441
 20
6326.5902500000011
 30
0.0
 11
13320.033441
 21
8187.6361290000032
 31
0.0
  0
LINE
  5
4B33
  8
0-1
  6
CONTINUOUS
 62
     3
 10
12919.03543299999
 20
6326.5902500000011
 30
0.0
 11
12919.03543299999
 21
8187.6361290000032
 31
0.0
  0
LINE
  5
4B34
  8
0-1
  6
CONTINUOUS
 62
     3
 10
12934.03424599999
 20
6326.5902500000011
 30
0.0
 11
12934.03424599999
 21
8187.6361290000032
 31
0.0
  0
LINE
  5
4B35
  8
0-1
  6
CONTINUOUS
 62
     3
 10
13067.03315000001
 20
6326.5902500000011
 30
0.0
 11
13067.03315000001
 21
8187.6361290000032
 31
0.0
  0
LINE
  5
4B36
  8
0-1
  6
CONTINUOUS
 62
     3
 10
13187.03453599999
 20
6326.5902500000011
 30
0.0
 11
13187.03453599999
 21
8187.6361290000032
 31
0.0
  0
LINE
  5
4B37
  8
0-1
  6
CONTINUOUS
 62
     3
 10
13117.03479999999
 20
6326.5902500000011
 30
0.0
 11
13117.03479999999
 21
8187.6361290000032
 31
0.0
  0
LINE
  5
4B38
  8
0-1
  6
CONTINUOUS
 62
     3
 10
13137.03387600001
 20
6326.5902500000011
 30
0.0
 11
13137.03387600001
 21
8187.6361290000032
 31
0.0
  0
LINE
  5
4B39
  8
0-1
  6
CONTINUOUS
 62
     3
 10
12795.53524899999
 20
8187.6361290000032
 30
0.0
 11
12795.53524899999
 21
6326.5902500000011
 31
0.0
  0
LINE
  5
4B3A
  8
0-1
  6
CONTINUOUS
 62
     3
 10
12758.534087
 20
8187.6361290000032
 30
0.0
 11
12758.534087
 21
6326.5902500000011
 31
0.0
  0
LINE
  5
4B3B
  8
0-1
  6
CONTINUOUS
 62
     3
 10
14195.532939000001
 20
8187.6361290000032
 30
0.0
 11
14195.532939000001
 21
6326.5902500000011
 31
0.0
  0
LINE
  5
4B3C
  8
0-1
  6
CONTINUOUS
 62
     3
 10
14158.533756999999
 20
8187.6361290000032
 30
0.0
 11
14158.533756999999
 21
6326.5902500000011
 31
0.0
  0
LINE
  5
4B3D
  8
0-1
  6
CONTINUOUS
 62
     3
 10
13495.53458899999
 20
8187.6361290000032
 30
0.0
 11
13495.53458899999
 21
6326.5902500000011
 31
0.0
  0
LINE
  5
4B3E
  8
0-1
  6
CONTINUOUS
 62
     3
 10
13458.534417000001
 20
8187.6361290000032
 30
0.0
 11
13458.534417000001
 21
6326.5902500000011
 31
0.0
  0
LINE
  5
4B3F
  8
0-1
  6
CONTINUOUS
 62
     3
 10
14895.53524899998
 20
8187.6361290000032
 30
0.0
 11
14895.53524899998
 21
6326.5902500000011
 31
0.0
  0
LINE
  5
4B40
  8
0-1
  6
CONTINUOUS
 62
     3
 10
14858.534087
 20
8187.6361290000032
 30
0.0
 11
14858.534087
 21
6326.5902500000011
 31
0.0
  0
LINE
  5
4B41
  8
0-1
  6
CONTINUOUS
 62
     3
 10
15346.534061
 20
6276.5900850000025
 30
0.0
 11
15346.534061
 21
6176.5902500000002
 31
0.0
  0
LINE
  5
4B42
  8
0-1
  6
CONTINUOUS
 62
     3
 10
15314.033269999991
 20
8490.9191600000013
 30
0.0
 11
15314.033269999991
 21
6276.5900850000025
 31
0.0
  0
LINE
  5
4B43
  8
0-1
  6
CONTINUOUS
 62
     3
 10
15334.034061
 20
8491.5001490000031
 30
0.0
 11
15334.034061
 21
6276.5900850000025
 31
0.0
  0
LINE
  5
4B44
  8
0-1
  6
CONTINUOUS
 62
     3
 10
15219.03419299999
 20
8187.6361290000032
 30
0.0
 11
15219.03419299999
 21
6276.5900850000025
 31
0.0
  0
LINE
  5
4B45
  8
0-1
  6
CONTINUOUS
 62
     3
 10
12023.034061
 20
8392.3915919999999
 30
0.0
 11
12023.034061
 21
8187.6361290000032
 31
0.0
  0
LINE
  5
4B46
  8
0-1
  6
CONTINUOUS
 62
     3
 10
11950.534193
 20
8187.6361290000032
 30
0.0
 11
11950.534193
 21
6276.5900850000025
 31
0.0
  0
LINE
  5
4B47
  8
0-1
  6
CONTINUOUS
 62
     3
 10
12095.53293899999
 20
8187.6361290000032
 30
0.0
 11
12095.53293899999
 21
6276.5900850000025
 31
0.0
  0
LINE
  5
4B48
  8
0-1
  6
CONTINUOUS
 62
     3
 10
12095.53293899999
 20
6326.5902500000011
 30
0.0
 11
15219.03419299999
 21
6326.5902500000011
 31
0.0
  0
LINE
  5
4B49
  8
0-1
  6
CONTINUOUS
 62
     3
 10
9055.0340609999967
 20
6176.5902500000002
 30
0.0
 11
9055.0340609999967
 21
6276.5900850000025
 31
0.0
  0
LINE
  5
4B4A
  8
0-1
  6
CONTINUOUS
 62
     3
 10
9082.5338630000006
 20
8304.3925880000043
 30
0.0
 11
9082.5338630000006
 21
6276.5900850000025
 31
0.0
  0
LINE
  5
4B4B
  8
0-1
  6
CONTINUOUS
 62
     3
 10
9062.5340609999967
 20
8303.7758606838124
 30
0.0
 11
9062.5340609999967
 21
6276.5900850000025
 31
0.0
  0
LINE
  5
4B4C
  8
0-1
  6
CONTINUOUS
 62
     3
 10
9177.5329400000046
 20
8187.6361290000032
 30
0.0
 11
9177.5329400000046
 21
6276.5900850000025
 31
0.0
  0
LINE
  5
4B4D
  8
0-1
  6
CONTINUOUS
 62
     3
 10
9055.0340609999967
 20
6276.5900850000025
 30
0.0
 11
15346.534061
 21
6276.5900850000025
 31
0.0
  0
LINE
  5
4B4E
  8
0-1
  6
CONTINUOUS
 62
     3
 10
9177.5329400000046
 20
6326.5902500000011
 30
0.0
 11
11950.534193
 21
6326.5902500000011
 31
0.0
  0
LINE
  5
4B4F
  8
0-1
  6
CONTINUOUS
 62
     3
 10
8372.5330059999978
 20
6176.5902500000002
 30
0.0
 11
15346.534061
 21
6176.5902500000002
 31
0.0
  0
LINE
  5
4B50
  8
0-1
  6
CONTINUOUS
 62
     3
 10
9082.5338630000006
 20
8187.6361290000032
 30
0.0
 11
15314.033269999991
 21
8187.6361290000032
 31
0.0
  0
LINE
  5
4B51
  8
0-1
  6
CONTINUOUS
 62
     3
 10
8888.2322370000002
 20
8338.5754100000013
 30
0.0
 11
15419.723725999989
 21
8534.0914710000015
 31
0.0
  0
LINE
  5
4B52
  8
0-1
  6
CONTINUOUS
 62
     3
 10
15418.223250999999
 20
8584.0703560000038
 30
0.0
 11
8886.7327519999981
 21
8388.553305999998
 31
0.0
  0
LINE
  5
4B53
  8
0-1
  6
CONTINUOUS
 62
     3
 10
8883.642724000003
 20
8391.4622080000008
 30
0.0
 11
8882.6826569999976
 21
8423.4477640000005
 31
0.0
  0
LINE
  5
4B54
  8
0-1
  6
CONTINUOUS
 62
     3
 10
8887.5314879999987
 20
8428.5950069999999
 30
0.0
 11
15437.992703
 21
8624.682159
 31
0.0
  0
LINE
  5
4B55
  8
0-1
  6
CONTINUOUS
 62
     3
 10
15441.897303
 20
8494.7406210000008
 30
0.0
 11
8891.4321290000007
 21
8298.6539639999974
 31
0.0
  0
LINE
  5
4B56
  8
0-1
  6
CONTINUOUS
 62
     3
 10
8886.2843910000029
 20
8303.5013100000033
 30
0.0
 11
8885.3253140000033
 21
8335.4873609999977
 31
0.0
  0
LINE
  5
4B57
  8
0-1
  6
CONTINUOUS
 62
     3
 10
8884.9937449999998
 20
8346.4821019999981
 30
0.0
 11
8883.9733030000007
 21
8380.4664770000054
 31
0.0
  0
LINE
  5
4B58
  8
0-1
  6
CONTINUOUS
 62
     3
 10
8886.882206000002
 20
8383.5555159999967
 30
0.0
 11
15418.374683999989
 21
8579.0730610000028
 31
0.0
  0
LINE
  5
4B59
  8
0-1
  6
CONTINUOUS
 62
     3
 10
15419.574272
 20
8539.0897550000045
 30
0.0
 11
8888.0837740000006
 21
8343.5736950000028
 31
0.0
  0
LINE
  5
4B5A
  8
0-1
  6
CONTINUOUS
 62
     3
 10
12023.034061
 20
8392.3915919999999
 30
0.0
 11
12019.13143999999
 21
8522.3331300000027
 31
0.0
  0
LINE
  5
4B5B
  8
0-1
  6
CONTINUOUS
 62
     3
 10
15408.930401
 20
8493.7498720000003
 30
0.0
 11
15405.02876999999
 21
8623.6914100000049
 31
0.0
  0
LINE
  5
4B5C
  8
0-1
  6
CONTINUOUS
 62
     3
 10
8900.0242299999973
 20
8428.9701260000002
 30
0.0
 11
8903.9268509999984
 21
8299.0290830000049
 31
0.0
  0
LINE
  5
4B5D
  8
0-5
  6
CONTINUOUS
 62
     4
 10
17051.61904899999
 20
6276.5900850000025
 30
0.0
 11
17171.619444999989
 21
6484.4370620000009
 31
0.0
  0
LINE
  5
4B5E
  8
0-5
  6
CONTINUOUS
 62
     4
 10
16931.620631999991
 20
6484.4370620000009
 30
0.0
 11
17051.61904899999
 21
6276.5900850000025
 31
0.0
  0
LINE
  5
4B5F
  8
0-5
  6
CONTINUOUS
 62
     4
 10
17171.619444999989
 20
6484.4370620000009
 30
0.0
 11
16931.620631999991
 21
6484.4370620000009
 31
0.0
  0
LINE
  5
4B60
  8
0-5
  6
CONTINUOUS
 62
     4
 10
15426.53135600001
 20
6276.5900850000025
 30
0.0
 11
17143.99724199999
 21
6276.5900850000025
 31
0.0
  0
LINE
  5
4B61
  8
0-5
  6
CONTINUOUS
 62
     4
 10
15291.534061
 20
4496.5906459999997
 30
0.0
 11
15291.534061
 21
4336.5911079999987
 31
0.0
  0
LINE
  5
4B62
  8
0-5
  6
CONTINUOUS
 62
     4
 10
12023.034061
 20
4496.5906459999997
 30
0.0
 11
12023.034061
 21
4336.5911079999987
 31
0.0
  0
LINE
  5
4B63
  8
0-5
  6
CONTINUOUS
 62
     4
 10
9105.0340609999967
 20
4496.5906459999997
 30
0.0
 11
9105.0340609999967
 21
4336.5911079999987
 31
0.0
  0
LINE
  5
4B64
  8
2-0
  6
CENTER2
 62
     6
 10
15291.534061
 20
5913.9378270000016
 30
0.0
 11
15291.534061
 21
6971.080425000001
 31
0.0
  0
LINE
  5
4B65
  8
2-0
  6
CENTER2
 62
     6
 10
12023.034061
 20
5913.9378270000016
 30
0.0
 11
12023.034061
 21
6971.080425000001
 31
0.0
  0
LINE
  5
4B66
  8
2-0
  6
CENTER2
 62
     6
 10
9105.0340609999967
 20
5913.9378270000016
 30
0.0
 11
9105.0340609999967
 21
6971.080425000001
 31
0.0
  0
ARC
  5
4B67
  8
0-1
  6
CONTINUOUS
 62
     3
 10
15418.973487999991
 20
8559.0819030000021
 30
0.0
 40
24.999998999999999
 50
271.71998600002632
 51
91.719986000026395
  0
ARC
  5
4B68
  8
0-1
  6
CONTINUOUS
 62
     3
 10
8886.6426839999986
 20
8391.552276000004
 30
0.0
 40
3.0
 50
181.71998599997431
 51
271.71998600002632
  0
ARC
  5
4B69
  8
0-1
  6
CONTINUOUS
 62
     3
 10
8887.6799519999968
 20
8423.5972180000026
 30
0.0
 40
5.0
 50
91.719986000026395
 51
181.71998599997431
  0
ARC
  5
4B6A
  8
0-1
  6
CONTINUOUS
 62
     3
 10
15413.976193999981
 20
8558.9314600000016
 30
0.0
 40
69.999999000000003
 50
293.50677499977661
 51
69.933196999909853
  0
ARC
  5
4B6B
  8
0-1
  6
CONTINUOUS
 62
     3
 10
8891.2836650000027
 20
8303.6517540000023
 30
0.0
 40
5.0
 50
181.71998599997431
 51
271.71998600002632
  0
ARC
  5
4B6C
  8
0-1
  6
CONTINUOUS
 62
     3
 10
8888.3223060000018
 20
8335.5769340000006
 30
0.0
 40
3.0
 50
91.719986000026395
 51
181.71998599997431
  0
ARC
  5
4B6D
  8
0-1
  6
CONTINUOUS
 62
     3
 10
8888.3064689999974
 20
8386.0996919999998
 30
0.0
 40
2.5
 50
271.71998600002632
 51
91.719986000026395
  0
ARC
  5
4B6E
  8
0-1
  6
CONTINUOUS
 62
     3
 10
8889.6565009999977
 20
8341.1195860000007
 30
0.0
 40
2.5
 50
271.71998600002632
 51
91.719986000026395
  0
ARC
  5
4B6F
  8
0-1
  6
CONTINUOUS
 62
     3
 10
8886.9722739999997
 20
8380.5570399999979
 30
0.0
 40
3.0
 50
91.719986000026395
 51
181.71998599997431
  0
ARC
  5
4B70
  8
0-1
  6
CONTINUOUS
 62
     3
 10
15418.973487999991
 20
8559.0819030000021
 30
0.0
 40
20.0
 50
271.71998600002632
 51
91.719986000026395
  0
ARC
  5
4B71
  8
0-1
  6
CONTINUOUS
 62
     3
 10
8887.992715999997
 20
8346.5716750000029
 30
0.0
 40
3.0
 50
181.71998599997431
 51
271.71998600002632
  0
CIRCLE
  5
4B72
  8
0-5
  6
CONTINUOUS
 62
     4
 10
12023.034061
 20
4136.5899530000006
 30
0.0
 40
199.9999949999999
  0
CIRCLE
  5
4B73
  8
0-5
  6
CONTINUOUS
 62
     4
 10
15291.534061
 20
4136.5899530000006
 30
0.0
 40
199.9999949999999
  0
CIRCLE
  5
4B74
  8
0-5
  6
CONTINUOUS
 62
     4
 10
9105.0340609999967
 20
4136.5899530000006
 30
0.0
 40
199.9999949999999
  0
TEXT
  5
4B75
  8
0-5
  6
CONTINUOUS
 62
     7
 10
16592.527119999992
 20
6564.4363360000034
 30
0.0
 40
160.0
  1
布基礎天端
 72
     4
 11
17051.193786666659
 21
6644.4363360000016
 31
0.0
  0
TEXT
  5
4B76
  8
0-5
  6
CONTINUOUS
 62
     7
 10
15244.577901000001
 20
4053.3791570000012
 30
0.0
 40
160.0
  1
A
 72
     4
 11
15297.911234333331
 21
4133.3791570000012
 31
0.0
  0
TEXT
  5
4B77
  8
0-5
  6
CONTINUOUS
 62
     7
 10
11976.07790099999
 20
4053.3791570000012
 30
0.0
 40
160.0
  1
B
 72
     4
 11
12029.411234333331
 21
4133.3791570000012
 31
0.0
  0
TEXT
  5
4B78
  8
0-5
  6
CONTINUOUS
 62
     7
 10
9058.0779010000024
 20
4053.3791570000012
 30
0.0
 40
160.0
  1
C
 72
     4
 11
9111.4112343333363
 21
4133.3791570000012
 31
0.0
  0
TEXT
  5
4B79
  8
2-0
  6
CONTINUOUS
 62
     7
 10
10705.000317
 20
3299.4686180000022
 30
0.0
 40
160.0
  1
側 面 立 面 図
 50
0.000139
 72
     4
 11
11350.333456250821
 21
3379.4701835833762
 31
0.0
  0
TEXT
  5
4B7A
  8
2-0
  6
CONTINUOUS
 62
     7
 10
12701.825641388439
 20
3326.6655525833762
 30
0.0
 40
160.0
  1
1
 72
     4
 11
12728.492308055111
 21
3406.6655525833762
 31
0.0
  0
TEXT
  5
4B7B
  8
2-0
  6
CONTINUOUS
 62
     7
 10
12944.91435863914
 20
3246.6670205833748
 30
0.0
 40
160.0
  1
80
 72
     4
 11
13064.91435863914
 21
3326.6670205833748
 31
0.0
  0
TEXT
  5
4B7C
  8
2-0
  6
CONTINUOUS
 62
     7
 10
12202.827607388441
 20
3299.4701835833762
 30
0.0
 40
160.0
  1
(S=  /   )
 72
     4
 11
12762.827607388441
 21
3379.4701835833762
 31
0.0
  0
LINE
  5
4B7D
  8
0-1
  6
CONTINUOUS
 62
     3
 10
15019.03642399998
 20
6326.5902500000011
 30
0.0
 11
15019.03642399998
 21
8187.6361290000032
 31
0.0
  0
LINE
  5
4B7E
  8
0-1
  6
CONTINUOUS
 62
     3
 10
15034.036225999989
 20
6326.5902500000011
 30
0.0
 11
15034.036225999989
 21
8187.6361290000032
 31
0.0
  0
LINE
  5
4B89
  8
0-1
  6
CONTINUOUS
 62
     3
 10
26080.822053999989
 20
6276.5900849999962
 30
0.0
 11
25980.822713000001
 21
6276.5900849999962
 31
0.0
  0
LINE
  5
4B8A
  8
0-1
  6
CONTINUOUS
 62
     3
 10
25980.822713000001
 20
6276.5900849999962
 30
0.0
 11
25980.822713000001
 21
6176.5902500000002
 31
0.0
  0
LINE
  5
4B8B
  8
0-1
  6
CONTINUOUS
 62
     3
 10
26080.822053999989
 20
6176.5902500000002
 30
0.0
 11
26080.822053999989
 21
6276.5900849999962
 31
0.0
  0
LINE
  5
4B8C
  8
0-1
  6
CONTINUOUS
 62
     3
 10
26053.322581
 20
8625.0904339999979
 30
0.0
 11
26053.322581
 21
6276.5900849999962
 31
0.0
  0
LINE
  5
4B8D
  8
0-1
  6
CONTINUOUS
 62
     3
 10
26073.321658000001
 20
8495.0895109999983
 30
0.0
 11
26073.321658000001
 21
6276.5900849999962
 31
0.0
  0
LINE
  5
4B8E
  8
0-1
  6
CONTINUOUS
 62
     3
 10
25943.32271299998
 20
8184.5901439999952
 30
0.0
 11
25943.32271299998
 21
6176.5902500000002
 31
0.0
  0
LINE
  5
4B8F
  8
0-1
  6
CONTINUOUS
 62
     3
 10
25988.32310899999
 20
8495.0895109999983
 30
0.0
 11
25988.32310899999
 21
6276.5900849999962
 31
0.0
  0
LINE
  5
4B98
  8
0-1
  6
CONTINUOUS
 62
     3
 10
22804.819678000022
 20
8495.0895109999983
 30
0.0
 11
22804.819678000022
 21
6176.5902500000002
 31
0.0
  0
LINE
  5
4B99
  8
0-1
  6
CONTINUOUS
 62
     3
 10
22849.820074000021
 20
8184.5901439999952
 30
0.0
 11
22849.820074000021
 21
6176.5902500000002
 31
0.0
  0
LINE
  5
4B9C
  8
0-1
  6
CONTINUOUS
 62
     3
 10
22849.820074000021
 20
8116.049807999997
 30
0.0
 11
25943.32271299998
 21
8116.049807999997
 31
0.0
  0
LINE
  5
4B9D
  8
0-1
  6
CONTINUOUS
 62
     3
 10
22849.820074000021
 20
6761.5909429999983
 30
0.0
 11
25943.32271299998
 21
6761.5909429999983
 31
0.0
  0
LINE
  5
4B9E
  8
0-1
  6
CONTINUOUS
 62
     3
 10
22849.820074000021
 20
6826.5899200000003
 30
0.0
 11
25943.32271299998
 21
6826.5899200000003
 31
0.0
  0
LINE
  5
4B9F
  8
0-1
  6
CONTINUOUS
 62
     3
 10
22849.820074000021
 20
6891.5903819999958
 30
0.0
 11
25943.32271299998
 21
6891.5903819999958
 31
0.0
  0
LINE
  5
4BA0
  8
0-1
  6
CONTINUOUS
 62
     3
 10
22849.820074000021
 20
6956.5903489999973
 30
0.0
 11
25943.32271299998
 21
6956.5903489999973
 31
0.0
  0
LINE
  5
4BA1
  8
0-1
  6
CONTINUOUS
 62
     3
 10
22849.820074000021
 20
7021.590315999998
 30
0.0
 11
25943.32271299998
 21
7021.590315999998
 31
0.0
  0
LINE
  5
4BA2
  8
0-1
  6
CONTINUOUS
 62
     3
 10
22849.820074000021
 20
7086.5902829999959
 30
0.0
 11
25943.32271299998
 21
7086.5902829999959
 31
0.0
  0
LINE
  5
4BA3
  8
0-1
  6
CONTINUOUS
 62
     3
 10
22849.820074000021
 20
7151.5907450000004
 30
0.0
 11
25943.32271299998
 21
7151.5907450000004
 31
0.0
  0
LINE
  5
4BA4
  8
0-1
  6
CONTINUOUS
 62
     3
 10
22849.820074000021
 20
7216.5897219999979
 30
0.0
 11
25943.32271299998
 21
7216.5897219999979
 31
0.0
  0
LINE
  5
4BA5
  8
0-1
  6
CONTINUOUS
 62
     3
 10
22849.820074000021
 20
7281.5901839999979
 30
0.0
 11
25943.32271299998
 21
7281.5901839999979
 31
0.0
  0
LINE
  5
4BA6
  8
0-1
  6
CONTINUOUS
 62
     3
 10
22849.820074000021
 20
7346.5901509999949
 30
0.0
 11
25943.32271299998
 21
7346.5901509999949
 31
0.0
  0
LINE
  5
4BA7
  8
0-1
  6
CONTINUOUS
 62
     3
 10
22849.820074000021
 20
7411.5906129999948
 30
0.0
 11
25943.32271299998
 21
7411.5906129999948
 31
0.0
  0
LINE
  5
4BA8
  8
0-1
  6
CONTINUOUS
 62
     3
 10
22849.820074000021
 20
7476.5895899999969
 30
0.0
 11
25943.32271299998
 21
7476.5895899999969
 31
0.0
  0
LINE
  5
4BA9
  8
0-1
  6
CONTINUOUS
 62
     3
 10
22849.820074000021
 20
7541.5900519999977
 30
0.0
 11
25943.32271299998
 21
7541.5900519999977
 31
0.0
  0
LINE
  5
4BAA
  8
0-1
  6
CONTINUOUS
 62
     3
 10
22849.820074000021
 20
7606.5900189999984
 30
0.0
 11
25943.32271299998
 21
7606.5900189999984
 31
0.0
  0
LINE
  5
4BAB
  8
0-1
  6
CONTINUOUS
 62
     3
 10
22849.820074000021
 20
7671.589985999999
 30
0.0
 11
25943.32271299998
 21
7671.589985999999
 31
0.0
  0
LINE
  5
4BAC
  8
0-1
  6
CONTINUOUS
 62
     3
 10
22849.820074000021
 20
7736.5904480000008
 30
0.0
 11
25943.32271299998
 21
7736.5904480000008
 31
0.0
  0
LINE
  5
4BAD
  8
0-1
  6
CONTINUOUS
 62
     3
 10
22849.820074000021
 20
7801.5904149999978
 30
0.0
 11
25943.32271299998
 21
7801.5904149999978
 31
0.0
  0
LINE
  5
4BAE
  8
0-1
  6
CONTINUOUS
 62
     3
 10
22849.820074000021
 20
7866.5908769999969
 30
0.0
 11
25943.32271299998
 21
7866.5908769999969
 31
0.0
  0
LINE
  5
4BAF
  8
0-1
  6
CONTINUOUS
 62
     3
 10
22849.820074000021
 20
7931.5898539999944
 30
0.0
 11
25943.32271299998
 21
7931.5898539999944
 31
0.0
  0
LINE
  5
4BB0
  8
0-1
  6
CONTINUOUS
 62
     3
 10
22849.820074000021
 20
7996.5903159999989
 30
0.0
 11
25943.32271299998
 21
7996.5903159999989
 31
0.0
  0
LINE
  5
4BB1
  8
0-1
  6
CONTINUOUS
 62
     3
 10
22849.820074000021
 20
8061.5902829999986
 30
0.0
 11
25943.32271299998
 21
8061.5902829999986
 31
0.0
  0
LINE
  5
4BB2
  8
0-1
  6
CONTINUOUS
 62
     3
 10
22849.820074000021
 20
6241.5897219999961
 30
0.0
 11
25943.32271299998
 21
6241.5897219999961
 31
0.0
  0
LINE
  5
4BB3
  8
0-1
  6
CONTINUOUS
 62
     3
 10
22849.820074000021
 20
6306.5906789999972
 30
0.0
 11
25943.32271299998
 21
6306.5906789999972
 31
0.0
  0
LINE
  5
4BB4
  8
0-1
  6
CONTINUOUS
 62
     3
 10
22849.820074000021
 20
6371.5896559999974
 30
0.0
 11
25943.32271299998
 21
6371.5896559999974
 31
0.0
  0
LINE
  5
4BB5
  8
0-1
  6
CONTINUOUS
 62
     3
 10
22849.820074000021
 20
6436.5906129999967
 30
0.0
 11
25943.32271299998
 21
6436.5906129999967
 31
0.0
  0
LINE
  5
4BB6
  8
0-1
  6
CONTINUOUS
 62
     3
 10
22849.820074000021
 20
6501.590084999998
 30
0.0
 11
25943.32271299998
 21
6501.590084999998
 31
0.0
  0
LINE
  5
4BB7
  8
0-1
  6
CONTINUOUS
 62
     3
 10
22849.820074000021
 20
6566.5900519999977
 30
0.0
 11
25943.32271299998
 21
6566.5900519999977
 31
0.0
  0
LINE
  5
4BB8
  8
0-1
  6
CONTINUOUS
 62
     3
 10
22849.820074000021
 20
6631.5900189999984
 30
0.0
 11
25943.32271299998
 21
6631.5900189999984
 31
0.0
  0
LINE
  5
4BB9
  8
0-1
  6
CONTINUOUS
 62
     3
 10
22849.820074000021
 20
6696.589490999997
 30
0.0
 11
25943.32271299998
 21
6696.589490999997
 31
0.0
  0
LINE
  5
4BBB
  8
0-1
  6
CONTINUOUS
 62
     3
 10
22804.819678000022
 20
8184.5901439999952
 30
0.0
 11
25988.32310899999
 21
8184.5901439999952
 31
0.0
  0
LINE
  5
4BBC
  8
0-1
  6
CONTINUOUS
 62
     3
 10
19443.820735000001
 20
6176.5902500000002
 30
0.0
 11
26080.822053999989
 21
6176.5902500000002
 31
0.0
  0
LINE
  5
4BC6
  8
0-1
  6
CONTINUOUS
 62
     3
 10
22719.821129999989
 20
8495.0895109999983
 30
0.0
 11
22719.821129999989
 21
6176.5902500000002
 31
0.0
  0
LINE
  5
4BC7
  8
0-1
  6
CONTINUOUS
 62
     3
 10
22674.82271399998
 20
8184.5901439999952
 30
0.0
 11
22674.82271399998
 21
6176.5902500000002
 31
0.0
  0
LINE
  5
4BD2
  8
0-1
  6
CONTINUOUS
 62
     3
 10
19543.822054
 20
6276.5900849999962
 30
0.0
 11
19543.822054
 21
6176.5902500000002
 31
0.0
  0
LINE
  5
4BD3
  8
0-1
  6
CONTINUOUS
 62
     3
 10
19443.820735000001
 20
6176.5902500000002
 30
0.0
 11
19443.820735000001
 21
6276.5900849999962
 31
0.0
  0
LINE
  5
4BD4
  8
0-1
  6
CONTINUOUS
 62
     3
 10
19443.820735000001
 20
6276.5900849999962
 30
0.0
 11
19543.822054
 21
6276.5900849999962
 31
0.0
  0
LINE
  5
4BD5
  8
0-1
  6
CONTINUOUS
 62
     3
 10
19581.322054
 20
8184.5901439999952
 30
0.0
 11
19581.322054
 21
6176.5902500000002
 31
0.0
  0
LINE
  5
4BD6
  8
0-1
  6
CONTINUOUS
 62
     3
 10
19536.319678999989
 20
8495.0895109999983
 30
0.0
 11
19536.319678999989
 21
6276.5900849999962
 31
0.0
  0
LINE
  5
4BD7
  8
0-1
  6
CONTINUOUS
 62
     3
 10
19471.32218599999
 20
8625.0904339999979
 30
0.0
 11
19471.32218599999
 21
6276.5900849999962
 31
0.0
  0
LINE
  5
4BD8
  8
0-1
  6
CONTINUOUS
 62
     3
 10
19451.319151
 20
8495.0895109999983
 30
0.0
 11
19451.319151
 21
6276.5900849999962
 31
0.0
  0
LINE
  5
4BD9
  8
0-1
  6
CONTINUOUS
 62
     3
 10
19536.319678999989
 20
8184.5901439999952
 30
0.0
 11
22719.821129999989
 21
8184.5901439999952
 31
0.0
  0
LINE
  5
4BDB
  8
0-1
  6
CONTINUOUS
 62
     3
 10
19581.322054
 20
6696.589490999997
 30
0.0
 11
22674.82271399998
 21
6696.589490999997
 31
0.0
  0
LINE
  5
4BDC
  8
0-1
  6
CONTINUOUS
 62
     3
 10
19581.322054
 20
6631.5900189999984
 30
0.0
 11
22674.82271399998
 21
6631.5900189999984
 31
0.0
  0
LINE
  5
4BDD
  8
0-1
  6
CONTINUOUS
 62
     3
 10
19581.322054
 20
6566.5900519999977
 30
0.0
 11
22674.82271399998
 21
6566.5900519999977
 31
0.0
  0
LINE
  5
4BDE
  8
0-1
  6
CONTINUOUS
 62
     3
 10
19581.322054
 20
6501.590084999998
 30
0.0
 11
22674.82271399998
 21
6501.590084999998
 31
0.0
  0
LINE
  5
4BDF
  8
0-1
  6
CONTINUOUS
 62
     3
 10
19581.322054
 20
6436.5906129999967
 30
0.0
 11
22674.82271399998
 21
6436.5906129999967
 31
0.0
  0
LINE
  5
4BE0
  8
0-1
  6
CONTINUOUS
 62
     3
 10
19581.322054
 20
6371.5896559999974
 30
0.0
 11
22674.82271399998
 21
6371.5896559999974
 31
0.0
  0
LINE
  5
4BE1
  8
0-1
  6
CONTINUOUS
 62
     3
 10
19581.322054
 20
6306.5906789999972
 30
0.0
 11
22674.82271399998
 21
6306.5906789999972
 31
0.0
  0
LINE
  5
4BE2
  8
0-1
  6
CONTINUOUS
 62
     3
 10
19581.322054
 20
6241.5897219999961
 30
0.0
 11
22674.82271399998
 21
6241.5897219999961
 31
0.0
  0
LINE
  5
4BE3
  8
0-1
  6
CONTINUOUS
 62
     3
 10
19581.322054
 20
8061.5902829999986
 30
0.0
 11
22674.82271399998
 21
8061.5902829999986
 31
0.0
  0
LINE
  5
4BE4
  8
0-1
  6
CONTINUOUS
 62
     3
 10
19581.322054
 20
7996.5903159999989
 30
0.0
 11
22674.82271399998
 21
7996.5903159999989
 31
0.0
  0
LINE
  5
4BE5
  8
0-1
  6
CONTINUOUS
 62
     3
 10
19581.322054
 20
7931.5898539999944
 30
0.0
 11
22674.82271399998
 21
7931.5898539999944
 31
0.0
  0
LINE
  5
4BE6
  8
0-1
  6
CONTINUOUS
 62
     3
 10
19581.322054
 20
7866.5908769999969
 30
0.0
 11
22674.82271399998
 21
7866.5908769999969
 31
0.0
  0
LINE
  5
4BE7
  8
0-1
  6
CONTINUOUS
 62
     3
 10
19581.322054
 20
7801.5904149999978
 30
0.0
 11
22674.82271399998
 21
7801.5904149999978
 31
0.0
  0
LINE
  5
4BE8
  8
0-1
  6
CONTINUOUS
 62
     3
 10
19581.322054
 20
7736.5904480000008
 30
0.0
 11
22674.82271399998
 21
7736.5904480000008
 31
0.0
  0
LINE
  5
4BE9
  8
0-1
  6
CONTINUOUS
 62
     3
 10
19581.322054
 20
7671.589985999999
 30
0.0
 11
22674.82271399998
 21
7671.589985999999
 31
0.0
  0
LINE
  5
4BEA
  8
0-1
  6
CONTINUOUS
 62
     3
 10
19581.322054
 20
7606.5900189999984
 30
0.0
 11
22674.82271399998
 21
7606.5900189999984
 31
0.0
  0
LINE
  5
4BEB
  8
0-1
  6
CONTINUOUS
 62
     3
 10
19581.322054
 20
7541.5900519999977
 30
0.0
 11
22674.82271399998
 21
7541.5900519999977
 31
0.0
  0
LINE
  5
4BEC
  8
0-1
  6
CONTINUOUS
 62
     3
 10
19581.322054
 20
7476.5895899999969
 30
0.0
 11
22674.82271399998
 21
7476.5895899999969
 31
0.0
  0
LINE
  5
4BED
  8
0-1
  6
CONTINUOUS
 62
     3
 10
19581.322054
 20
7411.5906129999948
 30
0.0
 11
22674.82271399998
 21
7411.5906129999948
 31
0.0
  0
LINE
  5
4BEE
  8
0-1
  6
CONTINUOUS
 62
     3
 10
19581.322054
 20
7346.5901509999949
 30
0.0
 11
22674.82271399998
 21
7346.5901509999949
 31
0.0
  0
LINE
  5
4BEF
  8
0-1
  6
CONTINUOUS
 62
     3
 10
19581.322054
 20
7281.5901839999979
 30
0.0
 11
22674.82271399998
 21
7281.5901839999979
 31
0.0
  0
LINE
  5
4BF0
  8
0-1
  6
CONTINUOUS
 62
     3
 10
19581.322054
 20
7216.5897219999979
 30
0.0
 11
22674.82271399998
 21
7216.5897219999979
 31
0.0
  0
LINE
  5
4BF1
  8
0-1
  6
CONTINUOUS
 62
     3
 10
19581.322054
 20
7151.5907450000004
 30
0.0
 11
22674.82271399998
 21
7151.5907450000004
 31
0.0
  0
LINE
  5
4BF2
  8
0-1
  6
CONTINUOUS
 62
     3
 10
19581.322054
 20
7086.5902829999959
 30
0.0
 11
22674.82271399998
 21
7086.5902829999959
 31
0.0
  0
LINE
  5
4BF3
  8
0-1
  6
CONTINUOUS
 62
     3
 10
19581.322054
 20
7021.590315999998
 30
0.0
 11
22674.82271399998
 21
7021.590315999998
 31
0.0
  0
LINE
  5
4BF4
  8
0-1
  6
CONTINUOUS
 62
     3
 10
19581.322054
 20
6956.5903489999973
 30
0.0
 11
22674.82271399998
 21
6956.5903489999973
 31
0.0
  0
LINE
  5
4BF5
  8
0-1
  6
CONTINUOUS
 62
     3
 10
19581.322054
 20
6891.5903819999958
 30
0.0
 11
22674.82271399998
 21
6891.5903819999958
 31
0.0
  0
LINE
  5
4BF6
  8
0-1
  6
CONTINUOUS
 62
     3
 10
19581.322054
 20
6826.5899200000003
 30
0.0
 11
22674.82271399998
 21
6826.5899200000003
 31
0.0
  0
LINE
  5
4BF7
  8
0-1
  6
CONTINUOUS
 62
     3
 10
19581.322054
 20
6761.5909429999983
 30
0.0
 11
22674.82271399998
 21
6761.5909429999983
 31
0.0
  0
LINE
  5
4BF8
  8
0-1
  6
CONTINUOUS
 62
     3
 10
19581.322054
 20
8116.049807999997
 30
0.0
 11
22674.82271399998
 21
8116.049807999997
 31
0.0
  0
LINE
  5
4BFE
  8
0-2
  6
CONTINUOUS
 62
     4
 10
24760.263394000009
 20
6923.8159539999951
 30
0.0
 11
24660.264053999999
 21
6923.8159539999951
 31
0.0
  0
LINE
  5
4BFF
  8
0-2
  6
CONTINUOUS
 62
     4
 10
24032.87741400001
 20
6923.8159539999951
 30
0.0
 11
24132.87675499999
 21
6923.8159539999951
 31
0.0
  0
LINE
  5
4C00
  8
0-2
  6
CONTINUOUS
 62
     4
 10
21491.762404500001
 20
6923.8159539999951
 30
0.0
 11
21391.763064499999
 21
6923.8159539999951
 31
0.0
  0
LINE
  5
4C01
  8
0-2
  6
CONTINUOUS
 62
     4
 10
20764.37840350001
 20
6923.8159539999951
 30
0.0
 11
20864.375764500001
 21
6923.8159539999951
 31
0.0
  0
LINE
  5
4C02
  8
0-5
  6
CONTINUOUS
 62
     4
 10
22762.321393999991
 20
4496.5901509999949
 30
0.0
 11
22762.321393999991
 21
4336.5901179999992
 31
0.0
  0
LINE
  5
4C03
  8
0-5
  6
CONTINUOUS
 62
     4
 10
19493.821393999991
 20
4496.5901509999949
 30
0.0
 11
19493.821393999991
 21
4336.5901179999992
 31
0.0
  0
LINE
  5
4C04
  8
2-0
  6
CENTER2
 62
     6
 10
26030.821393999999
 20
5913.9378269999979
 30
0.0
 11
26030.821393999999
 21
6951.0798639999966
 31
0.0
  0
LINE
  5
4C05
  8
2-0
  6
CENTER2
 62
     6
 10
22762.321393999991
 20
5913.9378269999979
 30
0.0
 11
22762.321393999991
 21
6951.0798639999966
 31
0.0
  0
LINE
  5
4C06
  8
2-0
  6
CENTER2
 62
     6
 10
19493.821393999991
 20
5913.9378269999979
 30
0.0
 11
19493.821393999991
 21
6951.0798639999966
 31
0.0
  0
CIRCLE
  5
4C17
  8
0-5
  6
CONTINUOUS
 62
     4
 10
22762.321393999991
 20
4136.5904479999972
 30
0.0
 40
199.9999949999999
  0
CIRCLE
  5
4C18
  8
0-5
  6
CONTINUOUS
 62
     4
 10
19493.821393999991
 20
4136.5904479999972
 30
0.0
 40
199.9999949999999
  0
TEXT
  5
4C19
  8
0-5
  6
CONTINUOUS
 62
     7
 10
18875.645455000002
 20
6905.9504967419953
 30
0.0
 40
160.0
  1
(2131.5)
 50
90.0
 72
     4
 11
18795.645455000002
 21
7359.2838300753283
 31
0.0
  0
TEXT
  5
4C1A
  8
0-5
  6
CONTINUOUS
 62
     7
 10
22715.392946999989
 20
4050.0604939999939
 30
0.0
 40
160.0
  1
2
 72
     4
 11
22768.726280333321
 21
4130.0604939999939
 31
0.0
  0
TEXT
  5
4C1B
  8
0-5
  6
CONTINUOUS
 62
     7
 10
19446.888987999999
 20
4050.0604939999939
 30
0.0
 40
160.0
  1
1
 72
     4
 11
19473.55565466667
 21
4130.0604939999939
 31
0.0
  0
CIRCLE
  5
4C1C
  8
0-4
  6
CONTINUOUS
 62
     4
 10
21128.071393999999
 20
6662.6461909999962
 30
0.0
 40
18.487504999999981
  0
CIRCLE
  5
4C1D
  8
0-4
  6
CONTINUOUS
 62
     4
 10
24396.571393999991
 20
6662.6461909999962
 30
0.0
 40
18.487504999999981
  0
LINE
  5
4C1E
  8
SUNPOU
  6
CONTINUOUS
 10
19211.321393999991
 20
4976.5902500000002
 30
0.0
 11
18853.366387278878
 21
4976.5902500000002
 31
0.0
  0
LINE
  5
4C1F
  8
SUNPOU
  6
CONTINUOUS
 10
26313.325353
 20
4976.5902500000002
 30
0.0
 11
26671.28035972111
 21
4976.5902500000002
 31
0.0
  0
LINE
  5
4C20
  8
0-5
  6
CONTINUOUS
 62
     4
 10
26073.321393999991
 20
4496.5901509999949
 30
0.0
 11
26073.321393999991
 21
4336.5901179999992
 31
0.0
  0
CIRCLE
  5
4C21
  8
0-5
  6
CONTINUOUS
 62
     4
 10
26073.321393999991
 20
4136.5904479999972
 30
0.0
 40
199.9999949999999
  0
TEXT
  5
4C22
  8
0-5
  6
CONTINUOUS
 62
     7
 10
26026.392947
 20
4050.0604939999939
 30
0.0
 40
160.0
  1
3
 72
     4
 11
26079.726280333329
 21
4130.0604939999939
 31
0.0
  0
TEXT
  5
4C23
  8
2-0
  6
CONTINUOUS
 62
     7
 10
21444.287649999998
 20
3299.4686180000022
 30
0.0
 40
160.0
  1
正 面 立 面 図
 50
0.000139
 72
     4
 11
22089.620789250821
 21
3379.4701835833762
 31
0.0
  0
TEXT
  5
4C24
  8
2-0
  6
CONTINUOUS
 62
     7
 10
23441.11297438843
 20
3326.6655525833762
 30
0.0
 40
160.0
  1
1
 72
     4
 11
23467.779641055098
 21
3406.6655525833762
 31
0.0
  0
TEXT
  5
4C25
  8
2-0
  6
CONTINUOUS
 62
     7
 10
23684.201691639129
 20
3246.6670205833748
 30
0.0
 40
160.0
  1
80
 72
     4
 11
23804.201691639129
 21
3326.6670205833748
 31
0.0
  0
TEXT
  5
4C26
  8
2-0
  6
CONTINUOUS
 62
     7
 10
22942.114940388441
 20
3299.4701835833762
 30
0.0
 40
160.0
  1
(S=  /   )
 72
     4
 11
23502.114940388441
 21
3379.4701835833762
 31
0.0
  0
LINE
  5
4C27
  8
2-0
  6
CONTINUOUS
 62
     6
 10
24347.662477999991
 20
13065.229792
 30
0.0
 11
25347.655879999958
 21
13065.229792
 31
0.0
  0
LINE
  5
4C28
  8
2-0
  6
CONTINUOUS
 62
     6
 10
25815.59625699999
 20
13535.650506
 30
0.0
 11
25347.655879999958
 21
13065.229792
 31
0.0
  0
LINE
  5
4C29
  8
2-0
  6
CONTINUOUS
 62
     6
 10
24364.373573999968
 20
18094.849857000001
 30
0.0
 11
25382.34892199999
 21
18094.849857000001
 31
0.0
  0
LINE
  5
4C2A
  8
2-0
  6
CONTINUOUS
 62
     6
 10
25838.774439999968
 20
18319.564805999991
 30
0.0
 11
25382.34892199999
 21
18094.849857000001
 31
0.0
  0
LINE
  5
4C2B
  8
2-0
  6
CONTINUOUS
 62
     6
 10
25776.956053999991
 20
17077.75815300001
 30
0.0
 11
25472.26063600001
 21
17181.411684000021
 31
0.0
  0
LINE
  5
4C2C
  8
2-0
  6
CONTINUOUS
 62
     6
 10
25931.978092999962
 20
16588.136109000021
 30
0.0
 11
25472.26063600001
 21
16344.222798000001
 31
0.0
  0
LINE
  5
4C2D
  8
2-0
  6
CONTINUOUS
 62
     6
 10
24552.257600999979
 20
16344.222798000001
 30
0.0
 11
25472.26063600001
 21
16344.222798000001
 31
0.0
  0
LINE
  5
4C2E
  8
2-0
  6
CONTINUOUS
 62
     6
 10
24272.266573999979
 20
17181.411684000021
 30
0.0
 11
25472.26063600001
 21
17181.411684000021
 31
0.0
  0
LINE
  5
4C2F
  8
2-0
  6
CONTINUOUS
 62
     6
 10
25848.155377999989
 20
13857.334151999979
 30
0.0
 11
25472.26063600001
 21
14038.277986999999
 31
0.0
  0
LINE
  5
4C30
  8
2-0
  6
CONTINUOUS
 62
     6
 10
24364.373573999968
 20
15177.087399
 30
0.0
 11
25382.34892199999
 21
15177.087399
 31
0.0
  0
LINE
  5
4C31
  8
2-0
  6
CONTINUOUS
 62
     6
 10
24952.258919999989
 20
14038.277986999999
 30
0.0
 11
25472.26063600001
 21
14038.277986999999
 31
0.0
  0
LINE
  5
4C32
  8
2-0
  6
CONTINUOUS
 62
     6
 10
25838.774439999968
 20
15401.800369000021
 30
0.0
 11
25382.34892199999
 21
15177.087399
 31
0.0
  0
LINE
  5
4C33
  8
2-0
  6
CONTINUOUS
 62
     4
 10
22762.321393999991
 20
20014.231442000018
 30
0.0
 11
22762.321393999991
 21
20744.228406999999
 31
0.0
  0
LINE
  5
4C34
  8
2-0
  6
CONTINUOUS
 62
     3
 10
26043.322053999989
 20
19825.228987999999
 30
0.0
 11
26043.322053999989
 21
19819.23302600002
 31
0.0
  0
LINE
  5
4C35
  8
2-0
  6
CONTINUOUS
 62
     3
 10
26043.322053999989
 20
19819.23302600002
 30
0.0
 11
26073.319677999989
 21
19819.23302600002
 31
0.0
  0
LINE
  5
4C36
  8
2-0
  6
CONTINUOUS
 62
     3
 10
26073.319677999989
 20
19849.23263000001
 30
0.0
 11
25992.31777799999
 21
19849.23263000001
 31
0.0
  0
LINE
  5
4C37
  8
2-0
  6
CONTINUOUS
 62
     3
 10
26043.322053999989
 20
19808.935570000001
 30
0.0
 11
26073.319677999989
 21
19808.935570000001
 31
0.0
  0
LINE
  5
4C38
  8
2-0
  6
CONTINUOUS
 62
     3
 10
26043.322053999989
 20
19826.93731200002
 30
0.0
 11
26043.322053999989
 21
19808.935570000001
 31
0.0
  0
LINE
  5
4C39
  8
2-0
  6
CONTINUOUS
 62
     3
 10
26068.319414000001
 20
19826.93731200002
 30
0.0
 11
26043.322053999989
 21
19826.93731200002
 31
0.0
  0
LINE
  5
4C3A
  8
2-0
  6
CONTINUOUS
 62
     3
 10
26068.319414000001
 20
19821.929130000019
 30
0.0
 11
26068.319414000001
 21
19826.93731200002
 31
0.0
  0
LINE
  5
4C3B
  8
2-0
  6
CONTINUOUS
 62
     3
 10
26061.317856999998
 20
19821.929130000019
 30
0.0
 11
26068.319414000001
 21
19821.929130000019
 31
0.0
  0
LINE
  5
4C3C
  8
2-0
  6
CONTINUOUS
 62
     3
 10
25961.021588999989
 20
19922.229357000011
 30
0.0
 11
25961.021588999989
 21
19929.234873000001
 31
0.0
  0
LINE
  5
4C3D
  8
2-0
  6
CONTINUOUS
 62
     3
 10
25961.021588999989
 20
19929.234873000001
 30
0.0
 11
25966.02185299998
 21
19929.234873000001
 31
0.0
  0
LINE
  5
4C3E
  8
2-0
  6
CONTINUOUS
 62
     3
 10
25966.02185299998
 20
19929.234873000001
 30
0.0
 11
25966.02185299998
 21
19904.22563600001
 31
0.0
  0
LINE
  5
4C3F
  8
2-0
  6
CONTINUOUS
 62
     3
 10
25966.02185299998
 20
19904.22563600001
 30
0.0
 11
25948.02011099998
 21
19904.22563600001
 31
0.0
  0
LINE
  5
4C40
  8
2-0
  6
CONTINUOUS
 62
     3
 10
25948.02011099998
 20
19904.22563600001
 30
0.0
 11
25948.02011099998
 21
19934.229199000009
 31
0.0
  0
LINE
  5
4C41
  8
2-0
  6
CONTINUOUS
 62
     3
 10
25958.317566999991
 20
19934.229199000009
 30
0.0
 11
26073.319677999989
 21
19934.229199000009
 31
0.0
  0
LINE
  5
4C42
  8
2-0
  6
CONTINUOUS
 62
     3
 10
25958.317566999991
 20
19904.22563600001
 30
0.0
 11
25958.317566999991
 21
19934.229199000009
 31
0.0
  0
LINE
  5
4C43
  8
2-0
  6
CONTINUOUS
 62
     3
 10
25964.31946699999
 20
19904.22563600001
 30
0.0
 11
25958.317566999991
 21
19904.22563600001
 31
0.0
  0
LINE
  5
4C44
  8
2-0
  6
CONTINUOUS
 62
     3
 10
26061.317856999998
 20
19118.132307499989
 30
0.0
 11
26068.319414000001
 21
19118.132307499989
 31
0.0
  0
LINE
  5
4C45
  8
2-0
  6
CONTINUOUS
 62
     3
 10
26068.319414000001
 20
19118.132307499989
 30
0.0
 11
26068.319414000001
 21
19123.132571499991
 31
0.0
  0
LINE
  5
4C46
  8
2-0
  6
CONTINUOUS
 62
     3
 10
26068.319414000001
 20
19123.132571499991
 30
0.0
 11
26043.322053999989
 21
19123.132571499991
 31
0.0
  0
LINE
  5
4C47
  8
2-0
  6
CONTINUOUS
 62
     3
 10
26043.322053999989
 20
19123.132571499991
 30
0.0
 11
26043.322053999989
 21
19105.1367675
 31
0.0
  0
LINE
  5
4C48
  8
2-0
  6
CONTINUOUS
 62
     3
 10
26043.322053999989
 20
19105.1367675
 30
0.0
 11
26073.319677999989
 21
19105.1367675
 31
0.0
  0
LINE
  5
4C49
  8
2-0
  6
CONTINUOUS
 62
     3
 10
26043.322053999989
 20
19121.22827449995
 30
0.0
 11
26043.322053999989
 21
19115.230333499989
 31
0.0
  0
LINE
  5
4C4A
  8
2-0
  6
CONTINUOUS
 62
     3
 10
26043.322053999989
 20
19115.230333499989
 30
0.0
 11
26073.319677999989
 21
19115.230333499989
 31
0.0
  0
LINE
  5
4C4B
  8
2-0
  6
CONTINUOUS
 62
     3
 10
26073.319677999989
 20
19115.230333499989
 30
0.0
 11
26073.319677999989
 21
19152.2314945
 31
0.0
  0
LINE
  5
4C4C
  8
2-0
  6
CONTINUOUS
 62
     3
 10
26043.322053999989
 20
19152.2314945
 30
0.0
 11
26073.319677999989
 21
19152.2314945
 31
0.0
  0
LINE
  5
4C4D
  8
2-0
  6
CONTINUOUS
 62
     3
 10
26043.322053999989
 20
19146.227614499981
 30
0.0
 11
26043.322053999989
 21
19152.2314945
 31
0.0
  0
LINE
  5
4C4E
  8
2-0
  6
CONTINUOUS
 62
     3
 10
26043.322053999989
 20
19162.327039499982
 30
0.0
 11
26073.319677999989
 21
19162.327039499982
 31
0.0
  0
LINE
  5
4C4F
  8
2-0
  6
CONTINUOUS
 62
     3
 10
26043.322053999989
 20
19144.3252975
 30
0.0
 11
26043.322053999989
 21
19162.327039499982
 31
0.0
  0
LINE
  5
4C50
  8
2-0
  6
CONTINUOUS
 62
     3
 10
26068.319414000001
 20
19144.3252975
 30
0.0
 11
26043.322053999989
 21
19144.3252975
 31
0.0
  0
LINE
  5
4C51
  8
2-0
  6
CONTINUOUS
 62
     3
 10
26068.319414000001
 20
19149.325561500002
 30
0.0
 11
26068.319414000001
 21
19144.3252975
 31
0.0
  0
LINE
  5
4C52
  8
2-0
  6
CONTINUOUS
 62
     3
 10
26061.317856999998
 20
19149.325561500002
 30
0.0
 11
26068.319414000001
 21
19149.325561500002
 31
0.0
  0
LINE
  5
4C53
  8
2-0
  6
CONTINUOUS
 62
     3
 10
26061.317856999998
 20
18417.131317999989
 30
0.0
 11
26068.319414000001
 21
18417.131317999989
 31
0.0
  0
LINE
  5
4C54
  8
2-0
  6
CONTINUOUS
 62
     3
 10
26068.319414000001
 20
18417.131317999989
 30
0.0
 11
26068.319414000001
 21
18422.13752
 31
0.0
  0
LINE
  5
4C55
  8
2-0
  6
CONTINUOUS
 62
     3
 10
26068.319414000001
 20
18422.13752
 30
0.0
 11
26043.322053999989
 21
18422.13752
 31
0.0
  0
LINE
  5
4C56
  8
2-0
  6
CONTINUOUS
 62
     3
 10
26043.322053999989
 20
18422.13752
 30
0.0
 11
26043.322053999989
 21
18404.135778
 31
0.0
  0
LINE
  5
4C57
  8
2-0
  6
CONTINUOUS
 62
     3
 10
26043.322053999989
 20
18404.135778
 30
0.0
 11
26073.319677999989
 21
18404.135778
 31
0.0
  0
LINE
  5
4C58
  8
2-0
  6
CONTINUOUS
 62
     3
 10
26043.322053999989
 20
18420.22728499999
 30
0.0
 11
26043.322053999989
 21
18414.231323
 31
0.0
  0
LINE
  5
4C59
  8
2-0
  6
CONTINUOUS
 62
     3
 10
26043.322053999989
 20
18414.231323
 30
0.0
 11
26073.319677999989
 21
18414.231323
 31
0.0
  0
LINE
  5
4C5A
  8
2-0
  6
CONTINUOUS
 62
     3
 10
26073.319677999989
 20
18414.231323
 30
0.0
 11
26073.319677999989
 21
18451.230504999989
 31
0.0
  0
LINE
  5
4C5B
  8
2-0
  6
CONTINUOUS
 62
     3
 10
26043.322053999989
 20
18451.230504999989
 30
0.0
 11
26073.319677999989
 21
18451.230504999989
 31
0.0
  0
LINE
  5
4C5C
  8
2-0
  6
CONTINUOUS
 62
     3
 10
26043.322053999989
 20
18445.23454300001
 30
0.0
 11
26043.322053999989
 21
18451.230504999989
 31
0.0
  0
LINE
  5
4C5D
  8
2-0
  6
CONTINUOUS
 62
     3
 10
26043.322053999989
 20
18461.32605
 30
0.0
 11
26073.319677999989
 21
18461.32605
 31
0.0
  0
LINE
  5
4C5E
  8
2-0
  6
CONTINUOUS
 62
     3
 10
26043.322053999989
 20
18443.324307999988
 30
0.0
 11
26043.322053999989
 21
18461.32605
 31
0.0
  0
LINE
  5
4C5F
  8
2-0
  6
CONTINUOUS
 62
     3
 10
26068.319414000001
 20
18443.324307999988
 30
0.0
 11
26043.322053999989
 21
18443.324307999988
 31
0.0
  0
LINE
  5
4C60
  8
2-0
  6
CONTINUOUS
 62
     3
 10
26068.319414000001
 20
18448.33051
 30
0.0
 11
26068.319414000001
 21
18443.324307999988
 31
0.0
  0
LINE
  5
4C61
  8
2-0
  6
CONTINUOUS
 62
     3
 10
26061.317856999998
 20
18448.33051
 30
0.0
 11
26068.319414000001
 21
18448.33051
 31
0.0
  0
LINE
  5
4C62
  8
2-0
  6
CONTINUOUS
 62
     3
 10
26061.317856999998
 20
17747.324572000001
 30
0.0
 11
26068.319414000001
 21
17747.324572000001
 31
0.0
  0
LINE
  5
4C63
  8
2-0
  6
CONTINUOUS
 62
     3
 10
26068.319414000001
 20
17747.324572000001
 30
0.0
 11
26068.319414000001
 21
17742.336185
 31
0.0
  0
LINE
  5
4C64
  8
2-0
  6
CONTINUOUS
 62
     3
 10
26068.319414000001
 20
17742.336185
 30
0.0
 11
26043.322053999989
 21
17742.336185
 31
0.0
  0
LINE
  5
4C65
  8
2-0
  6
CONTINUOUS
 62
     3
 10
26043.322053999989
 20
17742.336185
 30
0.0
 11
26043.322053999989
 21
17760.331988000002
 31
0.0
  0
LINE
  5
4C66
  8
2-0
  6
CONTINUOUS
 62
     3
 10
26043.322053999989
 20
17760.331988000002
 30
0.0
 11
26073.319677999989
 21
17760.331988000002
 31
0.0
  0
LINE
  5
4C67
  8
2-0
  6
CONTINUOUS
 62
     3
 10
26043.322053999989
 20
17744.234542999991
 30
0.0
 11
26043.322053999989
 21
17750.230504999989
 31
0.0
  0
LINE
  5
4C68
  8
2-0
  6
CONTINUOUS
 62
     3
 10
26043.322053999989
 20
17750.230504999989
 30
0.0
 11
26073.319677999989
 21
17750.230504999989
 31
0.0
  0
LINE
  5
4C69
  8
2-0
  6
CONTINUOUS
 62
     3
 10
26073.319677999989
 20
17750.230504999989
 30
0.0
 11
26073.319677999989
 21
17713.231323
 31
0.0
  0
LINE
  5
4C6A
  8
2-0
  6
CONTINUOUS
 62
     3
 10
26043.322053999989
 20
17713.231323
 30
0.0
 11
26073.319677999989
 21
17713.231323
 31
0.0
  0
LINE
  5
4C6B
  8
2-0
  6
CONTINUOUS
 62
     3
 10
26043.322053999989
 20
17719.233223999989
 30
0.0
 11
26043.322053999989
 21
17713.231323
 31
0.0
  0
LINE
  5
4C6C
  8
2-0
  6
CONTINUOUS
 62
     3
 10
26043.322053999989
 20
17703.141716999991
 30
0.0
 11
26073.319677999989
 21
17703.141716999991
 31
0.0
  0
LINE
  5
4C6D
  8
2-0
  6
CONTINUOUS
 62
     3
 10
26043.322053999989
 20
17721.13752
 30
0.0
 11
26043.322053999989
 21
17703.141716999991
 31
0.0
  0
LINE
  5
4C6E
  8
2-0
  6
CONTINUOUS
 62
     3
 10
26068.319414000001
 20
17721.13752
 30
0.0
 11
26043.322053999989
 21
17721.13752
 31
0.0
  0
LINE
  5
4C6F
  8
2-0
  6
CONTINUOUS
 62
     3
 10
26068.319414000001
 20
17716.137256999991
 30
0.0
 11
26068.319414000001
 21
17721.13752
 31
0.0
  0
LINE
  5
4C70
  8
2-0
  6
CONTINUOUS
 62
     3
 10
26061.317856999998
 20
17716.137256999991
 30
0.0
 11
26068.319414000001
 21
17716.137256999991
 31
0.0
  0
LINE
  5
4C71
  8
2-0
  6
CONTINUOUS
 62
     3
 10
26070.433539999991
 20
16996.228143
 30
0.0
 11
26070.433539999991
 21
17016.229198000001
 31
0.0
  0
LINE
  5
4C72
  8
2-0
  6
CONTINUOUS
 62
     3
 10
26070.433539999991
 20
17016.229198000001
 30
0.0
 11
25985.436970999988
 21
17016.229198000001
 31
0.0
  0
LINE
  5
4C73
  8
2-0
  6
CONTINUOUS
 62
     3
 10
26061.317856999998
 20
17042.835908000001
 30
0.0
 11
26068.319414000001
 21
17042.835908000001
 31
0.0
  0
LINE
  5
4C74
  8
2-0
  6
CONTINUOUS
 62
     3
 10
26068.319414000001
 20
17042.835908000001
 30
0.0
 11
26068.319414000001
 21
17037.841582000001
 31
0.0
  0
LINE
  5
4C75
  8
2-0
  6
CONTINUOUS
 62
     3
 10
26068.319414000001
 20
17037.841582000001
 30
0.0
 11
26043.322053999989
 21
17037.841582000001
 31
0.0
  0
LINE
  5
4C76
  8
2-0
  6
CONTINUOUS
 62
     3
 10
26043.322053999989
 20
17037.841582000001
 30
0.0
 11
26043.322053999989
 21
17055.83738600001
 31
0.0
  0
LINE
  5
4C77
  8
2-0
  6
CONTINUOUS
 62
     3
 10
26043.322053999989
 20
17055.83738600001
 30
0.0
 11
26073.319677999989
 21
17055.83738600001
 31
0.0
  0
LINE
  5
4C78
  8
2-0
  6
CONTINUOUS
 62
     3
 10
26043.322053999989
 20
17046.228802000001
 30
0.0
 11
26043.322053999989
 21
17040.226901999991
 31
0.0
  0
LINE
  5
4C79
  8
2-0
  6
CONTINUOUS
 62
     3
 10
26073.319677999989
 20
17046.228802000001
 30
0.0
 11
26043.322053999989
 21
17046.228802000001
 31
0.0
  0
LINE
  5
4C7A
  8
2-0
  6
CONTINUOUS
 62
     3
 10
26073.319677999989
 20
17055.83738600001
 30
0.0
 11
26073.319677999989
 21
17703.141716999991
 31
0.0
  0
LINE
  5
4C7B
  8
2-0
  6
CONTINUOUS
 62
     3
 10
26073.319677999989
 20
17760.331988000002
 30
0.0
 11
26073.319677999989
 21
18404.135778
 31
0.0
  0
LINE
  5
4C7C
  8
2-0
  6
CONTINUOUS
 62
     3
 10
26073.319677999989
 20
16901.22708700001
 30
0.0
 11
26043.322053999989
 21
16901.22708700001
 31
0.0
  0
LINE
  5
4C7D
  8
2-0
  6
CONTINUOUS
 62
     3
 10
26043.322053999989
 20
16901.22708700001
 30
0.0
 11
26043.322053999989
 21
16907.22898700001
 31
0.0
  0
LINE
  5
4C7E
  8
2-0
  6
CONTINUOUS
 62
     3
 10
25985.436970999988
 20
16931.232629999991
 30
0.0
 11
26070.433539999991
 21
16931.232629999991
 31
0.0
  0
LINE
  5
4C7F
  8
2-0
  6
CONTINUOUS
 62
     3
 10
26070.433539999991
 20
16931.232629999991
 30
0.0
 11
26070.433539999991
 21
16951.227747000012
 31
0.0
  0
LINE
  5
4C80
  8
2-0
  6
CONTINUOUS
 62
     3
 10
26043.322053999989
 20
16891.618503999998
 30
0.0
 11
26073.319677999989
 21
16891.618503999998
 31
0.0
  0
LINE
  5
4C81
  8
2-0
  6
CONTINUOUS
 62
     3
 10
26043.322053999989
 20
16909.614306999982
 30
0.0
 11
26043.322053999989
 21
16891.618503999998
 31
0.0
  0
LINE
  5
4C82
  8
2-0
  6
CONTINUOUS
 62
     3
 10
26068.319414000001
 20
16909.614306999982
 30
0.0
 11
26043.322053999989
 21
16909.614306999982
 31
0.0
  0
LINE
  5
4C83
  8
2-0
  6
CONTINUOUS
 62
     3
 10
26068.319414000001
 20
16904.614043000009
 30
0.0
 11
26068.319414000001
 21
16909.614306999982
 31
0.0
  0
LINE
  5
4C84
  8
2-0
  6
CONTINUOUS
 62
     3
 10
26061.317856999998
 20
16904.614043000009
 30
0.0
 11
26068.319414000001
 21
16904.614043000009
 31
0.0
  0
LINE
  5
4C85
  8
2-0
  6
CONTINUOUS
 62
     3
 10
26061.317856999998
 20
16200.131812499991
 30
0.0
 11
26068.319414000001
 21
16200.131812499991
 31
0.0
  0
LINE
  5
4C86
  8
2-0
  6
CONTINUOUS
 62
     3
 10
26068.319414000001
 20
16200.131812499991
 30
0.0
 11
26068.319414000001
 21
16205.13207649998
 31
0.0
  0
LINE
  5
4C87
  8
2-0
  6
CONTINUOUS
 62
     3
 10
26068.319414000001
 20
16205.13207649998
 30
0.0
 11
26043.322053999989
 21
16205.13207649998
 31
0.0
  0
LINE
  5
4C88
  8
2-0
  6
CONTINUOUS
 62
     3
 10
26043.322053999989
 20
16205.13207649998
 30
0.0
 11
26043.322053999989
 21
16187.130334499991
 31
0.0
  0
LINE
  5
4C89
  8
2-0
  6
CONTINUOUS
 62
     3
 10
26043.322053999989
 20
16187.130334499991
 30
0.0
 11
26073.319677999989
 21
16187.130334499991
 31
0.0
  0
LINE
  5
4C8A
  8
2-0
  6
CONTINUOUS
 62
     3
 10
26043.322053999989
 20
16203.227779500001
 30
0.0
 11
26043.322053999989
 21
16197.2308285
 31
0.0
  0
LINE
  5
4C8B
  8
2-0
  6
CONTINUOUS
 62
     3
 10
26043.322053999989
 20
16197.2308285
 30
0.0
 11
26073.319677999989
 21
16197.2308285
 31
0.0
  0
LINE
  5
4C8C
  8
2-0
  6
CONTINUOUS
 62
     3
 10
26073.319677999989
 20
16197.2308285
 30
0.0
 11
26073.319677999989
 21
16234.2309995
 31
0.0
  0
LINE
  5
4C8D
  8
2-0
  6
CONTINUOUS
 62
     3
 10
26043.322053999989
 20
16234.2309995
 30
0.0
 11
26073.319677999989
 21
16234.2309995
 31
0.0
  0
LINE
  5
4C8E
  8
2-0
  6
CONTINUOUS
 62
     3
 10
26043.322053999989
 20
16228.228109499991
 30
0.0
 11
26043.322053999989
 21
16234.2309995
 31
0.0
  0
LINE
  5
4C8F
  8
2-0
  6
CONTINUOUS
 62
     3
 10
26043.322053999989
 20
16244.3265445
 30
0.0
 11
26073.319677999989
 21
16244.3265445
 31
0.0
  0
LINE
  5
4C90
  8
2-0
  6
CONTINUOUS
 62
     3
 10
26043.322053999989
 20
16226.318863500001
 30
0.0
 11
26043.322053999989
 21
16244.3265445
 31
0.0
  0
LINE
  5
4C91
  8
2-0
  6
CONTINUOUS
 62
     3
 10
26068.319414000001
 20
16226.318863500001
 30
0.0
 11
26043.322053999989
 21
16226.318863500001
 31
0.0
  0
LINE
  5
4C92
  8
2-0
  6
CONTINUOUS
 62
     3
 10
26068.319414000001
 20
16231.3250665
 30
0.0
 11
26068.319414000001
 21
16226.318863500001
 31
0.0
  0
LINE
  5
4C93
  8
2-0
  6
CONTINUOUS
 62
     3
 10
26061.317856999998
 20
16231.3250665
 30
0.0
 11
26068.319414000001
 21
16231.3250665
 31
0.0
  0
LINE
  5
4C94
  8
2-0
  6
CONTINUOUS
 62
     3
 10
26061.317856999998
 20
15530.565083
 30
0.0
 11
26068.319414000001
 21
15530.565083
 31
0.0
  0
LINE
  5
4C95
  8
2-0
  6
CONTINUOUS
 62
     3
 10
26068.319414000001
 20
15530.565083
 30
0.0
 11
26068.319414000001
 21
15525.570758000011
 31
0.0
  0
LINE
  5
4C96
  8
2-0
  6
CONTINUOUS
 62
     3
 10
26068.319414000001
 20
15525.570758000011
 30
0.0
 11
26043.322053999989
 21
15525.570758000011
 31
0.0
  0
LINE
  5
4C97
  8
2-0
  6
CONTINUOUS
 62
     3
 10
26043.322053999989
 20
15525.570758000011
 30
0.0
 11
26043.322053999989
 21
15543.566561000011
 31
0.0
  0
LINE
  5
4C98
  8
2-0
  6
CONTINUOUS
 62
     3
 10
26043.322053999989
 20
15543.566561000011
 30
0.0
 11
26073.319677999989
 21
15543.566561000011
 31
0.0
  0
LINE
  5
4C99
  8
2-0
  6
CONTINUOUS
 62
     3
 10
26043.322053999989
 20
15527.469116
 30
0.0
 11
26043.322053999989
 21
15533.47101600001
 31
0.0
  0
LINE
  5
4C9A
  8
2-0
  6
CONTINUOUS
 62
     3
 10
26043.322053999989
 20
15533.47101600001
 30
0.0
 11
26073.319677999989
 21
15533.47101600001
 31
0.0
  0
LINE
  5
4C9B
  8
2-0
  6
CONTINUOUS
 62
     3
 10
26073.319677999989
 20
15496.471835
 30
0.0
 11
26073.319677999989
 21
15533.47101600001
 31
0.0
  0
LINE
  5
4C9C
  8
2-0
  6
CONTINUOUS
 62
     3
 10
26043.322053999989
 20
15496.471835
 30
0.0
 11
26073.319677999989
 21
15496.471835
 31
0.0
  0
LINE
  5
4C9D
  8
2-0
  6
CONTINUOUS
 62
     3
 10
26043.322053999989
 20
15502.46878600001
 30
0.0
 11
26043.322053999989
 21
15496.471835
 31
0.0
  0
LINE
  5
4C9E
  8
2-0
  6
CONTINUOUS
 62
     3
 10
26043.322053999989
 20
15486.370351
 30
0.0
 11
26073.319677999989
 21
15486.370351
 31
0.0
  0
LINE
  5
4C9F
  8
2-0
  6
CONTINUOUS
 62
     3
 10
26043.322053999989
 20
15504.378032000001
 30
0.0
 11
26043.322053999989
 21
15486.370351
 31
0.0
  0
LINE
  5
4CA0
  8
2-0
  6
CONTINUOUS
 62
     3
 10
26068.319414000001
 20
15504.378032000001
 30
0.0
 11
26043.322053999989
 21
15504.378032000001
 31
0.0
  0
LINE
  5
4CA1
  8
2-0
  6
CONTINUOUS
 62
     3
 10
26068.319414000001
 20
15499.377768000009
 30
0.0
 11
26068.319414000001
 21
15504.378032000001
 31
0.0
  0
LINE
  5
4CA2
  8
2-0
  6
CONTINUOUS
 62
     3
 10
26061.317856999998
 20
15499.377768000009
 30
0.0
 11
26068.319414000001
 21
15499.377768000009
 31
0.0
  0
LINE
  5
4CA3
  8
2-0
  6
CONTINUOUS
 62
     3
 10
26073.319677999989
 20
16891.618503999998
 30
0.0
 11
26073.319677999989
 21
16244.3265445
 31
0.0
  0
LINE
  5
4CA4
  8
2-0
  6
CONTINUOUS
 62
     3
 10
26073.319677999989
 20
17046.228802000001
 30
0.0
 11
26073.319677999989
 21
16901.22708700001
 31
0.0
  0
LINE
  5
4CA5
  8
2-0
  6
CONTINUOUS
 62
     3
 10
25985.436970999988
 20
17016.229198000001
 30
0.0
 11
25985.436970999988
 21
16931.232629999991
 31
0.0
  0
LINE
  5
4CA6
  8
2-0
  6
CONTINUOUS
 62
     6
 10
24447.228303999989
 20
18784.676463499982
 30
0.0
 11
25472.26063600001
 21
18784.676463499982
 31
0.0
  0
LINE
  5
4CA7
  8
2-0
  6
CONTINUOUS
 62
     3
 10
26061.317856999998
 20
14798.136761
 30
0.0
 11
26068.319414000001
 21
14798.136761
 31
0.0
  0
LINE
  5
4CA8
  8
2-0
  6
CONTINUOUS
 62
     3
 10
26068.319414000001
 20
14798.136761
 30
0.0
 11
26068.319414000001
 21
14803.131087
 31
0.0
  0
LINE
  5
4CA9
  8
2-0
  6
CONTINUOUS
 62
     3
 10
26068.319414000001
 20
14803.131087
 30
0.0
 11
26043.322053999989
 21
14803.131087
 31
0.0
  0
LINE
  5
4CAA
  8
2-0
  6
CONTINUOUS
 62
     3
 10
26043.322053999989
 20
14803.131087
 30
0.0
 11
26043.322053999989
 21
14785.135283
 31
0.0
  0
LINE
  5
4CAB
  8
2-0
  6
CONTINUOUS
 62
     3
 10
26043.322053999989
 20
14785.135283
 30
0.0
 11
26073.319677999989
 21
14785.135283
 31
0.0
  0
LINE
  5
4CAC
  8
2-0
  6
CONTINUOUS
 62
     3
 10
26043.322053999989
 20
14801.23371800001
 30
0.0
 11
26043.322053999989
 21
14795.230828000011
 31
0.0
  0
LINE
  5
4CAD
  8
2-0
  6
CONTINUOUS
 62
     3
 10
26043.322053999989
 20
14795.230828000011
 30
0.0
 11
26073.319677999989
 21
14795.230828000011
 31
0.0
  0
LINE
  5
4CAE
  8
2-0
  6
CONTINUOUS
 62
     3
 10
26073.319677999989
 20
14795.230828000011
 30
0.0
 11
26073.319677999989
 21
14832.230999999991
 31
0.0
  0
LINE
  5
4CAF
  8
2-0
  6
CONTINUOUS
 62
     3
 10
26043.322053999989
 20
14832.230999999991
 30
0.0
 11
26073.319677999989
 21
14832.230999999991
 31
0.0
  0
LINE
  5
4CB0
  8
2-0
  6
CONTINUOUS
 62
     3
 10
26043.322053999989
 20
14826.23404799998
 30
0.0
 11
26043.322053999989
 21
14832.230999999991
 31
0.0
  0
LINE
  5
4CB1
  8
2-0
  6
CONTINUOUS
 62
     3
 10
26043.322053999989
 20
14842.331493000011
 30
0.0
 11
26073.319677999989
 21
14842.331493000011
 31
0.0
  0
LINE
  5
4CB2
  8
2-0
  6
CONTINUOUS
 62
     3
 10
26043.322053999989
 20
14824.32480200001
 30
0.0
 11
26043.322053999989
 21
14842.331493000011
 31
0.0
  0
LINE
  5
4CB3
  8
2-0
  6
CONTINUOUS
 62
     3
 10
26068.319414000001
 20
14824.32480200001
 30
0.0
 11
26043.322053999989
 21
14824.32480200001
 31
0.0
  0
LINE
  5
4CB4
  8
2-0
  6
CONTINUOUS
 62
     3
 10
26068.319414000001
 20
14829.33001500001
 30
0.0
 11
26068.319414000001
 21
14824.32480200001
 31
0.0
  0
LINE
  5
4CB5
  8
2-0
  6
CONTINUOUS
 62
     3
 10
26061.317856999998
 20
14829.33001500001
 30
0.0
 11
26068.319414000001
 21
14829.33001500001
 31
0.0
  0
LINE
  5
4CB6
  8
2-0
  6
CONTINUOUS
 62
     3
 10
26043.322053999989
 20
13771.73284099999
 30
0.0
 11
26043.322053999989
 21
13777.73770999999
 31
0.0
  0
LINE
  5
4CB7
  8
2-0
  6
CONTINUOUS
 62
     3
 10
26043.322053999989
 20
13777.73770999999
 30
0.0
 11
26073.319677999989
 21
13777.73770999999
 31
0.0
  0
LINE
  5
4CB8
  8
2-0
  6
CONTINUOUS
 62
     3
 10
26073.319677999989
 20
13777.73770999999
 30
0.0
 11
26073.319677999989
 21
13662.733619000001
 31
0.0
  0
LINE
  5
4CB9
  8
2-0
  6
CONTINUOUS
 62
     3
 10
26073.319677999989
 20
13662.733619000001
 30
0.0
 11
25988.321129999978
 21
13662.733619000001
 31
0.0
  0
LINE
  5
4CBA
  8
2-0
  6
CONTINUOUS
 62
     3
 10
25988.321129999978
 20
13662.733619000001
 30
0.0
 11
25988.321129999978
 21
13747.729198000001
 31
0.0
  0
LINE
  5
4CBB
  8
2-0
  6
CONTINUOUS
 62
     3
 10
25988.321129999978
 20
13747.729198000001
 30
0.0
 11
26020.32004799998
 21
13747.729198000001
 31
0.0
  0
LINE
  5
4CBC
  8
2-0
  6
CONTINUOUS
 62
     3
 10
26061.317856999998
 20
13774.767443000001
 30
0.0
 11
26068.319414000001
 21
13774.767443000001
 31
0.0
  0
LINE
  5
4CBD
  8
2-0
  6
CONTINUOUS
 62
     3
 10
26068.319414000001
 20
13774.767443000001
 30
0.0
 11
26068.319414000001
 21
13769.77014799998
 31
0.0
  0
LINE
  5
4CBE
  8
2-0
  6
CONTINUOUS
 62
     3
 10
26068.319414000001
 20
13769.77014799998
 30
0.0
 11
26043.322053999989
 21
13769.77014799998
 31
0.0
  0
LINE
  5
4CBF
  8
2-0
  6
CONTINUOUS
 62
     3
 10
26043.322053999989
 20
13769.77014799998
 30
0.0
 11
26043.322053999989
 21
13787.768921000001
 31
0.0
  0
LINE
  5
4CC0
  8
2-0
  6
CONTINUOUS
 62
     3
 10
26043.322053999989
 20
13787.768921000001
 30
0.0
 11
26073.319677999989
 21
13787.768921000001
 31
0.0
  0
LINE
  5
4CC1
  8
2-0
  6
CENTER2
 62
     6
 10
26030.821393999999
 20
13465.236060999991
 30
0.0
 11
26030.821393999999
 21
14971.60481900002
 31
0.0
  0
LINE
  5
4CC2
  8
2-0
  6
CONTINUOUS
 62
     3
 10
26073.319677999989
 20
18461.32605
 30
0.0
 11
26073.319677999989
 21
19105.1367675
 31
0.0
  0
LINE
  5
4CC3
  8
2-0
  6
CONTINUOUS
 62
     6
 10
26765.82456099999
 20
20664.232102000031
 30
0.0
 11
27965.818622999959
 21
20664.232102000031
 31
0.0
  0
LINE
  5
4CC4
  8
2-0
  6
CONTINUOUS
 62
     3
 10
22834.823241999991
 20
19934.229199000009
 30
0.0
 11
22834.823241999991
 21
19904.22563600001
 31
0.0
  0
LINE
  5
4CC5
  8
2-0
  6
CONTINUOUS
 62
     3
 10
22834.823241999991
 20
19904.22563600001
 30
0.0
 11
22828.825299999979
 21
19904.22563600001
 31
0.0
  0
LINE
  5
4CC6
  8
2-0
  6
CONTINUOUS
 62
     3
 10
22844.43974300001
 20
19904.22563600001
 30
0.0
 11
22844.43974300001
 21
19934.229199000009
 31
0.0
  0
LINE
  5
4CC7
  8
2-0
  6
CONTINUOUS
 62
     3
 10
22826.438000999991
 20
19904.22563600001
 30
0.0
 11
22844.43974300001
 21
19904.22563600001
 31
0.0
  0
LINE
  5
4CC8
  8
2-0
  6
CONTINUOUS
 62
     3
 10
22826.438000999991
 20
19929.234873000001
 30
0.0
 11
22826.438000999991
 21
19904.22563600001
 31
0.0
  0
LINE
  5
4CC9
  8
2-0
  6
CONTINUOUS
 62
     3
 10
22831.438265000001
 20
19929.234873000001
 30
0.0
 11
22826.438000999991
 21
19929.234873000001
 31
0.0
  0
LINE
  5
4CCA
  8
2-0
  6
CONTINUOUS
 62
     3
 10
22831.438265000001
 20
19922.229357000011
 30
0.0
 11
22831.438265000001
 21
19929.234873000001
 31
0.0
  0
LINE
  5
4CCB
  8
2-0
  6
CONTINUOUS
 62
     3
 10
22804.821658000001
 20
19931.337122000001
 30
0.0
 11
22804.821658000001
 21
19846.338574000009
 31
0.0
  0
LINE
  5
4CCC
  8
2-0
  6
CONTINUOUS
 62
     3
 10
22784.824561000001
 20
19931.337122000001
 30
0.0
 11
22804.821658000001
 21
19931.337122000001
 31
0.0
  0
LINE
  5
4CCD
  8
2-0
  6
CONTINUOUS
 62
     3
 10
22693.21046200001
 20
19922.229357000011
 30
0.0
 11
22693.21046200001
 21
19929.234873000001
 31
0.0
  0
LINE
  5
4CCE
  8
2-0
  6
CONTINUOUS
 62
     3
 10
22693.21046200001
 20
19929.234873000001
 30
0.0
 11
22698.210726000001
 21
19929.234873000001
 31
0.0
  0
LINE
  5
4CCF
  8
2-0
  6
CONTINUOUS
 62
     3
 10
22698.210726000001
 20
19929.234873000001
 30
0.0
 11
22698.210726000001
 21
19904.22563600001
 31
0.0
  0
LINE
  5
4CD0
  8
2-0
  6
CONTINUOUS
 62
     3
 10
22698.210726000001
 20
19904.22563600001
 30
0.0
 11
22680.208984000001
 21
19904.22563600001
 31
0.0
  0
LINE
  5
4CD1
  8
2-0
  6
CONTINUOUS
 62
     3
 10
22680.208984000001
 20
19904.22563600001
 30
0.0
 11
22680.208984000001
 21
19934.229199000009
 31
0.0
  0
LINE
  5
4CD2
  8
2-0
  6
CONTINUOUS
 62
     3
 10
22719.829048
 20
19931.337122000001
 30
0.0
 11
22739.824165000002
 21
19931.337122000001
 31
0.0
  0
LINE
  5
4CD3
  8
2-0
  6
CONTINUOUS
 62
     3
 10
22719.829048
 20
19846.338574000009
 30
0.0
 11
22719.829048
 21
19931.337122000001
 31
0.0
  0
LINE
  5
4CD4
  8
2-0
  6
CONTINUOUS
 62
     3
 10
22689.831424000011
 20
19904.22563600001
 30
0.0
 11
22695.827385000001
 21
19904.22563600001
 31
0.0
  0
LINE
  5
4CD5
  8
2-0
  6
CONTINUOUS
 62
     3
 10
22689.831424000011
 20
19934.229199000009
 30
0.0
 11
22689.831424000011
 21
19904.22563600001
 31
0.0
  0
LINE
  5
4CD6
  8
2-0
  6
CONTINUOUS
 62
     3
 10
22804.821658000001
 20
19846.338574000009
 30
0.0
 11
22719.829048
 21
19846.338574000009
 31
0.0
  0
LINE
  5
4CD7
  8
2-0
  6
CONTINUOUS
 62
     3
 10
22834.823241999991
 20
19934.229199000009
 30
0.0
 11
22689.831424000011
 21
19934.229199000009
 31
0.0
  0
LINE
  5
4CD8
  8
2-0
  6
CONTINUOUS
 62
     6
 10
25903.791727999989
 20
19026.830971499989
 30
0.0
 11
25472.26063600001
 21
18784.676463499982
 31
0.0
  0
LINE
  5
4CD9
  8
2-0
  6
CONTINUOUS
 62
     6
 10
26225.360561999962
 20
20076.908939000012
 30
0.0
 11
26765.82456099999
 21
20664.232102000031
 31
0.0
  0
LINE
  5
4CDA
  8
2-0
  6
CONTINUOUS
 62
     6
 10
22804.821658000001
 20
13747.729198000001
 30
0.0
 11
23081.411871000011
 21
14203.073898000001
 31
0.0
  0
LINE
  5
4CDB
  8
2-0
  6
CONTINUOUS
 62
     6
 10
23081.411871000011
 20
14203.073898000001
 30
0.0
 11
24111.761189999979
 21
14203.073898000001
 31
0.0
  0
LINE
  5
4CDC
  8
2-0
  6
CONTINUOUS
 62
     3
 10
25982.315270999999
 20
18390.22965999999
 30
0.0
 11
26029.32091899998
 21
18390.22965999999
 31
0.0
  0
LINE
  5
4CDD
  8
2-0
  6
CONTINUOUS
 62
     3
 10
26029.32091899998
 20
18475.230188000001
 30
0.0
 11
25982.315270999999
 21
18475.230188000001
 31
0.0
  0
LINE
  5
4CDE
  8
2-0
  6
CONTINUOUS
 62
     3
 10
26029.32091899998
 20
18390.22965999999
 30
0.0
 11
26029.32091899998
 21
18415.232959000001
 31
0.0
  0
LINE
  5
4CDF
  8
2-0
  6
CONTINUOUS
 62
     3
 10
26029.32091899998
 20
18450.228867999991
 30
0.0
 11
26029.32091899998
 21
18475.230188000001
 31
0.0
  0
LINE
  5
4CE0
  8
2-0
  6
CONTINUOUS
 62
     3
 10
25982.315270999999
 20
18475.230188000001
 30
0.0
 11
25982.315270999999
 21
18390.22965999999
 31
0.0
  0
LINE
  5
4CE1
  8
2-0
  6
CONTINUOUS
 62
     3
 10
26073.319677999989
 20
16187.130334499991
 30
0.0
 11
26073.319677999989
 21
15543.566561000011
 31
0.0
  0
LINE
  5
4CE2
  8
2-0
  6
CONTINUOUS
 62
     3
 10
25982.315270999999
 20
15472.23263000001
 30
0.0
 11
26029.32091899998
 21
15472.23263000001
 31
0.0
  0
LINE
  5
4CE3
  8
2-0
  6
CONTINUOUS
 62
     3
 10
26029.32091899998
 20
15557.22919799999
 30
0.0
 11
25982.315270999999
 21
15557.22919799999
 31
0.0
  0
LINE
  5
4CE4
  8
2-0
  6
CONTINUOUS
 62
     3
 10
26029.32091899998
 20
15472.23263000001
 30
0.0
 11
26029.32091899998
 21
15497.22801100001
 31
0.0
  0
LINE
  5
4CE5
  8
2-0
  6
CONTINUOUS
 62
     3
 10
26029.32091899998
 20
15532.227879
 30
0.0
 11
26029.32091899998
 21
15557.22919799999
 31
0.0
  0
LINE
  5
4CE6
  8
2-0
  6
CONTINUOUS
 62
     3
 10
25982.315270999999
 20
15557.22919799999
 30
0.0
 11
25982.315270999999
 21
15472.23263000001
 31
0.0
  0
LINE
  5
4CE7
  8
2-0
  6
CONTINUOUS
 62
     6
 10
22865.099977999998
 20
13898.325032999979
 30
0.0
 11
22804.821658000001
 21
13747.729198000001
 31
0.0
  0
LINE
  5
4CE8
  8
2-0
  6
CONTINUOUS
 62
     6
 10
22804.821658000001
 20
13747.729198000001
 30
0.0
 11
22910.680372999959
 21
13870.637506999999
 31
0.0
  0
LINE
  5
4CE9
  8
2-0
  6
CONTINUOUS
 62
     6
 10
22865.099977999998
 20
13898.325032999979
 30
0.0
 11
22910.680372999959
 21
13870.637506999999
 31
0.0
  0
LINE
  5
4CEA
  8
2-0
  6
CONTINUOUS
 62
     6
 10
22910.680372999959
 20
13870.637506999999
 30
0.0
 11
22804.821658000001
 21
13747.729198000001
 31
0.0
  0
LINE
  5
4CEB
  8
2-0
  6
CONTINUOUS
 62
     6
 10
22804.821658000001
 20
13747.729198000001
 30
0.0
 11
22865.099977999998
 21
13898.325032999979
 31
0.0
  0
LINE
  5
4CEC
  8
2-0
  6
CONTINUOUS
 62
     6
 10
22865.099977999998
 20
13898.325032999979
 30
0.0
 11
22804.821658000001
 21
13747.729198000001
 31
0.0
  0
LINE
  5
4CED
  8
2-0
  6
CONTINUOUS
 62
     6
 10
22910.680372999959
 20
13870.637506999999
 30
0.0
 11
22804.821658000001
 21
13747.729198000001
 31
0.0
  0
LINE
  5
4CEE
  8
2-0
  6
CONTINUOUS
 62
     6
 10
22910.680372999959
 20
13870.637506999999
 30
0.0
 11
22865.099977999998
 21
13898.325032999979
 31
0.0
  0
LINE
  5
4CEF
  8
2-0
  6
CONTINUOUS
 62
     6
 10
25890.734822999992
 20
19050.090315500001
 30
0.0
 11
26043.322053999989
 21
19105.1367675
 31
0.0
  0
LINE
  5
4CF0
  8
2-0
  6
CONTINUOUS
 62
     6
 10
26043.322053999989
 20
19105.1367675
 30
0.0
 11
25916.840714000002
 21
19003.57756749999
 31
0.0
  0
LINE
  5
4CF1
  8
2-0
  6
CONTINUOUS
 62
     6
 10
25890.734822999992
 20
19050.090315500001
 30
0.0
 11
25916.840714000002
 21
19003.57756749999
 31
0.0
  0
LINE
  5
4CF2
  8
2-0
  6
CONTINUOUS
 62
     6
 10
25916.840714000002
 20
19003.57756749999
 30
0.0
 11
26043.322053999989
 21
19105.1367675
 31
0.0
  0
LINE
  5
4CF3
  8
2-0
  6
CONTINUOUS
 62
     6
 10
26043.322053999989
 20
19105.1367675
 30
0.0
 11
25890.734822999992
 21
19050.090315500001
 31
0.0
  0
LINE
  5
4CF4
  8
2-0
  6
CONTINUOUS
 62
     6
 10
25890.734822999992
 20
19050.090315500001
 30
0.0
 11
26043.322053999989
 21
19105.1367675
 31
0.0
  0
LINE
  5
4CF5
  8
2-0
  6
CONTINUOUS
 62
     6
 10
25916.840714000002
 20
19003.57756749999
 30
0.0
 11
26043.322053999989
 21
19105.1367675
 31
0.0
  0
LINE
  5
4CF6
  8
2-0
  6
CONTINUOUS
 62
     6
 10
25916.840714000002
 20
19003.57756749999
 30
0.0
 11
25890.734822999992
 21
19050.090315500001
 31
0.0
  0
LINE
  5
4CF7
  8
2-0
  6
CONTINUOUS
 62
     6
 10
26244.977590999992
 20
20058.847812000022
 30
0.0
 11
26117.015570999989
 21
19959.165194000008
 31
0.0
  0
LINE
  5
4CF8
  8
2-0
  6
CONTINUOUS
 62
     6
 10
26117.015570999989
 20
19959.165194000008
 30
0.0
 11
26205.729675999992
 21
20094.962149000021
 31
0.0
  0
LINE
  5
4CF9
  8
2-0
  6
CONTINUOUS
 62
     6
 10
26244.977590999992
 20
20058.847812000022
 30
0.0
 11
26205.729675999992
 21
20094.962149000021
 31
0.0
  0
LINE
  5
4CFA
  8
2-0
  6
CONTINUOUS
 62
     6
 10
26205.729675999992
 20
20094.962149000021
 30
0.0
 11
26117.015570999989
 21
19959.165194000008
 31
0.0
  0
LINE
  5
4CFB
  8
2-0
  6
CONTINUOUS
 62
     6
 10
26117.015570999989
 20
19959.165194000008
 30
0.0
 11
26244.977590999992
 21
20058.847812000022
 31
0.0
  0
LINE
  5
4CFC
  8
2-0
  6
CONTINUOUS
 62
     6
 10
26244.977590999992
 20
20058.847812000022
 30
0.0
 11
26117.015570999989
 21
19959.165194000008
 31
0.0
  0
LINE
  5
4CFD
  8
2-0
  6
CONTINUOUS
 62
     6
 10
26205.729675999992
 20
20094.962149000021
 30
0.0
 11
26117.015570999989
 21
19959.165194000008
 31
0.0
  0
LINE
  5
4CFE
  8
2-0
  6
CONTINUOUS
 62
     6
 10
26205.729675999992
 20
20094.962149000021
 30
0.0
 11
26244.977590999992
 21
20058.847812000022
 31
0.0
  0
LINE
  5
4CFF
  8
2-0
  6
CONTINUOUS
 62
     6
 10
21386.257073000001
 20
19686.45681700002
 30
0.0
 11
21518.190006000012
 21
19217.110981999998
 31
0.0
  0
LINE
  5
4D00
  8
2-0
  6
CONTINUOUS
 62
     6
 10
21518.190006000012
 20
19217.110981999998
 30
0.0
 11
22543.228276999991
 21
19217.110981999998
 31
0.0
  0
LINE
  5
4D01
  8
2-0
  6
CONTINUOUS
 62
     6
 10
21342.963022
 20
19840.485137000011
 30
0.0
 11
21360.584696000002
 21
19679.239492000019
 31
0.0
  0
LINE
  5
4D02
  8
2-0
  6
CONTINUOUS
 62
     6
 10
21411.92944900001
 20
19693.67810100002
 30
0.0
 11
21360.584696000002
 21
19679.239492000019
 31
0.0
  0
LINE
  5
4D03
  8
2-0
  6
CONTINUOUS
 62
     6
 10
21360.584696000002
 20
19679.239492000019
 30
0.0
 11
21342.963022
 21
19840.485137000011
 31
0.0
  0
LINE
  5
4D04
  8
2-0
  6
CONTINUOUS
 62
     6
 10
21342.963022
 20
19840.485137000011
 30
0.0
 11
21411.92944900001
 21
19693.67810100002
 31
0.0
  0
LINE
  5
4D05
  8
2-0
  6
CONTINUOUS
 62
     6
 10
21411.92944900001
 20
19693.67810100002
 30
0.0
 11
21342.963022
 21
19840.485137000011
 31
0.0
  0
LINE
  5
4D06
  8
2-0
  6
CONTINUOUS
 62
     6
 10
21360.584696000002
 20
19679.239492000019
 30
0.0
 11
21342.963022
 21
19840.485137000011
 31
0.0
  0
LINE
  5
4D07
  8
2-0
  6
CONTINUOUS
 62
     6
 10
21360.584696000002
 20
19679.239492000019
 30
0.0
 11
21411.92944900001
 21
19693.67810100002
 31
0.0
  0
LINE
  5
4D08
  8
2-0
  6
CONTINUOUS
 62
     6
 10
22803.7448
 20
19815.47787900002
 30
0.0
 11
22952.614495000009
 21
19285.855703000001
 31
0.0
  0
LINE
  5
4D09
  8
2-0
  6
CONTINUOUS
 62
     6
 10
22952.614495000009
 20
19285.855703000001
 30
0.0
 11
23977.658704000001
 21
19285.855703000001
 31
0.0
  0
LINE
  5
4D0A
  8
2-0
  6
CONTINUOUS
 62
     6
 10
22821.368453999981
 20
19654.23223400001
 30
0.0
 11
22872.71914500001
 21
19668.66688400002
 31
0.0
  0
LINE
  5
4D0B
  8
2-0
  6
CONTINUOUS
 62
     6
 10
22872.71914500001
 20
19668.66688400002
 30
0.0
 11
22821.368453999981
 21
19654.23223400001
 31
0.0
  0
LINE
  5
4D0C
  8
2-0
  6
CONTINUOUS
 62
     6
 10
22821.368453999981
 20
19654.23223400001
 30
0.0
 11
22803.7448
 21
19815.47787900002
 31
0.0
  0
LINE
  5
4D0D
  8
2-0
  6
CONTINUOUS
 62
     6
 10
22803.7448
 20
19815.47787900002
 30
0.0
 11
22872.71914500001
 21
19668.66688400002
 31
0.0
  0
LINE
  5
4D0E
  8
2-0
  6
CONTINUOUS
 62
     6
 10
22872.71914500001
 20
19668.66688400002
 30
0.0
 11
22803.7448
 21
19815.47787900002
 31
0.0
  0
LINE
  5
4D0F
  8
2-0
  6
CONTINUOUS
 62
     6
 10
22821.368453999981
 20
19654.23223400001
 30
0.0
 11
22803.7448
 21
19815.47787900002
 31
0.0
  0
LINE
  5
4D10
  8
2-0
  6
CONTINUOUS
 62
     6
 10
22872.71914500001
 20
19668.66688400002
 30
0.0
 11
22803.7448
 21
19815.47787900002
 31
0.0
  0
LINE
  5
4D11
  8
2-0
  6
CONTINUOUS
 62
     6
 10
22803.7448
 20
19815.47787900002
 30
0.0
 11
22821.368453999981
 21
19654.23223400001
 31
0.0
  0
LINE
  5
4D12
  8
2-0
  6
CONTINUOUS
 62
     4
 10
22762.321393999991
 20
20014.231442000018
 30
0.0
 11
22762.321393999991
 21
20744.228406999999
 31
0.0
  0
LINE
  5
4D13
  8
2-0
  6
CONTINUOUS
 62
     6
 10
25826.99630399996
 20
15425.725820000011
 30
0.0
 11
25982.315270999999
 21
15472.473141
 31
0.0
  0
LINE
  5
4D14
  8
2-0
  6
CONTINUOUS
 62
     6
 10
25982.315270999999
 20
15472.473141
 30
0.0
 11
25850.554554999992
 21
15377.880856000011
 31
0.0
  0
LINE
  5
4D15
  8
2-0
  6
CONTINUOUS
 62
     6
 10
25826.99630399996
 20
15425.725820000011
 30
0.0
 11
25850.554554999992
 21
15377.880856000011
 31
0.0
  0
LINE
  5
4D16
  8
2-0
  6
CONTINUOUS
 62
     6
 10
25850.554554999992
 20
15377.880856000011
 30
0.0
 11
25982.315270999999
 21
15472.473141
 31
0.0
  0
LINE
  5
4D17
  8
2-0
  6
CONTINUOUS
 62
     6
 10
25982.315270999999
 20
15472.473141
 30
0.0
 11
25826.99630399996
 21
15425.725820000011
 31
0.0
  0
LINE
  5
4D18
  8
2-0
  6
CONTINUOUS
 62
     6
 10
25826.99630399996
 20
15425.725820000011
 30
0.0
 11
25982.315270999999
 21
15472.473141
 31
0.0
  0
LINE
  5
4D19
  8
2-0
  6
CONTINUOUS
 62
     6
 10
25850.554554999992
 20
15377.880856000011
 30
0.0
 11
25982.315270999999
 21
15472.473141
 31
0.0
  0
LINE
  5
4D1A
  8
2-0
  6
CONTINUOUS
 62
     6
 10
25850.554554999992
 20
15377.880856000011
 30
0.0
 11
25826.99630399996
 21
15425.725820000011
 31
0.0
  0
LINE
  5
4D1B
  8
2-0
  6
CONTINUOUS
 62
     6
 10
25796.68195699999
 20
13554.46088099999
 30
0.0
 11
25928.428816
 21
13649.087808
 31
0.0
  0
LINE
  5
4D1C
  8
2-0
  6
CONTINUOUS
 62
     6
 10
25928.428816
 20
13649.087808
 30
0.0
 11
25834.498679999979
 21
13516.84903799998
 31
0.0
  0
LINE
  5
4D1D
  8
2-0
  6
CONTINUOUS
 62
     6
 10
25796.68195699999
 20
13554.46088099999
 30
0.0
 11
25834.498679999979
 21
13516.84903799998
 31
0.0
  0
LINE
  5
4D1E
  8
2-0
  6
CONTINUOUS
 62
     6
 10
25834.498679999979
 20
13516.84903799998
 30
0.0
 11
25928.428816
 21
13649.087808
 31
0.0
  0
LINE
  5
4D1F
  8
2-0
  6
CONTINUOUS
 62
     6
 10
25928.428816
 20
13649.087808
 30
0.0
 11
25796.68195699999
 21
13554.46088099999
 31
0.0
  0
LINE
  5
4D20
  8
2-0
  6
CONTINUOUS
 62
     6
 10
25796.68195699999
 20
13554.46088099999
 30
0.0
 11
25928.428816
 21
13649.087808
 31
0.0
  0
LINE
  5
4D21
  8
2-0
  6
CONTINUOUS
 62
     6
 10
25834.498679999979
 20
13516.84903799998
 30
0.0
 11
25928.428816
 21
13649.087808
 31
0.0
  0
LINE
  5
4D22
  8
2-0
  6
CONTINUOUS
 62
     6
 10
25834.498679999979
 20
13516.84903799998
 30
0.0
 11
25796.68195699999
 21
13554.46088099999
 31
0.0
  0
LINE
  5
4D23
  8
2-0
  6
CONTINUOUS
 62
     6
 10
25859.717745999991
 20
13881.365507999981
 30
0.0
 11
25992.31777799999
 21
13787.937179999981
 31
0.0
  0
LINE
  5
4D24
  8
2-0
  6
CONTINUOUS
 62
     6
 10
25992.31777799999
 20
13787.937179999981
 30
0.0
 11
25836.58509199999
 21
13833.312694
 31
0.0
  0
LINE
  5
4D25
  8
2-0
  6
CONTINUOUS
 62
     6
 10
25859.717745999991
 20
13881.365507999981
 30
0.0
 11
25836.58509199999
 21
13833.312694
 31
0.0
  0
LINE
  5
4D26
  8
2-0
  6
CONTINUOUS
 62
     6
 10
25836.58509199999
 20
13833.312694
 30
0.0
 11
25992.31777799999
 21
13787.937179999981
 31
0.0
  0
LINE
  5
4D27
  8
2-0
  6
CONTINUOUS
 62
     6
 10
25992.31777799999
 20
13787.937179999981
 30
0.0
 11
25859.717745999991
 21
13881.365507999981
 31
0.0
  0
LINE
  5
4D28
  8
2-0
  6
CONTINUOUS
 62
     6
 10
25859.717745999991
 20
13881.365507999981
 30
0.0
 11
25992.31777799999
 21
13787.937179999981
 31
0.0
  0
LINE
  5
4D29
  8
2-0
  6
CONTINUOUS
 62
     6
 10
25836.58509199999
 20
13833.312694
 30
0.0
 11
25992.31777799999
 21
13787.937179999981
 31
0.0
  0
LINE
  5
4D2A
  8
2-0
  6
CONTINUOUS
 62
     6
 10
25836.58509199999
 20
13833.312694
 30
0.0
 11
25859.717745999991
 21
13881.365507999981
 31
0.0
  0
LINE
  5
4D2B
  8
2-0
  6
CONTINUOUS
 62
     6
 10
25919.481391999991
 20
16611.686441000009
 30
0.0
 11
26073.319677999989
 21
16663.120272000011
 31
0.0
  0
LINE
  5
4D2C
  8
2-0
  6
CONTINUOUS
 62
     6
 10
26073.319677999989
 20
16663.120272000011
 30
0.0
 11
25944.48469099998
 21
16564.579837000008
 31
0.0
  0
LINE
  5
4D2D
  8
2-0
  6
CONTINUOUS
 62
     6
 10
25919.481391999991
 20
16611.686441000009
 30
0.0
 11
25944.48469099998
 21
16564.579837000008
 31
0.0
  0
LINE
  5
4D2E
  8
2-0
  6
CONTINUOUS
 62
     6
 10
25944.48469099998
 20
16564.579837000008
 30
0.0
 11
26073.319677999989
 21
16663.120272000011
 31
0.0
  0
LINE
  5
4D2F
  8
2-0
  6
CONTINUOUS
 62
     6
 10
26073.319677999989
 20
16663.120272000011
 30
0.0
 11
25919.481391999991
 21
16611.686441000009
 31
0.0
  0
LINE
  5
4D30
  8
2-0
  6
CONTINUOUS
 62
     6
 10
25919.481391999991
 20
16611.686441000009
 30
0.0
 11
26073.319677999989
 21
16663.120272000011
 31
0.0
  0
LINE
  5
4D31
  8
2-0
  6
CONTINUOUS
 62
     6
 10
25944.48469099998
 20
16564.579837000008
 30
0.0
 11
26073.319677999989
 21
16663.120272000011
 31
0.0
  0
LINE
  5
4D32
  8
2-0
  6
CONTINUOUS
 62
     6
 10
25944.48469099998
 20
16564.579837000008
 30
0.0
 11
25919.481391999991
 21
16611.686441000009
 31
0.0
  0
LINE
  5
4D33
  8
2-0
  6
CONTINUOUS
 62
     6
 10
25785.545184999992
 20
17103.004933000011
 30
0.0
 11
25928.428816
 21
17026.229304000011
 31
0.0
  0
LINE
  5
4D34
  8
2-0
  6
CONTINUOUS
 62
     6
 10
25928.428816
 20
17026.229304000011
 30
0.0
 11
25768.36692299999
 21
17052.511373000019
 31
0.0
  0
LINE
  5
4D35
  8
2-0
  6
CONTINUOUS
 62
     6
 10
25785.545184999992
 20
17103.004933000011
 30
0.0
 11
25768.36692299999
 21
17052.511373000019
 31
0.0
  0
LINE
  5
4D36
  8
2-0
  6
CONTINUOUS
 62
     6
 10
25768.36692299999
 20
17052.511373000019
 30
0.0
 11
25928.428816
 21
17026.229304000011
 31
0.0
  0
LINE
  5
4D37
  8
2-0
  6
CONTINUOUS
 62
     6
 10
25928.428816
 20
17026.229304000011
 30
0.0
 11
25785.545184999992
 21
17103.004933000011
 31
0.0
  0
LINE
  5
4D38
  8
2-0
  6
CONTINUOUS
 62
     6
 10
25785.545184999992
 20
17103.004933000011
 30
0.0
 11
25928.428816
 21
17026.229304000011
 31
0.0
  0
LINE
  5
4D39
  8
2-0
  6
CONTINUOUS
 62
     6
 10
25768.36692299999
 20
17052.511373000019
 30
0.0
 11
25928.428816
 21
17026.229304000011
 31
0.0
  0
LINE
  5
4D3A
  8
2-0
  6
CONTINUOUS
 62
     6
 10
25768.36692299999
 20
17052.511373000019
 30
0.0
 11
25785.545184999992
 21
17103.004933000011
 31
0.0
  0
LINE
  5
4D3B
  8
2-0
  6
CONTINUOUS
 62
     6
 10
25826.99630399996
 20
18343.485307999988
 30
0.0
 11
25982.315270999999
 21
18390.22965999999
 31
0.0
  0
LINE
  5
4D3C
  8
2-0
  6
CONTINUOUS
 62
     6
 10
25982.315270999999
 20
18390.22965999999
 30
0.0
 11
25850.554554999992
 21
18295.634406000008
 31
0.0
  0
LINE
  5
4D3D
  8
2-0
  6
CONTINUOUS
 62
     6
 10
25826.99630399996
 20
18343.485307999988
 30
0.0
 11
25850.554554999992
 21
18295.634406000008
 31
0.0
  0
LINE
  5
4D3E
  8
2-0
  6
CONTINUOUS
 62
     6
 10
25850.554554999992
 20
18295.634406000008
 30
0.0
 11
25982.315270999999
 21
18390.22965999999
 31
0.0
  0
LINE
  5
4D3F
  8
2-0
  6
CONTINUOUS
 62
     6
 10
25982.315270999999
 20
18390.22965999999
 30
0.0
 11
25826.99630399996
 21
18343.485307999988
 31
0.0
  0
LINE
  5
4D40
  8
2-0
  6
CONTINUOUS
 62
     6
 10
25826.99630399996
 20
18343.485307999988
 30
0.0
 11
25982.315270999999
 21
18390.22965999999
 31
0.0
  0
LINE
  5
4D41
  8
2-0
  6
CONTINUOUS
 62
     6
 10
25850.554554999992
 20
18295.634406000008
 30
0.0
 11
25982.315270999999
 21
18390.22965999999
 31
0.0
  0
LINE
  5
4D42
  8
2-0
  6
CONTINUOUS
 62
     6
 10
25850.554554999992
 20
18295.634406000008
 30
0.0
 11
25826.99630399996
 21
18343.485307999988
 31
0.0
  0
LINE
  5
4D43
  8
2-0
  6
CONTINUOUS
 62
     3
 10
22022.821974999992
 20
19934.229199000009
 30
0.0
 11
21985.820812999998
 21
19934.229199000009
 31
0.0
  0
LINE
  5
4D44
  8
2-0
  6
CONTINUOUS
 62
     3
 10
22022.821974999992
 20
19904.22563600001
 30
0.0
 11
22022.821974999992
 21
19934.229199000009
 31
0.0
  0
LINE
  5
4D45
  8
2-0
  6
CONTINUOUS
 62
     3
 10
22016.82205399996
 20
19904.22563600001
 30
0.0
 11
22022.821974999992
 21
19904.22563600001
 31
0.0
  0
LINE
  5
4D46
  8
2-0
  6
CONTINUOUS
 62
     3
 10
22032.919498999981
 20
19904.22563600001
 30
0.0
 11
22032.919498999981
 21
19934.229199000009
 31
0.0
  0
LINE
  5
4D47
  8
2-0
  6
CONTINUOUS
 62
     3
 10
22014.915777999991
 20
19904.22563600001
 30
0.0
 11
22032.919498999981
 21
19904.22563600001
 31
0.0
  0
LINE
  5
4D48
  8
2-0
  6
CONTINUOUS
 62
     3
 10
22014.915777999991
 20
19929.234873000001
 30
0.0
 11
22014.915777999991
 21
19904.22563600001
 31
0.0
  0
LINE
  5
4D49
  8
2-0
  6
CONTINUOUS
 62
     3
 10
22019.916041999979
 20
19929.234873000001
 30
0.0
 11
22014.915777999991
 21
19929.234873000001
 31
0.0
  0
LINE
  5
4D4A
  8
2-0
  6
CONTINUOUS
 62
     3
 10
22019.916041999979
 20
19922.229357000011
 30
0.0
 11
22019.916041999979
 21
19929.234873000001
 31
0.0
  0
LINE
  5
4D4B
  8
2-0
  6
CONTINUOUS
 62
     3
 10
21988.726746999972
 20
19922.229357000011
 30
0.0
 11
21988.726746999972
 21
19929.234873000001
 31
0.0
  0
LINE
  5
4D4C
  8
2-0
  6
CONTINUOUS
 62
     3
 10
21988.726746999972
 20
19929.234873000001
 30
0.0
 11
21993.727010999992
 21
19929.234873000001
 31
0.0
  0
LINE
  5
4D4D
  8
2-0
  6
CONTINUOUS
 62
     3
 10
21993.727010999992
 20
19929.234873000001
 30
0.0
 11
21993.727010999992
 21
19904.22563600001
 31
0.0
  0
LINE
  5
4D4E
  8
2-0
  6
CONTINUOUS
 62
     3
 10
21993.727010999992
 20
19904.22563600001
 30
0.0
 11
21975.727247999981
 21
19904.22563600001
 31
0.0
  0
LINE
  5
4D4F
  8
2-0
  6
CONTINUOUS
 62
     3
 10
21975.727247999981
 20
19904.22563600001
 30
0.0
 11
21975.727247999981
 21
19934.229199000009
 31
0.0
  0
LINE
  5
4D50
  8
2-0
  6
CONTINUOUS
 62
     3
 10
21991.820733999979
 20
19904.22563600001
 30
0.0
 11
21985.820812999998
 21
19904.22563600001
 31
0.0
  0
LINE
  5
4D51
  8
2-0
  6
CONTINUOUS
 62
     3
 10
21985.820812999998
 20
19904.22563600001
 30
0.0
 11
21985.820812999998
 21
19934.229199000009
 31
0.0
  0
LINE
  5
4D52
  8
2-0
  6
CONTINUOUS
 62
     3
 10
19481.322713999991
 20
19825.228987999999
 30
0.0
 11
19481.322713999991
 21
19819.23302600002
 31
0.0
  0
LINE
  5
4D53
  8
2-0
  6
CONTINUOUS
 62
     3
 10
19481.322713999991
 20
19819.23302600002
 30
0.0
 11
19451.325088999991
 21
19819.23302600002
 31
0.0
  0
LINE
  5
4D54
  8
2-0
  6
CONTINUOUS
 62
     3
 10
19451.325088999991
 20
19819.23302600002
 30
0.0
 11
19451.325088999991
 21
19934.229199000009
 31
0.0
  0
LINE
  5
4D55
  8
2-0
  6
CONTINUOUS
 62
     3
 10
19451.325088999991
 20
19849.23263000001
 30
0.0
 11
19532.323029999981
 21
19849.23263000001
 31
0.0
  0
LINE
  5
4D56
  8
2-0
  6
CONTINUOUS
 62
     3
 10
19481.322713999991
 20
19808.935570000001
 30
0.0
 11
19451.325088999991
 21
19808.935570000001
 31
0.0
  0
LINE
  5
4D57
  8
2-0
  6
CONTINUOUS
 62
     3
 10
19481.322713999991
 20
19826.93731200002
 30
0.0
 11
19481.322713999991
 21
19808.935570000001
 31
0.0
  0
LINE
  5
4D58
  8
2-0
  6
CONTINUOUS
 62
     3
 10
19456.329311999991
 20
19826.93731200002
 30
0.0
 11
19481.322713999991
 21
19826.93731200002
 31
0.0
  0
LINE
  5
4D59
  8
2-0
  6
CONTINUOUS
 62
     3
 10
19456.329311999991
 20
19821.929130000019
 30
0.0
 11
19456.329311999991
 21
19826.93731200002
 31
0.0
  0
LINE
  5
4D5A
  8
2-0
  6
CONTINUOUS
 62
     3
 10
19463.32690999996
 20
19821.929130000019
 30
0.0
 11
19456.329311999991
 21
19821.929130000019
 31
0.0
  0
LINE
  5
4D5B
  8
2-0
  6
CONTINUOUS
 62
     3
 10
19563.621198999961
 20
19922.229357000011
 30
0.0
 11
19563.621198999961
 21
19929.234873000001
 31
0.0
  0
LINE
  5
4D5C
  8
2-0
  6
CONTINUOUS
 62
     3
 10
19563.621198999961
 20
19929.234873000001
 30
0.0
 11
19558.618954999991
 21
19929.234873000001
 31
0.0
  0
LINE
  5
4D5D
  8
2-0
  6
CONTINUOUS
 62
     3
 10
19558.618954999991
 20
19929.234873000001
 30
0.0
 11
19558.618954999991
 21
19904.22563600001
 31
0.0
  0
LINE
  5
4D5E
  8
2-0
  6
CONTINUOUS
 62
     3
 10
19558.618954999991
 20
19904.22563600001
 30
0.0
 11
19576.62663599999
 21
19904.22563600001
 31
0.0
  0
LINE
  5
4D5F
  8
2-0
  6
CONTINUOUS
 62
     3
 10
19576.62663599999
 20
19904.22563600001
 30
0.0
 11
19576.62663599999
 21
19934.229199000009
 31
0.0
  0
LINE
  5
4D60
  8
2-0
  6
CONTINUOUS
 62
     3
 10
19566.327199999982
 20
19934.229199000009
 30
0.0
 11
19451.325088999991
 21
19934.229199000009
 31
0.0
  0
LINE
  5
4D61
  8
2-0
  6
CONTINUOUS
 62
     3
 10
19566.327199999982
 20
19904.22563600001
 30
0.0
 11
19566.327199999982
 21
19934.229199000009
 31
0.0
  0
LINE
  5
4D62
  8
2-0
  6
CONTINUOUS
 62
     3
 10
19560.323320999989
 20
19904.22563600001
 30
0.0
 11
19566.327199999982
 21
19904.22563600001
 31
0.0
  0
LINE
  5
4D63
  8
2-0
  6
CONTINUOUS
 62
     3
 10
20617.911092499999
 20
19922.229357000011
 30
0.0
 11
20617.911092499999
 21
19929.234873000001
 31
0.0
  0
LINE
  5
4D64
  8
2-0
  6
CONTINUOUS
 62
     3
 10
20617.911092499999
 20
19929.234873000001
 30
0.0
 11
20612.910828499989
 21
19929.234873000001
 31
0.0
  0
LINE
  5
4D65
  8
2-0
  6
CONTINUOUS
 62
     3
 10
20612.910828499989
 20
19929.234873000001
 30
0.0
 11
20612.910828499989
 21
19904.22563600001
 31
0.0
  0
LINE
  5
4D66
  8
2-0
  6
CONTINUOUS
 62
     3
 10
20612.910828499989
 20
19904.22563600001
 30
0.0
 11
20630.916529499991
 21
19904.22563600001
 31
0.0
  0
LINE
  5
4D67
  8
2-0
  6
CONTINUOUS
 62
     3
 10
20630.916529499991
 20
19904.22563600001
 30
0.0
 11
20630.916529499991
 21
19934.229199000009
 31
0.0
  0
LINE
  5
4D68
  8
2-0
  6
CONTINUOUS
 62
     3
 10
20614.819084499992
 20
19904.22563600001
 30
0.0
 11
20620.820984499991
 21
19904.22563600001
 31
0.0
  0
LINE
  5
4D69
  8
2-0
  6
CONTINUOUS
 62
     3
 10
20620.820984499991
 20
19904.22563600001
 30
0.0
 11
20620.820984499991
 21
19934.229199000009
 31
0.0
  0
LINE
  5
4D6A
  8
2-0
  6
CONTINUOUS
 62
     3
 10
20583.82180349997
 20
19934.229199000009
 30
0.0
 11
20620.820984499991
 21
19934.229199000009
 31
0.0
  0
LINE
  5
4D6B
  8
2-0
  6
CONTINUOUS
 62
     3
 10
20583.82180349997
 20
19904.22563600001
 30
0.0
 11
20583.82180349997
 21
19934.229199000009
 31
0.0
  0
LINE
  5
4D6C
  8
2-0
  6
CONTINUOUS
 62
     3
 10
20589.815785499992
 20
19904.22563600001
 30
0.0
 11
20583.82180349997
 21
19904.22563600001
 31
0.0
  0
LINE
  5
4D6D
  8
2-0
  6
CONTINUOUS
 62
     3
 10
20573.726258499992
 20
19904.22563600001
 30
0.0
 11
20573.726258499992
 21
19934.229199000009
 31
0.0
  0
LINE
  5
4D6E
  8
2-0
  6
CONTINUOUS
 62
     3
 10
20591.72206149999
 20
19904.22563600001
 30
0.0
 11
20573.726258499992
 21
19904.22563600001
 31
0.0
  0
LINE
  5
4D6F
  8
2-0
  6
CONTINUOUS
 62
     3
 10
20591.72206149999
 20
19929.234873000001
 30
0.0
 11
20591.72206149999
 21
19904.22563600001
 31
0.0
  0
LINE
  5
4D70
  8
2-0
  6
CONTINUOUS
 62
     3
 10
20586.721797499991
 20
19929.234873000001
 30
0.0
 11
20591.72206149999
 21
19929.234873000001
 31
0.0
  0
LINE
  5
4D71
  8
2-0
  6
CONTINUOUS
 62
     3
 10
20586.721797499991
 20
19922.229357000011
 30
0.0
 11
20586.721797499991
 21
19929.234873000001
 31
0.0
  0
LINE
  5
4D72
  8
2-0
  6
CONTINUOUS
 62
     3
 10
21287.720808499991
 20
19922.229357000011
 30
0.0
 11
21287.720808499991
 21
19929.234873000001
 31
0.0
  0
LINE
  5
4D73
  8
2-0
  6
CONTINUOUS
 62
     3
 10
21287.720808499991
 20
19929.234873000001
 30
0.0
 11
21292.721071499978
 21
19929.234873000001
 31
0.0
  0
LINE
  5
4D74
  8
2-0
  6
CONTINUOUS
 62
     3
 10
21292.721071499978
 20
19929.234873000001
 30
0.0
 11
21292.721071499978
 21
19904.22563600001
 31
0.0
  0
LINE
  5
4D75
  8
2-0
  6
CONTINUOUS
 62
     3
 10
21292.721071499978
 20
19904.22563600001
 30
0.0
 11
21274.727248499981
 21
19904.22563600001
 31
0.0
  0
LINE
  5
4D76
  8
2-0
  6
CONTINUOUS
 62
     3
 10
21274.727248499981
 20
19904.22563600001
 30
0.0
 11
21274.727248499981
 21
19934.229199000009
 31
0.0
  0
LINE
  5
4D77
  8
2-0
  6
CONTINUOUS
 62
     3
 10
21290.818754499971
 20
19904.22563600001
 30
0.0
 11
21284.820813499991
 21
19904.22563600001
 31
0.0
  0
LINE
  5
4D78
  8
2-0
  6
CONTINUOUS
 62
     3
 10
21284.820813499991
 20
19904.22563600001
 30
0.0
 11
21284.820813499991
 21
19934.229199000009
 31
0.0
  0
LINE
  5
4D79
  8
2-0
  6
CONTINUOUS
 62
     3
 10
21321.821974499991
 20
19934.229199000009
 30
0.0
 11
21284.820813499991
 21
19934.229199000009
 31
0.0
  0
LINE
  5
4D7A
  8
2-0
  6
CONTINUOUS
 62
     3
 10
21321.821974499991
 20
19904.22563600001
 30
0.0
 11
21321.821974499991
 21
19934.229199000009
 31
0.0
  0
LINE
  5
4D7B
  8
2-0
  6
CONTINUOUS
 62
     3
 10
21315.816115500002
 20
19904.22563600001
 30
0.0
 11
21321.821974499991
 21
19904.22563600001
 31
0.0
  0
LINE
  5
4D7C
  8
2-0
  6
CONTINUOUS
 62
     3
 10
21331.915539500002
 20
19904.22563600001
 30
0.0
 11
21331.915539500002
 21
19934.229199000009
 31
0.0
  0
LINE
  5
4D7D
  8
2-0
  6
CONTINUOUS
 62
     3
 10
21313.919736499989
 20
19904.22563600001
 30
0.0
 11
21331.915539500002
 21
19904.22563600001
 31
0.0
  0
LINE
  5
4D7E
  8
2-0
  6
CONTINUOUS
 62
     3
 10
21313.919736499989
 20
19929.234873000001
 30
0.0
 11
21313.919736499989
 21
19904.22563600001
 31
0.0
  0
LINE
  5
4D7F
  8
2-0
  6
CONTINUOUS
 62
     3
 10
21318.910102499991
 20
19929.234873000001
 30
0.0
 11
21313.919736499989
 21
19929.234873000001
 31
0.0
  0
LINE
  5
4D80
  8
2-0
  6
CONTINUOUS
 62
     3
 10
21318.910102499991
 20
19922.229357000011
 30
0.0
 11
21318.910102499991
 21
19929.234873000001
 31
0.0
  0
LINE
  5
4D81
  8
2-0
  6
CONTINUOUS
 62
     3
 10
20630.916529499991
 20
19934.229199000009
 30
0.0
 11
21274.727248499981
 21
19934.229199000009
 31
0.0
  0
LINE
  5
4D82
  8
2-0
  6
CONTINUOUS
 62
     3
 10
19930.120419999988
 20
19934.229199000009
 30
0.0
 11
20573.726258499992
 21
19934.229199000009
 31
0.0
  0
LINE
  5
4D83
  8
2-0
  6
CONTINUOUS
 62
     3
 10
21975.727247999981
 20
19934.229199000009
 30
0.0
 11
21331.915539500002
 21
19934.229199000009
 31
0.0
  0
LINE
  5
4D84
  8
2-0
  6
CONTINUOUS
 62
     3
 10
19481.322713999991
 20
19825.228987999999
 30
0.0
 11
19481.322713999991
 21
19819.23302600002
 31
0.0
  0
LINE
  5
4D85
  8
2-0
  6
CONTINUOUS
 62
     3
 10
19481.322713999991
 20
19819.23302600002
 30
0.0
 11
19451.325088999991
 21
19819.23302600002
 31
0.0
  0
LINE
  5
4D86
  8
2-0
  6
CONTINUOUS
 62
     3
 10
19451.325088999991
 20
19819.23302600002
 30
0.0
 11
19451.325088999991
 21
19934.229199000009
 31
0.0
  0
LINE
  5
4D87
  8
2-0
  6
CONTINUOUS
 62
     3
 10
19451.325088999991
 20
19849.23263000001
 30
0.0
 11
19532.323029999981
 21
19849.23263000001
 31
0.0
  0
LINE
  5
4D88
  8
2-0
  6
CONTINUOUS
 62
     3
 10
19481.322713999991
 20
19808.935570000001
 30
0.0
 11
19451.325088999991
 21
19808.935570000001
 31
0.0
  0
LINE
  5
4D89
  8
2-0
  6
CONTINUOUS
 62
     3
 10
19481.322713999991
 20
19826.93731200002
 30
0.0
 11
19481.322713999991
 21
19808.935570000001
 31
0.0
  0
LINE
  5
4D8A
  8
2-0
  6
CONTINUOUS
 62
     3
 10
19456.329311999991
 20
19826.93731200002
 30
0.0
 11
19481.322713999991
 21
19826.93731200002
 31
0.0
  0
LINE
  5
4D8B
  8
2-0
  6
CONTINUOUS
 62
     3
 10
19456.329311999991
 20
19821.929130000019
 30
0.0
 11
19456.329311999991
 21
19826.93731200002
 31
0.0
  0
LINE
  5
4D8C
  8
2-0
  6
CONTINUOUS
 62
     3
 10
19463.32690999996
 20
19821.929130000019
 30
0.0
 11
19456.329311999991
 21
19821.929130000019
 31
0.0
  0
LINE
  5
4D8D
  8
2-0
  6
CONTINUOUS
 62
     3
 10
19463.32690999996
 20
19118.132307499989
 30
0.0
 11
19456.329311999991
 21
19118.132307499989
 31
0.0
  0
LINE
  5
4D8E
  8
2-0
  6
CONTINUOUS
 62
     3
 10
19456.329311999991
 20
19118.132307499989
 30
0.0
 11
19456.329311999991
 21
19123.132571499991
 31
0.0
  0
LINE
  5
4D8F
  8
2-0
  6
CONTINUOUS
 62
     3
 10
19456.329311999991
 20
19123.132571499991
 30
0.0
 11
19481.322713999991
 21
19123.132571499991
 31
0.0
  0
LINE
  5
4D90
  8
2-0
  6
CONTINUOUS
 62
     3
 10
19481.322713999991
 20
19123.132571499991
 30
0.0
 11
19481.322713999991
 21
19105.136767499989
 31
0.0
  0
LINE
  5
4D91
  8
2-0
  6
CONTINUOUS
 62
     3
 10
19481.322713999991
 20
19105.136767499989
 30
0.0
 11
19451.325088999991
 21
19105.136767499989
 31
0.0
  0
LINE
  5
4D92
  8
2-0
  6
CONTINUOUS
 62
     3
 10
19481.322713999991
 20
19121.22827449995
 30
0.0
 11
19481.322713999991
 21
19115.230333499989
 31
0.0
  0
LINE
  5
4D93
  8
2-0
  6
CONTINUOUS
 62
     3
 10
19481.322713999991
 20
19115.230333499989
 30
0.0
 11
19451.325088999991
 21
19115.230333499989
 31
0.0
  0
LINE
  5
4D94
  8
2-0
  6
CONTINUOUS
 62
     3
 10
19451.325088999991
 20
19115.230333499989
 30
0.0
 11
19451.325088999991
 21
19152.2314945
 31
0.0
  0
LINE
  5
4D95
  8
2-0
  6
CONTINUOUS
 62
     3
 10
19481.322713999991
 20
19152.2314945
 30
0.0
 11
19451.325088999991
 21
19152.2314945
 31
0.0
  0
LINE
  5
4D96
  8
2-0
  6
CONTINUOUS
 62
     3
 10
19481.322713999991
 20
19146.227614499981
 30
0.0
 11
19481.322713999991
 21
19152.2314945
 31
0.0
  0
LINE
  5
4D97
  8
2-0
  6
CONTINUOUS
 62
     3
 10
19481.322713999991
 20
19162.327039499982
 30
0.0
 11
19451.325088999991
 21
19162.327039499982
 31
0.0
  0
LINE
  5
4D98
  8
2-0
  6
CONTINUOUS
 62
     3
 10
19481.322713999991
 20
19144.3252975
 30
0.0
 11
19481.322713999991
 21
19162.327039499982
 31
0.0
  0
LINE
  5
4D99
  8
2-0
  6
CONTINUOUS
 62
     3
 10
19456.329311999991
 20
19144.3252975
 30
0.0
 11
19481.322713999991
 21
19144.3252975
 31
0.0
  0
LINE
  5
4D9A
  8
2-0
  6
CONTINUOUS
 62
     3
 10
19456.329311999991
 20
19149.325561500002
 30
0.0
 11
19456.329311999991
 21
19144.3252975
 31
0.0
  0
LINE
  5
4D9B
  8
2-0
  6
CONTINUOUS
 62
     3
 10
19463.32690999996
 20
19149.325561500002
 30
0.0
 11
19456.329311999991
 21
19149.325561500002
 31
0.0
  0
LINE
  5
4D9C
  8
2-0
  6
CONTINUOUS
 62
     3
 10
19463.32690999996
 20
18417.131317999989
 30
0.0
 11
19456.329311999991
 21
18417.131317999989
 31
0.0
  0
LINE
  5
4D9D
  8
2-0
  6
CONTINUOUS
 62
     3
 10
19456.329311999991
 20
18417.131317999989
 30
0.0
 11
19456.329311999991
 21
18422.13752
 31
0.0
  0
LINE
  5
4D9E
  8
2-0
  6
CONTINUOUS
 62
     3
 10
19456.329311999991
 20
18422.13752
 30
0.0
 11
19481.322713999991
 21
18422.13752
 31
0.0
  0
LINE
  5
4D9F
  8
2-0
  6
CONTINUOUS
 62
     3
 10
19481.322713999991
 20
18422.13752
 30
0.0
 11
19481.322713999991
 21
18404.135778
 31
0.0
  0
LINE
  5
4DA0
  8
2-0
  6
CONTINUOUS
 62
     3
 10
19481.322713999991
 20
18404.135778
 30
0.0
 11
19451.325088999991
 21
18404.135778
 31
0.0
  0
LINE
  5
4DA1
  8
2-0
  6
CONTINUOUS
 62
     3
 10
19481.322713999991
 20
18420.22728499999
 30
0.0
 11
19481.322713999991
 21
18414.231322999989
 31
0.0
  0
LINE
  5
4DA2
  8
2-0
  6
CONTINUOUS
 62
     3
 10
19481.322713999991
 20
18414.231322999989
 30
0.0
 11
19451.325088999991
 21
18414.231322999989
 31
0.0
  0
LINE
  5
4DA3
  8
2-0
  6
CONTINUOUS
 62
     3
 10
19451.325088999991
 20
18414.231322999989
 30
0.0
 11
19451.325088999991
 21
18451.230504999989
 31
0.0
  0
LINE
  5
4DA4
  8
2-0
  6
CONTINUOUS
 62
     3
 10
19481.322713999991
 20
18451.230504999989
 30
0.0
 11
19451.325088999991
 21
18451.230504999989
 31
0.0
  0
LINE
  5
4DA5
  8
2-0
  6
CONTINUOUS
 62
     3
 10
19481.322713999991
 20
18445.23454300001
 30
0.0
 11
19481.322713999991
 21
18451.230504999989
 31
0.0
  0
LINE
  5
4DA6
  8
2-0
  6
CONTINUOUS
 62
     3
 10
19481.322713999991
 20
18461.32605
 30
0.0
 11
19451.325088999991
 21
18461.32605
 31
0.0
  0
LINE
  5
4DA7
  8
2-0
  6
CONTINUOUS
 62
     3
 10
19481.322713999991
 20
18443.324307999988
 30
0.0
 11
19481.322713999991
 21
18461.32605
 31
0.0
  0
LINE
  5
4DA8
  8
2-0
  6
CONTINUOUS
 62
     3
 10
19456.329311999991
 20
18443.324307999988
 30
0.0
 11
19481.322713999991
 21
18443.324307999988
 31
0.0
  0
LINE
  5
4DA9
  8
2-0
  6
CONTINUOUS
 62
     3
 10
19456.329311999991
 20
18448.330509999989
 30
0.0
 11
19456.329311999991
 21
18443.324307999988
 31
0.0
  0
LINE
  5
4DAA
  8
2-0
  6
CONTINUOUS
 62
     3
 10
19463.32690999996
 20
18448.330509999989
 30
0.0
 11
19456.329311999991
 21
18448.330509999989
 31
0.0
  0
LINE
  5
4DAB
  8
2-0
  6
CONTINUOUS
 62
     3
 10
19463.32690999996
 20
17747.324572000001
 30
0.0
 11
19456.329311999991
 21
17747.324572000001
 31
0.0
  0
LINE
  5
4DAC
  8
2-0
  6
CONTINUOUS
 62
     3
 10
19456.329311999991
 20
17747.324572000001
 30
0.0
 11
19456.329311999991
 21
17742.336185
 31
0.0
  0
LINE
  5
4DAD
  8
2-0
  6
CONTINUOUS
 62
     3
 10
19456.329311999991
 20
17742.336185
 30
0.0
 11
19481.322713999991
 21
17742.336185
 31
0.0
  0
LINE
  5
4DAE
  8
2-0
  6
CONTINUOUS
 62
     3
 10
19481.322713999991
 20
17742.336185
 30
0.0
 11
19481.322713999991
 21
17760.331988000002
 31
0.0
  0
LINE
  5
4DAF
  8
2-0
  6
CONTINUOUS
 62
     3
 10
19481.322713999991
 20
17760.331988000002
 30
0.0
 11
19451.325088999991
 21
17760.331988000002
 31
0.0
  0
LINE
  5
4DB0
  8
2-0
  6
CONTINUOUS
 62
     3
 10
19481.322713999991
 20
17744.234542999991
 30
0.0
 11
19481.322713999991
 21
17750.230504999981
 31
0.0
  0
LINE
  5
4DB1
  8
2-0
  6
CONTINUOUS
 62
     3
 10
19481.322713999991
 20
17750.230504999981
 30
0.0
 11
19451.325088999991
 21
17750.230504999981
 31
0.0
  0
LINE
  5
4DB2
  8
2-0
  6
CONTINUOUS
 62
     3
 10
19451.325088999991
 20
17750.230504999981
 30
0.0
 11
19451.325088999991
 21
17713.231323
 31
0.0
  0
LINE
  5
4DB3
  8
2-0
  6
CONTINUOUS
 62
     3
 10
19481.322713999991
 20
17713.231323
 30
0.0
 11
19451.325088999991
 21
17713.231323
 31
0.0
  0
LINE
  5
4DB4
  8
2-0
  6
CONTINUOUS
 62
     3
 10
19481.322713999991
 20
17719.233223999989
 30
0.0
 11
19481.322713999991
 21
17713.231323
 31
0.0
  0
LINE
  5
4DB5
  8
2-0
  6
CONTINUOUS
 62
     3
 10
19481.322713999991
 20
17703.141716999991
 30
0.0
 11
19451.325088999991
 21
17703.141716999991
 31
0.0
  0
LINE
  5
4DB6
  8
2-0
  6
CONTINUOUS
 62
     3
 10
19481.322713999991
 20
17721.13752
 30
0.0
 11
19481.322713999991
 21
17703.141716999991
 31
0.0
  0
LINE
  5
4DB7
  8
2-0
  6
CONTINUOUS
 62
     3
 10
19456.329311999991
 20
17721.13752
 30
0.0
 11
19481.322713999991
 21
17721.13752
 31
0.0
  0
LINE
  5
4DB8
  8
2-0
  6
CONTINUOUS
 62
     3
 10
19456.329311999991
 20
17716.137256999991
 30
0.0
 11
19456.329311999991
 21
17721.13752
 31
0.0
  0
LINE
  5
4DB9
  8
2-0
  6
CONTINUOUS
 62
     3
 10
19463.32690999996
 20
17716.137256999991
 30
0.0
 11
19456.329311999991
 21
17716.137256999991
 31
0.0
  0
LINE
  5
4DBA
  8
2-0
  6
CONTINUOUS
 62
     3
 10
19454.211227
 20
16996.228143
 30
0.0
 11
19454.211227
 21
17016.229198000001
 31
0.0
  0
LINE
  5
4DBB
  8
2-0
  6
CONTINUOUS
 62
     3
 10
19454.211227
 20
17016.229198000001
 30
0.0
 11
19539.211754999978
 21
17016.229198000001
 31
0.0
  0
LINE
  5
4DBC
  8
2-0
  6
CONTINUOUS
 62
     3
 10
19463.32690999996
 20
17042.835908000001
 30
0.0
 11
19456.329311999991
 21
17042.835908000001
 31
0.0
  0
LINE
  5
4DBD
  8
2-0
  6
CONTINUOUS
 62
     3
 10
19456.329311999991
 20
17042.835908000001
 30
0.0
 11
19456.329311999991
 21
17037.841582000001
 31
0.0
  0
LINE
  5
4DBE
  8
2-0
  6
CONTINUOUS
 62
     3
 10
19456.329311999991
 20
17037.841582000001
 30
0.0
 11
19481.322713999991
 21
17037.841582000001
 31
0.0
  0
LINE
  5
4DBF
  8
2-0
  6
CONTINUOUS
 62
     3
 10
19481.322713999991
 20
17037.841582000001
 30
0.0
 11
19481.322713999991
 21
17055.83738600001
 31
0.0
  0
LINE
  5
4DC0
  8
2-0
  6
CONTINUOUS
 62
     3
 10
19481.322713999991
 20
17055.83738600001
 30
0.0
 11
19451.325088999991
 21
17055.83738600001
 31
0.0
  0
LINE
  5
4DC1
  8
2-0
  6
CONTINUOUS
 62
     3
 10
19481.322713999991
 20
17046.228802000001
 30
0.0
 11
19481.322713999991
 21
17040.226901999991
 31
0.0
  0
LINE
  5
4DC2
  8
2-0
  6
CONTINUOUS
 62
     3
 10
19451.325088999991
 20
17046.228802000001
 30
0.0
 11
19481.322713999991
 21
17046.228802000001
 31
0.0
  0
LINE
  5
4DC3
  8
2-0
  6
CONTINUOUS
 62
     3
 10
19451.325088999991
 20
17055.83738600001
 30
0.0
 11
19451.325088999991
 21
17703.141716999991
 31
0.0
  0
LINE
  5
4DC4
  8
2-0
  6
CONTINUOUS
 62
     3
 10
19451.325088999991
 20
17760.331988000002
 30
0.0
 11
19451.325088999991
 21
18404.135778
 31
0.0
  0
LINE
  5
4DC5
  8
2-0
  6
CONTINUOUS
 62
     3
 10
19451.325088999991
 20
16901.22708700001
 30
0.0
 11
19481.322713999991
 21
16901.22708700001
 31
0.0
  0
LINE
  5
4DC6
  8
2-0
  6
CONTINUOUS
 62
     3
 10
19481.322713999991
 20
16901.22708700001
 30
0.0
 11
19481.322713999991
 21
16907.22898700001
 31
0.0
  0
LINE
  5
4DC7
  8
2-0
  6
CONTINUOUS
 62
     3
 10
19539.211754999978
 20
16931.232629999991
 30
0.0
 11
19454.211227
 21
16931.232629999991
 31
0.0
  0
LINE
  5
4DC8
  8
2-0
  6
CONTINUOUS
 62
     3
 10
19454.211227
 20
16931.232629999991
 30
0.0
 11
19454.211227
 21
16951.227747000012
 31
0.0
  0
LINE
  5
4DC9
  8
2-0
  6
CONTINUOUS
 62
     3
 10
19481.322713999991
 20
16891.618503999998
 30
0.0
 11
19451.325088999991
 21
16891.618503999998
 31
0.0
  0
LINE
  5
4DCA
  8
2-0
  6
CONTINUOUS
 62
     3
 10
19481.322713999991
 20
16909.614306999982
 30
0.0
 11
19481.322713999991
 21
16891.618503999998
 31
0.0
  0
LINE
  5
4DCB
  8
2-0
  6
CONTINUOUS
 62
     3
 10
19456.329311999991
 20
16909.614306999982
 30
0.0
 11
19481.322713999991
 21
16909.614306999982
 31
0.0
  0
LINE
  5
4DCC
  8
2-0
  6
CONTINUOUS
 62
     3
 10
19456.329311999991
 20
16904.614043000009
 30
0.0
 11
19456.329311999991
 21
16909.614306999982
 31
0.0
  0
LINE
  5
4DCD
  8
2-0
  6
CONTINUOUS
 62
     3
 10
19463.32690999996
 20
16904.614043000009
 30
0.0
 11
19456.329311999991
 21
16904.614043000009
 31
0.0
  0
LINE
  5
4DCE
  8
2-0
  6
CONTINUOUS
 62
     3
 10
19463.32690999996
 20
16200.131812499991
 30
0.0
 11
19456.329311999991
 21
16200.131812499991
 31
0.0
  0
LINE
  5
4DCF
  8
2-0
  6
CONTINUOUS
 62
     3
 10
19456.329311999991
 20
16200.131812499991
 30
0.0
 11
19456.329311999991
 21
16205.13207649998
 31
0.0
  0
LINE
  5
4DD0
  8
2-0
  6
CONTINUOUS
 62
     3
 10
19456.329311999991
 20
16205.13207649998
 30
0.0
 11
19481.322713999991
 21
16205.13207649998
 31
0.0
  0
LINE
  5
4DD1
  8
2-0
  6
CONTINUOUS
 62
     3
 10
19481.322713999991
 20
16205.13207649998
 30
0.0
 11
19481.322713999991
 21
16187.130334499991
 31
0.0
  0
LINE
  5
4DD2
  8
2-0
  6
CONTINUOUS
 62
     3
 10
19481.322713999991
 20
16187.130334499991
 30
0.0
 11
19451.325088999991
 21
16187.130334499991
 31
0.0
  0
LINE
  5
4DD3
  8
2-0
  6
CONTINUOUS
 62
     3
 10
19481.322713999991
 20
16203.227779500001
 30
0.0
 11
19481.322713999991
 21
16197.2308285
 31
0.0
  0
LINE
  5
4DD4
  8
2-0
  6
CONTINUOUS
 62
     3
 10
19481.322713999991
 20
16197.2308285
 30
0.0
 11
19451.325088999991
 21
16197.2308285
 31
0.0
  0
LINE
  5
4DD5
  8
2-0
  6
CONTINUOUS
 62
     3
 10
19451.325088999991
 20
16197.2308285
 30
0.0
 11
19451.325088999991
 21
16234.2309995
 31
0.0
  0
LINE
  5
4DD6
  8
2-0
  6
CONTINUOUS
 62
     3
 10
19481.322713999991
 20
16234.2309995
 30
0.0
 11
19451.325088999991
 21
16234.2309995
 31
0.0
  0
LINE
  5
4DD7
  8
2-0
  6
CONTINUOUS
 62
     3
 10
19481.322713999991
 20
16228.228109499991
 30
0.0
 11
19481.322713999991
 21
16234.2309995
 31
0.0
  0
LINE
  5
4DD8
  8
2-0
  6
CONTINUOUS
 62
     3
 10
19481.322713999991
 20
16244.3265445
 30
0.0
 11
19451.325088999991
 21
16244.3265445
 31
0.0
  0
LINE
  5
4DD9
  8
2-0
  6
CONTINUOUS
 62
     3
 10
19481.322713999991
 20
16226.318863500001
 30
0.0
 11
19481.322713999991
 21
16244.3265445
 31
0.0
  0
LINE
  5
4DDA
  8
2-0
  6
CONTINUOUS
 62
     3
 10
19456.329311999991
 20
16226.318863500001
 30
0.0
 11
19481.322713999991
 21
16226.318863500001
 31
0.0
  0
LINE
  5
4DDB
  8
2-0
  6
CONTINUOUS
 62
     3
 10
19456.329311999991
 20
16231.3250665
 30
0.0
 11
19456.329311999991
 21
16226.318863500001
 31
0.0
  0
LINE
  5
4DDC
  8
2-0
  6
CONTINUOUS
 62
     3
 10
19463.32690999996
 20
16231.3250665
 30
0.0
 11
19456.329311999991
 21
16231.3250665
 31
0.0
  0
LINE
  5
4DDD
  8
2-0
  6
CONTINUOUS
 62
     3
 10
19463.32690999996
 20
15530.565083
 30
0.0
 11
19456.329311999991
 21
15530.565083
 31
0.0
  0
LINE
  5
4DDE
  8
2-0
  6
CONTINUOUS
 62
     3
 10
19456.329311999991
 20
15530.565083
 30
0.0
 11
19456.329311999991
 21
15525.570758000011
 31
0.0
  0
LINE
  5
4DDF
  8
2-0
  6
CONTINUOUS
 62
     3
 10
19456.329311999991
 20
15525.570758000011
 30
0.0
 11
19481.322713999991
 21
15525.570758000011
 31
0.0
  0
LINE
  5
4DE0
  8
2-0
  6
CONTINUOUS
 62
     3
 10
19481.322713999991
 20
15525.570758000011
 30
0.0
 11
19481.322713999991
 21
15543.566561000011
 31
0.0
  0
LINE
  5
4DE1
  8
2-0
  6
CONTINUOUS
 62
     3
 10
19481.322713999991
 20
15543.566561000011
 30
0.0
 11
19451.325088999991
 21
15543.566561000011
 31
0.0
  0
LINE
  5
4DE2
  8
2-0
  6
CONTINUOUS
 62
     3
 10
19481.322713999991
 20
15527.469116
 30
0.0
 11
19481.322713999991
 21
15533.47101600001
 31
0.0
  0
LINE
  5
4DE3
  8
2-0
  6
CONTINUOUS
 62
     3
 10
19481.322713999991
 20
15533.47101600001
 30
0.0
 11
19451.325088999991
 21
15533.47101600001
 31
0.0
  0
LINE
  5
4DE4
  8
2-0
  6
CONTINUOUS
 62
     3
 10
19451.325088999991
 20
15496.471835
 30
0.0
 11
19451.325088999991
 21
15533.47101600001
 31
0.0
  0
LINE
  5
4DE5
  8
2-0
  6
CONTINUOUS
 62
     3
 10
19481.322713999991
 20
15496.471835
 30
0.0
 11
19451.325088999991
 21
15496.471835
 31
0.0
  0
LINE
  5
4DE6
  8
2-0
  6
CONTINUOUS
 62
     3
 10
19481.322713999991
 20
15502.468785999999
 30
0.0
 11
19481.322713999991
 21
15496.471835
 31
0.0
  0
LINE
  5
4DE7
  8
2-0
  6
CONTINUOUS
 62
     3
 10
19481.322713999991
 20
15486.370351
 30
0.0
 11
19451.325088999991
 21
15486.370351
 31
0.0
  0
LINE
  5
4DE8
  8
2-0
  6
CONTINUOUS
 62
     3
 10
19481.322713999991
 20
15504.378032000001
 30
0.0
 11
19481.322713999991
 21
15486.370351
 31
0.0
  0
LINE
  5
4DE9
  8
2-0
  6
CONTINUOUS
 62
     3
 10
19456.329311999991
 20
15504.378032000001
 30
0.0
 11
19481.322713999991
 21
15504.378032000001
 31
0.0
  0
LINE
  5
4DEA
  8
2-0
  6
CONTINUOUS
 62
     3
 10
19456.329311999991
 20
15499.377768000009
 30
0.0
 11
19456.329311999991
 21
15504.378032000001
 31
0.0
  0
LINE
  5
4DEB
  8
2-0
  6
CONTINUOUS
 62
     3
 10
19463.32690999996
 20
15499.377768000009
 30
0.0
 11
19456.329311999991
 21
15499.377768000009
 31
0.0
  0
LINE
  5
4DEC
  8
2-0
  6
CONTINUOUS
 62
     3
 10
19451.325088999991
 20
16891.618503999998
 30
0.0
 11
19451.325088999991
 21
16244.3265445
 31
0.0
  0
LINE
  5
4DED
  8
2-0
  6
CONTINUOUS
 62
     3
 10
19451.325088999991
 20
17046.228802000001
 30
0.0
 11
19451.325088999991
 21
16901.22708700001
 31
0.0
  0
LINE
  5
4DEE
  8
2-0
  6
CONTINUOUS
 62
     3
 10
19539.211754999978
 20
17016.229198000001
 30
0.0
 11
19539.211754999978
 21
16931.232629999991
 31
0.0
  0
LINE
  5
4DEF
  8
2-0
  6
CONTINUOUS
 62
     3
 10
19463.32690999996
 20
14798.136761
 30
0.0
 11
19456.329311999991
 21
14798.136761
 31
0.0
  0
LINE
  5
4DF0
  8
2-0
  6
CONTINUOUS
 62
     3
 10
19456.329311999991
 20
14798.136761
 30
0.0
 11
19456.329311999991
 21
14803.131087000011
 31
0.0
  0
LINE
  5
4DF1
  8
2-0
  6
CONTINUOUS
 62
     3
 10
19456.329311999991
 20
14803.131087000011
 30
0.0
 11
19481.322713999991
 21
14803.131087000011
 31
0.0
  0
LINE
  5
4DF2
  8
2-0
  6
CONTINUOUS
 62
     3
 10
19481.322713999991
 20
14803.131087000011
 30
0.0
 11
19481.322713999991
 21
14785.135283000011
 31
0.0
  0
LINE
  5
4DF3
  8
2-0
  6
CONTINUOUS
 62
     3
 10
19481.322713999991
 20
14785.135283000011
 30
0.0
 11
19451.325088999991
 21
14785.135283000011
 31
0.0
  0
LINE
  5
4DF4
  8
2-0
  6
CONTINUOUS
 62
     3
 10
19481.322713999991
 20
14801.23371800001
 30
0.0
 11
19481.322713999991
 21
14795.230828000011
 31
0.0
  0
LINE
  5
4DF5
  8
2-0
  6
CONTINUOUS
 62
     3
 10
19481.322713999991
 20
14795.230828000011
 30
0.0
 11
19451.325088999991
 21
14795.230828000011
 31
0.0
  0
LINE
  5
4DF6
  8
2-0
  6
CONTINUOUS
 62
     3
 10
19451.325088999991
 20
14795.230828000011
 30
0.0
 11
19451.325088999991
 21
14832.231
 31
0.0
  0
LINE
  5
4DF7
  8
2-0
  6
CONTINUOUS
 62
     3
 10
19481.322713999991
 20
14832.231
 30
0.0
 11
19451.325088999991
 21
14832.231
 31
0.0
  0
LINE
  5
4DF8
  8
2-0
  6
CONTINUOUS
 62
     3
 10
19481.322713999991
 20
14826.234047999989
 30
0.0
 11
19481.322713999991
 21
14832.231
 31
0.0
  0
LINE
  5
4DF9
  8
2-0
  6
CONTINUOUS
 62
     3
 10
19481.322713999991
 20
14842.331493000011
 30
0.0
 11
19451.325088999991
 21
14842.331493000011
 31
0.0
  0
LINE
  5
4DFA
  8
2-0
  6
CONTINUOUS
 62
     3
 10
19481.322713999991
 20
14824.32480200001
 30
0.0
 11
19481.322713999991
 21
14842.331493000011
 31
0.0
  0
LINE
  5
4DFB
  8
2-0
  6
CONTINUOUS
 62
     3
 10
19456.329311999991
 20
14824.32480200001
 30
0.0
 11
19481.322713999991
 21
14824.32480200001
 31
0.0
  0
LINE
  5
4DFC
  8
2-0
  6
CONTINUOUS
 62
     3
 10
19456.329311999991
 20
14829.33001500001
 30
0.0
 11
19456.329311999991
 21
14824.32480200001
 31
0.0
  0
LINE
  5
4DFD
  8
2-0
  6
CONTINUOUS
 62
     3
 10
19463.32690999996
 20
14829.33001500001
 30
0.0
 11
19456.329311999991
 21
14829.33001500001
 31
0.0
  0
LINE
  5
4DFE
  8
2-0
  6
CONTINUOUS
 62
     3
 10
19481.322713999991
 20
13771.73284099999
 30
0.0
 11
19481.322713999991
 21
13777.73770999999
 31
0.0
  0
LINE
  5
4DFF
  8
2-0
  6
CONTINUOUS
 62
     3
 10
19481.322713999991
 20
13777.73770999999
 30
0.0
 11
19451.325088999991
 21
13777.73770999999
 31
0.0
  0
LINE
  5
4E00
  8
2-0
  6
CONTINUOUS
 62
     3
 10
19451.325088999991
 20
13777.73770999999
 30
0.0
 11
19451.325088999991
 21
13662.733619000001
 31
0.0
  0
LINE
  5
4E01
  8
2-0
  6
CONTINUOUS
 62
     3
 10
19451.325088999991
 20
13662.733619000001
 30
0.0
 11
19536.323636999979
 21
13662.733619000001
 31
0.0
  0
LINE
  5
4E02
  8
2-0
  6
CONTINUOUS
 62
     3
 10
19536.323636999979
 20
13662.733619000001
 30
0.0
 11
19536.323636999979
 21
13747.729198000001
 31
0.0
  0
LINE
  5
4E03
  8
2-0
  6
CONTINUOUS
 62
     3
 10
19536.323636999979
 20
13747.729198000001
 30
0.0
 11
19504.326698999961
 21
13747.729198000001
 31
0.0
  0
LINE
  5
4E04
  8
2-0
  6
CONTINUOUS
 62
     3
 10
19463.32690999996
 20
13774.767443000001
 30
0.0
 11
19456.329311999991
 21
13774.767443000001
 31
0.0
  0
LINE
  5
4E05
  8
2-0
  6
CONTINUOUS
 62
     3
 10
19456.329311999991
 20
13774.767443000001
 30
0.0
 11
19456.329311999991
 21
13769.77014799998
 31
0.0
  0
LINE
  5
4E06
  8
2-0
  6
CONTINUOUS
 62
     3
 10
19456.329311999991
 20
13769.77014799998
 30
0.0
 11
19481.322713999991
 21
13769.77014799998
 31
0.0
  0
LINE
  5
4E07
  8
2-0
  6
CONTINUOUS
 62
     3
 10
19481.322713999991
 20
13769.77014799998
 30
0.0
 11
19481.322713999991
 21
13787.768921000001
 31
0.0
  0
LINE
  5
4E08
  8
2-0
  6
CONTINUOUS
 62
     3
 10
19481.322713999991
 20
13787.768921000001
 30
0.0
 11
19451.325088999991
 21
13787.768921000001
 31
0.0
  0
LINE
  5
4E09
  8
2-0
  6
CONTINUOUS
 62
     3
 10
19451.325088999991
 20
14842.331493000011
 30
0.0
 11
19451.325088999991
 21
15486.370351
 31
0.0
  0
LINE
  5
4E0A
  8
2-0
  6
CONTINUOUS
 62
     3
 10
19451.325088999991
 20
18461.32605
 30
0.0
 11
19451.325088999991
 21
19105.136767499989
 31
0.0
  0
LINE
  5
4E0B
  8
2-0
  6
CONTINUOUS
 62
     3
 10
19542.327516999991
 20
18390.22965999999
 30
0.0
 11
19495.323847999989
 21
18390.22965999999
 31
0.0
  0
LINE
  5
4E0C
  8
2-0
  6
CONTINUOUS
 62
     3
 10
19495.323847999989
 20
18475.230188000001
 30
0.0
 11
19542.327516999991
 21
18475.230188000001
 31
0.0
  0
LINE
  5
4E0D
  8
2-0
  6
CONTINUOUS
 62
     3
 10
19495.323847999989
 20
18390.22965999999
 30
0.0
 11
19495.323847999989
 21
18415.232959000001
 31
0.0
  0
LINE
  5
4E0E
  8
2-0
  6
CONTINUOUS
 62
     3
 10
19495.323847999989
 20
18450.228867999991
 30
0.0
 11
19495.323847999989
 21
18475.230188000001
 31
0.0
  0
LINE
  5
4E0F
  8
2-0
  6
CONTINUOUS
 62
     3
 10
19542.327516999991
 20
18475.230188000001
 30
0.0
 11
19542.327516999991
 21
18390.22965999999
 31
0.0
  0
LINE
  5
4E10
  8
2-0
  6
CONTINUOUS
 62
     3
 10
19451.325088999991
 20
16187.130334499991
 30
0.0
 11
19451.325088999991
 21
15543.566561000011
 31
0.0
  0
LINE
  5
4E11
  8
2-0
  6
CONTINUOUS
 62
     3
 10
19542.327516999991
 20
15472.23263
 30
0.0
 11
19495.323847999989
 21
15472.23263
 31
0.0
  0
LINE
  5
4E12
  8
2-0
  6
CONTINUOUS
 62
     3
 10
19495.323847999989
 20
15557.22919799999
 30
0.0
 11
19542.327516999991
 21
15557.22919799999
 31
0.0
  0
LINE
  5
4E13
  8
2-0
  6
CONTINUOUS
 62
     3
 10
19495.323847999989
 20
15472.23263
 30
0.0
 11
19495.323847999989
 21
15497.22801100001
 31
0.0
  0
LINE
  5
4E14
  8
2-0
  6
CONTINUOUS
 62
     3
 10
19495.323847999989
 20
15532.227879
 30
0.0
 11
19495.323847999989
 21
15557.22919799999
 31
0.0
  0
LINE
  5
4E15
  8
2-0
  6
CONTINUOUS
 62
     3
 10
19542.327516999991
 20
15557.22919799999
 30
0.0
 11
19542.327516999991
 21
15472.23263
 31
0.0
  0
LINE
  5
4E16
  8
2-0
  6
CONTINUOUS
 62
     3
 10
26073.319677999989
 20
19819.23302600002
 30
0.0
 11
26073.319677999989
 21
19934.229199000009
 31
0.0
  0
LINE
  5
4E17
  8
2-0
  6
CENTER2
 62
     6
 10
18164.366816999991
 20
19891.730914
 30
0.0
 11
26923.320997999988
 21
19891.730914
 31
0.0
  0
LINE
  5
4E18
  8
2-0
  6
CENTER2
 62
     6
 10
18164.366816999991
 20
16973.730914
 30
0.0
 11
26923.320997999988
 21
16973.730914
 31
0.0
  0
LINE
  5
4E19
  8
2-0
  6
CENTER2
 62
     6
 10
18164.366816999991
 20
13705.230913999991
 30
0.0
 11
26923.320997999988
 21
13705.230913999991
 31
0.0
  0
LINE
  5
4E1A
  8
2-0
  6
CONTINUOUS
 62
     3
 10
19916.913071999988
 20
19922.229357000011
 30
0.0
 11
19916.913071999988
 21
19929.234873000001
 31
0.0
  0
LINE
  5
4E1B
  8
2-0
  6
CONTINUOUS
 62
     3
 10
19916.913071999988
 20
19929.234873000001
 30
0.0
 11
19911.91280799999
 21
19929.234873000001
 31
0.0
  0
LINE
  5
4E1C
  8
2-0
  6
CONTINUOUS
 62
     3
 10
19911.91280799999
 20
19929.234873000001
 30
0.0
 11
19911.91280799999
 21
19904.22563600001
 31
0.0
  0
LINE
  5
4E1D
  8
2-0
  6
CONTINUOUS
 62
     3
 10
19911.91280799999
 20
19904.22563600001
 30
0.0
 11
19929.914550000001
 21
19904.22563600001
 31
0.0
  0
LINE
  5
4E1E
  8
2-0
  6
CONTINUOUS
 62
     3
 10
19929.914550000001
 20
19904.22563600001
 30
0.0
 11
19929.914550000001
 21
19934.229199000009
 31
0.0
  0
LINE
  5
4E1F
  8
2-0
  6
CONTINUOUS
 62
     3
 10
19913.815125000001
 20
19904.22563600001
 30
0.0
 11
19919.81900499999
 21
19904.22563600001
 31
0.0
  0
LINE
  5
4E20
  8
2-0
  6
CONTINUOUS
 62
     3
 10
19919.81900499999
 20
19904.22563600001
 30
0.0
 11
19919.81900499999
 21
19934.229199000009
 31
0.0
  0
LINE
  5
4E21
  8
2-0
  6
CONTINUOUS
 62
     3
 10
19882.823782999989
 20
19934.229199000009
 30
0.0
 11
19919.81900499999
 21
19934.229199000009
 31
0.0
  0
LINE
  5
4E22
  8
2-0
  6
CONTINUOUS
 62
     3
 10
19882.823782999989
 20
19904.22563600001
 30
0.0
 11
19882.823782999989
 21
19934.229199000009
 31
0.0
  0
LINE
  5
4E23
  8
2-0
  6
CONTINUOUS
 62
     3
 10
19888.817764999989
 20
19904.22563600001
 30
0.0
 11
19882.823782999989
 21
19904.22563600001
 31
0.0
  0
LINE
  5
4E24
  8
2-0
  6
CONTINUOUS
 62
     3
 10
19872.728238
 20
19904.22563600001
 30
0.0
 11
19872.728238
 21
19934.229199000009
 31
0.0
  0
LINE
  5
4E25
  8
2-0
  6
CONTINUOUS
 62
     3
 10
19890.724041000001
 20
19904.22563600001
 30
0.0
 11
19872.728238
 21
19904.22563600001
 31
0.0
  0
LINE
  5
4E26
  8
2-0
  6
CONTINUOUS
 62
     3
 10
19890.724041000001
 20
19929.234873000001
 30
0.0
 11
19890.724041000001
 21
19904.22563600001
 31
0.0
  0
LINE
  5
4E27
  8
2-0
  6
CONTINUOUS
 62
     3
 10
19885.725757
 20
19929.234873000001
 30
0.0
 11
19890.724041000001
 21
19929.234873000001
 31
0.0
  0
LINE
  5
4E28
  8
2-0
  6
CONTINUOUS
 62
     3
 10
19885.725757
 20
19922.229357000011
 30
0.0
 11
19885.725757
 21
19929.234873000001
 31
0.0
  0
LINE
  5
4E29
  8
2-0
  6
CONTINUOUS
 62
     3
 10
19576.62663599999
 20
19934.229199000009
 30
0.0
 11
19872.728238
 21
19934.229199000009
 31
0.0
  0
LINE
  5
4E2A
  8
2-0
  6
CONTINUOUS
 62
     3
 10
19451.325088999991
 20
19849.23263000001
 30
0.0
 11
25992.31777799999
 21
19849.23263000001
 31
0.0
  0
LINE
  5
4E2B
  8
2-0
  6
CONTINUOUS
 62
     3
 10
19451.325088999991
 20
14141.268644000011
 30
0.0
 11
19451.325088999991
 21
14785.135283000011
 31
0.0
  0
LINE
  5
4E2C
  8
2-0
  6
CENTER2
 62
     6
 10
19493.821393999991
 20
21134.229199000009
 30
0.0
 11
19493.821393999991
 21
13079.46747999999
 31
0.0
  0
LINE
  5
4E2D
  8
2-0
  6
CENTER2
 62
     6
 10
26030.821393999999
 20
21134.229199000009
 30
0.0
 11
26030.821393999999
 21
13079.46747999999
 31
0.0
  0
LINE
  5
4E2E
  8
2-0
  6
CONTINUOUS
 62
     3
 10
26073.319677999989
 20
19808.935570000001
 30
0.0
 11
26073.319677999989
 21
19162.327039499982
 31
0.0
  0
LINE
  5
4E2F
  8
2-0
  6
CONTINUOUS
 62
     3
 10
19451.325088999991
 20
19808.935570000001
 30
0.0
 11
19451.325088999991
 21
19162.327039499982
 31
0.0
  0
LINE
  5
4E30
  8
2-0
  6
CENTER2
 62
     6
 10
22762.321393999991
 20
21134.229199000009
 30
0.0
 11
22762.321393999991
 21
13513.82631299999
 31
0.0
  0
LINE
  5
4E31
  8
2-0
  6
CONTINUOUS
 62
     3
 10
19463.32690999996
 20
14097.13725600002
 30
0.0
 11
19456.329311999991
 21
14097.13725600002
 31
0.0
  0
LINE
  5
4E32
  8
2-0
  6
CONTINUOUS
 62
     3
 10
19456.329311999991
 20
14097.13725600002
 30
0.0
 11
19456.329311999991
 21
14102.131582000011
 31
0.0
  0
LINE
  5
4E33
  8
2-0
  6
CONTINUOUS
 62
     3
 10
19456.329311999991
 20
14102.131582000011
 30
0.0
 11
19481.322713999991
 21
14102.131582000011
 31
0.0
  0
LINE
  5
4E34
  8
2-0
  6
CONTINUOUS
 62
     3
 10
19481.322713999991
 20
14102.131582000011
 30
0.0
 11
19481.322713999991
 21
14084.135778000011
 31
0.0
  0
LINE
  5
4E35
  8
2-0
  6
CONTINUOUS
 62
     3
 10
19481.322713999991
 20
14084.135778000011
 30
0.0
 11
19451.325088999991
 21
14084.135778000011
 31
0.0
  0
LINE
  5
4E36
  8
2-0
  6
CONTINUOUS
 62
     3
 10
19481.322713999991
 20
14100.23322400002
 30
0.0
 11
19481.322713999991
 21
14094.231323000011
 31
0.0
  0
LINE
  5
4E37
  8
2-0
  6
CONTINUOUS
 62
     3
 10
19481.322713999991
 20
14094.231323000011
 30
0.0
 11
19451.325088999991
 21
14094.231323000011
 31
0.0
  0
LINE
  5
4E38
  8
2-0
  6
CONTINUOUS
 62
     3
 10
19451.325088999991
 20
14094.231323000011
 30
0.0
 11
19451.325088999991
 21
14131.230505
 31
0.0
  0
LINE
  5
4E39
  8
2-0
  6
CONTINUOUS
 62
     3
 10
19481.322713999991
 20
14131.230505
 30
0.0
 11
19451.325088999991
 21
14131.230505
 31
0.0
  0
LINE
  5
4E3A
  8
2-0
  6
CONTINUOUS
 62
     3
 10
19481.322713999991
 20
14125.23454300002
 30
0.0
 11
19481.322713999991
 21
14131.230505
 31
0.0
  0
LINE
  5
4E3B
  8
2-0
  6
CONTINUOUS
 62
     3
 10
19481.322713999991
 20
14141.331988
 30
0.0
 11
19451.325088999991
 21
14141.331988
 31
0.0
  0
LINE
  5
4E3C
  8
2-0
  6
CONTINUOUS
 62
     3
 10
19481.322713999991
 20
14123.324307999999
 30
0.0
 11
19481.322713999991
 21
14141.331988
 31
0.0
  0
LINE
  5
4E3D
  8
2-0
  6
CONTINUOUS
 62
     3
 10
19456.329311999991
 20
14123.324307999999
 30
0.0
 11
19481.322713999991
 21
14123.324307999999
 31
0.0
  0
LINE
  5
4E3E
  8
2-0
  6
CONTINUOUS
 62
     3
 10
19456.329311999991
 20
14128.330510000011
 30
0.0
 11
19456.329311999991
 21
14123.324307999999
 31
0.0
  0
LINE
  5
4E3F
  8
2-0
  6
CONTINUOUS
 62
     3
 10
19463.32690999996
 20
14128.330510000011
 30
0.0
 11
19456.329311999991
 21
14128.330510000011
 31
0.0
  0
LINE
  5
4E40
  8
2-0
  6
CONTINUOUS
 62
     3
 10
19451.325088999991
 20
13787.768921000001
 30
0.0
 11
19451.325088999991
 21
14084.135778000011
 31
0.0
  0
LINE
  5
4E41
  8
2-0
  6
CONTINUOUS
 62
     3
 10
19532.323029999981
 20
13747.729198000001
 30
0.0
 11
19532.323029999981
 21
19934.229199000009
 31
0.0
  0
LINE
  5
4E42
  8
2-0
  6
CONTINUOUS
 62
     3
 10
26061.317856999998
 20
14097.137256000011
 30
0.0
 11
26068.319414000001
 21
14097.137256000011
 31
0.0
  0
LINE
  5
4E43
  8
2-0
  6
CONTINUOUS
 62
     3
 10
26068.319414000001
 20
14097.137256000011
 30
0.0
 11
26068.319414000001
 21
14102.131582000011
 31
0.0
  0
LINE
  5
4E44
  8
2-0
  6
CONTINUOUS
 62
     3
 10
26068.319414000001
 20
14102.131582000011
 30
0.0
 11
26043.322053999989
 21
14102.131582000011
 31
0.0
  0
LINE
  5
4E45
  8
2-0
  6
CONTINUOUS
 62
     3
 10
26043.322053999989
 20
14102.131582000011
 30
0.0
 11
26043.322053999989
 21
14084.135778000011
 31
0.0
  0
LINE
  5
4E46
  8
2-0
  6
CONTINUOUS
 62
     3
 10
26043.322053999989
 20
14084.135778000011
 30
0.0
 11
26073.319677999989
 21
14084.135778000011
 31
0.0
  0
LINE
  5
4E47
  8
2-0
  6
CONTINUOUS
 62
     3
 10
26043.322053999989
 20
14100.233224000011
 30
0.0
 11
26043.322053999989
 21
14094.231322999991
 31
0.0
  0
LINE
  5
4E48
  8
2-0
  6
CONTINUOUS
 62
     3
 10
26043.322053999989
 20
14094.231322999991
 30
0.0
 11
26073.319677999989
 21
14094.231322999991
 31
0.0
  0
LINE
  5
4E49
  8
2-0
  6
CONTINUOUS
 62
     3
 10
26073.319677999989
 20
14094.231322999991
 30
0.0
 11
26073.319677999989
 21
14131.230505
 31
0.0
  0
LINE
  5
4E4A
  8
2-0
  6
CONTINUOUS
 62
     3
 10
26043.322053999989
 20
14131.230505
 30
0.0
 11
26073.319677999989
 21
14131.230505
 31
0.0
  0
LINE
  5
4E4B
  8
2-0
  6
CONTINUOUS
 62
     3
 10
26043.322053999989
 20
14125.23454300002
 30
0.0
 11
26043.322053999989
 21
14131.230505
 31
0.0
  0
LINE
  5
4E4C
  8
2-0
  6
CONTINUOUS
 62
     3
 10
26043.322053999989
 20
14141.331988
 30
0.0
 11
26073.319677999989
 21
14141.331988
 31
0.0
  0
LINE
  5
4E4D
  8
2-0
  6
CONTINUOUS
 62
     3
 10
26043.322053999989
 20
14123.32430799999
 30
0.0
 11
26043.322053999989
 21
14141.331988
 31
0.0
  0
LINE
  5
4E4E
  8
2-0
  6
CONTINUOUS
 62
     3
 10
26068.319414000001
 20
14123.32430799999
 30
0.0
 11
26043.322053999989
 21
14123.32430799999
 31
0.0
  0
LINE
  5
4E4F
  8
2-0
  6
CONTINUOUS
 62
     3
 10
26068.319414000001
 20
14128.330509999991
 30
0.0
 11
26068.319414000001
 21
14123.32430799999
 31
0.0
  0
LINE
  5
4E50
  8
2-0
  6
CONTINUOUS
 62
     3
 10
26061.317856999998
 20
14128.330509999991
 30
0.0
 11
26068.319414000001
 21
14128.330509999991
 31
0.0
  0
LINE
  5
4E51
  8
2-0
  6
CONTINUOUS
 62
     3
 10
26073.319677999989
 20
13787.768921000001
 30
0.0
 11
26073.319677999989
 21
14084.135778000011
 31
0.0
  0
LINE
  5
4E52
  8
2-0
  6
CONTINUOUS
 62
     3
 10
25992.31777799999
 20
13747.729198000001
 30
0.0
 11
25992.31777799999
 21
19934.229199000009
 31
0.0
  0
LINE
  5
4E53
  8
2-0
  6
CONTINUOUS
 62
     3
 10
22719.829048
 20
19091.233619499999
 30
0.0
 11
22804.821658000001
 21
19091.233619499999
 31
0.0
  0
LINE
  5
4E54
  8
2-0
  6
CONTINUOUS
 62
     3
 10
22804.821658000001
 20
19176.228208500001
 30
0.0
 11
22719.829048
 21
19176.228208500001
 31
0.0
  0
LINE
  5
4E55
  8
2-0
  6
CONTINUOUS
 62
     3
 10
22719.829048
 20
19176.228208500001
 30
0.0
 11
22719.829048
 21
19091.233619499999
 31
0.0
  0
LINE
  5
4E56
  8
2-0
  6
CONTINUOUS
 62
     3
 10
22804.821658000001
 20
19091.233619499999
 30
0.0
 11
22804.821658000001
 21
19176.228208500001
 31
0.0
  0
LINE
  5
4E57
  8
2-0
  6
CONTINUOUS
 62
     6
 10
22801.256545000011
 20
19082.092981000009
 30
0.0
 11
23077.846758
 21
18626.748281
 31
0.0
  0
LINE
  5
4E58
  8
2-0
  6
CONTINUOUS
 62
     6
 10
23077.846758
 20
18626.748281
 30
0.0
 11
24108.196077000011
 21
18626.748281
 31
0.0
  0
LINE
  5
4E59
  8
2-0
  6
CONTINUOUS
 62
     6
 10
22861.534865000001
 20
18931.497146000009
 30
0.0
 11
22801.256545000011
 21
19082.092981000009
 31
0.0
  0
LINE
  5
4E5A
  8
2-0
  6
CONTINUOUS
 62
     6
 10
22801.256545000011
 20
19082.092981000009
 30
0.0
 11
22907.115259999991
 21
18959.184672999989
 31
0.0
  0
LINE
  5
4E5B
  8
2-0
  6
CONTINUOUS
 62
     6
 10
22861.534865000001
 20
18931.497146000009
 30
0.0
 11
22907.115259999991
 21
18959.184672999989
 31
0.0
  0
LINE
  5
4E5C
  8
2-0
  6
CONTINUOUS
 62
     6
 10
22907.115259999991
 20
18959.184672999989
 30
0.0
 11
22801.256545000011
 21
19082.092981000009
 31
0.0
  0
LINE
  5
4E5D
  8
2-0
  6
CONTINUOUS
 62
     6
 10
22801.256545000011
 20
19082.092981000009
 30
0.0
 11
22861.534865000001
 21
18931.497146000009
 31
0.0
  0
LINE
  5
4E5E
  8
2-0
  6
CONTINUOUS
 62
     6
 10
22861.534865000001
 20
18931.497146000009
 30
0.0
 11
22801.256545000011
 21
19082.092981000009
 31
0.0
  0
LINE
  5
4E5F
  8
2-0
  6
CONTINUOUS
 62
     6
 10
22907.115259999991
 20
18959.184672999989
 30
0.0
 11
22801.256545000011
 21
19082.092981000009
 31
0.0
  0
LINE
  5
4E60
  8
2-0
  6
CONTINUOUS
 62
     6
 10
22907.115259999991
 20
18959.184672999989
 30
0.0
 11
22861.534865000001
 21
18931.497146000009
 31
0.0
  0
CIRCLE
  5
4E61
  8
2-0
  6
CONTINUOUS
 62
     4
 10
17964.369126999991
 20
19891.730914
 30
0.0
 40
200.00001
  0
CIRCLE
  5
4E62
  8
2-0
  6
CONTINUOUS
 62
     4
 10
17964.369126999991
 20
16973.730914
 30
0.0
 40
200.00001
  0
CIRCLE
  5
4E63
  8
2-0
  6
CONTINUOUS
 62
     4
 10
17964.369126999991
 20
13705.230913999991
 30
0.0
 40
200.00001
  0
CIRCLE
  5
4E64
  8
2-0
  6
CONTINUOUS
 62
     4
 10
22762.321393999991
 20
21334.233818000012
 30
0.0
 40
200.00001
  0
CIRCLE
  5
4E65
  8
2-0
  6
CONTINUOUS
 62
     4
 10
19493.821393999991
 20
21334.233818000012
 30
0.0
 40
200.00001
  0
TEXT
  5
4E66
  8
2-0
  6
CONTINUOUS
 62
     7
 10
24427.66670099998
 20
13145.232035999999
 30
0.0
 40
160.0
  1
前柱（右）
 50
0.000213
 72
     4
 11
24843.666403593001
 21
13225.23358250079
 31
0.0
  0
TEXT
  5
4E67
  8
2-0
  6
CONTINUOUS
 62
     7
 10
24444.36592
 20
18174.854080000001
 30
0.0
 40
160.0
  1
補強柱 後
 50
359.99984199999989
 72
     4
 11
24855.032807274722
 21
18254.852947536991
 31
0.0
  0
TEXT
  5
4E68
  8
2-0
  6
CONTINUOUS
 62
     7
 10
24632.261824000001
 20
16424.22405200002
 30
0.0
 40
160.0
  1
壁パネル
 50
359.99982299999999
 72
     4
 11
24994.928737803551
 21
16504.222931637891
 31
0.0
  0
TEXT
  5
4E69
  8
2-0
  6
CONTINUOUS
 62
     7
 10
24352.258919999989
 20
17261.411948000012
 30
0.0
 40
160.0
  1
中柱（左右）
 50
0.000354
 72
     4
 11
24869.591759046201
 21
17341.415144324659
 31
0.0
  0
TEXT
  5
4E6A
  8
2-0
  6
CONTINUOUS
 62
     7
 10
25032.261163999989
 20
14118.273302
 30
0.0
 40
160.0
  1
下枠
 50
0.001063
 72
     4
 11
25202.926346409291
 21
14198.276468339291
 31
0.0
  0
TEXT
  5
4E6B
  8
2-0
  6
CONTINUOUS
 62
     7
 10
24444.365920000011
 20
15257.09459100001
 30
0.0
 40
160.0
  1
補強柱 前
 50
359.99937
 72
     4
 11
24855.03346628779
 21
15337.09007547934
 31
0.0
  0
TEXT
  5
4E6C
  8
2-0
  6
CONTINUOUS
 62
     7
 10
24527.226588000001
 20
18864.680686499989
 30
0.0
 40
160.0
  1
間柱（側）
 72
     4
 11
24948.55992133333
 21
18944.680686499989
 31
0.0
  0
TEXT
  5
4E6D
  8
2-0
  6
CONTINUOUS
 62
     7
 10
26845.816906999979
 20
20744.228406999999
 30
0.0
 40
160.0
  1
後柱（左右）
 50
0.000354
 72
     4
 11
27357.816412712971
 21
20824.231570372842
 31
0.0
  0
TEXT
  5
4E6E
  8
2-0
  6
CONTINUOUS
 62
     7
 10
23161.410156000002
 20
14283.069213999979
 30
0.0
 40
160.0
  1
前柱（中）
 72
     4
 11
23577.410156000002
 21
14363.069213999979
 31
0.0
  0
TEXT
  5
4E6F
  8
2-0
  6
CONTINUOUS
 62
     7
 10
21598.190269999999
 20
19297.111246000011
 30
0.0
 40
160.0
  1
間柱（後）
 72
     4
 11
22019.523603333331
 21
19377.111246000011
 31
0.0
  0
TEXT
  5
4E70
  8
2-0
  6
CONTINUOUS
 62
     7
 10
23032.614759000011
 20
19365.855967000021
 30
0.0
 40
160.0
  1
後柱（中）
 72
     4
 11
23448.614759000011
 21
19445.855967000021
 31
0.0
  0
TEXT
  5
4E71
  8
2-0
  6
CONTINUOUS
 62
     7
 10
17916.36975999998
 20
19797.250472000022
 30
0.0
 40
160.0
  1
C
 72
     4
 11
17969.703093333312
 21
19877.250472000022
 31
0.0
  0
TEXT
  5
4E72
  8
2-0
  6
CONTINUOUS
 62
     7
 10
17916.590475999979
 20
16903.336832000019
 30
0.0
 40
160.0
  1
B
 72
     4
 11
17969.923809333312
 21
16983.336832000019
 31
0.0
  0
TEXT
  5
4E73
  8
2-0
  6
CONTINUOUS
 62
     7
 10
17916.633035999981
 20
13616.62370299999
 30
0.0
 40
160.0
  1
A
 72
     4
 11
17969.96636933331
 21
13696.62370299999
 31
0.0
  0
TEXT
  5
4E74
  8
2-0
  6
CONTINUOUS
 62
     7
 10
22710.689611000002
 20
21238.708189000012
 30
0.0
 40
160.0
  1
2
 72
     4
 11
22764.02294433333
 21
21318.708189000012
 31
0.0
  0
TEXT
  5
4E75
  8
2-0
  6
CONTINUOUS
 62
     7
 10
19449.614784999969
 20
21245.466266000029
 30
0.0
 40
160.0
  1
1
 72
     4
 11
19476.28145166664
 21
21325.466266000029
 31
0.0
  0
TEXT
  5
4E76
  8
2-0
  6
CONTINUOUS
 62
     7
 10
23199.828652
 20
18699.748967999989
 30
0.0
 40
160.0
  1
梁補助柱
 72
     4
 11
23562.495318666672
 21
18779.748967999989
 31
0.0
  0
LINE
  5
4E77
  8
2-0
  6
CONTINUOUS
 62
     3
 10
25291.321974999992
 20
19934.229199000009
 30
0.0
 11
25254.320812999991
 21
19934.229199000009
 31
0.0
  0
LINE
  5
4E78
  8
2-0
  6
CONTINUOUS
 62
     3
 10
25291.321974999992
 20
19904.22563600001
 30
0.0
 11
25291.321974999992
 21
19934.229199000009
 31
0.0
  0
LINE
  5
4E79
  8
2-0
  6
CONTINUOUS
 62
     3
 10
25285.322053999971
 20
19904.22563600001
 30
0.0
 11
25291.321974999992
 21
19904.22563600001
 31
0.0
  0
LINE
  5
4E7A
  8
2-0
  6
CONTINUOUS
 62
     3
 10
25301.419498999989
 20
19904.22563600001
 30
0.0
 11
25301.419498999989
 21
19934.229199000009
 31
0.0
  0
LINE
  5
4E7B
  8
2-0
  6
CONTINUOUS
 62
     3
 10
25283.415777999991
 20
19904.22563600001
 30
0.0
 11
25301.419498999989
 21
19904.22563600001
 31
0.0
  0
LINE
  5
4E7C
  8
2-0
  6
CONTINUOUS
 62
     3
 10
25283.415777999991
 20
19929.234873000001
 30
0.0
 11
25283.415777999991
 21
19904.22563600001
 31
0.0
  0
LINE
  5
4E7D
  8
2-0
  6
CONTINUOUS
 62
     3
 10
25288.41604199999
 20
19929.234873000001
 30
0.0
 11
25283.415777999991
 21
19929.234873000001
 31
0.0
  0
LINE
  5
4E7E
  8
2-0
  6
CONTINUOUS
 62
     3
 10
25288.41604199999
 20
19922.229357000011
 30
0.0
 11
25288.41604199999
 21
19929.234873000001
 31
0.0
  0
LINE
  5
4E7F
  8
2-0
  6
CONTINUOUS
 62
     3
 10
25257.22674699999
 20
19922.229357000011
 30
0.0
 11
25257.22674699999
 21
19929.234873000001
 31
0.0
  0
LINE
  5
4E80
  8
2-0
  6
CONTINUOUS
 62
     3
 10
25257.22674699999
 20
19929.234873000001
 30
0.0
 11
25262.227010999992
 21
19929.234873000001
 31
0.0
  0
LINE
  5
4E81
  8
2-0
  6
CONTINUOUS
 62
     3
 10
25262.227010999992
 20
19929.234873000001
 30
0.0
 11
25262.227010999992
 21
19904.22563600001
 31
0.0
  0
LINE
  5
4E82
  8
2-0
  6
CONTINUOUS
 62
     3
 10
25262.227010999992
 20
19904.22563600001
 30
0.0
 11
25244.227247999988
 21
19904.22563600001
 31
0.0
  0
LINE
  5
4E83
  8
2-0
  6
CONTINUOUS
 62
     3
 10
25244.227247999988
 20
19904.22563600001
 30
0.0
 11
25244.227247999988
 21
19934.229199000009
 31
0.0
  0
LINE
  5
4E84
  8
2-0
  6
CONTINUOUS
 62
     3
 10
25260.32073399999
 20
19904.22563600001
 30
0.0
 11
25254.320812999991
 21
19904.22563600001
 31
0.0
  0
LINE
  5
4E85
  8
2-0
  6
CONTINUOUS
 62
     3
 10
25254.320812999991
 20
19904.22563600001
 30
0.0
 11
25254.320812999991
 21
19934.229199000009
 31
0.0
  0
LINE
  5
4E86
  8
2-0
  6
CONTINUOUS
 62
     3
 10
23886.411092499991
 20
19922.229357000011
 30
0.0
 11
23886.411092499991
 21
19929.234873000001
 31
0.0
  0
LINE
  5
4E87
  8
2-0
  6
CONTINUOUS
 62
     3
 10
23886.411092499991
 20
19929.234873000001
 30
0.0
 11
23881.410828499978
 21
19929.234873000001
 31
0.0
  0
LINE
  5
4E88
  8
2-0
  6
CONTINUOUS
 62
     3
 10
23881.410828499978
 20
19929.234873000001
 30
0.0
 11
23881.410828499978
 21
19904.22563600001
 31
0.0
  0
LINE
  5
4E89
  8
2-0
  6
CONTINUOUS
 62
     3
 10
23881.410828499978
 20
19904.22563600001
 30
0.0
 11
23899.416529499998
 21
19904.22563600001
 31
0.0
  0
LINE
  5
4E8A
  8
2-0
  6
CONTINUOUS
 62
     3
 10
23899.416529499998
 20
19904.22563600001
 30
0.0
 11
23899.416529499998
 21
19934.229199000009
 31
0.0
  0
LINE
  5
4E8B
  8
2-0
  6
CONTINUOUS
 62
     3
 10
23883.319084499992
 20
19904.22563600001
 30
0.0
 11
23889.320984499991
 21
19904.22563600001
 31
0.0
  0
LINE
  5
4E8C
  8
2-0
  6
CONTINUOUS
 62
     3
 10
23889.320984499991
 20
19904.22563600001
 30
0.0
 11
23889.320984499991
 21
19934.229199000009
 31
0.0
  0
LINE
  5
4E8D
  8
2-0
  6
CONTINUOUS
 62
     3
 10
23852.321803499992
 20
19934.229199000009
 30
0.0
 11
23889.320984499991
 21
19934.229199000009
 31
0.0
  0
LINE
  5
4E8E
  8
2-0
  6
CONTINUOUS
 62
     3
 10
23852.321803499992
 20
19904.22563600001
 30
0.0
 11
23852.321803499992
 21
19934.229199000009
 31
0.0
  0
LINE
  5
4E8F
  8
2-0
  6
CONTINUOUS
 62
     3
 10
23858.315785499992
 20
19904.22563600001
 30
0.0
 11
23852.321803499992
 21
19904.22563600001
 31
0.0
  0
LINE
  5
4E90
  8
2-0
  6
CONTINUOUS
 62
     3
 10
23842.226258499999
 20
19904.22563600001
 30
0.0
 11
23842.226258499999
 21
19934.229199000009
 31
0.0
  0
LINE
  5
4E91
  8
2-0
  6
CONTINUOUS
 62
     3
 10
23860.222061499979
 20
19904.22563600001
 30
0.0
 11
23842.226258499999
 21
19904.22563600001
 31
0.0
  0
LINE
  5
4E92
  8
2-0
  6
CONTINUOUS
 62
     3
 10
23860.222061499979
 20
19929.234873000001
 30
0.0
 11
23860.222061499979
 21
19904.22563600001
 31
0.0
  0
LINE
  5
4E93
  8
2-0
  6
CONTINUOUS
 62
     3
 10
23855.221797499991
 20
19929.234873000001
 30
0.0
 11
23860.222061499979
 21
19929.234873000001
 31
0.0
  0
LINE
  5
4E94
  8
2-0
  6
CONTINUOUS
 62
     3
 10
23855.221797499991
 20
19922.229357000011
 30
0.0
 11
23855.221797499991
 21
19929.234873000001
 31
0.0
  0
LINE
  5
4E95
  8
2-0
  6
CONTINUOUS
 62
     3
 10
24556.220808499991
 20
19922.229357000011
 30
0.0
 11
24556.220808499991
 21
19929.234873000001
 31
0.0
  0
LINE
  5
4E96
  8
2-0
  6
CONTINUOUS
 62
     3
 10
24556.220808499991
 20
19929.234873000001
 30
0.0
 11
24561.221071499989
 21
19929.234873000001
 31
0.0
  0
LINE
  5
4E97
  8
2-0
  6
CONTINUOUS
 62
     3
 10
24561.221071499989
 20
19929.234873000001
 30
0.0
 11
24561.221071499989
 21
19904.22563600001
 31
0.0
  0
LINE
  5
4E98
  8
2-0
  6
CONTINUOUS
 62
     3
 10
24561.221071499989
 20
19904.22563600001
 30
0.0
 11
24543.227248499981
 21
19904.22563600001
 31
0.0
  0
LINE
  5
4E99
  8
2-0
  6
CONTINUOUS
 62
     3
 10
24543.227248499981
 20
19904.22563600001
 30
0.0
 11
24543.227248499981
 21
19934.229199000009
 31
0.0
  0
LINE
  5
4E9A
  8
2-0
  6
CONTINUOUS
 62
     3
 10
24559.318754499989
 20
19904.22563600001
 30
0.0
 11
24553.320813499991
 21
19904.22563600001
 31
0.0
  0
LINE
  5
4E9B
  8
2-0
  6
CONTINUOUS
 62
     3
 10
24553.320813499991
 20
19904.22563600001
 30
0.0
 11
24553.320813499991
 21
19934.229199000009
 31
0.0
  0
LINE
  5
4E9C
  8
2-0
  6
CONTINUOUS
 62
     3
 10
24590.321974499991
 20
19934.229199000009
 30
0.0
 11
24553.320813499991
 21
19934.229199000009
 31
0.0
  0
LINE
  5
4E9D
  8
2-0
  6
CONTINUOUS
 62
     3
 10
24590.321974499991
 20
19904.22563600001
 30
0.0
 11
24590.321974499991
 21
19934.229199000009
 31
0.0
  0
LINE
  5
4E9E
  8
2-0
  6
CONTINUOUS
 62
     3
 10
24584.316115500002
 20
19904.22563600001
 30
0.0
 11
24590.321974499991
 21
19904.22563600001
 31
0.0
  0
LINE
  5
4E9F
  8
2-0
  6
CONTINUOUS
 62
     3
 10
24600.415539500002
 20
19904.22563600001
 30
0.0
 11
24600.415539500002
 21
19934.229199000009
 31
0.0
  0
LINE
  5
4EA0
  8
2-0
  6
CONTINUOUS
 62
     3
 10
24582.419736499982
 20
19904.22563600001
 30
0.0
 11
24600.415539500002
 21
19904.22563600001
 31
0.0
  0
LINE
  5
4EA1
  8
2-0
  6
CONTINUOUS
 62
     3
 10
24582.419736499982
 20
19929.234873000001
 30
0.0
 11
24582.419736499982
 21
19904.22563600001
 31
0.0
  0
LINE
  5
4EA2
  8
2-0
  6
CONTINUOUS
 62
     3
 10
24587.410102499991
 20
19929.234873000001
 30
0.0
 11
24582.419736499982
 21
19929.234873000001
 31
0.0
  0
LINE
  5
4EA3
  8
2-0
  6
CONTINUOUS
 62
     3
 10
24587.410102499991
 20
19922.229357000011
 30
0.0
 11
24587.410102499991
 21
19929.234873000001
 31
0.0
  0
LINE
  5
4EA4
  8
2-0
  6
CONTINUOUS
 62
     3
 10
23899.416529499998
 20
19934.229199000009
 30
0.0
 11
24543.227248499981
 21
19934.229199000009
 31
0.0
  0
LINE
  5
4EA5
  8
2-0
  6
CONTINUOUS
 62
     3
 10
23198.620419999999
 20
19934.229199000009
 30
0.0
 11
23842.226258499999
 21
19934.229199000009
 31
0.0
  0
LINE
  5
4EA6
  8
2-0
  6
CONTINUOUS
 62
     3
 10
25948.705023999992
 20
19934.229199000009
 30
0.0
 11
25301.419498999989
 21
19934.229199000009
 31
0.0
  0
LINE
  5
4EA7
  8
2-0
  6
CONTINUOUS
 62
     3
 10
25244.227247999988
 20
19934.229199000009
 30
0.0
 11
24600.415539500002
 21
19934.229199000009
 31
0.0
  0
LINE
  5
4EA8
  8
2-0
  6
CONTINUOUS
 62
     3
 10
23185.413071999988
 20
19922.229357000011
 30
0.0
 11
23185.413071999988
 21
19929.234873000001
 31
0.0
  0
LINE
  5
4EA9
  8
2-0
  6
CONTINUOUS
 62
     3
 10
23185.413071999988
 20
19929.234873000001
 30
0.0
 11
23180.41280799999
 21
19929.234873000001
 31
0.0
  0
LINE
  5
4EAA
  8
2-0
  6
CONTINUOUS
 62
     3
 10
23180.41280799999
 20
19929.234873000001
 30
0.0
 11
23180.41280799999
 21
19904.22563600001
 31
0.0
  0
LINE
  5
4EAB
  8
2-0
  6
CONTINUOUS
 62
     3
 10
23180.41280799999
 20
19904.22563600001
 30
0.0
 11
23198.414550000009
 21
19904.22563600001
 31
0.0
  0
LINE
  5
4EAC
  8
2-0
  6
CONTINUOUS
 62
     3
 10
23198.414550000009
 20
19904.22563600001
 30
0.0
 11
23198.414550000009
 21
19934.229199000009
 31
0.0
  0
LINE
  5
4EAD
  8
2-0
  6
CONTINUOUS
 62
     3
 10
23182.315125000008
 20
19904.22563600001
 30
0.0
 11
23188.31900499999
 21
19904.22563600001
 31
0.0
  0
LINE
  5
4EAE
  8
2-0
  6
CONTINUOUS
 62
     3
 10
23188.31900499999
 20
19904.22563600001
 30
0.0
 11
23188.31900499999
 21
19934.229199000009
 31
0.0
  0
LINE
  5
4EAF
  8
2-0
  6
CONTINUOUS
 62
     3
 10
23151.323782999989
 20
19934.229199000009
 30
0.0
 11
23188.31900499999
 21
19934.229199000009
 31
0.0
  0
LINE
  5
4EB0
  8
2-0
  6
CONTINUOUS
 62
     3
 10
23151.323782999989
 20
19904.22563600001
 30
0.0
 11
23151.323782999989
 21
19934.229199000009
 31
0.0
  0
LINE
  5
4EB1
  8
2-0
  6
CONTINUOUS
 62
     3
 10
23157.317765
 20
19904.22563600001
 30
0.0
 11
23151.323782999989
 21
19904.22563600001
 31
0.0
  0
LINE
  5
4EB2
  8
2-0
  6
CONTINUOUS
 62
     3
 10
23141.228238
 20
19904.22563600001
 30
0.0
 11
23141.228238
 21
19934.229199000009
 31
0.0
  0
LINE
  5
4EB3
  8
2-0
  6
CONTINUOUS
 62
     3
 10
23159.224041000009
 20
19904.22563600001
 30
0.0
 11
23141.228238
 21
19904.22563600001
 31
0.0
  0
LINE
  5
4EB4
  8
2-0
  6
CONTINUOUS
 62
     3
 10
23159.224041000009
 20
19929.234873000001
 30
0.0
 11
23159.224041000009
 21
19904.22563600001
 31
0.0
  0
LINE
  5
4EB5
  8
2-0
  6
CONTINUOUS
 62
     3
 10
23154.225756999989
 20
19929.234873000001
 30
0.0
 11
23159.224041000009
 21
19929.234873000001
 31
0.0
  0
LINE
  5
4EB6
  8
2-0
  6
CONTINUOUS
 62
     3
 10
23154.225756999989
 20
19922.229357000011
 30
0.0
 11
23154.225756999989
 21
19929.234873000001
 31
0.0
  0
LINE
  5
4EB7
  8
2-0
  6
CONTINUOUS
 62
     3
 10
22845.12663599999
 20
19934.229199000009
 30
0.0
 11
23141.228238
 21
19934.229199000009
 31
0.0
  0
LINE
  5
4EB8
  8
2-0
  6
CONTINUOUS
 62
     3
 10
22680.893897000002
 20
19934.229199000009
 30
0.0
 11
22032.919498999981
 21
19934.229199000009
 31
0.0
  0
LINE
  5
4EB9
  8
2-0
  6
CONTINUOUS
 62
     3
 10
26073.319677999989
 20
15486.370351
 30
0.0
 11
26073.319677999989
 21
14842.331493000011
 31
0.0
  0
LINE
  5
4EBA
  8
2-0
  6
CONTINUOUS
 62
     3
 10
26073.319677999989
 20
14785.135283
 30
0.0
 11
26073.319677999989
 21
14141.331988
 31
0.0
  0
CIRCLE
  5
4EBB
  8
2-0
  6
CONTINUOUS
 62
     4
 10
26030.821393999999
 20
21334.233818000012
 30
0.0
 40
200.00001
  0
TEXT
  5
4EBC
  8
2-0
  6
CONTINUOUS
 62
     7
 10
25979.189611000009
 20
21238.708189000012
 30
0.0
 40
160.0
  1
3
 72
     4
 11
26032.522944333341
 21
21318.708189000012
 31
0.0
  0
LINE
  5
4EBD
  8
SUNPOU
  6
CONTINUOUS
 10
7558.36252899999
 20
20114.226823000001
 30
0.0
 11
7558.36252899999
 21
20911.19409077847
 31
0.0
  0
LINE
  5
4EBE
  8
SUNPOU
  6
CONTINUOUS
 10
7558.36252899999
 20
13512.735599
 30
0.0
 11
7558.36252899999
 21
12837.30948318962
 31
0.0
  0
LINE
  5
4EBF
  8
SUNPOU
  6
CONTINUOUS
 10
8882.5340609999967
 20
9424.5917609999997
 30
0.0
 11
8407.2449483597666
 21
9424.5917609999997
 31
0.0
  0
LINE
  5
4EC2
  8
WAKUSEN-01
 10
868.00000000000193
 20
22484.000000000011
 30
0.0
 11
32764.000000000011
 21
22484.000000000011
 31
0.0
  0
LINE
  5
4EC5
  8
WAKUSEN-01
 10
20560.0
 20
2484.0
 30
0.0
 11
32764.0
 21
2484.0
 31
0.0
  0
LINE
  5
4EC6
  8
WAKUSEN-02
 10
20560.0
 20
1655.9999999999991
 30
0.0
 11
26868.0
 21
1655.9999999999991
 31
0.0
  0
TEXT
  5
4EC7
  8
WAKUMOJI-01
 10
20670.260259962761
 20
2125.9030093393221
 30
0.0
 40
240.0
  1
名　称
  7
WAKUMOJI
  0
TEXT
  5
4EC8
  8
WAKUMOJI-01
 10
20656.505485091919
 20
1319.12897497982
 30
0.0
 40
240.0
  1
機種名
  7
WAKUMOJI
  0
LINE
  5
4ECB
  8
YODOROGO
 10
29977.604341291921
 20
1995.7494964292871
 30
0.0
 11
29829.604341291921
 21
1995.7494964292871
 31
0.0
1001
AUTOCAD_POSTSCRIPT_FIGURE
1002
{
1000
PSFILL
1000
Grayscale
1000
Grayscale
1070
    25
1002
}
  0
LINE
  5
4ECC
  8
YODOROGO
 10
29829.604341291921
 20
1947.749496429288
 30
0.0
 11
29977.604341291921
 21
1947.749496429288
 31
0.0
1001
AUTOCAD_POSTSCRIPT_FIGURE
1002
{
1000
PSFILL
1000
Grayscale
1000
Grayscale
1070
    25
1002
}
  0
LINE
  5
4ECD
  8
YODOROGO
 10
29977.604341291921
 20
1907.7494964292871
 30
0.0
 11
29829.604341291921
 21
1907.7494964292871
 31
0.0
1001
AUTOCAD_POSTSCRIPT_FIGURE
1002
{
1000
PSFILL
1000
Grayscale
1000
Grayscale
1070
    25
1002
}
  0
LINE
  5
4ECE
  8
YODOROGO
 10
29829.604341291921
 20
1859.749496429288
 30
0.0
 11
29977.604341291921
 21
1859.749496429288
 31
0.0
1001
AUTOCAD_POSTSCRIPT_FIGURE
1002
{
1000
PSFILL
1000
Grayscale
1000
Grayscale
1070
    25
1002
}
  0
LINE
  5
4ECF
  8
YODOROGO
 10
29977.604341291921
 20
1819.7494964292871
 30
0.0
 11
29829.604341291921
 21
1819.7494964292871
 31
0.0
1001
AUTOCAD_POSTSCRIPT_FIGURE
1002
{
1000
PSFILL
1000
Grayscale
1000
Grayscale
1070
    25
1002
}
  0
LINE
  5
4ED0
  8
YODOROGO
 10
29921.60434129191
 20
1707.749496429288
 30
0.0
 11
29977.604341291921
 21
1707.749496429288
 31
0.0
1001
AUTOCAD_POSTSCRIPT_FIGURE
1002
{
1000
PSFILL
1000
Grayscale
1000
Grayscale
1070
    25
1002
}
  0
LINE
  5
4ED1
  8
YODOROGO
 10
29737.604341291921
 20
1427.749496429288
 30
0.0
 11
29937.604341291932
 21
1481.3393349155101
 31
0.0
  0
LINE
  5
4ED2
  8
YODOROGO
 10
29949.60434129191
 20
1707.749496429288
 30
0.0
 11
29885.604341291921
 21
1707.749496429288
 31
0.0
  0
ARC
  5
4ED3
  8
YODOROGO
 10
30254.34774982791
 20
1807.864609233261
 30
0.0
 40
381.88686420564721
 50
213.96111677667841
 51
264.47872074317792
  0
ARC
  5
4ED4
  8
YODOROGO
 10
30254.347749827921
 20
1807.864609233302
 30
0.0
 40
381.8868642056816
 50
208.14114420486601
 51
212.9210361185994
  0
LINE
  5
4ED5
  8
YODOROGO
 10
29771.409872985321
 20
1556.807661346234
 30
0.0
 11
29933.78413250855
 21
1600.3157130570869
 31
0.0
  0
LINE
  5
4ED6
  8
YODOROGO
 10
29737.604341291921
 20
1427.749496429288
 30
0.0
 11
29937.604341291932
 21
1481.3393349155101
 31
0.0
  0
LINE
  5
4ED7
  8
YODOROGO
 10
29949.60434129191
 20
1707.749496429288
 30
0.0
 11
29885.604341291921
 21
1707.749496429288
 31
0.0
  0
ARC
  5
4ED8
  8
YODOROGO
 10
30254.34774982791
 20
1807.864609233261
 30
0.0
 40
381.88686420564721
 50
213.96111677667841
 51
264.47872074317792
  0
LINE
  5
4ED9
  8
YODOROGO
 10
28793.60434129191
 20
1819.7494964292871
 30
0.0
 11
28433.60434129191
 21
1819.7494964292871
 31
0.0
  0
LINE
  5
4EDA
  8
YODOROGO
 10
28513.60434129191
 20
1427.749496429288
 30
0.0
 11
28793.60434129191
 21
1427.749496429288
 31
0.0
  0
LINE
  5
4EDB
  8
YODOROGO
 10
28729.604341291921
 20
1923.7494964292871
 30
0.0
 11
28497.60434129191
 21
1923.7494964292871
 31
0.0
  0
LINE
  5
4EDC
  8
YODOROGO
 10
28585.604341291921
 20
2027.749496429288
 30
0.0
 11
28657.604341291921
 21
2027.749496429288
 31
0.0
  0
LINE
  5
4EDD
  8
YODOROGO
 10
28433.60434129191
 20
1707.749496429288
 30
0.0
 11
28433.60434129191
 21
1507.749496429288
 31
0.0
  0
LINE
  5
4EDE
  8
YODOROGO
 10
28497.60434129191
 20
1563.7494964292871
 30
0.0
 11
28497.60434129191
 21
1707.749496429288
 31
0.0
  0
LINE
  5
4EDF
  8
YODOROGO
 10
28585.604341291921
 20
1747.74949642929
 30
0.0
 11
28585.604341291921
 21
1547.749496429288
 31
0.0
  0
LINE
  5
4EE0
  8
YODOROGO
 10
27857.604341291921
 20
1683.749496429288
 30
0.0
 11
27777.604341291921
 21
1619.9724140445701
 31
0.0
  0
LINE
  5
4EE1
  8
YODOROGO
 10
27937.604341291921
 20
1619.9724140445701
 30
0.0
 11
27857.604341291921
 21
1683.749496429288
 31
0.0
  0
LINE
  5
4EE2
  8
YODOROGO
 10
27857.604341291921
 20
1707.749496429288
 30
0.0
 11
27937.604341291921
 21
1643.9724140445701
 31
0.0
  0
LINE
  5
4EE3
  8
YODOROGO
 10
27777.604341291921
 20
1643.9724140445701
 30
0.0
 11
27857.604341291921
 21
1707.749496429288
 31
0.0
  0
LINE
  5
4EE4
  8
YODOROGO
 10
28040.913204016892
 20
1659.749496429288
 30
0.0
 11
28040.913204016892
 21
1683.7494964292871
 31
0.0
  0
LINE
  5
4EE5
  8
YODOROGO
 10
27977.604341291921
 20
1683.7494964292871
 30
0.0
 11
27977.604341291921
 21
1667.749496429285
 31
0.0
  0
LINE
  5
4EE6
  8
YODOROGO
 10
28098.135520230931
 20
1707.749496429288
 30
0.0
 11
28098.135520230931
 21
1655.5036372746561
 31
0.0
1001
AUTOCAD_POSTSCRIPT_FIGURE
1002
{
1000
PSFILL
1000
Grayscale
1000
Grayscale
1070
   100
1002
}
  0
LINE
  5
4EE7
  8
YODOROGO
 10
28082.135520230921
 20
1655.5036372746561
 30
0.0
 11
28082.135520230921
 21
1707.749496429288
 31
0.0
1001
AUTOCAD_POSTSCRIPT_FIGURE
1002
{
1000
PSFILL
1000
Grayscale
1000
Grayscale
1070
   100
1002
}
  0
LINE
  5
4EE8
  8
YODOROGO
 10
27809.604341291921
 20
1608.771904043258
 30
0.0
 11
27809.604341291921
 21
1632.771904043258
 31
0.0
  0
LINE
  5
4EE9
  8
YODOROGO
 10
27905.604341291921
 20
1608.771904043258
 30
0.0
 11
27809.604341291921
 21
1608.771904043258
 31
0.0
  0
LINE
  5
4EEA
  8
YODOROGO
 10
27905.604341291921
 20
1632.771904043258
 30
0.0
 11
27905.604341291921
 21
1608.771904043258
 31
0.0
  0
LINE
  5
4EEB
  8
YODOROGO
 10
27809.604341291921
 20
1632.771904043258
 30
0.0
 11
27905.604341291921
 21
1632.771904043258
 31
0.0
  0
LINE
  5
4EEC
  8
YODOROGO
 10
27824.509588915738
 20
1568.5028573704751
 30
0.0
 11
27785.604341291921
 21
1475.7494964292871
 31
0.0
1001
AUTOCAD_POSTSCRIPT_FIGURE
1002
{
1000
PSFILL
1000
Grayscale
1000
Grayscale
1070
   100
1002
}
  0
LINE
  5
4EED
  8
YODOROGO
 10
27777.604341291921
 20
1568.5028573704751
 30
0.0
 11
27824.509588915738
 21
1568.5028573704751
 31
0.0
1001
AUTOCAD_POSTSCRIPT_FIGURE
1002
{
1000
PSFILL
1000
Grayscale
1000
Grayscale
1070
   100
1002
}
  0
LINE
  5
4EEE
  8
YODOROGO
 10
27777.604341291921
 20
1588.5028573704751
 30
0.0
 11
27777.604341291921
 21
1568.5028573704751
 31
0.0
1001
AUTOCAD_POSTSCRIPT_FIGURE
1002
{
1000
PSFILL
1000
Grayscale
1000
Grayscale
1070
   100
1002
}
  0
LINE
  5
4EEF
  8
YODOROGO
 10
27937.604341291921
 20
1588.5028573704751
 30
0.0
 11
27777.604341291921
 21
1588.5028573704751
 31
0.0
1001
AUTOCAD_POSTSCRIPT_FIGURE
1002
{
1000
PSFILL
1000
Grayscale
1000
Grayscale
1070
   100
1002
}
  0
LINE
  5
4EF0
  8
YODOROGO
 10
27937.604341291921
 20
1568.5028573704751
 30
0.0
 11
27937.604341291921
 21
1588.5028573704751
 31
0.0
1001
AUTOCAD_POSTSCRIPT_FIGURE
1002
{
1000
PSFILL
1000
Grayscale
1000
Grayscale
1070
   100
1002
}
  0
LINE
  5
4EF1
  8
YODOROGO
 10
27844.509588915738
 20
1568.5028573704751
 30
0.0
 11
27937.604341291921
 21
1568.5028573704751
 31
0.0
1001
AUTOCAD_POSTSCRIPT_FIGURE
1002
{
1000
PSFILL
1000
Grayscale
1000
Grayscale
1070
   100
1002
}
  0
LINE
  5
4EF2
  8
YODOROGO
 10
27815.546718284771
 20
1495.7494964292871
 30
0.0
 11
27844.509588915738
 21
1568.5028573704751
 31
0.0
1001
AUTOCAD_POSTSCRIPT_FIGURE
1002
{
1000
PSFILL
1000
Grayscale
1000
Grayscale
1070
   100
1002
}
  0
LINE
  5
4EF3
  8
YODOROGO
 10
27902.054790808648
 20
1495.7494964292871
 30
0.0
 11
27815.546718284771
 21
1495.7494964292871
 31
0.0
1001
AUTOCAD_POSTSCRIPT_FIGURE
1002
{
1000
PSFILL
1000
Grayscale
1000
Grayscale
1070
   100
1002
}
  0
LINE
  5
4EF4
  8
YODOROGO
 10
27885.065004790951
 20
1536.2338106976929
 30
0.0
 11
27902.054790808648
 21
1495.7494964292871
 31
0.0
1001
AUTOCAD_POSTSCRIPT_FIGURE
1002
{
1000
PSFILL
1000
Grayscale
1000
Grayscale
1070
   100
1002
}
  0
LINE
  5
4EF5
  8
YODOROGO
 10
27901.065004790951
 20
1536.2338106976929
 30
0.0
 11
27885.065004790951
 21
1536.2338106976929
 31
0.0
1001
AUTOCAD_POSTSCRIPT_FIGURE
1002
{
1000
PSFILL
1000
Grayscale
1000
Grayscale
1070
   100
1002
}
  0
LINE
  5
4EF6
  8
YODOROGO
 10
27929.604341291921
 20
1475.7494964292871
 30
0.0
 11
27901.065004790951
 21
1536.2338106976929
 31
0.0
1001
AUTOCAD_POSTSCRIPT_FIGURE
1002
{
1000
PSFILL
1000
Grayscale
1000
Grayscale
1070
   100
1002
}
  0
LINE
  5
4EF7
  8
YODOROGO
 10
27785.604341291921
 20
1475.7494964292871
 30
0.0
 11
27929.604341291921
 21
1475.7494964292871
 31
0.0
1001
AUTOCAD_POSTSCRIPT_FIGURE
1002
{
1000
PSFILL
1000
Grayscale
1000
Grayscale
1070
   100
1002
}
  0
LINE
  5
4EF8
  8
YODOROGO
 10
27777.604341291921
 20
1619.9724140445701
 30
0.0
 11
27777.604341291921
 21
1643.9724140445701
 31
0.0
  0
LINE
  5
4EF9
  8
YODOROGO
 10
27937.604341291921
 20
1643.9724140445701
 30
0.0
 11
27937.604341291921
 21
1619.9724140445701
 31
0.0
  0
ARC
  5
4EFA
  8
YODOROGO
 10
28225.940442146959
 20
1600.877765325326
 30
0.0
 40
175.9999999999998
 50
280.3644312771313
 51
3.5414836592180561
  0
ARC
  5
4EFB
  8
YODOROGO
 10
28235.756030759301
 20
1633.5978069619041
 30
0.0
 40
111.9999999999982
 50
281.24905825041549
 51
348.75094174958321
  0
LINE
  5
4EFC
  8
YODOROGO
 10
28257.604341291921
 20
1523.7494964292871
 30
0.0
 11
28257.604341291921
 21
1427.749496429288
 31
0.0
  0
LINE
  5
4EFD
  8
YODOROGO
 10
28020.088903736909
 20
1610.650565061914
 30
0.0
 11
28040.913204016892
 21
1659.749496429288
 31
0.0
  0
LINE
  5
4EFE
  8
YODOROGO
 10
28041.604341291921
 20
1583.120489948401
 30
0.0
 11
28020.088903736909
 21
1610.650565061914
 31
0.0
  0
LINE
  5
4EFF
  8
YODOROGO
 10
28041.604341291921
 20
1563.120489948398
 30
0.0
 11
28041.604341291921
 21
1583.120489948401
 31
0.0
  0
LINE
  5
4F00
  8
YODOROGO
 10
28017.604341291921
 20
1585.2370637495301
 30
0.0
 11
28041.604341291921
 21
1563.120489948398
 31
0.0
  0
LINE
  5
4F01
  8
YODOROGO
 10
28017.604341291921
 20
1475.7494964292871
 30
0.0
 11
28017.604341291921
 21
1585.2370637495301
 31
0.0
  0
LINE
  5
4F02
  8
YODOROGO
 10
28001.604341291921
 20
1475.7494964292871
 30
0.0
 11
28017.604341291921
 21
1475.7494964292871
 31
0.0
  0
LINE
  5
4F03
  8
YODOROGO
 10
28001.604341291921
 20
1580.0053496897469
 30
0.0
 11
28001.604341291921
 21
1475.7494964292871
 31
0.0
  0
LINE
  5
4F04
  8
YODOROGO
 10
27977.604341291921
 20
1532.7680790334291
 30
0.0
 11
28001.604341291921
 21
1580.0053496897469
 31
0.0
  0
LINE
  5
4F05
  8
YODOROGO
 10
27977.604341291921
 20
1556.76807903343
 30
0.0
 11
27977.604341291921
 21
1532.7680790334291
 31
0.0
  0
LINE
  5
4F06
  8
YODOROGO
 10
28025.828774291349
 20
1667.749496429285
 30
0.0
 11
27977.604341291921
 21
1556.76807903343
 31
0.0
  0
LINE
  5
4F07
  8
YODOROGO
 10
27977.604341291921
 20
1667.749496429285
 30
0.0
 11
28025.828774291349
 21
1667.749496429285
 31
0.0
  0
LINE
  5
4F08
  8
YODOROGO
 10
28050.135520230899
 20
1655.5036372746561
 30
0.0
 11
28082.135520230921
 21
1655.5036372746561
 31
0.0
1001
AUTOCAD_POSTSCRIPT_FIGURE
1002
{
1000
PSFILL
1000
Grayscale
1000
Grayscale
1070
   100
1002
}
  0
LINE
  5
4F09
  8
YODOROGO
 10
28050.135520230899
 20
1631.5036372746561
 30
0.0
 11
28050.135520230899
 21
1655.5036372746561
 31
0.0
1001
AUTOCAD_POSTSCRIPT_FIGURE
1002
{
1000
PSFILL
1000
Grayscale
1000
Grayscale
1070
   100
1002
}
  0
LINE
  5
4F0A
  8
YODOROGO
 10
28082.135520230921
 20
1631.5036372746561
 30
0.0
 11
28050.135520230899
 21
1631.5036372746561
 31
0.0
1001
AUTOCAD_POSTSCRIPT_FIGURE
1002
{
1000
PSFILL
1000
Grayscale
1000
Grayscale
1070
   100
1002
}
  0
LINE
  5
4F0B
  8
YODOROGO
 10
28082.135520230921
 20
1499.749496429288
 30
0.0
 11
28082.135520230921
 21
1631.5036372746561
 31
0.0
1001
AUTOCAD_POSTSCRIPT_FIGURE
1002
{
1000
PSFILL
1000
Grayscale
1000
Grayscale
1070
   100
1002
}
  0
LINE
  5
4F0C
  8
YODOROGO
 10
28050.135520230921
 20
1499.749496429288
 30
0.0
 11
28082.135520230921
 21
1499.749496429288
 31
0.0
1001
AUTOCAD_POSTSCRIPT_FIGURE
1002
{
1000
PSFILL
1000
Grayscale
1000
Grayscale
1070
   100
1002
}
  0
LINE
  5
4F0D
  8
YODOROGO
 10
28050.135520230921
 20
1475.7494964292871
 30
0.0
 11
28050.135520230921
 21
1499.749496429288
 31
0.0
1001
AUTOCAD_POSTSCRIPT_FIGURE
1002
{
1000
PSFILL
1000
Grayscale
1000
Grayscale
1070
   100
1002
}
  0
LINE
  5
4F0E
  8
YODOROGO
 10
28137.604341291921
 20
1475.7494964292871
 30
0.0
 11
28050.135520230921
 21
1475.7494964292871
 31
0.0
1001
AUTOCAD_POSTSCRIPT_FIGURE
1002
{
1000
PSFILL
1000
Grayscale
1000
Grayscale
1070
   100
1002
}
  0
LINE
  5
4F0F
  8
YODOROGO
 10
28137.604341291921
 20
1499.749496429288
 30
0.0
 11
28137.604341291921
 21
1475.7494964292871
 31
0.0
1001
AUTOCAD_POSTSCRIPT_FIGURE
1002
{
1000
PSFILL
1000
Grayscale
1000
Grayscale
1070
   100
1002
}
  0
LINE
  5
4F10
  8
YODOROGO
 10
28098.135520230931
 20
1499.749496429288
 30
0.0
 11
28137.604341291921
 21
1499.749496429288
 31
0.0
1001
AUTOCAD_POSTSCRIPT_FIGURE
1002
{
1000
PSFILL
1000
Grayscale
1000
Grayscale
1070
   100
1002
}
  0
LINE
  5
4F11
  8
YODOROGO
 10
28098.135520230931
 20
1631.5036372746561
 30
0.0
 11
28098.135520230931
 21
1499.749496429288
 31
0.0
1001
AUTOCAD_POSTSCRIPT_FIGURE
1002
{
1000
PSFILL
1000
Grayscale
1000
Grayscale
1070
   100
1002
}
  0
LINE
  5
4F12
  8
YODOROGO
 10
28137.604341291921
 20
1631.5036372746561
 30
0.0
 11
28098.135520230931
 21
1631.5036372746561
 31
0.0
1001
AUTOCAD_POSTSCRIPT_FIGURE
1002
{
1000
PSFILL
1000
Grayscale
1000
Grayscale
1070
   100
1002
}
  0
LINE
  5
4F13
  8
YODOROGO
 10
28137.604341291921
 20
1655.5036372746561
 30
0.0
 11
28137.604341291921
 21
1631.5036372746561
 31
0.0
1001
AUTOCAD_POSTSCRIPT_FIGURE
1002
{
1000
PSFILL
1000
Grayscale
1000
Grayscale
1070
   100
1002
}
  0
LINE
  5
4F14
  8
YODOROGO
 10
28098.135520230931
 20
1655.5036372746561
 30
0.0
 11
28137.604341291921
 21
1655.5036372746561
 31
0.0
1001
AUTOCAD_POSTSCRIPT_FIGURE
1002
{
1000
PSFILL
1000
Grayscale
1000
Grayscale
1070
   100
1002
}
  0
LINE
  5
4F15
  8
YODOROGO
 10
28401.60434129191
 20
1667.749496429288
 30
0.0
 11
28345.604341291921
 21
1667.749496429288
 31
0.0
  0
LINE
  5
4F16
  8
YODOROGO
 10
28401.60434129191
 20
1611.749496429288
 30
0.0
 11
28401.60434129191
 21
1667.749496429288
 31
0.0
  0
LINE
  5
4F17
  8
YODOROGO
 10
28345.604341291921
 20
1667.749496429288
 30
0.0
 11
28345.604341291921
 21
1611.749496429288
 31
0.0
  0
ARC
  5
4F18
  8
YODOROGO
 10
28513.60434129191
 20
1507.749496429288
 30
0.0
 40
80.0
 50
180.0
 51
270.0
  0
ARC
  5
4F19
  8
YODOROGO
 10
28537.604341291921
 20
1563.7494964292871
 30
0.0
 40
40.0
 50
180.0
 51
270.0
  0
LINE
  5
4F1A
  8
YODOROGO
 10
28561.604341291932
 20
1523.7494964292871
 30
0.0
 11
28537.604341291921
 21
1523.7494964292871
 31
0.0
  0
ARC
  5
4F1B
  8
YODOROGO
 10
28561.604341291932
 20
1547.749496429285
 30
0.0
 40
23.999999999996358
 50
270.0
 51
0.0000000000054281
  0
LINE
  5
4F1C
  8
YODOROGO
 10
27801.604341291921
 20
1890.786580793706
 30
0.0
 11
27777.604341291921
 21
1843.776747951672
 31
0.0
1001
AUTOCAD_POSTSCRIPT_FIGURE
1002
{
1000
PSFILL
1000
Grayscale
1000
Grayscale
1070
   100
1002
}
  0
LINE
  5
4F1D
  8
YODOROGO
 10
27801.604341291921
 20
1747.749496429286
 30
0.0
 11
27801.604341291921
 21
1890.786580793706
 31
0.0
1001
AUTOCAD_POSTSCRIPT_FIGURE
1002
{
1000
PSFILL
1000
Grayscale
1000
Grayscale
1070
   100
1002
}
  0
LINE
  5
4F1E
  8
YODOROGO
 10
27817.604341291921
 20
1747.749496429286
 30
0.0
 11
27801.604341291921
 21
1747.749496429286
 31
0.0
1001
AUTOCAD_POSTSCRIPT_FIGURE
1002
{
1000
PSFILL
1000
Grayscale
1000
Grayscale
1070
   100
1002
}
  0
LINE
  5
4F1F
  8
YODOROGO
 10
27817.604341291921
 20
1893.7713320852661
 30
0.0
 11
27817.604341291921
 21
1747.749496429286
 31
0.0
1001
AUTOCAD_POSTSCRIPT_FIGURE
1002
{
1000
PSFILL
1000
Grayscale
1000
Grayscale
1070
   100
1002
}
  0
LINE
  5
4F20
  8
YODOROGO
 10
27841.604341291921
 20
1867.6547582841361
 30
0.0
 11
27817.604341291921
 21
1893.7713320852661
 31
0.0
1001
AUTOCAD_POSTSCRIPT_FIGURE
1002
{
1000
PSFILL
1000
Grayscale
1000
Grayscale
1070
   100
1002
}
  0
LINE
  5
4F21
  8
YODOROGO
 10
27841.604341291921
 20
1883.6547582841361
 30
0.0
 11
27841.604341291921
 21
1867.6547582841361
 31
0.0
1001
AUTOCAD_POSTSCRIPT_FIGURE
1002
{
1000
PSFILL
1000
Grayscale
1000
Grayscale
1070
   100
1002
}
  0
LINE
  5
4F22
  8
YODOROGO
 10
27817.604341291921
 20
1917.7713320852649
 30
0.0
 11
27841.604341291921
 21
1883.6547582841361
 31
0.0
1001
AUTOCAD_POSTSCRIPT_FIGURE
1002
{
1000
PSFILL
1000
Grayscale
1000
Grayscale
1070
   100
1002
}
  0
LINE
  5
4F23
  8
YODOROGO
 10
27817.604341291921
 20
1939.749496429288
 30
0.0
 11
27817.604341291921
 21
1917.7713320852649
 31
0.0
1001
AUTOCAD_POSTSCRIPT_FIGURE
1002
{
1000
PSFILL
1000
Grayscale
1000
Grayscale
1070
   100
1002
}
  0
LINE
  5
4F24
  8
YODOROGO
 10
27889.604341291921
 20
1939.749496429288
 30
0.0
 11
27817.604341291921
 21
1939.749496429288
 31
0.0
1001
AUTOCAD_POSTSCRIPT_FIGURE
1002
{
1000
PSFILL
1000
Grayscale
1000
Grayscale
1070
   100
1002
}
  0
LINE
  5
4F25
  8
YODOROGO
 10
27889.604341291921
 20
1900.5683489363
 30
0.0
 11
27889.604341291921
 21
1939.749496429288
 31
0.0
1001
AUTOCAD_POSTSCRIPT_FIGURE
1002
{
1000
PSFILL
1000
Grayscale
1000
Grayscale
1070
   100
1002
}
  0
LINE
  5
4F26
  8
YODOROGO
 10
27857.604341291921
 20
1900.5683489363
 30
0.0
 11
27889.604341291921
 21
1900.5683489363
 31
0.0
1001
AUTOCAD_POSTSCRIPT_FIGURE
1002
{
1000
PSFILL
1000
Grayscale
1000
Grayscale
1070
   100
1002
}
  0
LINE
  5
4F27
  8
YODOROGO
 10
27857.604341291921
 20
1884.568348936298
 30
0.0
 11
27857.604341291921
 21
1900.5683489363
 31
0.0
1001
AUTOCAD_POSTSCRIPT_FIGURE
1002
{
1000
PSFILL
1000
Grayscale
1000
Grayscale
1070
   100
1002
}
  0
LINE
  5
4F28
  8
YODOROGO
 10
27889.604341291921
 20
1884.568348936298
 30
0.0
 11
27857.604341291921
 21
1884.568348936298
 31
0.0
1001
AUTOCAD_POSTSCRIPT_FIGURE
1002
{
1000
PSFILL
1000
Grayscale
1000
Grayscale
1070
   100
1002
}
  0
LINE
  5
4F29
  8
YODOROGO
 10
27889.604341291921
 20
1879.6191779644371
 30
0.0
 11
27889.604341291921
 21
1884.568348936298
 31
0.0
1001
AUTOCAD_POSTSCRIPT_FIGURE
1002
{
1000
PSFILL
1000
Grayscale
1000
Grayscale
1070
   100
1002
}
  0
LINE
  5
4F2A
  8
YODOROGO
 10
27849.604341291921
 20
1812.974981161417
 30
0.0
 11
27889.604341291921
 21
1879.6191779644371
 31
0.0
1001
AUTOCAD_POSTSCRIPT_FIGURE
1002
{
1000
PSFILL
1000
Grayscale
1000
Grayscale
1070
   100
1002
}
  0
LINE
  5
4F2B
  8
YODOROGO
 10
27849.604341291921
 20
1796.9749811614161
 30
0.0
 11
27849.604341291921
 21
1812.974981161417
 31
0.0
1001
AUTOCAD_POSTSCRIPT_FIGURE
1002
{
1000
PSFILL
1000
Grayscale
1000
Grayscale
1070
   100
1002
}
  0
LINE
  5
4F2C
  8
YODOROGO
 10
27889.604341291921
 20
1847.6191779644359
 30
0.0
 11
27849.604341291921
 21
1796.9749811614161
 31
0.0
1001
AUTOCAD_POSTSCRIPT_FIGURE
1002
{
1000
PSFILL
1000
Grayscale
1000
Grayscale
1070
   100
1002
}
  0
LINE
  5
4F2D
  8
YODOROGO
 10
27889.604341291921
 20
1747.749496429286
 30
0.0
 11
27889.604341291921
 21
1847.6191779644359
 31
0.0
1001
AUTOCAD_POSTSCRIPT_FIGURE
1002
{
1000
PSFILL
1000
Grayscale
1000
Grayscale
1070
   100
1002
}
  0
LINE
  5
4F2E
  8
YODOROGO
 10
27905.604341291921
 20
1747.749496429286
 30
0.0
 11
27889.604341291921
 21
1747.749496429286
 31
0.0
1001
AUTOCAD_POSTSCRIPT_FIGURE
1002
{
1000
PSFILL
1000
Grayscale
1000
Grayscale
1070
   100
1002
}
  0
LINE
  5
4F2F
  8
YODOROGO
 10
27905.604341291921
 20
1849.409012158806
 30
0.0
 11
27905.604341291921
 21
1747.749496429286
 31
0.0
1001
AUTOCAD_POSTSCRIPT_FIGURE
1002
{
1000
PSFILL
1000
Grayscale
1000
Grayscale
1070
   100
1002
}
  0
LINE
  5
4F30
  8
YODOROGO
 10
27937.604341291921
 20
1796.9749811614161
 30
0.0
 11
27905.604341291921
 21
1849.409012158806
 31
0.0
1001
AUTOCAD_POSTSCRIPT_FIGURE
1002
{
1000
PSFILL
1000
Grayscale
1000
Grayscale
1070
   100
1002
}
  0
LINE
  5
4F31
  8
YODOROGO
 10
27937.604341291921
 20
1812.974981161417
 30
0.0
 11
27937.604341291921
 21
1796.9749811614161
 31
0.0
1001
AUTOCAD_POSTSCRIPT_FIGURE
1002
{
1000
PSFILL
1000
Grayscale
1000
Grayscale
1070
   100
1002
}
  0
LINE
  5
4F32
  8
YODOROGO
 10
27905.604341291921
 20
1881.4090121588081
 30
0.0
 11
27937.604341291921
 21
1812.974981161417
 31
0.0
1001
AUTOCAD_POSTSCRIPT_FIGURE
1002
{
1000
PSFILL
1000
Grayscale
1000
Grayscale
1070
   100
1002
}
  0
LINE
  5
4F33
  8
YODOROGO
 10
27905.604341291921
 20
1884.5683489363
 30
0.0
 11
27905.604341291921
 21
1881.4090121588081
 31
0.0
1001
AUTOCAD_POSTSCRIPT_FIGURE
1002
{
1000
PSFILL
1000
Grayscale
1000
Grayscale
1070
   100
1002
}
  0
LINE
  5
4F34
  8
YODOROGO
 10
27937.604341291921
 20
1884.568348936298
 30
0.0
 11
27905.604341291921
 21
1884.5683489363
 31
0.0
1001
AUTOCAD_POSTSCRIPT_FIGURE
1002
{
1000
PSFILL
1000
Grayscale
1000
Grayscale
1070
   100
1002
}
  0
LINE
  5
4F35
  8
YODOROGO
 10
27937.604341291921
 20
1900.5683489363
 30
0.0
 11
27937.604341291921
 21
1884.568348936298
 31
0.0
1001
AUTOCAD_POSTSCRIPT_FIGURE
1002
{
1000
PSFILL
1000
Grayscale
1000
Grayscale
1070
   100
1002
}
  0
LINE
  5
4F36
  8
YODOROGO
 10
27905.604341291921
 20
1900.5683489363
 30
0.0
 11
27937.604341291921
 21
1900.5683489363
 31
0.0
1001
AUTOCAD_POSTSCRIPT_FIGURE
1002
{
1000
PSFILL
1000
Grayscale
1000
Grayscale
1070
   100
1002
}
  0
LINE
  5
4F37
  8
YODOROGO
 10
27905.604341291921
 20
1939.749496429288
 30
0.0
 11
27905.604341291921
 21
1900.5683489363
 31
0.0
1001
AUTOCAD_POSTSCRIPT_FIGURE
1002
{
1000
PSFILL
1000
Grayscale
1000
Grayscale
1070
   100
1002
}
  0
LINE
  5
4F38
  8
YODOROGO
 10
27937.604341291921
 20
1939.749496429288
 30
0.0
 11
27905.604341291921
 21
1939.749496429288
 31
0.0
1001
AUTOCAD_POSTSCRIPT_FIGURE
1002
{
1000
PSFILL
1000
Grayscale
1000
Grayscale
1070
   100
1002
}
  0
LINE
  5
4F39
  8
YODOROGO
 10
27937.604341291921
 20
1955.7494964292871
 30
0.0
 11
27937.604341291921
 21
1939.749496429288
 31
0.0
1001
AUTOCAD_POSTSCRIPT_FIGURE
1002
{
1000
PSFILL
1000
Grayscale
1000
Grayscale
1070
   100
1002
}
  0
LINE
  5
4F3A
  8
YODOROGO
 10
27905.604341291921
 20
1955.7494964292871
 30
0.0
 11
27937.604341291921
 21
1955.7494964292871
 31
0.0
1001
AUTOCAD_POSTSCRIPT_FIGURE
1002
{
1000
PSFILL
1000
Grayscale
1000
Grayscale
1070
   100
1002
}
  0
LINE
  5
4F3B
  8
YODOROGO
 10
27905.604341291921
 20
1979.749496429288
 30
0.0
 11
27905.604341291921
 21
1955.7494964292871
 31
0.0
1001
AUTOCAD_POSTSCRIPT_FIGURE
1002
{
1000
PSFILL
1000
Grayscale
1000
Grayscale
1070
   100
1002
}
  0
LINE
  5
4F3C
  8
YODOROGO
 10
27889.604341291921
 20
1979.749496429288
 30
0.0
 11
27905.604341291921
 21
1979.749496429288
 31
0.0
1001
AUTOCAD_POSTSCRIPT_FIGURE
1002
{
1000
PSFILL
1000
Grayscale
1000
Grayscale
1070
   100
1002
}
  0
LINE
  5
4F3D
  8
YODOROGO
 10
27889.604341291921
 20
1955.7494964292871
 30
0.0
 11
27889.604341291921
 21
1979.749496429288
 31
0.0
1001
AUTOCAD_POSTSCRIPT_FIGURE
1002
{
1000
PSFILL
1000
Grayscale
1000
Grayscale
1070
   100
1002
}
  0
LINE
  5
4F3E
  8
YODOROGO
 10
27865.604341291921
 20
1955.7494964292871
 30
0.0
 11
27889.604341291921
 21
1955.7494964292871
 31
0.0
1001
AUTOCAD_POSTSCRIPT_FIGURE
1002
{
1000
PSFILL
1000
Grayscale
1000
Grayscale
1070
   100
1002
}
  0
LINE
  5
4F3F
  8
YODOROGO
 10
27865.604341291921
 20
1979.749496429288
 30
0.0
 11
27865.604341291921
 21
1955.7494964292871
 31
0.0
1001
AUTOCAD_POSTSCRIPT_FIGURE
1002
{
1000
PSFILL
1000
Grayscale
1000
Grayscale
1070
   100
1002
}
  0
LINE
  5
4F40
  8
YODOROGO
 10
27849.604341291921
 20
1979.749496429288
 30
0.0
 11
27865.604341291921
 21
1979.749496429288
 31
0.0
1001
AUTOCAD_POSTSCRIPT_FIGURE
1002
{
1000
PSFILL
1000
Grayscale
1000
Grayscale
1070
   100
1002
}
  0
LINE
  5
4F41
  8
YODOROGO
 10
27849.604341291921
 20
1955.7494964292871
 30
0.0
 11
27849.604341291921
 21
1979.749496429288
 31
0.0
1001
AUTOCAD_POSTSCRIPT_FIGURE
1002
{
1000
PSFILL
1000
Grayscale
1000
Grayscale
1070
   100
1002
}
  0
LINE
  5
4F42
  8
YODOROGO
 10
27817.604341291921
 20
1955.7494964292871
 30
0.0
 11
27849.604341291921
 21
1955.7494964292871
 31
0.0
1001
AUTOCAD_POSTSCRIPT_FIGURE
1002
{
1000
PSFILL
1000
Grayscale
1000
Grayscale
1070
   100
1002
}
  0
LINE
  5
4F43
  8
YODOROGO
 10
27817.604341291921
 20
1979.749496429288
 30
0.0
 11
27817.604341291921
 21
1955.7494964292871
 31
0.0
1001
AUTOCAD_POSTSCRIPT_FIGURE
1002
{
1000
PSFILL
1000
Grayscale
1000
Grayscale
1070
   100
1002
}
  0
LINE
  5
4F44
  8
YODOROGO
 10
27801.604341291921
 20
1979.749496429288
 30
0.0
 11
27817.604341291921
 21
1979.749496429288
 31
0.0
1001
AUTOCAD_POSTSCRIPT_FIGURE
1002
{
1000
PSFILL
1000
Grayscale
1000
Grayscale
1070
   100
1002
}
  0
LINE
  5
4F45
  8
YODOROGO
 10
27801.604341291921
 20
1955.7494964292871
 30
0.0
 11
27801.604341291921
 21
1979.749496429288
 31
0.0
1001
AUTOCAD_POSTSCRIPT_FIGURE
1002
{
1000
PSFILL
1000
Grayscale
1000
Grayscale
1070
   100
1002
}
  0
LINE
  5
4F46
  8
YODOROGO
 10
27777.604341291921
 20
1955.7494964292871
 30
0.0
 11
27801.604341291921
 21
1955.7494964292871
 31
0.0
1001
AUTOCAD_POSTSCRIPT_FIGURE
1002
{
1000
PSFILL
1000
Grayscale
1000
Grayscale
1070
   100
1002
}
  0
LINE
  5
4F47
  8
YODOROGO
 10
27777.604341291921
 20
1939.749496429288
 30
0.0
 11
27777.604341291921
 21
1955.7494964292871
 31
0.0
1001
AUTOCAD_POSTSCRIPT_FIGURE
1002
{
1000
PSFILL
1000
Grayscale
1000
Grayscale
1070
   100
1002
}
  0
LINE
  5
4F48
  8
YODOROGO
 10
27801.604341291921
 20
1939.749496429288
 30
0.0
 11
27777.604341291921
 21
1939.749496429288
 31
0.0
1001
AUTOCAD_POSTSCRIPT_FIGURE
1002
{
1000
PSFILL
1000
Grayscale
1000
Grayscale
1070
   100
1002
}
  0
LINE
  5
4F49
  8
YODOROGO
 10
27801.604341291921
 20
1914.7865807937051
 30
0.0
 11
27801.604341291921
 21
1939.749496429288
 31
0.0
1001
AUTOCAD_POSTSCRIPT_FIGURE
1002
{
1000
PSFILL
1000
Grayscale
1000
Grayscale
1070
   100
1002
}
  0
LINE
  5
4F4A
  8
YODOROGO
 10
27777.604341291921
 20
1859.776747951671
 30
0.0
 11
27801.604341291921
 21
1914.7865807937051
 31
0.0
1001
AUTOCAD_POSTSCRIPT_FIGURE
1002
{
1000
PSFILL
1000
Grayscale
1000
Grayscale
1070
   100
1002
}
  0
LINE
  5
4F4B
  8
YODOROGO
 10
27777.604341291921
 20
1843.776747951672
 30
0.0
 11
27777.604341291921
 21
1859.776747951671
 31
0.0
1001
AUTOCAD_POSTSCRIPT_FIGURE
1002
{
1000
PSFILL
1000
Grayscale
1000
Grayscale
1070
   100
1002
}
  0
LINE
  5
4F4C
  8
YODOROGO
 10
28257.604341291921
 20
1867.7494964292871
 30
0.0
 11
28401.60434129191
 21
1824.877625640306
 31
0.0
1001
AUTOCAD_POSTSCRIPT_FIGURE
1002
{
1000
PSFILL
1000
Grayscale
1000
Grayscale
1070
   100
1002
}
  0
LINE
  5
4F4D
  8
YODOROGO
 10
28401.60434129191
 20
1752.877625640306
 30
0.0
 11
28257.604341291921
 21
1795.7494964292871
 31
0.0
1001
AUTOCAD_POSTSCRIPT_FIGURE
1002
{
1000
PSFILL
1000
Grayscale
1000
Grayscale
1070
   100
1002
}
  0
LINE
  5
4F4E
  8
YODOROGO
 10
28401.60434129191
 20
1984.877625640306
 30
0.0
 11
28257.604341291921
 21
2027.749496429288
 31
0.0
1001
AUTOCAD_POSTSCRIPT_FIGURE
1002
{
1000
PSFILL
1000
Grayscale
1000
Grayscale
1070
   100
1002
}
  0
LINE
  5
4F4F
  8
YODOROGO
 10
28257.604341291921
 20
1959.749496429288
 30
0.0
 11
28401.60434129191
 21
1916.8776256403071
 31
0.0
1001
AUTOCAD_POSTSCRIPT_FIGURE
1002
{
1000
PSFILL
1000
Grayscale
1000
Grayscale
1070
   100
1002
}
  0
LINE
  5
4F50
  8
YODOROGO
 10
28257.604341291921
 20
1795.7494964292871
 30
0.0
 11
28257.604341291921
 21
1867.7494964292871
 31
0.0
1001
AUTOCAD_POSTSCRIPT_FIGURE
1002
{
1000
PSFILL
1000
Grayscale
1000
Grayscale
1070
   100
1002
}
  0
LINE
  5
4F51
  8
YODOROGO
 10
28257.604341291921
 20
2027.749496429288
 30
0.0
 11
28257.604341291921
 21
1959.749496429288
 31
0.0
1001
AUTOCAD_POSTSCRIPT_FIGURE
1002
{
1000
PSFILL
1000
Grayscale
1000
Grayscale
1070
   100
1002
}
  0
LINE
  5
4F52
  8
YODOROGO
 10
28080.236320206739
 20
1939.749496429288
 30
0.0
 11
28129.60434129191
 21
1747.749496429286
 31
0.0
1001
AUTOCAD_POSTSCRIPT_FIGURE
1002
{
1000
PSFILL
1000
Grayscale
1000
Grayscale
1070
   100
1002
}
  0
LINE
  5
4F53
  8
YODOROGO
 10
27977.604341291921
 20
1939.749496429288
 30
0.0
 11
28080.236320206739
 21
1939.749496429288
 31
0.0
1001
AUTOCAD_POSTSCRIPT_FIGURE
1002
{
1000
PSFILL
1000
Grayscale
1000
Grayscale
1070
   100
1002
}
  0
LINE
  5
4F54
  8
YODOROGO
 10
27977.604341291921
 20
1955.7494964292871
 30
0.0
 11
27977.604341291921
 21
1939.749496429288
 31
0.0
1001
AUTOCAD_POSTSCRIPT_FIGURE
1002
{
1000
PSFILL
1000
Grayscale
1000
Grayscale
1070
   100
1002
}
  0
LINE
  5
4F55
  8
YODOROGO
 10
28076.60687851991
 20
1955.7494964292871
 30
0.0
 11
27977.604341291921
 21
1955.7494964292871
 31
0.0
1001
AUTOCAD_POSTSCRIPT_FIGURE
1002
{
1000
PSFILL
1000
Grayscale
1000
Grayscale
1070
   100
1002
}
  0
LINE
  5
4F56
  8
YODOROGO
 10
28071.162715989711
 20
1979.749496429288
 30
0.0
 11
28076.60687851991
 21
1955.7494964292871
 31
0.0
1001
AUTOCAD_POSTSCRIPT_FIGURE
1002
{
1000
PSFILL
1000
Grayscale
1000
Grayscale
1070
   100
1002
}
  0
LINE
  5
4F57
  8
YODOROGO
 10
28091.162715989711
 20
1979.749496429288
 30
0.0
 11
28071.162715989711
 21
1979.749496429288
 31
0.0
1001
AUTOCAD_POSTSCRIPT_FIGURE
1002
{
1000
PSFILL
1000
Grayscale
1000
Grayscale
1070
   100
1002
}
  0
LINE
  5
4F58
  8
YODOROGO
 10
28095.806878519939
 20
1955.7494964292871
 30
0.0
 11
28091.162715989711
 21
1979.749496429288
 31
0.0
1001
AUTOCAD_POSTSCRIPT_FIGURE
1002
{
1000
PSFILL
1000
Grayscale
1000
Grayscale
1070
   100
1002
}
  0
LINE
  5
4F59
  8
YODOROGO
 10
28121.604341291921
 20
1955.7494964292871
 30
0.0
 11
28095.806878519939
 21
1955.7494964292871
 31
0.0
1001
AUTOCAD_POSTSCRIPT_FIGURE
1002
{
1000
PSFILL
1000
Grayscale
1000
Grayscale
1070
   100
1002
}
  0
LINE
  5
4F5A
  8
YODOROGO
 10
28121.604341291921
 20
1979.749496429288
 30
0.0
 11
28121.604341291921
 21
1955.7494964292871
 31
0.0
1001
AUTOCAD_POSTSCRIPT_FIGURE
1002
{
1000
PSFILL
1000
Grayscale
1000
Grayscale
1070
   100
1002
}
  0
LINE
  5
4F5B
  8
YODOROGO
 10
28137.604341291921
 20
1979.749496429288
 30
0.0
 11
28121.604341291921
 21
1979.749496429288
 31
0.0
1001
AUTOCAD_POSTSCRIPT_FIGURE
1002
{
1000
PSFILL
1000
Grayscale
1000
Grayscale
1070
   100
1002
}
  0
LINE
  5
4F5C
  8
YODOROGO
 10
28137.604341291921
 20
1955.7494964292871
 30
0.0
 11
28137.604341291921
 21
1979.749496429288
 31
0.0
1001
AUTOCAD_POSTSCRIPT_FIGURE
1002
{
1000
PSFILL
1000
Grayscale
1000
Grayscale
1070
   100
1002
}
  0
LINE
  5
4F5D
  8
YODOROGO
 10
28137.604341291921
 20
1939.749496429288
 30
0.0
 11
28137.604341291921
 21
1955.7494964292871
 31
0.0
1001
AUTOCAD_POSTSCRIPT_FIGURE
1002
{
1000
PSFILL
1000
Grayscale
1000
Grayscale
1070
   100
1002
}
  0
LINE
  5
4F5E
  8
YODOROGO
 10
28098.902986873411
 20
1939.749496429288
 30
0.0
 11
28137.604341291921
 21
1939.749496429288
 31
0.0
1001
AUTOCAD_POSTSCRIPT_FIGURE
1002
{
1000
PSFILL
1000
Grayscale
1000
Grayscale
1070
   100
1002
}
  0
LINE
  5
4F5F
  8
YODOROGO
 10
28137.604341291921
 20
1747.749496429286
 30
0.0
 11
28098.902986873411
 21
1939.749496429288
 31
0.0
1001
AUTOCAD_POSTSCRIPT_FIGURE
1002
{
1000
PSFILL
1000
Grayscale
1000
Grayscale
1070
   100
1002
}
  0
LINE
  5
4F60
  8
YODOROGO
 10
28129.60434129191
 20
1747.749496429286
 30
0.0
 11
28137.604341291921
 21
1747.749496429286
 31
0.0
1001
AUTOCAD_POSTSCRIPT_FIGURE
1002
{
1000
PSFILL
1000
Grayscale
1000
Grayscale
1070
   100
1002
}
  0
LINE
  5
4F61
  8
YODOROGO
 10
28078.06921993379
 20
1775.7407762987939
 30
0.0
 11
27977.604341291921
 21
1747.749496429286
 31
0.0
  0
LINE
  5
4F62
  8
YODOROGO
 10
28078.06921993379
 20
1798.6689795290731
 30
0.0
 11
28078.06921993379
 21
1775.7407762987939
 31
0.0
  0
LINE
  5
4F63
  8
YODOROGO
 10
28033.83678061287
 20
1786.816933133767
 30
0.0
 11
28078.06921993379
 21
1798.6689795290731
 31
0.0
  0
LINE
  5
4F64
  8
YODOROGO
 10
28033.83678061287
 20
1872.5683489362989
 30
0.0
 11
28033.83678061287
 21
1786.816933133767
 31
0.0
  0
LINE
  5
4F65
  8
YODOROGO
 10
28078.06921993379
 20
1872.5683489362989
 30
0.0
 11
28033.83678061287
 21
1872.5683489362989
 31
0.0
  0
LINE
  5
4F66
  8
YODOROGO
 10
28078.06921993379
 20
1892.568348936298
 30
0.0
 11
28078.06921993379
 21
1872.5683489362989
 31
0.0
  0
LINE
  5
4F67
  8
YODOROGO
 10
27977.604341291921
 20
1892.568348936298
 30
0.0
 11
28078.06921993379
 21
1892.568348936298
 31
0.0
  0
LINE
  5
4F68
  8
YODOROGO
 10
27977.604341291921
 20
1872.5683489362989
 30
0.0
 11
27977.604341291921
 21
1892.568348936298
 31
0.0
  0
LINE
  5
4F69
  8
YODOROGO
 10
28021.836780612852
 20
1872.5683489362989
 30
0.0
 11
27977.604341291921
 21
1872.5683489362989
 31
0.0
  0
LINE
  5
4F6A
  8
YODOROGO
 10
28021.836780612852
 20
1784.673339594317
 30
0.0
 11
28021.836780612852
 21
1872.5683489362989
 31
0.0
  0
LINE
  5
4F6B
  8
YODOROGO
 10
27977.604341291921
 20
1771.749496429286
 30
0.0
 11
28021.836780612852
 21
1784.673339594317
 31
0.0
  0
LINE
  5
4F6C
  8
YODOROGO
 10
27977.604341291921
 20
1747.749496429286
 30
0.0
 11
27977.604341291921
 21
1771.749496429286
 31
0.0
  0
LINE
  5
4F6D
  8
YODOROGO
 10
28001.604341291921
 20
1707.749496429288
 30
0.0
 11
28001.604341291921
 21
1683.7494964292871
 31
0.0
  0
LINE
  5
4F6E
  8
YODOROGO
 10
28017.604341291921
 20
1707.749496429288
 30
0.0
 11
28001.604341291921
 21
1707.749496429288
 31
0.0
  0
LINE
  5
4F6F
  8
YODOROGO
 10
28017.604341291921
 20
1683.7494964292871
 30
0.0
 11
28017.604341291921
 21
1707.749496429288
 31
0.0
  0
LINE
  5
4F70
  8
YODOROGO
 10
28040.913204016892
 20
1683.7494964292871
 30
0.0
 11
28017.604341291921
 21
1683.7494964292871
 31
0.0
  0
LINE
  5
4F71
  8
YODOROGO
 10
28001.604341291921
 20
1683.7494964292871
 30
0.0
 11
27977.604341291921
 21
1683.7494964292871
 31
0.0
  0
LINE
  5
4F72
  8
YODOROGO
 10
28082.135520230921
 20
1707.749496429288
 30
0.0
 11
28098.135520230931
 21
1707.749496429288
 31
0.0
1001
AUTOCAD_POSTSCRIPT_FIGURE
1002
{
1000
PSFILL
1000
Grayscale
1000
Grayscale
1070
   100
1002
}
  0
LINE
  5
4F73
  8
YODOROGO
 10
28401.60434129191
 20
1824.877625640306
 30
0.0
 11
28401.60434129191
 21
1752.877625640306
 31
0.0
1001
AUTOCAD_POSTSCRIPT_FIGURE
1002
{
1000
PSFILL
1000
Grayscale
1000
Grayscale
1070
   100
1002
}
  0
LINE
  5
4F74
  8
YODOROGO
 10
28401.60434129191
 20
1916.8776256403071
 30
0.0
 11
28401.60434129191
 21
1984.877625640306
 31
0.0
1001
AUTOCAD_POSTSCRIPT_FIGURE
1002
{
1000
PSFILL
1000
Grayscale
1000
Grayscale
1070
   100
1002
}
  0
LINE
  5
4F75
  8
YODOROGO
 10
28433.60434129191
 20
1819.7494964292871
 30
0.0
 11
28433.60434129191
 21
1747.74949642929
 31
0.0
  0
LINE
  5
4F76
  8
YODOROGO
 10
28497.60434129191
 20
1707.749496429288
 30
0.0
 11
28433.60434129191
 21
1707.749496429288
 31
0.0
  0
LINE
  5
4F77
  8
YODOROGO
 10
28433.60434129191
 20
1747.74949642929
 30
0.0
 11
28585.604341291921
 21
1747.74949642929
 31
0.0
  0
LINE
  5
4F78
  8
YODOROGO
 10
28497.60434129191
 20
1867.7494964292871
 30
0.0
 11
28433.60434129191
 21
1867.7494964292871
 31
0.0
  0
LINE
  5
4F79
  8
YODOROGO
 10
28497.60434129191
 20
1923.7494964292871
 30
0.0
 11
28497.60434129191
 21
1867.7494964292871
 31
0.0
  0
LINE
  5
4F7A
  8
YODOROGO
 10
28585.604341291921
 20
1987.7494964292871
 30
0.0
 11
28585.604341291921
 21
2027.749496429288
 31
0.0
  0
LINE
  5
4F7B
  8
YODOROGO
 10
28433.60434129191
 20
1987.7494964292871
 30
0.0
 11
28585.604341291921
 21
1987.7494964292871
 31
0.0
  0
LINE
  5
4F7C
  8
YODOROGO
 10
28433.60434129191
 20
1867.7494964292871
 30
0.0
 11
28433.60434129191
 21
1987.7494964292871
 31
0.0
  0
LINE
  5
4F7D
  8
YODOROGO
 10
29001.60434129191
 20
2027.749496429288
 30
0.0
 11
29001.60434129191
 21
1619.749496429288
 31
0.0
  0
LINE
  5
4F7E
  8
YODOROGO
 10
29073.604341291921
 20
1579.749496429288
 30
0.0
 11
29073.604341291921
 21
2027.749496429288
 31
0.0
  0
LINE
  5
4F7F
  8
YODOROGO
 10
29261.604341291921
 20
1491.749496429286
 30
0.0
 11
29261.604341291921
 21
2007.749496429288
 31
0.0
  0
LINE
  5
4F80
  8
YODOROGO
 10
29197.604341291921
 20
2007.749496429288
 30
0.0
 11
29197.604341291921
 21
1491.749496429286
 31
0.0
  0
LINE
  5
4F81
  8
YODOROGO
 10
29385.604341291921
 20
2027.749496429288
 30
0.0
 11
29385.604341291921
 21
1427.749496429288
 31
0.0
  0
LINE
  5
4F82
  8
YODOROGO
 10
29457.604341291921
 20
1427.749496429288
 30
0.0
 11
29457.604341291921
 21
2027.749496429288
 31
0.0
  0
LINE
  5
4F83
  8
YODOROGO
 10
28657.604341291921
 20
1667.749496429288
 30
0.0
 11
28657.604341291921
 21
1747.74949642929
 31
0.0
  0
LINE
  5
4F84
  8
YODOROGO
 10
29885.604341291921
 20
1707.749496429288
 30
0.0
 11
29885.604341291921
 21
1667.749496429288
 31
0.0
  0
LINE
  5
4F85
  8
YODOROGO
 10
29885.604341291921
 20
1707.749496429288
 30
0.0
 11
29885.604341291921
 21
1667.749496429288
 31
0.0
  0
ARC
  5
4F86
  8
YODOROGO
 10
28906.911576186842
 20
1618.217864442272
 30
0.0
 40
94.705151178741644
 50
274.05244162907098
 51
0.9266642149310712
  0
ARC
  5
4F87
  8
YODOROGO
 10
28909.186170719819
 20
1592.61072861044
 30
0.0
 40
164.92042356085511
 50
271.5351210653775
 51
355.52727750585052
  0
LINE
  5
4F88
  8
YODOROGO
 10
28913.604341291921
 20
1523.7494964292871
 30
0.0
 11
28913.604341291921
 21
1427.749496429288
 31
0.0
  0
LINE
  5
4F89
  8
YODOROGO
 10
28793.60434129191
 20
1667.749496429288
 30
0.0
 11
28657.604341291921
 21
1667.749496429288
 31
0.0
  0
LINE
  5
4F8A
  8
YODOROGO
 10
28793.60434129191
 20
1603.7494964292871
 30
0.0
 11
28793.60434129191
 21
1667.749496429288
 31
0.0
  0
LINE
  5
4F8B
  8
YODOROGO
 10
28657.604341291921
 20
1603.7494964292871
 30
0.0
 11
28793.60434129191
 21
1603.7494964292871
 31
0.0
  0
LINE
  5
4F8C
  8
YODOROGO
 10
28657.604341291921
 20
1523.7494964292871
 30
0.0
 11
28657.604341291921
 21
1603.7494964292871
 31
0.0
  0
LINE
  5
4F8D
  8
YODOROGO
 10
28793.60434129191
 20
1523.7494964292871
 30
0.0
 11
28657.604341291921
 21
1523.7494964292871
 31
0.0
  0
LINE
  5
4F8E
  8
YODOROGO
 10
28793.60434129191
 20
1427.749496429288
 30
0.0
 11
28793.60434129191
 21
1523.7494964292871
 31
0.0
  0
LINE
  5
4F8F
  8
YODOROGO
 10
29197.604341291921
 20
1491.749496429286
 30
0.0
 11
29261.604341291921
 21
1491.749496429286
 31
0.0
  0
LINE
  5
4F90
  8
YODOROGO
 10
29385.604341291921
 20
1427.749496429288
 30
0.0
 11
29457.604341291921
 21
1427.749496429288
 31
0.0
  0
LINE
  5
4F91
  8
YODOROGO
 10
29737.604341291921
 20
1528.4414521705639
 30
0.0
 11
29737.604341291921
 21
1427.749496429288
 31
0.0
  0
LINE
  5
4F92
  8
YODOROGO
 10
29617.604341291921
 20
1427.749496429288
 30
0.0
 11
29737.604341291921
 21
1528.4414521705639
 31
0.0
  0
LINE
  5
4F93
  8
YODOROGO
 10
29617.604341291921
 20
1547.749496429288
 30
0.0
 11
29617.604341291921
 21
1427.749496429288
 31
0.0
  0
LINE
  5
4F94
  8
YODOROGO
 10
29712.94462869945
 20
1627.749496429288
 30
0.0
 11
29617.604341291921
 21
1547.749496429288
 31
0.0
  0
LINE
  5
4F95
  8
YODOROGO
 10
29617.604341291921
 20
1627.749496429288
 30
0.0
 11
29712.94462869945
 21
1627.749496429288
 31
0.0
  0
LINE
  5
4F96
  8
YODOROGO
 10
29617.604341291921
 20
1667.749496429288
 30
0.0
 11
29617.604341291921
 21
1627.749496429288
 31
0.0
  0
LINE
  5
4F97
  8
YODOROGO
 10
29885.604341291921
 20
1667.749496429288
 30
0.0
 11
29617.604341291921
 21
1667.749496429288
 31
0.0
  0
LINE
  5
4F98
  8
YODOROGO
 10
29917.604341291921
 20
1627.749496429288
 30
0.0
 11
29777.604341291921
 21
1627.749496429288
 31
0.0
  0
LINE
  5
4F99
  8
YODOROGO
 10
29777.604341291921
 20
1562.0054374176559
 30
0.0
 11
29771.409872985321
 21
1556.807661346234
 31
0.0
  0
LINE
  5
4F9A
  8
YODOROGO
 10
29777.604341291921
 20
1627.749496429288
 30
0.0
 11
29777.604341291921
 21
1562.0054374176559
 31
0.0
  0
LINE
  5
4F9B
  8
YODOROGO
 10
29737.604341291921
 20
1528.4414521705639
 30
0.0
 11
29737.604341291921
 21
1427.749496429288
 31
0.0
  0
LINE
  5
4F9C
  8
YODOROGO
 10
29617.604341291921
 20
1427.749496429288
 30
0.0
 11
29737.604341291921
 21
1528.4414521705639
 31
0.0
  0
LINE
  5
4F9D
  8
YODOROGO
 10
29617.604341291921
 20
1547.749496429288
 30
0.0
 11
29617.604341291921
 21
1427.749496429288
 31
0.0
  0
LINE
  5
4F9E
  8
YODOROGO
 10
29712.94462869945
 20
1627.749496429288
 30
0.0
 11
29617.604341291921
 21
1547.749496429288
 31
0.0
  0
LINE
  5
4F9F
  8
YODOROGO
 10
29617.604341291921
 20
1627.749496429288
 30
0.0
 11
29712.94462869945
 21
1627.749496429288
 31
0.0
  0
LINE
  5
4FA0
  8
YODOROGO
 10
29617.604341291921
 20
1667.749496429288
 30
0.0
 11
29617.604341291921
 21
1627.749496429288
 31
0.0
  0
LINE
  5
4FA1
  8
YODOROGO
 10
29885.604341291921
 20
1667.749496429288
 30
0.0
 11
29617.604341291921
 21
1667.749496429288
 31
0.0
  0
LINE
  5
4FA2
  8
YODOROGO
 10
28793.60434129191
 20
1747.74949642929
 30
0.0
 11
28793.60434129191
 21
1819.7494964292871
 31
0.0
  0
LINE
  5
4FA3
  8
YODOROGO
 10
28657.604341291921
 20
1747.74949642929
 30
0.0
 11
28793.60434129191
 21
1747.74949642929
 31
0.0
  0
LINE
  5
4FA4
  8
YODOROGO
 10
28729.604341291921
 20
1867.7494964292871
 30
0.0
 11
28729.604341291921
 21
1923.7494964292871
 31
0.0
  0
LINE
  5
4FA5
  8
YODOROGO
 10
28793.60434129191
 20
1867.7494964292871
 30
0.0
 11
28729.604341291921
 21
1867.7494964292871
 31
0.0
  0
LINE
  5
4FA6
  8
YODOROGO
 10
28793.60434129191
 20
1947.749496429288
 30
0.0
 11
28793.60434129191
 21
1867.7494964292871
 31
0.0
  0
ARC
  5
4FA7
  8
YODOROGO
 10
28753.60434129191
 20
1947.749496429288
 30
0.0
 40
40.0
 50
0.0
 51
90.0
  0
LINE
  5
4FA8
  8
YODOROGO
 10
28657.604341291921
 20
1987.7494964292871
 30
0.0
 11
28753.60434129191
 21
1987.7494964292871
 31
0.0
  0
LINE
  5
4FA9
  8
YODOROGO
 10
28657.604341291921
 20
2027.749496429288
 30
0.0
 11
28657.604341291921
 21
1987.7494964292871
 31
0.0
  0
LINE
  5
4FAA
  8
YODOROGO
 10
29073.604341291921
 20
2027.749496429288
 30
0.0
 11
29001.60434129191
 21
2027.749496429288
 31
0.0
  0
LINE
  5
4FAB
  8
YODOROGO
 10
29261.604341291921
 20
2007.749496429288
 30
0.0
 11
29197.604341291921
 21
2007.749496429288
 31
0.0
  0
LINE
  5
4FAC
  8
YODOROGO
 10
29457.604341291921
 20
2027.749496429288
 30
0.0
 11
29385.604341291921
 21
2027.749496429288
 31
0.0
  0
LINE
  5
4FAD
  8
YODOROGO
 10
29673.604341291921
 20
1707.749496429288
 30
0.0
 11
29673.604341291921
 21
1771.7494964292871
 31
0.0
1001
AUTOCAD_POSTSCRIPT_FIGURE
1002
{
1000
PSFILL
1000
Grayscale
1000
Grayscale
1070
    25
1002
}
  0
LINE
  5
4FAE
  8
YODOROGO
 10
29617.604341291921
 20
1707.749496429288
 30
0.0
 11
29673.604341291921
 21
1707.749496429288
 31
0.0
1001
AUTOCAD_POSTSCRIPT_FIGURE
1002
{
1000
PSFILL
1000
Grayscale
1000
Grayscale
1070
    25
1002
}
  0
LINE
  5
4FAF
  8
YODOROGO
 10
29617.604341291921
 20
1819.7494964292871
 30
0.0
 11
29617.604341291921
 21
1707.749496429288
 31
0.0
1001
AUTOCAD_POSTSCRIPT_FIGURE
1002
{
1000
PSFILL
1000
Grayscale
1000
Grayscale
1070
    25
1002
}
  0
LINE
  5
4FB0
  8
YODOROGO
 10
29765.604341291921
 20
1819.7494964292871
 30
0.0
 11
29617.604341291921
 21
1819.7494964292871
 31
0.0
1001
AUTOCAD_POSTSCRIPT_FIGURE
1002
{
1000
PSFILL
1000
Grayscale
1000
Grayscale
1070
    25
1002
}
  0
LINE
  5
4FB1
  8
YODOROGO
 10
29765.604341291921
 20
1859.749496429288
 30
0.0
 11
29765.604341291921
 21
1819.7494964292871
 31
0.0
1001
AUTOCAD_POSTSCRIPT_FIGURE
1002
{
1000
PSFILL
1000
Grayscale
1000
Grayscale
1070
    25
1002
}
  0
LINE
  5
4FB2
  8
YODOROGO
 10
29617.604341291921
 20
1859.749496429288
 30
0.0
 11
29765.604341291921
 21
1859.749496429288
 31
0.0
1001
AUTOCAD_POSTSCRIPT_FIGURE
1002
{
1000
PSFILL
1000
Grayscale
1000
Grayscale
1070
    25
1002
}
  0
LINE
  5
4FB3
  8
YODOROGO
 10
29617.604341291921
 20
1907.7494964292871
 30
0.0
 11
29617.604341291921
 21
1859.749496429288
 31
0.0
1001
AUTOCAD_POSTSCRIPT_FIGURE
1002
{
1000
PSFILL
1000
Grayscale
1000
Grayscale
1070
    25
1002
}
  0
LINE
  5
4FB4
  8
YODOROGO
 10
29765.604341291921
 20
1907.7494964292871
 30
0.0
 11
29617.604341291921
 21
1907.7494964292871
 31
0.0
1001
AUTOCAD_POSTSCRIPT_FIGURE
1002
{
1000
PSFILL
1000
Grayscale
1000
Grayscale
1070
    25
1002
}
  0
LINE
  5
4FB5
  8
YODOROGO
 10
29765.604341291921
 20
1947.749496429288
 30
0.0
 11
29765.604341291921
 21
1907.7494964292871
 31
0.0
1001
AUTOCAD_POSTSCRIPT_FIGURE
1002
{
1000
PSFILL
1000
Grayscale
1000
Grayscale
1070
    25
1002
}
  0
LINE
  5
4FB6
  8
YODOROGO
 10
29617.604341291921
 20
1947.749496429288
 30
0.0
 11
29765.604341291921
 21
1947.749496429288
 31
0.0
1001
AUTOCAD_POSTSCRIPT_FIGURE
1002
{
1000
PSFILL
1000
Grayscale
1000
Grayscale
1070
    25
1002
}
  0
LINE
  5
4FB7
  8
YODOROGO
 10
29617.604341291921
 20
2027.749496429288
 30
0.0
 11
29617.604341291921
 21
1947.749496429288
 31
0.0
1001
AUTOCAD_POSTSCRIPT_FIGURE
1002
{
1000
PSFILL
1000
Grayscale
1000
Grayscale
1070
    25
1002
}
  0
LINE
  5
4FB8
  8
YODOROGO
 10
29665.604341291921
 20
2027.749496429288
 30
0.0
 11
29617.604341291921
 21
2027.749496429288
 31
0.0
1001
AUTOCAD_POSTSCRIPT_FIGURE
1002
{
1000
PSFILL
1000
Grayscale
1000
Grayscale
1070
    25
1002
}
  0
LINE
  5
4FB9
  8
YODOROGO
 10
29665.604341291921
 20
1995.7494964292871
 30
0.0
 11
29665.604341291921
 21
2027.749496429288
 31
0.0
1001
AUTOCAD_POSTSCRIPT_FIGURE
1002
{
1000
PSFILL
1000
Grayscale
1000
Grayscale
1070
    25
1002
}
  0
LINE
  5
4FBA
  8
YODOROGO
 10
29765.604341291921
 20
1995.7494964292871
 30
0.0
 11
29665.604341291921
 21
1995.7494964292871
 31
0.0
1001
AUTOCAD_POSTSCRIPT_FIGURE
1002
{
1000
PSFILL
1000
Grayscale
1000
Grayscale
1070
    25
1002
}
  0
LINE
  5
4FBB
  8
YODOROGO
 10
29765.604341291921
 20
2027.749496429288
 30
0.0
 11
29765.604341291921
 21
1995.7494964292871
 31
0.0
1001
AUTOCAD_POSTSCRIPT_FIGURE
1002
{
1000
PSFILL
1000
Grayscale
1000
Grayscale
1070
    25
1002
}
  0
LINE
  5
4FBC
  8
YODOROGO
 10
29829.604341291921
 20
2027.749496429288
 30
0.0
 11
29765.604341291921
 21
2027.749496429288
 31
0.0
1001
AUTOCAD_POSTSCRIPT_FIGURE
1002
{
1000
PSFILL
1000
Grayscale
1000
Grayscale
1070
    25
1002
}
  0
LINE
  5
4FBD
  8
YODOROGO
 10
29829.604341291921
 20
1995.7494964292871
 30
0.0
 11
29829.604341291921
 21
2027.749496429288
 31
0.0
1001
AUTOCAD_POSTSCRIPT_FIGURE
1002
{
1000
PSFILL
1000
Grayscale
1000
Grayscale
1070
    25
1002
}
  0
LINE
  5
4FBE
  8
YODOROGO
 10
29829.604341291921
 20
1907.7494964292871
 30
0.0
 11
29829.604341291921
 21
1947.749496429288
 31
0.0
1001
AUTOCAD_POSTSCRIPT_FIGURE
1002
{
1000
PSFILL
1000
Grayscale
1000
Grayscale
1070
    25
1002
}
  0
LINE
  5
4FBF
  8
YODOROGO
 10
29829.604341291921
 20
1819.7494964292871
 30
0.0
 11
29829.604341291921
 21
1859.749496429288
 31
0.0
1001
AUTOCAD_POSTSCRIPT_FIGURE
1002
{
1000
PSFILL
1000
Grayscale
1000
Grayscale
1070
    25
1002
}
  0
LINE
  5
4FC0
  8
YODOROGO
 10
29921.60434129191
 20
1771.7494964292871
 30
0.0
 11
29921.60434129191
 21
1707.749496429288
 31
0.0
1001
AUTOCAD_POSTSCRIPT_FIGURE
1002
{
1000
PSFILL
1000
Grayscale
1000
Grayscale
1070
    25
1002
}
  0
LINE
  5
4FC1
  8
YODOROGO
 10
29829.604341291921
 20
1771.7494964292871
 30
0.0
 11
29921.60434129191
 21
1771.7494964292871
 31
0.0
1001
AUTOCAD_POSTSCRIPT_FIGURE
1002
{
1000
PSFILL
1000
Grayscale
1000
Grayscale
1070
    25
1002
}
  0
LINE
  5
4FC2
  8
YODOROGO
 10
29829.604341291921
 20
1707.749496429288
 30
0.0
 11
29829.604341291921
 21
1771.7494964292871
 31
0.0
1001
AUTOCAD_POSTSCRIPT_FIGURE
1002
{
1000
PSFILL
1000
Grayscale
1000
Grayscale
1070
    25
1002
}
  0
LINE
  5
4FC3
  8
YODOROGO
 10
29765.604341291921
 20
1707.749496429288
 30
0.0
 11
29829.604341291921
 21
1707.749496429288
 31
0.0
1001
AUTOCAD_POSTSCRIPT_FIGURE
1002
{
1000
PSFILL
1000
Grayscale
1000
Grayscale
1070
    25
1002
}
  0
LINE
  5
4FC4
  8
YODOROGO
 10
29765.604341291921
 20
1771.7494964292871
 30
0.0
 11
29765.604341291921
 21
1707.749496429288
 31
0.0
1001
AUTOCAD_POSTSCRIPT_FIGURE
1002
{
1000
PSFILL
1000
Grayscale
1000
Grayscale
1070
    25
1002
}
  0
LINE
  5
4FC5
  8
YODOROGO
 10
29673.604341291921
 20
1771.7494964292871
 30
0.0
 11
29765.604341291921
 21
1771.7494964292871
 31
0.0
1001
AUTOCAD_POSTSCRIPT_FIGURE
1002
{
1000
PSFILL
1000
Grayscale
1000
Grayscale
1070
    25
1002
}
  0
ARC
  5
4FC6
  8
YODOROGO
 10
31059.517893357912
 20
1602.6807375155761
 30
0.0
 40
178.22128111072141
 50
281.02627495425338
 51
357.77113575573799
  0
LINE
  5
4FC7
  8
YODOROGO
 10
31413.604341291921
 20
1907.7494964292871
 30
0.0
 11
31165.604341291921
 21
1907.7494964292871
 31
0.0
  0
LINE
  5
4FC8
  8
YODOROGO
 10
31413.604341291921
 20
2027.749496429288
 30
0.0
 11
31165.604341291921
 21
2027.749496429288
 31
0.0
  0
LINE
  5
4FC9
  8
YODOROGO
 10
31165.604341291921
 20
1963.749496429286
 30
0.0
 11
31413.604341291921
 21
1963.749496429286
 31
0.0
  0
LINE
  5
4FCA
  8
YODOROGO
 10
30791.604341291921
 20
1563.7494964292871
 30
0.0
 11
30791.604341291921
 21
1755.7494964292871
 31
0.0
  0
LINE
  5
4FCB
  8
YODOROGO
 10
30763.604341291921
 20
1691.749496429288
 30
0.0
 11
30763.604341291921
 21
1563.7494964292871
 31
0.0
  0
LINE
  5
4FCC
  8
YODOROGO
 10
30723.604341291921
 20
1491.749496429288
 30
0.0
 11
30723.604341291921
 21
1691.749496429288
 31
0.0
  0
LINE
  5
4FCD
  8
YODOROGO
 10
30899.604341291932
 20
1691.749496429288
 30
0.0
 11
30899.604341291932
 21
1491.749496429288
 31
0.0
  0
LINE
  5
4FCE
  8
YODOROGO
 10
30859.604341291932
 20
1563.7494964292871
 30
0.0
 11
30859.604341291932
 21
1691.749496429288
 31
0.0
  0
LINE
  5
4FCF
  8
YODOROGO
 10
30831.604341291921
 20
1755.7494964292871
 30
0.0
 11
30831.604341291921
 21
1563.7494964292871
 31
0.0
  0
LINE
  5
4FD0
  8
YODOROGO
 10
30973.604341291921
 20
2027.749496429288
 30
0.0
 11
30973.604341291921
 21
1467.749496429288
 31
0.0
  0
LINE
  5
4FD1
  8
YODOROGO
 10
30645.604341291921
 20
1427.749496429288
 30
0.0
 11
30645.604341291921
 21
2027.749496429288
 31
0.0
  0
LINE
  5
4FD2
  8
YODOROGO
 10
30697.604341291932
 20
1963.749496429286
 30
0.0
 11
30697.604341291932
 21
1427.749496429288
 31
0.0
  0
LINE
  5
4FD3
  8
YODOROGO
 10
30925.604341291921
 20
1547.749496429288
 30
0.0
 11
30925.604341291921
 21
1963.749496429286
 31
0.0
  0
LINE
  5
4FD4
  8
YODOROGO
 10
30381.604341291932
 20
1627.749496429288
 30
0.0
 11
30381.604341291932
 21
1679.749496429288
 31
0.0
  0
LINE
  5
4FD5
  8
YODOROGO
 10
30617.604341291921
 20
1679.749496429288
 30
0.0
 11
30617.604341291921
 21
1627.749496429288
 31
0.0
  0
LINE
  5
4FD6
  8
YODOROGO
 10
31165.604341291921
 20
1907.7494964292871
 30
0.0
 11
31165.604341291921
 21
1635.7494964292871
 31
0.0
  0
LINE
  5
4FD7
  8
YODOROGO
 10
29949.60434129191
 20
1667.749496429288
 30
0.0
 11
29949.60434129191
 21
1707.749496429288
 31
0.0
  0
LINE
  5
4FD8
  8
YODOROGO
 10
29949.60434129191
 20
1667.749496429288
 30
0.0
 11
29949.60434129191
 21
1707.749496429288
 31
0.0
  0
ARC
  5
4FD9
  8
YODOROGO
 10
30537.604341291921
 20
1507.749496429288
 30
0.0
 40
80.0
 50
270.0
 51
0.0
  0
LINE
  5
4FDA
  8
YODOROGO
 10
30569.604341291921
 20
1599.7494964292871
 30
0.0
 11
30617.604341291921
 21
1599.7494964292871
 31
0.0
  0
LINE
  5
4FDB
  8
YODOROGO
 10
30617.604341291921
 20
1627.749496429288
 30
0.0
 11
30529.604341291939
 21
1627.749496429288
 31
0.0
  0
LINE
  5
4FDC
  8
YODOROGO
 10
30217.604341291921
 20
1667.749496429288
 30
0.0
 11
29949.60434129191
 21
1667.749496429288
 31
0.0
  0
LINE
  5
4FDD
  8
YODOROGO
 10
30217.604341291921
 20
1627.749496429288
 30
0.0
 11
30217.604341291921
 21
1667.749496429288
 31
0.0
  0
LINE
  5
4FDE
  8
YODOROGO
 10
30017.604341291921
 20
1627.749496429288
 30
0.0
 11
30217.604341291921
 21
1627.749496429288
 31
0.0
  0
ARC
  5
4FDF
  8
YODOROGO
 10
30230.05882870136
 20
1868.885714952901
 30
0.0
 40
321.37763628522822
 50
228.6181454618993
 51
245.660289248906
  0
LINE
  5
4FE0
  8
YODOROGO
 10
30105.604341291921
 20
1603.7494964292871
 30
0.0
 11
30097.60434129195
 21
1576.0728158699001
 31
0.0
  0
LINE
  5
4FE1
  8
YODOROGO
 10
30189.604341291921
 20
1603.7494964292871
 30
0.0
 11
30105.604341291921
 21
1603.7494964292871
 31
0.0
  0
LINE
  5
4FE2
  8
YODOROGO
 10
30177.604341291921
 20
1551.817722473427
 30
0.0
 11
30189.604341291921
 21
1603.7494964292871
 31
0.0
  0
ARC
  5
4FE3
  8
YODOROGO
 10
30230.05882870045
 20
1868.885714953002
 30
0.0
 40
321.37763628529081
 50
260.60629297969911
 51
267.77903556555862
  0
LINE
  5
4FE4
  8
YODOROGO
 10
30217.604341291921
 20
1427.749496429285
 30
0.0
 11
30217.604341291921
 21
1547.749496429288
 31
0.0
  0
LINE
  5
4FE5
  8
YODOROGO
 10
29937.604341291932
 20
1481.3393349155101
 30
0.0
 11
29937.604341291921
 21
1594.531090531141
 31
0.0
  0
LINE
  5
4FE6
  8
YODOROGO
 10
30217.604341291921
 20
1667.749496429288
 30
0.0
 11
29949.60434129191
 21
1667.749496429288
 31
0.0
  0
LINE
  5
4FE7
  8
YODOROGO
 10
30217.604341291921
 20
1627.749496429288
 30
0.0
 11
30217.604341291921
 21
1667.749496429288
 31
0.0
  0
LINE
  5
4FE8
  8
YODOROGO
 10
30017.604341291921
 20
1627.749496429288
 30
0.0
 11
30217.604341291921
 21
1627.749496429288
 31
0.0
  0
ARC
  5
4FE9
  8
YODOROGO
 10
30230.05882870136
 20
1868.885714952901
 30
0.0
 40
321.37763628522822
 50
228.6181454618993
 51
245.660289248906
  0
LINE
  5
4FEA
  8
YODOROGO
 10
30105.604341291921
 20
1603.7494964292871
 30
0.0
 11
30097.60434129195
 21
1576.0728158699001
 31
0.0
  0
LINE
  5
4FEB
  8
YODOROGO
 10
30189.604341291921
 20
1603.7494964292871
 30
0.0
 11
30105.604341291921
 21
1603.7494964292871
 31
0.0
  0
LINE
  5
4FEC
  8
YODOROGO
 10
30177.604341291921
 20
1551.817722473427
 30
0.0
 11
30189.604341291921
 21
1603.7494964292871
 31
0.0
  0
ARC
  5
4FED
  8
YODOROGO
 10
30230.05882870045
 20
1868.885714953002
 30
0.0
 40
321.37763628529081
 50
260.60629297969911
 51
267.77903556555862
  0
LINE
  5
4FEE
  8
YODOROGO
 10
30217.604341291921
 20
1427.749496429285
 30
0.0
 11
30217.604341291921
 21
1547.749496429288
 31
0.0
  0
LINE
  5
4FEF
  8
YODOROGO
 10
29937.604341291932
 20
1481.3393349155101
 30
0.0
 11
29937.604341291921
 21
1594.531090531141
 31
0.0
  0
LINE
  5
4FF0
  8
YODOROGO
 10
30433.604341291921
 20
1573.749496429288
 30
0.0
 11
30381.604341291932
 21
1573.749496429288
 31
0.0
  0
LINE
  5
4FF1
  8
YODOROGO
 10
30433.604341291921
 20
1601.749496429285
 30
0.0
 11
30433.604341291921
 21
1573.749496429288
 31
0.0
  0
LINE
  5
4FF2
  8
YODOROGO
 10
30381.604341291932
 20
1601.749496429285
 30
0.0
 11
30433.604341291921
 21
1601.749496429285
 31
0.0
  0
LINE
  5
4FF3
  8
YODOROGO
 10
30381.604341291932
 20
1573.749496429288
 30
0.0
 11
30381.604341291932
 21
1601.749496429285
 31
0.0
  0
LINE
  5
4FF4
  8
YODOROGO
 10
30429.604341291921
 20
1577.7494964292871
 30
0.0
 11
30385.604341291921
 21
1577.7494964292871
 31
0.0
  0
LINE
  5
4FF5
  8
YODOROGO
 10
30429.604341291921
 20
1597.749496429288
 30
0.0
 11
30429.604341291921
 21
1577.7494964292871
 31
0.0
  0
LINE
  5
4FF6
  8
YODOROGO
 10
30385.604341291921
 20
1597.749496429288
 30
0.0
 11
30429.604341291921
 21
1597.749496429288
 31
0.0
  0
LINE
  5
4FF7
  8
YODOROGO
 10
30385.604341291921
 20
1577.7494964292871
 30
0.0
 11
30385.604341291921
 21
1597.749496429288
 31
0.0
  0
LINE
  5
4FF8
  8
YODOROGO
 10
30425.604341291921
 20
1581.749496429286
 30
0.0
 11
30389.604341291921
 21
1581.749496429286
 31
0.0
  0
LINE
  5
4FF9
  8
YODOROGO
 10
30425.604341291921
 20
1593.749496429288
 30
0.0
 11
30425.604341291921
 21
1581.749496429286
 31
0.0
  0
LINE
  5
4FFA
  8
YODOROGO
 10
30389.604341291921
 20
1593.749496429288
 30
0.0
 11
30425.604341291921
 21
1593.749496429288
 31
0.0
  0
LINE
  5
4FFB
  8
YODOROGO
 10
30389.604341291921
 20
1581.749496429286
 30
0.0
 11
30389.604341291921
 21
1593.749496429288
 31
0.0
  0
LINE
  5
4FFC
  8
YODOROGO
 10
30421.604341291932
 20
1585.7494964292871
 30
0.0
 11
30393.604341291921
 21
1585.7494964292871
 31
0.0
  0
LINE
  5
4FFD
  8
YODOROGO
 10
30421.604341291932
 20
1589.749496429288
 30
0.0
 11
30421.604341291932
 21
1585.7494964292871
 31
0.0
  0
LINE
  5
4FFE
  8
YODOROGO
 10
30393.604341291921
 20
1589.749496429288
 30
0.0
 11
30421.604341291932
 21
1589.749496429288
 31
0.0
  0
LINE
  5
4FFF
  8
YODOROGO
 10
30393.604341291921
 20
1585.7494964292871
 30
0.0
 11
30393.604341291921
 21
1589.749496429288
 31
0.0
  0
LINE
  5
5000
  8
YODOROGO
 10
30465.604341291921
 20
1627.749496429288
 30
0.0
 11
30381.604341291932
 21
1627.749496429288
 31
0.0
  0
LINE
  5
5001
  8
YODOROGO
 10
30465.604341291921
 20
1547.749496429288
 30
0.0
 11
30465.604341291921
 21
1627.749496429288
 31
0.0
  0
LINE
  5
5002
  8
YODOROGO
 10
30381.604341291932
 20
1547.749496429288
 30
0.0
 11
30465.604341291921
 21
1547.749496429288
 31
0.0
  0
LINE
  5
5003
  8
YODOROGO
 10
30381.604341291932
 20
1427.749496429288
 30
0.0
 11
30381.604341291932
 21
1547.749496429288
 31
0.0
  0
LINE
  5
5004
  8
YODOROGO
 10
30537.604341291921
 20
1427.749496429288
 30
0.0
 11
30381.604341291932
 21
1427.749496429288
 31
0.0
  0
LINE
  5
5005
  8
YODOROGO
 10
30569.604341291921
 20
1571.749496429285
 30
0.0
 11
30569.604341291921
 21
1599.7494964292871
 31
0.0
  0
ARC
  5
5006
  8
YODOROGO
 10
30545.604341291921
 20
1571.749496429291
 30
0.0
 40
24.000000000003752
 50
270.0
 51
359.99999999998772
  0
LINE
  5
5007
  8
YODOROGO
 10
30529.604341291939
 20
1547.749496429288
 30
0.0
 11
30545.604341291921
 21
1547.749496429288
 31
0.0
  0
LINE
  5
5008
  8
YODOROGO
 10
30529.604341291939
 20
1627.749496429288
 30
0.0
 11
30529.604341291939
 21
1547.749496429288
 31
0.0
  0
LINE
  5
5009
  8
YODOROGO
 10
30899.604341291932
 20
1547.749496429288
 30
0.0
 11
30925.604341291921
 21
1547.749496429288
 31
0.0
  0
LINE
  5
500A
  8
YODOROGO
 10
30933.604341291921
 20
1427.749496429288
 30
0.0
 11
30899.604341291932
 21
1427.749496429288
 31
0.0
  0
LINE
  5
500B
  8
YODOROGO
 10
30763.604341291921
 20
1563.7494964292871
 30
0.0
 11
30791.604341291921
 21
1563.7494964292871
 31
0.0
  0
LINE
  5
500C
  8
YODOROGO
 10
30899.604341291932
 20
1491.749496429288
 30
0.0
 11
30723.604341291921
 21
1491.749496429288
 31
0.0
  0
LINE
  5
500D
  8
YODOROGO
 10
30831.604341291921
 20
1563.7494964292871
 30
0.0
 11
30859.604341291932
 21
1563.7494964292871
 31
0.0
  0
LINE
  5
500E
  8
YODOROGO
 10
30899.604341291932
 20
1427.749496429288
 30
0.0
 11
30899.604341291932
 21
1547.749496429288
 31
0.0
  0
LINE
  5
500F
  8
YODOROGO
 10
30697.604341291932
 20
1427.749496429288
 30
0.0
 11
30645.604341291921
 21
1427.749496429288
 31
0.0
  0
LINE
  5
5010
  8
YODOROGO
 10
30617.604341291921
 20
1599.7494964292871
 30
0.0
 11
30617.604341291921
 21
1507.749496429288
 31
0.0
  0
ARC
  5
5011
  8
YODOROGO
 10
30933.604341291921
 20
1467.749496429288
 30
0.0
 40
40.0
 50
270.0
 51
0.0
  0
LINE
  5
5012
  8
YODOROGO
 10
31093.604341291921
 20
1523.7494964292871
 30
0.0
 11
31093.604341291921
 21
1427.749496429288
 31
0.0
  0
ARC
  5
5013
  8
YODOROGO
 10
31039.721395566768
 20
1637.5313901097329
 30
0.0
 40
125.8955565916754
 50
295.34052442160112
 51
359.18902303418679
  0
LINE
  5
5014
  8
YODOROGO
 10
30617.604341291921
 20
1859.749496429288
 30
0.0
 11
30497.604341291921
 21
1939.749496429288
 31
0.0
  0
LINE
  5
5015
  8
YODOROGO
 10
30497.604341291921
 20
2027.749496429288
 30
0.0
 11
30617.604341291921
 21
1947.749496429288
 31
0.0
  0
LINE
  5
5016
  8
YODOROGO
 10
30529.604341291939
 20
1679.749496429288
 30
0.0
 11
30617.604341291921
 21
1679.749496429288
 31
0.0
  0
LINE
  5
5017
  8
YODOROGO
 10
30617.604341291921
 20
1735.7494964292871
 30
0.0
 11
30529.604341291939
 21
1735.7494964292871
 31
0.0
  0
LINE
  5
5018
  8
YODOROGO
 10
30381.604341291932
 20
1795.7494964292871
 30
0.0
 11
30617.604341291921
 21
1795.7494964292871
 31
0.0
  0
LINE
  5
5019
  8
YODOROGO
 10
30081.604341291921
 20
2027.749496429288
 30
0.0
 11
30021.604341291921
 21
2027.749496429288
 31
0.0
  0
LINE
  5
501A
  8
YODOROGO
 10
30081.604341291921
 20
1827.7494964292871
 30
0.0
 11
30081.604341291921
 21
2027.749496429288
 31
0.0
  0
LINE
  5
501B
  8
YODOROGO
 10
30021.604341291921
 20
1827.7494964292871
 30
0.0
 11
30081.604341291921
 21
1827.7494964292871
 31
0.0
  0
LINE
  5
501C
  8
YODOROGO
 10
30021.604341291921
 20
2027.749496429288
 30
0.0
 11
30021.604341291921
 21
1827.7494964292871
 31
0.0
  0
LINE
  5
501D
  8
YODOROGO
 10
30161.604341291921
 20
2027.749496429288
 30
0.0
 11
30217.604341291921
 21
2027.749496429288
 31
0.0
  0
LINE
  5
501E
  8
YODOROGO
 10
30161.604341291921
 20
1811.749496429288
 30
0.0
 11
30161.604341291921
 21
2027.749496429288
 31
0.0
  0
ARC
  5
501F
  8
YODOROGO
 10
30121.604341291921
 20
1811.749496429288
 30
0.0
 40
40.0
 50
270.0
 51
0.0
  0
LINE
  5
5020
  8
YODOROGO
 10
30021.604341291921
 20
1771.7494964292871
 30
0.0
 11
30121.604341291921
 21
1771.7494964292871
 31
0.0
  0
LINE
  5
5021
  8
YODOROGO
 10
30021.604341291921
 20
1707.749496429288
 30
0.0
 11
30021.604341291921
 21
1771.7494964292871
 31
0.0
  0
LINE
  5
5022
  8
YODOROGO
 10
30137.604341291921
 20
1707.749496429288
 30
0.0
 11
30021.604341291921
 21
1707.749496429288
 31
0.0
  0
ARC
  5
5023
  8
YODOROGO
 10
30137.604341291921
 20
1787.7494964292871
 30
0.0
 40
80.0
 50
270.0
 51
0.0
  0
LINE
  5
5024
  8
YODOROGO
 10
30217.604341291921
 20
2027.749496429288
 30
0.0
 11
30217.604341291921
 21
1787.7494964292871
 31
0.0
  0
LINE
  5
5025
  8
YODOROGO
 10
29977.604341291921
 20
1947.749496429288
 30
0.0
 11
29977.604341291921
 21
1995.7494964292871
 31
0.0
1001
AUTOCAD_POSTSCRIPT_FIGURE
1002
{
1000
PSFILL
1000
Grayscale
1000
Grayscale
1070
    25
1002
}
  0
LINE
  5
5026
  8
YODOROGO
 10
29977.604341291921
 20
1859.749496429288
 30
0.0
 11
29977.604341291921
 21
1907.7494964292871
 31
0.0
1001
AUTOCAD_POSTSCRIPT_FIGURE
1002
{
1000
PSFILL
1000
Grayscale
1000
Grayscale
1070
    25
1002
}
  0
LINE
  5
5027
  8
YODOROGO
 10
29977.604341291921
 20
1707.749496429288
 30
0.0
 11
29977.604341291921
 21
1819.7494964292871
 31
0.0
1001
AUTOCAD_POSTSCRIPT_FIGURE
1002
{
1000
PSFILL
1000
Grayscale
1000
Grayscale
1070
    25
1002
}
  0
LINE
  5
5028
  8
YODOROGO
 10
30381.604341291932
 20
1907.7494964292871
 30
0.0
 11
30497.604341291921
 21
2027.749496429288
 31
0.0
  0
LINE
  5
5029
  8
YODOROGO
 10
30381.604341291932
 20
1819.7494964292871
 30
0.0
 11
30381.604341291932
 21
1907.7494964292871
 31
0.0
  0
LINE
  5
502A
  8
YODOROGO
 10
30497.604341291921
 20
1939.749496429288
 30
0.0
 11
30381.604341291932
 21
1819.7494964292871
 31
0.0
  0
LINE
  5
502B
  8
YODOROGO
 10
30465.604341291921
 20
1679.749496429288
 30
0.0
 11
30465.604341291921
 21
1735.7494964292871
 31
0.0
  0
LINE
  5
502C
  8
YODOROGO
 10
30381.604341291932
 20
1679.749496429288
 30
0.0
 11
30465.604341291921
 21
1679.749496429288
 31
0.0
  0
LINE
  5
502D
  8
YODOROGO
 10
30529.604341291939
 20
1735.7494964292871
 30
0.0
 11
30529.604341291939
 21
1679.749496429288
 31
0.0
  0
LINE
  5
502E
  8
YODOROGO
 10
30381.604341291932
 20
1735.7494964292871
 30
0.0
 11
30381.604341291932
 21
1795.7494964292871
 31
0.0
  0
LINE
  5
502F
  8
YODOROGO
 10
30465.604341291921
 20
1735.7494964292871
 30
0.0
 11
30381.604341291932
 21
1735.7494964292871
 31
0.0
  0
LINE
  5
5030
  8
YODOROGO
 10
30645.604341291921
 20
2027.749496429288
 30
0.0
 11
30973.604341291921
 21
2027.749496429288
 31
0.0
  0
LINE
  5
5031
  8
YODOROGO
 10
30925.604341291921
 20
1963.749496429286
 30
0.0
 11
30697.604341291932
 21
1963.749496429286
 31
0.0
  0
LINE
  5
5032
  8
YODOROGO
 10
30873.604341291921
 20
1819.7494964292871
 30
0.0
 11
30899.604341291932
 21
1819.7494964292871
 31
0.0
  0
LINE
  5
5033
  8
YODOROGO
 10
30899.604341291932
 20
1939.749496429288
 30
0.0
 11
30873.604341291921
 21
1819.7494964292871
 31
0.0
  0
LINE
  5
5034
  8
YODOROGO
 10
30851.604341291939
 20
1939.749496429288
 30
0.0
 11
30899.604341291932
 21
1939.749496429288
 31
0.0
  0
LINE
  5
5035
  8
YODOROGO
 10
30825.604341291921
 20
1819.7494964292871
 30
0.0
 11
30851.604341291939
 21
1939.749496429288
 31
0.0
  0
LINE
  5
5036
  8
YODOROGO
 10
30797.604341291921
 20
1819.7494964292871
 30
0.0
 11
30825.604341291921
 21
1819.7494964292871
 31
0.0
  0
LINE
  5
5037
  8
YODOROGO
 10
30771.604341291939
 20
1939.749496429288
 30
0.0
 11
30797.604341291921
 21
1819.7494964292871
 31
0.0
  0
LINE
  5
5038
  8
YODOROGO
 10
30723.604341291921
 20
1939.749496429288
 30
0.0
 11
30771.604341291939
 21
1939.749496429288
 31
0.0
  0
LINE
  5
5039
  8
YODOROGO
 10
30749.604341291921
 20
1819.7494964292871
 30
0.0
 11
30723.604341291921
 21
1939.749496429288
 31
0.0
  0
LINE
  5
503A
  8
YODOROGO
 10
30723.604341291921
 20
1819.7494964292871
 30
0.0
 11
30749.604341291921
 21
1819.7494964292871
 31
0.0
  0
LINE
  5
503B
  8
YODOROGO
 10
30723.604341291921
 20
1755.7494964292871
 30
0.0
 11
30723.604341291921
 21
1819.7494964292871
 31
0.0
  0
LINE
  5
503C
  8
YODOROGO
 10
30899.604341291932
 20
1755.7494964292871
 30
0.0
 11
30723.604341291921
 21
1755.7494964292871
 31
0.0
  0
LINE
  5
503D
  8
YODOROGO
 10
30899.604341291932
 20
1819.7494964292871
 30
0.0
 11
30899.604341291932
 21
1755.7494964292871
 31
0.0
  0
LINE
  5
503E
  8
YODOROGO
 10
30617.604341291921
 20
1947.749496429288
 30
0.0
 11
30617.604341291921
 21
1859.749496429288
 31
0.0
  0
LINE
  5
503F
  8
YODOROGO
 10
30791.604341291921
 20
1755.7494964292871
 30
0.0
 11
30831.604341291921
 21
1755.7494964292871
 31
0.0
  0
LINE
  5
5040
  8
YODOROGO
 10
30723.604341291921
 20
1691.749496429288
 30
0.0
 11
30763.604341291921
 21
1691.749496429288
 31
0.0
  0
LINE
  5
5041
  8
YODOROGO
 10
30859.604341291932
 20
1691.749496429288
 30
0.0
 11
30899.604341291932
 21
1691.749496429288
 31
0.0
  0
LINE
  5
5042
  8
YODOROGO
 10
30617.604341291921
 20
1795.7494964292871
 30
0.0
 11
30617.604341291921
 21
1735.7494964292871
 31
0.0
  0
LINE
  5
5043
  8
YODOROGO
 10
31165.604341291921
 20
2027.749496429288
 30
0.0
 11
31165.604341291921
 21
1963.749496429286
 31
0.0
  0
LINE
  5
5044
  8
YODOROGO
 10
31533.604341291921
 20
1595.7494964292871
 30
0.0
 11
31533.60434129191
 21
1811.749496429288
 31
0.0
  0
LINE
  5
5045
  8
YODOROGO
 10
31461.60434129191
 20
1987.7494964292871
 30
0.0
 11
31461.60434129191
 21
1635.7494964292871
 31
0.0
  0
LINE
  5
5046
  8
YODOROGO
 10
31653.604341291921
 20
1427.749496429288
 30
0.0
 11
31653.60434129191
 21
1811.749496429288
 31
0.0
  0
LINE
  5
5047
  8
YODOROGO
 10
31589.604341291921
 20
1811.749496429288
 30
0.0
 11
31589.604341291921
 21
1427.749496429288
 31
0.0
  0
LINE
  5
5048
  8
YODOROGO
 10
31237.604341291921
 20
1595.7494964292871
 30
0.0
 11
31237.604341291921
 21
1707.749496429288
 31
0.0
  0
ARC
  5
5049
  8
YODOROGO
 10
31353.914865116069
 20
1607.790351288558
 30
0.0
 40
180.0924485759885
 50
268.62849102169793
 51
356.16638457330322
  0
LINE
  5
504A
  8
YODOROGO
 10
31349.604341291939
 20
1527.749496429288
 30
0.0
 11
31349.604341291939
 21
1427.749496429288
 31
0.0
  0
ARC
  5
504B
  8
YODOROGO
 10
31351.518075724562
 20
1637.838957017655
 30
0.0
 40
110.1060929836122
 50
269.00410209305932
 51
358.91264455492478
  0
LINE
  5
504C
  8
YODOROGO
 10
31589.604341291921
 20
1427.749496429288
 30
0.0
 11
31653.604341291921
 21
1427.749496429288
 31
0.0
  0
LINE
  5
504D
  8
YODOROGO
 10
31533.60434129191
 20
1811.749496429288
 30
0.0
 11
31589.604341291921
 21
1811.749496429288
 31
0.0
  0
LINE
  5
504E
  8
YODOROGO
 10
31621.604341291939
 20
1987.7494964292871
 30
0.0
 11
31461.60434129191
 21
1987.7494964292871
 31
0.0
  0
LINE
  5
504F
  8
YODOROGO
 10
31533.60434129191
 20
1915.7494964292871
 30
0.0
 11
31661.604341291939
 21
1915.7494964292871
 31
0.0
  0
LINE
  5
5050
  8
YODOROGO
 10
31701.604341291939
 20
1875.7494964292871
 30
0.0
 11
31533.60434129191
 21
1875.7494964292871
 31
0.0
  0
LINE
  5
5051
  8
YODOROGO
 10
31237.604341291921
 20
1779.749496429288
 30
0.0
 11
31349.604341291939
 21
1779.749496429288
 31
0.0
  0
LINE
  5
5052
  8
YODOROGO
 10
31237.604341291921
 20
1835.7494964292871
 30
0.0
 11
31237.604341291921
 21
1779.749496429288
 31
0.0
  0
LINE
  5
5053
  8
YODOROGO
 10
31349.604341291939
 20
1835.7494964292871
 30
0.0
 11
31237.604341291921
 21
1835.7494964292871
 31
0.0
  0
LINE
  5
5054
  8
YODOROGO
 10
31349.604341291939
 20
1779.749496429288
 30
0.0
 11
31349.604341291939
 21
1835.7494964292871
 31
0.0
  0
LINE
  5
5055
  8
YODOROGO
 10
31533.60434129191
 20
1875.7494964292871
 30
0.0
 11
31533.60434129191
 21
1915.7494964292871
 31
0.0
  0
LINE
  5
5056
  8
YODOROGO
 10
31413.604341291921
 20
1707.749496429288
 30
0.0
 11
31413.604341291921
 21
1907.7494964292871
 31
0.0
  0
LINE
  5
5057
  8
YODOROGO
 10
31237.604341291921
 20
1707.749496429288
 30
0.0
 11
31413.604341291921
 21
1707.749496429288
 31
0.0
  0
LINE
  5
5058
  8
YODOROGO
 10
31413.604341291921
 20
1963.749496429286
 30
0.0
 11
31413.604341291921
 21
2027.749496429288
 31
0.0
  0
ARC
  5
5059
  8
YODOROGO
 10
31621.604341291939
 20
2003.749496429285
 30
0.0
 40
15.999999999994539
 50
270.0
 51
0.0000000000081422
  0
LINE
  5
505A
  8
YODOROGO
 10
31637.604341291921
 20
2027.749496429288
 30
0.0
 11
31637.604341291921
 21
2003.7494964292871
 31
0.0
  0
LINE
  5
505B
  8
YODOROGO
 10
31701.604341291939
 20
2027.749496429288
 30
0.0
 11
31637.604341291921
 21
2027.749496429288
 31
0.0
  0
LINE
  5
505C
  8
YODOROGO
 10
31701.604341291939
 20
1955.7494964292871
 30
0.0
 11
31701.604341291939
 21
2027.749496429288
 31
0.0
  0
ARC
  5
505D
  8
YODOROGO
 10
31661.604341291939
 20
1955.7494964292871
 30
0.0
 40
40.0
 50
270.0
 51
0.0
  0
LINE
  5
505E
  8
YODOROGO
 10
31701.604341291939
 20
1811.749496429288
 30
0.0
 11
31701.604341291939
 21
1875.7494964292871
 31
0.0
  0
LINE
  5
505F
  8
YODOROGO
 10
31653.60434129191
 20
1811.749496429288
 30
0.0
 11
31701.604341291939
 21
1811.749496429288
 31
0.0
  0
LINE
  5
5060
  8
SUNPOU
  6
CONTINUOUS
 62
     4
 10
19371.325088999991
 20
18432.730914
 30
0.0
 11
18484.366816999991
 21
18432.730914
 31
0.0
  0
LINE
  5
5061
  8
SUNPOU
  6
CONTINUOUS
 62
     4
 10
18564.366816999991
 20
18432.730914
 30
0.0
 11
18564.366816999991
 21
19891.730914
 31
0.0
  0
LINE
  5
5062
  8
SUNPOU
  6
CONTINUOUS
 62
     4
 10
19371.325088999991
 20
18432.730914
 30
0.0
 11
18484.366816999991
 21
18432.730914
 31
0.0
  0
LINE
  5
5063
  8
SUNPOU
  6
CONTINUOUS
 62
     4
 10
18564.366816999991
 20
16973.730914
 30
0.0
 11
18564.366816999991
 21
18432.730914
 31
0.0
  0
LINE
  5
5064
  8
SUNPOU
  6
CONTINUOUS
 62
     4
 10
19371.325088999991
 20
15514.971425500011
 30
0.0
 11
18484.366816999991
 21
15514.971425500011
 31
0.0
  0
LINE
  5
5065
  8
SUNPOU
  6
CONTINUOUS
 62
     4
 10
18564.366816999991
 20
15514.971425500011
 30
0.0
 11
18564.366816999991
 21
16973.730914
 31
0.0
  0
LINE
  5
5066
  8
SUNPOU
  6
CONTINUOUS
 62
     4
 10
19371.325088999991
 20
15514.971425500011
 30
0.0
 11
18484.366816999991
 21
15514.971425500011
 31
0.0
  0
LINE
  5
5067
  8
SUNPOU
  6
CONTINUOUS
 62
     4
 10
18564.366816999991
 20
13705.230913999991
 30
0.0
 11
18564.366816999991
 21
15514.971425500011
 31
0.0
  0
LINE
  5
506B
  8
SUNPOU
  6
CONTINUOUS
 62
     4
 10
8402.3682430000081
 20
20194.230781999991
 30
0.0
 11
8402.3682430000081
 21
20744.236061
 31
0.0
  0
LINE
  5
506C
  8
SUNPOU
  6
CONTINUOUS
 62
     4
 10
8487.8682430000081
 20
20664.236061
 30
0.0
 11
8727.8682430000081
 21
20664.236061
 31
0.0
  0
LINE
  5
506D
  8
SUNPOU
  6
CONTINUOUS
 62
     4
 10
8405.3682430000081
 20
20664.236061
 30
0.0
 11
8165.3682430000081
 21
20664.236061
 31
0.0
  0
LINE
  5
506E
  8
SUNPOU
  6
CONTINUOUS
 62
     4
 10
8487.8682430000081
 20
20664.236061
 30
0.0
 11
8405.3682430000081
 21
20664.236061
 31
0.0
  0
LINE
  5
506F
  8
SUNPOU
  6
CONTINUOUS
 62
     4
 10
11756.36824300001
 20
20664.236061
 30
0.0
 11
8487.8682430000081
 21
20664.236061
 31
0.0
  0
LINE
  5
5070
  8
SUNPOU
  6
CONTINUOUS
 62
     4
 10
15110.35636699996
 20
20194.230781999991
 30
0.0
 11
15110.35636699996
 21
20744.236061
 31
0.0
  0
LINE
  5
5071
  8
SUNPOU
  6
CONTINUOUS
 62
     4
 10
15024.856366999949
 20
20664.236061
 30
0.0
 11
14784.856366999949
 21
20664.236061
 31
0.0
  0
LINE
  5
5072
  8
SUNPOU
  6
CONTINUOUS
 62
     4
 10
15107.35636699996
 20
20664.236061
 30
0.0
 11
15347.35636699996
 21
20664.236061
 31
0.0
  0
LINE
  5
5073
  8
SUNPOU
  6
CONTINUOUS
 62
     4
 10
15024.856366999949
 20
20664.236061
 30
0.0
 11
15107.35636699996
 21
20664.236061
 31
0.0
  0
LINE
  5
5074
  8
SUNPOU
  6
CONTINUOUS
 62
     4
 10
11756.356366999949
 20
20664.236061
 30
0.0
 11
15024.856366999949
 21
20664.236061
 31
0.0
  0
LINE
  5
5075
  8
SUNPOU
  6
CONTINUOUS
 62
     4
 10
8325.3579499999905
 20
20094.226823000001
 30
0.0
 11
7878.36252899999
 21
20094.226823000001
 31
0.0
  0
LINE
  5
5076
  8
SUNPOU
  6
CONTINUOUS
 62
     4
 10
8325.3623049999896
 20
20114.226823000001
 30
0.0
 11
7878.36252899999
 21
20114.226823000001
 31
0.0
  0
LINE
  5
5078
  8
SUNPOU
  6
CONTINUOUS
 62
     4
 10
7958.3625289999909
 20
20114.226823000001
 30
0.0
 11
7958.3625289999909
 21
20354.226823000012
 31
0.0
  0
LINE
  5
5079
  8
SUNPOU
  6
CONTINUOUS
 62
     4
 10
7958.3625289999909
 20
20074.226823000001
 30
0.0
 11
7958.3625289999909
 21
20114.226823000001
 31
0.0
  0
LINE
  5
507A
  8
SUNPOU
  6
CONTINUOUS
 62
     4
 10
8325.3623049999896
 20
20114.226823000001
 30
0.0
 11
7478.3625289999909
 21
20114.226823000001
 31
0.0
  0
LINE
  5
507B
  8
SUNPOU
  6
CONTINUOUS
 62
     4
 10
7558.36252899999
 20
19891.730914
 30
0.0
 11
7558.36252899999
 21
19651.730914
 31
0.0
  0
LINE
  5
507C
  8
SUNPOU
  6
CONTINUOUS
 62
     4
 10
7558.36252899999
 20
20114.226823000001
 30
0.0
 11
7558.36252899999
 21
20354.226823000012
 31
0.0
  0
LINE
  5
507D
  8
SUNPOU
  6
CONTINUOUS
 62
     4
 10
7558.36252899999
 20
19891.730914
 30
0.0
 11
7558.36252899999
 21
20114.226823000001
 31
0.0
  0
LINE
  5
507E
  8
SUNPOU
  6
CONTINUOUS
 62
     4
 10
8189.0616619999928
 20
18432.730914
 30
0.0
 11
7478.3625289999909
 21
18432.730914
 31
0.0
  0
LINE
  5
507F
  8
SUNPOU
  6
CONTINUOUS
 62
     4
 10
7558.36252899999
 20
18432.730914
 30
0.0
 11
7558.36252899999
 21
19891.730914
 31
0.0
  0
LINE
  5
5080
  8
SUNPOU
  6
CONTINUOUS
 62
     4
 10
8189.0616619999928
 20
18432.730914
 30
0.0
 11
7478.3625289999909
 21
18432.730914
 31
0.0
  0
LINE
  5
5081
  8
SUNPOU
  6
CONTINUOUS
 62
     4
 10
7558.36252899999
 20
16973.730914
 30
0.0
 11
7558.36252899999
 21
18432.730914
 31
0.0
  0
LINE
  5
5082
  8
SUNPOU
  6
CONTINUOUS
 62
     4
 10
8189.0616619999928
 20
15514.730913999991
 30
0.0
 11
7478.3625289999909
 21
15514.730913999991
 31
0.0
  0
LINE
  5
5083
  8
SUNPOU
  6
CONTINUOUS
 62
     4
 10
7558.36252899999
 20
15514.730913999991
 30
0.0
 11
7558.36252899999
 21
16973.730914
 31
0.0
  0
LINE
  5
5084
  8
SUNPOU
  6
CONTINUOUS
 62
     4
 10
8189.0616619999928
 20
15514.730913999991
 30
0.0
 11
7478.3625289999909
 21
15514.730913999991
 31
0.0
  0
LINE
  5
5085
  8
SUNPOU
  6
CONTINUOUS
 62
     4
 10
7558.36252899999
 20
13705.230913999991
 30
0.0
 11
7558.36252899999
 21
15514.730913999991
 31
0.0
  0
LINE
  5
5086
  8
SUNPOU
  6
CONTINUOUS
 62
     4
 10
8325.3579499999905
 20
13512.735599
 30
0.0
 11
7478.3625289999909
 21
13512.735599
 31
0.0
  0
LINE
  5
5087
  8
SUNPOU
  6
CONTINUOUS
 62
     4
 10
7558.36252899999
 20
13705.230913999991
 30
0.0
 11
7558.36252899999
 21
13945.230913999991
 31
0.0
  0
LINE
  5
5088
  8
SUNPOU
  6
CONTINUOUS
 62
     4
 10
7558.36252899999
 20
13512.735599
 30
0.0
 11
7558.36252899999
 21
13272.735599
 31
0.0
  0
LINE
  5
5089
  8
SUNPOU
  6
CONTINUOUS
 62
     4
 10
7558.36252899999
 20
13705.230913999991
 30
0.0
 11
7558.36252899999
 21
13512.735599
 31
0.0
  0
LINE
  5
508A
  8
SUNPOU
  6
CONTINUOUS
 62
     4
 10
19493.821393999991
 20
12999.46747999999
 30
0.0
 11
19493.821393999991
 21
12653.782829999989
 31
0.0
  0
LINE
  5
508B
  8
SUNPOU
  6
CONTINUOUS
 62
     4
 10
19451.319151
 20
13582.733619000001
 30
0.0
 11
19451.319151
 21
12653.782829999989
 31
0.0
  0
LINE
  5
508C
  8
SUNPOU
  6
CONTINUOUS
 62
     4
 10
19493.821393999991
 20
12733.782829999989
 30
0.0
 11
19733.821393999991
 21
12733.782829999989
 31
0.0
  0
LINE
  5
508D
  8
SUNPOU
  6
CONTINUOUS
 62
     4
 10
19451.319151
 20
12733.782829999989
 30
0.0
 11
19211.319151
 21
12733.782829999989
 31
0.0
  0
LINE
  5
508E
  8
SUNPOU
  6
CONTINUOUS
 62
     4
 10
19493.821393999991
 20
12733.782829999989
 30
0.0
 11
19451.319151
 21
12733.782829999989
 31
0.0
  0
LINE
  5
508F
  8
SUNPOU
  6
CONTINUOUS
 62
     4
 10
26030.821393999999
 20
12999.46747999999
 30
0.0
 11
26030.821393999999
 21
12653.782829999989
 31
0.0
  0
LINE
  5
5090
  8
SUNPOU
  6
CONTINUOUS
 62
     4
 10
26073.323637000001
 20
13582.733619000001
 30
0.0
 11
26073.323637000001
 21
12653.782829999989
 31
0.0
  0
LINE
  5
5091
  8
SUNPOU
  6
CONTINUOUS
 62
     4
 10
26030.821393999999
 20
12733.782829999989
 30
0.0
 11
25790.821393999999
 21
12733.782829999989
 31
0.0
  0
LINE
  5
5092
  8
SUNPOU
  6
CONTINUOUS
 62
     4
 10
26073.323637000001
 20
12733.782829999989
 30
0.0
 11
26313.323637000001
 21
12733.782829999989
 31
0.0
  0
LINE
  5
5093
  8
SUNPOU
  6
CONTINUOUS
 62
     4
 10
26030.821393999999
 20
12733.782829999989
 30
0.0
 11
26073.323637000001
 21
12733.782829999989
 31
0.0
  0
LINE
  5
5094
  8
2-0
  6
CONTINUOUS
 62
     3
 10
22719.821393999991
 20
13662.730913999991
 30
0.0
 11
22804.821393999999
 21
13662.730913999991
 31
0.0
  0
LINE
  5
5095
  8
2-0
  6
CONTINUOUS
 62
     3
 10
22804.821393999999
 20
13662.730913999991
 30
0.0
 11
22804.821393999999
 21
13747.730913999991
 31
0.0
  0
LINE
  5
5096
  8
2-0
  6
CONTINUOUS
 62
     3
 10
22804.821393999999
 20
13747.730913999991
 30
0.0
 11
22719.821393999991
 21
13747.730913999991
 31
0.0
  0
LINE
  5
5097
  8
2-0
  6
CONTINUOUS
 62
     3
 10
22719.821393999991
 20
13747.730913999991
 30
0.0
 11
22719.821393999991
 21
13662.730913999991
 31
0.0
  0
LINE
  5
5098
  8
SUNPOU
  6
CONTINUOUS
 62
     4
 10
26030.821393999999
 20
12999.46747999999
 30
0.0
 11
26030.821393999999
 21
12653.782829999989
 31
0.0
  0
LINE
  5
5099
  8
SUNPOU
  6
CONTINUOUS
 62
     4
 10
25988.319150999989
 20
13582.733619000001
 30
0.0
 11
25988.319150999989
 21
12653.782829999989
 31
0.0
  0
LINE
  5
509A
  8
SUNPOU
  6
CONTINUOUS
 62
     4
 10
26030.821393999999
 20
12733.782829999989
 30
0.0
 11
26270.821393999999
 21
12733.782829999989
 31
0.0
  0
LINE
  5
509B
  8
SUNPOU
  6
CONTINUOUS
 62
     4
 10
25988.319150999989
 20
12733.782829999989
 30
0.0
 11
25748.319150999982
 21
12733.782829999989
 31
0.0
  0
LINE
  5
509C
  8
SUNPOU
  6
CONTINUOUS
 62
     4
 10
26030.821393999999
 20
12733.782829999989
 30
0.0
 11
25988.319150999989
 21
12733.782829999989
 31
0.0
  0
LINE
  5
509D
  8
SUNPOU
  6
CONTINUOUS
 62
     4
 10
19493.821393999991
 20
12999.46747999999
 30
0.0
 11
19493.821393999991
 21
12653.782829999989
 31
0.0
  0
LINE
  5
509E
  8
SUNPOU
  6
CONTINUOUS
 62
     4
 10
19536.323636999979
 20
13582.733619000001
 30
0.0
 11
19536.323636999979
 21
12653.782829999989
 31
0.0
  0
LINE
  5
509F
  8
SUNPOU
  6
CONTINUOUS
 62
     4
 10
19493.821393999991
 20
12733.782829999989
 30
0.0
 11
19253.821393999991
 21
12733.782829999989
 31
0.0
  0
LINE
  5
50A0
  8
SUNPOU
  6
CONTINUOUS
 62
     4
 10
19536.323636999979
 20
12733.782829999989
 30
0.0
 11
19776.32363699999
 21
12733.782829999989
 31
0.0
  0
LINE
  5
50A1
  8
SUNPOU
  6
CONTINUOUS
 62
     4
 10
19493.821393999991
 20
12733.782829999989
 30
0.0
 11
19536.323636999979
 21
12733.782829999989
 31
0.0
  0
LINE
  5
50A2
  8
SUNPOU
  6
CONTINUOUS
 62
     4
 10
19451.319151
 20
13582.733619000001
 30
0.0
 11
19451.319151
 21
12253.78283
 31
0.0
  0
LINE
  5
50A3
  8
SUNPOU
  6
CONTINUOUS
 62
     4
 10
26073.323637000001
 20
13582.733619000001
 30
0.0
 11
26073.323637000001
 21
12253.78283
 31
0.0
  0
LINE
  5
50A4
  8
SUNPOU
  6
CONTINUOUS
 62
     4
 10
19451.319151
 20
12333.782829999989
 30
0.0
 11
26073.323637000001
 21
12333.782829999989
 31
0.0
  0
LINE
  5
50A5
  8
SUNPOU
  6
CONTINUOUS
 62
     4
 10
26153.319677999989
 20
14112.730913999991
 30
0.0
 11
27203.320997999988
 21
14112.730913999991
 31
0.0
  0
LINE
  5
50A6
  8
SUNPOU
  6
CONTINUOUS
 62
     4
 10
27003.320997999988
 20
13705.230913999991
 30
0.0
 11
27203.320997999988
 21
13705.230913999991
 31
0.0
  0
LINE
  5
50A7
  8
SUNPOU
  6
CONTINUOUS
 62
     4
 10
27123.320997999988
 20
14112.730913999991
 30
0.0
 11
27123.320997999988
 21
13705.230913999991
 31
0.0
  0
LINE
  5
50A8
  8
SUNPOU
  6
CONTINUOUS
 62
     4
 10
26153.319677999989
 20
14813.730913999991
 30
0.0
 11
27203.320997999988
 21
14813.730913999991
 31
0.0
  0
LINE
  5
50A9
  8
SUNPOU
  6
CONTINUOUS
 62
     4
 10
26153.319677999989
 20
14112.730913999991
 30
0.0
 11
27203.320997999988
 21
14112.730913999991
 31
0.0
  0
LINE
  5
50AA
  8
SUNPOU
  6
CONTINUOUS
 62
     4
 10
27123.320997999988
 20
14813.730913999991
 30
0.0
 11
27123.320997999988
 21
14112.730913999991
 31
0.0
  0
LINE
  5
50AB
  8
SUNPOU
  6
CONTINUOUS
 62
     4
 10
26153.319677999989
 20
15514.971425500011
 30
0.0
 11
27203.320997999988
 21
15514.971425500011
 31
0.0
  0
LINE
  5
50AC
  8
SUNPOU
  6
CONTINUOUS
 62
     4
 10
26153.319677999989
 20
14813.730913999991
 30
0.0
 11
27203.320997999988
 21
14813.730913999991
 31
0.0
  0
LINE
  5
50AD
  8
SUNPOU
  6
CONTINUOUS
 62
     4
 10
27123.320997999988
 20
15514.971425500011
 30
0.0
 11
27123.320997999988
 21
14813.730913999991
 31
0.0
  0
LINE
  5
50AE
  8
SUNPOU
  6
CONTINUOUS
 62
     4
 10
26153.319677999989
 20
16215.730913999991
 30
0.0
 11
27203.320997999988
 21
16215.730913999991
 31
0.0
  0
LINE
  5
50AF
  8
SUNPOU
  6
CONTINUOUS
 62
     4
 10
26153.319677999989
 20
15514.971425500011
 30
0.0
 11
27203.320997999988
 21
15514.971425500011
 31
0.0
  0
LINE
  5
50B0
  8
SUNPOU
  6
CONTINUOUS
 62
     4
 10
27123.320997999988
 20
16215.730913999991
 30
0.0
 11
27123.320997999988
 21
15514.971425500011
 31
0.0
  0
LINE
  5
50B1
  8
SUNPOU
  6
CONTINUOUS
 62
     4
 10
27003.320997999988
 20
16973.730914
 30
0.0
 11
27203.320997999988
 21
16973.730914
 31
0.0
  0
LINE
  5
50B2
  8
SUNPOU
  6
CONTINUOUS
 62
     4
 10
26153.319677999989
 20
16215.730913999991
 30
0.0
 11
27203.320997999988
 21
16215.730913999991
 31
0.0
  0
LINE
  5
50B3
  8
SUNPOU
  6
CONTINUOUS
 62
     4
 10
27123.320997999988
 20
16973.730914
 30
0.0
 11
27123.320997999988
 21
16215.730913999991
 31
0.0
  0
LINE
  5
50B4
  8
SUNPOU
  6
CONTINUOUS
 62
     4
 10
26153.319677999989
 20
17731.730914
 30
0.0
 11
27203.320997999988
 21
17731.730914
 31
0.0
  0
LINE
  5
50B5
  8
SUNPOU
  6
CONTINUOUS
 62
     4
 10
27003.320997999988
 20
16973.730914
 30
0.0
 11
27203.320997999988
 21
16973.730914
 31
0.0
  0
LINE
  5
50B6
  8
SUNPOU
  6
CONTINUOUS
 62
     4
 10
27123.320997999988
 20
17731.730914
 30
0.0
 11
27123.320997999988
 21
16973.730914
 31
0.0
  0
LINE
  5
50B7
  8
SUNPOU
  6
CONTINUOUS
 62
     4
 10
26153.319677999989
 20
18432.730914
 30
0.0
 11
27203.320997999988
 21
18432.730914
 31
0.0
  0
LINE
  5
50B8
  8
SUNPOU
  6
CONTINUOUS
 62
     4
 10
26153.319677999989
 20
17731.730914
 30
0.0
 11
27203.320997999988
 21
17731.730914
 31
0.0
  0
LINE
  5
50B9
  8
SUNPOU
  6
CONTINUOUS
 62
     4
 10
27123.320997999988
 20
18432.730914
 30
0.0
 11
27123.320997999988
 21
17731.730914
 31
0.0
  0
LINE
  5
50BA
  8
SUNPOU
  6
CONTINUOUS
 62
     4
 10
26153.319677999989
 20
19133.730914
 30
0.0
 11
27203.320997999988
 21
19133.730914
 31
0.0
  0
LINE
  5
50BB
  8
SUNPOU
  6
CONTINUOUS
 62
     4
 10
26153.319677999989
 20
18432.730914
 30
0.0
 11
27203.320997999988
 21
18432.730914
 31
0.0
  0
LINE
  5
50BC
  8
SUNPOU
  6
CONTINUOUS
 62
     4
 10
27123.320997999988
 20
19133.730914
 30
0.0
 11
27123.320997999988
 21
18432.730914
 31
0.0
  0
LINE
  5
50BD
  8
SUNPOU
  6
CONTINUOUS
 62
     4
 10
27003.320997999988
 20
19891.730914
 30
0.0
 11
27203.320997999988
 21
19891.730914
 31
0.0
  0
LINE
  5
50BE
  8
SUNPOU
  6
CONTINUOUS
 62
     4
 10
26153.319677999989
 20
19133.730914
 30
0.0
 11
27203.320997999988
 21
19133.730914
 31
0.0
  0
LINE
  5
50BF
  8
SUNPOU
  6
CONTINUOUS
 62
     4
 10
27123.320997999988
 20
19891.730914
 30
0.0
 11
27123.320997999988
 21
19133.730914
 31
0.0
  0
LINE
  5
50C0
  8
SUNPOU
  6
CONTINUOUS
 62
     4
 10
27003.320997999988
 20
16973.730914
 30
0.0
 11
27603.320997999988
 21
16973.730914
 31
0.0
  0
LINE
  5
50C1
  8
SUNPOU
  6
CONTINUOUS
 62
     4
 10
27003.320997999988
 20
19891.730914
 30
0.0
 11
27603.320997999988
 21
19891.730914
 31
0.0
  0
LINE
  5
50C2
  8
SUNPOU
  6
CONTINUOUS
 62
     4
 10
27523.320997999988
 20
16973.730914
 30
0.0
 11
27523.320997999988
 21
19891.730914
 31
0.0
  0
LINE
  5
50C3
  8
SUNPOU
  6
CONTINUOUS
 62
     4
 10
27003.320997999988
 20
13705.230913999991
 30
0.0
 11
27603.320997999988
 21
13705.230913999991
 31
0.0
  0
LINE
  5
50C4
  8
SUNPOU
  6
CONTINUOUS
 62
     4
 10
27003.320997999988
 20
16973.730914
 30
0.0
 11
27603.320997999988
 21
16973.730914
 31
0.0
  0
LINE
  5
50C5
  8
SUNPOU
  6
CONTINUOUS
 62
     4
 10
27523.320997999988
 20
13705.230913999991
 30
0.0
 11
27523.320997999988
 21
16973.730914
 31
0.0
  0
LINE
  5
50C6
  8
SUNPOU
  6
CONTINUOUS
 62
     4
 10
26153.319677999989
 20
19934.228209000001
 30
0.0
 11
28003.320997999988
 21
19934.228209000001
 31
0.0
  0
LINE
  5
50C7
  8
SUNPOU
  6
CONTINUOUS
 62
     4
 10
26153.319677999989
 20
13662.733619000001
 30
0.0
 11
28003.320997999988
 21
13662.733619000001
 31
0.0
  0
LINE
  5
50C8
  8
SUNPOU
  6
CONTINUOUS
 62
     4
 10
27923.320997999988
 20
19934.228209000001
 30
0.0
 11
27923.320997999988
 21
13662.733619000001
 31
0.0
  0
LINE
  5
50C9
  8
SUNPOU
  6
CONTINUOUS
 62
     4
 10
27003.320997999988
 20
19891.730914
 30
0.0
 11
27603.320997999988
 21
19891.730914
 31
0.0
  0
LINE
  5
50CA
  8
SUNPOU
  6
CONTINUOUS
 62
     4
 10
26153.319677999989
 20
19934.228209000001
 30
0.0
 11
27603.320997999988
 21
19934.228209000001
 31
0.0
  0
LINE
  5
50CB
  8
SUNPOU
  6
CONTINUOUS
 62
     4
 10
27523.320997999988
 20
19891.730914
 30
0.0
 11
27523.320997999988
 21
19651.730914
 31
0.0
  0
LINE
  5
50CC
  8
SUNPOU
  6
CONTINUOUS
 62
     4
 10
27523.320997999988
 20
19934.228209000001
 30
0.0
 11
27523.320997999988
 21
20174.228209000001
 31
0.0
  0
LINE
  5
50CD
  8
SUNPOU
  6
CONTINUOUS
 62
     4
 10
27523.320997999988
 20
19891.730914
 30
0.0
 11
27523.320997999988
 21
19934.228209000001
 31
0.0
  0
LINE
  5
50CE
  8
SUNPOU
  6
CONTINUOUS
 62
     4
 10
27003.320997999988
 20
13705.230913999991
 30
0.0
 11
27603.320997999988
 21
13705.230913999991
 31
0.0
  0
LINE
  5
50CF
  8
SUNPOU
  6
CONTINUOUS
 62
     4
 10
26153.319677999989
 20
13662.733619000001
 30
0.0
 11
27603.320997999988
 21
13662.733619000001
 31
0.0
  0
LINE
  5
50D0
  8
SUNPOU
  6
CONTINUOUS
 62
     4
 10
27523.320997999988
 20
13705.230913999991
 30
0.0
 11
27523.320997999988
 21
13945.230913999991
 31
0.0
  0
LINE
  5
50D1
  8
SUNPOU
  6
CONTINUOUS
 62
     4
 10
27523.320997999988
 20
13662.733619000001
 30
0.0
 11
27523.320997999988
 21
13422.733619000001
 31
0.0
  0
LINE
  5
50D2
  8
SUNPOU
  6
CONTINUOUS
 62
     4
 10
27523.320997999988
 20
13705.230913999991
 30
0.0
 11
27523.320997999988
 21
13662.733619000001
 31
0.0
  0
LINE
  5
50D3
  8
SUNPOU
  6
CONTINUOUS
 62
     4
 10
22762.321393999991
 20
20014.229199000009
 30
0.0
 11
22762.321393999991
 21
20744.232102000031
 31
0.0
  0
LINE
  5
50D4
  8
SUNPOU
  6
CONTINUOUS
 62
     4
 10
23169.821393999991
 20
20014.229199000009
 30
0.0
 11
23169.821393999991
 21
20744.232102000031
 31
0.0
  0
LINE
  5
50D5
  8
SUNPOU
  6
CONTINUOUS
 62
     4
 10
22762.321393999991
 20
20664.232102000031
 30
0.0
 11
22522.321393999991
 21
20664.232102000031
 31
0.0
  0
LINE
  5
50D6
  8
SUNPOU
  6
CONTINUOUS
 62
     4
 10
23169.821393999991
 20
20664.232102000031
 30
0.0
 11
23409.821393999991
 21
20664.232102000031
 31
0.0
  0
LINE
  5
50D7
  8
SUNPOU
  6
CONTINUOUS
 62
     4
 10
22762.321393999991
 20
20664.232102000031
 30
0.0
 11
23169.821393999991
 21
20664.232102000031
 31
0.0
  0
LINE
  5
50D8
  8
SUNPOU
  6
CONTINUOUS
 62
     4
 10
25272.821393999999
 20
20014.229199000009
 30
0.0
 11
25272.821393999999
 21
20744.232102000031
 31
0.0
  0
LINE
  5
50D9
  8
SUNPOU
  6
CONTINUOUS
 62
     4
 10
26030.82238350001
 20
20014.229199000009
 30
0.0
 11
26030.82238350001
 21
20744.232102000031
 31
0.0
  0
LINE
  5
50DA
  8
SUNPOU
  6
CONTINUOUS
 62
     4
 10
25272.821393999999
 20
20664.232102000031
 30
0.0
 11
26030.82238350001
 21
20664.232102000031
 31
0.0
  0
LINE
  5
50DB
  8
SUNPOU
  6
CONTINUOUS
 62
     4
 10
24571.821393999991
 20
20014.229199000009
 30
0.0
 11
24571.821393999991
 21
20744.232102000031
 31
0.0
  0
LINE
  5
50DC
  8
SUNPOU
  6
CONTINUOUS
 62
     4
 10
25272.821393999999
 20
20014.229199000009
 30
0.0
 11
25272.821393999999
 21
20744.232102000031
 31
0.0
  0
LINE
  5
50DD
  8
SUNPOU
  6
CONTINUOUS
 62
     4
 10
24571.821393999991
 20
20664.232102000031
 30
0.0
 11
25272.821393999999
 21
20664.232102000031
 31
0.0
  0
LINE
  5
50DE
  8
SUNPOU
  6
CONTINUOUS
 62
     4
 10
23870.821393999991
 20
20014.229199000009
 30
0.0
 11
23870.821393999991
 21
20744.232102000031
 31
0.0
  0
LINE
  5
50DF
  8
SUNPOU
  6
CONTINUOUS
 62
     4
 10
24571.821393999991
 20
20014.229199000009
 30
0.0
 11
24571.821393999991
 21
20744.232102000031
 31
0.0
  0
LINE
  5
50E0
  8
SUNPOU
  6
CONTINUOUS
 62
     4
 10
23870.821393999991
 20
20664.232102000031
 30
0.0
 11
24571.821393999991
 21
20664.232102000031
 31
0.0
  0
LINE
  5
50E1
  8
SUNPOU
  6
CONTINUOUS
 62
     4
 10
23169.821393999991
 20
20014.229199000009
 30
0.0
 11
23169.821393999991
 21
20744.232102000031
 31
0.0
  0
LINE
  5
50E2
  8
SUNPOU
  6
CONTINUOUS
 62
     4
 10
23870.821393999991
 20
20014.229199000009
 30
0.0
 11
23870.821393999991
 21
20744.232102000031
 31
0.0
  0
LINE
  5
50E3
  8
SUNPOU
  6
CONTINUOUS
 62
     4
 10
23169.821393999991
 20
20664.232102000031
 30
0.0
 11
23870.821393999991
 21
20664.232102000031
 31
0.0
  0
LINE
  5
50E4
  8
SUNPOU
  6
CONTINUOUS
 62
     4
 10
26030.821393999999
 20
20014.229199000009
 30
0.0
 11
26030.821393999999
 21
20744.232102000031
 31
0.0
  0
LINE
  5
50E5
  8
SUNPOU
  6
CONTINUOUS
 62
     4
 10
26073.317698999999
 20
20014.229199000009
 30
0.0
 11
26073.317698999999
 21
20744.232102000031
 31
0.0
  0
LINE
  5
50E6
  8
SUNPOU
  6
CONTINUOUS
 62
     4
 10
26030.821393999999
 20
20664.232102000031
 30
0.0
 11
25790.821393999999
 21
20664.232102000031
 31
0.0
  0
LINE
  5
50E7
  8
SUNPOU
  6
CONTINUOUS
 62
     4
 10
26073.317698999999
 20
20664.232102000031
 30
0.0
 11
26313.317698999999
 21
20664.232102000031
 31
0.0
  0
LINE
  5
50E8
  8
SUNPOU
  6
CONTINUOUS
 62
     4
 10
26030.821393999999
 20
20664.232102000031
 30
0.0
 11
26073.317698999999
 21
20664.232102000031
 31
0.0
  0
LINE
  5
50E9
  8
SUNPOU
  6
CONTINUOUS
 62
     4
 10
19493.821393999991
 20
20014.229199000009
 30
0.0
 11
19493.821393999991
 21
20744.232102000031
 31
0.0
  0
LINE
  5
50EA
  8
SUNPOU
  6
CONTINUOUS
 62
     4
 10
19901.321393999991
 20
20014.229199000009
 30
0.0
 11
19901.321393999991
 21
20744.232102000031
 31
0.0
  0
LINE
  5
50EB
  8
SUNPOU
  6
CONTINUOUS
 62
     4
 10
19493.821393999991
 20
20664.232102000031
 30
0.0
 11
19253.821393999991
 21
20664.232102000031
 31
0.0
  0
LINE
  5
50EC
  8
SUNPOU
  6
CONTINUOUS
 62
     4
 10
19901.321393999991
 20
20664.232102000031
 30
0.0
 11
20141.321393999999
 21
20664.232102000031
 31
0.0
  0
LINE
  5
50ED
  8
SUNPOU
  6
CONTINUOUS
 62
     4
 10
19493.821393999991
 20
20664.232102000031
 30
0.0
 11
19901.321393999991
 21
20664.232102000031
 31
0.0
  0
LINE
  5
50EE
  8
SUNPOU
  6
CONTINUOUS
 62
     4
 10
19493.821393999991
 20
20014.229199000009
 30
0.0
 11
19493.821393999991
 21
20744.232102000031
 31
0.0
  0
LINE
  5
50EF
  8
SUNPOU
  6
CONTINUOUS
 62
     4
 10
19451.325088999991
 20
20014.229199000009
 30
0.0
 11
19451.325088999991
 21
20744.232102000031
 31
0.0
  0
LINE
  5
50F0
  8
SUNPOU
  6
CONTINUOUS
 62
     4
 10
19493.821393999991
 20
20664.232102000031
 30
0.0
 11
19733.821393999991
 21
20664.232102000031
 31
0.0
  0
LINE
  5
50F1
  8
SUNPOU
  6
CONTINUOUS
 62
     4
 10
19451.325088999991
 20
20664.232102000031
 30
0.0
 11
19211.325088999991
 21
20664.232102000031
 31
0.0
  0
LINE
  5
50F2
  8
SUNPOU
  6
CONTINUOUS
 62
     4
 10
19493.821393999991
 20
20664.232102000031
 30
0.0
 11
19451.325088999991
 21
20664.232102000031
 31
0.0
  0
LINE
  5
50F3
  8
SUNPOU
  6
CONTINUOUS
 62
     4
 10
22004.321393999999
 20
20014.229199000009
 30
0.0
 11
22004.321393999999
 21
20744.232102000031
 31
0.0
  0
LINE
  5
50F4
  8
SUNPOU
  6
CONTINUOUS
 62
     4
 10
22762.322383499999
 20
20014.229199000009
 30
0.0
 11
22762.322383499999
 21
20744.232102000031
 31
0.0
  0
LINE
  5
50F5
  8
SUNPOU
  6
CONTINUOUS
 62
     4
 10
22004.321393999999
 20
20664.232102000031
 30
0.0
 11
22762.322383499999
 21
20664.232102000031
 31
0.0
  0
LINE
  5
50F6
  8
SUNPOU
  6
CONTINUOUS
 62
     4
 10
21303.321393999999
 20
20014.229199000009
 30
0.0
 11
21303.321393999999
 21
20744.232102000031
 31
0.0
  0
LINE
  5
50F7
  8
SUNPOU
  6
CONTINUOUS
 62
     4
 10
22004.321393999999
 20
20014.229199000009
 30
0.0
 11
22004.321393999999
 21
20744.232102000031
 31
0.0
  0
LINE
  5
50F8
  8
SUNPOU
  6
CONTINUOUS
 62
     4
 10
21303.321393999999
 20
20664.232102000031
 30
0.0
 11
22004.321393999999
 21
20664.232102000031
 31
0.0
  0
LINE
  5
50F9
  8
SUNPOU
  6
CONTINUOUS
 62
     4
 10
20602.321393999999
 20
20014.229199000009
 30
0.0
 11
20602.321393999999
 21
20744.232102000031
 31
0.0
  0
LINE
  5
50FA
  8
SUNPOU
  6
CONTINUOUS
 62
     4
 10
21303.321393999999
 20
20014.229199000009
 30
0.0
 11
21303.321393999999
 21
20744.232102000031
 31
0.0
  0
LINE
  5
50FB
  8
SUNPOU
  6
CONTINUOUS
 62
     4
 10
20602.321393999999
 20
20664.232102000031
 30
0.0
 11
21303.321393999999
 21
20664.232102000031
 31
0.0
  0
LINE
  5
50FC
  8
SUNPOU
  6
CONTINUOUS
 62
     4
 10
19901.321393999991
 20
20014.229199000009
 30
0.0
 11
19901.321393999991
 21
20744.232102000031
 31
0.0
  0
LINE
  5
50FD
  8
SUNPOU
  6
CONTINUOUS
 62
     4
 10
20602.321393999999
 20
20014.229199000009
 30
0.0
 11
20602.321393999999
 21
20744.232102000031
 31
0.0
  0
LINE
  5
50FE
  8
SUNPOU
  6
CONTINUOUS
 62
     4
 10
19901.321393999991
 20
20664.232102000031
 30
0.0
 11
20602.321393999999
 21
20664.232102000031
 31
0.0
  0
LINE
  5
50FF
  8
SUNPOU
  6
CONTINUOUS
 62
     4
 10
19363.820735000001
 20
6276.5900849999962
 30
0.0
 11
18563.822053999989
 21
6276.5900849999962
 31
0.0
  0
LINE
  5
5100
  8
SUNPOU
  6
CONTINUOUS
 62
     4
 10
19363.820735000001
 20
8168.0900849999953
 30
0.0
 11
18563.822053999989
 21
8168.0900849999953
 31
0.0
  0
LINE
  5
5101
  8
SUNPOU
  6
CONTINUOUS
 62
     4
 10
18643.822053999989
 20
6276.5900849999962
 30
0.0
 11
18643.822053999989
 21
8168.0900849999953
 31
0.0
  0
LINE
  5
5102
  8
SUNPOU
  6
CONTINUOUS
 62
     4
 10
19363.820735000001
 20
6276.5900849999962
 30
0.0
 11
18163.81974499999
 21
6276.590084999998
 31
0.0
  0
LINE
  5
5103
  8
SUNPOU
  6
CONTINUOUS
 62
     4
 10
19331.320998999981
 20
8624.5900850000016
 30
0.0
 11
18163.81974499999
 21
8624.5900850000016
 31
0.0
  0
LINE
  5
5104
  8
SUNPOU
  6
CONTINUOUS
 62
     4
 10
18243.81974499999
 20
6276.590084999998
 30
0.0
 11
18243.81974499999
 21
8624.5900850000016
 31
0.0
  0
LINE
  5
5115
  8
SUNPOU
  6
CONTINUOUS
 62
     4
 10
19587.821393999991
 20
6096.5902499999984
 30
0.0
 11
19587.821393999991
 21
5296.5902499999984
 31
0.0
  0
LINE
  5
5116
  8
SUNPOU
  6
CONTINUOUS
 62
     4
 10
22668.321393999991
 20
6096.5902499999984
 30
0.0
 11
22668.321393999991
 21
5296.5902499999984
 31
0.0
  0
LINE
  5
5117
  8
SUNPOU
  6
CONTINUOUS
 62
     4
 10
19587.821393999991
 20
5376.5902499999984
 30
0.0
 11
22668.321393999991
 21
5376.5902499999984
 31
0.0
  0
LINE
  5
5118
  8
SUNPOU
  6
CONTINUOUS
 62
     4
 10
22856.321393999999
 20
6096.5902499999984
 30
0.0
 11
22856.321393999999
 21
5296.5902499999984
 31
0.0
  0
LINE
  5
5119
  8
SUNPOU
  6
CONTINUOUS
 62
     4
 10
25936.821393999991
 20
6096.5902499999984
 30
0.0
 11
25936.821393999991
 21
5296.5902499999984
 31
0.0
  0
LINE
  5
511A
  8
SUNPOU
  6
CONTINUOUS
 62
     4
 10
22856.321393999999
 20
5376.5902499999984
 30
0.0
 11
25936.821393999991
 21
5376.5902499999984
 31
0.0
  0
LINE
  5
511B
  8
SUNPOU
  6
CONTINUOUS
 62
     4
 10
22762.321393999991
 20
5833.9378269999979
 30
0.0
 11
22762.321393999991
 21
4896.5902499999993
 31
0.0
  0
LINE
  5
511C
  8
SUNPOU
  6
CONTINUOUS
 62
     4
 10
26030.821393999999
 20
5833.9378269999979
 30
0.0
 11
26030.821393999999
 21
4896.5902499999993
 31
0.0
  0
LINE
  5
511D
  8
SUNPOU
  6
CONTINUOUS
 62
     4
 10
22762.321393999991
 20
4976.5902500000002
 30
0.0
 11
26030.821393999999
 21
4976.5902500000002
 31
0.0
  0
LINE
  5
511E
  8
SUNPOU
  6
CONTINUOUS
 62
     4
 10
19493.821393999991
 20
5833.9378269999979
 30
0.0
 11
19493.821393999991
 21
4896.5902499999993
 31
0.0
  0
LINE
  5
511F
  8
SUNPOU
  6
CONTINUOUS
 62
     4
 10
22762.321393999991
 20
5833.9378269999979
 30
0.0
 11
22762.321393999991
 21
4896.5902499999993
 31
0.0
  0
LINE
  5
5120
  8
SUNPOU
  6
CONTINUOUS
 62
     4
 10
19493.821393999991
 20
4976.5902500000002
 30
0.0
 11
22762.321393999991
 21
4976.5902500000002
 31
0.0
  0
LINE
  5
5121
  8
SUNPOU
  6
CONTINUOUS
 62
     4
 10
26030.825352999989
 20
5833.9378269999979
 30
0.0
 11
26030.825352999989
 21
4896.5902499999993
 31
0.0
  0
LINE
  5
5122
  8
SUNPOU
  6
CONTINUOUS
 62
     4
 10
26073.325353
 20
6096.5902499999984
 30
0.0
 11
26073.325353
 21
4896.5902499999993
 31
0.0
  0
LINE
  5
5123
  8
SUNPOU
  6
CONTINUOUS
 62
     4
 10
26030.825352999989
 20
4976.5902500000002
 30
0.0
 11
25790.825352999989
 21
4976.5902500000002
 31
0.0
  0
LINE
  5
5124
  8
SUNPOU
  6
CONTINUOUS
 62
     4
 10
26073.325353
 20
4976.5902500000002
 30
0.0
 11
26313.325353
 21
4976.5902500000002
 31
0.0
  0
LINE
  5
5125
  8
SUNPOU
  6
CONTINUOUS
 62
     4
 10
26030.825352999989
 20
4976.5902500000002
 30
0.0
 11
26073.325353
 21
4976.5902500000002
 31
0.0
  0
LINE
  5
5126
  8
SUNPOU
  6
CONTINUOUS
 62
     4
 10
19493.821393999991
 20
5833.9378269999979
 30
0.0
 11
19493.821393999991
 21
4896.5902499999993
 31
0.0
  0
LINE
  5
5127
  8
SUNPOU
  6
CONTINUOUS
 62
     4
 10
19451.321393999991
 20
6096.5902499999984
 30
0.0
 11
19451.321393999991
 21
4896.5902499999993
 31
0.0
  0
LINE
  5
5128
  8
SUNPOU
  6
CONTINUOUS
 62
     4
 10
19493.821393999991
 20
4976.5902500000002
 30
0.0
 11
19733.821393999991
 21
4976.5902500000002
 31
0.0
  0
LINE
  5
5129
  8
SUNPOU
  6
CONTINUOUS
 62
     4
 10
19451.321393999991
 20
4976.5902500000002
 30
0.0
 11
19211.321393999991
 21
4976.5902500000002
 31
0.0
  0
LINE
  5
512A
  8
SUNPOU
  6
CONTINUOUS
 62
     4
 10
19493.821393999991
 20
4976.5902500000002
 30
0.0
 11
19451.321393999991
 21
4976.5902500000002
 31
0.0
  0
LINE
  5
512B
  8
SUNPOU
  6
CONTINUOUS
 62
     4
 10
19451.321393999991
 20
6096.5902499999984
 30
0.0
 11
19451.321393999991
 21
4496.5904149999969
 31
0.0
  0
LINE
  5
512C
  8
SUNPOU
  6
CONTINUOUS
 62
     4
 10
26073.321393999991
 20
6096.5902499999984
 30
0.0
 11
26073.321393999991
 21
4496.5904149999969
 31
0.0
  0
LINE
  5
512D
  8
SUNPOU
  6
CONTINUOUS
 62
     4
 10
19451.321393999991
 20
4576.5904149999969
 30
0.0
 11
26073.321393999991
 21
4576.5904149999969
 31
0.0
  0
LINE
  5
512E
  8
SUNPOU
  6
CONTINUOUS
 62
     4
 10
8882.5340609999967
 20
8513.5900850000016
 30
0.0
 11
8882.5340609999967
 21
9904.5901109999977
 31
0.0
  0
LINE
  5
512F
  8
SUNPOU
  6
CONTINUOUS
 62
     4
 10
15484.034061
 20
8645.4799084124334
 30
0.0
 11
15484.034061
 21
9904.5901109999977
 31
0.0
  0
LINE
  5
5130
  8
SUNPOU
  6
CONTINUOUS
 62
     4
 10
8882.5340609999967
 20
9824.5901109999995
 30
0.0
 11
15484.034061
 21
9824.5901109999995
 31
0.0
  0
LINE
  5
5131
  8
SUNPOU
  6
CONTINUOUS
 62
     4
 10
15334.034061
 20
8571.5001490000031
 30
0.0
 11
15334.034061
 21
9504.5917609999997
 31
0.0
  0
LINE
  5
5132
  8
SUNPOU
  6
CONTINUOUS
 62
     4
 10
15484.034061
 20
8645.4799084124334
 30
0.0
 11
15484.034061
 21
9504.5917609999997
 31
0.0
  0
LINE
  5
5133
  8
SUNPOU
  6
CONTINUOUS
 62
     4
 10
15334.034061
 20
9424.5917609999997
 30
0.0
 11
15094.034061
 21
9424.5917609999997
 31
0.0
  0
LINE
  5
5134
  8
SUNPOU
  6
CONTINUOUS
 62
     4
 10
15484.034061
 20
9424.5917609999997
 30
0.0
 11
15724.034061
 21
9424.5917609999997
 31
0.0
  0
LINE
  5
5135
  8
SUNPOU
  6
CONTINUOUS
 62
     4
 10
15334.034061
 20
9424.5917609999997
 30
0.0
 11
15484.034061
 21
9424.5917609999997
 31
0.0
  0
LINE
  5
5136
  8
SUNPOU
  6
CONTINUOUS
 62
     4
 10
9062.5340609999967
 20
8383.7758606838106
 30
0.0
 11
9062.5340609999967
 21
9504.5917609999997
 31
0.0
  0
LINE
  5
5137
  8
SUNPOU
  6
CONTINUOUS
 62
     4
 10
15334.034061
 20
8571.5001490000031
 30
0.0
 11
15334.034061
 21
9504.5917609999997
 31
0.0
  0
LINE
  5
5138
  8
SUNPOU
  6
CONTINUOUS
 62
     4
 10
9062.5340609999967
 20
9424.5917609999997
 30
0.0
 11
15334.034061
 21
9424.5917609999997
 31
0.0
  0
LINE
  5
5139
  8
SUNPOU
  6
CONTINUOUS
 62
     4
 10
8882.5340609999967
 20
8513.5900850000016
 30
0.0
 11
8882.5340609999967
 21
9504.5917609999997
 31
0.0
  0
LINE
  5
513A
  8
SUNPOU
  6
CONTINUOUS
 62
     4
 10
9062.5340609999967
 20
8383.7758606838106
 30
0.0
 11
9062.5340609999967
 21
9504.5917609999997
 31
0.0
  0
LINE
  5
513B
  8
SUNPOU
  6
CONTINUOUS
 62
     4
 10
8882.5340609999967
 20
9424.5917609999997
 30
0.0
 11
8642.5340609999967
 21
9424.5917609999997
 31
0.0
  0
LINE
  5
513C
  8
SUNPOU
  6
CONTINUOUS
 62
     4
 10
9062.5340609999967
 20
9424.5917609999997
 30
0.0
 11
9302.5340609999967
 21
9424.5917609999997
 31
0.0
  0
LINE
  5
513D
  8
SUNPOU
  6
CONTINUOUS
 62
     4
 10
8882.5340609999967
 20
9424.5917609999997
 30
0.0
 11
9062.5340609999967
 21
9424.5917609999997
 31
0.0
  0
LINE
  5
513E
  8
SUNPOU
  6
CONTINUOUS
 62
     4
 10
15426.534061
 20
6276.5900850000025
 30
0.0
 11
16504.034456999991
 21
6276.5900850000025
 31
0.0
  0
LINE
  5
513F
  8
SUNPOU
  6
CONTINUOUS
 62
     4
 10
15518.84132059936
 20
8624.5900850000016
 30
0.0
 11
16504.034457000002
 21
8624.5900850000016
 31
0.0
  0
LINE
  5
5140
  8
SUNPOU
  6
CONTINUOUS
 62
     4
 10
16424.034456999991
 20
6276.5900850000025
 30
0.0
 11
16424.034457000002
 21
8624.5900850000016
 31
0.0
  0
LINE
  5
5141
  8
SUNPOU
  6
CONTINUOUS
 62
     4
 10
8975.0340609999967
 20
6276.5900850000025
 30
0.0
 11
7892.5336650000027
 21
6276.5900850000025
 31
0.0
  0
LINE
  5
5142
  8
SUNPOU
  6
CONTINUOUS
 62
     4
 10
8802.5340609999967
 20
8433.5900850000016
 30
0.0
 11
7892.5336650000027
 21
8433.5900850000016
 31
0.0
  0
LINE
  5
5143
  8
SUNPOU
  6
CONTINUOUS
 62
     4
 10
7972.5336650000027
 20
6276.5900850000025
 30
0.0
 11
7972.5336650000027
 21
8433.5900850000016
 31
0.0
  0
LINE
  5
5144
  8
SUNPOU
  6
CONTINUOUS
 62
     4
 10
9062.5340609999967
 20
6196.5900850000025
 30
0.0
 11
9062.5340609999967
 21
4496.5904150000006
 31
0.0
  0
LINE
  5
5145
  8
SUNPOU
  6
CONTINUOUS
 62
     4
 10
15334.034061
 20
6196.5900850000025
 30
0.0
 11
15334.034061
 21
4496.5904150000006
 31
0.0
  0
LINE
  5
5146
  8
SUNPOU
  6
CONTINUOUS
 62
     4
 10
9062.5340609999967
 20
4576.5904150000006
 30
0.0
 11
15334.034061
 21
4576.5904150000006
 31
0.0
  0
LINE
  5
5147
  8
SUNPOU
  6
CONTINUOUS
 62
     4
 10
15291.534061
 20
5833.9378270000034
 30
0.0
 11
15291.534061
 21
4896.5902500000011
 31
0.0
  0
LINE
  5
5148
  8
SUNPOU
  6
CONTINUOUS
 62
     4
 10
15334.034061
 20
6196.5900850000025
 30
0.0
 11
15334.034061
 21
4896.5902500000011
 31
0.0
  0
LINE
  5
5149
  8
SUNPOU
  6
CONTINUOUS
 62
     4
 10
15291.534061
 20
4976.5902500000002
 30
0.0
 11
15051.53406099998
 21
4976.5902500000002
 31
0.0
  0
LINE
  5
514A
  8
SUNPOU
  6
CONTINUOUS
 62
     4
 10
15334.034061
 20
4976.5902500000002
 30
0.0
 11
15574.034061
 21
4976.5902500000002
 31
0.0
  0
LINE
  5
514B
  8
SUNPOU
  6
CONTINUOUS
 62
     4
 10
15291.534061
 20
4976.5902500000002
 30
0.0
 11
15334.034061
 21
4976.5902500000002
 31
0.0
  0
LINE
  5
514C
  8
SUNPOU
  6
CONTINUOUS
 62
     4
 10
9105.0340609999967
 20
5833.9378270000034
 30
0.0
 11
9105.0340609999967
 21
4896.5902500000011
 31
0.0
  0
LINE
  5
514D
  8
SUNPOU
  6
CONTINUOUS
 62
     4
 10
9062.5340609999967
 20
6196.5900850000025
 30
0.0
 11
9062.5340609999967
 21
4896.5902500000011
 31
0.0
  0
LINE
  5
514E
  8
SUNPOU
  6
CONTINUOUS
 62
     4
 10
9105.0340609999967
 20
4976.5902500000002
 30
0.0
 11
9345.0340609999985
 21
4976.5902500000002
 31
0.0
  0
LINE
  5
514F
  8
SUNPOU
  6
CONTINUOUS
 62
     4
 10
9062.5340609999967
 20
4976.5902500000002
 30
0.0
 11
8822.5340609999967
 21
4976.5902500000002
 31
0.0
  0
LINE
  5
5150
  8
SUNPOU
  6
CONTINUOUS
 62
     4
 10
9105.0340609999967
 20
4976.5902500000002
 30
0.0
 11
9062.5340609999967
 21
4976.5902500000002
 31
0.0
  0
LINE
  5
5151
  8
SUNPOU
  6
CONTINUOUS
 62
     4
 10
12023.034061
 20
5833.9378270000034
 30
0.0
 11
12023.034061
 21
4896.5902500000011
 31
0.0
  0
LINE
  5
5152
  8
SUNPOU
  6
CONTINUOUS
 62
     4
 10
9105.0340609999967
 20
5833.9378270000034
 30
0.0
 11
9105.0340609999967
 21
4896.5902500000011
 31
0.0
  0
LINE
  5
5153
  8
SUNPOU
  6
CONTINUOUS
 62
     4
 10
12023.034061
 20
4976.5902500000002
 30
0.0
 11
9105.0340609999967
 21
4976.5902500000002
 31
0.0
  0
LINE
  5
5154
  8
SUNPOU
  6
CONTINUOUS
 62
     4
 10
12023.034061
 20
5833.9378270000034
 30
0.0
 11
12023.034061
 21
4896.590250000002
 31
0.0
  0
LINE
  5
5155
  8
SUNPOU
  6
CONTINUOUS
 62
     4
 10
15291.534061
 20
5833.9378270000034
 30
0.0
 11
15291.534061
 21
4896.590250000002
 31
0.0
  0
LINE
  5
5156
  8
SUNPOU
  6
CONTINUOUS
 62
     4
 10
12023.034061
 20
4976.590250000002
 30
0.0
 11
15291.534061
 21
4976.590250000002
 31
0.0
  0
TEXT
  5
5157
  8
0
  6
CONTINUOUS
 62
     7
 10
13257.284061
 20
5056.590250000002
 30
0.0
 40
160.0
  1
3268.5
  0
TEXT
  5
5158
  8
0
  6
CONTINUOUS
 62
     7
 10
10297.367394333331
 20
5056.5902500000011
 30
0.0
 40
160.0
  1
2918
  0
TEXT
  5
5159
  8
0
  6
CONTINUOUS
 62
     7
 10
8465.3603519036915
 20
5056.5902500000011
 30
0.0
 40
160.0
  1
42.5
  0
TEXT
  5
515A
  8
0
  6
CONTINUOUS
 62
     7
 10
15472.35269830982
 20
5056.5902500000011
 30
0.0
 40
160.0
  1
42.5
  0
TEXT
  5
515B
  8
0
  6
CONTINUOUS
 62
     7
 10
11824.950727666661
 20
4656.5904150000006
 30
0.0
 40
160.0
  1
6271.5
  0
TEXT
  5
515C
  8
0
  6
CONTINUOUS
 62
     7
 10
7892.5336650000008
 20
6576.4234183333374
 30
0.0
 40
160.0
  1
2157（2397）
 50
90.0
  0
TEXT
  5
515D
  8
0
  6
CONTINUOUS
 62
     7
 10
16344.034456999991
 20
6645.2567516666686
 30
0.0
 40
160.0
  1
2348（2588）
 50
90.0
  0
TEXT
  5
515E
  8
0
  6
CONTINUOUS
 62
     7
 10
8469.2007276666645
 20
9504.5917609999997
 30
0.0
 40
160.0
  1
180
  0
TEXT
  5
515F
  8
0
  6
CONTINUOUS
 62
     7
 10
11824.950727666661
 20
9504.5917609999997
 30
0.0
 40
160.0
  1
6271.5
  0
TEXT
  5
5160
  8
0
  6
CONTINUOUS
 62
     7
 10
15550.700727666661
 20
9504.5917609999997
 30
0.0
 40
160.0
  1
150
  0
TEXT
  5
5161
  8
0
  6
CONTINUOUS
 62
     7
 10
11823.284061
 20
9904.5901109999977
 30
0.0
 40
160.0
  1
6601.5
  0
TEXT
  5
5162
  8
0
  6
CONTINUOUS
 62
     7
 10
22468.98806066667
 20
4656.5904149999969
 30
0.0
 40
160.0
  1
6622
  0
TEXT
  5
5163
  8
0
  6
CONTINUOUS
 62
     7
 10
18885.282403741141
 20
5056.5902499999993
 30
0.0
 40
160.0
  1
42.5
  0
TEXT
  5
5164
  8
0
  6
CONTINUOUS
 62
     7
 10
26159.364343258851
 20
5056.5902499999993
 30
0.0
 40
160.0
  1
42.5
  0
TEXT
  5
5165
  8
0
  6
CONTINUOUS
 62
     7
 10
20728.071393999999
 20
5056.5902499999993
 30
0.0
 40
160.0
  1
3268.5
  0
TEXT
  5
5166
  8
0
  6
CONTINUOUS
 62
     7
 10
23996.571393999991
 20
5056.5902499999993
 30
0.0
 40
160.0
  1
3268.5
  0
TEXT
  5
5167
  8
0
  6
CONTINUOUS
 62
     7
 10
23495.238060666648
 20
5456.5902499999984
 30
0.0
 40
160.0
  1
有効開口巾 3080.5
  0
TEXT
  5
5168
  8
0
  6
CONTINUOUS
 62
     7
 10
20226.738060666648
 20
5456.5902499999984
 30
0.0
 40
160.0
  1
有効開口巾 3080.5
  0
TEXT
  5
516D
  8
0
  6
CONTINUOUS
 62
     7
 10
18163.81974499999
 20
6645.2567516666686
 30
0.0
 40
160.0
  1
2348（2588）
 50
90.0
  0
TEXT
  5
516E
  8
0
  6
CONTINUOUS
 62
     7
 10
18563.822053999989
 20
6340.5693232912718
 30
0.0
 40
160.0
  1
有効開口高サ 1891.5
 50
90.0
  0
TEXT
  5
516F
  8
0
  6
CONTINUOUS
 62
     7
 10
20078.488060666648
 20
20424.232102000031
 30
0.0
 40
160.0
  1
701
  0
TEXT
  5
5170
  8
0
  6
CONTINUOUS
 62
     7
 10
20779.488060666648
 20
20744.232102000031
 30
0.0
 40
160.0
  1
701
  0
TEXT
  5
5171
  8
0
  6
CONTINUOUS
 62
     7
 10
21480.488060666648
 20
20744.232102000031
 30
0.0
 40
160.0
  1
701
  0
TEXT
  5
5172
  8
0
  6
CONTINUOUS
 62
     7
 10
22169.988555416669
 20
20744.232102000031
 30
0.0
 40
160.0
  1
758
  0
TEXT
  5
5173
  8
0
  6
CONTINUOUS
 62
     7
 10
18891.009414471191
 20
20744.232102000031
 30
0.0
 40
160.0
  1
42.5
  0
TEXT
  5
5174
  8
0
  6
CONTINUOUS
 62
     7
 10
19594.654727333309
 20
20744.232102000031
 30
0.0
 40
160.0
  1
407.5
  0
TEXT
  5
5175
  8
0
  6
CONTINUOUS
 62
     7
 10
26153.633373528799
 20
20744.232102000031
 30
0.0
 40
160.0
  1
42.5
  0
TEXT
  5
5176
  8
0
  6
CONTINUOUS
 62
     7
 10
23346.988060666648
 20
20424.232102000031
 30
0.0
 40
160.0
  1
701
  0
TEXT
  5
5177
  8
0
  6
CONTINUOUS
 62
     7
 10
24047.988060666648
 20
20744.232102000031
 30
0.0
 40
160.0
  1
701
  0
TEXT
  5
5178
  8
0
  6
CONTINUOUS
 62
     7
 10
24748.988060666648
 20
20744.232102000031
 30
0.0
 40
160.0
  1
701
  0
TEXT
  5
5179
  8
0
  6
CONTINUOUS
 62
     7
 10
25438.488555416661
 20
20744.232102000031
 30
0.0
 40
160.0
  1
758
  0
TEXT
  5
517A
  8
0
  6
CONTINUOUS
 62
     7
 10
22863.154727333331
 20
20744.232102000031
 30
0.0
 40
160.0
  1
407.5
  0
TEXT
  5
517B
  8
0
  6
CONTINUOUS
 62
     7
 10
27443.320997999988
 20
13089.1773826032
 30
0.0
 40
160.0
  1
42.5
 50
90.0
  0
TEXT
  5
517C
  8
0
  6
CONTINUOUS
 62
     7
 10
27443.320997999988
 20
20027.784445396788
 30
0.0
 40
160.0
  1
42.5
 50
90.0
  0
TEXT
  5
517D
  8
0
  6
CONTINUOUS
 62
     7
 10
27843.320997999988
 20
16425.147580666671
 30
0.0
 40
160.0
  1
6271.5
 50
90.0
  0
TEXT
  5
517E
  8
0
  6
CONTINUOUS
 62
     7
 10
27443.320997999988
 20
14939.480913999991
 30
0.0
 40
160.0
  1
3268.5
 50
90.0
  0
TEXT
  5
517F
  8
0
  6
CONTINUOUS
 62
     7
 10
27443.320997999988
 20
18166.064247333321
 30
0.0
 40
160.0
  1
2918
 50
90.0
  0
TEXT
  5
5180
  8
0
  6
CONTINUOUS
 62
     7
 10
27043.320997999988
 20
19299.397580666671
 30
0.0
 40
160.0
  1
758
 50
90.0
  0
TEXT
  5
5181
  8
0
  6
CONTINUOUS
 62
     7
 10
27043.320997999988
 20
18609.897580666671
 30
0.0
 40
160.0
  1
701
 50
90.0
  0
TEXT
  5
5182
  8
0
  6
CONTINUOUS
 62
     7
 10
27043.320997999988
 20
17908.897580666671
 30
0.0
 40
160.0
  1
701
 50
90.0
  0
TEXT
  5
5183
  8
0
  6
CONTINUOUS
 62
     7
 10
27043.320997999988
 20
17139.397580666671
 30
0.0
 40
160.0
  1
758
 50
90.0
  0
TEXT
  5
5184
  8
0
  6
CONTINUOUS
 62
     7
 10
27043.320997999988
 20
16381.39758066666
 30
0.0
 40
160.0
  1
758
 50
90.0
  0
TEXT
  5
5185
  8
0
  6
CONTINUOUS
 62
     7
 10
27043.320997999988
 20
15692.01783641668
 30
0.0
 40
160.0
  1
701
 50
90.0
  0
TEXT
  5
5186
  8
0
  6
CONTINUOUS
 62
     7
 10
27043.320997999988
 20
14991.01783641668
 30
0.0
 40
160.0
  1
701
 50
90.0
  0
TEXT
  5
5187
  8
0
  6
CONTINUOUS
 62
     7
 10
27043.320997999988
 20
14289.89758066666
 30
0.0
 40
160.0
  1
701
 50
90.0
  0
TEXT
  5
5188
  8
0
  6
CONTINUOUS
 62
     7
 10
27403.320997999999
 20
13778.051328203541
 30
0.0
 40
160.0
  1
407.5
 50
90.0
  0
TEXT
  5
5189
  8
0
  6
CONTINUOUS
 62
     7
 10
22468.98806066667
 20
12413.782829999989
 30
0.0
 40
160.0
  1
6622
  0
TEXT
  5
518A
  8
0
  6
CONTINUOUS
 62
     7
 10
19611.87506638209
 20
12813.78283
 30
0.0
 40
160.0
  1
42.5
  0
TEXT
  5
518B
  8
0
  6
CONTINUOUS
 62
     7
 10
25432.767721617911
 20
12813.78283
 30
0.0
 40
160.0
  1
42.5
  0
TEXT
  5
518C
  8
0
  6
CONTINUOUS
 62
     7
 10
26148.87506638209
 20
12813.78283
 30
0.0
 40
160.0
  1
42.5
  0
TEXT
  5
518D
  8
0
  6
CONTINUOUS
 62
     7
 10
18895.7677216179
 20
12813.78283
 30
0.0
 40
160.0
  1
42.5
  0
TEXT
  5
518E
  8
0
  6
CONTINUOUS
 62
     7
 10
7478.3625289999891
 20
12897.27790370263
 30
0.0
 40
160.0
  1
192.5
 50
90.0
  0
TEXT
  5
518F
  8
0
  6
CONTINUOUS
 62
     7
 10
7478.3625289999891
 20
14249.980913999991
 30
0.0
 40
160.0
  1
1809.5
 50
90.0
  0
TEXT
  5
5190
  8
0
  6
CONTINUOUS
 62
     7
 10
7478.3625289999891
 20
15977.56424733333
 30
0.0
 40
160.0
  1
1459
 50
90.0
  0
TEXT
  5
5191
  8
0
  6
CONTINUOUS
 62
     7
 10
7478.3625289999891
 20
17436.56424733331
 30
0.0
 40
160.0
  1
1459
 50
90.0
  0
TEXT
  5
5192
  8
0
  6
CONTINUOUS
 62
     7
 10
7478.3625289999891
 20
18895.564247333321
 30
0.0
 40
160.0
  1
1459
 50
90.0
  0
TEXT
  5
5193
  8
0
  6
CONTINUOUS
 62
     7
 10
7478.3625289999891
 20
20203.186098807681
 30
0.0
 40
160.0
  1
222.5
 50
90.0
  0
TEXT
  5
5194
  8
0
  6
CONTINUOUS
 62
     7
 10
7878.36252899999
 20
20234.226823000001
 30
0.0
 40
160.0
  1
20
 50
90.0
  0
TEXT
  5
5195
  8
0
  6
CONTINUOUS
 62
     7
 10
12990.60636699996
 20
20744.236061
 30
0.0
 40
160.0
  1
3268.5
  0
TEXT
  5
5196
  8
0
  6
CONTINUOUS
 62
     7
 10
15161.35307302324
 20
20744.236061
 30
0.0
 40
160.0
  1
85.5
  0
TEXT
  5
5197
  8
0
  6
CONTINUOUS
 62
     7
 10
9722.1182430000117
 20
20744.236061
 30
0.0
 40
160.0
  1
3268.5
  0
TEXT
  5
5198
  8
0
  6
CONTINUOUS
 62
     7
 10
7871.3715369767451
 20
20744.236061
 30
0.0
 40
160.0
  1
85.5
  0
TEXT
  5
519A
  8
0
  6
CONTINUOUS
 62
     7
 10
18484.366816999991
 20
14250.101169750011
 30
0.0
 40
160.0
  1
1809.5
 50
90.0
  0
TEXT
  5
519B
  8
0
  6
CONTINUOUS
 62
     7
 10
18484.366816999991
 20
15977.684503083339
 30
0.0
 40
160.0
  1
1459
 50
90.0
  0
TEXT
  5
519C
  8
0
  6
CONTINUOUS
 62
     7
 10
18484.366816999991
 20
17436.56424733331
 30
0.0
 40
160.0
  1
1459
 50
90.0
  0
TEXT
  5
519D
  8
0
  6
CONTINUOUS
 62
     7
 10
18484.366816999991
 20
18895.564247333321
 30
0.0
 40
160.0
  1
1459
 50
90.0
  0
ARC
  5
519E
  8
0
  6
BYBLOCK
 62
     0
 10
18564.366816999991
 20
18432.730914
 30
0.0
 40
15.0
 50
90.0
 51
270.0
  0
ARC
  5
519F
  8
0
  6
BYBLOCK
 62
     0
 10
18564.366816999991
 20
18432.730914
 30
0.0
 40
15.0
 50
270.0
 51
90.0
  0
ARC
  5
51A0
  8
0
  6
BYBLOCK
 62
     0
 10
18564.366816999991
 20
19891.730914
 30
0.0
 40
15.0
 50
270.0
 51
90.0
  0
ARC
  5
51A1
  8
0
  6
BYBLOCK
 62
     0
 10
18564.366816999991
 20
19891.730914
 30
0.0
 40
15.0
 50
90.0
 51
270.0
  0
ARC
  5
51A2
  8
0
  6
BYBLOCK
 62
     0
 10
18564.366816999991
 20
16973.730914
 30
0.0
 40
15.0
 50
90.0
 51
270.0
  0
ARC
  5
51A3
  8
0
  6
BYBLOCK
 62
     0
 10
18564.366816999991
 20
16973.730914
 30
0.0
 40
15.0
 50
270.0
 51
90.0
  0
ARC
  5
51A4
  8
0
  6
BYBLOCK
 62
     0
 10
18564.366816999991
 20
18432.730914
 30
0.0
 40
15.0
 50
270.0
 51
90.0
  0
ARC
  5
51A5
  8
0
  6
BYBLOCK
 62
     0
 10
18564.366816999991
 20
18432.730914
 30
0.0
 40
15.0
 50
90.0
 51
270.0
  0
ARC
  5
51A6
  8
0
  6
BYBLOCK
 62
     0
 10
18564.366816999991
 20
15514.971425500011
 30
0.0
 40
15.0
 50
90.0
 51
270.0
  0
ARC
  5
51A7
  8
0
  6
BYBLOCK
 62
     0
 10
18564.366816999991
 20
15514.971425500011
 30
0.0
 40
15.0
 50
270.0
 51
90.0
  0
ARC
  5
51A8
  8
0
  6
BYBLOCK
 62
     0
 10
18564.366816999991
 20
16973.730914
 30
0.0
 40
15.0
 50
270.0
 51
90.0
  0
ARC
  5
51A9
  8
0
  6
BYBLOCK
 62
     0
 10
18564.366816999991
 20
16973.730914
 30
0.0
 40
15.0
 50
90.0
 51
270.0
  0
ARC
  5
51AA
  8
0
  6
BYBLOCK
 62
     0
 10
18564.366816999991
 20
13705.230913999991
 30
0.0
 40
15.0
 50
90.0
 51
270.0
  0
ARC
  5
51AB
  8
0
  6
BYBLOCK
 62
     0
 10
18564.366816999991
 20
13705.230913999991
 30
0.0
 40
15.0
 50
270.0
 51
90.0
  0
ARC
  5
51AC
  8
0
  6
BYBLOCK
 62
     0
 10
18564.366816999991
 20
15514.971425500011
 30
0.0
 40
15.0
 50
270.0
 51
90.0
  0
ARC
  5
51AD
  8
0
  6
BYBLOCK
 62
     0
 10
18564.366816999991
 20
15514.971425500011
 30
0.0
 40
15.0
 50
90.0
 51
270.0
  0
ARC
  5
51B2
  8
0
  6
BYBLOCK
 62
     0
 10
8487.8682430000081
 20
20664.236061
 30
0.0
 40
15.0
 50
0.0
 51
180.0
  0
ARC
  5
51B3
  8
0
  6
BYBLOCK
 62
     0
 10
8487.8682430000081
 20
20664.236061
 30
0.0
 40
15.0
 50
180.0
 51
0.0
  0
ARC
  5
51B4
  8
0
  6
BYBLOCK
 62
     0
 10
8402.3682430000081
 20
20664.236061
 30
0.0
 40
15.0
 50
180.0
 51
0.0
  0
ARC
  5
51B5
  8
0
  6
BYBLOCK
 62
     0
 10
8402.3682430000081
 20
20664.236061
 30
0.0
 40
15.0
 50
0.0
 51
180.0
  0
ARC
  5
51B6
  8
0
  6
BYBLOCK
 62
     0
 10
11756.36824300001
 20
20664.236061
 30
0.0
 40
15.0
 50
180.0
 51
0.0
  0
ARC
  5
51B7
  8
0
  6
BYBLOCK
 62
     0
 10
11756.36824300001
 20
20664.236061
 30
0.0
 40
15.0
 50
0.0
 51
180.0
  0
ARC
  5
51B8
  8
0
  6
BYBLOCK
 62
     0
 10
8487.8682430000081
 20
20664.236061
 30
0.0
 40
15.0
 50
0.0
 51
180.0
  0
ARC
  5
51B9
  8
0
  6
BYBLOCK
 62
     0
 10
8487.8682430000081
 20
20664.236061
 30
0.0
 40
15.0
 50
180.0
 51
0.0
  0
ARC
  5
51BA
  8
0
  6
BYBLOCK
 62
     0
 10
15024.856366999949
 20
20664.236061
 30
0.0
 40
15.0
 50
180.0
 51
0.0
  0
ARC
  5
51BB
  8
0
  6
BYBLOCK
 62
     0
 10
15024.856366999949
 20
20664.236061
 30
0.0
 40
15.0
 50
0.0
 51
180.0
  0
ARC
  5
51BC
  8
0
  6
BYBLOCK
 62
     0
 10
15110.35636699996
 20
20664.236061
 30
0.0
 40
15.0
 50
0.0
 51
180.0
  0
ARC
  5
51BD
  8
0
  6
BYBLOCK
 62
     0
 10
15110.35636699996
 20
20664.236061
 30
0.0
 40
15.0
 50
180.0
 51
0.0
  0
ARC
  5
51BE
  8
0
  6
BYBLOCK
 62
     0
 10
11756.356366999949
 20
20664.236061
 30
0.0
 40
15.0
 50
0.0
 51
180.0
  0
ARC
  5
51BF
  8
0
  6
BYBLOCK
 62
     0
 10
11756.356366999949
 20
20664.236061
 30
0.0
 40
15.0
 50
180.0
 51
0.0
  0
ARC
  5
51C0
  8
0
  6
BYBLOCK
 62
     0
 10
15024.856366999949
 20
20664.236061
 30
0.0
 40
15.0
 50
180.0
 51
0.0
  0
ARC
  5
51C1
  8
0
  6
BYBLOCK
 62
     0
 10
15024.856366999949
 20
20664.236061
 30
0.0
 40
15.0
 50
0.0
 51
180.0
  0
ARC
  5
51C2
  8
0
  6
BYBLOCK
 62
     0
 10
7958.3625289999909
 20
20094.226823000001
 30
0.0
 40
15.0
 50
270.0
 51
90.0
  0
ARC
  5
51C3
  8
0
  6
BYBLOCK
 62
     0
 10
7958.3625289999909
 20
20094.226823000001
 30
0.0
 40
15.0
 50
90.0
 51
270.0
  0
ARC
  5
51C4
  8
0
  6
BYBLOCK
 62
     0
 10
7958.3625289999909
 20
20114.226823000001
 30
0.0
 40
15.0
 50
90.0
 51
270.0
  0
ARC
  5
51C5
  8
0
  6
BYBLOCK
 62
     0
 10
7958.3625289999909
 20
20114.226823000001
 30
0.0
 40
15.0
 50
270.0
 51
90.0
  0
ARC
  5
51C6
  8
0
  6
BYBLOCK
 62
     0
 10
7558.36252899999
 20
19891.730914
 30
0.0
 40
15.0
 50
270.0
 51
90.0
  0
ARC
  5
51C7
  8
0
  6
BYBLOCK
 62
     0
 10
7558.36252899999
 20
19891.730914
 30
0.0
 40
15.0
 50
90.0
 51
270.0
  0
ARC
  5
51C8
  8
0
  6
BYBLOCK
 62
     0
 10
7558.36252899999
 20
20114.226823000001
 30
0.0
 40
15.0
 50
90.0
 51
270.0
  0
ARC
  5
51C9
  8
0
  6
BYBLOCK
 62
     0
 10
7558.36252899999
 20
20114.226823000001
 30
0.0
 40
15.0
 50
270.0
 51
90.0
  0
ARC
  5
51CA
  8
0
  6
BYBLOCK
 62
     0
 10
7558.36252899999
 20
18432.730914
 30
0.0
 40
15.0
 50
90.0
 51
270.0
  0
ARC
  5
51CB
  8
0
  6
BYBLOCK
 62
     0
 10
7558.36252899999
 20
18432.730914
 30
0.0
 40
15.0
 50
270.0
 51
90.0
  0
ARC
  5
51CC
  8
0
  6
BYBLOCK
 62
     0
 10
7558.36252899999
 20
19891.730914
 30
0.0
 40
15.0
 50
270.0
 51
90.0
  0
ARC
  5
51CD
  8
0
  6
BYBLOCK
 62
     0
 10
7558.36252899999
 20
19891.730914
 30
0.0
 40
15.0
 50
90.0
 51
270.0
  0
ARC
  5
51CE
  8
0
  6
BYBLOCK
 62
     0
 10
7558.36252899999
 20
16973.730914
 30
0.0
 40
15.0
 50
90.0
 51
270.0
  0
ARC
  5
51CF
  8
0
  6
BYBLOCK
 62
     0
 10
7558.36252899999
 20
16973.730914
 30
0.0
 40
15.0
 50
270.0
 51
90.0
  0
ARC
  5
51D0
  8
0
  6
BYBLOCK
 62
     0
 10
7558.36252899999
 20
18432.730914
 30
0.0
 40
15.0
 50
270.0
 51
90.0
  0
ARC
  5
51D1
  8
0
  6
BYBLOCK
 62
     0
 10
7558.36252899999
 20
18432.730914
 30
0.0
 40
15.0
 50
90.0
 51
270.0
  0
ARC
  5
51D2
  8
0
  6
BYBLOCK
 62
     0
 10
7558.36252899999
 20
15514.730913999991
 30
0.0
 40
15.0
 50
90.0
 51
270.0
  0
ARC
  5
51D3
  8
0
  6
BYBLOCK
 62
     0
 10
7558.36252899999
 20
15514.730913999991
 30
0.0
 40
15.0
 50
270.0
 51
90.0
  0
ARC
  5
51D4
  8
0
  6
BYBLOCK
 62
     0
 10
7558.36252899999
 20
16973.730914
 30
0.0
 40
15.0
 50
270.0
 51
90.0
  0
ARC
  5
51D5
  8
0
  6
BYBLOCK
 62
     0
 10
7558.36252899999
 20
16973.730914
 30
0.0
 40
15.0
 50
90.0
 51
270.0
  0
ARC
  5
51D6
  8
0
  6
BYBLOCK
 62
     0
 10
7558.36252899999
 20
13705.230913999991
 30
0.0
 40
15.0
 50
90.0
 51
270.0
  0
ARC
  5
51D7
  8
0
  6
BYBLOCK
 62
     0
 10
7558.36252899999
 20
13705.230913999991
 30
0.0
 40
15.0
 50
270.0
 51
90.0
  0
ARC
  5
51D8
  8
0
  6
BYBLOCK
 62
     0
 10
7558.36252899999
 20
15514.730913999991
 30
0.0
 40
15.0
 50
270.0
 51
90.0
  0
ARC
  5
51D9
  8
0
  6
BYBLOCK
 62
     0
 10
7558.36252899999
 20
15514.730913999991
 30
0.0
 40
15.0
 50
90.0
 51
270.0
  0
ARC
  5
51DA
  8
0
  6
BYBLOCK
 62
     0
 10
7558.36252899999
 20
13705.230913999991
 30
0.0
 40
15.0
 50
90.0
 51
270.0
  0
ARC
  5
51DB
  8
0
  6
BYBLOCK
 62
     0
 10
7558.36252899999
 20
13705.230913999991
 30
0.0
 40
15.0
 50
270.0
 51
90.0
  0
ARC
  5
51DC
  8
0
  6
BYBLOCK
 62
     0
 10
7558.36252899999
 20
13512.735599
 30
0.0
 40
15.0
 50
270.0
 51
90.0
  0
ARC
  5
51DD
  8
0
  6
BYBLOCK
 62
     0
 10
7558.36252899999
 20
13512.735599
 30
0.0
 40
15.0
 50
90.0
 51
270.0
  0
ARC
  5
51DE
  8
0
  6
BYBLOCK
 62
     0
 10
19493.821393999991
 20
12733.782829999989
 30
0.0
 40
15.0
 50
0.0
 51
180.0
  0
ARC
  5
51DF
  8
0
  6
BYBLOCK
 62
     0
 10
19493.821393999991
 20
12733.782829999989
 30
0.0
 40
15.0
 50
180.0
 51
0.0
  0
ARC
  5
51E0
  8
0
  6
BYBLOCK
 62
     0
 10
19451.319151
 20
12733.782829999989
 30
0.0
 40
15.0
 50
180.0
 51
0.0
  0
ARC
  5
51E1
  8
0
  6
BYBLOCK
 62
     0
 10
19451.319151
 20
12733.782829999989
 30
0.0
 40
15.0
 50
0.0
 51
180.0
  0
ARC
  5
51E2
  8
0
  6
BYBLOCK
 62
     0
 10
26030.821393999999
 20
12733.782829999989
 30
0.0
 40
15.0
 50
180.0
 51
0.0
  0
ARC
  5
51E3
  8
0
  6
BYBLOCK
 62
     0
 10
26030.821393999999
 20
12733.782829999989
 30
0.0
 40
15.0
 50
0.0
 51
180.0
  0
ARC
  5
51E4
  8
0
  6
BYBLOCK
 62
     0
 10
26073.323637000001
 20
12733.782829999989
 30
0.0
 40
15.0
 50
0.0
 51
180.0
  0
ARC
  5
51E5
  8
0
  6
BYBLOCK
 62
     0
 10
26073.323637000001
 20
12733.782829999989
 30
0.0
 40
15.0
 50
180.0
 51
0.0
  0
ARC
  5
51E6
  8
0
  6
BYBLOCK
 62
     0
 10
26030.821393999999
 20
12733.782829999989
 30
0.0
 40
15.0
 50
0.0
 51
180.0
  0
ARC
  5
51E7
  8
0
  6
BYBLOCK
 62
     0
 10
26030.821393999999
 20
12733.782829999989
 30
0.0
 40
15.0
 50
180.0
 51
0.0
  0
ARC
  5
51E8
  8
0
  6
BYBLOCK
 62
     0
 10
25988.319150999989
 20
12733.782829999989
 30
0.0
 40
15.0
 50
180.0
 51
0.0
  0
ARC
  5
51E9
  8
0
  6
BYBLOCK
 62
     0
 10
25988.319150999989
 20
12733.782829999989
 30
0.0
 40
15.0
 50
0.0
 51
180.0
  0
ARC
  5
51EA
  8
0
  6
BYBLOCK
 62
     0
 10
19493.821393999991
 20
12733.782829999989
 30
0.0
 40
15.0
 50
180.0
 51
0.0
  0
ARC
  5
51EB
  8
0
  6
BYBLOCK
 62
     0
 10
19493.821393999991
 20
12733.782829999989
 30
0.0
 40
15.0
 50
0.0
 51
180.0
  0
ARC
  5
51EC
  8
0
  6
BYBLOCK
 62
     0
 10
19536.323636999979
 20
12733.782829999989
 30
0.0
 40
15.0
 50
0.0
 51
180.0
  0
ARC
  5
51ED
  8
0
  6
BYBLOCK
 62
     0
 10
19536.323636999979
 20
12733.782829999989
 30
0.0
 40
15.0
 50
180.0
 51
0.0
  0
ARC
  5
51EE
  8
0
  6
BYBLOCK
 62
     0
 10
19451.319151
 20
12333.782829999989
 30
0.0
 40
15.0
 50
0.0
 51
180.0
  0
ARC
  5
51EF
  8
0
  6
BYBLOCK
 62
     0
 10
19451.319151
 20
12333.782829999989
 30
0.0
 40
15.0
 50
180.0
 51
0.0
  0
ARC
  5
51F0
  8
0
  6
BYBLOCK
 62
     0
 10
26073.323637000001
 20
12333.782829999989
 30
0.0
 40
15.0
 50
180.0
 51
0.0
  0
ARC
  5
51F1
  8
0
  6
BYBLOCK
 62
     0
 10
26073.323637000001
 20
12333.782829999989
 30
0.0
 40
15.0
 50
0.0
 51
180.0
  0
ARC
  5
51F2
  8
0
  6
BYBLOCK
 62
     0
 10
27123.320997999988
 20
14112.730913999991
 30
0.0
 40
15.0
 50
270.0
 51
90.0
  0
ARC
  5
51F3
  8
0
  6
BYBLOCK
 62
     0
 10
27123.320997999988
 20
14112.730913999991
 30
0.0
 40
15.0
 50
90.0
 51
270.0
  0
ARC
  5
51F4
  8
0
  6
BYBLOCK
 62
     0
 10
27123.320997999988
 20
13705.230913999991
 30
0.0
 40
15.0
 50
90.0
 51
270.0
  0
ARC
  5
51F5
  8
0
  6
BYBLOCK
 62
     0
 10
27123.320997999988
 20
13705.230913999991
 30
0.0
 40
15.0
 50
270.0
 51
90.0
  0
ARC
  5
51F6
  8
0
  6
BYBLOCK
 62
     0
 10
27123.320997999988
 20
14813.730913999991
 30
0.0
 40
15.0
 50
270.0
 51
90.0
  0
ARC
  5
51F7
  8
0
  6
BYBLOCK
 62
     0
 10
27123.320997999988
 20
14813.730913999991
 30
0.0
 40
15.0
 50
90.0
 51
270.0
  0
ARC
  5
51F8
  8
0
  6
BYBLOCK
 62
     0
 10
27123.320997999988
 20
14112.730913999991
 30
0.0
 40
15.0
 50
90.0
 51
270.0
  0
ARC
  5
51F9
  8
0
  6
BYBLOCK
 62
     0
 10
27123.320997999988
 20
14112.730913999991
 30
0.0
 40
15.0
 50
270.0
 51
90.0
  0
ARC
  5
51FA
  8
0
  6
BYBLOCK
 62
     0
 10
27123.320997999988
 20
15514.971425500011
 30
0.0
 40
15.0
 50
270.0
 51
90.0
  0
ARC
  5
51FB
  8
0
  6
BYBLOCK
 62
     0
 10
27123.320997999988
 20
15514.971425500011
 30
0.0
 40
15.0
 50
90.0
 51
270.0
  0
ARC
  5
51FC
  8
0
  6
BYBLOCK
 62
     0
 10
27123.320997999988
 20
14813.730913999991
 30
0.0
 40
15.0
 50
90.0
 51
270.0
  0
ARC
  5
51FD
  8
0
  6
BYBLOCK
 62
     0
 10
27123.320997999988
 20
14813.730913999991
 30
0.0
 40
15.0
 50
270.0
 51
90.0
  0
ARC
  5
51FE
  8
0
  6
BYBLOCK
 62
     0
 10
27123.320997999988
 20
16215.730913999991
 30
0.0
 40
15.0
 50
270.0
 51
90.0
  0
ARC
  5
51FF
  8
0
  6
BYBLOCK
 62
     0
 10
27123.320997999988
 20
16215.730913999991
 30
0.0
 40
15.0
 50
90.0
 51
270.0
  0
ARC
  5
5200
  8
0
  6
BYBLOCK
 62
     0
 10
27123.320997999988
 20
15514.971425500011
 30
0.0
 40
15.0
 50
90.0
 51
270.0
  0
ARC
  5
5201
  8
0
  6
BYBLOCK
 62
     0
 10
27123.320997999988
 20
15514.971425500011
 30
0.0
 40
15.0
 50
270.0
 51
90.0
  0
ARC
  5
5202
  8
0
  6
BYBLOCK
 62
     0
 10
27123.320997999988
 20
16973.730914
 30
0.0
 40
15.0
 50
270.0
 51
90.0
  0
ARC
  5
5203
  8
0
  6
BYBLOCK
 62
     0
 10
27123.320997999988
 20
16973.730914
 30
0.0
 40
15.0
 50
90.0
 51
270.0
  0
ARC
  5
5204
  8
0
  6
BYBLOCK
 62
     0
 10
27123.320997999988
 20
16215.730913999991
 30
0.0
 40
15.0
 50
90.0
 51
270.0
  0
ARC
  5
5205
  8
0
  6
BYBLOCK
 62
     0
 10
27123.320997999988
 20
16215.730913999991
 30
0.0
 40
15.0
 50
270.0
 51
90.0
  0
ARC
  5
5206
  8
0
  6
BYBLOCK
 62
     0
 10
27123.320997999988
 20
17731.730914
 30
0.0
 40
15.0
 50
270.0
 51
90.0
  0
ARC
  5
5207
  8
0
  6
BYBLOCK
 62
     0
 10
27123.320997999988
 20
17731.730914
 30
0.0
 40
15.0
 50
90.0
 51
270.0
  0
ARC
  5
5208
  8
0
  6
BYBLOCK
 62
     0
 10
27123.320997999988
 20
16973.730914
 30
0.0
 40
15.0
 50
90.0
 51
270.0
  0
ARC
  5
5209
  8
0
  6
BYBLOCK
 62
     0
 10
27123.320997999988
 20
16973.730914
 30
0.0
 40
15.0
 50
270.0
 51
90.0
  0
ARC
  5
520A
  8
0
  6
BYBLOCK
 62
     0
 10
27123.320997999988
 20
18432.730914
 30
0.0
 40
15.0
 50
270.0
 51
90.0
  0
ARC
  5
520B
  8
0
  6
BYBLOCK
 62
     0
 10
27123.320997999988
 20
18432.730914
 30
0.0
 40
15.0
 50
90.0
 51
270.0
  0
ARC
  5
520C
  8
0
  6
BYBLOCK
 62
     0
 10
27123.320997999988
 20
17731.730914
 30
0.0
 40
15.0
 50
90.0
 51
270.0
  0
ARC
  5
520D
  8
0
  6
BYBLOCK
 62
     0
 10
27123.320997999988
 20
17731.730914
 30
0.0
 40
15.0
 50
270.0
 51
90.0
  0
ARC
  5
520E
  8
0
  6
BYBLOCK
 62
     0
 10
27123.320997999988
 20
19133.730914
 30
0.0
 40
15.0
 50
270.0
 51
90.0
  0
ARC
  5
520F
  8
0
  6
BYBLOCK
 62
     0
 10
27123.320997999988
 20
19133.730914
 30
0.0
 40
15.0
 50
90.0
 51
270.0
  0
ARC
  5
5210
  8
0
  6
BYBLOCK
 62
     0
 10
27123.320997999988
 20
18432.730914
 30
0.0
 40
15.0
 50
90.0
 51
270.0
  0
ARC
  5
5211
  8
0
  6
BYBLOCK
 62
     0
 10
27123.320997999988
 20
18432.730914
 30
0.0
 40
15.0
 50
270.0
 51
90.0
  0
ARC
  5
5212
  8
0
  6
BYBLOCK
 62
     0
 10
27123.320997999988
 20
19891.730914
 30
0.0
 40
15.0
 50
270.0
 51
90.0
  0
ARC
  5
5213
  8
0
  6
BYBLOCK
 62
     0
 10
27123.320997999988
 20
19891.730914
 30
0.0
 40
15.0
 50
90.0
 51
270.0
  0
ARC
  5
5214
  8
0
  6
BYBLOCK
 62
     0
 10
27123.320997999988
 20
19133.730914
 30
0.0
 40
15.0
 50
90.0
 51
270.0
  0
ARC
  5
5215
  8
0
  6
BYBLOCK
 62
     0
 10
27123.320997999988
 20
19133.730914
 30
0.0
 40
15.0
 50
270.0
 51
90.0
  0
ARC
  5
5216
  8
0
  6
BYBLOCK
 62
     0
 10
27523.320997999988
 20
16973.730914
 30
0.0
 40
15.0
 50
90.0
 51
270.0
  0
ARC
  5
5217
  8
0
  6
BYBLOCK
 62
     0
 10
27523.320997999988
 20
16973.730914
 30
0.0
 40
15.0
 50
270.0
 51
90.0
  0
ARC
  5
5218
  8
0
  6
BYBLOCK
 62
     0
 10
27523.320997999988
 20
19891.730914
 30
0.0
 40
15.0
 50
270.0
 51
90.0
  0
ARC
  5
5219
  8
0
  6
BYBLOCK
 62
     0
 10
27523.320997999988
 20
19891.730914
 30
0.0
 40
15.0
 50
90.0
 51
270.0
  0
ARC
  5
521A
  8
0
  6
BYBLOCK
 62
     0
 10
27523.320997999988
 20
13705.230913999991
 30
0.0
 40
15.0
 50
90.0
 51
270.0
  0
ARC
  5
521B
  8
0
  6
BYBLOCK
 62
     0
 10
27523.320997999988
 20
13705.230913999991
 30
0.0
 40
15.0
 50
270.0
 51
90.0
  0
ARC
  5
521C
  8
0
  6
BYBLOCK
 62
     0
 10
27523.320997999988
 20
16973.730914
 30
0.0
 40
15.0
 50
270.0
 51
90.0
  0
ARC
  5
521D
  8
0
  6
BYBLOCK
 62
     0
 10
27523.320997999988
 20
16973.730914
 30
0.0
 40
15.0
 50
90.0
 51
270.0
  0
ARC
  5
521E
  8
0
  6
BYBLOCK
 62
     0
 10
27923.320997999988
 20
19934.228209000001
 30
0.0
 40
15.0
 50
270.0
 51
90.0
  0
ARC
  5
521F
  8
0
  6
BYBLOCK
 62
     0
 10
27923.320997999988
 20
19934.228209000001
 30
0.0
 40
15.0
 50
90.0
 51
270.0
  0
ARC
  5
5220
  8
0
  6
BYBLOCK
 62
     0
 10
27923.320997999988
 20
13662.733619000001
 30
0.0
 40
15.0
 50
90.0
 51
270.0
  0
ARC
  5
5221
  8
0
  6
BYBLOCK
 62
     0
 10
27923.320997999988
 20
13662.733619000001
 30
0.0
 40
15.0
 50
270.0
 51
90.0
  0
ARC
  5
5222
  8
0
  6
BYBLOCK
 62
     0
 10
27523.320997999988
 20
19891.730914
 30
0.0
 40
15.0
 50
270.0
 51
90.0
  0
ARC
  5
5223
  8
0
  6
BYBLOCK
 62
     0
 10
27523.320997999988
 20
19891.730914
 30
0.0
 40
15.0
 50
90.0
 51
270.0
  0
ARC
  5
5224
  8
0
  6
BYBLOCK
 62
     0
 10
27523.320997999988
 20
19934.228209000001
 30
0.0
 40
15.0
 50
90.0
 51
270.0
  0
ARC
  5
5225
  8
0
  6
BYBLOCK
 62
     0
 10
27523.320997999988
 20
19934.228209000001
 30
0.0
 40
15.0
 50
270.0
 51
90.0
  0
ARC
  5
5226
  8
0
  6
BYBLOCK
 62
     0
 10
27523.320997999988
 20
13705.230913999991
 30
0.0
 40
15.0
 50
90.0
 51
270.0
  0
ARC
  5
5227
  8
0
  6
BYBLOCK
 62
     0
 10
27523.320997999988
 20
13705.230913999991
 30
0.0
 40
15.0
 50
270.0
 51
90.0
  0
ARC
  5
5228
  8
0
  6
BYBLOCK
 62
     0
 10
27523.320997999988
 20
13662.733619000001
 30
0.0
 40
15.0
 50
270.0
 51
90.0
  0
ARC
  5
5229
  8
0
  6
BYBLOCK
 62
     0
 10
27523.320997999988
 20
13662.733619000001
 30
0.0
 40
15.0
 50
90.0
 51
270.0
  0
ARC
  5
522A
  8
0
  6
BYBLOCK
 62
     0
 10
22762.321393999991
 20
20664.232102000031
 30
0.0
 40
15.0
 50
180.0
 51
0.0
  0
ARC
  5
522B
  8
0
  6
BYBLOCK
 62
     0
 10
22762.321393999991
 20
20664.232102000031
 30
0.0
 40
15.0
 50
0.0
 51
180.0
  0
ARC
  5
522C
  8
0
  6
BYBLOCK
 62
     0
 10
23169.821393999991
 20
20664.232102000031
 30
0.0
 40
15.0
 50
0.0
 51
180.0
  0
ARC
  5
522D
  8
0
  6
BYBLOCK
 62
     0
 10
23169.821393999991
 20
20664.232102000031
 30
0.0
 40
15.0
 50
180.0
 51
0.0
  0
ARC
  5
522E
  8
0
  6
BYBLOCK
 62
     0
 10
25272.821393999999
 20
20664.232102000031
 30
0.0
 40
15.0
 50
0.0
 51
180.0
  0
ARC
  5
522F
  8
0
  6
BYBLOCK
 62
     0
 10
25272.821393999999
 20
20664.232102000031
 30
0.0
 40
15.0
 50
180.0
 51
0.0
  0
ARC
  5
5230
  8
0
  6
BYBLOCK
 62
     0
 10
26030.82238350001
 20
20664.232102000031
 30
0.0
 40
15.0
 50
180.0
 51
0.0
  0
ARC
  5
5231
  8
0
  6
BYBLOCK
 62
     0
 10
26030.82238350001
 20
20664.232102000031
 30
0.0
 40
15.0
 50
0.0
 51
180.0
  0
ARC
  5
5232
  8
0
  6
BYBLOCK
 62
     0
 10
24571.821393999991
 20
20664.232102000031
 30
0.0
 40
15.0
 50
0.0
 51
180.0
  0
ARC
  5
5233
  8
0
  6
BYBLOCK
 62
     0
 10
24571.821393999991
 20
20664.232102000031
 30
0.0
 40
15.0
 50
180.0
 51
0.0
  0
ARC
  5
5234
  8
0
  6
BYBLOCK
 62
     0
 10
25272.821393999999
 20
20664.232102000031
 30
0.0
 40
15.0
 50
180.0
 51
0.0
  0
ARC
  5
5235
  8
0
  6
BYBLOCK
 62
     0
 10
25272.821393999999
 20
20664.232102000031
 30
0.0
 40
15.0
 50
0.0
 51
180.0
  0
ARC
  5
5236
  8
0
  6
BYBLOCK
 62
     0
 10
23870.821393999991
 20
20664.232102000031
 30
0.0
 40
15.0
 50
0.0
 51
180.0
  0
ARC
  5
5237
  8
0
  6
BYBLOCK
 62
     0
 10
23870.821393999991
 20
20664.232102000031
 30
0.0
 40
15.0
 50
180.0
 51
0.0
  0
ARC
  5
5238
  8
0
  6
BYBLOCK
 62
     0
 10
24571.821393999991
 20
20664.232102000031
 30
0.0
 40
15.0
 50
180.0
 51
0.0
  0
ARC
  5
5239
  8
0
  6
BYBLOCK
 62
     0
 10
24571.821393999991
 20
20664.232102000031
 30
0.0
 40
15.0
 50
0.0
 51
180.0
  0
ARC
  5
523A
  8
0
  6
BYBLOCK
 62
     0
 10
23169.821393999991
 20
20664.232102000031
 30
0.0
 40
15.0
 50
0.0
 51
180.0
  0
ARC
  5
523B
  8
0
  6
BYBLOCK
 62
     0
 10
23169.821393999991
 20
20664.232102000031
 30
0.0
 40
15.0
 50
180.0
 51
0.0
  0
ARC
  5
523C
  8
0
  6
BYBLOCK
 62
     0
 10
23870.821393999991
 20
20664.232102000031
 30
0.0
 40
15.0
 50
180.0
 51
0.0
  0
ARC
  5
523D
  8
0
  6
BYBLOCK
 62
     0
 10
23870.821393999991
 20
20664.232102000031
 30
0.0
 40
15.0
 50
0.0
 51
180.0
  0
ARC
  5
523E
  8
0
  6
BYBLOCK
 62
     0
 10
26030.821393999999
 20
20664.232102000031
 30
0.0
 40
15.0
 50
180.0
 51
0.0
  0
ARC
  5
523F
  8
0
  6
BYBLOCK
 62
     0
 10
26030.821393999999
 20
20664.232102000031
 30
0.0
 40
15.0
 50
0.0
 51
180.0
  0
ARC
  5
5240
  8
0
  6
BYBLOCK
 62
     0
 10
26073.317698999999
 20
20664.232102000031
 30
0.0
 40
15.0
 50
0.0
 51
180.0
  0
ARC
  5
5241
  8
0
  6
BYBLOCK
 62
     0
 10
26073.317698999999
 20
20664.232102000031
 30
0.0
 40
15.0
 50
180.0
 51
0.0
  0
ARC
  5
5242
  8
0
  6
BYBLOCK
 62
     0
 10
19493.821393999991
 20
20664.232102000031
 30
0.0
 40
15.0
 50
180.0
 51
0.0
  0
ARC
  5
5243
  8
0
  6
BYBLOCK
 62
     0
 10
19493.821393999991
 20
20664.232102000031
 30
0.0
 40
15.0
 50
0.0
 51
180.0
  0
ARC
  5
5244
  8
0
  6
BYBLOCK
 62
     0
 10
19901.321393999991
 20
20664.232102000031
 30
0.0
 40
15.0
 50
0.0
 51
180.0
  0
ARC
  5
5245
  8
0
  6
BYBLOCK
 62
     0
 10
19901.321393999991
 20
20664.232102000031
 30
0.0
 40
15.0
 50
180.0
 51
0.0
  0
ARC
  5
5246
  8
0
  6
BYBLOCK
 62
     0
 10
19493.821393999991
 20
20664.232102000031
 30
0.0
 40
15.0
 50
0.0
 51
180.0
  0
ARC
  5
5247
  8
0
  6
BYBLOCK
 62
     0
 10
19493.821393999991
 20
20664.232102000031
 30
0.0
 40
15.0
 50
180.0
 51
0.0
  0
ARC
  5
5248
  8
0
  6
BYBLOCK
 62
     0
 10
19451.325088999991
 20
20664.232102000031
 30
0.0
 40
15.0
 50
180.0
 51
0.0
  0
ARC
  5
5249
  8
0
  6
BYBLOCK
 62
     0
 10
19451.325088999991
 20
20664.232102000031
 30
0.0
 40
15.0
 50
0.0
 51
180.0
  0
ARC
  5
524A
  8
0
  6
BYBLOCK
 62
     0
 10
22004.321393999999
 20
20664.232102000031
 30
0.0
 40
15.0
 50
0.0
 51
180.0
  0
ARC
  5
524B
  8
0
  6
BYBLOCK
 62
     0
 10
22004.321393999999
 20
20664.232102000031
 30
0.0
 40
15.0
 50
180.0
 51
0.0
  0
ARC
  5
524C
  8
0
  6
BYBLOCK
 62
     0
 10
22762.322383499999
 20
20664.232102000031
 30
0.0
 40
15.0
 50
180.0
 51
0.0
  0
ARC
  5
524D
  8
0
  6
BYBLOCK
 62
     0
 10
22762.322383499999
 20
20664.232102000031
 30
0.0
 40
15.0
 50
0.0
 51
180.0
  0
ARC
  5
524E
  8
0
  6
BYBLOCK
 62
     0
 10
21303.321393999999
 20
20664.232102000031
 30
0.0
 40
15.0
 50
0.0
 51
180.0
  0
ARC
  5
524F
  8
0
  6
BYBLOCK
 62
     0
 10
21303.321393999999
 20
20664.232102000031
 30
0.0
 40
15.0
 50
180.0
 51
0.0
  0
ARC
  5
5250
  8
0
  6
BYBLOCK
 62
     0
 10
22004.321393999999
 20
20664.232102000031
 30
0.0
 40
15.0
 50
180.0
 51
0.0
  0
ARC
  5
5251
  8
0
  6
BYBLOCK
 62
     0
 10
22004.321393999999
 20
20664.232102000031
 30
0.0
 40
15.0
 50
0.0
 51
180.0
  0
ARC
  5
5252
  8
0
  6
BYBLOCK
 62
     0
 10
20602.321393999999
 20
20664.232102000031
 30
0.0
 40
15.0
 50
0.0
 51
180.0
  0
ARC
  5
5253
  8
0
  6
BYBLOCK
 62
     0
 10
20602.321393999999
 20
20664.232102000031
 30
0.0
 40
15.0
 50
180.0
 51
0.0
  0
ARC
  5
5254
  8
0
  6
BYBLOCK
 62
     0
 10
21303.321393999999
 20
20664.232102000031
 30
0.0
 40
15.0
 50
180.0
 51
0.0
  0
ARC
  5
5255
  8
0
  6
BYBLOCK
 62
     0
 10
21303.321393999999
 20
20664.232102000031
 30
0.0
 40
15.0
 50
0.0
 51
180.0
  0
ARC
  5
5256
  8
0
  6
BYBLOCK
 62
     0
 10
19901.321393999991
 20
20664.232102000031
 30
0.0
 40
15.0
 50
0.0
 51
180.0
  0
ARC
  5
5257
  8
0
  6
BYBLOCK
 62
     0
 10
19901.321393999991
 20
20664.232102000031
 30
0.0
 40
15.0
 50
180.0
 51
0.0
  0
ARC
  5
5258
  8
0
  6
BYBLOCK
 62
     0
 10
20602.321393999999
 20
20664.232102000031
 30
0.0
 40
15.0
 50
180.0
 51
0.0
  0
ARC
  5
5259
  8
0
  6
BYBLOCK
 62
     0
 10
20602.321393999999
 20
20664.232102000031
 30
0.0
 40
15.0
 50
0.0
 51
180.0
  0
ARC
  5
525A
  8
0
  6
BYBLOCK
 62
     0
 10
18643.822053999989
 20
6276.5900849999962
 30
0.0
 40
15.0
 50
90.0
 51
270.0
  0
ARC
  5
525B
  8
0
  6
BYBLOCK
 62
     0
 10
18643.822053999989
 20
6276.5900849999962
 30
0.0
 40
15.0
 50
270.0
 51
90.0
  0
ARC
  5
525C
  8
0
  6
BYBLOCK
 62
     0
 10
18643.822053999989
 20
8168.0900849999953
 30
0.0
 40
15.0
 50
270.0
 51
90.0
  0
ARC
  5
525D
  8
0
  6
BYBLOCK
 62
     0
 10
18643.822053999989
 20
8168.0900849999953
 30
0.0
 40
15.0
 50
90.0
 51
270.0
  0
ARC
  5
525E
  8
0
  6
BYBLOCK
 62
     0
 10
18243.81974499999
 20
6276.590084999998
 30
0.0
 40
15.0
 50
90.0
 51
270.0
  0
ARC
  5
525F
  8
0
  6
BYBLOCK
 62
     0
 10
18243.81974499999
 20
6276.590084999998
 30
0.0
 40
15.0
 50
270.0
 51
90.0
  0
ARC
  5
5260
  8
0
  6
BYBLOCK
 62
     0
 10
18243.81974499999
 20
8624.5900850000016
 30
0.0
 40
15.0
 50
270.0
 51
90.0
  0
ARC
  5
5261
  8
0
  6
BYBLOCK
 62
     0
 10
18243.81974499999
 20
8624.5900850000016
 30
0.0
 40
15.0
 50
90.0
 51
270.0
  0
ARC
  5
5272
  8
0
  6
BYBLOCK
 62
     0
 10
19587.821393999991
 20
5376.5902499999984
 30
0.0
 40
15.0
 50
0.0
 51
180.0
  0
ARC
  5
5273
  8
0
  6
BYBLOCK
 62
     0
 10
19587.821393999991
 20
5376.5902499999984
 30
0.0
 40
15.0
 50
180.0
 51
0.0
  0
ARC
  5
5274
  8
0
  6
BYBLOCK
 62
     0
 10
22668.321393999991
 20
5376.5902499999984
 30
0.0
 40
15.0
 50
180.0
 51
0.0
  0
ARC
  5
5275
  8
0
  6
BYBLOCK
 62
     0
 10
22668.321393999991
 20
5376.5902499999984
 30
0.0
 40
15.0
 50
0.0
 51
180.0
  0
ARC
  5
5276
  8
0
  6
BYBLOCK
 62
     0
 10
22856.321393999999
 20
5376.5902499999984
 30
0.0
 40
15.0
 50
0.0
 51
180.0
  0
ARC
  5
5277
  8
0
  6
BYBLOCK
 62
     0
 10
22856.321393999999
 20
5376.5902499999984
 30
0.0
 40
15.0
 50
180.0
 51
0.0
  0
ARC
  5
5278
  8
0
  6
BYBLOCK
 62
     0
 10
25936.821393999991
 20
5376.5902499999984
 30
0.0
 40
15.0
 50
180.0
 51
0.0
  0
ARC
  5
5279
  8
0
  6
BYBLOCK
 62
     0
 10
25936.821393999991
 20
5376.5902499999984
 30
0.0
 40
15.0
 50
0.0
 51
180.0
  0
ARC
  5
527A
  8
0
  6
BYBLOCK
 62
     0
 10
22762.321393999991
 20
4976.5902500000002
 30
0.0
 40
15.0
 50
0.0
 51
180.0
  0
ARC
  5
527B
  8
0
  6
BYBLOCK
 62
     0
 10
22762.321393999991
 20
4976.5902500000002
 30
0.0
 40
15.0
 50
180.0
 51
0.0
  0
ARC
  5
527C
  8
0
  6
BYBLOCK
 62
     0
 10
26030.821393999999
 20
4976.5902500000002
 30
0.0
 40
15.0
 50
180.0
 51
0.0
  0
ARC
  5
527D
  8
0
  6
BYBLOCK
 62
     0
 10
26030.821393999999
 20
4976.5902500000002
 30
0.0
 40
15.0
 50
0.0
 51
180.0
  0
ARC
  5
527E
  8
0
  6
BYBLOCK
 62
     0
 10
19493.821393999991
 20
4976.5902500000002
 30
0.0
 40
15.0
 50
0.0
 51
180.0
  0
ARC
  5
527F
  8
0
  6
BYBLOCK
 62
     0
 10
19493.821393999991
 20
4976.5902500000002
 30
0.0
 40
15.0
 50
180.0
 51
0.0
  0
ARC
  5
5280
  8
0
  6
BYBLOCK
 62
     0
 10
22762.321393999991
 20
4976.5902500000002
 30
0.0
 40
15.0
 50
180.0
 51
0.0
  0
ARC
  5
5281
  8
0
  6
BYBLOCK
 62
     0
 10
22762.321393999991
 20
4976.5902500000002
 30
0.0
 40
15.0
 50
0.0
 51
180.0
  0
ARC
  5
5282
  8
0
  6
BYBLOCK
 62
     0
 10
26030.825352999989
 20
4976.5902500000002
 30
0.0
 40
15.0
 50
180.0
 51
0.0
  0
ARC
  5
5283
  8
0
  6
BYBLOCK
 62
     0
 10
26030.825352999989
 20
4976.5902500000002
 30
0.0
 40
15.0
 50
0.0
 51
180.0
  0
ARC
  5
5284
  8
0
  6
BYBLOCK
 62
     0
 10
26073.325353
 20
4976.5902500000002
 30
0.0
 40
15.0
 50
0.0
 51
180.0
  0
ARC
  5
5285
  8
0
  6
BYBLOCK
 62
     0
 10
26073.325353
 20
4976.5902500000002
 30
0.0
 40
15.0
 50
180.0
 51
0.0
  0
ARC
  5
5286
  8
0
  6
BYBLOCK
 62
     0
 10
19493.821393999991
 20
4976.5902500000002
 30
0.0
 40
15.0
 50
0.0
 51
180.0
  0
ARC
  5
5287
  8
0
  6
BYBLOCK
 62
     0
 10
19493.821393999991
 20
4976.5902500000002
 30
0.0
 40
15.0
 50
180.0
 51
0.0
  0
ARC
  5
5288
  8
0
  6
BYBLOCK
 62
     0
 10
19451.321393999991
 20
4976.5902500000002
 30
0.0
 40
15.0
 50
180.0
 51
0.0
  0
ARC
  5
5289
  8
0
  6
BYBLOCK
 62
     0
 10
19451.321393999991
 20
4976.5902500000002
 30
0.0
 40
15.0
 50
0.0
 51
180.0
  0
ARC
  5
528A
  8
0
  6
BYBLOCK
 62
     0
 10
19451.321393999991
 20
4576.5904149999969
 30
0.0
 40
15.0
 50
0.0
 51
180.0
  0
ARC
  5
528B
  8
0
  6
BYBLOCK
 62
     0
 10
19451.321393999991
 20
4576.5904149999969
 30
0.0
 40
15.0
 50
180.0
 51
0.0
  0
ARC
  5
528C
  8
0
  6
BYBLOCK
 62
     0
 10
26073.321393999991
 20
4576.5904149999969
 30
0.0
 40
15.0
 50
180.0
 51
0.0
  0
ARC
  5
528D
  8
0
  6
BYBLOCK
 62
     0
 10
26073.321393999991
 20
4576.5904149999969
 30
0.0
 40
15.0
 50
0.0
 51
180.0
  0
ARC
  5
528E
  8
0
  6
BYBLOCK
 62
     0
 10
8882.5340609999967
 20
9824.5901109999995
 30
0.0
 40
15.0
 50
0.0
 51
180.0
  0
ARC
  5
528F
  8
0
  6
BYBLOCK
 62
     0
 10
8882.5340609999967
 20
9824.5901109999995
 30
0.0
 40
15.0
 50
180.0
 51
0.0
  0
ARC
  5
5290
  8
0
  6
BYBLOCK
 62
     0
 10
15484.034061
 20
9824.5901109999995
 30
0.0
 40
15.0
 50
180.0
 51
0.0
  0
ARC
  5
5291
  8
0
  6
BYBLOCK
 62
     0
 10
15484.034061
 20
9824.5901109999995
 30
0.0
 40
15.0
 50
0.0
 51
180.0
  0
ARC
  5
5292
  8
0
  6
BYBLOCK
 62
     0
 10
15334.034061
 20
9424.5917609999997
 30
0.0
 40
15.0
 50
180.0
 51
0.0
  0
ARC
  5
5293
  8
0
  6
BYBLOCK
 62
     0
 10
15334.034061
 20
9424.5917609999997
 30
0.0
 40
15.0
 50
0.0
 51
180.0
  0
ARC
  5
5294
  8
0
  6
BYBLOCK
 62
     0
 10
15484.034061
 20
9424.5917609999997
 30
0.0
 40
15.0
 50
0.0
 51
180.0
  0
ARC
  5
5295
  8
0
  6
BYBLOCK
 62
     0
 10
15484.034061
 20
9424.5917609999997
 30
0.0
 40
15.0
 50
180.0
 51
0.0
  0
ARC
  5
5296
  8
0
  6
BYBLOCK
 62
     0
 10
9062.5340609999967
 20
9424.5917609999997
 30
0.0
 40
15.0
 50
0.0
 51
180.0
  0
ARC
  5
5297
  8
0
  6
BYBLOCK
 62
     0
 10
9062.5340609999967
 20
9424.5917609999997
 30
0.0
 40
15.0
 50
180.0
 51
0.0
  0
ARC
  5
5298
  8
0
  6
BYBLOCK
 62
     0
 10
15334.034061
 20
9424.5917609999997
 30
0.0
 40
15.0
 50
180.0
 51
0.0
  0
ARC
  5
5299
  8
0
  6
BYBLOCK
 62
     0
 10
15334.034061
 20
9424.5917609999997
 30
0.0
 40
15.0
 50
0.0
 51
180.0
  0
ARC
  5
529A
  8
0
  6
BYBLOCK
 62
     0
 10
8882.5340609999967
 20
9424.5917609999997
 30
0.0
 40
15.0
 50
180.0
 51
0.0
  0
ARC
  5
529B
  8
0
  6
BYBLOCK
 62
     0
 10
8882.5340609999967
 20
9424.5917609999997
 30
0.0
 40
15.0
 50
0.0
 51
180.0
  0
ARC
  5
529C
  8
0
  6
BYBLOCK
 62
     0
 10
9062.5340609999967
 20
9424.5917609999997
 30
0.0
 40
15.0
 50
0.0
 51
180.0
  0
ARC
  5
529D
  8
0
  6
BYBLOCK
 62
     0
 10
9062.5340609999967
 20
9424.5917609999997
 30
0.0
 40
15.0
 50
180.0
 51
0.0
  0
ARC
  5
529E
  8
0
  6
BYBLOCK
 62
     0
 10
16424.034456999991
 20
6276.5900850000025
 30
0.0
 40
15.0
 50
90.0
 51
270.0
  0
ARC
  5
529F
  8
0
  6
BYBLOCK
 62
     0
 10
16424.034456999991
 20
6276.5900850000025
 30
0.0
 40
15.0
 50
270.0
 51
90.0
  0
ARC
  5
52A0
  8
0
  6
BYBLOCK
 62
     0
 10
16424.034457000002
 20
8624.5900850000016
 30
0.0
 40
15.0
 50
270.0
 51
90.0
  0
ARC
  5
52A1
  8
0
  6
BYBLOCK
 62
     0
 10
16424.034457000002
 20
8624.5900850000016
 30
0.0
 40
15.0
 50
90.0
 51
270.0
  0
ARC
  5
52A2
  8
0
  6
BYBLOCK
 62
     0
 10
7972.5336650000027
 20
6276.5900850000025
 30
0.0
 40
15.0
 50
90.0
 51
270.0
  0
ARC
  5
52A3
  8
0
  6
BYBLOCK
 62
     0
 10
7972.5336650000027
 20
6276.5900850000025
 30
0.0
 40
15.0
 50
270.0
 51
90.0
  0
ARC
  5
52A4
  8
0
  6
BYBLOCK
 62
     0
 10
7972.5336650000027
 20
8433.5900850000016
 30
0.0
 40
15.0
 50
270.0
 51
90.0
  0
ARC
  5
52A5
  8
0
  6
BYBLOCK
 62
     0
 10
7972.5336650000027
 20
8433.5900850000016
 30
0.0
 40
15.0
 50
90.0
 51
270.0
  0
ARC
  5
52A6
  8
0
  6
BYBLOCK
 62
     0
 10
9062.5340609999967
 20
4576.5904150000006
 30
0.0
 40
15.0
 50
0.0
 51
180.0
  0
ARC
  5
52A7
  8
0
  6
BYBLOCK
 62
     0
 10
9062.5340609999967
 20
4576.5904150000006
 30
0.0
 40
15.0
 50
180.0
 51
0.0
  0
ARC
  5
52A8
  8
0
  6
BYBLOCK
 62
     0
 10
15334.034061
 20
4576.5904150000006
 30
0.0
 40
15.0
 50
180.0
 51
0.0
  0
ARC
  5
52A9
  8
0
  6
BYBLOCK
 62
     0
 10
15334.034061
 20
4576.5904150000006
 30
0.0
 40
15.0
 50
0.0
 51
180.0
  0
ARC
  5
52AA
  8
0
  6
BYBLOCK
 62
     0
 10
15291.534061
 20
4976.5902500000002
 30
0.0
 40
15.0
 50
180.0
 51
0.0
  0
ARC
  5
52AB
  8
0
  6
BYBLOCK
 62
     0
 10
15291.534061
 20
4976.5902500000002
 30
0.0
 40
15.0
 50
0.0
 51
180.0
  0
ARC
  5
52AC
  8
0
  6
BYBLOCK
 62
     0
 10
15334.034061
 20
4976.5902500000002
 30
0.0
 40
15.0
 50
0.0
 51
180.0
  0
ARC
  5
52AD
  8
0
  6
BYBLOCK
 62
     0
 10
15334.034061
 20
4976.5902500000002
 30
0.0
 40
15.0
 50
180.0
 51
0.0
  0
ARC
  5
52AE
  8
0
  6
BYBLOCK
 62
     0
 10
9105.0340609999967
 20
4976.5902500000002
 30
0.0
 40
15.0
 50
0.0
 51
180.0
  0
ARC
  5
52AF
  8
0
  6
BYBLOCK
 62
     0
 10
9105.0340609999967
 20
4976.5902500000002
 30
0.0
 40
15.0
 50
180.0
 51
0.0
  0
ARC
  5
52B0
  8
0
  6
BYBLOCK
 62
     0
 10
9062.5340609999967
 20
4976.5902500000002
 30
0.0
 40
15.0
 50
180.0
 51
0.0
  0
ARC
  5
52B1
  8
0
  6
BYBLOCK
 62
     0
 10
9062.5340609999967
 20
4976.5902500000002
 30
0.0
 40
15.0
 50
0.0
 51
180.0
  0
ARC
  5
52B2
  8
0
  6
BYBLOCK
 62
     0
 10
12023.034061
 20
4976.5902500000002
 30
0.0
 40
15.0
 50
180.0
 51
0.0
  0
ARC
  5
52B3
  8
0
  6
BYBLOCK
 62
     0
 10
12023.034061
 20
4976.5902500000002
 30
0.0
 40
15.0
 50
0.0
 51
180.0
  0
ARC
  5
52B4
  8
0
  6
BYBLOCK
 62
     0
 10
9105.0340609999967
 20
4976.5902500000002
 30
0.0
 40
15.0
 50
0.0
 51
180.0
  0
ARC
  5
52B5
  8
0
  6
BYBLOCK
 62
     0
 10
9105.0340609999967
 20
4976.5902500000002
 30
0.0
 40
15.0
 50
180.0
 51
0.0
  0
ARC
  5
52B6
  8
0
  6
BYBLOCK
 62
     0
 10
12023.034061
 20
4976.590250000002
 30
0.0
 40
15.0
 50
0.0
 51
180.0
  0
ARC
  5
52B7
  8
0
  6
BYBLOCK
 62
     0
 10
12023.034061
 20
4976.590250000002
 30
0.0
 40
15.0
 50
180.0
 51
0.0
  0
ARC
  5
52B8
  8
0
  6
BYBLOCK
 62
     0
 10
15291.534061
 20
4976.590250000002
 30
0.0
 40
15.0
 50
180.0
 51
0.0
  0
ARC
  5
52B9
  8
0
  6
BYBLOCK
 62
     0
 10
15291.534061
 20
4976.590250000002
 30
0.0
 40
15.0
 50
0.0
 51
180.0
  0
LINE
  5
53DF
  8
0-1
  6
CONTINUOUS
 62
     3
 10
25967.324376
 20
8375.0901049999975
 30
0.0
 11
25967.324376
 21
8407.0900120000006
 31
0.0
  0
LINE
  5
53E0
  8
0-1
  6
CONTINUOUS
 62
     3
 10
26116.32376900001
 20
8298.9033830000008
 30
0.0
 11
26073.321658000001
 21
8298.9033830000008
 31
0.0
  0
LINE
  5
53E1
  8
0-1
  6
CONTINUOUS
 62
     3
 10
26116.32376900001
 20
8625.0904340000034
 30
0.0
 11
26116.32376900001
 21
8298.9033830000008
 31
0.0
  0
LINE
  5
53E2
  8
0-1
  6
CONTINUOUS
 62
     3
 10
25681.357183000018
 20
8371.554683999997
 30
0.0
 11
25649.35826600001
 21
8403.5545919999968
 31
0.0
  0
LINE
  5
53E3
  8
0-1
  6
CONTINUOUS
 62
     3
 10
25962.324111999991
 20
8412.0902760000008
 30
0.0
 11
25652.89368600001
 21
8412.0902760000008
 31
0.0
  0
LINE
  5
53E4
  8
0-1
  6
CONTINUOUS
 62
     3
 10
25967.324376
 20
8403.6911790000031
 30
0.0
 11
25649.227617
 21
8403.6911790000031
 31
0.0
  0
LINE
  5
53E5
  8
0-1
  6
CONTINUOUS
 62
     3
 10
25962.324111999991
 20
8370.0898410000009
 30
0.0
 11
25684.894583000001
 21
8370.0898410000009
 31
0.0
  0
LINE
  5
53E6
  8
0-1
  6
CONTINUOUS
 62
     3
 10
25967.324376
 20
8378.4899280000009
 30
0.0
 11
25674.422930000019
 21
8378.4899280000009
 31
0.0
  0
LINE
  5
53E7
  8
0-1
  6
CONTINUOUS
 62
     3
 10
25967.324376
 20
8386.8900149999954
 30
0.0
 11
25666.02383200001
 21
8386.8900149999954
 31
0.0
  0
LINE
  5
53E8
  8
0-1
  6
CONTINUOUS
 62
     3
 10
25967.324376
 20
8395.2910919999995
 30
0.0
 11
25657.622756000001
 21
8395.2910919999995
 31
0.0
  0
LINE
  5
53E9
  8
0-1
  6
CONTINUOUS
 62
     3
 10
23111.787584000031
 20
8371.554683999997
 30
0.0
 11
23143.784522000031
 21
8403.5545919999968
 31
0.0
  0
LINE
  5
53EA
  8
0-1
  6
CONTINUOUS
 62
     3
 10
22825.822370000031
 20
8375.0901049999975
 30
0.0
 11
22825.822370000031
 21
8407.0900120000006
 31
0.0
  0
LINE
  5
53EB
  8
0-1
  6
CONTINUOUS
 62
     3
 10
22825.822370000031
 20
8378.4899280000009
 30
0.0
 11
23118.719858000011
 21
8378.4899280000009
 31
0.0
  0
LINE
  5
53EC
  8
0-1
  6
CONTINUOUS
 62
     3
 10
22825.822370000031
 20
8386.8900149999954
 30
0.0
 11
23127.120935000021
 21
8386.8900149999954
 31
0.0
  0
LINE
  5
53ED
  8
0-1
  6
CONTINUOUS
 62
     3
 10
22830.822634000011
 20
8370.0898410000009
 30
0.0
 11
23108.250184000019
 21
8370.0898410000009
 31
0.0
  0
LINE
  5
53EE
  8
0-1
  6
CONTINUOUS
 62
     3
 10
22825.822370000031
 20
8395.2910919999995
 30
0.0
 11
23135.520032000029
 21
8395.2910919999995
 31
0.0
  0
LINE
  5
53EF
  8
0-1
  6
CONTINUOUS
 62
     3
 10
22825.822370000031
 20
8403.6911790000031
 30
0.0
 11
23143.91715000003
 21
8403.6911790000031
 31
0.0
  0
LINE
  5
53F0
  8
0-1
  6
CONTINUOUS
 62
     3
 10
22830.822634000011
 20
8412.0902760000008
 30
0.0
 11
23140.251081000039
 21
8412.0902760000008
 31
0.0
  0
LINE
  5
53F1
  8
0-1
  6
CONTINUOUS
 62
     3
 10
26116.32376900001
 20
8495.0895109999983
 30
0.0
 11
22762.32139400001
 21
8495.0895109999983
 31
0.0
  0
LINE
  5
53F2
  8
0-1
  6
CONTINUOUS
 62
     3
 10
22804.819678000022
 20
8421.0901570000005
 30
0.0
 11
25988.323109000001
 21
8421.0901570000005
 31
0.0
  0
LINE
  5
53F3
  8
0-1
  6
CONTINUOUS
 62
     3
 10
22804.819678000022
 20
8361.089958999999
 30
0.0
 11
25988.323109000001
 21
8361.089958999999
 31
0.0
  0
LINE
  5
53F4
  8
0-1
  6
CONTINUOUS
 62
     3
 10
22762.32139400001
 20
8625.0904340000034
 30
0.0
 11
26116.32376900001
 21
8625.0904340000034
 31
0.0
  0
LINE
  5
53F5
  8
0-1
  6
CONTINUOUS
 62
     3
 10
22698.82041800001
 20
8375.0901049999975
 30
0.0
 11
22698.82041800001
 21
8407.0900120000006
 31
0.0
  0
LINE
  5
53F6
  8
0-1
  6
CONTINUOUS
 62
     3
 10
22412.859163000001
 20
8371.554683999997
 30
0.0
 11
22380.85826600001
 21
8403.5545919999968
 31
0.0
  0
LINE
  5
53F7
  8
0-1
  6
CONTINUOUS
 62
     3
 10
22698.82041800001
 20
8403.6911790000031
 30
0.0
 11
22380.72761799999
 21
8403.6911790000031
 31
0.0
  0
LINE
  5
53F8
  8
0-1
  6
CONTINUOUS
 62
     3
 10
22698.82041800001
 20
8395.2910919999995
 30
0.0
 11
22389.122756000001
 21
8395.2910919999995
 31
0.0
  0
LINE
  5
53F9
  8
0-1
  6
CONTINUOUS
 62
     3
 10
22698.82041800001
 20
8386.8900149999954
 30
0.0
 11
22397.521853000009
 21
8386.8900149999954
 31
0.0
  0
LINE
  5
53FA
  8
0-1
  6
CONTINUOUS
 62
     3
 10
22698.82041800001
 20
8378.4899280000009
 30
0.0
 11
22405.920950999989
 21
8378.4899280000009
 31
0.0
  0
LINE
  5
53FB
  8
0-1
  6
CONTINUOUS
 62
     3
 10
22693.822133000001
 20
8412.0902760000008
 30
0.0
 11
22384.39170700001
 21
8412.0902760000008
 31
0.0
  0
LINE
  5
53FC
  8
0-1
  6
CONTINUOUS
 62
     3
 10
22693.822133000001
 20
8370.0898410000009
 30
0.0
 11
22416.394584000001
 21
8370.0898410000009
 31
0.0
  0
LINE
  5
53FD
  8
0-1
  6
CONTINUOUS
 62
     3
 10
19562.32065500001
 20
8370.0898410000009
 30
0.0
 11
19839.750184999979
 21
8370.0898410000009
 31
0.0
  0
LINE
  5
53FE
  8
0-1
  6
CONTINUOUS
 62
     3
 10
19557.322371000009
 20
8375.0901049999975
 30
0.0
 11
19557.322371000009
 21
8407.0900120000006
 31
0.0
  0
LINE
  5
53FF
  8
0-1
  6
CONTINUOUS
 62
     3
 10
19408.320998999989
 20
8298.9033830000008
 30
0.0
 11
19451.319151000011
 21
8298.9033830000008
 31
0.0
  0
LINE
  5
5400
  8
0-1
  6
CONTINUOUS
 62
     3
 10
19408.320998999989
 20
8298.9033830000008
 30
0.0
 11
19408.320998999989
 21
8625.0904340000034
 31
0.0
  0
LINE
  5
5401
  8
0-1
  6
CONTINUOUS
 62
     3
 10
19562.32065500001
 20
8412.0902760000008
 30
0.0
 11
19871.75108200001
 21
8412.0902760000008
 31
0.0
  0
LINE
  5
5402
  8
0-1
  6
CONTINUOUS
 62
     3
 10
19843.283625000011
 20
8371.554683999997
 30
0.0
 11
19875.284523000009
 21
8403.5545919999968
 31
0.0
  0
LINE
  5
5403
  8
0-1
  6
CONTINUOUS
 62
     3
 10
19557.322371000009
 20
8403.6911790000031
 30
0.0
 11
19875.417150000019
 21
8403.6911790000031
 31
0.0
  0
LINE
  5
5404
  8
0-1
  6
CONTINUOUS
 62
     3
 10
19557.322371000009
 20
8395.2910919999995
 30
0.0
 11
19867.020033000012
 21
8395.2910919999995
 31
0.0
  0
LINE
  5
5405
  8
0-1
  6
CONTINUOUS
 62
     3
 10
19557.322371000009
 20
8386.8900149999954
 30
0.0
 11
19858.620935000021
 21
8386.8900149999954
 31
0.0
  0
LINE
  5
5406
  8
0-1
  6
CONTINUOUS
 62
     3
 10
19557.322371000009
 20
8378.4899280000009
 30
0.0
 11
19850.22183799999
 21
8378.4899280000009
 31
0.0
  0
LINE
  5
5407
  8
0-1
  6
CONTINUOUS
 62
     3
 10
19536.319679000011
 20
8361.089958999999
 30
0.0
 11
22719.82113
 21
8361.089958999999
 31
0.0
  0
LINE
  5
5408
  8
0-1
  6
CONTINUOUS
 62
     3
 10
19536.319679000011
 20
8421.0901570000005
 30
0.0
 11
22719.82113
 21
8421.0901570000005
 31
0.0
  0
LINE
  5
5409
  8
0-1
  6
CONTINUOUS
 62
     3
 10
19408.320998999989
 20
8625.0904340000034
 30
0.0
 11
22762.32139400001
 21
8625.0904340000034
 31
0.0
  0
LINE
  5
540A
  8
0-1
  6
CONTINUOUS
 62
     3
 10
22762.32139400001
 20
8495.0895109999983
 30
0.0
 11
19408.320998999989
 21
8495.0895109999983
 31
0.0
  0
LINE
  5
540B
  8
0-1
  6
CONTINUOUS
 62
     3
 10
22762.32139400001
 20
8495.0895109999983
 30
0.0
 11
22762.32139400001
 21
8625.0904340000034
 31
0.0
  0
LINE
  5
540C
  8
0-1
  6
CONTINUOUS
 62
     3
 10
22762.32139400001
 20
8495.0895109999983
 30
0.0
 11
22762.32139400001
 21
8625.0904340000034
 31
0.0
  0
ARC
  5
540D
  8
0-1
  6
CONTINUOUS
 62
     3
 10
25962.324111999991
 20
8407.0900120000006
 30
0.0
 40
5.0
 50
0.0
 51
90.0
  0
ARC
  5
540E
  8
0-1
  6
CONTINUOUS
 62
     3
 10
25962.324111999991
 20
8375.0901049999975
 30
0.0
 40
5.0
 50
269.9999850001808
 51
0.0
  0
ARC
  5
540F
  8
0-1
  6
CONTINUOUS
 62
     3
 10
25652.89368600001
 20
8407.0900120000006
 30
0.0
 40
5.0
 50
90.0
 51
224.99998499997989
  0
ARC
  5
5410
  8
0-1
  6
CONTINUOUS
 62
     3
 10
25684.894583000001
 20
8375.0901049999975
 30
0.0
 40
5.0
 50
224.99998499997989
 51
269.9999850001808
  0
ARC
  5
5411
  8
0-1
  6
CONTINUOUS
 62
     3
 10
23140.251081000039
 20
8407.0900120000006
 30
0.0
 40
5.0
 50
314.99998500027471
 51
90.0
  0
ARC
  5
5412
  8
0-1
  6
CONTINUOUS
 62
     3
 10
23108.250184000019
 20
8375.0901049999975
 30
0.0
 40
5.0
 50
269.9999850001808
 51
314.99998500027471
  0
ARC
  5
5413
  8
0-1
  6
CONTINUOUS
 62
     3
 10
22830.822634000011
 20
8375.0901049999975
 30
0.0
 40
5.0
 50
180.0
 51
269.9999850001808
  0
ARC
  5
5414
  8
0-1
  6
CONTINUOUS
 62
     3
 10
22830.822634000011
 20
8407.0900120000006
 30
0.0
 40
5.0
 50
90.0
 51
180.0
  0
ARC
  5
5415
  8
0-1
  6
CONTINUOUS
 62
     3
 10
22693.822133000001
 20
8375.0901049999975
 30
0.0
 40
5.0
 50
269.9999850001808
 51
0.0
  0
ARC
  5
5416
  8
0-1
  6
CONTINUOUS
 62
     3
 10
22693.822133000001
 20
8407.0900120000006
 30
0.0
 40
5.0
 50
0.0
 51
90.0
  0
ARC
  5
5417
  8
0-1
  6
CONTINUOUS
 62
     3
 10
22384.39170700001
 20
8407.0900120000006
 30
0.0
 40
5.0
 50
90.0
 51
224.99998499997989
  0
ARC
  5
5418
  8
0-1
  6
CONTINUOUS
 62
     3
 10
22416.394584000001
 20
8375.0901049999975
 30
0.0
 40
5.0
 50
224.99998499997989
 51
269.9999850001808
  0
ARC
  5
5419
  8
0-1
  6
CONTINUOUS
 62
     3
 10
19871.75108200001
 20
8407.0900120000006
 30
0.0
 40
5.0
 50
314.99998500027471
 51
90.0
  0
ARC
  5
541A
  8
0-1
  6
CONTINUOUS
 62
     3
 10
19562.32065500001
 20
8407.0900120000006
 30
0.0
 40
5.0
 50
90.0
 51
180.0
  0
ARC
  5
541B
  8
0-1
  6
CONTINUOUS
 62
     3
 10
19562.32065500001
 20
8375.0901049999975
 30
0.0
 40
5.0
 50
180.0
 51
269.9999850001808
  0
ARC
  5
541C
  8
0-1
  6
CONTINUOUS
 62
     3
 10
19839.750184999979
 20
8375.0901049999975
 30
0.0
 40
5.0
 50
269.9999850001808
 51
314.99998500027471
  0
LINE
  5
541D
  8
SUNPOU
  6
CONTINUOUS
 62
     4
 10
19408.319018999991
 20
8705.0904340000034
 30
0.0
 11
19408.319018999991
 21
9904.5480460000017
 31
0.0
  0
LINE
  5
541E
  8
SUNPOU
  6
CONTINUOUS
 62
     4
 10
26116.32376900001
 20
8705.0904340000034
 30
0.0
 11
26116.32376900001
 21
9904.5480460000017
 31
0.0
  0
LINE
  5
541F
  8
SUNPOU
  6
CONTINUOUS
 62
     4
 10
19411.31901899998
 20
9824.5480459999999
 30
0.0
 11
26113.32376900001
 21
9824.5480459999999
 31
0.0
  0
LINE
  5
5420
  8
SUNPOU
  6
CONTINUOUS
 62
     4
 10
19451.321129999989
 20
8705.0904340000034
 30
0.0
 11
19451.321129999989
 21
9504.5902760000008
 31
0.0
  0
LINE
  5
5421
  8
SUNPOU
  6
CONTINUOUS
 62
     4
 10
26073.321658000001
 20
8705.0904340000034
 30
0.0
 11
26073.321658000001
 21
9504.5902760000008
 31
0.0
  0
LINE
  5
5422
  8
SUNPOU
  6
CONTINUOUS
 62
     4
 10
19451.321129999989
 20
9424.5902760000008
 30
0.0
 11
26073.321658000001
 21
9424.5902760000008
 31
0.0
  0
LINE
  5
5423
  8
SUNPOU
  6
CONTINUOUS
 62
     4
 10
19451.321129999989
 20
8705.0904340000034
 30
0.0
 11
19451.321129999989
 21
9504.5902760000008
 31
0.0
  0
LINE
  5
5424
  8
SUNPOU
  6
CONTINUOUS
 62
     4
 10
19408.319018999991
 20
8705.0904340000034
 30
0.0
 11
19408.319018999991
 21
9504.5902760000008
 31
0.0
  0
LINE
  5
5425
  8
SUNPOU
  6
CONTINUOUS
 62
     4
 10
19451.321129999989
 20
9424.5902760000008
 30
0.0
 11
19691.321129999989
 21
9424.5902760000008
 31
0.0
  0
LINE
  5
5426
  8
SUNPOU
  6
CONTINUOUS
 62
     4
 10
19411.31901899998
 20
9424.5902760000008
 30
0.0
 11
19171.31901900001
 21
9424.5902760000008
 31
0.0
  0
LINE
  5
5427
  8
SUNPOU
  6
CONTINUOUS
 62
     4
 10
19451.321129999989
 20
9424.5902760000008
 30
0.0
 11
19411.31901899998
 21
9424.5902760000008
 31
0.0
  0
LINE
  5
5428
  8
SUNPOU
  6
CONTINUOUS
 62
     4
 10
26073.321658000001
 20
8705.0904340000034
 30
0.0
 11
26073.321658000001
 21
9504.5902760000008
 31
0.0
  0
LINE
  5
5429
  8
SUNPOU
  6
CONTINUOUS
 62
     4
 10
26116.32376900001
 20
8705.0904340000034
 30
0.0
 11
26116.32376900001
 21
9504.5902760000008
 31
0.0
  0
LINE
  5
542A
  8
SUNPOU
  6
CONTINUOUS
 62
     4
 10
26073.321658000001
 20
9424.5902760000008
 30
0.0
 11
25833.32165799999
 21
9424.5902760000008
 31
0.0
  0
LINE
  5
542B
  8
SUNPOU
  6
CONTINUOUS
 62
     4
 10
26113.32376900001
 20
9424.5902760000008
 30
0.0
 11
26353.32376900001
 21
9424.5902760000008
 31
0.0
  0
LINE
  5
542C
  8
SUNPOU
  6
CONTINUOUS
 62
     4
 10
26073.321658000001
 20
9424.5902760000008
 30
0.0
 11
26113.32376900001
 21
9424.5902760000008
 31
0.0
  0
TEXT
  5
542D
  8
0
  6
CONTINUOUS
 62
     7
 10
26233.32376900001
 20
9504.5902760000008
 30
0.0
 40
160.0
  1
43
  0
TEXT
  5
542E
  8
0
  6
CONTINUOUS
 62
     7
 10
19051.319018999999
 20
9504.5902760000008
 30
0.0
 40
160.0
  1
43
  0
TEXT
  5
542F
  8
0
  6
CONTINUOUS
 62
     7
 10
22468.988060666681
 20
9504.5902760000008
 30
0.0
 40
160.0
  1
6622
  0
TEXT
  5
5430
  8
0
  6
CONTINUOUS
 62
     7
 10
22482.32139400001
 20
9904.5480460000017
 30
0.0
 40
160.0
  1
6708
  0
ARC
  5
5431
  8
0
  6
BYBLOCK
 62
     0
 10
19408.319018999991
 20
9824.5480459999999
 30
0.0
 40
15.0
 50
0.0
 51
180.0
  0
ARC
  5
5432
  8
0
  6
BYBLOCK
 62
     0
 10
19408.319018999991
 20
9824.5480459999999
 30
0.0
 40
15.0
 50
180.0
 51
0.0
  0
ARC
  5
5433
  8
0
  6
BYBLOCK
 62
     0
 10
26116.32376900001
 20
9824.5480459999999
 30
0.0
 40
15.0
 50
180.0
 51
0.0
  0
ARC
  5
5434
  8
0
  6
BYBLOCK
 62
     0
 10
26116.32376900001
 20
9824.5480459999999
 30
0.0
 40
15.0
 50
0.0
 51
180.0
  0
ARC
  5
5435
  8
0
  6
BYBLOCK
 62
     0
 10
19451.321129999989
 20
9424.5902760000008
 30
0.0
 40
15.0
 50
0.0
 51
180.0
  0
ARC
  5
5436
  8
0
  6
BYBLOCK
 62
     0
 10
19451.321129999989
 20
9424.5902760000008
 30
0.0
 40
15.0
 50
180.0
 51
0.0
  0
ARC
  5
5437
  8
0
  6
BYBLOCK
 62
     0
 10
26073.321658000001
 20
9424.5902760000008
 30
0.0
 40
15.0
 50
180.0
 51
0.0
  0
ARC
  5
5438
  8
0
  6
BYBLOCK
 62
     0
 10
26073.321658000001
 20
9424.5902760000008
 30
0.0
 40
15.0
 50
0.0
 51
180.0
  0
ARC
  5
5439
  8
0
  6
BYBLOCK
 62
     0
 10
19451.321129999989
 20
9424.5902760000008
 30
0.0
 40
15.0
 50
0.0
 51
180.0
  0
ARC
  5
543A
  8
0
  6
BYBLOCK
 62
     0
 10
19451.321129999989
 20
9424.5902760000008
 30
0.0
 40
15.0
 50
180.0
 51
0.0
  0
ARC
  5
543B
  8
0
  6
BYBLOCK
 62
     0
 10
19408.319018999991
 20
9424.5902760000008
 30
0.0
 40
15.0
 50
180.0
 51
0.0
  0
ARC
  5
543C
  8
0
  6
BYBLOCK
 62
     0
 10
19408.319018999991
 20
9424.5902760000008
 30
0.0
 40
15.0
 50
0.0
 51
180.0
  0
ARC
  5
543D
  8
0
  6
BYBLOCK
 62
     0
 10
26073.321658000001
 20
9424.5902760000008
 30
0.0
 40
15.0
 50
180.0
 51
0.0
  0
ARC
  5
543E
  8
0
  6
BYBLOCK
 62
     0
 10
26073.321658000001
 20
9424.5902760000008
 30
0.0
 40
15.0
 50
0.0
 51
180.0
  0
ARC
  5
543F
  8
0
  6
BYBLOCK
 62
     0
 10
26116.32376900001
 20
9424.5902760000008
 30
0.0
 40
15.0
 50
0.0
 51
180.0
  0
ARC
  5
5440
  8
0
  6
BYBLOCK
 62
     0
 10
26116.32376900001
 20
9424.5902760000008
 30
0.0
 40
15.0
 50
180.0
 51
0.0
  0
LINE
  5
544E
  8
SUNPOU
  6
CONTINUOUS
 62
     4
 10
8402.3619089999884
 20
13432.729660999999
 30
0.0
 11
8402.3619089999884
 21
12232.728671999979
 31
0.0
  0
LINE
  5
544F
  8
SUNPOU
  6
CONTINUOUS
 62
     4
 10
15110.361711999971
 20
13432.729660999999
 30
0.0
 11
15110.361711999971
 21
12232.728671999979
 31
0.0
  0
LINE
  5
5450
  8
SUNPOU
  6
CONTINUOUS
 62
     4
 10
8402.3619089999884
 20
12312.728671999979
 30
0.0
 11
15110.361711999971
 21
12312.728671999979
 31
0.0
  0
TEXT
  5
5451
  8
0
  6
CONTINUOUS
 62
     7
 10
10953.6951438333
 20
12392.728671999979
 30
0.0
 40
160.0
  1
ケラバ外寸 6708
  0
ARC
  5
5452
  8
0
  6
BYBLOCK
 62
     0
 10
8402.3619089999884
 20
12312.728671999979
 30
0.0
 40
15.0
 50
0.0
 51
180.0
  0
ARC
  5
5453
  8
0
  6
BYBLOCK
 62
     0
 10
8402.3619089999884
 20
12312.728671999979
 30
0.0
 40
15.0
 50
180.0
 51
0.0
  0
ARC
  5
5454
  8
0
  6
BYBLOCK
 62
     0
 10
15110.361711999971
 20
12312.728671999979
 30
0.0
 40
15.0
 50
180.0
 51
0.0
  0
ARC
  5
5455
  8
0
  6
BYBLOCK
 62
     0
 10
15110.361711999971
 20
12312.728671999979
 30
0.0
 40
15.0
 50
0.0
 51
180.0
  0
TEXT
  5
54EF
  8
NAME
 10
24033.053546554009
 20
1076.0
 30
0.0
 40
360.0
  1
H
 41
0.6700000000000002
  7
00
  0
TEXT
  5
54F0
  8
NAME
 10
23657.221561973682
 20
1076.0
 30
0.0
 40
360.0
  1
（ ）
  7
01
  0
TEXT
  5
54F1
  8
NAME
 10
21933.552716389011
 20
1876.0
 30
0.0
 40
360.0
  1
ヨドガレージ ラヴィージュ
 41
0.75
  7
01
  0
TEXT
  5
54F2
  8
NAME
 10
21550.022791898391
 20
1076.6369801169251
 30
0.0
 40
360.0
  1
VGCU-3362
 41
0.6700000000000002
  0
LINE
  5
54F3
  8
NAME
  6
CONTINUOUS
 10
26067.886878884299
 20
2236.0
 30
0.0
 11
26067.886878884299
 21
1876.0
 31
0.0
  0
LINE
  5
54F4
  8
NAME
  6
CONTINUOUS
 10
26167.886878884299
 20
2236.0
 30
0.0
 11
26167.886878884299
 21
1876.0
 31
0.0
  0
LINE
  5
54F5
  8
NAME
  6
CONTINUOUS
 10
26267.88687888431
 20
2236.0
 30
0.0
 11
26267.88687888431
 21
1876.0
 31
0.0
  0
LINE
  5
54F6
  8
NAME
  6
CONTINUOUS
 10
26007.886878884299
 20
2236.0
 30
0.0
 11
26327.886878884299
 21
2236.0
 31
0.0
  0
LINE
  5
54F7
  8
NAME
  6
CONTINUOUS
 10
26327.886878884299
 20
1876.0
 30
0.0
 11
26007.886878884299
 21
1876.0
 31
0.0
  0
TEXT
  5
54F8
  8
NAME
 10
25346.041792426669
 20
1076.0
 30
0.0
 40
360.0
  1
2
 41
0.6700000000000002
  7
00
  0
TEXT
  5
54F9
  8
NAME
 10
24557.214549256722
 20
1076.0
 30
0.0
 40
360.0
  1
型（ 連棟）
  7
01
  0
TEXT
  5
5593
  8
FILENAME
  6
CONTINUOUS
 10
28546.857142857141
 20
348.0
 30
0.0
 40
200.0
  1
＜VGCU-3362-2-A_0.DXF ＞
  7
FILENAME
 72
     2
 11
32764.0
 21
348.0
 31
0.0
  0
LINE
  5
5599
  8
WAKUSEN-01
 10
868.00000000000193
 20
827.99999999999955
 30
0.0
 11
32764.000000000011
 21
827.99999999999943
 31
0.0
  0
LINE
  5
559A
  8
WAKUSEN-01
 10
868.00000000000193
 20
827.99999999999955
 30
0.0
 11
868.00000000000193
 21
22484.000000000011
 31
0.0
  0
LINE
  5
559B
  8
WAKUSEN-01
 10
32764.000000000011
 20
827.99999999999943
 30
0.0
 11
32764.000000000011
 21
22484.000000000011
 31
0.0
  0
LINE
  5
559C
  8
WAKUSEN-01
 10
20560.0
 20
827.99999999999716
 30
0.0
 11
20560.0
 21
2484.0
 31
0.0
  0
LINE
  5
559D
  8
WAKUSEN-02
 10
26868.0
 20
827.99999999999261
 30
0.0
 11
26868.0
 21
2484.0
 31
0.0
  0
ENDSEC
  0
EOF
