  0
SECTION
  2
HEADER
  9
$ACADVER
  1
AC1009
  9
$INSBASE
 10
0.0
 20
0.0
 30
0.0
  9
$EXTMIN
 10
867.99324330406671
 20
327.38164749855792
 30
-0.000000000000013
  9
$EXTMAX
 10
32765.33210850941
 20
22484.553276491992
 30
0.0000000000000023
  9
$LIMMIN
 10
0.0
 20
0.0
  9
$LIMMAX
 10
33600.0
 20
23760.0
  9
$ORTHOMODE
 70
     1
  9
$REGENMODE
 70
     1
  9
$FILLMODE
 70
     1
  9
$QTEXTMODE
 70
     0
  9
$MIRRTEXT
 70
     1
  9
$DRAGMODE
 70
     2
  9
$LTSCALE
 40
80.0
  9
$OSMODE
 70
  3071
  9
$ATTMODE
 70
     1
  9
$TEXTSIZE
 40
0.2
  9
$TRACEWID
 40
0.05
  9
$TEXTSTYLE
  7
00
  9
$CLAYER
  8
0
  9
$CELTYPE
  6
BYLAYER
  9
$CECOLOR
 62
   256
  9
$DIMSCALE
 40
80.0
  9
$DIMASZ
 40
3.0
  9
$DIMEXO
 40
1.0
  9
$DIMDLI
 40
0.38
  9
$DIMRND
 40
0.5
  9
$DIMDLE
 40
0.0
  9
$DIMEXE
 40
1.0
  9
$DIMTP
 40
0.0
  9
$DIMTM
 40
0.0
  9
$DIMTXT
 40
2.0
  9
$DIMCEN
 40
0.09
  9
$DIMTSZ
 40
0.0
  9
$DIMTOL
 70
     0
  9
$DIMLIM
 70
     0
  9
$DIMTIH
 70
     0
  9
$DIMTOH
 70
     0
  9
$DIMSE1
 70
     0
  9
$DIMSE2
 70
     0
  9
$DIMTAD
 70
     1
  9
$DIMZIN
 70
     8
  9
$DIMBLK
  1
DOTSMALL
  9
$DIMASO
 70
     1
  9
$DIMSHO
 70
     1
  9
$DIMPOST
  1

  9
$DIMAPOST
  1

  9
$DIMALT
 70
     0
  9
$DIMALTD
 70
     2
  9
$DIMALTF
 40
25.399999999999999
  9
$DIMLFAC
 40
1.0
  9
$DIMTOFL
 70
     1
  9
$DIMTVP
 40
0.0
  9
$DIMTIX
 70
     0
  9
$DIMSOXD
 70
     0
  9
$DIMSAH
 70
     0
  9
$DIMBLK1
  1

  9
$DIMBLK2
  1

  9
$DIMSTYLE
  2
SUNPOU
  9
$DIMCLRD
 70
     4
  9
$DIMCLRE
 70
     4
  9
$DIMCLRT
 70
     7
  9
$DIMTFAC
 40
1.0
  9
$DIMGAP
 40
1.0
  9
$LUNITS
 70
     2
  9
$LUPREC
 70
     4
  9
$SKETCHINC
 40
0.1
  9
$FILLETRAD
 40
0.0
  9
$AUNITS
 70
     0
  9
$AUPREC
 70
     0
  9
$MENU
  1
acad
  9
$ELEVATION
 40
0.0
  9
$PELEVATION
 40
0.0
  9
$THICKNESS
 40
0.0
  9
$LIMCHECK
 70
     0
  9
$BLIPMODE
 70
     1
  9
$CHAMFERA
 40
0.0
  9
$CHAMFERB
 40
0.0
  9
$SKPOLY
 70
     0
  9
$TDCREATE
 40
2311940.075052408
  9
$TDUPDATE
 40
2458942.439816169
  9
$TDINDWG
 40
0.0846562616
  9
$TDUSRTIMER
 40
0.0846551968
  9
$USRTIMER
 70
     1
  9
$ANGBASE
 50
0.0
  9
$ANGDIR
 70
     0
  9
$PDMODE
 70
     0
  9
$PDSIZE
 40
0.0
  9
$PLINEWID
 40
0.0
  9
$COORDS
 70
     1
  9
$SPLFRAME
 70
     0
  9
$SPLINETYPE
 70
     6
  9
$SPLINESEGS
 70
     8
  9
$ATTDIA
 70
     1
  9
$ATTREQ
 70
     1
  9
$HANDLING
 70
     1
  9
$HANDSEED
  5
58F4
  9
$SURFTAB1
 70
     6
  9
$SURFTAB2
 70
     6
  9
$SURFTYPE
 70
     6
  9
$SURFU
 70
     6
  9
$SURFV
 70
     6
  9
$UCSNAME
  2

  9
$UCSORG
 10
0.0
 20
0.0
 30
0.0
  9
$UCSXDIR
 10
1.0
 20
0.0
 30
0.0
  9
$UCSYDIR
 10
0.0
 20
1.0
 30
0.0
  9
$PUCSNAME
  2

  9
$PUCSORG
 10
0.0
 20
0.0
 30
0.0
  9
$PUCSXDIR
 10
1.0
 20
0.0
 30
0.0
  9
$PUCSYDIR
 10
0.0
 20
1.0
 30
0.0
  9
$USERI1
 70
     0
  9
$USERI2
 70
     0
  9
$USERI3
 70
     0
  9
$USERI4
 70
     0
  9
$USERI5
 70
     0
  9
$USERR1
 40
0.0
  9
$USERR2
 40
0.0
  9
$USERR3
 40
0.0
  9
$USERR4
 40
0.0
  9
$USERR5
 40
0.0
  9
$WORLDVIEW
 70
     1
  9
$SHADEDGE
 70
     3
  9
$SHADEDIF
 70
    70
  9
$TILEMODE
 70
     1
  9
$MAXACTVP
 70
    16
  9
$PLIMCHECK
 70
     0
  9
$PEXTMIN
 10
1.0000000000000000E+020
 20
1.0000000000000000E+020
 30
1.0000000000000000E+020
  9
$PEXTMAX
 10
-1.0000000000000000E+020
 20
-1.0000000000000000E+020
 30
-1.0000000000000000E+020
  9
$PLIMMIN
 10
0.0
 20
0.0
  9
$PLIMMAX
 10
12.0
 20
9.0
  9
$UNITMODE
 70
     0
  9
$VISRETAIN
 70
     0
  9
$PLINEGEN
 70
     1
  9
$PSLTSCALE
 70
     0
  0
ENDSEC
  0
SECTION
  2
TABLES
  0
TABLE
  2
VPORT
 70
     1
  0
VPORT
  2
*ACTIVE
 70
     0
 10
0.0
 20
0.0
 11
1.0
 21
1.0
 12
16800.0
 22
11880.0
 13
0.0
 23
0.0
 14
1.0
 24
1.0
 15
0.0
 25
0.0
 16
0.0
 26
0.0
 36
1.0
 17
0.0
 27
0.0
 37
0.0
 40
23981.023255813951
 41
2.195652173913043
 42
50.0
 43
0.0
 44
0.0
 50
0.0
 51
0.0
 71
     0
 72
 10000
 73
     1
 74
     1
 75
     0
 76
     0
 77
     0
 78
     0
  0
ENDTAB
  0
TABLE
  2
LTYPE
 70
     3
  0
LTYPE
  2
CONTINUOUS
 70
     0
  3
Solid line
 72
    65
 73
     0
 40
0.0
  0
LTYPE
  2
DASHED3
 70
     0
  3
------  ------  ------  ------  
 72
    65
 73
     2
 40
5.0
 49
3.75
 49
-1.25
  0
LTYPE
  2
CENTER2
 70
     0
  3
----------  --  ----------  --  
 72
    65
 73
     4
 40
20.0
 49
12.5
 49
-2.5
 49
2.5
 49
-2.5
  0
ENDTAB
  0
TABLE
  2
LAYER
 70
    17
  0
LAYER
  2
0
 70
     0
 62
     7
  6
CONTINUOUS
  0
LAYER
  2
SUNPOU
 70
     0
 62
     4
  6
CONTINUOUS
  0
LAYER
  2
0-1
 70
     0
 62
     7
  6
CONTINUOUS
  0
LAYER
  2
0-2
 70
     0
 62
     7
  6
CONTINUOUS
  0
LAYER
  2
0-5
 70
     0
 62
     7
  6
CONTINUOUS
  0
LAYER
  2
0-6
 70
     0
 62
     7
  6
CONTINUOUS
  0
LAYER
  2
2-0
 70
     0
 62
     7
  6
CONTINUOUS
  0
LAYER
  2
0-8
 70
     0
 62
     7
  6
CONTINUOUS
  0
LAYER
  2
YODOROGO
 70
     0
 62
   130
  6
CONTINUOUS
  0
LAYER
  2
WAKUSEN-01
 70
     0
 62
    50
  6
CONTINUOUS
  0
LAYER
  2
WAKUSEN-02
 70
     0
 62
   130
  6
CONTINUOUS
  0
LAYER
  2
WAKUMOJI-01
 70
     0
 62
   130
  6
CONTINUOUS
  0
LAYER
  2
FILENAME
 70
     0
 62
     7
  6
CONTINUOUS
  0
LAYER
  2
NAME
 70
     0
 62
    20
  6
CONTINUOUS
  0
LAYER
  2
0-4
 70
     0
 62
     7
  6
CONTINUOUS
  0
ENDTAB
  0
TABLE
  2
STYLE
 70
     5
  0
STYLE
  2
STANDARD
 70
     0
 40
0.0
 41
1.0
 50
0.0
 71
     0
 42
0.0
  3
txt
  4
BIGFONT
  0
STYLE
  2
00
 70
     0
 40
0.0
 41
0.6666666666666666
 50
0.0
 71
     0
 42
0.2
  3
ROMANS
  4
BIGFONT
  0
STYLE
  2
01
 70
     0
 40
3.0
 41
1.0
 50
0.0
 71
     0
 42
0.2
  3
ROMANS
  4
BIGFONT
  0
STYLE
  2
WAKUMOJI
 70
     0
 40
3.0
 41
1.0
 50
0.0
 71
     0
 42
3.0
  3
SIMPLEX
  4
BIGFONT
  0
STYLE
  2
FILENAME
 70
     0
 40
200.0
 41
1.0
 50
0.0
 71
     0
 42
200.0
  3
romans
  4
bigfont
  0
ENDTAB
  0
TABLE
  2
VIEW
 70
     0
  0
ENDTAB
  0
TABLE
  2
UCS
 70
     0
  0
ENDTAB
  0
TABLE
  2
APPID
 70
    13
  0
APPID
  2
ACAD
 70
     0
  0
APPID
  2
ACADANNOTATIVE
 70
     0
  0
APPID
  2
ACAD_PSEXT
 70
     0
  0
APPID
  2
DCO15
 70
     0
  0
APPID
  2
ACAD_MLEADERVER
 70
     0
  0
APPID
  2
AUTOCAD_POSTSCRIPT_FIGURE
 70
     0
  0
APPID
  2
ACAD_EXEMPT_FROM_CAD_STANDARDS
 70
     0
  0
APPID
  2
ACAD_DSTYLE_DIMJAG
 70
     0
  0
APPID
  2
ACAD_DSTYLE_DIMTALN
 70
     0
  0
APPID
  2
ACAD_DSTYLE_DIM_LINETYPE
 70
     0
  0
APPID
  2
ACAD_DSTYLE_DIM_EXT1_LINETYPE
 70
     0
  0
APPID
  2
ACAD_DSTYLE_DIM_EXT2_LINETYPE
 70
     0
  0
APPID
  2
ACAD_NAV_VCDISPLAY
 70
     0
  0
ENDTAB
  0
TABLE
  2
DIMSTYLE
 70
     2
  0
DIMSTYLE
  2
SUNPOU
 70
     0
  3

  4

  5

  6

  7

 40
80.0
 41
3.0
 42
1.0
 43
0.38
 44
1.0
 45
0.5
 46
0.0
 47
0.0
 48
0.0
140
2.0
141
0.09
142
0.0
143
25.399999999999999
144
1.0
145
0.0
146
1.0
147
1.0
 71
     0
 72
     0
 73
     0
 74
     0
 75
     0
 76
     0
 77
     1
 78
     8
170
     0
171
     2
172
     1
173
     0
174
     0
175
     0
176
     4
177
     4
178
     7
  0
ENDTAB
  0
ENDSEC
  0
SECTION
  2
BLOCKS
  0
BLOCK
  8
0
  2
$MODEL_SPACE
 70
     0
 10
0.0
 20
0.0
 30
0.0
  3
$MODEL_SPACE
  1

  0
ENDBLK
  5
4E6B
  8
0
  0
BLOCK
 67
     1
  8
0
  2
$PAPER_SPACE
 70
     0
 10
0.0
 20
0.0
 30
0.0
  3
$PAPER_SPACE
  1

  0
ENDBLK
  5
4E67
 67
     1
  8
0
  0
BLOCK
  8
0
  2
_DOTSMALL
 70
     0
 10
0.0
 20
0.0
 30
0.0
  3
_DOTSMALL
  1

  0
POLYLINE
  5
4E9A
  8
0
  6
BYBLOCK
 62
     0
 66
     1
 10
0.0
 20
0.0
 30
0.0
 70
     1
 40
0.5
 41
0.5
  0
VERTEX
  5
58BC
  8
0
  6
BYBLOCK
 62
     0
 10
-0.0625
 20
0.0
 30
0.0
 42
1.0
  0
VERTEX
  5
58BD
  8
0
  6
BYBLOCK
 62
     0
 10
0.0625
 20
0.0
 30
0.0
 42
1.0
  0
SEQEND
  5
58BE
  8
0
  6
BYBLOCK
 62
     0
  0
ENDBLK
  5
4E9E
  8
0
  0
ENDSEC
  0
SECTION
  2
ENTITIES
  0
LINE
  5
4E9F
  8
0-1
  6
CONTINUOUS
 62
     3
 10
21124.513169999998
 20
8149.1884330000021
 30
0.0
 11
24308.016600999981
 21
8149.1884330000021
 31
0.0
  0
LINE
  5
4EA5
  8
0-1
  6
CONTINUOUS
 62
     3
 10
11652.12877399999
 20
18925.970164999992
 30
0.0
 11
11652.12877399999
 21
19870.982161000022
 31
0.0
  0
LINE
  5
4EA6
  8
0-1
  6
CONTINUOUS
 62
     3
 10
11615.130581999991
 20
18959.142937000001
 30
0.0
 11
11615.130581999991
 21
19870.982161000022
 31
0.0
  0
LINE
  5
4EA7
  8
0-1
  6
CONTINUOUS
 62
     3
 10
11104.629565999991
 20
16705.485856999989
 30
0.0
 11
13966.59080699999
 21
16705.485856999989
 31
0.0
  0
LINE
  5
4EA8
  8
0-1
  6
CONTINUOUS
 62
     3
 10
14323.129935000001
 20
13321.486885
 30
0.0
 11
14323.129935000001
 21
19870.982161000022
 31
0.0
  0
LINE
  5
4EA9
  8
0-1
  6
CONTINUOUS
 62
     3
 10
11154.630186
 20
13321.486885
 30
0.0
 11
11154.630186
 21
19870.982161000011
 31
0.0
  0
LINE
  5
4EAA
  8
0-1
  6
CONTINUOUS
 62
     3
 10
11019.130160000001
 20
13289.48697799999
 30
0.0
 11
11019.130160000001
 21
19880.987571999991
 31
0.0
  0
LINE
  5
4EAB
  8
0-1
  6
CONTINUOUS
 62
     3
 10
14458.630950999979
 20
13289.48697799999
 30
0.0
 11
14458.630950999979
 21
19880.987571999991
 31
0.0
  0
LINE
  5
4EAC
  8
0-1
  6
CONTINUOUS
 62
     3
 10
11213.128959
 20
19340.070262999991
 30
0.0
 11
11213.128959
 21
19870.982161000022
 31
0.0
  0
LINE
  5
4EAD
  8
0-1
  6
CONTINUOUS
 62
     3
 10
11250.129130999991
 20
19306.897489999999
 30
0.0
 11
11250.129130999991
 21
19870.982161000011
 31
0.0
  0
LINE
  5
4EAE
  8
0-1
  6
CONTINUOUS
 62
     3
 10
11413.130608999991
 20
19140.255031000001
 30
0.0
 11
11413.130608999991
 21
19870.982161000011
 31
0.0
  0
LINE
  5
4EAF
  8
0-1
  6
CONTINUOUS
 62
     3
 10
11450.128801000001
 20
19107.078300000001
 30
0.0
 11
11450.128801000001
 21
19870.982161000022
 31
0.0
  0
LINE
  5
4EB0
  8
0-1
  6
CONTINUOUS
 62
     3
 10
11815.129263000001
 20
18779.824288
 30
0.0
 11
11815.12926299999
 21
19870.982161000011
 31
0.0
  0
LINE
  5
4EB1
  8
0-1
  6
CONTINUOUS
 62
     3
 10
11852.130424000001
 20
18746.651515000001
 30
0.0
 11
11852.130424000001
 21
19870.982161000011
 31
0.0
  0
LINE
  5
4EB2
  8
0-1
  6
CONTINUOUS
 62
     3
 10
12015.128933
 20
18600.505637999991
 30
0.0
 11
12015.128933
 21
19870.982161000022
 31
0.0
  0
LINE
  5
4EB3
  8
0-1
  6
CONTINUOUS
 62
     3
 10
12052.129103999991
 20
18567.332866000001
 30
0.0
 11
12052.129103999991
 21
19870.982161000022
 31
0.0
  0
LINE
  5
4EB4
  8
0-1
  6
CONTINUOUS
 62
     3
 10
12440.366145
 20
18234.746888000001
 30
0.0
 11
12618.564387
 21
18410.090664999982
 31
0.0
  0
LINE
  5
4EB5
  8
0-1
  6
CONTINUOUS
 62
     3
 10
12963.546967
 20
17341.610090999991
 30
0.0
 11
13141.74323
 21
17516.957826999991
 31
0.0
  0
LINE
  5
4EB6
  8
0-1
  6
CONTINUOUS
 62
     3
 10
12963.546967
 20
17341.610090999991
 30
0.0
 11
12618.564387
 21
18410.090664999982
 31
0.0
  0
LINE
  5
4EB7
  8
0-1
  6
CONTINUOUS
 62
     3
 10
11062.130292
 20
13445.48689899999
 30
0.0
 11
14415.630819999989
 21
13445.48689899999
 31
0.0
  0
LINE
  5
4EB8
  8
0-1
  6
CONTINUOUS
 62
     3
 10
11104.629565999991
 20
13524.48651599999
 30
0.0
 11
14373.129565999971
 21
13524.48651599999
 31
0.0
  0
LINE
  5
4EB9
  8
0-1
  6
CONTINUOUS
 62
     3
 10
11019.130160000001
 20
13289.48697799999
 30
0.0
 11
14458.630950999979
 21
13289.48697799999
 31
0.0
  0
LINE
  5
4EBA
  8
0-1
  6
CONTINUOUS
 62
     3
 10
11019.130160000001
 20
13321.486885
 30
0.0
 11
14458.630950999979
 21
13321.486885
 31
0.0
  0
LINE
  5
4EBB
  8
0-1
  6
CONTINUOUS
 62
     3
 10
14373.129565999971
 20
13445.48689899999
 30
0.0
 11
14373.129565999971
 21
16315.87206099998
 31
0.0
  0
LINE
  5
4EBC
  8
0-1
  6
CONTINUOUS
 62
     3
 10
14415.630819999989
 20
13445.48689899999
 30
0.0
 11
14415.630819999989
 21
16274.059678999991
 31
0.0
  0
LINE
  5
4EBD
  8
0-1
  6
CONTINUOUS
 62
     3
 10
14752.63198099999
 20
15932.027491999999
 30
0.0
 11
13141.74323
 21
17516.957826999991
 31
0.0
  0
LINE
  5
4EBE
  8
0-1
  6
CONTINUOUS
 62
     3
 10
12440.366145
 20
18234.746888000001
 30
0.0
 11
10725.129130999991
 21
19777.605233999991
 31
0.0
  0
LINE
  5
4EBF
  8
0-1
  6
CONTINUOUS
 62
     3
 10
11104.629565999991
 20
13445.48689899999
 30
0.0
 11
11104.629565999991
 21
19437.349743999981
 31
0.0
  0
LINE
  5
4EC0
  8
0-1
  6
CONTINUOUS
 62
     3
 10
11062.130292
 20
13445.48689899999
 30
0.0
 11
11062.130292
 21
19475.457456
 31
0.0
  0
LINE
  5
4EC1
  8
0-1
  6
CONTINUOUS
 62
     3
 10
12215.130581999991
 20
18436.689455999989
 30
0.0
 11
12215.130581999991
 21
19870.982161000022
 31
0.0
  0
LINE
  5
4EC2
  8
0-1
  6
CONTINUOUS
 62
     3
 10
12252.12877399999
 20
18403.514704000001
 30
0.0
 11
12252.12877399999
 21
19870.982161000022
 31
0.0
  0
LINE
  5
4EC3
  8
0-1
  6
CONTINUOUS
 62
     3
 10
12415.129263000001
 20
18257.374764999979
 30
0.0
 11
12415.12926299999
 21
19870.982161000022
 31
0.0
  0
LINE
  5
4EC4
  8
0-1
  6
CONTINUOUS
 62
     3
 10
12815.129591999999
 20
17799.134241
 30
0.0
 11
12815.129591999999
 21
19870.982161000022
 31
0.0
  0
LINE
  5
4EC5
  8
0-1
  6
CONTINUOUS
 62
     3
 10
12852.12976399999
 20
17685.074380999991
 30
0.0
 11
12852.12976399999
 21
19870.982161000022
 31
0.0
  0
LINE
  5
4EC6
  8
0-1
  6
CONTINUOUS
 62
     3
 10
13015.129263000001
 20
17392.368906999989
 30
0.0
 11
13015.129263000001
 21
19870.982161000022
 31
0.0
  0
LINE
  5
4EC7
  8
0-1
  6
CONTINUOUS
 62
     3
 10
13052.13042399999
 20
17428.776212000001
 30
0.0
 11
13052.13042399999
 21
19870.982161000022
 31
0.0
  0
LINE
  5
4EC8
  8
0-1
  6
CONTINUOUS
 62
     3
 10
13215.128932999991
 20
17444.758844999989
 30
0.0
 11
13215.128932999991
 21
19870.982161000022
 31
0.0
  0
LINE
  5
4EC9
  8
0-1
  6
CONTINUOUS
 62
     3
 10
13252.12811399999
 20
17408.359457999992
 30
0.0
 11
13252.12811399999
 21
19870.982161000022
 31
0.0
  0
LINE
  5
4ECA
  8
0-1
  6
CONTINUOUS
 62
     3
 10
13415.12959199999
 20
17248.002615999991
 30
0.0
 11
13415.12959199999
 21
19870.982161000022
 31
0.0
  0
LINE
  5
4ECB
  8
0-1
  6
CONTINUOUS
 62
     3
 10
13452.129763999999
 20
17211.603229
 30
0.0
 11
13452.129763999999
 21
19870.982161000011
 31
0.0
  0
LINE
  5
4ECC
  8
0-1
  6
CONTINUOUS
 62
     3
 10
13615.129263000001
 20
17051.246388
 30
0.0
 11
13615.129263000001
 21
19870.982161000022
 31
0.0
  0
LINE
  5
4ECD
  8
0-1
  6
CONTINUOUS
 62
     3
 10
13652.13042399999
 20
17014.847000000002
 30
0.0
 11
13652.13042399999
 21
19870.982161000022
 31
0.0
  0
LINE
  5
4ECE
  8
0-1
  6
CONTINUOUS
 62
     3
 10
13815.128933
 20
16854.49015899999
 30
0.0
 11
13815.128933
 21
19870.982161000022
 31
0.0
  0
LINE
  5
4ECF
  8
0-1
  6
CONTINUOUS
 62
     3
 10
13852.129103999991
 20
16818.090770999981
 30
0.0
 11
13852.129103999991
 21
19870.982161000022
 31
0.0
  0
LINE
  5
4ED0
  8
0-1
  6
CONTINUOUS
 62
     3
 10
14015.12959199999
 20
16657.734919999999
 30
0.0
 11
14015.12959199999
 21
19870.982161000022
 31
0.0
  0
LINE
  5
4ED1
  8
0-1
  6
CONTINUOUS
 62
     3
 10
14052.129763999999
 20
16621.33553199999
 30
0.0
 11
14052.129763999999
 21
19870.982161000022
 31
0.0
  0
LINE
  5
4ED2
  8
0-1
  6
CONTINUOUS
 62
     3
 10
14225.62969799999
 20
16460.980670000001
 30
0.0
 11
14225.62969799999
 21
19870.982161000022
 31
0.0
  0
LINE
  5
4ED3
  8
0-1
  6
CONTINUOUS
 62
     3
 10
14262.63184899999
 20
16424.579302999991
 30
0.0
 11
14262.63184899999
 21
19870.982161000022
 31
0.0
  0
LINE
  5
4ED4
  8
0-1
  6
CONTINUOUS
 62
     3
 10
12452.130423999981
 20
18246.321132999969
 30
0.0
 11
12452.130423999981
 21
19870.982161000022
 31
0.0
  0
LINE
  5
4ED5
  8
0-1
  6
CONTINUOUS
 62
     3
 10
12615.128933
 20
18406.711625999978
 30
0.0
 11
12615.128933
 21
19870.982161000022
 31
0.0
  0
LINE
  5
4ED6
  8
0-1
  6
CONTINUOUS
 62
     3
 10
12652.128113999999
 20
18306.617268999991
 30
0.0
 11
12652.128113999999
 21
19870.982161000022
 31
0.0
  0
LINE
  5
4ED8
  8
0-1
  6
CONTINUOUS
 62
     3
 10
24400.515545999991
 20
6241.1883740000012
 30
0.0
 11
24300.516204999989
 21
6241.1883740000012
 31
0.0
  0
LINE
  5
4ED9
  8
0-1
  6
CONTINUOUS
 62
     3
 10
24300.516204999989
 20
6241.1883740000012
 30
0.0
 11
24300.516204999989
 21
6141.1885389999998
 31
0.0
  0
LINE
  5
4EDA
  8
0-1
  6
CONTINUOUS
 62
     3
 10
24400.515545999991
 20
6141.1885389999998
 30
0.0
 11
24400.515545999991
 21
6241.1883740000012
 31
0.0
  0
LINE
  5
4EDB
  8
0-1
  6
CONTINUOUS
 62
     3
 10
24308.016600999981
 20
8459.1884659999978
 30
0.0
 11
24308.016600999981
 21
6241.1883740000012
 31
0.0
  0
LINE
  5
4EDC
  8
0-1
  6
CONTINUOUS
 62
     3
 10
24263.018184999979
 20
8149.1884330000021
 30
0.0
 11
24263.018184999979
 21
6141.1885389999998
 31
0.0
  0
LINE
  5
4EDD
  8
0-1
  6
CONTINUOUS
 62
     3
 10
24373.018052999982
 20
8589.1883999999973
 30
0.0
 11
24373.018052999982
 21
6241.1883740000012
 31
0.0
  0
LINE
  5
4EDE
  8
0-1
  6
CONTINUOUS
 62
     3
 10
24393.015149999988
 20
8459.1884659999978
 30
0.0
 11
24393.015149999988
 21
6241.1883740000012
 31
0.0
  0
LINE
  5
4EE0
  8
0-1
  6
CONTINUOUS
 62
     3
 10
21032.014225999999
 20
6241.1883740000012
 30
0.0
 11
21132.013566000001
 21
6241.1883740000012
 31
0.0
  0
LINE
  5
4EE1
  8
0-1
  6
CONTINUOUS
 62
     3
 10
21132.013566000001
 20
6241.1883740000012
 30
0.0
 11
21132.013566000001
 21
6141.1885389999998
 31
0.0
  0
LINE
  5
4EE2
  8
0-1
  6
CONTINUOUS
 62
     3
 10
21032.014225999999
 20
6141.1885389999998
 30
0.0
 11
21032.014225999999
 21
6241.1883740000012
 31
0.0
  0
LINE
  5
4EE3
  8
0-1
  6
CONTINUOUS
 62
     3
 10
21169.515545999991
 20
8149.1884330000021
 30
0.0
 11
21169.515545999991
 21
6141.1885389999998
 31
0.0
  0
LINE
  5
4EE4
  8
0-1
  6
CONTINUOUS
 62
     3
 10
21124.513169999998
 20
8459.1884659999978
 30
0.0
 11
21124.513169999998
 21
6241.1883740000012
 31
0.0
  0
LINE
  5
4EE5
  8
0-1
  6
CONTINUOUS
 62
     3
 10
21059.513697999999
 20
8589.1883999999973
 30
0.0
 11
21059.513697999999
 21
6241.1883740000012
 31
0.0
  0
LINE
  5
4EE6
  8
0-1
  6
CONTINUOUS
 62
     3
 10
21039.514621999992
 20
8459.1884659999978
 30
0.0
 11
21039.514621999992
 21
6241.1883740000012
 31
0.0
  0
LINE
  5
4EE7
  8
0-1
  6
CONTINUOUS
 62
     3
 10
21169.515545999991
 20
6661.189265
 30
0.0
 11
24263.018184999979
 21
6661.189265
 31
0.0
  0
LINE
  5
4EE8
  8
0-1
  6
CONTINUOUS
 62
     3
 10
21169.515545999991
 20
6596.1888030000027
 30
0.0
 11
24263.018184999979
 21
6596.1888030000027
 31
0.0
  0
LINE
  5
4EE9
  8
0-1
  6
CONTINUOUS
 62
     3
 10
21169.515545999991
 20
6531.1888360000012
 30
0.0
 11
24263.018184999979
 21
6531.1888360000012
 31
0.0
  0
LINE
  5
4EEA
  8
0-1
  6
CONTINUOUS
 62
     3
 10
21169.515545999991
 20
6466.1883740000012
 30
0.0
 11
24263.018184999979
 21
6466.1883740000012
 31
0.0
  0
LINE
  5
4EEB
  8
0-1
  6
CONTINUOUS
 62
     3
 10
21169.515545999991
 20
6401.1889020000053
 30
0.0
 11
24263.018184999979
 21
6401.1889020000053
 31
0.0
  0
LINE
  5
4EEC
  8
0-1
  6
CONTINUOUS
 62
     3
 10
21169.515545999991
 20
6336.188935000001
 30
0.0
 11
24263.018184999979
 21
6336.188935000001
 31
0.0
  0
LINE
  5
4EED
  8
0-1
  6
CONTINUOUS
 62
     3
 10
21169.515545999991
 20
6271.1889680000013
 30
0.0
 11
24263.018184999979
 21
6271.1889680000013
 31
0.0
  0
LINE
  5
4EEE
  8
0-1
  6
CONTINUOUS
 62
     3
 10
21169.515545999991
 20
6206.1885060000013
 30
0.0
 11
24263.018184999979
 21
6206.1885060000013
 31
0.0
  0
LINE
  5
4EEF
  8
0-1
  6
CONTINUOUS
 62
     3
 10
21169.515545999991
 20
8026.1885720000018
 30
0.0
 11
24263.018184999979
 21
8026.1885720000018
 31
0.0
  0
LINE
  5
4EF0
  8
0-1
  6
CONTINUOUS
 62
     3
 10
21169.515545999991
 20
7961.1886050000021
 30
0.0
 11
24263.018184999979
 21
7961.1886050000021
 31
0.0
  0
LINE
  5
4EF1
  8
0-1
  6
CONTINUOUS
 62
     3
 10
21169.515545999991
 20
7896.1891330000026
 30
0.0
 11
24263.018184999979
 21
7896.1891330000026
 31
0.0
  0
LINE
  5
4EF2
  8
0-1
  6
CONTINUOUS
 62
     3
 10
21169.515545999991
 20
7831.1891659999974
 30
0.0
 11
24263.018184999979
 21
7831.1891659999974
 31
0.0
  0
LINE
  5
4EF3
  8
0-1
  6
CONTINUOUS
 62
     3
 10
21169.515545999991
 20
7766.1891990000022
 30
0.0
 11
24263.018184999979
 21
7766.1891990000022
 31
0.0
  0
LINE
  5
4EF4
  8
0-1
  6
CONTINUOUS
 62
     3
 10
21169.515545999991
 20
7701.1887369999977
 30
0.0
 11
24263.018184999979
 21
7701.1887369999977
 31
0.0
  0
LINE
  5
4EF5
  8
0-1
  6
CONTINUOUS
 62
     3
 10
21169.515545999991
 20
7636.1887699999979
 30
0.0
 11
24263.018184999979
 21
7636.1887699999979
 31
0.0
  0
LINE
  5
4EF6
  8
0-1
  6
CONTINUOUS
 62
     3
 10
21169.515545999991
 20
7571.1892980000011
 30
0.0
 11
24263.018184999979
 21
7571.1892980000011
 31
0.0
  0
LINE
  5
4EF7
  8
0-1
  6
CONTINUOUS
 62
     3
 10
21169.515545999991
 20
7506.1893309999978
 30
0.0
 11
24263.018184999979
 21
7506.1893309999978
 31
0.0
  0
LINE
  5
4EF8
  8
0-1
  6
CONTINUOUS
 62
     3
 10
21169.515545999991
 20
7441.1888690000023
 30
0.0
 11
24263.018184999979
 21
7441.1888690000023
 31
0.0
  0
LINE
  5
4EF9
  8
0-1
  6
CONTINUOUS
 62
     3
 10
21169.515545999991
 20
7376.188901999999
 30
0.0
 11
24263.018184999979
 21
7376.188901999999
 31
0.0
  0
LINE
  5
4EFA
  8
0-1
  6
CONTINUOUS
 62
     3
 10
21169.515545999991
 20
7311.1889350000029
 30
0.0
 11
24263.018184999979
 21
7311.1889350000029
 31
0.0
  0
LINE
  5
4EFB
  8
0-1
  6
CONTINUOUS
 62
     3
 10
21169.515545999991
 20
7246.1884730000029
 30
0.0
 11
24263.018184999979
 21
7246.1884730000029
 31
0.0
  0
LINE
  5
4EFC
  8
0-1
  6
CONTINUOUS
 62
     3
 10
21169.515545999991
 20
7181.1885059999986
 30
0.0
 11
24263.018184999979
 21
7181.1885059999986
 31
0.0
  0
LINE
  5
4EFD
  8
0-1
  6
CONTINUOUS
 62
     3
 10
21169.515545999991
 20
7116.189034
 30
0.0
 11
24263.018184999979
 21
7116.189034
 31
0.0
  0
LINE
  5
4EFE
  8
0-1
  6
CONTINUOUS
 62
     3
 10
21169.515545999991
 20
7051.1890670000012
 30
0.0
 11
24263.018184999979
 21
7051.1890670000012
 31
0.0
  0
LINE
  5
4EFF
  8
0-1
  6
CONTINUOUS
 62
     3
 10
21169.515545999991
 20
6986.1890999999978
 30
0.0
 11
24263.018184999979
 21
6986.1890999999978
 31
0.0
  0
LINE
  5
4F00
  8
0-1
  6
CONTINUOUS
 62
     3
 10
21169.515545999991
 20
6921.1886380000024
 30
0.0
 11
24263.018184999979
 21
6921.1886380000024
 31
0.0
  0
LINE
  5
4F01
  8
0-1
  6
CONTINUOUS
 62
     3
 10
21169.515545999991
 20
6856.1886710000008
 30
0.0
 11
24263.018184999979
 21
6856.1886710000008
 31
0.0
  0
LINE
  5
4F02
  8
0-1
  6
CONTINUOUS
 62
     3
 10
21169.515545999991
 20
6791.1891990000031
 30
0.0
 11
24263.018184999979
 21
6791.1891990000031
 31
0.0
  0
LINE
  5
4F03
  8
0-1
  6
CONTINUOUS
 62
     3
 10
21169.515545999991
 20
6726.1892319999997
 30
0.0
 11
24263.018184999979
 21
6726.1892319999997
 31
0.0
  0
LINE
  5
4F04
  8
0-1
  6
CONTINUOUS
 62
     3
 10
21169.515545999991
 20
8080.6485920000023
 30
0.0
 11
24263.018184999979
 21
8080.6485920000023
 31
0.0
  0
LINE
  5
4F05
  8
0-1
  6
CONTINUOUS
 62
     3
 10
21032.014225999999
 20
6141.1885389999998
 30
0.0
 11
24400.515545999991
 21
6141.1885389999998
 31
0.0
  0
LINE
  5
4F17
  8
0-1
  6
CONTINUOUS
 62
     3
 10
11104.629565999991
 20
15336.487638000001
 30
0.0
 11
14373.129565999971
 21
15336.487638000001
 31
0.0
  0
LINE
  5
4F18
  8
0-1
  6
CONTINUOUS
 62
     3
 10
11104.629565999991
 20
15246.48585600001
 30
0.0
 11
14373.129565999971
 21
15246.48585600001
 31
0.0
  0
LINE
  5
4F19
  8
0-1
  6
CONTINUOUS
 62
     3
 10
11104.629565999991
 20
16795.488627999988
 30
0.0
 11
13875.106366
 21
16795.488627999988
 31
0.0
  0
LINE
  5
4F1A
  8
0-1
  6
CONTINUOUS
 62
     3
 10
11118.771246999981
 20
18254.488626999999
 30
0.0
 11
12669.039142
 21
18254.488626999999
 31
0.0
  0
LINE
  5
4F1B
  8
0-1
  6
CONTINUOUS
 62
     3
 10
11118.771246999981
 20
18164.485855999999
 30
0.0
 11
12698.235060999999
 21
18164.485855999999
 31
0.0
  0
LINE
  5
4F1C
  8
0-1
  6
CONTINUOUS
 62
     3
 10
11174.630292
 20
16750.486251999992
 30
0.0
 11
14303.130819999989
 21
15291.486252000001
 31
0.0
  0
LINE
  5
4F1D
  8
0-1
  6
CONTINUOUS
 62
     3
 10
14303.130819999989
 20
15291.486252000001
 30
0.0
 11
11174.630292
 21
13481.986252000001
 31
0.0
  0
LINE
  5
4F1E
  8
0-1
  6
CONTINUOUS
 62
     3
 10
11174.630292
 20
15291.486252000001
 30
0.0
 11
14303.130819999989
 21
13481.986252000001
 31
0.0
  0
LINE
  5
4F1F
  8
0-1
  6
CONTINUOUS
 62
     3
 10
11174.630292
 20
18209.486251999992
 30
0.0
 11
13585.80368499999
 21
17080.097871000002
 31
0.0
  0
LINE
  5
4F20
  8
0-1
  6
CONTINUOUS
 62
     3
 10
14040.40606499999
 20
16632.87018699999
 30
0.0
 11
11174.630292
 21
15291.486252000001
 31
0.0
  0
LINE
  5
4F21
  8
0-1
  6
CONTINUOUS
 62
     3
 10
12025.823281999979
 20
18590.920808999988
 30
0.0
 11
11174.630292
 21
18209.486251999992
 31
0.0
  0
LINE
  5
4F22
  8
0-1
  6
CONTINUOUS
 62
     3
 10
12896.27599799999
 20
17548.978519
 30
0.0
 11
11174.630292
 21
16750.486251999992
 31
0.0
  0
LINE
  5
4F23
  8
0-1
  6
CONTINUOUS
 62
     3
 10
11037.128932999991
 20
19495.17939999999
 30
0.0
 11
11037.128932999991
 21
19873.487175999991
 31
0.0
  0
LINE
  5
4F24
  8
0-1
  6
CONTINUOUS
 62
     3
 10
11092.629685
 20
19855.988230999988
 30
0.0
 11
11092.629685
 21
19885.987834999982
 31
0.0
  0
LINE
  5
4F25
  8
0-1
  6
CONTINUOUS
 62
     3
 10
11019.130160000001
 20
19885.987834999982
 30
0.0
 11
11019.130160000001
 21
19850.985987999979
 31
0.0
  0
LINE
  5
4F26
  8
0-1
  6
CONTINUOUS
 62
     3
 10
11087.629420999991
 20
19890.986120000001
 30
0.0
 11
11024.129434
 21
19890.986120000001
 31
0.0
  0
LINE
  5
4F27
  8
0-1
  6
CONTINUOUS
 62
     3
 10
11037.128932999991
 20
19873.487175999991
 30
0.0
 11
11019.130160000001
 21
19873.487175999991
 31
0.0
  0
LINE
  5
4F28
  8
0-1
  6
CONTINUOUS
 62
     3
 10
11037.128932999991
 20
19850.985987999979
 30
0.0
 11
11087.629420999991
 21
19850.985987999979
 31
0.0
  0
LINE
  5
4F29
  8
0-1
  6
CONTINUOUS
 62
     3
 10
11092.629685
 20
19870.982161000011
 30
0.0
 11
14385.130437
 21
19870.982161000022
 31
0.0
  0
LINE
  5
4F2A
  8
0-1
  6
CONTINUOUS
 62
     3
 10
14440.631188999991
 20
16252.418591999991
 30
0.0
 11
14440.631188999991
 21
19873.487175999991
 31
0.0
  0
LINE
  5
4F2B
  8
0-1
  6
CONTINUOUS
 62
     3
 10
14440.631188999991
 20
19873.487175999991
 30
0.0
 11
14458.630950999979
 21
19873.487175999991
 31
0.0
  0
LINE
  5
4F2C
  8
0-1
  6
CONTINUOUS
 62
     3
 10
14385.130437
 20
19855.988230999988
 30
0.0
 11
14385.130437
 21
19885.987834999982
 31
0.0
  0
LINE
  5
4F2D
  8
0-1
  6
CONTINUOUS
 62
     3
 10
14440.631188999991
 20
19850.985987999979
 30
0.0
 11
14390.131691000001
 21
19850.985987999979
 31
0.0
  0
LINE
  5
4F2E
  8
0-1
  6
CONTINUOUS
 62
     3
 10
14458.630950999979
 20
19885.987834999982
 30
0.0
 11
14458.630950999979
 21
19850.985987999979
 31
0.0
  0
LINE
  5
4F2F
  8
0-1
  6
CONTINUOUS
 62
     3
 10
14390.131691000001
 20
19890.986120000001
 30
0.0
 11
14453.629697999981
 21
19890.986120000001
 31
0.0
  0
LINE
  5
4F30
  8
0-2
  6
CONTINUOUS
 62
     4
 10
23079.956884999981
 20
6888.4152329999988
 30
0.0
 11
22979.957544999968
 21
6888.4152329999988
 31
0.0
  0
LINE
  5
4F31
  8
0-2
  6
CONTINUOUS
 62
     4
 10
22352.572884999969
 20
6888.4152329999988
 30
0.0
 11
22452.572224999982
 21
6888.4152329999988
 31
0.0
  0
LINE
  5
4F32
  8
0-5
  6
CONTINUOUS
 62
     4
 10
24350.516864999991
 20
4461.1889350000001
 30
0.0
 11
24350.516864999991
 21
4301.1893970000001
 31
0.0
  0
LINE
  5
4F33
  8
0-5
  6
CONTINUOUS
 62
     4
 10
18860.143844999991
 20
6349.0350210000024
 30
0.0
 11
18980.14226099999
 21
6141.1885389999998
 31
0.0
  0
LINE
  5
4F34
  8
0-5
  6
CONTINUOUS
 62
     4
 10
16409.765163000011
 20
6141.1885389999979
 30
0.0
 11
20952.015941999991
 21
6141.1885389999998
 31
0.0
  0
LINE
  5
4F35
  8
0-5
  6
CONTINUOUS
 62
     4
 10
18980.14226099999
 20
6141.1885389999998
 30
0.0
 11
19100.142656999989
 21
6349.0350210000024
 31
0.0
  0
LINE
  5
4F36
  8
0-5
  6
CONTINUOUS
 62
     4
 10
19100.142656999989
 20
6349.0350210000024
 30
0.0
 11
18860.143844999991
 21
6349.0350210000024
 31
0.0
  0
LINE
  5
4F37
  8
0-5
  6
CONTINUOUS
 62
     4
 10
21082.016865000001
 20
4461.1889350000001
 30
0.0
 11
21082.016865000001
 21
4301.1893970000001
 31
0.0
  0
LINE
  5
4F38
  8
0-6
  6
CONTINUOUS
 62
     6
 10
12690.517908
 20
19608.710728999991
 30
0.0
 11
12834.419010999991
 21
20120.986383999989
 31
0.0
  0
LINE
  5
4F39
  8
0-6
  6
CONTINUOUS
 62
     6
 10
12664.62976399999
 20
19615.110512999981
 30
0.0
 11
12652.128113999999
 21
19453.385823999961
 31
0.0
  0
LINE
  5
4F3A
  8
0-6
  6
CONTINUOUS
 62
     6
 10
12652.128113999999
 20
19453.385823999961
 30
0.0
 11
12716.403082999999
 21
19602.314904999999
 31
0.0
  0
LINE
  5
4F3B
  8
0-6
  6
CONTINUOUS
 62
     6
 10
12652.128113999999
 20
19453.385823999961
 30
0.0
 11
12664.62976399999
 21
19615.110512999981
 31
0.0
  0
LINE
  5
4F3C
  8
0-6
  6
CONTINUOUS
 62
     6
 10
12664.62976399999
 20
19615.110512999981
 30
0.0
 11
12716.403082999999
 21
19602.314904999999
 31
0.0
  0
LINE
  5
4F3D
  8
0-6
  6
CONTINUOUS
 62
     6
 10
12716.403082999999
 20
19602.314904999999
 30
0.0
 11
12652.128113999999
 21
19453.385823999961
 31
0.0
  0
LINE
  5
4F3E
  8
0-6
  6
CONTINUOUS
 62
     6
 10
12716.403082999999
 20
19602.314904999999
 30
0.0
 11
12664.62976399999
 21
19615.110512999981
 31
0.0
  0
LINE
  5
4F3F
  8
0-6
  6
CONTINUOUS
 62
     6
 10
12834.419010999991
 20
20120.986383999989
 30
0.0
 11
13352.107658999999
 21
20120.986383999989
 31
0.0
  0
LINE
  5
4F40
  8
0-6
  6
CONTINUOUS
 62
     6
 10
11194.44527299999
 20
18759.389716999991
 30
0.0
 11
11104.629565999991
 21
18894.462167999991
 31
0.0
  0
LINE
  5
4F41
  8
0-6
  6
CONTINUOUS
 62
     6
 10
11104.629565999991
 20
18894.462167999991
 30
0.0
 11
11145.783756999999
 21
18737.561566
 31
0.0
  0
LINE
  5
4F42
  8
0-6
  6
CONTINUOUS
 62
     6
 10
11104.629565999991
 20
18894.462167999991
 30
0.0
 11
11194.44527299999
 21
18759.389716999991
 31
0.0
  0
LINE
  5
4F43
  8
0-6
  6
CONTINUOUS
 62
     6
 10
11194.44527299999
 20
18759.389716999991
 30
0.0
 11
11145.783756999999
 21
18737.561566
 31
0.0
  0
LINE
  5
4F44
  8
0-6
  6
CONTINUOUS
 62
     6
 10
11145.783756999999
 20
18737.561566
 30
0.0
 11
11104.629565999991
 21
18894.462167999991
 31
0.0
  0
LINE
  5
4F45
  8
0-6
  6
CONTINUOUS
 62
     6
 10
11145.783756999999
 20
18737.561566
 30
0.0
 11
11194.44527299999
 21
18759.389716999991
 31
0.0
  0
LINE
  5
4F46
  8
0-6
  6
CONTINUOUS
 62
     6
 10
14877.36639499999
 20
17244.576069999988
 30
0.0
 11
16871.810547000001
 21
17244.576069999988
 31
0.0
  0
LINE
  5
4F47
  8
0-6
  6
CONTINUOUS
 62
     6
 10
14104.30591499999
 20
15522.595046999981
 30
0.0
 11
13961.33320599999
 21
15445.978769999991
 31
0.0
  0
LINE
  5
4F48
  8
0-6
  6
CONTINUOUS
 62
     6
 10
13961.33320599999
 20
15445.978769999991
 30
0.0
 11
14121.426771
 21
15472.084661000001
 31
0.0
  0
LINE
  5
4F49
  8
0-6
  6
CONTINUOUS
 62
     6
 10
13961.33320599999
 20
15445.978769999991
 30
0.0
 11
14104.30591499999
 21
15522.595046999981
 31
0.0
  0
LINE
  5
4F4A
  8
0-6
  6
CONTINUOUS
 62
     6
 10
14104.30591499999
 20
15522.595046999981
 30
0.0
 11
14121.426771
 21
15472.084661000001
 31
0.0
  0
LINE
  5
4F4B
  8
0-6
  6
CONTINUOUS
 62
     6
 10
14121.426771
 20
15472.084661000001
 30
0.0
 11
13961.33320599999
 21
15445.978769999991
 31
0.0
  0
LINE
  5
4F4C
  8
0-6
  6
CONTINUOUS
 62
     6
 10
14121.426771
 20
15472.084661000001
 30
0.0
 11
14104.30591499999
 21
15522.595046999981
 31
0.0
  0
LINE
  5
4F4D
  8
0-6
  6
CONTINUOUS
 62
     6
 10
13961.33320599999
 20
15445.978769999991
 30
0.0
 11
14877.36639499999
 21
15747.40868099999
 31
0.0
  0
LINE
  5
4F4E
  8
0-6
  6
CONTINUOUS
 62
     6
 10
14877.36639499999
 20
15747.40868099999
 30
0.0
 11
15757.367319000001
 21
15747.40868099999
 31
0.0
  0
LINE
  5
4F4F
  8
0-6
  6
CONTINUOUS
 62
     6
 10
11269.155272999969
 20
18527.683108000001
 30
0.0
 11
11789.155999000001
 21
18527.683108000001
 31
0.0
  0
LINE
  5
4F50
  8
0-6
  6
CONTINUOUS
 62
     6
 10
12255.010953000001
 20
13676.376956
 30
0.0
 11
12337.898345
 21
13853.31523499998
 31
0.0
  0
LINE
  5
4F51
  8
0-6
  6
CONTINUOUS
 62
     6
 10
12337.898345
 20
13853.31523499998
 30
0.0
 11
13137.89900499999
 21
13853.31523499998
 31
0.0
  0
LINE
  5
4F52
  8
0-6
  6
CONTINUOUS
 62
     6
 10
12862.05408
 20
13166.93993099999
 30
0.0
 11
12755.78362499998
 21
13289.48697799999
 31
0.0
  0
LINE
  5
4F53
  8
0-6
  6
CONTINUOUS
 62
     6
 10
12755.78362499998
 20
13289.48697799999
 30
0.0
 11
12816.56573299999
 21
13139.098002000001
 31
0.0
  0
LINE
  5
4F54
  8
0-6
  6
CONTINUOUS
 62
     6
 10
12755.78362499998
 20
13289.48697799999
 30
0.0
 11
12862.05408
 21
13166.93993099999
 31
0.0
  0
LINE
  5
4F55
  8
0-6
  6
CONTINUOUS
 62
     6
 10
12862.05408
 20
13166.93993099999
 30
0.0
 11
12816.56573299999
 21
13139.098002000001
 31
0.0
  0
LINE
  5
4F56
  8
0-6
  6
CONTINUOUS
 62
     6
 10
12816.56573299999
 20
13139.098002000001
 30
0.0
 11
12755.78362499998
 21
13289.48697799999
 31
0.0
  0
LINE
  5
4F57
  8
0-6
  6
CONTINUOUS
 62
     6
 10
12816.56573299999
 20
13139.098002000001
 30
0.0
 11
12862.05408
 21
13166.93993099999
 31
0.0
  0
LINE
  5
4F58
  8
0-6
  6
CONTINUOUS
 62
     6
 10
12230.863795999991
 20
13687.688915000001
 30
0.0
 11
12187.13820999999
 21
13531.486094
 31
0.0
  0
LINE
  5
4F59
  8
0-6
  6
CONTINUOUS
 62
     6
 10
12187.13820999999
 20
13531.486094
 30
0.0
 11
12279.15910099999
 21
13665.064006999981
 31
0.0
  0
LINE
  5
4F5A
  8
0-6
  6
CONTINUOUS
 62
     6
 10
12187.13820999999
 20
13531.486094
 30
0.0
 11
12230.863795999991
 21
13687.688915000001
 31
0.0
  0
LINE
  5
4F5B
  8
0-6
  6
CONTINUOUS
 62
     6
 10
12230.863795999991
 20
13687.688915000001
 30
0.0
 11
12279.15910099999
 21
13665.064006999981
 31
0.0
  0
LINE
  5
4F5C
  8
0-6
  6
CONTINUOUS
 62
     6
 10
12279.15910099999
 20
13665.064006999981
 30
0.0
 11
12187.13820999999
 21
13531.486094
 31
0.0
  0
LINE
  5
4F5D
  8
0-6
  6
CONTINUOUS
 62
     6
 10
12279.15910099999
 20
13665.064006999981
 30
0.0
 11
12230.863795999991
 21
13687.688915000001
 31
0.0
  0
LINE
  5
4F5E
  8
0-6
  6
CONTINUOUS
 62
     6
 10
13245.422495000001
 20
12489.487308
 30
0.0
 11
14108.002666
 21
12489.487308
 31
0.0
  0
LINE
  5
4F5F
  8
0-6
  6
CONTINUOUS
 62
     6
 10
12839.31040199999
 20
13153.018967
 30
0.0
 11
13245.422495000001
 21
12489.487308
 31
0.0
  0
LINE
  5
4F60
  8
0-6
  6
CONTINUOUS
 62
     6
 10
10952.67974
 20
13861.776687
 30
0.0
 11
10975.13044999999
 21
14022.42253799999
 31
0.0
  0
LINE
  5
4F61
  8
0-6
  6
CONTINUOUS
 62
     6
 10
10975.13044999999
 20
14022.42253799999
 30
0.0
 11
10901.793245999979
 21
13877.741504
 31
0.0
  0
LINE
  5
4F62
  8
0-6
  6
CONTINUOUS
 62
     6
 10
10975.13044999999
 20
14022.42253799999
 30
0.0
 11
10952.67974
 21
13861.776687
 31
0.0
  0
LINE
  5
4F63
  8
0-6
  6
CONTINUOUS
 62
     6
 10
10952.67974
 20
13861.776687
 30
0.0
 11
10901.793245999979
 21
13877.741504
 31
0.0
  0
LINE
  5
4F64
  8
0-6
  6
CONTINUOUS
 62
     6
 10
10901.793245999979
 20
13877.741504
 30
0.0
 11
10975.13044999999
 21
14022.42253799999
 31
0.0
  0
LINE
  5
4F65
  8
0-6
  6
CONTINUOUS
 62
     6
 10
10901.793245999979
 20
13877.741504
 30
0.0
 11
10952.67974
 21
13861.776687
 31
0.0
  0
LINE
  5
4F66
  8
0-6
  6
CONTINUOUS
 62
     6
 10
9260.4961989999956
 20
11999.48618599998
 30
0.0
 11
10340.495803
 21
11999.48618599998
 31
0.0
  0
LINE
  5
4F67
  8
0-6
  6
CONTINUOUS
 62
     6
 10
10927.23599799998
 20
13869.75810599999
 30
0.0
 11
10340.495803
 21
11999.48618599998
 31
0.0
  0
LINE
  5
4F68
  8
0-6
  6
CONTINUOUS
 62
     6
 10
11170.11500999999
 20
18748.476631000001
 30
0.0
 11
11269.155272999969
 21
18527.683108000001
 31
0.0
  0
LINE
  5
4F69
  8
0-6
  6
CONTINUOUS
 62
     6
 10
13684.897394999991
 20
18331.103913999988
 30
0.0
 11
13541.923695999991
 21
18254.488626999999
 31
0.0
  0
LINE
  5
4F6A
  8
0-6
  6
CONTINUOUS
 62
     6
 10
13541.923695999991
 20
18254.488626999999
 30
0.0
 11
13702.018251
 21
18280.594518000002
 31
0.0
  0
LINE
  5
4F6B
  8
0-6
  6
CONTINUOUS
 62
     6
 10
13541.923695999991
 20
18254.488626999999
 30
0.0
 11
13684.897394999991
 21
18331.103913999988
 31
0.0
  0
LINE
  5
4F6C
  8
0-6
  6
CONTINUOUS
 62
     6
 10
13684.897394999991
 20
18331.103913999988
 30
0.0
 11
13702.018251
 21
18280.594518000002
 31
0.0
  0
LINE
  5
4F6D
  8
0-6
  6
CONTINUOUS
 62
     6
 10
13702.018251
 20
18280.594518000002
 30
0.0
 11
13541.923695999991
 21
18254.488626999999
 31
0.0
  0
LINE
  5
4F6E
  8
0-6
  6
CONTINUOUS
 62
     6
 10
13702.018251
 20
18280.594518000002
 30
0.0
 11
13684.897394999991
 21
18331.103913999988
 31
0.0
  0
LINE
  5
4F6F
  8
0-6
  6
CONTINUOUS
 62
     6
 10
13693.45683299998
 20
18305.847236999991
 30
0.0
 11
14877.36639499999
 21
18688.075581000001
 31
0.0
  0
LINE
  5
4F70
  8
0-6
  6
CONTINUOUS
 62
     6
 10
13684.897394999991
 20
16872.103915
 30
0.0
 11
13541.923695999991
 21
16795.488627999988
 31
0.0
  0
LINE
  5
4F71
  8
0-6
  6
CONTINUOUS
 62
     6
 10
13541.923695999991
 20
16795.488627999988
 30
0.0
 11
13702.018251
 21
16821.594518999991
 31
0.0
  0
LINE
  5
4F72
  8
0-6
  6
CONTINUOUS
 62
     6
 10
13541.923695999991
 20
16795.488627999988
 30
0.0
 11
13684.897394999991
 21
16872.103915
 31
0.0
  0
LINE
  5
4F73
  8
0-6
  6
CONTINUOUS
 62
     6
 10
13684.897394999991
 20
16872.103915
 30
0.0
 11
13702.018251
 21
16821.594518999991
 31
0.0
  0
LINE
  5
4F74
  8
0-6
  6
CONTINUOUS
 62
     6
 10
13702.018251
 20
16821.594518999991
 30
0.0
 11
13541.923695999991
 21
16795.488627999988
 31
0.0
  0
LINE
  5
4F75
  8
0-6
  6
CONTINUOUS
 62
     6
 10
13702.018251
 20
16821.594518999991
 30
0.0
 11
13684.897394999991
 21
16872.103915
 31
0.0
  0
LINE
  5
4F76
  8
0-6
  6
CONTINUOUS
 62
     6
 10
13693.45683299998
 20
16846.847237000002
 30
0.0
 11
14877.36639499999
 21
17244.576069999988
 31
0.0
  0
LINE
  5
4F77
  8
0-6
  6
CONTINUOUS
 62
     6
 10
13691.020045999991
 20
15188.429545999999
 30
0.0
 11
14877.36639499999
 21
14725.054637999991
 31
0.0
  0
LINE
  5
4F78
  8
0-6
  6
CONTINUOUS
 62
     6
 10
13700.694943
 20
15213.27943200001
 30
0.0
 11
13541.923695999991
 21
15246.48585600001
 31
0.0
  0
LINE
  5
4F79
  8
0-6
  6
CONTINUOUS
 62
     6
 10
13541.923695999991
 20
15246.48585600001
 30
0.0
 11
13681.344159
 21
15163.57965900001
 31
0.0
  0
LINE
  5
4F7A
  8
0-6
  6
CONTINUOUS
 62
     6
 10
13541.923695999991
 20
15246.48585600001
 30
0.0
 11
13700.694943
 21
15213.27943200001
 31
0.0
  0
LINE
  5
4F7B
  8
0-6
  6
CONTINUOUS
 62
     6
 10
13700.694943
 20
15213.27943200001
 30
0.0
 11
13681.344159
 21
15163.57965900001
 31
0.0
  0
LINE
  5
4F7C
  8
0-6
  6
CONTINUOUS
 62
     6
 10
13681.344159
 20
15163.57965900001
 30
0.0
 11
13541.923695999991
 21
15246.48585600001
 31
0.0
  0
LINE
  5
4F7D
  8
0-6
  6
CONTINUOUS
 62
     6
 10
13681.344159
 20
15163.57965900001
 30
0.0
 11
13700.694943
 21
15213.27943200001
 31
0.0
  0
LINE
  5
4F7E
  8
0-6
  6
CONTINUOUS
 62
     6
 10
14877.36639499999
 20
18688.075581000001
 30
0.0
 11
16871.810547000001
 21
18688.075581000001
 31
0.0
  0
LINE
  5
4F7F
  8
0-6
  6
CONTINUOUS
 62
     6
 10
14877.36639499999
 20
14725.054637999991
 30
0.0
 11
16871.810547000001
 21
14725.054637999991
 31
0.0
  0
LINE
  5
4F80
  8
0-6
  6
CONTINUOUS
 62
     6
 10
14547.318293
 20
20024.793657999991
 30
0.0
 11
14455.630950999979
 21
19890.986120000001
 31
0.0
  0
LINE
  5
4F81
  8
0-6
  6
CONTINUOUS
 62
     6
 10
14455.630950999979
 20
19890.986120000001
 30
0.0
 11
14585.75955399998
 21
19987.826147999978
 31
0.0
  0
LINE
  5
4F82
  8
0-6
  6
CONTINUOUS
 62
     6
 10
14455.630950999979
 20
19890.986120000001
 30
0.0
 11
14547.318293
 21
20024.793657999991
 31
0.0
  0
LINE
  5
4F83
  8
0-6
  6
CONTINUOUS
 62
     6
 10
14547.318293
 20
20024.793657999991
 30
0.0
 11
14585.75955399998
 21
19987.826147999978
 31
0.0
  0
LINE
  5
4F84
  8
0-6
  6
CONTINUOUS
 62
     6
 10
14585.75955399998
 20
19987.826147999978
 30
0.0
 11
14455.630950999979
 21
19890.986120000001
 31
0.0
  0
LINE
  5
4F85
  8
0-6
  6
CONTINUOUS
 62
     6
 10
14585.75955399998
 20
19987.826147999978
 30
0.0
 11
14547.318293
 21
20024.793657999991
 31
0.0
  0
LINE
  5
4F86
  8
0-6
  6
CONTINUOUS
 62
     6
 10
14566.539419000001
 20
20006.308913000001
 30
0.0
 11
15083.52830699998
 21
20510.987175999991
 31
0.0
  0
LINE
  5
4F87
  8
0-6
  6
CONTINUOUS
 62
     6
 10
15083.52830699998
 20
20510.987175999991
 30
0.0
 11
16758.527646999992
 21
20510.987175999991
 31
0.0
  0
LINE
  5
4F88
  8
2-0
  6
DASHED3
 62
     6
 10
11104.629565999991
 20
19629.487755999991
 30
0.0
 11
14373.129565999971
 21
19629.487755999991
 31
0.0
  0
LINE
  5
4F89
  8
2-0
  6
DASHED3
 62
     6
 10
11062.130292
 20
19475.457456
 30
0.0
 11
11062.130292
 21
19714.488283999988
 31
0.0
  0
LINE
  5
4F8A
  8
2-0
  6
DASHED3
 62
     6
 10
11104.629565999991
 20
19437.349743999981
 30
0.0
 11
11104.629565999991
 21
19714.488283999988
 31
0.0
  0
LINE
  5
4F8B
  8
2-0
  6
DASHED3
 62
     6
 10
11062.130292
 20
19714.488283999988
 30
0.0
 11
14415.630819999989
 21
19714.488283999988
 31
0.0
  0
LINE
  5
4F8C
  8
2-0
  6
DASHED3
 62
     6
 10
14373.129565999971
 20
16315.87206099998
 30
0.0
 11
14373.129565999971
 21
19714.488283999988
 31
0.0
  0
LINE
  5
4F8D
  8
2-0
  6
DASHED3
 62
     6
 10
14415.630819999989
 20
16274.059678999991
 30
0.0
 11
14415.630819999989
 21
19714.488283999988
 31
0.0
  0
LINE
  5
4F8E
  8
2-0
  6
DASHED3
 62
     6
 10
13966.59080699999
 20
16705.485856999989
 30
0.0
 11
14373.129565999971
 21
16705.485856999989
 31
0.0
  0
LINE
  5
4F8F
  8
2-0
  6
DASHED3
 62
     6
 10
13875.106366
 20
16795.488627999988
 30
0.0
 11
14373.129565999971
 21
16795.488627999988
 31
0.0
  0
LINE
  5
4F90
  8
2-0
  6
DASHED3
 62
     6
 10
12698.235060999999
 20
18164.485855999999
 30
0.0
 11
14387.27223599999
 21
18164.485855999999
 31
0.0
  0
LINE
  5
4F91
  8
2-0
  6
DASHED3
 62
     6
 10
12669.039142
 20
18254.488626999999
 30
0.0
 11
14387.27223599999
 21
18254.488626999999
 31
0.0
  0
LINE
  5
4F92
  8
2-0
  6
DASHED3
 62
     6
 10
14303.130819999989
 20
16750.486251999992
 30
0.0
 11
14040.40606499999
 21
16632.87018699999
 31
0.0
  0
LINE
  5
4F93
  8
2-0
  6
DASHED3
 62
     6
 10
11174.630292
 20
19668.486251999992
 30
0.0
 11
14320.129935000001
 21
18209.486251999992
 31
0.0
  0
LINE
  5
4F94
  8
2-0
  6
DASHED3
 62
     6
 10
14320.129935000001
 20
18209.486251999992
 30
0.0
 11
12896.27599799999
 21
17548.978519
 31
0.0
  0
LINE
  5
4F95
  8
2-0
  6
DASHED3
 62
     6
 10
14303.130819999989
 20
19668.486251999992
 30
0.0
 11
12025.823281999979
 21
18590.920808999988
 31
0.0
  0
LINE
  5
4F96
  8
2-0
  6
DASHED3
 62
     6
 10
13585.80368499999
 20
17080.097871000002
 30
0.0
 11
14303.130819999989
 21
16750.486251999992
 31
0.0
  0
LINE
  5
4F97
  8
2-0
  6
CENTER2
 62
     6
 10
14373.129565999971
 20
20910.988495000001
 30
0.0
 11
14373.129565999971
 21
19960.987834999989
 31
0.0
  0
LINE
  5
4F98
  8
2-0
  6
CENTER2
 62
     6
 10
9775.1294609999986
 20
19668.486251999992
 30
0.0
 11
11421.62868199998
 21
19668.486251999992
 31
0.0
  0
LINE
  5
4F99
  8
0-8
  6
CONTINUOUS
 62
     6
 10
11104.629565999991
 20
20910.988495000001
 30
0.0
 11
11104.629565999991
 21
19960.987834999989
 31
0.0
  0
LINE
  5
4F9A
  8
2-0
  6
CENTER2
 62
     6
 10
9775.1294609999986
 20
16750.486251999992
 30
0.0
 11
11421.62868199998
 21
16750.486251999992
 31
0.0
  0
LINE
  5
4F9B
  8
2-0
  6
CENTER2
 62
     6
 10
9775.1294609999986
 20
13481.986252000001
 30
0.0
 11
11421.62868199998
 21
13481.986252000001
 31
0.0
  0
LINE
  5
4F9C
  8
2-0
  6
CENTER2
 62
     6
 10
24350.516864999991
 20
5878.536116000002
 30
0.0
 11
24350.516864999991
 21
6915.6791430000021
 31
0.0
  0
LINE
  5
4F9D
  8
2-0
  6
CENTER2
 62
     6
 10
21082.016865000001
 20
5878.536116000002
 30
0.0
 11
21082.016865000001
 21
6915.6791430000021
 31
0.0
  0
LINE
  5
4F9E
  8
2-0
  6
CENTER2
 62
     6
 10
10885.831398
 20
18209.486251999992
 30
0.0
 11
14544.92901399999
 21
18209.486251999992
 31
0.0
  0
LINE
  5
4F9F
  8
2-0
  6
CENTER2
 62
     6
 10
10885.831398
 20
15291.486252000001
 30
0.0
 11
14544.92901399999
 21
15291.486252000001
 31
0.0
  0
ARC
  5
4FA8
  8
0-1
  6
CONTINUOUS
 62
     3
 10
11087.629420999991
 20
19855.988230999988
 30
0.0
 40
5.0
 50
269.9999850001808
 51
0.0
  0
ARC
  5
4FA9
  8
0-1
  6
CONTINUOUS
 62
     3
 10
11087.629420999991
 20
19885.987834999982
 30
0.0
 40
5.0
 50
0.0
 51
90.0
  0
ARC
  5
4FAA
  8
0-1
  6
CONTINUOUS
 62
     3
 10
11024.129434
 20
19885.987834999982
 30
0.0
 40
5.0
 50
90.0
 51
180.0
  0
ARC
  5
4FAB
  8
0-1
  6
CONTINUOUS
 62
     3
 10
14453.629697999981
 20
19885.987834999982
 30
0.0
 40
5.0
 50
0.0
 51
90.0
  0
ARC
  5
4FAC
  8
0-1
  6
CONTINUOUS
 62
     3
 10
14390.131691000001
 20
19885.987834999982
 30
0.0
 40
5.0
 50
90.0
 51
180.0
  0
ARC
  5
4FAD
  8
0-1
  6
CONTINUOUS
 62
     3
 10
14390.131691000001
 20
19855.988230999988
 30
0.0
 40
5.0
 50
180.0
 51
269.9999850001808
  0
CIRCLE
  5
4FAE
  8
0-5
  6
CONTINUOUS
 62
     4
 10
14373.129565999971
 20
21110.987175999991
 30
0.0
 40
199.9999949999999
  0
CIRCLE
  5
4FAF
  8
0-5
  6
CONTINUOUS
 62
     4
 10
11104.629565999991
 20
21110.987175999991
 30
0.0
 40
199.9999949999999
  0
CIRCLE
  5
4FB0
  8
0-5
  6
CONTINUOUS
 62
     4
 10
9575.1297900000045
 20
19668.486251999992
 30
0.0
 40
199.9999949999999
  0
CIRCLE
  5
4FB1
  8
0-5
  6
CONTINUOUS
 62
     4
 10
9575.1297900000045
 20
16750.486251999992
 30
0.0
 40
199.9999949999999
  0
CIRCLE
  5
4FB2
  8
0-5
  6
CONTINUOUS
 62
     4
 10
9575.1297900000045
 20
13481.986252000001
 30
0.0
 40
199.9999949999999
  0
CIRCLE
  5
4FB3
  8
0-5
  6
CONTINUOUS
 62
     4
 10
24350.516864999991
 20
4101.1882420000011
 30
0.0
 40
199.9999949999999
  0
CIRCLE
  5
4FB4
  8
0-5
  6
CONTINUOUS
 62
     4
 10
21082.016865000001
 20
4101.1882420000011
 30
0.0
 40
199.9999949999999
  0
CIRCLE
  5
4FB5
  8
0-5
  6
CONTINUOUS
 62
     4
 10
15128.71667799999
 20
1375.999982000001
 30
0.0
 40
20.0
  0
ARC
  5
4FB6
  8
0-5
  6
CONTINUOUS
 62
     4
 10
15128.71667799999
 20
1375.999982000001
 30
0.0
 40
20.0
 50
180.0
 51
0.0
  0
ARC
  5
4FB7
  8
0-5
  6
CONTINUOUS
 62
     4
 10
15128.71667799999
 20
1375.999982000001
 30
0.0
 40
20.0
 50
0.0
 51
179.99998500000001
  0
CIRCLE
  5
4FB8
  8
0-5
  6
CONTINUOUS
 62
     4
 10
15128.71667799999
 20
1775.999321999999
 30
0.0
 40
20.0
  0
ARC
  5
4FB9
  8
0-5
  6
CONTINUOUS
 62
     4
 10
15128.71667799999
 20
1775.999321999999
 30
0.0
 40
20.0
 50
180.0
 51
0.0
  0
ARC
  5
4FBA
  8
0-5
  6
CONTINUOUS
 62
     4
 10
15128.71667799999
 20
1775.999321999999
 30
0.0
 40
20.0
 50
0.0
 51
179.99998500000001
  0
TEXT
  5
4FBB
  8
0-5
  6
CONTINUOUS
 62
     7
 10
14319.412359999989
 20
21021.772252999999
 30
0.0
 40
160.0
  1
2
 72
     4
 11
14372.745693333331
 21
21101.772252999999
 31
0.0
  0
TEXT
  5
4FBC
  8
0-5
  6
CONTINUOUS
 62
     7
 10
11050.910380999991
 20
21021.772252999999
 30
0.0
 40
160.0
  1
1
 72
     4
 11
11077.57704766666
 21
21101.772252999999
 31
0.0
  0
TEXT
  5
4FBD
  8
0-5
  6
CONTINUOUS
 62
     7
 10
9521.6699219999991
 20
19588.897727999989
 30
0.0
 40
160.0
  1
C
 72
     4
 11
9575.0032553333331
 21
19668.897727999989
 31
0.0
  0
TEXT
  5
4FBE
  8
0-5
  6
CONTINUOUS
 62
     7
 10
9521.6699219999991
 20
16670.898717999989
 30
0.0
 40
160.0
  1
B
 72
     4
 11
9575.0032553333331
 21
16750.898717999989
 31
0.0
  0
TEXT
  5
4FBF
  8
0-5
  6
CONTINUOUS
 62
     7
 10
9521.6699219999991
 20
13402.397727999991
 30
0.0
 40
160.0
  1
A
 72
     4
 11
9575.0032553333331
 21
13482.397727999991
 31
0.0
  0
TEXT
  5
4FC0
  8
0-5
  6
CONTINUOUS
 62
     7
 10
24298.603989999989
 20
4011.7132600000009
 30
0.0
 40
160.0
  1
2
 72
     4
 11
24351.937323333321
 21
4091.7132600000009
 31
0.0
  0
TEXT
  5
4FC1
  8
0-5
  6
CONTINUOUS
 62
     7
 10
18860.143844999991
 20
6429.0347900000006
 30
0.0
 40
160.0
  1
G.L
 72
     4
 11
19020.143844999991
 21
6509.0347900000006
 31
0.0
  0
TEXT
  5
4FC2
  8
0-5
  6
CONTINUOUS
 62
     7
 10
21030.103991
 20
4011.7132600000009
 30
0.0
 40
160.0
  1
1
 72
     4
 11
21056.770657666671
 21
4091.7132600000009
 31
0.0
  0
TEXT
  5
4FC3
  8
0-5
  6
CONTINUOUS
 62
     7
 10
16661.217403999992
 20
1655.999792000001
 30
0.0
 40
160.0
  1
H
  0
TEXT
  5
4FC4
  8
0-5
  6
CONTINUOUS
 62
     7
 10
15176.146933
 20
1655.999792000001
 30
0.0
 40
160.0
  1
（ ）内寸法ハ、  タ イプヲ示ス。
  0
TEXT
  5
4FC5
  8
0-5
  6
CONTINUOUS
 62
     7
 10
15288.716216000001
 20
1255.999462
 30
0.0
 40
160.0
  1
有効高サハ、基礎高サヲ含ミマセン。
  0
TEXT
  5
4FC6
  8
0-6
  6
CONTINUOUS
 62
     7
 10
12914.419274999989
 20
20200.986647999991
 30
0.0
 40
160.0
  1
屋根
 72
     4
 11
13085.085941666661
 21
20280.986647999991
 31
0.0
  0
TEXT
  5
4FC7
  8
0-6
  6
CONTINUOUS
 62
     7
 10
14957.367648999991
 20
15827.408944999979
 30
0.0
 40
160.0
  1
ブレース
 72
     4
 11
15320.03431566666
 21
15912.74227833332
 31
0.0
  0
TEXT
  5
4FC8
  8
0-6
  6
CONTINUOUS
 62
     7
 10
12417.89761899999
 20
13933.315499
 30
0.0
 40
160.0
  1
桁（前）
 72
     4
 11
12737.89761899999
 21
14013.315499
 31
0.0
  0
TEXT
  5
4FC9
  8
0-6
  6
CONTINUOUS
 62
     7
 10
13325.42176899999
 20
12569.486582
 30
0.0
 40
160.0
  1
鼻隠し前
 72
     4
 11
13688.088435666659
 21
12649.486582
 31
0.0
  0
TEXT
  5
4FCA
  8
0-6
  6
CONTINUOUS
 62
     7
 10
9340.4964629999977
 20
12079.485459999991
 30
0.0
 40
160.0
  1
ケラバ 左
 72
     4
 11
9756.4964629999977
 21
12159.485459999991
 31
0.0
  0
TEXT
  5
4FCB
  8
0-6
  6
CONTINUOUS
 62
     7
 10
11349.15553699999
 20
18607.683372
 30
0.0
 40
160.0
  1
上枠
 72
     4
 11
11519.822203666659
 21
18687.683372
 31
0.0
  0
TEXT
  5
4FCC
  8
0-6
  6
CONTINUOUS
 62
     7
 10
15163.528571000001
 20
20590.985459999989
 30
0.0
 40
160.0
  1
鼻隠しコーナー後
 72
     4
 11
15910.19523766667
 21
20670.985459999989
 31
0.0
  0
TEXT
  5
4FCD
  8
2-0
  6
CONTINUOUS
 62
     7
 10
21480.974978999999
 20
11251.104441999991
 30
0.0
 40
160.0
  1
平　面　図
 72
     4
 11
21934.308312333331
 21
11325.77110866666
 31
0.0
  0
TEXT
  5
4FCE
  8
2-0
  6
CONTINUOUS
 62
     7
 10
11554.012945999981
 20
11156.81700299998
 30
0.0
 40
160.0
  1
小 屋 伏 図
 72
     4
 11
12055.34627933332
 21
11236.81700299998
 31
0.0
  0
TEXT
  5
4FCF
  8
2-0
  6
CONTINUOUS
 62
     7
 10
21373.172375999999
 20
3292.802588999999
 30
0.0
 40
160.0
  1
正 面 立 面 図
 72
     4
 11
22018.505709333331
 21
3372.802588999999
 31
0.0
  0
TEXT
  5
4FD0
  8
2-0
  6
CONTINUOUS
 62
     7
 10
14941.398872999989
 20
18784.125781999981
 30
0.0
 40
160.0
  1
桁中B +  桁中補強B
 50
0.000079
 72
     4
 11
15874.73209602763
 21
18864.127068889338
 31
0.0
  0
TEXT
  5
4FD1
  8
2-0
  6
CONTINUOUS
 62
     7
 10
14941.398872999989
 20
17340.628249999991
 30
0.0
 40
160.0
  1
桁中A +  桁中補強A
 50
0.000079
 72
     4
 11
15874.73209602763
 21
17420.629536889352
 31
0.0
  0
TEXT
  5
4FD2
  8
2-0
  6
CONTINUOUS
 62
     7
 10
14941.39887299998
 20
14821.098899999981
 30
0.0
 40
160.0
  1
桁中B +  桁中補強B
 50
0.000118
 72
     4
 11
15874.732041572261
 21
14901.10082218909
 31
0.0
  0
CIRCLE
  5
4FDA
  8
0-4
  6
CONTINUOUS
 62
     4
 10
22716.26686499998
 20
6627.2449749999987
 30
0.0
 40
18.487504999999981
  0
TEXT
  5
4FDB
  8
2-0
  6
CONTINUOUS
 62
     7
 10
23369.997894470969
 20
3319.9979579999999
 30
0.0
 40
160.0
  1
1
 72
     4
 11
23396.66456113763
 21
3399.9979579999999
 31
0.0
  0
TEXT
  5
4FDC
  8
2-0
  6
CONTINUOUS
 62
     7
 10
23613.08661172165
 20
3239.9994259999989
 30
0.0
 40
160.0
  1
80
 72
     4
 11
23733.08661172165
 21
3319.9994259999989
 31
0.0
  0
TEXT
  5
4FDD
  8
2-0
  6
CONTINUOUS
 62
     7
 10
22870.999860470962
 20
3292.802588999999
 30
0.0
 40
160.0
  1
(S=  /   )
 72
     4
 11
23430.999860470962
 21
3372.802588999999
 31
0.0
  0
TEXT
  5
4FDE
  8
2-0
  6
CONTINUOUS
 62
     7
 10
23285.800497470969
 20
11272.96647766667
 30
0.0
 40
160.0
  1
1
 72
     4
 11
23312.467164137641
 21
11352.96647766667
 31
0.0
  0
TEXT
  5
4FDF
  8
2-0
  6
CONTINUOUS
 62
     7
 10
23528.88921472165
 20
11192.967945666671
 30
0.0
 40
160.0
  1
80
 72
     4
 11
23648.88921472165
 21
11272.967945666671
 31
0.0
  0
TEXT
  5
4FE0
  8
2-0
  6
CONTINUOUS
 62
     7
 10
22786.802463470962
 20
11245.77110866666
 30
0.0
 40
160.0
  1
(S=  /   )
 72
     4
 11
23346.802463470962
 21
11325.77110866666
 31
0.0
  0
TEXT
  5
4FE1
  8
2-0
  6
CONTINUOUS
 62
     7
 10
13406.83846447094
 20
11184.012371999979
 30
0.0
 40
160.0
  1
1
 72
     4
 11
13433.50513113761
 21
11264.012371999979
 31
0.0
  0
TEXT
  5
4FE2
  8
2-0
  6
CONTINUOUS
 62
     7
 10
13649.927181721639
 20
11104.01383999998
 30
0.0
 40
160.0
  1
80
 72
     4
 11
13769.927181721639
 21
11184.01383999998
 31
0.0
  0
TEXT
  5
4FE3
  8
2-0
  6
CONTINUOUS
 62
     7
 10
12907.84043047094
 20
11156.81700299998
 30
0.0
 40
160.0
  1
(S=  /   )
 72
     4
 11
13467.84043047094
 21
11236.81700299998
 31
0.0
  0
TEXT
  5
4FE4
  8
0-6
  6
CONTINUOUS
 62
     7
 10
11171.413525144821
 20
20200.986647000002
 30
0.0
 40
160.0
  1
桁後+桁後補強
 72
     4
 11
11806.08019181149
 21
20280.986647000002
 31
0.0
  0
LINE
  5
4FE5
  8
0-6
  6
CONTINUOUS
 62
     6
 10
12615.128933
 20
19714.488283999988
 30
0.0
 11
12481.73498511875
 21
20120.988363
 31
0.0
  0
LINE
  5
4FE6
  8
0-6
  6
CONTINUOUS
 62
     6
 10
11131.99263154954
 20
20120.988363
 30
0.0
 11
12481.73498511875
 21
20120.988363
 31
0.0
  0
LINE
  5
4FE7
  8
0-6
  6
CONTINUOUS
 62
     6
 10
12591.52147763271
 20
19874.969722424921
 30
0.0
 11
12540.74783385975
 21
19858.63620624016
 31
0.0
  0
LINE
  5
4FE8
  8
0-6
  6
CONTINUOUS
 62
     6
 10
12591.52147763271
 20
19874.969722424921
 30
0.0
 11
12615.128933
 21
19714.488283999988
 31
0.0
  0
LINE
  5
4FE9
  8
0-6
  6
CONTINUOUS
 62
     6
 10
12540.74783385975
 20
19858.63620624016
 30
0.0
 11
12591.52147763271
 21
19874.969722424921
 31
0.0
  0
LINE
  5
4FEA
  8
0-6
  6
CONTINUOUS
 62
     6
 10
12615.128933
 20
19714.488283999988
 30
0.0
 11
12540.74783385975
 21
19858.63620624016
 31
0.0
  0
LINE
  5
4FEB
  8
0-6
  6
CONTINUOUS
 62
     6
 10
12615.128933
 20
19714.488283999988
 30
0.0
 11
12591.52147763271
 21
19874.969722424921
 31
0.0
  0
LINE
  5
4FEC
  8
0-6
  6
CONTINUOUS
 62
     6
 10
12540.74783385975
 20
19858.63620624016
 30
0.0
 11
12615.128933
 21
19714.488283999988
 31
0.0
  0
LINE
  5
4FED
  8
2-0
  6
CONTINUOUS
 62
     6
 10
22667.35794899999
 20
12841.98512999999
 30
0.0
 11
23667.35135099995
 21
12841.98512999999
 31
0.0
  0
LINE
  5
4FEE
  8
2-0
  6
CONTINUOUS
 62
     6
 10
24135.291727999989
 20
13312.405844000001
 30
0.0
 11
23667.35135099995
 21
12841.98512999999
 31
0.0
  0
LINE
  5
4FEF
  8
2-0
  6
CONTINUOUS
 62
     6
 10
22684.06904499996
 20
17871.605194999989
 30
0.0
 11
23702.044392999971
 21
17871.605194999989
 31
0.0
  0
LINE
  5
4FF0
  8
2-0
  6
CONTINUOUS
 62
     6
 10
24158.46991099996
 20
18096.320144000001
 30
0.0
 11
23702.044392999971
 21
17871.605194999989
 31
0.0
  0
LINE
  5
4FF1
  8
2-0
  6
CONTINUOUS
 62
     6
 10
24096.651524999961
 20
16854.513491000002
 30
0.0
 11
23791.95610699998
 21
16958.16702200002
 31
0.0
  0
LINE
  5
4FF2
  8
2-0
  6
CONTINUOUS
 62
     6
 10
24251.673563999961
 20
16364.89144700002
 30
0.0
 11
23791.95610699998
 21
16120.978136000011
 31
0.0
  0
LINE
  5
4FF3
  8
2-0
  6
CONTINUOUS
 62
     6
 10
22871.95307199996
 20
16120.978136000011
 30
0.0
 11
23791.95610699998
 21
16120.978136000011
 31
0.0
  0
LINE
  5
4FF4
  8
2-0
  6
CONTINUOUS
 62
     6
 10
22591.962044999971
 20
16958.16702200002
 30
0.0
 11
23791.95610699998
 21
16958.16702200002
 31
0.0
  0
LINE
  5
4FF5
  8
2-0
  6
CONTINUOUS
 62
     6
 10
24167.85084899998
 20
13634.08948999998
 30
0.0
 11
23791.95610699998
 21
13815.033325
 31
0.0
  0
LINE
  5
4FF6
  8
2-0
  6
CONTINUOUS
 62
     6
 10
22684.06904499996
 20
14953.84273700001
 30
0.0
 11
23702.044392999971
 21
14953.84273700001
 31
0.0
  0
LINE
  5
4FF7
  8
2-0
  6
CONTINUOUS
 62
     6
 10
23271.954390999981
 20
13815.033325
 30
0.0
 11
23791.95610699998
 21
13815.033325
 31
0.0
  0
LINE
  5
4FF8
  8
2-0
  6
CONTINUOUS
 62
     6
 10
24158.46991099996
 20
15178.55570700001
 30
0.0
 11
23702.044392999971
 21
14953.84273700001
 31
0.0
  0
LINE
  5
4FF9
  8
2-0
  6
CONTINUOUS
 62
     4
 10
21082.016865000001
 20
19790.986780000021
 30
0.0
 11
21082.016865000001
 21
20520.983745000001
 31
0.0
  0
LINE
  5
4FFA
  8
2-0
  6
CONTINUOUS
 62
     3
 10
24363.017524999981
 20
19601.984326000009
 30
0.0
 11
24363.017524999981
 21
19595.988364000012
 31
0.0
  0
LINE
  5
4FFB
  8
2-0
  6
CONTINUOUS
 62
     3
 10
24363.017524999981
 20
19595.988364000012
 30
0.0
 11
24393.01514899997
 21
19595.988364000012
 31
0.0
  0
LINE
  5
4FFC
  8
2-0
  6
CONTINUOUS
 62
     3
 10
24393.01514899997
 20
19625.987968000001
 30
0.0
 11
24312.01324899996
 21
19625.987968000001
 31
0.0
  0
LINE
  5
4FFD
  8
2-0
  6
CONTINUOUS
 62
     3
 10
24363.017524999981
 20
19585.690908
 30
0.0
 11
24393.01514899997
 21
19585.690908
 31
0.0
  0
LINE
  5
4FFE
  8
2-0
  6
CONTINUOUS
 62
     3
 10
24363.017524999981
 20
19603.692650000001
 30
0.0
 11
24363.017524999981
 21
19585.690908
 31
0.0
  0
LINE
  5
4FFF
  8
2-0
  6
CONTINUOUS
 62
     3
 10
24388.014884999979
 20
19603.692650000001
 30
0.0
 11
24363.017524999981
 21
19603.692650000001
 31
0.0
  0
LINE
  5
5000
  8
2-0
  6
CONTINUOUS
 62
     3
 10
24388.014884999979
 20
19598.68446800001
 30
0.0
 11
24388.014884999979
 21
19603.692650000001
 31
0.0
  0
LINE
  5
5001
  8
2-0
  6
CONTINUOUS
 62
     3
 10
24381.01332799999
 20
19598.68446800001
 30
0.0
 11
24388.014884999979
 21
19598.68446800001
 31
0.0
  0
LINE
  5
5002
  8
2-0
  6
CONTINUOUS
 62
     3
 10
24280.717059999981
 20
19698.984695000021
 30
0.0
 11
24280.717059999981
 21
19705.990211000011
 31
0.0
  0
LINE
  5
5003
  8
2-0
  6
CONTINUOUS
 62
     3
 10
24280.717059999981
 20
19705.990211000011
 30
0.0
 11
24285.717323999961
 21
19705.990211000011
 31
0.0
  0
LINE
  5
5004
  8
2-0
  6
CONTINUOUS
 62
     3
 10
24285.717323999961
 20
19705.990211000011
 30
0.0
 11
24285.717323999961
 21
19680.980973999998
 31
0.0
  0
LINE
  5
5005
  8
2-0
  6
CONTINUOUS
 62
     3
 10
24285.717323999961
 20
19680.980973999998
 30
0.0
 11
24267.715581999961
 21
19680.980973999998
 31
0.0
  0
LINE
  5
5006
  8
2-0
  6
CONTINUOUS
 62
     3
 10
24267.715581999961
 20
19680.980973999998
 30
0.0
 11
24267.715581999961
 21
19710.984537000011
 31
0.0
  0
LINE
  5
5007
  8
2-0
  6
CONTINUOUS
 62
     3
 10
24278.013037999968
 20
19710.984537000011
 30
0.0
 11
24393.01514899997
 21
19710.984537000011
 31
0.0
  0
LINE
  5
5008
  8
2-0
  6
CONTINUOUS
 62
     3
 10
24278.013037999968
 20
19680.980973999998
 30
0.0
 11
24278.013037999968
 21
19710.984537000011
 31
0.0
  0
LINE
  5
5009
  8
2-0
  6
CONTINUOUS
 62
     3
 10
24284.014937999971
 20
19680.980973999998
 30
0.0
 11
24278.013037999968
 21
19680.980973999998
 31
0.0
  0
LINE
  5
500A
  8
2-0
  6
CONTINUOUS
 62
     3
 10
24381.01332799999
 20
18894.887645499992
 30
0.0
 11
24388.014884999979
 21
18894.887645499992
 31
0.0
  0
LINE
  5
500B
  8
2-0
  6
CONTINUOUS
 62
     3
 10
24388.014884999979
 20
18894.887645499992
 30
0.0
 11
24388.014884999979
 21
18899.887909500001
 31
0.0
  0
LINE
  5
500C
  8
2-0
  6
CONTINUOUS
 62
     3
 10
24388.014884999979
 20
18899.887909500001
 30
0.0
 11
24363.017524999981
 21
18899.887909500001
 31
0.0
  0
LINE
  5
500D
  8
2-0
  6
CONTINUOUS
 62
     3
 10
24363.017524999981
 20
18899.887909500001
 30
0.0
 11
24363.017524999981
 21
18881.892105499999
 31
0.0
  0
LINE
  5
500E
  8
2-0
  6
CONTINUOUS
 62
     3
 10
24363.017524999981
 20
18881.892105499999
 30
0.0
 11
24393.01514899997
 21
18881.892105499999
 31
0.0
  0
LINE
  5
500F
  8
2-0
  6
CONTINUOUS
 62
     3
 10
24363.017524999981
 20
18897.98361249996
 30
0.0
 11
24363.017524999981
 21
18891.985671499999
 31
0.0
  0
LINE
  5
5010
  8
2-0
  6
CONTINUOUS
 62
     3
 10
24363.017524999981
 20
18891.985671499999
 30
0.0
 11
24393.01514899997
 21
18891.985671499999
 31
0.0
  0
LINE
  5
5011
  8
2-0
  6
CONTINUOUS
 62
     3
 10
24393.01514899997
 20
18891.985671499999
 30
0.0
 11
24393.01514899997
 21
18928.986832499992
 31
0.0
  0
LINE
  5
5012
  8
2-0
  6
CONTINUOUS
 62
     3
 10
24363.017524999981
 20
18928.986832499992
 30
0.0
 11
24393.01514899997
 21
18928.986832499992
 31
0.0
  0
LINE
  5
5013
  8
2-0
  6
CONTINUOUS
 62
     3
 10
24363.017524999981
 20
18922.982952499991
 30
0.0
 11
24363.017524999981
 21
18928.986832499992
 31
0.0
  0
LINE
  5
5014
  8
2-0
  6
CONTINUOUS
 62
     3
 10
24363.017524999981
 20
18939.082377499992
 30
0.0
 11
24393.01514899997
 21
18939.082377499992
 31
0.0
  0
LINE
  5
5015
  8
2-0
  6
CONTINUOUS
 62
     3
 10
24363.017524999981
 20
18921.080635499999
 30
0.0
 11
24363.017524999981
 21
18939.082377499992
 31
0.0
  0
LINE
  5
5016
  8
2-0
  6
CONTINUOUS
 62
     3
 10
24388.014884999979
 20
18921.080635499999
 30
0.0
 11
24363.017524999981
 21
18921.080635499999
 31
0.0
  0
LINE
  5
5017
  8
2-0
  6
CONTINUOUS
 62
     3
 10
24388.014884999979
 20
18926.080899500001
 30
0.0
 11
24388.014884999979
 21
18921.080635499999
 31
0.0
  0
LINE
  5
5018
  8
2-0
  6
CONTINUOUS
 62
     3
 10
24381.01332799999
 20
18926.080899500001
 30
0.0
 11
24388.014884999979
 21
18926.080899500001
 31
0.0
  0
LINE
  5
5019
  8
2-0
  6
CONTINUOUS
 62
     3
 10
24381.01332799999
 20
18193.886655999999
 30
0.0
 11
24388.014884999979
 21
18193.886655999999
 31
0.0
  0
LINE
  5
501A
  8
2-0
  6
CONTINUOUS
 62
     3
 10
24388.014884999979
 20
18193.886655999999
 30
0.0
 11
24388.014884999979
 21
18198.892857999999
 31
0.0
  0
LINE
  5
501B
  8
2-0
  6
CONTINUOUS
 62
     3
 10
24388.014884999979
 20
18198.892857999999
 30
0.0
 11
24363.017524999981
 21
18198.892857999999
 31
0.0
  0
LINE
  5
501C
  8
2-0
  6
CONTINUOUS
 62
     3
 10
24363.017524999981
 20
18198.892857999999
 30
0.0
 11
24363.017524999981
 21
18180.89111600001
 31
0.0
  0
LINE
  5
501D
  8
2-0
  6
CONTINUOUS
 62
     3
 10
24363.017524999981
 20
18180.89111600001
 30
0.0
 11
24393.01514899997
 21
18180.89111600001
 31
0.0
  0
LINE
  5
501E
  8
2-0
  6
CONTINUOUS
 62
     3
 10
24363.017524999981
 20
18196.982622999989
 30
0.0
 11
24363.017524999981
 21
18190.986660999999
 31
0.0
  0
LINE
  5
501F
  8
2-0
  6
CONTINUOUS
 62
     3
 10
24363.017524999981
 20
18190.986660999999
 30
0.0
 11
24393.01514899997
 21
18190.986660999999
 31
0.0
  0
LINE
  5
5020
  8
2-0
  6
CONTINUOUS
 62
     3
 10
24393.01514899997
 20
18190.986660999999
 30
0.0
 11
24393.01514899997
 21
18227.985842999991
 31
0.0
  0
LINE
  5
5021
  8
2-0
  6
CONTINUOUS
 62
     3
 10
24363.017524999981
 20
18227.985842999991
 30
0.0
 11
24393.01514899997
 21
18227.985842999991
 31
0.0
  0
LINE
  5
5022
  8
2-0
  6
CONTINUOUS
 62
     3
 10
24363.017524999981
 20
18221.989881000001
 30
0.0
 11
24363.017524999981
 21
18227.985842999991
 31
0.0
  0
LINE
  5
5023
  8
2-0
  6
CONTINUOUS
 62
     3
 10
24363.017524999981
 20
18238.08138800001
 30
0.0
 11
24393.01514899997
 21
18238.08138800001
 31
0.0
  0
LINE
  5
5024
  8
2-0
  6
CONTINUOUS
 62
     3
 10
24363.017524999981
 20
18220.079645999998
 30
0.0
 11
24363.017524999981
 21
18238.08138800001
 31
0.0
  0
LINE
  5
5025
  8
2-0
  6
CONTINUOUS
 62
     3
 10
24388.014884999979
 20
18220.079645999998
 30
0.0
 11
24363.017524999981
 21
18220.079645999998
 31
0.0
  0
LINE
  5
5026
  8
2-0
  6
CONTINUOUS
 62
     3
 10
24388.014884999979
 20
18225.085847999992
 30
0.0
 11
24388.014884999979
 21
18220.079645999998
 31
0.0
  0
LINE
  5
5027
  8
2-0
  6
CONTINUOUS
 62
     3
 10
24381.01332799999
 20
18225.085847999992
 30
0.0
 11
24388.014884999979
 21
18225.085847999992
 31
0.0
  0
LINE
  5
5028
  8
2-0
  6
CONTINUOUS
 62
     3
 10
24381.01332799999
 20
17524.07991
 30
0.0
 11
24388.014884999979
 21
17524.07991
 31
0.0
  0
LINE
  5
5029
  8
2-0
  6
CONTINUOUS
 62
     3
 10
24388.014884999979
 20
17524.07991
 30
0.0
 11
24388.014884999979
 21
17519.091522999999
 31
0.0
  0
LINE
  5
502A
  8
2-0
  6
CONTINUOUS
 62
     3
 10
24388.014884999979
 20
17519.091522999999
 30
0.0
 11
24363.017524999981
 21
17519.091522999999
 31
0.0
  0
LINE
  5
502B
  8
2-0
  6
CONTINUOUS
 62
     3
 10
24363.017524999981
 20
17519.091522999999
 30
0.0
 11
24363.017524999981
 21
17537.087326000001
 31
0.0
  0
LINE
  5
502C
  8
2-0
  6
CONTINUOUS
 62
     3
 10
24363.017524999981
 20
17537.087326000001
 30
0.0
 11
24393.01514899997
 21
17537.087326000001
 31
0.0
  0
LINE
  5
502D
  8
2-0
  6
CONTINUOUS
 62
     3
 10
24363.017524999981
 20
17520.989881000001
 30
0.0
 11
24363.017524999981
 21
17526.985842999999
 31
0.0
  0
LINE
  5
502E
  8
2-0
  6
CONTINUOUS
 62
     3
 10
24363.017524999981
 20
17526.985842999999
 30
0.0
 11
24393.01514899997
 21
17526.985842999999
 31
0.0
  0
LINE
  5
502F
  8
2-0
  6
CONTINUOUS
 62
     3
 10
24393.01514899997
 20
17526.985842999999
 30
0.0
 11
24393.01514899997
 21
17489.98666100001
 31
0.0
  0
LINE
  5
5030
  8
2-0
  6
CONTINUOUS
 62
     3
 10
24363.017524999981
 20
17489.98666100001
 30
0.0
 11
24393.01514899997
 21
17489.98666100001
 31
0.0
  0
LINE
  5
5031
  8
2-0
  6
CONTINUOUS
 62
     3
 10
24363.017524999981
 20
17495.988561999991
 30
0.0
 11
24363.017524999981
 21
17489.98666100001
 31
0.0
  0
LINE
  5
5032
  8
2-0
  6
CONTINUOUS
 62
     3
 10
24363.017524999981
 20
17479.897055000001
 30
0.0
 11
24393.01514899997
 21
17479.897055000001
 31
0.0
  0
LINE
  5
5033
  8
2-0
  6
CONTINUOUS
 62
     3
 10
24363.017524999981
 20
17497.892857999988
 30
0.0
 11
24363.017524999981
 21
17479.897055000001
 31
0.0
  0
LINE
  5
5034
  8
2-0
  6
CONTINUOUS
 62
     3
 10
24388.014884999979
 20
17497.892857999988
 30
0.0
 11
24363.017524999981
 21
17497.892857999988
 31
0.0
  0
LINE
  5
5035
  8
2-0
  6
CONTINUOUS
 62
     3
 10
24388.014884999979
 20
17492.892595000001
 30
0.0
 11
24388.014884999979
 21
17497.892857999988
 31
0.0
  0
LINE
  5
5036
  8
2-0
  6
CONTINUOUS
 62
     3
 10
24381.01332799999
 20
17492.892595000001
 30
0.0
 11
24388.014884999979
 21
17492.892595000001
 31
0.0
  0
LINE
  5
5037
  8
2-0
  6
CONTINUOUS
 62
     3
 10
24390.12901099999
 20
16772.983480999999
 30
0.0
 11
24390.12901099999
 21
16792.984536
 31
0.0
  0
LINE
  5
5038
  8
2-0
  6
CONTINUOUS
 62
     3
 10
24390.12901099999
 20
16792.984536
 30
0.0
 11
24305.132441999969
 21
16792.984536
 31
0.0
  0
LINE
  5
5039
  8
2-0
  6
CONTINUOUS
 62
     3
 10
24381.01332799999
 20
16819.591246
 30
0.0
 11
24388.014884999979
 21
16819.591246
 31
0.0
  0
LINE
  5
503A
  8
2-0
  6
CONTINUOUS
 62
     3
 10
24388.014884999979
 20
16819.591246
 30
0.0
 11
24388.014884999979
 21
16814.596920000011
 31
0.0
  0
LINE
  5
503B
  8
2-0
  6
CONTINUOUS
 62
     3
 10
24388.014884999979
 20
16814.596920000011
 30
0.0
 11
24363.017524999981
 21
16814.596920000011
 31
0.0
  0
LINE
  5
503C
  8
2-0
  6
CONTINUOUS
 62
     3
 10
24363.017524999981
 20
16814.596920000011
 30
0.0
 11
24363.017524999981
 21
16832.592723999991
 31
0.0
  0
LINE
  5
503D
  8
2-0
  6
CONTINUOUS
 62
     3
 10
24363.017524999981
 20
16832.592723999991
 30
0.0
 11
24393.01514899997
 21
16832.592723999991
 31
0.0
  0
LINE
  5
503E
  8
2-0
  6
CONTINUOUS
 62
     3
 10
24363.017524999981
 20
16822.98413999999
 30
0.0
 11
24363.017524999981
 21
16816.982240000001
 31
0.0
  0
LINE
  5
503F
  8
2-0
  6
CONTINUOUS
 62
     3
 10
24393.01514899997
 20
16822.98413999999
 30
0.0
 11
24363.017524999981
 21
16822.98413999999
 31
0.0
  0
LINE
  5
5040
  8
2-0
  6
CONTINUOUS
 62
     3
 10
24393.01514899997
 20
16832.592723999991
 30
0.0
 11
24393.01514899997
 21
17479.897055000001
 31
0.0
  0
LINE
  5
5041
  8
2-0
  6
CONTINUOUS
 62
     3
 10
24393.01514899997
 20
17537.087326000001
 30
0.0
 11
24393.01514899997
 21
18180.89111600001
 31
0.0
  0
LINE
  5
5042
  8
2-0
  6
CONTINUOUS
 62
     3
 10
24393.01514899997
 20
16677.982424999991
 30
0.0
 11
24363.017524999981
 21
16677.982424999991
 31
0.0
  0
LINE
  5
5043
  8
2-0
  6
CONTINUOUS
 62
     3
 10
24363.017524999981
 20
16677.982424999991
 30
0.0
 11
24363.017524999981
 21
16683.984325000001
 31
0.0
  0
LINE
  5
5044
  8
2-0
  6
CONTINUOUS
 62
     3
 10
24305.132441999969
 20
16707.987968000001
 30
0.0
 11
24390.12901099999
 21
16707.987968000001
 31
0.0
  0
LINE
  5
5045
  8
2-0
  6
CONTINUOUS
 62
     3
 10
24390.12901099999
 20
16707.987968000001
 30
0.0
 11
24390.12901099999
 21
16727.983085000011
 31
0.0
  0
LINE
  5
5046
  8
2-0
  6
CONTINUOUS
 62
     3
 10
24363.017524999981
 20
16668.373842000012
 30
0.0
 11
24393.01514899997
 21
16668.373842000012
 31
0.0
  0
LINE
  5
5047
  8
2-0
  6
CONTINUOUS
 62
     3
 10
24363.017524999981
 20
16686.369644999992
 30
0.0
 11
24363.017524999981
 21
16668.373842000012
 31
0.0
  0
LINE
  5
5048
  8
2-0
  6
CONTINUOUS
 62
     3
 10
24388.014884999979
 20
16686.369644999992
 30
0.0
 11
24363.017524999981
 21
16686.369644999992
 31
0.0
  0
LINE
  5
5049
  8
2-0
  6
CONTINUOUS
 62
     3
 10
24388.014884999979
 20
16681.369381000011
 30
0.0
 11
24388.014884999979
 21
16686.369644999992
 31
0.0
  0
LINE
  5
504A
  8
2-0
  6
CONTINUOUS
 62
     3
 10
24381.01332799999
 20
16681.369381000011
 30
0.0
 11
24388.014884999979
 21
16681.369381000011
 31
0.0
  0
LINE
  5
504B
  8
2-0
  6
CONTINUOUS
 62
     3
 10
24381.01332799999
 20
15976.887150499981
 30
0.0
 11
24388.014884999979
 21
15976.887150499981
 31
0.0
  0
LINE
  5
504C
  8
2-0
  6
CONTINUOUS
 62
     3
 10
24388.014884999979
 20
15976.887150499981
 30
0.0
 11
24388.014884999979
 21
15981.88741449999
 31
0.0
  0
LINE
  5
504D
  8
2-0
  6
CONTINUOUS
 62
     3
 10
24388.014884999979
 20
15981.88741449999
 30
0.0
 11
24363.017524999981
 21
15981.88741449999
 31
0.0
  0
LINE
  5
504E
  8
2-0
  6
CONTINUOUS
 62
     3
 10
24363.017524999981
 20
15981.88741449999
 30
0.0
 11
24363.017524999981
 21
15963.885672500001
 31
0.0
  0
LINE
  5
504F
  8
2-0
  6
CONTINUOUS
 62
     3
 10
24363.017524999981
 20
15963.885672500001
 30
0.0
 11
24393.01514899997
 21
15963.885672500001
 31
0.0
  0
LINE
  5
5050
  8
2-0
  6
CONTINUOUS
 62
     3
 10
24363.017524999981
 20
15979.9831175
 30
0.0
 11
24363.017524999981
 21
15973.986166500001
 31
0.0
  0
LINE
  5
5051
  8
2-0
  6
CONTINUOUS
 62
     3
 10
24363.017524999981
 20
15973.986166500001
 30
0.0
 11
24393.01514899997
 21
15973.986166500001
 31
0.0
  0
LINE
  5
5052
  8
2-0
  6
CONTINUOUS
 62
     3
 10
24393.01514899997
 20
15973.986166500001
 30
0.0
 11
24393.01514899997
 21
16010.9863375
 31
0.0
  0
LINE
  5
5053
  8
2-0
  6
CONTINUOUS
 62
     3
 10
24363.017524999981
 20
16010.9863375
 30
0.0
 11
24393.01514899997
 21
16010.9863375
 31
0.0
  0
LINE
  5
5054
  8
2-0
  6
CONTINUOUS
 62
     3
 10
24363.017524999981
 20
16004.983447500001
 30
0.0
 11
24363.017524999981
 21
16010.9863375
 31
0.0
  0
LINE
  5
5055
  8
2-0
  6
CONTINUOUS
 62
     3
 10
24363.017524999981
 20
16021.081882500001
 30
0.0
 11
24393.01514899997
 21
16021.081882500001
 31
0.0
  0
LINE
  5
5056
  8
2-0
  6
CONTINUOUS
 62
     3
 10
24363.017524999981
 20
16003.074201499991
 30
0.0
 11
24363.017524999981
 21
16021.081882500001
 31
0.0
  0
LINE
  5
5057
  8
2-0
  6
CONTINUOUS
 62
     3
 10
24388.014884999979
 20
16003.074201499991
 30
0.0
 11
24363.017524999981
 21
16003.074201499991
 31
0.0
  0
LINE
  5
5058
  8
2-0
  6
CONTINUOUS
 62
     3
 10
24388.014884999979
 20
16008.0804045
 30
0.0
 11
24388.014884999979
 21
16003.074201499991
 31
0.0
  0
LINE
  5
5059
  8
2-0
  6
CONTINUOUS
 62
     3
 10
24381.01332799999
 20
16008.0804045
 30
0.0
 11
24388.014884999979
 21
16008.0804045
 31
0.0
  0
LINE
  5
505A
  8
2-0
  6
CONTINUOUS
 62
     3
 10
24381.01332799999
 20
15307.320421
 30
0.0
 11
24388.014884999979
 21
15307.320421
 31
0.0
  0
LINE
  5
505B
  8
2-0
  6
CONTINUOUS
 62
     3
 10
24388.014884999979
 20
15307.320421
 30
0.0
 11
24388.014884999979
 21
15302.326096000001
 31
0.0
  0
LINE
  5
505C
  8
2-0
  6
CONTINUOUS
 62
     3
 10
24388.014884999979
 20
15302.326096000001
 30
0.0
 11
24363.017524999981
 21
15302.326096000001
 31
0.0
  0
LINE
  5
505D
  8
2-0
  6
CONTINUOUS
 62
     3
 10
24363.017524999981
 20
15302.326096000001
 30
0.0
 11
24363.017524999981
 21
15320.32189900001
 31
0.0
  0
LINE
  5
505E
  8
2-0
  6
CONTINUOUS
 62
     3
 10
24363.017524999981
 20
15320.32189900001
 30
0.0
 11
24393.01514899997
 21
15320.32189900001
 31
0.0
  0
LINE
  5
505F
  8
2-0
  6
CONTINUOUS
 62
     3
 10
24363.017524999981
 20
15304.22445400001
 30
0.0
 11
24363.017524999981
 21
15310.226354
 31
0.0
  0
LINE
  5
5060
  8
2-0
  6
CONTINUOUS
 62
     3
 10
24363.017524999981
 20
15310.226354
 30
0.0
 11
24393.01514899997
 21
15310.226354
 31
0.0
  0
LINE
  5
5061
  8
2-0
  6
CONTINUOUS
 62
     3
 10
24393.01514899997
 20
15273.22717300001
 30
0.0
 11
24393.01514899997
 21
15310.226354
 31
0.0
  0
LINE
  5
5062
  8
2-0
  6
CONTINUOUS
 62
     3
 10
24363.017524999981
 20
15273.22717300001
 30
0.0
 11
24393.01514899997
 21
15273.22717300001
 31
0.0
  0
LINE
  5
5063
  8
2-0
  6
CONTINUOUS
 62
     3
 10
24363.017524999981
 20
15279.224124
 30
0.0
 11
24363.017524999981
 21
15273.22717300001
 31
0.0
  0
LINE
  5
5064
  8
2-0
  6
CONTINUOUS
 62
     3
 10
24363.017524999981
 20
15263.12568899999
 30
0.0
 11
24393.01514899997
 21
15263.12568899999
 31
0.0
  0
LINE
  5
5065
  8
2-0
  6
CONTINUOUS
 62
     3
 10
24363.017524999981
 20
15281.13336999999
 30
0.0
 11
24363.017524999981
 21
15263.12568899999
 31
0.0
  0
LINE
  5
5066
  8
2-0
  6
CONTINUOUS
 62
     3
 10
24388.014884999979
 20
15281.13336999999
 30
0.0
 11
24363.017524999981
 21
15281.13336999999
 31
0.0
  0
LINE
  5
5067
  8
2-0
  6
CONTINUOUS
 62
     3
 10
24388.014884999979
 20
15276.133106000019
 30
0.0
 11
24388.014884999979
 21
15281.13336999999
 31
0.0
  0
LINE
  5
5068
  8
2-0
  6
CONTINUOUS
 62
     3
 10
24381.01332799999
 20
15276.133106000019
 30
0.0
 11
24388.014884999979
 21
15276.133106000019
 31
0.0
  0
LINE
  5
5069
  8
2-0
  6
CONTINUOUS
 62
     3
 10
24393.01514899997
 20
16668.373842000012
 30
0.0
 11
24393.01514899997
 21
16021.081882500001
 31
0.0
  0
LINE
  5
506A
  8
2-0
  6
CONTINUOUS
 62
     3
 10
24393.01514899997
 20
16822.98413999999
 30
0.0
 11
24393.01514899997
 21
16677.982424999991
 31
0.0
  0
LINE
  5
506B
  8
2-0
  6
CONTINUOUS
 62
     3
 10
24305.132441999969
 20
16792.984536
 30
0.0
 11
24305.132441999969
 21
16707.987968000001
 31
0.0
  0
LINE
  5
506C
  8
2-0
  6
CONTINUOUS
 62
     6
 10
22766.923774999981
 20
18561.431801499992
 30
0.0
 11
23791.95610699998
 21
18561.431801499992
 31
0.0
  0
LINE
  5
506D
  8
2-0
  6
CONTINUOUS
 62
     3
 10
24381.01332799999
 20
14574.892099000001
 30
0.0
 11
24388.014884999979
 21
14574.892099000001
 31
0.0
  0
LINE
  5
506E
  8
2-0
  6
CONTINUOUS
 62
     3
 10
24388.014884999979
 20
14574.892099000001
 30
0.0
 11
24388.014884999979
 21
14579.886425000001
 31
0.0
  0
LINE
  5
506F
  8
2-0
  6
CONTINUOUS
 62
     3
 10
24388.014884999979
 20
14579.886425000001
 30
0.0
 11
24363.017524999981
 21
14579.886425000001
 31
0.0
  0
LINE
  5
5070
  8
2-0
  6
CONTINUOUS
 62
     3
 10
24363.017524999981
 20
14579.886425000001
 30
0.0
 11
24363.017524999981
 21
14561.890621
 31
0.0
  0
LINE
  5
5071
  8
2-0
  6
CONTINUOUS
 62
     3
 10
24363.017524999981
 20
14561.890621
 30
0.0
 11
24393.01514899997
 21
14561.890621
 31
0.0
  0
LINE
  5
5072
  8
2-0
  6
CONTINUOUS
 62
     3
 10
24363.017524999981
 20
14577.989056
 30
0.0
 11
24363.017524999981
 21
14571.98616600001
 31
0.0
  0
LINE
  5
5073
  8
2-0
  6
CONTINUOUS
 62
     3
 10
24363.017524999981
 20
14571.98616600001
 30
0.0
 11
24393.01514899997
 21
14571.98616600001
 31
0.0
  0
LINE
  5
5074
  8
2-0
  6
CONTINUOUS
 62
     3
 10
24393.01514899997
 20
14571.98616600001
 30
0.0
 11
24393.01514899997
 21
14608.986337999981
 31
0.0
  0
LINE
  5
5075
  8
2-0
  6
CONTINUOUS
 62
     3
 10
24363.017524999981
 20
14608.986337999981
 30
0.0
 11
24393.01514899997
 21
14608.986337999981
 31
0.0
  0
LINE
  5
5076
  8
2-0
  6
CONTINUOUS
 62
     3
 10
24363.017524999981
 20
14602.98938599999
 30
0.0
 11
24363.017524999981
 21
14608.986337999981
 31
0.0
  0
LINE
  5
5077
  8
2-0
  6
CONTINUOUS
 62
     3
 10
24363.017524999981
 20
14619.086831000001
 30
0.0
 11
24393.01514899997
 21
14619.086831000001
 31
0.0
  0
LINE
  5
5078
  8
2-0
  6
CONTINUOUS
 62
     3
 10
24363.017524999981
 20
14601.08014
 30
0.0
 11
24363.017524999981
 21
14619.086831000001
 31
0.0
  0
LINE
  5
5079
  8
2-0
  6
CONTINUOUS
 62
     3
 10
24388.014884999979
 20
14601.08014
 30
0.0
 11
24363.017524999981
 21
14601.08014
 31
0.0
  0
LINE
  5
507A
  8
2-0
  6
CONTINUOUS
 62
     3
 10
24388.014884999979
 20
14606.085353
 30
0.0
 11
24388.014884999979
 21
14601.08014
 31
0.0
  0
LINE
  5
507B
  8
2-0
  6
CONTINUOUS
 62
     3
 10
24381.01332799999
 20
14606.085353
 30
0.0
 11
24388.014884999979
 21
14606.085353
 31
0.0
  0
LINE
  5
507C
  8
2-0
  6
CONTINUOUS
 62
     3
 10
24363.017524999981
 20
13548.488179
 30
0.0
 11
24363.017524999981
 21
13554.493047999989
 31
0.0
  0
LINE
  5
507D
  8
2-0
  6
CONTINUOUS
 62
     3
 10
24363.017524999981
 20
13554.493047999989
 30
0.0
 11
24393.01514899997
 21
13554.493047999989
 31
0.0
  0
LINE
  5
507E
  8
2-0
  6
CONTINUOUS
 62
     3
 10
24393.01514899997
 20
13554.493047999989
 30
0.0
 11
24393.01514899997
 21
13439.488957
 31
0.0
  0
LINE
  5
507F
  8
2-0
  6
CONTINUOUS
 62
     3
 10
24393.01514899997
 20
13439.488957
 30
0.0
 11
24308.016600999981
 21
13439.488957
 31
0.0
  0
LINE
  5
5080
  8
2-0
  6
CONTINUOUS
 62
     3
 10
24308.016600999981
 20
13439.488957
 30
0.0
 11
24308.016600999981
 21
13524.484536
 31
0.0
  0
LINE
  5
5081
  8
2-0
  6
CONTINUOUS
 62
     3
 10
24308.016600999981
 20
13524.484536
 30
0.0
 11
24340.015518999971
 21
13524.484536
 31
0.0
  0
LINE
  5
5082
  8
2-0
  6
CONTINUOUS
 62
     3
 10
24381.01332799999
 20
13551.522781
 30
0.0
 11
24388.014884999979
 21
13551.522781
 31
0.0
  0
LINE
  5
5083
  8
2-0
  6
CONTINUOUS
 62
     3
 10
24388.014884999979
 20
13551.522781
 30
0.0
 11
24388.014884999979
 21
13546.52548599998
 31
0.0
  0
LINE
  5
5084
  8
2-0
  6
CONTINUOUS
 62
     3
 10
24388.014884999979
 20
13546.52548599998
 30
0.0
 11
24363.017524999981
 21
13546.52548599998
 31
0.0
  0
LINE
  5
5085
  8
2-0
  6
CONTINUOUS
 62
     3
 10
24363.017524999981
 20
13546.52548599998
 30
0.0
 11
24363.017524999981
 21
13564.524259
 31
0.0
  0
LINE
  5
5086
  8
2-0
  6
CONTINUOUS
 62
     3
 10
24363.017524999981
 20
13564.524259
 30
0.0
 11
24393.01514899997
 21
13564.524259
 31
0.0
  0
LINE
  5
5087
  8
2-0
  6
CENTER2
 62
     6
 10
24350.516864999991
 20
13241.99139899999
 30
0.0
 11
24350.516864999991
 21
14748.360157000019
 31
0.0
  0
LINE
  5
5088
  8
2-0
  6
CONTINUOUS
 62
     3
 10
24393.01514899997
 20
18238.08138800001
 30
0.0
 11
24393.01514899997
 21
18881.892105499999
 31
0.0
  0
LINE
  5
5089
  8
2-0
  6
CONTINUOUS
 62
     6
 10
25085.520031999971
 20
20440.987440000012
 30
0.0
 11
26285.514093999958
 21
20440.987440000012
 31
0.0
  0
LINE
  5
508A
  8
2-0
  6
CONTINUOUS
 62
     6
 10
24223.48719899997
 20
18803.586309499991
 30
0.0
 11
23791.95610699998
 21
18561.431801499992
 31
0.0
  0
LINE
  5
508B
  8
2-0
  6
CONTINUOUS
 62
     6
 10
24545.056032999961
 20
19853.664277000022
 30
0.0
 11
25085.520031999971
 21
20440.987440000012
 31
0.0
  0
LINE
  5
508C
  8
2-0
  6
CONTINUOUS
 62
     3
 10
24302.010741999991
 20
18166.984997999989
 30
0.0
 11
24349.016389999961
 21
18166.984997999989
 31
0.0
  0
LINE
  5
508D
  8
2-0
  6
CONTINUOUS
 62
     3
 10
24349.016389999961
 20
18251.985526
 30
0.0
 11
24302.010741999991
 21
18251.985526
 31
0.0
  0
LINE
  5
508E
  8
2-0
  6
CONTINUOUS
 62
     3
 10
24349.016389999961
 20
18166.984997999989
 30
0.0
 11
24349.016389999961
 21
18191.988297
 31
0.0
  0
LINE
  5
508F
  8
2-0
  6
CONTINUOUS
 62
     3
 10
24349.016389999961
 20
18226.984206000001
 30
0.0
 11
24349.016389999961
 21
18251.985526
 31
0.0
  0
LINE
  5
5090
  8
2-0
  6
CONTINUOUS
 62
     3
 10
24302.010741999991
 20
18251.985526
 30
0.0
 11
24302.010741999991
 21
18166.984997999989
 31
0.0
  0
LINE
  5
5091
  8
2-0
  6
CONTINUOUS
 62
     3
 10
24393.01514899997
 20
15963.885672500001
 30
0.0
 11
24393.01514899997
 21
15320.32189900001
 31
0.0
  0
LINE
  5
5092
  8
2-0
  6
CONTINUOUS
 62
     3
 10
24302.010741999991
 20
15248.987967999999
 30
0.0
 11
24349.016389999961
 21
15248.987967999999
 31
0.0
  0
LINE
  5
5093
  8
2-0
  6
CONTINUOUS
 62
     3
 10
24349.016389999961
 20
15333.984535999991
 30
0.0
 11
24302.010741999991
 21
15333.984535999991
 31
0.0
  0
LINE
  5
5094
  8
2-0
  6
CONTINUOUS
 62
     3
 10
24349.016389999961
 20
15248.987967999999
 30
0.0
 11
24349.016389999961
 21
15273.983349
 31
0.0
  0
LINE
  5
5095
  8
2-0
  6
CONTINUOUS
 62
     3
 10
24349.016389999961
 20
15308.98321700001
 30
0.0
 11
24349.016389999961
 21
15333.984535999991
 31
0.0
  0
LINE
  5
5096
  8
2-0
  6
CONTINUOUS
 62
     3
 10
24302.010741999991
 20
15333.984535999991
 30
0.0
 11
24302.010741999991
 21
15248.987967999999
 31
0.0
  0
LINE
  5
5097
  8
2-0
  6
CONTINUOUS
 62
     6
 10
24210.43029399998
 20
18826.84565349999
 30
0.0
 11
24363.017524999981
 21
18881.892105499999
 31
0.0
  0
LINE
  5
5098
  8
2-0
  6
CONTINUOUS
 62
     6
 10
24363.017524999981
 20
18881.892105499999
 30
0.0
 11
24236.536184999972
 21
18780.332905499981
 31
0.0
  0
LINE
  5
5099
  8
2-0
  6
CONTINUOUS
 62
     6
 10
24210.43029399998
 20
18826.84565349999
 30
0.0
 11
24236.536184999972
 21
18780.332905499981
 31
0.0
  0
LINE
  5
509A
  8
2-0
  6
CONTINUOUS
 62
     6
 10
24236.536184999972
 20
18780.332905499981
 30
0.0
 11
24363.017524999981
 21
18881.892105499999
 31
0.0
  0
LINE
  5
509B
  8
2-0
  6
CONTINUOUS
 62
     6
 10
24363.017524999981
 20
18881.892105499999
 30
0.0
 11
24210.43029399998
 21
18826.84565349999
 31
0.0
  0
LINE
  5
509C
  8
2-0
  6
CONTINUOUS
 62
     6
 10
24210.43029399998
 20
18826.84565349999
 30
0.0
 11
24363.017524999981
 21
18881.892105499999
 31
0.0
  0
LINE
  5
509D
  8
2-0
  6
CONTINUOUS
 62
     6
 10
24236.536184999972
 20
18780.332905499981
 30
0.0
 11
24363.017524999981
 21
18881.892105499999
 31
0.0
  0
LINE
  5
509E
  8
2-0
  6
CONTINUOUS
 62
     6
 10
24236.536184999972
 20
18780.332905499981
 30
0.0
 11
24210.43029399998
 21
18826.84565349999
 31
0.0
  0
LINE
  5
509F
  8
2-0
  6
CONTINUOUS
 62
     6
 10
24564.67306199998
 20
19835.603150000021
 30
0.0
 11
24436.711041999992
 21
19735.920532000011
 31
0.0
  0
LINE
  5
50A0
  8
2-0
  6
CONTINUOUS
 62
     6
 10
24436.711041999992
 20
19735.920532000011
 30
0.0
 11
24525.425146999969
 21
19871.717487000009
 31
0.0
  0
LINE
  5
50A1
  8
2-0
  6
CONTINUOUS
 62
     6
 10
24564.67306199998
 20
19835.603150000021
 30
0.0
 11
24525.425146999969
 21
19871.717487000009
 31
0.0
  0
LINE
  5
50A2
  8
2-0
  6
CONTINUOUS
 62
     6
 10
24525.425146999969
 20
19871.717487000009
 30
0.0
 11
24436.711041999992
 21
19735.920532000011
 31
0.0
  0
LINE
  5
50A3
  8
2-0
  6
CONTINUOUS
 62
     6
 10
24436.711041999992
 20
19735.920532000011
 30
0.0
 11
24564.67306199998
 21
19835.603150000021
 31
0.0
  0
LINE
  5
50A4
  8
2-0
  6
CONTINUOUS
 62
     6
 10
24564.67306199998
 20
19835.603150000021
 30
0.0
 11
24436.711041999992
 21
19735.920532000011
 31
0.0
  0
LINE
  5
50A5
  8
2-0
  6
CONTINUOUS
 62
     6
 10
24525.425146999969
 20
19871.717487000009
 30
0.0
 11
24436.711041999992
 21
19735.920532000011
 31
0.0
  0
LINE
  5
50A6
  8
2-0
  6
CONTINUOUS
 62
     6
 10
24525.425146999969
 20
19871.717487000009
 30
0.0
 11
24564.67306199998
 21
19835.603150000021
 31
0.0
  0
LINE
  5
50A7
  8
2-0
  6
CONTINUOUS
 62
     4
 10
21082.016865000001
 20
19790.986780000021
 30
0.0
 11
21082.016865000001
 21
20520.983745000001
 31
0.0
  0
LINE
  5
50A8
  8
2-0
  6
CONTINUOUS
 62
     6
 10
24146.69177499997
 20
15202.48115800001
 30
0.0
 11
24302.010741999991
 21
15249.22847900001
 31
0.0
  0
LINE
  5
50A9
  8
2-0
  6
CONTINUOUS
 62
     6
 10
24302.010741999991
 20
15249.22847900001
 30
0.0
 11
24170.250025999962
 21
15154.63619400001
 31
0.0
  0
LINE
  5
50AA
  8
2-0
  6
CONTINUOUS
 62
     6
 10
24146.69177499997
 20
15202.48115800001
 30
0.0
 11
24170.250025999962
 21
15154.63619400001
 31
0.0
  0
LINE
  5
50AB
  8
2-0
  6
CONTINUOUS
 62
     6
 10
24170.250025999962
 20
15154.63619400001
 30
0.0
 11
24302.010741999991
 21
15249.22847900001
 31
0.0
  0
LINE
  5
50AC
  8
2-0
  6
CONTINUOUS
 62
     6
 10
24302.010741999991
 20
15249.22847900001
 30
0.0
 11
24146.69177499997
 21
15202.48115800001
 31
0.0
  0
LINE
  5
50AD
  8
2-0
  6
CONTINUOUS
 62
     6
 10
24146.69177499997
 20
15202.48115800001
 30
0.0
 11
24302.010741999991
 21
15249.22847900001
 31
0.0
  0
LINE
  5
50AE
  8
2-0
  6
CONTINUOUS
 62
     6
 10
24170.250025999962
 20
15154.63619400001
 30
0.0
 11
24302.010741999991
 21
15249.22847900001
 31
0.0
  0
LINE
  5
50AF
  8
2-0
  6
CONTINUOUS
 62
     6
 10
24170.250025999962
 20
15154.63619400001
 30
0.0
 11
24146.69177499997
 21
15202.48115800001
 31
0.0
  0
LINE
  5
50B0
  8
2-0
  6
CONTINUOUS
 62
     6
 10
24116.377427999989
 20
13331.216218999991
 30
0.0
 11
24248.124286999991
 21
13425.843145999999
 31
0.0
  0
LINE
  5
50B1
  8
2-0
  6
CONTINUOUS
 62
     6
 10
24248.124286999991
 20
13425.843145999999
 30
0.0
 11
24154.194150999982
 21
13293.60437599999
 31
0.0
  0
LINE
  5
50B2
  8
2-0
  6
CONTINUOUS
 62
     6
 10
24116.377427999989
 20
13331.216218999991
 30
0.0
 11
24154.194150999982
 21
13293.60437599999
 31
0.0
  0
LINE
  5
50B3
  8
2-0
  6
CONTINUOUS
 62
     6
 10
24154.194150999982
 20
13293.60437599999
 30
0.0
 11
24248.124286999991
 21
13425.843145999999
 31
0.0
  0
LINE
  5
50B4
  8
2-0
  6
CONTINUOUS
 62
     6
 10
24248.124286999991
 20
13425.843145999999
 30
0.0
 11
24116.377427999989
 21
13331.216218999991
 31
0.0
  0
LINE
  5
50B5
  8
2-0
  6
CONTINUOUS
 62
     6
 10
24116.377427999989
 20
13331.216218999991
 30
0.0
 11
24248.124286999991
 21
13425.843145999999
 31
0.0
  0
LINE
  5
50B6
  8
2-0
  6
CONTINUOUS
 62
     6
 10
24154.194150999982
 20
13293.60437599999
 30
0.0
 11
24248.124286999991
 21
13425.843145999999
 31
0.0
  0
LINE
  5
50B7
  8
2-0
  6
CONTINUOUS
 62
     6
 10
24154.194150999982
 20
13293.60437599999
 30
0.0
 11
24116.377427999989
 21
13331.216218999991
 31
0.0
  0
LINE
  5
50B8
  8
2-0
  6
CONTINUOUS
 62
     6
 10
24179.413216999968
 20
13658.120845999991
 30
0.0
 11
24312.01324899996
 21
13564.692517999991
 31
0.0
  0
LINE
  5
50B9
  8
2-0
  6
CONTINUOUS
 62
     6
 10
24312.01324899996
 20
13564.692517999991
 30
0.0
 11
24156.28056299996
 21
13610.068031999999
 31
0.0
  0
LINE
  5
50BA
  8
2-0
  6
CONTINUOUS
 62
     6
 10
24179.413216999968
 20
13658.120845999991
 30
0.0
 11
24156.28056299996
 21
13610.068031999999
 31
0.0
  0
LINE
  5
50BB
  8
2-0
  6
CONTINUOUS
 62
     6
 10
24156.28056299996
 20
13610.068031999999
 30
0.0
 11
24312.01324899996
 21
13564.692517999991
 31
0.0
  0
LINE
  5
50BC
  8
2-0
  6
CONTINUOUS
 62
     6
 10
24312.01324899996
 20
13564.692517999991
 30
0.0
 11
24179.413216999968
 21
13658.120845999991
 31
0.0
  0
LINE
  5
50BD
  8
2-0
  6
CONTINUOUS
 62
     6
 10
24179.413216999968
 20
13658.120845999991
 30
0.0
 11
24312.01324899996
 21
13564.692517999991
 31
0.0
  0
LINE
  5
50BE
  8
2-0
  6
CONTINUOUS
 62
     6
 10
24156.28056299996
 20
13610.068031999999
 30
0.0
 11
24312.01324899996
 21
13564.692517999991
 31
0.0
  0
LINE
  5
50BF
  8
2-0
  6
CONTINUOUS
 62
     6
 10
24156.28056299996
 20
13610.068031999999
 30
0.0
 11
24179.413216999968
 21
13658.120845999991
 31
0.0
  0
LINE
  5
50C0
  8
2-0
  6
CONTINUOUS
 62
     6
 10
24239.176862999971
 20
16388.441779000019
 30
0.0
 11
24393.01514899997
 21
16439.875610000021
 31
0.0
  0
LINE
  5
50C1
  8
2-0
  6
CONTINUOUS
 62
     6
 10
24393.01514899997
 20
16439.875610000021
 30
0.0
 11
24264.18016199995
 21
16341.33517500002
 31
0.0
  0
LINE
  5
50C2
  8
2-0
  6
CONTINUOUS
 62
     6
 10
24239.176862999971
 20
16388.441779000019
 30
0.0
 11
24264.18016199995
 21
16341.33517500002
 31
0.0
  0
LINE
  5
50C3
  8
2-0
  6
CONTINUOUS
 62
     6
 10
24264.18016199995
 20
16341.33517500002
 30
0.0
 11
24393.01514899997
 21
16439.875610000021
 31
0.0
  0
LINE
  5
50C4
  8
2-0
  6
CONTINUOUS
 62
     6
 10
24393.01514899997
 20
16439.875610000021
 30
0.0
 11
24239.176862999971
 21
16388.441779000019
 31
0.0
  0
LINE
  5
50C5
  8
2-0
  6
CONTINUOUS
 62
     6
 10
24239.176862999971
 20
16388.441779000019
 30
0.0
 11
24393.01514899997
 21
16439.875610000021
 31
0.0
  0
LINE
  5
50C6
  8
2-0
  6
CONTINUOUS
 62
     6
 10
24264.18016199995
 20
16341.33517500002
 30
0.0
 11
24393.01514899997
 21
16439.875610000021
 31
0.0
  0
LINE
  5
50C7
  8
2-0
  6
CONTINUOUS
 62
     6
 10
24264.18016199995
 20
16341.33517500002
 30
0.0
 11
24239.176862999971
 21
16388.441779000019
 31
0.0
  0
LINE
  5
50C8
  8
2-0
  6
CONTINUOUS
 62
     6
 10
24105.240655999969
 20
16879.76027100001
 30
0.0
 11
24248.124286999991
 21
16802.984641999999
 31
0.0
  0
LINE
  5
50C9
  8
2-0
  6
CONTINUOUS
 62
     6
 10
24248.124286999991
 20
16802.984641999999
 30
0.0
 11
24088.062393999971
 21
16829.266711000011
 31
0.0
  0
LINE
  5
50CA
  8
2-0
  6
CONTINUOUS
 62
     6
 10
24105.240655999969
 20
16879.76027100001
 30
0.0
 11
24088.062393999971
 21
16829.266711000011
 31
0.0
  0
LINE
  5
50CB
  8
2-0
  6
CONTINUOUS
 62
     6
 10
24088.062393999971
 20
16829.266711000011
 30
0.0
 11
24248.124286999991
 21
16802.984641999999
 31
0.0
  0
LINE
  5
50CC
  8
2-0
  6
CONTINUOUS
 62
     6
 10
24248.124286999991
 20
16802.984641999999
 30
0.0
 11
24105.240655999969
 21
16879.76027100001
 31
0.0
  0
LINE
  5
50CD
  8
2-0
  6
CONTINUOUS
 62
     6
 10
24105.240655999969
 20
16879.76027100001
 30
0.0
 11
24248.124286999991
 21
16802.984641999999
 31
0.0
  0
LINE
  5
50CE
  8
2-0
  6
CONTINUOUS
 62
     6
 10
24088.062393999971
 20
16829.266711000011
 30
0.0
 11
24248.124286999991
 21
16802.984641999999
 31
0.0
  0
LINE
  5
50CF
  8
2-0
  6
CONTINUOUS
 62
     6
 10
24088.062393999971
 20
16829.266711000011
 30
0.0
 11
24105.240655999969
 21
16879.76027100001
 31
0.0
  0
LINE
  5
50D0
  8
2-0
  6
CONTINUOUS
 62
     6
 10
24146.69177499997
 20
18120.240645999991
 30
0.0
 11
24302.010741999991
 21
18166.984997999989
 31
0.0
  0
LINE
  5
50D1
  8
2-0
  6
CONTINUOUS
 62
     6
 10
24302.010741999991
 20
18166.984997999989
 30
0.0
 11
24170.250025999962
 21
18072.389744
 31
0.0
  0
LINE
  5
50D2
  8
2-0
  6
CONTINUOUS
 62
     6
 10
24146.69177499997
 20
18120.240645999991
 30
0.0
 11
24170.250025999962
 21
18072.389744
 31
0.0
  0
LINE
  5
50D3
  8
2-0
  6
CONTINUOUS
 62
     6
 10
24170.250025999962
 20
18072.389744
 30
0.0
 11
24302.010741999991
 21
18166.984997999989
 31
0.0
  0
LINE
  5
50D4
  8
2-0
  6
CONTINUOUS
 62
     6
 10
24302.010741999991
 20
18166.984997999989
 30
0.0
 11
24146.69177499997
 21
18120.240645999991
 31
0.0
  0
LINE
  5
50D5
  8
2-0
  6
CONTINUOUS
 62
     6
 10
24146.69177499997
 20
18120.240645999991
 30
0.0
 11
24302.010741999991
 21
18166.984997999989
 31
0.0
  0
LINE
  5
50D6
  8
2-0
  6
CONTINUOUS
 62
     6
 10
24170.250025999962
 20
18072.389744
 30
0.0
 11
24302.010741999991
 21
18166.984997999989
 31
0.0
  0
LINE
  5
50D7
  8
2-0
  6
CONTINUOUS
 62
     6
 10
24170.250025999962
 20
18072.389744
 30
0.0
 11
24146.69177499997
 21
18120.240645999991
 31
0.0
  0
LINE
  5
50D8
  8
2-0
  6
CONTINUOUS
 62
     3
 10
21069.518184999972
 20
19601.984326000009
 30
0.0
 11
21069.518184999972
 21
19595.988364000012
 31
0.0
  0
LINE
  5
50D9
  8
2-0
  6
CONTINUOUS
 62
     3
 10
21069.518184999972
 20
19595.988364000012
 30
0.0
 11
21039.520559999972
 21
19595.988364000012
 31
0.0
  0
LINE
  5
50DA
  8
2-0
  6
CONTINUOUS
 62
     3
 10
21039.520559999972
 20
19595.988364000012
 30
0.0
 11
21039.520559999972
 21
19710.984537000011
 31
0.0
  0
LINE
  5
50DB
  8
2-0
  6
CONTINUOUS
 62
     3
 10
21039.520559999972
 20
19625.987968000001
 30
0.0
 11
21120.518500999991
 21
19625.987968000001
 31
0.0
  0
LINE
  5
50DC
  8
2-0
  6
CONTINUOUS
 62
     3
 10
21069.518184999972
 20
19585.690908
 30
0.0
 11
21039.520559999972
 21
19585.690908
 31
0.0
  0
LINE
  5
50DD
  8
2-0
  6
CONTINUOUS
 62
     3
 10
21069.518184999972
 20
19603.692650000001
 30
0.0
 11
21069.518184999972
 21
19585.690908
 31
0.0
  0
LINE
  5
50DE
  8
2-0
  6
CONTINUOUS
 62
     3
 10
21044.524782999972
 20
19603.692650000001
 30
0.0
 11
21069.518184999972
 21
19603.692650000001
 31
0.0
  0
LINE
  5
50DF
  8
2-0
  6
CONTINUOUS
 62
     3
 10
21044.524782999972
 20
19598.68446800001
 30
0.0
 11
21044.524782999972
 21
19603.692650000001
 31
0.0
  0
LINE
  5
50E0
  8
2-0
  6
CONTINUOUS
 62
     3
 10
21051.522380999959
 20
19598.68446800001
 30
0.0
 11
21044.524782999972
 21
19598.68446800001
 31
0.0
  0
LINE
  5
50E1
  8
2-0
  6
CONTINUOUS
 62
     3
 10
21151.816669999971
 20
19698.984695000021
 30
0.0
 11
21151.816669999971
 21
19705.990211000011
 31
0.0
  0
LINE
  5
50E2
  8
2-0
  6
CONTINUOUS
 62
     3
 10
21151.816669999971
 20
19705.990211000011
 30
0.0
 11
21146.814425999979
 21
19705.990211000011
 31
0.0
  0
LINE
  5
50E3
  8
2-0
  6
CONTINUOUS
 62
     3
 10
21146.814425999979
 20
19705.990211000011
 30
0.0
 11
21146.814425999979
 21
19680.980973999998
 31
0.0
  0
LINE
  5
50E4
  8
2-0
  6
CONTINUOUS
 62
     3
 10
21146.814425999979
 20
19680.980973999998
 30
0.0
 11
21164.82210699996
 21
19680.980973999998
 31
0.0
  0
LINE
  5
50E5
  8
2-0
  6
CONTINUOUS
 62
     3
 10
21164.82210699996
 20
19680.980973999998
 30
0.0
 11
21164.82210699996
 21
19710.984537000011
 31
0.0
  0
LINE
  5
50E6
  8
2-0
  6
CONTINUOUS
 62
     3
 10
21154.522670999992
 20
19710.984537000011
 30
0.0
 11
21039.520559999972
 21
19710.984537000011
 31
0.0
  0
LINE
  5
50E7
  8
2-0
  6
CONTINUOUS
 62
     3
 10
21154.522670999992
 20
19680.980973999998
 30
0.0
 11
21154.522670999992
 21
19710.984537000011
 31
0.0
  0
LINE
  5
50E8
  8
2-0
  6
CONTINUOUS
 62
     3
 10
21148.518791999981
 20
19680.980973999998
 30
0.0
 11
21154.522670999992
 21
19680.980973999998
 31
0.0
  0
LINE
  5
50E9
  8
2-0
  6
CONTINUOUS
 62
     3
 10
21069.518184999972
 20
19601.984326000009
 30
0.0
 11
21069.518184999972
 21
19595.988364000012
 31
0.0
  0
LINE
  5
50EA
  8
2-0
  6
CONTINUOUS
 62
     3
 10
21069.518184999972
 20
19595.988364000012
 30
0.0
 11
21039.520559999972
 21
19595.988364000012
 31
0.0
  0
LINE
  5
50EB
  8
2-0
  6
CONTINUOUS
 62
     3
 10
21039.520559999972
 20
19595.988364000012
 30
0.0
 11
21039.520559999972
 21
19710.984537000011
 31
0.0
  0
LINE
  5
50EC
  8
2-0
  6
CONTINUOUS
 62
     3
 10
21039.520559999972
 20
19625.987968000001
 30
0.0
 11
21120.518500999991
 21
19625.987968000001
 31
0.0
  0
LINE
  5
50ED
  8
2-0
  6
CONTINUOUS
 62
     3
 10
21069.518184999972
 20
19585.690908
 30
0.0
 11
21039.520559999972
 21
19585.690908
 31
0.0
  0
LINE
  5
50EE
  8
2-0
  6
CONTINUOUS
 62
     3
 10
21069.518184999972
 20
19603.692650000001
 30
0.0
 11
21069.518184999972
 21
19585.690908
 31
0.0
  0
LINE
  5
50EF
  8
2-0
  6
CONTINUOUS
 62
     3
 10
21044.524782999972
 20
19603.692650000001
 30
0.0
 11
21069.518184999972
 21
19603.692650000001
 31
0.0
  0
LINE
  5
50F0
  8
2-0
  6
CONTINUOUS
 62
     3
 10
21044.524782999972
 20
19598.68446800001
 30
0.0
 11
21044.524782999972
 21
19603.692650000001
 31
0.0
  0
LINE
  5
50F1
  8
2-0
  6
CONTINUOUS
 62
     3
 10
21051.522380999959
 20
19598.68446800001
 30
0.0
 11
21044.524782999972
 21
19598.68446800001
 31
0.0
  0
LINE
  5
50F2
  8
2-0
  6
CONTINUOUS
 62
     3
 10
21051.522380999959
 20
18894.887645499992
 30
0.0
 11
21044.524782999972
 21
18894.887645499992
 31
0.0
  0
LINE
  5
50F3
  8
2-0
  6
CONTINUOUS
 62
     3
 10
21044.524782999972
 20
18894.887645499992
 30
0.0
 11
21044.524782999972
 21
18899.887909500001
 31
0.0
  0
LINE
  5
50F4
  8
2-0
  6
CONTINUOUS
 62
     3
 10
21044.524782999972
 20
18899.887909500001
 30
0.0
 11
21069.518184999972
 21
18899.887909500001
 31
0.0
  0
LINE
  5
50F5
  8
2-0
  6
CONTINUOUS
 62
     3
 10
21069.518184999972
 20
18899.887909500001
 30
0.0
 11
21069.518184999972
 21
18881.892105499981
 31
0.0
  0
LINE
  5
50F6
  8
2-0
  6
CONTINUOUS
 62
     3
 10
21069.518184999972
 20
18881.892105499981
 30
0.0
 11
21039.520559999972
 21
18881.892105499981
 31
0.0
  0
LINE
  5
50F7
  8
2-0
  6
CONTINUOUS
 62
     3
 10
21069.518184999972
 20
18897.98361249996
 30
0.0
 11
21069.518184999972
 21
18891.985671499991
 31
0.0
  0
LINE
  5
50F8
  8
2-0
  6
CONTINUOUS
 62
     3
 10
21069.518184999972
 20
18891.985671499991
 30
0.0
 11
21039.520559999972
 21
18891.985671499991
 31
0.0
  0
LINE
  5
50F9
  8
2-0
  6
CONTINUOUS
 62
     3
 10
21039.520559999972
 20
18891.985671499991
 30
0.0
 11
21039.520559999972
 21
18928.986832499992
 31
0.0
  0
LINE
  5
50FA
  8
2-0
  6
CONTINUOUS
 62
     3
 10
21069.518184999972
 20
18928.986832499992
 30
0.0
 11
21039.520559999972
 21
18928.986832499992
 31
0.0
  0
LINE
  5
50FB
  8
2-0
  6
CONTINUOUS
 62
     3
 10
21069.518184999972
 20
18922.982952499991
 30
0.0
 11
21069.518184999972
 21
18928.986832499992
 31
0.0
  0
LINE
  5
50FC
  8
2-0
  6
CONTINUOUS
 62
     3
 10
21069.518184999972
 20
18939.082377499981
 30
0.0
 11
21039.520559999972
 21
18939.082377499981
 31
0.0
  0
LINE
  5
50FD
  8
2-0
  6
CONTINUOUS
 62
     3
 10
21069.518184999972
 20
18921.080635499999
 30
0.0
 11
21069.518184999972
 21
18939.082377499981
 31
0.0
  0
LINE
  5
50FE
  8
2-0
  6
CONTINUOUS
 62
     3
 10
21044.524782999972
 20
18921.080635499999
 30
0.0
 11
21069.518184999972
 21
18921.080635499999
 31
0.0
  0
LINE
  5
50FF
  8
2-0
  6
CONTINUOUS
 62
     3
 10
21044.524782999972
 20
18926.080899499979
 30
0.0
 11
21044.524782999972
 21
18921.080635499999
 31
0.0
  0
LINE
  5
5100
  8
2-0
  6
CONTINUOUS
 62
     3
 10
21051.522380999959
 20
18926.080899499979
 30
0.0
 11
21044.524782999972
 21
18926.080899499979
 31
0.0
  0
LINE
  5
5101
  8
2-0
  6
CONTINUOUS
 62
     3
 10
21051.522380999959
 20
18193.886655999999
 30
0.0
 11
21044.524782999972
 21
18193.886655999999
 31
0.0
  0
LINE
  5
5102
  8
2-0
  6
CONTINUOUS
 62
     3
 10
21044.524782999972
 20
18193.886655999999
 30
0.0
 11
21044.524782999972
 21
18198.892857999999
 31
0.0
  0
LINE
  5
5103
  8
2-0
  6
CONTINUOUS
 62
     3
 10
21044.524782999972
 20
18198.892857999999
 30
0.0
 11
21069.518184999972
 21
18198.892857999999
 31
0.0
  0
LINE
  5
5104
  8
2-0
  6
CONTINUOUS
 62
     3
 10
21069.518184999972
 20
18198.892857999999
 30
0.0
 11
21069.518184999972
 21
18180.891115999992
 31
0.0
  0
LINE
  5
5105
  8
2-0
  6
CONTINUOUS
 62
     3
 10
21069.518184999972
 20
18180.891115999992
 30
0.0
 11
21039.520559999972
 21
18180.891115999992
 31
0.0
  0
LINE
  5
5106
  8
2-0
  6
CONTINUOUS
 62
     3
 10
21069.518184999972
 20
18196.982622999982
 30
0.0
 11
21069.518184999972
 21
18190.986660999992
 31
0.0
  0
LINE
  5
5107
  8
2-0
  6
CONTINUOUS
 62
     3
 10
21069.518184999972
 20
18190.986660999992
 30
0.0
 11
21039.520559999972
 21
18190.986660999992
 31
0.0
  0
LINE
  5
5108
  8
2-0
  6
CONTINUOUS
 62
     3
 10
21039.520559999972
 20
18190.986660999992
 30
0.0
 11
21039.520559999972
 21
18227.985842999991
 31
0.0
  0
LINE
  5
5109
  8
2-0
  6
CONTINUOUS
 62
     3
 10
21069.518184999972
 20
18227.985842999991
 30
0.0
 11
21039.520559999972
 21
18227.985842999991
 31
0.0
  0
LINE
  5
510A
  8
2-0
  6
CONTINUOUS
 62
     3
 10
21069.518184999972
 20
18221.989881000001
 30
0.0
 11
21069.518184999972
 21
18227.985842999991
 31
0.0
  0
LINE
  5
510B
  8
2-0
  6
CONTINUOUS
 62
     3
 10
21069.518184999972
 20
18238.081387999999
 30
0.0
 11
21039.520559999972
 21
18238.081387999999
 31
0.0
  0
LINE
  5
510C
  8
2-0
  6
CONTINUOUS
 62
     3
 10
21069.518184999972
 20
18220.079645999991
 30
0.0
 11
21069.518184999972
 21
18238.081387999999
 31
0.0
  0
LINE
  5
510D
  8
2-0
  6
CONTINUOUS
 62
     3
 10
21044.524782999972
 20
18220.079645999991
 30
0.0
 11
21069.518184999972
 21
18220.079645999991
 31
0.0
  0
LINE
  5
510E
  8
2-0
  6
CONTINUOUS
 62
     3
 10
21044.524782999972
 20
18225.085847999992
 30
0.0
 11
21044.524782999972
 21
18220.079645999991
 31
0.0
  0
LINE
  5
510F
  8
2-0
  6
CONTINUOUS
 62
     3
 10
21051.522380999959
 20
18225.085847999992
 30
0.0
 11
21044.524782999972
 21
18225.085847999992
 31
0.0
  0
LINE
  5
5110
  8
2-0
  6
CONTINUOUS
 62
     3
 10
21051.522380999959
 20
17524.079909999989
 30
0.0
 11
21044.524782999972
 21
17524.079909999989
 31
0.0
  0
LINE
  5
5111
  8
2-0
  6
CONTINUOUS
 62
     3
 10
21044.524782999972
 20
17524.079909999989
 30
0.0
 11
21044.524782999972
 21
17519.091522999999
 31
0.0
  0
LINE
  5
5112
  8
2-0
  6
CONTINUOUS
 62
     3
 10
21044.524782999972
 20
17519.091522999999
 30
0.0
 11
21069.518184999972
 21
17519.091522999999
 31
0.0
  0
LINE
  5
5113
  8
2-0
  6
CONTINUOUS
 62
     3
 10
21069.518184999972
 20
17519.091522999999
 30
0.0
 11
21069.518184999972
 21
17537.08732599999
 31
0.0
  0
LINE
  5
5114
  8
2-0
  6
CONTINUOUS
 62
     3
 10
21069.518184999972
 20
17537.08732599999
 30
0.0
 11
21039.520559999972
 21
17537.08732599999
 31
0.0
  0
LINE
  5
5115
  8
2-0
  6
CONTINUOUS
 62
     3
 10
21069.518184999972
 20
17520.989881000001
 30
0.0
 11
21069.518184999972
 21
17526.985842999991
 31
0.0
  0
LINE
  5
5116
  8
2-0
  6
CONTINUOUS
 62
     3
 10
21069.518184999972
 20
17526.985842999991
 30
0.0
 11
21039.520559999972
 21
17526.985842999991
 31
0.0
  0
LINE
  5
5117
  8
2-0
  6
CONTINUOUS
 62
     3
 10
21039.520559999972
 20
17526.985842999991
 30
0.0
 11
21039.520559999972
 21
17489.986660999992
 31
0.0
  0
LINE
  5
5118
  8
2-0
  6
CONTINUOUS
 62
     3
 10
21069.518184999972
 20
17489.986660999992
 30
0.0
 11
21039.520559999972
 21
17489.986660999992
 31
0.0
  0
LINE
  5
5119
  8
2-0
  6
CONTINUOUS
 62
     3
 10
21069.518184999972
 20
17495.988561999991
 30
0.0
 11
21069.518184999972
 21
17489.986660999992
 31
0.0
  0
LINE
  5
511A
  8
2-0
  6
CONTINUOUS
 62
     3
 10
21069.518184999972
 20
17479.897055000001
 30
0.0
 11
21039.520559999972
 21
17479.897055000001
 31
0.0
  0
LINE
  5
511B
  8
2-0
  6
CONTINUOUS
 62
     3
 10
21069.518184999972
 20
17497.892857999981
 30
0.0
 11
21069.518184999972
 21
17479.897055000001
 31
0.0
  0
LINE
  5
511C
  8
2-0
  6
CONTINUOUS
 62
     3
 10
21044.524782999972
 20
17497.892857999981
 30
0.0
 11
21069.518184999972
 21
17497.892857999981
 31
0.0
  0
LINE
  5
511D
  8
2-0
  6
CONTINUOUS
 62
     3
 10
21044.524782999972
 20
17492.892595000001
 30
0.0
 11
21044.524782999972
 21
17497.892857999981
 31
0.0
  0
LINE
  5
511E
  8
2-0
  6
CONTINUOUS
 62
     3
 10
21051.522380999959
 20
17492.892595000001
 30
0.0
 11
21044.524782999972
 21
17492.892595000001
 31
0.0
  0
LINE
  5
511F
  8
2-0
  6
CONTINUOUS
 62
     3
 10
21042.406697999981
 20
16772.983480999999
 30
0.0
 11
21042.406697999981
 21
16792.984536
 31
0.0
  0
LINE
  5
5120
  8
2-0
  6
CONTINUOUS
 62
     3
 10
21042.406697999981
 20
16792.984536
 30
0.0
 11
21127.407225999988
 21
16792.984536
 31
0.0
  0
LINE
  5
5121
  8
2-0
  6
CONTINUOUS
 62
     3
 10
21051.522380999959
 20
16819.591246
 30
0.0
 11
21044.524782999972
 21
16819.591246
 31
0.0
  0
LINE
  5
5122
  8
2-0
  6
CONTINUOUS
 62
     3
 10
21044.524782999972
 20
16819.591246
 30
0.0
 11
21044.524782999972
 21
16814.596920000011
 31
0.0
  0
LINE
  5
5123
  8
2-0
  6
CONTINUOUS
 62
     3
 10
21044.524782999972
 20
16814.596920000011
 30
0.0
 11
21069.518184999972
 21
16814.596920000011
 31
0.0
  0
LINE
  5
5124
  8
2-0
  6
CONTINUOUS
 62
     3
 10
21069.518184999972
 20
16814.596920000011
 30
0.0
 11
21069.518184999972
 21
16832.592723999991
 31
0.0
  0
LINE
  5
5125
  8
2-0
  6
CONTINUOUS
 62
     3
 10
21069.518184999972
 20
16832.592723999991
 30
0.0
 11
21039.520559999972
 21
16832.592723999991
 31
0.0
  0
LINE
  5
5126
  8
2-0
  6
CONTINUOUS
 62
     3
 10
21069.518184999972
 20
16822.98413999999
 30
0.0
 11
21069.518184999972
 21
16816.982240000001
 31
0.0
  0
LINE
  5
5127
  8
2-0
  6
CONTINUOUS
 62
     3
 10
21039.520559999972
 20
16822.98413999999
 30
0.0
 11
21069.518184999972
 21
16822.98413999999
 31
0.0
  0
LINE
  5
5128
  8
2-0
  6
CONTINUOUS
 62
     3
 10
21039.520559999972
 20
16832.592723999991
 30
0.0
 11
21039.520559999972
 21
17479.897055000001
 31
0.0
  0
LINE
  5
5129
  8
2-0
  6
CONTINUOUS
 62
     3
 10
21039.520559999972
 20
17537.08732599999
 30
0.0
 11
21039.520559999972
 21
18180.891115999992
 31
0.0
  0
LINE
  5
512A
  8
2-0
  6
CONTINUOUS
 62
     3
 10
21039.520559999972
 20
16677.982424999991
 30
0.0
 11
21069.518184999972
 21
16677.982424999991
 31
0.0
  0
LINE
  5
512B
  8
2-0
  6
CONTINUOUS
 62
     3
 10
21069.518184999972
 20
16677.982424999991
 30
0.0
 11
21069.518184999972
 21
16683.984325000001
 31
0.0
  0
LINE
  5
512C
  8
2-0
  6
CONTINUOUS
 62
     3
 10
21127.407225999988
 20
16707.987968000001
 30
0.0
 11
21042.406697999981
 21
16707.987968000001
 31
0.0
  0
LINE
  5
512D
  8
2-0
  6
CONTINUOUS
 62
     3
 10
21042.406697999981
 20
16707.987968000001
 30
0.0
 11
21042.406697999981
 21
16727.983085000011
 31
0.0
  0
LINE
  5
512E
  8
2-0
  6
CONTINUOUS
 62
     3
 10
21069.518184999972
 20
16668.373842000012
 30
0.0
 11
21039.520559999972
 21
16668.373842000012
 31
0.0
  0
LINE
  5
512F
  8
2-0
  6
CONTINUOUS
 62
     3
 10
21069.518184999972
 20
16686.369644999992
 30
0.0
 11
21069.518184999972
 21
16668.373842000012
 31
0.0
  0
LINE
  5
5130
  8
2-0
  6
CONTINUOUS
 62
     3
 10
21044.524782999972
 20
16686.369644999992
 30
0.0
 11
21069.518184999972
 21
16686.369644999992
 31
0.0
  0
LINE
  5
5131
  8
2-0
  6
CONTINUOUS
 62
     3
 10
21044.524782999972
 20
16681.369381000011
 30
0.0
 11
21044.524782999972
 21
16686.369644999992
 31
0.0
  0
LINE
  5
5132
  8
2-0
  6
CONTINUOUS
 62
     3
 10
21051.522380999959
 20
16681.369381000011
 30
0.0
 11
21044.524782999972
 21
16681.369381000011
 31
0.0
  0
LINE
  5
5133
  8
2-0
  6
CONTINUOUS
 62
     3
 10
21051.522380999959
 20
15976.887150499981
 30
0.0
 11
21044.524782999972
 21
15976.887150499981
 31
0.0
  0
LINE
  5
5134
  8
2-0
  6
CONTINUOUS
 62
     3
 10
21044.524782999972
 20
15976.887150499981
 30
0.0
 11
21044.524782999972
 21
15981.88741449999
 31
0.0
  0
LINE
  5
5135
  8
2-0
  6
CONTINUOUS
 62
     3
 10
21044.524782999972
 20
15981.88741449999
 30
0.0
 11
21069.518184999972
 21
15981.88741449999
 31
0.0
  0
LINE
  5
5136
  8
2-0
  6
CONTINUOUS
 62
     3
 10
21069.518184999972
 20
15981.88741449999
 30
0.0
 11
21069.518184999972
 21
15963.88567249999
 31
0.0
  0
LINE
  5
5137
  8
2-0
  6
CONTINUOUS
 62
     3
 10
21069.518184999972
 20
15963.88567249999
 30
0.0
 11
21039.520559999972
 21
15963.88567249999
 31
0.0
  0
LINE
  5
5138
  8
2-0
  6
CONTINUOUS
 62
     3
 10
21069.518184999972
 20
15979.9831175
 30
0.0
 11
21069.518184999972
 21
15973.986166500001
 31
0.0
  0
LINE
  5
5139
  8
2-0
  6
CONTINUOUS
 62
     3
 10
21069.518184999972
 20
15973.986166500001
 30
0.0
 11
21039.520559999972
 21
15973.986166500001
 31
0.0
  0
LINE
  5
513A
  8
2-0
  6
CONTINUOUS
 62
     3
 10
21039.520559999972
 20
15973.986166500001
 30
0.0
 11
21039.520559999972
 21
16010.9863375
 31
0.0
  0
LINE
  5
513B
  8
2-0
  6
CONTINUOUS
 62
     3
 10
21069.518184999972
 20
16010.9863375
 30
0.0
 11
21039.520559999972
 21
16010.9863375
 31
0.0
  0
LINE
  5
513C
  8
2-0
  6
CONTINUOUS
 62
     3
 10
21069.518184999972
 20
16004.983447500001
 30
0.0
 11
21069.518184999972
 21
16010.9863375
 31
0.0
  0
LINE
  5
513D
  8
2-0
  6
CONTINUOUS
 62
     3
 10
21069.518184999972
 20
16021.08188249999
 30
0.0
 11
21039.520559999972
 21
16021.08188249999
 31
0.0
  0
LINE
  5
513E
  8
2-0
  6
CONTINUOUS
 62
     3
 10
21069.518184999972
 20
16003.074201499991
 30
0.0
 11
21069.518184999972
 21
16021.08188249999
 31
0.0
  0
LINE
  5
513F
  8
2-0
  6
CONTINUOUS
 62
     3
 10
21044.524782999972
 20
16003.074201499991
 30
0.0
 11
21069.518184999972
 21
16003.074201499991
 31
0.0
  0
LINE
  5
5140
  8
2-0
  6
CONTINUOUS
 62
     3
 10
21044.524782999972
 20
16008.0804045
 30
0.0
 11
21044.524782999972
 21
16003.074201499991
 31
0.0
  0
LINE
  5
5141
  8
2-0
  6
CONTINUOUS
 62
     3
 10
21051.522380999959
 20
16008.0804045
 30
0.0
 11
21044.524782999972
 21
16008.0804045
 31
0.0
  0
LINE
  5
5142
  8
2-0
  6
CONTINUOUS
 62
     3
 10
21051.522380999959
 20
15307.320421
 30
0.0
 11
21044.524782999972
 21
15307.320421
 31
0.0
  0
LINE
  5
5143
  8
2-0
  6
CONTINUOUS
 62
     3
 10
21044.524782999972
 20
15307.320421
 30
0.0
 11
21044.524782999972
 21
15302.326096000001
 31
0.0
  0
LINE
  5
5144
  8
2-0
  6
CONTINUOUS
 62
     3
 10
21044.524782999972
 20
15302.326096000001
 30
0.0
 11
21069.518184999972
 21
15302.326096000001
 31
0.0
  0
LINE
  5
5145
  8
2-0
  6
CONTINUOUS
 62
     3
 10
21069.518184999972
 20
15302.326096000001
 30
0.0
 11
21069.518184999972
 21
15320.32189900001
 31
0.0
  0
LINE
  5
5146
  8
2-0
  6
CONTINUOUS
 62
     3
 10
21069.518184999972
 20
15320.32189900001
 30
0.0
 11
21039.520559999972
 21
15320.32189900001
 31
0.0
  0
LINE
  5
5147
  8
2-0
  6
CONTINUOUS
 62
     3
 10
21069.518184999972
 20
15304.22445399999
 30
0.0
 11
21069.518184999972
 21
15310.226354
 31
0.0
  0
LINE
  5
5148
  8
2-0
  6
CONTINUOUS
 62
     3
 10
21069.518184999972
 20
15310.226354
 30
0.0
 11
21039.520559999972
 21
15310.226354
 31
0.0
  0
LINE
  5
5149
  8
2-0
  6
CONTINUOUS
 62
     3
 10
21039.520559999972
 20
15273.22717300001
 30
0.0
 11
21039.520559999972
 21
15310.226354
 31
0.0
  0
LINE
  5
514A
  8
2-0
  6
CONTINUOUS
 62
     3
 10
21069.518184999972
 20
15273.22717300001
 30
0.0
 11
21039.520559999972
 21
15273.22717300001
 31
0.0
  0
LINE
  5
514B
  8
2-0
  6
CONTINUOUS
 62
     3
 10
21069.518184999972
 20
15279.224124
 30
0.0
 11
21069.518184999972
 21
15273.22717300001
 31
0.0
  0
LINE
  5
514C
  8
2-0
  6
CONTINUOUS
 62
     3
 10
21069.518184999972
 20
15263.12568899999
 30
0.0
 11
21039.520559999972
 21
15263.12568899999
 31
0.0
  0
LINE
  5
514D
  8
2-0
  6
CONTINUOUS
 62
     3
 10
21069.518184999972
 20
15281.13336999999
 30
0.0
 11
21069.518184999972
 21
15263.12568899999
 31
0.0
  0
LINE
  5
514E
  8
2-0
  6
CONTINUOUS
 62
     3
 10
21044.524782999972
 20
15281.13336999999
 30
0.0
 11
21069.518184999972
 21
15281.13336999999
 31
0.0
  0
LINE
  5
514F
  8
2-0
  6
CONTINUOUS
 62
     3
 10
21044.524782999972
 20
15276.133106000019
 30
0.0
 11
21044.524782999972
 21
15281.13336999999
 31
0.0
  0
LINE
  5
5150
  8
2-0
  6
CONTINUOUS
 62
     3
 10
21051.522380999959
 20
15276.133106000019
 30
0.0
 11
21044.524782999972
 21
15276.133106000019
 31
0.0
  0
LINE
  5
5151
  8
2-0
  6
CONTINUOUS
 62
     3
 10
21039.520559999972
 20
16668.373842000012
 30
0.0
 11
21039.520559999972
 21
16021.08188249999
 31
0.0
  0
LINE
  5
5152
  8
2-0
  6
CONTINUOUS
 62
     3
 10
21039.520559999972
 20
16822.98413999999
 30
0.0
 11
21039.520559999972
 21
16677.982424999991
 31
0.0
  0
LINE
  5
5153
  8
2-0
  6
CONTINUOUS
 62
     3
 10
21127.407225999988
 20
16792.984536
 30
0.0
 11
21127.407225999988
 21
16707.987968000001
 31
0.0
  0
LINE
  5
5154
  8
2-0
  6
CONTINUOUS
 62
     3
 10
21051.522380999959
 20
14574.892099000001
 30
0.0
 11
21044.524782999972
 21
14574.892099000001
 31
0.0
  0
LINE
  5
5155
  8
2-0
  6
CONTINUOUS
 62
     3
 10
21044.524782999972
 20
14574.892099000001
 30
0.0
 11
21044.524782999972
 21
14579.88642500001
 31
0.0
  0
LINE
  5
5156
  8
2-0
  6
CONTINUOUS
 62
     3
 10
21044.524782999972
 20
14579.88642500001
 30
0.0
 11
21069.518184999972
 21
14579.88642500001
 31
0.0
  0
LINE
  5
5157
  8
2-0
  6
CONTINUOUS
 62
     3
 10
21069.518184999972
 20
14579.88642500001
 30
0.0
 11
21069.518184999972
 21
14561.890621
 31
0.0
  0
LINE
  5
5158
  8
2-0
  6
CONTINUOUS
 62
     3
 10
21069.518184999972
 20
14561.890621
 30
0.0
 11
21039.520559999972
 21
14561.890621
 31
0.0
  0
LINE
  5
5159
  8
2-0
  6
CONTINUOUS
 62
     3
 10
21069.518184999972
 20
14577.989056
 30
0.0
 11
21069.518184999972
 21
14571.98616600001
 31
0.0
  0
LINE
  5
515A
  8
2-0
  6
CONTINUOUS
 62
     3
 10
21069.518184999972
 20
14571.98616600001
 30
0.0
 11
21039.520559999972
 21
14571.98616600001
 31
0.0
  0
LINE
  5
515B
  8
2-0
  6
CONTINUOUS
 62
     3
 10
21039.520559999972
 20
14571.98616600001
 30
0.0
 11
21039.520559999972
 21
14608.986337999981
 31
0.0
  0
LINE
  5
515C
  8
2-0
  6
CONTINUOUS
 62
     3
 10
21069.518184999972
 20
14608.986337999981
 30
0.0
 11
21039.520559999972
 21
14608.986337999981
 31
0.0
  0
LINE
  5
515D
  8
2-0
  6
CONTINUOUS
 62
     3
 10
21069.518184999972
 20
14602.989385999999
 30
0.0
 11
21069.518184999972
 21
14608.986337999981
 31
0.0
  0
LINE
  5
515E
  8
2-0
  6
CONTINUOUS
 62
     3
 10
21069.518184999972
 20
14619.086831000001
 30
0.0
 11
21039.520559999972
 21
14619.086831000001
 31
0.0
  0
LINE
  5
515F
  8
2-0
  6
CONTINUOUS
 62
     3
 10
21069.518184999972
 20
14601.08014
 30
0.0
 11
21069.518184999972
 21
14619.086831000001
 31
0.0
  0
LINE
  5
5160
  8
2-0
  6
CONTINUOUS
 62
     3
 10
21044.524782999972
 20
14601.08014
 30
0.0
 11
21069.518184999972
 21
14601.08014
 31
0.0
  0
LINE
  5
5161
  8
2-0
  6
CONTINUOUS
 62
     3
 10
21044.524782999972
 20
14606.085353
 30
0.0
 11
21044.524782999972
 21
14601.08014
 31
0.0
  0
LINE
  5
5162
  8
2-0
  6
CONTINUOUS
 62
     3
 10
21051.522380999959
 20
14606.085353
 30
0.0
 11
21044.524782999972
 21
14606.085353
 31
0.0
  0
LINE
  5
5163
  8
2-0
  6
CONTINUOUS
 62
     3
 10
21069.518184999972
 20
13548.488179
 30
0.0
 11
21069.518184999972
 21
13554.493047999989
 31
0.0
  0
LINE
  5
5164
  8
2-0
  6
CONTINUOUS
 62
     3
 10
21069.518184999972
 20
13554.493047999989
 30
0.0
 11
21039.520559999972
 21
13554.493047999989
 31
0.0
  0
LINE
  5
5165
  8
2-0
  6
CONTINUOUS
 62
     3
 10
21039.520559999972
 20
13554.493047999989
 30
0.0
 11
21039.520559999972
 21
13439.488957
 31
0.0
  0
LINE
  5
5166
  8
2-0
  6
CONTINUOUS
 62
     3
 10
21039.520559999972
 20
13439.488957
 30
0.0
 11
21124.519107999971
 21
13439.488957
 31
0.0
  0
LINE
  5
5167
  8
2-0
  6
CONTINUOUS
 62
     3
 10
21124.519107999971
 20
13439.488957
 30
0.0
 11
21124.519107999971
 21
13524.484536
 31
0.0
  0
LINE
  5
5168
  8
2-0
  6
CONTINUOUS
 62
     3
 10
21124.519107999971
 20
13524.484536
 30
0.0
 11
21092.52216999996
 21
13524.484536
 31
0.0
  0
LINE
  5
5169
  8
2-0
  6
CONTINUOUS
 62
     3
 10
21051.522380999959
 20
13551.522781
 30
0.0
 11
21044.524782999972
 21
13551.522781
 31
0.0
  0
LINE
  5
516A
  8
2-0
  6
CONTINUOUS
 62
     3
 10
21044.524782999972
 20
13551.522781
 30
0.0
 11
21044.524782999972
 21
13546.52548599998
 31
0.0
  0
LINE
  5
516B
  8
2-0
  6
CONTINUOUS
 62
     3
 10
21044.524782999972
 20
13546.52548599998
 30
0.0
 11
21069.518184999972
 21
13546.52548599998
 31
0.0
  0
LINE
  5
516C
  8
2-0
  6
CONTINUOUS
 62
     3
 10
21069.518184999972
 20
13546.52548599998
 30
0.0
 11
21069.518184999972
 21
13564.524259
 31
0.0
  0
LINE
  5
516D
  8
2-0
  6
CONTINUOUS
 62
     3
 10
21069.518184999972
 20
13564.524259
 30
0.0
 11
21039.520559999972
 21
13564.524259
 31
0.0
  0
LINE
  5
516E
  8
2-0
  6
CONTINUOUS
 62
     3
 10
21039.520559999972
 20
14619.086831000001
 30
0.0
 11
21039.520559999972
 21
15263.12568899999
 31
0.0
  0
LINE
  5
516F
  8
2-0
  6
CONTINUOUS
 62
     3
 10
21039.520559999972
 20
18238.081387999999
 30
0.0
 11
21039.520559999972
 21
18881.892105499981
 31
0.0
  0
LINE
  5
5170
  8
2-0
  6
CONTINUOUS
 62
     3
 10
21130.52298799999
 20
18166.984997999982
 30
0.0
 11
21083.519318999992
 21
18166.984997999982
 31
0.0
  0
LINE
  5
5171
  8
2-0
  6
CONTINUOUS
 62
     3
 10
21083.519318999992
 20
18251.985526
 30
0.0
 11
21130.52298799999
 21
18251.985526
 31
0.0
  0
LINE
  5
5172
  8
2-0
  6
CONTINUOUS
 62
     3
 10
21083.519318999992
 20
18166.984997999982
 30
0.0
 11
21083.519318999992
 21
18191.988297
 31
0.0
  0
LINE
  5
5173
  8
2-0
  6
CONTINUOUS
 62
     3
 10
21083.519318999992
 20
18226.984206000001
 30
0.0
 11
21083.519318999992
 21
18251.985526
 31
0.0
  0
LINE
  5
5174
  8
2-0
  6
CONTINUOUS
 62
     3
 10
21130.52298799999
 20
18251.985526
 30
0.0
 11
21130.52298799999
 21
18166.984997999982
 31
0.0
  0
LINE
  5
5175
  8
2-0
  6
CONTINUOUS
 62
     3
 10
21039.520559999972
 20
15963.88567249999
 30
0.0
 11
21039.520559999972
 21
15320.32189900001
 31
0.0
  0
LINE
  5
5176
  8
2-0
  6
CONTINUOUS
 62
     3
 10
21130.52298799999
 20
15248.987967999999
 30
0.0
 11
21083.519318999992
 21
15248.987967999999
 31
0.0
  0
LINE
  5
5177
  8
2-0
  6
CONTINUOUS
 62
     3
 10
21083.519318999992
 20
15333.984535999991
 30
0.0
 11
21130.52298799999
 21
15333.984535999991
 31
0.0
  0
LINE
  5
5178
  8
2-0
  6
CONTINUOUS
 62
     3
 10
21083.519318999992
 20
15248.987967999999
 30
0.0
 11
21083.519318999992
 21
15273.983349
 31
0.0
  0
LINE
  5
5179
  8
2-0
  6
CONTINUOUS
 62
     3
 10
21083.519318999992
 20
15308.98321700001
 30
0.0
 11
21083.519318999992
 21
15333.984535999991
 31
0.0
  0
LINE
  5
517A
  8
2-0
  6
CONTINUOUS
 62
     3
 10
21130.52298799999
 20
15333.984535999991
 30
0.0
 11
21130.52298799999
 21
15248.987967999999
 31
0.0
  0
LINE
  5
517B
  8
2-0
  6
CONTINUOUS
 62
     3
 10
24393.01514899997
 20
19595.988364000012
 30
0.0
 11
24393.01514899997
 21
19710.984537000011
 31
0.0
  0
LINE
  5
517C
  8
2-0
  6
CENTER2
 62
     6
 10
19752.56228799995
 20
19668.486251999992
 30
0.0
 11
25243.016468999969
 21
19668.486251999992
 31
0.0
  0
LINE
  5
517D
  8
2-0
  6
CENTER2
 62
     6
 10
19752.56228799995
 20
16750.486251999992
 30
0.0
 11
25243.016468999969
 21
16750.486251999992
 31
0.0
  0
LINE
  5
517E
  8
2-0
  6
CENTER2
 62
     6
 10
19752.56228799995
 20
13481.986252000001
 30
0.0
 11
25243.016468999969
 21
13481.986252000001
 31
0.0
  0
LINE
  5
517F
  8
2-0
  6
CONTINUOUS
 62
     3
 10
21039.520559999972
 20
19625.987968000001
 30
0.0
 11
24312.01324899996
 21
19625.987968000001
 31
0.0
  0
LINE
  5
5180
  8
2-0
  6
CONTINUOUS
 62
     3
 10
21039.520559999972
 20
13918.02398200001
 30
0.0
 11
21039.520559999972
 21
14561.890621
 31
0.0
  0
LINE
  5
5181
  8
2-0
  6
CENTER2
 62
     6
 10
21082.016865000001
 20
20910.984537000018
 30
0.0
 11
21082.016865000001
 21
12856.222818
 31
0.0
  0
LINE
  5
5182
  8
2-0
  6
CENTER2
 62
     6
 10
24350.516864999991
 20
20910.984537000018
 30
0.0
 11
24350.516864999991
 21
12856.222818
 31
0.0
  0
LINE
  5
5183
  8
2-0
  6
CONTINUOUS
 62
     3
 10
24393.01514899997
 20
19585.690908
 30
0.0
 11
24393.01514899997
 21
18939.082377499992
 31
0.0
  0
LINE
  5
5184
  8
2-0
  6
CONTINUOUS
 62
     3
 10
21039.520559999972
 20
19585.690908
 30
0.0
 11
21039.520559999972
 21
18939.082377499981
 31
0.0
  0
LINE
  5
5185
  8
2-0
  6
CONTINUOUS
 62
     3
 10
21051.522380999959
 20
13873.89259400001
 30
0.0
 11
21044.524782999972
 21
13873.89259400001
 31
0.0
  0
LINE
  5
5186
  8
2-0
  6
CONTINUOUS
 62
     3
 10
21044.524782999972
 20
13873.89259400001
 30
0.0
 11
21044.524782999972
 21
13878.886920000001
 31
0.0
  0
LINE
  5
5187
  8
2-0
  6
CONTINUOUS
 62
     3
 10
21044.524782999972
 20
13878.886920000001
 30
0.0
 11
21069.518184999972
 21
13878.886920000001
 31
0.0
  0
LINE
  5
5188
  8
2-0
  6
CONTINUOUS
 62
     3
 10
21069.518184999972
 20
13878.886920000001
 30
0.0
 11
21069.518184999972
 21
13860.89111600001
 31
0.0
  0
LINE
  5
5189
  8
2-0
  6
CONTINUOUS
 62
     3
 10
21069.518184999972
 20
13860.89111600001
 30
0.0
 11
21039.520559999972
 21
13860.89111600001
 31
0.0
  0
LINE
  5
518A
  8
2-0
  6
CONTINUOUS
 62
     3
 10
21069.518184999972
 20
13876.988562
 30
0.0
 11
21069.518184999972
 21
13870.986661000001
 31
0.0
  0
LINE
  5
518B
  8
2-0
  6
CONTINUOUS
 62
     3
 10
21069.518184999972
 20
13870.986661000001
 30
0.0
 11
21039.520559999972
 21
13870.986661000001
 31
0.0
  0
LINE
  5
518C
  8
2-0
  6
CONTINUOUS
 62
     3
 10
21039.520559999972
 20
13870.986661000001
 30
0.0
 11
21039.520559999972
 21
13907.98584299998
 31
0.0
  0
LINE
  5
518D
  8
2-0
  6
CONTINUOUS
 62
     3
 10
21069.518184999972
 20
13907.98584299998
 30
0.0
 11
21039.520559999972
 21
13907.98584299998
 31
0.0
  0
LINE
  5
518E
  8
2-0
  6
CONTINUOUS
 62
     3
 10
21069.518184999972
 20
13901.98988100001
 30
0.0
 11
21069.518184999972
 21
13907.98584299998
 31
0.0
  0
LINE
  5
518F
  8
2-0
  6
CONTINUOUS
 62
     3
 10
21069.518184999972
 20
13918.087326000001
 30
0.0
 11
21039.520559999972
 21
13918.087326000001
 31
0.0
  0
LINE
  5
5190
  8
2-0
  6
CONTINUOUS
 62
     3
 10
21069.518184999972
 20
13900.07964599998
 30
0.0
 11
21069.518184999972
 21
13918.087326000001
 31
0.0
  0
LINE
  5
5191
  8
2-0
  6
CONTINUOUS
 62
     3
 10
21044.524782999972
 20
13900.07964599998
 30
0.0
 11
21069.518184999972
 21
13900.07964599998
 31
0.0
  0
LINE
  5
5192
  8
2-0
  6
CONTINUOUS
 62
     3
 10
21044.524782999972
 20
13905.085848000001
 30
0.0
 11
21044.524782999972
 21
13900.07964599998
 31
0.0
  0
LINE
  5
5193
  8
2-0
  6
CONTINUOUS
 62
     3
 10
21051.522380999959
 20
13905.085848000001
 30
0.0
 11
21044.524782999972
 21
13905.085848000001
 31
0.0
  0
LINE
  5
5194
  8
2-0
  6
CONTINUOUS
 62
     3
 10
21039.520559999972
 20
13564.524259
 30
0.0
 11
21039.520559999972
 21
13860.89111600001
 31
0.0
  0
LINE
  5
5195
  8
2-0
  6
CONTINUOUS
 62
     3
 10
21120.518500999991
 20
13524.484536
 30
0.0
 11
21120.518500999991
 21
19710.984537000011
 31
0.0
  0
LINE
  5
5196
  8
2-0
  6
CONTINUOUS
 62
     3
 10
24381.01332799999
 20
13873.89259400001
 30
0.0
 11
24388.014884999979
 21
13873.89259400001
 31
0.0
  0
LINE
  5
5197
  8
2-0
  6
CONTINUOUS
 62
     3
 10
24388.014884999979
 20
13873.89259400001
 30
0.0
 11
24388.014884999979
 21
13878.886920000001
 31
0.0
  0
LINE
  5
5198
  8
2-0
  6
CONTINUOUS
 62
     3
 10
24388.014884999979
 20
13878.886920000001
 30
0.0
 11
24363.017524999981
 21
13878.886920000001
 31
0.0
  0
LINE
  5
5199
  8
2-0
  6
CONTINUOUS
 62
     3
 10
24363.017524999981
 20
13878.886920000001
 30
0.0
 11
24363.017524999981
 21
13860.89111600001
 31
0.0
  0
LINE
  5
519A
  8
2-0
  6
CONTINUOUS
 62
     3
 10
24363.017524999981
 20
13860.89111600001
 30
0.0
 11
24393.01514899997
 21
13860.89111600001
 31
0.0
  0
LINE
  5
519B
  8
2-0
  6
CONTINUOUS
 62
     3
 10
24363.017524999981
 20
13876.988562
 30
0.0
 11
24363.017524999981
 21
13870.986661000001
 31
0.0
  0
LINE
  5
519C
  8
2-0
  6
CONTINUOUS
 62
     3
 10
24363.017524999981
 20
13870.986661000001
 30
0.0
 11
24393.01514899997
 21
13870.986661000001
 31
0.0
  0
LINE
  5
519D
  8
2-0
  6
CONTINUOUS
 62
     3
 10
24393.01514899997
 20
13870.986661000001
 30
0.0
 11
24393.01514899997
 21
13907.98584299998
 31
0.0
  0
LINE
  5
519E
  8
2-0
  6
CONTINUOUS
 62
     3
 10
24363.017524999981
 20
13907.98584299998
 30
0.0
 11
24393.01514899997
 21
13907.98584299998
 31
0.0
  0
LINE
  5
519F
  8
2-0
  6
CONTINUOUS
 62
     3
 10
24363.017524999981
 20
13901.98988100002
 30
0.0
 11
24363.017524999981
 21
13907.98584299998
 31
0.0
  0
LINE
  5
51A0
  8
2-0
  6
CONTINUOUS
 62
     3
 10
24363.017524999981
 20
13918.087326000001
 30
0.0
 11
24393.01514899997
 21
13918.087326000001
 31
0.0
  0
LINE
  5
51A1
  8
2-0
  6
CONTINUOUS
 62
     3
 10
24363.017524999981
 20
13900.07964599998
 30
0.0
 11
24363.017524999981
 21
13918.087326000001
 31
0.0
  0
LINE
  5
51A2
  8
2-0
  6
CONTINUOUS
 62
     3
 10
24388.014884999979
 20
13900.07964599998
 30
0.0
 11
24363.017524999981
 21
13900.07964599998
 31
0.0
  0
LINE
  5
51A3
  8
2-0
  6
CONTINUOUS
 62
     3
 10
24388.014884999979
 20
13905.085848000001
 30
0.0
 11
24388.014884999979
 21
13900.07964599998
 31
0.0
  0
LINE
  5
51A4
  8
2-0
  6
CONTINUOUS
 62
     3
 10
24381.01332799999
 20
13905.085848000001
 30
0.0
 11
24388.014884999979
 21
13905.085848000001
 31
0.0
  0
LINE
  5
51A5
  8
2-0
  6
CONTINUOUS
 62
     3
 10
24393.01514899997
 20
13564.524259
 30
0.0
 11
24393.01514899997
 21
13860.89111600001
 31
0.0
  0
LINE
  5
51A6
  8
2-0
  6
CONTINUOUS
 62
     3
 10
24312.01324899996
 20
13524.484536
 30
0.0
 11
24312.01324899996
 21
19710.984537000011
 31
0.0
  0
CIRCLE
  5
51A7
  8
2-0
  6
CONTINUOUS
 62
     4
 10
19552.56459799995
 20
19668.486251999992
 30
0.0
 40
200.00001
  0
CIRCLE
  5
51A8
  8
2-0
  6
CONTINUOUS
 62
     4
 10
19552.56459799995
 20
16750.486251999992
 30
0.0
 40
200.00001
  0
CIRCLE
  5
51A9
  8
2-0
  6
CONTINUOUS
 62
     4
 10
19552.56459799995
 20
13481.986252000001
 30
0.0
 40
200.00001
  0
CIRCLE
  5
51AA
  8
2-0
  6
CONTINUOUS
 62
     4
 10
21082.016865000001
 20
21110.989156000011
 30
0.0
 40
200.00001
  0
TEXT
  5
51AB
  8
2-0
  6
CONTINUOUS
 62
     7
 10
22747.362171999979
 20
12921.987374
 30
0.0
 40
160.0
  1
前柱（右）
 50
0.000213
 72
     4
 11
23163.361874593
 21
13001.988920500789
 31
0.0
  0
TEXT
  5
51AC
  8
2-0
  6
CONTINUOUS
 62
     7
 10
22764.061390999981
 20
17951.609418000011
 30
0.0
 40
160.0
  1
補強柱 後
 50
359.99984199999989
 72
     4
 11
23174.728278274699
 21
18031.608285537
 31
0.0
  0
TEXT
  5
51AD
  8
2-0
  6
CONTINUOUS
 62
     7
 10
22951.957294999978
 20
16200.97939000001
 30
0.0
 40
160.0
  1
壁パネル
 50
359.99982299999999
 72
     4
 11
23314.62420880354
 21
16280.978269637881
 31
0.0
  0
TEXT
  5
51AE
  8
2-0
  6
CONTINUOUS
 62
     7
 10
22671.954390999981
 20
17038.167286000022
 30
0.0
 40
160.0
  1
中柱（左右）
 50
0.000354
 72
     4
 11
23189.28723004619
 21
17118.170482324669
 31
0.0
  0
TEXT
  5
51AF
  8
2-0
  6
CONTINUOUS
 62
     7
 10
23351.956634999959
 20
13895.02863999999
 30
0.0
 40
160.0
  1
下枠
 50
0.001063
 72
     4
 11
23522.621817409261
 21
13975.031806339281
 31
0.0
  0
TEXT
  5
51B0
  8
2-0
  6
CONTINUOUS
 62
     7
 10
22764.06139099997
 20
15033.84992900002
 30
0.0
 40
160.0
  1
補強柱 前
 50
359.99937
 72
     4
 11
23174.72893728776
 21
15113.845413479339
 31
0.0
  0
TEXT
  5
51B1
  8
2-0
  6
CONTINUOUS
 62
     7
 10
22846.92205899999
 20
18641.436024499992
 30
0.0
 40
160.0
  1
間柱（側）
 72
     4
 11
23268.255392333322
 21
18721.436024499992
 31
0.0
  0
TEXT
  5
51B2
  8
2-0
  6
CONTINUOUS
 62
     7
 10
25165.512377999981
 20
20520.983745000009
 30
0.0
 40
160.0
  1
後柱（左右）
 50
0.000354
 72
     4
 11
25677.511883712959
 21
20600.986908372841
 31
0.0
  0
TEXT
  5
51B3
  8
2-0
  6
CONTINUOUS
 62
     7
 10
19504.56523099996
 20
19574.005810000021
 30
0.0
 40
160.0
  1
C
 72
     4
 11
19557.898564333289
 21
19654.005810000021
 31
0.0
  0
TEXT
  5
51B4
  8
2-0
  6
CONTINUOUS
 62
     7
 10
19504.785946999971
 20
16680.092170000022
 30
0.0
 40
160.0
  1
B
 72
     4
 11
19558.1192803333
 21
16760.092170000022
 31
0.0
  0
TEXT
  5
51B5
  8
2-0
  6
CONTINUOUS
 62
     7
 10
19504.82850699998
 20
13393.379040999989
 30
0.0
 40
160.0
  1
A
 72
     4
 11
19558.161840333309
 21
13473.379040999989
 31
0.0
  0
TEXT
  5
51B6
  8
2-0
  6
CONTINUOUS
 62
     7
 10
21037.810255999979
 20
21022.221604000009
 30
0.0
 40
160.0
  1
1
 72
     4
 11
21064.47692266665
 21
21102.221604000009
 31
0.0
  0
LINE
  5
51B7
  8
2-0
  6
CONTINUOUS
 62
     3
 10
23611.017445999962
 20
19710.984537000011
 30
0.0
 11
23574.01628399999
 21
19710.984537000011
 31
0.0
  0
LINE
  5
51B8
  8
2-0
  6
CONTINUOUS
 62
     3
 10
23611.017445999962
 20
19680.980973999998
 30
0.0
 11
23611.017445999962
 21
19710.984537000011
 31
0.0
  0
LINE
  5
51B9
  8
2-0
  6
CONTINUOUS
 62
     3
 10
23605.017524999948
 20
19680.980973999998
 30
0.0
 11
23611.017445999962
 21
19680.980973999998
 31
0.0
  0
LINE
  5
51BA
  8
2-0
  6
CONTINUOUS
 62
     3
 10
23621.114969999991
 20
19680.980973999998
 30
0.0
 11
23621.114969999991
 21
19710.984537000011
 31
0.0
  0
LINE
  5
51BB
  8
2-0
  6
CONTINUOUS
 62
     3
 10
23603.11124899999
 20
19680.980973999998
 30
0.0
 11
23621.114969999991
 21
19680.980973999998
 31
0.0
  0
LINE
  5
51BC
  8
2-0
  6
CONTINUOUS
 62
     3
 10
23603.11124899999
 20
19705.990211000011
 30
0.0
 11
23603.11124899999
 21
19680.980973999998
 31
0.0
  0
LINE
  5
51BD
  8
2-0
  6
CONTINUOUS
 62
     3
 10
23608.111512999989
 20
19705.990211000011
 30
0.0
 11
23603.11124899999
 21
19705.990211000011
 31
0.0
  0
LINE
  5
51BE
  8
2-0
  6
CONTINUOUS
 62
     3
 10
23608.111512999989
 20
19698.984695000021
 30
0.0
 11
23608.111512999989
 21
19705.990211000011
 31
0.0
  0
LINE
  5
51BF
  8
2-0
  6
CONTINUOUS
 62
     3
 10
23576.92221799996
 20
19698.984695000021
 30
0.0
 11
23576.92221799996
 21
19705.990211000011
 31
0.0
  0
LINE
  5
51C0
  8
2-0
  6
CONTINUOUS
 62
     3
 10
23576.92221799996
 20
19705.990211000011
 30
0.0
 11
23581.922481999991
 21
19705.990211000011
 31
0.0
  0
LINE
  5
51C1
  8
2-0
  6
CONTINUOUS
 62
     3
 10
23581.922481999991
 20
19705.990211000011
 30
0.0
 11
23581.922481999991
 21
19680.980973999998
 31
0.0
  0
LINE
  5
51C2
  8
2-0
  6
CONTINUOUS
 62
     3
 10
23581.922481999991
 20
19680.980973999998
 30
0.0
 11
23563.922718999991
 21
19680.980973999998
 31
0.0
  0
LINE
  5
51C3
  8
2-0
  6
CONTINUOUS
 62
     3
 10
23563.922718999991
 20
19680.980973999998
 30
0.0
 11
23563.922718999991
 21
19710.984537000011
 31
0.0
  0
LINE
  5
51C4
  8
2-0
  6
CONTINUOUS
 62
     3
 10
23580.016204999989
 20
19680.980973999998
 30
0.0
 11
23574.01628399999
 21
19680.980973999998
 31
0.0
  0
LINE
  5
51C5
  8
2-0
  6
CONTINUOUS
 62
     3
 10
23574.01628399999
 20
19680.980973999998
 30
0.0
 11
23574.01628399999
 21
19710.984537000011
 31
0.0
  0
LINE
  5
51C6
  8
2-0
  6
CONTINUOUS
 62
     3
 10
22206.10656349998
 20
19698.984695000021
 30
0.0
 11
22206.10656349998
 21
19705.990211000011
 31
0.0
  0
LINE
  5
51C7
  8
2-0
  6
CONTINUOUS
 62
     3
 10
22206.10656349998
 20
19705.990211000011
 30
0.0
 11
22201.106299499981
 21
19705.990211000011
 31
0.0
  0
LINE
  5
51C8
  8
2-0
  6
CONTINUOUS
 62
     3
 10
22201.106299499981
 20
19705.990211000011
 30
0.0
 11
22201.106299499981
 21
19680.980973999998
 31
0.0
  0
LINE
  5
51C9
  8
2-0
  6
CONTINUOUS
 62
     3
 10
22201.106299499981
 20
19680.980973999998
 30
0.0
 11
22219.11200049999
 21
19680.980973999998
 31
0.0
  0
LINE
  5
51CA
  8
2-0
  6
CONTINUOUS
 62
     3
 10
22219.11200049999
 20
19680.980973999998
 30
0.0
 11
22219.11200049999
 21
19710.984537000011
 31
0.0
  0
LINE
  5
51CB
  8
2-0
  6
CONTINUOUS
 62
     3
 10
22203.01455549998
 20
19680.980973999998
 30
0.0
 11
22209.016455499961
 21
19680.980973999998
 31
0.0
  0
LINE
  5
51CC
  8
2-0
  6
CONTINUOUS
 62
     3
 10
22209.016455499961
 20
19680.980973999998
 30
0.0
 11
22209.016455499961
 21
19710.984537000011
 31
0.0
  0
LINE
  5
51CD
  8
2-0
  6
CONTINUOUS
 62
     3
 10
22172.01727449998
 20
19710.984537000011
 30
0.0
 11
22209.016455499961
 21
19710.984537000011
 31
0.0
  0
LINE
  5
51CE
  8
2-0
  6
CONTINUOUS
 62
     3
 10
22172.01727449998
 20
19680.980973999998
 30
0.0
 11
22172.01727449998
 21
19710.984537000011
 31
0.0
  0
LINE
  5
51CF
  8
2-0
  6
CONTINUOUS
 62
     3
 10
22178.01125649998
 20
19680.980973999998
 30
0.0
 11
22172.01727449998
 21
19680.980973999998
 31
0.0
  0
LINE
  5
51D0
  8
2-0
  6
CONTINUOUS
 62
     3
 10
22161.921729499991
 20
19680.980973999998
 30
0.0
 11
22161.921729499991
 21
19710.984537000011
 31
0.0
  0
LINE
  5
51D1
  8
2-0
  6
CONTINUOUS
 62
     3
 10
22179.917532499981
 20
19680.980973999998
 30
0.0
 11
22161.921729499991
 21
19680.980973999998
 31
0.0
  0
LINE
  5
51D2
  8
2-0
  6
CONTINUOUS
 62
     3
 10
22179.917532499981
 20
19705.990211000011
 30
0.0
 11
22179.917532499981
 21
19680.980973999998
 31
0.0
  0
LINE
  5
51D3
  8
2-0
  6
CONTINUOUS
 62
     3
 10
22174.917268499968
 20
19705.990211000011
 30
0.0
 11
22179.917532499981
 21
19705.990211000011
 31
0.0
  0
LINE
  5
51D4
  8
2-0
  6
CONTINUOUS
 62
     3
 10
22174.917268499968
 20
19698.984695000021
 30
0.0
 11
22174.917268499968
 21
19705.990211000011
 31
0.0
  0
LINE
  5
51D5
  8
2-0
  6
CONTINUOUS
 62
     3
 10
22875.916279499968
 20
19698.984695000021
 30
0.0
 11
22875.916279499968
 21
19705.990211000011
 31
0.0
  0
LINE
  5
51D6
  8
2-0
  6
CONTINUOUS
 62
     3
 10
22875.916279499968
 20
19705.990211000011
 30
0.0
 11
22880.916542499988
 21
19705.990211000011
 31
0.0
  0
LINE
  5
51D7
  8
2-0
  6
CONTINUOUS
 62
     3
 10
22880.916542499988
 20
19705.990211000011
 30
0.0
 11
22880.916542499988
 21
19680.980973999998
 31
0.0
  0
LINE
  5
51D8
  8
2-0
  6
CONTINUOUS
 62
     3
 10
22880.916542499988
 20
19680.980973999998
 30
0.0
 11
22862.92271949998
 21
19680.980973999998
 31
0.0
  0
LINE
  5
51D9
  8
2-0
  6
CONTINUOUS
 62
     3
 10
22862.92271949998
 20
19680.980973999998
 30
0.0
 11
22862.92271949998
 21
19710.984537000011
 31
0.0
  0
LINE
  5
51DA
  8
2-0
  6
CONTINUOUS
 62
     3
 10
22879.014225499959
 20
19680.980973999998
 30
0.0
 11
22873.01628449998
 21
19680.980973999998
 31
0.0
  0
LINE
  5
51DB
  8
2-0
  6
CONTINUOUS
 62
     3
 10
22873.01628449998
 20
19680.980973999998
 30
0.0
 11
22873.01628449998
 21
19710.984537000011
 31
0.0
  0
LINE
  5
51DC
  8
2-0
  6
CONTINUOUS
 62
     3
 10
22910.017445499991
 20
19710.984537000011
 30
0.0
 11
22873.01628449998
 21
19710.984537000011
 31
0.0
  0
LINE
  5
51DD
  8
2-0
  6
CONTINUOUS
 62
     3
 10
22910.017445499991
 20
19680.980973999998
 30
0.0
 11
22910.017445499991
 21
19710.984537000011
 31
0.0
  0
LINE
  5
51DE
  8
2-0
  6
CONTINUOUS
 62
     3
 10
22904.01158649999
 20
19680.980973999998
 30
0.0
 11
22910.017445499991
 21
19680.980973999998
 31
0.0
  0
LINE
  5
51DF
  8
2-0
  6
CONTINUOUS
 62
     3
 10
22920.11101049999
 20
19680.980973999998
 30
0.0
 11
22920.11101049999
 21
19710.984537000011
 31
0.0
  0
LINE
  5
51E0
  8
2-0
  6
CONTINUOUS
 62
     3
 10
22902.115207499981
 20
19680.980973999998
 30
0.0
 11
22920.11101049999
 21
19680.980973999998
 31
0.0
  0
LINE
  5
51E1
  8
2-0
  6
CONTINUOUS
 62
     3
 10
22902.115207499981
 20
19705.990211000011
 30
0.0
 11
22902.115207499981
 21
19680.980973999998
 31
0.0
  0
LINE
  5
51E2
  8
2-0
  6
CONTINUOUS
 62
     3
 10
22907.10557349999
 20
19705.990211000011
 30
0.0
 11
22902.115207499981
 21
19705.990211000011
 31
0.0
  0
LINE
  5
51E3
  8
2-0
  6
CONTINUOUS
 62
     3
 10
22907.10557349999
 20
19698.984695000021
 30
0.0
 11
22907.10557349999
 21
19705.990211000011
 31
0.0
  0
LINE
  5
51E4
  8
2-0
  6
CONTINUOUS
 62
     3
 10
22219.11200049999
 20
19710.984537000011
 30
0.0
 11
22862.92271949998
 21
19710.984537000011
 31
0.0
  0
LINE
  5
51E5
  8
2-0
  6
CONTINUOUS
 62
     3
 10
21518.315890999991
 20
19710.984537000011
 30
0.0
 11
22161.921729499991
 21
19710.984537000011
 31
0.0
  0
LINE
  5
51E6
  8
2-0
  6
CONTINUOUS
 62
     3
 10
24268.400494999991
 20
19710.984537000011
 30
0.0
 11
23621.114969999991
 21
19710.984537000011
 31
0.0
  0
LINE
  5
51E7
  8
2-0
  6
CONTINUOUS
 62
     3
 10
23563.922718999991
 20
19710.984537000011
 30
0.0
 11
22920.11101049999
 21
19710.984537000011
 31
0.0
  0
LINE
  5
51E8
  8
2-0
  6
CONTINUOUS
 62
     3
 10
21505.108542999969
 20
19698.984695000021
 30
0.0
 11
21505.108542999969
 21
19705.990211000011
 31
0.0
  0
LINE
  5
51E9
  8
2-0
  6
CONTINUOUS
 62
     3
 10
21505.108542999969
 20
19705.990211000011
 30
0.0
 11
21500.10827899996
 21
19705.990211000011
 31
0.0
  0
LINE
  5
51EA
  8
2-0
  6
CONTINUOUS
 62
     3
 10
21500.10827899996
 20
19705.990211000011
 30
0.0
 11
21500.10827899996
 21
19680.980973999998
 31
0.0
  0
LINE
  5
51EB
  8
2-0
  6
CONTINUOUS
 62
     3
 10
21500.10827899996
 20
19680.980973999998
 30
0.0
 11
21518.11002099999
 21
19680.980973999998
 31
0.0
  0
LINE
  5
51EC
  8
2-0
  6
CONTINUOUS
 62
     3
 10
21518.11002099999
 20
19680.980973999998
 30
0.0
 11
21518.11002099999
 21
19710.984537000011
 31
0.0
  0
LINE
  5
51ED
  8
2-0
  6
CONTINUOUS
 62
     3
 10
21502.010596
 20
19680.980973999998
 30
0.0
 11
21508.014475999989
 21
19680.980973999998
 31
0.0
  0
LINE
  5
51EE
  8
2-0
  6
CONTINUOUS
 62
     3
 10
21508.014475999989
 20
19680.980973999998
 30
0.0
 11
21508.014475999989
 21
19710.984537000011
 31
0.0
  0
LINE
  5
51EF
  8
2-0
  6
CONTINUOUS
 62
     3
 10
21471.019253999981
 20
19710.984537000011
 30
0.0
 11
21508.014475999989
 21
19710.984537000011
 31
0.0
  0
LINE
  5
51F0
  8
2-0
  6
CONTINUOUS
 62
     3
 10
21471.019253999981
 20
19680.980973999998
 30
0.0
 11
21471.019253999981
 21
19710.984537000011
 31
0.0
  0
LINE
  5
51F1
  8
2-0
  6
CONTINUOUS
 62
     3
 10
21477.013235999992
 20
19680.980973999998
 30
0.0
 11
21471.019253999981
 21
19680.980973999998
 31
0.0
  0
LINE
  5
51F2
  8
2-0
  6
CONTINUOUS
 62
     3
 10
21460.923708999992
 20
19680.980973999998
 30
0.0
 11
21460.923708999992
 21
19710.984537000011
 31
0.0
  0
LINE
  5
51F3
  8
2-0
  6
CONTINUOUS
 62
     3
 10
21478.919512
 20
19680.980973999998
 30
0.0
 11
21460.923708999992
 21
19680.980973999998
 31
0.0
  0
LINE
  5
51F4
  8
2-0
  6
CONTINUOUS
 62
     3
 10
21478.919512
 20
19705.990211000011
 30
0.0
 11
21478.919512
 21
19680.980973999998
 31
0.0
  0
LINE
  5
51F5
  8
2-0
  6
CONTINUOUS
 62
     3
 10
21473.921227999988
 20
19705.990211000011
 30
0.0
 11
21478.919512
 21
19705.990211000011
 31
0.0
  0
LINE
  5
51F6
  8
2-0
  6
CONTINUOUS
 62
     3
 10
21473.921227999988
 20
19698.984695000021
 30
0.0
 11
21473.921227999988
 21
19705.990211000011
 31
0.0
  0
LINE
  5
51F7
  8
2-0
  6
CONTINUOUS
 62
     3
 10
21164.82210699996
 20
19710.984537000011
 30
0.0
 11
21460.923708999992
 21
19710.984537000011
 31
0.0
  0
LINE
  5
51F8
  8
2-0
  6
CONTINUOUS
 62
     3
 10
24393.01514899997
 20
15263.12568899999
 30
0.0
 11
24393.01514899997
 21
14619.086831000001
 31
0.0
  0
LINE
  5
51F9
  8
2-0
  6
CONTINUOUS
 62
     3
 10
24393.01514899997
 20
14561.890621
 30
0.0
 11
24393.01514899997
 21
13918.087326000001
 31
0.0
  0
CIRCLE
  5
51FA
  8
2-0
  6
CONTINUOUS
 62
     4
 10
24350.516864999991
 20
21110.989156000011
 30
0.0
 40
200.00001
  0
TEXT
  5
51FB
  8
2-0
  6
CONTINUOUS
 62
     7
 10
24298.885082000001
 20
21015.463527000022
 30
0.0
 40
160.0
  1
2
 72
     4
 11
24352.218415333329
 21
21095.463527000022
 31
0.0
  0
LINE
  5
51FC
  8
0-1
  6
CONTINUOUS
 62
     3
 10
10492.267393
 20
6291.1885389999989
 30
0.0
 11
10492.267393
 21
8152.234418
 31
0.0
  0
LINE
  5
51FD
  8
0-1
  6
CONTINUOUS
 62
     3
 10
10512.26844899999
 20
6291.1885389999989
 30
0.0
 11
10512.26844899999
 21
8152.234418
 31
0.0
  0
LINE
  5
51FE
  8
0-1
  6
CONTINUOUS
 62
     3
 10
10442.267723000001
 20
6291.1885389999989
 30
0.0
 11
10442.267723000001
 21
8152.234418
 31
0.0
  0
LINE
  5
51FF
  8
0-1
  6
CONTINUOUS
 62
     3
 10
10562.267129
 20
6291.1885389999989
 30
0.0
 11
10562.267129
 21
8152.234418
 31
0.0
  0
LINE
  5
5200
  8
0-1
  6
CONTINUOUS
 62
     3
 10
10695.268012999981
 20
6291.1885389999989
 30
0.0
 11
10695.268012999981
 21
8152.234418
 31
0.0
  0
LINE
  5
5201
  8
0-1
  6
CONTINUOUS
 62
     3
 10
10710.267814999999
 20
6291.1885389999989
 30
0.0
 11
10710.267814999999
 21
8152.234418
 31
0.0
  0
LINE
  5
5202
  8
0-1
  6
CONTINUOUS
 62
     3
 10
10309.267828000009
 20
6291.1885389999989
 30
0.0
 11
10309.267828000009
 21
8152.234418
 31
0.0
  0
LINE
  5
5203
  8
0-1
  6
CONTINUOUS
 62
     3
 10
10294.268026000011
 20
6291.1885389999989
 30
0.0
 11
10294.268026000011
 21
8152.234418
 31
0.0
  0
LINE
  5
5204
  8
0-1
  6
CONTINUOUS
 62
     3
 10
11570.767512
 20
8152.234418
 30
0.0
 11
11570.767512
 21
6291.1885389999989
 31
0.0
  0
LINE
  5
5205
  8
0-1
  6
CONTINUOUS
 62
     3
 10
11533.769319999999
 20
8152.234418
 30
0.0
 11
11533.769319999999
 21
6291.1885389999989
 31
0.0
  0
LINE
  5
5206
  8
0-1
  6
CONTINUOUS
 62
     3
 10
10870.768171
 20
8152.234418
 30
0.0
 11
10870.768171
 21
6291.1885389999989
 31
0.0
  0
LINE
  5
5207
  8
0-1
  6
CONTINUOUS
 62
     3
 10
10833.76799999998
 20
8152.234418
 30
0.0
 11
10833.76799999998
 21
6291.1885389999989
 31
0.0
  0
LINE
  5
5208
  8
0-1
  6
CONTINUOUS
 62
     3
 10
12270.76685199999
 20
8152.234418
 30
0.0
 11
12270.76685199999
 21
6291.1885389999989
 31
0.0
  0
LINE
  5
5209
  8
0-1
  6
CONTINUOUS
 62
     3
 10
12233.768659999991
 20
8152.234418
 30
0.0
 11
12233.768659999991
 21
6291.1885389999989
 31
0.0
  0
LINE
  5
520A
  8
0-1
  6
CONTINUOUS
 62
     3
 10
11892.26706299999
 20
6291.1885389999989
 30
0.0
 11
11892.26706299999
 21
8152.234418
 31
0.0
  0
LINE
  5
520B
  8
0-1
  6
CONTINUOUS
 62
     3
 10
11912.268119
 20
6291.1885389999989
 30
0.0
 11
11912.268119
 21
8152.234418
 31
0.0
  0
LINE
  5
520C
  8
0-1
  6
CONTINUOUS
 62
     3
 10
11842.268383000001
 20
6291.1885389999989
 30
0.0
 11
11842.268383000001
 21
8152.234418
 31
0.0
  0
LINE
  5
520D
  8
0-1
  6
CONTINUOUS
 62
     3
 10
11962.26778900001
 20
6291.1885389999989
 30
0.0
 11
11962.26778900001
 21
8152.234418
 31
0.0
  0
LINE
  5
520E
  8
0-1
  6
CONTINUOUS
 62
     3
 10
12095.26768299998
 20
6291.1885389999989
 30
0.0
 11
12095.26768299998
 21
8152.234418
 31
0.0
  0
LINE
  5
520F
  8
0-1
  6
CONTINUOUS
 62
     3
 10
12110.267485
 20
6291.1885389999989
 30
0.0
 11
12110.267485
 21
8152.234418
 31
0.0
  0
LINE
  5
5210
  8
0-1
  6
CONTINUOUS
 62
     3
 10
11709.26749799999
 20
6291.1885389999989
 30
0.0
 11
11709.26749799999
 21
8152.234418
 31
0.0
  0
LINE
  5
5211
  8
0-1
  6
CONTINUOUS
 62
     3
 10
11694.268685999999
 20
6291.1885389999989
 30
0.0
 11
11694.268685999999
 21
8152.234418
 31
0.0
  0
LINE
  5
5212
  8
0-1
  6
CONTINUOUS
 62
     3
 10
10994.267366
 20
6291.1885389999989
 30
0.0
 11
10994.267366
 21
8152.234418
 31
0.0
  0
LINE
  5
5213
  8
0-1
  6
CONTINUOUS
 62
     3
 10
11009.268157999981
 20
6291.1885389999989
 30
0.0
 11
11009.268157999981
 21
8152.234418
 31
0.0
  0
LINE
  5
5214
  8
0-1
  6
CONTINUOUS
 62
     3
 10
11410.268144999991
 20
6291.1885389999989
 30
0.0
 11
11410.268144999991
 21
8152.234418
 31
0.0
  0
LINE
  5
5215
  8
0-1
  6
CONTINUOUS
 62
     3
 10
11395.267352999999
 20
6291.1885389999989
 30
0.0
 11
11395.267352999999
 21
8152.234418
 31
0.0
  0
LINE
  5
5216
  8
0-1
  6
CONTINUOUS
 62
     3
 10
11262.26844899999
 20
6291.1885389999989
 30
0.0
 11
11262.26844899999
 21
8152.234418
 31
0.0
  0
LINE
  5
5217
  8
0-1
  6
CONTINUOUS
 62
     3
 10
11142.26706299999
 20
6291.1885389999989
 30
0.0
 11
11142.26706299999
 21
8152.234418
 31
0.0
  0
LINE
  5
5218
  8
0-1
  6
CONTINUOUS
 62
     3
 10
11212.269768
 20
6291.1885389999989
 30
0.0
 11
11212.269768
 21
8152.234418
 31
0.0
  0
LINE
  5
5219
  8
0-1
  6
CONTINUOUS
 62
     3
 10
11192.26871300001
 20
6291.1885389999989
 30
0.0
 11
11192.26871300001
 21
8152.234418
 31
0.0
  0
LINE
  5
521A
  8
0-1
  6
CONTINUOUS
 62
     3
 10
12394.267036999991
 20
6291.1885389999989
 30
0.0
 11
12394.267036999991
 21
8152.234418
 31
0.0
  0
LINE
  5
521B
  8
0-1
  6
CONTINUOUS
 62
     3
 10
12409.267828
 20
6291.1885389999989
 30
0.0
 11
12409.267828
 21
8152.234418
 31
0.0
  0
LINE
  5
521C
  8
0-1
  6
CONTINUOUS
 62
     3
 10
12542.26871300001
 20
6291.1885389999989
 30
0.0
 11
12542.26871300001
 21
8152.234418
 31
0.0
  0
LINE
  5
521D
  8
0-1
  6
CONTINUOUS
 62
     3
 10
12810.267814999999
 20
6291.1885389999989
 30
0.0
 11
12810.267814999999
 21
8152.234418
 31
0.0
  0
LINE
  5
521E
  8
0-1
  6
CONTINUOUS
 62
     3
 10
12795.269002999999
 20
6291.1885389999989
 30
0.0
 11
12795.269002999999
 21
8152.234418
 31
0.0
  0
LINE
  5
521F
  8
0-1
  6
CONTINUOUS
 62
     3
 10
12662.26811899998
 20
6291.1885389999989
 30
0.0
 11
12662.26811899998
 21
8152.234418
 31
0.0
  0
LINE
  5
5220
  8
0-1
  6
CONTINUOUS
 62
     3
 10
12612.26844899999
 20
6291.1885389999989
 30
0.0
 11
12612.26844899999
 21
8152.234418
 31
0.0
  0
LINE
  5
5221
  8
0-1
  6
CONTINUOUS
 62
     3
 10
12592.269372000001
 20
6291.1885389999989
 30
0.0
 11
12592.269372000001
 21
8152.234418
 31
0.0
  0
LINE
  5
5222
  8
0-1
  6
CONTINUOUS
 62
     3
 10
13420.268343
 20
6291.1885389999989
 30
0.0
 11
13420.268343
 21
8152.234418
 31
0.0
  0
LINE
  5
5223
  8
0-1
  6
CONTINUOUS
 62
     3
 10
13400.269267
 20
6291.1885389999989
 30
0.0
 11
13400.269267
 21
8152.234418
 31
0.0
  0
LINE
  5
5224
  8
0-1
  6
CONTINUOUS
 62
     3
 10
13470.26900299999
 20
6291.1885389999989
 30
0.0
 11
13470.26900299999
 21
8152.234418
 31
0.0
  0
LINE
  5
5225
  8
0-1
  6
CONTINUOUS
 62
     3
 10
13350.268607000011
 20
6291.1885389999989
 30
0.0
 11
13350.268607000011
 21
8152.234418
 31
0.0
  0
LINE
  5
5226
  8
0-1
  6
CONTINUOUS
 62
     3
 10
13217.268712999999
 20
6291.1885389999989
 30
0.0
 11
13217.268712999999
 21
8152.234418
 31
0.0
  0
LINE
  5
5227
  8
0-1
  6
CONTINUOUS
 62
     3
 10
13202.26693099998
 20
6291.1885389999989
 30
0.0
 11
13202.26693099998
 21
8152.234418
 31
0.0
  0
LINE
  5
5228
  8
0-1
  6
CONTINUOUS
 62
     3
 10
13603.268897
 20
6291.1885389999989
 30
0.0
 11
13603.268897
 21
8152.234418
 31
0.0
  0
LINE
  5
5229
  8
0-1
  6
CONTINUOUS
 62
     3
 10
13618.26771
 20
6291.1885389999989
 30
0.0
 11
13618.26771
 21
8152.234418
 31
0.0
  0
LINE
  5
522A
  8
0-1
  6
CONTINUOUS
 62
     3
 10
15718.26771
 20
6291.1885389999989
 30
0.0
 11
15718.26771
 21
8152.234418
 31
0.0
  0
LINE
  5
522B
  8
0-1
  6
CONTINUOUS
 62
     3
 10
15703.268897000011
 20
6291.1885389999989
 30
0.0
 11
15703.268897000011
 21
8152.234418
 31
0.0
  0
LINE
  5
522C
  8
0-1
  6
CONTINUOUS
 62
     3
 10
15302.267920999981
 20
6291.1885389999989
 30
0.0
 11
15302.267920999981
 21
8152.234418
 31
0.0
  0
LINE
  5
522D
  8
0-1
  6
CONTINUOUS
 62
     3
 10
15317.267723000001
 20
6291.1885389999989
 30
0.0
 11
15317.267723000001
 21
8152.234418
 31
0.0
  0
LINE
  5
522E
  8
0-1
  6
CONTINUOUS
 62
     3
 10
15450.268607000011
 20
6291.1885389999989
 30
0.0
 11
15450.268607000011
 21
8152.234418
 31
0.0
  0
LINE
  5
522F
  8
0-1
  6
CONTINUOUS
 62
     3
 10
15570.26801300001
 20
6291.1885389999989
 30
0.0
 11
15570.26801300001
 21
8152.234418
 31
0.0
  0
LINE
  5
5230
  8
0-1
  6
CONTINUOUS
 62
     3
 10
15500.269267000011
 20
6291.1885389999989
 30
0.0
 11
15500.269267000011
 21
8152.234418
 31
0.0
  0
LINE
  5
5231
  8
0-1
  6
CONTINUOUS
 62
     3
 10
15520.268343000011
 20
6291.1885389999989
 30
0.0
 11
15520.268343000011
 21
8152.234418
 31
0.0
  0
LINE
  5
5232
  8
0-1
  6
CONTINUOUS
 62
     3
 10
14820.26900299999
 20
6291.1885389999989
 30
0.0
 11
14820.26900299999
 21
8152.234418
 31
0.0
  0
LINE
  5
5233
  8
0-1
  6
CONTINUOUS
 62
     3
 10
14800.267947
 20
6291.1885389999989
 30
0.0
 11
14800.267947
 21
8152.234418
 31
0.0
  0
LINE
  5
5234
  8
0-1
  6
CONTINUOUS
 62
     3
 10
14870.267683
 20
6291.1885389999989
 30
0.0
 11
14870.267683
 21
8152.234418
 31
0.0
  0
LINE
  5
5235
  8
0-1
  6
CONTINUOUS
 62
     3
 10
14750.269266999991
 20
6291.1885389999989
 30
0.0
 11
14750.269266999991
 21
8152.234418
 31
0.0
  0
LINE
  5
5236
  8
0-1
  6
CONTINUOUS
 62
     3
 10
14617.268383000001
 20
6291.1885389999989
 30
0.0
 11
14617.268383000001
 21
8152.234418
 31
0.0
  0
LINE
  5
5237
  8
0-1
  6
CONTINUOUS
 62
     3
 10
14602.26858099998
 20
6291.1885389999989
 30
0.0
 11
14602.26858099998
 21
8152.234418
 31
0.0
  0
LINE
  5
5238
  8
0-1
  6
CONTINUOUS
 62
     3
 10
15003.26658800001
 20
6291.1885389999989
 30
0.0
 11
15003.26658800001
 21
8152.234418
 31
0.0
  0
LINE
  5
5239
  8
0-1
  6
CONTINUOUS
 62
     3
 10
15018.26836900001
 20
6291.1885389999989
 30
0.0
 11
15018.26836900001
 21
8152.234418
 31
0.0
  0
LINE
  5
523A
  8
0-1
  6
CONTINUOUS
 62
     3
 10
14318.26902900001
 20
6291.1885389999989
 30
0.0
 11
14318.26902900001
 21
8152.234418
 31
0.0
  0
LINE
  5
523B
  8
0-1
  6
CONTINUOUS
 62
     3
 10
14303.267248
 20
6291.1885389999989
 30
0.0
 11
14303.267248
 21
8152.234418
 31
0.0
  0
LINE
  5
523C
  8
0-1
  6
CONTINUOUS
 62
     3
 10
13902.26924
 20
6291.1885389999989
 30
0.0
 11
13902.26924
 21
8152.234418
 31
0.0
  0
LINE
  5
523D
  8
0-1
  6
CONTINUOUS
 62
     3
 10
13917.268053
 20
6291.1885389999989
 30
0.0
 11
13917.268053
 21
8152.234418
 31
0.0
  0
LINE
  5
523E
  8
0-1
  6
CONTINUOUS
 62
     3
 10
14050.266957000011
 20
6291.1885389999989
 30
0.0
 11
14050.266957000011
 21
8152.234418
 31
0.0
  0
LINE
  5
523F
  8
0-1
  6
CONTINUOUS
 62
     3
 10
14170.268343
 20
6291.1885389999989
 30
0.0
 11
14170.268343
 21
8152.234418
 31
0.0
  0
LINE
  5
5240
  8
0-1
  6
CONTINUOUS
 62
     3
 10
14100.268606999991
 20
6291.1885389999989
 30
0.0
 11
14100.268606999991
 21
8152.234418
 31
0.0
  0
LINE
  5
5241
  8
0-1
  6
CONTINUOUS
 62
     3
 10
14120.267683
 20
6291.1885389999989
 30
0.0
 11
14120.267683
 21
8152.234418
 31
0.0
  0
LINE
  5
5242
  8
0-1
  6
CONTINUOUS
 62
     3
 10
13778.76905600001
 20
8152.234418
 30
0.0
 11
13778.76905600001
 21
6291.1885389999989
 31
0.0
  0
LINE
  5
5243
  8
0-1
  6
CONTINUOUS
 62
     3
 10
13741.767894000001
 20
8152.234418
 30
0.0
 11
13741.767894000001
 21
6291.1885389999989
 31
0.0
  0
LINE
  5
5244
  8
0-1
  6
CONTINUOUS
 62
     3
 10
15178.766745999999
 20
8152.234418
 30
0.0
 11
15178.766745999999
 21
6291.1885389999989
 31
0.0
  0
LINE
  5
5245
  8
0-1
  6
CONTINUOUS
 62
     3
 10
15141.767563999991
 20
8152.234418
 30
0.0
 11
15141.767563999991
 21
6291.1885389999989
 31
0.0
  0
LINE
  5
5246
  8
0-1
  6
CONTINUOUS
 62
     3
 10
14478.76839599999
 20
8152.234418
 30
0.0
 11
14478.76839599999
 21
6291.1885389999989
 31
0.0
  0
LINE
  5
5247
  8
0-1
  6
CONTINUOUS
 62
     3
 10
14441.768223999999
 20
8152.234418
 30
0.0
 11
14441.768223999999
 21
6291.1885389999989
 31
0.0
  0
LINE
  5
5248
  8
0-1
  6
CONTINUOUS
 62
     3
 10
15878.76905599999
 20
8152.234418
 30
0.0
 11
15878.76905599999
 21
6291.1885389999989
 31
0.0
  0
LINE
  5
5249
  8
0-1
  6
CONTINUOUS
 62
     3
 10
15841.767894000001
 20
8152.234418
 30
0.0
 11
15841.767894000001
 21
6291.1885389999989
 31
0.0
  0
LINE
  5
524A
  8
0-1
  6
CONTINUOUS
 62
     3
 10
16329.767868000001
 20
6241.1883740000003
 30
0.0
 11
16329.767868000001
 21
6141.1885389999979
 31
0.0
  0
LINE
  5
524B
  8
0-1
  6
CONTINUOUS
 62
     3
 10
16297.267077
 20
8455.5174490000027
 30
0.0
 11
16297.267077
 21
6241.1883740000012
 31
0.0
  0
LINE
  5
524C
  8
0-1
  6
CONTINUOUS
 62
     3
 10
16317.267868000001
 20
8456.0984380000027
 30
0.0
 11
16317.267868000001
 21
6241.1883740000012
 31
0.0
  0
LINE
  5
524D
  8
0-1
  6
CONTINUOUS
 62
     3
 10
16202.26799999998
 20
8152.234418
 30
0.0
 11
16202.26799999998
 21
6241.1883740000012
 31
0.0
  0
LINE
  5
524E
  8
0-1
  6
CONTINUOUS
 62
     3
 10
13006.267868000001
 20
8356.9898809999977
 30
0.0
 11
13006.267868000001
 21
8152.234418
 31
0.0
  0
LINE
  5
524F
  8
0-1
  6
CONTINUOUS
 62
     3
 10
12933.768
 20
8152.234418
 30
0.0
 11
12933.768
 21
6241.1883740000012
 31
0.0
  0
LINE
  5
5250
  8
0-1
  6
CONTINUOUS
 62
     3
 10
13078.76674599999
 20
8152.234418
 30
0.0
 11
13078.76674599999
 21
6241.1883740000012
 31
0.0
  0
LINE
  5
5251
  8
0-1
  6
CONTINUOUS
 62
     3
 10
13078.76674599999
 20
6291.1885389999989
 30
0.0
 11
16202.26799999998
 21
6291.1885389999989
 31
0.0
  0
LINE
  5
5252
  8
0-1
  6
CONTINUOUS
 62
     3
 10
10038.267868000001
 20
6141.1885389999979
 30
0.0
 11
10038.267868000001
 21
6241.1883740000003
 31
0.0
  0
LINE
  5
5253
  8
0-1
  6
CONTINUOUS
 62
     3
 10
10065.76766999999
 20
8268.9908770000002
 30
0.0
 11
10065.76766999999
 21
6241.1883740000012
 31
0.0
  0
LINE
  5
5254
  8
0-1
  6
CONTINUOUS
 62
     3
 10
10045.767868000001
 20
8268.3741496838065
 30
0.0
 11
10045.767868000001
 21
6241.1883740000012
 31
0.0
  0
LINE
  5
5255
  8
0-1
  6
CONTINUOUS
 62
     3
 10
10160.766747
 20
8152.234418
 30
0.0
 11
10160.766747
 21
6241.1883740000012
 31
0.0
  0
LINE
  5
5256
  8
0-1
  6
CONTINUOUS
 62
     3
 10
10038.267868000001
 20
6241.1883740000003
 30
0.0
 11
16329.767868000001
 21
6241.1883740000003
 31
0.0
  0
LINE
  5
5257
  8
0-1
  6
CONTINUOUS
 62
     3
 10
10160.766747
 20
6291.1885389999989
 30
0.0
 11
12933.768
 21
6291.1885389999989
 31
0.0
  0
LINE
  5
5258
  8
0-1
  6
CONTINUOUS
 62
     3
 10
9355.7668129999984
 20
6141.1885389999979
 30
0.0
 11
16329.767868000001
 21
6141.1885389999979
 31
0.0
  0
LINE
  5
5259
  8
0-1
  6
CONTINUOUS
 62
     3
 10
10065.76766999999
 20
8152.234418
 30
0.0
 11
16297.267077
 21
8152.234418
 31
0.0
  0
LINE
  5
525A
  8
0-1
  6
CONTINUOUS
 62
     3
 10
9871.4660440000007
 20
8303.1736990000027
 30
0.0
 11
16402.957533000001
 21
8498.6897600000029
 31
0.0
  0
LINE
  5
525B
  8
0-1
  6
CONTINUOUS
 62
     3
 10
16401.457058
 20
8548.6686450000016
 30
0.0
 11
9869.9665589999986
 21
8353.1515949999957
 31
0.0
  0
LINE
  5
525C
  8
0-1
  6
CONTINUOUS
 62
     3
 10
9866.8765310000035
 20
8356.0604969999968
 30
0.0
 11
9865.9164640000017
 21
8388.0460529999982
 31
0.0
  0
LINE
  5
525D
  8
0-1
  6
CONTINUOUS
 62
     3
 10
9870.7652949999992
 20
8393.1932959999976
 30
0.0
 11
16421.22651
 21
8589.2804479999977
 31
0.0
  0
LINE
  5
525E
  8
0-1
  6
CONTINUOUS
 62
     3
 10
16425.131109999991
 20
8459.3389099999968
 30
0.0
 11
9874.6659359999994
 21
8263.2522529999969
 31
0.0
  0
LINE
  5
525F
  8
0-1
  6
CONTINUOUS
 62
     3
 10
9869.5181980000016
 20
8268.099599000001
 30
0.0
 11
9868.5591210000039
 21
8300.0856499999973
 31
0.0
  0
LINE
  5
5260
  8
0-1
  6
CONTINUOUS
 62
     3
 10
9868.2275520000003
 20
8311.0803909999977
 30
0.0
 11
9867.2071099999994
 21
8345.0647660000031
 31
0.0
  0
LINE
  5
5261
  8
0-1
  6
CONTINUOUS
 62
     3
 10
9870.1160130000044
 20
8348.1538049999981
 30
0.0
 11
16401.608490999992
 21
8543.6713500000023
 31
0.0
  0
LINE
  5
5262
  8
0-1
  6
CONTINUOUS
 62
     3
 10
16402.808078999991
 20
8503.6880439999986
 30
0.0
 11
9871.3175809999993
 21
8308.1719840000005
 31
0.0
  0
LINE
  5
5263
  8
0-1
  6
CONTINUOUS
 62
     3
 10
13006.267868000001
 20
8356.9898809999977
 30
0.0
 11
13002.365247
 21
8486.9314190000005
 31
0.0
  0
LINE
  5
5264
  8
0-1
  6
CONTINUOUS
 62
     3
 10
16392.164207999991
 20
8458.3481609999981
 30
0.0
 11
16388.262577000001
 21
8588.2896989999972
 31
0.0
  0
LINE
  5
5265
  8
0-1
  6
CONTINUOUS
 62
     3
 10
9883.2580369999996
 20
8393.5684149999979
 30
0.0
 11
9887.1606580000007
 21
8263.6273720000008
 31
0.0
  0
LINE
  5
5266
  8
0-5
  6
CONTINUOUS
 62
     4
 10
18034.852856000001
 20
6241.1883740000012
 30
0.0
 11
18154.853252000001
 21
6449.0353509999986
 31
0.0
  0
LINE
  5
5267
  8
0-5
  6
CONTINUOUS
 62
     4
 10
17914.854438999992
 20
6449.0353509999986
 30
0.0
 11
18034.852856000001
 21
6241.1883740000012
 31
0.0
  0
LINE
  5
5268
  8
0-5
  6
CONTINUOUS
 62
     4
 10
18154.853252000001
 20
6449.0353509999986
 30
0.0
 11
17914.854438999992
 21
6449.0353509999986
 31
0.0
  0
LINE
  5
5269
  8
0-5
  6
CONTINUOUS
 62
     4
 10
16409.765163000011
 20
6241.1883740000003
 30
0.0
 11
18127.231049000002
 21
6241.1883740000012
 31
0.0
  0
LINE
  5
526A
  8
0-5
  6
CONTINUOUS
 62
     4
 10
16274.767868000001
 20
4461.1889349999992
 30
0.0
 11
16274.767868000001
 21
4301.1893969999992
 31
0.0
  0
LINE
  5
526B
  8
0-5
  6
CONTINUOUS
 62
     4
 10
13006.267868000001
 20
4461.1889349999992
 30
0.0
 11
13006.267868000001
 21
4301.1893969999992
 31
0.0
  0
LINE
  5
526C
  8
0-5
  6
CONTINUOUS
 62
     4
 10
10088.267868000001
 20
4461.1889349999992
 30
0.0
 11
10088.267868000001
 21
4301.1893969999992
 31
0.0
  0
LINE
  5
526D
  8
2-0
  6
CENTER2
 62
     6
 10
16274.767868000001
 20
5878.5361159999993
 30
0.0
 11
16274.767868000001
 21
6935.6787139999979
 31
0.0
  0
LINE
  5
526E
  8
2-0
  6
CENTER2
 62
     6
 10
13006.267868000001
 20
5878.5361159999993
 30
0.0
 11
13006.267868000001
 21
6935.6787139999979
 31
0.0
  0
LINE
  5
526F
  8
2-0
  6
CENTER2
 62
     6
 10
10088.267868000001
 20
5878.5361159999993
 30
0.0
 11
10088.267868000001
 21
6935.6787139999979
 31
0.0
  0
ARC
  5
5270
  8
0-1
  6
CONTINUOUS
 62
     3
 10
16402.207294999989
 20
8523.6801919999998
 30
0.0
 40
24.999998999999999
 50
271.71998600002632
 51
91.719986000026395
  0
ARC
  5
5271
  8
0-1
  6
CONTINUOUS
 62
     3
 10
9869.8764910000027
 20
8356.1505649999999
 30
0.0
 40
3.0
 50
181.71998600002601
 51
271.71998600002632
  0
ARC
  5
5272
  8
0-1
  6
CONTINUOUS
 62
     3
 10
9870.9137590000046
 20
8388.1955069999967
 30
0.0
 40
5.0
 50
91.719986000026395
 51
181.71998600002601
  0
ARC
  5
5273
  8
0-1
  6
CONTINUOUS
 62
     3
 10
16397.210000999981
 20
8523.529749000003
 30
0.0
 40
69.999999000000003
 50
293.50677499975262
 51
69.933196999867519
  0
ARC
  5
5274
  8
0-1
  6
CONTINUOUS
 62
     3
 10
9874.5174720000032
 20
8268.250043
 30
0.0
 40
5.0
 50
181.71998600002601
 51
271.71998600002632
  0
ARC
  5
5275
  8
0-1
  6
CONTINUOUS
 62
     3
 10
9871.5561130000042
 20
8300.1752229999984
 30
0.0
 40
3.0
 50
91.719986000026395
 51
181.71998600002601
  0
ARC
  5
5276
  8
0-1
  6
CONTINUOUS
 62
     3
 10
9871.5402760000015
 20
8350.6979809999975
 30
0.0
 40
2.5
 50
271.71998600002632
 51
91.719986000026395
  0
ARC
  5
5277
  8
0-1
  6
CONTINUOUS
 62
     3
 10
9872.8903079999982
 20
8305.7178749999985
 30
0.0
 40
2.5
 50
271.71998600002632
 51
91.719986000026395
  0
ARC
  5
5278
  8
0-1
  6
CONTINUOUS
 62
     3
 10
9870.2060810000003
 20
8345.1553289999974
 30
0.0
 40
3.0
 50
91.719986000026395
 51
181.71998600002601
  0
ARC
  5
5279
  8
0-1
  6
CONTINUOUS
 62
     3
 10
16402.207294999989
 20
8523.6801919999998
 30
0.0
 40
20.0
 50
271.71998600002632
 51
91.719986000026395
  0
ARC
  5
527A
  8
0-1
  6
CONTINUOUS
 62
     3
 10
9871.2265229999975
 20
8311.1699640000006
 30
0.0
 40
3.0
 50
181.71998600002601
 51
271.71998600002632
  0
CIRCLE
  5
527B
  8
0-5
  6
CONTINUOUS
 62
     4
 10
13006.267868000001
 20
4101.1882420000002
 30
0.0
 40
199.9999949999999
  0
CIRCLE
  5
527C
  8
0-5
  6
CONTINUOUS
 62
     4
 10
16274.767868000001
 20
4101.1882420000002
 30
0.0
 40
199.9999949999999
  0
CIRCLE
  5
527D
  8
0-5
  6
CONTINUOUS
 62
     4
 10
10088.267868000001
 20
4101.1882420000002
 30
0.0
 40
199.9999949999999
  0
TEXT
  5
527E
  8
0-5
  6
CONTINUOUS
 62
     7
 10
17575.760926999999
 20
6529.0346250000011
 30
0.0
 40
160.0
  1
布基礎天端
 72
     4
 11
18034.427593666671
 21
6609.0346250000011
 31
0.0
  0
TEXT
  5
527F
  8
0-5
  6
CONTINUOUS
 62
     7
 10
16227.81170799999
 20
4017.977445999999
 30
0.0
 40
160.0
  1
A
 72
     4
 11
16281.14504133333
 21
4097.9774459999999
 31
0.0
  0
TEXT
  5
5280
  8
0-5
  6
CONTINUOUS
 62
     7
 10
12959.31170799999
 20
4017.977445999999
 30
0.0
 40
160.0
  1
B
 72
     4
 11
13012.64504133333
 21
4097.9774459999999
 31
0.0
  0
TEXT
  5
5281
  8
0-5
  6
CONTINUOUS
 62
     7
 10
10041.311707999979
 20
4017.977445999999
 30
0.0
 40
160.0
  1
C
 72
     4
 11
10094.64504133332
 21
4097.9774459999999
 31
0.0
  0
TEXT
  5
5282
  8
2-0
  6
CONTINUOUS
 62
     7
 10
11688.234123999981
 20
3264.0669070000022
 30
0.0
 40
160.0
  1
側 面 立 面 図
 50
0.000139
 72
     4
 11
12333.56726325081
 21
3344.0684725833762
 31
0.0
  0
TEXT
  5
5283
  8
2-0
  6
CONTINUOUS
 62
     7
 10
13685.059448388431
 20
3291.2638415833758
 30
0.0
 40
160.0
  1
1
 72
     4
 11
13711.7261150551
 21
3371.2638415833749
 31
0.0
  0
TEXT
  5
5284
  8
2-0
  6
CONTINUOUS
 62
     7
 10
13928.148165639141
 20
3211.265309583373
 30
0.0
 40
160.0
  1
80
 72
     4
 11
14048.148165639141
 21
3291.265309583373
 31
0.0
  0
TEXT
  5
5285
  8
2-0
  6
CONTINUOUS
 62
     7
 10
13186.06141438843
 20
3264.0684725833762
 30
0.0
 40
160.0
  1
(S=  /   )
 72
     4
 11
13746.06141438843
 21
3344.0684725833762
 31
0.0
  0
LINE
  5
5286
  8
0-1
  6
CONTINUOUS
 62
     3
 10
16002.27023099999
 20
6291.1885389999989
 30
0.0
 11
16002.27023099999
 21
8152.234418
 31
0.0
  0
LINE
  5
5287
  8
0-1
  6
CONTINUOUS
 62
     3
 10
16017.270033000001
 20
6291.1885389999989
 30
0.0
 11
16017.270033000001
 21
8152.234418
 31
0.0
  0
LINE
  5
5288
  8
SUNPOU
  6
CONTINUOUS
 10
20799.516864999991
 20
4941.1885390000061
 30
0.0
 11
20441.561858278881
 21
4941.1885390000061
 31
0.0
  0
LINE
  5
5289
  8
SUNPOU
  6
CONTINUOUS
 10
24633.016864999991
 20
4941.1885390000061
 30
0.0
 11
24990.971871721082
 21
4941.1885390000061
 31
0.0
  0
TEXT
  5
528A
  8
0-5
  6
CONTINUOUS
 62
     7
 10
20463.838945999989
 20
6870.5487857420012
 30
0.0
 40
160.0
  1
(2131.5)
 50
90.0
 72
     4
 11
20383.838945999989
 21
7323.8821190753342
 31
0.0
  0
LINE
  5
528B
  8
0-6
  6
CONTINUOUS
 62
     6
 10
22623.652356499981
 20
18999.666309
 30
0.0
 11
23648.69260649999
 21
18999.666309
 31
0.0
  0
LINE
  5
528C
  8
0-6
  6
CONTINUOUS
 62
     6
 10
22323.72757849998
 20
19557.019561000008
 30
0.0
 11
22219.11200049999
 21
19680.980973999998
 31
0.0
  0
LINE
  5
528D
  8
0-6
  6
CONTINUOUS
 62
     6
 10
22219.11200049999
 20
19680.980973999998
 30
0.0
 11
22277.870050499991
 21
19529.78930400002
 31
0.0
  0
LINE
  5
528E
  8
0-6
  6
CONTINUOUS
 62
     6
 10
22219.11200049999
 20
19680.980973999998
 30
0.0
 11
22323.72757849998
 21
19557.019561000008
 31
0.0
  0
LINE
  5
528F
  8
0-6
  6
CONTINUOUS
 62
     6
 10
22323.72757849998
 20
19557.019561000008
 30
0.0
 11
22277.870050499991
 21
19529.78930400002
 31
0.0
  0
LINE
  5
5290
  8
0-6
  6
CONTINUOUS
 62
     6
 10
22277.870050499991
 20
19529.78930400002
 30
0.0
 11
22219.11200049999
 21
19680.980973999998
 31
0.0
  0
LINE
  5
5291
  8
0-6
  6
CONTINUOUS
 62
     6
 10
22277.870050499991
 20
19529.78930400002
 30
0.0
 11
22323.72757849998
 21
19557.019561000008
 31
0.0
  0
LINE
  5
5292
  8
0-6
  6
CONTINUOUS
 62
     6
 10
22300.798814499991
 20
19543.406412000011
 30
0.0
 11
22623.652356499981
 21
18999.666309
 31
0.0
  0
TEXT
  5
5293
  8
0-6
  6
CONTINUOUS
 62
     7
 10
22703.65262049999
 20
19079.668553000021
 30
0.0
 40
160.0
  1
間柱（後）
 72
     4
 11
23124.985953833318
 21
19159.668553000021
 31
0.0
  0
LINE
  5
5294
  8
SUNPOU
  6
CONTINUOUS
 10
10175.131274999991
 20
19890.982161000022
 30
0.0
 11
10175.131274999991
 21
20687.949428778458
 31
0.0
  0
LINE
  5
5295
  8
SUNPOU
  6
CONTINUOUS
 10
10175.131274999991
 20
13289.490937
 30
0.0
 11
10175.131274999991
 21
12614.06482118961
 31
0.0
  0
LINE
  5
5296
  8
SUNPOU
  6
CONTINUOUS
 10
9865.7678679999972
 20
9389.1900499999956
 30
0.0
 11
9390.4787553597725
 21
9389.1900499999956
 31
0.0
  0
LINE
  5
5299
  8
WAKUSEN-01
 10
868.00000000000193
 20
22484.000000000011
 30
0.0
 11
32764.000000000011
 21
22484.000000000011
 31
0.0
  0
LINE
  5
529C
  8
WAKUSEN-01
 10
20560.0
 20
2484.0
 30
0.0
 11
32764.0
 21
2484.0
 31
0.0
  0
LINE
  5
529D
  8
WAKUSEN-02
 10
20560.0
 20
1655.9999999999991
 30
0.0
 11
26868.0
 21
1655.9999999999991
 31
0.0
  0
TEXT
  5
529E
  8
WAKUMOJI-01
 10
20670.260259962761
 20
2125.9030093393221
 30
0.0
 40
240.0
  1
名　称
  7
WAKUMOJI
  0
TEXT
  5
529F
  8
WAKUMOJI-01
 10
20656.505485091919
 20
1319.12897497982
 30
0.0
 40
240.0
  1
機種名
  7
WAKUMOJI
  0
LINE
  5
52A2
  8
YODOROGO
 10
29977.604341291921
 20
1995.7494964292871
 30
0.0
 11
29829.604341291921
 21
1995.7494964292871
 31
0.0
1001
AUTOCAD_POSTSCRIPT_FIGURE
1002
{
1000
PSFILL
1000
Grayscale
1000
Grayscale
1070
    25
1002
}
  0
LINE
  5
52A3
  8
YODOROGO
 10
29829.604341291921
 20
1947.749496429288
 30
0.0
 11
29977.604341291921
 21
1947.749496429288
 31
0.0
1001
AUTOCAD_POSTSCRIPT_FIGURE
1002
{
1000
PSFILL
1000
Grayscale
1000
Grayscale
1070
    25
1002
}
  0
LINE
  5
52A4
  8
YODOROGO
 10
29977.604341291921
 20
1907.7494964292871
 30
0.0
 11
29829.604341291921
 21
1907.7494964292871
 31
0.0
1001
AUTOCAD_POSTSCRIPT_FIGURE
1002
{
1000
PSFILL
1000
Grayscale
1000
Grayscale
1070
    25
1002
}
  0
LINE
  5
52A5
  8
YODOROGO
 10
29829.604341291921
 20
1859.749496429288
 30
0.0
 11
29977.604341291921
 21
1859.749496429288
 31
0.0
1001
AUTOCAD_POSTSCRIPT_FIGURE
1002
{
1000
PSFILL
1000
Grayscale
1000
Grayscale
1070
    25
1002
}
  0
LINE
  5
52A6
  8
YODOROGO
 10
29977.604341291921
 20
1819.7494964292871
 30
0.0
 11
29829.604341291921
 21
1819.7494964292871
 31
0.0
1001
AUTOCAD_POSTSCRIPT_FIGURE
1002
{
1000
PSFILL
1000
Grayscale
1000
Grayscale
1070
    25
1002
}
  0
LINE
  5
52A7
  8
YODOROGO
 10
29921.60434129191
 20
1707.749496429288
 30
0.0
 11
29977.604341291921
 21
1707.749496429288
 31
0.0
1001
AUTOCAD_POSTSCRIPT_FIGURE
1002
{
1000
PSFILL
1000
Grayscale
1000
Grayscale
1070
    25
1002
}
  0
LINE
  5
52A8
  8
YODOROGO
 10
29737.604341291921
 20
1427.749496429288
 30
0.0
 11
29937.604341291932
 21
1481.3393349155101
 31
0.0
  0
LINE
  5
52A9
  8
YODOROGO
 10
29949.60434129191
 20
1707.749496429288
 30
0.0
 11
29885.604341291921
 21
1707.749496429288
 31
0.0
  0
ARC
  5
52AA
  8
YODOROGO
 10
30254.34774982791
 20
1807.864609233261
 30
0.0
 40
381.88686420564721
 50
213.96111677667841
 51
264.47872074317792
  0
ARC
  5
52AB
  8
YODOROGO
 10
30254.347749827921
 20
1807.864609233302
 30
0.0
 40
381.8868642056816
 50
208.14114420486601
 51
212.9210361185994
  0
LINE
  5
52AC
  8
YODOROGO
 10
29771.409872985321
 20
1556.807661346234
 30
0.0
 11
29933.78413250855
 21
1600.3157130570869
 31
0.0
  0
LINE
  5
52AD
  8
YODOROGO
 10
29737.604341291921
 20
1427.749496429288
 30
0.0
 11
29937.604341291932
 21
1481.3393349155101
 31
0.0
  0
LINE
  5
52AE
  8
YODOROGO
 10
29949.60434129191
 20
1707.749496429288
 30
0.0
 11
29885.604341291921
 21
1707.749496429288
 31
0.0
  0
ARC
  5
52AF
  8
YODOROGO
 10
30254.34774982791
 20
1807.864609233261
 30
0.0
 40
381.88686420564721
 50
213.96111677667841
 51
264.47872074317792
  0
LINE
  5
52B0
  8
YODOROGO
 10
28793.60434129191
 20
1819.7494964292871
 30
0.0
 11
28433.60434129191
 21
1819.7494964292871
 31
0.0
  0
LINE
  5
52B1
  8
YODOROGO
 10
28513.60434129191
 20
1427.749496429288
 30
0.0
 11
28793.60434129191
 21
1427.749496429288
 31
0.0
  0
LINE
  5
52B2
  8
YODOROGO
 10
28729.604341291921
 20
1923.7494964292871
 30
0.0
 11
28497.60434129191
 21
1923.7494964292871
 31
0.0
  0
LINE
  5
52B3
  8
YODOROGO
 10
28585.604341291921
 20
2027.749496429288
 30
0.0
 11
28657.604341291921
 21
2027.749496429288
 31
0.0
  0
LINE
  5
52B4
  8
YODOROGO
 10
28433.60434129191
 20
1707.749496429288
 30
0.0
 11
28433.60434129191
 21
1507.749496429288
 31
0.0
  0
LINE
  5
52B5
  8
YODOROGO
 10
28497.60434129191
 20
1563.7494964292871
 30
0.0
 11
28497.60434129191
 21
1707.749496429288
 31
0.0
  0
LINE
  5
52B6
  8
YODOROGO
 10
28585.604341291921
 20
1747.74949642929
 30
0.0
 11
28585.604341291921
 21
1547.749496429288
 31
0.0
  0
LINE
  5
52B7
  8
YODOROGO
 10
27857.604341291921
 20
1683.749496429288
 30
0.0
 11
27777.604341291921
 21
1619.9724140445701
 31
0.0
  0
LINE
  5
52B8
  8
YODOROGO
 10
27937.604341291921
 20
1619.9724140445701
 30
0.0
 11
27857.604341291921
 21
1683.749496429288
 31
0.0
  0
LINE
  5
52B9
  8
YODOROGO
 10
27857.604341291921
 20
1707.749496429288
 30
0.0
 11
27937.604341291921
 21
1643.9724140445701
 31
0.0
  0
LINE
  5
52BA
  8
YODOROGO
 10
27777.604341291921
 20
1643.9724140445701
 30
0.0
 11
27857.604341291921
 21
1707.749496429288
 31
0.0
  0
LINE
  5
52BB
  8
YODOROGO
 10
28040.913204016892
 20
1659.749496429288
 30
0.0
 11
28040.913204016892
 21
1683.7494964292871
 31
0.0
  0
LINE
  5
52BC
  8
YODOROGO
 10
27977.604341291921
 20
1683.7494964292871
 30
0.0
 11
27977.604341291921
 21
1667.749496429285
 31
0.0
  0
LINE
  5
52BD
  8
YODOROGO
 10
28098.135520230931
 20
1707.749496429288
 30
0.0
 11
28098.135520230931
 21
1655.5036372746561
 31
0.0
1001
AUTOCAD_POSTSCRIPT_FIGURE
1002
{
1000
PSFILL
1000
Grayscale
1000
Grayscale
1070
   100
1002
}
  0
LINE
  5
52BE
  8
YODOROGO
 10
28082.135520230921
 20
1655.5036372746561
 30
0.0
 11
28082.135520230921
 21
1707.749496429288
 31
0.0
1001
AUTOCAD_POSTSCRIPT_FIGURE
1002
{
1000
PSFILL
1000
Grayscale
1000
Grayscale
1070
   100
1002
}
  0
LINE
  5
52BF
  8
YODOROGO
 10
27809.604341291921
 20
1608.771904043258
 30
0.0
 11
27809.604341291921
 21
1632.771904043258
 31
0.0
  0
LINE
  5
52C0
  8
YODOROGO
 10
27905.604341291921
 20
1608.771904043258
 30
0.0
 11
27809.604341291921
 21
1608.771904043258
 31
0.0
  0
LINE
  5
52C1
  8
YODOROGO
 10
27905.604341291921
 20
1632.771904043258
 30
0.0
 11
27905.604341291921
 21
1608.771904043258
 31
0.0
  0
LINE
  5
52C2
  8
YODOROGO
 10
27809.604341291921
 20
1632.771904043258
 30
0.0
 11
27905.604341291921
 21
1632.771904043258
 31
0.0
  0
LINE
  5
52C3
  8
YODOROGO
 10
27824.509588915738
 20
1568.5028573704751
 30
0.0
 11
27785.604341291921
 21
1475.7494964292871
 31
0.0
1001
AUTOCAD_POSTSCRIPT_FIGURE
1002
{
1000
PSFILL
1000
Grayscale
1000
Grayscale
1070
   100
1002
}
  0
LINE
  5
52C4
  8
YODOROGO
 10
27777.604341291921
 20
1568.5028573704751
 30
0.0
 11
27824.509588915738
 21
1568.5028573704751
 31
0.0
1001
AUTOCAD_POSTSCRIPT_FIGURE
1002
{
1000
PSFILL
1000
Grayscale
1000
Grayscale
1070
   100
1002
}
  0
LINE
  5
52C5
  8
YODOROGO
 10
27777.604341291921
 20
1588.5028573704751
 30
0.0
 11
27777.604341291921
 21
1568.5028573704751
 31
0.0
1001
AUTOCAD_POSTSCRIPT_FIGURE
1002
{
1000
PSFILL
1000
Grayscale
1000
Grayscale
1070
   100
1002
}
  0
LINE
  5
52C6
  8
YODOROGO
 10
27937.604341291921
 20
1588.5028573704751
 30
0.0
 11
27777.604341291921
 21
1588.5028573704751
 31
0.0
1001
AUTOCAD_POSTSCRIPT_FIGURE
1002
{
1000
PSFILL
1000
Grayscale
1000
Grayscale
1070
   100
1002
}
  0
LINE
  5
52C7
  8
YODOROGO
 10
27937.604341291921
 20
1568.5028573704751
 30
0.0
 11
27937.604341291921
 21
1588.5028573704751
 31
0.0
1001
AUTOCAD_POSTSCRIPT_FIGURE
1002
{
1000
PSFILL
1000
Grayscale
1000
Grayscale
1070
   100
1002
}
  0
LINE
  5
52C8
  8
YODOROGO
 10
27844.509588915738
 20
1568.5028573704751
 30
0.0
 11
27937.604341291921
 21
1568.5028573704751
 31
0.0
1001
AUTOCAD_POSTSCRIPT_FIGURE
1002
{
1000
PSFILL
1000
Grayscale
1000
Grayscale
1070
   100
1002
}
  0
LINE
  5
52C9
  8
YODOROGO
 10
27815.546718284771
 20
1495.7494964292871
 30
0.0
 11
27844.509588915738
 21
1568.5028573704751
 31
0.0
1001
AUTOCAD_POSTSCRIPT_FIGURE
1002
{
1000
PSFILL
1000
Grayscale
1000
Grayscale
1070
   100
1002
}
  0
LINE
  5
52CA
  8
YODOROGO
 10
27902.054790808648
 20
1495.7494964292871
 30
0.0
 11
27815.546718284771
 21
1495.7494964292871
 31
0.0
1001
AUTOCAD_POSTSCRIPT_FIGURE
1002
{
1000
PSFILL
1000
Grayscale
1000
Grayscale
1070
   100
1002
}
  0
LINE
  5
52CB
  8
YODOROGO
 10
27885.065004790951
 20
1536.2338106976929
 30
0.0
 11
27902.054790808648
 21
1495.7494964292871
 31
0.0
1001
AUTOCAD_POSTSCRIPT_FIGURE
1002
{
1000
PSFILL
1000
Grayscale
1000
Grayscale
1070
   100
1002
}
  0
LINE
  5
52CC
  8
YODOROGO
 10
27901.065004790951
 20
1536.2338106976929
 30
0.0
 11
27885.065004790951
 21
1536.2338106976929
 31
0.0
1001
AUTOCAD_POSTSCRIPT_FIGURE
1002
{
1000
PSFILL
1000
Grayscale
1000
Grayscale
1070
   100
1002
}
  0
LINE
  5
52CD
  8
YODOROGO
 10
27929.604341291921
 20
1475.7494964292871
 30
0.0
 11
27901.065004790951
 21
1536.2338106976929
 31
0.0
1001
AUTOCAD_POSTSCRIPT_FIGURE
1002
{
1000
PSFILL
1000
Grayscale
1000
Grayscale
1070
   100
1002
}
  0
LINE
  5
52CE
  8
YODOROGO
 10
27785.604341291921
 20
1475.7494964292871
 30
0.0
 11
27929.604341291921
 21
1475.7494964292871
 31
0.0
1001
AUTOCAD_POSTSCRIPT_FIGURE
1002
{
1000
PSFILL
1000
Grayscale
1000
Grayscale
1070
   100
1002
}
  0
LINE
  5
52CF
  8
YODOROGO
 10
27777.604341291921
 20
1619.9724140445701
 30
0.0
 11
27777.604341291921
 21
1643.9724140445701
 31
0.0
  0
LINE
  5
52D0
  8
YODOROGO
 10
27937.604341291921
 20
1643.9724140445701
 30
0.0
 11
27937.604341291921
 21
1619.9724140445701
 31
0.0
  0
ARC
  5
52D1
  8
YODOROGO
 10
28225.940442146959
 20
1600.877765325326
 30
0.0
 40
175.9999999999998
 50
280.3644312771313
 51
3.5414836592180561
  0
ARC
  5
52D2
  8
YODOROGO
 10
28235.756030759301
 20
1633.5978069619041
 30
0.0
 40
111.9999999999982
 50
281.24905825041549
 51
348.75094174958321
  0
LINE
  5
52D3
  8
YODOROGO
 10
28257.604341291921
 20
1523.7494964292871
 30
0.0
 11
28257.604341291921
 21
1427.749496429288
 31
0.0
  0
LINE
  5
52D4
  8
YODOROGO
 10
28020.088903736909
 20
1610.650565061914
 30
0.0
 11
28040.913204016892
 21
1659.749496429288
 31
0.0
  0
LINE
  5
52D5
  8
YODOROGO
 10
28041.604341291921
 20
1583.120489948401
 30
0.0
 11
28020.088903736909
 21
1610.650565061914
 31
0.0
  0
LINE
  5
52D6
  8
YODOROGO
 10
28041.604341291921
 20
1563.120489948398
 30
0.0
 11
28041.604341291921
 21
1583.120489948401
 31
0.0
  0
LINE
  5
52D7
  8
YODOROGO
 10
28017.604341291921
 20
1585.2370637495301
 30
0.0
 11
28041.604341291921
 21
1563.120489948398
 31
0.0
  0
LINE
  5
52D8
  8
YODOROGO
 10
28017.604341291921
 20
1475.7494964292871
 30
0.0
 11
28017.604341291921
 21
1585.2370637495301
 31
0.0
  0
LINE
  5
52D9
  8
YODOROGO
 10
28001.604341291921
 20
1475.7494964292871
 30
0.0
 11
28017.604341291921
 21
1475.7494964292871
 31
0.0
  0
LINE
  5
52DA
  8
YODOROGO
 10
28001.604341291921
 20
1580.0053496897469
 30
0.0
 11
28001.604341291921
 21
1475.7494964292871
 31
0.0
  0
LINE
  5
52DB
  8
YODOROGO
 10
27977.604341291921
 20
1532.7680790334291
 30
0.0
 11
28001.604341291921
 21
1580.0053496897469
 31
0.0
  0
LINE
  5
52DC
  8
YODOROGO
 10
27977.604341291921
 20
1556.76807903343
 30
0.0
 11
27977.604341291921
 21
1532.7680790334291
 31
0.0
  0
LINE
  5
52DD
  8
YODOROGO
 10
28025.828774291349
 20
1667.749496429285
 30
0.0
 11
27977.604341291921
 21
1556.76807903343
 31
0.0
  0
LINE
  5
52DE
  8
YODOROGO
 10
27977.604341291921
 20
1667.749496429285
 30
0.0
 11
28025.828774291349
 21
1667.749496429285
 31
0.0
  0
LINE
  5
52DF
  8
YODOROGO
 10
28050.135520230899
 20
1655.5036372746561
 30
0.0
 11
28082.135520230921
 21
1655.5036372746561
 31
0.0
1001
AUTOCAD_POSTSCRIPT_FIGURE
1002
{
1000
PSFILL
1000
Grayscale
1000
Grayscale
1070
   100
1002
}
  0
LINE
  5
52E0
  8
YODOROGO
 10
28050.135520230899
 20
1631.5036372746561
 30
0.0
 11
28050.135520230899
 21
1655.5036372746561
 31
0.0
1001
AUTOCAD_POSTSCRIPT_FIGURE
1002
{
1000
PSFILL
1000
Grayscale
1000
Grayscale
1070
   100
1002
}
  0
LINE
  5
52E1
  8
YODOROGO
 10
28082.135520230921
 20
1631.5036372746561
 30
0.0
 11
28050.135520230899
 21
1631.5036372746561
 31
0.0
1001
AUTOCAD_POSTSCRIPT_FIGURE
1002
{
1000
PSFILL
1000
Grayscale
1000
Grayscale
1070
   100
1002
}
  0
LINE
  5
52E2
  8
YODOROGO
 10
28082.135520230921
 20
1499.749496429288
 30
0.0
 11
28082.135520230921
 21
1631.5036372746561
 31
0.0
1001
AUTOCAD_POSTSCRIPT_FIGURE
1002
{
1000
PSFILL
1000
Grayscale
1000
Grayscale
1070
   100
1002
}
  0
LINE
  5
52E3
  8
YODOROGO
 10
28050.135520230921
 20
1499.749496429288
 30
0.0
 11
28082.135520230921
 21
1499.749496429288
 31
0.0
1001
AUTOCAD_POSTSCRIPT_FIGURE
1002
{
1000
PSFILL
1000
Grayscale
1000
Grayscale
1070
   100
1002
}
  0
LINE
  5
52E4
  8
YODOROGO
 10
28050.135520230921
 20
1475.7494964292871
 30
0.0
 11
28050.135520230921
 21
1499.749496429288
 31
0.0
1001
AUTOCAD_POSTSCRIPT_FIGURE
1002
{
1000
PSFILL
1000
Grayscale
1000
Grayscale
1070
   100
1002
}
  0
LINE
  5
52E5
  8
YODOROGO
 10
28137.604341291921
 20
1475.7494964292871
 30
0.0
 11
28050.135520230921
 21
1475.7494964292871
 31
0.0
1001
AUTOCAD_POSTSCRIPT_FIGURE
1002
{
1000
PSFILL
1000
Grayscale
1000
Grayscale
1070
   100
1002
}
  0
LINE
  5
52E6
  8
YODOROGO
 10
28137.604341291921
 20
1499.749496429288
 30
0.0
 11
28137.604341291921
 21
1475.7494964292871
 31
0.0
1001
AUTOCAD_POSTSCRIPT_FIGURE
1002
{
1000
PSFILL
1000
Grayscale
1000
Grayscale
1070
   100
1002
}
  0
LINE
  5
52E7
  8
YODOROGO
 10
28098.135520230931
 20
1499.749496429288
 30
0.0
 11
28137.604341291921
 21
1499.749496429288
 31
0.0
1001
AUTOCAD_POSTSCRIPT_FIGURE
1002
{
1000
PSFILL
1000
Grayscale
1000
Grayscale
1070
   100
1002
}
  0
LINE
  5
52E8
  8
YODOROGO
 10
28098.135520230931
 20
1631.5036372746561
 30
0.0
 11
28098.135520230931
 21
1499.749496429288
 31
0.0
1001
AUTOCAD_POSTSCRIPT_FIGURE
1002
{
1000
PSFILL
1000
Grayscale
1000
Grayscale
1070
   100
1002
}
  0
LINE
  5
52E9
  8
YODOROGO
 10
28137.604341291921
 20
1631.5036372746561
 30
0.0
 11
28098.135520230931
 21
1631.5036372746561
 31
0.0
1001
AUTOCAD_POSTSCRIPT_FIGURE
1002
{
1000
PSFILL
1000
Grayscale
1000
Grayscale
1070
   100
1002
}
  0
LINE
  5
52EA
  8
YODOROGO
 10
28137.604341291921
 20
1655.5036372746561
 30
0.0
 11
28137.604341291921
 21
1631.5036372746561
 31
0.0
1001
AUTOCAD_POSTSCRIPT_FIGURE
1002
{
1000
PSFILL
1000
Grayscale
1000
Grayscale
1070
   100
1002
}
  0
LINE
  5
52EB
  8
YODOROGO
 10
28098.135520230931
 20
1655.5036372746561
 30
0.0
 11
28137.604341291921
 21
1655.5036372746561
 31
0.0
1001
AUTOCAD_POSTSCRIPT_FIGURE
1002
{
1000
PSFILL
1000
Grayscale
1000
Grayscale
1070
   100
1002
}
  0
LINE
  5
52EC
  8
YODOROGO
 10
28401.60434129191
 20
1667.749496429288
 30
0.0
 11
28345.604341291921
 21
1667.749496429288
 31
0.0
  0
LINE
  5
52ED
  8
YODOROGO
 10
28401.60434129191
 20
1611.749496429288
 30
0.0
 11
28401.60434129191
 21
1667.749496429288
 31
0.0
  0
LINE
  5
52EE
  8
YODOROGO
 10
28345.604341291921
 20
1667.749496429288
 30
0.0
 11
28345.604341291921
 21
1611.749496429288
 31
0.0
  0
ARC
  5
52EF
  8
YODOROGO
 10
28513.60434129191
 20
1507.749496429288
 30
0.0
 40
80.0
 50
180.0
 51
270.0
  0
ARC
  5
52F0
  8
YODOROGO
 10
28537.604341291921
 20
1563.7494964292871
 30
0.0
 40
40.0
 50
180.0
 51
270.0
  0
LINE
  5
52F1
  8
YODOROGO
 10
28561.604341291932
 20
1523.7494964292871
 30
0.0
 11
28537.604341291921
 21
1523.7494964292871
 31
0.0
  0
ARC
  5
52F2
  8
YODOROGO
 10
28561.604341291932
 20
1547.749496429285
 30
0.0
 40
23.999999999996358
 50
270.0
 51
0.0000000000054281
  0
LINE
  5
52F3
  8
YODOROGO
 10
27801.604341291921
 20
1890.786580793706
 30
0.0
 11
27777.604341291921
 21
1843.776747951672
 31
0.0
1001
AUTOCAD_POSTSCRIPT_FIGURE
1002
{
1000
PSFILL
1000
Grayscale
1000
Grayscale
1070
   100
1002
}
  0
LINE
  5
52F4
  8
YODOROGO
 10
27801.604341291921
 20
1747.749496429286
 30
0.0
 11
27801.604341291921
 21
1890.786580793706
 31
0.0
1001
AUTOCAD_POSTSCRIPT_FIGURE
1002
{
1000
PSFILL
1000
Grayscale
1000
Grayscale
1070
   100
1002
}
  0
LINE
  5
52F5
  8
YODOROGO
 10
27817.604341291921
 20
1747.749496429286
 30
0.0
 11
27801.604341291921
 21
1747.749496429286
 31
0.0
1001
AUTOCAD_POSTSCRIPT_FIGURE
1002
{
1000
PSFILL
1000
Grayscale
1000
Grayscale
1070
   100
1002
}
  0
LINE
  5
52F6
  8
YODOROGO
 10
27817.604341291921
 20
1893.7713320852661
 30
0.0
 11
27817.604341291921
 21
1747.749496429286
 31
0.0
1001
AUTOCAD_POSTSCRIPT_FIGURE
1002
{
1000
PSFILL
1000
Grayscale
1000
Grayscale
1070
   100
1002
}
  0
LINE
  5
52F7
  8
YODOROGO
 10
27841.604341291921
 20
1867.6547582841361
 30
0.0
 11
27817.604341291921
 21
1893.7713320852661
 31
0.0
1001
AUTOCAD_POSTSCRIPT_FIGURE
1002
{
1000
PSFILL
1000
Grayscale
1000
Grayscale
1070
   100
1002
}
  0
LINE
  5
52F8
  8
YODOROGO
 10
27841.604341291921
 20
1883.6547582841361
 30
0.0
 11
27841.604341291921
 21
1867.6547582841361
 31
0.0
1001
AUTOCAD_POSTSCRIPT_FIGURE
1002
{
1000
PSFILL
1000
Grayscale
1000
Grayscale
1070
   100
1002
}
  0
LINE
  5
52F9
  8
YODOROGO
 10
27817.604341291921
 20
1917.7713320852649
 30
0.0
 11
27841.604341291921
 21
1883.6547582841361
 31
0.0
1001
AUTOCAD_POSTSCRIPT_FIGURE
1002
{
1000
PSFILL
1000
Grayscale
1000
Grayscale
1070
   100
1002
}
  0
LINE
  5
52FA
  8
YODOROGO
 10
27817.604341291921
 20
1939.749496429288
 30
0.0
 11
27817.604341291921
 21
1917.7713320852649
 31
0.0
1001
AUTOCAD_POSTSCRIPT_FIGURE
1002
{
1000
PSFILL
1000
Grayscale
1000
Grayscale
1070
   100
1002
}
  0
LINE
  5
52FB
  8
YODOROGO
 10
27889.604341291921
 20
1939.749496429288
 30
0.0
 11
27817.604341291921
 21
1939.749496429288
 31
0.0
1001
AUTOCAD_POSTSCRIPT_FIGURE
1002
{
1000
PSFILL
1000
Grayscale
1000
Grayscale
1070
   100
1002
}
  0
LINE
  5
52FC
  8
YODOROGO
 10
27889.604341291921
 20
1900.5683489363
 30
0.0
 11
27889.604341291921
 21
1939.749496429288
 31
0.0
1001
AUTOCAD_POSTSCRIPT_FIGURE
1002
{
1000
PSFILL
1000
Grayscale
1000
Grayscale
1070
   100
1002
}
  0
LINE
  5
52FD
  8
YODOROGO
 10
27857.604341291921
 20
1900.5683489363
 30
0.0
 11
27889.604341291921
 21
1900.5683489363
 31
0.0
1001
AUTOCAD_POSTSCRIPT_FIGURE
1002
{
1000
PSFILL
1000
Grayscale
1000
Grayscale
1070
   100
1002
}
  0
LINE
  5
52FE
  8
YODOROGO
 10
27857.604341291921
 20
1884.568348936298
 30
0.0
 11
27857.604341291921
 21
1900.5683489363
 31
0.0
1001
AUTOCAD_POSTSCRIPT_FIGURE
1002
{
1000
PSFILL
1000
Grayscale
1000
Grayscale
1070
   100
1002
}
  0
LINE
  5
52FF
  8
YODOROGO
 10
27889.604341291921
 20
1884.568348936298
 30
0.0
 11
27857.604341291921
 21
1884.568348936298
 31
0.0
1001
AUTOCAD_POSTSCRIPT_FIGURE
1002
{
1000
PSFILL
1000
Grayscale
1000
Grayscale
1070
   100
1002
}
  0
LINE
  5
5300
  8
YODOROGO
 10
27889.604341291921
 20
1879.6191779644371
 30
0.0
 11
27889.604341291921
 21
1884.568348936298
 31
0.0
1001
AUTOCAD_POSTSCRIPT_FIGURE
1002
{
1000
PSFILL
1000
Grayscale
1000
Grayscale
1070
   100
1002
}
  0
LINE
  5
5301
  8
YODOROGO
 10
27849.604341291921
 20
1812.974981161417
 30
0.0
 11
27889.604341291921
 21
1879.6191779644371
 31
0.0
1001
AUTOCAD_POSTSCRIPT_FIGURE
1002
{
1000
PSFILL
1000
Grayscale
1000
Grayscale
1070
   100
1002
}
  0
LINE
  5
5302
  8
YODOROGO
 10
27849.604341291921
 20
1796.9749811614161
 30
0.0
 11
27849.604341291921
 21
1812.974981161417
 31
0.0
1001
AUTOCAD_POSTSCRIPT_FIGURE
1002
{
1000
PSFILL
1000
Grayscale
1000
Grayscale
1070
   100
1002
}
  0
LINE
  5
5303
  8
YODOROGO
 10
27889.604341291921
 20
1847.6191779644359
 30
0.0
 11
27849.604341291921
 21
1796.9749811614161
 31
0.0
1001
AUTOCAD_POSTSCRIPT_FIGURE
1002
{
1000
PSFILL
1000
Grayscale
1000
Grayscale
1070
   100
1002
}
  0
LINE
  5
5304
  8
YODOROGO
 10
27889.604341291921
 20
1747.749496429286
 30
0.0
 11
27889.604341291921
 21
1847.6191779644359
 31
0.0
1001
AUTOCAD_POSTSCRIPT_FIGURE
1002
{
1000
PSFILL
1000
Grayscale
1000
Grayscale
1070
   100
1002
}
  0
LINE
  5
5305
  8
YODOROGO
 10
27905.604341291921
 20
1747.749496429286
 30
0.0
 11
27889.604341291921
 21
1747.749496429286
 31
0.0
1001
AUTOCAD_POSTSCRIPT_FIGURE
1002
{
1000
PSFILL
1000
Grayscale
1000
Grayscale
1070
   100
1002
}
  0
LINE
  5
5306
  8
YODOROGO
 10
27905.604341291921
 20
1849.409012158806
 30
0.0
 11
27905.604341291921
 21
1747.749496429286
 31
0.0
1001
AUTOCAD_POSTSCRIPT_FIGURE
1002
{
1000
PSFILL
1000
Grayscale
1000
Grayscale
1070
   100
1002
}
  0
LINE
  5
5307
  8
YODOROGO
 10
27937.604341291921
 20
1796.9749811614161
 30
0.0
 11
27905.604341291921
 21
1849.409012158806
 31
0.0
1001
AUTOCAD_POSTSCRIPT_FIGURE
1002
{
1000
PSFILL
1000
Grayscale
1000
Grayscale
1070
   100
1002
}
  0
LINE
  5
5308
  8
YODOROGO
 10
27937.604341291921
 20
1812.974981161417
 30
0.0
 11
27937.604341291921
 21
1796.9749811614161
 31
0.0
1001
AUTOCAD_POSTSCRIPT_FIGURE
1002
{
1000
PSFILL
1000
Grayscale
1000
Grayscale
1070
   100
1002
}
  0
LINE
  5
5309
  8
YODOROGO
 10
27905.604341291921
 20
1881.4090121588081
 30
0.0
 11
27937.604341291921
 21
1812.974981161417
 31
0.0
1001
AUTOCAD_POSTSCRIPT_FIGURE
1002
{
1000
PSFILL
1000
Grayscale
1000
Grayscale
1070
   100
1002
}
  0
LINE
  5
530A
  8
YODOROGO
 10
27905.604341291921
 20
1884.5683489363
 30
0.0
 11
27905.604341291921
 21
1881.4090121588081
 31
0.0
1001
AUTOCAD_POSTSCRIPT_FIGURE
1002
{
1000
PSFILL
1000
Grayscale
1000
Grayscale
1070
   100
1002
}
  0
LINE
  5
530B
  8
YODOROGO
 10
27937.604341291921
 20
1884.568348936298
 30
0.0
 11
27905.604341291921
 21
1884.5683489363
 31
0.0
1001
AUTOCAD_POSTSCRIPT_FIGURE
1002
{
1000
PSFILL
1000
Grayscale
1000
Grayscale
1070
   100
1002
}
  0
LINE
  5
530C
  8
YODOROGO
 10
27937.604341291921
 20
1900.5683489363
 30
0.0
 11
27937.604341291921
 21
1884.568348936298
 31
0.0
1001
AUTOCAD_POSTSCRIPT_FIGURE
1002
{
1000
PSFILL
1000
Grayscale
1000
Grayscale
1070
   100
1002
}
  0
LINE
  5
530D
  8
YODOROGO
 10
27905.604341291921
 20
1900.5683489363
 30
0.0
 11
27937.604341291921
 21
1900.5683489363
 31
0.0
1001
AUTOCAD_POSTSCRIPT_FIGURE
1002
{
1000
PSFILL
1000
Grayscale
1000
Grayscale
1070
   100
1002
}
  0
LINE
  5
530E
  8
YODOROGO
 10
27905.604341291921
 20
1939.749496429288
 30
0.0
 11
27905.604341291921
 21
1900.5683489363
 31
0.0
1001
AUTOCAD_POSTSCRIPT_FIGURE
1002
{
1000
PSFILL
1000
Grayscale
1000
Grayscale
1070
   100
1002
}
  0
LINE
  5
530F
  8
YODOROGO
 10
27937.604341291921
 20
1939.749496429288
 30
0.0
 11
27905.604341291921
 21
1939.749496429288
 31
0.0
1001
AUTOCAD_POSTSCRIPT_FIGURE
1002
{
1000
PSFILL
1000
Grayscale
1000
Grayscale
1070
   100
1002
}
  0
LINE
  5
5310
  8
YODOROGO
 10
27937.604341291921
 20
1955.7494964292871
 30
0.0
 11
27937.604341291921
 21
1939.749496429288
 31
0.0
1001
AUTOCAD_POSTSCRIPT_FIGURE
1002
{
1000
PSFILL
1000
Grayscale
1000
Grayscale
1070
   100
1002
}
  0
LINE
  5
5311
  8
YODOROGO
 10
27905.604341291921
 20
1955.7494964292871
 30
0.0
 11
27937.604341291921
 21
1955.7494964292871
 31
0.0
1001
AUTOCAD_POSTSCRIPT_FIGURE
1002
{
1000
PSFILL
1000
Grayscale
1000
Grayscale
1070
   100
1002
}
  0
LINE
  5
5312
  8
YODOROGO
 10
27905.604341291921
 20
1979.749496429288
 30
0.0
 11
27905.604341291921
 21
1955.7494964292871
 31
0.0
1001
AUTOCAD_POSTSCRIPT_FIGURE
1002
{
1000
PSFILL
1000
Grayscale
1000
Grayscale
1070
   100
1002
}
  0
LINE
  5
5313
  8
YODOROGO
 10
27889.604341291921
 20
1979.749496429288
 30
0.0
 11
27905.604341291921
 21
1979.749496429288
 31
0.0
1001
AUTOCAD_POSTSCRIPT_FIGURE
1002
{
1000
PSFILL
1000
Grayscale
1000
Grayscale
1070
   100
1002
}
  0
LINE
  5
5314
  8
YODOROGO
 10
27889.604341291921
 20
1955.7494964292871
 30
0.0
 11
27889.604341291921
 21
1979.749496429288
 31
0.0
1001
AUTOCAD_POSTSCRIPT_FIGURE
1002
{
1000
PSFILL
1000
Grayscale
1000
Grayscale
1070
   100
1002
}
  0
LINE
  5
5315
  8
YODOROGO
 10
27865.604341291921
 20
1955.7494964292871
 30
0.0
 11
27889.604341291921
 21
1955.7494964292871
 31
0.0
1001
AUTOCAD_POSTSCRIPT_FIGURE
1002
{
1000
PSFILL
1000
Grayscale
1000
Grayscale
1070
   100
1002
}
  0
LINE
  5
5316
  8
YODOROGO
 10
27865.604341291921
 20
1979.749496429288
 30
0.0
 11
27865.604341291921
 21
1955.7494964292871
 31
0.0
1001
AUTOCAD_POSTSCRIPT_FIGURE
1002
{
1000
PSFILL
1000
Grayscale
1000
Grayscale
1070
   100
1002
}
  0
LINE
  5
5317
  8
YODOROGO
 10
27849.604341291921
 20
1979.749496429288
 30
0.0
 11
27865.604341291921
 21
1979.749496429288
 31
0.0
1001
AUTOCAD_POSTSCRIPT_FIGURE
1002
{
1000
PSFILL
1000
Grayscale
1000
Grayscale
1070
   100
1002
}
  0
LINE
  5
5318
  8
YODOROGO
 10
27849.604341291921
 20
1955.7494964292871
 30
0.0
 11
27849.604341291921
 21
1979.749496429288
 31
0.0
1001
AUTOCAD_POSTSCRIPT_FIGURE
1002
{
1000
PSFILL
1000
Grayscale
1000
Grayscale
1070
   100
1002
}
  0
LINE
  5
5319
  8
YODOROGO
 10
27817.604341291921
 20
1955.7494964292871
 30
0.0
 11
27849.604341291921
 21
1955.7494964292871
 31
0.0
1001
AUTOCAD_POSTSCRIPT_FIGURE
1002
{
1000
PSFILL
1000
Grayscale
1000
Grayscale
1070
   100
1002
}
  0
LINE
  5
531A
  8
YODOROGO
 10
27817.604341291921
 20
1979.749496429288
 30
0.0
 11
27817.604341291921
 21
1955.7494964292871
 31
0.0
1001
AUTOCAD_POSTSCRIPT_FIGURE
1002
{
1000
PSFILL
1000
Grayscale
1000
Grayscale
1070
   100
1002
}
  0
LINE
  5
531B
  8
YODOROGO
 10
27801.604341291921
 20
1979.749496429288
 30
0.0
 11
27817.604341291921
 21
1979.749496429288
 31
0.0
1001
AUTOCAD_POSTSCRIPT_FIGURE
1002
{
1000
PSFILL
1000
Grayscale
1000
Grayscale
1070
   100
1002
}
  0
LINE
  5
531C
  8
YODOROGO
 10
27801.604341291921
 20
1955.7494964292871
 30
0.0
 11
27801.604341291921
 21
1979.749496429288
 31
0.0
1001
AUTOCAD_POSTSCRIPT_FIGURE
1002
{
1000
PSFILL
1000
Grayscale
1000
Grayscale
1070
   100
1002
}
  0
LINE
  5
531D
  8
YODOROGO
 10
27777.604341291921
 20
1955.7494964292871
 30
0.0
 11
27801.604341291921
 21
1955.7494964292871
 31
0.0
1001
AUTOCAD_POSTSCRIPT_FIGURE
1002
{
1000
PSFILL
1000
Grayscale
1000
Grayscale
1070
   100
1002
}
  0
LINE
  5
531E
  8
YODOROGO
 10
27777.604341291921
 20
1939.749496429288
 30
0.0
 11
27777.604341291921
 21
1955.7494964292871
 31
0.0
1001
AUTOCAD_POSTSCRIPT_FIGURE
1002
{
1000
PSFILL
1000
Grayscale
1000
Grayscale
1070
   100
1002
}
  0
LINE
  5
531F
  8
YODOROGO
 10
27801.604341291921
 20
1939.749496429288
 30
0.0
 11
27777.604341291921
 21
1939.749496429288
 31
0.0
1001
AUTOCAD_POSTSCRIPT_FIGURE
1002
{
1000
PSFILL
1000
Grayscale
1000
Grayscale
1070
   100
1002
}
  0
LINE
  5
5320
  8
YODOROGO
 10
27801.604341291921
 20
1914.7865807937051
 30
0.0
 11
27801.604341291921
 21
1939.749496429288
 31
0.0
1001
AUTOCAD_POSTSCRIPT_FIGURE
1002
{
1000
PSFILL
1000
Grayscale
1000
Grayscale
1070
   100
1002
}
  0
LINE
  5
5321
  8
YODOROGO
 10
27777.604341291921
 20
1859.776747951671
 30
0.0
 11
27801.604341291921
 21
1914.7865807937051
 31
0.0
1001
AUTOCAD_POSTSCRIPT_FIGURE
1002
{
1000
PSFILL
1000
Grayscale
1000
Grayscale
1070
   100
1002
}
  0
LINE
  5
5322
  8
YODOROGO
 10
27777.604341291921
 20
1843.776747951672
 30
0.0
 11
27777.604341291921
 21
1859.776747951671
 31
0.0
1001
AUTOCAD_POSTSCRIPT_FIGURE
1002
{
1000
PSFILL
1000
Grayscale
1000
Grayscale
1070
   100
1002
}
  0
LINE
  5
5323
  8
YODOROGO
 10
28257.604341291921
 20
1867.7494964292871
 30
0.0
 11
28401.60434129191
 21
1824.877625640306
 31
0.0
1001
AUTOCAD_POSTSCRIPT_FIGURE
1002
{
1000
PSFILL
1000
Grayscale
1000
Grayscale
1070
   100
1002
}
  0
LINE
  5
5324
  8
YODOROGO
 10
28401.60434129191
 20
1752.877625640306
 30
0.0
 11
28257.604341291921
 21
1795.7494964292871
 31
0.0
1001
AUTOCAD_POSTSCRIPT_FIGURE
1002
{
1000
PSFILL
1000
Grayscale
1000
Grayscale
1070
   100
1002
}
  0
LINE
  5
5325
  8
YODOROGO
 10
28401.60434129191
 20
1984.877625640306
 30
0.0
 11
28257.604341291921
 21
2027.749496429288
 31
0.0
1001
AUTOCAD_POSTSCRIPT_FIGURE
1002
{
1000
PSFILL
1000
Grayscale
1000
Grayscale
1070
   100
1002
}
  0
LINE
  5
5326
  8
YODOROGO
 10
28257.604341291921
 20
1959.749496429288
 30
0.0
 11
28401.60434129191
 21
1916.8776256403071
 31
0.0
1001
AUTOCAD_POSTSCRIPT_FIGURE
1002
{
1000
PSFILL
1000
Grayscale
1000
Grayscale
1070
   100
1002
}
  0
LINE
  5
5327
  8
YODOROGO
 10
28257.604341291921
 20
1795.7494964292871
 30
0.0
 11
28257.604341291921
 21
1867.7494964292871
 31
0.0
1001
AUTOCAD_POSTSCRIPT_FIGURE
1002
{
1000
PSFILL
1000
Grayscale
1000
Grayscale
1070
   100
1002
}
  0
LINE
  5
5328
  8
YODOROGO
 10
28257.604341291921
 20
2027.749496429288
 30
0.0
 11
28257.604341291921
 21
1959.749496429288
 31
0.0
1001
AUTOCAD_POSTSCRIPT_FIGURE
1002
{
1000
PSFILL
1000
Grayscale
1000
Grayscale
1070
   100
1002
}
  0
LINE
  5
5329
  8
YODOROGO
 10
28080.236320206739
 20
1939.749496429288
 30
0.0
 11
28129.60434129191
 21
1747.749496429286
 31
0.0
1001
AUTOCAD_POSTSCRIPT_FIGURE
1002
{
1000
PSFILL
1000
Grayscale
1000
Grayscale
1070
   100
1002
}
  0
LINE
  5
532A
  8
YODOROGO
 10
27977.604341291921
 20
1939.749496429288
 30
0.0
 11
28080.236320206739
 21
1939.749496429288
 31
0.0
1001
AUTOCAD_POSTSCRIPT_FIGURE
1002
{
1000
PSFILL
1000
Grayscale
1000
Grayscale
1070
   100
1002
}
  0
LINE
  5
532B
  8
YODOROGO
 10
27977.604341291921
 20
1955.7494964292871
 30
0.0
 11
27977.604341291921
 21
1939.749496429288
 31
0.0
1001
AUTOCAD_POSTSCRIPT_FIGURE
1002
{
1000
PSFILL
1000
Grayscale
1000
Grayscale
1070
   100
1002
}
  0
LINE
  5
532C
  8
YODOROGO
 10
28076.60687851991
 20
1955.7494964292871
 30
0.0
 11
27977.604341291921
 21
1955.7494964292871
 31
0.0
1001
AUTOCAD_POSTSCRIPT_FIGURE
1002
{
1000
PSFILL
1000
Grayscale
1000
Grayscale
1070
   100
1002
}
  0
LINE
  5
532D
  8
YODOROGO
 10
28071.162715989711
 20
1979.749496429288
 30
0.0
 11
28076.60687851991
 21
1955.7494964292871
 31
0.0
1001
AUTOCAD_POSTSCRIPT_FIGURE
1002
{
1000
PSFILL
1000
Grayscale
1000
Grayscale
1070
   100
1002
}
  0
LINE
  5
532E
  8
YODOROGO
 10
28091.162715989711
 20
1979.749496429288
 30
0.0
 11
28071.162715989711
 21
1979.749496429288
 31
0.0
1001
AUTOCAD_POSTSCRIPT_FIGURE
1002
{
1000
PSFILL
1000
Grayscale
1000
Grayscale
1070
   100
1002
}
  0
LINE
  5
532F
  8
YODOROGO
 10
28095.806878519939
 20
1955.7494964292871
 30
0.0
 11
28091.162715989711
 21
1979.749496429288
 31
0.0
1001
AUTOCAD_POSTSCRIPT_FIGURE
1002
{
1000
PSFILL
1000
Grayscale
1000
Grayscale
1070
   100
1002
}
  0
LINE
  5
5330
  8
YODOROGO
 10
28121.604341291921
 20
1955.7494964292871
 30
0.0
 11
28095.806878519939
 21
1955.7494964292871
 31
0.0
1001
AUTOCAD_POSTSCRIPT_FIGURE
1002
{
1000
PSFILL
1000
Grayscale
1000
Grayscale
1070
   100
1002
}
  0
LINE
  5
5331
  8
YODOROGO
 10
28121.604341291921
 20
1979.749496429288
 30
0.0
 11
28121.604341291921
 21
1955.7494964292871
 31
0.0
1001
AUTOCAD_POSTSCRIPT_FIGURE
1002
{
1000
PSFILL
1000
Grayscale
1000
Grayscale
1070
   100
1002
}
  0
LINE
  5
5332
  8
YODOROGO
 10
28137.604341291921
 20
1979.749496429288
 30
0.0
 11
28121.604341291921
 21
1979.749496429288
 31
0.0
1001
AUTOCAD_POSTSCRIPT_FIGURE
1002
{
1000
PSFILL
1000
Grayscale
1000
Grayscale
1070
   100
1002
}
  0
LINE
  5
5333
  8
YODOROGO
 10
28137.604341291921
 20
1955.7494964292871
 30
0.0
 11
28137.604341291921
 21
1979.749496429288
 31
0.0
1001
AUTOCAD_POSTSCRIPT_FIGURE
1002
{
1000
PSFILL
1000
Grayscale
1000
Grayscale
1070
   100
1002
}
  0
LINE
  5
5334
  8
YODOROGO
 10
28137.604341291921
 20
1939.749496429288
 30
0.0
 11
28137.604341291921
 21
1955.7494964292871
 31
0.0
1001
AUTOCAD_POSTSCRIPT_FIGURE
1002
{
1000
PSFILL
1000
Grayscale
1000
Grayscale
1070
   100
1002
}
  0
LINE
  5
5335
  8
YODOROGO
 10
28098.902986873411
 20
1939.749496429288
 30
0.0
 11
28137.604341291921
 21
1939.749496429288
 31
0.0
1001
AUTOCAD_POSTSCRIPT_FIGURE
1002
{
1000
PSFILL
1000
Grayscale
1000
Grayscale
1070
   100
1002
}
  0
LINE
  5
5336
  8
YODOROGO
 10
28137.604341291921
 20
1747.749496429286
 30
0.0
 11
28098.902986873411
 21
1939.749496429288
 31
0.0
1001
AUTOCAD_POSTSCRIPT_FIGURE
1002
{
1000
PSFILL
1000
Grayscale
1000
Grayscale
1070
   100
1002
}
  0
LINE
  5
5337
  8
YODOROGO
 10
28129.60434129191
 20
1747.749496429286
 30
0.0
 11
28137.604341291921
 21
1747.749496429286
 31
0.0
1001
AUTOCAD_POSTSCRIPT_FIGURE
1002
{
1000
PSFILL
1000
Grayscale
1000
Grayscale
1070
   100
1002
}
  0
LINE
  5
5338
  8
YODOROGO
 10
28078.06921993379
 20
1775.7407762987939
 30
0.0
 11
27977.604341291921
 21
1747.749496429286
 31
0.0
  0
LINE
  5
5339
  8
YODOROGO
 10
28078.06921993379
 20
1798.6689795290731
 30
0.0
 11
28078.06921993379
 21
1775.7407762987939
 31
0.0
  0
LINE
  5
533A
  8
YODOROGO
 10
28033.83678061287
 20
1786.816933133767
 30
0.0
 11
28078.06921993379
 21
1798.6689795290731
 31
0.0
  0
LINE
  5
533B
  8
YODOROGO
 10
28033.83678061287
 20
1872.5683489362989
 30
0.0
 11
28033.83678061287
 21
1786.816933133767
 31
0.0
  0
LINE
  5
533C
  8
YODOROGO
 10
28078.06921993379
 20
1872.5683489362989
 30
0.0
 11
28033.83678061287
 21
1872.5683489362989
 31
0.0
  0
LINE
  5
533D
  8
YODOROGO
 10
28078.06921993379
 20
1892.568348936298
 30
0.0
 11
28078.06921993379
 21
1872.5683489362989
 31
0.0
  0
LINE
  5
533E
  8
YODOROGO
 10
27977.604341291921
 20
1892.568348936298
 30
0.0
 11
28078.06921993379
 21
1892.568348936298
 31
0.0
  0
LINE
  5
533F
  8
YODOROGO
 10
27977.604341291921
 20
1872.5683489362989
 30
0.0
 11
27977.604341291921
 21
1892.568348936298
 31
0.0
  0
LINE
  5
5340
  8
YODOROGO
 10
28021.836780612852
 20
1872.5683489362989
 30
0.0
 11
27977.604341291921
 21
1872.5683489362989
 31
0.0
  0
LINE
  5
5341
  8
YODOROGO
 10
28021.836780612852
 20
1784.673339594317
 30
0.0
 11
28021.836780612852
 21
1872.5683489362989
 31
0.0
  0
LINE
  5
5342
  8
YODOROGO
 10
27977.604341291921
 20
1771.749496429286
 30
0.0
 11
28021.836780612852
 21
1784.673339594317
 31
0.0
  0
LINE
  5
5343
  8
YODOROGO
 10
27977.604341291921
 20
1747.749496429286
 30
0.0
 11
27977.604341291921
 21
1771.749496429286
 31
0.0
  0
LINE
  5
5344
  8
YODOROGO
 10
28001.604341291921
 20
1707.749496429288
 30
0.0
 11
28001.604341291921
 21
1683.7494964292871
 31
0.0
  0
LINE
  5
5345
  8
YODOROGO
 10
28017.604341291921
 20
1707.749496429288
 30
0.0
 11
28001.604341291921
 21
1707.749496429288
 31
0.0
  0
LINE
  5
5346
  8
YODOROGO
 10
28017.604341291921
 20
1683.7494964292871
 30
0.0
 11
28017.604341291921
 21
1707.749496429288
 31
0.0
  0
LINE
  5
5347
  8
YODOROGO
 10
28040.913204016892
 20
1683.7494964292871
 30
0.0
 11
28017.604341291921
 21
1683.7494964292871
 31
0.0
  0
LINE
  5
5348
  8
YODOROGO
 10
28001.604341291921
 20
1683.7494964292871
 30
0.0
 11
27977.604341291921
 21
1683.7494964292871
 31
0.0
  0
LINE
  5
5349
  8
YODOROGO
 10
28082.135520230921
 20
1707.749496429288
 30
0.0
 11
28098.135520230931
 21
1707.749496429288
 31
0.0
1001
AUTOCAD_POSTSCRIPT_FIGURE
1002
{
1000
PSFILL
1000
Grayscale
1000
Grayscale
1070
   100
1002
}
  0
LINE
  5
534A
  8
YODOROGO
 10
28401.60434129191
 20
1824.877625640306
 30
0.0
 11
28401.60434129191
 21
1752.877625640306
 31
0.0
1001
AUTOCAD_POSTSCRIPT_FIGURE
1002
{
1000
PSFILL
1000
Grayscale
1000
Grayscale
1070
   100
1002
}
  0
LINE
  5
534B
  8
YODOROGO
 10
28401.60434129191
 20
1916.8776256403071
 30
0.0
 11
28401.60434129191
 21
1984.877625640306
 31
0.0
1001
AUTOCAD_POSTSCRIPT_FIGURE
1002
{
1000
PSFILL
1000
Grayscale
1000
Grayscale
1070
   100
1002
}
  0
LINE
  5
534C
  8
YODOROGO
 10
28433.60434129191
 20
1819.7494964292871
 30
0.0
 11
28433.60434129191
 21
1747.74949642929
 31
0.0
  0
LINE
  5
534D
  8
YODOROGO
 10
28497.60434129191
 20
1707.749496429288
 30
0.0
 11
28433.60434129191
 21
1707.749496429288
 31
0.0
  0
LINE
  5
534E
  8
YODOROGO
 10
28433.60434129191
 20
1747.74949642929
 30
0.0
 11
28585.604341291921
 21
1747.74949642929
 31
0.0
  0
LINE
  5
534F
  8
YODOROGO
 10
28497.60434129191
 20
1867.7494964292871
 30
0.0
 11
28433.60434129191
 21
1867.7494964292871
 31
0.0
  0
LINE
  5
5350
  8
YODOROGO
 10
28497.60434129191
 20
1923.7494964292871
 30
0.0
 11
28497.60434129191
 21
1867.7494964292871
 31
0.0
  0
LINE
  5
5351
  8
YODOROGO
 10
28585.604341291921
 20
1987.7494964292871
 30
0.0
 11
28585.604341291921
 21
2027.749496429288
 31
0.0
  0
LINE
  5
5352
  8
YODOROGO
 10
28433.60434129191
 20
1987.7494964292871
 30
0.0
 11
28585.604341291921
 21
1987.7494964292871
 31
0.0
  0
LINE
  5
5353
  8
YODOROGO
 10
28433.60434129191
 20
1867.7494964292871
 30
0.0
 11
28433.60434129191
 21
1987.7494964292871
 31
0.0
  0
LINE
  5
5354
  8
YODOROGO
 10
29001.60434129191
 20
2027.749496429288
 30
0.0
 11
29001.60434129191
 21
1619.749496429288
 31
0.0
  0
LINE
  5
5355
  8
YODOROGO
 10
29073.604341291921
 20
1579.749496429288
 30
0.0
 11
29073.604341291921
 21
2027.749496429288
 31
0.0
  0
LINE
  5
5356
  8
YODOROGO
 10
29261.604341291921
 20
1491.749496429286
 30
0.0
 11
29261.604341291921
 21
2007.749496429288
 31
0.0
  0
LINE
  5
5357
  8
YODOROGO
 10
29197.604341291921
 20
2007.749496429288
 30
0.0
 11
29197.604341291921
 21
1491.749496429286
 31
0.0
  0
LINE
  5
5358
  8
YODOROGO
 10
29385.604341291921
 20
2027.749496429288
 30
0.0
 11
29385.604341291921
 21
1427.749496429288
 31
0.0
  0
LINE
  5
5359
  8
YODOROGO
 10
29457.604341291921
 20
1427.749496429288
 30
0.0
 11
29457.604341291921
 21
2027.749496429288
 31
0.0
  0
LINE
  5
535A
  8
YODOROGO
 10
28657.604341291921
 20
1667.749496429288
 30
0.0
 11
28657.604341291921
 21
1747.74949642929
 31
0.0
  0
LINE
  5
535B
  8
YODOROGO
 10
29885.604341291921
 20
1707.749496429288
 30
0.0
 11
29885.604341291921
 21
1667.749496429288
 31
0.0
  0
LINE
  5
535C
  8
YODOROGO
 10
29885.604341291921
 20
1707.749496429288
 30
0.0
 11
29885.604341291921
 21
1667.749496429288
 31
0.0
  0
ARC
  5
535D
  8
YODOROGO
 10
28906.911576186842
 20
1618.217864442272
 30
0.0
 40
94.705151178741644
 50
274.05244162907098
 51
0.9266642149310712
  0
ARC
  5
535E
  8
YODOROGO
 10
28909.186170719819
 20
1592.61072861044
 30
0.0
 40
164.92042356085511
 50
271.5351210653775
 51
355.52727750585052
  0
LINE
  5
535F
  8
YODOROGO
 10
28913.604341291921
 20
1523.7494964292871
 30
0.0
 11
28913.604341291921
 21
1427.749496429288
 31
0.0
  0
LINE
  5
5360
  8
YODOROGO
 10
28793.60434129191
 20
1667.749496429288
 30
0.0
 11
28657.604341291921
 21
1667.749496429288
 31
0.0
  0
LINE
  5
5361
  8
YODOROGO
 10
28793.60434129191
 20
1603.7494964292871
 30
0.0
 11
28793.60434129191
 21
1667.749496429288
 31
0.0
  0
LINE
  5
5362
  8
YODOROGO
 10
28657.604341291921
 20
1603.7494964292871
 30
0.0
 11
28793.60434129191
 21
1603.7494964292871
 31
0.0
  0
LINE
  5
5363
  8
YODOROGO
 10
28657.604341291921
 20
1523.7494964292871
 30
0.0
 11
28657.604341291921
 21
1603.7494964292871
 31
0.0
  0
LINE
  5
5364
  8
YODOROGO
 10
28793.60434129191
 20
1523.7494964292871
 30
0.0
 11
28657.604341291921
 21
1523.7494964292871
 31
0.0
  0
LINE
  5
5365
  8
YODOROGO
 10
28793.60434129191
 20
1427.749496429288
 30
0.0
 11
28793.60434129191
 21
1523.7494964292871
 31
0.0
  0
LINE
  5
5366
  8
YODOROGO
 10
29197.604341291921
 20
1491.749496429286
 30
0.0
 11
29261.604341291921
 21
1491.749496429286
 31
0.0
  0
LINE
  5
5367
  8
YODOROGO
 10
29385.604341291921
 20
1427.749496429288
 30
0.0
 11
29457.604341291921
 21
1427.749496429288
 31
0.0
  0
LINE
  5
5368
  8
YODOROGO
 10
29737.604341291921
 20
1528.4414521705639
 30
0.0
 11
29737.604341291921
 21
1427.749496429288
 31
0.0
  0
LINE
  5
5369
  8
YODOROGO
 10
29617.604341291921
 20
1427.749496429288
 30
0.0
 11
29737.604341291921
 21
1528.4414521705639
 31
0.0
  0
LINE
  5
536A
  8
YODOROGO
 10
29617.604341291921
 20
1547.749496429288
 30
0.0
 11
29617.604341291921
 21
1427.749496429288
 31
0.0
  0
LINE
  5
536B
  8
YODOROGO
 10
29712.94462869945
 20
1627.749496429288
 30
0.0
 11
29617.604341291921
 21
1547.749496429288
 31
0.0
  0
LINE
  5
536C
  8
YODOROGO
 10
29617.604341291921
 20
1627.749496429288
 30
0.0
 11
29712.94462869945
 21
1627.749496429288
 31
0.0
  0
LINE
  5
536D
  8
YODOROGO
 10
29617.604341291921
 20
1667.749496429288
 30
0.0
 11
29617.604341291921
 21
1627.749496429288
 31
0.0
  0
LINE
  5
536E
  8
YODOROGO
 10
29885.604341291921
 20
1667.749496429288
 30
0.0
 11
29617.604341291921
 21
1667.749496429288
 31
0.0
  0
LINE
  5
536F
  8
YODOROGO
 10
29917.604341291921
 20
1627.749496429288
 30
0.0
 11
29777.604341291921
 21
1627.749496429288
 31
0.0
  0
LINE
  5
5370
  8
YODOROGO
 10
29777.604341291921
 20
1562.0054374176559
 30
0.0
 11
29771.409872985321
 21
1556.807661346234
 31
0.0
  0
LINE
  5
5371
  8
YODOROGO
 10
29777.604341291921
 20
1627.749496429288
 30
0.0
 11
29777.604341291921
 21
1562.0054374176559
 31
0.0
  0
LINE
  5
5372
  8
YODOROGO
 10
29737.604341291921
 20
1528.4414521705639
 30
0.0
 11
29737.604341291921
 21
1427.749496429288
 31
0.0
  0
LINE
  5
5373
  8
YODOROGO
 10
29617.604341291921
 20
1427.749496429288
 30
0.0
 11
29737.604341291921
 21
1528.4414521705639
 31
0.0
  0
LINE
  5
5374
  8
YODOROGO
 10
29617.604341291921
 20
1547.749496429288
 30
0.0
 11
29617.604341291921
 21
1427.749496429288
 31
0.0
  0
LINE
  5
5375
  8
YODOROGO
 10
29712.94462869945
 20
1627.749496429288
 30
0.0
 11
29617.604341291921
 21
1547.749496429288
 31
0.0
  0
LINE
  5
5376
  8
YODOROGO
 10
29617.604341291921
 20
1627.749496429288
 30
0.0
 11
29712.94462869945
 21
1627.749496429288
 31
0.0
  0
LINE
  5
5377
  8
YODOROGO
 10
29617.604341291921
 20
1667.749496429288
 30
0.0
 11
29617.604341291921
 21
1627.749496429288
 31
0.0
  0
LINE
  5
5378
  8
YODOROGO
 10
29885.604341291921
 20
1667.749496429288
 30
0.0
 11
29617.604341291921
 21
1667.749496429288
 31
0.0
  0
LINE
  5
5379
  8
YODOROGO
 10
28793.60434129191
 20
1747.74949642929
 30
0.0
 11
28793.60434129191
 21
1819.7494964292871
 31
0.0
  0
LINE
  5
537A
  8
YODOROGO
 10
28657.604341291921
 20
1747.74949642929
 30
0.0
 11
28793.60434129191
 21
1747.74949642929
 31
0.0
  0
LINE
  5
537B
  8
YODOROGO
 10
28729.604341291921
 20
1867.7494964292871
 30
0.0
 11
28729.604341291921
 21
1923.7494964292871
 31
0.0
  0
LINE
  5
537C
  8
YODOROGO
 10
28793.60434129191
 20
1867.7494964292871
 30
0.0
 11
28729.604341291921
 21
1867.7494964292871
 31
0.0
  0
LINE
  5
537D
  8
YODOROGO
 10
28793.60434129191
 20
1947.749496429288
 30
0.0
 11
28793.60434129191
 21
1867.7494964292871
 31
0.0
  0
ARC
  5
537E
  8
YODOROGO
 10
28753.60434129191
 20
1947.749496429288
 30
0.0
 40
40.0
 50
0.0
 51
90.0
  0
LINE
  5
537F
  8
YODOROGO
 10
28657.604341291921
 20
1987.7494964292871
 30
0.0
 11
28753.60434129191
 21
1987.7494964292871
 31
0.0
  0
LINE
  5
5380
  8
YODOROGO
 10
28657.604341291921
 20
2027.749496429288
 30
0.0
 11
28657.604341291921
 21
1987.7494964292871
 31
0.0
  0
LINE
  5
5381
  8
YODOROGO
 10
29073.604341291921
 20
2027.749496429288
 30
0.0
 11
29001.60434129191
 21
2027.749496429288
 31
0.0
  0
LINE
  5
5382
  8
YODOROGO
 10
29261.604341291921
 20
2007.749496429288
 30
0.0
 11
29197.604341291921
 21
2007.749496429288
 31
0.0
  0
LINE
  5
5383
  8
YODOROGO
 10
29457.604341291921
 20
2027.749496429288
 30
0.0
 11
29385.604341291921
 21
2027.749496429288
 31
0.0
  0
LINE
  5
5384
  8
YODOROGO
 10
29673.604341291921
 20
1707.749496429288
 30
0.0
 11
29673.604341291921
 21
1771.7494964292871
 31
0.0
1001
AUTOCAD_POSTSCRIPT_FIGURE
1002
{
1000
PSFILL
1000
Grayscale
1000
Grayscale
1070
    25
1002
}
  0
LINE
  5
5385
  8
YODOROGO
 10
29617.604341291921
 20
1707.749496429288
 30
0.0
 11
29673.604341291921
 21
1707.749496429288
 31
0.0
1001
AUTOCAD_POSTSCRIPT_FIGURE
1002
{
1000
PSFILL
1000
Grayscale
1000
Grayscale
1070
    25
1002
}
  0
LINE
  5
5386
  8
YODOROGO
 10
29617.604341291921
 20
1819.7494964292871
 30
0.0
 11
29617.604341291921
 21
1707.749496429288
 31
0.0
1001
AUTOCAD_POSTSCRIPT_FIGURE
1002
{
1000
PSFILL
1000
Grayscale
1000
Grayscale
1070
    25
1002
}
  0
LINE
  5
5387
  8
YODOROGO
 10
29765.604341291921
 20
1819.7494964292871
 30
0.0
 11
29617.604341291921
 21
1819.7494964292871
 31
0.0
1001
AUTOCAD_POSTSCRIPT_FIGURE
1002
{
1000
PSFILL
1000
Grayscale
1000
Grayscale
1070
    25
1002
}
  0
LINE
  5
5388
  8
YODOROGO
 10
29765.604341291921
 20
1859.749496429288
 30
0.0
 11
29765.604341291921
 21
1819.7494964292871
 31
0.0
1001
AUTOCAD_POSTSCRIPT_FIGURE
1002
{
1000
PSFILL
1000
Grayscale
1000
Grayscale
1070
    25
1002
}
  0
LINE
  5
5389
  8
YODOROGO
 10
29617.604341291921
 20
1859.749496429288
 30
0.0
 11
29765.604341291921
 21
1859.749496429288
 31
0.0
1001
AUTOCAD_POSTSCRIPT_FIGURE
1002
{
1000
PSFILL
1000
Grayscale
1000
Grayscale
1070
    25
1002
}
  0
LINE
  5
538A
  8
YODOROGO
 10
29617.604341291921
 20
1907.7494964292871
 30
0.0
 11
29617.604341291921
 21
1859.749496429288
 31
0.0
1001
AUTOCAD_POSTSCRIPT_FIGURE
1002
{
1000
PSFILL
1000
Grayscale
1000
Grayscale
1070
    25
1002
}
  0
LINE
  5
538B
  8
YODOROGO
 10
29765.604341291921
 20
1907.7494964292871
 30
0.0
 11
29617.604341291921
 21
1907.7494964292871
 31
0.0
1001
AUTOCAD_POSTSCRIPT_FIGURE
1002
{
1000
PSFILL
1000
Grayscale
1000
Grayscale
1070
    25
1002
}
  0
LINE
  5
538C
  8
YODOROGO
 10
29765.604341291921
 20
1947.749496429288
 30
0.0
 11
29765.604341291921
 21
1907.7494964292871
 31
0.0
1001
AUTOCAD_POSTSCRIPT_FIGURE
1002
{
1000
PSFILL
1000
Grayscale
1000
Grayscale
1070
    25
1002
}
  0
LINE
  5
538D
  8
YODOROGO
 10
29617.604341291921
 20
1947.749496429288
 30
0.0
 11
29765.604341291921
 21
1947.749496429288
 31
0.0
1001
AUTOCAD_POSTSCRIPT_FIGURE
1002
{
1000
PSFILL
1000
Grayscale
1000
Grayscale
1070
    25
1002
}
  0
LINE
  5
538E
  8
YODOROGO
 10
29617.604341291921
 20
2027.749496429288
 30
0.0
 11
29617.604341291921
 21
1947.749496429288
 31
0.0
1001
AUTOCAD_POSTSCRIPT_FIGURE
1002
{
1000
PSFILL
1000
Grayscale
1000
Grayscale
1070
    25
1002
}
  0
LINE
  5
538F
  8
YODOROGO
 10
29665.604341291921
 20
2027.749496429288
 30
0.0
 11
29617.604341291921
 21
2027.749496429288
 31
0.0
1001
AUTOCAD_POSTSCRIPT_FIGURE
1002
{
1000
PSFILL
1000
Grayscale
1000
Grayscale
1070
    25
1002
}
  0
LINE
  5
5390
  8
YODOROGO
 10
29665.604341291921
 20
1995.7494964292871
 30
0.0
 11
29665.604341291921
 21
2027.749496429288
 31
0.0
1001
AUTOCAD_POSTSCRIPT_FIGURE
1002
{
1000
PSFILL
1000
Grayscale
1000
Grayscale
1070
    25
1002
}
  0
LINE
  5
5391
  8
YODOROGO
 10
29765.604341291921
 20
1995.7494964292871
 30
0.0
 11
29665.604341291921
 21
1995.7494964292871
 31
0.0
1001
AUTOCAD_POSTSCRIPT_FIGURE
1002
{
1000
PSFILL
1000
Grayscale
1000
Grayscale
1070
    25
1002
}
  0
LINE
  5
5392
  8
YODOROGO
 10
29765.604341291921
 20
2027.749496429288
 30
0.0
 11
29765.604341291921
 21
1995.7494964292871
 31
0.0
1001
AUTOCAD_POSTSCRIPT_FIGURE
1002
{
1000
PSFILL
1000
Grayscale
1000
Grayscale
1070
    25
1002
}
  0
LINE
  5
5393
  8
YODOROGO
 10
29829.604341291921
 20
2027.749496429288
 30
0.0
 11
29765.604341291921
 21
2027.749496429288
 31
0.0
1001
AUTOCAD_POSTSCRIPT_FIGURE
1002
{
1000
PSFILL
1000
Grayscale
1000
Grayscale
1070
    25
1002
}
  0
LINE
  5
5394
  8
YODOROGO
 10
29829.604341291921
 20
1995.7494964292871
 30
0.0
 11
29829.604341291921
 21
2027.749496429288
 31
0.0
1001
AUTOCAD_POSTSCRIPT_FIGURE
1002
{
1000
PSFILL
1000
Grayscale
1000
Grayscale
1070
    25
1002
}
  0
LINE
  5
5395
  8
YODOROGO
 10
29829.604341291921
 20
1907.7494964292871
 30
0.0
 11
29829.604341291921
 21
1947.749496429288
 31
0.0
1001
AUTOCAD_POSTSCRIPT_FIGURE
1002
{
1000
PSFILL
1000
Grayscale
1000
Grayscale
1070
    25
1002
}
  0
LINE
  5
5396
  8
YODOROGO
 10
29829.604341291921
 20
1819.7494964292871
 30
0.0
 11
29829.604341291921
 21
1859.749496429288
 31
0.0
1001
AUTOCAD_POSTSCRIPT_FIGURE
1002
{
1000
PSFILL
1000
Grayscale
1000
Grayscale
1070
    25
1002
}
  0
LINE
  5
5397
  8
YODOROGO
 10
29921.60434129191
 20
1771.7494964292871
 30
0.0
 11
29921.60434129191
 21
1707.749496429288
 31
0.0
1001
AUTOCAD_POSTSCRIPT_FIGURE
1002
{
1000
PSFILL
1000
Grayscale
1000
Grayscale
1070
    25
1002
}
  0
LINE
  5
5398
  8
YODOROGO
 10
29829.604341291921
 20
1771.7494964292871
 30
0.0
 11
29921.60434129191
 21
1771.7494964292871
 31
0.0
1001
AUTOCAD_POSTSCRIPT_FIGURE
1002
{
1000
PSFILL
1000
Grayscale
1000
Grayscale
1070
    25
1002
}
  0
LINE
  5
5399
  8
YODOROGO
 10
29829.604341291921
 20
1707.749496429288
 30
0.0
 11
29829.604341291921
 21
1771.7494964292871
 31
0.0
1001
AUTOCAD_POSTSCRIPT_FIGURE
1002
{
1000
PSFILL
1000
Grayscale
1000
Grayscale
1070
    25
1002
}
  0
LINE
  5
539A
  8
YODOROGO
 10
29765.604341291921
 20
1707.749496429288
 30
0.0
 11
29829.604341291921
 21
1707.749496429288
 31
0.0
1001
AUTOCAD_POSTSCRIPT_FIGURE
1002
{
1000
PSFILL
1000
Grayscale
1000
Grayscale
1070
    25
1002
}
  0
LINE
  5
539B
  8
YODOROGO
 10
29765.604341291921
 20
1771.7494964292871
 30
0.0
 11
29765.604341291921
 21
1707.749496429288
 31
0.0
1001
AUTOCAD_POSTSCRIPT_FIGURE
1002
{
1000
PSFILL
1000
Grayscale
1000
Grayscale
1070
    25
1002
}
  0
LINE
  5
539C
  8
YODOROGO
 10
29673.604341291921
 20
1771.7494964292871
 30
0.0
 11
29765.604341291921
 21
1771.7494964292871
 31
0.0
1001
AUTOCAD_POSTSCRIPT_FIGURE
1002
{
1000
PSFILL
1000
Grayscale
1000
Grayscale
1070
    25
1002
}
  0
ARC
  5
539D
  8
YODOROGO
 10
31059.517893357912
 20
1602.6807375155761
 30
0.0
 40
178.22128111072141
 50
281.02627495425338
 51
357.77113575573799
  0
LINE
  5
539E
  8
YODOROGO
 10
31413.604341291921
 20
1907.7494964292871
 30
0.0
 11
31165.604341291921
 21
1907.7494964292871
 31
0.0
  0
LINE
  5
539F
  8
YODOROGO
 10
31413.604341291921
 20
2027.749496429288
 30
0.0
 11
31165.604341291921
 21
2027.749496429288
 31
0.0
  0
LINE
  5
53A0
  8
YODOROGO
 10
31165.604341291921
 20
1963.749496429286
 30
0.0
 11
31413.604341291921
 21
1963.749496429286
 31
0.0
  0
LINE
  5
53A1
  8
YODOROGO
 10
30791.604341291921
 20
1563.7494964292871
 30
0.0
 11
30791.604341291921
 21
1755.7494964292871
 31
0.0
  0
LINE
  5
53A2
  8
YODOROGO
 10
30763.604341291921
 20
1691.749496429288
 30
0.0
 11
30763.604341291921
 21
1563.7494964292871
 31
0.0
  0
LINE
  5
53A3
  8
YODOROGO
 10
30723.604341291921
 20
1491.749496429288
 30
0.0
 11
30723.604341291921
 21
1691.749496429288
 31
0.0
  0
LINE
  5
53A4
  8
YODOROGO
 10
30899.604341291932
 20
1691.749496429288
 30
0.0
 11
30899.604341291932
 21
1491.749496429288
 31
0.0
  0
LINE
  5
53A5
  8
YODOROGO
 10
30859.604341291932
 20
1563.7494964292871
 30
0.0
 11
30859.604341291932
 21
1691.749496429288
 31
0.0
  0
LINE
  5
53A6
  8
YODOROGO
 10
30831.604341291921
 20
1755.7494964292871
 30
0.0
 11
30831.604341291921
 21
1563.7494964292871
 31
0.0
  0
LINE
  5
53A7
  8
YODOROGO
 10
30973.604341291921
 20
2027.749496429288
 30
0.0
 11
30973.604341291921
 21
1467.749496429288
 31
0.0
  0
LINE
  5
53A8
  8
YODOROGO
 10
30645.604341291921
 20
1427.749496429288
 30
0.0
 11
30645.604341291921
 21
2027.749496429288
 31
0.0
  0
LINE
  5
53A9
  8
YODOROGO
 10
30697.604341291932
 20
1963.749496429286
 30
0.0
 11
30697.604341291932
 21
1427.749496429288
 31
0.0
  0
LINE
  5
53AA
  8
YODOROGO
 10
30925.604341291921
 20
1547.749496429288
 30
0.0
 11
30925.604341291921
 21
1963.749496429286
 31
0.0
  0
LINE
  5
53AB
  8
YODOROGO
 10
30381.604341291932
 20
1627.749496429288
 30
0.0
 11
30381.604341291932
 21
1679.749496429288
 31
0.0
  0
LINE
  5
53AC
  8
YODOROGO
 10
30617.604341291921
 20
1679.749496429288
 30
0.0
 11
30617.604341291921
 21
1627.749496429288
 31
0.0
  0
LINE
  5
53AD
  8
YODOROGO
 10
31165.604341291921
 20
1907.7494964292871
 30
0.0
 11
31165.604341291921
 21
1635.7494964292871
 31
0.0
  0
LINE
  5
53AE
  8
YODOROGO
 10
29949.60434129191
 20
1667.749496429288
 30
0.0
 11
29949.60434129191
 21
1707.749496429288
 31
0.0
  0
LINE
  5
53AF
  8
YODOROGO
 10
29949.60434129191
 20
1667.749496429288
 30
0.0
 11
29949.60434129191
 21
1707.749496429288
 31
0.0
  0
ARC
  5
53B0
  8
YODOROGO
 10
30537.604341291921
 20
1507.749496429288
 30
0.0
 40
80.0
 50
270.0
 51
0.0
  0
LINE
  5
53B1
  8
YODOROGO
 10
30569.604341291921
 20
1599.7494964292871
 30
0.0
 11
30617.604341291921
 21
1599.7494964292871
 31
0.0
  0
LINE
  5
53B2
  8
YODOROGO
 10
30617.604341291921
 20
1627.749496429288
 30
0.0
 11
30529.604341291939
 21
1627.749496429288
 31
0.0
  0
LINE
  5
53B3
  8
YODOROGO
 10
30217.604341291921
 20
1667.749496429288
 30
0.0
 11
29949.60434129191
 21
1667.749496429288
 31
0.0
  0
LINE
  5
53B4
  8
YODOROGO
 10
30217.604341291921
 20
1627.749496429288
 30
0.0
 11
30217.604341291921
 21
1667.749496429288
 31
0.0
  0
LINE
  5
53B5
  8
YODOROGO
 10
30017.604341291921
 20
1627.749496429288
 30
0.0
 11
30217.604341291921
 21
1627.749496429288
 31
0.0
  0
ARC
  5
53B6
  8
YODOROGO
 10
30230.05882870136
 20
1868.885714952901
 30
0.0
 40
321.37763628522822
 50
228.6181454618993
 51
245.660289248906
  0
LINE
  5
53B7
  8
YODOROGO
 10
30105.604341291921
 20
1603.7494964292871
 30
0.0
 11
30097.60434129195
 21
1576.0728158699001
 31
0.0
  0
LINE
  5
53B8
  8
YODOROGO
 10
30189.604341291921
 20
1603.7494964292871
 30
0.0
 11
30105.604341291921
 21
1603.7494964292871
 31
0.0
  0
LINE
  5
53B9
  8
YODOROGO
 10
30177.604341291921
 20
1551.817722473427
 30
0.0
 11
30189.604341291921
 21
1603.7494964292871
 31
0.0
  0
ARC
  5
53BA
  8
YODOROGO
 10
30230.05882870045
 20
1868.885714953002
 30
0.0
 40
321.37763628529081
 50
260.60629297969911
 51
267.77903556555862
  0
LINE
  5
53BB
  8
YODOROGO
 10
30217.604341291921
 20
1427.749496429285
 30
0.0
 11
30217.604341291921
 21
1547.749496429288
 31
0.0
  0
LINE
  5
53BC
  8
YODOROGO
 10
29937.604341291932
 20
1481.3393349155101
 30
0.0
 11
29937.604341291921
 21
1594.531090531141
 31
0.0
  0
LINE
  5
53BD
  8
YODOROGO
 10
30217.604341291921
 20
1667.749496429288
 30
0.0
 11
29949.60434129191
 21
1667.749496429288
 31
0.0
  0
LINE
  5
53BE
  8
YODOROGO
 10
30217.604341291921
 20
1627.749496429288
 30
0.0
 11
30217.604341291921
 21
1667.749496429288
 31
0.0
  0
LINE
  5
53BF
  8
YODOROGO
 10
30017.604341291921
 20
1627.749496429288
 30
0.0
 11
30217.604341291921
 21
1627.749496429288
 31
0.0
  0
ARC
  5
53C0
  8
YODOROGO
 10
30230.05882870136
 20
1868.885714952901
 30
0.0
 40
321.37763628522822
 50
228.6181454618993
 51
245.660289248906
  0
LINE
  5
53C1
  8
YODOROGO
 10
30105.604341291921
 20
1603.7494964292871
 30
0.0
 11
30097.60434129195
 21
1576.0728158699001
 31
0.0
  0
LINE
  5
53C2
  8
YODOROGO
 10
30189.604341291921
 20
1603.7494964292871
 30
0.0
 11
30105.604341291921
 21
1603.7494964292871
 31
0.0
  0
LINE
  5
53C3
  8
YODOROGO
 10
30177.604341291921
 20
1551.817722473427
 30
0.0
 11
30189.604341291921
 21
1603.7494964292871
 31
0.0
  0
ARC
  5
53C4
  8
YODOROGO
 10
30230.05882870045
 20
1868.885714953002
 30
0.0
 40
321.37763628529081
 50
260.60629297969911
 51
267.77903556555862
  0
LINE
  5
53C5
  8
YODOROGO
 10
30217.604341291921
 20
1427.749496429285
 30
0.0
 11
30217.604341291921
 21
1547.749496429288
 31
0.0
  0
LINE
  5
53C6
  8
YODOROGO
 10
29937.604341291932
 20
1481.3393349155101
 30
0.0
 11
29937.604341291921
 21
1594.531090531141
 31
0.0
  0
LINE
  5
53C7
  8
YODOROGO
 10
30433.604341291921
 20
1573.749496429288
 30
0.0
 11
30381.604341291932
 21
1573.749496429288
 31
0.0
  0
LINE
  5
53C8
  8
YODOROGO
 10
30433.604341291921
 20
1601.749496429285
 30
0.0
 11
30433.604341291921
 21
1573.749496429288
 31
0.0
  0
LINE
  5
53C9
  8
YODOROGO
 10
30381.604341291932
 20
1601.749496429285
 30
0.0
 11
30433.604341291921
 21
1601.749496429285
 31
0.0
  0
LINE
  5
53CA
  8
YODOROGO
 10
30381.604341291932
 20
1573.749496429288
 30
0.0
 11
30381.604341291932
 21
1601.749496429285
 31
0.0
  0
LINE
  5
53CB
  8
YODOROGO
 10
30429.604341291921
 20
1577.7494964292871
 30
0.0
 11
30385.604341291921
 21
1577.7494964292871
 31
0.0
  0
LINE
  5
53CC
  8
YODOROGO
 10
30429.604341291921
 20
1597.749496429288
 30
0.0
 11
30429.604341291921
 21
1577.7494964292871
 31
0.0
  0
LINE
  5
53CD
  8
YODOROGO
 10
30385.604341291921
 20
1597.749496429288
 30
0.0
 11
30429.604341291921
 21
1597.749496429288
 31
0.0
  0
LINE
  5
53CE
  8
YODOROGO
 10
30385.604341291921
 20
1577.7494964292871
 30
0.0
 11
30385.604341291921
 21
1597.749496429288
 31
0.0
  0
LINE
  5
53CF
  8
YODOROGO
 10
30425.604341291921
 20
1581.749496429286
 30
0.0
 11
30389.604341291921
 21
1581.749496429286
 31
0.0
  0
LINE
  5
53D0
  8
YODOROGO
 10
30425.604341291921
 20
1593.749496429288
 30
0.0
 11
30425.604341291921
 21
1581.749496429286
 31
0.0
  0
LINE
  5
53D1
  8
YODOROGO
 10
30389.604341291921
 20
1593.749496429288
 30
0.0
 11
30425.604341291921
 21
1593.749496429288
 31
0.0
  0
LINE
  5
53D2
  8
YODOROGO
 10
30389.604341291921
 20
1581.749496429286
 30
0.0
 11
30389.604341291921
 21
1593.749496429288
 31
0.0
  0
LINE
  5
53D3
  8
YODOROGO
 10
30421.604341291932
 20
1585.7494964292871
 30
0.0
 11
30393.604341291921
 21
1585.7494964292871
 31
0.0
  0
LINE
  5
53D4
  8
YODOROGO
 10
30421.604341291932
 20
1589.749496429288
 30
0.0
 11
30421.604341291932
 21
1585.7494964292871
 31
0.0
  0
LINE
  5
53D5
  8
YODOROGO
 10
30393.604341291921
 20
1589.749496429288
 30
0.0
 11
30421.604341291932
 21
1589.749496429288
 31
0.0
  0
LINE
  5
53D6
  8
YODOROGO
 10
30393.604341291921
 20
1585.7494964292871
 30
0.0
 11
30393.604341291921
 21
1589.749496429288
 31
0.0
  0
LINE
  5
53D7
  8
YODOROGO
 10
30465.604341291921
 20
1627.749496429288
 30
0.0
 11
30381.604341291932
 21
1627.749496429288
 31
0.0
  0
LINE
  5
53D8
  8
YODOROGO
 10
30465.604341291921
 20
1547.749496429288
 30
0.0
 11
30465.604341291921
 21
1627.749496429288
 31
0.0
  0
LINE
  5
53D9
  8
YODOROGO
 10
30381.604341291932
 20
1547.749496429288
 30
0.0
 11
30465.604341291921
 21
1547.749496429288
 31
0.0
  0
LINE
  5
53DA
  8
YODOROGO
 10
30381.604341291932
 20
1427.749496429288
 30
0.0
 11
30381.604341291932
 21
1547.749496429288
 31
0.0
  0
LINE
  5
53DB
  8
YODOROGO
 10
30537.604341291921
 20
1427.749496429288
 30
0.0
 11
30381.604341291932
 21
1427.749496429288
 31
0.0
  0
LINE
  5
53DC
  8
YODOROGO
 10
30569.604341291921
 20
1571.749496429285
 30
0.0
 11
30569.604341291921
 21
1599.7494964292871
 31
0.0
  0
ARC
  5
53DD
  8
YODOROGO
 10
30545.604341291921
 20
1571.749496429291
 30
0.0
 40
24.000000000003752
 50
270.0
 51
359.99999999998772
  0
LINE
  5
53DE
  8
YODOROGO
 10
30529.604341291939
 20
1547.749496429288
 30
0.0
 11
30545.604341291921
 21
1547.749496429288
 31
0.0
  0
LINE
  5
53DF
  8
YODOROGO
 10
30529.604341291939
 20
1627.749496429288
 30
0.0
 11
30529.604341291939
 21
1547.749496429288
 31
0.0
  0
LINE
  5
53E0
  8
YODOROGO
 10
30899.604341291932
 20
1547.749496429288
 30
0.0
 11
30925.604341291921
 21
1547.749496429288
 31
0.0
  0
LINE
  5
53E1
  8
YODOROGO
 10
30933.604341291921
 20
1427.749496429288
 30
0.0
 11
30899.604341291932
 21
1427.749496429288
 31
0.0
  0
LINE
  5
53E2
  8
YODOROGO
 10
30763.604341291921
 20
1563.7494964292871
 30
0.0
 11
30791.604341291921
 21
1563.7494964292871
 31
0.0
  0
LINE
  5
53E3
  8
YODOROGO
 10
30899.604341291932
 20
1491.749496429288
 30
0.0
 11
30723.604341291921
 21
1491.749496429288
 31
0.0
  0
LINE
  5
53E4
  8
YODOROGO
 10
30831.604341291921
 20
1563.7494964292871
 30
0.0
 11
30859.604341291932
 21
1563.7494964292871
 31
0.0
  0
LINE
  5
53E5
  8
YODOROGO
 10
30899.604341291932
 20
1427.749496429288
 30
0.0
 11
30899.604341291932
 21
1547.749496429288
 31
0.0
  0
LINE
  5
53E6
  8
YODOROGO
 10
30697.604341291932
 20
1427.749496429288
 30
0.0
 11
30645.604341291921
 21
1427.749496429288
 31
0.0
  0
LINE
  5
53E7
  8
YODOROGO
 10
30617.604341291921
 20
1599.7494964292871
 30
0.0
 11
30617.604341291921
 21
1507.749496429288
 31
0.0
  0
ARC
  5
53E8
  8
YODOROGO
 10
30933.604341291921
 20
1467.749496429288
 30
0.0
 40
40.0
 50
270.0
 51
0.0
  0
LINE
  5
53E9
  8
YODOROGO
 10
31093.604341291921
 20
1523.7494964292871
 30
0.0
 11
31093.604341291921
 21
1427.749496429288
 31
0.0
  0
ARC
  5
53EA
  8
YODOROGO
 10
31039.721395566768
 20
1637.5313901097329
 30
0.0
 40
125.8955565916754
 50
295.34052442160112
 51
359.18902303418679
  0
LINE
  5
53EB
  8
YODOROGO
 10
30617.604341291921
 20
1859.749496429288
 30
0.0
 11
30497.604341291921
 21
1939.749496429288
 31
0.0
  0
LINE
  5
53EC
  8
YODOROGO
 10
30497.604341291921
 20
2027.749496429288
 30
0.0
 11
30617.604341291921
 21
1947.749496429288
 31
0.0
  0
LINE
  5
53ED
  8
YODOROGO
 10
30529.604341291939
 20
1679.749496429288
 30
0.0
 11
30617.604341291921
 21
1679.749496429288
 31
0.0
  0
LINE
  5
53EE
  8
YODOROGO
 10
30617.604341291921
 20
1735.7494964292871
 30
0.0
 11
30529.604341291939
 21
1735.7494964292871
 31
0.0
  0
LINE
  5
53EF
  8
YODOROGO
 10
30381.604341291932
 20
1795.7494964292871
 30
0.0
 11
30617.604341291921
 21
1795.7494964292871
 31
0.0
  0
LINE
  5
53F0
  8
YODOROGO
 10
30081.604341291921
 20
2027.749496429288
 30
0.0
 11
30021.604341291921
 21
2027.749496429288
 31
0.0
  0
LINE
  5
53F1
  8
YODOROGO
 10
30081.604341291921
 20
1827.7494964292871
 30
0.0
 11
30081.604341291921
 21
2027.749496429288
 31
0.0
  0
LINE
  5
53F2
  8
YODOROGO
 10
30021.604341291921
 20
1827.7494964292871
 30
0.0
 11
30081.604341291921
 21
1827.7494964292871
 31
0.0
  0
LINE
  5
53F3
  8
YODOROGO
 10
30021.604341291921
 20
2027.749496429288
 30
0.0
 11
30021.604341291921
 21
1827.7494964292871
 31
0.0
  0
LINE
  5
53F4
  8
YODOROGO
 10
30161.604341291921
 20
2027.749496429288
 30
0.0
 11
30217.604341291921
 21
2027.749496429288
 31
0.0
  0
LINE
  5
53F5
  8
YODOROGO
 10
30161.604341291921
 20
1811.749496429288
 30
0.0
 11
30161.604341291921
 21
2027.749496429288
 31
0.0
  0
ARC
  5
53F6
  8
YODOROGO
 10
30121.604341291921
 20
1811.749496429288
 30
0.0
 40
40.0
 50
270.0
 51
0.0
  0
LINE
  5
53F7
  8
YODOROGO
 10
30021.604341291921
 20
1771.7494964292871
 30
0.0
 11
30121.604341291921
 21
1771.7494964292871
 31
0.0
  0
LINE
  5
53F8
  8
YODOROGO
 10
30021.604341291921
 20
1707.749496429288
 30
0.0
 11
30021.604341291921
 21
1771.7494964292871
 31
0.0
  0
LINE
  5
53F9
  8
YODOROGO
 10
30137.604341291921
 20
1707.749496429288
 30
0.0
 11
30021.604341291921
 21
1707.749496429288
 31
0.0
  0
ARC
  5
53FA
  8
YODOROGO
 10
30137.604341291921
 20
1787.7494964292871
 30
0.0
 40
80.0
 50
270.0
 51
0.0
  0
LINE
  5
53FB
  8
YODOROGO
 10
30217.604341291921
 20
2027.749496429288
 30
0.0
 11
30217.604341291921
 21
1787.7494964292871
 31
0.0
  0
LINE
  5
53FC
  8
YODOROGO
 10
29977.604341291921
 20
1947.749496429288
 30
0.0
 11
29977.604341291921
 21
1995.7494964292871
 31
0.0
1001
AUTOCAD_POSTSCRIPT_FIGURE
1002
{
1000
PSFILL
1000
Grayscale
1000
Grayscale
1070
    25
1002
}
  0
LINE
  5
53FD
  8
YODOROGO
 10
29977.604341291921
 20
1859.749496429288
 30
0.0
 11
29977.604341291921
 21
1907.7494964292871
 31
0.0
1001
AUTOCAD_POSTSCRIPT_FIGURE
1002
{
1000
PSFILL
1000
Grayscale
1000
Grayscale
1070
    25
1002
}
  0
LINE
  5
53FE
  8
YODOROGO
 10
29977.604341291921
 20
1707.749496429288
 30
0.0
 11
29977.604341291921
 21
1819.7494964292871
 31
0.0
1001
AUTOCAD_POSTSCRIPT_FIGURE
1002
{
1000
PSFILL
1000
Grayscale
1000
Grayscale
1070
    25
1002
}
  0
LINE
  5
53FF
  8
YODOROGO
 10
30381.604341291932
 20
1907.7494964292871
 30
0.0
 11
30497.604341291921
 21
2027.749496429288
 31
0.0
  0
LINE
  5
5400
  8
YODOROGO
 10
30381.604341291932
 20
1819.7494964292871
 30
0.0
 11
30381.604341291932
 21
1907.7494964292871
 31
0.0
  0
LINE
  5
5401
  8
YODOROGO
 10
30497.604341291921
 20
1939.749496429288
 30
0.0
 11
30381.604341291932
 21
1819.7494964292871
 31
0.0
  0
LINE
  5
5402
  8
YODOROGO
 10
30465.604341291921
 20
1679.749496429288
 30
0.0
 11
30465.604341291921
 21
1735.7494964292871
 31
0.0
  0
LINE
  5
5403
  8
YODOROGO
 10
30381.604341291932
 20
1679.749496429288
 30
0.0
 11
30465.604341291921
 21
1679.749496429288
 31
0.0
  0
LINE
  5
5404
  8
YODOROGO
 10
30529.604341291939
 20
1735.7494964292871
 30
0.0
 11
30529.604341291939
 21
1679.749496429288
 31
0.0
  0
LINE
  5
5405
  8
YODOROGO
 10
30381.604341291932
 20
1735.7494964292871
 30
0.0
 11
30381.604341291932
 21
1795.7494964292871
 31
0.0
  0
LINE
  5
5406
  8
YODOROGO
 10
30465.604341291921
 20
1735.7494964292871
 30
0.0
 11
30381.604341291932
 21
1735.7494964292871
 31
0.0
  0
LINE
  5
5407
  8
YODOROGO
 10
30645.604341291921
 20
2027.749496429288
 30
0.0
 11
30973.604341291921
 21
2027.749496429288
 31
0.0
  0
LINE
  5
5408
  8
YODOROGO
 10
30925.604341291921
 20
1963.749496429286
 30
0.0
 11
30697.604341291932
 21
1963.749496429286
 31
0.0
  0
LINE
  5
5409
  8
YODOROGO
 10
30873.604341291921
 20
1819.7494964292871
 30
0.0
 11
30899.604341291932
 21
1819.7494964292871
 31
0.0
  0
LINE
  5
540A
  8
YODOROGO
 10
30899.604341291932
 20
1939.749496429288
 30
0.0
 11
30873.604341291921
 21
1819.7494964292871
 31
0.0
  0
LINE
  5
540B
  8
YODOROGO
 10
30851.604341291939
 20
1939.749496429288
 30
0.0
 11
30899.604341291932
 21
1939.749496429288
 31
0.0
  0
LINE
  5
540C
  8
YODOROGO
 10
30825.604341291921
 20
1819.7494964292871
 30
0.0
 11
30851.604341291939
 21
1939.749496429288
 31
0.0
  0
LINE
  5
540D
  8
YODOROGO
 10
30797.604341291921
 20
1819.7494964292871
 30
0.0
 11
30825.604341291921
 21
1819.7494964292871
 31
0.0
  0
LINE
  5
540E
  8
YODOROGO
 10
30771.604341291939
 20
1939.749496429288
 30
0.0
 11
30797.604341291921
 21
1819.7494964292871
 31
0.0
  0
LINE
  5
540F
  8
YODOROGO
 10
30723.604341291921
 20
1939.749496429288
 30
0.0
 11
30771.604341291939
 21
1939.749496429288
 31
0.0
  0
LINE
  5
5410
  8
YODOROGO
 10
30749.604341291921
 20
1819.7494964292871
 30
0.0
 11
30723.604341291921
 21
1939.749496429288
 31
0.0
  0
LINE
  5
5411
  8
YODOROGO
 10
30723.604341291921
 20
1819.7494964292871
 30
0.0
 11
30749.604341291921
 21
1819.7494964292871
 31
0.0
  0
LINE
  5
5412
  8
YODOROGO
 10
30723.604341291921
 20
1755.7494964292871
 30
0.0
 11
30723.604341291921
 21
1819.7494964292871
 31
0.0
  0
LINE
  5
5413
  8
YODOROGO
 10
30899.604341291932
 20
1755.7494964292871
 30
0.0
 11
30723.604341291921
 21
1755.7494964292871
 31
0.0
  0
LINE
  5
5414
  8
YODOROGO
 10
30899.604341291932
 20
1819.7494964292871
 30
0.0
 11
30899.604341291932
 21
1755.7494964292871
 31
0.0
  0
LINE
  5
5415
  8
YODOROGO
 10
30617.604341291921
 20
1947.749496429288
 30
0.0
 11
30617.604341291921
 21
1859.749496429288
 31
0.0
  0
LINE
  5
5416
  8
YODOROGO
 10
30791.604341291921
 20
1755.7494964292871
 30
0.0
 11
30831.604341291921
 21
1755.7494964292871
 31
0.0
  0
LINE
  5
5417
  8
YODOROGO
 10
30723.604341291921
 20
1691.749496429288
 30
0.0
 11
30763.604341291921
 21
1691.749496429288
 31
0.0
  0
LINE
  5
5418
  8
YODOROGO
 10
30859.604341291932
 20
1691.749496429288
 30
0.0
 11
30899.604341291932
 21
1691.749496429288
 31
0.0
  0
LINE
  5
5419
  8
YODOROGO
 10
30617.604341291921
 20
1795.7494964292871
 30
0.0
 11
30617.604341291921
 21
1735.7494964292871
 31
0.0
  0
LINE
  5
541A
  8
YODOROGO
 10
31165.604341291921
 20
2027.749496429288
 30
0.0
 11
31165.604341291921
 21
1963.749496429286
 31
0.0
  0
LINE
  5
541B
  8
YODOROGO
 10
31533.604341291921
 20
1595.7494964292871
 30
0.0
 11
31533.60434129191
 21
1811.749496429288
 31
0.0
  0
LINE
  5
541C
  8
YODOROGO
 10
31461.60434129191
 20
1987.7494964292871
 30
0.0
 11
31461.60434129191
 21
1635.7494964292871
 31
0.0
  0
LINE
  5
541D
  8
YODOROGO
 10
31653.604341291921
 20
1427.749496429288
 30
0.0
 11
31653.60434129191
 21
1811.749496429288
 31
0.0
  0
LINE
  5
541E
  8
YODOROGO
 10
31589.604341291921
 20
1811.749496429288
 30
0.0
 11
31589.604341291921
 21
1427.749496429288
 31
0.0
  0
LINE
  5
541F
  8
YODOROGO
 10
31237.604341291921
 20
1595.7494964292871
 30
0.0
 11
31237.604341291921
 21
1707.749496429288
 31
0.0
  0
ARC
  5
5420
  8
YODOROGO
 10
31353.914865116069
 20
1607.790351288558
 30
0.0
 40
180.0924485759885
 50
268.62849102169793
 51
356.16638457330322
  0
LINE
  5
5421
  8
YODOROGO
 10
31349.604341291939
 20
1527.749496429288
 30
0.0
 11
31349.604341291939
 21
1427.749496429288
 31
0.0
  0
ARC
  5
5422
  8
YODOROGO
 10
31351.518075724562
 20
1637.838957017655
 30
0.0
 40
110.1060929836122
 50
269.00410209305932
 51
358.91264455492478
  0
LINE
  5
5423
  8
YODOROGO
 10
31589.604341291921
 20
1427.749496429288
 30
0.0
 11
31653.604341291921
 21
1427.749496429288
 31
0.0
  0
LINE
  5
5424
  8
YODOROGO
 10
31533.60434129191
 20
1811.749496429288
 30
0.0
 11
31589.604341291921
 21
1811.749496429288
 31
0.0
  0
LINE
  5
5425
  8
YODOROGO
 10
31621.604341291939
 20
1987.7494964292871
 30
0.0
 11
31461.60434129191
 21
1987.7494964292871
 31
0.0
  0
LINE
  5
5426
  8
YODOROGO
 10
31533.60434129191
 20
1915.7494964292871
 30
0.0
 11
31661.604341291939
 21
1915.7494964292871
 31
0.0
  0
LINE
  5
5427
  8
YODOROGO
 10
31701.604341291939
 20
1875.7494964292871
 30
0.0
 11
31533.60434129191
 21
1875.7494964292871
 31
0.0
  0
LINE
  5
5428
  8
YODOROGO
 10
31237.604341291921
 20
1779.749496429288
 30
0.0
 11
31349.604341291939
 21
1779.749496429288
 31
0.0
  0
LINE
  5
5429
  8
YODOROGO
 10
31237.604341291921
 20
1835.7494964292871
 30
0.0
 11
31237.604341291921
 21
1779.749496429288
 31
0.0
  0
LINE
  5
542A
  8
YODOROGO
 10
31349.604341291939
 20
1835.7494964292871
 30
0.0
 11
31237.604341291921
 21
1835.7494964292871
 31
0.0
  0
LINE
  5
542B
  8
YODOROGO
 10
31349.604341291939
 20
1779.749496429288
 30
0.0
 11
31349.604341291939
 21
1835.7494964292871
 31
0.0
  0
LINE
  5
542C
  8
YODOROGO
 10
31533.60434129191
 20
1875.7494964292871
 30
0.0
 11
31533.60434129191
 21
1915.7494964292871
 31
0.0
  0
LINE
  5
542D
  8
YODOROGO
 10
31413.604341291921
 20
1707.749496429288
 30
0.0
 11
31413.604341291921
 21
1907.7494964292871
 31
0.0
  0
LINE
  5
542E
  8
YODOROGO
 10
31237.604341291921
 20
1707.749496429288
 30
0.0
 11
31413.604341291921
 21
1707.749496429288
 31
0.0
  0
LINE
  5
542F
  8
YODOROGO
 10
31413.604341291921
 20
1963.749496429286
 30
0.0
 11
31413.604341291921
 21
2027.749496429288
 31
0.0
  0
ARC
  5
5430
  8
YODOROGO
 10
31621.604341291939
 20
2003.749496429285
 30
0.0
 40
15.999999999994539
 50
270.0
 51
0.0000000000081422
  0
LINE
  5
5431
  8
YODOROGO
 10
31637.604341291921
 20
2027.749496429288
 30
0.0
 11
31637.604341291921
 21
2003.7494964292871
 31
0.0
  0
LINE
  5
5432
  8
YODOROGO
 10
31701.604341291939
 20
2027.749496429288
 30
0.0
 11
31637.604341291921
 21
2027.749496429288
 31
0.0
  0
LINE
  5
5433
  8
YODOROGO
 10
31701.604341291939
 20
1955.7494964292871
 30
0.0
 11
31701.604341291939
 21
2027.749496429288
 31
0.0
  0
ARC
  5
5434
  8
YODOROGO
 10
31661.604341291939
 20
1955.7494964292871
 30
0.0
 40
40.0
 50
270.0
 51
0.0
  0
LINE
  5
5435
  8
YODOROGO
 10
31701.604341291939
 20
1811.749496429288
 30
0.0
 11
31701.604341291939
 21
1875.7494964292871
 31
0.0
  0
LINE
  5
5436
  8
YODOROGO
 10
31653.60434129191
 20
1811.749496429288
 30
0.0
 11
31701.604341291939
 21
1811.749496429288
 31
0.0
  0
LINE
  5
5437
  8
SUNPOU
  6
CONTINUOUS
 62
     4
 10
20959.520559999972
 20
18209.486251999992
 30
0.0
 11
20072.56228799999
 21
18209.486251999992
 31
0.0
  0
LINE
  5
5438
  8
SUNPOU
  6
CONTINUOUS
 62
     4
 10
20152.562287999979
 20
18209.486251999992
 30
0.0
 11
20152.562287999979
 21
19668.486251999992
 31
0.0
  0
LINE
  5
5439
  8
SUNPOU
  6
CONTINUOUS
 62
     4
 10
20959.520559999972
 20
18209.486251999992
 30
0.0
 11
20072.56228799999
 21
18209.486251999992
 31
0.0
  0
LINE
  5
543A
  8
SUNPOU
  6
CONTINUOUS
 62
     4
 10
20152.562287999979
 20
16750.486251999992
 30
0.0
 11
20152.562287999979
 21
18209.486251999992
 31
0.0
  0
LINE
  5
543B
  8
SUNPOU
  6
CONTINUOUS
 62
     4
 10
20959.520559999972
 20
15291.72676350001
 30
0.0
 11
20072.56228799999
 21
15291.72676350001
 31
0.0
  0
LINE
  5
543C
  8
SUNPOU
  6
CONTINUOUS
 62
     4
 10
20152.562287999979
 20
15291.72676350001
 30
0.0
 11
20152.562287999979
 21
16750.486251999992
 31
0.0
  0
LINE
  5
543D
  8
SUNPOU
  6
CONTINUOUS
 62
     4
 10
20959.520559999972
 20
15291.72676350001
 30
0.0
 11
20072.56228799999
 21
15291.72676350001
 31
0.0
  0
LINE
  5
543E
  8
SUNPOU
  6
CONTINUOUS
 62
     4
 10
20152.562287999979
 20
13481.986252000001
 30
0.0
 11
20152.562287999979
 21
15291.72676350001
 31
0.0
  0
LINE
  5
5442
  8
SUNPOU
  6
CONTINUOUS
 62
     4
 10
14458.635503999991
 20
20040.989814999979
 30
0.0
 11
14458.635503999991
 21
20590.995094000002
 31
0.0
  0
LINE
  5
5443
  8
SUNPOU
  6
CONTINUOUS
 62
     4
 10
14373.135504
 20
20510.995094000002
 30
0.0
 11
14133.135504
 21
20510.995094000002
 31
0.0
  0
LINE
  5
5444
  8
SUNPOU
  6
CONTINUOUS
 62
     4
 10
14455.635503999991
 20
20510.995094000002
 30
0.0
 11
14695.635504
 21
20510.995094000002
 31
0.0
  0
LINE
  5
5445
  8
SUNPOU
  6
CONTINUOUS
 62
     4
 10
14373.135504
 20
20510.995094000002
 30
0.0
 11
14455.635503999991
 21
20510.995094000002
 31
0.0
  0
LINE
  5
5446
  8
SUNPOU
  6
CONTINUOUS
 62
     4
 10
11019.135504
 20
20040.989814999979
 30
0.0
 11
11019.135504
 21
20590.995094000002
 31
0.0
  0
LINE
  5
5447
  8
SUNPOU
  6
CONTINUOUS
 62
     4
 10
11104.635503999991
 20
20510.995094000002
 30
0.0
 11
11344.635504
 21
20510.995094000002
 31
0.0
  0
LINE
  5
5448
  8
SUNPOU
  6
CONTINUOUS
 62
     4
 10
11022.135504
 20
20510.995094000002
 30
0.0
 11
10782.135504
 21
20510.995094000002
 31
0.0
  0
LINE
  5
5449
  8
SUNPOU
  6
CONTINUOUS
 62
     4
 10
11104.635503999991
 20
20510.995094000002
 30
0.0
 11
11022.135504
 21
20510.995094000002
 31
0.0
  0
LINE
  5
544A
  8
SUNPOU
  6
CONTINUOUS
 62
     4
 10
14373.135504
 20
20510.995094000002
 30
0.0
 11
11104.635503999991
 21
20510.995094000002
 31
0.0
  0
LINE
  5
544B
  8
SUNPOU
  6
CONTINUOUS
 62
     4
 10
10942.12669599999
 20
19870.982161000022
 30
0.0
 11
10495.131274999991
 21
19870.982161000022
 31
0.0
  0
LINE
  5
544C
  8
SUNPOU
  6
CONTINUOUS
 62
     4
 10
10942.13105099998
 20
19890.982161000022
 30
0.0
 11
10495.131274999991
 21
19890.982161000022
 31
0.0
  0
LINE
  5
544E
  8
SUNPOU
  6
CONTINUOUS
 62
     4
 10
10575.131274999991
 20
19890.982161000022
 30
0.0
 11
10575.131274999991
 21
20130.982161000022
 31
0.0
  0
LINE
  5
544F
  8
SUNPOU
  6
CONTINUOUS
 62
     4
 10
10575.131274999991
 20
19850.982161000022
 30
0.0
 11
10575.131274999991
 21
19890.982161000022
 31
0.0
  0
LINE
  5
5450
  8
SUNPOU
  6
CONTINUOUS
 62
     4
 10
10942.13105099998
 20
19890.982161000022
 30
0.0
 11
10095.131274999991
 21
19890.982161000022
 31
0.0
  0
LINE
  5
5451
  8
SUNPOU
  6
CONTINUOUS
 62
     4
 10
10175.131274999991
 20
19668.486251999992
 30
0.0
 11
10175.131274999991
 21
19428.486251999992
 31
0.0
  0
LINE
  5
5452
  8
SUNPOU
  6
CONTINUOUS
 62
     4
 10
10175.131274999991
 20
19890.982161000022
 30
0.0
 11
10175.131274999991
 21
20130.982161000022
 31
0.0
  0
LINE
  5
5453
  8
SUNPOU
  6
CONTINUOUS
 62
     4
 10
10175.131274999991
 20
19668.486251999992
 30
0.0
 11
10175.131274999991
 21
19890.982161000022
 31
0.0
  0
LINE
  5
5454
  8
SUNPOU
  6
CONTINUOUS
 62
     4
 10
10805.830407999991
 20
18209.486251999992
 30
0.0
 11
10095.131274999991
 21
18209.486251999992
 31
0.0
  0
LINE
  5
5455
  8
SUNPOU
  6
CONTINUOUS
 62
     4
 10
10175.131274999991
 20
18209.486251999992
 30
0.0
 11
10175.131274999991
 21
19668.486251999992
 31
0.0
  0
LINE
  5
5456
  8
SUNPOU
  6
CONTINUOUS
 62
     4
 10
10805.830407999991
 20
18209.486251999992
 30
0.0
 11
10095.131274999991
 21
18209.486251999992
 31
0.0
  0
LINE
  5
5457
  8
SUNPOU
  6
CONTINUOUS
 62
     4
 10
10175.131274999991
 20
16750.486251999992
 30
0.0
 11
10175.131274999991
 21
18209.486251999992
 31
0.0
  0
LINE
  5
5458
  8
SUNPOU
  6
CONTINUOUS
 62
     4
 10
10805.830407999991
 20
15291.486252000001
 30
0.0
 11
10095.131274999991
 21
15291.486252000001
 31
0.0
  0
LINE
  5
5459
  8
SUNPOU
  6
CONTINUOUS
 62
     4
 10
10175.131274999991
 20
15291.486252000001
 30
0.0
 11
10175.131274999991
 21
16750.486251999992
 31
0.0
  0
LINE
  5
545A
  8
SUNPOU
  6
CONTINUOUS
 62
     4
 10
10805.830407999991
 20
15291.486252000001
 30
0.0
 11
10095.131274999991
 21
15291.486252000001
 31
0.0
  0
LINE
  5
545B
  8
SUNPOU
  6
CONTINUOUS
 62
     4
 10
10175.131274999991
 20
13481.986252000001
 30
0.0
 11
10175.131274999991
 21
15291.486252000001
 31
0.0
  0
LINE
  5
545C
  8
SUNPOU
  6
CONTINUOUS
 62
     4
 10
10942.12669599999
 20
13289.490937
 30
0.0
 11
10095.131274999991
 21
13289.490937
 31
0.0
  0
LINE
  5
545D
  8
SUNPOU
  6
CONTINUOUS
 62
     4
 10
10175.131274999991
 20
13481.986252000001
 30
0.0
 11
10175.131274999991
 21
13721.986252000001
 31
0.0
  0
LINE
  5
545E
  8
SUNPOU
  6
CONTINUOUS
 62
     4
 10
10175.131274999991
 20
13289.490937
 30
0.0
 11
10175.131274999991
 21
13049.490937
 31
0.0
  0
LINE
  5
545F
  8
SUNPOU
  6
CONTINUOUS
 62
     4
 10
10175.131274999991
 20
13481.986252000001
 30
0.0
 11
10175.131274999991
 21
13289.490937
 31
0.0
  0
LINE
  5
5460
  8
SUNPOU
  6
CONTINUOUS
 62
     4
 10
20952.014225999999
 20
6241.1883740000012
 30
0.0
 11
20152.015544999991
 21
6241.1883740000012
 31
0.0
  0
LINE
  5
5461
  8
SUNPOU
  6
CONTINUOUS
 62
     4
 10
20952.014225999999
 20
8132.6883740000021
 30
0.0
 11
20152.015544999991
 21
8132.6883740000021
 31
0.0
  0
LINE
  5
5462
  8
SUNPOU
  6
CONTINUOUS
 62
     4
 10
20232.015544999991
 20
6241.1883740000012
 30
0.0
 11
20232.015544999991
 21
8132.6883740000021
 31
0.0
  0
LINE
  5
5463
  8
SUNPOU
  6
CONTINUOUS
 62
     4
 10
20952.014225999999
 20
6241.1883740000012
 30
0.0
 11
19752.013235999981
 21
6241.1883740000012
 31
0.0
  0
LINE
  5
5464
  8
SUNPOU
  6
CONTINUOUS
 62
     4
 10
20919.516469999999
 20
8589.1883999999973
 30
0.0
 11
19752.013235999981
 21
8589.1883999999973
 31
0.0
  0
LINE
  5
5465
  8
SUNPOU
  6
CONTINUOUS
 62
     4
 10
19832.013235999981
 20
6241.1883740000012
 30
0.0
 11
19832.013235999992
 21
8589.1883999999973
 31
0.0
  0
LINE
  5
5476
  8
SUNPOU
  6
CONTINUOUS
 62
     4
 10
24350.516864999991
 20
5798.536116000002
 30
0.0
 11
24350.516864999991
 21
4861.1885390000061
 31
0.0
  0
LINE
  5
5477
  8
SUNPOU
  6
CONTINUOUS
 62
     4
 10
24393.016864999991
 20
6061.1885390000061
 30
0.0
 11
24393.016864999991
 21
4861.1885390000061
 31
0.0
  0
LINE
  5
5478
  8
SUNPOU
  6
CONTINUOUS
 62
     4
 10
24350.516864999991
 20
4941.1885390000061
 30
0.0
 11
24110.516864999991
 21
4941.1885390000061
 31
0.0
  0
LINE
  5
5479
  8
SUNPOU
  6
CONTINUOUS
 62
     4
 10
24393.016864999991
 20
4941.1885390000061
 30
0.0
 11
24633.016864999991
 21
4941.1885390000061
 31
0.0
  0
LINE
  5
547A
  8
SUNPOU
  6
CONTINUOUS
 62
     4
 10
24350.516864999991
 20
4941.1885390000061
 30
0.0
 11
24393.016864999991
 21
4941.1885390000061
 31
0.0
  0
LINE
  5
547B
  8
SUNPOU
  6
CONTINUOUS
 62
     4
 10
21176.016865000001
 20
6061.1885390000061
 30
0.0
 11
21176.016865000001
 21
5261.1885390000061
 31
0.0
  0
LINE
  5
547C
  8
SUNPOU
  6
CONTINUOUS
 62
     4
 10
24256.516864999991
 20
6061.1885390000061
 30
0.0
 11
24256.516864999991
 21
5261.1885390000061
 31
0.0
  0
LINE
  5
547D
  8
SUNPOU
  6
CONTINUOUS
 62
     4
 10
21176.016865000001
 20
5341.1885390000079
 30
0.0
 11
24256.516864999991
 21
5341.1885390000079
 31
0.0
  0
LINE
  5
547E
  8
SUNPOU
  6
CONTINUOUS
 62
     4
 10
21082.016865000001
 20
5798.536116000002
 30
0.0
 11
21082.016865000001
 21
4861.1885390000061
 31
0.0
  0
LINE
  5
547F
  8
SUNPOU
  6
CONTINUOUS
 62
     4
 10
24350.516864999991
 20
5798.536116000002
 30
0.0
 11
24350.516864999991
 21
4861.1885390000061
 31
0.0
  0
LINE
  5
5480
  8
SUNPOU
  6
CONTINUOUS
 62
     4
 10
21082.016865000001
 20
4941.1885390000061
 30
0.0
 11
24350.516864999991
 21
4941.1885390000061
 31
0.0
  0
LINE
  5
5481
  8
SUNPOU
  6
CONTINUOUS
 62
     4
 10
21082.016865000001
 20
5798.536116000002
 30
0.0
 11
21082.016865000001
 21
4861.1885390000061
 31
0.0
  0
LINE
  5
5482
  8
SUNPOU
  6
CONTINUOUS
 62
     4
 10
21039.516864999991
 20
6061.1885390000061
 30
0.0
 11
21039.516864999991
 21
4861.1885390000061
 31
0.0
  0
LINE
  5
5483
  8
SUNPOU
  6
CONTINUOUS
 62
     4
 10
21082.016865000001
 20
4941.1885390000061
 30
0.0
 11
21322.016864999991
 21
4941.1885390000061
 31
0.0
  0
LINE
  5
5484
  8
SUNPOU
  6
CONTINUOUS
 62
     4
 10
21039.516864999991
 20
4941.1885390000061
 30
0.0
 11
20799.516864999991
 21
4941.1885390000061
 31
0.0
  0
LINE
  5
5485
  8
SUNPOU
  6
CONTINUOUS
 62
     4
 10
21082.016865000001
 20
4941.1885390000061
 30
0.0
 11
21039.516864999991
 21
4941.1885390000061
 31
0.0
  0
LINE
  5
5486
  8
SUNPOU
  6
CONTINUOUS
 62
     4
 10
21039.516864999991
 20
6061.1885390000061
 30
0.0
 11
21039.516864999991
 21
4461.1887040000038
 31
0.0
  0
LINE
  5
5487
  8
SUNPOU
  6
CONTINUOUS
 62
     4
 10
24393.016864999991
 20
6061.1885390000061
 30
0.0
 11
24393.016864999991
 21
4461.1887040000038
 31
0.0
  0
LINE
  5
5488
  8
SUNPOU
  6
CONTINUOUS
 62
     4
 10
21039.516864999991
 20
4541.1887040000038
 30
0.0
 11
24393.016864999991
 21
4541.1887040000038
 31
0.0
  0
LINE
  5
5489
  8
SUNPOU
  6
CONTINUOUS
 62
     4
 10
9865.7678679999972
 20
8478.188374000003
 30
0.0
 11
9865.7678679999972
 21
9869.1883999999955
 31
0.0
  0
LINE
  5
548A
  8
SUNPOU
  6
CONTINUOUS
 62
     4
 10
16467.267867999992
 20
8610.0781974124311
 30
0.0
 11
16467.267867999992
 21
9869.1883999999955
 31
0.0
  0
LINE
  5
548B
  8
SUNPOU
  6
CONTINUOUS
 62
     4
 10
9865.7678679999972
 20
9789.1883999999955
 30
0.0
 11
16467.267867999992
 21
9789.1883999999955
 31
0.0
  0
LINE
  5
548C
  8
SUNPOU
  6
CONTINUOUS
 62
     4
 10
16317.267868000001
 20
8536.0984380000027
 30
0.0
 11
16317.267868000001
 21
9469.1900499999992
 31
0.0
  0
LINE
  5
548D
  8
SUNPOU
  6
CONTINUOUS
 62
     4
 10
16467.267867999992
 20
8610.0781974124311
 30
0.0
 11
16467.267867999992
 21
9469.1900499999992
 31
0.0
  0
LINE
  5
548E
  8
SUNPOU
  6
CONTINUOUS
 62
     4
 10
16317.267868000001
 20
9389.1900499999992
 30
0.0
 11
16077.267868000001
 21
9389.1900499999992
 31
0.0
  0
LINE
  5
548F
  8
SUNPOU
  6
CONTINUOUS
 62
     4
 10
16467.267867999992
 20
9389.1900499999992
 30
0.0
 11
16707.267867999992
 21
9389.1900499999992
 31
0.0
  0
LINE
  5
5490
  8
SUNPOU
  6
CONTINUOUS
 62
     4
 10
16317.267868000001
 20
9389.1900499999992
 30
0.0
 11
16467.267867999992
 21
9389.1900499999992
 31
0.0
  0
LINE
  5
5491
  8
SUNPOU
  6
CONTINUOUS
 62
     4
 10
10045.767868000001
 20
8348.3741496838065
 30
0.0
 11
10045.767868000001
 21
9469.1900499999992
 31
0.0
  0
LINE
  5
5492
  8
SUNPOU
  6
CONTINUOUS
 62
     4
 10
16317.267868000001
 20
8536.0984380000027
 30
0.0
 11
16317.267868000001
 21
9469.1900499999992
 31
0.0
  0
LINE
  5
5493
  8
SUNPOU
  6
CONTINUOUS
 62
     4
 10
10045.767868000001
 20
9389.1900499999992
 30
0.0
 11
16317.267868000001
 21
9389.1900499999992
 31
0.0
  0
LINE
  5
5494
  8
SUNPOU
  6
CONTINUOUS
 62
     4
 10
9865.7678679999972
 20
8478.188374000003
 30
0.0
 11
9865.7678679999972
 21
9469.1900499999956
 31
0.0
  0
LINE
  5
5495
  8
SUNPOU
  6
CONTINUOUS
 62
     4
 10
10045.767868000001
 20
8348.3741496838065
 30
0.0
 11
10045.767868000001
 21
9469.1900499999956
 31
0.0
  0
LINE
  5
5496
  8
SUNPOU
  6
CONTINUOUS
 62
     4
 10
9865.7678679999972
 20
9389.1900499999956
 30
0.0
 11
9625.7678680000045
 21
9389.1900499999956
 31
0.0
  0
LINE
  5
5497
  8
SUNPOU
  6
CONTINUOUS
 62
     4
 10
10045.767868000001
 20
9389.1900499999956
 30
0.0
 11
10285.767868000001
 21
9389.1900499999956
 31
0.0
  0
LINE
  5
5498
  8
SUNPOU
  6
CONTINUOUS
 62
     4
 10
9865.7678679999972
 20
9389.1900499999956
 30
0.0
 11
10045.767868000001
 21
9389.1900499999956
 31
0.0
  0
LINE
  5
5499
  8
SUNPOU
  6
CONTINUOUS
 62
     4
 10
16409.767867999992
 20
6241.1883740000003
 30
0.0
 11
17487.268263999991
 21
6241.1883740000012
 31
0.0
  0
LINE
  5
549A
  8
SUNPOU
  6
CONTINUOUS
 62
     4
 10
16502.075127599379
 20
8589.1883739999994
 30
0.0
 11
17487.268263999991
 21
8589.1883739999994
 31
0.0
  0
LINE
  5
549B
  8
SUNPOU
  6
CONTINUOUS
 62
     4
 10
17407.268263999991
 20
6241.1883740000012
 30
0.0
 11
17407.268263999991
 21
8589.1883739999994
 31
0.0
  0
LINE
  5
549C
  8
SUNPOU
  6
CONTINUOUS
 62
     4
 10
9958.2678680000008
 20
6241.1883740000003
 30
0.0
 11
8875.767472000005
 21
6241.1883740000012
 31
0.0
  0
LINE
  5
549D
  8
SUNPOU
  6
CONTINUOUS
 62
     4
 10
9785.7678680000008
 20
8398.188374000003
 30
0.0
 11
8875.767472000005
 21
8398.188374000003
 31
0.0
  0
LINE
  5
549E
  8
SUNPOU
  6
CONTINUOUS
 62
     4
 10
8955.7674720000032
 20
6241.1883740000012
 30
0.0
 11
8955.7674720000032
 21
8398.188374000003
 31
0.0
  0
LINE
  5
549F
  8
SUNPOU
  6
CONTINUOUS
 62
     4
 10
10045.767868000001
 20
6161.1883740000012
 30
0.0
 11
10045.767868000001
 21
4461.1887040000001
 31
0.0
  0
LINE
  5
54A0
  8
SUNPOU
  6
CONTINUOUS
 62
     4
 10
16317.267868000001
 20
6161.1883740000012
 30
0.0
 11
16317.267868000001
 21
4461.1887040000001
 31
0.0
  0
LINE
  5
54A1
  8
SUNPOU
  6
CONTINUOUS
 62
     4
 10
10045.767868000001
 20
4541.1887040000001
 30
0.0
 11
16317.267868000001
 21
4541.1887040000001
 31
0.0
  0
LINE
  5
54A2
  8
SUNPOU
  6
CONTINUOUS
 62
     4
 10
16274.767868000001
 20
5798.5361160000011
 30
0.0
 11
16274.767868000001
 21
4861.1885389999989
 31
0.0
  0
LINE
  5
54A3
  8
SUNPOU
  6
CONTINUOUS
 62
     4
 10
16317.267868000001
 20
6161.1883740000012
 30
0.0
 11
16317.267868000001
 21
4861.1885389999989
 31
0.0
  0
LINE
  5
54A4
  8
SUNPOU
  6
CONTINUOUS
 62
     4
 10
16274.767868000001
 20
4941.1885389999979
 30
0.0
 11
16034.767868000001
 21
4941.1885389999979
 31
0.0
  0
LINE
  5
54A5
  8
SUNPOU
  6
CONTINUOUS
 62
     4
 10
16317.267868000001
 20
4941.1885389999979
 30
0.0
 11
16557.267867999999
 21
4941.1885389999979
 31
0.0
  0
LINE
  5
54A6
  8
SUNPOU
  6
CONTINUOUS
 62
     4
 10
16274.767868000001
 20
4941.1885389999979
 30
0.0
 11
16317.267868000001
 21
4941.1885389999979
 31
0.0
  0
LINE
  5
54A7
  8
SUNPOU
  6
CONTINUOUS
 62
     4
 10
10088.267868000001
 20
5798.5361160000011
 30
0.0
 11
10088.267868000001
 21
4861.1885389999989
 31
0.0
  0
LINE
  5
54A8
  8
SUNPOU
  6
CONTINUOUS
 62
     4
 10
10045.767868000001
 20
6161.1883740000012
 30
0.0
 11
10045.767868000001
 21
4861.1885389999989
 31
0.0
  0
LINE
  5
54A9
  8
SUNPOU
  6
CONTINUOUS
 62
     4
 10
10088.267868000001
 20
4941.1885389999979
 30
0.0
 11
10328.267868000001
 21
4941.1885389999979
 31
0.0
  0
LINE
  5
54AA
  8
SUNPOU
  6
CONTINUOUS
 62
     4
 10
10045.767868000001
 20
4941.1885389999979
 30
0.0
 11
9805.7678680000008
 21
4941.1885389999979
 31
0.0
  0
LINE
  5
54AB
  8
SUNPOU
  6
CONTINUOUS
 62
     4
 10
10088.267868000001
 20
4941.1885389999979
 30
0.0
 11
10045.767868000001
 21
4941.1885389999979
 31
0.0
  0
LINE
  5
54AC
  8
SUNPOU
  6
CONTINUOUS
 62
     4
 10
13006.267868000001
 20
5798.5361160000011
 30
0.0
 11
13006.267868000001
 21
4861.1885389999989
 31
0.0
  0
LINE
  5
54AD
  8
SUNPOU
  6
CONTINUOUS
 62
     4
 10
10088.267868000001
 20
5798.5361160000011
 30
0.0
 11
10088.267868000001
 21
4861.1885389999989
 31
0.0
  0
LINE
  5
54AE
  8
SUNPOU
  6
CONTINUOUS
 62
     4
 10
13006.267868000001
 20
4941.1885389999979
 30
0.0
 11
10088.267868000001
 21
4941.1885389999979
 31
0.0
  0
LINE
  5
54AF
  8
SUNPOU
  6
CONTINUOUS
 62
     4
 10
13006.267868000001
 20
5798.5361160000011
 30
0.0
 11
13006.267868000001
 21
4861.1885389999989
 31
0.0
  0
LINE
  5
54B0
  8
SUNPOU
  6
CONTINUOUS
 62
     4
 10
16274.767868000001
 20
5798.5361160000011
 30
0.0
 11
16274.767868000001
 21
4861.1885389999989
 31
0.0
  0
LINE
  5
54B1
  8
SUNPOU
  6
CONTINUOUS
 62
     4
 10
13006.267868000001
 20
4941.1885389999979
 30
0.0
 11
16274.767868000001
 21
4941.1885389999979
 31
0.0
  0
LINE
  5
54B2
  8
SUNPOU
  6
CONTINUOUS
 62
     4
 10
21082.016865000001
 20
12776.222818
 30
0.0
 11
21082.016865000001
 21
12430.538167999999
 31
0.0
  0
LINE
  5
54B3
  8
SUNPOU
  6
CONTINUOUS
 62
     4
 10
21039.514621999992
 20
13359.488957
 30
0.0
 11
21039.514621999992
 21
12430.538167999999
 31
0.0
  0
LINE
  5
54B4
  8
SUNPOU
  6
CONTINUOUS
 62
     4
 10
21082.016865000001
 20
12510.538167999999
 30
0.0
 11
21322.016864999991
 21
12510.538167999999
 31
0.0
  0
LINE
  5
54B5
  8
SUNPOU
  6
CONTINUOUS
 62
     4
 10
21039.514621999992
 20
12510.538167999999
 30
0.0
 11
20799.514621999992
 21
12510.538167999999
 31
0.0
  0
LINE
  5
54B6
  8
SUNPOU
  6
CONTINUOUS
 62
     4
 10
21082.016865000001
 20
12510.538167999999
 30
0.0
 11
21039.514621999992
 21
12510.538167999999
 31
0.0
  0
LINE
  5
54B7
  8
SUNPOU
  6
CONTINUOUS
 62
     4
 10
24350.516864999991
 20
12776.222818
 30
0.0
 11
24350.516864999991
 21
12430.538167999999
 31
0.0
  0
LINE
  5
54B8
  8
SUNPOU
  6
CONTINUOUS
 62
     4
 10
24393.019107999971
 20
13359.488957
 30
0.0
 11
24393.019107999971
 21
12430.538167999999
 31
0.0
  0
LINE
  5
54B9
  8
SUNPOU
  6
CONTINUOUS
 62
     4
 10
24350.516864999991
 20
12510.538167999999
 30
0.0
 11
24110.516864999991
 21
12510.538167999999
 31
0.0
  0
LINE
  5
54BA
  8
SUNPOU
  6
CONTINUOUS
 62
     4
 10
24393.019107999971
 20
12510.538167999999
 30
0.0
 11
24633.019107999971
 21
12510.538167999999
 31
0.0
  0
LINE
  5
54BB
  8
SUNPOU
  6
CONTINUOUS
 62
     4
 10
24350.516864999991
 20
12510.538167999999
 30
0.0
 11
24393.019107999971
 21
12510.538167999999
 31
0.0
  0
LINE
  5
54BC
  8
SUNPOU
  6
CONTINUOUS
 62
     4
 10
24350.516864999991
 20
12776.222818
 30
0.0
 11
24350.516864999991
 21
12430.538167999999
 31
0.0
  0
LINE
  5
54BD
  8
SUNPOU
  6
CONTINUOUS
 62
     4
 10
24308.014621999981
 20
13359.488957
 30
0.0
 11
24308.014621999981
 21
12430.538167999999
 31
0.0
  0
LINE
  5
54BE
  8
SUNPOU
  6
CONTINUOUS
 62
     4
 10
24350.516864999991
 20
12510.538167999999
 30
0.0
 11
24590.516864999991
 21
12510.538167999999
 31
0.0
  0
LINE
  5
54BF
  8
SUNPOU
  6
CONTINUOUS
 62
     4
 10
24308.014621999981
 20
12510.538167999999
 30
0.0
 11
24068.014621999981
 21
12510.538167999999
 31
0.0
  0
LINE
  5
54C0
  8
SUNPOU
  6
CONTINUOUS
 62
     4
 10
24350.516864999991
 20
12510.538167999999
 30
0.0
 11
24308.014621999981
 21
12510.538167999999
 31
0.0
  0
LINE
  5
54C1
  8
SUNPOU
  6
CONTINUOUS
 62
     4
 10
21082.016865000001
 20
12776.222818
 30
0.0
 11
21082.016865000001
 21
12430.538167999999
 31
0.0
  0
LINE
  5
54C2
  8
SUNPOU
  6
CONTINUOUS
 62
     4
 10
21124.519107999971
 20
13359.488957
 30
0.0
 11
21124.519107999971
 21
12430.538167999999
 31
0.0
  0
LINE
  5
54C3
  8
SUNPOU
  6
CONTINUOUS
 62
     4
 10
21082.016865000001
 20
12510.538167999999
 30
0.0
 11
20842.016865000001
 21
12510.538167999999
 31
0.0
  0
LINE
  5
54C4
  8
SUNPOU
  6
CONTINUOUS
 62
     4
 10
21124.519107999971
 20
12510.538167999999
 30
0.0
 11
21364.519107999971
 21
12510.538167999999
 31
0.0
  0
LINE
  5
54C5
  8
SUNPOU
  6
CONTINUOUS
 62
     4
 10
21082.016865000001
 20
12510.538167999999
 30
0.0
 11
21124.519107999971
 21
12510.538167999999
 31
0.0
  0
LINE
  5
54C6
  8
SUNPOU
  6
CONTINUOUS
 62
     4
 10
21039.514621999992
 20
13359.488957
 30
0.0
 11
21039.514621999992
 21
12030.538167999999
 31
0.0
  0
LINE
  5
54C7
  8
SUNPOU
  6
CONTINUOUS
 62
     4
 10
24393.019107999971
 20
13359.488957
 30
0.0
 11
24393.019107999971
 21
12030.538167999999
 31
0.0
  0
LINE
  5
54C8
  8
SUNPOU
  6
CONTINUOUS
 62
     4
 10
21039.514621999992
 20
12110.538167999999
 30
0.0
 11
24393.019107999971
 21
12110.538167999999
 31
0.0
  0
LINE
  5
54C9
  8
SUNPOU
  6
CONTINUOUS
 62
     4
 10
24473.01514899997
 20
13889.486252000001
 30
0.0
 11
25523.016468999969
 21
13889.486252000001
 31
0.0
  0
LINE
  5
54CA
  8
SUNPOU
  6
CONTINUOUS
 62
     4
 10
25323.016468999969
 20
13481.986252000001
 30
0.0
 11
25523.016468999969
 21
13481.986252000001
 31
0.0
  0
LINE
  5
54CB
  8
SUNPOU
  6
CONTINUOUS
 62
     4
 10
25443.016468999969
 20
13889.486252000001
 30
0.0
 11
25443.016468999969
 21
13481.986252000001
 31
0.0
  0
LINE
  5
54CC
  8
SUNPOU
  6
CONTINUOUS
 62
     4
 10
24473.01514899997
 20
14590.486252000001
 30
0.0
 11
25523.016468999969
 21
14590.486252000001
 31
0.0
  0
LINE
  5
54CD
  8
SUNPOU
  6
CONTINUOUS
 62
     4
 10
24473.01514899997
 20
13889.486252000001
 30
0.0
 11
25523.016468999969
 21
13889.486252000001
 31
0.0
  0
LINE
  5
54CE
  8
SUNPOU
  6
CONTINUOUS
 62
     4
 10
25443.016468999969
 20
14590.486252000001
 30
0.0
 11
25443.016468999969
 21
13889.486252000001
 31
0.0
  0
LINE
  5
54CF
  8
SUNPOU
  6
CONTINUOUS
 62
     4
 10
24473.01514899997
 20
15291.72676350001
 30
0.0
 11
25523.016468999969
 21
15291.72676350001
 31
0.0
  0
LINE
  5
54D0
  8
SUNPOU
  6
CONTINUOUS
 62
     4
 10
24473.01514899997
 20
14590.486252000001
 30
0.0
 11
25523.016468999969
 21
14590.486252000001
 31
0.0
  0
LINE
  5
54D1
  8
SUNPOU
  6
CONTINUOUS
 62
     4
 10
25443.016468999969
 20
15291.72676350001
 30
0.0
 11
25443.016468999969
 21
14590.486252000001
 31
0.0
  0
LINE
  5
54D2
  8
SUNPOU
  6
CONTINUOUS
 62
     4
 10
24473.01514899997
 20
15992.486252000001
 30
0.0
 11
25523.016468999969
 21
15992.486252000001
 31
0.0
  0
LINE
  5
54D3
  8
SUNPOU
  6
CONTINUOUS
 62
     4
 10
24473.01514899997
 20
15291.72676350001
 30
0.0
 11
25523.016468999969
 21
15291.72676350001
 31
0.0
  0
LINE
  5
54D4
  8
SUNPOU
  6
CONTINUOUS
 62
     4
 10
25443.016468999969
 20
15992.486252000001
 30
0.0
 11
25443.016468999969
 21
15291.72676350001
 31
0.0
  0
LINE
  5
54D5
  8
SUNPOU
  6
CONTINUOUS
 62
     4
 10
25323.016468999969
 20
16750.486251999992
 30
0.0
 11
25523.016468999969
 21
16750.486251999992
 31
0.0
  0
LINE
  5
54D6
  8
SUNPOU
  6
CONTINUOUS
 62
     4
 10
24473.01514899997
 20
15992.486252000001
 30
0.0
 11
25523.016468999969
 21
15992.486252000001
 31
0.0
  0
LINE
  5
54D7
  8
SUNPOU
  6
CONTINUOUS
 62
     4
 10
25443.016468999969
 20
16750.486251999992
 30
0.0
 11
25443.016468999969
 21
15992.486252000001
 31
0.0
  0
LINE
  5
54D8
  8
SUNPOU
  6
CONTINUOUS
 62
     4
 10
24473.01514899997
 20
17508.486251999992
 30
0.0
 11
25523.016468999969
 21
17508.486251999992
 31
0.0
  0
LINE
  5
54D9
  8
SUNPOU
  6
CONTINUOUS
 62
     4
 10
25323.016468999969
 20
16750.486251999992
 30
0.0
 11
25523.016468999969
 21
16750.486251999992
 31
0.0
  0
LINE
  5
54DA
  8
SUNPOU
  6
CONTINUOUS
 62
     4
 10
25443.016468999969
 20
17508.486251999992
 30
0.0
 11
25443.016468999969
 21
16750.486251999992
 31
0.0
  0
LINE
  5
54DB
  8
SUNPOU
  6
CONTINUOUS
 62
     4
 10
24473.01514899997
 20
18209.486251999992
 30
0.0
 11
25523.016468999969
 21
18209.486251999992
 31
0.0
  0
LINE
  5
54DC
  8
SUNPOU
  6
CONTINUOUS
 62
     4
 10
24473.01514899997
 20
17508.486251999992
 30
0.0
 11
25523.016468999969
 21
17508.486251999992
 31
0.0
  0
LINE
  5
54DD
  8
SUNPOU
  6
CONTINUOUS
 62
     4
 10
25443.016468999969
 20
18209.486251999992
 30
0.0
 11
25443.016468999969
 21
17508.486251999992
 31
0.0
  0
LINE
  5
54DE
  8
SUNPOU
  6
CONTINUOUS
 62
     4
 10
24473.01514899997
 20
18910.486251999999
 30
0.0
 11
25523.016468999969
 21
18910.486251999992
 31
0.0
  0
LINE
  5
54DF
  8
SUNPOU
  6
CONTINUOUS
 62
     4
 10
24473.01514899997
 20
18209.486251999992
 30
0.0
 11
25523.016468999969
 21
18209.486251999992
 31
0.0
  0
LINE
  5
54E0
  8
SUNPOU
  6
CONTINUOUS
 62
     4
 10
25443.016468999969
 20
18910.486251999992
 30
0.0
 11
25443.016468999969
 21
18209.486251999992
 31
0.0
  0
LINE
  5
54E1
  8
SUNPOU
  6
CONTINUOUS
 62
     4
 10
25323.016468999969
 20
19668.486251999992
 30
0.0
 11
25523.016468999969
 21
19668.486251999992
 31
0.0
  0
LINE
  5
54E2
  8
SUNPOU
  6
CONTINUOUS
 62
     4
 10
24473.01514899997
 20
18910.486251999999
 30
0.0
 11
25523.016468999969
 21
18910.486251999992
 31
0.0
  0
LINE
  5
54E3
  8
SUNPOU
  6
CONTINUOUS
 62
     4
 10
25443.016468999969
 20
19668.486251999992
 30
0.0
 11
25443.016468999969
 21
18910.486251999992
 31
0.0
  0
LINE
  5
54E4
  8
SUNPOU
  6
CONTINUOUS
 62
     4
 10
25323.016468999969
 20
16750.486251999992
 30
0.0
 11
25923.016468999969
 21
16750.486251999992
 31
0.0
  0
LINE
  5
54E5
  8
SUNPOU
  6
CONTINUOUS
 62
     4
 10
25323.016468999969
 20
19668.486251999992
 30
0.0
 11
25923.016468999969
 21
19668.486251999992
 31
0.0
  0
LINE
  5
54E6
  8
SUNPOU
  6
CONTINUOUS
 62
     4
 10
25843.016468999969
 20
16750.486251999992
 30
0.0
 11
25843.016468999969
 21
19668.486251999992
 31
0.0
  0
LINE
  5
54E7
  8
SUNPOU
  6
CONTINUOUS
 62
     4
 10
25323.016468999969
 20
13481.986252000001
 30
0.0
 11
25923.016468999969
 21
13481.986252000001
 31
0.0
  0
LINE
  5
54E8
  8
SUNPOU
  6
CONTINUOUS
 62
     4
 10
25323.016468999969
 20
16750.486251999992
 30
0.0
 11
25923.016468999969
 21
16750.486251999992
 31
0.0
  0
LINE
  5
54E9
  8
SUNPOU
  6
CONTINUOUS
 62
     4
 10
25843.016468999969
 20
13481.986252000001
 30
0.0
 11
25843.016468999969
 21
16750.486251999992
 31
0.0
  0
LINE
  5
54EA
  8
SUNPOU
  6
CONTINUOUS
 62
     4
 10
24473.01514899997
 20
19710.983547
 30
0.0
 11
26323.01646899998
 21
19710.983546999982
 31
0.0
  0
LINE
  5
54EB
  8
SUNPOU
  6
CONTINUOUS
 62
     4
 10
24473.01514899997
 20
13439.488957
 30
0.0
 11
26323.01646899998
 21
13439.488957
 31
0.0
  0
LINE
  5
54EC
  8
SUNPOU
  6
CONTINUOUS
 62
     4
 10
26243.01646899998
 20
19710.983546999982
 30
0.0
 11
26243.01646899998
 21
13439.488957
 31
0.0
  0
LINE
  5
54ED
  8
SUNPOU
  6
CONTINUOUS
 62
     4
 10
25323.016468999969
 20
19668.486251999992
 30
0.0
 11
25923.016468999969
 21
19668.486251999992
 31
0.0
  0
LINE
  5
54EE
  8
SUNPOU
  6
CONTINUOUS
 62
     4
 10
24473.01514899997
 20
19710.983547
 30
0.0
 11
25923.016468999969
 21
19710.983546999982
 31
0.0
  0
LINE
  5
54EF
  8
SUNPOU
  6
CONTINUOUS
 62
     4
 10
25843.016468999969
 20
19668.486251999992
 30
0.0
 11
25843.016468999969
 21
19428.486251999992
 31
0.0
  0
LINE
  5
54F0
  8
SUNPOU
  6
CONTINUOUS
 62
     4
 10
25843.016468999969
 20
19710.983546999982
 30
0.0
 11
25843.016468999969
 21
19950.983546999982
 31
0.0
  0
LINE
  5
54F1
  8
SUNPOU
  6
CONTINUOUS
 62
     4
 10
25843.016468999969
 20
19668.486251999992
 30
0.0
 11
25843.016468999969
 21
19710.983546999982
 31
0.0
  0
LINE
  5
54F2
  8
SUNPOU
  6
CONTINUOUS
 62
     4
 10
25323.016468999969
 20
13481.986252000001
 30
0.0
 11
25923.016468999969
 21
13481.986252000001
 31
0.0
  0
LINE
  5
54F3
  8
SUNPOU
  6
CONTINUOUS
 62
     4
 10
24473.01514899997
 20
13439.488957
 30
0.0
 11
25923.016468999969
 21
13439.488957
 31
0.0
  0
LINE
  5
54F4
  8
SUNPOU
  6
CONTINUOUS
 62
     4
 10
25843.016468999969
 20
13481.986252000001
 30
0.0
 11
25843.016468999969
 21
13721.986252000001
 31
0.0
  0
LINE
  5
54F5
  8
SUNPOU
  6
CONTINUOUS
 62
     4
 10
25843.016468999969
 20
13439.488957
 30
0.0
 11
25843.016468999969
 21
13199.488957
 31
0.0
  0
LINE
  5
54F6
  8
SUNPOU
  6
CONTINUOUS
 62
     4
 10
25843.016468999969
 20
13481.986252000001
 30
0.0
 11
25843.016468999969
 21
13439.488957
 31
0.0
  0
LINE
  5
54F7
  8
SUNPOU
  6
CONTINUOUS
 62
     4
 10
21082.016865000001
 20
19790.984537000018
 30
0.0
 11
21082.016865000001
 21
20520.987440000012
 31
0.0
  0
LINE
  5
54F8
  8
SUNPOU
  6
CONTINUOUS
 62
     4
 10
21489.516864999991
 20
19790.984537000018
 30
0.0
 11
21489.516864999991
 21
20520.987440000012
 31
0.0
  0
LINE
  5
54F9
  8
SUNPOU
  6
CONTINUOUS
 62
     4
 10
21082.016865000001
 20
20440.987440000012
 30
0.0
 11
20842.016865000001
 21
20440.987440000012
 31
0.0
  0
LINE
  5
54FA
  8
SUNPOU
  6
CONTINUOUS
 62
     4
 10
21489.516864999991
 20
20440.987440000012
 30
0.0
 11
21729.516864999991
 21
20440.987440000012
 31
0.0
  0
LINE
  5
54FB
  8
SUNPOU
  6
CONTINUOUS
 62
     4
 10
21082.016865000001
 20
20440.987440000012
 30
0.0
 11
21489.516864999991
 21
20440.987440000012
 31
0.0
  0
LINE
  5
54FC
  8
SUNPOU
  6
CONTINUOUS
 62
     4
 10
23592.516864999991
 20
19790.984537000018
 30
0.0
 11
23592.516864999991
 21
20520.987440000012
 31
0.0
  0
LINE
  5
54FD
  8
SUNPOU
  6
CONTINUOUS
 62
     4
 10
24350.517854500002
 20
19790.984537000018
 30
0.0
 11
24350.517854500002
 21
20520.987440000012
 31
0.0
  0
LINE
  5
54FE
  8
SUNPOU
  6
CONTINUOUS
 62
     4
 10
23592.516864999991
 20
20440.987440000012
 30
0.0
 11
24350.517854500002
 21
20440.987440000012
 31
0.0
  0
LINE
  5
54FF
  8
SUNPOU
  6
CONTINUOUS
 62
     4
 10
22891.516864999991
 20
19790.984537000018
 30
0.0
 11
22891.516864999991
 21
20520.987440000012
 31
0.0
  0
LINE
  5
5500
  8
SUNPOU
  6
CONTINUOUS
 62
     4
 10
23592.516864999991
 20
19790.984537000018
 30
0.0
 11
23592.516864999991
 21
20520.987440000012
 31
0.0
  0
LINE
  5
5501
  8
SUNPOU
  6
CONTINUOUS
 62
     4
 10
22891.516864999991
 20
20440.987440000012
 30
0.0
 11
23592.516864999991
 21
20440.987440000012
 31
0.0
  0
LINE
  5
5502
  8
SUNPOU
  6
CONTINUOUS
 62
     4
 10
22190.51686499998
 20
19790.984537000018
 30
0.0
 11
22190.51686499998
 21
20520.987440000012
 31
0.0
  0
LINE
  5
5503
  8
SUNPOU
  6
CONTINUOUS
 62
     4
 10
22891.516864999991
 20
19790.984537000018
 30
0.0
 11
22891.516864999991
 21
20520.987440000012
 31
0.0
  0
LINE
  5
5504
  8
SUNPOU
  6
CONTINUOUS
 62
     4
 10
22190.51686499998
 20
20440.987440000012
 30
0.0
 11
22891.516864999991
 21
20440.987440000012
 31
0.0
  0
LINE
  5
5505
  8
SUNPOU
  6
CONTINUOUS
 62
     4
 10
21489.516864999991
 20
19790.984537000018
 30
0.0
 11
21489.516864999991
 21
20520.987440000012
 31
0.0
  0
LINE
  5
5506
  8
SUNPOU
  6
CONTINUOUS
 62
     4
 10
22190.51686499998
 20
19790.984537000018
 30
0.0
 11
22190.51686499998
 21
20520.987440000012
 31
0.0
  0
LINE
  5
5507
  8
SUNPOU
  6
CONTINUOUS
 62
     4
 10
21489.516864999991
 20
20440.987440000012
 30
0.0
 11
22190.51686499998
 21
20440.987440000012
 31
0.0
  0
LINE
  5
5508
  8
SUNPOU
  6
CONTINUOUS
 62
     4
 10
24350.516864999991
 20
19790.984537000018
 30
0.0
 11
24350.516864999991
 21
20520.987440000012
 31
0.0
  0
LINE
  5
5509
  8
SUNPOU
  6
CONTINUOUS
 62
     4
 10
24393.01316999998
 20
19790.984537000018
 30
0.0
 11
24393.01316999998
 21
20520.987440000012
 31
0.0
  0
LINE
  5
550A
  8
SUNPOU
  6
CONTINUOUS
 62
     4
 10
24350.516864999991
 20
20440.987440000012
 30
0.0
 11
24110.516864999991
 21
20440.987440000012
 31
0.0
  0
LINE
  5
550B
  8
SUNPOU
  6
CONTINUOUS
 62
     4
 10
24393.01316999998
 20
20440.987440000012
 30
0.0
 11
24633.01316999998
 21
20440.987440000012
 31
0.0
  0
LINE
  5
550C
  8
SUNPOU
  6
CONTINUOUS
 62
     4
 10
24350.516864999991
 20
20440.987440000012
 30
0.0
 11
24393.01316999998
 21
20440.987440000012
 31
0.0
  0
LINE
  5
550D
  8
SUNPOU
  6
CONTINUOUS
 62
     4
 10
21082.016865000001
 20
19790.984537000018
 30
0.0
 11
21082.016865000001
 21
20520.987440000012
 31
0.0
  0
LINE
  5
550E
  8
SUNPOU
  6
CONTINUOUS
 62
     4
 10
21039.520559999972
 20
19790.984537000018
 30
0.0
 11
21039.520559999972
 21
20520.987440000012
 31
0.0
  0
LINE
  5
550F
  8
SUNPOU
  6
CONTINUOUS
 62
     4
 10
21082.016865000001
 20
20440.987440000012
 30
0.0
 11
21322.016864999991
 21
20440.987440000012
 31
0.0
  0
LINE
  5
5510
  8
SUNPOU
  6
CONTINUOUS
 62
     4
 10
21039.520559999972
 20
20440.987440000012
 30
0.0
 11
20799.520559999972
 21
20440.987440000012
 31
0.0
  0
LINE
  5
5511
  8
SUNPOU
  6
CONTINUOUS
 62
     4
 10
21082.016865000001
 20
20440.987440000012
 30
0.0
 11
21039.520559999972
 21
20440.987440000012
 31
0.0
  0
TEXT
  5
5512
  8
0
  6
CONTINUOUS
 62
     7
 10
20479.204885471168
 20
20520.987440000012
 30
0.0
 40
160.0
  1
42.5
  0
TEXT
  5
5513
  8
0
  6
CONTINUOUS
 62
     7
 10
24473.328844528769
 20
20520.987440000012
 30
0.0
 40
160.0
  1
42.5
  0
TEXT
  5
5514
  8
0
  6
CONTINUOUS
 62
     7
 10
21666.683531666651
 20
20200.987440000012
 30
0.0
 40
160.0
  1
701
  0
TEXT
  5
5515
  8
0
  6
CONTINUOUS
 62
     7
 10
22367.683531666651
 20
20520.987440000012
 30
0.0
 40
160.0
  1
701
  0
TEXT
  5
5516
  8
0
  6
CONTINUOUS
 62
     7
 10
23068.683531666651
 20
20520.987440000012
 30
0.0
 40
160.0
  1
701
  0
TEXT
  5
5517
  8
0
  6
CONTINUOUS
 62
     7
 10
23758.184026416649
 20
20520.987440000012
 30
0.0
 40
160.0
  1
758
  0
TEXT
  5
5518
  8
0
  6
CONTINUOUS
 62
     7
 10
21182.850198333319
 20
20520.987440000012
 30
0.0
 40
160.0
  1
407.5
  0
TEXT
  5
5519
  8
0
  6
CONTINUOUS
 62
     7
 10
25763.016468999969
 20
12865.93272060321
 30
0.0
 40
160.0
  1
42.5
 50
90.0
  0
TEXT
  5
551A
  8
0
  6
CONTINUOUS
 62
     7
 10
25763.016468999969
 20
19804.539783396791
 30
0.0
 40
160.0
  1
42.5
 50
90.0
  0
TEXT
  5
551B
  8
0
  6
CONTINUOUS
 62
     7
 10
26163.01646899998
 20
16201.90291866667
 30
0.0
 40
160.0
  1
6271.5
 50
90.0
  0
TEXT
  5
551C
  8
0
  6
CONTINUOUS
 62
     7
 10
25763.016468999969
 20
14716.236252000001
 30
0.0
 40
160.0
  1
3268.5
 50
90.0
  0
TEXT
  5
551D
  8
0
  6
CONTINUOUS
 62
     7
 10
25763.016468999969
 20
17942.819585333331
 30
0.0
 40
160.0
  1
2918
 50
90.0
  0
TEXT
  5
551E
  8
0
  6
CONTINUOUS
 62
     7
 10
25363.016468999969
 20
19076.15291866667
 30
0.0
 40
160.0
  1
758
 50
90.0
  0
TEXT
  5
551F
  8
0
  6
CONTINUOUS
 62
     7
 10
25363.016468999969
 20
18386.652918666659
 30
0.0
 40
160.0
  1
701
 50
90.0
  0
TEXT
  5
5520
  8
0
  6
CONTINUOUS
 62
     7
 10
25363.016468999969
 20
17685.65291866667
 30
0.0
 40
160.0
  1
701
 50
90.0
  0
TEXT
  5
5521
  8
0
  6
CONTINUOUS
 62
     7
 10
25363.016468999969
 20
16916.15291866667
 30
0.0
 40
160.0
  1
758
 50
90.0
  0
TEXT
  5
5522
  8
0
  6
CONTINUOUS
 62
     7
 10
25363.016468999969
 20
16158.15291866667
 30
0.0
 40
160.0
  1
758
 50
90.0
  0
TEXT
  5
5523
  8
0
  6
CONTINUOUS
 62
     7
 10
25363.016468999969
 20
15468.773174416679
 30
0.0
 40
160.0
  1
701
 50
90.0
  0
TEXT
  5
5524
  8
0
  6
CONTINUOUS
 62
     7
 10
25363.016468999969
 20
14767.773174416679
 30
0.0
 40
160.0
  1
701
 50
90.0
  0
TEXT
  5
5525
  8
0
  6
CONTINUOUS
 62
     7
 10
25363.016468999969
 20
14066.65291866667
 30
0.0
 40
160.0
  1
701
 50
90.0
  0
TEXT
  5
5526
  8
0
  6
CONTINUOUS
 62
     7
 10
25723.016468999969
 20
13554.80666620354
 30
0.0
 40
160.0
  1
407.5
 50
90.0
  0
TEXT
  5
5527
  8
0
  6
CONTINUOUS
 62
     7
 10
22316.26686499998
 20
12190.538167999999
 30
0.0
 40
160.0
  1
3353.5
  0
TEXT
  5
5528
  8
0
  6
CONTINUOUS
 62
     7
 10
21200.070537382071
 20
12590.538167999999
 30
0.0
 40
160.0
  1
42.5
  0
TEXT
  5
5529
  8
0
  6
CONTINUOUS
 62
     7
 10
23752.463192617881
 20
12590.538167999999
 30
0.0
 40
160.0
  1
42.5
  0
TEXT
  5
552A
  8
0
  6
CONTINUOUS
 62
     7
 10
24468.570537382071
 20
12590.538167999999
 30
0.0
 40
160.0
  1
42.5
  0
TEXT
  5
552B
  8
0
  6
CONTINUOUS
 62
     7
 10
20483.963192617881
 20
12590.538167999999
 30
0.0
 40
160.0
  1
42.5
  0
TEXT
  5
552C
  8
0
  6
CONTINUOUS
 62
     7
 10
14240.517868000001
 20
5021.1885389999989
 30
0.0
 40
160.0
  1
3268.5
  0
TEXT
  5
552D
  8
0
  6
CONTINUOUS
 62
     7
 10
11280.60120133332
 20
5021.1885389999989
 30
0.0
 40
160.0
  1
2918
  0
TEXT
  5
552E
  8
0
  6
CONTINUOUS
 62
     7
 10
9448.5941589036938
 20
5021.1885389999989
 30
0.0
 40
160.0
  1
42.5
  0
TEXT
  5
552F
  8
0
  6
CONTINUOUS
 62
     7
 10
16455.58650530982
 20
5021.1885389999989
 30
0.0
 40
160.0
  1
42.5
  0
TEXT
  5
5530
  8
0
  6
CONTINUOUS
 62
     7
 10
12808.18453466666
 20
4621.1887040000001
 30
0.0
 40
160.0
  1
6271.5
  0
TEXT
  5
5531
  8
0
  6
CONTINUOUS
 62
     7
 10
8875.767472000005
 20
6541.0217073333351
 30
0.0
 40
160.0
  1
2157（2397）
 50
90.0
  0
TEXT
  5
5532
  8
0
  6
CONTINUOUS
 62
     7
 10
17327.268263999991
 20
6609.8550406666691
 30
0.0
 40
160.0
  1
2348（2588）
 50
90.0
  0
TEXT
  5
5533
  8
0
  6
CONTINUOUS
 62
     7
 10
9452.4345346666632
 20
9469.1900499999956
 30
0.0
 40
160.0
  1
180
  0
TEXT
  5
5534
  8
0
  6
CONTINUOUS
 62
     7
 10
12808.18453466666
 20
9469.1900499999992
 30
0.0
 40
160.0
  1
6271.5
  0
TEXT
  5
5535
  8
0
  6
CONTINUOUS
 62
     7
 10
16533.934534666671
 20
9469.1900499999992
 30
0.0
 40
160.0
  1
150
  0
TEXT
  5
5536
  8
0
  6
CONTINUOUS
 62
     7
 10
12806.517868000001
 20
9869.1883999999955
 30
0.0
 40
160.0
  1
6601.5
  0
TEXT
  5
5537
  8
0
  6
CONTINUOUS
 62
     7
 10
22316.26686499998
 20
4621.1887040000047
 30
0.0
 40
160.0
  1
3353.5
  0
TEXT
  5
5538
  8
0
  6
CONTINUOUS
 62
     7
 10
20473.477874741151
 20
5021.1885390000061
 30
0.0
 40
160.0
  1
42.5
  0
TEXT
  5
5539
  8
0
  6
CONTINUOUS
 62
     7
 10
22316.26686499998
 20
5021.1885390000061
 30
0.0
 40
160.0
  1
3268.5
  0
TEXT
  5
553A
  8
0
  6
CONTINUOUS
 62
     7
 10
21814.93353166664
 20
5421.1885390000061
 30
0.0
 40
160.0
  1
有効開口巾 3080.5
  0
TEXT
  5
553B
  8
0
  6
CONTINUOUS
 62
     7
 10
24479.05585525883
 20
5021.1885390000061
 30
0.0
 40
160.0
  1
42.5
  0
TEXT
  5
5540
  8
0
  6
CONTINUOUS
 62
     7
 10
19752.013235999981
 20
6647.1883870000029
 30
0.0
 40
160.0
  1
2348 (2588)
 50
90.0
  0
TEXT
  5
5541
  8
0
  6
CONTINUOUS
 62
     7
 10
20152.015544999991
 20
6305.1676122912768
 30
0.0
 40
160.0
  1
有効開口高サ 1891.5
 50
90.0
  0
TEXT
  5
5542
  8
0
  6
CONTINUOUS
 62
     7
 10
10095.131274999991
 20
12674.03324170262
 30
0.0
 40
160.0
  1
192.5
 50
90.0
  0
TEXT
  5
5543
  8
0
  6
CONTINUOUS
 62
     7
 10
10095.131274999991
 20
14026.736252000001
 30
0.0
 40
160.0
  1
1809.5
 50
90.0
  0
TEXT
  5
5544
  8
0
  6
CONTINUOUS
 62
     7
 10
10095.131274999991
 20
15754.319585333331
 30
0.0
 40
160.0
  1
1459
 50
90.0
  0
TEXT
  5
5545
  8
0
  6
CONTINUOUS
 62
     7
 10
10095.131274999991
 20
17213.319585333331
 30
0.0
 40
160.0
  1
1459
 50
90.0
  0
TEXT
  5
5546
  8
0
  6
CONTINUOUS
 62
     7
 10
10095.131274999991
 20
18672.319585333309
 30
0.0
 40
160.0
  1
1459
 50
90.0
  0
TEXT
  5
5547
  8
0
  6
CONTINUOUS
 62
     7
 10
10095.131274999991
 20
19979.941436807669
 30
0.0
 40
160.0
  1
222.5
 50
90.0
  0
TEXT
  5
5548
  8
0
  6
CONTINUOUS
 62
     7
 10
10495.131274999991
 20
20010.982161000022
 30
0.0
 40
160.0
  1
20
 50
90.0
  0
TEXT
  5
5549
  8
0
  6
CONTINUOUS
 62
     7
 10
12338.885504
 20
20590.995094000002
 30
0.0
 40
160.0
  1
3268.5
  0
TEXT
  5
554A
  8
0
  6
CONTINUOUS
 62
     7
 10
10488.13879797673
 20
20590.995094000002
 30
0.0
 40
160.0
  1
85.5
  0
TEXT
  5
554B
  8
0
  6
CONTINUOUS
 62
     7
 10
14509.63221002325
 20
20590.995094000002
 30
0.0
 40
160.0
  1
85.5
  0
TEXT
  5
554D
  8
0
  6
CONTINUOUS
 62
     7
 10
20072.562287999968
 20
14026.856507750001
 30
0.0
 40
160.0
  1
1809.5
 50
90.0
  0
TEXT
  5
554E
  8
0
  6
CONTINUOUS
 62
     7
 10
20072.562287999968
 20
15754.43984108334
 30
0.0
 40
160.0
  1
1459
 50
90.0
  0
TEXT
  5
554F
  8
0
  6
CONTINUOUS
 62
     7
 10
20072.562287999968
 20
17213.319585333331
 30
0.0
 40
160.0
  1
1459
 50
90.0
  0
TEXT
  5
5550
  8
0
  6
CONTINUOUS
 62
     7
 10
20072.562287999968
 20
18672.319585333309
 30
0.0
 40
160.0
  1
1459
 50
90.0
  0
ARC
  5
5551
  8
0
  6
BYBLOCK
 62
     0
 10
20152.562287999979
 20
18209.486251999992
 30
0.0
 40
15.0
 50
90.0
 51
270.0
  0
ARC
  5
5552
  8
0
  6
BYBLOCK
 62
     0
 10
20152.562287999979
 20
18209.486251999992
 30
0.0
 40
15.0
 50
270.0
 51
90.0
  0
ARC
  5
5553
  8
0
  6
BYBLOCK
 62
     0
 10
20152.562287999979
 20
19668.486251999992
 30
0.0
 40
15.0
 50
270.0
 51
90.0
  0
ARC
  5
5554
  8
0
  6
BYBLOCK
 62
     0
 10
20152.562287999979
 20
19668.486251999992
 30
0.0
 40
15.0
 50
90.0
 51
270.0
  0
ARC
  5
5555
  8
0
  6
BYBLOCK
 62
     0
 10
20152.562287999979
 20
16750.486251999992
 30
0.0
 40
15.0
 50
90.0
 51
270.0
  0
ARC
  5
5556
  8
0
  6
BYBLOCK
 62
     0
 10
20152.562287999979
 20
16750.486251999992
 30
0.0
 40
15.0
 50
270.0
 51
90.0
  0
ARC
  5
5557
  8
0
  6
BYBLOCK
 62
     0
 10
20152.562287999979
 20
18209.486251999992
 30
0.0
 40
15.0
 50
270.0
 51
90.0
  0
ARC
  5
5558
  8
0
  6
BYBLOCK
 62
     0
 10
20152.562287999979
 20
18209.486251999992
 30
0.0
 40
15.0
 50
90.0
 51
270.0
  0
ARC
  5
5559
  8
0
  6
BYBLOCK
 62
     0
 10
20152.562287999979
 20
15291.72676350001
 30
0.0
 40
15.0
 50
90.0
 51
270.0
  0
ARC
  5
555A
  8
0
  6
BYBLOCK
 62
     0
 10
20152.562287999979
 20
15291.72676350001
 30
0.0
 40
15.0
 50
270.0
 51
90.0
  0
ARC
  5
555B
  8
0
  6
BYBLOCK
 62
     0
 10
20152.562287999979
 20
16750.486251999992
 30
0.0
 40
15.0
 50
270.0
 51
90.0
  0
ARC
  5
555C
  8
0
  6
BYBLOCK
 62
     0
 10
20152.562287999979
 20
16750.486251999992
 30
0.0
 40
15.0
 50
90.0
 51
270.0
  0
ARC
  5
555D
  8
0
  6
BYBLOCK
 62
     0
 10
20152.562287999979
 20
13481.986252000001
 30
0.0
 40
15.0
 50
90.0
 51
270.0
  0
ARC
  5
555E
  8
0
  6
BYBLOCK
 62
     0
 10
20152.562287999979
 20
13481.986252000001
 30
0.0
 40
15.0
 50
270.0
 51
90.0
  0
ARC
  5
555F
  8
0
  6
BYBLOCK
 62
     0
 10
20152.562287999979
 20
15291.72676350001
 30
0.0
 40
15.0
 50
270.0
 51
90.0
  0
ARC
  5
5560
  8
0
  6
BYBLOCK
 62
     0
 10
20152.562287999979
 20
15291.72676350001
 30
0.0
 40
15.0
 50
90.0
 51
270.0
  0
ARC
  5
5565
  8
0
  6
BYBLOCK
 62
     0
 10
14373.135504
 20
20510.995094000002
 30
0.0
 40
15.0
 50
180.0
 51
0.0
  0
ARC
  5
5566
  8
0
  6
BYBLOCK
 62
     0
 10
14373.135504
 20
20510.995094000002
 30
0.0
 40
15.0
 50
0.0
 51
180.0
  0
ARC
  5
5567
  8
0
  6
BYBLOCK
 62
     0
 10
14458.635503999991
 20
20510.995094000002
 30
0.0
 40
15.0
 50
0.0
 51
180.0
  0
ARC
  5
5568
  8
0
  6
BYBLOCK
 62
     0
 10
14458.635503999991
 20
20510.995094000002
 30
0.0
 40
15.0
 50
180.0
 51
0.0
  0
ARC
  5
5569
  8
0
  6
BYBLOCK
 62
     0
 10
11104.635503999991
 20
20510.995094000002
 30
0.0
 40
15.0
 50
0.0
 51
180.0
  0
ARC
  5
556A
  8
0
  6
BYBLOCK
 62
     0
 10
11104.635503999991
 20
20510.995094000002
 30
0.0
 40
15.0
 50
180.0
 51
0.0
  0
ARC
  5
556B
  8
0
  6
BYBLOCK
 62
     0
 10
11019.135504
 20
20510.995094000002
 30
0.0
 40
15.0
 50
180.0
 51
0.0
  0
ARC
  5
556C
  8
0
  6
BYBLOCK
 62
     0
 10
11019.135504
 20
20510.995094000002
 30
0.0
 40
15.0
 50
0.0
 51
180.0
  0
ARC
  5
556D
  8
0
  6
BYBLOCK
 62
     0
 10
14373.135504
 20
20510.995094000002
 30
0.0
 40
15.0
 50
180.0
 51
0.0
  0
ARC
  5
556E
  8
0
  6
BYBLOCK
 62
     0
 10
14373.135504
 20
20510.995094000002
 30
0.0
 40
15.0
 50
0.0
 51
180.0
  0
ARC
  5
556F
  8
0
  6
BYBLOCK
 62
     0
 10
11104.635503999991
 20
20510.995094000002
 30
0.0
 40
15.0
 50
0.0
 51
180.0
  0
ARC
  5
5570
  8
0
  6
BYBLOCK
 62
     0
 10
11104.635503999991
 20
20510.995094000002
 30
0.0
 40
15.0
 50
180.0
 51
0.0
  0
ARC
  5
5571
  8
0
  6
BYBLOCK
 62
     0
 10
10575.131274999991
 20
19870.982161000022
 30
0.0
 40
15.0
 50
270.0
 51
90.0
  0
ARC
  5
5572
  8
0
  6
BYBLOCK
 62
     0
 10
10575.131274999991
 20
19870.982161000022
 30
0.0
 40
15.0
 50
90.0
 51
270.0
  0
ARC
  5
5573
  8
0
  6
BYBLOCK
 62
     0
 10
10575.131274999991
 20
19890.982161000022
 30
0.0
 40
15.0
 50
90.0
 51
270.0
  0
ARC
  5
5574
  8
0
  6
BYBLOCK
 62
     0
 10
10575.131274999991
 20
19890.982161000022
 30
0.0
 40
15.0
 50
270.0
 51
90.0
  0
ARC
  5
5575
  8
0
  6
BYBLOCK
 62
     0
 10
10175.131274999991
 20
19668.486251999992
 30
0.0
 40
15.0
 50
270.0
 51
90.0
  0
ARC
  5
5576
  8
0
  6
BYBLOCK
 62
     0
 10
10175.131274999991
 20
19668.486251999992
 30
0.0
 40
15.0
 50
90.0
 51
270.0
  0
ARC
  5
5577
  8
0
  6
BYBLOCK
 62
     0
 10
10175.131274999991
 20
19890.982161000022
 30
0.0
 40
15.0
 50
90.0
 51
270.0
  0
ARC
  5
5578
  8
0
  6
BYBLOCK
 62
     0
 10
10175.131274999991
 20
19890.982161000022
 30
0.0
 40
15.0
 50
270.0
 51
90.0
  0
ARC
  5
5579
  8
0
  6
BYBLOCK
 62
     0
 10
10175.131274999991
 20
18209.486251999992
 30
0.0
 40
15.0
 50
90.0
 51
270.0
  0
ARC
  5
557A
  8
0
  6
BYBLOCK
 62
     0
 10
10175.131274999991
 20
18209.486251999992
 30
0.0
 40
15.0
 50
270.0
 51
90.0
  0
ARC
  5
557B
  8
0
  6
BYBLOCK
 62
     0
 10
10175.131274999991
 20
19668.486251999992
 30
0.0
 40
15.0
 50
270.0
 51
90.0
  0
ARC
  5
557C
  8
0
  6
BYBLOCK
 62
     0
 10
10175.131274999991
 20
19668.486251999992
 30
0.0
 40
15.0
 50
90.0
 51
270.0
  0
ARC
  5
557D
  8
0
  6
BYBLOCK
 62
     0
 10
10175.131274999991
 20
16750.486251999992
 30
0.0
 40
15.0
 50
90.0
 51
270.0
  0
ARC
  5
557E
  8
0
  6
BYBLOCK
 62
     0
 10
10175.131274999991
 20
16750.486251999992
 30
0.0
 40
15.0
 50
270.0
 51
90.0
  0
ARC
  5
557F
  8
0
  6
BYBLOCK
 62
     0
 10
10175.131274999991
 20
18209.486251999992
 30
0.0
 40
15.0
 50
270.0
 51
90.0
  0
ARC
  5
5580
  8
0
  6
BYBLOCK
 62
     0
 10
10175.131274999991
 20
18209.486251999992
 30
0.0
 40
15.0
 50
90.0
 51
270.0
  0
ARC
  5
5581
  8
0
  6
BYBLOCK
 62
     0
 10
10175.131274999991
 20
15291.486252000001
 30
0.0
 40
15.0
 50
90.0
 51
270.0
  0
ARC
  5
5582
  8
0
  6
BYBLOCK
 62
     0
 10
10175.131274999991
 20
15291.486252000001
 30
0.0
 40
15.0
 50
270.0
 51
90.0
  0
ARC
  5
5583
  8
0
  6
BYBLOCK
 62
     0
 10
10175.131274999991
 20
16750.486251999992
 30
0.0
 40
15.0
 50
270.0
 51
90.0
  0
ARC
  5
5584
  8
0
  6
BYBLOCK
 62
     0
 10
10175.131274999991
 20
16750.486251999992
 30
0.0
 40
15.0
 50
90.0
 51
270.0
  0
ARC
  5
5585
  8
0
  6
BYBLOCK
 62
     0
 10
10175.131274999991
 20
13481.986252000001
 30
0.0
 40
15.0
 50
90.0
 51
270.0
  0
ARC
  5
5586
  8
0
  6
BYBLOCK
 62
     0
 10
10175.131274999991
 20
13481.986252000001
 30
0.0
 40
15.0
 50
270.0
 51
90.0
  0
ARC
  5
5587
  8
0
  6
BYBLOCK
 62
     0
 10
10175.131274999991
 20
15291.486252000001
 30
0.0
 40
15.0
 50
270.0
 51
90.0
  0
ARC
  5
5588
  8
0
  6
BYBLOCK
 62
     0
 10
10175.131274999991
 20
15291.486252000001
 30
0.0
 40
15.0
 50
90.0
 51
270.0
  0
ARC
  5
5589
  8
0
  6
BYBLOCK
 62
     0
 10
10175.131274999991
 20
13481.986252000001
 30
0.0
 40
15.0
 50
90.0
 51
270.0
  0
ARC
  5
558A
  8
0
  6
BYBLOCK
 62
     0
 10
10175.131274999991
 20
13481.986252000001
 30
0.0
 40
15.0
 50
270.0
 51
90.0
  0
ARC
  5
558B
  8
0
  6
BYBLOCK
 62
     0
 10
10175.131274999991
 20
13289.490937
 30
0.0
 40
15.0
 50
270.0
 51
90.0
  0
ARC
  5
558C
  8
0
  6
BYBLOCK
 62
     0
 10
10175.131274999991
 20
13289.490937
 30
0.0
 40
15.0
 50
90.0
 51
270.0
  0
ARC
  5
558D
  8
0
  6
BYBLOCK
 62
     0
 10
20232.015544999991
 20
6241.1883740000012
 30
0.0
 40
15.0
 50
90.0
 51
270.0
  0
ARC
  5
558E
  8
0
  6
BYBLOCK
 62
     0
 10
20232.015544999991
 20
6241.1883740000012
 30
0.0
 40
15.0
 50
270.0
 51
90.0
  0
ARC
  5
558F
  8
0
  6
BYBLOCK
 62
     0
 10
20232.015544999991
 20
8132.6883740000021
 30
0.0
 40
15.0
 50
270.0
 51
90.0
  0
ARC
  5
5590
  8
0
  6
BYBLOCK
 62
     0
 10
20232.015544999991
 20
8132.6883740000021
 30
0.0
 40
15.0
 50
90.0
 51
270.0
  0
ARC
  5
5591
  8
0
  6
BYBLOCK
 62
     0
 10
19832.013235999981
 20
6241.1883740000012
 30
0.0
 40
15.0
 50
90.0
 51
270.0
  0
ARC
  5
5592
  8
0
  6
BYBLOCK
 62
     0
 10
19832.013235999981
 20
6241.1883740000012
 30
0.0
 40
15.0
 50
270.0
 51
90.0
  0
ARC
  5
5593
  8
0
  6
BYBLOCK
 62
     0
 10
19832.013235999992
 20
8589.1883999999973
 30
0.0
 40
15.0
 50
270.0
 51
90.0
  0
ARC
  5
5594
  8
0
  6
BYBLOCK
 62
     0
 10
19832.013235999992
 20
8589.1883999999973
 30
0.0
 40
15.0
 50
90.0
 51
270.0
  0
ARC
  5
55A5
  8
0
  6
BYBLOCK
 62
     0
 10
24350.516864999991
 20
4941.1885390000061
 30
0.0
 40
15.0
 50
180.0
 51
0.0
  0
ARC
  5
55A6
  8
0
  6
BYBLOCK
 62
     0
 10
24350.516864999991
 20
4941.1885390000061
 30
0.0
 40
15.0
 50
0.0
 51
180.0
  0
ARC
  5
55A7
  8
0
  6
BYBLOCK
 62
     0
 10
24393.016864999991
 20
4941.1885390000061
 30
0.0
 40
15.0
 50
0.0
 51
180.0
  0
ARC
  5
55A8
  8
0
  6
BYBLOCK
 62
     0
 10
24393.016864999991
 20
4941.1885390000061
 30
0.0
 40
15.0
 50
180.0
 51
0.0
  0
ARC
  5
55A9
  8
0
  6
BYBLOCK
 62
     0
 10
21176.016865000001
 20
5341.1885390000079
 30
0.0
 40
15.0
 50
0.0
 51
180.0
  0
ARC
  5
55AA
  8
0
  6
BYBLOCK
 62
     0
 10
21176.016865000001
 20
5341.1885390000079
 30
0.0
 40
15.0
 50
180.0
 51
0.0
  0
ARC
  5
55AB
  8
0
  6
BYBLOCK
 62
     0
 10
24256.516864999991
 20
5341.1885390000079
 30
0.0
 40
15.0
 50
180.0
 51
0.0
  0
ARC
  5
55AC
  8
0
  6
BYBLOCK
 62
     0
 10
24256.516864999991
 20
5341.1885390000079
 30
0.0
 40
15.0
 50
0.0
 51
180.0
  0
ARC
  5
55AD
  8
0
  6
BYBLOCK
 62
     0
 10
21082.016865000001
 20
4941.1885390000061
 30
0.0
 40
15.0
 50
0.0
 51
180.0
  0
ARC
  5
55AE
  8
0
  6
BYBLOCK
 62
     0
 10
21082.016865000001
 20
4941.1885390000061
 30
0.0
 40
15.0
 50
180.0
 51
0.0
  0
ARC
  5
55AF
  8
0
  6
BYBLOCK
 62
     0
 10
24350.516864999991
 20
4941.1885390000061
 30
0.0
 40
15.0
 50
180.0
 51
0.0
  0
ARC
  5
55B0
  8
0
  6
BYBLOCK
 62
     0
 10
24350.516864999991
 20
4941.1885390000061
 30
0.0
 40
15.0
 50
0.0
 51
180.0
  0
ARC
  5
55B1
  8
0
  6
BYBLOCK
 62
     0
 10
21082.016865000001
 20
4941.1885390000061
 30
0.0
 40
15.0
 50
0.0
 51
180.0
  0
ARC
  5
55B2
  8
0
  6
BYBLOCK
 62
     0
 10
21082.016865000001
 20
4941.1885390000061
 30
0.0
 40
15.0
 50
180.0
 51
0.0
  0
ARC
  5
55B3
  8
0
  6
BYBLOCK
 62
     0
 10
21039.516864999991
 20
4941.1885390000061
 30
0.0
 40
15.0
 50
180.0
 51
0.0
  0
ARC
  5
55B4
  8
0
  6
BYBLOCK
 62
     0
 10
21039.516864999991
 20
4941.1885390000061
 30
0.0
 40
15.0
 50
0.0
 51
180.0
  0
ARC
  5
55B5
  8
0
  6
BYBLOCK
 62
     0
 10
21039.516864999991
 20
4541.1887040000038
 30
0.0
 40
15.0
 50
0.0
 51
180.0
  0
ARC
  5
55B6
  8
0
  6
BYBLOCK
 62
     0
 10
21039.516864999991
 20
4541.1887040000038
 30
0.0
 40
15.0
 50
180.0
 51
0.0
  0
ARC
  5
55B7
  8
0
  6
BYBLOCK
 62
     0
 10
24393.016864999991
 20
4541.1887040000038
 30
0.0
 40
15.0
 50
180.0
 51
0.0
  0
ARC
  5
55B8
  8
0
  6
BYBLOCK
 62
     0
 10
24393.016864999991
 20
4541.1887040000038
 30
0.0
 40
15.0
 50
0.0
 51
180.0
  0
ARC
  5
55B9
  8
0
  6
BYBLOCK
 62
     0
 10
9865.7678679999972
 20
9789.1883999999955
 30
0.0
 40
15.0
 50
0.0
 51
180.0
  0
ARC
  5
55BA
  8
0
  6
BYBLOCK
 62
     0
 10
9865.7678679999972
 20
9789.1883999999955
 30
0.0
 40
15.0
 50
180.0
 51
0.0
  0
ARC
  5
55BB
  8
0
  6
BYBLOCK
 62
     0
 10
16467.267867999992
 20
9789.1883999999955
 30
0.0
 40
15.0
 50
180.0
 51
0.0
  0
ARC
  5
55BC
  8
0
  6
BYBLOCK
 62
     0
 10
16467.267867999992
 20
9789.1883999999955
 30
0.0
 40
15.0
 50
0.0
 51
180.0
  0
ARC
  5
55BD
  8
0
  6
BYBLOCK
 62
     0
 10
16317.267868000001
 20
9389.1900499999992
 30
0.0
 40
15.0
 50
180.0
 51
0.0
  0
ARC
  5
55BE
  8
0
  6
BYBLOCK
 62
     0
 10
16317.267868000001
 20
9389.1900499999992
 30
0.0
 40
15.0
 50
0.0
 51
180.0
  0
ARC
  5
55BF
  8
0
  6
BYBLOCK
 62
     0
 10
16467.267867999992
 20
9389.1900499999992
 30
0.0
 40
15.0
 50
0.0
 51
180.0
  0
ARC
  5
55C0
  8
0
  6
BYBLOCK
 62
     0
 10
16467.267867999992
 20
9389.1900499999992
 30
0.0
 40
15.0
 50
180.0
 51
0.0
  0
ARC
  5
55C1
  8
0
  6
BYBLOCK
 62
     0
 10
10045.767868000001
 20
9389.1900499999992
 30
0.0
 40
15.0
 50
0.0
 51
180.0
  0
ARC
  5
55C2
  8
0
  6
BYBLOCK
 62
     0
 10
10045.767868000001
 20
9389.1900499999992
 30
0.0
 40
15.0
 50
180.0
 51
0.0
  0
ARC
  5
55C3
  8
0
  6
BYBLOCK
 62
     0
 10
16317.267868000001
 20
9389.1900499999992
 30
0.0
 40
15.0
 50
180.0
 51
0.0
  0
ARC
  5
55C4
  8
0
  6
BYBLOCK
 62
     0
 10
16317.267868000001
 20
9389.1900499999992
 30
0.0
 40
15.0
 50
0.0
 51
180.0
  0
ARC
  5
55C5
  8
0
  6
BYBLOCK
 62
     0
 10
9865.7678679999972
 20
9389.1900499999956
 30
0.0
 40
15.0
 50
180.0
 51
0.0
  0
ARC
  5
55C6
  8
0
  6
BYBLOCK
 62
     0
 10
9865.7678679999972
 20
9389.1900499999956
 30
0.0
 40
15.0
 50
0.0
 51
180.0
  0
ARC
  5
55C7
  8
0
  6
BYBLOCK
 62
     0
 10
10045.767868000001
 20
9389.1900499999956
 30
0.0
 40
15.0
 50
0.0
 51
180.0
  0
ARC
  5
55C8
  8
0
  6
BYBLOCK
 62
     0
 10
10045.767868000001
 20
9389.1900499999956
 30
0.0
 40
15.0
 50
180.0
 51
0.0
  0
ARC
  5
55C9
  8
0
  6
BYBLOCK
 62
     0
 10
17407.268263999991
 20
6241.1883740000012
 30
0.0
 40
15.0
 50
90.0
 51
270.0
  0
ARC
  5
55CA
  8
0
  6
BYBLOCK
 62
     0
 10
17407.268263999991
 20
6241.1883740000012
 30
0.0
 40
15.0
 50
270.0
 51
90.0
  0
ARC
  5
55CB
  8
0
  6
BYBLOCK
 62
     0
 10
17407.268263999991
 20
8589.1883739999994
 30
0.0
 40
15.0
 50
270.0
 51
90.0
  0
ARC
  5
55CC
  8
0
  6
BYBLOCK
 62
     0
 10
17407.268263999991
 20
8589.1883739999994
 30
0.0
 40
15.0
 50
90.0
 51
270.0
  0
ARC
  5
55CD
  8
0
  6
BYBLOCK
 62
     0
 10
8955.7674720000032
 20
6241.1883740000012
 30
0.0
 40
15.0
 50
90.0
 51
270.0
  0
ARC
  5
55CE
  8
0
  6
BYBLOCK
 62
     0
 10
8955.7674720000032
 20
6241.1883740000012
 30
0.0
 40
15.0
 50
270.0
 51
90.0
  0
ARC
  5
55CF
  8
0
  6
BYBLOCK
 62
     0
 10
8955.7674720000032
 20
8398.188374000003
 30
0.0
 40
15.0
 50
270.0
 51
90.0
  0
ARC
  5
55D0
  8
0
  6
BYBLOCK
 62
     0
 10
8955.7674720000032
 20
8398.188374000003
 30
0.0
 40
15.0
 50
90.0
 51
270.0
  0
ARC
  5
55D1
  8
0
  6
BYBLOCK
 62
     0
 10
10045.767868000001
 20
4541.1887040000001
 30
0.0
 40
15.0
 50
0.0
 51
180.0
  0
ARC
  5
55D2
  8
0
  6
BYBLOCK
 62
     0
 10
10045.767868000001
 20
4541.1887040000001
 30
0.0
 40
15.0
 50
180.0
 51
0.0
  0
ARC
  5
55D3
  8
0
  6
BYBLOCK
 62
     0
 10
16317.267868000001
 20
4541.1887040000001
 30
0.0
 40
15.0
 50
180.0
 51
0.0
  0
ARC
  5
55D4
  8
0
  6
BYBLOCK
 62
     0
 10
16317.267868000001
 20
4541.1887040000001
 30
0.0
 40
15.0
 50
0.0
 51
180.0
  0
ARC
  5
55D5
  8
0
  6
BYBLOCK
 62
     0
 10
16274.767868000001
 20
4941.1885389999979
 30
0.0
 40
15.0
 50
180.0
 51
0.0
  0
ARC
  5
55D6
  8
0
  6
BYBLOCK
 62
     0
 10
16274.767868000001
 20
4941.1885389999979
 30
0.0
 40
15.0
 50
0.0
 51
180.0
  0
ARC
  5
55D7
  8
0
  6
BYBLOCK
 62
     0
 10
16317.267868000001
 20
4941.1885389999979
 30
0.0
 40
15.0
 50
0.0
 51
180.0
  0
ARC
  5
55D8
  8
0
  6
BYBLOCK
 62
     0
 10
16317.267868000001
 20
4941.1885389999979
 30
0.0
 40
15.0
 50
180.0
 51
0.0
  0
ARC
  5
55D9
  8
0
  6
BYBLOCK
 62
     0
 10
10088.267868000001
 20
4941.1885389999979
 30
0.0
 40
15.0
 50
0.0
 51
180.0
  0
ARC
  5
55DA
  8
0
  6
BYBLOCK
 62
     0
 10
10088.267868000001
 20
4941.1885389999979
 30
0.0
 40
15.0
 50
180.0
 51
0.0
  0
ARC
  5
55DB
  8
0
  6
BYBLOCK
 62
     0
 10
10045.767868000001
 20
4941.1885389999979
 30
0.0
 40
15.0
 50
180.0
 51
0.0
  0
ARC
  5
55DC
  8
0
  6
BYBLOCK
 62
     0
 10
10045.767868000001
 20
4941.1885389999979
 30
0.0
 40
15.0
 50
0.0
 51
180.0
  0
ARC
  5
55DD
  8
0
  6
BYBLOCK
 62
     0
 10
13006.267868000001
 20
4941.1885389999979
 30
0.0
 40
15.0
 50
180.0
 51
0.0
  0
ARC
  5
55DE
  8
0
  6
BYBLOCK
 62
     0
 10
13006.267868000001
 20
4941.1885389999979
 30
0.0
 40
15.0
 50
0.0
 51
180.0
  0
ARC
  5
55DF
  8
0
  6
BYBLOCK
 62
     0
 10
10088.267868000001
 20
4941.1885389999979
 30
0.0
 40
15.0
 50
0.0
 51
180.0
  0
ARC
  5
55E0
  8
0
  6
BYBLOCK
 62
     0
 10
10088.267868000001
 20
4941.1885389999979
 30
0.0
 40
15.0
 50
180.0
 51
0.0
  0
ARC
  5
55E1
  8
0
  6
BYBLOCK
 62
     0
 10
13006.267868000001
 20
4941.1885389999979
 30
0.0
 40
15.0
 50
0.0
 51
180.0
  0
ARC
  5
55E2
  8
0
  6
BYBLOCK
 62
     0
 10
13006.267868000001
 20
4941.1885389999979
 30
0.0
 40
15.0
 50
180.0
 51
0.0
  0
ARC
  5
55E3
  8
0
  6
BYBLOCK
 62
     0
 10
16274.767868000001
 20
4941.1885389999979
 30
0.0
 40
15.0
 50
180.0
 51
0.0
  0
ARC
  5
55E4
  8
0
  6
BYBLOCK
 62
     0
 10
16274.767868000001
 20
4941.1885389999979
 30
0.0
 40
15.0
 50
0.0
 51
180.0
  0
ARC
  5
55E5
  8
0
  6
BYBLOCK
 62
     0
 10
21082.016865000001
 20
12510.538167999999
 30
0.0
 40
15.0
 50
0.0
 51
180.0
  0
ARC
  5
55E6
  8
0
  6
BYBLOCK
 62
     0
 10
21082.016865000001
 20
12510.538167999999
 30
0.0
 40
15.0
 50
180.0
 51
0.0
  0
ARC
  5
55E7
  8
0
  6
BYBLOCK
 62
     0
 10
21039.514621999992
 20
12510.538167999999
 30
0.0
 40
15.0
 50
180.0
 51
0.0
  0
ARC
  5
55E8
  8
0
  6
BYBLOCK
 62
     0
 10
21039.514621999992
 20
12510.538167999999
 30
0.0
 40
15.0
 50
0.0
 51
180.0
  0
ARC
  5
55E9
  8
0
  6
BYBLOCK
 62
     0
 10
24350.516864999991
 20
12510.538167999999
 30
0.0
 40
15.0
 50
180.0
 51
0.0
  0
ARC
  5
55EA
  8
0
  6
BYBLOCK
 62
     0
 10
24350.516864999991
 20
12510.538167999999
 30
0.0
 40
15.0
 50
0.0
 51
180.0
  0
ARC
  5
55EB
  8
0
  6
BYBLOCK
 62
     0
 10
24393.019107999971
 20
12510.538167999999
 30
0.0
 40
15.0
 50
0.0
 51
180.0
  0
ARC
  5
55EC
  8
0
  6
BYBLOCK
 62
     0
 10
24393.019107999971
 20
12510.538167999999
 30
0.0
 40
15.0
 50
180.0
 51
0.0
  0
ARC
  5
55ED
  8
0
  6
BYBLOCK
 62
     0
 10
24350.516864999991
 20
12510.538167999999
 30
0.0
 40
15.0
 50
0.0
 51
180.0
  0
ARC
  5
55EE
  8
0
  6
BYBLOCK
 62
     0
 10
24350.516864999991
 20
12510.538167999999
 30
0.0
 40
15.0
 50
180.0
 51
0.0
  0
ARC
  5
55EF
  8
0
  6
BYBLOCK
 62
     0
 10
24308.014621999981
 20
12510.538167999999
 30
0.0
 40
15.0
 50
180.0
 51
0.0
  0
ARC
  5
55F0
  8
0
  6
BYBLOCK
 62
     0
 10
24308.014621999981
 20
12510.538167999999
 30
0.0
 40
15.0
 50
0.0
 51
180.0
  0
ARC
  5
55F1
  8
0
  6
BYBLOCK
 62
     0
 10
21082.016865000001
 20
12510.538167999999
 30
0.0
 40
15.0
 50
180.0
 51
0.0
  0
ARC
  5
55F2
  8
0
  6
BYBLOCK
 62
     0
 10
21082.016865000001
 20
12510.538167999999
 30
0.0
 40
15.0
 50
0.0
 51
180.0
  0
ARC
  5
55F3
  8
0
  6
BYBLOCK
 62
     0
 10
21124.519107999971
 20
12510.538167999999
 30
0.0
 40
15.0
 50
0.0
 51
180.0
  0
ARC
  5
55F4
  8
0
  6
BYBLOCK
 62
     0
 10
21124.519107999971
 20
12510.538167999999
 30
0.0
 40
15.0
 50
180.0
 51
0.0
  0
ARC
  5
55F5
  8
0
  6
BYBLOCK
 62
     0
 10
21039.514621999992
 20
12110.538167999999
 30
0.0
 40
15.0
 50
0.0
 51
180.0
  0
ARC
  5
55F6
  8
0
  6
BYBLOCK
 62
     0
 10
21039.514621999992
 20
12110.538167999999
 30
0.0
 40
15.0
 50
180.0
 51
0.0
  0
ARC
  5
55F7
  8
0
  6
BYBLOCK
 62
     0
 10
24393.019107999971
 20
12110.538167999999
 30
0.0
 40
15.0
 50
180.0
 51
0.0
  0
ARC
  5
55F8
  8
0
  6
BYBLOCK
 62
     0
 10
24393.019107999971
 20
12110.538167999999
 30
0.0
 40
15.0
 50
0.0
 51
180.0
  0
ARC
  5
55F9
  8
0
  6
BYBLOCK
 62
     0
 10
25443.016468999969
 20
13889.486252000001
 30
0.0
 40
15.0
 50
270.0
 51
90.0
  0
ARC
  5
55FA
  8
0
  6
BYBLOCK
 62
     0
 10
25443.016468999969
 20
13889.486252000001
 30
0.0
 40
15.0
 50
90.0
 51
270.0
  0
ARC
  5
55FB
  8
0
  6
BYBLOCK
 62
     0
 10
25443.016468999969
 20
13481.986252000001
 30
0.0
 40
15.0
 50
90.0
 51
270.0
  0
ARC
  5
55FC
  8
0
  6
BYBLOCK
 62
     0
 10
25443.016468999969
 20
13481.986252000001
 30
0.0
 40
15.0
 50
270.0
 51
90.0
  0
ARC
  5
55FD
  8
0
  6
BYBLOCK
 62
     0
 10
25443.016468999969
 20
14590.486252000001
 30
0.0
 40
15.0
 50
270.0
 51
90.0
  0
ARC
  5
55FE
  8
0
  6
BYBLOCK
 62
     0
 10
25443.016468999969
 20
14590.486252000001
 30
0.0
 40
15.0
 50
90.0
 51
270.0
  0
ARC
  5
55FF
  8
0
  6
BYBLOCK
 62
     0
 10
25443.016468999969
 20
13889.486252000001
 30
0.0
 40
15.0
 50
90.0
 51
270.0
  0
ARC
  5
5600
  8
0
  6
BYBLOCK
 62
     0
 10
25443.016468999969
 20
13889.486252000001
 30
0.0
 40
15.0
 50
270.0
 51
90.0
  0
ARC
  5
5601
  8
0
  6
BYBLOCK
 62
     0
 10
25443.016468999969
 20
15291.72676350001
 30
0.0
 40
15.0
 50
270.0
 51
90.0
  0
ARC
  5
5602
  8
0
  6
BYBLOCK
 62
     0
 10
25443.016468999969
 20
15291.72676350001
 30
0.0
 40
15.0
 50
90.0
 51
270.0
  0
ARC
  5
5603
  8
0
  6
BYBLOCK
 62
     0
 10
25443.016468999969
 20
14590.486252000001
 30
0.0
 40
15.0
 50
90.0
 51
270.0
  0
ARC
  5
5604
  8
0
  6
BYBLOCK
 62
     0
 10
25443.016468999969
 20
14590.486252000001
 30
0.0
 40
15.0
 50
270.0
 51
90.0
  0
ARC
  5
5605
  8
0
  6
BYBLOCK
 62
     0
 10
25443.016468999969
 20
15992.486252000001
 30
0.0
 40
15.0
 50
270.0
 51
90.0
  0
ARC
  5
5606
  8
0
  6
BYBLOCK
 62
     0
 10
25443.016468999969
 20
15992.486252000001
 30
0.0
 40
15.0
 50
90.0
 51
270.0
  0
ARC
  5
5607
  8
0
  6
BYBLOCK
 62
     0
 10
25443.016468999969
 20
15291.72676350001
 30
0.0
 40
15.0
 50
90.0
 51
270.0
  0
ARC
  5
5608
  8
0
  6
BYBLOCK
 62
     0
 10
25443.016468999969
 20
15291.72676350001
 30
0.0
 40
15.0
 50
270.0
 51
90.0
  0
ARC
  5
5609
  8
0
  6
BYBLOCK
 62
     0
 10
25443.016468999969
 20
16750.486251999992
 30
0.0
 40
15.0
 50
270.0
 51
90.0
  0
ARC
  5
560A
  8
0
  6
BYBLOCK
 62
     0
 10
25443.016468999969
 20
16750.486251999992
 30
0.0
 40
15.0
 50
90.0
 51
270.0
  0
ARC
  5
560B
  8
0
  6
BYBLOCK
 62
     0
 10
25443.016468999969
 20
15992.486252000001
 30
0.0
 40
15.0
 50
90.0
 51
270.0
  0
ARC
  5
560C
  8
0
  6
BYBLOCK
 62
     0
 10
25443.016468999969
 20
15992.486252000001
 30
0.0
 40
15.0
 50
270.0
 51
90.0
  0
ARC
  5
560D
  8
0
  6
BYBLOCK
 62
     0
 10
25443.016468999969
 20
17508.486251999992
 30
0.0
 40
15.0
 50
270.0
 51
90.0
  0
ARC
  5
560E
  8
0
  6
BYBLOCK
 62
     0
 10
25443.016468999969
 20
17508.486251999992
 30
0.0
 40
15.0
 50
90.0
 51
270.0
  0
ARC
  5
560F
  8
0
  6
BYBLOCK
 62
     0
 10
25443.016468999969
 20
16750.486251999992
 30
0.0
 40
15.0
 50
90.0
 51
270.0
  0
ARC
  5
5610
  8
0
  6
BYBLOCK
 62
     0
 10
25443.016468999969
 20
16750.486251999992
 30
0.0
 40
15.0
 50
270.0
 51
90.0
  0
ARC
  5
5611
  8
0
  6
BYBLOCK
 62
     0
 10
25443.016468999969
 20
18209.486251999992
 30
0.0
 40
15.0
 50
270.0
 51
90.0
  0
ARC
  5
5612
  8
0
  6
BYBLOCK
 62
     0
 10
25443.016468999969
 20
18209.486251999992
 30
0.0
 40
15.0
 50
90.0
 51
270.0
  0
ARC
  5
5613
  8
0
  6
BYBLOCK
 62
     0
 10
25443.016468999969
 20
17508.486251999992
 30
0.0
 40
15.0
 50
90.0
 51
270.0
  0
ARC
  5
5614
  8
0
  6
BYBLOCK
 62
     0
 10
25443.016468999969
 20
17508.486251999992
 30
0.0
 40
15.0
 50
270.0
 51
90.0
  0
ARC
  5
5615
  8
0
  6
BYBLOCK
 62
     0
 10
25443.016468999969
 20
18910.486251999992
 30
0.0
 40
15.0
 50
270.0
 51
90.0
  0
ARC
  5
5616
  8
0
  6
BYBLOCK
 62
     0
 10
25443.016468999969
 20
18910.486251999992
 30
0.0
 40
15.0
 50
90.0
 51
270.0
  0
ARC
  5
5617
  8
0
  6
BYBLOCK
 62
     0
 10
25443.016468999969
 20
18209.486251999992
 30
0.0
 40
15.0
 50
90.0
 51
270.0
  0
ARC
  5
5618
  8
0
  6
BYBLOCK
 62
     0
 10
25443.016468999969
 20
18209.486251999992
 30
0.0
 40
15.0
 50
270.0
 51
90.0
  0
ARC
  5
5619
  8
0
  6
BYBLOCK
 62
     0
 10
25443.016468999969
 20
19668.486251999992
 30
0.0
 40
15.0
 50
270.0
 51
90.0
  0
ARC
  5
561A
  8
0
  6
BYBLOCK
 62
     0
 10
25443.016468999969
 20
19668.486251999992
 30
0.0
 40
15.0
 50
90.0
 51
270.0
  0
ARC
  5
561B
  8
0
  6
BYBLOCK
 62
     0
 10
25443.016468999969
 20
18910.486251999992
 30
0.0
 40
15.0
 50
90.0
 51
270.0
  0
ARC
  5
561C
  8
0
  6
BYBLOCK
 62
     0
 10
25443.016468999969
 20
18910.486251999992
 30
0.0
 40
15.0
 50
270.0
 51
90.0
  0
ARC
  5
561D
  8
0
  6
BYBLOCK
 62
     0
 10
25843.016468999969
 20
16750.486251999992
 30
0.0
 40
15.0
 50
90.0
 51
270.0
  0
ARC
  5
561E
  8
0
  6
BYBLOCK
 62
     0
 10
25843.016468999969
 20
16750.486251999992
 30
0.0
 40
15.0
 50
270.0
 51
90.0
  0
ARC
  5
561F
  8
0
  6
BYBLOCK
 62
     0
 10
25843.016468999969
 20
19668.486251999992
 30
0.0
 40
15.0
 50
270.0
 51
90.0
  0
ARC
  5
5620
  8
0
  6
BYBLOCK
 62
     0
 10
25843.016468999969
 20
19668.486251999992
 30
0.0
 40
15.0
 50
90.0
 51
270.0
  0
ARC
  5
5621
  8
0
  6
BYBLOCK
 62
     0
 10
25843.016468999969
 20
13481.986252000001
 30
0.0
 40
15.0
 50
90.0
 51
270.0
  0
ARC
  5
5622
  8
0
  6
BYBLOCK
 62
     0
 10
25843.016468999969
 20
13481.986252000001
 30
0.0
 40
15.0
 50
270.0
 51
90.0
  0
ARC
  5
5623
  8
0
  6
BYBLOCK
 62
     0
 10
25843.016468999969
 20
16750.486251999992
 30
0.0
 40
15.0
 50
270.0
 51
90.0
  0
ARC
  5
5624
  8
0
  6
BYBLOCK
 62
     0
 10
25843.016468999969
 20
16750.486251999992
 30
0.0
 40
15.0
 50
90.0
 51
270.0
  0
ARC
  5
5625
  8
0
  6
BYBLOCK
 62
     0
 10
26243.01646899998
 20
19710.983546999982
 30
0.0
 40
15.0
 50
270.0
 51
90.0
  0
ARC
  5
5626
  8
0
  6
BYBLOCK
 62
     0
 10
26243.01646899998
 20
19710.983546999982
 30
0.0
 40
15.0
 50
90.0
 51
270.0
  0
ARC
  5
5627
  8
0
  6
BYBLOCK
 62
     0
 10
26243.01646899998
 20
13439.488957
 30
0.0
 40
15.0
 50
90.0
 51
270.0
  0
ARC
  5
5628
  8
0
  6
BYBLOCK
 62
     0
 10
26243.01646899998
 20
13439.488957
 30
0.0
 40
15.0
 50
270.0
 51
90.0
  0
ARC
  5
5629
  8
0
  6
BYBLOCK
 62
     0
 10
25843.016468999969
 20
19668.486251999992
 30
0.0
 40
15.0
 50
270.0
 51
90.0
  0
ARC
  5
562A
  8
0
  6
BYBLOCK
 62
     0
 10
25843.016468999969
 20
19668.486251999992
 30
0.0
 40
15.0
 50
90.0
 51
270.0
  0
ARC
  5
562B
  8
0
  6
BYBLOCK
 62
     0
 10
25843.016468999969
 20
19710.983546999982
 30
0.0
 40
15.0
 50
90.0
 51
270.0
  0
ARC
  5
562C
  8
0
  6
BYBLOCK
 62
     0
 10
25843.016468999969
 20
19710.983546999982
 30
0.0
 40
15.0
 50
270.0
 51
90.0
  0
ARC
  5
562D
  8
0
  6
BYBLOCK
 62
     0
 10
25843.016468999969
 20
13481.986252000001
 30
0.0
 40
15.0
 50
90.0
 51
270.0
  0
ARC
  5
562E
  8
0
  6
BYBLOCK
 62
     0
 10
25843.016468999969
 20
13481.986252000001
 30
0.0
 40
15.0
 50
270.0
 51
90.0
  0
ARC
  5
562F
  8
0
  6
BYBLOCK
 62
     0
 10
25843.016468999969
 20
13439.488957
 30
0.0
 40
15.0
 50
270.0
 51
90.0
  0
ARC
  5
5630
  8
0
  6
BYBLOCK
 62
     0
 10
25843.016468999969
 20
13439.488957
 30
0.0
 40
15.0
 50
90.0
 51
270.0
  0
ARC
  5
5631
  8
0
  6
BYBLOCK
 62
     0
 10
21082.016865000001
 20
20440.987440000012
 30
0.0
 40
15.0
 50
180.0
 51
0.0
  0
ARC
  5
5632
  8
0
  6
BYBLOCK
 62
     0
 10
21082.016865000001
 20
20440.987440000012
 30
0.0
 40
15.0
 50
0.0
 51
180.0
  0
ARC
  5
5633
  8
0
  6
BYBLOCK
 62
     0
 10
21489.516864999991
 20
20440.987440000012
 30
0.0
 40
15.0
 50
0.0
 51
180.0
  0
ARC
  5
5634
  8
0
  6
BYBLOCK
 62
     0
 10
21489.516864999991
 20
20440.987440000012
 30
0.0
 40
15.0
 50
180.0
 51
0.0
  0
ARC
  5
5635
  8
0
  6
BYBLOCK
 62
     0
 10
23592.516864999991
 20
20440.987440000012
 30
0.0
 40
15.0
 50
0.0
 51
180.0
  0
ARC
  5
5636
  8
0
  6
BYBLOCK
 62
     0
 10
23592.516864999991
 20
20440.987440000012
 30
0.0
 40
15.0
 50
180.0
 51
0.0
  0
ARC
  5
5637
  8
0
  6
BYBLOCK
 62
     0
 10
24350.517854500002
 20
20440.987440000012
 30
0.0
 40
15.0
 50
180.0
 51
0.0
  0
ARC
  5
5638
  8
0
  6
BYBLOCK
 62
     0
 10
24350.517854500002
 20
20440.987440000012
 30
0.0
 40
15.0
 50
0.0
 51
180.0
  0
ARC
  5
5639
  8
0
  6
BYBLOCK
 62
     0
 10
22891.516864999991
 20
20440.987440000012
 30
0.0
 40
15.0
 50
0.0
 51
180.0
  0
ARC
  5
563A
  8
0
  6
BYBLOCK
 62
     0
 10
22891.516864999991
 20
20440.987440000012
 30
0.0
 40
15.0
 50
180.0
 51
0.0
  0
ARC
  5
563B
  8
0
  6
BYBLOCK
 62
     0
 10
23592.516864999991
 20
20440.987440000012
 30
0.0
 40
15.0
 50
180.0
 51
0.0
  0
ARC
  5
563C
  8
0
  6
BYBLOCK
 62
     0
 10
23592.516864999991
 20
20440.987440000012
 30
0.0
 40
15.0
 50
0.0
 51
180.0
  0
ARC
  5
563D
  8
0
  6
BYBLOCK
 62
     0
 10
22190.51686499998
 20
20440.987440000012
 30
0.0
 40
15.0
 50
0.0
 51
180.0
  0
ARC
  5
563E
  8
0
  6
BYBLOCK
 62
     0
 10
22190.51686499998
 20
20440.987440000012
 30
0.0
 40
15.0
 50
180.0
 51
0.0
  0
ARC
  5
563F
  8
0
  6
BYBLOCK
 62
     0
 10
22891.516864999991
 20
20440.987440000012
 30
0.0
 40
15.0
 50
180.0
 51
0.0
  0
ARC
  5
5640
  8
0
  6
BYBLOCK
 62
     0
 10
22891.516864999991
 20
20440.987440000012
 30
0.0
 40
15.0
 50
0.0
 51
180.0
  0
ARC
  5
5641
  8
0
  6
BYBLOCK
 62
     0
 10
21489.516864999991
 20
20440.987440000012
 30
0.0
 40
15.0
 50
0.0
 51
180.0
  0
ARC
  5
5642
  8
0
  6
BYBLOCK
 62
     0
 10
21489.516864999991
 20
20440.987440000012
 30
0.0
 40
15.0
 50
180.0
 51
0.0
  0
ARC
  5
5643
  8
0
  6
BYBLOCK
 62
     0
 10
22190.51686499998
 20
20440.987440000012
 30
0.0
 40
15.0
 50
180.0
 51
0.0
  0
ARC
  5
5644
  8
0
  6
BYBLOCK
 62
     0
 10
22190.51686499998
 20
20440.987440000012
 30
0.0
 40
15.0
 50
0.0
 51
180.0
  0
ARC
  5
5645
  8
0
  6
BYBLOCK
 62
     0
 10
24350.516864999991
 20
20440.987440000012
 30
0.0
 40
15.0
 50
180.0
 51
0.0
  0
ARC
  5
5646
  8
0
  6
BYBLOCK
 62
     0
 10
24350.516864999991
 20
20440.987440000012
 30
0.0
 40
15.0
 50
0.0
 51
180.0
  0
ARC
  5
5647
  8
0
  6
BYBLOCK
 62
     0
 10
24393.01316999998
 20
20440.987440000012
 30
0.0
 40
15.0
 50
0.0
 51
180.0
  0
ARC
  5
5648
  8
0
  6
BYBLOCK
 62
     0
 10
24393.01316999998
 20
20440.987440000012
 30
0.0
 40
15.0
 50
180.0
 51
0.0
  0
ARC
  5
5649
  8
0
  6
BYBLOCK
 62
     0
 10
21082.016865000001
 20
20440.987440000012
 30
0.0
 40
15.0
 50
0.0
 51
180.0
  0
ARC
  5
564A
  8
0
  6
BYBLOCK
 62
     0
 10
21082.016865000001
 20
20440.987440000012
 30
0.0
 40
15.0
 50
180.0
 51
0.0
  0
ARC
  5
564B
  8
0
  6
BYBLOCK
 62
     0
 10
21039.520559999972
 20
20440.987440000012
 30
0.0
 40
15.0
 50
180.0
 51
0.0
  0
ARC
  5
564C
  8
0
  6
BYBLOCK
 62
     0
 10
21039.520559999972
 20
20440.987440000012
 30
0.0
 40
15.0
 50
0.0
 51
180.0
  0
LINE
  5
5754
  8
0-1
  6
CONTINUOUS
 62
     3
 10
21124.51316999998
 20
8325.6887430000024
 30
0.0
 11
24308.01660099997
 21
8325.6887430000024
 31
0.0
  0
LINE
  5
5755
  8
0-1
  6
CONTINUOUS
 62
     3
 10
20996.516469999991
 20
8263.5026620000044
 30
0.0
 11
20996.516469999991
 21
8589.1883999999973
 31
0.0
  0
LINE
  5
5756
  8
0-1
  6
CONTINUOUS
 62
     3
 10
24436.015281999978
 20
8459.1884659999978
 30
0.0
 11
20996.516469999991
 21
8459.1884659999978
 31
0.0
  0
LINE
  5
5757
  8
0-1
  6
CONTINUOUS
 62
     3
 10
24436.015281999978
 20
8589.1883999999973
 30
0.0
 11
24436.015281999978
 21
8263.5026620000044
 31
0.0
  0
LINE
  5
5758
  8
0-1
  6
CONTINUOUS
 62
     3
 10
20996.516469999991
 20
8589.1883999999973
 30
0.0
 11
24436.015281999978
 21
8589.1883999999973
 31
0.0
  0
LINE
  5
5759
  8
0-1
  6
CONTINUOUS
 62
     3
 10
24436.015281999978
 20
8263.5026620000044
 30
0.0
 11
24393.015149999988
 21
8263.5026620000044
 31
0.0
  0
LINE
  5
575A
  8
0-1
  6
CONTINUOUS
 62
     3
 10
20996.516469999991
 20
8263.5026620000044
 30
0.0
 11
21039.514621999992
 21
8263.5026620000044
 31
0.0
  0
LINE
  5
575B
  8
0-1
  6
CONTINUOUS
 62
     3
 10
21150.516125999991
 20
8334.6891200000046
 30
0.0
 11
21427.945655999989
 21
8334.6891200000046
 31
0.0
  0
LINE
  5
575C
  8
0-1
  6
CONTINUOUS
 62
     3
 10
21150.516125999991
 20
8376.6885650000022
 30
0.0
 11
21459.942593999989
 21
8376.6885650000022
 31
0.0
  0
LINE
  5
575D
  8
0-1
  6
CONTINUOUS
 62
     3
 10
21145.515862999971
 20
8339.6888890000027
 30
0.0
 11
21145.515862999971
 21
8371.6892910000024
 31
0.0
  0
LINE
  5
575E
  8
0-1
  6
CONTINUOUS
 62
     3
 10
21124.51316999998
 20
8385.6884470000023
 30
0.0
 11
24308.01660099997
 21
8385.6884470000023
 31
0.0
  0
LINE
  5
575F
  8
0-1
  6
CONTINUOUS
 62
     3
 10
21431.479095999988
 20
8336.1529740000024
 30
0.0
 11
21463.479993999979
 21
8368.153376000002
 31
0.0
  0
LINE
  5
5760
  8
0-1
  6
CONTINUOUS
 62
     3
 10
21145.515862999971
 20
8368.2889730000024
 30
0.0
 11
21463.608661999981
 21
8368.2889730000024
 31
0.0
  0
LINE
  5
5761
  8
0-1
  6
CONTINUOUS
 62
     3
 10
21145.515862999971
 20
8359.8888860000025
 30
0.0
 11
21455.215503999982
 21
8359.8888860000025
 31
0.0
  0
LINE
  5
5762
  8
0-1
  6
CONTINUOUS
 62
     3
 10
21145.515862999971
 20
8351.4892940000027
 30
0.0
 11
21446.816405999991
 21
8351.4892940000027
 31
0.0
  0
LINE
  5
5763
  8
0-1
  6
CONTINUOUS
 62
     3
 10
21145.515862999971
 20
8343.0892070000027
 30
0.0
 11
21438.413349999999
 21
8343.0892070000027
 31
0.0
  0
LINE
  5
5764
  8
0-1
  6
CONTINUOUS
 62
     3
 10
24287.015888999958
 20
8368.2889730000024
 30
0.0
 11
23968.923088999989
 21
8368.2889730000024
 31
0.0
  0
LINE
  5
5765
  8
0-1
  6
CONTINUOUS
 62
     3
 10
24287.015888999958
 20
8359.8888860000025
 30
0.0
 11
23977.318226999989
 21
8359.8888860000025
 31
0.0
  0
LINE
  5
5766
  8
0-1
  6
CONTINUOUS
 62
     3
 10
24287.015888999958
 20
8351.4892940000027
 30
0.0
 11
23985.717323999968
 21
8351.4892940000027
 31
0.0
  0
LINE
  5
5767
  8
0-1
  6
CONTINUOUS
 62
     3
 10
24287.015888999958
 20
8343.0892070000027
 30
0.0
 11
23994.11642199997
 21
8343.0892070000027
 31
0.0
  0
LINE
  5
5768
  8
0-1
  6
CONTINUOUS
 62
     3
 10
24282.015624999989
 20
8376.6885650000022
 30
0.0
 11
23972.589156999969
 21
8376.6885650000022
 31
0.0
  0
LINE
  5
5769
  8
0-1
  6
CONTINUOUS
 62
     3
 10
24282.015624999989
 20
8334.6891200000046
 30
0.0
 11
24004.586095999981
 21
8334.6891200000046
 31
0.0
  0
LINE
  5
576A
  8
0-1
  6
CONTINUOUS
 62
     3
 10
24287.015888999958
 20
8339.6888890000027
 30
0.0
 11
24287.015888999958
 21
8371.6892910000024
 31
0.0
  0
LINE
  5
576B
  8
0-1
  6
CONTINUOUS
 62
     3
 10
24001.050674999969
 20
8336.1529740000024
 30
0.0
 11
23969.05373699998
 21
8368.153376000002
 31
0.0
  0
ARC
  5
576C
  8
0-1
  6
CONTINUOUS
 62
     3
 10
21150.516125999991
 20
8371.6892910000024
 30
0.0
 40
5.0
 50
90.0
 51
180.0
  0
ARC
  5
576D
  8
0-1
  6
CONTINUOUS
 62
     3
 10
21150.516125999991
 20
8339.6888890000027
 30
0.0
 40
5.0
 50
180.0
 51
269.9999850001808
  0
ARC
  5
576E
  8
0-1
  6
CONTINUOUS
 62
     3
 10
21427.945655999989
 20
8339.6888890000027
 30
0.0
 40
5.0
 50
269.9999850001808
 51
314.99998500027471
  0
ARC
  5
576F
  8
0-1
  6
CONTINUOUS
 62
     3
 10
21459.942593999989
 20
8371.6892910000024
 30
0.0
 40
5.0
 50
314.99998500027471
 51
90.0
  0
ARC
  5
5770
  8
0-1
  6
CONTINUOUS
 62
     3
 10
24282.015624999989
 20
8339.6888890000027
 30
0.0
 40
5.0
 50
269.9999850001808
 51
0.0
  0
ARC
  5
5771
  8
0-1
  6
CONTINUOUS
 62
     3
 10
24282.015624999989
 20
8371.6892910000024
 30
0.0
 40
5.0
 50
0.0
 51
90.0
  0
ARC
  5
5772
  8
0-1
  6
CONTINUOUS
 62
     3
 10
23972.589156999969
 20
8371.6892910000024
 30
0.0
 40
5.0
 50
90.0
 51
224.99998499997989
  0
ARC
  5
5773
  8
0-1
  6
CONTINUOUS
 62
     3
 10
24004.586095999981
 20
8339.6888890000027
 30
0.0
 40
5.0
 50
224.99998499997989
 51
269.9999850001808
  0
LINE
  5
5774
  8
SUNPOU
  6
CONTINUOUS
 62
     4
 10
24393.01712899996
 20
8669.1883999999973
 30
0.0
 11
24393.01712899996
 21
9468.6882419999965
 31
0.0
  0
LINE
  5
5775
  8
SUNPOU
  6
CONTINUOUS
 62
     4
 10
24436.019239999951
 20
8669.1883999999973
 30
0.0
 11
24436.019239999951
 21
9468.6882419999965
 31
0.0
  0
LINE
  5
5776
  8
SUNPOU
  6
CONTINUOUS
 62
     4
 10
24393.01712899996
 20
9388.6882419999965
 30
0.0
 11
24153.01712899996
 21
9388.6882419999965
 31
0.0
  0
LINE
  5
5777
  8
SUNPOU
  6
CONTINUOUS
 62
     4
 10
24433.019239999961
 20
9388.6882419999965
 30
0.0
 11
24673.019239999961
 21
9388.6882419999965
 31
0.0
  0
LINE
  5
5778
  8
SUNPOU
  6
CONTINUOUS
 62
     4
 10
24393.01712899996
 20
9388.6882419999965
 30
0.0
 11
24433.019239999961
 21
9388.6882419999965
 31
0.0
  0
LINE
  5
5779
  8
SUNPOU
  6
CONTINUOUS
 62
     4
 10
20996.514490000001
 20
8669.1883999999973
 30
0.0
 11
20996.514490000001
 21
9868.6460119999992
 31
0.0
  0
LINE
  5
577A
  8
SUNPOU
  6
CONTINUOUS
 62
     4
 10
24436.019239999951
 20
8669.1883999999973
 30
0.0
 11
24436.019239999951
 21
9868.6460119999992
 31
0.0
  0
LINE
  5
577B
  8
SUNPOU
  6
CONTINUOUS
 62
     4
 10
20999.514490000009
 20
9788.6460119999992
 30
0.0
 11
24433.019239999961
 21
9788.6460119999992
 31
0.0
  0
LINE
  5
577C
  8
SUNPOU
  6
CONTINUOUS
 62
     4
 10
21039.516600999988
 20
8669.1883999999973
 30
0.0
 11
21039.516600999988
 21
9468.6882419999965
 31
0.0
  0
LINE
  5
577D
  8
SUNPOU
  6
CONTINUOUS
 62
     4
 10
24393.01712899996
 20
8669.1883999999973
 30
0.0
 11
24393.01712899996
 21
9468.6882419999965
 31
0.0
  0
LINE
  5
577E
  8
SUNPOU
  6
CONTINUOUS
 62
     4
 10
21039.516600999988
 20
9388.6882419999965
 30
0.0
 11
24393.01712899996
 21
9388.6882419999965
 31
0.0
  0
LINE
  5
577F
  8
SUNPOU
  6
CONTINUOUS
 62
     4
 10
21039.516600999988
 20
8669.1883999999973
 30
0.0
 11
21039.516600999988
 21
9468.6882419999965
 31
0.0
  0
LINE
  5
5780
  8
SUNPOU
  6
CONTINUOUS
 62
     4
 10
20996.514490000001
 20
8669.1883999999973
 30
0.0
 11
20996.514490000001
 21
9468.6882419999965
 31
0.0
  0
LINE
  5
5781
  8
SUNPOU
  6
CONTINUOUS
 62
     4
 10
21039.516600999988
 20
9388.6882419999965
 30
0.0
 11
21279.516600999988
 21
9388.6882419999965
 31
0.0
  0
LINE
  5
5782
  8
SUNPOU
  6
CONTINUOUS
 62
     4
 10
20999.514490000009
 20
9388.6882419999965
 30
0.0
 11
20759.514490000009
 21
9388.6882419999965
 31
0.0
  0
LINE
  5
5783
  8
SUNPOU
  6
CONTINUOUS
 62
     4
 10
21039.516600999988
 20
9388.6882419999965
 30
0.0
 11
20999.514490000009
 21
9388.6882419999965
 31
0.0
  0
TEXT
  5
5784
  8
0
  6
CONTINUOUS
 62
     7
 10
20639.514490000009
 20
9468.6882419999965
 30
0.0
 40
160.0
  1
43
  0
TEXT
  5
5785
  8
0
  6
CONTINUOUS
 62
     7
 10
22316.26686499998
 20
9468.6882419999965
 30
0.0
 40
160.0
  1
3353.5
  0
TEXT
  5
5786
  8
0
  6
CONTINUOUS
 62
     7
 10
22316.26686499998
 20
9868.6460119999992
 30
0.0
 40
160.0
  1
3439.5
  0
TEXT
  5
5787
  8
0
  6
CONTINUOUS
 62
     7
 10
24553.019239999961
 20
9468.6882419999965
 30
0.0
 40
160.0
  1
43
  0
ARC
  5
5788
  8
0
  6
BYBLOCK
 62
     0
 10
24393.01712899996
 20
9388.6882419999965
 30
0.0
 40
15.0
 50
180.0
 51
0.0
  0
ARC
  5
5789
  8
0
  6
BYBLOCK
 62
     0
 10
24393.01712899996
 20
9388.6882419999965
 30
0.0
 40
15.0
 50
0.0
 51
180.0
  0
ARC
  5
578A
  8
0
  6
BYBLOCK
 62
     0
 10
24436.019239999951
 20
9388.6882419999965
 30
0.0
 40
15.0
 50
0.0
 51
180.0
  0
ARC
  5
578B
  8
0
  6
BYBLOCK
 62
     0
 10
24436.019239999951
 20
9388.6882419999965
 30
0.0
 40
15.0
 50
180.0
 51
0.0
  0
ARC
  5
578C
  8
0
  6
BYBLOCK
 62
     0
 10
20996.514490000001
 20
9788.6460119999992
 30
0.0
 40
15.0
 50
0.0
 51
180.0
  0
ARC
  5
578D
  8
0
  6
BYBLOCK
 62
     0
 10
20996.514490000001
 20
9788.6460119999992
 30
0.0
 40
15.0
 50
180.0
 51
0.0
  0
ARC
  5
578E
  8
0
  6
BYBLOCK
 62
     0
 10
24436.019239999951
 20
9788.6460119999992
 30
0.0
 40
15.0
 50
180.0
 51
0.0
  0
ARC
  5
578F
  8
0
  6
BYBLOCK
 62
     0
 10
24436.019239999951
 20
9788.6460119999992
 30
0.0
 40
15.0
 50
0.0
 51
180.0
  0
ARC
  5
5790
  8
0
  6
BYBLOCK
 62
     0
 10
21039.516600999988
 20
9388.6882419999965
 30
0.0
 40
15.0
 50
0.0
 51
180.0
  0
ARC
  5
5791
  8
0
  6
BYBLOCK
 62
     0
 10
21039.516600999988
 20
9388.6882419999965
 30
0.0
 40
15.0
 50
180.0
 51
0.0
  0
ARC
  5
5792
  8
0
  6
BYBLOCK
 62
     0
 10
24393.01712899996
 20
9388.6882419999965
 30
0.0
 40
15.0
 50
180.0
 51
0.0
  0
ARC
  5
5793
  8
0
  6
BYBLOCK
 62
     0
 10
24393.01712899996
 20
9388.6882419999965
 30
0.0
 40
15.0
 50
0.0
 51
180.0
  0
ARC
  5
5794
  8
0
  6
BYBLOCK
 62
     0
 10
21039.516600999988
 20
9388.6882419999965
 30
0.0
 40
15.0
 50
0.0
 51
180.0
  0
ARC
  5
5795
  8
0
  6
BYBLOCK
 62
     0
 10
21039.516600999988
 20
9388.6882419999965
 30
0.0
 40
15.0
 50
180.0
 51
0.0
  0
ARC
  5
5796
  8
0
  6
BYBLOCK
 62
     0
 10
20996.514490000001
 20
9388.6882419999965
 30
0.0
 40
15.0
 50
180.0
 51
0.0
  0
ARC
  5
5797
  8
0
  6
BYBLOCK
 62
     0
 10
20996.514490000001
 20
9388.6882419999965
 30
0.0
 40
15.0
 50
0.0
 51
180.0
  0
LINE
  5
57A5
  8
SUNPOU
  6
CONTINUOUS
 62
     4
 10
11019.130158999969
 20
13209.48697799999
 30
0.0
 11
11019.130158999969
 21
12030.53717799999
 31
0.0
  0
LINE
  5
57A6
  8
SUNPOU
  6
CONTINUOUS
 62
     4
 10
14458.630950999979
 20
13209.48697799999
 30
0.0
 11
14458.630950999979
 21
12030.53717799999
 31
0.0
  0
LINE
  5
57A7
  8
SUNPOU
  6
CONTINUOUS
 62
     4
 10
11019.130158999969
 20
12110.53717799999
 30
0.0
 11
14458.630950999979
 21
12110.53717799999
 31
0.0
  0
TEXT
  5
57A8
  8
0
  6
CONTINUOUS
 62
     7
 10
11816.213888333299
 20
12190.53717799999
 30
0.0
 40
160.0
  1
ケラバ外寸 3439.5
  0
ARC
  5
57A9
  8
0
  6
BYBLOCK
 62
     0
 10
11019.130158999969
 20
12110.53717799999
 30
0.0
 40
15.0
 50
0.0
 51
180.0
  0
ARC
  5
57AA
  8
0
  6
BYBLOCK
 62
     0
 10
11019.130158999969
 20
12110.53717799999
 30
0.0
 40
15.0
 50
180.0
 51
0.0
  0
ARC
  5
57AB
  8
0
  6
BYBLOCK
 62
     0
 10
14458.630950999979
 20
12110.53717799999
 30
0.0
 40
15.0
 50
180.0
 51
0.0
  0
ARC
  5
57AC
  8
0
  6
BYBLOCK
 62
     0
 10
14458.630950999979
 20
12110.53717799999
 30
0.0
 40
15.0
 50
0.0
 51
180.0
  0
TEXT
  5
5801
  8
NAME
 10
24189.8234220308
 20
1076.0
 30
0.0
 40
360.0
  1
H
 41
0.6700000000000002
  7
00
  0
TEXT
  5
5802
  8
NAME
 10
23813.99143745047
 20
1076.0
 30
0.0
 40
360.0
  1
（ ）
  7
01
  0
TEXT
  5
5803
  8
NAME
 10
24713.98442473351
 20
1076.0
 30
0.0
 40
360.0
  1
型（単棟）
  7
01
  0
TEXT
  5
5804
  8
NAME
 10
21686.3487663915
 20
1076.6369801169251
 30
0.0
 40
360.0
  1
VGCU-3362
 41
0.6700000000000002
  0
TEXT
  5
5806
  8
NAME
 10
21933.552716389011
 20
1876.0
 30
0.0
 40
360.0
  1
ヨドガレージ ラヴィージュ
 41
0.75
  7
01
  0
LINE
  5
5807
  8
NAME
  6
CONTINUOUS
 10
26067.886878884299
 20
2236.0
 30
0.0
 11
26067.886878884299
 21
1876.0
 31
0.0
  0
LINE
  5
5808
  8
NAME
  6
CONTINUOUS
 10
26167.886878884299
 20
2236.0
 30
0.0
 11
26167.886878884299
 21
1876.0
 31
0.0
  0
LINE
  5
5809
  8
NAME
  6
CONTINUOUS
 10
26267.88687888431
 20
2236.0
 30
0.0
 11
26267.88687888431
 21
1876.0
 31
0.0
  0
LINE
  5
580A
  8
NAME
  6
CONTINUOUS
 10
26007.886878884299
 20
2236.0
 30
0.0
 11
26327.886878884299
 21
2236.0
 31
0.0
  0
LINE
  5
580B
  8
NAME
  6
CONTINUOUS
 10
26327.886878884299
 20
1876.0
 30
0.0
 11
26007.886878884299
 21
1876.0
 31
0.0
  0
TEXT
  5
58A5
  8
FILENAME
  6
CONTINUOUS
 10
28546.857142857141
 20
348.0
 30
0.0
 40
200.0
  1
＜VGCU-3362-1-A_0.DXF ＞
  7
FILENAME
 72
     2
 11
32764.0
 21
348.0
 31
0.0
  0
LINE
  5
58AB
  8
WAKUSEN-01
 10
868.00000000000193
 20
827.99999999999955
 30
0.0
 11
32764.000000000011
 21
827.99999999999943
 31
0.0
  0
LINE
  5
58AC
  8
WAKUSEN-01
 10
868.00000000000193
 20
827.99999999999955
 30
0.0
 11
868.00000000000193
 21
22484.000000000011
 31
0.0
  0
LINE
  5
58AD
  8
WAKUSEN-01
 10
32764.000000000011
 20
827.99999999999943
 30
0.0
 11
32764.000000000011
 21
22484.000000000011
 31
0.0
  0
LINE
  5
58AE
  8
WAKUSEN-01
 10
20560.0
 20
827.99999999999716
 30
0.0
 11
20560.0
 21
2484.0
 31
0.0
  0
LINE
  5
58AF
  8
WAKUSEN-02
 10
26868.0
 20
827.99999999999261
 30
0.0
 11
26868.0
 21
2484.0
 31
0.0
  0
ENDSEC
  0
EOF
