  0
SECTION
  2
HEADER
  9
$ACADVER
  1
AC1009
  9
$INSBASE
 10
0.0
 20
0.0
 30
0.0
  9
$EXTMIN
 10
867.99324330406671
 20
327.38164749855792
 30
-0.000000000000013
  9
$EXTMAX
 10
32765.33210850941
 20
22484.553276491992
 30
0.0000000000000023
  9
$LIMMIN
 10
0.0
 20
0.0
  9
$LIMMAX
 10
33600.0
 20
23760.0
  9
$ORTHOMODE
 70
     1
  9
$REGENMODE
 70
     1
  9
$FILLMODE
 70
     1
  9
$QTEXTMODE
 70
     0
  9
$MIRRTEXT
 70
     0
  9
$DRAGMODE
 70
     2
  9
$LTSCALE
 40
80.0
  9
$OSMODE
 70
  3071
  9
$ATTMODE
 70
     1
  9
$TEXTSIZE
 40
0.2
  9
$TRACEWID
 40
0.05
  9
$TEXTSTYLE
  7
00
  9
$CLAYER
  8
0
  9
$CELTYPE
  6
BYLAYER
  9
$CECOLOR
 62
   256
  9
$DIMSCALE
 40
80.0
  9
$DIMASZ
 40
3.0
  9
$DIMEXO
 40
1.0
  9
$DIMDLI
 40
0.38
  9
$DIMRND
 40
0.5
  9
$DIMDLE
 40
0.0
  9
$DIMEXE
 40
1.0
  9
$DIMTP
 40
0.0
  9
$DIMTM
 40
0.0
  9
$DIMTXT
 40
2.0
  9
$DIMCEN
 40
0.09
  9
$DIMTSZ
 40
0.0
  9
$DIMTOL
 70
     0
  9
$DIMLIM
 70
     0
  9
$DIMTIH
 70
     0
  9
$DIMTOH
 70
     0
  9
$DIMSE1
 70
     0
  9
$DIMSE2
 70
     0
  9
$DIMTAD
 70
     1
  9
$DIMZIN
 70
     8
  9
$DIMBLK
  1
DOTSMALL
  9
$DIMASO
 70
     1
  9
$DIMSHO
 70
     1
  9
$DIMPOST
  1

  9
$DIMAPOST
  1

  9
$DIMALT
 70
     0
  9
$DIMALTD
 70
     2
  9
$DIMALTF
 40
25.399999999999999
  9
$DIMLFAC
 40
1.0
  9
$DIMTOFL
 70
     1
  9
$DIMTVP
 40
0.0
  9
$DIMTIX
 70
     0
  9
$DIMSOXD
 70
     0
  9
$DIMSAH
 70
     0
  9
$DIMBLK1
  1

  9
$DIMBLK2
  1

  9
$DIMSTYLE
  2
SUNPOU
  9
$DIMCLRD
 70
     4
  9
$DIMCLRE
 70
     4
  9
$DIMCLRT
 70
     7
  9
$DIMTFAC
 40
1.0
  9
$DIMGAP
 40
1.0
  9
$LUNITS
 70
     2
  9
$LUPREC
 70
     4
  9
$SKETCHINC
 40
0.1
  9
$FILLETRAD
 40
0.0
  9
$AUNITS
 70
     0
  9
$AUPREC
 70
     0
  9
$MENU
  1
acad
  9
$ELEVATION
 40
0.0
  9
$PELEVATION
 40
0.0
  9
$THICKNESS
 40
0.0
  9
$LIMCHECK
 70
     0
  9
$BLIPMODE
 70
     1
  9
$CHAMFERA
 40
0.0
  9
$CHAMFERB
 40
0.0
  9
$SKPOLY
 70
     0
  9
$TDCREATE
 40
2454573.3995900238
  9
$TDUPDATE
 40
2458942.4434147691
  9
$TDINDWG
 40
0.0711342361
  9
$TDUSRTIMER
 40
0.0711333333
  9
$USRTIMER
 70
     1
  9
$ANGBASE
 50
0.0
  9
$ANGDIR
 70
     0
  9
$PDMODE
 70
     0
  9
$PDSIZE
 40
0.0
  9
$PLINEWID
 40
0.0
  9
$COORDS
 70
     1
  9
$SPLFRAME
 70
     0
  9
$SPLINETYPE
 70
     6
  9
$SPLINESEGS
 70
     8
  9
$ATTDIA
 70
     1
  9
$ATTREQ
 70
     1
  9
$HANDLING
 70
     1
  9
$HANDSEED
  5
4C7B
  9
$SURFTAB1
 70
     6
  9
$SURFTAB2
 70
     6
  9
$SURFTYPE
 70
     6
  9
$SURFU
 70
     6
  9
$SURFV
 70
     6
  9
$UCSNAME
  2

  9
$UCSORG
 10
0.0
 20
0.0
 30
0.0
  9
$UCSXDIR
 10
1.0
 20
0.0
 30
0.0
  9
$UCSYDIR
 10
0.0
 20
1.0
 30
0.0
  9
$PUCSNAME
  2

  9
$PUCSORG
 10
0.0
 20
0.0
 30
0.0
  9
$PUCSXDIR
 10
1.0
 20
0.0
 30
0.0
  9
$PUCSYDIR
 10
0.0
 20
1.0
 30
0.0
  9
$USERI1
 70
     0
  9
$USERI2
 70
     0
  9
$USERI3
 70
     0
  9
$USERI4
 70
     0
  9
$USERI5
 70
     0
  9
$USERR1
 40
0.0
  9
$USERR2
 40
0.0
  9
$USERR3
 40
0.0
  9
$USERR4
 40
0.0
  9
$USERR5
 40
0.0
  9
$WORLDVIEW
 70
     1
  9
$SHADEDGE
 70
     3
  9
$SHADEDIF
 70
    70
  9
$TILEMODE
 70
     1
  9
$MAXACTVP
 70
    16
  9
$PLIMCHECK
 70
     0
  9
$PEXTMIN
 10
1.0000000000000000E+020
 20
1.0000000000000000E+020
 30
1.0000000000000000E+020
  9
$PEXTMAX
 10
-1.0000000000000000E+020
 20
-1.0000000000000000E+020
 30
-1.0000000000000000E+020
  9
$PLIMMIN
 10
0.0
 20
0.0
  9
$PLIMMAX
 10
12.0
 20
9.0
  9
$UNITMODE
 70
     0
  9
$VISRETAIN
 70
     0
  9
$PLINEGEN
 70
     1
  9
$PSLTSCALE
 70
     0
  0
ENDSEC
  0
SECTION
  2
TABLES
  0
TABLE
  2
VPORT
 70
     1
  0
VPORT
  2
*ACTIVE
 70
     0
 10
0.0
 20
0.0
 11
1.0
 21
1.0
 12
16800.0
 22
11880.0
 13
0.0
 23
0.0
 14
1.0
 24
1.0
 15
0.0
 25
0.0
 16
0.0
 26
0.0
 36
1.0
 17
0.0
 27
0.0
 37
0.0
 40
23981.023255813951
 41
2.195652173913043
 42
50.0
 43
0.0
 44
0.0
 50
0.0
 51
0.0
 71
     0
 72
 10000
 73
     1
 74
     1
 75
     0
 76
     0
 77
     0
 78
     0
  0
ENDTAB
  0
TABLE
  2
LTYPE
 70
     3
  0
LTYPE
  2
CONTINUOUS
 70
     0
  3
Solid line
 72
    65
 73
     0
 40
0.0
  0
LTYPE
  2
DASHED3
 70
     0
  3
------  ------  ------  ------  
 72
    65
 73
     2
 40
5.0
 49
3.75
 49
-1.25
  0
LTYPE
  2
CENTER2
 70
     0
  3
----------  --  ----------  --  
 72
    65
 73
     4
 40
20.0
 49
12.5
 49
-2.5
 49
2.5
 49
-2.5
  0
ENDTAB
  0
TABLE
  2
LAYER
 70
    17
  0
LAYER
  2
0
 70
     0
 62
     7
  6
CONTINUOUS
  0
LAYER
  2
SUNPOU
 70
     0
 62
     4
  6
CONTINUOUS
  0
LAYER
  2
0-1
 70
     0
 62
     7
  6
CONTINUOUS
  0
LAYER
  2
0-2
 70
     0
 62
     7
  6
CONTINUOUS
  0
LAYER
  2
0-5
 70
     0
 62
     7
  6
CONTINUOUS
  0
LAYER
  2
0-6
 70
     0
 62
     7
  6
CONTINUOUS
  0
LAYER
  2
2-0
 70
     0
 62
     7
  6
CONTINUOUS
  0
LAYER
  2
YODOROGO
 70
     0
 62
   130
  6
CONTINUOUS
  0
LAYER
  2
WAKUSEN-01
 70
     0
 62
    50
  6
CONTINUOUS
  0
LAYER
  2
WAKUSEN-02
 70
     0
 62
   130
  6
CONTINUOUS
  0
LAYER
  2
WAKUMOJI-01
 70
     0
 62
   130
  6
CONTINUOUS
  0
LAYER
  2
FILENAME
 70
     0
 62
     7
  6
CONTINUOUS
  0
LAYER
  2
NAME
 70
     0
 62
    20
  6
CONTINUOUS
  0
LAYER
  2
0-4
 70
     0
 62
     7
  6
CONTINUOUS
  0
LAYER
  2
0-7
 70
     0
 62
     7
  6
CONTINUOUS
  0
ENDTAB
  0
TABLE
  2
STYLE
 70
     5
  0
STYLE
  2
STANDARD
 70
     0
 40
0.0
 41
1.0
 50
0.0
 71
     0
 42
0.0
  3
txt
  4
BIGFONT
  0
STYLE
  2
00
 70
     0
 40
0.0
 41
0.6666666666666666
 50
0.0
 71
     0
 42
0.2
  3
ROMANS
  4
BIGFONT
  0
STYLE
  2
01
 70
     0
 40
3.0
 41
1.0
 50
0.0
 71
     0
 42
0.2
  3
ROMANS
  4
BIGFONT
  0
STYLE
  2
WAKUMOJI
 70
     0
 40
3.0
 41
1.0
 50
0.0
 71
     0
 42
3.0
  3
SIMPLEX
  4
BIGFONT
  0
STYLE
  2
FILENAME
 70
     0
 40
200.0
 41
1.0
 50
0.0
 71
     0
 42
200.0
  3
romans
  4
bigfont
  0
ENDTAB
  0
TABLE
  2
VIEW
 70
     0
  0
ENDTAB
  0
TABLE
  2
UCS
 70
     0
  0
ENDTAB
  0
TABLE
  2
APPID
 70
    13
  0
APPID
  2
ACAD
 70
     0
  0
APPID
  2
ACADANNOTATIVE
 70
     0
  0
APPID
  2
ACAD_PSEXT
 70
     0
  0
APPID
  2
DCO15
 70
     0
  0
APPID
  2
ACAD_MLEADERVER
 70
     0
  0
APPID
  2
AUTOCAD_POSTSCRIPT_FIGURE
 70
     0
  0
APPID
  2
ACAD_EXEMPT_FROM_CAD_STANDARDS
 70
     0
  0
APPID
  2
ACAD_DSTYLE_DIMJAG
 70
     0
  0
APPID
  2
ACAD_DSTYLE_DIMTALN
 70
     0
  0
APPID
  2
ACAD_DSTYLE_DIM_LINETYPE
 70
     0
  0
APPID
  2
ACAD_DSTYLE_DIM_EXT1_LINETYPE
 70
     0
  0
APPID
  2
ACAD_DSTYLE_DIM_EXT2_LINETYPE
 70
     0
  0
APPID
  2
ACAD_NAV_VCDISPLAY
 70
     0
  0
ENDTAB
  0
TABLE
  2
DIMSTYLE
 70
     2
  0
DIMSTYLE
  2
SUNPOU
 70
     0
  3

  4

  5

  6

  7

 40
80.0
 41
3.0
 42
1.0
 43
0.38
 44
1.0
 45
0.5
 46
0.0
 47
0.0
 48
0.0
140
2.0
141
0.09
142
0.0
143
25.399999999999999
144
1.0
145
0.0
146
1.0
147
1.0
 71
     0
 72
     0
 73
     0
 74
     0
 75
     0
 76
     0
 77
     1
 78
     8
170
     0
171
     2
172
     1
173
     0
174
     0
175
     0
176
     4
177
     4
178
     7
  0
ENDTAB
  0
ENDSEC
  0
SECTION
  2
BLOCKS
  0
BLOCK
  8
0
  2
$MODEL_SPACE
 70
     0
 10
0.0
 20
0.0
 30
0.0
  3
$MODEL_SPACE
  1

  0
ENDBLK
  5
4084
  8
0
  0
BLOCK
 67
     1
  8
0
  2
$PAPER_SPACE
 70
     0
 10
0.0
 20
0.0
 30
0.0
  3
$PAPER_SPACE
  1

  0
ENDBLK
  5
4080
 67
     1
  8
0
  0
BLOCK
  8
0
  2
_DOTSMALL
 70
     0
 10
0.0
 20
0.0
 30
0.0
  3
_DOTSMALL
  1

  0
POLYLINE
  5
40B3
  8
0
  6
BYBLOCK
 62
     0
 66
     1
 10
0.0
 20
0.0
 30
0.0
 70
     1
 40
0.5
 41
0.5
  0
VERTEX
  5
4C43
  8
0
  6
BYBLOCK
 62
     0
 10
-0.0625
 20
0.0
 30
0.0
 42
1.0
  0
VERTEX
  5
4C44
  8
0
  6
BYBLOCK
 62
     0
 10
0.0625
 20
0.0
 30
0.0
 42
1.0
  0
SEQEND
  5
4C45
  8
0
  6
BYBLOCK
 62
     0
  0
ENDBLK
  5
40B7
  8
0
  0
ENDSEC
  0
SECTION
  2
ENTITIES
  0
CIRCLE
  5
40B8
  8
0-5
  6
CONTINUOUS
 62
     4
 10
15128.713709
 20
1375.999857999999
 30
0.0
 40
20.0
  0
ARC
  5
40B9
  8
0-5
  6
CONTINUOUS
 62
     4
 10
15128.713709
 20
1375.999857999999
 30
0.0
 40
20.0
 50
180.0
 51
0.0
  0
ARC
  5
40BA
  8
0-5
  6
CONTINUOUS
 62
     4
 10
15128.713709
 20
1375.999857999999
 30
0.0
 40
20.0
 50
0.0
 51
179.99998499999839
  0
CIRCLE
  5
40BB
  8
0-5
  6
CONTINUOUS
 62
     4
 10
15128.713709
 20
1775.999939999999
 30
0.0
 40
20.0
  0
ARC
  5
40BC
  8
0-5
  6
CONTINUOUS
 62
     4
 10
15128.713709
 20
1775.999939999999
 30
0.0
 40
20.0
 50
180.0
 51
0.0
  0
ARC
  5
40BD
  8
0-5
  6
CONTINUOUS
 62
     4
 10
15128.713709
 20
1775.999939999999
 30
0.0
 40
20.0
 50
0.0
 51
179.99998499999839
  0
TEXT
  5
40BE
  8
0-5
  6
CONTINUOUS
 62
     7
 10
16646.48791119278
 20
1656.000039
 30
0.0
 40
160.0
  1
H
  0
TEXT
  5
40BF
  8
0-5
  6
CONTINUOUS
 62
     7
 10
15176.146932999991
 20
1656.000039
 30
0.0
 40
160.0
  1
（ ）内寸法ハ、  タ イプヲ示ス。
  0
TEXT
  5
40C0
  8
0-5
  6
CONTINUOUS
 62
     7
 10
15288.714237
 20
1255.999957
 30
0.0
 40
160.0
  1
有効高サハ、基礎高サヲ含ミマセン。
  0
TEXT
  5
40C1
  8
2-0
  6
CONTINUOUS
 62
     7
 10
19445.10148299998
 20
11608.33776799997
 30
0.0
 40
160.0
  1
平　面　図
 72
     4
 11
19898.434816333309
 21
11683.00443466664
 31
0.0
  0
TEXT
  5
40C2
  8
2-0
  6
CONTINUOUS
 62
     7
 10
8762.0949899999996
 20
11614.285232
 30
0.0
 40
160.0
  1
小 屋 伏 図
 50
359.99980699999981
 72
     4
 11
9263.4285928093232
 21
11694.283543265499
 31
0.0
  0
TEXT
  5
40C3
  8
2-0
  6
CONTINUOUS
 62
     7
 10
19463.419947999981
 20
3597.150849000001
 30
0.0
 40
160.0
  1
正 面 立 面 図
 72
     4
 11
20108.75328133332
 21
3677.1508490000001
 31
0.0
  0
TEXT
  5
40C4
  8
2-0
  6
CONTINUOUS
 62
     7
 10
8762.4631809999992
 20
3592.5454989999989
 30
0.0
 40
160.0
  1
側 面 立 面 図
 72
     4
 11
9407.7965143333313
 21
3672.5454989999989
 31
0.0
  0
TEXT
  5
40CC
  8
2-0
  6
CONTINUOUS
 62
     7
 10
10759.28869947095
 20
3619.740867999999
 30
0.0
 40
160.0
  1
1
 72
     4
 11
10785.955366137619
 21
3699.740867999999
 31
0.0
  0
TEXT
  5
40CD
  8
2-0
  6
CONTINUOUS
 62
     7
 10
11002.377416721651
 20
3539.742335999998
 30
0.0
 40
160.0
  1
80
 72
     4
 11
11122.377416721651
 21
3619.742335999998
 31
0.0
  0
TEXT
  5
40CE
  8
2-0
  6
CONTINUOUS
 62
     7
 10
10260.29066547095
 20
3592.5454989999989
 30
0.0
 40
160.0
  1
(S=  /   )
 72
     4
 11
10820.29066547095
 21
3672.5454989999989
 31
0.0
  0
TEXT
  5
40CF
  8
2-0
  6
CONTINUOUS
 62
     7
 10
21460.245466470969
 20
3624.3462179999992
 30
0.0
 40
160.0
  1
1
 72
     4
 11
21486.91213313763
 21
3704.3462179999992
 31
0.0
  0
TEXT
  5
40D0
  8
2-0
  6
CONTINUOUS
 62
     7
 10
21703.33418372165
 20
3544.3476860000001
 30
0.0
 40
160.0
  1
80
 72
     4
 11
21823.33418372165
 21
3624.3476860000001
 31
0.0
  0
TEXT
  5
40D1
  8
2-0
  6
CONTINUOUS
 62
     7
 10
20961.247432470958
 20
3597.150849000001
 30
0.0
 40
160.0
  1
(S=  /   )
 72
     4
 11
21521.247432470958
 21
3677.1508490000001
 31
0.0
  0
TEXT
  5
40D2
  8
2-0
  6
CONTINUOUS
 62
     7
 10
21249.92700147094
 20
11630.199803666659
 30
0.0
 40
160.0
  1
1
 72
     4
 11
21276.593668137612
 21
11710.199803666659
 31
0.0
  0
TEXT
  5
40D3
  8
2-0
  6
CONTINUOUS
 62
     7
 10
21493.015718721639
 20
11550.20127166665
 30
0.0
 40
160.0
  1
80
 72
     4
 11
21613.015718721639
 21
11630.20127166665
 31
0.0
  0
TEXT
  5
40D4
  8
2-0
  6
CONTINUOUS
 62
     7
 10
20750.928967470951
 20
11603.00443466664
 30
0.0
 40
160.0
  1
(S=  /   )
 72
     4
 11
21310.928967470951
 21
11683.00443466664
 31
0.0
  0
TEXT
  5
40D5
  8
2-0
  6
CONTINUOUS
 62
     7
 10
10614.920777946931
 20
11641.4789122655
 30
0.0
 40
160.0
  1
1
 72
     4
 11
10641.5874446136
 21
11721.4789122655
 31
0.0
  0
TEXT
  5
40D6
  8
2-0
  6
CONTINUOUS
 62
     7
 10
10858.009495197641
 20
11561.480380265501
 30
0.0
 40
160.0
  1
80
 72
     4
 11
10978.009495197641
 21
11641.480380265501
 31
0.0
  0
TEXT
  5
40D7
  8
2-0
  6
CONTINUOUS
 62
     7
 10
10115.922743946951
 20
11614.283543265499
 30
0.0
 40
160.0
  1
(S=  /   )
 72
     4
 11
10675.922743946951
 21
11694.283543265499
 31
0.0
  0
LINE
  5
40D8
  8
0-1
  6
CONTINUOUS
 62
     3
 10
7828.8509020000029
 20
19458.148051
 30
0.0
 11
7828.8509020000029
 21
20159.092677000019
 31
0.0
  0
LINE
  5
40D9
  8
0-1
  6
CONTINUOUS
 62
     3
 10
7791.8527100000038
 20
19476.903988999991
 30
0.0
 11
7791.8527100000038
 21
20159.092677000019
 31
0.0
  0
LINE
  5
40DA
  8
0-1
  6
CONTINUOUS
 62
     3
 10
7270.8522479999938
 20
17072.59499999999
 30
0.0
 11
11996.102736000001
 21
17072.59499999999
 31
0.0
  0
LINE
  5
40DB
  8
0-1
  6
CONTINUOUS
 62
     3
 10
7320.8528680000018
 20
13609.596412000001
 30
0.0
 11
7320.8528680000036
 21
20159.092677000019
 31
0.0
  0
LINE
  5
40DC
  8
0-1
  6
CONTINUOUS
 62
     3
 10
7185.3528420000066
 20
13577.595515000001
 30
0.0
 11
7185.3528420000066
 21
20169.094129000001
 31
0.0
  0
LINE
  5
40DD
  8
0-1
  6
CONTINUOUS
 62
     3
 10
7379.3516410000029
 20
19680.663755000001
 30
0.0
 11
7379.3516410000029
 21
20159.092677000019
 31
0.0
  0
LINE
  5
40DE
  8
0-1
  6
CONTINUOUS
 62
     3
 10
7416.3528020000031
 20
19661.911775
 30
0.0
 11
7416.3528020000031
 21
20159.092677000019
 31
0.0
  0
LINE
  5
40DF
  8
0-1
  6
CONTINUOUS
 62
     3
 10
7579.3532899999973
 20
19579.292608
 30
0.0
 11
7579.3532899999964
 21
20159.092677000019
 31
0.0
  0
LINE
  5
40E0
  8
0-1
  6
CONTINUOUS
 62
     3
 10
7616.3514819999982
 20
19560.536670000009
 30
0.0
 11
7616.3514819999982
 21
20159.092677000019
 31
0.0
  0
LINE
  5
40E1
  8
0-1
  6
CONTINUOUS
 62
     3
 10
7991.8523800000112
 20
19375.52888400001
 30
0.0
 11
7991.8523800000112
 21
20159.092677000019
 31
0.0
  0
LINE
  5
40E2
  8
0-1
  6
CONTINUOUS
 62
     3
 10
8028.8525520000076
 20
19356.774925000002
 30
0.0
 11
8028.8525520000076
 21
20159.092677000019
 31
0.0
  0
LINE
  5
40E3
  8
0-1
  6
CONTINUOUS
 62
     3
 10
8191.85106000001
 20
19274.155758000001
 30
0.0
 11
8191.85106000001
 21
20159.092677000019
 31
0.0
  0
LINE
  5
40E4
  8
0-1
  6
CONTINUOUS
 62
     3
 10
8228.8522220000086
 20
19255.403778
 30
0.0
 11
8228.8522220000086
 21
20159.092677000019
 31
0.0
  0
LINE
  5
40E5
  8
0-1
  6
CONTINUOUS
 62
     3
 10
10157.149769999991
 20
18273.008507999992
 30
0.0
 11
10319.387154000009
 21
18463.216488999991
 31
0.0
  0
LINE
  5
40E6
  8
0-1
  6
CONTINUOUS
 62
     3
 10
10755.743322000009
 20
17428.850938999982
 30
0.0
 11
10917.980706000009
 21
17619.058919999999
 31
0.0
  0
LINE
  5
40E7
  8
0-1
  6
CONTINUOUS
 62
     3
 10
10755.743322000009
 20
17428.850938999982
 30
0.0
 11
10319.387154000009
 21
18463.216488999991
 31
0.0
  0
LINE
  5
40E8
  8
0-1
  6
CONTINUOUS
 62
     3
 10
7270.8522479999938
 20
16993.594392999981
 30
0.0
 11
12151.960132
 21
16993.594392999981
 31
0.0
  0
LINE
  5
40E9
  8
0-1
  6
CONTINUOUS
 62
     3
 10
7228.3519840000108
 20
13733.596424999991
 30
0.0
 11
12448.351522000001
 21
13733.596424999991
 31
0.0
  0
LINE
  5
40EA
  8
0-1
  6
CONTINUOUS
 62
     3
 10
7270.8522479999938
 20
13812.597032
 30
0.0
 11
12405.85224799999
 21
13812.597032
 31
0.0
  0
LINE
  5
40EB
  8
0-1
  6
CONTINUOUS
 62
     3
 10
7185.3528420000066
 20
13577.595515000001
 30
0.0
 11
12491.352644000001
 21
13577.595515000001
 31
0.0
  0
LINE
  5
40EC
  8
0-1
  6
CONTINUOUS
 62
     3
 10
7185.3528420000066
 20
13609.596412000001
 30
0.0
 11
12491.352644000001
 21
13609.596412000001
 31
0.0
  0
LINE
  5
40ED
  8
0-1
  6
CONTINUOUS
 62
     3
 10
12847.63624974867
 20
16644.26612613754
 30
0.0
 11
10917.980706000009
 21
17619.058919999999
 31
0.0
  0
LINE
  5
40EE
  8
0-1
  6
CONTINUOUS
 62
     3
 10
7270.8522479999938
 20
13733.596424999991
 30
0.0
 11
7270.8522479999938
 21
19735.66072
 31
0.0
  0
LINE
  5
40EF
  8
0-1
  6
CONTINUOUS
 62
     3
 10
7228.3519840000108
 20
13733.596424999991
 30
0.0
 11
7228.3519840000108
 21
19757.201840999991
 31
0.0
  0
LINE
  5
40F0
  8
0-1
  6
CONTINUOUS
 62
     3
 10
8391.8527100000065
 20
19172.78461100001
 30
0.0
 11
8391.8527100000065
 21
20159.092677000019
 31
0.0
  0
LINE
  5
40F1
  8
0-1
  6
CONTINUOUS
 62
     3
 10
8428.8509020000056
 20
19154.028672
 30
0.0
 11
8428.8509020000056
 21
20159.092677000019
 31
0.0
  0
LINE
  5
40F2
  8
0-1
  6
CONTINUOUS
 62
     3
 10
8591.8523800000112
 20
19071.409505
 30
0.0
 11
8591.852380000013
 21
20159.092677000019
 31
0.0
  0
LINE
  5
40F3
  8
0-1
  6
CONTINUOUS
 62
     3
 10
8991.851720000006
 20
18868.66325300001
 30
0.0
 11
8991.851720000006
 21
20159.092677000019
 31
0.0
  0
LINE
  5
40F4
  8
0-1
  6
CONTINUOUS
 62
     3
 10
9028.8518920000042
 20
18849.907315000011
 30
0.0
 11
9028.8518920000042
 21
20159.092677000019
 31
0.0
  0
LINE
  5
40F5
  8
0-1
  6
CONTINUOUS
 62
     3
 10
9191.8523800000112
 20
18767.288148
 30
0.0
 11
9191.8523800000112
 21
20159.092677000019
 31
0.0
  0
LINE
  5
40F6
  8
0-1
  6
CONTINUOUS
 62
     3
 10
9228.8515619999962
 20
18748.532209000001
 30
0.0
 11
9228.8515619999962
 21
20159.092677000019
 31
0.0
  0
LINE
  5
40F7
  8
0-1
  6
CONTINUOUS
 62
     3
 10
9391.8520499999995
 20
18665.913042
 30
0.0
 11
9391.8520499999995
 21
20159.092677000019
 31
0.0
  0
LINE
  5
40F8
  8
0-1
  6
CONTINUOUS
 62
     3
 10
9428.8522220000086
 20
18642.159029999999
 30
0.0
 11
9428.8522220000086
 21
20159.092677000011
 31
0.0
  0
LINE
  5
40F9
  8
0-1
  6
CONTINUOUS
 62
     3
 10
9591.851720000006
 20
18559.539862999991
 30
0.0
 11
9591.851720000006
 21
20159.092677000019
 31
0.0
  0
LINE
  5
40FA
  8
0-1
  6
CONTINUOUS
 62
     3
 10
9628.8518920000097
 20
18540.787884000001
 30
0.0
 11
9628.8518920000097
 21
20159.092677000019
 31
0.0
  0
LINE
  5
40FB
  8
0-1
  6
CONTINUOUS
 62
     3
 10
9791.8533700000116
 20
18458.168717
 30
0.0
 11
9791.8533700000116
 21
20159.092677000011
 31
0.0
  0
LINE
  5
40FC
  8
0-1
  6
CONTINUOUS
 62
     3
 10
9828.8515620000126
 20
18439.412778000002
 30
0.0
 11
9828.8515620000126
 21
20159.092677000019
 31
0.0
  0
LINE
  5
40FD
  8
0-1
  6
CONTINUOUS
 62
     3
 10
9991.8520500000086
 20
18356.793610999979
 30
0.0
 11
9991.8520500000122
 21
20159.092677000019
 31
0.0
  0
LINE
  5
40FE
  8
0-1
  6
CONTINUOUS
 62
     3
 10
10028.853211000011
 20
18338.037671999999
 30
0.0
 11
10028.853211000011
 21
20159.092677000019
 31
0.0
  0
LINE
  5
40FF
  8
0-1
  6
CONTINUOUS
 62
     3
 10
10191.851720000001
 20
18313.693553000001
 30
0.0
 11
10191.851720000001
 21
20159.092677000019
 31
0.0
  0
LINE
  5
4100
  8
0-1
  6
CONTINUOUS
 62
     3
 10
10228.851892000001
 20
18357.074702999998
 30
0.0
 11
10228.851892000001
 21
20159.092677000019
 31
0.0
  0
LINE
  5
4101
  8
0-1
  6
CONTINUOUS
 62
     3
 10
10391.85337000001
 20
18292.271203
 30
0.0
 11
10391.85337000001
 21
20159.092677000019
 31
0.0
  0
LINE
  5
4102
  8
0-1
  6
CONTINUOUS
 62
     3
 10
10428.851562000011
 20
18204.990269999991
 30
0.0
 11
10428.851562000011
 21
20159.092677000019
 31
0.0
  0
LINE
  5
4103
  8
0-1
  6
CONTINUOUS
 62
     3
 10
8628.8525520000094
 20
19052.653567000001
 30
0.0
 11
8628.8525520000094
 21
20159.092677000019
 31
0.0
  0
LINE
  5
4104
  8
0-1
  6
CONTINUOUS
 62
     3
 10
8791.8520500000013
 20
18970.0344
 30
0.0
 11
8791.8520500000013
 21
20159.092677000019
 31
0.0
  0
LINE
  5
4105
  8
0-1
  6
CONTINUOUS
 62
     3
 10
8828.8522220000086
 20
18951.28242
 30
0.0
 11
8828.8522220000086
 21
20159.092677000019
 31
0.0
  0
LINE
  5
4106
  8
0-1
  6
CONTINUOUS
 62
     3
 10
10828.850902
 20
17514.562113999978
 30
0.0
 11
10828.850902
 21
20159.092677000019
 31
0.0
  0
LINE
  5
4107
  8
0-1
  6
CONTINUOUS
 62
     3
 10
10791.852709999999
 20
17471.184923000001
 30
0.0
 11
10791.852709999999
 21
20159.092677000019
 31
0.0
  0
LINE
  5
4108
  8
0-1
  6
CONTINUOUS
 62
     3
 10
10628.853211
 20
17728.189779
 30
0.0
 11
10628.853211
 21
20159.092677000019
 31
0.0
  0
LINE
  5
4109
  8
0-1
  6
CONTINUOUS
 62
     3
 10
10591.85205000001
 20
17815.474672
 30
0.0
 11
10591.85205000001
 21
20159.092677000019
 31
0.0
  0
LINE
  5
410A
  8
0-1
  6
CONTINUOUS
 62
     3
 10
12448.351522000001
 20
13733.596424999991
 30
0.0
 11
12448.351522000001
 21
16138.05537
 31
0.0
  0
LINE
  5
410B
  8
0-1
  6
CONTINUOUS
 62
     3
 10
12405.85224799999
 20
13733.596424999991
 30
0.0
 11
12405.85224799999
 21
16159.595502
 31
0.0
  0
LINE
  5
410C
  8
0-1
  6
CONTINUOUS
 62
     3
 10
12491.352644000001
 20
13577.595515000001
 30
0.0
 11
12491.352644000001
 21
20169.094129000001
 31
0.0
  0
LINE
  5
410D
  8
0-1
  6
CONTINUOUS
 62
     3
 10
12355.85162699998
 20
13609.596412000001
 30
0.0
 11
12355.85162699998
 21
20159.092677000019
 31
0.0
  0
LINE
  5
410E
  8
0-1
  6
CONTINUOUS
 62
     3
 10
10157.149769999991
 20
18273.008507999992
 30
0.0
 11
7037.1572120000046
 21
19854.113131999999
 31
0.0
  0
LINE
  5
410F
  8
0-1
  6
CONTINUOUS
 62
     3
 10
7203.3535940000029
 20
20139.094524
 30
0.0
 11
7253.8521029999974
 21
20139.094524
 31
0.0
  0
LINE
  5
4110
  8
0-1
  6
CONTINUOUS
 62
     3
 10
7203.3535940000029
 20
20161.593733000002
 30
0.0
 11
7185.3528420000066
 21
20161.593733000002
 31
0.0
  0
LINE
  5
4111
  8
0-1
  6
CONTINUOUS
 62
     3
 10
7253.8521029999974
 20
20179.096635999991
 30
0.0
 11
7190.35211600001
 21
20179.096635999991
 31
0.0
  0
LINE
  5
4112
  8
0-1
  6
CONTINUOUS
 62
     3
 10
7185.3528420000066
 20
20174.09439200001
 30
0.0
 11
7185.3528420000066
 21
20139.094524
 31
0.0
  0
LINE
  5
4113
  8
0-1
  6
CONTINUOUS
 62
     3
 10
7258.851376999999
 20
20144.094787999991
 30
0.0
 11
7258.851376999999
 21
20174.09439200001
 31
0.0
  0
LINE
  5
4114
  8
0-1
  6
CONTINUOUS
 62
     3
 10
7258.851376999999
 20
20159.092677000019
 30
0.0
 11
12417.85311899999
 21
20159.092677000019
 31
0.0
  0
LINE
  5
4115
  8
0-1
  6
CONTINUOUS
 62
     3
 10
7203.3535940000029
 20
19768.354447999991
 30
0.0
 11
7203.3535940000029
 21
20161.593733000002
 31
0.0
  0
LINE
  5
4116
  8
0-1
  6
CONTINUOUS
 62
     3
 10
12422.853382999991
 20
20179.096635999991
 30
0.0
 11
12486.35237999998
 21
20179.096635999991
 31
0.0
  0
LINE
  5
4117
  8
0-1
  6
CONTINUOUS
 62
     3
 10
12473.352880999981
 20
20139.094524
 30
0.0
 11
12422.853382999991
 21
20139.094524
 31
0.0
  0
LINE
  5
4118
  8
0-1
  6
CONTINUOUS
 62
     3
 10
12417.85311899999
 20
20144.094787999991
 30
0.0
 11
12417.85311899999
 21
20174.09439200001
 31
0.0
  0
LINE
  5
4119
  8
0-1
  6
CONTINUOUS
 62
     3
 10
12491.352644000001
 20
20174.09439200001
 30
0.0
 11
12491.352644000001
 21
20139.094524
 31
0.0
  0
LINE
  5
411A
  8
0-1
  6
CONTINUOUS
 62
     3
 10
12473.352880999981
 20
20161.593733000002
 30
0.0
 11
12491.352644000001
 21
20161.593733000002
 31
0.0
  0
LINE
  5
411B
  8
0-1
  6
CONTINUOUS
 62
     3
 10
12473.352880999981
 20
16126.90474199999
 30
0.0
 11
12473.352880999981
 21
20161.593733000002
 31
0.0
  0
LINE
  5
411C
  8
0-1
  6
CONTINUOUS
 62
     3
 10
7270.8522479999938
 20
15624.597164000001
 30
0.0
 11
12405.85224799999
 21
15624.597164000001
 31
0.0
  0
LINE
  5
411D
  8
0-1
  6
CONTINUOUS
 62
     3
 10
7270.8522479999938
 20
15534.59736199999
 30
0.0
 11
12405.85224799999
 21
15534.59736199999
 31
0.0
  0
LINE
  5
411E
  8
0-1
  6
CONTINUOUS
 62
     3
 10
7270.8522479999938
 20
18542.595184000002
 30
0.0
 11
9625.2838100000063
 21
18542.595184000002
 31
0.0
  0
LINE
  5
411F
  8
0-1
  6
CONTINUOUS
 62
     3
 10
7270.8522479999938
 20
18452.594391999992
 30
0.0
 11
9802.844647000009
 21
18452.594391999992
 31
0.0
  0
LINE
  5
4120
  8
0-1
  6
CONTINUOUS
 62
     3
 10
10596.352485999991
 20
13812.597032
 30
0.0
 11
10596.352485999991
 21
15534.59736199999
 31
0.0
  0
LINE
  5
4121
  8
0-1
  6
CONTINUOUS
 62
     3
 10
10482.35201100001
 20
13812.597032
 30
0.0
 11
10482.35201100001
 21
15534.59736199999
 31
0.0
  0
LINE
  5
4122
  8
0-1
  6
CONTINUOUS
 62
     3
 10
10539.35224799999
 20
13812.597032
 30
0.0
 11
10539.35224799999
 21
15184.595712
 31
0.0
  0
LINE
  5
4123
  8
0-1
  6
CONTINUOUS
 62
     3
 10
10539.35224799999
 20
13733.596424999991
 30
0.0
 11
10539.35224799999
 21
15534.59736199999
 31
0.0
  0
LINE
  5
4124
  8
0-1
  6
CONTINUOUS
 62
     3
 10
10539.35224799999
 20
15624.597164000001
 30
0.0
 11
10539.35224799999
 21
16993.594392999981
 31
0.0
  0
LINE
  5
4125
  8
0-1
  6
CONTINUOUS
 62
     3
 10
10539.35224799999
 20
17072.59499999999
 30
0.0
 11
10539.35224799999
 21
17589.322591999979
 31
0.0
  0
LINE
  5
4126
  8
0-1
  6
CONTINUOUS
 62
     3
 10
10539.35224799999
 20
17072.59499999999
 30
0.0
 11
10539.35224799999
 21
17949.319398000011
 31
0.0
  0
LINE
  5
4127
  8
0-1
  6
CONTINUOUS
 62
     3
 10
10482.35201100001
 20
17072.59499999999
 30
0.0
 11
10482.35201100001
 21
18083.784135999991
 31
0.0
  0
LINE
  5
4128
  8
0-1
  6
CONTINUOUS
 62
     3
 10
10596.352485999991
 20
17072.59499999999
 30
0.0
 11
10596.352485999991
 21
17804.858513999989
 31
0.0
  0
LINE
  5
4129
  8
0-1
  6
CONTINUOUS
 62
     3
 10
10482.35201100001
 20
15624.597164000001
 30
0.0
 11
10482.35201100001
 21
16993.594392999981
 31
0.0
  0
LINE
  5
412A
  8
0-1
  6
CONTINUOUS
 62
     3
 10
10596.352485999991
 20
15624.597164000001
 30
0.0
 11
10596.352485999991
 21
16993.594392999981
 31
0.0
  0
LINE
  5
412B
  8
0-1
  6
CONTINUOUS
 62
     3
 10
10539.35224799999
 20
15624.597164000001
 30
0.0
 11
10539.35224799999
 21
15534.59736199999
 31
0.0
  0
LINE
  5
412C
  8
0-1
  6
CONTINUOUS
 62
     3
 10
10539.35224799999
 20
17072.59499999999
 30
0.0
 11
10539.35224799999
 21
16993.594392999981
 31
0.0
  0
LINE
  5
412D
  8
0-1
  6
CONTINUOUS
 62
     3
 10
7340.8529740000095
 20
13770.09676799999
 30
0.0
 11
10469.35251200001
 21
15579.59676799999
 31
0.0
  0
LINE
  5
412E
  8
0-1
  6
CONTINUOUS
 62
     3
 10
10469.35251200001
 20
13770.09676799999
 30
0.0
 11
7340.8529740000095
 21
15579.59676799999
 31
0.0
  0
LINE
  5
412F
  8
0-1
  6
CONTINUOUS
 62
     3
 10
10469.35251200001
 20
15579.59676799999
 30
0.0
 11
7340.8529740000095
 21
17038.596767999999
 31
0.0
  0
LINE
  5
4130
  8
0-1
  6
CONTINUOUS
 62
     3
 10
10469.35251200001
 20
17038.596767999999
 30
0.0
 11
7340.8529740000095
 21
15579.59676799999
 31
0.0
  0
LINE
  5
4131
  8
0-1
  6
CONTINUOUS
 62
     3
 10
10469.35251200001
 20
17038.596767999999
 30
0.0
 11
7340.8529740000095
 21
18497.596767999989
 31
0.0
  0
LINE
  5
4132
  8
0-1
  6
CONTINUOUS
 62
     3
 10
8581.9241050000128
 20
19076.44144200001
 30
0.0
 11
7340.8529740000095
 21
18497.596767999989
 31
0.0
  0
LINE
  5
4133
  8
0-1
  6
CONTINUOUS
 62
     3
 10
10075.974662000001
 20
18314.152801
 30
0.0
 11
7340.8529740000095
 21
17038.596767999999
 31
0.0
  0
LINE
  5
4134
  8
0-1
  6
CONTINUOUS
 62
     3
 10
10331.96996300001
 20
18433.529649
 30
0.0
 11
10269.03413899999
 21
18404.181305999991
 31
0.0
  0
LINE
  5
4135
  8
0-1
  6
CONTINUOUS
 62
     3
 10
10609.351984000001
 20
13770.09676799999
 30
0.0
 11
12335.852511999999
 21
15579.59676799999
 31
0.0
  0
LINE
  5
4136
  8
0-1
  6
CONTINUOUS
 62
     3
 10
12335.852511999999
 20
13770.09676799999
 30
0.0
 11
10609.351984000001
 21
15579.59676799999
 31
0.0
  0
LINE
  5
4137
  8
0-1
  6
CONTINUOUS
 62
     3
 10
10609.351984000001
 20
17038.596767999999
 30
0.0
 11
12335.852511999999
 21
15579.59676799999
 31
0.0
  0
LINE
  5
4138
  8
0-1
  6
CONTINUOUS
 62
     3
 10
10609.351984000001
 20
15579.59676799999
 30
0.0
 11
12235.27984339455
 21
16953.60662689339
 31
0.0
  0
LINE
  5
4139
  8
0-1
  6
CONTINUOUS
 62
     3
 10
10609.351984000001
 20
17038.596767999999
 30
0.0
 11
11154.720117824691
 21
17499.466657319968
 31
0.0
  0
LINE
  5
413A
  8
0-1
  6
CONTINUOUS
 62
     3
 10
11865.851403999999
 20
17140.228628802641
 30
0.0
 11
11865.851403999999
 21
20159.092677000019
 31
0.0
  0
LINE
  5
413B
  8
0-1
  6
CONTINUOUS
 62
     3
 10
11828.853211
 20
17158.91878935444
 30
0.0
 11
11828.853211000011
 21
20159.092677000019
 31
0.0
  0
LINE
  5
413C
  8
0-1
  6
CONTINUOUS
 62
     3
 10
10991.85238
 20
17581.74159892731
 30
0.0
 11
10991.85238
 21
20159.092677000019
 31
0.0
  0
LINE
  5
413D
  8
0-1
  6
CONTINUOUS
 62
     3
 10
11028.852552
 20
17563.050438655671
 30
0.0
 11
11028.852552
 21
20159.092677000019
 31
0.0
  0
LINE
  5
413E
  8
0-1
  6
CONTINUOUS
 62
     3
 10
11191.85204999999
 20
17480.708936531959
 30
0.0
 11
11191.85204999999
 21
20159.092677000019
 31
0.0
  0
LINE
  5
413F
  8
0-1
  6
CONTINUOUS
 62
     3
 10
11228.853211
 20
17462.017276652979
 30
0.0
 11
11228.853211000011
 21
20159.092677000019
 31
0.0
  0
LINE
  5
4140
  8
0-1
  6
CONTINUOUS
 62
     3
 10
11391.85172000001
 20
17379.676274136611
 30
0.0
 11
11391.851720000001
 21
20159.092677000011
 31
0.0
  0
LINE
  5
4141
  8
0-1
  6
CONTINUOUS
 62
     3
 10
11428.850902
 20
17360.985613977471
 30
0.0
 11
11428.850902
 21
20159.092677000019
 31
0.0
  0
LINE
  5
4142
  8
0-1
  6
CONTINUOUS
 62
     3
 10
11591.85238
 20
17278.643111628771
 30
0.0
 11
11591.85238
 21
20159.092677000011
 31
0.0
  0
LINE
  5
4143
  8
0-1
  6
CONTINUOUS
 62
     3
 10
11628.852552
 20
17259.951951357121
 30
0.0
 11
11628.852552
 21
20159.092677000019
 31
0.0
  0
LINE
  5
4144
  8
0-1
  6
CONTINUOUS
 62
     3
 10
10539.35224799999
 20
13733.596424999991
 30
0.0
 11
10539.35224799999
 21
13577.595515000001
 31
0.0
  0
LINE
  5
4145
  8
0-5
  6
CONTINUOUS
 62
     6
 10
9357.3183589999971
 20
19896.821244999988
 30
0.0
 11
9501.2194620000082
 21
20409.0969
 31
0.0
  0
LINE
  5
4146
  8
0-5
  6
CONTINUOUS
 62
     6
 10
9501.2194620000082
 20
20409.0969
 30
0.0
 11
10018.909100000001
 21
20409.0969
 31
0.0
  0
LINE
  5
4147
  8
0-5
  6
CONTINUOUS
 62
     6
 10
7435.3809240000028
 20
18836.29416500001
 30
0.0
 11
7965.8791170000113
 21
18836.29416500001
 31
0.0
  0
LINE
  5
4148
  8
0-5
  6
CONTINUOUS
 62
     6
 10
8431.733081000013
 20
13964.48549299998
 30
0.0
 11
8514.6204730000136
 21
14141.424761
 31
0.0
  0
LINE
  5
4149
  8
0-5
  6
CONTINUOUS
 62
     6
 10
8514.6204730000136
 20
14141.424761
 30
0.0
 11
9314.6201430000092
 21
14141.424761
 31
0.0
  0
LINE
  5
414A
  8
0-5
  6
CONTINUOUS
 62
     6
 10
9422.1466030000083
 20
12777.595844999991
 30
0.0
 11
10284.725783000011
 21
12777.595844999991
 31
0.0
  0
LINE
  5
414B
  8
0-5
  6
CONTINUOUS
 62
     6
 10
9016.0325290000128
 20
13441.127504
 30
0.0
 11
9422.1466030000083
 21
12777.595844999991
 31
0.0
  0
LINE
  5
414C
  8
0-5
  6
CONTINUOUS
 62
     6
 10
5454.9552289999992
 20
12377.59650499999
 30
0.0
 11
6534.9538430000021
 21
12377.59650499999
 31
0.0
  0
LINE
  5
414D
  8
0-5
  6
CONTINUOUS
 62
     6
 10
7093.4586800000016
 20
14157.868621999991
 30
0.0
 11
6534.9538430000021
 21
12377.59650499999
 31
0.0
  0
LINE
  5
414E
  8
0-5
  6
CONTINUOUS
 62
     6
 10
7336.3376920000001
 20
19057.083729000009
 30
0.0
 11
7435.3809240000028
 21
18836.29416500001
 31
0.0
  0
LINE
  5
414F
  8
0-5
  6
CONTINUOUS
 62
     6
 10
8636.3361220000079
 20
16603.882611000001
 30
0.0
 11
8741.9691719999973
 21
16704.913280000001
 31
0.0
  0
LINE
  5
4150
  8
0-5
  6
CONTINUOUS
 62
     6
 10
7333.0734659999998
 20
20321.875351999988
 30
0.0
 11
7494.5952539999998
 21
20657.633376000002
 31
0.0
  0
LINE
  5
4151
  8
0-5
  6
CONTINUOUS
 62
     6
 10
7556.2572570000029
 20
20785.819081000001
 30
0.0
 11
7732.5898830000087
 21
21130.538385000022
 31
0.0
  0
LINE
  5
4152
  8
0-5
  6
CONTINUOUS
 62
     6
 10
7732.5898830000087
 20
21130.538385000022
 30
0.0
 11
9385.4354410000087
 21
21130.538385000022
 31
0.0
  0
LINE
  5
4153
  8
0-5
  6
CONTINUOUS
 62
     6
 10
9373.7483630000061
 20
16168.623095999999
 30
0.0
 11
10321.693293
 21
16168.623095999999
 31
0.0
  0
LINE
  5
4154
  8
0-5
  6
CONTINUOUS
 62
     6
 10
10482.35201100001
 20
15743.600661999981
 30
0.0
 11
10321.693293
 21
16168.623095999999
 31
0.0
  0
LINE
  5
4155
  8
0-5
  6
CONTINUOUS
 62
     6
 10
8741.9691719999973
 20
16704.913280000001
 30
0.0
 11
9621.971085000012
 21
16704.913280000001
 31
0.0
  0
LINE
  5
4156
  8
0-5
  6
CONTINUOUS
 62
     6
 10
7360.669934000005
 20
19068.000773999989
 30
0.0
 11
7270.8522479999938
 21
19203.069265999991
 31
0.0
  0
LINE
  5
4157
  8
0-5
  6
CONTINUOUS
 62
     6
 10
7270.8522479999938
 20
19203.069265999991
 30
0.0
 11
7312.0064390000016
 21
19046.16866399999
 31
0.0
  0
LINE
  5
4158
  8
0-5
  6
CONTINUOUS
 62
     6
 10
7270.8522479999938
 20
19203.069265999991
 30
0.0
 11
7360.669934000005
 21
19068.000773999989
 31
0.0
  0
LINE
  5
4159
  8
0-5
  6
CONTINUOUS
 62
     6
 10
7360.669934000005
 20
19068.000773999989
 30
0.0
 11
7312.0064390000016
 21
19046.16866399999
 31
0.0
  0
LINE
  5
415A
  8
0-5
  6
CONTINUOUS
 62
     6
 10
7312.0064390000016
 20
19046.16866399999
 30
0.0
 11
7270.8522479999938
 21
19203.069265999991
 31
0.0
  0
LINE
  5
415B
  8
0-5
  6
CONTINUOUS
 62
     6
 10
7312.0064390000016
 20
19046.16866399999
 30
0.0
 11
7360.669934000005
 21
19068.000773999989
 31
0.0
  0
LINE
  5
415C
  8
0-5
  6
CONTINUOUS
 62
     6
 10
9038.7771980000107
 20
13455.04846799999
 30
0.0
 11
8932.5077330000058
 21
13577.595515000001
 31
0.0
  0
LINE
  5
415D
  8
0-5
  6
CONTINUOUS
 62
     6
 10
8932.5077330000058
 20
13577.595515000001
 30
0.0
 11
8993.2868710000112
 21
13427.207528999999
 31
0.0
  0
LINE
  5
415E
  8
0-5
  6
CONTINUOUS
 62
     6
 10
8932.5077330000058
 20
13577.595515000001
 30
0.0
 11
9038.7771980000107
 21
13455.04846799999
 31
0.0
  0
LINE
  5
415F
  8
0-5
  6
CONTINUOUS
 62
     6
 10
9038.7771980000107
 20
13455.04846799999
 30
0.0
 11
8993.2868710000112
 21
13427.207528999999
 31
0.0
  0
LINE
  5
4160
  8
0-5
  6
CONTINUOUS
 62
     6
 10
8993.2868710000112
 20
13427.207528999999
 30
0.0
 11
8932.5077330000058
 21
13577.595515000001
 31
0.0
  0
LINE
  5
4161
  8
0-5
  6
CONTINUOUS
 62
     6
 10
8993.2868710000112
 20
13427.207528999999
 30
0.0
 11
9038.7771980000107
 21
13455.04846799999
 31
0.0
  0
LINE
  5
4162
  8
0-5
  6
CONTINUOUS
 62
     6
 10
7118.9024219999992
 20
14149.886213999989
 30
0.0
 11
7141.3521420000043
 21
14310.532064999999
 31
0.0
  0
LINE
  5
4163
  8
0-5
  6
CONTINUOUS
 62
     6
 10
7141.3521420000043
 20
14310.532064999999
 30
0.0
 11
7068.0159280000098
 21
14165.850040999991
 31
0.0
  0
LINE
  5
4164
  8
0-5
  6
CONTINUOUS
 62
     6
 10
7141.3521420000043
 20
14310.532064999999
 30
0.0
 11
7118.9024219999992
 21
14149.886213999989
 31
0.0
  0
LINE
  5
4165
  8
0-5
  6
CONTINUOUS
 62
     6
 10
7118.9024219999992
 20
14149.886213999989
 30
0.0
 11
7068.0159280000098
 21
14165.850040999991
 31
0.0
  0
LINE
  5
4166
  8
0-5
  6
CONTINUOUS
 62
     6
 10
7068.0159280000098
 20
14165.850040999991
 30
0.0
 11
7141.3521420000043
 21
14310.532064999999
 31
0.0
  0
LINE
  5
4167
  8
0-5
  6
CONTINUOUS
 62
     6
 10
7068.0159280000098
 20
14165.850040999991
 30
0.0
 11
7118.9024219999992
 21
14149.886213999989
 31
0.0
  0
LINE
  5
4168
  8
0-5
  6
CONTINUOUS
 62
     6
 10
8407.5859240000082
 20
13975.798441999999
 30
0.0
 11
8363.8603380000131
 21
13819.59660999999
 31
0.0
  0
LINE
  5
4169
  8
0-5
  6
CONTINUOUS
 62
     6
 10
8363.8603380000131
 20
13819.59660999999
 30
0.0
 11
8455.8812280000129
 21
13953.17353399999
 31
0.0
  0
LINE
  5
416A
  8
0-5
  6
CONTINUOUS
 62
     6
 10
8363.8603380000131
 20
13819.59660999999
 30
0.0
 11
8407.5859240000082
 21
13975.798441999999
 31
0.0
  0
LINE
  5
416B
  8
0-5
  6
CONTINUOUS
 62
     6
 10
8407.5859240000082
 20
13975.798441999999
 30
0.0
 11
8455.8812280000129
 21
13953.17353399999
 31
0.0
  0
LINE
  5
416C
  8
0-5
  6
CONTINUOUS
 62
     6
 10
8455.8812280000129
 20
13953.17353399999
 30
0.0
 11
8363.8603380000131
 21
13819.59660999999
 31
0.0
  0
LINE
  5
416D
  8
0-5
  6
CONTINUOUS
 62
     6
 10
8455.8812280000129
 20
13953.17353399999
 30
0.0
 11
8407.5859240000082
 21
13975.798441999999
 31
0.0
  0
LINE
  5
416E
  8
0-5
  6
CONTINUOUS
 62
     6
 10
8617.904824000012
 20
16623.155203999991
 30
0.0
 11
8520.7094720000096
 21
16493.296805000002
 31
0.0
  0
LINE
  5
416F
  8
0-5
  6
CONTINUOUS
 62
     6
 10
8520.7094720000096
 20
16493.296805000002
 30
0.0
 11
8654.7693990000116
 21
16584.613977000001
 31
0.0
  0
LINE
  5
4170
  8
0-5
  6
CONTINUOUS
 62
     6
 10
8520.7094720000096
 20
16493.296805000002
 30
0.0
 11
8617.904824000012
 21
16623.155203999991
 31
0.0
  0
LINE
  5
4171
  8
0-5
  6
CONTINUOUS
 62
     6
 10
8617.904824000012
 20
16623.155203999991
 30
0.0
 11
8654.7693990000116
 21
16584.613977000001
 31
0.0
  0
LINE
  5
4172
  8
0-5
  6
CONTINUOUS
 62
     6
 10
8654.7693990000116
 20
16584.613977000001
 30
0.0
 11
8520.7094720000096
 21
16493.296805000002
 31
0.0
  0
LINE
  5
4173
  8
0-5
  6
CONTINUOUS
 62
     6
 10
8654.7693990000116
 20
16584.613977000001
 30
0.0
 11
8617.904824000012
 21
16623.155203999991
 31
0.0
  0
LINE
  5
4174
  8
0-5
  6
CONTINUOUS
 62
     6
 10
10450.011626
 20
15902.551054999991
 30
0.0
 11
10482.35201100001
 21
15743.600661999981
 31
0.0
  0
LINE
  5
4175
  8
0-5
  6
CONTINUOUS
 62
     6
 10
10482.35201100001
 20
15743.600661999981
 30
0.0
 11
10400.208918
 21
15883.469485
 31
0.0
  0
LINE
  5
4176
  8
0-5
  6
CONTINUOUS
 62
     6
 10
10482.35201100001
 20
15743.600661999981
 30
0.0
 11
10450.011626
 21
15902.551054999991
 31
0.0
  0
LINE
  5
4177
  8
0-5
  6
CONTINUOUS
 62
     6
 10
10450.011626
 20
15902.551054999991
 30
0.0
 11
10400.208918
 21
15883.469485
 31
0.0
  0
LINE
  5
4178
  8
0-5
  6
CONTINUOUS
 62
     6
 10
10400.208918
 20
15883.469485
 30
0.0
 11
10482.35201100001
 21
15743.600661999981
 31
0.0
  0
LINE
  5
4179
  8
0-5
  6
CONTINUOUS
 62
     6
 10
10400.208918
 20
15883.469485
 30
0.0
 11
10450.011626
 21
15902.551054999991
 31
0.0
  0
LINE
  5
417A
  8
0-5
  6
CONTINUOUS
 62
     6
 10
7308.6917350000003
 20
20332.669666999991
 30
0.0
 11
7268.2976790000102
 21
20175.571113000002
 31
0.0
  0
LINE
  5
417B
  8
0-5
  6
CONTINUOUS
 62
     6
 10
7268.2976790000102
 20
20175.571113000002
 30
0.0
 11
7357.4571760000108
 21
20311.077077999998
 31
0.0
  0
LINE
  5
417C
  8
0-5
  6
CONTINUOUS
 62
     6
 10
7268.2976790000102
 20
20175.571113000002
 30
0.0
 11
7308.6917350000003
 21
20332.669666999991
 31
0.0
  0
LINE
  5
417D
  8
0-5
  6
CONTINUOUS
 62
     6
 10
7308.6917350000003
 20
20332.669666999991
 30
0.0
 11
7357.4571760000108
 21
20311.077077999998
 31
0.0
  0
LINE
  5
417E
  8
0-5
  6
CONTINUOUS
 62
     6
 10
7357.4571760000108
 20
20311.077077999998
 30
0.0
 11
7268.2976790000102
 21
20175.571113000002
 31
0.0
  0
LINE
  5
417F
  8
0-5
  6
CONTINUOUS
 62
     6
 10
7357.4571760000108
 20
20311.077077999998
 30
0.0
 11
7308.6917350000003
 21
20332.669666999991
 31
0.0
  0
LINE
  5
4180
  8
0-5
  6
CONTINUOUS
 62
     6
 10
9331.4302150000094
 20
19903.21707000001
 30
0.0
 11
9318.9315340000121
 21
19741.492381
 31
0.0
  0
LINE
  5
4181
  8
0-5
  6
CONTINUOUS
 62
     6
 10
9318.9315340000121
 20
19741.492381
 30
0.0
 11
9383.207493000009
 21
19890.421461999991
 31
0.0
  0
LINE
  5
4182
  8
0-5
  6
CONTINUOUS
 62
     6
 10
9318.9315340000121
 20
19741.492381
 30
0.0
 11
9331.4302150000094
 21
19903.21707000001
 31
0.0
  0
LINE
  5
4183
  8
0-5
  6
CONTINUOUS
 62
     6
 10
9331.4302150000094
 20
19903.21707000001
 30
0.0
 11
9383.207493000009
 21
19890.421461999991
 31
0.0
  0
LINE
  5
4184
  8
0-5
  6
CONTINUOUS
 62
     6
 10
9383.207493000009
 20
19890.421461999991
 30
0.0
 11
9318.9315340000121
 21
19741.492381
 31
0.0
  0
LINE
  5
4185
  8
0-5
  6
CONTINUOUS
 62
     6
 10
9383.207493000009
 20
19890.421461999991
 30
0.0
 11
9331.4302150000094
 21
19903.21707000001
 31
0.0
  0
LINE
  5
4186
  8
2-0
  6
DASHED3
 62
     6
 10
7270.8522479999938
 20
19917.594313000001
 30
0.0
 11
12405.85224799999
 21
19917.594313000001
 31
0.0
  0
LINE
  5
4187
  8
0-6
  6
CONTINUOUS
 62
     6
 10
7228.3519840000108
 20
19757.201840999991
 30
0.0
 11
7228.3519840000108
 21
20002.594840999998
 31
0.0
  0
LINE
  5
4188
  8
0-6
  6
CONTINUOUS
 62
     6
 10
7270.8522479999938
 20
19735.66072
 30
0.0
 11
7270.8522479999938
 21
20002.594840999998
 31
0.0
  0
LINE
  5
4189
  8
2-0
  6
DASHED3
 62
     6
 10
7228.3519840000108
 20
20002.594840999998
 30
0.0
 11
12448.351522000001
 21
20002.594840999998
 31
0.0
  0
LINE
  5
418A
  8
2-0
  6
DASHED3
 62
     6
 10
12151.960132
 20
16993.594392999981
 30
0.0
 11
12405.85224799999
 21
16993.594392999981
 31
0.0
  0
LINE
  5
418B
  8
2-0
  6
DASHED3
 62
     6
 10
11996.102736000001
 20
17072.59499999999
 30
0.0
 11
12405.85224799999
 21
17072.59499999999
 31
0.0
  0
LINE
  5
418C
  8
2-0
  6
DASHED3
 62
     6
 10
12405.85224799999
 20
16159.595502
 30
0.0
 11
12405.85224799999
 21
20002.594840999998
 31
0.0
  0
LINE
  5
418D
  8
2-0
  6
DASHED3
 62
     6
 10
12448.351522000001
 20
16138.05537
 30
0.0
 11
12448.351522000001
 21
20002.594840999998
 31
0.0
  0
LINE
  5
418E
  8
2-0
  6
DASHED3
 62
     6
 10
9802.844647000009
 20
18452.594391999992
 30
0.0
 11
12405.85224799999
 21
18452.594391999992
 31
0.0
  0
LINE
  5
418F
  8
2-0
  6
DASHED3
 62
     6
 10
9625.2838100000063
 20
18542.595184000002
 30
0.0
 11
12405.85224799999
 21
18542.595184000002
 31
0.0
  0
LINE
  5
4190
  8
2-0
  6
DASHED3
 62
     6
 10
10596.352485999991
 20
17804.858513999989
 30
0.0
 11
10596.352485999991
 21
18107.593785000001
 31
0.0
  0
LINE
  5
4191
  8
2-0
  6
DASHED3
 62
     6
 10
10482.35201100001
 20
18083.784135999991
 30
0.0
 11
10482.35201100001
 21
18107.593785000001
 31
0.0
  0
LINE
  5
4192
  8
2-0
  6
DASHED3
 62
     6
 10
10539.35224799999
 20
17949.319398000011
 30
0.0
 11
10539.35224799999
 21
18452.594391999992
 31
0.0
  0
LINE
  5
4193
  8
2-0
  6
DASHED3
 62
     6
 10
10539.35224799999
 20
18542.595184000002
 30
0.0
 11
10539.35224799999
 21
18452.594391999992
 31
0.0
  0
LINE
  5
4194
  8
0-6
  6
CONTINUOUS
 62
     6
 10
10469.35251200001
 20
18497.596767999989
 30
0.0
 11
10331.96996300001
 21
18433.529649
 31
0.0
  0
LINE
  5
4195
  8
2-0
  6
DASHED3
 62
     6
 10
10469.35251200001
 20
19956.596767999999
 30
0.0
 11
8581.9241050000128
 21
19076.44144200001
 31
0.0
  0
LINE
  5
4196
  8
2-0
  6
DASHED3
 62
     6
 10
10469.35251200001
 20
18497.596767999989
 30
0.0
 11
7340.8529740000095
 21
19956.596767999999
 31
0.0
  0
LINE
  5
4197
  8
0-6
  6
CONTINUOUS
 62
     6
 10
10269.03413899999
 20
18404.181305999991
 30
0.0
 11
10075.974662000001
 21
18314.152801
 31
0.0
  0
LINE
  5
4198
  8
2-0
  6
DASHED3
 62
     6
 10
10609.351984000001
 20
18497.596767999989
 30
0.0
 11
12335.852511999999
 21
17038.596767999999
 31
0.0
  0
LINE
  5
4199
  8
2-0
  6
DASHED3
 62
     6
 10
10609.351984000001
 20
19956.596767999999
 30
0.0
 11
12335.852511999999
 21
18497.596767999989
 31
0.0
  0
LINE
  5
419A
  8
2-0
  6
DASHED3
 62
     6
 10
12235.27984339455
 20
16953.60662689339
 30
0.0
 11
12335.852511999999
 21
17038.596767999999
 31
0.0
  0
LINE
  5
419B
  8
2-0
  6
DASHED3
 62
     6
 10
10609.351984000001
 20
18497.596767999989
 30
0.0
 11
12335.852511999999
 21
19956.596767999999
 31
0.0
  0
LINE
  5
419C
  8
2-0
  6
DASHED3
 62
     6
 10
11154.720117824691
 20
17499.466657319968
 30
0.0
 11
12335.852511999999
 21
18497.596767999989
 31
0.0
  0
LINE
  5
419D
  8
0-7
  6
CONTINUOUS
 62
     6
 10
12405.85224799999
 20
21199.095052000001
 30
0.0
 11
12405.85224799999
 21
20249.094391999999
 31
0.0
  0
LINE
  5
419E
  8
0-7
  6
CONTINUOUS
 62
     6
 10
10539.35224799999
 20
21129.09531600001
 30
0.0
 11
10539.35224799999
 21
20249.094391999999
 31
0.0
  0
LINE
  5
419F
  8
2-0
  6
CENTER2
 62
     6
 10
5941.3506579999967
 20
19956.596767999999
 30
0.0
 11
7587.8513640000037
 21
19956.596767999999
 31
0.0
  0
LINE
  5
41A0
  8
0-7
  6
CONTINUOUS
 62
     6
 10
7270.8522479999938
 20
21129.09531600001
 30
0.0
 11
7270.8522479999938
 21
20249.094391999999
 31
0.0
  0
LINE
  5
41A1
  8
2-0
  6
CENTER2
 62
     6
 10
5941.3506579999967
 20
17038.596767999999
 30
0.0
 11
7587.8513640000037
 21
17038.596767999999
 31
0.0
  0
LINE
  5
41A2
  8
2-0
  6
CENTER2
 62
     6
 10
5941.3506579999967
 20
13770.09676799999
 30
0.0
 11
7587.8513640000037
 21
13770.09676799999
 31
0.0
  0
LINE
  5
41A3
  8
2-0
  6
CENTER2
 62
     6
 10
12078.35269699998
 20
17038.596767999999
 30
0.0
 11
12704.617028000001
 21
17038.596767999999
 31
0.0
  0
LINE
  5
41A4
  8
2-0
  6
CENTER2
 62
     6
 10
12078.35269699998
 20
13770.09676799999
 30
0.0
 11
12704.617028000001
 21
13770.09676799999
 31
0.0
  0
LINE
  5
41A5
  8
2-0
  6
CENTER2
 62
     6
 10
7052.0540800000026
 20
15579.59676799999
 30
0.0
 11
12624.65041599998
 21
15579.59676799999
 31
0.0
  0
LINE
  5
41A6
  8
2-0
  6
CENTER2
 62
     6
 10
7052.0540800000026
 20
18497.596767999989
 30
0.0
 11
12624.65041599998
 21
18497.596767999989
 31
0.0
  0
LINE
  5
41A7
  8
2-0
  6
DASHED3
 62
     6
 10
10482.35201100001
 20
18542.595184000002
 30
0.0
 11
10482.35201100001
 21
19917.594313000001
 31
0.0
  0
LINE
  5
41A8
  8
2-0
  6
DASHED3
 62
     6
 10
10539.35224799999
 20
18542.595184000002
 30
0.0
 11
10539.35224799999
 21
19917.594313000001
 31
0.0
  0
LINE
  5
41A9
  8
2-0
  6
DASHED3
 62
     6
 10
10596.352485999991
 20
18542.595184000002
 30
0.0
 11
10596.352485999991
 21
19917.594313000001
 31
0.0
  0
LINE
  5
41AA
  8
2-0
  6
DASHED3
 62
     6
 10
10482.35201100001
 20
18107.593785000001
 30
0.0
 11
10482.35201100001
 21
18452.594391999992
 31
0.0
  0
LINE
  5
41AB
  8
2-0
  6
DASHED3
 62
     6
 10
10596.352485999991
 20
18107.593785000001
 30
0.0
 11
10596.352485999991
 21
18452.594391999992
 31
0.0
  0
ARC
  5
41AC
  8
0-1
  6
CONTINUOUS
 62
     3
 10
7190.35211600001
 20
20174.09439200001
 30
0.0
 40
5.0
 50
90.0
 51
180.0
  0
ARC
  5
41AD
  8
0-1
  6
CONTINUOUS
 62
     3
 10
7253.8521029999974
 20
20174.09439200001
 30
0.0
 40
5.0
 50
0.0
 51
90.0
  0
ARC
  5
41AE
  8
0-1
  6
CONTINUOUS
 62
     3
 10
7253.8521029999974
 20
20144.094787999991
 30
0.0
 40
5.0
 50
269.9999850001808
 51
0.0
  0
ARC
  5
41AF
  8
0-1
  6
CONTINUOUS
 62
     3
 10
12422.853382999991
 20
20144.094787999991
 30
0.0
 40
5.0
 50
180.0
 51
269.9999850001808
  0
ARC
  5
41B0
  8
0-1
  6
CONTINUOUS
 62
     3
 10
12422.853382999991
 20
20174.09439200001
 30
0.0
 40
5.0
 50
90.0
 51
180.0
  0
ARC
  5
41B1
  8
0-1
  6
CONTINUOUS
 62
     3
 10
12486.35237999998
 20
20174.09439200001
 30
0.0
 40
5.0
 50
0.0
 51
90.0
  0
CIRCLE
  5
41B2
  8
0-4
  6
CONTINUOUS
 62
     4
 10
10539.35224799999
 20
21329.095976000001
 30
0.0
 40
199.9999949999999
  0
CIRCLE
  5
41B3
  8
0-4
  6
CONTINUOUS
 62
     4
 10
7270.8522479999938
 20
21329.095976000001
 30
0.0
 40
199.9999949999999
  0
CIRCLE
  5
41B4
  8
0-4
  6
CONTINUOUS
 62
     4
 10
5741.3509879999974
 20
19956.596767999999
 30
0.0
 40
199.9999949999999
  0
CIRCLE
  5
41B5
  8
0-4
  6
CONTINUOUS
 62
     4
 10
5741.3509879999974
 20
17038.596767999999
 30
0.0
 40
199.9999949999999
  0
CIRCLE
  5
41B6
  8
0-4
  6
CONTINUOUS
 62
     4
 10
5741.3509879999974
 20
13770.09676799999
 30
0.0
 40
199.9999949999999
  0
CIRCLE
  5
41B7
  8
0-4
  6
CONTINUOUS
 62
     4
 10
12405.85224799999
 20
21399.093733000002
 30
0.0
 40
199.9999949999999
  0
TEXT
  5
41B8
  8
0-4
  6
CONTINUOUS
 62
     7
 10
12350.956237999981
 20
21314.356480999999
 30
0.0
 40
160.0
  1
3
 72
     4
 11
12404.28957133332
 21
21394.356480999999
 31
0.0
  0
TEXT
  5
41B9
  8
0-4
  6
CONTINUOUS
 62
     7
 10
10491.08960599999
 20
21236.608908999999
 30
0.0
 40
160.0
  1
2
 72
     4
 11
10544.42293933333
 21
21316.608908999999
 31
0.0
  0
TEXT
  5
41BA
  8
0-4
  6
CONTINUOUS
 62
     7
 10
7224.4335270000056
 20
21238.574571000008
 30
0.0
 40
160.0
  1
1
 72
     4
 11
7251.1001936666726
 21
21318.574571000008
 31
0.0
  0
TEXT
  5
41BB
  8
0-4
  6
CONTINUOUS
 62
     7
 10
5688.479530999999
 20
19868.912013000001
 30
0.0
 40
160.0
  1
C
 72
     4
 11
5741.8128643333321
 21
19948.912013000001
 31
0.0
  0
TEXT
  5
41BC
  8
0-4
  6
CONTINUOUS
 62
     7
 10
5688.479530999999
 20
16950.912013000001
 30
0.0
 40
160.0
  1
B
 72
     4
 11
5741.8128643333321
 21
17030.912013000001
 31
0.0
  0
TEXT
  5
41BD
  8
0-4
  6
CONTINUOUS
 62
     7
 10
5688.479530999999
 20
13682.413002999991
 30
0.0
 40
160.0
  1
A
 72
     4
 11
5741.8128643333321
 21
13762.413002999991
 31
0.0
  0
TEXT
  5
41BE
  8
0-5
  6
CONTINUOUS
 62
     7
 10
9581.2207160000144
 20
20489.097163999992
 30
0.0
 40
160.0
  1
屋根
 72
     4
 11
9751.8873826666804
 21
20569.097163999992
 31
0.0
  0
TEXT
  5
41BF
  8
0-5
  6
CONTINUOUS
 62
     7
 10
8594.6197470000116
 20
14221.425025
 30
0.0
 40
160.0
  1
桁（前）
 72
     4
 11
8914.6197470000116
 21
14301.425025
 31
0.0
  0
TEXT
  5
41C0
  8
0-5
  6
CONTINUOUS
 62
     7
 10
9502.1458770000081
 20
12857.597097999989
 30
0.0
 40
160.0
  1
鼻隠し前
 72
     4
 11
9864.8125436666742
 21
12937.597097999989
 31
0.0
  0
TEXT
  5
41C1
  8
0-5
  6
CONTINUOUS
 62
     7
 10
5534.9535130000013
 20
12457.596767999999
 30
0.0
 40
160.0
  1
ケラバ 左
 72
     4
 11
5950.9535130000004
 21
12537.596767999999
 31
0.0
  0
TEXT
  5
41C2
  8
0-5
  6
CONTINUOUS
 62
     7
 10
7515.380199000012
 20
18916.294429000001
 30
0.0
 40
160.0
  1
上枠
 72
     4
 11
7686.0468656666781
 21
18996.294429000001
 31
0.0
  0
TEXT
  5
41C3
  8
0-5
  6
CONTINUOUS
 62
     7
 10
7812.5891570000131
 20
21210.534690000011
 30
0.0
 40
160.0
  1
鼻隠しコーナー後
 72
     4
 11
8559.255823666681
 21
21290.534690000011
 31
0.0
  0
TEXT
  5
41C4
  8
0-5
  6
CONTINUOUS
 62
     7
 10
9389.9873439999974
 20
16248.62336
 30
0.0
 40
160.0
  1
梁　梁補強
 72
     4
 11
9848.6540106666635
 21
16328.62336
 31
0.0
  0
TEXT
  5
41C5
  8
0-5
  6
CONTINUOUS
 62
     7
 10
9609.8376260000023
 20
16250.996802999991
 30
0.0
 40
160.0
  1
+
 72
     4
 11
9663.1709593333362
 21
16330.996802999991
 31
0.0
  0
TEXT
  5
41C6
  8
0-5
  6
CONTINUOUS
 62
     7
 10
8821.9694360000012
 20
16784.91354399997
 30
0.0
 40
160.0
  1
ブレース
 72
     4
 11
9184.6361026666673
 21
16870.246877333298
 31
0.0
  0
TEXT
  5
41C7
  8
0-6
  6
CONTINUOUS
 62
     7
 10
7785.1361541448186
 20
20489.09320399999
 30
0.0
 40
160.0
  1
桁後+桁後補強
 72
     4
 11
8419.8028208114847
 21
20569.09320399999
 31
0.0
  0
LINE
  5
41C8
  8
0-6
  6
CONTINUOUS
 62
     6
 10
9228.8515619999962
 20
20002.594840999998
 30
0.0
 11
9095.4576141187554
 21
20409.094919999989
 31
0.0
  0
LINE
  5
41C9
  8
0-6
  6
CONTINUOUS
 62
     6
 10
7745.7152605495348
 20
20409.094919999989
 30
0.0
 11
9095.4576141187554
 21
20409.094919999989
 31
0.0
  0
LINE
  5
41CA
  8
0-6
  6
CONTINUOUS
 62
     6
 10
9205.2441066327101
 20
20163.07627942492
 30
0.0
 11
9154.470462859761
 21
20146.74276324016
 31
0.0
  0
LINE
  5
41CB
  8
0-6
  6
CONTINUOUS
 62
     6
 10
9205.2441066327101
 20
20163.07627942492
 30
0.0
 11
9228.8515619999962
 21
20002.594840999998
 31
0.0
  0
LINE
  5
41CC
  8
0-6
  6
CONTINUOUS
 62
     6
 10
9154.470462859761
 20
20146.74276324016
 30
0.0
 11
9205.2441066327101
 21
20163.07627942492
 31
0.0
  0
LINE
  5
41CD
  8
0-6
  6
CONTINUOUS
 62
     6
 10
9228.8515619999962
 20
20002.594840999998
 30
0.0
 11
9154.470462859761
 21
20146.74276324016
 31
0.0
  0
LINE
  5
41CE
  8
0-6
  6
CONTINUOUS
 62
     6
 10
9228.8515619999962
 20
20002.594840999998
 30
0.0
 11
9205.2441066327101
 21
20163.07627942492
 31
0.0
  0
LINE
  5
41CF
  8
0-6
  6
CONTINUOUS
 62
     6
 10
9154.470462859761
 20
20146.74276324016
 30
0.0
 11
9228.8515619999962
 21
20002.594840999998
 31
0.0
  0
LINE
  5
41D0
  8
SUNPOU
  6
CONTINUOUS
 10
6341.3524719999987
 20
20179.092677000019
 30
0.0
 11
6341.3524719999987
 21
20976.059944778481
 31
0.0
  0
LINE
  5
41D1
  8
SUNPOU
  6
CONTINUOUS
 10
6341.3524719999987
 20
13577.60145299999
 30
0.0
 11
6341.3524719999987
 21
12902.175337189619
 31
0.0
  0
LINE
  5
41D2
  8
SUNPOU
  6
CONTINUOUS
 10
7041.9935200000036
 20
9648.9162489999999
 30
0.0
 11
6566.7044073597717
 21
9648.9162489999999
 31
0.0
  0
TEXT
  5
41D3
  8
0-5
  6
CONTINUOUS
 62
     7
 10
23398.821525999989
 20
4274.3849819999978
 30
0.0
 40
160.0
  1
3
 72
     4
 11
23452.154859333321
 21
4354.3849819999978
 31
0.0
  0
CIRCLE
  5
41D4
  8
0-5
  6
CONTINUOUS
 62
     4
 10
23445.749972999991
 20
4360.9149359999974
 30
0.0
 40
199.9999949999999
  0
LINE
  5
41D5
  8
0-5
  6
CONTINUOUS
 62
     4
 10
23445.749972999991
 20
4720.9146389999951
 30
0.0
 11
23445.749972999991
 21
4560.9146059999975
 31
0.0
  0
LINE
  5
41D6
  8
SUNPOU
  6
CONTINUOUS
 10
23685.753931999989
 20
5200.9147379999977
 30
0.0
 11
24043.70893872108
 21
5200.9147379999977
 31
0.0
  0
LINE
  5
41D7
  8
SUNPOU
  6
CONTINUOUS
 10
17985.74997299998
 20
5200.9147379999977
 30
0.0
 11
17627.794966278871
 21
5200.9147379999977
 31
0.0
  0
CIRCLE
  5
41D8
  8
0-4
  6
CONTINUOUS
 62
     4
 10
22469.999972499991
 20
6886.9706789999918
 30
0.0
 40
18.487504999999981
  0
CIRCLE
  5
41D9
  8
0-4
  6
CONTINUOUS
 62
     4
 10
19902.499972999991
 20
6886.9706789999982
 30
0.0
 40
18.487504999999981
  0
TEXT
  5
41DA
  8
0-5
  6
CONTINUOUS
 62
     7
 10
18221.317566999969
 20
4274.3849819999978
 30
0.0
 40
160.0
  1
1
 72
     4
 11
18247.984233666641
 21
4354.3849819999978
 31
0.0
  0
TEXT
  5
41DB
  8
0-5
  6
CONTINUOUS
 62
     7
 10
21489.821525999989
 20
4274.3849819999978
 30
0.0
 40
160.0
  1
2
 72
     4
 11
21543.154859333321
 21
4354.3849819999978
 31
0.0
  0
TEXT
  5
41DC
  8
0-5
  6
CONTINUOUS
 62
     7
 10
17650.07403399999
 20
7130.2749847419964
 30
0.0
 40
160.0
  1
(2131.5)
 50
90.0
 72
     4
 11
17570.07403399999
 21
7583.6083180753294
 31
0.0
  0
CIRCLE
  5
41DD
  8
0-5
  6
CONTINUOUS
 62
     4
 10
18268.249972999991
 20
4360.9149359999974
 30
0.0
 40
199.9999949999999
  0
CIRCLE
  5
41DE
  8
0-5
  6
CONTINUOUS
 62
     4
 10
21536.749972999991
 20
4360.9149359999974
 30
0.0
 40
199.9999949999999
  0
LINE
  5
41EF
  8
2-0
  6
CENTER2
 62
     6
 10
18268.249972999991
 20
6138.2623149999972
 30
0.0
 11
18268.249972999991
 21
7175.4043519999977
 31
0.0
  0
LINE
  5
41F0
  8
2-0
  6
CENTER2
 62
     6
 10
21536.749972999991
 20
6138.2623149999972
 30
0.0
 11
21536.749972999991
 21
7175.4043519999977
 31
0.0
  0
LINE
  5
41F1
  8
2-0
  6
CENTER2
 62
     6
 10
23403.249972999991
 20
6138.2623149999972
 30
0.0
 11
23403.249972999991
 21
7175.4043519999977
 31
0.0
  0
LINE
  5
41F2
  8
0-5
  6
CONTINUOUS
 62
     4
 10
18268.249972999991
 20
4720.9146389999951
 30
0.0
 11
18268.249972999991
 21
4560.9146059999975
 31
0.0
  0
LINE
  5
41F3
  8
0-5
  6
CONTINUOUS
 62
     4
 10
21536.749972999991
 20
4720.9146389999951
 30
0.0
 11
21536.749972999991
 21
4560.9146059999975
 31
0.0
  0
LINE
  5
41F4
  8
0-2
  6
CONTINUOUS
 62
     4
 10
19538.80698249998
 20
7148.1404419999963
 30
0.0
 11
19638.804343499982
 21
7148.1404419999963
 31
0.0
  0
LINE
  5
41F5
  8
0-2
  6
CONTINUOUS
 62
     4
 10
20266.190983500001
 20
7148.1404419999963
 30
0.0
 11
20166.191643499991
 21
7148.1404419999963
 31
0.0
  0
LINE
  5
41F6
  8
0-2
  6
CONTINUOUS
 62
     4
 10
22106.305992499991
 20
7148.1404419999963
 30
0.0
 11
22206.30533349996
 21
7148.1404419999963
 31
0.0
  0
LINE
  5
41F7
  8
0-2
  6
CONTINUOUS
 62
     4
 10
22833.691972500001
 20
7148.1404419999963
 30
0.0
 11
22733.692632499991
 21
7148.1404419999963
 31
0.0
  0
LINE
  5
41FD
  8
0-1
  6
CONTINUOUS
 62
     3
 10
18355.750632999981
 20
8340.3742959999981
 30
0.0
 11
21449.251292999968
 21
8340.3742959999981
 31
0.0
  0
LINE
  5
41FE
  8
0-1
  6
CONTINUOUS
 62
     3
 10
18355.750632999981
 20
6985.9154309999976
 30
0.0
 11
21449.251292999968
 21
6985.9154309999976
 31
0.0
  0
LINE
  5
41FF
  8
0-1
  6
CONTINUOUS
 62
     3
 10
18355.750632999981
 20
7050.9144080000005
 30
0.0
 11
21449.251292999968
 21
7050.9144080000005
 31
0.0
  0
LINE
  5
4200
  8
0-1
  6
CONTINUOUS
 62
     3
 10
18355.750632999981
 20
7115.9148699999969
 30
0.0
 11
21449.251292999968
 21
7115.9148699999969
 31
0.0
  0
LINE
  5
4201
  8
0-1
  6
CONTINUOUS
 62
     3
 10
18355.750632999981
 20
7180.9148370000003
 30
0.0
 11
21449.251292999968
 21
7180.9148370000003
 31
0.0
  0
LINE
  5
4202
  8
0-1
  6
CONTINUOUS
 62
     3
 10
18355.750632999981
 20
7245.9148039999982
 30
0.0
 11
21449.251292999968
 21
7245.9148039999982
 31
0.0
  0
LINE
  5
4203
  8
0-1
  6
CONTINUOUS
 62
     3
 10
18355.750632999981
 20
7310.9147709999997
 30
0.0
 11
21449.251292999968
 21
7310.9147709999997
 31
0.0
  0
LINE
  5
4204
  8
0-1
  6
CONTINUOUS
 62
     3
 10
18355.750632999981
 20
7375.9152329999988
 30
0.0
 11
21449.251292999968
 21
7375.9152329999988
 31
0.0
  0
LINE
  5
4205
  8
0-1
  6
CONTINUOUS
 62
     3
 10
18355.750632999981
 20
7440.9142099999972
 30
0.0
 11
21449.251292999968
 21
7440.9142099999972
 31
0.0
  0
LINE
  5
4206
  8
0-1
  6
CONTINUOUS
 62
     3
 10
18355.750632999981
 20
7505.9146719999972
 30
0.0
 11
21449.251292999968
 21
7505.9146719999972
 31
0.0
  0
LINE
  5
4207
  8
0-1
  6
CONTINUOUS
 62
     3
 10
18355.750632999981
 20
7570.914638999996
 30
0.0
 11
21449.251292999968
 21
7570.914638999996
 31
0.0
  0
LINE
  5
4208
  8
0-1
  6
CONTINUOUS
 62
     3
 10
18355.750632999981
 20
7635.9151009999941
 30
0.0
 11
21449.251292999968
 21
7635.9151009999941
 31
0.0
  0
LINE
  5
4209
  8
0-1
  6
CONTINUOUS
 62
     3
 10
18355.750632999981
 20
7700.914077999998
 30
0.0
 11
21449.251292999968
 21
7700.914077999998
 31
0.0
  0
LINE
  5
420A
  8
0-1
  6
CONTINUOUS
 62
     3
 10
18355.750632999981
 20
7765.9145400000007
 30
0.0
 11
21449.251292999968
 21
7765.9145400000007
 31
0.0
  0
LINE
  5
420B
  8
0-1
  6
CONTINUOUS
 62
     3
 10
18355.750632999981
 20
7830.9145069999986
 30
0.0
 11
21449.251292999968
 21
7830.9145069999986
 31
0.0
  0
LINE
  5
420C
  8
0-1
  6
CONTINUOUS
 62
     3
 10
18355.750632999981
 20
7895.9144740000002
 30
0.0
 11
21449.251292999968
 21
7895.9144740000002
 31
0.0
  0
LINE
  5
420D
  8
0-1
  6
CONTINUOUS
 62
     3
 10
18355.750632999981
 20
7960.914936000001
 30
0.0
 11
21449.251292999968
 21
7960.914936000001
 31
0.0
  0
LINE
  5
420E
  8
0-1
  6
CONTINUOUS
 62
     3
 10
18355.750632999981
 20
8025.914902999998
 30
0.0
 11
21449.251292999968
 21
8025.914902999998
 31
0.0
  0
LINE
  5
420F
  8
0-1
  6
CONTINUOUS
 62
     3
 10
18355.750632999981
 20
8090.915364999998
 30
0.0
 11
21449.251292999968
 21
8090.915364999998
 31
0.0
  0
LINE
  5
4210
  8
0-1
  6
CONTINUOUS
 62
     3
 10
18355.750632999981
 20
8155.9143419999928
 30
0.0
 11
21449.251292999968
 21
8155.9143419999928
 31
0.0
  0
LINE
  5
4211
  8
0-1
  6
CONTINUOUS
 62
     3
 10
18355.750632999981
 20
8220.9148040000018
 30
0.0
 11
21449.251292999968
 21
8220.9148040000018
 31
0.0
  0
LINE
  5
4212
  8
0-1
  6
CONTINUOUS
 62
     3
 10
18355.750632999981
 20
8285.9147709999997
 30
0.0
 11
21449.251292999968
 21
8285.9147709999997
 31
0.0
  0
LINE
  5
4213
  8
0-1
  6
CONTINUOUS
 62
     3
 10
18355.750632999981
 20
6465.9142099999972
 30
0.0
 11
21449.251292999968
 21
6465.9142099999972
 31
0.0
  0
LINE
  5
4214
  8
0-1
  6
CONTINUOUS
 62
     3
 10
18355.750632999981
 20
6530.9151669999983
 30
0.0
 11
21449.251292999968
 21
6530.9151669999983
 31
0.0
  0
LINE
  5
4215
  8
0-1
  6
CONTINUOUS
 62
     3
 10
18355.750632999981
 20
6595.9141439999976
 30
0.0
 11
21449.251292999968
 21
6595.9141439999976
 31
0.0
  0
LINE
  5
4216
  8
0-1
  6
CONTINUOUS
 62
     3
 10
18355.750632999981
 20
6660.9151009999969
 30
0.0
 11
21449.251292999968
 21
6660.9151009999969
 31
0.0
  0
LINE
  5
4217
  8
0-1
  6
CONTINUOUS
 62
     3
 10
18355.750632999981
 20
6725.9145729999973
 30
0.0
 11
21449.251292999968
 21
6725.9145729999973
 31
0.0
  0
LINE
  5
4218
  8
0-1
  6
CONTINUOUS
 62
     3
 10
18355.750632999981
 20
6790.9145399999989
 30
0.0
 11
21449.251292999968
 21
6790.9145399999989
 31
0.0
  0
LINE
  5
4219
  8
0-1
  6
CONTINUOUS
 62
     3
 10
18355.750632999981
 20
6855.9145070000004
 30
0.0
 11
21449.251292999968
 21
6855.9145070000004
 31
0.0
  0
LINE
  5
421A
  8
0-1
  6
CONTINUOUS
 62
     3
 10
18355.750632999981
 20
6920.9139789999981
 30
0.0
 11
21449.251292999968
 21
6920.9139789999981
 31
0.0
  0
LINE
  5
421C
  8
0-1
  6
CONTINUOUS
 62
     3
 10
18310.748257999981
 20
8408.9146319999945
 30
0.0
 11
21494.249708999982
 21
8408.9146319999945
 31
0.0
  0
LINE
  5
421D
  8
0-1
  6
CONTINUOUS
 62
     3
 10
18225.747729999981
 20
8719.4139989999967
 30
0.0
 11
18225.747729999981
 21
6500.9145729999973
 31
0.0
  0
LINE
  5
421E
  8
0-1
  6
CONTINUOUS
 62
     3
 10
18245.75076499995
 20
8849.4149219999981
 30
0.0
 11
18245.75076499995
 21
6500.9145729999973
 31
0.0
  0
LINE
  5
421F
  8
0-1
  6
CONTINUOUS
 62
     3
 10
18310.748257999981
 20
8719.4139989999967
 30
0.0
 11
18310.748257999981
 21
6500.9145729999973
 31
0.0
  0
LINE
  5
4220
  8
0-1
  6
CONTINUOUS
 62
     3
 10
18355.750632999981
 20
8408.9146319999945
 30
0.0
 11
18355.750632999981
 21
6400.9147380000004
 31
0.0
  0
LINE
  5
4221
  8
0-1
  6
CONTINUOUS
 62
     3
 10
18218.24931399999
 20
6500.9145729999973
 30
0.0
 11
18318.250632999989
 21
6500.9145729999973
 31
0.0
  0
LINE
  5
4222
  8
0-1
  6
CONTINUOUS
 62
     3
 10
18218.24931399999
 20
6400.9147380000004
 30
0.0
 11
18218.24931399999
 21
6500.9145729999973
 31
0.0
  0
LINE
  5
4223
  8
0-1
  6
CONTINUOUS
 62
     3
 10
18318.250632999989
 20
6500.9145729999973
 30
0.0
 11
18318.250632999989
 21
6400.9147380000004
 31
0.0
  0
LINE
  5
422E
  8
0-1
  6
CONTINUOUS
 62
     3
 10
21449.251292999968
 20
8408.9146319999945
 30
0.0
 11
21449.251292999968
 21
6400.9147380000004
 31
0.0
  0
LINE
  5
422F
  8
0-1
  6
CONTINUOUS
 62
     3
 10
21494.249708999982
 20
8719.4139989999967
 30
0.0
 11
21494.249708999982
 21
6400.9147380000004
 31
0.0
  0
LINE
  5
4239
  8
0-1
  6
CONTINUOUS
 62
     3
 10
18218.24931399999
 20
6400.9147380000004
 30
0.0
 11
23453.250632999981
 21
6400.9147380000004
 31
0.0
  0
LINE
  5
423A
  8
0-1
  6
CONTINUOUS
 62
     3
 10
21579.248256999988
 20
8408.9146319999945
 30
0.0
 11
23360.751687999971
 21
8408.9146319999945
 31
0.0
  0
LINE
  5
423C
  8
0-1
  6
CONTINUOUS
 62
     3
 10
21624.24865300001
 20
6920.9139789999981
 30
0.0
 11
23315.75129199995
 21
6920.9139789999981
 31
0.0
  0
LINE
  5
423D
  8
0-1
  6
CONTINUOUS
 62
     3
 10
21624.24865300001
 20
6855.9145070000004
 30
0.0
 11
23315.75129199995
 21
6855.9145070000004
 31
0.0
  0
LINE
  5
423E
  8
0-1
  6
CONTINUOUS
 62
     3
 10
21624.24865300001
 20
6790.9145399999989
 30
0.0
 11
23315.75129199995
 21
6790.9145399999989
 31
0.0
  0
LINE
  5
423F
  8
0-1
  6
CONTINUOUS
 62
     3
 10
21624.24865300001
 20
6725.9145729999973
 30
0.0
 11
23315.75129199995
 21
6725.9145729999973
 31
0.0
  0
LINE
  5
4240
  8
0-1
  6
CONTINUOUS
 62
     3
 10
21624.24865300001
 20
6660.9151009999969
 30
0.0
 11
23315.75129199995
 21
6660.9151009999969
 31
0.0
  0
LINE
  5
4241
  8
0-1
  6
CONTINUOUS
 62
     3
 10
21624.24865300001
 20
6595.9141439999976
 30
0.0
 11
23315.75129199995
 21
6595.9141439999976
 31
0.0
  0
LINE
  5
4242
  8
0-1
  6
CONTINUOUS
 62
     3
 10
21624.24865300001
 20
6530.9151669999983
 30
0.0
 11
23315.75129199995
 21
6530.9151669999983
 31
0.0
  0
LINE
  5
4243
  8
0-1
  6
CONTINUOUS
 62
     3
 10
21624.24865300001
 20
6465.9142099999972
 30
0.0
 11
23315.75129199995
 21
6465.9142099999972
 31
0.0
  0
LINE
  5
4244
  8
0-1
  6
CONTINUOUS
 62
     3
 10
21624.24865300001
 20
8285.9147709999997
 30
0.0
 11
23315.75129199995
 21
8285.9147709999997
 31
0.0
  0
LINE
  5
4245
  8
0-1
  6
CONTINUOUS
 62
     3
 10
21624.24865300001
 20
8220.9148040000018
 30
0.0
 11
23315.75129199995
 21
8220.9148040000018
 31
0.0
  0
LINE
  5
4246
  8
0-1
  6
CONTINUOUS
 62
     3
 10
21624.24865300001
 20
8155.9143419999928
 30
0.0
 11
23315.75129199995
 21
8155.9143419999928
 31
0.0
  0
LINE
  5
4247
  8
0-1
  6
CONTINUOUS
 62
     3
 10
21624.24865300001
 20
8090.915364999998
 30
0.0
 11
23315.75129199995
 21
8090.915364999998
 31
0.0
  0
LINE
  5
4248
  8
0-1
  6
CONTINUOUS
 62
     3
 10
21624.24865300001
 20
8025.914902999998
 30
0.0
 11
23315.75129199995
 21
8025.914902999998
 31
0.0
  0
LINE
  5
4249
  8
0-1
  6
CONTINUOUS
 62
     3
 10
21624.24865300001
 20
7960.914936000001
 30
0.0
 11
23315.75129199995
 21
7960.914936000001
 31
0.0
  0
LINE
  5
424A
  8
0-1
  6
CONTINUOUS
 62
     3
 10
21624.24865300001
 20
7895.9144740000002
 30
0.0
 11
23315.75129199995
 21
7895.9144740000002
 31
0.0
  0
LINE
  5
424B
  8
0-1
  6
CONTINUOUS
 62
     3
 10
21624.24865300001
 20
7830.9145069999986
 30
0.0
 11
23315.75129199995
 21
7830.9145069999986
 31
0.0
  0
LINE
  5
424C
  8
0-1
  6
CONTINUOUS
 62
     3
 10
21624.24865300001
 20
7765.9145400000007
 30
0.0
 11
23315.75129199995
 21
7765.9145400000007
 31
0.0
  0
LINE
  5
424D
  8
0-1
  6
CONTINUOUS
 62
     3
 10
21624.24865300001
 20
7700.914077999998
 30
0.0
 11
23315.75129199995
 21
7700.914077999998
 31
0.0
  0
LINE
  5
424E
  8
0-1
  6
CONTINUOUS
 62
     3
 10
21624.24865300001
 20
7635.9151009999941
 30
0.0
 11
23315.75129199995
 21
7635.9151009999941
 31
0.0
  0
LINE
  5
424F
  8
0-1
  6
CONTINUOUS
 62
     3
 10
21624.24865300001
 20
7570.914638999996
 30
0.0
 11
23315.75129199995
 21
7570.914638999996
 31
0.0
  0
LINE
  5
4250
  8
0-1
  6
CONTINUOUS
 62
     3
 10
21624.24865300001
 20
7505.9146719999972
 30
0.0
 11
23315.75129199995
 21
7505.9146719999972
 31
0.0
  0
LINE
  5
4251
  8
0-1
  6
CONTINUOUS
 62
     3
 10
21624.24865300001
 20
7440.9142099999972
 30
0.0
 11
23315.75129199995
 21
7440.9142099999972
 31
0.0
  0
LINE
  5
4252
  8
0-1
  6
CONTINUOUS
 62
     3
 10
21624.24865300001
 20
7375.9152329999988
 30
0.0
 11
23315.75129199995
 21
7375.9152329999988
 31
0.0
  0
LINE
  5
4253
  8
0-1
  6
CONTINUOUS
 62
     3
 10
21624.24865300001
 20
7310.9147709999997
 30
0.0
 11
23315.75129199995
 21
7310.9147709999997
 31
0.0
  0
LINE
  5
4254
  8
0-1
  6
CONTINUOUS
 62
     3
 10
21624.24865300001
 20
7245.9148039999982
 30
0.0
 11
23315.75129199995
 21
7245.9148039999982
 31
0.0
  0
LINE
  5
4255
  8
0-1
  6
CONTINUOUS
 62
     3
 10
21624.24865300001
 20
7180.9148370000003
 30
0.0
 11
23315.75129199995
 21
7180.9148370000003
 31
0.0
  0
LINE
  5
4256
  8
0-1
  6
CONTINUOUS
 62
     3
 10
21624.24865300001
 20
7115.9148699999969
 30
0.0
 11
23315.75129199995
 21
7115.9148699999969
 31
0.0
  0
LINE
  5
4257
  8
0-1
  6
CONTINUOUS
 62
     3
 10
21624.24865300001
 20
7050.9144080000005
 30
0.0
 11
23315.75129199995
 21
7050.9144080000005
 31
0.0
  0
LINE
  5
4258
  8
0-1
  6
CONTINUOUS
 62
     3
 10
21624.24865300001
 20
6985.9154309999976
 30
0.0
 11
23315.75129199995
 21
6985.9154309999976
 31
0.0
  0
LINE
  5
4259
  8
0-1
  6
CONTINUOUS
 62
     3
 10
21624.24865300001
 20
8340.3742959999981
 30
0.0
 11
23315.75129199995
 21
8340.3742959999981
 31
0.0
  0
LINE
  5
425C
  8
0-1
  6
CONTINUOUS
 62
     3
 10
21624.24865300001
 20
8408.9146319999945
 30
0.0
 11
21624.24865300001
 21
6400.9147380000004
 31
0.0
  0
LINE
  5
425D
  8
0-1
  6
CONTINUOUS
 62
     3
 10
21579.248256999988
 20
8719.4139989999967
 30
0.0
 11
21579.248256999988
 21
6400.9147380000004
 31
0.0
  0
LINE
  5
4266
  8
0-1
  6
CONTINUOUS
 62
     3
 10
23360.751687999971
 20
8719.4139989999967
 30
0.0
 11
23360.751687999971
 21
6500.9145729999973
 31
0.0
  0
LINE
  5
4267
  8
0-1
  6
CONTINUOUS
 62
     3
 10
23315.75129199995
 20
8408.9146319999945
 30
0.0
 11
23315.75129199995
 21
6400.9147380000004
 31
0.0
  0
LINE
  5
4268
  8
0-1
  6
CONTINUOUS
 62
     3
 10
23445.750236999989
 20
8719.4139989999967
 30
0.0
 11
23445.750236999989
 21
6500.9145729999973
 31
0.0
  0
LINE
  5
4269
  8
0-1
  6
CONTINUOUS
 62
     3
 10
23425.751159999989
 20
8849.4149219999981
 30
0.0
 11
23425.751159999989
 21
6500.9145729999973
 31
0.0
  0
LINE
  5
426A
  8
0-1
  6
CONTINUOUS
 62
     3
 10
23453.250632999981
 20
6400.9147380000004
 30
0.0
 11
23453.250632999981
 21
6500.9145729999973
 31
0.0
  0
LINE
  5
426B
  8
0-1
  6
CONTINUOUS
 62
     3
 10
23353.25129199999
 20
6500.9145729999973
 30
0.0
 11
23353.25129199999
 21
6400.9147380000004
 31
0.0
  0
LINE
  5
426C
  8
0-1
  6
CONTINUOUS
 62
     3
 10
23453.250632999981
 20
6500.9145729999973
 30
0.0
 11
23353.25129199999
 21
6500.9145729999973
 31
0.0
  0
LINE
  5
4277
  8
0-1
  6
CONTINUOUS
 62
     3
 10
13193.495685
 20
6550.9147380000004
 30
0.0
 11
13193.495685
 21
8411.9606170000006
 31
0.0
  0
LINE
  5
4278
  8
0-1
  6
CONTINUOUS
 62
     3
 10
13178.49588299999
 20
6550.9147380000004
 30
0.0
 11
13178.49588299999
 21
8411.9606170000006
 31
0.0
  0
TEXT
  5
4279
  8
0-5
  6
CONTINUOUS
 62
     7
 10
7217.537360000013
 20
4277.7036450000014
 30
0.0
 40
160.0
  1
C
 72
     4
 11
7270.870693333346
 21
4357.7036450000014
 31
0.0
  0
TEXT
  5
427A
  8
0-5
  6
CONTINUOUS
 62
     7
 10
10135.537359999989
 20
4277.7036450000014
 30
0.0
 40
160.0
  1
B
 72
     4
 11
10188.870693333331
 21
4357.7036450000014
 31
0.0
  0
TEXT
  5
427B
  8
0-5
  6
CONTINUOUS
 62
     7
 10
13404.037359999989
 20
4277.7036450000014
 30
0.0
 40
160.0
  1
A
 72
     4
 11
13457.370693333331
 21
4357.7036450000014
 31
0.0
  0
TEXT
  5
427C
  8
0-5
  6
CONTINUOUS
 62
     7
 10
14751.986578999989
 20
6788.7608240000036
 30
0.0
 40
160.0
  1
布基礎天端
 72
     4
 11
15210.653245666659
 21
6868.7608240000027
 31
0.0
  0
CIRCLE
  5
427D
  8
0-5
  6
CONTINUOUS
 62
     4
 10
7264.4935200000027
 20
4360.9144410000008
 30
0.0
 40
199.9999949999999
  0
CIRCLE
  5
427E
  8
0-5
  6
CONTINUOUS
 62
     4
 10
13450.993519999991
 20
4360.9144410000008
 30
0.0
 40
199.9999949999999
  0
CIRCLE
  5
427F
  8
0-5
  6
CONTINUOUS
 62
     4
 10
10182.493519999991
 20
4360.9144410000008
 30
0.0
 40
199.9999949999999
  0
ARC
  5
4280
  8
0-1
  6
CONTINUOUS
 62
     3
 10
7047.4521750000004
 20
8570.8961630000049
 30
0.0
 40
3.0
 50
181.719985999968
 51
271.71998600002598
  0
ARC
  5
4281
  8
0-1
  6
CONTINUOUS
 62
     3
 10
13578.432946999979
 20
8783.4063910000004
 30
0.0
 40
20.0
 50
271.71998600002598
 51
91.719986000025997
  0
ARC
  5
4282
  8
0-1
  6
CONTINUOUS
 62
     3
 10
7046.4317330000049
 20
8604.8815279999981
 30
0.0
 40
3.0
 50
91.719986000025997
 51
181.719985999968
  0
ARC
  5
4283
  8
0-1
  6
CONTINUOUS
 62
     3
 10
7049.1159600000028
 20
8565.4440739999955
 30
0.0
 40
2.5
 50
271.71998600002598
 51
91.719986000025997
  0
ARC
  5
4284
  8
0-1
  6
CONTINUOUS
 62
     3
 10
7047.7659280000098
 20
8610.4241799999982
 30
0.0
 40
2.5
 50
271.71998600002598
 51
91.719986000025997
  0
ARC
  5
4285
  8
0-1
  6
CONTINUOUS
 62
     3
 10
7047.781765000007
 20
8559.901421999999
 30
0.0
 40
3.0
 50
91.719986000025997
 51
181.719985999968
  0
ARC
  5
4286
  8
0-1
  6
CONTINUOUS
 62
     3
 10
7050.7431240000069
 20
8527.9762420000006
 30
0.0
 40
5.0
 50
181.719985999968
 51
271.71998600002598
  0
ARC
  5
4287
  8
0-1
  6
CONTINUOUS
 62
     3
 10
13573.43565299998
 20
8783.2559480000018
 30
0.0
 40
69.999999000000003
 50
293.50677499978701
 51
69.933196999905391
  0
ARC
  5
4288
  8
0-1
  6
CONTINUOUS
 62
     3
 10
7047.1394110000028
 20
8647.921706000001
 30
0.0
 40
5.0
 50
91.719986000025997
 51
181.719985999968
  0
ARC
  5
4289
  8
0-1
  6
CONTINUOUS
 62
     3
 10
7046.1021430000046
 20
8615.8767640000005
 30
0.0
 40
3.0
 50
181.719985999968
 51
271.71998600002598
  0
ARC
  5
428A
  8
0-1
  6
CONTINUOUS
 62
     3
 10
13578.432946999979
 20
8783.4063910000004
 30
0.0
 40
24.999998999999999
 50
271.71998600002598
 51
91.719986000025997
  0
LINE
  5
428B
  8
2-0
  6
CENTER2
 62
     6
 10
7264.4935200000027
 20
6138.2623149999999
 30
0.0
 11
7264.4935200000027
 21
7195.4049130000003
 31
0.0
  0
LINE
  5
428C
  8
2-0
  6
CENTER2
 62
     6
 10
10182.493519999991
 20
6138.2623149999999
 30
0.0
 11
10182.493519999991
 21
7195.4049130000003
 31
0.0
  0
LINE
  5
428D
  8
2-0
  6
CENTER2
 62
     6
 10
13450.993519999991
 20
6138.2623149999999
 30
0.0
 11
13450.993519999991
 21
7195.4049130000003
 31
0.0
  0
LINE
  5
428E
  8
0-5
  6
CONTINUOUS
 62
     4
 10
7264.4935200000027
 20
4720.9151339999989
 30
0.0
 11
7264.4935200000027
 21
4560.9155959999989
 31
0.0
  0
LINE
  5
428F
  8
0-5
  6
CONTINUOUS
 62
     4
 10
10182.493519999991
 20
4720.9151339999989
 30
0.0
 11
10182.493519999991
 21
4560.9155959999989
 31
0.0
  0
LINE
  5
4290
  8
0-5
  6
CONTINUOUS
 62
     4
 10
13450.993519999991
 20
4720.9151339999989
 30
0.0
 11
13450.993519999991
 21
4560.9155959999989
 31
0.0
  0
LINE
  5
4291
  8
0-5
  6
CONTINUOUS
 62
     4
 10
13585.99081500001
 20
6500.914573
 30
0.0
 11
15303.45670099999
 21
6500.914573
 31
0.0
  0
LINE
  5
4292
  8
0-5
  6
CONTINUOUS
 62
     4
 10
15331.078904
 20
6708.7615499999974
 30
0.0
 11
15091.080091
 21
6708.7615499999974
 31
0.0
  0
LINE
  5
4293
  8
0-5
  6
CONTINUOUS
 62
     4
 10
15091.080091
 20
6708.7615499999974
 30
0.0
 11
15211.078508000001
 21
6500.914573
 31
0.0
  0
LINE
  5
4294
  8
0-5
  6
CONTINUOUS
 62
     4
 10
15211.078508000001
 20
6500.914573
 30
0.0
 11
15331.078904
 21
6708.7615499999974
 31
0.0
  0
LINE
  5
4295
  8
0-1
  6
CONTINUOUS
 62
     3
 10
7059.4836890000006
 20
8653.2946139999967
 30
0.0
 11
7063.3863100000017
 21
8523.3535709999996
 31
0.0
  0
LINE
  5
4296
  8
0-1
  6
CONTINUOUS
 62
     3
 10
13568.38986000001
 20
8718.0743599999969
 30
0.0
 11
13564.488229000001
 21
8848.0158980000051
 31
0.0
  0
LINE
  5
4297
  8
0-1
  6
CONTINUOUS
 62
     3
 10
10182.493519999991
 20
8616.7160799999983
 30
0.0
 11
10178.59089900001
 21
8746.6576180000029
 31
0.0
  0
LINE
  5
4298
  8
0-1
  6
CONTINUOUS
 62
     3
 10
13579.033731
 20
8763.4142429999974
 30
0.0
 11
7047.5432330000049
 21
8567.8981830000012
 31
0.0
  0
LINE
  5
4299
  8
0-1
  6
CONTINUOUS
 62
     3
 10
7046.3416650000072
 20
8607.8800040000006
 30
0.0
 11
13577.834143
 21
8803.397549000003
 31
0.0
  0
LINE
  5
429A
  8
0-1
  6
CONTINUOUS
 62
     3
 10
7044.4532040000058
 20
8570.8065899999983
 30
0.0
 11
7043.4327620000049
 21
8604.790965000002
 31
0.0
  0
LINE
  5
429B
  8
0-1
  6
CONTINUOUS
 62
     3
 10
7045.7438500000071
 20
8527.8257979999998
 30
0.0
 11
7044.7847730000067
 21
8559.8118489999979
 31
0.0
  0
LINE
  5
429C
  8
0-1
  6
CONTINUOUS
 62
     3
 10
13601.356761999999
 20
8719.0651089999974
 30
0.0
 11
7050.8915880000059
 21
8522.9784519999976
 31
0.0
  0
LINE
  5
429D
  8
0-1
  6
CONTINUOUS
 62
     3
 10
7046.9909470000057
 20
8652.9194949999983
 30
0.0
 11
13597.452162
 21
8849.0066469999983
 31
0.0
  0
LINE
  5
429E
  8
0-1
  6
CONTINUOUS
 62
     3
 10
7043.10218300001
 20
8615.7866959999974
 30
0.0
 11
7042.1421160000018
 21
8647.7722520000007
 31
0.0
  0
LINE
  5
429F
  8
0-1
  6
CONTINUOUS
 62
     3
 10
13577.682709999999
 20
8808.3948440000022
 30
0.0
 11
7046.1922110000032
 21
8612.8777939999964
 31
0.0
  0
LINE
  5
42A0
  8
0-1
  6
CONTINUOUS
 62
     3
 10
7047.691696000009
 20
8562.8998979999978
 30
0.0
 11
13579.183185
 21
8758.4159590000017
 31
0.0
  0
LINE
  5
42A1
  8
0-1
  6
CONTINUOUS
 62
     3
 10
7241.9933220000094
 20
8411.9606170000006
 30
0.0
 11
13473.492729
 21
8411.9606170000006
 31
0.0
  0
LINE
  5
42A2
  8
0-1
  6
CONTINUOUS
 62
     3
 10
6531.9924650000012
 20
6400.9147380000004
 30
0.0
 11
13505.993519999991
 21
6400.9147380000004
 31
0.0
  0
LINE
  5
42A3
  8
0-1
  6
CONTINUOUS
 62
     3
 10
7336.9923990000098
 20
6550.9147380000004
 30
0.0
 11
10109.99365200001
 21
6550.9147380000004
 31
0.0
  0
LINE
  5
42A4
  8
0-1
  6
CONTINUOUS
 62
     3
 10
7214.4935200000027
 20
6500.914573
 30
0.0
 11
13505.993519999991
 21
6500.914573
 31
0.0
  0
LINE
  5
42A5
  8
0-1
  6
CONTINUOUS
 62
     3
 10
7336.9923990000098
 20
8411.9606170000006
 30
0.0
 11
7336.9923990000098
 21
6500.914573
 31
0.0
  0
LINE
  5
42A6
  8
0-1
  6
CONTINUOUS
 62
     3
 10
7221.9935200000018
 20
8528.1003486838054
 30
0.0
 11
7221.9935200000018
 21
6500.914573
 31
0.0
  0
LINE
  5
42A7
  8
0-1
  6
CONTINUOUS
 62
     3
 10
7241.9933220000094
 20
8528.7170760000008
 30
0.0
 11
7241.9933220000094
 21
6500.914573
 31
0.0
  0
LINE
  5
42A8
  8
0-1
  6
CONTINUOUS
 62
     3
 10
7214.4935200000027
 20
6400.9147380000004
 30
0.0
 11
7214.4935200000027
 21
6500.914573
 31
0.0
  0
LINE
  5
42A9
  8
0-1
  6
CONTINUOUS
 62
     3
 10
10254.992398
 20
6550.9147380000004
 30
0.0
 11
13378.493651999979
 21
6550.9147380000004
 31
0.0
  0
LINE
  5
42AA
  8
0-1
  6
CONTINUOUS
 62
     3
 10
10254.992398
 20
8411.9606170000006
 30
0.0
 11
10254.992398
 21
6500.914573
 31
0.0
  0
LINE
  5
42AB
  8
0-1
  6
CONTINUOUS
 62
     3
 10
10109.99365200001
 20
8411.9606170000006
 30
0.0
 11
10109.99365200001
 21
6500.914573
 31
0.0
  0
LINE
  5
42AC
  8
0-1
  6
CONTINUOUS
 62
     3
 10
10182.493519999991
 20
8616.7160799999983
 30
0.0
 11
10182.493519999991
 21
8411.9606170000006
 31
0.0
  0
LINE
  5
42AD
  8
0-1
  6
CONTINUOUS
 62
     3
 10
13378.493651999979
 20
8411.9606170000006
 30
0.0
 11
13378.493651999979
 21
6500.914573
 31
0.0
  0
LINE
  5
42AE
  8
0-1
  6
CONTINUOUS
 62
     3
 10
13493.493519999991
 20
8715.8246370000015
 30
0.0
 11
13493.493519999991
 21
6500.914573
 31
0.0
  0
LINE
  5
42AF
  8
0-1
  6
CONTINUOUS
 62
     3
 10
13473.492729
 20
8715.2436479999978
 30
0.0
 11
13473.492729
 21
6500.914573
 31
0.0
  0
LINE
  5
42B0
  8
0-1
  6
CONTINUOUS
 62
     3
 10
13505.993519999991
 20
6500.914573
 30
0.0
 11
13505.993519999991
 21
6400.9147380000004
 31
0.0
  0
LINE
  5
42B1
  8
0-1
  6
CONTINUOUS
 62
     3
 10
13017.993546000011
 20
8411.9606170000006
 30
0.0
 11
13017.993546000011
 21
6550.9147380000004
 31
0.0
  0
LINE
  5
42B2
  8
0-1
  6
CONTINUOUS
 62
     3
 10
13054.994708
 20
8411.9606170000006
 30
0.0
 11
13054.994708
 21
6550.9147380000004
 31
0.0
  0
LINE
  5
42B3
  8
0-1
  6
CONTINUOUS
 62
     3
 10
11617.99387600001
 20
8411.9606170000006
 30
0.0
 11
11617.99387600001
 21
6550.9147380000004
 31
0.0
  0
LINE
  5
42B4
  8
0-1
  6
CONTINUOUS
 62
     3
 10
11654.994048
 20
8411.9606170000006
 30
0.0
 11
11654.994048
 21
6550.9147380000004
 31
0.0
  0
LINE
  5
42B5
  8
0-1
  6
CONTINUOUS
 62
     3
 10
12317.993216000001
 20
8411.9606170000006
 30
0.0
 11
12317.993216000001
 21
6550.9147380000004
 31
0.0
  0
LINE
  5
42B6
  8
0-1
  6
CONTINUOUS
 62
     3
 10
12354.992398
 20
8411.9606170000006
 30
0.0
 11
12354.992398
 21
6550.9147380000004
 31
0.0
  0
LINE
  5
42B7
  8
0-1
  6
CONTINUOUS
 62
     3
 10
10917.993546000011
 20
8411.9606170000006
 30
0.0
 11
10917.993546000011
 21
6550.9147380000004
 31
0.0
  0
LINE
  5
42B8
  8
0-1
  6
CONTINUOUS
 62
     3
 10
10954.994708
 20
8411.9606170000006
 30
0.0
 11
10954.994708
 21
6550.9147380000004
 31
0.0
  0
LINE
  5
42B9
  8
0-1
  6
CONTINUOUS
 62
     3
 10
11296.49333500001
 20
6550.9147380000004
 30
0.0
 11
11296.49333500001
 21
8411.9606170000006
 31
0.0
  0
LINE
  5
42BA
  8
0-1
  6
CONTINUOUS
 62
     3
 10
11276.494258999999
 20
6550.9147380000004
 30
0.0
 11
11276.494258999999
 21
8411.9606170000006
 31
0.0
  0
LINE
  5
42BB
  8
0-1
  6
CONTINUOUS
 62
     3
 10
11346.49399500001
 20
6550.9147380000004
 30
0.0
 11
11346.49399500001
 21
8411.9606170000006
 31
0.0
  0
LINE
  5
42BC
  8
0-1
  6
CONTINUOUS
 62
     3
 10
11226.492609000001
 20
6550.9147380000004
 30
0.0
 11
11226.492609000001
 21
8411.9606170000006
 31
0.0
  0
LINE
  5
42BD
  8
0-1
  6
CONTINUOUS
 62
     3
 10
11093.493705000001
 20
6550.9147380000004
 30
0.0
 11
11093.493705000001
 21
8411.9606170000006
 31
0.0
  0
LINE
  5
42BE
  8
0-1
  6
CONTINUOUS
 62
     3
 10
11078.49489200001
 20
6550.9147380000004
 30
0.0
 11
11078.49489200001
 21
8411.9606170000006
 31
0.0
  0
LINE
  5
42BF
  8
0-1
  6
CONTINUOUS
 62
     3
 10
11479.49290000001
 20
6550.9147380000004
 30
0.0
 11
11479.49290000001
 21
8411.9606170000006
 31
0.0
  0
LINE
  5
42C0
  8
0-1
  6
CONTINUOUS
 62
     3
 10
11494.494681
 20
6550.9147380000004
 30
0.0
 11
11494.494681
 21
8411.9606170000006
 31
0.0
  0
LINE
  5
42C1
  8
0-1
  6
CONTINUOUS
 62
     3
 10
12194.49402100001
 20
6550.9147380000004
 30
0.0
 11
12194.49402100001
 21
8411.9606170000006
 31
0.0
  0
LINE
  5
42C2
  8
0-1
  6
CONTINUOUS
 62
     3
 10
12179.49224000001
 20
6550.9147380000004
 30
0.0
 11
12179.49224000001
 21
8411.9606170000006
 31
0.0
  0
LINE
  5
42C3
  8
0-1
  6
CONTINUOUS
 62
     3
 10
11778.494232999999
 20
6550.9147380000004
 30
0.0
 11
11778.494232999999
 21
8411.9606170000006
 31
0.0
  0
LINE
  5
42C4
  8
0-1
  6
CONTINUOUS
 62
     3
 10
11793.494035000011
 20
6550.9147380000004
 30
0.0
 11
11793.494035000011
 21
8411.9606170000006
 31
0.0
  0
LINE
  5
42C5
  8
0-1
  6
CONTINUOUS
 62
     3
 10
11926.49491900001
 20
6550.9147380000004
 30
0.0
 11
11926.49491900001
 21
8411.9606170000006
 31
0.0
  0
LINE
  5
42C6
  8
0-1
  6
CONTINUOUS
 62
     3
 10
12046.49333500001
 20
6550.9147380000004
 30
0.0
 11
12046.49333500001
 21
8411.9606170000006
 31
0.0
  0
LINE
  5
42C7
  8
0-1
  6
CONTINUOUS
 62
     3
 10
11976.49359900001
 20
6550.9147380000004
 30
0.0
 11
11976.49359900001
 21
8411.9606170000006
 31
0.0
  0
LINE
  5
42C8
  8
0-1
  6
CONTINUOUS
 62
     3
 10
11996.494655
 20
6550.9147380000004
 30
0.0
 11
11996.494655
 21
8411.9606170000006
 31
0.0
  0
LINE
  5
42C9
  8
0-1
  6
CONTINUOUS
 62
     3
 10
12696.49399500001
 20
6550.9147380000004
 30
0.0
 11
12696.49399500001
 21
8411.9606170000006
 31
0.0
  0
LINE
  5
42CA
  8
0-1
  6
CONTINUOUS
 62
     3
 10
12676.494919000001
 20
6550.9147380000004
 30
0.0
 11
12676.494919000001
 21
8411.9606170000006
 31
0.0
  0
LINE
  5
42CB
  8
0-1
  6
CONTINUOUS
 62
     3
 10
12746.493665000011
 20
6550.9147380000004
 30
0.0
 11
12746.493665000011
 21
8411.9606170000006
 31
0.0
  0
LINE
  5
42CC
  8
0-1
  6
CONTINUOUS
 62
     3
 10
12626.49425900001
 20
6550.9147380000004
 30
0.0
 11
12626.49425900001
 21
8411.9606170000006
 31
0.0
  0
LINE
  5
42CD
  8
0-1
  6
CONTINUOUS
 62
     3
 10
12493.493375
 20
6550.9147380000004
 30
0.0
 11
12493.493375
 21
8411.9606170000006
 31
0.0
  0
LINE
  5
42CE
  8
0-1
  6
CONTINUOUS
 62
     3
 10
12478.493573
 20
6550.9147380000004
 30
0.0
 11
12478.493573
 21
8411.9606170000006
 31
0.0
  0
LINE
  5
42CF
  8
0-1
  6
CONTINUOUS
 62
     3
 10
12879.49454900001
 20
6550.9147380000004
 30
0.0
 11
12879.49454900001
 21
8411.9606170000006
 31
0.0
  0
LINE
  5
42D0
  8
0-1
  6
CONTINUOUS
 62
     3
 10
12894.49336200001
 20
6550.9147380000004
 30
0.0
 11
12894.49336200001
 21
8411.9606170000006
 31
0.0
  0
LINE
  5
42D1
  8
0-1
  6
CONTINUOUS
 62
     3
 10
10794.49336200001
 20
6550.9147380000004
 30
0.0
 11
10794.49336200001
 21
8411.9606170000006
 31
0.0
  0
LINE
  5
42D2
  8
0-1
  6
CONTINUOUS
 62
     3
 10
10779.49454900001
 20
6550.9147380000004
 30
0.0
 11
10779.49454900001
 21
8411.9606170000006
 31
0.0
  0
LINE
  5
42D3
  8
0-1
  6
CONTINUOUS
 62
     3
 10
10378.492582999999
 20
6550.9147380000004
 30
0.0
 11
10378.492582999999
 21
8411.9606170000006
 31
0.0
  0
LINE
  5
42D4
  8
0-1
  6
CONTINUOUS
 62
     3
 10
10393.494365
 20
6550.9147380000004
 30
0.0
 11
10393.494365
 21
8411.9606170000006
 31
0.0
  0
LINE
  5
42D5
  8
0-1
  6
CONTINUOUS
 62
     3
 10
10526.494258999999
 20
6550.9147380000004
 30
0.0
 11
10526.494258999999
 21
8411.9606170000006
 31
0.0
  0
LINE
  5
42D6
  8
0-1
  6
CONTINUOUS
 62
     3
 10
10646.494655
 20
6550.9147380000004
 30
0.0
 11
10646.494655
 21
8411.9606170000006
 31
0.0
  0
LINE
  5
42D7
  8
0-1
  6
CONTINUOUS
 62
     3
 10
10576.49491900001
 20
6550.9147380000004
 30
0.0
 11
10576.49491900001
 21
8411.9606170000006
 31
0.0
  0
LINE
  5
42D8
  8
0-1
  6
CONTINUOUS
 62
     3
 10
10596.493995000001
 20
6550.9147380000004
 30
0.0
 11
10596.493995000001
 21
8411.9606170000006
 31
0.0
  0
LINE
  5
42D9
  8
0-1
  6
CONTINUOUS
 62
     3
 10
9768.4950240000107
 20
6550.9147380000004
 30
0.0
 11
9768.4950240000107
 21
8411.9606170000006
 31
0.0
  0
LINE
  5
42DA
  8
0-1
  6
CONTINUOUS
 62
     3
 10
9788.4941010000039
 20
6550.9147380000004
 30
0.0
 11
9788.4941010000039
 21
8411.9606170000006
 31
0.0
  0
LINE
  5
42DB
  8
0-1
  6
CONTINUOUS
 62
     3
 10
9838.4937710000031
 20
6550.9147380000004
 30
0.0
 11
9838.4937710000031
 21
8411.9606170000006
 31
0.0
  0
LINE
  5
42DC
  8
0-1
  6
CONTINUOUS
 62
     3
 10
9971.4946550000077
 20
6550.9147380000004
 30
0.0
 11
9971.4946550000077
 21
8411.9606170000006
 31
0.0
  0
LINE
  5
42DD
  8
0-1
  6
CONTINUOUS
 62
     3
 10
9986.4934670000093
 20
6550.9147380000004
 30
0.0
 11
9986.4934670000093
 21
8411.9606170000006
 31
0.0
  0
LINE
  5
42DE
  8
0-1
  6
CONTINUOUS
 62
     3
 10
9718.4943650000114
 20
6550.9147380000004
 30
0.0
 11
9718.4943650000114
 21
8411.9606170000006
 31
0.0
  0
LINE
  5
42DF
  8
0-1
  6
CONTINUOUS
 62
     3
 10
9585.4934800000119
 20
6550.9147380000004
 30
0.0
 11
9585.4934800000119
 21
8411.9606170000006
 31
0.0
  0
LINE
  5
42E0
  8
0-1
  6
CONTINUOUS
 62
     3
 10
9570.4926890000079
 20
6550.9147380000004
 30
0.0
 11
9570.4926890000079
 21
8411.9606170000006
 31
0.0
  0
LINE
  5
42E1
  8
0-1
  6
CONTINUOUS
 62
     3
 10
8368.4943650000132
 20
6550.9147380000004
 30
0.0
 11
8368.4943650000132
 21
8411.9606170000006
 31
0.0
  0
LINE
  5
42E2
  8
0-1
  6
CONTINUOUS
 62
     3
 10
8388.4954200000138
 20
6550.9147380000004
 30
0.0
 11
8388.4954200000138
 21
8411.9606170000006
 31
0.0
  0
LINE
  5
42E3
  8
0-1
  6
CONTINUOUS
 62
     3
 10
8318.4927150000167
 20
6550.9147380000004
 30
0.0
 11
8318.4927150000167
 21
8411.9606170000006
 31
0.0
  0
LINE
  5
42E4
  8
0-1
  6
CONTINUOUS
 62
     3
 10
8438.4941010000057
 20
6550.9147380000004
 30
0.0
 11
8438.4941010000057
 21
8411.9606170000006
 31
0.0
  0
LINE
  5
42E5
  8
0-1
  6
CONTINUOUS
 62
     3
 10
8571.493005000013
 20
6550.9147380000004
 30
0.0
 11
8571.493005000013
 21
8411.9606170000006
 31
0.0
  0
LINE
  5
42E6
  8
0-1
  6
CONTINUOUS
 62
     3
 10
8586.4937970000083
 20
6550.9147380000004
 30
0.0
 11
8586.4937970000083
 21
8411.9606170000006
 31
0.0
  0
LINE
  5
42E7
  8
0-1
  6
CONTINUOUS
 62
     3
 10
8185.4938099999999
 20
6550.9147380000004
 30
0.0
 11
8185.4938099999999
 21
8411.9606170000006
 31
0.0
  0
LINE
  5
42E8
  8
0-1
  6
CONTINUOUS
 62
     3
 10
8170.4930180000101
 20
6550.9147380000004
 30
0.0
 11
8170.4930180000101
 21
8411.9606170000006
 31
0.0
  0
LINE
  5
42E9
  8
0-1
  6
CONTINUOUS
 62
     3
 10
8870.4943380000113
 20
6550.9147380000004
 30
0.0
 11
8870.4943380000113
 21
8411.9606170000006
 31
0.0
  0
LINE
  5
42EA
  8
0-1
  6
CONTINUOUS
 62
     3
 10
8885.4931500000093
 20
6550.9147380000004
 30
0.0
 11
8885.4931500000093
 21
8411.9606170000006
 31
0.0
  0
LINE
  5
42EB
  8
0-1
  6
CONTINUOUS
 62
     3
 10
9286.4931370000122
 20
6550.9147380000004
 30
0.0
 11
9286.4931370000122
 21
8411.9606170000006
 31
0.0
  0
LINE
  5
42EC
  8
0-1
  6
CONTINUOUS
 62
     3
 10
9271.4933349999992
 20
6550.9147380000004
 30
0.0
 11
9271.4933349999992
 21
8411.9606170000006
 31
0.0
  0
LINE
  5
42ED
  8
0-1
  6
CONTINUOUS
 62
     3
 10
9138.4934410000114
 20
6550.9147380000004
 30
0.0
 11
9138.4934410000114
 21
8411.9606170000006
 31
0.0
  0
LINE
  5
42EE
  8
0-1
  6
CONTINUOUS
 62
     3
 10
9018.4940350000106
 20
6550.9147380000004
 30
0.0
 11
9018.4940350000106
 21
8411.9606170000006
 31
0.0
  0
LINE
  5
42EF
  8
0-1
  6
CONTINUOUS
 62
     3
 10
9088.4937710000086
 20
6550.9147380000004
 30
0.0
 11
9088.4937710000086
 21
8411.9606170000006
 31
0.0
  0
LINE
  5
42F0
  8
0-1
  6
CONTINUOUS
 62
     3
 10
9068.4927150000003
 20
6550.9147380000004
 30
0.0
 11
9068.4927150000003
 21
8411.9606170000006
 31
0.0
  0
LINE
  5
42F1
  8
0-1
  6
CONTINUOUS
 62
     3
 10
9409.9943120000025
 20
8411.9606170000006
 30
0.0
 11
9409.9943120000025
 21
6550.9147380000004
 31
0.0
  0
LINE
  5
42F2
  8
0-1
  6
CONTINUOUS
 62
     3
 10
9446.9925039999998
 20
8411.9606170000006
 30
0.0
 11
9446.9925039999998
 21
6550.9147380000004
 31
0.0
  0
LINE
  5
42F3
  8
0-1
  6
CONTINUOUS
 62
     3
 10
8009.9936519999956
 20
8411.9606170000006
 30
0.0
 11
8009.9936519999956
 21
6550.9147380000004
 31
0.0
  0
LINE
  5
42F4
  8
0-1
  6
CONTINUOUS
 62
     3
 10
8046.9938230000134
 20
8411.9606170000006
 30
0.0
 11
8046.9938230000134
 21
6550.9147380000004
 31
0.0
  0
LINE
  5
42F5
  8
0-1
  6
CONTINUOUS
 62
     3
 10
8709.9949720000168
 20
8411.9606170000006
 30
0.0
 11
8709.9949720000168
 21
6550.9147380000004
 31
0.0
  0
LINE
  5
42F6
  8
0-1
  6
CONTINUOUS
 62
     3
 10
8746.9931640000159
 20
8411.9606170000006
 30
0.0
 11
8746.9931640000159
 21
6550.9147380000004
 31
0.0
  0
LINE
  5
42F7
  8
0-1
  6
CONTINUOUS
 62
     3
 10
7470.4936780000144
 20
6550.9147380000004
 30
0.0
 11
7470.4936780000144
 21
8411.9606170000006
 31
0.0
  0
LINE
  5
42F8
  8
0-1
  6
CONTINUOUS
 62
     3
 10
7485.4934800000128
 20
6550.9147380000004
 30
0.0
 11
7485.4934800000128
 21
8411.9606170000006
 31
0.0
  0
LINE
  5
42F9
  8
0-1
  6
CONTINUOUS
 62
     3
 10
7886.4934670000084
 20
6550.9147380000004
 30
0.0
 11
7886.4934670000084
 21
8411.9606170000006
 31
0.0
  0
LINE
  5
42FA
  8
0-1
  6
CONTINUOUS
 62
     3
 10
7871.4936650000018
 20
6550.9147380000004
 30
0.0
 11
7871.4936650000018
 21
8411.9606170000006
 31
0.0
  0
LINE
  5
42FB
  8
0-1
  6
CONTINUOUS
 62
     3
 10
7738.4927810000081
 20
6550.9147380000004
 30
0.0
 11
7738.4927810000081
 21
8411.9606170000006
 31
0.0
  0
LINE
  5
42FC
  8
0-1
  6
CONTINUOUS
 62
     3
 10
7618.4933750000209
 20
6550.9147380000004
 30
0.0
 11
7618.4933750000209
 21
8411.9606170000006
 31
0.0
  0
LINE
  5
42FD
  8
0-1
  6
CONTINUOUS
 62
     3
 10
7688.494101000002
 20
6550.9147380000004
 30
0.0
 11
7688.494101000002
 21
8411.9606170000006
 31
0.0
  0
LINE
  5
42FE
  8
0-1
  6
CONTINUOUS
 62
     3
 10
7668.4930450000111
 20
6550.9147380000004
 30
0.0
 11
7668.4930450000111
 21
8411.9606170000006
 31
0.0
  0
TEXT
  5
42FF
  8
0-4
  6
CONTINUOUS
 62
     7
 10
15771.39806800001
 20
6688.7609890000012
 30
0.0
 40
160.0
  1
G.L
 72
     4
 11
15931.39806800001
 21
6768.7609890000003
 31
0.0
  0
LINE
  5
4300
  8
0-4
  6
CONTINUOUS
 62
     4
 10
16011.39885999999
 20
6608.7607250000001
 30
0.0
 11
15771.39806800001
 21
6608.7607250000001
 31
0.0
  0
LINE
  5
4301
  8
0-4
  6
CONTINUOUS
 62
     4
 10
15891.40044299998
 20
6400.9147380000004
 30
0.0
 11
16011.39885999999
 21
6608.7607250000001
 31
0.0
  0
LINE
  5
4302
  8
0-4
  6
CONTINUOUS
 62
     4
 10
13585.99081500001
 20
6400.9147380000004
 30
0.0
 11
18138.249049999991
 21
6400.9147380000004
 31
0.0
  0
LINE
  5
4303
  8
0-4
  6
CONTINUOUS
 62
     4
 10
15771.39806800001
 20
6608.7607250000001
 30
0.0
 11
15891.40044299998
 21
6400.9147380000004
 31
0.0
  0
TEXT
  5
4304
  8
2-0
  6
CONTINUOUS
 62
     7
 10
23351.614231
 20
21303.570085000021
 30
0.0
 40
160.0
  1
3
 72
     4
 11
23404.947564333332
 21
21383.570085000021
 31
0.0
  0
CIRCLE
  5
4305
  8
2-0
  6
CONTINUOUS
 62
     4
 10
23403.246014
 20
21399.095714000021
 30
0.0
 40
200.00001
  0
LINE
  5
4306
  8
2-0
  6
CONTINUOUS
 62
     3
 10
23445.744297999991
 20
14849.997179
 30
0.0
 11
23445.744297999991
 21
14206.193884
 31
0.0
  0
LINE
  5
4307
  8
2-0
  6
CONTINUOUS
 62
     3
 10
23445.744297999991
 20
15551.232246999991
 30
0.0
 11
23445.744297999991
 21
14907.193389
 31
0.0
  0
LINE
  5
4308
  8
2-0
  6
CONTINUOUS
 62
     3
 10
21455.318517
 20
19999.091095000022
 30
0.0
 11
20807.344119000001
 21
19999.091095000022
 31
0.0
  0
LINE
  5
4309
  8
2-0
  6
CONTINUOUS
 62
     3
 10
21619.551255999992
 20
19999.091095000022
 30
0.0
 11
21915.652858000001
 21
19999.091095000022
 31
0.0
  0
LINE
  5
430A
  8
2-0
  6
CONTINUOUS
 62
     3
 10
21928.650377000009
 20
19987.091253000021
 30
0.0
 11
21928.650377000009
 21
19994.096769000011
 31
0.0
  0
LINE
  5
430B
  8
2-0
  6
CONTINUOUS
 62
     3
 10
21928.650377000009
 20
19994.096769000011
 30
0.0
 11
21933.648660999999
 21
19994.096769000011
 31
0.0
  0
LINE
  5
430C
  8
2-0
  6
CONTINUOUS
 62
     3
 10
21933.648660999999
 20
19994.096769000011
 30
0.0
 11
21933.648660999999
 21
19969.087532000009
 31
0.0
  0
LINE
  5
430D
  8
2-0
  6
CONTINUOUS
 62
     3
 10
21933.648660999999
 20
19969.087532000009
 30
0.0
 11
21915.652858000001
 21
19969.087532000009
 31
0.0
  0
LINE
  5
430E
  8
2-0
  6
CONTINUOUS
 62
     3
 10
21915.652858000001
 20
19969.087532000009
 30
0.0
 11
21915.652858000001
 21
19999.091095000022
 31
0.0
  0
LINE
  5
430F
  8
2-0
  6
CONTINUOUS
 62
     3
 10
21931.742385000009
 20
19969.087532000009
 30
0.0
 11
21925.748402999991
 21
19969.087532000009
 31
0.0
  0
LINE
  5
4310
  8
2-0
  6
CONTINUOUS
 62
     3
 10
21925.748402999991
 20
19969.087532000009
 30
0.0
 11
21925.748402999991
 21
19999.091095000022
 31
0.0
  0
LINE
  5
4311
  8
2-0
  6
CONTINUOUS
 62
     3
 10
21925.748402999991
 20
19999.091095000022
 30
0.0
 11
21962.743624999999
 21
19999.091095000022
 31
0.0
  0
LINE
  5
4312
  8
2-0
  6
CONTINUOUS
 62
     3
 10
21962.743624999999
 20
19969.087532000009
 30
0.0
 11
21962.743624999999
 21
19999.091095000022
 31
0.0
  0
LINE
  5
4313
  8
2-0
  6
CONTINUOUS
 62
     3
 10
21956.739744999999
 20
19969.087532000009
 30
0.0
 11
21962.743624999999
 21
19969.087532000009
 31
0.0
  0
LINE
  5
4314
  8
2-0
  6
CONTINUOUS
 62
     3
 10
21972.839169999999
 20
19969.087532000009
 30
0.0
 11
21972.839169999999
 21
19999.091095000022
 31
0.0
  0
LINE
  5
4315
  8
2-0
  6
CONTINUOUS
 62
     3
 10
21954.837427999999
 20
19969.087532000009
 30
0.0
 11
21972.839169999999
 21
19969.087532000009
 31
0.0
  0
LINE
  5
4316
  8
2-0
  6
CONTINUOUS
 62
     3
 10
21954.837427999999
 20
19994.096769000011
 30
0.0
 11
21954.837427999999
 21
19969.087532000009
 31
0.0
  0
LINE
  5
4317
  8
2-0
  6
CONTINUOUS
 62
     3
 10
21959.837692000001
 20
19994.096769000011
 30
0.0
 11
21954.837427999999
 21
19994.096769000011
 31
0.0
  0
LINE
  5
4318
  8
2-0
  6
CONTINUOUS
 62
     3
 10
21959.837692000001
 20
19987.091253000021
 30
0.0
 11
21959.837692000001
 21
19994.096769000011
 31
0.0
  0
LINE
  5
4319
  8
2-0
  6
CONTINUOUS
 62
     3
 10
23321.129644000001
 20
19999.091095000022
 30
0.0
 11
22673.844119000001
 21
19999.091095000022
 31
0.0
  0
LINE
  5
431A
  8
2-0
  6
CONTINUOUS
 62
     3
 10
21973.045040000001
 20
19999.091095000022
 30
0.0
 11
22616.65087849999
 21
19999.091095000022
 31
0.0
  0
LINE
  5
431B
  8
2-0
  6
CONTINUOUS
 62
     3
 10
22629.6464175
 20
19987.091253000021
 30
0.0
 11
22629.6464175
 21
19994.096769000011
 31
0.0
  0
LINE
  5
431C
  8
2-0
  6
CONTINUOUS
 62
     3
 10
22629.6464175
 20
19994.096769000011
 30
0.0
 11
22634.646681499999
 21
19994.096769000011
 31
0.0
  0
LINE
  5
431D
  8
2-0
  6
CONTINUOUS
 62
     3
 10
22634.646681499999
 20
19994.096769000011
 30
0.0
 11
22634.646681499999
 21
19969.087532000009
 31
0.0
  0
LINE
  5
431E
  8
2-0
  6
CONTINUOUS
 62
     3
 10
22634.646681499999
 20
19969.087532000009
 30
0.0
 11
22616.65087849999
 21
19969.087532000009
 31
0.0
  0
LINE
  5
431F
  8
2-0
  6
CONTINUOUS
 62
     3
 10
22616.65087849999
 20
19969.087532000009
 30
0.0
 11
22616.65087849999
 21
19999.091095000022
 31
0.0
  0
LINE
  5
4320
  8
2-0
  6
CONTINUOUS
 62
     3
 10
22632.740405499979
 20
19969.087532000009
 30
0.0
 11
22626.74642349999
 21
19969.087532000009
 31
0.0
  0
LINE
  5
4321
  8
2-0
  6
CONTINUOUS
 62
     3
 10
22626.74642349999
 20
19969.087532000009
 30
0.0
 11
22626.74642349999
 21
19999.091095000022
 31
0.0
  0
LINE
  5
4322
  8
2-0
  6
CONTINUOUS
 62
     3
 10
22626.74642349999
 20
19999.091095000022
 30
0.0
 11
22663.7456045
 21
19999.091095000022
 31
0.0
  0
LINE
  5
4323
  8
2-0
  6
CONTINUOUS
 62
     3
 10
22663.7456045
 20
19969.087532000009
 30
0.0
 11
22663.7456045
 21
19999.091095000022
 31
0.0
  0
LINE
  5
4324
  8
2-0
  6
CONTINUOUS
 62
     3
 10
22657.74370449999
 20
19969.087532000009
 30
0.0
 11
22663.7456045
 21
19969.087532000009
 31
0.0
  0
LINE
  5
4325
  8
2-0
  6
CONTINUOUS
 62
     3
 10
22673.8411495
 20
19969.087532000009
 30
0.0
 11
22673.8411495
 21
19999.091095000022
 31
0.0
  0
LINE
  5
4326
  8
2-0
  6
CONTINUOUS
 62
     3
 10
22655.835448500002
 20
19969.087532000009
 30
0.0
 11
22673.8411495
 21
19969.087532000009
 31
0.0
  0
LINE
  5
4327
  8
2-0
  6
CONTINUOUS
 62
     3
 10
22655.835448500002
 20
19994.096769000011
 30
0.0
 11
22655.835448500002
 21
19969.087532000009
 31
0.0
  0
LINE
  5
4328
  8
2-0
  6
CONTINUOUS
 62
     3
 10
22660.835712500011
 20
19994.096769000011
 30
0.0
 11
22655.835448500002
 21
19994.096769000011
 31
0.0
  0
LINE
  5
4329
  8
2-0
  6
CONTINUOUS
 62
     3
 10
22660.835712500011
 20
19987.091253000021
 30
0.0
 11
22660.835712500011
 21
19994.096769000011
 31
0.0
  0
LINE
  5
432A
  8
2-0
  6
CONTINUOUS
 62
     3
 10
22626.745433000011
 20
19969.087532000009
 30
0.0
 11
22626.745433000011
 21
19999.091095000022
 31
0.0
  0
LINE
  5
432B
  8
2-0
  6
CONTINUOUS
 62
     3
 10
22632.745353999991
 20
19969.087532000009
 30
0.0
 11
22626.745433000011
 21
19969.087532000009
 31
0.0
  0
LINE
  5
432C
  8
2-0
  6
CONTINUOUS
 62
     3
 10
22616.651868000001
 20
19969.087532000009
 30
0.0
 11
22616.651868000001
 21
19999.091095000022
 31
0.0
  0
LINE
  5
432D
  8
2-0
  6
CONTINUOUS
 62
     3
 10
22634.651631000001
 20
19969.087532000009
 30
0.0
 11
22616.651868000001
 21
19969.087532000009
 31
0.0
  0
LINE
  5
432E
  8
2-0
  6
CONTINUOUS
 62
     3
 10
22634.651631000001
 20
19994.096769000011
 30
0.0
 11
22634.651631000001
 21
19969.087532000009
 31
0.0
  0
LINE
  5
432F
  8
2-0
  6
CONTINUOUS
 62
     3
 10
22629.65136699998
 20
19994.096769000011
 30
0.0
 11
22634.651631000001
 21
19994.096769000011
 31
0.0
  0
LINE
  5
4330
  8
2-0
  6
CONTINUOUS
 62
     3
 10
22629.65136699998
 20
19987.091253000021
 30
0.0
 11
22629.65136699998
 21
19994.096769000011
 31
0.0
  0
LINE
  5
4331
  8
2-0
  6
CONTINUOUS
 62
     3
 10
22660.840661999991
 20
19987.091253000021
 30
0.0
 11
22660.840661999991
 21
19994.096769000011
 31
0.0
  0
LINE
  5
4332
  8
2-0
  6
CONTINUOUS
 62
     3
 10
22660.840661999991
 20
19994.096769000011
 30
0.0
 11
22655.840398
 21
19994.096769000011
 31
0.0
  0
LINE
  5
4333
  8
2-0
  6
CONTINUOUS
 62
     3
 10
22655.840398
 20
19994.096769000011
 30
0.0
 11
22655.840398
 21
19969.087532000009
 31
0.0
  0
LINE
  5
4334
  8
2-0
  6
CONTINUOUS
 62
     3
 10
22655.840398
 20
19969.087532000009
 30
0.0
 11
22673.844119000001
 21
19969.087532000009
 31
0.0
  0
LINE
  5
4335
  8
2-0
  6
CONTINUOUS
 62
     3
 10
22673.844119000001
 20
19969.087532000009
 30
0.0
 11
22673.844119000001
 21
19999.091095000022
 31
0.0
  0
LINE
  5
4336
  8
2-0
  6
CONTINUOUS
 62
     3
 10
22657.746673999969
 20
19969.087532000009
 30
0.0
 11
22663.746594999979
 21
19969.087532000009
 31
0.0
  0
LINE
  5
4337
  8
2-0
  6
CONTINUOUS
 62
     3
 10
22663.746594999979
 20
19969.087532000009
 30
0.0
 11
22663.746594999979
 21
19999.091095000022
 31
0.0
  0
LINE
  5
4338
  8
2-0
  6
CONTINUOUS
 62
     3
 10
22663.746594999979
 20
19999.091095000022
 30
0.0
 11
22626.745433000011
 21
19999.091095000022
 31
0.0
  0
TEXT
  5
4339
  8
2-0
  6
CONTINUOUS
 62
     7
 10
20373.905422666659
 20
18764.610863999991
 30
0.0
 40
160.0
  1
梁補助柱
 72
     4
 11
20736.572089333331
 21
18844.610863999991
 31
0.0
  0
TEXT
  5
433A
  8
2-0
  6
CONTINUOUS
 62
     7
 10
18224.039404999981
 20
21310.32816200002
 30
0.0
 40
160.0
  1
1
 72
     4
 11
18250.706071666649
 21
21390.32816200002
 31
0.0
  0
TEXT
  5
433B
  8
2-0
  6
CONTINUOUS
 62
     7
 10
21485.114231
 20
21303.570085000021
 30
0.0
 40
160.0
  1
2
 72
     4
 11
21538.447564333332
 21
21383.570085000021
 31
0.0
  0
TEXT
  5
433C
  8
2-0
  6
CONTINUOUS
 62
     7
 10
16691.057656000001
 20
13681.485599
 30
0.0
 40
160.0
  1
A
 72
     4
 11
16744.390989333329
 21
13761.485599
 31
0.0
  0
TEXT
  5
433D
  8
2-0
  6
CONTINUOUS
 62
     7
 10
16691.015095999981
 20
16968.198728000021
 30
0.0
 40
160.0
  1
B
 72
     4
 11
16744.348429333309
 21
17048.198728000021
 31
0.0
  0
TEXT
  5
433E
  8
2-0
  6
CONTINUOUS
 62
     7
 10
16690.794379999981
 20
19862.112368000009
 30
0.0
 40
160.0
  1
C
 72
     4
 11
16744.127713333321
 21
19942.112368000009
 31
0.0
  0
TEXT
  5
433F
  8
2-0
  6
CONTINUOUS
 62
     7
 10
21807.039379000002
 20
19430.717863000009
 30
0.0
 40
160.0
  1
後柱（中）
 72
     4
 11
22223.039379000002
 21
19510.717863000009
 31
0.0
  0
TEXT
  5
4340
  8
2-0
  6
CONTINUOUS
 62
     7
 10
20372.614890000012
 20
19361.973142000021
 30
0.0
 40
160.0
  1
間柱（後）
 72
     4
 11
20793.94822333334
 21
19441.973142000021
 31
0.0
  0
TEXT
  5
4341
  8
2-0
  6
CONTINUOUS
 62
     7
 10
20305.657252000012
 20
14347.93110999998
 30
0.0
 40
160.0
  1
前柱（中）
 72
     4
 11
20721.657252000012
 21
14427.93110999998
 31
0.0
  0
TEXT
  5
4342
  8
2-0
  6
CONTINUOUS
 62
     7
 10
24218.241526999998
 20
20809.09030299999
 30
0.0
 40
160.0
  1
後柱（左右）
 50
0.0003540000017592
 72
     4
 11
24730.24103271298
 21
20889.09346637284
 31
0.0
  0
TEXT
  5
4343
  8
2-0
  6
CONTINUOUS
 62
     7
 10
21899.651207999999
 20
18929.542582499991
 30
0.0
 40
160.0
  1
間柱（側）
 72
     4
 11
22320.984541333331
 21
19009.542582499991
 31
0.0
  0
TEXT
  5
4344
  8
2-0
  6
CONTINUOUS
 62
     7
 10
21816.790539999991
 20
15321.95648700001
 30
0.0
 40
160.0
  1
補強柱 前
 50
359.9993700000017
 72
     4
 11
22227.45808628777
 21
15401.951971479341
 31
0.0
  0
TEXT
  5
4345
  8
2-0
  6
CONTINUOUS
 62
     7
 10
22404.685783999979
 20
14183.135197999991
 30
0.0
 40
160.0
  1
下枠
 50
0.0010630000002211
 72
     4
 11
22575.350966409282
 21
14263.13836433928
 31
0.0
  0
TEXT
  5
4346
  8
2-0
  6
CONTINUOUS
 62
     7
 10
21724.683539999991
 20
17326.273843999988
 30
0.0
 40
160.0
  1
中柱（左右）
 50
0.0003540000017592
 72
     4
 11
22242.016379046199
 21
17406.277040324661
 31
0.0
  0
TEXT
  5
4347
  8
2-0
  6
CONTINUOUS
 62
     7
 10
22004.686443999999
 20
16489.085948000022
 30
0.0
 40
160.0
  1
壁パネル
 50
359.99982299999903
 72
     4
 11
22367.35335780356
 21
16569.084827637878
 31
0.0
  0
TEXT
  5
4348
  8
2-0
  6
CONTINUOUS
 62
     7
 10
21816.790540000009
 20
18239.715976
 30
0.0
 40
160.0
  1
補強柱 後
 50
359.99984199999972
 72
     4
 11
22227.45742727473
 21
18319.714843536989
 31
0.0
  0
TEXT
  5
4349
  8
2-0
  6
CONTINUOUS
 62
     7
 10
21800.091320999989
 20
13210.093932
 30
0.0
 40
160.0
  1
前柱（右）
 50
0.0002129999992907
 72
     4
 11
22216.09102359301
 21
13290.095478500791
 31
0.0
  0
CIRCLE
  5
434A
  8
2-0
  6
CONTINUOUS
 62
     4
 10
18268.246014
 20
21399.095714000021
 30
0.0
 40
200.00001
  0
CIRCLE
  5
434B
  8
2-0
  6
CONTINUOUS
 62
     4
 10
21536.746014
 20
21399.095714000021
 30
0.0
 40
200.00001
  0
CIRCLE
  5
434C
  8
2-0
  6
CONTINUOUS
 62
     4
 10
16738.793747
 20
13770.09281
 30
0.0
 40
200.00001
  0
CIRCLE
  5
434D
  8
2-0
  6
CONTINUOUS
 62
     4
 10
16738.793747
 20
17038.592809999991
 30
0.0
 40
200.00001
  0
CIRCLE
  5
434E
  8
2-0
  6
CONTINUOUS
 62
     4
 10
16738.793747
 20
19956.592809999998
 30
0.0
 40
200.00001
  0
LINE
  5
434F
  8
2-0
  6
CONTINUOUS
 62
     6
 10
21391.952147999989
 20
19024.046568999991
 30
0.0
 11
21437.53254299999
 21
18996.359042000011
 31
0.0
  0
LINE
  5
4350
  8
2-0
  6
CONTINUOUS
 62
     6
 10
21391.952147999989
 20
19024.046568999991
 30
0.0
 11
21497.810862999992
 21
19146.954877000011
 31
0.0
  0
LINE
  5
4351
  8
2-0
  6
CONTINUOUS
 62
     6
 10
21437.53254299999
 20
18996.359042000011
 30
0.0
 11
21497.810862999992
 21
19146.954877000011
 31
0.0
  0
LINE
  5
4352
  8
2-0
  6
CONTINUOUS
 62
     6
 10
21497.810862999992
 20
19146.954877000011
 30
0.0
 11
21437.53254299999
 21
18996.359042000011
 31
0.0
  0
LINE
  5
4353
  8
2-0
  6
CONTINUOUS
 62
     6
 10
21391.952147999989
 20
19024.046568999991
 30
0.0
 11
21497.810862999992
 21
19146.954877000011
 31
0.0
  0
LINE
  5
4354
  8
2-0
  6
CONTINUOUS
 62
     6
 10
21437.53254299999
 20
18996.359042000011
 30
0.0
 11
21391.952147999989
 21
19024.046568999991
 31
0.0
  0
LINE
  5
4355
  8
2-0
  6
CONTINUOUS
 62
     6
 10
21497.810862999992
 20
19146.954877000011
 30
0.0
 11
21391.952147999989
 21
19024.046568999991
 31
0.0
  0
LINE
  5
4356
  8
2-0
  6
CONTINUOUS
 62
     6
 10
21437.53254299999
 20
18996.359042000011
 30
0.0
 11
21497.810862999992
 21
19146.954877000011
 31
0.0
  0
LINE
  5
4357
  8
2-0
  6
CONTINUOUS
 62
     6
 10
21221.22065000001
 20
18691.610176999991
 30
0.0
 11
20190.871330999991
 21
18691.610176999991
 31
0.0
  0
LINE
  5
4358
  8
2-0
  6
CONTINUOUS
 62
     6
 10
21497.810862999992
 20
19146.954877000011
 30
0.0
 11
21221.22065000001
 21
18691.610176999991
 31
0.0
  0
LINE
  5
4359
  8
2-0
  6
CONTINUOUS
 62
     3
 10
21579.24627800001
 20
19156.095515500001
 30
0.0
 11
21579.24627800001
 21
19241.090104499988
 31
0.0
  0
LINE
  5
435A
  8
2-0
  6
CONTINUOUS
 62
     3
 10
21494.253668000001
 20
19241.090104499988
 30
0.0
 11
21494.253668000001
 21
19156.095515500001
 31
0.0
  0
LINE
  5
435B
  8
2-0
  6
CONTINUOUS
 62
     3
 10
21579.24627800001
 20
19241.090104499988
 30
0.0
 11
21494.253668000001
 21
19241.090104499988
 31
0.0
  0
LINE
  5
435C
  8
2-0
  6
CONTINUOUS
 62
     3
 10
21494.253668000001
 20
19156.095515500001
 30
0.0
 11
21579.24627800001
 21
19156.095515500001
 31
0.0
  0
LINE
  5
435D
  8
2-0
  6
CONTINUOUS
 62
     3
 10
23364.742397999991
 20
13812.59109399999
 30
0.0
 11
23364.742397999991
 21
19999.091095000022
 31
0.0
  0
LINE
  5
435E
  8
2-0
  6
CONTINUOUS
 62
     3
 10
23445.744297999991
 20
13852.630816999999
 30
0.0
 11
23445.744297999991
 21
14148.997674
 31
0.0
  0
LINE
  5
435F
  8
2-0
  6
CONTINUOUS
 62
     3
 10
23433.742477000011
 20
14193.192406
 30
0.0
 11
23440.744033999999
 21
14193.192406
 31
0.0
  0
LINE
  5
4360
  8
2-0
  6
CONTINUOUS
 62
     3
 10
23440.744033999999
 20
14193.192406
 30
0.0
 11
23440.744033999999
 21
14188.186203999991
 31
0.0
  0
LINE
  5
4361
  8
2-0
  6
CONTINUOUS
 62
     3
 10
23440.744033999999
 20
14188.186203999991
 30
0.0
 11
23415.746674000002
 21
14188.186203999991
 31
0.0
  0
LINE
  5
4362
  8
2-0
  6
CONTINUOUS
 62
     3
 10
23415.746674000002
 20
14188.186203999991
 30
0.0
 11
23415.746674000002
 21
14206.193884
 31
0.0
  0
LINE
  5
4363
  8
2-0
  6
CONTINUOUS
 62
     3
 10
23415.746674000002
 20
14206.193884
 30
0.0
 11
23445.744297999991
 21
14206.193884
 31
0.0
  0
LINE
  5
4364
  8
2-0
  6
CONTINUOUS
 62
     3
 10
23415.746674000002
 20
14190.09643900001
 30
0.0
 11
23415.746674000002
 21
14196.092400999991
 31
0.0
  0
LINE
  5
4365
  8
2-0
  6
CONTINUOUS
 62
     3
 10
23415.746674000002
 20
14196.092400999991
 30
0.0
 11
23445.744297999991
 21
14196.092400999991
 31
0.0
  0
LINE
  5
4366
  8
2-0
  6
CONTINUOUS
 62
     3
 10
23445.744297999991
 20
14159.093219
 30
0.0
 11
23445.744297999991
 21
14196.092400999991
 31
0.0
  0
LINE
  5
4367
  8
2-0
  6
CONTINUOUS
 62
     3
 10
23415.746674000002
 20
14159.093219
 30
0.0
 11
23445.744297999991
 21
14159.093219
 31
0.0
  0
LINE
  5
4368
  8
2-0
  6
CONTINUOUS
 62
     3
 10
23415.746674000002
 20
14165.095120000011
 30
0.0
 11
23415.746674000002
 21
14159.093219
 31
0.0
  0
LINE
  5
4369
  8
2-0
  6
CONTINUOUS
 62
     3
 10
23415.746674000002
 20
14148.997674
 30
0.0
 11
23445.744297999991
 21
14148.997674
 31
0.0
  0
LINE
  5
436A
  8
2-0
  6
CONTINUOUS
 62
     3
 10
23415.746674000002
 20
14166.993478
 30
0.0
 11
23415.746674000002
 21
14148.997674
 31
0.0
  0
LINE
  5
436B
  8
2-0
  6
CONTINUOUS
 62
     3
 10
23440.744033999999
 20
14166.993478
 30
0.0
 11
23415.746674000002
 21
14166.993478
 31
0.0
  0
LINE
  5
436C
  8
2-0
  6
CONTINUOUS
 62
     3
 10
23440.744033999999
 20
14161.999152
 30
0.0
 11
23440.744033999999
 21
14166.993478
 31
0.0
  0
LINE
  5
436D
  8
2-0
  6
CONTINUOUS
 62
     3
 10
23433.742477000011
 20
14161.999152
 30
0.0
 11
23440.744033999999
 21
14161.999152
 31
0.0
  0
LINE
  5
436E
  8
2-0
  6
CONTINUOUS
 62
     3
 10
18306.747650000001
 20
13812.59109399999
 30
0.0
 11
18306.747650000001
 21
19999.091095000022
 31
0.0
  0
LINE
  5
436F
  8
2-0
  6
CONTINUOUS
 62
     3
 10
18225.749708999982
 20
13852.630816999999
 30
0.0
 11
18225.749708999982
 21
14148.997674
 31
0.0
  0
LINE
  5
4370
  8
2-0
  6
CONTINUOUS
 62
     3
 10
18237.75152999998
 20
14193.192406
 30
0.0
 11
18230.753932
 21
14193.192406
 31
0.0
  0
LINE
  5
4371
  8
2-0
  6
CONTINUOUS
 62
     3
 10
18230.753932
 20
14193.192406
 30
0.0
 11
18230.753932
 21
14188.186203999991
 31
0.0
  0
LINE
  5
4372
  8
2-0
  6
CONTINUOUS
 62
     3
 10
18230.753932
 20
14188.186203999991
 30
0.0
 11
18255.747334
 21
14188.186203999991
 31
0.0
  0
LINE
  5
4373
  8
2-0
  6
CONTINUOUS
 62
     3
 10
18255.747334
 20
14188.186203999991
 30
0.0
 11
18255.747334
 21
14206.193884
 31
0.0
  0
LINE
  5
4374
  8
2-0
  6
CONTINUOUS
 62
     3
 10
18255.747334
 20
14206.193884
 30
0.0
 11
18225.749708999982
 21
14206.193884
 31
0.0
  0
LINE
  5
4375
  8
2-0
  6
CONTINUOUS
 62
     3
 10
18255.747334
 20
14190.09643900001
 30
0.0
 11
18255.747334
 21
14196.092400999991
 31
0.0
  0
LINE
  5
4376
  8
2-0
  6
CONTINUOUS
 62
     3
 10
18255.747334
 20
14196.092400999991
 30
0.0
 11
18225.749708999982
 21
14196.092400999991
 31
0.0
  0
LINE
  5
4377
  8
2-0
  6
CONTINUOUS
 62
     3
 10
18225.749708999982
 20
14159.093219
 30
0.0
 11
18225.749708999982
 21
14196.092400999991
 31
0.0
  0
LINE
  5
4378
  8
2-0
  6
CONTINUOUS
 62
     3
 10
18255.747334
 20
14159.093219
 30
0.0
 11
18225.749708999982
 21
14159.093219
 31
0.0
  0
LINE
  5
4379
  8
2-0
  6
CONTINUOUS
 62
     3
 10
18255.747334
 20
14165.095120000011
 30
0.0
 11
18255.747334
 21
14159.093219
 31
0.0
  0
LINE
  5
437A
  8
2-0
  6
CONTINUOUS
 62
     3
 10
18255.747334
 20
14148.997674
 30
0.0
 11
18225.749708999982
 21
14148.997674
 31
0.0
  0
LINE
  5
437B
  8
2-0
  6
CONTINUOUS
 62
     3
 10
18255.747334
 20
14166.993478
 30
0.0
 11
18255.747334
 21
14148.997674
 31
0.0
  0
LINE
  5
437C
  8
2-0
  6
CONTINUOUS
 62
     3
 10
18230.753932
 20
14166.993478
 30
0.0
 11
18255.747334
 21
14166.993478
 31
0.0
  0
LINE
  5
437D
  8
2-0
  6
CONTINUOUS
 62
     3
 10
18230.753932
 20
14161.999152000009
 30
0.0
 11
18230.753932
 21
14166.993478
 31
0.0
  0
LINE
  5
437E
  8
2-0
  6
CONTINUOUS
 62
     3
 10
18237.75152999998
 20
14161.999152000009
 30
0.0
 11
18230.753932
 21
14161.999152000009
 31
0.0
  0
LINE
  5
437F
  8
2-0
  6
CENTER2
 62
     6
 10
21536.746014
 20
21199.091095000022
 30
0.0
 11
21536.746014
 21
13578.688209
 31
0.0
  0
LINE
  5
4380
  8
2-0
  6
CONTINUOUS
 62
     3
 10
18225.749708999982
 20
19873.797466
 30
0.0
 11
18225.749708999982
 21
19227.188935499991
 31
0.0
  0
LINE
  5
4381
  8
2-0
  6
CONTINUOUS
 62
     3
 10
23445.744297999991
 20
19873.797466
 30
0.0
 11
23445.744297999991
 21
19227.188935499991
 31
0.0
  0
LINE
  5
4382
  8
2-0
  6
CENTER2
 62
     6
 10
23403.246014
 20
21199.091095000022
 30
0.0
 11
23403.246014
 21
13144.329376
 31
0.0
  0
LINE
  5
4383
  8
2-0
  6
CENTER2
 62
     6
 10
18268.246014
 20
21199.091095000022
 30
0.0
 11
18268.246014
 21
13144.329376
 31
0.0
  0
LINE
  5
4384
  8
2-0
  6
CONTINUOUS
 62
     3
 10
18225.749708999982
 20
14206.13054000002
 30
0.0
 11
18225.749708999982
 21
14849.997179
 31
0.0
  0
LINE
  5
4385
  8
2-0
  6
CONTINUOUS
 62
     3
 10
18225.749708999982
 20
19914.094526000001
 30
0.0
 11
23364.742397999991
 21
19914.094526000001
 31
0.0
  0
LINE
  5
4386
  8
2-0
  6
CONTINUOUS
 62
     3
 10
18351.051255999992
 20
19999.091095000022
 30
0.0
 11
18647.152858000001
 21
19999.091095000022
 31
0.0
  0
LINE
  5
4387
  8
2-0
  6
CONTINUOUS
 62
     3
 10
18660.150377000009
 20
19987.091253000021
 30
0.0
 11
18660.150377000009
 21
19994.096769000011
 31
0.0
  0
LINE
  5
4388
  8
2-0
  6
CONTINUOUS
 62
     3
 10
18660.150377000009
 20
19994.096769000011
 30
0.0
 11
18665.14866100001
 21
19994.096769000011
 31
0.0
  0
LINE
  5
4389
  8
2-0
  6
CONTINUOUS
 62
     3
 10
18665.14866100001
 20
19994.096769000011
 30
0.0
 11
18665.14866100001
 21
19969.087532000009
 31
0.0
  0
LINE
  5
438A
  8
2-0
  6
CONTINUOUS
 62
     3
 10
18665.14866100001
 20
19969.087532000009
 30
0.0
 11
18647.152858000001
 21
19969.087532000009
 31
0.0
  0
LINE
  5
438B
  8
2-0
  6
CONTINUOUS
 62
     3
 10
18647.152858000001
 20
19969.087532000009
 30
0.0
 11
18647.152858000001
 21
19999.091095000022
 31
0.0
  0
LINE
  5
438C
  8
2-0
  6
CONTINUOUS
 62
     3
 10
18663.242385000001
 20
19969.087532000009
 30
0.0
 11
18657.248402999991
 21
19969.087532000009
 31
0.0
  0
LINE
  5
438D
  8
2-0
  6
CONTINUOUS
 62
     3
 10
18657.248402999991
 20
19969.087532000009
 30
0.0
 11
18657.248402999991
 21
19999.091095000022
 31
0.0
  0
LINE
  5
438E
  8
2-0
  6
CONTINUOUS
 62
     3
 10
18657.248402999991
 20
19999.091095000022
 30
0.0
 11
18694.243624999999
 21
19999.091095000022
 31
0.0
  0
LINE
  5
438F
  8
2-0
  6
CONTINUOUS
 62
     3
 10
18694.243624999999
 20
19969.087532000009
 30
0.0
 11
18694.243624999999
 21
19999.091095000022
 31
0.0
  0
LINE
  5
4390
  8
2-0
  6
CONTINUOUS
 62
     3
 10
18688.23974500001
 20
19969.087532000009
 30
0.0
 11
18694.243624999999
 21
19969.087532000009
 31
0.0
  0
LINE
  5
4391
  8
2-0
  6
CONTINUOUS
 62
     3
 10
18704.33917000001
 20
19969.087532000009
 30
0.0
 11
18704.33917000001
 21
19999.091095000022
 31
0.0
  0
LINE
  5
4392
  8
2-0
  6
CONTINUOUS
 62
     3
 10
18686.337427999992
 20
19969.087532000009
 30
0.0
 11
18704.33917000001
 21
19969.087532000009
 31
0.0
  0
LINE
  5
4393
  8
2-0
  6
CONTINUOUS
 62
     3
 10
18686.337427999992
 20
19994.096769000011
 30
0.0
 11
18686.337427999992
 21
19969.087532000009
 31
0.0
  0
LINE
  5
4394
  8
2-0
  6
CONTINUOUS
 62
     3
 10
18691.337692000001
 20
19994.096769000011
 30
0.0
 11
18686.337427999992
 21
19994.096769000011
 31
0.0
  0
LINE
  5
4395
  8
2-0
  6
CONTINUOUS
 62
     3
 10
18691.337692000001
 20
19987.091253000021
 30
0.0
 11
18691.337692000001
 21
19994.096769000011
 31
0.0
  0
LINE
  5
4396
  8
2-0
  6
CENTER2
 62
     6
 10
16938.791437
 20
13770.09281
 30
0.0
 11
24295.745618000001
 21
13770.09281
 31
0.0
  0
LINE
  5
4397
  8
2-0
  6
CENTER2
 62
     6
 10
16938.791437
 20
17038.592809999991
 30
0.0
 11
24295.745618000001
 21
17038.592809999991
 31
0.0
  0
LINE
  5
4398
  8
2-0
  6
CENTER2
 62
     6
 10
16938.791437
 20
19956.592809999998
 30
0.0
 11
24295.745618000001
 21
19956.592809999998
 31
0.0
  0
LINE
  5
4399
  8
2-0
  6
CONTINUOUS
 62
     3
 10
23445.744297999991
 20
19884.094922000018
 30
0.0
 11
23445.744297999991
 21
19999.091095000022
 31
0.0
  0
LINE
  5
439A
  8
2-0
  6
CONTINUOUS
 62
     3
 10
18316.752136999999
 20
15622.09109399999
 30
0.0
 11
18316.752136999999
 21
15537.094526000001
 31
0.0
  0
LINE
  5
439B
  8
2-0
  6
CONTINUOUS
 62
     3
 10
18269.748468000002
 20
15597.089775
 30
0.0
 11
18269.748468000002
 21
15622.09109399999
 31
0.0
  0
LINE
  5
439C
  8
2-0
  6
CONTINUOUS
 62
     3
 10
18269.748468000002
 20
15537.094526000001
 30
0.0
 11
18269.748468000002
 21
15562.08990700001
 31
0.0
  0
LINE
  5
439D
  8
2-0
  6
CONTINUOUS
 62
     3
 10
18269.748468000002
 20
15622.09109399999
 30
0.0
 11
18316.752136999999
 21
15622.09109399999
 31
0.0
  0
LINE
  5
439E
  8
2-0
  6
CONTINUOUS
 62
     3
 10
18316.752136999999
 20
15537.094526000001
 30
0.0
 11
18269.748468000002
 21
15537.094526000001
 31
0.0
  0
LINE
  5
439F
  8
2-0
  6
CONTINUOUS
 62
     3
 10
18225.749708999982
 20
16251.9922305
 30
0.0
 11
18225.749708999982
 21
15608.428457000011
 31
0.0
  0
LINE
  5
43A0
  8
2-0
  6
CONTINUOUS
 62
     3
 10
18316.752136999999
 20
18540.092084
 30
0.0
 11
18316.752136999999
 21
18455.091555999981
 31
0.0
  0
LINE
  5
43A1
  8
2-0
  6
CONTINUOUS
 62
     3
 10
18269.748468000002
 20
18515.09076399999
 30
0.0
 11
18269.748468000002
 21
18540.092084
 31
0.0
  0
LINE
  5
43A2
  8
2-0
  6
CONTINUOUS
 62
     3
 10
18269.748468000002
 20
18455.091555999981
 30
0.0
 11
18269.748468000002
 21
18480.094854999999
 31
0.0
  0
LINE
  5
43A3
  8
2-0
  6
CONTINUOUS
 62
     3
 10
18269.748468000002
 20
18540.092084
 30
0.0
 11
18316.752136999999
 21
18540.092084
 31
0.0
  0
LINE
  5
43A4
  8
2-0
  6
CONTINUOUS
 62
     3
 10
18316.752136999999
 20
18455.091555999981
 30
0.0
 11
18269.748468000002
 21
18455.091555999981
 31
0.0
  0
LINE
  5
43A5
  8
2-0
  6
CONTINUOUS
 62
     3
 10
18225.749708999982
 20
18526.187945999991
 30
0.0
 11
18225.749708999982
 21
19169.998663499991
 31
0.0
  0
LINE
  5
43A6
  8
2-0
  6
CONTINUOUS
 62
     3
 10
18225.749708999982
 20
14907.193389
 30
0.0
 11
18225.749708999982
 21
15551.232246999991
 31
0.0
  0
LINE
  5
43A7
  8
2-0
  6
CONTINUOUS
 62
     3
 10
18255.747334
 20
13852.630816999999
 30
0.0
 11
18225.749708999982
 21
13852.630816999999
 31
0.0
  0
LINE
  5
43A8
  8
2-0
  6
CONTINUOUS
 62
     3
 10
18255.747334
 20
13834.63204399998
 30
0.0
 11
18255.747334
 21
13852.630816999999
 31
0.0
  0
LINE
  5
43A9
  8
2-0
  6
CONTINUOUS
 62
     3
 10
18230.753932
 20
13834.63204399998
 30
0.0
 11
18255.747334
 21
13834.63204399998
 31
0.0
  0
LINE
  5
43AA
  8
2-0
  6
CONTINUOUS
 62
     3
 10
18230.753932
 20
13839.62933899999
 30
0.0
 11
18230.753932
 21
13834.63204399998
 31
0.0
  0
LINE
  5
43AB
  8
2-0
  6
CONTINUOUS
 62
     3
 10
18237.75152999998
 20
13839.62933899999
 30
0.0
 11
18230.753932
 21
13839.62933899999
 31
0.0
  0
LINE
  5
43AC
  8
2-0
  6
CONTINUOUS
 62
     3
 10
18310.748256999999
 20
13812.59109399999
 30
0.0
 11
18278.751318999992
 21
13812.59109399999
 31
0.0
  0
LINE
  5
43AD
  8
2-0
  6
CONTINUOUS
 62
     3
 10
18310.748256999999
 20
13727.595515000001
 30
0.0
 11
18310.748256999999
 21
13812.59109399999
 31
0.0
  0
LINE
  5
43AE
  8
2-0
  6
CONTINUOUS
 62
     3
 10
18225.749708999982
 20
13727.595515000001
 30
0.0
 11
18310.748256999999
 21
13727.595515000001
 31
0.0
  0
LINE
  5
43AF
  8
2-0
  6
CONTINUOUS
 62
     3
 10
18225.749708999982
 20
13842.599606
 30
0.0
 11
18225.749708999982
 21
13727.595515000001
 31
0.0
  0
LINE
  5
43B0
  8
2-0
  6
CONTINUOUS
 62
     3
 10
18255.747334
 20
13842.599606
 30
0.0
 11
18225.749708999982
 21
13842.599606
 31
0.0
  0
LINE
  5
43B1
  8
2-0
  6
CONTINUOUS
 62
     3
 10
18255.747334
 20
13836.594736999999
 30
0.0
 11
18255.747334
 21
13842.599606
 31
0.0
  0
LINE
  5
43B2
  8
2-0
  6
CONTINUOUS
 62
     3
 10
18237.75152999998
 20
14894.191911000011
 30
0.0
 11
18230.753932
 21
14894.191911000011
 31
0.0
  0
LINE
  5
43B3
  8
2-0
  6
CONTINUOUS
 62
     3
 10
18230.753932
 20
14894.191911000011
 30
0.0
 11
18230.753932
 21
14889.18669800001
 31
0.0
  0
LINE
  5
43B4
  8
2-0
  6
CONTINUOUS
 62
     3
 10
18230.753932
 20
14889.18669800001
 30
0.0
 11
18255.747334
 21
14889.18669800001
 31
0.0
  0
LINE
  5
43B5
  8
2-0
  6
CONTINUOUS
 62
     3
 10
18255.747334
 20
14889.18669800001
 30
0.0
 11
18255.747334
 21
14907.193389
 31
0.0
  0
LINE
  5
43B6
  8
2-0
  6
CONTINUOUS
 62
     3
 10
18255.747334
 20
14907.193389
 30
0.0
 11
18225.749708999982
 21
14907.193389
 31
0.0
  0
LINE
  5
43B7
  8
2-0
  6
CONTINUOUS
 62
     3
 10
18255.747334
 20
14891.095944000001
 30
0.0
 11
18255.747334
 21
14897.09289599998
 31
0.0
  0
LINE
  5
43B8
  8
2-0
  6
CONTINUOUS
 62
     3
 10
18255.747334
 20
14897.09289599998
 30
0.0
 11
18225.749708999982
 21
14897.09289599998
 31
0.0
  0
LINE
  5
43B9
  8
2-0
  6
CONTINUOUS
 62
     3
 10
18225.749708999982
 20
14860.092724
 30
0.0
 11
18225.749708999982
 21
14897.09289599998
 31
0.0
  0
LINE
  5
43BA
  8
2-0
  6
CONTINUOUS
 62
     3
 10
18255.747334
 20
14860.092724
 30
0.0
 11
18225.749708999982
 21
14860.092724
 31
0.0
  0
LINE
  5
43BB
  8
2-0
  6
CONTINUOUS
 62
     3
 10
18255.747334
 20
14866.095614000011
 30
0.0
 11
18255.747334
 21
14860.092724
 31
0.0
  0
LINE
  5
43BC
  8
2-0
  6
CONTINUOUS
 62
     3
 10
18255.747334
 20
14849.997179
 30
0.0
 11
18225.749708999982
 21
14849.997179
 31
0.0
  0
LINE
  5
43BD
  8
2-0
  6
CONTINUOUS
 62
     3
 10
18255.747334
 20
14867.992983
 30
0.0
 11
18255.747334
 21
14849.997179
 31
0.0
  0
LINE
  5
43BE
  8
2-0
  6
CONTINUOUS
 62
     3
 10
18230.753932
 20
14867.992983
 30
0.0
 11
18255.747334
 21
14867.992983
 31
0.0
  0
LINE
  5
43BF
  8
2-0
  6
CONTINUOUS
 62
     3
 10
18230.753932
 20
14862.998657
 30
0.0
 11
18230.753932
 21
14867.992983
 31
0.0
  0
LINE
  5
43C0
  8
2-0
  6
CONTINUOUS
 62
     3
 10
18237.75152999998
 20
14862.998657
 30
0.0
 11
18230.753932
 21
14862.998657
 31
0.0
  0
LINE
  5
43C1
  8
2-0
  6
CONTINUOUS
 62
     3
 10
18313.636374999991
 20
17081.091093999999
 30
0.0
 11
18313.636374999991
 21
16996.094526000012
 31
0.0
  0
LINE
  5
43C2
  8
2-0
  6
CONTINUOUS
 62
     3
 10
18225.749708999982
 20
17111.090697999989
 30
0.0
 11
18225.749708999982
 21
16966.088983000001
 31
0.0
  0
LINE
  5
43C3
  8
2-0
  6
CONTINUOUS
 62
     3
 10
18225.749708999982
 20
16956.480400000011
 30
0.0
 11
18225.749708999982
 21
16309.188440499989
 31
0.0
  0
LINE
  5
43C4
  8
2-0
  6
CONTINUOUS
 62
     3
 10
18237.75152999998
 20
15564.23966400001
 30
0.0
 11
18230.753932
 21
15564.23966400001
 31
0.0
  0
LINE
  5
43C5
  8
2-0
  6
CONTINUOUS
 62
     3
 10
18230.753932
 20
15564.23966400001
 30
0.0
 11
18230.753932
 21
15569.239928000001
 31
0.0
  0
LINE
  5
43C6
  8
2-0
  6
CONTINUOUS
 62
     3
 10
18230.753932
 20
15569.239928000001
 30
0.0
 11
18255.747334
 21
15569.239928000001
 31
0.0
  0
LINE
  5
43C7
  8
2-0
  6
CONTINUOUS
 62
     3
 10
18255.747334
 20
15569.239928000001
 30
0.0
 11
18255.747334
 21
15551.232246999991
 31
0.0
  0
LINE
  5
43C8
  8
2-0
  6
CONTINUOUS
 62
     3
 10
18255.747334
 20
15551.232246999991
 30
0.0
 11
18225.749708999982
 21
15551.232246999991
 31
0.0
  0
LINE
  5
43C9
  8
2-0
  6
CONTINUOUS
 62
     3
 10
18255.747334
 20
15567.330681999991
 30
0.0
 11
18255.747334
 21
15561.33373100001
 31
0.0
  0
LINE
  5
43CA
  8
2-0
  6
CONTINUOUS
 62
     3
 10
18255.747334
 20
15561.33373100001
 30
0.0
 11
18225.749708999982
 21
15561.33373100001
 31
0.0
  0
LINE
  5
43CB
  8
2-0
  6
CONTINUOUS
 62
     3
 10
18225.749708999982
 20
15561.33373100001
 30
0.0
 11
18225.749708999982
 21
15598.33291200002
 31
0.0
  0
LINE
  5
43CC
  8
2-0
  6
CONTINUOUS
 62
     3
 10
18255.747334
 20
15598.33291200002
 30
0.0
 11
18225.749708999982
 21
15598.33291200002
 31
0.0
  0
LINE
  5
43CD
  8
2-0
  6
CONTINUOUS
 62
     3
 10
18255.747334
 20
15592.33101200001
 30
0.0
 11
18255.747334
 21
15598.33291200002
 31
0.0
  0
LINE
  5
43CE
  8
2-0
  6
CONTINUOUS
 62
     3
 10
18255.747334
 20
15608.428457000011
 30
0.0
 11
18225.749708999982
 21
15608.428457000011
 31
0.0
  0
LINE
  5
43CF
  8
2-0
  6
CONTINUOUS
 62
     3
 10
18255.747334
 20
15590.432654
 30
0.0
 11
18255.747334
 21
15608.428457000011
 31
0.0
  0
LINE
  5
43D0
  8
2-0
  6
CONTINUOUS
 62
     3
 10
18230.753932
 20
15590.432654
 30
0.0
 11
18255.747334
 21
15590.432654
 31
0.0
  0
LINE
  5
43D1
  8
2-0
  6
CONTINUOUS
 62
     3
 10
18230.753932
 20
15595.426979000011
 30
0.0
 11
18230.753932
 21
15590.432654
 31
0.0
  0
LINE
  5
43D2
  8
2-0
  6
CONTINUOUS
 62
     3
 10
18237.75152999998
 20
15595.426979000011
 30
0.0
 11
18230.753932
 21
15595.426979000011
 31
0.0
  0
LINE
  5
43D3
  8
2-0
  6
CONTINUOUS
 62
     3
 10
18237.75152999998
 20
16296.1869625
 30
0.0
 11
18230.753932
 21
16296.1869625
 31
0.0
  0
LINE
  5
43D4
  8
2-0
  6
CONTINUOUS
 62
     3
 10
18230.753932
 20
16296.1869625
 30
0.0
 11
18230.753932
 21
16291.18075949999
 31
0.0
  0
LINE
  5
43D5
  8
2-0
  6
CONTINUOUS
 62
     3
 10
18230.753932
 20
16291.18075949999
 30
0.0
 11
18255.747334
 21
16291.18075949999
 31
0.0
  0
LINE
  5
43D6
  8
2-0
  6
CONTINUOUS
 62
     3
 10
18255.747334
 20
16291.18075949999
 30
0.0
 11
18255.747334
 21
16309.188440499989
 31
0.0
  0
LINE
  5
43D7
  8
2-0
  6
CONTINUOUS
 62
     3
 10
18255.747334
 20
16309.188440499989
 30
0.0
 11
18225.749708999982
 21
16309.188440499989
 31
0.0
  0
LINE
  5
43D8
  8
2-0
  6
CONTINUOUS
 62
     3
 10
18255.747334
 20
16293.0900055
 30
0.0
 11
18255.747334
 21
16299.0928955
 31
0.0
  0
LINE
  5
43D9
  8
2-0
  6
CONTINUOUS
 62
     3
 10
18255.747334
 20
16299.0928955
 30
0.0
 11
18225.749708999982
 21
16299.0928955
 31
0.0
  0
LINE
  5
43DA
  8
2-0
  6
CONTINUOUS
 62
     3
 10
18225.749708999982
 20
16262.0927245
 30
0.0
 11
18225.749708999982
 21
16299.0928955
 31
0.0
  0
LINE
  5
43DB
  8
2-0
  6
CONTINUOUS
 62
     3
 10
18255.747334
 20
16262.0927245
 30
0.0
 11
18225.749708999982
 21
16262.0927245
 31
0.0
  0
LINE
  5
43DC
  8
2-0
  6
CONTINUOUS
 62
     3
 10
18255.747334
 20
16268.08967549999
 30
0.0
 11
18255.747334
 21
16262.0927245
 31
0.0
  0
LINE
  5
43DD
  8
2-0
  6
CONTINUOUS
 62
     3
 10
18255.747334
 20
16251.9922305
 30
0.0
 11
18225.749708999982
 21
16251.9922305
 31
0.0
  0
LINE
  5
43DE
  8
2-0
  6
CONTINUOUS
 62
     3
 10
18255.747334
 20
16269.99397249998
 30
0.0
 11
18255.747334
 21
16251.9922305
 31
0.0
  0
LINE
  5
43DF
  8
2-0
  6
CONTINUOUS
 62
     3
 10
18230.753932
 20
16269.99397249998
 30
0.0
 11
18255.747334
 21
16269.99397249998
 31
0.0
  0
LINE
  5
43E0
  8
2-0
  6
CONTINUOUS
 62
     3
 10
18230.753932
 20
16264.99370849998
 30
0.0
 11
18230.753932
 21
16269.99397249998
 31
0.0
  0
LINE
  5
43E1
  8
2-0
  6
CONTINUOUS
 62
     3
 10
18237.75152999998
 20
16264.99370849998
 30
0.0
 11
18230.753932
 21
16264.99370849998
 31
0.0
  0
LINE
  5
43E2
  8
2-0
  6
CONTINUOUS
 62
     3
 10
18237.75152999998
 20
16969.475939000011
 30
0.0
 11
18230.753932
 21
16969.475939000011
 31
0.0
  0
LINE
  5
43E3
  8
2-0
  6
CONTINUOUS
 62
     3
 10
18230.753932
 20
16969.475939000011
 30
0.0
 11
18230.753932
 21
16974.476202999998
 31
0.0
  0
LINE
  5
43E4
  8
2-0
  6
CONTINUOUS
 62
     3
 10
18230.753932
 20
16974.476202999998
 30
0.0
 11
18255.747334
 21
16974.476202999998
 31
0.0
  0
LINE
  5
43E5
  8
2-0
  6
CONTINUOUS
 62
     3
 10
18255.747334
 20
16974.476202999998
 30
0.0
 11
18255.747334
 21
16956.480400000011
 31
0.0
  0
LINE
  5
43E6
  8
2-0
  6
CONTINUOUS
 62
     3
 10
18255.747334
 20
16956.480400000011
 30
0.0
 11
18225.749708999982
 21
16956.480400000011
 31
0.0
  0
LINE
  5
43E7
  8
2-0
  6
CONTINUOUS
 62
     3
 10
18228.635847000001
 20
16996.094526000012
 30
0.0
 11
18228.635847000001
 21
17016.08964300001
 31
0.0
  0
LINE
  5
43E8
  8
2-0
  6
CONTINUOUS
 62
     3
 10
18313.636374999991
 20
16996.094526000012
 30
0.0
 11
18228.635847000001
 21
16996.094526000012
 31
0.0
  0
LINE
  5
43E9
  8
2-0
  6
CONTINUOUS
 62
     3
 10
18255.747334
 20
16966.088983000001
 30
0.0
 11
18255.747334
 21
16972.090883000012
 31
0.0
  0
LINE
  5
43EA
  8
2-0
  6
CONTINUOUS
 62
     3
 10
18225.749708999982
 20
16966.088983000001
 30
0.0
 11
18255.747334
 21
16966.088983000001
 31
0.0
  0
LINE
  5
43EB
  8
2-0
  6
CONTINUOUS
 62
     3
 10
18225.749708999982
 20
17825.193884
 30
0.0
 11
18225.749708999982
 21
18468.997673999991
 31
0.0
  0
LINE
  5
43EC
  8
2-0
  6
CONTINUOUS
 62
     3
 10
18225.749708999982
 20
17120.699282000001
 30
0.0
 11
18225.749708999982
 21
17768.003613000001
 31
0.0
  0
LINE
  5
43ED
  8
2-0
  6
CONTINUOUS
 62
     3
 10
18225.749708999982
 20
17111.090697999989
 30
0.0
 11
18255.747334
 21
17111.090697999989
 31
0.0
  0
LINE
  5
43EE
  8
2-0
  6
CONTINUOUS
 62
     3
 10
18255.747334
 20
17111.090697999989
 30
0.0
 11
18255.747334
 21
17105.088798000001
 31
0.0
  0
LINE
  5
43EF
  8
2-0
  6
CONTINUOUS
 62
     3
 10
18255.747334
 20
17120.699282000001
 30
0.0
 11
18225.749708999982
 21
17120.699282000001
 31
0.0
  0
LINE
  5
43F0
  8
2-0
  6
CONTINUOUS
 62
     3
 10
18255.747334
 20
17102.70347800001
 30
0.0
 11
18255.747334
 21
17120.699282000001
 31
0.0
  0
LINE
  5
43F1
  8
2-0
  6
CONTINUOUS
 62
     3
 10
18230.753932
 20
17102.70347800001
 30
0.0
 11
18255.747334
 21
17102.70347800001
 31
0.0
  0
LINE
  5
43F2
  8
2-0
  6
CONTINUOUS
 62
     3
 10
18230.753932
 20
17107.69780400001
 30
0.0
 11
18230.753932
 21
17102.70347800001
 31
0.0
  0
LINE
  5
43F3
  8
2-0
  6
CONTINUOUS
 62
     3
 10
18237.75152999998
 20
17107.69780400001
 30
0.0
 11
18230.753932
 21
17107.69780400001
 31
0.0
  0
LINE
  5
43F4
  8
2-0
  6
CONTINUOUS
 62
     3
 10
18228.635847000001
 20
17081.091093999999
 30
0.0
 11
18313.636374999991
 21
17081.091093999999
 31
0.0
  0
LINE
  5
43F5
  8
2-0
  6
CONTINUOUS
 62
     3
 10
18228.635847000001
 20
17061.090038999992
 30
0.0
 11
18228.635847000001
 21
17081.091093999999
 31
0.0
  0
LINE
  5
43F6
  8
2-0
  6
CONTINUOUS
 62
     3
 10
18237.75152999998
 20
17780.999153000001
 30
0.0
 11
18230.753932
 21
17780.999153000001
 31
0.0
  0
LINE
  5
43F7
  8
2-0
  6
CONTINUOUS
 62
     3
 10
18230.753932
 20
17780.999153000001
 30
0.0
 11
18230.753932
 21
17785.999415999999
 31
0.0
  0
LINE
  5
43F8
  8
2-0
  6
CONTINUOUS
 62
     3
 10
18230.753932
 20
17785.999415999999
 30
0.0
 11
18255.747334
 21
17785.999415999999
 31
0.0
  0
LINE
  5
43F9
  8
2-0
  6
CONTINUOUS
 62
     3
 10
18255.747334
 20
17785.999415999999
 30
0.0
 11
18255.747334
 21
17768.003613000001
 31
0.0
  0
LINE
  5
43FA
  8
2-0
  6
CONTINUOUS
 62
     3
 10
18255.747334
 20
17768.003613000001
 30
0.0
 11
18225.749708999982
 21
17768.003613000001
 31
0.0
  0
LINE
  5
43FB
  8
2-0
  6
CONTINUOUS
 62
     3
 10
18255.747334
 20
17784.095119999991
 30
0.0
 11
18255.747334
 21
17778.093218999991
 31
0.0
  0
LINE
  5
43FC
  8
2-0
  6
CONTINUOUS
 62
     3
 10
18255.747334
 20
17778.093218999991
 30
0.0
 11
18225.749708999982
 21
17778.093218999991
 31
0.0
  0
LINE
  5
43FD
  8
2-0
  6
CONTINUOUS
 62
     3
 10
18225.749708999982
 20
17815.092400999991
 30
0.0
 11
18225.749708999982
 21
17778.093218999991
 31
0.0
  0
LINE
  5
43FE
  8
2-0
  6
CONTINUOUS
 62
     3
 10
18255.747334
 20
17815.092400999991
 30
0.0
 11
18225.749708999982
 21
17815.092400999991
 31
0.0
  0
LINE
  5
43FF
  8
2-0
  6
CONTINUOUS
 62
     3
 10
18255.747334
 20
17809.096439000001
 30
0.0
 11
18255.747334
 21
17815.092400999991
 31
0.0
  0
LINE
  5
4400
  8
2-0
  6
CONTINUOUS
 62
     3
 10
18255.747334
 20
17825.193884
 30
0.0
 11
18225.749708999982
 21
17825.193884
 31
0.0
  0
LINE
  5
4401
  8
2-0
  6
CONTINUOUS
 62
     3
 10
18255.747334
 20
17807.198080999991
 30
0.0
 11
18255.747334
 21
17825.193884
 31
0.0
  0
LINE
  5
4402
  8
2-0
  6
CONTINUOUS
 62
     3
 10
18230.753932
 20
17807.198080999991
 30
0.0
 11
18255.747334
 21
17807.198080999991
 31
0.0
  0
LINE
  5
4403
  8
2-0
  6
CONTINUOUS
 62
     3
 10
18230.753932
 20
17812.186468
 30
0.0
 11
18230.753932
 21
17807.198080999991
 31
0.0
  0
LINE
  5
4404
  8
2-0
  6
CONTINUOUS
 62
     3
 10
18237.75152999998
 20
17812.186468
 30
0.0
 11
18230.753932
 21
17812.186468
 31
0.0
  0
LINE
  5
4405
  8
2-0
  6
CONTINUOUS
 62
     3
 10
18237.75152999998
 20
18513.192405999991
 30
0.0
 11
18230.753932
 21
18513.192405999991
 31
0.0
  0
LINE
  5
4406
  8
2-0
  6
CONTINUOUS
 62
     3
 10
18230.753932
 20
18513.192405999991
 30
0.0
 11
18230.753932
 21
18508.186204000001
 31
0.0
  0
LINE
  5
4407
  8
2-0
  6
CONTINUOUS
 62
     3
 10
18230.753932
 20
18508.186204000001
 30
0.0
 11
18255.747334
 21
18508.186204000001
 31
0.0
  0
LINE
  5
4408
  8
2-0
  6
CONTINUOUS
 62
     3
 10
18255.747334
 20
18508.186204000001
 30
0.0
 11
18255.747334
 21
18526.187945999991
 31
0.0
  0
LINE
  5
4409
  8
2-0
  6
CONTINUOUS
 62
     3
 10
18255.747334
 20
18526.187945999991
 30
0.0
 11
18225.749708999982
 21
18526.187945999991
 31
0.0
  0
LINE
  5
440A
  8
2-0
  6
CONTINUOUS
 62
     3
 10
18255.747334
 20
18510.096439000012
 30
0.0
 11
18255.747334
 21
18516.092401000002
 31
0.0
  0
LINE
  5
440B
  8
2-0
  6
CONTINUOUS
 62
     3
 10
18255.747334
 20
18516.092401000002
 30
0.0
 11
18225.749708999982
 21
18516.092401000002
 31
0.0
  0
LINE
  5
440C
  8
2-0
  6
CONTINUOUS
 62
     3
 10
18225.749708999982
 20
18479.093218999991
 30
0.0
 11
18225.749708999982
 21
18516.092401000002
 31
0.0
  0
LINE
  5
440D
  8
2-0
  6
CONTINUOUS
 62
     3
 10
18255.747334
 20
18479.093218999991
 30
0.0
 11
18225.749708999982
 21
18479.093218999991
 31
0.0
  0
LINE
  5
440E
  8
2-0
  6
CONTINUOUS
 62
     3
 10
18255.747334
 20
18485.089180999981
 30
0.0
 11
18255.747334
 21
18479.093218999991
 31
0.0
  0
LINE
  5
440F
  8
2-0
  6
CONTINUOUS
 62
     3
 10
18255.747334
 20
18468.997673999991
 30
0.0
 11
18225.749708999982
 21
18468.997673999991
 31
0.0
  0
LINE
  5
4410
  8
2-0
  6
CONTINUOUS
 62
     3
 10
18255.747334
 20
18486.999415999991
 30
0.0
 11
18255.747334
 21
18468.997673999991
 31
0.0
  0
LINE
  5
4411
  8
2-0
  6
CONTINUOUS
 62
     3
 10
18230.753932
 20
18486.999415999991
 30
0.0
 11
18255.747334
 21
18486.999415999991
 31
0.0
  0
LINE
  5
4412
  8
2-0
  6
CONTINUOUS
 62
     3
 10
18230.753932
 20
18481.993213999991
 30
0.0
 11
18230.753932
 21
18486.999415999991
 31
0.0
  0
LINE
  5
4413
  8
2-0
  6
CONTINUOUS
 62
     3
 10
18237.75152999998
 20
18481.993213999991
 30
0.0
 11
18230.753932
 21
18481.993213999991
 31
0.0
  0
LINE
  5
4414
  8
2-0
  6
CONTINUOUS
 62
     3
 10
18237.75152999998
 20
19214.187457499978
 30
0.0
 11
18230.753932
 21
19214.187457499978
 31
0.0
  0
LINE
  5
4415
  8
2-0
  6
CONTINUOUS
 62
     3
 10
18230.753932
 20
19214.187457499978
 30
0.0
 11
18230.753932
 21
19209.187193500002
 31
0.0
  0
LINE
  5
4416
  8
2-0
  6
CONTINUOUS
 62
     3
 10
18230.753932
 20
19209.187193500002
 30
0.0
 11
18255.747334
 21
19209.187193500002
 31
0.0
  0
LINE
  5
4417
  8
2-0
  6
CONTINUOUS
 62
     3
 10
18255.747334
 20
19209.187193500002
 30
0.0
 11
18255.747334
 21
19227.188935499991
 31
0.0
  0
LINE
  5
4418
  8
2-0
  6
CONTINUOUS
 62
     3
 10
18255.747334
 20
19227.188935499991
 30
0.0
 11
18225.749708999982
 21
19227.188935499991
 31
0.0
  0
LINE
  5
4419
  8
2-0
  6
CONTINUOUS
 62
     3
 10
18255.747334
 20
19211.089510499991
 30
0.0
 11
18255.747334
 21
19217.093390499998
 31
0.0
  0
LINE
  5
441A
  8
2-0
  6
CONTINUOUS
 62
     3
 10
18255.747334
 20
19217.093390499998
 30
0.0
 11
18225.749708999982
 21
19217.093390499998
 31
0.0
  0
LINE
  5
441B
  8
2-0
  6
CONTINUOUS
 62
     3
 10
18225.749708999982
 20
19180.092229499991
 30
0.0
 11
18225.749708999982
 21
19217.093390499998
 31
0.0
  0
LINE
  5
441C
  8
2-0
  6
CONTINUOUS
 62
     3
 10
18255.747334
 20
19180.092229499991
 30
0.0
 11
18225.749708999982
 21
19180.092229499991
 31
0.0
  0
LINE
  5
441D
  8
2-0
  6
CONTINUOUS
 62
     3
 10
18255.747334
 20
19186.090170499981
 30
0.0
 11
18255.747334
 21
19180.092229499991
 31
0.0
  0
LINE
  5
441E
  8
2-0
  6
CONTINUOUS
 62
     3
 10
18255.747334
 20
19169.998663499991
 30
0.0
 11
18225.749708999982
 21
19169.998663499991
 31
0.0
  0
LINE
  5
441F
  8
2-0
  6
CONTINUOUS
 62
     3
 10
18255.747334
 20
19187.994467500001
 30
0.0
 11
18255.747334
 21
19169.998663499991
 31
0.0
  0
LINE
  5
4420
  8
2-0
  6
CONTINUOUS
 62
     3
 10
18230.753932
 20
19187.994467500001
 30
0.0
 11
18255.747334
 21
19187.994467500001
 31
0.0
  0
LINE
  5
4421
  8
2-0
  6
CONTINUOUS
 62
     3
 10
18230.753932
 20
19182.994203499991
 30
0.0
 11
18230.753932
 21
19187.994467500001
 31
0.0
  0
LINE
  5
4422
  8
2-0
  6
CONTINUOUS
 62
     3
 10
18237.75152999998
 20
19182.994203499991
 30
0.0
 11
18230.753932
 21
19182.994203499991
 31
0.0
  0
LINE
  5
4423
  8
2-0
  6
CONTINUOUS
 62
     3
 10
18237.75152999998
 20
19886.791026000021
 30
0.0
 11
18230.753932
 21
19886.791026000021
 31
0.0
  0
LINE
  5
4424
  8
2-0
  6
CONTINUOUS
 62
     3
 10
18230.753932
 20
19886.791026000021
 30
0.0
 11
18230.753932
 21
19891.799208000019
 31
0.0
  0
LINE
  5
4425
  8
2-0
  6
CONTINUOUS
 62
     3
 10
18230.753932
 20
19891.799208000019
 30
0.0
 11
18255.747334
 21
19891.799208000019
 31
0.0
  0
LINE
  5
4426
  8
2-0
  6
CONTINUOUS
 62
     3
 10
18255.747334
 20
19891.799208000019
 30
0.0
 11
18255.747334
 21
19873.797466
 31
0.0
  0
LINE
  5
4427
  8
2-0
  6
CONTINUOUS
 62
     3
 10
18255.747334
 20
19873.797466
 30
0.0
 11
18225.749708999982
 21
19873.797466
 31
0.0
  0
LINE
  5
4428
  8
2-0
  6
CONTINUOUS
 62
     3
 10
18225.749708999982
 20
19914.094526000001
 30
0.0
 11
18306.747650000001
 21
19914.094526000001
 31
0.0
  0
LINE
  5
4429
  8
2-0
  6
CONTINUOUS
 62
     3
 10
18225.749708999982
 20
19884.094922000018
 30
0.0
 11
18225.749708999982
 21
19999.091095000022
 31
0.0
  0
LINE
  5
442A
  8
2-0
  6
CONTINUOUS
 62
     3
 10
18255.747334
 20
19884.094922000018
 30
0.0
 11
18225.749708999982
 21
19884.094922000018
 31
0.0
  0
LINE
  5
442B
  8
2-0
  6
CONTINUOUS
 62
     3
 10
18255.747334
 20
19890.090884000001
 30
0.0
 11
18255.747334
 21
19884.094922000018
 31
0.0
  0
LINE
  5
442C
  8
2-0
  6
CONTINUOUS
 62
     3
 10
20750.15186799999
 20
19999.091095000022
 30
0.0
 11
20106.3401595
 21
19999.091095000022
 31
0.0
  0
LINE
  5
442D
  8
2-0
  6
CONTINUOUS
 62
     3
 10
18704.545040000001
 20
19999.091095000022
 30
0.0
 11
19348.150878500001
 21
19999.091095000022
 31
0.0
  0
LINE
  5
442E
  8
2-0
  6
CONTINUOUS
 62
     3
 10
19405.3411495
 20
19999.091095000022
 30
0.0
 11
20049.15186849999
 21
19999.091095000022
 31
0.0
  0
LINE
  5
442F
  8
2-0
  6
CONTINUOUS
 62
     3
 10
20093.3347225
 20
19987.091253000021
 30
0.0
 11
20093.3347225
 21
19994.096769000011
 31
0.0
  0
LINE
  5
4430
  8
2-0
  6
CONTINUOUS
 62
     3
 10
20093.3347225
 20
19994.096769000011
 30
0.0
 11
20088.344356499991
 21
19994.096769000011
 31
0.0
  0
LINE
  5
4431
  8
2-0
  6
CONTINUOUS
 62
     3
 10
20088.344356499991
 20
19994.096769000011
 30
0.0
 11
20088.344356499991
 21
19969.087532000009
 31
0.0
  0
LINE
  5
4432
  8
2-0
  6
CONTINUOUS
 62
     3
 10
20088.344356499991
 20
19969.087532000009
 30
0.0
 11
20106.3401595
 21
19969.087532000009
 31
0.0
  0
LINE
  5
4433
  8
2-0
  6
CONTINUOUS
 62
     3
 10
20106.3401595
 20
19969.087532000009
 30
0.0
 11
20106.3401595
 21
19999.091095000022
 31
0.0
  0
LINE
  5
4434
  8
2-0
  6
CONTINUOUS
 62
     3
 10
20090.2407355
 20
19969.087532000009
 30
0.0
 11
20096.2465945
 21
19969.087532000009
 31
0.0
  0
LINE
  5
4435
  8
2-0
  6
CONTINUOUS
 62
     3
 10
20096.2465945
 20
19969.087532000009
 30
0.0
 11
20096.2465945
 21
19999.091095000022
 31
0.0
  0
LINE
  5
4436
  8
2-0
  6
CONTINUOUS
 62
     3
 10
20096.2465945
 20
19999.091095000022
 30
0.0
 11
20059.245433499989
 21
19999.091095000022
 31
0.0
  0
LINE
  5
4437
  8
2-0
  6
CONTINUOUS
 62
     3
 10
20059.245433499989
 20
19969.087532000009
 30
0.0
 11
20059.245433499989
 21
19999.091095000022
 31
0.0
  0
LINE
  5
4438
  8
2-0
  6
CONTINUOUS
 62
     3
 10
20065.243374500002
 20
19969.087532000009
 30
0.0
 11
20059.245433499989
 21
19969.087532000009
 31
0.0
  0
LINE
  5
4439
  8
2-0
  6
CONTINUOUS
 62
     3
 10
20049.15186849999
 20
19969.087532000009
 30
0.0
 11
20049.15186849999
 21
19999.091095000022
 31
0.0
  0
LINE
  5
443A
  8
2-0
  6
CONTINUOUS
 62
     3
 10
20067.145691500002
 20
19969.087532000009
 30
0.0
 11
20049.15186849999
 21
19969.087532000009
 31
0.0
  0
LINE
  5
443B
  8
2-0
  6
CONTINUOUS
 62
     3
 10
20067.145691500002
 20
19994.096769000011
 30
0.0
 11
20067.145691500002
 21
19969.087532000009
 31
0.0
  0
LINE
  5
443C
  8
2-0
  6
CONTINUOUS
 62
     3
 10
20062.1454285
 20
19994.096769000011
 30
0.0
 11
20067.145691500002
 21
19994.096769000011
 31
0.0
  0
LINE
  5
443D
  8
2-0
  6
CONTINUOUS
 62
     3
 10
20062.1454285
 20
19987.091253000021
 30
0.0
 11
20062.1454285
 21
19994.096769000011
 31
0.0
  0
LINE
  5
443E
  8
2-0
  6
CONTINUOUS
 62
     3
 10
19361.1464175
 20
19987.091253000021
 30
0.0
 11
19361.1464175
 21
19994.096769000011
 31
0.0
  0
LINE
  5
443F
  8
2-0
  6
CONTINUOUS
 62
     3
 10
19361.1464175
 20
19994.096769000011
 30
0.0
 11
19366.146681499999
 21
19994.096769000011
 31
0.0
  0
LINE
  5
4440
  8
2-0
  6
CONTINUOUS
 62
     3
 10
19366.146681499999
 20
19994.096769000011
 30
0.0
 11
19366.146681499999
 21
19969.087532000009
 31
0.0
  0
LINE
  5
4441
  8
2-0
  6
CONTINUOUS
 62
     3
 10
19366.146681499999
 20
19969.087532000009
 30
0.0
 11
19348.150878500001
 21
19969.087532000009
 31
0.0
  0
LINE
  5
4442
  8
2-0
  6
CONTINUOUS
 62
     3
 10
19348.150878500001
 20
19969.087532000009
 30
0.0
 11
19348.150878500001
 21
19999.091095000022
 31
0.0
  0
LINE
  5
4443
  8
2-0
  6
CONTINUOUS
 62
     3
 10
19364.24040549999
 20
19969.087532000009
 30
0.0
 11
19358.24642349999
 21
19969.087532000009
 31
0.0
  0
LINE
  5
4444
  8
2-0
  6
CONTINUOUS
 62
     3
 10
19358.24642349999
 20
19969.087532000009
 30
0.0
 11
19358.24642349999
 21
19999.091095000022
 31
0.0
  0
LINE
  5
4445
  8
2-0
  6
CONTINUOUS
 62
     3
 10
19358.24642349999
 20
19999.091095000022
 30
0.0
 11
19395.245604499989
 21
19999.091095000022
 31
0.0
  0
LINE
  5
4446
  8
2-0
  6
CONTINUOUS
 62
     3
 10
19395.245604499989
 20
19969.087532000009
 30
0.0
 11
19395.245604499989
 21
19999.091095000022
 31
0.0
  0
LINE
  5
4447
  8
2-0
  6
CONTINUOUS
 62
     3
 10
19389.243704500001
 20
19969.087532000009
 30
0.0
 11
19395.245604499989
 21
19969.087532000009
 31
0.0
  0
LINE
  5
4448
  8
2-0
  6
CONTINUOUS
 62
     3
 10
19405.3411495
 20
19969.087532000009
 30
0.0
 11
19405.3411495
 21
19999.091095000022
 31
0.0
  0
LINE
  5
4449
  8
2-0
  6
CONTINUOUS
 62
     3
 10
19387.335448500002
 20
19969.087532000009
 30
0.0
 11
19405.3411495
 21
19969.087532000009
 31
0.0
  0
LINE
  5
444A
  8
2-0
  6
CONTINUOUS
 62
     3
 10
19387.335448500002
 20
19994.096769000011
 30
0.0
 11
19387.335448500002
 21
19969.087532000009
 31
0.0
  0
LINE
  5
444B
  8
2-0
  6
CONTINUOUS
 62
     3
 10
19392.3357125
 20
19994.096769000011
 30
0.0
 11
19387.335448500002
 21
19994.096769000011
 31
0.0
  0
LINE
  5
444C
  8
2-0
  6
CONTINUOUS
 62
     3
 10
19392.3357125
 20
19987.091253000021
 30
0.0
 11
19392.3357125
 21
19994.096769000011
 31
0.0
  0
LINE
  5
444D
  8
2-0
  6
CONTINUOUS
 62
     3
 10
18334.747940999991
 20
19969.087532000009
 30
0.0
 11
18340.751820000001
 21
19969.087532000009
 31
0.0
  0
LINE
  5
444E
  8
2-0
  6
CONTINUOUS
 62
     3
 10
18340.751820000001
 20
19969.087532000009
 30
0.0
 11
18340.751820000001
 21
19999.091095000022
 31
0.0
  0
LINE
  5
444F
  8
2-0
  6
CONTINUOUS
 62
     3
 10
18340.751820000001
 20
19999.091095000022
 30
0.0
 11
18225.749708999982
 21
19999.091095000022
 31
0.0
  0
LINE
  5
4450
  8
2-0
  6
CONTINUOUS
 62
     3
 10
18351.051255999992
 20
19969.087532000009
 30
0.0
 11
18351.051255999992
 21
19999.091095000022
 31
0.0
  0
LINE
  5
4451
  8
2-0
  6
CONTINUOUS
 62
     3
 10
18333.043575
 20
19969.087532000009
 30
0.0
 11
18351.051255999992
 21
19969.087532000009
 31
0.0
  0
LINE
  5
4452
  8
2-0
  6
CONTINUOUS
 62
     3
 10
18333.043575
 20
19994.096769000011
 30
0.0
 11
18333.043575
 21
19969.087532000009
 31
0.0
  0
LINE
  5
4453
  8
2-0
  6
CONTINUOUS
 62
     3
 10
18338.045818999992
 20
19994.096769000011
 30
0.0
 11
18333.043575
 21
19994.096769000011
 31
0.0
  0
LINE
  5
4454
  8
2-0
  6
CONTINUOUS
 62
     3
 10
18338.045818999992
 20
19987.091253000021
 30
0.0
 11
18338.045818999992
 21
19994.096769000011
 31
0.0
  0
LINE
  5
4455
  8
2-0
  6
CONTINUOUS
 62
     3
 10
18237.75152999998
 20
19886.791026000021
 30
0.0
 11
18230.753932
 21
19886.791026000021
 31
0.0
  0
LINE
  5
4456
  8
2-0
  6
CONTINUOUS
 62
     3
 10
18230.753932
 20
19886.791026000021
 30
0.0
 11
18230.753932
 21
19891.799208000019
 31
0.0
  0
LINE
  5
4457
  8
2-0
  6
CONTINUOUS
 62
     3
 10
18230.753932
 20
19891.799208000019
 30
0.0
 11
18255.747334
 21
19891.799208000019
 31
0.0
  0
LINE
  5
4458
  8
2-0
  6
CONTINUOUS
 62
     3
 10
18255.747334
 20
19891.799208000019
 30
0.0
 11
18255.747334
 21
19873.797466
 31
0.0
  0
LINE
  5
4459
  8
2-0
  6
CONTINUOUS
 62
     3
 10
18255.747334
 20
19873.797466
 30
0.0
 11
18225.749708999982
 21
19873.797466
 31
0.0
  0
LINE
  5
445A
  8
2-0
  6
CONTINUOUS
 62
     3
 10
18225.749708999982
 20
19914.094526000001
 30
0.0
 11
18306.747650000001
 21
19914.094526000001
 31
0.0
  0
LINE
  5
445B
  8
2-0
  6
CONTINUOUS
 62
     3
 10
18225.749708999982
 20
19884.094922000018
 30
0.0
 11
18225.749708999982
 21
19999.091095000022
 31
0.0
  0
LINE
  5
445C
  8
2-0
  6
CONTINUOUS
 62
     3
 10
18255.747334
 20
19884.094922000018
 30
0.0
 11
18225.749708999982
 21
19884.094922000018
 31
0.0
  0
LINE
  5
445D
  8
2-0
  6
CONTINUOUS
 62
     3
 10
18255.747334
 20
19890.090884000001
 30
0.0
 11
18255.747334
 21
19884.094922000018
 31
0.0
  0
LINE
  5
445E
  8
2-0
  6
CONTINUOUS
 62
     3
 10
20760.245432999989
 20
19969.087532000009
 30
0.0
 11
20760.245432999989
 21
19999.091095000022
 31
0.0
  0
LINE
  5
445F
  8
2-0
  6
CONTINUOUS
 62
     3
 10
20766.245353999999
 20
19969.087532000009
 30
0.0
 11
20760.245432999989
 21
19969.087532000009
 31
0.0
  0
LINE
  5
4460
  8
2-0
  6
CONTINUOUS
 62
     3
 10
20750.15186799999
 20
19969.087532000009
 30
0.0
 11
20750.15186799999
 21
19999.091095000022
 31
0.0
  0
LINE
  5
4461
  8
2-0
  6
CONTINUOUS
 62
     3
 10
20768.151631000001
 20
19969.087532000009
 30
0.0
 11
20750.15186799999
 21
19969.087532000009
 31
0.0
  0
LINE
  5
4462
  8
2-0
  6
CONTINUOUS
 62
     3
 10
20768.151631000001
 20
19994.096769000011
 30
0.0
 11
20768.151631000001
 21
19969.087532000009
 31
0.0
  0
LINE
  5
4463
  8
2-0
  6
CONTINUOUS
 62
     3
 10
20763.151366999991
 20
19994.096769000011
 30
0.0
 11
20768.151631000001
 21
19994.096769000011
 31
0.0
  0
LINE
  5
4464
  8
2-0
  6
CONTINUOUS
 62
     3
 10
20763.151366999991
 20
19987.091253000021
 30
0.0
 11
20763.151366999991
 21
19994.096769000011
 31
0.0
  0
LINE
  5
4465
  8
2-0
  6
CONTINUOUS
 62
     3
 10
20794.340661999999
 20
19987.091253000021
 30
0.0
 11
20794.340661999999
 21
19994.096769000011
 31
0.0
  0
LINE
  5
4466
  8
2-0
  6
CONTINUOUS
 62
     3
 10
20794.340661999999
 20
19994.096769000011
 30
0.0
 11
20789.340398
 21
19994.096769000011
 31
0.0
  0
LINE
  5
4467
  8
2-0
  6
CONTINUOUS
 62
     3
 10
20789.340398
 20
19994.096769000011
 30
0.0
 11
20789.340398
 21
19969.087532000009
 31
0.0
  0
LINE
  5
4468
  8
2-0
  6
CONTINUOUS
 62
     3
 10
20789.340398
 20
19969.087532000009
 30
0.0
 11
20807.344119000001
 21
19969.087532000009
 31
0.0
  0
LINE
  5
4469
  8
2-0
  6
CONTINUOUS
 62
     3
 10
20807.344119000001
 20
19969.087532000009
 30
0.0
 11
20807.344119000001
 21
19999.091095000022
 31
0.0
  0
LINE
  5
446A
  8
2-0
  6
CONTINUOUS
 62
     3
 10
20791.24667399998
 20
19969.087532000009
 30
0.0
 11
20797.24659499999
 21
19969.087532000009
 31
0.0
  0
LINE
  5
446B
  8
2-0
  6
CONTINUOUS
 62
     3
 10
20797.24659499999
 20
19969.087532000009
 30
0.0
 11
20797.24659499999
 21
19999.091095000022
 31
0.0
  0
LINE
  5
446C
  8
2-0
  6
CONTINUOUS
 62
     3
 10
20797.24659499999
 20
19999.091095000022
 30
0.0
 11
20760.245432999989
 21
19999.091095000022
 31
0.0
  0
LINE
  5
446D
  8
2-0
  6
CONTINUOUS
 62
     6
 10
23222.979174999971
 20
18360.49630200001
 30
0.0
 11
23199.420923999991
 21
18408.347204000002
 31
0.0
  0
LINE
  5
446E
  8
2-0
  6
CONTINUOUS
 62
     6
 10
23222.979174999971
 20
18360.49630200001
 30
0.0
 11
23354.739891000001
 21
18455.091555999981
 31
0.0
  0
LINE
  5
446F
  8
2-0
  6
CONTINUOUS
 62
     6
 10
23199.420923999991
 20
18408.347204000002
 30
0.0
 11
23354.739891000001
 21
18455.091555999981
 31
0.0
  0
LINE
  5
4470
  8
2-0
  6
CONTINUOUS
 62
     6
 10
23354.739891000001
 20
18455.091555999981
 30
0.0
 11
23199.420923999991
 21
18408.347204000002
 31
0.0
  0
LINE
  5
4471
  8
2-0
  6
CONTINUOUS
 62
     6
 10
23222.979174999971
 20
18360.49630200001
 30
0.0
 11
23354.739891000001
 21
18455.091555999981
 31
0.0
  0
LINE
  5
4472
  8
2-0
  6
CONTINUOUS
 62
     6
 10
23199.420923999991
 20
18408.347204000002
 30
0.0
 11
23222.979174999971
 21
18360.49630200001
 31
0.0
  0
LINE
  5
4473
  8
2-0
  6
CONTINUOUS
 62
     6
 10
23354.739891000001
 20
18455.091555999981
 30
0.0
 11
23222.979174999971
 21
18360.49630200001
 31
0.0
  0
LINE
  5
4474
  8
2-0
  6
CONTINUOUS
 62
     6
 10
23199.420923999991
 20
18408.347204000002
 30
0.0
 11
23354.739891000001
 21
18455.091555999981
 31
0.0
  0
LINE
  5
4475
  8
2-0
  6
CONTINUOUS
 62
     6
 10
23140.791542999988
 20
17117.373269000022
 30
0.0
 11
23157.969805000001
 21
17167.866829000021
 31
0.0
  0
LINE
  5
4476
  8
2-0
  6
CONTINUOUS
 62
     6
 10
23140.791542999988
 20
17117.373269000022
 30
0.0
 11
23300.853436000001
 21
17091.091199999999
 31
0.0
  0
LINE
  5
4477
  8
2-0
  6
CONTINUOUS
 62
     6
 10
23157.969805000001
 20
17167.866829000021
 30
0.0
 11
23300.853436000001
 21
17091.091199999999
 31
0.0
  0
LINE
  5
4478
  8
2-0
  6
CONTINUOUS
 62
     6
 10
23300.853436000001
 20
17091.091199999999
 30
0.0
 11
23157.969805000001
 21
17167.866829000021
 31
0.0
  0
LINE
  5
4479
  8
2-0
  6
CONTINUOUS
 62
     6
 10
23140.791542999988
 20
17117.373269000022
 30
0.0
 11
23300.853436000001
 21
17091.091199999999
 31
0.0
  0
LINE
  5
447A
  8
2-0
  6
CONTINUOUS
 62
     6
 10
23157.969805000001
 20
17167.866829000021
 30
0.0
 11
23140.791542999988
 21
17117.373269000022
 31
0.0
  0
LINE
  5
447B
  8
2-0
  6
CONTINUOUS
 62
     6
 10
23300.853436000001
 20
17091.091199999999
 30
0.0
 11
23140.791542999988
 21
17117.373269000022
 31
0.0
  0
LINE
  5
447C
  8
2-0
  6
CONTINUOUS
 62
     6
 10
23157.969805000001
 20
17167.866829000021
 30
0.0
 11
23300.853436000001
 21
17091.091199999999
 31
0.0
  0
LINE
  5
447D
  8
2-0
  6
CONTINUOUS
 62
     6
 10
23316.909310999981
 20
16629.441733000011
 30
0.0
 11
23291.906011999981
 21
16676.548337000011
 31
0.0
  0
LINE
  5
447E
  8
2-0
  6
CONTINUOUS
 62
     6
 10
23316.909310999981
 20
16629.441733000011
 30
0.0
 11
23445.744297999991
 21
16727.98216800002
 31
0.0
  0
LINE
  5
447F
  8
2-0
  6
CONTINUOUS
 62
     6
 10
23291.906011999981
 20
16676.548337000011
 30
0.0
 11
23445.744297999991
 21
16727.98216800002
 31
0.0
  0
LINE
  5
4480
  8
2-0
  6
CONTINUOUS
 62
     6
 10
23445.744297999991
 20
16727.98216800002
 30
0.0
 11
23291.906011999981
 21
16676.548337000011
 31
0.0
  0
LINE
  5
4481
  8
2-0
  6
CONTINUOUS
 62
     6
 10
23316.909310999981
 20
16629.441733000011
 30
0.0
 11
23445.744297999991
 21
16727.98216800002
 31
0.0
  0
LINE
  5
4482
  8
2-0
  6
CONTINUOUS
 62
     6
 10
23291.906011999981
 20
16676.548337000011
 30
0.0
 11
23316.909310999981
 21
16629.441733000011
 31
0.0
  0
LINE
  5
4483
  8
2-0
  6
CONTINUOUS
 62
     6
 10
23445.744297999991
 20
16727.98216800002
 30
0.0
 11
23316.909310999981
 21
16629.441733000011
 31
0.0
  0
LINE
  5
4484
  8
2-0
  6
CONTINUOUS
 62
     6
 10
23291.906011999981
 20
16676.548337000011
 30
0.0
 11
23445.744297999991
 21
16727.98216800002
 31
0.0
  0
LINE
  5
4485
  8
2-0
  6
CONTINUOUS
 62
     6
 10
23209.009711999988
 20
13898.174590000001
 30
0.0
 11
23232.142366
 21
13946.22740399999
 31
0.0
  0
LINE
  5
4486
  8
2-0
  6
CONTINUOUS
 62
     6
 10
23209.009711999988
 20
13898.174590000001
 30
0.0
 11
23364.742397999991
 21
13852.79907599999
 31
0.0
  0
LINE
  5
4487
  8
2-0
  6
CONTINUOUS
 62
     6
 10
23232.142366
 20
13946.22740399999
 30
0.0
 11
23364.742397999991
 21
13852.79907599999
 31
0.0
  0
LINE
  5
4488
  8
2-0
  6
CONTINUOUS
 62
     6
 10
23364.742397999991
 20
13852.79907599999
 30
0.0
 11
23232.142366
 21
13946.22740399999
 31
0.0
  0
LINE
  5
4489
  8
2-0
  6
CONTINUOUS
 62
     6
 10
23209.009711999988
 20
13898.174590000001
 30
0.0
 11
23364.742397999991
 21
13852.79907599999
 31
0.0
  0
LINE
  5
448A
  8
2-0
  6
CONTINUOUS
 62
     6
 10
23232.142366
 20
13946.22740399999
 30
0.0
 11
23209.009711999988
 21
13898.174590000001
 31
0.0
  0
LINE
  5
448B
  8
2-0
  6
CONTINUOUS
 62
     6
 10
23364.742397999991
 20
13852.79907599999
 30
0.0
 11
23209.009711999988
 21
13898.174590000001
 31
0.0
  0
LINE
  5
448C
  8
2-0
  6
CONTINUOUS
 62
     6
 10
23232.142366
 20
13946.22740399999
 30
0.0
 11
23364.742397999991
 21
13852.79907599999
 31
0.0
  0
LINE
  5
448D
  8
2-0
  6
CONTINUOUS
 62
     6
 10
23206.923299999991
 20
13581.71093399999
 30
0.0
 11
23169.106576999991
 21
13619.32277699999
 31
0.0
  0
LINE
  5
448E
  8
2-0
  6
CONTINUOUS
 62
     6
 10
23206.923299999991
 20
13581.71093399999
 30
0.0
 11
23300.853436000001
 21
13713.949704000001
 31
0.0
  0
LINE
  5
448F
  8
2-0
  6
CONTINUOUS
 62
     6
 10
23169.106576999991
 20
13619.32277699999
 30
0.0
 11
23300.853436000001
 21
13713.949704000001
 31
0.0
  0
LINE
  5
4490
  8
2-0
  6
CONTINUOUS
 62
     6
 10
23300.853436000001
 20
13713.949704000001
 30
0.0
 11
23169.106576999991
 21
13619.32277699999
 31
0.0
  0
LINE
  5
4491
  8
2-0
  6
CONTINUOUS
 62
     6
 10
23206.923299999991
 20
13581.71093399999
 30
0.0
 11
23300.853436000001
 21
13713.949704000001
 31
0.0
  0
LINE
  5
4492
  8
2-0
  6
CONTINUOUS
 62
     6
 10
23169.106576999991
 20
13619.32277699999
 30
0.0
 11
23206.923299999991
 21
13581.71093399999
 31
0.0
  0
LINE
  5
4493
  8
2-0
  6
CONTINUOUS
 62
     6
 10
23300.853436000001
 20
13713.949704000001
 30
0.0
 11
23206.923299999991
 21
13581.71093399999
 31
0.0
  0
LINE
  5
4494
  8
2-0
  6
CONTINUOUS
 62
     6
 10
23169.106576999991
 20
13619.32277699999
 30
0.0
 11
23300.853436000001
 21
13713.949704000001
 31
0.0
  0
LINE
  5
4495
  8
2-0
  6
CONTINUOUS
 62
     6
 10
23222.979174999971
 20
15442.74275200002
 30
0.0
 11
23199.420923999991
 21
15490.587716
 31
0.0
  0
LINE
  5
4496
  8
2-0
  6
CONTINUOUS
 62
     6
 10
23222.979174999971
 20
15442.74275200002
 30
0.0
 11
23354.739891000001
 21
15537.33503700001
 31
0.0
  0
LINE
  5
4497
  8
2-0
  6
CONTINUOUS
 62
     6
 10
23199.420923999991
 20
15490.587716
 30
0.0
 11
23354.739891000001
 21
15537.33503700001
 31
0.0
  0
LINE
  5
4498
  8
2-0
  6
CONTINUOUS
 62
     6
 10
23354.739891000001
 20
15537.33503700001
 30
0.0
 11
23199.420923999991
 21
15490.587716
 31
0.0
  0
LINE
  5
4499
  8
2-0
  6
CONTINUOUS
 62
     6
 10
23222.979174999971
 20
15442.74275200002
 30
0.0
 11
23354.739891000001
 21
15537.33503700001
 31
0.0
  0
LINE
  5
449A
  8
2-0
  6
CONTINUOUS
 62
     6
 10
23199.420923999991
 20
15490.587716
 30
0.0
 11
23222.979174999971
 21
15442.74275200002
 31
0.0
  0
LINE
  5
449B
  8
2-0
  6
CONTINUOUS
 62
     6
 10
23354.739891000001
 20
15537.33503700001
 30
0.0
 11
23222.979174999971
 21
15442.74275200002
 31
0.0
  0
LINE
  5
449C
  8
2-0
  6
CONTINUOUS
 62
     6
 10
23199.420923999991
 20
15490.587716
 30
0.0
 11
23354.739891000001
 21
15537.33503700001
 31
0.0
  0
LINE
  5
449D
  8
2-0
  6
CONTINUOUS
 62
     4
 10
21536.746014
 20
20079.093338000021
 30
0.0
 11
21536.746014
 21
20809.090303000001
 31
0.0
  0
LINE
  5
449E
  8
2-0
  6
CONTINUOUS
 62
     6
 10
21578.169419999998
 20
19880.339775000019
 30
0.0
 11
21595.79307399999
 21
19719.09413000002
 31
0.0
  0
LINE
  5
449F
  8
2-0
  6
CONTINUOUS
 62
     6
 10
21647.143765000001
 20
19733.528780000011
 30
0.0
 11
21578.169419999998
 21
19880.339775000019
 31
0.0
  0
LINE
  5
44A0
  8
2-0
  6
CONTINUOUS
 62
     6
 10
21595.79307399999
 20
19719.09413000002
 30
0.0
 11
21578.169419999998
 21
19880.339775000019
 31
0.0
  0
LINE
  5
44A1
  8
2-0
  6
CONTINUOUS
 62
     6
 10
21647.143765000001
 20
19733.528780000011
 30
0.0
 11
21578.169419999998
 21
19880.339775000019
 31
0.0
  0
LINE
  5
44A2
  8
2-0
  6
CONTINUOUS
 62
     6
 10
21578.169419999998
 20
19880.339775000019
 30
0.0
 11
21647.143765000001
 21
19733.528780000011
 31
0.0
  0
LINE
  5
44A3
  8
2-0
  6
CONTINUOUS
 62
     6
 10
21595.79307399999
 20
19719.09413000002
 30
0.0
 11
21578.169419999998
 21
19880.339775000019
 31
0.0
  0
LINE
  5
44A4
  8
2-0
  6
CONTINUOUS
 62
     6
 10
21647.143765000001
 20
19733.528780000011
 30
0.0
 11
21595.79307399999
 21
19719.09413000002
 31
0.0
  0
LINE
  5
44A5
  8
2-0
  6
CONTINUOUS
 62
     6
 10
21595.79307399999
 20
19719.09413000002
 30
0.0
 11
21647.143765000001
 21
19733.528780000011
 31
0.0
  0
LINE
  5
44A6
  8
2-0
  6
CONTINUOUS
 62
     6
 10
21727.03911500001
 20
19350.717599000011
 30
0.0
 11
22752.083323999999
 21
19350.717599000011
 31
0.0
  0
LINE
  5
44A7
  8
2-0
  6
CONTINUOUS
 62
     6
 10
21578.169419999998
 20
19880.339775000019
 30
0.0
 11
21727.03911500001
 21
19350.717599000011
 31
0.0
  0
LINE
  5
44A8
  8
2-0
  6
CONTINUOUS
 62
     6
 10
20135.009315999989
 20
19744.101388000021
 30
0.0
 11
20186.354069000001
 21
19758.539997000022
 31
0.0
  0
LINE
  5
44A9
  8
2-0
  6
CONTINUOUS
 62
     6
 10
20135.009315999989
 20
19744.101388000021
 30
0.0
 11
20117.38764200002
 21
19905.347033000009
 31
0.0
  0
LINE
  5
44AA
  8
2-0
  6
CONTINUOUS
 62
     6
 10
20186.354069000001
 20
19758.539997000022
 30
0.0
 11
20117.38764200002
 21
19905.347033000009
 31
0.0
  0
LINE
  5
44AB
  8
2-0
  6
CONTINUOUS
 62
     6
 10
20117.38764200002
 20
19905.347033000009
 30
0.0
 11
20186.354069000001
 21
19758.539997000022
 31
0.0
  0
LINE
  5
44AC
  8
2-0
  6
CONTINUOUS
 62
     6
 10
20135.009315999989
 20
19744.101388000021
 30
0.0
 11
20117.38764200002
 21
19905.347033000009
 31
0.0
  0
LINE
  5
44AD
  8
2-0
  6
CONTINUOUS
 62
     6
 10
20186.354069000001
 20
19758.539997000022
 30
0.0
 11
20135.009315999989
 21
19744.101388000021
 31
0.0
  0
LINE
  5
44AE
  8
2-0
  6
CONTINUOUS
 62
     6
 10
20117.38764200002
 20
19905.347033000009
 30
0.0
 11
20135.009315999989
 21
19744.101388000021
 31
0.0
  0
LINE
  5
44AF
  8
2-0
  6
CONTINUOUS
 62
     6
 10
20292.614625999999
 20
19281.972878
 30
0.0
 11
21317.652896999982
 21
19281.972878
 31
0.0
  0
LINE
  5
44B0
  8
2-0
  6
CONTINUOUS
 62
     6
 10
20160.681692999999
 20
19751.318713000011
 30
0.0
 11
20292.614625999999
 21
19281.972878
 31
0.0
  0
LINE
  5
44B1
  8
2-0
  6
CONTINUOUS
 62
     6
 10
23578.154296000001
 20
20159.824045000008
 30
0.0
 11
23617.402210999979
 21
20123.709708000009
 31
0.0
  0
LINE
  5
44B2
  8
2-0
  6
CONTINUOUS
 62
     6
 10
23578.154296000001
 20
20159.824045000008
 30
0.0
 11
23489.440191000002
 21
20024.027090000021
 31
0.0
  0
LINE
  5
44B3
  8
2-0
  6
CONTINUOUS
 62
     6
 10
23617.402210999979
 20
20123.709708000009
 30
0.0
 11
23489.440191000002
 21
20024.027090000021
 31
0.0
  0
LINE
  5
44B4
  8
2-0
  6
CONTINUOUS
 62
     6
 10
23489.440191000002
 20
20024.027090000021
 30
0.0
 11
23617.402210999979
 21
20123.709708000009
 31
0.0
  0
LINE
  5
44B5
  8
2-0
  6
CONTINUOUS
 62
     6
 10
23578.154296000001
 20
20159.824045000008
 30
0.0
 11
23489.440191000002
 21
20024.027090000021
 31
0.0
  0
LINE
  5
44B6
  8
2-0
  6
CONTINUOUS
 62
     6
 10
23617.402210999979
 20
20123.709708000009
 30
0.0
 11
23578.154296000001
 21
20159.824045000008
 31
0.0
  0
LINE
  5
44B7
  8
2-0
  6
CONTINUOUS
 62
     6
 10
23489.440191000002
 20
20024.027090000021
 30
0.0
 11
23578.154296000001
 21
20159.824045000008
 31
0.0
  0
LINE
  5
44B8
  8
2-0
  6
CONTINUOUS
 62
     6
 10
23617.402210999979
 20
20123.709708000009
 30
0.0
 11
23489.440191000002
 21
20024.027090000021
 31
0.0
  0
LINE
  5
44B9
  8
2-0
  6
CONTINUOUS
 62
     6
 10
23289.265334
 20
19068.439463499992
 30
0.0
 11
23263.159443
 21
19114.9522115
 31
0.0
  0
LINE
  5
44BA
  8
2-0
  6
CONTINUOUS
 62
     6
 10
23289.265334
 20
19068.439463499992
 30
0.0
 11
23415.746674000002
 21
19169.998663499991
 31
0.0
  0
LINE
  5
44BB
  8
2-0
  6
CONTINUOUS
 62
     6
 10
23263.159443
 20
19114.9522115
 30
0.0
 11
23415.746674000002
 21
19169.998663499991
 31
0.0
  0
LINE
  5
44BC
  8
2-0
  6
CONTINUOUS
 62
     6
 10
23415.746674000002
 20
19169.998663499991
 30
0.0
 11
23263.159443
 21
19114.9522115
 31
0.0
  0
LINE
  5
44BD
  8
2-0
  6
CONTINUOUS
 62
     6
 10
23289.265334
 20
19068.439463499992
 30
0.0
 11
23415.746674000002
 21
19169.998663499991
 31
0.0
  0
LINE
  5
44BE
  8
2-0
  6
CONTINUOUS
 62
     6
 10
23263.159443
 20
19114.9522115
 30
0.0
 11
23289.265334
 21
19068.439463499992
 31
0.0
  0
LINE
  5
44BF
  8
2-0
  6
CONTINUOUS
 62
     6
 10
23415.746674000002
 20
19169.998663499991
 30
0.0
 11
23289.265334
 21
19068.439463499992
 31
0.0
  0
LINE
  5
44C0
  8
2-0
  6
CONTINUOUS
 62
     6
 10
23263.159443
 20
19114.9522115
 30
0.0
 11
23415.746674000002
 21
19169.998663499991
 31
0.0
  0
LINE
  5
44C1
  8
2-0
  6
CONTINUOUS
 62
     6
 10
21388.38703500004
 20
13935.499403
 30
0.0
 11
21433.967430000019
 21
13963.18692899999
 31
0.0
  0
LINE
  5
44C2
  8
2-0
  6
CONTINUOUS
 62
     6
 10
21388.38703500004
 20
13935.499403
 30
0.0
 11
21494.24575000002
 21
13812.59109399999
 31
0.0
  0
LINE
  5
44C3
  8
2-0
  6
CONTINUOUS
 62
     6
 10
21433.967430000019
 20
13963.18692899999
 30
0.0
 11
21494.24575000002
 21
13812.59109399999
 31
0.0
  0
LINE
  5
44C4
  8
2-0
  6
CONTINUOUS
 62
     6
 10
21494.24575000002
 20
13812.59109399999
 30
0.0
 11
21433.967430000019
 21
13963.18692899999
 31
0.0
  0
LINE
  5
44C5
  8
2-0
  6
CONTINUOUS
 62
     6
 10
21388.38703500004
 20
13935.499403
 30
0.0
 11
21494.24575000002
 21
13812.59109399999
 31
0.0
  0
LINE
  5
44C6
  8
2-0
  6
CONTINUOUS
 62
     6
 10
21433.967430000019
 20
13963.18692899999
 30
0.0
 11
21388.38703500004
 21
13935.499403
 31
0.0
  0
LINE
  5
44C7
  8
2-0
  6
CONTINUOUS
 62
     6
 10
21494.24575000002
 20
13812.59109399999
 30
0.0
 11
21388.38703500004
 21
13935.499403
 31
0.0
  0
LINE
  5
44C8
  8
2-0
  6
CONTINUOUS
 62
     6
 10
21433.967430000019
 20
13963.18692899999
 30
0.0
 11
21494.24575000002
 21
13812.59109399999
 31
0.0
  0
LINE
  5
44C9
  8
2-0
  6
CONTINUOUS
 62
     3
 10
23354.739891000001
 20
15622.09109399999
 30
0.0
 11
23354.739891000001
 21
15537.094526000001
 31
0.0
  0
LINE
  5
44CA
  8
2-0
  6
CONTINUOUS
 62
     3
 10
23401.745538999981
 20
15597.089775
 30
0.0
 11
23401.745538999981
 21
15622.09109399999
 31
0.0
  0
LINE
  5
44CB
  8
2-0
  6
CONTINUOUS
 62
     3
 10
23401.745538999981
 20
15537.094526000001
 30
0.0
 11
23401.745538999981
 21
15562.08990700001
 31
0.0
  0
LINE
  5
44CC
  8
2-0
  6
CONTINUOUS
 62
     3
 10
23401.745538999981
 20
15622.09109399999
 30
0.0
 11
23354.739891000001
 21
15622.09109399999
 31
0.0
  0
LINE
  5
44CD
  8
2-0
  6
CONTINUOUS
 62
     3
 10
23354.739891000001
 20
15537.094526000001
 30
0.0
 11
23401.745538999981
 21
15537.094526000001
 31
0.0
  0
LINE
  5
44CE
  8
2-0
  6
CONTINUOUS
 62
     3
 10
23445.744297999991
 20
16251.9922305
 30
0.0
 11
23445.744297999991
 21
15608.428457000011
 31
0.0
  0
LINE
  5
44CF
  8
2-0
  6
CONTINUOUS
 62
     3
 10
23354.739891000001
 20
18540.092084
 30
0.0
 11
23354.739891000001
 21
18455.091555999981
 31
0.0
  0
LINE
  5
44D0
  8
2-0
  6
CONTINUOUS
 62
     3
 10
23401.745538999981
 20
18515.09076399999
 30
0.0
 11
23401.745538999981
 21
18540.092084
 31
0.0
  0
LINE
  5
44D1
  8
2-0
  6
CONTINUOUS
 62
     3
 10
23401.745538999981
 20
18455.091555999981
 30
0.0
 11
23401.745538999981
 21
18480.09485500001
 31
0.0
  0
LINE
  5
44D2
  8
2-0
  6
CONTINUOUS
 62
     3
 10
23401.745538999981
 20
18540.092084
 30
0.0
 11
23354.739891000001
 21
18540.092084
 31
0.0
  0
LINE
  5
44D3
  8
2-0
  6
CONTINUOUS
 62
     3
 10
23354.739891000001
 20
18455.091555999981
 30
0.0
 11
23401.745538999981
 21
18455.091555999981
 31
0.0
  0
LINE
  5
44D4
  8
2-0
  6
CONTINUOUS
 62
     6
 10
21217.655536999999
 20
14267.935794000001
 30
0.0
 11
20187.306218000031
 21
14267.935794000001
 31
0.0
  0
LINE
  5
44D5
  8
2-0
  6
CONTINUOUS
 62
     6
 10
21494.24575000002
 20
13812.59109399999
 30
0.0
 11
21217.655536999999
 21
14267.935794000001
 31
0.0
  0
LINE
  5
44D6
  8
2-0
  6
CONTINUOUS
 62
     6
 10
23597.785181999981
 20
20141.770835000028
 30
0.0
 11
24138.249180999988
 21
20729.093998000018
 31
0.0
  0
LINE
  5
44D7
  8
2-0
  6
CONTINUOUS
 62
     6
 10
23276.216347999991
 20
19091.692867500002
 30
0.0
 11
22844.685256000001
 21
18849.538359499991
 31
0.0
  0
LINE
  5
44D8
  8
2-0
  6
CONTINUOUS
 62
     3
 10
21609.247862
 20
19999.091095000022
 30
0.0
 11
21464.256044000002
 21
19999.091095000022
 31
0.0
  0
LINE
  5
44D9
  8
2-0
  6
CONTINUOUS
 62
     3
 10
21579.24627800001
 20
19911.200470000022
 30
0.0
 11
21494.253668000001
 21
19911.200470000022
 31
0.0
  0
LINE
  5
44DA
  8
2-0
  6
CONTINUOUS
 62
     3
 10
21464.256044000002
 20
19999.091095000022
 30
0.0
 11
21464.256044000002
 21
19969.087532000009
 31
0.0
  0
LINE
  5
44DB
  8
2-0
  6
CONTINUOUS
 62
     3
 10
21464.256044000002
 20
19969.087532000009
 30
0.0
 11
21470.252004999991
 21
19969.087532000009
 31
0.0
  0
LINE
  5
44DC
  8
2-0
  6
CONTINUOUS
 62
     3
 10
21494.253668000001
 20
19911.200470000022
 30
0.0
 11
21494.253668000001
 21
19996.199018000021
 31
0.0
  0
LINE
  5
44DD
  8
2-0
  6
CONTINUOUS
 62
     3
 10
21494.253668000001
 20
19996.199018000021
 30
0.0
 11
21514.248784999989
 21
19996.199018000021
 31
0.0
  0
LINE
  5
44DE
  8
2-0
  6
CONTINUOUS
 62
     3
 10
21454.633603999991
 20
19969.087532000009
 30
0.0
 11
21454.633603999991
 21
19999.091095000022
 31
0.0
  0
LINE
  5
44DF
  8
2-0
  6
CONTINUOUS
 62
     3
 10
21472.635345999988
 20
19969.087532000009
 30
0.0
 11
21454.633603999991
 21
19969.087532000009
 31
0.0
  0
LINE
  5
44E0
  8
2-0
  6
CONTINUOUS
 62
     3
 10
21472.635345999988
 20
19994.096769000011
 30
0.0
 11
21472.635345999988
 21
19969.087532000009
 31
0.0
  0
LINE
  5
44E1
  8
2-0
  6
CONTINUOUS
 62
     3
 10
21467.635082000001
 20
19994.096769000011
 30
0.0
 11
21472.635345999988
 21
19994.096769000011
 31
0.0
  0
LINE
  5
44E2
  8
2-0
  6
CONTINUOUS
 62
     3
 10
21467.635082000001
 20
19987.091253000021
 30
0.0
 11
21467.635082000001
 21
19994.096769000011
 31
0.0
  0
LINE
  5
44E3
  8
2-0
  6
CONTINUOUS
 62
     3
 10
21559.24918100001
 20
19996.199018000021
 30
0.0
 11
21579.24627800001
 21
19996.199018000021
 31
0.0
  0
LINE
  5
44E4
  8
2-0
  6
CONTINUOUS
 62
     3
 10
21579.24627800001
 20
19996.199018000021
 30
0.0
 11
21579.24627800001
 21
19911.200470000022
 31
0.0
  0
LINE
  5
44E5
  8
2-0
  6
CONTINUOUS
 62
     3
 10
21605.86288500001
 20
19987.091253000021
 30
0.0
 11
21605.86288500001
 21
19994.096769000011
 31
0.0
  0
LINE
  5
44E6
  8
2-0
  6
CONTINUOUS
 62
     3
 10
21605.86288500001
 20
19994.096769000011
 30
0.0
 11
21600.862620999989
 21
19994.096769000011
 31
0.0
  0
LINE
  5
44E7
  8
2-0
  6
CONTINUOUS
 62
     3
 10
21600.862620999989
 20
19994.096769000011
 30
0.0
 11
21600.862620999989
 21
19969.087532000009
 31
0.0
  0
LINE
  5
44E8
  8
2-0
  6
CONTINUOUS
 62
     3
 10
21600.862620999989
 20
19969.087532000009
 30
0.0
 11
21618.864363000001
 21
19969.087532000009
 31
0.0
  0
LINE
  5
44E9
  8
2-0
  6
CONTINUOUS
 62
     3
 10
21618.864363000001
 20
19969.087532000009
 30
0.0
 11
21618.864363000001
 21
19999.091095000022
 31
0.0
  0
LINE
  5
44EA
  8
2-0
  6
CONTINUOUS
 62
     3
 10
21609.247862
 20
19969.087532000009
 30
0.0
 11
21603.249919999991
 21
19969.087532000009
 31
0.0
  0
LINE
  5
44EB
  8
2-0
  6
CONTINUOUS
 62
     3
 10
21609.247862
 20
19999.091095000022
 30
0.0
 11
21609.247862
 21
19969.087532000009
 31
0.0
  0
LINE
  5
44EC
  8
2-0
  6
CONTINUOUS
 62
     6
 10
24138.249180999988
 20
20729.093998000018
 30
0.0
 11
25338.243242999972
 21
20729.093998000018
 31
0.0
  0
LINE
  5
44ED
  8
2-0
  6
CONTINUOUS
 62
     3
 10
23445.744297999991
 20
18526.187946000009
 30
0.0
 11
23445.744297999991
 21
19169.998663499991
 31
0.0
  0
LINE
  5
44EE
  8
2-0
  6
CENTER2
 62
     6
 10
23403.246014
 20
13530.097956999991
 30
0.0
 11
23403.246014
 21
15036.46671500001
 31
0.0
  0
LINE
  5
44EF
  8
2-0
  6
CONTINUOUS
 62
     3
 10
23415.746674000002
 20
13852.630816999999
 30
0.0
 11
23445.744297999991
 21
13852.630816999999
 31
0.0
  0
LINE
  5
44F0
  8
2-0
  6
CONTINUOUS
 62
     3
 10
23415.746674000002
 20
13834.63204399998
 30
0.0
 11
23415.746674000002
 21
13852.630816999999
 31
0.0
  0
LINE
  5
44F1
  8
2-0
  6
CONTINUOUS
 62
     3
 10
23440.744033999999
 20
13834.63204399998
 30
0.0
 11
23415.746674000002
 21
13834.63204399998
 31
0.0
  0
LINE
  5
44F2
  8
2-0
  6
CONTINUOUS
 62
     3
 10
23440.744033999999
 20
13839.62933899999
 30
0.0
 11
23440.744033999999
 21
13834.63204399998
 31
0.0
  0
LINE
  5
44F3
  8
2-0
  6
CONTINUOUS
 62
     3
 10
23433.742477000011
 20
13839.62933899999
 30
0.0
 11
23440.744033999999
 21
13839.62933899999
 31
0.0
  0
LINE
  5
44F4
  8
2-0
  6
CONTINUOUS
 62
     3
 10
23360.745749999998
 20
13812.59109399999
 30
0.0
 11
23392.744667999999
 21
13812.59109399999
 31
0.0
  0
LINE
  5
44F5
  8
2-0
  6
CONTINUOUS
 62
     3
 10
23360.745749999998
 20
13727.595515000001
 30
0.0
 11
23360.745749999998
 21
13812.59109399999
 31
0.0
  0
LINE
  5
44F6
  8
2-0
  6
CONTINUOUS
 62
     3
 10
23445.744297999991
 20
13727.595515000001
 30
0.0
 11
23360.745749999998
 21
13727.595515000001
 31
0.0
  0
LINE
  5
44F7
  8
2-0
  6
CONTINUOUS
 62
     3
 10
23445.744297999991
 20
13842.599606
 30
0.0
 11
23445.744297999991
 21
13727.595515000001
 31
0.0
  0
LINE
  5
44F8
  8
2-0
  6
CONTINUOUS
 62
     3
 10
23415.746674000002
 20
13842.599606
 30
0.0
 11
23445.744297999991
 21
13842.599606
 31
0.0
  0
LINE
  5
44F9
  8
2-0
  6
CONTINUOUS
 62
     3
 10
23415.746674000002
 20
13836.594736999999
 30
0.0
 11
23415.746674000002
 21
13842.599606
 31
0.0
  0
LINE
  5
44FA
  8
2-0
  6
CONTINUOUS
 62
     3
 10
23433.742477000011
 20
14894.191911000011
 30
0.0
 11
23440.744033999999
 21
14894.191911000011
 31
0.0
  0
LINE
  5
44FB
  8
2-0
  6
CONTINUOUS
 62
     3
 10
23440.744033999999
 20
14894.191911000011
 30
0.0
 11
23440.744033999999
 21
14889.18669800001
 31
0.0
  0
LINE
  5
44FC
  8
2-0
  6
CONTINUOUS
 62
     3
 10
23440.744033999999
 20
14889.18669800001
 30
0.0
 11
23415.746674000002
 21
14889.18669800001
 31
0.0
  0
LINE
  5
44FD
  8
2-0
  6
CONTINUOUS
 62
     3
 10
23415.746674000002
 20
14889.18669800001
 30
0.0
 11
23415.746674000002
 21
14907.193389
 31
0.0
  0
LINE
  5
44FE
  8
2-0
  6
CONTINUOUS
 62
     3
 10
23415.746674000002
 20
14907.193389
 30
0.0
 11
23445.744297999991
 21
14907.193389
 31
0.0
  0
LINE
  5
44FF
  8
2-0
  6
CONTINUOUS
 62
     3
 10
23415.746674000002
 20
14891.09594399999
 30
0.0
 11
23415.746674000002
 21
14897.09289599998
 31
0.0
  0
LINE
  5
4500
  8
2-0
  6
CONTINUOUS
 62
     3
 10
23415.746674000002
 20
14897.09289599998
 30
0.0
 11
23445.744297999991
 21
14897.09289599998
 31
0.0
  0
LINE
  5
4501
  8
2-0
  6
CONTINUOUS
 62
     3
 10
23445.744297999991
 20
14860.092724
 30
0.0
 11
23445.744297999991
 21
14897.09289599998
 31
0.0
  0
LINE
  5
4502
  8
2-0
  6
CONTINUOUS
 62
     3
 10
23415.746674000002
 20
14860.092724
 30
0.0
 11
23445.744297999991
 21
14860.092724
 31
0.0
  0
LINE
  5
4503
  8
2-0
  6
CONTINUOUS
 62
     3
 10
23415.746674000002
 20
14866.095614000011
 30
0.0
 11
23415.746674000002
 21
14860.092724
 31
0.0
  0
LINE
  5
4504
  8
2-0
  6
CONTINUOUS
 62
     3
 10
23415.746674000002
 20
14849.997179
 30
0.0
 11
23445.744297999991
 21
14849.997179
 31
0.0
  0
LINE
  5
4505
  8
2-0
  6
CONTINUOUS
 62
     3
 10
23415.746674000002
 20
14867.992983
 30
0.0
 11
23415.746674000002
 21
14849.997179
 31
0.0
  0
LINE
  5
4506
  8
2-0
  6
CONTINUOUS
 62
     3
 10
23440.744033999999
 20
14867.992983
 30
0.0
 11
23415.746674000002
 21
14867.992983
 31
0.0
  0
LINE
  5
4507
  8
2-0
  6
CONTINUOUS
 62
     3
 10
23440.744033999999
 20
14862.998657
 30
0.0
 11
23440.744033999999
 21
14867.992983
 31
0.0
  0
LINE
  5
4508
  8
2-0
  6
CONTINUOUS
 62
     3
 10
23433.742477000011
 20
14862.998657
 30
0.0
 11
23440.744033999999
 21
14862.998657
 31
0.0
  0
LINE
  5
4509
  8
2-0
  6
CONTINUOUS
 62
     6
 10
21819.652924000002
 20
18849.538359499991
 30
0.0
 11
22844.685256000001
 21
18849.538359499991
 31
0.0
  0
LINE
  5
450A
  8
2-0
  6
CONTINUOUS
 62
     3
 10
23357.86159099999
 20
17081.091093999999
 30
0.0
 11
23357.86159099999
 21
16996.094526000012
 31
0.0
  0
LINE
  5
450B
  8
2-0
  6
CONTINUOUS
 62
     3
 10
23445.744297999991
 20
17111.090697999989
 30
0.0
 11
23445.744297999991
 21
16966.088983000001
 31
0.0
  0
LINE
  5
450C
  8
2-0
  6
CONTINUOUS
 62
     3
 10
23445.744297999991
 20
16956.480400000011
 30
0.0
 11
23445.744297999991
 21
16309.188440499989
 31
0.0
  0
LINE
  5
450D
  8
2-0
  6
CONTINUOUS
 62
     3
 10
23433.742477000011
 20
15564.23966400001
 30
0.0
 11
23440.744033999999
 21
15564.23966400001
 31
0.0
  0
LINE
  5
450E
  8
2-0
  6
CONTINUOUS
 62
     3
 10
23440.744033999999
 20
15564.23966400001
 30
0.0
 11
23440.744033999999
 21
15569.239928000001
 31
0.0
  0
LINE
  5
450F
  8
2-0
  6
CONTINUOUS
 62
     3
 10
23440.744033999999
 20
15569.239928000001
 30
0.0
 11
23415.746674000002
 21
15569.239928000001
 31
0.0
  0
LINE
  5
4510
  8
2-0
  6
CONTINUOUS
 62
     3
 10
23415.746674000002
 20
15569.239928000001
 30
0.0
 11
23415.746674000002
 21
15551.232246999991
 31
0.0
  0
LINE
  5
4511
  8
2-0
  6
CONTINUOUS
 62
     3
 10
23415.746674000002
 20
15551.232246999991
 30
0.0
 11
23445.744297999991
 21
15551.232246999991
 31
0.0
  0
LINE
  5
4512
  8
2-0
  6
CONTINUOUS
 62
     3
 10
23415.746674000002
 20
15567.330681999991
 30
0.0
 11
23415.746674000002
 21
15561.33373100001
 31
0.0
  0
LINE
  5
4513
  8
2-0
  6
CONTINUOUS
 62
     3
 10
23415.746674000002
 20
15561.33373100001
 30
0.0
 11
23445.744297999991
 21
15561.33373100001
 31
0.0
  0
LINE
  5
4514
  8
2-0
  6
CONTINUOUS
 62
     3
 10
23445.744297999991
 20
15561.33373100001
 30
0.0
 11
23445.744297999991
 21
15598.33291200002
 31
0.0
  0
LINE
  5
4515
  8
2-0
  6
CONTINUOUS
 62
     3
 10
23415.746674000002
 20
15598.33291200002
 30
0.0
 11
23445.744297999991
 21
15598.33291200002
 31
0.0
  0
LINE
  5
4516
  8
2-0
  6
CONTINUOUS
 62
     3
 10
23415.746674000002
 20
15592.33101200001
 30
0.0
 11
23415.746674000002
 21
15598.33291200002
 31
0.0
  0
LINE
  5
4517
  8
2-0
  6
CONTINUOUS
 62
     3
 10
23415.746674000002
 20
15608.428457000011
 30
0.0
 11
23445.744297999991
 21
15608.428457000011
 31
0.0
  0
LINE
  5
4518
  8
2-0
  6
CONTINUOUS
 62
     3
 10
23415.746674000002
 20
15590.432654
 30
0.0
 11
23415.746674000002
 21
15608.428457000011
 31
0.0
  0
LINE
  5
4519
  8
2-0
  6
CONTINUOUS
 62
     3
 10
23440.744033999999
 20
15590.432654
 30
0.0
 11
23415.746674000002
 21
15590.432654
 31
0.0
  0
LINE
  5
451A
  8
2-0
  6
CONTINUOUS
 62
     3
 10
23440.744033999999
 20
15595.426979000011
 30
0.0
 11
23440.744033999999
 21
15590.432654
 31
0.0
  0
LINE
  5
451B
  8
2-0
  6
CONTINUOUS
 62
     3
 10
23433.742477000011
 20
15595.426979000011
 30
0.0
 11
23440.744033999999
 21
15595.426979000011
 31
0.0
  0
LINE
  5
451C
  8
2-0
  6
CONTINUOUS
 62
     3
 10
23433.742477000011
 20
16296.1869625
 30
0.0
 11
23440.744033999999
 21
16296.1869625
 31
0.0
  0
LINE
  5
451D
  8
2-0
  6
CONTINUOUS
 62
     3
 10
23440.744033999999
 20
16296.1869625
 30
0.0
 11
23440.744033999999
 21
16291.18075949999
 31
0.0
  0
LINE
  5
451E
  8
2-0
  6
CONTINUOUS
 62
     3
 10
23440.744033999999
 20
16291.18075949999
 30
0.0
 11
23415.746674000002
 21
16291.18075949999
 31
0.0
  0
LINE
  5
451F
  8
2-0
  6
CONTINUOUS
 62
     3
 10
23415.746674000002
 20
16291.18075949999
 30
0.0
 11
23415.746674000002
 21
16309.188440499989
 31
0.0
  0
LINE
  5
4520
  8
2-0
  6
CONTINUOUS
 62
     3
 10
23415.746674000002
 20
16309.188440499989
 30
0.0
 11
23445.744297999991
 21
16309.188440499989
 31
0.0
  0
LINE
  5
4521
  8
2-0
  6
CONTINUOUS
 62
     3
 10
23415.746674000002
 20
16293.0900055
 30
0.0
 11
23415.746674000002
 21
16299.0928955
 31
0.0
  0
LINE
  5
4522
  8
2-0
  6
CONTINUOUS
 62
     3
 10
23415.746674000002
 20
16299.0928955
 30
0.0
 11
23445.744297999991
 21
16299.0928955
 31
0.0
  0
LINE
  5
4523
  8
2-0
  6
CONTINUOUS
 62
     3
 10
23445.744297999991
 20
16262.0927245
 30
0.0
 11
23445.744297999991
 21
16299.0928955
 31
0.0
  0
LINE
  5
4524
  8
2-0
  6
CONTINUOUS
 62
     3
 10
23415.746674000002
 20
16262.0927245
 30
0.0
 11
23445.744297999991
 21
16262.0927245
 31
0.0
  0
LINE
  5
4525
  8
2-0
  6
CONTINUOUS
 62
     3
 10
23415.746674000002
 20
16268.08967549999
 30
0.0
 11
23415.746674000002
 21
16262.0927245
 31
0.0
  0
LINE
  5
4526
  8
2-0
  6
CONTINUOUS
 62
     3
 10
23415.746674000002
 20
16251.9922305
 30
0.0
 11
23445.744297999991
 21
16251.9922305
 31
0.0
  0
LINE
  5
4527
  8
2-0
  6
CONTINUOUS
 62
     3
 10
23415.746674000002
 20
16269.99397249998
 30
0.0
 11
23415.746674000002
 21
16251.9922305
 31
0.0
  0
LINE
  5
4528
  8
2-0
  6
CONTINUOUS
 62
     3
 10
23440.744033999999
 20
16269.99397249998
 30
0.0
 11
23415.746674000002
 21
16269.99397249998
 31
0.0
  0
LINE
  5
4529
  8
2-0
  6
CONTINUOUS
 62
     3
 10
23440.744033999999
 20
16264.99370849998
 30
0.0
 11
23440.744033999999
 21
16269.99397249998
 31
0.0
  0
LINE
  5
452A
  8
2-0
  6
CONTINUOUS
 62
     3
 10
23433.742477000011
 20
16264.99370849998
 30
0.0
 11
23440.744033999999
 21
16264.99370849998
 31
0.0
  0
LINE
  5
452B
  8
2-0
  6
CONTINUOUS
 62
     3
 10
23433.742477000011
 20
16969.475939000011
 30
0.0
 11
23440.744033999999
 21
16969.475939000011
 31
0.0
  0
LINE
  5
452C
  8
2-0
  6
CONTINUOUS
 62
     3
 10
23440.744033999999
 20
16969.475939000011
 30
0.0
 11
23440.744033999999
 21
16974.476202999998
 31
0.0
  0
LINE
  5
452D
  8
2-0
  6
CONTINUOUS
 62
     3
 10
23440.744033999999
 20
16974.476202999998
 30
0.0
 11
23415.746674000002
 21
16974.476202999998
 31
0.0
  0
LINE
  5
452E
  8
2-0
  6
CONTINUOUS
 62
     3
 10
23415.746674000002
 20
16974.476202999998
 30
0.0
 11
23415.746674000002
 21
16956.480400000011
 31
0.0
  0
LINE
  5
452F
  8
2-0
  6
CONTINUOUS
 62
     3
 10
23415.746674000002
 20
16956.480400000011
 30
0.0
 11
23445.744297999991
 21
16956.480400000011
 31
0.0
  0
LINE
  5
4530
  8
2-0
  6
CONTINUOUS
 62
     3
 10
23442.858160000011
 20
16996.094526000012
 30
0.0
 11
23442.858160000011
 21
17016.08964300001
 31
0.0
  0
LINE
  5
4531
  8
2-0
  6
CONTINUOUS
 62
     3
 10
23357.86159099999
 20
16996.094526000012
 30
0.0
 11
23442.858160000011
 21
16996.094526000012
 31
0.0
  0
LINE
  5
4532
  8
2-0
  6
CONTINUOUS
 62
     3
 10
23415.746674000002
 20
16966.088983000001
 30
0.0
 11
23415.746674000002
 21
16972.090883000012
 31
0.0
  0
LINE
  5
4533
  8
2-0
  6
CONTINUOUS
 62
     3
 10
23445.744297999991
 20
16966.088983000001
 30
0.0
 11
23415.746674000002
 21
16966.088983000001
 31
0.0
  0
LINE
  5
4534
  8
2-0
  6
CONTINUOUS
 62
     3
 10
23445.744297999991
 20
17825.193884
 30
0.0
 11
23445.744297999991
 21
18468.997673999991
 31
0.0
  0
LINE
  5
4535
  8
2-0
  6
CONTINUOUS
 62
     3
 10
23445.744297999991
 20
17120.699282000001
 30
0.0
 11
23445.744297999991
 21
17768.003613000012
 31
0.0
  0
LINE
  5
4536
  8
2-0
  6
CONTINUOUS
 62
     3
 10
23445.744297999991
 20
17111.090697999989
 30
0.0
 11
23415.746674000002
 21
17111.090697999989
 31
0.0
  0
LINE
  5
4537
  8
2-0
  6
CONTINUOUS
 62
     3
 10
23415.746674000002
 20
17111.090697999989
 30
0.0
 11
23415.746674000002
 21
17105.088798000001
 31
0.0
  0
LINE
  5
4538
  8
2-0
  6
CONTINUOUS
 62
     3
 10
23415.746674000002
 20
17120.699282000001
 30
0.0
 11
23445.744297999991
 21
17120.699282000001
 31
0.0
  0
LINE
  5
4539
  8
2-0
  6
CONTINUOUS
 62
     3
 10
23415.746674000002
 20
17102.70347800001
 30
0.0
 11
23415.746674000002
 21
17120.699282000001
 31
0.0
  0
LINE
  5
453A
  8
2-0
  6
CONTINUOUS
 62
     3
 10
23440.744033999999
 20
17102.70347800001
 30
0.0
 11
23415.746674000002
 21
17102.70347800001
 31
0.0
  0
LINE
  5
453B
  8
2-0
  6
CONTINUOUS
 62
     3
 10
23440.744033999999
 20
17107.69780400001
 30
0.0
 11
23440.744033999999
 21
17102.70347800001
 31
0.0
  0
LINE
  5
453C
  8
2-0
  6
CONTINUOUS
 62
     3
 10
23433.742477000011
 20
17107.69780400001
 30
0.0
 11
23440.744033999999
 21
17107.69780400001
 31
0.0
  0
LINE
  5
453D
  8
2-0
  6
CONTINUOUS
 62
     3
 10
23442.858160000011
 20
17081.091093999999
 30
0.0
 11
23357.86159099999
 21
17081.091093999999
 31
0.0
  0
LINE
  5
453E
  8
2-0
  6
CONTINUOUS
 62
     3
 10
23442.858160000011
 20
17061.090038999992
 30
0.0
 11
23442.858160000011
 21
17081.091093999999
 31
0.0
  0
LINE
  5
453F
  8
2-0
  6
CONTINUOUS
 62
     3
 10
23433.742477000011
 20
17780.999153000012
 30
0.0
 11
23440.744033999999
 21
17780.999153000012
 31
0.0
  0
LINE
  5
4540
  8
2-0
  6
CONTINUOUS
 62
     3
 10
23440.744033999999
 20
17780.999153000012
 30
0.0
 11
23440.744033999999
 21
17785.999415999999
 31
0.0
  0
LINE
  5
4541
  8
2-0
  6
CONTINUOUS
 62
     3
 10
23440.744033999999
 20
17785.999415999999
 30
0.0
 11
23415.746674000002
 21
17785.999415999999
 31
0.0
  0
LINE
  5
4542
  8
2-0
  6
CONTINUOUS
 62
     3
 10
23415.746674000002
 20
17785.999415999999
 30
0.0
 11
23415.746674000002
 21
17768.003613000012
 31
0.0
  0
LINE
  5
4543
  8
2-0
  6
CONTINUOUS
 62
     3
 10
23415.746674000002
 20
17768.003613000012
 30
0.0
 11
23445.744297999991
 21
17768.003613000012
 31
0.0
  0
LINE
  5
4544
  8
2-0
  6
CONTINUOUS
 62
     3
 10
23415.746674000002
 20
17784.095120000002
 30
0.0
 11
23415.746674000002
 21
17778.093218999991
 31
0.0
  0
LINE
  5
4545
  8
2-0
  6
CONTINUOUS
 62
     3
 10
23415.746674000002
 20
17778.093218999991
 30
0.0
 11
23445.744297999991
 21
17778.093218999991
 31
0.0
  0
LINE
  5
4546
  8
2-0
  6
CONTINUOUS
 62
     3
 10
23445.744297999991
 20
17815.092401000002
 30
0.0
 11
23445.744297999991
 21
17778.093218999991
 31
0.0
  0
LINE
  5
4547
  8
2-0
  6
CONTINUOUS
 62
     3
 10
23415.746674000002
 20
17815.092401000002
 30
0.0
 11
23445.744297999991
 21
17815.092401000002
 31
0.0
  0
LINE
  5
4548
  8
2-0
  6
CONTINUOUS
 62
     3
 10
23415.746674000002
 20
17809.096439000012
 30
0.0
 11
23415.746674000002
 21
17815.092401000002
 31
0.0
  0
LINE
  5
4549
  8
2-0
  6
CONTINUOUS
 62
     3
 10
23415.746674000002
 20
17825.193884
 30
0.0
 11
23445.744297999991
 21
17825.193884
 31
0.0
  0
LINE
  5
454A
  8
2-0
  6
CONTINUOUS
 62
     3
 10
23415.746674000002
 20
17807.19808100001
 30
0.0
 11
23415.746674000002
 21
17825.193884
 31
0.0
  0
LINE
  5
454B
  8
2-0
  6
CONTINUOUS
 62
     3
 10
23440.744033999999
 20
17807.19808100001
 30
0.0
 11
23415.746674000002
 21
17807.19808100001
 31
0.0
  0
LINE
  5
454C
  8
2-0
  6
CONTINUOUS
 62
     3
 10
23440.744033999999
 20
17812.186468000011
 30
0.0
 11
23440.744033999999
 21
17807.19808100001
 31
0.0
  0
LINE
  5
454D
  8
2-0
  6
CONTINUOUS
 62
     3
 10
23433.742477000011
 20
17812.186468000011
 30
0.0
 11
23440.744033999999
 21
17812.186468000011
 31
0.0
  0
LINE
  5
454E
  8
2-0
  6
CONTINUOUS
 62
     3
 10
23433.742477000011
 20
18513.192405999991
 30
0.0
 11
23440.744033999999
 21
18513.192405999991
 31
0.0
  0
LINE
  5
454F
  8
2-0
  6
CONTINUOUS
 62
     3
 10
23440.744033999999
 20
18513.192405999991
 30
0.0
 11
23440.744033999999
 21
18508.186204000001
 31
0.0
  0
LINE
  5
4550
  8
2-0
  6
CONTINUOUS
 62
     3
 10
23440.744033999999
 20
18508.186204000001
 30
0.0
 11
23415.746674000002
 21
18508.186204000001
 31
0.0
  0
LINE
  5
4551
  8
2-0
  6
CONTINUOUS
 62
     3
 10
23415.746674000002
 20
18508.186204000001
 30
0.0
 11
23415.746674000002
 21
18526.187946000009
 31
0.0
  0
LINE
  5
4552
  8
2-0
  6
CONTINUOUS
 62
     3
 10
23415.746674000002
 20
18526.187946000009
 30
0.0
 11
23445.744297999991
 21
18526.187946000009
 31
0.0
  0
LINE
  5
4553
  8
2-0
  6
CONTINUOUS
 62
     3
 10
23415.746674000002
 20
18510.096439000012
 30
0.0
 11
23415.746674000002
 21
18516.092401000009
 31
0.0
  0
LINE
  5
4554
  8
2-0
  6
CONTINUOUS
 62
     3
 10
23415.746674000002
 20
18516.092401000009
 30
0.0
 11
23445.744297999991
 21
18516.092401000009
 31
0.0
  0
LINE
  5
4555
  8
2-0
  6
CONTINUOUS
 62
     3
 10
23445.744297999991
 20
18479.093218999991
 30
0.0
 11
23445.744297999991
 21
18516.092401000009
 31
0.0
  0
LINE
  5
4556
  8
2-0
  6
CONTINUOUS
 62
     3
 10
23415.746674000002
 20
18479.093218999991
 30
0.0
 11
23445.744297999991
 21
18479.093218999991
 31
0.0
  0
LINE
  5
4557
  8
2-0
  6
CONTINUOUS
 62
     3
 10
23415.746674000002
 20
18485.089180999981
 30
0.0
 11
23415.746674000002
 21
18479.093218999991
 31
0.0
  0
LINE
  5
4558
  8
2-0
  6
CONTINUOUS
 62
     3
 10
23415.746674000002
 20
18468.997673999991
 30
0.0
 11
23445.744297999991
 21
18468.997673999991
 31
0.0
  0
LINE
  5
4559
  8
2-0
  6
CONTINUOUS
 62
     3
 10
23415.746674000002
 20
18486.99941600001
 30
0.0
 11
23415.746674000002
 21
18468.997673999991
 31
0.0
  0
LINE
  5
455A
  8
2-0
  6
CONTINUOUS
 62
     3
 10
23440.744033999999
 20
18486.99941600001
 30
0.0
 11
23415.746674000002
 21
18486.99941600001
 31
0.0
  0
LINE
  5
455B
  8
2-0
  6
CONTINUOUS
 62
     3
 10
23440.744033999999
 20
18481.993213999991
 30
0.0
 11
23440.744033999999
 21
18486.99941600001
 31
0.0
  0
LINE
  5
455C
  8
2-0
  6
CONTINUOUS
 62
     3
 10
23433.742477000011
 20
18481.993213999991
 30
0.0
 11
23440.744033999999
 21
18481.993213999991
 31
0.0
  0
LINE
  5
455D
  8
2-0
  6
CONTINUOUS
 62
     3
 10
23433.742477000011
 20
19214.187457499989
 30
0.0
 11
23440.744033999999
 21
19214.187457499989
 31
0.0
  0
LINE
  5
455E
  8
2-0
  6
CONTINUOUS
 62
     3
 10
23440.744033999999
 20
19214.187457499989
 30
0.0
 11
23440.744033999999
 21
19209.187193500002
 31
0.0
  0
LINE
  5
455F
  8
2-0
  6
CONTINUOUS
 62
     3
 10
23440.744033999999
 20
19209.187193500002
 30
0.0
 11
23415.746674000002
 21
19209.187193500002
 31
0.0
  0
LINE
  5
4560
  8
2-0
  6
CONTINUOUS
 62
     3
 10
23415.746674000002
 20
19209.187193500002
 30
0.0
 11
23415.746674000002
 21
19227.188935499991
 31
0.0
  0
LINE
  5
4561
  8
2-0
  6
CONTINUOUS
 62
     3
 10
23415.746674000002
 20
19227.188935499991
 30
0.0
 11
23445.744297999991
 21
19227.188935499991
 31
0.0
  0
LINE
  5
4562
  8
2-0
  6
CONTINUOUS
 62
     3
 10
23415.746674000002
 20
19211.089510499991
 30
0.0
 11
23415.746674000002
 21
19217.093390499998
 31
0.0
  0
LINE
  5
4563
  8
2-0
  6
CONTINUOUS
 62
     3
 10
23415.746674000002
 20
19217.093390499998
 30
0.0
 11
23445.744297999991
 21
19217.093390499998
 31
0.0
  0
LINE
  5
4564
  8
2-0
  6
CONTINUOUS
 62
     3
 10
23445.744297999991
 20
19180.092229499991
 30
0.0
 11
23445.744297999991
 21
19217.093390499998
 31
0.0
  0
LINE
  5
4565
  8
2-0
  6
CONTINUOUS
 62
     3
 10
23415.746674000002
 20
19180.092229499991
 30
0.0
 11
23445.744297999991
 21
19180.092229499991
 31
0.0
  0
LINE
  5
4566
  8
2-0
  6
CONTINUOUS
 62
     3
 10
23415.746674000002
 20
19186.090170499981
 30
0.0
 11
23415.746674000002
 21
19180.092229499991
 31
0.0
  0
LINE
  5
4567
  8
2-0
  6
CONTINUOUS
 62
     3
 10
23415.746674000002
 20
19169.998663499991
 30
0.0
 11
23445.744297999991
 21
19169.998663499991
 31
0.0
  0
LINE
  5
4568
  8
2-0
  6
CONTINUOUS
 62
     3
 10
23415.746674000002
 20
19187.994467500001
 30
0.0
 11
23415.746674000002
 21
19169.998663499991
 31
0.0
  0
LINE
  5
4569
  8
2-0
  6
CONTINUOUS
 62
     3
 10
23440.744033999999
 20
19187.994467500001
 30
0.0
 11
23415.746674000002
 21
19187.994467500001
 31
0.0
  0
LINE
  5
456A
  8
2-0
  6
CONTINUOUS
 62
     3
 10
23440.744033999999
 20
19182.994203499991
 30
0.0
 11
23440.744033999999
 21
19187.994467500001
 31
0.0
  0
LINE
  5
456B
  8
2-0
  6
CONTINUOUS
 62
     3
 10
23433.742477000011
 20
19182.994203499991
 30
0.0
 11
23440.744033999999
 21
19182.994203499991
 31
0.0
  0
LINE
  5
456C
  8
2-0
  6
CONTINUOUS
 62
     3
 10
23336.744086999988
 20
19969.087532000009
 30
0.0
 11
23330.742187
 21
19969.087532000009
 31
0.0
  0
LINE
  5
456D
  8
2-0
  6
CONTINUOUS
 62
     3
 10
23330.742187
 20
19969.087532000009
 30
0.0
 11
23330.742187
 21
19999.091095000022
 31
0.0
  0
LINE
  5
456E
  8
2-0
  6
CONTINUOUS
 62
     3
 10
23330.742187
 20
19999.091095000022
 30
0.0
 11
23445.744297999991
 21
19999.091095000022
 31
0.0
  0
LINE
  5
456F
  8
2-0
  6
CONTINUOUS
 62
     3
 10
23320.444730999981
 20
19969.087532000009
 30
0.0
 11
23320.444730999981
 21
19999.091095000022
 31
0.0
  0
LINE
  5
4570
  8
2-0
  6
CONTINUOUS
 62
     3
 10
23338.446472999982
 20
19969.087532000009
 30
0.0
 11
23320.444730999981
 21
19969.087532000009
 31
0.0
  0
LINE
  5
4571
  8
2-0
  6
CONTINUOUS
 62
     3
 10
23338.446472999982
 20
19994.096769000011
 30
0.0
 11
23338.446472999982
 21
19969.087532000009
 31
0.0
  0
LINE
  5
4572
  8
2-0
  6
CONTINUOUS
 62
     3
 10
23333.446209000002
 20
19994.096769000011
 30
0.0
 11
23338.446472999982
 21
19994.096769000011
 31
0.0
  0
LINE
  5
4573
  8
2-0
  6
CONTINUOUS
 62
     3
 10
23333.446209000002
 20
19987.091253000021
 30
0.0
 11
23333.446209000002
 21
19994.096769000011
 31
0.0
  0
LINE
  5
4574
  8
2-0
  6
CONTINUOUS
 62
     3
 10
23433.742477000011
 20
19886.791026000021
 30
0.0
 11
23440.744033999999
 21
19886.791026000021
 31
0.0
  0
LINE
  5
4575
  8
2-0
  6
CONTINUOUS
 62
     3
 10
23440.744033999999
 20
19886.791026000021
 30
0.0
 11
23440.744033999999
 21
19891.799208000019
 31
0.0
  0
LINE
  5
4576
  8
2-0
  6
CONTINUOUS
 62
     3
 10
23440.744033999999
 20
19891.799208000019
 30
0.0
 11
23415.746674000002
 21
19891.799208000019
 31
0.0
  0
LINE
  5
4577
  8
2-0
  6
CONTINUOUS
 62
     3
 10
23415.746674000002
 20
19891.799208000019
 30
0.0
 11
23415.746674000002
 21
19873.797466
 31
0.0
  0
LINE
  5
4578
  8
2-0
  6
CONTINUOUS
 62
     3
 10
23415.746674000002
 20
19873.797466
 30
0.0
 11
23445.744297999991
 21
19873.797466
 31
0.0
  0
LINE
  5
4579
  8
2-0
  6
CONTINUOUS
 62
     3
 10
23445.744297999991
 20
19914.094526000001
 30
0.0
 11
23364.742397999991
 21
19914.094526000001
 31
0.0
  0
LINE
  5
457A
  8
2-0
  6
CONTINUOUS
 62
     3
 10
23415.746674000002
 20
19884.094922000018
 30
0.0
 11
23445.744297999991
 21
19884.094922000018
 31
0.0
  0
LINE
  5
457B
  8
2-0
  6
CONTINUOUS
 62
     3
 10
23415.746674000002
 20
19890.090884000001
 30
0.0
 11
23415.746674000002
 21
19884.094922000018
 31
0.0
  0
LINE
  5
457C
  8
2-0
  6
CONTINUOUS
 62
     4
 10
21536.746014
 20
20079.093338000021
 30
0.0
 11
21536.746014
 21
20809.090303000001
 31
0.0
  0
LINE
  5
457D
  8
2-0
  6
CONTINUOUS
 62
     6
 10
23211.199059999981
 20
15466.66226500001
 30
0.0
 11
22754.773541999992
 21
15241.949295
 31
0.0
  0
LINE
  5
457E
  8
2-0
  6
CONTINUOUS
 62
     6
 10
22324.683540000002
 20
14103.139883
 30
0.0
 11
22844.685256000001
 21
14103.139883
 31
0.0
  0
LINE
  5
457F
  8
2-0
  6
CONTINUOUS
 62
     6
 10
21736.798193999992
 20
15241.949295
 30
0.0
 11
22754.773541999992
 21
15241.949295
 31
0.0
  0
LINE
  5
4580
  8
2-0
  6
CONTINUOUS
 62
     6
 10
23220.579998000001
 20
13922.196047999991
 30
0.0
 11
22844.685256000001
 21
14103.139883
 31
0.0
  0
LINE
  5
4581
  8
2-0
  6
CONTINUOUS
 62
     6
 10
21644.691193999999
 20
17246.273580000008
 30
0.0
 11
22844.685256000001
 21
17246.273580000008
 31
0.0
  0
LINE
  5
4582
  8
2-0
  6
CONTINUOUS
 62
     6
 10
21924.682220999999
 20
16409.084694000001
 30
0.0
 11
22844.685256000001
 21
16409.084694000001
 31
0.0
  0
LINE
  5
4583
  8
2-0
  6
CONTINUOUS
 62
     6
 10
23304.402712999959
 20
16652.998005000009
 30
0.0
 11
22844.685256000001
 21
16409.084694000001
 31
0.0
  0
LINE
  5
4584
  8
2-0
  6
CONTINUOUS
 62
     6
 10
23149.380673999989
 20
17142.620049000001
 30
0.0
 11
22844.685256000001
 21
17246.273580000008
 31
0.0
  0
LINE
  5
4585
  8
2-0
  6
CONTINUOUS
 62
     6
 10
23211.199059999981
 20
18384.426702000001
 30
0.0
 11
22754.773541999992
 21
18159.711752999989
 31
0.0
  0
LINE
  5
4586
  8
2-0
  6
CONTINUOUS
 62
     6
 10
21736.798193999992
 20
18159.711752999989
 30
0.0
 11
22754.773541999992
 21
18159.711752999989
 31
0.0
  0
LINE
  5
4587
  8
2-0
  6
CONTINUOUS
 62
     6
 10
23188.020876999992
 20
13600.512402
 30
0.0
 11
22720.080499999971
 21
13130.091688
 31
0.0
  0
LINE
  5
4588
  8
2-0
  6
CONTINUOUS
 62
     6
 10
21720.087098
 20
13130.091688
 30
0.0
 11
22720.080499999971
 21
13130.091688
 31
0.0
  0
LINE
  5
4589
  8
0-1
  6
CONTINUOUS
 62
     3
 10
12065.85305399999
 20
17039.19496618228
 30
0.0
 11
12065.85305399999
 21
20159.092677000019
 31
0.0
  0
LINE
  5
458A
  8
0-1
  6
CONTINUOUS
 62
     3
 10
12028.852881999999
 20
17057.886126453919
 30
0.0
 11
12028.852881999999
 21
20159.092677000019
 31
0.0
  0
LINE
  5
458B
  8
0-1
  6
CONTINUOUS
 62
     3
 10
12265.85371299999
 20
16938.161804179581
 30
0.0
 11
12265.853713
 21
20159.092677000019
 31
0.0
  0
LINE
  5
458C
  8
0-1
  6
CONTINUOUS
 62
     3
 10
12302.851905999991
 20
16919.471643627789
 30
0.0
 11
12302.851906
 21
20159.092677000019
 31
0.0
  0
TEXT
  5
458D
  8
2-0
  6
CONTINUOUS
 62
     7
 10
12782.94855899998
 20
15203.07748799999
 30
0.0
 40
160.0
  1
桁中B +  桁中補強B
 50
359.99976400000008
 72
     4
 11
13716.282221843559
 21
15283.07364362075
 31
0.0
  0
TEXT
  5
458E
  8
2-0
  6
CONTINUOUS
 62
     7
 10
12782.94855899998
 20
17510.798269999999
 30
0.0
 40
160.0
  1
桁中A +  桁中補強A
 72
     4
 11
13716.281892333311
 21
17590.798269999999
 31
0.0
  0
TEXT
  5
458F
  8
2-0
  6
CONTINUOUS
 62
     7
 10
12782.94855899998
 20
18964.810094
 30
0.0
 40
160.0
  1
桁中B +  桁中補強B
 50
359.99976400000008
 72
     4
 11
13716.282221843559
 21
19044.80624962076
 31
0.0
  0
TEXT
  5
4590
  8
2-0
  6
CONTINUOUS
 62
     7
 10
12832.444440999991
 20
16044.823224999989
 30
0.0
 40
160.0
  1
ブレース
 50
359.99973399999988
 72
     4
 11
13195.111503829219
 21
16130.15487462491
 31
0.0
  0
LINE
  5
4591
  8
2-0
  6
CONTINUOUS
 62
     6
 10
12752.440218
 20
15964.819002
 30
0.0
 11
13632.44312199999
 21
15964.819002
 31
0.0
  0
LINE
  5
4592
  8
2-0
  6
CONTINUOUS
 62
     6
 10
12690.119034999991
 20
15126.285034
 30
0.0
 11
14684.563185999979
 21
15126.285034
 31
0.0
  0
LINE
  5
4593
  8
2-0
  6
CONTINUOUS
 62
     6
 10
12690.119034999991
 20
18888.016651000002
 30
0.0
 11
14684.563185999979
 21
18888.016651000002
 31
0.0
  0
LINE
  5
4594
  8
2-0
  6
CONTINUOUS
 62
     6
 10
12690.119034999991
 20
17434.016703000001
 30
0.0
 11
14684.563185999979
 21
17434.016703000001
 31
0.0
  0
LINE
  5
4595
  8
0-6
  6
CONTINUOUS
 62
     6
 10
11793.078415
 20
17129.958689999981
 30
0.0
 11
12690.119034999991
 21
17434.012744
 31
0.0
  0
LINE
  5
4596
  8
0-6
  6
CONTINUOUS
 62
     6
 10
11793.078415
 20
18583.958638
 30
0.0
 11
12690.119034999991
 21
18888.012691999989
 31
0.0
  0
LINE
  5
4597
  8
0-6
  6
CONTINUOUS
 62
     6
 10
11801.63785299998
 20
18558.703938999999
 30
0.0
 11
11784.518977
 21
18609.217294999999
 31
0.0
  0
LINE
  5
4598
  8
0-6
  6
CONTINUOUS
 62
     6
 10
11801.63785299998
 20
18558.703938999999
 30
0.0
 11
11641.546268
 21
18532.60200699999
 31
0.0
  0
LINE
  5
4599
  8
0-6
  6
CONTINUOUS
 62
     6
 10
11784.518977
 20
18609.217294999999
 30
0.0
 11
11801.63785299998
 21
18558.703938999999
 31
0.0
  0
LINE
  5
459A
  8
0-6
  6
CONTINUOUS
 62
     6
 10
11641.546268
 20
18532.60200699999
 30
0.0
 11
11784.518977
 21
18609.217294999999
 31
0.0
  0
LINE
  5
459B
  8
0-6
  6
CONTINUOUS
 62
     6
 10
11641.546268
 20
18532.60200699999
 30
0.0
 11
11801.63785299998
 21
18558.703938999999
 31
0.0
  0
LINE
  5
459C
  8
0-6
  6
CONTINUOUS
 62
     6
 10
11784.518977
 20
18609.217294999999
 30
0.0
 11
11641.546268
 21
18532.60200699999
 31
0.0
  0
LINE
  5
459D
  8
0-6
  6
CONTINUOUS
 62
     6
 10
11801.63785299998
 20
17104.703991999992
 30
0.0
 11
11784.518977
 21
17155.217347000002
 31
0.0
  0
LINE
  5
459E
  8
0-6
  6
CONTINUOUS
 62
     6
 10
11801.63785299998
 20
17104.703991999992
 30
0.0
 11
11641.546268
 21
17078.598100999989
 31
0.0
  0
LINE
  5
459F
  8
0-6
  6
CONTINUOUS
 62
     6
 10
11784.518977
 20
17155.217347000002
 30
0.0
 11
11801.63785299998
 21
17104.703991999992
 31
0.0
  0
LINE
  5
45A0
  8
0-6
  6
CONTINUOUS
 62
     6
 10
11641.546268
 20
17078.598100999989
 30
0.0
 11
11784.518977
 21
17155.217347000002
 31
0.0
  0
LINE
  5
45A1
  8
0-6
  6
CONTINUOUS
 62
     6
 10
11641.546268
 20
17078.598100999989
 30
0.0
 11
11801.63785299998
 21
17104.703991999992
 31
0.0
  0
LINE
  5
45A2
  8
0-6
  6
CONTINUOUS
 62
     6
 10
11784.518977
 20
17155.217347000002
 30
0.0
 11
11641.546268
 21
17078.598100999989
 31
0.0
  0
LINE
  5
45A3
  8
0-6
  6
CONTINUOUS
 62
     6
 10
12280.174593
 20
15785.886359
 30
0.0
 11
12263.93858199999
 21
15836.688724
 31
0.0
  0
LINE
  5
45A4
  8
0-6
  6
CONTINUOUS
 62
     6
 10
12280.174593
 20
15785.886359
 30
0.0
 11
12119.651472999991
 21
15762.57950699998
 31
0.0
  0
LINE
  5
45A5
  8
0-6
  6
CONTINUOUS
 62
     6
 10
12263.93858199999
 20
15836.688724
 30
0.0
 11
12280.174593
 21
15785.886359
 31
0.0
  0
LINE
  5
45A6
  8
0-6
  6
CONTINUOUS
 62
     6
 10
12119.651472999991
 20
15762.57950699998
 30
0.0
 11
12263.93858199999
 21
15836.688724
 31
0.0
  0
LINE
  5
45A7
  8
0-6
  6
CONTINUOUS
 62
     6
 10
12119.651472999991
 20
15762.57950699998
 30
0.0
 11
12280.174593
 21
15785.886359
 31
0.0
  0
LINE
  5
45A8
  8
0-6
  6
CONTINUOUS
 62
     6
 10
12263.93858199999
 20
15836.688724
 30
0.0
 11
12119.651472999991
 21
15762.57950699998
 31
0.0
  0
LINE
  5
45A9
  8
0-6
  6
CONTINUOUS
 62
     6
 10
11780.967720000001
 20
15451.692155000001
 30
0.0
 11
11800.317514999981
 21
15501.39093799999
 31
0.0
  0
LINE
  5
45AA
  8
0-6
  6
CONTINUOUS
 62
     6
 10
11780.967720000001
 20
15451.692155000001
 30
0.0
 11
11641.546268
 21
15534.598352000001
 31
0.0
  0
LINE
  5
45AB
  8
0-6
  6
CONTINUOUS
 62
     6
 10
11800.317514999981
 20
15501.39093799999
 30
0.0
 11
11780.967720000001
 21
15451.692155000001
 31
0.0
  0
LINE
  5
45AC
  8
0-6
  6
CONTINUOUS
 62
     6
 10
11641.546268
 20
15534.598352000001
 30
0.0
 11
11800.317514999981
 21
15501.39093799999
 31
0.0
  0
LINE
  5
45AD
  8
0-6
  6
CONTINUOUS
 62
     6
 10
11641.546268
 20
15534.598352000001
 30
0.0
 11
11780.967720000001
 21
15451.692155000001
 31
0.0
  0
LINE
  5
45AE
  8
0-6
  6
CONTINUOUS
 62
     6
 10
11800.317514999981
 20
15501.39093799999
 30
0.0
 11
11641.546268
 21
15534.598352000001
 31
0.0
  0
LINE
  5
45AF
  8
0-6
  6
CONTINUOUS
 62
     6
 10
11790.643606999991
 20
15476.542040999981
 30
0.0
 11
12690.119034999991
 21
15126.286024000001
 31
0.0
  0
LINE
  5
45B0
  8
0-6
  6
CONTINUOUS
 62
     6
 10
12119.651472999991
 20
15762.57950699998
 30
0.0
 11
12752.440218
 21
15964.819002
 31
0.0
  0
LINE
  5
45B3
  8
WAKUSEN-01
 10
868.00000000000193
 20
22484.000000000011
 30
0.0
 11
32764.000000000011
 21
22484.000000000011
 31
0.0
  0
LINE
  5
45B6
  8
WAKUSEN-01
 10
20560.0
 20
2484.0
 30
0.0
 11
32764.0
 21
2484.0
 31
0.0
  0
LINE
  5
45B7
  8
WAKUSEN-02
 10
20560.0
 20
1655.9999999999991
 30
0.0
 11
26868.0
 21
1655.9999999999991
 31
0.0
  0
TEXT
  5
45B8
  8
WAKUMOJI-01
 10
20670.260259962761
 20
2125.9030093393221
 30
0.0
 40
240.0
  1
名　称
  7
WAKUMOJI
  0
TEXT
  5
45B9
  8
WAKUMOJI-01
 10
20656.505485091919
 20
1319.12897497982
 30
0.0
 40
240.0
  1
機種名
  7
WAKUMOJI
  0
LINE
  5
45BC
  8
YODOROGO
 10
29977.604341291921
 20
1995.7494964292871
 30
0.0
 11
29829.604341291921
 21
1995.7494964292871
 31
0.0
1001
AUTOCAD_POSTSCRIPT_FIGURE
1002
{
1000
PSFILL
1000
Grayscale
1000
Grayscale
1070
    25
1002
}
  0
LINE
  5
45BD
  8
YODOROGO
 10
29829.604341291921
 20
1947.749496429288
 30
0.0
 11
29977.604341291921
 21
1947.749496429288
 31
0.0
1001
AUTOCAD_POSTSCRIPT_FIGURE
1002
{
1000
PSFILL
1000
Grayscale
1000
Grayscale
1070
    25
1002
}
  0
LINE
  5
45BE
  8
YODOROGO
 10
29977.604341291921
 20
1907.7494964292871
 30
0.0
 11
29829.604341291921
 21
1907.7494964292871
 31
0.0
1001
AUTOCAD_POSTSCRIPT_FIGURE
1002
{
1000
PSFILL
1000
Grayscale
1000
Grayscale
1070
    25
1002
}
  0
LINE
  5
45BF
  8
YODOROGO
 10
29829.604341291921
 20
1859.749496429288
 30
0.0
 11
29977.604341291921
 21
1859.749496429288
 31
0.0
1001
AUTOCAD_POSTSCRIPT_FIGURE
1002
{
1000
PSFILL
1000
Grayscale
1000
Grayscale
1070
    25
1002
}
  0
LINE
  5
45C0
  8
YODOROGO
 10
29977.604341291921
 20
1819.7494964292871
 30
0.0
 11
29829.604341291921
 21
1819.7494964292871
 31
0.0
1001
AUTOCAD_POSTSCRIPT_FIGURE
1002
{
1000
PSFILL
1000
Grayscale
1000
Grayscale
1070
    25
1002
}
  0
LINE
  5
45C1
  8
YODOROGO
 10
29921.60434129191
 20
1707.749496429288
 30
0.0
 11
29977.604341291921
 21
1707.749496429288
 31
0.0
1001
AUTOCAD_POSTSCRIPT_FIGURE
1002
{
1000
PSFILL
1000
Grayscale
1000
Grayscale
1070
    25
1002
}
  0
LINE
  5
45C2
  8
YODOROGO
 10
29737.604341291921
 20
1427.749496429288
 30
0.0
 11
29937.604341291932
 21
1481.3393349155101
 31
0.0
  0
LINE
  5
45C3
  8
YODOROGO
 10
29949.60434129191
 20
1707.749496429288
 30
0.0
 11
29885.604341291921
 21
1707.749496429288
 31
0.0
  0
ARC
  5
45C4
  8
YODOROGO
 10
30254.34774982791
 20
1807.864609233261
 30
0.0
 40
381.88686420564721
 50
213.96111677667841
 51
264.47872074317792
  0
ARC
  5
45C5
  8
YODOROGO
 10
30254.347749827921
 20
1807.864609233302
 30
0.0
 40
381.8868642056816
 50
208.14114420486601
 51
212.9210361185994
  0
LINE
  5
45C6
  8
YODOROGO
 10
29771.409872985321
 20
1556.807661346234
 30
0.0
 11
29933.78413250855
 21
1600.3157130570869
 31
0.0
  0
LINE
  5
45C7
  8
YODOROGO
 10
29737.604341291921
 20
1427.749496429288
 30
0.0
 11
29937.604341291932
 21
1481.3393349155101
 31
0.0
  0
LINE
  5
45C8
  8
YODOROGO
 10
29949.60434129191
 20
1707.749496429288
 30
0.0
 11
29885.604341291921
 21
1707.749496429288
 31
0.0
  0
ARC
  5
45C9
  8
YODOROGO
 10
30254.34774982791
 20
1807.864609233261
 30
0.0
 40
381.88686420564721
 50
213.96111677667841
 51
264.47872074317792
  0
LINE
  5
45CA
  8
YODOROGO
 10
28793.60434129191
 20
1819.7494964292871
 30
0.0
 11
28433.60434129191
 21
1819.7494964292871
 31
0.0
  0
LINE
  5
45CB
  8
YODOROGO
 10
28513.60434129191
 20
1427.749496429288
 30
0.0
 11
28793.60434129191
 21
1427.749496429288
 31
0.0
  0
LINE
  5
45CC
  8
YODOROGO
 10
28729.604341291921
 20
1923.7494964292871
 30
0.0
 11
28497.60434129191
 21
1923.7494964292871
 31
0.0
  0
LINE
  5
45CD
  8
YODOROGO
 10
28585.604341291921
 20
2027.749496429288
 30
0.0
 11
28657.604341291921
 21
2027.749496429288
 31
0.0
  0
LINE
  5
45CE
  8
YODOROGO
 10
28433.60434129191
 20
1707.749496429288
 30
0.0
 11
28433.60434129191
 21
1507.749496429288
 31
0.0
  0
LINE
  5
45CF
  8
YODOROGO
 10
28497.60434129191
 20
1563.7494964292871
 30
0.0
 11
28497.60434129191
 21
1707.749496429288
 31
0.0
  0
LINE
  5
45D0
  8
YODOROGO
 10
28585.604341291921
 20
1747.74949642929
 30
0.0
 11
28585.604341291921
 21
1547.749496429288
 31
0.0
  0
LINE
  5
45D1
  8
YODOROGO
 10
27857.604341291921
 20
1683.749496429288
 30
0.0
 11
27777.604341291921
 21
1619.9724140445701
 31
0.0
  0
LINE
  5
45D2
  8
YODOROGO
 10
27937.604341291921
 20
1619.9724140445701
 30
0.0
 11
27857.604341291921
 21
1683.749496429288
 31
0.0
  0
LINE
  5
45D3
  8
YODOROGO
 10
27857.604341291921
 20
1707.749496429288
 30
0.0
 11
27937.604341291921
 21
1643.9724140445701
 31
0.0
  0
LINE
  5
45D4
  8
YODOROGO
 10
27777.604341291921
 20
1643.9724140445701
 30
0.0
 11
27857.604341291921
 21
1707.749496429288
 31
0.0
  0
LINE
  5
45D5
  8
YODOROGO
 10
28040.913204016892
 20
1659.749496429288
 30
0.0
 11
28040.913204016892
 21
1683.7494964292871
 31
0.0
  0
LINE
  5
45D6
  8
YODOROGO
 10
27977.604341291921
 20
1683.7494964292871
 30
0.0
 11
27977.604341291921
 21
1667.749496429285
 31
0.0
  0
LINE
  5
45D7
  8
YODOROGO
 10
28098.135520230931
 20
1707.749496429288
 30
0.0
 11
28098.135520230931
 21
1655.5036372746561
 31
0.0
1001
AUTOCAD_POSTSCRIPT_FIGURE
1002
{
1000
PSFILL
1000
Grayscale
1000
Grayscale
1070
   100
1002
}
  0
LINE
  5
45D8
  8
YODOROGO
 10
28082.135520230921
 20
1655.5036372746561
 30
0.0
 11
28082.135520230921
 21
1707.749496429288
 31
0.0
1001
AUTOCAD_POSTSCRIPT_FIGURE
1002
{
1000
PSFILL
1000
Grayscale
1000
Grayscale
1070
   100
1002
}
  0
LINE
  5
45D9
  8
YODOROGO
 10
27809.604341291921
 20
1608.771904043258
 30
0.0
 11
27809.604341291921
 21
1632.771904043258
 31
0.0
  0
LINE
  5
45DA
  8
YODOROGO
 10
27905.604341291921
 20
1608.771904043258
 30
0.0
 11
27809.604341291921
 21
1608.771904043258
 31
0.0
  0
LINE
  5
45DB
  8
YODOROGO
 10
27905.604341291921
 20
1632.771904043258
 30
0.0
 11
27905.604341291921
 21
1608.771904043258
 31
0.0
  0
LINE
  5
45DC
  8
YODOROGO
 10
27809.604341291921
 20
1632.771904043258
 30
0.0
 11
27905.604341291921
 21
1632.771904043258
 31
0.0
  0
LINE
  5
45DD
  8
YODOROGO
 10
27824.509588915738
 20
1568.5028573704751
 30
0.0
 11
27785.604341291921
 21
1475.7494964292871
 31
0.0
1001
AUTOCAD_POSTSCRIPT_FIGURE
1002
{
1000
PSFILL
1000
Grayscale
1000
Grayscale
1070
   100
1002
}
  0
LINE
  5
45DE
  8
YODOROGO
 10
27777.604341291921
 20
1568.5028573704751
 30
0.0
 11
27824.509588915738
 21
1568.5028573704751
 31
0.0
1001
AUTOCAD_POSTSCRIPT_FIGURE
1002
{
1000
PSFILL
1000
Grayscale
1000
Grayscale
1070
   100
1002
}
  0
LINE
  5
45DF
  8
YODOROGO
 10
27777.604341291921
 20
1588.5028573704751
 30
0.0
 11
27777.604341291921
 21
1568.5028573704751
 31
0.0
1001
AUTOCAD_POSTSCRIPT_FIGURE
1002
{
1000
PSFILL
1000
Grayscale
1000
Grayscale
1070
   100
1002
}
  0
LINE
  5
45E0
  8
YODOROGO
 10
27937.604341291921
 20
1588.5028573704751
 30
0.0
 11
27777.604341291921
 21
1588.5028573704751
 31
0.0
1001
AUTOCAD_POSTSCRIPT_FIGURE
1002
{
1000
PSFILL
1000
Grayscale
1000
Grayscale
1070
   100
1002
}
  0
LINE
  5
45E1
  8
YODOROGO
 10
27937.604341291921
 20
1568.5028573704751
 30
0.0
 11
27937.604341291921
 21
1588.5028573704751
 31
0.0
1001
AUTOCAD_POSTSCRIPT_FIGURE
1002
{
1000
PSFILL
1000
Grayscale
1000
Grayscale
1070
   100
1002
}
  0
LINE
  5
45E2
  8
YODOROGO
 10
27844.509588915738
 20
1568.5028573704751
 30
0.0
 11
27937.604341291921
 21
1568.5028573704751
 31
0.0
1001
AUTOCAD_POSTSCRIPT_FIGURE
1002
{
1000
PSFILL
1000
Grayscale
1000
Grayscale
1070
   100
1002
}
  0
LINE
  5
45E3
  8
YODOROGO
 10
27815.546718284771
 20
1495.7494964292871
 30
0.0
 11
27844.509588915738
 21
1568.5028573704751
 31
0.0
1001
AUTOCAD_POSTSCRIPT_FIGURE
1002
{
1000
PSFILL
1000
Grayscale
1000
Grayscale
1070
   100
1002
}
  0
LINE
  5
45E4
  8
YODOROGO
 10
27902.054790808648
 20
1495.7494964292871
 30
0.0
 11
27815.546718284771
 21
1495.7494964292871
 31
0.0
1001
AUTOCAD_POSTSCRIPT_FIGURE
1002
{
1000
PSFILL
1000
Grayscale
1000
Grayscale
1070
   100
1002
}
  0
LINE
  5
45E5
  8
YODOROGO
 10
27885.065004790951
 20
1536.2338106976929
 30
0.0
 11
27902.054790808648
 21
1495.7494964292871
 31
0.0
1001
AUTOCAD_POSTSCRIPT_FIGURE
1002
{
1000
PSFILL
1000
Grayscale
1000
Grayscale
1070
   100
1002
}
  0
LINE
  5
45E6
  8
YODOROGO
 10
27901.065004790951
 20
1536.2338106976929
 30
0.0
 11
27885.065004790951
 21
1536.2338106976929
 31
0.0
1001
AUTOCAD_POSTSCRIPT_FIGURE
1002
{
1000
PSFILL
1000
Grayscale
1000
Grayscale
1070
   100
1002
}
  0
LINE
  5
45E7
  8
YODOROGO
 10
27929.604341291921
 20
1475.7494964292871
 30
0.0
 11
27901.065004790951
 21
1536.2338106976929
 31
0.0
1001
AUTOCAD_POSTSCRIPT_FIGURE
1002
{
1000
PSFILL
1000
Grayscale
1000
Grayscale
1070
   100
1002
}
  0
LINE
  5
45E8
  8
YODOROGO
 10
27785.604341291921
 20
1475.7494964292871
 30
0.0
 11
27929.604341291921
 21
1475.7494964292871
 31
0.0
1001
AUTOCAD_POSTSCRIPT_FIGURE
1002
{
1000
PSFILL
1000
Grayscale
1000
Grayscale
1070
   100
1002
}
  0
LINE
  5
45E9
  8
YODOROGO
 10
27777.604341291921
 20
1619.9724140445701
 30
0.0
 11
27777.604341291921
 21
1643.9724140445701
 31
0.0
  0
LINE
  5
45EA
  8
YODOROGO
 10
27937.604341291921
 20
1643.9724140445701
 30
0.0
 11
27937.604341291921
 21
1619.9724140445701
 31
0.0
  0
ARC
  5
45EB
  8
YODOROGO
 10
28225.940442146959
 20
1600.877765325326
 30
0.0
 40
175.9999999999998
 50
280.3644312771313
 51
3.5414836592180561
  0
ARC
  5
45EC
  8
YODOROGO
 10
28235.756030759301
 20
1633.5978069619041
 30
0.0
 40
111.9999999999982
 50
281.24905825041549
 51
348.75094174958321
  0
LINE
  5
45ED
  8
YODOROGO
 10
28257.604341291921
 20
1523.7494964292871
 30
0.0
 11
28257.604341291921
 21
1427.749496429288
 31
0.0
  0
LINE
  5
45EE
  8
YODOROGO
 10
28020.088903736909
 20
1610.650565061914
 30
0.0
 11
28040.913204016892
 21
1659.749496429288
 31
0.0
  0
LINE
  5
45EF
  8
YODOROGO
 10
28041.604341291921
 20
1583.120489948401
 30
0.0
 11
28020.088903736909
 21
1610.650565061914
 31
0.0
  0
LINE
  5
45F0
  8
YODOROGO
 10
28041.604341291921
 20
1563.120489948398
 30
0.0
 11
28041.604341291921
 21
1583.120489948401
 31
0.0
  0
LINE
  5
45F1
  8
YODOROGO
 10
28017.604341291921
 20
1585.2370637495301
 30
0.0
 11
28041.604341291921
 21
1563.120489948398
 31
0.0
  0
LINE
  5
45F2
  8
YODOROGO
 10
28017.604341291921
 20
1475.7494964292871
 30
0.0
 11
28017.604341291921
 21
1585.2370637495301
 31
0.0
  0
LINE
  5
45F3
  8
YODOROGO
 10
28001.604341291921
 20
1475.7494964292871
 30
0.0
 11
28017.604341291921
 21
1475.7494964292871
 31
0.0
  0
LINE
  5
45F4
  8
YODOROGO
 10
28001.604341291921
 20
1580.0053496897469
 30
0.0
 11
28001.604341291921
 21
1475.7494964292871
 31
0.0
  0
LINE
  5
45F5
  8
YODOROGO
 10
27977.604341291921
 20
1532.7680790334291
 30
0.0
 11
28001.604341291921
 21
1580.0053496897469
 31
0.0
  0
LINE
  5
45F6
  8
YODOROGO
 10
27977.604341291921
 20
1556.76807903343
 30
0.0
 11
27977.604341291921
 21
1532.7680790334291
 31
0.0
  0
LINE
  5
45F7
  8
YODOROGO
 10
28025.828774291349
 20
1667.749496429285
 30
0.0
 11
27977.604341291921
 21
1556.76807903343
 31
0.0
  0
LINE
  5
45F8
  8
YODOROGO
 10
27977.604341291921
 20
1667.749496429285
 30
0.0
 11
28025.828774291349
 21
1667.749496429285
 31
0.0
  0
LINE
  5
45F9
  8
YODOROGO
 10
28050.135520230899
 20
1655.5036372746561
 30
0.0
 11
28082.135520230921
 21
1655.5036372746561
 31
0.0
1001
AUTOCAD_POSTSCRIPT_FIGURE
1002
{
1000
PSFILL
1000
Grayscale
1000
Grayscale
1070
   100
1002
}
  0
LINE
  5
45FA
  8
YODOROGO
 10
28050.135520230899
 20
1631.5036372746561
 30
0.0
 11
28050.135520230899
 21
1655.5036372746561
 31
0.0
1001
AUTOCAD_POSTSCRIPT_FIGURE
1002
{
1000
PSFILL
1000
Grayscale
1000
Grayscale
1070
   100
1002
}
  0
LINE
  5
45FB
  8
YODOROGO
 10
28082.135520230921
 20
1631.5036372746561
 30
0.0
 11
28050.135520230899
 21
1631.5036372746561
 31
0.0
1001
AUTOCAD_POSTSCRIPT_FIGURE
1002
{
1000
PSFILL
1000
Grayscale
1000
Grayscale
1070
   100
1002
}
  0
LINE
  5
45FC
  8
YODOROGO
 10
28082.135520230921
 20
1499.749496429288
 30
0.0
 11
28082.135520230921
 21
1631.5036372746561
 31
0.0
1001
AUTOCAD_POSTSCRIPT_FIGURE
1002
{
1000
PSFILL
1000
Grayscale
1000
Grayscale
1070
   100
1002
}
  0
LINE
  5
45FD
  8
YODOROGO
 10
28050.135520230921
 20
1499.749496429288
 30
0.0
 11
28082.135520230921
 21
1499.749496429288
 31
0.0
1001
AUTOCAD_POSTSCRIPT_FIGURE
1002
{
1000
PSFILL
1000
Grayscale
1000
Grayscale
1070
   100
1002
}
  0
LINE
  5
45FE
  8
YODOROGO
 10
28050.135520230921
 20
1475.7494964292871
 30
0.0
 11
28050.135520230921
 21
1499.749496429288
 31
0.0
1001
AUTOCAD_POSTSCRIPT_FIGURE
1002
{
1000
PSFILL
1000
Grayscale
1000
Grayscale
1070
   100
1002
}
  0
LINE
  5
45FF
  8
YODOROGO
 10
28137.604341291921
 20
1475.7494964292871
 30
0.0
 11
28050.135520230921
 21
1475.7494964292871
 31
0.0
1001
AUTOCAD_POSTSCRIPT_FIGURE
1002
{
1000
PSFILL
1000
Grayscale
1000
Grayscale
1070
   100
1002
}
  0
LINE
  5
4600
  8
YODOROGO
 10
28137.604341291921
 20
1499.749496429288
 30
0.0
 11
28137.604341291921
 21
1475.7494964292871
 31
0.0
1001
AUTOCAD_POSTSCRIPT_FIGURE
1002
{
1000
PSFILL
1000
Grayscale
1000
Grayscale
1070
   100
1002
}
  0
LINE
  5
4601
  8
YODOROGO
 10
28098.135520230931
 20
1499.749496429288
 30
0.0
 11
28137.604341291921
 21
1499.749496429288
 31
0.0
1001
AUTOCAD_POSTSCRIPT_FIGURE
1002
{
1000
PSFILL
1000
Grayscale
1000
Grayscale
1070
   100
1002
}
  0
LINE
  5
4602
  8
YODOROGO
 10
28098.135520230931
 20
1631.5036372746561
 30
0.0
 11
28098.135520230931
 21
1499.749496429288
 31
0.0
1001
AUTOCAD_POSTSCRIPT_FIGURE
1002
{
1000
PSFILL
1000
Grayscale
1000
Grayscale
1070
   100
1002
}
  0
LINE
  5
4603
  8
YODOROGO
 10
28137.604341291921
 20
1631.5036372746561
 30
0.0
 11
28098.135520230931
 21
1631.5036372746561
 31
0.0
1001
AUTOCAD_POSTSCRIPT_FIGURE
1002
{
1000
PSFILL
1000
Grayscale
1000
Grayscale
1070
   100
1002
}
  0
LINE
  5
4604
  8
YODOROGO
 10
28137.604341291921
 20
1655.5036372746561
 30
0.0
 11
28137.604341291921
 21
1631.5036372746561
 31
0.0
1001
AUTOCAD_POSTSCRIPT_FIGURE
1002
{
1000
PSFILL
1000
Grayscale
1000
Grayscale
1070
   100
1002
}
  0
LINE
  5
4605
  8
YODOROGO
 10
28098.135520230931
 20
1655.5036372746561
 30
0.0
 11
28137.604341291921
 21
1655.5036372746561
 31
0.0
1001
AUTOCAD_POSTSCRIPT_FIGURE
1002
{
1000
PSFILL
1000
Grayscale
1000
Grayscale
1070
   100
1002
}
  0
LINE
  5
4606
  8
YODOROGO
 10
28401.60434129191
 20
1667.749496429288
 30
0.0
 11
28345.604341291921
 21
1667.749496429288
 31
0.0
  0
LINE
  5
4607
  8
YODOROGO
 10
28401.60434129191
 20
1611.749496429288
 30
0.0
 11
28401.60434129191
 21
1667.749496429288
 31
0.0
  0
LINE
  5
4608
  8
YODOROGO
 10
28345.604341291921
 20
1667.749496429288
 30
0.0
 11
28345.604341291921
 21
1611.749496429288
 31
0.0
  0
ARC
  5
4609
  8
YODOROGO
 10
28513.60434129191
 20
1507.749496429288
 30
0.0
 40
80.0
 50
180.0
 51
270.0
  0
ARC
  5
460A
  8
YODOROGO
 10
28537.604341291921
 20
1563.7494964292871
 30
0.0
 40
40.0
 50
180.0
 51
270.0
  0
LINE
  5
460B
  8
YODOROGO
 10
28561.604341291932
 20
1523.7494964292871
 30
0.0
 11
28537.604341291921
 21
1523.7494964292871
 31
0.0
  0
ARC
  5
460C
  8
YODOROGO
 10
28561.604341291932
 20
1547.749496429285
 30
0.0
 40
23.999999999996358
 50
270.0
 51
0.0000000000054281
  0
LINE
  5
460D
  8
YODOROGO
 10
27801.604341291921
 20
1890.786580793706
 30
0.0
 11
27777.604341291921
 21
1843.776747951672
 31
0.0
1001
AUTOCAD_POSTSCRIPT_FIGURE
1002
{
1000
PSFILL
1000
Grayscale
1000
Grayscale
1070
   100
1002
}
  0
LINE
  5
460E
  8
YODOROGO
 10
27801.604341291921
 20
1747.749496429286
 30
0.0
 11
27801.604341291921
 21
1890.786580793706
 31
0.0
1001
AUTOCAD_POSTSCRIPT_FIGURE
1002
{
1000
PSFILL
1000
Grayscale
1000
Grayscale
1070
   100
1002
}
  0
LINE
  5
460F
  8
YODOROGO
 10
27817.604341291921
 20
1747.749496429286
 30
0.0
 11
27801.604341291921
 21
1747.749496429286
 31
0.0
1001
AUTOCAD_POSTSCRIPT_FIGURE
1002
{
1000
PSFILL
1000
Grayscale
1000
Grayscale
1070
   100
1002
}
  0
LINE
  5
4610
  8
YODOROGO
 10
27817.604341291921
 20
1893.7713320852661
 30
0.0
 11
27817.604341291921
 21
1747.749496429286
 31
0.0
1001
AUTOCAD_POSTSCRIPT_FIGURE
1002
{
1000
PSFILL
1000
Grayscale
1000
Grayscale
1070
   100
1002
}
  0
LINE
  5
4611
  8
YODOROGO
 10
27841.604341291921
 20
1867.6547582841361
 30
0.0
 11
27817.604341291921
 21
1893.7713320852661
 31
0.0
1001
AUTOCAD_POSTSCRIPT_FIGURE
1002
{
1000
PSFILL
1000
Grayscale
1000
Grayscale
1070
   100
1002
}
  0
LINE
  5
4612
  8
YODOROGO
 10
27841.604341291921
 20
1883.6547582841361
 30
0.0
 11
27841.604341291921
 21
1867.6547582841361
 31
0.0
1001
AUTOCAD_POSTSCRIPT_FIGURE
1002
{
1000
PSFILL
1000
Grayscale
1000
Grayscale
1070
   100
1002
}
  0
LINE
  5
4613
  8
YODOROGO
 10
27817.604341291921
 20
1917.7713320852649
 30
0.0
 11
27841.604341291921
 21
1883.6547582841361
 31
0.0
1001
AUTOCAD_POSTSCRIPT_FIGURE
1002
{
1000
PSFILL
1000
Grayscale
1000
Grayscale
1070
   100
1002
}
  0
LINE
  5
4614
  8
YODOROGO
 10
27817.604341291921
 20
1939.749496429288
 30
0.0
 11
27817.604341291921
 21
1917.7713320852649
 31
0.0
1001
AUTOCAD_POSTSCRIPT_FIGURE
1002
{
1000
PSFILL
1000
Grayscale
1000
Grayscale
1070
   100
1002
}
  0
LINE
  5
4615
  8
YODOROGO
 10
27889.604341291921
 20
1939.749496429288
 30
0.0
 11
27817.604341291921
 21
1939.749496429288
 31
0.0
1001
AUTOCAD_POSTSCRIPT_FIGURE
1002
{
1000
PSFILL
1000
Grayscale
1000
Grayscale
1070
   100
1002
}
  0
LINE
  5
4616
  8
YODOROGO
 10
27889.604341291921
 20
1900.5683489363
 30
0.0
 11
27889.604341291921
 21
1939.749496429288
 31
0.0
1001
AUTOCAD_POSTSCRIPT_FIGURE
1002
{
1000
PSFILL
1000
Grayscale
1000
Grayscale
1070
   100
1002
}
  0
LINE
  5
4617
  8
YODOROGO
 10
27857.604341291921
 20
1900.5683489363
 30
0.0
 11
27889.604341291921
 21
1900.5683489363
 31
0.0
1001
AUTOCAD_POSTSCRIPT_FIGURE
1002
{
1000
PSFILL
1000
Grayscale
1000
Grayscale
1070
   100
1002
}
  0
LINE
  5
4618
  8
YODOROGO
 10
27857.604341291921
 20
1884.568348936298
 30
0.0
 11
27857.604341291921
 21
1900.5683489363
 31
0.0
1001
AUTOCAD_POSTSCRIPT_FIGURE
1002
{
1000
PSFILL
1000
Grayscale
1000
Grayscale
1070
   100
1002
}
  0
LINE
  5
4619
  8
YODOROGO
 10
27889.604341291921
 20
1884.568348936298
 30
0.0
 11
27857.604341291921
 21
1884.568348936298
 31
0.0
1001
AUTOCAD_POSTSCRIPT_FIGURE
1002
{
1000
PSFILL
1000
Grayscale
1000
Grayscale
1070
   100
1002
}
  0
LINE
  5
461A
  8
YODOROGO
 10
27889.604341291921
 20
1879.6191779644371
 30
0.0
 11
27889.604341291921
 21
1884.568348936298
 31
0.0
1001
AUTOCAD_POSTSCRIPT_FIGURE
1002
{
1000
PSFILL
1000
Grayscale
1000
Grayscale
1070
   100
1002
}
  0
LINE
  5
461B
  8
YODOROGO
 10
27849.604341291921
 20
1812.974981161417
 30
0.0
 11
27889.604341291921
 21
1879.6191779644371
 31
0.0
1001
AUTOCAD_POSTSCRIPT_FIGURE
1002
{
1000
PSFILL
1000
Grayscale
1000
Grayscale
1070
   100
1002
}
  0
LINE
  5
461C
  8
YODOROGO
 10
27849.604341291921
 20
1796.9749811614161
 30
0.0
 11
27849.604341291921
 21
1812.974981161417
 31
0.0
1001
AUTOCAD_POSTSCRIPT_FIGURE
1002
{
1000
PSFILL
1000
Grayscale
1000
Grayscale
1070
   100
1002
}
  0
LINE
  5
461D
  8
YODOROGO
 10
27889.604341291921
 20
1847.6191779644359
 30
0.0
 11
27849.604341291921
 21
1796.9749811614161
 31
0.0
1001
AUTOCAD_POSTSCRIPT_FIGURE
1002
{
1000
PSFILL
1000
Grayscale
1000
Grayscale
1070
   100
1002
}
  0
LINE
  5
461E
  8
YODOROGO
 10
27889.604341291921
 20
1747.749496429286
 30
0.0
 11
27889.604341291921
 21
1847.6191779644359
 31
0.0
1001
AUTOCAD_POSTSCRIPT_FIGURE
1002
{
1000
PSFILL
1000
Grayscale
1000
Grayscale
1070
   100
1002
}
  0
LINE
  5
461F
  8
YODOROGO
 10
27905.604341291921
 20
1747.749496429286
 30
0.0
 11
27889.604341291921
 21
1747.749496429286
 31
0.0
1001
AUTOCAD_POSTSCRIPT_FIGURE
1002
{
1000
PSFILL
1000
Grayscale
1000
Grayscale
1070
   100
1002
}
  0
LINE
  5
4620
  8
YODOROGO
 10
27905.604341291921
 20
1849.409012158806
 30
0.0
 11
27905.604341291921
 21
1747.749496429286
 31
0.0
1001
AUTOCAD_POSTSCRIPT_FIGURE
1002
{
1000
PSFILL
1000
Grayscale
1000
Grayscale
1070
   100
1002
}
  0
LINE
  5
4621
  8
YODOROGO
 10
27937.604341291921
 20
1796.9749811614161
 30
0.0
 11
27905.604341291921
 21
1849.409012158806
 31
0.0
1001
AUTOCAD_POSTSCRIPT_FIGURE
1002
{
1000
PSFILL
1000
Grayscale
1000
Grayscale
1070
   100
1002
}
  0
LINE
  5
4622
  8
YODOROGO
 10
27937.604341291921
 20
1812.974981161417
 30
0.0
 11
27937.604341291921
 21
1796.9749811614161
 31
0.0
1001
AUTOCAD_POSTSCRIPT_FIGURE
1002
{
1000
PSFILL
1000
Grayscale
1000
Grayscale
1070
   100
1002
}
  0
LINE
  5
4623
  8
YODOROGO
 10
27905.604341291921
 20
1881.4090121588081
 30
0.0
 11
27937.604341291921
 21
1812.974981161417
 31
0.0
1001
AUTOCAD_POSTSCRIPT_FIGURE
1002
{
1000
PSFILL
1000
Grayscale
1000
Grayscale
1070
   100
1002
}
  0
LINE
  5
4624
  8
YODOROGO
 10
27905.604341291921
 20
1884.5683489363
 30
0.0
 11
27905.604341291921
 21
1881.4090121588081
 31
0.0
1001
AUTOCAD_POSTSCRIPT_FIGURE
1002
{
1000
PSFILL
1000
Grayscale
1000
Grayscale
1070
   100
1002
}
  0
LINE
  5
4625
  8
YODOROGO
 10
27937.604341291921
 20
1884.568348936298
 30
0.0
 11
27905.604341291921
 21
1884.5683489363
 31
0.0
1001
AUTOCAD_POSTSCRIPT_FIGURE
1002
{
1000
PSFILL
1000
Grayscale
1000
Grayscale
1070
   100
1002
}
  0
LINE
  5
4626
  8
YODOROGO
 10
27937.604341291921
 20
1900.5683489363
 30
0.0
 11
27937.604341291921
 21
1884.568348936298
 31
0.0
1001
AUTOCAD_POSTSCRIPT_FIGURE
1002
{
1000
PSFILL
1000
Grayscale
1000
Grayscale
1070
   100
1002
}
  0
LINE
  5
4627
  8
YODOROGO
 10
27905.604341291921
 20
1900.5683489363
 30
0.0
 11
27937.604341291921
 21
1900.5683489363
 31
0.0
1001
AUTOCAD_POSTSCRIPT_FIGURE
1002
{
1000
PSFILL
1000
Grayscale
1000
Grayscale
1070
   100
1002
}
  0
LINE
  5
4628
  8
YODOROGO
 10
27905.604341291921
 20
1939.749496429288
 30
0.0
 11
27905.604341291921
 21
1900.5683489363
 31
0.0
1001
AUTOCAD_POSTSCRIPT_FIGURE
1002
{
1000
PSFILL
1000
Grayscale
1000
Grayscale
1070
   100
1002
}
  0
LINE
  5
4629
  8
YODOROGO
 10
27937.604341291921
 20
1939.749496429288
 30
0.0
 11
27905.604341291921
 21
1939.749496429288
 31
0.0
1001
AUTOCAD_POSTSCRIPT_FIGURE
1002
{
1000
PSFILL
1000
Grayscale
1000
Grayscale
1070
   100
1002
}
  0
LINE
  5
462A
  8
YODOROGO
 10
27937.604341291921
 20
1955.7494964292871
 30
0.0
 11
27937.604341291921
 21
1939.749496429288
 31
0.0
1001
AUTOCAD_POSTSCRIPT_FIGURE
1002
{
1000
PSFILL
1000
Grayscale
1000
Grayscale
1070
   100
1002
}
  0
LINE
  5
462B
  8
YODOROGO
 10
27905.604341291921
 20
1955.7494964292871
 30
0.0
 11
27937.604341291921
 21
1955.7494964292871
 31
0.0
1001
AUTOCAD_POSTSCRIPT_FIGURE
1002
{
1000
PSFILL
1000
Grayscale
1000
Grayscale
1070
   100
1002
}
  0
LINE
  5
462C
  8
YODOROGO
 10
27905.604341291921
 20
1979.749496429288
 30
0.0
 11
27905.604341291921
 21
1955.7494964292871
 31
0.0
1001
AUTOCAD_POSTSCRIPT_FIGURE
1002
{
1000
PSFILL
1000
Grayscale
1000
Grayscale
1070
   100
1002
}
  0
LINE
  5
462D
  8
YODOROGO
 10
27889.604341291921
 20
1979.749496429288
 30
0.0
 11
27905.604341291921
 21
1979.749496429288
 31
0.0
1001
AUTOCAD_POSTSCRIPT_FIGURE
1002
{
1000
PSFILL
1000
Grayscale
1000
Grayscale
1070
   100
1002
}
  0
LINE
  5
462E
  8
YODOROGO
 10
27889.604341291921
 20
1955.7494964292871
 30
0.0
 11
27889.604341291921
 21
1979.749496429288
 31
0.0
1001
AUTOCAD_POSTSCRIPT_FIGURE
1002
{
1000
PSFILL
1000
Grayscale
1000
Grayscale
1070
   100
1002
}
  0
LINE
  5
462F
  8
YODOROGO
 10
27865.604341291921
 20
1955.7494964292871
 30
0.0
 11
27889.604341291921
 21
1955.7494964292871
 31
0.0
1001
AUTOCAD_POSTSCRIPT_FIGURE
1002
{
1000
PSFILL
1000
Grayscale
1000
Grayscale
1070
   100
1002
}
  0
LINE
  5
4630
  8
YODOROGO
 10
27865.604341291921
 20
1979.749496429288
 30
0.0
 11
27865.604341291921
 21
1955.7494964292871
 31
0.0
1001
AUTOCAD_POSTSCRIPT_FIGURE
1002
{
1000
PSFILL
1000
Grayscale
1000
Grayscale
1070
   100
1002
}
  0
LINE
  5
4631
  8
YODOROGO
 10
27849.604341291921
 20
1979.749496429288
 30
0.0
 11
27865.604341291921
 21
1979.749496429288
 31
0.0
1001
AUTOCAD_POSTSCRIPT_FIGURE
1002
{
1000
PSFILL
1000
Grayscale
1000
Grayscale
1070
   100
1002
}
  0
LINE
  5
4632
  8
YODOROGO
 10
27849.604341291921
 20
1955.7494964292871
 30
0.0
 11
27849.604341291921
 21
1979.749496429288
 31
0.0
1001
AUTOCAD_POSTSCRIPT_FIGURE
1002
{
1000
PSFILL
1000
Grayscale
1000
Grayscale
1070
   100
1002
}
  0
LINE
  5
4633
  8
YODOROGO
 10
27817.604341291921
 20
1955.7494964292871
 30
0.0
 11
27849.604341291921
 21
1955.7494964292871
 31
0.0
1001
AUTOCAD_POSTSCRIPT_FIGURE
1002
{
1000
PSFILL
1000
Grayscale
1000
Grayscale
1070
   100
1002
}
  0
LINE
  5
4634
  8
YODOROGO
 10
27817.604341291921
 20
1979.749496429288
 30
0.0
 11
27817.604341291921
 21
1955.7494964292871
 31
0.0
1001
AUTOCAD_POSTSCRIPT_FIGURE
1002
{
1000
PSFILL
1000
Grayscale
1000
Grayscale
1070
   100
1002
}
  0
LINE
  5
4635
  8
YODOROGO
 10
27801.604341291921
 20
1979.749496429288
 30
0.0
 11
27817.604341291921
 21
1979.749496429288
 31
0.0
1001
AUTOCAD_POSTSCRIPT_FIGURE
1002
{
1000
PSFILL
1000
Grayscale
1000
Grayscale
1070
   100
1002
}
  0
LINE
  5
4636
  8
YODOROGO
 10
27801.604341291921
 20
1955.7494964292871
 30
0.0
 11
27801.604341291921
 21
1979.749496429288
 31
0.0
1001
AUTOCAD_POSTSCRIPT_FIGURE
1002
{
1000
PSFILL
1000
Grayscale
1000
Grayscale
1070
   100
1002
}
  0
LINE
  5
4637
  8
YODOROGO
 10
27777.604341291921
 20
1955.7494964292871
 30
0.0
 11
27801.604341291921
 21
1955.7494964292871
 31
0.0
1001
AUTOCAD_POSTSCRIPT_FIGURE
1002
{
1000
PSFILL
1000
Grayscale
1000
Grayscale
1070
   100
1002
}
  0
LINE
  5
4638
  8
YODOROGO
 10
27777.604341291921
 20
1939.749496429288
 30
0.0
 11
27777.604341291921
 21
1955.7494964292871
 31
0.0
1001
AUTOCAD_POSTSCRIPT_FIGURE
1002
{
1000
PSFILL
1000
Grayscale
1000
Grayscale
1070
   100
1002
}
  0
LINE
  5
4639
  8
YODOROGO
 10
27801.604341291921
 20
1939.749496429288
 30
0.0
 11
27777.604341291921
 21
1939.749496429288
 31
0.0
1001
AUTOCAD_POSTSCRIPT_FIGURE
1002
{
1000
PSFILL
1000
Grayscale
1000
Grayscale
1070
   100
1002
}
  0
LINE
  5
463A
  8
YODOROGO
 10
27801.604341291921
 20
1914.7865807937051
 30
0.0
 11
27801.604341291921
 21
1939.749496429288
 31
0.0
1001
AUTOCAD_POSTSCRIPT_FIGURE
1002
{
1000
PSFILL
1000
Grayscale
1000
Grayscale
1070
   100
1002
}
  0
LINE
  5
463B
  8
YODOROGO
 10
27777.604341291921
 20
1859.776747951671
 30
0.0
 11
27801.604341291921
 21
1914.7865807937051
 31
0.0
1001
AUTOCAD_POSTSCRIPT_FIGURE
1002
{
1000
PSFILL
1000
Grayscale
1000
Grayscale
1070
   100
1002
}
  0
LINE
  5
463C
  8
YODOROGO
 10
27777.604341291921
 20
1843.776747951672
 30
0.0
 11
27777.604341291921
 21
1859.776747951671
 31
0.0
1001
AUTOCAD_POSTSCRIPT_FIGURE
1002
{
1000
PSFILL
1000
Grayscale
1000
Grayscale
1070
   100
1002
}
  0
LINE
  5
463D
  8
YODOROGO
 10
28257.604341291921
 20
1867.7494964292871
 30
0.0
 11
28401.60434129191
 21
1824.877625640306
 31
0.0
1001
AUTOCAD_POSTSCRIPT_FIGURE
1002
{
1000
PSFILL
1000
Grayscale
1000
Grayscale
1070
   100
1002
}
  0
LINE
  5
463E
  8
YODOROGO
 10
28401.60434129191
 20
1752.877625640306
 30
0.0
 11
28257.604341291921
 21
1795.7494964292871
 31
0.0
1001
AUTOCAD_POSTSCRIPT_FIGURE
1002
{
1000
PSFILL
1000
Grayscale
1000
Grayscale
1070
   100
1002
}
  0
LINE
  5
463F
  8
YODOROGO
 10
28401.60434129191
 20
1984.877625640306
 30
0.0
 11
28257.604341291921
 21
2027.749496429288
 31
0.0
1001
AUTOCAD_POSTSCRIPT_FIGURE
1002
{
1000
PSFILL
1000
Grayscale
1000
Grayscale
1070
   100
1002
}
  0
LINE
  5
4640
  8
YODOROGO
 10
28257.604341291921
 20
1959.749496429288
 30
0.0
 11
28401.60434129191
 21
1916.8776256403071
 31
0.0
1001
AUTOCAD_POSTSCRIPT_FIGURE
1002
{
1000
PSFILL
1000
Grayscale
1000
Grayscale
1070
   100
1002
}
  0
LINE
  5
4641
  8
YODOROGO
 10
28257.604341291921
 20
1795.7494964292871
 30
0.0
 11
28257.604341291921
 21
1867.7494964292871
 31
0.0
1001
AUTOCAD_POSTSCRIPT_FIGURE
1002
{
1000
PSFILL
1000
Grayscale
1000
Grayscale
1070
   100
1002
}
  0
LINE
  5
4642
  8
YODOROGO
 10
28257.604341291921
 20
2027.749496429288
 30
0.0
 11
28257.604341291921
 21
1959.749496429288
 31
0.0
1001
AUTOCAD_POSTSCRIPT_FIGURE
1002
{
1000
PSFILL
1000
Grayscale
1000
Grayscale
1070
   100
1002
}
  0
LINE
  5
4643
  8
YODOROGO
 10
28080.236320206739
 20
1939.749496429288
 30
0.0
 11
28129.60434129191
 21
1747.749496429286
 31
0.0
1001
AUTOCAD_POSTSCRIPT_FIGURE
1002
{
1000
PSFILL
1000
Grayscale
1000
Grayscale
1070
   100
1002
}
  0
LINE
  5
4644
  8
YODOROGO
 10
27977.604341291921
 20
1939.749496429288
 30
0.0
 11
28080.236320206739
 21
1939.749496429288
 31
0.0
1001
AUTOCAD_POSTSCRIPT_FIGURE
1002
{
1000
PSFILL
1000
Grayscale
1000
Grayscale
1070
   100
1002
}
  0
LINE
  5
4645
  8
YODOROGO
 10
27977.604341291921
 20
1955.7494964292871
 30
0.0
 11
27977.604341291921
 21
1939.749496429288
 31
0.0
1001
AUTOCAD_POSTSCRIPT_FIGURE
1002
{
1000
PSFILL
1000
Grayscale
1000
Grayscale
1070
   100
1002
}
  0
LINE
  5
4646
  8
YODOROGO
 10
28076.60687851991
 20
1955.7494964292871
 30
0.0
 11
27977.604341291921
 21
1955.7494964292871
 31
0.0
1001
AUTOCAD_POSTSCRIPT_FIGURE
1002
{
1000
PSFILL
1000
Grayscale
1000
Grayscale
1070
   100
1002
}
  0
LINE
  5
4647
  8
YODOROGO
 10
28071.162715989711
 20
1979.749496429288
 30
0.0
 11
28076.60687851991
 21
1955.7494964292871
 31
0.0
1001
AUTOCAD_POSTSCRIPT_FIGURE
1002
{
1000
PSFILL
1000
Grayscale
1000
Grayscale
1070
   100
1002
}
  0
LINE
  5
4648
  8
YODOROGO
 10
28091.162715989711
 20
1979.749496429288
 30
0.0
 11
28071.162715989711
 21
1979.749496429288
 31
0.0
1001
AUTOCAD_POSTSCRIPT_FIGURE
1002
{
1000
PSFILL
1000
Grayscale
1000
Grayscale
1070
   100
1002
}
  0
LINE
  5
4649
  8
YODOROGO
 10
28095.806878519939
 20
1955.7494964292871
 30
0.0
 11
28091.162715989711
 21
1979.749496429288
 31
0.0
1001
AUTOCAD_POSTSCRIPT_FIGURE
1002
{
1000
PSFILL
1000
Grayscale
1000
Grayscale
1070
   100
1002
}
  0
LINE
  5
464A
  8
YODOROGO
 10
28121.604341291921
 20
1955.7494964292871
 30
0.0
 11
28095.806878519939
 21
1955.7494964292871
 31
0.0
1001
AUTOCAD_POSTSCRIPT_FIGURE
1002
{
1000
PSFILL
1000
Grayscale
1000
Grayscale
1070
   100
1002
}
  0
LINE
  5
464B
  8
YODOROGO
 10
28121.604341291921
 20
1979.749496429288
 30
0.0
 11
28121.604341291921
 21
1955.7494964292871
 31
0.0
1001
AUTOCAD_POSTSCRIPT_FIGURE
1002
{
1000
PSFILL
1000
Grayscale
1000
Grayscale
1070
   100
1002
}
  0
LINE
  5
464C
  8
YODOROGO
 10
28137.604341291921
 20
1979.749496429288
 30
0.0
 11
28121.604341291921
 21
1979.749496429288
 31
0.0
1001
AUTOCAD_POSTSCRIPT_FIGURE
1002
{
1000
PSFILL
1000
Grayscale
1000
Grayscale
1070
   100
1002
}
  0
LINE
  5
464D
  8
YODOROGO
 10
28137.604341291921
 20
1955.7494964292871
 30
0.0
 11
28137.604341291921
 21
1979.749496429288
 31
0.0
1001
AUTOCAD_POSTSCRIPT_FIGURE
1002
{
1000
PSFILL
1000
Grayscale
1000
Grayscale
1070
   100
1002
}
  0
LINE
  5
464E
  8
YODOROGO
 10
28137.604341291921
 20
1939.749496429288
 30
0.0
 11
28137.604341291921
 21
1955.7494964292871
 31
0.0
1001
AUTOCAD_POSTSCRIPT_FIGURE
1002
{
1000
PSFILL
1000
Grayscale
1000
Grayscale
1070
   100
1002
}
  0
LINE
  5
464F
  8
YODOROGO
 10
28098.902986873411
 20
1939.749496429288
 30
0.0
 11
28137.604341291921
 21
1939.749496429288
 31
0.0
1001
AUTOCAD_POSTSCRIPT_FIGURE
1002
{
1000
PSFILL
1000
Grayscale
1000
Grayscale
1070
   100
1002
}
  0
LINE
  5
4650
  8
YODOROGO
 10
28137.604341291921
 20
1747.749496429286
 30
0.0
 11
28098.902986873411
 21
1939.749496429288
 31
0.0
1001
AUTOCAD_POSTSCRIPT_FIGURE
1002
{
1000
PSFILL
1000
Grayscale
1000
Grayscale
1070
   100
1002
}
  0
LINE
  5
4651
  8
YODOROGO
 10
28129.60434129191
 20
1747.749496429286
 30
0.0
 11
28137.604341291921
 21
1747.749496429286
 31
0.0
1001
AUTOCAD_POSTSCRIPT_FIGURE
1002
{
1000
PSFILL
1000
Grayscale
1000
Grayscale
1070
   100
1002
}
  0
LINE
  5
4652
  8
YODOROGO
 10
28078.06921993379
 20
1775.7407762987939
 30
0.0
 11
27977.604341291921
 21
1747.749496429286
 31
0.0
  0
LINE
  5
4653
  8
YODOROGO
 10
28078.06921993379
 20
1798.6689795290731
 30
0.0
 11
28078.06921993379
 21
1775.7407762987939
 31
0.0
  0
LINE
  5
4654
  8
YODOROGO
 10
28033.83678061287
 20
1786.816933133767
 30
0.0
 11
28078.06921993379
 21
1798.6689795290731
 31
0.0
  0
LINE
  5
4655
  8
YODOROGO
 10
28033.83678061287
 20
1872.5683489362989
 30
0.0
 11
28033.83678061287
 21
1786.816933133767
 31
0.0
  0
LINE
  5
4656
  8
YODOROGO
 10
28078.06921993379
 20
1872.5683489362989
 30
0.0
 11
28033.83678061287
 21
1872.5683489362989
 31
0.0
  0
LINE
  5
4657
  8
YODOROGO
 10
28078.06921993379
 20
1892.568348936298
 30
0.0
 11
28078.06921993379
 21
1872.5683489362989
 31
0.0
  0
LINE
  5
4658
  8
YODOROGO
 10
27977.604341291921
 20
1892.568348936298
 30
0.0
 11
28078.06921993379
 21
1892.568348936298
 31
0.0
  0
LINE
  5
4659
  8
YODOROGO
 10
27977.604341291921
 20
1872.5683489362989
 30
0.0
 11
27977.604341291921
 21
1892.568348936298
 31
0.0
  0
LINE
  5
465A
  8
YODOROGO
 10
28021.836780612852
 20
1872.5683489362989
 30
0.0
 11
27977.604341291921
 21
1872.5683489362989
 31
0.0
  0
LINE
  5
465B
  8
YODOROGO
 10
28021.836780612852
 20
1784.673339594317
 30
0.0
 11
28021.836780612852
 21
1872.5683489362989
 31
0.0
  0
LINE
  5
465C
  8
YODOROGO
 10
27977.604341291921
 20
1771.749496429286
 30
0.0
 11
28021.836780612852
 21
1784.673339594317
 31
0.0
  0
LINE
  5
465D
  8
YODOROGO
 10
27977.604341291921
 20
1747.749496429286
 30
0.0
 11
27977.604341291921
 21
1771.749496429286
 31
0.0
  0
LINE
  5
465E
  8
YODOROGO
 10
28001.604341291921
 20
1707.749496429288
 30
0.0
 11
28001.604341291921
 21
1683.7494964292871
 31
0.0
  0
LINE
  5
465F
  8
YODOROGO
 10
28017.604341291921
 20
1707.749496429288
 30
0.0
 11
28001.604341291921
 21
1707.749496429288
 31
0.0
  0
LINE
  5
4660
  8
YODOROGO
 10
28017.604341291921
 20
1683.7494964292871
 30
0.0
 11
28017.604341291921
 21
1707.749496429288
 31
0.0
  0
LINE
  5
4661
  8
YODOROGO
 10
28040.913204016892
 20
1683.7494964292871
 30
0.0
 11
28017.604341291921
 21
1683.7494964292871
 31
0.0
  0
LINE
  5
4662
  8
YODOROGO
 10
28001.604341291921
 20
1683.7494964292871
 30
0.0
 11
27977.604341291921
 21
1683.7494964292871
 31
0.0
  0
LINE
  5
4663
  8
YODOROGO
 10
28082.135520230921
 20
1707.749496429288
 30
0.0
 11
28098.135520230931
 21
1707.749496429288
 31
0.0
1001
AUTOCAD_POSTSCRIPT_FIGURE
1002
{
1000
PSFILL
1000
Grayscale
1000
Grayscale
1070
   100
1002
}
  0
LINE
  5
4664
  8
YODOROGO
 10
28401.60434129191
 20
1824.877625640306
 30
0.0
 11
28401.60434129191
 21
1752.877625640306
 31
0.0
1001
AUTOCAD_POSTSCRIPT_FIGURE
1002
{
1000
PSFILL
1000
Grayscale
1000
Grayscale
1070
   100
1002
}
  0
LINE
  5
4665
  8
YODOROGO
 10
28401.60434129191
 20
1916.8776256403071
 30
0.0
 11
28401.60434129191
 21
1984.877625640306
 31
0.0
1001
AUTOCAD_POSTSCRIPT_FIGURE
1002
{
1000
PSFILL
1000
Grayscale
1000
Grayscale
1070
   100
1002
}
  0
LINE
  5
4666
  8
YODOROGO
 10
28433.60434129191
 20
1819.7494964292871
 30
0.0
 11
28433.60434129191
 21
1747.74949642929
 31
0.0
  0
LINE
  5
4667
  8
YODOROGO
 10
28497.60434129191
 20
1707.749496429288
 30
0.0
 11
28433.60434129191
 21
1707.749496429288
 31
0.0
  0
LINE
  5
4668
  8
YODOROGO
 10
28433.60434129191
 20
1747.74949642929
 30
0.0
 11
28585.604341291921
 21
1747.74949642929
 31
0.0
  0
LINE
  5
4669
  8
YODOROGO
 10
28497.60434129191
 20
1867.7494964292871
 30
0.0
 11
28433.60434129191
 21
1867.7494964292871
 31
0.0
  0
LINE
  5
466A
  8
YODOROGO
 10
28497.60434129191
 20
1923.7494964292871
 30
0.0
 11
28497.60434129191
 21
1867.7494964292871
 31
0.0
  0
LINE
  5
466B
  8
YODOROGO
 10
28585.604341291921
 20
1987.7494964292871
 30
0.0
 11
28585.604341291921
 21
2027.749496429288
 31
0.0
  0
LINE
  5
466C
  8
YODOROGO
 10
28433.60434129191
 20
1987.7494964292871
 30
0.0
 11
28585.604341291921
 21
1987.7494964292871
 31
0.0
  0
LINE
  5
466D
  8
YODOROGO
 10
28433.60434129191
 20
1867.7494964292871
 30
0.0
 11
28433.60434129191
 21
1987.7494964292871
 31
0.0
  0
LINE
  5
466E
  8
YODOROGO
 10
29001.60434129191
 20
2027.749496429288
 30
0.0
 11
29001.60434129191
 21
1619.749496429288
 31
0.0
  0
LINE
  5
466F
  8
YODOROGO
 10
29073.604341291921
 20
1579.749496429288
 30
0.0
 11
29073.604341291921
 21
2027.749496429288
 31
0.0
  0
LINE
  5
4670
  8
YODOROGO
 10
29261.604341291921
 20
1491.749496429286
 30
0.0
 11
29261.604341291921
 21
2007.749496429288
 31
0.0
  0
LINE
  5
4671
  8
YODOROGO
 10
29197.604341291921
 20
2007.749496429288
 30
0.0
 11
29197.604341291921
 21
1491.749496429286
 31
0.0
  0
LINE
  5
4672
  8
YODOROGO
 10
29385.604341291921
 20
2027.749496429288
 30
0.0
 11
29385.604341291921
 21
1427.749496429288
 31
0.0
  0
LINE
  5
4673
  8
YODOROGO
 10
29457.604341291921
 20
1427.749496429288
 30
0.0
 11
29457.604341291921
 21
2027.749496429288
 31
0.0
  0
LINE
  5
4674
  8
YODOROGO
 10
28657.604341291921
 20
1667.749496429288
 30
0.0
 11
28657.604341291921
 21
1747.74949642929
 31
0.0
  0
LINE
  5
4675
  8
YODOROGO
 10
29885.604341291921
 20
1707.749496429288
 30
0.0
 11
29885.604341291921
 21
1667.749496429288
 31
0.0
  0
LINE
  5
4676
  8
YODOROGO
 10
29885.604341291921
 20
1707.749496429288
 30
0.0
 11
29885.604341291921
 21
1667.749496429288
 31
0.0
  0
ARC
  5
4677
  8
YODOROGO
 10
28906.911576186842
 20
1618.217864442272
 30
0.0
 40
94.705151178741644
 50
274.05244162907098
 51
0.9266642149310712
  0
ARC
  5
4678
  8
YODOROGO
 10
28909.186170719819
 20
1592.61072861044
 30
0.0
 40
164.92042356085511
 50
271.5351210653775
 51
355.52727750585052
  0
LINE
  5
4679
  8
YODOROGO
 10
28913.604341291921
 20
1523.7494964292871
 30
0.0
 11
28913.604341291921
 21
1427.749496429288
 31
0.0
  0
LINE
  5
467A
  8
YODOROGO
 10
28793.60434129191
 20
1667.749496429288
 30
0.0
 11
28657.604341291921
 21
1667.749496429288
 31
0.0
  0
LINE
  5
467B
  8
YODOROGO
 10
28793.60434129191
 20
1603.7494964292871
 30
0.0
 11
28793.60434129191
 21
1667.749496429288
 31
0.0
  0
LINE
  5
467C
  8
YODOROGO
 10
28657.604341291921
 20
1603.7494964292871
 30
0.0
 11
28793.60434129191
 21
1603.7494964292871
 31
0.0
  0
LINE
  5
467D
  8
YODOROGO
 10
28657.604341291921
 20
1523.7494964292871
 30
0.0
 11
28657.604341291921
 21
1603.7494964292871
 31
0.0
  0
LINE
  5
467E
  8
YODOROGO
 10
28793.60434129191
 20
1523.7494964292871
 30
0.0
 11
28657.604341291921
 21
1523.7494964292871
 31
0.0
  0
LINE
  5
467F
  8
YODOROGO
 10
28793.60434129191
 20
1427.749496429288
 30
0.0
 11
28793.60434129191
 21
1523.7494964292871
 31
0.0
  0
LINE
  5
4680
  8
YODOROGO
 10
29197.604341291921
 20
1491.749496429286
 30
0.0
 11
29261.604341291921
 21
1491.749496429286
 31
0.0
  0
LINE
  5
4681
  8
YODOROGO
 10
29385.604341291921
 20
1427.749496429288
 30
0.0
 11
29457.604341291921
 21
1427.749496429288
 31
0.0
  0
LINE
  5
4682
  8
YODOROGO
 10
29737.604341291921
 20
1528.4414521705639
 30
0.0
 11
29737.604341291921
 21
1427.749496429288
 31
0.0
  0
LINE
  5
4683
  8
YODOROGO
 10
29617.604341291921
 20
1427.749496429288
 30
0.0
 11
29737.604341291921
 21
1528.4414521705639
 31
0.0
  0
LINE
  5
4684
  8
YODOROGO
 10
29617.604341291921
 20
1547.749496429288
 30
0.0
 11
29617.604341291921
 21
1427.749496429288
 31
0.0
  0
LINE
  5
4685
  8
YODOROGO
 10
29712.94462869945
 20
1627.749496429288
 30
0.0
 11
29617.604341291921
 21
1547.749496429288
 31
0.0
  0
LINE
  5
4686
  8
YODOROGO
 10
29617.604341291921
 20
1627.749496429288
 30
0.0
 11
29712.94462869945
 21
1627.749496429288
 31
0.0
  0
LINE
  5
4687
  8
YODOROGO
 10
29617.604341291921
 20
1667.749496429288
 30
0.0
 11
29617.604341291921
 21
1627.749496429288
 31
0.0
  0
LINE
  5
4688
  8
YODOROGO
 10
29885.604341291921
 20
1667.749496429288
 30
0.0
 11
29617.604341291921
 21
1667.749496429288
 31
0.0
  0
LINE
  5
4689
  8
YODOROGO
 10
29917.604341291921
 20
1627.749496429288
 30
0.0
 11
29777.604341291921
 21
1627.749496429288
 31
0.0
  0
LINE
  5
468A
  8
YODOROGO
 10
29777.604341291921
 20
1562.0054374176559
 30
0.0
 11
29771.409872985321
 21
1556.807661346234
 31
0.0
  0
LINE
  5
468B
  8
YODOROGO
 10
29777.604341291921
 20
1627.749496429288
 30
0.0
 11
29777.604341291921
 21
1562.0054374176559
 31
0.0
  0
LINE
  5
468C
  8
YODOROGO
 10
29737.604341291921
 20
1528.4414521705639
 30
0.0
 11
29737.604341291921
 21
1427.749496429288
 31
0.0
  0
LINE
  5
468D
  8
YODOROGO
 10
29617.604341291921
 20
1427.749496429288
 30
0.0
 11
29737.604341291921
 21
1528.4414521705639
 31
0.0
  0
LINE
  5
468E
  8
YODOROGO
 10
29617.604341291921
 20
1547.749496429288
 30
0.0
 11
29617.604341291921
 21
1427.749496429288
 31
0.0
  0
LINE
  5
468F
  8
YODOROGO
 10
29712.94462869945
 20
1627.749496429288
 30
0.0
 11
29617.604341291921
 21
1547.749496429288
 31
0.0
  0
LINE
  5
4690
  8
YODOROGO
 10
29617.604341291921
 20
1627.749496429288
 30
0.0
 11
29712.94462869945
 21
1627.749496429288
 31
0.0
  0
LINE
  5
4691
  8
YODOROGO
 10
29617.604341291921
 20
1667.749496429288
 30
0.0
 11
29617.604341291921
 21
1627.749496429288
 31
0.0
  0
LINE
  5
4692
  8
YODOROGO
 10
29885.604341291921
 20
1667.749496429288
 30
0.0
 11
29617.604341291921
 21
1667.749496429288
 31
0.0
  0
LINE
  5
4693
  8
YODOROGO
 10
28793.60434129191
 20
1747.74949642929
 30
0.0
 11
28793.60434129191
 21
1819.7494964292871
 31
0.0
  0
LINE
  5
4694
  8
YODOROGO
 10
28657.604341291921
 20
1747.74949642929
 30
0.0
 11
28793.60434129191
 21
1747.74949642929
 31
0.0
  0
LINE
  5
4695
  8
YODOROGO
 10
28729.604341291921
 20
1867.7494964292871
 30
0.0
 11
28729.604341291921
 21
1923.7494964292871
 31
0.0
  0
LINE
  5
4696
  8
YODOROGO
 10
28793.60434129191
 20
1867.7494964292871
 30
0.0
 11
28729.604341291921
 21
1867.7494964292871
 31
0.0
  0
LINE
  5
4697
  8
YODOROGO
 10
28793.60434129191
 20
1947.749496429288
 30
0.0
 11
28793.60434129191
 21
1867.7494964292871
 31
0.0
  0
ARC
  5
4698
  8
YODOROGO
 10
28753.60434129191
 20
1947.749496429288
 30
0.0
 40
40.0
 50
0.0
 51
90.0
  0
LINE
  5
4699
  8
YODOROGO
 10
28657.604341291921
 20
1987.7494964292871
 30
0.0
 11
28753.60434129191
 21
1987.7494964292871
 31
0.0
  0
LINE
  5
469A
  8
YODOROGO
 10
28657.604341291921
 20
2027.749496429288
 30
0.0
 11
28657.604341291921
 21
1987.7494964292871
 31
0.0
  0
LINE
  5
469B
  8
YODOROGO
 10
29073.604341291921
 20
2027.749496429288
 30
0.0
 11
29001.60434129191
 21
2027.749496429288
 31
0.0
  0
LINE
  5
469C
  8
YODOROGO
 10
29261.604341291921
 20
2007.749496429288
 30
0.0
 11
29197.604341291921
 21
2007.749496429288
 31
0.0
  0
LINE
  5
469D
  8
YODOROGO
 10
29457.604341291921
 20
2027.749496429288
 30
0.0
 11
29385.604341291921
 21
2027.749496429288
 31
0.0
  0
LINE
  5
469E
  8
YODOROGO
 10
29673.604341291921
 20
1707.749496429288
 30
0.0
 11
29673.604341291921
 21
1771.7494964292871
 31
0.0
1001
AUTOCAD_POSTSCRIPT_FIGURE
1002
{
1000
PSFILL
1000
Grayscale
1000
Grayscale
1070
    25
1002
}
  0
LINE
  5
469F
  8
YODOROGO
 10
29617.604341291921
 20
1707.749496429288
 30
0.0
 11
29673.604341291921
 21
1707.749496429288
 31
0.0
1001
AUTOCAD_POSTSCRIPT_FIGURE
1002
{
1000
PSFILL
1000
Grayscale
1000
Grayscale
1070
    25
1002
}
  0
LINE
  5
46A0
  8
YODOROGO
 10
29617.604341291921
 20
1819.7494964292871
 30
0.0
 11
29617.604341291921
 21
1707.749496429288
 31
0.0
1001
AUTOCAD_POSTSCRIPT_FIGURE
1002
{
1000
PSFILL
1000
Grayscale
1000
Grayscale
1070
    25
1002
}
  0
LINE
  5
46A1
  8
YODOROGO
 10
29765.604341291921
 20
1819.7494964292871
 30
0.0
 11
29617.604341291921
 21
1819.7494964292871
 31
0.0
1001
AUTOCAD_POSTSCRIPT_FIGURE
1002
{
1000
PSFILL
1000
Grayscale
1000
Grayscale
1070
    25
1002
}
  0
LINE
  5
46A2
  8
YODOROGO
 10
29765.604341291921
 20
1859.749496429288
 30
0.0
 11
29765.604341291921
 21
1819.7494964292871
 31
0.0
1001
AUTOCAD_POSTSCRIPT_FIGURE
1002
{
1000
PSFILL
1000
Grayscale
1000
Grayscale
1070
    25
1002
}
  0
LINE
  5
46A3
  8
YODOROGO
 10
29617.604341291921
 20
1859.749496429288
 30
0.0
 11
29765.604341291921
 21
1859.749496429288
 31
0.0
1001
AUTOCAD_POSTSCRIPT_FIGURE
1002
{
1000
PSFILL
1000
Grayscale
1000
Grayscale
1070
    25
1002
}
  0
LINE
  5
46A4
  8
YODOROGO
 10
29617.604341291921
 20
1907.7494964292871
 30
0.0
 11
29617.604341291921
 21
1859.749496429288
 31
0.0
1001
AUTOCAD_POSTSCRIPT_FIGURE
1002
{
1000
PSFILL
1000
Grayscale
1000
Grayscale
1070
    25
1002
}
  0
LINE
  5
46A5
  8
YODOROGO
 10
29765.604341291921
 20
1907.7494964292871
 30
0.0
 11
29617.604341291921
 21
1907.7494964292871
 31
0.0
1001
AUTOCAD_POSTSCRIPT_FIGURE
1002
{
1000
PSFILL
1000
Grayscale
1000
Grayscale
1070
    25
1002
}
  0
LINE
  5
46A6
  8
YODOROGO
 10
29765.604341291921
 20
1947.749496429288
 30
0.0
 11
29765.604341291921
 21
1907.7494964292871
 31
0.0
1001
AUTOCAD_POSTSCRIPT_FIGURE
1002
{
1000
PSFILL
1000
Grayscale
1000
Grayscale
1070
    25
1002
}
  0
LINE
  5
46A7
  8
YODOROGO
 10
29617.604341291921
 20
1947.749496429288
 30
0.0
 11
29765.604341291921
 21
1947.749496429288
 31
0.0
1001
AUTOCAD_POSTSCRIPT_FIGURE
1002
{
1000
PSFILL
1000
Grayscale
1000
Grayscale
1070
    25
1002
}
  0
LINE
  5
46A8
  8
YODOROGO
 10
29617.604341291921
 20
2027.749496429288
 30
0.0
 11
29617.604341291921
 21
1947.749496429288
 31
0.0
1001
AUTOCAD_POSTSCRIPT_FIGURE
1002
{
1000
PSFILL
1000
Grayscale
1000
Grayscale
1070
    25
1002
}
  0
LINE
  5
46A9
  8
YODOROGO
 10
29665.604341291921
 20
2027.749496429288
 30
0.0
 11
29617.604341291921
 21
2027.749496429288
 31
0.0
1001
AUTOCAD_POSTSCRIPT_FIGURE
1002
{
1000
PSFILL
1000
Grayscale
1000
Grayscale
1070
    25
1002
}
  0
LINE
  5
46AA
  8
YODOROGO
 10
29665.604341291921
 20
1995.7494964292871
 30
0.0
 11
29665.604341291921
 21
2027.749496429288
 31
0.0
1001
AUTOCAD_POSTSCRIPT_FIGURE
1002
{
1000
PSFILL
1000
Grayscale
1000
Grayscale
1070
    25
1002
}
  0
LINE
  5
46AB
  8
YODOROGO
 10
29765.604341291921
 20
1995.7494964292871
 30
0.0
 11
29665.604341291921
 21
1995.7494964292871
 31
0.0
1001
AUTOCAD_POSTSCRIPT_FIGURE
1002
{
1000
PSFILL
1000
Grayscale
1000
Grayscale
1070
    25
1002
}
  0
LINE
  5
46AC
  8
YODOROGO
 10
29765.604341291921
 20
2027.749496429288
 30
0.0
 11
29765.604341291921
 21
1995.7494964292871
 31
0.0
1001
AUTOCAD_POSTSCRIPT_FIGURE
1002
{
1000
PSFILL
1000
Grayscale
1000
Grayscale
1070
    25
1002
}
  0
LINE
  5
46AD
  8
YODOROGO
 10
29829.604341291921
 20
2027.749496429288
 30
0.0
 11
29765.604341291921
 21
2027.749496429288
 31
0.0
1001
AUTOCAD_POSTSCRIPT_FIGURE
1002
{
1000
PSFILL
1000
Grayscale
1000
Grayscale
1070
    25
1002
}
  0
LINE
  5
46AE
  8
YODOROGO
 10
29829.604341291921
 20
1995.7494964292871
 30
0.0
 11
29829.604341291921
 21
2027.749496429288
 31
0.0
1001
AUTOCAD_POSTSCRIPT_FIGURE
1002
{
1000
PSFILL
1000
Grayscale
1000
Grayscale
1070
    25
1002
}
  0
LINE
  5
46AF
  8
YODOROGO
 10
29829.604341291921
 20
1907.7494964292871
 30
0.0
 11
29829.604341291921
 21
1947.749496429288
 31
0.0
1001
AUTOCAD_POSTSCRIPT_FIGURE
1002
{
1000
PSFILL
1000
Grayscale
1000
Grayscale
1070
    25
1002
}
  0
LINE
  5
46B0
  8
YODOROGO
 10
29829.604341291921
 20
1819.7494964292871
 30
0.0
 11
29829.604341291921
 21
1859.749496429288
 31
0.0
1001
AUTOCAD_POSTSCRIPT_FIGURE
1002
{
1000
PSFILL
1000
Grayscale
1000
Grayscale
1070
    25
1002
}
  0
LINE
  5
46B1
  8
YODOROGO
 10
29921.60434129191
 20
1771.7494964292871
 30
0.0
 11
29921.60434129191
 21
1707.749496429288
 31
0.0
1001
AUTOCAD_POSTSCRIPT_FIGURE
1002
{
1000
PSFILL
1000
Grayscale
1000
Grayscale
1070
    25
1002
}
  0
LINE
  5
46B2
  8
YODOROGO
 10
29829.604341291921
 20
1771.7494964292871
 30
0.0
 11
29921.60434129191
 21
1771.7494964292871
 31
0.0
1001
AUTOCAD_POSTSCRIPT_FIGURE
1002
{
1000
PSFILL
1000
Grayscale
1000
Grayscale
1070
    25
1002
}
  0
LINE
  5
46B3
  8
YODOROGO
 10
29829.604341291921
 20
1707.749496429288
 30
0.0
 11
29829.604341291921
 21
1771.7494964292871
 31
0.0
1001
AUTOCAD_POSTSCRIPT_FIGURE
1002
{
1000
PSFILL
1000
Grayscale
1000
Grayscale
1070
    25
1002
}
  0
LINE
  5
46B4
  8
YODOROGO
 10
29765.604341291921
 20
1707.749496429288
 30
0.0
 11
29829.604341291921
 21
1707.749496429288
 31
0.0
1001
AUTOCAD_POSTSCRIPT_FIGURE
1002
{
1000
PSFILL
1000
Grayscale
1000
Grayscale
1070
    25
1002
}
  0
LINE
  5
46B5
  8
YODOROGO
 10
29765.604341291921
 20
1771.7494964292871
 30
0.0
 11
29765.604341291921
 21
1707.749496429288
 31
0.0
1001
AUTOCAD_POSTSCRIPT_FIGURE
1002
{
1000
PSFILL
1000
Grayscale
1000
Grayscale
1070
    25
1002
}
  0
LINE
  5
46B6
  8
YODOROGO
 10
29673.604341291921
 20
1771.7494964292871
 30
0.0
 11
29765.604341291921
 21
1771.7494964292871
 31
0.0
1001
AUTOCAD_POSTSCRIPT_FIGURE
1002
{
1000
PSFILL
1000
Grayscale
1000
Grayscale
1070
    25
1002
}
  0
ARC
  5
46B7
  8
YODOROGO
 10
31059.517893357912
 20
1602.6807375155761
 30
0.0
 40
178.22128111072141
 50
281.02627495425338
 51
357.77113575573799
  0
LINE
  5
46B8
  8
YODOROGO
 10
31413.604341291921
 20
1907.7494964292871
 30
0.0
 11
31165.604341291921
 21
1907.7494964292871
 31
0.0
  0
LINE
  5
46B9
  8
YODOROGO
 10
31413.604341291921
 20
2027.749496429288
 30
0.0
 11
31165.604341291921
 21
2027.749496429288
 31
0.0
  0
LINE
  5
46BA
  8
YODOROGO
 10
31165.604341291921
 20
1963.749496429286
 30
0.0
 11
31413.604341291921
 21
1963.749496429286
 31
0.0
  0
LINE
  5
46BB
  8
YODOROGO
 10
30791.604341291921
 20
1563.7494964292871
 30
0.0
 11
30791.604341291921
 21
1755.7494964292871
 31
0.0
  0
LINE
  5
46BC
  8
YODOROGO
 10
30763.604341291921
 20
1691.749496429288
 30
0.0
 11
30763.604341291921
 21
1563.7494964292871
 31
0.0
  0
LINE
  5
46BD
  8
YODOROGO
 10
30723.604341291921
 20
1491.749496429288
 30
0.0
 11
30723.604341291921
 21
1691.749496429288
 31
0.0
  0
LINE
  5
46BE
  8
YODOROGO
 10
30899.604341291932
 20
1691.749496429288
 30
0.0
 11
30899.604341291932
 21
1491.749496429288
 31
0.0
  0
LINE
  5
46BF
  8
YODOROGO
 10
30859.604341291932
 20
1563.7494964292871
 30
0.0
 11
30859.604341291932
 21
1691.749496429288
 31
0.0
  0
LINE
  5
46C0
  8
YODOROGO
 10
30831.604341291921
 20
1755.7494964292871
 30
0.0
 11
30831.604341291921
 21
1563.7494964292871
 31
0.0
  0
LINE
  5
46C1
  8
YODOROGO
 10
30973.604341291921
 20
2027.749496429288
 30
0.0
 11
30973.604341291921
 21
1467.749496429288
 31
0.0
  0
LINE
  5
46C2
  8
YODOROGO
 10
30645.604341291921
 20
1427.749496429288
 30
0.0
 11
30645.604341291921
 21
2027.749496429288
 31
0.0
  0
LINE
  5
46C3
  8
YODOROGO
 10
30697.604341291932
 20
1963.749496429286
 30
0.0
 11
30697.604341291932
 21
1427.749496429288
 31
0.0
  0
LINE
  5
46C4
  8
YODOROGO
 10
30925.604341291921
 20
1547.749496429288
 30
0.0
 11
30925.604341291921
 21
1963.749496429286
 31
0.0
  0
LINE
  5
46C5
  8
YODOROGO
 10
30381.604341291932
 20
1627.749496429288
 30
0.0
 11
30381.604341291932
 21
1679.749496429288
 31
0.0
  0
LINE
  5
46C6
  8
YODOROGO
 10
30617.604341291921
 20
1679.749496429288
 30
0.0
 11
30617.604341291921
 21
1627.749496429288
 31
0.0
  0
LINE
  5
46C7
  8
YODOROGO
 10
31165.604341291921
 20
1907.7494964292871
 30
0.0
 11
31165.604341291921
 21
1635.7494964292871
 31
0.0
  0
LINE
  5
46C8
  8
YODOROGO
 10
29949.60434129191
 20
1667.749496429288
 30
0.0
 11
29949.60434129191
 21
1707.749496429288
 31
0.0
  0
LINE
  5
46C9
  8
YODOROGO
 10
29949.60434129191
 20
1667.749496429288
 30
0.0
 11
29949.60434129191
 21
1707.749496429288
 31
0.0
  0
ARC
  5
46CA
  8
YODOROGO
 10
30537.604341291921
 20
1507.749496429288
 30
0.0
 40
80.0
 50
270.0
 51
0.0
  0
LINE
  5
46CB
  8
YODOROGO
 10
30569.604341291921
 20
1599.7494964292871
 30
0.0
 11
30617.604341291921
 21
1599.7494964292871
 31
0.0
  0
LINE
  5
46CC
  8
YODOROGO
 10
30617.604341291921
 20
1627.749496429288
 30
0.0
 11
30529.604341291939
 21
1627.749496429288
 31
0.0
  0
LINE
  5
46CD
  8
YODOROGO
 10
30217.604341291921
 20
1667.749496429288
 30
0.0
 11
29949.60434129191
 21
1667.749496429288
 31
0.0
  0
LINE
  5
46CE
  8
YODOROGO
 10
30217.604341291921
 20
1627.749496429288
 30
0.0
 11
30217.604341291921
 21
1667.749496429288
 31
0.0
  0
LINE
  5
46CF
  8
YODOROGO
 10
30017.604341291921
 20
1627.749496429288
 30
0.0
 11
30217.604341291921
 21
1627.749496429288
 31
0.0
  0
ARC
  5
46D0
  8
YODOROGO
 10
30230.05882870136
 20
1868.885714952901
 30
0.0
 40
321.37763628522822
 50
228.6181454618993
 51
245.660289248906
  0
LINE
  5
46D1
  8
YODOROGO
 10
30105.604341291921
 20
1603.7494964292871
 30
0.0
 11
30097.60434129195
 21
1576.0728158699001
 31
0.0
  0
LINE
  5
46D2
  8
YODOROGO
 10
30189.604341291921
 20
1603.7494964292871
 30
0.0
 11
30105.604341291921
 21
1603.7494964292871
 31
0.0
  0
LINE
  5
46D3
  8
YODOROGO
 10
30177.604341291921
 20
1551.817722473427
 30
0.0
 11
30189.604341291921
 21
1603.7494964292871
 31
0.0
  0
ARC
  5
46D4
  8
YODOROGO
 10
30230.05882870045
 20
1868.885714953002
 30
0.0
 40
321.37763628529081
 50
260.60629297969911
 51
267.77903556555862
  0
LINE
  5
46D5
  8
YODOROGO
 10
30217.604341291921
 20
1427.749496429285
 30
0.0
 11
30217.604341291921
 21
1547.749496429288
 31
0.0
  0
LINE
  5
46D6
  8
YODOROGO
 10
29937.604341291932
 20
1481.3393349155101
 30
0.0
 11
29937.604341291921
 21
1594.531090531141
 31
0.0
  0
LINE
  5
46D7
  8
YODOROGO
 10
30217.604341291921
 20
1667.749496429288
 30
0.0
 11
29949.60434129191
 21
1667.749496429288
 31
0.0
  0
LINE
  5
46D8
  8
YODOROGO
 10
30217.604341291921
 20
1627.749496429288
 30
0.0
 11
30217.604341291921
 21
1667.749496429288
 31
0.0
  0
LINE
  5
46D9
  8
YODOROGO
 10
30017.604341291921
 20
1627.749496429288
 30
0.0
 11
30217.604341291921
 21
1627.749496429288
 31
0.0
  0
ARC
  5
46DA
  8
YODOROGO
 10
30230.05882870136
 20
1868.885714952901
 30
0.0
 40
321.37763628522822
 50
228.6181454618993
 51
245.660289248906
  0
LINE
  5
46DB
  8
YODOROGO
 10
30105.604341291921
 20
1603.7494964292871
 30
0.0
 11
30097.60434129195
 21
1576.0728158699001
 31
0.0
  0
LINE
  5
46DC
  8
YODOROGO
 10
30189.604341291921
 20
1603.7494964292871
 30
0.0
 11
30105.604341291921
 21
1603.7494964292871
 31
0.0
  0
LINE
  5
46DD
  8
YODOROGO
 10
30177.604341291921
 20
1551.817722473427
 30
0.0
 11
30189.604341291921
 21
1603.7494964292871
 31
0.0
  0
ARC
  5
46DE
  8
YODOROGO
 10
30230.05882870045
 20
1868.885714953002
 30
0.0
 40
321.37763628529081
 50
260.60629297969911
 51
267.77903556555862
  0
LINE
  5
46DF
  8
YODOROGO
 10
30217.604341291921
 20
1427.749496429285
 30
0.0
 11
30217.604341291921
 21
1547.749496429288
 31
0.0
  0
LINE
  5
46E0
  8
YODOROGO
 10
29937.604341291932
 20
1481.3393349155101
 30
0.0
 11
29937.604341291921
 21
1594.531090531141
 31
0.0
  0
LINE
  5
46E1
  8
YODOROGO
 10
30433.604341291921
 20
1573.749496429288
 30
0.0
 11
30381.604341291932
 21
1573.749496429288
 31
0.0
  0
LINE
  5
46E2
  8
YODOROGO
 10
30433.604341291921
 20
1601.749496429285
 30
0.0
 11
30433.604341291921
 21
1573.749496429288
 31
0.0
  0
LINE
  5
46E3
  8
YODOROGO
 10
30381.604341291932
 20
1601.749496429285
 30
0.0
 11
30433.604341291921
 21
1601.749496429285
 31
0.0
  0
LINE
  5
46E4
  8
YODOROGO
 10
30381.604341291932
 20
1573.749496429288
 30
0.0
 11
30381.604341291932
 21
1601.749496429285
 31
0.0
  0
LINE
  5
46E5
  8
YODOROGO
 10
30429.604341291921
 20
1577.7494964292871
 30
0.0
 11
30385.604341291921
 21
1577.7494964292871
 31
0.0
  0
LINE
  5
46E6
  8
YODOROGO
 10
30429.604341291921
 20
1597.749496429288
 30
0.0
 11
30429.604341291921
 21
1577.7494964292871
 31
0.0
  0
LINE
  5
46E7
  8
YODOROGO
 10
30385.604341291921
 20
1597.749496429288
 30
0.0
 11
30429.604341291921
 21
1597.749496429288
 31
0.0
  0
LINE
  5
46E8
  8
YODOROGO
 10
30385.604341291921
 20
1577.7494964292871
 30
0.0
 11
30385.604341291921
 21
1597.749496429288
 31
0.0
  0
LINE
  5
46E9
  8
YODOROGO
 10
30425.604341291921
 20
1581.749496429286
 30
0.0
 11
30389.604341291921
 21
1581.749496429286
 31
0.0
  0
LINE
  5
46EA
  8
YODOROGO
 10
30425.604341291921
 20
1593.749496429288
 30
0.0
 11
30425.604341291921
 21
1581.749496429286
 31
0.0
  0
LINE
  5
46EB
  8
YODOROGO
 10
30389.604341291921
 20
1593.749496429288
 30
0.0
 11
30425.604341291921
 21
1593.749496429288
 31
0.0
  0
LINE
  5
46EC
  8
YODOROGO
 10
30389.604341291921
 20
1581.749496429286
 30
0.0
 11
30389.604341291921
 21
1593.749496429288
 31
0.0
  0
LINE
  5
46ED
  8
YODOROGO
 10
30421.604341291932
 20
1585.7494964292871
 30
0.0
 11
30393.604341291921
 21
1585.7494964292871
 31
0.0
  0
LINE
  5
46EE
  8
YODOROGO
 10
30421.604341291932
 20
1589.749496429288
 30
0.0
 11
30421.604341291932
 21
1585.7494964292871
 31
0.0
  0
LINE
  5
46EF
  8
YODOROGO
 10
30393.604341291921
 20
1589.749496429288
 30
0.0
 11
30421.604341291932
 21
1589.749496429288
 31
0.0
  0
LINE
  5
46F0
  8
YODOROGO
 10
30393.604341291921
 20
1585.7494964292871
 30
0.0
 11
30393.604341291921
 21
1589.749496429288
 31
0.0
  0
LINE
  5
46F1
  8
YODOROGO
 10
30465.604341291921
 20
1627.749496429288
 30
0.0
 11
30381.604341291932
 21
1627.749496429288
 31
0.0
  0
LINE
  5
46F2
  8
YODOROGO
 10
30465.604341291921
 20
1547.749496429288
 30
0.0
 11
30465.604341291921
 21
1627.749496429288
 31
0.0
  0
LINE
  5
46F3
  8
YODOROGO
 10
30381.604341291932
 20
1547.749496429288
 30
0.0
 11
30465.604341291921
 21
1547.749496429288
 31
0.0
  0
LINE
  5
46F4
  8
YODOROGO
 10
30381.604341291932
 20
1427.749496429288
 30
0.0
 11
30381.604341291932
 21
1547.749496429288
 31
0.0
  0
LINE
  5
46F5
  8
YODOROGO
 10
30537.604341291921
 20
1427.749496429288
 30
0.0
 11
30381.604341291932
 21
1427.749496429288
 31
0.0
  0
LINE
  5
46F6
  8
YODOROGO
 10
30569.604341291921
 20
1571.749496429285
 30
0.0
 11
30569.604341291921
 21
1599.7494964292871
 31
0.0
  0
ARC
  5
46F7
  8
YODOROGO
 10
30545.604341291921
 20
1571.749496429291
 30
0.0
 40
24.000000000003752
 50
270.0
 51
359.99999999998772
  0
LINE
  5
46F8
  8
YODOROGO
 10
30529.604341291939
 20
1547.749496429288
 30
0.0
 11
30545.604341291921
 21
1547.749496429288
 31
0.0
  0
LINE
  5
46F9
  8
YODOROGO
 10
30529.604341291939
 20
1627.749496429288
 30
0.0
 11
30529.604341291939
 21
1547.749496429288
 31
0.0
  0
LINE
  5
46FA
  8
YODOROGO
 10
30899.604341291932
 20
1547.749496429288
 30
0.0
 11
30925.604341291921
 21
1547.749496429288
 31
0.0
  0
LINE
  5
46FB
  8
YODOROGO
 10
30933.604341291921
 20
1427.749496429288
 30
0.0
 11
30899.604341291932
 21
1427.749496429288
 31
0.0
  0
LINE
  5
46FC
  8
YODOROGO
 10
30763.604341291921
 20
1563.7494964292871
 30
0.0
 11
30791.604341291921
 21
1563.7494964292871
 31
0.0
  0
LINE
  5
46FD
  8
YODOROGO
 10
30899.604341291932
 20
1491.749496429288
 30
0.0
 11
30723.604341291921
 21
1491.749496429288
 31
0.0
  0
LINE
  5
46FE
  8
YODOROGO
 10
30831.604341291921
 20
1563.7494964292871
 30
0.0
 11
30859.604341291932
 21
1563.7494964292871
 31
0.0
  0
LINE
  5
46FF
  8
YODOROGO
 10
30899.604341291932
 20
1427.749496429288
 30
0.0
 11
30899.604341291932
 21
1547.749496429288
 31
0.0
  0
LINE
  5
4700
  8
YODOROGO
 10
30697.604341291932
 20
1427.749496429288
 30
0.0
 11
30645.604341291921
 21
1427.749496429288
 31
0.0
  0
LINE
  5
4701
  8
YODOROGO
 10
30617.604341291921
 20
1599.7494964292871
 30
0.0
 11
30617.604341291921
 21
1507.749496429288
 31
0.0
  0
ARC
  5
4702
  8
YODOROGO
 10
30933.604341291921
 20
1467.749496429288
 30
0.0
 40
40.0
 50
270.0
 51
0.0
  0
LINE
  5
4703
  8
YODOROGO
 10
31093.604341291921
 20
1523.7494964292871
 30
0.0
 11
31093.604341291921
 21
1427.749496429288
 31
0.0
  0
ARC
  5
4704
  8
YODOROGO
 10
31039.721395566768
 20
1637.5313901097329
 30
0.0
 40
125.8955565916754
 50
295.34052442160112
 51
359.18902303418679
  0
LINE
  5
4705
  8
YODOROGO
 10
30617.604341291921
 20
1859.749496429288
 30
0.0
 11
30497.604341291921
 21
1939.749496429288
 31
0.0
  0
LINE
  5
4706
  8
YODOROGO
 10
30497.604341291921
 20
2027.749496429288
 30
0.0
 11
30617.604341291921
 21
1947.749496429288
 31
0.0
  0
LINE
  5
4707
  8
YODOROGO
 10
30529.604341291939
 20
1679.749496429288
 30
0.0
 11
30617.604341291921
 21
1679.749496429288
 31
0.0
  0
LINE
  5
4708
  8
YODOROGO
 10
30617.604341291921
 20
1735.7494964292871
 30
0.0
 11
30529.604341291939
 21
1735.7494964292871
 31
0.0
  0
LINE
  5
4709
  8
YODOROGO
 10
30381.604341291932
 20
1795.7494964292871
 30
0.0
 11
30617.604341291921
 21
1795.7494964292871
 31
0.0
  0
LINE
  5
470A
  8
YODOROGO
 10
30081.604341291921
 20
2027.749496429288
 30
0.0
 11
30021.604341291921
 21
2027.749496429288
 31
0.0
  0
LINE
  5
470B
  8
YODOROGO
 10
30081.604341291921
 20
1827.7494964292871
 30
0.0
 11
30081.604341291921
 21
2027.749496429288
 31
0.0
  0
LINE
  5
470C
  8
YODOROGO
 10
30021.604341291921
 20
1827.7494964292871
 30
0.0
 11
30081.604341291921
 21
1827.7494964292871
 31
0.0
  0
LINE
  5
470D
  8
YODOROGO
 10
30021.604341291921
 20
2027.749496429288
 30
0.0
 11
30021.604341291921
 21
1827.7494964292871
 31
0.0
  0
LINE
  5
470E
  8
YODOROGO
 10
30161.604341291921
 20
2027.749496429288
 30
0.0
 11
30217.604341291921
 21
2027.749496429288
 31
0.0
  0
LINE
  5
470F
  8
YODOROGO
 10
30161.604341291921
 20
1811.749496429288
 30
0.0
 11
30161.604341291921
 21
2027.749496429288
 31
0.0
  0
ARC
  5
4710
  8
YODOROGO
 10
30121.604341291921
 20
1811.749496429288
 30
0.0
 40
40.0
 50
270.0
 51
0.0
  0
LINE
  5
4711
  8
YODOROGO
 10
30021.604341291921
 20
1771.7494964292871
 30
0.0
 11
30121.604341291921
 21
1771.7494964292871
 31
0.0
  0
LINE
  5
4712
  8
YODOROGO
 10
30021.604341291921
 20
1707.749496429288
 30
0.0
 11
30021.604341291921
 21
1771.7494964292871
 31
0.0
  0
LINE
  5
4713
  8
YODOROGO
 10
30137.604341291921
 20
1707.749496429288
 30
0.0
 11
30021.604341291921
 21
1707.749496429288
 31
0.0
  0
ARC
  5
4714
  8
YODOROGO
 10
30137.604341291921
 20
1787.7494964292871
 30
0.0
 40
80.0
 50
270.0
 51
0.0
  0
LINE
  5
4715
  8
YODOROGO
 10
30217.604341291921
 20
2027.749496429288
 30
0.0
 11
30217.604341291921
 21
1787.7494964292871
 31
0.0
  0
LINE
  5
4716
  8
YODOROGO
 10
29977.604341291921
 20
1947.749496429288
 30
0.0
 11
29977.604341291921
 21
1995.7494964292871
 31
0.0
1001
AUTOCAD_POSTSCRIPT_FIGURE
1002
{
1000
PSFILL
1000
Grayscale
1000
Grayscale
1070
    25
1002
}
  0
LINE
  5
4717
  8
YODOROGO
 10
29977.604341291921
 20
1859.749496429288
 30
0.0
 11
29977.604341291921
 21
1907.7494964292871
 31
0.0
1001
AUTOCAD_POSTSCRIPT_FIGURE
1002
{
1000
PSFILL
1000
Grayscale
1000
Grayscale
1070
    25
1002
}
  0
LINE
  5
4718
  8
YODOROGO
 10
29977.604341291921
 20
1707.749496429288
 30
0.0
 11
29977.604341291921
 21
1819.7494964292871
 31
0.0
1001
AUTOCAD_POSTSCRIPT_FIGURE
1002
{
1000
PSFILL
1000
Grayscale
1000
Grayscale
1070
    25
1002
}
  0
LINE
  5
4719
  8
YODOROGO
 10
30381.604341291932
 20
1907.7494964292871
 30
0.0
 11
30497.604341291921
 21
2027.749496429288
 31
0.0
  0
LINE
  5
471A
  8
YODOROGO
 10
30381.604341291932
 20
1819.7494964292871
 30
0.0
 11
30381.604341291932
 21
1907.7494964292871
 31
0.0
  0
LINE
  5
471B
  8
YODOROGO
 10
30497.604341291921
 20
1939.749496429288
 30
0.0
 11
30381.604341291932
 21
1819.7494964292871
 31
0.0
  0
LINE
  5
471C
  8
YODOROGO
 10
30465.604341291921
 20
1679.749496429288
 30
0.0
 11
30465.604341291921
 21
1735.7494964292871
 31
0.0
  0
LINE
  5
471D
  8
YODOROGO
 10
30381.604341291932
 20
1679.749496429288
 30
0.0
 11
30465.604341291921
 21
1679.749496429288
 31
0.0
  0
LINE
  5
471E
  8
YODOROGO
 10
30529.604341291939
 20
1735.7494964292871
 30
0.0
 11
30529.604341291939
 21
1679.749496429288
 31
0.0
  0
LINE
  5
471F
  8
YODOROGO
 10
30381.604341291932
 20
1735.7494964292871
 30
0.0
 11
30381.604341291932
 21
1795.7494964292871
 31
0.0
  0
LINE
  5
4720
  8
YODOROGO
 10
30465.604341291921
 20
1735.7494964292871
 30
0.0
 11
30381.604341291932
 21
1735.7494964292871
 31
0.0
  0
LINE
  5
4721
  8
YODOROGO
 10
30645.604341291921
 20
2027.749496429288
 30
0.0
 11
30973.604341291921
 21
2027.749496429288
 31
0.0
  0
LINE
  5
4722
  8
YODOROGO
 10
30925.604341291921
 20
1963.749496429286
 30
0.0
 11
30697.604341291932
 21
1963.749496429286
 31
0.0
  0
LINE
  5
4723
  8
YODOROGO
 10
30873.604341291921
 20
1819.7494964292871
 30
0.0
 11
30899.604341291932
 21
1819.7494964292871
 31
0.0
  0
LINE
  5
4724
  8
YODOROGO
 10
30899.604341291932
 20
1939.749496429288
 30
0.0
 11
30873.604341291921
 21
1819.7494964292871
 31
0.0
  0
LINE
  5
4725
  8
YODOROGO
 10
30851.604341291939
 20
1939.749496429288
 30
0.0
 11
30899.604341291932
 21
1939.749496429288
 31
0.0
  0
LINE
  5
4726
  8
YODOROGO
 10
30825.604341291921
 20
1819.7494964292871
 30
0.0
 11
30851.604341291939
 21
1939.749496429288
 31
0.0
  0
LINE
  5
4727
  8
YODOROGO
 10
30797.604341291921
 20
1819.7494964292871
 30
0.0
 11
30825.604341291921
 21
1819.7494964292871
 31
0.0
  0
LINE
  5
4728
  8
YODOROGO
 10
30771.604341291939
 20
1939.749496429288
 30
0.0
 11
30797.604341291921
 21
1819.7494964292871
 31
0.0
  0
LINE
  5
4729
  8
YODOROGO
 10
30723.604341291921
 20
1939.749496429288
 30
0.0
 11
30771.604341291939
 21
1939.749496429288
 31
0.0
  0
LINE
  5
472A
  8
YODOROGO
 10
30749.604341291921
 20
1819.7494964292871
 30
0.0
 11
30723.604341291921
 21
1939.749496429288
 31
0.0
  0
LINE
  5
472B
  8
YODOROGO
 10
30723.604341291921
 20
1819.7494964292871
 30
0.0
 11
30749.604341291921
 21
1819.7494964292871
 31
0.0
  0
LINE
  5
472C
  8
YODOROGO
 10
30723.604341291921
 20
1755.7494964292871
 30
0.0
 11
30723.604341291921
 21
1819.7494964292871
 31
0.0
  0
LINE
  5
472D
  8
YODOROGO
 10
30899.604341291932
 20
1755.7494964292871
 30
0.0
 11
30723.604341291921
 21
1755.7494964292871
 31
0.0
  0
LINE
  5
472E
  8
YODOROGO
 10
30899.604341291932
 20
1819.7494964292871
 30
0.0
 11
30899.604341291932
 21
1755.7494964292871
 31
0.0
  0
LINE
  5
472F
  8
YODOROGO
 10
30617.604341291921
 20
1947.749496429288
 30
0.0
 11
30617.604341291921
 21
1859.749496429288
 31
0.0
  0
LINE
  5
4730
  8
YODOROGO
 10
30791.604341291921
 20
1755.7494964292871
 30
0.0
 11
30831.604341291921
 21
1755.7494964292871
 31
0.0
  0
LINE
  5
4731
  8
YODOROGO
 10
30723.604341291921
 20
1691.749496429288
 30
0.0
 11
30763.604341291921
 21
1691.749496429288
 31
0.0
  0
LINE
  5
4732
  8
YODOROGO
 10
30859.604341291932
 20
1691.749496429288
 30
0.0
 11
30899.604341291932
 21
1691.749496429288
 31
0.0
  0
LINE
  5
4733
  8
YODOROGO
 10
30617.604341291921
 20
1795.7494964292871
 30
0.0
 11
30617.604341291921
 21
1735.7494964292871
 31
0.0
  0
LINE
  5
4734
  8
YODOROGO
 10
31165.604341291921
 20
2027.749496429288
 30
0.0
 11
31165.604341291921
 21
1963.749496429286
 31
0.0
  0
LINE
  5
4735
  8
YODOROGO
 10
31533.604341291921
 20
1595.7494964292871
 30
0.0
 11
31533.60434129191
 21
1811.749496429288
 31
0.0
  0
LINE
  5
4736
  8
YODOROGO
 10
31461.60434129191
 20
1987.7494964292871
 30
0.0
 11
31461.60434129191
 21
1635.7494964292871
 31
0.0
  0
LINE
  5
4737
  8
YODOROGO
 10
31653.604341291921
 20
1427.749496429288
 30
0.0
 11
31653.60434129191
 21
1811.749496429288
 31
0.0
  0
LINE
  5
4738
  8
YODOROGO
 10
31589.604341291921
 20
1811.749496429288
 30
0.0
 11
31589.604341291921
 21
1427.749496429288
 31
0.0
  0
LINE
  5
4739
  8
YODOROGO
 10
31237.604341291921
 20
1595.7494964292871
 30
0.0
 11
31237.604341291921
 21
1707.749496429288
 31
0.0
  0
ARC
  5
473A
  8
YODOROGO
 10
31353.914865116069
 20
1607.790351288558
 30
0.0
 40
180.0924485759885
 50
268.62849102169793
 51
356.16638457330322
  0
LINE
  5
473B
  8
YODOROGO
 10
31349.604341291939
 20
1527.749496429288
 30
0.0
 11
31349.604341291939
 21
1427.749496429288
 31
0.0
  0
ARC
  5
473C
  8
YODOROGO
 10
31351.518075724562
 20
1637.838957017655
 30
0.0
 40
110.1060929836122
 50
269.00410209305932
 51
358.91264455492478
  0
LINE
  5
473D
  8
YODOROGO
 10
31589.604341291921
 20
1427.749496429288
 30
0.0
 11
31653.604341291921
 21
1427.749496429288
 31
0.0
  0
LINE
  5
473E
  8
YODOROGO
 10
31533.60434129191
 20
1811.749496429288
 30
0.0
 11
31589.604341291921
 21
1811.749496429288
 31
0.0
  0
LINE
  5
473F
  8
YODOROGO
 10
31621.604341291939
 20
1987.7494964292871
 30
0.0
 11
31461.60434129191
 21
1987.7494964292871
 31
0.0
  0
LINE
  5
4740
  8
YODOROGO
 10
31533.60434129191
 20
1915.7494964292871
 30
0.0
 11
31661.604341291939
 21
1915.7494964292871
 31
0.0
  0
LINE
  5
4741
  8
YODOROGO
 10
31701.604341291939
 20
1875.7494964292871
 30
0.0
 11
31533.60434129191
 21
1875.7494964292871
 31
0.0
  0
LINE
  5
4742
  8
YODOROGO
 10
31237.604341291921
 20
1779.749496429288
 30
0.0
 11
31349.604341291939
 21
1779.749496429288
 31
0.0
  0
LINE
  5
4743
  8
YODOROGO
 10
31237.604341291921
 20
1835.7494964292871
 30
0.0
 11
31237.604341291921
 21
1779.749496429288
 31
0.0
  0
LINE
  5
4744
  8
YODOROGO
 10
31349.604341291939
 20
1835.7494964292871
 30
0.0
 11
31237.604341291921
 21
1835.7494964292871
 31
0.0
  0
LINE
  5
4745
  8
YODOROGO
 10
31349.604341291939
 20
1779.749496429288
 30
0.0
 11
31349.604341291939
 21
1835.7494964292871
 31
0.0
  0
LINE
  5
4746
  8
YODOROGO
 10
31533.60434129191
 20
1875.7494964292871
 30
0.0
 11
31533.60434129191
 21
1915.7494964292871
 31
0.0
  0
LINE
  5
4747
  8
YODOROGO
 10
31413.604341291921
 20
1707.749496429288
 30
0.0
 11
31413.604341291921
 21
1907.7494964292871
 31
0.0
  0
LINE
  5
4748
  8
YODOROGO
 10
31237.604341291921
 20
1707.749496429288
 30
0.0
 11
31413.604341291921
 21
1707.749496429288
 31
0.0
  0
LINE
  5
4749
  8
YODOROGO
 10
31413.604341291921
 20
1963.749496429286
 30
0.0
 11
31413.604341291921
 21
2027.749496429288
 31
0.0
  0
ARC
  5
474A
  8
YODOROGO
 10
31621.604341291939
 20
2003.749496429285
 30
0.0
 40
15.999999999994539
 50
270.0
 51
0.0000000000081422
  0
LINE
  5
474B
  8
YODOROGO
 10
31637.604341291921
 20
2027.749496429288
 30
0.0
 11
31637.604341291921
 21
2003.7494964292871
 31
0.0
  0
LINE
  5
474C
  8
YODOROGO
 10
31701.604341291939
 20
2027.749496429288
 30
0.0
 11
31637.604341291921
 21
2027.749496429288
 31
0.0
  0
LINE
  5
474D
  8
YODOROGO
 10
31701.604341291939
 20
1955.7494964292871
 30
0.0
 11
31701.604341291939
 21
2027.749496429288
 31
0.0
  0
ARC
  5
474E
  8
YODOROGO
 10
31661.604341291939
 20
1955.7494964292871
 30
0.0
 40
40.0
 50
270.0
 51
0.0
  0
LINE
  5
474F
  8
YODOROGO
 10
31701.604341291939
 20
1811.749496429288
 30
0.0
 11
31701.604341291939
 21
1875.7494964292871
 31
0.0
  0
LINE
  5
4750
  8
YODOROGO
 10
31653.60434129191
 20
1811.749496429288
 30
0.0
 11
31701.604341291939
 21
1811.749496429288
 31
0.0
  0
LINE
  5
4751
  8
SUNPOU
  6
CONTINUOUS
 62
     4
 10
18675.746014
 20
20079.091095000022
 30
0.0
 11
18675.746014
 21
20809.093998000018
 31
0.0
  0
LINE
  5
4752
  8
SUNPOU
  6
CONTINUOUS
 62
     4
 10
19376.746014
 20
20079.091095000022
 30
0.0
 11
19376.746014
 21
20809.093998000018
 31
0.0
  0
LINE
  5
4753
  8
SUNPOU
  6
CONTINUOUS
 62
     4
 10
18675.746014
 20
20729.093998000018
 30
0.0
 11
19376.746014
 21
20729.093998000018
 31
0.0
  0
LINE
  5
4754
  8
SUNPOU
  6
CONTINUOUS
 62
     4
 10
19376.746014
 20
20079.091095000022
 30
0.0
 11
19376.746014
 21
20809.093998000018
 31
0.0
  0
LINE
  5
4755
  8
SUNPOU
  6
CONTINUOUS
 62
     4
 10
20077.746013999989
 20
20079.091095000022
 30
0.0
 11
20077.746013999989
 21
20809.093998000018
 31
0.0
  0
LINE
  5
4756
  8
SUNPOU
  6
CONTINUOUS
 62
     4
 10
19376.746014
 20
20729.093998000018
 30
0.0
 11
20077.746013999989
 21
20729.093998000018
 31
0.0
  0
LINE
  5
4757
  8
SUNPOU
  6
CONTINUOUS
 62
     4
 10
20077.746013999989
 20
20079.091095000022
 30
0.0
 11
20077.746013999989
 21
20809.093998000018
 31
0.0
  0
LINE
  5
4758
  8
SUNPOU
  6
CONTINUOUS
 62
     4
 10
20778.746014
 20
20079.091095000022
 30
0.0
 11
20778.746014
 21
20809.093998000018
 31
0.0
  0
LINE
  5
4759
  8
SUNPOU
  6
CONTINUOUS
 62
     4
 10
20077.746013999989
 20
20729.093998000018
 30
0.0
 11
20778.746014
 21
20729.093998000018
 31
0.0
  0
LINE
  5
475A
  8
SUNPOU
  6
CONTINUOUS
 62
     4
 10
20778.746014
 20
20079.091095000022
 30
0.0
 11
20778.746014
 21
20809.093998000018
 31
0.0
  0
LINE
  5
475B
  8
SUNPOU
  6
CONTINUOUS
 62
     4
 10
21536.747003500019
 20
20079.091095000022
 30
0.0
 11
21536.747003500019
 21
20809.093998000018
 31
0.0
  0
LINE
  5
475C
  8
SUNPOU
  6
CONTINUOUS
 62
     4
 10
20778.746014
 20
20729.093998000018
 30
0.0
 11
21536.747003500019
 21
20729.093998000018
 31
0.0
  0
LINE
  5
475D
  8
SUNPOU
  6
CONTINUOUS
 62
     4
 10
18268.246014
 20
20079.091095000022
 30
0.0
 11
18268.246014
 21
20809.093998000018
 31
0.0
  0
LINE
  5
475E
  8
SUNPOU
  6
CONTINUOUS
 62
     4
 10
18225.749708999982
 20
20079.091095000022
 30
0.0
 11
18225.749708999982
 21
20809.093998000018
 31
0.0
  0
LINE
  5
475F
  8
SUNPOU
  6
CONTINUOUS
 62
     4
 10
18268.246014
 20
20729.093998000018
 30
0.0
 11
18508.246014
 21
20729.093998000018
 31
0.0
  0
LINE
  5
4760
  8
SUNPOU
  6
CONTINUOUS
 62
     4
 10
18225.749708999982
 20
20729.093998000018
 30
0.0
 11
17985.749708999982
 21
20729.093998000018
 31
0.0
  0
LINE
  5
4761
  8
SUNPOU
  6
CONTINUOUS
 62
     4
 10
18268.246014
 20
20729.093998000018
 30
0.0
 11
18225.749708999982
 21
20729.093998000018
 31
0.0
  0
LINE
  5
4762
  8
SUNPOU
  6
CONTINUOUS
 62
     4
 10
18268.246014
 20
20079.091095000022
 30
0.0
 11
18268.246014
 21
20809.093998000018
 31
0.0
  0
LINE
  5
4763
  8
SUNPOU
  6
CONTINUOUS
 62
     4
 10
18675.746014
 20
20079.091095000022
 30
0.0
 11
18675.746014
 21
20809.093998000018
 31
0.0
  0
LINE
  5
4764
  8
SUNPOU
  6
CONTINUOUS
 62
     4
 10
18268.246014
 20
20729.093998000018
 30
0.0
 11
18028.246014
 21
20729.093998000018
 31
0.0
  0
LINE
  5
4765
  8
SUNPOU
  6
CONTINUOUS
 62
     4
 10
18675.746014
 20
20729.093998000018
 30
0.0
 11
18915.746014
 21
20729.093998000018
 31
0.0
  0
LINE
  5
4766
  8
SUNPOU
  6
CONTINUOUS
 62
     4
 10
18268.246014
 20
20729.093998000018
 30
0.0
 11
18675.746014
 21
20729.093998000018
 31
0.0
  0
LINE
  5
4767
  8
SUNPOU
  6
CONTINUOUS
 62
     4
 10
23403.246014
 20
20079.091095000022
 30
0.0
 11
23403.246014
 21
20809.093998000018
 31
0.0
  0
LINE
  5
4768
  8
SUNPOU
  6
CONTINUOUS
 62
     4
 10
23445.742319000001
 20
20079.091095000022
 30
0.0
 11
23445.742319000001
 21
20809.093998000018
 31
0.0
  0
LINE
  5
4769
  8
SUNPOU
  6
CONTINUOUS
 62
     4
 10
23403.246014
 20
20729.093998000018
 30
0.0
 11
23163.246014
 21
20729.093998000018
 31
0.0
  0
LINE
  5
476A
  8
SUNPOU
  6
CONTINUOUS
 62
     4
 10
23445.742319000001
 20
20729.093998000018
 30
0.0
 11
23685.742319000001
 21
20729.093998000018
 31
0.0
  0
LINE
  5
476B
  8
SUNPOU
  6
CONTINUOUS
 62
     4
 10
23403.246014
 20
20729.093998000018
 30
0.0
 11
23445.742319000001
 21
20729.093998000018
 31
0.0
  0
LINE
  5
476C
  8
SUNPOU
  6
CONTINUOUS
 62
     4
 10
21944.246014000011
 20
20079.091095000022
 30
0.0
 11
21944.246014000011
 21
20809.093998000018
 31
0.0
  0
LINE
  5
476D
  8
SUNPOU
  6
CONTINUOUS
 62
     4
 10
22645.246014000011
 20
20079.091095000022
 30
0.0
 11
22645.246014000011
 21
20809.093998000018
 31
0.0
  0
LINE
  5
476E
  8
SUNPOU
  6
CONTINUOUS
 62
     4
 10
21944.246014000011
 20
20729.093998000018
 30
0.0
 11
22645.246014000011
 21
20729.093998000018
 31
0.0
  0
LINE
  5
476F
  8
SUNPOU
  6
CONTINUOUS
 62
     4
 10
22645.246014000011
 20
20079.091095000022
 30
0.0
 11
22645.246014000011
 21
20809.093998000018
 31
0.0
  0
LINE
  5
4770
  8
SUNPOU
  6
CONTINUOUS
 62
     4
 10
23403.247003500011
 20
20079.091095000022
 30
0.0
 11
23403.247003500011
 21
20809.093998000018
 31
0.0
  0
LINE
  5
4771
  8
SUNPOU
  6
CONTINUOUS
 62
     4
 10
22645.246014000011
 20
20729.093998000018
 30
0.0
 11
23403.247003500011
 21
20729.093998000018
 31
0.0
  0
LINE
  5
4772
  8
SUNPOU
  6
CONTINUOUS
 62
     4
 10
21536.746014
 20
20079.091095000022
 30
0.0
 11
21536.746014
 21
20809.093998000018
 31
0.0
  0
LINE
  5
4773
  8
SUNPOU
  6
CONTINUOUS
 62
     4
 10
21944.246014000011
 20
20079.091095000022
 30
0.0
 11
21944.246014000011
 21
20809.093998000018
 31
0.0
  0
LINE
  5
4774
  8
SUNPOU
  6
CONTINUOUS
 62
     4
 10
21536.746014
 20
20729.093998000018
 30
0.0
 11
21296.746014
 21
20729.093998000018
 31
0.0
  0
LINE
  5
4775
  8
SUNPOU
  6
CONTINUOUS
 62
     4
 10
21944.246014000011
 20
20729.093998000018
 30
0.0
 11
22184.246014000011
 21
20729.093998000018
 31
0.0
  0
LINE
  5
4776
  8
SUNPOU
  6
CONTINUOUS
 62
     4
 10
21536.746014
 20
20729.093998000018
 30
0.0
 11
21944.246014000011
 21
20729.093998000018
 31
0.0
  0
LINE
  5
4777
  8
SUNPOU
  6
CONTINUOUS
 62
     4
 10
24375.74561799999
 20
13770.09281
 30
0.0
 11
24975.745618000001
 21
13770.09281
 31
0.0
  0
LINE
  5
4778
  8
SUNPOU
  6
CONTINUOUS
 62
     4
 10
23525.744297999991
 20
13727.595515000001
 30
0.0
 11
24975.745618000001
 21
13727.595515000001
 31
0.0
  0
LINE
  5
4779
  8
SUNPOU
  6
CONTINUOUS
 62
     4
 10
24895.745618000001
 20
13770.09281
 30
0.0
 11
24895.745618000001
 21
14010.09281
 31
0.0
  0
LINE
  5
477A
  8
SUNPOU
  6
CONTINUOUS
 62
     4
 10
24895.745618000001
 20
13727.595515000001
 30
0.0
 11
24895.745618000001
 21
13487.595515000001
 31
0.0
  0
LINE
  5
477B
  8
SUNPOU
  6
CONTINUOUS
 62
     4
 10
24895.745618000001
 20
13770.09281
 30
0.0
 11
24895.745618000001
 21
13727.595515000001
 31
0.0
  0
LINE
  5
477C
  8
SUNPOU
  6
CONTINUOUS
 62
     4
 10
24375.74561799999
 20
19956.592809999998
 30
0.0
 11
24975.745618000001
 21
19956.592809999998
 31
0.0
  0
LINE
  5
477D
  8
SUNPOU
  6
CONTINUOUS
 62
     4
 10
23525.744297999991
 20
19999.090104999988
 30
0.0
 11
24975.745618000001
 21
19999.090104999988
 31
0.0
  0
LINE
  5
477E
  8
SUNPOU
  6
CONTINUOUS
 62
     4
 10
24895.745618000001
 20
19956.592809999998
 30
0.0
 11
24895.745618000001
 21
19716.592809999991
 31
0.0
  0
LINE
  5
477F
  8
SUNPOU
  6
CONTINUOUS
 62
     4
 10
24895.745618000001
 20
19999.090104999988
 30
0.0
 11
24895.745618000001
 21
20239.09010500001
 31
0.0
  0
LINE
  5
4780
  8
SUNPOU
  6
CONTINUOUS
 62
     4
 10
24895.745618000001
 20
19956.592809999998
 30
0.0
 11
24895.745618000001
 21
19999.090104999988
 31
0.0
  0
LINE
  5
4781
  8
SUNPOU
  6
CONTINUOUS
 62
     4
 10
23525.744297999991
 20
19999.090104999988
 30
0.0
 11
25375.745618000001
 21
19999.090104999988
 31
0.0
  0
LINE
  5
4782
  8
SUNPOU
  6
CONTINUOUS
 62
     4
 10
23525.744297999991
 20
13727.595515000001
 30
0.0
 11
25375.745618000001
 21
13727.595515000001
 31
0.0
  0
LINE
  5
4783
  8
SUNPOU
  6
CONTINUOUS
 62
     4
 10
25295.745618000001
 20
19999.090104999988
 30
0.0
 11
25295.745618000001
 21
13727.595515000001
 31
0.0
  0
LINE
  5
4784
  8
SUNPOU
  6
CONTINUOUS
 62
     4
 10
24375.74561799999
 20
13770.09281
 30
0.0
 11
24975.745618000001
 21
13770.09281
 31
0.0
  0
LINE
  5
4785
  8
SUNPOU
  6
CONTINUOUS
 62
     4
 10
24375.74561799999
 20
17038.592809999991
 30
0.0
 11
24975.745618000001
 21
17038.592809999991
 31
0.0
  0
LINE
  5
4786
  8
SUNPOU
  6
CONTINUOUS
 62
     4
 10
24895.745618000001
 20
13770.09281
 30
0.0
 11
24895.745618000001
 21
17038.592809999991
 31
0.0
  0
LINE
  5
4787
  8
SUNPOU
  6
CONTINUOUS
 62
     4
 10
24375.74561799999
 20
17038.592809999991
 30
0.0
 11
24975.745618000001
 21
17038.592809999991
 31
0.0
  0
LINE
  5
4788
  8
SUNPOU
  6
CONTINUOUS
 62
     4
 10
24375.74561799999
 20
19956.592809999998
 30
0.0
 11
24975.745618000001
 21
19956.592809999998
 31
0.0
  0
LINE
  5
4789
  8
SUNPOU
  6
CONTINUOUS
 62
     4
 10
24895.745618000001
 20
17038.592809999991
 30
0.0
 11
24895.745618000001
 21
19956.592809999998
 31
0.0
  0
LINE
  5
478A
  8
SUNPOU
  6
CONTINUOUS
 62
     4
 10
24375.74561799999
 20
19956.592809999998
 30
0.0
 11
24575.745618000001
 21
19956.592809999998
 31
0.0
  0
LINE
  5
478B
  8
SUNPOU
  6
CONTINUOUS
 62
     4
 10
23525.744297999991
 20
19198.592809999991
 30
0.0
 11
24575.745618000001
 21
19198.592809999991
 31
0.0
  0
LINE
  5
478C
  8
SUNPOU
  6
CONTINUOUS
 62
     4
 10
24495.74561799999
 20
19956.592809999998
 30
0.0
 11
24495.74561799999
 21
19198.592809999991
 31
0.0
  0
LINE
  5
478D
  8
SUNPOU
  6
CONTINUOUS
 62
     4
 10
23525.744297999991
 20
19198.592809999991
 30
0.0
 11
24575.745618000001
 21
19198.592809999991
 31
0.0
  0
LINE
  5
478E
  8
SUNPOU
  6
CONTINUOUS
 62
     4
 10
23525.744297999991
 20
18497.592809999991
 30
0.0
 11
24575.745618000001
 21
18497.592809999991
 31
0.0
  0
LINE
  5
478F
  8
SUNPOU
  6
CONTINUOUS
 62
     4
 10
24495.74561799999
 20
19198.592809999991
 30
0.0
 11
24495.74561799999
 21
18497.592809999991
 31
0.0
  0
LINE
  5
4790
  8
SUNPOU
  6
CONTINUOUS
 62
     4
 10
23525.744297999991
 20
18497.592809999991
 30
0.0
 11
24575.745618000001
 21
18497.592809999991
 31
0.0
  0
LINE
  5
4791
  8
SUNPOU
  6
CONTINUOUS
 62
     4
 10
23525.744297999991
 20
17796.592809999991
 30
0.0
 11
24575.745618000001
 21
17796.592809999991
 31
0.0
  0
LINE
  5
4792
  8
SUNPOU
  6
CONTINUOUS
 62
     4
 10
24495.74561799999
 20
18497.592809999991
 30
0.0
 11
24495.74561799999
 21
17796.592809999991
 31
0.0
  0
LINE
  5
4793
  8
SUNPOU
  6
CONTINUOUS
 62
     4
 10
23525.744297999991
 20
17796.592809999991
 30
0.0
 11
24575.745618000001
 21
17796.592809999991
 31
0.0
  0
LINE
  5
4794
  8
SUNPOU
  6
CONTINUOUS
 62
     4
 10
24375.74561799999
 20
17038.592809999991
 30
0.0
 11
24575.745618000001
 21
17038.592809999991
 31
0.0
  0
LINE
  5
4795
  8
SUNPOU
  6
CONTINUOUS
 62
     4
 10
24495.74561799999
 20
17796.592809999991
 30
0.0
 11
24495.74561799999
 21
17038.592809999991
 31
0.0
  0
LINE
  5
4796
  8
SUNPOU
  6
CONTINUOUS
 62
     4
 10
24375.74561799999
 20
17038.592809999991
 30
0.0
 11
24575.745618000001
 21
17038.592809999991
 31
0.0
  0
LINE
  5
4797
  8
SUNPOU
  6
CONTINUOUS
 62
     4
 10
23525.744297999991
 20
16280.59281
 30
0.0
 11
24575.745618000001
 21
16280.59281
 31
0.0
  0
LINE
  5
4798
  8
SUNPOU
  6
CONTINUOUS
 62
     4
 10
24495.74561799999
 20
17038.592809999991
 30
0.0
 11
24495.74561799999
 21
16280.59281
 31
0.0
  0
LINE
  5
4799
  8
SUNPOU
  6
CONTINUOUS
 62
     4
 10
23525.744297999991
 20
16280.59281
 30
0.0
 11
24575.745618000001
 21
16280.59281
 31
0.0
  0
LINE
  5
479A
  8
SUNPOU
  6
CONTINUOUS
 62
     4
 10
23525.744297999991
 20
15579.8333215
 30
0.0
 11
24575.745618000001
 21
15579.8333215
 31
0.0
  0
LINE
  5
479B
  8
SUNPOU
  6
CONTINUOUS
 62
     4
 10
24495.74561799999
 20
16280.59281
 30
0.0
 11
24495.74561799999
 21
15579.8333215
 31
0.0
  0
LINE
  5
479C
  8
SUNPOU
  6
CONTINUOUS
 62
     4
 10
23525.744297999991
 20
15579.8333215
 30
0.0
 11
24575.745618000001
 21
15579.8333215
 31
0.0
  0
LINE
  5
479D
  8
SUNPOU
  6
CONTINUOUS
 62
     4
 10
23525.744297999991
 20
14878.592809999989
 30
0.0
 11
24575.745618000001
 21
14878.592809999989
 31
0.0
  0
LINE
  5
479E
  8
SUNPOU
  6
CONTINUOUS
 62
     4
 10
24495.74561799999
 20
15579.8333215
 30
0.0
 11
24495.74561799999
 21
14878.592809999989
 31
0.0
  0
LINE
  5
479F
  8
SUNPOU
  6
CONTINUOUS
 62
     4
 10
23525.744297999991
 20
14878.592809999989
 30
0.0
 11
24575.745618000001
 21
14878.592809999989
 31
0.0
  0
LINE
  5
47A0
  8
SUNPOU
  6
CONTINUOUS
 62
     4
 10
23525.744297999991
 20
14177.59281
 30
0.0
 11
24575.745618000001
 21
14177.59281
 31
0.0
  0
LINE
  5
47A1
  8
SUNPOU
  6
CONTINUOUS
 62
     4
 10
24495.74561799999
 20
14878.592809999989
 30
0.0
 11
24495.74561799999
 21
14177.59281
 31
0.0
  0
LINE
  5
47A2
  8
SUNPOU
  6
CONTINUOUS
 62
     4
 10
23525.744297999991
 20
14177.59281
 30
0.0
 11
24575.745618000001
 21
14177.59281
 31
0.0
  0
LINE
  5
47A3
  8
SUNPOU
  6
CONTINUOUS
 62
     4
 10
24375.74561799999
 20
13770.09281
 30
0.0
 11
24575.745618000001
 21
13770.09281
 31
0.0
  0
LINE
  5
47A4
  8
SUNPOU
  6
CONTINUOUS
 62
     4
 10
24495.74561799999
 20
14177.59281
 30
0.0
 11
24495.74561799999
 21
13770.09281
 31
0.0
  0
LINE
  5
47A5
  8
SUNPOU
  6
CONTINUOUS
 62
     4
 10
18225.743771000001
 20
13647.595515000001
 30
0.0
 11
18225.743771000001
 21
12318.644726
 31
0.0
  0
LINE
  5
47A6
  8
SUNPOU
  6
CONTINUOUS
 62
     4
 10
23445.748256999999
 20
13647.595515000001
 30
0.0
 11
23445.748256999999
 21
12318.644726
 31
0.0
  0
LINE
  5
47A7
  8
SUNPOU
  6
CONTINUOUS
 62
     4
 10
18225.743771000001
 20
12398.644726
 30
0.0
 11
23445.748256999999
 21
12398.644726
 31
0.0
  0
LINE
  5
47A8
  8
SUNPOU
  6
CONTINUOUS
 62
     4
 10
18268.246014
 20
13064.329376
 30
0.0
 11
18268.246014
 21
12718.644726
 31
0.0
  0
LINE
  5
47A9
  8
SUNPOU
  6
CONTINUOUS
 62
     4
 10
18310.748256999999
 20
13647.595515000001
 30
0.0
 11
18310.748256999999
 21
12718.644726
 31
0.0
  0
LINE
  5
47AA
  8
SUNPOU
  6
CONTINUOUS
 62
     4
 10
18268.246014
 20
12798.644726
 30
0.0
 11
18028.246014
 21
12798.644726
 31
0.0
  0
LINE
  5
47AB
  8
SUNPOU
  6
CONTINUOUS
 62
     4
 10
18310.748256999999
 20
12798.644726
 30
0.0
 11
18550.748256999999
 21
12798.644726
 31
0.0
  0
LINE
  5
47AC
  8
SUNPOU
  6
CONTINUOUS
 62
     4
 10
18268.246014
 20
12798.644726
 30
0.0
 11
18310.748256999999
 21
12798.644726
 31
0.0
  0
LINE
  5
47AD
  8
SUNPOU
  6
CONTINUOUS
 62
     4
 10
23403.246014
 20
13064.329376
 30
0.0
 11
23403.246014
 21
12718.644726
 31
0.0
  0
LINE
  5
47AE
  8
SUNPOU
  6
CONTINUOUS
 62
     4
 10
23360.743771000001
 20
13647.595515000001
 30
0.0
 11
23360.743771000001
 21
12718.644726
 31
0.0
  0
LINE
  5
47AF
  8
SUNPOU
  6
CONTINUOUS
 62
     4
 10
23403.246014
 20
12798.644726
 30
0.0
 11
23643.246014
 21
12798.644726
 31
0.0
  0
LINE
  5
47B0
  8
SUNPOU
  6
CONTINUOUS
 62
     4
 10
23360.743771000001
 20
12798.644726
 30
0.0
 11
23120.743771000001
 21
12798.644726
 31
0.0
  0
LINE
  5
47B1
  8
SUNPOU
  6
CONTINUOUS
 62
     4
 10
23403.246014
 20
12798.644726
 30
0.0
 11
23360.743771000001
 21
12798.644726
 31
0.0
  0
LINE
  5
47B2
  8
2-0
  6
CONTINUOUS
 62
     3
 10
21494.246014
 20
13727.592809999989
 30
0.0
 11
21579.246013999989
 21
13727.592809999989
 31
0.0
  0
LINE
  5
47B3
  8
2-0
  6
CONTINUOUS
 62
     3
 10
21579.246013999989
 20
13727.592809999989
 30
0.0
 11
21579.246013999989
 21
13812.59281
 31
0.0
  0
LINE
  5
47B4
  8
2-0
  6
CONTINUOUS
 62
     3
 10
21579.246013999989
 20
13812.59281
 30
0.0
 11
21494.246014
 21
13812.59281
 31
0.0
  0
LINE
  5
47B5
  8
2-0
  6
CONTINUOUS
 62
     3
 10
21494.246014
 20
13812.59281
 30
0.0
 11
21494.246014
 21
13727.592809999989
 31
0.0
  0
LINE
  5
47B6
  8
SUNPOU
  6
CONTINUOUS
 62
     4
 10
23403.246014
 20
13064.329376
 30
0.0
 11
23403.246014
 21
12718.644726
 31
0.0
  0
LINE
  5
47B7
  8
SUNPOU
  6
CONTINUOUS
 62
     4
 10
23445.748256999999
 20
13647.595515000001
 30
0.0
 11
23445.748256999999
 21
12718.644726
 31
0.0
  0
LINE
  5
47B8
  8
SUNPOU
  6
CONTINUOUS
 62
     4
 10
23403.246014
 20
12798.644726
 30
0.0
 11
23163.246014
 21
12798.644726
 31
0.0
  0
LINE
  5
47B9
  8
SUNPOU
  6
CONTINUOUS
 62
     4
 10
23445.748256999999
 20
12798.644726
 30
0.0
 11
23685.748256999999
 21
12798.644726
 31
0.0
  0
LINE
  5
47BA
  8
SUNPOU
  6
CONTINUOUS
 62
     4
 10
23403.246014
 20
12798.644726
 30
0.0
 11
23445.748256999999
 21
12798.644726
 31
0.0
  0
LINE
  5
47BB
  8
SUNPOU
  6
CONTINUOUS
 62
     4
 10
18268.246014
 20
13064.329376
 30
0.0
 11
18268.246014
 21
12718.644726
 31
0.0
  0
LINE
  5
47BC
  8
SUNPOU
  6
CONTINUOUS
 62
     4
 10
18225.743771000001
 20
13647.595515000001
 30
0.0
 11
18225.743771000001
 21
12718.644726
 31
0.0
  0
LINE
  5
47BD
  8
SUNPOU
  6
CONTINUOUS
 62
     4
 10
18268.246014
 20
12798.644726
 30
0.0
 11
18508.246014
 21
12798.644726
 31
0.0
  0
LINE
  5
47BE
  8
SUNPOU
  6
CONTINUOUS
 62
     4
 10
18225.743771000001
 20
12798.644726
 30
0.0
 11
17985.743771000001
 21
12798.644726
 31
0.0
  0
LINE
  5
47BF
  8
SUNPOU
  6
CONTINUOUS
 62
     4
 10
18268.246014
 20
12798.644726
 30
0.0
 11
18225.743771000001
 21
12798.644726
 31
0.0
  0
LINE
  5
47C0
  8
SUNPOU
  6
CONTINUOUS
 62
     4
 10
18145.749708999982
 20
15579.8333215
 30
0.0
 11
17258.791437
 21
15579.8333215
 31
0.0
  0
LINE
  5
47C1
  8
SUNPOU
  6
CONTINUOUS
 62
     4
 10
17338.791437
 20
13770.09281
 30
0.0
 11
17338.791437
 21
15579.8333215
 31
0.0
  0
LINE
  5
47C2
  8
SUNPOU
  6
CONTINUOUS
 62
     4
 10
18145.749708999982
 20
15579.8333215
 30
0.0
 11
17258.791437
 21
15579.8333215
 31
0.0
  0
LINE
  5
47C3
  8
SUNPOU
  6
CONTINUOUS
 62
     4
 10
17338.791437
 20
15579.8333215
 30
0.0
 11
17338.791437
 21
17038.592809999991
 31
0.0
  0
LINE
  5
47C4
  8
SUNPOU
  6
CONTINUOUS
 62
     4
 10
18145.749708999982
 20
18497.592809999991
 30
0.0
 11
17258.791437
 21
18497.592809999991
 31
0.0
  0
LINE
  5
47C5
  8
SUNPOU
  6
CONTINUOUS
 62
     4
 10
17338.791437
 20
17038.592809999991
 30
0.0
 11
17338.791437
 21
18497.592809999991
 31
0.0
  0
LINE
  5
47C6
  8
SUNPOU
  6
CONTINUOUS
 62
     4
 10
18145.749708999982
 20
18497.592809999991
 30
0.0
 11
17258.791437
 21
18497.592809999991
 31
0.0
  0
LINE
  5
47C7
  8
SUNPOU
  6
CONTINUOUS
 62
     4
 10
17338.791437
 20
18497.592809999991
 30
0.0
 11
17338.791437
 21
19956.592809999998
 31
0.0
  0
LINE
  5
47C8
  8
SUNPOU
  6
CONTINUOUS
 62
     4
 10
10182.493519999991
 20
6058.2623149999999
 30
0.0
 11
10182.493519999991
 21
5120.9147379999986
 31
0.0
  0
LINE
  5
47C9
  8
SUNPOU
  6
CONTINUOUS
 62
     4
 10
13450.993519999991
 20
6058.2623149999999
 30
0.0
 11
13450.993519999991
 21
5120.9147379999986
 31
0.0
  0
LINE
  5
47CA
  8
SUNPOU
  6
CONTINUOUS
 62
     4
 10
10182.493519999991
 20
5200.9147379999977
 30
0.0
 11
13450.993519999991
 21
5200.9147379999977
 31
0.0
  0
LINE
  5
47CB
  8
SUNPOU
  6
CONTINUOUS
 62
     4
 10
10182.493519999991
 20
6058.2623149999999
 30
0.0
 11
10182.493519999991
 21
5120.9147379999986
 31
0.0
  0
LINE
  5
47CC
  8
SUNPOU
  6
CONTINUOUS
 62
     4
 10
7264.4935200000027
 20
6058.2623149999999
 30
0.0
 11
7264.4935200000027
 21
5120.9147379999986
 31
0.0
  0
LINE
  5
47CD
  8
SUNPOU
  6
CONTINUOUS
 62
     4
 10
10182.493519999991
 20
5200.9147379999977
 30
0.0
 11
7264.4935200000027
 21
5200.9147379999977
 31
0.0
  0
LINE
  5
47CE
  8
SUNPOU
  6
CONTINUOUS
 62
     4
 10
7264.4935200000027
 20
6058.2623149999999
 30
0.0
 11
7264.4935200000027
 21
5120.9147379999986
 31
0.0
  0
LINE
  5
47CF
  8
SUNPOU
  6
CONTINUOUS
 62
     4
 10
7221.9935200000018
 20
6420.9145730000009
 30
0.0
 11
7221.9935200000018
 21
5120.9147379999986
 31
0.0
  0
LINE
  5
47D0
  8
SUNPOU
  6
CONTINUOUS
 62
     4
 10
7264.4935200000027
 20
5200.9147379999977
 30
0.0
 11
7504.4935200000027
 21
5200.9147379999977
 31
0.0
  0
LINE
  5
47D1
  8
SUNPOU
  6
CONTINUOUS
 62
     4
 10
7221.9935200000018
 20
5200.9147379999977
 30
0.0
 11
6981.9935200000027
 21
5200.9147379999977
 31
0.0
  0
LINE
  5
47D2
  8
SUNPOU
  6
CONTINUOUS
 62
     4
 10
7264.4935200000027
 20
5200.9147379999977
 30
0.0
 11
7221.9935200000018
 21
5200.9147379999977
 31
0.0
  0
LINE
  5
47D3
  8
SUNPOU
  6
CONTINUOUS
 62
     4
 10
13450.993519999991
 20
6058.2623149999999
 30
0.0
 11
13450.993519999991
 21
5120.9147379999986
 31
0.0
  0
LINE
  5
47D4
  8
SUNPOU
  6
CONTINUOUS
 62
     4
 10
13493.493519999991
 20
6420.9145730000009
 30
0.0
 11
13493.493519999991
 21
5120.9147379999986
 31
0.0
  0
LINE
  5
47D5
  8
SUNPOU
  6
CONTINUOUS
 62
     4
 10
13450.993519999991
 20
5200.9147379999977
 30
0.0
 11
13210.99352
 21
5200.9147379999977
 31
0.0
  0
LINE
  5
47D6
  8
SUNPOU
  6
CONTINUOUS
 62
     4
 10
13493.493519999991
 20
5200.9147379999977
 30
0.0
 11
13733.493519999991
 21
5200.9147379999977
 31
0.0
  0
LINE
  5
47D7
  8
SUNPOU
  6
CONTINUOUS
 62
     4
 10
13450.993519999991
 20
5200.9147379999977
 30
0.0
 11
13493.493519999991
 21
5200.9147379999977
 31
0.0
  0
LINE
  5
47D8
  8
SUNPOU
  6
CONTINUOUS
 62
     4
 10
7221.9935200000018
 20
6420.9145730000009
 30
0.0
 11
7221.9935200000018
 21
4720.914902999999
 31
0.0
  0
LINE
  5
47D9
  8
SUNPOU
  6
CONTINUOUS
 62
     4
 10
13493.493519999991
 20
6420.9145730000009
 30
0.0
 11
13493.493519999991
 21
4720.914902999999
 31
0.0
  0
LINE
  5
47DA
  8
SUNPOU
  6
CONTINUOUS
 62
     4
 10
7221.9935200000018
 20
4800.9149030000008
 30
0.0
 11
13493.493519999991
 21
4800.9149030000008
 31
0.0
  0
LINE
  5
47DB
  8
SUNPOU
  6
CONTINUOUS
 62
     4
 10
7134.4935200000027
 20
6500.914573
 30
0.0
 11
6051.9931240000069
 21
6500.9145730000009
 31
0.0
  0
LINE
  5
47DC
  8
SUNPOU
  6
CONTINUOUS
 62
     4
 10
6961.9935200000036
 20
8657.9145730000018
 30
0.0
 11
6051.9931240000069
 21
8657.9145730000018
 31
0.0
  0
LINE
  5
47DD
  8
SUNPOU
  6
CONTINUOUS
 62
     4
 10
6131.9931240000078
 20
6500.9145730000009
 30
0.0
 11
6131.9931240000078
 21
8657.9145730000018
 31
0.0
  0
LINE
  5
47DE
  8
SUNPOU
  6
CONTINUOUS
 62
     4
 10
13585.993519999991
 20
6500.914573
 30
0.0
 11
14663.493915999999
 21
6500.9145729999991
 31
0.0
  0
LINE
  5
47DF
  8
SUNPOU
  6
CONTINUOUS
 62
     4
 10
13678.30077959938
 20
8848.914573
 30
0.0
 11
14663.493915999999
 21
8848.914573
 31
0.0
  0
LINE
  5
47E0
  8
SUNPOU
  6
CONTINUOUS
 62
     4
 10
14583.493915999999
 20
6500.9145729999991
 30
0.0
 11
14583.493915999999
 21
8848.914573
 31
0.0
  0
LINE
  5
47E1
  8
SUNPOU
  6
CONTINUOUS
 62
     4
 10
7041.9935200000036
 20
8737.9145730000018
 30
0.0
 11
7041.9935200000036
 21
9728.9162489999999
 31
0.0
  0
LINE
  5
47E2
  8
SUNPOU
  6
CONTINUOUS
 62
     4
 10
7221.9935200000018
 20
8608.1003486838054
 30
0.0
 11
7221.9935200000018
 21
9728.9162489999999
 31
0.0
  0
LINE
  5
47E3
  8
SUNPOU
  6
CONTINUOUS
 62
     4
 10
7041.9935200000036
 20
9648.9162489999999
 30
0.0
 11
6801.9935200000027
 21
9648.9162489999999
 31
0.0
  0
LINE
  5
47E4
  8
SUNPOU
  6
CONTINUOUS
 62
     4
 10
7221.9935200000018
 20
9648.9162489999999
 30
0.0
 11
7461.9935200000027
 21
9648.9162489999999
 31
0.0
  0
LINE
  5
47E5
  8
SUNPOU
  6
CONTINUOUS
 62
     4
 10
7041.9935200000036
 20
9648.9162489999999
 30
0.0
 11
7221.9935200000018
 21
9648.9162489999999
 31
0.0
  0
LINE
  5
47E6
  8
SUNPOU
  6
CONTINUOUS
 62
     4
 10
7221.9935200000018
 20
8608.1003486838054
 30
0.0
 11
7221.9935200000018
 21
9728.9162489999999
 31
0.0
  0
LINE
  5
47E7
  8
SUNPOU
  6
CONTINUOUS
 62
     4
 10
13493.493519999991
 20
8795.8246369999997
 30
0.0
 11
13493.493519999991
 21
9728.9162489999999
 31
0.0
  0
LINE
  5
47E8
  8
SUNPOU
  6
CONTINUOUS
 62
     4
 10
7221.9935200000018
 20
9648.9162489999999
 30
0.0
 11
13493.493519999991
 21
9648.9162489999999
 31
0.0
  0
LINE
  5
47E9
  8
SUNPOU
  6
CONTINUOUS
 62
     4
 10
13493.493519999991
 20
8795.8246369999997
 30
0.0
 11
13493.493519999991
 21
9728.9162489999999
 31
0.0
  0
LINE
  5
47EA
  8
SUNPOU
  6
CONTINUOUS
 62
     4
 10
13643.493519999991
 20
8869.8043964124299
 30
0.0
 11
13643.493519999991
 21
9728.9162489999999
 31
0.0
  0
LINE
  5
47EB
  8
SUNPOU
  6
CONTINUOUS
 62
     4
 10
13493.493519999991
 20
9648.9162489999999
 30
0.0
 11
13253.49352
 21
9648.9162489999999
 31
0.0
  0
LINE
  5
47EC
  8
SUNPOU
  6
CONTINUOUS
 62
     4
 10
13643.493519999991
 20
9648.9162489999999
 30
0.0
 11
13883.493519999991
 21
9648.9162489999999
 31
0.0
  0
LINE
  5
47ED
  8
SUNPOU
  6
CONTINUOUS
 62
     4
 10
13493.493519999991
 20
9648.9162489999999
 30
0.0
 11
13643.493519999991
 21
9648.9162489999999
 31
0.0
  0
LINE
  5
47EE
  8
SUNPOU
  6
CONTINUOUS
 62
     4
 10
7041.9935200000036
 20
8737.9145730000018
 30
0.0
 11
7041.9935200000036
 21
10128.914598999991
 31
0.0
  0
LINE
  5
47EF
  8
SUNPOU
  6
CONTINUOUS
 62
     4
 10
13643.493519999991
 20
8869.8043964124299
 30
0.0
 11
13643.493519999991
 21
10128.914598999991
 31
0.0
  0
LINE
  5
47F0
  8
SUNPOU
  6
CONTINUOUS
 62
     4
 10
7041.9935200000036
 20
10048.914598999991
 30
0.0
 11
13643.493519999991
 21
10048.914598999991
 31
0.0
  0
LINE
  5
47F1
  8
SUNPOU
  6
CONTINUOUS
 62
     4
 10
18225.74997299998
 20
6320.9147379999986
 30
0.0
 11
18225.74997299998
 21
4720.9149029999971
 31
0.0
  0
LINE
  5
47F2
  8
SUNPOU
  6
CONTINUOUS
 62
     4
 10
23445.749972999991
 20
6320.9147379999986
 30
0.0
 11
23445.749972999991
 21
4720.9149029999971
 31
0.0
  0
LINE
  5
47F3
  8
SUNPOU
  6
CONTINUOUS
 62
     4
 10
18225.74997299998
 20
4800.914902999998
 30
0.0
 11
23445.749972999991
 21
4800.914902999998
 31
0.0
  0
LINE
  5
47F4
  8
SUNPOU
  6
CONTINUOUS
 62
     4
 10
18268.249972999991
 20
6058.2623149999972
 30
0.0
 11
18268.249972999991
 21
5120.9147379999986
 31
0.0
  0
LINE
  5
47F5
  8
SUNPOU
  6
CONTINUOUS
 62
     4
 10
18225.74997299998
 20
6320.9147379999986
 30
0.0
 11
18225.74997299998
 21
5120.9147379999986
 31
0.0
  0
LINE
  5
47F6
  8
SUNPOU
  6
CONTINUOUS
 62
     4
 10
18268.249972999991
 20
5200.9147379999977
 30
0.0
 11
18508.249972999991
 21
5200.9147379999977
 31
0.0
  0
LINE
  5
47F7
  8
SUNPOU
  6
CONTINUOUS
 62
     4
 10
18225.74997299998
 20
5200.9147379999977
 30
0.0
 11
17985.74997299998
 21
5200.9147379999977
 31
0.0
  0
LINE
  5
47F8
  8
SUNPOU
  6
CONTINUOUS
 62
     4
 10
18268.249972999991
 20
5200.9147379999977
 30
0.0
 11
18225.74997299998
 21
5200.9147379999977
 31
0.0
  0
LINE
  5
47F9
  8
SUNPOU
  6
CONTINUOUS
 62
     4
 10
23403.253932
 20
6058.2623149999972
 30
0.0
 11
23403.253932
 21
5120.9147379999986
 31
0.0
  0
LINE
  5
47FA
  8
SUNPOU
  6
CONTINUOUS
 62
     4
 10
23445.753931999989
 20
6320.9147379999986
 30
0.0
 11
23445.753931999989
 21
5120.9147379999986
 31
0.0
  0
LINE
  5
47FB
  8
SUNPOU
  6
CONTINUOUS
 62
     4
 10
23403.253932
 20
5200.9147379999977
 30
0.0
 11
23163.253932
 21
5200.9147379999977
 31
0.0
  0
LINE
  5
47FC
  8
SUNPOU
  6
CONTINUOUS
 62
     4
 10
23445.753931999989
 20
5200.9147379999977
 30
0.0
 11
23685.753931999989
 21
5200.9147379999977
 31
0.0
  0
LINE
  5
47FD
  8
SUNPOU
  6
CONTINUOUS
 62
     4
 10
23403.253932
 20
5200.9147379999977
 30
0.0
 11
23445.753931999989
 21
5200.9147379999977
 31
0.0
  0
LINE
  5
47FE
  8
SUNPOU
  6
CONTINUOUS
 62
     4
 10
18268.249972999991
 20
6058.2623149999972
 30
0.0
 11
18268.249972999991
 21
5120.9147379999986
 31
0.0
  0
LINE
  5
47FF
  8
SUNPOU
  6
CONTINUOUS
 62
     4
 10
21536.749972999991
 20
6058.2623149999972
 30
0.0
 11
21536.749972999991
 21
5120.9147379999986
 31
0.0
  0
LINE
  5
4800
  8
SUNPOU
  6
CONTINUOUS
 62
     4
 10
18268.249972999991
 20
5200.9147379999977
 30
0.0
 11
21536.749972999991
 21
5200.9147379999977
 31
0.0
  0
LINE
  5
4801
  8
SUNPOU
  6
CONTINUOUS
 62
     4
 10
21536.749972999991
 20
6058.2623149999972
 30
0.0
 11
21536.749972999991
 21
5120.9147379999986
 31
0.0
  0
LINE
  5
4802
  8
SUNPOU
  6
CONTINUOUS
 62
     4
 10
23403.249972999991
 20
6058.2623149999972
 30
0.0
 11
23403.249972999991
 21
5120.9147379999986
 31
0.0
  0
LINE
  5
4803
  8
SUNPOU
  6
CONTINUOUS
 62
     4
 10
21536.749972999991
 20
5200.9147379999977
 30
0.0
 11
23403.249972999991
 21
5200.9147379999977
 31
0.0
  0
LINE
  5
4804
  8
SUNPOU
  6
CONTINUOUS
 62
     4
 10
21630.74997299998
 20
6320.9147379999986
 30
0.0
 11
21630.74997299998
 21
5520.9147380000004
 31
0.0
  0
LINE
  5
4805
  8
SUNPOU
  6
CONTINUOUS
 62
     4
 10
23309.249972999991
 20
6320.9147379999986
 30
0.0
 11
23309.249972999991
 21
5520.9147380000004
 31
0.0
  0
LINE
  5
4806
  8
SUNPOU
  6
CONTINUOUS
 62
     4
 10
21630.74997299998
 20
5600.9147380000004
 30
0.0
 11
23309.249972999991
 21
5600.9147380000004
 31
0.0
  0
LINE
  5
4807
  8
SUNPOU
  6
CONTINUOUS
 62
     4
 10
18362.249972999991
 20
6320.9147379999986
 30
0.0
 11
18362.249972999991
 21
5520.9147380000004
 31
0.0
  0
LINE
  5
4808
  8
SUNPOU
  6
CONTINUOUS
 62
     4
 10
21442.749972999991
 20
6320.9147379999986
 30
0.0
 11
21442.749972999991
 21
5520.9147380000004
 31
0.0
  0
LINE
  5
4809
  8
SUNPOU
  6
CONTINUOUS
 62
     4
 10
18362.249972999991
 20
5600.9147380000004
 30
0.0
 11
21442.749972999991
 21
5600.9147380000004
 31
0.0
  0
LINE
  5
481A
  8
SUNPOU
  6
CONTINUOUS
 62
     4
 10
18138.24931399999
 20
6500.9145729999973
 30
0.0
 11
16938.248323999971
 21
6500.9145729999973
 31
0.0
  0
LINE
  5
481B
  8
SUNPOU
  6
CONTINUOUS
 62
     4
 10
18105.749577999981
 20
8848.9145730000018
 30
0.0
 11
16938.248323999971
 21
8848.9145730000018
 31
0.0
  0
LINE
  5
481C
  8
SUNPOU
  6
CONTINUOUS
 62
     4
 10
17018.24832399996
 20
6500.9145729999973
 30
0.0
 11
17018.24832399996
 21
8848.9145730000018
 31
0.0
  0
LINE
  5
481D
  8
SUNPOU
  6
CONTINUOUS
 62
     4
 10
18138.24931399999
 20
6500.9145729999973
 30
0.0
 11
17338.25063299996
 21
6500.9145729999973
 31
0.0
  0
LINE
  5
481E
  8
SUNPOU
  6
CONTINUOUS
 62
     4
 10
18138.24931399999
 20
8392.4145729999982
 30
0.0
 11
17338.250632999981
 21
8392.4145729999982
 31
0.0
  0
LINE
  5
481F
  8
SUNPOU
  6
CONTINUOUS
 62
     4
 10
17418.25063299996
 20
6500.9145729999973
 30
0.0
 11
17418.250632999981
 21
8392.4145729999982
 31
0.0
  0
LINE
  5
4823
  8
SUNPOU
  6
CONTINUOUS
 62
     4
 10
7185.3581860000122
 20
20259.096635999991
 30
0.0
 11
7185.3581860000122
 21
20809.10191500001
 31
0.0
  0
LINE
  5
4824
  8
SUNPOU
  6
CONTINUOUS
 62
     4
 10
7270.858186000014
 20
20729.101914999999
 30
0.0
 11
7510.8581860000131
 21
20729.101914999999
 31
0.0
  0
LINE
  5
4825
  8
SUNPOU
  6
CONTINUOUS
 62
     4
 10
7188.3581860000122
 20
20729.101914999999
 30
0.0
 11
6948.3581860000131
 21
20729.101914999999
 31
0.0
  0
LINE
  5
4826
  8
SUNPOU
  6
CONTINUOUS
 62
     4
 10
7270.858186000014
 20
20729.101914999999
 30
0.0
 11
7188.3581860000122
 21
20729.101914999999
 31
0.0
  0
LINE
  5
4827
  8
SUNPOU
  6
CONTINUOUS
 62
     4
 10
10539.35818600001
 20
20729.101914999999
 30
0.0
 11
7270.858186000014
 21
20729.101914999999
 31
0.0
  0
LINE
  5
4828
  8
SUNPOU
  6
CONTINUOUS
 62
     4
 10
12491.346309999981
 20
20259.096635999991
 30
0.0
 11
12491.346309999981
 21
20809.10191500001
 31
0.0
  0
LINE
  5
4829
  8
SUNPOU
  6
CONTINUOUS
 62
     4
 10
12405.846309999981
 20
20729.101914999999
 30
0.0
 11
12165.846309999981
 21
20729.101914999999
 31
0.0
  0
LINE
  5
482A
  8
SUNPOU
  6
CONTINUOUS
 62
     4
 10
12488.346309999981
 20
20729.101914999999
 30
0.0
 11
12728.346309999981
 21
20729.101914999999
 31
0.0
  0
LINE
  5
482B
  8
SUNPOU
  6
CONTINUOUS
 62
     4
 10
12405.846309999981
 20
20729.101914999999
 30
0.0
 11
12488.346309999981
 21
20729.101914999999
 31
0.0
  0
LINE
  5
482C
  8
SUNPOU
  6
CONTINUOUS
 62
     4
 10
10539.346309999981
 20
20729.101914999999
 30
0.0
 11
12405.846309999981
 21
20729.101914999999
 31
0.0
  0
LINE
  5
482D
  8
SUNPOU
  6
CONTINUOUS
 62
     4
 10
7108.3478929999974
 20
20159.092677000019
 30
0.0
 11
6661.3524719999987
 21
20159.092677000019
 31
0.0
  0
LINE
  5
482E
  8
SUNPOU
  6
CONTINUOUS
 62
     4
 10
7108.3522479999938
 20
20179.092677000019
 30
0.0
 11
6661.3524719999987
 21
20179.092677000019
 31
0.0
  0
LINE
  5
4830
  8
SUNPOU
  6
CONTINUOUS
 62
     4
 10
6741.3524719999987
 20
20179.092677000019
 30
0.0
 11
6741.3524719999987
 21
20419.092677000019
 31
0.0
  0
LINE
  5
4831
  8
SUNPOU
  6
CONTINUOUS
 62
     4
 10
6741.3524719999987
 20
20139.092677000019
 30
0.0
 11
6741.3524719999987
 21
20179.092677000019
 31
0.0
  0
LINE
  5
4832
  8
SUNPOU
  6
CONTINUOUS
 62
     4
 10
7108.3522479999938
 20
20179.092677000019
 30
0.0
 11
6261.3524719999978
 21
20179.092677000019
 31
0.0
  0
LINE
  5
4833
  8
SUNPOU
  6
CONTINUOUS
 62
     4
 10
6341.3524719999987
 20
19956.596767999999
 30
0.0
 11
6341.3524719999987
 21
19716.596767999999
 31
0.0
  0
LINE
  5
4834
  8
SUNPOU
  6
CONTINUOUS
 62
     4
 10
6341.3524719999987
 20
20179.092677000019
 30
0.0
 11
6341.3524719999987
 21
20419.092677000019
 31
0.0
  0
LINE
  5
4835
  8
SUNPOU
  6
CONTINUOUS
 62
     4
 10
6341.3524719999987
 20
19956.596767999999
 30
0.0
 11
6341.3524719999987
 21
20179.092677000019
 31
0.0
  0
LINE
  5
4836
  8
SUNPOU
  6
CONTINUOUS
 62
     4
 10
6972.0516049999997
 20
18497.596767999989
 30
0.0
 11
6261.3524719999978
 21
18497.596767999989
 31
0.0
  0
LINE
  5
4837
  8
SUNPOU
  6
CONTINUOUS
 62
     4
 10
6341.3524719999987
 20
18497.596767999989
 30
0.0
 11
6341.3524719999987
 21
19956.596767999999
 31
0.0
  0
LINE
  5
4838
  8
SUNPOU
  6
CONTINUOUS
 62
     4
 10
6972.0516049999997
 20
18497.596767999989
 30
0.0
 11
6261.3524719999978
 21
18497.596767999989
 31
0.0
  0
LINE
  5
4839
  8
SUNPOU
  6
CONTINUOUS
 62
     4
 10
6341.3524719999969
 20
17038.596767999999
 30
0.0
 11
6341.3524719999987
 21
18497.596767999989
 31
0.0
  0
LINE
  5
483A
  8
SUNPOU
  6
CONTINUOUS
 62
     4
 10
6972.0516049999997
 20
15579.59676799999
 30
0.0
 11
6261.3524719999978
 21
15579.59676799999
 31
0.0
  0
LINE
  5
483B
  8
SUNPOU
  6
CONTINUOUS
 62
     4
 10
6341.3524719999987
 20
15579.59676799999
 30
0.0
 11
6341.3524719999987
 21
17038.596767999999
 31
0.0
  0
LINE
  5
483C
  8
SUNPOU
  6
CONTINUOUS
 62
     4
 10
6972.0516049999997
 20
15579.59676799999
 30
0.0
 11
6261.3524719999978
 21
15579.59676799999
 31
0.0
  0
LINE
  5
483D
  8
SUNPOU
  6
CONTINUOUS
 62
     4
 10
6341.3524719999969
 20
13770.09676799999
 30
0.0
 11
6341.3524719999987
 21
15579.59676799999
 31
0.0
  0
LINE
  5
483E
  8
SUNPOU
  6
CONTINUOUS
 62
     4
 10
7108.3478929999974
 20
13577.60145299999
 30
0.0
 11
6261.3524719999978
 21
13577.60145299999
 31
0.0
  0
LINE
  5
483F
  8
SUNPOU
  6
CONTINUOUS
 62
     4
 10
6341.3524719999987
 20
13770.09676799999
 30
0.0
 11
6341.3524719999987
 21
14010.096767999999
 31
0.0
  0
LINE
  5
4840
  8
SUNPOU
  6
CONTINUOUS
 62
     4
 10
6341.3524719999987
 20
13577.60145299999
 30
0.0
 11
6341.3524719999987
 21
13337.601452999999
 31
0.0
  0
LINE
  5
4841
  8
SUNPOU
  6
CONTINUOUS
 62
     4
 10
6341.3524719999987
 20
13770.09676799999
 30
0.0
 11
6341.3524719999987
 21
13577.60145299999
 31
0.0
  0
TEXT
  5
4842
  8
0
  6
CONTINUOUS
 62
     7
 10
6261.3524719999978
 20
12962.14375770263
 30
0.0
 40
160.0
  1
192.5
 50
90.0
  0
TEXT
  5
4843
  8
0
  6
CONTINUOUS
 62
     7
 10
6261.3524719999959
 20
14314.846767999999
 30
0.0
 40
160.0
  1
1809.5
 50
90.0
  0
TEXT
  5
4844
  8
0
  6
CONTINUOUS
 62
     7
 10
6261.3524719999959
 20
16042.430101333341
 30
0.0
 40
160.0
  1
1459
 50
90.0
  0
TEXT
  5
4845
  8
0
  6
CONTINUOUS
 62
     7
 10
6261.352471999995
 20
17501.430101333332
 30
0.0
 40
160.0
  1
1459
 50
90.0
  0
TEXT
  5
4846
  8
0
  6
CONTINUOUS
 62
     7
 10
6261.352471999995
 20
18960.430101333321
 30
0.0
 40
160.0
  1
1459
 50
90.0
  0
TEXT
  5
4847
  8
0
  6
CONTINUOUS
 62
     7
 10
6261.3524719999978
 20
20268.051952807669
 30
0.0
 40
160.0
  1
222.5
 50
90.0
  0
TEXT
  5
4848
  8
0
  6
CONTINUOUS
 62
     7
 10
6661.3524719999987
 20
20299.092677000019
 30
0.0
 40
160.0
  1
20
 50
90.0
  0
TEXT
  5
4849
  8
0
  6
CONTINUOUS
 62
     7
 10
11099.26297666664
 20
20809.10191500001
 30
0.0
 40
160.0
  1
1866.5
  0
TEXT
  5
484A
  8
0
  6
CONTINUOUS
 62
     7
 10
12542.34301602324
 20
20809.10191500001
 30
0.0
 40
160.0
  1
85.5
  0
TEXT
  5
484B
  8
0
  6
CONTINUOUS
 62
     7
 10
8505.1081860000122
 20
20809.10191500001
 30
0.0
 40
160.0
  1
3268.5
  0
TEXT
  5
484C
  8
0
  6
CONTINUOUS
 62
     7
 10
6654.3614799767529
 20
20809.10191500001
 30
0.0
 40
160.0
  1
85.5
  0
TEXT
  5
484E
  8
0
  6
CONTINUOUS
 62
     7
 10
17338.250632999981
 20
6564.893811291272
 30
0.0
 40
160.0
  1
有効開口高サ 1891.5
 50
90.0
  0
TEXT
  5
484F
  8
0
  6
CONTINUOUS
 62
     7
 10
16938.248323999971
 20
6869.5812396666679
 30
0.0
 40
160.0
  1
2348（2588）
 50
90.0
  0
TEXT
  5
4854
  8
0
  6
CONTINUOUS
 62
     7
 10
19001.166639666641
 20
5680.9147380000022
 30
0.0
 40
160.0
  1
有効開口巾 3080.5
  0
TEXT
  5
4855
  8
0
  6
CONTINUOUS
 62
     7
 10
22005.99997299998
 20
5947.5814046666646
 30
0.0
 40
160.0
  1
有効開口巾
  0
TEXT
  5
4856
  8
0
  6
CONTINUOUS
 62
     7
 10
22048.666639666651
 20
5680.9147380000022
 30
0.0
 40
160.0
  1
 1678.5
  0
TEXT
  5
4857
  8
0
  6
CONTINUOUS
 62
     7
 10
22096.666639666651
 20
5280.9147379999977
 30
0.0
 40
160.0
  1
1866.5
  0
TEXT
  5
4858
  8
0
  6
CONTINUOUS
 62
     7
 10
19502.49997299998
 20
5280.9147379999977
 30
0.0
 40
160.0
  1
3268.5
  0
TEXT
  5
4859
  8
0
  6
CONTINUOUS
 62
     7
 10
23531.792922258821
 20
5280.9147379999977
 30
0.0
 40
160.0
  1
42.5
  0
TEXT
  5
485A
  8
0
  6
CONTINUOUS
 62
     7
 10
17659.710982741119
 20
5280.9147379999977
 30
0.0
 40
160.0
  1
42.5
  0
TEXT
  5
485B
  8
0
  6
CONTINUOUS
 62
     7
 10
20555.749972999991
 20
4880.9149029999971
 30
0.0
 40
160.0
  1
5220
  0
TEXT
  5
485C
  8
0
  6
CONTINUOUS
 62
     7
 10
9982.7435200000036
 20
10128.914598999991
 30
0.0
 40
160.0
  1
6601.5
  0
TEXT
  5
485D
  8
0
  6
CONTINUOUS
 62
     7
 10
13710.16018666667
 20
9728.9162489999999
 30
0.0
 40
160.0
  1
150
  0
TEXT
  5
485E
  8
0
  6
CONTINUOUS
 62
     7
 10
9984.4101866666715
 20
9728.9162489999999
 30
0.0
 40
160.0
  1
6271.5
  0
TEXT
  5
485F
  8
0
  6
CONTINUOUS
 62
     7
 10
6628.6601866666697
 20
9728.9162489999999
 30
0.0
 40
160.0
  1
180
  0
TEXT
  5
4860
  8
0
  6
CONTINUOUS
 62
     7
 10
14503.493915999999
 20
6869.5812396666688
 30
0.0
 40
160.0
  1
2348（2588）
 50
90.0
  0
TEXT
  5
4861
  8
0
  6
CONTINUOUS
 62
     7
 10
6051.9931240000069
 20
6800.7479063333358
 30
0.0
 40
160.0
  1
2157（2397）
 50
90.0
  0
TEXT
  5
4862
  8
0
  6
CONTINUOUS
 62
     7
 10
9984.4101866666715
 20
4880.9149029999999
 30
0.0
 40
160.0
  1
6271.5
  0
TEXT
  5
4863
  8
0
  6
CONTINUOUS
 62
     7
 10
13631.812157309811
 20
5280.9147379999977
 30
0.0
 40
160.0
  1
42.5
  0
TEXT
  5
4864
  8
0
  6
CONTINUOUS
 62
     7
 10
6624.8198109036957
 20
5280.9147379999977
 30
0.0
 40
160.0
  1
42.5
  0
TEXT
  5
4865
  8
0
  6
CONTINUOUS
 62
     7
 10
8456.8268533333376
 20
5280.9147379999977
 30
0.0
 40
160.0
  1
2918
  0
TEXT
  5
4866
  8
0
  6
CONTINUOUS
 62
     7
 10
11416.74352
 20
5280.9147379999977
 30
0.0
 40
160.0
  1
3268.5
  0
TEXT
  5
4867
  8
0
  6
CONTINUOUS
 62
     7
 10
17258.791436999982
 20
18960.42614333333
 30
0.0
 40
160.0
  1
1459
 50
90.0
  0
TEXT
  5
4868
  8
0
  6
CONTINUOUS
 62
     7
 10
17258.791436999982
 20
17501.426143333341
 30
0.0
 40
160.0
  1
1459
 50
90.0
  0
TEXT
  5
4869
  8
0
  6
CONTINUOUS
 62
     7
 10
17258.791436999982
 20
16042.54639908333
 30
0.0
 40
160.0
  1
1459
 50
90.0
  0
TEXT
  5
486A
  8
0
  6
CONTINUOUS
 62
     7
 10
17258.791436999982
 20
14314.96306575
 30
0.0
 40
160.0
  1
1809.5
 50
90.0
  0
TEXT
  5
486B
  8
0
  6
CONTINUOUS
 62
     7
 10
17670.192341617902
 20
12878.644726
 30
0.0
 40
160.0
  1
42.5
  0
TEXT
  5
486C
  8
0
  6
CONTINUOUS
 62
     7
 10
23521.299686382081
 20
12878.644726
 30
0.0
 40
160.0
  1
42.5
  0
TEXT
  5
486D
  8
0
  6
CONTINUOUS
 62
     7
 10
22805.192341617902
 20
12878.644726
 30
0.0
 40
160.0
  1
42.5
  0
TEXT
  5
486E
  8
0
  6
CONTINUOUS
 62
     7
 10
18386.299686382081
 20
12878.644726
 30
0.0
 40
160.0
  1
42.5
  0
TEXT
  5
486F
  8
0
  6
CONTINUOUS
 62
     7
 10
20555.746014
 20
12478.644726
 30
0.0
 40
160.0
  1
5220
  0
TEXT
  5
4870
  8
0
  6
CONTINUOUS
 62
     7
 10
24775.745618000001
 20
13842.91322420355
 30
0.0
 40
160.0
  1
407.5
 50
90.0
  0
TEXT
  5
4871
  8
0
  6
CONTINUOUS
 62
     7
 10
24415.74561799999
 20
14354.75947666667
 30
0.0
 40
160.0
  1
701
 50
90.0
  0
TEXT
  5
4872
  8
0
  6
CONTINUOUS
 62
     7
 10
24415.74561799999
 20
15055.87973241667
 30
0.0
 40
160.0
  1
701
 50
90.0
  0
TEXT
  5
4873
  8
0
  6
CONTINUOUS
 62
     7
 10
24415.74561799999
 20
15756.87973241667
 30
0.0
 40
160.0
  1
701
 50
90.0
  0
TEXT
  5
4874
  8
0
  6
CONTINUOUS
 62
     7
 10
24415.74561799999
 20
16446.25947666667
 30
0.0
 40
160.0
  1
758
 50
90.0
  0
TEXT
  5
4875
  8
0
  6
CONTINUOUS
 62
     7
 10
24415.74561799999
 20
17204.25947666667
 30
0.0
 40
160.0
  1
758
 50
90.0
  0
TEXT
  5
4876
  8
0
  6
CONTINUOUS
 62
     7
 10
24415.74561799999
 20
17973.75947666667
 30
0.0
 40
160.0
  1
701
 50
90.0
  0
TEXT
  5
4877
  8
0
  6
CONTINUOUS
 62
     7
 10
24415.74561799999
 20
18674.75947666667
 30
0.0
 40
160.0
  1
701
 50
90.0
  0
TEXT
  5
4878
  8
0
  6
CONTINUOUS
 62
     7
 10
24415.74561799999
 20
19364.259476666659
 30
0.0
 40
160.0
  1
758
 50
90.0
  0
TEXT
  5
4879
  8
0
  6
CONTINUOUS
 62
     7
 10
24815.745618000001
 20
18230.926143333341
 30
0.0
 40
160.0
  1
2918
 50
90.0
  0
TEXT
  5
487A
  8
0
  6
CONTINUOUS
 62
     7
 10
24815.745618000001
 20
15004.342809999989
 30
0.0
 40
160.0
  1
3268.5
 50
90.0
  0
TEXT
  5
487B
  8
0
  6
CONTINUOUS
 62
     7
 10
25215.745618000001
 20
16490.00947666667
 30
0.0
 40
160.0
  1
6271.5
 50
90.0
  0
TEXT
  5
487C
  8
0
  6
CONTINUOUS
 62
     7
 10
24815.745618000001
 20
20092.646341396779
 30
0.0
 40
160.0
  1
42.5
 50
90.0
  0
TEXT
  5
487D
  8
0
  6
CONTINUOUS
 62
     7
 10
24815.745618000001
 20
13154.03927860321
 30
0.0
 40
160.0
  1
42.5
 50
90.0
  0
TEXT
  5
487E
  8
0
  6
CONTINUOUS
 62
     7
 10
21637.57934733334
 20
20809.093998000018
 30
0.0
 40
160.0
  1
407.5
  0
TEXT
  5
487F
  8
0
  6
CONTINUOUS
 62
     7
 10
22810.913175416681
 20
20809.093998000018
 30
0.0
 40
160.0
  1
758
  0
TEXT
  5
4880
  8
0
  6
CONTINUOUS
 62
     7
 10
22121.412680666661
 20
20489.093998000018
 30
0.0
 40
160.0
  1
701
  0
TEXT
  5
4881
  8
0
  6
CONTINUOUS
 62
     7
 10
23526.057993528801
 20
20809.093998000018
 30
0.0
 40
160.0
  1
42.5
  0
TEXT
  5
4882
  8
0
  6
CONTINUOUS
 62
     7
 10
18369.07934733334
 20
20809.093998000018
 30
0.0
 40
160.0
  1
407.5
  0
TEXT
  5
4883
  8
0
  6
CONTINUOUS
 62
     7
 10
17665.434034471182
 20
20809.093998000018
 30
0.0
 40
160.0
  1
42.5
  0
TEXT
  5
4884
  8
0
  6
CONTINUOUS
 62
     7
 10
20944.413175416681
 20
20809.093998000018
 30
0.0
 40
160.0
  1
758
  0
TEXT
  5
4885
  8
0
  6
CONTINUOUS
 62
     7
 10
20254.912680666672
 20
20809.093998000018
 30
0.0
 40
160.0
  1
701
  0
TEXT
  5
4886
  8
0
  6
CONTINUOUS
 62
     7
 10
19553.912680666672
 20
20809.093998000018
 30
0.0
 40
160.0
  1
701
  0
TEXT
  5
4887
  8
0
  6
CONTINUOUS
 62
     7
 10
18852.912680666672
 20
20489.093998000018
 30
0.0
 40
160.0
  1
701
  0
ARC
  5
4888
  8
0
  6
BYBLOCK
 62
     0
 10
18675.746014
 20
20729.093998000018
 30
0.0
 40
15.0
 50
0.0
 51
180.0
  0
ARC
  5
4889
  8
0
  6
BYBLOCK
 62
     0
 10
18675.746014
 20
20729.093998000018
 30
0.0
 40
15.0
 50
180.0
 51
0.0
  0
ARC
  5
488A
  8
0
  6
BYBLOCK
 62
     0
 10
19376.746014
 20
20729.093998000018
 30
0.0
 40
15.0
 50
180.0
 51
0.0
  0
ARC
  5
488B
  8
0
  6
BYBLOCK
 62
     0
 10
19376.746014
 20
20729.093998000018
 30
0.0
 40
15.0
 50
0.0
 51
180.0
  0
ARC
  5
488C
  8
0
  6
BYBLOCK
 62
     0
 10
19376.746014
 20
20729.093998000018
 30
0.0
 40
15.0
 50
0.0
 51
180.0
  0
ARC
  5
488D
  8
0
  6
BYBLOCK
 62
     0
 10
19376.746014
 20
20729.093998000018
 30
0.0
 40
15.0
 50
180.0
 51
0.0
  0
ARC
  5
488E
  8
0
  6
BYBLOCK
 62
     0
 10
20077.746013999989
 20
20729.093998000018
 30
0.0
 40
15.0
 50
180.0
 51
0.0
  0
ARC
  5
488F
  8
0
  6
BYBLOCK
 62
     0
 10
20077.746013999989
 20
20729.093998000018
 30
0.0
 40
15.0
 50
0.0
 51
180.0
  0
ARC
  5
4890
  8
0
  6
BYBLOCK
 62
     0
 10
20077.746013999989
 20
20729.093998000018
 30
0.0
 40
15.0
 50
0.0
 51
180.0
  0
ARC
  5
4891
  8
0
  6
BYBLOCK
 62
     0
 10
20077.746013999989
 20
20729.093998000018
 30
0.0
 40
15.0
 50
180.0
 51
0.0
  0
ARC
  5
4892
  8
0
  6
BYBLOCK
 62
     0
 10
20778.746014
 20
20729.093998000018
 30
0.0
 40
15.0
 50
180.0
 51
0.0
  0
ARC
  5
4893
  8
0
  6
BYBLOCK
 62
     0
 10
20778.746014
 20
20729.093998000018
 30
0.0
 40
15.0
 50
0.0
 51
180.0
  0
ARC
  5
4894
  8
0
  6
BYBLOCK
 62
     0
 10
20778.746014
 20
20729.093998000018
 30
0.0
 40
15.0
 50
0.0
 51
180.0
  0
ARC
  5
4895
  8
0
  6
BYBLOCK
 62
     0
 10
20778.746014
 20
20729.093998000018
 30
0.0
 40
15.0
 50
180.0
 51
0.0
  0
ARC
  5
4896
  8
0
  6
BYBLOCK
 62
     0
 10
21536.747003500019
 20
20729.093998000018
 30
0.0
 40
15.0
 50
180.0
 51
0.0
  0
ARC
  5
4897
  8
0
  6
BYBLOCK
 62
     0
 10
21536.747003500019
 20
20729.093998000018
 30
0.0
 40
15.0
 50
0.0
 51
180.0
  0
ARC
  5
4898
  8
0
  6
BYBLOCK
 62
     0
 10
18268.246014
 20
20729.093998000018
 30
0.0
 40
15.0
 50
0.0
 51
180.0
  0
ARC
  5
4899
  8
0
  6
BYBLOCK
 62
     0
 10
18268.246014
 20
20729.093998000018
 30
0.0
 40
15.0
 50
180.0
 51
0.0
  0
ARC
  5
489A
  8
0
  6
BYBLOCK
 62
     0
 10
18225.749708999982
 20
20729.093998000018
 30
0.0
 40
15.0
 50
180.0
 51
0.0
  0
ARC
  5
489B
  8
0
  6
BYBLOCK
 62
     0
 10
18225.749708999982
 20
20729.093998000018
 30
0.0
 40
15.0
 50
0.0
 51
180.0
  0
ARC
  5
489C
  8
0
  6
BYBLOCK
 62
     0
 10
18268.246014
 20
20729.093998000018
 30
0.0
 40
15.0
 50
180.0
 51
0.0
  0
ARC
  5
489D
  8
0
  6
BYBLOCK
 62
     0
 10
18268.246014
 20
20729.093998000018
 30
0.0
 40
15.0
 50
0.0
 51
180.0
  0
ARC
  5
489E
  8
0
  6
BYBLOCK
 62
     0
 10
18675.746014
 20
20729.093998000018
 30
0.0
 40
15.0
 50
0.0
 51
180.0
  0
ARC
  5
489F
  8
0
  6
BYBLOCK
 62
     0
 10
18675.746014
 20
20729.093998000018
 30
0.0
 40
15.0
 50
180.0
 51
0.0
  0
ARC
  5
48A0
  8
0
  6
BYBLOCK
 62
     0
 10
23403.246014
 20
20729.093998000018
 30
0.0
 40
15.0
 50
180.0
 51
0.0
  0
ARC
  5
48A1
  8
0
  6
BYBLOCK
 62
     0
 10
23403.246014
 20
20729.093998000018
 30
0.0
 40
15.0
 50
0.0
 51
180.0
  0
ARC
  5
48A2
  8
0
  6
BYBLOCK
 62
     0
 10
23445.742319000001
 20
20729.093998000018
 30
0.0
 40
15.0
 50
0.0
 51
180.0
  0
ARC
  5
48A3
  8
0
  6
BYBLOCK
 62
     0
 10
23445.742319000001
 20
20729.093998000018
 30
0.0
 40
15.0
 50
180.0
 51
0.0
  0
ARC
  5
48A4
  8
0
  6
BYBLOCK
 62
     0
 10
21944.246014000011
 20
20729.093998000018
 30
0.0
 40
15.0
 50
0.0
 51
180.0
  0
ARC
  5
48A5
  8
0
  6
BYBLOCK
 62
     0
 10
21944.246014000011
 20
20729.093998000018
 30
0.0
 40
15.0
 50
180.0
 51
0.0
  0
ARC
  5
48A6
  8
0
  6
BYBLOCK
 62
     0
 10
22645.246014000011
 20
20729.093998000018
 30
0.0
 40
15.0
 50
180.0
 51
0.0
  0
ARC
  5
48A7
  8
0
  6
BYBLOCK
 62
     0
 10
22645.246014000011
 20
20729.093998000018
 30
0.0
 40
15.0
 50
0.0
 51
180.0
  0
ARC
  5
48A8
  8
0
  6
BYBLOCK
 62
     0
 10
22645.246014000011
 20
20729.093998000018
 30
0.0
 40
15.0
 50
0.0
 51
180.0
  0
ARC
  5
48A9
  8
0
  6
BYBLOCK
 62
     0
 10
22645.246014000011
 20
20729.093998000018
 30
0.0
 40
15.0
 50
180.0
 51
0.0
  0
ARC
  5
48AA
  8
0
  6
BYBLOCK
 62
     0
 10
23403.247003500011
 20
20729.093998000018
 30
0.0
 40
15.0
 50
180.0
 51
0.0
  0
ARC
  5
48AB
  8
0
  6
BYBLOCK
 62
     0
 10
23403.247003500011
 20
20729.093998000018
 30
0.0
 40
15.0
 50
0.0
 51
180.0
  0
ARC
  5
48AC
  8
0
  6
BYBLOCK
 62
     0
 10
21536.746014
 20
20729.093998000018
 30
0.0
 40
15.0
 50
180.0
 51
0.0
  0
ARC
  5
48AD
  8
0
  6
BYBLOCK
 62
     0
 10
21536.746014
 20
20729.093998000018
 30
0.0
 40
15.0
 50
0.0
 51
180.0
  0
ARC
  5
48AE
  8
0
  6
BYBLOCK
 62
     0
 10
21944.246014000011
 20
20729.093998000018
 30
0.0
 40
15.0
 50
0.0
 51
180.0
  0
ARC
  5
48AF
  8
0
  6
BYBLOCK
 62
     0
 10
21944.246014000011
 20
20729.093998000018
 30
0.0
 40
15.0
 50
180.0
 51
0.0
  0
ARC
  5
48B0
  8
0
  6
BYBLOCK
 62
     0
 10
24895.745618000001
 20
13770.09281
 30
0.0
 40
15.0
 50
90.0
 51
270.0
  0
ARC
  5
48B1
  8
0
  6
BYBLOCK
 62
     0
 10
24895.745618000001
 20
13770.09281
 30
0.0
 40
15.0
 50
270.0
 51
90.0
  0
ARC
  5
48B2
  8
0
  6
BYBLOCK
 62
     0
 10
24895.745618000001
 20
13727.595515000001
 30
0.0
 40
15.0
 50
270.0
 51
90.0
  0
ARC
  5
48B3
  8
0
  6
BYBLOCK
 62
     0
 10
24895.745618000001
 20
13727.595515000001
 30
0.0
 40
15.0
 50
90.0
 51
270.0
  0
ARC
  5
48B4
  8
0
  6
BYBLOCK
 62
     0
 10
24895.745618000001
 20
19956.592809999998
 30
0.0
 40
15.0
 50
270.0
 51
90.0
  0
ARC
  5
48B5
  8
0
  6
BYBLOCK
 62
     0
 10
24895.745618000001
 20
19956.592809999998
 30
0.0
 40
15.0
 50
90.0
 51
270.0
  0
ARC
  5
48B6
  8
0
  6
BYBLOCK
 62
     0
 10
24895.745618000001
 20
19999.090104999988
 30
0.0
 40
15.0
 50
90.0
 51
270.0
  0
ARC
  5
48B7
  8
0
  6
BYBLOCK
 62
     0
 10
24895.745618000001
 20
19999.090104999988
 30
0.0
 40
15.0
 50
270.0
 51
90.0
  0
ARC
  5
48B8
  8
0
  6
BYBLOCK
 62
     0
 10
25295.745618000001
 20
19999.090104999988
 30
0.0
 40
15.0
 50
270.0
 51
90.0
  0
ARC
  5
48B9
  8
0
  6
BYBLOCK
 62
     0
 10
25295.745618000001
 20
19999.090104999988
 30
0.0
 40
15.0
 50
90.0
 51
270.0
  0
ARC
  5
48BA
  8
0
  6
BYBLOCK
 62
     0
 10
25295.745618000001
 20
13727.595515000001
 30
0.0
 40
15.0
 50
90.0
 51
270.0
  0
ARC
  5
48BB
  8
0
  6
BYBLOCK
 62
     0
 10
25295.745618000001
 20
13727.595515000001
 30
0.0
 40
15.0
 50
270.0
 51
90.0
  0
ARC
  5
48BC
  8
0
  6
BYBLOCK
 62
     0
 10
24895.745618000001
 20
13770.09281
 30
0.0
 40
15.0
 50
90.0
 51
270.0
  0
ARC
  5
48BD
  8
0
  6
BYBLOCK
 62
     0
 10
24895.745618000001
 20
13770.09281
 30
0.0
 40
15.0
 50
270.0
 51
90.0
  0
ARC
  5
48BE
  8
0
  6
BYBLOCK
 62
     0
 10
24895.745618000001
 20
17038.592809999991
 30
0.0
 40
15.0
 50
270.0
 51
90.0
  0
ARC
  5
48BF
  8
0
  6
BYBLOCK
 62
     0
 10
24895.745618000001
 20
17038.592809999991
 30
0.0
 40
15.0
 50
90.0
 51
270.0
  0
ARC
  5
48C0
  8
0
  6
BYBLOCK
 62
     0
 10
24895.745618000001
 20
17038.592809999991
 30
0.0
 40
15.0
 50
90.0
 51
270.0
  0
ARC
  5
48C1
  8
0
  6
BYBLOCK
 62
     0
 10
24895.745618000001
 20
17038.592809999991
 30
0.0
 40
15.0
 50
270.0
 51
90.0
  0
ARC
  5
48C2
  8
0
  6
BYBLOCK
 62
     0
 10
24895.745618000001
 20
19956.592809999998
 30
0.0
 40
15.0
 50
270.0
 51
90.0
  0
ARC
  5
48C3
  8
0
  6
BYBLOCK
 62
     0
 10
24895.745618000001
 20
19956.592809999998
 30
0.0
 40
15.0
 50
90.0
 51
270.0
  0
ARC
  5
48C4
  8
0
  6
BYBLOCK
 62
     0
 10
24495.74561799999
 20
19956.592809999998
 30
0.0
 40
15.0
 50
270.0
 51
90.0
  0
ARC
  5
48C5
  8
0
  6
BYBLOCK
 62
     0
 10
24495.74561799999
 20
19956.592809999998
 30
0.0
 40
15.0
 50
90.0
 51
270.0
  0
ARC
  5
48C6
  8
0
  6
BYBLOCK
 62
     0
 10
24495.74561799999
 20
19198.592809999991
 30
0.0
 40
15.0
 50
90.0
 51
270.0
  0
ARC
  5
48C7
  8
0
  6
BYBLOCK
 62
     0
 10
24495.74561799999
 20
19198.592809999991
 30
0.0
 40
15.0
 50
270.0
 51
90.0
  0
ARC
  5
48C8
  8
0
  6
BYBLOCK
 62
     0
 10
24495.74561799999
 20
19198.592809999991
 30
0.0
 40
15.0
 50
270.0
 51
90.0
  0
ARC
  5
48C9
  8
0
  6
BYBLOCK
 62
     0
 10
24495.74561799999
 20
19198.592809999991
 30
0.0
 40
15.0
 50
90.0
 51
270.0
  0
ARC
  5
48CA
  8
0
  6
BYBLOCK
 62
     0
 10
24495.74561799999
 20
18497.592809999991
 30
0.0
 40
15.0
 50
90.0
 51
270.0
  0
ARC
  5
48CB
  8
0
  6
BYBLOCK
 62
     0
 10
24495.74561799999
 20
18497.592809999991
 30
0.0
 40
15.0
 50
270.0
 51
90.0
  0
ARC
  5
48CC
  8
0
  6
BYBLOCK
 62
     0
 10
24495.74561799999
 20
18497.592809999991
 30
0.0
 40
15.0
 50
270.0
 51
90.0
  0
ARC
  5
48CD
  8
0
  6
BYBLOCK
 62
     0
 10
24495.74561799999
 20
18497.592809999991
 30
0.0
 40
15.0
 50
90.0
 51
270.0
  0
ARC
  5
48CE
  8
0
  6
BYBLOCK
 62
     0
 10
24495.74561799999
 20
17796.592809999991
 30
0.0
 40
15.0
 50
90.0
 51
270.0
  0
ARC
  5
48CF
  8
0
  6
BYBLOCK
 62
     0
 10
24495.74561799999
 20
17796.592809999991
 30
0.0
 40
15.0
 50
270.0
 51
90.0
  0
ARC
  5
48D0
  8
0
  6
BYBLOCK
 62
     0
 10
24495.74561799999
 20
17796.592809999991
 30
0.0
 40
15.0
 50
270.0
 51
90.0
  0
ARC
  5
48D1
  8
0
  6
BYBLOCK
 62
     0
 10
24495.74561799999
 20
17796.592809999991
 30
0.0
 40
15.0
 50
90.0
 51
270.0
  0
ARC
  5
48D2
  8
0
  6
BYBLOCK
 62
     0
 10
24495.74561799999
 20
17038.592809999991
 30
0.0
 40
15.0
 50
90.0
 51
270.0
  0
ARC
  5
48D3
  8
0
  6
BYBLOCK
 62
     0
 10
24495.74561799999
 20
17038.592809999991
 30
0.0
 40
15.0
 50
270.0
 51
90.0
  0
ARC
  5
48D4
  8
0
  6
BYBLOCK
 62
     0
 10
24495.74561799999
 20
17038.592809999991
 30
0.0
 40
15.0
 50
270.0
 51
90.0
  0
ARC
  5
48D5
  8
0
  6
BYBLOCK
 62
     0
 10
24495.74561799999
 20
17038.592809999991
 30
0.0
 40
15.0
 50
90.0
 51
270.0
  0
ARC
  5
48D6
  8
0
  6
BYBLOCK
 62
     0
 10
24495.74561799999
 20
16280.59281
 30
0.0
 40
15.0
 50
90.0
 51
270.0
  0
ARC
  5
48D7
  8
0
  6
BYBLOCK
 62
     0
 10
24495.74561799999
 20
16280.59281
 30
0.0
 40
15.0
 50
270.0
 51
90.0
  0
ARC
  5
48D8
  8
0
  6
BYBLOCK
 62
     0
 10
24495.74561799999
 20
16280.59281
 30
0.0
 40
15.0
 50
270.0
 51
90.0
  0
ARC
  5
48D9
  8
0
  6
BYBLOCK
 62
     0
 10
24495.74561799999
 20
16280.59281
 30
0.0
 40
15.0
 50
90.0
 51
270.0
  0
ARC
  5
48DA
  8
0
  6
BYBLOCK
 62
     0
 10
24495.74561799999
 20
15579.8333215
 30
0.0
 40
15.0
 50
90.0
 51
270.0
  0
ARC
  5
48DB
  8
0
  6
BYBLOCK
 62
     0
 10
24495.74561799999
 20
15579.8333215
 30
0.0
 40
15.0
 50
270.0
 51
90.0
  0
ARC
  5
48DC
  8
0
  6
BYBLOCK
 62
     0
 10
24495.74561799999
 20
15579.8333215
 30
0.0
 40
15.0
 50
270.0
 51
90.0
  0
ARC
  5
48DD
  8
0
  6
BYBLOCK
 62
     0
 10
24495.74561799999
 20
15579.8333215
 30
0.0
 40
15.0
 50
90.0
 51
270.0
  0
ARC
  5
48DE
  8
0
  6
BYBLOCK
 62
     0
 10
24495.74561799999
 20
14878.592809999989
 30
0.0
 40
15.0
 50
90.0
 51
270.0
  0
ARC
  5
48DF
  8
0
  6
BYBLOCK
 62
     0
 10
24495.74561799999
 20
14878.592809999989
 30
0.0
 40
15.0
 50
270.0
 51
90.0
  0
ARC
  5
48E0
  8
0
  6
BYBLOCK
 62
     0
 10
24495.74561799999
 20
14878.592809999989
 30
0.0
 40
15.0
 50
270.0
 51
90.0
  0
ARC
  5
48E1
  8
0
  6
BYBLOCK
 62
     0
 10
24495.74561799999
 20
14878.592809999989
 30
0.0
 40
15.0
 50
90.0
 51
270.0
  0
ARC
  5
48E2
  8
0
  6
BYBLOCK
 62
     0
 10
24495.74561799999
 20
14177.59281
 30
0.0
 40
15.0
 50
90.0
 51
270.0
  0
ARC
  5
48E3
  8
0
  6
BYBLOCK
 62
     0
 10
24495.74561799999
 20
14177.59281
 30
0.0
 40
15.0
 50
270.0
 51
90.0
  0
ARC
  5
48E4
  8
0
  6
BYBLOCK
 62
     0
 10
24495.74561799999
 20
14177.59281
 30
0.0
 40
15.0
 50
270.0
 51
90.0
  0
ARC
  5
48E5
  8
0
  6
BYBLOCK
 62
     0
 10
24495.74561799999
 20
14177.59281
 30
0.0
 40
15.0
 50
90.0
 51
270.0
  0
ARC
  5
48E6
  8
0
  6
BYBLOCK
 62
     0
 10
24495.74561799999
 20
13770.09281
 30
0.0
 40
15.0
 50
90.0
 51
270.0
  0
ARC
  5
48E7
  8
0
  6
BYBLOCK
 62
     0
 10
24495.74561799999
 20
13770.09281
 30
0.0
 40
15.0
 50
270.0
 51
90.0
  0
ARC
  5
48E8
  8
0
  6
BYBLOCK
 62
     0
 10
18225.743771000001
 20
12398.644726
 30
0.0
 40
15.0
 50
0.0
 51
180.0
  0
ARC
  5
48E9
  8
0
  6
BYBLOCK
 62
     0
 10
18225.743771000001
 20
12398.644726
 30
0.0
 40
15.0
 50
180.0
 51
0.0
  0
ARC
  5
48EA
  8
0
  6
BYBLOCK
 62
     0
 10
23445.748256999999
 20
12398.644726
 30
0.0
 40
15.0
 50
180.0
 51
0.0
  0
ARC
  5
48EB
  8
0
  6
BYBLOCK
 62
     0
 10
23445.748256999999
 20
12398.644726
 30
0.0
 40
15.0
 50
0.0
 51
180.0
  0
ARC
  5
48EC
  8
0
  6
BYBLOCK
 62
     0
 10
18268.246014
 20
12798.644726
 30
0.0
 40
15.0
 50
180.0
 51
0.0
  0
ARC
  5
48ED
  8
0
  6
BYBLOCK
 62
     0
 10
18268.246014
 20
12798.644726
 30
0.0
 40
15.0
 50
0.0
 51
180.0
  0
ARC
  5
48EE
  8
0
  6
BYBLOCK
 62
     0
 10
18310.748256999999
 20
12798.644726
 30
0.0
 40
15.0
 50
0.0
 51
180.0
  0
ARC
  5
48EF
  8
0
  6
BYBLOCK
 62
     0
 10
18310.748256999999
 20
12798.644726
 30
0.0
 40
15.0
 50
180.0
 51
0.0
  0
ARC
  5
48F0
  8
0
  6
BYBLOCK
 62
     0
 10
23403.246014
 20
12798.644726
 30
0.0
 40
15.0
 50
0.0
 51
180.0
  0
ARC
  5
48F1
  8
0
  6
BYBLOCK
 62
     0
 10
23403.246014
 20
12798.644726
 30
0.0
 40
15.0
 50
180.0
 51
0.0
  0
ARC
  5
48F2
  8
0
  6
BYBLOCK
 62
     0
 10
23360.743771000001
 20
12798.644726
 30
0.0
 40
15.0
 50
180.0
 51
0.0
  0
ARC
  5
48F3
  8
0
  6
BYBLOCK
 62
     0
 10
23360.743771000001
 20
12798.644726
 30
0.0
 40
15.0
 50
0.0
 51
180.0
  0
ARC
  5
48F4
  8
0
  6
BYBLOCK
 62
     0
 10
23403.246014
 20
12798.644726
 30
0.0
 40
15.0
 50
180.0
 51
0.0
  0
ARC
  5
48F5
  8
0
  6
BYBLOCK
 62
     0
 10
23403.246014
 20
12798.644726
 30
0.0
 40
15.0
 50
0.0
 51
180.0
  0
ARC
  5
48F6
  8
0
  6
BYBLOCK
 62
     0
 10
23445.748256999999
 20
12798.644726
 30
0.0
 40
15.0
 50
0.0
 51
180.0
  0
ARC
  5
48F7
  8
0
  6
BYBLOCK
 62
     0
 10
23445.748256999999
 20
12798.644726
 30
0.0
 40
15.0
 50
180.0
 51
0.0
  0
ARC
  5
48F8
  8
0
  6
BYBLOCK
 62
     0
 10
18268.246014
 20
12798.644726
 30
0.0
 40
15.0
 50
0.0
 51
180.0
  0
ARC
  5
48F9
  8
0
  6
BYBLOCK
 62
     0
 10
18268.246014
 20
12798.644726
 30
0.0
 40
15.0
 50
180.0
 51
0.0
  0
ARC
  5
48FA
  8
0
  6
BYBLOCK
 62
     0
 10
18225.743771000001
 20
12798.644726
 30
0.0
 40
15.0
 50
180.0
 51
0.0
  0
ARC
  5
48FB
  8
0
  6
BYBLOCK
 62
     0
 10
18225.743771000001
 20
12798.644726
 30
0.0
 40
15.0
 50
0.0
 51
180.0
  0
ARC
  5
48FC
  8
0
  6
BYBLOCK
 62
     0
 10
17338.791437
 20
13770.09281
 30
0.0
 40
15.0
 50
90.0
 51
270.0
  0
ARC
  5
48FD
  8
0
  6
BYBLOCK
 62
     0
 10
17338.791437
 20
13770.09281
 30
0.0
 40
15.0
 50
270.0
 51
90.0
  0
ARC
  5
48FE
  8
0
  6
BYBLOCK
 62
     0
 10
17338.791437
 20
15579.8333215
 30
0.0
 40
15.0
 50
270.0
 51
90.0
  0
ARC
  5
48FF
  8
0
  6
BYBLOCK
 62
     0
 10
17338.791437
 20
15579.8333215
 30
0.0
 40
15.0
 50
90.0
 51
270.0
  0
ARC
  5
4900
  8
0
  6
BYBLOCK
 62
     0
 10
17338.791437
 20
15579.8333215
 30
0.0
 40
15.0
 50
90.0
 51
270.0
  0
ARC
  5
4901
  8
0
  6
BYBLOCK
 62
     0
 10
17338.791437
 20
15579.8333215
 30
0.0
 40
15.0
 50
270.0
 51
90.0
  0
ARC
  5
4902
  8
0
  6
BYBLOCK
 62
     0
 10
17338.791437
 20
17038.592809999991
 30
0.0
 40
15.0
 50
270.0
 51
90.0
  0
ARC
  5
4903
  8
0
  6
BYBLOCK
 62
     0
 10
17338.791437
 20
17038.592809999991
 30
0.0
 40
15.0
 50
90.0
 51
270.0
  0
ARC
  5
4904
  8
0
  6
BYBLOCK
 62
     0
 10
17338.791437
 20
17038.592809999991
 30
0.0
 40
15.0
 50
90.0
 51
270.0
  0
ARC
  5
4905
  8
0
  6
BYBLOCK
 62
     0
 10
17338.791437
 20
17038.592809999991
 30
0.0
 40
15.0
 50
270.0
 51
90.0
  0
ARC
  5
4906
  8
0
  6
BYBLOCK
 62
     0
 10
17338.791437
 20
18497.592809999991
 30
0.0
 40
15.0
 50
270.0
 51
90.0
  0
ARC
  5
4907
  8
0
  6
BYBLOCK
 62
     0
 10
17338.791437
 20
18497.592809999991
 30
0.0
 40
15.0
 50
90.0
 51
270.0
  0
ARC
  5
4908
  8
0
  6
BYBLOCK
 62
     0
 10
17338.791437
 20
18497.592809999991
 30
0.0
 40
15.0
 50
90.0
 51
270.0
  0
ARC
  5
4909
  8
0
  6
BYBLOCK
 62
     0
 10
17338.791437
 20
18497.592809999991
 30
0.0
 40
15.0
 50
270.0
 51
90.0
  0
ARC
  5
490A
  8
0
  6
BYBLOCK
 62
     0
 10
17338.791437
 20
19956.592809999998
 30
0.0
 40
15.0
 50
270.0
 51
90.0
  0
ARC
  5
490B
  8
0
  6
BYBLOCK
 62
     0
 10
17338.791437
 20
19956.592809999998
 30
0.0
 40
15.0
 50
90.0
 51
270.0
  0
ARC
  5
490C
  8
0
  6
BYBLOCK
 62
     0
 10
10182.493519999991
 20
5200.9147379999977
 30
0.0
 40
15.0
 50
0.0
 51
180.0
  0
ARC
  5
490D
  8
0
  6
BYBLOCK
 62
     0
 10
10182.493519999991
 20
5200.9147379999977
 30
0.0
 40
15.0
 50
180.0
 51
0.0
  0
ARC
  5
490E
  8
0
  6
BYBLOCK
 62
     0
 10
13450.993519999991
 20
5200.9147379999977
 30
0.0
 40
15.0
 50
180.0
 51
0.0
  0
ARC
  5
490F
  8
0
  6
BYBLOCK
 62
     0
 10
13450.993519999991
 20
5200.9147379999977
 30
0.0
 40
15.0
 50
0.0
 51
180.0
  0
ARC
  5
4910
  8
0
  6
BYBLOCK
 62
     0
 10
10182.493519999991
 20
5200.9147379999977
 30
0.0
 40
15.0
 50
180.0
 51
0.0
  0
ARC
  5
4911
  8
0
  6
BYBLOCK
 62
     0
 10
10182.493519999991
 20
5200.9147379999977
 30
0.0
 40
15.0
 50
0.0
 51
180.0
  0
ARC
  5
4912
  8
0
  6
BYBLOCK
 62
     0
 10
7264.4935200000027
 20
5200.9147379999977
 30
0.0
 40
15.0
 50
0.0
 51
180.0
  0
ARC
  5
4913
  8
0
  6
BYBLOCK
 62
     0
 10
7264.4935200000027
 20
5200.9147379999977
 30
0.0
 40
15.0
 50
180.0
 51
0.0
  0
ARC
  5
4914
  8
0
  6
BYBLOCK
 62
     0
 10
7264.4935200000027
 20
5200.9147379999977
 30
0.0
 40
15.0
 50
0.0
 51
180.0
  0
ARC
  5
4915
  8
0
  6
BYBLOCK
 62
     0
 10
7264.4935200000027
 20
5200.9147379999977
 30
0.0
 40
15.0
 50
180.0
 51
0.0
  0
ARC
  5
4916
  8
0
  6
BYBLOCK
 62
     0
 10
7221.9935200000018
 20
5200.9147379999977
 30
0.0
 40
15.0
 50
180.0
 51
0.0
  0
ARC
  5
4917
  8
0
  6
BYBLOCK
 62
     0
 10
7221.9935200000018
 20
5200.9147379999977
 30
0.0
 40
15.0
 50
0.0
 51
180.0
  0
ARC
  5
4918
  8
0
  6
BYBLOCK
 62
     0
 10
13450.993519999991
 20
5200.9147379999977
 30
0.0
 40
15.0
 50
180.0
 51
0.0
  0
ARC
  5
4919
  8
0
  6
BYBLOCK
 62
     0
 10
13450.993519999991
 20
5200.9147379999977
 30
0.0
 40
15.0
 50
0.0
 51
180.0
  0
ARC
  5
491A
  8
0
  6
BYBLOCK
 62
     0
 10
13493.493519999991
 20
5200.9147379999977
 30
0.0
 40
15.0
 50
0.0
 51
180.0
  0
ARC
  5
491B
  8
0
  6
BYBLOCK
 62
     0
 10
13493.493519999991
 20
5200.9147379999977
 30
0.0
 40
15.0
 50
180.0
 51
0.0
  0
ARC
  5
491C
  8
0
  6
BYBLOCK
 62
     0
 10
7221.9935200000018
 20
4800.9149030000008
 30
0.0
 40
15.0
 50
0.0
 51
180.0
  0
ARC
  5
491D
  8
0
  6
BYBLOCK
 62
     0
 10
7221.9935200000018
 20
4800.9149030000008
 30
0.0
 40
15.0
 50
180.0
 51
0.0
  0
ARC
  5
491E
  8
0
  6
BYBLOCK
 62
     0
 10
13493.493519999991
 20
4800.9149030000008
 30
0.0
 40
15.0
 50
180.0
 51
0.0
  0
ARC
  5
491F
  8
0
  6
BYBLOCK
 62
     0
 10
13493.493519999991
 20
4800.9149030000008
 30
0.0
 40
15.0
 50
0.0
 51
180.0
  0
ARC
  5
4920
  8
0
  6
BYBLOCK
 62
     0
 10
6131.9931240000078
 20
6500.9145730000009
 30
0.0
 40
15.0
 50
90.0
 51
270.0
  0
ARC
  5
4921
  8
0
  6
BYBLOCK
 62
     0
 10
6131.9931240000078
 20
6500.9145730000009
 30
0.0
 40
15.0
 50
270.0
 51
90.0
  0
ARC
  5
4922
  8
0
  6
BYBLOCK
 62
     0
 10
6131.9931240000078
 20
8657.9145730000018
 30
0.0
 40
15.0
 50
270.0
 51
90.0
  0
ARC
  5
4923
  8
0
  6
BYBLOCK
 62
     0
 10
6131.9931240000078
 20
8657.9145730000018
 30
0.0
 40
15.0
 50
90.0
 51
270.0
  0
ARC
  5
4924
  8
0
  6
BYBLOCK
 62
     0
 10
14583.493915999999
 20
6500.9145729999991
 30
0.0
 40
15.0
 50
90.0
 51
270.0
  0
ARC
  5
4925
  8
0
  6
BYBLOCK
 62
     0
 10
14583.493915999999
 20
6500.9145729999991
 30
0.0
 40
15.0
 50
270.0
 51
90.0
  0
ARC
  5
4926
  8
0
  6
BYBLOCK
 62
     0
 10
14583.493915999999
 20
8848.914573
 30
0.0
 40
15.0
 50
270.0
 51
90.0
  0
ARC
  5
4927
  8
0
  6
BYBLOCK
 62
     0
 10
14583.493915999999
 20
8848.914573
 30
0.0
 40
15.0
 50
90.0
 51
270.0
  0
ARC
  5
4928
  8
0
  6
BYBLOCK
 62
     0
 10
7041.9935200000036
 20
9648.9162489999999
 30
0.0
 40
15.0
 50
180.0
 51
0.0
  0
ARC
  5
4929
  8
0
  6
BYBLOCK
 62
     0
 10
7041.9935200000036
 20
9648.9162489999999
 30
0.0
 40
15.0
 50
0.0
 51
180.0
  0
ARC
  5
492A
  8
0
  6
BYBLOCK
 62
     0
 10
7221.9935200000018
 20
9648.9162489999999
 30
0.0
 40
15.0
 50
0.0
 51
180.0
  0
ARC
  5
492B
  8
0
  6
BYBLOCK
 62
     0
 10
7221.9935200000018
 20
9648.9162489999999
 30
0.0
 40
15.0
 50
180.0
 51
0.0
  0
ARC
  5
492C
  8
0
  6
BYBLOCK
 62
     0
 10
7221.9935200000018
 20
9648.9162489999999
 30
0.0
 40
15.0
 50
0.0
 51
180.0
  0
ARC
  5
492D
  8
0
  6
BYBLOCK
 62
     0
 10
7221.9935200000018
 20
9648.9162489999999
 30
0.0
 40
15.0
 50
180.0
 51
0.0
  0
ARC
  5
492E
  8
0
  6
BYBLOCK
 62
     0
 10
13493.493519999991
 20
9648.9162489999999
 30
0.0
 40
15.0
 50
180.0
 51
0.0
  0
ARC
  5
492F
  8
0
  6
BYBLOCK
 62
     0
 10
13493.493519999991
 20
9648.9162489999999
 30
0.0
 40
15.0
 50
0.0
 51
180.0
  0
ARC
  5
4930
  8
0
  6
BYBLOCK
 62
     0
 10
13493.493519999991
 20
9648.9162489999999
 30
0.0
 40
15.0
 50
180.0
 51
0.0
  0
ARC
  5
4931
  8
0
  6
BYBLOCK
 62
     0
 10
13493.493519999991
 20
9648.9162489999999
 30
0.0
 40
15.0
 50
0.0
 51
180.0
  0
ARC
  5
4932
  8
0
  6
BYBLOCK
 62
     0
 10
13643.493519999991
 20
9648.9162489999999
 30
0.0
 40
15.0
 50
0.0
 51
180.0
  0
ARC
  5
4933
  8
0
  6
BYBLOCK
 62
     0
 10
13643.493519999991
 20
9648.9162489999999
 30
0.0
 40
15.0
 50
180.0
 51
0.0
  0
ARC
  5
4934
  8
0
  6
BYBLOCK
 62
     0
 10
7041.9935200000036
 20
10048.914598999991
 30
0.0
 40
15.0
 50
0.0
 51
180.0
  0
ARC
  5
4935
  8
0
  6
BYBLOCK
 62
     0
 10
7041.9935200000036
 20
10048.914598999991
 30
0.0
 40
15.0
 50
180.0
 51
0.0
  0
ARC
  5
4936
  8
0
  6
BYBLOCK
 62
     0
 10
13643.493519999991
 20
10048.914598999991
 30
0.0
 40
15.0
 50
180.0
 51
0.0
  0
ARC
  5
4937
  8
0
  6
BYBLOCK
 62
     0
 10
13643.493519999991
 20
10048.914598999991
 30
0.0
 40
15.0
 50
0.0
 51
180.0
  0
ARC
  5
4938
  8
0
  6
BYBLOCK
 62
     0
 10
18225.74997299998
 20
4800.914902999998
 30
0.0
 40
15.0
 50
0.0
 51
180.0
  0
ARC
  5
4939
  8
0
  6
BYBLOCK
 62
     0
 10
18225.74997299998
 20
4800.914902999998
 30
0.0
 40
15.0
 50
180.0
 51
0.0
  0
ARC
  5
493A
  8
0
  6
BYBLOCK
 62
     0
 10
23445.749972999991
 20
4800.914902999998
 30
0.0
 40
15.0
 50
180.0
 51
0.0
  0
ARC
  5
493B
  8
0
  6
BYBLOCK
 62
     0
 10
23445.749972999991
 20
4800.914902999998
 30
0.0
 40
15.0
 50
0.0
 51
180.0
  0
ARC
  5
493C
  8
0
  6
BYBLOCK
 62
     0
 10
18268.249972999991
 20
5200.9147379999977
 30
0.0
 40
15.0
 50
0.0
 51
180.0
  0
ARC
  5
493D
  8
0
  6
BYBLOCK
 62
     0
 10
18268.249972999991
 20
5200.9147379999977
 30
0.0
 40
15.0
 50
180.0
 51
0.0
  0
ARC
  5
493E
  8
0
  6
BYBLOCK
 62
     0
 10
18225.74997299998
 20
5200.9147379999977
 30
0.0
 40
15.0
 50
180.0
 51
0.0
  0
ARC
  5
493F
  8
0
  6
BYBLOCK
 62
     0
 10
18225.74997299998
 20
5200.9147379999977
 30
0.0
 40
15.0
 50
0.0
 51
180.0
  0
ARC
  5
4940
  8
0
  6
BYBLOCK
 62
     0
 10
23403.253932
 20
5200.9147379999977
 30
0.0
 40
15.0
 50
180.0
 51
0.0
  0
ARC
  5
4941
  8
0
  6
BYBLOCK
 62
     0
 10
23403.253932
 20
5200.9147379999977
 30
0.0
 40
15.0
 50
0.0
 51
180.0
  0
ARC
  5
4942
  8
0
  6
BYBLOCK
 62
     0
 10
23445.753931999989
 20
5200.9147379999977
 30
0.0
 40
15.0
 50
0.0
 51
180.0
  0
ARC
  5
4943
  8
0
  6
BYBLOCK
 62
     0
 10
23445.753931999989
 20
5200.9147379999977
 30
0.0
 40
15.0
 50
180.0
 51
0.0
  0
ARC
  5
4944
  8
0
  6
BYBLOCK
 62
     0
 10
18268.249972999991
 20
5200.9147379999977
 30
0.0
 40
15.0
 50
0.0
 51
180.0
  0
ARC
  5
4945
  8
0
  6
BYBLOCK
 62
     0
 10
18268.249972999991
 20
5200.9147379999977
 30
0.0
 40
15.0
 50
180.0
 51
0.0
  0
ARC
  5
4946
  8
0
  6
BYBLOCK
 62
     0
 10
21536.749972999991
 20
5200.9147379999977
 30
0.0
 40
15.0
 50
180.0
 51
0.0
  0
ARC
  5
4947
  8
0
  6
BYBLOCK
 62
     0
 10
21536.749972999991
 20
5200.9147379999977
 30
0.0
 40
15.0
 50
0.0
 51
180.0
  0
ARC
  5
4948
  8
0
  6
BYBLOCK
 62
     0
 10
21536.749972999991
 20
5200.9147379999977
 30
0.0
 40
15.0
 50
0.0
 51
180.0
  0
ARC
  5
4949
  8
0
  6
BYBLOCK
 62
     0
 10
21536.749972999991
 20
5200.9147379999977
 30
0.0
 40
15.0
 50
180.0
 51
0.0
  0
ARC
  5
494A
  8
0
  6
BYBLOCK
 62
     0
 10
23403.249972999991
 20
5200.9147379999977
 30
0.0
 40
15.0
 50
180.0
 51
0.0
  0
ARC
  5
494B
  8
0
  6
BYBLOCK
 62
     0
 10
23403.249972999991
 20
5200.9147379999977
 30
0.0
 40
15.0
 50
0.0
 51
180.0
  0
ARC
  5
494C
  8
0
  6
BYBLOCK
 62
     0
 10
21630.74997299998
 20
5600.9147380000004
 30
0.0
 40
15.0
 50
0.0
 51
180.0
  0
ARC
  5
494D
  8
0
  6
BYBLOCK
 62
     0
 10
21630.74997299998
 20
5600.9147380000004
 30
0.0
 40
15.0
 50
180.0
 51
0.0
  0
ARC
  5
494E
  8
0
  6
BYBLOCK
 62
     0
 10
23309.249972999991
 20
5600.9147380000004
 30
0.0
 40
15.0
 50
180.0
 51
0.0
  0
ARC
  5
494F
  8
0
  6
BYBLOCK
 62
     0
 10
23309.249972999991
 20
5600.9147380000004
 30
0.0
 40
15.0
 50
0.0
 51
180.0
  0
ARC
  5
4950
  8
0
  6
BYBLOCK
 62
     0
 10
18362.249972999991
 20
5600.9147380000004
 30
0.0
 40
15.0
 50
0.0
 51
180.0
  0
ARC
  5
4951
  8
0
  6
BYBLOCK
 62
     0
 10
18362.249972999991
 20
5600.9147380000004
 30
0.0
 40
15.0
 50
180.0
 51
0.0
  0
ARC
  5
4952
  8
0
  6
BYBLOCK
 62
     0
 10
21442.749972999991
 20
5600.9147380000004
 30
0.0
 40
15.0
 50
180.0
 51
0.0
  0
ARC
  5
4953
  8
0
  6
BYBLOCK
 62
     0
 10
21442.749972999991
 20
5600.9147380000004
 30
0.0
 40
15.0
 50
0.0
 51
180.0
  0
ARC
  5
4964
  8
0
  6
BYBLOCK
 62
     0
 10
17018.24832399996
 20
6500.9145729999973
 30
0.0
 40
15.0
 50
90.0
 51
270.0
  0
ARC
  5
4965
  8
0
  6
BYBLOCK
 62
     0
 10
17018.24832399996
 20
6500.9145729999973
 30
0.0
 40
15.0
 50
270.0
 51
90.0
  0
ARC
  5
4966
  8
0
  6
BYBLOCK
 62
     0
 10
17018.24832399996
 20
8848.9145730000018
 30
0.0
 40
15.0
 50
270.0
 51
90.0
  0
ARC
  5
4967
  8
0
  6
BYBLOCK
 62
     0
 10
17018.24832399996
 20
8848.9145730000018
 30
0.0
 40
15.0
 50
90.0
 51
270.0
  0
ARC
  5
4968
  8
0
  6
BYBLOCK
 62
     0
 10
17418.25063299996
 20
6500.9145729999973
 30
0.0
 40
15.0
 50
90.0
 51
270.0
  0
ARC
  5
4969
  8
0
  6
BYBLOCK
 62
     0
 10
17418.25063299996
 20
6500.9145729999973
 30
0.0
 40
15.0
 50
270.0
 51
90.0
  0
ARC
  5
496A
  8
0
  6
BYBLOCK
 62
     0
 10
17418.250632999981
 20
8392.4145729999982
 30
0.0
 40
15.0
 50
270.0
 51
90.0
  0
ARC
  5
496B
  8
0
  6
BYBLOCK
 62
     0
 10
17418.250632999981
 20
8392.4145729999982
 30
0.0
 40
15.0
 50
90.0
 51
270.0
  0
ARC
  5
4970
  8
0
  6
BYBLOCK
 62
     0
 10
7270.858186000014
 20
20729.101914999999
 30
0.0
 40
15.0
 50
0.0
 51
180.0
  0
ARC
  5
4971
  8
0
  6
BYBLOCK
 62
     0
 10
7270.858186000014
 20
20729.101914999999
 30
0.0
 40
15.0
 50
180.0
 51
0.0
  0
ARC
  5
4972
  8
0
  6
BYBLOCK
 62
     0
 10
7185.3581860000122
 20
20729.101914999999
 30
0.0
 40
15.0
 50
180.0
 51
0.0
  0
ARC
  5
4973
  8
0
  6
BYBLOCK
 62
     0
 10
7185.3581860000122
 20
20729.101914999999
 30
0.0
 40
15.0
 50
0.0
 51
180.0
  0
ARC
  5
4974
  8
0
  6
BYBLOCK
 62
     0
 10
10539.35818600001
 20
20729.101914999999
 30
0.0
 40
15.0
 50
180.0
 51
0.0
  0
ARC
  5
4975
  8
0
  6
BYBLOCK
 62
     0
 10
10539.35818600001
 20
20729.101914999999
 30
0.0
 40
15.0
 50
0.0
 51
180.0
  0
ARC
  5
4976
  8
0
  6
BYBLOCK
 62
     0
 10
7270.858186000014
 20
20729.101914999999
 30
0.0
 40
15.0
 50
0.0
 51
180.0
  0
ARC
  5
4977
  8
0
  6
BYBLOCK
 62
     0
 10
7270.858186000014
 20
20729.101914999999
 30
0.0
 40
15.0
 50
180.0
 51
0.0
  0
ARC
  5
4978
  8
0
  6
BYBLOCK
 62
     0
 10
12405.846309999981
 20
20729.101914999999
 30
0.0
 40
15.0
 50
180.0
 51
0.0
  0
ARC
  5
4979
  8
0
  6
BYBLOCK
 62
     0
 10
12405.846309999981
 20
20729.101914999999
 30
0.0
 40
15.0
 50
0.0
 51
180.0
  0
ARC
  5
497A
  8
0
  6
BYBLOCK
 62
     0
 10
12491.346309999981
 20
20729.101914999999
 30
0.0
 40
15.0
 50
0.0
 51
180.0
  0
ARC
  5
497B
  8
0
  6
BYBLOCK
 62
     0
 10
12491.346309999981
 20
20729.101914999999
 30
0.0
 40
15.0
 50
180.0
 51
0.0
  0
ARC
  5
497C
  8
0
  6
BYBLOCK
 62
     0
 10
10539.346309999981
 20
20729.101914999999
 30
0.0
 40
15.0
 50
0.0
 51
180.0
  0
ARC
  5
497D
  8
0
  6
BYBLOCK
 62
     0
 10
10539.346309999981
 20
20729.101914999999
 30
0.0
 40
15.0
 50
180.0
 51
0.0
  0
ARC
  5
497E
  8
0
  6
BYBLOCK
 62
     0
 10
12405.846309999981
 20
20729.101914999999
 30
0.0
 40
15.0
 50
180.0
 51
0.0
  0
ARC
  5
497F
  8
0
  6
BYBLOCK
 62
     0
 10
12405.846309999981
 20
20729.101914999999
 30
0.0
 40
15.0
 50
0.0
 51
180.0
  0
ARC
  5
4980
  8
0
  6
BYBLOCK
 62
     0
 10
6741.3524719999987
 20
20159.092677000019
 30
0.0
 40
15.0
 50
270.0
 51
90.0
  0
ARC
  5
4981
  8
0
  6
BYBLOCK
 62
     0
 10
6741.3524719999987
 20
20159.092677000019
 30
0.0
 40
15.0
 50
90.0
 51
270.0
  0
ARC
  5
4982
  8
0
  6
BYBLOCK
 62
     0
 10
6741.3524719999987
 20
20179.092677000019
 30
0.0
 40
15.0
 50
90.0
 51
270.0
  0
ARC
  5
4983
  8
0
  6
BYBLOCK
 62
     0
 10
6741.3524719999987
 20
20179.092677000019
 30
0.0
 40
15.0
 50
270.0
 51
90.0
  0
ARC
  5
4984
  8
0
  6
BYBLOCK
 62
     0
 10
6341.3524719999987
 20
19956.596767999999
 30
0.0
 40
15.0
 50
270.0
 51
90.0
  0
ARC
  5
4985
  8
0
  6
BYBLOCK
 62
     0
 10
6341.3524719999987
 20
19956.596767999999
 30
0.0
 40
15.0
 50
90.0
 51
270.0
  0
ARC
  5
4986
  8
0
  6
BYBLOCK
 62
     0
 10
6341.3524719999987
 20
20179.092677000019
 30
0.0
 40
15.0
 50
90.0
 51
270.0
  0
ARC
  5
4987
  8
0
  6
BYBLOCK
 62
     0
 10
6341.3524719999987
 20
20179.092677000019
 30
0.0
 40
15.0
 50
270.0
 51
90.0
  0
ARC
  5
4988
  8
0
  6
BYBLOCK
 62
     0
 10
6341.3524719999987
 20
18497.596767999989
 30
0.0
 40
15.0
 50
90.0
 51
270.0
  0
ARC
  5
4989
  8
0
  6
BYBLOCK
 62
     0
 10
6341.3524719999987
 20
18497.596767999989
 30
0.0
 40
15.0
 50
270.0
 51
90.0
  0
ARC
  5
498A
  8
0
  6
BYBLOCK
 62
     0
 10
6341.3524719999987
 20
19956.596767999999
 30
0.0
 40
15.0
 50
270.0
 51
90.0
  0
ARC
  5
498B
  8
0
  6
BYBLOCK
 62
     0
 10
6341.3524719999987
 20
19956.596767999999
 30
0.0
 40
15.0
 50
90.0
 51
270.0
  0
ARC
  5
498C
  8
0
  6
BYBLOCK
 62
     0
 10
6341.3524719999969
 20
17038.596767999999
 30
0.0
 40
15.0
 50
90.0
 51
270.0
  0
ARC
  5
498D
  8
0
  6
BYBLOCK
 62
     0
 10
6341.3524719999969
 20
17038.596767999999
 30
0.0
 40
15.0
 50
270.0
 51
90.0
  0
ARC
  5
498E
  8
0
  6
BYBLOCK
 62
     0
 10
6341.3524719999987
 20
18497.596767999989
 30
0.0
 40
15.0
 50
270.0
 51
90.0
  0
ARC
  5
498F
  8
0
  6
BYBLOCK
 62
     0
 10
6341.3524719999987
 20
18497.596767999989
 30
0.0
 40
15.0
 50
90.0
 51
270.0
  0
ARC
  5
4990
  8
0
  6
BYBLOCK
 62
     0
 10
6341.3524719999987
 20
15579.59676799999
 30
0.0
 40
15.0
 50
90.0
 51
270.0
  0
ARC
  5
4991
  8
0
  6
BYBLOCK
 62
     0
 10
6341.3524719999987
 20
15579.59676799999
 30
0.0
 40
15.0
 50
270.0
 51
90.0
  0
ARC
  5
4992
  8
0
  6
BYBLOCK
 62
     0
 10
6341.3524719999987
 20
17038.596767999999
 30
0.0
 40
15.0
 50
270.0
 51
90.0
  0
ARC
  5
4993
  8
0
  6
BYBLOCK
 62
     0
 10
6341.3524719999987
 20
17038.596767999999
 30
0.0
 40
15.0
 50
90.0
 51
270.0
  0
ARC
  5
4994
  8
0
  6
BYBLOCK
 62
     0
 10
6341.3524719999969
 20
13770.09676799999
 30
0.0
 40
15.0
 50
90.0
 51
270.0
  0
ARC
  5
4995
  8
0
  6
BYBLOCK
 62
     0
 10
6341.3524719999969
 20
13770.09676799999
 30
0.0
 40
15.0
 50
270.0
 51
90.0
  0
ARC
  5
4996
  8
0
  6
BYBLOCK
 62
     0
 10
6341.3524719999987
 20
15579.59676799999
 30
0.0
 40
15.0
 50
270.0
 51
90.0
  0
ARC
  5
4997
  8
0
  6
BYBLOCK
 62
     0
 10
6341.3524719999987
 20
15579.59676799999
 30
0.0
 40
15.0
 50
90.0
 51
270.0
  0
ARC
  5
4998
  8
0
  6
BYBLOCK
 62
     0
 10
6341.3524719999987
 20
13770.09676799999
 30
0.0
 40
15.0
 50
90.0
 51
270.0
  0
ARC
  5
4999
  8
0
  6
BYBLOCK
 62
     0
 10
6341.3524719999987
 20
13770.09676799999
 30
0.0
 40
15.0
 50
270.0
 51
90.0
  0
ARC
  5
499A
  8
0
  6
BYBLOCK
 62
     0
 10
6341.3524719999987
 20
13577.60145299999
 30
0.0
 40
15.0
 50
270.0
 51
90.0
  0
ARC
  5
499B
  8
0
  6
BYBLOCK
 62
     0
 10
6341.3524719999987
 20
13577.60145299999
 30
0.0
 40
15.0
 50
90.0
 51
270.0
  0
LINE
  5
4AC2
  8
0-1
  6
CONTINUOUS
 62
     3
 10
23339.752954999949
 20
8599.4145929999959
 30
0.0
 11
23339.752954999949
 21
8631.4144999999953
 31
0.0
  0
LINE
  5
4AC3
  8
0-1
  6
CONTINUOUS
 62
     3
 10
23488.752347999951
 20
8523.2278709999955
 30
0.0
 11
23445.750236999978
 21
8523.2278709999955
 31
0.0
  0
LINE
  5
4AC4
  8
0-1
  6
CONTINUOUS
 62
     3
 10
23488.752347999951
 20
8849.4149219999945
 30
0.0
 11
23488.752347999951
 21
8523.2278709999955
 31
0.0
  0
LINE
  5
4AC5
  8
0-1
  6
CONTINUOUS
 62
     3
 10
23053.78576199996
 20
8595.8791719999936
 30
0.0
 11
23021.786844999999
 21
8627.8790799999897
 31
0.0
  0
LINE
  5
4AC6
  8
0-1
  6
CONTINUOUS
 62
     3
 10
23334.752690999969
 20
8636.4147639999937
 30
0.0
 11
23025.322264999992
 21
8636.4147639999937
 31
0.0
  0
LINE
  5
4AC7
  8
0-1
  6
CONTINUOUS
 62
     3
 10
23339.752954999949
 20
8628.0156669999978
 30
0.0
 11
23021.656195999989
 21
8628.0156669999978
 31
0.0
  0
LINE
  5
4AC8
  8
0-1
  6
CONTINUOUS
 62
     3
 10
23334.752690999969
 20
8594.4143289999938
 30
0.0
 11
23057.323161999979
 21
8594.4143289999938
 31
0.0
  0
LINE
  5
4AC9
  8
0-1
  6
CONTINUOUS
 62
     3
 10
23339.752954999949
 20
8602.814415999992
 30
0.0
 11
23046.851508999989
 21
8602.814415999992
 31
0.0
  0
LINE
  5
4ACA
  8
0-1
  6
CONTINUOUS
 62
     3
 10
23339.752954999949
 20
8611.2145029999901
 30
0.0
 11
23038.452410999958
 21
8611.2145029999901
 31
0.0
  0
LINE
  5
4ACB
  8
0-1
  6
CONTINUOUS
 62
     3
 10
23339.752954999949
 20
8619.6155799999942
 30
0.0
 11
23030.051334999978
 21
8619.6155799999942
 31
0.0
  0
LINE
  5
4ACC
  8
0-1
  6
CONTINUOUS
 62
     3
 10
21886.216163000008
 20
8595.8791719999936
 30
0.0
 11
21918.21310099999
 21
8627.8790799999897
 31
0.0
  0
LINE
  5
4ACD
  8
0-1
  6
CONTINUOUS
 62
     3
 10
21600.250949000008
 20
8599.4145929999959
 30
0.0
 11
21600.250949000008
 21
8631.4144999999953
 31
0.0
  0
LINE
  5
4ACE
  8
0-1
  6
CONTINUOUS
 62
     3
 10
21600.250949000008
 20
8602.814415999992
 30
0.0
 11
21893.148436999989
 21
8602.814415999992
 31
0.0
  0
LINE
  5
4ACF
  8
0-1
  6
CONTINUOUS
 62
     3
 10
21600.250949000008
 20
8611.2145029999901
 30
0.0
 11
21901.549513999998
 21
8611.2145029999901
 31
0.0
  0
LINE
  5
4AD0
  8
0-1
  6
CONTINUOUS
 62
     3
 10
21605.251213
 20
8594.4143289999938
 30
0.0
 11
21882.678763
 21
8594.4143289999938
 31
0.0
  0
LINE
  5
4AD1
  8
0-1
  6
CONTINUOUS
 62
     3
 10
21600.250949000008
 20
8619.6155799999942
 30
0.0
 11
21909.948610999989
 21
8619.6155799999942
 31
0.0
  0
LINE
  5
4AD2
  8
0-1
  6
CONTINUOUS
 62
     3
 10
21600.250949000008
 20
8628.0156669999978
 30
0.0
 11
21918.345729000011
 21
8628.0156669999978
 31
0.0
  0
LINE
  5
4AD3
  8
0-1
  6
CONTINUOUS
 62
     3
 10
21605.251213
 20
8636.4147639999937
 30
0.0
 11
21914.679660000002
 21
8636.4147639999937
 31
0.0
  0
LINE
  5
4AD4
  8
0-1
  6
CONTINUOUS
 62
     3
 10
23488.752347999951
 20
8719.4139989999967
 30
0.0
 11
21536.749973000002
 21
8719.4139989999967
 31
0.0
  0
LINE
  5
4AD5
  8
0-1
  6
CONTINUOUS
 62
     3
 10
21579.248256999988
 20
8645.4146450000007
 30
0.0
 11
23360.75168799996
 21
8645.4146450000007
 31
0.0
  0
LINE
  5
4AD6
  8
0-1
  6
CONTINUOUS
 62
     3
 10
21579.248256999988
 20
8585.4144469999974
 30
0.0
 11
23360.75168799996
 21
8585.4144469999974
 31
0.0
  0
LINE
  5
4AD7
  8
0-1
  6
CONTINUOUS
 62
     3
 10
21536.749973000002
 20
8849.4149219999945
 30
0.0
 11
23488.752347999951
 21
8849.4149219999945
 31
0.0
  0
LINE
  5
4AD8
  8
0-1
  6
CONTINUOUS
 62
     3
 10
21473.248996999992
 20
8599.4145929999959
 30
0.0
 11
21473.248996999992
 21
8631.4144999999953
 31
0.0
  0
LINE
  5
4AD9
  8
0-1
  6
CONTINUOUS
 62
     3
 10
21187.287741999979
 20
8595.8791719999936
 30
0.0
 11
21155.286844999999
 21
8627.8790799999897
 31
0.0
  0
LINE
  5
4ADA
  8
0-1
  6
CONTINUOUS
 62
     3
 10
21473.248996999992
 20
8628.0156669999978
 30
0.0
 11
21155.15619699996
 21
8628.0156669999978
 31
0.0
  0
LINE
  5
4ADB
  8
0-1
  6
CONTINUOUS
 62
     3
 10
21473.248996999992
 20
8619.6155799999942
 30
0.0
 11
21163.551334999978
 21
8619.6155799999942
 31
0.0
  0
LINE
  5
4ADC
  8
0-1
  6
CONTINUOUS
 62
     3
 10
21473.248996999992
 20
8611.2145029999901
 30
0.0
 11
21171.95043199998
 21
8611.2145029999901
 31
0.0
  0
LINE
  5
4ADD
  8
0-1
  6
CONTINUOUS
 62
     3
 10
21473.248996999992
 20
8602.814415999992
 30
0.0
 11
21180.34952999997
 21
8602.814415999992
 31
0.0
  0
LINE
  5
4ADE
  8
0-1
  6
CONTINUOUS
 62
     3
 10
21468.250711999961
 20
8636.4147639999937
 30
0.0
 11
21158.820285999951
 21
8636.4147639999937
 31
0.0
  0
LINE
  5
4ADF
  8
0-1
  6
CONTINUOUS
 62
     3
 10
21468.250711999961
 20
8594.4143289999938
 30
0.0
 11
21190.823162999979
 21
8594.4143289999938
 31
0.0
  0
LINE
  5
4AE0
  8
0-1
  6
CONTINUOUS
 62
     3
 10
18336.749233999981
 20
8594.4143289999938
 30
0.0
 11
18614.17876399996
 21
8594.4143289999938
 31
0.0
  0
LINE
  5
4AE1
  8
0-1
  6
CONTINUOUS
 62
     3
 10
18331.750949999961
 20
8599.4145929999959
 30
0.0
 11
18331.750949999961
 21
8631.4144999999953
 31
0.0
  0
LINE
  5
4AE2
  8
0-1
  6
CONTINUOUS
 62
     3
 10
18182.749577999981
 20
8523.2278709999955
 30
0.0
 11
18225.747729999988
 21
8523.2278709999955
 31
0.0
  0
LINE
  5
4AE3
  8
0-1
  6
CONTINUOUS
 62
     3
 10
18182.749577999981
 20
8523.2278709999955
 30
0.0
 11
18182.749577999981
 21
8849.4149219999945
 31
0.0
  0
LINE
  5
4AE4
  8
0-1
  6
CONTINUOUS
 62
     3
 10
18336.749233999981
 20
8636.4147639999937
 30
0.0
 11
18646.179660999991
 21
8636.4147639999937
 31
0.0
  0
LINE
  5
4AE5
  8
0-1
  6
CONTINUOUS
 62
     3
 10
18617.712203999981
 20
8595.8791719999936
 30
0.0
 11
18649.713101999951
 21
8627.8790799999897
 31
0.0
  0
LINE
  5
4AE6
  8
0-1
  6
CONTINUOUS
 62
     3
 10
18331.750949999961
 20
8628.0156669999978
 30
0.0
 11
18649.845728999979
 21
8628.0156669999978
 31
0.0
  0
LINE
  5
4AE7
  8
0-1
  6
CONTINUOUS
 62
     3
 10
18331.750949999961
 20
8619.6155799999942
 30
0.0
 11
18641.448611999989
 21
8619.6155799999942
 31
0.0
  0
LINE
  5
4AE8
  8
0-1
  6
CONTINUOUS
 62
     3
 10
18331.750949999961
 20
8611.2145029999901
 30
0.0
 11
18633.049513999969
 21
8611.2145029999901
 31
0.0
  0
LINE
  5
4AE9
  8
0-1
  6
CONTINUOUS
 62
     3
 10
18331.750949999961
 20
8602.814415999992
 30
0.0
 11
18624.65041699999
 21
8602.814415999992
 31
0.0
  0
LINE
  5
4AEA
  8
0-1
  6
CONTINUOUS
 62
     3
 10
18310.748257999989
 20
8585.4144469999974
 30
0.0
 11
21494.249708999989
 21
8585.4144469999974
 31
0.0
  0
LINE
  5
4AEB
  8
0-1
  6
CONTINUOUS
 62
     3
 10
18310.748257999989
 20
8645.4146450000007
 30
0.0
 11
21494.249708999989
 21
8645.4146450000007
 31
0.0
  0
LINE
  5
4AEC
  8
0-1
  6
CONTINUOUS
 62
     3
 10
18182.749577999981
 20
8849.4149219999945
 30
0.0
 11
21536.749973000002
 21
8849.4149219999945
 31
0.0
  0
LINE
  5
4AED
  8
0-1
  6
CONTINUOUS
 62
     3
 10
21536.749973000002
 20
8719.4139989999967
 30
0.0
 11
18182.749577999981
 21
8719.4139989999967
 31
0.0
  0
LINE
  5
4AEE
  8
0-1
  6
CONTINUOUS
 62
     3
 10
21536.749973000002
 20
8719.4139989999967
 30
0.0
 11
21536.749973000002
 21
8849.4149219999945
 31
0.0
  0
LINE
  5
4AEF
  8
0-1
  6
CONTINUOUS
 62
     3
 10
21536.749973000002
 20
8719.4139989999967
 30
0.0
 11
21536.749973000002
 21
8849.4149219999945
 31
0.0
  0
ARC
  5
4AF0
  8
0-1
  6
CONTINUOUS
 62
     3
 10
23334.752690999969
 20
8631.4144999999953
 30
0.0
 40
5.0
 50
0.0
 51
90.0
  0
ARC
  5
4AF1
  8
0-1
  6
CONTINUOUS
 62
     3
 10
23334.752690999969
 20
8599.4145929999959
 30
0.0
 40
5.0
 50
269.9999850001808
 51
0.0
  0
ARC
  5
4AF2
  8
0-1
  6
CONTINUOUS
 62
     3
 10
23025.322264999992
 20
8631.4144999999953
 30
0.0
 40
5.0
 50
90.0
 51
224.99998499997989
  0
ARC
  5
4AF3
  8
0-1
  6
CONTINUOUS
 62
     3
 10
23057.323161999979
 20
8599.4145929999959
 30
0.0
 40
5.0
 50
224.99998499997989
 51
269.9999850001808
  0
ARC
  5
4AF4
  8
0-1
  6
CONTINUOUS
 62
     3
 10
21914.679660000002
 20
8631.4144999999953
 30
0.0
 40
5.0
 50
314.99998500027471
 51
90.0
  0
ARC
  5
4AF5
  8
0-1
  6
CONTINUOUS
 62
     3
 10
21882.678763
 20
8599.4145929999959
 30
0.0
 40
5.0
 50
269.9999850001808
 51
314.99998500027471
  0
ARC
  5
4AF6
  8
0-1
  6
CONTINUOUS
 62
     3
 10
21605.251213
 20
8599.4145929999959
 30
0.0
 40
5.0
 50
180.0
 51
269.9999850001808
  0
ARC
  5
4AF7
  8
0-1
  6
CONTINUOUS
 62
     3
 10
21605.251213
 20
8631.4144999999953
 30
0.0
 40
5.0
 50
90.0
 51
180.0
  0
ARC
  5
4AF8
  8
0-1
  6
CONTINUOUS
 62
     3
 10
21468.250711999961
 20
8599.4145929999959
 30
0.0
 40
5.0
 50
269.9999850001808
 51
0.0
  0
ARC
  5
4AF9
  8
0-1
  6
CONTINUOUS
 62
     3
 10
21468.250711999961
 20
8631.4144999999953
 30
0.0
 40
5.0
 50
0.0
 51
90.0
  0
ARC
  5
4AFA
  8
0-1
  6
CONTINUOUS
 62
     3
 10
21158.820285999951
 20
8631.4144999999953
 30
0.0
 40
5.0
 50
90.0
 51
224.99998499997989
  0
ARC
  5
4AFB
  8
0-1
  6
CONTINUOUS
 62
     3
 10
21190.823162999979
 20
8599.4145929999959
 30
0.0
 40
5.0
 50
224.99998499997989
 51
269.9999850001808
  0
ARC
  5
4AFC
  8
0-1
  6
CONTINUOUS
 62
     3
 10
18646.179660999991
 20
8631.4144999999953
 30
0.0
 40
5.0
 50
314.99998500027471
 51
90.0
  0
ARC
  5
4AFD
  8
0-1
  6
CONTINUOUS
 62
     3
 10
18336.749233999981
 20
8631.4144999999953
 30
0.0
 40
5.0
 50
90.0
 51
180.0
  0
ARC
  5
4AFE
  8
0-1
  6
CONTINUOUS
 62
     3
 10
18336.749233999981
 20
8599.4145929999959
 30
0.0
 40
5.0
 50
180.0
 51
269.9999850001808
  0
ARC
  5
4AFF
  8
0-1
  6
CONTINUOUS
 62
     3
 10
18614.17876399996
 20
8599.4145929999959
 30
0.0
 40
5.0
 50
269.9999850001808
 51
314.99998500027471
  0
LINE
  5
4B00
  8
SUNPOU
  6
CONTINUOUS
 62
     4
 10
18182.747597999951
 20
8929.4149219999945
 30
0.0
 11
18182.747597999951
 21
10128.872533999969
 31
0.0
  0
LINE
  5
4B01
  8
SUNPOU
  6
CONTINUOUS
 62
     4
 10
23488.752347999951
 20
8929.4149219999945
 30
0.0
 11
23488.752347999951
 21
10128.872533999969
 31
0.0
  0
LINE
  5
4B02
  8
SUNPOU
  6
CONTINUOUS
 62
     4
 10
18185.747597999951
 20
10048.872533999989
 30
0.0
 11
23485.752347999951
 21
10048.872533999989
 31
0.0
  0
LINE
  5
4B03
  8
SUNPOU
  6
CONTINUOUS
 62
     4
 10
18225.749708999989
 20
8929.4149219999945
 30
0.0
 11
18225.749708999989
 21
9728.9147639999956
 31
0.0
  0
LINE
  5
4B04
  8
SUNPOU
  6
CONTINUOUS
 62
     4
 10
23445.750236999978
 20
8929.4149219999945
 30
0.0
 11
23445.750236999978
 21
9728.9147639999956
 31
0.0
  0
LINE
  5
4B05
  8
SUNPOU
  6
CONTINUOUS
 62
     4
 10
18225.749708999989
 20
9648.9147639999974
 30
0.0
 11
23445.750236999978
 21
9648.9147639999974
 31
0.0
  0
LINE
  5
4B06
  8
SUNPOU
  6
CONTINUOUS
 62
     4
 10
18225.749708999989
 20
8929.4149219999945
 30
0.0
 11
18225.749708999989
 21
9728.9147639999956
 31
0.0
  0
LINE
  5
4B07
  8
SUNPOU
  6
CONTINUOUS
 62
     4
 10
18182.747597999951
 20
8929.4149219999945
 30
0.0
 11
18182.747597999951
 21
9728.9147639999956
 31
0.0
  0
LINE
  5
4B08
  8
SUNPOU
  6
CONTINUOUS
 62
     4
 10
18225.749708999989
 20
9648.9147639999974
 30
0.0
 11
18465.749708999989
 21
9648.9147639999974
 31
0.0
  0
LINE
  5
4B09
  8
SUNPOU
  6
CONTINUOUS
 62
     4
 10
18185.747597999951
 20
9648.9147639999974
 30
0.0
 11
17945.747597999951
 21
9648.9147639999974
 31
0.0
  0
LINE
  5
4B0A
  8
SUNPOU
  6
CONTINUOUS
 62
     4
 10
18225.749708999989
 20
9648.9147639999974
 30
0.0
 11
18185.747597999951
 21
9648.9147639999974
 31
0.0
  0
LINE
  5
4B0B
  8
SUNPOU
  6
CONTINUOUS
 62
     4
 10
23445.750236999978
 20
8929.4149219999945
 30
0.0
 11
23445.750236999978
 21
9728.9147639999956
 31
0.0
  0
LINE
  5
4B0C
  8
SUNPOU
  6
CONTINUOUS
 62
     4
 10
23488.752347999951
 20
8929.4149219999945
 30
0.0
 11
23488.752347999951
 21
9728.9147639999956
 31
0.0
  0
LINE
  5
4B0D
  8
SUNPOU
  6
CONTINUOUS
 62
     4
 10
23445.750236999978
 20
9648.9147639999974
 30
0.0
 11
23205.750236999978
 21
9648.9147639999974
 31
0.0
  0
LINE
  5
4B0E
  8
SUNPOU
  6
CONTINUOUS
 62
     4
 10
23485.752347999951
 20
9648.9147639999974
 30
0.0
 11
23725.752347999951
 21
9648.9147639999974
 31
0.0
  0
LINE
  5
4B0F
  8
SUNPOU
  6
CONTINUOUS
 62
     4
 10
23445.750236999978
 20
9648.9147639999974
 30
0.0
 11
23485.752347999951
 21
9648.9147639999974
 31
0.0
  0
TEXT
  5
4B10
  8
0
  6
CONTINUOUS
 62
     7
 10
23605.752347999951
 20
9728.9147639999956
 30
0.0
 40
160.0
  1
43
  0
TEXT
  5
4B11
  8
0
  6
CONTINUOUS
 62
     7
 10
17825.747597999969
 20
9728.9147639999956
 30
0.0
 40
160.0
  1
43
  0
TEXT
  5
4B12
  8
0
  6
CONTINUOUS
 62
     7
 10
20555.749973000002
 20
9728.9147639999956
 30
0.0
 40
160.0
  1
5220
  0
TEXT
  5
4B13
  8
0
  6
CONTINUOUS
 62
     7
 10
20569.083306333308
 20
10128.872533999969
 30
0.0
 40
160.0
  1
5306
  0
ARC
  5
4B14
  8
0
  6
BYBLOCK
 62
     0
 10
18182.747597999951
 20
10048.872533999989
 30
0.0
 40
15.0
 50
0.0
 51
180.0
  0
ARC
  5
4B15
  8
0
  6
BYBLOCK
 62
     0
 10
18182.747597999951
 20
10048.872533999989
 30
0.0
 40
15.0
 50
180.0
 51
0.0
  0
ARC
  5
4B16
  8
0
  6
BYBLOCK
 62
     0
 10
23488.752347999951
 20
10048.872533999989
 30
0.0
 40
15.0
 50
180.0
 51
0.0
  0
ARC
  5
4B17
  8
0
  6
BYBLOCK
 62
     0
 10
23488.752347999951
 20
10048.872533999989
 30
0.0
 40
15.0
 50
0.0
 51
180.0
  0
ARC
  5
4B18
  8
0
  6
BYBLOCK
 62
     0
 10
18225.749708999989
 20
9648.9147639999974
 30
0.0
 40
15.0
 50
0.0
 51
180.0
  0
ARC
  5
4B19
  8
0
  6
BYBLOCK
 62
     0
 10
18225.749708999989
 20
9648.9147639999974
 30
0.0
 40
15.0
 50
180.0
 51
0.0
  0
ARC
  5
4B1A
  8
0
  6
BYBLOCK
 62
     0
 10
23445.750236999978
 20
9648.9147639999974
 30
0.0
 40
15.0
 50
180.0
 51
0.0
  0
ARC
  5
4B1B
  8
0
  6
BYBLOCK
 62
     0
 10
23445.750236999978
 20
9648.9147639999974
 30
0.0
 40
15.0
 50
0.0
 51
180.0
  0
ARC
  5
4B1C
  8
0
  6
BYBLOCK
 62
     0
 10
18225.749708999989
 20
9648.9147639999974
 30
0.0
 40
15.0
 50
0.0
 51
180.0
  0
ARC
  5
4B1D
  8
0
  6
BYBLOCK
 62
     0
 10
18225.749708999989
 20
9648.9147639999974
 30
0.0
 40
15.0
 50
180.0
 51
0.0
  0
ARC
  5
4B1E
  8
0
  6
BYBLOCK
 62
     0
 10
18182.747597999951
 20
9648.9147639999974
 30
0.0
 40
15.0
 50
180.0
 51
0.0
  0
ARC
  5
4B1F
  8
0
  6
BYBLOCK
 62
     0
 10
18182.747597999951
 20
9648.9147639999974
 30
0.0
 40
15.0
 50
0.0
 51
180.0
  0
ARC
  5
4B20
  8
0
  6
BYBLOCK
 62
     0
 10
23445.750236999978
 20
9648.9147639999974
 30
0.0
 40
15.0
 50
180.0
 51
0.0
  0
ARC
  5
4B21
  8
0
  6
BYBLOCK
 62
     0
 10
23445.750236999978
 20
9648.9147639999974
 30
0.0
 40
15.0
 50
0.0
 51
180.0
  0
ARC
  5
4B22
  8
0
  6
BYBLOCK
 62
     0
 10
23488.752347999951
 20
9648.9147639999974
 30
0.0
 40
15.0
 50
0.0
 51
180.0
  0
ARC
  5
4B23
  8
0
  6
BYBLOCK
 62
     0
 10
23488.752347999951
 20
9648.9147639999974
 30
0.0
 40
15.0
 50
180.0
 51
0.0
  0
LINE
  5
4B31
  8
SUNPOU
  6
CONTINUOUS
 62
     4
 10
7185.3528420000093
 20
13497.595515000001
 30
0.0
 11
7185.3528420000093
 21
12318.648683999991
 31
0.0
  0
LINE
  5
4B32
  8
SUNPOU
  6
CONTINUOUS
 62
     4
 10
12491.35264400001
 20
13497.595515000001
 30
0.0
 11
12491.35264400001
 21
12318.648683999991
 31
0.0
  0
LINE
  5
4B33
  8
SUNPOU
  6
CONTINUOUS
 62
     4
 10
7185.3528420000093
 20
12398.648683999991
 30
0.0
 11
12491.35264400001
 21
12398.648683999991
 31
0.0
  0
TEXT
  5
4B34
  8
0
  6
CONTINUOUS
 62
     7
 10
9049.0194096666582
 20
12478.648683999991
 30
0.0
 40
160.0
  1
ケラバ外寸 5306
  0
ARC
  5
4B35
  8
0
  6
BYBLOCK
 62
     0
 10
7185.3528420000093
 20
12398.648683999991
 30
0.0
 40
15.0
 50
0.0
 51
180.0
  0
ARC
  5
4B36
  8
0
  6
BYBLOCK
 62
     0
 10
7185.3528420000093
 20
12398.648683999991
 30
0.0
 40
15.0
 50
180.0
 51
0.0
  0
ARC
  5
4B37
  8
0
  6
BYBLOCK
 62
     0
 10
12491.35264400001
 20
12398.648683999991
 30
0.0
 40
15.0
 50
180.0
 51
0.0
  0
ARC
  5
4B38
  8
0
  6
BYBLOCK
 62
     0
 10
12491.35264400001
 20
12398.648683999991
 30
0.0
 40
15.0
 50
0.0
 51
180.0
  0
TEXT
  5
4B8B
  8
NAME
 10
25530.092913773478
 20
1076.0
 30
0.0
 40
360.0
  1
型（単棟）
 41
0.6
  7
01
  0
TEXT
  5
4B8C
  8
NAME
 10
21583.547829600891
 20
1076.6369801169251
 30
0.0
 40
360.0
  1
VGCU-3362（H）+1962（H）
 41
0.5200000000000001
  0
TEXT
  5
4B8E
  8
NAME
 10
21933.552716388989
 20
1876.0
 30
0.0
 40
360.0
  1
ヨドガレージ ラヴィージュ
 41
0.75
  7
01
  0
LINE
  5
4B8F
  8
NAME
  6
CONTINUOUS
 10
26067.886878884288
 20
2236.0
 30
0.0
 11
26067.886878884288
 21
1876.0
 31
0.0
  0
LINE
  5
4B90
  8
NAME
  6
CONTINUOUS
 10
26167.886878884288
 20
2236.0
 30
0.0
 11
26167.886878884288
 21
1876.0
 31
0.0
  0
LINE
  5
4B91
  8
NAME
  6
CONTINUOUS
 10
26267.88687888431
 20
2236.0
 30
0.0
 11
26267.88687888431
 21
1876.0
 31
0.0
  0
LINE
  5
4B92
  8
NAME
  6
CONTINUOUS
 10
26007.886878884288
 20
2236.0
 30
0.0
 11
26327.886878884288
 21
2236.0
 31
0.0
  0
LINE
  5
4B93
  8
NAME
  6
CONTINUOUS
 10
26327.886878884288
 20
1876.0
 30
0.0
 11
26007.886878884288
 21
1876.0
 31
0.0
  0
TEXT
  5
4C2D
  8
FILENAME
  6
CONTINUOUS
 10
27537.333333333328
 20
348.0
 30
0.0
 40
200.0
  1
＜VGCU-3362+1962-1-A_0.DXF ＞
  7
FILENAME
 72
     2
 11
32764.0
 21
348.0
 31
0.0
  0
LINE
  5
4C32
  8
WAKUSEN-01
 10
868.00000000000193
 20
827.99999999999955
 30
0.0
 11
32764.000000000011
 21
827.99999999999943
 31
0.0
  0
LINE
  5
4C33
  8
WAKUSEN-01
 10
868.00000000000193
 20
827.99999999999955
 30
0.0
 11
868.00000000000193
 21
22484.000000000011
 31
0.0
  0
LINE
  5
4C34
  8
WAKUSEN-01
 10
32764.000000000011
 20
827.99999999999943
 30
0.0
 11
32764.000000000011
 21
22484.000000000011
 31
0.0
  0
LINE
  5
4C35
  8
WAKUSEN-01
 10
20560.0
 20
827.99999999999716
 30
0.0
 11
20560.0
 21
2484.0
 31
0.0
  0
LINE
  5
4C36
  8
WAKUSEN-02
 10
26868.0
 20
827.99999999999261
 30
0.0
 11
26868.0
 21
2484.0
 31
0.0
  0
ENDSEC
  0
EOF
