  0
SECTION
  2
HEADER
  9
$ACADVER
  1
AC1009
  9
$INSBASE
 10
0.0
 20
0.0
 30
0.0
  9
$EXTMIN
 10
867.99324330406671
 20
327.38164749855792
 30
-0.0000000000000053
  9
$EXTMAX
 10
32765.33210850941
 20
22484.553276491992
 30
0.0000000000000099
  9
$LIMMIN
 10
0.0
 20
0.0
  9
$LIMMAX
 10
33600.0
 20
23760.0
  9
$ORTHOMODE
 70
     1
  9
$REGENMODE
 70
     1
  9
$FILLMODE
 70
     1
  9
$QTEXTMODE
 70
     0
  9
$MIRRTEXT
 70
     1
  9
$DRAGMODE
 70
     2
  9
$LTSCALE
 40
80.0
  9
$OSMODE
 70
  3071
  9
$ATTMODE
 70
     1
  9
$TEXTSIZE
 40
0.2
  9
$TRACEWID
 40
0.05
  9
$TEXTSTYLE
  7
00
  9
$CLAYER
  8
0
  9
$CELTYPE
  6
BYLAYER
  9
$CECOLOR
 62
   256
  9
$DIMSCALE
 40
80.0
  9
$DIMASZ
 40
3.0
  9
$DIMEXO
 40
1.0
  9
$DIMDLI
 40
0.38
  9
$DIMRND
 40
0.5
  9
$DIMDLE
 40
0.0
  9
$DIMEXE
 40
1.0
  9
$DIMTP
 40
0.0
  9
$DIMTM
 40
0.0
  9
$DIMTXT
 40
2.0
  9
$DIMCEN
 40
0.09
  9
$DIMTSZ
 40
0.0
  9
$DIMTOL
 70
     0
  9
$DIMLIM
 70
     0
  9
$DIMTIH
 70
     0
  9
$DIMTOH
 70
     0
  9
$DIMSE1
 70
     0
  9
$DIMSE2
 70
     0
  9
$DIMTAD
 70
     1
  9
$DIMZIN
 70
     8
  9
$DIMBLK
  1
DOTSMALL
  9
$DIMASO
 70
     1
  9
$DIMSHO
 70
     1
  9
$DIMPOST
  1

  9
$DIMAPOST
  1

  9
$DIMALT
 70
     0
  9
$DIMALTD
 70
     2
  9
$DIMALTF
 40
25.399999999999999
  9
$DIMLFAC
 40
1.0
  9
$DIMTOFL
 70
     1
  9
$DIMTVP
 40
0.0
  9
$DIMTIX
 70
     0
  9
$DIMSOXD
 70
     0
  9
$DIMSAH
 70
     0
  9
$DIMBLK1
  1

  9
$DIMBLK2
  1

  9
$DIMSTYLE
  2
SUNPOU
  9
$DIMCLRD
 70
     4
  9
$DIMCLRE
 70
     4
  9
$DIMCLRT
 70
     7
  9
$DIMTFAC
 40
1.0
  9
$DIMGAP
 40
1.0
  9
$LUNITS
 70
     2
  9
$LUPREC
 70
     4
  9
$SKETCHINC
 40
0.1
  9
$FILLETRAD
 40
0.0
  9
$AUNITS
 70
     0
  9
$AUPREC
 70
     0
  9
$MENU
  1
acad
  9
$ELEVATION
 40
0.0
  9
$PELEVATION
 40
0.0
  9
$THICKNESS
 40
0.0
  9
$LIMCHECK
 70
     0
  9
$BLIPMODE
 70
     1
  9
$CHAMFERA
 40
0.0
  9
$CHAMFERB
 40
0.0
  9
$SKPOLY
 70
     0
  9
$TDCREATE
 40
2454573.394861111
  9
$TDUPDATE
 40
2458942.4436192941
  9
$TDINDWG
 40
0.0427741782
  9
$TDUSRTIMER
 40
0.0427723495
  9
$USRTIMER
 70
     1
  9
$ANGBASE
 50
0.0
  9
$ANGDIR
 70
     0
  9
$PDMODE
 70
     0
  9
$PDSIZE
 40
0.0
  9
$PLINEWID
 40
0.0
  9
$COORDS
 70
     1
  9
$SPLFRAME
 70
     0
  9
$SPLINETYPE
 70
     6
  9
$SPLINESEGS
 70
     8
  9
$ATTDIA
 70
     1
  9
$ATTREQ
 70
     1
  9
$HANDLING
 70
     1
  9
$HANDSEED
  5
4D0F
  9
$SURFTAB1
 70
     6
  9
$SURFTAB2
 70
     6
  9
$SURFTYPE
 70
     6
  9
$SURFU
 70
     6
  9
$SURFV
 70
     6
  9
$UCSNAME
  2

  9
$UCSORG
 10
0.0
 20
0.0
 30
0.0
  9
$UCSXDIR
 10
1.0
 20
0.0
 30
0.0
  9
$UCSYDIR
 10
0.0
 20
1.0
 30
0.0
  9
$PUCSNAME
  2

  9
$PUCSORG
 10
0.0
 20
0.0
 30
0.0
  9
$PUCSXDIR
 10
1.0
 20
0.0
 30
0.0
  9
$PUCSYDIR
 10
0.0
 20
1.0
 30
0.0
  9
$USERI1
 70
     0
  9
$USERI2
 70
     0
  9
$USERI3
 70
     0
  9
$USERI4
 70
     0
  9
$USERI5
 70
     0
  9
$USERR1
 40
0.0
  9
$USERR2
 40
0.0
  9
$USERR3
 40
0.0
  9
$USERR4
 40
0.0
  9
$USERR5
 40
0.0
  9
$WORLDVIEW
 70
     1
  9
$SHADEDGE
 70
     3
  9
$SHADEDIF
 70
    70
  9
$TILEMODE
 70
     1
  9
$MAXACTVP
 70
    16
  9
$PLIMCHECK
 70
     0
  9
$PEXTMIN
 10
1.0000000000000000E+020
 20
1.0000000000000000E+020
 30
1.0000000000000000E+020
  9
$PEXTMAX
 10
-1.0000000000000000E+020
 20
-1.0000000000000000E+020
 30
-1.0000000000000000E+020
  9
$PLIMMIN
 10
0.0
 20
0.0
  9
$PLIMMAX
 10
12.0
 20
9.0
  9
$UNITMODE
 70
     0
  9
$VISRETAIN
 70
     0
  9
$PLINEGEN
 70
     1
  9
$PSLTSCALE
 70
     0
  0
ENDSEC
  0
SECTION
  2
TABLES
  0
TABLE
  2
VPORT
 70
     1
  0
VPORT
  2
*ACTIVE
 70
     0
 10
0.0
 20
0.0
 11
1.0
 21
1.0
 12
16800.0
 22
11880.0
 13
0.0
 23
0.0
 14
1.0
 24
1.0
 15
0.0
 25
0.0
 16
0.0
 26
0.0
 36
1.0
 17
0.0
 27
0.0
 37
0.0
 40
23981.023255813951
 41
2.195652173913043
 42
50.0
 43
0.0
 44
0.0
 50
0.0
 51
0.0
 71
     0
 72
 10000
 73
     1
 74
     1
 75
     0
 76
     0
 77
     0
 78
     0
  0
ENDTAB
  0
TABLE
  2
LTYPE
 70
     3
  0
LTYPE
  2
CONTINUOUS
 70
     0
  3
Solid line
 72
    65
 73
     0
 40
0.0
  0
LTYPE
  2
DASHED3
 70
     0
  3
------  ------  ------  ------  
 72
    65
 73
     2
 40
5.0
 49
3.75
 49
-1.25
  0
LTYPE
  2
CENTER2
 70
     0
  3
----------  --  ----------  --  
 72
    65
 73
     4
 40
20.0
 49
12.5
 49
-2.5
 49
2.5
 49
-2.5
  0
ENDTAB
  0
TABLE
  2
LAYER
 70
    17
  0
LAYER
  2
0
 70
     0
 62
     7
  6
CONTINUOUS
  0
LAYER
  2
SUNPOU
 70
     0
 62
     4
  6
CONTINUOUS
  0
LAYER
  2
0-1
 70
     0
 62
     7
  6
CONTINUOUS
  0
LAYER
  2
0-2
 70
     0
 62
     7
  6
CONTINUOUS
  0
LAYER
  2
0-5
 70
     0
 62
     7
  6
CONTINUOUS
  0
LAYER
  2
2-0
 70
     0
 62
     7
  6
CONTINUOUS
  0
LAYER
  2
0-6
 70
     0
 62
     7
  6
CONTINUOUS
  0
LAYER
  2
0-7
 70
     0
 62
     7
  6
CONTINUOUS
  0
LAYER
  2
YODOROGO
 70
     0
 62
   130
  6
CONTINUOUS
  0
LAYER
  2
WAKUSEN-01
 70
     0
 62
    50
  6
CONTINUOUS
  0
LAYER
  2
WAKUSEN-02
 70
     0
 62
   130
  6
CONTINUOUS
  0
LAYER
  2
WAKUMOJI-01
 70
     0
 62
   130
  6
CONTINUOUS
  0
LAYER
  2
FILENAME
 70
     0
 62
     7
  6
CONTINUOUS
  0
LAYER
  2
NAME
 70
     0
 62
    20
  6
CONTINUOUS
  0
LAYER
  2
0-4
 70
     0
 62
     7
  6
CONTINUOUS
  0
ENDTAB
  0
TABLE
  2
STYLE
 70
     5
  0
STYLE
  2
STANDARD
 70
     0
 40
0.0
 41
1.0
 50
0.0
 71
     0
 42
0.0
  3
txt
  4
BIGFONT
  0
STYLE
  2
00
 70
     0
 40
0.0
 41
0.6666666666666666
 50
0.0
 71
     0
 42
0.2
  3
ROMANS
  4
BIGFONT
  0
STYLE
  2
01
 70
     0
 40
3.0
 41
1.0
 50
0.0
 71
     0
 42
0.2
  3
ROMANS
  4
BIGFONT
  0
STYLE
  2
WAKUMOJI
 70
     0
 40
3.0
 41
1.0
 50
0.0
 71
     0
 42
3.0
  3
SIMPLEX
  4
BIGFONT
  0
STYLE
  2
FILENAME
 70
     0
 40
200.0
 41
1.0
 50
0.0
 71
     0
 42
200.0
  3
romans
  4
bigfont
  0
ENDTAB
  0
TABLE
  2
VIEW
 70
     0
  0
ENDTAB
  0
TABLE
  2
UCS
 70
     0
  0
ENDTAB
  0
TABLE
  2
APPID
 70
    13
  0
APPID
  2
ACAD
 70
     0
  0
APPID
  2
ACADANNOTATIVE
 70
     0
  0
APPID
  2
ACAD_PSEXT
 70
     0
  0
APPID
  2
DCO15
 70
     0
  0
APPID
  2
ACAD_MLEADERVER
 70
     0
  0
APPID
  2
AUTOCAD_POSTSCRIPT_FIGURE
 70
     0
  0
APPID
  2
ACAD_EXEMPT_FROM_CAD_STANDARDS
 70
     0
  0
APPID
  2
ACAD_DSTYLE_DIMJAG
 70
     0
  0
APPID
  2
ACAD_DSTYLE_DIMTALN
 70
     0
  0
APPID
  2
ACAD_DSTYLE_DIM_LINETYPE
 70
     0
  0
APPID
  2
ACAD_DSTYLE_DIM_EXT1_LINETYPE
 70
     0
  0
APPID
  2
ACAD_DSTYLE_DIM_EXT2_LINETYPE
 70
     0
  0
APPID
  2
ACAD_NAV_VCDISPLAY
 70
     0
  0
ENDTAB
  0
TABLE
  2
DIMSTYLE
 70
     2
  0
DIMSTYLE
  2
SUNPOU
 70
     0
  3

  4

  5

  6

  7

 40
80.0
 41
3.0
 42
1.0
 43
0.38
 44
1.0
 45
0.5
 46
0.0
 47
0.0
 48
0.0
140
2.0
141
0.09
142
0.0
143
25.399999999999999
144
1.0
145
0.0
146
1.0
147
1.0
 71
     0
 72
     0
 73
     0
 74
     0
 75
     0
 76
     0
 77
     1
 78
     8
170
     0
171
     2
172
     1
173
     0
174
     0
175
     0
176
     4
177
     4
178
     7
  0
ENDTAB
  0
ENDSEC
  0
SECTION
  2
BLOCKS
  0
BLOCK
  8
0
  2
$MODEL_SPACE
 70
     0
 10
0.0
 20
0.0
 30
0.0
  3
$MODEL_SPACE
  1

  0
ENDBLK
  5
4136
  8
0
  0
BLOCK
 67
     1
  8
0
  2
$PAPER_SPACE
 70
     0
 10
0.0
 20
0.0
 30
0.0
  3
$PAPER_SPACE
  1

  0
ENDBLK
  5
4132
 67
     1
  8
0
  0
BLOCK
  8
0
  2
_DOTSMALL
 70
     0
 10
0.0
 20
0.0
 30
0.0
  3
_DOTSMALL
  1

  0
POLYLINE
  5
4165
  8
0
  6
BYBLOCK
 62
     0
 66
     1
 10
0.0
 20
0.0
 30
0.0
 70
     1
 40
0.5
 41
0.5
  0
VERTEX
  5
4CD3
  8
0
  6
BYBLOCK
 62
     0
 10
-0.0625
 20
0.0
 30
0.0
 42
1.0
  0
VERTEX
  5
4CD4
  8
0
  6
BYBLOCK
 62
     0
 10
0.0625
 20
0.0
 30
0.0
 42
1.0
  0
SEQEND
  5
4CD5
  8
0
  6
BYBLOCK
 62
     0
  0
ENDBLK
  5
4169
  8
0
  0
ENDSEC
  0
SECTION
  2
ENTITIES
  0
LINE
  5
416A
  8
0-5
  6
CONTINUOUS
 62
     4
 10
15234.97327699999
 20
6276.5903320000034
 30
0.0
 11
19749.725638999989
 21
6276.5903320000034
 31
0.0
  0
LINE
  5
416B
  8
0-5
  6
CONTINUOUS
 62
     4
 10
15022.471034
 20
6276.5903320000034
 30
0.0
 11
18959.761138000002
 21
6276.5903320000034
 31
0.0
  0
CIRCLE
  5
416C
  8
0-5
  6
CONTINUOUS
 62
     4
 10
15128.713709
 20
1375.999734
 30
0.0
 40
20.0
  0
ARC
  5
416D
  8
0-5
  6
CONTINUOUS
 62
     4
 10
15128.713709
 20
1375.999734
 30
0.0
 40
20.0
 50
180.0
 51
0.0
  0
ARC
  5
416E
  8
0-5
  6
CONTINUOUS
 62
     4
 10
15128.713709
 20
1375.999734
 30
0.0
 40
20.0
 50
0.0
 51
179.99998499999839
  0
CIRCLE
  5
416F
  8
0-5
  6
CONTINUOUS
 62
     4
 10
15128.713709
 20
1775.999693
 30
0.0
 40
20.0
  0
ARC
  5
4170
  8
0-5
  6
CONTINUOUS
 62
     4
 10
15128.713709
 20
1775.999693
 30
0.0
 40
20.0
 50
180.0
 51
0.0
  0
ARC
  5
4171
  8
0-5
  6
CONTINUOUS
 62
     4
 10
15128.713709
 20
1775.999693
 30
0.0
 40
20.0
 50
0.0
 51
179.99998499999839
  0
TEXT
  5
4172
  8
0-5
  6
CONTINUOUS
 62
     7
 10
16614.49352254963
 20
1655.9997920000001
 30
0.0
 40
160.0
  1
H
  0
TEXT
  5
4173
  8
0-5
  6
CONTINUOUS
 62
     7
 10
15176.145943999991
 20
1655.9997920000001
 30
0.0
 40
160.0
  1
（ ）内寸法ハ、  タ イプヲ示ス。
  0
TEXT
  5
4174
  8
0-5
  6
CONTINUOUS
 62
     7
 10
15288.712256999979
 20
1255.9997090000011
 30
0.0
 40
160.0
  1
有効高サハ、基礎高サヲ含ミマセン。
  0
TEXT
  5
4175
  8
2-0
  6
CONTINUOUS
 62
     7
 10
21125.09910799998
 20
11776.059160999979
 30
0.0
 40
160.0
  1
平　面　図
 72
     4
 11
21578.432441333309
 21
11850.725827666651
 31
0.0
  0
TEXT
  5
4176
  8
2-0
  6
CONTINUOUS
 62
     7
 10
11003.145586999981
 20
11719.667625
 30
0.0
 40
160.0
  1
小 屋 伏 図
 50
359.99980699999981
 72
     4
 11
11504.47918980931
 21
11799.665936265499
 31
0.0
  0
TEXT
  5
4177
  8
2-0
  6
CONTINUOUS
 62
     7
 10
20927.00274499998
 20
3373.7480729999988
 30
0.0
 40
160.0
  1
正 面 立 面 図
 72
     4
 11
21572.336078333308
 21
3453.7480729999988
 31
0.0
  0
TEXT
  5
4178
  8
2-0
  6
CONTINUOUS
 62
     7
 10
10226.047956999981
 20
3369.142722999999
 30
0.0
 40
160.0
  1
側 面 立 面 図
 72
     4
 11
10871.38129033332
 21
3449.1427229999999
 31
0.0
  0
TEXT
  5
4180
  8
2-0
  6
CONTINUOUS
 62
     7
 10
12222.873475470949
 20
3396.3380919999991
 30
0.0
 40
160.0
  1
1
 72
     4
 11
12249.540142137619
 21
3476.3380919999981
 31
0.0
  0
TEXT
  5
4181
  8
2-0
  6
CONTINUOUS
 62
     7
 10
12465.96219272165
 20
3316.339559999999
 30
0.0
 40
160.0
  1
80
 72
     4
 11
12585.96219272165
 21
3396.339559999999
 31
0.0
  0
TEXT
  5
4182
  8
2-0
  6
CONTINUOUS
 62
     7
 10
11723.87544147096
 20
3369.142722999999
 30
0.0
 40
160.0
  1
(S=  /   )
 72
     4
 11
12283.87544147096
 21
3449.1427229999999
 31
0.0
  0
TEXT
  5
4183
  8
2-0
  6
CONTINUOUS
 62
     7
 10
22923.828263470939
 20
3400.9434419999989
 30
0.0
 40
160.0
  1
1
 72
     4
 11
22950.494930137611
 21
3480.9434419999989
 31
0.0
  0
TEXT
  5
4184
  8
2-0
  6
CONTINUOUS
 62
     7
 10
23166.916980721639
 20
3320.9449099999988
 30
0.0
 40
160.0
  1
80
 72
     4
 11
23286.916980721639
 21
3400.9449099999988
 31
0.0
  0
TEXT
  5
4185
  8
2-0
  6
CONTINUOUS
 62
     7
 10
22424.830229470939
 20
3373.7480729999988
 30
0.0
 40
160.0
  1
(S=  /   )
 72
     4
 11
22984.830229470939
 21
3453.7480729999988
 31
0.0
  0
TEXT
  5
4186
  8
2-0
  6
CONTINUOUS
 62
     7
 10
22929.924626470951
 20
11797.921196666661
 30
0.0
 40
160.0
  1
1
 72
     4
 11
22956.591293137619
 21
11877.921196666661
 31
0.0
  0
TEXT
  5
4187
  8
2-0
  6
CONTINUOUS
 62
     7
 10
23173.01334372165
 20
11717.92266466665
 30
0.0
 40
160.0
  1
80
 72
     4
 11
23293.01334372165
 21
11797.92266466665
 31
0.0
  0
TEXT
  5
4188
  8
2-0
  6
CONTINUOUS
 62
     7
 10
22430.926592470951
 20
11770.725827666651
 30
0.0
 40
160.0
  1
(S=  /   )
 72
     4
 11
22990.926592470951
 21
11850.725827666651
 31
0.0
  0
TEXT
  5
4189
  8
2-0
  6
CONTINUOUS
 62
     7
 10
12855.97137494693
 20
11746.8613052655
 30
0.0
 40
160.0
  1
1
 72
     4
 11
12882.6380416136
 21
11826.8613052655
 31
0.0
  0
TEXT
  5
418A
  8
2-0
  6
CONTINUOUS
 62
     7
 10
13099.06009219762
 20
11666.8627732655
 30
0.0
 40
160.0
  1
80
 72
     4
 11
13219.06009219762
 21
11746.8627732655
 31
0.0
  0
TEXT
  5
418B
  8
2-0
  6
CONTINUOUS
 62
     7
 10
12356.973340946941
 20
11719.665936265499
 30
0.0
 40
160.0
  1
(S=  /   )
 72
     4
 11
12916.973340946941
 21
11799.665936265499
 31
0.0
  0
TEXT
  5
418C
  8
0-5
  6
CONTINUOUS
 62
     7
 10
25010.298115000001
 20
4150.0605760000017
 30
0.0
 40
160.0
  1
3
 72
     4
 11
25063.63144833333
 21
4230.0605760000017
 31
0.0
  0
CIRCLE
  5
418D
  8
0-5
  6
CONTINUOUS
 62
     4
 10
25057.226562
 20
4236.5905299999986
 30
0.0
 40
199.9999949999999
  0
LINE
  5
418E
  8
0-5
  6
CONTINUOUS
 62
     4
 10
25057.226562
 20
4596.5902329999981
 30
0.0
 11
25057.226562
 21
4436.5902000000006
 31
0.0
  0
LINE
  5
418F
  8
SUNPOU
  6
CONTINUOUS
 10
25297.230521000001
 20
5076.5903320000016
 30
0.0
 11
25655.1855277211
 21
5076.5903320000016
 31
0.0
  0
LINE
  5
4190
  8
SUNPOU
  6
CONTINUOUS
 10
19597.226561999982
 20
5076.5903320000016
 30
0.0
 11
19239.27155527888
 21
5076.5903320000016
 31
0.0
  0
CIRCLE
  5
4191
  8
0-4
  6
CONTINUOUS
 62
     4
 10
24081.476561500011
 20
6762.6462729999967
 30
0.0
 40
18.487504999999981
  0
CIRCLE
  5
4192
  8
0-4
  6
CONTINUOUS
 62
     4
 10
21513.976561999989
 20
6762.6462730000003
 30
0.0
 40
18.487504999999981
  0
TEXT
  5
4193
  8
0-5
  6
CONTINUOUS
 62
     7
 10
19832.794155999989
 20
4150.0605760000017
 30
0.0
 40
160.0
  1
1
 72
     4
 11
19859.460822666661
 21
4230.0605760000017
 31
0.0
  0
TEXT
  5
4194
  8
0-5
  6
CONTINUOUS
 62
     7
 10
23101.298115000001
 20
4150.0605760000017
 30
0.0
 40
160.0
  1
2
 72
     4
 11
23154.63144833333
 21
4230.0605760000017
 31
0.0
  0
TEXT
  5
4195
  8
0-5
  6
CONTINUOUS
 62
     7
 10
19261.550622999999
 20
7005.9505787419957
 30
0.0
 40
160.0
  1
(2131.5)
 50
90.0
 72
     4
 11
19181.550622999999
 21
7459.2839120753297
 31
0.0
  0
CIRCLE
  5
4196
  8
0-5
  6
CONTINUOUS
 62
     4
 10
19879.726562
 20
4236.5905299999986
 30
0.0
 40
199.9999949999999
  0
CIRCLE
  5
4197
  8
0-5
  6
CONTINUOUS
 62
     4
 10
23148.226562
 20
4236.5905299999986
 30
0.0
 40
199.9999949999999
  0
LINE
  5
41A8
  8
2-0
  6
CENTER2
 62
     6
 10
19879.726562
 20
6013.9379090000011
 30
0.0
 11
19879.726562
 21
7051.0799460000007
 31
0.0
  0
LINE
  5
41A9
  8
2-0
  6
CENTER2
 62
     6
 10
23148.226562
 20
6013.9379090000011
 30
0.0
 11
23148.226562
 21
7051.0799460000007
 31
0.0
  0
LINE
  5
41AA
  8
2-0
  6
CENTER2
 62
     6
 10
25014.726562
 20
6013.9379090000011
 30
0.0
 11
25014.726562
 21
7051.0799460000007
 31
0.0
  0
LINE
  5
41AB
  8
0-5
  6
CONTINUOUS
 62
     4
 10
19879.726562
 20
4596.5902329999981
 30
0.0
 11
19879.726562
 21
4436.5902000000006
 31
0.0
  0
LINE
  5
41AC
  8
0-5
  6
CONTINUOUS
 62
     4
 10
23148.226562
 20
4596.5902329999981
 30
0.0
 11
23148.226562
 21
4436.5902000000006
 31
0.0
  0
LINE
  5
41AD
  8
0-2
  6
CONTINUOUS
 62
     4
 10
21150.283571499989
 20
7023.8160359999983
 30
0.0
 11
21250.280932500002
 21
7023.8160359999983
 31
0.0
  0
LINE
  5
41AE
  8
0-2
  6
CONTINUOUS
 62
     4
 10
21877.66757250001
 20
7023.8160359999983
 30
0.0
 11
21777.6682325
 21
7023.8160359999983
 31
0.0
  0
LINE
  5
41AF
  8
0-2
  6
CONTINUOUS
 62
     4
 10
23717.782581500011
 20
7023.8160359999983
 30
0.0
 11
23817.781922499998
 21
7023.8160359999983
 31
0.0
  0
LINE
  5
41B0
  8
0-2
  6
CONTINUOUS
 62
     4
 10
24445.168561500021
 20
7023.8160359999983
 30
0.0
 11
24345.169221500011
 21
7023.8160359999983
 31
0.0
  0
LINE
  5
41B6
  8
0-1
  6
CONTINUOUS
 62
     3
 10
19967.227222000001
 20
8216.0498900000021
 30
0.0
 11
23060.727881999981
 21
8216.0498900000021
 31
0.0
  0
LINE
  5
41B7
  8
0-1
  6
CONTINUOUS
 62
     3
 10
19967.227222000001
 20
6861.5910250000006
 30
0.0
 11
23060.727881999981
 21
6861.5910250000006
 31
0.0
  0
LINE
  5
41B8
  8
0-1
  6
CONTINUOUS
 62
     3
 10
19967.227222000001
 20
6926.5900020000026
 30
0.0
 11
23060.727881999981
 21
6926.5900020000026
 31
0.0
  0
LINE
  5
41B9
  8
0-1
  6
CONTINUOUS
 62
     3
 10
19967.227222000001
 20
6991.590463999999
 30
0.0
 11
23060.727881999981
 21
6991.590463999999
 31
0.0
  0
LINE
  5
41BA
  8
0-1
  6
CONTINUOUS
 62
     3
 10
19967.227222000001
 20
7056.5904310000024
 30
0.0
 11
23060.727881999981
 21
7056.5904310000024
 31
0.0
  0
LINE
  5
41BB
  8
0-1
  6
CONTINUOUS
 62
     3
 10
19967.227222000001
 20
7121.5903980000012
 30
0.0
 11
23060.727881999981
 21
7121.5903980000012
 31
0.0
  0
LINE
  5
41BC
  8
0-1
  6
CONTINUOUS
 62
     3
 10
19967.227222000001
 20
7186.5903649999991
 30
0.0
 11
23060.727881999981
 21
7186.5903649999991
 31
0.0
  0
LINE
  5
41BD
  8
0-1
  6
CONTINUOUS
 62
     3
 10
19967.227222000001
 20
7251.5908270000018
 30
0.0
 11
23060.727881999981
 21
7251.5908270000018
 31
0.0
  0
LINE
  5
41BE
  8
0-1
  6
CONTINUOUS
 62
     3
 10
19967.227222000001
 20
7316.589804000002
 30
0.0
 11
23060.727881999981
 21
7316.589804000002
 31
0.0
  0
LINE
  5
41BF
  8
0-1
  6
CONTINUOUS
 62
     3
 10
19967.227222000001
 20
7381.5902659999992
 30
0.0
 11
23060.727881999981
 21
7381.5902659999992
 31
0.0
  0
LINE
  5
41C0
  8
0-1
  6
CONTINUOUS
 62
     3
 10
19967.227222000001
 20
7446.5902329999981
 30
0.0
 11
23060.727881999981
 21
7446.5902329999981
 31
0.0
  0
LINE
  5
41C1
  8
0-1
  6
CONTINUOUS
 62
     3
 10
19967.227222000001
 20
7511.5906949999971
 30
0.0
 11
23060.727881999981
 21
7511.5906949999971
 31
0.0
  0
LINE
  5
41C2
  8
0-1
  6
CONTINUOUS
 62
     3
 10
19967.227222000001
 20
7576.589672000001
 30
0.0
 11
23060.727881999981
 21
7576.589672000001
 31
0.0
  0
LINE
  5
41C3
  8
0-1
  6
CONTINUOUS
 62
     3
 10
19967.227222000001
 20
7641.5901340000028
 30
0.0
 11
23060.727881999981
 21
7641.5901340000028
 31
0.0
  0
LINE
  5
41C4
  8
0-1
  6
CONTINUOUS
 62
     3
 10
19967.227222000001
 20
7706.5901009999998
 30
0.0
 11
23060.727881999981
 21
7706.5901009999998
 31
0.0
  0
LINE
  5
41C5
  8
0-1
  6
CONTINUOUS
 62
     3
 10
19967.227222000001
 20
7771.5900680000013
 30
0.0
 11
23060.727881999981
 21
7771.5900680000013
 31
0.0
  0
LINE
  5
41C6
  8
0-1
  6
CONTINUOUS
 62
     3
 10
19967.227222000001
 20
7836.590530000004
 30
0.0
 11
23060.727881999981
 21
7836.590530000004
 31
0.0
  0
LINE
  5
41C7
  8
0-1
  6
CONTINUOUS
 62
     3
 10
19967.227222000001
 20
7901.5904970000001
 30
0.0
 11
23060.727881999981
 21
7901.5904970000001
 31
0.0
  0
LINE
  5
41C8
  8
0-1
  6
CONTINUOUS
 62
     3
 10
19967.227222000001
 20
7966.5909590000001
 30
0.0
 11
23060.727881999981
 21
7966.5909590000001
 31
0.0
  0
LINE
  5
41C9
  8
0-1
  6
CONTINUOUS
 62
     3
 10
19967.227222000001
 20
8031.5899359999967
 30
0.0
 11
23060.727881999981
 21
8031.5899359999967
 31
0.0
  0
LINE
  5
41CA
  8
0-1
  6
CONTINUOUS
 62
     3
 10
19967.227222000001
 20
8096.5903980000012
 30
0.0
 11
23060.727881999981
 21
8096.5903980000012
 31
0.0
  0
LINE
  5
41CB
  8
0-1
  6
CONTINUOUS
 62
     3
 10
19967.227222000001
 20
8161.590365
 30
0.0
 11
23060.727881999981
 21
8161.590365
 31
0.0
  0
LINE
  5
41CC
  8
0-1
  6
CONTINUOUS
 62
     3
 10
19967.227222000001
 20
6341.5898040000002
 30
0.0
 11
23060.727881999981
 21
6341.5898040000002
 31
0.0
  0
LINE
  5
41CD
  8
0-1
  6
CONTINUOUS
 62
     3
 10
19967.227222000001
 20
6406.5907610000013
 30
0.0
 11
23060.727881999981
 21
6406.5907610000013
 31
0.0
  0
LINE
  5
41CE
  8
0-1
  6
CONTINUOUS
 62
     3
 10
19967.227222000001
 20
6471.5897380000033
 30
0.0
 11
23060.727881999981
 21
6471.5897380000033
 31
0.0
  0
LINE
  5
41CF
  8
0-1
  6
CONTINUOUS
 62
     3
 10
19967.227222000001
 20
6536.5906949999999
 30
0.0
 11
23060.727881999981
 21
6536.5906949999999
 31
0.0
  0
LINE
  5
41D0
  8
0-1
  6
CONTINUOUS
 62
     3
 10
19967.227222000001
 20
6601.5901670000021
 30
0.0
 11
23060.727881999981
 21
6601.5901670000021
 31
0.0
  0
LINE
  5
41D1
  8
0-1
  6
CONTINUOUS
 62
     3
 10
19967.227222000001
 20
6666.590134
 30
0.0
 11
23060.727881999981
 21
6666.590134
 31
0.0
  0
LINE
  5
41D2
  8
0-1
  6
CONTINUOUS
 62
     3
 10
19967.227222000001
 20
6731.5901010000034
 30
0.0
 11
23060.727881999981
 21
6731.5901010000034
 31
0.0
  0
LINE
  5
41D3
  8
0-1
  6
CONTINUOUS
 62
     3
 10
19967.227222000001
 20
6796.5895730000002
 30
0.0
 11
23060.727881999981
 21
6796.5895730000002
 31
0.0
  0
LINE
  5
41D5
  8
0-1
  6
CONTINUOUS
 62
     3
 10
19922.224847000001
 20
8284.5902259999984
 30
0.0
 11
23105.72629799999
 21
8284.5902259999984
 31
0.0
  0
LINE
  5
41D6
  8
0-1
  6
CONTINUOUS
 62
     3
 10
19837.224319000001
 20
8595.0895930000006
 30
0.0
 11
19837.224319000001
 21
6376.5901670000003
 31
0.0
  0
LINE
  5
41D7
  8
0-1
  6
CONTINUOUS
 62
     3
 10
19857.227353999991
 20
8725.0905160000057
 30
0.0
 11
19857.227353999991
 21
6376.5901670000003
 31
0.0
  0
LINE
  5
41D8
  8
0-1
  6
CONTINUOUS
 62
     3
 10
19922.224847000001
 20
8595.0895930000006
 30
0.0
 11
19922.224847000001
 21
6376.5901670000003
 31
0.0
  0
LINE
  5
41D9
  8
0-1
  6
CONTINUOUS
 62
     3
 10
19967.227222000001
 20
8284.5902259999984
 30
0.0
 11
19967.227222000001
 21
6276.5903320000034
 31
0.0
  0
LINE
  5
41DA
  8
0-1
  6
CONTINUOUS
 62
     3
 10
19829.725902999991
 20
6376.5901670000003
 30
0.0
 11
19929.727222000001
 21
6376.5901670000003
 31
0.0
  0
LINE
  5
41DB
  8
0-1
  6
CONTINUOUS
 62
     3
 10
19829.725902999991
 20
6276.5903320000034
 30
0.0
 11
19829.725902999991
 21
6376.5901670000003
 31
0.0
  0
LINE
  5
41DC
  8
0-1
  6
CONTINUOUS
 62
     3
 10
19929.727222000001
 20
6376.5901670000003
 30
0.0
 11
19929.727222000001
 21
6276.5903320000034
 31
0.0
  0
LINE
  5
41E7
  8
0-1
  6
CONTINUOUS
 62
     3
 10
23060.727881999981
 20
8284.5902259999984
 30
0.0
 11
23060.727881999981
 21
6276.5903320000034
 31
0.0
  0
LINE
  5
41E8
  8
0-1
  6
CONTINUOUS
 62
     3
 10
23105.72629799999
 20
8595.0895930000006
 30
0.0
 11
23105.72629799999
 21
6276.5903320000034
 31
0.0
  0
LINE
  5
41F2
  8
0-1
  6
CONTINUOUS
 62
     3
 10
19829.725902999991
 20
6276.5903320000034
 30
0.0
 11
25064.72722199998
 21
6276.5903320000034
 31
0.0
  0
LINE
  5
41F3
  8
0-1
  6
CONTINUOUS
 62
     3
 10
23190.724846000001
 20
8284.5902259999984
 30
0.0
 11
24972.228276999991
 21
8284.5902259999984
 31
0.0
  0
LINE
  5
41F5
  8
0-1
  6
CONTINUOUS
 62
     3
 10
23235.725242000011
 20
6796.5895730000002
 30
0.0
 11
24927.227880999959
 21
6796.5895730000002
 31
0.0
  0
LINE
  5
41F6
  8
0-1
  6
CONTINUOUS
 62
     3
 10
23235.725242000011
 20
6731.5901010000034
 30
0.0
 11
24927.227880999959
 21
6731.5901010000034
 31
0.0
  0
LINE
  5
41F7
  8
0-1
  6
CONTINUOUS
 62
     3
 10
23235.725242000011
 20
6666.590134
 30
0.0
 11
24927.227880999959
 21
6666.590134
 31
0.0
  0
LINE
  5
41F8
  8
0-1
  6
CONTINUOUS
 62
     3
 10
23235.725242000011
 20
6601.5901670000021
 30
0.0
 11
24927.227880999959
 21
6601.5901670000021
 31
0.0
  0
LINE
  5
41F9
  8
0-1
  6
CONTINUOUS
 62
     3
 10
23235.725242000011
 20
6536.5906949999999
 30
0.0
 11
24927.227880999959
 21
6536.5906949999999
 31
0.0
  0
LINE
  5
41FA
  8
0-1
  6
CONTINUOUS
 62
     3
 10
23235.725242000011
 20
6471.5897380000033
 30
0.0
 11
24927.227880999959
 21
6471.5897380000033
 31
0.0
  0
LINE
  5
41FB
  8
0-1
  6
CONTINUOUS
 62
     3
 10
23235.725242000011
 20
6406.5907610000013
 30
0.0
 11
24927.227880999959
 21
6406.5907610000013
 31
0.0
  0
LINE
  5
41FC
  8
0-1
  6
CONTINUOUS
 62
     3
 10
23235.725242000011
 20
6341.5898040000002
 30
0.0
 11
24927.227880999959
 21
6341.5898040000002
 31
0.0
  0
LINE
  5
41FD
  8
0-1
  6
CONTINUOUS
 62
     3
 10
23235.725242000011
 20
8161.590365
 30
0.0
 11
24927.227880999959
 21
8161.590365
 31
0.0
  0
LINE
  5
41FE
  8
0-1
  6
CONTINUOUS
 62
     3
 10
23235.725242000011
 20
8096.5903980000012
 30
0.0
 11
24927.227880999959
 21
8096.5903980000012
 31
0.0
  0
LINE
  5
41FF
  8
0-1
  6
CONTINUOUS
 62
     3
 10
23235.725242000011
 20
8031.5899359999967
 30
0.0
 11
24927.227880999959
 21
8031.5899359999967
 31
0.0
  0
LINE
  5
4200
  8
0-1
  6
CONTINUOUS
 62
     3
 10
23235.725242000011
 20
7966.5909590000001
 30
0.0
 11
24927.227880999959
 21
7966.5909590000001
 31
0.0
  0
LINE
  5
4201
  8
0-1
  6
CONTINUOUS
 62
     3
 10
23235.725242000011
 20
7901.5904970000001
 30
0.0
 11
24927.227880999959
 21
7901.5904970000001
 31
0.0
  0
LINE
  5
4202
  8
0-1
  6
CONTINUOUS
 62
     3
 10
23235.725242000011
 20
7836.590530000004
 30
0.0
 11
24927.227880999959
 21
7836.590530000004
 31
0.0
  0
LINE
  5
4203
  8
0-1
  6
CONTINUOUS
 62
     3
 10
23235.725242000011
 20
7771.5900680000013
 30
0.0
 11
24927.227880999959
 21
7771.5900680000013
 31
0.0
  0
LINE
  5
4204
  8
0-1
  6
CONTINUOUS
 62
     3
 10
23235.725242000011
 20
7706.5901009999998
 30
0.0
 11
24927.227880999959
 21
7706.5901009999998
 31
0.0
  0
LINE
  5
4205
  8
0-1
  6
CONTINUOUS
 62
     3
 10
23235.725242000011
 20
7641.5901340000028
 30
0.0
 11
24927.227880999959
 21
7641.5901340000028
 31
0.0
  0
LINE
  5
4206
  8
0-1
  6
CONTINUOUS
 62
     3
 10
23235.725242000011
 20
7576.589672000001
 30
0.0
 11
24927.227880999959
 21
7576.589672000001
 31
0.0
  0
LINE
  5
4207
  8
0-1
  6
CONTINUOUS
 62
     3
 10
23235.725242000011
 20
7511.5906949999971
 30
0.0
 11
24927.227880999959
 21
7511.5906949999971
 31
0.0
  0
LINE
  5
4208
  8
0-1
  6
CONTINUOUS
 62
     3
 10
23235.725242000011
 20
7446.5902329999981
 30
0.0
 11
24927.227880999959
 21
7446.5902329999981
 31
0.0
  0
LINE
  5
4209
  8
0-1
  6
CONTINUOUS
 62
     3
 10
23235.725242000011
 20
7381.5902659999992
 30
0.0
 11
24927.227880999959
 21
7381.5902659999992
 31
0.0
  0
LINE
  5
420A
  8
0-1
  6
CONTINUOUS
 62
     3
 10
23235.725242000011
 20
7316.589804000002
 30
0.0
 11
24927.227880999959
 21
7316.589804000002
 31
0.0
  0
LINE
  5
420B
  8
0-1
  6
CONTINUOUS
 62
     3
 10
23235.725242000011
 20
7251.5908270000018
 30
0.0
 11
24927.227880999959
 21
7251.5908270000018
 31
0.0
  0
LINE
  5
420C
  8
0-1
  6
CONTINUOUS
 62
     3
 10
23235.725242000011
 20
7186.5903649999991
 30
0.0
 11
24927.227880999959
 21
7186.5903649999991
 31
0.0
  0
LINE
  5
420D
  8
0-1
  6
CONTINUOUS
 62
     3
 10
23235.725242000011
 20
7121.5903980000012
 30
0.0
 11
24927.227880999959
 21
7121.5903980000012
 31
0.0
  0
LINE
  5
420E
  8
0-1
  6
CONTINUOUS
 62
     3
 10
23235.725242000011
 20
7056.5904310000024
 30
0.0
 11
24927.227880999959
 21
7056.5904310000024
 31
0.0
  0
LINE
  5
420F
  8
0-1
  6
CONTINUOUS
 62
     3
 10
23235.725242000011
 20
6991.590463999999
 30
0.0
 11
24927.227880999959
 21
6991.590463999999
 31
0.0
  0
LINE
  5
4210
  8
0-1
  6
CONTINUOUS
 62
     3
 10
23235.725242000011
 20
6926.5900020000026
 30
0.0
 11
24927.227880999959
 21
6926.5900020000026
 31
0.0
  0
LINE
  5
4211
  8
0-1
  6
CONTINUOUS
 62
     3
 10
23235.725242000011
 20
6861.5910250000006
 30
0.0
 11
24927.227880999959
 21
6861.5910250000006
 31
0.0
  0
LINE
  5
4212
  8
0-1
  6
CONTINUOUS
 62
     3
 10
23235.725242000011
 20
8216.0498900000021
 30
0.0
 11
24927.227880999959
 21
8216.0498900000021
 31
0.0
  0
LINE
  5
4215
  8
0-1
  6
CONTINUOUS
 62
     3
 10
23235.725242000011
 20
8284.5902259999984
 30
0.0
 11
23235.725242000011
 21
6276.5903320000034
 31
0.0
  0
LINE
  5
4216
  8
0-1
  6
CONTINUOUS
 62
     3
 10
23190.724846000001
 20
8595.0895930000006
 30
0.0
 11
23190.724846000001
 21
6276.5903320000034
 31
0.0
  0
LINE
  5
421F
  8
0-1
  6
CONTINUOUS
 62
     3
 10
24972.228276999991
 20
8595.0895930000006
 30
0.0
 11
24972.228276999991
 21
6376.5901670000003
 31
0.0
  0
LINE
  5
4220
  8
0-1
  6
CONTINUOUS
 62
     3
 10
24927.227880999959
 20
8284.5902259999984
 30
0.0
 11
24927.227880999959
 21
6276.5903320000034
 31
0.0
  0
LINE
  5
4221
  8
0-1
  6
CONTINUOUS
 62
     3
 10
25057.226825999998
 20
8595.0895930000006
 30
0.0
 11
25057.226825999998
 21
6376.5901670000003
 31
0.0
  0
LINE
  5
4222
  8
0-1
  6
CONTINUOUS
 62
     3
 10
25037.227749000001
 20
8725.0905160000057
 30
0.0
 11
25037.227749000001
 21
6376.5901670000003
 31
0.0
  0
LINE
  5
4223
  8
0-1
  6
CONTINUOUS
 62
     3
 10
25064.72722199998
 20
6276.5903320000034
 30
0.0
 11
25064.72722199998
 21
6376.5901670000003
 31
0.0
  0
LINE
  5
4224
  8
0-1
  6
CONTINUOUS
 62
     3
 10
24964.727880999999
 20
6376.5901670000003
 30
0.0
 11
24964.727880999999
 21
6276.5903320000034
 31
0.0
  0
LINE
  5
4225
  8
0-1
  6
CONTINUOUS
 62
     3
 10
25064.72722199998
 20
6376.5901670000003
 30
0.0
 11
24964.727880999999
 21
6376.5901670000003
 31
0.0
  0
LINE
  5
4230
  8
SUNPOU
  6
CONTINUOUS
 10
8848.9687369999974
 20
9524.5903579999995
 30
0.0
 11
8373.6796243597637
 21
9524.5903579999995
 31
0.0
  0
TEXT
  5
4231
  8
0-5
  6
CONTINUOUS
 62
     7
 10
16208.46205899999
 20
6664.435923
 30
0.0
 40
160.0
  1
布基礎天端
 72
     4
 11
16667.128725666658
 21
6744.4359230000009
 31
0.0
  0
LINE
  5
4232
  8
0-5
  6
CONTINUOUS
 62
     4
 10
15042.467285999999
 20
6376.5896720000028
 30
0.0
 11
16759.932180999989
 21
6376.5896720000028
 31
0.0
  0
LINE
  5
4233
  8
0-5
  6
CONTINUOUS
 62
     4
 10
16787.554383999981
 20
6584.4366490000002
 30
0.0
 11
16547.555570999979
 21
6584.4366490000002
 31
0.0
  0
LINE
  5
4234
  8
0-5
  6
CONTINUOUS
 62
     4
 10
16547.555570999979
 20
6584.4366490000002
 30
0.0
 11
16667.553987999989
 21
6376.5896720000028
 31
0.0
  0
LINE
  5
4235
  8
0-5
  6
CONTINUOUS
 62
     4
 10
16667.553987999989
 20
6376.5896720000028
 30
0.0
 11
16787.554383999981
 21
6584.4366490000002
 31
0.0
  0
TEXT
  5
4236
  8
0-5
  6
CONTINUOUS
 62
     7
 10
9024.5138310000075
 20
4153.3782490000049
 30
0.0
 40
160.0
  1
C
 72
     4
 11
9077.8471643333414
 21
4233.3782490000058
 31
0.0
  0
TEXT
  5
4237
  8
0-5
  6
CONTINUOUS
 62
     7
 10
11942.513830999989
 20
4153.3782490000049
 30
0.0
 40
160.0
  1
B
 72
     4
 11
11995.847164333331
 21
4233.3782490000058
 31
0.0
  0
TEXT
  5
4238
  8
0-5
  6
CONTINUOUS
 62
     7
 10
14860.513830999989
 20
4153.3782490000049
 30
0.0
 40
160.0
  1
A
 72
     4
 11
14913.847164333331
 21
4233.3782490000058
 31
0.0
  0
CIRCLE
  5
4239
  8
0-5
  6
CONTINUOUS
 62
     4
 10
9071.4699910000018
 20
4236.5890450000043
 30
0.0
 40
199.9999949999999
  0
CIRCLE
  5
423A
  8
0-5
  6
CONTINUOUS
 62
     4
 10
14907.469990999991
 20
4236.5890450000043
 30
0.0
 40
199.9999949999999
  0
CIRCLE
  5
423B
  8
0-5
  6
CONTINUOUS
 62
     4
 10
11989.469991
 20
4236.5890450000043
 30
0.0
 40
199.9999949999999
  0
LINE
  5
423C
  8
0-5
  6
CONTINUOUS
 62
     4
 10
9071.4699910000018
 20
4596.5897380000042
 30
0.0
 11
9071.4699910000018
 21
4436.5902000000033
 31
0.0
  0
LINE
  5
423D
  8
0-5
  6
CONTINUOUS
 62
     4
 10
11989.469991
 20
4596.5897380000042
 30
0.0
 11
11989.469991
 21
4436.5902000000033
 31
0.0
  0
LINE
  5
423E
  8
0-5
  6
CONTINUOUS
 62
     4
 10
14907.469990999991
 20
4596.5897380000042
 30
0.0
 11
14907.469990999991
 21
4436.5902000000033
 31
0.0
  0
ARC
  5
423F
  8
0-1
  6
CONTINUOUS
 62
     3
 10
8853.1092960000024
 20
8497.2875180000028
 30
0.0
 40
3.0
 50
181.76798999998601
 51
271.76798999988182
  0
ARC
  5
4240
  8
0-1
  6
CONTINUOUS
 62
     3
 10
8854.1228100000008
 20
8529.3339440000018
 30
0.0
 40
5.0
 50
91.767989999881877
 51
181.76798999998601
  0
ARC
  5
4241
  8
0-1
  6
CONTINUOUS
 62
     3
 10
15029.970517999989
 20
8659.3190320000049
 30
0.0
 40
69.999999000000003
 50
293.55477900013238
 51
69.981200999904573
  0
ARC
  5
4242
  8
0-1
  6
CONTINUOUS
 62
     3
 10
8857.8245090000055
 20
8409.3919440000027
 30
0.0
 40
5.0
 50
181.76798999998601
 51
271.76798999988182
  0
ARC
  5
4243
  8
0-1
  6
CONTINUOUS
 62
     3
 10
8854.8393950000045
 20
8441.3146510000006
 30
0.0
 40
3.0
 50
91.767989999881877
 51
181.76798999998601
  0
ARC
  5
4244
  8
0-1
  6
CONTINUOUS
 62
     3
 10
15034.96781299999
 20
8659.4734340000032
 30
0.0
 40
24.999998999999999
 50
271.76798999988182
 51
91.767989999881877
  0
ARC
  5
4245
  8
0-1
  6
CONTINUOUS
 62
     3
 10
8854.4989180000011
 20
8452.3098869999976
 30
0.0
 40
3.0
 50
181.76798999998601
 51
271.76798999988182
  0
ARC
  5
4246
  8
0-1
  6
CONTINUOUS
 62
     3
 10
15034.96781299999
 20
8659.4734340000032
 30
0.0
 40
20.0
 50
271.76798999988182
 51
91.767989999881877
  0
ARC
  5
4247
  8
0-1
  6
CONTINUOUS
 62
     3
 10
8853.4487830000016
 20
8486.2932720000008
 30
0.0
 40
3.0
 50
91.767989999881877
 51
181.76798999998601
  0
ARC
  5
4248
  8
0-1
  6
CONTINUOUS
 62
     3
 10
8854.7800100000022
 20
8491.8359240000027
 30
0.0
 40
2.5
 50
271.76798999988182
 51
91.767989999881877
  0
ARC
  5
4249
  8
0-1
  6
CONTINUOUS
 62
     3
 10
8856.1676520000019
 20
8446.858291999999
 30
0.0
 40
2.5
 50
271.76798999988182
 51
91.767989999881877
  0
LINE
  5
424A
  8
2-0
  6
CENTER2
 62
     6
 10
14907.469990999991
 20
6013.9369190000061
 30
0.0
 11
14907.469990999991
 21
7071.0795170000038
 31
0.0
  0
LINE
  5
424B
  8
2-0
  6
CENTER2
 62
     6
 10
11989.469991
 20
6013.9369190000061
 30
0.0
 11
11989.469991
 21
7071.0795170000038
 31
0.0
  0
LINE
  5
424C
  8
2-0
  6
CENTER2
 62
     6
 10
9071.4699910000018
 20
6013.9369190000061
 30
0.0
 11
9071.4699910000018
 21
7071.0795170000038
 31
0.0
  0
LINE
  5
424D
  8
0-1
  6
CONTINUOUS
 62
     3
 10
8866.4631279999976
 20
8534.7172450000016
 30
0.0
 11
8870.4736330000032
 21
8404.7786760000017
 31
0.0
  0
LINE
  5
424E
  8
0-1
  6
CONTINUOUS
 62
     3
 10
8849.1235350000024
 20
8529.1795420000017
 30
0.0
 11
8850.1123050000024
 21
8497.1954700000006
 31
0.0
  0
LINE
  5
424F
  8
0-1
  6
CONTINUOUS
 62
     3
 10
15053.934569999999
 20
8725.0915060000025
 30
0.0
 11
8853.9684070000003
 21
8534.3322290000033
 31
0.0
  0
LINE
  5
4250
  8
0-1
  6
CONTINUOUS
 62
     3
 10
8857.9789120000023
 20
8404.3946500000056
 30
0.0
 11
15057.945075
 21
8595.1519470000021
 31
0.0
  0
LINE
  5
4251
  8
0-1
  6
CONTINUOUS
 62
     3
 10
8851.8374550000008
 20
8441.2869370000026
 30
0.0
 11
8852.827215000003
 21
8409.2375420000026
 31
0.0
  0
LINE
  5
4252
  8
0-1
  6
CONTINUOUS
 62
     3
 10
8851.8374550000008
 20
8441.2216130000033
 30
0.0
 11
8851.8374550000008
 21
8441.2869370000026
 31
0.0
  0
LINE
  5
4253
  8
0-1
  6
CONTINUOUS
 62
     3
 10
15035.737846
 20
8634.4849820000018
 30
0.0
 11
8854.7433889999975
 21
8444.3126320000047
 31
0.0
  0
LINE
  5
4254
  8
0-1
  6
CONTINUOUS
 62
     3
 10
8853.204313000002
 20
8494.2895369999987
 30
0.0
 11
15034.196791
 21
8684.4618870000013
 31
0.0
  0
LINE
  5
4255
  8
0-1
  6
CONTINUOUS
 62
     3
 10
15035.584433000011
 20
8639.4832659999975
 30
0.0
 11
8854.5909660000016
 21
8449.3099260000035
 31
0.0
  0
LINE
  5
4256
  8
0-1
  6
CONTINUOUS
 62
     3
 10
8853.357726000002
 20
8489.2912530000012
 30
0.0
 11
15034.351193
 21
8679.4645930000006
 31
0.0
  0
LINE
  5
4257
  8
0-1
  6
CONTINUOUS
 62
     3
 10
8851.4989580000001
 20
8452.2158590000017
 30
0.0
 11
8850.4517919999998
 21
8486.2012239999967
 31
0.0
  0
LINE
  5
4258
  8
0-1
  6
CONTINUOUS
 62
     3
 10
14962.469991
 20
6376.5896720000037
 30
0.0
 11
14962.469991
 21
6276.5903320000034
 31
0.0
  0
LINE
  5
4259
  8
0-1
  6
CONTINUOUS
 62
     3
 10
12453.471126
 20
6426.5903319999989
 30
0.0
 11
12453.471126
 21
8287.6357149999985
 31
0.0
  0
LINE
  5
425A
  8
0-1
  6
CONTINUOUS
 62
     3
 10
12586.470031000001
 20
6426.5903319999989
 30
0.0
 11
12586.470031000001
 21
8287.6357149999985
 31
0.0
  0
LINE
  5
425B
  8
0-1
  6
CONTINUOUS
 62
     3
 10
12601.468843000001
 20
6426.5903319999989
 30
0.0
 11
12601.468843000001
 21
8287.6357149999985
 31
0.0
  0
LINE
  5
425C
  8
0-1
  6
CONTINUOUS
 62
     3
 10
14711.469938
 20
6426.5903319999989
 30
0.0
 11
14711.469938
 21
8287.6357149999985
 31
0.0
  0
LINE
  5
425D
  8
0-1
  6
CONTINUOUS
 62
     3
 10
14696.471125
 20
6426.5903319999989
 30
0.0
 11
14696.471125
 21
8287.6357149999985
 31
0.0
  0
LINE
  5
425E
  8
0-1
  6
CONTINUOUS
 62
     3
 10
14285.46905400001
 20
6426.5903319999989
 30
0.0
 11
14285.46905400001
 21
8287.6357149999985
 31
0.0
  0
LINE
  5
425F
  8
0-1
  6
CONTINUOUS
 62
     3
 10
14300.470836
 20
6426.5903319999989
 30
0.0
 11
14300.470836
 21
8287.6357149999985
 31
0.0
  0
LINE
  5
4260
  8
0-1
  6
CONTINUOUS
 62
     3
 10
14433.47073000001
 20
6426.5903319999989
 30
0.0
 11
14433.47073000001
 21
8287.6357149999985
 31
0.0
  0
LINE
  5
4261
  8
0-1
  6
CONTINUOUS
 62
     3
 10
14553.471125999989
 20
6426.5903319999989
 30
0.0
 11
14553.471125999989
 21
8287.6357149999985
 31
0.0
  0
LINE
  5
4262
  8
0-1
  6
CONTINUOUS
 62
     3
 10
14483.471390000001
 20
6426.5903319999989
 30
0.0
 11
14483.471390000001
 21
8287.6357149999985
 31
0.0
  0
LINE
  5
4263
  8
0-1
  6
CONTINUOUS
 62
     3
 10
14503.47046600001
 20
6426.5903319999989
 30
0.0
 11
14503.47046600001
 21
8287.6357149999985
 31
0.0
  0
LINE
  5
4264
  8
0-1
  6
CONTINUOUS
 62
     3
 10
13803.471126
 20
6426.5903319999989
 30
0.0
 11
13803.471126
 21
8287.6357149999985
 31
0.0
  0
LINE
  5
4265
  8
0-1
  6
CONTINUOUS
 62
     3
 10
13783.46908099999
 20
6426.5903319999989
 30
0.0
 11
13783.46908099999
 21
8287.6357149999985
 31
0.0
  0
LINE
  5
4266
  8
0-1
  6
CONTINUOUS
 62
     3
 10
13853.468817000001
 20
6426.5903319999989
 30
0.0
 11
13853.468817000001
 21
8287.6357149999985
 31
0.0
  0
LINE
  5
4267
  8
0-1
  6
CONTINUOUS
 62
     3
 10
13733.471390000001
 20
6426.5903319999989
 30
0.0
 11
13733.471390000001
 21
8287.6357149999985
 31
0.0
  0
LINE
  5
4268
  8
0-1
  6
CONTINUOUS
 62
     3
 10
13600.471496
 20
6426.5903319999989
 30
0.0
 11
13600.471496
 21
8287.6357149999985
 31
0.0
  0
LINE
  5
4269
  8
0-1
  6
CONTINUOUS
 62
     3
 10
13585.46971400001
 20
6426.5903319999989
 30
0.0
 11
13585.46971400001
 21
8287.6357149999985
 31
0.0
  0
LINE
  5
426A
  8
0-1
  6
CONTINUOUS
 62
     3
 10
13986.469700999991
 20
6426.5903319999989
 30
0.0
 11
13986.469700999991
 21
8287.6357149999985
 31
0.0
  0
LINE
  5
426B
  8
0-1
  6
CONTINUOUS
 62
     3
 10
14001.47049299999
 20
6426.5903319999989
 30
0.0
 11
14001.47049299999
 21
8287.6357149999985
 31
0.0
  0
LINE
  5
426C
  8
0-1
  6
CONTINUOUS
 62
     3
 10
13301.471152
 20
6426.5903319999989
 30
0.0
 11
13301.471152
 21
8287.6357149999985
 31
0.0
  0
LINE
  5
426D
  8
0-1
  6
CONTINUOUS
 62
     3
 10
13286.471350000011
 20
6426.5903319999989
 30
0.0
 11
13286.471350000011
 21
8287.6357149999985
 31
0.0
  0
LINE
  5
426E
  8
0-1
  6
CONTINUOUS
 62
     3
 10
12885.470374
 20
6426.5903319999989
 30
0.0
 11
12885.470374
 21
8287.6357149999985
 31
0.0
  0
LINE
  5
426F
  8
0-1
  6
CONTINUOUS
 62
     3
 10
12900.470176000001
 20
6426.5903319999989
 30
0.0
 11
12900.470176000001
 21
8287.6357149999985
 31
0.0
  0
LINE
  5
4270
  8
0-1
  6
CONTINUOUS
 62
     3
 10
13033.471060000011
 20
6426.5903319999989
 30
0.0
 11
13033.471060000011
 21
8287.6357149999985
 31
0.0
  0
LINE
  5
4271
  8
0-1
  6
CONTINUOUS
 62
     3
 10
13153.47046600001
 20
6426.5903319999989
 30
0.0
 11
13153.47046600001
 21
8287.6357149999985
 31
0.0
  0
LINE
  5
4272
  8
0-1
  6
CONTINUOUS
 62
     3
 10
13083.46974000001
 20
6426.5903319999989
 30
0.0
 11
13083.46974000001
 21
8287.6357149999985
 31
0.0
  0
LINE
  5
4273
  8
0-1
  6
CONTINUOUS
 62
     3
 10
13103.46881700001
 20
6426.5903319999989
 30
0.0
 11
13103.46881700001
 21
8287.6357149999985
 31
0.0
  0
LINE
  5
4274
  8
0-1
  6
CONTINUOUS
 62
     3
 10
12761.970189000011
 20
8287.6357149999985
 30
0.0
 11
12761.970189000011
 21
6426.5903319999989
 31
0.0
  0
LINE
  5
4275
  8
0-1
  6
CONTINUOUS
 62
     3
 10
12724.96902800001
 20
8287.6357149999985
 30
0.0
 11
12724.96902800001
 21
6426.5903319999989
 31
0.0
  0
LINE
  5
4276
  8
0-1
  6
CONTINUOUS
 62
     3
 10
14161.969859000001
 20
8287.6357149999985
 30
0.0
 11
14161.969859000001
 21
6426.5903319999989
 31
0.0
  0
LINE
  5
4277
  8
0-1
  6
CONTINUOUS
 62
     3
 10
14124.97067699999
 20
8287.6357149999985
 30
0.0
 11
14124.97067699999
 21
6426.5903319999989
 31
0.0
  0
LINE
  5
4278
  8
0-1
  6
CONTINUOUS
 62
     3
 10
13461.971509000001
 20
8287.6357149999985
 30
0.0
 11
13461.971509000001
 21
6426.5903319999989
 31
0.0
  0
LINE
  5
4279
  8
0-1
  6
CONTINUOUS
 62
     3
 10
13424.97133700001
 20
8287.6357149999985
 30
0.0
 11
13424.97133700001
 21
6426.5903319999989
 31
0.0
  0
LINE
  5
427A
  8
0-1
  6
CONTINUOUS
 62
     3
 10
14929.970188999991
 20
8591.2018180000032
 30
0.0
 11
14929.970188999991
 21
6376.5896720000037
 31
0.0
  0
LINE
  5
427B
  8
0-1
  6
CONTINUOUS
 62
     3
 10
14949.971244
 20
8591.8194280000007
 30
0.0
 11
14949.971244
 21
6376.5896720000037
 31
0.0
  0
LINE
  5
427C
  8
0-1
  6
CONTINUOUS
 62
     3
 10
14834.97012299999
 20
8287.6357149999985
 30
0.0
 11
14834.97012299999
 21
6376.5896720000037
 31
0.0
  0
LINE
  5
427D
  8
0-1
  6
CONTINUOUS
 62
     3
 10
11989.469991
 20
8500.7457370000011
 30
0.0
 11
11989.469991
 21
8287.6357149999985
 31
0.0
  0
LINE
  5
427E
  8
0-1
  6
CONTINUOUS
 62
     3
 10
11989.41852399999
 20
8500.7437569999984
 30
0.0
 11
11985.40603899999
 21
8630.6823260000001
 31
0.0
  0
LINE
  5
427F
  8
0-1
  6
CONTINUOUS
 62
     3
 10
10553.970625000011
 20
8287.6357149999985
 30
0.0
 11
10553.970625000011
 21
6426.5903319999989
 31
0.0
  0
LINE
  5
4280
  8
0-1
  6
CONTINUOUS
 62
     3
 10
10516.971443
 20
8287.6357149999985
 30
0.0
 11
10516.971443
 21
6426.5903319999989
 31
0.0
  0
LINE
  5
4281
  8
0-1
  6
CONTINUOUS
 62
     3
 10
9843.9691989999992
 20
8287.6357149999985
 30
0.0
 11
9843.9691989999992
 21
6426.5903319999989
 31
0.0
  0
LINE
  5
4282
  8
0-1
  6
CONTINUOUS
 62
     3
 10
9806.9690269999937
 20
8287.6357149999985
 30
0.0
 11
9806.9690269999937
 21
6426.5903319999989
 31
0.0
  0
LINE
  5
4283
  8
0-1
  6
CONTINUOUS
 62
     3
 10
11253.969965
 20
8287.6357149999985
 30
0.0
 11
11253.969965
 21
6426.5903319999989
 31
0.0
  0
LINE
  5
4284
  8
0-1
  6
CONTINUOUS
 62
     3
 10
11216.97078300001
 20
8287.6357149999985
 30
0.0
 11
11216.97078300001
 21
6426.5903319999989
 31
0.0
  0
LINE
  5
4285
  8
0-1
  6
CONTINUOUS
 62
     3
 10
10875.47116599999
 20
6426.5903319999989
 30
0.0
 11
10875.47116599999
 21
8287.6357149999985
 31
0.0
  0
LINE
  5
4286
  8
0-1
  6
CONTINUOUS
 62
     3
 10
10895.471232000011
 20
6426.5903319999989
 30
0.0
 11
10895.471232000011
 21
8287.6357149999985
 31
0.0
  0
LINE
  5
4287
  8
0-1
  6
CONTINUOUS
 62
     3
 10
10825.471496
 20
6426.5903319999989
 30
0.0
 11
10825.471496
 21
8287.6357149999985
 31
0.0
  0
LINE
  5
4288
  8
0-1
  6
CONTINUOUS
 62
     3
 10
10945.468922
 20
6426.5903319999989
 30
0.0
 11
10945.468922
 21
8287.6357149999985
 31
0.0
  0
LINE
  5
4289
  8
0-1
  6
CONTINUOUS
 62
     3
 10
11078.46980599999
 20
6426.5903319999989
 30
0.0
 11
11078.46980599999
 21
8287.6357149999985
 31
0.0
  0
LINE
  5
428A
  8
0-1
  6
CONTINUOUS
 62
     3
 10
11093.470598
 20
6426.5903319999989
 30
0.0
 11
11093.470598
 21
8287.6357149999985
 31
0.0
  0
LINE
  5
428B
  8
0-1
  6
CONTINUOUS
 62
     3
 10
10692.468632
 20
6426.5903319999989
 30
0.0
 11
10692.468632
 21
8287.6357149999985
 31
0.0
  0
LINE
  5
428C
  8
0-1
  6
CONTINUOUS
 62
     3
 10
10677.46982
 20
6426.5903319999989
 30
0.0
 11
10677.46982
 21
8287.6357149999985
 31
0.0
  0
LINE
  5
428D
  8
0-1
  6
CONTINUOUS
 62
     3
 10
9977.4704790000123
 20
6426.5903319999989
 30
0.0
 11
9977.4704790000123
 21
8287.6357149999985
 31
0.0
  0
LINE
  5
428E
  8
0-1
  6
CONTINUOUS
 62
     3
 10
9992.4692919999998
 20
6426.5903319999989
 30
0.0
 11
9992.4692919999998
 21
8287.6357149999985
 31
0.0
  0
LINE
  5
428F
  8
0-1
  6
CONTINUOUS
 62
     3
 10
10393.47125800001
 20
6426.5903319999989
 30
0.0
 11
10393.47125800001
 21
8287.6357149999985
 31
0.0
  0
LINE
  5
4290
  8
0-1
  6
CONTINUOUS
 62
     3
 10
10378.470466000001
 20
6426.5903319999989
 30
0.0
 11
10378.470466000001
 21
8287.6357149999985
 31
0.0
  0
LINE
  5
4291
  8
0-1
  6
CONTINUOUS
 62
     3
 10
10245.469582000011
 20
6426.5903319999989
 30
0.0
 11
10245.469582000011
 21
8287.6357149999985
 31
0.0
  0
LINE
  5
4292
  8
0-1
  6
CONTINUOUS
 62
     3
 10
10125.47017600001
 20
6426.5903319999989
 30
0.0
 11
10125.47017600001
 21
8287.6357149999985
 31
0.0
  0
LINE
  5
4293
  8
0-1
  6
CONTINUOUS
 62
     3
 10
10195.47189099999
 20
6426.5903319999989
 30
0.0
 11
10195.47189099999
 21
8287.6357149999985
 31
0.0
  0
LINE
  5
4294
  8
0-1
  6
CONTINUOUS
 62
     3
 10
10175.469846000011
 20
6426.5903319999989
 30
0.0
 11
10175.469846000011
 21
8287.6357149999985
 31
0.0
  0
LINE
  5
4295
  8
0-1
  6
CONTINUOUS
 62
     3
 10
11377.47014899999
 20
6426.5903319999989
 30
0.0
 11
11377.47014899999
 21
8287.6357149999985
 31
0.0
  0
LINE
  5
4296
  8
0-1
  6
CONTINUOUS
 62
     3
 10
11392.47094099999
 20
6426.5903319999989
 30
0.0
 11
11392.47094099999
 21
8287.6357149999985
 31
0.0
  0
LINE
  5
4297
  8
0-1
  6
CONTINUOUS
 62
     3
 10
11525.470836
 20
6426.5903319999989
 30
0.0
 11
11525.470836
 21
8287.6357149999985
 31
0.0
  0
LINE
  5
4298
  8
0-1
  6
CONTINUOUS
 62
     3
 10
11793.469938
 20
6426.5903319999989
 30
0.0
 11
11793.469938
 21
8287.6357149999985
 31
0.0
  0
LINE
  5
4299
  8
0-1
  6
CONTINUOUS
 62
     3
 10
11778.471126
 20
6426.5903319999989
 30
0.0
 11
11778.471126
 21
8287.6357149999985
 31
0.0
  0
LINE
  5
429A
  8
0-1
  6
CONTINUOUS
 62
     3
 10
11645.471232000011
 20
6426.5903319999989
 30
0.0
 11
11645.471232000011
 21
8287.6357149999985
 31
0.0
  0
LINE
  5
429B
  8
0-1
  6
CONTINUOUS
 62
     3
 10
11595.470572
 20
6426.5903319999989
 30
0.0
 11
11595.470572
 21
8287.6357149999985
 31
0.0
  0
LINE
  5
429C
  8
0-1
  6
CONTINUOUS
 62
     3
 10
11575.471496
 20
6426.5903319999989
 30
0.0
 11
11575.471496
 21
8287.6357149999985
 31
0.0
  0
LINE
  5
429D
  8
0-1
  6
CONTINUOUS
 62
     3
 10
12403.469475999989
 20
6426.5903319999989
 30
0.0
 11
12403.469475999989
 21
8287.6357149999985
 31
0.0
  0
LINE
  5
429E
  8
0-1
  6
CONTINUOUS
 62
     3
 10
12383.471390000001
 20
6426.5903319999989
 30
0.0
 11
12383.471390000001
 21
8287.6357149999985
 31
0.0
  0
LINE
  5
429F
  8
0-1
  6
CONTINUOUS
 62
     3
 10
12333.46974
 20
6426.5903319999989
 30
0.0
 11
12333.46974
 21
8287.6357149999985
 31
0.0
  0
LINE
  5
42A0
  8
0-1
  6
CONTINUOUS
 62
     3
 10
12200.47083600001
 20
6426.5903319999989
 30
0.0
 11
12200.47083600001
 21
8287.6357149999985
 31
0.0
  0
LINE
  5
42A1
  8
0-1
  6
CONTINUOUS
 62
     3
 10
12185.470043999991
 20
6426.5903319999989
 30
0.0
 11
12185.470043999991
 21
8287.6357149999985
 31
0.0
  0
LINE
  5
42A2
  8
0-1
  6
CONTINUOUS
 62
     3
 10
11916.97012300001
 20
8287.6357149999985
 30
0.0
 11
11916.97012300001
 21
6376.5896720000037
 31
0.0
  0
LINE
  5
42A3
  8
0-1
  6
CONTINUOUS
 62
     3
 10
12061.96985900001
 20
8287.6357149999985
 30
0.0
 11
12061.96985900001
 21
6376.5896720000037
 31
0.0
  0
LINE
  5
42A4
  8
0-1
  6
CONTINUOUS
 62
     3
 10
12061.96985900001
 20
6426.5903319999989
 30
0.0
 11
14834.97012299999
 21
6426.5903319999989
 31
0.0
  0
LINE
  5
42A5
  8
0-1
  6
CONTINUOUS
 62
     3
 10
15024.98114199999
 20
8594.1344750000026
 30
0.0
 11
15020.967667999999
 21
8724.0730440000025
 31
0.0
  0
LINE
  5
42A6
  8
0-1
  6
CONTINUOUS
 62
     3
 10
9021.4699910000018
 20
6276.5903320000034
 30
0.0
 11
9021.4699910000018
 21
6376.5896720000037
 31
0.0
  0
LINE
  5
42A7
  8
0-1
  6
CONTINUOUS
 62
     3
 10
9465.4694099999997
 20
6426.5903319999989
 30
0.0
 11
9465.4694099999997
 21
8287.6357149999985
 31
0.0
  0
LINE
  5
42A8
  8
0-1
  6
CONTINUOUS
 62
     3
 10
9485.4694760000039
 20
6426.5903319999989
 30
0.0
 11
9485.4694760000039
 21
8287.6357149999985
 31
0.0
  0
LINE
  5
42A9
  8
0-1
  6
CONTINUOUS
 62
     3
 10
9415.4707299999991
 20
6426.5903319999989
 30
0.0
 11
9415.4707299999991
 21
8287.6357149999985
 31
0.0
  0
LINE
  5
42AA
  8
0-1
  6
CONTINUOUS
 62
     3
 10
9535.4691459999995
 20
6426.5903319999989
 30
0.0
 11
9535.4691459999995
 21
8287.6357149999985
 31
0.0
  0
LINE
  5
42AB
  8
0-1
  6
CONTINUOUS
 62
     3
 10
9668.4690409999876
 20
6426.5903319999989
 30
0.0
 11
9668.4690409999876
 21
8287.6357149999985
 31
0.0
  0
LINE
  5
42AC
  8
0-1
  6
CONTINUOUS
 62
     3
 10
9683.4688429999915
 20
6426.5903319999989
 30
0.0
 11
9683.4688429999915
 21
8287.6357149999985
 31
0.0
  0
LINE
  5
42AD
  8
0-1
  6
CONTINUOUS
 62
     3
 10
9282.4698460000018
 20
6426.5903319999989
 30
0.0
 11
9282.4698460000018
 21
8287.6357149999985
 31
0.0
  0
LINE
  5
42AE
  8
0-1
  6
CONTINUOUS
 62
     3
 10
9267.4700430000012
 20
6426.5903319999989
 30
0.0
 11
9267.4700430000012
 21
8287.6357149999985
 31
0.0
  0
LINE
  5
42AF
  8
0-1
  6
CONTINUOUS
 62
     3
 10
9048.9707830000007
 20
8410.2886660000058
 30
0.0
 11
9048.9707830000007
 21
6376.5896720000037
 31
0.0
  0
LINE
  5
42B0
  8
0-1
  6
CONTINUOUS
 62
     3
 10
9028.9687369999992
 20
8409.6710559999974
 30
0.0
 11
9028.9687369999992
 21
6376.5896720000037
 31
0.0
  0
LINE
  5
42B1
  8
0-1
  6
CONTINUOUS
 62
     3
 10
9143.9708489999994
 20
8287.6357149999985
 30
0.0
 11
9143.9708489999994
 21
6376.5896720000037
 31
0.0
  0
LINE
  5
42B2
  8
0-1
  6
CONTINUOUS
 62
     3
 10
9021.4699910000018
 20
6376.5896720000037
 30
0.0
 11
14962.469991
 21
6376.5896720000037
 31
0.0
  0
LINE
  5
42B3
  8
0-1
  6
CONTINUOUS
 62
     3
 10
9143.9708489999994
 20
6426.5903319999989
 30
0.0
 11
11916.97012300001
 21
6426.5903319999989
 31
0.0
  0
LINE
  5
42B4
  8
0-1
  6
CONTINUOUS
 62
     3
 10
8338.9709140000032
 20
6276.5903320000034
 30
0.0
 11
14962.469991
 21
6276.5903320000034
 31
0.0
  0
LINE
  5
42B5
  8
0-1
  6
CONTINUOUS
 62
     3
 10
9048.9707830000007
 20
8287.6357149999985
 30
0.0
 11
14929.970188999991
 21
8287.6357149999985
 31
0.0
  0
TEXT
  5
42B6
  8
0-5
  6
CONTINUOUS
 62
     7
 10
17502.856393999969
 20
6564.4365820000003
 30
0.0
 40
160.0
  1
G.L
 72
     4
 11
17662.856393999969
 21
6644.4365820000003
 31
0.0
  0
LINE
  5
42B7
  8
0-5
  6
CONTINUOUS
 62
     4
 10
17742.853226999981
 20
6484.435824000001
 30
0.0
 11
17502.856393999959
 21
6484.435824000001
 31
0.0
  0
LINE
  5
42B8
  8
0-5
  6
CONTINUOUS
 62
     4
 10
17622.852830999971
 20
6276.5903320000034
 30
0.0
 11
17742.853226999981
 21
6484.435824000001
 31
0.0
  0
LINE
  5
42B9
  8
0-5
  6
CONTINUOUS
 62
     4
 10
17502.856393999959
 20
6484.435824000001
 30
0.0
 11
17622.852830999971
 21
6276.5903320000034
 31
0.0
  0
TEXT
  5
42BA
  8
2-0
  6
CONTINUOUS
 62
     7
 10
24963.090821000009
 20
21023.614784000001
 30
0.0
 40
160.0
  1
3
 72
     4
 11
25016.424154333341
 21
21103.614784000001
 31
0.0
  0
CIRCLE
  5
42BB
  8
2-0
  6
CONTINUOUS
 62
     4
 10
25014.72260400001
 20
21119.140413000001
 30
0.0
 40
200.00001
  0
LINE
  5
42BC
  8
2-0
  6
CONTINUOUS
 62
     3
 10
25057.220888
 20
14570.04187799998
 30
0.0
 11
25057.220888
 21
13923.175515999979
 31
0.0
  0
LINE
  5
42BD
  8
2-0
  6
CONTINUOUS
 62
     3
 10
25057.220888
 20
15271.27694599998
 30
0.0
 11
25057.220888
 21
14627.23808799998
 31
0.0
  0
LINE
  5
42BE
  8
2-0
  6
CONTINUOUS
 62
     3
 10
23066.795107000002
 20
19719.135793999991
 30
0.0
 11
22418.820709000011
 21
19719.135793999991
 31
0.0
  0
LINE
  5
42BF
  8
2-0
  6
CONTINUOUS
 62
     3
 10
23231.027846000001
 20
19719.135793999991
 30
0.0
 11
23527.129448000011
 21
19719.135793999991
 31
0.0
  0
LINE
  5
42C0
  8
2-0
  6
CONTINUOUS
 62
     3
 10
23540.126967000011
 20
19707.135952000001
 30
0.0
 11
23540.126967000011
 21
19714.141468000002
 31
0.0
  0
LINE
  5
42C1
  8
2-0
  6
CONTINUOUS
 62
     3
 10
23540.126967000011
 20
19714.141468000002
 30
0.0
 11
23545.125251000009
 21
19714.141468000002
 31
0.0
  0
LINE
  5
42C2
  8
2-0
  6
CONTINUOUS
 62
     3
 10
23545.125251000009
 20
19714.141468000002
 30
0.0
 11
23545.125251000009
 21
19689.132230999989
 31
0.0
  0
LINE
  5
42C3
  8
2-0
  6
CONTINUOUS
 62
     3
 10
23545.125251000009
 20
19689.132230999989
 30
0.0
 11
23527.129448000011
 21
19689.132230999989
 31
0.0
  0
LINE
  5
42C4
  8
2-0
  6
CONTINUOUS
 62
     3
 10
23527.129448000011
 20
19689.132230999989
 30
0.0
 11
23527.129448000011
 21
19719.135793999991
 31
0.0
  0
LINE
  5
42C5
  8
2-0
  6
CONTINUOUS
 62
     3
 10
23543.218975000011
 20
19689.132230999989
 30
0.0
 11
23537.224992999989
 21
19689.132230999989
 31
0.0
  0
LINE
  5
42C6
  8
2-0
  6
CONTINUOUS
 62
     3
 10
23537.224992999989
 20
19689.132230999989
 30
0.0
 11
23537.224992999989
 21
19719.135793999991
 31
0.0
  0
LINE
  5
42C7
  8
2-0
  6
CONTINUOUS
 62
     3
 10
23537.224992999989
 20
19719.135793999991
 30
0.0
 11
23574.220215000008
 21
19719.135793999991
 31
0.0
  0
LINE
  5
42C8
  8
2-0
  6
CONTINUOUS
 62
     3
 10
23574.220215000008
 20
19689.132230999989
 30
0.0
 11
23574.220215000008
 21
19719.135793999991
 31
0.0
  0
LINE
  5
42C9
  8
2-0
  6
CONTINUOUS
 62
     3
 10
23568.216335000008
 20
19689.132230999989
 30
0.0
 11
23574.220215000008
 21
19689.132230999989
 31
0.0
  0
LINE
  5
42CA
  8
2-0
  6
CONTINUOUS
 62
     3
 10
23584.315760000001
 20
19689.132230999989
 30
0.0
 11
23584.315760000001
 21
19719.135793999991
 31
0.0
  0
LINE
  5
42CB
  8
2-0
  6
CONTINUOUS
 62
     3
 10
23566.314018000001
 20
19689.132230999989
 30
0.0
 11
23584.315760000001
 21
19689.132230999989
 31
0.0
  0
LINE
  5
42CC
  8
2-0
  6
CONTINUOUS
 62
     3
 10
23566.314018000001
 20
19714.141468000002
 30
0.0
 11
23566.314018000001
 21
19689.132230999989
 31
0.0
  0
LINE
  5
42CD
  8
2-0
  6
CONTINUOUS
 62
     3
 10
23571.31428200001
 20
19714.141468000002
 30
0.0
 11
23566.314018000001
 21
19714.141468000002
 31
0.0
  0
LINE
  5
42CE
  8
2-0
  6
CONTINUOUS
 62
     3
 10
23571.31428200001
 20
19707.135952000001
 30
0.0
 11
23571.31428200001
 21
19714.141468000002
 31
0.0
  0
LINE
  5
42CF
  8
2-0
  6
CONTINUOUS
 62
     3
 10
24932.60623400001
 20
19719.135793999991
 30
0.0
 11
24285.320709000011
 21
19719.135793999991
 31
0.0
  0
LINE
  5
42D0
  8
2-0
  6
CONTINUOUS
 62
     3
 10
23584.521630000021
 20
19719.135793999991
 30
0.0
 11
24228.127468499999
 21
19719.135793999991
 31
0.0
  0
LINE
  5
42D1
  8
2-0
  6
CONTINUOUS
 62
     3
 10
24241.123007499998
 20
19707.135952000001
 30
0.0
 11
24241.123007499998
 21
19714.141468000002
 31
0.0
  0
LINE
  5
42D2
  8
2-0
  6
CONTINUOUS
 62
     3
 10
24241.123007499998
 20
19714.141468000002
 30
0.0
 11
24246.123271500011
 21
19714.141468000002
 31
0.0
  0
LINE
  5
42D3
  8
2-0
  6
CONTINUOUS
 62
     3
 10
24246.123271500011
 20
19714.141468000002
 30
0.0
 11
24246.123271500011
 21
19689.132230999989
 31
0.0
  0
LINE
  5
42D4
  8
2-0
  6
CONTINUOUS
 62
     3
 10
24246.123271500011
 20
19689.132230999989
 30
0.0
 11
24228.127468499999
 21
19689.132230999989
 31
0.0
  0
LINE
  5
42D5
  8
2-0
  6
CONTINUOUS
 62
     3
 10
24228.127468499999
 20
19689.132230999989
 30
0.0
 11
24228.127468499999
 21
19719.135793999991
 31
0.0
  0
LINE
  5
42D6
  8
2-0
  6
CONTINUOUS
 62
     3
 10
24244.216995499992
 20
19689.132230999989
 30
0.0
 11
24238.223013499992
 21
19689.132230999989
 31
0.0
  0
LINE
  5
42D7
  8
2-0
  6
CONTINUOUS
 62
     3
 10
24238.223013499992
 20
19689.132230999989
 30
0.0
 11
24238.223013499992
 21
19719.135793999991
 31
0.0
  0
LINE
  5
42D8
  8
2-0
  6
CONTINUOUS
 62
     3
 10
24238.223013499992
 20
19719.135793999991
 30
0.0
 11
24275.222194500009
 21
19719.135793999991
 31
0.0
  0
LINE
  5
42D9
  8
2-0
  6
CONTINUOUS
 62
     3
 10
24275.222194500009
 20
19689.132230999989
 30
0.0
 11
24275.222194500009
 21
19719.135793999991
 31
0.0
  0
LINE
  5
42DA
  8
2-0
  6
CONTINUOUS
 62
     3
 10
24269.220294499999
 20
19689.132230999989
 30
0.0
 11
24275.222194500009
 21
19689.132230999989
 31
0.0
  0
LINE
  5
42DB
  8
2-0
  6
CONTINUOUS
 62
     3
 10
24285.317739499998
 20
19689.132230999989
 30
0.0
 11
24285.317739499998
 21
19719.135793999991
 31
0.0
  0
LINE
  5
42DC
  8
2-0
  6
CONTINUOUS
 62
     3
 10
24267.312038500011
 20
19689.132230999989
 30
0.0
 11
24285.317739499998
 21
19689.132230999989
 31
0.0
  0
LINE
  5
42DD
  8
2-0
  6
CONTINUOUS
 62
     3
 10
24267.312038500011
 20
19714.141468000002
 30
0.0
 11
24267.312038500011
 21
19689.132230999989
 31
0.0
  0
LINE
  5
42DE
  8
2-0
  6
CONTINUOUS
 62
     3
 10
24272.31230250001
 20
19714.141468000002
 30
0.0
 11
24267.312038500011
 21
19714.141468000002
 31
0.0
  0
LINE
  5
42DF
  8
2-0
  6
CONTINUOUS
 62
     3
 10
24272.31230250001
 20
19707.135952000001
 30
0.0
 11
24272.31230250001
 21
19714.141468000002
 31
0.0
  0
LINE
  5
42E0
  8
2-0
  6
CONTINUOUS
 62
     3
 10
24238.222023000009
 20
19689.132230999989
 30
0.0
 11
24238.222023000009
 21
19719.135793999991
 31
0.0
  0
LINE
  5
42E1
  8
2-0
  6
CONTINUOUS
 62
     3
 10
24244.221944000001
 20
19689.132230999989
 30
0.0
 11
24238.222023000009
 21
19689.132230999989
 31
0.0
  0
LINE
  5
42E2
  8
2-0
  6
CONTINUOUS
 62
     3
 10
24228.12845800001
 20
19689.132230999989
 30
0.0
 11
24228.12845800001
 21
19719.135793999991
 31
0.0
  0
LINE
  5
42E3
  8
2-0
  6
CONTINUOUS
 62
     3
 10
24246.12822100001
 20
19689.132230999989
 30
0.0
 11
24228.12845800001
 21
19689.132230999989
 31
0.0
  0
LINE
  5
42E4
  8
2-0
  6
CONTINUOUS
 62
     3
 10
24246.12822100001
 20
19714.141468000002
 30
0.0
 11
24246.12822100001
 21
19689.132230999989
 31
0.0
  0
LINE
  5
42E5
  8
2-0
  6
CONTINUOUS
 62
     3
 10
24241.12795699999
 20
19714.141468000002
 30
0.0
 11
24246.12822100001
 21
19714.141468000002
 31
0.0
  0
LINE
  5
42E6
  8
2-0
  6
CONTINUOUS
 62
     3
 10
24241.12795699999
 20
19707.135952000001
 30
0.0
 11
24241.12795699999
 21
19714.141468000002
 31
0.0
  0
LINE
  5
42E7
  8
2-0
  6
CONTINUOUS
 62
     3
 10
24272.317252000001
 20
19707.135952000001
 30
0.0
 11
24272.317252000001
 21
19714.141468000002
 31
0.0
  0
LINE
  5
42E8
  8
2-0
  6
CONTINUOUS
 62
     3
 10
24272.317252000001
 20
19714.141468000002
 30
0.0
 11
24267.31698800001
 21
19714.141468000002
 31
0.0
  0
LINE
  5
42E9
  8
2-0
  6
CONTINUOUS
 62
     3
 10
24267.31698800001
 20
19714.141468000002
 30
0.0
 11
24267.31698800001
 21
19689.132230999989
 31
0.0
  0
LINE
  5
42EA
  8
2-0
  6
CONTINUOUS
 62
     3
 10
24267.31698800001
 20
19689.132230999989
 30
0.0
 11
24285.320709000011
 21
19689.132230999989
 31
0.0
  0
LINE
  5
42EB
  8
2-0
  6
CONTINUOUS
 62
     3
 10
24285.320709000011
 20
19689.132230999989
 30
0.0
 11
24285.320709000011
 21
19719.135793999991
 31
0.0
  0
LINE
  5
42EC
  8
2-0
  6
CONTINUOUS
 62
     3
 10
24269.223263999978
 20
19689.132230999989
 30
0.0
 11
24275.223184999992
 21
19689.132230999989
 31
0.0
  0
LINE
  5
42ED
  8
2-0
  6
CONTINUOUS
 62
     3
 10
24275.223184999992
 20
19689.132230999989
 30
0.0
 11
24275.223184999992
 21
19719.135793999991
 31
0.0
  0
LINE
  5
42EE
  8
2-0
  6
CONTINUOUS
 62
     3
 10
24275.223184999992
 20
19719.135793999991
 30
0.0
 11
24238.222023000009
 21
19719.135793999991
 31
0.0
  0
TEXT
  5
42EF
  8
2-0
  6
CONTINUOUS
 62
     7
 10
19835.515994999969
 20
21030.372861
 30
0.0
 40
160.0
  1
1
 72
     4
 11
19862.18266166664
 21
21110.372861
 31
0.0
  0
TEXT
  5
42F0
  8
2-0
  6
CONTINUOUS
 62
     7
 10
23096.59082100002
 20
21023.614784000001
 30
0.0
 40
160.0
  1
2
 72
     4
 11
23149.924154333348
 21
21103.614784000001
 31
0.0
  0
TEXT
  5
42F1
  8
2-0
  6
CONTINUOUS
 62
     7
 10
18302.534245999981
 20
13752.030297999971
 30
0.0
 40
160.0
  1
A
 72
     4
 11
18355.86757933332
 21
13832.030297999971
 31
0.0
  0
TEXT
  5
42F2
  8
2-0
  6
CONTINUOUS
 62
     7
 10
18302.49168599999
 20
16688.243427000001
 30
0.0
 40
160.0
  1
B
 72
     4
 11
18355.82501933333
 21
16768.243427000001
 31
0.0
  0
TEXT
  5
42F3
  8
2-0
  6
CONTINUOUS
 62
     7
 10
18302.27096999998
 20
19582.157067
 30
0.0
 40
160.0
  1
C
 72
     4
 11
18355.604303333312
 21
19662.157067
 31
0.0
  0
TEXT
  5
42F4
  8
2-0
  6
CONTINUOUS
 62
     7
 10
23418.515969000011
 20
19150.762561999989
 30
0.0
 40
160.0
  1
後柱（中）
 72
     4
 11
23834.515969000011
 21
19230.762561999989
 31
0.0
  0
TEXT
  5
42F5
  8
2-0
  6
CONTINUOUS
 62
     7
 10
21984.091480000021
 20
19082.017841000001
 30
0.0
 40
160.0
  1
間柱（後）
 72
     4
 11
22405.424813333349
 21
19162.017841000001
 31
0.0
  0
TEXT
  5
42F6
  8
2-0
  6
CONTINUOUS
 62
     7
 10
21917.133842000021
 20
14418.47580899995
 30
0.0
 40
160.0
  1
前柱（中）
 72
     4
 11
22333.133842000021
 21
14498.47580899995
 31
0.0
  0
TEXT
  5
42F7
  8
2-0
  6
CONTINUOUS
 62
     7
 10
25829.718116999989
 20
20529.13500199997
 30
0.0
 40
160.0
  1
後柱（左右）
 50
0.0003540000017592
 72
     4
 11
26341.717622712971
 21
20609.13816537282
 31
0.0
  0
TEXT
  5
42F8
  8
2-0
  6
CONTINUOUS
 62
     7
 10
23511.127798000009
 20
18649.58728149996
 30
0.0
 40
160.0
  1
間柱（側）
 72
     4
 11
23932.461131333352
 21
18729.58728149996
 31
0.0
  0
TEXT
  5
42F9
  8
2-0
  6
CONTINUOUS
 62
     7
 10
23428.267129999989
 20
15042.001185999959
 30
0.0
 40
160.0
  1
補強柱 前
 50
359.9993700000017
 72
     4
 11
23838.934676287769
 21
15121.996670479301
 31
0.0
  0
TEXT
  5
42FA
  8
2-0
  6
CONTINUOUS
 62
     7
 10
24016.162373999981
 20
14253.67989699996
 30
0.0
 40
160.0
  1
下枠
 50
0.0010630000002211
 72
     4
 11
24186.82755640928
 21
14333.683063339249
 31
0.0
  0
TEXT
  5
42FB
  8
2-0
  6
CONTINUOUS
 62
     7
 10
23336.160129999989
 20
17046.318542999979
 30
0.0
 40
160.0
  1
中柱（左右）
 50
0.0003540000017592
 72
     4
 11
23853.492969046201
 21
17126.321739324649
 31
0.0
  0
TEXT
  5
42FC
  8
2-0
  6
CONTINUOUS
 62
     7
 10
23616.16303399999
 20
16209.130647000031
 30
0.0
 40
160.0
  1
壁パネル
 50
359.9998229999926
 72
     4
 11
23978.829947803551
 21
16289.129526637849
 31
0.0
  0
TEXT
  5
42FD
  8
2-0
  6
CONTINUOUS
 62
     7
 10
23428.26713
 20
17959.76067499999
 30
0.0
 40
160.0
  1
補強柱 後
 50
359.99984199999972
 72
     4
 11
23838.934017274722
 21
18039.75954253698
 31
0.0
  0
TEXT
  5
42FE
  8
2-0
  6
CONTINUOUS
 62
     7
 10
23411.567910999998
 20
13280.638631000011
 30
0.0
 40
160.0
  1
前柱（右）
 50
0.0002129999927769
 72
     4
 11
23827.56761359303
 21
13360.640177500751
 31
0.0
  0
CIRCLE
  5
42FF
  8
2-0
  6
CONTINUOUS
 62
     4
 10
19879.72260400001
 20
21119.140413000001
 30
0.0
 40
200.00001
  0
CIRCLE
  5
4300
  8
2-0
  6
CONTINUOUS
 62
     4
 10
23148.22260400001
 20
21119.140413000001
 30
0.0
 40
200.00001
  0
CIRCLE
  5
4301
  8
2-0
  6
CONTINUOUS
 62
     4
 10
18350.270337000009
 20
13840.63750899998
 30
0.0
 40
200.00001
  0
CIRCLE
  5
4302
  8
2-0
  6
CONTINUOUS
 62
     4
 10
18350.270337000009
 20
16758.63750899996
 30
0.0
 40
200.00001
  0
CIRCLE
  5
4303
  8
2-0
  6
CONTINUOUS
 62
     4
 10
18350.270337000009
 20
19676.63750899996
 30
0.0
 40
200.00001
  0
LINE
  5
4304
  8
2-0
  6
CONTINUOUS
 62
     3
 10
24976.218987999979
 20
13883.13579299997
 30
0.0
 11
24976.218987999979
 21
19719.135793999991
 31
0.0
  0
LINE
  5
4305
  8
2-0
  6
CONTINUOUS
 62
     3
 10
19918.22424000001
 20
13883.13579299997
 30
0.0
 11
19918.22424000001
 21
19719.135793999991
 31
0.0
  0
LINE
  5
4306
  8
2-0
  6
CENTER2
 62
     6
 10
23148.22260400001
 20
20919.135794000002
 30
0.0
 11
23148.22260400001
 21
13649.232907999971
 31
0.0
  0
LINE
  5
4307
  8
2-0
  6
CONTINUOUS
 62
     3
 10
19837.226299000002
 20
19593.842164999991
 30
0.0
 11
19837.226299000002
 21
18947.233634499949
 31
0.0
  0
LINE
  5
4308
  8
2-0
  6
CONTINUOUS
 62
     3
 10
25057.220888
 20
19593.842164999991
 30
0.0
 11
25057.220888
 21
18947.23363449996
 31
0.0
  0
LINE
  5
4309
  8
2-0
  6
CENTER2
 62
     6
 10
25014.72260400001
 20
20919.135794000002
 30
0.0
 11
25014.72260400001
 21
13214.87407499998
 31
0.0
  0
LINE
  5
430A
  8
2-0
  6
CENTER2
 62
     6
 10
19879.72260400001
 20
20919.135794000002
 30
0.0
 11
19879.72260400001
 21
13214.87407499998
 31
0.0
  0
LINE
  5
430B
  8
2-0
  6
CONTINUOUS
 62
     3
 10
19837.226299000002
 20
13923.175515999979
 30
0.0
 11
19837.226299000002
 21
14570.04187799998
 31
0.0
  0
LINE
  5
430C
  8
2-0
  6
CONTINUOUS
 62
     3
 10
19837.226299000002
 20
19634.139224999992
 30
0.0
 11
24976.218987999979
 21
19634.139224999992
 31
0.0
  0
LINE
  5
430D
  8
2-0
  6
CONTINUOUS
 62
     3
 10
19962.527846000001
 20
19719.135793999991
 30
0.0
 11
20258.629448
 21
19719.135793999991
 31
0.0
  0
LINE
  5
430E
  8
2-0
  6
CONTINUOUS
 62
     3
 10
20271.626967000011
 20
19707.135952000001
 30
0.0
 11
20271.626967000011
 21
19714.141468000002
 31
0.0
  0
LINE
  5
430F
  8
2-0
  6
CONTINUOUS
 62
     3
 10
20271.626967000011
 20
19714.141468000002
 30
0.0
 11
20276.625251000009
 21
19714.141468000002
 31
0.0
  0
LINE
  5
4310
  8
2-0
  6
CONTINUOUS
 62
     3
 10
20276.625251000009
 20
19714.141468000002
 30
0.0
 11
20276.625251000009
 21
19689.132230999989
 31
0.0
  0
LINE
  5
4311
  8
2-0
  6
CONTINUOUS
 62
     3
 10
20276.625251000009
 20
19689.132230999989
 30
0.0
 11
20258.629448
 21
19689.132230999989
 31
0.0
  0
LINE
  5
4312
  8
2-0
  6
CONTINUOUS
 62
     3
 10
20258.629448
 20
19689.132230999989
 30
0.0
 11
20258.629448
 21
19719.135793999991
 31
0.0
  0
LINE
  5
4313
  8
2-0
  6
CONTINUOUS
 62
     3
 10
20274.718975
 20
19689.132230999989
 30
0.0
 11
20268.724993
 21
19689.132230999989
 31
0.0
  0
LINE
  5
4314
  8
2-0
  6
CONTINUOUS
 62
     3
 10
20268.724993
 20
19689.132230999989
 30
0.0
 11
20268.724993
 21
19719.135793999991
 31
0.0
  0
LINE
  5
4315
  8
2-0
  6
CONTINUOUS
 62
     3
 10
20268.724993
 20
19719.135793999991
 30
0.0
 11
20305.720215000008
 21
19719.135793999991
 31
0.0
  0
LINE
  5
4316
  8
2-0
  6
CONTINUOUS
 62
     3
 10
20305.720215000008
 20
19689.132230999989
 30
0.0
 11
20305.720215000008
 21
19719.135793999991
 31
0.0
  0
LINE
  5
4317
  8
2-0
  6
CONTINUOUS
 62
     3
 10
20299.716335000008
 20
19689.132230999989
 30
0.0
 11
20305.720215000008
 21
19689.132230999989
 31
0.0
  0
LINE
  5
4318
  8
2-0
  6
CONTINUOUS
 62
     3
 10
20315.815760000009
 20
19689.132230999989
 30
0.0
 11
20315.815760000009
 21
19719.135793999991
 31
0.0
  0
LINE
  5
4319
  8
2-0
  6
CONTINUOUS
 62
     3
 10
20297.814018000008
 20
19689.132230999989
 30
0.0
 11
20315.815760000009
 21
19689.132230999989
 31
0.0
  0
LINE
  5
431A
  8
2-0
  6
CONTINUOUS
 62
     3
 10
20297.814018000008
 20
19714.141468000002
 30
0.0
 11
20297.814018000008
 21
19689.132230999989
 31
0.0
  0
LINE
  5
431B
  8
2-0
  6
CONTINUOUS
 62
     3
 10
20302.81428200001
 20
19714.141468000002
 30
0.0
 11
20297.814018000008
 21
19714.141468000002
 31
0.0
  0
LINE
  5
431C
  8
2-0
  6
CONTINUOUS
 62
     3
 10
20302.81428200001
 20
19707.135952000001
 30
0.0
 11
20302.81428200001
 21
19714.141468000002
 31
0.0
  0
LINE
  5
431D
  8
2-0
  6
CENTER2
 62
     6
 10
18550.268026999991
 20
13840.63750899998
 30
0.0
 11
25907.222207999999
 21
13840.63750899998
 31
0.0
  0
LINE
  5
431E
  8
2-0
  6
CENTER2
 62
     6
 10
18550.268026999991
 20
16758.63750899996
 30
0.0
 11
25907.222207999999
 21
16758.63750899996
 31
0.0
  0
LINE
  5
431F
  8
2-0
  6
CENTER2
 62
     6
 10
18550.268026999991
 20
19676.63750899996
 30
0.0
 11
25907.222207999999
 21
19676.63750899996
 31
0.0
  0
LINE
  5
4320
  8
2-0
  6
CONTINUOUS
 62
     3
 10
25057.220888
 20
19604.139620999991
 30
0.0
 11
25057.220888
 21
19719.135793999991
 31
0.0
  0
LINE
  5
4321
  8
2-0
  6
CONTINUOUS
 62
     3
 10
19928.228727000009
 20
15342.13579299995
 30
0.0
 11
19928.228727000009
 21
15257.13922499997
 31
0.0
  0
LINE
  5
4322
  8
2-0
  6
CONTINUOUS
 62
     3
 10
19881.225058
 20
15317.13447399998
 30
0.0
 11
19881.225058
 21
15342.13579299995
 31
0.0
  0
LINE
  5
4323
  8
2-0
  6
CONTINUOUS
 62
     3
 10
19881.225058
 20
15257.13922499997
 30
0.0
 11
19881.225058
 21
15282.134605999991
 31
0.0
  0
LINE
  5
4324
  8
2-0
  6
CONTINUOUS
 62
     3
 10
19881.225058
 20
15342.13579299995
 30
0.0
 11
19928.228727000009
 21
15342.13579299995
 31
0.0
  0
LINE
  5
4325
  8
2-0
  6
CONTINUOUS
 62
     3
 10
19928.228727000009
 20
15257.13922499997
 30
0.0
 11
19881.225058
 21
15257.13922499997
 31
0.0
  0
LINE
  5
4326
  8
2-0
  6
CONTINUOUS
 62
     3
 10
19837.226299000002
 20
15972.03692949998
 30
0.0
 11
19837.226299000002
 21
15328.47315599998
 31
0.0
  0
LINE
  5
4327
  8
2-0
  6
CONTINUOUS
 62
     3
 10
19928.228727000009
 20
18260.13678299998
 30
0.0
 11
19928.228727000009
 21
18175.136254999961
 31
0.0
  0
LINE
  5
4328
  8
2-0
  6
CONTINUOUS
 62
     3
 10
19881.225058
 20
18235.135462999981
 30
0.0
 11
19881.225058
 21
18260.13678299998
 31
0.0
  0
LINE
  5
4329
  8
2-0
  6
CONTINUOUS
 62
     3
 10
19881.225058
 20
18175.136254999961
 30
0.0
 11
19881.225058
 21
18200.139553999961
 31
0.0
  0
LINE
  5
432A
  8
2-0
  6
CONTINUOUS
 62
     3
 10
19881.225058
 20
18260.13678299998
 30
0.0
 11
19928.228727000009
 21
18260.13678299998
 31
0.0
  0
LINE
  5
432B
  8
2-0
  6
CONTINUOUS
 62
     3
 10
19928.228727000009
 20
18175.136254999961
 30
0.0
 11
19881.225058
 21
18175.136254999961
 31
0.0
  0
LINE
  5
432C
  8
2-0
  6
CONTINUOUS
 62
     3
 10
19837.226299000002
 20
18246.23264499996
 30
0.0
 11
19837.226299000002
 21
18890.04336249995
 31
0.0
  0
LINE
  5
432D
  8
2-0
  6
CONTINUOUS
 62
     3
 10
19837.226299000002
 20
14627.23808799998
 30
0.0
 11
19837.226299000002
 21
15271.27694599998
 31
0.0
  0
LINE
  5
432E
  8
2-0
  6
CONTINUOUS
 62
     3
 10
19867.223924000002
 20
13923.175515999979
 30
0.0
 11
19837.226299000002
 21
13923.175515999979
 31
0.0
  0
LINE
  5
432F
  8
2-0
  6
CONTINUOUS
 62
     3
 10
19867.223924000002
 20
13905.176742999951
 30
0.0
 11
19867.223924000002
 21
13923.175515999979
 31
0.0
  0
LINE
  5
4330
  8
2-0
  6
CONTINUOUS
 62
     3
 10
19842.230522000002
 20
13905.176742999951
 30
0.0
 11
19867.223924000002
 21
13905.176742999951
 31
0.0
  0
LINE
  5
4331
  8
2-0
  6
CONTINUOUS
 62
     3
 10
19842.230522000002
 20
13910.174037999979
 30
0.0
 11
19842.230522000002
 21
13905.176742999951
 31
0.0
  0
LINE
  5
4332
  8
2-0
  6
CONTINUOUS
 62
     3
 10
19849.228119999982
 20
13910.174037999979
 30
0.0
 11
19842.230522000002
 21
13910.174037999979
 31
0.0
  0
LINE
  5
4333
  8
2-0
  6
CONTINUOUS
 62
     3
 10
19922.224847000001
 20
13883.13579299997
 30
0.0
 11
19890.22790899999
 21
13883.13579299997
 31
0.0
  0
LINE
  5
4334
  8
2-0
  6
CONTINUOUS
 62
     3
 10
19922.224847000001
 20
13798.140213999979
 30
0.0
 11
19922.224847000001
 21
13883.13579299997
 31
0.0
  0
LINE
  5
4335
  8
2-0
  6
CONTINUOUS
 62
     3
 10
19837.226299000002
 20
13798.140213999979
 30
0.0
 11
19922.224847000001
 21
13798.140213999979
 31
0.0
  0
LINE
  5
4336
  8
2-0
  6
CONTINUOUS
 62
     3
 10
19837.226299000002
 20
13913.144304999971
 30
0.0
 11
19837.226299000002
 21
13798.140213999979
 31
0.0
  0
LINE
  5
4337
  8
2-0
  6
CONTINUOUS
 62
     3
 10
19867.223924000002
 20
13913.144304999971
 30
0.0
 11
19837.226299000002
 21
13913.144304999971
 31
0.0
  0
LINE
  5
4338
  8
2-0
  6
CONTINUOUS
 62
     3
 10
19867.223924000002
 20
13907.13943599997
 30
0.0
 11
19867.223924000002
 21
13913.144304999971
 31
0.0
  0
LINE
  5
4339
  8
2-0
  6
CONTINUOUS
 62
     3
 10
19849.228119999982
 20
14614.236609999991
 30
0.0
 11
19842.230522000002
 21
14614.236609999991
 31
0.0
  0
LINE
  5
433A
  8
2-0
  6
CONTINUOUS
 62
     3
 10
19842.230522000002
 20
14614.236609999991
 30
0.0
 11
19842.230522000002
 21
14609.23139699999
 31
0.0
  0
LINE
  5
433B
  8
2-0
  6
CONTINUOUS
 62
     3
 10
19842.230522000002
 20
14609.23139699999
 30
0.0
 11
19867.223924000002
 21
14609.23139699999
 31
0.0
  0
LINE
  5
433C
  8
2-0
  6
CONTINUOUS
 62
     3
 10
19867.223924000002
 20
14609.23139699999
 30
0.0
 11
19867.223924000002
 21
14627.23808799998
 31
0.0
  0
LINE
  5
433D
  8
2-0
  6
CONTINUOUS
 62
     3
 10
19867.223924000002
 20
14627.23808799998
 30
0.0
 11
19837.226299000002
 21
14627.23808799998
 31
0.0
  0
LINE
  5
433E
  8
2-0
  6
CONTINUOUS
 62
     3
 10
19867.223924000002
 20
14611.140642999981
 30
0.0
 11
19867.223924000002
 21
14617.137594999949
 31
0.0
  0
LINE
  5
433F
  8
2-0
  6
CONTINUOUS
 62
     3
 10
19867.223924000002
 20
14617.137594999949
 30
0.0
 11
19837.226299000002
 21
14617.137594999949
 31
0.0
  0
LINE
  5
4340
  8
2-0
  6
CONTINUOUS
 62
     3
 10
19837.226299000002
 20
14580.13742299998
 30
0.0
 11
19837.226299000002
 21
14617.137594999949
 31
0.0
  0
LINE
  5
4341
  8
2-0
  6
CONTINUOUS
 62
     3
 10
19867.223924000002
 20
14580.13742299998
 30
0.0
 11
19837.226299000002
 21
14580.13742299998
 31
0.0
  0
LINE
  5
4342
  8
2-0
  6
CONTINUOUS
 62
     3
 10
19867.223924000002
 20
14586.140312999991
 30
0.0
 11
19867.223924000002
 21
14580.13742299998
 31
0.0
  0
LINE
  5
4343
  8
2-0
  6
CONTINUOUS
 62
     3
 10
19867.223924000002
 20
14570.04187799998
 30
0.0
 11
19837.226299000002
 21
14570.04187799998
 31
0.0
  0
LINE
  5
4344
  8
2-0
  6
CONTINUOUS
 62
     3
 10
19867.223924000002
 20
14588.03768199998
 30
0.0
 11
19867.223924000002
 21
14570.04187799998
 31
0.0
  0
LINE
  5
4345
  8
2-0
  6
CONTINUOUS
 62
     3
 10
19842.230522000002
 20
14588.03768199998
 30
0.0
 11
19867.223924000002
 21
14588.03768199998
 31
0.0
  0
LINE
  5
4346
  8
2-0
  6
CONTINUOUS
 62
     3
 10
19842.230522000002
 20
14583.04335599998
 30
0.0
 11
19842.230522000002
 21
14588.03768199998
 31
0.0
  0
LINE
  5
4347
  8
2-0
  6
CONTINUOUS
 62
     3
 10
19849.228119999982
 20
14583.04335599998
 30
0.0
 11
19842.230522000002
 21
14583.04335599998
 31
0.0
  0
LINE
  5
4348
  8
2-0
  6
CONTINUOUS
 62
     3
 10
19925.112965
 20
16801.135792999969
 30
0.0
 11
19925.112965
 21
16716.139224999981
 31
0.0
  0
LINE
  5
4349
  8
2-0
  6
CONTINUOUS
 62
     3
 10
19837.226299000002
 20
16831.135396999969
 30
0.0
 11
19837.226299000002
 21
16686.133681999981
 31
0.0
  0
LINE
  5
434A
  8
2-0
  6
CONTINUOUS
 62
     3
 10
19837.226299000002
 20
16676.525098999991
 30
0.0
 11
19837.226299000002
 21
16029.23313949998
 31
0.0
  0
LINE
  5
434B
  8
2-0
  6
CONTINUOUS
 62
     3
 10
19849.228119999982
 20
15284.284363000001
 30
0.0
 11
19842.230522000002
 21
15284.284363000001
 31
0.0
  0
LINE
  5
434C
  8
2-0
  6
CONTINUOUS
 62
     3
 10
19842.230522000002
 20
15284.284363000001
 30
0.0
 11
19842.230522000002
 21
15289.284626999981
 31
0.0
  0
LINE
  5
434D
  8
2-0
  6
CONTINUOUS
 62
     3
 10
19842.230522000002
 20
15289.284626999981
 30
0.0
 11
19867.223924000002
 21
15289.284626999981
 31
0.0
  0
LINE
  5
434E
  8
2-0
  6
CONTINUOUS
 62
     3
 10
19867.223924000002
 20
15289.284626999981
 30
0.0
 11
19867.223924000002
 21
15271.27694599998
 31
0.0
  0
LINE
  5
434F
  8
2-0
  6
CONTINUOUS
 62
     3
 10
19867.223924000002
 20
15271.27694599998
 30
0.0
 11
19837.226299000002
 21
15271.27694599998
 31
0.0
  0
LINE
  5
4350
  8
2-0
  6
CONTINUOUS
 62
     3
 10
19867.223924000002
 20
15287.37538099998
 30
0.0
 11
19867.223924000002
 21
15281.378430000001
 31
0.0
  0
LINE
  5
4351
  8
2-0
  6
CONTINUOUS
 62
     3
 10
19867.223924000002
 20
15281.378430000001
 30
0.0
 11
19837.226299000002
 21
15281.378430000001
 31
0.0
  0
LINE
  5
4352
  8
2-0
  6
CONTINUOUS
 62
     3
 10
19837.226299000002
 20
15281.378430000001
 30
0.0
 11
19837.226299000002
 21
15318.377611
 31
0.0
  0
LINE
  5
4353
  8
2-0
  6
CONTINUOUS
 62
     3
 10
19867.223924000002
 20
15318.377611
 30
0.0
 11
19837.226299000002
 21
15318.377611
 31
0.0
  0
LINE
  5
4354
  8
2-0
  6
CONTINUOUS
 62
     3
 10
19867.223924000002
 20
15312.375710999981
 30
0.0
 11
19867.223924000002
 21
15318.377611
 31
0.0
  0
LINE
  5
4355
  8
2-0
  6
CONTINUOUS
 62
     3
 10
19867.223924000002
 20
15328.47315599998
 30
0.0
 11
19837.226299000002
 21
15328.47315599998
 31
0.0
  0
LINE
  5
4356
  8
2-0
  6
CONTINUOUS
 62
     3
 10
19867.223924000002
 20
15310.47735299998
 30
0.0
 11
19867.223924000002
 21
15328.47315599998
 31
0.0
  0
LINE
  5
4357
  8
2-0
  6
CONTINUOUS
 62
     3
 10
19842.230522000002
 20
15310.47735299998
 30
0.0
 11
19867.223924000002
 21
15310.47735299998
 31
0.0
  0
LINE
  5
4358
  8
2-0
  6
CONTINUOUS
 62
     3
 10
19842.230522000002
 20
15315.47167799998
 30
0.0
 11
19842.230522000002
 21
15310.47735299998
 31
0.0
  0
LINE
  5
4359
  8
2-0
  6
CONTINUOUS
 62
     3
 10
19849.228119999982
 20
15315.47167799998
 30
0.0
 11
19842.230522000002
 21
15315.47167799998
 31
0.0
  0
LINE
  5
435A
  8
2-0
  6
CONTINUOUS
 62
     3
 10
19849.228119999982
 20
16016.231661499971
 30
0.0
 11
19842.230522000002
 21
16016.231661499971
 31
0.0
  0
LINE
  5
435B
  8
2-0
  6
CONTINUOUS
 62
     3
 10
19842.230522000002
 20
16016.231661499971
 30
0.0
 11
19842.230522000002
 21
16011.225458499979
 31
0.0
  0
LINE
  5
435C
  8
2-0
  6
CONTINUOUS
 62
     3
 10
19842.230522000002
 20
16011.225458499979
 30
0.0
 11
19867.223924000002
 21
16011.225458499979
 31
0.0
  0
LINE
  5
435D
  8
2-0
  6
CONTINUOUS
 62
     3
 10
19867.223924000002
 20
16011.225458499979
 30
0.0
 11
19867.223924000002
 21
16029.23313949998
 31
0.0
  0
LINE
  5
435E
  8
2-0
  6
CONTINUOUS
 62
     3
 10
19867.223924000002
 20
16029.23313949998
 30
0.0
 11
19837.226299000002
 21
16029.23313949998
 31
0.0
  0
LINE
  5
435F
  8
2-0
  6
CONTINUOUS
 62
     3
 10
19867.223924000002
 20
16013.13470449998
 30
0.0
 11
19867.223924000002
 21
16019.13759449998
 31
0.0
  0
LINE
  5
4360
  8
2-0
  6
CONTINUOUS
 62
     3
 10
19867.223924000002
 20
16019.13759449998
 30
0.0
 11
19837.226299000002
 21
16019.13759449998
 31
0.0
  0
LINE
  5
4361
  8
2-0
  6
CONTINUOUS
 62
     3
 10
19837.226299000002
 20
15982.137423499969
 30
0.0
 11
19837.226299000002
 21
16019.13759449998
 31
0.0
  0
LINE
  5
4362
  8
2-0
  6
CONTINUOUS
 62
     3
 10
19867.223924000002
 20
15982.137423499969
 30
0.0
 11
19837.226299000002
 21
15982.137423499969
 31
0.0
  0
LINE
  5
4363
  8
2-0
  6
CONTINUOUS
 62
     3
 10
19867.223924000002
 20
15988.134374499979
 30
0.0
 11
19867.223924000002
 21
15982.137423499969
 31
0.0
  0
LINE
  5
4364
  8
2-0
  6
CONTINUOUS
 62
     3
 10
19867.223924000002
 20
15972.03692949998
 30
0.0
 11
19837.226299000002
 21
15972.03692949998
 31
0.0
  0
LINE
  5
4365
  8
2-0
  6
CONTINUOUS
 62
     3
 10
19867.223924000002
 20
15990.03867149996
 30
0.0
 11
19867.223924000002
 21
15972.03692949998
 31
0.0
  0
LINE
  5
4366
  8
2-0
  6
CONTINUOUS
 62
     3
 10
19842.230522000002
 20
15990.03867149996
 30
0.0
 11
19867.223924000002
 21
15990.03867149996
 31
0.0
  0
LINE
  5
4367
  8
2-0
  6
CONTINUOUS
 62
     3
 10
19842.230522000002
 20
15985.038407499949
 30
0.0
 11
19842.230522000002
 21
15990.03867149996
 31
0.0
  0
LINE
  5
4368
  8
2-0
  6
CONTINUOUS
 62
     3
 10
19849.228119999982
 20
15985.038407499949
 30
0.0
 11
19842.230522000002
 21
15985.038407499949
 31
0.0
  0
LINE
  5
4369
  8
2-0
  6
CONTINUOUS
 62
     3
 10
19849.228119999982
 20
16689.520637999991
 30
0.0
 11
19842.230522000002
 21
16689.520637999991
 31
0.0
  0
LINE
  5
436A
  8
2-0
  6
CONTINUOUS
 62
     3
 10
19842.230522000002
 20
16689.520637999991
 30
0.0
 11
19842.230522000002
 21
16694.52090199996
 31
0.0
  0
LINE
  5
436B
  8
2-0
  6
CONTINUOUS
 62
     3
 10
19842.230522000002
 20
16694.52090199996
 30
0.0
 11
19867.223924000002
 21
16694.52090199996
 31
0.0
  0
LINE
  5
436C
  8
2-0
  6
CONTINUOUS
 62
     3
 10
19867.223924000002
 20
16694.52090199996
 30
0.0
 11
19867.223924000002
 21
16676.525098999991
 31
0.0
  0
LINE
  5
436D
  8
2-0
  6
CONTINUOUS
 62
     3
 10
19867.223924000002
 20
16676.525098999991
 30
0.0
 11
19837.226299000002
 21
16676.525098999991
 31
0.0
  0
LINE
  5
436E
  8
2-0
  6
CONTINUOUS
 62
     3
 10
19840.112437
 20
16716.139224999981
 30
0.0
 11
19840.112437
 21
16736.13434199999
 31
0.0
  0
LINE
  5
436F
  8
2-0
  6
CONTINUOUS
 62
     3
 10
19925.112965
 20
16716.139224999981
 30
0.0
 11
19840.112437
 21
16716.139224999981
 31
0.0
  0
LINE
  5
4370
  8
2-0
  6
CONTINUOUS
 62
     3
 10
19867.223924000002
 20
16686.133681999981
 30
0.0
 11
19867.223924000002
 21
16692.135581999992
 31
0.0
  0
LINE
  5
4371
  8
2-0
  6
CONTINUOUS
 62
     3
 10
19837.226299000002
 20
16686.133681999981
 30
0.0
 11
19867.223924000002
 21
16686.133681999981
 31
0.0
  0
LINE
  5
4372
  8
2-0
  6
CONTINUOUS
 62
     3
 10
19837.226299000002
 20
17545.23858299998
 30
0.0
 11
19837.226299000002
 21
18189.04237299996
 31
0.0
  0
LINE
  5
4373
  8
2-0
  6
CONTINUOUS
 62
     3
 10
19837.226299000002
 20
16840.743980999981
 30
0.0
 11
19837.226299000002
 21
17488.04831199997
 31
0.0
  0
LINE
  5
4374
  8
2-0
  6
CONTINUOUS
 62
     3
 10
19837.226299000002
 20
16831.135396999969
 30
0.0
 11
19867.223924000002
 21
16831.135396999969
 31
0.0
  0
LINE
  5
4375
  8
2-0
  6
CONTINUOUS
 62
     3
 10
19867.223924000002
 20
16831.135396999969
 30
0.0
 11
19867.223924000002
 21
16825.133496999981
 31
0.0
  0
LINE
  5
4376
  8
2-0
  6
CONTINUOUS
 62
     3
 10
19867.223924000002
 20
16840.743980999981
 30
0.0
 11
19837.226299000002
 21
16840.743980999981
 31
0.0
  0
LINE
  5
4377
  8
2-0
  6
CONTINUOUS
 62
     3
 10
19867.223924000002
 20
16822.748176999969
 30
0.0
 11
19867.223924000002
 21
16840.743980999981
 31
0.0
  0
LINE
  5
4378
  8
2-0
  6
CONTINUOUS
 62
     3
 10
19842.230522000002
 20
16822.748176999969
 30
0.0
 11
19867.223924000002
 21
16822.748176999969
 31
0.0
  0
LINE
  5
4379
  8
2-0
  6
CONTINUOUS
 62
     3
 10
19842.230522000002
 20
16827.742502999979
 30
0.0
 11
19842.230522000002
 21
16822.748176999969
 31
0.0
  0
LINE
  5
437A
  8
2-0
  6
CONTINUOUS
 62
     3
 10
19849.228119999982
 20
16827.742502999979
 30
0.0
 11
19842.230522000002
 21
16827.742502999979
 31
0.0
  0
LINE
  5
437B
  8
2-0
  6
CONTINUOUS
 62
     3
 10
19840.112437
 20
16801.135792999969
 30
0.0
 11
19925.112965
 21
16801.135792999969
 31
0.0
  0
LINE
  5
437C
  8
2-0
  6
CONTINUOUS
 62
     3
 10
19840.112437
 20
16781.134737999972
 30
0.0
 11
19840.112437
 21
16801.135792999969
 31
0.0
  0
LINE
  5
437D
  8
2-0
  6
CONTINUOUS
 62
     3
 10
19849.228119999982
 20
17501.043851999981
 30
0.0
 11
19842.230522000002
 21
17501.043851999981
 31
0.0
  0
LINE
  5
437E
  8
2-0
  6
CONTINUOUS
 62
     3
 10
19842.230522000002
 20
17501.043851999981
 30
0.0
 11
19842.230522000002
 21
17506.04411499995
 31
0.0
  0
LINE
  5
437F
  8
2-0
  6
CONTINUOUS
 62
     3
 10
19842.230522000002
 20
17506.04411499995
 30
0.0
 11
19867.223924000002
 21
17506.04411499995
 31
0.0
  0
LINE
  5
4380
  8
2-0
  6
CONTINUOUS
 62
     3
 10
19867.223924000002
 20
17506.04411499995
 30
0.0
 11
19867.223924000002
 21
17488.04831199997
 31
0.0
  0
LINE
  5
4381
  8
2-0
  6
CONTINUOUS
 62
     3
 10
19867.223924000002
 20
17488.04831199997
 30
0.0
 11
19837.226299000002
 21
17488.04831199997
 31
0.0
  0
LINE
  5
4382
  8
2-0
  6
CONTINUOUS
 62
     3
 10
19867.223924000002
 20
17504.139818999971
 30
0.0
 11
19867.223924000002
 21
17498.137917999979
 31
0.0
  0
LINE
  5
4383
  8
2-0
  6
CONTINUOUS
 62
     3
 10
19867.223924000002
 20
17498.137917999979
 30
0.0
 11
19837.226299000002
 21
17498.137917999979
 31
0.0
  0
LINE
  5
4384
  8
2-0
  6
CONTINUOUS
 62
     3
 10
19837.226299000002
 20
17535.137099999971
 30
0.0
 11
19837.226299000002
 21
17498.137917999979
 31
0.0
  0
LINE
  5
4385
  8
2-0
  6
CONTINUOUS
 62
     3
 10
19867.223924000002
 20
17535.137099999971
 30
0.0
 11
19837.226299000002
 21
17535.137099999971
 31
0.0
  0
LINE
  5
4386
  8
2-0
  6
CONTINUOUS
 62
     3
 10
19867.223924000002
 20
17529.14113799997
 30
0.0
 11
19867.223924000002
 21
17535.137099999971
 31
0.0
  0
LINE
  5
4387
  8
2-0
  6
CONTINUOUS
 62
     3
 10
19867.223924000002
 20
17545.23858299998
 30
0.0
 11
19837.226299000002
 21
17545.23858299998
 31
0.0
  0
LINE
  5
4388
  8
2-0
  6
CONTINUOUS
 62
     3
 10
19867.223924000002
 20
17527.24277999996
 30
0.0
 11
19867.223924000002
 21
17545.23858299998
 31
0.0
  0
LINE
  5
4389
  8
2-0
  6
CONTINUOUS
 62
     3
 10
19842.230522000002
 20
17527.24277999996
 30
0.0
 11
19867.223924000002
 21
17527.24277999996
 31
0.0
  0
LINE
  5
438A
  8
2-0
  6
CONTINUOUS
 62
     3
 10
19842.230522000002
 20
17532.231166999962
 30
0.0
 11
19842.230522000002
 21
17527.24277999996
 31
0.0
  0
LINE
  5
438B
  8
2-0
  6
CONTINUOUS
 62
     3
 10
19849.228119999982
 20
17532.231166999962
 30
0.0
 11
19842.230522000002
 21
17532.231166999962
 31
0.0
  0
LINE
  5
438C
  8
2-0
  6
CONTINUOUS
 62
     3
 10
19849.228119999982
 20
18233.23710499996
 30
0.0
 11
19842.230522000002
 21
18233.23710499996
 31
0.0
  0
LINE
  5
438D
  8
2-0
  6
CONTINUOUS
 62
     3
 10
19842.230522000002
 20
18233.23710499996
 30
0.0
 11
19842.230522000002
 21
18228.23090299996
 31
0.0
  0
LINE
  5
438E
  8
2-0
  6
CONTINUOUS
 62
     3
 10
19842.230522000002
 20
18228.23090299996
 30
0.0
 11
19867.223924000002
 21
18228.23090299996
 31
0.0
  0
LINE
  5
438F
  8
2-0
  6
CONTINUOUS
 62
     3
 10
19867.223924000002
 20
18228.23090299996
 30
0.0
 11
19867.223924000002
 21
18246.23264499996
 31
0.0
  0
LINE
  5
4390
  8
2-0
  6
CONTINUOUS
 62
     3
 10
19867.223924000002
 20
18246.23264499996
 30
0.0
 11
19837.226299000002
 21
18246.23264499996
 31
0.0
  0
LINE
  5
4391
  8
2-0
  6
CONTINUOUS
 62
     3
 10
19867.223924000002
 20
18230.141137999981
 30
0.0
 11
19867.223924000002
 21
18236.137099999982
 31
0.0
  0
LINE
  5
4392
  8
2-0
  6
CONTINUOUS
 62
     3
 10
19867.223924000002
 20
18236.137099999982
 30
0.0
 11
19837.226299000002
 21
18236.137099999982
 31
0.0
  0
LINE
  5
4393
  8
2-0
  6
CONTINUOUS
 62
     3
 10
19837.226299000002
 20
18199.137917999949
 30
0.0
 11
19837.226299000002
 21
18236.137099999982
 31
0.0
  0
LINE
  5
4394
  8
2-0
  6
CONTINUOUS
 62
     3
 10
19867.223924000002
 20
18199.137917999949
 30
0.0
 11
19837.226299000002
 21
18199.137917999949
 31
0.0
  0
LINE
  5
4395
  8
2-0
  6
CONTINUOUS
 62
     3
 10
19867.223924000002
 20
18205.13387999995
 30
0.0
 11
19867.223924000002
 21
18199.137917999949
 31
0.0
  0
LINE
  5
4396
  8
2-0
  6
CONTINUOUS
 62
     3
 10
19867.223924000002
 20
18189.04237299996
 30
0.0
 11
19837.226299000002
 21
18189.04237299996
 31
0.0
  0
LINE
  5
4397
  8
2-0
  6
CONTINUOUS
 62
     3
 10
19867.223924000002
 20
18207.04411499995
 30
0.0
 11
19867.223924000002
 21
18189.04237299996
 31
0.0
  0
LINE
  5
4398
  8
2-0
  6
CONTINUOUS
 62
     3
 10
19842.230522000002
 20
18207.04411499995
 30
0.0
 11
19867.223924000002
 21
18207.04411499995
 31
0.0
  0
LINE
  5
4399
  8
2-0
  6
CONTINUOUS
 62
     3
 10
19842.230522000002
 20
18202.03791299996
 30
0.0
 11
19842.230522000002
 21
18207.04411499995
 31
0.0
  0
LINE
  5
439A
  8
2-0
  6
CONTINUOUS
 62
     3
 10
19849.228119999982
 20
18202.03791299996
 30
0.0
 11
19842.230522000002
 21
18202.03791299996
 31
0.0
  0
LINE
  5
439B
  8
2-0
  6
CONTINUOUS
 62
     3
 10
19849.228119999982
 20
18934.232156499969
 30
0.0
 11
19842.230522000002
 21
18934.232156499969
 31
0.0
  0
LINE
  5
439C
  8
2-0
  6
CONTINUOUS
 62
     3
 10
19842.230522000002
 20
18934.232156499969
 30
0.0
 11
19842.230522000002
 21
18929.231892499982
 31
0.0
  0
LINE
  5
439D
  8
2-0
  6
CONTINUOUS
 62
     3
 10
19842.230522000002
 20
18929.231892499982
 30
0.0
 11
19867.223924000002
 21
18929.231892499982
 31
0.0
  0
LINE
  5
439E
  8
2-0
  6
CONTINUOUS
 62
     3
 10
19867.223924000002
 20
18929.231892499982
 30
0.0
 11
19867.223924000002
 21
18947.233634499949
 31
0.0
  0
LINE
  5
439F
  8
2-0
  6
CONTINUOUS
 62
     3
 10
19867.223924000002
 20
18947.233634499949
 30
0.0
 11
19837.226299000002
 21
18947.233634499949
 31
0.0
  0
LINE
  5
43A0
  8
2-0
  6
CONTINUOUS
 62
     3
 10
19867.223924000002
 20
18931.13420949996
 30
0.0
 11
19867.223924000002
 21
18937.13808949996
 31
0.0
  0
LINE
  5
43A1
  8
2-0
  6
CONTINUOUS
 62
     3
 10
19867.223924000002
 20
18937.13808949996
 30
0.0
 11
19837.226299000002
 21
18937.13808949996
 31
0.0
  0
LINE
  5
43A2
  8
2-0
  6
CONTINUOUS
 62
     3
 10
19837.226299000002
 20
18900.13692849996
 30
0.0
 11
19837.226299000002
 21
18937.13808949996
 31
0.0
  0
LINE
  5
43A3
  8
2-0
  6
CONTINUOUS
 62
     3
 10
19867.223924000002
 20
18900.13692849996
 30
0.0
 11
19837.226299000002
 21
18900.13692849996
 31
0.0
  0
LINE
  5
43A4
  8
2-0
  6
CONTINUOUS
 62
     3
 10
19867.223924000002
 20
18906.134869499951
 30
0.0
 11
19867.223924000002
 21
18900.13692849996
 31
0.0
  0
LINE
  5
43A5
  8
2-0
  6
CONTINUOUS
 62
     3
 10
19867.223924000002
 20
18890.04336249995
 30
0.0
 11
19837.226299000002
 21
18890.04336249995
 31
0.0
  0
LINE
  5
43A6
  8
2-0
  6
CONTINUOUS
 62
     3
 10
19867.223924000002
 20
18908.039166499959
 30
0.0
 11
19867.223924000002
 21
18890.04336249995
 31
0.0
  0
LINE
  5
43A7
  8
2-0
  6
CONTINUOUS
 62
     3
 10
19842.230522000002
 20
18908.039166499959
 30
0.0
 11
19867.223924000002
 21
18908.039166499959
 31
0.0
  0
LINE
  5
43A8
  8
2-0
  6
CONTINUOUS
 62
     3
 10
19842.230522000002
 20
18903.038902499949
 30
0.0
 11
19842.230522000002
 21
18908.039166499959
 31
0.0
  0
LINE
  5
43A9
  8
2-0
  6
CONTINUOUS
 62
     3
 10
19849.228119999982
 20
18903.038902499949
 30
0.0
 11
19842.230522000002
 21
18903.038902499949
 31
0.0
  0
LINE
  5
43AA
  8
2-0
  6
CONTINUOUS
 62
     3
 10
19849.228119999982
 20
19606.83572499999
 30
0.0
 11
19842.230522000002
 21
19606.83572499999
 31
0.0
  0
LINE
  5
43AB
  8
2-0
  6
CONTINUOUS
 62
     3
 10
19842.230522000002
 20
19606.83572499999
 30
0.0
 11
19842.230522000002
 21
19611.843906999991
 31
0.0
  0
LINE
  5
43AC
  8
2-0
  6
CONTINUOUS
 62
     3
 10
19842.230522000002
 20
19611.843906999991
 30
0.0
 11
19867.223924000002
 21
19611.843906999991
 31
0.0
  0
LINE
  5
43AD
  8
2-0
  6
CONTINUOUS
 62
     3
 10
19867.223924000002
 20
19611.843906999991
 30
0.0
 11
19867.223924000002
 21
19593.842164999991
 31
0.0
  0
LINE
  5
43AE
  8
2-0
  6
CONTINUOUS
 62
     3
 10
19867.223924000002
 20
19593.842164999991
 30
0.0
 11
19837.226299000002
 21
19593.842164999991
 31
0.0
  0
LINE
  5
43AF
  8
2-0
  6
CONTINUOUS
 62
     3
 10
19837.226299000002
 20
19634.139224999992
 30
0.0
 11
19918.22424000001
 21
19634.139224999992
 31
0.0
  0
LINE
  5
43B0
  8
2-0
  6
CONTINUOUS
 62
     3
 10
19837.226299000002
 20
19604.139620999991
 30
0.0
 11
19837.226299000002
 21
19719.135793999991
 31
0.0
  0
LINE
  5
43B1
  8
2-0
  6
CONTINUOUS
 62
     3
 10
19867.223924000002
 20
19604.139620999991
 30
0.0
 11
19837.226299000002
 21
19604.139620999991
 31
0.0
  0
LINE
  5
43B2
  8
2-0
  6
CONTINUOUS
 62
     3
 10
19867.223924000002
 20
19610.135582999988
 30
0.0
 11
19867.223924000002
 21
19604.139620999991
 31
0.0
  0
LINE
  5
43B3
  8
2-0
  6
CONTINUOUS
 62
     3
 10
22361.628457999999
 20
19719.135793999991
 30
0.0
 11
21717.816749500002
 21
19719.135793999991
 31
0.0
  0
LINE
  5
43B4
  8
2-0
  6
CONTINUOUS
 62
     3
 10
20316.021630000021
 20
19719.135793999991
 30
0.0
 11
20959.62746850001
 21
19719.135793999991
 31
0.0
  0
LINE
  5
43B5
  8
2-0
  6
CONTINUOUS
 62
     3
 10
21016.817739499998
 20
19719.135793999991
 30
0.0
 11
21660.628458499988
 21
19719.135793999991
 31
0.0
  0
LINE
  5
43B6
  8
2-0
  6
CONTINUOUS
 62
     3
 10
21704.811312500009
 20
19707.135952000001
 30
0.0
 11
21704.811312500009
 21
19714.141468000002
 31
0.0
  0
LINE
  5
43B7
  8
2-0
  6
CONTINUOUS
 62
     3
 10
21704.811312500009
 20
19714.141468000002
 30
0.0
 11
21699.820946499989
 21
19714.141468000002
 31
0.0
  0
LINE
  5
43B8
  8
2-0
  6
CONTINUOUS
 62
     3
 10
21699.820946499989
 20
19714.141468000002
 30
0.0
 11
21699.820946499989
 21
19689.132230999989
 31
0.0
  0
LINE
  5
43B9
  8
2-0
  6
CONTINUOUS
 62
     3
 10
21699.820946499989
 20
19689.132230999989
 30
0.0
 11
21717.816749500002
 21
19689.132230999989
 31
0.0
  0
LINE
  5
43BA
  8
2-0
  6
CONTINUOUS
 62
     3
 10
21717.816749500002
 20
19689.132230999989
 30
0.0
 11
21717.816749500002
 21
19719.135793999991
 31
0.0
  0
LINE
  5
43BB
  8
2-0
  6
CONTINUOUS
 62
     3
 10
21701.717325500002
 20
19689.132230999989
 30
0.0
 11
21707.723184499999
 21
19689.132230999989
 31
0.0
  0
LINE
  5
43BC
  8
2-0
  6
CONTINUOUS
 62
     3
 10
21707.723184499999
 20
19689.132230999989
 30
0.0
 11
21707.723184499999
 21
19719.135793999991
 31
0.0
  0
LINE
  5
43BD
  8
2-0
  6
CONTINUOUS
 62
     3
 10
21707.723184499999
 20
19719.135793999991
 30
0.0
 11
21670.722023499991
 21
19719.135793999991
 31
0.0
  0
LINE
  5
43BE
  8
2-0
  6
CONTINUOUS
 62
     3
 10
21670.722023499991
 20
19689.132230999989
 30
0.0
 11
21670.722023499991
 21
19719.135793999991
 31
0.0
  0
LINE
  5
43BF
  8
2-0
  6
CONTINUOUS
 62
     3
 10
21676.719964499978
 20
19689.132230999989
 30
0.0
 11
21670.722023499991
 21
19689.132230999989
 31
0.0
  0
LINE
  5
43C0
  8
2-0
  6
CONTINUOUS
 62
     3
 10
21660.628458499988
 20
19689.132230999989
 30
0.0
 11
21660.628458499988
 21
19719.135793999991
 31
0.0
  0
LINE
  5
43C1
  8
2-0
  6
CONTINUOUS
 62
     3
 10
21678.6222815
 20
19689.132230999989
 30
0.0
 11
21660.628458499988
 21
19689.132230999989
 31
0.0
  0
LINE
  5
43C2
  8
2-0
  6
CONTINUOUS
 62
     3
 10
21678.6222815
 20
19714.141468000002
 30
0.0
 11
21678.6222815
 21
19689.132230999989
 31
0.0
  0
LINE
  5
43C3
  8
2-0
  6
CONTINUOUS
 62
     3
 10
21673.622018499998
 20
19714.141468000002
 30
0.0
 11
21678.6222815
 21
19714.141468000002
 31
0.0
  0
LINE
  5
43C4
  8
2-0
  6
CONTINUOUS
 62
     3
 10
21673.622018499998
 20
19707.135952000001
 30
0.0
 11
21673.622018499998
 21
19714.141468000002
 31
0.0
  0
LINE
  5
43C5
  8
2-0
  6
CONTINUOUS
 62
     3
 10
20972.623007499998
 20
19707.135952000001
 30
0.0
 11
20972.623007499998
 21
19714.141468000002
 31
0.0
  0
LINE
  5
43C6
  8
2-0
  6
CONTINUOUS
 62
     3
 10
20972.623007499998
 20
19714.141468000002
 30
0.0
 11
20977.623271500001
 21
19714.141468000002
 31
0.0
  0
LINE
  5
43C7
  8
2-0
  6
CONTINUOUS
 62
     3
 10
20977.623271500001
 20
19714.141468000002
 30
0.0
 11
20977.623271500001
 21
19689.132230999989
 31
0.0
  0
LINE
  5
43C8
  8
2-0
  6
CONTINUOUS
 62
     3
 10
20977.623271500001
 20
19689.132230999989
 30
0.0
 11
20959.62746850001
 21
19689.132230999989
 31
0.0
  0
LINE
  5
43C9
  8
2-0
  6
CONTINUOUS
 62
     3
 10
20959.62746850001
 20
19689.132230999989
 30
0.0
 11
20959.62746850001
 21
19719.135793999991
 31
0.0
  0
LINE
  5
43CA
  8
2-0
  6
CONTINUOUS
 62
     3
 10
20975.716995499999
 20
19689.132230999989
 30
0.0
 11
20969.723013499999
 21
19689.132230999989
 31
0.0
  0
LINE
  5
43CB
  8
2-0
  6
CONTINUOUS
 62
     3
 10
20969.723013499999
 20
19689.132230999989
 30
0.0
 11
20969.723013499999
 21
19719.135793999991
 31
0.0
  0
LINE
  5
43CC
  8
2-0
  6
CONTINUOUS
 62
     3
 10
20969.723013499999
 20
19719.135793999991
 30
0.0
 11
21006.722194499998
 21
19719.135793999991
 31
0.0
  0
LINE
  5
43CD
  8
2-0
  6
CONTINUOUS
 62
     3
 10
21006.722194499998
 20
19689.132230999989
 30
0.0
 11
21006.722194499998
 21
19719.135793999991
 31
0.0
  0
LINE
  5
43CE
  8
2-0
  6
CONTINUOUS
 62
     3
 10
21000.720294499999
 20
19689.132230999989
 30
0.0
 11
21006.722194499998
 21
19689.132230999989
 31
0.0
  0
LINE
  5
43CF
  8
2-0
  6
CONTINUOUS
 62
     3
 10
21016.817739499998
 20
19689.132230999989
 30
0.0
 11
21016.817739499998
 21
19719.135793999991
 31
0.0
  0
LINE
  5
43D0
  8
2-0
  6
CONTINUOUS
 62
     3
 10
20998.8120385
 20
19689.132230999989
 30
0.0
 11
21016.817739499998
 21
19689.132230999989
 31
0.0
  0
LINE
  5
43D1
  8
2-0
  6
CONTINUOUS
 62
     3
 10
20998.8120385
 20
19714.141468000002
 30
0.0
 11
20998.8120385
 21
19689.132230999989
 31
0.0
  0
LINE
  5
43D2
  8
2-0
  6
CONTINUOUS
 62
     3
 10
21003.812302499999
 20
19714.141468000002
 30
0.0
 11
20998.8120385
 21
19714.141468000002
 31
0.0
  0
LINE
  5
43D3
  8
2-0
  6
CONTINUOUS
 62
     3
 10
21003.812302499999
 20
19707.135952000001
 30
0.0
 11
21003.812302499999
 21
19714.141468000002
 31
0.0
  0
LINE
  5
43D4
  8
2-0
  6
CONTINUOUS
 62
     3
 10
19946.224531
 20
19689.132230999989
 30
0.0
 11
19952.22841
 21
19689.132230999989
 31
0.0
  0
LINE
  5
43D5
  8
2-0
  6
CONTINUOUS
 62
     3
 10
19952.22841
 20
19689.132230999989
 30
0.0
 11
19952.22841
 21
19719.135793999991
 31
0.0
  0
LINE
  5
43D6
  8
2-0
  6
CONTINUOUS
 62
     3
 10
19952.22841
 20
19719.135793999991
 30
0.0
 11
19837.226299000002
 21
19719.135793999991
 31
0.0
  0
LINE
  5
43D7
  8
2-0
  6
CONTINUOUS
 62
     3
 10
19962.527846000001
 20
19689.132230999989
 30
0.0
 11
19962.527846000001
 21
19719.135793999991
 31
0.0
  0
LINE
  5
43D8
  8
2-0
  6
CONTINUOUS
 62
     3
 10
19944.520165000009
 20
19689.132230999989
 30
0.0
 11
19962.527846000001
 21
19689.132230999989
 31
0.0
  0
LINE
  5
43D9
  8
2-0
  6
CONTINUOUS
 62
     3
 10
19944.520165000009
 20
19714.141468000002
 30
0.0
 11
19944.520165000009
 21
19689.132230999989
 31
0.0
  0
LINE
  5
43DA
  8
2-0
  6
CONTINUOUS
 62
     3
 10
19949.522409000001
 20
19714.141468000002
 30
0.0
 11
19944.520165000009
 21
19714.141468000002
 31
0.0
  0
LINE
  5
43DB
  8
2-0
  6
CONTINUOUS
 62
     3
 10
19949.522409000001
 20
19707.135952000001
 30
0.0
 11
19949.522409000001
 21
19714.141468000002
 31
0.0
  0
LINE
  5
43DC
  8
2-0
  6
CONTINUOUS
 62
     3
 10
19849.228119999982
 20
19606.83572499999
 30
0.0
 11
19842.230522000002
 21
19606.83572499999
 31
0.0
  0
LINE
  5
43DD
  8
2-0
  6
CONTINUOUS
 62
     3
 10
19842.230522000002
 20
19606.83572499999
 30
0.0
 11
19842.230522000002
 21
19611.843906999991
 31
0.0
  0
LINE
  5
43DE
  8
2-0
  6
CONTINUOUS
 62
     3
 10
19842.230522000002
 20
19611.843906999991
 30
0.0
 11
19867.223924000002
 21
19611.843906999991
 31
0.0
  0
LINE
  5
43DF
  8
2-0
  6
CONTINUOUS
 62
     3
 10
19867.223924000002
 20
19611.843906999991
 30
0.0
 11
19867.223924000002
 21
19593.842164999991
 31
0.0
  0
LINE
  5
43E0
  8
2-0
  6
CONTINUOUS
 62
     3
 10
19867.223924000002
 20
19593.842164999991
 30
0.0
 11
19837.226299000002
 21
19593.842164999991
 31
0.0
  0
LINE
  5
43E1
  8
2-0
  6
CONTINUOUS
 62
     3
 10
19837.226299000002
 20
19634.139224999992
 30
0.0
 11
19918.22424000001
 21
19634.139224999992
 31
0.0
  0
LINE
  5
43E2
  8
2-0
  6
CONTINUOUS
 62
     3
 10
19837.226299000002
 20
19604.139620999991
 30
0.0
 11
19837.226299000002
 21
19719.135793999991
 31
0.0
  0
LINE
  5
43E3
  8
2-0
  6
CONTINUOUS
 62
     3
 10
19867.223924000002
 20
19604.139620999991
 30
0.0
 11
19837.226299000002
 21
19604.139620999991
 31
0.0
  0
LINE
  5
43E4
  8
2-0
  6
CONTINUOUS
 62
     3
 10
19867.223924000002
 20
19610.135582999988
 30
0.0
 11
19867.223924000002
 21
19604.139620999991
 31
0.0
  0
LINE
  5
43E5
  8
2-0
  6
CONTINUOUS
 62
     3
 10
22371.722022999998
 20
19689.132230999989
 30
0.0
 11
22371.722022999998
 21
19719.135793999991
 31
0.0
  0
LINE
  5
43E6
  8
2-0
  6
CONTINUOUS
 62
     3
 10
22377.721944000012
 20
19689.132230999989
 30
0.0
 11
22371.722022999998
 21
19689.132230999989
 31
0.0
  0
LINE
  5
43E7
  8
2-0
  6
CONTINUOUS
 62
     3
 10
22361.628457999999
 20
19689.132230999989
 30
0.0
 11
22361.628457999999
 21
19719.135793999991
 31
0.0
  0
LINE
  5
43E8
  8
2-0
  6
CONTINUOUS
 62
     3
 10
22379.628220999999
 20
19689.132230999989
 30
0.0
 11
22361.628457999999
 21
19689.132230999989
 31
0.0
  0
LINE
  5
43E9
  8
2-0
  6
CONTINUOUS
 62
     3
 10
22379.628220999999
 20
19714.141468000002
 30
0.0
 11
22379.628220999999
 21
19689.132230999989
 31
0.0
  0
LINE
  5
43EA
  8
2-0
  6
CONTINUOUS
 62
     3
 10
22374.62795699999
 20
19714.141468000002
 30
0.0
 11
22379.628220999999
 21
19714.141468000002
 31
0.0
  0
LINE
  5
43EB
  8
2-0
  6
CONTINUOUS
 62
     3
 10
22374.62795699999
 20
19707.135952000001
 30
0.0
 11
22374.62795699999
 21
19714.141468000002
 31
0.0
  0
LINE
  5
43EC
  8
2-0
  6
CONTINUOUS
 62
     3
 10
22405.817252000012
 20
19707.135952000001
 30
0.0
 11
22405.817252000012
 21
19714.141468000002
 31
0.0
  0
LINE
  5
43ED
  8
2-0
  6
CONTINUOUS
 62
     3
 10
22405.817252000012
 20
19714.141468000002
 30
0.0
 11
22400.816987999999
 21
19714.141468000002
 31
0.0
  0
LINE
  5
43EE
  8
2-0
  6
CONTINUOUS
 62
     3
 10
22400.816987999999
 20
19714.141468000002
 30
0.0
 11
22400.816987999999
 21
19689.132230999989
 31
0.0
  0
LINE
  5
43EF
  8
2-0
  6
CONTINUOUS
 62
     3
 10
22400.816987999999
 20
19689.132230999989
 30
0.0
 11
22418.820709000011
 21
19689.132230999989
 31
0.0
  0
LINE
  5
43F0
  8
2-0
  6
CONTINUOUS
 62
     3
 10
22418.820709000011
 20
19689.132230999989
 30
0.0
 11
22418.820709000011
 21
19719.135793999991
 31
0.0
  0
LINE
  5
43F1
  8
2-0
  6
CONTINUOUS
 62
     3
 10
22402.723263999989
 20
19689.132230999989
 30
0.0
 11
22408.723184999999
 21
19689.132230999989
 31
0.0
  0
LINE
  5
43F2
  8
2-0
  6
CONTINUOUS
 62
     3
 10
22408.723184999999
 20
19689.132230999989
 30
0.0
 11
22408.723184999999
 21
19719.135793999991
 31
0.0
  0
LINE
  5
43F3
  8
2-0
  6
CONTINUOUS
 62
     3
 10
22408.723184999999
 20
19719.135793999991
 30
0.0
 11
22371.722022999998
 21
19719.135793999991
 31
0.0
  0
LINE
  5
43F4
  8
2-0
  6
CONTINUOUS
 62
     6
 10
24834.455764999992
 20
18080.541000999991
 30
0.0
 11
24810.897514
 21
18128.391902999982
 31
0.0
  0
LINE
  5
43F5
  8
2-0
  6
CONTINUOUS
 62
     6
 10
24834.455764999992
 20
18080.541000999991
 30
0.0
 11
24966.216480999999
 21
18175.136254999961
 31
0.0
  0
LINE
  5
43F6
  8
2-0
  6
CONTINUOUS
 62
     6
 10
24810.897514
 20
18128.391902999982
 30
0.0
 11
24966.216480999999
 21
18175.136254999961
 31
0.0
  0
LINE
  5
43F7
  8
2-0
  6
CONTINUOUS
 62
     6
 10
24966.216480999999
 20
18175.136254999961
 30
0.0
 11
24810.897514
 21
18128.391902999982
 31
0.0
  0
LINE
  5
43F8
  8
2-0
  6
CONTINUOUS
 62
     6
 10
24834.455764999992
 20
18080.541000999991
 30
0.0
 11
24966.216480999999
 21
18175.136254999961
 31
0.0
  0
LINE
  5
43F9
  8
2-0
  6
CONTINUOUS
 62
     6
 10
24810.897514
 20
18128.391902999982
 30
0.0
 11
24834.455764999992
 21
18080.541000999991
 31
0.0
  0
LINE
  5
43FA
  8
2-0
  6
CONTINUOUS
 62
     6
 10
24966.216480999999
 20
18175.136254999961
 30
0.0
 11
24834.455764999992
 21
18080.541000999991
 31
0.0
  0
LINE
  5
43FB
  8
2-0
  6
CONTINUOUS
 62
     6
 10
24810.897514
 20
18128.391902999982
 30
0.0
 11
24966.216480999999
 21
18175.136254999961
 31
0.0
  0
LINE
  5
43FC
  8
2-0
  6
CONTINUOUS
 62
     6
 10
24752.268133000001
 20
16837.417968000002
 30
0.0
 11
24769.446394999999
 21
16887.91152799999
 31
0.0
  0
LINE
  5
43FD
  8
2-0
  6
CONTINUOUS
 62
     6
 10
24752.268133000001
 20
16837.417968000002
 30
0.0
 11
24912.330026000011
 21
16811.135898999979
 31
0.0
  0
LINE
  5
43FE
  8
2-0
  6
CONTINUOUS
 62
     6
 10
24769.446394999999
 20
16887.91152799999
 30
0.0
 11
24912.330026000011
 21
16811.135898999979
 31
0.0
  0
LINE
  5
43FF
  8
2-0
  6
CONTINUOUS
 62
     6
 10
24912.330026000011
 20
16811.135898999979
 30
0.0
 11
24769.446394999999
 21
16887.91152799999
 31
0.0
  0
LINE
  5
4400
  8
2-0
  6
CONTINUOUS
 62
     6
 10
24752.268133000001
 20
16837.417968000002
 30
0.0
 11
24912.330026000011
 21
16811.135898999979
 31
0.0
  0
LINE
  5
4401
  8
2-0
  6
CONTINUOUS
 62
     6
 10
24769.446394999999
 20
16887.91152799999
 30
0.0
 11
24752.268133000001
 21
16837.417968000002
 31
0.0
  0
LINE
  5
4402
  8
2-0
  6
CONTINUOUS
 62
     6
 10
24912.330026000011
 20
16811.135898999979
 30
0.0
 11
24752.268133000001
 21
16837.417968000002
 31
0.0
  0
LINE
  5
4403
  8
2-0
  6
CONTINUOUS
 62
     6
 10
24769.446394999999
 20
16887.91152799999
 30
0.0
 11
24912.330026000011
 21
16811.135898999979
 31
0.0
  0
LINE
  5
4404
  8
2-0
  6
CONTINUOUS
 62
     6
 10
24928.38590099998
 20
16349.486431999991
 30
0.0
 11
24903.382602000001
 21
16396.593035999998
 31
0.0
  0
LINE
  5
4405
  8
2-0
  6
CONTINUOUS
 62
     6
 10
24928.38590099998
 20
16349.486431999991
 30
0.0
 11
25057.220888
 21
16448.026867
 31
0.0
  0
LINE
  5
4406
  8
2-0
  6
CONTINUOUS
 62
     6
 10
24903.382602000001
 20
16396.593035999998
 30
0.0
 11
25057.220888
 21
16448.026867
 31
0.0
  0
LINE
  5
4407
  8
2-0
  6
CONTINUOUS
 62
     6
 10
25057.220888
 20
16448.026867
 30
0.0
 11
24903.382602000001
 21
16396.593035999998
 31
0.0
  0
LINE
  5
4408
  8
2-0
  6
CONTINUOUS
 62
     6
 10
24928.38590099998
 20
16349.486431999991
 30
0.0
 11
25057.220888
 21
16448.026867
 31
0.0
  0
LINE
  5
4409
  8
2-0
  6
CONTINUOUS
 62
     6
 10
24903.382602000001
 20
16396.593035999998
 30
0.0
 11
24928.38590099998
 21
16349.486431999991
 31
0.0
  0
LINE
  5
440A
  8
2-0
  6
CONTINUOUS
 62
     6
 10
25057.220888
 20
16448.026867
 30
0.0
 11
24928.38590099998
 21
16349.486431999991
 31
0.0
  0
LINE
  5
440B
  8
2-0
  6
CONTINUOUS
 62
     6
 10
24903.382602000001
 20
16396.593035999998
 30
0.0
 11
25057.220888
 21
16448.026867
 31
0.0
  0
LINE
  5
440C
  8
2-0
  6
CONTINUOUS
 62
     6
 10
24820.486302000001
 20
13968.71928899997
 30
0.0
 11
24843.618956000009
 21
14016.77210299997
 31
0.0
  0
LINE
  5
440D
  8
2-0
  6
CONTINUOUS
 62
     6
 10
24820.486302000001
 20
13968.71928899997
 30
0.0
 11
24976.218987999979
 21
13923.34377499997
 31
0.0
  0
LINE
  5
440E
  8
2-0
  6
CONTINUOUS
 62
     6
 10
24843.618956000009
 20
14016.77210299997
 30
0.0
 11
24976.218987999979
 21
13923.34377499997
 31
0.0
  0
LINE
  5
440F
  8
2-0
  6
CONTINUOUS
 62
     6
 10
24976.218987999979
 20
13923.34377499997
 30
0.0
 11
24843.618956000009
 21
14016.77210299997
 31
0.0
  0
LINE
  5
4410
  8
2-0
  6
CONTINUOUS
 62
     6
 10
24820.486302000001
 20
13968.71928899997
 30
0.0
 11
24976.218987999979
 21
13923.34377499997
 31
0.0
  0
LINE
  5
4411
  8
2-0
  6
CONTINUOUS
 62
     6
 10
24843.618956000009
 20
14016.77210299997
 30
0.0
 11
24820.486302000001
 21
13968.71928899997
 31
0.0
  0
LINE
  5
4412
  8
2-0
  6
CONTINUOUS
 62
     6
 10
24976.218987999979
 20
13923.34377499997
 30
0.0
 11
24820.486302000001
 21
13968.71928899997
 31
0.0
  0
LINE
  5
4413
  8
2-0
  6
CONTINUOUS
 62
     6
 10
24843.618956000009
 20
14016.77210299997
 30
0.0
 11
24976.218987999979
 21
13923.34377499997
 31
0.0
  0
LINE
  5
4414
  8
2-0
  6
CONTINUOUS
 62
     6
 10
24818.399890000001
 20
13652.25563299997
 30
0.0
 11
24780.583167000001
 21
13689.86747599997
 31
0.0
  0
LINE
  5
4415
  8
2-0
  6
CONTINUOUS
 62
     6
 10
24818.399890000001
 20
13652.25563299997
 30
0.0
 11
24912.330026000011
 21
13784.49440299997
 31
0.0
  0
LINE
  5
4416
  8
2-0
  6
CONTINUOUS
 62
     6
 10
24780.583167000001
 20
13689.86747599997
 30
0.0
 11
24912.330026000011
 21
13784.49440299997
 31
0.0
  0
LINE
  5
4417
  8
2-0
  6
CONTINUOUS
 62
     6
 10
24912.330026000011
 20
13784.49440299997
 30
0.0
 11
24780.583167000001
 21
13689.86747599997
 31
0.0
  0
LINE
  5
4418
  8
2-0
  6
CONTINUOUS
 62
     6
 10
24818.399890000001
 20
13652.25563299997
 30
0.0
 11
24912.330026000011
 21
13784.49440299997
 31
0.0
  0
LINE
  5
4419
  8
2-0
  6
CONTINUOUS
 62
     6
 10
24780.583167000001
 20
13689.86747599997
 30
0.0
 11
24818.399890000001
 21
13652.25563299997
 31
0.0
  0
LINE
  5
441A
  8
2-0
  6
CONTINUOUS
 62
     6
 10
24912.330026000011
 20
13784.49440299997
 30
0.0
 11
24818.399890000001
 21
13652.25563299997
 31
0.0
  0
LINE
  5
441B
  8
2-0
  6
CONTINUOUS
 62
     6
 10
24780.583167000001
 20
13689.86747599997
 30
0.0
 11
24912.330026000011
 21
13784.49440299997
 31
0.0
  0
LINE
  5
441C
  8
2-0
  6
CONTINUOUS
 62
     6
 10
24834.455764999992
 20
15162.78745099998
 30
0.0
 11
24810.897514
 21
15210.63241499998
 31
0.0
  0
LINE
  5
441D
  8
2-0
  6
CONTINUOUS
 62
     6
 10
24834.455764999992
 20
15162.78745099998
 30
0.0
 11
24966.216480999999
 21
15257.37973599999
 31
0.0
  0
LINE
  5
441E
  8
2-0
  6
CONTINUOUS
 62
     6
 10
24810.897514
 20
15210.63241499998
 30
0.0
 11
24966.216480999999
 21
15257.37973599999
 31
0.0
  0
LINE
  5
441F
  8
2-0
  6
CONTINUOUS
 62
     6
 10
24966.216480999999
 20
15257.37973599999
 30
0.0
 11
24810.897514
 21
15210.63241499998
 31
0.0
  0
LINE
  5
4420
  8
2-0
  6
CONTINUOUS
 62
     6
 10
24834.455764999992
 20
15162.78745099998
 30
0.0
 11
24966.216480999999
 21
15257.37973599999
 31
0.0
  0
LINE
  5
4421
  8
2-0
  6
CONTINUOUS
 62
     6
 10
24810.897514
 20
15210.63241499998
 30
0.0
 11
24834.455764999992
 21
15162.78745099998
 31
0.0
  0
LINE
  5
4422
  8
2-0
  6
CONTINUOUS
 62
     6
 10
24966.216480999999
 20
15257.37973599999
 30
0.0
 11
24834.455764999992
 21
15162.78745099998
 31
0.0
  0
LINE
  5
4423
  8
2-0
  6
CONTINUOUS
 62
     6
 10
24810.897514
 20
15210.63241499998
 30
0.0
 11
24966.216480999999
 21
15257.37973599999
 31
0.0
  0
LINE
  5
4424
  8
2-0
  6
CONTINUOUS
 62
     4
 10
23148.22260400001
 20
19799.138036999979
 30
0.0
 11
23148.22260400001
 21
20529.135001999992
 31
0.0
  0
LINE
  5
4425
  8
2-0
  6
CONTINUOUS
 62
     6
 10
23189.646010000011
 20
19600.384473999991
 30
0.0
 11
23207.269663999981
 21
19439.138829
 31
0.0
  0
LINE
  5
4426
  8
2-0
  6
CONTINUOUS
 62
     6
 10
23258.620355000021
 20
19453.573478999991
 30
0.0
 11
23189.646010000011
 21
19600.384473999991
 31
0.0
  0
LINE
  5
4427
  8
2-0
  6
CONTINUOUS
 62
     6
 10
23207.269663999981
 20
19439.138829
 30
0.0
 11
23189.646010000011
 21
19600.384473999991
 31
0.0
  0
LINE
  5
4428
  8
2-0
  6
CONTINUOUS
 62
     6
 10
23258.620355000021
 20
19453.573478999991
 30
0.0
 11
23189.646010000011
 21
19600.384473999991
 31
0.0
  0
LINE
  5
4429
  8
2-0
  6
CONTINUOUS
 62
     6
 10
23189.646010000011
 20
19600.384473999991
 30
0.0
 11
23258.620355000021
 21
19453.573478999991
 31
0.0
  0
LINE
  5
442A
  8
2-0
  6
CONTINUOUS
 62
     6
 10
23207.269663999981
 20
19439.138829
 30
0.0
 11
23189.646010000011
 21
19600.384473999991
 31
0.0
  0
LINE
  5
442B
  8
2-0
  6
CONTINUOUS
 62
     6
 10
23258.620355000021
 20
19453.573478999991
 30
0.0
 11
23207.269663999981
 21
19439.138829
 31
0.0
  0
LINE
  5
442C
  8
2-0
  6
CONTINUOUS
 62
     6
 10
23207.269663999981
 20
19439.138829
 30
0.0
 11
23258.620355000021
 21
19453.573478999991
 31
0.0
  0
LINE
  5
442D
  8
2-0
  6
CONTINUOUS
 62
     6
 10
23338.51570500002
 20
19070.762298000001
 30
0.0
 11
24363.559914000009
 21
19070.762298000001
 31
0.0
  0
LINE
  5
442E
  8
2-0
  6
CONTINUOUS
 62
     6
 10
23189.646010000011
 20
19600.384473999991
 30
0.0
 11
23338.51570500002
 21
19070.762298000001
 31
0.0
  0
LINE
  5
442F
  8
2-0
  6
CONTINUOUS
 62
     6
 10
21746.485906000002
 20
19464.146087000001
 30
0.0
 11
21797.83065900001
 21
19478.584696000002
 31
0.0
  0
LINE
  5
4430
  8
2-0
  6
CONTINUOUS
 62
     6
 10
21746.485906000002
 20
19464.146087000001
 30
0.0
 11
21728.864232000022
 21
19625.391731999978
 31
0.0
  0
LINE
  5
4431
  8
2-0
  6
CONTINUOUS
 62
     6
 10
21797.83065900001
 20
19478.584696000002
 30
0.0
 11
21728.864232000022
 21
19625.391731999978
 31
0.0
  0
LINE
  5
4432
  8
2-0
  6
CONTINUOUS
 62
     6
 10
21728.864232000022
 20
19625.391731999978
 30
0.0
 11
21797.83065900001
 21
19478.584696000002
 31
0.0
  0
LINE
  5
4433
  8
2-0
  6
CONTINUOUS
 62
     6
 10
21746.485906000002
 20
19464.146087000001
 30
0.0
 11
21728.864232000022
 21
19625.391731999978
 31
0.0
  0
LINE
  5
4434
  8
2-0
  6
CONTINUOUS
 62
     6
 10
21797.83065900001
 20
19478.584696000002
 30
0.0
 11
21746.485906000002
 21
19464.146087000001
 31
0.0
  0
LINE
  5
4435
  8
2-0
  6
CONTINUOUS
 62
     6
 10
21728.864232000022
 20
19625.391731999978
 30
0.0
 11
21746.485906000002
 21
19464.146087000001
 31
0.0
  0
LINE
  5
4436
  8
2-0
  6
CONTINUOUS
 62
     6
 10
21904.091216000012
 20
19002.017576999991
 30
0.0
 11
22929.129486999991
 21
19002.017576999991
 31
0.0
  0
LINE
  5
4437
  8
2-0
  6
CONTINUOUS
 62
     6
 10
21772.158283000001
 20
19471.363411999999
 30
0.0
 11
21904.091216000012
 21
19002.017576999991
 31
0.0
  0
LINE
  5
4438
  8
2-0
  6
CONTINUOUS
 62
     6
 10
25189.630885999999
 20
19879.868743999989
 30
0.0
 11
25228.878800999992
 21
19843.754407
 31
0.0
  0
LINE
  5
4439
  8
2-0
  6
CONTINUOUS
 62
     6
 10
25189.630885999999
 20
19879.868743999989
 30
0.0
 11
25100.916781000011
 21
19744.071789000001
 31
0.0
  0
LINE
  5
443A
  8
2-0
  6
CONTINUOUS
 62
     6
 10
25228.878800999992
 20
19843.754407
 30
0.0
 11
25100.916781000011
 21
19744.071789000001
 31
0.0
  0
LINE
  5
443B
  8
2-0
  6
CONTINUOUS
 62
     6
 10
25100.916781000011
 20
19744.071789000001
 30
0.0
 11
25228.878800999992
 21
19843.754407
 31
0.0
  0
LINE
  5
443C
  8
2-0
  6
CONTINUOUS
 62
     6
 10
25189.630885999999
 20
19879.868743999989
 30
0.0
 11
25100.916781000011
 21
19744.071789000001
 31
0.0
  0
LINE
  5
443D
  8
2-0
  6
CONTINUOUS
 62
     6
 10
25228.878800999992
 20
19843.754407
 30
0.0
 11
25189.630885999999
 21
19879.868743999989
 31
0.0
  0
LINE
  5
443E
  8
2-0
  6
CONTINUOUS
 62
     6
 10
25100.916781000011
 20
19744.071789000001
 30
0.0
 11
25189.630885999999
 21
19879.868743999989
 31
0.0
  0
LINE
  5
443F
  8
2-0
  6
CONTINUOUS
 62
     6
 10
25228.878800999992
 20
19843.754407
 30
0.0
 11
25100.916781000011
 21
19744.071789000001
 31
0.0
  0
LINE
  5
4440
  8
2-0
  6
CONTINUOUS
 62
     6
 10
24900.741924000002
 20
18788.484162499961
 30
0.0
 11
24874.636032999999
 21
18834.996910499969
 31
0.0
  0
LINE
  5
4441
  8
2-0
  6
CONTINUOUS
 62
     6
 10
24900.741924000002
 20
18788.484162499961
 30
0.0
 11
25027.223264
 21
18890.04336249995
 31
0.0
  0
LINE
  5
4442
  8
2-0
  6
CONTINUOUS
 62
     6
 10
24874.636032999999
 20
18834.996910499969
 30
0.0
 11
25027.223264
 21
18890.04336249995
 31
0.0
  0
LINE
  5
4443
  8
2-0
  6
CONTINUOUS
 62
     6
 10
25027.223264
 20
18890.04336249995
 30
0.0
 11
24874.636032999999
 21
18834.996910499969
 31
0.0
  0
LINE
  5
4444
  8
2-0
  6
CONTINUOUS
 62
     6
 10
24900.741924000002
 20
18788.484162499961
 30
0.0
 11
25027.223264
 21
18890.04336249995
 31
0.0
  0
LINE
  5
4445
  8
2-0
  6
CONTINUOUS
 62
     6
 10
24874.636032999999
 20
18834.996910499969
 30
0.0
 11
24900.741924000002
 21
18788.484162499961
 31
0.0
  0
LINE
  5
4446
  8
2-0
  6
CONTINUOUS
 62
     6
 10
25027.223264
 20
18890.04336249995
 30
0.0
 11
24900.741924000002
 21
18788.484162499961
 31
0.0
  0
LINE
  5
4447
  8
2-0
  6
CONTINUOUS
 62
     6
 10
24874.636032999999
 20
18834.996910499969
 30
0.0
 11
25027.223264
 21
18890.04336249995
 31
0.0
  0
LINE
  5
4448
  8
2-0
  6
CONTINUOUS
 62
     6
 10
22999.86362500006
 20
14006.04410199998
 30
0.0
 11
23045.444020000021
 21
14033.73162799996
 31
0.0
  0
LINE
  5
4449
  8
2-0
  6
CONTINUOUS
 62
     6
 10
22999.86362500006
 20
14006.04410199998
 30
0.0
 11
23105.722340000011
 21
13883.13579299997
 31
0.0
  0
LINE
  5
444A
  8
2-0
  6
CONTINUOUS
 62
     6
 10
23045.444020000021
 20
14033.73162799996
 30
0.0
 11
23105.722340000011
 21
13883.13579299997
 31
0.0
  0
LINE
  5
444B
  8
2-0
  6
CONTINUOUS
 62
     6
 10
23105.722340000011
 20
13883.13579299997
 30
0.0
 11
23045.444020000021
 21
14033.73162799996
 31
0.0
  0
LINE
  5
444C
  8
2-0
  6
CONTINUOUS
 62
     6
 10
22999.86362500006
 20
14006.04410199998
 30
0.0
 11
23105.722340000011
 21
13883.13579299997
 31
0.0
  0
LINE
  5
444D
  8
2-0
  6
CONTINUOUS
 62
     6
 10
23045.444020000021
 20
14033.73162799996
 30
0.0
 11
22999.86362500006
 21
14006.04410199998
 31
0.0
  0
LINE
  5
444E
  8
2-0
  6
CONTINUOUS
 62
     6
 10
23105.722340000011
 20
13883.13579299997
 30
0.0
 11
22999.86362500006
 21
14006.04410199998
 31
0.0
  0
LINE
  5
444F
  8
2-0
  6
CONTINUOUS
 62
     6
 10
23045.444020000021
 20
14033.73162799996
 30
0.0
 11
23105.722340000011
 21
13883.13579299997
 31
0.0
  0
LINE
  5
4450
  8
2-0
  6
CONTINUOUS
 62
     3
 10
24966.216480999999
 20
15342.13579299995
 30
0.0
 11
24966.216480999999
 21
15257.13922499997
 31
0.0
  0
LINE
  5
4451
  8
2-0
  6
CONTINUOUS
 62
     3
 10
25013.222128999991
 20
15317.13447399998
 30
0.0
 11
25013.222128999991
 21
15342.13579299995
 31
0.0
  0
LINE
  5
4452
  8
2-0
  6
CONTINUOUS
 62
     3
 10
25013.222128999991
 20
15257.13922499997
 30
0.0
 11
25013.222128999991
 21
15282.134605999991
 31
0.0
  0
LINE
  5
4453
  8
2-0
  6
CONTINUOUS
 62
     3
 10
25013.222128999991
 20
15342.13579299995
 30
0.0
 11
24966.216480999999
 21
15342.13579299995
 31
0.0
  0
LINE
  5
4454
  8
2-0
  6
CONTINUOUS
 62
     3
 10
24966.216480999999
 20
15257.13922499997
 30
0.0
 11
25013.222128999991
 21
15257.13922499997
 31
0.0
  0
LINE
  5
4455
  8
2-0
  6
CONTINUOUS
 62
     3
 10
25057.220888
 20
15972.03692949998
 30
0.0
 11
25057.220888
 21
15328.47315599998
 31
0.0
  0
LINE
  5
4456
  8
2-0
  6
CONTINUOUS
 62
     3
 10
24966.216480999999
 20
18260.13678299998
 30
0.0
 11
24966.216480999999
 21
18175.136254999961
 31
0.0
  0
LINE
  5
4457
  8
2-0
  6
CONTINUOUS
 62
     3
 10
25013.222128999991
 20
18235.135462999991
 30
0.0
 11
25013.222128999991
 21
18260.13678299998
 31
0.0
  0
LINE
  5
4458
  8
2-0
  6
CONTINUOUS
 62
     3
 10
25013.222128999991
 20
18175.136254999961
 30
0.0
 11
25013.222128999991
 21
18200.139553999961
 31
0.0
  0
LINE
  5
4459
  8
2-0
  6
CONTINUOUS
 62
     3
 10
25013.222128999991
 20
18260.13678299998
 30
0.0
 11
24966.216480999999
 21
18260.13678299998
 31
0.0
  0
LINE
  5
445A
  8
2-0
  6
CONTINUOUS
 62
     3
 10
24966.216480999999
 20
18175.136254999961
 30
0.0
 11
25013.222128999991
 21
18175.136254999961
 31
0.0
  0
LINE
  5
445B
  8
2-0
  6
CONTINUOUS
 62
     6
 10
22829.132127000012
 20
14338.480492999979
 30
0.0
 11
21798.782808000022
 21
14338.480492999979
 31
0.0
  0
LINE
  5
445C
  8
2-0
  6
CONTINUOUS
 62
     6
 10
23105.722340000011
 20
13883.13579299997
 30
0.0
 11
22829.132127000012
 21
14338.480492999979
 31
0.0
  0
LINE
  5
445D
  8
2-0
  6
CONTINUOUS
 62
     6
 10
25209.26177199998
 20
19861.815534000001
 30
0.0
 11
25749.725771000001
 21
20449.138696999991
 31
0.0
  0
LINE
  5
445E
  8
2-0
  6
CONTINUOUS
 62
     6
 10
24887.692937999989
 20
18811.737566499982
 30
0.0
 11
24456.161845999992
 21
18569.583058499949
 31
0.0
  0
LINE
  5
445F
  8
2-0
  6
CONTINUOUS
 62
     3
 10
23220.724452000009
 20
19719.135793999991
 30
0.0
 11
23075.732634000011
 21
19719.135793999991
 31
0.0
  0
LINE
  5
4460
  8
2-0
  6
CONTINUOUS
 62
     3
 10
23190.722868000001
 20
19631.245168999991
 30
0.0
 11
23105.730258000011
 21
19631.245168999991
 31
0.0
  0
LINE
  5
4461
  8
2-0
  6
CONTINUOUS
 62
     3
 10
23075.732634000011
 20
19719.135793999991
 30
0.0
 11
23075.732634000011
 21
19689.132230999989
 31
0.0
  0
LINE
  5
4462
  8
2-0
  6
CONTINUOUS
 62
     3
 10
23075.732634000011
 20
19689.132230999989
 30
0.0
 11
23081.728595000011
 21
19689.132230999989
 31
0.0
  0
LINE
  5
4463
  8
2-0
  6
CONTINUOUS
 62
     3
 10
23105.730258000011
 20
19631.245168999991
 30
0.0
 11
23105.730258000011
 21
19716.243717000001
 31
0.0
  0
LINE
  5
4464
  8
2-0
  6
CONTINUOUS
 62
     3
 10
23105.730258000011
 20
19716.243717000001
 30
0.0
 11
23125.725375000002
 21
19716.243717000001
 31
0.0
  0
LINE
  5
4465
  8
2-0
  6
CONTINUOUS
 62
     3
 10
23066.110194000001
 20
19689.132230999989
 30
0.0
 11
23066.110194000001
 21
19719.135793999991
 31
0.0
  0
LINE
  5
4466
  8
2-0
  6
CONTINUOUS
 62
     3
 10
23084.111936000001
 20
19689.132230999989
 30
0.0
 11
23066.110194000001
 21
19689.132230999989
 31
0.0
  0
LINE
  5
4467
  8
2-0
  6
CONTINUOUS
 62
     3
 10
23084.111936000001
 20
19714.141468000002
 30
0.0
 11
23084.111936000001
 21
19689.132230999989
 31
0.0
  0
LINE
  5
4468
  8
2-0
  6
CONTINUOUS
 62
     3
 10
23079.111672000021
 20
19714.141468000002
 30
0.0
 11
23084.111936000001
 21
19714.141468000002
 31
0.0
  0
LINE
  5
4469
  8
2-0
  6
CONTINUOUS
 62
     3
 10
23079.111672000021
 20
19707.135952000001
 30
0.0
 11
23079.111672000021
 21
19714.141468000002
 31
0.0
  0
LINE
  5
446A
  8
2-0
  6
CONTINUOUS
 62
     3
 10
23170.725771000009
 20
19716.243717000001
 30
0.0
 11
23190.722868000001
 21
19716.243717000001
 31
0.0
  0
LINE
  5
446B
  8
2-0
  6
CONTINUOUS
 62
     3
 10
23190.722868000001
 20
19716.243717000001
 30
0.0
 11
23190.722868000001
 21
19631.245168999991
 31
0.0
  0
LINE
  5
446C
  8
2-0
  6
CONTINUOUS
 62
     3
 10
23217.339475000012
 20
19707.135952000001
 30
0.0
 11
23217.339475000012
 21
19714.141468000002
 31
0.0
  0
LINE
  5
446D
  8
2-0
  6
CONTINUOUS
 62
     3
 10
23217.339475000012
 20
19714.141468000002
 30
0.0
 11
23212.339210999999
 21
19714.141468000002
 31
0.0
  0
LINE
  5
446E
  8
2-0
  6
CONTINUOUS
 62
     3
 10
23212.339210999999
 20
19714.141468000002
 30
0.0
 11
23212.339210999999
 21
19689.132230999989
 31
0.0
  0
LINE
  5
446F
  8
2-0
  6
CONTINUOUS
 62
     3
 10
23212.339210999999
 20
19689.132230999989
 30
0.0
 11
23230.340953000021
 21
19689.132230999989
 31
0.0
  0
LINE
  5
4470
  8
2-0
  6
CONTINUOUS
 62
     3
 10
23230.340953000021
 20
19689.132230999989
 30
0.0
 11
23230.340953000021
 21
19719.135793999991
 31
0.0
  0
LINE
  5
4471
  8
2-0
  6
CONTINUOUS
 62
     3
 10
23220.724452000009
 20
19689.132230999989
 30
0.0
 11
23214.72650999999
 21
19689.132230999989
 31
0.0
  0
LINE
  5
4472
  8
2-0
  6
CONTINUOUS
 62
     3
 10
23220.724452000009
 20
19719.135793999991
 30
0.0
 11
23220.724452000009
 21
19689.132230999989
 31
0.0
  0
LINE
  5
4473
  8
2-0
  6
CONTINUOUS
 62
     6
 10
25749.725771000001
 20
20449.138696999991
 30
0.0
 11
26949.719832999981
 21
20449.138696999991
 31
0.0
  0
LINE
  5
4474
  8
2-0
  6
CONTINUOUS
 62
     3
 10
25057.220888
 20
18246.232644999978
 30
0.0
 11
25057.220888
 21
18890.04336249995
 31
0.0
  0
LINE
  5
4475
  8
2-0
  6
CENTER2
 62
     6
 10
25014.72260400001
 20
13600.642655999971
 30
0.0
 11
25014.72260400001
 21
14756.511414000001
 31
0.0
  0
LINE
  5
4476
  8
2-0
  6
CONTINUOUS
 62
     3
 10
25027.223264
 20
13923.175515999979
 30
0.0
 11
25057.220888
 21
13923.175515999979
 31
0.0
  0
LINE
  5
4477
  8
2-0
  6
CONTINUOUS
 62
     3
 10
25027.223264
 20
13905.176742999951
 30
0.0
 11
25027.223264
 21
13923.175515999979
 31
0.0
  0
LINE
  5
4478
  8
2-0
  6
CONTINUOUS
 62
     3
 10
25052.220624000009
 20
13905.176742999951
 30
0.0
 11
25027.223264
 21
13905.176742999951
 31
0.0
  0
LINE
  5
4479
  8
2-0
  6
CONTINUOUS
 62
     3
 10
25052.220624000009
 20
13910.174037999979
 30
0.0
 11
25052.220624000009
 21
13905.176742999951
 31
0.0
  0
LINE
  5
447A
  8
2-0
  6
CONTINUOUS
 62
     3
 10
25045.219067000002
 20
13910.174037999979
 30
0.0
 11
25052.220624000009
 21
13910.174037999979
 31
0.0
  0
LINE
  5
447B
  8
2-0
  6
CONTINUOUS
 62
     3
 10
24972.222340000011
 20
13883.13579299997
 30
0.0
 11
25004.221258000009
 21
13883.13579299997
 31
0.0
  0
LINE
  5
447C
  8
2-0
  6
CONTINUOUS
 62
     3
 10
24972.222340000011
 20
13798.140213999979
 30
0.0
 11
24972.222340000011
 21
13883.13579299997
 31
0.0
  0
LINE
  5
447D
  8
2-0
  6
CONTINUOUS
 62
     3
 10
25057.220888
 20
13798.140213999979
 30
0.0
 11
24972.222340000011
 21
13798.140213999979
 31
0.0
  0
LINE
  5
447E
  8
2-0
  6
CONTINUOUS
 62
     3
 10
25057.220888
 20
13913.144304999971
 30
0.0
 11
25057.220888
 21
13798.140213999979
 31
0.0
  0
LINE
  5
447F
  8
2-0
  6
CONTINUOUS
 62
     3
 10
25027.223264
 20
13913.144304999971
 30
0.0
 11
25057.220888
 21
13913.144304999971
 31
0.0
  0
LINE
  5
4480
  8
2-0
  6
CONTINUOUS
 62
     3
 10
25027.223264
 20
13907.13943599997
 30
0.0
 11
25027.223264
 21
13913.144304999971
 31
0.0
  0
LINE
  5
4481
  8
2-0
  6
CONTINUOUS
 62
     3
 10
25045.219067000002
 20
14614.236609999971
 30
0.0
 11
25052.220624000009
 21
14614.236609999971
 31
0.0
  0
LINE
  5
4482
  8
2-0
  6
CONTINUOUS
 62
     3
 10
25052.220624000009
 20
14614.236609999971
 30
0.0
 11
25052.220624000009
 21
14609.23139699998
 31
0.0
  0
LINE
  5
4483
  8
2-0
  6
CONTINUOUS
 62
     3
 10
25052.220624000009
 20
14609.23139699998
 30
0.0
 11
25027.223264
 21
14609.23139699998
 31
0.0
  0
LINE
  5
4484
  8
2-0
  6
CONTINUOUS
 62
     3
 10
25027.223264
 20
14609.23139699998
 30
0.0
 11
25027.223264
 21
14627.23808799998
 31
0.0
  0
LINE
  5
4485
  8
2-0
  6
CONTINUOUS
 62
     3
 10
25027.223264
 20
14627.23808799998
 30
0.0
 11
25057.220888
 21
14627.23808799998
 31
0.0
  0
LINE
  5
4486
  8
2-0
  6
CONTINUOUS
 62
     3
 10
25027.223264
 20
14611.140642999961
 30
0.0
 11
25027.223264
 21
14617.137594999949
 31
0.0
  0
LINE
  5
4487
  8
2-0
  6
CONTINUOUS
 62
     3
 10
25027.223264
 20
14617.137594999949
 30
0.0
 11
25057.220888
 21
14617.137594999949
 31
0.0
  0
LINE
  5
4488
  8
2-0
  6
CONTINUOUS
 62
     3
 10
25057.220888
 20
14580.13742299998
 30
0.0
 11
25057.220888
 21
14617.137594999949
 31
0.0
  0
LINE
  5
4489
  8
2-0
  6
CONTINUOUS
 62
     3
 10
25027.223264
 20
14580.13742299998
 30
0.0
 11
25057.220888
 21
14580.13742299998
 31
0.0
  0
LINE
  5
448A
  8
2-0
  6
CONTINUOUS
 62
     3
 10
25027.223264
 20
14586.14031299998
 30
0.0
 11
25027.223264
 21
14580.13742299998
 31
0.0
  0
LINE
  5
448B
  8
2-0
  6
CONTINUOUS
 62
     3
 10
25027.223264
 20
14570.04187799998
 30
0.0
 11
25057.220888
 21
14570.04187799998
 31
0.0
  0
LINE
  5
448C
  8
2-0
  6
CONTINUOUS
 62
     3
 10
25027.223264
 20
14588.03768199998
 30
0.0
 11
25027.223264
 21
14570.04187799998
 31
0.0
  0
LINE
  5
448D
  8
2-0
  6
CONTINUOUS
 62
     3
 10
25052.220624000009
 20
14588.03768199998
 30
0.0
 11
25027.223264
 21
14588.03768199998
 31
0.0
  0
LINE
  5
448E
  8
2-0
  6
CONTINUOUS
 62
     3
 10
25052.220624000009
 20
14583.043355999949
 30
0.0
 11
25052.220624000009
 21
14588.03768199998
 31
0.0
  0
LINE
  5
448F
  8
2-0
  6
CONTINUOUS
 62
     3
 10
25045.219067000002
 20
14583.043355999949
 30
0.0
 11
25052.220624000009
 21
14583.043355999949
 31
0.0
  0
LINE
  5
4490
  8
2-0
  6
CONTINUOUS
 62
     6
 10
23431.129514
 20
18569.583058499949
 30
0.0
 11
24456.161845999992
 21
18569.583058499949
 31
0.0
  0
LINE
  5
4491
  8
2-0
  6
CONTINUOUS
 62
     3
 10
24969.338180999999
 20
16801.135792999969
 30
0.0
 11
24969.338180999999
 21
16716.139224999981
 31
0.0
  0
LINE
  5
4492
  8
2-0
  6
CONTINUOUS
 62
     3
 10
25057.220888
 20
16831.135396999969
 30
0.0
 11
25057.220888
 21
16686.133681999981
 31
0.0
  0
LINE
  5
4493
  8
2-0
  6
CONTINUOUS
 62
     3
 10
25057.220888
 20
16676.525098999991
 30
0.0
 11
25057.220888
 21
16029.23313949998
 31
0.0
  0
LINE
  5
4494
  8
2-0
  6
CONTINUOUS
 62
     3
 10
25045.219067000002
 20
15284.284363000001
 30
0.0
 11
25052.220624000009
 21
15284.284363000001
 31
0.0
  0
LINE
  5
4495
  8
2-0
  6
CONTINUOUS
 62
     3
 10
25052.220624000009
 20
15284.284363000001
 30
0.0
 11
25052.220624000009
 21
15289.284626999981
 31
0.0
  0
LINE
  5
4496
  8
2-0
  6
CONTINUOUS
 62
     3
 10
25052.220624000009
 20
15289.284626999981
 30
0.0
 11
25027.223264
 21
15289.284626999981
 31
0.0
  0
LINE
  5
4497
  8
2-0
  6
CONTINUOUS
 62
     3
 10
25027.223264
 20
15289.284626999981
 30
0.0
 11
25027.223264
 21
15271.27694599998
 31
0.0
  0
LINE
  5
4498
  8
2-0
  6
CONTINUOUS
 62
     3
 10
25027.223264
 20
15271.27694599998
 30
0.0
 11
25057.220888
 21
15271.27694599998
 31
0.0
  0
LINE
  5
4499
  8
2-0
  6
CONTINUOUS
 62
     3
 10
25027.223264
 20
15287.37538099998
 30
0.0
 11
25027.223264
 21
15281.378430000001
 31
0.0
  0
LINE
  5
449A
  8
2-0
  6
CONTINUOUS
 62
     3
 10
25027.223264
 20
15281.378430000001
 30
0.0
 11
25057.220888
 21
15281.378430000001
 31
0.0
  0
LINE
  5
449B
  8
2-0
  6
CONTINUOUS
 62
     3
 10
25057.220888
 20
15281.378430000001
 30
0.0
 11
25057.220888
 21
15318.377611
 31
0.0
  0
LINE
  5
449C
  8
2-0
  6
CONTINUOUS
 62
     3
 10
25027.223264
 20
15318.377611
 30
0.0
 11
25057.220888
 21
15318.377611
 31
0.0
  0
LINE
  5
449D
  8
2-0
  6
CONTINUOUS
 62
     3
 10
25027.223264
 20
15312.375710999981
 30
0.0
 11
25027.223264
 21
15318.377611
 31
0.0
  0
LINE
  5
449E
  8
2-0
  6
CONTINUOUS
 62
     3
 10
25027.223264
 20
15328.47315599998
 30
0.0
 11
25057.220888
 21
15328.47315599998
 31
0.0
  0
LINE
  5
449F
  8
2-0
  6
CONTINUOUS
 62
     3
 10
25027.223264
 20
15310.47735299998
 30
0.0
 11
25027.223264
 21
15328.47315599998
 31
0.0
  0
LINE
  5
44A0
  8
2-0
  6
CONTINUOUS
 62
     3
 10
25052.220624000009
 20
15310.47735299998
 30
0.0
 11
25027.223264
 21
15310.47735299998
 31
0.0
  0
LINE
  5
44A1
  8
2-0
  6
CONTINUOUS
 62
     3
 10
25052.220624000009
 20
15315.47167799998
 30
0.0
 11
25052.220624000009
 21
15310.47735299998
 31
0.0
  0
LINE
  5
44A2
  8
2-0
  6
CONTINUOUS
 62
     3
 10
25045.219067000002
 20
15315.47167799998
 30
0.0
 11
25052.220624000009
 21
15315.47167799998
 31
0.0
  0
LINE
  5
44A3
  8
2-0
  6
CONTINUOUS
 62
     3
 10
25045.219067000002
 20
16016.231661499971
 30
0.0
 11
25052.220624000009
 21
16016.231661499971
 31
0.0
  0
LINE
  5
44A4
  8
2-0
  6
CONTINUOUS
 62
     3
 10
25052.220624000009
 20
16016.231661499971
 30
0.0
 11
25052.220624000009
 21
16011.225458499979
 31
0.0
  0
LINE
  5
44A5
  8
2-0
  6
CONTINUOUS
 62
     3
 10
25052.220624000009
 20
16011.225458499979
 30
0.0
 11
25027.223264
 21
16011.225458499979
 31
0.0
  0
LINE
  5
44A6
  8
2-0
  6
CONTINUOUS
 62
     3
 10
25027.223264
 20
16011.225458499979
 30
0.0
 11
25027.223264
 21
16029.23313949998
 31
0.0
  0
LINE
  5
44A7
  8
2-0
  6
CONTINUOUS
 62
     3
 10
25027.223264
 20
16029.23313949998
 30
0.0
 11
25057.220888
 21
16029.23313949998
 31
0.0
  0
LINE
  5
44A8
  8
2-0
  6
CONTINUOUS
 62
     3
 10
25027.223264
 20
16013.13470449998
 30
0.0
 11
25027.223264
 21
16019.13759449998
 31
0.0
  0
LINE
  5
44A9
  8
2-0
  6
CONTINUOUS
 62
     3
 10
25027.223264
 20
16019.13759449998
 30
0.0
 11
25057.220888
 21
16019.13759449998
 31
0.0
  0
LINE
  5
44AA
  8
2-0
  6
CONTINUOUS
 62
     3
 10
25057.220888
 20
15982.137423499969
 30
0.0
 11
25057.220888
 21
16019.13759449998
 31
0.0
  0
LINE
  5
44AB
  8
2-0
  6
CONTINUOUS
 62
     3
 10
25027.223264
 20
15982.137423499969
 30
0.0
 11
25057.220888
 21
15982.137423499969
 31
0.0
  0
LINE
  5
44AC
  8
2-0
  6
CONTINUOUS
 62
     3
 10
25027.223264
 20
15988.134374499979
 30
0.0
 11
25027.223264
 21
15982.137423499969
 31
0.0
  0
LINE
  5
44AD
  8
2-0
  6
CONTINUOUS
 62
     3
 10
25027.223264
 20
15972.03692949998
 30
0.0
 11
25057.220888
 21
15972.03692949998
 31
0.0
  0
LINE
  5
44AE
  8
2-0
  6
CONTINUOUS
 62
     3
 10
25027.223264
 20
15990.03867149996
 30
0.0
 11
25027.223264
 21
15972.03692949998
 31
0.0
  0
LINE
  5
44AF
  8
2-0
  6
CONTINUOUS
 62
     3
 10
25052.220624000009
 20
15990.03867149996
 30
0.0
 11
25027.223264
 21
15990.03867149996
 31
0.0
  0
LINE
  5
44B0
  8
2-0
  6
CONTINUOUS
 62
     3
 10
25052.220624000009
 20
15985.038407499949
 30
0.0
 11
25052.220624000009
 21
15990.03867149996
 31
0.0
  0
LINE
  5
44B1
  8
2-0
  6
CONTINUOUS
 62
     3
 10
25045.219067000002
 20
15985.038407499949
 30
0.0
 11
25052.220624000009
 21
15985.038407499949
 31
0.0
  0
LINE
  5
44B2
  8
2-0
  6
CONTINUOUS
 62
     3
 10
25045.219067000002
 20
16689.520637999991
 30
0.0
 11
25052.220624000009
 21
16689.520637999991
 31
0.0
  0
LINE
  5
44B3
  8
2-0
  6
CONTINUOUS
 62
     3
 10
25052.220624000009
 20
16689.520637999991
 30
0.0
 11
25052.220624000009
 21
16694.52090199996
 31
0.0
  0
LINE
  5
44B4
  8
2-0
  6
CONTINUOUS
 62
     3
 10
25052.220624000009
 20
16694.52090199996
 30
0.0
 11
25027.223264
 21
16694.52090199996
 31
0.0
  0
LINE
  5
44B5
  8
2-0
  6
CONTINUOUS
 62
     3
 10
25027.223264
 20
16694.52090199996
 30
0.0
 11
25027.223264
 21
16676.525098999991
 31
0.0
  0
LINE
  5
44B6
  8
2-0
  6
CONTINUOUS
 62
     3
 10
25027.223264
 20
16676.525098999991
 30
0.0
 11
25057.220888
 21
16676.525098999991
 31
0.0
  0
LINE
  5
44B7
  8
2-0
  6
CONTINUOUS
 62
     3
 10
25054.334750000009
 20
16716.139224999981
 30
0.0
 11
25054.334750000009
 21
16736.13434199999
 31
0.0
  0
LINE
  5
44B8
  8
2-0
  6
CONTINUOUS
 62
     3
 10
24969.338180999999
 20
16716.139224999981
 30
0.0
 11
25054.334750000009
 21
16716.139224999981
 31
0.0
  0
LINE
  5
44B9
  8
2-0
  6
CONTINUOUS
 62
     3
 10
25027.223264
 20
16686.133681999981
 30
0.0
 11
25027.223264
 21
16692.135581999992
 31
0.0
  0
LINE
  5
44BA
  8
2-0
  6
CONTINUOUS
 62
     3
 10
25057.220888
 20
16686.133681999981
 30
0.0
 11
25027.223264
 21
16686.133681999981
 31
0.0
  0
LINE
  5
44BB
  8
2-0
  6
CONTINUOUS
 62
     3
 10
25057.220888
 20
17545.23858299998
 30
0.0
 11
25057.220888
 21
18189.042372999989
 31
0.0
  0
LINE
  5
44BC
  8
2-0
  6
CONTINUOUS
 62
     3
 10
25057.220888
 20
16840.743980999981
 30
0.0
 11
25057.220888
 21
17488.048311999981
 31
0.0
  0
LINE
  5
44BD
  8
2-0
  6
CONTINUOUS
 62
     3
 10
25057.220888
 20
16831.135396999969
 30
0.0
 11
25027.223264
 21
16831.135396999969
 31
0.0
  0
LINE
  5
44BE
  8
2-0
  6
CONTINUOUS
 62
     3
 10
25027.223264
 20
16831.135396999969
 30
0.0
 11
25027.223264
 21
16825.133496999981
 31
0.0
  0
LINE
  5
44BF
  8
2-0
  6
CONTINUOUS
 62
     3
 10
25027.223264
 20
16840.743980999981
 30
0.0
 11
25057.220888
 21
16840.743980999981
 31
0.0
  0
LINE
  5
44C0
  8
2-0
  6
CONTINUOUS
 62
     3
 10
25027.223264
 20
16822.748176999969
 30
0.0
 11
25027.223264
 21
16840.743980999981
 31
0.0
  0
LINE
  5
44C1
  8
2-0
  6
CONTINUOUS
 62
     3
 10
25052.220624000009
 20
16822.748176999969
 30
0.0
 11
25027.223264
 21
16822.748176999969
 31
0.0
  0
LINE
  5
44C2
  8
2-0
  6
CONTINUOUS
 62
     3
 10
25052.220624000009
 20
16827.742502999979
 30
0.0
 11
25052.220624000009
 21
16822.748176999969
 31
0.0
  0
LINE
  5
44C3
  8
2-0
  6
CONTINUOUS
 62
     3
 10
25045.219067000002
 20
16827.742502999979
 30
0.0
 11
25052.220624000009
 21
16827.742502999979
 31
0.0
  0
LINE
  5
44C4
  8
2-0
  6
CONTINUOUS
 62
     3
 10
25054.334750000009
 20
16801.135792999969
 30
0.0
 11
24969.338180999999
 21
16801.135792999969
 31
0.0
  0
LINE
  5
44C5
  8
2-0
  6
CONTINUOUS
 62
     3
 10
25054.334750000009
 20
16781.134737999972
 30
0.0
 11
25054.334750000009
 21
16801.135792999969
 31
0.0
  0
LINE
  5
44C6
  8
2-0
  6
CONTINUOUS
 62
     3
 10
25045.219067000002
 20
17501.043851999992
 30
0.0
 11
25052.220624000009
 21
17501.043851999992
 31
0.0
  0
LINE
  5
44C7
  8
2-0
  6
CONTINUOUS
 62
     3
 10
25052.220624000009
 20
17501.043851999992
 30
0.0
 11
25052.220624000009
 21
17506.04411499995
 31
0.0
  0
LINE
  5
44C8
  8
2-0
  6
CONTINUOUS
 62
     3
 10
25052.220624000009
 20
17506.04411499995
 30
0.0
 11
25027.223264
 21
17506.04411499995
 31
0.0
  0
LINE
  5
44C9
  8
2-0
  6
CONTINUOUS
 62
     3
 10
25027.223264
 20
17506.04411499995
 30
0.0
 11
25027.223264
 21
17488.048311999981
 31
0.0
  0
LINE
  5
44CA
  8
2-0
  6
CONTINUOUS
 62
     3
 10
25027.223264
 20
17488.048311999981
 30
0.0
 11
25057.220888
 21
17488.048311999981
 31
0.0
  0
LINE
  5
44CB
  8
2-0
  6
CONTINUOUS
 62
     3
 10
25027.223264
 20
17504.139818999971
 30
0.0
 11
25027.223264
 21
17498.137917999979
 31
0.0
  0
LINE
  5
44CC
  8
2-0
  6
CONTINUOUS
 62
     3
 10
25027.223264
 20
17498.137917999979
 30
0.0
 11
25057.220888
 21
17498.137917999979
 31
0.0
  0
LINE
  5
44CD
  8
2-0
  6
CONTINUOUS
 62
     3
 10
25057.220888
 20
17535.137099999982
 30
0.0
 11
25057.220888
 21
17498.137917999979
 31
0.0
  0
LINE
  5
44CE
  8
2-0
  6
CONTINUOUS
 62
     3
 10
25027.223264
 20
17535.137099999982
 30
0.0
 11
25057.220888
 21
17535.137099999982
 31
0.0
  0
LINE
  5
44CF
  8
2-0
  6
CONTINUOUS
 62
     3
 10
25027.223264
 20
17529.141137999981
 30
0.0
 11
25027.223264
 21
17535.137099999982
 31
0.0
  0
LINE
  5
44D0
  8
2-0
  6
CONTINUOUS
 62
     3
 10
25027.223264
 20
17545.23858299998
 30
0.0
 11
25057.220888
 21
17545.23858299998
 31
0.0
  0
LINE
  5
44D1
  8
2-0
  6
CONTINUOUS
 62
     3
 10
25027.223264
 20
17527.24277999996
 30
0.0
 11
25027.223264
 21
17545.23858299998
 31
0.0
  0
LINE
  5
44D2
  8
2-0
  6
CONTINUOUS
 62
     3
 10
25052.220624000009
 20
17527.24277999996
 30
0.0
 11
25027.223264
 21
17527.24277999996
 31
0.0
  0
LINE
  5
44D3
  8
2-0
  6
CONTINUOUS
 62
     3
 10
25052.220624000009
 20
17532.23116699998
 30
0.0
 11
25052.220624000009
 21
17527.24277999996
 31
0.0
  0
LINE
  5
44D4
  8
2-0
  6
CONTINUOUS
 62
     3
 10
25045.219067000002
 20
17532.23116699998
 30
0.0
 11
25052.220624000009
 21
17532.23116699998
 31
0.0
  0
LINE
  5
44D5
  8
2-0
  6
CONTINUOUS
 62
     3
 10
25045.219067000002
 20
18233.23710499996
 30
0.0
 11
25052.220624000009
 21
18233.23710499996
 31
0.0
  0
LINE
  5
44D6
  8
2-0
  6
CONTINUOUS
 62
     3
 10
25052.220624000009
 20
18233.23710499996
 30
0.0
 11
25052.220624000009
 21
18228.230902999981
 31
0.0
  0
LINE
  5
44D7
  8
2-0
  6
CONTINUOUS
 62
     3
 10
25052.220624000009
 20
18228.230902999981
 30
0.0
 11
25027.223264
 21
18228.230902999981
 31
0.0
  0
LINE
  5
44D8
  8
2-0
  6
CONTINUOUS
 62
     3
 10
25027.223264
 20
18228.230902999981
 30
0.0
 11
25027.223264
 21
18246.232644999978
 31
0.0
  0
LINE
  5
44D9
  8
2-0
  6
CONTINUOUS
 62
     3
 10
25027.223264
 20
18246.232644999978
 30
0.0
 11
25057.220888
 21
18246.232644999978
 31
0.0
  0
LINE
  5
44DA
  8
2-0
  6
CONTINUOUS
 62
     3
 10
25027.223264
 20
18230.141137999992
 30
0.0
 11
25027.223264
 21
18236.137099999982
 31
0.0
  0
LINE
  5
44DB
  8
2-0
  6
CONTINUOUS
 62
     3
 10
25027.223264
 20
18236.137099999982
 30
0.0
 11
25057.220888
 21
18236.137099999982
 31
0.0
  0
LINE
  5
44DC
  8
2-0
  6
CONTINUOUS
 62
     3
 10
25057.220888
 20
18199.137917999949
 30
0.0
 11
25057.220888
 21
18236.137099999982
 31
0.0
  0
LINE
  5
44DD
  8
2-0
  6
CONTINUOUS
 62
     3
 10
25027.223264
 20
18199.137917999949
 30
0.0
 11
25057.220888
 21
18199.137917999949
 31
0.0
  0
LINE
  5
44DE
  8
2-0
  6
CONTINUOUS
 62
     3
 10
25027.223264
 20
18205.13387999995
 30
0.0
 11
25027.223264
 21
18199.137917999949
 31
0.0
  0
LINE
  5
44DF
  8
2-0
  6
CONTINUOUS
 62
     3
 10
25027.223264
 20
18189.042372999989
 30
0.0
 11
25057.220888
 21
18189.042372999989
 31
0.0
  0
LINE
  5
44E0
  8
2-0
  6
CONTINUOUS
 62
     3
 10
25027.223264
 20
18207.04411499995
 30
0.0
 11
25027.223264
 21
18189.042372999989
 31
0.0
  0
LINE
  5
44E1
  8
2-0
  6
CONTINUOUS
 62
     3
 10
25052.220624000009
 20
18207.04411499995
 30
0.0
 11
25027.223264
 21
18207.04411499995
 31
0.0
  0
LINE
  5
44E2
  8
2-0
  6
CONTINUOUS
 62
     3
 10
25052.220624000009
 20
18202.03791299996
 30
0.0
 11
25052.220624000009
 21
18207.04411499995
 31
0.0
  0
LINE
  5
44E3
  8
2-0
  6
CONTINUOUS
 62
     3
 10
25045.219067000002
 20
18202.03791299996
 30
0.0
 11
25052.220624000009
 21
18202.03791299996
 31
0.0
  0
LINE
  5
44E4
  8
2-0
  6
CONTINUOUS
 62
     3
 10
25045.219067000002
 20
18934.23215649998
 30
0.0
 11
25052.220624000009
 21
18934.23215649998
 31
0.0
  0
LINE
  5
44E5
  8
2-0
  6
CONTINUOUS
 62
     3
 10
25052.220624000009
 20
18934.23215649998
 30
0.0
 11
25052.220624000009
 21
18929.231892499982
 31
0.0
  0
LINE
  5
44E6
  8
2-0
  6
CONTINUOUS
 62
     3
 10
25052.220624000009
 20
18929.231892499982
 30
0.0
 11
25027.223264
 21
18929.231892499982
 31
0.0
  0
LINE
  5
44E7
  8
2-0
  6
CONTINUOUS
 62
     3
 10
25027.223264
 20
18929.231892499982
 30
0.0
 11
25027.223264
 21
18947.23363449996
 31
0.0
  0
LINE
  5
44E8
  8
2-0
  6
CONTINUOUS
 62
     3
 10
25027.223264
 20
18947.23363449996
 30
0.0
 11
25057.220888
 21
18947.23363449996
 31
0.0
  0
LINE
  5
44E9
  8
2-0
  6
CONTINUOUS
 62
     3
 10
25027.223264
 20
18931.13420949996
 30
0.0
 11
25027.223264
 21
18937.13808949996
 31
0.0
  0
LINE
  5
44EA
  8
2-0
  6
CONTINUOUS
 62
     3
 10
25027.223264
 20
18937.13808949996
 30
0.0
 11
25057.220888
 21
18937.13808949996
 31
0.0
  0
LINE
  5
44EB
  8
2-0
  6
CONTINUOUS
 62
     3
 10
25057.220888
 20
18900.13692849996
 30
0.0
 11
25057.220888
 21
18937.13808949996
 31
0.0
  0
LINE
  5
44EC
  8
2-0
  6
CONTINUOUS
 62
     3
 10
25027.223264
 20
18900.13692849996
 30
0.0
 11
25057.220888
 21
18900.13692849996
 31
0.0
  0
LINE
  5
44ED
  8
2-0
  6
CONTINUOUS
 62
     3
 10
25027.223264
 20
18906.134869499961
 30
0.0
 11
25027.223264
 21
18900.13692849996
 31
0.0
  0
LINE
  5
44EE
  8
2-0
  6
CONTINUOUS
 62
     3
 10
25027.223264
 20
18890.04336249995
 30
0.0
 11
25057.220888
 21
18890.04336249995
 31
0.0
  0
LINE
  5
44EF
  8
2-0
  6
CONTINUOUS
 62
     3
 10
25027.223264
 20
18908.039166499959
 30
0.0
 11
25027.223264
 21
18890.04336249995
 31
0.0
  0
LINE
  5
44F0
  8
2-0
  6
CONTINUOUS
 62
     3
 10
25052.220624000009
 20
18908.039166499959
 30
0.0
 11
25027.223264
 21
18908.039166499959
 31
0.0
  0
LINE
  5
44F1
  8
2-0
  6
CONTINUOUS
 62
     3
 10
25052.220624000009
 20
18903.038902499949
 30
0.0
 11
25052.220624000009
 21
18908.039166499959
 31
0.0
  0
LINE
  5
44F2
  8
2-0
  6
CONTINUOUS
 62
     3
 10
25045.219067000002
 20
18903.038902499949
 30
0.0
 11
25052.220624000009
 21
18903.038902499949
 31
0.0
  0
LINE
  5
44F3
  8
2-0
  6
CONTINUOUS
 62
     3
 10
24948.220677000001
 20
19689.132230999989
 30
0.0
 11
24942.218776999991
 21
19689.132230999989
 31
0.0
  0
LINE
  5
44F4
  8
2-0
  6
CONTINUOUS
 62
     3
 10
24942.218776999991
 20
19689.132230999989
 30
0.0
 11
24942.218776999991
 21
19719.135793999991
 31
0.0
  0
LINE
  5
44F5
  8
2-0
  6
CONTINUOUS
 62
     3
 10
24942.218776999991
 20
19719.135793999991
 30
0.0
 11
25057.220888
 21
19719.135793999991
 31
0.0
  0
LINE
  5
44F6
  8
2-0
  6
CONTINUOUS
 62
     3
 10
24931.921320999991
 20
19689.132230999989
 30
0.0
 11
24931.921320999991
 21
19719.135793999991
 31
0.0
  0
LINE
  5
44F7
  8
2-0
  6
CONTINUOUS
 62
     3
 10
24949.923062999991
 20
19689.132230999989
 30
0.0
 11
24931.921320999991
 21
19689.132230999989
 31
0.0
  0
LINE
  5
44F8
  8
2-0
  6
CONTINUOUS
 62
     3
 10
24949.923062999991
 20
19714.141468000002
 30
0.0
 11
24949.923062999991
 21
19689.132230999989
 31
0.0
  0
LINE
  5
44F9
  8
2-0
  6
CONTINUOUS
 62
     3
 10
24944.922799000011
 20
19714.141468000002
 30
0.0
 11
24949.923062999991
 21
19714.141468000002
 31
0.0
  0
LINE
  5
44FA
  8
2-0
  6
CONTINUOUS
 62
     3
 10
24944.922799000011
 20
19707.135952000001
 30
0.0
 11
24944.922799000011
 21
19714.141468000002
 31
0.0
  0
LINE
  5
44FB
  8
2-0
  6
CONTINUOUS
 62
     3
 10
25045.219067000002
 20
19606.83572499999
 30
0.0
 11
25052.220624000009
 21
19606.83572499999
 31
0.0
  0
LINE
  5
44FC
  8
2-0
  6
CONTINUOUS
 62
     3
 10
25052.220624000009
 20
19606.83572499999
 30
0.0
 11
25052.220624000009
 21
19611.843906999991
 31
0.0
  0
LINE
  5
44FD
  8
2-0
  6
CONTINUOUS
 62
     3
 10
25052.220624000009
 20
19611.843906999991
 30
0.0
 11
25027.223264
 21
19611.843906999991
 31
0.0
  0
LINE
  5
44FE
  8
2-0
  6
CONTINUOUS
 62
     3
 10
25027.223264
 20
19611.843906999991
 30
0.0
 11
25027.223264
 21
19593.842164999991
 31
0.0
  0
LINE
  5
44FF
  8
2-0
  6
CONTINUOUS
 62
     3
 10
25027.223264
 20
19593.842164999991
 30
0.0
 11
25057.220888
 21
19593.842164999991
 31
0.0
  0
LINE
  5
4500
  8
2-0
  6
CONTINUOUS
 62
     3
 10
25057.220888
 20
19634.139224999992
 30
0.0
 11
24976.218987999979
 21
19634.139224999992
 31
0.0
  0
LINE
  5
4501
  8
2-0
  6
CONTINUOUS
 62
     3
 10
25027.223264
 20
19604.139620999991
 30
0.0
 11
25057.220888
 21
19604.139620999991
 31
0.0
  0
LINE
  5
4502
  8
2-0
  6
CONTINUOUS
 62
     3
 10
25027.223264
 20
19610.135582999988
 30
0.0
 11
25027.223264
 21
19604.139620999991
 31
0.0
  0
LINE
  5
4503
  8
2-0
  6
CONTINUOUS
 62
     4
 10
23148.22260400001
 20
19799.138036999979
 30
0.0
 11
23148.22260400001
 21
20529.135001999992
 31
0.0
  0
LINE
  5
4504
  8
2-0
  6
CONTINUOUS
 62
     6
 10
24822.67564999999
 20
15186.70696399999
 30
0.0
 11
24366.250132000001
 21
14961.99399399998
 31
0.0
  0
LINE
  5
4505
  8
2-0
  6
CONTINUOUS
 62
     6
 10
23936.160129999989
 20
14173.684581999971
 30
0.0
 11
24456.161845999992
 21
14173.684581999971
 31
0.0
  0
LINE
  5
4506
  8
2-0
  6
CONTINUOUS
 62
     6
 10
23348.274783999979
 20
14961.99399399998
 30
0.0
 11
24366.250132000001
 21
14961.99399399998
 31
0.0
  0
LINE
  5
4507
  8
2-0
  6
CONTINUOUS
 62
     6
 10
24832.05658800001
 20
13992.740746999951
 30
0.0
 11
24456.161845999992
 21
14173.684581999971
 31
0.0
  0
LINE
  5
4508
  8
2-0
  6
CONTINUOUS
 62
     6
 10
23256.167784000008
 20
16966.318278999988
 30
0.0
 11
24456.161845999992
 21
16966.318278999988
 31
0.0
  0
LINE
  5
4509
  8
2-0
  6
CONTINUOUS
 62
     6
 10
23536.158811000001
 20
16129.12939299999
 30
0.0
 11
24456.161845999992
 21
16129.12939299999
 31
0.0
  0
LINE
  5
450A
  8
2-0
  6
CONTINUOUS
 62
     6
 10
24915.879302999969
 20
16373.042704
 30
0.0
 11
24456.161845999992
 21
16129.12939299999
 31
0.0
  0
LINE
  5
450B
  8
2-0
  6
CONTINUOUS
 62
     6
 10
24760.857263999998
 20
16862.664747999981
 30
0.0
 11
24456.161845999992
 21
16966.318278999988
 31
0.0
  0
LINE
  5
450C
  8
2-0
  6
CONTINUOUS
 62
     6
 10
24822.67564999999
 20
18104.471400999992
 30
0.0
 11
24366.250132000001
 21
17879.756451999969
 31
0.0
  0
LINE
  5
450D
  8
2-0
  6
CONTINUOUS
 62
     6
 10
23348.274783999979
 20
17879.756451999969
 30
0.0
 11
24366.250132000001
 21
17879.756451999969
 31
0.0
  0
LINE
  5
450E
  8
2-0
  6
CONTINUOUS
 62
     6
 10
24799.497467000001
 20
13671.05710099996
 30
0.0
 11
24331.55708999998
 21
13200.63638699997
 31
0.0
  0
LINE
  5
450F
  8
2-0
  6
CONTINUOUS
 62
     6
 10
23331.563687999998
 20
13200.63638699997
 30
0.0
 11
24331.55708999998
 21
13200.63638699997
 31
0.0
  0
LINE
  5
4510
  8
0-1
  6
CONTINUOUS
 62
     3
 10
10432.301005999991
 20
19198.189004
 30
0.0
 11
10432.301005999991
 21
19899.13363
 31
0.0
  0
LINE
  5
4511
  8
0-1
  6
CONTINUOUS
 62
     3
 10
10395.302813999981
 20
19216.944941999991
 30
0.0
 11
10395.302813999981
 21
19899.133629999989
 31
0.0
  0
LINE
  5
4512
  8
0-1
  6
CONTINUOUS
 62
     3
 10
9874.3023519999842
 20
16812.635952999972
 30
0.0
 11
14599.55283999998
 21
16812.635952999972
 31
0.0
  0
LINE
  5
4513
  8
0-1
  6
CONTINUOUS
 62
     3
 10
9924.3029719999922
 20
13700.13736499999
 30
0.0
 11
9924.3029719999922
 21
19899.13363
 31
0.0
  0
LINE
  5
4514
  8
0-1
  6
CONTINUOUS
 62
     3
 10
9788.8029459999962
 20
13668.136467999981
 30
0.0
 11
9788.8029459999962
 21
19909.135082000001
 31
0.0
  0
LINE
  5
4515
  8
0-1
  6
CONTINUOUS
 62
     3
 10
9982.8017449999898
 20
19420.70470799999
 30
0.0
 11
9982.8017449999898
 21
19899.133629999989
 31
0.0
  0
LINE
  5
4516
  8
0-1
  6
CONTINUOUS
 62
     3
 10
10019.80290599999
 20
19401.952728
 30
0.0
 11
10019.80290599999
 21
19899.133629999989
 31
0.0
  0
LINE
  5
4517
  8
0-1
  6
CONTINUOUS
 62
     3
 10
10182.80339399999
 20
19319.333560999999
 30
0.0
 11
10182.80339399999
 21
19899.13363
 31
0.0
  0
LINE
  5
4518
  8
0-1
  6
CONTINUOUS
 62
     3
 10
10219.80158599999
 20
19300.577623000001
 30
0.0
 11
10219.80158599999
 21
19899.133629999989
 31
0.0
  0
LINE
  5
4519
  8
0-1
  6
CONTINUOUS
 62
     3
 10
10595.302483999991
 20
19115.569836999988
 30
0.0
 11
10595.302483999991
 21
19899.133629999989
 31
0.0
  0
LINE
  5
451A
  8
0-1
  6
CONTINUOUS
 62
     3
 10
10632.302656
 20
19096.81587799999
 30
0.0
 11
10632.302656
 21
19899.133629999989
 31
0.0
  0
LINE
  5
451B
  8
0-1
  6
CONTINUOUS
 62
     3
 10
10795.30116399999
 20
19014.196711000001
 30
0.0
 11
10795.30116399999
 21
19899.13363
 31
0.0
  0
LINE
  5
451C
  8
0-1
  6
CONTINUOUS
 62
     3
 10
10832.302326000001
 20
18995.444730999989
 30
0.0
 11
10832.302326000001
 21
19899.133629999989
 31
0.0
  0
LINE
  5
451D
  8
0-1
  6
CONTINUOUS
 62
     3
 10
12760.59987399998
 20
18013.049460999981
 30
0.0
 11
12922.83725799999
 21
18203.257441999991
 31
0.0
  0
LINE
  5
451E
  8
0-1
  6
CONTINUOUS
 62
     3
 10
13359.193426
 20
17168.891891999981
 30
0.0
 11
13521.43081
 21
17359.099872999988
 31
0.0
  0
LINE
  5
451F
  8
0-1
  6
CONTINUOUS
 62
     3
 10
13359.193426
 20
17168.891891999981
 30
0.0
 11
12922.83725799999
 21
18203.257441999991
 31
0.0
  0
LINE
  5
4520
  8
0-1
  6
CONTINUOUS
 62
     3
 10
9874.3023519999842
 20
16733.635345999981
 30
0.0
 11
14755.410235999991
 21
16733.635345999981
 31
0.0
  0
LINE
  5
4521
  8
0-1
  6
CONTINUOUS
 62
     3
 10
9831.8020879999967
 20
13824.137377999979
 30
0.0
 11
15051.80162599998
 21
13824.137377999979
 31
0.0
  0
LINE
  5
4522
  8
0-1
  6
CONTINUOUS
 62
     3
 10
9874.3023519999842
 20
13903.13798499999
 30
0.0
 11
15009.302351999981
 21
13903.13798499999
 31
0.0
  0
LINE
  5
4523
  8
0-1
  6
CONTINUOUS
 62
     3
 10
9788.8029459999962
 20
13668.136467999981
 30
0.0
 11
15094.80274799998
 21
13668.136467999981
 31
0.0
  0
LINE
  5
4524
  8
0-1
  6
CONTINUOUS
 62
     3
 10
9788.8029459999962
 20
13700.13736499999
 30
0.0
 11
15094.80274799998
 21
13700.13736499999
 31
0.0
  0
LINE
  5
4525
  8
0-1
  6
CONTINUOUS
 62
     3
 10
15451.08635374866
 20
16384.307079137528
 30
0.0
 11
13521.43081
 21
17359.099872999988
 31
0.0
  0
LINE
  5
4526
  8
0-1
  6
CONTINUOUS
 62
     3
 10
9874.3023519999842
 20
13824.137377999979
 30
0.0
 11
9874.3023519999842
 21
19475.701673
 31
0.0
  0
LINE
  5
4527
  8
0-1
  6
CONTINUOUS
 62
     3
 10
9831.8020879999967
 20
13824.137377999979
 30
0.0
 11
9831.8020879999967
 21
19497.242793999991
 31
0.0
  0
LINE
  5
4528
  8
0-1
  6
CONTINUOUS
 62
     3
 10
10995.302813999981
 20
18912.825563999999
 30
0.0
 11
10995.302813999981
 21
19899.13363
 31
0.0
  0
LINE
  5
4529
  8
0-1
  6
CONTINUOUS
 62
     3
 10
11032.301005999991
 20
18894.069625
 30
0.0
 11
11032.301005999991
 21
19899.13363
 31
0.0
  0
LINE
  5
452A
  8
0-1
  6
CONTINUOUS
 62
     3
 10
11195.302484
 20
18811.450457999999
 30
0.0
 11
11195.302484
 21
19899.13363
 31
0.0
  0
LINE
  5
452B
  8
0-1
  6
CONTINUOUS
 62
     3
 10
11595.30182399998
 20
18608.704205999991
 30
0.0
 11
11595.30182399998
 21
19899.13363
 31
0.0
  0
LINE
  5
452C
  8
0-1
  6
CONTINUOUS
 62
     3
 10
11632.30199599998
 20
18589.948268
 30
0.0
 11
11632.30199599998
 21
19899.13363
 31
0.0
  0
LINE
  5
452D
  8
0-1
  6
CONTINUOUS
 62
     3
 10
11795.302484
 20
18507.329100999988
 30
0.0
 11
11795.302484
 21
19899.13363
 31
0.0
  0
LINE
  5
452E
  8
0-1
  6
CONTINUOUS
 62
     3
 10
11832.301665999979
 20
18488.573162000001
 30
0.0
 11
11832.301665999979
 21
19899.13363
 31
0.0
  0
LINE
  5
452F
  8
0-1
  6
CONTINUOUS
 62
     3
 10
11995.30215399999
 20
18405.953995
 30
0.0
 11
11995.30215399999
 21
19899.13363
 31
0.0
  0
LINE
  5
4530
  8
0-1
  6
CONTINUOUS
 62
     3
 10
12032.30232599999
 20
18382.199982999991
 30
0.0
 11
12032.30232599999
 21
19899.133629999989
 31
0.0
  0
LINE
  5
4531
  8
0-1
  6
CONTINUOUS
 62
     3
 10
12195.30182399998
 20
18299.58081599998
 30
0.0
 11
12195.30182399998
 21
19899.13363
 31
0.0
  0
LINE
  5
4532
  8
0-1
  6
CONTINUOUS
 62
     3
 10
12232.30199599998
 20
18280.82883699999
 30
0.0
 11
12232.30199599998
 21
19899.13363
 31
0.0
  0
LINE
  5
4533
  8
0-1
  6
CONTINUOUS
 62
     3
 10
12395.303474
 20
18198.209669999989
 30
0.0
 11
12395.303474
 21
19899.133629999989
 31
0.0
  0
LINE
  5
4534
  8
0-1
  6
CONTINUOUS
 62
     3
 10
12432.301665999999
 20
18179.45373099998
 30
0.0
 11
12432.301665999999
 21
19899.13363
 31
0.0
  0
LINE
  5
4535
  8
0-1
  6
CONTINUOUS
 62
     3
 10
12595.302154000001
 20
18096.83456399995
 30
0.0
 11
12595.302154000001
 21
19899.13363
 31
0.0
  0
LINE
  5
4536
  8
0-1
  6
CONTINUOUS
 62
     3
 10
12632.30331499999
 20
18078.078624999991
 30
0.0
 11
12632.30331499999
 21
19899.13363
 31
0.0
  0
LINE
  5
4537
  8
0-1
  6
CONTINUOUS
 62
     3
 10
12795.30182399998
 20
18053.73450599999
 30
0.0
 11
12795.30182399998
 21
19899.13363
 31
0.0
  0
LINE
  5
4538
  8
0-1
  6
CONTINUOUS
 62
     3
 10
12832.30199599998
 20
18097.115655999991
 30
0.0
 11
12832.30199599998
 21
19899.13363
 31
0.0
  0
LINE
  5
4539
  8
0-1
  6
CONTINUOUS
 62
     3
 10
12995.303474
 20
18032.312155999982
 30
0.0
 11
12995.303474
 21
19899.13363
 31
0.0
  0
LINE
  5
453A
  8
0-1
  6
CONTINUOUS
 62
     3
 10
13032.30166599999
 20
17945.03122299998
 30
0.0
 11
13032.30166599999
 21
19899.13363
 31
0.0
  0
LINE
  5
453B
  8
0-1
  6
CONTINUOUS
 62
     3
 10
11232.302655999991
 20
18792.69451999999
 30
0.0
 11
11232.302655999991
 21
19899.13363
 31
0.0
  0
LINE
  5
453C
  8
0-1
  6
CONTINUOUS
 62
     3
 10
11395.30215399999
 20
18710.075353
 30
0.0
 11
11395.30215399999
 21
19899.133629999989
 31
0.0
  0
LINE
  5
453D
  8
0-1
  6
CONTINUOUS
 62
     3
 10
11432.30232599999
 20
18691.323372999981
 30
0.0
 11
11432.30232599999
 21
19899.13363
 31
0.0
  0
LINE
  5
453E
  8
0-1
  6
CONTINUOUS
 62
     3
 10
13432.301005999991
 20
17254.60306699996
 30
0.0
 11
13432.301005999991
 21
19899.13363
 31
0.0
  0
LINE
  5
453F
  8
0-1
  6
CONTINUOUS
 62
     3
 10
13395.302813999981
 20
17211.22587599999
 30
0.0
 11
13395.302813999981
 21
19899.13363
 31
0.0
  0
LINE
  5
4540
  8
0-1
  6
CONTINUOUS
 62
     3
 10
13232.30331499999
 20
17468.230731999982
 30
0.0
 11
13232.30331499999
 21
19899.13363
 31
0.0
  0
LINE
  5
4541
  8
0-1
  6
CONTINUOUS
 62
     3
 10
13195.30215399999
 20
17555.515624999982
 30
0.0
 11
13195.30215399999
 21
19899.13363
 31
0.0
  0
LINE
  5
4542
  8
0-1
  6
CONTINUOUS
 62
     3
 10
15051.80162599998
 20
13824.137377999979
 30
0.0
 11
15051.80162599998
 21
15878.096322999991
 31
0.0
  0
LINE
  5
4543
  8
0-1
  6
CONTINUOUS
 62
     3
 10
15009.302351999981
 20
13824.137377999979
 30
0.0
 11
15009.302351999981
 21
15899.636454999991
 31
0.0
  0
LINE
  5
4544
  8
0-1
  6
CONTINUOUS
 62
     3
 10
15094.80274799998
 20
13668.136467999981
 30
0.0
 11
15094.80274799998
 21
19909.135082000001
 31
0.0
  0
LINE
  5
4545
  8
0-1
  6
CONTINUOUS
 62
     3
 10
14959.30173099998
 20
13700.13736499999
 30
0.0
 11
14959.30173099998
 21
19899.13363
 31
0.0
  0
LINE
  5
4546
  8
0-1
  6
CONTINUOUS
 62
     3
 10
12760.59987399998
 20
18013.049460999981
 30
0.0
 11
9640.607315999996
 21
19594.154084999991
 31
0.0
  0
LINE
  5
4547
  8
0-1
  6
CONTINUOUS
 62
     3
 10
9806.8036979999888
 20
19879.135476999982
 30
0.0
 11
9857.3022069999897
 21
19879.135476999982
 31
0.0
  0
LINE
  5
4548
  8
0-1
  6
CONTINUOUS
 62
     3
 10
9806.8036979999888
 20
19901.63468599999
 30
0.0
 11
9788.8029459999962
 21
19901.63468599999
 31
0.0
  0
LINE
  5
4549
  8
0-1
  6
CONTINUOUS
 62
     3
 10
9857.3022069999897
 20
19919.137588999991
 30
0.0
 11
9793.8022199999978
 21
19919.137588999991
 31
0.0
  0
LINE
  5
454A
  8
0-1
  6
CONTINUOUS
 62
     3
 10
9788.8029459999962
 20
19914.135344999992
 30
0.0
 11
9788.8029459999962
 21
19879.135476999982
 31
0.0
  0
LINE
  5
454B
  8
0-1
  6
CONTINUOUS
 62
     3
 10
9862.3014809999877
 20
19884.135740999991
 30
0.0
 11
9862.3014809999877
 21
19914.135344999992
 31
0.0
  0
LINE
  5
454C
  8
0-1
  6
CONTINUOUS
 62
     3
 10
9862.3014809999859
 20
19899.133629999989
 30
0.0
 11
15021.30322299999
 21
19899.13363
 31
0.0
  0
LINE
  5
454D
  8
0-1
  6
CONTINUOUS
 62
     3
 10
9806.8036979999888
 20
19508.395400999991
 30
0.0
 11
9806.8036979999888
 21
19901.63468599999
 31
0.0
  0
LINE
  5
454E
  8
0-1
  6
CONTINUOUS
 62
     3
 10
15026.303486999979
 20
19919.137588999991
 30
0.0
 11
15089.80248399998
 21
19919.137588999991
 31
0.0
  0
LINE
  5
454F
  8
0-1
  6
CONTINUOUS
 62
     3
 10
15076.80298499996
 20
19879.135476999982
 30
0.0
 11
15026.303486999979
 21
19879.135476999982
 31
0.0
  0
LINE
  5
4550
  8
0-1
  6
CONTINUOUS
 62
     3
 10
15021.30322299999
 20
19884.135740999991
 30
0.0
 11
15021.30322299999
 21
19914.135344999992
 31
0.0
  0
LINE
  5
4551
  8
0-1
  6
CONTINUOUS
 62
     3
 10
15094.80274799998
 20
19914.135344999992
 30
0.0
 11
15094.80274799998
 21
19879.135476999982
 31
0.0
  0
LINE
  5
4552
  8
0-1
  6
CONTINUOUS
 62
     3
 10
15076.80298499996
 20
19901.63468599999
 30
0.0
 11
15094.80274799998
 21
19901.63468599999
 31
0.0
  0
LINE
  5
4553
  8
0-1
  6
CONTINUOUS
 62
     3
 10
15076.80298499996
 20
15866.94569499998
 30
0.0
 11
15076.80298499996
 21
19901.63468599999
 31
0.0
  0
LINE
  5
4554
  8
0-1
  6
CONTINUOUS
 62
     3
 10
9874.3023519999842
 20
15364.63811699999
 30
0.0
 11
15009.302351999981
 21
15364.63811699999
 31
0.0
  0
LINE
  5
4555
  8
0-1
  6
CONTINUOUS
 62
     3
 10
9874.3023519999842
 20
15274.638314999969
 30
0.0
 11
15009.302351999981
 21
15274.638314999969
 31
0.0
  0
LINE
  5
4556
  8
0-1
  6
CONTINUOUS
 62
     3
 10
9874.3023519999842
 20
18282.63613699999
 30
0.0
 11
12228.73391399998
 21
18282.63613699999
 31
0.0
  0
LINE
  5
4557
  8
0-1
  6
CONTINUOUS
 62
     3
 10
9874.3023519999842
 20
18192.635344999992
 30
0.0
 11
12406.29475099999
 21
18192.635344999992
 31
0.0
  0
LINE
  5
4558
  8
0-1
  6
CONTINUOUS
 62
     3
 10
13199.802589999979
 20
13903.13798499999
 30
0.0
 11
13199.802589999979
 21
15274.638314999969
 31
0.0
  0
LINE
  5
4559
  8
0-1
  6
CONTINUOUS
 62
     3
 10
13085.802115
 20
13903.13798499999
 30
0.0
 11
13085.802115
 21
15274.638314999969
 31
0.0
  0
LINE
  5
455A
  8
0-1
  6
CONTINUOUS
 62
     3
 10
13142.802351999981
 20
13903.13798499999
 30
0.0
 11
13142.802351999981
 21
14924.636664999991
 31
0.0
  0
LINE
  5
455B
  8
0-1
  6
CONTINUOUS
 62
     3
 10
13142.802351999981
 20
13824.137377999979
 30
0.0
 11
13142.802351999981
 21
15274.638314999969
 31
0.0
  0
LINE
  5
455C
  8
0-1
  6
CONTINUOUS
 62
     3
 10
13142.802351999981
 20
15364.63811699999
 30
0.0
 11
13142.802351999981
 21
16733.635345999981
 31
0.0
  0
LINE
  5
455D
  8
0-1
  6
CONTINUOUS
 62
     3
 10
13142.802351999981
 20
16812.635952999972
 30
0.0
 11
13142.802351999981
 21
17329.36354499996
 31
0.0
  0
LINE
  5
455E
  8
0-1
  6
CONTINUOUS
 62
     3
 10
13142.802351999981
 20
16812.635952999972
 30
0.0
 11
13142.802351999981
 21
17689.360350999999
 31
0.0
  0
LINE
  5
455F
  8
0-1
  6
CONTINUOUS
 62
     3
 10
13085.802115
 20
16812.635952999972
 30
0.0
 11
13085.802115
 21
17823.825088999991
 31
0.0
  0
LINE
  5
4560
  8
0-1
  6
CONTINUOUS
 62
     3
 10
13199.802589999979
 20
16812.635952999972
 30
0.0
 11
13199.802589999979
 21
17544.899466999981
 31
0.0
  0
LINE
  5
4561
  8
0-1
  6
CONTINUOUS
 62
     3
 10
13085.802115
 20
15364.63811699999
 30
0.0
 11
13085.802115
 21
16733.635345999981
 31
0.0
  0
LINE
  5
4562
  8
0-1
  6
CONTINUOUS
 62
     3
 10
13199.802589999979
 20
15364.63811699999
 30
0.0
 11
13199.802589999979
 21
16733.635345999981
 31
0.0
  0
LINE
  5
4563
  8
0-1
  6
CONTINUOUS
 62
     3
 10
13142.802351999981
 20
15364.63811699999
 30
0.0
 11
13142.802351999981
 21
15274.638314999969
 31
0.0
  0
LINE
  5
4564
  8
0-1
  6
CONTINUOUS
 62
     3
 10
13142.802351999981
 20
16812.635952999972
 30
0.0
 11
13142.802351999981
 21
16733.635345999981
 31
0.0
  0
LINE
  5
4565
  8
0-1
  6
CONTINUOUS
 62
     3
 10
9944.3030779999972
 20
13860.63772099999
 30
0.0
 11
13072.802616000001
 21
15319.63772099999
 31
0.0
  0
LINE
  5
4566
  8
0-1
  6
CONTINUOUS
 62
     3
 10
13072.802616000001
 20
13860.63772099999
 30
0.0
 11
9944.3030779999972
 21
15319.63772099999
 31
0.0
  0
LINE
  5
4567
  8
0-1
  6
CONTINUOUS
 62
     3
 10
13072.802616000001
 20
15319.63772099999
 30
0.0
 11
9944.3030779999972
 21
16778.637720999981
 31
0.0
  0
LINE
  5
4568
  8
0-1
  6
CONTINUOUS
 62
     3
 10
13072.802616000001
 20
16778.637720999981
 30
0.0
 11
9944.3030779999972
 21
15319.63772099999
 31
0.0
  0
LINE
  5
4569
  8
0-1
  6
CONTINUOUS
 62
     3
 10
13072.802616000001
 20
16778.637720999981
 30
0.0
 11
9944.3030779999972
 21
18237.637720999981
 31
0.0
  0
LINE
  5
456A
  8
0-1
  6
CONTINUOUS
 62
     3
 10
11185.374209
 20
18816.482394999999
 30
0.0
 11
9944.3030779999972
 21
18237.637720999981
 31
0.0
  0
LINE
  5
456B
  8
0-1
  6
CONTINUOUS
 62
     3
 10
12679.42476599998
 20
18054.193753999982
 30
0.0
 11
9944.3030779999972
 21
16778.637720999981
 31
0.0
  0
LINE
  5
456C
  8
0-1
  6
CONTINUOUS
 62
     3
 10
12935.420066999999
 20
18173.570601999982
 30
0.0
 11
12872.48424299999
 21
18144.222258999991
 31
0.0
  0
LINE
  5
456D
  8
0-1
  6
CONTINUOUS
 62
     3
 10
13212.80208799998
 20
13860.63772099999
 30
0.0
 11
14939.30261599999
 21
15319.63772099999
 31
0.0
  0
LINE
  5
456E
  8
0-1
  6
CONTINUOUS
 62
     3
 10
14939.30261599999
 20
13860.63772099999
 30
0.0
 11
13212.80208799998
 21
15319.63772099999
 31
0.0
  0
LINE
  5
456F
  8
0-1
  6
CONTINUOUS
 62
     3
 10
13212.80208799998
 20
16778.637720999981
 30
0.0
 11
14939.30261599999
 21
15319.63772099999
 31
0.0
  0
LINE
  5
4570
  8
0-1
  6
CONTINUOUS
 62
     3
 10
13212.80208799998
 20
15319.63772099999
 30
0.0
 11
14838.72994739454
 21
16693.647579893372
 31
0.0
  0
LINE
  5
4571
  8
0-1
  6
CONTINUOUS
 62
     3
 10
13212.80208799998
 20
16778.637720999981
 30
0.0
 11
13758.17022182469
 21
17239.507610319972
 31
0.0
  0
LINE
  5
4572
  8
0-1
  6
CONTINUOUS
 62
     3
 10
14469.30150799999
 20
16880.269581802619
 30
0.0
 11
14469.30150799999
 21
19899.13363
 31
0.0
  0
LINE
  5
4573
  8
0-1
  6
CONTINUOUS
 62
     3
 10
14432.303314999979
 20
16898.959742354411
 30
0.0
 11
14432.30331499999
 21
19899.13363
 31
0.0
  0
LINE
  5
4574
  8
0-1
  6
CONTINUOUS
 62
     3
 10
13595.302484
 20
17321.782551927299
 30
0.0
 11
13595.302484
 21
19899.13363
 31
0.0
  0
LINE
  5
4575
  8
0-1
  6
CONTINUOUS
 62
     3
 10
13632.302656
 20
17303.09139165566
 30
0.0
 11
13632.302656
 21
19899.13363
 31
0.0
  0
LINE
  5
4576
  8
0-1
  6
CONTINUOUS
 62
     3
 10
13795.30215399999
 20
17220.749889531959
 30
0.0
 11
13795.30215399999
 21
19899.13363
 31
0.0
  0
LINE
  5
4577
  8
0-1
  6
CONTINUOUS
 62
     3
 10
13832.303314999979
 20
17202.058229652961
 30
0.0
 11
13832.303314999999
 21
19899.13363
 31
0.0
  0
LINE
  5
4578
  8
0-1
  6
CONTINUOUS
 62
     3
 10
13995.301824
 20
17119.717227136611
 30
0.0
 11
13995.30182399998
 21
19899.13363
 31
0.0
  0
LINE
  5
4579
  8
0-1
  6
CONTINUOUS
 62
     3
 10
14032.301005999991
 20
17101.026566977471
 30
0.0
 11
14032.301005999991
 21
19899.13363
 31
0.0
  0
LINE
  5
457A
  8
0-1
  6
CONTINUOUS
 62
     3
 10
14195.302484
 20
17018.68406462876
 30
0.0
 11
14195.302484
 21
19899.133629999989
 31
0.0
  0
LINE
  5
457B
  8
0-1
  6
CONTINUOUS
 62
     3
 10
14232.302655999991
 20
16999.99290435711
 30
0.0
 11
14232.302655999991
 21
19899.13363
 31
0.0
  0
LINE
  5
457C
  8
0-1
  6
CONTINUOUS
 62
     3
 10
13142.802351999981
 20
13824.137377999979
 30
0.0
 11
13142.802351999981
 21
13668.136467999981
 31
0.0
  0
LINE
  5
457D
  8
0-5
  6
CONTINUOUS
 62
     6
 10
11960.768462999969
 20
19636.862197999992
 30
0.0
 11
12104.66956599999
 21
20149.137853
 31
0.0
  0
LINE
  5
457E
  8
0-5
  6
CONTINUOUS
 62
     6
 10
12104.66956599999
 20
20149.137853
 30
0.0
 11
12622.35920399998
 21
20149.137853
 31
0.0
  0
LINE
  5
457F
  8
0-5
  6
CONTINUOUS
 62
     6
 10
10038.83102799999
 20
18576.335117999992
 30
0.0
 11
10569.329221
 21
18576.335117999992
 31
0.0
  0
LINE
  5
4580
  8
0-5
  6
CONTINUOUS
 62
     6
 10
11035.183185
 20
14055.02644599998
 30
0.0
 11
11118.070577
 21
14231.965713999991
 31
0.0
  0
LINE
  5
4581
  8
0-5
  6
CONTINUOUS
 62
     6
 10
11118.070577
 20
14231.965713999991
 30
0.0
 11
11918.070246999991
 21
14231.965713999991
 31
0.0
  0
LINE
  5
4582
  8
0-5
  6
CONTINUOUS
 62
     6
 10
12025.59670699999
 20
12868.13679799998
 30
0.0
 11
12888.17588699999
 21
12868.13679799998
 31
0.0
  0
LINE
  5
4583
  8
0-5
  6
CONTINUOUS
 62
     6
 10
11619.482633
 20
13531.668456999991
 30
0.0
 11
12025.59670699999
 21
12868.13679799998
 31
0.0
  0
LINE
  5
4584
  8
0-5
  6
CONTINUOUS
 62
     6
 10
8058.405332999987
 20
12468.13745799999
 30
0.0
 11
9138.4039469999916
 21
12468.13745799999
 31
0.0
  0
LINE
  5
4585
  8
0-5
  6
CONTINUOUS
 62
     6
 10
9696.9087839999938
 20
14248.40957499998
 30
0.0
 11
9138.4039469999916
 21
12468.13745799999
 31
0.0
  0
LINE
  5
4586
  8
0-5
  6
CONTINUOUS
 62
     6
 10
9939.7877959999878
 20
18797.124682000001
 30
0.0
 11
10038.83102799999
 21
18576.335117999992
 31
0.0
  0
LINE
  5
4587
  8
0-5
  6
CONTINUOUS
 62
     6
 10
11239.78622599998
 20
16343.92356399999
 30
0.0
 11
11345.419275999981
 21
16444.954232999989
 31
0.0
  0
LINE
  5
4588
  8
0-5
  6
CONTINUOUS
 62
     6
 10
9936.5235699999921
 20
20061.916304999992
 30
0.0
 11
10098.04535799999
 21
20397.674329000001
 31
0.0
  0
LINE
  5
4589
  8
0-5
  6
CONTINUOUS
 62
     6
 10
10159.707360999981
 20
20525.860034000001
 30
0.0
 11
10336.03998699998
 21
20870.57933800001
 31
0.0
  0
LINE
  5
458A
  8
0-5
  6
CONTINUOUS
 62
     6
 10
10336.03998699998
 20
20870.57933800001
 30
0.0
 11
11988.88554499999
 21
20870.57933800001
 31
0.0
  0
LINE
  5
458B
  8
0-5
  6
CONTINUOUS
 62
     6
 10
11977.19846699998
 20
15908.664048999981
 30
0.0
 11
12925.143397
 21
15908.664048999981
 31
0.0
  0
LINE
  5
458C
  8
0-5
  6
CONTINUOUS
 62
     6
 10
13085.802115
 20
15483.64161499995
 30
0.0
 11
12925.143397
 21
15908.664048999981
 31
0.0
  0
LINE
  5
458D
  8
0-5
  6
CONTINUOUS
 62
     6
 10
11345.419275999981
 20
16444.954232999989
 30
0.0
 11
12225.421189000001
 21
16444.954232999989
 31
0.0
  0
LINE
  5
458E
  8
0-5
  6
CONTINUOUS
 62
     6
 10
9964.1200379999973
 20
18808.041726999982
 30
0.0
 11
9874.3023519999842
 21
18943.110218999991
 31
0.0
  0
LINE
  5
458F
  8
0-5
  6
CONTINUOUS
 62
     6
 10
9874.3023519999842
 20
18943.110218999991
 30
0.0
 11
9915.4565429999966
 21
18786.20961699999
 31
0.0
  0
LINE
  5
4590
  8
0-5
  6
CONTINUOUS
 62
     6
 10
9874.3023519999842
 20
18943.110218999991
 30
0.0
 11
9964.1200379999973
 21
18808.041726999982
 31
0.0
  0
LINE
  5
4591
  8
0-5
  6
CONTINUOUS
 62
     6
 10
9964.1200379999973
 20
18808.041726999982
 30
0.0
 11
9915.4565429999966
 21
18786.20961699999
 31
0.0
  0
LINE
  5
4592
  8
0-5
  6
CONTINUOUS
 62
     6
 10
9915.4565429999966
 20
18786.20961699999
 30
0.0
 11
9874.3023519999842
 21
18943.110218999991
 31
0.0
  0
LINE
  5
4593
  8
0-5
  6
CONTINUOUS
 62
     6
 10
9915.4565429999966
 20
18786.20961699999
 30
0.0
 11
9964.1200379999973
 21
18808.041726999982
 31
0.0
  0
LINE
  5
4594
  8
0-5
  6
CONTINUOUS
 62
     6
 10
11642.22730199999
 20
13545.58942099997
 30
0.0
 11
11535.957836999991
 21
13668.136467999981
 31
0.0
  0
LINE
  5
4595
  8
0-5
  6
CONTINUOUS
 62
     6
 10
11535.957836999991
 20
13668.136467999981
 30
0.0
 11
11596.736974999991
 21
13517.74848199999
 31
0.0
  0
LINE
  5
4596
  8
0-5
  6
CONTINUOUS
 62
     6
 10
11535.957836999991
 20
13668.136467999981
 30
0.0
 11
11642.22730199999
 21
13545.58942099997
 31
0.0
  0
LINE
  5
4597
  8
0-5
  6
CONTINUOUS
 62
     6
 10
11642.22730199999
 20
13545.58942099997
 30
0.0
 11
11596.736974999991
 21
13517.74848199999
 31
0.0
  0
LINE
  5
4598
  8
0-5
  6
CONTINUOUS
 62
     6
 10
11596.736974999991
 20
13517.74848199999
 30
0.0
 11
11535.957836999991
 21
13668.136467999981
 31
0.0
  0
LINE
  5
4599
  8
0-5
  6
CONTINUOUS
 62
     6
 10
11596.736974999991
 20
13517.74848199999
 30
0.0
 11
11642.22730199999
 21
13545.58942099997
 31
0.0
  0
LINE
  5
459A
  8
0-5
  6
CONTINUOUS
 62
     6
 10
9722.3525259999878
 20
14240.427166999991
 30
0.0
 11
9744.8022459999902
 21
14401.07301799999
 31
0.0
  0
LINE
  5
459B
  8
0-5
  6
CONTINUOUS
 62
     6
 10
9744.8022459999902
 20
14401.07301799999
 30
0.0
 11
9671.4660319999966
 21
14256.390993999979
 31
0.0
  0
LINE
  5
459C
  8
0-5
  6
CONTINUOUS
 62
     6
 10
9744.8022459999902
 20
14401.07301799999
 30
0.0
 11
9722.3525259999878
 21
14240.427166999991
 31
0.0
  0
LINE
  5
459D
  8
0-5
  6
CONTINUOUS
 62
     6
 10
9722.3525259999878
 20
14240.427166999991
 30
0.0
 11
9671.4660319999966
 21
14256.390993999979
 31
0.0
  0
LINE
  5
459E
  8
0-5
  6
CONTINUOUS
 62
     6
 10
9671.4660319999966
 20
14256.390993999979
 30
0.0
 11
9744.8022459999902
 21
14401.07301799999
 31
0.0
  0
LINE
  5
459F
  8
0-5
  6
CONTINUOUS
 62
     6
 10
9671.4660319999966
 20
14256.390993999979
 30
0.0
 11
9722.3525259999878
 21
14240.427166999991
 31
0.0
  0
LINE
  5
45A0
  8
0-5
  6
CONTINUOUS
 62
     6
 10
11011.03602799998
 20
14066.33939499999
 30
0.0
 11
10967.310442
 21
13910.13756299998
 31
0.0
  0
LINE
  5
45A1
  8
0-5
  6
CONTINUOUS
 62
     6
 10
10967.310442
 20
13910.13756299998
 30
0.0
 11
11059.331331999991
 21
14043.714486999979
 31
0.0
  0
LINE
  5
45A2
  8
0-5
  6
CONTINUOUS
 62
     6
 10
10967.310442
 20
13910.13756299998
 30
0.0
 11
11011.03602799998
 21
14066.33939499999
 31
0.0
  0
LINE
  5
45A3
  8
0-5
  6
CONTINUOUS
 62
     6
 10
11011.03602799998
 20
14066.33939499999
 30
0.0
 11
11059.331331999991
 21
14043.714486999979
 31
0.0
  0
LINE
  5
45A4
  8
0-5
  6
CONTINUOUS
 62
     6
 10
11059.331331999991
 20
14043.714486999979
 30
0.0
 11
10967.310442
 21
13910.13756299998
 31
0.0
  0
LINE
  5
45A5
  8
0-5
  6
CONTINUOUS
 62
     6
 10
11059.331331999991
 20
14043.714486999979
 30
0.0
 11
11011.03602799998
 21
14066.33939499999
 31
0.0
  0
LINE
  5
45A6
  8
0-5
  6
CONTINUOUS
 62
     6
 10
11221.354928000001
 20
16363.19615699998
 30
0.0
 11
11124.159576
 21
16233.337757999991
 31
0.0
  0
LINE
  5
45A7
  8
0-5
  6
CONTINUOUS
 62
     6
 10
11124.159576
 20
16233.337757999991
 30
0.0
 11
11258.219502999989
 21
16324.65492999999
 31
0.0
  0
LINE
  5
45A8
  8
0-5
  6
CONTINUOUS
 62
     6
 10
11124.159576
 20
16233.337757999991
 30
0.0
 11
11221.354928000001
 21
16363.19615699998
 31
0.0
  0
LINE
  5
45A9
  8
0-5
  6
CONTINUOUS
 62
     6
 10
11221.354928000001
 20
16363.19615699998
 30
0.0
 11
11258.219502999989
 21
16324.65492999999
 31
0.0
  0
LINE
  5
45AA
  8
0-5
  6
CONTINUOUS
 62
     6
 10
11258.219502999989
 20
16324.65492999999
 30
0.0
 11
11124.159576
 21
16233.337757999991
 31
0.0
  0
LINE
  5
45AB
  8
0-5
  6
CONTINUOUS
 62
     6
 10
11258.219502999989
 20
16324.65492999999
 30
0.0
 11
11221.354928000001
 21
16363.19615699998
 31
0.0
  0
LINE
  5
45AC
  8
0-5
  6
CONTINUOUS
 62
     6
 10
13053.46172999999
 20
15642.592007999971
 30
0.0
 11
13085.802115
 21
15483.64161499995
 31
0.0
  0
LINE
  5
45AD
  8
0-5
  6
CONTINUOUS
 62
     6
 10
13085.802115
 20
15483.64161499995
 30
0.0
 11
13003.659022
 21
15623.510437999979
 31
0.0
  0
LINE
  5
45AE
  8
0-5
  6
CONTINUOUS
 62
     6
 10
13085.802115
 20
15483.64161499995
 30
0.0
 11
13053.46172999999
 21
15642.592007999971
 31
0.0
  0
LINE
  5
45AF
  8
0-5
  6
CONTINUOUS
 62
     6
 10
13053.46172999999
 20
15642.592007999971
 30
0.0
 11
13003.659022
 21
15623.510437999979
 31
0.0
  0
LINE
  5
45B0
  8
0-5
  6
CONTINUOUS
 62
     6
 10
13003.659022
 20
15623.510437999979
 30
0.0
 11
13085.802115
 21
15483.64161499995
 31
0.0
  0
LINE
  5
45B1
  8
0-5
  6
CONTINUOUS
 62
     6
 10
13003.659022
 20
15623.510437999979
 30
0.0
 11
13053.46172999999
 21
15642.592007999971
 31
0.0
  0
LINE
  5
45B2
  8
0-5
  6
CONTINUOUS
 62
     6
 10
9912.1418389999872
 20
20072.710620000002
 30
0.0
 11
9871.7477830000007
 21
19915.612066000002
 31
0.0
  0
LINE
  5
45B3
  8
0-5
  6
CONTINUOUS
 62
     6
 10
9871.7477830000007
 20
19915.612066000002
 30
0.0
 11
9960.9072799999994
 21
20051.118031000002
 31
0.0
  0
LINE
  5
45B4
  8
0-5
  6
CONTINUOUS
 62
     6
 10
9871.7477830000007
 20
19915.612066000002
 30
0.0
 11
9912.1418389999872
 21
20072.710620000002
 31
0.0
  0
LINE
  5
45B5
  8
0-5
  6
CONTINUOUS
 62
     6
 10
9912.1418389999872
 20
20072.710620000002
 30
0.0
 11
9960.9072799999994
 21
20051.118031000002
 31
0.0
  0
LINE
  5
45B6
  8
0-5
  6
CONTINUOUS
 62
     6
 10
9960.9072799999994
 20
20051.118031000002
 30
0.0
 11
9871.7477830000007
 21
19915.612066000002
 31
0.0
  0
LINE
  5
45B7
  8
0-5
  6
CONTINUOUS
 62
     6
 10
9960.9072799999994
 20
20051.118031000002
 30
0.0
 11
9912.1418389999872
 21
20072.710620000002
 31
0.0
  0
LINE
  5
45B8
  8
0-5
  6
CONTINUOUS
 62
     6
 10
11934.880318999991
 20
19643.258022999991
 30
0.0
 11
11922.381638000001
 21
19481.533333999982
 31
0.0
  0
LINE
  5
45B9
  8
0-5
  6
CONTINUOUS
 62
     6
 10
11922.381638000001
 20
19481.533333999982
 30
0.0
 11
11986.657596999999
 21
19630.462415000002
 31
0.0
  0
LINE
  5
45BA
  8
0-5
  6
CONTINUOUS
 62
     6
 10
11922.381638000001
 20
19481.533333999982
 30
0.0
 11
11934.880318999991
 21
19643.258022999991
 31
0.0
  0
LINE
  5
45BB
  8
0-5
  6
CONTINUOUS
 62
     6
 10
11934.880318999991
 20
19643.258022999991
 30
0.0
 11
11986.657596999999
 21
19630.462415000002
 31
0.0
  0
LINE
  5
45BC
  8
0-5
  6
CONTINUOUS
 62
     6
 10
11986.657596999999
 20
19630.462415000002
 30
0.0
 11
11922.381638000001
 21
19481.533333999982
 31
0.0
  0
LINE
  5
45BD
  8
0-5
  6
CONTINUOUS
 62
     6
 10
11986.657596999999
 20
19630.462415000002
 30
0.0
 11
11934.880318999991
 21
19643.258022999991
 31
0.0
  0
LINE
  5
45BE
  8
2-0
  6
DASHED3
 62
     6
 10
9874.3023519999842
 20
19657.63526599999
 30
0.0
 11
15009.302351999981
 21
19657.63526599999
 31
0.0
  0
LINE
  5
45BF
  8
0-6
  6
CONTINUOUS
 62
     6
 10
9831.8020879999967
 20
19497.242793999991
 30
0.0
 11
9831.8020879999967
 21
19742.635793999991
 31
0.0
  0
LINE
  5
45C0
  8
0-6
  6
CONTINUOUS
 62
     6
 10
9874.3023519999842
 20
19475.701673
 30
0.0
 11
9874.3023519999842
 21
19742.635793999991
 31
0.0
  0
LINE
  5
45C1
  8
2-0
  6
DASHED3
 62
     6
 10
9831.8020879999967
 20
19742.635793999991
 30
0.0
 11
15051.80162599998
 21
19742.635793999991
 31
0.0
  0
LINE
  5
45C2
  8
2-0
  6
DASHED3
 62
     6
 10
14755.410235999991
 20
16733.635345999981
 30
0.0
 11
15009.302351999981
 21
16733.635345999981
 31
0.0
  0
LINE
  5
45C3
  8
2-0
  6
DASHED3
 62
     6
 10
14599.55283999998
 20
16812.635952999972
 30
0.0
 11
15009.302351999981
 21
16812.635952999972
 31
0.0
  0
LINE
  5
45C4
  8
2-0
  6
DASHED3
 62
     6
 10
15009.302351999981
 20
15899.636454999991
 30
0.0
 11
15009.302351999981
 21
19742.635793999991
 31
0.0
  0
LINE
  5
45C5
  8
2-0
  6
DASHED3
 62
     6
 10
15051.80162599998
 20
15878.096322999991
 30
0.0
 11
15051.80162599998
 21
19742.635793999991
 31
0.0
  0
LINE
  5
45C6
  8
2-0
  6
DASHED3
 62
     6
 10
12406.29475099999
 20
18192.635344999992
 30
0.0
 11
15009.302351999981
 21
18192.635344999992
 31
0.0
  0
LINE
  5
45C7
  8
2-0
  6
DASHED3
 62
     6
 10
12228.73391399998
 20
18282.63613699999
 30
0.0
 11
15009.302351999981
 21
18282.63613699999
 31
0.0
  0
LINE
  5
45C8
  8
2-0
  6
DASHED3
 62
     6
 10
13199.802589999979
 20
17544.899466999981
 30
0.0
 11
13199.802589999979
 21
17847.634738000001
 31
0.0
  0
LINE
  5
45C9
  8
2-0
  6
DASHED3
 62
     6
 10
13085.802115
 20
17823.825088999991
 30
0.0
 11
13085.802115
 21
17847.634738000001
 31
0.0
  0
LINE
  5
45CA
  8
2-0
  6
DASHED3
 62
     6
 10
13142.802351999981
 20
17689.360350999999
 30
0.0
 11
13142.802351999981
 21
18192.635344999992
 31
0.0
  0
LINE
  5
45CB
  8
2-0
  6
DASHED3
 62
     6
 10
13142.802351999981
 20
18282.63613699999
 30
0.0
 11
13142.802351999981
 21
18192.635344999992
 31
0.0
  0
LINE
  5
45CC
  8
0-6
  6
CONTINUOUS
 62
     6
 10
13072.802616000001
 20
18237.637720999981
 30
0.0
 11
12935.420066999999
 21
18173.570601999982
 31
0.0
  0
LINE
  5
45CD
  8
2-0
  6
DASHED3
 62
     6
 10
13072.802616000001
 20
19696.637720999981
 30
0.0
 11
11185.374209
 21
18816.482394999999
 31
0.0
  0
LINE
  5
45CE
  8
2-0
  6
DASHED3
 62
     6
 10
13072.802616000001
 20
18237.637720999981
 30
0.0
 11
9944.3030779999972
 21
19696.637720999981
 31
0.0
  0
LINE
  5
45CF
  8
0-6
  6
CONTINUOUS
 62
     6
 10
12872.48424299999
 20
18144.222258999991
 30
0.0
 11
12679.42476599998
 21
18054.193753999982
 31
0.0
  0
LINE
  5
45D0
  8
2-0
  6
DASHED3
 62
     6
 10
13212.80208799998
 20
18237.637720999981
 30
0.0
 11
14939.30261599999
 21
16778.637720999981
 31
0.0
  0
LINE
  5
45D1
  8
2-0
  6
DASHED3
 62
     6
 10
13212.80208799998
 20
19696.637720999981
 30
0.0
 11
14939.30261599999
 21
18237.637720999981
 31
0.0
  0
LINE
  5
45D2
  8
2-0
  6
DASHED3
 62
     6
 10
14838.72994739454
 20
16693.647579893372
 30
0.0
 11
14939.30261599999
 21
16778.637720999981
 31
0.0
  0
LINE
  5
45D3
  8
2-0
  6
DASHED3
 62
     6
 10
13212.80208799998
 20
18237.637720999981
 30
0.0
 11
14939.30261599999
 21
19696.637720999981
 31
0.0
  0
LINE
  5
45D4
  8
2-0
  6
DASHED3
 62
     6
 10
13758.17022182469
 20
17239.507610319972
 30
0.0
 11
14939.30261599999
 21
18237.637720999981
 31
0.0
  0
LINE
  5
45D5
  8
0-7
  6
CONTINUOUS
 62
     6
 10
15009.302351999981
 20
20939.136004999989
 30
0.0
 11
15009.302351999981
 21
19989.135344999992
 31
0.0
  0
LINE
  5
45D6
  8
0-7
  6
CONTINUOUS
 62
     6
 10
13142.802351999981
 20
20869.136268999991
 30
0.0
 11
13142.802351999981
 21
19989.135344999992
 31
0.0
  0
LINE
  5
45D7
  8
2-0
  6
CENTER2
 62
     6
 10
8544.8007619999862
 20
19696.637720999981
 30
0.0
 11
10191.301467999991
 21
19696.637720999981
 31
0.0
  0
LINE
  5
45D8
  8
0-7
  6
CONTINUOUS
 62
     6
 10
9874.3023519999842
 20
20869.136268999991
 30
0.0
 11
9874.3023519999842
 21
19989.135344999992
 31
0.0
  0
LINE
  5
45D9
  8
2-0
  6
CENTER2
 62
     6
 10
8544.8007619999862
 20
16778.637720999981
 30
0.0
 11
10191.301467999991
 21
16778.637720999981
 31
0.0
  0
LINE
  5
45DA
  8
2-0
  6
CENTER2
 62
     6
 10
8544.8007619999862
 20
13860.63772099999
 30
0.0
 11
10191.301467999991
 21
13860.63772099999
 31
0.0
  0
LINE
  5
45DB
  8
2-0
  6
CENTER2
 62
     6
 10
14681.80280099998
 20
16778.637720999981
 30
0.0
 11
15308.06713199998
 21
16778.637720999981
 31
0.0
  0
LINE
  5
45DC
  8
2-0
  6
CENTER2
 62
     6
 10
14681.80280099998
 20
13860.63772099999
 30
0.0
 11
15308.06713199998
 21
13860.63772099999
 31
0.0
  0
LINE
  5
45DD
  8
2-0
  6
CENTER2
 62
     6
 10
9655.5041839999903
 20
15319.63772099999
 30
0.0
 11
15228.10051999998
 21
15319.63772099999
 31
0.0
  0
LINE
  5
45DE
  8
2-0
  6
CENTER2
 62
     6
 10
9655.5041839999903
 20
18237.637720999981
 30
0.0
 11
15228.10051999998
 21
18237.637720999981
 31
0.0
  0
LINE
  5
45DF
  8
2-0
  6
DASHED3
 62
     6
 10
13085.802115
 20
18282.63613699999
 30
0.0
 11
13085.802115
 21
19657.63526599999
 31
0.0
  0
LINE
  5
45E0
  8
2-0
  6
DASHED3
 62
     6
 10
13142.802351999981
 20
18282.63613699999
 30
0.0
 11
13142.802351999981
 21
19657.63526599999
 31
0.0
  0
LINE
  5
45E1
  8
2-0
  6
DASHED3
 62
     6
 10
13199.802589999979
 20
18282.63613699999
 30
0.0
 11
13199.802589999979
 21
19657.63526599999
 31
0.0
  0
LINE
  5
45E2
  8
2-0
  6
DASHED3
 62
     6
 10
13085.802115
 20
17847.634738000001
 30
0.0
 11
13085.802115
 21
18192.635344999992
 31
0.0
  0
LINE
  5
45E3
  8
2-0
  6
DASHED3
 62
     6
 10
13199.802589999979
 20
17847.634738000001
 30
0.0
 11
13199.802589999979
 21
18192.635344999992
 31
0.0
  0
ARC
  5
45E4
  8
0-1
  6
CONTINUOUS
 62
     3
 10
9793.8022199999978
 20
19914.135344999992
 30
0.0
 40
5.0
 50
90.0
 51
180.0
  0
ARC
  5
45E5
  8
0-1
  6
CONTINUOUS
 62
     3
 10
9857.3022069999897
 20
19914.135344999992
 30
0.0
 40
5.0
 50
0.0
 51
90.0
  0
ARC
  5
45E6
  8
0-1
  6
CONTINUOUS
 62
     3
 10
9857.3022069999897
 20
19884.135740999991
 30
0.0
 40
5.0
 50
269.9999850001808
 51
0.0
  0
ARC
  5
45E7
  8
0-1
  6
CONTINUOUS
 62
     3
 10
15026.303486999979
 20
19884.135740999991
 30
0.0
 40
5.0
 50
180.0
 51
269.9999850001808
  0
ARC
  5
45E8
  8
0-1
  6
CONTINUOUS
 62
     3
 10
15026.303486999979
 20
19914.135344999992
 30
0.0
 40
5.0
 50
90.0
 51
180.0
  0
ARC
  5
45E9
  8
0-1
  6
CONTINUOUS
 62
     3
 10
15089.80248399998
 20
19914.135344999992
 30
0.0
 40
5.0
 50
0.0
 51
90.0
  0
CIRCLE
  5
45EA
  8
0-4
  6
CONTINUOUS
 62
     4
 10
13142.802351999981
 20
21069.136929
 30
0.0
 40
199.9999949999999
  0
CIRCLE
  5
45EB
  8
0-4
  6
CONTINUOUS
 62
     4
 10
9874.3023519999842
 20
21069.136929
 30
0.0
 40
199.9999949999999
  0
CIRCLE
  5
45EC
  8
0-4
  6
CONTINUOUS
 62
     4
 10
8344.8010919999888
 20
19696.637720999981
 30
0.0
 40
199.9999949999999
  0
CIRCLE
  5
45ED
  8
0-4
  6
CONTINUOUS
 62
     4
 10
8344.8010919999888
 20
16778.637720999981
 30
0.0
 40
199.9999949999999
  0
CIRCLE
  5
45EE
  8
0-4
  6
CONTINUOUS
 62
     4
 10
8344.8010919999888
 20
13860.63772099999
 30
0.0
 40
199.9999949999999
  0
CIRCLE
  5
45EF
  8
0-4
  6
CONTINUOUS
 62
     4
 10
15009.302351999981
 20
21139.134686000001
 30
0.0
 40
199.9999949999999
  0
TEXT
  5
45F0
  8
0-4
  6
CONTINUOUS
 62
     7
 10
14954.406341999969
 20
21054.397433999991
 30
0.0
 40
160.0
  1
3
 72
     4
 11
15007.739675333311
 21
21134.397433999991
 31
0.0
  0
TEXT
  5
45F1
  8
0-4
  6
CONTINUOUS
 62
     7
 10
13094.539709999979
 20
20976.649861999991
 30
0.0
 40
160.0
  1
2
 72
     4
 11
13147.87304333332
 21
21056.649861999991
 31
0.0
  0
TEXT
  5
45F2
  8
0-4
  6
CONTINUOUS
 62
     7
 10
9827.8836309999933
 20
20978.61552399999
 30
0.0
 40
160.0
  1
1
 72
     4
 11
9854.5502976666594
 21
21058.61552399999
 31
0.0
  0
TEXT
  5
45F3
  8
0-4
  6
CONTINUOUS
 62
     7
 10
8291.9296349999877
 20
19608.952966000001
 30
0.0
 40
160.0
  1
C
 72
     4
 11
8345.2629683333216
 21
19688.952966000001
 31
0.0
  0
TEXT
  5
45F4
  8
0-4
  6
CONTINUOUS
 62
     7
 10
8291.9296349999877
 20
16690.95296599999
 30
0.0
 40
160.0
  1
B
 72
     4
 11
8345.2629683333216
 21
16770.95296599999
 31
0.0
  0
TEXT
  5
45F5
  8
0-4
  6
CONTINUOUS
 62
     7
 10
8291.9296349999877
 20
13772.953955999979
 30
0.0
 40
160.0
  1
A
 72
     4
 11
8345.2629683333216
 21
13852.953955999979
 31
0.0
  0
TEXT
  5
45F6
  8
0-5
  6
CONTINUOUS
 62
     7
 10
12184.670819999979
 20
20229.138116999991
 30
0.0
 40
160.0
  1
屋根
 72
     4
 11
12355.337486666651
 21
20309.138116999991
 31
0.0
  0
TEXT
  5
45F7
  8
0-5
  6
CONTINUOUS
 62
     7
 10
11198.069851
 20
14311.96597799998
 30
0.0
 40
160.0
  1
桁（前）
 72
     4
 11
11518.069851
 21
14391.96597799998
 31
0.0
  0
TEXT
  5
45F8
  8
0-5
  6
CONTINUOUS
 62
     7
 10
12105.595980999989
 20
12948.138050999991
 30
0.0
 40
160.0
  1
鼻隠し前
 72
     4
 11
12468.262647666659
 21
13028.138050999991
 31
0.0
  0
TEXT
  5
45F9
  8
0-5
  6
CONTINUOUS
 62
     7
 10
8138.403616999989
 20
12548.13772099999
 30
0.0
 40
160.0
  1
ケラバ 左
 72
     4
 11
8554.403616999989
 21
12628.13772099999
 31
0.0
  0
TEXT
  5
45FA
  8
0-5
  6
CONTINUOUS
 62
     7
 10
10118.83030299999
 20
18656.33538199999
 30
0.0
 40
160.0
  1
上枠
 72
     4
 11
10289.496969666659
 21
18736.33538199999
 31
0.0
  0
TEXT
  5
45FB
  8
0-5
  6
CONTINUOUS
 62
     7
 10
10416.039260999991
 20
20950.575643
 30
0.0
 40
160.0
  1
鼻隠しコーナー後
 72
     4
 11
11162.705927666661
 21
21030.575643
 31
0.0
  0
TEXT
  5
45FC
  8
0-5
  6
CONTINUOUS
 62
     7
 10
11993.437447999981
 20
15988.66431299999
 30
0.0
 40
160.0
  1
梁　梁補強
 72
     4
 11
12452.10411466665
 21
16068.66431299999
 31
0.0
  0
TEXT
  5
45FD
  8
0-5
  6
CONTINUOUS
 62
     7
 10
12213.287729999989
 20
15991.037755999971
 30
0.0
 40
160.0
  1
+
 72
     4
 11
12266.621063333319
 21
16071.037755999971
 31
0.0
  0
TEXT
  5
45FE
  8
0-5
  6
CONTINUOUS
 62
     7
 10
11425.419539999981
 20
16524.95449699997
 30
0.0
 40
160.0
  1
ブレース
 72
     4
 11
11788.08620666665
 21
16610.287830333309
 31
0.0
  0
TEXT
  5
45FF
  8
0-6
  6
CONTINUOUS
 62
     7
 10
10388.5862581448
 20
20229.134156999979
 30
0.0
 40
160.0
  1
桁後+桁後補強
 72
     4
 11
11023.25292481147
 21
20309.134156999979
 31
0.0
  0
LINE
  5
4600
  8
0-6
  6
CONTINUOUS
 62
     6
 10
11832.301665999979
 20
19742.635793999991
 30
0.0
 11
11698.90771811874
 21
20149.135872999981
 31
0.0
  0
LINE
  5
4601
  8
0-6
  6
CONTINUOUS
 62
     6
 10
10349.165364549521
 20
20149.135872999981
 30
0.0
 11
11698.90771811874
 21
20149.135872999981
 31
0.0
  0
LINE
  5
4602
  8
0-6
  6
CONTINUOUS
 62
     6
 10
11808.69421063269
 20
19903.11723242492
 30
0.0
 11
11757.92056685975
 21
19886.783716240141
 31
0.0
  0
LINE
  5
4603
  8
0-6
  6
CONTINUOUS
 62
     6
 10
11808.69421063269
 20
19903.11723242492
 30
0.0
 11
11832.301665999979
 21
19742.635793999991
 31
0.0
  0
LINE
  5
4604
  8
0-6
  6
CONTINUOUS
 62
     6
 10
11757.92056685975
 20
19886.783716240141
 30
0.0
 11
11808.69421063269
 21
19903.11723242492
 31
0.0
  0
LINE
  5
4605
  8
0-6
  6
CONTINUOUS
 62
     6
 10
11832.301665999979
 20
19742.635793999991
 30
0.0
 11
11757.92056685975
 21
19886.783716240141
 31
0.0
  0
LINE
  5
4606
  8
0-6
  6
CONTINUOUS
 62
     6
 10
11832.301665999979
 20
19742.635793999991
 30
0.0
 11
11808.69421063269
 21
19903.11723242492
 31
0.0
  0
LINE
  5
4607
  8
0-6
  6
CONTINUOUS
 62
     6
 10
11757.92056685975
 20
19886.783716240141
 30
0.0
 11
11832.301665999979
 21
19742.635793999991
 31
0.0
  0
LINE
  5
4608
  8
SUNPOU
  6
CONTINUOUS
 10
8944.8025759999873
 20
19919.13363
 30
0.0
 11
8944.8025759999873
 21
20716.10089777847
 31
0.0
  0
LINE
  5
4609
  8
SUNPOU
  6
CONTINUOUS
 10
8944.8025759999873
 20
13668.14240599999
 30
0.0
 11
8944.8025759999873
 21
12992.716290189601
 31
0.0
  0
LINE
  5
460A
  8
0-1
  6
CONTINUOUS
 62
     3
 10
14669.30315799999
 20
16779.235919182262
 30
0.0
 11
14669.30315799999
 21
19899.13363
 31
0.0
  0
LINE
  5
460B
  8
0-1
  6
CONTINUOUS
 62
     3
 10
14632.30298599999
 20
16797.927079453912
 30
0.0
 11
14632.30298599999
 21
19899.13363
 31
0.0
  0
LINE
  5
460C
  8
0-1
  6
CONTINUOUS
 62
     3
 10
14869.30381699998
 20
16678.202757179581
 30
0.0
 11
14869.303816999991
 21
19899.13363
 31
0.0
  0
LINE
  5
460D
  8
0-1
  6
CONTINUOUS
 62
     3
 10
14906.302009999979
 20
16659.512596627788
 30
0.0
 11
14906.30200999999
 21
19899.13363
 31
0.0
  0
TEXT
  5
460E
  8
2-0
  6
CONTINUOUS
 62
     7
 10
15386.39866299996
 20
14943.11844100007
 30
0.0
 40
160.0
  1
桁中B +  桁中補強B
 50
359.99976399999451
 72
     4
 11
16319.73232584355
 21
15023.11459662074
 31
0.0
  0
TEXT
  5
460F
  8
2-0
  6
CONTINUOUS
 62
     7
 10
15386.398662999971
 20
17250.839222999992
 30
0.0
 40
160.0
  1
桁中A +  桁中補強A
 72
     4
 11
16319.73199633331
 21
17330.839222999992
 31
0.0
  0
TEXT
  5
4610
  8
2-0
  6
CONTINUOUS
 62
     7
 10
15386.39866299996
 20
18704.851047000051
 30
0.0
 40
160.0
  1
桁中B +  桁中補強B
 50
359.99976399999451
 72
     4
 11
16319.73232584355
 21
18784.84720262072
 31
0.0
  0
TEXT
  5
4611
  8
2-0
  6
CONTINUOUS
 62
     7
 10
15435.89454499997
 20
15784.86417800002
 30
0.0
 40
160.0
  1
ブレース
 50
359.99973399999152
 72
     4
 11
15798.56160782921
 21
15870.19582762489
 31
0.0
  0
LINE
  5
4612
  8
2-0
  6
CONTINUOUS
 62
     6
 10
15355.890321999979
 20
15704.859954999991
 30
0.0
 11
16235.89322599998
 21
15704.859954999991
 31
0.0
  0
LINE
  5
4613
  8
2-0
  6
CONTINUOUS
 62
     6
 10
15293.569138999979
 20
14866.32598699998
 30
0.0
 11
17288.013289999959
 21
14866.32598699998
 31
0.0
  0
LINE
  5
4614
  8
2-0
  6
CONTINUOUS
 62
     6
 10
15293.569138999979
 20
18628.057603999991
 30
0.0
 11
17288.013289999959
 21
18628.057603999991
 31
0.0
  0
LINE
  5
4615
  8
2-0
  6
CONTINUOUS
 62
     6
 10
15293.569138999979
 20
17174.057655999979
 30
0.0
 11
17288.013289999959
 21
17174.057655999979
 31
0.0
  0
LINE
  5
4616
  8
0-6
  6
CONTINUOUS
 62
     6
 10
14396.528518999979
 20
16869.999642999981
 30
0.0
 11
15293.569138999979
 21
17174.053696999981
 31
0.0
  0
LINE
  5
4617
  8
0-6
  6
CONTINUOUS
 62
     6
 10
14396.528518999979
 20
18323.999590999982
 30
0.0
 11
15293.569138999979
 21
18628.053644999982
 31
0.0
  0
LINE
  5
4618
  8
0-6
  6
CONTINUOUS
 62
     6
 10
14405.087956999971
 20
18298.744891999992
 30
0.0
 11
14387.96908099999
 21
18349.258247999991
 31
0.0
  0
LINE
  5
4619
  8
0-6
  6
CONTINUOUS
 62
     6
 10
14405.087956999971
 20
18298.744891999992
 30
0.0
 11
14244.99637199998
 21
18272.642959999968
 31
0.0
  0
LINE
  5
461A
  8
0-6
  6
CONTINUOUS
 62
     6
 10
14387.96908099999
 20
18349.258247999991
 30
0.0
 11
14405.087956999971
 21
18298.744891999992
 31
0.0
  0
LINE
  5
461B
  8
0-6
  6
CONTINUOUS
 62
     6
 10
14244.99637199998
 20
18272.642959999968
 30
0.0
 11
14387.96908099999
 21
18349.258247999991
 31
0.0
  0
LINE
  5
461C
  8
0-6
  6
CONTINUOUS
 62
     6
 10
14244.99637199998
 20
18272.642959999968
 30
0.0
 11
14405.087956999971
 21
18298.744891999992
 31
0.0
  0
LINE
  5
461D
  8
0-6
  6
CONTINUOUS
 62
     6
 10
14387.96908099999
 20
18349.258247999991
 30
0.0
 11
14244.99637199998
 21
18272.642959999968
 31
0.0
  0
LINE
  5
461E
  8
0-6
  6
CONTINUOUS
 62
     6
 10
14405.087956999971
 20
16844.744944999991
 30
0.0
 11
14387.96908099999
 21
16895.258299999979
 31
0.0
  0
LINE
  5
461F
  8
0-6
  6
CONTINUOUS
 62
     6
 10
14405.087956999971
 20
16844.744944999991
 30
0.0
 11
14244.99637199998
 21
16818.639053999981
 31
0.0
  0
LINE
  5
4620
  8
0-6
  6
CONTINUOUS
 62
     6
 10
14387.96908099999
 20
16895.258299999979
 30
0.0
 11
14405.087956999971
 21
16844.744944999991
 31
0.0
  0
LINE
  5
4621
  8
0-6
  6
CONTINUOUS
 62
     6
 10
14244.99637199998
 20
16818.639053999981
 30
0.0
 11
14387.96908099999
 21
16895.258299999979
 31
0.0
  0
LINE
  5
4622
  8
0-6
  6
CONTINUOUS
 62
     6
 10
14244.99637199998
 20
16818.639053999981
 30
0.0
 11
14405.087956999971
 21
16844.744944999991
 31
0.0
  0
LINE
  5
4623
  8
0-6
  6
CONTINUOUS
 62
     6
 10
14387.96908099999
 20
16895.258299999979
 30
0.0
 11
14244.99637199998
 21
16818.639053999981
 31
0.0
  0
LINE
  5
4624
  8
0-6
  6
CONTINUOUS
 62
     6
 10
14883.62469699999
 20
15525.927311999991
 30
0.0
 11
14867.38868599998
 21
15576.729676999979
 31
0.0
  0
LINE
  5
4625
  8
0-6
  6
CONTINUOUS
 62
     6
 10
14883.62469699999
 20
15525.927311999991
 30
0.0
 11
14723.101576999979
 21
15502.620459999949
 31
0.0
  0
LINE
  5
4626
  8
0-6
  6
CONTINUOUS
 62
     6
 10
14867.38868599998
 20
15576.729676999979
 30
0.0
 11
14883.62469699999
 21
15525.927311999991
 31
0.0
  0
LINE
  5
4627
  8
0-6
  6
CONTINUOUS
 62
     6
 10
14723.101576999979
 20
15502.620459999949
 30
0.0
 11
14867.38868599998
 21
15576.729676999979
 31
0.0
  0
LINE
  5
4628
  8
0-6
  6
CONTINUOUS
 62
     6
 10
14723.101576999979
 20
15502.620459999949
 30
0.0
 11
14883.62469699999
 21
15525.927311999991
 31
0.0
  0
LINE
  5
4629
  8
0-6
  6
CONTINUOUS
 62
     6
 10
14867.38868599998
 20
15576.729676999979
 30
0.0
 11
14723.101576999979
 21
15502.620459999949
 31
0.0
  0
LINE
  5
462A
  8
0-6
  6
CONTINUOUS
 62
     6
 10
14384.41782399998
 20
15191.73310799998
 30
0.0
 11
14403.767618999949
 21
15241.43189099996
 31
0.0
  0
LINE
  5
462B
  8
0-6
  6
CONTINUOUS
 62
     6
 10
14384.41782399998
 20
15191.73310799998
 30
0.0
 11
14244.99637199998
 21
15274.63930499999
 31
0.0
  0
LINE
  5
462C
  8
0-6
  6
CONTINUOUS
 62
     6
 10
14403.767618999949
 20
15241.43189099996
 30
0.0
 11
14384.41782399998
 21
15191.73310799998
 31
0.0
  0
LINE
  5
462D
  8
0-6
  6
CONTINUOUS
 62
     6
 10
14244.99637199998
 20
15274.63930499999
 30
0.0
 11
14403.767618999949
 21
15241.43189099996
 31
0.0
  0
LINE
  5
462E
  8
0-6
  6
CONTINUOUS
 62
     6
 10
14244.99637199998
 20
15274.63930499999
 30
0.0
 11
14384.41782399998
 21
15191.73310799998
 31
0.0
  0
LINE
  5
462F
  8
0-6
  6
CONTINUOUS
 62
     6
 10
14403.767618999949
 20
15241.43189099996
 30
0.0
 11
14244.99637199998
 21
15274.63930499999
 31
0.0
  0
LINE
  5
4630
  8
0-6
  6
CONTINUOUS
 62
     6
 10
14394.09371099998
 20
15216.58299399998
 30
0.0
 11
15293.569138999979
 21
14866.32697699999
 31
0.0
  0
LINE
  5
4631
  8
0-6
  6
CONTINUOUS
 62
     6
 10
14723.101576999979
 20
15502.620459999949
 30
0.0
 11
15355.890321999979
 21
15704.859954999991
 31
0.0
  0
LINE
  5
4634
  8
WAKUSEN-01
 10
868.00000000000193
 20
22484.000000000011
 30
0.0
 11
32764.000000000011
 21
22484.000000000011
 31
0.0
  0
LINE
  5
4637
  8
WAKUSEN-01
 10
20560.0
 20
2484.0
 30
0.0
 11
32764.0
 21
2484.0
 31
0.0
  0
LINE
  5
4638
  8
WAKUSEN-02
 10
20560.0
 20
1655.9999999999991
 30
0.0
 11
26868.0
 21
1655.9999999999991
 31
0.0
  0
TEXT
  5
4639
  8
WAKUMOJI-01
 10
20670.260259962761
 20
2125.9030093393221
 30
0.0
 40
240.0
  1
名　称
  7
WAKUMOJI
  0
TEXT
  5
463A
  8
WAKUMOJI-01
 10
20656.505485091919
 20
1319.12897497982
 30
0.0
 40
240.0
  1
機種名
  7
WAKUMOJI
  0
LINE
  5
463D
  8
YODOROGO
 10
29977.604341291921
 20
1995.7494964292871
 30
0.0
 11
29829.604341291921
 21
1995.7494964292871
 31
0.0
1001
AUTOCAD_POSTSCRIPT_FIGURE
1002
{
1000
PSFILL
1000
Grayscale
1000
Grayscale
1070
    25
1002
}
  0
LINE
  5
463E
  8
YODOROGO
 10
29829.604341291921
 20
1947.749496429288
 30
0.0
 11
29977.604341291921
 21
1947.749496429288
 31
0.0
1001
AUTOCAD_POSTSCRIPT_FIGURE
1002
{
1000
PSFILL
1000
Grayscale
1000
Grayscale
1070
    25
1002
}
  0
LINE
  5
463F
  8
YODOROGO
 10
29977.604341291921
 20
1907.7494964292871
 30
0.0
 11
29829.604341291921
 21
1907.7494964292871
 31
0.0
1001
AUTOCAD_POSTSCRIPT_FIGURE
1002
{
1000
PSFILL
1000
Grayscale
1000
Grayscale
1070
    25
1002
}
  0
LINE
  5
4640
  8
YODOROGO
 10
29829.604341291921
 20
1859.749496429288
 30
0.0
 11
29977.604341291921
 21
1859.749496429288
 31
0.0
1001
AUTOCAD_POSTSCRIPT_FIGURE
1002
{
1000
PSFILL
1000
Grayscale
1000
Grayscale
1070
    25
1002
}
  0
LINE
  5
4641
  8
YODOROGO
 10
29977.604341291921
 20
1819.7494964292871
 30
0.0
 11
29829.604341291921
 21
1819.7494964292871
 31
0.0
1001
AUTOCAD_POSTSCRIPT_FIGURE
1002
{
1000
PSFILL
1000
Grayscale
1000
Grayscale
1070
    25
1002
}
  0
LINE
  5
4642
  8
YODOROGO
 10
29921.60434129191
 20
1707.749496429288
 30
0.0
 11
29977.604341291921
 21
1707.749496429288
 31
0.0
1001
AUTOCAD_POSTSCRIPT_FIGURE
1002
{
1000
PSFILL
1000
Grayscale
1000
Grayscale
1070
    25
1002
}
  0
LINE
  5
4643
  8
YODOROGO
 10
29737.604341291921
 20
1427.749496429288
 30
0.0
 11
29937.604341291932
 21
1481.3393349155101
 31
0.0
  0
LINE
  5
4644
  8
YODOROGO
 10
29949.60434129191
 20
1707.749496429288
 30
0.0
 11
29885.604341291921
 21
1707.749496429288
 31
0.0
  0
ARC
  5
4645
  8
YODOROGO
 10
30254.34774982791
 20
1807.864609233261
 30
0.0
 40
381.88686420564721
 50
213.96111677667841
 51
264.47872074317792
  0
ARC
  5
4646
  8
YODOROGO
 10
30254.347749827921
 20
1807.864609233302
 30
0.0
 40
381.8868642056816
 50
208.14114420486601
 51
212.9210361185994
  0
LINE
  5
4647
  8
YODOROGO
 10
29771.409872985321
 20
1556.807661346234
 30
0.0
 11
29933.78413250855
 21
1600.3157130570869
 31
0.0
  0
LINE
  5
4648
  8
YODOROGO
 10
29737.604341291921
 20
1427.749496429288
 30
0.0
 11
29937.604341291932
 21
1481.3393349155101
 31
0.0
  0
LINE
  5
4649
  8
YODOROGO
 10
29949.60434129191
 20
1707.749496429288
 30
0.0
 11
29885.604341291921
 21
1707.749496429288
 31
0.0
  0
ARC
  5
464A
  8
YODOROGO
 10
30254.34774982791
 20
1807.864609233261
 30
0.0
 40
381.88686420564721
 50
213.96111677667841
 51
264.47872074317792
  0
LINE
  5
464B
  8
YODOROGO
 10
28793.60434129191
 20
1819.7494964292871
 30
0.0
 11
28433.60434129191
 21
1819.7494964292871
 31
0.0
  0
LINE
  5
464C
  8
YODOROGO
 10
28513.60434129191
 20
1427.749496429288
 30
0.0
 11
28793.60434129191
 21
1427.749496429288
 31
0.0
  0
LINE
  5
464D
  8
YODOROGO
 10
28729.604341291921
 20
1923.7494964292871
 30
0.0
 11
28497.60434129191
 21
1923.7494964292871
 31
0.0
  0
LINE
  5
464E
  8
YODOROGO
 10
28585.604341291921
 20
2027.749496429288
 30
0.0
 11
28657.604341291921
 21
2027.749496429288
 31
0.0
  0
LINE
  5
464F
  8
YODOROGO
 10
28433.60434129191
 20
1707.749496429288
 30
0.0
 11
28433.60434129191
 21
1507.749496429288
 31
0.0
  0
LINE
  5
4650
  8
YODOROGO
 10
28497.60434129191
 20
1563.7494964292871
 30
0.0
 11
28497.60434129191
 21
1707.749496429288
 31
0.0
  0
LINE
  5
4651
  8
YODOROGO
 10
28585.604341291921
 20
1747.74949642929
 30
0.0
 11
28585.604341291921
 21
1547.749496429288
 31
0.0
  0
LINE
  5
4652
  8
YODOROGO
 10
27857.604341291921
 20
1683.749496429288
 30
0.0
 11
27777.604341291921
 21
1619.9724140445701
 31
0.0
  0
LINE
  5
4653
  8
YODOROGO
 10
27937.604341291921
 20
1619.9724140445701
 30
0.0
 11
27857.604341291921
 21
1683.749496429288
 31
0.0
  0
LINE
  5
4654
  8
YODOROGO
 10
27857.604341291921
 20
1707.749496429288
 30
0.0
 11
27937.604341291921
 21
1643.9724140445701
 31
0.0
  0
LINE
  5
4655
  8
YODOROGO
 10
27777.604341291921
 20
1643.9724140445701
 30
0.0
 11
27857.604341291921
 21
1707.749496429288
 31
0.0
  0
LINE
  5
4656
  8
YODOROGO
 10
28040.913204016892
 20
1659.749496429288
 30
0.0
 11
28040.913204016892
 21
1683.7494964292871
 31
0.0
  0
LINE
  5
4657
  8
YODOROGO
 10
27977.604341291921
 20
1683.7494964292871
 30
0.0
 11
27977.604341291921
 21
1667.749496429285
 31
0.0
  0
LINE
  5
4658
  8
YODOROGO
 10
28098.135520230931
 20
1707.749496429288
 30
0.0
 11
28098.135520230931
 21
1655.5036372746561
 31
0.0
1001
AUTOCAD_POSTSCRIPT_FIGURE
1002
{
1000
PSFILL
1000
Grayscale
1000
Grayscale
1070
   100
1002
}
  0
LINE
  5
4659
  8
YODOROGO
 10
28082.135520230921
 20
1655.5036372746561
 30
0.0
 11
28082.135520230921
 21
1707.749496429288
 31
0.0
1001
AUTOCAD_POSTSCRIPT_FIGURE
1002
{
1000
PSFILL
1000
Grayscale
1000
Grayscale
1070
   100
1002
}
  0
LINE
  5
465A
  8
YODOROGO
 10
27809.604341291921
 20
1608.771904043258
 30
0.0
 11
27809.604341291921
 21
1632.771904043258
 31
0.0
  0
LINE
  5
465B
  8
YODOROGO
 10
27905.604341291921
 20
1608.771904043258
 30
0.0
 11
27809.604341291921
 21
1608.771904043258
 31
0.0
  0
LINE
  5
465C
  8
YODOROGO
 10
27905.604341291921
 20
1632.771904043258
 30
0.0
 11
27905.604341291921
 21
1608.771904043258
 31
0.0
  0
LINE
  5
465D
  8
YODOROGO
 10
27809.604341291921
 20
1632.771904043258
 30
0.0
 11
27905.604341291921
 21
1632.771904043258
 31
0.0
  0
LINE
  5
465E
  8
YODOROGO
 10
27824.509588915738
 20
1568.5028573704751
 30
0.0
 11
27785.604341291921
 21
1475.7494964292871
 31
0.0
1001
AUTOCAD_POSTSCRIPT_FIGURE
1002
{
1000
PSFILL
1000
Grayscale
1000
Grayscale
1070
   100
1002
}
  0
LINE
  5
465F
  8
YODOROGO
 10
27777.604341291921
 20
1568.5028573704751
 30
0.0
 11
27824.509588915738
 21
1568.5028573704751
 31
0.0
1001
AUTOCAD_POSTSCRIPT_FIGURE
1002
{
1000
PSFILL
1000
Grayscale
1000
Grayscale
1070
   100
1002
}
  0
LINE
  5
4660
  8
YODOROGO
 10
27777.604341291921
 20
1588.5028573704751
 30
0.0
 11
27777.604341291921
 21
1568.5028573704751
 31
0.0
1001
AUTOCAD_POSTSCRIPT_FIGURE
1002
{
1000
PSFILL
1000
Grayscale
1000
Grayscale
1070
   100
1002
}
  0
LINE
  5
4661
  8
YODOROGO
 10
27937.604341291921
 20
1588.5028573704751
 30
0.0
 11
27777.604341291921
 21
1588.5028573704751
 31
0.0
1001
AUTOCAD_POSTSCRIPT_FIGURE
1002
{
1000
PSFILL
1000
Grayscale
1000
Grayscale
1070
   100
1002
}
  0
LINE
  5
4662
  8
YODOROGO
 10
27937.604341291921
 20
1568.5028573704751
 30
0.0
 11
27937.604341291921
 21
1588.5028573704751
 31
0.0
1001
AUTOCAD_POSTSCRIPT_FIGURE
1002
{
1000
PSFILL
1000
Grayscale
1000
Grayscale
1070
   100
1002
}
  0
LINE
  5
4663
  8
YODOROGO
 10
27844.509588915738
 20
1568.5028573704751
 30
0.0
 11
27937.604341291921
 21
1568.5028573704751
 31
0.0
1001
AUTOCAD_POSTSCRIPT_FIGURE
1002
{
1000
PSFILL
1000
Grayscale
1000
Grayscale
1070
   100
1002
}
  0
LINE
  5
4664
  8
YODOROGO
 10
27815.546718284771
 20
1495.7494964292871
 30
0.0
 11
27844.509588915738
 21
1568.5028573704751
 31
0.0
1001
AUTOCAD_POSTSCRIPT_FIGURE
1002
{
1000
PSFILL
1000
Grayscale
1000
Grayscale
1070
   100
1002
}
  0
LINE
  5
4665
  8
YODOROGO
 10
27902.054790808648
 20
1495.7494964292871
 30
0.0
 11
27815.546718284771
 21
1495.7494964292871
 31
0.0
1001
AUTOCAD_POSTSCRIPT_FIGURE
1002
{
1000
PSFILL
1000
Grayscale
1000
Grayscale
1070
   100
1002
}
  0
LINE
  5
4666
  8
YODOROGO
 10
27885.065004790951
 20
1536.2338106976929
 30
0.0
 11
27902.054790808648
 21
1495.7494964292871
 31
0.0
1001
AUTOCAD_POSTSCRIPT_FIGURE
1002
{
1000
PSFILL
1000
Grayscale
1000
Grayscale
1070
   100
1002
}
  0
LINE
  5
4667
  8
YODOROGO
 10
27901.065004790951
 20
1536.2338106976929
 30
0.0
 11
27885.065004790951
 21
1536.2338106976929
 31
0.0
1001
AUTOCAD_POSTSCRIPT_FIGURE
1002
{
1000
PSFILL
1000
Grayscale
1000
Grayscale
1070
   100
1002
}
  0
LINE
  5
4668
  8
YODOROGO
 10
27929.604341291921
 20
1475.7494964292871
 30
0.0
 11
27901.065004790951
 21
1536.2338106976929
 31
0.0
1001
AUTOCAD_POSTSCRIPT_FIGURE
1002
{
1000
PSFILL
1000
Grayscale
1000
Grayscale
1070
   100
1002
}
  0
LINE
  5
4669
  8
YODOROGO
 10
27785.604341291921
 20
1475.7494964292871
 30
0.0
 11
27929.604341291921
 21
1475.7494964292871
 31
0.0
1001
AUTOCAD_POSTSCRIPT_FIGURE
1002
{
1000
PSFILL
1000
Grayscale
1000
Grayscale
1070
   100
1002
}
  0
LINE
  5
466A
  8
YODOROGO
 10
27777.604341291921
 20
1619.9724140445701
 30
0.0
 11
27777.604341291921
 21
1643.9724140445701
 31
0.0
  0
LINE
  5
466B
  8
YODOROGO
 10
27937.604341291921
 20
1643.9724140445701
 30
0.0
 11
27937.604341291921
 21
1619.9724140445701
 31
0.0
  0
ARC
  5
466C
  8
YODOROGO
 10
28225.940442146959
 20
1600.877765325326
 30
0.0
 40
175.9999999999998
 50
280.3644312771313
 51
3.5414836592180561
  0
ARC
  5
466D
  8
YODOROGO
 10
28235.756030759301
 20
1633.5978069619041
 30
0.0
 40
111.9999999999982
 50
281.24905825041549
 51
348.75094174958321
  0
LINE
  5
466E
  8
YODOROGO
 10
28257.604341291921
 20
1523.7494964292871
 30
0.0
 11
28257.604341291921
 21
1427.749496429288
 31
0.0
  0
LINE
  5
466F
  8
YODOROGO
 10
28020.088903736909
 20
1610.650565061914
 30
0.0
 11
28040.913204016892
 21
1659.749496429288
 31
0.0
  0
LINE
  5
4670
  8
YODOROGO
 10
28041.604341291921
 20
1583.120489948401
 30
0.0
 11
28020.088903736909
 21
1610.650565061914
 31
0.0
  0
LINE
  5
4671
  8
YODOROGO
 10
28041.604341291921
 20
1563.120489948398
 30
0.0
 11
28041.604341291921
 21
1583.120489948401
 31
0.0
  0
LINE
  5
4672
  8
YODOROGO
 10
28017.604341291921
 20
1585.2370637495301
 30
0.0
 11
28041.604341291921
 21
1563.120489948398
 31
0.0
  0
LINE
  5
4673
  8
YODOROGO
 10
28017.604341291921
 20
1475.7494964292871
 30
0.0
 11
28017.604341291921
 21
1585.2370637495301
 31
0.0
  0
LINE
  5
4674
  8
YODOROGO
 10
28001.604341291921
 20
1475.7494964292871
 30
0.0
 11
28017.604341291921
 21
1475.7494964292871
 31
0.0
  0
LINE
  5
4675
  8
YODOROGO
 10
28001.604341291921
 20
1580.0053496897469
 30
0.0
 11
28001.604341291921
 21
1475.7494964292871
 31
0.0
  0
LINE
  5
4676
  8
YODOROGO
 10
27977.604341291921
 20
1532.7680790334291
 30
0.0
 11
28001.604341291921
 21
1580.0053496897469
 31
0.0
  0
LINE
  5
4677
  8
YODOROGO
 10
27977.604341291921
 20
1556.76807903343
 30
0.0
 11
27977.604341291921
 21
1532.7680790334291
 31
0.0
  0
LINE
  5
4678
  8
YODOROGO
 10
28025.828774291349
 20
1667.749496429285
 30
0.0
 11
27977.604341291921
 21
1556.76807903343
 31
0.0
  0
LINE
  5
4679
  8
YODOROGO
 10
27977.604341291921
 20
1667.749496429285
 30
0.0
 11
28025.828774291349
 21
1667.749496429285
 31
0.0
  0
LINE
  5
467A
  8
YODOROGO
 10
28050.135520230899
 20
1655.5036372746561
 30
0.0
 11
28082.135520230921
 21
1655.5036372746561
 31
0.0
1001
AUTOCAD_POSTSCRIPT_FIGURE
1002
{
1000
PSFILL
1000
Grayscale
1000
Grayscale
1070
   100
1002
}
  0
LINE
  5
467B
  8
YODOROGO
 10
28050.135520230899
 20
1631.5036372746561
 30
0.0
 11
28050.135520230899
 21
1655.5036372746561
 31
0.0
1001
AUTOCAD_POSTSCRIPT_FIGURE
1002
{
1000
PSFILL
1000
Grayscale
1000
Grayscale
1070
   100
1002
}
  0
LINE
  5
467C
  8
YODOROGO
 10
28082.135520230921
 20
1631.5036372746561
 30
0.0
 11
28050.135520230899
 21
1631.5036372746561
 31
0.0
1001
AUTOCAD_POSTSCRIPT_FIGURE
1002
{
1000
PSFILL
1000
Grayscale
1000
Grayscale
1070
   100
1002
}
  0
LINE
  5
467D
  8
YODOROGO
 10
28082.135520230921
 20
1499.749496429288
 30
0.0
 11
28082.135520230921
 21
1631.5036372746561
 31
0.0
1001
AUTOCAD_POSTSCRIPT_FIGURE
1002
{
1000
PSFILL
1000
Grayscale
1000
Grayscale
1070
   100
1002
}
  0
LINE
  5
467E
  8
YODOROGO
 10
28050.135520230921
 20
1499.749496429288
 30
0.0
 11
28082.135520230921
 21
1499.749496429288
 31
0.0
1001
AUTOCAD_POSTSCRIPT_FIGURE
1002
{
1000
PSFILL
1000
Grayscale
1000
Grayscale
1070
   100
1002
}
  0
LINE
  5
467F
  8
YODOROGO
 10
28050.135520230921
 20
1475.7494964292871
 30
0.0
 11
28050.135520230921
 21
1499.749496429288
 31
0.0
1001
AUTOCAD_POSTSCRIPT_FIGURE
1002
{
1000
PSFILL
1000
Grayscale
1000
Grayscale
1070
   100
1002
}
  0
LINE
  5
4680
  8
YODOROGO
 10
28137.604341291921
 20
1475.7494964292871
 30
0.0
 11
28050.135520230921
 21
1475.7494964292871
 31
0.0
1001
AUTOCAD_POSTSCRIPT_FIGURE
1002
{
1000
PSFILL
1000
Grayscale
1000
Grayscale
1070
   100
1002
}
  0
LINE
  5
4681
  8
YODOROGO
 10
28137.604341291921
 20
1499.749496429288
 30
0.0
 11
28137.604341291921
 21
1475.7494964292871
 31
0.0
1001
AUTOCAD_POSTSCRIPT_FIGURE
1002
{
1000
PSFILL
1000
Grayscale
1000
Grayscale
1070
   100
1002
}
  0
LINE
  5
4682
  8
YODOROGO
 10
28098.135520230931
 20
1499.749496429288
 30
0.0
 11
28137.604341291921
 21
1499.749496429288
 31
0.0
1001
AUTOCAD_POSTSCRIPT_FIGURE
1002
{
1000
PSFILL
1000
Grayscale
1000
Grayscale
1070
   100
1002
}
  0
LINE
  5
4683
  8
YODOROGO
 10
28098.135520230931
 20
1631.5036372746561
 30
0.0
 11
28098.135520230931
 21
1499.749496429288
 31
0.0
1001
AUTOCAD_POSTSCRIPT_FIGURE
1002
{
1000
PSFILL
1000
Grayscale
1000
Grayscale
1070
   100
1002
}
  0
LINE
  5
4684
  8
YODOROGO
 10
28137.604341291921
 20
1631.5036372746561
 30
0.0
 11
28098.135520230931
 21
1631.5036372746561
 31
0.0
1001
AUTOCAD_POSTSCRIPT_FIGURE
1002
{
1000
PSFILL
1000
Grayscale
1000
Grayscale
1070
   100
1002
}
  0
LINE
  5
4685
  8
YODOROGO
 10
28137.604341291921
 20
1655.5036372746561
 30
0.0
 11
28137.604341291921
 21
1631.5036372746561
 31
0.0
1001
AUTOCAD_POSTSCRIPT_FIGURE
1002
{
1000
PSFILL
1000
Grayscale
1000
Grayscale
1070
   100
1002
}
  0
LINE
  5
4686
  8
YODOROGO
 10
28098.135520230931
 20
1655.5036372746561
 30
0.0
 11
28137.604341291921
 21
1655.5036372746561
 31
0.0
1001
AUTOCAD_POSTSCRIPT_FIGURE
1002
{
1000
PSFILL
1000
Grayscale
1000
Grayscale
1070
   100
1002
}
  0
LINE
  5
4687
  8
YODOROGO
 10
28401.60434129191
 20
1667.749496429288
 30
0.0
 11
28345.604341291921
 21
1667.749496429288
 31
0.0
  0
LINE
  5
4688
  8
YODOROGO
 10
28401.60434129191
 20
1611.749496429288
 30
0.0
 11
28401.60434129191
 21
1667.749496429288
 31
0.0
  0
LINE
  5
4689
  8
YODOROGO
 10
28345.604341291921
 20
1667.749496429288
 30
0.0
 11
28345.604341291921
 21
1611.749496429288
 31
0.0
  0
ARC
  5
468A
  8
YODOROGO
 10
28513.60434129191
 20
1507.749496429288
 30
0.0
 40
80.0
 50
180.0
 51
270.0
  0
ARC
  5
468B
  8
YODOROGO
 10
28537.604341291921
 20
1563.7494964292871
 30
0.0
 40
40.0
 50
180.0
 51
270.0
  0
LINE
  5
468C
  8
YODOROGO
 10
28561.604341291932
 20
1523.7494964292871
 30
0.0
 11
28537.604341291921
 21
1523.7494964292871
 31
0.0
  0
ARC
  5
468D
  8
YODOROGO
 10
28561.604341291932
 20
1547.749496429285
 30
0.0
 40
23.999999999996358
 50
270.0
 51
0.0000000000054281
  0
LINE
  5
468E
  8
YODOROGO
 10
27801.604341291921
 20
1890.786580793706
 30
0.0
 11
27777.604341291921
 21
1843.776747951672
 31
0.0
1001
AUTOCAD_POSTSCRIPT_FIGURE
1002
{
1000
PSFILL
1000
Grayscale
1000
Grayscale
1070
   100
1002
}
  0
LINE
  5
468F
  8
YODOROGO
 10
27801.604341291921
 20
1747.749496429286
 30
0.0
 11
27801.604341291921
 21
1890.786580793706
 31
0.0
1001
AUTOCAD_POSTSCRIPT_FIGURE
1002
{
1000
PSFILL
1000
Grayscale
1000
Grayscale
1070
   100
1002
}
  0
LINE
  5
4690
  8
YODOROGO
 10
27817.604341291921
 20
1747.749496429286
 30
0.0
 11
27801.604341291921
 21
1747.749496429286
 31
0.0
1001
AUTOCAD_POSTSCRIPT_FIGURE
1002
{
1000
PSFILL
1000
Grayscale
1000
Grayscale
1070
   100
1002
}
  0
LINE
  5
4691
  8
YODOROGO
 10
27817.604341291921
 20
1893.7713320852661
 30
0.0
 11
27817.604341291921
 21
1747.749496429286
 31
0.0
1001
AUTOCAD_POSTSCRIPT_FIGURE
1002
{
1000
PSFILL
1000
Grayscale
1000
Grayscale
1070
   100
1002
}
  0
LINE
  5
4692
  8
YODOROGO
 10
27841.604341291921
 20
1867.6547582841361
 30
0.0
 11
27817.604341291921
 21
1893.7713320852661
 31
0.0
1001
AUTOCAD_POSTSCRIPT_FIGURE
1002
{
1000
PSFILL
1000
Grayscale
1000
Grayscale
1070
   100
1002
}
  0
LINE
  5
4693
  8
YODOROGO
 10
27841.604341291921
 20
1883.6547582841361
 30
0.0
 11
27841.604341291921
 21
1867.6547582841361
 31
0.0
1001
AUTOCAD_POSTSCRIPT_FIGURE
1002
{
1000
PSFILL
1000
Grayscale
1000
Grayscale
1070
   100
1002
}
  0
LINE
  5
4694
  8
YODOROGO
 10
27817.604341291921
 20
1917.7713320852649
 30
0.0
 11
27841.604341291921
 21
1883.6547582841361
 31
0.0
1001
AUTOCAD_POSTSCRIPT_FIGURE
1002
{
1000
PSFILL
1000
Grayscale
1000
Grayscale
1070
   100
1002
}
  0
LINE
  5
4695
  8
YODOROGO
 10
27817.604341291921
 20
1939.749496429288
 30
0.0
 11
27817.604341291921
 21
1917.7713320852649
 31
0.0
1001
AUTOCAD_POSTSCRIPT_FIGURE
1002
{
1000
PSFILL
1000
Grayscale
1000
Grayscale
1070
   100
1002
}
  0
LINE
  5
4696
  8
YODOROGO
 10
27889.604341291921
 20
1939.749496429288
 30
0.0
 11
27817.604341291921
 21
1939.749496429288
 31
0.0
1001
AUTOCAD_POSTSCRIPT_FIGURE
1002
{
1000
PSFILL
1000
Grayscale
1000
Grayscale
1070
   100
1002
}
  0
LINE
  5
4697
  8
YODOROGO
 10
27889.604341291921
 20
1900.5683489363
 30
0.0
 11
27889.604341291921
 21
1939.749496429288
 31
0.0
1001
AUTOCAD_POSTSCRIPT_FIGURE
1002
{
1000
PSFILL
1000
Grayscale
1000
Grayscale
1070
   100
1002
}
  0
LINE
  5
4698
  8
YODOROGO
 10
27857.604341291921
 20
1900.5683489363
 30
0.0
 11
27889.604341291921
 21
1900.5683489363
 31
0.0
1001
AUTOCAD_POSTSCRIPT_FIGURE
1002
{
1000
PSFILL
1000
Grayscale
1000
Grayscale
1070
   100
1002
}
  0
LINE
  5
4699
  8
YODOROGO
 10
27857.604341291921
 20
1884.568348936298
 30
0.0
 11
27857.604341291921
 21
1900.5683489363
 31
0.0
1001
AUTOCAD_POSTSCRIPT_FIGURE
1002
{
1000
PSFILL
1000
Grayscale
1000
Grayscale
1070
   100
1002
}
  0
LINE
  5
469A
  8
YODOROGO
 10
27889.604341291921
 20
1884.568348936298
 30
0.0
 11
27857.604341291921
 21
1884.568348936298
 31
0.0
1001
AUTOCAD_POSTSCRIPT_FIGURE
1002
{
1000
PSFILL
1000
Grayscale
1000
Grayscale
1070
   100
1002
}
  0
LINE
  5
469B
  8
YODOROGO
 10
27889.604341291921
 20
1879.6191779644371
 30
0.0
 11
27889.604341291921
 21
1884.568348936298
 31
0.0
1001
AUTOCAD_POSTSCRIPT_FIGURE
1002
{
1000
PSFILL
1000
Grayscale
1000
Grayscale
1070
   100
1002
}
  0
LINE
  5
469C
  8
YODOROGO
 10
27849.604341291921
 20
1812.974981161417
 30
0.0
 11
27889.604341291921
 21
1879.6191779644371
 31
0.0
1001
AUTOCAD_POSTSCRIPT_FIGURE
1002
{
1000
PSFILL
1000
Grayscale
1000
Grayscale
1070
   100
1002
}
  0
LINE
  5
469D
  8
YODOROGO
 10
27849.604341291921
 20
1796.9749811614161
 30
0.0
 11
27849.604341291921
 21
1812.974981161417
 31
0.0
1001
AUTOCAD_POSTSCRIPT_FIGURE
1002
{
1000
PSFILL
1000
Grayscale
1000
Grayscale
1070
   100
1002
}
  0
LINE
  5
469E
  8
YODOROGO
 10
27889.604341291921
 20
1847.6191779644359
 30
0.0
 11
27849.604341291921
 21
1796.9749811614161
 31
0.0
1001
AUTOCAD_POSTSCRIPT_FIGURE
1002
{
1000
PSFILL
1000
Grayscale
1000
Grayscale
1070
   100
1002
}
  0
LINE
  5
469F
  8
YODOROGO
 10
27889.604341291921
 20
1747.749496429286
 30
0.0
 11
27889.604341291921
 21
1847.6191779644359
 31
0.0
1001
AUTOCAD_POSTSCRIPT_FIGURE
1002
{
1000
PSFILL
1000
Grayscale
1000
Grayscale
1070
   100
1002
}
  0
LINE
  5
46A0
  8
YODOROGO
 10
27905.604341291921
 20
1747.749496429286
 30
0.0
 11
27889.604341291921
 21
1747.749496429286
 31
0.0
1001
AUTOCAD_POSTSCRIPT_FIGURE
1002
{
1000
PSFILL
1000
Grayscale
1000
Grayscale
1070
   100
1002
}
  0
LINE
  5
46A1
  8
YODOROGO
 10
27905.604341291921
 20
1849.409012158806
 30
0.0
 11
27905.604341291921
 21
1747.749496429286
 31
0.0
1001
AUTOCAD_POSTSCRIPT_FIGURE
1002
{
1000
PSFILL
1000
Grayscale
1000
Grayscale
1070
   100
1002
}
  0
LINE
  5
46A2
  8
YODOROGO
 10
27937.604341291921
 20
1796.9749811614161
 30
0.0
 11
27905.604341291921
 21
1849.409012158806
 31
0.0
1001
AUTOCAD_POSTSCRIPT_FIGURE
1002
{
1000
PSFILL
1000
Grayscale
1000
Grayscale
1070
   100
1002
}
  0
LINE
  5
46A3
  8
YODOROGO
 10
27937.604341291921
 20
1812.974981161417
 30
0.0
 11
27937.604341291921
 21
1796.9749811614161
 31
0.0
1001
AUTOCAD_POSTSCRIPT_FIGURE
1002
{
1000
PSFILL
1000
Grayscale
1000
Grayscale
1070
   100
1002
}
  0
LINE
  5
46A4
  8
YODOROGO
 10
27905.604341291921
 20
1881.4090121588081
 30
0.0
 11
27937.604341291921
 21
1812.974981161417
 31
0.0
1001
AUTOCAD_POSTSCRIPT_FIGURE
1002
{
1000
PSFILL
1000
Grayscale
1000
Grayscale
1070
   100
1002
}
  0
LINE
  5
46A5
  8
YODOROGO
 10
27905.604341291921
 20
1884.5683489363
 30
0.0
 11
27905.604341291921
 21
1881.4090121588081
 31
0.0
1001
AUTOCAD_POSTSCRIPT_FIGURE
1002
{
1000
PSFILL
1000
Grayscale
1000
Grayscale
1070
   100
1002
}
  0
LINE
  5
46A6
  8
YODOROGO
 10
27937.604341291921
 20
1884.568348936298
 30
0.0
 11
27905.604341291921
 21
1884.5683489363
 31
0.0
1001
AUTOCAD_POSTSCRIPT_FIGURE
1002
{
1000
PSFILL
1000
Grayscale
1000
Grayscale
1070
   100
1002
}
  0
LINE
  5
46A7
  8
YODOROGO
 10
27937.604341291921
 20
1900.5683489363
 30
0.0
 11
27937.604341291921
 21
1884.568348936298
 31
0.0
1001
AUTOCAD_POSTSCRIPT_FIGURE
1002
{
1000
PSFILL
1000
Grayscale
1000
Grayscale
1070
   100
1002
}
  0
LINE
  5
46A8
  8
YODOROGO
 10
27905.604341291921
 20
1900.5683489363
 30
0.0
 11
27937.604341291921
 21
1900.5683489363
 31
0.0
1001
AUTOCAD_POSTSCRIPT_FIGURE
1002
{
1000
PSFILL
1000
Grayscale
1000
Grayscale
1070
   100
1002
}
  0
LINE
  5
46A9
  8
YODOROGO
 10
27905.604341291921
 20
1939.749496429288
 30
0.0
 11
27905.604341291921
 21
1900.5683489363
 31
0.0
1001
AUTOCAD_POSTSCRIPT_FIGURE
1002
{
1000
PSFILL
1000
Grayscale
1000
Grayscale
1070
   100
1002
}
  0
LINE
  5
46AA
  8
YODOROGO
 10
27937.604341291921
 20
1939.749496429288
 30
0.0
 11
27905.604341291921
 21
1939.749496429288
 31
0.0
1001
AUTOCAD_POSTSCRIPT_FIGURE
1002
{
1000
PSFILL
1000
Grayscale
1000
Grayscale
1070
   100
1002
}
  0
LINE
  5
46AB
  8
YODOROGO
 10
27937.604341291921
 20
1955.7494964292871
 30
0.0
 11
27937.604341291921
 21
1939.749496429288
 31
0.0
1001
AUTOCAD_POSTSCRIPT_FIGURE
1002
{
1000
PSFILL
1000
Grayscale
1000
Grayscale
1070
   100
1002
}
  0
LINE
  5
46AC
  8
YODOROGO
 10
27905.604341291921
 20
1955.7494964292871
 30
0.0
 11
27937.604341291921
 21
1955.7494964292871
 31
0.0
1001
AUTOCAD_POSTSCRIPT_FIGURE
1002
{
1000
PSFILL
1000
Grayscale
1000
Grayscale
1070
   100
1002
}
  0
LINE
  5
46AD
  8
YODOROGO
 10
27905.604341291921
 20
1979.749496429288
 30
0.0
 11
27905.604341291921
 21
1955.7494964292871
 31
0.0
1001
AUTOCAD_POSTSCRIPT_FIGURE
1002
{
1000
PSFILL
1000
Grayscale
1000
Grayscale
1070
   100
1002
}
  0
LINE
  5
46AE
  8
YODOROGO
 10
27889.604341291921
 20
1979.749496429288
 30
0.0
 11
27905.604341291921
 21
1979.749496429288
 31
0.0
1001
AUTOCAD_POSTSCRIPT_FIGURE
1002
{
1000
PSFILL
1000
Grayscale
1000
Grayscale
1070
   100
1002
}
  0
LINE
  5
46AF
  8
YODOROGO
 10
27889.604341291921
 20
1955.7494964292871
 30
0.0
 11
27889.604341291921
 21
1979.749496429288
 31
0.0
1001
AUTOCAD_POSTSCRIPT_FIGURE
1002
{
1000
PSFILL
1000
Grayscale
1000
Grayscale
1070
   100
1002
}
  0
LINE
  5
46B0
  8
YODOROGO
 10
27865.604341291921
 20
1955.7494964292871
 30
0.0
 11
27889.604341291921
 21
1955.7494964292871
 31
0.0
1001
AUTOCAD_POSTSCRIPT_FIGURE
1002
{
1000
PSFILL
1000
Grayscale
1000
Grayscale
1070
   100
1002
}
  0
LINE
  5
46B1
  8
YODOROGO
 10
27865.604341291921
 20
1979.749496429288
 30
0.0
 11
27865.604341291921
 21
1955.7494964292871
 31
0.0
1001
AUTOCAD_POSTSCRIPT_FIGURE
1002
{
1000
PSFILL
1000
Grayscale
1000
Grayscale
1070
   100
1002
}
  0
LINE
  5
46B2
  8
YODOROGO
 10
27849.604341291921
 20
1979.749496429288
 30
0.0
 11
27865.604341291921
 21
1979.749496429288
 31
0.0
1001
AUTOCAD_POSTSCRIPT_FIGURE
1002
{
1000
PSFILL
1000
Grayscale
1000
Grayscale
1070
   100
1002
}
  0
LINE
  5
46B3
  8
YODOROGO
 10
27849.604341291921
 20
1955.7494964292871
 30
0.0
 11
27849.604341291921
 21
1979.749496429288
 31
0.0
1001
AUTOCAD_POSTSCRIPT_FIGURE
1002
{
1000
PSFILL
1000
Grayscale
1000
Grayscale
1070
   100
1002
}
  0
LINE
  5
46B4
  8
YODOROGO
 10
27817.604341291921
 20
1955.7494964292871
 30
0.0
 11
27849.604341291921
 21
1955.7494964292871
 31
0.0
1001
AUTOCAD_POSTSCRIPT_FIGURE
1002
{
1000
PSFILL
1000
Grayscale
1000
Grayscale
1070
   100
1002
}
  0
LINE
  5
46B5
  8
YODOROGO
 10
27817.604341291921
 20
1979.749496429288
 30
0.0
 11
27817.604341291921
 21
1955.7494964292871
 31
0.0
1001
AUTOCAD_POSTSCRIPT_FIGURE
1002
{
1000
PSFILL
1000
Grayscale
1000
Grayscale
1070
   100
1002
}
  0
LINE
  5
46B6
  8
YODOROGO
 10
27801.604341291921
 20
1979.749496429288
 30
0.0
 11
27817.604341291921
 21
1979.749496429288
 31
0.0
1001
AUTOCAD_POSTSCRIPT_FIGURE
1002
{
1000
PSFILL
1000
Grayscale
1000
Grayscale
1070
   100
1002
}
  0
LINE
  5
46B7
  8
YODOROGO
 10
27801.604341291921
 20
1955.7494964292871
 30
0.0
 11
27801.604341291921
 21
1979.749496429288
 31
0.0
1001
AUTOCAD_POSTSCRIPT_FIGURE
1002
{
1000
PSFILL
1000
Grayscale
1000
Grayscale
1070
   100
1002
}
  0
LINE
  5
46B8
  8
YODOROGO
 10
27777.604341291921
 20
1955.7494964292871
 30
0.0
 11
27801.604341291921
 21
1955.7494964292871
 31
0.0
1001
AUTOCAD_POSTSCRIPT_FIGURE
1002
{
1000
PSFILL
1000
Grayscale
1000
Grayscale
1070
   100
1002
}
  0
LINE
  5
46B9
  8
YODOROGO
 10
27777.604341291921
 20
1939.749496429288
 30
0.0
 11
27777.604341291921
 21
1955.7494964292871
 31
0.0
1001
AUTOCAD_POSTSCRIPT_FIGURE
1002
{
1000
PSFILL
1000
Grayscale
1000
Grayscale
1070
   100
1002
}
  0
LINE
  5
46BA
  8
YODOROGO
 10
27801.604341291921
 20
1939.749496429288
 30
0.0
 11
27777.604341291921
 21
1939.749496429288
 31
0.0
1001
AUTOCAD_POSTSCRIPT_FIGURE
1002
{
1000
PSFILL
1000
Grayscale
1000
Grayscale
1070
   100
1002
}
  0
LINE
  5
46BB
  8
YODOROGO
 10
27801.604341291921
 20
1914.7865807937051
 30
0.0
 11
27801.604341291921
 21
1939.749496429288
 31
0.0
1001
AUTOCAD_POSTSCRIPT_FIGURE
1002
{
1000
PSFILL
1000
Grayscale
1000
Grayscale
1070
   100
1002
}
  0
LINE
  5
46BC
  8
YODOROGO
 10
27777.604341291921
 20
1859.776747951671
 30
0.0
 11
27801.604341291921
 21
1914.7865807937051
 31
0.0
1001
AUTOCAD_POSTSCRIPT_FIGURE
1002
{
1000
PSFILL
1000
Grayscale
1000
Grayscale
1070
   100
1002
}
  0
LINE
  5
46BD
  8
YODOROGO
 10
27777.604341291921
 20
1843.776747951672
 30
0.0
 11
27777.604341291921
 21
1859.776747951671
 31
0.0
1001
AUTOCAD_POSTSCRIPT_FIGURE
1002
{
1000
PSFILL
1000
Grayscale
1000
Grayscale
1070
   100
1002
}
  0
LINE
  5
46BE
  8
YODOROGO
 10
28257.604341291921
 20
1867.7494964292871
 30
0.0
 11
28401.60434129191
 21
1824.877625640306
 31
0.0
1001
AUTOCAD_POSTSCRIPT_FIGURE
1002
{
1000
PSFILL
1000
Grayscale
1000
Grayscale
1070
   100
1002
}
  0
LINE
  5
46BF
  8
YODOROGO
 10
28401.60434129191
 20
1752.877625640306
 30
0.0
 11
28257.604341291921
 21
1795.7494964292871
 31
0.0
1001
AUTOCAD_POSTSCRIPT_FIGURE
1002
{
1000
PSFILL
1000
Grayscale
1000
Grayscale
1070
   100
1002
}
  0
LINE
  5
46C0
  8
YODOROGO
 10
28401.60434129191
 20
1984.877625640306
 30
0.0
 11
28257.604341291921
 21
2027.749496429288
 31
0.0
1001
AUTOCAD_POSTSCRIPT_FIGURE
1002
{
1000
PSFILL
1000
Grayscale
1000
Grayscale
1070
   100
1002
}
  0
LINE
  5
46C1
  8
YODOROGO
 10
28257.604341291921
 20
1959.749496429288
 30
0.0
 11
28401.60434129191
 21
1916.8776256403071
 31
0.0
1001
AUTOCAD_POSTSCRIPT_FIGURE
1002
{
1000
PSFILL
1000
Grayscale
1000
Grayscale
1070
   100
1002
}
  0
LINE
  5
46C2
  8
YODOROGO
 10
28257.604341291921
 20
1795.7494964292871
 30
0.0
 11
28257.604341291921
 21
1867.7494964292871
 31
0.0
1001
AUTOCAD_POSTSCRIPT_FIGURE
1002
{
1000
PSFILL
1000
Grayscale
1000
Grayscale
1070
   100
1002
}
  0
LINE
  5
46C3
  8
YODOROGO
 10
28257.604341291921
 20
2027.749496429288
 30
0.0
 11
28257.604341291921
 21
1959.749496429288
 31
0.0
1001
AUTOCAD_POSTSCRIPT_FIGURE
1002
{
1000
PSFILL
1000
Grayscale
1000
Grayscale
1070
   100
1002
}
  0
LINE
  5
46C4
  8
YODOROGO
 10
28080.236320206739
 20
1939.749496429288
 30
0.0
 11
28129.60434129191
 21
1747.749496429286
 31
0.0
1001
AUTOCAD_POSTSCRIPT_FIGURE
1002
{
1000
PSFILL
1000
Grayscale
1000
Grayscale
1070
   100
1002
}
  0
LINE
  5
46C5
  8
YODOROGO
 10
27977.604341291921
 20
1939.749496429288
 30
0.0
 11
28080.236320206739
 21
1939.749496429288
 31
0.0
1001
AUTOCAD_POSTSCRIPT_FIGURE
1002
{
1000
PSFILL
1000
Grayscale
1000
Grayscale
1070
   100
1002
}
  0
LINE
  5
46C6
  8
YODOROGO
 10
27977.604341291921
 20
1955.7494964292871
 30
0.0
 11
27977.604341291921
 21
1939.749496429288
 31
0.0
1001
AUTOCAD_POSTSCRIPT_FIGURE
1002
{
1000
PSFILL
1000
Grayscale
1000
Grayscale
1070
   100
1002
}
  0
LINE
  5
46C7
  8
YODOROGO
 10
28076.60687851991
 20
1955.7494964292871
 30
0.0
 11
27977.604341291921
 21
1955.7494964292871
 31
0.0
1001
AUTOCAD_POSTSCRIPT_FIGURE
1002
{
1000
PSFILL
1000
Grayscale
1000
Grayscale
1070
   100
1002
}
  0
LINE
  5
46C8
  8
YODOROGO
 10
28071.162715989711
 20
1979.749496429288
 30
0.0
 11
28076.60687851991
 21
1955.7494964292871
 31
0.0
1001
AUTOCAD_POSTSCRIPT_FIGURE
1002
{
1000
PSFILL
1000
Grayscale
1000
Grayscale
1070
   100
1002
}
  0
LINE
  5
46C9
  8
YODOROGO
 10
28091.162715989711
 20
1979.749496429288
 30
0.0
 11
28071.162715989711
 21
1979.749496429288
 31
0.0
1001
AUTOCAD_POSTSCRIPT_FIGURE
1002
{
1000
PSFILL
1000
Grayscale
1000
Grayscale
1070
   100
1002
}
  0
LINE
  5
46CA
  8
YODOROGO
 10
28095.806878519939
 20
1955.7494964292871
 30
0.0
 11
28091.162715989711
 21
1979.749496429288
 31
0.0
1001
AUTOCAD_POSTSCRIPT_FIGURE
1002
{
1000
PSFILL
1000
Grayscale
1000
Grayscale
1070
   100
1002
}
  0
LINE
  5
46CB
  8
YODOROGO
 10
28121.604341291921
 20
1955.7494964292871
 30
0.0
 11
28095.806878519939
 21
1955.7494964292871
 31
0.0
1001
AUTOCAD_POSTSCRIPT_FIGURE
1002
{
1000
PSFILL
1000
Grayscale
1000
Grayscale
1070
   100
1002
}
  0
LINE
  5
46CC
  8
YODOROGO
 10
28121.604341291921
 20
1979.749496429288
 30
0.0
 11
28121.604341291921
 21
1955.7494964292871
 31
0.0
1001
AUTOCAD_POSTSCRIPT_FIGURE
1002
{
1000
PSFILL
1000
Grayscale
1000
Grayscale
1070
   100
1002
}
  0
LINE
  5
46CD
  8
YODOROGO
 10
28137.604341291921
 20
1979.749496429288
 30
0.0
 11
28121.604341291921
 21
1979.749496429288
 31
0.0
1001
AUTOCAD_POSTSCRIPT_FIGURE
1002
{
1000
PSFILL
1000
Grayscale
1000
Grayscale
1070
   100
1002
}
  0
LINE
  5
46CE
  8
YODOROGO
 10
28137.604341291921
 20
1955.7494964292871
 30
0.0
 11
28137.604341291921
 21
1979.749496429288
 31
0.0
1001
AUTOCAD_POSTSCRIPT_FIGURE
1002
{
1000
PSFILL
1000
Grayscale
1000
Grayscale
1070
   100
1002
}
  0
LINE
  5
46CF
  8
YODOROGO
 10
28137.604341291921
 20
1939.749496429288
 30
0.0
 11
28137.604341291921
 21
1955.7494964292871
 31
0.0
1001
AUTOCAD_POSTSCRIPT_FIGURE
1002
{
1000
PSFILL
1000
Grayscale
1000
Grayscale
1070
   100
1002
}
  0
LINE
  5
46D0
  8
YODOROGO
 10
28098.902986873411
 20
1939.749496429288
 30
0.0
 11
28137.604341291921
 21
1939.749496429288
 31
0.0
1001
AUTOCAD_POSTSCRIPT_FIGURE
1002
{
1000
PSFILL
1000
Grayscale
1000
Grayscale
1070
   100
1002
}
  0
LINE
  5
46D1
  8
YODOROGO
 10
28137.604341291921
 20
1747.749496429286
 30
0.0
 11
28098.902986873411
 21
1939.749496429288
 31
0.0
1001
AUTOCAD_POSTSCRIPT_FIGURE
1002
{
1000
PSFILL
1000
Grayscale
1000
Grayscale
1070
   100
1002
}
  0
LINE
  5
46D2
  8
YODOROGO
 10
28129.60434129191
 20
1747.749496429286
 30
0.0
 11
28137.604341291921
 21
1747.749496429286
 31
0.0
1001
AUTOCAD_POSTSCRIPT_FIGURE
1002
{
1000
PSFILL
1000
Grayscale
1000
Grayscale
1070
   100
1002
}
  0
LINE
  5
46D3
  8
YODOROGO
 10
28078.06921993379
 20
1775.7407762987939
 30
0.0
 11
27977.604341291921
 21
1747.749496429286
 31
0.0
  0
LINE
  5
46D4
  8
YODOROGO
 10
28078.06921993379
 20
1798.6689795290731
 30
0.0
 11
28078.06921993379
 21
1775.7407762987939
 31
0.0
  0
LINE
  5
46D5
  8
YODOROGO
 10
28033.83678061287
 20
1786.816933133767
 30
0.0
 11
28078.06921993379
 21
1798.6689795290731
 31
0.0
  0
LINE
  5
46D6
  8
YODOROGO
 10
28033.83678061287
 20
1872.5683489362989
 30
0.0
 11
28033.83678061287
 21
1786.816933133767
 31
0.0
  0
LINE
  5
46D7
  8
YODOROGO
 10
28078.06921993379
 20
1872.5683489362989
 30
0.0
 11
28033.83678061287
 21
1872.5683489362989
 31
0.0
  0
LINE
  5
46D8
  8
YODOROGO
 10
28078.06921993379
 20
1892.568348936298
 30
0.0
 11
28078.06921993379
 21
1872.5683489362989
 31
0.0
  0
LINE
  5
46D9
  8
YODOROGO
 10
27977.604341291921
 20
1892.568348936298
 30
0.0
 11
28078.06921993379
 21
1892.568348936298
 31
0.0
  0
LINE
  5
46DA
  8
YODOROGO
 10
27977.604341291921
 20
1872.5683489362989
 30
0.0
 11
27977.604341291921
 21
1892.568348936298
 31
0.0
  0
LINE
  5
46DB
  8
YODOROGO
 10
28021.836780612852
 20
1872.5683489362989
 30
0.0
 11
27977.604341291921
 21
1872.5683489362989
 31
0.0
  0
LINE
  5
46DC
  8
YODOROGO
 10
28021.836780612852
 20
1784.673339594317
 30
0.0
 11
28021.836780612852
 21
1872.5683489362989
 31
0.0
  0
LINE
  5
46DD
  8
YODOROGO
 10
27977.604341291921
 20
1771.749496429286
 30
0.0
 11
28021.836780612852
 21
1784.673339594317
 31
0.0
  0
LINE
  5
46DE
  8
YODOROGO
 10
27977.604341291921
 20
1747.749496429286
 30
0.0
 11
27977.604341291921
 21
1771.749496429286
 31
0.0
  0
LINE
  5
46DF
  8
YODOROGO
 10
28001.604341291921
 20
1707.749496429288
 30
0.0
 11
28001.604341291921
 21
1683.7494964292871
 31
0.0
  0
LINE
  5
46E0
  8
YODOROGO
 10
28017.604341291921
 20
1707.749496429288
 30
0.0
 11
28001.604341291921
 21
1707.749496429288
 31
0.0
  0
LINE
  5
46E1
  8
YODOROGO
 10
28017.604341291921
 20
1683.7494964292871
 30
0.0
 11
28017.604341291921
 21
1707.749496429288
 31
0.0
  0
LINE
  5
46E2
  8
YODOROGO
 10
28040.913204016892
 20
1683.7494964292871
 30
0.0
 11
28017.604341291921
 21
1683.7494964292871
 31
0.0
  0
LINE
  5
46E3
  8
YODOROGO
 10
28001.604341291921
 20
1683.7494964292871
 30
0.0
 11
27977.604341291921
 21
1683.7494964292871
 31
0.0
  0
LINE
  5
46E4
  8
YODOROGO
 10
28082.135520230921
 20
1707.749496429288
 30
0.0
 11
28098.135520230931
 21
1707.749496429288
 31
0.0
1001
AUTOCAD_POSTSCRIPT_FIGURE
1002
{
1000
PSFILL
1000
Grayscale
1000
Grayscale
1070
   100
1002
}
  0
LINE
  5
46E5
  8
YODOROGO
 10
28401.60434129191
 20
1824.877625640306
 30
0.0
 11
28401.60434129191
 21
1752.877625640306
 31
0.0
1001
AUTOCAD_POSTSCRIPT_FIGURE
1002
{
1000
PSFILL
1000
Grayscale
1000
Grayscale
1070
   100
1002
}
  0
LINE
  5
46E6
  8
YODOROGO
 10
28401.60434129191
 20
1916.8776256403071
 30
0.0
 11
28401.60434129191
 21
1984.877625640306
 31
0.0
1001
AUTOCAD_POSTSCRIPT_FIGURE
1002
{
1000
PSFILL
1000
Grayscale
1000
Grayscale
1070
   100
1002
}
  0
LINE
  5
46E7
  8
YODOROGO
 10
28433.60434129191
 20
1819.7494964292871
 30
0.0
 11
28433.60434129191
 21
1747.74949642929
 31
0.0
  0
LINE
  5
46E8
  8
YODOROGO
 10
28497.60434129191
 20
1707.749496429288
 30
0.0
 11
28433.60434129191
 21
1707.749496429288
 31
0.0
  0
LINE
  5
46E9
  8
YODOROGO
 10
28433.60434129191
 20
1747.74949642929
 30
0.0
 11
28585.604341291921
 21
1747.74949642929
 31
0.0
  0
LINE
  5
46EA
  8
YODOROGO
 10
28497.60434129191
 20
1867.7494964292871
 30
0.0
 11
28433.60434129191
 21
1867.7494964292871
 31
0.0
  0
LINE
  5
46EB
  8
YODOROGO
 10
28497.60434129191
 20
1923.7494964292871
 30
0.0
 11
28497.60434129191
 21
1867.7494964292871
 31
0.0
  0
LINE
  5
46EC
  8
YODOROGO
 10
28585.604341291921
 20
1987.7494964292871
 30
0.0
 11
28585.604341291921
 21
2027.749496429288
 31
0.0
  0
LINE
  5
46ED
  8
YODOROGO
 10
28433.60434129191
 20
1987.7494964292871
 30
0.0
 11
28585.604341291921
 21
1987.7494964292871
 31
0.0
  0
LINE
  5
46EE
  8
YODOROGO
 10
28433.60434129191
 20
1867.7494964292871
 30
0.0
 11
28433.60434129191
 21
1987.7494964292871
 31
0.0
  0
LINE
  5
46EF
  8
YODOROGO
 10
29001.60434129191
 20
2027.749496429288
 30
0.0
 11
29001.60434129191
 21
1619.749496429288
 31
0.0
  0
LINE
  5
46F0
  8
YODOROGO
 10
29073.604341291921
 20
1579.749496429288
 30
0.0
 11
29073.604341291921
 21
2027.749496429288
 31
0.0
  0
LINE
  5
46F1
  8
YODOROGO
 10
29261.604341291921
 20
1491.749496429286
 30
0.0
 11
29261.604341291921
 21
2007.749496429288
 31
0.0
  0
LINE
  5
46F2
  8
YODOROGO
 10
29197.604341291921
 20
2007.749496429288
 30
0.0
 11
29197.604341291921
 21
1491.749496429286
 31
0.0
  0
LINE
  5
46F3
  8
YODOROGO
 10
29385.604341291921
 20
2027.749496429288
 30
0.0
 11
29385.604341291921
 21
1427.749496429288
 31
0.0
  0
LINE
  5
46F4
  8
YODOROGO
 10
29457.604341291921
 20
1427.749496429288
 30
0.0
 11
29457.604341291921
 21
2027.749496429288
 31
0.0
  0
LINE
  5
46F5
  8
YODOROGO
 10
28657.604341291921
 20
1667.749496429288
 30
0.0
 11
28657.604341291921
 21
1747.74949642929
 31
0.0
  0
LINE
  5
46F6
  8
YODOROGO
 10
29885.604341291921
 20
1707.749496429288
 30
0.0
 11
29885.604341291921
 21
1667.749496429288
 31
0.0
  0
LINE
  5
46F7
  8
YODOROGO
 10
29885.604341291921
 20
1707.749496429288
 30
0.0
 11
29885.604341291921
 21
1667.749496429288
 31
0.0
  0
ARC
  5
46F8
  8
YODOROGO
 10
28906.911576186842
 20
1618.217864442272
 30
0.0
 40
94.705151178741644
 50
274.05244162907098
 51
0.9266642149310712
  0
ARC
  5
46F9
  8
YODOROGO
 10
28909.186170719819
 20
1592.61072861044
 30
0.0
 40
164.92042356085511
 50
271.5351210653775
 51
355.52727750585052
  0
LINE
  5
46FA
  8
YODOROGO
 10
28913.604341291921
 20
1523.7494964292871
 30
0.0
 11
28913.604341291921
 21
1427.749496429288
 31
0.0
  0
LINE
  5
46FB
  8
YODOROGO
 10
28793.60434129191
 20
1667.749496429288
 30
0.0
 11
28657.604341291921
 21
1667.749496429288
 31
0.0
  0
LINE
  5
46FC
  8
YODOROGO
 10
28793.60434129191
 20
1603.7494964292871
 30
0.0
 11
28793.60434129191
 21
1667.749496429288
 31
0.0
  0
LINE
  5
46FD
  8
YODOROGO
 10
28657.604341291921
 20
1603.7494964292871
 30
0.0
 11
28793.60434129191
 21
1603.7494964292871
 31
0.0
  0
LINE
  5
46FE
  8
YODOROGO
 10
28657.604341291921
 20
1523.7494964292871
 30
0.0
 11
28657.604341291921
 21
1603.7494964292871
 31
0.0
  0
LINE
  5
46FF
  8
YODOROGO
 10
28793.60434129191
 20
1523.7494964292871
 30
0.0
 11
28657.604341291921
 21
1523.7494964292871
 31
0.0
  0
LINE
  5
4700
  8
YODOROGO
 10
28793.60434129191
 20
1427.749496429288
 30
0.0
 11
28793.60434129191
 21
1523.7494964292871
 31
0.0
  0
LINE
  5
4701
  8
YODOROGO
 10
29197.604341291921
 20
1491.749496429286
 30
0.0
 11
29261.604341291921
 21
1491.749496429286
 31
0.0
  0
LINE
  5
4702
  8
YODOROGO
 10
29385.604341291921
 20
1427.749496429288
 30
0.0
 11
29457.604341291921
 21
1427.749496429288
 31
0.0
  0
LINE
  5
4703
  8
YODOROGO
 10
29737.604341291921
 20
1528.4414521705639
 30
0.0
 11
29737.604341291921
 21
1427.749496429288
 31
0.0
  0
LINE
  5
4704
  8
YODOROGO
 10
29617.604341291921
 20
1427.749496429288
 30
0.0
 11
29737.604341291921
 21
1528.4414521705639
 31
0.0
  0
LINE
  5
4705
  8
YODOROGO
 10
29617.604341291921
 20
1547.749496429288
 30
0.0
 11
29617.604341291921
 21
1427.749496429288
 31
0.0
  0
LINE
  5
4706
  8
YODOROGO
 10
29712.94462869945
 20
1627.749496429288
 30
0.0
 11
29617.604341291921
 21
1547.749496429288
 31
0.0
  0
LINE
  5
4707
  8
YODOROGO
 10
29617.604341291921
 20
1627.749496429288
 30
0.0
 11
29712.94462869945
 21
1627.749496429288
 31
0.0
  0
LINE
  5
4708
  8
YODOROGO
 10
29617.604341291921
 20
1667.749496429288
 30
0.0
 11
29617.604341291921
 21
1627.749496429288
 31
0.0
  0
LINE
  5
4709
  8
YODOROGO
 10
29885.604341291921
 20
1667.749496429288
 30
0.0
 11
29617.604341291921
 21
1667.749496429288
 31
0.0
  0
LINE
  5
470A
  8
YODOROGO
 10
29917.604341291921
 20
1627.749496429288
 30
0.0
 11
29777.604341291921
 21
1627.749496429288
 31
0.0
  0
LINE
  5
470B
  8
YODOROGO
 10
29777.604341291921
 20
1562.0054374176559
 30
0.0
 11
29771.409872985321
 21
1556.807661346234
 31
0.0
  0
LINE
  5
470C
  8
YODOROGO
 10
29777.604341291921
 20
1627.749496429288
 30
0.0
 11
29777.604341291921
 21
1562.0054374176559
 31
0.0
  0
LINE
  5
470D
  8
YODOROGO
 10
29737.604341291921
 20
1528.4414521705639
 30
0.0
 11
29737.604341291921
 21
1427.749496429288
 31
0.0
  0
LINE
  5
470E
  8
YODOROGO
 10
29617.604341291921
 20
1427.749496429288
 30
0.0
 11
29737.604341291921
 21
1528.4414521705639
 31
0.0
  0
LINE
  5
470F
  8
YODOROGO
 10
29617.604341291921
 20
1547.749496429288
 30
0.0
 11
29617.604341291921
 21
1427.749496429288
 31
0.0
  0
LINE
  5
4710
  8
YODOROGO
 10
29712.94462869945
 20
1627.749496429288
 30
0.0
 11
29617.604341291921
 21
1547.749496429288
 31
0.0
  0
LINE
  5
4711
  8
YODOROGO
 10
29617.604341291921
 20
1627.749496429288
 30
0.0
 11
29712.94462869945
 21
1627.749496429288
 31
0.0
  0
LINE
  5
4712
  8
YODOROGO
 10
29617.604341291921
 20
1667.749496429288
 30
0.0
 11
29617.604341291921
 21
1627.749496429288
 31
0.0
  0
LINE
  5
4713
  8
YODOROGO
 10
29885.604341291921
 20
1667.749496429288
 30
0.0
 11
29617.604341291921
 21
1667.749496429288
 31
0.0
  0
LINE
  5
4714
  8
YODOROGO
 10
28793.60434129191
 20
1747.74949642929
 30
0.0
 11
28793.60434129191
 21
1819.7494964292871
 31
0.0
  0
LINE
  5
4715
  8
YODOROGO
 10
28657.604341291921
 20
1747.74949642929
 30
0.0
 11
28793.60434129191
 21
1747.74949642929
 31
0.0
  0
LINE
  5
4716
  8
YODOROGO
 10
28729.604341291921
 20
1867.7494964292871
 30
0.0
 11
28729.604341291921
 21
1923.7494964292871
 31
0.0
  0
LINE
  5
4717
  8
YODOROGO
 10
28793.60434129191
 20
1867.7494964292871
 30
0.0
 11
28729.604341291921
 21
1867.7494964292871
 31
0.0
  0
LINE
  5
4718
  8
YODOROGO
 10
28793.60434129191
 20
1947.749496429288
 30
0.0
 11
28793.60434129191
 21
1867.7494964292871
 31
0.0
  0
ARC
  5
4719
  8
YODOROGO
 10
28753.60434129191
 20
1947.749496429288
 30
0.0
 40
40.0
 50
0.0
 51
90.0
  0
LINE
  5
471A
  8
YODOROGO
 10
28657.604341291921
 20
1987.7494964292871
 30
0.0
 11
28753.60434129191
 21
1987.7494964292871
 31
0.0
  0
LINE
  5
471B
  8
YODOROGO
 10
28657.604341291921
 20
2027.749496429288
 30
0.0
 11
28657.604341291921
 21
1987.7494964292871
 31
0.0
  0
LINE
  5
471C
  8
YODOROGO
 10
29073.604341291921
 20
2027.749496429288
 30
0.0
 11
29001.60434129191
 21
2027.749496429288
 31
0.0
  0
LINE
  5
471D
  8
YODOROGO
 10
29261.604341291921
 20
2007.749496429288
 30
0.0
 11
29197.604341291921
 21
2007.749496429288
 31
0.0
  0
LINE
  5
471E
  8
YODOROGO
 10
29457.604341291921
 20
2027.749496429288
 30
0.0
 11
29385.604341291921
 21
2027.749496429288
 31
0.0
  0
LINE
  5
471F
  8
YODOROGO
 10
29673.604341291921
 20
1707.749496429288
 30
0.0
 11
29673.604341291921
 21
1771.7494964292871
 31
0.0
1001
AUTOCAD_POSTSCRIPT_FIGURE
1002
{
1000
PSFILL
1000
Grayscale
1000
Grayscale
1070
    25
1002
}
  0
LINE
  5
4720
  8
YODOROGO
 10
29617.604341291921
 20
1707.749496429288
 30
0.0
 11
29673.604341291921
 21
1707.749496429288
 31
0.0
1001
AUTOCAD_POSTSCRIPT_FIGURE
1002
{
1000
PSFILL
1000
Grayscale
1000
Grayscale
1070
    25
1002
}
  0
LINE
  5
4721
  8
YODOROGO
 10
29617.604341291921
 20
1819.7494964292871
 30
0.0
 11
29617.604341291921
 21
1707.749496429288
 31
0.0
1001
AUTOCAD_POSTSCRIPT_FIGURE
1002
{
1000
PSFILL
1000
Grayscale
1000
Grayscale
1070
    25
1002
}
  0
LINE
  5
4722
  8
YODOROGO
 10
29765.604341291921
 20
1819.7494964292871
 30
0.0
 11
29617.604341291921
 21
1819.7494964292871
 31
0.0
1001
AUTOCAD_POSTSCRIPT_FIGURE
1002
{
1000
PSFILL
1000
Grayscale
1000
Grayscale
1070
    25
1002
}
  0
LINE
  5
4723
  8
YODOROGO
 10
29765.604341291921
 20
1859.749496429288
 30
0.0
 11
29765.604341291921
 21
1819.7494964292871
 31
0.0
1001
AUTOCAD_POSTSCRIPT_FIGURE
1002
{
1000
PSFILL
1000
Grayscale
1000
Grayscale
1070
    25
1002
}
  0
LINE
  5
4724
  8
YODOROGO
 10
29617.604341291921
 20
1859.749496429288
 30
0.0
 11
29765.604341291921
 21
1859.749496429288
 31
0.0
1001
AUTOCAD_POSTSCRIPT_FIGURE
1002
{
1000
PSFILL
1000
Grayscale
1000
Grayscale
1070
    25
1002
}
  0
LINE
  5
4725
  8
YODOROGO
 10
29617.604341291921
 20
1907.7494964292871
 30
0.0
 11
29617.604341291921
 21
1859.749496429288
 31
0.0
1001
AUTOCAD_POSTSCRIPT_FIGURE
1002
{
1000
PSFILL
1000
Grayscale
1000
Grayscale
1070
    25
1002
}
  0
LINE
  5
4726
  8
YODOROGO
 10
29765.604341291921
 20
1907.7494964292871
 30
0.0
 11
29617.604341291921
 21
1907.7494964292871
 31
0.0
1001
AUTOCAD_POSTSCRIPT_FIGURE
1002
{
1000
PSFILL
1000
Grayscale
1000
Grayscale
1070
    25
1002
}
  0
LINE
  5
4727
  8
YODOROGO
 10
29765.604341291921
 20
1947.749496429288
 30
0.0
 11
29765.604341291921
 21
1907.7494964292871
 31
0.0
1001
AUTOCAD_POSTSCRIPT_FIGURE
1002
{
1000
PSFILL
1000
Grayscale
1000
Grayscale
1070
    25
1002
}
  0
LINE
  5
4728
  8
YODOROGO
 10
29617.604341291921
 20
1947.749496429288
 30
0.0
 11
29765.604341291921
 21
1947.749496429288
 31
0.0
1001
AUTOCAD_POSTSCRIPT_FIGURE
1002
{
1000
PSFILL
1000
Grayscale
1000
Grayscale
1070
    25
1002
}
  0
LINE
  5
4729
  8
YODOROGO
 10
29617.604341291921
 20
2027.749496429288
 30
0.0
 11
29617.604341291921
 21
1947.749496429288
 31
0.0
1001
AUTOCAD_POSTSCRIPT_FIGURE
1002
{
1000
PSFILL
1000
Grayscale
1000
Grayscale
1070
    25
1002
}
  0
LINE
  5
472A
  8
YODOROGO
 10
29665.604341291921
 20
2027.749496429288
 30
0.0
 11
29617.604341291921
 21
2027.749496429288
 31
0.0
1001
AUTOCAD_POSTSCRIPT_FIGURE
1002
{
1000
PSFILL
1000
Grayscale
1000
Grayscale
1070
    25
1002
}
  0
LINE
  5
472B
  8
YODOROGO
 10
29665.604341291921
 20
1995.7494964292871
 30
0.0
 11
29665.604341291921
 21
2027.749496429288
 31
0.0
1001
AUTOCAD_POSTSCRIPT_FIGURE
1002
{
1000
PSFILL
1000
Grayscale
1000
Grayscale
1070
    25
1002
}
  0
LINE
  5
472C
  8
YODOROGO
 10
29765.604341291921
 20
1995.7494964292871
 30
0.0
 11
29665.604341291921
 21
1995.7494964292871
 31
0.0
1001
AUTOCAD_POSTSCRIPT_FIGURE
1002
{
1000
PSFILL
1000
Grayscale
1000
Grayscale
1070
    25
1002
}
  0
LINE
  5
472D
  8
YODOROGO
 10
29765.604341291921
 20
2027.749496429288
 30
0.0
 11
29765.604341291921
 21
1995.7494964292871
 31
0.0
1001
AUTOCAD_POSTSCRIPT_FIGURE
1002
{
1000
PSFILL
1000
Grayscale
1000
Grayscale
1070
    25
1002
}
  0
LINE
  5
472E
  8
YODOROGO
 10
29829.604341291921
 20
2027.749496429288
 30
0.0
 11
29765.604341291921
 21
2027.749496429288
 31
0.0
1001
AUTOCAD_POSTSCRIPT_FIGURE
1002
{
1000
PSFILL
1000
Grayscale
1000
Grayscale
1070
    25
1002
}
  0
LINE
  5
472F
  8
YODOROGO
 10
29829.604341291921
 20
1995.7494964292871
 30
0.0
 11
29829.604341291921
 21
2027.749496429288
 31
0.0
1001
AUTOCAD_POSTSCRIPT_FIGURE
1002
{
1000
PSFILL
1000
Grayscale
1000
Grayscale
1070
    25
1002
}
  0
LINE
  5
4730
  8
YODOROGO
 10
29829.604341291921
 20
1907.7494964292871
 30
0.0
 11
29829.604341291921
 21
1947.749496429288
 31
0.0
1001
AUTOCAD_POSTSCRIPT_FIGURE
1002
{
1000
PSFILL
1000
Grayscale
1000
Grayscale
1070
    25
1002
}
  0
LINE
  5
4731
  8
YODOROGO
 10
29829.604341291921
 20
1819.7494964292871
 30
0.0
 11
29829.604341291921
 21
1859.749496429288
 31
0.0
1001
AUTOCAD_POSTSCRIPT_FIGURE
1002
{
1000
PSFILL
1000
Grayscale
1000
Grayscale
1070
    25
1002
}
  0
LINE
  5
4732
  8
YODOROGO
 10
29921.60434129191
 20
1771.7494964292871
 30
0.0
 11
29921.60434129191
 21
1707.749496429288
 31
0.0
1001
AUTOCAD_POSTSCRIPT_FIGURE
1002
{
1000
PSFILL
1000
Grayscale
1000
Grayscale
1070
    25
1002
}
  0
LINE
  5
4733
  8
YODOROGO
 10
29829.604341291921
 20
1771.7494964292871
 30
0.0
 11
29921.60434129191
 21
1771.7494964292871
 31
0.0
1001
AUTOCAD_POSTSCRIPT_FIGURE
1002
{
1000
PSFILL
1000
Grayscale
1000
Grayscale
1070
    25
1002
}
  0
LINE
  5
4734
  8
YODOROGO
 10
29829.604341291921
 20
1707.749496429288
 30
0.0
 11
29829.604341291921
 21
1771.7494964292871
 31
0.0
1001
AUTOCAD_POSTSCRIPT_FIGURE
1002
{
1000
PSFILL
1000
Grayscale
1000
Grayscale
1070
    25
1002
}
  0
LINE
  5
4735
  8
YODOROGO
 10
29765.604341291921
 20
1707.749496429288
 30
0.0
 11
29829.604341291921
 21
1707.749496429288
 31
0.0
1001
AUTOCAD_POSTSCRIPT_FIGURE
1002
{
1000
PSFILL
1000
Grayscale
1000
Grayscale
1070
    25
1002
}
  0
LINE
  5
4736
  8
YODOROGO
 10
29765.604341291921
 20
1771.7494964292871
 30
0.0
 11
29765.604341291921
 21
1707.749496429288
 31
0.0
1001
AUTOCAD_POSTSCRIPT_FIGURE
1002
{
1000
PSFILL
1000
Grayscale
1000
Grayscale
1070
    25
1002
}
  0
LINE
  5
4737
  8
YODOROGO
 10
29673.604341291921
 20
1771.7494964292871
 30
0.0
 11
29765.604341291921
 21
1771.7494964292871
 31
0.0
1001
AUTOCAD_POSTSCRIPT_FIGURE
1002
{
1000
PSFILL
1000
Grayscale
1000
Grayscale
1070
    25
1002
}
  0
ARC
  5
4738
  8
YODOROGO
 10
31059.517893357912
 20
1602.6807375155761
 30
0.0
 40
178.22128111072141
 50
281.02627495425338
 51
357.77113575573799
  0
LINE
  5
4739
  8
YODOROGO
 10
31413.604341291921
 20
1907.7494964292871
 30
0.0
 11
31165.604341291921
 21
1907.7494964292871
 31
0.0
  0
LINE
  5
473A
  8
YODOROGO
 10
31413.604341291921
 20
2027.749496429288
 30
0.0
 11
31165.604341291921
 21
2027.749496429288
 31
0.0
  0
LINE
  5
473B
  8
YODOROGO
 10
31165.604341291921
 20
1963.749496429286
 30
0.0
 11
31413.604341291921
 21
1963.749496429286
 31
0.0
  0
LINE
  5
473C
  8
YODOROGO
 10
30791.604341291921
 20
1563.7494964292871
 30
0.0
 11
30791.604341291921
 21
1755.7494964292871
 31
0.0
  0
LINE
  5
473D
  8
YODOROGO
 10
30763.604341291921
 20
1691.749496429288
 30
0.0
 11
30763.604341291921
 21
1563.7494964292871
 31
0.0
  0
LINE
  5
473E
  8
YODOROGO
 10
30723.604341291921
 20
1491.749496429288
 30
0.0
 11
30723.604341291921
 21
1691.749496429288
 31
0.0
  0
LINE
  5
473F
  8
YODOROGO
 10
30899.604341291932
 20
1691.749496429288
 30
0.0
 11
30899.604341291932
 21
1491.749496429288
 31
0.0
  0
LINE
  5
4740
  8
YODOROGO
 10
30859.604341291932
 20
1563.7494964292871
 30
0.0
 11
30859.604341291932
 21
1691.749496429288
 31
0.0
  0
LINE
  5
4741
  8
YODOROGO
 10
30831.604341291921
 20
1755.7494964292871
 30
0.0
 11
30831.604341291921
 21
1563.7494964292871
 31
0.0
  0
LINE
  5
4742
  8
YODOROGO
 10
30973.604341291921
 20
2027.749496429288
 30
0.0
 11
30973.604341291921
 21
1467.749496429288
 31
0.0
  0
LINE
  5
4743
  8
YODOROGO
 10
30645.604341291921
 20
1427.749496429288
 30
0.0
 11
30645.604341291921
 21
2027.749496429288
 31
0.0
  0
LINE
  5
4744
  8
YODOROGO
 10
30697.604341291932
 20
1963.749496429286
 30
0.0
 11
30697.604341291932
 21
1427.749496429288
 31
0.0
  0
LINE
  5
4745
  8
YODOROGO
 10
30925.604341291921
 20
1547.749496429288
 30
0.0
 11
30925.604341291921
 21
1963.749496429286
 31
0.0
  0
LINE
  5
4746
  8
YODOROGO
 10
30381.604341291932
 20
1627.749496429288
 30
0.0
 11
30381.604341291932
 21
1679.749496429288
 31
0.0
  0
LINE
  5
4747
  8
YODOROGO
 10
30617.604341291921
 20
1679.749496429288
 30
0.0
 11
30617.604341291921
 21
1627.749496429288
 31
0.0
  0
LINE
  5
4748
  8
YODOROGO
 10
31165.604341291921
 20
1907.7494964292871
 30
0.0
 11
31165.604341291921
 21
1635.7494964292871
 31
0.0
  0
LINE
  5
4749
  8
YODOROGO
 10
29949.60434129191
 20
1667.749496429288
 30
0.0
 11
29949.60434129191
 21
1707.749496429288
 31
0.0
  0
LINE
  5
474A
  8
YODOROGO
 10
29949.60434129191
 20
1667.749496429288
 30
0.0
 11
29949.60434129191
 21
1707.749496429288
 31
0.0
  0
ARC
  5
474B
  8
YODOROGO
 10
30537.604341291921
 20
1507.749496429288
 30
0.0
 40
80.0
 50
270.0
 51
0.0
  0
LINE
  5
474C
  8
YODOROGO
 10
30569.604341291921
 20
1599.7494964292871
 30
0.0
 11
30617.604341291921
 21
1599.7494964292871
 31
0.0
  0
LINE
  5
474D
  8
YODOROGO
 10
30617.604341291921
 20
1627.749496429288
 30
0.0
 11
30529.604341291939
 21
1627.749496429288
 31
0.0
  0
LINE
  5
474E
  8
YODOROGO
 10
30217.604341291921
 20
1667.749496429288
 30
0.0
 11
29949.60434129191
 21
1667.749496429288
 31
0.0
  0
LINE
  5
474F
  8
YODOROGO
 10
30217.604341291921
 20
1627.749496429288
 30
0.0
 11
30217.604341291921
 21
1667.749496429288
 31
0.0
  0
LINE
  5
4750
  8
YODOROGO
 10
30017.604341291921
 20
1627.749496429288
 30
0.0
 11
30217.604341291921
 21
1627.749496429288
 31
0.0
  0
ARC
  5
4751
  8
YODOROGO
 10
30230.05882870136
 20
1868.885714952901
 30
0.0
 40
321.37763628522822
 50
228.6181454618993
 51
245.660289248906
  0
LINE
  5
4752
  8
YODOROGO
 10
30105.604341291921
 20
1603.7494964292871
 30
0.0
 11
30097.60434129195
 21
1576.0728158699001
 31
0.0
  0
LINE
  5
4753
  8
YODOROGO
 10
30189.604341291921
 20
1603.7494964292871
 30
0.0
 11
30105.604341291921
 21
1603.7494964292871
 31
0.0
  0
LINE
  5
4754
  8
YODOROGO
 10
30177.604341291921
 20
1551.817722473427
 30
0.0
 11
30189.604341291921
 21
1603.7494964292871
 31
0.0
  0
ARC
  5
4755
  8
YODOROGO
 10
30230.05882870045
 20
1868.885714953002
 30
0.0
 40
321.37763628529081
 50
260.60629297969911
 51
267.77903556555862
  0
LINE
  5
4756
  8
YODOROGO
 10
30217.604341291921
 20
1427.749496429285
 30
0.0
 11
30217.604341291921
 21
1547.749496429288
 31
0.0
  0
LINE
  5
4757
  8
YODOROGO
 10
29937.604341291932
 20
1481.3393349155101
 30
0.0
 11
29937.604341291921
 21
1594.531090531141
 31
0.0
  0
LINE
  5
4758
  8
YODOROGO
 10
30217.604341291921
 20
1667.749496429288
 30
0.0
 11
29949.60434129191
 21
1667.749496429288
 31
0.0
  0
LINE
  5
4759
  8
YODOROGO
 10
30217.604341291921
 20
1627.749496429288
 30
0.0
 11
30217.604341291921
 21
1667.749496429288
 31
0.0
  0
LINE
  5
475A
  8
YODOROGO
 10
30017.604341291921
 20
1627.749496429288
 30
0.0
 11
30217.604341291921
 21
1627.749496429288
 31
0.0
  0
ARC
  5
475B
  8
YODOROGO
 10
30230.05882870136
 20
1868.885714952901
 30
0.0
 40
321.37763628522822
 50
228.6181454618993
 51
245.660289248906
  0
LINE
  5
475C
  8
YODOROGO
 10
30105.604341291921
 20
1603.7494964292871
 30
0.0
 11
30097.60434129195
 21
1576.0728158699001
 31
0.0
  0
LINE
  5
475D
  8
YODOROGO
 10
30189.604341291921
 20
1603.7494964292871
 30
0.0
 11
30105.604341291921
 21
1603.7494964292871
 31
0.0
  0
LINE
  5
475E
  8
YODOROGO
 10
30177.604341291921
 20
1551.817722473427
 30
0.0
 11
30189.604341291921
 21
1603.7494964292871
 31
0.0
  0
ARC
  5
475F
  8
YODOROGO
 10
30230.05882870045
 20
1868.885714953002
 30
0.0
 40
321.37763628529081
 50
260.60629297969911
 51
267.77903556555862
  0
LINE
  5
4760
  8
YODOROGO
 10
30217.604341291921
 20
1427.749496429285
 30
0.0
 11
30217.604341291921
 21
1547.749496429288
 31
0.0
  0
LINE
  5
4761
  8
YODOROGO
 10
29937.604341291932
 20
1481.3393349155101
 30
0.0
 11
29937.604341291921
 21
1594.531090531141
 31
0.0
  0
LINE
  5
4762
  8
YODOROGO
 10
30433.604341291921
 20
1573.749496429288
 30
0.0
 11
30381.604341291932
 21
1573.749496429288
 31
0.0
  0
LINE
  5
4763
  8
YODOROGO
 10
30433.604341291921
 20
1601.749496429285
 30
0.0
 11
30433.604341291921
 21
1573.749496429288
 31
0.0
  0
LINE
  5
4764
  8
YODOROGO
 10
30381.604341291932
 20
1601.749496429285
 30
0.0
 11
30433.604341291921
 21
1601.749496429285
 31
0.0
  0
LINE
  5
4765
  8
YODOROGO
 10
30381.604341291932
 20
1573.749496429288
 30
0.0
 11
30381.604341291932
 21
1601.749496429285
 31
0.0
  0
LINE
  5
4766
  8
YODOROGO
 10
30429.604341291921
 20
1577.7494964292871
 30
0.0
 11
30385.604341291921
 21
1577.7494964292871
 31
0.0
  0
LINE
  5
4767
  8
YODOROGO
 10
30429.604341291921
 20
1597.749496429288
 30
0.0
 11
30429.604341291921
 21
1577.7494964292871
 31
0.0
  0
LINE
  5
4768
  8
YODOROGO
 10
30385.604341291921
 20
1597.749496429288
 30
0.0
 11
30429.604341291921
 21
1597.749496429288
 31
0.0
  0
LINE
  5
4769
  8
YODOROGO
 10
30385.604341291921
 20
1577.7494964292871
 30
0.0
 11
30385.604341291921
 21
1597.749496429288
 31
0.0
  0
LINE
  5
476A
  8
YODOROGO
 10
30425.604341291921
 20
1581.749496429286
 30
0.0
 11
30389.604341291921
 21
1581.749496429286
 31
0.0
  0
LINE
  5
476B
  8
YODOROGO
 10
30425.604341291921
 20
1593.749496429288
 30
0.0
 11
30425.604341291921
 21
1581.749496429286
 31
0.0
  0
LINE
  5
476C
  8
YODOROGO
 10
30389.604341291921
 20
1593.749496429288
 30
0.0
 11
30425.604341291921
 21
1593.749496429288
 31
0.0
  0
LINE
  5
476D
  8
YODOROGO
 10
30389.604341291921
 20
1581.749496429286
 30
0.0
 11
30389.604341291921
 21
1593.749496429288
 31
0.0
  0
LINE
  5
476E
  8
YODOROGO
 10
30421.604341291932
 20
1585.7494964292871
 30
0.0
 11
30393.604341291921
 21
1585.7494964292871
 31
0.0
  0
LINE
  5
476F
  8
YODOROGO
 10
30421.604341291932
 20
1589.749496429288
 30
0.0
 11
30421.604341291932
 21
1585.7494964292871
 31
0.0
  0
LINE
  5
4770
  8
YODOROGO
 10
30393.604341291921
 20
1589.749496429288
 30
0.0
 11
30421.604341291932
 21
1589.749496429288
 31
0.0
  0
LINE
  5
4771
  8
YODOROGO
 10
30393.604341291921
 20
1585.7494964292871
 30
0.0
 11
30393.604341291921
 21
1589.749496429288
 31
0.0
  0
LINE
  5
4772
  8
YODOROGO
 10
30465.604341291921
 20
1627.749496429288
 30
0.0
 11
30381.604341291932
 21
1627.749496429288
 31
0.0
  0
LINE
  5
4773
  8
YODOROGO
 10
30465.604341291921
 20
1547.749496429288
 30
0.0
 11
30465.604341291921
 21
1627.749496429288
 31
0.0
  0
LINE
  5
4774
  8
YODOROGO
 10
30381.604341291932
 20
1547.749496429288
 30
0.0
 11
30465.604341291921
 21
1547.749496429288
 31
0.0
  0
LINE
  5
4775
  8
YODOROGO
 10
30381.604341291932
 20
1427.749496429288
 30
0.0
 11
30381.604341291932
 21
1547.749496429288
 31
0.0
  0
LINE
  5
4776
  8
YODOROGO
 10
30537.604341291921
 20
1427.749496429288
 30
0.0
 11
30381.604341291932
 21
1427.749496429288
 31
0.0
  0
LINE
  5
4777
  8
YODOROGO
 10
30569.604341291921
 20
1571.749496429285
 30
0.0
 11
30569.604341291921
 21
1599.7494964292871
 31
0.0
  0
ARC
  5
4778
  8
YODOROGO
 10
30545.604341291921
 20
1571.749496429291
 30
0.0
 40
24.000000000003752
 50
270.0
 51
359.99999999998772
  0
LINE
  5
4779
  8
YODOROGO
 10
30529.604341291939
 20
1547.749496429288
 30
0.0
 11
30545.604341291921
 21
1547.749496429288
 31
0.0
  0
LINE
  5
477A
  8
YODOROGO
 10
30529.604341291939
 20
1627.749496429288
 30
0.0
 11
30529.604341291939
 21
1547.749496429288
 31
0.0
  0
LINE
  5
477B
  8
YODOROGO
 10
30899.604341291932
 20
1547.749496429288
 30
0.0
 11
30925.604341291921
 21
1547.749496429288
 31
0.0
  0
LINE
  5
477C
  8
YODOROGO
 10
30933.604341291921
 20
1427.749496429288
 30
0.0
 11
30899.604341291932
 21
1427.749496429288
 31
0.0
  0
LINE
  5
477D
  8
YODOROGO
 10
30763.604341291921
 20
1563.7494964292871
 30
0.0
 11
30791.604341291921
 21
1563.7494964292871
 31
0.0
  0
LINE
  5
477E
  8
YODOROGO
 10
30899.604341291932
 20
1491.749496429288
 30
0.0
 11
30723.604341291921
 21
1491.749496429288
 31
0.0
  0
LINE
  5
477F
  8
YODOROGO
 10
30831.604341291921
 20
1563.7494964292871
 30
0.0
 11
30859.604341291932
 21
1563.7494964292871
 31
0.0
  0
LINE
  5
4780
  8
YODOROGO
 10
30899.604341291932
 20
1427.749496429288
 30
0.0
 11
30899.604341291932
 21
1547.749496429288
 31
0.0
  0
LINE
  5
4781
  8
YODOROGO
 10
30697.604341291932
 20
1427.749496429288
 30
0.0
 11
30645.604341291921
 21
1427.749496429288
 31
0.0
  0
LINE
  5
4782
  8
YODOROGO
 10
30617.604341291921
 20
1599.7494964292871
 30
0.0
 11
30617.604341291921
 21
1507.749496429288
 31
0.0
  0
ARC
  5
4783
  8
YODOROGO
 10
30933.604341291921
 20
1467.749496429288
 30
0.0
 40
40.0
 50
270.0
 51
0.0
  0
LINE
  5
4784
  8
YODOROGO
 10
31093.604341291921
 20
1523.7494964292871
 30
0.0
 11
31093.604341291921
 21
1427.749496429288
 31
0.0
  0
ARC
  5
4785
  8
YODOROGO
 10
31039.721395566768
 20
1637.5313901097329
 30
0.0
 40
125.8955565916754
 50
295.34052442160112
 51
359.18902303418679
  0
LINE
  5
4786
  8
YODOROGO
 10
30617.604341291921
 20
1859.749496429288
 30
0.0
 11
30497.604341291921
 21
1939.749496429288
 31
0.0
  0
LINE
  5
4787
  8
YODOROGO
 10
30497.604341291921
 20
2027.749496429288
 30
0.0
 11
30617.604341291921
 21
1947.749496429288
 31
0.0
  0
LINE
  5
4788
  8
YODOROGO
 10
30529.604341291939
 20
1679.749496429288
 30
0.0
 11
30617.604341291921
 21
1679.749496429288
 31
0.0
  0
LINE
  5
4789
  8
YODOROGO
 10
30617.604341291921
 20
1735.7494964292871
 30
0.0
 11
30529.604341291939
 21
1735.7494964292871
 31
0.0
  0
LINE
  5
478A
  8
YODOROGO
 10
30381.604341291932
 20
1795.7494964292871
 30
0.0
 11
30617.604341291921
 21
1795.7494964292871
 31
0.0
  0
LINE
  5
478B
  8
YODOROGO
 10
30081.604341291921
 20
2027.749496429288
 30
0.0
 11
30021.604341291921
 21
2027.749496429288
 31
0.0
  0
LINE
  5
478C
  8
YODOROGO
 10
30081.604341291921
 20
1827.7494964292871
 30
0.0
 11
30081.604341291921
 21
2027.749496429288
 31
0.0
  0
LINE
  5
478D
  8
YODOROGO
 10
30021.604341291921
 20
1827.7494964292871
 30
0.0
 11
30081.604341291921
 21
1827.7494964292871
 31
0.0
  0
LINE
  5
478E
  8
YODOROGO
 10
30021.604341291921
 20
2027.749496429288
 30
0.0
 11
30021.604341291921
 21
1827.7494964292871
 31
0.0
  0
LINE
  5
478F
  8
YODOROGO
 10
30161.604341291921
 20
2027.749496429288
 30
0.0
 11
30217.604341291921
 21
2027.749496429288
 31
0.0
  0
LINE
  5
4790
  8
YODOROGO
 10
30161.604341291921
 20
1811.749496429288
 30
0.0
 11
30161.604341291921
 21
2027.749496429288
 31
0.0
  0
ARC
  5
4791
  8
YODOROGO
 10
30121.604341291921
 20
1811.749496429288
 30
0.0
 40
40.0
 50
270.0
 51
0.0
  0
LINE
  5
4792
  8
YODOROGO
 10
30021.604341291921
 20
1771.7494964292871
 30
0.0
 11
30121.604341291921
 21
1771.7494964292871
 31
0.0
  0
LINE
  5
4793
  8
YODOROGO
 10
30021.604341291921
 20
1707.749496429288
 30
0.0
 11
30021.604341291921
 21
1771.7494964292871
 31
0.0
  0
LINE
  5
4794
  8
YODOROGO
 10
30137.604341291921
 20
1707.749496429288
 30
0.0
 11
30021.604341291921
 21
1707.749496429288
 31
0.0
  0
ARC
  5
4795
  8
YODOROGO
 10
30137.604341291921
 20
1787.7494964292871
 30
0.0
 40
80.0
 50
270.0
 51
0.0
  0
LINE
  5
4796
  8
YODOROGO
 10
30217.604341291921
 20
2027.749496429288
 30
0.0
 11
30217.604341291921
 21
1787.7494964292871
 31
0.0
  0
LINE
  5
4797
  8
YODOROGO
 10
29977.604341291921
 20
1947.749496429288
 30
0.0
 11
29977.604341291921
 21
1995.7494964292871
 31
0.0
1001
AUTOCAD_POSTSCRIPT_FIGURE
1002
{
1000
PSFILL
1000
Grayscale
1000
Grayscale
1070
    25
1002
}
  0
LINE
  5
4798
  8
YODOROGO
 10
29977.604341291921
 20
1859.749496429288
 30
0.0
 11
29977.604341291921
 21
1907.7494964292871
 31
0.0
1001
AUTOCAD_POSTSCRIPT_FIGURE
1002
{
1000
PSFILL
1000
Grayscale
1000
Grayscale
1070
    25
1002
}
  0
LINE
  5
4799
  8
YODOROGO
 10
29977.604341291921
 20
1707.749496429288
 30
0.0
 11
29977.604341291921
 21
1819.7494964292871
 31
0.0
1001
AUTOCAD_POSTSCRIPT_FIGURE
1002
{
1000
PSFILL
1000
Grayscale
1000
Grayscale
1070
    25
1002
}
  0
LINE
  5
479A
  8
YODOROGO
 10
30381.604341291932
 20
1907.7494964292871
 30
0.0
 11
30497.604341291921
 21
2027.749496429288
 31
0.0
  0
LINE
  5
479B
  8
YODOROGO
 10
30381.604341291932
 20
1819.7494964292871
 30
0.0
 11
30381.604341291932
 21
1907.7494964292871
 31
0.0
  0
LINE
  5
479C
  8
YODOROGO
 10
30497.604341291921
 20
1939.749496429288
 30
0.0
 11
30381.604341291932
 21
1819.7494964292871
 31
0.0
  0
LINE
  5
479D
  8
YODOROGO
 10
30465.604341291921
 20
1679.749496429288
 30
0.0
 11
30465.604341291921
 21
1735.7494964292871
 31
0.0
  0
LINE
  5
479E
  8
YODOROGO
 10
30381.604341291932
 20
1679.749496429288
 30
0.0
 11
30465.604341291921
 21
1679.749496429288
 31
0.0
  0
LINE
  5
479F
  8
YODOROGO
 10
30529.604341291939
 20
1735.7494964292871
 30
0.0
 11
30529.604341291939
 21
1679.749496429288
 31
0.0
  0
LINE
  5
47A0
  8
YODOROGO
 10
30381.604341291932
 20
1735.7494964292871
 30
0.0
 11
30381.604341291932
 21
1795.7494964292871
 31
0.0
  0
LINE
  5
47A1
  8
YODOROGO
 10
30465.604341291921
 20
1735.7494964292871
 30
0.0
 11
30381.604341291932
 21
1735.7494964292871
 31
0.0
  0
LINE
  5
47A2
  8
YODOROGO
 10
30645.604341291921
 20
2027.749496429288
 30
0.0
 11
30973.604341291921
 21
2027.749496429288
 31
0.0
  0
LINE
  5
47A3
  8
YODOROGO
 10
30925.604341291921
 20
1963.749496429286
 30
0.0
 11
30697.604341291932
 21
1963.749496429286
 31
0.0
  0
LINE
  5
47A4
  8
YODOROGO
 10
30873.604341291921
 20
1819.7494964292871
 30
0.0
 11
30899.604341291932
 21
1819.7494964292871
 31
0.0
  0
LINE
  5
47A5
  8
YODOROGO
 10
30899.604341291932
 20
1939.749496429288
 30
0.0
 11
30873.604341291921
 21
1819.7494964292871
 31
0.0
  0
LINE
  5
47A6
  8
YODOROGO
 10
30851.604341291939
 20
1939.749496429288
 30
0.0
 11
30899.604341291932
 21
1939.749496429288
 31
0.0
  0
LINE
  5
47A7
  8
YODOROGO
 10
30825.604341291921
 20
1819.7494964292871
 30
0.0
 11
30851.604341291939
 21
1939.749496429288
 31
0.0
  0
LINE
  5
47A8
  8
YODOROGO
 10
30797.604341291921
 20
1819.7494964292871
 30
0.0
 11
30825.604341291921
 21
1819.7494964292871
 31
0.0
  0
LINE
  5
47A9
  8
YODOROGO
 10
30771.604341291939
 20
1939.749496429288
 30
0.0
 11
30797.604341291921
 21
1819.7494964292871
 31
0.0
  0
LINE
  5
47AA
  8
YODOROGO
 10
30723.604341291921
 20
1939.749496429288
 30
0.0
 11
30771.604341291939
 21
1939.749496429288
 31
0.0
  0
LINE
  5
47AB
  8
YODOROGO
 10
30749.604341291921
 20
1819.7494964292871
 30
0.0
 11
30723.604341291921
 21
1939.749496429288
 31
0.0
  0
LINE
  5
47AC
  8
YODOROGO
 10
30723.604341291921
 20
1819.7494964292871
 30
0.0
 11
30749.604341291921
 21
1819.7494964292871
 31
0.0
  0
LINE
  5
47AD
  8
YODOROGO
 10
30723.604341291921
 20
1755.7494964292871
 30
0.0
 11
30723.604341291921
 21
1819.7494964292871
 31
0.0
  0
LINE
  5
47AE
  8
YODOROGO
 10
30899.604341291932
 20
1755.7494964292871
 30
0.0
 11
30723.604341291921
 21
1755.7494964292871
 31
0.0
  0
LINE
  5
47AF
  8
YODOROGO
 10
30899.604341291932
 20
1819.7494964292871
 30
0.0
 11
30899.604341291932
 21
1755.7494964292871
 31
0.0
  0
LINE
  5
47B0
  8
YODOROGO
 10
30617.604341291921
 20
1947.749496429288
 30
0.0
 11
30617.604341291921
 21
1859.749496429288
 31
0.0
  0
LINE
  5
47B1
  8
YODOROGO
 10
30791.604341291921
 20
1755.7494964292871
 30
0.0
 11
30831.604341291921
 21
1755.7494964292871
 31
0.0
  0
LINE
  5
47B2
  8
YODOROGO
 10
30723.604341291921
 20
1691.749496429288
 30
0.0
 11
30763.604341291921
 21
1691.749496429288
 31
0.0
  0
LINE
  5
47B3
  8
YODOROGO
 10
30859.604341291932
 20
1691.749496429288
 30
0.0
 11
30899.604341291932
 21
1691.749496429288
 31
0.0
  0
LINE
  5
47B4
  8
YODOROGO
 10
30617.604341291921
 20
1795.7494964292871
 30
0.0
 11
30617.604341291921
 21
1735.7494964292871
 31
0.0
  0
LINE
  5
47B5
  8
YODOROGO
 10
31165.604341291921
 20
2027.749496429288
 30
0.0
 11
31165.604341291921
 21
1963.749496429286
 31
0.0
  0
LINE
  5
47B6
  8
YODOROGO
 10
31533.604341291921
 20
1595.7494964292871
 30
0.0
 11
31533.60434129191
 21
1811.749496429288
 31
0.0
  0
LINE
  5
47B7
  8
YODOROGO
 10
31461.60434129191
 20
1987.7494964292871
 30
0.0
 11
31461.60434129191
 21
1635.7494964292871
 31
0.0
  0
LINE
  5
47B8
  8
YODOROGO
 10
31653.604341291921
 20
1427.749496429288
 30
0.0
 11
31653.60434129191
 21
1811.749496429288
 31
0.0
  0
LINE
  5
47B9
  8
YODOROGO
 10
31589.604341291921
 20
1811.749496429288
 30
0.0
 11
31589.604341291921
 21
1427.749496429288
 31
0.0
  0
LINE
  5
47BA
  8
YODOROGO
 10
31237.604341291921
 20
1595.7494964292871
 30
0.0
 11
31237.604341291921
 21
1707.749496429288
 31
0.0
  0
ARC
  5
47BB
  8
YODOROGO
 10
31353.914865116069
 20
1607.790351288558
 30
0.0
 40
180.0924485759885
 50
268.62849102169793
 51
356.16638457330322
  0
LINE
  5
47BC
  8
YODOROGO
 10
31349.604341291939
 20
1527.749496429288
 30
0.0
 11
31349.604341291939
 21
1427.749496429288
 31
0.0
  0
ARC
  5
47BD
  8
YODOROGO
 10
31351.518075724562
 20
1637.838957017655
 30
0.0
 40
110.1060929836122
 50
269.00410209305932
 51
358.91264455492478
  0
LINE
  5
47BE
  8
YODOROGO
 10
31589.604341291921
 20
1427.749496429288
 30
0.0
 11
31653.604341291921
 21
1427.749496429288
 31
0.0
  0
LINE
  5
47BF
  8
YODOROGO
 10
31533.60434129191
 20
1811.749496429288
 30
0.0
 11
31589.604341291921
 21
1811.749496429288
 31
0.0
  0
LINE
  5
47C0
  8
YODOROGO
 10
31621.604341291939
 20
1987.7494964292871
 30
0.0
 11
31461.60434129191
 21
1987.7494964292871
 31
0.0
  0
LINE
  5
47C1
  8
YODOROGO
 10
31533.60434129191
 20
1915.7494964292871
 30
0.0
 11
31661.604341291939
 21
1915.7494964292871
 31
0.0
  0
LINE
  5
47C2
  8
YODOROGO
 10
31701.604341291939
 20
1875.7494964292871
 30
0.0
 11
31533.60434129191
 21
1875.7494964292871
 31
0.0
  0
LINE
  5
47C3
  8
YODOROGO
 10
31237.604341291921
 20
1779.749496429288
 30
0.0
 11
31349.604341291939
 21
1779.749496429288
 31
0.0
  0
LINE
  5
47C4
  8
YODOROGO
 10
31237.604341291921
 20
1835.7494964292871
 30
0.0
 11
31237.604341291921
 21
1779.749496429288
 31
0.0
  0
LINE
  5
47C5
  8
YODOROGO
 10
31349.604341291939
 20
1835.7494964292871
 30
0.0
 11
31237.604341291921
 21
1835.7494964292871
 31
0.0
  0
LINE
  5
47C6
  8
YODOROGO
 10
31349.604341291939
 20
1779.749496429288
 30
0.0
 11
31349.604341291939
 21
1835.7494964292871
 31
0.0
  0
LINE
  5
47C7
  8
YODOROGO
 10
31533.60434129191
 20
1875.7494964292871
 30
0.0
 11
31533.60434129191
 21
1915.7494964292871
 31
0.0
  0
LINE
  5
47C8
  8
YODOROGO
 10
31413.604341291921
 20
1707.749496429288
 30
0.0
 11
31413.604341291921
 21
1907.7494964292871
 31
0.0
  0
LINE
  5
47C9
  8
YODOROGO
 10
31237.604341291921
 20
1707.749496429288
 30
0.0
 11
31413.604341291921
 21
1707.749496429288
 31
0.0
  0
LINE
  5
47CA
  8
YODOROGO
 10
31413.604341291921
 20
1963.749496429286
 30
0.0
 11
31413.604341291921
 21
2027.749496429288
 31
0.0
  0
ARC
  5
47CB
  8
YODOROGO
 10
31621.604341291939
 20
2003.749496429285
 30
0.0
 40
15.999999999994539
 50
270.0
 51
0.0000000000081422
  0
LINE
  5
47CC
  8
YODOROGO
 10
31637.604341291921
 20
2027.749496429288
 30
0.0
 11
31637.604341291921
 21
2003.7494964292871
 31
0.0
  0
LINE
  5
47CD
  8
YODOROGO
 10
31701.604341291939
 20
2027.749496429288
 30
0.0
 11
31637.604341291921
 21
2027.749496429288
 31
0.0
  0
LINE
  5
47CE
  8
YODOROGO
 10
31701.604341291939
 20
1955.7494964292871
 30
0.0
 11
31701.604341291939
 21
2027.749496429288
 31
0.0
  0
ARC
  5
47CF
  8
YODOROGO
 10
31661.604341291939
 20
1955.7494964292871
 30
0.0
 40
40.0
 50
270.0
 51
0.0
  0
LINE
  5
47D0
  8
YODOROGO
 10
31701.604341291939
 20
1811.749496429288
 30
0.0
 11
31701.604341291939
 21
1875.7494964292871
 31
0.0
  0
LINE
  5
47D1
  8
YODOROGO
 10
31653.60434129191
 20
1811.749496429288
 30
0.0
 11
31701.604341291939
 21
1811.749496429288
 31
0.0
  0
LINE
  5
47D5
  8
SUNPOU
  6
CONTINUOUS
 62
     4
 10
9788.8082900000045
 20
19999.137588999991
 30
0.0
 11
9788.8082900000045
 21
20549.142867999992
 31
0.0
  0
LINE
  5
47D6
  8
SUNPOU
  6
CONTINUOUS
 62
     4
 10
9874.3082900000045
 20
20469.142867999992
 30
0.0
 11
10114.308290000001
 21
20469.142867999992
 31
0.0
  0
LINE
  5
47D7
  8
SUNPOU
  6
CONTINUOUS
 62
     4
 10
9791.8082900000045
 20
20469.142867999992
 30
0.0
 11
9551.8082900000027
 21
20469.142867999992
 31
0.0
  0
LINE
  5
47D8
  8
SUNPOU
  6
CONTINUOUS
 62
     4
 10
9874.3082900000045
 20
20469.142867999992
 30
0.0
 11
9791.8082900000045
 21
20469.142867999992
 31
0.0
  0
LINE
  5
47D9
  8
SUNPOU
  6
CONTINUOUS
 62
     4
 10
13142.808290000001
 20
20469.142867999992
 30
0.0
 11
9874.3082900000045
 21
20469.142867999992
 31
0.0
  0
LINE
  5
47DA
  8
SUNPOU
  6
CONTINUOUS
 62
     4
 10
15094.79641399996
 20
19999.137588999991
 30
0.0
 11
15094.79641399996
 21
20549.142867999992
 31
0.0
  0
LINE
  5
47DB
  8
SUNPOU
  6
CONTINUOUS
 62
     4
 10
15009.29641399996
 20
20469.142867999992
 30
0.0
 11
14769.29641399996
 21
20469.142867999992
 31
0.0
  0
LINE
  5
47DC
  8
SUNPOU
  6
CONTINUOUS
 62
     4
 10
15091.79641399996
 20
20469.142867999992
 30
0.0
 11
15331.796413999949
 21
20469.142867999992
 31
0.0
  0
LINE
  5
47DD
  8
SUNPOU
  6
CONTINUOUS
 62
     4
 10
15009.29641399996
 20
20469.142867999992
 30
0.0
 11
15091.79641399996
 21
20469.142867999992
 31
0.0
  0
LINE
  5
47DE
  8
SUNPOU
  6
CONTINUOUS
 62
     4
 10
13142.79641399996
 20
20469.142867999992
 30
0.0
 11
15009.29641399996
 21
20469.142867999992
 31
0.0
  0
LINE
  5
47DF
  8
SUNPOU
  6
CONTINUOUS
 62
     4
 10
9711.7979969999869
 20
19899.13363
 30
0.0
 11
9264.8025759999855
 21
19899.13363
 31
0.0
  0
LINE
  5
47E0
  8
SUNPOU
  6
CONTINUOUS
 62
     4
 10
9711.8023519999842
 20
19919.13363
 30
0.0
 11
9264.8025759999855
 21
19919.13363
 31
0.0
  0
LINE
  5
47E2
  8
SUNPOU
  6
CONTINUOUS
 62
     4
 10
9344.8025759999873
 20
19919.13363
 30
0.0
 11
9344.8025759999873
 21
20159.133630000011
 31
0.0
  0
LINE
  5
47E3
  8
SUNPOU
  6
CONTINUOUS
 62
     4
 10
9344.8025759999873
 20
19879.13363
 30
0.0
 11
9344.8025759999873
 21
19919.13363
 31
0.0
  0
LINE
  5
47E4
  8
SUNPOU
  6
CONTINUOUS
 62
     4
 10
9711.8023519999842
 20
19919.13363
 30
0.0
 11
8864.8025759999855
 21
19919.13363
 31
0.0
  0
LINE
  5
47E5
  8
SUNPOU
  6
CONTINUOUS
 62
     4
 10
8944.8025759999873
 20
19696.637720999981
 30
0.0
 11
8944.8025759999873
 21
19919.13363
 31
0.0
  0
LINE
  5
47E6
  8
SUNPOU
  6
CONTINUOUS
 62
     4
 10
9575.5017089999874
 20
18237.637720999981
 30
0.0
 11
8864.8025759999855
 21
18237.637720999981
 31
0.0
  0
LINE
  5
47E7
  8
SUNPOU
  6
CONTINUOUS
 62
     4
 10
8944.8025759999873
 20
18237.637720999981
 30
0.0
 11
8944.8025759999873
 21
19696.637720999981
 31
0.0
  0
LINE
  5
47E8
  8
SUNPOU
  6
CONTINUOUS
 62
     4
 10
9575.5017089999874
 20
18237.637720999981
 30
0.0
 11
8864.8025759999855
 21
18237.637720999981
 31
0.0
  0
LINE
  5
47E9
  8
SUNPOU
  6
CONTINUOUS
 62
     4
 10
8944.8025759999873
 20
16778.637720999981
 30
0.0
 11
8944.8025759999873
 21
18237.637720999981
 31
0.0
  0
LINE
  5
47EA
  8
SUNPOU
  6
CONTINUOUS
 62
     4
 10
9575.5017089999874
 20
15319.63772099999
 30
0.0
 11
8864.8025759999855
 21
15319.63772099999
 31
0.0
  0
LINE
  5
47EB
  8
SUNPOU
  6
CONTINUOUS
 62
     4
 10
8944.8025759999873
 20
15319.63772099999
 30
0.0
 11
8944.8025759999873
 21
16778.637720999981
 31
0.0
  0
LINE
  5
47EC
  8
SUNPOU
  6
CONTINUOUS
 62
     4
 10
9575.5017089999874
 20
15319.63772099999
 30
0.0
 11
8864.8025759999855
 21
15319.63772099999
 31
0.0
  0
LINE
  5
47ED
  8
SUNPOU
  6
CONTINUOUS
 62
     4
 10
8944.8025759999873
 20
13860.63772099999
 30
0.0
 11
8944.8025759999873
 21
15319.63772099999
 31
0.0
  0
LINE
  5
47EE
  8
SUNPOU
  6
CONTINUOUS
 62
     4
 10
9711.7979969999869
 20
13668.14240599999
 30
0.0
 11
8864.8025759999855
 21
13668.14240599999
 31
0.0
  0
LINE
  5
47EF
  8
SUNPOU
  6
CONTINUOUS
 62
     4
 10
8944.8025759999873
 20
13860.63772099999
 30
0.0
 11
8944.8025759999873
 21
13668.14240599999
 31
0.0
  0
LINE
  5
47F0
  8
SUNPOU
  6
CONTINUOUS
 62
     4
 10
20287.22260400001
 20
19799.135793999991
 30
0.0
 11
20287.22260400001
 21
20529.138696999991
 31
0.0
  0
LINE
  5
47F1
  8
SUNPOU
  6
CONTINUOUS
 62
     4
 10
20988.222603999999
 20
19799.135793999991
 30
0.0
 11
20988.222603999999
 21
20529.138696999991
 31
0.0
  0
LINE
  5
47F2
  8
SUNPOU
  6
CONTINUOUS
 62
     4
 10
20287.22260400001
 20
20449.138696999991
 30
0.0
 11
20988.222603999999
 21
20449.138696999991
 31
0.0
  0
LINE
  5
47F3
  8
SUNPOU
  6
CONTINUOUS
 62
     4
 10
20988.222603999999
 20
19799.135793999991
 30
0.0
 11
20988.222603999999
 21
20529.138696999991
 31
0.0
  0
LINE
  5
47F4
  8
SUNPOU
  6
CONTINUOUS
 62
     4
 10
21689.222603999999
 20
19799.135793999991
 30
0.0
 11
21689.222603999999
 21
20529.138696999991
 31
0.0
  0
LINE
  5
47F5
  8
SUNPOU
  6
CONTINUOUS
 62
     4
 10
20988.222603999999
 20
20449.138696999991
 30
0.0
 11
21689.222603999999
 21
20449.138696999991
 31
0.0
  0
LINE
  5
47F6
  8
SUNPOU
  6
CONTINUOUS
 62
     4
 10
21689.222603999999
 20
19799.135793999991
 30
0.0
 11
21689.222603999999
 21
20529.138696999991
 31
0.0
  0
LINE
  5
47F7
  8
SUNPOU
  6
CONTINUOUS
 62
     4
 10
22390.222603999999
 20
19799.135793999991
 30
0.0
 11
22390.222603999999
 21
20529.138696999991
 31
0.0
  0
LINE
  5
47F8
  8
SUNPOU
  6
CONTINUOUS
 62
     4
 10
21689.222603999999
 20
20449.138696999991
 30
0.0
 11
22390.222603999999
 21
20449.138696999991
 31
0.0
  0
LINE
  5
47F9
  8
SUNPOU
  6
CONTINUOUS
 62
     4
 10
22390.222603999999
 20
19799.135793999991
 30
0.0
 11
22390.222603999999
 21
20529.138696999991
 31
0.0
  0
LINE
  5
47FA
  8
SUNPOU
  6
CONTINUOUS
 62
     4
 10
23148.223593500021
 20
19799.135793999991
 30
0.0
 11
23148.223593500021
 21
20529.138696999991
 31
0.0
  0
LINE
  5
47FB
  8
SUNPOU
  6
CONTINUOUS
 62
     4
 10
22390.222603999999
 20
20449.138696999991
 30
0.0
 11
23148.223593500021
 21
20449.138696999991
 31
0.0
  0
LINE
  5
47FC
  8
SUNPOU
  6
CONTINUOUS
 62
     4
 10
19879.72260400001
 20
19799.135793999991
 30
0.0
 11
19879.72260400001
 21
20529.138696999991
 31
0.0
  0
LINE
  5
47FD
  8
SUNPOU
  6
CONTINUOUS
 62
     4
 10
19837.226299000002
 20
19799.135793999991
 30
0.0
 11
19837.226299000002
 21
20529.138696999991
 31
0.0
  0
LINE
  5
47FE
  8
SUNPOU
  6
CONTINUOUS
 62
     4
 10
19879.72260400001
 20
20449.138696999991
 30
0.0
 11
20119.72260400001
 21
20449.138696999991
 31
0.0
  0
LINE
  5
47FF
  8
SUNPOU
  6
CONTINUOUS
 62
     4
 10
19837.226299000002
 20
20449.138696999991
 30
0.0
 11
19597.226299000002
 21
20449.138696999991
 31
0.0
  0
LINE
  5
4800
  8
SUNPOU
  6
CONTINUOUS
 62
     4
 10
19879.72260400001
 20
20449.138696999991
 30
0.0
 11
19837.226299000002
 21
20449.138696999991
 31
0.0
  0
LINE
  5
4801
  8
SUNPOU
  6
CONTINUOUS
 62
     4
 10
19879.72260400001
 20
19799.135793999991
 30
0.0
 11
19879.72260400001
 21
20529.138696999991
 31
0.0
  0
LINE
  5
4802
  8
SUNPOU
  6
CONTINUOUS
 62
     4
 10
20287.22260400001
 20
19799.135793999991
 30
0.0
 11
20287.22260400001
 21
20529.138696999991
 31
0.0
  0
LINE
  5
4803
  8
SUNPOU
  6
CONTINUOUS
 62
     4
 10
19879.72260400001
 20
20449.138696999991
 30
0.0
 11
20287.22260400001
 21
20449.138696999991
 31
0.0
  0
LINE
  5
4804
  8
SUNPOU
  6
CONTINUOUS
 62
     4
 10
25014.72260400001
 20
19799.135793999991
 30
0.0
 11
25014.72260400001
 21
20529.138696999991
 31
0.0
  0
LINE
  5
4805
  8
SUNPOU
  6
CONTINUOUS
 62
     4
 10
25057.218908999988
 20
19799.135793999991
 30
0.0
 11
25057.218908999988
 21
20529.138696999991
 31
0.0
  0
LINE
  5
4806
  8
SUNPOU
  6
CONTINUOUS
 62
     4
 10
25014.72260400001
 20
20449.138696999991
 30
0.0
 11
24774.72260400001
 21
20449.138696999991
 31
0.0
  0
LINE
  5
4807
  8
SUNPOU
  6
CONTINUOUS
 62
     4
 10
25057.218908999988
 20
20449.138696999991
 30
0.0
 11
25297.218908999988
 21
20449.138696999991
 31
0.0
  0
LINE
  5
4808
  8
SUNPOU
  6
CONTINUOUS
 62
     4
 10
25014.72260400001
 20
20449.138696999991
 30
0.0
 11
25057.218908999988
 21
20449.138696999991
 31
0.0
  0
LINE
  5
4809
  8
SUNPOU
  6
CONTINUOUS
 62
     4
 10
23555.72260400001
 20
19799.135793999991
 30
0.0
 11
23555.72260400001
 21
20529.138696999991
 31
0.0
  0
LINE
  5
480A
  8
SUNPOU
  6
CONTINUOUS
 62
     4
 10
24256.72260400001
 20
19799.135793999991
 30
0.0
 11
24256.72260400001
 21
20529.138696999991
 31
0.0
  0
LINE
  5
480B
  8
SUNPOU
  6
CONTINUOUS
 62
     4
 10
23555.72260400001
 20
20449.138696999991
 30
0.0
 11
24256.72260400001
 21
20449.138696999991
 31
0.0
  0
LINE
  5
480C
  8
SUNPOU
  6
CONTINUOUS
 62
     4
 10
24256.72260400001
 20
19799.135793999991
 30
0.0
 11
24256.72260400001
 21
20529.138696999991
 31
0.0
  0
LINE
  5
480D
  8
SUNPOU
  6
CONTINUOUS
 62
     4
 10
25014.723593500021
 20
19799.135793999991
 30
0.0
 11
25014.723593500021
 21
20529.138696999991
 31
0.0
  0
LINE
  5
480E
  8
SUNPOU
  6
CONTINUOUS
 62
     4
 10
24256.72260400001
 20
20449.138696999991
 30
0.0
 11
25014.723593500021
 21
20449.138696999991
 31
0.0
  0
LINE
  5
480F
  8
SUNPOU
  6
CONTINUOUS
 62
     4
 10
23148.22260400001
 20
19799.135793999991
 30
0.0
 11
23148.22260400001
 21
20529.138696999991
 31
0.0
  0
LINE
  5
4810
  8
SUNPOU
  6
CONTINUOUS
 62
     4
 10
23555.72260400001
 20
19799.135793999991
 30
0.0
 11
23555.72260400001
 21
20529.138696999991
 31
0.0
  0
LINE
  5
4811
  8
SUNPOU
  6
CONTINUOUS
 62
     4
 10
23148.22260400001
 20
20449.138696999991
 30
0.0
 11
23555.72260400001
 21
20449.138696999991
 31
0.0
  0
LINE
  5
4812
  8
SUNPOU
  6
CONTINUOUS
 62
     4
 10
25987.222207999999
 20
13840.63750899998
 30
0.0
 11
26587.222207999999
 21
13840.63750899998
 31
0.0
  0
LINE
  5
4813
  8
SUNPOU
  6
CONTINUOUS
 62
     4
 10
25137.220888
 20
13798.140213999979
 30
0.0
 11
26587.222207999999
 21
13798.140213999979
 31
0.0
  0
LINE
  5
4814
  8
SUNPOU
  6
CONTINUOUS
 62
     4
 10
26507.222207999999
 20
13840.63750899998
 30
0.0
 11
26507.222207999999
 21
14080.63750899998
 31
0.0
  0
LINE
  5
4815
  8
SUNPOU
  6
CONTINUOUS
 62
     4
 10
26507.222207999999
 20
13798.140213999979
 30
0.0
 11
26507.222207999999
 21
13558.140213999979
 31
0.0
  0
LINE
  5
4816
  8
SUNPOU
  6
CONTINUOUS
 62
     4
 10
26507.222207999999
 20
13840.63750899998
 30
0.0
 11
26507.222207999999
 21
13798.140213999979
 31
0.0
  0
LINE
  5
4817
  8
SUNPOU
  6
CONTINUOUS
 62
     4
 10
25987.222207999999
 20
19676.63750899996
 30
0.0
 11
26587.222207999999
 21
19676.63750899996
 31
0.0
  0
LINE
  5
4818
  8
SUNPOU
  6
CONTINUOUS
 62
     4
 10
25137.220888
 20
19719.134803999961
 30
0.0
 11
26587.222207999999
 21
19719.134803999961
 31
0.0
  0
LINE
  5
4819
  8
SUNPOU
  6
CONTINUOUS
 62
     4
 10
26507.222207999999
 20
19676.63750899996
 30
0.0
 11
26507.222207999999
 21
19436.63750899996
 31
0.0
  0
LINE
  5
481A
  8
SUNPOU
  6
CONTINUOUS
 62
     4
 10
26507.222207999999
 20
19719.134803999961
 30
0.0
 11
26507.222207999999
 21
19959.134803999961
 31
0.0
  0
LINE
  5
481B
  8
SUNPOU
  6
CONTINUOUS
 62
     4
 10
26507.222207999999
 20
19676.63750899996
 30
0.0
 11
26507.222207999999
 21
19719.134803999961
 31
0.0
  0
LINE
  5
481C
  8
SUNPOU
  6
CONTINUOUS
 62
     4
 10
25137.220888
 20
19719.134803999961
 30
0.0
 11
26987.22220800001
 21
19719.134803999961
 31
0.0
  0
LINE
  5
481D
  8
SUNPOU
  6
CONTINUOUS
 62
     4
 10
25137.220888
 20
13798.140213999979
 30
0.0
 11
26987.22220800001
 21
13798.140213999979
 31
0.0
  0
LINE
  5
481E
  8
SUNPOU
  6
CONTINUOUS
 62
     4
 10
26907.22220800001
 20
19719.134803999961
 30
0.0
 11
26907.22220800001
 21
13798.140213999979
 31
0.0
  0
LINE
  5
481F
  8
SUNPOU
  6
CONTINUOUS
 62
     4
 10
25987.222207999999
 20
13840.63750899998
 30
0.0
 11
26587.222207999999
 21
13840.63750899998
 31
0.0
  0
LINE
  5
4820
  8
SUNPOU
  6
CONTINUOUS
 62
     4
 10
25987.222207999999
 20
16758.63750899996
 30
0.0
 11
26587.222207999999
 21
16758.63750899996
 31
0.0
  0
LINE
  5
4821
  8
SUNPOU
  6
CONTINUOUS
 62
     4
 10
26507.222207999999
 20
13840.63750899998
 30
0.0
 11
26507.222207999999
 21
16758.63750899996
 31
0.0
  0
LINE
  5
4822
  8
SUNPOU
  6
CONTINUOUS
 62
     4
 10
25987.222207999999
 20
16758.63750899996
 30
0.0
 11
26587.222207999999
 21
16758.63750899996
 31
0.0
  0
LINE
  5
4823
  8
SUNPOU
  6
CONTINUOUS
 62
     4
 10
25987.222207999999
 20
19676.63750899996
 30
0.0
 11
26587.222207999999
 21
19676.63750899996
 31
0.0
  0
LINE
  5
4824
  8
SUNPOU
  6
CONTINUOUS
 62
     4
 10
26507.222207999999
 20
16758.63750899996
 30
0.0
 11
26507.222207999999
 21
19676.63750899996
 31
0.0
  0
LINE
  5
4825
  8
SUNPOU
  6
CONTINUOUS
 62
     4
 10
25987.222207999999
 20
19676.63750899996
 30
0.0
 11
26187.222207999999
 21
19676.63750899996
 31
0.0
  0
LINE
  5
4826
  8
SUNPOU
  6
CONTINUOUS
 62
     4
 10
25137.220888
 20
18918.63750899996
 30
0.0
 11
26187.222207999999
 21
18918.63750899996
 31
0.0
  0
LINE
  5
4827
  8
SUNPOU
  6
CONTINUOUS
 62
     4
 10
26107.222207999999
 20
19676.63750899996
 30
0.0
 11
26107.222207999999
 21
18918.63750899996
 31
0.0
  0
LINE
  5
4828
  8
SUNPOU
  6
CONTINUOUS
 62
     4
 10
25137.220888
 20
18918.63750899996
 30
0.0
 11
26187.222207999999
 21
18918.63750899996
 31
0.0
  0
LINE
  5
4829
  8
SUNPOU
  6
CONTINUOUS
 62
     4
 10
25137.220888
 20
18217.63750899996
 30
0.0
 11
26187.222207999999
 21
18217.63750899996
 31
0.0
  0
LINE
  5
482A
  8
SUNPOU
  6
CONTINUOUS
 62
     4
 10
26107.222207999999
 20
18918.63750899996
 30
0.0
 11
26107.222207999999
 21
18217.63750899996
 31
0.0
  0
LINE
  5
482B
  8
SUNPOU
  6
CONTINUOUS
 62
     4
 10
25137.220888
 20
18217.63750899996
 30
0.0
 11
26187.222207999999
 21
18217.63750899996
 31
0.0
  0
LINE
  5
482C
  8
SUNPOU
  6
CONTINUOUS
 62
     4
 10
25137.220888
 20
17516.637508999971
 30
0.0
 11
26187.222207999999
 21
17516.637508999971
 31
0.0
  0
LINE
  5
482D
  8
SUNPOU
  6
CONTINUOUS
 62
     4
 10
26107.222207999999
 20
18217.63750899996
 30
0.0
 11
26107.222207999999
 21
17516.637508999971
 31
0.0
  0
LINE
  5
482E
  8
SUNPOU
  6
CONTINUOUS
 62
     4
 10
25137.220888
 20
17516.637508999971
 30
0.0
 11
26187.222207999999
 21
17516.637508999971
 31
0.0
  0
LINE
  5
482F
  8
SUNPOU
  6
CONTINUOUS
 62
     4
 10
25987.222207999999
 20
16758.63750899996
 30
0.0
 11
26187.222207999999
 21
16758.63750899996
 31
0.0
  0
LINE
  5
4830
  8
SUNPOU
  6
CONTINUOUS
 62
     4
 10
26107.222207999999
 20
17516.637508999971
 30
0.0
 11
26107.222207999999
 21
16758.63750899996
 31
0.0
  0
LINE
  5
4831
  8
SUNPOU
  6
CONTINUOUS
 62
     4
 10
25987.222207999999
 20
16758.63750899996
 30
0.0
 11
26187.222207999999
 21
16758.63750899996
 31
0.0
  0
LINE
  5
4832
  8
SUNPOU
  6
CONTINUOUS
 62
     4
 10
25137.220888
 20
16000.63750899998
 30
0.0
 11
26187.222207999999
 21
16000.63750899998
 31
0.0
  0
LINE
  5
4833
  8
SUNPOU
  6
CONTINUOUS
 62
     4
 10
26107.222207999999
 20
16758.63750899996
 30
0.0
 11
26107.222207999999
 21
16000.63750899998
 31
0.0
  0
LINE
  5
4834
  8
SUNPOU
  6
CONTINUOUS
 62
     4
 10
25137.220888
 20
16000.63750899998
 30
0.0
 11
26187.222207999999
 21
16000.63750899998
 31
0.0
  0
LINE
  5
4835
  8
SUNPOU
  6
CONTINUOUS
 62
     4
 10
25137.220888
 20
15299.87802049998
 30
0.0
 11
26187.222207999999
 21
15299.87802049998
 31
0.0
  0
LINE
  5
4836
  8
SUNPOU
  6
CONTINUOUS
 62
     4
 10
26107.222207999999
 20
16000.63750899998
 30
0.0
 11
26107.222207999999
 21
15299.87802049998
 31
0.0
  0
LINE
  5
4837
  8
SUNPOU
  6
CONTINUOUS
 62
     4
 10
25137.220888
 20
15299.87802049998
 30
0.0
 11
26187.222207999999
 21
15299.87802049998
 31
0.0
  0
LINE
  5
4838
  8
SUNPOU
  6
CONTINUOUS
 62
     4
 10
25137.220888
 20
14598.63750899998
 30
0.0
 11
26187.222207999999
 21
14598.63750899998
 31
0.0
  0
LINE
  5
4839
  8
SUNPOU
  6
CONTINUOUS
 62
     4
 10
26107.222207999999
 20
15299.87802049998
 30
0.0
 11
26107.222207999999
 21
14598.63750899998
 31
0.0
  0
LINE
  5
483A
  8
SUNPOU
  6
CONTINUOUS
 62
     4
 10
25137.220888
 20
14598.63750899998
 30
0.0
 11
26187.222207999999
 21
14598.63750899998
 31
0.0
  0
LINE
  5
483B
  8
SUNPOU
  6
CONTINUOUS
 62
     4
 10
25987.222207999999
 20
13840.63750899998
 30
0.0
 11
26187.222207999999
 21
13840.63750899998
 31
0.0
  0
LINE
  5
483C
  8
SUNPOU
  6
CONTINUOUS
 62
     4
 10
26107.222207999999
 20
14598.63750899998
 30
0.0
 11
26107.222207999999
 21
13840.63750899998
 31
0.0
  0
LINE
  5
483D
  8
SUNPOU
  6
CONTINUOUS
 62
     4
 10
19837.220361
 20
13718.140213999979
 30
0.0
 11
19837.220361
 21
12389.18942499997
 31
0.0
  0
LINE
  5
483E
  8
SUNPOU
  6
CONTINUOUS
 62
     4
 10
25057.224847000009
 20
13718.140213999979
 30
0.0
 11
25057.224847000009
 21
12389.18942499997
 31
0.0
  0
LINE
  5
483F
  8
SUNPOU
  6
CONTINUOUS
 62
     4
 10
19837.220361
 20
12469.18942499997
 30
0.0
 11
25057.224847000009
 21
12469.18942499997
 31
0.0
  0
LINE
  5
4840
  8
SUNPOU
  6
CONTINUOUS
 62
     4
 10
19879.72260400001
 20
13134.87407499998
 30
0.0
 11
19879.72260400001
 21
12789.18942499997
 31
0.0
  0
LINE
  5
4841
  8
SUNPOU
  6
CONTINUOUS
 62
     4
 10
19922.224847000001
 20
13718.140213999979
 30
0.0
 11
19922.224847000001
 21
12789.18942499997
 31
0.0
  0
LINE
  5
4842
  8
SUNPOU
  6
CONTINUOUS
 62
     4
 10
19879.72260400001
 20
12869.18942499997
 30
0.0
 11
19639.722603999999
 21
12869.18942499997
 31
0.0
  0
LINE
  5
4843
  8
SUNPOU
  6
CONTINUOUS
 62
     4
 10
19922.224847000001
 20
12869.18942499997
 30
0.0
 11
20162.224847000001
 21
12869.18942499997
 31
0.0
  0
LINE
  5
4844
  8
SUNPOU
  6
CONTINUOUS
 62
     4
 10
19879.72260400001
 20
12869.18942499997
 30
0.0
 11
19922.224847000001
 21
12869.18942499997
 31
0.0
  0
LINE
  5
4845
  8
SUNPOU
  6
CONTINUOUS
 62
     4
 10
25014.72260400001
 20
13134.87407499998
 30
0.0
 11
25014.72260400001
 21
12789.18942499997
 31
0.0
  0
LINE
  5
4846
  8
SUNPOU
  6
CONTINUOUS
 62
     4
 10
24972.220361
 20
13718.140213999979
 30
0.0
 11
24972.220361
 21
12789.18942499997
 31
0.0
  0
LINE
  5
4847
  8
SUNPOU
  6
CONTINUOUS
 62
     4
 10
25014.72260400001
 20
12869.18942499997
 30
0.0
 11
25254.72260400001
 21
12869.18942499997
 31
0.0
  0
LINE
  5
4848
  8
SUNPOU
  6
CONTINUOUS
 62
     4
 10
24972.220361
 20
12869.18942499997
 30
0.0
 11
24732.220361
 21
12869.18942499997
 31
0.0
  0
LINE
  5
4849
  8
SUNPOU
  6
CONTINUOUS
 62
     4
 10
25014.72260400001
 20
12869.18942499997
 30
0.0
 11
24972.220361
 21
12869.18942499997
 31
0.0
  0
LINE
  5
484A
  8
2-0
  6
CONTINUOUS
 62
     3
 10
23105.72260400001
 20
13798.13750899998
 30
0.0
 11
23190.722603999999
 21
13798.13750899998
 31
0.0
  0
LINE
  5
484B
  8
2-0
  6
CONTINUOUS
 62
     3
 10
23190.722603999999
 20
13798.13750899998
 30
0.0
 11
23190.722603999999
 21
13883.13750899998
 31
0.0
  0
LINE
  5
484C
  8
2-0
  6
CONTINUOUS
 62
     3
 10
23190.722603999999
 20
13883.13750899998
 30
0.0
 11
23105.72260400001
 21
13883.13750899998
 31
0.0
  0
LINE
  5
484D
  8
2-0
  6
CONTINUOUS
 62
     3
 10
23105.72260400001
 20
13883.13750899998
 30
0.0
 11
23105.72260400001
 21
13798.13750899998
 31
0.0
  0
LINE
  5
484E
  8
SUNPOU
  6
CONTINUOUS
 62
     4
 10
25014.72260400001
 20
13134.87407499998
 30
0.0
 11
25014.72260400001
 21
12789.18942499997
 31
0.0
  0
LINE
  5
484F
  8
SUNPOU
  6
CONTINUOUS
 62
     4
 10
25057.224847000009
 20
13718.140213999979
 30
0.0
 11
25057.224847000009
 21
12789.18942499997
 31
0.0
  0
LINE
  5
4850
  8
SUNPOU
  6
CONTINUOUS
 62
     4
 10
25014.72260400001
 20
12869.18942499997
 30
0.0
 11
24774.72260400001
 21
12869.18942499997
 31
0.0
  0
LINE
  5
4851
  8
SUNPOU
  6
CONTINUOUS
 62
     4
 10
25057.224847000009
 20
12869.18942499997
 30
0.0
 11
25297.224847000009
 21
12869.18942499997
 31
0.0
  0
LINE
  5
4852
  8
SUNPOU
  6
CONTINUOUS
 62
     4
 10
25014.72260400001
 20
12869.18942499997
 30
0.0
 11
25057.224847000009
 21
12869.18942499997
 31
0.0
  0
LINE
  5
4853
  8
SUNPOU
  6
CONTINUOUS
 62
     4
 10
19879.72260400001
 20
13134.87407499998
 30
0.0
 11
19879.72260400001
 21
12789.18942499997
 31
0.0
  0
LINE
  5
4854
  8
SUNPOU
  6
CONTINUOUS
 62
     4
 10
19837.220361
 20
13718.140213999979
 30
0.0
 11
19837.220361
 21
12789.18942499997
 31
0.0
  0
LINE
  5
4855
  8
SUNPOU
  6
CONTINUOUS
 62
     4
 10
19879.72260400001
 20
12869.18942499997
 30
0.0
 11
20119.72260400001
 21
12869.18942499997
 31
0.0
  0
LINE
  5
4856
  8
SUNPOU
  6
CONTINUOUS
 62
     4
 10
19837.220361
 20
12869.18942499997
 30
0.0
 11
19597.220361
 21
12869.18942499997
 31
0.0
  0
LINE
  5
4857
  8
SUNPOU
  6
CONTINUOUS
 62
     4
 10
19879.72260400001
 20
12869.18942499997
 30
0.0
 11
19837.220361
 21
12869.18942499997
 31
0.0
  0
LINE
  5
4858
  8
SUNPOU
  6
CONTINUOUS
 62
     4
 10
19757.226299000002
 20
15299.87802049998
 30
0.0
 11
18870.268026999991
 21
15299.87802049998
 31
0.0
  0
LINE
  5
4859
  8
SUNPOU
  6
CONTINUOUS
 62
     4
 10
18950.268026999991
 20
13840.63750899998
 30
0.0
 11
18950.268026999991
 21
15299.87802049998
 31
0.0
  0
LINE
  5
485A
  8
SUNPOU
  6
CONTINUOUS
 62
     4
 10
19757.226299000002
 20
15299.87802049998
 30
0.0
 11
18870.268026999991
 21
15299.87802049998
 31
0.0
  0
LINE
  5
485B
  8
SUNPOU
  6
CONTINUOUS
 62
     4
 10
18950.268026999991
 20
15299.87802049998
 30
0.0
 11
18950.268026999991
 21
16758.63750899996
 31
0.0
  0
LINE
  5
485C
  8
SUNPOU
  6
CONTINUOUS
 62
     4
 10
19757.226299000002
 20
18217.63750899996
 30
0.0
 11
18870.268026999991
 21
18217.63750899996
 31
0.0
  0
LINE
  5
485D
  8
SUNPOU
  6
CONTINUOUS
 62
     4
 10
18950.268026999991
 20
16758.63750899996
 30
0.0
 11
18950.268026999991
 21
18217.63750899996
 31
0.0
  0
LINE
  5
485E
  8
SUNPOU
  6
CONTINUOUS
 62
     4
 10
19757.226299000002
 20
18217.63750899996
 30
0.0
 11
18870.268026999991
 21
18217.63750899996
 31
0.0
  0
LINE
  5
485F
  8
SUNPOU
  6
CONTINUOUS
 62
     4
 10
18950.268026999991
 20
18217.63750899996
 30
0.0
 11
18950.268026999991
 21
19676.63750899996
 31
0.0
  0
LINE
  5
4860
  8
SUNPOU
  6
CONTINUOUS
 62
     4
 10
11989.469991
 20
5933.9369190000043
 30
0.0
 11
11989.469991
 21
4996.5893420000039
 31
0.0
  0
LINE
  5
4861
  8
SUNPOU
  6
CONTINUOUS
 62
     4
 10
14907.469990999991
 20
5933.9369190000043
 30
0.0
 11
14907.469990999991
 21
4996.5893420000039
 31
0.0
  0
LINE
  5
4862
  8
SUNPOU
  6
CONTINUOUS
 62
     4
 10
11989.469991
 20
5076.5893420000039
 30
0.0
 11
14907.469990999991
 21
5076.5893420000039
 31
0.0
  0
LINE
  5
4863
  8
SUNPOU
  6
CONTINUOUS
 62
     4
 10
11989.469991
 20
5933.9369190000043
 30
0.0
 11
11989.469991
 21
4996.5893420000039
 31
0.0
  0
LINE
  5
4864
  8
SUNPOU
  6
CONTINUOUS
 62
     4
 10
9071.4699910000018
 20
5933.9369190000043
 30
0.0
 11
9071.4699910000018
 21
4996.5893420000039
 31
0.0
  0
LINE
  5
4865
  8
SUNPOU
  6
CONTINUOUS
 62
     4
 10
11989.469991
 20
5076.5893420000039
 30
0.0
 11
9071.4699910000018
 21
5076.5893420000039
 31
0.0
  0
LINE
  5
4866
  8
SUNPOU
  6
CONTINUOUS
 62
     4
 10
9071.4699910000018
 20
5933.9369190000043
 30
0.0
 11
9071.4699910000018
 21
4996.5893420000039
 31
0.0
  0
LINE
  5
4867
  8
SUNPOU
  6
CONTINUOUS
 62
     4
 10
9028.9699910000018
 20
6296.5891770000062
 30
0.0
 11
9028.9699910000018
 21
4996.5893420000039
 31
0.0
  0
LINE
  5
4868
  8
SUNPOU
  6
CONTINUOUS
 62
     4
 10
9071.4699910000018
 20
5076.5893420000039
 30
0.0
 11
9311.4699909999999
 21
5076.5893420000039
 31
0.0
  0
LINE
  5
4869
  8
SUNPOU
  6
CONTINUOUS
 62
     4
 10
9028.9699910000018
 20
5076.5893420000039
 30
0.0
 11
8788.9699910000018
 21
5076.5893420000039
 31
0.0
  0
LINE
  5
486A
  8
SUNPOU
  6
CONTINUOUS
 62
     4
 10
9071.4699910000018
 20
5076.5893420000039
 30
0.0
 11
9028.9699910000018
 21
5076.5893420000039
 31
0.0
  0
LINE
  5
486B
  8
SUNPOU
  6
CONTINUOUS
 62
     4
 10
14907.469990999991
 20
5933.9369190000043
 30
0.0
 11
14907.469990999991
 21
4996.5893420000039
 31
0.0
  0
LINE
  5
486C
  8
SUNPOU
  6
CONTINUOUS
 62
     4
 10
14949.969991
 20
6296.5891770000062
 30
0.0
 11
14949.969991
 21
4996.5893420000039
 31
0.0
  0
LINE
  5
486D
  8
SUNPOU
  6
CONTINUOUS
 62
     4
 10
14907.469990999991
 20
5076.5893420000039
 30
0.0
 11
14667.469991
 21
5076.5893420000039
 31
0.0
  0
LINE
  5
486E
  8
SUNPOU
  6
CONTINUOUS
 62
     4
 10
14949.969991
 20
5076.5893420000039
 30
0.0
 11
15189.969991
 21
5076.5893420000039
 31
0.0
  0
LINE
  5
486F
  8
SUNPOU
  6
CONTINUOUS
 62
     4
 10
14907.469990999991
 20
5076.5893420000039
 30
0.0
 11
14949.969991
 21
5076.5893420000039
 31
0.0
  0
LINE
  5
4870
  8
SUNPOU
  6
CONTINUOUS
 62
     4
 10
9028.9699910000018
 20
6296.5891770000062
 30
0.0
 11
9028.9699910000018
 21
4596.5895070000051
 31
0.0
  0
LINE
  5
4871
  8
SUNPOU
  6
CONTINUOUS
 62
     4
 10
14949.969991
 20
6296.5891770000062
 30
0.0
 11
14949.969991
 21
4596.5895070000051
 31
0.0
  0
LINE
  5
4872
  8
SUNPOU
  6
CONTINUOUS
 62
     4
 10
9028.9699910000018
 20
4676.5895070000051
 30
0.0
 11
14949.969991
 21
4676.5895070000051
 31
0.0
  0
LINE
  5
4873
  8
SUNPOU
  6
CONTINUOUS
 62
     4
 10
15042.469991
 20
6376.5896720000028
 30
0.0
 11
16119.969396
 21
6376.5896720000028
 31
0.0
  0
LINE
  5
4874
  8
SUNPOU
  6
CONTINUOUS
 62
     4
 10
15134.776259599381
 20
8725.0896720000019
 30
0.0
 11
16119.969396
 21
8725.0896720000019
 31
0.0
  0
LINE
  5
4875
  8
SUNPOU
  6
CONTINUOUS
 62
     4
 10
16039.969396
 20
6376.5896720000028
 30
0.0
 11
16039.969396
 21
8725.0896720000019
 31
0.0
  0
LINE
  5
4876
  8
SUNPOU
  6
CONTINUOUS
 62
     4
 10
8941.4699909999981
 20
6376.5896720000028
 30
0.0
 11
7858.9715729999989
 21
6376.5896720000028
 31
0.0
  0
LINE
  5
4877
  8
SUNPOU
  6
CONTINUOUS
 62
     4
 10
8768.9719689999947
 20
8533.0896720000019
 30
0.0
 11
7858.9715729999989
 21
8533.0896720000019
 31
0.0
  0
LINE
  5
4878
  8
SUNPOU
  6
CONTINUOUS
 62
     4
 10
7938.9715729999998
 20
6376.5896720000028
 30
0.0
 11
7938.9715729999998
 21
8533.0896720000019
 31
0.0
  0
LINE
  5
4879
  8
SUNPOU
  6
CONTINUOUS
 62
     4
 10
8848.9699910000018
 20
8613.5886820000123
 30
0.0
 11
8848.9699910000018
 21
9604.5903580000013
 31
0.0
  0
LINE
  5
487A
  8
SUNPOU
  6
CONTINUOUS
 62
     4
 10
9028.9687369999992
 20
8489.6710560000047
 30
0.0
 11
9028.9687369999992
 21
9604.5903580000013
 31
0.0
  0
LINE
  5
487B
  8
SUNPOU
  6
CONTINUOUS
 62
     4
 10
8848.9699910000018
 20
9524.5903579999995
 30
0.0
 11
9028.9687369999992
 21
9524.5903579999995
 31
0.0
  0
LINE
  5
487C
  8
SUNPOU
  6
CONTINUOUS
 62
     4
 10
9028.9687369999992
 20
8489.6710560000047
 30
0.0
 11
9028.9687369999992
 21
9604.5903580000013
 31
0.0
  0
LINE
  5
487D
  8
SUNPOU
  6
CONTINUOUS
 62
     4
 10
14949.971244
 20
8671.8194280000007
 30
0.0
 11
14949.971244
 21
9604.5903580000013
 31
0.0
  0
LINE
  5
487E
  8
SUNPOU
  6
CONTINUOUS
 62
     4
 10
9028.9687369999992
 20
9524.5903579999995
 30
0.0
 11
14949.971244
 21
9524.5903579999995
 31
0.0
  0
LINE
  5
487F
  8
SUNPOU
  6
CONTINUOUS
 62
     4
 10
14949.971244
 20
8671.8194280000007
 30
0.0
 11
14949.971244
 21
9604.5903580000013
 31
0.0
  0
LINE
  5
4880
  8
SUNPOU
  6
CONTINUOUS
 62
     4
 10
15099.969991
 20
8745.478505412435
 30
0.0
 11
15099.969991
 21
9604.5903580000013
 31
0.0
  0
LINE
  5
4881
  8
SUNPOU
  6
CONTINUOUS
 62
     4
 10
14949.971244
 20
9524.5903579999995
 30
0.0
 11
14709.971244
 21
9524.5903579999995
 31
0.0
  0
LINE
  5
4882
  8
SUNPOU
  6
CONTINUOUS
 62
     4
 10
15099.969991
 20
9524.5903579999995
 30
0.0
 11
15339.969991
 21
9524.5903579999995
 31
0.0
  0
LINE
  5
4883
  8
SUNPOU
  6
CONTINUOUS
 62
     4
 10
14949.971244
 20
9524.5903579999995
 30
0.0
 11
15099.969991
 21
9524.5903579999995
 31
0.0
  0
LINE
  5
4884
  8
SUNPOU
  6
CONTINUOUS
 62
     4
 10
8848.9699910000018
 20
8613.5886820000123
 30
0.0
 11
8848.9699910000018
 21
10004.58870799999
 31
0.0
  0
LINE
  5
4885
  8
SUNPOU
  6
CONTINUOUS
 62
     4
 10
15099.969991
 20
8745.478505412435
 30
0.0
 11
15099.969991
 21
10004.58870799999
 31
0.0
  0
LINE
  5
4886
  8
SUNPOU
  6
CONTINUOUS
 62
     4
 10
8848.9699910000018
 20
9924.5887079999993
 30
0.0
 11
15099.969991
 21
9924.5887079999993
 31
0.0
  0
LINE
  5
4887
  8
SUNPOU
  6
CONTINUOUS
 62
     4
 10
19837.226561999989
 20
6196.5903320000034
 30
0.0
 11
19837.226561999989
 21
4596.5904970000001
 31
0.0
  0
LINE
  5
4888
  8
SUNPOU
  6
CONTINUOUS
 62
     4
 10
25057.226562
 20
6196.5903320000034
 30
0.0
 11
25057.226562
 21
4596.5904970000001
 31
0.0
  0
LINE
  5
4889
  8
SUNPOU
  6
CONTINUOUS
 62
     4
 10
19837.226561999989
 20
4676.5904970000001
 30
0.0
 11
25057.226562
 21
4676.5904970000001
 31
0.0
  0
LINE
  5
488A
  8
SUNPOU
  6
CONTINUOUS
 62
     4
 10
19879.726562
 20
5933.9379090000011
 30
0.0
 11
19879.726562
 21
4996.5903320000016
 31
0.0
  0
LINE
  5
488B
  8
SUNPOU
  6
CONTINUOUS
 62
     4
 10
19837.226561999989
 20
6196.5903320000034
 30
0.0
 11
19837.226561999989
 21
4996.5903320000016
 31
0.0
  0
LINE
  5
488C
  8
SUNPOU
  6
CONTINUOUS
 62
     4
 10
19879.726562
 20
5076.5903320000016
 30
0.0
 11
20119.726562
 21
5076.5903320000016
 31
0.0
  0
LINE
  5
488D
  8
SUNPOU
  6
CONTINUOUS
 62
     4
 10
19837.226561999989
 20
5076.5903320000016
 30
0.0
 11
19597.226561999982
 21
5076.5903320000016
 31
0.0
  0
LINE
  5
488E
  8
SUNPOU
  6
CONTINUOUS
 62
     4
 10
19879.726562
 20
5076.5903320000016
 30
0.0
 11
19837.226561999989
 21
5076.5903320000016
 31
0.0
  0
LINE
  5
488F
  8
SUNPOU
  6
CONTINUOUS
 62
     4
 10
25014.730521000009
 20
5933.9379090000011
 30
0.0
 11
25014.730521000009
 21
4996.5903320000016
 31
0.0
  0
LINE
  5
4890
  8
SUNPOU
  6
CONTINUOUS
 62
     4
 10
25057.230521000001
 20
6196.5903320000034
 30
0.0
 11
25057.230521000001
 21
4996.5903320000016
 31
0.0
  0
LINE
  5
4891
  8
SUNPOU
  6
CONTINUOUS
 62
     4
 10
25014.730521000009
 20
5076.5903320000016
 30
0.0
 11
24774.730521000009
 21
5076.5903320000016
 31
0.0
  0
LINE
  5
4892
  8
SUNPOU
  6
CONTINUOUS
 62
     4
 10
25057.230521000001
 20
5076.5903320000016
 30
0.0
 11
25297.230521000001
 21
5076.5903320000016
 31
0.0
  0
LINE
  5
4893
  8
SUNPOU
  6
CONTINUOUS
 62
     4
 10
25014.730521000009
 20
5076.5903320000016
 30
0.0
 11
25057.230521000001
 21
5076.5903320000016
 31
0.0
  0
LINE
  5
4894
  8
SUNPOU
  6
CONTINUOUS
 62
     4
 10
19879.726562
 20
5933.9379090000011
 30
0.0
 11
19879.726562
 21
4996.5903320000016
 31
0.0
  0
LINE
  5
4895
  8
SUNPOU
  6
CONTINUOUS
 62
     4
 10
23148.226562
 20
5933.9379090000011
 30
0.0
 11
23148.226562
 21
4996.5903320000016
 31
0.0
  0
LINE
  5
4896
  8
SUNPOU
  6
CONTINUOUS
 62
     4
 10
19879.726562
 20
5076.5903320000016
 30
0.0
 11
23148.226562
 21
5076.5903320000016
 31
0.0
  0
LINE
  5
4897
  8
SUNPOU
  6
CONTINUOUS
 62
     4
 10
23148.226562
 20
5933.9379090000011
 30
0.0
 11
23148.226562
 21
4996.5903320000016
 31
0.0
  0
LINE
  5
4898
  8
SUNPOU
  6
CONTINUOUS
 62
     4
 10
25014.726562
 20
5933.9379090000011
 30
0.0
 11
25014.726562
 21
4996.5903320000016
 31
0.0
  0
LINE
  5
4899
  8
SUNPOU
  6
CONTINUOUS
 62
     4
 10
23148.226562
 20
5076.5903320000016
 30
0.0
 11
25014.726562
 21
5076.5903320000016
 31
0.0
  0
LINE
  5
489A
  8
SUNPOU
  6
CONTINUOUS
 62
     4
 10
23242.226561999989
 20
6196.5903320000034
 30
0.0
 11
23242.226561999989
 21
5396.5903320000016
 31
0.0
  0
LINE
  5
489B
  8
SUNPOU
  6
CONTINUOUS
 62
     4
 10
24920.726561999989
 20
6196.5903320000034
 30
0.0
 11
24920.726561999989
 21
5396.5903320000016
 31
0.0
  0
LINE
  5
489C
  8
SUNPOU
  6
CONTINUOUS
 62
     4
 10
23242.226561999989
 20
5476.5903320000043
 30
0.0
 11
24920.726561999989
 21
5476.5903320000043
 31
0.0
  0
LINE
  5
489D
  8
SUNPOU
  6
CONTINUOUS
 62
     4
 10
19973.726561999982
 20
6196.5903320000034
 30
0.0
 11
19973.726561999982
 21
5396.5903320000016
 31
0.0
  0
LINE
  5
489E
  8
SUNPOU
  6
CONTINUOUS
 62
     4
 10
23054.226562
 20
6196.5903320000034
 30
0.0
 11
23054.226562
 21
5396.5903320000016
 31
0.0
  0
LINE
  5
489F
  8
SUNPOU
  6
CONTINUOUS
 62
     4
 10
19973.726561999982
 20
5476.5903320000043
 30
0.0
 11
23054.226562
 21
5476.5903320000043
 31
0.0
  0
LINE
  5
48B0
  8
SUNPOU
  6
CONTINUOUS
 62
     4
 10
19749.725902999991
 20
6376.5901670000003
 30
0.0
 11
18549.724912999991
 21
6376.5901670000003
 31
0.0
  0
LINE
  5
48B1
  8
SUNPOU
  6
CONTINUOUS
 62
     4
 10
19717.22616699999
 20
8725.0901670000057
 30
0.0
 11
18549.724912999991
 21
8725.0901670000057
 31
0.0
  0
LINE
  5
48B2
  8
SUNPOU
  6
CONTINUOUS
 62
     4
 10
18629.724912999991
 20
6376.5901670000003
 30
0.0
 11
18629.724912999991
 21
8725.0901670000057
 31
0.0
  0
LINE
  5
48B3
  8
SUNPOU
  6
CONTINUOUS
 62
     4
 10
19749.725902999991
 20
6376.5901670000003
 30
0.0
 11
18949.72722199998
 21
6376.5901670000003
 31
0.0
  0
LINE
  5
48B4
  8
SUNPOU
  6
CONTINUOUS
 62
     4
 10
19749.725902999991
 20
8268.0901669999967
 30
0.0
 11
18949.72722199998
 21
8268.0901669999967
 31
0.0
  0
LINE
  5
48B5
  8
SUNPOU
  6
CONTINUOUS
 62
     4
 10
19029.72722199998
 20
6376.5901670000003
 30
0.0
 11
19029.72722199999
 21
8268.0901669999967
 31
0.0
  0
TEXT
  5
48B6
  8
0
  6
CONTINUOUS
 62
     7
 10
18949.72722199998
 20
6440.5694052912741
 30
0.0
 40
160.0
  1
有効開口高サ 1891.5
 50
90.0
  0
TEXT
  5
48B7
  8
0
  6
CONTINUOUS
 62
     7
 10
18549.724912999991
 20
6532.173500333337
 30
0.0
 40
160.0
  1
2348.5（2588.5）
 50
90.0
  0
TEXT
  5
48BC
  8
0
  6
CONTINUOUS
 62
     7
 10
20612.643228666671
 20
5556.5903320000016
 30
0.0
 40
160.0
  1
有効開口巾 3080.5
  0
TEXT
  5
48BD
  8
0
  6
CONTINUOUS
 62
     7
 10
23617.476561999989
 20
5823.2569986666686
 30
0.0
 40
160.0
  1
有効開口巾
  0
TEXT
  5
48BE
  8
0
  6
CONTINUOUS
 62
     7
 10
23660.143228666671
 20
5556.5903320000016
 30
0.0
 40
160.0
  1
 1678.5
  0
TEXT
  5
48BF
  8
0
  6
CONTINUOUS
 62
     7
 10
23708.14322866666
 20
5156.5903320000034
 30
0.0
 40
160.0
  1
1866.5
  0
TEXT
  5
48C0
  8
0
  6
CONTINUOUS
 62
     7
 10
21113.976562
 20
5156.5903320000034
 30
0.0
 40
160.0
  1
3268.5
  0
TEXT
  5
48C1
  8
0
  6
CONTINUOUS
 62
     7
 10
25143.26951125883
 20
5156.5903320000034
 30
0.0
 40
160.0
  1
42.5
  0
TEXT
  5
48C2
  8
0
  6
CONTINUOUS
 62
     7
 10
19271.187571741109
 20
5156.5903320000034
 30
0.0
 40
160.0
  1
42.5
  0
TEXT
  5
48C3
  8
0
  6
CONTINUOUS
 62
     7
 10
22167.226561999989
 20
4756.5904970000001
 30
0.0
 40
160.0
  1
5220
  0
TEXT
  5
48C4
  8
0
  6
CONTINUOUS
 62
     7
 10
11707.80332433333
 20
10004.58870799999
 30
0.0
 40
160.0
  1
6251
  0
TEXT
  5
48C5
  8
0
  6
CONTINUOUS
 62
     7
 10
15166.63665766667
 20
9604.5903580000013
 30
0.0
 40
160.0
  1
150
  0
TEXT
  5
48C6
  8
0
  6
CONTINUOUS
 62
     7
 10
11722.80332383333
 20
9604.5903580000013
 30
0.0
 40
160.0
  1
5921
  0
TEXT
  5
48C7
  8
0
  6
CONTINUOUS
 62
     7
 10
8435.6366576666678
 20
9604.5903580000013
 30
0.0
 40
160.0
  1
180
  0
TEXT
  5
48C8
  8
0
  6
CONTINUOUS
 62
     7
 10
7858.971572999998
 20
6462.8396720000037
 30
0.0
 40
160.0
  1
2156.5（2396.5）
 50
90.0
  0
TEXT
  5
48C9
  8
0
  6
CONTINUOUS
 62
     7
 10
15959.96939599999
 20
6532.1730053333376
 30
0.0
 40
160.0
  1
2348.5（2588.5）
 50
90.0
  0
TEXT
  5
48CA
  8
0
  6
CONTINUOUS
 62
     7
 10
11722.80332433333
 20
4756.5895070000051
 30
0.0
 40
160.0
  1
5921
  0
TEXT
  5
48CB
  8
0
  6
CONTINUOUS
 62
     7
 10
15088.28862830982
 20
5156.589342000002
 30
0.0
 40
160.0
  1
42.5
  0
TEXT
  5
48CC
  8
0
  6
CONTINUOUS
 62
     7
 10
8431.7962819036984
 20
5156.589342000002
 30
0.0
 40
160.0
  1
42.5
  0
TEXT
  5
48CD
  8
0
  6
CONTINUOUS
 62
     7
 10
10263.80332433333
 20
5156.589342000002
 30
0.0
 40
160.0
  1
2918
  0
TEXT
  5
48CE
  8
0
  6
CONTINUOUS
 62
     7
 10
13181.803324333319
 20
5156.589342000002
 30
0.0
 40
160.0
  1
2918
  0
TEXT
  5
48CF
  8
0
  6
CONTINUOUS
 62
     7
 10
18870.268026999991
 20
18680.47084233331
 30
0.0
 40
160.0
  1
1459
 50
90.0
  0
TEXT
  5
48D0
  8
0
  6
CONTINUOUS
 62
     7
 10
18870.268026999991
 20
17221.47084233331
 30
0.0
 40
160.0
  1
1459
 50
90.0
  0
TEXT
  5
48D1
  8
0
  6
CONTINUOUS
 62
     7
 10
18870.268026999991
 20
15762.59109808331
 30
0.0
 40
160.0
  1
1459
 50
90.0
  0
TEXT
  5
48D2
  8
0
  6
CONTINUOUS
 62
     7
 10
18870.268026999991
 20
14303.59109808331
 30
0.0
 40
160.0
  1
1459
 50
90.0
  0
TEXT
  5
48D3
  8
0
  6
CONTINUOUS
 62
     7
 10
19281.668931617911
 20
12949.18942499997
 30
0.0
 40
160.0
  1
42.5
  0
TEXT
  5
48D4
  8
0
  6
CONTINUOUS
 62
     7
 10
25132.776276382079
 20
12949.18942499997
 30
0.0
 40
160.0
  1
42.5
  0
TEXT
  5
48D5
  8
0
  6
CONTINUOUS
 62
     7
 10
24416.668931617911
 20
12949.18942499997
 30
0.0
 40
160.0
  1
42.5
  0
TEXT
  5
48D6
  8
0
  6
CONTINUOUS
 62
     7
 10
19997.77627638209
 20
12949.18942499997
 30
0.0
 40
160.0
  1
42.5
  0
TEXT
  5
48D7
  8
0
  6
CONTINUOUS
 62
     7
 10
22167.222603999999
 20
12549.18942499997
 30
0.0
 40
160.0
  1
5220
  0
TEXT
  5
48D8
  8
0
  6
CONTINUOUS
 62
     7
 10
26027.222207999999
 20
14006.30417566665
 30
0.0
 40
160.0
  1
758
 50
90.0
  0
TEXT
  5
48D9
  8
0
  6
CONTINUOUS
 62
     7
 10
26027.222207999999
 20
14775.92443141665
 30
0.0
 40
160.0
  1
701
 50
90.0
  0
TEXT
  5
48DA
  8
0
  6
CONTINUOUS
 62
     7
 10
26027.222207999999
 20
15476.92443141665
 30
0.0
 40
160.0
  1
701
 50
90.0
  0
TEXT
  5
48DB
  8
0
  6
CONTINUOUS
 62
     7
 10
26027.222207999999
 20
16166.30417566665
 30
0.0
 40
160.0
  1
758
 50
90.0
  0
TEXT
  5
48DC
  8
0
  6
CONTINUOUS
 62
     7
 10
26027.222207999999
 20
16924.30417566665
 30
0.0
 40
160.0
  1
758
 50
90.0
  0
TEXT
  5
48DD
  8
0
  6
CONTINUOUS
 62
     7
 10
26027.222207999999
 20
17693.804175666639
 30
0.0
 40
160.0
  1
701
 50
90.0
  0
TEXT
  5
48DE
  8
0
  6
CONTINUOUS
 62
     7
 10
26027.222207999999
 20
18394.804175666639
 30
0.0
 40
160.0
  1
701
 50
90.0
  0
TEXT
  5
48DF
  8
0
  6
CONTINUOUS
 62
     7
 10
26027.222207999999
 20
19084.30417566665
 30
0.0
 40
160.0
  1
758
 50
90.0
  0
TEXT
  5
48E0
  8
0
  6
CONTINUOUS
 62
     7
 10
26427.222207999999
 20
17950.970842333321
 30
0.0
 40
160.0
  1
2918
 50
90.0
  0
TEXT
  5
48E1
  8
0
  6
CONTINUOUS
 62
     7
 10
26427.222207999999
 20
15032.97084233331
 30
0.0
 40
160.0
  1
2918
 50
90.0
  0
TEXT
  5
48E2
  8
0
  6
CONTINUOUS
 62
     7
 10
26827.22220800001
 20
16491.970842333321
 30
0.0
 40
160.0
  1
5921
 50
90.0
  0
TEXT
  5
48E3
  8
0
  6
CONTINUOUS
 62
     7
 10
26427.222207999999
 20
19812.691040396759
 30
0.0
 40
160.0
  1
42.5
 50
90.0
  0
TEXT
  5
48E4
  8
0
  6
CONTINUOUS
 62
     7
 10
26427.222207999999
 20
13224.583977603181
 30
0.0
 40
160.0
  1
42.5
 50
90.0
  0
TEXT
  5
48E5
  8
0
  6
CONTINUOUS
 62
     7
 10
23249.055937333349
 20
20529.138696999991
 30
0.0
 40
160.0
  1
407.5
  0
TEXT
  5
48E6
  8
0
  6
CONTINUOUS
 62
     7
 10
24422.389765416679
 20
20529.138696999991
 30
0.0
 40
160.0
  1
758
  0
TEXT
  5
48E7
  8
0
  6
CONTINUOUS
 62
     7
 10
23732.889270666681
 20
20209.138696999991
 30
0.0
 40
160.0
  1
701
  0
TEXT
  5
48E8
  8
0
  6
CONTINUOUS
 62
     7
 10
25137.534583528792
 20
20529.138696999991
 30
0.0
 40
160.0
  1
42.5
  0
TEXT
  5
48E9
  8
0
  6
CONTINUOUS
 62
     7
 10
19980.555937333342
 20
20529.138696999991
 30
0.0
 40
160.0
  1
407.5
  0
TEXT
  5
48EA
  8
0
  6
CONTINUOUS
 62
     7
 10
19276.910624471198
 20
20529.138696999991
 30
0.0
 40
160.0
  1
42.5
  0
TEXT
  5
48EB
  8
0
  6
CONTINUOUS
 62
     7
 10
22555.889765416669
 20
20529.138696999991
 30
0.0
 40
160.0
  1
758
  0
TEXT
  5
48EC
  8
0
  6
CONTINUOUS
 62
     7
 10
21866.389270666681
 20
20529.138696999991
 30
0.0
 40
160.0
  1
701
  0
TEXT
  5
48ED
  8
0
  6
CONTINUOUS
 62
     7
 10
21165.389270666681
 20
20529.138696999991
 30
0.0
 40
160.0
  1
701
  0
TEXT
  5
48EE
  8
0
  6
CONTINUOUS
 62
     7
 10
20464.389270666681
 20
20209.138696999991
 30
0.0
 40
160.0
  1
701
  0
TEXT
  5
48EF
  8
0
  6
CONTINUOUS
 62
     7
 10
8864.8025759999855
 20
13052.684710702621
 30
0.0
 40
160.0
  1
192.5
 50
90.0
  0
TEXT
  5
48F0
  8
0
  6
CONTINUOUS
 62
     7
 10
8864.8025759999819
 20
14323.471054333309
 30
0.0
 40
160.0
  1
1459
 50
90.0
  0
TEXT
  5
48F1
  8
0
  6
CONTINUOUS
 62
     7
 10
8864.8025759999855
 20
15782.47105433332
 30
0.0
 40
160.0
  1
1459
 50
90.0
  0
TEXT
  5
48F2
  8
0
  6
CONTINUOUS
 62
     7
 10
8864.8025759999855
 20
17241.471054333331
 30
0.0
 40
160.0
  1
1459
 50
90.0
  0
TEXT
  5
48F3
  8
0
  6
CONTINUOUS
 62
     7
 10
8864.8025759999855
 20
18700.471054333309
 30
0.0
 40
160.0
  1
1459
 50
90.0
  0
TEXT
  5
48F4
  8
0
  6
CONTINUOUS
 62
     7
 10
8864.8025759999855
 20
20008.092905807662
 30
0.0
 40
160.0
  1
222.5
 50
90.0
  0
TEXT
  5
48F5
  8
0
  6
CONTINUOUS
 62
     7
 10
9264.8025759999855
 20
20039.133630000011
 30
0.0
 40
160.0
  1
20
 50
90.0
  0
TEXT
  5
48F6
  8
0
  6
CONTINUOUS
 62
     7
 10
13702.71308066663
 20
20549.142867999992
 30
0.0
 40
160.0
  1
1866.5
  0
TEXT
  5
48F7
  8
0
  6
CONTINUOUS
 62
     7
 10
15145.793120023231
 20
20549.142867999992
 30
0.0
 40
160.0
  1
85.5
  0
TEXT
  5
48F8
  8
0
  6
CONTINUOUS
 62
     7
 10
11108.558290000001
 20
20549.142867999992
 30
0.0
 40
160.0
  1
3268.5
  0
TEXT
  5
48F9
  8
0
  6
CONTINUOUS
 62
     7
 10
9257.8115839767397
 20
20549.142867999992
 30
0.0
 40
160.0
  1
85.5
  0
ARC
  5
48FF
  8
0
  6
BYBLOCK
 62
     0
 10
9874.3082900000045
 20
20469.142867999992
 30
0.0
 40
15.0
 50
0.0
 51
180.0
  0
ARC
  5
4900
  8
0
  6
BYBLOCK
 62
     0
 10
9874.3082900000045
 20
20469.142867999992
 30
0.0
 40
15.0
 50
180.0
 51
0.0
  0
ARC
  5
4901
  8
0
  6
BYBLOCK
 62
     0
 10
9788.8082900000045
 20
20469.142867999992
 30
0.0
 40
15.0
 50
180.0
 51
0.0
  0
ARC
  5
4902
  8
0
  6
BYBLOCK
 62
     0
 10
9788.8082900000045
 20
20469.142867999992
 30
0.0
 40
15.0
 50
0.0
 51
180.0
  0
ARC
  5
4903
  8
0
  6
BYBLOCK
 62
     0
 10
13142.808290000001
 20
20469.142867999992
 30
0.0
 40
15.0
 50
180.0
 51
0.0
  0
ARC
  5
4904
  8
0
  6
BYBLOCK
 62
     0
 10
13142.808290000001
 20
20469.142867999992
 30
0.0
 40
15.0
 50
0.0
 51
180.0
  0
ARC
  5
4905
  8
0
  6
BYBLOCK
 62
     0
 10
9874.3082900000045
 20
20469.142867999992
 30
0.0
 40
15.0
 50
0.0
 51
180.0
  0
ARC
  5
4906
  8
0
  6
BYBLOCK
 62
     0
 10
9874.3082900000045
 20
20469.142867999992
 30
0.0
 40
15.0
 50
180.0
 51
0.0
  0
ARC
  5
4907
  8
0
  6
BYBLOCK
 62
     0
 10
15009.29641399996
 20
20469.142867999992
 30
0.0
 40
15.0
 50
180.0
 51
0.0
  0
ARC
  5
4908
  8
0
  6
BYBLOCK
 62
     0
 10
15009.29641399996
 20
20469.142867999992
 30
0.0
 40
15.0
 50
0.0
 51
180.0
  0
ARC
  5
4909
  8
0
  6
BYBLOCK
 62
     0
 10
15094.79641399996
 20
20469.142867999992
 30
0.0
 40
15.0
 50
0.0
 51
180.0
  0
ARC
  5
490A
  8
0
  6
BYBLOCK
 62
     0
 10
15094.79641399996
 20
20469.142867999992
 30
0.0
 40
15.0
 50
180.0
 51
0.0
  0
ARC
  5
490B
  8
0
  6
BYBLOCK
 62
     0
 10
13142.79641399996
 20
20469.142867999992
 30
0.0
 40
15.0
 50
0.0
 51
180.0
  0
ARC
  5
490C
  8
0
  6
BYBLOCK
 62
     0
 10
13142.79641399996
 20
20469.142867999992
 30
0.0
 40
15.0
 50
180.0
 51
0.0
  0
ARC
  5
490D
  8
0
  6
BYBLOCK
 62
     0
 10
15009.29641399996
 20
20469.142867999992
 30
0.0
 40
15.0
 50
180.0
 51
0.0
  0
ARC
  5
490E
  8
0
  6
BYBLOCK
 62
     0
 10
15009.29641399996
 20
20469.142867999992
 30
0.0
 40
15.0
 50
0.0
 51
180.0
  0
ARC
  5
490F
  8
0
  6
BYBLOCK
 62
     0
 10
9344.8025759999873
 20
19899.13363
 30
0.0
 40
15.0
 50
270.0
 51
90.0
  0
ARC
  5
4910
  8
0
  6
BYBLOCK
 62
     0
 10
9344.8025759999873
 20
19899.13363
 30
0.0
 40
15.0
 50
90.0
 51
270.0
  0
ARC
  5
4911
  8
0
  6
BYBLOCK
 62
     0
 10
9344.8025759999873
 20
19919.13363
 30
0.0
 40
15.0
 50
90.0
 51
270.0
  0
ARC
  5
4912
  8
0
  6
BYBLOCK
 62
     0
 10
9344.8025759999873
 20
19919.13363
 30
0.0
 40
15.0
 50
270.0
 51
90.0
  0
ARC
  5
4913
  8
0
  6
BYBLOCK
 62
     0
 10
8944.8025759999873
 20
19696.637720999981
 30
0.0
 40
15.0
 50
90.0
 51
270.0
  0
ARC
  5
4914
  8
0
  6
BYBLOCK
 62
     0
 10
8944.8025759999873
 20
19696.637720999981
 30
0.0
 40
15.0
 50
270.0
 51
90.0
  0
ARC
  5
4915
  8
0
  6
BYBLOCK
 62
     0
 10
8944.8025759999873
 20
19919.13363
 30
0.0
 40
15.0
 50
270.0
 51
90.0
  0
ARC
  5
4916
  8
0
  6
BYBLOCK
 62
     0
 10
8944.8025759999873
 20
19919.13363
 30
0.0
 40
15.0
 50
90.0
 51
270.0
  0
ARC
  5
4917
  8
0
  6
BYBLOCK
 62
     0
 10
8944.8025759999873
 20
18237.637720999981
 30
0.0
 40
15.0
 50
90.0
 51
270.0
  0
ARC
  5
4918
  8
0
  6
BYBLOCK
 62
     0
 10
8944.8025759999873
 20
18237.637720999981
 30
0.0
 40
15.0
 50
270.0
 51
90.0
  0
ARC
  5
4919
  8
0
  6
BYBLOCK
 62
     0
 10
8944.8025759999873
 20
19696.637720999981
 30
0.0
 40
15.0
 50
270.0
 51
90.0
  0
ARC
  5
491A
  8
0
  6
BYBLOCK
 62
     0
 10
8944.8025759999873
 20
19696.637720999981
 30
0.0
 40
15.0
 50
90.0
 51
270.0
  0
ARC
  5
491B
  8
0
  6
BYBLOCK
 62
     0
 10
8944.8025759999873
 20
16778.637720999981
 30
0.0
 40
15.0
 50
90.0
 51
270.0
  0
ARC
  5
491C
  8
0
  6
BYBLOCK
 62
     0
 10
8944.8025759999873
 20
16778.637720999981
 30
0.0
 40
15.0
 50
270.0
 51
90.0
  0
ARC
  5
491D
  8
0
  6
BYBLOCK
 62
     0
 10
8944.8025759999873
 20
18237.637720999981
 30
0.0
 40
15.0
 50
270.0
 51
90.0
  0
ARC
  5
491E
  8
0
  6
BYBLOCK
 62
     0
 10
8944.8025759999873
 20
18237.637720999981
 30
0.0
 40
15.0
 50
90.0
 51
270.0
  0
ARC
  5
491F
  8
0
  6
BYBLOCK
 62
     0
 10
8944.8025759999873
 20
15319.63772099999
 30
0.0
 40
15.0
 50
90.0
 51
270.0
  0
ARC
  5
4920
  8
0
  6
BYBLOCK
 62
     0
 10
8944.8025759999873
 20
15319.63772099999
 30
0.0
 40
15.0
 50
270.0
 51
90.0
  0
ARC
  5
4921
  8
0
  6
BYBLOCK
 62
     0
 10
8944.8025759999873
 20
16778.637720999981
 30
0.0
 40
15.0
 50
270.0
 51
90.0
  0
ARC
  5
4922
  8
0
  6
BYBLOCK
 62
     0
 10
8944.8025759999873
 20
16778.637720999981
 30
0.0
 40
15.0
 50
90.0
 51
270.0
  0
ARC
  5
4923
  8
0
  6
BYBLOCK
 62
     0
 10
8944.8025759999873
 20
13860.63772099999
 30
0.0
 40
15.0
 50
90.0
 51
270.0
  0
ARC
  5
4924
  8
0
  6
BYBLOCK
 62
     0
 10
8944.8025759999873
 20
13860.63772099999
 30
0.0
 40
15.0
 50
270.0
 51
90.0
  0
ARC
  5
4925
  8
0
  6
BYBLOCK
 62
     0
 10
8944.8025759999873
 20
15319.63772099999
 30
0.0
 40
15.0
 50
270.0
 51
90.0
  0
ARC
  5
4926
  8
0
  6
BYBLOCK
 62
     0
 10
8944.8025759999873
 20
15319.63772099999
 30
0.0
 40
15.0
 50
90.0
 51
270.0
  0
ARC
  5
4927
  8
0
  6
BYBLOCK
 62
     0
 10
8944.8025759999873
 20
13860.63772099999
 30
0.0
 40
15.0
 50
270.0
 51
90.0
  0
ARC
  5
4928
  8
0
  6
BYBLOCK
 62
     0
 10
8944.8025759999873
 20
13860.63772099999
 30
0.0
 40
15.0
 50
90.0
 51
270.0
  0
ARC
  5
4929
  8
0
  6
BYBLOCK
 62
     0
 10
8944.8025759999873
 20
13668.14240599999
 30
0.0
 40
15.0
 50
90.0
 51
270.0
  0
ARC
  5
492A
  8
0
  6
BYBLOCK
 62
     0
 10
8944.8025759999873
 20
13668.14240599999
 30
0.0
 40
15.0
 50
270.0
 51
90.0
  0
ARC
  5
492B
  8
0
  6
BYBLOCK
 62
     0
 10
20287.22260400001
 20
20449.138696999991
 30
0.0
 40
15.0
 50
0.0
 51
180.0
  0
ARC
  5
492C
  8
0
  6
BYBLOCK
 62
     0
 10
20287.22260400001
 20
20449.138696999991
 30
0.0
 40
15.0
 50
180.0
 51
0.0
  0
ARC
  5
492D
  8
0
  6
BYBLOCK
 62
     0
 10
20988.222603999999
 20
20449.138696999991
 30
0.0
 40
15.0
 50
180.0
 51
0.0
  0
ARC
  5
492E
  8
0
  6
BYBLOCK
 62
     0
 10
20988.222603999999
 20
20449.138696999991
 30
0.0
 40
15.0
 50
0.0
 51
180.0
  0
ARC
  5
492F
  8
0
  6
BYBLOCK
 62
     0
 10
20988.222603999999
 20
20449.138696999991
 30
0.0
 40
15.0
 50
0.0
 51
180.0
  0
ARC
  5
4930
  8
0
  6
BYBLOCK
 62
     0
 10
20988.222603999999
 20
20449.138696999991
 30
0.0
 40
15.0
 50
180.0
 51
0.0
  0
ARC
  5
4931
  8
0
  6
BYBLOCK
 62
     0
 10
21689.222603999999
 20
20449.138696999991
 30
0.0
 40
15.0
 50
180.0
 51
0.0
  0
ARC
  5
4932
  8
0
  6
BYBLOCK
 62
     0
 10
21689.222603999999
 20
20449.138696999991
 30
0.0
 40
15.0
 50
0.0
 51
180.0
  0
ARC
  5
4933
  8
0
  6
BYBLOCK
 62
     0
 10
21689.222603999999
 20
20449.138696999991
 30
0.0
 40
15.0
 50
0.0
 51
180.0
  0
ARC
  5
4934
  8
0
  6
BYBLOCK
 62
     0
 10
21689.222603999999
 20
20449.138696999991
 30
0.0
 40
15.0
 50
180.0
 51
0.0
  0
ARC
  5
4935
  8
0
  6
BYBLOCK
 62
     0
 10
22390.222603999999
 20
20449.138696999991
 30
0.0
 40
15.0
 50
180.0
 51
0.0
  0
ARC
  5
4936
  8
0
  6
BYBLOCK
 62
     0
 10
22390.222603999999
 20
20449.138696999991
 30
0.0
 40
15.0
 50
0.0
 51
180.0
  0
ARC
  5
4937
  8
0
  6
BYBLOCK
 62
     0
 10
22390.222603999999
 20
20449.138696999991
 30
0.0
 40
15.0
 50
0.0
 51
180.0
  0
ARC
  5
4938
  8
0
  6
BYBLOCK
 62
     0
 10
22390.222603999999
 20
20449.138696999991
 30
0.0
 40
15.0
 50
180.0
 51
0.0
  0
ARC
  5
4939
  8
0
  6
BYBLOCK
 62
     0
 10
23148.223593500021
 20
20449.138696999991
 30
0.0
 40
15.0
 50
180.0
 51
0.0
  0
ARC
  5
493A
  8
0
  6
BYBLOCK
 62
     0
 10
23148.223593500021
 20
20449.138696999991
 30
0.0
 40
15.0
 50
0.0
 51
180.0
  0
ARC
  5
493B
  8
0
  6
BYBLOCK
 62
     0
 10
19879.72260400001
 20
20449.138696999991
 30
0.0
 40
15.0
 50
0.0
 51
180.0
  0
ARC
  5
493C
  8
0
  6
BYBLOCK
 62
     0
 10
19879.72260400001
 20
20449.138696999991
 30
0.0
 40
15.0
 50
180.0
 51
0.0
  0
ARC
  5
493D
  8
0
  6
BYBLOCK
 62
     0
 10
19837.226299000002
 20
20449.138696999991
 30
0.0
 40
15.0
 50
180.0
 51
0.0
  0
ARC
  5
493E
  8
0
  6
BYBLOCK
 62
     0
 10
19837.226299000002
 20
20449.138696999991
 30
0.0
 40
15.0
 50
0.0
 51
180.0
  0
ARC
  5
493F
  8
0
  6
BYBLOCK
 62
     0
 10
19879.72260400001
 20
20449.138696999991
 30
0.0
 40
15.0
 50
0.0
 51
180.0
  0
ARC
  5
4940
  8
0
  6
BYBLOCK
 62
     0
 10
19879.72260400001
 20
20449.138696999991
 30
0.0
 40
15.0
 50
180.0
 51
0.0
  0
ARC
  5
4941
  8
0
  6
BYBLOCK
 62
     0
 10
20287.22260400001
 20
20449.138696999991
 30
0.0
 40
15.0
 50
180.0
 51
0.0
  0
ARC
  5
4942
  8
0
  6
BYBLOCK
 62
     0
 10
20287.22260400001
 20
20449.138696999991
 30
0.0
 40
15.0
 50
0.0
 51
180.0
  0
ARC
  5
4943
  8
0
  6
BYBLOCK
 62
     0
 10
25014.72260400001
 20
20449.138696999991
 30
0.0
 40
15.0
 50
180.0
 51
0.0
  0
ARC
  5
4944
  8
0
  6
BYBLOCK
 62
     0
 10
25014.72260400001
 20
20449.138696999991
 30
0.0
 40
15.0
 50
0.0
 51
180.0
  0
ARC
  5
4945
  8
0
  6
BYBLOCK
 62
     0
 10
25057.218908999988
 20
20449.138696999991
 30
0.0
 40
15.0
 50
0.0
 51
180.0
  0
ARC
  5
4946
  8
0
  6
BYBLOCK
 62
     0
 10
25057.218908999988
 20
20449.138696999991
 30
0.0
 40
15.0
 50
180.0
 51
0.0
  0
ARC
  5
4947
  8
0
  6
BYBLOCK
 62
     0
 10
23555.72260400001
 20
20449.138696999991
 30
0.0
 40
15.0
 50
0.0
 51
180.0
  0
ARC
  5
4948
  8
0
  6
BYBLOCK
 62
     0
 10
23555.72260400001
 20
20449.138696999991
 30
0.0
 40
15.0
 50
180.0
 51
0.0
  0
ARC
  5
4949
  8
0
  6
BYBLOCK
 62
     0
 10
24256.72260400001
 20
20449.138696999991
 30
0.0
 40
15.0
 50
180.0
 51
0.0
  0
ARC
  5
494A
  8
0
  6
BYBLOCK
 62
     0
 10
24256.72260400001
 20
20449.138696999991
 30
0.0
 40
15.0
 50
0.0
 51
180.0
  0
ARC
  5
494B
  8
0
  6
BYBLOCK
 62
     0
 10
24256.72260400001
 20
20449.138696999991
 30
0.0
 40
15.0
 50
0.0
 51
180.0
  0
ARC
  5
494C
  8
0
  6
BYBLOCK
 62
     0
 10
24256.72260400001
 20
20449.138696999991
 30
0.0
 40
15.0
 50
180.0
 51
0.0
  0
ARC
  5
494D
  8
0
  6
BYBLOCK
 62
     0
 10
25014.723593500021
 20
20449.138696999991
 30
0.0
 40
15.0
 50
180.0
 51
0.0
  0
ARC
  5
494E
  8
0
  6
BYBLOCK
 62
     0
 10
25014.723593500021
 20
20449.138696999991
 30
0.0
 40
15.0
 50
0.0
 51
180.0
  0
ARC
  5
494F
  8
0
  6
BYBLOCK
 62
     0
 10
23148.22260400001
 20
20449.138696999991
 30
0.0
 40
15.0
 50
0.0
 51
180.0
  0
ARC
  5
4950
  8
0
  6
BYBLOCK
 62
     0
 10
23148.22260400001
 20
20449.138696999991
 30
0.0
 40
15.0
 50
180.0
 51
0.0
  0
ARC
  5
4951
  8
0
  6
BYBLOCK
 62
     0
 10
23555.72260400001
 20
20449.138696999991
 30
0.0
 40
15.0
 50
180.0
 51
0.0
  0
ARC
  5
4952
  8
0
  6
BYBLOCK
 62
     0
 10
23555.72260400001
 20
20449.138696999991
 30
0.0
 40
15.0
 50
0.0
 51
180.0
  0
ARC
  5
4953
  8
0
  6
BYBLOCK
 62
     0
 10
26507.222207999999
 20
13840.63750899998
 30
0.0
 40
15.0
 50
90.0
 51
270.0
  0
ARC
  5
4954
  8
0
  6
BYBLOCK
 62
     0
 10
26507.222207999999
 20
13840.63750899998
 30
0.0
 40
15.0
 50
270.0
 51
90.0
  0
ARC
  5
4955
  8
0
  6
BYBLOCK
 62
     0
 10
26507.222207999999
 20
13798.140213999979
 30
0.0
 40
15.0
 50
270.0
 51
90.0
  0
ARC
  5
4956
  8
0
  6
BYBLOCK
 62
     0
 10
26507.222207999999
 20
13798.140213999979
 30
0.0
 40
15.0
 50
90.0
 51
270.0
  0
ARC
  5
4957
  8
0
  6
BYBLOCK
 62
     0
 10
26507.222207999999
 20
19676.63750899996
 30
0.0
 40
15.0
 50
270.0
 51
90.0
  0
ARC
  5
4958
  8
0
  6
BYBLOCK
 62
     0
 10
26507.222207999999
 20
19676.63750899996
 30
0.0
 40
15.0
 50
90.0
 51
270.0
  0
ARC
  5
4959
  8
0
  6
BYBLOCK
 62
     0
 10
26507.222207999999
 20
19719.134803999961
 30
0.0
 40
15.0
 50
90.0
 51
270.0
  0
ARC
  5
495A
  8
0
  6
BYBLOCK
 62
     0
 10
26507.222207999999
 20
19719.134803999961
 30
0.0
 40
15.0
 50
270.0
 51
90.0
  0
ARC
  5
495B
  8
0
  6
BYBLOCK
 62
     0
 10
26907.22220800001
 20
19719.134803999961
 30
0.0
 40
15.0
 50
270.0
 51
90.0
  0
ARC
  5
495C
  8
0
  6
BYBLOCK
 62
     0
 10
26907.22220800001
 20
19719.134803999961
 30
0.0
 40
15.0
 50
90.0
 51
270.0
  0
ARC
  5
495D
  8
0
  6
BYBLOCK
 62
     0
 10
26907.22220800001
 20
13798.140213999979
 30
0.0
 40
15.0
 50
90.0
 51
270.0
  0
ARC
  5
495E
  8
0
  6
BYBLOCK
 62
     0
 10
26907.22220800001
 20
13798.140213999979
 30
0.0
 40
15.0
 50
270.0
 51
90.0
  0
ARC
  5
495F
  8
0
  6
BYBLOCK
 62
     0
 10
26507.222207999999
 20
13840.63750899998
 30
0.0
 40
15.0
 50
90.0
 51
270.0
  0
ARC
  5
4960
  8
0
  6
BYBLOCK
 62
     0
 10
26507.222207999999
 20
13840.63750899998
 30
0.0
 40
15.0
 50
270.0
 51
90.0
  0
ARC
  5
4961
  8
0
  6
BYBLOCK
 62
     0
 10
26507.222207999999
 20
16758.63750899996
 30
0.0
 40
15.0
 50
270.0
 51
90.0
  0
ARC
  5
4962
  8
0
  6
BYBLOCK
 62
     0
 10
26507.222207999999
 20
16758.63750899996
 30
0.0
 40
15.0
 50
90.0
 51
270.0
  0
ARC
  5
4963
  8
0
  6
BYBLOCK
 62
     0
 10
26507.222207999999
 20
16758.63750899996
 30
0.0
 40
15.0
 50
90.0
 51
270.0
  0
ARC
  5
4964
  8
0
  6
BYBLOCK
 62
     0
 10
26507.222207999999
 20
16758.63750899996
 30
0.0
 40
15.0
 50
270.0
 51
90.0
  0
ARC
  5
4965
  8
0
  6
BYBLOCK
 62
     0
 10
26507.222207999999
 20
19676.63750899996
 30
0.0
 40
15.0
 50
270.0
 51
90.0
  0
ARC
  5
4966
  8
0
  6
BYBLOCK
 62
     0
 10
26507.222207999999
 20
19676.63750899996
 30
0.0
 40
15.0
 50
90.0
 51
270.0
  0
ARC
  5
4967
  8
0
  6
BYBLOCK
 62
     0
 10
26107.222207999999
 20
19676.63750899996
 30
0.0
 40
15.0
 50
270.0
 51
90.0
  0
ARC
  5
4968
  8
0
  6
BYBLOCK
 62
     0
 10
26107.222207999999
 20
19676.63750899996
 30
0.0
 40
15.0
 50
90.0
 51
270.0
  0
ARC
  5
4969
  8
0
  6
BYBLOCK
 62
     0
 10
26107.222207999999
 20
18918.63750899996
 30
0.0
 40
15.0
 50
90.0
 51
270.0
  0
ARC
  5
496A
  8
0
  6
BYBLOCK
 62
     0
 10
26107.222207999999
 20
18918.63750899996
 30
0.0
 40
15.0
 50
270.0
 51
90.0
  0
ARC
  5
496B
  8
0
  6
BYBLOCK
 62
     0
 10
26107.222207999999
 20
18918.63750899996
 30
0.0
 40
15.0
 50
270.0
 51
90.0
  0
ARC
  5
496C
  8
0
  6
BYBLOCK
 62
     0
 10
26107.222207999999
 20
18918.63750899996
 30
0.0
 40
15.0
 50
90.0
 51
270.0
  0
ARC
  5
496D
  8
0
  6
BYBLOCK
 62
     0
 10
26107.222207999999
 20
18217.63750899996
 30
0.0
 40
15.0
 50
90.0
 51
270.0
  0
ARC
  5
496E
  8
0
  6
BYBLOCK
 62
     0
 10
26107.222207999999
 20
18217.63750899996
 30
0.0
 40
15.0
 50
270.0
 51
90.0
  0
ARC
  5
496F
  8
0
  6
BYBLOCK
 62
     0
 10
26107.222207999999
 20
18217.63750899996
 30
0.0
 40
15.0
 50
270.0
 51
90.0
  0
ARC
  5
4970
  8
0
  6
BYBLOCK
 62
     0
 10
26107.222207999999
 20
18217.63750899996
 30
0.0
 40
15.0
 50
90.0
 51
270.0
  0
ARC
  5
4971
  8
0
  6
BYBLOCK
 62
     0
 10
26107.222207999999
 20
17516.637508999971
 30
0.0
 40
15.0
 50
90.0
 51
270.0
  0
ARC
  5
4972
  8
0
  6
BYBLOCK
 62
     0
 10
26107.222207999999
 20
17516.637508999971
 30
0.0
 40
15.0
 50
270.0
 51
90.0
  0
ARC
  5
4973
  8
0
  6
BYBLOCK
 62
     0
 10
26107.222207999999
 20
17516.637508999971
 30
0.0
 40
15.0
 50
270.0
 51
90.0
  0
ARC
  5
4974
  8
0
  6
BYBLOCK
 62
     0
 10
26107.222207999999
 20
17516.637508999971
 30
0.0
 40
15.0
 50
90.0
 51
270.0
  0
ARC
  5
4975
  8
0
  6
BYBLOCK
 62
     0
 10
26107.222207999999
 20
16758.63750899996
 30
0.0
 40
15.0
 50
90.0
 51
270.0
  0
ARC
  5
4976
  8
0
  6
BYBLOCK
 62
     0
 10
26107.222207999999
 20
16758.63750899996
 30
0.0
 40
15.0
 50
270.0
 51
90.0
  0
ARC
  5
4977
  8
0
  6
BYBLOCK
 62
     0
 10
26107.222207999999
 20
16758.63750899996
 30
0.0
 40
15.0
 50
270.0
 51
90.0
  0
ARC
  5
4978
  8
0
  6
BYBLOCK
 62
     0
 10
26107.222207999999
 20
16758.63750899996
 30
0.0
 40
15.0
 50
90.0
 51
270.0
  0
ARC
  5
4979
  8
0
  6
BYBLOCK
 62
     0
 10
26107.222207999999
 20
16000.63750899998
 30
0.0
 40
15.0
 50
90.0
 51
270.0
  0
ARC
  5
497A
  8
0
  6
BYBLOCK
 62
     0
 10
26107.222207999999
 20
16000.63750899998
 30
0.0
 40
15.0
 50
270.0
 51
90.0
  0
ARC
  5
497B
  8
0
  6
BYBLOCK
 62
     0
 10
26107.222207999999
 20
16000.63750899998
 30
0.0
 40
15.0
 50
270.0
 51
90.0
  0
ARC
  5
497C
  8
0
  6
BYBLOCK
 62
     0
 10
26107.222207999999
 20
16000.63750899998
 30
0.0
 40
15.0
 50
90.0
 51
270.0
  0
ARC
  5
497D
  8
0
  6
BYBLOCK
 62
     0
 10
26107.222207999999
 20
15299.87802049998
 30
0.0
 40
15.0
 50
90.0
 51
270.0
  0
ARC
  5
497E
  8
0
  6
BYBLOCK
 62
     0
 10
26107.222207999999
 20
15299.87802049998
 30
0.0
 40
15.0
 50
270.0
 51
90.0
  0
ARC
  5
497F
  8
0
  6
BYBLOCK
 62
     0
 10
26107.222207999999
 20
15299.87802049998
 30
0.0
 40
15.0
 50
270.0
 51
90.0
  0
ARC
  5
4980
  8
0
  6
BYBLOCK
 62
     0
 10
26107.222207999999
 20
15299.87802049998
 30
0.0
 40
15.0
 50
90.0
 51
270.0
  0
ARC
  5
4981
  8
0
  6
BYBLOCK
 62
     0
 10
26107.222207999999
 20
14598.63750899998
 30
0.0
 40
15.0
 50
90.0
 51
270.0
  0
ARC
  5
4982
  8
0
  6
BYBLOCK
 62
     0
 10
26107.222207999999
 20
14598.63750899998
 30
0.0
 40
15.0
 50
270.0
 51
90.0
  0
ARC
  5
4983
  8
0
  6
BYBLOCK
 62
     0
 10
26107.222207999999
 20
14598.63750899998
 30
0.0
 40
15.0
 50
270.0
 51
90.0
  0
ARC
  5
4984
  8
0
  6
BYBLOCK
 62
     0
 10
26107.222207999999
 20
14598.63750899998
 30
0.0
 40
15.0
 50
90.0
 51
270.0
  0
ARC
  5
4985
  8
0
  6
BYBLOCK
 62
     0
 10
26107.222207999999
 20
13840.63750899998
 30
0.0
 40
15.0
 50
90.0
 51
270.0
  0
ARC
  5
4986
  8
0
  6
BYBLOCK
 62
     0
 10
26107.222207999999
 20
13840.63750899998
 30
0.0
 40
15.0
 50
270.0
 51
90.0
  0
ARC
  5
4987
  8
0
  6
BYBLOCK
 62
     0
 10
19837.220361
 20
12469.18942499997
 30
0.0
 40
15.0
 50
0.0
 51
180.0
  0
ARC
  5
4988
  8
0
  6
BYBLOCK
 62
     0
 10
19837.220361
 20
12469.18942499997
 30
0.0
 40
15.0
 50
180.0
 51
0.0
  0
ARC
  5
4989
  8
0
  6
BYBLOCK
 62
     0
 10
25057.224847000009
 20
12469.18942499997
 30
0.0
 40
15.0
 50
180.0
 51
0.0
  0
ARC
  5
498A
  8
0
  6
BYBLOCK
 62
     0
 10
25057.224847000009
 20
12469.18942499997
 30
0.0
 40
15.0
 50
0.0
 51
180.0
  0
ARC
  5
498B
  8
0
  6
BYBLOCK
 62
     0
 10
19879.72260400001
 20
12869.18942499997
 30
0.0
 40
15.0
 50
180.0
 51
0.0
  0
ARC
  5
498C
  8
0
  6
BYBLOCK
 62
     0
 10
19879.72260400001
 20
12869.18942499997
 30
0.0
 40
15.0
 50
0.0
 51
180.0
  0
ARC
  5
498D
  8
0
  6
BYBLOCK
 62
     0
 10
19922.224847000001
 20
12869.18942499997
 30
0.0
 40
15.0
 50
0.0
 51
180.0
  0
ARC
  5
498E
  8
0
  6
BYBLOCK
 62
     0
 10
19922.224847000001
 20
12869.18942499997
 30
0.0
 40
15.0
 50
180.0
 51
0.0
  0
ARC
  5
498F
  8
0
  6
BYBLOCK
 62
     0
 10
25014.72260400001
 20
12869.18942499997
 30
0.0
 40
15.0
 50
0.0
 51
180.0
  0
ARC
  5
4990
  8
0
  6
BYBLOCK
 62
     0
 10
25014.72260400001
 20
12869.18942499997
 30
0.0
 40
15.0
 50
180.0
 51
0.0
  0
ARC
  5
4991
  8
0
  6
BYBLOCK
 62
     0
 10
24972.220361
 20
12869.18942499997
 30
0.0
 40
15.0
 50
180.0
 51
0.0
  0
ARC
  5
4992
  8
0
  6
BYBLOCK
 62
     0
 10
24972.220361
 20
12869.18942499997
 30
0.0
 40
15.0
 50
0.0
 51
180.0
  0
ARC
  5
4993
  8
0
  6
BYBLOCK
 62
     0
 10
25014.72260400001
 20
12869.18942499997
 30
0.0
 40
15.0
 50
180.0
 51
0.0
  0
ARC
  5
4994
  8
0
  6
BYBLOCK
 62
     0
 10
25014.72260400001
 20
12869.18942499997
 30
0.0
 40
15.0
 50
0.0
 51
180.0
  0
ARC
  5
4995
  8
0
  6
BYBLOCK
 62
     0
 10
25057.224847000009
 20
12869.18942499997
 30
0.0
 40
15.0
 50
0.0
 51
180.0
  0
ARC
  5
4996
  8
0
  6
BYBLOCK
 62
     0
 10
25057.224847000009
 20
12869.18942499997
 30
0.0
 40
15.0
 50
180.0
 51
0.0
  0
ARC
  5
4997
  8
0
  6
BYBLOCK
 62
     0
 10
19879.72260400001
 20
12869.18942499997
 30
0.0
 40
15.0
 50
0.0
 51
180.0
  0
ARC
  5
4998
  8
0
  6
BYBLOCK
 62
     0
 10
19879.72260400001
 20
12869.18942499997
 30
0.0
 40
15.0
 50
180.0
 51
0.0
  0
ARC
  5
4999
  8
0
  6
BYBLOCK
 62
     0
 10
19837.220361
 20
12869.18942499997
 30
0.0
 40
15.0
 50
180.0
 51
0.0
  0
ARC
  5
499A
  8
0
  6
BYBLOCK
 62
     0
 10
19837.220361
 20
12869.18942499997
 30
0.0
 40
15.0
 50
0.0
 51
180.0
  0
ARC
  5
499B
  8
0
  6
BYBLOCK
 62
     0
 10
18950.268026999991
 20
13840.63750899998
 30
0.0
 40
15.0
 50
90.0
 51
270.0
  0
ARC
  5
499C
  8
0
  6
BYBLOCK
 62
     0
 10
18950.268026999991
 20
13840.63750899998
 30
0.0
 40
15.0
 50
270.0
 51
90.0
  0
ARC
  5
499D
  8
0
  6
BYBLOCK
 62
     0
 10
18950.268026999991
 20
15299.87802049998
 30
0.0
 40
15.0
 50
270.0
 51
90.0
  0
ARC
  5
499E
  8
0
  6
BYBLOCK
 62
     0
 10
18950.268026999991
 20
15299.87802049998
 30
0.0
 40
15.0
 50
90.0
 51
270.0
  0
ARC
  5
499F
  8
0
  6
BYBLOCK
 62
     0
 10
18950.268026999991
 20
15299.87802049998
 30
0.0
 40
15.0
 50
90.0
 51
270.0
  0
ARC
  5
49A0
  8
0
  6
BYBLOCK
 62
     0
 10
18950.268026999991
 20
15299.87802049998
 30
0.0
 40
15.0
 50
270.0
 51
90.0
  0
ARC
  5
49A1
  8
0
  6
BYBLOCK
 62
     0
 10
18950.268026999991
 20
16758.63750899996
 30
0.0
 40
15.0
 50
270.0
 51
90.0
  0
ARC
  5
49A2
  8
0
  6
BYBLOCK
 62
     0
 10
18950.268026999991
 20
16758.63750899996
 30
0.0
 40
15.0
 50
90.0
 51
270.0
  0
ARC
  5
49A3
  8
0
  6
BYBLOCK
 62
     0
 10
18950.268026999991
 20
16758.63750899996
 30
0.0
 40
15.0
 50
90.0
 51
270.0
  0
ARC
  5
49A4
  8
0
  6
BYBLOCK
 62
     0
 10
18950.268026999991
 20
16758.63750899996
 30
0.0
 40
15.0
 50
270.0
 51
90.0
  0
ARC
  5
49A5
  8
0
  6
BYBLOCK
 62
     0
 10
18950.268026999991
 20
18217.63750899996
 30
0.0
 40
15.0
 50
270.0
 51
90.0
  0
ARC
  5
49A6
  8
0
  6
BYBLOCK
 62
     0
 10
18950.268026999991
 20
18217.63750899996
 30
0.0
 40
15.0
 50
90.0
 51
270.0
  0
ARC
  5
49A7
  8
0
  6
BYBLOCK
 62
     0
 10
18950.268026999991
 20
18217.63750899996
 30
0.0
 40
15.0
 50
90.0
 51
270.0
  0
ARC
  5
49A8
  8
0
  6
BYBLOCK
 62
     0
 10
18950.268026999991
 20
18217.63750899996
 30
0.0
 40
15.0
 50
270.0
 51
90.0
  0
ARC
  5
49A9
  8
0
  6
BYBLOCK
 62
     0
 10
18950.268026999991
 20
19676.63750899996
 30
0.0
 40
15.0
 50
270.0
 51
90.0
  0
ARC
  5
49AA
  8
0
  6
BYBLOCK
 62
     0
 10
18950.268026999991
 20
19676.63750899996
 30
0.0
 40
15.0
 50
90.0
 51
270.0
  0
ARC
  5
49AB
  8
0
  6
BYBLOCK
 62
     0
 10
11989.469991
 20
5076.5893420000039
 30
0.0
 40
15.0
 50
0.0
 51
180.0
  0
ARC
  5
49AC
  8
0
  6
BYBLOCK
 62
     0
 10
11989.469991
 20
5076.5893420000039
 30
0.0
 40
15.0
 50
180.0
 51
0.0
  0
ARC
  5
49AD
  8
0
  6
BYBLOCK
 62
     0
 10
14907.469990999991
 20
5076.5893420000039
 30
0.0
 40
15.0
 50
180.0
 51
0.0
  0
ARC
  5
49AE
  8
0
  6
BYBLOCK
 62
     0
 10
14907.469990999991
 20
5076.5893420000039
 30
0.0
 40
15.0
 50
0.0
 51
180.0
  0
ARC
  5
49AF
  8
0
  6
BYBLOCK
 62
     0
 10
11989.469991
 20
5076.5893420000039
 30
0.0
 40
15.0
 50
180.0
 51
0.0
  0
ARC
  5
49B0
  8
0
  6
BYBLOCK
 62
     0
 10
11989.469991
 20
5076.5893420000039
 30
0.0
 40
15.0
 50
0.0
 51
180.0
  0
ARC
  5
49B1
  8
0
  6
BYBLOCK
 62
     0
 10
9071.4699910000018
 20
5076.5893420000039
 30
0.0
 40
15.0
 50
0.0
 51
180.0
  0
ARC
  5
49B2
  8
0
  6
BYBLOCK
 62
     0
 10
9071.4699910000018
 20
5076.5893420000039
 30
0.0
 40
15.0
 50
180.0
 51
0.0
  0
ARC
  5
49B3
  8
0
  6
BYBLOCK
 62
     0
 10
9071.4699910000018
 20
5076.5893420000039
 30
0.0
 40
15.0
 50
0.0
 51
180.0
  0
ARC
  5
49B4
  8
0
  6
BYBLOCK
 62
     0
 10
9071.4699910000018
 20
5076.5893420000039
 30
0.0
 40
15.0
 50
180.0
 51
0.0
  0
ARC
  5
49B5
  8
0
  6
BYBLOCK
 62
     0
 10
9028.9699910000018
 20
5076.5893420000039
 30
0.0
 40
15.0
 50
180.0
 51
0.0
  0
ARC
  5
49B6
  8
0
  6
BYBLOCK
 62
     0
 10
9028.9699910000018
 20
5076.5893420000039
 30
0.0
 40
15.0
 50
0.0
 51
180.0
  0
ARC
  5
49B7
  8
0
  6
BYBLOCK
 62
     0
 10
14907.469990999991
 20
5076.5893420000039
 30
0.0
 40
15.0
 50
180.0
 51
0.0
  0
ARC
  5
49B8
  8
0
  6
BYBLOCK
 62
     0
 10
14907.469990999991
 20
5076.5893420000039
 30
0.0
 40
15.0
 50
0.0
 51
180.0
  0
ARC
  5
49B9
  8
0
  6
BYBLOCK
 62
     0
 10
14949.969991
 20
5076.5893420000039
 30
0.0
 40
15.0
 50
0.0
 51
180.0
  0
ARC
  5
49BA
  8
0
  6
BYBLOCK
 62
     0
 10
14949.969991
 20
5076.5893420000039
 30
0.0
 40
15.0
 50
180.0
 51
0.0
  0
ARC
  5
49BB
  8
0
  6
BYBLOCK
 62
     0
 10
9028.9699910000018
 20
4676.5895070000051
 30
0.0
 40
15.0
 50
0.0
 51
180.0
  0
ARC
  5
49BC
  8
0
  6
BYBLOCK
 62
     0
 10
9028.9699910000018
 20
4676.5895070000051
 30
0.0
 40
15.0
 50
180.0
 51
0.0
  0
ARC
  5
49BD
  8
0
  6
BYBLOCK
 62
     0
 10
14949.969991
 20
4676.5895070000051
 30
0.0
 40
15.0
 50
180.0
 51
0.0
  0
ARC
  5
49BE
  8
0
  6
BYBLOCK
 62
     0
 10
14949.969991
 20
4676.5895070000051
 30
0.0
 40
15.0
 50
0.0
 51
180.0
  0
ARC
  5
49BF
  8
0
  6
BYBLOCK
 62
     0
 10
16039.969396
 20
6376.5896720000028
 30
0.0
 40
15.0
 50
90.0
 51
270.0
  0
ARC
  5
49C0
  8
0
  6
BYBLOCK
 62
     0
 10
16039.969396
 20
6376.5896720000028
 30
0.0
 40
15.0
 50
270.0
 51
90.0
  0
ARC
  5
49C1
  8
0
  6
BYBLOCK
 62
     0
 10
16039.969396
 20
8725.0896720000019
 30
0.0
 40
15.0
 50
270.0
 51
90.0
  0
ARC
  5
49C2
  8
0
  6
BYBLOCK
 62
     0
 10
16039.969396
 20
8725.0896720000019
 30
0.0
 40
15.0
 50
90.0
 51
270.0
  0
ARC
  5
49C3
  8
0
  6
BYBLOCK
 62
     0
 10
7938.9715729999998
 20
6376.5896720000028
 30
0.0
 40
15.0
 50
90.0
 51
270.0
  0
ARC
  5
49C4
  8
0
  6
BYBLOCK
 62
     0
 10
7938.9715729999998
 20
6376.5896720000028
 30
0.0
 40
15.0
 50
270.0
 51
90.0
  0
ARC
  5
49C5
  8
0
  6
BYBLOCK
 62
     0
 10
7938.9715729999998
 20
8533.0896720000019
 30
0.0
 40
15.0
 50
270.0
 51
90.0
  0
ARC
  5
49C6
  8
0
  6
BYBLOCK
 62
     0
 10
7938.9715729999998
 20
8533.0896720000019
 30
0.0
 40
15.0
 50
90.0
 51
270.0
  0
ARC
  5
49C7
  8
0
  6
BYBLOCK
 62
     0
 10
8848.9699910000018
 20
9524.5903579999995
 30
0.0
 40
15.0
 50
0.0
 51
180.0
  0
ARC
  5
49C8
  8
0
  6
BYBLOCK
 62
     0
 10
8848.9699910000018
 20
9524.5903579999995
 30
0.0
 40
15.0
 50
180.0
 51
0.0
  0
ARC
  5
49C9
  8
0
  6
BYBLOCK
 62
     0
 10
9028.9687369999992
 20
9524.5903579999995
 30
0.0
 40
15.0
 50
180.0
 51
0.0
  0
ARC
  5
49CA
  8
0
  6
BYBLOCK
 62
     0
 10
9028.9687369999992
 20
9524.5903579999995
 30
0.0
 40
15.0
 50
0.0
 51
180.0
  0
ARC
  5
49CB
  8
0
  6
BYBLOCK
 62
     0
 10
9028.9687369999992
 20
9524.5903579999995
 30
0.0
 40
15.0
 50
0.0
 51
180.0
  0
ARC
  5
49CC
  8
0
  6
BYBLOCK
 62
     0
 10
9028.9687369999992
 20
9524.5903579999995
 30
0.0
 40
15.0
 50
180.0
 51
0.0
  0
ARC
  5
49CD
  8
0
  6
BYBLOCK
 62
     0
 10
14949.971244
 20
9524.5903579999995
 30
0.0
 40
15.0
 50
180.0
 51
0.0
  0
ARC
  5
49CE
  8
0
  6
BYBLOCK
 62
     0
 10
14949.971244
 20
9524.5903579999995
 30
0.0
 40
15.0
 50
0.0
 51
180.0
  0
ARC
  5
49CF
  8
0
  6
BYBLOCK
 62
     0
 10
14949.971244
 20
9524.5903579999995
 30
0.0
 40
15.0
 50
180.0
 51
0.0
  0
ARC
  5
49D0
  8
0
  6
BYBLOCK
 62
     0
 10
14949.971244
 20
9524.5903579999995
 30
0.0
 40
15.0
 50
0.0
 51
180.0
  0
ARC
  5
49D1
  8
0
  6
BYBLOCK
 62
     0
 10
15099.969991
 20
9524.5903579999995
 30
0.0
 40
15.0
 50
0.0
 51
180.0
  0
ARC
  5
49D2
  8
0
  6
BYBLOCK
 62
     0
 10
15099.969991
 20
9524.5903579999995
 30
0.0
 40
15.0
 50
180.0
 51
0.0
  0
ARC
  5
49D3
  8
0
  6
BYBLOCK
 62
     0
 10
8848.9699910000018
 20
9924.5887079999993
 30
0.0
 40
15.0
 50
0.0
 51
180.0
  0
ARC
  5
49D4
  8
0
  6
BYBLOCK
 62
     0
 10
8848.9699910000018
 20
9924.5887079999993
 30
0.0
 40
15.0
 50
180.0
 51
0.0
  0
ARC
  5
49D5
  8
0
  6
BYBLOCK
 62
     0
 10
15099.969991
 20
9924.5887079999993
 30
0.0
 40
15.0
 50
180.0
 51
0.0
  0
ARC
  5
49D6
  8
0
  6
BYBLOCK
 62
     0
 10
15099.969991
 20
9924.5887079999993
 30
0.0
 40
15.0
 50
0.0
 51
180.0
  0
ARC
  5
49D7
  8
0
  6
BYBLOCK
 62
     0
 10
19837.226561999989
 20
4676.5904970000001
 30
0.0
 40
15.0
 50
0.0
 51
180.0
  0
ARC
  5
49D8
  8
0
  6
BYBLOCK
 62
     0
 10
19837.226561999989
 20
4676.5904970000001
 30
0.0
 40
15.0
 50
180.0
 51
0.0
  0
ARC
  5
49D9
  8
0
  6
BYBLOCK
 62
     0
 10
25057.226562
 20
4676.5904970000001
 30
0.0
 40
15.0
 50
180.0
 51
0.0
  0
ARC
  5
49DA
  8
0
  6
BYBLOCK
 62
     0
 10
25057.226562
 20
4676.5904970000001
 30
0.0
 40
15.0
 50
0.0
 51
180.0
  0
ARC
  5
49DB
  8
0
  6
BYBLOCK
 62
     0
 10
19879.726562
 20
5076.5903320000016
 30
0.0
 40
15.0
 50
0.0
 51
180.0
  0
ARC
  5
49DC
  8
0
  6
BYBLOCK
 62
     0
 10
19879.726562
 20
5076.5903320000016
 30
0.0
 40
15.0
 50
180.0
 51
0.0
  0
ARC
  5
49DD
  8
0
  6
BYBLOCK
 62
     0
 10
19837.226561999989
 20
5076.5903320000016
 30
0.0
 40
15.0
 50
180.0
 51
0.0
  0
ARC
  5
49DE
  8
0
  6
BYBLOCK
 62
     0
 10
19837.226561999989
 20
5076.5903320000016
 30
0.0
 40
15.0
 50
0.0
 51
180.0
  0
ARC
  5
49DF
  8
0
  6
BYBLOCK
 62
     0
 10
25014.730521000009
 20
5076.5903320000016
 30
0.0
 40
15.0
 50
180.0
 51
0.0
  0
ARC
  5
49E0
  8
0
  6
BYBLOCK
 62
     0
 10
25014.730521000009
 20
5076.5903320000016
 30
0.0
 40
15.0
 50
0.0
 51
180.0
  0
ARC
  5
49E1
  8
0
  6
BYBLOCK
 62
     0
 10
25057.230521000001
 20
5076.5903320000016
 30
0.0
 40
15.0
 50
0.0
 51
180.0
  0
ARC
  5
49E2
  8
0
  6
BYBLOCK
 62
     0
 10
25057.230521000001
 20
5076.5903320000016
 30
0.0
 40
15.0
 50
180.0
 51
0.0
  0
ARC
  5
49E3
  8
0
  6
BYBLOCK
 62
     0
 10
19879.726562
 20
5076.5903320000016
 30
0.0
 40
15.0
 50
0.0
 51
180.0
  0
ARC
  5
49E4
  8
0
  6
BYBLOCK
 62
     0
 10
19879.726562
 20
5076.5903320000016
 30
0.0
 40
15.0
 50
180.0
 51
0.0
  0
ARC
  5
49E5
  8
0
  6
BYBLOCK
 62
     0
 10
23148.226562
 20
5076.5903320000016
 30
0.0
 40
15.0
 50
180.0
 51
0.0
  0
ARC
  5
49E6
  8
0
  6
BYBLOCK
 62
     0
 10
23148.226562
 20
5076.5903320000016
 30
0.0
 40
15.0
 50
0.0
 51
180.0
  0
ARC
  5
49E7
  8
0
  6
BYBLOCK
 62
     0
 10
23148.226562
 20
5076.5903320000016
 30
0.0
 40
15.0
 50
0.0
 51
180.0
  0
ARC
  5
49E8
  8
0
  6
BYBLOCK
 62
     0
 10
23148.226562
 20
5076.5903320000016
 30
0.0
 40
15.0
 50
180.0
 51
0.0
  0
ARC
  5
49E9
  8
0
  6
BYBLOCK
 62
     0
 10
25014.726562
 20
5076.5903320000016
 30
0.0
 40
15.0
 50
180.0
 51
0.0
  0
ARC
  5
49EA
  8
0
  6
BYBLOCK
 62
     0
 10
25014.726562
 20
5076.5903320000016
 30
0.0
 40
15.0
 50
0.0
 51
180.0
  0
ARC
  5
49EB
  8
0
  6
BYBLOCK
 62
     0
 10
23242.226561999989
 20
5476.5903320000043
 30
0.0
 40
15.0
 50
0.0
 51
180.0
  0
ARC
  5
49EC
  8
0
  6
BYBLOCK
 62
     0
 10
23242.226561999989
 20
5476.5903320000043
 30
0.0
 40
15.0
 50
180.0
 51
0.0
  0
ARC
  5
49ED
  8
0
  6
BYBLOCK
 62
     0
 10
24920.726561999989
 20
5476.5903320000043
 30
0.0
 40
15.0
 50
180.0
 51
0.0
  0
ARC
  5
49EE
  8
0
  6
BYBLOCK
 62
     0
 10
24920.726561999989
 20
5476.5903320000043
 30
0.0
 40
15.0
 50
0.0
 51
180.0
  0
ARC
  5
49EF
  8
0
  6
BYBLOCK
 62
     0
 10
19973.726561999982
 20
5476.5903320000043
 30
0.0
 40
15.0
 50
0.0
 51
180.0
  0
ARC
  5
49F0
  8
0
  6
BYBLOCK
 62
     0
 10
19973.726561999982
 20
5476.5903320000043
 30
0.0
 40
15.0
 50
180.0
 51
0.0
  0
ARC
  5
49F1
  8
0
  6
BYBLOCK
 62
     0
 10
23054.226562
 20
5476.5903320000043
 30
0.0
 40
15.0
 50
180.0
 51
0.0
  0
ARC
  5
49F2
  8
0
  6
BYBLOCK
 62
     0
 10
23054.226562
 20
5476.5903320000043
 30
0.0
 40
15.0
 50
0.0
 51
180.0
  0
ARC
  5
4A03
  8
0
  6
BYBLOCK
 62
     0
 10
18629.724912999991
 20
6376.5901670000003
 30
0.0
 40
15.0
 50
90.0
 51
270.0
  0
ARC
  5
4A04
  8
0
  6
BYBLOCK
 62
     0
 10
18629.724912999991
 20
6376.5901670000003
 30
0.0
 40
15.0
 50
270.0
 51
90.0
  0
ARC
  5
4A05
  8
0
  6
BYBLOCK
 62
     0
 10
18629.724912999991
 20
8725.0901670000057
 30
0.0
 40
15.0
 50
270.0
 51
90.0
  0
ARC
  5
4A06
  8
0
  6
BYBLOCK
 62
     0
 10
18629.724912999991
 20
8725.0901670000057
 30
0.0
 40
15.0
 50
90.0
 51
270.0
  0
ARC
  5
4A07
  8
0
  6
BYBLOCK
 62
     0
 10
19029.72722199998
 20
6376.5901670000003
 30
0.0
 40
15.0
 50
90.0
 51
270.0
  0
ARC
  5
4A08
  8
0
  6
BYBLOCK
 62
     0
 10
19029.72722199998
 20
6376.5901670000003
 30
0.0
 40
15.0
 50
270.0
 51
90.0
  0
ARC
  5
4A09
  8
0
  6
BYBLOCK
 62
     0
 10
19029.72722199999
 20
8268.0901669999967
 30
0.0
 40
15.0
 50
270.0
 51
90.0
  0
ARC
  5
4A0A
  8
0
  6
BYBLOCK
 62
     0
 10
19029.72722199999
 20
8268.0901669999967
 30
0.0
 40
15.0
 50
90.0
 51
270.0
  0
LINE
  5
4B58
  8
0-1
  6
CONTINUOUS
 62
     3
 10
24951.229543999962
 20
8475.0901869999961
 30
0.0
 11
24951.229543999962
 21
8507.0900939999956
 31
0.0
  0
LINE
  5
4B59
  8
0-1
  6
CONTINUOUS
 62
     3
 10
25100.22893699996
 20
8398.9034650000012
 30
0.0
 11
25057.226825999991
 21
8398.9034650000012
 31
0.0
  0
LINE
  5
4B5A
  8
0-1
  6
CONTINUOUS
 62
     3
 10
25100.22893699996
 20
8725.0905159999984
 30
0.0
 11
25100.22893699996
 21
8398.9034650000012
 31
0.0
  0
LINE
  5
4B5B
  8
0-1
  6
CONTINUOUS
 62
     3
 10
24665.262350999968
 20
8471.5547659999993
 30
0.0
 11
24633.263434000011
 21
8503.5546739999954
 31
0.0
  0
LINE
  5
4B5C
  8
0-1
  6
CONTINUOUS
 62
     3
 10
24946.229279999981
 20
8512.0903579999977
 30
0.0
 11
24636.798854000001
 21
8512.0903579999977
 31
0.0
  0
LINE
  5
4B5D
  8
0-1
  6
CONTINUOUS
 62
     3
 10
24951.229543999962
 20
8503.6912610000018
 30
0.0
 11
24633.132785000002
 21
8503.6912610000018
 31
0.0
  0
LINE
  5
4B5E
  8
0-1
  6
CONTINUOUS
 62
     3
 10
24946.229279999981
 20
8470.0899229999977
 30
0.0
 11
24668.799750999991
 21
8470.0899229999977
 31
0.0
  0
LINE
  5
4B5F
  8
0-1
  6
CONTINUOUS
 62
     3
 10
24951.229543999962
 20
8478.4900099999977
 30
0.0
 11
24658.328098000002
 21
8478.4900099999977
 31
0.0
  0
LINE
  5
4B60
  8
0-1
  6
CONTINUOUS
 62
     3
 10
24951.229543999962
 20
8486.8900969999941
 30
0.0
 11
24649.928999999971
 21
8486.8900969999941
 31
0.0
  0
LINE
  5
4B61
  8
0-1
  6
CONTINUOUS
 62
     3
 10
24951.229543999962
 20
8495.2911739999981
 30
0.0
 11
24641.527923999991
 21
8495.2911739999981
 31
0.0
  0
LINE
  5
4B62
  8
0-1
  6
CONTINUOUS
 62
     3
 10
23497.692752000021
 20
8471.5547659999993
 30
0.0
 11
23529.689689999999
 21
8503.5546739999954
 31
0.0
  0
LINE
  5
4B63
  8
0-1
  6
CONTINUOUS
 62
     3
 10
23211.727538000021
 20
8475.0901869999961
 30
0.0
 11
23211.727538000021
 21
8507.0900939999956
 31
0.0
  0
LINE
  5
4B64
  8
0-1
  6
CONTINUOUS
 62
     3
 10
23211.727538000021
 20
8478.4900099999977
 30
0.0
 11
23504.625026000002
 21
8478.4900099999977
 31
0.0
  0
LINE
  5
4B65
  8
0-1
  6
CONTINUOUS
 62
     3
 10
23211.727538000021
 20
8486.8900969999941
 30
0.0
 11
23513.026103000011
 21
8486.8900969999941
 31
0.0
  0
LINE
  5
4B66
  8
0-1
  6
CONTINUOUS
 62
     3
 10
23216.727802000009
 20
8470.0899229999977
 30
0.0
 11
23494.155352000009
 21
8470.0899229999977
 31
0.0
  0
LINE
  5
4B67
  8
0-1
  6
CONTINUOUS
 62
     3
 10
23211.727538000021
 20
8495.2911739999981
 30
0.0
 11
23521.425200000001
 21
8495.2911739999981
 31
0.0
  0
LINE
  5
4B68
  8
0-1
  6
CONTINUOUS
 62
     3
 10
23211.727538000021
 20
8503.6912610000018
 30
0.0
 11
23529.82231800002
 21
8503.6912610000018
 31
0.0
  0
LINE
  5
4B69
  8
0-1
  6
CONTINUOUS
 62
     3
 10
23216.727802000009
 20
8512.0903579999977
 30
0.0
 11
23526.156249000011
 21
8512.0903579999977
 31
0.0
  0
LINE
  5
4B6A
  8
0-1
  6
CONTINUOUS
 62
     3
 10
25100.22893699996
 20
8595.0895930000006
 30
0.0
 11
23148.226562
 21
8595.0895930000006
 31
0.0
  0
LINE
  5
4B6B
  8
0-1
  6
CONTINUOUS
 62
     3
 10
23190.724846000001
 20
8521.0902390000028
 30
0.0
 11
24972.228276999969
 21
8521.0902390000028
 31
0.0
  0
LINE
  5
4B6C
  8
0-1
  6
CONTINUOUS
 62
     3
 10
23190.724846000001
 20
8461.0900410000031
 30
0.0
 11
24972.228276999969
 21
8461.0900410000031
 31
0.0
  0
LINE
  5
4B6D
  8
0-1
  6
CONTINUOUS
 62
     3
 10
23148.226562
 20
8725.0905159999984
 30
0.0
 11
25100.22893699996
 21
8725.0905159999984
 31
0.0
  0
LINE
  5
4B6E
  8
0-1
  6
CONTINUOUS
 62
     3
 10
23084.72558599999
 20
8475.0901869999961
 30
0.0
 11
23084.72558599999
 21
8507.0900939999956
 31
0.0
  0
LINE
  5
4B6F
  8
0-1
  6
CONTINUOUS
 62
     3
 10
22798.764330999991
 20
8471.5547659999993
 30
0.0
 11
22766.763434000011
 21
8503.5546739999954
 31
0.0
  0
LINE
  5
4B70
  8
0-1
  6
CONTINUOUS
 62
     3
 10
23084.72558599999
 20
8503.6912610000018
 30
0.0
 11
22766.632785999969
 21
8503.6912610000018
 31
0.0
  0
LINE
  5
4B71
  8
0-1
  6
CONTINUOUS
 62
     3
 10
23084.72558599999
 20
8495.2911739999981
 30
0.0
 11
22775.027923999991
 21
8495.2911739999981
 31
0.0
  0
LINE
  5
4B72
  8
0-1
  6
CONTINUOUS
 62
     3
 10
23084.72558599999
 20
8486.8900969999941
 30
0.0
 11
22783.427020999989
 21
8486.8900969999941
 31
0.0
  0
LINE
  5
4B73
  8
0-1
  6
CONTINUOUS
 62
     3
 10
23084.72558599999
 20
8478.4900099999977
 30
0.0
 11
22791.826118999979
 21
8478.4900099999977
 31
0.0
  0
LINE
  5
4B74
  8
0-1
  6
CONTINUOUS
 62
     3
 10
23079.72730099997
 20
8512.0903579999977
 30
0.0
 11
22770.29687499996
 21
8512.0903579999977
 31
0.0
  0
LINE
  5
4B75
  8
0-1
  6
CONTINUOUS
 62
     3
 10
23079.72730099997
 20
8470.0899229999977
 30
0.0
 11
22802.299751999992
 21
8470.0899229999977
 31
0.0
  0
LINE
  5
4B76
  8
0-1
  6
CONTINUOUS
 62
     3
 10
19948.22582299999
 20
8470.0899229999977
 30
0.0
 11
20225.655352999969
 21
8470.0899229999977
 31
0.0
  0
LINE
  5
4B77
  8
0-1
  6
CONTINUOUS
 62
     3
 10
19943.22753899997
 20
8475.0901869999961
 30
0.0
 11
19943.22753899997
 21
8507.0900939999956
 31
0.0
  0
LINE
  5
4B78
  8
0-1
  6
CONTINUOUS
 62
     3
 10
19794.22616699999
 20
8398.9034650000012
 30
0.0
 11
19837.224319000001
 21
8398.9034650000012
 31
0.0
  0
LINE
  5
4B79
  8
0-1
  6
CONTINUOUS
 62
     3
 10
19794.22616699999
 20
8398.9034650000012
 30
0.0
 11
19794.22616699999
 21
8725.0905159999984
 31
0.0
  0
LINE
  5
4B7A
  8
0-1
  6
CONTINUOUS
 62
     3
 10
19948.22582299999
 20
8512.0903579999977
 30
0.0
 11
20257.65625
 21
8512.0903579999977
 31
0.0
  0
LINE
  5
4B7B
  8
0-1
  6
CONTINUOUS
 62
     3
 10
20229.18879299999
 20
8471.5547659999993
 30
0.0
 11
20261.18969099996
 21
8503.5546739999954
 31
0.0
  0
LINE
  5
4B7C
  8
0-1
  6
CONTINUOUS
 62
     3
 10
19943.22753899997
 20
8503.6912610000018
 30
0.0
 11
20261.322317999991
 21
8503.6912610000018
 31
0.0
  0
LINE
  5
4B7D
  8
0-1
  6
CONTINUOUS
 62
     3
 10
19943.22753899997
 20
8495.2911739999981
 30
0.0
 11
20252.925200999998
 21
8495.2911739999981
 31
0.0
  0
LINE
  5
4B7E
  8
0-1
  6
CONTINUOUS
 62
     3
 10
19943.22753899997
 20
8486.8900969999941
 30
0.0
 11
20244.526102999978
 21
8486.8900969999941
 31
0.0
  0
LINE
  5
4B7F
  8
0-1
  6
CONTINUOUS
 62
     3
 10
19943.22753899997
 20
8478.4900099999977
 30
0.0
 11
20236.127005999999
 21
8478.4900099999977
 31
0.0
  0
LINE
  5
4B80
  8
0-1
  6
CONTINUOUS
 62
     3
 10
19922.224847000001
 20
8461.0900410000031
 30
0.0
 11
23105.726298000001
 21
8461.0900410000031
 31
0.0
  0
LINE
  5
4B81
  8
0-1
  6
CONTINUOUS
 62
     3
 10
19922.224847000001
 20
8521.0902390000028
 30
0.0
 11
23105.726298000001
 21
8521.0902390000028
 31
0.0
  0
LINE
  5
4B82
  8
0-1
  6
CONTINUOUS
 62
     3
 10
19794.22616699999
 20
8725.0905159999984
 30
0.0
 11
23148.226562
 21
8725.0905159999984
 31
0.0
  0
LINE
  5
4B83
  8
0-1
  6
CONTINUOUS
 62
     3
 10
23148.226562
 20
8595.0895930000006
 30
0.0
 11
19794.22616699999
 21
8595.0895930000006
 31
0.0
  0
LINE
  5
4B84
  8
0-1
  6
CONTINUOUS
 62
     3
 10
23148.226562
 20
8595.0895930000006
 30
0.0
 11
23148.226562
 21
8725.0905159999984
 31
0.0
  0
LINE
  5
4B85
  8
0-1
  6
CONTINUOUS
 62
     3
 10
23148.226562
 20
8595.0895930000006
 30
0.0
 11
23148.226562
 21
8725.0905159999984
 31
0.0
  0
ARC
  5
4B86
  8
0-1
  6
CONTINUOUS
 62
     3
 10
24946.229279999981
 20
8507.0900939999956
 30
0.0
 40
5.0
 50
0.0
 51
90.0
  0
ARC
  5
4B87
  8
0-1
  6
CONTINUOUS
 62
     3
 10
24946.229279999981
 20
8475.0901869999961
 30
0.0
 40
5.0
 50
269.9999850001808
 51
0.0
  0
ARC
  5
4B88
  8
0-1
  6
CONTINUOUS
 62
     3
 10
24636.798854000001
 20
8507.0900939999956
 30
0.0
 40
5.0
 50
90.0
 51
224.99998499997989
  0
ARC
  5
4B89
  8
0-1
  6
CONTINUOUS
 62
     3
 10
24668.799750999991
 20
8475.0901869999961
 30
0.0
 40
5.0
 50
224.99998499997989
 51
269.9999850001808
  0
ARC
  5
4B8A
  8
0-1
  6
CONTINUOUS
 62
     3
 10
23526.156249000011
 20
8507.0900939999956
 30
0.0
 40
5.0
 50
314.99998500027471
 51
90.0
  0
ARC
  5
4B8B
  8
0-1
  6
CONTINUOUS
 62
     3
 10
23494.155352000009
 20
8475.0901869999961
 30
0.0
 40
5.0
 50
269.9999850001808
 51
314.99998500027471
  0
ARC
  5
4B8C
  8
0-1
  6
CONTINUOUS
 62
     3
 10
23216.727802000009
 20
8475.0901869999961
 30
0.0
 40
5.0
 50
180.0
 51
269.9999850001808
  0
ARC
  5
4B8D
  8
0-1
  6
CONTINUOUS
 62
     3
 10
23216.727802000009
 20
8507.0900939999956
 30
0.0
 40
5.0
 50
90.0
 51
180.0
  0
ARC
  5
4B8E
  8
0-1
  6
CONTINUOUS
 62
     3
 10
23079.72730099997
 20
8475.0901869999961
 30
0.0
 40
5.0
 50
269.9999850001808
 51
0.0
  0
ARC
  5
4B8F
  8
0-1
  6
CONTINUOUS
 62
     3
 10
23079.72730099997
 20
8507.0900939999956
 30
0.0
 40
5.0
 50
0.0
 51
90.0
  0
ARC
  5
4B90
  8
0-1
  6
CONTINUOUS
 62
     3
 10
22770.29687499996
 20
8507.0900939999956
 30
0.0
 40
5.0
 50
90.0
 51
224.99998499997989
  0
ARC
  5
4B91
  8
0-1
  6
CONTINUOUS
 62
     3
 10
22802.299751999992
 20
8475.0901869999961
 30
0.0
 40
5.0
 50
224.99998499997989
 51
269.9999850001808
  0
ARC
  5
4B92
  8
0-1
  6
CONTINUOUS
 62
     3
 10
20257.65625
 20
8507.0900939999956
 30
0.0
 40
5.0
 50
314.99998500027471
 51
90.0
  0
ARC
  5
4B93
  8
0-1
  6
CONTINUOUS
 62
     3
 10
19948.22582299999
 20
8507.0900939999956
 30
0.0
 40
5.0
 50
90.0
 51
180.0
  0
ARC
  5
4B94
  8
0-1
  6
CONTINUOUS
 62
     3
 10
19948.22582299999
 20
8475.0901869999961
 30
0.0
 40
5.0
 50
180.0
 51
269.9999850001808
  0
ARC
  5
4B95
  8
0-1
  6
CONTINUOUS
 62
     3
 10
20225.655352999969
 20
8475.0901869999961
 30
0.0
 40
5.0
 50
269.9999850001808
 51
314.99998500027471
  0
LINE
  5
4B96
  8
SUNPOU
  6
CONTINUOUS
 62
     4
 10
19794.22418699996
 20
8805.0905159999984
 30
0.0
 11
19794.22418699996
 21
10004.54812799998
 31
0.0
  0
LINE
  5
4B97
  8
SUNPOU
  6
CONTINUOUS
 62
     4
 10
25100.22893699996
 20
8805.0905159999984
 30
0.0
 11
25100.22893699996
 21
10004.54812799998
 31
0.0
  0
LINE
  5
4B98
  8
SUNPOU
  6
CONTINUOUS
 62
     4
 10
19797.22418699996
 20
9924.5481279999967
 30
0.0
 11
25097.22893699996
 21
9924.5481279999967
 31
0.0
  0
LINE
  5
4B99
  8
SUNPOU
  6
CONTINUOUS
 62
     4
 10
19837.226298000001
 20
8805.0905159999984
 30
0.0
 11
19837.226298000001
 21
9604.5903579999958
 31
0.0
  0
LINE
  5
4B9A
  8
SUNPOU
  6
CONTINUOUS
 62
     4
 10
25057.226825999991
 20
8805.0905159999984
 30
0.0
 11
25057.226825999991
 21
9604.5903579999958
 31
0.0
  0
LINE
  5
4B9B
  8
SUNPOU
  6
CONTINUOUS
 62
     4
 10
19837.226298000001
 20
9524.5903579999958
 30
0.0
 11
25057.226825999991
 21
9524.5903579999958
 31
0.0
  0
LINE
  5
4B9C
  8
SUNPOU
  6
CONTINUOUS
 62
     4
 10
19837.226298000001
 20
8805.0905159999984
 30
0.0
 11
19837.226298000001
 21
9604.5903579999958
 31
0.0
  0
LINE
  5
4B9D
  8
SUNPOU
  6
CONTINUOUS
 62
     4
 10
19794.22418699996
 20
8805.0905159999984
 30
0.0
 11
19794.22418699996
 21
9604.5903579999958
 31
0.0
  0
LINE
  5
4B9E
  8
SUNPOU
  6
CONTINUOUS
 62
     4
 10
19837.226298000001
 20
9524.5903579999958
 30
0.0
 11
20077.226298000001
 21
9524.5903579999958
 31
0.0
  0
LINE
  5
4B9F
  8
SUNPOU
  6
CONTINUOUS
 62
     4
 10
19797.22418699996
 20
9524.5903579999958
 30
0.0
 11
19557.22418699996
 21
9524.5903579999958
 31
0.0
  0
LINE
  5
4BA0
  8
SUNPOU
  6
CONTINUOUS
 62
     4
 10
19837.226298000001
 20
9524.5903579999958
 30
0.0
 11
19797.22418699996
 21
9524.5903579999958
 31
0.0
  0
LINE
  5
4BA1
  8
SUNPOU
  6
CONTINUOUS
 62
     4
 10
25057.226825999991
 20
8805.0905159999984
 30
0.0
 11
25057.226825999991
 21
9604.5903579999958
 31
0.0
  0
LINE
  5
4BA2
  8
SUNPOU
  6
CONTINUOUS
 62
     4
 10
25100.22893699996
 20
8805.0905159999984
 30
0.0
 11
25100.22893699996
 21
9604.5903579999958
 31
0.0
  0
LINE
  5
4BA3
  8
SUNPOU
  6
CONTINUOUS
 62
     4
 10
25057.226825999991
 20
9524.5903579999958
 30
0.0
 11
24817.226825999991
 21
9524.5903579999958
 31
0.0
  0
LINE
  5
4BA4
  8
SUNPOU
  6
CONTINUOUS
 62
     4
 10
25097.22893699996
 20
9524.5903579999958
 30
0.0
 11
25337.22893699996
 21
9524.5903579999958
 31
0.0
  0
LINE
  5
4BA5
  8
SUNPOU
  6
CONTINUOUS
 62
     4
 10
25057.226825999991
 20
9524.5903579999958
 30
0.0
 11
25097.22893699996
 21
9524.5903579999958
 31
0.0
  0
TEXT
  5
4BA6
  8
0
  6
CONTINUOUS
 62
     7
 10
25217.22893699996
 20
9604.5903579999958
 30
0.0
 40
160.0
  1
43
  0
TEXT
  5
4BA7
  8
0
  6
CONTINUOUS
 62
     7
 10
19437.224186999982
 20
9604.5903579999958
 30
0.0
 40
160.0
  1
43
  0
TEXT
  5
4BA8
  8
0
  6
CONTINUOUS
 62
     7
 10
22167.226562000011
 20
9604.5903579999958
 30
0.0
 40
160.0
  1
5220
  0
TEXT
  5
4BA9
  8
0
  6
CONTINUOUS
 62
     7
 10
22180.559895333321
 20
10004.54812799998
 30
0.0
 40
160.0
  1
5306
  0
ARC
  5
4BAA
  8
0
  6
BYBLOCK
 62
     0
 10
19794.22418699996
 20
9924.5481279999967
 30
0.0
 40
15.0
 50
0.0
 51
180.0
  0
ARC
  5
4BAB
  8
0
  6
BYBLOCK
 62
     0
 10
19794.22418699996
 20
9924.5481279999967
 30
0.0
 40
15.0
 50
180.0
 51
0.0
  0
ARC
  5
4BAC
  8
0
  6
BYBLOCK
 62
     0
 10
25100.22893699996
 20
9924.5481279999967
 30
0.0
 40
15.0
 50
180.0
 51
0.0
  0
ARC
  5
4BAD
  8
0
  6
BYBLOCK
 62
     0
 10
25100.22893699996
 20
9924.5481279999967
 30
0.0
 40
15.0
 50
0.0
 51
180.0
  0
ARC
  5
4BAE
  8
0
  6
BYBLOCK
 62
     0
 10
19837.226298000001
 20
9524.5903579999958
 30
0.0
 40
15.0
 50
0.0
 51
180.0
  0
ARC
  5
4BAF
  8
0
  6
BYBLOCK
 62
     0
 10
19837.226298000001
 20
9524.5903579999958
 30
0.0
 40
15.0
 50
180.0
 51
0.0
  0
ARC
  5
4BB0
  8
0
  6
BYBLOCK
 62
     0
 10
25057.226825999991
 20
9524.5903579999958
 30
0.0
 40
15.0
 50
180.0
 51
0.0
  0
ARC
  5
4BB1
  8
0
  6
BYBLOCK
 62
     0
 10
25057.226825999991
 20
9524.5903579999958
 30
0.0
 40
15.0
 50
0.0
 51
180.0
  0
ARC
  5
4BB2
  8
0
  6
BYBLOCK
 62
     0
 10
19837.226298000001
 20
9524.5903579999958
 30
0.0
 40
15.0
 50
0.0
 51
180.0
  0
ARC
  5
4BB3
  8
0
  6
BYBLOCK
 62
     0
 10
19837.226298000001
 20
9524.5903579999958
 30
0.0
 40
15.0
 50
180.0
 51
0.0
  0
ARC
  5
4BB4
  8
0
  6
BYBLOCK
 62
     0
 10
19794.22418699996
 20
9524.5903579999958
 30
0.0
 40
15.0
 50
180.0
 51
0.0
  0
ARC
  5
4BB5
  8
0
  6
BYBLOCK
 62
     0
 10
19794.22418699996
 20
9524.5903579999958
 30
0.0
 40
15.0
 50
0.0
 51
180.0
  0
ARC
  5
4BB6
  8
0
  6
BYBLOCK
 62
     0
 10
25057.226825999991
 20
9524.5903579999958
 30
0.0
 40
15.0
 50
180.0
 51
0.0
  0
ARC
  5
4BB7
  8
0
  6
BYBLOCK
 62
     0
 10
25057.226825999991
 20
9524.5903579999958
 30
0.0
 40
15.0
 50
0.0
 51
180.0
  0
ARC
  5
4BB8
  8
0
  6
BYBLOCK
 62
     0
 10
25100.22893699996
 20
9524.5903579999958
 30
0.0
 40
15.0
 50
0.0
 51
180.0
  0
ARC
  5
4BB9
  8
0
  6
BYBLOCK
 62
     0
 10
25100.22893699996
 20
9524.5903579999958
 30
0.0
 40
15.0
 50
180.0
 51
0.0
  0
LINE
  5
4BC7
  8
SUNPOU
  6
CONTINUOUS
 62
     4
 10
9788.8029459999998
 20
13588.136467999981
 30
0.0
 11
9788.8029459999998
 21
12409.18963699997
 31
0.0
  0
LINE
  5
4BC8
  8
SUNPOU
  6
CONTINUOUS
 62
     4
 10
15094.802748
 20
13588.136467999981
 30
0.0
 11
15094.802748
 21
12409.18963699997
 31
0.0
  0
LINE
  5
4BC9
  8
SUNPOU
  6
CONTINUOUS
 62
     4
 10
9788.8029459999998
 20
12489.18963699997
 30
0.0
 11
15094.802748
 21
12489.18963699997
 31
0.0
  0
TEXT
  5
4BCA
  8
0
  6
CONTINUOUS
 62
     7
 10
11652.469513666651
 20
12569.18963699997
 30
0.0
 40
160.0
  1
ケラバ外寸 5306
  0
ARC
  5
4BCB
  8
0
  6
BYBLOCK
 62
     0
 10
9788.8029459999998
 20
12489.18963699997
 30
0.0
 40
15.0
 50
0.0
 51
180.0
  0
ARC
  5
4BCC
  8
0
  6
BYBLOCK
 62
     0
 10
9788.8029459999998
 20
12489.18963699997
 30
0.0
 40
15.0
 50
180.0
 51
0.0
  0
ARC
  5
4BCD
  8
0
  6
BYBLOCK
 62
     0
 10
15094.802748
 20
12489.18963699997
 30
0.0
 40
15.0
 50
180.0
 51
0.0
  0
ARC
  5
4BCE
  8
0
  6
BYBLOCK
 62
     0
 10
15094.802748
 20
12489.18963699997
 30
0.0
 40
15.0
 50
0.0
 51
180.0
  0
TEXT
  5
4C21
  8
NAME
 10
25530.092913773478
 20
1076.0
 30
0.0
 40
360.0
  1
型（単棟）
 41
0.6
  7
01
  0
TEXT
  5
4C22
  8
NAME
 10
21583.547829600891
 20
1076.6369801169251
 30
0.0
 40
360.0
  1
VGCU-3359（H）+1959（H）
 41
0.5200000000000001
  0
TEXT
  5
4C24
  8
NAME
 10
21933.552716388989
 20
1876.0
 30
0.0
 40
360.0
  1
ヨドガレージ ラヴィージュ
 41
0.75
  7
01
  0
LINE
  5
4C25
  8
NAME
  6
CONTINUOUS
 10
26067.886878884288
 20
2236.0
 30
0.0
 11
26067.886878884288
 21
1876.0
 31
0.0
  0
LINE
  5
4C26
  8
NAME
  6
CONTINUOUS
 10
26167.886878884288
 20
2236.0
 30
0.0
 11
26167.886878884288
 21
1876.0
 31
0.0
  0
LINE
  5
4C27
  8
NAME
  6
CONTINUOUS
 10
26267.88687888431
 20
2236.0
 30
0.0
 11
26267.88687888431
 21
1876.0
 31
0.0
  0
LINE
  5
4C28
  8
NAME
  6
CONTINUOUS
 10
26007.886878884288
 20
2236.0
 30
0.0
 11
26327.886878884288
 21
2236.0
 31
0.0
  0
LINE
  5
4C29
  8
NAME
  6
CONTINUOUS
 10
26327.886878884288
 20
1876.0
 30
0.0
 11
26007.886878884288
 21
1876.0
 31
0.0
  0
TEXT
  5
4CC3
  8
FILENAME
  6
CONTINUOUS
 10
27537.333333333339
 20
348.0
 30
0.0
 40
200.0
  1
＜VGCU-3359+1959-1-A_0.DXF ＞
  7
FILENAME
 72
     2
 11
32764.0
 21
348.0
 31
0.0
  0
LINE
  5
4CC8
  8
WAKUSEN-01
 10
868.00000000000193
 20
827.99999999999955
 30
0.0
 11
32764.000000000011
 21
827.99999999999943
 31
0.0
  0
LINE
  5
4CC9
  8
WAKUSEN-01
 10
868.00000000000193
 20
827.99999999999955
 30
0.0
 11
868.00000000000193
 21
22484.000000000011
 31
0.0
  0
LINE
  5
4CCA
  8
WAKUSEN-01
 10
32764.000000000011
 20
827.99999999999943
 30
0.0
 11
32764.000000000011
 21
22484.000000000011
 31
0.0
  0
LINE
  5
4CCB
  8
WAKUSEN-01
 10
20560.0
 20
827.99999999999716
 30
0.0
 11
20560.0
 21
2484.0
 31
0.0
  0
LINE
  5
4CCC
  8
WAKUSEN-02
 10
26868.0
 20
827.99999999999261
 30
0.0
 11
26868.0
 21
2484.0
 31
0.0
  0
ENDSEC
  0
EOF
