  0
SECTION
  2
HEADER
  9
$ACADVER
  1
AC1009
  9
$INSBASE
 10
0.0
 20
0.0
 30
0.0
  9
$EXTMIN
 10
867.99324330406671
 20
327.38164749855792
 30
-0.000000000000013
  9
$EXTMAX
 10
32765.33210850941
 20
22484.553276491992
 30
0.0000000000000023
  9
$LIMMIN
 10
0.0
 20
0.0
  9
$LIMMAX
 10
33600.0
 20
23760.0
  9
$ORTHOMODE
 70
     1
  9
$REGENMODE
 70
     1
  9
$FILLMODE
 70
     1
  9
$QTEXTMODE
 70
     0
  9
$MIRRTEXT
 70
     1
  9
$DRAGMODE
 70
     2
  9
$LTSCALE
 40
80.0
  9
$OSMODE
 70
  3071
  9
$ATTMODE
 70
     1
  9
$TEXTSIZE
 40
0.2
  9
$TRACEWID
 40
0.05
  9
$TEXTSTYLE
  7
00
  9
$CLAYER
  8
0
  9
$CELTYPE
  6
BYLAYER
  9
$CECOLOR
 62
   256
  9
$DIMSCALE
 40
80.0
  9
$DIMASZ
 40
3.0
  9
$DIMEXO
 40
1.0
  9
$DIMDLI
 40
0.38
  9
$DIMRND
 40
0.5
  9
$DIMDLE
 40
0.0
  9
$DIMEXE
 40
1.0
  9
$DIMTP
 40
0.0
  9
$DIMTM
 40
0.0
  9
$DIMTXT
 40
2.0
  9
$DIMCEN
 40
0.09
  9
$DIMTSZ
 40
0.0
  9
$DIMTOL
 70
     0
  9
$DIMLIM
 70
     0
  9
$DIMTIH
 70
     0
  9
$DIMTOH
 70
     0
  9
$DIMSE1
 70
     0
  9
$DIMSE2
 70
     0
  9
$DIMTAD
 70
     1
  9
$DIMZIN
 70
     8
  9
$DIMBLK
  1
DOTSMALL
  9
$DIMASO
 70
     1
  9
$DIMSHO
 70
     1
  9
$DIMPOST
  1

  9
$DIMAPOST
  1

  9
$DIMALT
 70
     0
  9
$DIMALTD
 70
     2
  9
$DIMALTF
 40
25.399999999999999
  9
$DIMLFAC
 40
1.0
  9
$DIMTOFL
 70
     1
  9
$DIMTVP
 40
0.0
  9
$DIMTIX
 70
     0
  9
$DIMSOXD
 70
     0
  9
$DIMSAH
 70
     0
  9
$DIMBLK1
  1

  9
$DIMBLK2
  1

  9
$DIMSTYLE
  2
SUNPOU
  9
$DIMCLRD
 70
     4
  9
$DIMCLRE
 70
     4
  9
$DIMCLRT
 70
     7
  9
$DIMTFAC
 40
1.0
  9
$DIMGAP
 40
1.0
  9
$LUNITS
 70
     2
  9
$LUPREC
 70
     4
  9
$SKETCHINC
 40
0.1
  9
$FILLETRAD
 40
0.0
  9
$AUNITS
 70
     0
  9
$AUPREC
 70
     0
  9
$MENU
  1
acad
  9
$ELEVATION
 40
0.0
  9
$PELEVATION
 40
0.0
  9
$THICKNESS
 40
0.0
  9
$LIMCHECK
 70
     0
  9
$BLIPMODE
 70
     1
  9
$CHAMFERA
 40
0.0
  9
$CHAMFERB
 40
0.0
  9
$SKPOLY
 70
     0
  9
$TDCREATE
 40
2311940.0750525701
  9
$TDUPDATE
 40
2458942.440748692
  9
$TDINDWG
 40
0.0665690856
  9
$TDUSRTIMER
 40
0.0665663542
  9
$USRTIMER
 70
     1
  9
$ANGBASE
 50
0.0
  9
$ANGDIR
 70
     0
  9
$PDMODE
 70
     0
  9
$PDSIZE
 40
0.0
  9
$PLINEWID
 40
0.0
  9
$COORDS
 70
     1
  9
$SPLFRAME
 70
     0
  9
$SPLINETYPE
 70
     6
  9
$SPLINESEGS
 70
     8
  9
$ATTDIA
 70
     1
  9
$ATTREQ
 70
     1
  9
$HANDLING
 70
     1
  9
$HANDSEED
  5
4E1F
  9
$SURFTAB1
 70
     6
  9
$SURFTAB2
 70
     6
  9
$SURFTYPE
 70
     6
  9
$SURFU
 70
     6
  9
$SURFV
 70
     6
  9
$UCSNAME
  2

  9
$UCSORG
 10
0.0
 20
0.0
 30
0.0
  9
$UCSXDIR
 10
1.0
 20
0.0
 30
0.0
  9
$UCSYDIR
 10
0.0
 20
1.0
 30
0.0
  9
$PUCSNAME
  2

  9
$PUCSORG
 10
0.0
 20
0.0
 30
0.0
  9
$PUCSXDIR
 10
1.0
 20
0.0
 30
0.0
  9
$PUCSYDIR
 10
0.0
 20
1.0
 30
0.0
  9
$USERI1
 70
     0
  9
$USERI2
 70
     0
  9
$USERI3
 70
     0
  9
$USERI4
 70
     0
  9
$USERI5
 70
     0
  9
$USERR1
 40
0.0
  9
$USERR2
 40
0.0
  9
$USERR3
 40
0.0
  9
$USERR4
 40
0.0
  9
$USERR5
 40
0.0
  9
$WORLDVIEW
 70
     1
  9
$SHADEDGE
 70
     3
  9
$SHADEDIF
 70
    70
  9
$TILEMODE
 70
     1
  9
$MAXACTVP
 70
    16
  9
$PLIMCHECK
 70
     0
  9
$PEXTMIN
 10
1.0000000000000000E+020
 20
1.0000000000000000E+020
 30
1.0000000000000000E+020
  9
$PEXTMAX
 10
-1.0000000000000000E+020
 20
-1.0000000000000000E+020
 30
-1.0000000000000000E+020
  9
$PLIMMIN
 10
0.0
 20
0.0
  9
$PLIMMAX
 10
12.0
 20
9.0
  9
$UNITMODE
 70
     0
  9
$VISRETAIN
 70
     0
  9
$PLINEGEN
 70
     1
  9
$PSLTSCALE
 70
     0
  0
ENDSEC
  0
SECTION
  2
TABLES
  0
TABLE
  2
VPORT
 70
     1
  0
VPORT
  2
*ACTIVE
 70
     0
 10
0.0
 20
0.0
 11
1.0
 21
1.0
 12
16800.0
 22
11880.0
 13
0.0
 23
0.0
 14
1.0
 24
1.0
 15
0.0
 25
0.0
 16
0.0
 26
0.0
 36
1.0
 17
0.0
 27
0.0
 37
0.0
 40
23981.023255813951
 41
2.195652173913043
 42
50.0
 43
0.0
 44
0.0
 50
0.0
 51
0.0
 71
     0
 72
 10000
 73
     1
 74
     1
 75
     0
 76
     0
 77
     0
 78
     0
  0
ENDTAB
  0
TABLE
  2
LTYPE
 70
     3
  0
LTYPE
  2
CONTINUOUS
 70
     0
  3
Solid line
 72
    65
 73
     0
 40
0.0
  0
LTYPE
  2
DASHED3
 70
     0
  3
------  ------  ------  ------  
 72
    65
 73
     2
 40
5.0
 49
3.75
 49
-1.25
  0
LTYPE
  2
CENTER2
 70
     0
  3
----------  --  ----------  --  
 72
    65
 73
     4
 40
20.0
 49
12.5
 49
-2.5
 49
2.5
 49
-2.5
  0
ENDTAB
  0
TABLE
  2
LAYER
 70
    18
  0
LAYER
  2
0
 70
     0
 62
     7
  6
CONTINUOUS
  0
LAYER
  2
SUNPOU
 70
     0
 62
     4
  6
CONTINUOUS
  0
LAYER
  2
0-1
 70
     0
 62
     7
  6
CONTINUOUS
  0
LAYER
  2
0-2
 70
     0
 62
     7
  6
CONTINUOUS
  0
LAYER
  2
0-4
 70
     0
 62
     7
  6
CONTINUOUS
  0
LAYER
  2
0-5
 70
     0
 62
     7
  6
CONTINUOUS
  0
LAYER
  2
2-0
 70
     0
 62
     7
  6
CONTINUOUS
  0
LAYER
  2
0-6
 70
     0
 62
     7
  6
CONTINUOUS
  0
LAYER
  2
0-7
 70
     0
 62
     7
  6
CONTINUOUS
  0
LAYER
  2
0-0
 70
     0
 62
     7
  6
CONTINUOUS
  0
LAYER
  2
YODOROGO
 70
     0
 62
   130
  6
CONTINUOUS
  0
LAYER
  2
WAKUSEN-01
 70
     0
 62
    50
  6
CONTINUOUS
  0
LAYER
  2
WAKUSEN-02
 70
     0
 62
   130
  6
CONTINUOUS
  0
LAYER
  2
WAKUMOJI-01
 70
     0
 62
   130
  6
CONTINUOUS
  0
LAYER
  2
FILENAME
 70
     0
 62
     7
  6
CONTINUOUS
  0
LAYER
  2
NAME
 70
     0
 62
    20
  6
CONTINUOUS
  0
ENDTAB
  0
TABLE
  2
STYLE
 70
     6
  0
STYLE
  2
STANDARD
 70
     0
 40
0.0
 41
1.0
 50
0.0
 71
     0
 42
0.0
  3
txt
  4
BIGFONT
  0
STYLE
  2
00
 70
     0
 40
0.0
 41
0.6666666666666666
 50
0.0
 71
     0
 42
0.2
  3
ROMANS
  4
BIGFONT
  0
STYLE
  2
01
 70
     0
 40
3.0
 41
1.0
 50
0.0
 71
     0
 42
0.2
  3
ROMANS
  4
BIGFONT
  0
STYLE
  2
WAKUMOJI
 70
     0
 40
3.0
 41
1.0
 50
0.0
 71
     0
 42
3.0
  3
SIMPLEX
  4
BIGFONT
  0
STYLE
  2
FILENAME
 70
     0
 40
200.0
 41
1.0
 50
0.0
 71
     0
 42
200.0
  3
romans
  4
bigfont
  0
ENDTAB
  0
TABLE
  2
VIEW
 70
     0
  0
ENDTAB
  0
TABLE
  2
UCS
 70
     0
  0
ENDTAB
  0
TABLE
  2
APPID
 70
    13
  0
APPID
  2
ACAD
 70
     0
  0
APPID
  2
ACADANNOTATIVE
 70
     0
  0
APPID
  2
ACAD_PSEXT
 70
     0
  0
APPID
  2
DCO15
 70
     0
  0
APPID
  2
ACAD_MLEADERVER
 70
     0
  0
APPID
  2
AUTOCAD_POSTSCRIPT_FIGURE
 70
     0
  0
APPID
  2
ACAD_EXEMPT_FROM_CAD_STANDARDS
 70
     0
  0
APPID
  2
ACAD_DSTYLE_DIMJAG
 70
     0
  0
APPID
  2
ACAD_DSTYLE_DIMTALN
 70
     0
  0
APPID
  2
ACAD_DSTYLE_DIM_LINETYPE
 70
     0
  0
APPID
  2
ACAD_DSTYLE_DIM_EXT1_LINETYPE
 70
     0
  0
APPID
  2
ACAD_DSTYLE_DIM_EXT2_LINETYPE
 70
     0
  0
APPID
  2
ACAD_NAV_VCDISPLAY
 70
     0
  0
ENDTAB
  0
TABLE
  2
DIMSTYLE
 70
     3
  0
DIMSTYLE
  2
SUNPOU
 70
     0
  3

  4

  5

  6

  7

 40
80.0
 41
3.0
 42
1.0
 43
0.38
 44
1.0
 45
0.5
 46
0.0
 47
0.0
 48
0.0
140
2.0
141
0.09
142
0.0
143
25.399999999999999
144
1.0
145
0.0
146
1.0
147
1.0
 71
     0
 72
     0
 73
     0
 74
     0
 75
     0
 76
     0
 77
     1
 78
     8
170
     0
171
     2
172
     1
173
     0
174
     0
175
     0
176
     4
177
     4
178
     7
  0
ENDTAB
  0
ENDSEC
  0
SECTION
  2
BLOCKS
  0
BLOCK
  8
0
  2
$MODEL_SPACE
 70
     0
 10
0.0
 20
0.0
 30
0.0
  3
$MODEL_SPACE
  1

  0
ENDBLK
  5
4214
  8
0
  0
BLOCK
 67
     1
  8
0
  2
$PAPER_SPACE
 70
     0
 10
0.0
 20
0.0
 30
0.0
  3
$PAPER_SPACE
  1

  0
ENDBLK
  5
4210
 67
     1
  8
0
  0
BLOCK
  8
0
  2
_DOTSMALL
 70
     0
 10
0.0
 20
0.0
 30
0.0
  3
_DOTSMALL
  1

  0
POLYLINE
  5
4247
  8
0
  6
BYBLOCK
 62
     0
 66
     1
 10
0.0
 20
0.0
 30
0.0
 70
     1
 40
0.5
 41
0.5
  0
VERTEX
  5
4DE7
  8
0
  6
BYBLOCK
 62
     0
 10
-0.0625
 20
0.0
 30
0.0
 42
1.0
  0
VERTEX
  5
4DE8
  8
0
  6
BYBLOCK
 62
     0
 10
0.0625
 20
0.0
 30
0.0
 42
1.0
  0
SEQEND
  5
4DE9
  8
0
  6
BYBLOCK
 62
     0
  0
ENDBLK
  5
424B
  8
0
  0
ENDSEC
  0
SECTION
  2
ENTITIES
  0
CIRCLE
  5
424C
  8
0-4
  6
CONTINUOUS
 62
     4
 10
15128.71667799999
 20
1375.9999819999971
 30
0.0
 40
20.0
  0
ARC
  5
424D
  8
0-4
  6
CONTINUOUS
 62
     4
 10
15128.71667799999
 20
1375.9999819999971
 30
0.0
 40
20.0
 50
180.0
 51
0.0
  0
ARC
  5
424E
  8
0-4
  6
CONTINUOUS
 62
     4
 10
15128.71667799999
 20
1375.9999819999971
 30
0.0
 40
20.0
 50
0.0
 51
179.99998499999839
  0
CIRCLE
  5
424F
  8
0-4
  6
CONTINUOUS
 62
     4
 10
15128.71667799999
 20
1776.000188
 30
0.0
 40
20.0
  0
ARC
  5
4250
  8
0-4
  6
CONTINUOUS
 62
     4
 10
15128.71667799999
 20
1776.000188
 30
0.0
 40
20.0
 50
180.0
 51
0.0
  0
ARC
  5
4251
  8
0-4
  6
CONTINUOUS
 62
     4
 10
15128.71667799999
 20
1776.000188
 30
0.0
 40
20.0
 50
0.0
 51
179.99998499999839
  0
TEXT
  5
4252
  8
0-4
  6
CONTINUOUS
 62
     7
 10
16682.313132999989
 20
1656.0000399999999
 30
0.0
 40
160.0
  1
H
  0
TEXT
  5
4253
  8
0-4
  6
CONTINUOUS
 62
     7
 10
15176.146932999991
 20
1656.0000399999999
 30
0.0
 40
160.0
  1
（ ）内寸法ハ、  タ イプヲ示ス。
  0
TEXT
  5
4254
  8
0-4
  6
CONTINUOUS
 62
     7
 10
15288.71522599998
 20
1256.000204999998
 30
0.0
 40
160.0
  1
有効高サハ、基礎高サヲ含ミマセン。
  0
LINE
  5
425D
  8
0-1
  6
CONTINUOUS
 62
     3
 10
8789.3756595000086
 20
8526.8256480000018
 30
0.0
 11
14319.874076499989
 21
8526.8256480000018
 31
0.0
  0
LINE
  5
425E
  8
0-1
  6
CONTINUOUS
 62
     3
 10
8079.3748015000074
 20
6515.7797690000016
 30
0.0
 11
14352.373878500001
 21
6515.7797690000016
 31
0.0
  0
LINE
  5
425F
  8
0-1
  6
CONTINUOUS
 62
     3
 10
8884.3747355000087
 20
6665.7797690000016
 30
0.0
 11
11306.8740105
 21
6665.7797690000016
 31
0.0
  0
LINE
  5
4260
  8
0-1
  6
CONTINUOUS
 62
     3
 10
8761.8738785000005
 20
6615.7796040000021
 30
0.0
 11
14352.373878500001
 21
6615.7796040000021
 31
0.0
  0
LINE
  5
4261
  8
0-1
  6
CONTINUOUS
 62
     3
 10
8884.3747355000087
 20
8526.8256480000018
 30
0.0
 11
8884.3747355000087
 21
6615.7796040000021
 31
0.0
  0
LINE
  5
4262
  8
0-1
  6
CONTINUOUS
 62
     3
 10
8769.3746035000058
 20
8648.7936849999969
 30
0.0
 11
8769.3746035000058
 21
6615.7796040000021
 31
0.0
  0
LINE
  5
4263
  8
0-1
  6
CONTINUOUS
 62
     3
 10
8789.3756595000086
 20
8649.4489060000051
 30
0.0
 11
8789.3756595000086
 21
6615.7796040000021
 31
0.0
  0
LINE
  5
4264
  8
0-1
  6
CONTINUOUS
 62
     3
 10
8761.8738785000005
 20
6515.7797690000016
 30
0.0
 11
8761.8738785000005
 21
6615.7796040000021
 31
0.0
  0
LINE
  5
4265
  8
0-1
  6
CONTINUOUS
 62
     3
 10
14415.00776049999
 20
8833.2689810000029
 30
0.0
 11
14410.747836500001
 21
8963.198642000003
 31
0.0
  0
LINE
  5
4266
  8
0-1
  6
CONTINUOUS
 62
     3
 10
11451.873746499999
 20
6665.7797690000016
 30
0.0
 11
14224.874010499991
 21
6665.7797690000016
 31
0.0
  0
LINE
  5
4267
  8
0-1
  6
CONTINUOUS
 62
     3
 10
10915.373732499969
 20
6665.7797690000016
 30
0.0
 11
10915.373732499969
 21
8526.8256480000018
 31
0.0
  0
LINE
  5
4268
  8
0-1
  6
CONTINUOUS
 62
     3
 10
10782.3748285
 20
6665.7797690000016
 30
0.0
 11
10782.3748285
 21
8526.8256480000018
 31
0.0
  0
LINE
  5
4269
  8
0-1
  6
CONTINUOUS
 62
     3
 10
10767.373046500001
 20
6665.7797690000016
 30
0.0
 11
10767.373046500001
 21
8526.8256480000018
 31
0.0
  0
LINE
  5
426A
  8
0-1
  6
CONTINUOUS
 62
     3
 10
10965.37538249998
 20
6665.7797690000016
 30
0.0
 11
10965.37538249998
 21
8526.8256480000018
 31
0.0
  0
LINE
  5
426B
  8
0-1
  6
CONTINUOUS
 62
     3
 10
10985.374458499989
 20
6665.7797690000016
 30
0.0
 11
10985.374458499989
 21
8526.8256480000018
 31
0.0
  0
LINE
  5
426C
  8
0-1
  6
CONTINUOUS
 62
     3
 10
11035.3751185
 20
6665.7797690000016
 30
0.0
 11
11035.3751185
 21
8526.8256480000018
 31
0.0
  0
LINE
  5
426D
  8
0-1
  6
CONTINUOUS
 62
     3
 10
11168.3740235
 20
6665.7797690000016
 30
0.0
 11
11168.3740235
 21
8526.8256480000018
 31
0.0
  0
LINE
  5
426E
  8
0-1
  6
CONTINUOUS
 62
     3
 10
11183.3728355
 20
6665.7797690000016
 30
0.0
 11
11183.3728355
 21
8526.8256480000018
 31
0.0
  0
LINE
  5
426F
  8
0-1
  6
CONTINUOUS
 62
     3
 10
11451.873746499999
 20
8526.8256480000018
 30
0.0
 11
11451.873746499999
 21
6615.7796040000021
 31
0.0
  0
LINE
  5
4270
  8
0-1
  6
CONTINUOUS
 62
     3
 10
11306.8740105
 20
8526.8256480000018
 30
0.0
 11
11306.8740105
 21
6615.7796040000021
 31
0.0
  0
LINE
  5
4271
  8
0-1
  6
CONTINUOUS
 62
     3
 10
11575.372941499991
 20
6665.7797690000016
 30
0.0
 11
11575.372941499991
 21
8526.8256480000018
 31
0.0
  0
LINE
  5
4272
  8
0-1
  6
CONTINUOUS
 62
     3
 10
11590.374722500001
 20
6665.7797690000016
 30
0.0
 11
11590.374722500001
 21
8526.8256480000018
 31
0.0
  0
LINE
  5
4273
  8
0-1
  6
CONTINUOUS
 62
     3
 10
11723.373627499999
 20
6665.7797690000016
 30
0.0
 11
11723.373627499999
 21
8526.8256480000018
 31
0.0
  0
LINE
  5
4274
  8
0-1
  6
CONTINUOUS
 62
     3
 10
11773.37428749999
 20
6665.7797690000016
 30
0.0
 11
11773.37428749999
 21
8526.8256480000018
 31
0.0
  0
LINE
  5
4275
  8
0-1
  6
CONTINUOUS
 62
     3
 10
11793.373363500001
 20
6665.7797690000016
 30
0.0
 11
11793.373363500001
 21
8526.8256480000018
 31
0.0
  0
LINE
  5
4276
  8
0-1
  6
CONTINUOUS
 62
     3
 10
9565.3737324999875
 20
6665.7797690000016
 30
0.0
 11
9565.3737324999875
 21
8526.8256480000018
 31
0.0
  0
LINE
  5
4277
  8
0-1
  6
CONTINUOUS
 62
     3
 10
9585.3757785000034
 20
6665.7797690000016
 30
0.0
 11
9585.3757785000034
 21
8526.8256480000018
 31
0.0
  0
LINE
  5
4278
  8
0-1
  6
CONTINUOUS
 62
     3
 10
9515.3730734999917
 20
6665.7797690000016
 30
0.0
 11
9515.3730734999917
 21
8526.8256480000018
 31
0.0
  0
LINE
  5
4279
  8
0-1
  6
CONTINUOUS
 62
     3
 10
9635.3734695000021
 20
6665.7797690000016
 30
0.0
 11
9635.3734695000021
 21
8526.8256480000018
 31
0.0
  0
LINE
  5
427A
  8
0-1
  6
CONTINUOUS
 62
     3
 10
9768.3733635000044
 20
6665.7797690000016
 30
0.0
 11
9768.3733635000044
 21
8526.8256480000018
 31
0.0
  0
LINE
  5
427B
  8
0-1
  6
CONTINUOUS
 62
     3
 10
9783.375145500002
 20
6665.7797690000016
 30
0.0
 11
9783.375145500002
 21
8526.8256480000018
 31
0.0
  0
LINE
  5
427C
  8
0-1
  6
CONTINUOUS
 62
     3
 10
9372.8743925000072
 20
6665.7797690000016
 30
0.0
 11
9372.8743925000072
 21
8526.8256480000018
 31
0.0
  0
LINE
  5
427D
  8
0-1
  6
CONTINUOUS
 62
     3
 10
9357.8755805000092
 20
6665.7797690000016
 30
0.0
 11
9357.8755805000092
 21
8526.8256480000018
 31
0.0
  0
LINE
  5
427E
  8
0-1
  6
CONTINUOUS
 62
     3
 10
10067.37370649998
 20
6665.7797690000016
 30
0.0
 11
10067.37370649998
 21
8526.8256480000018
 31
0.0
  0
LINE
  5
427F
  8
0-1
  6
CONTINUOUS
 62
     3
 10
10082.37251849998
 20
6665.7797690000016
 30
0.0
 11
10082.37251849998
 21
8526.8256480000018
 31
0.0
  0
LINE
  5
4280
  8
0-1
  6
CONTINUOUS
 62
     3
 10
10483.3744855
 20
6665.7797690000016
 30
0.0
 11
10483.3744855
 21
8526.8256480000018
 31
0.0
  0
LINE
  5
4281
  8
0-1
  6
CONTINUOUS
 62
     3
 10
10468.37270349999
 20
6665.7797690000016
 30
0.0
 11
10468.37270349999
 21
8526.8256480000018
 31
0.0
  0
LINE
  5
4282
  8
0-1
  6
CONTINUOUS
 62
     3
 10
10335.372809499981
 20
6665.7797690000016
 30
0.0
 11
10335.372809499981
 21
8526.8256480000018
 31
0.0
  0
LINE
  5
4283
  8
0-1
  6
CONTINUOUS
 62
     3
 10
10215.3743925
 20
6665.7797690000016
 30
0.0
 11
10215.3743925
 21
8526.8256480000018
 31
0.0
  0
LINE
  5
4284
  8
0-1
  6
CONTINUOUS
 62
     3
 10
10285.37511849998
 20
6665.7797690000016
 30
0.0
 11
10285.37511849998
 21
8526.8256480000018
 31
0.0
  0
LINE
  5
4285
  8
0-1
  6
CONTINUOUS
 62
     3
 10
10265.37307349999
 20
6665.7797690000016
 30
0.0
 11
10265.37307349999
 21
8526.8256480000018
 31
0.0
  0
LINE
  5
4286
  8
0-1
  6
CONTINUOUS
 62
     3
 10
10606.874669500001
 20
8526.8256480000018
 30
0.0
 11
10606.874669500001
 21
6665.7797690000016
 31
0.0
  0
LINE
  5
4287
  8
0-1
  6
CONTINUOUS
 62
     3
 10
10643.8728625
 20
8526.8256480000018
 30
0.0
 11
10643.8728625
 21
6665.7797690000016
 31
0.0
  0
LINE
  5
4288
  8
0-1
  6
CONTINUOUS
 62
     3
 10
9197.3742345000101
 20
8526.8256480000018
 30
0.0
 11
9197.3742345000101
 21
6665.7797690000016
 31
0.0
  0
LINE
  5
4289
  8
0-1
  6
CONTINUOUS
 62
     3
 10
9234.3744055000116
 20
8526.8256480000018
 30
0.0
 11
9234.3744055000116
 21
6665.7797690000016
 31
0.0
  0
LINE
  5
428A
  8
0-1
  6
CONTINUOUS
 62
     3
 10
9906.8753295000097
 20
8526.8256480000018
 30
0.0
 11
9906.8753295000097
 21
6665.7797690000016
 31
0.0
  0
LINE
  5
428B
  8
0-1
  6
CONTINUOUS
 62
     3
 10
9943.8735214999961
 20
8526.8256480000018
 30
0.0
 11
9943.8735214999961
 21
6665.7797690000016
 31
0.0
  0
LINE
  5
428C
  8
0-1
  6
CONTINUOUS
 62
     3
 10
11379.373878500001
 20
8734.0614480000004
 30
0.0
 11
11375.1129645
 21
8863.9911090000023
 31
0.0
  0
LINE
  5
428D
  8
0-1
  6
CONTINUOUS
 62
     3
 10
11379.373878500001
 20
8734.0614480000004
 30
0.0
 11
11379.373878500001
 21
8526.8256480000018
 31
0.0
  0
LINE
  5
428E
  8
0-1
  6
CONTINUOUS
 62
     3
 10
14224.874010499991
 20
8526.8256480000018
 30
0.0
 11
14224.874010499991
 21
6615.7796040000021
 31
0.0
  0
LINE
  5
428F
  8
0-1
  6
CONTINUOUS
 62
     3
 10
14339.8731525
 20
8830.805470000003
 30
0.0
 11
14339.8731525
 21
6615.7796040000021
 31
0.0
  0
LINE
  5
4290
  8
0-1
  6
CONTINUOUS
 62
     3
 10
14319.874076499989
 20
8830.149260000002
 30
0.0
 11
14319.874076499989
 21
6615.7796040000021
 31
0.0
  0
LINE
  5
4291
  8
0-1
  6
CONTINUOUS
 62
     3
 10
12814.87423449999
 20
8526.8256480000018
 30
0.0
 11
12814.87423449999
 21
6665.7797690000016
 31
0.0
  0
LINE
  5
4292
  8
0-1
  6
CONTINUOUS
 62
     3
 10
12851.87341649999
 20
8526.8256480000018
 30
0.0
 11
12851.87341649999
 21
6665.7797690000016
 31
0.0
  0
LINE
  5
4293
  8
0-1
  6
CONTINUOUS
 62
     3
 10
13524.874670499999
 20
8526.8256480000018
 30
0.0
 11
13524.874670499999
 21
6665.7797690000016
 31
0.0
  0
LINE
  5
4294
  8
0-1
  6
CONTINUOUS
 62
     3
 10
13561.8728625
 20
8526.8256480000018
 30
0.0
 11
13561.8728625
 21
6665.7797690000016
 31
0.0
  0
LINE
  5
4295
  8
0-1
  6
CONTINUOUS
 62
     3
 10
12114.8729145
 20
8526.8256480000018
 30
0.0
 11
12114.8729145
 21
6665.7797690000016
 31
0.0
  0
LINE
  5
4296
  8
0-1
  6
CONTINUOUS
 62
     3
 10
12151.87407649998
 20
8526.8256480000018
 30
0.0
 11
12151.87407649998
 21
6665.7797690000016
 31
0.0
  0
LINE
  5
4297
  8
0-1
  6
CONTINUOUS
 62
     3
 10
12493.372703499999
 20
6665.7797690000016
 30
0.0
 11
12493.372703499999
 21
8526.8256480000018
 31
0.0
  0
LINE
  5
4298
  8
0-1
  6
CONTINUOUS
 62
     3
 10
12473.37362749999
 20
6665.7797690000016
 30
0.0
 11
12473.37362749999
 21
8526.8256480000018
 31
0.0
  0
LINE
  5
4299
  8
0-1
  6
CONTINUOUS
 62
     3
 10
12543.373363500001
 20
6665.7797690000016
 30
0.0
 11
12543.373363500001
 21
8526.8256480000018
 31
0.0
  0
LINE
  5
429A
  8
0-1
  6
CONTINUOUS
 62
     3
 10
12423.37296749999
 20
6665.7797690000016
 30
0.0
 11
12423.37296749999
 21
8526.8256480000018
 31
0.0
  0
LINE
  5
429B
  8
0-1
  6
CONTINUOUS
 62
     3
 10
12290.373073500001
 20
6665.7797690000016
 30
0.0
 11
12290.373073500001
 21
8526.8256480000018
 31
0.0
  0
LINE
  5
429C
  8
0-1
  6
CONTINUOUS
 62
     3
 10
12275.374260500001
 20
6665.7797690000016
 30
0.0
 11
12275.374260500001
 21
8526.8256480000018
 31
0.0
  0
LINE
  5
429D
  8
0-1
  6
CONTINUOUS
 62
     3
 10
12676.37325749999
 20
6665.7797690000016
 30
0.0
 11
12676.37325749999
 21
8526.8256480000018
 31
0.0
  0
LINE
  5
429E
  8
0-1
  6
CONTINUOUS
 62
     3
 10
12691.375039500001
 20
6665.7797690000016
 30
0.0
 11
12691.375039500001
 21
8526.8256480000018
 31
0.0
  0
LINE
  5
429F
  8
0-1
  6
CONTINUOUS
 62
     3
 10
13391.37437949999
 20
6665.7797690000016
 30
0.0
 11
13391.37437949999
 21
8526.8256480000018
 31
0.0
  0
LINE
  5
42A0
  8
0-1
  6
CONTINUOUS
 62
     3
 10
13376.3725985
 20
6665.7797690000016
 30
0.0
 11
13376.3725985
 21
8526.8256480000018
 31
0.0
  0
LINE
  5
42A1
  8
0-1
  6
CONTINUOUS
 62
     3
 10
12975.37360149999
 20
6665.7797690000016
 30
0.0
 11
12975.37360149999
 21
8526.8256480000018
 31
0.0
  0
LINE
  5
42A2
  8
0-1
  6
CONTINUOUS
 62
     3
 10
12990.3743925
 20
6665.7797690000016
 30
0.0
 11
12990.3743925
 21
8526.8256480000018
 31
0.0
  0
LINE
  5
42A3
  8
0-1
  6
CONTINUOUS
 62
     3
 10
13123.375277499999
 20
6665.7797690000016
 30
0.0
 11
13123.375277499999
 21
8526.8256480000018
 31
0.0
  0
LINE
  5
42A4
  8
0-1
  6
CONTINUOUS
 62
     3
 10
13243.372703499999
 20
6665.7797690000016
 30
0.0
 11
13243.372703499999
 21
8526.8256480000018
 31
0.0
  0
LINE
  5
42A5
  8
0-1
  6
CONTINUOUS
 62
     3
 10
13173.3729675
 20
6665.7797690000016
 30
0.0
 11
13173.3729675
 21
8526.8256480000018
 31
0.0
  0
LINE
  5
42A6
  8
0-1
  6
CONTINUOUS
 62
     3
 10
13193.37501349999
 20
6665.7797690000016
 30
0.0
 11
13193.37501349999
 21
8526.8256480000018
 31
0.0
  0
LINE
  5
42A7
  8
0-1
  6
CONTINUOUS
 62
     3
 10
13903.374459500001
 20
6665.7797690000016
 30
0.0
 11
13903.374459500001
 21
8526.8256480000018
 31
0.0
  0
LINE
  5
42A8
  8
0-1
  6
CONTINUOUS
 62
     3
 10
13883.375383500001
 20
6665.7797690000016
 30
0.0
 11
13883.375383500001
 21
8526.8256480000018
 31
0.0
  0
LINE
  5
42A9
  8
0-1
  6
CONTINUOUS
 62
     3
 10
13953.37511949999
 20
6665.7797690000016
 30
0.0
 11
13953.37511949999
 21
8526.8256480000018
 31
0.0
  0
LINE
  5
42AA
  8
0-1
  6
CONTINUOUS
 62
     3
 10
13833.374723499999
 20
6665.7797690000016
 30
0.0
 11
13833.374723499999
 21
8526.8256480000018
 31
0.0
  0
LINE
  5
42AB
  8
0-1
  6
CONTINUOUS
 62
     3
 10
13700.3748285
 20
6665.7797690000016
 30
0.0
 11
13700.3748285
 21
8526.8256480000018
 31
0.0
  0
LINE
  5
42AC
  8
0-1
  6
CONTINUOUS
 62
     3
 10
13685.373047499999
 20
6665.7797690000016
 30
0.0
 11
13685.373047499999
 21
8526.8256480000018
 31
0.0
  0
LINE
  5
42AD
  8
0-1
  6
CONTINUOUS
 62
     3
 10
14086.37501349999
 20
6665.7797690000016
 30
0.0
 11
14086.37501349999
 21
8526.8256480000018
 31
0.0
  0
LINE
  5
42AE
  8
0-1
  6
CONTINUOUS
 62
     3
 10
14101.373825499981
 20
6665.7797690000016
 30
0.0
 11
14101.373825499981
 21
8526.8256480000018
 31
0.0
  0
LINE
  5
42AF
  8
0-1
  6
CONTINUOUS
 62
     3
 10
11991.372730499999
 20
6665.7797690000016
 30
0.0
 11
11991.372730499999
 21
8526.8256480000018
 31
0.0
  0
LINE
  5
42B0
  8
0-1
  6
CONTINUOUS
 62
     3
 10
11976.373917499999
 20
6665.7797690000016
 30
0.0
 11
11976.373917499999
 21
8526.8256480000018
 31
0.0
  0
LINE
  5
42B1
  8
0-1
  6
CONTINUOUS
 62
     3
 10
11843.37501349999
 20
6665.7797690000016
 30
0.0
 11
11843.37501349999
 21
8526.8256480000018
 31
0.0
  0
LINE
  5
42B2
  8
0-1
  6
CONTINUOUS
 62
     3
 10
14352.373878500001
 20
6615.7796040000021
 30
0.0
 11
14352.373878500001
 21
6515.7797690000016
 31
0.0
  0
LINE
  5
42B3
  8
0-1
  6
CONTINUOUS
 62
     3
 10
8592.0621965000137
 20
8691.0049390000022
 30
0.0
 11
8590.9477275000136
 21
8724.9873349999998
 31
0.0
  0
LINE
  5
42B4
  8
0-1
  6
CONTINUOUS
 62
     3
 10
8593.8477225000097
 20
8728.0833020000027
 30
0.0
 11
14424.215490500001
 21
8918.6159240000015
 31
0.0
  0
LINE
  5
42B5
  8
0-1
  6
CONTINUOUS
 62
     3
 10
14425.52692149999
 20
8878.6375670000016
 30
0.0
 11
8595.1601425000081
 21
8688.1049450000046
 31
0.0
  0
LINE
  5
42B6
  8
0-1
  6
CONTINUOUS
 62
     3
 10
8592.4234584999995
 20
8680.0106930000056
 30
0.0
 11
8592.4204895000057
 21
8680.0760170000012
 31
0.0
  0
LINE
  5
42B7
  8
0-1
  6
CONTINUOUS
 62
     3
 10
8592.4204895000057
 20
8680.0760170000012
 30
0.0
 11
8593.4716135000053
 21
8648.0286010000054
 31
0.0
  0
LINE
  5
42B8
  8
0-1
  6
CONTINUOUS
 62
     3
 10
8598.6322185000045
 20
8643.1956070000069
 30
0.0
 11
14447.971693499991
 21
8834.3497980000029
 31
0.0
  0
LINE
  5
42B9
  8
0-1
  6
CONTINUOUS
 62
     3
 10
14443.710779499999
 20
8964.2794590000049
 30
0.0
 11
8594.3732845000068
 21
8773.1252680000016
 31
0.0
  0
LINE
  5
42BA
  8
0-1
  6
CONTINUOUS
 62
     3
 10
8589.5383105000055
 20
8767.963673000002
 30
0.0
 11
8590.5884445000029
 21
8735.981581
 31
0.0
  0
LINE
  5
42BB
  8
0-1
  6
CONTINUOUS
 62
     3
 10
8593.6844115000058
 20
8733.0815860000002
 30
0.0
 11
14424.05317049999
 21
8923.614209000003
 31
0.0
  0
LINE
  5
42BC
  8
0-1
  6
CONTINUOUS
 62
     3
 10
14425.689242500001
 20
8873.6412620000028
 30
0.0
 11
8595.3224635000097
 21
8683.1076500000017
 31
0.0
  0
LINE
  5
42BD
  8
0-1
  6
CONTINUOUS
 62
     3
 10
8606.8650365000067
 20
8773.5350280000057
 30
0.0
 11
8611.1259495000049
 21
8643.6043770000033
 31
0.0
  0
LINE
  5
42BE
  8
0-5
  6
CONTINUOUS
 62
     4
 10
17222.747439499992
 20
6723.6262510000033
 30
0.0
 11
17342.745856499991
 21
6515.7797690000016
 31
0.0
  0
LINE
  5
42BF
  8
0-5
  6
CONTINUOUS
 62
     4
 10
14432.374142500001
 20
6515.7797690000016
 30
0.0
 11
19314.619536499999
 21
6515.7797690000016
 31
0.0
  0
LINE
  5
42C0
  8
0-5
  6
CONTINUOUS
 62
     4
 10
17342.745856499991
 20
6515.7797690000016
 30
0.0
 11
17462.748231499991
 21
6723.6262510000033
 31
0.0
  0
LINE
  5
42C1
  8
0-5
  6
CONTINUOUS
 62
     4
 10
17462.748231499991
 20
6723.6262510000033
 30
0.0
 11
17222.747439499992
 21
6723.6262510000033
 31
0.0
  0
LINE
  5
42C2
  8
0-5
  6
CONTINUOUS
 62
     4
 10
14432.374142500001
 20
6615.7796040000021
 30
0.0
 11
16149.8340905
 21
6615.7796040000021
 31
0.0
  0
LINE
  5
42C3
  8
0-5
  6
CONTINUOUS
 62
     4
 10
16177.460251500001
 20
6823.6255910000036
 30
0.0
 11
15937.4584705
 21
6823.6255910000036
 31
0.0
  0
LINE
  5
42C4
  8
0-5
  6
CONTINUOUS
 62
     4
 10
16057.457876500001
 20
6615.7796040000021
 30
0.0
 11
16177.460251500001
 21
6823.6255910000036
 31
0.0
  0
LINE
  5
42C5
  8
0-5
  6
CONTINUOUS
 62
     4
 10
15937.4584705
 20
6823.6255910000036
 30
0.0
 11
16057.457876500001
 21
6615.7796040000021
 31
0.0
  0
LINE
  5
42C6
  8
2-0
  6
CENTER2
 62
     6
 10
8811.8738785000005
 20
6253.1263570000046
 30
0.0
 11
8811.8738785000005
 21
7310.2694489999967
 31
0.0
  0
LINE
  5
42C7
  8
2-0
  6
CENTER2
 62
     6
 10
11379.373878500001
 20
6253.1263570000046
 30
0.0
 11
11379.373878500001
 21
7310.2694489999967
 31
0.0
  0
LINE
  5
42C8
  8
2-0
  6
CENTER2
 62
     6
 10
14297.373878500001
 20
6253.1263570000046
 30
0.0
 11
14297.373878500001
 21
7310.2694489999967
 31
0.0
  0
ARC
  5
42C9
  8
0-1
  6
CONTINUOUS
 62
     3
 10
8595.2650575000062
 20
8730.6309420000034
 30
0.0
 40
2.5
 50
271.87799100001888
 51
91.877991000018937
  0
ARC
  5
42CA
  8
0-1
  6
CONTINUOUS
 62
     3
 10
8596.7397985000061
 20
8685.6562800000029
 30
0.0
 40
2.5
 50
271.87799100001888
 51
91.877991000018937
  0
ARC
  5
42CB
  8
0-1
  6
CONTINUOUS
 62
     3
 10
8593.9457085000067
 20
8725.0853210000023
 30
0.0
 40
3.0
 50
91.877991000018937
 51
181.87799100002039
  0
ARC
  5
42CC
  8
0-1
  6
CONTINUOUS
 62
     3
 10
14424.871701499989
 20
8898.6267460000035
 30
0.0
 40
20.0
 50
271.87799100001888
 51
91.877991000018937
  0
ARC
  5
42CD
  8
0-1
  6
CONTINUOUS
 62
     3
 10
8595.0601775000068
 20
8691.1039149999979
 30
0.0
 40
3.0
 50
181.87799100002039
 51
271.87799100001888
  0
ARC
  5
42CE
  8
0-1
  6
CONTINUOUS
 62
     3
 10
8595.4204495000085
 20
8680.1096690000049
 30
0.0
 40
3.0
 50
91.877991000018937
 51
181.87799100002039
  0
ARC
  5
42CF
  8
0-1
  6
CONTINUOUS
 62
     3
 10
8598.4689085000082
 20
8648.1919120000057
 30
0.0
 40
5.0
 50
181.87799100002039
 51
271.87799100001888
  0
ARC
  5
42D0
  8
0-1
  6
CONTINUOUS
 62
     3
 10
14419.873416500001
 20
8898.4634360000018
 30
0.0
 40
69.999999000000003
 50
293.66478000018662
 51
70.091202000198606
  0
ARC
  5
42D1
  8
0-1
  6
CONTINUOUS
 62
     3
 10
8594.5356045000062
 20
8768.1279730000024
 30
0.0
 40
5.0
 50
91.877991000018937
 51
181.87799100002039
  0
ARC
  5
42D2
  8
0-1
  6
CONTINUOUS
 62
     3
 10
8593.5854355000029
 20
8736.0795670000025
 30
0.0
 40
3.0
 50
181.87799100002039
 51
271.87799100001888
  0
ARC
  5
42D3
  8
0-1
  6
CONTINUOUS
 62
     3
 10
14424.871701499989
 20
8898.6267460000035
 30
0.0
 40
24.999998999999999
 50
271.87799100001888
 51
91.877991000018937
  0
TEXT
  5
42D4
  8
0-0
  6
CONTINUOUS
 62
     7
 10
17222.747439499992
 20
6803.6260200000024
 30
0.0
 40
160.0
  1
G.L
 72
     4
 11
17382.747439499992
 21
6883.6260200000042
 31
0.0
  0
TEXT
  5
42D5
  8
0-0
  6
CONTINUOUS
 62
     7
 10
15598.366937499981
 20
6903.6258549999966
 30
0.0
 40
160.0
  1
布基礎天端
 72
     4
 11
16057.033604166651
 21
6983.6258549999984
 31
0.0
  0
TEXT
  5
42D6
  8
2-0
  6
CONTINUOUS
 62
     7
 10
9898.7830575000098
 20
3638.6597025833762
 30
0.0
 40
160.0
  1
側 面 立 面 図
 72
     4
 11
10544.11639083334
 21
3718.6597025833762
 31
0.0
  0
TEXT
  5
42D7
  8
2-0
  6
CONTINUOUS
 62
     7
 10
11895.60857597094
 20
3665.855071583379
 30
0.0
 40
160.0
  1
1
 72
     4
 11
11922.27524263761
 21
3745.855071583379
 31
0.0
  0
TEXT
  5
42D8
  8
2-0
  6
CONTINUOUS
 62
     7
 10
12138.69729322165
 20
3585.8565395833748
 30
0.0
 40
160.0
  1
80
 72
     4
 11
12258.69729322165
 21
3665.8565395833748
 31
0.0
  0
TEXT
  5
42D9
  8
2-0
  6
CONTINUOUS
 62
     7
 10
11396.61054197096
 20
3638.6597025833762
 30
0.0
 40
160.0
  1
(S=  /   )
 72
     4
 11
11956.61054197096
 21
3718.6597025833762
 31
0.0
  0
LINE
  5
42DA
  8
0-1
  6
CONTINUOUS
 62
     3
 10
9064.3743395000256
 20
6665.7797690000016
 30
0.0
 11
9064.3743395000256
 21
8526.8256480000018
 31
0.0
  0
LINE
  5
42DB
  8
0-1
  6
CONTINUOUS
 62
     3
 10
9049.3755275000221
 20
6665.7797690000016
 30
0.0
 11
9049.3755275000221
 21
8526.8256480000018
 31
0.0
  0
LINE
  5
42DC
  8
0-5
  6
CONTINUOUS
 62
     4
 10
14297.373878500001
 20
4835.7801650000047
 30
0.0
 11
14297.373878500001
 21
4675.7806270000037
 31
0.0
  0
LINE
  5
42DD
  8
0-5
  6
CONTINUOUS
 62
     4
 10
11379.373878500001
 20
4835.7801650000047
 30
0.0
 11
11379.373878500001
 21
4675.7806270000037
 31
0.0
  0
LINE
  5
42DE
  8
0-5
  6
CONTINUOUS
 62
     4
 10
8811.8738785000005
 20
4835.7801650000047
 30
0.0
 11
8811.8738785000005
 21
4675.7806270000037
 31
0.0
  0
CIRCLE
  5
42DF
  8
0-5
  6
CONTINUOUS
 62
     4
 10
11379.373878500001
 20
4475.7794720000047
 30
0.0
 40
199.9999949999999
  0
CIRCLE
  5
42E0
  8
0-5
  6
CONTINUOUS
 62
     4
 10
14297.373878500001
 20
4475.7794720000047
 30
0.0
 40
199.9999949999999
  0
CIRCLE
  5
42E1
  8
0-5
  6
CONTINUOUS
 62
     4
 10
8811.8738785000005
 20
4475.7794720000047
 30
0.0
 40
199.9999949999999
  0
TEXT
  5
42E2
  8
0-5
  6
CONTINUOUS
 62
     7
 10
14250.417718499981
 20
4392.5686760000062
 30
0.0
 40
160.0
  1
A
 72
     4
 11
14303.75105183332
 21
4472.5686760000071
 31
0.0
  0
TEXT
  5
42E3
  8
0-5
  6
CONTINUOUS
 62
     7
 10
11332.417718499981
 20
4392.5686760000062
 30
0.0
 40
160.0
  1
B
 72
     4
 11
11385.75105183332
 21
4472.5686760000071
 31
0.0
  0
TEXT
  5
42E4
  8
0-5
  6
CONTINUOUS
 62
     7
 10
8764.9177185000062
 20
4392.5686760000062
 30
0.0
 40
160.0
  1
C
 72
     4
 11
8818.2510518333402
 21
4472.5686760000071
 31
0.0
  0
LINE
  5
42EF
  8
0-1
  6
CONTINUOUS
 62
     3
 10
26031.619139499991
 20
6615.7796039999957
 30
0.0
 11
25931.6197985
 21
6615.7796039999957
 31
0.0
  0
LINE
  5
42F0
  8
0-1
  6
CONTINUOUS
 62
     3
 10
25931.6197985
 20
6615.7796039999957
 30
0.0
 11
25931.6197985
 21
6515.7797690000016
 31
0.0
  0
LINE
  5
42F1
  8
0-1
  6
CONTINUOUS
 62
     3
 10
26031.619139499991
 20
6515.7797690000016
 30
0.0
 11
26031.619139499991
 21
6615.7796039999957
 31
0.0
  0
LINE
  5
42F2
  8
0-1
  6
CONTINUOUS
 62
     3
 10
26004.119666499992
 20
8964.2799530000029
 30
0.0
 11
26004.119666499992
 21
6615.7796039999957
 31
0.0
  0
LINE
  5
42F3
  8
0-1
  6
CONTINUOUS
 62
     3
 10
26024.118743499988
 20
8834.2790299999979
 30
0.0
 11
26024.118743499988
 21
6615.7796039999957
 31
0.0
  0
LINE
  5
42F4
  8
0-1
  6
CONTINUOUS
 62
     3
 10
25894.119798499989
 20
8523.7796629999975
 30
0.0
 11
25894.119798499989
 21
6515.7797690000016
 31
0.0
  0
LINE
  5
42F5
  8
0-1
  6
CONTINUOUS
 62
     3
 10
25939.120194499981
 20
8834.2790299999979
 30
0.0
 11
25939.120194499981
 21
6615.7796039999957
 31
0.0
  0
LINE
  5
42FE
  8
0-1
  6
CONTINUOUS
 62
     3
 10
22755.616763500009
 20
8834.2790299999979
 30
0.0
 11
22755.616763500009
 21
6515.7797690000016
 31
0.0
  0
LINE
  5
42FF
  8
0-1
  6
CONTINUOUS
 62
     3
 10
22800.61715950002
 20
8523.7796629999975
 30
0.0
 11
22800.61715950002
 21
6515.7797690000016
 31
0.0
  0
LINE
  5
4302
  8
0-1
  6
CONTINUOUS
 62
     3
 10
22800.61715950002
 20
8455.2393269999993
 30
0.0
 11
25894.119798499989
 21
8455.2393269999993
 31
0.0
  0
LINE
  5
4303
  8
0-1
  6
CONTINUOUS
 62
     3
 10
22800.61715950002
 20
7100.7804619999988
 30
0.0
 11
25894.119798499989
 21
7100.7804619999988
 31
0.0
  0
LINE
  5
4304
  8
0-1
  6
CONTINUOUS
 62
     3
 10
22800.61715950002
 20
7165.7794390000035
 30
0.0
 11
25894.119798499989
 21
7165.7794390000035
 31
0.0
  0
LINE
  5
4305
  8
0-1
  6
CONTINUOUS
 62
     3
 10
22800.61715950002
 20
7230.7799009999972
 30
0.0
 11
25894.119798499989
 21
7230.7799009999972
 31
0.0
  0
LINE
  5
4306
  8
0-1
  6
CONTINUOUS
 62
     3
 10
22800.61715950002
 20
7295.7798679999978
 30
0.0
 11
25894.119798499989
 21
7295.7798679999978
 31
0.0
  0
LINE
  5
4307
  8
0-1
  6
CONTINUOUS
 62
     3
 10
22800.61715950002
 20
7360.7798349999975
 30
0.0
 11
25894.119798499989
 21
7360.7798349999975
 31
0.0
  0
LINE
  5
4308
  8
0-1
  6
CONTINUOUS
 62
     3
 10
22800.61715950002
 20
7425.7798019999982
 30
0.0
 11
25894.119798499989
 21
7425.7798019999982
 31
0.0
  0
LINE
  5
4309
  8
0-1
  6
CONTINUOUS
 62
     3
 10
22800.61715950002
 20
7490.7802640000027
 30
0.0
 11
25894.119798499989
 21
7490.7802640000027
 31
0.0
  0
LINE
  5
430A
  8
0-1
  6
CONTINUOUS
 62
     3
 10
22800.61715950002
 20
7555.7792409999929
 30
0.0
 11
25894.119798499989
 21
7555.7792409999929
 31
0.0
  0
LINE
  5
430B
  8
0-1
  6
CONTINUOUS
 62
     3
 10
22800.61715950002
 20
7620.7797029999929
 30
0.0
 11
25894.119798499989
 21
7620.7797029999929
 31
0.0
  0
LINE
  5
430C
  8
0-1
  6
CONTINUOUS
 62
     3
 10
22800.61715950002
 20
7685.7796699999981
 30
0.0
 11
25894.119798499989
 21
7685.7796699999981
 31
0.0
  0
LINE
  5
430D
  8
0-1
  6
CONTINUOUS
 62
     3
 10
22800.61715950002
 20
7750.7801319999971
 30
0.0
 11
25894.119798499989
 21
7750.7801319999971
 31
0.0
  0
LINE
  5
430E
  8
0-1
  6
CONTINUOUS
 62
     3
 10
22800.61715950002
 20
7815.7791089999973
 30
0.0
 11
25894.119798499989
 21
7815.7791089999973
 31
0.0
  0
LINE
  5
430F
  8
0-1
  6
CONTINUOUS
 62
     3
 10
22800.61715950002
 20
7880.7795709999973
 30
0.0
 11
25894.119798499989
 21
7880.7795709999973
 31
0.0
  0
LINE
  5
4310
  8
0-1
  6
CONTINUOUS
 62
     3
 10
22800.61715950002
 20
7945.7795379999998
 30
0.0
 11
25894.119798499989
 21
7945.7795379999998
 31
0.0
  0
LINE
  5
4311
  8
0-1
  6
CONTINUOUS
 62
     3
 10
22800.61715950002
 20
8010.7795050000004
 30
0.0
 11
25894.119798499989
 21
8010.7795050000004
 31
0.0
  0
LINE
  5
4312
  8
0-1
  6
CONTINUOUS
 62
     3
 10
22800.61715950002
 20
8075.7799670000022
 30
0.0
 11
25894.119798499989
 21
8075.7799670000022
 31
0.0
  0
LINE
  5
4313
  8
0-1
  6
CONTINUOUS
 62
     3
 10
22800.61715950002
 20
8140.7799339999992
 30
0.0
 11
25894.119798499989
 21
8140.7799339999992
 31
0.0
  0
LINE
  5
4314
  8
0-1
  6
CONTINUOUS
 62
     3
 10
22800.61715950002
 20
8205.7803959999983
 30
0.0
 11
25894.119798499989
 21
8205.7803959999983
 31
0.0
  0
LINE
  5
4315
  8
0-1
  6
CONTINUOUS
 62
     3
 10
22800.61715950002
 20
8270.7793729999976
 30
0.0
 11
25894.119798499989
 21
8270.7793729999976
 31
0.0
  0
LINE
  5
4316
  8
0-1
  6
CONTINUOUS
 62
     3
 10
22800.61715950002
 20
8335.779835000003
 30
0.0
 11
25894.119798499989
 21
8335.779835000003
 31
0.0
  0
LINE
  5
4317
  8
0-1
  6
CONTINUOUS
 62
     3
 10
22800.61715950002
 20
8400.7798019999973
 30
0.0
 11
25894.119798499989
 21
8400.7798019999973
 31
0.0
  0
LINE
  5
4318
  8
0-1
  6
CONTINUOUS
 62
     3
 10
22800.61715950002
 20
6580.7792409999956
 30
0.0
 11
25894.119798499989
 21
6580.7792409999956
 31
0.0
  0
LINE
  5
4319
  8
0-1
  6
CONTINUOUS
 62
     3
 10
22800.61715950002
 20
6645.7801979999967
 30
0.0
 11
25894.119798499989
 21
6645.7801979999967
 31
0.0
  0
LINE
  5
431A
  8
0-1
  6
CONTINUOUS
 62
     3
 10
22800.61715950002
 20
6710.7791749999997
 30
0.0
 11
25894.119798499989
 21
6710.7791749999997
 31
0.0
  0
LINE
  5
431B
  8
0-1
  6
CONTINUOUS
 62
     3
 10
22800.61715950002
 20
6775.7801319999971
 30
0.0
 11
25894.119798499989
 21
6775.7801319999971
 31
0.0
  0
LINE
  5
431C
  8
0-1
  6
CONTINUOUS
 62
     3
 10
22800.61715950002
 20
6840.7796040000012
 30
0.0
 11
25894.119798499989
 21
6840.7796040000012
 31
0.0
  0
LINE
  5
431D
  8
0-1
  6
CONTINUOUS
 62
     3
 10
22800.61715950002
 20
6905.779571
 30
0.0
 11
25894.119798499989
 21
6905.779571
 31
0.0
  0
LINE
  5
431E
  8
0-1
  6
CONTINUOUS
 62
     3
 10
22800.61715950002
 20
6970.7795379999989
 30
0.0
 11
25894.119798499989
 21
6970.7795379999989
 31
0.0
  0
LINE
  5
431F
  8
0-1
  6
CONTINUOUS
 62
     3
 10
22800.61715950002
 20
7035.7790099999966
 30
0.0
 11
25894.119798499989
 21
7035.7790099999966
 31
0.0
  0
LINE
  5
4321
  8
0-1
  6
CONTINUOUS
 62
     3
 10
22755.616763500009
 20
8523.7796629999975
 30
0.0
 11
25939.120194499981
 21
8523.7796629999975
 31
0.0
  0
LINE
  5
4322
  8
0-1
  6
CONTINUOUS
 62
     3
 10
19394.617820499989
 20
6515.7797690000016
 30
0.0
 11
26031.619139499991
 21
6515.7797690000016
 31
0.0
  0
LINE
  5
432C
  8
0-1
  6
CONTINUOUS
 62
     3
 10
22670.618215499991
 20
8834.2790299999979
 30
0.0
 11
22670.618215499991
 21
6515.7797690000016
 31
0.0
  0
LINE
  5
432D
  8
0-1
  6
CONTINUOUS
 62
     3
 10
22625.61979949996
 20
8523.7796629999975
 30
0.0
 11
22625.61979949996
 21
6515.7797690000016
 31
0.0
  0
LINE
  5
4338
  8
0-1
  6
CONTINUOUS
 62
     3
 10
19494.619139499991
 20
6615.7796039999957
 30
0.0
 11
19494.619139499991
 21
6515.7797690000016
 31
0.0
  0
LINE
  5
4339
  8
0-1
  6
CONTINUOUS
 62
     3
 10
19394.617820499989
 20
6515.7797690000016
 30
0.0
 11
19394.617820499989
 21
6615.7796039999957
 31
0.0
  0
LINE
  5
433A
  8
0-1
  6
CONTINUOUS
 62
     3
 10
19394.617820499989
 20
6615.7796039999957
 30
0.0
 11
19494.619139499991
 21
6615.7796039999957
 31
0.0
  0
LINE
  5
433B
  8
0-1
  6
CONTINUOUS
 62
     3
 10
19532.119139499991
 20
8523.7796629999975
 30
0.0
 11
19532.119139499991
 21
6515.7797690000016
 31
0.0
  0
LINE
  5
433C
  8
0-1
  6
CONTINUOUS
 62
     3
 10
19487.116764499991
 20
8834.2790299999979
 30
0.0
 11
19487.116764499991
 21
6615.7796039999957
 31
0.0
  0
LINE
  5
433D
  8
0-1
  6
CONTINUOUS
 62
     3
 10
19422.119271499982
 20
8964.2799530000029
 30
0.0
 11
19422.119271499982
 21
6615.7796039999957
 31
0.0
  0
LINE
  5
433E
  8
0-1
  6
CONTINUOUS
 62
     3
 10
19402.116236499991
 20
8834.2790299999979
 30
0.0
 11
19402.116236499991
 21
6615.7796039999957
 31
0.0
  0
LINE
  5
433F
  8
0-1
  6
CONTINUOUS
 62
     3
 10
19487.116764499991
 20
8523.7796629999975
 30
0.0
 11
22670.618215499991
 21
8523.7796629999975
 31
0.0
  0
LINE
  5
4341
  8
0-1
  6
CONTINUOUS
 62
     3
 10
19532.119139499991
 20
7035.7790099999966
 30
0.0
 11
22625.61979949996
 21
7035.7790099999966
 31
0.0
  0
LINE
  5
4342
  8
0-1
  6
CONTINUOUS
 62
     3
 10
19532.119139499991
 20
6970.7795379999989
 30
0.0
 11
22625.61979949996
 21
6970.7795379999989
 31
0.0
  0
LINE
  5
4343
  8
0-1
  6
CONTINUOUS
 62
     3
 10
19532.119139499991
 20
6905.779571
 30
0.0
 11
22625.61979949996
 21
6905.779571
 31
0.0
  0
LINE
  5
4344
  8
0-1
  6
CONTINUOUS
 62
     3
 10
19532.119139499991
 20
6840.7796040000012
 30
0.0
 11
22625.61979949996
 21
6840.7796040000012
 31
0.0
  0
LINE
  5
4345
  8
0-1
  6
CONTINUOUS
 62
     3
 10
19532.119139499991
 20
6775.7801319999971
 30
0.0
 11
22625.61979949996
 21
6775.7801319999971
 31
0.0
  0
LINE
  5
4346
  8
0-1
  6
CONTINUOUS
 62
     3
 10
19532.119139499991
 20
6710.7791749999997
 30
0.0
 11
22625.61979949996
 21
6710.7791749999997
 31
0.0
  0
LINE
  5
4347
  8
0-1
  6
CONTINUOUS
 62
     3
 10
19532.119139499991
 20
6645.7801979999967
 30
0.0
 11
22625.61979949996
 21
6645.7801979999967
 31
0.0
  0
LINE
  5
4348
  8
0-1
  6
CONTINUOUS
 62
     3
 10
19532.119139499991
 20
6580.7792409999956
 30
0.0
 11
22625.61979949996
 21
6580.7792409999956
 31
0.0
  0
LINE
  5
4349
  8
0-1
  6
CONTINUOUS
 62
     3
 10
19532.119139499991
 20
8400.7798019999973
 30
0.0
 11
22625.61979949996
 21
8400.7798019999973
 31
0.0
  0
LINE
  5
434A
  8
0-1
  6
CONTINUOUS
 62
     3
 10
19532.119139499991
 20
8335.779835000003
 30
0.0
 11
22625.61979949996
 21
8335.779835000003
 31
0.0
  0
LINE
  5
434B
  8
0-1
  6
CONTINUOUS
 62
     3
 10
19532.119139499991
 20
8270.7793729999976
 30
0.0
 11
22625.61979949996
 21
8270.7793729999976
 31
0.0
  0
LINE
  5
434C
  8
0-1
  6
CONTINUOUS
 62
     3
 10
19532.119139499991
 20
8205.7803959999983
 30
0.0
 11
22625.61979949996
 21
8205.7803959999983
 31
0.0
  0
LINE
  5
434D
  8
0-1
  6
CONTINUOUS
 62
     3
 10
19532.119139499991
 20
8140.7799339999992
 30
0.0
 11
22625.61979949996
 21
8140.7799339999992
 31
0.0
  0
LINE
  5
434E
  8
0-1
  6
CONTINUOUS
 62
     3
 10
19532.119139499991
 20
8075.7799670000022
 30
0.0
 11
22625.61979949996
 21
8075.7799670000022
 31
0.0
  0
LINE
  5
434F
  8
0-1
  6
CONTINUOUS
 62
     3
 10
19532.119139499991
 20
8010.7795050000004
 30
0.0
 11
22625.61979949996
 21
8010.7795050000004
 31
0.0
  0
LINE
  5
4350
  8
0-1
  6
CONTINUOUS
 62
     3
 10
19532.119139499991
 20
7945.7795379999998
 30
0.0
 11
22625.61979949996
 21
7945.7795379999998
 31
0.0
  0
LINE
  5
4351
  8
0-1
  6
CONTINUOUS
 62
     3
 10
19532.119139499991
 20
7880.7795709999973
 30
0.0
 11
22625.61979949996
 21
7880.7795709999973
 31
0.0
  0
LINE
  5
4352
  8
0-1
  6
CONTINUOUS
 62
     3
 10
19532.119139499991
 20
7815.7791089999973
 30
0.0
 11
22625.61979949996
 21
7815.7791089999973
 31
0.0
  0
LINE
  5
4353
  8
0-1
  6
CONTINUOUS
 62
     3
 10
19532.119139499991
 20
7750.7801319999971
 30
0.0
 11
22625.61979949996
 21
7750.7801319999971
 31
0.0
  0
LINE
  5
4354
  8
0-1
  6
CONTINUOUS
 62
     3
 10
19532.119139499991
 20
7685.7796699999981
 30
0.0
 11
22625.61979949996
 21
7685.7796699999981
 31
0.0
  0
LINE
  5
4355
  8
0-1
  6
CONTINUOUS
 62
     3
 10
19532.119139499991
 20
7620.7797029999929
 30
0.0
 11
22625.61979949996
 21
7620.7797029999929
 31
0.0
  0
LINE
  5
4356
  8
0-1
  6
CONTINUOUS
 62
     3
 10
19532.119139499991
 20
7555.7792409999929
 30
0.0
 11
22625.61979949996
 21
7555.7792409999929
 31
0.0
  0
LINE
  5
4357
  8
0-1
  6
CONTINUOUS
 62
     3
 10
19532.119139499991
 20
7490.7802640000027
 30
0.0
 11
22625.61979949996
 21
7490.7802640000027
 31
0.0
  0
LINE
  5
4358
  8
0-1
  6
CONTINUOUS
 62
     3
 10
19532.119139499991
 20
7425.7798019999982
 30
0.0
 11
22625.61979949996
 21
7425.7798019999982
 31
0.0
  0
LINE
  5
4359
  8
0-1
  6
CONTINUOUS
 62
     3
 10
19532.119139499991
 20
7360.7798349999975
 30
0.0
 11
22625.61979949996
 21
7360.7798349999975
 31
0.0
  0
LINE
  5
435A
  8
0-1
  6
CONTINUOUS
 62
     3
 10
19532.119139499991
 20
7295.7798679999978
 30
0.0
 11
22625.61979949996
 21
7295.7798679999978
 31
0.0
  0
LINE
  5
435B
  8
0-1
  6
CONTINUOUS
 62
     3
 10
19532.119139499991
 20
7230.7799009999972
 30
0.0
 11
22625.61979949996
 21
7230.7799009999972
 31
0.0
  0
LINE
  5
435C
  8
0-1
  6
CONTINUOUS
 62
     3
 10
19532.119139499991
 20
7165.7794390000035
 30
0.0
 11
22625.61979949996
 21
7165.7794390000035
 31
0.0
  0
LINE
  5
435D
  8
0-1
  6
CONTINUOUS
 62
     3
 10
19532.119139499991
 20
7100.7804619999988
 30
0.0
 11
22625.61979949996
 21
7100.7804619999988
 31
0.0
  0
LINE
  5
435E
  8
0-1
  6
CONTINUOUS
 62
     3
 10
19532.119139499991
 20
8455.2393269999993
 30
0.0
 11
22625.61979949996
 21
8455.2393269999993
 31
0.0
  0
LINE
  5
4364
  8
0-2
  6
CONTINUOUS
 62
     4
 10
24711.060479500011
 20
7263.0054729999974
 30
0.0
 11
24611.061139500001
 21
7263.0054729999974
 31
0.0
  0
LINE
  5
4365
  8
0-2
  6
CONTINUOUS
 62
     4
 10
23983.674499500001
 20
7263.0054729999974
 30
0.0
 11
24083.673840499989
 21
7263.0054729999974
 31
0.0
  0
LINE
  5
4366
  8
0-2
  6
CONTINUOUS
 62
     4
 10
21442.55949
 20
7263.0054729999974
 30
0.0
 11
21342.560150000001
 21
7263.0054729999974
 31
0.0
  0
LINE
  5
4367
  8
0-2
  6
CONTINUOUS
 62
     4
 10
20715.175489000001
 20
7263.0054729999974
 30
0.0
 11
20815.172849999992
 21
7263.0054729999974
 31
0.0
  0
LINE
  5
4368
  8
0-5
  6
CONTINUOUS
 62
     4
 10
22713.118479499979
 20
4835.7796699999972
 30
0.0
 11
22713.118479499979
 21
4675.7796369999969
 31
0.0
  0
LINE
  5
4369
  8
0-5
  6
CONTINUOUS
 62
     4
 10
19444.61847949999
 20
4835.7796699999972
 30
0.0
 11
19444.61847949999
 21
4675.7796369999969
 31
0.0
  0
LINE
  5
436A
  8
2-0
  6
CENTER2
 62
     6
 10
25981.61847949999
 20
6253.1273459999966
 30
0.0
 11
25981.61847949999
 21
7290.2693829999998
 31
0.0
  0
LINE
  5
436B
  8
2-0
  6
CENTER2
 62
     6
 10
22713.118479499979
 20
6253.1273459999966
 30
0.0
 11
22713.118479499979
 21
7290.2693829999998
 31
0.0
  0
LINE
  5
436C
  8
2-0
  6
CENTER2
 62
     6
 10
19444.61847949999
 20
6253.1273459999966
 30
0.0
 11
19444.61847949999
 21
7290.2693829999998
 31
0.0
  0
CIRCLE
  5
437D
  8
0-5
  6
CONTINUOUS
 62
     4
 10
22713.118479499979
 20
4475.7799669999986
 30
0.0
 40
199.9999949999999
  0
CIRCLE
  5
437E
  8
0-5
  6
CONTINUOUS
 62
     4
 10
19444.61847949999
 20
4475.7799669999986
 30
0.0
 40
199.9999949999999
  0
TEXT
  5
437F
  8
0-5
  6
CONTINUOUS
 62
     7
 10
18826.4425405
 20
7245.1400157419948
 30
0.0
 40
160.0
  1
(2131.5)
 50
90.0
 72
     4
 11
18746.4425405
 21
7698.4733490753279
 31
0.0
  0
TEXT
  5
4380
  8
0-5
  6
CONTINUOUS
 62
     7
 10
22666.190032499992
 20
4389.2500129999971
 30
0.0
 40
160.0
  1
2
 72
     4
 11
22719.52336583332
 21
4469.2500129999971
 31
0.0
  0
TEXT
  5
4381
  8
0-5
  6
CONTINUOUS
 62
     7
 10
19397.68607349999
 20
4389.2500129999971
 30
0.0
 40
160.0
  1
1
 72
     4
 11
19424.352740166662
 21
4469.2500129999971
 31
0.0
  0
CIRCLE
  5
4382
  8
0-4
  6
CONTINUOUS
 62
     4
 10
21078.86847949999
 20
7001.8357099999976
 30
0.0
 40
18.487504999999981
  0
CIRCLE
  5
4383
  8
0-4
  6
CONTINUOUS
 62
     4
 10
24347.368479500001
 20
7001.8357099999976
 30
0.0
 40
18.487504999999981
  0
LINE
  5
4384
  8
SUNPOU
  6
CONTINUOUS
 10
19162.118479499979
 20
5315.7797690000016
 30
0.0
 11
18804.163472778881
 21
5315.7797690000016
 31
0.0
  0
LINE
  5
4385
  8
SUNPOU
  6
CONTINUOUS
 10
26264.122438499991
 20
5315.7797690000016
 30
0.0
 11
26622.077445221112
 21
5315.7797690000016
 31
0.0
  0
LINE
  5
4386
  8
0-5
  6
CONTINUOUS
 62
     4
 10
26024.118479500001
 20
4835.7796699999972
 30
0.0
 11
26024.118479500001
 21
4675.7796369999969
 31
0.0
  0
CIRCLE
  5
4387
  8
0-5
  6
CONTINUOUS
 62
     4
 10
26024.118479500001
 20
4475.7799669999986
 30
0.0
 40
199.9999949999999
  0
TEXT
  5
4388
  8
0-5
  6
CONTINUOUS
 62
     7
 10
25977.190032499999
 20
4389.2500129999971
 30
0.0
 40
160.0
  1
3
 72
     4
 11
26030.523365833331
 21
4469.2500129999971
 31
0.0
  0
TEXT
  5
4389
  8
2-0
  6
CONTINUOUS
 62
     7
 10
21395.084735499979
 20
3638.6581370000022
 30
0.0
 40
160.0
  1
正 面 立 面 図
 50
0.000139
 72
     4
 11
22040.417874750801
 21
3718.6597025833762
 31
0.0
  0
TEXT
  5
438A
  8
2-0
  6
CONTINUOUS
 62
     7
 10
23391.91005988844
 20
3665.855071583379
 30
0.0
 40
160.0
  1
1
 72
     4
 11
23418.576726555111
 21
3745.855071583379
 31
0.0
  0
TEXT
  5
438B
  8
2-0
  6
CONTINUOUS
 62
     7
 10
23634.998777139121
 20
3585.8565395833748
 30
0.0
 40
160.0
  1
80
 72
     4
 11
23754.998777139121
 21
3665.8565395833748
 31
0.0
  0
TEXT
  5
438C
  8
2-0
  6
CONTINUOUS
 62
     7
 10
22892.912025888429
 20
3638.6597025833762
 30
0.0
 40
160.0
  1
(S=  /   )
 72
     4
 11
23452.912025888429
 21
3718.6597025833762
 31
0.0
  0
LINE
  5
438D
  8
0-5
  6
CONTINUOUS
 62
     4
 10
17222.749419499982
 20
6723.625261000001
 30
0.0
 11
17342.745856499991
 21
6515.7797690000016
 31
0.0
  0
LINE
  5
438E
  8
0-5
  6
CONTINUOUS
 62
     4
 10
17342.745856499991
 20
6515.7797690000016
 30
0.0
 11
17462.746252499979
 21
6723.625261000001
 31
0.0
  0
LINE
  5
438F
  8
0-5
  6
CONTINUOUS
 62
     4
 10
17462.746252499979
 20
6723.625261000001
 30
0.0
 11
17222.749419499982
 21
6723.625261000001
 31
0.0
  0
TEXT
  5
4390
  8
0-5
  6
CONTINUOUS
 62
     7
 10
17222.749419499982
 20
6803.6260190000021
 30
0.0
 40
160.0
  1
G.L
 72
     4
 11
17382.749419499982
 21
6883.6260190000021
 31
0.0
  0
LINE
  5
4391
  8
SUNPOU
  6
CONTINUOUS
 10
8589.3738785000023
 20
9763.7812800000029
 30
0.0
 11
8053.2482369121444
 21
9763.7812800000029
 31
0.0
  0
TEXT
  5
4392
  8
2-0
  6
CONTINUOUS
 62
     7
 10
21632.192382500001
 20
12154.23951899999
 30
0.0
 40
160.0
  1
平　面　図
 50
359.99978700000008
 72
     4
 11
22085.525993407369
 21
12228.90450037622
 31
0.0
  0
TEXT
  5
4393
  8
2-0
  6
CONTINUOUS
 62
     7
 10
23437.018178544989
 20
12176.09986937623
 30
0.0
 40
160.0
  1
1
 72
     4
 11
23463.684845211661
 21
12256.09986937623
 31
0.0
  0
TEXT
  5
4394
  8
2-0
  6
CONTINUOUS
 62
     7
 10
23680.106895795681
 20
12096.101337376231
 30
0.0
 40
160.0
  1
80
 72
     4
 11
23800.106895795681
 21
12176.101337376231
 31
0.0
  0
TEXT
  5
4395
  8
2-0
  6
CONTINUOUS
 62
     7
 10
22938.020144544978
 20
12148.90450037622
 30
0.0
 40
160.0
  1
(S=  /   )
 72
     4
 11
23498.020144544978
 21
12228.90450037622
 31
0.0
  0
LINE
  5
4396
  8
2-0
  6
CONTINUOUS
 62
     6
 10
24298.45956349999
 20
13766.229791999989
 30
0.0
 11
25298.452965499961
 21
13766.229791999989
 31
0.0
  0
LINE
  5
4397
  8
2-0
  6
CONTINUOUS
 62
     6
 10
25766.393342499981
 20
14236.650506
 30
0.0
 11
25298.452965499961
 21
13766.229791999989
 31
0.0
  0
LINE
  5
4398
  8
2-0
  6
CONTINUOUS
 62
     6
 10
24315.170659499981
 20
18445.349857000001
 30
0.0
 11
25333.146007499981
 21
18445.349857000001
 31
0.0
  0
LINE
  5
4399
  8
2-0
  6
CONTINUOUS
 62
     6
 10
25789.571525499981
 20
18670.064805999991
 30
0.0
 11
25333.146007499981
 21
18445.349857000001
 31
0.0
  0
LINE
  5
439A
  8
2-0
  6
CONTINUOUS
 62
     6
 10
25727.753139499979
 20
17428.25815300001
 30
0.0
 11
25423.05772149999
 21
17531.911684000021
 31
0.0
  0
LINE
  5
439B
  8
2-0
  6
CONTINUOUS
 62
     6
 10
25882.775178499949
 20
16938.636109000021
 30
0.0
 11
25423.05772149999
 21
16694.722797999999
 31
0.0
  0
LINE
  5
439C
  8
2-0
  6
CONTINUOUS
 62
     6
 10
24503.054686499981
 20
16694.722797999999
 30
0.0
 11
25423.05772149999
 21
16694.722797999999
 31
0.0
  0
LINE
  5
439D
  8
2-0
  6
CONTINUOUS
 62
     6
 10
24223.063659499989
 20
17531.911684000021
 30
0.0
 11
25423.05772149999
 21
17531.911684000021
 31
0.0
  0
LINE
  5
439E
  8
2-0
  6
CONTINUOUS
 62
     6
 10
25798.952463499991
 20
14558.334151999979
 30
0.0
 11
25423.05772149999
 21
14739.277986999999
 31
0.0
  0
LINE
  5
439F
  8
2-0
  6
CONTINUOUS
 62
     6
 10
24315.170659499981
 20
15527.58739900002
 30
0.0
 11
25333.146007499981
 21
15527.58739900002
 31
0.0
  0
LINE
  5
43A0
  8
2-0
  6
CONTINUOUS
 62
     6
 10
24903.056005499991
 20
14739.277986999999
 30
0.0
 11
25423.05772149999
 21
14739.277986999999
 31
0.0
  0
LINE
  5
43A1
  8
2-0
  6
CONTINUOUS
 62
     6
 10
25789.571525499981
 20
15752.30036900001
 30
0.0
 11
25333.146007499981
 21
15527.58739900002
 31
0.0
  0
LINE
  5
43A2
  8
2-0
  6
CONTINUOUS
 62
     4
 10
22713.118479499979
 20
20014.231442000018
 30
0.0
 11
22713.118479499979
 21
20744.228406999999
 31
0.0
  0
LINE
  5
43A3
  8
2-0
  6
CONTINUOUS
 62
     3
 10
25994.119139499991
 20
19825.228987999999
 30
0.0
 11
25994.119139499991
 21
19819.23302600002
 31
0.0
  0
LINE
  5
43A4
  8
2-0
  6
CONTINUOUS
 62
     3
 10
25994.119139499991
 20
19819.23302600002
 30
0.0
 11
26024.116763499991
 21
19819.23302600002
 31
0.0
  0
LINE
  5
43A5
  8
2-0
  6
CONTINUOUS
 62
     3
 10
26024.116763499991
 20
19849.23263000001
 30
0.0
 11
25943.114863499992
 21
19849.23263000001
 31
0.0
  0
LINE
  5
43A6
  8
2-0
  6
CONTINUOUS
 62
     3
 10
25994.119139499991
 20
19808.935570000001
 30
0.0
 11
26024.116763499991
 21
19808.935570000001
 31
0.0
  0
LINE
  5
43A7
  8
2-0
  6
CONTINUOUS
 62
     3
 10
25994.119139499991
 20
19826.93731200002
 30
0.0
 11
25994.119139499991
 21
19808.935570000001
 31
0.0
  0
LINE
  5
43A8
  8
2-0
  6
CONTINUOUS
 62
     3
 10
26019.116499499989
 20
19826.93731200002
 30
0.0
 11
25994.119139499991
 21
19826.93731200002
 31
0.0
  0
LINE
  5
43A9
  8
2-0
  6
CONTINUOUS
 62
     3
 10
26019.116499499989
 20
19821.929130000019
 30
0.0
 11
26019.116499499989
 21
19826.93731200002
 31
0.0
  0
LINE
  5
43AA
  8
2-0
  6
CONTINUOUS
 62
     3
 10
26012.1149425
 20
19821.929130000019
 30
0.0
 11
26019.116499499989
 21
19821.929130000019
 31
0.0
  0
LINE
  5
43AB
  8
2-0
  6
CONTINUOUS
 62
     3
 10
25911.818674499991
 20
19922.229357000011
 30
0.0
 11
25911.818674499991
 21
19929.234873000001
 31
0.0
  0
LINE
  5
43AC
  8
2-0
  6
CONTINUOUS
 62
     3
 10
25911.818674499991
 20
19929.234873000001
 30
0.0
 11
25916.81893849996
 21
19929.234873000001
 31
0.0
  0
LINE
  5
43AD
  8
2-0
  6
CONTINUOUS
 62
     3
 10
25916.81893849996
 20
19929.234873000001
 30
0.0
 11
25916.81893849996
 21
19904.22563600001
 31
0.0
  0
LINE
  5
43AE
  8
2-0
  6
CONTINUOUS
 62
     3
 10
25916.81893849996
 20
19904.22563600001
 30
0.0
 11
25898.817196499971
 21
19904.22563600001
 31
0.0
  0
LINE
  5
43AF
  8
2-0
  6
CONTINUOUS
 62
     3
 10
25898.817196499971
 20
19904.22563600001
 30
0.0
 11
25898.817196499971
 21
19934.229199000009
 31
0.0
  0
LINE
  5
43B0
  8
2-0
  6
CONTINUOUS
 62
     3
 10
25909.1146525
 20
19934.229199000009
 30
0.0
 11
26024.116763499991
 21
19934.229199000009
 31
0.0
  0
LINE
  5
43B1
  8
2-0
  6
CONTINUOUS
 62
     3
 10
25909.1146525
 20
19904.22563600001
 30
0.0
 11
25909.1146525
 21
19934.229199000009
 31
0.0
  0
LINE
  5
43B2
  8
2-0
  6
CONTINUOUS
 62
     3
 10
25915.116552499981
 20
19904.22563600001
 30
0.0
 11
25909.1146525
 21
19904.22563600001
 31
0.0
  0
LINE
  5
43B3
  8
2-0
  6
CONTINUOUS
 62
     3
 10
26012.1149425
 20
19468.632307499978
 30
0.0
 11
26019.116499499989
 21
19468.632307499978
 31
0.0
  0
LINE
  5
43B4
  8
2-0
  6
CONTINUOUS
 62
     3
 10
26019.116499499989
 20
19468.632307499978
 30
0.0
 11
26019.116499499989
 21
19473.632571499991
 31
0.0
  0
LINE
  5
43B5
  8
2-0
  6
CONTINUOUS
 62
     3
 10
26019.116499499989
 20
19473.632571499991
 30
0.0
 11
25994.119139499991
 21
19473.632571499991
 31
0.0
  0
LINE
  5
43B6
  8
2-0
  6
CONTINUOUS
 62
     3
 10
25994.119139499991
 20
19473.632571499991
 30
0.0
 11
25994.119139499991
 21
19455.6367675
 31
0.0
  0
LINE
  5
43B7
  8
2-0
  6
CONTINUOUS
 62
     3
 10
25994.119139499991
 20
19455.6367675
 30
0.0
 11
26024.116763499991
 21
19455.6367675
 31
0.0
  0
LINE
  5
43B8
  8
2-0
  6
CONTINUOUS
 62
     3
 10
25994.119139499991
 20
19471.728274499968
 30
0.0
 11
25994.119139499991
 21
19465.730333499989
 31
0.0
  0
LINE
  5
43B9
  8
2-0
  6
CONTINUOUS
 62
     3
 10
25994.119139499991
 20
19465.730333499989
 30
0.0
 11
26024.116763499991
 21
19465.730333499989
 31
0.0
  0
LINE
  5
43BA
  8
2-0
  6
CONTINUOUS
 62
     3
 10
26024.116763499991
 20
19465.730333499989
 30
0.0
 11
26024.116763499991
 21
19502.7314945
 31
0.0
  0
LINE
  5
43BB
  8
2-0
  6
CONTINUOUS
 62
     3
 10
25994.119139499991
 20
19502.7314945
 30
0.0
 11
26024.116763499991
 21
19502.7314945
 31
0.0
  0
LINE
  5
43BC
  8
2-0
  6
CONTINUOUS
 62
     3
 10
25994.119139499991
 20
19496.727614499981
 30
0.0
 11
25994.119139499991
 21
19502.7314945
 31
0.0
  0
LINE
  5
43BD
  8
2-0
  6
CONTINUOUS
 62
     3
 10
25994.119139499991
 20
19512.827039499982
 30
0.0
 11
26024.116763499991
 21
19512.827039499982
 31
0.0
  0
LINE
  5
43BE
  8
2-0
  6
CONTINUOUS
 62
     3
 10
25994.119139499991
 20
19494.8252975
 30
0.0
 11
25994.119139499991
 21
19512.827039499982
 31
0.0
  0
LINE
  5
43BF
  8
2-0
  6
CONTINUOUS
 62
     3
 10
26019.116499499989
 20
19494.8252975
 30
0.0
 11
25994.119139499991
 21
19494.8252975
 31
0.0
  0
LINE
  5
43C0
  8
2-0
  6
CONTINUOUS
 62
     3
 10
26019.116499499989
 20
19499.825561500002
 30
0.0
 11
26019.116499499989
 21
19494.8252975
 31
0.0
  0
LINE
  5
43C1
  8
2-0
  6
CONTINUOUS
 62
     3
 10
26012.1149425
 20
19499.825561500002
 30
0.0
 11
26019.116499499989
 21
19499.825561500002
 31
0.0
  0
LINE
  5
43C2
  8
2-0
  6
CONTINUOUS
 62
     3
 10
26012.1149425
 20
18767.631318
 30
0.0
 11
26019.116499499989
 21
18767.631318
 31
0.0
  0
LINE
  5
43C3
  8
2-0
  6
CONTINUOUS
 62
     3
 10
26019.116499499989
 20
18767.631318
 30
0.0
 11
26019.116499499989
 21
18772.63752
 31
0.0
  0
LINE
  5
43C4
  8
2-0
  6
CONTINUOUS
 62
     3
 10
26019.116499499989
 20
18772.63752
 30
0.0
 11
25994.119139499991
 21
18772.63752
 31
0.0
  0
LINE
  5
43C5
  8
2-0
  6
CONTINUOUS
 62
     3
 10
25994.119139499991
 20
18772.63752
 30
0.0
 11
25994.119139499991
 21
18754.635778
 31
0.0
  0
LINE
  5
43C6
  8
2-0
  6
CONTINUOUS
 62
     3
 10
25994.119139499991
 20
18754.635778
 30
0.0
 11
26024.116763499991
 21
18754.635778
 31
0.0
  0
LINE
  5
43C7
  8
2-0
  6
CONTINUOUS
 62
     3
 10
25994.119139499991
 20
18770.72728499999
 30
0.0
 11
25994.119139499991
 21
18764.731323
 31
0.0
  0
LINE
  5
43C8
  8
2-0
  6
CONTINUOUS
 62
     3
 10
25994.119139499991
 20
18764.731323
 30
0.0
 11
26024.116763499991
 21
18764.731323
 31
0.0
  0
LINE
  5
43C9
  8
2-0
  6
CONTINUOUS
 62
     3
 10
26024.116763499991
 20
18764.731323
 30
0.0
 11
26024.116763499991
 21
18801.730505
 31
0.0
  0
LINE
  5
43CA
  8
2-0
  6
CONTINUOUS
 62
     3
 10
25994.119139499991
 20
18801.730505
 30
0.0
 11
26024.116763499991
 21
18801.730505
 31
0.0
  0
LINE
  5
43CB
  8
2-0
  6
CONTINUOUS
 62
     3
 10
25994.119139499991
 20
18795.73454300001
 30
0.0
 11
25994.119139499991
 21
18801.730505
 31
0.0
  0
LINE
  5
43CC
  8
2-0
  6
CONTINUOUS
 62
     3
 10
25994.119139499991
 20
18811.82605
 30
0.0
 11
26024.116763499991
 21
18811.82605
 31
0.0
  0
LINE
  5
43CD
  8
2-0
  6
CONTINUOUS
 62
     3
 10
25994.119139499991
 20
18793.824307999988
 30
0.0
 11
25994.119139499991
 21
18811.82605
 31
0.0
  0
LINE
  5
43CE
  8
2-0
  6
CONTINUOUS
 62
     3
 10
26019.116499499989
 20
18793.824307999988
 30
0.0
 11
25994.119139499991
 21
18793.824307999988
 31
0.0
  0
LINE
  5
43CF
  8
2-0
  6
CONTINUOUS
 62
     3
 10
26019.116499499989
 20
18798.83051
 30
0.0
 11
26019.116499499989
 21
18793.824307999988
 31
0.0
  0
LINE
  5
43D0
  8
2-0
  6
CONTINUOUS
 62
     3
 10
26012.1149425
 20
18798.83051
 30
0.0
 11
26019.116499499989
 21
18798.83051
 31
0.0
  0
LINE
  5
43D1
  8
2-0
  6
CONTINUOUS
 62
     3
 10
26012.1149425
 20
18097.824572000001
 30
0.0
 11
26019.116499499989
 21
18097.824572000001
 31
0.0
  0
LINE
  5
43D2
  8
2-0
  6
CONTINUOUS
 62
     3
 10
26019.116499499989
 20
18097.824572000001
 30
0.0
 11
26019.116499499989
 21
18092.836185
 31
0.0
  0
LINE
  5
43D3
  8
2-0
  6
CONTINUOUS
 62
     3
 10
26019.116499499989
 20
18092.836185
 30
0.0
 11
25994.119139499991
 21
18092.836185
 31
0.0
  0
LINE
  5
43D4
  8
2-0
  6
CONTINUOUS
 62
     3
 10
25994.119139499991
 20
18092.836185
 30
0.0
 11
25994.119139499991
 21
18110.831988000002
 31
0.0
  0
LINE
  5
43D5
  8
2-0
  6
CONTINUOUS
 62
     3
 10
25994.119139499991
 20
18110.831988000002
 30
0.0
 11
26024.116763499991
 21
18110.831988000002
 31
0.0
  0
LINE
  5
43D6
  8
2-0
  6
CONTINUOUS
 62
     3
 10
25994.119139499991
 20
18094.734542999991
 30
0.0
 11
25994.119139499991
 21
18100.730504999989
 31
0.0
  0
LINE
  5
43D7
  8
2-0
  6
CONTINUOUS
 62
     3
 10
25994.119139499991
 20
18100.730504999989
 30
0.0
 11
26024.116763499991
 21
18100.730504999989
 31
0.0
  0
LINE
  5
43D8
  8
2-0
  6
CONTINUOUS
 62
     3
 10
26024.116763499991
 20
18100.730504999989
 30
0.0
 11
26024.116763499991
 21
18063.731323
 31
0.0
  0
LINE
  5
43D9
  8
2-0
  6
CONTINUOUS
 62
     3
 10
25994.119139499991
 20
18063.731323
 30
0.0
 11
26024.116763499991
 21
18063.731323
 31
0.0
  0
LINE
  5
43DA
  8
2-0
  6
CONTINUOUS
 62
     3
 10
25994.119139499991
 20
18069.733224
 30
0.0
 11
25994.119139499991
 21
18063.731323
 31
0.0
  0
LINE
  5
43DB
  8
2-0
  6
CONTINUOUS
 62
     3
 10
25994.119139499991
 20
18053.641716999991
 30
0.0
 11
26024.116763499991
 21
18053.641716999991
 31
0.0
  0
LINE
  5
43DC
  8
2-0
  6
CONTINUOUS
 62
     3
 10
25994.119139499991
 20
18071.63752
 30
0.0
 11
25994.119139499991
 21
18053.641716999991
 31
0.0
  0
LINE
  5
43DD
  8
2-0
  6
CONTINUOUS
 62
     3
 10
26019.116499499989
 20
18071.63752
 30
0.0
 11
25994.119139499991
 21
18071.63752
 31
0.0
  0
LINE
  5
43DE
  8
2-0
  6
CONTINUOUS
 62
     3
 10
26019.116499499989
 20
18066.637256999998
 30
0.0
 11
26019.116499499989
 21
18071.63752
 31
0.0
  0
LINE
  5
43DF
  8
2-0
  6
CONTINUOUS
 62
     3
 10
26012.1149425
 20
18066.637256999998
 30
0.0
 11
26019.116499499989
 21
18066.637256999998
 31
0.0
  0
LINE
  5
43E0
  8
2-0
  6
CONTINUOUS
 62
     3
 10
26021.2306255
 20
17346.728143
 30
0.0
 11
26021.2306255
 21
17366.72919799999
 31
0.0
  0
LINE
  5
43E1
  8
2-0
  6
CONTINUOUS
 62
     3
 10
26021.2306255
 20
17366.72919799999
 30
0.0
 11
25936.23405649999
 21
17366.72919799999
 31
0.0
  0
LINE
  5
43E2
  8
2-0
  6
CONTINUOUS
 62
     3
 10
26012.1149425
 20
17393.335908000001
 30
0.0
 11
26019.116499499989
 21
17393.335908000001
 31
0.0
  0
LINE
  5
43E3
  8
2-0
  6
CONTINUOUS
 62
     3
 10
26019.116499499989
 20
17393.335908000001
 30
0.0
 11
26019.116499499989
 21
17388.341582000001
 31
0.0
  0
LINE
  5
43E4
  8
2-0
  6
CONTINUOUS
 62
     3
 10
26019.116499499989
 20
17388.341582000001
 30
0.0
 11
25994.119139499991
 21
17388.341582000001
 31
0.0
  0
LINE
  5
43E5
  8
2-0
  6
CONTINUOUS
 62
     3
 10
25994.119139499991
 20
17388.341582000001
 30
0.0
 11
25994.119139499991
 21
17406.33738600001
 31
0.0
  0
LINE
  5
43E6
  8
2-0
  6
CONTINUOUS
 62
     3
 10
25994.119139499991
 20
17406.33738600001
 30
0.0
 11
26024.116763499991
 21
17406.33738600001
 31
0.0
  0
LINE
  5
43E7
  8
2-0
  6
CONTINUOUS
 62
     3
 10
25994.119139499991
 20
17396.728802000001
 30
0.0
 11
25994.119139499991
 21
17390.726901999991
 31
0.0
  0
LINE
  5
43E8
  8
2-0
  6
CONTINUOUS
 62
     3
 10
26024.116763499991
 20
17396.728802000001
 30
0.0
 11
25994.119139499991
 21
17396.728802000001
 31
0.0
  0
LINE
  5
43E9
  8
2-0
  6
CONTINUOUS
 62
     3
 10
26024.116763499991
 20
17406.33738600001
 30
0.0
 11
26024.116763499991
 21
18053.641716999991
 31
0.0
  0
LINE
  5
43EA
  8
2-0
  6
CONTINUOUS
 62
     3
 10
26024.116763499991
 20
18110.831988000002
 30
0.0
 11
26024.116763499991
 21
18754.635778
 31
0.0
  0
LINE
  5
43EB
  8
2-0
  6
CONTINUOUS
 62
     3
 10
26024.116763499991
 20
17251.72708700001
 30
0.0
 11
25994.119139499991
 21
17251.72708700001
 31
0.0
  0
LINE
  5
43EC
  8
2-0
  6
CONTINUOUS
 62
     3
 10
25994.119139499991
 20
17251.72708700001
 30
0.0
 11
25994.119139499991
 21
17257.728986999999
 31
0.0
  0
LINE
  5
43ED
  8
2-0
  6
CONTINUOUS
 62
     3
 10
25936.23405649999
 20
17281.732629999991
 30
0.0
 11
26021.2306255
 21
17281.732629999991
 31
0.0
  0
LINE
  5
43EE
  8
2-0
  6
CONTINUOUS
 62
     3
 10
26021.2306255
 20
17281.732629999991
 30
0.0
 11
26021.2306255
 21
17301.727747000012
 31
0.0
  0
LINE
  5
43EF
  8
2-0
  6
CONTINUOUS
 62
     3
 10
25994.119139499991
 20
17242.118504000009
 30
0.0
 11
26024.116763499991
 21
17242.118504000009
 31
0.0
  0
LINE
  5
43F0
  8
2-0
  6
CONTINUOUS
 62
     3
 10
25994.119139499991
 20
17260.114306999982
 30
0.0
 11
25994.119139499991
 21
17242.118504000009
 31
0.0
  0
LINE
  5
43F1
  8
2-0
  6
CONTINUOUS
 62
     3
 10
26019.116499499989
 20
17260.114306999982
 30
0.0
 11
25994.119139499991
 21
17260.114306999982
 31
0.0
  0
LINE
  5
43F2
  8
2-0
  6
CONTINUOUS
 62
     3
 10
26019.116499499989
 20
17255.114043000009
 30
0.0
 11
26019.116499499989
 21
17260.114306999982
 31
0.0
  0
LINE
  5
43F3
  8
2-0
  6
CONTINUOUS
 62
     3
 10
26012.1149425
 20
17255.114043000009
 30
0.0
 11
26019.116499499989
 21
17255.114043000009
 31
0.0
  0
LINE
  5
43F4
  8
2-0
  6
CONTINUOUS
 62
     3
 10
26012.1149425
 20
16550.631812499989
 30
0.0
 11
26019.116499499989
 21
16550.631812499989
 31
0.0
  0
LINE
  5
43F5
  8
2-0
  6
CONTINUOUS
 62
     3
 10
26019.116499499989
 20
16550.631812499989
 30
0.0
 11
26019.116499499989
 21
16555.632076499991
 31
0.0
  0
LINE
  5
43F6
  8
2-0
  6
CONTINUOUS
 62
     3
 10
26019.116499499989
 20
16555.632076499991
 30
0.0
 11
25994.119139499991
 21
16555.632076499991
 31
0.0
  0
LINE
  5
43F7
  8
2-0
  6
CONTINUOUS
 62
     3
 10
25994.119139499991
 20
16555.632076499991
 30
0.0
 11
25994.119139499991
 21
16537.630334499991
 31
0.0
  0
LINE
  5
43F8
  8
2-0
  6
CONTINUOUS
 62
     3
 10
25994.119139499991
 20
16537.630334499991
 30
0.0
 11
26024.116763499991
 21
16537.630334499991
 31
0.0
  0
LINE
  5
43F9
  8
2-0
  6
CONTINUOUS
 62
     3
 10
25994.119139499991
 20
16553.727779500001
 30
0.0
 11
25994.119139499991
 21
16547.7308285
 31
0.0
  0
LINE
  5
43FA
  8
2-0
  6
CONTINUOUS
 62
     3
 10
25994.119139499991
 20
16547.7308285
 30
0.0
 11
26024.116763499991
 21
16547.7308285
 31
0.0
  0
LINE
  5
43FB
  8
2-0
  6
CONTINUOUS
 62
     3
 10
26024.116763499991
 20
16547.7308285
 30
0.0
 11
26024.116763499991
 21
16584.7309995
 31
0.0
  0
LINE
  5
43FC
  8
2-0
  6
CONTINUOUS
 62
     3
 10
25994.119139499991
 20
16584.7309995
 30
0.0
 11
26024.116763499991
 21
16584.7309995
 31
0.0
  0
LINE
  5
43FD
  8
2-0
  6
CONTINUOUS
 62
     3
 10
25994.119139499991
 20
16578.7281095
 30
0.0
 11
25994.119139499991
 21
16584.7309995
 31
0.0
  0
LINE
  5
43FE
  8
2-0
  6
CONTINUOUS
 62
     3
 10
25994.119139499991
 20
16594.8265445
 30
0.0
 11
26024.116763499991
 21
16594.8265445
 31
0.0
  0
LINE
  5
43FF
  8
2-0
  6
CONTINUOUS
 62
     3
 10
25994.119139499991
 20
16576.818863500001
 30
0.0
 11
25994.119139499991
 21
16594.8265445
 31
0.0
  0
LINE
  5
4400
  8
2-0
  6
CONTINUOUS
 62
     3
 10
26019.116499499989
 20
16576.818863500001
 30
0.0
 11
25994.119139499991
 21
16576.818863500001
 31
0.0
  0
LINE
  5
4401
  8
2-0
  6
CONTINUOUS
 62
     3
 10
26019.116499499989
 20
16581.825066500001
 30
0.0
 11
26019.116499499989
 21
16576.818863500001
 31
0.0
  0
LINE
  5
4402
  8
2-0
  6
CONTINUOUS
 62
     3
 10
26012.1149425
 20
16581.825066500001
 30
0.0
 11
26019.116499499989
 21
16581.825066500001
 31
0.0
  0
LINE
  5
4403
  8
2-0
  6
CONTINUOUS
 62
     3
 10
26012.1149425
 20
15881.065083
 30
0.0
 11
26019.116499499989
 21
15881.065083
 31
0.0
  0
LINE
  5
4404
  8
2-0
  6
CONTINUOUS
 62
     3
 10
26019.116499499989
 20
15881.065083
 30
0.0
 11
26019.116499499989
 21
15876.070758000011
 31
0.0
  0
LINE
  5
4405
  8
2-0
  6
CONTINUOUS
 62
     3
 10
26019.116499499989
 20
15876.070758000011
 30
0.0
 11
25994.119139499991
 21
15876.070758000011
 31
0.0
  0
LINE
  5
4406
  8
2-0
  6
CONTINUOUS
 62
     3
 10
25994.119139499991
 20
15876.070758000011
 30
0.0
 11
25994.119139499991
 21
15894.06656100002
 31
0.0
  0
LINE
  5
4407
  8
2-0
  6
CONTINUOUS
 62
     3
 10
25994.119139499991
 20
15894.06656100002
 30
0.0
 11
26024.116763499991
 21
15894.06656100002
 31
0.0
  0
LINE
  5
4408
  8
2-0
  6
CONTINUOUS
 62
     3
 10
25994.119139499991
 20
15877.969116
 30
0.0
 11
25994.119139499991
 21
15883.97101600001
 31
0.0
  0
LINE
  5
4409
  8
2-0
  6
CONTINUOUS
 62
     3
 10
25994.119139499991
 20
15883.97101600001
 30
0.0
 11
26024.116763499991
 21
15883.97101600001
 31
0.0
  0
LINE
  5
440A
  8
2-0
  6
CONTINUOUS
 62
     3
 10
26024.116763499991
 20
15846.971835
 30
0.0
 11
26024.116763499991
 21
15883.97101600001
 31
0.0
  0
LINE
  5
440B
  8
2-0
  6
CONTINUOUS
 62
     3
 10
25994.119139499991
 20
15846.971835
 30
0.0
 11
26024.116763499991
 21
15846.971835
 31
0.0
  0
LINE
  5
440C
  8
2-0
  6
CONTINUOUS
 62
     3
 10
25994.119139499991
 20
15852.96878600001
 30
0.0
 11
25994.119139499991
 21
15846.971835
 31
0.0
  0
LINE
  5
440D
  8
2-0
  6
CONTINUOUS
 62
     3
 10
25994.119139499991
 20
15836.870351
 30
0.0
 11
26024.116763499991
 21
15836.870351
 31
0.0
  0
LINE
  5
440E
  8
2-0
  6
CONTINUOUS
 62
     3
 10
25994.119139499991
 20
15854.878032000001
 30
0.0
 11
25994.119139499991
 21
15836.870351
 31
0.0
  0
LINE
  5
440F
  8
2-0
  6
CONTINUOUS
 62
     3
 10
26019.116499499989
 20
15854.878032000001
 30
0.0
 11
25994.119139499991
 21
15854.878032000001
 31
0.0
  0
LINE
  5
4410
  8
2-0
  6
CONTINUOUS
 62
     3
 10
26019.116499499989
 20
15849.87776800002
 30
0.0
 11
26019.116499499989
 21
15854.878032000001
 31
0.0
  0
LINE
  5
4411
  8
2-0
  6
CONTINUOUS
 62
     3
 10
26012.1149425
 20
15849.87776800002
 30
0.0
 11
26019.116499499989
 21
15849.87776800002
 31
0.0
  0
LINE
  5
4412
  8
2-0
  6
CONTINUOUS
 62
     3
 10
26024.116763499991
 20
17242.118504000009
 30
0.0
 11
26024.116763499991
 21
16594.8265445
 31
0.0
  0
LINE
  5
4413
  8
2-0
  6
CONTINUOUS
 62
     3
 10
26024.116763499991
 20
17396.728802000001
 30
0.0
 11
26024.116763499991
 21
17251.72708700001
 31
0.0
  0
LINE
  5
4414
  8
2-0
  6
CONTINUOUS
 62
     3
 10
25936.23405649999
 20
17366.72919799999
 30
0.0
 11
25936.23405649999
 21
17281.732629999991
 31
0.0
  0
LINE
  5
4415
  8
2-0
  6
CONTINUOUS
 62
     6
 10
24398.025389499991
 20
19135.176463499982
 30
0.0
 11
25423.05772149999
 21
19135.176463499982
 31
0.0
  0
LINE
  5
4416
  8
2-0
  6
CONTINUOUS
 62
     3
 10
26012.1149425
 20
15148.636761
 30
0.0
 11
26019.116499499989
 21
15148.636761
 31
0.0
  0
LINE
  5
4417
  8
2-0
  6
CONTINUOUS
 62
     3
 10
26019.116499499989
 20
15148.636761
 30
0.0
 11
26019.116499499989
 21
15153.631087
 31
0.0
  0
LINE
  5
4418
  8
2-0
  6
CONTINUOUS
 62
     3
 10
26019.116499499989
 20
15153.631087
 30
0.0
 11
25994.119139499991
 21
15153.631087
 31
0.0
  0
LINE
  5
4419
  8
2-0
  6
CONTINUOUS
 62
     3
 10
25994.119139499991
 20
15153.631087
 30
0.0
 11
25994.119139499991
 21
15135.635283
 31
0.0
  0
LINE
  5
441A
  8
2-0
  6
CONTINUOUS
 62
     3
 10
25994.119139499991
 20
15135.635283
 30
0.0
 11
26024.116763499991
 21
15135.635283
 31
0.0
  0
LINE
  5
441B
  8
2-0
  6
CONTINUOUS
 62
     3
 10
25994.119139499991
 20
15151.73371800001
 30
0.0
 11
25994.119139499991
 21
15145.730828000011
 31
0.0
  0
LINE
  5
441C
  8
2-0
  6
CONTINUOUS
 62
     3
 10
25994.119139499991
 20
15145.730828000011
 30
0.0
 11
26024.116763499991
 21
15145.730828000011
 31
0.0
  0
LINE
  5
441D
  8
2-0
  6
CONTINUOUS
 62
     3
 10
26024.116763499991
 20
15145.730828000011
 30
0.0
 11
26024.116763499991
 21
15182.730999999991
 31
0.0
  0
LINE
  5
441E
  8
2-0
  6
CONTINUOUS
 62
     3
 10
25994.119139499991
 20
15182.730999999991
 30
0.0
 11
26024.116763499991
 21
15182.730999999991
 31
0.0
  0
LINE
  5
441F
  8
2-0
  6
CONTINUOUS
 62
     3
 10
25994.119139499991
 20
15176.734048
 30
0.0
 11
25994.119139499991
 21
15182.730999999991
 31
0.0
  0
LINE
  5
4420
  8
2-0
  6
CONTINUOUS
 62
     3
 10
25994.119139499991
 20
15192.831493000011
 30
0.0
 11
26024.116763499991
 21
15192.831493000011
 31
0.0
  0
LINE
  5
4421
  8
2-0
  6
CONTINUOUS
 62
     3
 10
25994.119139499991
 20
15174.82480200001
 30
0.0
 11
25994.119139499991
 21
15192.831493000011
 31
0.0
  0
LINE
  5
4422
  8
2-0
  6
CONTINUOUS
 62
     3
 10
26019.116499499989
 20
15174.82480200001
 30
0.0
 11
25994.119139499991
 21
15174.82480200001
 31
0.0
  0
LINE
  5
4423
  8
2-0
  6
CONTINUOUS
 62
     3
 10
26019.116499499989
 20
15179.83001500001
 30
0.0
 11
26019.116499499989
 21
15174.82480200001
 31
0.0
  0
LINE
  5
4424
  8
2-0
  6
CONTINUOUS
 62
     3
 10
26012.1149425
 20
15179.83001500001
 30
0.0
 11
26019.116499499989
 21
15179.83001500001
 31
0.0
  0
LINE
  5
4425
  8
2-0
  6
CONTINUOUS
 62
     3
 10
25994.119139499991
 20
14472.732840999999
 30
0.0
 11
25994.119139499991
 21
14478.737709999999
 31
0.0
  0
LINE
  5
4426
  8
2-0
  6
CONTINUOUS
 62
     3
 10
25994.119139499991
 20
14478.737709999999
 30
0.0
 11
26024.116763499991
 21
14478.737709999999
 31
0.0
  0
LINE
  5
4427
  8
2-0
  6
CONTINUOUS
 62
     3
 10
26024.116763499991
 20
14478.737709999999
 30
0.0
 11
26024.116763499991
 21
14363.733619000001
 31
0.0
  0
LINE
  5
4428
  8
2-0
  6
CONTINUOUS
 62
     3
 10
26024.116763499991
 20
14363.733619000001
 30
0.0
 11
25939.118215499991
 21
14363.733619000001
 31
0.0
  0
LINE
  5
4429
  8
2-0
  6
CONTINUOUS
 62
     3
 10
25939.118215499991
 20
14363.733619000001
 30
0.0
 11
25939.118215499991
 21
14448.729198000001
 31
0.0
  0
LINE
  5
442A
  8
2-0
  6
CONTINUOUS
 62
     3
 10
25939.118215499991
 20
14448.729198000001
 30
0.0
 11
25971.117133499989
 21
14448.729198000001
 31
0.0
  0
LINE
  5
442B
  8
2-0
  6
CONTINUOUS
 62
     3
 10
26012.1149425
 20
14475.767443000001
 30
0.0
 11
26019.116499499989
 21
14475.767443000001
 31
0.0
  0
LINE
  5
442C
  8
2-0
  6
CONTINUOUS
 62
     3
 10
26019.116499499989
 20
14475.767443000001
 30
0.0
 11
26019.116499499989
 21
14470.77014799998
 31
0.0
  0
LINE
  5
442D
  8
2-0
  6
CONTINUOUS
 62
     3
 10
26019.116499499989
 20
14470.77014799998
 30
0.0
 11
25994.119139499991
 21
14470.77014799998
 31
0.0
  0
LINE
  5
442E
  8
2-0
  6
CONTINUOUS
 62
     3
 10
25994.119139499991
 20
14470.77014799998
 30
0.0
 11
25994.119139499991
 21
14488.768921000001
 31
0.0
  0
LINE
  5
442F
  8
2-0
  6
CONTINUOUS
 62
     3
 10
25994.119139499991
 20
14488.768921000001
 30
0.0
 11
26024.116763499991
 21
14488.768921000001
 31
0.0
  0
LINE
  5
4430
  8
2-0
  6
CENTER2
 62
     6
 10
25981.61847949999
 20
14166.236060999991
 30
0.0
 11
25981.61847949999
 21
15322.10481900002
 31
0.0
  0
LINE
  5
4431
  8
2-0
  6
CONTINUOUS
 62
     3
 10
26024.116763499991
 20
18811.82605
 30
0.0
 11
26024.116763499991
 21
19455.6367675
 31
0.0
  0
LINE
  5
4432
  8
2-0
  6
CONTINUOUS
 62
     6
 10
26716.621646499982
 20
20664.232102000031
 30
0.0
 11
27916.615708499961
 21
20664.232102000031
 31
0.0
  0
LINE
  5
4433
  8
2-0
  6
CONTINUOUS
 62
     3
 10
22785.620327500001
 20
19934.229199000009
 30
0.0
 11
22785.620327500001
 21
19904.22563600001
 31
0.0
  0
LINE
  5
4434
  8
2-0
  6
CONTINUOUS
 62
     3
 10
22785.620327500001
 20
19904.22563600001
 30
0.0
 11
22779.622385499981
 21
19904.22563600001
 31
0.0
  0
LINE
  5
4435
  8
2-0
  6
CONTINUOUS
 62
     3
 10
22795.236828500001
 20
19904.22563600001
 30
0.0
 11
22795.236828500001
 21
19934.229199000009
 31
0.0
  0
LINE
  5
4436
  8
2-0
  6
CONTINUOUS
 62
     3
 10
22777.235086499979
 20
19904.22563600001
 30
0.0
 11
22795.236828500001
 21
19904.22563600001
 31
0.0
  0
LINE
  5
4437
  8
2-0
  6
CONTINUOUS
 62
     3
 10
22777.235086499979
 20
19929.234873000001
 30
0.0
 11
22777.235086499979
 21
19904.22563600001
 31
0.0
  0
LINE
  5
4438
  8
2-0
  6
CONTINUOUS
 62
     3
 10
22782.235350499988
 20
19929.234873000001
 30
0.0
 11
22777.235086499979
 21
19929.234873000001
 31
0.0
  0
LINE
  5
4439
  8
2-0
  6
CONTINUOUS
 62
     3
 10
22782.235350499988
 20
19922.229357000011
 30
0.0
 11
22782.235350499988
 21
19929.234873000001
 31
0.0
  0
LINE
  5
443A
  8
2-0
  6
CONTINUOUS
 62
     3
 10
22755.61874350001
 20
19931.337122000001
 30
0.0
 11
22755.61874350001
 21
19846.338574000009
 31
0.0
  0
LINE
  5
443B
  8
2-0
  6
CONTINUOUS
 62
     3
 10
22735.621646499989
 20
19931.337122000001
 30
0.0
 11
22755.61874350001
 21
19931.337122000001
 31
0.0
  0
LINE
  5
443C
  8
2-0
  6
CONTINUOUS
 62
     3
 10
22644.007547500001
 20
19922.229357000011
 30
0.0
 11
22644.007547500001
 21
19929.234873000001
 31
0.0
  0
LINE
  5
443D
  8
2-0
  6
CONTINUOUS
 62
     3
 10
22644.007547500001
 20
19929.234873000001
 30
0.0
 11
22649.007811499981
 21
19929.234873000001
 31
0.0
  0
LINE
  5
443E
  8
2-0
  6
CONTINUOUS
 62
     3
 10
22649.007811499981
 20
19929.234873000001
 30
0.0
 11
22649.007811499981
 21
19904.22563600001
 31
0.0
  0
LINE
  5
443F
  8
2-0
  6
CONTINUOUS
 62
     3
 10
22649.007811499981
 20
19904.22563600001
 30
0.0
 11
22631.006069499988
 21
19904.22563600001
 31
0.0
  0
LINE
  5
4440
  8
2-0
  6
CONTINUOUS
 62
     3
 10
22631.006069499988
 20
19904.22563600001
 30
0.0
 11
22631.006069499988
 21
19934.229199000009
 31
0.0
  0
LINE
  5
4441
  8
2-0
  6
CONTINUOUS
 62
     3
 10
22670.626133499991
 20
19931.337122000001
 30
0.0
 11
22690.6212505
 21
19931.337122000001
 31
0.0
  0
LINE
  5
4442
  8
2-0
  6
CONTINUOUS
 62
     3
 10
22670.626133499991
 20
19846.338574000009
 30
0.0
 11
22670.626133499991
 21
19931.337122000001
 31
0.0
  0
LINE
  5
4443
  8
2-0
  6
CONTINUOUS
 62
     3
 10
22640.628509500009
 20
19904.22563600001
 30
0.0
 11
22646.624470499992
 21
19904.22563600001
 31
0.0
  0
LINE
  5
4444
  8
2-0
  6
CONTINUOUS
 62
     3
 10
22640.628509500009
 20
19934.229199000009
 30
0.0
 11
22640.628509500009
 21
19904.22563600001
 31
0.0
  0
LINE
  5
4445
  8
2-0
  6
CONTINUOUS
 62
     3
 10
22755.61874350001
 20
19846.338574000009
 30
0.0
 11
22670.626133499991
 21
19846.338574000009
 31
0.0
  0
LINE
  5
4446
  8
2-0
  6
CONTINUOUS
 62
     3
 10
22785.620327500001
 20
19934.229199000009
 30
0.0
 11
22640.628509500009
 21
19934.229199000009
 31
0.0
  0
LINE
  5
4447
  8
2-0
  6
CONTINUOUS
 62
     6
 10
25854.58881349998
 20
19377.330971499989
 30
0.0
 11
25423.05772149999
 21
19135.176463499982
 31
0.0
  0
LINE
  5
4448
  8
2-0
  6
CONTINUOUS
 62
     6
 10
26176.15764749996
 20
20076.908939000012
 30
0.0
 11
26716.621646499982
 21
20664.232102000031
 31
0.0
  0
LINE
  5
4449
  8
2-0
  6
CONTINUOUS
 62
     6
 10
22755.61874350001
 20
14448.729198000001
 30
0.0
 11
23032.208956499999
 21
14904.073898000001
 31
0.0
  0
LINE
  5
444A
  8
2-0
  6
CONTINUOUS
 62
     6
 10
23032.208956499999
 20
14904.073898000001
 30
0.0
 11
24062.558275499989
 21
14904.073898000001
 31
0.0
  0
LINE
  5
444B
  8
2-0
  6
CONTINUOUS
 62
     3
 10
25933.11235649998
 20
18740.72965999999
 30
0.0
 11
25980.118004499971
 21
18740.72965999999
 31
0.0
  0
LINE
  5
444C
  8
2-0
  6
CONTINUOUS
 62
     3
 10
25980.118004499971
 20
18825.730188000001
 30
0.0
 11
25933.11235649998
 21
18825.730188000001
 31
0.0
  0
LINE
  5
444D
  8
2-0
  6
CONTINUOUS
 62
     3
 10
25980.118004499971
 20
18740.72965999999
 30
0.0
 11
25980.118004499971
 21
18765.732959000001
 31
0.0
  0
LINE
  5
444E
  8
2-0
  6
CONTINUOUS
 62
     3
 10
25980.118004499971
 20
18800.728867999991
 30
0.0
 11
25980.118004499971
 21
18825.730188000001
 31
0.0
  0
LINE
  5
444F
  8
2-0
  6
CONTINUOUS
 62
     3
 10
25933.11235649998
 20
18825.730188000001
 30
0.0
 11
25933.11235649998
 21
18740.72965999999
 31
0.0
  0
LINE
  5
4450
  8
2-0
  6
CONTINUOUS
 62
     3
 10
26024.116763499991
 20
16537.630334499991
 30
0.0
 11
26024.116763499991
 21
15894.06656100002
 31
0.0
  0
LINE
  5
4451
  8
2-0
  6
CONTINUOUS
 62
     3
 10
25933.11235649998
 20
15822.73263
 30
0.0
 11
25980.118004499971
 21
15822.73263
 31
0.0
  0
LINE
  5
4452
  8
2-0
  6
CONTINUOUS
 62
     3
 10
25980.118004499971
 20
15907.72919799999
 30
0.0
 11
25933.11235649998
 21
15907.72919799999
 31
0.0
  0
LINE
  5
4453
  8
2-0
  6
CONTINUOUS
 62
     3
 10
25980.118004499971
 20
15822.73263
 30
0.0
 11
25980.118004499971
 21
15847.72801100001
 31
0.0
  0
LINE
  5
4454
  8
2-0
  6
CONTINUOUS
 62
     3
 10
25980.118004499971
 20
15882.727879
 30
0.0
 11
25980.118004499971
 21
15907.72919799999
 31
0.0
  0
LINE
  5
4455
  8
2-0
  6
CONTINUOUS
 62
     3
 10
25933.11235649998
 20
15907.72919799999
 30
0.0
 11
25933.11235649998
 21
15822.73263
 31
0.0
  0
LINE
  5
4456
  8
2-0
  6
CONTINUOUS
 62
     6
 10
22815.897063500001
 20
14599.32503299999
 30
0.0
 11
22755.61874350001
 21
14448.729198000001
 31
0.0
  0
LINE
  5
4457
  8
2-0
  6
CONTINUOUS
 62
     6
 10
22755.61874350001
 20
14448.729198000001
 30
0.0
 11
22861.477458499961
 21
14571.63750699999
 31
0.0
  0
LINE
  5
4458
  8
2-0
  6
CONTINUOUS
 62
     6
 10
22815.897063500001
 20
14599.32503299999
 30
0.0
 11
22861.477458499961
 21
14571.63750699999
 31
0.0
  0
LINE
  5
4459
  8
2-0
  6
CONTINUOUS
 62
     6
 10
22861.477458499961
 20
14571.63750699999
 30
0.0
 11
22755.61874350001
 21
14448.729198000001
 31
0.0
  0
LINE
  5
445A
  8
2-0
  6
CONTINUOUS
 62
     6
 10
22755.61874350001
 20
14448.729198000001
 30
0.0
 11
22815.897063500001
 21
14599.32503299999
 31
0.0
  0
LINE
  5
445B
  8
2-0
  6
CONTINUOUS
 62
     6
 10
22815.897063500001
 20
14599.32503299999
 30
0.0
 11
22755.61874350001
 21
14448.729198000001
 31
0.0
  0
LINE
  5
445C
  8
2-0
  6
CONTINUOUS
 62
     6
 10
22861.477458499961
 20
14571.63750699999
 30
0.0
 11
22755.61874350001
 21
14448.729198000001
 31
0.0
  0
LINE
  5
445D
  8
2-0
  6
CONTINUOUS
 62
     6
 10
22861.477458499961
 20
14571.63750699999
 30
0.0
 11
22815.897063500001
 21
14599.32503299999
 31
0.0
  0
LINE
  5
445E
  8
2-0
  6
CONTINUOUS
 62
     6
 10
25841.53190849999
 20
19400.590315500001
 30
0.0
 11
25994.119139499991
 21
19455.6367675
 31
0.0
  0
LINE
  5
445F
  8
2-0
  6
CONTINUOUS
 62
     6
 10
25994.119139499991
 20
19455.6367675
 30
0.0
 11
25867.6377995
 21
19354.07756749999
 31
0.0
  0
LINE
  5
4460
  8
2-0
  6
CONTINUOUS
 62
     6
 10
25841.53190849999
 20
19400.590315500001
 30
0.0
 11
25867.6377995
 21
19354.07756749999
 31
0.0
  0
LINE
  5
4461
  8
2-0
  6
CONTINUOUS
 62
     6
 10
25867.6377995
 20
19354.07756749999
 30
0.0
 11
25994.119139499991
 21
19455.6367675
 31
0.0
  0
LINE
  5
4462
  8
2-0
  6
CONTINUOUS
 62
     6
 10
25994.119139499991
 20
19455.6367675
 30
0.0
 11
25841.53190849999
 21
19400.590315500001
 31
0.0
  0
LINE
  5
4463
  8
2-0
  6
CONTINUOUS
 62
     6
 10
25841.53190849999
 20
19400.590315500001
 30
0.0
 11
25994.119139499991
 21
19455.6367675
 31
0.0
  0
LINE
  5
4464
  8
2-0
  6
CONTINUOUS
 62
     6
 10
25867.6377995
 20
19354.07756749999
 30
0.0
 11
25994.119139499991
 21
19455.6367675
 31
0.0
  0
LINE
  5
4465
  8
2-0
  6
CONTINUOUS
 62
     6
 10
25867.6377995
 20
19354.07756749999
 30
0.0
 11
25841.53190849999
 21
19400.590315500001
 31
0.0
  0
LINE
  5
4466
  8
2-0
  6
CONTINUOUS
 62
     6
 10
26195.77467649999
 20
20058.847812000022
 30
0.0
 11
26067.812656499991
 21
19959.165194000008
 31
0.0
  0
LINE
  5
4467
  8
2-0
  6
CONTINUOUS
 62
     6
 10
26067.812656499991
 20
19959.165194000008
 30
0.0
 11
26156.526761499979
 21
20094.962149000021
 31
0.0
  0
LINE
  5
4468
  8
2-0
  6
CONTINUOUS
 62
     6
 10
26195.77467649999
 20
20058.847812000022
 30
0.0
 11
26156.526761499979
 21
20094.962149000021
 31
0.0
  0
LINE
  5
4469
  8
2-0
  6
CONTINUOUS
 62
     6
 10
26156.526761499979
 20
20094.962149000021
 30
0.0
 11
26067.812656499991
 21
19959.165194000008
 31
0.0
  0
LINE
  5
446A
  8
2-0
  6
CONTINUOUS
 62
     6
 10
26067.812656499991
 20
19959.165194000008
 30
0.0
 11
26195.77467649999
 21
20058.847812000022
 31
0.0
  0
LINE
  5
446B
  8
2-0
  6
CONTINUOUS
 62
     6
 10
26195.77467649999
 20
20058.847812000022
 30
0.0
 11
26067.812656499991
 21
19959.165194000008
 31
0.0
  0
LINE
  5
446C
  8
2-0
  6
CONTINUOUS
 62
     6
 10
26156.526761499979
 20
20094.962149000021
 30
0.0
 11
26067.812656499991
 21
19959.165194000008
 31
0.0
  0
LINE
  5
446D
  8
2-0
  6
CONTINUOUS
 62
     6
 10
26156.526761499979
 20
20094.962149000021
 30
0.0
 11
26195.77467649999
 21
20058.847812000022
 31
0.0
  0
LINE
  5
446E
  8
2-0
  6
CONTINUOUS
 62
     6
 10
21337.054158499999
 20
19686.45681700002
 30
0.0
 11
21468.98709150001
 21
19217.110981999998
 31
0.0
  0
LINE
  5
446F
  8
2-0
  6
CONTINUOUS
 62
     6
 10
21468.98709150001
 20
19217.110981999998
 30
0.0
 11
22494.025362499979
 21
19217.110981999998
 31
0.0
  0
LINE
  5
4470
  8
2-0
  6
CONTINUOUS
 62
     6
 10
21293.760107499998
 20
19840.485137000011
 30
0.0
 11
21311.3817815
 21
19679.239492000019
 31
0.0
  0
LINE
  5
4471
  8
2-0
  6
CONTINUOUS
 62
     6
 10
21362.726534500009
 20
19693.67810100002
 30
0.0
 11
21311.3817815
 21
19679.239492000019
 31
0.0
  0
LINE
  5
4472
  8
2-0
  6
CONTINUOUS
 62
     6
 10
21311.3817815
 20
19679.239492000019
 30
0.0
 11
21293.760107499998
 21
19840.485137000011
 31
0.0
  0
LINE
  5
4473
  8
2-0
  6
CONTINUOUS
 62
     6
 10
21293.760107499998
 20
19840.485137000011
 30
0.0
 11
21362.726534500009
 21
19693.67810100002
 31
0.0
  0
LINE
  5
4474
  8
2-0
  6
CONTINUOUS
 62
     6
 10
21362.726534500009
 20
19693.67810100002
 30
0.0
 11
21293.760107499998
 21
19840.485137000011
 31
0.0
  0
LINE
  5
4475
  8
2-0
  6
CONTINUOUS
 62
     6
 10
21311.3817815
 20
19679.239492000019
 30
0.0
 11
21293.760107499998
 21
19840.485137000011
 31
0.0
  0
LINE
  5
4476
  8
2-0
  6
CONTINUOUS
 62
     6
 10
21311.3817815
 20
19679.239492000019
 30
0.0
 11
21362.726534500009
 21
19693.67810100002
 31
0.0
  0
LINE
  5
4477
  8
2-0
  6
CONTINUOUS
 62
     6
 10
22754.541885499992
 20
19815.47787900002
 30
0.0
 11
22903.411580499989
 21
19285.855703000001
 31
0.0
  0
LINE
  5
4478
  8
2-0
  6
CONTINUOUS
 62
     6
 10
22903.411580499989
 20
19285.855703000001
 30
0.0
 11
23928.4557895
 21
19285.855703000001
 31
0.0
  0
LINE
  5
4479
  8
2-0
  6
CONTINUOUS
 62
     6
 10
22772.16553949998
 20
19654.23223400001
 30
0.0
 11
22823.516230500009
 21
19668.66688400002
 31
0.0
  0
LINE
  5
447A
  8
2-0
  6
CONTINUOUS
 62
     6
 10
22823.516230500009
 20
19668.66688400002
 30
0.0
 11
22772.16553949998
 21
19654.23223400001
 31
0.0
  0
LINE
  5
447B
  8
2-0
  6
CONTINUOUS
 62
     6
 10
22772.16553949998
 20
19654.23223400001
 30
0.0
 11
22754.541885499992
 21
19815.47787900002
 31
0.0
  0
LINE
  5
447C
  8
2-0
  6
CONTINUOUS
 62
     6
 10
22754.541885499992
 20
19815.47787900002
 30
0.0
 11
22823.516230500009
 21
19668.66688400002
 31
0.0
  0
LINE
  5
447D
  8
2-0
  6
CONTINUOUS
 62
     6
 10
22823.516230500009
 20
19668.66688400002
 30
0.0
 11
22754.541885499992
 21
19815.47787900002
 31
0.0
  0
LINE
  5
447E
  8
2-0
  6
CONTINUOUS
 62
     6
 10
22772.16553949998
 20
19654.23223400001
 30
0.0
 11
22754.541885499992
 21
19815.47787900002
 31
0.0
  0
LINE
  5
447F
  8
2-0
  6
CONTINUOUS
 62
     6
 10
22823.516230500009
 20
19668.66688400002
 30
0.0
 11
22754.541885499992
 21
19815.47787900002
 31
0.0
  0
LINE
  5
4480
  8
2-0
  6
CONTINUOUS
 62
     6
 10
22754.541885499992
 20
19815.47787900002
 30
0.0
 11
22772.16553949998
 21
19654.23223400001
 31
0.0
  0
LINE
  5
4481
  8
2-0
  6
CONTINUOUS
 62
     4
 10
22713.118479499979
 20
20014.231442000018
 30
0.0
 11
22713.118479499979
 21
20744.228406999999
 31
0.0
  0
LINE
  5
4482
  8
2-0
  6
CONTINUOUS
 62
     6
 10
25777.793389499981
 20
15776.225820000011
 30
0.0
 11
25933.11235649998
 21
15822.973141
 31
0.0
  0
LINE
  5
4483
  8
2-0
  6
CONTINUOUS
 62
     6
 10
25933.11235649998
 20
15822.973141
 30
0.0
 11
25801.351640499968
 21
15728.380856000011
 31
0.0
  0
LINE
  5
4484
  8
2-0
  6
CONTINUOUS
 62
     6
 10
25777.793389499981
 20
15776.225820000011
 30
0.0
 11
25801.351640499968
 21
15728.380856000011
 31
0.0
  0
LINE
  5
4485
  8
2-0
  6
CONTINUOUS
 62
     6
 10
25801.351640499968
 20
15728.380856000011
 30
0.0
 11
25933.11235649998
 21
15822.973141
 31
0.0
  0
LINE
  5
4486
  8
2-0
  6
CONTINUOUS
 62
     6
 10
25933.11235649998
 20
15822.973141
 30
0.0
 11
25777.793389499981
 21
15776.225820000011
 31
0.0
  0
LINE
  5
4487
  8
2-0
  6
CONTINUOUS
 62
     6
 10
25777.793389499981
 20
15776.225820000011
 30
0.0
 11
25933.11235649998
 21
15822.973141
 31
0.0
  0
LINE
  5
4488
  8
2-0
  6
CONTINUOUS
 62
     6
 10
25801.351640499968
 20
15728.380856000011
 30
0.0
 11
25933.11235649998
 21
15822.973141
 31
0.0
  0
LINE
  5
4489
  8
2-0
  6
CONTINUOUS
 62
     6
 10
25801.351640499968
 20
15728.380856000011
 30
0.0
 11
25777.793389499981
 21
15776.225820000011
 31
0.0
  0
LINE
  5
448A
  8
2-0
  6
CONTINUOUS
 62
     6
 10
25747.479042499988
 20
14255.46088099999
 30
0.0
 11
25879.225901499991
 21
14350.087808
 31
0.0
  0
LINE
  5
448B
  8
2-0
  6
CONTINUOUS
 62
     6
 10
25879.225901499991
 20
14350.087808
 30
0.0
 11
25785.295765499988
 21
14217.84903799998
 31
0.0
  0
LINE
  5
448C
  8
2-0
  6
CONTINUOUS
 62
     6
 10
25747.479042499988
 20
14255.46088099999
 30
0.0
 11
25785.295765499988
 21
14217.84903799998
 31
0.0
  0
LINE
  5
448D
  8
2-0
  6
CONTINUOUS
 62
     6
 10
25785.295765499988
 20
14217.84903799998
 30
0.0
 11
25879.225901499991
 21
14350.087808
 31
0.0
  0
LINE
  5
448E
  8
2-0
  6
CONTINUOUS
 62
     6
 10
25879.225901499991
 20
14350.087808
 30
0.0
 11
25747.479042499988
 21
14255.46088099999
 31
0.0
  0
LINE
  5
448F
  8
2-0
  6
CONTINUOUS
 62
     6
 10
25747.479042499988
 20
14255.46088099999
 30
0.0
 11
25879.225901499991
 21
14350.087808
 31
0.0
  0
LINE
  5
4490
  8
2-0
  6
CONTINUOUS
 62
     6
 10
25785.295765499988
 20
14217.84903799998
 30
0.0
 11
25879.225901499991
 21
14350.087808
 31
0.0
  0
LINE
  5
4491
  8
2-0
  6
CONTINUOUS
 62
     6
 10
25785.295765499988
 20
14217.84903799998
 30
0.0
 11
25747.479042499988
 21
14255.46088099999
 31
0.0
  0
LINE
  5
4492
  8
2-0
  6
CONTINUOUS
 62
     6
 10
25810.51483149999
 20
14582.365507999981
 30
0.0
 11
25943.114863499992
 21
14488.937179999981
 31
0.0
  0
LINE
  5
4493
  8
2-0
  6
CONTINUOUS
 62
     6
 10
25943.114863499992
 20
14488.937179999981
 30
0.0
 11
25787.382177499981
 21
14534.312694
 31
0.0
  0
LINE
  5
4494
  8
2-0
  6
CONTINUOUS
 62
     6
 10
25810.51483149999
 20
14582.365507999981
 30
0.0
 11
25787.382177499981
 21
14534.312694
 31
0.0
  0
LINE
  5
4495
  8
2-0
  6
CONTINUOUS
 62
     6
 10
25787.382177499981
 20
14534.312694
 30
0.0
 11
25943.114863499992
 21
14488.937179999981
 31
0.0
  0
LINE
  5
4496
  8
2-0
  6
CONTINUOUS
 62
     6
 10
25943.114863499992
 20
14488.937179999981
 30
0.0
 11
25810.51483149999
 21
14582.365507999981
 31
0.0
  0
LINE
  5
4497
  8
2-0
  6
CONTINUOUS
 62
     6
 10
25810.51483149999
 20
14582.365507999981
 30
0.0
 11
25943.114863499992
 21
14488.937179999981
 31
0.0
  0
LINE
  5
4498
  8
2-0
  6
CONTINUOUS
 62
     6
 10
25787.382177499981
 20
14534.312694
 30
0.0
 11
25943.114863499992
 21
14488.937179999981
 31
0.0
  0
LINE
  5
4499
  8
2-0
  6
CONTINUOUS
 62
     6
 10
25787.382177499981
 20
14534.312694
 30
0.0
 11
25810.51483149999
 21
14582.365507999981
 31
0.0
  0
LINE
  5
449A
  8
2-0
  6
CONTINUOUS
 62
     6
 10
25870.278477499989
 20
16962.186441000009
 30
0.0
 11
26024.116763499991
 21
17013.620272000011
 31
0.0
  0
LINE
  5
449B
  8
2-0
  6
CONTINUOUS
 62
     6
 10
26024.116763499991
 20
17013.620272000011
 30
0.0
 11
25895.281776499989
 21
16915.079837000008
 31
0.0
  0
LINE
  5
449C
  8
2-0
  6
CONTINUOUS
 62
     6
 10
25870.278477499989
 20
16962.186441000009
 30
0.0
 11
25895.281776499989
 21
16915.079837000008
 31
0.0
  0
LINE
  5
449D
  8
2-0
  6
CONTINUOUS
 62
     6
 10
25895.281776499989
 20
16915.079837000008
 30
0.0
 11
26024.116763499991
 21
17013.620272000011
 31
0.0
  0
LINE
  5
449E
  8
2-0
  6
CONTINUOUS
 62
     6
 10
26024.116763499991
 20
17013.620272000011
 30
0.0
 11
25870.278477499989
 21
16962.186441000009
 31
0.0
  0
LINE
  5
449F
  8
2-0
  6
CONTINUOUS
 62
     6
 10
25870.278477499989
 20
16962.186441000009
 30
0.0
 11
26024.116763499991
 21
17013.620272000011
 31
0.0
  0
LINE
  5
44A0
  8
2-0
  6
CONTINUOUS
 62
     6
 10
25895.281776499989
 20
16915.079837000008
 30
0.0
 11
26024.116763499991
 21
17013.620272000011
 31
0.0
  0
LINE
  5
44A1
  8
2-0
  6
CONTINUOUS
 62
     6
 10
25895.281776499989
 20
16915.079837000008
 30
0.0
 11
25870.278477499989
 21
16962.186441000009
 31
0.0
  0
LINE
  5
44A2
  8
2-0
  6
CONTINUOUS
 62
     6
 10
25736.34227049999
 20
17453.504933000011
 30
0.0
 11
25879.225901499991
 21
17376.729304000011
 31
0.0
  0
LINE
  5
44A3
  8
2-0
  6
CONTINUOUS
 62
     6
 10
25879.225901499991
 20
17376.729304000011
 30
0.0
 11
25719.164008499982
 21
17403.011373000008
 31
0.0
  0
LINE
  5
44A4
  8
2-0
  6
CONTINUOUS
 62
     6
 10
25736.34227049999
 20
17453.504933000011
 30
0.0
 11
25719.164008499982
 21
17403.011373000008
 31
0.0
  0
LINE
  5
44A5
  8
2-0
  6
CONTINUOUS
 62
     6
 10
25719.164008499982
 20
17403.011373000008
 30
0.0
 11
25879.225901499991
 21
17376.729304000011
 31
0.0
  0
LINE
  5
44A6
  8
2-0
  6
CONTINUOUS
 62
     6
 10
25879.225901499991
 20
17376.729304000011
 30
0.0
 11
25736.34227049999
 21
17453.504933000011
 31
0.0
  0
LINE
  5
44A7
  8
2-0
  6
CONTINUOUS
 62
     6
 10
25736.34227049999
 20
17453.504933000011
 30
0.0
 11
25879.225901499991
 21
17376.729304000011
 31
0.0
  0
LINE
  5
44A8
  8
2-0
  6
CONTINUOUS
 62
     6
 10
25719.164008499982
 20
17403.011373000008
 30
0.0
 11
25879.225901499991
 21
17376.729304000011
 31
0.0
  0
LINE
  5
44A9
  8
2-0
  6
CONTINUOUS
 62
     6
 10
25719.164008499982
 20
17403.011373000008
 30
0.0
 11
25736.34227049999
 21
17453.504933000011
 31
0.0
  0
LINE
  5
44AA
  8
2-0
  6
CONTINUOUS
 62
     6
 10
25777.793389499981
 20
18693.985307999999
 30
0.0
 11
25933.11235649998
 21
18740.72965999999
 31
0.0
  0
LINE
  5
44AB
  8
2-0
  6
CONTINUOUS
 62
     6
 10
25933.11235649998
 20
18740.72965999999
 30
0.0
 11
25801.351640499968
 21
18646.134406000008
 31
0.0
  0
LINE
  5
44AC
  8
2-0
  6
CONTINUOUS
 62
     6
 10
25777.793389499981
 20
18693.985307999999
 30
0.0
 11
25801.351640499968
 21
18646.134406000008
 31
0.0
  0
LINE
  5
44AD
  8
2-0
  6
CONTINUOUS
 62
     6
 10
25801.351640499968
 20
18646.134406000008
 30
0.0
 11
25933.11235649998
 21
18740.72965999999
 31
0.0
  0
LINE
  5
44AE
  8
2-0
  6
CONTINUOUS
 62
     6
 10
25933.11235649998
 20
18740.72965999999
 30
0.0
 11
25777.793389499981
 21
18693.985307999999
 31
0.0
  0
LINE
  5
44AF
  8
2-0
  6
CONTINUOUS
 62
     6
 10
25777.793389499981
 20
18693.985307999999
 30
0.0
 11
25933.11235649998
 21
18740.72965999999
 31
0.0
  0
LINE
  5
44B0
  8
2-0
  6
CONTINUOUS
 62
     6
 10
25801.351640499968
 20
18646.134406000008
 30
0.0
 11
25933.11235649998
 21
18740.72965999999
 31
0.0
  0
LINE
  5
44B1
  8
2-0
  6
CONTINUOUS
 62
     6
 10
25801.351640499968
 20
18646.134406000008
 30
0.0
 11
25777.793389499981
 21
18693.985307999999
 31
0.0
  0
LINE
  5
44B2
  8
2-0
  6
CONTINUOUS
 62
     3
 10
21973.619060499979
 20
19934.229199000009
 30
0.0
 11
21936.61789849999
 21
19934.229199000009
 31
0.0
  0
LINE
  5
44B3
  8
2-0
  6
CONTINUOUS
 62
     3
 10
21973.619060499979
 20
19904.22563600001
 30
0.0
 11
21973.619060499979
 21
19934.229199000009
 31
0.0
  0
LINE
  5
44B4
  8
2-0
  6
CONTINUOUS
 62
     3
 10
21967.619139499981
 20
19904.22563600001
 30
0.0
 11
21973.619060499979
 21
19904.22563600001
 31
0.0
  0
LINE
  5
44B5
  8
2-0
  6
CONTINUOUS
 62
     3
 10
21983.716584499991
 20
19904.22563600001
 30
0.0
 11
21983.716584499991
 21
19934.229199000009
 31
0.0
  0
LINE
  5
44B6
  8
2-0
  6
CONTINUOUS
 62
     3
 10
21965.712863499979
 20
19904.22563600001
 30
0.0
 11
21983.716584499991
 21
19904.22563600001
 31
0.0
  0
LINE
  5
44B7
  8
2-0
  6
CONTINUOUS
 62
     3
 10
21965.712863499979
 20
19929.234873000001
 30
0.0
 11
21965.712863499979
 21
19904.22563600001
 31
0.0
  0
LINE
  5
44B8
  8
2-0
  6
CONTINUOUS
 62
     3
 10
21970.713127499988
 20
19929.234873000001
 30
0.0
 11
21965.712863499979
 21
19929.234873000001
 31
0.0
  0
LINE
  5
44B9
  8
2-0
  6
CONTINUOUS
 62
     3
 10
21970.713127499988
 20
19922.229357000011
 30
0.0
 11
21970.713127499988
 21
19929.234873000001
 31
0.0
  0
LINE
  5
44BA
  8
2-0
  6
CONTINUOUS
 62
     3
 10
21939.523832499981
 20
19922.229357000011
 30
0.0
 11
21939.523832499981
 21
19929.234873000001
 31
0.0
  0
LINE
  5
44BB
  8
2-0
  6
CONTINUOUS
 62
     3
 10
21939.523832499981
 20
19929.234873000001
 30
0.0
 11
21944.52409649999
 21
19929.234873000001
 31
0.0
  0
LINE
  5
44BC
  8
2-0
  6
CONTINUOUS
 62
     3
 10
21944.52409649999
 20
19929.234873000001
 30
0.0
 11
21944.52409649999
 21
19904.22563600001
 31
0.0
  0
LINE
  5
44BD
  8
2-0
  6
CONTINUOUS
 62
     3
 10
21944.52409649999
 20
19904.22563600001
 30
0.0
 11
21926.52433349999
 21
19904.22563600001
 31
0.0
  0
LINE
  5
44BE
  8
2-0
  6
CONTINUOUS
 62
     3
 10
21926.52433349999
 20
19904.22563600001
 30
0.0
 11
21926.52433349999
 21
19934.229199000009
 31
0.0
  0
LINE
  5
44BF
  8
2-0
  6
CONTINUOUS
 62
     3
 10
21942.617819499981
 20
19904.22563600001
 30
0.0
 11
21936.61789849999
 21
19904.22563600001
 31
0.0
  0
LINE
  5
44C0
  8
2-0
  6
CONTINUOUS
 62
     3
 10
21936.61789849999
 20
19904.22563600001
 30
0.0
 11
21936.61789849999
 21
19934.229199000009
 31
0.0
  0
LINE
  5
44C1
  8
2-0
  6
CONTINUOUS
 62
     3
 10
19432.1197995
 20
19825.228987999999
 30
0.0
 11
19432.1197995
 21
19819.23302600002
 31
0.0
  0
LINE
  5
44C2
  8
2-0
  6
CONTINUOUS
 62
     3
 10
19432.1197995
 20
19819.23302600002
 30
0.0
 11
19402.122174499978
 21
19819.23302600002
 31
0.0
  0
LINE
  5
44C3
  8
2-0
  6
CONTINUOUS
 62
     3
 10
19402.122174499978
 20
19819.23302600002
 30
0.0
 11
19402.122174499978
 21
19934.229199000009
 31
0.0
  0
LINE
  5
44C4
  8
2-0
  6
CONTINUOUS
 62
     3
 10
19402.122174499978
 20
19849.23263000001
 30
0.0
 11
19483.120115499991
 21
19849.23263000001
 31
0.0
  0
LINE
  5
44C5
  8
2-0
  6
CONTINUOUS
 62
     3
 10
19432.1197995
 20
19808.935570000001
 30
0.0
 11
19402.122174499978
 21
19808.935570000001
 31
0.0
  0
LINE
  5
44C6
  8
2-0
  6
CONTINUOUS
 62
     3
 10
19432.1197995
 20
19826.93731200002
 30
0.0
 11
19432.1197995
 21
19808.935570000001
 31
0.0
  0
LINE
  5
44C7
  8
2-0
  6
CONTINUOUS
 62
     3
 10
19407.126397499989
 20
19826.93731200002
 30
0.0
 11
19432.1197995
 21
19826.93731200002
 31
0.0
  0
LINE
  5
44C8
  8
2-0
  6
CONTINUOUS
 62
     3
 10
19407.126397499989
 20
19821.929130000019
 30
0.0
 11
19407.126397499989
 21
19826.93731200002
 31
0.0
  0
LINE
  5
44C9
  8
2-0
  6
CONTINUOUS
 62
     3
 10
19414.123995499969
 20
19821.929130000019
 30
0.0
 11
19407.126397499989
 21
19821.929130000019
 31
0.0
  0
LINE
  5
44CA
  8
2-0
  6
CONTINUOUS
 62
     3
 10
19514.418284499981
 20
19922.229357000011
 30
0.0
 11
19514.418284499981
 21
19929.234873000001
 31
0.0
  0
LINE
  5
44CB
  8
2-0
  6
CONTINUOUS
 62
     3
 10
19514.418284499981
 20
19929.234873000001
 30
0.0
 11
19509.416040499978
 21
19929.234873000001
 31
0.0
  0
LINE
  5
44CC
  8
2-0
  6
CONTINUOUS
 62
     3
 10
19509.416040499978
 20
19929.234873000001
 30
0.0
 11
19509.416040499978
 21
19904.22563600001
 31
0.0
  0
LINE
  5
44CD
  8
2-0
  6
CONTINUOUS
 62
     3
 10
19509.416040499978
 20
19904.22563600001
 30
0.0
 11
19527.423721499981
 21
19904.22563600001
 31
0.0
  0
LINE
  5
44CE
  8
2-0
  6
CONTINUOUS
 62
     3
 10
19527.423721499981
 20
19904.22563600001
 30
0.0
 11
19527.423721499981
 21
19934.229199000009
 31
0.0
  0
LINE
  5
44CF
  8
2-0
  6
CONTINUOUS
 62
     3
 10
19517.124285499991
 20
19934.229199000009
 30
0.0
 11
19402.122174499978
 21
19934.229199000009
 31
0.0
  0
LINE
  5
44D0
  8
2-0
  6
CONTINUOUS
 62
     3
 10
19517.124285499991
 20
19904.22563600001
 30
0.0
 11
19517.124285499991
 21
19934.229199000009
 31
0.0
  0
LINE
  5
44D1
  8
2-0
  6
CONTINUOUS
 62
     3
 10
19511.120406499991
 20
19904.22563600001
 30
0.0
 11
19517.124285499991
 21
19904.22563600001
 31
0.0
  0
LINE
  5
44D2
  8
2-0
  6
CONTINUOUS
 62
     3
 10
20568.70817799999
 20
19922.229357000011
 30
0.0
 11
20568.70817799999
 21
19929.234873000001
 31
0.0
  0
LINE
  5
44D3
  8
2-0
  6
CONTINUOUS
 62
     3
 10
20568.70817799999
 20
19929.234873000001
 30
0.0
 11
20563.707913999991
 21
19929.234873000001
 31
0.0
  0
LINE
  5
44D4
  8
2-0
  6
CONTINUOUS
 62
     3
 10
20563.707913999991
 20
19929.234873000001
 30
0.0
 11
20563.707913999991
 21
19904.22563600001
 31
0.0
  0
LINE
  5
44D5
  8
2-0
  6
CONTINUOUS
 62
     3
 10
20563.707913999991
 20
19904.22563600001
 30
0.0
 11
20581.71361499999
 21
19904.22563600001
 31
0.0
  0
LINE
  5
44D6
  8
2-0
  6
CONTINUOUS
 62
     3
 10
20581.71361499999
 20
19904.22563600001
 30
0.0
 11
20581.71361499999
 21
19934.229199000009
 31
0.0
  0
LINE
  5
44D7
  8
2-0
  6
CONTINUOUS
 62
     3
 10
20565.616169999979
 20
19904.22563600001
 30
0.0
 11
20571.61806999999
 21
19904.22563600001
 31
0.0
  0
LINE
  5
44D8
  8
2-0
  6
CONTINUOUS
 62
     3
 10
20571.61806999999
 20
19904.22563600001
 30
0.0
 11
20571.61806999999
 21
19934.229199000009
 31
0.0
  0
LINE
  5
44D9
  8
2-0
  6
CONTINUOUS
 62
     3
 10
20534.618888999968
 20
19934.229199000009
 30
0.0
 11
20571.61806999999
 21
19934.229199000009
 31
0.0
  0
LINE
  5
44DA
  8
2-0
  6
CONTINUOUS
 62
     3
 10
20534.618888999968
 20
19904.22563600001
 30
0.0
 11
20534.618888999968
 21
19934.229199000009
 31
0.0
  0
LINE
  5
44DB
  8
2-0
  6
CONTINUOUS
 62
     3
 10
20540.61287099999
 20
19904.22563600001
 30
0.0
 11
20534.618888999968
 21
19904.22563600001
 31
0.0
  0
LINE
  5
44DC
  8
2-0
  6
CONTINUOUS
 62
     3
 10
20524.523343999979
 20
19904.22563600001
 30
0.0
 11
20524.523343999979
 21
19934.229199000009
 31
0.0
  0
LINE
  5
44DD
  8
2-0
  6
CONTINUOUS
 62
     3
 10
20542.519146999992
 20
19904.22563600001
 30
0.0
 11
20524.523343999979
 21
19904.22563600001
 31
0.0
  0
LINE
  5
44DE
  8
2-0
  6
CONTINUOUS
 62
     3
 10
20542.519146999992
 20
19929.234873000001
 30
0.0
 11
20542.519146999992
 21
19904.22563600001
 31
0.0
  0
LINE
  5
44DF
  8
2-0
  6
CONTINUOUS
 62
     3
 10
20537.518882999979
 20
19929.234873000001
 30
0.0
 11
20542.519146999992
 21
19929.234873000001
 31
0.0
  0
LINE
  5
44E0
  8
2-0
  6
CONTINUOUS
 62
     3
 10
20537.518882999979
 20
19922.229357000011
 30
0.0
 11
20537.518882999979
 21
19929.234873000001
 31
0.0
  0
LINE
  5
44E1
  8
2-0
  6
CONTINUOUS
 62
     3
 10
21238.517893999979
 20
19922.229357000011
 30
0.0
 11
21238.517893999979
 21
19929.234873000001
 31
0.0
  0
LINE
  5
44E2
  8
2-0
  6
CONTINUOUS
 62
     3
 10
21238.517893999979
 20
19929.234873000001
 30
0.0
 11
21243.518156999991
 21
19929.234873000001
 31
0.0
  0
LINE
  5
44E3
  8
2-0
  6
CONTINUOUS
 62
     3
 10
21243.518156999991
 20
19929.234873000001
 30
0.0
 11
21243.518156999991
 21
19904.22563600001
 31
0.0
  0
LINE
  5
44E4
  8
2-0
  6
CONTINUOUS
 62
     3
 10
21243.518156999991
 20
19904.22563600001
 30
0.0
 11
21225.524333999969
 21
19904.22563600001
 31
0.0
  0
LINE
  5
44E5
  8
2-0
  6
CONTINUOUS
 62
     3
 10
21225.524333999969
 20
19904.22563600001
 30
0.0
 11
21225.524333999969
 21
19934.229199000009
 31
0.0
  0
LINE
  5
44E6
  8
2-0
  6
CONTINUOUS
 62
     3
 10
21241.61583999998
 20
19904.22563600001
 30
0.0
 11
21235.61789899999
 21
19904.22563600001
 31
0.0
  0
LINE
  5
44E7
  8
2-0
  6
CONTINUOUS
 62
     3
 10
21235.61789899999
 20
19904.22563600001
 30
0.0
 11
21235.61789899999
 21
19934.229199000009
 31
0.0
  0
LINE
  5
44E8
  8
2-0
  6
CONTINUOUS
 62
     3
 10
21272.61905999999
 20
19934.229199000009
 30
0.0
 11
21235.61789899999
 21
19934.229199000009
 31
0.0
  0
LINE
  5
44E9
  8
2-0
  6
CONTINUOUS
 62
     3
 10
21272.61905999999
 20
19904.22563600001
 30
0.0
 11
21272.61905999999
 21
19934.229199000009
 31
0.0
  0
LINE
  5
44EA
  8
2-0
  6
CONTINUOUS
 62
     3
 10
21266.613200999978
 20
19904.22563600001
 30
0.0
 11
21272.61905999999
 21
19904.22563600001
 31
0.0
  0
LINE
  5
44EB
  8
2-0
  6
CONTINUOUS
 62
     3
 10
21282.712624999978
 20
19904.22563600001
 30
0.0
 11
21282.712624999978
 21
19934.229199000009
 31
0.0
  0
LINE
  5
44EC
  8
2-0
  6
CONTINUOUS
 62
     3
 10
21264.716821999991
 20
19904.22563600001
 30
0.0
 11
21282.712624999978
 21
19904.22563600001
 31
0.0
  0
LINE
  5
44ED
  8
2-0
  6
CONTINUOUS
 62
     3
 10
21264.716821999991
 20
19929.234873000001
 30
0.0
 11
21264.716821999991
 21
19904.22563600001
 31
0.0
  0
LINE
  5
44EE
  8
2-0
  6
CONTINUOUS
 62
     3
 10
21269.707187999989
 20
19929.234873000001
 30
0.0
 11
21264.716821999991
 21
19929.234873000001
 31
0.0
  0
LINE
  5
44EF
  8
2-0
  6
CONTINUOUS
 62
     3
 10
21269.707187999989
 20
19922.229357000011
 30
0.0
 11
21269.707187999989
 21
19929.234873000001
 31
0.0
  0
LINE
  5
44F0
  8
2-0
  6
CONTINUOUS
 62
     3
 10
20581.71361499999
 20
19934.229199000009
 30
0.0
 11
21225.524333999969
 21
19934.229199000009
 31
0.0
  0
LINE
  5
44F1
  8
2-0
  6
CONTINUOUS
 62
     3
 10
19880.917505500001
 20
19934.229199000009
 30
0.0
 11
20524.523343999979
 21
19934.229199000009
 31
0.0
  0
LINE
  5
44F2
  8
2-0
  6
CONTINUOUS
 62
     3
 10
21926.52433349999
 20
19934.229199000009
 30
0.0
 11
21282.712624999978
 21
19934.229199000009
 31
0.0
  0
LINE
  5
44F3
  8
2-0
  6
CONTINUOUS
 62
     3
 10
19432.1197995
 20
19825.228987999999
 30
0.0
 11
19432.1197995
 21
19819.23302600002
 31
0.0
  0
LINE
  5
44F4
  8
2-0
  6
CONTINUOUS
 62
     3
 10
19432.1197995
 20
19819.23302600002
 30
0.0
 11
19402.122174499978
 21
19819.23302600002
 31
0.0
  0
LINE
  5
44F5
  8
2-0
  6
CONTINUOUS
 62
     3
 10
19402.122174499978
 20
19819.23302600002
 30
0.0
 11
19402.122174499978
 21
19934.229199000009
 31
0.0
  0
LINE
  5
44F6
  8
2-0
  6
CONTINUOUS
 62
     3
 10
19402.122174499978
 20
19849.23263000001
 30
0.0
 11
19483.120115499991
 21
19849.23263000001
 31
0.0
  0
LINE
  5
44F7
  8
2-0
  6
CONTINUOUS
 62
     3
 10
19432.1197995
 20
19808.935570000001
 30
0.0
 11
19402.122174499978
 21
19808.935570000001
 31
0.0
  0
LINE
  5
44F8
  8
2-0
  6
CONTINUOUS
 62
     3
 10
19432.1197995
 20
19826.93731200002
 30
0.0
 11
19432.1197995
 21
19808.935570000001
 31
0.0
  0
LINE
  5
44F9
  8
2-0
  6
CONTINUOUS
 62
     3
 10
19407.126397499989
 20
19826.93731200002
 30
0.0
 11
19432.1197995
 21
19826.93731200002
 31
0.0
  0
LINE
  5
44FA
  8
2-0
  6
CONTINUOUS
 62
     3
 10
19407.126397499989
 20
19821.929130000019
 30
0.0
 11
19407.126397499989
 21
19826.93731200002
 31
0.0
  0
LINE
  5
44FB
  8
2-0
  6
CONTINUOUS
 62
     3
 10
19414.123995499969
 20
19821.929130000019
 30
0.0
 11
19407.126397499989
 21
19821.929130000019
 31
0.0
  0
LINE
  5
44FC
  8
2-0
  6
CONTINUOUS
 62
     3
 10
19414.123995499969
 20
19468.632307499978
 30
0.0
 11
19407.126397499989
 21
19468.632307499978
 31
0.0
  0
LINE
  5
44FD
  8
2-0
  6
CONTINUOUS
 62
     3
 10
19407.126397499989
 20
19468.632307499978
 30
0.0
 11
19407.126397499989
 21
19473.632571499991
 31
0.0
  0
LINE
  5
44FE
  8
2-0
  6
CONTINUOUS
 62
     3
 10
19407.126397499989
 20
19473.632571499991
 30
0.0
 11
19432.1197995
 21
19473.632571499991
 31
0.0
  0
LINE
  5
44FF
  8
2-0
  6
CONTINUOUS
 62
     3
 10
19432.1197995
 20
19473.632571499991
 30
0.0
 11
19432.1197995
 21
19455.636767499989
 31
0.0
  0
LINE
  5
4500
  8
2-0
  6
CONTINUOUS
 62
     3
 10
19432.1197995
 20
19455.636767499989
 30
0.0
 11
19402.122174499978
 21
19455.636767499989
 31
0.0
  0
LINE
  5
4501
  8
2-0
  6
CONTINUOUS
 62
     3
 10
19432.1197995
 20
19471.728274499968
 30
0.0
 11
19432.1197995
 21
19465.730333499989
 31
0.0
  0
LINE
  5
4502
  8
2-0
  6
CONTINUOUS
 62
     3
 10
19432.1197995
 20
19465.730333499989
 30
0.0
 11
19402.122174499978
 21
19465.730333499989
 31
0.0
  0
LINE
  5
4503
  8
2-0
  6
CONTINUOUS
 62
     3
 10
19402.122174499978
 20
19465.730333499989
 30
0.0
 11
19402.122174499978
 21
19502.7314945
 31
0.0
  0
LINE
  5
4504
  8
2-0
  6
CONTINUOUS
 62
     3
 10
19432.1197995
 20
19502.7314945
 30
0.0
 11
19402.122174499978
 21
19502.7314945
 31
0.0
  0
LINE
  5
4505
  8
2-0
  6
CONTINUOUS
 62
     3
 10
19432.1197995
 20
19496.727614499981
 30
0.0
 11
19432.1197995
 21
19502.7314945
 31
0.0
  0
LINE
  5
4506
  8
2-0
  6
CONTINUOUS
 62
     3
 10
19432.1197995
 20
19512.827039499982
 30
0.0
 11
19402.122174499978
 21
19512.827039499982
 31
0.0
  0
LINE
  5
4507
  8
2-0
  6
CONTINUOUS
 62
     3
 10
19432.1197995
 20
19494.8252975
 30
0.0
 11
19432.1197995
 21
19512.827039499982
 31
0.0
  0
LINE
  5
4508
  8
2-0
  6
CONTINUOUS
 62
     3
 10
19407.126397499989
 20
19494.8252975
 30
0.0
 11
19432.1197995
 21
19494.8252975
 31
0.0
  0
LINE
  5
4509
  8
2-0
  6
CONTINUOUS
 62
     3
 10
19407.126397499989
 20
19499.825561500002
 30
0.0
 11
19407.126397499989
 21
19494.8252975
 31
0.0
  0
LINE
  5
450A
  8
2-0
  6
CONTINUOUS
 62
     3
 10
19414.123995499969
 20
19499.825561500002
 30
0.0
 11
19407.126397499989
 21
19499.825561500002
 31
0.0
  0
LINE
  5
450B
  8
2-0
  6
CONTINUOUS
 62
     3
 10
19414.123995499969
 20
18767.631317999989
 30
0.0
 11
19407.126397499989
 21
18767.631317999989
 31
0.0
  0
LINE
  5
450C
  8
2-0
  6
CONTINUOUS
 62
     3
 10
19407.126397499989
 20
18767.631317999989
 30
0.0
 11
19407.126397499989
 21
18772.63752
 31
0.0
  0
LINE
  5
450D
  8
2-0
  6
CONTINUOUS
 62
     3
 10
19407.126397499989
 20
18772.63752
 30
0.0
 11
19432.1197995
 21
18772.63752
 31
0.0
  0
LINE
  5
450E
  8
2-0
  6
CONTINUOUS
 62
     3
 10
19432.1197995
 20
18772.63752
 30
0.0
 11
19432.1197995
 21
18754.635778
 31
0.0
  0
LINE
  5
450F
  8
2-0
  6
CONTINUOUS
 62
     3
 10
19432.1197995
 20
18754.635778
 30
0.0
 11
19402.122174499978
 21
18754.635778
 31
0.0
  0
LINE
  5
4510
  8
2-0
  6
CONTINUOUS
 62
     3
 10
19432.1197995
 20
18770.72728499999
 30
0.0
 11
19432.1197995
 21
18764.731322999989
 31
0.0
  0
LINE
  5
4511
  8
2-0
  6
CONTINUOUS
 62
     3
 10
19432.1197995
 20
18764.731322999989
 30
0.0
 11
19402.122174499978
 21
18764.731322999989
 31
0.0
  0
LINE
  5
4512
  8
2-0
  6
CONTINUOUS
 62
     3
 10
19402.122174499978
 20
18764.731322999989
 30
0.0
 11
19402.122174499978
 21
18801.730505
 31
0.0
  0
LINE
  5
4513
  8
2-0
  6
CONTINUOUS
 62
     3
 10
19432.1197995
 20
18801.730505
 30
0.0
 11
19402.122174499978
 21
18801.730505
 31
0.0
  0
LINE
  5
4514
  8
2-0
  6
CONTINUOUS
 62
     3
 10
19432.1197995
 20
18795.73454300001
 30
0.0
 11
19432.1197995
 21
18801.730505
 31
0.0
  0
LINE
  5
4515
  8
2-0
  6
CONTINUOUS
 62
     3
 10
19432.1197995
 20
18811.82605
 30
0.0
 11
19402.122174499978
 21
18811.82605
 31
0.0
  0
LINE
  5
4516
  8
2-0
  6
CONTINUOUS
 62
     3
 10
19432.1197995
 20
18793.824307999988
 30
0.0
 11
19432.1197995
 21
18811.82605
 31
0.0
  0
LINE
  5
4517
  8
2-0
  6
CONTINUOUS
 62
     3
 10
19407.126397499989
 20
18793.824307999988
 30
0.0
 11
19432.1197995
 21
18793.824307999988
 31
0.0
  0
LINE
  5
4518
  8
2-0
  6
CONTINUOUS
 62
     3
 10
19407.126397499989
 20
18798.83051
 30
0.0
 11
19407.126397499989
 21
18793.824307999988
 31
0.0
  0
LINE
  5
4519
  8
2-0
  6
CONTINUOUS
 62
     3
 10
19414.123995499969
 20
18798.83051
 30
0.0
 11
19407.126397499989
 21
18798.83051
 31
0.0
  0
LINE
  5
451A
  8
2-0
  6
CONTINUOUS
 62
     3
 10
19414.123995499969
 20
18097.824572000001
 30
0.0
 11
19407.126397499989
 21
18097.824572000001
 31
0.0
  0
LINE
  5
451B
  8
2-0
  6
CONTINUOUS
 62
     3
 10
19407.126397499989
 20
18097.824572000001
 30
0.0
 11
19407.126397499989
 21
18092.836185
 31
0.0
  0
LINE
  5
451C
  8
2-0
  6
CONTINUOUS
 62
     3
 10
19407.126397499989
 20
18092.836185
 30
0.0
 11
19432.1197995
 21
18092.836185
 31
0.0
  0
LINE
  5
451D
  8
2-0
  6
CONTINUOUS
 62
     3
 10
19432.1197995
 20
18092.836185
 30
0.0
 11
19432.1197995
 21
18110.831988000002
 31
0.0
  0
LINE
  5
451E
  8
2-0
  6
CONTINUOUS
 62
     3
 10
19432.1197995
 20
18110.831988000002
 30
0.0
 11
19402.122174499978
 21
18110.831988000002
 31
0.0
  0
LINE
  5
451F
  8
2-0
  6
CONTINUOUS
 62
     3
 10
19432.1197995
 20
18094.734542999991
 30
0.0
 11
19432.1197995
 21
18100.730504999981
 31
0.0
  0
LINE
  5
4520
  8
2-0
  6
CONTINUOUS
 62
     3
 10
19432.1197995
 20
18100.730504999981
 30
0.0
 11
19402.122174499978
 21
18100.730504999981
 31
0.0
  0
LINE
  5
4521
  8
2-0
  6
CONTINUOUS
 62
     3
 10
19402.122174499978
 20
18100.730504999981
 30
0.0
 11
19402.122174499978
 21
18063.731323
 31
0.0
  0
LINE
  5
4522
  8
2-0
  6
CONTINUOUS
 62
     3
 10
19432.1197995
 20
18063.731323
 30
0.0
 11
19402.122174499978
 21
18063.731323
 31
0.0
  0
LINE
  5
4523
  8
2-0
  6
CONTINUOUS
 62
     3
 10
19432.1197995
 20
18069.733223999981
 30
0.0
 11
19432.1197995
 21
18063.731323
 31
0.0
  0
LINE
  5
4524
  8
2-0
  6
CONTINUOUS
 62
     3
 10
19432.1197995
 20
18053.641716999991
 30
0.0
 11
19402.122174499978
 21
18053.641716999991
 31
0.0
  0
LINE
  5
4525
  8
2-0
  6
CONTINUOUS
 62
     3
 10
19432.1197995
 20
18071.63752
 30
0.0
 11
19432.1197995
 21
18053.641716999991
 31
0.0
  0
LINE
  5
4526
  8
2-0
  6
CONTINUOUS
 62
     3
 10
19407.126397499989
 20
18071.63752
 30
0.0
 11
19432.1197995
 21
18071.63752
 31
0.0
  0
LINE
  5
4527
  8
2-0
  6
CONTINUOUS
 62
     3
 10
19407.126397499989
 20
18066.637256999998
 30
0.0
 11
19407.126397499989
 21
18071.63752
 31
0.0
  0
LINE
  5
4528
  8
2-0
  6
CONTINUOUS
 62
     3
 10
19414.123995499969
 20
18066.637256999998
 30
0.0
 11
19407.126397499989
 21
18066.637256999998
 31
0.0
  0
LINE
  5
4529
  8
2-0
  6
CONTINUOUS
 62
     3
 10
19405.008312499991
 20
17346.728143
 30
0.0
 11
19405.008312499991
 21
17366.72919799999
 31
0.0
  0
LINE
  5
452A
  8
2-0
  6
CONTINUOUS
 62
     3
 10
19405.008312499991
 20
17366.72919799999
 30
0.0
 11
19490.008840499991
 21
17366.72919799999
 31
0.0
  0
LINE
  5
452B
  8
2-0
  6
CONTINUOUS
 62
     3
 10
19414.123995499969
 20
17393.335908000001
 30
0.0
 11
19407.126397499989
 21
17393.335908000001
 31
0.0
  0
LINE
  5
452C
  8
2-0
  6
CONTINUOUS
 62
     3
 10
19407.126397499989
 20
17393.335908000001
 30
0.0
 11
19407.126397499989
 21
17388.341582000001
 31
0.0
  0
LINE
  5
452D
  8
2-0
  6
CONTINUOUS
 62
     3
 10
19407.126397499989
 20
17388.341582000001
 30
0.0
 11
19432.1197995
 21
17388.341582000001
 31
0.0
  0
LINE
  5
452E
  8
2-0
  6
CONTINUOUS
 62
     3
 10
19432.1197995
 20
17388.341582000001
 30
0.0
 11
19432.1197995
 21
17406.33738600001
 31
0.0
  0
LINE
  5
452F
  8
2-0
  6
CONTINUOUS
 62
     3
 10
19432.1197995
 20
17406.33738600001
 30
0.0
 11
19402.122174499978
 21
17406.33738600001
 31
0.0
  0
LINE
  5
4530
  8
2-0
  6
CONTINUOUS
 62
     3
 10
19432.1197995
 20
17396.728802000001
 30
0.0
 11
19432.1197995
 21
17390.726901999991
 31
0.0
  0
LINE
  5
4531
  8
2-0
  6
CONTINUOUS
 62
     3
 10
19402.122174499978
 20
17396.728802000001
 30
0.0
 11
19432.1197995
 21
17396.728802000001
 31
0.0
  0
LINE
  5
4532
  8
2-0
  6
CONTINUOUS
 62
     3
 10
19402.122174499978
 20
17406.33738600001
 30
0.0
 11
19402.122174499978
 21
18053.641716999991
 31
0.0
  0
LINE
  5
4533
  8
2-0
  6
CONTINUOUS
 62
     3
 10
19402.122174499978
 20
18110.831988000002
 30
0.0
 11
19402.122174499978
 21
18754.635778
 31
0.0
  0
LINE
  5
4534
  8
2-0
  6
CONTINUOUS
 62
     3
 10
19402.122174499978
 20
17251.72708700001
 30
0.0
 11
19432.1197995
 21
17251.72708700001
 31
0.0
  0
LINE
  5
4535
  8
2-0
  6
CONTINUOUS
 62
     3
 10
19432.1197995
 20
17251.72708700001
 30
0.0
 11
19432.1197995
 21
17257.728986999999
 31
0.0
  0
LINE
  5
4536
  8
2-0
  6
CONTINUOUS
 62
     3
 10
19490.008840499991
 20
17281.732629999991
 30
0.0
 11
19405.008312499991
 21
17281.732629999991
 31
0.0
  0
LINE
  5
4537
  8
2-0
  6
CONTINUOUS
 62
     3
 10
19405.008312499991
 20
17281.732629999991
 30
0.0
 11
19405.008312499991
 21
17301.727747000012
 31
0.0
  0
LINE
  5
4538
  8
2-0
  6
CONTINUOUS
 62
     3
 10
19432.1197995
 20
17242.118504000009
 30
0.0
 11
19402.122174499978
 21
17242.118504000009
 31
0.0
  0
LINE
  5
4539
  8
2-0
  6
CONTINUOUS
 62
     3
 10
19432.1197995
 20
17260.114306999982
 30
0.0
 11
19432.1197995
 21
17242.118504000009
 31
0.0
  0
LINE
  5
453A
  8
2-0
  6
CONTINUOUS
 62
     3
 10
19407.126397499989
 20
17260.114306999982
 30
0.0
 11
19432.1197995
 21
17260.114306999982
 31
0.0
  0
LINE
  5
453B
  8
2-0
  6
CONTINUOUS
 62
     3
 10
19407.126397499989
 20
17255.114043000009
 30
0.0
 11
19407.126397499989
 21
17260.114306999982
 31
0.0
  0
LINE
  5
453C
  8
2-0
  6
CONTINUOUS
 62
     3
 10
19414.123995499969
 20
17255.114043000009
 30
0.0
 11
19407.126397499989
 21
17255.114043000009
 31
0.0
  0
LINE
  5
453D
  8
2-0
  6
CONTINUOUS
 62
     3
 10
19414.123995499969
 20
16550.631812499989
 30
0.0
 11
19407.126397499989
 21
16550.631812499989
 31
0.0
  0
LINE
  5
453E
  8
2-0
  6
CONTINUOUS
 62
     3
 10
19407.126397499989
 20
16550.631812499989
 30
0.0
 11
19407.126397499989
 21
16555.632076499991
 31
0.0
  0
LINE
  5
453F
  8
2-0
  6
CONTINUOUS
 62
     3
 10
19407.126397499989
 20
16555.632076499991
 30
0.0
 11
19432.1197995
 21
16555.632076499991
 31
0.0
  0
LINE
  5
4540
  8
2-0
  6
CONTINUOUS
 62
     3
 10
19432.1197995
 20
16555.632076499991
 30
0.0
 11
19432.1197995
 21
16537.630334499991
 31
0.0
  0
LINE
  5
4541
  8
2-0
  6
CONTINUOUS
 62
     3
 10
19432.1197995
 20
16537.630334499991
 30
0.0
 11
19402.122174499978
 21
16537.630334499991
 31
0.0
  0
LINE
  5
4542
  8
2-0
  6
CONTINUOUS
 62
     3
 10
19432.1197995
 20
16553.727779500001
 30
0.0
 11
19432.1197995
 21
16547.7308285
 31
0.0
  0
LINE
  5
4543
  8
2-0
  6
CONTINUOUS
 62
     3
 10
19432.1197995
 20
16547.7308285
 30
0.0
 11
19402.122174499978
 21
16547.7308285
 31
0.0
  0
LINE
  5
4544
  8
2-0
  6
CONTINUOUS
 62
     3
 10
19402.122174499978
 20
16547.7308285
 30
0.0
 11
19402.122174499978
 21
16584.7309995
 31
0.0
  0
LINE
  5
4545
  8
2-0
  6
CONTINUOUS
 62
     3
 10
19432.1197995
 20
16584.7309995
 30
0.0
 11
19402.122174499978
 21
16584.7309995
 31
0.0
  0
LINE
  5
4546
  8
2-0
  6
CONTINUOUS
 62
     3
 10
19432.1197995
 20
16578.7281095
 30
0.0
 11
19432.1197995
 21
16584.7309995
 31
0.0
  0
LINE
  5
4547
  8
2-0
  6
CONTINUOUS
 62
     3
 10
19432.1197995
 20
16594.8265445
 30
0.0
 11
19402.122174499978
 21
16594.8265445
 31
0.0
  0
LINE
  5
4548
  8
2-0
  6
CONTINUOUS
 62
     3
 10
19432.1197995
 20
16576.818863500001
 30
0.0
 11
19432.1197995
 21
16594.8265445
 31
0.0
  0
LINE
  5
4549
  8
2-0
  6
CONTINUOUS
 62
     3
 10
19407.126397499989
 20
16576.818863500001
 30
0.0
 11
19432.1197995
 21
16576.818863500001
 31
0.0
  0
LINE
  5
454A
  8
2-0
  6
CONTINUOUS
 62
     3
 10
19407.126397499989
 20
16581.825066500001
 30
0.0
 11
19407.126397499989
 21
16576.818863500001
 31
0.0
  0
LINE
  5
454B
  8
2-0
  6
CONTINUOUS
 62
     3
 10
19414.123995499969
 20
16581.825066500001
 30
0.0
 11
19407.126397499989
 21
16581.825066500001
 31
0.0
  0
LINE
  5
454C
  8
2-0
  6
CONTINUOUS
 62
     3
 10
19414.123995499969
 20
15881.065083
 30
0.0
 11
19407.126397499989
 21
15881.065083
 31
0.0
  0
LINE
  5
454D
  8
2-0
  6
CONTINUOUS
 62
     3
 10
19407.126397499989
 20
15881.065083
 30
0.0
 11
19407.126397499989
 21
15876.070758000011
 31
0.0
  0
LINE
  5
454E
  8
2-0
  6
CONTINUOUS
 62
     3
 10
19407.126397499989
 20
15876.070758000011
 30
0.0
 11
19432.1197995
 21
15876.070758000011
 31
0.0
  0
LINE
  5
454F
  8
2-0
  6
CONTINUOUS
 62
     3
 10
19432.1197995
 20
15876.070758000011
 30
0.0
 11
19432.1197995
 21
15894.066561000011
 31
0.0
  0
LINE
  5
4550
  8
2-0
  6
CONTINUOUS
 62
     3
 10
19432.1197995
 20
15894.066561000011
 30
0.0
 11
19402.122174499978
 21
15894.066561000011
 31
0.0
  0
LINE
  5
4551
  8
2-0
  6
CONTINUOUS
 62
     3
 10
19432.1197995
 20
15877.969116
 30
0.0
 11
19432.1197995
 21
15883.97101600001
 31
0.0
  0
LINE
  5
4552
  8
2-0
  6
CONTINUOUS
 62
     3
 10
19432.1197995
 20
15883.97101600001
 30
0.0
 11
19402.122174499978
 21
15883.97101600001
 31
0.0
  0
LINE
  5
4553
  8
2-0
  6
CONTINUOUS
 62
     3
 10
19402.122174499978
 20
15846.971835
 30
0.0
 11
19402.122174499978
 21
15883.97101600001
 31
0.0
  0
LINE
  5
4554
  8
2-0
  6
CONTINUOUS
 62
     3
 10
19432.1197995
 20
15846.971835
 30
0.0
 11
19402.122174499978
 21
15846.971835
 31
0.0
  0
LINE
  5
4555
  8
2-0
  6
CONTINUOUS
 62
     3
 10
19432.1197995
 20
15852.968785999999
 30
0.0
 11
19432.1197995
 21
15846.971835
 31
0.0
  0
LINE
  5
4556
  8
2-0
  6
CONTINUOUS
 62
     3
 10
19432.1197995
 20
15836.870351
 30
0.0
 11
19402.122174499978
 21
15836.870351
 31
0.0
  0
LINE
  5
4557
  8
2-0
  6
CONTINUOUS
 62
     3
 10
19432.1197995
 20
15854.878032000001
 30
0.0
 11
19432.1197995
 21
15836.870351
 31
0.0
  0
LINE
  5
4558
  8
2-0
  6
CONTINUOUS
 62
     3
 10
19407.126397499989
 20
15854.878032000001
 30
0.0
 11
19432.1197995
 21
15854.878032000001
 31
0.0
  0
LINE
  5
4559
  8
2-0
  6
CONTINUOUS
 62
     3
 10
19407.126397499989
 20
15849.87776800002
 30
0.0
 11
19407.126397499989
 21
15854.878032000001
 31
0.0
  0
LINE
  5
455A
  8
2-0
  6
CONTINUOUS
 62
     3
 10
19414.123995499969
 20
15849.87776800002
 30
0.0
 11
19407.126397499989
 21
15849.87776800002
 31
0.0
  0
LINE
  5
455B
  8
2-0
  6
CONTINUOUS
 62
     3
 10
19402.122174499978
 20
17242.118504000009
 30
0.0
 11
19402.122174499978
 21
16594.8265445
 31
0.0
  0
LINE
  5
455C
  8
2-0
  6
CONTINUOUS
 62
     3
 10
19402.122174499978
 20
17396.728802000001
 30
0.0
 11
19402.122174499978
 21
17251.72708700001
 31
0.0
  0
LINE
  5
455D
  8
2-0
  6
CONTINUOUS
 62
     3
 10
19490.008840499991
 20
17366.72919799999
 30
0.0
 11
19490.008840499991
 21
17281.732629999991
 31
0.0
  0
LINE
  5
455E
  8
2-0
  6
CONTINUOUS
 62
     3
 10
19414.123995499969
 20
15148.636761
 30
0.0
 11
19407.126397499989
 21
15148.636761
 31
0.0
  0
LINE
  5
455F
  8
2-0
  6
CONTINUOUS
 62
     3
 10
19407.126397499989
 20
15148.636761
 30
0.0
 11
19407.126397499989
 21
15153.631087000011
 31
0.0
  0
LINE
  5
4560
  8
2-0
  6
CONTINUOUS
 62
     3
 10
19407.126397499989
 20
15153.631087000011
 30
0.0
 11
19432.1197995
 21
15153.631087000011
 31
0.0
  0
LINE
  5
4561
  8
2-0
  6
CONTINUOUS
 62
     3
 10
19432.1197995
 20
15153.631087000011
 30
0.0
 11
19432.1197995
 21
15135.635283000011
 31
0.0
  0
LINE
  5
4562
  8
2-0
  6
CONTINUOUS
 62
     3
 10
19432.1197995
 20
15135.635283000011
 30
0.0
 11
19402.122174499978
 21
15135.635283000011
 31
0.0
  0
LINE
  5
4563
  8
2-0
  6
CONTINUOUS
 62
     3
 10
19432.1197995
 20
15151.73371800001
 30
0.0
 11
19432.1197995
 21
15145.730828000011
 31
0.0
  0
LINE
  5
4564
  8
2-0
  6
CONTINUOUS
 62
     3
 10
19432.1197995
 20
15145.730828000011
 30
0.0
 11
19402.122174499978
 21
15145.730828000011
 31
0.0
  0
LINE
  5
4565
  8
2-0
  6
CONTINUOUS
 62
     3
 10
19402.122174499978
 20
15145.730828000011
 30
0.0
 11
19402.122174499978
 21
15182.730999999991
 31
0.0
  0
LINE
  5
4566
  8
2-0
  6
CONTINUOUS
 62
     3
 10
19432.1197995
 20
15182.730999999991
 30
0.0
 11
19402.122174499978
 21
15182.730999999991
 31
0.0
  0
LINE
  5
4567
  8
2-0
  6
CONTINUOUS
 62
     3
 10
19432.1197995
 20
15176.734048
 30
0.0
 11
19432.1197995
 21
15182.730999999991
 31
0.0
  0
LINE
  5
4568
  8
2-0
  6
CONTINUOUS
 62
     3
 10
19432.1197995
 20
15192.831493000011
 30
0.0
 11
19402.122174499978
 21
15192.831493000011
 31
0.0
  0
LINE
  5
4569
  8
2-0
  6
CONTINUOUS
 62
     3
 10
19432.1197995
 20
15174.82480200001
 30
0.0
 11
19432.1197995
 21
15192.831493000011
 31
0.0
  0
LINE
  5
456A
  8
2-0
  6
CONTINUOUS
 62
     3
 10
19407.126397499989
 20
15174.82480200001
 30
0.0
 11
19432.1197995
 21
15174.82480200001
 31
0.0
  0
LINE
  5
456B
  8
2-0
  6
CONTINUOUS
 62
     3
 10
19407.126397499989
 20
15179.83001500001
 30
0.0
 11
19407.126397499989
 21
15174.82480200001
 31
0.0
  0
LINE
  5
456C
  8
2-0
  6
CONTINUOUS
 62
     3
 10
19414.123995499969
 20
15179.83001500001
 30
0.0
 11
19407.126397499989
 21
15179.83001500001
 31
0.0
  0
LINE
  5
456D
  8
2-0
  6
CONTINUOUS
 62
     3
 10
19432.1197995
 20
14472.732840999999
 30
0.0
 11
19432.1197995
 21
14478.737709999999
 31
0.0
  0
LINE
  5
456E
  8
2-0
  6
CONTINUOUS
 62
     3
 10
19432.1197995
 20
14478.737709999999
 30
0.0
 11
19402.122174499978
 21
14478.737709999999
 31
0.0
  0
LINE
  5
456F
  8
2-0
  6
CONTINUOUS
 62
     3
 10
19402.122174499978
 20
14478.737709999999
 30
0.0
 11
19402.122174499978
 21
14363.733619000001
 31
0.0
  0
LINE
  5
4570
  8
2-0
  6
CONTINUOUS
 62
     3
 10
19402.122174499978
 20
14363.733619000001
 30
0.0
 11
19487.120722499989
 21
14363.733619000001
 31
0.0
  0
LINE
  5
4571
  8
2-0
  6
CONTINUOUS
 62
     3
 10
19487.120722499989
 20
14363.733619000001
 30
0.0
 11
19487.120722499989
 21
14448.729198000001
 31
0.0
  0
LINE
  5
4572
  8
2-0
  6
CONTINUOUS
 62
     3
 10
19487.120722499989
 20
14448.729198000001
 30
0.0
 11
19455.123784499981
 21
14448.729198000001
 31
0.0
  0
LINE
  5
4573
  8
2-0
  6
CONTINUOUS
 62
     3
 10
19414.123995499969
 20
14475.767443000001
 30
0.0
 11
19407.126397499989
 21
14475.767443000001
 31
0.0
  0
LINE
  5
4574
  8
2-0
  6
CONTINUOUS
 62
     3
 10
19407.126397499989
 20
14475.767443000001
 30
0.0
 11
19407.126397499989
 21
14470.77014799998
 31
0.0
  0
LINE
  5
4575
  8
2-0
  6
CONTINUOUS
 62
     3
 10
19407.126397499989
 20
14470.77014799998
 30
0.0
 11
19432.1197995
 21
14470.77014799998
 31
0.0
  0
LINE
  5
4576
  8
2-0
  6
CONTINUOUS
 62
     3
 10
19432.1197995
 20
14470.77014799998
 30
0.0
 11
19432.1197995
 21
14488.768921000001
 31
0.0
  0
LINE
  5
4577
  8
2-0
  6
CONTINUOUS
 62
     3
 10
19432.1197995
 20
14488.768921000001
 30
0.0
 11
19402.122174499978
 21
14488.768921000001
 31
0.0
  0
LINE
  5
4578
  8
2-0
  6
CONTINUOUS
 62
     3
 10
19402.122174499978
 20
15192.831493000011
 30
0.0
 11
19402.122174499978
 21
15836.870351
 31
0.0
  0
LINE
  5
4579
  8
2-0
  6
CONTINUOUS
 62
     3
 10
19402.122174499978
 20
18811.82605
 30
0.0
 11
19402.122174499978
 21
19455.636767499989
 31
0.0
  0
LINE
  5
457A
  8
2-0
  6
CONTINUOUS
 62
     3
 10
19493.124602499978
 20
18740.729659999961
 30
0.0
 11
19446.120933499991
 21
18740.729659999961
 31
0.0
  0
LINE
  5
457B
  8
2-0
  6
CONTINUOUS
 62
     3
 10
19446.120933499991
 20
18825.730188000001
 30
0.0
 11
19493.124602499978
 21
18825.730188000001
 31
0.0
  0
LINE
  5
457C
  8
2-0
  6
CONTINUOUS
 62
     3
 10
19446.120933499991
 20
18740.729659999961
 30
0.0
 11
19446.120933499991
 21
18765.732959000001
 31
0.0
  0
LINE
  5
457D
  8
2-0
  6
CONTINUOUS
 62
     3
 10
19446.120933499991
 20
18800.728867999991
 30
0.0
 11
19446.120933499991
 21
18825.730188000001
 31
0.0
  0
LINE
  5
457E
  8
2-0
  6
CONTINUOUS
 62
     3
 10
19493.124602499978
 20
18825.730188000001
 30
0.0
 11
19493.124602499978
 21
18740.729659999961
 31
0.0
  0
LINE
  5
457F
  8
2-0
  6
CONTINUOUS
 62
     3
 10
19402.122174499978
 20
16537.630334499991
 30
0.0
 11
19402.122174499978
 21
15894.066561000011
 31
0.0
  0
LINE
  5
4580
  8
2-0
  6
CONTINUOUS
 62
     3
 10
19493.124602499978
 20
15822.73263
 30
0.0
 11
19446.120933499991
 21
15822.73263
 31
0.0
  0
LINE
  5
4581
  8
2-0
  6
CONTINUOUS
 62
     3
 10
19446.120933499991
 20
15907.72919799999
 30
0.0
 11
19493.124602499978
 21
15907.72919799999
 31
0.0
  0
LINE
  5
4582
  8
2-0
  6
CONTINUOUS
 62
     3
 10
19446.120933499991
 20
15822.73263
 30
0.0
 11
19446.120933499991
 21
15847.72801100001
 31
0.0
  0
LINE
  5
4583
  8
2-0
  6
CONTINUOUS
 62
     3
 10
19446.120933499991
 20
15882.727879
 30
0.0
 11
19446.120933499991
 21
15907.72919799999
 31
0.0
  0
LINE
  5
4584
  8
2-0
  6
CONTINUOUS
 62
     3
 10
19493.124602499978
 20
15907.72919799999
 30
0.0
 11
19493.124602499978
 21
15822.73263
 31
0.0
  0
LINE
  5
4585
  8
2-0
  6
CONTINUOUS
 62
     3
 10
26024.116763499991
 20
19819.23302600002
 30
0.0
 11
26024.116763499991
 21
19934.229199000009
 31
0.0
  0
LINE
  5
4586
  8
2-0
  6
CENTER2
 62
     6
 10
18115.1639025
 20
19891.730914
 30
0.0
 11
26874.11808349999
 21
19891.730914
 31
0.0
  0
LINE
  5
4587
  8
2-0
  6
CENTER2
 62
     6
 10
18115.1639025
 20
17324.230914
 30
0.0
 11
26874.11808349999
 21
17324.230914
 31
0.0
  0
LINE
  5
4588
  8
2-0
  6
CENTER2
 62
     6
 10
18115.1639025
 20
14406.230913999991
 30
0.0
 11
26874.11808349999
 21
14406.230913999991
 31
0.0
  0
LINE
  5
4589
  8
2-0
  6
CONTINUOUS
 62
     3
 10
19867.710157499991
 20
19922.229357000011
 30
0.0
 11
19867.710157499991
 21
19929.234873000001
 31
0.0
  0
LINE
  5
458A
  8
2-0
  6
CONTINUOUS
 62
     3
 10
19867.710157499991
 20
19929.234873000001
 30
0.0
 11
19862.709893499981
 21
19929.234873000001
 31
0.0
  0
LINE
  5
458B
  8
2-0
  6
CONTINUOUS
 62
     3
 10
19862.709893499981
 20
19929.234873000001
 30
0.0
 11
19862.709893499981
 21
19904.22563600001
 31
0.0
  0
LINE
  5
458C
  8
2-0
  6
CONTINUOUS
 62
     3
 10
19862.709893499981
 20
19904.22563600001
 30
0.0
 11
19880.7116355
 21
19904.22563600001
 31
0.0
  0
LINE
  5
458D
  8
2-0
  6
CONTINUOUS
 62
     3
 10
19880.7116355
 20
19904.22563600001
 30
0.0
 11
19880.7116355
 21
19934.229199000009
 31
0.0
  0
LINE
  5
458E
  8
2-0
  6
CONTINUOUS
 62
     3
 10
19864.612210499999
 20
19904.22563600001
 30
0.0
 11
19870.616090499982
 21
19904.22563600001
 31
0.0
  0
LINE
  5
458F
  8
2-0
  6
CONTINUOUS
 62
     3
 10
19870.616090499982
 20
19904.22563600001
 30
0.0
 11
19870.616090499982
 21
19934.229199000009
 31
0.0
  0
LINE
  5
4590
  8
2-0
  6
CONTINUOUS
 62
     3
 10
19833.62086849998
 20
19934.229199000009
 30
0.0
 11
19870.616090499982
 21
19934.229199000009
 31
0.0
  0
LINE
  5
4591
  8
2-0
  6
CONTINUOUS
 62
     3
 10
19833.62086849998
 20
19904.22563600001
 30
0.0
 11
19833.62086849998
 21
19934.229199000009
 31
0.0
  0
LINE
  5
4592
  8
2-0
  6
CONTINUOUS
 62
     3
 10
19839.614850499998
 20
19904.22563600001
 30
0.0
 11
19833.62086849998
 21
19904.22563600001
 31
0.0
  0
LINE
  5
4593
  8
2-0
  6
CONTINUOUS
 62
     3
 10
19823.525323499998
 20
19904.22563600001
 30
0.0
 11
19823.525323499998
 21
19934.229199000009
 31
0.0
  0
LINE
  5
4594
  8
2-0
  6
CONTINUOUS
 62
     3
 10
19841.5211265
 20
19904.22563600001
 30
0.0
 11
19823.525323499998
 21
19904.22563600001
 31
0.0
  0
LINE
  5
4595
  8
2-0
  6
CONTINUOUS
 62
     3
 10
19841.5211265
 20
19929.234873000001
 30
0.0
 11
19841.5211265
 21
19904.22563600001
 31
0.0
  0
LINE
  5
4596
  8
2-0
  6
CONTINUOUS
 62
     3
 10
19836.522842499991
 20
19929.234873000001
 30
0.0
 11
19841.5211265
 21
19929.234873000001
 31
0.0
  0
LINE
  5
4597
  8
2-0
  6
CONTINUOUS
 62
     3
 10
19836.522842499991
 20
19922.229357000011
 30
0.0
 11
19836.522842499991
 21
19929.234873000001
 31
0.0
  0
LINE
  5
4598
  8
2-0
  6
CONTINUOUS
 62
     3
 10
19527.423721499981
 20
19934.229199000009
 30
0.0
 11
19823.525323499998
 21
19934.229199000009
 31
0.0
  0
LINE
  5
4599
  8
2-0
  6
CONTINUOUS
 62
     3
 10
19402.122174499978
 20
19849.23263000001
 30
0.0
 11
25943.114863499992
 21
19849.23263000001
 31
0.0
  0
LINE
  5
459A
  8
2-0
  6
CONTINUOUS
 62
     3
 10
19402.122174499978
 20
14488.768921000001
 30
0.0
 11
19402.122174499978
 21
15135.635283000011
 31
0.0
  0
LINE
  5
459B
  8
2-0
  6
CENTER2
 62
     6
 10
19444.61847949999
 20
21134.229199000009
 30
0.0
 11
19444.61847949999
 21
13780.467479999999
 31
0.0
  0
LINE
  5
459C
  8
2-0
  6
CENTER2
 62
     6
 10
25981.61847949999
 20
21134.229199000009
 30
0.0
 11
25981.61847949999
 21
13780.467479999999
 31
0.0
  0
LINE
  5
459D
  8
2-0
  6
CONTINUOUS
 62
     3
 10
26024.116763499991
 20
19808.935570000001
 30
0.0
 11
26024.116763499991
 21
19512.827039499982
 31
0.0
  0
LINE
  5
459E
  8
2-0
  6
CONTINUOUS
 62
     3
 10
19402.122174499978
 20
19808.935570000001
 30
0.0
 11
19402.122174499978
 21
19512.827039499982
 31
0.0
  0
LINE
  5
459F
  8
2-0
  6
CENTER2
 62
     6
 10
22713.118479499979
 20
21134.229199000009
 30
0.0
 11
22713.118479499979
 21
14214.82631299999
 31
0.0
  0
LINE
  5
45A0
  8
2-0
  6
CONTINUOUS
 62
     3
 10
19483.120115499991
 20
14448.729198000001
 30
0.0
 11
19483.120115499991
 21
19934.229199000009
 31
0.0
  0
LINE
  5
45A1
  8
2-0
  6
CONTINUOUS
 62
     3
 10
25943.114863499992
 20
14448.729198000001
 30
0.0
 11
25943.114863499992
 21
19934.229199000009
 31
0.0
  0
CIRCLE
  5
45A2
  8
2-0
  6
CONTINUOUS
 62
     4
 10
17915.166212499989
 20
19891.730914
 30
0.0
 40
200.00001
  0
CIRCLE
  5
45A3
  8
2-0
  6
CONTINUOUS
 62
     4
 10
17915.166212499989
 20
17324.230914
 30
0.0
 40
200.00001
  0
CIRCLE
  5
45A4
  8
2-0
  6
CONTINUOUS
 62
     4
 10
17915.166212499989
 20
14406.230913999991
 30
0.0
 40
200.00001
  0
CIRCLE
  5
45A5
  8
2-0
  6
CONTINUOUS
 62
     4
 10
22713.118479499979
 20
21334.233818000012
 30
0.0
 40
200.00001
  0
CIRCLE
  5
45A6
  8
2-0
  6
CONTINUOUS
 62
     4
 10
19444.61847949999
 20
21334.233818000012
 30
0.0
 40
200.00001
  0
TEXT
  5
45A7
  8
2-0
  6
CONTINUOUS
 62
     7
 10
24378.463786499979
 20
13846.232035999999
 30
0.0
 40
160.0
  1
前柱（右）
 50
0.000213
 72
     4
 11
24794.463489092999
 21
13926.23358250079
 31
0.0
  0
TEXT
  5
45A8
  8
2-0
  6
CONTINUOUS
 62
     7
 10
24395.16300549998
 20
18525.354080000001
 30
0.0
 40
160.0
  1
補強柱 後
 50
359.99984199999989
 72
     4
 11
24805.829892774709
 21
18605.352947536991
 31
0.0
  0
TEXT
  5
45A9
  8
2-0
  6
CONTINUOUS
 62
     7
 10
24583.058909499989
 20
16774.72405200003
 30
0.0
 40
160.0
  1
壁パネル
 50
359.99982299999999
 72
     4
 11
24945.72582330355
 21
16854.722931637891
 31
0.0
  0
TEXT
  5
45AA
  8
2-0
  6
CONTINUOUS
 62
     7
 10
24303.056005499981
 20
17611.911948000012
 30
0.0
 40
160.0
  1
中柱（左右）
 50
0.000354
 72
     4
 11
24820.388844546189
 21
17691.915144324659
 31
0.0
  0
TEXT
  5
45AB
  8
2-0
  6
CONTINUOUS
 62
     7
 10
24983.05824949998
 20
14819.273302
 30
0.0
 40
160.0
  1
下枠
 50
0.001063
 72
     4
 11
25153.723431909279
 21
14899.276468339291
 31
0.0
  0
TEXT
  5
45AC
  8
2-0
  6
CONTINUOUS
 62
     7
 10
24395.163005499999
 20
15607.594591000019
 30
0.0
 40
160.0
  1
補強柱 前
 50
359.99937
 72
     4
 11
24805.830551787782
 21
15687.59007547934
 31
0.0
  0
TEXT
  5
45AD
  8
2-0
  6
CONTINUOUS
 62
     7
 10
24478.0236735
 20
19215.1806865
 30
0.0
 40
160.0
  1
間柱（側）
 72
     4
 11
24899.357006833328
 21
19295.1806865
 31
0.0
  0
TEXT
  5
45AE
  8
2-0
  6
CONTINUOUS
 62
     7
 10
26796.613992499992
 20
20744.228406999999
 30
0.0
 40
160.0
  1
後柱（左右）
 50
0.000354
 72
     4
 11
27308.61349821297
 21
20824.231570372842
 31
0.0
  0
TEXT
  5
45AF
  8
2-0
  6
CONTINUOUS
 62
     7
 10
23112.2072415
 20
14984.069213999979
 30
0.0
 40
160.0
  1
前柱（中）
 72
     4
 11
23528.2072415
 21
15064.069213999979
 31
0.0
  0
TEXT
  5
45B0
  8
2-0
  6
CONTINUOUS
 62
     7
 10
21548.987355500009
 20
19297.111246000011
 30
0.0
 40
160.0
  1
間柱（後）
 72
     4
 11
21970.320688833341
 21
19377.111246000011
 31
0.0
  0
TEXT
  5
45B1
  8
2-0
  6
CONTINUOUS
 62
     7
 10
22983.411844500009
 20
19365.855967000021
 30
0.0
 40
160.0
  1
後柱（中）
 72
     4
 11
23399.411844500009
 21
19445.855967000021
 31
0.0
  0
TEXT
  5
45B2
  8
2-0
  6
CONTINUOUS
 62
     7
 10
17867.166845499982
 20
19797.250472000022
 30
0.0
 40
160.0
  1
C
 72
     4
 11
17920.500178833321
 21
19877.250472000022
 31
0.0
  0
TEXT
  5
45B3
  8
2-0
  6
CONTINUOUS
 62
     7
 10
17867.387561499982
 20
17253.836832000019
 30
0.0
 40
160.0
  1
B
 72
     4
 11
17920.72089483331
 21
17333.836832000019
 31
0.0
  0
TEXT
  5
45B4
  8
2-0
  6
CONTINUOUS
 62
     7
 10
17867.430121500001
 20
14317.62370299999
 30
0.0
 40
160.0
  1
A
 72
     4
 11
17920.76345483333
 21
14397.62370299999
 31
0.0
  0
TEXT
  5
45B5
  8
2-0
  6
CONTINUOUS
 62
     7
 10
22661.486696499989
 20
21238.708189000012
 30
0.0
 40
160.0
  1
2
 72
     4
 11
22714.820029833321
 21
21318.708189000012
 31
0.0
  0
TEXT
  5
45B6
  8
2-0
  6
CONTINUOUS
 62
     7
 10
19400.411870499978
 20
21245.466266000029
 30
0.0
 40
160.0
  1
1
 72
     4
 11
19427.07853716665
 21
21325.466266000029
 31
0.0
  0
LINE
  5
45B7
  8
2-0
  6
CONTINUOUS
 62
     3
 10
25242.11906049999
 20
19934.229199000009
 30
0.0
 11
25205.117898500001
 21
19934.229199000009
 31
0.0
  0
LINE
  5
45B8
  8
2-0
  6
CONTINUOUS
 62
     3
 10
25242.11906049999
 20
19904.22563600001
 30
0.0
 11
25242.11906049999
 21
19934.229199000009
 31
0.0
  0
LINE
  5
45B9
  8
2-0
  6
CONTINUOUS
 62
     3
 10
25236.119139499981
 20
19904.22563600001
 30
0.0
 11
25242.11906049999
 21
19904.22563600001
 31
0.0
  0
LINE
  5
45BA
  8
2-0
  6
CONTINUOUS
 62
     3
 10
25252.216584499991
 20
19904.22563600001
 30
0.0
 11
25252.216584499991
 21
19934.229199000009
 31
0.0
  0
LINE
  5
45BB
  8
2-0
  6
CONTINUOUS
 62
     3
 10
25234.21286349999
 20
19904.22563600001
 30
0.0
 11
25252.216584499991
 21
19904.22563600001
 31
0.0
  0
LINE
  5
45BC
  8
2-0
  6
CONTINUOUS
 62
     3
 10
25234.21286349999
 20
19929.234873000001
 30
0.0
 11
25234.21286349999
 21
19904.22563600001
 31
0.0
  0
LINE
  5
45BD
  8
2-0
  6
CONTINUOUS
 62
     3
 10
25239.213127499988
 20
19929.234873000001
 30
0.0
 11
25234.21286349999
 21
19929.234873000001
 31
0.0
  0
LINE
  5
45BE
  8
2-0
  6
CONTINUOUS
 62
     3
 10
25239.213127499988
 20
19922.229357000011
 30
0.0
 11
25239.213127499988
 21
19929.234873000001
 31
0.0
  0
LINE
  5
45BF
  8
2-0
  6
CONTINUOUS
 62
     3
 10
25208.023832499981
 20
19922.229357000011
 30
0.0
 11
25208.023832499981
 21
19929.234873000001
 31
0.0
  0
LINE
  5
45C0
  8
2-0
  6
CONTINUOUS
 62
     3
 10
25208.023832499981
 20
19929.234873000001
 30
0.0
 11
25213.02409649999
 21
19929.234873000001
 31
0.0
  0
LINE
  5
45C1
  8
2-0
  6
CONTINUOUS
 62
     3
 10
25213.02409649999
 20
19929.234873000001
 30
0.0
 11
25213.02409649999
 21
19904.22563600001
 31
0.0
  0
LINE
  5
45C2
  8
2-0
  6
CONTINUOUS
 62
     3
 10
25213.02409649999
 20
19904.22563600001
 30
0.0
 11
25195.02433349999
 21
19904.22563600001
 31
0.0
  0
LINE
  5
45C3
  8
2-0
  6
CONTINUOUS
 62
     3
 10
25195.02433349999
 20
19904.22563600001
 30
0.0
 11
25195.02433349999
 21
19934.229199000009
 31
0.0
  0
LINE
  5
45C4
  8
2-0
  6
CONTINUOUS
 62
     3
 10
25211.117819499988
 20
19904.22563600001
 30
0.0
 11
25205.117898500001
 21
19904.22563600001
 31
0.0
  0
LINE
  5
45C5
  8
2-0
  6
CONTINUOUS
 62
     3
 10
25205.117898500001
 20
19904.22563600001
 30
0.0
 11
25205.117898500001
 21
19934.229199000009
 31
0.0
  0
LINE
  5
45C6
  8
2-0
  6
CONTINUOUS
 62
     3
 10
23837.208178000001
 20
19922.229357000011
 30
0.0
 11
23837.208178000001
 21
19929.234873000001
 31
0.0
  0
LINE
  5
45C7
  8
2-0
  6
CONTINUOUS
 62
     3
 10
23837.208178000001
 20
19929.234873000001
 30
0.0
 11
23832.207913999991
 21
19929.234873000001
 31
0.0
  0
LINE
  5
45C8
  8
2-0
  6
CONTINUOUS
 62
     3
 10
23832.207913999991
 20
19929.234873000001
 30
0.0
 11
23832.207913999991
 21
19904.22563600001
 31
0.0
  0
LINE
  5
45C9
  8
2-0
  6
CONTINUOUS
 62
     3
 10
23832.207913999991
 20
19904.22563600001
 30
0.0
 11
23850.213614999979
 21
19904.22563600001
 31
0.0
  0
LINE
  5
45CA
  8
2-0
  6
CONTINUOUS
 62
     3
 10
23850.213614999979
 20
19904.22563600001
 30
0.0
 11
23850.213614999979
 21
19934.229199000009
 31
0.0
  0
LINE
  5
45CB
  8
2-0
  6
CONTINUOUS
 62
     3
 10
23834.11616999999
 20
19904.22563600001
 30
0.0
 11
23840.11807
 21
19904.22563600001
 31
0.0
  0
LINE
  5
45CC
  8
2-0
  6
CONTINUOUS
 62
     3
 10
23840.11807
 20
19904.22563600001
 30
0.0
 11
23840.11807
 21
19934.229199000009
 31
0.0
  0
LINE
  5
45CD
  8
2-0
  6
CONTINUOUS
 62
     3
 10
23803.118888999968
 20
19934.229199000009
 30
0.0
 11
23840.11807
 21
19934.229199000009
 31
0.0
  0
LINE
  5
45CE
  8
2-0
  6
CONTINUOUS
 62
     3
 10
23803.118888999968
 20
19904.22563600001
 30
0.0
 11
23803.118888999968
 21
19934.229199000009
 31
0.0
  0
LINE
  5
45CF
  8
2-0
  6
CONTINUOUS
 62
     3
 10
23809.11287099999
 20
19904.22563600001
 30
0.0
 11
23803.118888999968
 21
19904.22563600001
 31
0.0
  0
LINE
  5
45D0
  8
2-0
  6
CONTINUOUS
 62
     3
 10
23793.02334399999
 20
19904.22563600001
 30
0.0
 11
23793.02334399999
 21
19934.229199000009
 31
0.0
  0
LINE
  5
45D1
  8
2-0
  6
CONTINUOUS
 62
     3
 10
23811.019146999992
 20
19904.22563600001
 30
0.0
 11
23793.02334399999
 21
19904.22563600001
 31
0.0
  0
LINE
  5
45D2
  8
2-0
  6
CONTINUOUS
 62
     3
 10
23811.019146999992
 20
19929.234873000001
 30
0.0
 11
23811.019146999992
 21
19904.22563600001
 31
0.0
  0
LINE
  5
45D3
  8
2-0
  6
CONTINUOUS
 62
     3
 10
23806.01888299999
 20
19929.234873000001
 30
0.0
 11
23811.019146999992
 21
19929.234873000001
 31
0.0
  0
LINE
  5
45D4
  8
2-0
  6
CONTINUOUS
 62
     3
 10
23806.01888299999
 20
19922.229357000011
 30
0.0
 11
23806.01888299999
 21
19929.234873000001
 31
0.0
  0
LINE
  5
45D5
  8
2-0
  6
CONTINUOUS
 62
     3
 10
24507.01789399999
 20
19922.229357000011
 30
0.0
 11
24507.01789399999
 21
19929.234873000001
 31
0.0
  0
LINE
  5
45D6
  8
2-0
  6
CONTINUOUS
 62
     3
 10
24507.01789399999
 20
19929.234873000001
 30
0.0
 11
24512.018156999991
 21
19929.234873000001
 31
0.0
  0
LINE
  5
45D7
  8
2-0
  6
CONTINUOUS
 62
     3
 10
24512.018156999991
 20
19929.234873000001
 30
0.0
 11
24512.018156999991
 21
19904.22563600001
 31
0.0
  0
LINE
  5
45D8
  8
2-0
  6
CONTINUOUS
 62
     3
 10
24512.018156999991
 20
19904.22563600001
 30
0.0
 11
24494.02433399998
 21
19904.22563600001
 31
0.0
  0
LINE
  5
45D9
  8
2-0
  6
CONTINUOUS
 62
     3
 10
24494.02433399998
 20
19904.22563600001
 30
0.0
 11
24494.02433399998
 21
19934.229199000009
 31
0.0
  0
LINE
  5
45DA
  8
2-0
  6
CONTINUOUS
 62
     3
 10
24510.115839999969
 20
19904.22563600001
 30
0.0
 11
24504.11789899999
 21
19904.22563600001
 31
0.0
  0
LINE
  5
45DB
  8
2-0
  6
CONTINUOUS
 62
     3
 10
24504.11789899999
 20
19904.22563600001
 30
0.0
 11
24504.11789899999
 21
19934.229199000009
 31
0.0
  0
LINE
  5
45DC
  8
2-0
  6
CONTINUOUS
 62
     3
 10
24541.11905999999
 20
19934.229199000009
 30
0.0
 11
24504.11789899999
 21
19934.229199000009
 31
0.0
  0
LINE
  5
45DD
  8
2-0
  6
CONTINUOUS
 62
     3
 10
24541.11905999999
 20
19904.22563600001
 30
0.0
 11
24541.11905999999
 21
19934.229199000009
 31
0.0
  0
LINE
  5
45DE
  8
2-0
  6
CONTINUOUS
 62
     3
 10
24535.113201
 20
19904.22563600001
 30
0.0
 11
24541.11905999999
 21
19904.22563600001
 31
0.0
  0
LINE
  5
45DF
  8
2-0
  6
CONTINUOUS
 62
     3
 10
24551.212625
 20
19904.22563600001
 30
0.0
 11
24551.212625
 21
19934.229199000009
 31
0.0
  0
LINE
  5
45E0
  8
2-0
  6
CONTINUOUS
 62
     3
 10
24533.216821999991
 20
19904.22563600001
 30
0.0
 11
24551.212625
 21
19904.22563600001
 31
0.0
  0
LINE
  5
45E1
  8
2-0
  6
CONTINUOUS
 62
     3
 10
24533.216821999991
 20
19929.234873000001
 30
0.0
 11
24533.216821999991
 21
19904.22563600001
 31
0.0
  0
LINE
  5
45E2
  8
2-0
  6
CONTINUOUS
 62
     3
 10
24538.207187999978
 20
19929.234873000001
 30
0.0
 11
24533.216821999991
 21
19929.234873000001
 31
0.0
  0
LINE
  5
45E3
  8
2-0
  6
CONTINUOUS
 62
     3
 10
24538.207187999978
 20
19922.229357000011
 30
0.0
 11
24538.207187999978
 21
19929.234873000001
 31
0.0
  0
LINE
  5
45E4
  8
2-0
  6
CONTINUOUS
 62
     3
 10
23850.213614999979
 20
19934.229199000009
 30
0.0
 11
24494.02433399998
 21
19934.229199000009
 31
0.0
  0
LINE
  5
45E5
  8
2-0
  6
CONTINUOUS
 62
     3
 10
23149.417505500001
 20
19934.229199000009
 30
0.0
 11
23793.02334399999
 21
19934.229199000009
 31
0.0
  0
LINE
  5
45E6
  8
2-0
  6
CONTINUOUS
 62
     3
 10
25899.50210949999
 20
19934.229199000009
 30
0.0
 11
25252.216584499991
 21
19934.229199000009
 31
0.0
  0
LINE
  5
45E7
  8
2-0
  6
CONTINUOUS
 62
     3
 10
25195.02433349999
 20
19934.229199000009
 30
0.0
 11
24551.212625
 21
19934.229199000009
 31
0.0
  0
LINE
  5
45E8
  8
2-0
  6
CONTINUOUS
 62
     3
 10
23136.210157500002
 20
19922.229357000011
 30
0.0
 11
23136.210157500002
 21
19929.234873000001
 31
0.0
  0
LINE
  5
45E9
  8
2-0
  6
CONTINUOUS
 62
     3
 10
23136.210157500002
 20
19929.234873000001
 30
0.0
 11
23131.209893499981
 21
19929.234873000001
 31
0.0
  0
LINE
  5
45EA
  8
2-0
  6
CONTINUOUS
 62
     3
 10
23131.209893499981
 20
19929.234873000001
 30
0.0
 11
23131.209893499981
 21
19904.22563600001
 31
0.0
  0
LINE
  5
45EB
  8
2-0
  6
CONTINUOUS
 62
     3
 10
23131.209893499981
 20
19904.22563600001
 30
0.0
 11
23149.211635500011
 21
19904.22563600001
 31
0.0
  0
LINE
  5
45EC
  8
2-0
  6
CONTINUOUS
 62
     3
 10
23149.211635500011
 20
19904.22563600001
 30
0.0
 11
23149.211635500011
 21
19934.229199000009
 31
0.0
  0
LINE
  5
45ED
  8
2-0
  6
CONTINUOUS
 62
     3
 10
23133.11221050001
 20
19904.22563600001
 30
0.0
 11
23139.116090499982
 21
19904.22563600001
 31
0.0
  0
LINE
  5
45EE
  8
2-0
  6
CONTINUOUS
 62
     3
 10
23139.116090499982
 20
19904.22563600001
 30
0.0
 11
23139.116090499982
 21
19934.229199000009
 31
0.0
  0
LINE
  5
45EF
  8
2-0
  6
CONTINUOUS
 62
     3
 10
23102.120868499991
 20
19934.229199000009
 30
0.0
 11
23139.116090499982
 21
19934.229199000009
 31
0.0
  0
LINE
  5
45F0
  8
2-0
  6
CONTINUOUS
 62
     3
 10
23102.120868499991
 20
19904.22563600001
 30
0.0
 11
23102.120868499991
 21
19934.229199000009
 31
0.0
  0
LINE
  5
45F1
  8
2-0
  6
CONTINUOUS
 62
     3
 10
23108.114850499991
 20
19904.22563600001
 30
0.0
 11
23102.120868499991
 21
19904.22563600001
 31
0.0
  0
LINE
  5
45F2
  8
2-0
  6
CONTINUOUS
 62
     3
 10
23092.025323499998
 20
19904.22563600001
 30
0.0
 11
23092.025323499998
 21
19934.229199000009
 31
0.0
  0
LINE
  5
45F3
  8
2-0
  6
CONTINUOUS
 62
     3
 10
23110.021126500011
 20
19904.22563600001
 30
0.0
 11
23092.025323499998
 21
19904.22563600001
 31
0.0
  0
LINE
  5
45F4
  8
2-0
  6
CONTINUOUS
 62
     3
 10
23110.021126500011
 20
19929.234873000001
 30
0.0
 11
23110.021126500011
 21
19904.22563600001
 31
0.0
  0
LINE
  5
45F5
  8
2-0
  6
CONTINUOUS
 62
     3
 10
23105.022842499999
 20
19929.234873000001
 30
0.0
 11
23110.021126500011
 21
19929.234873000001
 31
0.0
  0
LINE
  5
45F6
  8
2-0
  6
CONTINUOUS
 62
     3
 10
23105.022842499999
 20
19922.229357000011
 30
0.0
 11
23105.022842499999
 21
19929.234873000001
 31
0.0
  0
LINE
  5
45F7
  8
2-0
  6
CONTINUOUS
 62
     3
 10
22795.923721499981
 20
19934.229199000009
 30
0.0
 11
23092.025323499998
 21
19934.229199000009
 31
0.0
  0
LINE
  5
45F8
  8
2-0
  6
CONTINUOUS
 62
     3
 10
22631.690982500011
 20
19934.229199000009
 30
0.0
 11
21983.716584499991
 21
19934.229199000009
 31
0.0
  0
LINE
  5
45F9
  8
2-0
  6
CONTINUOUS
 62
     3
 10
26024.116763499991
 20
15836.870351
 30
0.0
 11
26024.116763499991
 21
15192.831493000011
 31
0.0
  0
LINE
  5
45FA
  8
2-0
  6
CONTINUOUS
 62
     3
 10
26024.116763499991
 20
15135.635283
 30
0.0
 11
26024.116763499991
 21
14488.768921000001
 31
0.0
  0
CIRCLE
  5
45FB
  8
2-0
  6
CONTINUOUS
 62
     4
 10
25981.61847949999
 20
21334.233818000012
 30
0.0
 40
200.00001
  0
TEXT
  5
45FC
  8
2-0
  6
CONTINUOUS
 62
     7
 10
25929.986696499989
 20
21238.708189000012
 30
0.0
 40
160.0
  1
3
 72
     4
 11
25983.320029833321
 21
21318.708189000012
 31
0.0
  0
LINE
  5
45FD
  8
0-1
  6
CONTINUOUS
 62
     3
 10
8996.6580445
 20
19738.544220370561
 30
0.0
 11
8996.6580445
 21
20094.22682299999
 31
0.0
  0
LINE
  5
45FE
  8
0-1
  6
CONTINUOUS
 62
     3
 10
8959.6598525000027
 20
19757.29362805772
 30
0.0
 11
8959.6598525000027
 21
20094.226823000001
 31
0.0
  0
LINE
  5
45FF
  8
0-1
  6
CONTINUOUS
 62
     3
 10
8438.65939049999
 20
17358.229145999991
 30
0.0
 11
13163.909878500001
 21
17358.229145999991
 31
0.0
  0
LINE
  5
4600
  8
0-1
  6
CONTINUOUS
 62
     3
 10
8488.660010499998
 20
14245.73055799999
 30
0.0
 11
8488.660010499998
 21
20094.226823000001
 31
0.0
  0
LINE
  5
4601
  8
0-1
  6
CONTINUOUS
 62
     3
 10
8353.1599844999946
 20
14213.729660999999
 30
0.0
 11
8353.1599844999946
 21
20104.228275000009
 31
0.0
  0
LINE
  5
4602
  8
0-1
  6
CONTINUOUS
 62
     3
 10
8547.1587834999955
 20
19966.334943213609
 30
0.0
 11
8547.1587834999973
 21
20094.226823000001
 31
0.0
  0
LINE
  5
4603
  8
0-1
  6
CONTINUOUS
 62
     3
 10
8584.1599444999956
 20
19947.584030939641
 30
0.0
 11
8584.1599444999956
 21
20094.226823000001
 31
0.0
  0
LINE
  5
4604
  8
0-1
  6
CONTINUOUS
 62
     3
 10
8747.1604324999935
 20
19864.981005291309
 30
0.0
 11
8747.1604324999935
 21
20094.226823000001
 31
0.0
  0
LINE
  5
4605
  8
0-1
  6
CONTINUOUS
 62
     3
 10
8784.1586244999908
 20
19846.170816000009
 30
0.0
 11
8784.1586244999908
 21
20094.226823000001
 31
0.0
  0
LINE
  5
4606
  8
0-1
  6
CONTINUOUS
 62
     3
 10
9159.6595225000056
 20
19661.16303
 30
0.0
 11
9159.6595225000056
 21
20094.226823000001
 31
0.0
  0
LINE
  5
4607
  8
0-1
  6
CONTINUOUS
 62
     3
 10
9196.6596945000038
 20
19642.409070999991
 30
0.0
 11
9196.6596945000038
 21
20094.226823000001
 31
0.0
  0
LINE
  5
4608
  8
0-1
  6
CONTINUOUS
 62
     3
 10
9359.6582025000043
 20
19559.789904000001
 30
0.0
 11
9359.6582025000043
 21
20094.226823000001
 31
0.0
  0
LINE
  5
4609
  8
0-1
  6
CONTINUOUS
 62
     3
 10
9396.659364500003
 20
19541.037924
 30
0.0
 11
9396.659364500003
 21
20094.226823000001
 31
0.0
  0
LINE
  5
460A
  8
0-1
  6
CONTINUOUS
 62
     3
 10
11324.956912499991
 20
18558.642653999981
 30
0.0
 11
11487.1942965
 21
18748.850634999999
 31
0.0
  0
LINE
  5
460B
  8
0-1
  6
CONTINUOUS
 62
     3
 10
11923.5504645
 20
17714.485084999978
 30
0.0
 11
12085.7878485
 21
17904.693066
 31
0.0
  0
LINE
  5
460C
  8
0-1
  6
CONTINUOUS
 62
     3
 10
11923.5504645
 20
17714.485084999978
 30
0.0
 11
11487.1942965
 21
18748.850634999999
 31
0.0
  0
LINE
  5
460D
  8
0-1
  6
CONTINUOUS
 62
     3
 10
8438.65939049999
 20
17279.228538999982
 30
0.0
 11
13319.7672745
 21
17279.228538999982
 31
0.0
  0
LINE
  5
460E
  8
0-1
  6
CONTINUOUS
 62
     3
 10
8396.1591264999952
 20
14369.73057099998
 30
0.0
 11
15018.158664499981
 21
14369.73057099998
 31
0.0
  0
LINE
  5
460F
  8
0-1
  6
CONTINUOUS
 62
     3
 10
8438.65939049999
 20
14448.731178
 30
0.0
 11
14975.65939049999
 21
14448.731178
 31
0.0
  0
LINE
  5
4610
  8
0-1
  6
CONTINUOUS
 62
     3
 10
8353.1599844999946
 20
14213.729660999999
 30
0.0
 11
15061.15978649998
 21
14213.729660999999
 31
0.0
  0
LINE
  5
4611
  8
0-1
  6
CONTINUOUS
 62
     3
 10
8353.1599844999946
 20
14245.73055799999
 30
0.0
 11
15061.15978649998
 21
14245.73055799999
 31
0.0
  0
LINE
  5
4612
  8
0-1
  6
CONTINUOUS
 62
     3
 10
15209.356405499981
 20
16326.778224999989
 30
0.0
 11
12085.7878485
 21
17904.693066
 31
0.0
  0
LINE
  5
4613
  8
0-1
  6
CONTINUOUS
 62
     3
 10
8438.65939049999
 20
14369.73057099998
 30
0.0
 11
8438.6593904999863
 21
19937.728986999991
 31
0.0
  0
LINE
  5
4614
  8
0-1
  6
CONTINUOUS
 62
     3
 10
8396.1591264999952
 20
14369.73057099998
 30
0.0
 11
8396.159126499997
 21
19937.728986999991
 31
0.0
  0
LINE
  5
4615
  8
0-1
  6
CONTINUOUS
 62
     3
 10
9559.6598525000027
 20
19458.41875700001
 30
0.0
 11
9559.6598525000027
 21
20094.226823000001
 31
0.0
  0
LINE
  5
4616
  8
0-1
  6
CONTINUOUS
 62
     3
 10
9596.6580445000018
 20
19439.662818000001
 30
0.0
 11
9596.6580445000018
 21
20094.226823000001
 31
0.0
  0
LINE
  5
4617
  8
0-1
  6
CONTINUOUS
 62
     3
 10
9759.6595225000056
 20
19357.043651
 30
0.0
 11
9759.6595225000001
 21
20094.22682299999
 31
0.0
  0
LINE
  5
4618
  8
0-1
  6
CONTINUOUS
 62
     3
 10
10159.6588625
 20
19154.29739900001
 30
0.0
 11
10159.6588625
 21
20094.226823000001
 31
0.0
  0
LINE
  5
4619
  8
0-1
  6
CONTINUOUS
 62
     3
 10
10196.6590345
 20
19135.541461000001
 30
0.0
 11
10196.6590345
 21
20094.226823000001
 31
0.0
  0
LINE
  5
461A
  8
0-1
  6
CONTINUOUS
 62
     3
 10
10359.659522499989
 20
19052.922294
 30
0.0
 11
10359.659522499989
 21
20094.226823000001
 31
0.0
  0
LINE
  5
461B
  8
0-1
  6
CONTINUOUS
 62
     3
 10
10396.658704499991
 20
19034.166355000001
 30
0.0
 11
10396.658704499991
 21
20094.226823000001
 31
0.0
  0
LINE
  5
461C
  8
0-1
  6
CONTINUOUS
 62
     3
 10
10559.65919249999
 20
18951.547188
 30
0.0
 11
10559.65919249999
 21
20094.226823000001
 31
0.0
  0
LINE
  5
461D
  8
0-1
  6
CONTINUOUS
 62
     3
 10
10596.659364499999
 20
18927.793175999999
 30
0.0
 11
10596.659364499999
 21
20094.226823000001
 31
0.0
  0
LINE
  5
461E
  8
0-1
  6
CONTINUOUS
 62
     3
 10
10759.6588625
 20
18845.174008999991
 30
0.0
 11
10759.6588625
 21
20094.226823000001
 31
0.0
  0
LINE
  5
461F
  8
0-1
  6
CONTINUOUS
 62
     3
 10
10796.6590345
 20
18826.422030000002
 30
0.0
 11
10796.6590345
 21
20094.226823000001
 31
0.0
  0
LINE
  5
4620
  8
0-1
  6
CONTINUOUS
 62
     3
 10
10959.660512500001
 20
18743.802863000001
 30
0.0
 11
10959.660512500001
 21
20094.226823000001
 31
0.0
  0
LINE
  5
4621
  8
0-1
  6
CONTINUOUS
 62
     3
 10
10996.658704499991
 20
18725.046923999991
 30
0.0
 11
10996.658704499991
 21
20094.226823000001
 31
0.0
  0
LINE
  5
4622
  8
0-1
  6
CONTINUOUS
 62
     3
 10
11159.65919249999
 20
18642.42775699999
 30
0.0
 11
11159.65919249999
 21
20094.22682299999
 31
0.0
  0
LINE
  5
4623
  8
0-1
  6
CONTINUOUS
 62
     3
 10
11196.660353499999
 20
18623.671817999999
 30
0.0
 11
11196.660353499999
 21
20094.226823000001
 31
0.0
  0
LINE
  5
4624
  8
0-1
  6
CONTINUOUS
 62
     3
 10
11359.6588625
 20
18599.327699000001
 30
0.0
 11
11359.6588625
 21
20094.22682299999
 31
0.0
  0
LINE
  5
4625
  8
0-1
  6
CONTINUOUS
 62
     3
 10
11396.6590345
 20
18642.708848999991
 30
0.0
 11
11396.6590345
 21
20094.226823000001
 31
0.0
  0
LINE
  5
4626
  8
0-1
  6
CONTINUOUS
 62
     3
 10
11559.660512500001
 20
18577.905349000001
 30
0.0
 11
11559.660512500001
 21
20094.226823000001
 31
0.0
  0
LINE
  5
4627
  8
0-1
  6
CONTINUOUS
 62
     3
 10
11596.6587045
 20
18490.624415999991
 30
0.0
 11
11596.6587045
 21
20094.22682299999
 31
0.0
  0
LINE
  5
4628
  8
0-1
  6
CONTINUOUS
 62
     3
 10
9796.6596945000092
 20
19338.287713000002
 30
0.0
 11
9796.6596945000092
 21
20094.22682299999
 31
0.0
  0
LINE
  5
4629
  8
0-1
  6
CONTINUOUS
 62
     3
 10
9959.6591924999957
 20
19255.668546000001
 30
0.0
 11
9959.6591924999939
 21
20094.226823000001
 31
0.0
  0
LINE
  5
462A
  8
0-1
  6
CONTINUOUS
 62
     3
 10
9996.6593645000048
 20
19236.916566
 30
0.0
 11
9996.6593645000048
 21
20094.226823000001
 31
0.0
  0
LINE
  5
462B
  8
0-1
  6
CONTINUOUS
 62
     3
 10
12796.6596945
 20
17544.375155000002
 30
0.0
 11
12796.6596945
 21
17671.230623999982
 31
0.0
  0
LINE
  5
462C
  8
0-1
  6
CONTINUOUS
 62
     3
 10
12759.659522499989
 20
17563.131094
 30
0.0
 11
12759.659522499989
 21
17671.230623999982
 31
0.0
  0
LINE
  5
462D
  8
0-1
  6
CONTINUOUS
 62
     3
 10
12596.658044499991
 20
17645.750261000001
 30
0.0
 11
12596.658044499991
 21
17671.230623999982
 31
0.0
  0
LINE
  5
462E
  8
0-1
  6
CONTINUOUS
 62
     3
 10
12559.6588625
 20
17664.506199999982
 30
0.0
 11
12559.6588625
 21
17671.230623999982
 31
0.0
  0
LINE
  5
462F
  8
0-1
  6
CONTINUOUS
 62
     3
 10
12396.66035349999
 20
18071.229963999998
 30
0.0
 11
12396.66035349999
 21
19135.230675999988
 31
0.0
  0
LINE
  5
4630
  8
0-1
  6
CONTINUOUS
 62
     3
 10
12359.659192499979
 20
18071.229963999998
 30
0.0
 11
12359.659192499979
 21
19135.230675999988
 31
0.0
  0
LINE
  5
4631
  8
0-1
  6
CONTINUOUS
 62
     3
 10
12196.6596945
 20
18071.229963999998
 30
0.0
 11
12196.6596945
 21
19135.230675999988
 31
0.0
  0
LINE
  5
4632
  8
0-1
  6
CONTINUOUS
 62
     3
 10
12159.6595225
 20
18071.229963999998
 30
0.0
 11
12159.6595225
 21
19135.230675999988
 31
0.0
  0
LINE
  5
4633
  8
0-1
  6
CONTINUOUS
 62
     3
 10
11996.6580445
 20
17800.196259999979
 30
0.0
 11
11996.6580445
 21
20094.226823000001
 31
0.0
  0
LINE
  5
4634
  8
0-1
  6
CONTINUOUS
 62
     3
 10
11959.659852500001
 20
17756.819069000001
 30
0.0
 11
11959.659852500001
 21
20094.226823000001
 31
0.0
  0
LINE
  5
4635
  8
0-1
  6
CONTINUOUS
 62
     3
 10
11796.66035349999
 20
18013.823925000001
 30
0.0
 11
11796.66035349999
 21
20094.226823000001
 31
0.0
  0
LINE
  5
4636
  8
0-1
  6
CONTINUOUS
 62
     3
 10
11759.659192499999
 20
18101.108818000001
 30
0.0
 11
11759.659192499999
 21
20094.226823000001
 31
0.0
  0
LINE
  5
4637
  8
0-1
  6
CONTINUOUS
 62
     3
 10
15018.158664499981
 20
14369.73057099998
 30
0.0
 11
15018.158664499981
 21
16423.689515999991
 31
0.0
  0
LINE
  5
4638
  8
0-1
  6
CONTINUOUS
 62
     3
 10
14975.65939049999
 20
14369.73057099998
 30
0.0
 11
14975.65939049999
 21
16445.229648
 31
0.0
  0
LINE
  5
4639
  8
0-1
  6
CONTINUOUS
 62
     3
 10
15061.15978649998
 20
14213.729660999999
 30
0.0
 11
15061.15978649998
 21
20104.228275000009
 31
0.0
  0
LINE
  5
463A
  8
0-1
  6
CONTINUOUS
 62
     3
 10
14925.658769499991
 20
14245.73055799999
 30
0.0
 11
14925.658769499991
 21
20094.226823000001
 31
0.0
  0
LINE
  5
463B
  8
0-1
  6
CONTINUOUS
 62
     3
 10
14830.15982549999
 20
16518.981561000001
 30
0.0
 11
14830.15982549999
 21
20094.226823000001
 31
0.0
  0
LINE
  5
463C
  8
0-1
  6
CONTINUOUS
 62
     3
 10
14867.15999749999
 20
16500.227601999992
 30
0.0
 11
14867.15999749999
 21
20094.226823000001
 31
0.0
  0
LINE
  5
463D
  8
0-1
  6
CONTINUOUS
 62
     3
 10
11324.956912499991
 20
18558.642653999981
 30
0.0
 11
8204.9643544999908
 21
20139.747277999992
 31
0.0
  0
LINE
  5
463E
  8
0-1
  6
CONTINUOUS
 62
     3
 10
12996.660353499999
 20
17443.004008999978
 30
0.0
 11
12996.660353499999
 21
17671.230623999982
 31
0.0
  0
LINE
  5
463F
  8
0-1
  6
CONTINUOUS
 62
     3
 10
13033.658546500001
 20
17424.248070000001
 30
0.0
 11
13033.658546500001
 21
17671.230623999982
 31
0.0
  0
LINE
  5
4640
  8
0-1
  6
CONTINUOUS
 62
     3
 10
13196.6590345
 20
17341.628903000001
 30
0.0
 11
13196.6590345
 21
17671.230623999982
 31
0.0
  0
LINE
  5
4641
  8
0-1
  6
CONTINUOUS
 62
     3
 10
13233.6592055
 20
17322.872964999999
 30
0.0
 11
13233.6592055
 21
17671.230623999982
 31
0.0
  0
LINE
  5
4642
  8
0-1
  6
CONTINUOUS
 62
     3
 10
13396.6596945
 20
17240.253798000002
 30
0.0
 11
13396.6596945
 21
17671.230623999982
 31
0.0
  0
LINE
  5
4643
  8
0-1
  6
CONTINUOUS
 62
     3
 10
13433.658875499999
 20
17221.499838999978
 30
0.0
 11
13433.658875499999
 21
17671.230623999982
 31
0.0
  0
LINE
  5
4644
  8
0-1
  6
CONTINUOUS
 62
     3
 10
14070.660037499991
 20
16898.626500999992
 30
0.0
 11
14070.660037499991
 21
17671.230623999982
 31
0.0
  0
LINE
  5
4645
  8
0-1
  6
CONTINUOUS
 62
     3
 10
14033.65788649999
 20
16917.38243999999
 30
0.0
 11
14033.65788649999
 21
17671.230623999982
 31
0.0
  0
LINE
  5
4646
  8
0-1
  6
CONTINUOUS
 62
     3
 10
13870.6593775
 20
16999.99764799999
 30
0.0
 11
13870.6593775
 21
17671.230623999982
 31
0.0
  0
LINE
  5
4647
  8
0-1
  6
CONTINUOUS
 62
     3
 10
13833.66019549999
 20
17018.753586999981
 30
0.0
 11
13833.66019549999
 21
17671.230623999982
 31
0.0
  0
LINE
  5
4648
  8
0-1
  6
CONTINUOUS
 62
     3
 10
13670.65970749999
 20
17101.372754
 30
0.0
 11
13670.65970749999
 21
17671.230623999982
 31
0.0
  0
LINE
  5
4649
  8
0-1
  6
CONTINUOUS
 62
     3
 10
13633.658546500001
 20
17120.128691999991
 30
0.0
 11
13633.658546500001
 21
17671.230623999982
 31
0.0
  0
LINE
  5
464A
  8
0-1
  6
CONTINUOUS
 62
     3
 10
14270.65970749999
 20
16797.251396
 30
0.0
 11
14270.65970749999
 21
20094.226823000001
 31
0.0
  0
LINE
  5
464B
  8
0-1
  6
CONTINUOUS
 62
     3
 10
14307.659878500001
 20
16778.497436999991
 30
0.0
 11
14307.659878500001
 21
20094.226823000001
 31
0.0
  0
LINE
  5
464C
  8
0-1
  6
CONTINUOUS
 62
     3
 10
14470.6593775
 20
16695.876289999971
 30
0.0
 11
14470.6593775
 21
20094.226823000001
 31
0.0
  0
LINE
  5
464D
  8
0-1
  6
CONTINUOUS
 62
     3
 10
14507.660538499989
 20
16677.122330999999
 30
0.0
 11
14507.660538499989
 21
20094.226823000001
 31
0.0
  0
LINE
  5
464E
  8
0-1
  6
CONTINUOUS
 62
     3
 10
14670.6600375
 20
16594.506133999981
 30
0.0
 11
14670.6600375
 21
20094.226823000001
 31
0.0
  0
LINE
  5
464F
  8
0-1
  6
CONTINUOUS
 62
     3
 10
14707.658229500001
 20
16575.750195000001
 30
0.0
 11
14707.658229500001
 21
20094.226823000001
 31
0.0
  0
LINE
  5
4650
  8
0-1
  6
CONTINUOUS
 62
     3
 10
8371.1607364999945
 20
20074.22867
 30
0.0
 11
8421.65924549999
 21
20074.22867
 31
0.0
  0
LINE
  5
4651
  8
0-1
  6
CONTINUOUS
 62
     3
 10
8371.1607364999945
 20
20096.727878999998
 30
0.0
 11
8353.1599844999946
 21
20096.727878999998
 31
0.0
  0
LINE
  5
4652
  8
0-1
  6
CONTINUOUS
 62
     3
 10
8421.65924549999
 20
20114.230781999991
 30
0.0
 11
8358.159258499998
 21
20114.230781999991
 31
0.0
  0
LINE
  5
4653
  8
0-1
  6
CONTINUOUS
 62
     3
 10
8353.1599844999946
 20
20109.22853800001
 30
0.0
 11
8353.1599844999946
 21
20074.22867
 31
0.0
  0
LINE
  5
4654
  8
0-1
  6
CONTINUOUS
 62
     3
 10
8426.6585194999934
 20
20079.228933999992
 30
0.0
 11
8426.6585194999934
 21
20109.22853800001
 31
0.0
  0
LINE
  5
4655
  8
0-1
  6
CONTINUOUS
 62
     3
 10
8429.6585194999934
 20
20094.226823000001
 30
0.0
 11
14987.66026149999
 21
20094.226823000001
 31
0.0
  0
LINE
  5
4656
  8
0-1
  6
CONTINUOUS
 62
     3
 10
8371.1607364999945
 20
20054.004386960609
 30
0.0
 11
8371.1607364999945
 21
20096.727878999998
 31
0.0
  0
LINE
  5
4657
  8
0-1
  6
CONTINUOUS
 62
     3
 10
14992.66052549999
 20
20114.230781999991
 30
0.0
 11
15056.15952249998
 21
20114.230781999991
 31
0.0
  0
LINE
  5
4658
  8
0-1
  6
CONTINUOUS
 62
     3
 10
15043.160023499981
 20
20074.22867
 30
0.0
 11
14992.66052549999
 21
20074.22867
 31
0.0
  0
LINE
  5
4659
  8
0-1
  6
CONTINUOUS
 62
     3
 10
14987.66026149999
 20
20079.228933999992
 30
0.0
 11
14987.66026149999
 21
20109.22853800001
 31
0.0
  0
LINE
  5
465A
  8
0-1
  6
CONTINUOUS
 62
     3
 10
15061.15978649998
 20
20109.22853800001
 30
0.0
 11
15061.15978649998
 21
20074.22867
 31
0.0
  0
LINE
  5
465B
  8
0-1
  6
CONTINUOUS
 62
     3
 10
15043.160023499981
 20
20096.727878999998
 30
0.0
 11
15061.15978649998
 21
20096.727878999998
 31
0.0
  0
LINE
  5
465C
  8
0-1
  6
CONTINUOUS
 62
     3
 10
15043.160023499981
 20
16412.538887999981
 30
0.0
 11
15043.160023499981
 21
20096.727878999998
 31
0.0
  0
LINE
  5
465D
  8
0-1
  6
CONTINUOUS
 62
     3
 10
8438.65939049999
 20
15910.231309999999
 30
0.0
 11
14975.65939049999
 21
15910.231309999999
 31
0.0
  0
LINE
  5
465E
  8
0-1
  6
CONTINUOUS
 62
     3
 10
8438.65939049999
 20
15820.23150799999
 30
0.0
 11
14975.65939049999
 21
15820.23150799999
 31
0.0
  0
LINE
  5
465F
  8
0-1
  6
CONTINUOUS
 62
     3
 10
8438.65939049999
 20
18828.229329999991
 30
0.0
 11
10793.090952500001
 21
18828.229329999991
 31
0.0
  0
LINE
  5
4660
  8
0-1
  6
CONTINUOUS
 62
     3
 10
8438.65939049999
 20
18738.228537999999
 30
0.0
 11
10970.6517895
 21
18738.228537999999
 31
0.0
  0
LINE
  5
4661
  8
0-1
  6
CONTINUOUS
 62
     3
 10
11764.159628499991
 20
14448.731178
 30
0.0
 11
11764.159628499991
 21
15820.23150799999
 31
0.0
  0
LINE
  5
4662
  8
0-1
  6
CONTINUOUS
 62
     3
 10
11650.159153500001
 20
14448.731178
 30
0.0
 11
11650.159153500001
 21
15820.23150799999
 31
0.0
  0
LINE
  5
4663
  8
0-1
  6
CONTINUOUS
 62
     3
 10
11707.15939049999
 20
14448.731178
 30
0.0
 11
11707.15939049999
 21
15470.229858000001
 31
0.0
  0
LINE
  5
4664
  8
0-1
  6
CONTINUOUS
 62
     3
 10
11707.15939049999
 20
14369.73057099998
 30
0.0
 11
11707.15939049999
 21
15820.23150799999
 31
0.0
  0
LINE
  5
4665
  8
0-1
  6
CONTINUOUS
 62
     3
 10
11707.15939049999
 20
15910.231309999999
 30
0.0
 11
11707.15939049999
 21
17279.228538999982
 31
0.0
  0
LINE
  5
4666
  8
0-1
  6
CONTINUOUS
 62
     3
 10
11707.15939049999
 20
17358.229145999991
 30
0.0
 11
11707.15939049999
 21
17874.956737999979
 31
0.0
  0
LINE
  5
4667
  8
0-1
  6
CONTINUOUS
 62
     3
 10
11707.15939049999
 20
17358.229145999991
 30
0.0
 11
11707.15939049999
 21
18234.953544
 31
0.0
  0
LINE
  5
4668
  8
0-1
  6
CONTINUOUS
 62
     3
 10
11650.159153500001
 20
17358.229145999991
 30
0.0
 11
11650.159153500001
 21
18369.418281999999
 31
0.0
  0
LINE
  5
4669
  8
0-1
  6
CONTINUOUS
 62
     3
 10
11764.159628499991
 20
17358.229145999991
 30
0.0
 11
11764.159628499991
 21
18090.49266
 31
0.0
  0
LINE
  5
466A
  8
0-1
  6
CONTINUOUS
 62
     3
 10
11650.159153500001
 20
15910.231309999999
 30
0.0
 11
11650.159153500001
 21
17279.228538999982
 31
0.0
  0
LINE
  5
466B
  8
0-1
  6
CONTINUOUS
 62
     3
 10
11764.159628499991
 20
15910.231309999999
 30
0.0
 11
11764.159628499991
 21
17279.228538999982
 31
0.0
  0
LINE
  5
466C
  8
0-1
  6
CONTINUOUS
 62
     3
 10
11707.15939049999
 20
15910.231309999999
 30
0.0
 11
11707.15939049999
 21
15820.23150799999
 31
0.0
  0
LINE
  5
466D
  8
0-1
  6
CONTINUOUS
 62
     3
 10
11707.15939049999
 20
17358.229145999991
 30
0.0
 11
11707.15939049999
 21
17279.228538999982
 31
0.0
  0
LINE
  5
466E
  8
0-1
  6
CONTINUOUS
 62
     3
 10
8508.6601164999956
 20
14406.230913999991
 30
0.0
 11
11637.159654499999
 21
15865.230913999991
 31
0.0
  0
LINE
  5
466F
  8
0-1
  6
CONTINUOUS
 62
     3
 10
11637.159654499999
 20
14406.230913999991
 30
0.0
 11
8508.6601164999956
 21
15865.230913999991
 31
0.0
  0
LINE
  5
4670
  8
0-1
  6
CONTINUOUS
 62
     3
 10
11637.159654499999
 20
15865.230913999991
 30
0.0
 11
8508.6601164999956
 21
17324.230914
 31
0.0
  0
LINE
  5
4671
  8
0-1
  6
CONTINUOUS
 62
     3
 10
11637.159654499999
 20
17324.230914
 30
0.0
 11
8508.6601164999956
 21
15865.230913999991
 31
0.0
  0
LINE
  5
4672
  8
0-1
  6
CONTINUOUS
 62
     3
 10
11637.159654499999
 20
17324.230914
 30
0.0
 11
8508.6601164999956
 21
18783.230914
 31
0.0
  0
LINE
  5
4673
  8
0-1
  6
CONTINUOUS
 62
     3
 10
9905.2802272408517
 20
19278.085835328318
 30
0.0
 11
8508.6601164999956
 21
18783.230914
 31
0.0
  0
LINE
  5
4674
  8
0-1
  6
CONTINUOUS
 62
     3
 10
11243.78180449998
 20
18599.786947000001
 30
0.0
 11
8508.6601164999956
 21
17324.230914
 31
0.0
  0
LINE
  5
4675
  8
0-1
  6
CONTINUOUS
 62
     3
 10
11499.77710549999
 20
18719.163795
 30
0.0
 11
11436.84128149999
 21
18689.815451999999
 31
0.0
  0
LINE
  5
4676
  8
0-1
  6
CONTINUOUS
 62
     3
 10
11777.159126499981
 20
14406.230913999991
 30
0.0
 11
14905.65965449999
 21
15865.230913999991
 31
0.0
  0
LINE
  5
4677
  8
0-1
  6
CONTINUOUS
 62
     3
 10
14905.65965449999
 20
14406.230913999991
 30
0.0
 11
12653.448453499999
 21
15358.231665999991
 31
0.0
  0
LINE
  5
4678
  8
0-1
  6
CONTINUOUS
 62
     3
 10
11777.159126499981
 20
17324.230914
 30
0.0
 11
14905.65965449999
 21
15865.230913999991
 31
0.0
  0
LINE
  5
4679
  8
0-1
  6
CONTINUOUS
 62
     3
 10
11777.159126499981
 20
15865.230913999991
 30
0.0
 11
14028.408202500001
 21
16920.040932999978
 31
0.0
  0
LINE
  5
467A
  8
0-1
  6
CONTINUOUS
 62
     3
 10
11777.159126499981
 20
17324.230914
 30
0.0
 11
12534.3576455
 21
17677.329520999981
 31
0.0
  0
LINE
  5
467B
  8
0-1
  6
CONTINUOUS
 62
     3
 10
13870.6593775
 20
19535.230016999991
 30
0.0
 11
13870.6593775
 21
20094.226823000001
 31
0.0
  0
LINE
  5
467C
  8
0-1
  6
CONTINUOUS
 62
     3
 10
13633.658546500001
 20
19535.230016999991
 30
0.0
 11
13633.658546500001
 21
20094.226823000001
 31
0.0
  0
LINE
  5
467D
  8
0-1
  6
CONTINUOUS
 62
     3
 10
13670.65970749999
 20
19535.230016999991
 30
0.0
 11
13670.65970749999
 21
20094.226823000001
 31
0.0
  0
LINE
  5
467E
  8
0-1
  6
CONTINUOUS
 62
     3
 10
13833.66019549999
 20
19535.230016999991
 30
0.0
 11
13833.66019549999
 21
20094.226823000001
 31
0.0
  0
LINE
  5
467F
  8
0-1
  6
CONTINUOUS
 62
     3
 10
13433.658875499999
 20
19535.230016999991
 30
0.0
 11
13433.658875499999
 21
20094.226823000001
 31
0.0
  0
LINE
  5
4680
  8
0-1
  6
CONTINUOUS
 62
     3
 10
13396.6596945
 20
19535.230016999991
 30
0.0
 11
13396.6596945
 21
20094.226823000001
 31
0.0
  0
LINE
  5
4681
  8
0-1
  6
CONTINUOUS
 62
     3
 10
13233.6592055
 20
19535.230016999991
 30
0.0
 11
13233.6592055
 21
20094.226823000001
 31
0.0
  0
LINE
  5
4682
  8
0-1
  6
CONTINUOUS
 62
     3
 10
13196.6590345
 20
19535.230016999991
 30
0.0
 11
13196.6590345
 21
20094.226823000001
 31
0.0
  0
LINE
  5
4683
  8
0-1
  6
CONTINUOUS
 62
     3
 10
13033.658546500001
 20
19535.230016999991
 30
0.0
 11
13033.658546500001
 21
20094.226823000001
 31
0.0
  0
LINE
  5
4684
  8
0-1
  6
CONTINUOUS
 62
     3
 10
12996.660353499999
 20
19535.230016999991
 30
0.0
 11
12996.660353499999
 21
20094.226823000001
 31
0.0
  0
LINE
  5
4685
  8
0-1
  6
CONTINUOUS
 62
     3
 10
12159.6595225
 20
19535.230016999991
 30
0.0
 11
12159.6595225
 21
20094.226823000001
 31
0.0
  0
LINE
  5
4686
  8
0-1
  6
CONTINUOUS
 62
     3
 10
12196.6596945
 20
19535.230016999991
 30
0.0
 11
12196.6596945
 21
20094.226823000001
 31
0.0
  0
LINE
  5
4687
  8
0-1
  6
CONTINUOUS
 62
     3
 10
12359.659192499979
 20
19535.230016999991
 30
0.0
 11
12359.659192499979
 21
20094.226823000001
 31
0.0
  0
LINE
  5
4688
  8
0-1
  6
CONTINUOUS
 62
     3
 10
12396.66035349999
 20
19535.230016999991
 30
0.0
 11
12396.66035349999
 21
20094.226823000001
 31
0.0
  0
LINE
  5
4689
  8
0-1
  6
CONTINUOUS
 62
     3
 10
12559.6588625
 20
19535.230016999991
 30
0.0
 11
12559.6588625
 21
20094.226823000001
 31
0.0
  0
LINE
  5
468A
  8
0-1
  6
CONTINUOUS
 62
     3
 10
12596.658044499991
 20
19535.230016999991
 30
0.0
 11
12596.658044499991
 21
20094.226823000001
 31
0.0
  0
LINE
  5
468B
  8
0-1
  6
CONTINUOUS
 62
     3
 10
12759.659522499989
 20
19535.230016999991
 30
0.0
 11
12759.659522499989
 21
20094.226823000001
 31
0.0
  0
LINE
  5
468C
  8
0-1
  6
CONTINUOUS
 62
     3
 10
12796.6596945
 20
19535.230016999991
 30
0.0
 11
12796.6596945
 21
20094.226823000001
 31
0.0
  0
LINE
  5
468D
  8
0-1
  6
CONTINUOUS
 62
     3
 10
14033.65788649999
 20
19535.230016999991
 30
0.0
 11
14033.65788649999
 21
20094.226823000001
 31
0.0
  0
LINE
  5
468E
  8
0-1
  6
CONTINUOUS
 62
     3
 10
14070.660037499991
 20
19535.230016999991
 30
0.0
 11
14070.660037499991
 21
20094.226823000001
 31
0.0
  0
LINE
  5
468F
  8
0-1
  6
CONTINUOUS
 62
     3
 10
13433.658875499999
 20
18071.229963999998
 30
0.0
 11
13433.658875499999
 21
19135.230675999988
 31
0.0
  0
LINE
  5
4690
  8
0-1
  6
CONTINUOUS
 62
     3
 10
13396.6596945
 20
18071.229963999998
 30
0.0
 11
13396.6596945
 21
19135.230675999988
 31
0.0
  0
LINE
  5
4691
  8
0-1
  6
CONTINUOUS
 62
     3
 10
13233.6592055
 20
18071.229963999998
 30
0.0
 11
13233.6592055
 21
19135.230675999988
 31
0.0
  0
LINE
  5
4692
  8
0-1
  6
CONTINUOUS
 62
     3
 10
13196.6590345
 20
18071.229963999998
 30
0.0
 11
13196.6590345
 21
19135.230675999988
 31
0.0
  0
LINE
  5
4693
  8
0-1
  6
CONTINUOUS
 62
     3
 10
13033.658546500001
 20
18071.229963999998
 30
0.0
 11
13033.658546500001
 21
19135.230675999988
 31
0.0
  0
LINE
  5
4694
  8
0-1
  6
CONTINUOUS
 62
     3
 10
12996.660353499999
 20
18071.229963999998
 30
0.0
 11
12996.660353499999
 21
19135.230675999988
 31
0.0
  0
LINE
  5
4695
  8
0-1
  6
CONTINUOUS
 62
     3
 10
12759.659522499989
 20
18071.229963999998
 30
0.0
 11
12759.659522499989
 21
19135.230675999988
 31
0.0
  0
LINE
  5
4696
  8
0-1
  6
CONTINUOUS
 62
     3
 10
12796.6596945
 20
18071.229963999998
 30
0.0
 11
12796.6596945
 21
19135.230675999988
 31
0.0
  0
LINE
  5
4697
  8
0-1
  6
CONTINUOUS
 62
     3
 10
12559.6588625
 20
18071.229963999998
 30
0.0
 11
12559.6588625
 21
19135.230675999988
 31
0.0
  0
LINE
  5
4698
  8
0-1
  6
CONTINUOUS
 62
     3
 10
12596.658044499991
 20
18071.229963999998
 30
0.0
 11
12596.658044499991
 21
19135.230675999988
 31
0.0
  0
LINE
  5
4699
  8
0-1
  6
CONTINUOUS
 62
     3
 10
13633.658546500001
 20
18071.229963999998
 30
0.0
 11
13633.658546500001
 21
19135.230675999988
 31
0.0
  0
LINE
  5
469A
  8
0-1
  6
CONTINUOUS
 62
     3
 10
13670.65970749999
 20
18071.229963999998
 30
0.0
 11
13670.65970749999
 21
19135.230675999988
 31
0.0
  0
LINE
  5
469B
  8
0-1
  6
CONTINUOUS
 62
     3
 10
13833.66019549999
 20
18071.229963999998
 30
0.0
 11
13833.66019549999
 21
19135.230675999988
 31
0.0
  0
LINE
  5
469C
  8
0-1
  6
CONTINUOUS
 62
     3
 10
13870.6593775
 20
18071.229963999998
 30
0.0
 11
13870.6593775
 21
19135.230675999988
 31
0.0
  0
LINE
  5
469D
  8
0-1
  6
CONTINUOUS
 62
     3
 10
14033.65788649999
 20
18071.229963999998
 30
0.0
 11
14033.65788649999
 21
19135.230675999988
 31
0.0
  0
LINE
  5
469E
  8
0-1
  6
CONTINUOUS
 62
     3
 10
14070.660037499991
 20
18071.229963999998
 30
0.0
 11
14070.660037499991
 21
19135.230675999988
 31
0.0
  0
LINE
  5
469F
  8
0-1
  6
CONTINUOUS
 62
     3
 10
12168.937526499991
 20
15638.55822099999
 30
0.0
 11
11777.159126499981
 21
15865.230913999991
 31
0.0
  0
LINE
  5
46A0
  8
0-1
  6
CONTINUOUS
 62
     3
 10
11707.15939049999
 20
14369.73057099998
 30
0.0
 11
11707.15939049999
 21
14213.729660999999
 31
0.0
  0
LINE
  5
46A1
  8
0-5
  6
CONTINUOUS
 62
     6
 10
10525.12550149999
 20
19831.955391
 30
0.0
 11
10669.026604500001
 21
20344.231046000001
 31
0.0
  0
LINE
  5
46A2
  8
0-5
  6
CONTINUOUS
 62
     6
 10
10669.026604500001
 20
20344.231046000001
 30
0.0
 11
11186.716242500001
 21
20344.231046000001
 31
0.0
  0
LINE
  5
46A3
  8
0-5
  6
CONTINUOUS
 62
     6
 10
8603.188066499999
 20
19121.928311
 30
0.0
 11
9133.6862595000039
 21
19121.928311
 31
0.0
  0
LINE
  5
46A4
  8
0-5
  6
CONTINUOUS
 62
     6
 10
9599.5402235000001
 20
14600.61963899998
 30
0.0
 11
9682.4276155000043
 21
14777.558907000001
 31
0.0
  0
LINE
  5
46A5
  8
0-5
  6
CONTINUOUS
 62
     6
 10
9682.4276155000043
 20
14777.558907000001
 30
0.0
 11
10482.4272855
 21
14777.558907000001
 31
0.0
  0
LINE
  5
46A6
  8
0-5
  6
CONTINUOUS
 62
     6
 10
10589.953745500001
 20
13413.72999099998
 30
0.0
 11
11452.5329255
 21
13413.72999099998
 31
0.0
  0
LINE
  5
46A7
  8
0-5
  6
CONTINUOUS
 62
     6
 10
10183.8396715
 20
14077.26165
 30
0.0
 11
10589.953745500001
 21
13413.72999099998
 31
0.0
  0
LINE
  5
46A8
  8
0-5
  6
CONTINUOUS
 62
     6
 10
6622.7623714999936
 20
13013.730650999991
 30
0.0
 11
7702.7609854999982
 21
13013.730650999991
 31
0.0
  0
LINE
  5
46A9
  8
0-5
  6
CONTINUOUS
 62
     6
 10
8261.2658224999977
 20
14794.00276799998
 30
0.0
 11
7702.7609854999982
 21
13013.730650999991
 31
0.0
  0
LINE
  5
46AA
  8
0-5
  6
CONTINUOUS
 62
     6
 10
8504.1448344999935
 20
19342.717874999991
 30
0.0
 11
8603.188066499999
 21
19121.928311
 31
0.0
  0
LINE
  5
46AB
  8
0-5
  6
CONTINUOUS
 62
     6
 10
9804.1432645000059
 20
16889.516757000001
 30
0.0
 11
9909.7763144999935
 21
16990.547426000001
 31
0.0
  0
LINE
  5
46AC
  8
0-5
  6
CONTINUOUS
 62
     6
 10
8500.8806084999942
 20
20257.009497999999
 30
0.0
 11
8662.4023964999942
 21
20592.767521999998
 31
0.0
  0
LINE
  5
46AD
  8
0-5
  6
CONTINUOUS
 62
     6
 10
8724.0643994999973
 20
20720.953227000002
 30
0.0
 11
8900.3970255000022
 21
21065.672531000011
 31
0.0
  0
LINE
  5
46AE
  8
0-5
  6
CONTINUOUS
 62
     6
 10
8900.3970255000022
 20
21065.672531000011
 30
0.0
 11
10553.24258349999
 21
21065.672531000011
 31
0.0
  0
LINE
  5
46AF
  8
0-5
  6
CONTINUOUS
 62
     6
 10
10541.55550549999
 20
16454.257242
 30
0.0
 11
11489.500435499989
 21
16454.257242
 31
0.0
  0
LINE
  5
46B0
  8
0-5
  6
CONTINUOUS
 62
     6
 10
11650.159153500001
 20
16029.23480799999
 30
0.0
 11
11489.500435499989
 21
16454.257242
 31
0.0
  0
LINE
  5
46B1
  8
0-5
  6
CONTINUOUS
 62
     6
 10
12168.937526499991
 20
19215.230940000009
 30
0.0
 11
14163.380687499999
 21
19215.230940000009
 31
0.0
  0
LINE
  5
46B2
  8
0-5
  6
CONTINUOUS
 62
     6
 10
12168.937526499991
 20
17751.230887999991
 30
0.0
 11
14163.380687499999
 21
17751.230887999991
 31
0.0
  0
LINE
  5
46B3
  8
0-5
  6
CONTINUOUS
 62
     6
 10
9909.7763144999935
 20
16990.547426000001
 30
0.0
 11
10789.778227500001
 21
16990.547426000001
 31
0.0
  0
LINE
  5
46B4
  8
0-5
  6
CONTINUOUS
 62
     6
 10
14303.9274965
 20
18971.79172500001
 30
0.0
 11
14163.380687499999
 21
19215.230940000009
 31
0.0
  0
LINE
  5
46B5
  8
0-5
  6
CONTINUOUS
 62
     6
 10
14303.9274965
 20
17507.791671999988
 30
0.0
 11
14163.380687499999
 21
17751.230887999991
 31
0.0
  0
LINE
  5
46B6
  8
0-5
  6
CONTINUOUS
 62
     6
 10
12168.937526499991
 20
15438.23093999999
 30
0.0
 11
14163.380687499999
 21
15438.23093999999
 31
0.0
  0
LINE
  5
46B7
  8
0-5
  6
CONTINUOUS
 62
     6
 10
14303.9274965
 20
15681.667186000001
 30
0.0
 11
14163.380687499999
 21
15438.23093999999
 31
0.0
  0
LINE
  5
46B8
  8
0-5
  6
CONTINUOUS
 62
     6
 10
8528.4770764999921
 20
19353.63492
 30
0.0
 11
8438.65939049999
 21
19488.703411999992
 31
0.0
  0
LINE
  5
46B9
  8
0-5
  6
CONTINUOUS
 62
     6
 10
8438.65939049999
 20
19488.703411999992
 30
0.0
 11
8479.8135815000005
 21
19331.802810000001
 31
0.0
  0
LINE
  5
46BA
  8
0-5
  6
CONTINUOUS
 62
     6
 10
8438.65939049999
 20
19488.703411999992
 30
0.0
 11
8528.4770764999921
 21
19353.63492
 31
0.0
  0
LINE
  5
46BB
  8
0-5
  6
CONTINUOUS
 62
     6
 10
8528.4770764999921
 20
19353.63492
 30
0.0
 11
8479.8135815000005
 21
19331.802810000001
 31
0.0
  0
LINE
  5
46BC
  8
0-5
  6
CONTINUOUS
 62
     6
 10
8479.8135815000005
 20
19331.802810000001
 30
0.0
 11
8438.65939049999
 21
19488.703411999992
 31
0.0
  0
LINE
  5
46BD
  8
0-5
  6
CONTINUOUS
 62
     6
 10
8479.8135815000005
 20
19331.802810000001
 30
0.0
 11
8528.4770764999921
 21
19353.63492
 31
0.0
  0
LINE
  5
46BE
  8
0-5
  6
CONTINUOUS
 62
     6
 10
10206.5843405
 20
14091.18261399999
 30
0.0
 11
10100.3148755
 21
14213.729660999999
 31
0.0
  0
LINE
  5
46BF
  8
0-5
  6
CONTINUOUS
 62
     6
 10
10100.3148755
 20
14213.729660999999
 30
0.0
 11
10161.0940135
 21
14063.341675
 31
0.0
  0
LINE
  5
46C0
  8
0-5
  6
CONTINUOUS
 62
     6
 10
10100.3148755
 20
14213.729660999999
 30
0.0
 11
10206.5843405
 21
14091.18261399999
 31
0.0
  0
LINE
  5
46C1
  8
0-5
  6
CONTINUOUS
 62
     6
 10
10206.5843405
 20
14091.18261399999
 30
0.0
 11
10161.0940135
 21
14063.341675
 31
0.0
  0
LINE
  5
46C2
  8
0-5
  6
CONTINUOUS
 62
     6
 10
10161.0940135
 20
14063.341675
 30
0.0
 11
10100.3148755
 21
14213.729660999999
 31
0.0
  0
LINE
  5
46C3
  8
0-5
  6
CONTINUOUS
 62
     6
 10
10161.0940135
 20
14063.341675
 30
0.0
 11
10206.5843405
 21
14091.18261399999
 31
0.0
  0
LINE
  5
46C4
  8
0-5
  6
CONTINUOUS
 62
     6
 10
8286.7095644999936
 20
14786.02035999999
 30
0.0
 11
8309.1592844999977
 21
14946.666211
 31
0.0
  0
LINE
  5
46C5
  8
0-5
  6
CONTINUOUS
 62
     6
 10
8309.1592844999977
 20
14946.666211
 30
0.0
 11
8235.8230704999951
 21
14801.98418699998
 31
0.0
  0
LINE
  5
46C6
  8
0-5
  6
CONTINUOUS
 62
     6
 10
8309.1592844999977
 20
14946.666211
 30
0.0
 11
8286.7095644999936
 21
14786.02035999999
 31
0.0
  0
LINE
  5
46C7
  8
0-5
  6
CONTINUOUS
 62
     6
 10
8286.7095644999936
 20
14786.02035999999
 30
0.0
 11
8235.8230704999951
 21
14801.98418699998
 31
0.0
  0
LINE
  5
46C8
  8
0-5
  6
CONTINUOUS
 62
     6
 10
8235.8230704999951
 20
14801.98418699998
 30
0.0
 11
8309.1592844999977
 21
14946.666211
 31
0.0
  0
LINE
  5
46C9
  8
0-5
  6
CONTINUOUS
 62
     6
 10
8235.8230704999951
 20
14801.98418699998
 30
0.0
 11
8286.7095644999936
 21
14786.02035999999
 31
0.0
  0
LINE
  5
46CA
  8
0-5
  6
CONTINUOUS
 62
     6
 10
9575.3930665000007
 20
14611.932588
 30
0.0
 11
9531.6674805000093
 21
14455.73075599999
 31
0.0
  0
LINE
  5
46CB
  8
0-5
  6
CONTINUOUS
 62
     6
 10
9531.6674805000093
 20
14455.73075599999
 30
0.0
 11
9623.6883705
 21
14589.307679999991
 31
0.0
  0
LINE
  5
46CC
  8
0-5
  6
CONTINUOUS
 62
     6
 10
9531.6674805000093
 20
14455.73075599999
 30
0.0
 11
9575.3930665000007
 21
14611.932588
 31
0.0
  0
LINE
  5
46CD
  8
0-5
  6
CONTINUOUS
 62
     6
 10
9575.3930665000007
 20
14611.932588
 30
0.0
 11
9623.6883705
 21
14589.307679999991
 31
0.0
  0
LINE
  5
46CE
  8
0-5
  6
CONTINUOUS
 62
     6
 10
9623.6883705
 20
14589.307679999991
 30
0.0
 11
9531.6674805000093
 21
14455.73075599999
 31
0.0
  0
LINE
  5
46CF
  8
0-5
  6
CONTINUOUS
 62
     6
 10
9623.6883705
 20
14589.307679999991
 30
0.0
 11
9575.3930665000007
 21
14611.932588
 31
0.0
  0
LINE
  5
46D0
  8
0-5
  6
CONTINUOUS
 62
     6
 10
9785.7119665000027
 20
16908.789349999988
 30
0.0
 11
9688.5166145000039
 21
16778.930950999991
 31
0.0
  0
LINE
  5
46D1
  8
0-5
  6
CONTINUOUS
 62
     6
 10
9688.5166145000039
 20
16778.930950999991
 30
0.0
 11
9822.5765414999987
 21
16870.24812299999
 31
0.0
  0
LINE
  5
46D2
  8
0-5
  6
CONTINUOUS
 62
     6
 10
9688.5166145000039
 20
16778.930950999991
 30
0.0
 11
9785.7119665000027
 21
16908.789349999988
 31
0.0
  0
LINE
  5
46D3
  8
0-5
  6
CONTINUOUS
 62
     6
 10
9785.7119665000027
 20
16908.789349999988
 30
0.0
 11
9822.5765414999987
 21
16870.24812299999
 31
0.0
  0
LINE
  5
46D4
  8
0-5
  6
CONTINUOUS
 62
     6
 10
9822.5765414999987
 20
16870.24812299999
 30
0.0
 11
9688.5166145000039
 21
16778.930950999991
 31
0.0
  0
LINE
  5
46D5
  8
0-5
  6
CONTINUOUS
 62
     6
 10
9822.5765414999987
 20
16870.24812299999
 30
0.0
 11
9785.7119665000027
 21
16908.789349999988
 31
0.0
  0
LINE
  5
46D6
  8
0-5
  6
CONTINUOUS
 62
     6
 10
11617.81876849999
 20
16188.18520099998
 30
0.0
 11
11650.159153500001
 21
16029.23480799999
 31
0.0
  0
LINE
  5
46D7
  8
0-5
  6
CONTINUOUS
 62
     6
 10
11650.159153500001
 20
16029.23480799999
 30
0.0
 11
11568.0160605
 21
16169.103630999991
 31
0.0
  0
LINE
  5
46D8
  8
0-5
  6
CONTINUOUS
 62
     6
 10
11650.159153500001
 20
16029.23480799999
 30
0.0
 11
11617.81876849999
 21
16188.18520099998
 31
0.0
  0
LINE
  5
46D9
  8
0-5
  6
CONTINUOUS
 62
     6
 10
11617.81876849999
 20
16188.18520099998
 30
0.0
 11
11568.0160605
 21
16169.103630999991
 31
0.0
  0
LINE
  5
46DA
  8
0-5
  6
CONTINUOUS
 62
     6
 10
11568.0160605
 20
16169.103630999991
 30
0.0
 11
11650.159153500001
 21
16029.23480799999
 31
0.0
  0
LINE
  5
46DB
  8
0-5
  6
CONTINUOUS
 62
     6
 10
11568.0160605
 20
16169.103630999991
 30
0.0
 11
11617.81876849999
 21
16188.18520099998
 31
0.0
  0
LINE
  5
46DC
  8
0-5
  6
CONTINUOUS
 62
     6
 10
14280.8354225
 20
15695.00023399999
 30
0.0
 11
14383.92875049999
 21
15820.23150799999
 31
0.0
  0
LINE
  5
46DD
  8
0-5
  6
CONTINUOUS
 62
     6
 10
14383.92875049999
 20
15820.23150799999
 30
0.0
 11
14327.02253949998
 21
15668.334139000001
 31
0.0
  0
LINE
  5
46DE
  8
0-5
  6
CONTINUOUS
 62
     6
 10
14383.92875049999
 20
15820.23150799999
 30
0.0
 11
14280.8354225
 21
15695.00023399999
 31
0.0
  0
LINE
  5
46DF
  8
0-5
  6
CONTINUOUS
 62
     6
 10
14280.8354225
 20
15695.00023399999
 30
0.0
 11
14327.02253949998
 21
15668.334139000001
 31
0.0
  0
LINE
  5
46E0
  8
0-5
  6
CONTINUOUS
 62
     6
 10
14327.02253949998
 20
15668.334139000001
 30
0.0
 11
14383.92875049999
 21
15820.23150799999
 31
0.0
  0
LINE
  5
46E1
  8
0-5
  6
CONTINUOUS
 62
     6
 10
14327.02253949998
 20
15668.334139000001
 30
0.0
 11
14280.8354225
 21
15695.00023399999
 31
0.0
  0
LINE
  5
46E2
  8
0-5
  6
CONTINUOUS
 62
     6
 10
14280.8354225
 20
17494.459614999982
 30
0.0
 11
14383.92875049999
 21
17369.227351000001
 31
0.0
  0
LINE
  5
46E3
  8
0-5
  6
CONTINUOUS
 62
     6
 10
14383.92875049999
 20
17369.227351000001
 30
0.0
 11
14327.02253949998
 21
17521.125709999978
 31
0.0
  0
LINE
  5
46E4
  8
0-5
  6
CONTINUOUS
 62
     6
 10
14383.92875049999
 20
17369.227351000001
 30
0.0
 11
14280.8354225
 21
17494.459614999982
 31
0.0
  0
LINE
  5
46E5
  8
0-5
  6
CONTINUOUS
 62
     6
 10
14280.8354225
 20
17494.459614999982
 30
0.0
 11
14327.02253949998
 21
17521.125709999978
 31
0.0
  0
LINE
  5
46E6
  8
0-5
  6
CONTINUOUS
 62
     6
 10
14327.02253949998
 20
17521.125709999978
 30
0.0
 11
14383.92875049999
 21
17369.227351000001
 31
0.0
  0
LINE
  5
46E7
  8
0-5
  6
CONTINUOUS
 62
     6
 10
14327.02253949998
 20
17521.125709999978
 30
0.0
 11
14280.8354225
 21
17494.459614999982
 31
0.0
  0
LINE
  5
46E8
  8
0-5
  6
CONTINUOUS
 62
     6
 10
14280.8354225
 20
18958.45966700001
 30
0.0
 11
14383.92875049999
 21
18828.229329999991
 31
0.0
  0
LINE
  5
46E9
  8
0-5
  6
CONTINUOUS
 62
     6
 10
14383.92875049999
 20
18828.229329999991
 30
0.0
 11
14327.02253949998
 21
18985.125762
 31
0.0
  0
LINE
  5
46EA
  8
0-5
  6
CONTINUOUS
 62
     6
 10
14383.92875049999
 20
18828.229329999991
 30
0.0
 11
14280.8354225
 21
18958.45966700001
 31
0.0
  0
LINE
  5
46EB
  8
0-5
  6
CONTINUOUS
 62
     6
 10
14280.8354225
 20
18958.45966700001
 30
0.0
 11
14327.02253949998
 21
18985.125762
 31
0.0
  0
LINE
  5
46EC
  8
0-5
  6
CONTINUOUS
 62
     6
 10
14327.02253949998
 20
18985.125762
 30
0.0
 11
14383.92875049999
 21
18828.229329999991
 31
0.0
  0
LINE
  5
46ED
  8
0-5
  6
CONTINUOUS
 62
     6
 10
14327.02253949998
 20
18985.125762
 30
0.0
 11
14280.8354225
 21
18958.45966700001
 31
0.0
  0
LINE
  5
46EE
  8
0-5
  6
CONTINUOUS
 62
     6
 10
8476.4988774999947
 20
20267.803812999999
 30
0.0
 11
8436.1048214999973
 21
20110.705258999998
 31
0.0
  0
LINE
  5
46EF
  8
0-5
  6
CONTINUOUS
 62
     6
 10
8436.1048214999973
 20
20110.705258999998
 30
0.0
 11
8525.2643184999979
 21
20246.21122400001
 31
0.0
  0
LINE
  5
46F0
  8
0-5
  6
CONTINUOUS
 62
     6
 10
8436.1048214999973
 20
20110.705258999998
 30
0.0
 11
8476.4988774999947
 21
20267.803812999999
 31
0.0
  0
LINE
  5
46F1
  8
0-5
  6
CONTINUOUS
 62
     6
 10
8476.4988774999947
 20
20267.803812999999
 30
0.0
 11
8525.2643184999979
 21
20246.21122400001
 31
0.0
  0
LINE
  5
46F2
  8
0-5
  6
CONTINUOUS
 62
     6
 10
8525.2643184999979
 20
20246.21122400001
 30
0.0
 11
8436.1048214999973
 21
20110.705258999998
 31
0.0
  0
LINE
  5
46F3
  8
0-5
  6
CONTINUOUS
 62
     6
 10
8525.2643184999979
 20
20246.21122400001
 30
0.0
 11
8476.4988774999947
 21
20267.803812999999
 31
0.0
  0
LINE
  5
46F4
  8
0-5
  6
CONTINUOUS
 62
     6
 10
10499.237357499989
 20
19838.35121600001
 30
0.0
 11
10486.738676499999
 21
19676.626526999989
 31
0.0
  0
LINE
  5
46F5
  8
0-5
  6
CONTINUOUS
 62
     6
 10
10486.738676499999
 20
19676.626526999989
 30
0.0
 11
10551.0146355
 21
19825.55560800001
 31
0.0
  0
LINE
  5
46F6
  8
0-5
  6
CONTINUOUS
 62
     6
 10
10486.738676499999
 20
19676.626526999989
 30
0.0
 11
10499.237357499989
 21
19838.35121600001
 31
0.0
  0
LINE
  5
46F7
  8
0-5
  6
CONTINUOUS
 62
     6
 10
10499.237357499989
 20
19838.35121600001
 30
0.0
 11
10551.0146355
 21
19825.55560800001
 31
0.0
  0
LINE
  5
46F8
  8
0-5
  6
CONTINUOUS
 62
     6
 10
10551.0146355
 20
19825.55560800001
 30
0.0
 11
10486.738676499999
 21
19676.626526999989
 31
0.0
  0
LINE
  5
46F9
  8
0-5
  6
CONTINUOUS
 62
     6
 10
10551.0146355
 20
19825.55560800001
 30
0.0
 11
10499.237357499989
 21
19838.35121600001
 31
0.0
  0
LINE
  5
46FA
  8
0-1
  6
CONTINUOUS
 62
     3
 10
8438.65939049999
 20
19852.728459000002
 30
0.0
 11
8771.3383728242425
 21
19852.728459000002
 31
0.0
  0
LINE
  5
46FB
  8
0-1
  6
CONTINUOUS
 62
     3
 10
8396.1591264999952
 20
19937.728986999991
 30
0.0
 11
8603.6068952480491
 21
19937.728986999991
 31
0.0
  0
LINE
  5
46FC
  8
2-0
  6
DASHED3
 62
     6
 10
13319.7672745
 20
17279.228538999982
 30
0.0
 11
14975.65939049999
 21
17279.228538999982
 31
0.0
  0
LINE
  5
46FD
  8
2-0
  6
DASHED3
 62
     6
 10
13163.909878500001
 20
17358.229145999991
 30
0.0
 11
14975.65939049999
 21
17358.229145999991
 31
0.0
  0
LINE
  5
46FE
  8
2-0
  6
DASHED3
 62
     6
 10
14975.65939049999
 20
16445.229648
 30
0.0
 11
14975.65939049999
 21
19937.728986999991
 31
0.0
  0
LINE
  5
46FF
  8
2-0
  6
DASHED3
 62
     6
 10
15018.158664499981
 20
16423.689515999991
 30
0.0
 11
15018.158664499981
 21
19937.728986999991
 31
0.0
  0
LINE
  5
4700
  8
2-0
  6
DASHED3
 62
     6
 10
10970.6517895
 20
18738.228537999999
 30
0.0
 11
14975.65939049999
 21
18738.228537999999
 31
0.0
  0
LINE
  5
4701
  8
2-0
  6
DASHED3
 62
     6
 10
10793.090952500001
 20
18828.229329999991
 30
0.0
 11
14975.65939049999
 21
18828.229329999991
 31
0.0
  0
LINE
  5
4702
  8
2-0
  6
DASHED3
 62
     6
 10
11764.159628499991
 20
18090.49266
 30
0.0
 11
11764.159628499991
 21
18393.227931000001
 31
0.0
  0
LINE
  5
4703
  8
2-0
  6
DASHED3
 62
     6
 10
11650.159153500001
 20
18369.418281999999
 30
0.0
 11
11650.159153500001
 21
18393.227931000001
 31
0.0
  0
LINE
  5
4704
  8
2-0
  6
DASHED3
 62
     6
 10
11707.15939049999
 20
18234.953544
 30
0.0
 11
11707.15939049999
 21
18738.228537999999
 31
0.0
  0
LINE
  5
4705
  8
2-0
  6
DASHED3
 62
     6
 10
11707.15939049999
 20
18828.229329999991
 30
0.0
 11
11707.15939049999
 21
18738.228537999999
 31
0.0
  0
LINE
  5
4706
  8
0-6
  6
CONTINUOUS
 62
     6
 10
11637.159654499999
 20
18783.230914
 30
0.0
 11
11499.77710549999
 21
18719.163795
 31
0.0
  0
LINE
  5
4707
  8
2-0
  6
DASHED3
 62
     6
 10
11637.159654499999
 20
19891.730914
 30
0.0
 11
9905.2802272408517
 21
19278.085835328318
 31
0.0
  0
LINE
  5
4708
  8
2-0
  6
DASHED3
 62
     6
 10
11637.159654499999
 20
18783.230914
 30
0.0
 11
9126.0335443453987
 21
19672.98117903787
 31
0.0
  0
LINE
  5
4709
  8
0-6
  6
CONTINUOUS
 62
     6
 10
11436.84128149999
 20
18689.815451999999
 30
0.0
 11
11243.78180449998
 21
18599.786947000001
 31
0.0
  0
LINE
  5
470A
  8
2-0
  6
DASHED3
 62
     6
 10
11777.159126499981
 20
18783.230914
 30
0.0
 11
13293.27141849999
 21
18071.229963999998
 31
0.0
  0
LINE
  5
470B
  8
2-0
  6
DASHED3
 62
     6
 10
11777.159126499981
 20
19891.730914
 30
0.0
 11
12783.305490500161
 21
19535.230016999991
 31
0.0
  0
LINE
  5
470C
  8
2-0
  6
DASHED3
 62
     6
 10
11777.159126499981
 20
18783.230914
 30
0.0
 11
12770.602014429731
 21
19135.230675999988
 31
0.0
  0
LINE
  5
470D
  8
2-0
  6
DASHED3
 62
     6
 10
14028.408202500001
 20
16920.040932999978
 30
0.0
 11
14905.65965449999
 21
17324.230914
 31
0.0
  0
LINE
  5
470E
  8
2-0
  6
DASHED3
 62
     6
 10
13899.51329049201
 20
19535.230016999991
 30
0.0
 11
14905.65965449999
 21
19891.730914
 31
0.0
  0
LINE
  5
470F
  8
0-6
  6
CONTINUOUS
 62
     6
 10
13912.216766562429
 20
19135.230675999988
 30
0.0
 11
14905.65965449999
 21
18783.230914
 31
0.0
  0
LINE
  5
4710
  8
0-6
  6
CONTINUOUS
 62
     6
 10
14151.042348499999
 20
17671.230623999982
 30
0.0
 11
14905.65965449999
 21
17324.230914
 31
0.0
  0
LINE
  5
4711
  8
0-6
  6
CONTINUOUS
 62
     6
 10
13379.0469275
 20
18071.229963999998
 30
0.0
 11
14905.65965449999
 21
18783.230914
 31
0.0
  0
LINE
  5
4712
  8
0-7
  6
CONTINUOUS
 62
     6
 10
14975.65939049999
 20
21134.229198000001
 30
0.0
 11
14975.65939049999
 21
20184.22853800001
 31
0.0
  0
LINE
  5
4713
  8
0-7
  6
CONTINUOUS
 62
     6
 10
11707.15939049999
 20
21064.22946200001
 30
0.0
 11
11707.15939049999
 21
20184.22853800001
 31
0.0
  0
LINE
  5
4714
  8
2-0
  6
CENTER2
 62
     6
 10
7109.1578004999901
 20
19891.730914
 30
0.0
 11
8755.6585064999963
 21
19891.730914
 31
0.0
  0
LINE
  5
4715
  8
0-7
  6
CONTINUOUS
 62
     6
 10
8438.65939049999
 20
21064.22946200001
 30
0.0
 11
8438.65939049999
 21
20184.22853800001
 31
0.0
  0
LINE
  5
4716
  8
2-0
  6
CENTER2
 62
     6
 10
7109.1578004999901
 20
17324.230914
 30
0.0
 11
8755.6585064999963
 21
17324.230914
 31
0.0
  0
LINE
  5
4717
  8
2-0
  6
CENTER2
 62
     6
 10
7109.1578004999901
 20
14406.230913999991
 30
0.0
 11
8755.6585064999963
 21
14406.230913999991
 31
0.0
  0
LINE
  5
4718
  8
2-0
  6
CENTER2
 62
     6
 10
14648.15983949998
 20
17324.230914
 30
0.0
 11
15274.42417049998
 21
17324.230914
 31
0.0
  0
LINE
  5
4719
  8
2-0
  6
CENTER2
 62
     6
 10
14648.15983949998
 20
14406.230913999991
 30
0.0
 11
15274.42417049998
 21
14406.230913999991
 31
0.0
  0
LINE
  5
471A
  8
2-0
  6
CENTER2
 62
     6
 10
8219.8612224999979
 20
15865.230913999991
 30
0.0
 11
15194.45755849998
 21
15865.230913999991
 31
0.0
  0
LINE
  5
471B
  8
2-0
  6
CENTER2
 62
     6
 10
8219.8612224999979
 20
18783.230914
 30
0.0
 11
15194.45755849998
 21
18783.230914
 31
0.0
  0
LINE
  5
471C
  8
2-0
  6
DASHED3
 62
     6
 10
11650.159153500001
 20
18828.229329999991
 30
0.0
 11
11650.159153500001
 21
19852.728459000002
 31
0.0
  0
LINE
  5
471D
  8
2-0
  6
DASHED3
 62
     6
 10
11707.15939049999
 20
18828.229329999991
 30
0.0
 11
11707.15939049999
 21
19852.728459000002
 31
0.0
  0
LINE
  5
471E
  8
2-0
  6
DASHED3
 62
     6
 10
11764.159628499991
 20
18828.229329999991
 30
0.0
 11
11764.159628499991
 21
19852.728459000002
 31
0.0
  0
LINE
  5
471F
  8
2-0
  6
DASHED3
 62
     6
 10
11650.159153500001
 20
18393.227931000001
 30
0.0
 11
11650.159153500001
 21
18738.228537999999
 31
0.0
  0
LINE
  5
4720
  8
2-0
  6
DASHED3
 62
     6
 10
11764.159628499991
 20
18393.227931000001
 30
0.0
 11
11764.159628499991
 21
18738.228537999999
 31
0.0
  0
ARC
  5
4721
  8
0-1
  6
CONTINUOUS
 62
     3
 10
8358.159258499998
 20
20109.22853800001
 30
0.0
 40
5.0
 50
90.0
 51
180.0
  0
ARC
  5
4722
  8
0-1
  6
CONTINUOUS
 62
     3
 10
8421.65924549999
 20
20109.22853800001
 30
0.0
 40
5.0
 50
0.0
 51
90.0
  0
ARC
  5
4723
  8
0-1
  6
CONTINUOUS
 62
     3
 10
8421.65924549999
 20
20079.228933999992
 30
0.0
 40
5.0
 50
269.9999850001808
 51
0.0
  0
ARC
  5
4724
  8
0-1
  6
CONTINUOUS
 62
     3
 10
14992.66052549999
 20
20079.228933999992
 30
0.0
 40
5.0
 50
180.0
 51
269.9999850001808
  0
ARC
  5
4725
  8
0-1
  6
CONTINUOUS
 62
     3
 10
14992.66052549999
 20
20109.22853800001
 30
0.0
 40
5.0
 50
90.0
 51
180.0
  0
ARC
  5
4726
  8
0-1
  6
CONTINUOUS
 62
     3
 10
15056.15952249998
 20
20109.22853800001
 30
0.0
 40
5.0
 50
0.0
 51
90.0
  0
CIRCLE
  5
4727
  8
0-4
  6
CONTINUOUS
 62
     4
 10
11707.15939049999
 20
21264.230122000001
 30
0.0
 40
199.9999949999999
  0
CIRCLE
  5
4728
  8
0-4
  6
CONTINUOUS
 62
     4
 10
8438.65939049999
 20
21264.230122000001
 30
0.0
 40
199.9999949999999
  0
CIRCLE
  5
4729
  8
0-4
  6
CONTINUOUS
 62
     4
 10
6909.1581304999927
 20
19891.730914
 30
0.0
 40
199.9999949999999
  0
CIRCLE
  5
472A
  8
0-4
  6
CONTINUOUS
 62
     4
 10
6909.1581304999927
 20
17324.230914
 30
0.0
 40
199.9999949999999
  0
CIRCLE
  5
472B
  8
0-4
  6
CONTINUOUS
 62
     4
 10
6909.1581304999927
 20
14406.230913999991
 30
0.0
 40
199.9999949999999
  0
CIRCLE
  5
472C
  8
0-4
  6
CONTINUOUS
 62
     4
 10
14975.65939049999
 20
21334.227879000009
 30
0.0
 40
199.9999949999999
  0
TEXT
  5
472D
  8
0-4
  6
CONTINUOUS
 62
     7
 10
14920.76338049997
 20
21249.49062700001
 30
0.0
 40
160.0
  1
3
 72
     4
 11
14974.096713833311
 21
21329.49062700001
 31
0.0
  0
TEXT
  5
472E
  8
0-4
  6
CONTINUOUS
 62
     7
 10
11658.89674849999
 20
21171.74305500001
 30
0.0
 40
160.0
  1
2
 72
     4
 11
11712.23008183333
 21
21251.74305500001
 31
0.0
  0
TEXT
  5
472F
  8
0-4
  6
CONTINUOUS
 62
     7
 10
8392.2406694999936
 20
21173.708717000001
 30
0.0
 40
160.0
  1
1
 72
     4
 11
8418.9073361666597
 21
21253.708717000001
 31
0.0
  0
TEXT
  5
4730
  8
0-4
  6
CONTINUOUS
 62
     7
 10
6856.2866734999934
 20
19804.046159000009
 30
0.0
 40
160.0
  1
C
 72
     4
 11
6909.6200068333264
 21
19884.046159000009
 31
0.0
  0
TEXT
  5
4731
  8
0-4
  6
CONTINUOUS
 62
     7
 10
6856.2866734999934
 20
17236.546159000001
 30
0.0
 40
160.0
  1
B
 72
     4
 11
6909.6200068333264
 21
17316.546159000001
 31
0.0
  0
TEXT
  5
4732
  8
0-4
  6
CONTINUOUS
 62
     7
 10
6856.2866734999934
 20
14318.547148999991
 30
0.0
 40
160.0
  1
A
 72
     4
 11
6909.6200068333264
 21
14398.547148999991
 31
0.0
  0
TEXT
  5
4733
  8
0-5
  6
CONTINUOUS
 62
     7
 10
10749.02785849998
 20
20424.231309999999
 30
0.0
 40
160.0
  1
屋根
 72
     4
 11
10919.694525166649
 21
20504.231309999999
 31
0.0
  0
TEXT
  5
4734
  8
0-5
  6
CONTINUOUS
 62
     7
 10
9762.4268895000005
 20
14857.559171000001
 30
0.0
 40
160.0
  1
桁（前）
 72
     4
 11
10082.4268895
 21
14937.559171000001
 31
0.0
  0
TEXT
  5
4735
  8
0-5
  6
CONTINUOUS
 62
     7
 10
10669.953019500001
 20
13493.731244000001
 30
0.0
 40
160.0
  1
鼻隠し前
 72
     4
 11
11032.61968616667
 21
13573.731244000001
 31
0.0
  0
TEXT
  5
4736
  8
0-5
  6
CONTINUOUS
 62
     7
 10
6702.7606554999929
 20
13093.730914
 30
0.0
 40
160.0
  1
ケラバ 左
 72
     4
 11
7118.7606554999938
 21
13173.730914
 31
0.0
  0
TEXT
  5
4737
  8
0-5
  6
CONTINUOUS
 62
     7
 10
8683.1873414999991
 20
19201.928575000002
 30
0.0
 40
160.0
  1
上枠
 72
     4
 11
8853.854008166667
 21
19281.928575000002
 31
0.0
  0
TEXT
  5
4738
  8
0-5
  6
CONTINUOUS
 62
     7
 10
8980.3962995000038
 20
21145.668836000012
 30
0.0
 40
160.0
  1
鼻隠しコーナー後
 72
     4
 11
9727.0629661666699
 21
21225.668836000012
 31
0.0
  0
TEXT
  5
4739
  8
0-5
  6
CONTINUOUS
 62
     7
 10
10557.79448649999
 20
16534.257506000002
 30
0.0
 40
160.0
  1
梁　梁補強
 72
     4
 11
11016.46115316666
 21
16614.257506000002
 31
0.0
  0
TEXT
  5
473A
  8
0-5
  6
CONTINUOUS
 62
     7
 10
10777.644768499969
 20
16536.630948999991
 30
0.0
 40
160.0
  1
+
 72
     4
 11
10830.978101833311
 21
16616.630948999991
 31
0.0
  0
TEXT
  5
473B
  8
0-5
  6
CONTINUOUS
 62
     7
 10
9989.7765784999938
 20
17070.547689999981
 30
0.0
 40
160.0
  1
ブレース
 72
     4
 11
10352.44324516666
 21
17155.88102333331
 31
0.0
  0
TEXT
  5
473C
  8
2-0
  6
CONTINUOUS
 62
     7
 10
12259.671627305301
 20
19278.807139000011
 30
0.0
 40
160.0
  1
桁中B +  桁中補強B
 72
     4
 11
13193.00496063864
 21
19358.807139000011
 31
0.0
  0
TEXT
  5
473D
  8
2-0
  6
CONTINUOUS
 62
     7
 10
12259.671627305301
 20
17814.79916799999
 30
0.0
 40
160.0
  1
桁中A +  桁中補強A
 72
     4
 11
13193.00496063864
 21
17894.79916799999
 31
0.0
  0
TEXT
  5
473E
  8
2-0
  6
CONTINUOUS
 62
     7
 10
12259.671627305301
 20
15502.070414
 30
0.0
 40
160.0
  1
桁中B +  桁中補強B
 50
0.000236
 72
     4
 11
13193.004631112561
 21
15582.07425837789
 31
0.0
  0
TEXT
  5
473F
  8
2-0
  6
CONTINUOUS
 62
     7
 10
10528.050239499989
 20
12146.72031699999
 30
0.0
 40
160.0
  1
小 屋 伏 図
 50
0.000193
 72
     4
 11
11029.38330335164
 21
12226.72200573358
 31
0.0
  0
TEXT
  5
4740
  8
2-0
  6
CONTINUOUS
 62
     7
 10
12380.875488489281
 20
12173.917374733581
 30
0.0
 40
160.0
  1
1
 72
     4
 11
12407.54215515595
 21
12253.917374733581
 31
0.0
  0
TEXT
  5
4741
  8
2-0
  6
CONTINUOUS
 62
     7
 10
12623.964205739971
 20
12093.918842733559
 30
0.0
 40
160.0
  1
80
 72
     4
 11
12743.964205739971
 21
12173.918842733559
 31
0.0
  0
TEXT
  5
4742
  8
2-0
  6
CONTINUOUS
 62
     7
 10
11881.87745448928
 20
12146.72200573358
 30
0.0
 40
160.0
  1
(S=  /   )
 72
     4
 11
12441.87745448928
 21
12226.72200573358
 31
0.0
  0
TEXT
  5
4743
  8
0-6
  6
CONTINUOUS
 62
     7
 10
8952.943296644813
 20
20424.227350000008
 30
0.0
 40
160.0
  1
桁後+桁後補強
 72
     4
 11
9587.6099633114791
 21
20504.227350000008
 31
0.0
  0
LINE
  5
4744
  8
0-6
  6
CONTINUOUS
 62
     6
 10
10396.658704499991
 20
19937.728986999991
 30
0.0
 11
10263.26475661875
 21
20344.229066000011
 31
0.0
  0
LINE
  5
4745
  8
0-6
  6
CONTINUOUS
 62
     6
 10
8913.5224030495301
 20
20344.229066000011
 30
0.0
 11
10263.26475661875
 21
20344.229066000011
 31
0.0
  0
LINE
  5
4746
  8
0-6
  6
CONTINUOUS
 62
     6
 10
10373.051249132701
 20
20098.210425424921
 30
0.0
 11
10322.27760535975
 21
20081.87690924016
 31
0.0
  0
LINE
  5
4747
  8
0-6
  6
CONTINUOUS
 62
     6
 10
10373.051249132701
 20
20098.210425424921
 30
0.0
 11
10396.658704499991
 21
19937.728986999991
 31
0.0
  0
LINE
  5
4748
  8
0-6
  6
CONTINUOUS
 62
     6
 10
10322.27760535975
 20
20081.87690924016
 30
0.0
 11
10373.051249132701
 21
20098.210425424921
 31
0.0
  0
LINE
  5
4749
  8
0-6
  6
CONTINUOUS
 62
     6
 10
10396.658704499991
 20
19937.728986999991
 30
0.0
 11
10322.27760535975
 21
20081.87690924016
 31
0.0
  0
LINE
  5
474A
  8
0-6
  6
CONTINUOUS
 62
     6
 10
10396.658704499991
 20
19937.728986999991
 30
0.0
 11
10373.051249132701
 21
20098.210425424921
 31
0.0
  0
LINE
  5
474B
  8
0-6
  6
CONTINUOUS
 62
     6
 10
10322.27760535975
 20
20081.87690924016
 30
0.0
 11
10396.658704499991
 21
19937.728986999991
 31
0.0
  0
LINE
  5
474C
  8
SUNPOU
  6
CONTINUOUS
 10
7509.1596144999912
 20
20114.226823000001
 30
0.0
 11
7509.1596144999912
 21
20911.19409077847
 31
0.0
  0
LINE
  5
474D
  8
SUNPOU
  6
CONTINUOUS
 10
7509.1596144999912
 20
14213.735599
 30
0.0
 11
7509.1596144999912
 21
13538.30948318962
 31
0.0
  0
LINE
  5
474E
  8
2-0
  6
DASHED3
 62
     6
 10
8603.6068952480491
 20
19937.728986999991
 30
0.0
 11
15018.158664499981
 21
19937.728986999991
 31
0.0
  0
LINE
  5
474F
  8
2-0
  6
DASHED3
 62
     6
 10
8771.3383728242425
 20
19852.728459000002
 30
0.0
 11
14975.65939049999
 21
19852.728459000002
 31
0.0
  0
LINE
  5
4750
  8
0-1
  6
CONTINUOUS
 62
     3
 10
9126.0335443453878
 20
19672.981179037881
 30
0.0
 11
8508.6601164999956
 21
19891.730914
 31
0.0
  0
LINE
  5
4753
  8
WAKUSEN-01
 10
868.00000000000193
 20
22484.000000000011
 30
0.0
 11
32764.000000000011
 21
22484.000000000011
 31
0.0
  0
LINE
  5
4756
  8
WAKUSEN-01
 10
20560.0
 20
2484.0
 30
0.0
 11
32764.0
 21
2484.0
 31
0.0
  0
LINE
  5
4757
  8
WAKUSEN-02
 10
20560.0
 20
1655.9999999999991
 30
0.0
 11
26868.0
 21
1655.9999999999991
 31
0.0
  0
TEXT
  5
4758
  8
WAKUMOJI-01
 10
20670.260259962761
 20
2125.9030093393221
 30
0.0
 40
240.0
  1
名　称
  7
WAKUMOJI
  0
TEXT
  5
4759
  8
WAKUMOJI-01
 10
20656.505485091919
 20
1319.12897497982
 30
0.0
 40
240.0
  1
機種名
  7
WAKUMOJI
  0
LINE
  5
475C
  8
YODOROGO
 10
29977.604341291921
 20
1995.7494964292871
 30
0.0
 11
29829.604341291921
 21
1995.7494964292871
 31
0.0
1001
AUTOCAD_POSTSCRIPT_FIGURE
1002
{
1000
PSFILL
1000
Grayscale
1000
Grayscale
1070
    25
1002
}
  0
LINE
  5
475D
  8
YODOROGO
 10
29829.604341291921
 20
1947.749496429288
 30
0.0
 11
29977.604341291921
 21
1947.749496429288
 31
0.0
1001
AUTOCAD_POSTSCRIPT_FIGURE
1002
{
1000
PSFILL
1000
Grayscale
1000
Grayscale
1070
    25
1002
}
  0
LINE
  5
475E
  8
YODOROGO
 10
29977.604341291921
 20
1907.7494964292871
 30
0.0
 11
29829.604341291921
 21
1907.7494964292871
 31
0.0
1001
AUTOCAD_POSTSCRIPT_FIGURE
1002
{
1000
PSFILL
1000
Grayscale
1000
Grayscale
1070
    25
1002
}
  0
LINE
  5
475F
  8
YODOROGO
 10
29829.604341291921
 20
1859.749496429288
 30
0.0
 11
29977.604341291921
 21
1859.749496429288
 31
0.0
1001
AUTOCAD_POSTSCRIPT_FIGURE
1002
{
1000
PSFILL
1000
Grayscale
1000
Grayscale
1070
    25
1002
}
  0
LINE
  5
4760
  8
YODOROGO
 10
29977.604341291921
 20
1819.7494964292871
 30
0.0
 11
29829.604341291921
 21
1819.7494964292871
 31
0.0
1001
AUTOCAD_POSTSCRIPT_FIGURE
1002
{
1000
PSFILL
1000
Grayscale
1000
Grayscale
1070
    25
1002
}
  0
LINE
  5
4761
  8
YODOROGO
 10
29921.60434129191
 20
1707.749496429288
 30
0.0
 11
29977.604341291921
 21
1707.749496429288
 31
0.0
1001
AUTOCAD_POSTSCRIPT_FIGURE
1002
{
1000
PSFILL
1000
Grayscale
1000
Grayscale
1070
    25
1002
}
  0
LINE
  5
4762
  8
YODOROGO
 10
29737.604341291921
 20
1427.749496429288
 30
0.0
 11
29937.604341291932
 21
1481.3393349155101
 31
0.0
  0
LINE
  5
4763
  8
YODOROGO
 10
29949.60434129191
 20
1707.749496429288
 30
0.0
 11
29885.604341291921
 21
1707.749496429288
 31
0.0
  0
ARC
  5
4764
  8
YODOROGO
 10
30254.34774982791
 20
1807.864609233261
 30
0.0
 40
381.88686420564721
 50
213.96111677667841
 51
264.47872074317792
  0
ARC
  5
4765
  8
YODOROGO
 10
30254.347749827921
 20
1807.864609233302
 30
0.0
 40
381.8868642056816
 50
208.14114420486601
 51
212.9210361185994
  0
LINE
  5
4766
  8
YODOROGO
 10
29771.409872985321
 20
1556.807661346234
 30
0.0
 11
29933.78413250855
 21
1600.3157130570869
 31
0.0
  0
LINE
  5
4767
  8
YODOROGO
 10
29737.604341291921
 20
1427.749496429288
 30
0.0
 11
29937.604341291932
 21
1481.3393349155101
 31
0.0
  0
LINE
  5
4768
  8
YODOROGO
 10
29949.60434129191
 20
1707.749496429288
 30
0.0
 11
29885.604341291921
 21
1707.749496429288
 31
0.0
  0
ARC
  5
4769
  8
YODOROGO
 10
30254.34774982791
 20
1807.864609233261
 30
0.0
 40
381.88686420564721
 50
213.96111677667841
 51
264.47872074317792
  0
LINE
  5
476A
  8
YODOROGO
 10
28793.60434129191
 20
1819.7494964292871
 30
0.0
 11
28433.60434129191
 21
1819.7494964292871
 31
0.0
  0
LINE
  5
476B
  8
YODOROGO
 10
28513.60434129191
 20
1427.749496429288
 30
0.0
 11
28793.60434129191
 21
1427.749496429288
 31
0.0
  0
LINE
  5
476C
  8
YODOROGO
 10
28729.604341291921
 20
1923.7494964292871
 30
0.0
 11
28497.60434129191
 21
1923.7494964292871
 31
0.0
  0
LINE
  5
476D
  8
YODOROGO
 10
28585.604341291921
 20
2027.749496429288
 30
0.0
 11
28657.604341291921
 21
2027.749496429288
 31
0.0
  0
LINE
  5
476E
  8
YODOROGO
 10
28433.60434129191
 20
1707.749496429288
 30
0.0
 11
28433.60434129191
 21
1507.749496429288
 31
0.0
  0
LINE
  5
476F
  8
YODOROGO
 10
28497.60434129191
 20
1563.7494964292871
 30
0.0
 11
28497.60434129191
 21
1707.749496429288
 31
0.0
  0
LINE
  5
4770
  8
YODOROGO
 10
28585.604341291921
 20
1747.74949642929
 30
0.0
 11
28585.604341291921
 21
1547.749496429288
 31
0.0
  0
LINE
  5
4771
  8
YODOROGO
 10
27857.604341291921
 20
1683.749496429288
 30
0.0
 11
27777.604341291921
 21
1619.9724140445701
 31
0.0
  0
LINE
  5
4772
  8
YODOROGO
 10
27937.604341291921
 20
1619.9724140445701
 30
0.0
 11
27857.604341291921
 21
1683.749496429288
 31
0.0
  0
LINE
  5
4773
  8
YODOROGO
 10
27857.604341291921
 20
1707.749496429288
 30
0.0
 11
27937.604341291921
 21
1643.9724140445701
 31
0.0
  0
LINE
  5
4774
  8
YODOROGO
 10
27777.604341291921
 20
1643.9724140445701
 30
0.0
 11
27857.604341291921
 21
1707.749496429288
 31
0.0
  0
LINE
  5
4775
  8
YODOROGO
 10
28040.913204016892
 20
1659.749496429288
 30
0.0
 11
28040.913204016892
 21
1683.7494964292871
 31
0.0
  0
LINE
  5
4776
  8
YODOROGO
 10
27977.604341291921
 20
1683.7494964292871
 30
0.0
 11
27977.604341291921
 21
1667.749496429285
 31
0.0
  0
LINE
  5
4777
  8
YODOROGO
 10
28098.135520230931
 20
1707.749496429288
 30
0.0
 11
28098.135520230931
 21
1655.5036372746561
 31
0.0
1001
AUTOCAD_POSTSCRIPT_FIGURE
1002
{
1000
PSFILL
1000
Grayscale
1000
Grayscale
1070
   100
1002
}
  0
LINE
  5
4778
  8
YODOROGO
 10
28082.135520230921
 20
1655.5036372746561
 30
0.0
 11
28082.135520230921
 21
1707.749496429288
 31
0.0
1001
AUTOCAD_POSTSCRIPT_FIGURE
1002
{
1000
PSFILL
1000
Grayscale
1000
Grayscale
1070
   100
1002
}
  0
LINE
  5
4779
  8
YODOROGO
 10
27809.604341291921
 20
1608.771904043258
 30
0.0
 11
27809.604341291921
 21
1632.771904043258
 31
0.0
  0
LINE
  5
477A
  8
YODOROGO
 10
27905.604341291921
 20
1608.771904043258
 30
0.0
 11
27809.604341291921
 21
1608.771904043258
 31
0.0
  0
LINE
  5
477B
  8
YODOROGO
 10
27905.604341291921
 20
1632.771904043258
 30
0.0
 11
27905.604341291921
 21
1608.771904043258
 31
0.0
  0
LINE
  5
477C
  8
YODOROGO
 10
27809.604341291921
 20
1632.771904043258
 30
0.0
 11
27905.604341291921
 21
1632.771904043258
 31
0.0
  0
LINE
  5
477D
  8
YODOROGO
 10
27824.509588915738
 20
1568.5028573704751
 30
0.0
 11
27785.604341291921
 21
1475.7494964292871
 31
0.0
1001
AUTOCAD_POSTSCRIPT_FIGURE
1002
{
1000
PSFILL
1000
Grayscale
1000
Grayscale
1070
   100
1002
}
  0
LINE
  5
477E
  8
YODOROGO
 10
27777.604341291921
 20
1568.5028573704751
 30
0.0
 11
27824.509588915738
 21
1568.5028573704751
 31
0.0
1001
AUTOCAD_POSTSCRIPT_FIGURE
1002
{
1000
PSFILL
1000
Grayscale
1000
Grayscale
1070
   100
1002
}
  0
LINE
  5
477F
  8
YODOROGO
 10
27777.604341291921
 20
1588.5028573704751
 30
0.0
 11
27777.604341291921
 21
1568.5028573704751
 31
0.0
1001
AUTOCAD_POSTSCRIPT_FIGURE
1002
{
1000
PSFILL
1000
Grayscale
1000
Grayscale
1070
   100
1002
}
  0
LINE
  5
4780
  8
YODOROGO
 10
27937.604341291921
 20
1588.5028573704751
 30
0.0
 11
27777.604341291921
 21
1588.5028573704751
 31
0.0
1001
AUTOCAD_POSTSCRIPT_FIGURE
1002
{
1000
PSFILL
1000
Grayscale
1000
Grayscale
1070
   100
1002
}
  0
LINE
  5
4781
  8
YODOROGO
 10
27937.604341291921
 20
1568.5028573704751
 30
0.0
 11
27937.604341291921
 21
1588.5028573704751
 31
0.0
1001
AUTOCAD_POSTSCRIPT_FIGURE
1002
{
1000
PSFILL
1000
Grayscale
1000
Grayscale
1070
   100
1002
}
  0
LINE
  5
4782
  8
YODOROGO
 10
27844.509588915738
 20
1568.5028573704751
 30
0.0
 11
27937.604341291921
 21
1568.5028573704751
 31
0.0
1001
AUTOCAD_POSTSCRIPT_FIGURE
1002
{
1000
PSFILL
1000
Grayscale
1000
Grayscale
1070
   100
1002
}
  0
LINE
  5
4783
  8
YODOROGO
 10
27815.546718284771
 20
1495.7494964292871
 30
0.0
 11
27844.509588915738
 21
1568.5028573704751
 31
0.0
1001
AUTOCAD_POSTSCRIPT_FIGURE
1002
{
1000
PSFILL
1000
Grayscale
1000
Grayscale
1070
   100
1002
}
  0
LINE
  5
4784
  8
YODOROGO
 10
27902.054790808648
 20
1495.7494964292871
 30
0.0
 11
27815.546718284771
 21
1495.7494964292871
 31
0.0
1001
AUTOCAD_POSTSCRIPT_FIGURE
1002
{
1000
PSFILL
1000
Grayscale
1000
Grayscale
1070
   100
1002
}
  0
LINE
  5
4785
  8
YODOROGO
 10
27885.065004790951
 20
1536.2338106976929
 30
0.0
 11
27902.054790808648
 21
1495.7494964292871
 31
0.0
1001
AUTOCAD_POSTSCRIPT_FIGURE
1002
{
1000
PSFILL
1000
Grayscale
1000
Grayscale
1070
   100
1002
}
  0
LINE
  5
4786
  8
YODOROGO
 10
27901.065004790951
 20
1536.2338106976929
 30
0.0
 11
27885.065004790951
 21
1536.2338106976929
 31
0.0
1001
AUTOCAD_POSTSCRIPT_FIGURE
1002
{
1000
PSFILL
1000
Grayscale
1000
Grayscale
1070
   100
1002
}
  0
LINE
  5
4787
  8
YODOROGO
 10
27929.604341291921
 20
1475.7494964292871
 30
0.0
 11
27901.065004790951
 21
1536.2338106976929
 31
0.0
1001
AUTOCAD_POSTSCRIPT_FIGURE
1002
{
1000
PSFILL
1000
Grayscale
1000
Grayscale
1070
   100
1002
}
  0
LINE
  5
4788
  8
YODOROGO
 10
27785.604341291921
 20
1475.7494964292871
 30
0.0
 11
27929.604341291921
 21
1475.7494964292871
 31
0.0
1001
AUTOCAD_POSTSCRIPT_FIGURE
1002
{
1000
PSFILL
1000
Grayscale
1000
Grayscale
1070
   100
1002
}
  0
LINE
  5
4789
  8
YODOROGO
 10
27777.604341291921
 20
1619.9724140445701
 30
0.0
 11
27777.604341291921
 21
1643.9724140445701
 31
0.0
  0
LINE
  5
478A
  8
YODOROGO
 10
27937.604341291921
 20
1643.9724140445701
 30
0.0
 11
27937.604341291921
 21
1619.9724140445701
 31
0.0
  0
ARC
  5
478B
  8
YODOROGO
 10
28225.940442146959
 20
1600.877765325326
 30
0.0
 40
175.9999999999998
 50
280.3644312771313
 51
3.5414836592180561
  0
ARC
  5
478C
  8
YODOROGO
 10
28235.756030759301
 20
1633.5978069619041
 30
0.0
 40
111.9999999999982
 50
281.24905825041549
 51
348.75094174958321
  0
LINE
  5
478D
  8
YODOROGO
 10
28257.604341291921
 20
1523.7494964292871
 30
0.0
 11
28257.604341291921
 21
1427.749496429288
 31
0.0
  0
LINE
  5
478E
  8
YODOROGO
 10
28020.088903736909
 20
1610.650565061914
 30
0.0
 11
28040.913204016892
 21
1659.749496429288
 31
0.0
  0
LINE
  5
478F
  8
YODOROGO
 10
28041.604341291921
 20
1583.120489948401
 30
0.0
 11
28020.088903736909
 21
1610.650565061914
 31
0.0
  0
LINE
  5
4790
  8
YODOROGO
 10
28041.604341291921
 20
1563.120489948398
 30
0.0
 11
28041.604341291921
 21
1583.120489948401
 31
0.0
  0
LINE
  5
4791
  8
YODOROGO
 10
28017.604341291921
 20
1585.2370637495301
 30
0.0
 11
28041.604341291921
 21
1563.120489948398
 31
0.0
  0
LINE
  5
4792
  8
YODOROGO
 10
28017.604341291921
 20
1475.7494964292871
 30
0.0
 11
28017.604341291921
 21
1585.2370637495301
 31
0.0
  0
LINE
  5
4793
  8
YODOROGO
 10
28001.604341291921
 20
1475.7494964292871
 30
0.0
 11
28017.604341291921
 21
1475.7494964292871
 31
0.0
  0
LINE
  5
4794
  8
YODOROGO
 10
28001.604341291921
 20
1580.0053496897469
 30
0.0
 11
28001.604341291921
 21
1475.7494964292871
 31
0.0
  0
LINE
  5
4795
  8
YODOROGO
 10
27977.604341291921
 20
1532.7680790334291
 30
0.0
 11
28001.604341291921
 21
1580.0053496897469
 31
0.0
  0
LINE
  5
4796
  8
YODOROGO
 10
27977.604341291921
 20
1556.76807903343
 30
0.0
 11
27977.604341291921
 21
1532.7680790334291
 31
0.0
  0
LINE
  5
4797
  8
YODOROGO
 10
28025.828774291349
 20
1667.749496429285
 30
0.0
 11
27977.604341291921
 21
1556.76807903343
 31
0.0
  0
LINE
  5
4798
  8
YODOROGO
 10
27977.604341291921
 20
1667.749496429285
 30
0.0
 11
28025.828774291349
 21
1667.749496429285
 31
0.0
  0
LINE
  5
4799
  8
YODOROGO
 10
28050.135520230899
 20
1655.5036372746561
 30
0.0
 11
28082.135520230921
 21
1655.5036372746561
 31
0.0
1001
AUTOCAD_POSTSCRIPT_FIGURE
1002
{
1000
PSFILL
1000
Grayscale
1000
Grayscale
1070
   100
1002
}
  0
LINE
  5
479A
  8
YODOROGO
 10
28050.135520230899
 20
1631.5036372746561
 30
0.0
 11
28050.135520230899
 21
1655.5036372746561
 31
0.0
1001
AUTOCAD_POSTSCRIPT_FIGURE
1002
{
1000
PSFILL
1000
Grayscale
1000
Grayscale
1070
   100
1002
}
  0
LINE
  5
479B
  8
YODOROGO
 10
28082.135520230921
 20
1631.5036372746561
 30
0.0
 11
28050.135520230899
 21
1631.5036372746561
 31
0.0
1001
AUTOCAD_POSTSCRIPT_FIGURE
1002
{
1000
PSFILL
1000
Grayscale
1000
Grayscale
1070
   100
1002
}
  0
LINE
  5
479C
  8
YODOROGO
 10
28082.135520230921
 20
1499.749496429288
 30
0.0
 11
28082.135520230921
 21
1631.5036372746561
 31
0.0
1001
AUTOCAD_POSTSCRIPT_FIGURE
1002
{
1000
PSFILL
1000
Grayscale
1000
Grayscale
1070
   100
1002
}
  0
LINE
  5
479D
  8
YODOROGO
 10
28050.135520230921
 20
1499.749496429288
 30
0.0
 11
28082.135520230921
 21
1499.749496429288
 31
0.0
1001
AUTOCAD_POSTSCRIPT_FIGURE
1002
{
1000
PSFILL
1000
Grayscale
1000
Grayscale
1070
   100
1002
}
  0
LINE
  5
479E
  8
YODOROGO
 10
28050.135520230921
 20
1475.7494964292871
 30
0.0
 11
28050.135520230921
 21
1499.749496429288
 31
0.0
1001
AUTOCAD_POSTSCRIPT_FIGURE
1002
{
1000
PSFILL
1000
Grayscale
1000
Grayscale
1070
   100
1002
}
  0
LINE
  5
479F
  8
YODOROGO
 10
28137.604341291921
 20
1475.7494964292871
 30
0.0
 11
28050.135520230921
 21
1475.7494964292871
 31
0.0
1001
AUTOCAD_POSTSCRIPT_FIGURE
1002
{
1000
PSFILL
1000
Grayscale
1000
Grayscale
1070
   100
1002
}
  0
LINE
  5
47A0
  8
YODOROGO
 10
28137.604341291921
 20
1499.749496429288
 30
0.0
 11
28137.604341291921
 21
1475.7494964292871
 31
0.0
1001
AUTOCAD_POSTSCRIPT_FIGURE
1002
{
1000
PSFILL
1000
Grayscale
1000
Grayscale
1070
   100
1002
}
  0
LINE
  5
47A1
  8
YODOROGO
 10
28098.135520230931
 20
1499.749496429288
 30
0.0
 11
28137.604341291921
 21
1499.749496429288
 31
0.0
1001
AUTOCAD_POSTSCRIPT_FIGURE
1002
{
1000
PSFILL
1000
Grayscale
1000
Grayscale
1070
   100
1002
}
  0
LINE
  5
47A2
  8
YODOROGO
 10
28098.135520230931
 20
1631.5036372746561
 30
0.0
 11
28098.135520230931
 21
1499.749496429288
 31
0.0
1001
AUTOCAD_POSTSCRIPT_FIGURE
1002
{
1000
PSFILL
1000
Grayscale
1000
Grayscale
1070
   100
1002
}
  0
LINE
  5
47A3
  8
YODOROGO
 10
28137.604341291921
 20
1631.5036372746561
 30
0.0
 11
28098.135520230931
 21
1631.5036372746561
 31
0.0
1001
AUTOCAD_POSTSCRIPT_FIGURE
1002
{
1000
PSFILL
1000
Grayscale
1000
Grayscale
1070
   100
1002
}
  0
LINE
  5
47A4
  8
YODOROGO
 10
28137.604341291921
 20
1655.5036372746561
 30
0.0
 11
28137.604341291921
 21
1631.5036372746561
 31
0.0
1001
AUTOCAD_POSTSCRIPT_FIGURE
1002
{
1000
PSFILL
1000
Grayscale
1000
Grayscale
1070
   100
1002
}
  0
LINE
  5
47A5
  8
YODOROGO
 10
28098.135520230931
 20
1655.5036372746561
 30
0.0
 11
28137.604341291921
 21
1655.5036372746561
 31
0.0
1001
AUTOCAD_POSTSCRIPT_FIGURE
1002
{
1000
PSFILL
1000
Grayscale
1000
Grayscale
1070
   100
1002
}
  0
LINE
  5
47A6
  8
YODOROGO
 10
28401.60434129191
 20
1667.749496429288
 30
0.0
 11
28345.604341291921
 21
1667.749496429288
 31
0.0
  0
LINE
  5
47A7
  8
YODOROGO
 10
28401.60434129191
 20
1611.749496429288
 30
0.0
 11
28401.60434129191
 21
1667.749496429288
 31
0.0
  0
LINE
  5
47A8
  8
YODOROGO
 10
28345.604341291921
 20
1667.749496429288
 30
0.0
 11
28345.604341291921
 21
1611.749496429288
 31
0.0
  0
ARC
  5
47A9
  8
YODOROGO
 10
28513.60434129191
 20
1507.749496429288
 30
0.0
 40
80.0
 50
180.0
 51
270.0
  0
ARC
  5
47AA
  8
YODOROGO
 10
28537.604341291921
 20
1563.7494964292871
 30
0.0
 40
40.0
 50
180.0
 51
270.0
  0
LINE
  5
47AB
  8
YODOROGO
 10
28561.604341291932
 20
1523.7494964292871
 30
0.0
 11
28537.604341291921
 21
1523.7494964292871
 31
0.0
  0
ARC
  5
47AC
  8
YODOROGO
 10
28561.604341291932
 20
1547.749496429285
 30
0.0
 40
23.999999999996358
 50
270.0
 51
0.0000000000054281
  0
LINE
  5
47AD
  8
YODOROGO
 10
27801.604341291921
 20
1890.786580793706
 30
0.0
 11
27777.604341291921
 21
1843.776747951672
 31
0.0
1001
AUTOCAD_POSTSCRIPT_FIGURE
1002
{
1000
PSFILL
1000
Grayscale
1000
Grayscale
1070
   100
1002
}
  0
LINE
  5
47AE
  8
YODOROGO
 10
27801.604341291921
 20
1747.749496429286
 30
0.0
 11
27801.604341291921
 21
1890.786580793706
 31
0.0
1001
AUTOCAD_POSTSCRIPT_FIGURE
1002
{
1000
PSFILL
1000
Grayscale
1000
Grayscale
1070
   100
1002
}
  0
LINE
  5
47AF
  8
YODOROGO
 10
27817.604341291921
 20
1747.749496429286
 30
0.0
 11
27801.604341291921
 21
1747.749496429286
 31
0.0
1001
AUTOCAD_POSTSCRIPT_FIGURE
1002
{
1000
PSFILL
1000
Grayscale
1000
Grayscale
1070
   100
1002
}
  0
LINE
  5
47B0
  8
YODOROGO
 10
27817.604341291921
 20
1893.7713320852661
 30
0.0
 11
27817.604341291921
 21
1747.749496429286
 31
0.0
1001
AUTOCAD_POSTSCRIPT_FIGURE
1002
{
1000
PSFILL
1000
Grayscale
1000
Grayscale
1070
   100
1002
}
  0
LINE
  5
47B1
  8
YODOROGO
 10
27841.604341291921
 20
1867.6547582841361
 30
0.0
 11
27817.604341291921
 21
1893.7713320852661
 31
0.0
1001
AUTOCAD_POSTSCRIPT_FIGURE
1002
{
1000
PSFILL
1000
Grayscale
1000
Grayscale
1070
   100
1002
}
  0
LINE
  5
47B2
  8
YODOROGO
 10
27841.604341291921
 20
1883.6547582841361
 30
0.0
 11
27841.604341291921
 21
1867.6547582841361
 31
0.0
1001
AUTOCAD_POSTSCRIPT_FIGURE
1002
{
1000
PSFILL
1000
Grayscale
1000
Grayscale
1070
   100
1002
}
  0
LINE
  5
47B3
  8
YODOROGO
 10
27817.604341291921
 20
1917.7713320852649
 30
0.0
 11
27841.604341291921
 21
1883.6547582841361
 31
0.0
1001
AUTOCAD_POSTSCRIPT_FIGURE
1002
{
1000
PSFILL
1000
Grayscale
1000
Grayscale
1070
   100
1002
}
  0
LINE
  5
47B4
  8
YODOROGO
 10
27817.604341291921
 20
1939.749496429288
 30
0.0
 11
27817.604341291921
 21
1917.7713320852649
 31
0.0
1001
AUTOCAD_POSTSCRIPT_FIGURE
1002
{
1000
PSFILL
1000
Grayscale
1000
Grayscale
1070
   100
1002
}
  0
LINE
  5
47B5
  8
YODOROGO
 10
27889.604341291921
 20
1939.749496429288
 30
0.0
 11
27817.604341291921
 21
1939.749496429288
 31
0.0
1001
AUTOCAD_POSTSCRIPT_FIGURE
1002
{
1000
PSFILL
1000
Grayscale
1000
Grayscale
1070
   100
1002
}
  0
LINE
  5
47B6
  8
YODOROGO
 10
27889.604341291921
 20
1900.5683489363
 30
0.0
 11
27889.604341291921
 21
1939.749496429288
 31
0.0
1001
AUTOCAD_POSTSCRIPT_FIGURE
1002
{
1000
PSFILL
1000
Grayscale
1000
Grayscale
1070
   100
1002
}
  0
LINE
  5
47B7
  8
YODOROGO
 10
27857.604341291921
 20
1900.5683489363
 30
0.0
 11
27889.604341291921
 21
1900.5683489363
 31
0.0
1001
AUTOCAD_POSTSCRIPT_FIGURE
1002
{
1000
PSFILL
1000
Grayscale
1000
Grayscale
1070
   100
1002
}
  0
LINE
  5
47B8
  8
YODOROGO
 10
27857.604341291921
 20
1884.568348936298
 30
0.0
 11
27857.604341291921
 21
1900.5683489363
 31
0.0
1001
AUTOCAD_POSTSCRIPT_FIGURE
1002
{
1000
PSFILL
1000
Grayscale
1000
Grayscale
1070
   100
1002
}
  0
LINE
  5
47B9
  8
YODOROGO
 10
27889.604341291921
 20
1884.568348936298
 30
0.0
 11
27857.604341291921
 21
1884.568348936298
 31
0.0
1001
AUTOCAD_POSTSCRIPT_FIGURE
1002
{
1000
PSFILL
1000
Grayscale
1000
Grayscale
1070
   100
1002
}
  0
LINE
  5
47BA
  8
YODOROGO
 10
27889.604341291921
 20
1879.6191779644371
 30
0.0
 11
27889.604341291921
 21
1884.568348936298
 31
0.0
1001
AUTOCAD_POSTSCRIPT_FIGURE
1002
{
1000
PSFILL
1000
Grayscale
1000
Grayscale
1070
   100
1002
}
  0
LINE
  5
47BB
  8
YODOROGO
 10
27849.604341291921
 20
1812.974981161417
 30
0.0
 11
27889.604341291921
 21
1879.6191779644371
 31
0.0
1001
AUTOCAD_POSTSCRIPT_FIGURE
1002
{
1000
PSFILL
1000
Grayscale
1000
Grayscale
1070
   100
1002
}
  0
LINE
  5
47BC
  8
YODOROGO
 10
27849.604341291921
 20
1796.9749811614161
 30
0.0
 11
27849.604341291921
 21
1812.974981161417
 31
0.0
1001
AUTOCAD_POSTSCRIPT_FIGURE
1002
{
1000
PSFILL
1000
Grayscale
1000
Grayscale
1070
   100
1002
}
  0
LINE
  5
47BD
  8
YODOROGO
 10
27889.604341291921
 20
1847.6191779644359
 30
0.0
 11
27849.604341291921
 21
1796.9749811614161
 31
0.0
1001
AUTOCAD_POSTSCRIPT_FIGURE
1002
{
1000
PSFILL
1000
Grayscale
1000
Grayscale
1070
   100
1002
}
  0
LINE
  5
47BE
  8
YODOROGO
 10
27889.604341291921
 20
1747.749496429286
 30
0.0
 11
27889.604341291921
 21
1847.6191779644359
 31
0.0
1001
AUTOCAD_POSTSCRIPT_FIGURE
1002
{
1000
PSFILL
1000
Grayscale
1000
Grayscale
1070
   100
1002
}
  0
LINE
  5
47BF
  8
YODOROGO
 10
27905.604341291921
 20
1747.749496429286
 30
0.0
 11
27889.604341291921
 21
1747.749496429286
 31
0.0
1001
AUTOCAD_POSTSCRIPT_FIGURE
1002
{
1000
PSFILL
1000
Grayscale
1000
Grayscale
1070
   100
1002
}
  0
LINE
  5
47C0
  8
YODOROGO
 10
27905.604341291921
 20
1849.409012158806
 30
0.0
 11
27905.604341291921
 21
1747.749496429286
 31
0.0
1001
AUTOCAD_POSTSCRIPT_FIGURE
1002
{
1000
PSFILL
1000
Grayscale
1000
Grayscale
1070
   100
1002
}
  0
LINE
  5
47C1
  8
YODOROGO
 10
27937.604341291921
 20
1796.9749811614161
 30
0.0
 11
27905.604341291921
 21
1849.409012158806
 31
0.0
1001
AUTOCAD_POSTSCRIPT_FIGURE
1002
{
1000
PSFILL
1000
Grayscale
1000
Grayscale
1070
   100
1002
}
  0
LINE
  5
47C2
  8
YODOROGO
 10
27937.604341291921
 20
1812.974981161417
 30
0.0
 11
27937.604341291921
 21
1796.9749811614161
 31
0.0
1001
AUTOCAD_POSTSCRIPT_FIGURE
1002
{
1000
PSFILL
1000
Grayscale
1000
Grayscale
1070
   100
1002
}
  0
LINE
  5
47C3
  8
YODOROGO
 10
27905.604341291921
 20
1881.4090121588081
 30
0.0
 11
27937.604341291921
 21
1812.974981161417
 31
0.0
1001
AUTOCAD_POSTSCRIPT_FIGURE
1002
{
1000
PSFILL
1000
Grayscale
1000
Grayscale
1070
   100
1002
}
  0
LINE
  5
47C4
  8
YODOROGO
 10
27905.604341291921
 20
1884.5683489363
 30
0.0
 11
27905.604341291921
 21
1881.4090121588081
 31
0.0
1001
AUTOCAD_POSTSCRIPT_FIGURE
1002
{
1000
PSFILL
1000
Grayscale
1000
Grayscale
1070
   100
1002
}
  0
LINE
  5
47C5
  8
YODOROGO
 10
27937.604341291921
 20
1884.568348936298
 30
0.0
 11
27905.604341291921
 21
1884.5683489363
 31
0.0
1001
AUTOCAD_POSTSCRIPT_FIGURE
1002
{
1000
PSFILL
1000
Grayscale
1000
Grayscale
1070
   100
1002
}
  0
LINE
  5
47C6
  8
YODOROGO
 10
27937.604341291921
 20
1900.5683489363
 30
0.0
 11
27937.604341291921
 21
1884.568348936298
 31
0.0
1001
AUTOCAD_POSTSCRIPT_FIGURE
1002
{
1000
PSFILL
1000
Grayscale
1000
Grayscale
1070
   100
1002
}
  0
LINE
  5
47C7
  8
YODOROGO
 10
27905.604341291921
 20
1900.5683489363
 30
0.0
 11
27937.604341291921
 21
1900.5683489363
 31
0.0
1001
AUTOCAD_POSTSCRIPT_FIGURE
1002
{
1000
PSFILL
1000
Grayscale
1000
Grayscale
1070
   100
1002
}
  0
LINE
  5
47C8
  8
YODOROGO
 10
27905.604341291921
 20
1939.749496429288
 30
0.0
 11
27905.604341291921
 21
1900.5683489363
 31
0.0
1001
AUTOCAD_POSTSCRIPT_FIGURE
1002
{
1000
PSFILL
1000
Grayscale
1000
Grayscale
1070
   100
1002
}
  0
LINE
  5
47C9
  8
YODOROGO
 10
27937.604341291921
 20
1939.749496429288
 30
0.0
 11
27905.604341291921
 21
1939.749496429288
 31
0.0
1001
AUTOCAD_POSTSCRIPT_FIGURE
1002
{
1000
PSFILL
1000
Grayscale
1000
Grayscale
1070
   100
1002
}
  0
LINE
  5
47CA
  8
YODOROGO
 10
27937.604341291921
 20
1955.7494964292871
 30
0.0
 11
27937.604341291921
 21
1939.749496429288
 31
0.0
1001
AUTOCAD_POSTSCRIPT_FIGURE
1002
{
1000
PSFILL
1000
Grayscale
1000
Grayscale
1070
   100
1002
}
  0
LINE
  5
47CB
  8
YODOROGO
 10
27905.604341291921
 20
1955.7494964292871
 30
0.0
 11
27937.604341291921
 21
1955.7494964292871
 31
0.0
1001
AUTOCAD_POSTSCRIPT_FIGURE
1002
{
1000
PSFILL
1000
Grayscale
1000
Grayscale
1070
   100
1002
}
  0
LINE
  5
47CC
  8
YODOROGO
 10
27905.604341291921
 20
1979.749496429288
 30
0.0
 11
27905.604341291921
 21
1955.7494964292871
 31
0.0
1001
AUTOCAD_POSTSCRIPT_FIGURE
1002
{
1000
PSFILL
1000
Grayscale
1000
Grayscale
1070
   100
1002
}
  0
LINE
  5
47CD
  8
YODOROGO
 10
27889.604341291921
 20
1979.749496429288
 30
0.0
 11
27905.604341291921
 21
1979.749496429288
 31
0.0
1001
AUTOCAD_POSTSCRIPT_FIGURE
1002
{
1000
PSFILL
1000
Grayscale
1000
Grayscale
1070
   100
1002
}
  0
LINE
  5
47CE
  8
YODOROGO
 10
27889.604341291921
 20
1955.7494964292871
 30
0.0
 11
27889.604341291921
 21
1979.749496429288
 31
0.0
1001
AUTOCAD_POSTSCRIPT_FIGURE
1002
{
1000
PSFILL
1000
Grayscale
1000
Grayscale
1070
   100
1002
}
  0
LINE
  5
47CF
  8
YODOROGO
 10
27865.604341291921
 20
1955.7494964292871
 30
0.0
 11
27889.604341291921
 21
1955.7494964292871
 31
0.0
1001
AUTOCAD_POSTSCRIPT_FIGURE
1002
{
1000
PSFILL
1000
Grayscale
1000
Grayscale
1070
   100
1002
}
  0
LINE
  5
47D0
  8
YODOROGO
 10
27865.604341291921
 20
1979.749496429288
 30
0.0
 11
27865.604341291921
 21
1955.7494964292871
 31
0.0
1001
AUTOCAD_POSTSCRIPT_FIGURE
1002
{
1000
PSFILL
1000
Grayscale
1000
Grayscale
1070
   100
1002
}
  0
LINE
  5
47D1
  8
YODOROGO
 10
27849.604341291921
 20
1979.749496429288
 30
0.0
 11
27865.604341291921
 21
1979.749496429288
 31
0.0
1001
AUTOCAD_POSTSCRIPT_FIGURE
1002
{
1000
PSFILL
1000
Grayscale
1000
Grayscale
1070
   100
1002
}
  0
LINE
  5
47D2
  8
YODOROGO
 10
27849.604341291921
 20
1955.7494964292871
 30
0.0
 11
27849.604341291921
 21
1979.749496429288
 31
0.0
1001
AUTOCAD_POSTSCRIPT_FIGURE
1002
{
1000
PSFILL
1000
Grayscale
1000
Grayscale
1070
   100
1002
}
  0
LINE
  5
47D3
  8
YODOROGO
 10
27817.604341291921
 20
1955.7494964292871
 30
0.0
 11
27849.604341291921
 21
1955.7494964292871
 31
0.0
1001
AUTOCAD_POSTSCRIPT_FIGURE
1002
{
1000
PSFILL
1000
Grayscale
1000
Grayscale
1070
   100
1002
}
  0
LINE
  5
47D4
  8
YODOROGO
 10
27817.604341291921
 20
1979.749496429288
 30
0.0
 11
27817.604341291921
 21
1955.7494964292871
 31
0.0
1001
AUTOCAD_POSTSCRIPT_FIGURE
1002
{
1000
PSFILL
1000
Grayscale
1000
Grayscale
1070
   100
1002
}
  0
LINE
  5
47D5
  8
YODOROGO
 10
27801.604341291921
 20
1979.749496429288
 30
0.0
 11
27817.604341291921
 21
1979.749496429288
 31
0.0
1001
AUTOCAD_POSTSCRIPT_FIGURE
1002
{
1000
PSFILL
1000
Grayscale
1000
Grayscale
1070
   100
1002
}
  0
LINE
  5
47D6
  8
YODOROGO
 10
27801.604341291921
 20
1955.7494964292871
 30
0.0
 11
27801.604341291921
 21
1979.749496429288
 31
0.0
1001
AUTOCAD_POSTSCRIPT_FIGURE
1002
{
1000
PSFILL
1000
Grayscale
1000
Grayscale
1070
   100
1002
}
  0
LINE
  5
47D7
  8
YODOROGO
 10
27777.604341291921
 20
1955.7494964292871
 30
0.0
 11
27801.604341291921
 21
1955.7494964292871
 31
0.0
1001
AUTOCAD_POSTSCRIPT_FIGURE
1002
{
1000
PSFILL
1000
Grayscale
1000
Grayscale
1070
   100
1002
}
  0
LINE
  5
47D8
  8
YODOROGO
 10
27777.604341291921
 20
1939.749496429288
 30
0.0
 11
27777.604341291921
 21
1955.7494964292871
 31
0.0
1001
AUTOCAD_POSTSCRIPT_FIGURE
1002
{
1000
PSFILL
1000
Grayscale
1000
Grayscale
1070
   100
1002
}
  0
LINE
  5
47D9
  8
YODOROGO
 10
27801.604341291921
 20
1939.749496429288
 30
0.0
 11
27777.604341291921
 21
1939.749496429288
 31
0.0
1001
AUTOCAD_POSTSCRIPT_FIGURE
1002
{
1000
PSFILL
1000
Grayscale
1000
Grayscale
1070
   100
1002
}
  0
LINE
  5
47DA
  8
YODOROGO
 10
27801.604341291921
 20
1914.7865807937051
 30
0.0
 11
27801.604341291921
 21
1939.749496429288
 31
0.0
1001
AUTOCAD_POSTSCRIPT_FIGURE
1002
{
1000
PSFILL
1000
Grayscale
1000
Grayscale
1070
   100
1002
}
  0
LINE
  5
47DB
  8
YODOROGO
 10
27777.604341291921
 20
1859.776747951671
 30
0.0
 11
27801.604341291921
 21
1914.7865807937051
 31
0.0
1001
AUTOCAD_POSTSCRIPT_FIGURE
1002
{
1000
PSFILL
1000
Grayscale
1000
Grayscale
1070
   100
1002
}
  0
LINE
  5
47DC
  8
YODOROGO
 10
27777.604341291921
 20
1843.776747951672
 30
0.0
 11
27777.604341291921
 21
1859.776747951671
 31
0.0
1001
AUTOCAD_POSTSCRIPT_FIGURE
1002
{
1000
PSFILL
1000
Grayscale
1000
Grayscale
1070
   100
1002
}
  0
LINE
  5
47DD
  8
YODOROGO
 10
28257.604341291921
 20
1867.7494964292871
 30
0.0
 11
28401.60434129191
 21
1824.877625640306
 31
0.0
1001
AUTOCAD_POSTSCRIPT_FIGURE
1002
{
1000
PSFILL
1000
Grayscale
1000
Grayscale
1070
   100
1002
}
  0
LINE
  5
47DE
  8
YODOROGO
 10
28401.60434129191
 20
1752.877625640306
 30
0.0
 11
28257.604341291921
 21
1795.7494964292871
 31
0.0
1001
AUTOCAD_POSTSCRIPT_FIGURE
1002
{
1000
PSFILL
1000
Grayscale
1000
Grayscale
1070
   100
1002
}
  0
LINE
  5
47DF
  8
YODOROGO
 10
28401.60434129191
 20
1984.877625640306
 30
0.0
 11
28257.604341291921
 21
2027.749496429288
 31
0.0
1001
AUTOCAD_POSTSCRIPT_FIGURE
1002
{
1000
PSFILL
1000
Grayscale
1000
Grayscale
1070
   100
1002
}
  0
LINE
  5
47E0
  8
YODOROGO
 10
28257.604341291921
 20
1959.749496429288
 30
0.0
 11
28401.60434129191
 21
1916.8776256403071
 31
0.0
1001
AUTOCAD_POSTSCRIPT_FIGURE
1002
{
1000
PSFILL
1000
Grayscale
1000
Grayscale
1070
   100
1002
}
  0
LINE
  5
47E1
  8
YODOROGO
 10
28257.604341291921
 20
1795.7494964292871
 30
0.0
 11
28257.604341291921
 21
1867.7494964292871
 31
0.0
1001
AUTOCAD_POSTSCRIPT_FIGURE
1002
{
1000
PSFILL
1000
Grayscale
1000
Grayscale
1070
   100
1002
}
  0
LINE
  5
47E2
  8
YODOROGO
 10
28257.604341291921
 20
2027.749496429288
 30
0.0
 11
28257.604341291921
 21
1959.749496429288
 31
0.0
1001
AUTOCAD_POSTSCRIPT_FIGURE
1002
{
1000
PSFILL
1000
Grayscale
1000
Grayscale
1070
   100
1002
}
  0
LINE
  5
47E3
  8
YODOROGO
 10
28080.236320206739
 20
1939.749496429288
 30
0.0
 11
28129.60434129191
 21
1747.749496429286
 31
0.0
1001
AUTOCAD_POSTSCRIPT_FIGURE
1002
{
1000
PSFILL
1000
Grayscale
1000
Grayscale
1070
   100
1002
}
  0
LINE
  5
47E4
  8
YODOROGO
 10
27977.604341291921
 20
1939.749496429288
 30
0.0
 11
28080.236320206739
 21
1939.749496429288
 31
0.0
1001
AUTOCAD_POSTSCRIPT_FIGURE
1002
{
1000
PSFILL
1000
Grayscale
1000
Grayscale
1070
   100
1002
}
  0
LINE
  5
47E5
  8
YODOROGO
 10
27977.604341291921
 20
1955.7494964292871
 30
0.0
 11
27977.604341291921
 21
1939.749496429288
 31
0.0
1001
AUTOCAD_POSTSCRIPT_FIGURE
1002
{
1000
PSFILL
1000
Grayscale
1000
Grayscale
1070
   100
1002
}
  0
LINE
  5
47E6
  8
YODOROGO
 10
28076.60687851991
 20
1955.7494964292871
 30
0.0
 11
27977.604341291921
 21
1955.7494964292871
 31
0.0
1001
AUTOCAD_POSTSCRIPT_FIGURE
1002
{
1000
PSFILL
1000
Grayscale
1000
Grayscale
1070
   100
1002
}
  0
LINE
  5
47E7
  8
YODOROGO
 10
28071.162715989711
 20
1979.749496429288
 30
0.0
 11
28076.60687851991
 21
1955.7494964292871
 31
0.0
1001
AUTOCAD_POSTSCRIPT_FIGURE
1002
{
1000
PSFILL
1000
Grayscale
1000
Grayscale
1070
   100
1002
}
  0
LINE
  5
47E8
  8
YODOROGO
 10
28091.162715989711
 20
1979.749496429288
 30
0.0
 11
28071.162715989711
 21
1979.749496429288
 31
0.0
1001
AUTOCAD_POSTSCRIPT_FIGURE
1002
{
1000
PSFILL
1000
Grayscale
1000
Grayscale
1070
   100
1002
}
  0
LINE
  5
47E9
  8
YODOROGO
 10
28095.806878519939
 20
1955.7494964292871
 30
0.0
 11
28091.162715989711
 21
1979.749496429288
 31
0.0
1001
AUTOCAD_POSTSCRIPT_FIGURE
1002
{
1000
PSFILL
1000
Grayscale
1000
Grayscale
1070
   100
1002
}
  0
LINE
  5
47EA
  8
YODOROGO
 10
28121.604341291921
 20
1955.7494964292871
 30
0.0
 11
28095.806878519939
 21
1955.7494964292871
 31
0.0
1001
AUTOCAD_POSTSCRIPT_FIGURE
1002
{
1000
PSFILL
1000
Grayscale
1000
Grayscale
1070
   100
1002
}
  0
LINE
  5
47EB
  8
YODOROGO
 10
28121.604341291921
 20
1979.749496429288
 30
0.0
 11
28121.604341291921
 21
1955.7494964292871
 31
0.0
1001
AUTOCAD_POSTSCRIPT_FIGURE
1002
{
1000
PSFILL
1000
Grayscale
1000
Grayscale
1070
   100
1002
}
  0
LINE
  5
47EC
  8
YODOROGO
 10
28137.604341291921
 20
1979.749496429288
 30
0.0
 11
28121.604341291921
 21
1979.749496429288
 31
0.0
1001
AUTOCAD_POSTSCRIPT_FIGURE
1002
{
1000
PSFILL
1000
Grayscale
1000
Grayscale
1070
   100
1002
}
  0
LINE
  5
47ED
  8
YODOROGO
 10
28137.604341291921
 20
1955.7494964292871
 30
0.0
 11
28137.604341291921
 21
1979.749496429288
 31
0.0
1001
AUTOCAD_POSTSCRIPT_FIGURE
1002
{
1000
PSFILL
1000
Grayscale
1000
Grayscale
1070
   100
1002
}
  0
LINE
  5
47EE
  8
YODOROGO
 10
28137.604341291921
 20
1939.749496429288
 30
0.0
 11
28137.604341291921
 21
1955.7494964292871
 31
0.0
1001
AUTOCAD_POSTSCRIPT_FIGURE
1002
{
1000
PSFILL
1000
Grayscale
1000
Grayscale
1070
   100
1002
}
  0
LINE
  5
47EF
  8
YODOROGO
 10
28098.902986873411
 20
1939.749496429288
 30
0.0
 11
28137.604341291921
 21
1939.749496429288
 31
0.0
1001
AUTOCAD_POSTSCRIPT_FIGURE
1002
{
1000
PSFILL
1000
Grayscale
1000
Grayscale
1070
   100
1002
}
  0
LINE
  5
47F0
  8
YODOROGO
 10
28137.604341291921
 20
1747.749496429286
 30
0.0
 11
28098.902986873411
 21
1939.749496429288
 31
0.0
1001
AUTOCAD_POSTSCRIPT_FIGURE
1002
{
1000
PSFILL
1000
Grayscale
1000
Grayscale
1070
   100
1002
}
  0
LINE
  5
47F1
  8
YODOROGO
 10
28129.60434129191
 20
1747.749496429286
 30
0.0
 11
28137.604341291921
 21
1747.749496429286
 31
0.0
1001
AUTOCAD_POSTSCRIPT_FIGURE
1002
{
1000
PSFILL
1000
Grayscale
1000
Grayscale
1070
   100
1002
}
  0
LINE
  5
47F2
  8
YODOROGO
 10
28078.06921993379
 20
1775.7407762987939
 30
0.0
 11
27977.604341291921
 21
1747.749496429286
 31
0.0
  0
LINE
  5
47F3
  8
YODOROGO
 10
28078.06921993379
 20
1798.6689795290731
 30
0.0
 11
28078.06921993379
 21
1775.7407762987939
 31
0.0
  0
LINE
  5
47F4
  8
YODOROGO
 10
28033.83678061287
 20
1786.816933133767
 30
0.0
 11
28078.06921993379
 21
1798.6689795290731
 31
0.0
  0
LINE
  5
47F5
  8
YODOROGO
 10
28033.83678061287
 20
1872.5683489362989
 30
0.0
 11
28033.83678061287
 21
1786.816933133767
 31
0.0
  0
LINE
  5
47F6
  8
YODOROGO
 10
28078.06921993379
 20
1872.5683489362989
 30
0.0
 11
28033.83678061287
 21
1872.5683489362989
 31
0.0
  0
LINE
  5
47F7
  8
YODOROGO
 10
28078.06921993379
 20
1892.568348936298
 30
0.0
 11
28078.06921993379
 21
1872.5683489362989
 31
0.0
  0
LINE
  5
47F8
  8
YODOROGO
 10
27977.604341291921
 20
1892.568348936298
 30
0.0
 11
28078.06921993379
 21
1892.568348936298
 31
0.0
  0
LINE
  5
47F9
  8
YODOROGO
 10
27977.604341291921
 20
1872.5683489362989
 30
0.0
 11
27977.604341291921
 21
1892.568348936298
 31
0.0
  0
LINE
  5
47FA
  8
YODOROGO
 10
28021.836780612852
 20
1872.5683489362989
 30
0.0
 11
27977.604341291921
 21
1872.5683489362989
 31
0.0
  0
LINE
  5
47FB
  8
YODOROGO
 10
28021.836780612852
 20
1784.673339594317
 30
0.0
 11
28021.836780612852
 21
1872.5683489362989
 31
0.0
  0
LINE
  5
47FC
  8
YODOROGO
 10
27977.604341291921
 20
1771.749496429286
 30
0.0
 11
28021.836780612852
 21
1784.673339594317
 31
0.0
  0
LINE
  5
47FD
  8
YODOROGO
 10
27977.604341291921
 20
1747.749496429286
 30
0.0
 11
27977.604341291921
 21
1771.749496429286
 31
0.0
  0
LINE
  5
47FE
  8
YODOROGO
 10
28001.604341291921
 20
1707.749496429288
 30
0.0
 11
28001.604341291921
 21
1683.7494964292871
 31
0.0
  0
LINE
  5
47FF
  8
YODOROGO
 10
28017.604341291921
 20
1707.749496429288
 30
0.0
 11
28001.604341291921
 21
1707.749496429288
 31
0.0
  0
LINE
  5
4800
  8
YODOROGO
 10
28017.604341291921
 20
1683.7494964292871
 30
0.0
 11
28017.604341291921
 21
1707.749496429288
 31
0.0
  0
LINE
  5
4801
  8
YODOROGO
 10
28040.913204016892
 20
1683.7494964292871
 30
0.0
 11
28017.604341291921
 21
1683.7494964292871
 31
0.0
  0
LINE
  5
4802
  8
YODOROGO
 10
28001.604341291921
 20
1683.7494964292871
 30
0.0
 11
27977.604341291921
 21
1683.7494964292871
 31
0.0
  0
LINE
  5
4803
  8
YODOROGO
 10
28082.135520230921
 20
1707.749496429288
 30
0.0
 11
28098.135520230931
 21
1707.749496429288
 31
0.0
1001
AUTOCAD_POSTSCRIPT_FIGURE
1002
{
1000
PSFILL
1000
Grayscale
1000
Grayscale
1070
   100
1002
}
  0
LINE
  5
4804
  8
YODOROGO
 10
28401.60434129191
 20
1824.877625640306
 30
0.0
 11
28401.60434129191
 21
1752.877625640306
 31
0.0
1001
AUTOCAD_POSTSCRIPT_FIGURE
1002
{
1000
PSFILL
1000
Grayscale
1000
Grayscale
1070
   100
1002
}
  0
LINE
  5
4805
  8
YODOROGO
 10
28401.60434129191
 20
1916.8776256403071
 30
0.0
 11
28401.60434129191
 21
1984.877625640306
 31
0.0
1001
AUTOCAD_POSTSCRIPT_FIGURE
1002
{
1000
PSFILL
1000
Grayscale
1000
Grayscale
1070
   100
1002
}
  0
LINE
  5
4806
  8
YODOROGO
 10
28433.60434129191
 20
1819.7494964292871
 30
0.0
 11
28433.60434129191
 21
1747.74949642929
 31
0.0
  0
LINE
  5
4807
  8
YODOROGO
 10
28497.60434129191
 20
1707.749496429288
 30
0.0
 11
28433.60434129191
 21
1707.749496429288
 31
0.0
  0
LINE
  5
4808
  8
YODOROGO
 10
28433.60434129191
 20
1747.74949642929
 30
0.0
 11
28585.604341291921
 21
1747.74949642929
 31
0.0
  0
LINE
  5
4809
  8
YODOROGO
 10
28497.60434129191
 20
1867.7494964292871
 30
0.0
 11
28433.60434129191
 21
1867.7494964292871
 31
0.0
  0
LINE
  5
480A
  8
YODOROGO
 10
28497.60434129191
 20
1923.7494964292871
 30
0.0
 11
28497.60434129191
 21
1867.7494964292871
 31
0.0
  0
LINE
  5
480B
  8
YODOROGO
 10
28585.604341291921
 20
1987.7494964292871
 30
0.0
 11
28585.604341291921
 21
2027.749496429288
 31
0.0
  0
LINE
  5
480C
  8
YODOROGO
 10
28433.60434129191
 20
1987.7494964292871
 30
0.0
 11
28585.604341291921
 21
1987.7494964292871
 31
0.0
  0
LINE
  5
480D
  8
YODOROGO
 10
28433.60434129191
 20
1867.7494964292871
 30
0.0
 11
28433.60434129191
 21
1987.7494964292871
 31
0.0
  0
LINE
  5
480E
  8
YODOROGO
 10
29001.60434129191
 20
2027.749496429288
 30
0.0
 11
29001.60434129191
 21
1619.749496429288
 31
0.0
  0
LINE
  5
480F
  8
YODOROGO
 10
29073.604341291921
 20
1579.749496429288
 30
0.0
 11
29073.604341291921
 21
2027.749496429288
 31
0.0
  0
LINE
  5
4810
  8
YODOROGO
 10
29261.604341291921
 20
1491.749496429286
 30
0.0
 11
29261.604341291921
 21
2007.749496429288
 31
0.0
  0
LINE
  5
4811
  8
YODOROGO
 10
29197.604341291921
 20
2007.749496429288
 30
0.0
 11
29197.604341291921
 21
1491.749496429286
 31
0.0
  0
LINE
  5
4812
  8
YODOROGO
 10
29385.604341291921
 20
2027.749496429288
 30
0.0
 11
29385.604341291921
 21
1427.749496429288
 31
0.0
  0
LINE
  5
4813
  8
YODOROGO
 10
29457.604341291921
 20
1427.749496429288
 30
0.0
 11
29457.604341291921
 21
2027.749496429288
 31
0.0
  0
LINE
  5
4814
  8
YODOROGO
 10
28657.604341291921
 20
1667.749496429288
 30
0.0
 11
28657.604341291921
 21
1747.74949642929
 31
0.0
  0
LINE
  5
4815
  8
YODOROGO
 10
29885.604341291921
 20
1707.749496429288
 30
0.0
 11
29885.604341291921
 21
1667.749496429288
 31
0.0
  0
LINE
  5
4816
  8
YODOROGO
 10
29885.604341291921
 20
1707.749496429288
 30
0.0
 11
29885.604341291921
 21
1667.749496429288
 31
0.0
  0
ARC
  5
4817
  8
YODOROGO
 10
28906.911576186842
 20
1618.217864442272
 30
0.0
 40
94.705151178741644
 50
274.05244162907098
 51
0.9266642149310712
  0
ARC
  5
4818
  8
YODOROGO
 10
28909.186170719819
 20
1592.61072861044
 30
0.0
 40
164.92042356085511
 50
271.5351210653775
 51
355.52727750585052
  0
LINE
  5
4819
  8
YODOROGO
 10
28913.604341291921
 20
1523.7494964292871
 30
0.0
 11
28913.604341291921
 21
1427.749496429288
 31
0.0
  0
LINE
  5
481A
  8
YODOROGO
 10
28793.60434129191
 20
1667.749496429288
 30
0.0
 11
28657.604341291921
 21
1667.749496429288
 31
0.0
  0
LINE
  5
481B
  8
YODOROGO
 10
28793.60434129191
 20
1603.7494964292871
 30
0.0
 11
28793.60434129191
 21
1667.749496429288
 31
0.0
  0
LINE
  5
481C
  8
YODOROGO
 10
28657.604341291921
 20
1603.7494964292871
 30
0.0
 11
28793.60434129191
 21
1603.7494964292871
 31
0.0
  0
LINE
  5
481D
  8
YODOROGO
 10
28657.604341291921
 20
1523.7494964292871
 30
0.0
 11
28657.604341291921
 21
1603.7494964292871
 31
0.0
  0
LINE
  5
481E
  8
YODOROGO
 10
28793.60434129191
 20
1523.7494964292871
 30
0.0
 11
28657.604341291921
 21
1523.7494964292871
 31
0.0
  0
LINE
  5
481F
  8
YODOROGO
 10
28793.60434129191
 20
1427.749496429288
 30
0.0
 11
28793.60434129191
 21
1523.7494964292871
 31
0.0
  0
LINE
  5
4820
  8
YODOROGO
 10
29197.604341291921
 20
1491.749496429286
 30
0.0
 11
29261.604341291921
 21
1491.749496429286
 31
0.0
  0
LINE
  5
4821
  8
YODOROGO
 10
29385.604341291921
 20
1427.749496429288
 30
0.0
 11
29457.604341291921
 21
1427.749496429288
 31
0.0
  0
LINE
  5
4822
  8
YODOROGO
 10
29737.604341291921
 20
1528.4414521705639
 30
0.0
 11
29737.604341291921
 21
1427.749496429288
 31
0.0
  0
LINE
  5
4823
  8
YODOROGO
 10
29617.604341291921
 20
1427.749496429288
 30
0.0
 11
29737.604341291921
 21
1528.4414521705639
 31
0.0
  0
LINE
  5
4824
  8
YODOROGO
 10
29617.604341291921
 20
1547.749496429288
 30
0.0
 11
29617.604341291921
 21
1427.749496429288
 31
0.0
  0
LINE
  5
4825
  8
YODOROGO
 10
29712.94462869945
 20
1627.749496429288
 30
0.0
 11
29617.604341291921
 21
1547.749496429288
 31
0.0
  0
LINE
  5
4826
  8
YODOROGO
 10
29617.604341291921
 20
1627.749496429288
 30
0.0
 11
29712.94462869945
 21
1627.749496429288
 31
0.0
  0
LINE
  5
4827
  8
YODOROGO
 10
29617.604341291921
 20
1667.749496429288
 30
0.0
 11
29617.604341291921
 21
1627.749496429288
 31
0.0
  0
LINE
  5
4828
  8
YODOROGO
 10
29885.604341291921
 20
1667.749496429288
 30
0.0
 11
29617.604341291921
 21
1667.749496429288
 31
0.0
  0
LINE
  5
4829
  8
YODOROGO
 10
29917.604341291921
 20
1627.749496429288
 30
0.0
 11
29777.604341291921
 21
1627.749496429288
 31
0.0
  0
LINE
  5
482A
  8
YODOROGO
 10
29777.604341291921
 20
1562.0054374176559
 30
0.0
 11
29771.409872985321
 21
1556.807661346234
 31
0.0
  0
LINE
  5
482B
  8
YODOROGO
 10
29777.604341291921
 20
1627.749496429288
 30
0.0
 11
29777.604341291921
 21
1562.0054374176559
 31
0.0
  0
LINE
  5
482C
  8
YODOROGO
 10
29737.604341291921
 20
1528.4414521705639
 30
0.0
 11
29737.604341291921
 21
1427.749496429288
 31
0.0
  0
LINE
  5
482D
  8
YODOROGO
 10
29617.604341291921
 20
1427.749496429288
 30
0.0
 11
29737.604341291921
 21
1528.4414521705639
 31
0.0
  0
LINE
  5
482E
  8
YODOROGO
 10
29617.604341291921
 20
1547.749496429288
 30
0.0
 11
29617.604341291921
 21
1427.749496429288
 31
0.0
  0
LINE
  5
482F
  8
YODOROGO
 10
29712.94462869945
 20
1627.749496429288
 30
0.0
 11
29617.604341291921
 21
1547.749496429288
 31
0.0
  0
LINE
  5
4830
  8
YODOROGO
 10
29617.604341291921
 20
1627.749496429288
 30
0.0
 11
29712.94462869945
 21
1627.749496429288
 31
0.0
  0
LINE
  5
4831
  8
YODOROGO
 10
29617.604341291921
 20
1667.749496429288
 30
0.0
 11
29617.604341291921
 21
1627.749496429288
 31
0.0
  0
LINE
  5
4832
  8
YODOROGO
 10
29885.604341291921
 20
1667.749496429288
 30
0.0
 11
29617.604341291921
 21
1667.749496429288
 31
0.0
  0
LINE
  5
4833
  8
YODOROGO
 10
28793.60434129191
 20
1747.74949642929
 30
0.0
 11
28793.60434129191
 21
1819.7494964292871
 31
0.0
  0
LINE
  5
4834
  8
YODOROGO
 10
28657.604341291921
 20
1747.74949642929
 30
0.0
 11
28793.60434129191
 21
1747.74949642929
 31
0.0
  0
LINE
  5
4835
  8
YODOROGO
 10
28729.604341291921
 20
1867.7494964292871
 30
0.0
 11
28729.604341291921
 21
1923.7494964292871
 31
0.0
  0
LINE
  5
4836
  8
YODOROGO
 10
28793.60434129191
 20
1867.7494964292871
 30
0.0
 11
28729.604341291921
 21
1867.7494964292871
 31
0.0
  0
LINE
  5
4837
  8
YODOROGO
 10
28793.60434129191
 20
1947.749496429288
 30
0.0
 11
28793.60434129191
 21
1867.7494964292871
 31
0.0
  0
ARC
  5
4838
  8
YODOROGO
 10
28753.60434129191
 20
1947.749496429288
 30
0.0
 40
40.0
 50
0.0
 51
90.0
  0
LINE
  5
4839
  8
YODOROGO
 10
28657.604341291921
 20
1987.7494964292871
 30
0.0
 11
28753.60434129191
 21
1987.7494964292871
 31
0.0
  0
LINE
  5
483A
  8
YODOROGO
 10
28657.604341291921
 20
2027.749496429288
 30
0.0
 11
28657.604341291921
 21
1987.7494964292871
 31
0.0
  0
LINE
  5
483B
  8
YODOROGO
 10
29073.604341291921
 20
2027.749496429288
 30
0.0
 11
29001.60434129191
 21
2027.749496429288
 31
0.0
  0
LINE
  5
483C
  8
YODOROGO
 10
29261.604341291921
 20
2007.749496429288
 30
0.0
 11
29197.604341291921
 21
2007.749496429288
 31
0.0
  0
LINE
  5
483D
  8
YODOROGO
 10
29457.604341291921
 20
2027.749496429288
 30
0.0
 11
29385.604341291921
 21
2027.749496429288
 31
0.0
  0
LINE
  5
483E
  8
YODOROGO
 10
29673.604341291921
 20
1707.749496429288
 30
0.0
 11
29673.604341291921
 21
1771.7494964292871
 31
0.0
1001
AUTOCAD_POSTSCRIPT_FIGURE
1002
{
1000
PSFILL
1000
Grayscale
1000
Grayscale
1070
    25
1002
}
  0
LINE
  5
483F
  8
YODOROGO
 10
29617.604341291921
 20
1707.749496429288
 30
0.0
 11
29673.604341291921
 21
1707.749496429288
 31
0.0
1001
AUTOCAD_POSTSCRIPT_FIGURE
1002
{
1000
PSFILL
1000
Grayscale
1000
Grayscale
1070
    25
1002
}
  0
LINE
  5
4840
  8
YODOROGO
 10
29617.604341291921
 20
1819.7494964292871
 30
0.0
 11
29617.604341291921
 21
1707.749496429288
 31
0.0
1001
AUTOCAD_POSTSCRIPT_FIGURE
1002
{
1000
PSFILL
1000
Grayscale
1000
Grayscale
1070
    25
1002
}
  0
LINE
  5
4841
  8
YODOROGO
 10
29765.604341291921
 20
1819.7494964292871
 30
0.0
 11
29617.604341291921
 21
1819.7494964292871
 31
0.0
1001
AUTOCAD_POSTSCRIPT_FIGURE
1002
{
1000
PSFILL
1000
Grayscale
1000
Grayscale
1070
    25
1002
}
  0
LINE
  5
4842
  8
YODOROGO
 10
29765.604341291921
 20
1859.749496429288
 30
0.0
 11
29765.604341291921
 21
1819.7494964292871
 31
0.0
1001
AUTOCAD_POSTSCRIPT_FIGURE
1002
{
1000
PSFILL
1000
Grayscale
1000
Grayscale
1070
    25
1002
}
  0
LINE
  5
4843
  8
YODOROGO
 10
29617.604341291921
 20
1859.749496429288
 30
0.0
 11
29765.604341291921
 21
1859.749496429288
 31
0.0
1001
AUTOCAD_POSTSCRIPT_FIGURE
1002
{
1000
PSFILL
1000
Grayscale
1000
Grayscale
1070
    25
1002
}
  0
LINE
  5
4844
  8
YODOROGO
 10
29617.604341291921
 20
1907.7494964292871
 30
0.0
 11
29617.604341291921
 21
1859.749496429288
 31
0.0
1001
AUTOCAD_POSTSCRIPT_FIGURE
1002
{
1000
PSFILL
1000
Grayscale
1000
Grayscale
1070
    25
1002
}
  0
LINE
  5
4845
  8
YODOROGO
 10
29765.604341291921
 20
1907.7494964292871
 30
0.0
 11
29617.604341291921
 21
1907.7494964292871
 31
0.0
1001
AUTOCAD_POSTSCRIPT_FIGURE
1002
{
1000
PSFILL
1000
Grayscale
1000
Grayscale
1070
    25
1002
}
  0
LINE
  5
4846
  8
YODOROGO
 10
29765.604341291921
 20
1947.749496429288
 30
0.0
 11
29765.604341291921
 21
1907.7494964292871
 31
0.0
1001
AUTOCAD_POSTSCRIPT_FIGURE
1002
{
1000
PSFILL
1000
Grayscale
1000
Grayscale
1070
    25
1002
}
  0
LINE
  5
4847
  8
YODOROGO
 10
29617.604341291921
 20
1947.749496429288
 30
0.0
 11
29765.604341291921
 21
1947.749496429288
 31
0.0
1001
AUTOCAD_POSTSCRIPT_FIGURE
1002
{
1000
PSFILL
1000
Grayscale
1000
Grayscale
1070
    25
1002
}
  0
LINE
  5
4848
  8
YODOROGO
 10
29617.604341291921
 20
2027.749496429288
 30
0.0
 11
29617.604341291921
 21
1947.749496429288
 31
0.0
1001
AUTOCAD_POSTSCRIPT_FIGURE
1002
{
1000
PSFILL
1000
Grayscale
1000
Grayscale
1070
    25
1002
}
  0
LINE
  5
4849
  8
YODOROGO
 10
29665.604341291921
 20
2027.749496429288
 30
0.0
 11
29617.604341291921
 21
2027.749496429288
 31
0.0
1001
AUTOCAD_POSTSCRIPT_FIGURE
1002
{
1000
PSFILL
1000
Grayscale
1000
Grayscale
1070
    25
1002
}
  0
LINE
  5
484A
  8
YODOROGO
 10
29665.604341291921
 20
1995.7494964292871
 30
0.0
 11
29665.604341291921
 21
2027.749496429288
 31
0.0
1001
AUTOCAD_POSTSCRIPT_FIGURE
1002
{
1000
PSFILL
1000
Grayscale
1000
Grayscale
1070
    25
1002
}
  0
LINE
  5
484B
  8
YODOROGO
 10
29765.604341291921
 20
1995.7494964292871
 30
0.0
 11
29665.604341291921
 21
1995.7494964292871
 31
0.0
1001
AUTOCAD_POSTSCRIPT_FIGURE
1002
{
1000
PSFILL
1000
Grayscale
1000
Grayscale
1070
    25
1002
}
  0
LINE
  5
484C
  8
YODOROGO
 10
29765.604341291921
 20
2027.749496429288
 30
0.0
 11
29765.604341291921
 21
1995.7494964292871
 31
0.0
1001
AUTOCAD_POSTSCRIPT_FIGURE
1002
{
1000
PSFILL
1000
Grayscale
1000
Grayscale
1070
    25
1002
}
  0
LINE
  5
484D
  8
YODOROGO
 10
29829.604341291921
 20
2027.749496429288
 30
0.0
 11
29765.604341291921
 21
2027.749496429288
 31
0.0
1001
AUTOCAD_POSTSCRIPT_FIGURE
1002
{
1000
PSFILL
1000
Grayscale
1000
Grayscale
1070
    25
1002
}
  0
LINE
  5
484E
  8
YODOROGO
 10
29829.604341291921
 20
1995.7494964292871
 30
0.0
 11
29829.604341291921
 21
2027.749496429288
 31
0.0
1001
AUTOCAD_POSTSCRIPT_FIGURE
1002
{
1000
PSFILL
1000
Grayscale
1000
Grayscale
1070
    25
1002
}
  0
LINE
  5
484F
  8
YODOROGO
 10
29829.604341291921
 20
1907.7494964292871
 30
0.0
 11
29829.604341291921
 21
1947.749496429288
 31
0.0
1001
AUTOCAD_POSTSCRIPT_FIGURE
1002
{
1000
PSFILL
1000
Grayscale
1000
Grayscale
1070
    25
1002
}
  0
LINE
  5
4850
  8
YODOROGO
 10
29829.604341291921
 20
1819.7494964292871
 30
0.0
 11
29829.604341291921
 21
1859.749496429288
 31
0.0
1001
AUTOCAD_POSTSCRIPT_FIGURE
1002
{
1000
PSFILL
1000
Grayscale
1000
Grayscale
1070
    25
1002
}
  0
LINE
  5
4851
  8
YODOROGO
 10
29921.60434129191
 20
1771.7494964292871
 30
0.0
 11
29921.60434129191
 21
1707.749496429288
 31
0.0
1001
AUTOCAD_POSTSCRIPT_FIGURE
1002
{
1000
PSFILL
1000
Grayscale
1000
Grayscale
1070
    25
1002
}
  0
LINE
  5
4852
  8
YODOROGO
 10
29829.604341291921
 20
1771.7494964292871
 30
0.0
 11
29921.60434129191
 21
1771.7494964292871
 31
0.0
1001
AUTOCAD_POSTSCRIPT_FIGURE
1002
{
1000
PSFILL
1000
Grayscale
1000
Grayscale
1070
    25
1002
}
  0
LINE
  5
4853
  8
YODOROGO
 10
29829.604341291921
 20
1707.749496429288
 30
0.0
 11
29829.604341291921
 21
1771.7494964292871
 31
0.0
1001
AUTOCAD_POSTSCRIPT_FIGURE
1002
{
1000
PSFILL
1000
Grayscale
1000
Grayscale
1070
    25
1002
}
  0
LINE
  5
4854
  8
YODOROGO
 10
29765.604341291921
 20
1707.749496429288
 30
0.0
 11
29829.604341291921
 21
1707.749496429288
 31
0.0
1001
AUTOCAD_POSTSCRIPT_FIGURE
1002
{
1000
PSFILL
1000
Grayscale
1000
Grayscale
1070
    25
1002
}
  0
LINE
  5
4855
  8
YODOROGO
 10
29765.604341291921
 20
1771.7494964292871
 30
0.0
 11
29765.604341291921
 21
1707.749496429288
 31
0.0
1001
AUTOCAD_POSTSCRIPT_FIGURE
1002
{
1000
PSFILL
1000
Grayscale
1000
Grayscale
1070
    25
1002
}
  0
LINE
  5
4856
  8
YODOROGO
 10
29673.604341291921
 20
1771.7494964292871
 30
0.0
 11
29765.604341291921
 21
1771.7494964292871
 31
0.0
1001
AUTOCAD_POSTSCRIPT_FIGURE
1002
{
1000
PSFILL
1000
Grayscale
1000
Grayscale
1070
    25
1002
}
  0
ARC
  5
4857
  8
YODOROGO
 10
31059.517893357912
 20
1602.6807375155761
 30
0.0
 40
178.22128111072141
 50
281.02627495425338
 51
357.77113575573799
  0
LINE
  5
4858
  8
YODOROGO
 10
31413.604341291921
 20
1907.7494964292871
 30
0.0
 11
31165.604341291921
 21
1907.7494964292871
 31
0.0
  0
LINE
  5
4859
  8
YODOROGO
 10
31413.604341291921
 20
2027.749496429288
 30
0.0
 11
31165.604341291921
 21
2027.749496429288
 31
0.0
  0
LINE
  5
485A
  8
YODOROGO
 10
31165.604341291921
 20
1963.749496429286
 30
0.0
 11
31413.604341291921
 21
1963.749496429286
 31
0.0
  0
LINE
  5
485B
  8
YODOROGO
 10
30791.604341291921
 20
1563.7494964292871
 30
0.0
 11
30791.604341291921
 21
1755.7494964292871
 31
0.0
  0
LINE
  5
485C
  8
YODOROGO
 10
30763.604341291921
 20
1691.749496429288
 30
0.0
 11
30763.604341291921
 21
1563.7494964292871
 31
0.0
  0
LINE
  5
485D
  8
YODOROGO
 10
30723.604341291921
 20
1491.749496429288
 30
0.0
 11
30723.604341291921
 21
1691.749496429288
 31
0.0
  0
LINE
  5
485E
  8
YODOROGO
 10
30899.604341291932
 20
1691.749496429288
 30
0.0
 11
30899.604341291932
 21
1491.749496429288
 31
0.0
  0
LINE
  5
485F
  8
YODOROGO
 10
30859.604341291932
 20
1563.7494964292871
 30
0.0
 11
30859.604341291932
 21
1691.749496429288
 31
0.0
  0
LINE
  5
4860
  8
YODOROGO
 10
30831.604341291921
 20
1755.7494964292871
 30
0.0
 11
30831.604341291921
 21
1563.7494964292871
 31
0.0
  0
LINE
  5
4861
  8
YODOROGO
 10
30973.604341291921
 20
2027.749496429288
 30
0.0
 11
30973.604341291921
 21
1467.749496429288
 31
0.0
  0
LINE
  5
4862
  8
YODOROGO
 10
30645.604341291921
 20
1427.749496429288
 30
0.0
 11
30645.604341291921
 21
2027.749496429288
 31
0.0
  0
LINE
  5
4863
  8
YODOROGO
 10
30697.604341291932
 20
1963.749496429286
 30
0.0
 11
30697.604341291932
 21
1427.749496429288
 31
0.0
  0
LINE
  5
4864
  8
YODOROGO
 10
30925.604341291921
 20
1547.749496429288
 30
0.0
 11
30925.604341291921
 21
1963.749496429286
 31
0.0
  0
LINE
  5
4865
  8
YODOROGO
 10
30381.604341291932
 20
1627.749496429288
 30
0.0
 11
30381.604341291932
 21
1679.749496429288
 31
0.0
  0
LINE
  5
4866
  8
YODOROGO
 10
30617.604341291921
 20
1679.749496429288
 30
0.0
 11
30617.604341291921
 21
1627.749496429288
 31
0.0
  0
LINE
  5
4867
  8
YODOROGO
 10
31165.604341291921
 20
1907.7494964292871
 30
0.0
 11
31165.604341291921
 21
1635.7494964292871
 31
0.0
  0
LINE
  5
4868
  8
YODOROGO
 10
29949.60434129191
 20
1667.749496429288
 30
0.0
 11
29949.60434129191
 21
1707.749496429288
 31
0.0
  0
LINE
  5
4869
  8
YODOROGO
 10
29949.60434129191
 20
1667.749496429288
 30
0.0
 11
29949.60434129191
 21
1707.749496429288
 31
0.0
  0
ARC
  5
486A
  8
YODOROGO
 10
30537.604341291921
 20
1507.749496429288
 30
0.0
 40
80.0
 50
270.0
 51
0.0
  0
LINE
  5
486B
  8
YODOROGO
 10
30569.604341291921
 20
1599.7494964292871
 30
0.0
 11
30617.604341291921
 21
1599.7494964292871
 31
0.0
  0
LINE
  5
486C
  8
YODOROGO
 10
30617.604341291921
 20
1627.749496429288
 30
0.0
 11
30529.604341291939
 21
1627.749496429288
 31
0.0
  0
LINE
  5
486D
  8
YODOROGO
 10
30217.604341291921
 20
1667.749496429288
 30
0.0
 11
29949.60434129191
 21
1667.749496429288
 31
0.0
  0
LINE
  5
486E
  8
YODOROGO
 10
30217.604341291921
 20
1627.749496429288
 30
0.0
 11
30217.604341291921
 21
1667.749496429288
 31
0.0
  0
LINE
  5
486F
  8
YODOROGO
 10
30017.604341291921
 20
1627.749496429288
 30
0.0
 11
30217.604341291921
 21
1627.749496429288
 31
0.0
  0
ARC
  5
4870
  8
YODOROGO
 10
30230.05882870136
 20
1868.885714952901
 30
0.0
 40
321.37763628522822
 50
228.6181454618993
 51
245.660289248906
  0
LINE
  5
4871
  8
YODOROGO
 10
30105.604341291921
 20
1603.7494964292871
 30
0.0
 11
30097.60434129195
 21
1576.0728158699001
 31
0.0
  0
LINE
  5
4872
  8
YODOROGO
 10
30189.604341291921
 20
1603.7494964292871
 30
0.0
 11
30105.604341291921
 21
1603.7494964292871
 31
0.0
  0
LINE
  5
4873
  8
YODOROGO
 10
30177.604341291921
 20
1551.817722473427
 30
0.0
 11
30189.604341291921
 21
1603.7494964292871
 31
0.0
  0
ARC
  5
4874
  8
YODOROGO
 10
30230.05882870045
 20
1868.885714953002
 30
0.0
 40
321.37763628529081
 50
260.60629297969911
 51
267.77903556555862
  0
LINE
  5
4875
  8
YODOROGO
 10
30217.604341291921
 20
1427.749496429285
 30
0.0
 11
30217.604341291921
 21
1547.749496429288
 31
0.0
  0
LINE
  5
4876
  8
YODOROGO
 10
29937.604341291932
 20
1481.3393349155101
 30
0.0
 11
29937.604341291921
 21
1594.531090531141
 31
0.0
  0
LINE
  5
4877
  8
YODOROGO
 10
30217.604341291921
 20
1667.749496429288
 30
0.0
 11
29949.60434129191
 21
1667.749496429288
 31
0.0
  0
LINE
  5
4878
  8
YODOROGO
 10
30217.604341291921
 20
1627.749496429288
 30
0.0
 11
30217.604341291921
 21
1667.749496429288
 31
0.0
  0
LINE
  5
4879
  8
YODOROGO
 10
30017.604341291921
 20
1627.749496429288
 30
0.0
 11
30217.604341291921
 21
1627.749496429288
 31
0.0
  0
ARC
  5
487A
  8
YODOROGO
 10
30230.05882870136
 20
1868.885714952901
 30
0.0
 40
321.37763628522822
 50
228.6181454618993
 51
245.660289248906
  0
LINE
  5
487B
  8
YODOROGO
 10
30105.604341291921
 20
1603.7494964292871
 30
0.0
 11
30097.60434129195
 21
1576.0728158699001
 31
0.0
  0
LINE
  5
487C
  8
YODOROGO
 10
30189.604341291921
 20
1603.7494964292871
 30
0.0
 11
30105.604341291921
 21
1603.7494964292871
 31
0.0
  0
LINE
  5
487D
  8
YODOROGO
 10
30177.604341291921
 20
1551.817722473427
 30
0.0
 11
30189.604341291921
 21
1603.7494964292871
 31
0.0
  0
ARC
  5
487E
  8
YODOROGO
 10
30230.05882870045
 20
1868.885714953002
 30
0.0
 40
321.37763628529081
 50
260.60629297969911
 51
267.77903556555862
  0
LINE
  5
487F
  8
YODOROGO
 10
30217.604341291921
 20
1427.749496429285
 30
0.0
 11
30217.604341291921
 21
1547.749496429288
 31
0.0
  0
LINE
  5
4880
  8
YODOROGO
 10
29937.604341291932
 20
1481.3393349155101
 30
0.0
 11
29937.604341291921
 21
1594.531090531141
 31
0.0
  0
LINE
  5
4881
  8
YODOROGO
 10
30433.604341291921
 20
1573.749496429288
 30
0.0
 11
30381.604341291932
 21
1573.749496429288
 31
0.0
  0
LINE
  5
4882
  8
YODOROGO
 10
30433.604341291921
 20
1601.749496429285
 30
0.0
 11
30433.604341291921
 21
1573.749496429288
 31
0.0
  0
LINE
  5
4883
  8
YODOROGO
 10
30381.604341291932
 20
1601.749496429285
 30
0.0
 11
30433.604341291921
 21
1601.749496429285
 31
0.0
  0
LINE
  5
4884
  8
YODOROGO
 10
30381.604341291932
 20
1573.749496429288
 30
0.0
 11
30381.604341291932
 21
1601.749496429285
 31
0.0
  0
LINE
  5
4885
  8
YODOROGO
 10
30429.604341291921
 20
1577.7494964292871
 30
0.0
 11
30385.604341291921
 21
1577.7494964292871
 31
0.0
  0
LINE
  5
4886
  8
YODOROGO
 10
30429.604341291921
 20
1597.749496429288
 30
0.0
 11
30429.604341291921
 21
1577.7494964292871
 31
0.0
  0
LINE
  5
4887
  8
YODOROGO
 10
30385.604341291921
 20
1597.749496429288
 30
0.0
 11
30429.604341291921
 21
1597.749496429288
 31
0.0
  0
LINE
  5
4888
  8
YODOROGO
 10
30385.604341291921
 20
1577.7494964292871
 30
0.0
 11
30385.604341291921
 21
1597.749496429288
 31
0.0
  0
LINE
  5
4889
  8
YODOROGO
 10
30425.604341291921
 20
1581.749496429286
 30
0.0
 11
30389.604341291921
 21
1581.749496429286
 31
0.0
  0
LINE
  5
488A
  8
YODOROGO
 10
30425.604341291921
 20
1593.749496429288
 30
0.0
 11
30425.604341291921
 21
1581.749496429286
 31
0.0
  0
LINE
  5
488B
  8
YODOROGO
 10
30389.604341291921
 20
1593.749496429288
 30
0.0
 11
30425.604341291921
 21
1593.749496429288
 31
0.0
  0
LINE
  5
488C
  8
YODOROGO
 10
30389.604341291921
 20
1581.749496429286
 30
0.0
 11
30389.604341291921
 21
1593.749496429288
 31
0.0
  0
LINE
  5
488D
  8
YODOROGO
 10
30421.604341291932
 20
1585.7494964292871
 30
0.0
 11
30393.604341291921
 21
1585.7494964292871
 31
0.0
  0
LINE
  5
488E
  8
YODOROGO
 10
30421.604341291932
 20
1589.749496429288
 30
0.0
 11
30421.604341291932
 21
1585.7494964292871
 31
0.0
  0
LINE
  5
488F
  8
YODOROGO
 10
30393.604341291921
 20
1589.749496429288
 30
0.0
 11
30421.604341291932
 21
1589.749496429288
 31
0.0
  0
LINE
  5
4890
  8
YODOROGO
 10
30393.604341291921
 20
1585.7494964292871
 30
0.0
 11
30393.604341291921
 21
1589.749496429288
 31
0.0
  0
LINE
  5
4891
  8
YODOROGO
 10
30465.604341291921
 20
1627.749496429288
 30
0.0
 11
30381.604341291932
 21
1627.749496429288
 31
0.0
  0
LINE
  5
4892
  8
YODOROGO
 10
30465.604341291921
 20
1547.749496429288
 30
0.0
 11
30465.604341291921
 21
1627.749496429288
 31
0.0
  0
LINE
  5
4893
  8
YODOROGO
 10
30381.604341291932
 20
1547.749496429288
 30
0.0
 11
30465.604341291921
 21
1547.749496429288
 31
0.0
  0
LINE
  5
4894
  8
YODOROGO
 10
30381.604341291932
 20
1427.749496429288
 30
0.0
 11
30381.604341291932
 21
1547.749496429288
 31
0.0
  0
LINE
  5
4895
  8
YODOROGO
 10
30537.604341291921
 20
1427.749496429288
 30
0.0
 11
30381.604341291932
 21
1427.749496429288
 31
0.0
  0
LINE
  5
4896
  8
YODOROGO
 10
30569.604341291921
 20
1571.749496429285
 30
0.0
 11
30569.604341291921
 21
1599.7494964292871
 31
0.0
  0
ARC
  5
4897
  8
YODOROGO
 10
30545.604341291921
 20
1571.749496429291
 30
0.0
 40
24.000000000003752
 50
270.0
 51
359.99999999998772
  0
LINE
  5
4898
  8
YODOROGO
 10
30529.604341291939
 20
1547.749496429288
 30
0.0
 11
30545.604341291921
 21
1547.749496429288
 31
0.0
  0
LINE
  5
4899
  8
YODOROGO
 10
30529.604341291939
 20
1627.749496429288
 30
0.0
 11
30529.604341291939
 21
1547.749496429288
 31
0.0
  0
LINE
  5
489A
  8
YODOROGO
 10
30899.604341291932
 20
1547.749496429288
 30
0.0
 11
30925.604341291921
 21
1547.749496429288
 31
0.0
  0
LINE
  5
489B
  8
YODOROGO
 10
30933.604341291921
 20
1427.749496429288
 30
0.0
 11
30899.604341291932
 21
1427.749496429288
 31
0.0
  0
LINE
  5
489C
  8
YODOROGO
 10
30763.604341291921
 20
1563.7494964292871
 30
0.0
 11
30791.604341291921
 21
1563.7494964292871
 31
0.0
  0
LINE
  5
489D
  8
YODOROGO
 10
30899.604341291932
 20
1491.749496429288
 30
0.0
 11
30723.604341291921
 21
1491.749496429288
 31
0.0
  0
LINE
  5
489E
  8
YODOROGO
 10
30831.604341291921
 20
1563.7494964292871
 30
0.0
 11
30859.604341291932
 21
1563.7494964292871
 31
0.0
  0
LINE
  5
489F
  8
YODOROGO
 10
30899.604341291932
 20
1427.749496429288
 30
0.0
 11
30899.604341291932
 21
1547.749496429288
 31
0.0
  0
LINE
  5
48A0
  8
YODOROGO
 10
30697.604341291932
 20
1427.749496429288
 30
0.0
 11
30645.604341291921
 21
1427.749496429288
 31
0.0
  0
LINE
  5
48A1
  8
YODOROGO
 10
30617.604341291921
 20
1599.7494964292871
 30
0.0
 11
30617.604341291921
 21
1507.749496429288
 31
0.0
  0
ARC
  5
48A2
  8
YODOROGO
 10
30933.604341291921
 20
1467.749496429288
 30
0.0
 40
40.0
 50
270.0
 51
0.0
  0
LINE
  5
48A3
  8
YODOROGO
 10
31093.604341291921
 20
1523.7494964292871
 30
0.0
 11
31093.604341291921
 21
1427.749496429288
 31
0.0
  0
ARC
  5
48A4
  8
YODOROGO
 10
31039.721395566768
 20
1637.5313901097329
 30
0.0
 40
125.8955565916754
 50
295.34052442160112
 51
359.18902303418679
  0
LINE
  5
48A5
  8
YODOROGO
 10
30617.604341291921
 20
1859.749496429288
 30
0.0
 11
30497.604341291921
 21
1939.749496429288
 31
0.0
  0
LINE
  5
48A6
  8
YODOROGO
 10
30497.604341291921
 20
2027.749496429288
 30
0.0
 11
30617.604341291921
 21
1947.749496429288
 31
0.0
  0
LINE
  5
48A7
  8
YODOROGO
 10
30529.604341291939
 20
1679.749496429288
 30
0.0
 11
30617.604341291921
 21
1679.749496429288
 31
0.0
  0
LINE
  5
48A8
  8
YODOROGO
 10
30617.604341291921
 20
1735.7494964292871
 30
0.0
 11
30529.604341291939
 21
1735.7494964292871
 31
0.0
  0
LINE
  5
48A9
  8
YODOROGO
 10
30381.604341291932
 20
1795.7494964292871
 30
0.0
 11
30617.604341291921
 21
1795.7494964292871
 31
0.0
  0
LINE
  5
48AA
  8
YODOROGO
 10
30081.604341291921
 20
2027.749496429288
 30
0.0
 11
30021.604341291921
 21
2027.749496429288
 31
0.0
  0
LINE
  5
48AB
  8
YODOROGO
 10
30081.604341291921
 20
1827.7494964292871
 30
0.0
 11
30081.604341291921
 21
2027.749496429288
 31
0.0
  0
LINE
  5
48AC
  8
YODOROGO
 10
30021.604341291921
 20
1827.7494964292871
 30
0.0
 11
30081.604341291921
 21
1827.7494964292871
 31
0.0
  0
LINE
  5
48AD
  8
YODOROGO
 10
30021.604341291921
 20
2027.749496429288
 30
0.0
 11
30021.604341291921
 21
1827.7494964292871
 31
0.0
  0
LINE
  5
48AE
  8
YODOROGO
 10
30161.604341291921
 20
2027.749496429288
 30
0.0
 11
30217.604341291921
 21
2027.749496429288
 31
0.0
  0
LINE
  5
48AF
  8
YODOROGO
 10
30161.604341291921
 20
1811.749496429288
 30
0.0
 11
30161.604341291921
 21
2027.749496429288
 31
0.0
  0
ARC
  5
48B0
  8
YODOROGO
 10
30121.604341291921
 20
1811.749496429288
 30
0.0
 40
40.0
 50
270.0
 51
0.0
  0
LINE
  5
48B1
  8
YODOROGO
 10
30021.604341291921
 20
1771.7494964292871
 30
0.0
 11
30121.604341291921
 21
1771.7494964292871
 31
0.0
  0
LINE
  5
48B2
  8
YODOROGO
 10
30021.604341291921
 20
1707.749496429288
 30
0.0
 11
30021.604341291921
 21
1771.7494964292871
 31
0.0
  0
LINE
  5
48B3
  8
YODOROGO
 10
30137.604341291921
 20
1707.749496429288
 30
0.0
 11
30021.604341291921
 21
1707.749496429288
 31
0.0
  0
ARC
  5
48B4
  8
YODOROGO
 10
30137.604341291921
 20
1787.7494964292871
 30
0.0
 40
80.0
 50
270.0
 51
0.0
  0
LINE
  5
48B5
  8
YODOROGO
 10
30217.604341291921
 20
2027.749496429288
 30
0.0
 11
30217.604341291921
 21
1787.7494964292871
 31
0.0
  0
LINE
  5
48B6
  8
YODOROGO
 10
29977.604341291921
 20
1947.749496429288
 30
0.0
 11
29977.604341291921
 21
1995.7494964292871
 31
0.0
1001
AUTOCAD_POSTSCRIPT_FIGURE
1002
{
1000
PSFILL
1000
Grayscale
1000
Grayscale
1070
    25
1002
}
  0
LINE
  5
48B7
  8
YODOROGO
 10
29977.604341291921
 20
1859.749496429288
 30
0.0
 11
29977.604341291921
 21
1907.7494964292871
 31
0.0
1001
AUTOCAD_POSTSCRIPT_FIGURE
1002
{
1000
PSFILL
1000
Grayscale
1000
Grayscale
1070
    25
1002
}
  0
LINE
  5
48B8
  8
YODOROGO
 10
29977.604341291921
 20
1707.749496429288
 30
0.0
 11
29977.604341291921
 21
1819.7494964292871
 31
0.0
1001
AUTOCAD_POSTSCRIPT_FIGURE
1002
{
1000
PSFILL
1000
Grayscale
1000
Grayscale
1070
    25
1002
}
  0
LINE
  5
48B9
  8
YODOROGO
 10
30381.604341291932
 20
1907.7494964292871
 30
0.0
 11
30497.604341291921
 21
2027.749496429288
 31
0.0
  0
LINE
  5
48BA
  8
YODOROGO
 10
30381.604341291932
 20
1819.7494964292871
 30
0.0
 11
30381.604341291932
 21
1907.7494964292871
 31
0.0
  0
LINE
  5
48BB
  8
YODOROGO
 10
30497.604341291921
 20
1939.749496429288
 30
0.0
 11
30381.604341291932
 21
1819.7494964292871
 31
0.0
  0
LINE
  5
48BC
  8
YODOROGO
 10
30465.604341291921
 20
1679.749496429288
 30
0.0
 11
30465.604341291921
 21
1735.7494964292871
 31
0.0
  0
LINE
  5
48BD
  8
YODOROGO
 10
30381.604341291932
 20
1679.749496429288
 30
0.0
 11
30465.604341291921
 21
1679.749496429288
 31
0.0
  0
LINE
  5
48BE
  8
YODOROGO
 10
30529.604341291939
 20
1735.7494964292871
 30
0.0
 11
30529.604341291939
 21
1679.749496429288
 31
0.0
  0
LINE
  5
48BF
  8
YODOROGO
 10
30381.604341291932
 20
1735.7494964292871
 30
0.0
 11
30381.604341291932
 21
1795.7494964292871
 31
0.0
  0
LINE
  5
48C0
  8
YODOROGO
 10
30465.604341291921
 20
1735.7494964292871
 30
0.0
 11
30381.604341291932
 21
1735.7494964292871
 31
0.0
  0
LINE
  5
48C1
  8
YODOROGO
 10
30645.604341291921
 20
2027.749496429288
 30
0.0
 11
30973.604341291921
 21
2027.749496429288
 31
0.0
  0
LINE
  5
48C2
  8
YODOROGO
 10
30925.604341291921
 20
1963.749496429286
 30
0.0
 11
30697.604341291932
 21
1963.749496429286
 31
0.0
  0
LINE
  5
48C3
  8
YODOROGO
 10
30873.604341291921
 20
1819.7494964292871
 30
0.0
 11
30899.604341291932
 21
1819.7494964292871
 31
0.0
  0
LINE
  5
48C4
  8
YODOROGO
 10
30899.604341291932
 20
1939.749496429288
 30
0.0
 11
30873.604341291921
 21
1819.7494964292871
 31
0.0
  0
LINE
  5
48C5
  8
YODOROGO
 10
30851.604341291939
 20
1939.749496429288
 30
0.0
 11
30899.604341291932
 21
1939.749496429288
 31
0.0
  0
LINE
  5
48C6
  8
YODOROGO
 10
30825.604341291921
 20
1819.7494964292871
 30
0.0
 11
30851.604341291939
 21
1939.749496429288
 31
0.0
  0
LINE
  5
48C7
  8
YODOROGO
 10
30797.604341291921
 20
1819.7494964292871
 30
0.0
 11
30825.604341291921
 21
1819.7494964292871
 31
0.0
  0
LINE
  5
48C8
  8
YODOROGO
 10
30771.604341291939
 20
1939.749496429288
 30
0.0
 11
30797.604341291921
 21
1819.7494964292871
 31
0.0
  0
LINE
  5
48C9
  8
YODOROGO
 10
30723.604341291921
 20
1939.749496429288
 30
0.0
 11
30771.604341291939
 21
1939.749496429288
 31
0.0
  0
LINE
  5
48CA
  8
YODOROGO
 10
30749.604341291921
 20
1819.7494964292871
 30
0.0
 11
30723.604341291921
 21
1939.749496429288
 31
0.0
  0
LINE
  5
48CB
  8
YODOROGO
 10
30723.604341291921
 20
1819.7494964292871
 30
0.0
 11
30749.604341291921
 21
1819.7494964292871
 31
0.0
  0
LINE
  5
48CC
  8
YODOROGO
 10
30723.604341291921
 20
1755.7494964292871
 30
0.0
 11
30723.604341291921
 21
1819.7494964292871
 31
0.0
  0
LINE
  5
48CD
  8
YODOROGO
 10
30899.604341291932
 20
1755.7494964292871
 30
0.0
 11
30723.604341291921
 21
1755.7494964292871
 31
0.0
  0
LINE
  5
48CE
  8
YODOROGO
 10
30899.604341291932
 20
1819.7494964292871
 30
0.0
 11
30899.604341291932
 21
1755.7494964292871
 31
0.0
  0
LINE
  5
48CF
  8
YODOROGO
 10
30617.604341291921
 20
1947.749496429288
 30
0.0
 11
30617.604341291921
 21
1859.749496429288
 31
0.0
  0
LINE
  5
48D0
  8
YODOROGO
 10
30791.604341291921
 20
1755.7494964292871
 30
0.0
 11
30831.604341291921
 21
1755.7494964292871
 31
0.0
  0
LINE
  5
48D1
  8
YODOROGO
 10
30723.604341291921
 20
1691.749496429288
 30
0.0
 11
30763.604341291921
 21
1691.749496429288
 31
0.0
  0
LINE
  5
48D2
  8
YODOROGO
 10
30859.604341291932
 20
1691.749496429288
 30
0.0
 11
30899.604341291932
 21
1691.749496429288
 31
0.0
  0
LINE
  5
48D3
  8
YODOROGO
 10
30617.604341291921
 20
1795.7494964292871
 30
0.0
 11
30617.604341291921
 21
1735.7494964292871
 31
0.0
  0
LINE
  5
48D4
  8
YODOROGO
 10
31165.604341291921
 20
2027.749496429288
 30
0.0
 11
31165.604341291921
 21
1963.749496429286
 31
0.0
  0
LINE
  5
48D5
  8
YODOROGO
 10
31533.604341291921
 20
1595.7494964292871
 30
0.0
 11
31533.60434129191
 21
1811.749496429288
 31
0.0
  0
LINE
  5
48D6
  8
YODOROGO
 10
31461.60434129191
 20
1987.7494964292871
 30
0.0
 11
31461.60434129191
 21
1635.7494964292871
 31
0.0
  0
LINE
  5
48D7
  8
YODOROGO
 10
31653.604341291921
 20
1427.749496429288
 30
0.0
 11
31653.60434129191
 21
1811.749496429288
 31
0.0
  0
LINE
  5
48D8
  8
YODOROGO
 10
31589.604341291921
 20
1811.749496429288
 30
0.0
 11
31589.604341291921
 21
1427.749496429288
 31
0.0
  0
LINE
  5
48D9
  8
YODOROGO
 10
31237.604341291921
 20
1595.7494964292871
 30
0.0
 11
31237.604341291921
 21
1707.749496429288
 31
0.0
  0
ARC
  5
48DA
  8
YODOROGO
 10
31353.914865116069
 20
1607.790351288558
 30
0.0
 40
180.0924485759885
 50
268.62849102169793
 51
356.16638457330322
  0
LINE
  5
48DB
  8
YODOROGO
 10
31349.604341291939
 20
1527.749496429288
 30
0.0
 11
31349.604341291939
 21
1427.749496429288
 31
0.0
  0
ARC
  5
48DC
  8
YODOROGO
 10
31351.518075724562
 20
1637.838957017655
 30
0.0
 40
110.1060929836122
 50
269.00410209305932
 51
358.91264455492478
  0
LINE
  5
48DD
  8
YODOROGO
 10
31589.604341291921
 20
1427.749496429288
 30
0.0
 11
31653.604341291921
 21
1427.749496429288
 31
0.0
  0
LINE
  5
48DE
  8
YODOROGO
 10
31533.60434129191
 20
1811.749496429288
 30
0.0
 11
31589.604341291921
 21
1811.749496429288
 31
0.0
  0
LINE
  5
48DF
  8
YODOROGO
 10
31621.604341291939
 20
1987.7494964292871
 30
0.0
 11
31461.60434129191
 21
1987.7494964292871
 31
0.0
  0
LINE
  5
48E0
  8
YODOROGO
 10
31533.60434129191
 20
1915.7494964292871
 30
0.0
 11
31661.604341291939
 21
1915.7494964292871
 31
0.0
  0
LINE
  5
48E1
  8
YODOROGO
 10
31701.604341291939
 20
1875.7494964292871
 30
0.0
 11
31533.60434129191
 21
1875.7494964292871
 31
0.0
  0
LINE
  5
48E2
  8
YODOROGO
 10
31237.604341291921
 20
1779.749496429288
 30
0.0
 11
31349.604341291939
 21
1779.749496429288
 31
0.0
  0
LINE
  5
48E3
  8
YODOROGO
 10
31237.604341291921
 20
1835.7494964292871
 30
0.0
 11
31237.604341291921
 21
1779.749496429288
 31
0.0
  0
LINE
  5
48E4
  8
YODOROGO
 10
31349.604341291939
 20
1835.7494964292871
 30
0.0
 11
31237.604341291921
 21
1835.7494964292871
 31
0.0
  0
LINE
  5
48E5
  8
YODOROGO
 10
31349.604341291939
 20
1779.749496429288
 30
0.0
 11
31349.604341291939
 21
1835.7494964292871
 31
0.0
  0
LINE
  5
48E6
  8
YODOROGO
 10
31533.60434129191
 20
1875.7494964292871
 30
0.0
 11
31533.60434129191
 21
1915.7494964292871
 31
0.0
  0
LINE
  5
48E7
  8
YODOROGO
 10
31413.604341291921
 20
1707.749496429288
 30
0.0
 11
31413.604341291921
 21
1907.7494964292871
 31
0.0
  0
LINE
  5
48E8
  8
YODOROGO
 10
31237.604341291921
 20
1707.749496429288
 30
0.0
 11
31413.604341291921
 21
1707.749496429288
 31
0.0
  0
LINE
  5
48E9
  8
YODOROGO
 10
31413.604341291921
 20
1963.749496429286
 30
0.0
 11
31413.604341291921
 21
2027.749496429288
 31
0.0
  0
ARC
  5
48EA
  8
YODOROGO
 10
31621.604341291939
 20
2003.749496429285
 30
0.0
 40
15.999999999994539
 50
270.0
 51
0.0000000000081422
  0
LINE
  5
48EB
  8
YODOROGO
 10
31637.604341291921
 20
2027.749496429288
 30
0.0
 11
31637.604341291921
 21
2003.7494964292871
 31
0.0
  0
LINE
  5
48EC
  8
YODOROGO
 10
31701.604341291939
 20
2027.749496429288
 30
0.0
 11
31637.604341291921
 21
2027.749496429288
 31
0.0
  0
LINE
  5
48ED
  8
YODOROGO
 10
31701.604341291939
 20
1955.7494964292871
 30
0.0
 11
31701.604341291939
 21
2027.749496429288
 31
0.0
  0
ARC
  5
48EE
  8
YODOROGO
 10
31661.604341291939
 20
1955.7494964292871
 30
0.0
 40
40.0
 50
270.0
 51
0.0
  0
LINE
  5
48EF
  8
YODOROGO
 10
31701.604341291939
 20
1811.749496429288
 30
0.0
 11
31701.604341291939
 21
1875.7494964292871
 31
0.0
  0
LINE
  5
48F0
  8
YODOROGO
 10
31653.60434129191
 20
1811.749496429288
 30
0.0
 11
31701.604341291939
 21
1811.749496429288
 31
0.0
  0
LINE
  5
48F4
  8
SUNPOU
  6
CONTINUOUS
 62
     4
 10
8353.1653285000066
 20
20194.230781999991
 30
0.0
 11
8353.1653285000066
 21
20744.236061
 31
0.0
  0
LINE
  5
48F5
  8
SUNPOU
  6
CONTINUOUS
 62
     4
 10
8438.6653285000066
 20
20664.236061
 30
0.0
 11
8678.6653285000084
 21
20664.236061
 31
0.0
  0
LINE
  5
48F6
  8
SUNPOU
  6
CONTINUOUS
 62
     4
 10
8356.1653285000066
 20
20664.236061
 30
0.0
 11
8116.1653285000084
 21
20664.236061
 31
0.0
  0
LINE
  5
48F7
  8
SUNPOU
  6
CONTINUOUS
 62
     4
 10
8438.6653285000066
 20
20664.236061
 30
0.0
 11
8356.1653285000066
 21
20664.236061
 31
0.0
  0
LINE
  5
48F8
  8
SUNPOU
  6
CONTINUOUS
 62
     4
 10
11707.16532849999
 20
20664.236061
 30
0.0
 11
8438.6653285000066
 21
20664.236061
 31
0.0
  0
LINE
  5
48F9
  8
SUNPOU
  6
CONTINUOUS
 62
     4
 10
15061.153452499961
 20
20194.230781999991
 30
0.0
 11
15061.153452499961
 21
20744.236061
 31
0.0
  0
LINE
  5
48FA
  8
SUNPOU
  6
CONTINUOUS
 62
     4
 10
14975.653452499961
 20
20664.236061
 30
0.0
 11
14735.653452499961
 21
20664.236061
 31
0.0
  0
LINE
  5
48FB
  8
SUNPOU
  6
CONTINUOUS
 62
     4
 10
15058.153452499961
 20
20664.236061
 30
0.0
 11
15298.153452499961
 21
20664.236061
 31
0.0
  0
LINE
  5
48FC
  8
SUNPOU
  6
CONTINUOUS
 62
     4
 10
14975.653452499961
 20
20664.236061
 30
0.0
 11
15058.153452499961
 21
20664.236061
 31
0.0
  0
LINE
  5
48FD
  8
SUNPOU
  6
CONTINUOUS
 62
     4
 10
11707.15345249997
 20
20664.236061
 30
0.0
 11
14975.653452499961
 21
20664.236061
 31
0.0
  0
LINE
  5
48FE
  8
SUNPOU
  6
CONTINUOUS
 62
     4
 10
8276.1550354999908
 20
20094.226823000001
 30
0.0
 11
7829.1596144999903
 21
20094.226823000001
 31
0.0
  0
LINE
  5
48FF
  8
SUNPOU
  6
CONTINUOUS
 62
     4
 10
8276.1593904999863
 20
20114.226823000001
 30
0.0
 11
7829.1596144999903
 21
20114.226823000001
 31
0.0
  0
LINE
  5
4901
  8
SUNPOU
  6
CONTINUOUS
 62
     4
 10
7909.1596144999912
 20
20114.226823000001
 30
0.0
 11
7909.1596144999912
 21
20354.226823000012
 31
0.0
  0
LINE
  5
4902
  8
SUNPOU
  6
CONTINUOUS
 62
     4
 10
7909.1596144999912
 20
20074.226823000001
 30
0.0
 11
7909.1596144999912
 21
20114.226823000001
 31
0.0
  0
LINE
  5
4903
  8
SUNPOU
  6
CONTINUOUS
 62
     4
 10
8276.1593904999863
 20
20114.226823000001
 30
0.0
 11
7429.159614499993
 21
20114.226823000001
 31
0.0
  0
LINE
  5
4904
  8
SUNPOU
  6
CONTINUOUS
 62
     4
 10
7509.1596144999912
 20
19891.730914
 30
0.0
 11
7509.1596144999912
 21
20114.226823000001
 31
0.0
  0
LINE
  5
4905
  8
SUNPOU
  6
CONTINUOUS
 62
     4
 10
8139.8587474999977
 20
18783.230914
 30
0.0
 11
7429.159614499993
 21
18783.230914
 31
0.0
  0
LINE
  5
4906
  8
SUNPOU
  6
CONTINUOUS
 62
     4
 10
7509.1596144999912
 20
18783.230914
 30
0.0
 11
7509.1596144999912
 21
19891.730914
 31
0.0
  0
LINE
  5
4907
  8
SUNPOU
  6
CONTINUOUS
 62
     4
 10
8139.8587474999977
 20
18783.230914
 30
0.0
 11
7429.159614499993
 21
18783.230914
 31
0.0
  0
LINE
  5
4908
  8
SUNPOU
  6
CONTINUOUS
 62
     4
 10
7509.1596144999912
 20
17324.230914
 30
0.0
 11
7509.1596144999912
 21
18783.230914
 31
0.0
  0
LINE
  5
4909
  8
SUNPOU
  6
CONTINUOUS
 62
     4
 10
8139.8587474999977
 20
15865.230913999991
 30
0.0
 11
7429.159614499993
 21
15865.230913999991
 31
0.0
  0
LINE
  5
490A
  8
SUNPOU
  6
CONTINUOUS
 62
     4
 10
7509.1596144999912
 20
15865.230913999991
 30
0.0
 11
7509.1596144999912
 21
17324.230914
 31
0.0
  0
LINE
  5
490B
  8
SUNPOU
  6
CONTINUOUS
 62
     4
 10
8139.8587474999977
 20
15865.230913999991
 30
0.0
 11
7429.159614499993
 21
15865.230913999991
 31
0.0
  0
LINE
  5
490C
  8
SUNPOU
  6
CONTINUOUS
 62
     4
 10
7509.1596144999912
 20
14406.230913999991
 30
0.0
 11
7509.1596144999912
 21
15865.230913999991
 31
0.0
  0
LINE
  5
490D
  8
SUNPOU
  6
CONTINUOUS
 62
     4
 10
8276.1550354999908
 20
14213.735599
 30
0.0
 11
7429.159614499993
 21
14213.735599
 31
0.0
  0
LINE
  5
490E
  8
SUNPOU
  6
CONTINUOUS
 62
     4
 10
7509.1596144999976
 20
14406.230913999991
 30
0.0
 11
7509.1596144999912
 21
14213.735599
 31
0.0
  0
LINE
  5
490F
  8
SUNPOU
  6
CONTINUOUS
 62
     4
 10
26104.11676349998
 20
19484.230914
 30
0.0
 11
27154.11808349998
 21
19484.230914
 31
0.0
  0
LINE
  5
4910
  8
SUNPOU
  6
CONTINUOUS
 62
     4
 10
26954.11808349999
 20
19891.730914
 30
0.0
 11
27154.11808349998
 21
19891.730914
 31
0.0
  0
LINE
  5
4911
  8
SUNPOU
  6
CONTINUOUS
 62
     4
 10
27074.11808349999
 20
19484.230914
 30
0.0
 11
27074.11808349999
 21
19891.730914
 31
0.0
  0
LINE
  5
4912
  8
SUNPOU
  6
CONTINUOUS
 62
     4
 10
19322.122174499978
 20
18783.230914
 30
0.0
 11
18435.1639025
 21
18783.230914
 31
0.0
  0
LINE
  5
4913
  8
SUNPOU
  6
CONTINUOUS
 62
     4
 10
18515.163902499989
 20
18783.230914
 30
0.0
 11
18515.163902499989
 21
19891.730914
 31
0.0
  0
LINE
  5
4914
  8
SUNPOU
  6
CONTINUOUS
 62
     4
 10
19322.122174499978
 20
18783.230914
 30
0.0
 11
18435.1639025
 21
18783.230914
 31
0.0
  0
LINE
  5
4915
  8
SUNPOU
  6
CONTINUOUS
 62
     4
 10
18515.163902499989
 20
17324.230914
 30
0.0
 11
18515.163902499989
 21
18783.230914
 31
0.0
  0
LINE
  5
4916
  8
SUNPOU
  6
CONTINUOUS
 62
     4
 10
19322.122174499978
 20
15865.471425500011
 30
0.0
 11
18435.1639025
 21
15865.471425500011
 31
0.0
  0
LINE
  5
4917
  8
SUNPOU
  6
CONTINUOUS
 62
     4
 10
18515.163902499989
 20
15865.471425500011
 30
0.0
 11
18515.163902499989
 21
17324.230914
 31
0.0
  0
LINE
  5
4918
  8
SUNPOU
  6
CONTINUOUS
 62
     4
 10
19322.122174499978
 20
15865.471425500011
 30
0.0
 11
18435.1639025
 21
15865.471425500011
 31
0.0
  0
LINE
  5
4919
  8
SUNPOU
  6
CONTINUOUS
 62
     4
 10
18515.163902499989
 20
14406.230913999991
 30
0.0
 11
18515.163902499989
 21
15865.471425500011
 31
0.0
  0
LINE
  5
491A
  8
SUNPOU
  6
CONTINUOUS
 62
     4
 10
19444.61847949999
 20
13700.467479999999
 30
0.0
 11
19444.61847949999
 21
13354.78283
 31
0.0
  0
LINE
  5
491B
  8
SUNPOU
  6
CONTINUOUS
 62
     4
 10
19402.116236499991
 20
14283.733619000001
 30
0.0
 11
19402.116236499991
 21
13354.78283
 31
0.0
  0
LINE
  5
491C
  8
SUNPOU
  6
CONTINUOUS
 62
     4
 10
19444.61847949999
 20
13434.78283
 30
0.0
 11
19684.61847949999
 21
13434.78283
 31
0.0
  0
LINE
  5
491D
  8
SUNPOU
  6
CONTINUOUS
 62
     4
 10
19402.116236499991
 20
13434.78283
 30
0.0
 11
19162.116236499991
 21
13434.78283
 31
0.0
  0
LINE
  5
491E
  8
SUNPOU
  6
CONTINUOUS
 62
     4
 10
19444.61847949999
 20
13434.78283
 30
0.0
 11
19402.116236499991
 21
13434.78283
 31
0.0
  0
LINE
  5
491F
  8
SUNPOU
  6
CONTINUOUS
 62
     4
 10
25981.61847949999
 20
13700.467479999999
 30
0.0
 11
25981.61847949999
 21
13354.78283
 31
0.0
  0
LINE
  5
4920
  8
SUNPOU
  6
CONTINUOUS
 62
     4
 10
26024.120722499989
 20
14283.733619000001
 30
0.0
 11
26024.120722499989
 21
13354.78283
 31
0.0
  0
LINE
  5
4921
  8
SUNPOU
  6
CONTINUOUS
 62
     4
 10
25981.61847949999
 20
13434.78283
 30
0.0
 11
25741.618479500001
 21
13434.78283
 31
0.0
  0
LINE
  5
4922
  8
SUNPOU
  6
CONTINUOUS
 62
     4
 10
26024.120722499989
 20
13434.78283
 30
0.0
 11
26264.120722499989
 21
13434.78283
 31
0.0
  0
LINE
  5
4923
  8
SUNPOU
  6
CONTINUOUS
 62
     4
 10
25981.61847949999
 20
13434.78283
 30
0.0
 11
26024.120722499989
 21
13434.78283
 31
0.0
  0
LINE
  5
4924
  8
2-0
  6
CONTINUOUS
 62
     3
 10
22670.61847949999
 20
14363.730913999991
 30
0.0
 11
22755.61847949999
 21
14363.730913999991
 31
0.0
  0
LINE
  5
4925
  8
2-0
  6
CONTINUOUS
 62
     3
 10
22755.61847949999
 20
14363.730913999991
 30
0.0
 11
22755.61847949999
 21
14448.730913999991
 31
0.0
  0
LINE
  5
4926
  8
2-0
  6
CONTINUOUS
 62
     3
 10
22755.61847949999
 20
14448.730913999991
 30
0.0
 11
22670.61847949999
 21
14448.730913999991
 31
0.0
  0
LINE
  5
4927
  8
2-0
  6
CONTINUOUS
 62
     3
 10
22670.61847949999
 20
14448.730913999991
 30
0.0
 11
22670.61847949999
 21
14363.730913999991
 31
0.0
  0
LINE
  5
4928
  8
SUNPOU
  6
CONTINUOUS
 62
     4
 10
25981.61847949999
 20
13700.467479999999
 30
0.0
 11
25981.61847949999
 21
13354.78283
 31
0.0
  0
LINE
  5
4929
  8
SUNPOU
  6
CONTINUOUS
 62
     4
 10
25939.116236499991
 20
14283.733619000001
 30
0.0
 11
25939.116236499991
 21
13354.78283
 31
0.0
  0
LINE
  5
492A
  8
SUNPOU
  6
CONTINUOUS
 62
     4
 10
25981.61847949999
 20
13434.78283
 30
0.0
 11
26221.61847949999
 21
13434.78283
 31
0.0
  0
LINE
  5
492B
  8
SUNPOU
  6
CONTINUOUS
 62
     4
 10
25939.116236499991
 20
13434.78283
 30
0.0
 11
25699.116236499991
 21
13434.78283
 31
0.0
  0
LINE
  5
492C
  8
SUNPOU
  6
CONTINUOUS
 62
     4
 10
25981.61847949999
 20
13434.78283
 30
0.0
 11
25939.116236499991
 21
13434.78283
 31
0.0
  0
LINE
  5
492D
  8
SUNPOU
  6
CONTINUOUS
 62
     4
 10
19444.61847949999
 20
13700.467479999999
 30
0.0
 11
19444.61847949999
 21
13354.78283
 31
0.0
  0
LINE
  5
492E
  8
SUNPOU
  6
CONTINUOUS
 62
     4
 10
19487.120722499989
 20
14283.733619000001
 30
0.0
 11
19487.120722499989
 21
13354.78283
 31
0.0
  0
LINE
  5
492F
  8
SUNPOU
  6
CONTINUOUS
 62
     4
 10
19444.61847949999
 20
13434.78283
 30
0.0
 11
19204.61847949999
 21
13434.78283
 31
0.0
  0
LINE
  5
4930
  8
SUNPOU
  6
CONTINUOUS
 62
     4
 10
19487.120722499989
 20
13434.78283
 30
0.0
 11
19727.120722499982
 21
13434.78283
 31
0.0
  0
LINE
  5
4931
  8
SUNPOU
  6
CONTINUOUS
 62
     4
 10
19444.61847949999
 20
13434.78283
 30
0.0
 11
19487.120722499989
 21
13434.78283
 31
0.0
  0
LINE
  5
4932
  8
SUNPOU
  6
CONTINUOUS
 62
     4
 10
19402.116236499991
 20
14283.733619000001
 30
0.0
 11
19402.116236499991
 21
12954.78283
 31
0.0
  0
LINE
  5
4933
  8
SUNPOU
  6
CONTINUOUS
 62
     4
 10
26024.120722499989
 20
14283.733619000001
 30
0.0
 11
26024.120722499989
 21
12954.78283
 31
0.0
  0
LINE
  5
4934
  8
SUNPOU
  6
CONTINUOUS
 62
     4
 10
19402.116236499991
 20
13034.78283
 30
0.0
 11
26024.120722499989
 21
13034.78283
 31
0.0
  0
LINE
  5
4935
  8
SUNPOU
  6
CONTINUOUS
 62
     4
 10
26104.116763499991
 20
15164.230913999991
 30
0.0
 11
27154.11808349998
 21
15164.230913999991
 31
0.0
  0
LINE
  5
4936
  8
SUNPOU
  6
CONTINUOUS
 62
     4
 10
26954.11808349999
 20
14406.230913999991
 30
0.0
 11
27154.11808349998
 21
14406.230913999991
 31
0.0
  0
LINE
  5
4937
  8
SUNPOU
  6
CONTINUOUS
 62
     4
 10
27074.11808349999
 20
15164.230913999991
 30
0.0
 11
27074.11808349999
 21
14406.230913999991
 31
0.0
  0
LINE
  5
4938
  8
SUNPOU
  6
CONTINUOUS
 62
     4
 10
26104.116763499991
 20
15865.471425500011
 30
0.0
 11
27154.11808349998
 21
15865.471425500011
 31
0.0
  0
LINE
  5
4939
  8
SUNPOU
  6
CONTINUOUS
 62
     4
 10
26104.116763499991
 20
15164.230913999991
 30
0.0
 11
27154.11808349998
 21
15164.230913999991
 31
0.0
  0
LINE
  5
493A
  8
SUNPOU
  6
CONTINUOUS
 62
     4
 10
27074.11808349999
 20
15865.471425500011
 30
0.0
 11
27074.11808349999
 21
15164.230913999991
 31
0.0
  0
LINE
  5
493B
  8
SUNPOU
  6
CONTINUOUS
 62
     4
 10
26104.116763499991
 20
16566.230914
 30
0.0
 11
27154.11808349998
 21
16566.230914
 31
0.0
  0
LINE
  5
493C
  8
SUNPOU
  6
CONTINUOUS
 62
     4
 10
26104.116763499991
 20
15865.471425500011
 30
0.0
 11
27154.11808349998
 21
15865.471425500011
 31
0.0
  0
LINE
  5
493D
  8
SUNPOU
  6
CONTINUOUS
 62
     4
 10
27074.11808349999
 20
16566.230914
 30
0.0
 11
27074.11808349999
 21
15865.471425500011
 31
0.0
  0
LINE
  5
493E
  8
SUNPOU
  6
CONTINUOUS
 62
     4
 10
26954.11808349999
 20
17324.230914
 30
0.0
 11
27154.11808349998
 21
17324.230914
 31
0.0
  0
LINE
  5
493F
  8
SUNPOU
  6
CONTINUOUS
 62
     4
 10
26104.116763499991
 20
16566.230914
 30
0.0
 11
27154.11808349998
 21
16566.230914
 31
0.0
  0
LINE
  5
4940
  8
SUNPOU
  6
CONTINUOUS
 62
     4
 10
27074.11808349999
 20
17324.230914
 30
0.0
 11
27074.11808349999
 21
16566.230914
 31
0.0
  0
LINE
  5
4941
  8
SUNPOU
  6
CONTINUOUS
 62
     4
 10
26104.116763499991
 20
18082.230914
 30
0.0
 11
27154.11808349998
 21
18082.230914
 31
0.0
  0
LINE
  5
4942
  8
SUNPOU
  6
CONTINUOUS
 62
     4
 10
26954.11808349999
 20
17324.230914
 30
0.0
 11
27154.11808349998
 21
17324.230914
 31
0.0
  0
LINE
  5
4943
  8
SUNPOU
  6
CONTINUOUS
 62
     4
 10
27074.11808349999
 20
18082.230914
 30
0.0
 11
27074.11808349999
 21
17324.230914
 31
0.0
  0
LINE
  5
4944
  8
SUNPOU
  6
CONTINUOUS
 62
     4
 10
26104.116763499991
 20
18783.230914
 30
0.0
 11
27154.11808349998
 21
18783.230914
 31
0.0
  0
LINE
  5
4945
  8
SUNPOU
  6
CONTINUOUS
 62
     4
 10
26104.116763499991
 20
18082.230914
 30
0.0
 11
27154.11808349998
 21
18082.230914
 31
0.0
  0
LINE
  5
4946
  8
SUNPOU
  6
CONTINUOUS
 62
     4
 10
27074.11808349999
 20
18783.230914
 30
0.0
 11
27074.11808349999
 21
18082.230914
 31
0.0
  0
LINE
  5
4947
  8
SUNPOU
  6
CONTINUOUS
 62
     4
 10
26104.116763499991
 20
19484.230914
 30
0.0
 11
27154.11808349998
 21
19484.230914
 31
0.0
  0
LINE
  5
4948
  8
SUNPOU
  6
CONTINUOUS
 62
     4
 10
26104.116763499991
 20
18783.230914
 30
0.0
 11
27154.11808349998
 21
18783.230914
 31
0.0
  0
LINE
  5
4949
  8
SUNPOU
  6
CONTINUOUS
 62
     4
 10
27074.11808349999
 20
19484.230914
 30
0.0
 11
27074.11808349999
 21
18783.230914
 31
0.0
  0
LINE
  5
494A
  8
SUNPOU
  6
CONTINUOUS
 62
     4
 10
26954.11808349999
 20
17324.230914
 30
0.0
 11
27554.11808349998
 21
17324.230914
 31
0.0
  0
LINE
  5
494B
  8
SUNPOU
  6
CONTINUOUS
 62
     4
 10
26954.11808349999
 20
19891.730914
 30
0.0
 11
27554.11808349998
 21
19891.730914
 31
0.0
  0
LINE
  5
494C
  8
SUNPOU
  6
CONTINUOUS
 62
     4
 10
27474.11808349998
 20
17324.230914
 30
0.0
 11
27474.11808349998
 21
19891.730914
 31
0.0
  0
LINE
  5
494D
  8
SUNPOU
  6
CONTINUOUS
 62
     4
 10
26954.11808349999
 20
14406.230913999991
 30
0.0
 11
27554.11808349998
 21
14406.230913999991
 31
0.0
  0
LINE
  5
494E
  8
SUNPOU
  6
CONTINUOUS
 62
     4
 10
26954.11808349999
 20
17324.230914
 30
0.0
 11
27554.11808349998
 21
17324.230914
 31
0.0
  0
LINE
  5
494F
  8
SUNPOU
  6
CONTINUOUS
 62
     4
 10
27474.11808349998
 20
14406.230913999991
 30
0.0
 11
27474.11808349998
 21
17324.230914
 31
0.0
  0
LINE
  5
4950
  8
SUNPOU
  6
CONTINUOUS
 62
     4
 10
26104.116763499991
 20
19934.228209000001
 30
0.0
 11
27954.11808349999
 21
19934.228209000001
 31
0.0
  0
LINE
  5
4951
  8
SUNPOU
  6
CONTINUOUS
 62
     4
 10
26104.116763499991
 20
14363.733619000001
 30
0.0
 11
27954.11808349999
 21
14363.733619000001
 31
0.0
  0
LINE
  5
4952
  8
SUNPOU
  6
CONTINUOUS
 62
     4
 10
27874.11808349999
 20
19934.228209000001
 30
0.0
 11
27874.11808349999
 21
14363.733619000001
 31
0.0
  0
LINE
  5
4953
  8
SUNPOU
  6
CONTINUOUS
 62
     4
 10
26954.11808349999
 20
19891.730914
 30
0.0
 11
27554.11808349998
 21
19891.730914
 31
0.0
  0
LINE
  5
4954
  8
SUNPOU
  6
CONTINUOUS
 62
     4
 10
26104.116763499991
 20
19934.228209000001
 30
0.0
 11
27554.11808349998
 21
19934.228209000001
 31
0.0
  0
LINE
  5
4955
  8
SUNPOU
  6
CONTINUOUS
 62
     4
 10
27474.11808349998
 20
19891.730914
 30
0.0
 11
27474.11808349998
 21
19651.730914
 31
0.0
  0
LINE
  5
4956
  8
SUNPOU
  6
CONTINUOUS
 62
     4
 10
27474.11808349998
 20
19934.228209000001
 30
0.0
 11
27474.11808349998
 21
20174.228209000001
 31
0.0
  0
LINE
  5
4957
  8
SUNPOU
  6
CONTINUOUS
 62
     4
 10
27474.11808349998
 20
19891.730914
 30
0.0
 11
27474.11808349998
 21
19934.228209000001
 31
0.0
  0
LINE
  5
4958
  8
SUNPOU
  6
CONTINUOUS
 62
     4
 10
26954.11808349999
 20
14406.230913999991
 30
0.0
 11
27554.11808349998
 21
14406.230913999991
 31
0.0
  0
LINE
  5
4959
  8
SUNPOU
  6
CONTINUOUS
 62
     4
 10
26104.116763499991
 20
14363.733619000001
 30
0.0
 11
27554.11808349998
 21
14363.733619000001
 31
0.0
  0
LINE
  5
495A
  8
SUNPOU
  6
CONTINUOUS
 62
     4
 10
27474.11808349998
 20
14406.230913999991
 30
0.0
 11
27474.11808349998
 21
14646.230913999991
 31
0.0
  0
LINE
  5
495B
  8
SUNPOU
  6
CONTINUOUS
 62
     4
 10
27474.11808349998
 20
14363.733619000001
 30
0.0
 11
27474.11808349998
 21
14123.733619000001
 31
0.0
  0
LINE
  5
495C
  8
SUNPOU
  6
CONTINUOUS
 62
     4
 10
27474.11808349998
 20
14406.230913999991
 30
0.0
 11
27474.11808349998
 21
14363.733619000001
 31
0.0
  0
LINE
  5
495D
  8
SUNPOU
  6
CONTINUOUS
 62
     4
 10
22713.118479499979
 20
20014.229199000009
 30
0.0
 11
22713.118479499979
 21
20744.232102000031
 31
0.0
  0
LINE
  5
495E
  8
SUNPOU
  6
CONTINUOUS
 62
     4
 10
23120.61847949999
 20
20014.229199000009
 30
0.0
 11
23120.61847949999
 21
20744.232102000031
 31
0.0
  0
LINE
  5
495F
  8
SUNPOU
  6
CONTINUOUS
 62
     4
 10
22713.118479499979
 20
20664.232102000031
 30
0.0
 11
23120.61847949999
 21
20664.232102000031
 31
0.0
  0
LINE
  5
4960
  8
SUNPOU
  6
CONTINUOUS
 62
     4
 10
25223.618479500001
 20
20014.229199000009
 30
0.0
 11
25223.618479500001
 21
20744.232102000031
 31
0.0
  0
LINE
  5
4961
  8
SUNPOU
  6
CONTINUOUS
 62
     4
 10
25981.619469000001
 20
20014.229199000009
 30
0.0
 11
25981.619469000001
 21
20744.232102000031
 31
0.0
  0
LINE
  5
4962
  8
SUNPOU
  6
CONTINUOUS
 62
     4
 10
25223.618479500001
 20
20664.232102000031
 30
0.0
 11
25981.619469000001
 21
20664.232102000031
 31
0.0
  0
LINE
  5
4963
  8
SUNPOU
  6
CONTINUOUS
 62
     4
 10
24522.618479500001
 20
20014.229199000009
 30
0.0
 11
24522.618479500001
 21
20744.232102000031
 31
0.0
  0
LINE
  5
4964
  8
SUNPOU
  6
CONTINUOUS
 62
     4
 10
25223.618479500001
 20
20014.229199000009
 30
0.0
 11
25223.618479500001
 21
20744.232102000031
 31
0.0
  0
LINE
  5
4965
  8
SUNPOU
  6
CONTINUOUS
 62
     4
 10
24522.618479500001
 20
20664.232102000031
 30
0.0
 11
25223.618479500001
 21
20664.232102000031
 31
0.0
  0
LINE
  5
4966
  8
SUNPOU
  6
CONTINUOUS
 62
     4
 10
23821.61847949999
 20
20014.229199000009
 30
0.0
 11
23821.61847949999
 21
20744.232102000031
 31
0.0
  0
LINE
  5
4967
  8
SUNPOU
  6
CONTINUOUS
 62
     4
 10
24522.618479500001
 20
20014.229199000009
 30
0.0
 11
24522.618479500001
 21
20744.232102000031
 31
0.0
  0
LINE
  5
4968
  8
SUNPOU
  6
CONTINUOUS
 62
     4
 10
23821.61847949999
 20
20664.232102000031
 30
0.0
 11
24522.618479500001
 21
20664.232102000031
 31
0.0
  0
LINE
  5
4969
  8
SUNPOU
  6
CONTINUOUS
 62
     4
 10
23120.61847949999
 20
20014.229199000009
 30
0.0
 11
23120.61847949999
 21
20744.232102000031
 31
0.0
  0
LINE
  5
496A
  8
SUNPOU
  6
CONTINUOUS
 62
     4
 10
23821.61847949999
 20
20014.229199000009
 30
0.0
 11
23821.61847949999
 21
20744.232102000031
 31
0.0
  0
LINE
  5
496B
  8
SUNPOU
  6
CONTINUOUS
 62
     4
 10
23120.61847949999
 20
20664.232102000031
 30
0.0
 11
23821.61847949999
 21
20664.232102000031
 31
0.0
  0
LINE
  5
496C
  8
SUNPOU
  6
CONTINUOUS
 62
     4
 10
25981.61847949999
 20
20014.229199000009
 30
0.0
 11
25981.61847949999
 21
20744.232102000031
 31
0.0
  0
LINE
  5
496D
  8
SUNPOU
  6
CONTINUOUS
 62
     4
 10
26024.114784500001
 20
20014.229199000009
 30
0.0
 11
26024.114784500001
 21
20744.232102000031
 31
0.0
  0
LINE
  5
496E
  8
SUNPOU
  6
CONTINUOUS
 62
     4
 10
25981.61847949999
 20
20664.232102000031
 30
0.0
 11
25741.618479500001
 21
20664.232102000031
 31
0.0
  0
LINE
  5
496F
  8
SUNPOU
  6
CONTINUOUS
 62
     4
 10
26024.114784500001
 20
20664.232102000031
 30
0.0
 11
26264.114784500001
 21
20664.232102000031
 31
0.0
  0
LINE
  5
4970
  8
SUNPOU
  6
CONTINUOUS
 62
     4
 10
25981.61847949999
 20
20664.232102000031
 30
0.0
 11
26024.114784500001
 21
20664.232102000031
 31
0.0
  0
LINE
  5
4971
  8
SUNPOU
  6
CONTINUOUS
 62
     4
 10
19444.61847949999
 20
20014.229199000009
 30
0.0
 11
19444.61847949999
 21
20744.232102000031
 31
0.0
  0
LINE
  5
4972
  8
SUNPOU
  6
CONTINUOUS
 62
     4
 10
19852.11847949999
 20
20014.229199000009
 30
0.0
 11
19852.11847949999
 21
20744.232102000031
 31
0.0
  0
LINE
  5
4973
  8
SUNPOU
  6
CONTINUOUS
 62
     4
 10
19444.61847949999
 20
20664.232102000031
 30
0.0
 11
19852.11847949999
 21
20664.232102000031
 31
0.0
  0
LINE
  5
4974
  8
SUNPOU
  6
CONTINUOUS
 62
     4
 10
19444.61847949999
 20
20014.229199000009
 30
0.0
 11
19444.61847949999
 21
20744.232102000031
 31
0.0
  0
LINE
  5
4975
  8
SUNPOU
  6
CONTINUOUS
 62
     4
 10
19402.122174499978
 20
20014.229199000009
 30
0.0
 11
19402.122174499978
 21
20744.232102000031
 31
0.0
  0
LINE
  5
4976
  8
SUNPOU
  6
CONTINUOUS
 62
     4
 10
19444.61847949999
 20
20664.232102000031
 30
0.0
 11
19684.61847949999
 21
20664.232102000031
 31
0.0
  0
LINE
  5
4977
  8
SUNPOU
  6
CONTINUOUS
 62
     4
 10
19402.122174499978
 20
20664.232102000031
 30
0.0
 11
19162.122174499978
 21
20664.232102000031
 31
0.0
  0
LINE
  5
4978
  8
SUNPOU
  6
CONTINUOUS
 62
     4
 10
19444.61847949999
 20
20664.232102000031
 30
0.0
 11
19402.122174499978
 21
20664.232102000031
 31
0.0
  0
LINE
  5
4979
  8
SUNPOU
  6
CONTINUOUS
 62
     4
 10
21955.11847949999
 20
20014.229199000009
 30
0.0
 11
21955.11847949999
 21
20744.232102000031
 31
0.0
  0
LINE
  5
497A
  8
SUNPOU
  6
CONTINUOUS
 62
     4
 10
22713.119469000001
 20
20014.229199000009
 30
0.0
 11
22713.119469000001
 21
20744.232102000031
 31
0.0
  0
LINE
  5
497B
  8
SUNPOU
  6
CONTINUOUS
 62
     4
 10
21955.11847949999
 20
20664.232102000031
 30
0.0
 11
22713.119469000001
 21
20664.232102000031
 31
0.0
  0
LINE
  5
497C
  8
SUNPOU
  6
CONTINUOUS
 62
     4
 10
21254.11847949999
 20
20014.229199000009
 30
0.0
 11
21254.11847949999
 21
20744.232102000031
 31
0.0
  0
LINE
  5
497D
  8
SUNPOU
  6
CONTINUOUS
 62
     4
 10
21955.11847949999
 20
20014.229199000009
 30
0.0
 11
21955.11847949999
 21
20744.232102000031
 31
0.0
  0
LINE
  5
497E
  8
SUNPOU
  6
CONTINUOUS
 62
     4
 10
21254.11847949999
 20
20664.232102000031
 30
0.0
 11
21955.11847949999
 21
20664.232102000031
 31
0.0
  0
LINE
  5
497F
  8
SUNPOU
  6
CONTINUOUS
 62
     4
 10
20553.118479500001
 20
20014.229199000009
 30
0.0
 11
20553.118479500001
 21
20744.232102000031
 31
0.0
  0
LINE
  5
4980
  8
SUNPOU
  6
CONTINUOUS
 62
     4
 10
21254.11847949999
 20
20014.229199000009
 30
0.0
 11
21254.11847949999
 21
20744.232102000031
 31
0.0
  0
LINE
  5
4981
  8
SUNPOU
  6
CONTINUOUS
 62
     4
 10
20553.118479500001
 20
20664.232102000031
 30
0.0
 11
21254.11847949999
 21
20664.232102000031
 31
0.0
  0
LINE
  5
4982
  8
SUNPOU
  6
CONTINUOUS
 62
     4
 10
19852.11847949999
 20
20014.229199000009
 30
0.0
 11
19852.11847949999
 21
20744.232102000031
 31
0.0
  0
LINE
  5
4983
  8
SUNPOU
  6
CONTINUOUS
 62
     4
 10
20553.118479500001
 20
20014.229199000009
 30
0.0
 11
20553.118479500001
 21
20744.232102000031
 31
0.0
  0
LINE
  5
4984
  8
SUNPOU
  6
CONTINUOUS
 62
     4
 10
19852.11847949999
 20
20664.232102000031
 30
0.0
 11
20553.118479500001
 21
20664.232102000031
 31
0.0
  0
LINE
  5
4985
  8
SUNPOU
  6
CONTINUOUS
 62
     4
 10
8769.3738785000023
 20
8722.9653796838102
 30
0.0
 11
8769.3738785000023
 21
9843.7812800000029
 31
0.0
  0
LINE
  5
4986
  8
SUNPOU
  6
CONTINUOUS
 62
     4
 10
8589.3738785000023
 20
8852.7796040000067
 30
0.0
 11
8589.3738785000023
 21
9843.7812800000029
 31
0.0
  0
LINE
  5
4987
  8
SUNPOU
  6
CONTINUOUS
 62
     4
 10
8769.3738785000023
 20
9763.7812800000029
 30
0.0
 11
8589.3738785000023
 21
9763.7812800000029
 31
0.0
  0
LINE
  5
4988
  8
SUNPOU
  6
CONTINUOUS
 62
     4
 10
19314.6178205
 20
6615.7796039999957
 30
0.0
 11
18514.619139499981
 21
6615.7796039999957
 31
0.0
  0
LINE
  5
4989
  8
SUNPOU
  6
CONTINUOUS
 62
     4
 10
19314.6178205
 20
8507.2796039999957
 30
0.0
 11
18514.619139499991
 21
8507.2796039999957
 31
0.0
  0
LINE
  5
498A
  8
SUNPOU
  6
CONTINUOUS
 62
     4
 10
18594.619139499991
 20
6615.7796039999957
 30
0.0
 11
18594.619139499991
 21
8507.2796039999957
 31
0.0
  0
LINE
  5
498B
  8
SUNPOU
  6
CONTINUOUS
 62
     4
 10
19314.6178205
 20
6615.7796039999957
 30
0.0
 11
18114.616830499981
 21
6615.7796039999957
 31
0.0
  0
LINE
  5
498C
  8
SUNPOU
  6
CONTINUOUS
 62
     4
 10
19282.11808449998
 20
8964.2791089999973
 30
0.0
 11
18114.616830499988
 21
8964.2791089999973
 31
0.0
  0
LINE
  5
498D
  8
SUNPOU
  6
CONTINUOUS
 62
     4
 10
18194.616830499981
 20
6615.7796039999957
 30
0.0
 11
18194.616830499988
 21
8964.2791089999973
 31
0.0
  0
LINE
  5
499E
  8
SUNPOU
  6
CONTINUOUS
 62
     4
 10
19538.61847949999
 20
6435.7797690000007
 30
0.0
 11
19538.61847949999
 21
5635.7797689999989
 31
0.0
  0
LINE
  5
499F
  8
SUNPOU
  6
CONTINUOUS
 62
     4
 10
22619.11847949999
 20
6435.7797690000007
 30
0.0
 11
22619.11847949999
 21
5635.7797689999989
 31
0.0
  0
LINE
  5
49A0
  8
SUNPOU
  6
CONTINUOUS
 62
     4
 10
19538.61847949999
 20
5715.7797689999998
 30
0.0
 11
22619.11847949999
 21
5715.7797689999998
 31
0.0
  0
LINE
  5
49A1
  8
SUNPOU
  6
CONTINUOUS
 62
     4
 10
22807.11847949999
 20
6435.7797690000007
 30
0.0
 11
22807.11847949999
 21
5635.7797689999989
 31
0.0
  0
LINE
  5
49A2
  8
SUNPOU
  6
CONTINUOUS
 62
     4
 10
25887.618479499979
 20
6435.7797690000007
 30
0.0
 11
25887.618479499979
 21
5635.7797689999989
 31
0.0
  0
LINE
  5
49A3
  8
SUNPOU
  6
CONTINUOUS
 62
     4
 10
22807.11847949999
 20
5715.7797689999998
 30
0.0
 11
25887.618479499979
 21
5715.7797689999998
 31
0.0
  0
LINE
  5
49A4
  8
SUNPOU
  6
CONTINUOUS
 62
     4
 10
22713.118479499979
 20
6173.1273459999966
 30
0.0
 11
22713.118479499979
 21
5235.7797689999998
 31
0.0
  0
LINE
  5
49A5
  8
SUNPOU
  6
CONTINUOUS
 62
     4
 10
25981.61847949999
 20
6173.1273459999966
 30
0.0
 11
25981.61847949999
 21
5235.7797689999998
 31
0.0
  0
LINE
  5
49A6
  8
SUNPOU
  6
CONTINUOUS
 62
     4
 10
22713.118479499979
 20
5315.7797690000016
 30
0.0
 11
25981.61847949999
 21
5315.7797690000016
 31
0.0
  0
LINE
  5
49A7
  8
SUNPOU
  6
CONTINUOUS
 62
     4
 10
19444.61847949999
 20
6173.1273459999966
 30
0.0
 11
19444.61847949999
 21
5235.7797689999998
 31
0.0
  0
LINE
  5
49A8
  8
SUNPOU
  6
CONTINUOUS
 62
     4
 10
22713.118479499979
 20
6173.1273459999966
 30
0.0
 11
22713.118479499979
 21
5235.7797689999998
 31
0.0
  0
LINE
  5
49A9
  8
SUNPOU
  6
CONTINUOUS
 62
     4
 10
19444.61847949999
 20
5315.7797690000016
 30
0.0
 11
22713.118479499979
 21
5315.7797690000016
 31
0.0
  0
LINE
  5
49AA
  8
SUNPOU
  6
CONTINUOUS
 62
     4
 10
25981.622438499999
 20
6173.1273459999966
 30
0.0
 11
25981.622438499999
 21
5235.7797689999998
 31
0.0
  0
LINE
  5
49AB
  8
SUNPOU
  6
CONTINUOUS
 62
     4
 10
26024.122438499991
 20
6435.7797690000007
 30
0.0
 11
26024.122438499991
 21
5235.7797689999998
 31
0.0
  0
LINE
  5
49AC
  8
SUNPOU
  6
CONTINUOUS
 62
     4
 10
25981.622438499999
 20
5315.7797690000016
 30
0.0
 11
25741.622438499999
 21
5315.7797690000016
 31
0.0
  0
LINE
  5
49AD
  8
SUNPOU
  6
CONTINUOUS
 62
     4
 10
26024.122438499991
 20
5315.7797690000016
 30
0.0
 11
26264.122438499991
 21
5315.7797690000016
 31
0.0
  0
LINE
  5
49AE
  8
SUNPOU
  6
CONTINUOUS
 62
     4
 10
25981.622438499999
 20
5315.7797690000016
 30
0.0
 11
26024.122438499991
 21
5315.7797690000016
 31
0.0
  0
LINE
  5
49AF
  8
SUNPOU
  6
CONTINUOUS
 62
     4
 10
19444.61847949999
 20
6173.1273459999966
 30
0.0
 11
19444.61847949999
 21
5235.7797689999998
 31
0.0
  0
LINE
  5
49B0
  8
SUNPOU
  6
CONTINUOUS
 62
     4
 10
19402.118479499979
 20
6435.7797690000007
 30
0.0
 11
19402.118479499979
 21
5235.7797689999998
 31
0.0
  0
LINE
  5
49B1
  8
SUNPOU
  6
CONTINUOUS
 62
     4
 10
19444.61847949999
 20
5315.7797690000016
 30
0.0
 11
19684.61847949999
 21
5315.7797690000016
 31
0.0
  0
LINE
  5
49B2
  8
SUNPOU
  6
CONTINUOUS
 62
     4
 10
19402.118479499979
 20
5315.7797690000016
 30
0.0
 11
19162.118479499979
 21
5315.7797690000016
 31
0.0
  0
LINE
  5
49B3
  8
SUNPOU
  6
CONTINUOUS
 62
     4
 10
19444.61847949999
 20
5315.7797690000016
 30
0.0
 11
19402.118479499979
 21
5315.7797690000016
 31
0.0
  0
LINE
  5
49B4
  8
SUNPOU
  6
CONTINUOUS
 62
     4
 10
19402.118479499979
 20
6435.7797690000007
 30
0.0
 11
19402.118479499979
 21
4835.7799339999983
 31
0.0
  0
LINE
  5
49B5
  8
SUNPOU
  6
CONTINUOUS
 62
     4
 10
26024.118479500001
 20
6435.7797690000007
 30
0.0
 11
26024.118479500001
 21
4835.7799339999983
 31
0.0
  0
LINE
  5
49B6
  8
SUNPOU
  6
CONTINUOUS
 62
     4
 10
19402.118479499979
 20
4915.7799339999983
 30
0.0
 11
26024.118479500001
 21
4915.7799339999983
 31
0.0
  0
LINE
  5
49B7
  8
SUNPOU
  6
CONTINUOUS
 62
     4
 10
14432.373878500001
 20
6615.7796040000021
 30
0.0
 11
15509.87229449999
 21
6615.7796040000021
 31
0.0
  0
LINE
  5
49B8
  8
SUNPOU
  6
CONTINUOUS
 62
     4
 10
14524.679158099359
 20
8964.279604000003
 30
0.0
 11
15509.87229449999
 21
8964.279604000003
 31
0.0
  0
LINE
  5
49B9
  8
SUNPOU
  6
CONTINUOUS
 62
     4
 10
15429.87229449999
 20
6615.7796040000021
 30
0.0
 11
15429.87229449999
 21
8964.279604000003
 31
0.0
  0
LINE
  5
49BA
  8
SUNPOU
  6
CONTINUOUS
 62
     4
 10
8681.8738785000005
 20
6615.7796040000021
 30
0.0
 11
7599.3754605000086
 21
6615.7796040000021
 31
0.0
  0
LINE
  5
49BB
  8
SUNPOU
  6
CONTINUOUS
 62
     4
 10
8509.3758565000026
 20
8771.7796040000067
 30
0.0
 11
7599.3754605000086
 21
8771.7796040000067
 31
0.0
  0
LINE
  5
49BC
  8
SUNPOU
  6
CONTINUOUS
 62
     4
 10
7679.3754605000104
 20
6615.7796040000021
 30
0.0
 11
7679.3754605000104
 21
8771.7796040000067
 31
0.0
  0
LINE
  5
49BD
  8
SUNPOU
  6
CONTINUOUS
 62
     4
 10
8589.3738785000023
 20
8852.7796040000067
 30
0.0
 11
8589.3738785000023
 21
10243.779630000001
 31
0.0
  0
LINE
  5
49BE
  8
SUNPOU
  6
CONTINUOUS
 62
     4
 10
14489.873878500001
 20
8984.6694274124347
 30
0.0
 11
14489.873878500001
 21
10243.779630000001
 31
0.0
  0
LINE
  5
49BF
  8
SUNPOU
  6
CONTINUOUS
 62
     4
 10
8589.3738785000023
 20
10163.779630000001
 30
0.0
 11
14489.873878500001
 21
10163.779630000001
 31
0.0
  0
LINE
  5
49C0
  8
SUNPOU
  6
CONTINUOUS
 62
     4
 10
14339.873878500001
 20
8910.6896680000063
 30
0.0
 11
14339.873878500001
 21
9843.7812800000029
 31
0.0
  0
LINE
  5
49C1
  8
SUNPOU
  6
CONTINUOUS
 62
     4
 10
14489.873878500001
 20
8984.6694274124347
 30
0.0
 11
14489.873878500001
 21
9843.7812800000029
 31
0.0
  0
LINE
  5
49C2
  8
SUNPOU
  6
CONTINUOUS
 62
     4
 10
14339.873878500001
 20
9763.7812800000029
 30
0.0
 11
14099.873878500001
 21
9763.7812800000029
 31
0.0
  0
LINE
  5
49C3
  8
SUNPOU
  6
CONTINUOUS
 62
     4
 10
14489.873878500001
 20
9763.7812800000029
 30
0.0
 11
14729.873878500001
 21
9763.7812800000029
 31
0.0
  0
LINE
  5
49C4
  8
SUNPOU
  6
CONTINUOUS
 62
     4
 10
14339.873878500001
 20
9763.7812800000029
 30
0.0
 11
14489.873878500001
 21
9763.7812800000029
 31
0.0
  0
LINE
  5
49C5
  8
SUNPOU
  6
CONTINUOUS
 62
     4
 10
8769.3738785000023
 20
8722.9653796838102
 30
0.0
 11
8769.3738785000023
 21
9843.7812800000029
 31
0.0
  0
LINE
  5
49C6
  8
SUNPOU
  6
CONTINUOUS
 62
     4
 10
14339.873878500001
 20
8910.6896680000063
 30
0.0
 11
14339.873878500001
 21
9843.7812800000029
 31
0.0
  0
LINE
  5
49C7
  8
SUNPOU
  6
CONTINUOUS
 62
     4
 10
8769.3738785000023
 20
9763.7812800000029
 30
0.0
 11
14339.873878500001
 21
9763.7812800000029
 31
0.0
  0
LINE
  5
49C8
  8
SUNPOU
  6
CONTINUOUS
 62
     4
 10
8769.3738785000023
 20
6535.7796040000076
 30
0.0
 11
8769.3738785000023
 21
4835.7799340000038
 31
0.0
  0
LINE
  5
49C9
  8
SUNPOU
  6
CONTINUOUS
 62
     4
 10
14339.873878500001
 20
6535.7796040000076
 30
0.0
 11
14339.873878500001
 21
4835.7799340000038
 31
0.0
  0
LINE
  5
49CA
  8
SUNPOU
  6
CONTINUOUS
 62
     4
 10
8769.3738785000023
 20
4915.7799340000047
 30
0.0
 11
14339.873878500001
 21
4915.7799340000047
 31
0.0
  0
LINE
  5
49CB
  8
SUNPOU
  6
CONTINUOUS
 62
     4
 10
14297.373878500001
 20
6173.1273460000039
 30
0.0
 11
14297.373878500001
 21
5235.7797690000043
 31
0.0
  0
LINE
  5
49CC
  8
SUNPOU
  6
CONTINUOUS
 62
     4
 10
14339.873878500001
 20
6535.7796040000076
 30
0.0
 11
14339.873878500001
 21
5235.7797690000043
 31
0.0
  0
LINE
  5
49CD
  8
SUNPOU
  6
CONTINUOUS
 62
     4
 10
14297.373878500001
 20
5315.7797690000052
 30
0.0
 11
14057.373878500001
 21
5315.7797690000052
 31
0.0
  0
LINE
  5
49CE
  8
SUNPOU
  6
CONTINUOUS
 62
     4
 10
14339.873878500001
 20
5315.7797690000052
 30
0.0
 11
14579.873878500001
 21
5315.7797690000052
 31
0.0
  0
LINE
  5
49CF
  8
SUNPOU
  6
CONTINUOUS
 62
     4
 10
14297.373878500001
 20
5315.7797690000052
 30
0.0
 11
14339.873878500001
 21
5315.7797690000052
 31
0.0
  0
LINE
  5
49D0
  8
SUNPOU
  6
CONTINUOUS
 62
     4
 10
8811.8738785000005
 20
6173.1273460000039
 30
0.0
 11
8811.8738785000005
 21
5235.7797690000043
 31
0.0
  0
LINE
  5
49D1
  8
SUNPOU
  6
CONTINUOUS
 62
     4
 10
8769.3738785000023
 20
6535.7796040000076
 30
0.0
 11
8769.3738785000023
 21
5235.7797690000043
 31
0.0
  0
LINE
  5
49D2
  8
SUNPOU
  6
CONTINUOUS
 62
     4
 10
8811.8738785000005
 20
5315.7797690000052
 30
0.0
 11
9051.8738785000023
 21
5315.7797690000052
 31
0.0
  0
LINE
  5
49D3
  8
SUNPOU
  6
CONTINUOUS
 62
     4
 10
8769.3738785000023
 20
5315.7797690000052
 30
0.0
 11
8529.3738785000023
 21
5315.7797690000052
 31
0.0
  0
LINE
  5
49D4
  8
SUNPOU
  6
CONTINUOUS
 62
     4
 10
8811.8738785000005
 20
5315.7797690000052
 30
0.0
 11
8769.3738785000023
 21
5315.7797690000052
 31
0.0
  0
LINE
  5
49D5
  8
SUNPOU
  6
CONTINUOUS
 62
     4
 10
11379.373878500001
 20
6173.1273460000039
 30
0.0
 11
11379.373878500001
 21
5235.7797690000043
 31
0.0
  0
LINE
  5
49D6
  8
SUNPOU
  6
CONTINUOUS
 62
     4
 10
8811.8738785000005
 20
6173.1273460000039
 30
0.0
 11
8811.8738785000005
 21
5235.7797690000043
 31
0.0
  0
LINE
  5
49D7
  8
SUNPOU
  6
CONTINUOUS
 62
     4
 10
11379.373878500001
 20
5315.7797690000052
 30
0.0
 11
8811.8738785000005
 21
5315.7797690000052
 31
0.0
  0
LINE
  5
49D8
  8
SUNPOU
  6
CONTINUOUS
 62
     4
 10
11379.373878500001
 20
6173.1273460000039
 30
0.0
 11
11379.373878500001
 21
5235.7797690000043
 31
0.0
  0
LINE
  5
49D9
  8
SUNPOU
  6
CONTINUOUS
 62
     4
 10
14297.373878500001
 20
6173.1273460000039
 30
0.0
 11
14297.373878500001
 21
5235.7797690000043
 31
0.0
  0
LINE
  5
49DA
  8
SUNPOU
  6
CONTINUOUS
 62
     4
 10
11379.373878500001
 20
5315.7797690000052
 30
0.0
 11
14297.373878500001
 21
5315.7797690000052
 31
0.0
  0
TEXT
  5
49DB
  8
0
  6
CONTINUOUS
 62
     7
 10
12571.707211833331
 20
5395.7797690000043
 30
0.0
 40
160.0
  1
2918
  0
TEXT
  5
49DC
  8
0
  6
CONTINUOUS
 62
     7
 10
9695.6238785000023
 20
5395.7797690000043
 30
0.0
 40
160.0
  1
2567.5
  0
TEXT
  5
49DD
  8
0
  6
CONTINUOUS
 62
     7
 10
8172.2001694036962
 20
5395.7797690000043
 30
0.0
 40
160.0
  1
42.5
  0
TEXT
  5
49DE
  8
0
  6
CONTINUOUS
 62
     7
 10
14478.192515809809
 20
5395.7797690000043
 30
0.0
 40
160.0
  1
42.5
  0
TEXT
  5
49DF
  8
0
  6
CONTINUOUS
 62
     7
 10
11167.957211833331
 20
4995.7799340000047
 30
0.0
 40
160.0
  1
5570.5
  0
TEXT
  5
49E0
  8
0
  6
CONTINUOUS
 62
     7
 10
11167.957211833331
 20
9843.7812800000029
 30
0.0
 40
160.0
  1
5570.5
  0
TEXT
  5
49E1
  8
0
  6
CONTINUOUS
 62
     7
 10
14556.54054516667
 20
9843.7812800000029
 30
0.0
 40
160.0
  1
150
  0
TEXT
  5
49E2
  8
0
  6
CONTINUOUS
 62
     7
 10
11166.29054516667
 20
10243.779630000001
 30
0.0
 40
160.0
  1
5900.5
  0
TEXT
  5
49E3
  8
0
  6
CONTINUOUS
 62
     7
 10
7599.3754605000086
 20
6915.112937333337
 30
0.0
 40
160.0
  1
2156（2396）
 50
90.0
  0
TEXT
  5
49E4
  8
0
  6
CONTINUOUS
 62
     7
 10
15349.87229449999
 20
6771.362937333337
 30
0.0
 40
160.0
  1
2348.5（2588.5）
 50
90.0
  0
TEXT
  5
49E5
  8
0
  6
CONTINUOUS
 62
     7
 10
22419.785146166661
 20
4995.7799339999983
 30
0.0
 40
160.0
  1
6622
  0
TEXT
  5
49E6
  8
0
  6
CONTINUOUS
 62
     7
 10
18836.07948924115
 20
5395.7797689999998
 30
0.0
 40
160.0
  1
42.5
  0
TEXT
  5
49E7
  8
0
  6
CONTINUOUS
 62
     7
 10
26110.161428758849
 20
5395.7797689999998
 30
0.0
 40
160.0
  1
42.5
  0
TEXT
  5
49E8
  8
0
  6
CONTINUOUS
 62
     7
 10
20678.868479500001
 20
5395.7797689999998
 30
0.0
 40
160.0
  1
3268.5
  0
TEXT
  5
49E9
  8
0
  6
CONTINUOUS
 62
     7
 10
23947.36847949999
 20
5395.7797689999998
 30
0.0
 40
160.0
  1
3268.5
  0
TEXT
  5
49EA
  8
0
  6
CONTINUOUS
 62
     7
 10
23446.035146166661
 20
5795.7797690000007
 30
0.0
 40
160.0
  1
有効開口巾 3080.5
  0
TEXT
  5
49EB
  8
0
  6
CONTINUOUS
 62
     7
 10
20177.535146166661
 20
5795.7797690000007
 30
0.0
 40
160.0
  1
有効開口巾 3080.5
  0
TEXT
  5
49F0
  8
0
  6
CONTINUOUS
 62
     7
 10
18114.616830499981
 20
6771.3626898333332
 30
0.0
 40
160.0
  1
2348.5（2588.5）
 50
90.0
  0
TEXT
  5
49F1
  8
0
  6
CONTINUOUS
 62
     7
 10
18514.619139499991
 20
6679.7588422912713
 30
0.0
 40
160.0
  1
有効開口高サ 1891.5
 50
90.0
  0
TEXT
  5
49F2
  8
0
  6
CONTINUOUS
 62
     7
 10
8128.4205078486357
 20
9843.7812800000029
 30
0.0
 40
160.0
  1
180
  0
TEXT
  5
49F3
  8
0
  6
CONTINUOUS
 62
     7
 10
20029.285146166661
 20
20424.232102000031
 30
0.0
 40
160.0
  1
701
  0
TEXT
  5
49F4
  8
0
  6
CONTINUOUS
 62
     7
 10
20730.285146166661
 20
20744.232102000031
 30
0.0
 40
160.0
  1
701
  0
TEXT
  5
49F5
  8
0
  6
CONTINUOUS
 62
     7
 10
21431.285146166661
 20
20744.232102000031
 30
0.0
 40
160.0
  1
701
  0
TEXT
  5
49F6
  8
0
  6
CONTINUOUS
 62
     7
 10
22120.785640916671
 20
20744.232102000031
 30
0.0
 40
160.0
  1
758
  0
TEXT
  5
49F7
  8
0
  6
CONTINUOUS
 62
     7
 10
18841.806499971179
 20
20744.232102000031
 30
0.0
 40
160.0
  1
42.5
  0
TEXT
  5
49F8
  8
0
  6
CONTINUOUS
 62
     7
 10
19545.451812833318
 20
20744.232102000031
 30
0.0
 40
160.0
  1
407.5
  0
TEXT
  5
49F9
  8
0
  6
CONTINUOUS
 62
     7
 10
26104.43045902879
 20
20744.232102000031
 30
0.0
 40
160.0
  1
42.5
  0
TEXT
  5
49FA
  8
0
  6
CONTINUOUS
 62
     7
 10
23297.785146166661
 20
20424.232102000031
 30
0.0
 40
160.0
  1
701
  0
TEXT
  5
49FB
  8
0
  6
CONTINUOUS
 62
     7
 10
23998.785146166661
 20
20744.232102000031
 30
0.0
 40
160.0
  1
701
  0
TEXT
  5
49FC
  8
0
  6
CONTINUOUS
 62
     7
 10
24699.785146166661
 20
20744.232102000031
 30
0.0
 40
160.0
  1
701
  0
TEXT
  5
49FD
  8
0
  6
CONTINUOUS
 62
     7
 10
25389.285640916671
 20
20744.232102000031
 30
0.0
 40
160.0
  1
758
  0
TEXT
  5
49FE
  8
0
  6
CONTINUOUS
 62
     7
 10
22813.951812833329
 20
20744.232102000031
 30
0.0
 40
160.0
  1
407.5
  0
TEXT
  5
49FF
  8
0
  6
CONTINUOUS
 62
     7
 10
27394.11808349998
 20
13790.1773826032
 30
0.0
 40
160.0
  1
42.5
 50
90.0
  0
TEXT
  5
4A00
  8
0
  6
CONTINUOUS
 62
     7
 10
27394.11808349998
 20
20027.784445396788
 30
0.0
 40
160.0
  1
42.5
 50
90.0
  0
TEXT
  5
4A01
  8
0
  6
CONTINUOUS
 62
     7
 10
27794.11808349999
 20
16762.314247333339
 30
0.0
 40
160.0
  1
5570.5
 50
90.0
  0
TEXT
  5
4A02
  8
0
  6
CONTINUOUS
 62
     7
 10
27394.11808349998
 20
15598.56424733333
 30
0.0
 40
160.0
  1
2918
 50
90.0
  0
TEXT
  5
4A03
  8
0
  6
CONTINUOUS
 62
     7
 10
27394.11808349998
 20
18207.980914
 30
0.0
 40
160.0
  1
2567.5
 50
90.0
  0
TEXT
  5
4A04
  8
0
  6
CONTINUOUS
 62
     7
 10
26994.11808349999
 20
18960.397580666671
 30
0.0
 40
160.0
  1
701
 50
90.0
  0
TEXT
  5
4A05
  8
0
  6
CONTINUOUS
 62
     7
 10
26994.11808349999
 20
18259.397580666671
 30
0.0
 40
160.0
  1
701
 50
90.0
  0
TEXT
  5
4A06
  8
0
  6
CONTINUOUS
 62
     7
 10
26994.11808349999
 20
17489.897580666671
 30
0.0
 40
160.0
  1
758
 50
90.0
  0
TEXT
  5
4A07
  8
0
  6
CONTINUOUS
 62
     7
 10
26994.11808349999
 20
16731.897580666671
 30
0.0
 40
160.0
  1
758
 50
90.0
  0
TEXT
  5
4A08
  8
0
  6
CONTINUOUS
 62
     7
 10
26994.11808349999
 20
16042.51783641668
 30
0.0
 40
160.0
  1
701
 50
90.0
  0
TEXT
  5
4A09
  8
0
  6
CONTINUOUS
 62
     7
 10
26994.11808349999
 20
15341.51783641668
 30
0.0
 40
160.0
  1
701
 50
90.0
  0
TEXT
  5
4A0A
  8
0
  6
CONTINUOUS
 62
     7
 10
26994.11808349999
 20
14571.89758066666
 30
0.0
 40
160.0
  1
758
 50
90.0
  0
TEXT
  5
4A0B
  8
0
  6
CONTINUOUS
 62
     7
 10
22419.785146166669
 20
13114.78283
 30
0.0
 40
160.0
  1
6622
  0
TEXT
  5
4A0C
  8
0
  6
CONTINUOUS
 62
     7
 10
19562.672151882081
 20
13514.78283
 30
0.0
 40
160.0
  1
42.5
  0
TEXT
  5
4A0D
  8
0
  6
CONTINUOUS
 62
     7
 10
25383.564807117891
 20
13514.78283
 30
0.0
 40
160.0
  1
42.5
  0
TEXT
  5
4A0E
  8
0
  6
CONTINUOUS
 62
     7
 10
26099.672151882089
 20
13514.78283
 30
0.0
 40
160.0
  1
42.5
  0
TEXT
  5
4A0F
  8
0
  6
CONTINUOUS
 62
     7
 10
18846.56480711788
 20
13514.78283
 30
0.0
 40
160.0
  1
42.5
  0
TEXT
  5
4A10
  8
0
  6
CONTINUOUS
 62
     7
 10
18435.163902499989
 20
14869.18450308333
 30
0.0
 40
160.0
  1
1459
 50
90.0
  0
TEXT
  5
4A11
  8
0
  6
CONTINUOUS
 62
     7
 10
18435.163902499989
 20
16328.184503083339
 30
0.0
 40
160.0
  1
1459
 50
90.0
  0
TEXT
  5
4A12
  8
0
  6
CONTINUOUS
 62
     7
 10
18435.163902499989
 20
17787.06424733331
 30
0.0
 40
160.0
  1
1459
 50
90.0
  0
TEXT
  5
4A13
  8
0
  6
CONTINUOUS
 62
     7
 10
18435.163902499989
 20
19004.147580666671
 30
0.0
 40
160.0
  1
1108.5
 50
90.0
  0
TEXT
  5
4A14
  8
0
  6
CONTINUOUS
 62
     7
 10
27354.11808349998
 20
19193.608881643198
 30
0.0
 40
160.0
  1
407.5
 50
90.0
  0
TEXT
  5
4A15
  8
0
  6
CONTINUOUS
 62
     7
 10
7429.1596144999867
 20
13598.27790370263
 30
0.0
 40
160.0
  1
192.5
 50
90.0
  0
TEXT
  5
4A16
  8
0
  6
CONTINUOUS
 62
     7
 10
7429.1596144999903
 20
14869.06424733333
 30
0.0
 40
160.0
  1
1459
 50
90.0
  0
TEXT
  5
4A17
  8
0
  6
CONTINUOUS
 62
     7
 10
7429.1596144999903
 20
16328.06424733333
 30
0.0
 40
160.0
  1
1459
 50
90.0
  0
TEXT
  5
4A18
  8
0
  6
CONTINUOUS
 62
     7
 10
7429.1596144999903
 20
17787.06424733331
 30
0.0
 40
160.0
  1
1459
 50
90.0
  0
TEXT
  5
4A19
  8
0
  6
CONTINUOUS
 62
     7
 10
7429.1596144999903
 20
19004.14758066666
 30
0.0
 40
160.0
  1
1108.5
 50
90.0
  0
TEXT
  5
4A1A
  8
0
  6
CONTINUOUS
 62
     7
 10
7429.1596144999867
 20
20203.186098807681
 30
0.0
 40
160.0
  1
222.5
 50
90.0
  0
TEXT
  5
4A1B
  8
0
  6
CONTINUOUS
 62
     7
 10
7829.1596144999903
 20
20234.226823000001
 30
0.0
 40
160.0
  1
20
 50
90.0
  0
TEXT
  5
4A1C
  8
0
  6
CONTINUOUS
 62
     7
 10
12941.40345249997
 20
20744.236061
 30
0.0
 40
160.0
  1
3268.5
  0
TEXT
  5
4A1D
  8
0
  6
CONTINUOUS
 62
     7
 10
15112.15015852324
 20
20744.236061
 30
0.0
 40
160.0
  1
85.5
  0
TEXT
  5
4A1E
  8
0
  6
CONTINUOUS
 62
     7
 10
9672.9153285000084
 20
20744.236061
 30
0.0
 40
160.0
  1
3268.5
  0
TEXT
  5
4A1F
  8
0
  6
CONTINUOUS
 62
     7
 10
7822.1686224767491
 20
20744.236061
 30
0.0
 40
160.0
  1
85.5
  0
ARC
  5
4A25
  8
0
  6
BYBLOCK
 62
     0
 10
8438.6653285000066
 20
20664.236061
 30
0.0
 40
15.0
 50
0.0
 51
180.0
  0
ARC
  5
4A26
  8
0
  6
BYBLOCK
 62
     0
 10
8438.6653285000066
 20
20664.236061
 30
0.0
 40
15.0
 50
180.0
 51
0.0
  0
ARC
  5
4A27
  8
0
  6
BYBLOCK
 62
     0
 10
8353.1653285000066
 20
20664.236061
 30
0.0
 40
15.0
 50
180.0
 51
0.0
  0
ARC
  5
4A28
  8
0
  6
BYBLOCK
 62
     0
 10
8353.1653285000066
 20
20664.236061
 30
0.0
 40
15.0
 50
0.0
 51
180.0
  0
ARC
  5
4A29
  8
0
  6
BYBLOCK
 62
     0
 10
11707.16532849999
 20
20664.236061
 30
0.0
 40
15.0
 50
180.0
 51
0.0
  0
ARC
  5
4A2A
  8
0
  6
BYBLOCK
 62
     0
 10
11707.16532849999
 20
20664.236061
 30
0.0
 40
15.0
 50
0.0
 51
180.0
  0
ARC
  5
4A2B
  8
0
  6
BYBLOCK
 62
     0
 10
8438.6653285000066
 20
20664.236061
 30
0.0
 40
15.0
 50
0.0
 51
180.0
  0
ARC
  5
4A2C
  8
0
  6
BYBLOCK
 62
     0
 10
8438.6653285000066
 20
20664.236061
 30
0.0
 40
15.0
 50
180.0
 51
0.0
  0
ARC
  5
4A2D
  8
0
  6
BYBLOCK
 62
     0
 10
14975.653452499961
 20
20664.236061
 30
0.0
 40
15.0
 50
180.0
 51
0.0
  0
ARC
  5
4A2E
  8
0
  6
BYBLOCK
 62
     0
 10
14975.653452499961
 20
20664.236061
 30
0.0
 40
15.0
 50
0.0
 51
180.0
  0
ARC
  5
4A2F
  8
0
  6
BYBLOCK
 62
     0
 10
15061.153452499961
 20
20664.236061
 30
0.0
 40
15.0
 50
0.0
 51
180.0
  0
ARC
  5
4A30
  8
0
  6
BYBLOCK
 62
     0
 10
15061.153452499961
 20
20664.236061
 30
0.0
 40
15.0
 50
180.0
 51
0.0
  0
ARC
  5
4A31
  8
0
  6
BYBLOCK
 62
     0
 10
11707.15345249997
 20
20664.236061
 30
0.0
 40
15.0
 50
0.0
 51
180.0
  0
ARC
  5
4A32
  8
0
  6
BYBLOCK
 62
     0
 10
11707.15345249997
 20
20664.236061
 30
0.0
 40
15.0
 50
180.0
 51
0.0
  0
ARC
  5
4A33
  8
0
  6
BYBLOCK
 62
     0
 10
14975.653452499961
 20
20664.236061
 30
0.0
 40
15.0
 50
180.0
 51
0.0
  0
ARC
  5
4A34
  8
0
  6
BYBLOCK
 62
     0
 10
14975.653452499961
 20
20664.236061
 30
0.0
 40
15.0
 50
0.0
 51
180.0
  0
ARC
  5
4A35
  8
0
  6
BYBLOCK
 62
     0
 10
7909.1596144999912
 20
20094.226823000001
 30
0.0
 40
15.0
 50
270.0
 51
90.0
  0
ARC
  5
4A36
  8
0
  6
BYBLOCK
 62
     0
 10
7909.1596144999912
 20
20094.226823000001
 30
0.0
 40
15.0
 50
90.0
 51
270.0
  0
ARC
  5
4A37
  8
0
  6
BYBLOCK
 62
     0
 10
7909.1596144999912
 20
20114.226823000001
 30
0.0
 40
15.0
 50
90.0
 51
270.0
  0
ARC
  5
4A38
  8
0
  6
BYBLOCK
 62
     0
 10
7909.1596144999912
 20
20114.226823000001
 30
0.0
 40
15.0
 50
270.0
 51
90.0
  0
ARC
  5
4A39
  8
0
  6
BYBLOCK
 62
     0
 10
7509.1596144999912
 20
19891.730914
 30
0.0
 40
15.0
 50
90.0
 51
270.0
  0
ARC
  5
4A3A
  8
0
  6
BYBLOCK
 62
     0
 10
7509.1596144999912
 20
19891.730914
 30
0.0
 40
15.0
 50
270.0
 51
90.0
  0
ARC
  5
4A3B
  8
0
  6
BYBLOCK
 62
     0
 10
7509.1596144999912
 20
20114.226823000001
 30
0.0
 40
15.0
 50
270.0
 51
90.0
  0
ARC
  5
4A3C
  8
0
  6
BYBLOCK
 62
     0
 10
7509.1596144999912
 20
20114.226823000001
 30
0.0
 40
15.0
 50
90.0
 51
270.0
  0
ARC
  5
4A3D
  8
0
  6
BYBLOCK
 62
     0
 10
7509.1596144999912
 20
18783.230914
 30
0.0
 40
15.0
 50
90.0
 51
270.0
  0
ARC
  5
4A3E
  8
0
  6
BYBLOCK
 62
     0
 10
7509.1596144999912
 20
18783.230914
 30
0.0
 40
15.0
 50
270.0
 51
90.0
  0
ARC
  5
4A3F
  8
0
  6
BYBLOCK
 62
     0
 10
7509.1596144999912
 20
19891.730914
 30
0.0
 40
15.0
 50
270.0
 51
90.0
  0
ARC
  5
4A40
  8
0
  6
BYBLOCK
 62
     0
 10
7509.1596144999912
 20
19891.730914
 30
0.0
 40
15.0
 50
90.0
 51
270.0
  0
ARC
  5
4A41
  8
0
  6
BYBLOCK
 62
     0
 10
7509.1596144999912
 20
17324.230914
 30
0.0
 40
15.0
 50
90.0
 51
270.0
  0
ARC
  5
4A42
  8
0
  6
BYBLOCK
 62
     0
 10
7509.1596144999912
 20
17324.230914
 30
0.0
 40
15.0
 50
270.0
 51
90.0
  0
ARC
  5
4A43
  8
0
  6
BYBLOCK
 62
     0
 10
7509.1596144999912
 20
18783.230914
 30
0.0
 40
15.0
 50
270.0
 51
90.0
  0
ARC
  5
4A44
  8
0
  6
BYBLOCK
 62
     0
 10
7509.1596144999912
 20
18783.230914
 30
0.0
 40
15.0
 50
90.0
 51
270.0
  0
ARC
  5
4A45
  8
0
  6
BYBLOCK
 62
     0
 10
7509.1596144999912
 20
15865.230913999991
 30
0.0
 40
15.0
 50
90.0
 51
270.0
  0
ARC
  5
4A46
  8
0
  6
BYBLOCK
 62
     0
 10
7509.1596144999912
 20
15865.230913999991
 30
0.0
 40
15.0
 50
270.0
 51
90.0
  0
ARC
  5
4A47
  8
0
  6
BYBLOCK
 62
     0
 10
7509.1596144999912
 20
17324.230914
 30
0.0
 40
15.0
 50
270.0
 51
90.0
  0
ARC
  5
4A48
  8
0
  6
BYBLOCK
 62
     0
 10
7509.1596144999912
 20
17324.230914
 30
0.0
 40
15.0
 50
90.0
 51
270.0
  0
ARC
  5
4A49
  8
0
  6
BYBLOCK
 62
     0
 10
7509.1596144999912
 20
14406.230913999991
 30
0.0
 40
15.0
 50
90.0
 51
270.0
  0
ARC
  5
4A4A
  8
0
  6
BYBLOCK
 62
     0
 10
7509.1596144999912
 20
14406.230913999991
 30
0.0
 40
15.0
 50
270.0
 51
90.0
  0
ARC
  5
4A4B
  8
0
  6
BYBLOCK
 62
     0
 10
7509.1596144999912
 20
15865.230913999991
 30
0.0
 40
15.0
 50
270.0
 51
90.0
  0
ARC
  5
4A4C
  8
0
  6
BYBLOCK
 62
     0
 10
7509.1596144999912
 20
15865.230913999991
 30
0.0
 40
15.0
 50
90.0
 51
270.0
  0
ARC
  5
4A4D
  8
0
  6
BYBLOCK
 62
     0
 10
7509.1596144999976
 20
14406.230913999991
 30
0.0
 40
15.0
 50
270.0
 51
90.0
  0
ARC
  5
4A4E
  8
0
  6
BYBLOCK
 62
     0
 10
7509.1596144999976
 20
14406.230913999991
 30
0.0
 40
15.0
 50
90.0
 51
270.0
  0
ARC
  5
4A4F
  8
0
  6
BYBLOCK
 62
     0
 10
7509.1596144999912
 20
14213.735599
 30
0.0
 40
15.0
 50
90.0
 51
270.0
  0
ARC
  5
4A50
  8
0
  6
BYBLOCK
 62
     0
 10
7509.1596144999912
 20
14213.735599
 30
0.0
 40
15.0
 50
270.0
 51
90.0
  0
ARC
  5
4A51
  8
0
  6
BYBLOCK
 62
     0
 10
27074.11808349999
 20
19484.230914
 30
0.0
 40
15.0
 50
90.0
 51
270.0
  0
ARC
  5
4A52
  8
0
  6
BYBLOCK
 62
     0
 10
27074.11808349999
 20
19484.230914
 30
0.0
 40
15.0
 50
270.0
 51
90.0
  0
ARC
  5
4A53
  8
0
  6
BYBLOCK
 62
     0
 10
27074.11808349999
 20
19891.730914
 30
0.0
 40
15.0
 50
270.0
 51
90.0
  0
ARC
  5
4A54
  8
0
  6
BYBLOCK
 62
     0
 10
27074.11808349999
 20
19891.730914
 30
0.0
 40
15.0
 50
90.0
 51
270.0
  0
ARC
  5
4A55
  8
0
  6
BYBLOCK
 62
     0
 10
18515.163902499989
 20
18783.230914
 30
0.0
 40
15.0
 50
90.0
 51
270.0
  0
ARC
  5
4A56
  8
0
  6
BYBLOCK
 62
     0
 10
18515.163902499989
 20
18783.230914
 30
0.0
 40
15.0
 50
270.0
 51
90.0
  0
ARC
  5
4A57
  8
0
  6
BYBLOCK
 62
     0
 10
18515.163902499989
 20
19891.730914
 30
0.0
 40
15.0
 50
270.0
 51
90.0
  0
ARC
  5
4A58
  8
0
  6
BYBLOCK
 62
     0
 10
18515.163902499989
 20
19891.730914
 30
0.0
 40
15.0
 50
90.0
 51
270.0
  0
ARC
  5
4A59
  8
0
  6
BYBLOCK
 62
     0
 10
18515.163902499989
 20
17324.230914
 30
0.0
 40
15.0
 50
90.0
 51
270.0
  0
ARC
  5
4A5A
  8
0
  6
BYBLOCK
 62
     0
 10
18515.163902499989
 20
17324.230914
 30
0.0
 40
15.0
 50
270.0
 51
90.0
  0
ARC
  5
4A5B
  8
0
  6
BYBLOCK
 62
     0
 10
18515.163902499989
 20
18783.230914
 30
0.0
 40
15.0
 50
270.0
 51
90.0
  0
ARC
  5
4A5C
  8
0
  6
BYBLOCK
 62
     0
 10
18515.163902499989
 20
18783.230914
 30
0.0
 40
15.0
 50
90.0
 51
270.0
  0
ARC
  5
4A5D
  8
0
  6
BYBLOCK
 62
     0
 10
18515.163902499989
 20
15865.471425500011
 30
0.0
 40
15.0
 50
90.0
 51
270.0
  0
ARC
  5
4A5E
  8
0
  6
BYBLOCK
 62
     0
 10
18515.163902499989
 20
15865.471425500011
 30
0.0
 40
15.0
 50
270.0
 51
90.0
  0
ARC
  5
4A5F
  8
0
  6
BYBLOCK
 62
     0
 10
18515.163902499989
 20
17324.230914
 30
0.0
 40
15.0
 50
270.0
 51
90.0
  0
ARC
  5
4A60
  8
0
  6
BYBLOCK
 62
     0
 10
18515.163902499989
 20
17324.230914
 30
0.0
 40
15.0
 50
90.0
 51
270.0
  0
ARC
  5
4A61
  8
0
  6
BYBLOCK
 62
     0
 10
18515.163902499989
 20
14406.230913999991
 30
0.0
 40
15.0
 50
90.0
 51
270.0
  0
ARC
  5
4A62
  8
0
  6
BYBLOCK
 62
     0
 10
18515.163902499989
 20
14406.230913999991
 30
0.0
 40
15.0
 50
270.0
 51
90.0
  0
ARC
  5
4A63
  8
0
  6
BYBLOCK
 62
     0
 10
18515.163902499989
 20
15865.471425500011
 30
0.0
 40
15.0
 50
270.0
 51
90.0
  0
ARC
  5
4A64
  8
0
  6
BYBLOCK
 62
     0
 10
18515.163902499989
 20
15865.471425500011
 30
0.0
 40
15.0
 50
90.0
 51
270.0
  0
ARC
  5
4A65
  8
0
  6
BYBLOCK
 62
     0
 10
19444.61847949999
 20
13434.78283
 30
0.0
 40
15.0
 50
0.0
 51
180.0
  0
ARC
  5
4A66
  8
0
  6
BYBLOCK
 62
     0
 10
19444.61847949999
 20
13434.78283
 30
0.0
 40
15.0
 50
180.0
 51
0.0
  0
ARC
  5
4A67
  8
0
  6
BYBLOCK
 62
     0
 10
19402.116236499991
 20
13434.78283
 30
0.0
 40
15.0
 50
180.0
 51
0.0
  0
ARC
  5
4A68
  8
0
  6
BYBLOCK
 62
     0
 10
19402.116236499991
 20
13434.78283
 30
0.0
 40
15.0
 50
0.0
 51
180.0
  0
ARC
  5
4A69
  8
0
  6
BYBLOCK
 62
     0
 10
25981.61847949999
 20
13434.78283
 30
0.0
 40
15.0
 50
180.0
 51
0.0
  0
ARC
  5
4A6A
  8
0
  6
BYBLOCK
 62
     0
 10
25981.61847949999
 20
13434.78283
 30
0.0
 40
15.0
 50
0.0
 51
180.0
  0
ARC
  5
4A6B
  8
0
  6
BYBLOCK
 62
     0
 10
26024.120722499989
 20
13434.78283
 30
0.0
 40
15.0
 50
0.0
 51
180.0
  0
ARC
  5
4A6C
  8
0
  6
BYBLOCK
 62
     0
 10
26024.120722499989
 20
13434.78283
 30
0.0
 40
15.0
 50
180.0
 51
0.0
  0
ARC
  5
4A6D
  8
0
  6
BYBLOCK
 62
     0
 10
25981.61847949999
 20
13434.78283
 30
0.0
 40
15.0
 50
0.0
 51
180.0
  0
ARC
  5
4A6E
  8
0
  6
BYBLOCK
 62
     0
 10
25981.61847949999
 20
13434.78283
 30
0.0
 40
15.0
 50
180.0
 51
0.0
  0
ARC
  5
4A6F
  8
0
  6
BYBLOCK
 62
     0
 10
25939.116236499991
 20
13434.78283
 30
0.0
 40
15.0
 50
180.0
 51
0.0
  0
ARC
  5
4A70
  8
0
  6
BYBLOCK
 62
     0
 10
25939.116236499991
 20
13434.78283
 30
0.0
 40
15.0
 50
0.0
 51
180.0
  0
ARC
  5
4A71
  8
0
  6
BYBLOCK
 62
     0
 10
19444.61847949999
 20
13434.78283
 30
0.0
 40
15.0
 50
180.0
 51
0.0
  0
ARC
  5
4A72
  8
0
  6
BYBLOCK
 62
     0
 10
19444.61847949999
 20
13434.78283
 30
0.0
 40
15.0
 50
0.0
 51
180.0
  0
ARC
  5
4A73
  8
0
  6
BYBLOCK
 62
     0
 10
19487.120722499989
 20
13434.78283
 30
0.0
 40
15.0
 50
0.0
 51
180.0
  0
ARC
  5
4A74
  8
0
  6
BYBLOCK
 62
     0
 10
19487.120722499989
 20
13434.78283
 30
0.0
 40
15.0
 50
180.0
 51
0.0
  0
ARC
  5
4A75
  8
0
  6
BYBLOCK
 62
     0
 10
19402.116236499991
 20
13034.78283
 30
0.0
 40
15.0
 50
0.0
 51
180.0
  0
ARC
  5
4A76
  8
0
  6
BYBLOCK
 62
     0
 10
19402.116236499991
 20
13034.78283
 30
0.0
 40
15.0
 50
180.0
 51
0.0
  0
ARC
  5
4A77
  8
0
  6
BYBLOCK
 62
     0
 10
26024.120722499989
 20
13034.78283
 30
0.0
 40
15.0
 50
180.0
 51
0.0
  0
ARC
  5
4A78
  8
0
  6
BYBLOCK
 62
     0
 10
26024.120722499989
 20
13034.78283
 30
0.0
 40
15.0
 50
0.0
 51
180.0
  0
ARC
  5
4A79
  8
0
  6
BYBLOCK
 62
     0
 10
27074.11808349999
 20
15164.230913999991
 30
0.0
 40
15.0
 50
270.0
 51
90.0
  0
ARC
  5
4A7A
  8
0
  6
BYBLOCK
 62
     0
 10
27074.11808349999
 20
15164.230913999991
 30
0.0
 40
15.0
 50
90.0
 51
270.0
  0
ARC
  5
4A7B
  8
0
  6
BYBLOCK
 62
     0
 10
27074.11808349999
 20
14406.230913999991
 30
0.0
 40
15.0
 50
90.0
 51
270.0
  0
ARC
  5
4A7C
  8
0
  6
BYBLOCK
 62
     0
 10
27074.11808349999
 20
14406.230913999991
 30
0.0
 40
15.0
 50
270.0
 51
90.0
  0
ARC
  5
4A7D
  8
0
  6
BYBLOCK
 62
     0
 10
27074.11808349999
 20
15865.471425500011
 30
0.0
 40
15.0
 50
270.0
 51
90.0
  0
ARC
  5
4A7E
  8
0
  6
BYBLOCK
 62
     0
 10
27074.11808349999
 20
15865.471425500011
 30
0.0
 40
15.0
 50
90.0
 51
270.0
  0
ARC
  5
4A7F
  8
0
  6
BYBLOCK
 62
     0
 10
27074.11808349999
 20
15164.230913999991
 30
0.0
 40
15.0
 50
90.0
 51
270.0
  0
ARC
  5
4A80
  8
0
  6
BYBLOCK
 62
     0
 10
27074.11808349999
 20
15164.230913999991
 30
0.0
 40
15.0
 50
270.0
 51
90.0
  0
ARC
  5
4A81
  8
0
  6
BYBLOCK
 62
     0
 10
27074.11808349999
 20
16566.230914
 30
0.0
 40
15.0
 50
270.0
 51
90.0
  0
ARC
  5
4A82
  8
0
  6
BYBLOCK
 62
     0
 10
27074.11808349999
 20
16566.230914
 30
0.0
 40
15.0
 50
90.0
 51
270.0
  0
ARC
  5
4A83
  8
0
  6
BYBLOCK
 62
     0
 10
27074.11808349999
 20
15865.471425500011
 30
0.0
 40
15.0
 50
90.0
 51
270.0
  0
ARC
  5
4A84
  8
0
  6
BYBLOCK
 62
     0
 10
27074.11808349999
 20
15865.471425500011
 30
0.0
 40
15.0
 50
270.0
 51
90.0
  0
ARC
  5
4A85
  8
0
  6
BYBLOCK
 62
     0
 10
27074.11808349999
 20
17324.230914
 30
0.0
 40
15.0
 50
270.0
 51
90.0
  0
ARC
  5
4A86
  8
0
  6
BYBLOCK
 62
     0
 10
27074.11808349999
 20
17324.230914
 30
0.0
 40
15.0
 50
90.0
 51
270.0
  0
ARC
  5
4A87
  8
0
  6
BYBLOCK
 62
     0
 10
27074.11808349999
 20
16566.230914
 30
0.0
 40
15.0
 50
90.0
 51
270.0
  0
ARC
  5
4A88
  8
0
  6
BYBLOCK
 62
     0
 10
27074.11808349999
 20
16566.230914
 30
0.0
 40
15.0
 50
270.0
 51
90.0
  0
ARC
  5
4A89
  8
0
  6
BYBLOCK
 62
     0
 10
27074.11808349999
 20
18082.230914
 30
0.0
 40
15.0
 50
270.0
 51
90.0
  0
ARC
  5
4A8A
  8
0
  6
BYBLOCK
 62
     0
 10
27074.11808349999
 20
18082.230914
 30
0.0
 40
15.0
 50
90.0
 51
270.0
  0
ARC
  5
4A8B
  8
0
  6
BYBLOCK
 62
     0
 10
27074.11808349999
 20
17324.230914
 30
0.0
 40
15.0
 50
90.0
 51
270.0
  0
ARC
  5
4A8C
  8
0
  6
BYBLOCK
 62
     0
 10
27074.11808349999
 20
17324.230914
 30
0.0
 40
15.0
 50
270.0
 51
90.0
  0
ARC
  5
4A8D
  8
0
  6
BYBLOCK
 62
     0
 10
27074.11808349999
 20
18783.230914
 30
0.0
 40
15.0
 50
270.0
 51
90.0
  0
ARC
  5
4A8E
  8
0
  6
BYBLOCK
 62
     0
 10
27074.11808349999
 20
18783.230914
 30
0.0
 40
15.0
 50
90.0
 51
270.0
  0
ARC
  5
4A8F
  8
0
  6
BYBLOCK
 62
     0
 10
27074.11808349999
 20
18082.230914
 30
0.0
 40
15.0
 50
90.0
 51
270.0
  0
ARC
  5
4A90
  8
0
  6
BYBLOCK
 62
     0
 10
27074.11808349999
 20
18082.230914
 30
0.0
 40
15.0
 50
270.0
 51
90.0
  0
ARC
  5
4A91
  8
0
  6
BYBLOCK
 62
     0
 10
27074.11808349999
 20
19484.230914
 30
0.0
 40
15.0
 50
270.0
 51
90.0
  0
ARC
  5
4A92
  8
0
  6
BYBLOCK
 62
     0
 10
27074.11808349999
 20
19484.230914
 30
0.0
 40
15.0
 50
90.0
 51
270.0
  0
ARC
  5
4A93
  8
0
  6
BYBLOCK
 62
     0
 10
27074.11808349999
 20
18783.230914
 30
0.0
 40
15.0
 50
90.0
 51
270.0
  0
ARC
  5
4A94
  8
0
  6
BYBLOCK
 62
     0
 10
27074.11808349999
 20
18783.230914
 30
0.0
 40
15.0
 50
270.0
 51
90.0
  0
ARC
  5
4A95
  8
0
  6
BYBLOCK
 62
     0
 10
27474.11808349998
 20
17324.230914
 30
0.0
 40
15.0
 50
90.0
 51
270.0
  0
ARC
  5
4A96
  8
0
  6
BYBLOCK
 62
     0
 10
27474.11808349998
 20
17324.230914
 30
0.0
 40
15.0
 50
270.0
 51
90.0
  0
ARC
  5
4A97
  8
0
  6
BYBLOCK
 62
     0
 10
27474.11808349998
 20
19891.730914
 30
0.0
 40
15.0
 50
270.0
 51
90.0
  0
ARC
  5
4A98
  8
0
  6
BYBLOCK
 62
     0
 10
27474.11808349998
 20
19891.730914
 30
0.0
 40
15.0
 50
90.0
 51
270.0
  0
ARC
  5
4A99
  8
0
  6
BYBLOCK
 62
     0
 10
27474.11808349998
 20
14406.230913999991
 30
0.0
 40
15.0
 50
90.0
 51
270.0
  0
ARC
  5
4A9A
  8
0
  6
BYBLOCK
 62
     0
 10
27474.11808349998
 20
14406.230913999991
 30
0.0
 40
15.0
 50
270.0
 51
90.0
  0
ARC
  5
4A9B
  8
0
  6
BYBLOCK
 62
     0
 10
27474.11808349998
 20
17324.230914
 30
0.0
 40
15.0
 50
270.0
 51
90.0
  0
ARC
  5
4A9C
  8
0
  6
BYBLOCK
 62
     0
 10
27474.11808349998
 20
17324.230914
 30
0.0
 40
15.0
 50
90.0
 51
270.0
  0
ARC
  5
4A9D
  8
0
  6
BYBLOCK
 62
     0
 10
27874.11808349999
 20
19934.228209000001
 30
0.0
 40
15.0
 50
270.0
 51
90.0
  0
ARC
  5
4A9E
  8
0
  6
BYBLOCK
 62
     0
 10
27874.11808349999
 20
19934.228209000001
 30
0.0
 40
15.0
 50
90.0
 51
270.0
  0
ARC
  5
4A9F
  8
0
  6
BYBLOCK
 62
     0
 10
27874.11808349999
 20
14363.733619000001
 30
0.0
 40
15.0
 50
90.0
 51
270.0
  0
ARC
  5
4AA0
  8
0
  6
BYBLOCK
 62
     0
 10
27874.11808349999
 20
14363.733619000001
 30
0.0
 40
15.0
 50
270.0
 51
90.0
  0
ARC
  5
4AA1
  8
0
  6
BYBLOCK
 62
     0
 10
27474.11808349998
 20
19891.730914
 30
0.0
 40
15.0
 50
270.0
 51
90.0
  0
ARC
  5
4AA2
  8
0
  6
BYBLOCK
 62
     0
 10
27474.11808349998
 20
19891.730914
 30
0.0
 40
15.0
 50
90.0
 51
270.0
  0
ARC
  5
4AA3
  8
0
  6
BYBLOCK
 62
     0
 10
27474.11808349998
 20
19934.228209000001
 30
0.0
 40
15.0
 50
90.0
 51
270.0
  0
ARC
  5
4AA4
  8
0
  6
BYBLOCK
 62
     0
 10
27474.11808349998
 20
19934.228209000001
 30
0.0
 40
15.0
 50
270.0
 51
90.0
  0
ARC
  5
4AA5
  8
0
  6
BYBLOCK
 62
     0
 10
27474.11808349998
 20
14406.230913999991
 30
0.0
 40
15.0
 50
90.0
 51
270.0
  0
ARC
  5
4AA6
  8
0
  6
BYBLOCK
 62
     0
 10
27474.11808349998
 20
14406.230913999991
 30
0.0
 40
15.0
 50
270.0
 51
90.0
  0
ARC
  5
4AA7
  8
0
  6
BYBLOCK
 62
     0
 10
27474.11808349998
 20
14363.733619000001
 30
0.0
 40
15.0
 50
270.0
 51
90.0
  0
ARC
  5
4AA8
  8
0
  6
BYBLOCK
 62
     0
 10
27474.11808349998
 20
14363.733619000001
 30
0.0
 40
15.0
 50
90.0
 51
270.0
  0
ARC
  5
4AA9
  8
0
  6
BYBLOCK
 62
     0
 10
22713.118479499979
 20
20664.232102000031
 30
0.0
 40
15.0
 50
0.0
 51
180.0
  0
ARC
  5
4AAA
  8
0
  6
BYBLOCK
 62
     0
 10
22713.118479499979
 20
20664.232102000031
 30
0.0
 40
15.0
 50
180.0
 51
0.0
  0
ARC
  5
4AAB
  8
0
  6
BYBLOCK
 62
     0
 10
23120.61847949999
 20
20664.232102000031
 30
0.0
 40
15.0
 50
180.0
 51
0.0
  0
ARC
  5
4AAC
  8
0
  6
BYBLOCK
 62
     0
 10
23120.61847949999
 20
20664.232102000031
 30
0.0
 40
15.0
 50
0.0
 51
180.0
  0
ARC
  5
4AAD
  8
0
  6
BYBLOCK
 62
     0
 10
25223.618479500001
 20
20664.232102000031
 30
0.0
 40
15.0
 50
0.0
 51
180.0
  0
ARC
  5
4AAE
  8
0
  6
BYBLOCK
 62
     0
 10
25223.618479500001
 20
20664.232102000031
 30
0.0
 40
15.0
 50
180.0
 51
0.0
  0
ARC
  5
4AAF
  8
0
  6
BYBLOCK
 62
     0
 10
25981.619469000001
 20
20664.232102000031
 30
0.0
 40
15.0
 50
180.0
 51
0.0
  0
ARC
  5
4AB0
  8
0
  6
BYBLOCK
 62
     0
 10
25981.619469000001
 20
20664.232102000031
 30
0.0
 40
15.0
 50
0.0
 51
180.0
  0
ARC
  5
4AB1
  8
0
  6
BYBLOCK
 62
     0
 10
24522.618479500001
 20
20664.232102000031
 30
0.0
 40
15.0
 50
0.0
 51
180.0
  0
ARC
  5
4AB2
  8
0
  6
BYBLOCK
 62
     0
 10
24522.618479500001
 20
20664.232102000031
 30
0.0
 40
15.0
 50
180.0
 51
0.0
  0
ARC
  5
4AB3
  8
0
  6
BYBLOCK
 62
     0
 10
25223.618479500001
 20
20664.232102000031
 30
0.0
 40
15.0
 50
180.0
 51
0.0
  0
ARC
  5
4AB4
  8
0
  6
BYBLOCK
 62
     0
 10
25223.618479500001
 20
20664.232102000031
 30
0.0
 40
15.0
 50
0.0
 51
180.0
  0
ARC
  5
4AB5
  8
0
  6
BYBLOCK
 62
     0
 10
23821.61847949999
 20
20664.232102000031
 30
0.0
 40
15.0
 50
0.0
 51
180.0
  0
ARC
  5
4AB6
  8
0
  6
BYBLOCK
 62
     0
 10
23821.61847949999
 20
20664.232102000031
 30
0.0
 40
15.0
 50
180.0
 51
0.0
  0
ARC
  5
4AB7
  8
0
  6
BYBLOCK
 62
     0
 10
24522.618479500001
 20
20664.232102000031
 30
0.0
 40
15.0
 50
180.0
 51
0.0
  0
ARC
  5
4AB8
  8
0
  6
BYBLOCK
 62
     0
 10
24522.618479500001
 20
20664.232102000031
 30
0.0
 40
15.0
 50
0.0
 51
180.0
  0
ARC
  5
4AB9
  8
0
  6
BYBLOCK
 62
     0
 10
23120.61847949999
 20
20664.232102000031
 30
0.0
 40
15.0
 50
0.0
 51
180.0
  0
ARC
  5
4ABA
  8
0
  6
BYBLOCK
 62
     0
 10
23120.61847949999
 20
20664.232102000031
 30
0.0
 40
15.0
 50
180.0
 51
0.0
  0
ARC
  5
4ABB
  8
0
  6
BYBLOCK
 62
     0
 10
23821.61847949999
 20
20664.232102000031
 30
0.0
 40
15.0
 50
180.0
 51
0.0
  0
ARC
  5
4ABC
  8
0
  6
BYBLOCK
 62
     0
 10
23821.61847949999
 20
20664.232102000031
 30
0.0
 40
15.0
 50
0.0
 51
180.0
  0
ARC
  5
4ABD
  8
0
  6
BYBLOCK
 62
     0
 10
25981.61847949999
 20
20664.232102000031
 30
0.0
 40
15.0
 50
180.0
 51
0.0
  0
ARC
  5
4ABE
  8
0
  6
BYBLOCK
 62
     0
 10
25981.61847949999
 20
20664.232102000031
 30
0.0
 40
15.0
 50
0.0
 51
180.0
  0
ARC
  5
4ABF
  8
0
  6
BYBLOCK
 62
     0
 10
26024.114784500001
 20
20664.232102000031
 30
0.0
 40
15.0
 50
0.0
 51
180.0
  0
ARC
  5
4AC0
  8
0
  6
BYBLOCK
 62
     0
 10
26024.114784500001
 20
20664.232102000031
 30
0.0
 40
15.0
 50
180.0
 51
0.0
  0
ARC
  5
4AC1
  8
0
  6
BYBLOCK
 62
     0
 10
19444.61847949999
 20
20664.232102000031
 30
0.0
 40
15.0
 50
0.0
 51
180.0
  0
ARC
  5
4AC2
  8
0
  6
BYBLOCK
 62
     0
 10
19444.61847949999
 20
20664.232102000031
 30
0.0
 40
15.0
 50
180.0
 51
0.0
  0
ARC
  5
4AC3
  8
0
  6
BYBLOCK
 62
     0
 10
19852.11847949999
 20
20664.232102000031
 30
0.0
 40
15.0
 50
180.0
 51
0.0
  0
ARC
  5
4AC4
  8
0
  6
BYBLOCK
 62
     0
 10
19852.11847949999
 20
20664.232102000031
 30
0.0
 40
15.0
 50
0.0
 51
180.0
  0
ARC
  5
4AC5
  8
0
  6
BYBLOCK
 62
     0
 10
19444.61847949999
 20
20664.232102000031
 30
0.0
 40
15.0
 50
0.0
 51
180.0
  0
ARC
  5
4AC6
  8
0
  6
BYBLOCK
 62
     0
 10
19444.61847949999
 20
20664.232102000031
 30
0.0
 40
15.0
 50
180.0
 51
0.0
  0
ARC
  5
4AC7
  8
0
  6
BYBLOCK
 62
     0
 10
19402.122174499978
 20
20664.232102000031
 30
0.0
 40
15.0
 50
180.0
 51
0.0
  0
ARC
  5
4AC8
  8
0
  6
BYBLOCK
 62
     0
 10
19402.122174499978
 20
20664.232102000031
 30
0.0
 40
15.0
 50
0.0
 51
180.0
  0
ARC
  5
4AC9
  8
0
  6
BYBLOCK
 62
     0
 10
21955.11847949999
 20
20664.232102000031
 30
0.0
 40
15.0
 50
0.0
 51
180.0
  0
ARC
  5
4ACA
  8
0
  6
BYBLOCK
 62
     0
 10
21955.11847949999
 20
20664.232102000031
 30
0.0
 40
15.0
 50
180.0
 51
0.0
  0
ARC
  5
4ACB
  8
0
  6
BYBLOCK
 62
     0
 10
22713.119469000001
 20
20664.232102000031
 30
0.0
 40
15.0
 50
180.0
 51
0.0
  0
ARC
  5
4ACC
  8
0
  6
BYBLOCK
 62
     0
 10
22713.119469000001
 20
20664.232102000031
 30
0.0
 40
15.0
 50
0.0
 51
180.0
  0
ARC
  5
4ACD
  8
0
  6
BYBLOCK
 62
     0
 10
21254.11847949999
 20
20664.232102000031
 30
0.0
 40
15.0
 50
0.0
 51
180.0
  0
ARC
  5
4ACE
  8
0
  6
BYBLOCK
 62
     0
 10
21254.11847949999
 20
20664.232102000031
 30
0.0
 40
15.0
 50
180.0
 51
0.0
  0
ARC
  5
4ACF
  8
0
  6
BYBLOCK
 62
     0
 10
21955.11847949999
 20
20664.232102000031
 30
0.0
 40
15.0
 50
180.0
 51
0.0
  0
ARC
  5
4AD0
  8
0
  6
BYBLOCK
 62
     0
 10
21955.11847949999
 20
20664.232102000031
 30
0.0
 40
15.0
 50
0.0
 51
180.0
  0
ARC
  5
4AD1
  8
0
  6
BYBLOCK
 62
     0
 10
20553.118479500001
 20
20664.232102000031
 30
0.0
 40
15.0
 50
0.0
 51
180.0
  0
ARC
  5
4AD2
  8
0
  6
BYBLOCK
 62
     0
 10
20553.118479500001
 20
20664.232102000031
 30
0.0
 40
15.0
 50
180.0
 51
0.0
  0
ARC
  5
4AD3
  8
0
  6
BYBLOCK
 62
     0
 10
21254.11847949999
 20
20664.232102000031
 30
0.0
 40
15.0
 50
180.0
 51
0.0
  0
ARC
  5
4AD4
  8
0
  6
BYBLOCK
 62
     0
 10
21254.11847949999
 20
20664.232102000031
 30
0.0
 40
15.0
 50
0.0
 51
180.0
  0
ARC
  5
4AD5
  8
0
  6
BYBLOCK
 62
     0
 10
19852.11847949999
 20
20664.232102000031
 30
0.0
 40
15.0
 50
0.0
 51
180.0
  0
ARC
  5
4AD6
  8
0
  6
BYBLOCK
 62
     0
 10
19852.11847949999
 20
20664.232102000031
 30
0.0
 40
15.0
 50
180.0
 51
0.0
  0
ARC
  5
4AD7
  8
0
  6
BYBLOCK
 62
     0
 10
20553.118479500001
 20
20664.232102000031
 30
0.0
 40
15.0
 50
180.0
 51
0.0
  0
ARC
  5
4AD8
  8
0
  6
BYBLOCK
 62
     0
 10
20553.118479500001
 20
20664.232102000031
 30
0.0
 40
15.0
 50
0.0
 51
180.0
  0
ARC
  5
4AD9
  8
0
  6
BYBLOCK
 62
     0
 10
8769.3738785000023
 20
9763.7812800000029
 30
0.0
 40
15.0
 50
180.0
 51
0.0
  0
ARC
  5
4ADA
  8
0
  6
BYBLOCK
 62
     0
 10
8769.3738785000023
 20
9763.7812800000029
 30
0.0
 40
15.0
 50
0.0
 51
180.0
  0
ARC
  5
4ADB
  8
0
  6
BYBLOCK
 62
     0
 10
8589.3738785000023
 20
9763.7812800000029
 30
0.0
 40
15.0
 50
0.0
 51
180.0
  0
ARC
  5
4ADC
  8
0
  6
BYBLOCK
 62
     0
 10
8589.3738785000023
 20
9763.7812800000029
 30
0.0
 40
15.0
 50
180.0
 51
0.0
  0
ARC
  5
4ADD
  8
0
  6
BYBLOCK
 62
     0
 10
18594.619139499991
 20
6615.7796039999957
 30
0.0
 40
15.0
 50
90.0
 51
270.0
  0
ARC
  5
4ADE
  8
0
  6
BYBLOCK
 62
     0
 10
18594.619139499991
 20
6615.7796039999957
 30
0.0
 40
15.0
 50
270.0
 51
90.0
  0
ARC
  5
4ADF
  8
0
  6
BYBLOCK
 62
     0
 10
18594.619139499991
 20
8507.2796039999957
 30
0.0
 40
15.0
 50
270.0
 51
90.0
  0
ARC
  5
4AE0
  8
0
  6
BYBLOCK
 62
     0
 10
18594.619139499991
 20
8507.2796039999957
 30
0.0
 40
15.0
 50
90.0
 51
270.0
  0
ARC
  5
4AE1
  8
0
  6
BYBLOCK
 62
     0
 10
18194.616830499981
 20
6615.7796039999957
 30
0.0
 40
15.0
 50
90.0
 51
270.0
  0
ARC
  5
4AE2
  8
0
  6
BYBLOCK
 62
     0
 10
18194.616830499981
 20
6615.7796039999957
 30
0.0
 40
15.0
 50
270.0
 51
90.0
  0
ARC
  5
4AE3
  8
0
  6
BYBLOCK
 62
     0
 10
18194.616830499988
 20
8964.2791089999973
 30
0.0
 40
15.0
 50
270.0
 51
90.0
  0
ARC
  5
4AE4
  8
0
  6
BYBLOCK
 62
     0
 10
18194.616830499988
 20
8964.2791089999973
 30
0.0
 40
15.0
 50
90.0
 51
270.0
  0
ARC
  5
4AF5
  8
0
  6
BYBLOCK
 62
     0
 10
19538.61847949999
 20
5715.7797689999998
 30
0.0
 40
15.0
 50
0.0
 51
180.0
  0
ARC
  5
4AF6
  8
0
  6
BYBLOCK
 62
     0
 10
19538.61847949999
 20
5715.7797689999998
 30
0.0
 40
15.0
 50
180.0
 51
0.0
  0
ARC
  5
4AF7
  8
0
  6
BYBLOCK
 62
     0
 10
22619.11847949999
 20
5715.7797689999998
 30
0.0
 40
15.0
 50
180.0
 51
0.0
  0
ARC
  5
4AF8
  8
0
  6
BYBLOCK
 62
     0
 10
22619.11847949999
 20
5715.7797689999998
 30
0.0
 40
15.0
 50
0.0
 51
180.0
  0
ARC
  5
4AF9
  8
0
  6
BYBLOCK
 62
     0
 10
22807.11847949999
 20
5715.7797689999998
 30
0.0
 40
15.0
 50
0.0
 51
180.0
  0
ARC
  5
4AFA
  8
0
  6
BYBLOCK
 62
     0
 10
22807.11847949999
 20
5715.7797689999998
 30
0.0
 40
15.0
 50
180.0
 51
0.0
  0
ARC
  5
4AFB
  8
0
  6
BYBLOCK
 62
     0
 10
25887.618479499979
 20
5715.7797689999998
 30
0.0
 40
15.0
 50
180.0
 51
0.0
  0
ARC
  5
4AFC
  8
0
  6
BYBLOCK
 62
     0
 10
25887.618479499979
 20
5715.7797689999998
 30
0.0
 40
15.0
 50
0.0
 51
180.0
  0
ARC
  5
4AFD
  8
0
  6
BYBLOCK
 62
     0
 10
22713.118479499979
 20
5315.7797690000016
 30
0.0
 40
15.0
 50
0.0
 51
180.0
  0
ARC
  5
4AFE
  8
0
  6
BYBLOCK
 62
     0
 10
22713.118479499979
 20
5315.7797690000016
 30
0.0
 40
15.0
 50
180.0
 51
0.0
  0
ARC
  5
4AFF
  8
0
  6
BYBLOCK
 62
     0
 10
25981.61847949999
 20
5315.7797690000016
 30
0.0
 40
15.0
 50
180.0
 51
0.0
  0
ARC
  5
4B00
  8
0
  6
BYBLOCK
 62
     0
 10
25981.61847949999
 20
5315.7797690000016
 30
0.0
 40
15.0
 50
0.0
 51
180.0
  0
ARC
  5
4B01
  8
0
  6
BYBLOCK
 62
     0
 10
19444.61847949999
 20
5315.7797690000016
 30
0.0
 40
15.0
 50
0.0
 51
180.0
  0
ARC
  5
4B02
  8
0
  6
BYBLOCK
 62
     0
 10
19444.61847949999
 20
5315.7797690000016
 30
0.0
 40
15.0
 50
180.0
 51
0.0
  0
ARC
  5
4B03
  8
0
  6
BYBLOCK
 62
     0
 10
22713.118479499979
 20
5315.7797690000016
 30
0.0
 40
15.0
 50
180.0
 51
0.0
  0
ARC
  5
4B04
  8
0
  6
BYBLOCK
 62
     0
 10
22713.118479499979
 20
5315.7797690000016
 30
0.0
 40
15.0
 50
0.0
 51
180.0
  0
ARC
  5
4B05
  8
0
  6
BYBLOCK
 62
     0
 10
25981.622438499999
 20
5315.7797690000016
 30
0.0
 40
15.0
 50
180.0
 51
0.0
  0
ARC
  5
4B06
  8
0
  6
BYBLOCK
 62
     0
 10
25981.622438499999
 20
5315.7797690000016
 30
0.0
 40
15.0
 50
0.0
 51
180.0
  0
ARC
  5
4B07
  8
0
  6
BYBLOCK
 62
     0
 10
26024.122438499991
 20
5315.7797690000016
 30
0.0
 40
15.0
 50
0.0
 51
180.0
  0
ARC
  5
4B08
  8
0
  6
BYBLOCK
 62
     0
 10
26024.122438499991
 20
5315.7797690000016
 30
0.0
 40
15.0
 50
180.0
 51
0.0
  0
ARC
  5
4B09
  8
0
  6
BYBLOCK
 62
     0
 10
19444.61847949999
 20
5315.7797690000016
 30
0.0
 40
15.0
 50
0.0
 51
180.0
  0
ARC
  5
4B0A
  8
0
  6
BYBLOCK
 62
     0
 10
19444.61847949999
 20
5315.7797690000016
 30
0.0
 40
15.0
 50
180.0
 51
0.0
  0
ARC
  5
4B0B
  8
0
  6
BYBLOCK
 62
     0
 10
19402.118479499979
 20
5315.7797690000016
 30
0.0
 40
15.0
 50
180.0
 51
0.0
  0
ARC
  5
4B0C
  8
0
  6
BYBLOCK
 62
     0
 10
19402.118479499979
 20
5315.7797690000016
 30
0.0
 40
15.0
 50
0.0
 51
180.0
  0
ARC
  5
4B0D
  8
0
  6
BYBLOCK
 62
     0
 10
19402.118479499979
 20
4915.7799339999983
 30
0.0
 40
15.0
 50
0.0
 51
180.0
  0
ARC
  5
4B0E
  8
0
  6
BYBLOCK
 62
     0
 10
19402.118479499979
 20
4915.7799339999983
 30
0.0
 40
15.0
 50
180.0
 51
0.0
  0
ARC
  5
4B0F
  8
0
  6
BYBLOCK
 62
     0
 10
26024.118479500001
 20
4915.7799339999983
 30
0.0
 40
15.0
 50
180.0
 51
0.0
  0
ARC
  5
4B10
  8
0
  6
BYBLOCK
 62
     0
 10
26024.118479500001
 20
4915.7799339999983
 30
0.0
 40
15.0
 50
0.0
 51
180.0
  0
ARC
  5
4B11
  8
0
  6
BYBLOCK
 62
     0
 10
15429.87229449999
 20
6615.7796040000021
 30
0.0
 40
15.0
 50
90.0
 51
270.0
  0
ARC
  5
4B12
  8
0
  6
BYBLOCK
 62
     0
 10
15429.87229449999
 20
6615.7796040000021
 30
0.0
 40
15.0
 50
270.0
 51
90.0
  0
ARC
  5
4B13
  8
0
  6
BYBLOCK
 62
     0
 10
15429.87229449999
 20
8964.279604000003
 30
0.0
 40
15.0
 50
270.0
 51
90.0
  0
ARC
  5
4B14
  8
0
  6
BYBLOCK
 62
     0
 10
15429.87229449999
 20
8964.279604000003
 30
0.0
 40
15.0
 50
90.0
 51
270.0
  0
ARC
  5
4B15
  8
0
  6
BYBLOCK
 62
     0
 10
7679.3754605000104
 20
6615.7796040000021
 30
0.0
 40
15.0
 50
90.0
 51
270.0
  0
ARC
  5
4B16
  8
0
  6
BYBLOCK
 62
     0
 10
7679.3754605000104
 20
6615.7796040000021
 30
0.0
 40
15.0
 50
270.0
 51
90.0
  0
ARC
  5
4B17
  8
0
  6
BYBLOCK
 62
     0
 10
7679.3754605000104
 20
8771.7796040000067
 30
0.0
 40
15.0
 50
270.0
 51
90.0
  0
ARC
  5
4B18
  8
0
  6
BYBLOCK
 62
     0
 10
7679.3754605000104
 20
8771.7796040000067
 30
0.0
 40
15.0
 50
90.0
 51
270.0
  0
ARC
  5
4B19
  8
0
  6
BYBLOCK
 62
     0
 10
8589.3738785000023
 20
10163.779630000001
 30
0.0
 40
15.0
 50
0.0
 51
180.0
  0
ARC
  5
4B1A
  8
0
  6
BYBLOCK
 62
     0
 10
8589.3738785000023
 20
10163.779630000001
 30
0.0
 40
15.0
 50
180.0
 51
0.0
  0
ARC
  5
4B1B
  8
0
  6
BYBLOCK
 62
     0
 10
14489.873878500001
 20
10163.779630000001
 30
0.0
 40
15.0
 50
180.0
 51
0.0
  0
ARC
  5
4B1C
  8
0
  6
BYBLOCK
 62
     0
 10
14489.873878500001
 20
10163.779630000001
 30
0.0
 40
15.0
 50
0.0
 51
180.0
  0
ARC
  5
4B1D
  8
0
  6
BYBLOCK
 62
     0
 10
14339.873878500001
 20
9763.7812800000029
 30
0.0
 40
15.0
 50
180.0
 51
0.0
  0
ARC
  5
4B1E
  8
0
  6
BYBLOCK
 62
     0
 10
14339.873878500001
 20
9763.7812800000029
 30
0.0
 40
15.0
 50
0.0
 51
180.0
  0
ARC
  5
4B1F
  8
0
  6
BYBLOCK
 62
     0
 10
14489.873878500001
 20
9763.7812800000029
 30
0.0
 40
15.0
 50
0.0
 51
180.0
  0
ARC
  5
4B20
  8
0
  6
BYBLOCK
 62
     0
 10
14489.873878500001
 20
9763.7812800000029
 30
0.0
 40
15.0
 50
180.0
 51
0.0
  0
ARC
  5
4B21
  8
0
  6
BYBLOCK
 62
     0
 10
8769.3738785000023
 20
9763.7812800000029
 30
0.0
 40
15.0
 50
0.0
 51
180.0
  0
ARC
  5
4B22
  8
0
  6
BYBLOCK
 62
     0
 10
8769.3738785000023
 20
9763.7812800000029
 30
0.0
 40
15.0
 50
180.0
 51
0.0
  0
ARC
  5
4B23
  8
0
  6
BYBLOCK
 62
     0
 10
14339.873878500001
 20
9763.7812800000029
 30
0.0
 40
15.0
 50
180.0
 51
0.0
  0
ARC
  5
4B24
  8
0
  6
BYBLOCK
 62
     0
 10
14339.873878500001
 20
9763.7812800000029
 30
0.0
 40
15.0
 50
0.0
 51
180.0
  0
ARC
  5
4B25
  8
0
  6
BYBLOCK
 62
     0
 10
8769.3738785000023
 20
4915.7799340000047
 30
0.0
 40
15.0
 50
0.0
 51
180.0
  0
ARC
  5
4B26
  8
0
  6
BYBLOCK
 62
     0
 10
8769.3738785000023
 20
4915.7799340000047
 30
0.0
 40
15.0
 50
180.0
 51
0.0
  0
ARC
  5
4B27
  8
0
  6
BYBLOCK
 62
     0
 10
14339.873878500001
 20
4915.7799340000047
 30
0.0
 40
15.0
 50
180.0
 51
0.0
  0
ARC
  5
4B28
  8
0
  6
BYBLOCK
 62
     0
 10
14339.873878500001
 20
4915.7799340000047
 30
0.0
 40
15.0
 50
0.0
 51
180.0
  0
ARC
  5
4B29
  8
0
  6
BYBLOCK
 62
     0
 10
14297.373878500001
 20
5315.7797690000052
 30
0.0
 40
15.0
 50
180.0
 51
0.0
  0
ARC
  5
4B2A
  8
0
  6
BYBLOCK
 62
     0
 10
14297.373878500001
 20
5315.7797690000052
 30
0.0
 40
15.0
 50
0.0
 51
180.0
  0
ARC
  5
4B2B
  8
0
  6
BYBLOCK
 62
     0
 10
14339.873878500001
 20
5315.7797690000052
 30
0.0
 40
15.0
 50
0.0
 51
180.0
  0
ARC
  5
4B2C
  8
0
  6
BYBLOCK
 62
     0
 10
14339.873878500001
 20
5315.7797690000052
 30
0.0
 40
15.0
 50
180.0
 51
0.0
  0
ARC
  5
4B2D
  8
0
  6
BYBLOCK
 62
     0
 10
8811.8738785000005
 20
5315.7797690000052
 30
0.0
 40
15.0
 50
0.0
 51
180.0
  0
ARC
  5
4B2E
  8
0
  6
BYBLOCK
 62
     0
 10
8811.8738785000005
 20
5315.7797690000052
 30
0.0
 40
15.0
 50
180.0
 51
0.0
  0
ARC
  5
4B2F
  8
0
  6
BYBLOCK
 62
     0
 10
8769.3738785000023
 20
5315.7797690000052
 30
0.0
 40
15.0
 50
180.0
 51
0.0
  0
ARC
  5
4B30
  8
0
  6
BYBLOCK
 62
     0
 10
8769.3738785000023
 20
5315.7797690000052
 30
0.0
 40
15.0
 50
0.0
 51
180.0
  0
ARC
  5
4B31
  8
0
  6
BYBLOCK
 62
     0
 10
11379.373878500001
 20
5315.7797690000052
 30
0.0
 40
15.0
 50
180.0
 51
0.0
  0
ARC
  5
4B32
  8
0
  6
BYBLOCK
 62
     0
 10
11379.373878500001
 20
5315.7797690000052
 30
0.0
 40
15.0
 50
0.0
 51
180.0
  0
ARC
  5
4B33
  8
0
  6
BYBLOCK
 62
     0
 10
8811.8738785000005
 20
5315.7797690000052
 30
0.0
 40
15.0
 50
0.0
 51
180.0
  0
ARC
  5
4B34
  8
0
  6
BYBLOCK
 62
     0
 10
8811.8738785000005
 20
5315.7797690000052
 30
0.0
 40
15.0
 50
180.0
 51
0.0
  0
ARC
  5
4B35
  8
0
  6
BYBLOCK
 62
     0
 10
11379.373878500001
 20
5315.7797690000052
 30
0.0
 40
15.0
 50
0.0
 51
180.0
  0
ARC
  5
4B36
  8
0
  6
BYBLOCK
 62
     0
 10
11379.373878500001
 20
5315.7797690000052
 30
0.0
 40
15.0
 50
180.0
 51
0.0
  0
ARC
  5
4B37
  8
0
  6
BYBLOCK
 62
     0
 10
14297.373878500001
 20
5315.7797690000052
 30
0.0
 40
15.0
 50
180.0
 51
0.0
  0
ARC
  5
4B38
  8
0
  6
BYBLOCK
 62
     0
 10
14297.373878500001
 20
5315.7797690000052
 30
0.0
 40
15.0
 50
0.0
 51
180.0
  0
LINE
  5
4C60
  8
0-1
  6
CONTINUOUS
 62
     3
 10
25918.121461499992
 20
8714.2796239999971
 30
0.0
 11
25918.121461499992
 21
8746.2795310000001
 31
0.0
  0
LINE
  5
4C61
  8
0-1
  6
CONTINUOUS
 62
     3
 10
26067.120854500001
 20
8638.0929020000021
 30
0.0
 11
26024.118743499988
 21
8638.0929020000021
 31
0.0
  0
LINE
  5
4C62
  8
0-1
  6
CONTINUOUS
 62
     3
 10
26067.120854500001
 20
8964.2799530000029
 30
0.0
 11
26067.120854500001
 21
8638.0929020000021
 31
0.0
  0
LINE
  5
4C63
  8
0-1
  6
CONTINUOUS
 62
     3
 10
25632.154268500009
 20
8710.7442029999984
 30
0.0
 11
25600.155351500001
 21
8742.7441109999982
 31
0.0
  0
LINE
  5
4C64
  8
0-1
  6
CONTINUOUS
 62
     3
 10
25913.121197499979
 20
8751.2797950000004
 30
0.0
 11
25603.690771500002
 21
8751.2797950000004
 31
0.0
  0
LINE
  5
4C65
  8
0-1
  6
CONTINUOUS
 62
     3
 10
25918.121461499992
 20
8742.8806980000045
 30
0.0
 11
25600.024702499992
 21
8742.8806980000045
 31
0.0
  0
LINE
  5
4C66
  8
0-1
  6
CONTINUOUS
 62
     3
 10
25913.121197499979
 20
8709.2793600000005
 30
0.0
 11
25635.691668499989
 21
8709.2793600000005
 31
0.0
  0
LINE
  5
4C67
  8
0-1
  6
CONTINUOUS
 62
     3
 10
25918.121461499992
 20
8717.6794470000004
 30
0.0
 11
25625.22001550001
 21
8717.6794470000004
 31
0.0
  0
LINE
  5
4C68
  8
0-1
  6
CONTINUOUS
 62
     3
 10
25918.121461499992
 20
8726.0795339999986
 30
0.0
 11
25616.820917500001
 21
8726.0795339999986
 31
0.0
  0
LINE
  5
4C69
  8
0-1
  6
CONTINUOUS
 62
     3
 10
25918.121461499992
 20
8734.4806109999972
 30
0.0
 11
25608.419841499988
 21
8734.4806109999972
 31
0.0
  0
LINE
  5
4C6A
  8
0-1
  6
CONTINUOUS
 62
     3
 10
23062.584669500018
 20
8710.7442029999984
 30
0.0
 11
23094.581607500018
 21
8742.7441109999982
 31
0.0
  0
LINE
  5
4C6B
  8
0-1
  6
CONTINUOUS
 62
     3
 10
22776.619455500018
 20
8714.2796239999971
 30
0.0
 11
22776.619455500018
 21
8746.2795310000001
 31
0.0
  0
LINE
  5
4C6C
  8
0-1
  6
CONTINUOUS
 62
     3
 10
22776.619455500018
 20
8717.6794470000004
 30
0.0
 11
23069.516943499999
 21
8717.6794470000004
 31
0.0
  0
LINE
  5
4C6D
  8
0-1
  6
CONTINUOUS
 62
     3
 10
22776.619455500018
 20
8726.0795339999986
 30
0.0
 11
23077.918020500008
 21
8726.0795339999986
 31
0.0
  0
LINE
  5
4C6E
  8
0-1
  6
CONTINUOUS
 62
     3
 10
22781.619719499999
 20
8709.2793600000005
 30
0.0
 11
23059.04726950001
 21
8709.2793600000005
 31
0.0
  0
LINE
  5
4C6F
  8
0-1
  6
CONTINUOUS
 62
     3
 10
22776.619455500018
 20
8734.4806109999972
 30
0.0
 11
23086.317117500021
 21
8734.4806109999972
 31
0.0
  0
LINE
  5
4C70
  8
0-1
  6
CONTINUOUS
 62
     3
 10
22776.619455500018
 20
8742.8806980000045
 30
0.0
 11
23094.714235500021
 21
8742.8806980000045
 31
0.0
  0
LINE
  5
4C71
  8
0-1
  6
CONTINUOUS
 62
     3
 10
22781.619719499999
 20
8751.2797950000004
 30
0.0
 11
23091.04816650003
 21
8751.2797950000004
 31
0.0
  0
LINE
  5
4C72
  8
0-1
  6
CONTINUOUS
 62
     3
 10
26067.120854500001
 20
8834.2790299999979
 30
0.0
 11
22713.118479500001
 21
8834.2790299999979
 31
0.0
  0
LINE
  5
4C73
  8
0-1
  6
CONTINUOUS
 62
     3
 10
22755.616763500009
 20
8760.2796760000001
 30
0.0
 11
25939.120194499988
 21
8760.2796760000001
 31
0.0
  0
LINE
  5
4C74
  8
0-1
  6
CONTINUOUS
 62
     3
 10
22755.616763500009
 20
8700.2794779999967
 30
0.0
 11
25939.120194499988
 21
8700.2794779999967
 31
0.0
  0
LINE
  5
4C75
  8
0-1
  6
CONTINUOUS
 62
     3
 10
22713.118479500001
 20
8964.2799530000029
 30
0.0
 11
26067.120854500001
 21
8964.2799530000029
 31
0.0
  0
LINE
  5
4C76
  8
0-1
  6
CONTINUOUS
 62
     3
 10
22649.617503500001
 20
8714.2796239999971
 30
0.0
 11
22649.617503500001
 21
8746.2795310000001
 31
0.0
  0
LINE
  5
4C77
  8
0-1
  6
CONTINUOUS
 62
     3
 10
22363.656248499989
 20
8710.7442029999984
 30
0.0
 11
22331.655351500001
 21
8742.7441109999982
 31
0.0
  0
LINE
  5
4C78
  8
0-1
  6
CONTINUOUS
 62
     3
 10
22649.617503500001
 20
8742.8806980000045
 30
0.0
 11
22331.524703499981
 21
8742.8806980000045
 31
0.0
  0
LINE
  5
4C79
  8
0-1
  6
CONTINUOUS
 62
     3
 10
22649.617503500001
 20
8734.4806109999972
 30
0.0
 11
22339.919841499988
 21
8734.4806109999972
 31
0.0
  0
LINE
  5
4C7A
  8
0-1
  6
CONTINUOUS
 62
     3
 10
22649.617503500001
 20
8726.0795339999986
 30
0.0
 11
22348.318938500001
 21
8726.0795339999986
 31
0.0
  0
LINE
  5
4C7B
  8
0-1
  6
CONTINUOUS
 62
     3
 10
22649.617503500001
 20
8717.6794470000004
 30
0.0
 11
22356.71803649998
 21
8717.6794470000004
 31
0.0
  0
LINE
  5
4C7C
  8
0-1
  6
CONTINUOUS
 62
     3
 10
22644.619218499989
 20
8751.2797950000004
 30
0.0
 11
22335.188792500001
 21
8751.2797950000004
 31
0.0
  0
LINE
  5
4C7D
  8
0-1
  6
CONTINUOUS
 62
     3
 10
22644.619218499989
 20
8709.2793600000005
 30
0.0
 11
22367.191669499989
 21
8709.2793600000005
 31
0.0
  0
LINE
  5
4C7E
  8
0-1
  6
CONTINUOUS
 62
     3
 10
19513.117740500002
 20
8709.2793600000005
 30
0.0
 11
19790.547270499981
 21
8709.2793600000005
 31
0.0
  0
LINE
  5
4C7F
  8
0-1
  6
CONTINUOUS
 62
     3
 10
19508.119456500001
 20
8714.2796239999971
 30
0.0
 11
19508.119456500001
 21
8746.2795310000001
 31
0.0
  0
LINE
  5
4C80
  8
0-1
  6
CONTINUOUS
 62
     3
 10
19359.11808449998
 20
8638.0929020000021
 30
0.0
 11
19402.116236499998
 21
8638.0929020000021
 31
0.0
  0
LINE
  5
4C81
  8
0-1
  6
CONTINUOUS
 62
     3
 10
19359.11808449998
 20
8638.0929020000021
 30
0.0
 11
19359.11808449998
 21
8964.2799530000029
 31
0.0
  0
LINE
  5
4C82
  8
0-1
  6
CONTINUOUS
 62
     3
 10
19513.117740500002
 20
8751.2797950000004
 30
0.0
 11
19822.548167500001
 21
8751.2797950000004
 31
0.0
  0
LINE
  5
4C83
  8
0-1
  6
CONTINUOUS
 62
     3
 10
19794.080710499999
 20
8710.7442029999984
 30
0.0
 11
19826.081608500001
 21
8742.7441109999982
 31
0.0
  0
LINE
  5
4C84
  8
0-1
  6
CONTINUOUS
 62
     3
 10
19508.119456500001
 20
8742.8806980000045
 30
0.0
 11
19826.214235500011
 21
8742.8806980000045
 31
0.0
  0
LINE
  5
4C85
  8
0-1
  6
CONTINUOUS
 62
     3
 10
19508.119456500001
 20
8734.4806109999972
 30
0.0
 11
19817.817118499999
 21
8734.4806109999972
 31
0.0
  0
LINE
  5
4C86
  8
0-1
  6
CONTINUOUS
 62
     3
 10
19508.119456500001
 20
8726.0795339999986
 30
0.0
 11
19809.418020500008
 21
8726.0795339999986
 31
0.0
  0
LINE
  5
4C87
  8
0-1
  6
CONTINUOUS
 62
     3
 10
19508.119456500001
 20
8717.6794470000004
 30
0.0
 11
19801.018923499971
 21
8717.6794470000004
 31
0.0
  0
LINE
  5
4C88
  8
0-1
  6
CONTINUOUS
 62
     3
 10
19487.116764499999
 20
8700.2794779999967
 30
0.0
 11
22670.618215499991
 21
8700.2794779999967
 31
0.0
  0
LINE
  5
4C89
  8
0-1
  6
CONTINUOUS
 62
     3
 10
19487.116764499999
 20
8760.2796760000001
 30
0.0
 11
22670.618215499991
 21
8760.2796760000001
 31
0.0
  0
LINE
  5
4C8A
  8
0-1
  6
CONTINUOUS
 62
     3
 10
19359.11808449998
 20
8964.2799530000029
 30
0.0
 11
22713.118479500001
 21
8964.2799530000029
 31
0.0
  0
LINE
  5
4C8B
  8
0-1
  6
CONTINUOUS
 62
     3
 10
22713.118479500001
 20
8834.2790299999979
 30
0.0
 11
19359.11808449998
 21
8834.2790299999979
 31
0.0
  0
LINE
  5
4C8C
  8
0-1
  6
CONTINUOUS
 62
     3
 10
22713.118479500001
 20
8834.2790299999979
 30
0.0
 11
22713.118479500001
 21
8964.2799530000029
 31
0.0
  0
LINE
  5
4C8D
  8
0-1
  6
CONTINUOUS
 62
     3
 10
22713.118479500001
 20
8834.2790299999979
 30
0.0
 11
22713.118479500001
 21
8964.2799530000029
 31
0.0
  0
ARC
  5
4C8E
  8
0-1
  6
CONTINUOUS
 62
     3
 10
25913.121197499979
 20
8746.2795310000001
 30
0.0
 40
5.0
 50
0.0
 51
90.0
  0
ARC
  5
4C8F
  8
0-1
  6
CONTINUOUS
 62
     3
 10
25913.121197499979
 20
8714.2796239999971
 30
0.0
 40
5.0
 50
269.9999850001808
 51
0.0
  0
ARC
  5
4C90
  8
0-1
  6
CONTINUOUS
 62
     3
 10
25603.690771500002
 20
8746.2795310000001
 30
0.0
 40
5.0
 50
90.0
 51
224.99998499997989
  0
ARC
  5
4C91
  8
0-1
  6
CONTINUOUS
 62
     3
 10
25635.691668499989
 20
8714.2796239999971
 30
0.0
 40
5.0
 50
224.99998499997989
 51
269.9999850001808
  0
ARC
  5
4C92
  8
0-1
  6
CONTINUOUS
 62
     3
 10
23091.04816650003
 20
8746.2795310000001
 30
0.0
 40
5.0
 50
314.99998500027471
 51
90.0
  0
ARC
  5
4C93
  8
0-1
  6
CONTINUOUS
 62
     3
 10
23059.04726950001
 20
8714.2796239999971
 30
0.0
 40
5.0
 50
269.9999850001808
 51
314.99998500027471
  0
ARC
  5
4C94
  8
0-1
  6
CONTINUOUS
 62
     3
 10
22781.619719499999
 20
8714.2796239999971
 30
0.0
 40
5.0
 50
180.0
 51
269.9999850001808
  0
ARC
  5
4C95
  8
0-1
  6
CONTINUOUS
 62
     3
 10
22781.619719499999
 20
8746.2795310000001
 30
0.0
 40
5.0
 50
90.0
 51
180.0
  0
ARC
  5
4C96
  8
0-1
  6
CONTINUOUS
 62
     3
 10
22644.619218499989
 20
8714.2796239999971
 30
0.0
 40
5.0
 50
269.9999850001808
 51
0.0
  0
ARC
  5
4C97
  8
0-1
  6
CONTINUOUS
 62
     3
 10
22644.619218499989
 20
8746.2795310000001
 30
0.0
 40
5.0
 50
0.0
 51
90.0
  0
ARC
  5
4C98
  8
0-1
  6
CONTINUOUS
 62
     3
 10
22335.188792500001
 20
8746.2795310000001
 30
0.0
 40
5.0
 50
90.0
 51
224.99998499997989
  0
ARC
  5
4C99
  8
0-1
  6
CONTINUOUS
 62
     3
 10
22367.191669499989
 20
8714.2796239999971
 30
0.0
 40
5.0
 50
224.99998499997989
 51
269.9999850001808
  0
ARC
  5
4C9A
  8
0-1
  6
CONTINUOUS
 62
     3
 10
19822.548167500001
 20
8746.2795310000001
 30
0.0
 40
5.0
 50
314.99998500027471
 51
90.0
  0
ARC
  5
4C9B
  8
0-1
  6
CONTINUOUS
 62
     3
 10
19513.117740500002
 20
8746.2795310000001
 30
0.0
 40
5.0
 50
90.0
 51
180.0
  0
ARC
  5
4C9C
  8
0-1
  6
CONTINUOUS
 62
     3
 10
19513.117740500002
 20
8714.2796239999971
 30
0.0
 40
5.0
 50
180.0
 51
269.9999850001808
  0
ARC
  5
4C9D
  8
0-1
  6
CONTINUOUS
 62
     3
 10
19790.547270499981
 20
8714.2796239999971
 30
0.0
 40
5.0
 50
269.9999850001808
 51
314.99998500027471
  0
LINE
  5
4C9E
  8
SUNPOU
  6
CONTINUOUS
 62
     4
 10
19359.116104499979
 20
9044.2799530000029
 30
0.0
 11
19359.116104499979
 21
10243.737564999999
 31
0.0
  0
LINE
  5
4C9F
  8
SUNPOU
  6
CONTINUOUS
 62
     4
 10
26067.120854500001
 20
9044.2799530000029
 30
0.0
 11
26067.120854500001
 21
10243.737564999999
 31
0.0
  0
LINE
  5
4CA0
  8
SUNPOU
  6
CONTINUOUS
 62
     4
 10
19362.116104499979
 20
10163.737564999999
 30
0.0
 11
26064.120854500001
 21
10163.737564999999
 31
0.0
  0
LINE
  5
4CA1
  8
SUNPOU
  6
CONTINUOUS
 62
     4
 10
19402.118215499981
 20
9044.2799530000029
 30
0.0
 11
19402.118215499981
 21
9843.7797950000004
 31
0.0
  0
LINE
  5
4CA2
  8
SUNPOU
  6
CONTINUOUS
 62
     4
 10
26024.118743499988
 20
9044.2799530000029
 30
0.0
 11
26024.118743499988
 21
9843.7797950000004
 31
0.0
  0
LINE
  5
4CA3
  8
SUNPOU
  6
CONTINUOUS
 62
     4
 10
19402.118215499981
 20
9763.7797950000004
 30
0.0
 11
26024.118743499988
 21
9763.7797950000004
 31
0.0
  0
LINE
  5
4CA4
  8
SUNPOU
  6
CONTINUOUS
 62
     4
 10
19402.118215499981
 20
9044.2799530000029
 30
0.0
 11
19402.118215499981
 21
9843.7797950000004
 31
0.0
  0
LINE
  5
4CA5
  8
SUNPOU
  6
CONTINUOUS
 62
     4
 10
19359.116104499979
 20
9044.2799530000029
 30
0.0
 11
19359.116104499979
 21
9843.7797950000004
 31
0.0
  0
LINE
  5
4CA6
  8
SUNPOU
  6
CONTINUOUS
 62
     4
 10
19402.118215499981
 20
9763.7797950000004
 30
0.0
 11
19642.118215499981
 21
9763.7797950000004
 31
0.0
  0
LINE
  5
4CA7
  8
SUNPOU
  6
CONTINUOUS
 62
     4
 10
19362.116104499979
 20
9763.7797950000004
 30
0.0
 11
19122.11610449999
 21
9763.7797950000004
 31
0.0
  0
LINE
  5
4CA8
  8
SUNPOU
  6
CONTINUOUS
 62
     4
 10
19402.118215499981
 20
9763.7797950000004
 30
0.0
 11
19362.116104499979
 21
9763.7797950000004
 31
0.0
  0
LINE
  5
4CA9
  8
SUNPOU
  6
CONTINUOUS
 62
     4
 10
26024.118743499988
 20
9044.2799530000029
 30
0.0
 11
26024.118743499988
 21
9843.7797950000004
 31
0.0
  0
LINE
  5
4CAA
  8
SUNPOU
  6
CONTINUOUS
 62
     4
 10
26067.120854500001
 20
9044.2799530000029
 30
0.0
 11
26067.120854500001
 21
9843.7797950000004
 31
0.0
  0
LINE
  5
4CAB
  8
SUNPOU
  6
CONTINUOUS
 62
     4
 10
26024.118743499988
 20
9763.7797950000004
 30
0.0
 11
25784.118743499981
 21
9763.7797950000004
 31
0.0
  0
LINE
  5
4CAC
  8
SUNPOU
  6
CONTINUOUS
 62
     4
 10
26064.120854500001
 20
9763.7797950000004
 30
0.0
 11
26304.120854500001
 21
9763.7797950000004
 31
0.0
  0
LINE
  5
4CAD
  8
SUNPOU
  6
CONTINUOUS
 62
     4
 10
26024.118743499988
 20
9763.7797950000004
 30
0.0
 11
26064.120854500001
 21
9763.7797950000004
 31
0.0
  0
TEXT
  5
4CAE
  8
0
  6
CONTINUOUS
 62
     7
 10
26184.120854500001
 20
9843.7797950000004
 30
0.0
 40
160.0
  1
43
  0
TEXT
  5
4CAF
  8
0
  6
CONTINUOUS
 62
     7
 10
19002.11610449999
 20
9843.7797950000004
 30
0.0
 40
160.0
  1
43
  0
TEXT
  5
4CB0
  8
0
  6
CONTINUOUS
 62
     7
 10
22419.785146166669
 20
9843.7797950000004
 30
0.0
 40
160.0
  1
6622
  0
TEXT
  5
4CB1
  8
0
  6
CONTINUOUS
 62
     7
 10
22433.118479500001
 20
10243.737564999999
 30
0.0
 40
160.0
  1
6708
  0
ARC
  5
4CB2
  8
0
  6
BYBLOCK
 62
     0
 10
19359.116104499979
 20
10163.737564999999
 30
0.0
 40
15.0
 50
0.0
 51
180.0
  0
ARC
  5
4CB3
  8
0
  6
BYBLOCK
 62
     0
 10
19359.116104499979
 20
10163.737564999999
 30
0.0
 40
15.0
 50
180.0
 51
0.0
  0
ARC
  5
4CB4
  8
0
  6
BYBLOCK
 62
     0
 10
26067.120854500001
 20
10163.737564999999
 30
0.0
 40
15.0
 50
180.0
 51
0.0
  0
ARC
  5
4CB5
  8
0
  6
BYBLOCK
 62
     0
 10
26067.120854500001
 20
10163.737564999999
 30
0.0
 40
15.0
 50
0.0
 51
180.0
  0
ARC
  5
4CB6
  8
0
  6
BYBLOCK
 62
     0
 10
19402.118215499981
 20
9763.7797950000004
 30
0.0
 40
15.0
 50
0.0
 51
180.0
  0
ARC
  5
4CB7
  8
0
  6
BYBLOCK
 62
     0
 10
19402.118215499981
 20
9763.7797950000004
 30
0.0
 40
15.0
 50
180.0
 51
0.0
  0
ARC
  5
4CB8
  8
0
  6
BYBLOCK
 62
     0
 10
26024.118743499988
 20
9763.7797950000004
 30
0.0
 40
15.0
 50
180.0
 51
0.0
  0
ARC
  5
4CB9
  8
0
  6
BYBLOCK
 62
     0
 10
26024.118743499988
 20
9763.7797950000004
 30
0.0
 40
15.0
 50
0.0
 51
180.0
  0
ARC
  5
4CBA
  8
0
  6
BYBLOCK
 62
     0
 10
19402.118215499981
 20
9763.7797950000004
 30
0.0
 40
15.0
 50
0.0
 51
180.0
  0
ARC
  5
4CBB
  8
0
  6
BYBLOCK
 62
     0
 10
19402.118215499981
 20
9763.7797950000004
 30
0.0
 40
15.0
 50
180.0
 51
0.0
  0
ARC
  5
4CBC
  8
0
  6
BYBLOCK
 62
     0
 10
19359.116104499979
 20
9763.7797950000004
 30
0.0
 40
15.0
 50
180.0
 51
0.0
  0
ARC
  5
4CBD
  8
0
  6
BYBLOCK
 62
     0
 10
19359.116104499979
 20
9763.7797950000004
 30
0.0
 40
15.0
 50
0.0
 51
180.0
  0
ARC
  5
4CBE
  8
0
  6
BYBLOCK
 62
     0
 10
26024.118743499988
 20
9763.7797950000004
 30
0.0
 40
15.0
 50
180.0
 51
0.0
  0
ARC
  5
4CBF
  8
0
  6
BYBLOCK
 62
     0
 10
26024.118743499988
 20
9763.7797950000004
 30
0.0
 40
15.0
 50
0.0
 51
180.0
  0
ARC
  5
4CC0
  8
0
  6
BYBLOCK
 62
     0
 10
26067.120854500001
 20
9763.7797950000004
 30
0.0
 40
15.0
 50
0.0
 51
180.0
  0
ARC
  5
4CC1
  8
0
  6
BYBLOCK
 62
     0
 10
26067.120854500001
 20
9763.7797950000004
 30
0.0
 40
15.0
 50
180.0
 51
0.0
  0
LINE
  5
4CCF
  8
SUNPOU
  6
CONTINUOUS
 62
     4
 10
8353.1589944999978
 20
14133.729660999999
 30
0.0
 11
8353.1589944999978
 21
12933.728671999979
 31
0.0
  0
LINE
  5
4CD0
  8
SUNPOU
  6
CONTINUOUS
 62
     4
 10
15061.15879749998
 20
14133.729660999999
 30
0.0
 11
15061.15879749998
 21
12933.728671999979
 31
0.0
  0
LINE
  5
4CD1
  8
SUNPOU
  6
CONTINUOUS
 62
     4
 10
8353.1589944999978
 20
13013.728671999979
 30
0.0
 11
15061.15879749998
 21
13013.728671999979
 31
0.0
  0
TEXT
  5
4CD2
  8
0
  6
CONTINUOUS
 62
     7
 10
10904.492229333309
 20
13093.728671999979
 30
0.0
 40
160.0
  1
ケラバ外寸 6708
  0
ARC
  5
4CD3
  8
0
  6
BYBLOCK
 62
     0
 10
8353.1589944999978
 20
13013.728671999979
 30
0.0
 40
15.0
 50
0.0
 51
180.0
  0
ARC
  5
4CD4
  8
0
  6
BYBLOCK
 62
     0
 10
8353.1589944999978
 20
13013.728671999979
 30
0.0
 40
15.0
 50
180.0
 51
0.0
  0
ARC
  5
4CD5
  8
0
  6
BYBLOCK
 62
     0
 10
15061.15879749998
 20
13013.728671999979
 30
0.0
 40
15.0
 50
180.0
 51
0.0
  0
ARC
  5
4CD6
  8
0
  6
BYBLOCK
 62
     0
 10
15061.15879749998
 20
13013.728671999979
 30
0.0
 40
15.0
 50
0.0
 51
180.0
  0
TEXT
  5
4D2D
  8
NAME
 10
24033.05354655402
 20
1076.0
 30
0.0
 40
360.0
  1
H
 41
0.6700000000000002
  7
00
  0
TEXT
  5
4D2E
  8
NAME
 10
23657.2215619737
 20
1076.0
 30
0.0
 40
360.0
  1
（ ）
  7
01
  0
TEXT
  5
4D2F
  8
NAME
 10
21933.552716389018
 20
1876.0
 30
0.0
 40
360.0
  1
ヨドガレージ ラヴィージュ
 41
0.75
  7
01
  0
TEXT
  5
4D30
  8
NAME
 10
21550.022791898398
 20
1076.6369801169251
 30
0.0
 40
360.0
  1
VGCU-3355
 41
0.6700000000000002
  0
LINE
  5
4D31
  8
NAME
  6
CONTINUOUS
 10
26067.886878884321
 20
2236.0
 30
0.0
 11
26067.886878884321
 21
1876.0
 31
0.0
  0
LINE
  5
4D32
  8
NAME
  6
CONTINUOUS
 10
26167.886878884321
 20
2236.0
 30
0.0
 11
26167.886878884321
 21
1876.0
 31
0.0
  0
LINE
  5
4D33
  8
NAME
  6
CONTINUOUS
 10
26267.886878884328
 20
2236.0
 30
0.0
 11
26267.886878884328
 21
1876.0
 31
0.0
  0
LINE
  5
4D34
  8
NAME
  6
CONTINUOUS
 10
26007.886878884321
 20
2236.0
 30
0.0
 11
26327.886878884321
 21
2236.0
 31
0.0
  0
LINE
  5
4D35
  8
NAME
  6
CONTINUOUS
 10
26327.886878884321
 20
1876.0
 30
0.0
 11
26007.886878884321
 21
1876.0
 31
0.0
  0
TEXT
  5
4D36
  8
NAME
 10
25346.041792426691
 20
1076.0
 30
0.0
 40
360.0
  1
2
 41
0.6700000000000002
  7
00
  0
TEXT
  5
4D37
  8
NAME
 10
24557.214549256729
 20
1076.0
 30
0.0
 40
360.0
  1
型（ 連棟）
  7
01
  0
TEXT
  5
4DD1
  8
FILENAME
  6
CONTINUOUS
 10
28546.857142857141
 20
348.0
 30
0.0
 40
200.0
  1
＜VGCU-3355-2-A_0.DXF ＞
  7
FILENAME
 72
     2
 11
32764.0
 21
348.0
 31
0.0
  0
LINE
  5
4DD6
  8
WAKUSEN-01
 10
868.00000000000193
 20
827.99999999999955
 30
0.0
 11
32764.000000000011
 21
827.99999999999943
 31
0.0
  0
LINE
  5
4DD7
  8
WAKUSEN-01
 10
868.00000000000193
 20
827.99999999999955
 30
0.0
 11
868.00000000000193
 21
22484.000000000011
 31
0.0
  0
LINE
  5
4DD8
  8
WAKUSEN-01
 10
32764.000000000011
 20
827.99999999999943
 30
0.0
 11
32764.000000000011
 21
22484.000000000011
 31
0.0
  0
LINE
  5
4DD9
  8
WAKUSEN-01
 10
20560.0
 20
827.99999999999716
 30
0.0
 11
20560.0
 21
2484.0
 31
0.0
  0
LINE
  5
4DDA
  8
WAKUSEN-02
 10
26868.0
 20
827.99999999999261
 30
0.0
 11
26868.0
 21
2484.0
 31
0.0
  0
ENDSEC
  0
EOF
