  0
SECTION
  2
HEADER
  9
$ACADVER
  1
AC1009
  9
$INSBASE
 10
0.0
 20
0.0
 30
0.0
  9
$EXTMIN
 10
867.99324330406671
 20
327.38164749855792
 30
-0.0000000000000053
  9
$EXTMAX
 10
32765.33210850941
 20
22484.553276491992
 30
0.0000000000000099
  9
$LIMMIN
 10
0.0
 20
0.0
  9
$LIMMAX
 10
33600.0
 20
23760.0
  9
$ORTHOMODE
 70
     1
  9
$REGENMODE
 70
     1
  9
$FILLMODE
 70
     1
  9
$QTEXTMODE
 70
     0
  9
$MIRRTEXT
 70
     1
  9
$DRAGMODE
 70
     2
  9
$LTSCALE
 40
80.0
  9
$OSMODE
 70
  3071
  9
$ATTMODE
 70
     1
  9
$TEXTSIZE
 40
0.2
  9
$TRACEWID
 40
0.05
  9
$TEXTSTYLE
  7
00
  9
$CLAYER
  8
0
  9
$CELTYPE
  6
BYLAYER
  9
$CECOLOR
 62
   256
  9
$DIMSCALE
 40
80.0
  9
$DIMASZ
 40
3.0
  9
$DIMEXO
 40
1.0
  9
$DIMDLI
 40
0.38
  9
$DIMRND
 40
0.5
  9
$DIMDLE
 40
0.0
  9
$DIMEXE
 40
1.0
  9
$DIMTP
 40
0.0
  9
$DIMTM
 40
0.0
  9
$DIMTXT
 40
2.0
  9
$DIMCEN
 40
0.09
  9
$DIMTSZ
 40
0.0
  9
$DIMTOL
 70
     0
  9
$DIMLIM
 70
     0
  9
$DIMTIH
 70
     0
  9
$DIMTOH
 70
     0
  9
$DIMSE1
 70
     0
  9
$DIMSE2
 70
     0
  9
$DIMTAD
 70
     1
  9
$DIMZIN
 70
     8
  9
$DIMBLK
  1
DOTSMALL
  9
$DIMASO
 70
     1
  9
$DIMSHO
 70
     1
  9
$DIMPOST
  1

  9
$DIMAPOST
  1

  9
$DIMALT
 70
     0
  9
$DIMALTD
 70
     2
  9
$DIMALTF
 40
25.399999999999999
  9
$DIMLFAC
 40
1.0
  9
$DIMTOFL
 70
     1
  9
$DIMTVP
 40
0.0
  9
$DIMTIX
 70
     0
  9
$DIMSOXD
 70
     0
  9
$DIMSAH
 70
     0
  9
$DIMBLK1
  1

  9
$DIMBLK2
  1

  9
$DIMSTYLE
  2
SUNPOU
  9
$DIMCLRD
 70
     4
  9
$DIMCLRE
 70
     4
  9
$DIMCLRT
 70
     7
  9
$DIMTFAC
 40
1.0
  9
$DIMGAP
 40
1.0
  9
$LUNITS
 70
     2
  9
$LUPREC
 70
     4
  9
$SKETCHINC
 40
0.1
  9
$FILLETRAD
 40
0.0
  9
$AUNITS
 70
     0
  9
$AUPREC
 70
     0
  9
$MENU
  1
acad
  9
$ELEVATION
 40
0.0
  9
$PELEVATION
 40
0.0
  9
$THICKNESS
 40
0.0
  9
$LIMCHECK
 70
     0
  9
$BLIPMODE
 70
     1
  9
$CHAMFERA
 40
0.0
  9
$CHAMFERB
 40
0.0
  9
$SKPOLY
 70
     0
  9
$TDCREATE
 40
2311940.0750525701
  9
$TDUPDATE
 40
2458942.4409365971
  9
$TDINDWG
 40
0.066891412
  9
$TDUSRTIMER
 40
0.0668899653
  9
$USRTIMER
 70
     1
  9
$ANGBASE
 50
0.0
  9
$ANGDIR
 70
     0
  9
$PDMODE
 70
     0
  9
$PDSIZE
 40
0.0
  9
$PLINEWID
 40
0.0
  9
$COORDS
 70
     1
  9
$SPLFRAME
 70
     0
  9
$SPLINETYPE
 70
     6
  9
$SPLINESEGS
 70
     8
  9
$ATTDIA
 70
     1
  9
$ATTREQ
 70
     1
  9
$HANDLING
 70
     1
  9
$HANDSEED
  5
4121
  9
$SURFTAB1
 70
     6
  9
$SURFTAB2
 70
     6
  9
$SURFTYPE
 70
     6
  9
$SURFU
 70
     6
  9
$SURFV
 70
     6
  9
$UCSNAME
  2

  9
$UCSORG
 10
0.0
 20
0.0
 30
0.0
  9
$UCSXDIR
 10
1.0
 20
0.0
 30
0.0
  9
$UCSYDIR
 10
0.0
 20
1.0
 30
0.0
  9
$PUCSNAME
  2

  9
$PUCSORG
 10
0.0
 20
0.0
 30
0.0
  9
$PUCSXDIR
 10
1.0
 20
0.0
 30
0.0
  9
$PUCSYDIR
 10
0.0
 20
1.0
 30
0.0
  9
$USERI1
 70
     0
  9
$USERI2
 70
     0
  9
$USERI3
 70
     0
  9
$USERI4
 70
     0
  9
$USERI5
 70
     0
  9
$USERR1
 40
0.0
  9
$USERR2
 40
0.0
  9
$USERR3
 40
0.0
  9
$USERR4
 40
0.0
  9
$USERR5
 40
0.0
  9
$WORLDVIEW
 70
     1
  9
$SHADEDGE
 70
     3
  9
$SHADEDIF
 70
    70
  9
$TILEMODE
 70
     1
  9
$MAXACTVP
 70
    16
  9
$PLIMCHECK
 70
     0
  9
$PEXTMIN
 10
1.0000000000000000E+020
 20
1.0000000000000000E+020
 30
1.0000000000000000E+020
  9
$PEXTMAX
 10
-1.0000000000000000E+020
 20
-1.0000000000000000E+020
 30
-1.0000000000000000E+020
  9
$PLIMMIN
 10
0.0
 20
0.0
  9
$PLIMMAX
 10
12.0
 20
9.0
  9
$UNITMODE
 70
     0
  9
$VISRETAIN
 70
     0
  9
$PLINEGEN
 70
     1
  9
$PSLTSCALE
 70
     0
  0
ENDSEC
  0
SECTION
  2
TABLES
  0
TABLE
  2
VPORT
 70
     1
  0
VPORT
  2
*ACTIVE
 70
     0
 10
0.0
 20
0.0
 11
1.0
 21
1.0
 12
16800.0
 22
11880.0
 13
0.0
 23
0.0
 14
1.0
 24
1.0
 15
0.0
 25
0.0
 16
0.0
 26
0.0
 36
1.0
 17
0.0
 27
0.0
 37
0.0
 40
23981.023255813951
 41
2.195652173913043
 42
50.0
 43
0.0
 44
0.0
 50
0.0
 51
0.0
 71
     0
 72
 10000
 73
     1
 74
     1
 75
     0
 76
     0
 77
     0
 78
     0
  0
ENDTAB
  0
TABLE
  2
LTYPE
 70
     3
  0
LTYPE
  2
CONTINUOUS
 70
     0
  3
Solid line
 72
    65
 73
     0
 40
0.0
  0
LTYPE
  2
DASHED3
 70
     0
  3
------  ------  ------  ------  
 72
    65
 73
     2
 40
5.0
 49
3.75
 49
-1.25
  0
LTYPE
  2
CENTER2
 70
     0
  3
----------  --  ----------  --  
 72
    65
 73
     4
 40
20.0
 49
12.5
 49
-2.5
 49
2.5
 49
-2.5
  0
ENDTAB
  0
TABLE
  2
LAYER
 70
    18
  0
LAYER
  2
0
 70
     0
 62
     7
  6
CONTINUOUS
  0
LAYER
  2
SUNPOU
 70
     0
 62
     4
  6
CONTINUOUS
  0
LAYER
  2
0-1
 70
     0
 62
     7
  6
CONTINUOUS
  0
LAYER
  2
0-2
 70
     0
 62
     7
  6
CONTINUOUS
  0
LAYER
  2
0-5
 70
     0
 62
     7
  6
CONTINUOUS
  0
LAYER
  2
0-6
 70
     0
 62
     7
  6
CONTINUOUS
  0
LAYER
  2
2-0
 70
     0
 62
     7
  6
CONTINUOUS
  0
LAYER
  2
0-7
 70
     0
 62
     7
  6
CONTINUOUS
  0
LAYER
  2
0-0
 70
     0
 62
     7
  6
CONTINUOUS
  0
LAYER
  2
YODOROGO
 70
     0
 62
   130
  6
CONTINUOUS
  0
LAYER
  2
WAKUSEN-01
 70
     0
 62
    50
  6
CONTINUOUS
  0
LAYER
  2
WAKUSEN-02
 70
     0
 62
   130
  6
CONTINUOUS
  0
LAYER
  2
WAKUMOJI-01
 70
     0
 62
   130
  6
CONTINUOUS
  0
LAYER
  2
FILENAME
 70
     0
 62
     7
  6
CONTINUOUS
  0
LAYER
  2
NAME
 70
     0
 62
    20
  6
CONTINUOUS
  0
LAYER
  2
0-4
 70
     0
 62
     7
  6
CONTINUOUS
  0
ENDTAB
  0
TABLE
  2
STYLE
 70
     5
  0
STYLE
  2
STANDARD
 70
     0
 40
0.0
 41
1.0
 50
0.0
 71
     0
 42
0.0
  3
txt
  4
BIGFONT
  0
STYLE
  2
00
 70
     0
 40
0.0
 41
0.6666666666666666
 50
0.0
 71
     0
 42
0.2
  3
ROMANS
  4
BIGFONT
  0
STYLE
  2
01
 70
     0
 40
3.0
 41
1.0
 50
0.0
 71
     0
 42
0.2
  3
ROMANS
  4
BIGFONT
  0
STYLE
  2
WAKUMOJI
 70
     0
 40
3.0
 41
1.0
 50
0.0
 71
     0
 42
3.0
  3
SIMPLEX
  4
BIGFONT
  0
STYLE
  2
FILENAME
 70
     0
 40
200.0
 41
1.0
 50
0.0
 71
     0
 42
200.0
  3
romans
  4
bigfont
  0
ENDTAB
  0
TABLE
  2
VIEW
 70
     0
  0
ENDTAB
  0
TABLE
  2
UCS
 70
     0
  0
ENDTAB
  0
TABLE
  2
APPID
 70
    13
  0
APPID
  2
ACAD
 70
     0
  0
APPID
  2
ACADANNOTATIVE
 70
     0
  0
APPID
  2
ACAD_PSEXT
 70
     0
  0
APPID
  2
DCO15
 70
     0
  0
APPID
  2
ACAD_MLEADERVER
 70
     0
  0
APPID
  2
AUTOCAD_POSTSCRIPT_FIGURE
 70
     0
  0
APPID
  2
ACAD_EXEMPT_FROM_CAD_STANDARDS
 70
     0
  0
APPID
  2
ACAD_DSTYLE_DIMJAG
 70
     0
  0
APPID
  2
ACAD_DSTYLE_DIMTALN
 70
     0
  0
APPID
  2
ACAD_DSTYLE_DIM_LINETYPE
 70
     0
  0
APPID
  2
ACAD_DSTYLE_DIM_EXT1_LINETYPE
 70
     0
  0
APPID
  2
ACAD_DSTYLE_DIM_EXT2_LINETYPE
 70
     0
  0
APPID
  2
ACAD_NAV_VCDISPLAY
 70
     0
  0
ENDTAB
  0
TABLE
  2
DIMSTYLE
 70
     2
  0
DIMSTYLE
  2
SUNPOU
 70
     0
  3

  4

  5

  6

  7

 40
80.0
 41
3.0
 42
1.0
 43
0.38
 44
1.0
 45
0.5
 46
0.0
 47
0.0
 48
0.0
140
2.0
141
0.09
142
0.0
143
25.399999999999999
144
1.0
145
0.0
146
1.0
147
1.0
 71
     0
 72
     0
 73
     0
 74
     0
 75
     0
 76
     0
 77
     1
 78
     8
170
     0
171
     2
172
     1
173
     0
174
     0
175
     0
176
     4
177
     4
178
     7
  0
ENDTAB
  0
ENDSEC
  0
SECTION
  2
BLOCKS
  0
BLOCK
  8
0
  2
$MODEL_SPACE
 70
     0
 10
0.0
 20
0.0
 30
0.0
  3
$MODEL_SPACE
  1

  0
ENDBLK
  5
36C7
  8
0
  0
BLOCK
 67
     1
  8
0
  2
$PAPER_SPACE
 70
     0
 10
0.0
 20
0.0
 30
0.0
  3
$PAPER_SPACE
  1

  0
ENDBLK
  5
36C3
 67
     1
  8
0
  0
BLOCK
  8
0
  2
_DOTSMALL
 70
     0
 10
0.0
 20
0.0
 30
0.0
  3
_DOTSMALL
  1

  0
POLYLINE
  5
36F7
  8
0
  6
BYBLOCK
 62
     0
 66
     1
 10
0.0
 20
0.0
 30
0.0
 70
     1
 40
0.5
 41
0.5
  0
VERTEX
  5
40E9
  8
0
  6
BYBLOCK
 62
     0
 10
-0.0625
 20
0.0
 30
0.0
 42
1.0
  0
VERTEX
  5
40EA
  8
0
  6
BYBLOCK
 62
     0
 10
0.0625
 20
0.0
 30
0.0
 42
1.0
  0
SEQEND
  5
40EB
  8
0
  6
BYBLOCK
 62
     0
  0
ENDBLK
  5
36FB
  8
0
  0
ENDSEC
  0
SECTION
  2
ENTITIES
  0
LINE
  5
36FC
  8
0-1
  6
CONTINUOUS
 62
     3
 10
11173.971111999999
 20
19112.845277
 30
0.0
 11
11173.971111999999
 21
19956.930872000001
 31
0.0
  0
LINE
  5
36FD
  8
0-1
  6
CONTINUOUS
 62
     3
 10
11136.96995099999
 20
19138.303865999991
 30
0.0
 11
11136.96995099999
 21
19956.930872000001
 31
0.0
  0
LINE
  5
36FE
  8
0-1
  6
CONTINUOUS
 62
     3
 10
10626.46992499999
 20
17220.933194000001
 30
0.0
 11
13894.96992499999
 21
17220.933194000001
 31
0.0
  0
LINE
  5
36FF
  8
0-1
  6
CONTINUOUS
 62
     3
 10
13844.96930399998
 20
14108.43460699999
 30
0.0
 11
13844.96930399998
 21
19956.930872000001
 31
0.0
  0
LINE
  5
3700
  8
0-1
  6
CONTINUOUS
 62
     3
 10
10676.47054499998
 20
14108.43460699999
 30
0.0
 11
10676.47054499998
 21
19956.930872000001
 31
0.0
  0
LINE
  5
3701
  8
0-1
  6
CONTINUOUS
 62
     3
 10
10540.971508000001
 20
14076.43370999999
 30
0.0
 11
10540.971508000001
 21
19966.936281999991
 31
0.0
  0
LINE
  5
3702
  8
0-1
  6
CONTINUOUS
 62
     3
 10
13980.470320999981
 20
14076.43370999999
 30
0.0
 11
13980.470320999981
 21
19966.936281999991
 31
0.0
  0
LINE
  5
3703
  8
0-1
  6
CONTINUOUS
 62
     3
 10
10734.97129699998
 20
19414.919813
 30
0.0
 11
10734.97129699998
 21
19956.930872000001
 31
0.0
  0
LINE
  5
3704
  8
0-1
  6
CONTINUOUS
 62
     3
 10
10771.96948899999
 20
19389.459244999991
 30
0.0
 11
10771.96948899999
 21
19956.930872000001
 31
0.0
  0
LINE
  5
3705
  8
0-1
  6
CONTINUOUS
 62
     3
 10
10934.969977000001
 20
19277.299721999982
 30
0.0
 11
10934.969977000001
 21
19956.930872000001
 31
0.0
  0
LINE
  5
3706
  8
0-1
  6
CONTINUOUS
 62
     3
 10
10971.971138999999
 20
19251.83717499999
 30
0.0
 11
10971.971138999999
 21
19956.930872000001
 31
0.0
  0
LINE
  5
3707
  8
0-1
  6
CONTINUOUS
 62
     3
 10
11336.970610999981
 20
19000.683775000001
 30
0.0
 11
11336.970610999981
 21
19956.930872000001
 31
0.0
  0
LINE
  5
3708
  8
0-1
  6
CONTINUOUS
 62
     3
 10
11373.96979299998
 20
18975.229145999991
 30
0.0
 11
11373.96979299998
 21
19956.930872000001
 31
0.0
  0
LINE
  5
3709
  8
0-1
  6
CONTINUOUS
 62
     3
 10
11536.971270999989
 20
18858.564951
 30
0.0
 11
11536.971270999989
 21
19956.930872000001
 31
0.0
  0
LINE
  5
370A
  8
0-1
  6
CONTINUOUS
 62
     3
 10
11573.969462999999
 20
18833.10636300001
 30
0.0
 11
11573.969462999999
 21
19956.930872000001
 31
0.0
  0
LINE
  5
370B
  8
0-1
  6
CONTINUOUS
 62
     3
 10
11905.645718999989
 20
18604.881727
 30
0.0
 11
12050.68900499998
 21
18808.504905999998
 31
0.0
  0
LINE
  5
370C
  8
0-1
  6
CONTINUOUS
 62
     3
 10
12575.101087999999
 20
17825.594036999992
 30
0.0
 11
12720.143383000001
 21
18029.215236
 31
0.0
  0
LINE
  5
370D
  8
0-1
  6
CONTINUOUS
 62
     3
 10
12575.101087999999
 20
17825.594036999992
 30
0.0
 11
12050.68900499998
 21
18808.504905999998
 31
0.0
  0
LINE
  5
370E
  8
0-1
  6
CONTINUOUS
 62
     3
 10
10626.46992499999
 20
17141.93258700001
 30
0.0
 11
13894.96992499999
 21
17141.93258700001
 31
0.0
  0
LINE
  5
370F
  8
0-1
  6
CONTINUOUS
 62
     3
 10
10583.96966099999
 20
14232.434619999991
 30
0.0
 11
13937.469198999979
 21
14232.434619999991
 31
0.0
  0
LINE
  5
3710
  8
0-1
  6
CONTINUOUS
 62
     3
 10
10626.46992499999
 20
14311.435226999991
 30
0.0
 11
13894.96992499999
 21
14311.435226999991
 31
0.0
  0
LINE
  5
3711
  8
0-1
  6
CONTINUOUS
 62
     3
 10
10540.971508000001
 20
14076.43370999999
 30
0.0
 11
13980.470320999981
 21
14076.43370999999
 31
0.0
  0
LINE
  5
3712
  8
0-1
  6
CONTINUOUS
 62
     3
 10
10540.971508000001
 20
14108.43460699999
 30
0.0
 11
13980.470320999981
 21
14108.43460699999
 31
0.0
  0
LINE
  5
3713
  8
0-1
  6
CONTINUOUS
 62
     3
 10
13894.96992499999
 20
14232.434619999991
 30
0.0
 11
13894.96992499999
 21
17218.547874
 31
0.0
  0
LINE
  5
3714
  8
0-1
  6
CONTINUOUS
 62
     3
 10
13937.469198999979
 20
14232.434619999991
 30
0.0
 11
13937.469198999979
 21
17189.304445999991
 31
0.0
  0
LINE
  5
3715
  8
0-1
  6
CONTINUOUS
 62
     3
 10
14251.799923999981
 20
16973.01828700001
 30
0.0
 11
12720.143383000001
 21
18029.215236
 31
0.0
  0
LINE
  5
3716
  8
0-1
  6
CONTINUOUS
 62
     3
 10
10626.46992499999
 20
14232.434619999991
 30
0.0
 11
10626.46992499999
 21
19489.57537699999
 31
0.0
  0
LINE
  5
3717
  8
0-1
  6
CONTINUOUS
 62
     3
 10
10583.96966099999
 20
14232.434619999991
 30
0.0
 11
10583.96966099999
 21
19519.264196
 31
0.0
  0
LINE
  5
3718
  8
0-1
  6
CONTINUOUS
 62
     3
 10
11736.969950999999
 20
18720.944859999989
 30
0.0
 11
11736.969950999999
 21
19956.930872000001
 31
0.0
  0
LINE
  5
3719
  8
0-1
  6
CONTINUOUS
 62
     3
 10
11773.97111199999
 20
18695.486271999998
 30
0.0
 11
11773.97111199999
 21
19956.930872000001
 31
0.0
  0
LINE
  5
371A
  8
0-1
  6
CONTINUOUS
 62
     3
 10
11936.97061099999
 20
18648.854753
 30
0.0
 11
11936.97061099999
 21
19956.930872000001
 31
0.0
  0
LINE
  5
371B
  8
0-1
  6
CONTINUOUS
 62
     3
 10
12336.969950999999
 20
18273.968852000002
 30
0.0
 11
12336.969950999999
 21
19956.930872000001
 31
0.0
  0
LINE
  5
371C
  8
0-1
  6
CONTINUOUS
 62
     3
 10
12373.97111199999
 20
18204.303655
 30
0.0
 11
12373.97111199999
 21
19956.930872000001
 31
0.0
  0
LINE
  5
371D
  8
0-1
  6
CONTINUOUS
 62
     3
 10
12536.970611000001
 20
17897.387217
 30
0.0
 11
12536.970611000001
 21
19956.930872000001
 31
0.0
  0
LINE
  5
371E
  8
0-1
  6
CONTINUOUS
 62
     3
 10
12573.968802999991
 20
17827.722018999979
 30
0.0
 11
12573.968802999991
 21
19956.930872000001
 31
0.0
  0
LINE
  5
371F
  8
0-1
  6
CONTINUOUS
 62
     3
 10
12736.97226099999
 20
18017.637031999991
 30
0.0
 11
12736.97226099999
 21
19956.930872000001
 31
0.0
  0
LINE
  5
3720
  8
0-1
  6
CONTINUOUS
 62
     3
 10
12773.97045299998
 20
17992.180422999991
 30
0.0
 11
12773.97045299998
 21
19956.930872000001
 31
0.0
  0
LINE
  5
3721
  8
0-1
  6
CONTINUOUS
 62
     3
 10
12936.96995099999
 20
17880.020899999989
 30
0.0
 11
12936.96995099999
 21
19956.930872000001
 31
0.0
  0
LINE
  5
3722
  8
0-1
  6
CONTINUOUS
 62
     3
 10
12973.971111999999
 20
17854.560332000001
 30
0.0
 11
12973.971111999999
 21
19956.930872000001
 31
0.0
  0
LINE
  5
3723
  8
0-1
  6
CONTINUOUS
 62
     3
 10
13136.970611000001
 20
17742.400808999999
 30
0.0
 11
13136.970611000001
 21
19956.930872000001
 31
0.0
  0
LINE
  5
3724
  8
0-1
  6
CONTINUOUS
 62
     3
 10
13173.968802999991
 20
17716.940241
 30
0.0
 11
13173.968802999991
 21
19956.930872000001
 31
0.0
  0
LINE
  5
3725
  8
0-1
  6
CONTINUOUS
 62
     3
 10
13336.970281
 20
17604.784677999982
 30
0.0
 11
13336.970281
 21
19956.930872000001
 31
0.0
  0
LINE
  5
3726
  8
0-1
  6
CONTINUOUS
 62
     3
 10
13373.970452999991
 20
17579.324110000001
 30
0.0
 11
13373.970452999991
 21
19956.930872000001
 31
0.0
  0
LINE
  5
3727
  8
0-1
  6
CONTINUOUS
 62
     3
 10
13536.96995099999
 20
17457.661842000001
 30
0.0
 11
13536.96995099999
 21
19956.930872000001
 31
0.0
  0
LINE
  5
3728
  8
0-1
  6
CONTINUOUS
 62
     3
 10
13573.971111999999
 20
17432.201273999999
 30
0.0
 11
13573.971111999999
 21
19956.930872000001
 31
0.0
  0
LINE
  5
3729
  8
0-1
  6
CONTINUOUS
 62
     3
 10
13747.47005699999
 20
17320.041751000012
 30
0.0
 11
13747.47005699999
 21
19956.930872000001
 31
0.0
  0
LINE
  5
372A
  8
0-1
  6
CONTINUOUS
 62
     3
 10
13784.46824899999
 20
17294.585142
 30
0.0
 11
13784.46824899999
 21
19956.930872000001
 31
0.0
  0
LINE
  5
372B
  8
0-1
  6
CONTINUOUS
 62
     3
 10
11973.97078199998
 20
18700.797319999991
 30
0.0
 11
11973.97078199998
 21
19956.930872000001
 31
0.0
  0
LINE
  5
372C
  8
0-1
  6
CONTINUOUS
 62
     3
 10
12136.972261000001
 20
18646.043836000001
 30
0.0
 11
12136.972261000001
 21
19956.930872000001
 31
0.0
  0
LINE
  5
372D
  8
0-1
  6
CONTINUOUS
 62
     3
 10
12173.970453
 20
18576.378638999991
 30
0.0
 11
12173.970453
 21
19956.930872000001
 31
0.0
  0
LINE
  5
372E
  8
0-1
  6
CONTINUOUS
 62
     3
 10
11905.645718999989
 20
18604.881727
 30
0.0
 11
10290.26254999999
 21
19720.91577499999
 31
0.0
  0
LINE
  5
372F
  8
0-1
  6
CONTINUOUS
 62
     3
 10
10626.46992499999
 20
15697.17522350002
 30
0.0
 11
13894.96992499999
 21
15697.17522350002
 31
0.0
  0
LINE
  5
3730
  8
0-1
  6
CONTINUOUS
 62
     3
 10
10626.46992499999
 20
15759.175724500021
 30
0.0
 11
13894.96992499999
 21
15759.175724500021
 31
0.0
  0
LINE
  5
3731
  8
0-1
  6
CONTINUOUS
 62
     3
 10
10626.46992499999
 20
18676.932243999989
 30
0.0
 11
11800.934135
 21
18676.932243999989
 31
0.0
  0
LINE
  5
3732
  8
0-1
  6
CONTINUOUS
 62
     3
 10
10626.46992499999
 20
18614.933722000002
 30
0.0
 11
11891.037861999999
 21
18614.933722000002
 31
0.0
  0
LINE
  5
3733
  8
0-1
  6
CONTINUOUS
 62
     3
 10
10696.46966099999
 20
18645.934963
 30
0.0
 11
13824.970188999991
 21
17186.934963
 31
0.0
  0
LINE
  5
3734
  8
0-1
  6
CONTINUOUS
 62
     3
 10
10696.46966099999
 20
17186.934963
 30
0.0
 11
13824.970188999991
 21
15728.17547450002
 31
0.0
  0
LINE
  5
3735
  8
0-1
  6
CONTINUOUS
 62
     3
 10
13824.970188999991
 20
15728.17547450002
 30
0.0
 11
10696.46966099999
 21
14268.934962999991
 31
0.0
  0
LINE
  5
3736
  8
0-1
  6
CONTINUOUS
 62
     3
 10
13824.970188999991
 20
17186.934963
 30
0.0
 11
10696.46966099999
 21
15728.17547450002
 31
0.0
  0
LINE
  5
3737
  8
0-1
  6
CONTINUOUS
 62
     3
 10
10696.46966099999
 20
15728.17547450002
 30
0.0
 11
13824.970188999991
 21
14268.934962999991
 31
0.0
  0
LINE
  5
3738
  8
0-1
  6
CONTINUOUS
 62
     3
 10
12470.00547699999
 20
18023.478590999981
 30
0.0
 11
10696.46966099999
 21
17186.934963
 31
0.0
  0
LINE
  5
3739
  8
0-1
  6
CONTINUOUS
 62
     3
 10
11455.439848999989
 20
18914.664508000002
 30
0.0
 11
10696.46966099999
 21
18645.934963
 31
0.0
  0
LINE
  5
373A
  8
0-1
  6
CONTINUOUS
 62
     3
 10
11912.805638
 20
18614.933722000002
 30
0.0
 11
12153.493323000001
 21
18614.933722000002
 31
0.0
  0
LINE
  5
373B
  8
0-1
  6
CONTINUOUS
 62
     3
 10
11956.969687000001
 20
18676.932243999989
 30
0.0
 11
12120.56799
 21
18676.932243999989
 31
0.0
  0
LINE
  5
373C
  8
0-1
  6
CONTINUOUS
 62
     3
 10
9626.2250580000036
 20
8588.6831290000027
 30
0.0
 11
15156.723475000001
 21
8588.6831290000027
 31
0.0
  0
LINE
  5
373D
  8
0-1
  6
CONTINUOUS
 62
     3
 10
8916.2242000000006
 20
6577.6372500000016
 30
0.0
 11
15189.22327699999
 21
6577.6372500000016
 31
0.0
  0
LINE
  5
373E
  8
0-1
  6
CONTINUOUS
 62
     3
 10
9721.2241340000037
 20
6727.6372500000016
 30
0.0
 11
12143.723409
 21
6727.6372500000016
 31
0.0
  0
LINE
  5
373F
  8
0-1
  6
CONTINUOUS
 62
     3
 10
9598.7232769999955
 20
6677.6370850000048
 30
0.0
 11
15189.22327699999
 21
6677.6370850000048
 31
0.0
  0
LINE
  5
3740
  8
0-1
  6
CONTINUOUS
 62
     3
 10
9721.2241340000037
 20
8588.6831290000027
 30
0.0
 11
9721.2241340000037
 21
6677.6370850000039
 31
0.0
  0
LINE
  5
3741
  8
0-1
  6
CONTINUOUS
 62
     3
 10
9606.2240020000045
 20
8710.6511659999978
 30
0.0
 11
9606.2240020000045
 21
6677.6370850000039
 31
0.0
  0
LINE
  5
3742
  8
0-1
  6
CONTINUOUS
 62
     3
 10
9626.2250580000036
 20
8711.3063870000024
 30
0.0
 11
9626.2250580000036
 21
6677.6370850000039
 31
0.0
  0
LINE
  5
3743
  8
0-1
  6
CONTINUOUS
 62
     3
 10
9598.7232769999955
 20
6577.6372500000016
 30
0.0
 11
9598.7232769999955
 21
6677.6370850000048
 31
0.0
  0
LINE
  5
3744
  8
0-1
  6
CONTINUOUS
 62
     3
 10
15251.857158999999
 20
8895.126462000002
 30
0.0
 11
15247.597234999999
 21
9025.0561230000021
 31
0.0
  0
LINE
  5
3745
  8
0-1
  6
CONTINUOUS
 62
     3
 10
12288.723145
 20
6727.6372500000016
 30
0.0
 11
15061.723409
 21
6727.6372500000016
 31
0.0
  0
LINE
  5
3746
  8
0-1
  6
CONTINUOUS
 62
     3
 10
11752.223130999981
 20
6727.6372500000016
 30
0.0
 11
11752.223130999981
 21
8588.6831290000027
 31
0.0
  0
LINE
  5
3747
  8
0-1
  6
CONTINUOUS
 62
     3
 10
11619.224227000001
 20
6727.6372500000016
 30
0.0
 11
11619.224227000001
 21
8588.6831290000027
 31
0.0
  0
LINE
  5
3748
  8
0-1
  6
CONTINUOUS
 62
     3
 10
11604.222444999999
 20
6727.6372500000016
 30
0.0
 11
11604.222444999999
 21
8588.6831290000027
 31
0.0
  0
LINE
  5
3749
  8
0-1
  6
CONTINUOUS
 62
     3
 10
11802.224780999981
 20
6727.6372500000016
 30
0.0
 11
11802.224780999981
 21
8588.6831290000027
 31
0.0
  0
LINE
  5
374A
  8
0-1
  6
CONTINUOUS
 62
     3
 10
11822.223857000001
 20
6727.6372500000016
 30
0.0
 11
11822.223857000001
 21
8588.6831290000027
 31
0.0
  0
LINE
  5
374B
  8
0-1
  6
CONTINUOUS
 62
     3
 10
11872.224517000001
 20
6727.6372500000016
 30
0.0
 11
11872.224517000001
 21
8588.6831290000027
 31
0.0
  0
LINE
  5
374C
  8
0-1
  6
CONTINUOUS
 62
     3
 10
12005.22342199999
 20
6727.6372500000016
 30
0.0
 11
12005.22342199999
 21
8588.6831290000027
 31
0.0
  0
LINE
  5
374D
  8
0-1
  6
CONTINUOUS
 62
     3
 10
12020.222234000001
 20
6727.6372500000016
 30
0.0
 11
12020.222234000001
 21
8588.6831290000027
 31
0.0
  0
LINE
  5
374E
  8
0-1
  6
CONTINUOUS
 62
     3
 10
12288.723145
 20
8588.6831290000027
 30
0.0
 11
12288.723145
 21
6677.6370850000039
 31
0.0
  0
LINE
  5
374F
  8
0-1
  6
CONTINUOUS
 62
     3
 10
12143.723409
 20
8588.6831290000027
 30
0.0
 11
12143.723409
 21
6677.6370850000039
 31
0.0
  0
LINE
  5
3750
  8
0-1
  6
CONTINUOUS
 62
     3
 10
12412.22233999998
 20
6727.6372500000016
 30
0.0
 11
12412.22233999998
 21
8588.6831290000027
 31
0.0
  0
LINE
  5
3751
  8
0-1
  6
CONTINUOUS
 62
     3
 10
12427.224120999999
 20
6727.6372500000016
 30
0.0
 11
12427.224120999999
 21
8588.6831290000027
 31
0.0
  0
LINE
  5
3752
  8
0-1
  6
CONTINUOUS
 62
     3
 10
12560.223025999991
 20
6727.6372500000016
 30
0.0
 11
12560.223025999991
 21
8588.6831290000027
 31
0.0
  0
LINE
  5
3753
  8
0-1
  6
CONTINUOUS
 62
     3
 10
12610.22368599999
 20
6727.6372500000016
 30
0.0
 11
12610.22368599999
 21
8588.6831290000027
 31
0.0
  0
LINE
  5
3754
  8
0-1
  6
CONTINUOUS
 62
     3
 10
12630.222761999999
 20
6727.6372500000016
 30
0.0
 11
12630.222761999999
 21
8588.6831290000027
 31
0.0
  0
LINE
  5
3755
  8
0-1
  6
CONTINUOUS
 62
     3
 10
10402.223130999981
 20
6727.6372500000016
 30
0.0
 11
10402.223130999981
 21
8588.6831290000027
 31
0.0
  0
LINE
  5
3756
  8
0-1
  6
CONTINUOUS
 62
     3
 10
10422.225177
 20
6727.6372500000016
 30
0.0
 11
10422.225177
 21
8588.6831290000027
 31
0.0
  0
LINE
  5
3757
  8
0-1
  6
CONTINUOUS
 62
     3
 10
10352.22247199999
 20
6727.6372500000016
 30
0.0
 11
10352.22247199999
 21
8588.6831290000027
 31
0.0
  0
LINE
  5
3758
  8
0-1
  6
CONTINUOUS
 62
     3
 10
10472.222868000001
 20
6727.6372500000016
 30
0.0
 11
10472.222868000001
 21
8588.6831290000027
 31
0.0
  0
LINE
  5
3759
  8
0-1
  6
CONTINUOUS
 62
     3
 10
10605.22276199999
 20
6727.6372500000016
 30
0.0
 11
10605.22276199999
 21
8588.6831290000027
 31
0.0
  0
LINE
  5
375A
  8
0-1
  6
CONTINUOUS
 62
     3
 10
10620.224543999981
 20
6727.6372500000016
 30
0.0
 11
10620.224543999981
 21
8588.6831290000027
 31
0.0
  0
LINE
  5
375B
  8
0-1
  6
CONTINUOUS
 62
     3
 10
10209.723791
 20
6727.6372500000016
 30
0.0
 11
10209.723791
 21
8588.6831290000027
 31
0.0
  0
LINE
  5
375C
  8
0-1
  6
CONTINUOUS
 62
     3
 10
10194.724979000001
 20
6727.6372500000016
 30
0.0
 11
10194.724979000001
 21
8588.6831290000027
 31
0.0
  0
LINE
  5
375D
  8
0-1
  6
CONTINUOUS
 62
     3
 10
10904.223104999979
 20
6727.6372500000016
 30
0.0
 11
10904.223104999979
 21
8588.6831290000027
 31
0.0
  0
LINE
  5
375E
  8
0-1
  6
CONTINUOUS
 62
     3
 10
10919.22191699999
 20
6727.6372500000016
 30
0.0
 11
10919.22191699999
 21
8588.6831290000027
 31
0.0
  0
LINE
  5
375F
  8
0-1
  6
CONTINUOUS
 62
     3
 10
11320.223884000001
 20
6727.6372500000016
 30
0.0
 11
11320.223884000001
 21
8588.6831290000027
 31
0.0
  0
LINE
  5
3760
  8
0-1
  6
CONTINUOUS
 62
     3
 10
11305.222102
 20
6727.6372500000016
 30
0.0
 11
11305.222102
 21
8588.6831290000027
 31
0.0
  0
LINE
  5
3761
  8
0-1
  6
CONTINUOUS
 62
     3
 10
11172.22220799999
 20
6727.6372500000016
 30
0.0
 11
11172.22220799999
 21
8588.6831290000027
 31
0.0
  0
LINE
  5
3762
  8
0-1
  6
CONTINUOUS
 62
     3
 10
11052.223790999989
 20
6727.6372500000016
 30
0.0
 11
11052.223790999989
 21
8588.6831290000027
 31
0.0
  0
LINE
  5
3763
  8
0-1
  6
CONTINUOUS
 62
     3
 10
11122.22451699999
 20
6727.6372500000016
 30
0.0
 11
11122.22451699999
 21
8588.6831290000027
 31
0.0
  0
LINE
  5
3764
  8
0-1
  6
CONTINUOUS
 62
     3
 10
11102.222471999979
 20
6727.6372500000016
 30
0.0
 11
11102.222471999979
 21
8588.6831290000027
 31
0.0
  0
LINE
  5
3765
  8
0-1
  6
CONTINUOUS
 62
     3
 10
11443.724068
 20
8588.6831290000027
 30
0.0
 11
11443.724068
 21
6727.6372500000016
 31
0.0
  0
LINE
  5
3766
  8
0-1
  6
CONTINUOUS
 62
     3
 10
11480.722261000001
 20
8588.6831290000027
 30
0.0
 11
11480.722261000001
 21
6727.6372500000016
 31
0.0
  0
LINE
  5
3767
  8
0-1
  6
CONTINUOUS
 62
     3
 10
10034.223633
 20
8588.6831290000027
 30
0.0
 11
10034.223633
 21
6727.6372500000016
 31
0.0
  0
LINE
  5
3768
  8
0-1
  6
CONTINUOUS
 62
     3
 10
10071.223803999999
 20
8588.6831290000027
 30
0.0
 11
10071.223803999999
 21
6727.6372500000016
 31
0.0
  0
LINE
  5
3769
  8
0-1
  6
CONTINUOUS
 62
     3
 10
10743.72472799999
 20
8588.6831290000027
 30
0.0
 11
10743.72472799999
 21
6727.6372500000016
 31
0.0
  0
LINE
  5
376A
  8
0-1
  6
CONTINUOUS
 62
     3
 10
10780.72291999998
 20
8588.6831290000027
 30
0.0
 11
10780.72291999998
 21
6727.6372500000016
 31
0.0
  0
LINE
  5
376B
  8
0-1
  6
CONTINUOUS
 62
     3
 10
12216.223276999999
 20
8795.9189289999995
 30
0.0
 11
12211.962363000001
 21
8925.8485900000032
 31
0.0
  0
LINE
  5
376C
  8
0-1
  6
CONTINUOUS
 62
     3
 10
12216.223276999999
 20
8795.9189289999995
 30
0.0
 11
12216.223276999999
 21
8588.6831290000027
 31
0.0
  0
LINE
  5
376D
  8
0-1
  6
CONTINUOUS
 62
     3
 10
15061.723409
 20
8588.6831290000027
 30
0.0
 11
15061.723409
 21
6677.6370850000039
 31
0.0
  0
LINE
  5
376E
  8
0-1
  6
CONTINUOUS
 62
     3
 10
15176.722551000001
 20
8892.6629510000057
 30
0.0
 11
15176.722551000001
 21
6677.6370850000039
 31
0.0
  0
LINE
  5
376F
  8
0-1
  6
CONTINUOUS
 62
     3
 10
15156.723475000001
 20
8892.0067410000029
 30
0.0
 11
15156.723475000001
 21
6677.6370850000039
 31
0.0
  0
LINE
  5
3770
  8
0-1
  6
CONTINUOUS
 62
     3
 10
13651.723632999991
 20
8588.6831290000027
 30
0.0
 11
13651.723632999991
 21
6727.6372500000016
 31
0.0
  0
LINE
  5
3771
  8
0-1
  6
CONTINUOUS
 62
     3
 10
13688.722814999979
 20
8588.6831290000027
 30
0.0
 11
13688.722814999979
 21
6727.6372500000016
 31
0.0
  0
LINE
  5
3772
  8
0-1
  6
CONTINUOUS
 62
     3
 10
14361.724068999991
 20
8588.6831290000027
 30
0.0
 11
14361.724068999991
 21
6727.6372500000016
 31
0.0
  0
LINE
  5
3773
  8
0-1
  6
CONTINUOUS
 62
     3
 10
14398.722261000001
 20
8588.6831290000027
 30
0.0
 11
14398.722261000001
 21
6727.6372500000016
 31
0.0
  0
LINE
  5
3774
  8
0-1
  6
CONTINUOUS
 62
     3
 10
12951.722313
 20
8588.6831290000027
 30
0.0
 11
12951.722313
 21
6727.6372500000016
 31
0.0
  0
LINE
  5
3775
  8
0-1
  6
CONTINUOUS
 62
     3
 10
12988.723474999981
 20
8588.6831290000027
 30
0.0
 11
12988.723474999981
 21
6727.6372500000016
 31
0.0
  0
LINE
  5
3776
  8
0-1
  6
CONTINUOUS
 62
     3
 10
13330.222102
 20
6727.6372500000016
 30
0.0
 11
13330.222102
 21
8588.6831290000027
 31
0.0
  0
LINE
  5
3777
  8
0-1
  6
CONTINUOUS
 62
     3
 10
13310.223026
 20
6727.6372500000016
 30
0.0
 11
13310.223026
 21
8588.6831290000027
 31
0.0
  0
LINE
  5
3778
  8
0-1
  6
CONTINUOUS
 62
     3
 10
13380.222761999999
 20
6727.6372500000016
 30
0.0
 11
13380.222761999999
 21
8588.6831290000027
 31
0.0
  0
LINE
  5
3779
  8
0-1
  6
CONTINUOUS
 62
     3
 10
13260.222366
 20
6727.6372500000016
 30
0.0
 11
13260.222366
 21
8588.6831290000027
 31
0.0
  0
LINE
  5
377A
  8
0-1
  6
CONTINUOUS
 62
     3
 10
13127.22247199999
 20
6727.6372500000016
 30
0.0
 11
13127.22247199999
 21
8588.6831290000027
 31
0.0
  0
LINE
  5
377B
  8
0-1
  6
CONTINUOUS
 62
     3
 10
13112.22365899999
 20
6727.6372500000016
 30
0.0
 11
13112.22365899999
 21
8588.6831290000027
 31
0.0
  0
LINE
  5
377C
  8
0-1
  6
CONTINUOUS
 62
     3
 10
13513.222655999991
 20
6727.6372500000016
 30
0.0
 11
13513.222655999991
 21
8588.6831290000027
 31
0.0
  0
LINE
  5
377D
  8
0-1
  6
CONTINUOUS
 62
     3
 10
13528.224437999999
 20
6727.6372500000016
 30
0.0
 11
13528.224437999999
 21
8588.6831290000027
 31
0.0
  0
LINE
  5
377E
  8
0-1
  6
CONTINUOUS
 62
     3
 10
14228.22377799999
 20
6727.6372500000016
 30
0.0
 11
14228.22377799999
 21
8588.6831290000027
 31
0.0
  0
LINE
  5
377F
  8
0-1
  6
CONTINUOUS
 62
     3
 10
14213.221997000001
 20
6727.6372500000016
 30
0.0
 11
14213.221997000001
 21
8588.6831290000027
 31
0.0
  0
LINE
  5
3780
  8
0-1
  6
CONTINUOUS
 62
     3
 10
13812.223
 20
6727.6372500000016
 30
0.0
 11
13812.223
 21
8588.6831290000027
 31
0.0
  0
LINE
  5
3781
  8
0-1
  6
CONTINUOUS
 62
     3
 10
13827.223791
 20
6727.6372500000016
 30
0.0
 11
13827.223791
 21
8588.6831290000027
 31
0.0
  0
LINE
  5
3782
  8
0-1
  6
CONTINUOUS
 62
     3
 10
13960.224676
 20
6727.6372500000016
 30
0.0
 11
13960.224676
 21
8588.6831290000027
 31
0.0
  0
LINE
  5
3783
  8
0-1
  6
CONTINUOUS
 62
     3
 10
14080.222102
 20
6727.6372500000016
 30
0.0
 11
14080.222102
 21
8588.6831290000027
 31
0.0
  0
LINE
  5
3784
  8
0-1
  6
CONTINUOUS
 62
     3
 10
14010.222366
 20
6727.6372500000016
 30
0.0
 11
14010.222366
 21
8588.6831290000027
 31
0.0
  0
LINE
  5
3785
  8
0-1
  6
CONTINUOUS
 62
     3
 10
14030.22441199999
 20
6727.6372500000016
 30
0.0
 11
14030.22441199999
 21
8588.6831290000027
 31
0.0
  0
LINE
  5
3786
  8
0-1
  6
CONTINUOUS
 62
     3
 10
14740.223857999999
 20
6727.6372500000016
 30
0.0
 11
14740.223857999999
 21
8588.6831290000027
 31
0.0
  0
LINE
  5
3787
  8
0-1
  6
CONTINUOUS
 62
     3
 10
14720.22478199999
 20
6727.6372500000016
 30
0.0
 11
14720.22478199999
 21
8588.6831290000027
 31
0.0
  0
LINE
  5
3788
  8
0-1
  6
CONTINUOUS
 62
     3
 10
14790.224517999981
 20
6727.6372500000016
 30
0.0
 11
14790.224517999981
 21
8588.6831290000027
 31
0.0
  0
LINE
  5
3789
  8
0-1
  6
CONTINUOUS
 62
     3
 10
14670.224121999991
 20
6727.6372500000016
 30
0.0
 11
14670.224121999991
 21
8588.6831290000027
 31
0.0
  0
LINE
  5
378A
  8
0-1
  6
CONTINUOUS
 62
     3
 10
14537.224227000001
 20
6727.6372500000016
 30
0.0
 11
14537.224227000001
 21
8588.6831290000027
 31
0.0
  0
LINE
  5
378B
  8
0-1
  6
CONTINUOUS
 62
     3
 10
14522.222445999991
 20
6727.6372500000016
 30
0.0
 11
14522.222445999991
 21
8588.6831290000027
 31
0.0
  0
LINE
  5
378C
  8
0-1
  6
CONTINUOUS
 62
     3
 10
14923.22441199999
 20
6727.6372500000016
 30
0.0
 11
14923.22441199999
 21
8588.6831290000027
 31
0.0
  0
LINE
  5
378D
  8
0-1
  6
CONTINUOUS
 62
     3
 10
14938.223223999979
 20
6727.6372500000016
 30
0.0
 11
14938.223223999979
 21
8588.6831290000027
 31
0.0
  0
LINE
  5
378E
  8
0-1
  6
CONTINUOUS
 62
     3
 10
12828.222128999991
 20
6727.6372500000016
 30
0.0
 11
12828.222128999991
 21
8588.6831290000027
 31
0.0
  0
LINE
  5
378F
  8
0-1
  6
CONTINUOUS
 62
     3
 10
12813.223315999991
 20
6727.6372500000016
 30
0.0
 11
12813.223315999991
 21
8588.6831290000027
 31
0.0
  0
LINE
  5
3790
  8
0-1
  6
CONTINUOUS
 62
     3
 10
12680.224412
 20
6727.6372500000016
 30
0.0
 11
12680.224412
 21
8588.6831290000027
 31
0.0
  0
LINE
  5
3791
  8
0-1
  6
CONTINUOUS
 62
     3
 10
15189.22327699999
 20
6677.6370850000048
 30
0.0
 11
15189.22327699999
 21
6577.6372500000016
 31
0.0
  0
LINE
  5
3792
  8
0-1
  6
CONTINUOUS
 62
     3
 10
9428.9115950000032
 20
8752.8624200000031
 30
0.0
 11
9427.7971260000068
 21
8786.8448159999953
 31
0.0
  0
LINE
  5
3793
  8
0-1
  6
CONTINUOUS
 62
     3
 10
9430.6971210000029
 20
8789.9407830000018
 30
0.0
 11
15261.064888999999
 21
8980.4734050000006
 31
0.0
  0
LINE
  5
3794
  8
0-1
  6
CONTINUOUS
 62
     3
 10
15262.37631999999
 20
8940.4950480000007
 30
0.0
 11
9432.0095410000049
 21
8749.9624260000019
 31
0.0
  0
LINE
  5
3795
  8
0-1
  6
CONTINUOUS
 62
     3
 10
9429.2728569999963
 20
8741.8681740000029
 30
0.0
 11
9429.2698880000044
 21
8741.9334979999985
 31
0.0
  0
LINE
  5
3796
  8
0-1
  6
CONTINUOUS
 62
     3
 10
9429.2698880000044
 20
8741.9334979999985
 30
0.0
 11
9430.3210120000003
 21
8709.8860820000027
 31
0.0
  0
LINE
  5
3797
  8
0-1
  6
CONTINUOUS
 62
     3
 10
9435.4816169999976
 20
8705.0530880000024
 30
0.0
 11
15284.82109199998
 21
8896.207279000002
 31
0.0
  0
LINE
  5
3798
  8
0-1
  6
CONTINUOUS
 62
     3
 10
15280.560177999991
 20
9026.1369400000021
 30
0.0
 11
9431.2226829999981
 21
8834.9827490000007
 31
0.0
  0
LINE
  5
3799
  8
0-1
  6
CONTINUOUS
 62
     3
 10
9426.3877090000005
 20
8829.8211540000011
 30
0.0
 11
9427.4378429999997
 21
8797.8390620000027
 31
0.0
  0
LINE
  5
379A
  8
0-1
  6
CONTINUOUS
 62
     3
 10
9430.5338100000008
 20
8794.939067000003
 30
0.0
 11
15260.902569
 21
8985.4716900000021
 31
0.0
  0
LINE
  5
379B
  8
0-1
  6
CONTINUOUS
 62
     3
 10
15262.538640999999
 20
8935.4987430000001
 30
0.0
 11
9432.1718620000029
 21
8744.9651310000008
 31
0.0
  0
LINE
  5
379C
  8
0-1
  6
CONTINUOUS
 62
     3
 10
9443.7144350000017
 20
8835.392509000003
 30
0.0
 11
9447.9753479999981
 21
8705.4618580000024
 31
0.0
  0
LINE
  5
379D
  8
0-1
  6
CONTINUOUS
 62
     3
 10
10558.97127099998
 20
19533.956182999991
 30
0.0
 11
10558.97127099998
 21
19959.437866
 31
0.0
  0
LINE
  5
379E
  8
0-1
  6
CONTINUOUS
 62
     3
 10
13962.46956799998
 20
17174.167067999999
 30
0.0
 11
13962.46956799998
 21
19959.437866
 31
0.0
  0
LINE
  5
379F
  8
0-1
  6
CONTINUOUS
 62
     3
 10
10558.97127099998
 20
19936.938657999988
 30
0.0
 11
10609.47076899999
 21
19936.938657999988
 31
0.0
  0
LINE
  5
37A0
  8
0-1
  6
CONTINUOUS
 62
     3
 10
10558.97127099998
 20
19959.437866
 30
0.0
 11
10540.971508000001
 21
19959.437866
 31
0.0
  0
LINE
  5
37A1
  8
0-1
  6
CONTINUOUS
 62
     3
 10
10609.47076899999
 20
19976.936809999999
 30
0.0
 11
10545.969793
 21
19976.936809999999
 31
0.0
  0
LINE
  5
37A2
  8
0-1
  6
CONTINUOUS
 62
     3
 10
10540.971508000001
 20
19971.936546000001
 30
0.0
 11
10540.971508000001
 21
19936.938657999988
 31
0.0
  0
LINE
  5
37A3
  8
0-1
  6
CONTINUOUS
 62
     3
 10
10614.47103299998
 20
19941.932982999992
 30
0.0
 11
10614.47103299998
 21
19971.936546000001
 31
0.0
  0
LINE
  5
37A4
  8
0-1
  6
CONTINUOUS
 62
     3
 10
10614.47103299998
 20
19956.930872000001
 30
0.0
 11
13906.97079599998
 21
19956.930872000001
 31
0.0
  0
LINE
  5
37A5
  8
0-1
  6
CONTINUOUS
 62
     3
 10
13911.96808999998
 20
19976.936809999999
 30
0.0
 11
13975.47005699999
 21
19976.936809999999
 31
0.0
  0
LINE
  5
37A6
  8
0-1
  6
CONTINUOUS
 62
     3
 10
13962.46956799998
 20
19936.938657999988
 30
0.0
 11
13911.96808999998
 21
19936.938657999988
 31
0.0
  0
LINE
  5
37A7
  8
0-1
  6
CONTINUOUS
 62
     3
 10
13906.97079599998
 20
19941.932982999992
 30
0.0
 11
13906.97079599998
 21
19971.936546000001
 31
0.0
  0
LINE
  5
37A8
  8
0-1
  6
CONTINUOUS
 62
     3
 10
13980.470320999981
 20
19971.936546000001
 30
0.0
 11
13980.470320999981
 21
19936.938657999988
 31
0.0
  0
LINE
  5
37A9
  8
0-1
  6
CONTINUOUS
 62
     3
 10
13962.46956799998
 20
19959.437866
 30
0.0
 11
13980.470320999981
 21
19959.437866
 31
0.0
  0
LINE
  5
37AA
  8
0-5
  6
CONTINUOUS
 62
     4
 10
18059.59683799999
 20
6785.4837319999997
 30
0.0
 11
18179.595254999978
 21
6577.6372500000016
 31
0.0
  0
LINE
  5
37AB
  8
0-5
  6
CONTINUOUS
 62
     4
 10
15269.223541000019
 20
6577.6372500000016
 30
0.0
 11
20151.468935000001
 21
6577.6372500000016
 31
0.0
  0
LINE
  5
37AC
  8
0-5
  6
CONTINUOUS
 62
     4
 10
18179.595254999978
 20
6577.6372500000016
 30
0.0
 11
18299.597629999989
 21
6785.4837319999997
 31
0.0
  0
LINE
  5
37AD
  8
0-5
  6
CONTINUOUS
 62
     4
 10
18299.597629999989
 20
6785.4837319999997
 30
0.0
 11
18059.59683799999
 21
6785.4837319999997
 31
0.0
  0
LINE
  5
37AE
  8
0-5
  6
CONTINUOUS
 62
     4
 10
15269.223541000019
 20
6677.6370850000048
 30
0.0
 11
16986.683488999999
 21
6677.6370850000039
 31
0.0
  0
LINE
  5
37AF
  8
0-5
  6
CONTINUOUS
 62
     4
 10
17014.309649999988
 20
6885.4830720000027
 30
0.0
 11
16774.307869
 21
6885.4830720000027
 31
0.0
  0
LINE
  5
37B0
  8
0-5
  6
CONTINUOUS
 62
     4
 10
16894.307274999999
 20
6677.6370850000039
 30
0.0
 11
17014.309649999988
 21
6885.4830720000027
 31
0.0
  0
LINE
  5
37B1
  8
0-5
  6
CONTINUOUS
 62
     4
 10
16774.307869
 20
6885.4830720000027
 30
0.0
 11
16894.307274999999
 21
6677.6370850000039
 31
0.0
  0
LINE
  5
37B2
  8
0-6
  6
CONTINUOUS
 62
     6
 10
12212.35628699999
 20
19694.659439999989
 30
0.0
 11
12356.260359999989
 21
20206.935095000001
 31
0.0
  0
LINE
  5
37B3
  8
0-6
  6
CONTINUOUS
 62
     6
 10
12186.469133000001
 20
19701.059224000001
 30
0.0
 11
12173.970453
 21
19539.330576
 31
0.0
  0
LINE
  5
37B4
  8
0-6
  6
CONTINUOUS
 62
     6
 10
12173.970453
 20
19539.330576
 30
0.0
 11
12238.246410999989
 21
19688.263616
 31
0.0
  0
LINE
  5
37B5
  8
0-6
  6
CONTINUOUS
 62
     6
 10
12173.970453
 20
19539.330576
 30
0.0
 11
12186.469133000001
 21
19701.059224000001
 31
0.0
  0
LINE
  5
37B6
  8
0-6
  6
CONTINUOUS
 62
     6
 10
12186.469133000001
 20
19701.059224000001
 30
0.0
 11
12238.246410999989
 21
19688.263616
 31
0.0
  0
LINE
  5
37B7
  8
0-6
  6
CONTINUOUS
 62
     6
 10
12238.246410999989
 20
19688.263616
 30
0.0
 11
12173.970453
 21
19539.330576
 31
0.0
  0
LINE
  5
37B8
  8
0-6
  6
CONTINUOUS
 62
     6
 10
12238.246410999989
 20
19688.263616
 30
0.0
 11
12186.469133000001
 21
19701.059224000001
 31
0.0
  0
LINE
  5
37B9
  8
0-6
  6
CONTINUOUS
 62
     6
 10
12356.260359999989
 20
20206.935095000001
 30
0.0
 11
12908.06799
 21
20206.935095000001
 31
0.0
  0
LINE
  5
37BA
  8
0-6
  6
CONTINUOUS
 62
     6
 10
10716.28662099999
 20
18019.921395999991
 30
0.0
 11
10626.46992499999
 21
18154.993846999991
 31
0.0
  0
LINE
  5
37BB
  8
0-6
  6
CONTINUOUS
 62
     6
 10
10626.46992499999
 20
18154.993846999991
 30
0.0
 11
10667.624116000001
 21
17998.093245
 31
0.0
  0
LINE
  5
37BC
  8
0-6
  6
CONTINUOUS
 62
     6
 10
10626.46992499999
 20
18154.993846999991
 30
0.0
 11
10716.28662099999
 21
18019.921395999991
 31
0.0
  0
LINE
  5
37BD
  8
0-6
  6
CONTINUOUS
 62
     6
 10
10716.28662099999
 20
18019.921395999991
 30
0.0
 11
10667.624116000001
 21
17998.093245
 31
0.0
  0
LINE
  5
37BE
  8
0-6
  6
CONTINUOUS
 62
     6
 10
10667.624116000001
 20
17998.093245
 30
0.0
 11
10626.46992499999
 21
18154.993846999991
 31
0.0
  0
LINE
  5
37BF
  8
0-6
  6
CONTINUOUS
 62
     6
 10
10667.624116000001
 20
17998.093245
 30
0.0
 11
10716.28662099999
 21
18019.921395999991
 31
0.0
  0
LINE
  5
37C0
  8
0-6
  6
CONTINUOUS
 62
     6
 10
10790.99761199999
 20
17788.216766999991
 30
0.0
 11
11310.997348000001
 21
17788.216766999991
 31
0.0
  0
LINE
  5
37C1
  8
0-6
  6
CONTINUOUS
 62
     6
 10
11776.853290999999
 20
14463.323688
 30
0.0
 11
11835.773661999991
 21
14589.104278000001
 31
0.0
  0
LINE
  5
37C2
  8
0-6
  6
CONTINUOUS
 62
     6
 10
11835.773661999991
 20
14589.104278000001
 30
0.0
 11
12635.77432199999
 21
14589.104278000001
 31
0.0
  0
LINE
  5
37C3
  8
0-6
  6
CONTINUOUS
 62
     6
 10
12383.89740799999
 20
13953.88666299999
 30
0.0
 11
12277.62497399998
 21
14076.43370999999
 31
0.0
  0
LINE
  5
37C4
  8
0-6
  6
CONTINUOUS
 62
     6
 10
12277.62497399998
 20
14076.43370999999
 30
0.0
 11
12338.407082
 21
13926.045724
 31
0.0
  0
LINE
  5
37C5
  8
0-6
  6
CONTINUOUS
 62
     6
 10
12277.62497399998
 20
14076.43370999999
 30
0.0
 11
12383.89740799999
 21
13953.88666299999
 31
0.0
  0
LINE
  5
37C6
  8
0-6
  6
CONTINUOUS
 62
     6
 10
12383.89740799999
 20
13953.88666299999
 30
0.0
 11
12338.407082
 21
13926.045724
 31
0.0
  0
LINE
  5
37C7
  8
0-6
  6
CONTINUOUS
 62
     6
 10
12338.407082
 20
13926.045724
 30
0.0
 11
12277.62497399998
 21
14076.43370999999
 31
0.0
  0
LINE
  5
37C8
  8
0-6
  6
CONTINUOUS
 62
     6
 10
12338.407082
 20
13926.045724
 30
0.0
 11
12383.89740799999
 21
13953.88666299999
 31
0.0
  0
LINE
  5
37C9
  8
0-6
  6
CONTINUOUS
 62
     6
 10
11752.703165000001
 20
14474.637627
 30
0.0
 11
11708.979558000001
 21
14318.434805000001
 31
0.0
  0
LINE
  5
37CA
  8
0-6
  6
CONTINUOUS
 62
     6
 10
11708.979558000001
 20
14318.434805000001
 30
0.0
 11
11801.001438999991
 21
14452.011729
 31
0.0
  0
LINE
  5
37CB
  8
0-6
  6
CONTINUOUS
 62
     6
 10
11708.979558000001
 20
14318.434805000001
 30
0.0
 11
11752.703165000001
 21
14474.637627
 31
0.0
  0
LINE
  5
37CC
  8
0-6
  6
CONTINUOUS
 62
     6
 10
11752.703165000001
 20
14474.637627
 30
0.0
 11
11801.001438999991
 21
14452.011729
 31
0.0
  0
LINE
  5
37CD
  8
0-6
  6
CONTINUOUS
 62
     6
 10
11801.001438999991
 20
14452.011729
 30
0.0
 11
11708.979558000001
 21
14318.434805000001
 31
0.0
  0
LINE
  5
37CE
  8
0-6
  6
CONTINUOUS
 62
     6
 10
11801.001438999991
 20
14452.011729
 30
0.0
 11
11752.703165000001
 21
14474.637627
 31
0.0
  0
LINE
  5
37CF
  8
0-6
  6
CONTINUOUS
 62
     6
 10
12767.263843999979
 20
13276.43404
 30
0.0
 11
13629.843023999991
 21
13276.43404
 31
0.0
  0
LINE
  5
37D0
  8
0-6
  6
CONTINUOUS
 62
     6
 10
12361.15174999999
 20
13939.965699
 30
0.0
 11
12767.263843999979
 21
13276.43404
 31
0.0
  0
LINE
  5
37D1
  8
0-6
  6
CONTINUOUS
 62
     6
 10
10474.52009899999
 20
14648.72539799999
 30
0.0
 11
10496.969818999991
 21
14809.37026
 31
0.0
  0
LINE
  5
37D2
  8
0-6
  6
CONTINUOUS
 62
     6
 10
10496.969818999991
 20
14809.37026
 30
0.0
 11
10423.633604000001
 21
14664.688236
 31
0.0
  0
LINE
  5
37D3
  8
0-6
  6
CONTINUOUS
 62
     6
 10
10496.969818999991
 20
14809.37026
 30
0.0
 11
10474.52009899999
 21
14648.72539799999
 31
0.0
  0
LINE
  5
37D4
  8
0-6
  6
CONTINUOUS
 62
     6
 10
10474.52009899999
 20
14648.72539799999
 30
0.0
 11
10423.633604000001
 21
14664.688236
 31
0.0
  0
LINE
  5
37D5
  8
0-6
  6
CONTINUOUS
 62
     6
 10
10423.633604000001
 20
14664.688236
 30
0.0
 11
10496.969818999991
 21
14809.37026
 31
0.0
  0
LINE
  5
37D6
  8
0-6
  6
CONTINUOUS
 62
     6
 10
10423.633604000001
 20
14664.688236
 30
0.0
 11
10474.52009899999
 21
14648.72539799999
 31
0.0
  0
LINE
  5
37D7
  8
0-6
  6
CONTINUOUS
 62
     6
 10
8782.3365579999972
 20
12786.434896999999
 30
0.0
 11
9862.3361619999996
 21
12786.434896999999
 31
0.0
  0
LINE
  5
37D8
  8
0-6
  6
CONTINUOUS
 62
     6
 10
10449.077346999989
 20
14656.70681699998
 30
0.0
 11
9862.3361619999996
 21
12786.434896999999
 31
0.0
  0
LINE
  5
37D9
  8
0-6
  6
CONTINUOUS
 62
     6
 10
10691.95536899999
 20
18009.00633099999
 30
0.0
 11
10790.99761199999
 21
17788.216766999991
 31
0.0
  0
LINE
  5
37DA
  8
0-6
  6
CONTINUOUS
 62
     6
 10
13215.29818199999
 20
18728.294813
 30
0.0
 11
14399.20675399999
 21
19130.526336999988
 31
0.0
  0
LINE
  5
37DB
  8
0-6
  6
CONTINUOUS
 62
     6
 10
13215.29818199999
 20
17272.297741999999
 30
0.0
 11
14399.20675399999
 21
17679.527339999979
 31
0.0
  0
LINE
  5
37DC
  8
0-6
  6
CONTINUOUS
 62
     6
 10
14399.20675399999
 20
17679.527339999979
 30
0.0
 11
16393.65090499998
 21
17679.527339999979
 31
0.0
  0
LINE
  5
37DD
  8
0-6
  6
CONTINUOUS
 62
     6
 10
14399.20675399999
 20
19130.526336999988
 30
0.0
 11
16393.65090499998
 21
19130.526336999988
 31
0.0
  0
LINE
  5
37DE
  8
0-6
  6
CONTINUOUS
 62
     6
 10
13212.86139399999
 20
15639.11693350002
 30
0.0
 11
14399.20675399999
 21
15177.35731299999
 31
0.0
  0
LINE
  5
37DF
  8
0-6
  6
CONTINUOUS
 62
     6
 10
14399.20675399999
 20
15177.35731299999
 30
0.0
 11
16393.65090499998
 21
15177.35731299999
 31
0.0
  0
LINE
  5
37E0
  8
0-6
  6
CONTINUOUS
 62
     6
 10
13483.17455399999
 20
15896.66813650002
 30
0.0
 11
14399.20675399999
 21
16199.708387999999
 31
0.0
  0
LINE
  5
37E1
  8
0-6
  6
CONTINUOUS
 62
     6
 10
14399.20675399999
 20
16199.708387999999
 30
0.0
 11
15279.20371899999
 21
16199.708387999999
 31
0.0
  0
LINE
  5
37E2
  8
0-6
  6
CONTINUOUS
 62
     6
 10
13626.144293999991
 20
15973.28342350001
 30
0.0
 11
13483.17455399999
 21
15896.66813650002
 31
0.0
  0
LINE
  5
37E3
  8
0-6
  6
CONTINUOUS
 62
     6
 10
13483.17455399999
 20
15896.66813650002
 30
0.0
 11
13643.266139999991
 21
15922.77501750002
 31
0.0
  0
LINE
  5
37E4
  8
0-6
  6
CONTINUOUS
 62
     6
 10
13483.17455399999
 20
15896.66813650002
 30
0.0
 11
13626.144293999991
 21
15973.28342350001
 31
0.0
  0
LINE
  5
37E5
  8
0-6
  6
CONTINUOUS
 62
     6
 10
13626.144293999991
 20
15973.28342350001
 30
0.0
 11
13643.266139999991
 21
15922.77501750002
 31
0.0
  0
LINE
  5
37E6
  8
0-6
  6
CONTINUOUS
 62
     6
 10
13643.266139999991
 20
15922.77501750002
 30
0.0
 11
13483.17455399999
 21
15896.66813650002
 31
0.0
  0
LINE
  5
37E7
  8
0-6
  6
CONTINUOUS
 62
     6
 10
13643.266139999991
 20
15922.77501750002
 30
0.0
 11
13626.144293999991
 21
15973.28342350001
 31
0.0
  0
LINE
  5
37E8
  8
0-6
  6
CONTINUOUS
 62
     6
 10
13222.53728099999
 20
15663.96681950003
 30
0.0
 11
13063.766034
 21
15697.17522350002
 31
0.0
  0
LINE
  5
37E9
  8
0-6
  6
CONTINUOUS
 62
     6
 10
13063.766034
 20
15697.17522350002
 30
0.0
 11
13203.18352799999
 21
15614.26902650002
 31
0.0
  0
LINE
  5
37EA
  8
0-6
  6
CONTINUOUS
 62
     6
 10
13063.766034
 20
15697.17522350002
 30
0.0
 11
13222.53728099999
 21
15663.96681950003
 31
0.0
  0
LINE
  5
37EB
  8
0-6
  6
CONTINUOUS
 62
     6
 10
13222.53728099999
 20
15663.96681950003
 30
0.0
 11
13203.18352799999
 21
15614.26902650002
 31
0.0
  0
LINE
  5
37EC
  8
0-6
  6
CONTINUOUS
 62
     6
 10
13203.18352799999
 20
15614.26902650002
 30
0.0
 11
13063.766034
 21
15697.17522350002
 31
0.0
  0
LINE
  5
37ED
  8
0-6
  6
CONTINUOUS
 62
     6
 10
13203.18352799999
 20
15614.26902650002
 30
0.0
 11
13222.53728099999
 21
15663.96681950003
 31
0.0
  0
LINE
  5
37EE
  8
0-6
  6
CONTINUOUS
 62
     6
 10
13206.73676399999
 20
17297.55244000001
 30
0.0
 11
13063.766034
 21
17220.933194000001
 31
0.0
  0
LINE
  5
37EF
  8
0-6
  6
CONTINUOUS
 62
     6
 10
13063.766034
 20
17220.933194000001
 30
0.0
 11
13223.85860999999
 21
17247.041065000001
 31
0.0
  0
LINE
  5
37F0
  8
0-6
  6
CONTINUOUS
 62
     6
 10
13063.766034
 20
17220.933194000001
 30
0.0
 11
13206.73676399999
 21
17297.55244000001
 31
0.0
  0
LINE
  5
37F1
  8
0-6
  6
CONTINUOUS
 62
     6
 10
13206.73676399999
 20
17297.55244000001
 30
0.0
 11
13223.85860999999
 21
17247.041065000001
 31
0.0
  0
LINE
  5
37F2
  8
0-6
  6
CONTINUOUS
 62
     6
 10
13223.85860999999
 20
17247.041065000001
 30
0.0
 11
13063.766034
 21
17220.933194000001
 31
0.0
  0
LINE
  5
37F3
  8
0-6
  6
CONTINUOUS
 62
     6
 10
13223.85860999999
 20
17247.041065000001
 30
0.0
 11
13206.73676399999
 21
17297.55244000001
 31
0.0
  0
LINE
  5
37F4
  8
0-6
  6
CONTINUOUS
 62
     6
 10
13206.73676399999
 20
18753.547531
 30
0.0
 11
13063.766034
 21
18676.932243999989
 31
0.0
  0
LINE
  5
37F5
  8
0-6
  6
CONTINUOUS
 62
     6
 10
13063.766034
 20
18676.932243999989
 30
0.0
 11
13223.85860999999
 21
18703.038134999992
 31
0.0
  0
LINE
  5
37F6
  8
0-6
  6
CONTINUOUS
 62
     6
 10
13063.766034
 20
18676.932243999989
 30
0.0
 11
13206.73676399999
 21
18753.547531
 31
0.0
  0
LINE
  5
37F7
  8
0-6
  6
CONTINUOUS
 62
     6
 10
13206.73676399999
 20
18753.547531
 30
0.0
 11
13223.85860999999
 21
18703.038134999992
 31
0.0
  0
LINE
  5
37F8
  8
0-6
  6
CONTINUOUS
 62
     6
 10
13223.85860999999
 20
18703.038134999992
 30
0.0
 11
13063.766034
 21
18676.932243999989
 31
0.0
  0
LINE
  5
37F9
  8
0-6
  6
CONTINUOUS
 62
     6
 10
13223.85860999999
 20
18703.038134999992
 30
0.0
 11
13206.73676399999
 21
18753.547531
 31
0.0
  0
LINE
  5
37FA
  8
0-6
  6
CONTINUOUS
 62
     6
 10
14069.15667199999
 20
20110.742368999981
 30
0.0
 11
13977.470320999981
 21
19976.936809999999
 31
0.0
  0
LINE
  5
37FB
  8
0-6
  6
CONTINUOUS
 62
     6
 10
13977.470320999981
 20
19976.936809999999
 30
0.0
 11
14107.59694399999
 21
20073.774859000001
 31
0.0
  0
LINE
  5
37FC
  8
0-6
  6
CONTINUOUS
 62
     6
 10
13977.470320999981
 20
19976.936809999999
 30
0.0
 11
14069.15667199999
 21
20110.742368999981
 31
0.0
  0
LINE
  5
37FD
  8
0-6
  6
CONTINUOUS
 62
     6
 10
14069.15667199999
 20
20110.742368999981
 30
0.0
 11
14107.59694399999
 21
20073.774859000001
 31
0.0
  0
LINE
  5
37FE
  8
0-6
  6
CONTINUOUS
 62
     6
 10
14107.59694399999
 20
20073.774859000001
 30
0.0
 11
13977.470320999981
 21
19976.936809999999
 31
0.0
  0
LINE
  5
37FF
  8
0-6
  6
CONTINUOUS
 62
     6
 10
14107.59694399999
 20
20073.774859000001
 30
0.0
 11
14069.15667199999
 21
20110.742368999981
 31
0.0
  0
LINE
  5
3800
  8
0-6
  6
CONTINUOUS
 62
     6
 10
14088.37581799998
 20
20092.257624000002
 30
0.0
 11
14605.36668599999
 21
20596.935887
 31
0.0
  0
LINE
  5
3801
  8
0-6
  6
CONTINUOUS
 62
     6
 10
14605.36668599999
 20
20596.935887
 30
0.0
 11
16280.36503699999
 21
20596.935887
 31
0.0
  0
LINE
  5
3802
  8
2-0
  6
DASHED3
 62
     6
 10
10626.46992499999
 20
19715.436466999989
 30
0.0
 11
13894.96992499999
 21
19715.436466999989
 31
0.0
  0
LINE
  5
3803
  8
2-0
  6
DASHED3
 62
     6
 10
10583.96966099999
 20
19519.264196
 30
0.0
 11
10583.96966099999
 21
19800.435015999989
 31
0.0
  0
LINE
  5
3804
  8
2-0
  6
DASHED3
 62
     6
 10
10626.46992499999
 20
19489.57537699999
 30
0.0
 11
10626.46992499999
 21
19800.435015999989
 31
0.0
  0
LINE
  5
3805
  8
2-0
  6
DASHED3
 62
     6
 10
10583.96966099999
 20
19800.435015999989
 30
0.0
 11
13937.469198999979
 21
19800.435015999989
 31
0.0
  0
LINE
  5
3806
  8
2-0
  6
DASHED3
 62
     6
 10
13894.96992499999
 20
17218.547874
 30
0.0
 11
13894.96992499999
 21
19800.435015999989
 31
0.0
  0
LINE
  5
3807
  8
2-0
  6
DASHED3
 62
     6
 10
13937.469198999979
 20
17189.304445999991
 30
0.0
 11
13937.469198999979
 21
19800.435015999989
 31
0.0
  0
LINE
  5
3808
  8
2-0
  6
DASHED3
 62
     6
 10
10696.46966099999
 20
19754.434963
 30
0.0
 11
13824.970188999991
 21
18645.934963
 31
0.0
  0
LINE
  5
3809
  8
2-0
  6
DASHED3
 62
     6
 10
13824.970188999991
 20
18645.934963
 30
0.0
 11
12470.00547699999
 21
18023.478590999981
 31
0.0
  0
LINE
  5
380A
  8
2-0
  6
DASHED3
 62
     6
 10
13824.970188999991
 20
19754.434963
 30
0.0
 11
11455.439848999989
 21
18914.664508000002
 31
0.0
  0
LINE
  5
380B
  8
2-0
  6
DASHED3
 62
     6
 10
12153.493323000001
 20
18614.933722000002
 30
0.0
 11
13894.96992499999
 21
18614.933722000002
 31
0.0
  0
LINE
  5
380C
  8
2-0
  6
DASHED3
 62
     6
 10
12120.56799
 20
18676.932243999989
 30
0.0
 11
13894.96992499999
 21
18676.932243999989
 31
0.0
  0
LINE
  5
380D
  8
0-7
  6
CONTINUOUS
 62
     6
 10
11800.934135
 20
18676.932243999989
 30
0.0
 11
11956.969687000001
 21
18676.932243999989
 31
0.0
  0
LINE
  5
380E
  8
0-7
  6
CONTINUOUS
 62
     6
 10
11891.037861999999
 20
18614.933722000002
 30
0.0
 11
11912.805638
 21
18614.933722000002
 31
0.0
  0
LINE
  5
380F
  8
2-0
  6
CENTER2
 62
     6
 10
13894.96992499999
 20
20996.93324699999
 30
0.0
 11
13894.96992499999
 21
20046.93654599999
 31
0.0
  0
LINE
  5
3810
  8
2-0
  6
CENTER2
 62
     6
 10
9296.9698189999999
 20
19754.434963
 30
0.0
 11
10943.46904
 21
19754.434963
 31
0.0
  0
LINE
  5
3811
  8
2-0
  6
CENTER2
 62
     6
 10
10626.46992499999
 20
20996.93324699999
 30
0.0
 11
10626.46992499999
 21
20046.93654599999
 31
0.0
  0
LINE
  5
3812
  8
2-0
  6
CENTER2
 62
     6
 10
9296.9698189999999
 20
17186.934963
 30
0.0
 11
10943.46904
 21
17186.934963
 31
0.0
  0
LINE
  5
3813
  8
2-0
  6
CENTER2
 62
     6
 10
9296.9698189999999
 20
14268.934962999991
 30
0.0
 11
10943.46904
 21
14268.934962999991
 31
0.0
  0
LINE
  5
3814
  8
2-0
  6
CENTER2
 62
     6
 10
10407.673736000001
 20
15728.17547450002
 30
0.0
 11
14066.766403999991
 21
15728.17547450002
 31
0.0
  0
LINE
  5
3815
  8
2-0
  6
CENTER2
 62
     6
 10
10407.673736000001
 20
18645.934963
 30
0.0
 11
14066.766403999991
 21
18645.934963
 31
0.0
  0
LINE
  5
3816
  8
2-0
  6
CENTER2
 62
     6
 10
9648.7232769999955
 20
6314.9838380000037
 30
0.0
 11
9648.7232769999955
 21
7372.1269300000004
 31
0.0
  0
LINE
  5
3817
  8
2-0
  6
CENTER2
 62
     6
 10
12216.223276999999
 20
6314.9838380000037
 30
0.0
 11
12216.223276999999
 21
7372.1269300000004
 31
0.0
  0
LINE
  5
3818
  8
2-0
  6
CENTER2
 62
     6
 10
15134.223276999999
 20
6314.9838380000037
 30
0.0
 11
15134.223276999999
 21
7372.1269300000004
 31
0.0
  0
ARC
  5
3819
  8
0-1
  6
CONTINUOUS
 62
     3
 10
9432.1144560000048
 20
8792.4884229999989
 30
0.0
 40
2.5
 50
271.87799100002047
 51
91.877991000020714
  0
ARC
  5
381A
  8
0-1
  6
CONTINUOUS
 62
     3
 10
9433.5891969999993
 20
8747.513761000002
 30
0.0
 40
2.5
 50
271.87799100002047
 51
91.877991000020714
  0
ARC
  5
381B
  8
0-1
  6
CONTINUOUS
 62
     3
 10
9430.7951069999981
 20
8786.9428020000032
 30
0.0
 40
3.0
 50
91.877991000020714
 51
181.8779910000126
  0
ARC
  5
381C
  8
0-1
  6
CONTINUOUS
 62
     3
 10
15261.721100000001
 20
8960.4842270000008
 30
0.0
 40
20.0
 50
271.87799100002047
 51
91.877991000020714
  0
ARC
  5
381D
  8
0-1
  6
CONTINUOUS
 62
     3
 10
9431.909576
 20
8752.9613960000006
 30
0.0
 40
3.0
 50
181.8779910000126
 51
271.87799100002047
  0
ARC
  5
381E
  8
0-1
  6
CONTINUOUS
 62
     3
 10
9432.2698480000035
 20
8741.9671500000022
 30
0.0
 40
3.0
 50
91.877991000020714
 51
181.8779910000126
  0
ARC
  5
381F
  8
0-1
  6
CONTINUOUS
 62
     3
 10
9435.3183070000014
 20
8710.049393000003
 30
0.0
 40
5.0
 50
181.8779910000126
 51
271.87799100002047
  0
ARC
  5
3820
  8
0-1
  6
CONTINUOUS
 62
     3
 10
15256.72281499999
 20
8960.3209170000027
 30
0.0
 40
69.999999000000003
 50
293.66478000012751
 51
70.091202000173681
  0
ARC
  5
3821
  8
0-1
  6
CONTINUOUS
 62
     3
 10
9431.3850029999994
 20
8829.9854539999997
 30
0.0
 40
5.0
 50
91.877991000020714
 51
181.8779910000126
  0
ARC
  5
3822
  8
0-1
  6
CONTINUOUS
 62
     3
 10
9430.4348340000015
 20
8797.9370480000016
 30
0.0
 40
3.0
 50
181.8779910000126
 51
271.87799100002047
  0
ARC
  5
3823
  8
0-1
  6
CONTINUOUS
 62
     3
 10
15261.721100000001
 20
8960.4842270000008
 30
0.0
 40
24.999998999999999
 50
271.87799100002047
 51
91.877991000020714
  0
ARC
  5
3824
  8
0-1
  6
CONTINUOUS
 62
     3
 10
10545.969793
 20
19971.936546000001
 30
0.0
 40
5.0
 50
90.0
 51
180.0
  0
ARC
  5
3825
  8
0-1
  6
CONTINUOUS
 62
     3
 10
10609.47076899999
 20
19971.936546000001
 30
0.0
 40
5.0
 50
0.0
 51
90.0
  0
ARC
  5
3826
  8
0-1
  6
CONTINUOUS
 62
     3
 10
10609.47076899999
 20
19941.932982999992
 30
0.0
 40
5.0
 50
269.9999850001808
 51
0.0
  0
ARC
  5
3827
  8
0-1
  6
CONTINUOUS
 62
     3
 10
13911.96808999998
 20
19941.932982999992
 30
0.0
 40
5.0
 50
180.0
 51
269.9999850001808
  0
ARC
  5
3828
  8
0-1
  6
CONTINUOUS
 62
     3
 10
13911.96808999998
 20
19971.936546000001
 30
0.0
 40
5.0
 50
90.0
 51
180.0
  0
ARC
  5
3829
  8
0-1
  6
CONTINUOUS
 62
     3
 10
13975.47005699999
 20
19971.936546000001
 30
0.0
 40
5.0
 50
0.0
 51
90.0
  0
CIRCLE
  5
382A
  8
0-5
  6
CONTINUOUS
 62
     4
 10
13894.96992499999
 20
21196.935886999981
 30
0.0
 40
199.9999949999999
  0
CIRCLE
  5
382B
  8
0-5
  6
CONTINUOUS
 62
     4
 10
10626.46992499999
 20
21196.935886999981
 30
0.0
 40
199.9999949999999
  0
CIRCLE
  5
382C
  8
0-5
  6
CONTINUOUS
 62
     4
 10
9096.9701489999989
 20
17186.934963
 30
0.0
 40
199.9999949999999
  0
CIRCLE
  5
382D
  8
0-5
  6
CONTINUOUS
 62
     4
 10
9096.9701489999989
 20
14268.934962999991
 30
0.0
 40
199.9999949999999
  0
CIRCLE
  5
382E
  8
0-5
  6
CONTINUOUS
 62
     4
 10
15128.71667799999
 20
1375.999982000001
 30
0.0
 40
20.0
  0
ARC
  5
382F
  8
0-5
  6
CONTINUOUS
 62
     4
 10
15128.71667799999
 20
1375.999982000001
 30
0.0
 40
20.0
 50
180.0
 51
0.0
  0
ARC
  5
3830
  8
0-5
  6
CONTINUOUS
 62
     4
 10
15128.71667799999
 20
1375.999982000001
 30
0.0
 40
20.0
 50
0.0
 51
179.99998499999839
  0
CIRCLE
  5
3831
  8
0-5
  6
CONTINUOUS
 62
     4
 10
15128.71667799999
 20
1775.999941
 30
0.0
 40
20.0
  0
ARC
  5
3832
  8
0-5
  6
CONTINUOUS
 62
     4
 10
15128.71667799999
 20
1775.999941
 30
0.0
 40
20.0
 50
180.0
 51
0.0
  0
ARC
  5
3833
  8
0-5
  6
CONTINUOUS
 62
     4
 10
15128.71667799999
 20
1775.999941
 30
0.0
 40
20.0
 50
0.0
 51
179.99998499999839
  0
TEXT
  5
3834
  8
0-0
  6
CONTINUOUS
 62
     7
 10
13846.364824999981
 20
21110.320070999991
 30
0.0
 40
160.0
  1
2
 72
     4
 11
13899.69815833332
 21
21190.320070999991
 31
0.0
  0
TEXT
  5
3835
  8
0-0
  6
CONTINUOUS
 62
     7
 10
10577.864824999981
 20
21110.320070999991
 30
0.0
 40
160.0
  1
1
 72
     4
 11
10604.53149166665
 21
21190.320070999991
 31
0.0
  0
TEXT
  5
3836
  8
0-0
  6
CONTINUOUS
 62
     7
 10
9044.1219519999977
 20
17094.483527000011
 30
0.0
 40
160.0
  1
B
 72
     4
 11
9097.4552853333316
 21
17174.483527000011
 31
0.0
  0
TEXT
  5
3837
  8
0-0
  6
CONTINUOUS
 62
     7
 10
9044.1219519999977
 20
14176.484517000001
 30
0.0
 40
160.0
  1
A
 72
     4
 11
9097.4552853333316
 21
14256.484517000001
 31
0.0
  0
TEXT
  5
3838
  8
0-0
  6
CONTINUOUS
 62
     7
 10
18059.59683799999
 20
6865.4835010000006
 30
0.0
 40
160.0
  1
G.L
 72
     4
 11
18219.59683799999
 21
6945.4835010000006
 31
0.0
  0
TEXT
  5
3839
  8
0-0
  6
CONTINUOUS
 62
     7
 10
16673.96847299999
 20
1655.999792000001
 30
0.0
 40
160.0
  1
H
  0
TEXT
  5
383A
  8
0-0
  6
CONTINUOUS
 62
     7
 10
15176.146932999991
 20
1655.999792000001
 30
0.0
 40
160.0
  1
（ ）内寸法ハ、  タ イプヲ示ス。
  0
TEXT
  5
383B
  8
0-0
  6
CONTINUOUS
 62
     7
 10
15288.715227000001
 20
1255.999957
 30
0.0
 40
160.0
  1
有効高サハ、基礎高サヲ含ミマセン。
  0
TEXT
  5
383C
  8
0-0
  6
CONTINUOUS
 62
     7
 10
16435.216335999979
 20
6965.4833360000011
 30
0.0
 40
160.0
  1
布基礎天端
 72
     4
 11
16893.883002666651
 21
7045.4833360000011
 31
0.0
  0
TEXT
  5
383D
  8
0-0
  6
CONTINUOUS
 62
     7
 10
12436.26062399999
 20
20286.935358999999
 30
0.0
 40
160.0
  1
屋根
 72
     4
 11
12606.927290666659
 21
20366.935358999999
 31
0.0
  0
TEXT
  5
383E
  8
0-0
  6
CONTINUOUS
 62
     7
 10
11915.773925999991
 20
14669.10454199999
 30
0.0
 40
160.0
  1
桁（前）
 72
     4
 11
12235.773925999991
 21
14749.10454199999
 31
0.0
  0
TEXT
  5
383F
  8
0-0
  6
CONTINUOUS
 62
     7
 10
12847.264107999979
 20
13356.43529299999
 30
0.0
 40
160.0
  1
鼻隠し前
 72
     4
 11
13209.930774666651
 21
13436.43529299999
 31
0.0
  0
TEXT
  5
3840
  8
0-0
  6
CONTINUOUS
 62
     7
 10
8862.3368219999957
 20
12866.43516099999
 30
0.0
 40
160.0
  1
ケラバ 左
 72
     4
 11
9278.3368219999957
 21
12946.43516099999
 31
0.0
  0
TEXT
  5
3841
  8
0-0
  6
CONTINUOUS
 62
     7
 10
10870.997874999999
 20
17868.215050999999
 30
0.0
 40
160.0
  1
上枠
 72
     4
 11
11041.664541666671
 21
17948.215050999999
 31
0.0
  0
TEXT
  5
3842
  8
0-0
  6
CONTINUOUS
 62
     7
 10
14479.207017999979
 20
16279.708650999981
 30
0.0
 40
160.0
  1
ブレース
 72
     4
 11
14841.873684666651
 21
16365.041984333309
 31
0.0
  0
TEXT
  5
3843
  8
0-0
  6
CONTINUOUS
 62
     7
 10
14685.366949999991
 20
20676.938129999991
 30
0.0
 40
160.0
  1
鼻隠しコーナー後
 72
     4
 11
15432.03361666666
 21
20756.938129999991
 31
0.0
  0
TEXT
  5
3844
  8
2-0
  6
CONTINUOUS
 62
     7
 10
10735.63245599999
 20
3489.4699880000021
 30
0.0
 40
160.0
  1
側 面 立 面 図
 72
     4
 11
11380.96578933333
 21
3569.4699880000021
 31
0.0
  0
TEXT
  5
3845
  8
2-0
  6
CONTINUOUS
 62
     7
 10
14493.33385299998
 20
19216.063314999999
 30
0.0
 40
160.0
  1
桁中B +  桁中補強B
 72
     4
 11
15426.667186333319
 21
19296.063314999999
 31
0.0
  0
TEXT
  5
3846
  8
2-0
  6
CONTINUOUS
 62
     7
 10
14493.33385299998
 20
17762.065346999982
 30
0.0
 40
160.0
  1
桁中A +  桁中補強A
 72
     4
 11
15426.667186333319
 21
17842.065346999982
 31
0.0
  0
TEXT
  5
3847
  8
2-0
  6
CONTINUOUS
 62
     7
 10
14493.33385299998
 20
15234.88905199998
 30
0.0
 40
160.0
  1
桁中B +  桁中補強B
 50
0.000118
 72
     4
 11
15426.667021572261
 21
15314.8909741891
 31
0.0
  0
TEXT
  5
384F
  8
2-0
  6
CONTINUOUS
 62
     7
 10
12732.45797447095
 20
3516.6653570000021
 30
0.0
 40
160.0
  1
1
 72
     4
 11
12759.12464113762
 21
3596.6653570000012
 31
0.0
  0
TEXT
  5
3850
  8
2-0
  6
CONTINUOUS
 62
     7
 10
12975.546691721651
 20
3436.6668250000012
 30
0.0
 40
160.0
  1
80
 72
     4
 11
13095.546691721651
 21
3516.6668250000012
 31
0.0
  0
TEXT
  5
3851
  8
2-0
  6
CONTINUOUS
 62
     7
 10
12233.45994047095
 20
3489.4699880000021
 30
0.0
 40
160.0
  1
(S=  /   )
 72
     4
 11
12793.45994047095
 21
3569.4699880000021
 31
0.0
  0
TEXT
  5
3852
  8
0-6
  6
CONTINUOUS
 62
     7
 10
10693.256853144811
 20
20286.933378999998
 30
0.0
 40
160.0
  1
桁後+桁後補強
 72
     4
 11
11327.92351981148
 21
20366.933378999998
 31
0.0
  0
LINE
  5
3853
  8
0-6
  6
CONTINUOUS
 62
     6
 10
12136.972261000001
 20
19800.435015999989
 30
0.0
 11
12003.57831311876
 21
20206.935095000001
 31
0.0
  0
LINE
  5
3854
  8
0-6
  6
CONTINUOUS
 62
     6
 10
10653.83595954954
 20
20206.935095000001
 30
0.0
 11
12003.57831311876
 21
20206.935095000001
 31
0.0
  0
LINE
  5
3855
  8
0-6
  6
CONTINUOUS
 62
     6
 10
12113.3648056327
 20
19960.916454424929
 30
0.0
 11
12062.591161859749
 21
19944.58293824015
 31
0.0
  0
LINE
  5
3856
  8
0-6
  6
CONTINUOUS
 62
     6
 10
12113.3648056327
 20
19960.916454424929
 30
0.0
 11
12136.972261000001
 21
19800.435015999989
 31
0.0
  0
LINE
  5
3857
  8
0-6
  6
CONTINUOUS
 62
     6
 10
12062.591161859749
 20
19944.58293824015
 30
0.0
 11
12113.3648056327
 21
19960.916454424929
 31
0.0
  0
LINE
  5
3858
  8
0-6
  6
CONTINUOUS
 62
     6
 10
12136.972261000001
 20
19800.435015999989
 30
0.0
 11
12062.591161859749
 21
19944.58293824015
 31
0.0
  0
LINE
  5
3859
  8
0-6
  6
CONTINUOUS
 62
     6
 10
12136.972261000001
 20
19800.435015999989
 30
0.0
 11
12113.3648056327
 21
19960.916454424929
 31
0.0
  0
LINE
  5
385A
  8
0-6
  6
CONTINUOUS
 62
     6
 10
12062.591161859749
 20
19944.58293824015
 30
0.0
 11
12136.972261000001
 21
19800.435015999989
 31
0.0
  0
LINE
  5
385B
  8
0-1
  6
CONTINUOUS
 62
     3
 10
20323.966163000008
 20
8585.6371440000057
 30
0.0
 11
23507.469593999991
 21
8585.6371440000057
 31
0.0
  0
LINE
  5
3862
  8
0-1
  6
CONTINUOUS
 62
     3
 10
23599.968539000001
 20
6677.6370850000039
 30
0.0
 11
23499.969197999999
 21
6677.6370850000039
 31
0.0
  0
LINE
  5
3863
  8
0-1
  6
CONTINUOUS
 62
     3
 10
23499.969197999999
 20
6677.6370850000039
 30
0.0
 11
23499.969197999999
 21
6577.6372500000016
 31
0.0
  0
LINE
  5
3864
  8
0-1
  6
CONTINUOUS
 62
     3
 10
23599.968539000001
 20
6577.6372500000016
 30
0.0
 11
23599.968539000001
 21
6677.6370850000039
 31
0.0
  0
LINE
  5
3865
  8
0-1
  6
CONTINUOUS
 62
     3
 10
23507.469593999991
 20
8895.6371770000005
 30
0.0
 11
23507.469593999991
 21
6677.6370850000039
 31
0.0
  0
LINE
  5
3866
  8
0-1
  6
CONTINUOUS
 62
     3
 10
23462.471177999989
 20
8585.6371440000057
 30
0.0
 11
23462.471177999989
 21
6577.6372500000016
 31
0.0
  0
LINE
  5
3867
  8
0-1
  6
CONTINUOUS
 62
     3
 10
23572.471045999991
 20
9025.6371109999982
 30
0.0
 11
23572.471045999991
 21
6677.6370850000039
 31
0.0
  0
LINE
  5
3868
  8
0-1
  6
CONTINUOUS
 62
     3
 10
23592.468142999998
 20
8895.6371770000005
 30
0.0
 11
23592.468142999998
 21
6677.6370850000039
 31
0.0
  0
LINE
  5
386A
  8
0-1
  6
CONTINUOUS
 62
     3
 10
20231.467218999998
 20
6677.6370850000039
 30
0.0
 11
20331.466559
 21
6677.6370850000039
 31
0.0
  0
LINE
  5
386B
  8
0-1
  6
CONTINUOUS
 62
     3
 10
20331.466559
 20
6677.6370850000039
 30
0.0
 11
20331.466559
 21
6577.6372500000016
 31
0.0
  0
LINE
  5
386C
  8
0-1
  6
CONTINUOUS
 62
     3
 10
20231.467218999998
 20
6577.6372500000016
 30
0.0
 11
20231.467218999998
 21
6677.6370850000039
 31
0.0
  0
LINE
  5
386D
  8
0-1
  6
CONTINUOUS
 62
     3
 10
20368.968539000001
 20
8585.6371440000057
 30
0.0
 11
20368.968539000001
 21
6577.6372500000016
 31
0.0
  0
LINE
  5
386E
  8
0-1
  6
CONTINUOUS
 62
     3
 10
20323.966163000008
 20
8895.6371770000005
 30
0.0
 11
20323.966163000008
 21
6677.6370850000039
 31
0.0
  0
LINE
  5
386F
  8
0-1
  6
CONTINUOUS
 62
     3
 10
20258.966691000009
 20
9025.6371109999982
 30
0.0
 11
20258.966691000009
 21
6677.6370850000039
 31
0.0
  0
LINE
  5
3870
  8
0-1
  6
CONTINUOUS
 62
     3
 10
20238.967615000001
 20
8895.6371770000005
 30
0.0
 11
20238.967615000001
 21
6677.6370850000039
 31
0.0
  0
LINE
  5
3871
  8
0-1
  6
CONTINUOUS
 62
     3
 10
20368.968539000001
 20
7097.6379760000009
 30
0.0
 11
23462.471177999989
 21
7097.6379760000009
 31
0.0
  0
LINE
  5
3872
  8
0-1
  6
CONTINUOUS
 62
     3
 10
20368.968539000001
 20
7032.6375140000036
 30
0.0
 11
23462.471177999989
 21
7032.6375140000036
 31
0.0
  0
LINE
  5
3873
  8
0-1
  6
CONTINUOUS
 62
     3
 10
20368.968539000001
 20
6967.6375470000021
 30
0.0
 11
23462.471177999989
 21
6967.6375470000021
 31
0.0
  0
LINE
  5
3874
  8
0-1
  6
CONTINUOUS
 62
     3
 10
20368.968539000001
 20
6902.6370850000021
 30
0.0
 11
23462.471177999989
 21
6902.6370850000021
 31
0.0
  0
LINE
  5
3875
  8
0-1
  6
CONTINUOUS
 62
     3
 10
20368.968539000001
 20
6837.6376130000053
 30
0.0
 11
23462.471177999989
 21
6837.6376130000053
 31
0.0
  0
LINE
  5
3876
  8
0-1
  6
CONTINUOUS
 62
     3
 10
20368.968539000001
 20
6772.6376460000029
 30
0.0
 11
23462.471177999989
 21
6772.6376460000029
 31
0.0
  0
LINE
  5
3877
  8
0-1
  6
CONTINUOUS
 62
     3
 10
20368.968539000001
 20
6707.6376790000022
 30
0.0
 11
23462.471177999989
 21
6707.6376790000022
 31
0.0
  0
LINE
  5
3878
  8
0-1
  6
CONTINUOUS
 62
     3
 10
20368.968539000001
 20
6642.6372170000041
 30
0.0
 11
23462.471177999989
 21
6642.6372170000041
 31
0.0
  0
LINE
  5
3879
  8
0-1
  6
CONTINUOUS
 62
     3
 10
20368.968539000001
 20
8462.6372830000018
 30
0.0
 11
23462.471177999989
 21
8462.6372830000018
 31
0.0
  0
LINE
  5
387A
  8
0-1
  6
CONTINUOUS
 62
     3
 10
20368.968539000001
 20
8397.6373160000057
 30
0.0
 11
23462.471177999989
 21
8397.6373160000057
 31
0.0
  0
LINE
  5
387B
  8
0-1
  6
CONTINUOUS
 62
     3
 10
20368.968539000001
 20
8332.6378440000026
 30
0.0
 11
23462.471177999989
 21
8332.6378440000026
 31
0.0
  0
LINE
  5
387C
  8
0-1
  6
CONTINUOUS
 62
     3
 10
20368.968539000001
 20
8267.6378770000028
 30
0.0
 11
23462.471177999989
 21
8267.6378770000028
 31
0.0
  0
LINE
  5
387D
  8
0-1
  6
CONTINUOUS
 62
     3
 10
20368.968539000001
 20
8202.6379100000049
 30
0.0
 11
23462.471177999989
 21
8202.6379100000049
 31
0.0
  0
LINE
  5
387E
  8
0-1
  6
CONTINUOUS
 62
     3
 10
20368.968539000001
 20
8137.6374480000031
 30
0.0
 11
23462.471177999989
 21
8137.6374480000031
 31
0.0
  0
LINE
  5
387F
  8
0-1
  6
CONTINUOUS
 62
     3
 10
20368.968539000001
 20
8072.6374810000016
 30
0.0
 11
23462.471177999989
 21
8072.6374810000016
 31
0.0
  0
LINE
  5
3880
  8
0-1
  6
CONTINUOUS
 62
     3
 10
20368.968539000001
 20
8007.6380090000021
 30
0.0
 11
23462.471177999989
 21
8007.6380090000021
 31
0.0
  0
LINE
  5
3881
  8
0-1
  6
CONTINUOUS
 62
     3
 10
20368.968539000001
 20
7942.6380419999969
 30
0.0
 11
23462.471177999989
 21
7942.6380419999969
 31
0.0
  0
LINE
  5
3882
  8
0-1
  6
CONTINUOUS
 62
     3
 10
20368.968539000001
 20
7877.6375800000051
 30
0.0
 11
23462.471177999989
 21
7877.6375800000051
 31
0.0
  0
LINE
  5
3883
  8
0-1
  6
CONTINUOUS
 62
     3
 10
20368.968539000001
 20
7812.6376130000026
 30
0.0
 11
23462.471177999989
 21
7812.6376130000026
 31
0.0
  0
LINE
  5
3884
  8
0-1
  6
CONTINUOUS
 62
     3
 10
20368.968539000001
 20
7747.637646000002
 30
0.0
 11
23462.471177999989
 21
7747.637646000002
 31
0.0
  0
LINE
  5
3885
  8
0-1
  6
CONTINUOUS
 62
     3
 10
20368.968539000001
 20
7682.6371840000038
 30
0.0
 11
23462.471177999989
 21
7682.6371840000038
 31
0.0
  0
LINE
  5
3886
  8
0-1
  6
CONTINUOUS
 62
     3
 10
20368.968539000001
 20
7617.6372170000022
 30
0.0
 11
23462.471177999989
 21
7617.6372170000022
 31
0.0
  0
LINE
  5
3887
  8
0-1
  6
CONTINUOUS
 62
     3
 10
20368.968539000001
 20
7552.6377450000018
 30
0.0
 11
23462.471177999989
 21
7552.6377450000018
 31
0.0
  0
LINE
  5
3888
  8
0-1
  6
CONTINUOUS
 62
     3
 10
20368.968539000001
 20
7487.637778000003
 30
0.0
 11
23462.471177999989
 21
7487.637778000003
 31
0.0
  0
LINE
  5
3889
  8
0-1
  6
CONTINUOUS
 62
     3
 10
20368.968539000001
 20
7422.6378110000032
 30
0.0
 11
23462.471177999989
 21
7422.6378110000032
 31
0.0
  0
LINE
  5
388A
  8
0-1
  6
CONTINUOUS
 62
     3
 10
20368.968539000001
 20
7357.6373490000051
 30
0.0
 11
23462.471177999989
 21
7357.6373490000051
 31
0.0
  0
LINE
  5
388B
  8
0-1
  6
CONTINUOUS
 62
     3
 10
20368.968539000001
 20
7292.6373820000017
 30
0.0
 11
23462.471177999989
 21
7292.6373820000017
 31
0.0
  0
LINE
  5
388C
  8
0-1
  6
CONTINUOUS
 62
     3
 10
20368.968539000001
 20
7227.637910000004
 30
0.0
 11
23462.471177999989
 21
7227.637910000004
 31
0.0
  0
LINE
  5
388D
  8
0-1
  6
CONTINUOUS
 62
     3
 10
20368.968539000001
 20
7162.6379430000034
 30
0.0
 11
23462.471177999989
 21
7162.6379430000034
 31
0.0
  0
LINE
  5
388E
  8
0-1
  6
CONTINUOUS
 62
     3
 10
20368.968539000001
 20
8517.0973030000023
 30
0.0
 11
23462.471177999989
 21
8517.0973030000023
 31
0.0
  0
LINE
  5
388F
  8
0-1
  6
CONTINUOUS
 62
     3
 10
20231.467218999998
 20
6577.6372500000016
 30
0.0
 11
23599.968539000001
 21
6577.6372500000016
 31
0.0
  0
LINE
  5
38A1
  8
0-2
  6
CONTINUOUS
 62
     4
 10
22279.409877999991
 20
7324.8639440000024
 30
0.0
 11
22179.410537999978
 21
7324.8639440000024
 31
0.0
  0
LINE
  5
38A2
  8
0-2
  6
CONTINUOUS
 62
     4
 10
21552.025877999979
 20
7324.8639440000024
 30
0.0
 11
21652.025217999992
 21
7324.8639440000024
 31
0.0
  0
LINE
  5
38A3
  8
0-5
  6
CONTINUOUS
 62
     4
 10
23549.969858
 20
4897.637646000002
 30
0.0
 11
23549.969858
 21
4737.6381080000019
 31
0.0
  0
LINE
  5
38A4
  8
0-5
  6
CONTINUOUS
 62
     4
 10
20281.469858
 20
4897.637646000002
 30
0.0
 11
20281.469858
 21
4737.6381080000019
 31
0.0
  0
LINE
  5
38A5
  8
2-0
  6
CENTER2
 62
     6
 10
23549.969858
 20
6314.9848270000039
 30
0.0
 11
23549.969858
 21
7352.1278540000058
 31
0.0
  0
LINE
  5
38A6
  8
2-0
  6
CENTER2
 62
     6
 10
20281.469858
 20
6314.9848270000039
 30
0.0
 11
20281.469858
 21
7352.1278540000058
 31
0.0
  0
CIRCLE
  5
38AF
  8
0-5
  6
CONTINUOUS
 62
     4
 10
23549.969858
 20
4537.636953000002
 30
0.0
 40
199.9999949999999
  0
CIRCLE
  5
38B0
  8
0-5
  6
CONTINUOUS
 62
     4
 10
20281.469858
 20
4537.636953000002
 30
0.0
 40
199.9999949999999
  0
TEXT
  5
38B1
  8
0-5
  6
CONTINUOUS
 62
     7
 10
23498.056982999999
 20
4448.1619710000023
 30
0.0
 40
160.0
  1
2
 72
     4
 11
23551.390316333331
 21
4528.1619710000023
 31
0.0
  0
TEXT
  5
38B2
  8
0-5
  6
CONTINUOUS
 62
     7
 10
20229.55698400001
 20
4448.1619710000023
 30
0.0
 40
160.0
  1
1
 72
     4
 11
20256.223650666681
 21
4528.1619710000023
 31
0.0
  0
TEXT
  5
38B3
  8
2-0
  6
CONTINUOUS
 62
     7
 10
20572.625369000009
 20
3729.2513000000008
 30
0.0
 40
160.0
  1
正 面 立 面 図
 72
     4
 11
21217.958702333341
 21
3809.2513000000008
 31
0.0
  0
CIRCLE
  5
38B4
  8
0-4
  6
CONTINUOUS
 62
     4
 10
21915.719858
 20
7063.6936859999987
 30
0.0
 40
18.487504999999981
  0
TEXT
  5
38B5
  8
2-0
  6
CONTINUOUS
 62
     7
 10
22569.450887470972
 20
3756.4466690000022
 30
0.0
 40
160.0
  1
1
 72
     4
 11
22596.117554137629
 21
3836.4466690000022
 31
0.0
  0
TEXT
  5
38B6
  8
2-0
  6
CONTINUOUS
 62
     7
 10
22812.53960472166
 20
3676.4481370000012
 30
0.0
 40
160.0
  1
80
 72
     4
 11
22932.53960472166
 21
3756.4481370000012
 31
0.0
  0
TEXT
  5
38B7
  8
2-0
  6
CONTINUOUS
 62
     7
 10
22070.452853470972
 20
3729.2513000000008
 30
0.0
 40
160.0
  1
(S=  /   )
 72
     4
 11
22630.452853470972
 21
3809.2513000000008
 31
0.0
  0
LINE
  5
38B8
  8
SUNPOU
  6
CONTINUOUS
 10
19998.969857999989
 20
5377.637250000008
 30
0.0
 11
19641.01485127888
 21
5377.637250000008
 31
0.0
  0
LINE
  5
38B9
  8
SUNPOU
  6
CONTINUOUS
 10
23832.469858
 20
5377.637250000008
 30
0.0
 11
24190.424864721092
 21
5377.637250000008
 31
0.0
  0
TEXT
  5
38BA
  8
0-5
  6
CONTINUOUS
 62
     7
 10
19663.29193900001
 20
7306.997496742003
 30
0.0
 40
160.0
  1
(2131.5)
 50
90.0
 72
     4
 11
19583.29193900001
 21
7760.330830075337
 31
0.0
  0
LINE
  5
38BB
  8
0-1
  6
CONTINUOUS
 62
     3
 10
9901.2237380000206
 20
6727.6372500000016
 30
0.0
 11
9901.2237380000206
 21
8588.6831290000027
 31
0.0
  0
LINE
  5
38BC
  8
0-1
  6
CONTINUOUS
 62
     3
 10
9886.2249260000153
 20
6727.6372500000016
 30
0.0
 11
9886.2249260000153
 21
8588.6831290000027
 31
0.0
  0
LINE
  5
38BD
  8
0-5
  6
CONTINUOUS
 62
     4
 10
15134.223276999999
 20
4897.637646000002
 30
0.0
 11
15134.223276999999
 21
4737.6381080000019
 31
0.0
  0
LINE
  5
38BE
  8
0-5
  6
CONTINUOUS
 62
     4
 10
12216.223276999999
 20
4897.637646000002
 30
0.0
 11
12216.223276999999
 21
4737.6381080000019
 31
0.0
  0
LINE
  5
38BF
  8
0-5
  6
CONTINUOUS
 62
     4
 10
9648.7232769999955
 20
4897.637646000002
 30
0.0
 11
9648.7232769999955
 21
4737.6381080000019
 31
0.0
  0
CIRCLE
  5
38C0
  8
0-5
  6
CONTINUOUS
 62
     4
 10
12216.223276999999
 20
4537.6369530000047
 30
0.0
 40
199.9999949999999
  0
CIRCLE
  5
38C1
  8
0-5
  6
CONTINUOUS
 62
     4
 10
15134.223276999999
 20
4537.6369530000047
 30
0.0
 40
199.9999949999999
  0
CIRCLE
  5
38C2
  8
0-5
  6
CONTINUOUS
 62
     4
 10
9648.7232769999955
 20
4537.6369530000047
 30
0.0
 40
199.9999949999999
  0
TEXT
  5
38C3
  8
0-5
  6
CONTINUOUS
 62
     7
 10
15087.26711699999
 20
4454.4261570000053
 30
0.0
 40
160.0
  1
A
 72
     4
 11
15140.60045033333
 21
4534.4261570000053
 31
0.0
  0
TEXT
  5
38C4
  8
0-5
  6
CONTINUOUS
 62
     7
 10
12169.267116999979
 20
4454.4261570000053
 30
0.0
 40
160.0
  1
B
 72
     4
 11
12222.600450333321
 21
4534.4261570000053
 31
0.0
  0
TEXT
  5
38C5
  8
0-5
  6
CONTINUOUS
 62
     7
 10
9601.7671170000031
 20
4454.4261570000053
 30
0.0
 40
160.0
  1
C
 72
     4
 11
9655.100450333337
 21
4534.4261570000053
 31
0.0
  0
TEXT
  5
38C6
  8
2-0
  6
CONTINUOUS
 62
     7
 10
20680.427972000009
 20
12038.053153000001
 30
0.0
 40
160.0
  1
平　面　図
 72
     4
 11
21133.761305333341
 21
12112.71981966667
 31
0.0
  0
TEXT
  5
38C7
  8
2-0
  6
CONTINUOUS
 62
     7
 10
22485.253490470979
 20
12059.91518866667
 30
0.0
 40
160.0
  1
1
 72
     4
 11
22511.920157137651
 21
12139.91518866667
 31
0.0
  0
TEXT
  5
38C8
  8
2-0
  6
CONTINUOUS
 62
     7
 10
22728.342207721649
 20
11979.91665666667
 30
0.0
 40
160.0
  1
80
 72
     4
 11
22848.342207721649
 21
12059.91665666667
 31
0.0
  0
TEXT
  5
38C9
  8
2-0
  6
CONTINUOUS
 62
     7
 10
21986.255456470961
 20
12032.71981966667
 30
0.0
 40
160.0
  1
(S=  /   )
 72
     4
 11
22546.255456470961
 21
12112.71981966667
 31
0.0
  0
LINE
  5
38CA
  8
2-0
  6
CONTINUOUS
 62
     6
 10
21866.810941999989
 20
13628.933841
 30
0.0
 11
22866.80434399996
 21
13628.933841
 31
0.0
  0
LINE
  5
38CB
  8
2-0
  6
CONTINUOUS
 62
     6
 10
23334.744720999988
 20
14099.354555
 30
0.0
 11
22866.80434399996
 21
13628.933841
 31
0.0
  0
LINE
  5
38CC
  8
2-0
  6
CONTINUOUS
 62
     6
 10
21883.522037999981
 20
18308.053906000001
 30
0.0
 11
22901.497385999988
 21
18308.053906000001
 31
0.0
  0
LINE
  5
38CD
  8
2-0
  6
CONTINUOUS
 62
     6
 10
23357.922903999981
 20
18532.768854999991
 30
0.0
 11
22901.497385999988
 21
18308.053906000001
 31
0.0
  0
LINE
  5
38CE
  8
2-0
  6
CONTINUOUS
 62
     6
 10
23296.104517999978
 20
17290.96220200001
 30
0.0
 11
22991.40909999999
 21
17394.615733000021
 31
0.0
  0
LINE
  5
38CF
  8
2-0
  6
CONTINUOUS
 62
     6
 10
23451.12655699997
 20
16801.340158000021
 30
0.0
 11
22991.40909999999
 21
16557.426846999999
 31
0.0
  0
LINE
  5
38D0
  8
2-0
  6
CONTINUOUS
 62
     6
 10
22071.406064999988
 20
16557.426846999999
 30
0.0
 11
22991.40909999999
 21
16557.426846999999
 31
0.0
  0
LINE
  5
38D1
  8
2-0
  6
CONTINUOUS
 62
     6
 10
21791.415037999988
 20
17394.615733000021
 30
0.0
 11
22991.40909999999
 21
17394.615733000021
 31
0.0
  0
LINE
  5
38D2
  8
2-0
  6
CONTINUOUS
 62
     6
 10
23367.303842000001
 20
14421.03820099999
 30
0.0
 11
22991.40909999999
 21
14601.982035999999
 31
0.0
  0
LINE
  5
38D3
  8
2-0
  6
CONTINUOUS
 62
     6
 10
21883.522037999981
 20
15390.291448000011
 30
0.0
 11
22901.497385999988
 21
15390.291448000011
 31
0.0
  0
LINE
  5
38D4
  8
2-0
  6
CONTINUOUS
 62
     6
 10
22471.407383999991
 20
14601.982035999999
 30
0.0
 11
22991.40909999999
 21
14601.982035999999
 31
0.0
  0
LINE
  5
38D5
  8
2-0
  6
CONTINUOUS
 62
     6
 10
23357.922903999981
 20
15615.00441800002
 30
0.0
 11
22901.497385999988
 21
15390.291448000011
 31
0.0
  0
LINE
  5
38D6
  8
2-0
  6
CONTINUOUS
 62
     4
 10
20281.469858
 20
19876.935491000011
 30
0.0
 11
20281.469858
 21
20606.932455999999
 31
0.0
  0
LINE
  5
38D7
  8
2-0
  6
CONTINUOUS
 62
     3
 10
23562.470517999991
 20
19687.93303700001
 30
0.0
 11
23562.470517999991
 21
19681.937075000009
 31
0.0
  0
LINE
  5
38D8
  8
2-0
  6
CONTINUOUS
 62
     3
 10
23562.470517999991
 20
19681.937075000009
 30
0.0
 11
23592.46814199998
 21
19681.937075000009
 31
0.0
  0
LINE
  5
38D9
  8
2-0
  6
CONTINUOUS
 62
     3
 10
23592.46814199998
 20
19711.936678999991
 30
0.0
 11
23511.46624199998
 21
19711.936678999991
 31
0.0
  0
LINE
  5
38DA
  8
2-0
  6
CONTINUOUS
 62
     3
 10
23562.470517999991
 20
19671.639619000001
 30
0.0
 11
23592.46814199998
 21
19671.639619000001
 31
0.0
  0
LINE
  5
38DB
  8
2-0
  6
CONTINUOUS
 62
     3
 10
23562.470517999991
 20
19689.64136100002
 30
0.0
 11
23562.470517999991
 21
19671.639619000001
 31
0.0
  0
LINE
  5
38DC
  8
2-0
  6
CONTINUOUS
 62
     3
 10
23587.467877999989
 20
19689.64136100002
 30
0.0
 11
23562.470517999991
 21
19689.64136100002
 31
0.0
  0
LINE
  5
38DD
  8
2-0
  6
CONTINUOUS
 62
     3
 10
23587.467877999989
 20
19684.633179000011
 30
0.0
 11
23587.467877999989
 21
19689.64136100002
 31
0.0
  0
LINE
  5
38DE
  8
2-0
  6
CONTINUOUS
 62
     3
 10
23580.466321
 20
19684.633179000011
 30
0.0
 11
23587.467877999989
 21
19684.633179000011
 31
0.0
  0
LINE
  5
38DF
  8
2-0
  6
CONTINUOUS
 62
     3
 10
23480.170053000002
 20
19784.933406
 30
0.0
 11
23480.170053000002
 21
19791.938922000008
 31
0.0
  0
LINE
  5
38E0
  8
2-0
  6
CONTINUOUS
 62
     3
 10
23480.170053000002
 20
19791.938922000008
 30
0.0
 11
23485.170316999971
 21
19791.938922000008
 31
0.0
  0
LINE
  5
38E1
  8
2-0
  6
CONTINUOUS
 62
     3
 10
23485.170316999971
 20
19791.938922000008
 30
0.0
 11
23485.170316999971
 21
19766.92968500001
 31
0.0
  0
LINE
  5
38E2
  8
2-0
  6
CONTINUOUS
 62
     3
 10
23485.170316999971
 20
19766.92968500001
 30
0.0
 11
23467.16857499996
 21
19766.92968500001
 31
0.0
  0
LINE
  5
38E3
  8
2-0
  6
CONTINUOUS
 62
     3
 10
23467.16857499996
 20
19766.92968500001
 30
0.0
 11
23467.16857499996
 21
19796.933248000008
 31
0.0
  0
LINE
  5
38E4
  8
2-0
  6
CONTINUOUS
 62
     3
 10
23477.466030999989
 20
19796.933248000008
 30
0.0
 11
23592.46814199998
 21
19796.933248000008
 31
0.0
  0
LINE
  5
38E5
  8
2-0
  6
CONTINUOUS
 62
     3
 10
23477.466030999989
 20
19766.92968500001
 30
0.0
 11
23477.466030999989
 21
19796.933248000008
 31
0.0
  0
LINE
  5
38E6
  8
2-0
  6
CONTINUOUS
 62
     3
 10
23483.467930999988
 20
19766.92968500001
 30
0.0
 11
23477.466030999989
 21
19766.92968500001
 31
0.0
  0
LINE
  5
38E7
  8
2-0
  6
CONTINUOUS
 62
     3
 10
23580.466321
 20
19331.336356499989
 30
0.0
 11
23587.467877999989
 21
19331.336356499989
 31
0.0
  0
LINE
  5
38E8
  8
2-0
  6
CONTINUOUS
 62
     3
 10
23587.467877999989
 20
19331.336356499989
 30
0.0
 11
23587.467877999989
 21
19336.336620499991
 31
0.0
  0
LINE
  5
38E9
  8
2-0
  6
CONTINUOUS
 62
     3
 10
23587.467877999989
 20
19336.336620499991
 30
0.0
 11
23562.470517999991
 21
19336.336620499991
 31
0.0
  0
LINE
  5
38EA
  8
2-0
  6
CONTINUOUS
 62
     3
 10
23562.470517999991
 20
19336.336620499991
 30
0.0
 11
23562.470517999991
 21
19318.3408165
 31
0.0
  0
LINE
  5
38EB
  8
2-0
  6
CONTINUOUS
 62
     3
 10
23562.470517999991
 20
19318.3408165
 30
0.0
 11
23592.46814199998
 21
19318.3408165
 31
0.0
  0
LINE
  5
38EC
  8
2-0
  6
CONTINUOUS
 62
     3
 10
23562.470517999991
 20
19334.432323499961
 30
0.0
 11
23562.470517999991
 21
19328.4343825
 31
0.0
  0
LINE
  5
38ED
  8
2-0
  6
CONTINUOUS
 62
     3
 10
23562.470517999991
 20
19328.4343825
 30
0.0
 11
23592.46814199998
 21
19328.4343825
 31
0.0
  0
LINE
  5
38EE
  8
2-0
  6
CONTINUOUS
 62
     3
 10
23592.46814199998
 20
19328.4343825
 30
0.0
 11
23592.46814199998
 21
19365.4355435
 31
0.0
  0
LINE
  5
38EF
  8
2-0
  6
CONTINUOUS
 62
     3
 10
23562.470517999991
 20
19365.4355435
 30
0.0
 11
23592.46814199998
 21
19365.4355435
 31
0.0
  0
LINE
  5
38F0
  8
2-0
  6
CONTINUOUS
 62
     3
 10
23562.470517999991
 20
19359.431663499981
 30
0.0
 11
23562.470517999991
 21
19365.4355435
 31
0.0
  0
LINE
  5
38F1
  8
2-0
  6
CONTINUOUS
 62
     3
 10
23562.470517999991
 20
19375.531088499989
 30
0.0
 11
23592.46814199998
 21
19375.531088499989
 31
0.0
  0
LINE
  5
38F2
  8
2-0
  6
CONTINUOUS
 62
     3
 10
23562.470517999991
 20
19357.529346499989
 30
0.0
 11
23562.470517999991
 21
19375.531088499989
 31
0.0
  0
LINE
  5
38F3
  8
2-0
  6
CONTINUOUS
 62
     3
 10
23587.467877999989
 20
19357.529346499989
 30
0.0
 11
23562.470517999991
 21
19357.529346499989
 31
0.0
  0
LINE
  5
38F4
  8
2-0
  6
CONTINUOUS
 62
     3
 10
23587.467877999989
 20
19362.529610500002
 30
0.0
 11
23587.467877999989
 21
19357.529346499989
 31
0.0
  0
LINE
  5
38F5
  8
2-0
  6
CONTINUOUS
 62
     3
 10
23580.466321
 20
19362.529610500002
 30
0.0
 11
23587.467877999989
 21
19362.529610500002
 31
0.0
  0
LINE
  5
38F6
  8
2-0
  6
CONTINUOUS
 62
     3
 10
23580.466321
 20
18630.335367
 30
0.0
 11
23587.467877999989
 21
18630.335367
 31
0.0
  0
LINE
  5
38F7
  8
2-0
  6
CONTINUOUS
 62
     3
 10
23587.467877999989
 20
18630.335367
 30
0.0
 11
23587.467877999989
 21
18635.341569
 31
0.0
  0
LINE
  5
38F8
  8
2-0
  6
CONTINUOUS
 62
     3
 10
23587.467877999989
 20
18635.341569
 30
0.0
 11
23562.470517999991
 21
18635.341569
 31
0.0
  0
LINE
  5
38F9
  8
2-0
  6
CONTINUOUS
 62
     3
 10
23562.470517999991
 20
18635.341569
 30
0.0
 11
23562.470517999991
 21
18617.339827
 31
0.0
  0
LINE
  5
38FA
  8
2-0
  6
CONTINUOUS
 62
     3
 10
23562.470517999991
 20
18617.339827
 30
0.0
 11
23592.46814199998
 21
18617.339827
 31
0.0
  0
LINE
  5
38FB
  8
2-0
  6
CONTINUOUS
 62
     3
 10
23562.470517999991
 20
18633.43133399999
 30
0.0
 11
23562.470517999991
 21
18627.435372
 31
0.0
  0
LINE
  5
38FC
  8
2-0
  6
CONTINUOUS
 62
     3
 10
23562.470517999991
 20
18627.435372
 30
0.0
 11
23592.46814199998
 21
18627.435372
 31
0.0
  0
LINE
  5
38FD
  8
2-0
  6
CONTINUOUS
 62
     3
 10
23592.46814199998
 20
18627.435372
 30
0.0
 11
23592.46814199998
 21
18664.434553999989
 31
0.0
  0
LINE
  5
38FE
  8
2-0
  6
CONTINUOUS
 62
     3
 10
23562.470517999991
 20
18664.434553999989
 30
0.0
 11
23592.46814199998
 21
18664.434553999989
 31
0.0
  0
LINE
  5
38FF
  8
2-0
  6
CONTINUOUS
 62
     3
 10
23562.470517999991
 20
18658.43859200001
 30
0.0
 11
23562.470517999991
 21
18664.434553999989
 31
0.0
  0
LINE
  5
3900
  8
2-0
  6
CONTINUOUS
 62
     3
 10
23562.470517999991
 20
18674.530099
 30
0.0
 11
23592.46814199998
 21
18674.530099
 31
0.0
  0
LINE
  5
3901
  8
2-0
  6
CONTINUOUS
 62
     3
 10
23562.470517999991
 20
18656.528356999988
 30
0.0
 11
23562.470517999991
 21
18674.530099
 31
0.0
  0
LINE
  5
3902
  8
2-0
  6
CONTINUOUS
 62
     3
 10
23587.467877999989
 20
18656.528356999988
 30
0.0
 11
23562.470517999991
 21
18656.528356999988
 31
0.0
  0
LINE
  5
3903
  8
2-0
  6
CONTINUOUS
 62
     3
 10
23587.467877999989
 20
18661.534559
 30
0.0
 11
23587.467877999989
 21
18656.528356999988
 31
0.0
  0
LINE
  5
3904
  8
2-0
  6
CONTINUOUS
 62
     3
 10
23580.466321
 20
18661.534559
 30
0.0
 11
23587.467877999989
 21
18661.534559
 31
0.0
  0
LINE
  5
3905
  8
2-0
  6
CONTINUOUS
 62
     3
 10
23580.466321
 20
17960.528621000001
 30
0.0
 11
23587.467877999989
 21
17960.528621000001
 31
0.0
  0
LINE
  5
3906
  8
2-0
  6
CONTINUOUS
 62
     3
 10
23587.467877999989
 20
17960.528621000001
 30
0.0
 11
23587.467877999989
 21
17955.540234000011
 31
0.0
  0
LINE
  5
3907
  8
2-0
  6
CONTINUOUS
 62
     3
 10
23587.467877999989
 20
17955.540234000011
 30
0.0
 11
23562.470517999991
 21
17955.540234000011
 31
0.0
  0
LINE
  5
3908
  8
2-0
  6
CONTINUOUS
 62
     3
 10
23562.470517999991
 20
17955.540234000011
 30
0.0
 11
23562.470517999991
 21
17973.536037000002
 31
0.0
  0
LINE
  5
3909
  8
2-0
  6
CONTINUOUS
 62
     3
 10
23562.470517999991
 20
17973.536037000002
 30
0.0
 11
23592.46814199998
 21
17973.536037000002
 31
0.0
  0
LINE
  5
390A
  8
2-0
  6
CONTINUOUS
 62
     3
 10
23562.470517999991
 20
17957.438591999991
 30
0.0
 11
23562.470517999991
 21
17963.434553999989
 31
0.0
  0
LINE
  5
390B
  8
2-0
  6
CONTINUOUS
 62
     3
 10
23562.470517999991
 20
17963.434553999989
 30
0.0
 11
23592.46814199998
 21
17963.434553999989
 31
0.0
  0
LINE
  5
390C
  8
2-0
  6
CONTINUOUS
 62
     3
 10
23592.46814199998
 20
17963.434553999989
 30
0.0
 11
23592.46814199998
 21
17926.435372000011
 31
0.0
  0
LINE
  5
390D
  8
2-0
  6
CONTINUOUS
 62
     3
 10
23562.470517999991
 20
17926.435372000011
 30
0.0
 11
23592.46814199998
 21
17926.435372000011
 31
0.0
  0
LINE
  5
390E
  8
2-0
  6
CONTINUOUS
 62
     3
 10
23562.470517999991
 20
17932.437272999989
 30
0.0
 11
23562.470517999991
 21
17926.435372000011
 31
0.0
  0
LINE
  5
390F
  8
2-0
  6
CONTINUOUS
 62
     3
 10
23562.470517999991
 20
17916.345765999991
 30
0.0
 11
23592.46814199998
 21
17916.345765999991
 31
0.0
  0
LINE
  5
3910
  8
2-0
  6
CONTINUOUS
 62
     3
 10
23562.470517999991
 20
17934.341569
 30
0.0
 11
23562.470517999991
 21
17916.345765999991
 31
0.0
  0
LINE
  5
3911
  8
2-0
  6
CONTINUOUS
 62
     3
 10
23587.467877999989
 20
17934.341569
 30
0.0
 11
23562.470517999991
 21
17934.341569
 31
0.0
  0
LINE
  5
3912
  8
2-0
  6
CONTINUOUS
 62
     3
 10
23587.467877999989
 20
17929.341305999991
 30
0.0
 11
23587.467877999989
 21
17934.341569
 31
0.0
  0
LINE
  5
3913
  8
2-0
  6
CONTINUOUS
 62
     3
 10
23580.466321
 20
17929.341305999991
 30
0.0
 11
23587.467877999989
 21
17929.341305999991
 31
0.0
  0
LINE
  5
3914
  8
2-0
  6
CONTINUOUS
 62
     3
 10
23589.582004
 20
17209.432192
 30
0.0
 11
23589.582004
 21
17229.433247000001
 31
0.0
  0
LINE
  5
3915
  8
2-0
  6
CONTINUOUS
 62
     3
 10
23589.582004
 20
17229.433247000001
 30
0.0
 11
23504.585434999979
 21
17229.433247000001
 31
0.0
  0
LINE
  5
3916
  8
2-0
  6
CONTINUOUS
 62
     3
 10
23580.466321
 20
17256.039957000012
 30
0.0
 11
23587.467877999989
 21
17256.039957000012
 31
0.0
  0
LINE
  5
3917
  8
2-0
  6
CONTINUOUS
 62
     3
 10
23587.467877999989
 20
17256.039957000012
 30
0.0
 11
23587.467877999989
 21
17251.045631000012
 31
0.0
  0
LINE
  5
3918
  8
2-0
  6
CONTINUOUS
 62
     3
 10
23587.467877999989
 20
17251.045631000012
 30
0.0
 11
23562.470517999991
 21
17251.045631000012
 31
0.0
  0
LINE
  5
3919
  8
2-0
  6
CONTINUOUS
 62
     3
 10
23562.470517999991
 20
17251.045631000012
 30
0.0
 11
23562.470517999991
 21
17269.041434999999
 31
0.0
  0
LINE
  5
391A
  8
2-0
  6
CONTINUOUS
 62
     3
 10
23562.470517999991
 20
17269.041434999999
 30
0.0
 11
23592.46814199998
 21
17269.041434999999
 31
0.0
  0
LINE
  5
391B
  8
2-0
  6
CONTINUOUS
 62
     3
 10
23562.470517999991
 20
17259.432851000001
 30
0.0
 11
23562.470517999991
 21
17253.430950999991
 31
0.0
  0
LINE
  5
391C
  8
2-0
  6
CONTINUOUS
 62
     3
 10
23592.46814199998
 20
17259.432851000001
 30
0.0
 11
23562.470517999991
 21
17259.432851000001
 31
0.0
  0
LINE
  5
391D
  8
2-0
  6
CONTINUOUS
 62
     3
 10
23592.46814199998
 20
17269.041434999999
 30
0.0
 11
23592.46814199998
 21
17916.345765999991
 31
0.0
  0
LINE
  5
391E
  8
2-0
  6
CONTINUOUS
 62
     3
 10
23592.46814199998
 20
17973.536037000002
 30
0.0
 11
23592.46814199998
 21
18617.339827
 31
0.0
  0
LINE
  5
391F
  8
2-0
  6
CONTINUOUS
 62
     3
 10
23592.46814199998
 20
17114.43113600001
 30
0.0
 11
23562.470517999991
 21
17114.43113600001
 31
0.0
  0
LINE
  5
3920
  8
2-0
  6
CONTINUOUS
 62
     3
 10
23562.470517999991
 20
17114.43113600001
 30
0.0
 11
23562.470517999991
 21
17120.433035999991
 31
0.0
  0
LINE
  5
3921
  8
2-0
  6
CONTINUOUS
 62
     3
 10
23504.585434999979
 20
17144.436678999991
 30
0.0
 11
23589.582004
 21
17144.436678999991
 31
0.0
  0
LINE
  5
3922
  8
2-0
  6
CONTINUOUS
 62
     3
 10
23589.582004
 20
17144.436678999991
 30
0.0
 11
23589.582004
 21
17164.431796000012
 31
0.0
  0
LINE
  5
3923
  8
2-0
  6
CONTINUOUS
 62
     3
 10
23562.470517999991
 20
17104.822553000002
 30
0.0
 11
23592.46814199998
 21
17104.822553000002
 31
0.0
  0
LINE
  5
3924
  8
2-0
  6
CONTINUOUS
 62
     3
 10
23562.470517999991
 20
17122.818355999982
 30
0.0
 11
23562.470517999991
 21
17104.822553000002
 31
0.0
  0
LINE
  5
3925
  8
2-0
  6
CONTINUOUS
 62
     3
 10
23587.467877999989
 20
17122.818355999982
 30
0.0
 11
23562.470517999991
 21
17122.818355999982
 31
0.0
  0
LINE
  5
3926
  8
2-0
  6
CONTINUOUS
 62
     3
 10
23587.467877999989
 20
17117.818092000009
 30
0.0
 11
23587.467877999989
 21
17122.818355999982
 31
0.0
  0
LINE
  5
3927
  8
2-0
  6
CONTINUOUS
 62
     3
 10
23580.466321
 20
17117.818092000009
 30
0.0
 11
23587.467877999989
 21
17117.818092000009
 31
0.0
  0
LINE
  5
3928
  8
2-0
  6
CONTINUOUS
 62
     3
 10
23580.466321
 20
16413.335861499982
 30
0.0
 11
23587.467877999989
 21
16413.335861499982
 31
0.0
  0
LINE
  5
3929
  8
2-0
  6
CONTINUOUS
 62
     3
 10
23587.467877999989
 20
16413.335861499982
 30
0.0
 11
23587.467877999989
 21
16418.336125499991
 31
0.0
  0
LINE
  5
392A
  8
2-0
  6
CONTINUOUS
 62
     3
 10
23587.467877999989
 20
16418.336125499991
 30
0.0
 11
23562.470517999991
 21
16418.336125499991
 31
0.0
  0
LINE
  5
392B
  8
2-0
  6
CONTINUOUS
 62
     3
 10
23562.470517999991
 20
16418.336125499991
 30
0.0
 11
23562.470517999991
 21
16400.334383500001
 31
0.0
  0
LINE
  5
392C
  8
2-0
  6
CONTINUOUS
 62
     3
 10
23562.470517999991
 20
16400.334383500001
 30
0.0
 11
23592.46814199998
 21
16400.334383500001
 31
0.0
  0
LINE
  5
392D
  8
2-0
  6
CONTINUOUS
 62
     3
 10
23562.470517999991
 20
16416.431828500001
 30
0.0
 11
23562.470517999991
 21
16410.4348775
 31
0.0
  0
LINE
  5
392E
  8
2-0
  6
CONTINUOUS
 62
     3
 10
23562.470517999991
 20
16410.4348775
 30
0.0
 11
23592.46814199998
 21
16410.4348775
 31
0.0
  0
LINE
  5
392F
  8
2-0
  6
CONTINUOUS
 62
     3
 10
23592.46814199998
 20
16410.4348775
 30
0.0
 11
23592.46814199998
 21
16447.4350485
 31
0.0
  0
LINE
  5
3930
  8
2-0
  6
CONTINUOUS
 62
     3
 10
23562.470517999991
 20
16447.4350485
 30
0.0
 11
23592.46814199998
 21
16447.4350485
 31
0.0
  0
LINE
  5
3931
  8
2-0
  6
CONTINUOUS
 62
     3
 10
23562.470517999991
 20
16441.432158499989
 30
0.0
 11
23562.470517999991
 21
16447.4350485
 31
0.0
  0
LINE
  5
3932
  8
2-0
  6
CONTINUOUS
 62
     3
 10
23562.470517999991
 20
16457.5305935
 30
0.0
 11
23592.46814199998
 21
16457.5305935
 31
0.0
  0
LINE
  5
3933
  8
2-0
  6
CONTINUOUS
 62
     3
 10
23562.470517999991
 20
16439.522912500001
 30
0.0
 11
23562.470517999991
 21
16457.5305935
 31
0.0
  0
LINE
  5
3934
  8
2-0
  6
CONTINUOUS
 62
     3
 10
23587.467877999989
 20
16439.522912500001
 30
0.0
 11
23562.470517999991
 21
16439.522912500001
 31
0.0
  0
LINE
  5
3935
  8
2-0
  6
CONTINUOUS
 62
     3
 10
23587.467877999989
 20
16444.529115500001
 30
0.0
 11
23587.467877999989
 21
16439.522912500001
 31
0.0
  0
LINE
  5
3936
  8
2-0
  6
CONTINUOUS
 62
     3
 10
23580.466321
 20
16444.529115500001
 30
0.0
 11
23587.467877999989
 21
16444.529115500001
 31
0.0
  0
LINE
  5
3937
  8
2-0
  6
CONTINUOUS
 62
     3
 10
23580.466321
 20
15743.76913200001
 30
0.0
 11
23587.467877999989
 21
15743.76913200001
 31
0.0
  0
LINE
  5
3938
  8
2-0
  6
CONTINUOUS
 62
     3
 10
23587.467877999989
 20
15743.76913200001
 30
0.0
 11
23587.467877999989
 21
15738.774807000011
 31
0.0
  0
LINE
  5
3939
  8
2-0
  6
CONTINUOUS
 62
     3
 10
23587.467877999989
 20
15738.774807000011
 30
0.0
 11
23562.470517999991
 21
15738.774807000011
 31
0.0
  0
LINE
  5
393A
  8
2-0
  6
CONTINUOUS
 62
     3
 10
23562.470517999991
 20
15738.774807000011
 30
0.0
 11
23562.470517999991
 21
15756.77061000001
 31
0.0
  0
LINE
  5
393B
  8
2-0
  6
CONTINUOUS
 62
     3
 10
23562.470517999991
 20
15756.77061000001
 30
0.0
 11
23592.46814199998
 21
15756.77061000001
 31
0.0
  0
LINE
  5
393C
  8
2-0
  6
CONTINUOUS
 62
     3
 10
23562.470517999991
 20
15740.673165
 30
0.0
 11
23562.470517999991
 21
15746.67506500001
 31
0.0
  0
LINE
  5
393D
  8
2-0
  6
CONTINUOUS
 62
     3
 10
23562.470517999991
 20
15746.67506500001
 30
0.0
 11
23592.46814199998
 21
15746.67506500001
 31
0.0
  0
LINE
  5
393E
  8
2-0
  6
CONTINUOUS
 62
     3
 10
23592.46814199998
 20
15709.67588400002
 30
0.0
 11
23592.46814199998
 21
15746.67506500001
 31
0.0
  0
LINE
  5
393F
  8
2-0
  6
CONTINUOUS
 62
     3
 10
23562.470517999991
 20
15709.67588400002
 30
0.0
 11
23592.46814199998
 21
15709.67588400002
 31
0.0
  0
LINE
  5
3940
  8
2-0
  6
CONTINUOUS
 62
     3
 10
23562.470517999991
 20
15715.67283500001
 30
0.0
 11
23562.470517999991
 21
15709.67588400002
 31
0.0
  0
LINE
  5
3941
  8
2-0
  6
CONTINUOUS
 62
     3
 10
23562.470517999991
 20
15699.57440000001
 30
0.0
 11
23592.46814199998
 21
15699.57440000001
 31
0.0
  0
LINE
  5
3942
  8
2-0
  6
CONTINUOUS
 62
     3
 10
23562.470517999991
 20
15717.582081
 30
0.0
 11
23562.470517999991
 21
15699.57440000001
 31
0.0
  0
LINE
  5
3943
  8
2-0
  6
CONTINUOUS
 62
     3
 10
23587.467877999989
 20
15717.582081
 30
0.0
 11
23562.470517999991
 21
15717.582081
 31
0.0
  0
LINE
  5
3944
  8
2-0
  6
CONTINUOUS
 62
     3
 10
23587.467877999989
 20
15712.58181700002
 30
0.0
 11
23587.467877999989
 21
15717.582081
 31
0.0
  0
LINE
  5
3945
  8
2-0
  6
CONTINUOUS
 62
     3
 10
23580.466321
 20
15712.58181700002
 30
0.0
 11
23587.467877999989
 21
15712.58181700002
 31
0.0
  0
LINE
  5
3946
  8
2-0
  6
CONTINUOUS
 62
     3
 10
23592.46814199998
 20
17104.822553000002
 30
0.0
 11
23592.46814199998
 21
16457.5305935
 31
0.0
  0
LINE
  5
3947
  8
2-0
  6
CONTINUOUS
 62
     3
 10
23592.46814199998
 20
17259.432851000001
 30
0.0
 11
23592.46814199998
 21
17114.43113600001
 31
0.0
  0
LINE
  5
3948
  8
2-0
  6
CONTINUOUS
 62
     3
 10
23504.585434999979
 20
17229.433247000001
 30
0.0
 11
23504.585434999979
 21
17144.436678999991
 31
0.0
  0
LINE
  5
3949
  8
2-0
  6
CONTINUOUS
 62
     6
 10
21966.376767999991
 20
18997.880512499982
 30
0.0
 11
22991.40909999999
 21
18997.880512499982
 31
0.0
  0
LINE
  5
394A
  8
2-0
  6
CONTINUOUS
 62
     3
 10
23580.466321
 20
15011.34081
 30
0.0
 11
23587.467877999989
 21
15011.34081
 31
0.0
  0
LINE
  5
394B
  8
2-0
  6
CONTINUOUS
 62
     3
 10
23587.467877999989
 20
15011.34081
 30
0.0
 11
23587.467877999989
 21
15016.335136000011
 31
0.0
  0
LINE
  5
394C
  8
2-0
  6
CONTINUOUS
 62
     3
 10
23587.467877999989
 20
15016.335136000011
 30
0.0
 11
23562.470517999991
 21
15016.335136000011
 31
0.0
  0
LINE
  5
394D
  8
2-0
  6
CONTINUOUS
 62
     3
 10
23562.470517999991
 20
15016.335136000011
 30
0.0
 11
23562.470517999991
 21
14998.339332
 31
0.0
  0
LINE
  5
394E
  8
2-0
  6
CONTINUOUS
 62
     3
 10
23562.470517999991
 20
14998.339332
 30
0.0
 11
23592.46814199998
 21
14998.339332
 31
0.0
  0
LINE
  5
394F
  8
2-0
  6
CONTINUOUS
 62
     3
 10
23562.470517999991
 20
15014.43776700001
 30
0.0
 11
23562.470517999991
 21
15008.434877000011
 31
0.0
  0
LINE
  5
3950
  8
2-0
  6
CONTINUOUS
 62
     3
 10
23562.470517999991
 20
15008.434877000011
 30
0.0
 11
23592.46814199998
 21
15008.434877000011
 31
0.0
  0
LINE
  5
3951
  8
2-0
  6
CONTINUOUS
 62
     3
 10
23592.46814199998
 20
15008.434877000011
 30
0.0
 11
23592.46814199998
 21
15045.435048999991
 31
0.0
  0
LINE
  5
3952
  8
2-0
  6
CONTINUOUS
 62
     3
 10
23562.470517999991
 20
15045.435048999991
 30
0.0
 11
23592.46814199998
 21
15045.435048999991
 31
0.0
  0
LINE
  5
3953
  8
2-0
  6
CONTINUOUS
 62
     3
 10
23562.470517999991
 20
15039.438097
 30
0.0
 11
23562.470517999991
 21
15045.435048999991
 31
0.0
  0
LINE
  5
3954
  8
2-0
  6
CONTINUOUS
 62
     3
 10
23562.470517999991
 20
15055.535542000011
 30
0.0
 11
23592.46814199998
 21
15055.535542000011
 31
0.0
  0
LINE
  5
3955
  8
2-0
  6
CONTINUOUS
 62
     3
 10
23562.470517999991
 20
15037.52885100001
 30
0.0
 11
23562.470517999991
 21
15055.535542000011
 31
0.0
  0
LINE
  5
3956
  8
2-0
  6
CONTINUOUS
 62
     3
 10
23587.467877999989
 20
15037.52885100001
 30
0.0
 11
23562.470517999991
 21
15037.52885100001
 31
0.0
  0
LINE
  5
3957
  8
2-0
  6
CONTINUOUS
 62
     3
 10
23587.467877999989
 20
15042.53406400001
 30
0.0
 11
23587.467877999989
 21
15037.52885100001
 31
0.0
  0
LINE
  5
3958
  8
2-0
  6
CONTINUOUS
 62
     3
 10
23580.466321
 20
15042.53406400001
 30
0.0
 11
23587.467877999989
 21
15042.53406400001
 31
0.0
  0
LINE
  5
3959
  8
2-0
  6
CONTINUOUS
 62
     3
 10
23562.470517999991
 20
14335.436890000001
 30
0.0
 11
23562.470517999991
 21
14341.441758999999
 31
0.0
  0
LINE
  5
395A
  8
2-0
  6
CONTINUOUS
 62
     3
 10
23562.470517999991
 20
14341.441758999999
 30
0.0
 11
23592.46814199998
 21
14341.441758999999
 31
0.0
  0
LINE
  5
395B
  8
2-0
  6
CONTINUOUS
 62
     3
 10
23592.46814199998
 20
14341.441758999999
 30
0.0
 11
23592.46814199998
 21
14226.437668
 31
0.0
  0
LINE
  5
395C
  8
2-0
  6
CONTINUOUS
 62
     3
 10
23592.46814199998
 20
14226.437668
 30
0.0
 11
23507.469593999991
 21
14226.437668
 31
0.0
  0
LINE
  5
395D
  8
2-0
  6
CONTINUOUS
 62
     3
 10
23507.469593999991
 20
14226.437668
 30
0.0
 11
23507.469593999991
 21
14311.433247000001
 31
0.0
  0
LINE
  5
395E
  8
2-0
  6
CONTINUOUS
 62
     3
 10
23507.469593999991
 20
14311.433247000001
 30
0.0
 11
23539.468511999989
 21
14311.433247000001
 31
0.0
  0
LINE
  5
395F
  8
2-0
  6
CONTINUOUS
 62
     3
 10
23580.466321
 20
14338.471492000001
 30
0.0
 11
23587.467877999989
 21
14338.471492000001
 31
0.0
  0
LINE
  5
3960
  8
2-0
  6
CONTINUOUS
 62
     3
 10
23587.467877999989
 20
14338.471492000001
 30
0.0
 11
23587.467877999989
 21
14333.47419699998
 31
0.0
  0
LINE
  5
3961
  8
2-0
  6
CONTINUOUS
 62
     3
 10
23587.467877999989
 20
14333.47419699998
 30
0.0
 11
23562.470517999991
 21
14333.47419699998
 31
0.0
  0
LINE
  5
3962
  8
2-0
  6
CONTINUOUS
 62
     3
 10
23562.470517999991
 20
14333.47419699998
 30
0.0
 11
23562.470517999991
 21
14351.472970000001
 31
0.0
  0
LINE
  5
3963
  8
2-0
  6
CONTINUOUS
 62
     3
 10
23562.470517999991
 20
14351.472970000001
 30
0.0
 11
23592.46814199998
 21
14351.472970000001
 31
0.0
  0
LINE
  5
3964
  8
2-0
  6
CENTER2
 62
     6
 10
23549.969858
 20
14028.94010999999
 30
0.0
 11
23549.969858
 21
15184.80886800002
 31
0.0
  0
LINE
  5
3965
  8
2-0
  6
CONTINUOUS
 62
     3
 10
23592.46814199998
 20
18674.530099
 30
0.0
 11
23592.46814199998
 21
19318.3408165
 31
0.0
  0
LINE
  5
3966
  8
2-0
  6
CONTINUOUS
 62
     6
 10
24284.973024999981
 20
20526.936151000031
 30
0.0
 11
25484.967086999961
 21
20526.936151000031
 31
0.0
  0
LINE
  5
3967
  8
2-0
  6
CONTINUOUS
 62
     6
 10
23422.940191999969
 20
19240.0350205
 30
0.0
 11
22991.40909999999
 21
18997.880512499982
 31
0.0
  0
LINE
  5
3968
  8
2-0
  6
CONTINUOUS
 62
     6
 10
23744.50902599996
 20
19939.612988000001
 30
0.0
 11
24284.973024999981
 21
20526.936151000031
 31
0.0
  0
LINE
  5
3969
  8
2-0
  6
CONTINUOUS
 62
     3
 10
23501.463735000001
 20
18603.43370899999
 30
0.0
 11
23548.46938299996
 21
18603.43370899999
 31
0.0
  0
LINE
  5
396A
  8
2-0
  6
CONTINUOUS
 62
     3
 10
23548.46938299996
 20
18688.434237000001
 30
0.0
 11
23501.463735000001
 21
18688.434237000001
 31
0.0
  0
LINE
  5
396B
  8
2-0
  6
CONTINUOUS
 62
     3
 10
23548.46938299996
 20
18603.43370899999
 30
0.0
 11
23548.46938299996
 21
18628.437008000001
 31
0.0
  0
LINE
  5
396C
  8
2-0
  6
CONTINUOUS
 62
     3
 10
23548.46938299996
 20
18663.432916999991
 30
0.0
 11
23548.46938299996
 21
18688.434237000001
 31
0.0
  0
LINE
  5
396D
  8
2-0
  6
CONTINUOUS
 62
     3
 10
23501.463735000001
 20
18688.434237000001
 30
0.0
 11
23501.463735000001
 21
18603.43370899999
 31
0.0
  0
LINE
  5
396E
  8
2-0
  6
CONTINUOUS
 62
     3
 10
23592.46814199998
 20
16400.334383500001
 30
0.0
 11
23592.46814199998
 21
15756.77061000001
 31
0.0
  0
LINE
  5
396F
  8
2-0
  6
CONTINUOUS
 62
     3
 10
23501.463735000001
 20
15685.436679
 30
0.0
 11
23548.46938299996
 21
15685.436679
 31
0.0
  0
LINE
  5
3970
  8
2-0
  6
CONTINUOUS
 62
     3
 10
23548.46938299996
 20
15770.43324699999
 30
0.0
 11
23501.463735000001
 21
15770.43324699999
 31
0.0
  0
LINE
  5
3971
  8
2-0
  6
CONTINUOUS
 62
     3
 10
23548.46938299996
 20
15685.436679
 30
0.0
 11
23548.46938299996
 21
15710.43206000001
 31
0.0
  0
LINE
  5
3972
  8
2-0
  6
CONTINUOUS
 62
     3
 10
23548.46938299996
 20
15745.431928000011
 30
0.0
 11
23548.46938299996
 21
15770.43324699999
 31
0.0
  0
LINE
  5
3973
  8
2-0
  6
CONTINUOUS
 62
     3
 10
23501.463735000001
 20
15770.43324699999
 30
0.0
 11
23501.463735000001
 21
15685.436679
 31
0.0
  0
LINE
  5
3974
  8
2-0
  6
CONTINUOUS
 62
     6
 10
23409.88328699999
 20
19263.294364500001
 30
0.0
 11
23562.470517999991
 21
19318.3408165
 31
0.0
  0
LINE
  5
3975
  8
2-0
  6
CONTINUOUS
 62
     6
 10
23562.470517999991
 20
19318.3408165
 30
0.0
 11
23435.989177999989
 21
19216.781616499979
 31
0.0
  0
LINE
  5
3976
  8
2-0
  6
CONTINUOUS
 62
     6
 10
23409.88328699999
 20
19263.294364500001
 30
0.0
 11
23435.989177999989
 21
19216.781616499979
 31
0.0
  0
LINE
  5
3977
  8
2-0
  6
CONTINUOUS
 62
     6
 10
23435.989177999989
 20
19216.781616499979
 30
0.0
 11
23562.470517999991
 21
19318.3408165
 31
0.0
  0
LINE
  5
3978
  8
2-0
  6
CONTINUOUS
 62
     6
 10
23562.470517999991
 20
19318.3408165
 30
0.0
 11
23409.88328699999
 21
19263.294364500001
 31
0.0
  0
LINE
  5
3979
  8
2-0
  6
CONTINUOUS
 62
     6
 10
23409.88328699999
 20
19263.294364500001
 30
0.0
 11
23562.470517999991
 21
19318.3408165
 31
0.0
  0
LINE
  5
397A
  8
2-0
  6
CONTINUOUS
 62
     6
 10
23435.989177999989
 20
19216.781616499979
 30
0.0
 11
23562.470517999991
 21
19318.3408165
 31
0.0
  0
LINE
  5
397B
  8
2-0
  6
CONTINUOUS
 62
     6
 10
23435.989177999989
 20
19216.781616499979
 30
0.0
 11
23409.88328699999
 21
19263.294364500001
 31
0.0
  0
LINE
  5
397C
  8
2-0
  6
CONTINUOUS
 62
     6
 10
23764.12605499999
 20
19921.551861000022
 30
0.0
 11
23636.164035000002
 21
19821.869243000001
 31
0.0
  0
LINE
  5
397D
  8
2-0
  6
CONTINUOUS
 62
     6
 10
23636.164035000002
 20
19821.869243000001
 30
0.0
 11
23724.878139999972
 21
19957.666198000021
 31
0.0
  0
LINE
  5
397E
  8
2-0
  6
CONTINUOUS
 62
     6
 10
23764.12605499999
 20
19921.551861000022
 30
0.0
 11
23724.878139999972
 21
19957.666198000021
 31
0.0
  0
LINE
  5
397F
  8
2-0
  6
CONTINUOUS
 62
     6
 10
23724.878139999972
 20
19957.666198000021
 30
0.0
 11
23636.164035000002
 21
19821.869243000001
 31
0.0
  0
LINE
  5
3980
  8
2-0
  6
CONTINUOUS
 62
     6
 10
23636.164035000002
 20
19821.869243000001
 30
0.0
 11
23764.12605499999
 21
19921.551861000022
 31
0.0
  0
LINE
  5
3981
  8
2-0
  6
CONTINUOUS
 62
     6
 10
23764.12605499999
 20
19921.551861000022
 30
0.0
 11
23636.164035000002
 21
19821.869243000001
 31
0.0
  0
LINE
  5
3982
  8
2-0
  6
CONTINUOUS
 62
     6
 10
23724.878139999972
 20
19957.666198000021
 30
0.0
 11
23636.164035000002
 21
19821.869243000001
 31
0.0
  0
LINE
  5
3983
  8
2-0
  6
CONTINUOUS
 62
     6
 10
23724.878139999972
 20
19957.666198000021
 30
0.0
 11
23764.12605499999
 21
19921.551861000022
 31
0.0
  0
LINE
  5
3984
  8
2-0
  6
CONTINUOUS
 62
     4
 10
20281.469858
 20
19876.935491000011
 30
0.0
 11
20281.469858
 21
20606.932455999999
 31
0.0
  0
LINE
  5
3985
  8
2-0
  6
CONTINUOUS
 62
     6
 10
23346.14476799998
 20
15638.929869000011
 30
0.0
 11
23501.463735000001
 21
15685.67719000002
 31
0.0
  0
LINE
  5
3986
  8
2-0
  6
CONTINUOUS
 62
     6
 10
23501.463735000001
 20
15685.67719000002
 30
0.0
 11
23369.70301899996
 21
15591.08490500002
 31
0.0
  0
LINE
  5
3987
  8
2-0
  6
CONTINUOUS
 62
     6
 10
23346.14476799998
 20
15638.929869000011
 30
0.0
 11
23369.70301899996
 21
15591.08490500002
 31
0.0
  0
LINE
  5
3988
  8
2-0
  6
CONTINUOUS
 62
     6
 10
23369.70301899996
 20
15591.08490500002
 30
0.0
 11
23501.463735000001
 21
15685.67719000002
 31
0.0
  0
LINE
  5
3989
  8
2-0
  6
CONTINUOUS
 62
     6
 10
23501.463735000001
 20
15685.67719000002
 30
0.0
 11
23346.14476799998
 21
15638.929869000011
 31
0.0
  0
LINE
  5
398A
  8
2-0
  6
CONTINUOUS
 62
     6
 10
23346.14476799998
 20
15638.929869000011
 30
0.0
 11
23501.463735000001
 21
15685.67719000002
 31
0.0
  0
LINE
  5
398B
  8
2-0
  6
CONTINUOUS
 62
     6
 10
23369.70301899996
 20
15591.08490500002
 30
0.0
 11
23501.463735000001
 21
15685.67719000002
 31
0.0
  0
LINE
  5
398C
  8
2-0
  6
CONTINUOUS
 62
     6
 10
23369.70301899996
 20
15591.08490500002
 30
0.0
 11
23346.14476799998
 21
15638.929869000011
 31
0.0
  0
LINE
  5
398D
  8
2-0
  6
CONTINUOUS
 62
     6
 10
23315.830420999991
 20
14118.16492999999
 30
0.0
 11
23447.577280000001
 21
14212.791857
 31
0.0
  0
LINE
  5
398E
  8
2-0
  6
CONTINUOUS
 62
     6
 10
23447.577280000001
 20
14212.791857
 30
0.0
 11
23353.647143999991
 21
14080.55308699998
 31
0.0
  0
LINE
  5
398F
  8
2-0
  6
CONTINUOUS
 62
     6
 10
23315.830420999991
 20
14118.16492999999
 30
0.0
 11
23353.647143999991
 21
14080.55308699998
 31
0.0
  0
LINE
  5
3990
  8
2-0
  6
CONTINUOUS
 62
     6
 10
23353.647143999991
 20
14080.55308699998
 30
0.0
 11
23447.577280000001
 21
14212.791857
 31
0.0
  0
LINE
  5
3991
  8
2-0
  6
CONTINUOUS
 62
     6
 10
23447.577280000001
 20
14212.791857
 30
0.0
 11
23315.830420999991
 21
14118.16492999999
 31
0.0
  0
LINE
  5
3992
  8
2-0
  6
CONTINUOUS
 62
     6
 10
23315.830420999991
 20
14118.16492999999
 30
0.0
 11
23447.577280000001
 21
14212.791857
 31
0.0
  0
LINE
  5
3993
  8
2-0
  6
CONTINUOUS
 62
     6
 10
23353.647143999991
 20
14080.55308699998
 30
0.0
 11
23447.577280000001
 21
14212.791857
 31
0.0
  0
LINE
  5
3994
  8
2-0
  6
CONTINUOUS
 62
     6
 10
23353.647143999991
 20
14080.55308699998
 30
0.0
 11
23315.830420999991
 21
14118.16492999999
 31
0.0
  0
LINE
  5
3995
  8
2-0
  6
CONTINUOUS
 62
     6
 10
23378.866209999989
 20
14445.069556999981
 30
0.0
 11
23511.46624199998
 21
14351.641228999981
 31
0.0
  0
LINE
  5
3996
  8
2-0
  6
CONTINUOUS
 62
     6
 10
23511.46624199998
 20
14351.641228999981
 30
0.0
 11
23355.733555999988
 21
14397.016743
 31
0.0
  0
LINE
  5
3997
  8
2-0
  6
CONTINUOUS
 62
     6
 10
23378.866209999989
 20
14445.069556999981
 30
0.0
 11
23355.733555999988
 21
14397.016743
 31
0.0
  0
LINE
  5
3998
  8
2-0
  6
CONTINUOUS
 62
     6
 10
23355.733555999988
 20
14397.016743
 30
0.0
 11
23511.46624199998
 21
14351.641228999981
 31
0.0
  0
LINE
  5
3999
  8
2-0
  6
CONTINUOUS
 62
     6
 10
23511.46624199998
 20
14351.641228999981
 30
0.0
 11
23378.866209999989
 21
14445.069556999981
 31
0.0
  0
LINE
  5
399A
  8
2-0
  6
CONTINUOUS
 62
     6
 10
23378.866209999989
 20
14445.069556999981
 30
0.0
 11
23511.46624199998
 21
14351.641228999981
 31
0.0
  0
LINE
  5
399B
  8
2-0
  6
CONTINUOUS
 62
     6
 10
23355.733555999988
 20
14397.016743
 30
0.0
 11
23511.46624199998
 21
14351.641228999981
 31
0.0
  0
LINE
  5
399C
  8
2-0
  6
CONTINUOUS
 62
     6
 10
23355.733555999988
 20
14397.016743
 30
0.0
 11
23378.866209999989
 21
14445.069556999981
 31
0.0
  0
LINE
  5
399D
  8
2-0
  6
CONTINUOUS
 62
     6
 10
23438.629855999989
 20
16824.890490000009
 30
0.0
 11
23592.46814199998
 21
16876.324321000011
 31
0.0
  0
LINE
  5
399E
  8
2-0
  6
CONTINUOUS
 62
     6
 10
23592.46814199998
 20
16876.324321000011
 30
0.0
 11
23463.63315499996
 21
16777.783886000008
 31
0.0
  0
LINE
  5
399F
  8
2-0
  6
CONTINUOUS
 62
     6
 10
23438.629855999989
 20
16824.890490000009
 30
0.0
 11
23463.63315499996
 21
16777.783886000008
 31
0.0
  0
LINE
  5
39A0
  8
2-0
  6
CONTINUOUS
 62
     6
 10
23463.63315499996
 20
16777.783886000008
 30
0.0
 11
23592.46814199998
 21
16876.324321000011
 31
0.0
  0
LINE
  5
39A1
  8
2-0
  6
CONTINUOUS
 62
     6
 10
23592.46814199998
 20
16876.324321000011
 30
0.0
 11
23438.629855999989
 21
16824.890490000009
 31
0.0
  0
LINE
  5
39A2
  8
2-0
  6
CONTINUOUS
 62
     6
 10
23438.629855999989
 20
16824.890490000009
 30
0.0
 11
23592.46814199998
 21
16876.324321000011
 31
0.0
  0
LINE
  5
39A3
  8
2-0
  6
CONTINUOUS
 62
     6
 10
23463.63315499996
 20
16777.783886000008
 30
0.0
 11
23592.46814199998
 21
16876.324321000011
 31
0.0
  0
LINE
  5
39A4
  8
2-0
  6
CONTINUOUS
 62
     6
 10
23463.63315499996
 20
16777.783886000008
 30
0.0
 11
23438.629855999989
 21
16824.890490000009
 31
0.0
  0
LINE
  5
39A5
  8
2-0
  6
CONTINUOUS
 62
     6
 10
23304.69364899999
 20
17316.208982000011
 30
0.0
 11
23447.577280000001
 21
17239.433353000011
 31
0.0
  0
LINE
  5
39A6
  8
2-0
  6
CONTINUOUS
 62
     6
 10
23447.577280000001
 20
17239.433353000011
 30
0.0
 11
23287.515386999981
 21
17265.715422000019
 31
0.0
  0
LINE
  5
39A7
  8
2-0
  6
CONTINUOUS
 62
     6
 10
23304.69364899999
 20
17316.208982000011
 30
0.0
 11
23287.515386999981
 21
17265.715422000019
 31
0.0
  0
LINE
  5
39A8
  8
2-0
  6
CONTINUOUS
 62
     6
 10
23287.515386999981
 20
17265.715422000019
 30
0.0
 11
23447.577280000001
 21
17239.433353000011
 31
0.0
  0
LINE
  5
39A9
  8
2-0
  6
CONTINUOUS
 62
     6
 10
23447.577280000001
 20
17239.433353000011
 30
0.0
 11
23304.69364899999
 21
17316.208982000011
 31
0.0
  0
LINE
  5
39AA
  8
2-0
  6
CONTINUOUS
 62
     6
 10
23304.69364899999
 20
17316.208982000011
 30
0.0
 11
23447.577280000001
 21
17239.433353000011
 31
0.0
  0
LINE
  5
39AB
  8
2-0
  6
CONTINUOUS
 62
     6
 10
23287.515386999981
 20
17265.715422000019
 30
0.0
 11
23447.577280000001
 21
17239.433353000011
 31
0.0
  0
LINE
  5
39AC
  8
2-0
  6
CONTINUOUS
 62
     6
 10
23287.515386999981
 20
17265.715422000019
 30
0.0
 11
23304.69364899999
 21
17316.208982000011
 31
0.0
  0
LINE
  5
39AD
  8
2-0
  6
CONTINUOUS
 62
     6
 10
23346.14476799998
 20
18556.689356999988
 30
0.0
 11
23501.463735000001
 21
18603.43370899999
 31
0.0
  0
LINE
  5
39AE
  8
2-0
  6
CONTINUOUS
 62
     6
 10
23501.463735000001
 20
18603.43370899999
 30
0.0
 11
23369.70301899996
 21
18508.838455000008
 31
0.0
  0
LINE
  5
39AF
  8
2-0
  6
CONTINUOUS
 62
     6
 10
23346.14476799998
 20
18556.689356999988
 30
0.0
 11
23369.70301899996
 21
18508.838455000008
 31
0.0
  0
LINE
  5
39B0
  8
2-0
  6
CONTINUOUS
 62
     6
 10
23369.70301899996
 20
18508.838455000008
 30
0.0
 11
23501.463735000001
 21
18603.43370899999
 31
0.0
  0
LINE
  5
39B1
  8
2-0
  6
CONTINUOUS
 62
     6
 10
23501.463735000001
 20
18603.43370899999
 30
0.0
 11
23346.14476799998
 21
18556.689356999988
 31
0.0
  0
LINE
  5
39B2
  8
2-0
  6
CONTINUOUS
 62
     6
 10
23346.14476799998
 20
18556.689356999988
 30
0.0
 11
23501.463735000001
 21
18603.43370899999
 31
0.0
  0
LINE
  5
39B3
  8
2-0
  6
CONTINUOUS
 62
     6
 10
23369.70301899996
 20
18508.838455000008
 30
0.0
 11
23501.463735000001
 21
18603.43370899999
 31
0.0
  0
LINE
  5
39B4
  8
2-0
  6
CONTINUOUS
 62
     6
 10
23369.70301899996
 20
18508.838455000008
 30
0.0
 11
23346.14476799998
 21
18556.689356999988
 31
0.0
  0
LINE
  5
39B5
  8
2-0
  6
CONTINUOUS
 62
     3
 10
20268.971177999989
 20
19687.93303700001
 30
0.0
 11
20268.971177999989
 21
19681.937075000009
 31
0.0
  0
LINE
  5
39B6
  8
2-0
  6
CONTINUOUS
 62
     3
 10
20268.971177999989
 20
19681.937075000009
 30
0.0
 11
20238.973552999989
 21
19681.937075000009
 31
0.0
  0
LINE
  5
39B7
  8
2-0
  6
CONTINUOUS
 62
     3
 10
20238.973552999989
 20
19681.937075000009
 30
0.0
 11
20238.973552999989
 21
19796.933248000008
 31
0.0
  0
LINE
  5
39B8
  8
2-0
  6
CONTINUOUS
 62
     3
 10
20238.973552999989
 20
19711.936678999991
 30
0.0
 11
20319.971494000001
 21
19711.936678999991
 31
0.0
  0
LINE
  5
39B9
  8
2-0
  6
CONTINUOUS
 62
     3
 10
20268.971177999989
 20
19671.639619000001
 30
0.0
 11
20238.973552999989
 21
19671.639619000001
 31
0.0
  0
LINE
  5
39BA
  8
2-0
  6
CONTINUOUS
 62
     3
 10
20268.971177999989
 20
19689.64136100002
 30
0.0
 11
20268.971177999989
 21
19671.639619000001
 31
0.0
  0
LINE
  5
39BB
  8
2-0
  6
CONTINUOUS
 62
     3
 10
20243.977775999989
 20
19689.64136100002
 30
0.0
 11
20268.971177999989
 21
19689.64136100002
 31
0.0
  0
LINE
  5
39BC
  8
2-0
  6
CONTINUOUS
 62
     3
 10
20243.977775999989
 20
19684.633179000011
 30
0.0
 11
20243.977775999989
 21
19689.64136100002
 31
0.0
  0
LINE
  5
39BD
  8
2-0
  6
CONTINUOUS
 62
     3
 10
20250.975373999969
 20
19684.633179000011
 30
0.0
 11
20243.977775999989
 21
19684.633179000011
 31
0.0
  0
LINE
  5
39BE
  8
2-0
  6
CONTINUOUS
 62
     3
 10
20351.269662999988
 20
19784.933406
 30
0.0
 11
20351.269662999988
 21
19791.938922000008
 31
0.0
  0
LINE
  5
39BF
  8
2-0
  6
CONTINUOUS
 62
     3
 10
20351.269662999988
 20
19791.938922000008
 30
0.0
 11
20346.267418999989
 21
19791.938922000008
 31
0.0
  0
LINE
  5
39C0
  8
2-0
  6
CONTINUOUS
 62
     3
 10
20346.267418999989
 20
19791.938922000008
 30
0.0
 11
20346.267418999989
 21
19766.92968500001
 31
0.0
  0
LINE
  5
39C1
  8
2-0
  6
CONTINUOUS
 62
     3
 10
20346.267418999989
 20
19766.92968500001
 30
0.0
 11
20364.27509999997
 21
19766.92968500001
 31
0.0
  0
LINE
  5
39C2
  8
2-0
  6
CONTINUOUS
 62
     3
 10
20364.27509999997
 20
19766.92968500001
 30
0.0
 11
20364.27509999997
 21
19796.933248000008
 31
0.0
  0
LINE
  5
39C3
  8
2-0
  6
CONTINUOUS
 62
     3
 10
20353.975664000001
 20
19796.933248000008
 30
0.0
 11
20238.973552999989
 21
19796.933248000008
 31
0.0
  0
LINE
  5
39C4
  8
2-0
  6
CONTINUOUS
 62
     3
 10
20353.975664000001
 20
19766.92968500001
 30
0.0
 11
20353.975664000001
 21
19796.933248000008
 31
0.0
  0
LINE
  5
39C5
  8
2-0
  6
CONTINUOUS
 62
     3
 10
20347.971784999991
 20
19766.92968500001
 30
0.0
 11
20353.975664000001
 21
19766.92968500001
 31
0.0
  0
LINE
  5
39C6
  8
2-0
  6
CONTINUOUS
 62
     3
 10
20268.971177999989
 20
19687.93303700001
 30
0.0
 11
20268.971177999989
 21
19681.937075000009
 31
0.0
  0
LINE
  5
39C7
  8
2-0
  6
CONTINUOUS
 62
     3
 10
20268.971177999989
 20
19681.937075000009
 30
0.0
 11
20238.973552999989
 21
19681.937075000009
 31
0.0
  0
LINE
  5
39C8
  8
2-0
  6
CONTINUOUS
 62
     3
 10
20238.973552999989
 20
19681.937075000009
 30
0.0
 11
20238.973552999989
 21
19796.933248000008
 31
0.0
  0
LINE
  5
39C9
  8
2-0
  6
CONTINUOUS
 62
     3
 10
20238.973552999989
 20
19711.936678999991
 30
0.0
 11
20319.971494000001
 21
19711.936678999991
 31
0.0
  0
LINE
  5
39CA
  8
2-0
  6
CONTINUOUS
 62
     3
 10
20268.971177999989
 20
19671.639619000001
 30
0.0
 11
20238.973552999989
 21
19671.639619000001
 31
0.0
  0
LINE
  5
39CB
  8
2-0
  6
CONTINUOUS
 62
     3
 10
20268.971177999989
 20
19689.64136100002
 30
0.0
 11
20268.971177999989
 21
19671.639619000001
 31
0.0
  0
LINE
  5
39CC
  8
2-0
  6
CONTINUOUS
 62
     3
 10
20243.977775999989
 20
19689.64136100002
 30
0.0
 11
20268.971177999989
 21
19689.64136100002
 31
0.0
  0
LINE
  5
39CD
  8
2-0
  6
CONTINUOUS
 62
     3
 10
20243.977775999989
 20
19684.633179000011
 30
0.0
 11
20243.977775999989
 21
19689.64136100002
 31
0.0
  0
LINE
  5
39CE
  8
2-0
  6
CONTINUOUS
 62
     3
 10
20250.975373999969
 20
19684.633179000011
 30
0.0
 11
20243.977775999989
 21
19684.633179000011
 31
0.0
  0
LINE
  5
39CF
  8
2-0
  6
CONTINUOUS
 62
     3
 10
20250.975373999969
 20
19331.336356499989
 30
0.0
 11
20243.977775999989
 21
19331.336356499989
 31
0.0
  0
LINE
  5
39D0
  8
2-0
  6
CONTINUOUS
 62
     3
 10
20243.977775999989
 20
19331.336356499989
 30
0.0
 11
20243.977775999989
 21
19336.336620499991
 31
0.0
  0
LINE
  5
39D1
  8
2-0
  6
CONTINUOUS
 62
     3
 10
20243.977775999989
 20
19336.336620499991
 30
0.0
 11
20268.971177999989
 21
19336.336620499991
 31
0.0
  0
LINE
  5
39D2
  8
2-0
  6
CONTINUOUS
 62
     3
 10
20268.971177999989
 20
19336.336620499991
 30
0.0
 11
20268.971177999989
 21
19318.340816499989
 31
0.0
  0
LINE
  5
39D3
  8
2-0
  6
CONTINUOUS
 62
     3
 10
20268.971177999989
 20
19318.340816499989
 30
0.0
 11
20238.973552999989
 21
19318.340816499989
 31
0.0
  0
LINE
  5
39D4
  8
2-0
  6
CONTINUOUS
 62
     3
 10
20268.971177999989
 20
19334.432323499961
 30
0.0
 11
20268.971177999989
 21
19328.434382499989
 31
0.0
  0
LINE
  5
39D5
  8
2-0
  6
CONTINUOUS
 62
     3
 10
20268.971177999989
 20
19328.434382499989
 30
0.0
 11
20238.973552999989
 21
19328.434382499989
 31
0.0
  0
LINE
  5
39D6
  8
2-0
  6
CONTINUOUS
 62
     3
 10
20238.973552999989
 20
19328.434382499989
 30
0.0
 11
20238.973552999989
 21
19365.4355435
 31
0.0
  0
LINE
  5
39D7
  8
2-0
  6
CONTINUOUS
 62
     3
 10
20268.971177999989
 20
19365.4355435
 30
0.0
 11
20238.973552999989
 21
19365.4355435
 31
0.0
  0
LINE
  5
39D8
  8
2-0
  6
CONTINUOUS
 62
     3
 10
20268.971177999989
 20
19359.431663499981
 30
0.0
 11
20268.971177999989
 21
19365.4355435
 31
0.0
  0
LINE
  5
39D9
  8
2-0
  6
CONTINUOUS
 62
     3
 10
20268.971177999989
 20
19375.531088499982
 30
0.0
 11
20238.973552999989
 21
19375.531088499982
 31
0.0
  0
LINE
  5
39DA
  8
2-0
  6
CONTINUOUS
 62
     3
 10
20268.971177999989
 20
19357.529346499989
 30
0.0
 11
20268.971177999989
 21
19375.531088499982
 31
0.0
  0
LINE
  5
39DB
  8
2-0
  6
CONTINUOUS
 62
     3
 10
20243.977775999989
 20
19357.529346499989
 30
0.0
 11
20268.971177999989
 21
19357.529346499989
 31
0.0
  0
LINE
  5
39DC
  8
2-0
  6
CONTINUOUS
 62
     3
 10
20243.977775999989
 20
19362.529610499991
 30
0.0
 11
20243.977775999989
 21
19357.529346499989
 31
0.0
  0
LINE
  5
39DD
  8
2-0
  6
CONTINUOUS
 62
     3
 10
20250.975373999969
 20
19362.529610499991
 30
0.0
 11
20243.977775999989
 21
19362.529610499991
 31
0.0
  0
LINE
  5
39DE
  8
2-0
  6
CONTINUOUS
 62
     3
 10
20250.975373999969
 20
18630.335367
 30
0.0
 11
20243.977775999989
 21
18630.335367
 31
0.0
  0
LINE
  5
39DF
  8
2-0
  6
CONTINUOUS
 62
     3
 10
20243.977775999989
 20
18630.335367
 30
0.0
 11
20243.977775999989
 21
18635.341568999989
 31
0.0
  0
LINE
  5
39E0
  8
2-0
  6
CONTINUOUS
 62
     3
 10
20243.977775999989
 20
18635.341568999989
 30
0.0
 11
20268.971177999989
 21
18635.341568999989
 31
0.0
  0
LINE
  5
39E1
  8
2-0
  6
CONTINUOUS
 62
     3
 10
20268.971177999989
 20
18635.341568999989
 30
0.0
 11
20268.971177999989
 21
18617.339827
 31
0.0
  0
LINE
  5
39E2
  8
2-0
  6
CONTINUOUS
 62
     3
 10
20268.971177999989
 20
18617.339827
 30
0.0
 11
20238.973552999989
 21
18617.339827
 31
0.0
  0
LINE
  5
39E3
  8
2-0
  6
CONTINUOUS
 62
     3
 10
20268.971177999989
 20
18633.43133399999
 30
0.0
 11
20268.971177999989
 21
18627.435371999989
 31
0.0
  0
LINE
  5
39E4
  8
2-0
  6
CONTINUOUS
 62
     3
 10
20268.971177999989
 20
18627.435371999989
 30
0.0
 11
20238.973552999989
 21
18627.435371999989
 31
0.0
  0
LINE
  5
39E5
  8
2-0
  6
CONTINUOUS
 62
     3
 10
20238.973552999989
 20
18627.435371999989
 30
0.0
 11
20238.973552999989
 21
18664.434553999989
 31
0.0
  0
LINE
  5
39E6
  8
2-0
  6
CONTINUOUS
 62
     3
 10
20268.971177999989
 20
18664.434553999989
 30
0.0
 11
20238.973552999989
 21
18664.434553999989
 31
0.0
  0
LINE
  5
39E7
  8
2-0
  6
CONTINUOUS
 62
     3
 10
20268.971177999989
 20
18658.438591999991
 30
0.0
 11
20268.971177999989
 21
18664.434553999989
 31
0.0
  0
LINE
  5
39E8
  8
2-0
  6
CONTINUOUS
 62
     3
 10
20268.971177999989
 20
18674.530099
 30
0.0
 11
20238.973552999989
 21
18674.530099
 31
0.0
  0
LINE
  5
39E9
  8
2-0
  6
CONTINUOUS
 62
     3
 10
20268.971177999989
 20
18656.528356999981
 30
0.0
 11
20268.971177999989
 21
18674.530099
 31
0.0
  0
LINE
  5
39EA
  8
2-0
  6
CONTINUOUS
 62
     3
 10
20243.977775999989
 20
18656.528356999981
 30
0.0
 11
20268.971177999989
 21
18656.528356999981
 31
0.0
  0
LINE
  5
39EB
  8
2-0
  6
CONTINUOUS
 62
     3
 10
20243.977775999989
 20
18661.534558999989
 30
0.0
 11
20243.977775999989
 21
18656.528356999981
 31
0.0
  0
LINE
  5
39EC
  8
2-0
  6
CONTINUOUS
 62
     3
 10
20250.975373999969
 20
18661.534558999989
 30
0.0
 11
20243.977775999989
 21
18661.534558999989
 31
0.0
  0
LINE
  5
39ED
  8
2-0
  6
CONTINUOUS
 62
     3
 10
20250.975373999969
 20
17960.52862099999
 30
0.0
 11
20243.977775999989
 21
17960.52862099999
 31
0.0
  0
LINE
  5
39EE
  8
2-0
  6
CONTINUOUS
 62
     3
 10
20243.977775999989
 20
17960.52862099999
 30
0.0
 11
20243.977775999989
 21
17955.540234
 31
0.0
  0
LINE
  5
39EF
  8
2-0
  6
CONTINUOUS
 62
     3
 10
20243.977775999989
 20
17955.540234
 30
0.0
 11
20268.971177999989
 21
17955.540234
 31
0.0
  0
LINE
  5
39F0
  8
2-0
  6
CONTINUOUS
 62
     3
 10
20268.971177999989
 20
17955.540234
 30
0.0
 11
20268.971177999989
 21
17973.536037000002
 31
0.0
  0
LINE
  5
39F1
  8
2-0
  6
CONTINUOUS
 62
     3
 10
20268.971177999989
 20
17973.536037000002
 30
0.0
 11
20238.973552999989
 21
17973.536037000002
 31
0.0
  0
LINE
  5
39F2
  8
2-0
  6
CONTINUOUS
 62
     3
 10
20268.971177999989
 20
17957.438591999991
 30
0.0
 11
20268.971177999989
 21
17963.434553999981
 31
0.0
  0
LINE
  5
39F3
  8
2-0
  6
CONTINUOUS
 62
     3
 10
20268.971177999989
 20
17963.434553999981
 30
0.0
 11
20238.973552999989
 21
17963.434553999981
 31
0.0
  0
LINE
  5
39F4
  8
2-0
  6
CONTINUOUS
 62
     3
 10
20238.973552999989
 20
17963.434553999981
 30
0.0
 11
20238.973552999989
 21
17926.435372
 31
0.0
  0
LINE
  5
39F5
  8
2-0
  6
CONTINUOUS
 62
     3
 10
20268.971177999989
 20
17926.435372
 30
0.0
 11
20238.973552999989
 21
17926.435372
 31
0.0
  0
LINE
  5
39F6
  8
2-0
  6
CONTINUOUS
 62
     3
 10
20268.971177999989
 20
17932.437272999989
 30
0.0
 11
20268.971177999989
 21
17926.435372
 31
0.0
  0
LINE
  5
39F7
  8
2-0
  6
CONTINUOUS
 62
     3
 10
20268.971177999989
 20
17916.345765999991
 30
0.0
 11
20238.973552999989
 21
17916.345765999991
 31
0.0
  0
LINE
  5
39F8
  8
2-0
  6
CONTINUOUS
 62
     3
 10
20268.971177999989
 20
17934.341568999989
 30
0.0
 11
20268.971177999989
 21
17916.345765999991
 31
0.0
  0
LINE
  5
39F9
  8
2-0
  6
CONTINUOUS
 62
     3
 10
20243.977775999989
 20
17934.341568999989
 30
0.0
 11
20268.971177999989
 21
17934.341568999989
 31
0.0
  0
LINE
  5
39FA
  8
2-0
  6
CONTINUOUS
 62
     3
 10
20243.977775999989
 20
17929.341305999991
 30
0.0
 11
20243.977775999989
 21
17934.341568999989
 31
0.0
  0
LINE
  5
39FB
  8
2-0
  6
CONTINUOUS
 62
     3
 10
20250.975373999969
 20
17929.341305999991
 30
0.0
 11
20243.977775999989
 21
17929.341305999991
 31
0.0
  0
LINE
  5
39FC
  8
2-0
  6
CONTINUOUS
 62
     3
 10
20241.859690999991
 20
17209.432192
 30
0.0
 11
20241.859690999991
 21
17229.433247000001
 31
0.0
  0
LINE
  5
39FD
  8
2-0
  6
CONTINUOUS
 62
     3
 10
20241.859690999991
 20
17229.433247000001
 30
0.0
 11
20326.860218999998
 21
17229.433247000001
 31
0.0
  0
LINE
  5
39FE
  8
2-0
  6
CONTINUOUS
 62
     3
 10
20250.975373999969
 20
17256.039957000012
 30
0.0
 11
20243.977775999989
 21
17256.039957000012
 31
0.0
  0
LINE
  5
39FF
  8
2-0
  6
CONTINUOUS
 62
     3
 10
20243.977775999989
 20
17256.039957000012
 30
0.0
 11
20243.977775999989
 21
17251.045631000012
 31
0.0
  0
LINE
  5
3A00
  8
2-0
  6
CONTINUOUS
 62
     3
 10
20243.977775999989
 20
17251.045631000012
 30
0.0
 11
20268.971177999989
 21
17251.045631000012
 31
0.0
  0
LINE
  5
3A01
  8
2-0
  6
CONTINUOUS
 62
     3
 10
20268.971177999989
 20
17251.045631000012
 30
0.0
 11
20268.971177999989
 21
17269.041434999999
 31
0.0
  0
LINE
  5
3A02
  8
2-0
  6
CONTINUOUS
 62
     3
 10
20268.971177999989
 20
17269.041434999999
 30
0.0
 11
20238.973552999989
 21
17269.041434999999
 31
0.0
  0
LINE
  5
3A03
  8
2-0
  6
CONTINUOUS
 62
     3
 10
20268.971177999989
 20
17259.432851000001
 30
0.0
 11
20268.971177999989
 21
17253.430950999991
 31
0.0
  0
LINE
  5
3A04
  8
2-0
  6
CONTINUOUS
 62
     3
 10
20238.973552999989
 20
17259.432851000001
 30
0.0
 11
20268.971177999989
 21
17259.432851000001
 31
0.0
  0
LINE
  5
3A05
  8
2-0
  6
CONTINUOUS
 62
     3
 10
20238.973552999989
 20
17269.041434999999
 30
0.0
 11
20238.973552999989
 21
17916.345765999991
 31
0.0
  0
LINE
  5
3A06
  8
2-0
  6
CONTINUOUS
 62
     3
 10
20238.973552999989
 20
17973.536037000002
 30
0.0
 11
20238.973552999989
 21
18617.339827
 31
0.0
  0
LINE
  5
3A07
  8
2-0
  6
CONTINUOUS
 62
     3
 10
20238.973552999989
 20
17114.43113600001
 30
0.0
 11
20268.971177999989
 21
17114.43113600001
 31
0.0
  0
LINE
  5
3A08
  8
2-0
  6
CONTINUOUS
 62
     3
 10
20268.971177999989
 20
17114.43113600001
 30
0.0
 11
20268.971177999989
 21
17120.433035999991
 31
0.0
  0
LINE
  5
3A09
  8
2-0
  6
CONTINUOUS
 62
     3
 10
20326.860218999998
 20
17144.436678999991
 30
0.0
 11
20241.859690999991
 21
17144.436678999991
 31
0.0
  0
LINE
  5
3A0A
  8
2-0
  6
CONTINUOUS
 62
     3
 10
20241.859690999991
 20
17144.436678999991
 30
0.0
 11
20241.859690999991
 21
17164.431796000012
 31
0.0
  0
LINE
  5
3A0B
  8
2-0
  6
CONTINUOUS
 62
     3
 10
20268.971177999989
 20
17104.822553000002
 30
0.0
 11
20238.973552999989
 21
17104.822553000002
 31
0.0
  0
LINE
  5
3A0C
  8
2-0
  6
CONTINUOUS
 62
     3
 10
20268.971177999989
 20
17122.818355999982
 30
0.0
 11
20268.971177999989
 21
17104.822553000002
 31
0.0
  0
LINE
  5
3A0D
  8
2-0
  6
CONTINUOUS
 62
     3
 10
20243.977775999989
 20
17122.818355999982
 30
0.0
 11
20268.971177999989
 21
17122.818355999982
 31
0.0
  0
LINE
  5
3A0E
  8
2-0
  6
CONTINUOUS
 62
     3
 10
20243.977775999989
 20
17117.818092000009
 30
0.0
 11
20243.977775999989
 21
17122.818355999982
 31
0.0
  0
LINE
  5
3A0F
  8
2-0
  6
CONTINUOUS
 62
     3
 10
20250.975373999969
 20
17117.818092000009
 30
0.0
 11
20243.977775999989
 21
17117.818092000009
 31
0.0
  0
LINE
  5
3A10
  8
2-0
  6
CONTINUOUS
 62
     3
 10
20250.975373999969
 20
16413.335861499982
 30
0.0
 11
20243.977775999989
 21
16413.335861499982
 31
0.0
  0
LINE
  5
3A11
  8
2-0
  6
CONTINUOUS
 62
     3
 10
20243.977775999989
 20
16413.335861499982
 30
0.0
 11
20243.977775999989
 21
16418.336125499991
 31
0.0
  0
LINE
  5
3A12
  8
2-0
  6
CONTINUOUS
 62
     3
 10
20243.977775999989
 20
16418.336125499991
 30
0.0
 11
20268.971177999989
 21
16418.336125499991
 31
0.0
  0
LINE
  5
3A13
  8
2-0
  6
CONTINUOUS
 62
     3
 10
20268.971177999989
 20
16418.336125499991
 30
0.0
 11
20268.971177999989
 21
16400.334383500001
 31
0.0
  0
LINE
  5
3A14
  8
2-0
  6
CONTINUOUS
 62
     3
 10
20268.971177999989
 20
16400.334383500001
 30
0.0
 11
20238.973552999989
 21
16400.334383500001
 31
0.0
  0
LINE
  5
3A15
  8
2-0
  6
CONTINUOUS
 62
     3
 10
20268.971177999989
 20
16416.431828500001
 30
0.0
 11
20268.971177999989
 21
16410.4348775
 31
0.0
  0
LINE
  5
3A16
  8
2-0
  6
CONTINUOUS
 62
     3
 10
20268.971177999989
 20
16410.4348775
 30
0.0
 11
20238.973552999989
 21
16410.4348775
 31
0.0
  0
LINE
  5
3A17
  8
2-0
  6
CONTINUOUS
 62
     3
 10
20238.973552999989
 20
16410.4348775
 30
0.0
 11
20238.973552999989
 21
16447.4350485
 31
0.0
  0
LINE
  5
3A18
  8
2-0
  6
CONTINUOUS
 62
     3
 10
20268.971177999989
 20
16447.4350485
 30
0.0
 11
20238.973552999989
 21
16447.4350485
 31
0.0
  0
LINE
  5
3A19
  8
2-0
  6
CONTINUOUS
 62
     3
 10
20268.971177999989
 20
16441.432158499989
 30
0.0
 11
20268.971177999989
 21
16447.4350485
 31
0.0
  0
LINE
  5
3A1A
  8
2-0
  6
CONTINUOUS
 62
     3
 10
20268.971177999989
 20
16457.5305935
 30
0.0
 11
20238.973552999989
 21
16457.5305935
 31
0.0
  0
LINE
  5
3A1B
  8
2-0
  6
CONTINUOUS
 62
     3
 10
20268.971177999989
 20
16439.522912500001
 30
0.0
 11
20268.971177999989
 21
16457.5305935
 31
0.0
  0
LINE
  5
3A1C
  8
2-0
  6
CONTINUOUS
 62
     3
 10
20243.977775999989
 20
16439.522912500001
 30
0.0
 11
20268.971177999989
 21
16439.522912500001
 31
0.0
  0
LINE
  5
3A1D
  8
2-0
  6
CONTINUOUS
 62
     3
 10
20243.977775999989
 20
16444.529115500001
 30
0.0
 11
20243.977775999989
 21
16439.522912500001
 31
0.0
  0
LINE
  5
3A1E
  8
2-0
  6
CONTINUOUS
 62
     3
 10
20250.975373999969
 20
16444.529115500001
 30
0.0
 11
20243.977775999989
 21
16444.529115500001
 31
0.0
  0
LINE
  5
3A1F
  8
2-0
  6
CONTINUOUS
 62
     3
 10
20250.975373999969
 20
15743.76913200001
 30
0.0
 11
20243.977775999989
 21
15743.76913200001
 31
0.0
  0
LINE
  5
3A20
  8
2-0
  6
CONTINUOUS
 62
     3
 10
20243.977775999989
 20
15743.76913200001
 30
0.0
 11
20243.977775999989
 21
15738.774807000011
 31
0.0
  0
LINE
  5
3A21
  8
2-0
  6
CONTINUOUS
 62
     3
 10
20243.977775999989
 20
15738.774807000011
 30
0.0
 11
20268.971177999989
 21
15738.774807000011
 31
0.0
  0
LINE
  5
3A22
  8
2-0
  6
CONTINUOUS
 62
     3
 10
20268.971177999989
 20
15738.774807000011
 30
0.0
 11
20268.971177999989
 21
15756.77061000001
 31
0.0
  0
LINE
  5
3A23
  8
2-0
  6
CONTINUOUS
 62
     3
 10
20268.971177999989
 20
15756.77061000001
 30
0.0
 11
20238.973552999989
 21
15756.77061000001
 31
0.0
  0
LINE
  5
3A24
  8
2-0
  6
CONTINUOUS
 62
     3
 10
20268.971177999989
 20
15740.673165
 30
0.0
 11
20268.971177999989
 21
15746.67506500001
 31
0.0
  0
LINE
  5
3A25
  8
2-0
  6
CONTINUOUS
 62
     3
 10
20268.971177999989
 20
15746.67506500001
 30
0.0
 11
20238.973552999989
 21
15746.67506500001
 31
0.0
  0
LINE
  5
3A26
  8
2-0
  6
CONTINUOUS
 62
     3
 10
20238.973552999989
 20
15709.67588400002
 30
0.0
 11
20238.973552999989
 21
15746.67506500001
 31
0.0
  0
LINE
  5
3A27
  8
2-0
  6
CONTINUOUS
 62
     3
 10
20268.971177999989
 20
15709.67588400002
 30
0.0
 11
20238.973552999989
 21
15709.67588400002
 31
0.0
  0
LINE
  5
3A28
  8
2-0
  6
CONTINUOUS
 62
     3
 10
20268.971177999989
 20
15715.672834999999
 30
0.0
 11
20268.971177999989
 21
15709.67588400002
 31
0.0
  0
LINE
  5
3A29
  8
2-0
  6
CONTINUOUS
 62
     3
 10
20268.971177999989
 20
15699.5744
 30
0.0
 11
20238.973552999989
 21
15699.5744
 31
0.0
  0
LINE
  5
3A2A
  8
2-0
  6
CONTINUOUS
 62
     3
 10
20268.971177999989
 20
15717.582081
 30
0.0
 11
20268.971177999989
 21
15699.5744
 31
0.0
  0
LINE
  5
3A2B
  8
2-0
  6
CONTINUOUS
 62
     3
 10
20243.977775999989
 20
15717.582081
 30
0.0
 11
20268.971177999989
 21
15717.582081
 31
0.0
  0
LINE
  5
3A2C
  8
2-0
  6
CONTINUOUS
 62
     3
 10
20243.977775999989
 20
15712.58181700002
 30
0.0
 11
20243.977775999989
 21
15717.582081
 31
0.0
  0
LINE
  5
3A2D
  8
2-0
  6
CONTINUOUS
 62
     3
 10
20250.975373999969
 20
15712.58181700002
 30
0.0
 11
20243.977775999989
 21
15712.58181700002
 31
0.0
  0
LINE
  5
3A2E
  8
2-0
  6
CONTINUOUS
 62
     3
 10
20238.973552999989
 20
17104.822553000002
 30
0.0
 11
20238.973552999989
 21
16457.5305935
 31
0.0
  0
LINE
  5
3A2F
  8
2-0
  6
CONTINUOUS
 62
     3
 10
20238.973552999989
 20
17259.432851000001
 30
0.0
 11
20238.973552999989
 21
17114.43113600001
 31
0.0
  0
LINE
  5
3A30
  8
2-0
  6
CONTINUOUS
 62
     3
 10
20326.860218999998
 20
17229.433247000001
 30
0.0
 11
20326.860218999998
 21
17144.436678999991
 31
0.0
  0
LINE
  5
3A31
  8
2-0
  6
CONTINUOUS
 62
     3
 10
20250.975373999969
 20
15011.34081
 30
0.0
 11
20243.977775999989
 21
15011.34081
 31
0.0
  0
LINE
  5
3A32
  8
2-0
  6
CONTINUOUS
 62
     3
 10
20243.977775999989
 20
15011.34081
 30
0.0
 11
20243.977775999989
 21
15016.335136000011
 31
0.0
  0
LINE
  5
3A33
  8
2-0
  6
CONTINUOUS
 62
     3
 10
20243.977775999989
 20
15016.335136000011
 30
0.0
 11
20268.971177999989
 21
15016.335136000011
 31
0.0
  0
LINE
  5
3A34
  8
2-0
  6
CONTINUOUS
 62
     3
 10
20268.971177999989
 20
15016.335136000011
 30
0.0
 11
20268.971177999989
 21
14998.33933200001
 31
0.0
  0
LINE
  5
3A35
  8
2-0
  6
CONTINUOUS
 62
     3
 10
20268.971177999989
 20
14998.33933200001
 30
0.0
 11
20238.973552999989
 21
14998.33933200001
 31
0.0
  0
LINE
  5
3A36
  8
2-0
  6
CONTINUOUS
 62
     3
 10
20268.971177999989
 20
15014.43776700001
 30
0.0
 11
20268.971177999989
 21
15008.434877000011
 31
0.0
  0
LINE
  5
3A37
  8
2-0
  6
CONTINUOUS
 62
     3
 10
20268.971177999989
 20
15008.434877000011
 30
0.0
 11
20238.973552999989
 21
15008.434877000011
 31
0.0
  0
LINE
  5
3A38
  8
2-0
  6
CONTINUOUS
 62
     3
 10
20238.973552999989
 20
15008.434877000011
 30
0.0
 11
20238.973552999989
 21
15045.435048999991
 31
0.0
  0
LINE
  5
3A39
  8
2-0
  6
CONTINUOUS
 62
     3
 10
20268.971177999989
 20
15045.435048999991
 30
0.0
 11
20238.973552999989
 21
15045.435048999991
 31
0.0
  0
LINE
  5
3A3A
  8
2-0
  6
CONTINUOUS
 62
     3
 10
20268.971177999989
 20
15039.438097
 30
0.0
 11
20268.971177999989
 21
15045.435048999991
 31
0.0
  0
LINE
  5
3A3B
  8
2-0
  6
CONTINUOUS
 62
     3
 10
20268.971177999989
 20
15055.535542000011
 30
0.0
 11
20238.973552999989
 21
15055.535542000011
 31
0.0
  0
LINE
  5
3A3C
  8
2-0
  6
CONTINUOUS
 62
     3
 10
20268.971177999989
 20
15037.52885100001
 30
0.0
 11
20268.971177999989
 21
15055.535542000011
 31
0.0
  0
LINE
  5
3A3D
  8
2-0
  6
CONTINUOUS
 62
     3
 10
20243.977775999989
 20
15037.52885100001
 30
0.0
 11
20268.971177999989
 21
15037.52885100001
 31
0.0
  0
LINE
  5
3A3E
  8
2-0
  6
CONTINUOUS
 62
     3
 10
20243.977775999989
 20
15042.53406400001
 30
0.0
 11
20243.977775999989
 21
15037.52885100001
 31
0.0
  0
LINE
  5
3A3F
  8
2-0
  6
CONTINUOUS
 62
     3
 10
20250.975373999969
 20
15042.53406400001
 30
0.0
 11
20243.977775999989
 21
15042.53406400001
 31
0.0
  0
LINE
  5
3A40
  8
2-0
  6
CONTINUOUS
 62
     3
 10
20268.971177999989
 20
14335.436890000001
 30
0.0
 11
20268.971177999989
 21
14341.441758999999
 31
0.0
  0
LINE
  5
3A41
  8
2-0
  6
CONTINUOUS
 62
     3
 10
20268.971177999989
 20
14341.441758999999
 30
0.0
 11
20238.973552999989
 21
14341.441758999999
 31
0.0
  0
LINE
  5
3A42
  8
2-0
  6
CONTINUOUS
 62
     3
 10
20238.973552999989
 20
14341.441758999999
 30
0.0
 11
20238.973552999989
 21
14226.437668
 31
0.0
  0
LINE
  5
3A43
  8
2-0
  6
CONTINUOUS
 62
     3
 10
20238.973552999989
 20
14226.437668
 30
0.0
 11
20323.972100999981
 21
14226.437668
 31
0.0
  0
LINE
  5
3A44
  8
2-0
  6
CONTINUOUS
 62
     3
 10
20323.972100999981
 20
14226.437668
 30
0.0
 11
20323.972100999981
 21
14311.433247000001
 31
0.0
  0
LINE
  5
3A45
  8
2-0
  6
CONTINUOUS
 62
     3
 10
20323.972100999981
 20
14311.433247000001
 30
0.0
 11
20291.975162999981
 21
14311.433247000001
 31
0.0
  0
LINE
  5
3A46
  8
2-0
  6
CONTINUOUS
 62
     3
 10
20250.975373999969
 20
14338.471492000001
 30
0.0
 11
20243.977775999989
 21
14338.471492000001
 31
0.0
  0
LINE
  5
3A47
  8
2-0
  6
CONTINUOUS
 62
     3
 10
20243.977775999989
 20
14338.471492000001
 30
0.0
 11
20243.977775999989
 21
14333.47419699998
 31
0.0
  0
LINE
  5
3A48
  8
2-0
  6
CONTINUOUS
 62
     3
 10
20243.977775999989
 20
14333.47419699998
 30
0.0
 11
20268.971177999989
 21
14333.47419699998
 31
0.0
  0
LINE
  5
3A49
  8
2-0
  6
CONTINUOUS
 62
     3
 10
20268.971177999989
 20
14333.47419699998
 30
0.0
 11
20268.971177999989
 21
14351.472970000001
 31
0.0
  0
LINE
  5
3A4A
  8
2-0
  6
CONTINUOUS
 62
     3
 10
20268.971177999989
 20
14351.472970000001
 30
0.0
 11
20238.973552999989
 21
14351.472970000001
 31
0.0
  0
LINE
  5
3A4B
  8
2-0
  6
CONTINUOUS
 62
     3
 10
20238.973552999989
 20
15055.535542000011
 30
0.0
 11
20238.973552999989
 21
15699.5744
 31
0.0
  0
LINE
  5
3A4C
  8
2-0
  6
CONTINUOUS
 62
     3
 10
20238.973552999989
 20
18674.530099
 30
0.0
 11
20238.973552999989
 21
19318.340816499989
 31
0.0
  0
LINE
  5
3A4D
  8
2-0
  6
CONTINUOUS
 62
     3
 10
20329.975981
 20
18603.433708999961
 30
0.0
 11
20282.972312000002
 21
18603.433708999961
 31
0.0
  0
LINE
  5
3A4E
  8
2-0
  6
CONTINUOUS
 62
     3
 10
20282.972312000002
 20
18688.434237000001
 30
0.0
 11
20329.975981
 21
18688.434237000001
 31
0.0
  0
LINE
  5
3A4F
  8
2-0
  6
CONTINUOUS
 62
     3
 10
20282.972312000002
 20
18603.433708999961
 30
0.0
 11
20282.972312000002
 21
18628.437008000001
 31
0.0
  0
LINE
  5
3A50
  8
2-0
  6
CONTINUOUS
 62
     3
 10
20282.972312000002
 20
18663.432916999991
 30
0.0
 11
20282.972312000002
 21
18688.434237000001
 31
0.0
  0
LINE
  5
3A51
  8
2-0
  6
CONTINUOUS
 62
     3
 10
20329.975981
 20
18688.434237000001
 30
0.0
 11
20329.975981
 21
18603.433708999961
 31
0.0
  0
LINE
  5
3A52
  8
2-0
  6
CONTINUOUS
 62
     3
 10
20238.973552999989
 20
16400.334383500001
 30
0.0
 11
20238.973552999989
 21
15756.77061000001
 31
0.0
  0
LINE
  5
3A53
  8
2-0
  6
CONTINUOUS
 62
     3
 10
20329.975981
 20
15685.436679
 30
0.0
 11
20282.972312000002
 21
15685.436679
 31
0.0
  0
LINE
  5
3A54
  8
2-0
  6
CONTINUOUS
 62
     3
 10
20282.972312000002
 20
15770.43324699999
 30
0.0
 11
20329.975981
 21
15770.43324699999
 31
0.0
  0
LINE
  5
3A55
  8
2-0
  6
CONTINUOUS
 62
     3
 10
20282.972312000002
 20
15685.436679
 30
0.0
 11
20282.972312000002
 21
15710.43206000001
 31
0.0
  0
LINE
  5
3A56
  8
2-0
  6
CONTINUOUS
 62
     3
 10
20282.972312000002
 20
15745.431928000011
 30
0.0
 11
20282.972312000002
 21
15770.43324699999
 31
0.0
  0
LINE
  5
3A57
  8
2-0
  6
CONTINUOUS
 62
     3
 10
20329.975981
 20
15770.43324699999
 30
0.0
 11
20329.975981
 21
15685.436679
 31
0.0
  0
LINE
  5
3A58
  8
2-0
  6
CONTINUOUS
 62
     3
 10
23592.46814199998
 20
19681.937075000009
 30
0.0
 11
23592.46814199998
 21
19796.933248000008
 31
0.0
  0
LINE
  5
3A59
  8
2-0
  6
CENTER2
 62
     6
 10
18952.015280999989
 20
19754.434963
 30
0.0
 11
24442.469461999979
 21
19754.434963
 31
0.0
  0
LINE
  5
3A5A
  8
2-0
  6
CENTER2
 62
     6
 10
18952.015280999989
 20
17186.934963
 30
0.0
 11
24442.469461999979
 21
17186.934963
 31
0.0
  0
LINE
  5
3A5B
  8
2-0
  6
CENTER2
 62
     6
 10
18952.015280999989
 20
14268.934962999991
 30
0.0
 11
24442.469461999979
 21
14268.934962999991
 31
0.0
  0
LINE
  5
3A5C
  8
2-0
  6
CONTINUOUS
 62
     3
 10
20238.973552999989
 20
19711.936678999991
 30
0.0
 11
23511.46624199998
 21
19711.936678999991
 31
0.0
  0
LINE
  5
3A5D
  8
2-0
  6
CONTINUOUS
 62
     3
 10
20238.973552999989
 20
14351.472970000001
 30
0.0
 11
20238.973552999989
 21
14998.33933200001
 31
0.0
  0
LINE
  5
3A5E
  8
2-0
  6
CENTER2
 62
     6
 10
20281.469858
 20
20996.933248000008
 30
0.0
 11
20281.469858
 21
13643.17152899999
 31
0.0
  0
LINE
  5
3A5F
  8
2-0
  6
CENTER2
 62
     6
 10
23549.969858
 20
20996.933248000008
 30
0.0
 11
23549.969858
 21
13643.17152899999
 31
0.0
  0
LINE
  5
3A60
  8
2-0
  6
CONTINUOUS
 62
     3
 10
23592.46814199998
 20
19671.639619000001
 30
0.0
 11
23592.46814199998
 21
19375.531088499989
 31
0.0
  0
LINE
  5
3A61
  8
2-0
  6
CONTINUOUS
 62
     3
 10
20238.973552999989
 20
19671.639619000001
 30
0.0
 11
20238.973552999989
 21
19375.531088499982
 31
0.0
  0
LINE
  5
3A62
  8
2-0
  6
CONTINUOUS
 62
     3
 10
20319.971494000001
 20
14311.433247000001
 30
0.0
 11
20319.971494000001
 21
19796.933248000008
 31
0.0
  0
LINE
  5
3A63
  8
2-0
  6
CONTINUOUS
 62
     3
 10
23511.46624199998
 20
14311.433247000001
 30
0.0
 11
23511.46624199998
 21
19796.933248000008
 31
0.0
  0
CIRCLE
  5
3A64
  8
2-0
  6
CONTINUOUS
 62
     4
 10
18752.017590999989
 20
19754.434963
 30
0.0
 40
200.00001
  0
CIRCLE
  5
3A65
  8
2-0
  6
CONTINUOUS
 62
     4
 10
18752.017590999989
 20
17186.934963
 30
0.0
 40
200.00001
  0
CIRCLE
  5
3A66
  8
2-0
  6
CONTINUOUS
 62
     4
 10
18752.017590999989
 20
14268.934962999991
 30
0.0
 40
200.00001
  0
CIRCLE
  5
3A67
  8
2-0
  6
CONTINUOUS
 62
     4
 10
20281.469858
 20
21196.937867000011
 30
0.0
 40
200.00001
  0
TEXT
  5
3A68
  8
2-0
  6
CONTINUOUS
 62
     7
 10
21946.815164999982
 20
13708.936084999999
 30
0.0
 40
160.0
  1
前柱（右）
 50
0.000213
 72
     4
 11
22362.814867592999
 21
13788.93763150079
 31
0.0
  0
TEXT
  5
3A69
  8
2-0
  6
CONTINUOUS
 62
     7
 10
21963.514383999991
 20
18388.058129000001
 30
0.0
 40
160.0
  1
補強柱 後
 50
359.99984199999989
 72
     4
 11
22374.181271274709
 21
18468.05699653699
 31
0.0
  0
TEXT
  5
3A6A
  8
2-0
  6
CONTINUOUS
 62
     7
 10
22151.410287999981
 20
16637.42810100002
 30
0.0
 40
160.0
  1
壁パネル
 50
359.99982299999999
 72
     4
 11
22514.077201803539
 21
16717.426980637891
 31
0.0
  0
TEXT
  5
3A6B
  8
2-0
  6
CONTINUOUS
 62
     7
 10
21871.40738399998
 20
17474.615997000012
 30
0.0
 40
160.0
  1
中柱（左右）
 50
0.000354
 72
     4
 11
22388.740223046188
 21
17554.619193324659
 31
0.0
  0
TEXT
  5
3A6C
  8
2-0
  6
CONTINUOUS
 62
     7
 10
22551.409627999979
 20
14681.977351
 30
0.0
 40
160.0
  1
下枠
 50
0.001063
 72
     4
 11
22722.074810409282
 21
14761.980517339291
 31
0.0
  0
TEXT
  5
3A6D
  8
2-0
  6
CONTINUOUS
 62
     7
 10
21963.51438399998
 20
15470.29864000001
 30
0.0
 40
160.0
  1
補強柱 前
 50
359.99937
 72
     4
 11
22374.18193028777
 21
15550.294124479329
 31
0.0
  0
TEXT
  5
3A6E
  8
2-0
  6
CONTINUOUS
 62
     7
 10
22046.375051999999
 20
19077.884735499989
 30
0.0
 40
160.0
  1
間柱（側）
 72
     4
 11
22467.708385333332
 21
19157.884735499989
 31
0.0
  0
TEXT
  5
3A6F
  8
2-0
  6
CONTINUOUS
 62
     7
 10
24364.965370999991
 20
20606.93245600001
 30
0.0
 40
160.0
  1
後柱（左右）
 50
0.000354
 72
     4
 11
24876.964876712969
 21
20686.935619372842
 31
0.0
  0
TEXT
  5
3A70
  8
2-0
  6
CONTINUOUS
 62
     7
 10
18704.018223999981
 20
19659.954521000011
 30
0.0
 40
160.0
  1
C
 72
     4
 11
18757.35155733331
 21
19739.954521000011
 31
0.0
  0
TEXT
  5
3A71
  8
2-0
  6
CONTINUOUS
 62
     7
 10
18704.238939999981
 20
17116.540881000019
 30
0.0
 40
160.0
  1
B
 72
     4
 11
18757.57227333331
 21
17196.540881000019
 31
0.0
  0
TEXT
  5
3A72
  8
2-0
  6
CONTINUOUS
 62
     7
 10
18704.281499999979
 20
14180.32775199999
 30
0.0
 40
160.0
  1
A
 72
     4
 11
18757.614833333319
 21
14260.32775199999
 31
0.0
  0
TEXT
  5
3A73
  8
2-0
  6
CONTINUOUS
 62
     7
 10
20237.263248999981
 20
21108.170315000028
 30
0.0
 40
160.0
  1
1
 72
     4
 11
20263.929915666649
 21
21188.170315000028
 31
0.0
  0
LINE
  5
3A74
  8
2-0
  6
CONTINUOUS
 62
     3
 10
22810.470438999961
 20
19796.933248000008
 30
0.0
 11
22773.469277
 21
19796.933248000008
 31
0.0
  0
LINE
  5
3A75
  8
2-0
  6
CONTINUOUS
 62
     3
 10
22810.470438999961
 20
19766.92968500001
 30
0.0
 11
22810.470438999961
 21
19796.933248000008
 31
0.0
  0
LINE
  5
3A76
  8
2-0
  6
CONTINUOUS
 62
     3
 10
22804.470517999958
 20
19766.92968500001
 30
0.0
 11
22810.470438999961
 21
19766.92968500001
 31
0.0
  0
LINE
  5
3A77
  8
2-0
  6
CONTINUOUS
 62
     3
 10
22820.567963000001
 20
19766.92968500001
 30
0.0
 11
22820.567963000001
 21
19796.933248000008
 31
0.0
  0
LINE
  5
3A78
  8
2-0
  6
CONTINUOUS
 62
     3
 10
22802.564242
 20
19766.92968500001
 30
0.0
 11
22820.567963000001
 21
19766.92968500001
 31
0.0
  0
LINE
  5
3A79
  8
2-0
  6
CONTINUOUS
 62
     3
 10
22802.564242
 20
19791.938922000008
 30
0.0
 11
22802.564242
 21
19766.92968500001
 31
0.0
  0
LINE
  5
3A7A
  8
2-0
  6
CONTINUOUS
 62
     3
 10
22807.564505999999
 20
19791.938922000008
 30
0.0
 11
22802.564242
 21
19791.938922000008
 31
0.0
  0
LINE
  5
3A7B
  8
2-0
  6
CONTINUOUS
 62
     3
 10
22807.564505999999
 20
19784.933406
 30
0.0
 11
22807.564505999999
 21
19791.938922000008
 31
0.0
  0
LINE
  5
3A7C
  8
2-0
  6
CONTINUOUS
 62
     3
 10
22776.37521099998
 20
19784.933406
 30
0.0
 11
22776.37521099998
 21
19791.938922000008
 31
0.0
  0
LINE
  5
3A7D
  8
2-0
  6
CONTINUOUS
 62
     3
 10
22776.37521099998
 20
19791.938922000008
 30
0.0
 11
22781.375475000001
 21
19791.938922000008
 31
0.0
  0
LINE
  5
3A7E
  8
2-0
  6
CONTINUOUS
 62
     3
 10
22781.375475000001
 20
19791.938922000008
 30
0.0
 11
22781.375475000001
 21
19766.92968500001
 31
0.0
  0
LINE
  5
3A7F
  8
2-0
  6
CONTINUOUS
 62
     3
 10
22781.375475000001
 20
19766.92968500001
 30
0.0
 11
22763.375712000001
 21
19766.92968500001
 31
0.0
  0
LINE
  5
3A80
  8
2-0
  6
CONTINUOUS
 62
     3
 10
22763.375712000001
 20
19766.92968500001
 30
0.0
 11
22763.375712000001
 21
19796.933248000008
 31
0.0
  0
LINE
  5
3A81
  8
2-0
  6
CONTINUOUS
 62
     3
 10
22779.469197999992
 20
19766.92968500001
 30
0.0
 11
22773.469277
 21
19766.92968500001
 31
0.0
  0
LINE
  5
3A82
  8
2-0
  6
CONTINUOUS
 62
     3
 10
22773.469277
 20
19766.92968500001
 30
0.0
 11
22773.469277
 21
19796.933248000008
 31
0.0
  0
LINE
  5
3A83
  8
2-0
  6
CONTINUOUS
 62
     3
 10
21405.5595565
 20
19784.933406
 30
0.0
 11
21405.5595565
 21
19791.938922000008
 31
0.0
  0
LINE
  5
3A84
  8
2-0
  6
CONTINUOUS
 62
     3
 10
21405.5595565
 20
19791.938922000008
 30
0.0
 11
21400.55929249998
 21
19791.938922000008
 31
0.0
  0
LINE
  5
3A85
  8
2-0
  6
CONTINUOUS
 62
     3
 10
21400.55929249998
 20
19791.938922000008
 30
0.0
 11
21400.55929249998
 21
19766.92968500001
 31
0.0
  0
LINE
  5
3A86
  8
2-0
  6
CONTINUOUS
 62
     3
 10
21400.55929249998
 20
19766.92968500001
 30
0.0
 11
21418.5649935
 21
19766.92968500001
 31
0.0
  0
LINE
  5
3A87
  8
2-0
  6
CONTINUOUS
 62
     3
 10
21418.5649935
 20
19766.92968500001
 30
0.0
 11
21418.5649935
 21
19796.933248000008
 31
0.0
  0
LINE
  5
3A88
  8
2-0
  6
CONTINUOUS
 62
     3
 10
21402.46754849999
 20
19766.92968500001
 30
0.0
 11
21408.469448499982
 21
19766.92968500001
 31
0.0
  0
LINE
  5
3A89
  8
2-0
  6
CONTINUOUS
 62
     3
 10
21408.469448499982
 20
19766.92968500001
 30
0.0
 11
21408.469448499982
 21
19796.933248000008
 31
0.0
  0
LINE
  5
3A8A
  8
2-0
  6
CONTINUOUS
 62
     3
 10
21371.47026749999
 20
19796.933248000008
 30
0.0
 11
21408.469448499982
 21
19796.933248000008
 31
0.0
  0
LINE
  5
3A8B
  8
2-0
  6
CONTINUOUS
 62
     3
 10
21371.47026749999
 20
19766.92968500001
 30
0.0
 11
21371.47026749999
 21
19796.933248000008
 31
0.0
  0
LINE
  5
3A8C
  8
2-0
  6
CONTINUOUS
 62
     3
 10
21377.46424949999
 20
19766.92968500001
 30
0.0
 11
21371.47026749999
 21
19766.92968500001
 31
0.0
  0
LINE
  5
3A8D
  8
2-0
  6
CONTINUOUS
 62
     3
 10
21361.374722500001
 20
19766.92968500001
 30
0.0
 11
21361.374722500001
 21
19796.933248000008
 31
0.0
  0
LINE
  5
3A8E
  8
2-0
  6
CONTINUOUS
 62
     3
 10
21379.370525499991
 20
19766.92968500001
 30
0.0
 11
21361.374722500001
 21
19766.92968500001
 31
0.0
  0
LINE
  5
3A8F
  8
2-0
  6
CONTINUOUS
 62
     3
 10
21379.370525499991
 20
19791.938922000008
 30
0.0
 11
21379.370525499991
 21
19766.92968500001
 31
0.0
  0
LINE
  5
3A90
  8
2-0
  6
CONTINUOUS
 62
     3
 10
21374.370261499978
 20
19791.938922000008
 30
0.0
 11
21379.370525499991
 21
19791.938922000008
 31
0.0
  0
LINE
  5
3A91
  8
2-0
  6
CONTINUOUS
 62
     3
 10
21374.370261499978
 20
19784.933406
 30
0.0
 11
21374.370261499978
 21
19791.938922000008
 31
0.0
  0
LINE
  5
3A92
  8
2-0
  6
CONTINUOUS
 62
     3
 10
22075.369272499989
 20
19784.933406
 30
0.0
 11
22075.369272499989
 21
19791.938922000008
 31
0.0
  0
LINE
  5
3A93
  8
2-0
  6
CONTINUOUS
 62
     3
 10
22075.369272499989
 20
19791.938922000008
 30
0.0
 11
22080.369535500002
 21
19791.938922000008
 31
0.0
  0
LINE
  5
3A94
  8
2-0
  6
CONTINUOUS
 62
     3
 10
22080.369535500002
 20
19791.938922000008
 30
0.0
 11
22080.369535500002
 21
19766.92968500001
 31
0.0
  0
LINE
  5
3A95
  8
2-0
  6
CONTINUOUS
 62
     3
 10
22080.369535500002
 20
19766.92968500001
 30
0.0
 11
22062.375712499968
 21
19766.92968500001
 31
0.0
  0
LINE
  5
3A96
  8
2-0
  6
CONTINUOUS
 62
     3
 10
22062.375712499968
 20
19766.92968500001
 30
0.0
 11
22062.375712499968
 21
19796.933248000008
 31
0.0
  0
LINE
  5
3A97
  8
2-0
  6
CONTINUOUS
 62
     3
 10
22078.467218499969
 20
19766.92968500001
 30
0.0
 11
22072.469277499989
 21
19766.92968500001
 31
0.0
  0
LINE
  5
3A98
  8
2-0
  6
CONTINUOUS
 62
     3
 10
22072.469277499989
 20
19766.92968500001
 30
0.0
 11
22072.469277499989
 21
19796.933248000008
 31
0.0
  0
LINE
  5
3A99
  8
2-0
  6
CONTINUOUS
 62
     3
 10
22109.4704385
 20
19796.933248000008
 30
0.0
 11
22072.469277499989
 21
19796.933248000008
 31
0.0
  0
LINE
  5
3A9A
  8
2-0
  6
CONTINUOUS
 62
     3
 10
22109.4704385
 20
19766.92968500001
 30
0.0
 11
22109.4704385
 21
19796.933248000008
 31
0.0
  0
LINE
  5
3A9B
  8
2-0
  6
CONTINUOUS
 62
     3
 10
22103.4645795
 20
19766.92968500001
 30
0.0
 11
22109.4704385
 21
19766.92968500001
 31
0.0
  0
LINE
  5
3A9C
  8
2-0
  6
CONTINUOUS
 62
     3
 10
22119.5640035
 20
19766.92968500001
 30
0.0
 11
22119.5640035
 21
19796.933248000008
 31
0.0
  0
LINE
  5
3A9D
  8
2-0
  6
CONTINUOUS
 62
     3
 10
22101.568200499991
 20
19766.92968500001
 30
0.0
 11
22119.5640035
 21
19766.92968500001
 31
0.0
  0
LINE
  5
3A9E
  8
2-0
  6
CONTINUOUS
 62
     3
 10
22101.568200499991
 20
19791.938922000008
 30
0.0
 11
22101.568200499991
 21
19766.92968500001
 31
0.0
  0
LINE
  5
3A9F
  8
2-0
  6
CONTINUOUS
 62
     3
 10
22106.5585665
 20
19791.938922000008
 30
0.0
 11
22101.568200499991
 21
19791.938922000008
 31
0.0
  0
LINE
  5
3AA0
  8
2-0
  6
CONTINUOUS
 62
     3
 10
22106.5585665
 20
19784.933406
 30
0.0
 11
22106.5585665
 21
19791.938922000008
 31
0.0
  0
LINE
  5
3AA1
  8
2-0
  6
CONTINUOUS
 62
     3
 10
21418.5649935
 20
19796.933248000008
 30
0.0
 11
22062.375712499968
 21
19796.933248000008
 31
0.0
  0
LINE
  5
3AA2
  8
2-0
  6
CONTINUOUS
 62
     3
 10
20717.768884000001
 20
19796.933248000008
 30
0.0
 11
21361.374722500001
 21
19796.933248000008
 31
0.0
  0
LINE
  5
3AA3
  8
2-0
  6
CONTINUOUS
 62
     3
 10
23467.853488000001
 20
19796.933248000008
 30
0.0
 11
22820.567963000001
 21
19796.933248000008
 31
0.0
  0
LINE
  5
3AA4
  8
2-0
  6
CONTINUOUS
 62
     3
 10
22763.375712000001
 20
19796.933248000008
 30
0.0
 11
22119.5640035
 21
19796.933248000008
 31
0.0
  0
LINE
  5
3AA5
  8
2-0
  6
CONTINUOUS
 62
     3
 10
20704.56153599999
 20
19784.933406
 30
0.0
 11
20704.56153599999
 21
19791.938922000008
 31
0.0
  0
LINE
  5
3AA6
  8
2-0
  6
CONTINUOUS
 62
     3
 10
20704.56153599999
 20
19791.938922000008
 30
0.0
 11
20699.561271999992
 21
19791.938922000008
 31
0.0
  0
LINE
  5
3AA7
  8
2-0
  6
CONTINUOUS
 62
     3
 10
20699.561271999992
 20
19791.938922000008
 30
0.0
 11
20699.561271999992
 21
19766.92968500001
 31
0.0
  0
LINE
  5
3AA8
  8
2-0
  6
CONTINUOUS
 62
     3
 10
20699.561271999992
 20
19766.92968500001
 30
0.0
 11
20717.563013999999
 21
19766.92968500001
 31
0.0
  0
LINE
  5
3AA9
  8
2-0
  6
CONTINUOUS
 62
     3
 10
20717.563013999999
 20
19766.92968500001
 30
0.0
 11
20717.563013999999
 21
19796.933248000008
 31
0.0
  0
LINE
  5
3AAA
  8
2-0
  6
CONTINUOUS
 62
     3
 10
20701.46358900001
 20
19766.92968500001
 30
0.0
 11
20707.467468999988
 21
19766.92968500001
 31
0.0
  0
LINE
  5
3AAB
  8
2-0
  6
CONTINUOUS
 62
     3
 10
20707.467468999988
 20
19766.92968500001
 30
0.0
 11
20707.467468999988
 21
19796.933248000008
 31
0.0
  0
LINE
  5
3AAC
  8
2-0
  6
CONTINUOUS
 62
     3
 10
20670.47224699998
 20
19796.933248000008
 30
0.0
 11
20707.467468999988
 21
19796.933248000008
 31
0.0
  0
LINE
  5
3AAD
  8
2-0
  6
CONTINUOUS
 62
     3
 10
20670.47224699998
 20
19766.92968500001
 30
0.0
 11
20670.47224699998
 21
19796.933248000008
 31
0.0
  0
LINE
  5
3AAE
  8
2-0
  6
CONTINUOUS
 62
     3
 10
20676.466229000001
 20
19766.92968500001
 30
0.0
 11
20670.47224699998
 21
19766.92968500001
 31
0.0
  0
LINE
  5
3AAF
  8
2-0
  6
CONTINUOUS
 62
     3
 10
20660.376702000001
 20
19766.92968500001
 30
0.0
 11
20660.376702000001
 21
19796.933248000008
 31
0.0
  0
LINE
  5
3AB0
  8
2-0
  6
CONTINUOUS
 62
     3
 10
20678.37250500001
 20
19766.92968500001
 30
0.0
 11
20660.376702000001
 21
19766.92968500001
 31
0.0
  0
LINE
  5
3AB1
  8
2-0
  6
CONTINUOUS
 62
     3
 10
20678.37250500001
 20
19791.938922000008
 30
0.0
 11
20678.37250500001
 21
19766.92968500001
 31
0.0
  0
LINE
  5
3AB2
  8
2-0
  6
CONTINUOUS
 62
     3
 10
20673.374220999998
 20
19791.938922000008
 30
0.0
 11
20678.37250500001
 21
19791.938922000008
 31
0.0
  0
LINE
  5
3AB3
  8
2-0
  6
CONTINUOUS
 62
     3
 10
20673.374220999998
 20
19784.933406
 30
0.0
 11
20673.374220999998
 21
19791.938922000008
 31
0.0
  0
LINE
  5
3AB4
  8
2-0
  6
CONTINUOUS
 62
     3
 10
20364.27509999997
 20
19796.933248000008
 30
0.0
 11
20660.376702000001
 21
19796.933248000008
 31
0.0
  0
LINE
  5
3AB5
  8
2-0
  6
CONTINUOUS
 62
     3
 10
23592.46814199998
 20
15699.57440000001
 30
0.0
 11
23592.46814199998
 21
15055.535542000011
 31
0.0
  0
LINE
  5
3AB6
  8
2-0
  6
CONTINUOUS
 62
     3
 10
23592.46814199998
 20
14998.339332
 30
0.0
 11
23592.468141999991
 21
14351.472970000001
 31
0.0
  0
CIRCLE
  5
3AB7
  8
2-0
  6
CONTINUOUS
 62
     4
 10
23549.969858
 20
21196.937867000011
 30
0.0
 40
200.00001
  0
TEXT
  5
3AB8
  8
2-0
  6
CONTINUOUS
 62
     7
 10
23498.338075
 20
21101.412238000012
 30
0.0
 40
160.0
  1
2
 72
     4
 11
23551.671408333332
 21
21181.412238000012
 31
0.0
  0
LINE
  5
3AB9
  8
0-6
  6
CONTINUOUS
 62
     6
 10
20632.79411649999
 20
19085.615020000008
 30
0.0
 11
21657.83436650001
 21
19085.615020000008
 31
0.0
  0
LINE
  5
3ABA
  8
0-6
  6
CONTINUOUS
 62
     6
 10
21957.7591445
 20
19642.96827200002
 30
0.0
 11
22062.374722500001
 21
19766.92968500001
 31
0.0
  0
LINE
  5
3ABB
  8
0-6
  6
CONTINUOUS
 62
     6
 10
22062.374722500001
 20
19766.92968500001
 30
0.0
 11
22003.616672499978
 21
19615.73801500001
 31
0.0
  0
LINE
  5
3ABC
  8
0-6
  6
CONTINUOUS
 62
     6
 10
22062.374722500001
 20
19766.92968500001
 30
0.0
 11
21957.7591445
 21
19642.96827200002
 31
0.0
  0
LINE
  5
3ABD
  8
0-6
  6
CONTINUOUS
 62
     6
 10
21957.7591445
 20
19642.96827200002
 30
0.0
 11
22003.616672499978
 21
19615.73801500001
 31
0.0
  0
LINE
  5
3ABE
  8
0-6
  6
CONTINUOUS
 62
     6
 10
22003.616672499978
 20
19615.73801500001
 30
0.0
 11
22062.374722500001
 21
19766.92968500001
 31
0.0
  0
LINE
  5
3ABF
  8
0-6
  6
CONTINUOUS
 62
     6
 10
22003.616672499978
 20
19615.73801500001
 30
0.0
 11
21957.7591445
 21
19642.96827200002
 31
0.0
  0
LINE
  5
3AC0
  8
0-6
  6
CONTINUOUS
 62
     6
 10
21980.6879085
 20
19629.355123000008
 30
0.0
 11
21657.83436650001
 21
19085.615020000008
 31
0.0
  0
TEXT
  5
3AC1
  8
0-6
  6
CONTINUOUS
 62
     7
 10
20712.7943805
 20
19165.617264000011
 30
0.0
 40
160.0
  1
間柱（後）
 72
     4
 11
21134.127713833332
 21
19245.617264000011
 31
0.0
  0
LINE
  5
3AC2
  8
SUNPOU
  6
CONTINUOUS
 10
9696.9726229999978
 20
19976.930872000001
 30
0.0
 11
9696.9726229999978
 21
20773.89813977847
 31
0.0
  0
CIRCLE
  5
3AC3
  8
0-5
  6
CONTINUOUS
 62
     4
 10
9096.9701489999989
 20
19754.434963
 30
0.0
 40
199.9999949999999
  0
TEXT
  5
3AC4
  8
0-0
  6
CONTINUOUS
 62
     7
 10
9044.1219519999977
 20
19661.983527
 30
0.0
 40
160.0
  1
C
 72
     4
 11
9097.4552853333316
 21
19741.983527
 31
0.0
  0
LINE
  5
3AC5
  8
SUNPOU
  6
CONTINUOUS
 10
9696.9726229999978
 20
14076.439648
 30
0.0
 11
9696.9726229999978
 21
13401.01353218962
 31
0.0
  0
TEXT
  5
3AC6
  8
2-0
  6
CONTINUOUS
 62
     7
 10
11075.853304999981
 20
11945.117223999991
 30
0.0
 40
160.0
  1
小 屋 伏 図
 72
     4
 11
11577.18663833332
 21
12025.117223999991
 31
0.0
  0
TEXT
  5
3AC7
  8
2-0
  6
CONTINUOUS
 62
     7
 10
12928.67882347094
 20
11972.312592999981
 30
0.0
 40
160.0
  1
1
 72
     4
 11
12955.34549013761
 21
12052.312592999981
 31
0.0
  0
TEXT
  5
3AC8
  8
2-0
  6
CONTINUOUS
 62
     7
 10
13171.767540721639
 20
11892.314060999979
 30
0.0
 40
160.0
  1
80
 72
     4
 11
13291.767540721639
 21
11972.314060999979
 31
0.0
  0
TEXT
  5
3AC9
  8
2-0
  6
CONTINUOUS
 62
     7
 10
12429.68078947094
 20
11945.117223999991
 30
0.0
 40
160.0
  1
(S=  /   )
 72
     4
 11
12989.68078947094
 21
12025.117223999991
 31
0.0
  0
LINE
  5
3ACC
  8
WAKUSEN-01
 10
868.00000000000193
 20
22484.000000000011
 30
0.0
 11
32764.000000000011
 21
22484.000000000011
 31
0.0
  0
LINE
  5
3ACF
  8
WAKUSEN-01
 10
20560.0
 20
2484.0
 30
0.0
 11
32764.0
 21
2484.0
 31
0.0
  0
LINE
  5
3AD0
  8
WAKUSEN-02
 10
20560.0
 20
1655.9999999999991
 30
0.0
 11
26868.0
 21
1655.9999999999991
 31
0.0
  0
TEXT
  5
3AD1
  8
WAKUMOJI-01
 10
20670.260259962761
 20
2125.9030093393221
 30
0.0
 40
240.0
  1
名　称
  7
WAKUMOJI
  0
TEXT
  5
3AD2
  8
WAKUMOJI-01
 10
20656.505485091919
 20
1319.12897497982
 30
0.0
 40
240.0
  1
機種名
  7
WAKUMOJI
  0
LINE
  5
3AD5
  8
YODOROGO
 10
29977.604341291921
 20
1995.7494964292871
 30
0.0
 11
29829.604341291921
 21
1995.7494964292871
 31
0.0
1001
AUTOCAD_POSTSCRIPT_FIGURE
1002
{
1000
PSFILL
1000
Grayscale
1000
Grayscale
1070
    25
1002
}
  0
LINE
  5
3AD6
  8
YODOROGO
 10
29829.604341291921
 20
1947.749496429288
 30
0.0
 11
29977.604341291921
 21
1947.749496429288
 31
0.0
1001
AUTOCAD_POSTSCRIPT_FIGURE
1002
{
1000
PSFILL
1000
Grayscale
1000
Grayscale
1070
    25
1002
}
  0
LINE
  5
3AD7
  8
YODOROGO
 10
29977.604341291921
 20
1907.7494964292871
 30
0.0
 11
29829.604341291921
 21
1907.7494964292871
 31
0.0
1001
AUTOCAD_POSTSCRIPT_FIGURE
1002
{
1000
PSFILL
1000
Grayscale
1000
Grayscale
1070
    25
1002
}
  0
LINE
  5
3AD8
  8
YODOROGO
 10
29829.604341291921
 20
1859.749496429288
 30
0.0
 11
29977.604341291921
 21
1859.749496429288
 31
0.0
1001
AUTOCAD_POSTSCRIPT_FIGURE
1002
{
1000
PSFILL
1000
Grayscale
1000
Grayscale
1070
    25
1002
}
  0
LINE
  5
3AD9
  8
YODOROGO
 10
29977.604341291921
 20
1819.7494964292871
 30
0.0
 11
29829.604341291921
 21
1819.7494964292871
 31
0.0
1001
AUTOCAD_POSTSCRIPT_FIGURE
1002
{
1000
PSFILL
1000
Grayscale
1000
Grayscale
1070
    25
1002
}
  0
LINE
  5
3ADA
  8
YODOROGO
 10
29921.60434129191
 20
1707.749496429288
 30
0.0
 11
29977.604341291921
 21
1707.749496429288
 31
0.0
1001
AUTOCAD_POSTSCRIPT_FIGURE
1002
{
1000
PSFILL
1000
Grayscale
1000
Grayscale
1070
    25
1002
}
  0
LINE
  5
3ADB
  8
YODOROGO
 10
29737.604341291921
 20
1427.749496429288
 30
0.0
 11
29937.604341291932
 21
1481.3393349155101
 31
0.0
  0
LINE
  5
3ADC
  8
YODOROGO
 10
29949.60434129191
 20
1707.749496429288
 30
0.0
 11
29885.604341291921
 21
1707.749496429288
 31
0.0
  0
ARC
  5
3ADD
  8
YODOROGO
 10
30254.34774982791
 20
1807.864609233261
 30
0.0
 40
381.88686420564721
 50
213.96111677667841
 51
264.47872074317792
  0
ARC
  5
3ADE
  8
YODOROGO
 10
30254.347749827921
 20
1807.864609233302
 30
0.0
 40
381.8868642056816
 50
208.14114420486601
 51
212.9210361185994
  0
LINE
  5
3ADF
  8
YODOROGO
 10
29771.409872985321
 20
1556.807661346234
 30
0.0
 11
29933.78413250855
 21
1600.3157130570869
 31
0.0
  0
LINE
  5
3AE0
  8
YODOROGO
 10
29737.604341291921
 20
1427.749496429288
 30
0.0
 11
29937.604341291932
 21
1481.3393349155101
 31
0.0
  0
LINE
  5
3AE1
  8
YODOROGO
 10
29949.60434129191
 20
1707.749496429288
 30
0.0
 11
29885.604341291921
 21
1707.749496429288
 31
0.0
  0
ARC
  5
3AE2
  8
YODOROGO
 10
30254.34774982791
 20
1807.864609233261
 30
0.0
 40
381.88686420564721
 50
213.96111677667841
 51
264.47872074317792
  0
LINE
  5
3AE3
  8
YODOROGO
 10
28793.60434129191
 20
1819.7494964292871
 30
0.0
 11
28433.60434129191
 21
1819.7494964292871
 31
0.0
  0
LINE
  5
3AE4
  8
YODOROGO
 10
28513.60434129191
 20
1427.749496429288
 30
0.0
 11
28793.60434129191
 21
1427.749496429288
 31
0.0
  0
LINE
  5
3AE5
  8
YODOROGO
 10
28729.604341291921
 20
1923.7494964292871
 30
0.0
 11
28497.60434129191
 21
1923.7494964292871
 31
0.0
  0
LINE
  5
3AE6
  8
YODOROGO
 10
28585.604341291921
 20
2027.749496429288
 30
0.0
 11
28657.604341291921
 21
2027.749496429288
 31
0.0
  0
LINE
  5
3AE7
  8
YODOROGO
 10
28433.60434129191
 20
1707.749496429288
 30
0.0
 11
28433.60434129191
 21
1507.749496429288
 31
0.0
  0
LINE
  5
3AE8
  8
YODOROGO
 10
28497.60434129191
 20
1563.7494964292871
 30
0.0
 11
28497.60434129191
 21
1707.749496429288
 31
0.0
  0
LINE
  5
3AE9
  8
YODOROGO
 10
28585.604341291921
 20
1747.74949642929
 30
0.0
 11
28585.604341291921
 21
1547.749496429288
 31
0.0
  0
LINE
  5
3AEA
  8
YODOROGO
 10
27857.604341291921
 20
1683.749496429288
 30
0.0
 11
27777.604341291921
 21
1619.9724140445701
 31
0.0
  0
LINE
  5
3AEB
  8
YODOROGO
 10
27937.604341291921
 20
1619.9724140445701
 30
0.0
 11
27857.604341291921
 21
1683.749496429288
 31
0.0
  0
LINE
  5
3AEC
  8
YODOROGO
 10
27857.604341291921
 20
1707.749496429288
 30
0.0
 11
27937.604341291921
 21
1643.9724140445701
 31
0.0
  0
LINE
  5
3AED
  8
YODOROGO
 10
27777.604341291921
 20
1643.9724140445701
 30
0.0
 11
27857.604341291921
 21
1707.749496429288
 31
0.0
  0
LINE
  5
3AEE
  8
YODOROGO
 10
28040.913204016892
 20
1659.749496429288
 30
0.0
 11
28040.913204016892
 21
1683.7494964292871
 31
0.0
  0
LINE
  5
3AEF
  8
YODOROGO
 10
27977.604341291921
 20
1683.7494964292871
 30
0.0
 11
27977.604341291921
 21
1667.749496429285
 31
0.0
  0
LINE
  5
3AF0
  8
YODOROGO
 10
28098.135520230931
 20
1707.749496429288
 30
0.0
 11
28098.135520230931
 21
1655.5036372746561
 31
0.0
1001
AUTOCAD_POSTSCRIPT_FIGURE
1002
{
1000
PSFILL
1000
Grayscale
1000
Grayscale
1070
   100
1002
}
  0
LINE
  5
3AF1
  8
YODOROGO
 10
28082.135520230921
 20
1655.5036372746561
 30
0.0
 11
28082.135520230921
 21
1707.749496429288
 31
0.0
1001
AUTOCAD_POSTSCRIPT_FIGURE
1002
{
1000
PSFILL
1000
Grayscale
1000
Grayscale
1070
   100
1002
}
  0
LINE
  5
3AF2
  8
YODOROGO
 10
27809.604341291921
 20
1608.771904043258
 30
0.0
 11
27809.604341291921
 21
1632.771904043258
 31
0.0
  0
LINE
  5
3AF3
  8
YODOROGO
 10
27905.604341291921
 20
1608.771904043258
 30
0.0
 11
27809.604341291921
 21
1608.771904043258
 31
0.0
  0
LINE
  5
3AF4
  8
YODOROGO
 10
27905.604341291921
 20
1632.771904043258
 30
0.0
 11
27905.604341291921
 21
1608.771904043258
 31
0.0
  0
LINE
  5
3AF5
  8
YODOROGO
 10
27809.604341291921
 20
1632.771904043258
 30
0.0
 11
27905.604341291921
 21
1632.771904043258
 31
0.0
  0
LINE
  5
3AF6
  8
YODOROGO
 10
27824.509588915738
 20
1568.5028573704751
 30
0.0
 11
27785.604341291921
 21
1475.7494964292871
 31
0.0
1001
AUTOCAD_POSTSCRIPT_FIGURE
1002
{
1000
PSFILL
1000
Grayscale
1000
Grayscale
1070
   100
1002
}
  0
LINE
  5
3AF7
  8
YODOROGO
 10
27777.604341291921
 20
1568.5028573704751
 30
0.0
 11
27824.509588915738
 21
1568.5028573704751
 31
0.0
1001
AUTOCAD_POSTSCRIPT_FIGURE
1002
{
1000
PSFILL
1000
Grayscale
1000
Grayscale
1070
   100
1002
}
  0
LINE
  5
3AF8
  8
YODOROGO
 10
27777.604341291921
 20
1588.5028573704751
 30
0.0
 11
27777.604341291921
 21
1568.5028573704751
 31
0.0
1001
AUTOCAD_POSTSCRIPT_FIGURE
1002
{
1000
PSFILL
1000
Grayscale
1000
Grayscale
1070
   100
1002
}
  0
LINE
  5
3AF9
  8
YODOROGO
 10
27937.604341291921
 20
1588.5028573704751
 30
0.0
 11
27777.604341291921
 21
1588.5028573704751
 31
0.0
1001
AUTOCAD_POSTSCRIPT_FIGURE
1002
{
1000
PSFILL
1000
Grayscale
1000
Grayscale
1070
   100
1002
}
  0
LINE
  5
3AFA
  8
YODOROGO
 10
27937.604341291921
 20
1568.5028573704751
 30
0.0
 11
27937.604341291921
 21
1588.5028573704751
 31
0.0
1001
AUTOCAD_POSTSCRIPT_FIGURE
1002
{
1000
PSFILL
1000
Grayscale
1000
Grayscale
1070
   100
1002
}
  0
LINE
  5
3AFB
  8
YODOROGO
 10
27844.509588915738
 20
1568.5028573704751
 30
0.0
 11
27937.604341291921
 21
1568.5028573704751
 31
0.0
1001
AUTOCAD_POSTSCRIPT_FIGURE
1002
{
1000
PSFILL
1000
Grayscale
1000
Grayscale
1070
   100
1002
}
  0
LINE
  5
3AFC
  8
YODOROGO
 10
27815.546718284771
 20
1495.7494964292871
 30
0.0
 11
27844.509588915738
 21
1568.5028573704751
 31
0.0
1001
AUTOCAD_POSTSCRIPT_FIGURE
1002
{
1000
PSFILL
1000
Grayscale
1000
Grayscale
1070
   100
1002
}
  0
LINE
  5
3AFD
  8
YODOROGO
 10
27902.054790808648
 20
1495.7494964292871
 30
0.0
 11
27815.546718284771
 21
1495.7494964292871
 31
0.0
1001
AUTOCAD_POSTSCRIPT_FIGURE
1002
{
1000
PSFILL
1000
Grayscale
1000
Grayscale
1070
   100
1002
}
  0
LINE
  5
3AFE
  8
YODOROGO
 10
27885.065004790951
 20
1536.2338106976929
 30
0.0
 11
27902.054790808648
 21
1495.7494964292871
 31
0.0
1001
AUTOCAD_POSTSCRIPT_FIGURE
1002
{
1000
PSFILL
1000
Grayscale
1000
Grayscale
1070
   100
1002
}
  0
LINE
  5
3AFF
  8
YODOROGO
 10
27901.065004790951
 20
1536.2338106976929
 30
0.0
 11
27885.065004790951
 21
1536.2338106976929
 31
0.0
1001
AUTOCAD_POSTSCRIPT_FIGURE
1002
{
1000
PSFILL
1000
Grayscale
1000
Grayscale
1070
   100
1002
}
  0
LINE
  5
3B00
  8
YODOROGO
 10
27929.604341291921
 20
1475.7494964292871
 30
0.0
 11
27901.065004790951
 21
1536.2338106976929
 31
0.0
1001
AUTOCAD_POSTSCRIPT_FIGURE
1002
{
1000
PSFILL
1000
Grayscale
1000
Grayscale
1070
   100
1002
}
  0
LINE
  5
3B01
  8
YODOROGO
 10
27785.604341291921
 20
1475.7494964292871
 30
0.0
 11
27929.604341291921
 21
1475.7494964292871
 31
0.0
1001
AUTOCAD_POSTSCRIPT_FIGURE
1002
{
1000
PSFILL
1000
Grayscale
1000
Grayscale
1070
   100
1002
}
  0
LINE
  5
3B02
  8
YODOROGO
 10
27777.604341291921
 20
1619.9724140445701
 30
0.0
 11
27777.604341291921
 21
1643.9724140445701
 31
0.0
  0
LINE
  5
3B03
  8
YODOROGO
 10
27937.604341291921
 20
1643.9724140445701
 30
0.0
 11
27937.604341291921
 21
1619.9724140445701
 31
0.0
  0
ARC
  5
3B04
  8
YODOROGO
 10
28225.940442146959
 20
1600.877765325326
 30
0.0
 40
175.9999999999998
 50
280.3644312771313
 51
3.5414836592180561
  0
ARC
  5
3B05
  8
YODOROGO
 10
28235.756030759301
 20
1633.5978069619041
 30
0.0
 40
111.9999999999982
 50
281.24905825041549
 51
348.75094174958321
  0
LINE
  5
3B06
  8
YODOROGO
 10
28257.604341291921
 20
1523.7494964292871
 30
0.0
 11
28257.604341291921
 21
1427.749496429288
 31
0.0
  0
LINE
  5
3B07
  8
YODOROGO
 10
28020.088903736909
 20
1610.650565061914
 30
0.0
 11
28040.913204016892
 21
1659.749496429288
 31
0.0
  0
LINE
  5
3B08
  8
YODOROGO
 10
28041.604341291921
 20
1583.120489948401
 30
0.0
 11
28020.088903736909
 21
1610.650565061914
 31
0.0
  0
LINE
  5
3B09
  8
YODOROGO
 10
28041.604341291921
 20
1563.120489948398
 30
0.0
 11
28041.604341291921
 21
1583.120489948401
 31
0.0
  0
LINE
  5
3B0A
  8
YODOROGO
 10
28017.604341291921
 20
1585.2370637495301
 30
0.0
 11
28041.604341291921
 21
1563.120489948398
 31
0.0
  0
LINE
  5
3B0B
  8
YODOROGO
 10
28017.604341291921
 20
1475.7494964292871
 30
0.0
 11
28017.604341291921
 21
1585.2370637495301
 31
0.0
  0
LINE
  5
3B0C
  8
YODOROGO
 10
28001.604341291921
 20
1475.7494964292871
 30
0.0
 11
28017.604341291921
 21
1475.7494964292871
 31
0.0
  0
LINE
  5
3B0D
  8
YODOROGO
 10
28001.604341291921
 20
1580.0053496897469
 30
0.0
 11
28001.604341291921
 21
1475.7494964292871
 31
0.0
  0
LINE
  5
3B0E
  8
YODOROGO
 10
27977.604341291921
 20
1532.7680790334291
 30
0.0
 11
28001.604341291921
 21
1580.0053496897469
 31
0.0
  0
LINE
  5
3B0F
  8
YODOROGO
 10
27977.604341291921
 20
1556.76807903343
 30
0.0
 11
27977.604341291921
 21
1532.7680790334291
 31
0.0
  0
LINE
  5
3B10
  8
YODOROGO
 10
28025.828774291349
 20
1667.749496429285
 30
0.0
 11
27977.604341291921
 21
1556.76807903343
 31
0.0
  0
LINE
  5
3B11
  8
YODOROGO
 10
27977.604341291921
 20
1667.749496429285
 30
0.0
 11
28025.828774291349
 21
1667.749496429285
 31
0.0
  0
LINE
  5
3B12
  8
YODOROGO
 10
28050.135520230899
 20
1655.5036372746561
 30
0.0
 11
28082.135520230921
 21
1655.5036372746561
 31
0.0
1001
AUTOCAD_POSTSCRIPT_FIGURE
1002
{
1000
PSFILL
1000
Grayscale
1000
Grayscale
1070
   100
1002
}
  0
LINE
  5
3B13
  8
YODOROGO
 10
28050.135520230899
 20
1631.5036372746561
 30
0.0
 11
28050.135520230899
 21
1655.5036372746561
 31
0.0
1001
AUTOCAD_POSTSCRIPT_FIGURE
1002
{
1000
PSFILL
1000
Grayscale
1000
Grayscale
1070
   100
1002
}
  0
LINE
  5
3B14
  8
YODOROGO
 10
28082.135520230921
 20
1631.5036372746561
 30
0.0
 11
28050.135520230899
 21
1631.5036372746561
 31
0.0
1001
AUTOCAD_POSTSCRIPT_FIGURE
1002
{
1000
PSFILL
1000
Grayscale
1000
Grayscale
1070
   100
1002
}
  0
LINE
  5
3B15
  8
YODOROGO
 10
28082.135520230921
 20
1499.749496429288
 30
0.0
 11
28082.135520230921
 21
1631.5036372746561
 31
0.0
1001
AUTOCAD_POSTSCRIPT_FIGURE
1002
{
1000
PSFILL
1000
Grayscale
1000
Grayscale
1070
   100
1002
}
  0
LINE
  5
3B16
  8
YODOROGO
 10
28050.135520230921
 20
1499.749496429288
 30
0.0
 11
28082.135520230921
 21
1499.749496429288
 31
0.0
1001
AUTOCAD_POSTSCRIPT_FIGURE
1002
{
1000
PSFILL
1000
Grayscale
1000
Grayscale
1070
   100
1002
}
  0
LINE
  5
3B17
  8
YODOROGO
 10
28050.135520230921
 20
1475.7494964292871
 30
0.0
 11
28050.135520230921
 21
1499.749496429288
 31
0.0
1001
AUTOCAD_POSTSCRIPT_FIGURE
1002
{
1000
PSFILL
1000
Grayscale
1000
Grayscale
1070
   100
1002
}
  0
LINE
  5
3B18
  8
YODOROGO
 10
28137.604341291921
 20
1475.7494964292871
 30
0.0
 11
28050.135520230921
 21
1475.7494964292871
 31
0.0
1001
AUTOCAD_POSTSCRIPT_FIGURE
1002
{
1000
PSFILL
1000
Grayscale
1000
Grayscale
1070
   100
1002
}
  0
LINE
  5
3B19
  8
YODOROGO
 10
28137.604341291921
 20
1499.749496429288
 30
0.0
 11
28137.604341291921
 21
1475.7494964292871
 31
0.0
1001
AUTOCAD_POSTSCRIPT_FIGURE
1002
{
1000
PSFILL
1000
Grayscale
1000
Grayscale
1070
   100
1002
}
  0
LINE
  5
3B1A
  8
YODOROGO
 10
28098.135520230931
 20
1499.749496429288
 30
0.0
 11
28137.604341291921
 21
1499.749496429288
 31
0.0
1001
AUTOCAD_POSTSCRIPT_FIGURE
1002
{
1000
PSFILL
1000
Grayscale
1000
Grayscale
1070
   100
1002
}
  0
LINE
  5
3B1B
  8
YODOROGO
 10
28098.135520230931
 20
1631.5036372746561
 30
0.0
 11
28098.135520230931
 21
1499.749496429288
 31
0.0
1001
AUTOCAD_POSTSCRIPT_FIGURE
1002
{
1000
PSFILL
1000
Grayscale
1000
Grayscale
1070
   100
1002
}
  0
LINE
  5
3B1C
  8
YODOROGO
 10
28137.604341291921
 20
1631.5036372746561
 30
0.0
 11
28098.135520230931
 21
1631.5036372746561
 31
0.0
1001
AUTOCAD_POSTSCRIPT_FIGURE
1002
{
1000
PSFILL
1000
Grayscale
1000
Grayscale
1070
   100
1002
}
  0
LINE
  5
3B1D
  8
YODOROGO
 10
28137.604341291921
 20
1655.5036372746561
 30
0.0
 11
28137.604341291921
 21
1631.5036372746561
 31
0.0
1001
AUTOCAD_POSTSCRIPT_FIGURE
1002
{
1000
PSFILL
1000
Grayscale
1000
Grayscale
1070
   100
1002
}
  0
LINE
  5
3B1E
  8
YODOROGO
 10
28098.135520230931
 20
1655.5036372746561
 30
0.0
 11
28137.604341291921
 21
1655.5036372746561
 31
0.0
1001
AUTOCAD_POSTSCRIPT_FIGURE
1002
{
1000
PSFILL
1000
Grayscale
1000
Grayscale
1070
   100
1002
}
  0
LINE
  5
3B1F
  8
YODOROGO
 10
28401.60434129191
 20
1667.749496429288
 30
0.0
 11
28345.604341291921
 21
1667.749496429288
 31
0.0
  0
LINE
  5
3B20
  8
YODOROGO
 10
28401.60434129191
 20
1611.749496429288
 30
0.0
 11
28401.60434129191
 21
1667.749496429288
 31
0.0
  0
LINE
  5
3B21
  8
YODOROGO
 10
28345.604341291921
 20
1667.749496429288
 30
0.0
 11
28345.604341291921
 21
1611.749496429288
 31
0.0
  0
ARC
  5
3B22
  8
YODOROGO
 10
28513.60434129191
 20
1507.749496429288
 30
0.0
 40
80.0
 50
180.0
 51
270.0
  0
ARC
  5
3B23
  8
YODOROGO
 10
28537.604341291921
 20
1563.7494964292871
 30
0.0
 40
40.0
 50
180.0
 51
270.0
  0
LINE
  5
3B24
  8
YODOROGO
 10
28561.604341291932
 20
1523.7494964292871
 30
0.0
 11
28537.604341291921
 21
1523.7494964292871
 31
0.0
  0
ARC
  5
3B25
  8
YODOROGO
 10
28561.604341291932
 20
1547.749496429285
 30
0.0
 40
23.999999999996358
 50
270.0
 51
0.0000000000054281
  0
LINE
  5
3B26
  8
YODOROGO
 10
27801.604341291921
 20
1890.786580793706
 30
0.0
 11
27777.604341291921
 21
1843.776747951672
 31
0.0
1001
AUTOCAD_POSTSCRIPT_FIGURE
1002
{
1000
PSFILL
1000
Grayscale
1000
Grayscale
1070
   100
1002
}
  0
LINE
  5
3B27
  8
YODOROGO
 10
27801.604341291921
 20
1747.749496429286
 30
0.0
 11
27801.604341291921
 21
1890.786580793706
 31
0.0
1001
AUTOCAD_POSTSCRIPT_FIGURE
1002
{
1000
PSFILL
1000
Grayscale
1000
Grayscale
1070
   100
1002
}
  0
LINE
  5
3B28
  8
YODOROGO
 10
27817.604341291921
 20
1747.749496429286
 30
0.0
 11
27801.604341291921
 21
1747.749496429286
 31
0.0
1001
AUTOCAD_POSTSCRIPT_FIGURE
1002
{
1000
PSFILL
1000
Grayscale
1000
Grayscale
1070
   100
1002
}
  0
LINE
  5
3B29
  8
YODOROGO
 10
27817.604341291921
 20
1893.7713320852661
 30
0.0
 11
27817.604341291921
 21
1747.749496429286
 31
0.0
1001
AUTOCAD_POSTSCRIPT_FIGURE
1002
{
1000
PSFILL
1000
Grayscale
1000
Grayscale
1070
   100
1002
}
  0
LINE
  5
3B2A
  8
YODOROGO
 10
27841.604341291921
 20
1867.6547582841361
 30
0.0
 11
27817.604341291921
 21
1893.7713320852661
 31
0.0
1001
AUTOCAD_POSTSCRIPT_FIGURE
1002
{
1000
PSFILL
1000
Grayscale
1000
Grayscale
1070
   100
1002
}
  0
LINE
  5
3B2B
  8
YODOROGO
 10
27841.604341291921
 20
1883.6547582841361
 30
0.0
 11
27841.604341291921
 21
1867.6547582841361
 31
0.0
1001
AUTOCAD_POSTSCRIPT_FIGURE
1002
{
1000
PSFILL
1000
Grayscale
1000
Grayscale
1070
   100
1002
}
  0
LINE
  5
3B2C
  8
YODOROGO
 10
27817.604341291921
 20
1917.7713320852649
 30
0.0
 11
27841.604341291921
 21
1883.6547582841361
 31
0.0
1001
AUTOCAD_POSTSCRIPT_FIGURE
1002
{
1000
PSFILL
1000
Grayscale
1000
Grayscale
1070
   100
1002
}
  0
LINE
  5
3B2D
  8
YODOROGO
 10
27817.604341291921
 20
1939.749496429288
 30
0.0
 11
27817.604341291921
 21
1917.7713320852649
 31
0.0
1001
AUTOCAD_POSTSCRIPT_FIGURE
1002
{
1000
PSFILL
1000
Grayscale
1000
Grayscale
1070
   100
1002
}
  0
LINE
  5
3B2E
  8
YODOROGO
 10
27889.604341291921
 20
1939.749496429288
 30
0.0
 11
27817.604341291921
 21
1939.749496429288
 31
0.0
1001
AUTOCAD_POSTSCRIPT_FIGURE
1002
{
1000
PSFILL
1000
Grayscale
1000
Grayscale
1070
   100
1002
}
  0
LINE
  5
3B2F
  8
YODOROGO
 10
27889.604341291921
 20
1900.5683489363
 30
0.0
 11
27889.604341291921
 21
1939.749496429288
 31
0.0
1001
AUTOCAD_POSTSCRIPT_FIGURE
1002
{
1000
PSFILL
1000
Grayscale
1000
Grayscale
1070
   100
1002
}
  0
LINE
  5
3B30
  8
YODOROGO
 10
27857.604341291921
 20
1900.5683489363
 30
0.0
 11
27889.604341291921
 21
1900.5683489363
 31
0.0
1001
AUTOCAD_POSTSCRIPT_FIGURE
1002
{
1000
PSFILL
1000
Grayscale
1000
Grayscale
1070
   100
1002
}
  0
LINE
  5
3B31
  8
YODOROGO
 10
27857.604341291921
 20
1884.568348936298
 30
0.0
 11
27857.604341291921
 21
1900.5683489363
 31
0.0
1001
AUTOCAD_POSTSCRIPT_FIGURE
1002
{
1000
PSFILL
1000
Grayscale
1000
Grayscale
1070
   100
1002
}
  0
LINE
  5
3B32
  8
YODOROGO
 10
27889.604341291921
 20
1884.568348936298
 30
0.0
 11
27857.604341291921
 21
1884.568348936298
 31
0.0
1001
AUTOCAD_POSTSCRIPT_FIGURE
1002
{
1000
PSFILL
1000
Grayscale
1000
Grayscale
1070
   100
1002
}
  0
LINE
  5
3B33
  8
YODOROGO
 10
27889.604341291921
 20
1879.6191779644371
 30
0.0
 11
27889.604341291921
 21
1884.568348936298
 31
0.0
1001
AUTOCAD_POSTSCRIPT_FIGURE
1002
{
1000
PSFILL
1000
Grayscale
1000
Grayscale
1070
   100
1002
}
  0
LINE
  5
3B34
  8
YODOROGO
 10
27849.604341291921
 20
1812.974981161417
 30
0.0
 11
27889.604341291921
 21
1879.6191779644371
 31
0.0
1001
AUTOCAD_POSTSCRIPT_FIGURE
1002
{
1000
PSFILL
1000
Grayscale
1000
Grayscale
1070
   100
1002
}
  0
LINE
  5
3B35
  8
YODOROGO
 10
27849.604341291921
 20
1796.9749811614161
 30
0.0
 11
27849.604341291921
 21
1812.974981161417
 31
0.0
1001
AUTOCAD_POSTSCRIPT_FIGURE
1002
{
1000
PSFILL
1000
Grayscale
1000
Grayscale
1070
   100
1002
}
  0
LINE
  5
3B36
  8
YODOROGO
 10
27889.604341291921
 20
1847.6191779644359
 30
0.0
 11
27849.604341291921
 21
1796.9749811614161
 31
0.0
1001
AUTOCAD_POSTSCRIPT_FIGURE
1002
{
1000
PSFILL
1000
Grayscale
1000
Grayscale
1070
   100
1002
}
  0
LINE
  5
3B37
  8
YODOROGO
 10
27889.604341291921
 20
1747.749496429286
 30
0.0
 11
27889.604341291921
 21
1847.6191779644359
 31
0.0
1001
AUTOCAD_POSTSCRIPT_FIGURE
1002
{
1000
PSFILL
1000
Grayscale
1000
Grayscale
1070
   100
1002
}
  0
LINE
  5
3B38
  8
YODOROGO
 10
27905.604341291921
 20
1747.749496429286
 30
0.0
 11
27889.604341291921
 21
1747.749496429286
 31
0.0
1001
AUTOCAD_POSTSCRIPT_FIGURE
1002
{
1000
PSFILL
1000
Grayscale
1000
Grayscale
1070
   100
1002
}
  0
LINE
  5
3B39
  8
YODOROGO
 10
27905.604341291921
 20
1849.409012158806
 30
0.0
 11
27905.604341291921
 21
1747.749496429286
 31
0.0
1001
AUTOCAD_POSTSCRIPT_FIGURE
1002
{
1000
PSFILL
1000
Grayscale
1000
Grayscale
1070
   100
1002
}
  0
LINE
  5
3B3A
  8
YODOROGO
 10
27937.604341291921
 20
1796.9749811614161
 30
0.0
 11
27905.604341291921
 21
1849.409012158806
 31
0.0
1001
AUTOCAD_POSTSCRIPT_FIGURE
1002
{
1000
PSFILL
1000
Grayscale
1000
Grayscale
1070
   100
1002
}
  0
LINE
  5
3B3B
  8
YODOROGO
 10
27937.604341291921
 20
1812.974981161417
 30
0.0
 11
27937.604341291921
 21
1796.9749811614161
 31
0.0
1001
AUTOCAD_POSTSCRIPT_FIGURE
1002
{
1000
PSFILL
1000
Grayscale
1000
Grayscale
1070
   100
1002
}
  0
LINE
  5
3B3C
  8
YODOROGO
 10
27905.604341291921
 20
1881.4090121588081
 30
0.0
 11
27937.604341291921
 21
1812.974981161417
 31
0.0
1001
AUTOCAD_POSTSCRIPT_FIGURE
1002
{
1000
PSFILL
1000
Grayscale
1000
Grayscale
1070
   100
1002
}
  0
LINE
  5
3B3D
  8
YODOROGO
 10
27905.604341291921
 20
1884.5683489363
 30
0.0
 11
27905.604341291921
 21
1881.4090121588081
 31
0.0
1001
AUTOCAD_POSTSCRIPT_FIGURE
1002
{
1000
PSFILL
1000
Grayscale
1000
Grayscale
1070
   100
1002
}
  0
LINE
  5
3B3E
  8
YODOROGO
 10
27937.604341291921
 20
1884.568348936298
 30
0.0
 11
27905.604341291921
 21
1884.5683489363
 31
0.0
1001
AUTOCAD_POSTSCRIPT_FIGURE
1002
{
1000
PSFILL
1000
Grayscale
1000
Grayscale
1070
   100
1002
}
  0
LINE
  5
3B3F
  8
YODOROGO
 10
27937.604341291921
 20
1900.5683489363
 30
0.0
 11
27937.604341291921
 21
1884.568348936298
 31
0.0
1001
AUTOCAD_POSTSCRIPT_FIGURE
1002
{
1000
PSFILL
1000
Grayscale
1000
Grayscale
1070
   100
1002
}
  0
LINE
  5
3B40
  8
YODOROGO
 10
27905.604341291921
 20
1900.5683489363
 30
0.0
 11
27937.604341291921
 21
1900.5683489363
 31
0.0
1001
AUTOCAD_POSTSCRIPT_FIGURE
1002
{
1000
PSFILL
1000
Grayscale
1000
Grayscale
1070
   100
1002
}
  0
LINE
  5
3B41
  8
YODOROGO
 10
27905.604341291921
 20
1939.749496429288
 30
0.0
 11
27905.604341291921
 21
1900.5683489363
 31
0.0
1001
AUTOCAD_POSTSCRIPT_FIGURE
1002
{
1000
PSFILL
1000
Grayscale
1000
Grayscale
1070
   100
1002
}
  0
LINE
  5
3B42
  8
YODOROGO
 10
27937.604341291921
 20
1939.749496429288
 30
0.0
 11
27905.604341291921
 21
1939.749496429288
 31
0.0
1001
AUTOCAD_POSTSCRIPT_FIGURE
1002
{
1000
PSFILL
1000
Grayscale
1000
Grayscale
1070
   100
1002
}
  0
LINE
  5
3B43
  8
YODOROGO
 10
27937.604341291921
 20
1955.7494964292871
 30
0.0
 11
27937.604341291921
 21
1939.749496429288
 31
0.0
1001
AUTOCAD_POSTSCRIPT_FIGURE
1002
{
1000
PSFILL
1000
Grayscale
1000
Grayscale
1070
   100
1002
}
  0
LINE
  5
3B44
  8
YODOROGO
 10
27905.604341291921
 20
1955.7494964292871
 30
0.0
 11
27937.604341291921
 21
1955.7494964292871
 31
0.0
1001
AUTOCAD_POSTSCRIPT_FIGURE
1002
{
1000
PSFILL
1000
Grayscale
1000
Grayscale
1070
   100
1002
}
  0
LINE
  5
3B45
  8
YODOROGO
 10
27905.604341291921
 20
1979.749496429288
 30
0.0
 11
27905.604341291921
 21
1955.7494964292871
 31
0.0
1001
AUTOCAD_POSTSCRIPT_FIGURE
1002
{
1000
PSFILL
1000
Grayscale
1000
Grayscale
1070
   100
1002
}
  0
LINE
  5
3B46
  8
YODOROGO
 10
27889.604341291921
 20
1979.749496429288
 30
0.0
 11
27905.604341291921
 21
1979.749496429288
 31
0.0
1001
AUTOCAD_POSTSCRIPT_FIGURE
1002
{
1000
PSFILL
1000
Grayscale
1000
Grayscale
1070
   100
1002
}
  0
LINE
  5
3B47
  8
YODOROGO
 10
27889.604341291921
 20
1955.7494964292871
 30
0.0
 11
27889.604341291921
 21
1979.749496429288
 31
0.0
1001
AUTOCAD_POSTSCRIPT_FIGURE
1002
{
1000
PSFILL
1000
Grayscale
1000
Grayscale
1070
   100
1002
}
  0
LINE
  5
3B48
  8
YODOROGO
 10
27865.604341291921
 20
1955.7494964292871
 30
0.0
 11
27889.604341291921
 21
1955.7494964292871
 31
0.0
1001
AUTOCAD_POSTSCRIPT_FIGURE
1002
{
1000
PSFILL
1000
Grayscale
1000
Grayscale
1070
   100
1002
}
  0
LINE
  5
3B49
  8
YODOROGO
 10
27865.604341291921
 20
1979.749496429288
 30
0.0
 11
27865.604341291921
 21
1955.7494964292871
 31
0.0
1001
AUTOCAD_POSTSCRIPT_FIGURE
1002
{
1000
PSFILL
1000
Grayscale
1000
Grayscale
1070
   100
1002
}
  0
LINE
  5
3B4A
  8
YODOROGO
 10
27849.604341291921
 20
1979.749496429288
 30
0.0
 11
27865.604341291921
 21
1979.749496429288
 31
0.0
1001
AUTOCAD_POSTSCRIPT_FIGURE
1002
{
1000
PSFILL
1000
Grayscale
1000
Grayscale
1070
   100
1002
}
  0
LINE
  5
3B4B
  8
YODOROGO
 10
27849.604341291921
 20
1955.7494964292871
 30
0.0
 11
27849.604341291921
 21
1979.749496429288
 31
0.0
1001
AUTOCAD_POSTSCRIPT_FIGURE
1002
{
1000
PSFILL
1000
Grayscale
1000
Grayscale
1070
   100
1002
}
  0
LINE
  5
3B4C
  8
YODOROGO
 10
27817.604341291921
 20
1955.7494964292871
 30
0.0
 11
27849.604341291921
 21
1955.7494964292871
 31
0.0
1001
AUTOCAD_POSTSCRIPT_FIGURE
1002
{
1000
PSFILL
1000
Grayscale
1000
Grayscale
1070
   100
1002
}
  0
LINE
  5
3B4D
  8
YODOROGO
 10
27817.604341291921
 20
1979.749496429288
 30
0.0
 11
27817.604341291921
 21
1955.7494964292871
 31
0.0
1001
AUTOCAD_POSTSCRIPT_FIGURE
1002
{
1000
PSFILL
1000
Grayscale
1000
Grayscale
1070
   100
1002
}
  0
LINE
  5
3B4E
  8
YODOROGO
 10
27801.604341291921
 20
1979.749496429288
 30
0.0
 11
27817.604341291921
 21
1979.749496429288
 31
0.0
1001
AUTOCAD_POSTSCRIPT_FIGURE
1002
{
1000
PSFILL
1000
Grayscale
1000
Grayscale
1070
   100
1002
}
  0
LINE
  5
3B4F
  8
YODOROGO
 10
27801.604341291921
 20
1955.7494964292871
 30
0.0
 11
27801.604341291921
 21
1979.749496429288
 31
0.0
1001
AUTOCAD_POSTSCRIPT_FIGURE
1002
{
1000
PSFILL
1000
Grayscale
1000
Grayscale
1070
   100
1002
}
  0
LINE
  5
3B50
  8
YODOROGO
 10
27777.604341291921
 20
1955.7494964292871
 30
0.0
 11
27801.604341291921
 21
1955.7494964292871
 31
0.0
1001
AUTOCAD_POSTSCRIPT_FIGURE
1002
{
1000
PSFILL
1000
Grayscale
1000
Grayscale
1070
   100
1002
}
  0
LINE
  5
3B51
  8
YODOROGO
 10
27777.604341291921
 20
1939.749496429288
 30
0.0
 11
27777.604341291921
 21
1955.7494964292871
 31
0.0
1001
AUTOCAD_POSTSCRIPT_FIGURE
1002
{
1000
PSFILL
1000
Grayscale
1000
Grayscale
1070
   100
1002
}
  0
LINE
  5
3B52
  8
YODOROGO
 10
27801.604341291921
 20
1939.749496429288
 30
0.0
 11
27777.604341291921
 21
1939.749496429288
 31
0.0
1001
AUTOCAD_POSTSCRIPT_FIGURE
1002
{
1000
PSFILL
1000
Grayscale
1000
Grayscale
1070
   100
1002
}
  0
LINE
  5
3B53
  8
YODOROGO
 10
27801.604341291921
 20
1914.7865807937051
 30
0.0
 11
27801.604341291921
 21
1939.749496429288
 31
0.0
1001
AUTOCAD_POSTSCRIPT_FIGURE
1002
{
1000
PSFILL
1000
Grayscale
1000
Grayscale
1070
   100
1002
}
  0
LINE
  5
3B54
  8
YODOROGO
 10
27777.604341291921
 20
1859.776747951671
 30
0.0
 11
27801.604341291921
 21
1914.7865807937051
 31
0.0
1001
AUTOCAD_POSTSCRIPT_FIGURE
1002
{
1000
PSFILL
1000
Grayscale
1000
Grayscale
1070
   100
1002
}
  0
LINE
  5
3B55
  8
YODOROGO
 10
27777.604341291921
 20
1843.776747951672
 30
0.0
 11
27777.604341291921
 21
1859.776747951671
 31
0.0
1001
AUTOCAD_POSTSCRIPT_FIGURE
1002
{
1000
PSFILL
1000
Grayscale
1000
Grayscale
1070
   100
1002
}
  0
LINE
  5
3B56
  8
YODOROGO
 10
28257.604341291921
 20
1867.7494964292871
 30
0.0
 11
28401.60434129191
 21
1824.877625640306
 31
0.0
1001
AUTOCAD_POSTSCRIPT_FIGURE
1002
{
1000
PSFILL
1000
Grayscale
1000
Grayscale
1070
   100
1002
}
  0
LINE
  5
3B57
  8
YODOROGO
 10
28401.60434129191
 20
1752.877625640306
 30
0.0
 11
28257.604341291921
 21
1795.7494964292871
 31
0.0
1001
AUTOCAD_POSTSCRIPT_FIGURE
1002
{
1000
PSFILL
1000
Grayscale
1000
Grayscale
1070
   100
1002
}
  0
LINE
  5
3B58
  8
YODOROGO
 10
28401.60434129191
 20
1984.877625640306
 30
0.0
 11
28257.604341291921
 21
2027.749496429288
 31
0.0
1001
AUTOCAD_POSTSCRIPT_FIGURE
1002
{
1000
PSFILL
1000
Grayscale
1000
Grayscale
1070
   100
1002
}
  0
LINE
  5
3B59
  8
YODOROGO
 10
28257.604341291921
 20
1959.749496429288
 30
0.0
 11
28401.60434129191
 21
1916.8776256403071
 31
0.0
1001
AUTOCAD_POSTSCRIPT_FIGURE
1002
{
1000
PSFILL
1000
Grayscale
1000
Grayscale
1070
   100
1002
}
  0
LINE
  5
3B5A
  8
YODOROGO
 10
28257.604341291921
 20
1795.7494964292871
 30
0.0
 11
28257.604341291921
 21
1867.7494964292871
 31
0.0
1001
AUTOCAD_POSTSCRIPT_FIGURE
1002
{
1000
PSFILL
1000
Grayscale
1000
Grayscale
1070
   100
1002
}
  0
LINE
  5
3B5B
  8
YODOROGO
 10
28257.604341291921
 20
2027.749496429288
 30
0.0
 11
28257.604341291921
 21
1959.749496429288
 31
0.0
1001
AUTOCAD_POSTSCRIPT_FIGURE
1002
{
1000
PSFILL
1000
Grayscale
1000
Grayscale
1070
   100
1002
}
  0
LINE
  5
3B5C
  8
YODOROGO
 10
28080.236320206739
 20
1939.749496429288
 30
0.0
 11
28129.60434129191
 21
1747.749496429286
 31
0.0
1001
AUTOCAD_POSTSCRIPT_FIGURE
1002
{
1000
PSFILL
1000
Grayscale
1000
Grayscale
1070
   100
1002
}
  0
LINE
  5
3B5D
  8
YODOROGO
 10
27977.604341291921
 20
1939.749496429288
 30
0.0
 11
28080.236320206739
 21
1939.749496429288
 31
0.0
1001
AUTOCAD_POSTSCRIPT_FIGURE
1002
{
1000
PSFILL
1000
Grayscale
1000
Grayscale
1070
   100
1002
}
  0
LINE
  5
3B5E
  8
YODOROGO
 10
27977.604341291921
 20
1955.7494964292871
 30
0.0
 11
27977.604341291921
 21
1939.749496429288
 31
0.0
1001
AUTOCAD_POSTSCRIPT_FIGURE
1002
{
1000
PSFILL
1000
Grayscale
1000
Grayscale
1070
   100
1002
}
  0
LINE
  5
3B5F
  8
YODOROGO
 10
28076.60687851991
 20
1955.7494964292871
 30
0.0
 11
27977.604341291921
 21
1955.7494964292871
 31
0.0
1001
AUTOCAD_POSTSCRIPT_FIGURE
1002
{
1000
PSFILL
1000
Grayscale
1000
Grayscale
1070
   100
1002
}
  0
LINE
  5
3B60
  8
YODOROGO
 10
28071.162715989711
 20
1979.749496429288
 30
0.0
 11
28076.60687851991
 21
1955.7494964292871
 31
0.0
1001
AUTOCAD_POSTSCRIPT_FIGURE
1002
{
1000
PSFILL
1000
Grayscale
1000
Grayscale
1070
   100
1002
}
  0
LINE
  5
3B61
  8
YODOROGO
 10
28091.162715989711
 20
1979.749496429288
 30
0.0
 11
28071.162715989711
 21
1979.749496429288
 31
0.0
1001
AUTOCAD_POSTSCRIPT_FIGURE
1002
{
1000
PSFILL
1000
Grayscale
1000
Grayscale
1070
   100
1002
}
  0
LINE
  5
3B62
  8
YODOROGO
 10
28095.806878519939
 20
1955.7494964292871
 30
0.0
 11
28091.162715989711
 21
1979.749496429288
 31
0.0
1001
AUTOCAD_POSTSCRIPT_FIGURE
1002
{
1000
PSFILL
1000
Grayscale
1000
Grayscale
1070
   100
1002
}
  0
LINE
  5
3B63
  8
YODOROGO
 10
28121.604341291921
 20
1955.7494964292871
 30
0.0
 11
28095.806878519939
 21
1955.7494964292871
 31
0.0
1001
AUTOCAD_POSTSCRIPT_FIGURE
1002
{
1000
PSFILL
1000
Grayscale
1000
Grayscale
1070
   100
1002
}
  0
LINE
  5
3B64
  8
YODOROGO
 10
28121.604341291921
 20
1979.749496429288
 30
0.0
 11
28121.604341291921
 21
1955.7494964292871
 31
0.0
1001
AUTOCAD_POSTSCRIPT_FIGURE
1002
{
1000
PSFILL
1000
Grayscale
1000
Grayscale
1070
   100
1002
}
  0
LINE
  5
3B65
  8
YODOROGO
 10
28137.604341291921
 20
1979.749496429288
 30
0.0
 11
28121.604341291921
 21
1979.749496429288
 31
0.0
1001
AUTOCAD_POSTSCRIPT_FIGURE
1002
{
1000
PSFILL
1000
Grayscale
1000
Grayscale
1070
   100
1002
}
  0
LINE
  5
3B66
  8
YODOROGO
 10
28137.604341291921
 20
1955.7494964292871
 30
0.0
 11
28137.604341291921
 21
1979.749496429288
 31
0.0
1001
AUTOCAD_POSTSCRIPT_FIGURE
1002
{
1000
PSFILL
1000
Grayscale
1000
Grayscale
1070
   100
1002
}
  0
LINE
  5
3B67
  8
YODOROGO
 10
28137.604341291921
 20
1939.749496429288
 30
0.0
 11
28137.604341291921
 21
1955.7494964292871
 31
0.0
1001
AUTOCAD_POSTSCRIPT_FIGURE
1002
{
1000
PSFILL
1000
Grayscale
1000
Grayscale
1070
   100
1002
}
  0
LINE
  5
3B68
  8
YODOROGO
 10
28098.902986873411
 20
1939.749496429288
 30
0.0
 11
28137.604341291921
 21
1939.749496429288
 31
0.0
1001
AUTOCAD_POSTSCRIPT_FIGURE
1002
{
1000
PSFILL
1000
Grayscale
1000
Grayscale
1070
   100
1002
}
  0
LINE
  5
3B69
  8
YODOROGO
 10
28137.604341291921
 20
1747.749496429286
 30
0.0
 11
28098.902986873411
 21
1939.749496429288
 31
0.0
1001
AUTOCAD_POSTSCRIPT_FIGURE
1002
{
1000
PSFILL
1000
Grayscale
1000
Grayscale
1070
   100
1002
}
  0
LINE
  5
3B6A
  8
YODOROGO
 10
28129.60434129191
 20
1747.749496429286
 30
0.0
 11
28137.604341291921
 21
1747.749496429286
 31
0.0
1001
AUTOCAD_POSTSCRIPT_FIGURE
1002
{
1000
PSFILL
1000
Grayscale
1000
Grayscale
1070
   100
1002
}
  0
LINE
  5
3B6B
  8
YODOROGO
 10
28078.06921993379
 20
1775.7407762987939
 30
0.0
 11
27977.604341291921
 21
1747.749496429286
 31
0.0
  0
LINE
  5
3B6C
  8
YODOROGO
 10
28078.06921993379
 20
1798.6689795290731
 30
0.0
 11
28078.06921993379
 21
1775.7407762987939
 31
0.0
  0
LINE
  5
3B6D
  8
YODOROGO
 10
28033.83678061287
 20
1786.816933133767
 30
0.0
 11
28078.06921993379
 21
1798.6689795290731
 31
0.0
  0
LINE
  5
3B6E
  8
YODOROGO
 10
28033.83678061287
 20
1872.5683489362989
 30
0.0
 11
28033.83678061287
 21
1786.816933133767
 31
0.0
  0
LINE
  5
3B6F
  8
YODOROGO
 10
28078.06921993379
 20
1872.5683489362989
 30
0.0
 11
28033.83678061287
 21
1872.5683489362989
 31
0.0
  0
LINE
  5
3B70
  8
YODOROGO
 10
28078.06921993379
 20
1892.568348936298
 30
0.0
 11
28078.06921993379
 21
1872.5683489362989
 31
0.0
  0
LINE
  5
3B71
  8
YODOROGO
 10
27977.604341291921
 20
1892.568348936298
 30
0.0
 11
28078.06921993379
 21
1892.568348936298
 31
0.0
  0
LINE
  5
3B72
  8
YODOROGO
 10
27977.604341291921
 20
1872.5683489362989
 30
0.0
 11
27977.604341291921
 21
1892.568348936298
 31
0.0
  0
LINE
  5
3B73
  8
YODOROGO
 10
28021.836780612852
 20
1872.5683489362989
 30
0.0
 11
27977.604341291921
 21
1872.5683489362989
 31
0.0
  0
LINE
  5
3B74
  8
YODOROGO
 10
28021.836780612852
 20
1784.673339594317
 30
0.0
 11
28021.836780612852
 21
1872.5683489362989
 31
0.0
  0
LINE
  5
3B75
  8
YODOROGO
 10
27977.604341291921
 20
1771.749496429286
 30
0.0
 11
28021.836780612852
 21
1784.673339594317
 31
0.0
  0
LINE
  5
3B76
  8
YODOROGO
 10
27977.604341291921
 20
1747.749496429286
 30
0.0
 11
27977.604341291921
 21
1771.749496429286
 31
0.0
  0
LINE
  5
3B77
  8
YODOROGO
 10
28001.604341291921
 20
1707.749496429288
 30
0.0
 11
28001.604341291921
 21
1683.7494964292871
 31
0.0
  0
LINE
  5
3B78
  8
YODOROGO
 10
28017.604341291921
 20
1707.749496429288
 30
0.0
 11
28001.604341291921
 21
1707.749496429288
 31
0.0
  0
LINE
  5
3B79
  8
YODOROGO
 10
28017.604341291921
 20
1683.7494964292871
 30
0.0
 11
28017.604341291921
 21
1707.749496429288
 31
0.0
  0
LINE
  5
3B7A
  8
YODOROGO
 10
28040.913204016892
 20
1683.7494964292871
 30
0.0
 11
28017.604341291921
 21
1683.7494964292871
 31
0.0
  0
LINE
  5
3B7B
  8
YODOROGO
 10
28001.604341291921
 20
1683.7494964292871
 30
0.0
 11
27977.604341291921
 21
1683.7494964292871
 31
0.0
  0
LINE
  5
3B7C
  8
YODOROGO
 10
28082.135520230921
 20
1707.749496429288
 30
0.0
 11
28098.135520230931
 21
1707.749496429288
 31
0.0
1001
AUTOCAD_POSTSCRIPT_FIGURE
1002
{
1000
PSFILL
1000
Grayscale
1000
Grayscale
1070
   100
1002
}
  0
LINE
  5
3B7D
  8
YODOROGO
 10
28401.60434129191
 20
1824.877625640306
 30
0.0
 11
28401.60434129191
 21
1752.877625640306
 31
0.0
1001
AUTOCAD_POSTSCRIPT_FIGURE
1002
{
1000
PSFILL
1000
Grayscale
1000
Grayscale
1070
   100
1002
}
  0
LINE
  5
3B7E
  8
YODOROGO
 10
28401.60434129191
 20
1916.8776256403071
 30
0.0
 11
28401.60434129191
 21
1984.877625640306
 31
0.0
1001
AUTOCAD_POSTSCRIPT_FIGURE
1002
{
1000
PSFILL
1000
Grayscale
1000
Grayscale
1070
   100
1002
}
  0
LINE
  5
3B7F
  8
YODOROGO
 10
28433.60434129191
 20
1819.7494964292871
 30
0.0
 11
28433.60434129191
 21
1747.74949642929
 31
0.0
  0
LINE
  5
3B80
  8
YODOROGO
 10
28497.60434129191
 20
1707.749496429288
 30
0.0
 11
28433.60434129191
 21
1707.749496429288
 31
0.0
  0
LINE
  5
3B81
  8
YODOROGO
 10
28433.60434129191
 20
1747.74949642929
 30
0.0
 11
28585.604341291921
 21
1747.74949642929
 31
0.0
  0
LINE
  5
3B82
  8
YODOROGO
 10
28497.60434129191
 20
1867.7494964292871
 30
0.0
 11
28433.60434129191
 21
1867.7494964292871
 31
0.0
  0
LINE
  5
3B83
  8
YODOROGO
 10
28497.60434129191
 20
1923.7494964292871
 30
0.0
 11
28497.60434129191
 21
1867.7494964292871
 31
0.0
  0
LINE
  5
3B84
  8
YODOROGO
 10
28585.604341291921
 20
1987.7494964292871
 30
0.0
 11
28585.604341291921
 21
2027.749496429288
 31
0.0
  0
LINE
  5
3B85
  8
YODOROGO
 10
28433.60434129191
 20
1987.7494964292871
 30
0.0
 11
28585.604341291921
 21
1987.7494964292871
 31
0.0
  0
LINE
  5
3B86
  8
YODOROGO
 10
28433.60434129191
 20
1867.7494964292871
 30
0.0
 11
28433.60434129191
 21
1987.7494964292871
 31
0.0
  0
LINE
  5
3B87
  8
YODOROGO
 10
29001.60434129191
 20
2027.749496429288
 30
0.0
 11
29001.60434129191
 21
1619.749496429288
 31
0.0
  0
LINE
  5
3B88
  8
YODOROGO
 10
29073.604341291921
 20
1579.749496429288
 30
0.0
 11
29073.604341291921
 21
2027.749496429288
 31
0.0
  0
LINE
  5
3B89
  8
YODOROGO
 10
29261.604341291921
 20
1491.749496429286
 30
0.0
 11
29261.604341291921
 21
2007.749496429288
 31
0.0
  0
LINE
  5
3B8A
  8
YODOROGO
 10
29197.604341291921
 20
2007.749496429288
 30
0.0
 11
29197.604341291921
 21
1491.749496429286
 31
0.0
  0
LINE
  5
3B8B
  8
YODOROGO
 10
29385.604341291921
 20
2027.749496429288
 30
0.0
 11
29385.604341291921
 21
1427.749496429288
 31
0.0
  0
LINE
  5
3B8C
  8
YODOROGO
 10
29457.604341291921
 20
1427.749496429288
 30
0.0
 11
29457.604341291921
 21
2027.749496429288
 31
0.0
  0
LINE
  5
3B8D
  8
YODOROGO
 10
28657.604341291921
 20
1667.749496429288
 30
0.0
 11
28657.604341291921
 21
1747.74949642929
 31
0.0
  0
LINE
  5
3B8E
  8
YODOROGO
 10
29885.604341291921
 20
1707.749496429288
 30
0.0
 11
29885.604341291921
 21
1667.749496429288
 31
0.0
  0
LINE
  5
3B8F
  8
YODOROGO
 10
29885.604341291921
 20
1707.749496429288
 30
0.0
 11
29885.604341291921
 21
1667.749496429288
 31
0.0
  0
ARC
  5
3B90
  8
YODOROGO
 10
28906.911576186842
 20
1618.217864442272
 30
0.0
 40
94.705151178741644
 50
274.05244162907098
 51
0.9266642149310712
  0
ARC
  5
3B91
  8
YODOROGO
 10
28909.186170719819
 20
1592.61072861044
 30
0.0
 40
164.92042356085511
 50
271.5351210653775
 51
355.52727750585052
  0
LINE
  5
3B92
  8
YODOROGO
 10
28913.604341291921
 20
1523.7494964292871
 30
0.0
 11
28913.604341291921
 21
1427.749496429288
 31
0.0
  0
LINE
  5
3B93
  8
YODOROGO
 10
28793.60434129191
 20
1667.749496429288
 30
0.0
 11
28657.604341291921
 21
1667.749496429288
 31
0.0
  0
LINE
  5
3B94
  8
YODOROGO
 10
28793.60434129191
 20
1603.7494964292871
 30
0.0
 11
28793.60434129191
 21
1667.749496429288
 31
0.0
  0
LINE
  5
3B95
  8
YODOROGO
 10
28657.604341291921
 20
1603.7494964292871
 30
0.0
 11
28793.60434129191
 21
1603.7494964292871
 31
0.0
  0
LINE
  5
3B96
  8
YODOROGO
 10
28657.604341291921
 20
1523.7494964292871
 30
0.0
 11
28657.604341291921
 21
1603.7494964292871
 31
0.0
  0
LINE
  5
3B97
  8
YODOROGO
 10
28793.60434129191
 20
1523.7494964292871
 30
0.0
 11
28657.604341291921
 21
1523.7494964292871
 31
0.0
  0
LINE
  5
3B98
  8
YODOROGO
 10
28793.60434129191
 20
1427.749496429288
 30
0.0
 11
28793.60434129191
 21
1523.7494964292871
 31
0.0
  0
LINE
  5
3B99
  8
YODOROGO
 10
29197.604341291921
 20
1491.749496429286
 30
0.0
 11
29261.604341291921
 21
1491.749496429286
 31
0.0
  0
LINE
  5
3B9A
  8
YODOROGO
 10
29385.604341291921
 20
1427.749496429288
 30
0.0
 11
29457.604341291921
 21
1427.749496429288
 31
0.0
  0
LINE
  5
3B9B
  8
YODOROGO
 10
29737.604341291921
 20
1528.4414521705639
 30
0.0
 11
29737.604341291921
 21
1427.749496429288
 31
0.0
  0
LINE
  5
3B9C
  8
YODOROGO
 10
29617.604341291921
 20
1427.749496429288
 30
0.0
 11
29737.604341291921
 21
1528.4414521705639
 31
0.0
  0
LINE
  5
3B9D
  8
YODOROGO
 10
29617.604341291921
 20
1547.749496429288
 30
0.0
 11
29617.604341291921
 21
1427.749496429288
 31
0.0
  0
LINE
  5
3B9E
  8
YODOROGO
 10
29712.94462869945
 20
1627.749496429288
 30
0.0
 11
29617.604341291921
 21
1547.749496429288
 31
0.0
  0
LINE
  5
3B9F
  8
YODOROGO
 10
29617.604341291921
 20
1627.749496429288
 30
0.0
 11
29712.94462869945
 21
1627.749496429288
 31
0.0
  0
LINE
  5
3BA0
  8
YODOROGO
 10
29617.604341291921
 20
1667.749496429288
 30
0.0
 11
29617.604341291921
 21
1627.749496429288
 31
0.0
  0
LINE
  5
3BA1
  8
YODOROGO
 10
29885.604341291921
 20
1667.749496429288
 30
0.0
 11
29617.604341291921
 21
1667.749496429288
 31
0.0
  0
LINE
  5
3BA2
  8
YODOROGO
 10
29917.604341291921
 20
1627.749496429288
 30
0.0
 11
29777.604341291921
 21
1627.749496429288
 31
0.0
  0
LINE
  5
3BA3
  8
YODOROGO
 10
29777.604341291921
 20
1562.0054374176559
 30
0.0
 11
29771.409872985321
 21
1556.807661346234
 31
0.0
  0
LINE
  5
3BA4
  8
YODOROGO
 10
29777.604341291921
 20
1627.749496429288
 30
0.0
 11
29777.604341291921
 21
1562.0054374176559
 31
0.0
  0
LINE
  5
3BA5
  8
YODOROGO
 10
29737.604341291921
 20
1528.4414521705639
 30
0.0
 11
29737.604341291921
 21
1427.749496429288
 31
0.0
  0
LINE
  5
3BA6
  8
YODOROGO
 10
29617.604341291921
 20
1427.749496429288
 30
0.0
 11
29737.604341291921
 21
1528.4414521705639
 31
0.0
  0
LINE
  5
3BA7
  8
YODOROGO
 10
29617.604341291921
 20
1547.749496429288
 30
0.0
 11
29617.604341291921
 21
1427.749496429288
 31
0.0
  0
LINE
  5
3BA8
  8
YODOROGO
 10
29712.94462869945
 20
1627.749496429288
 30
0.0
 11
29617.604341291921
 21
1547.749496429288
 31
0.0
  0
LINE
  5
3BA9
  8
YODOROGO
 10
29617.604341291921
 20
1627.749496429288
 30
0.0
 11
29712.94462869945
 21
1627.749496429288
 31
0.0
  0
LINE
  5
3BAA
  8
YODOROGO
 10
29617.604341291921
 20
1667.749496429288
 30
0.0
 11
29617.604341291921
 21
1627.749496429288
 31
0.0
  0
LINE
  5
3BAB
  8
YODOROGO
 10
29885.604341291921
 20
1667.749496429288
 30
0.0
 11
29617.604341291921
 21
1667.749496429288
 31
0.0
  0
LINE
  5
3BAC
  8
YODOROGO
 10
28793.60434129191
 20
1747.74949642929
 30
0.0
 11
28793.60434129191
 21
1819.7494964292871
 31
0.0
  0
LINE
  5
3BAD
  8
YODOROGO
 10
28657.604341291921
 20
1747.74949642929
 30
0.0
 11
28793.60434129191
 21
1747.74949642929
 31
0.0
  0
LINE
  5
3BAE
  8
YODOROGO
 10
28729.604341291921
 20
1867.7494964292871
 30
0.0
 11
28729.604341291921
 21
1923.7494964292871
 31
0.0
  0
LINE
  5
3BAF
  8
YODOROGO
 10
28793.60434129191
 20
1867.7494964292871
 30
0.0
 11
28729.604341291921
 21
1867.7494964292871
 31
0.0
  0
LINE
  5
3BB0
  8
YODOROGO
 10
28793.60434129191
 20
1947.749496429288
 30
0.0
 11
28793.60434129191
 21
1867.7494964292871
 31
0.0
  0
ARC
  5
3BB1
  8
YODOROGO
 10
28753.60434129191
 20
1947.749496429288
 30
0.0
 40
40.0
 50
0.0
 51
90.0
  0
LINE
  5
3BB2
  8
YODOROGO
 10
28657.604341291921
 20
1987.7494964292871
 30
0.0
 11
28753.60434129191
 21
1987.7494964292871
 31
0.0
  0
LINE
  5
3BB3
  8
YODOROGO
 10
28657.604341291921
 20
2027.749496429288
 30
0.0
 11
28657.604341291921
 21
1987.7494964292871
 31
0.0
  0
LINE
  5
3BB4
  8
YODOROGO
 10
29073.604341291921
 20
2027.749496429288
 30
0.0
 11
29001.60434129191
 21
2027.749496429288
 31
0.0
  0
LINE
  5
3BB5
  8
YODOROGO
 10
29261.604341291921
 20
2007.749496429288
 30
0.0
 11
29197.604341291921
 21
2007.749496429288
 31
0.0
  0
LINE
  5
3BB6
  8
YODOROGO
 10
29457.604341291921
 20
2027.749496429288
 30
0.0
 11
29385.604341291921
 21
2027.749496429288
 31
0.0
  0
LINE
  5
3BB7
  8
YODOROGO
 10
29673.604341291921
 20
1707.749496429288
 30
0.0
 11
29673.604341291921
 21
1771.7494964292871
 31
0.0
1001
AUTOCAD_POSTSCRIPT_FIGURE
1002
{
1000
PSFILL
1000
Grayscale
1000
Grayscale
1070
    25
1002
}
  0
LINE
  5
3BB8
  8
YODOROGO
 10
29617.604341291921
 20
1707.749496429288
 30
0.0
 11
29673.604341291921
 21
1707.749496429288
 31
0.0
1001
AUTOCAD_POSTSCRIPT_FIGURE
1002
{
1000
PSFILL
1000
Grayscale
1000
Grayscale
1070
    25
1002
}
  0
LINE
  5
3BB9
  8
YODOROGO
 10
29617.604341291921
 20
1819.7494964292871
 30
0.0
 11
29617.604341291921
 21
1707.749496429288
 31
0.0
1001
AUTOCAD_POSTSCRIPT_FIGURE
1002
{
1000
PSFILL
1000
Grayscale
1000
Grayscale
1070
    25
1002
}
  0
LINE
  5
3BBA
  8
YODOROGO
 10
29765.604341291921
 20
1819.7494964292871
 30
0.0
 11
29617.604341291921
 21
1819.7494964292871
 31
0.0
1001
AUTOCAD_POSTSCRIPT_FIGURE
1002
{
1000
PSFILL
1000
Grayscale
1000
Grayscale
1070
    25
1002
}
  0
LINE
  5
3BBB
  8
YODOROGO
 10
29765.604341291921
 20
1859.749496429288
 30
0.0
 11
29765.604341291921
 21
1819.7494964292871
 31
0.0
1001
AUTOCAD_POSTSCRIPT_FIGURE
1002
{
1000
PSFILL
1000
Grayscale
1000
Grayscale
1070
    25
1002
}
  0
LINE
  5
3BBC
  8
YODOROGO
 10
29617.604341291921
 20
1859.749496429288
 30
0.0
 11
29765.604341291921
 21
1859.749496429288
 31
0.0
1001
AUTOCAD_POSTSCRIPT_FIGURE
1002
{
1000
PSFILL
1000
Grayscale
1000
Grayscale
1070
    25
1002
}
  0
LINE
  5
3BBD
  8
YODOROGO
 10
29617.604341291921
 20
1907.7494964292871
 30
0.0
 11
29617.604341291921
 21
1859.749496429288
 31
0.0
1001
AUTOCAD_POSTSCRIPT_FIGURE
1002
{
1000
PSFILL
1000
Grayscale
1000
Grayscale
1070
    25
1002
}
  0
LINE
  5
3BBE
  8
YODOROGO
 10
29765.604341291921
 20
1907.7494964292871
 30
0.0
 11
29617.604341291921
 21
1907.7494964292871
 31
0.0
1001
AUTOCAD_POSTSCRIPT_FIGURE
1002
{
1000
PSFILL
1000
Grayscale
1000
Grayscale
1070
    25
1002
}
  0
LINE
  5
3BBF
  8
YODOROGO
 10
29765.604341291921
 20
1947.749496429288
 30
0.0
 11
29765.604341291921
 21
1907.7494964292871
 31
0.0
1001
AUTOCAD_POSTSCRIPT_FIGURE
1002
{
1000
PSFILL
1000
Grayscale
1000
Grayscale
1070
    25
1002
}
  0
LINE
  5
3BC0
  8
YODOROGO
 10
29617.604341291921
 20
1947.749496429288
 30
0.0
 11
29765.604341291921
 21
1947.749496429288
 31
0.0
1001
AUTOCAD_POSTSCRIPT_FIGURE
1002
{
1000
PSFILL
1000
Grayscale
1000
Grayscale
1070
    25
1002
}
  0
LINE
  5
3BC1
  8
YODOROGO
 10
29617.604341291921
 20
2027.749496429288
 30
0.0
 11
29617.604341291921
 21
1947.749496429288
 31
0.0
1001
AUTOCAD_POSTSCRIPT_FIGURE
1002
{
1000
PSFILL
1000
Grayscale
1000
Grayscale
1070
    25
1002
}
  0
LINE
  5
3BC2
  8
YODOROGO
 10
29665.604341291921
 20
2027.749496429288
 30
0.0
 11
29617.604341291921
 21
2027.749496429288
 31
0.0
1001
AUTOCAD_POSTSCRIPT_FIGURE
1002
{
1000
PSFILL
1000
Grayscale
1000
Grayscale
1070
    25
1002
}
  0
LINE
  5
3BC3
  8
YODOROGO
 10
29665.604341291921
 20
1995.7494964292871
 30
0.0
 11
29665.604341291921
 21
2027.749496429288
 31
0.0
1001
AUTOCAD_POSTSCRIPT_FIGURE
1002
{
1000
PSFILL
1000
Grayscale
1000
Grayscale
1070
    25
1002
}
  0
LINE
  5
3BC4
  8
YODOROGO
 10
29765.604341291921
 20
1995.7494964292871
 30
0.0
 11
29665.604341291921
 21
1995.7494964292871
 31
0.0
1001
AUTOCAD_POSTSCRIPT_FIGURE
1002
{
1000
PSFILL
1000
Grayscale
1000
Grayscale
1070
    25
1002
}
  0
LINE
  5
3BC5
  8
YODOROGO
 10
29765.604341291921
 20
2027.749496429288
 30
0.0
 11
29765.604341291921
 21
1995.7494964292871
 31
0.0
1001
AUTOCAD_POSTSCRIPT_FIGURE
1002
{
1000
PSFILL
1000
Grayscale
1000
Grayscale
1070
    25
1002
}
  0
LINE
  5
3BC6
  8
YODOROGO
 10
29829.604341291921
 20
2027.749496429288
 30
0.0
 11
29765.604341291921
 21
2027.749496429288
 31
0.0
1001
AUTOCAD_POSTSCRIPT_FIGURE
1002
{
1000
PSFILL
1000
Grayscale
1000
Grayscale
1070
    25
1002
}
  0
LINE
  5
3BC7
  8
YODOROGO
 10
29829.604341291921
 20
1995.7494964292871
 30
0.0
 11
29829.604341291921
 21
2027.749496429288
 31
0.0
1001
AUTOCAD_POSTSCRIPT_FIGURE
1002
{
1000
PSFILL
1000
Grayscale
1000
Grayscale
1070
    25
1002
}
  0
LINE
  5
3BC8
  8
YODOROGO
 10
29829.604341291921
 20
1907.7494964292871
 30
0.0
 11
29829.604341291921
 21
1947.749496429288
 31
0.0
1001
AUTOCAD_POSTSCRIPT_FIGURE
1002
{
1000
PSFILL
1000
Grayscale
1000
Grayscale
1070
    25
1002
}
  0
LINE
  5
3BC9
  8
YODOROGO
 10
29829.604341291921
 20
1819.7494964292871
 30
0.0
 11
29829.604341291921
 21
1859.749496429288
 31
0.0
1001
AUTOCAD_POSTSCRIPT_FIGURE
1002
{
1000
PSFILL
1000
Grayscale
1000
Grayscale
1070
    25
1002
}
  0
LINE
  5
3BCA
  8
YODOROGO
 10
29921.60434129191
 20
1771.7494964292871
 30
0.0
 11
29921.60434129191
 21
1707.749496429288
 31
0.0
1001
AUTOCAD_POSTSCRIPT_FIGURE
1002
{
1000
PSFILL
1000
Grayscale
1000
Grayscale
1070
    25
1002
}
  0
LINE
  5
3BCB
  8
YODOROGO
 10
29829.604341291921
 20
1771.7494964292871
 30
0.0
 11
29921.60434129191
 21
1771.7494964292871
 31
0.0
1001
AUTOCAD_POSTSCRIPT_FIGURE
1002
{
1000
PSFILL
1000
Grayscale
1000
Grayscale
1070
    25
1002
}
  0
LINE
  5
3BCC
  8
YODOROGO
 10
29829.604341291921
 20
1707.749496429288
 30
0.0
 11
29829.604341291921
 21
1771.7494964292871
 31
0.0
1001
AUTOCAD_POSTSCRIPT_FIGURE
1002
{
1000
PSFILL
1000
Grayscale
1000
Grayscale
1070
    25
1002
}
  0
LINE
  5
3BCD
  8
YODOROGO
 10
29765.604341291921
 20
1707.749496429288
 30
0.0
 11
29829.604341291921
 21
1707.749496429288
 31
0.0
1001
AUTOCAD_POSTSCRIPT_FIGURE
1002
{
1000
PSFILL
1000
Grayscale
1000
Grayscale
1070
    25
1002
}
  0
LINE
  5
3BCE
  8
YODOROGO
 10
29765.604341291921
 20
1771.7494964292871
 30
0.0
 11
29765.604341291921
 21
1707.749496429288
 31
0.0
1001
AUTOCAD_POSTSCRIPT_FIGURE
1002
{
1000
PSFILL
1000
Grayscale
1000
Grayscale
1070
    25
1002
}
  0
LINE
  5
3BCF
  8
YODOROGO
 10
29673.604341291921
 20
1771.7494964292871
 30
0.0
 11
29765.604341291921
 21
1771.7494964292871
 31
0.0
1001
AUTOCAD_POSTSCRIPT_FIGURE
1002
{
1000
PSFILL
1000
Grayscale
1000
Grayscale
1070
    25
1002
}
  0
ARC
  5
3BD0
  8
YODOROGO
 10
31059.517893357912
 20
1602.6807375155761
 30
0.0
 40
178.22128111072141
 50
281.02627495425338
 51
357.77113575573799
  0
LINE
  5
3BD1
  8
YODOROGO
 10
31413.604341291921
 20
1907.7494964292871
 30
0.0
 11
31165.604341291921
 21
1907.7494964292871
 31
0.0
  0
LINE
  5
3BD2
  8
YODOROGO
 10
31413.604341291921
 20
2027.749496429288
 30
0.0
 11
31165.604341291921
 21
2027.749496429288
 31
0.0
  0
LINE
  5
3BD3
  8
YODOROGO
 10
31165.604341291921
 20
1963.749496429286
 30
0.0
 11
31413.604341291921
 21
1963.749496429286
 31
0.0
  0
LINE
  5
3BD4
  8
YODOROGO
 10
30791.604341291921
 20
1563.7494964292871
 30
0.0
 11
30791.604341291921
 21
1755.7494964292871
 31
0.0
  0
LINE
  5
3BD5
  8
YODOROGO
 10
30763.604341291921
 20
1691.749496429288
 30
0.0
 11
30763.604341291921
 21
1563.7494964292871
 31
0.0
  0
LINE
  5
3BD6
  8
YODOROGO
 10
30723.604341291921
 20
1491.749496429288
 30
0.0
 11
30723.604341291921
 21
1691.749496429288
 31
0.0
  0
LINE
  5
3BD7
  8
YODOROGO
 10
30899.604341291932
 20
1691.749496429288
 30
0.0
 11
30899.604341291932
 21
1491.749496429288
 31
0.0
  0
LINE
  5
3BD8
  8
YODOROGO
 10
30859.604341291932
 20
1563.7494964292871
 30
0.0
 11
30859.604341291932
 21
1691.749496429288
 31
0.0
  0
LINE
  5
3BD9
  8
YODOROGO
 10
30831.604341291921
 20
1755.7494964292871
 30
0.0
 11
30831.604341291921
 21
1563.7494964292871
 31
0.0
  0
LINE
  5
3BDA
  8
YODOROGO
 10
30973.604341291921
 20
2027.749496429288
 30
0.0
 11
30973.604341291921
 21
1467.749496429288
 31
0.0
  0
LINE
  5
3BDB
  8
YODOROGO
 10
30645.604341291921
 20
1427.749496429288
 30
0.0
 11
30645.604341291921
 21
2027.749496429288
 31
0.0
  0
LINE
  5
3BDC
  8
YODOROGO
 10
30697.604341291932
 20
1963.749496429286
 30
0.0
 11
30697.604341291932
 21
1427.749496429288
 31
0.0
  0
LINE
  5
3BDD
  8
YODOROGO
 10
30925.604341291921
 20
1547.749496429288
 30
0.0
 11
30925.604341291921
 21
1963.749496429286
 31
0.0
  0
LINE
  5
3BDE
  8
YODOROGO
 10
30381.604341291932
 20
1627.749496429288
 30
0.0
 11
30381.604341291932
 21
1679.749496429288
 31
0.0
  0
LINE
  5
3BDF
  8
YODOROGO
 10
30617.604341291921
 20
1679.749496429288
 30
0.0
 11
30617.604341291921
 21
1627.749496429288
 31
0.0
  0
LINE
  5
3BE0
  8
YODOROGO
 10
31165.604341291921
 20
1907.7494964292871
 30
0.0
 11
31165.604341291921
 21
1635.7494964292871
 31
0.0
  0
LINE
  5
3BE1
  8
YODOROGO
 10
29949.60434129191
 20
1667.749496429288
 30
0.0
 11
29949.60434129191
 21
1707.749496429288
 31
0.0
  0
LINE
  5
3BE2
  8
YODOROGO
 10
29949.60434129191
 20
1667.749496429288
 30
0.0
 11
29949.60434129191
 21
1707.749496429288
 31
0.0
  0
ARC
  5
3BE3
  8
YODOROGO
 10
30537.604341291921
 20
1507.749496429288
 30
0.0
 40
80.0
 50
270.0
 51
0.0
  0
LINE
  5
3BE4
  8
YODOROGO
 10
30569.604341291921
 20
1599.7494964292871
 30
0.0
 11
30617.604341291921
 21
1599.7494964292871
 31
0.0
  0
LINE
  5
3BE5
  8
YODOROGO
 10
30617.604341291921
 20
1627.749496429288
 30
0.0
 11
30529.604341291939
 21
1627.749496429288
 31
0.0
  0
LINE
  5
3BE6
  8
YODOROGO
 10
30217.604341291921
 20
1667.749496429288
 30
0.0
 11
29949.60434129191
 21
1667.749496429288
 31
0.0
  0
LINE
  5
3BE7
  8
YODOROGO
 10
30217.604341291921
 20
1627.749496429288
 30
0.0
 11
30217.604341291921
 21
1667.749496429288
 31
0.0
  0
LINE
  5
3BE8
  8
YODOROGO
 10
30017.604341291921
 20
1627.749496429288
 30
0.0
 11
30217.604341291921
 21
1627.749496429288
 31
0.0
  0
ARC
  5
3BE9
  8
YODOROGO
 10
30230.05882870136
 20
1868.885714952901
 30
0.0
 40
321.37763628522822
 50
228.6181454618993
 51
245.660289248906
  0
LINE
  5
3BEA
  8
YODOROGO
 10
30105.604341291921
 20
1603.7494964292871
 30
0.0
 11
30097.60434129195
 21
1576.0728158699001
 31
0.0
  0
LINE
  5
3BEB
  8
YODOROGO
 10
30189.604341291921
 20
1603.7494964292871
 30
0.0
 11
30105.604341291921
 21
1603.7494964292871
 31
0.0
  0
LINE
  5
3BEC
  8
YODOROGO
 10
30177.604341291921
 20
1551.817722473427
 30
0.0
 11
30189.604341291921
 21
1603.7494964292871
 31
0.0
  0
ARC
  5
3BED
  8
YODOROGO
 10
30230.05882870045
 20
1868.885714953002
 30
0.0
 40
321.37763628529081
 50
260.60629297969911
 51
267.77903556555862
  0
LINE
  5
3BEE
  8
YODOROGO
 10
30217.604341291921
 20
1427.749496429285
 30
0.0
 11
30217.604341291921
 21
1547.749496429288
 31
0.0
  0
LINE
  5
3BEF
  8
YODOROGO
 10
29937.604341291932
 20
1481.3393349155101
 30
0.0
 11
29937.604341291921
 21
1594.531090531141
 31
0.0
  0
LINE
  5
3BF0
  8
YODOROGO
 10
30217.604341291921
 20
1667.749496429288
 30
0.0
 11
29949.60434129191
 21
1667.749496429288
 31
0.0
  0
LINE
  5
3BF1
  8
YODOROGO
 10
30217.604341291921
 20
1627.749496429288
 30
0.0
 11
30217.604341291921
 21
1667.749496429288
 31
0.0
  0
LINE
  5
3BF2
  8
YODOROGO
 10
30017.604341291921
 20
1627.749496429288
 30
0.0
 11
30217.604341291921
 21
1627.749496429288
 31
0.0
  0
ARC
  5
3BF3
  8
YODOROGO
 10
30230.05882870136
 20
1868.885714952901
 30
0.0
 40
321.37763628522822
 50
228.6181454618993
 51
245.660289248906
  0
LINE
  5
3BF4
  8
YODOROGO
 10
30105.604341291921
 20
1603.7494964292871
 30
0.0
 11
30097.60434129195
 21
1576.0728158699001
 31
0.0
  0
LINE
  5
3BF5
  8
YODOROGO
 10
30189.604341291921
 20
1603.7494964292871
 30
0.0
 11
30105.604341291921
 21
1603.7494964292871
 31
0.0
  0
LINE
  5
3BF6
  8
YODOROGO
 10
30177.604341291921
 20
1551.817722473427
 30
0.0
 11
30189.604341291921
 21
1603.7494964292871
 31
0.0
  0
ARC
  5
3BF7
  8
YODOROGO
 10
30230.05882870045
 20
1868.885714953002
 30
0.0
 40
321.37763628529081
 50
260.60629297969911
 51
267.77903556555862
  0
LINE
  5
3BF8
  8
YODOROGO
 10
30217.604341291921
 20
1427.749496429285
 30
0.0
 11
30217.604341291921
 21
1547.749496429288
 31
0.0
  0
LINE
  5
3BF9
  8
YODOROGO
 10
29937.604341291932
 20
1481.3393349155101
 30
0.0
 11
29937.604341291921
 21
1594.531090531141
 31
0.0
  0
LINE
  5
3BFA
  8
YODOROGO
 10
30433.604341291921
 20
1573.749496429288
 30
0.0
 11
30381.604341291932
 21
1573.749496429288
 31
0.0
  0
LINE
  5
3BFB
  8
YODOROGO
 10
30433.604341291921
 20
1601.749496429285
 30
0.0
 11
30433.604341291921
 21
1573.749496429288
 31
0.0
  0
LINE
  5
3BFC
  8
YODOROGO
 10
30381.604341291932
 20
1601.749496429285
 30
0.0
 11
30433.604341291921
 21
1601.749496429285
 31
0.0
  0
LINE
  5
3BFD
  8
YODOROGO
 10
30381.604341291932
 20
1573.749496429288
 30
0.0
 11
30381.604341291932
 21
1601.749496429285
 31
0.0
  0
LINE
  5
3BFE
  8
YODOROGO
 10
30429.604341291921
 20
1577.7494964292871
 30
0.0
 11
30385.604341291921
 21
1577.7494964292871
 31
0.0
  0
LINE
  5
3BFF
  8
YODOROGO
 10
30429.604341291921
 20
1597.749496429288
 30
0.0
 11
30429.604341291921
 21
1577.7494964292871
 31
0.0
  0
LINE
  5
3C00
  8
YODOROGO
 10
30385.604341291921
 20
1597.749496429288
 30
0.0
 11
30429.604341291921
 21
1597.749496429288
 31
0.0
  0
LINE
  5
3C01
  8
YODOROGO
 10
30385.604341291921
 20
1577.7494964292871
 30
0.0
 11
30385.604341291921
 21
1597.749496429288
 31
0.0
  0
LINE
  5
3C02
  8
YODOROGO
 10
30425.604341291921
 20
1581.749496429286
 30
0.0
 11
30389.604341291921
 21
1581.749496429286
 31
0.0
  0
LINE
  5
3C03
  8
YODOROGO
 10
30425.604341291921
 20
1593.749496429288
 30
0.0
 11
30425.604341291921
 21
1581.749496429286
 31
0.0
  0
LINE
  5
3C04
  8
YODOROGO
 10
30389.604341291921
 20
1593.749496429288
 30
0.0
 11
30425.604341291921
 21
1593.749496429288
 31
0.0
  0
LINE
  5
3C05
  8
YODOROGO
 10
30389.604341291921
 20
1581.749496429286
 30
0.0
 11
30389.604341291921
 21
1593.749496429288
 31
0.0
  0
LINE
  5
3C06
  8
YODOROGO
 10
30421.604341291932
 20
1585.7494964292871
 30
0.0
 11
30393.604341291921
 21
1585.7494964292871
 31
0.0
  0
LINE
  5
3C07
  8
YODOROGO
 10
30421.604341291932
 20
1589.749496429288
 30
0.0
 11
30421.604341291932
 21
1585.7494964292871
 31
0.0
  0
LINE
  5
3C08
  8
YODOROGO
 10
30393.604341291921
 20
1589.749496429288
 30
0.0
 11
30421.604341291932
 21
1589.749496429288
 31
0.0
  0
LINE
  5
3C09
  8
YODOROGO
 10
30393.604341291921
 20
1585.7494964292871
 30
0.0
 11
30393.604341291921
 21
1589.749496429288
 31
0.0
  0
LINE
  5
3C0A
  8
YODOROGO
 10
30465.604341291921
 20
1627.749496429288
 30
0.0
 11
30381.604341291932
 21
1627.749496429288
 31
0.0
  0
LINE
  5
3C0B
  8
YODOROGO
 10
30465.604341291921
 20
1547.749496429288
 30
0.0
 11
30465.604341291921
 21
1627.749496429288
 31
0.0
  0
LINE
  5
3C0C
  8
YODOROGO
 10
30381.604341291932
 20
1547.749496429288
 30
0.0
 11
30465.604341291921
 21
1547.749496429288
 31
0.0
  0
LINE
  5
3C0D
  8
YODOROGO
 10
30381.604341291932
 20
1427.749496429288
 30
0.0
 11
30381.604341291932
 21
1547.749496429288
 31
0.0
  0
LINE
  5
3C0E
  8
YODOROGO
 10
30537.604341291921
 20
1427.749496429288
 30
0.0
 11
30381.604341291932
 21
1427.749496429288
 31
0.0
  0
LINE
  5
3C0F
  8
YODOROGO
 10
30569.604341291921
 20
1571.749496429285
 30
0.0
 11
30569.604341291921
 21
1599.7494964292871
 31
0.0
  0
ARC
  5
3C10
  8
YODOROGO
 10
30545.604341291921
 20
1571.749496429291
 30
0.0
 40
24.000000000003752
 50
270.0
 51
359.99999999998772
  0
LINE
  5
3C11
  8
YODOROGO
 10
30529.604341291939
 20
1547.749496429288
 30
0.0
 11
30545.604341291921
 21
1547.749496429288
 31
0.0
  0
LINE
  5
3C12
  8
YODOROGO
 10
30529.604341291939
 20
1627.749496429288
 30
0.0
 11
30529.604341291939
 21
1547.749496429288
 31
0.0
  0
LINE
  5
3C13
  8
YODOROGO
 10
30899.604341291932
 20
1547.749496429288
 30
0.0
 11
30925.604341291921
 21
1547.749496429288
 31
0.0
  0
LINE
  5
3C14
  8
YODOROGO
 10
30933.604341291921
 20
1427.749496429288
 30
0.0
 11
30899.604341291932
 21
1427.749496429288
 31
0.0
  0
LINE
  5
3C15
  8
YODOROGO
 10
30763.604341291921
 20
1563.7494964292871
 30
0.0
 11
30791.604341291921
 21
1563.7494964292871
 31
0.0
  0
LINE
  5
3C16
  8
YODOROGO
 10
30899.604341291932
 20
1491.749496429288
 30
0.0
 11
30723.604341291921
 21
1491.749496429288
 31
0.0
  0
LINE
  5
3C17
  8
YODOROGO
 10
30831.604341291921
 20
1563.7494964292871
 30
0.0
 11
30859.604341291932
 21
1563.7494964292871
 31
0.0
  0
LINE
  5
3C18
  8
YODOROGO
 10
30899.604341291932
 20
1427.749496429288
 30
0.0
 11
30899.604341291932
 21
1547.749496429288
 31
0.0
  0
LINE
  5
3C19
  8
YODOROGO
 10
30697.604341291932
 20
1427.749496429288
 30
0.0
 11
30645.604341291921
 21
1427.749496429288
 31
0.0
  0
LINE
  5
3C1A
  8
YODOROGO
 10
30617.604341291921
 20
1599.7494964292871
 30
0.0
 11
30617.604341291921
 21
1507.749496429288
 31
0.0
  0
ARC
  5
3C1B
  8
YODOROGO
 10
30933.604341291921
 20
1467.749496429288
 30
0.0
 40
40.0
 50
270.0
 51
0.0
  0
LINE
  5
3C1C
  8
YODOROGO
 10
31093.604341291921
 20
1523.7494964292871
 30
0.0
 11
31093.604341291921
 21
1427.749496429288
 31
0.0
  0
ARC
  5
3C1D
  8
YODOROGO
 10
31039.721395566768
 20
1637.5313901097329
 30
0.0
 40
125.8955565916754
 50
295.34052442160112
 51
359.18902303418679
  0
LINE
  5
3C1E
  8
YODOROGO
 10
30617.604341291921
 20
1859.749496429288
 30
0.0
 11
30497.604341291921
 21
1939.749496429288
 31
0.0
  0
LINE
  5
3C1F
  8
YODOROGO
 10
30497.604341291921
 20
2027.749496429288
 30
0.0
 11
30617.604341291921
 21
1947.749496429288
 31
0.0
  0
LINE
  5
3C20
  8
YODOROGO
 10
30529.604341291939
 20
1679.749496429288
 30
0.0
 11
30617.604341291921
 21
1679.749496429288
 31
0.0
  0
LINE
  5
3C21
  8
YODOROGO
 10
30617.604341291921
 20
1735.7494964292871
 30
0.0
 11
30529.604341291939
 21
1735.7494964292871
 31
0.0
  0
LINE
  5
3C22
  8
YODOROGO
 10
30381.604341291932
 20
1795.7494964292871
 30
0.0
 11
30617.604341291921
 21
1795.7494964292871
 31
0.0
  0
LINE
  5
3C23
  8
YODOROGO
 10
30081.604341291921
 20
2027.749496429288
 30
0.0
 11
30021.604341291921
 21
2027.749496429288
 31
0.0
  0
LINE
  5
3C24
  8
YODOROGO
 10
30081.604341291921
 20
1827.7494964292871
 30
0.0
 11
30081.604341291921
 21
2027.749496429288
 31
0.0
  0
LINE
  5
3C25
  8
YODOROGO
 10
30021.604341291921
 20
1827.7494964292871
 30
0.0
 11
30081.604341291921
 21
1827.7494964292871
 31
0.0
  0
LINE
  5
3C26
  8
YODOROGO
 10
30021.604341291921
 20
2027.749496429288
 30
0.0
 11
30021.604341291921
 21
1827.7494964292871
 31
0.0
  0
LINE
  5
3C27
  8
YODOROGO
 10
30161.604341291921
 20
2027.749496429288
 30
0.0
 11
30217.604341291921
 21
2027.749496429288
 31
0.0
  0
LINE
  5
3C28
  8
YODOROGO
 10
30161.604341291921
 20
1811.749496429288
 30
0.0
 11
30161.604341291921
 21
2027.749496429288
 31
0.0
  0
ARC
  5
3C29
  8
YODOROGO
 10
30121.604341291921
 20
1811.749496429288
 30
0.0
 40
40.0
 50
270.0
 51
0.0
  0
LINE
  5
3C2A
  8
YODOROGO
 10
30021.604341291921
 20
1771.7494964292871
 30
0.0
 11
30121.604341291921
 21
1771.7494964292871
 31
0.0
  0
LINE
  5
3C2B
  8
YODOROGO
 10
30021.604341291921
 20
1707.749496429288
 30
0.0
 11
30021.604341291921
 21
1771.7494964292871
 31
0.0
  0
LINE
  5
3C2C
  8
YODOROGO
 10
30137.604341291921
 20
1707.749496429288
 30
0.0
 11
30021.604341291921
 21
1707.749496429288
 31
0.0
  0
ARC
  5
3C2D
  8
YODOROGO
 10
30137.604341291921
 20
1787.7494964292871
 30
0.0
 40
80.0
 50
270.0
 51
0.0
  0
LINE
  5
3C2E
  8
YODOROGO
 10
30217.604341291921
 20
2027.749496429288
 30
0.0
 11
30217.604341291921
 21
1787.7494964292871
 31
0.0
  0
LINE
  5
3C2F
  8
YODOROGO
 10
29977.604341291921
 20
1947.749496429288
 30
0.0
 11
29977.604341291921
 21
1995.7494964292871
 31
0.0
1001
AUTOCAD_POSTSCRIPT_FIGURE
1002
{
1000
PSFILL
1000
Grayscale
1000
Grayscale
1070
    25
1002
}
  0
LINE
  5
3C30
  8
YODOROGO
 10
29977.604341291921
 20
1859.749496429288
 30
0.0
 11
29977.604341291921
 21
1907.7494964292871
 31
0.0
1001
AUTOCAD_POSTSCRIPT_FIGURE
1002
{
1000
PSFILL
1000
Grayscale
1000
Grayscale
1070
    25
1002
}
  0
LINE
  5
3C31
  8
YODOROGO
 10
29977.604341291921
 20
1707.749496429288
 30
0.0
 11
29977.604341291921
 21
1819.7494964292871
 31
0.0
1001
AUTOCAD_POSTSCRIPT_FIGURE
1002
{
1000
PSFILL
1000
Grayscale
1000
Grayscale
1070
    25
1002
}
  0
LINE
  5
3C32
  8
YODOROGO
 10
30381.604341291932
 20
1907.7494964292871
 30
0.0
 11
30497.604341291921
 21
2027.749496429288
 31
0.0
  0
LINE
  5
3C33
  8
YODOROGO
 10
30381.604341291932
 20
1819.7494964292871
 30
0.0
 11
30381.604341291932
 21
1907.7494964292871
 31
0.0
  0
LINE
  5
3C34
  8
YODOROGO
 10
30497.604341291921
 20
1939.749496429288
 30
0.0
 11
30381.604341291932
 21
1819.7494964292871
 31
0.0
  0
LINE
  5
3C35
  8
YODOROGO
 10
30465.604341291921
 20
1679.749496429288
 30
0.0
 11
30465.604341291921
 21
1735.7494964292871
 31
0.0
  0
LINE
  5
3C36
  8
YODOROGO
 10
30381.604341291932
 20
1679.749496429288
 30
0.0
 11
30465.604341291921
 21
1679.749496429288
 31
0.0
  0
LINE
  5
3C37
  8
YODOROGO
 10
30529.604341291939
 20
1735.7494964292871
 30
0.0
 11
30529.604341291939
 21
1679.749496429288
 31
0.0
  0
LINE
  5
3C38
  8
YODOROGO
 10
30381.604341291932
 20
1735.7494964292871
 30
0.0
 11
30381.604341291932
 21
1795.7494964292871
 31
0.0
  0
LINE
  5
3C39
  8
YODOROGO
 10
30465.604341291921
 20
1735.7494964292871
 30
0.0
 11
30381.604341291932
 21
1735.7494964292871
 31
0.0
  0
LINE
  5
3C3A
  8
YODOROGO
 10
30645.604341291921
 20
2027.749496429288
 30
0.0
 11
30973.604341291921
 21
2027.749496429288
 31
0.0
  0
LINE
  5
3C3B
  8
YODOROGO
 10
30925.604341291921
 20
1963.749496429286
 30
0.0
 11
30697.604341291932
 21
1963.749496429286
 31
0.0
  0
LINE
  5
3C3C
  8
YODOROGO
 10
30873.604341291921
 20
1819.7494964292871
 30
0.0
 11
30899.604341291932
 21
1819.7494964292871
 31
0.0
  0
LINE
  5
3C3D
  8
YODOROGO
 10
30899.604341291932
 20
1939.749496429288
 30
0.0
 11
30873.604341291921
 21
1819.7494964292871
 31
0.0
  0
LINE
  5
3C3E
  8
YODOROGO
 10
30851.604341291939
 20
1939.749496429288
 30
0.0
 11
30899.604341291932
 21
1939.749496429288
 31
0.0
  0
LINE
  5
3C3F
  8
YODOROGO
 10
30825.604341291921
 20
1819.7494964292871
 30
0.0
 11
30851.604341291939
 21
1939.749496429288
 31
0.0
  0
LINE
  5
3C40
  8
YODOROGO
 10
30797.604341291921
 20
1819.7494964292871
 30
0.0
 11
30825.604341291921
 21
1819.7494964292871
 31
0.0
  0
LINE
  5
3C41
  8
YODOROGO
 10
30771.604341291939
 20
1939.749496429288
 30
0.0
 11
30797.604341291921
 21
1819.7494964292871
 31
0.0
  0
LINE
  5
3C42
  8
YODOROGO
 10
30723.604341291921
 20
1939.749496429288
 30
0.0
 11
30771.604341291939
 21
1939.749496429288
 31
0.0
  0
LINE
  5
3C43
  8
YODOROGO
 10
30749.604341291921
 20
1819.7494964292871
 30
0.0
 11
30723.604341291921
 21
1939.749496429288
 31
0.0
  0
LINE
  5
3C44
  8
YODOROGO
 10
30723.604341291921
 20
1819.7494964292871
 30
0.0
 11
30749.604341291921
 21
1819.7494964292871
 31
0.0
  0
LINE
  5
3C45
  8
YODOROGO
 10
30723.604341291921
 20
1755.7494964292871
 30
0.0
 11
30723.604341291921
 21
1819.7494964292871
 31
0.0
  0
LINE
  5
3C46
  8
YODOROGO
 10
30899.604341291932
 20
1755.7494964292871
 30
0.0
 11
30723.604341291921
 21
1755.7494964292871
 31
0.0
  0
LINE
  5
3C47
  8
YODOROGO
 10
30899.604341291932
 20
1819.7494964292871
 30
0.0
 11
30899.604341291932
 21
1755.7494964292871
 31
0.0
  0
LINE
  5
3C48
  8
YODOROGO
 10
30617.604341291921
 20
1947.749496429288
 30
0.0
 11
30617.604341291921
 21
1859.749496429288
 31
0.0
  0
LINE
  5
3C49
  8
YODOROGO
 10
30791.604341291921
 20
1755.7494964292871
 30
0.0
 11
30831.604341291921
 21
1755.7494964292871
 31
0.0
  0
LINE
  5
3C4A
  8
YODOROGO
 10
30723.604341291921
 20
1691.749496429288
 30
0.0
 11
30763.604341291921
 21
1691.749496429288
 31
0.0
  0
LINE
  5
3C4B
  8
YODOROGO
 10
30859.604341291932
 20
1691.749496429288
 30
0.0
 11
30899.604341291932
 21
1691.749496429288
 31
0.0
  0
LINE
  5
3C4C
  8
YODOROGO
 10
30617.604341291921
 20
1795.7494964292871
 30
0.0
 11
30617.604341291921
 21
1735.7494964292871
 31
0.0
  0
LINE
  5
3C4D
  8
YODOROGO
 10
31165.604341291921
 20
2027.749496429288
 30
0.0
 11
31165.604341291921
 21
1963.749496429286
 31
0.0
  0
LINE
  5
3C4E
  8
YODOROGO
 10
31533.604341291921
 20
1595.7494964292871
 30
0.0
 11
31533.60434129191
 21
1811.749496429288
 31
0.0
  0
LINE
  5
3C4F
  8
YODOROGO
 10
31461.60434129191
 20
1987.7494964292871
 30
0.0
 11
31461.60434129191
 21
1635.7494964292871
 31
0.0
  0
LINE
  5
3C50
  8
YODOROGO
 10
31653.604341291921
 20
1427.749496429288
 30
0.0
 11
31653.60434129191
 21
1811.749496429288
 31
0.0
  0
LINE
  5
3C51
  8
YODOROGO
 10
31589.604341291921
 20
1811.749496429288
 30
0.0
 11
31589.604341291921
 21
1427.749496429288
 31
0.0
  0
LINE
  5
3C52
  8
YODOROGO
 10
31237.604341291921
 20
1595.7494964292871
 30
0.0
 11
31237.604341291921
 21
1707.749496429288
 31
0.0
  0
ARC
  5
3C53
  8
YODOROGO
 10
31353.914865116069
 20
1607.790351288558
 30
0.0
 40
180.0924485759885
 50
268.62849102169793
 51
356.16638457330322
  0
LINE
  5
3C54
  8
YODOROGO
 10
31349.604341291939
 20
1527.749496429288
 30
0.0
 11
31349.604341291939
 21
1427.749496429288
 31
0.0
  0
ARC
  5
3C55
  8
YODOROGO
 10
31351.518075724562
 20
1637.838957017655
 30
0.0
 40
110.1060929836122
 50
269.00410209305932
 51
358.91264455492478
  0
LINE
  5
3C56
  8
YODOROGO
 10
31589.604341291921
 20
1427.749496429288
 30
0.0
 11
31653.604341291921
 21
1427.749496429288
 31
0.0
  0
LINE
  5
3C57
  8
YODOROGO
 10
31533.60434129191
 20
1811.749496429288
 30
0.0
 11
31589.604341291921
 21
1811.749496429288
 31
0.0
  0
LINE
  5
3C58
  8
YODOROGO
 10
31621.604341291939
 20
1987.7494964292871
 30
0.0
 11
31461.60434129191
 21
1987.7494964292871
 31
0.0
  0
LINE
  5
3C59
  8
YODOROGO
 10
31533.60434129191
 20
1915.7494964292871
 30
0.0
 11
31661.604341291939
 21
1915.7494964292871
 31
0.0
  0
LINE
  5
3C5A
  8
YODOROGO
 10
31701.604341291939
 20
1875.7494964292871
 30
0.0
 11
31533.60434129191
 21
1875.7494964292871
 31
0.0
  0
LINE
  5
3C5B
  8
YODOROGO
 10
31237.604341291921
 20
1779.749496429288
 30
0.0
 11
31349.604341291939
 21
1779.749496429288
 31
0.0
  0
LINE
  5
3C5C
  8
YODOROGO
 10
31237.604341291921
 20
1835.7494964292871
 30
0.0
 11
31237.604341291921
 21
1779.749496429288
 31
0.0
  0
LINE
  5
3C5D
  8
YODOROGO
 10
31349.604341291939
 20
1835.7494964292871
 30
0.0
 11
31237.604341291921
 21
1835.7494964292871
 31
0.0
  0
LINE
  5
3C5E
  8
YODOROGO
 10
31349.604341291939
 20
1779.749496429288
 30
0.0
 11
31349.604341291939
 21
1835.7494964292871
 31
0.0
  0
LINE
  5
3C5F
  8
YODOROGO
 10
31533.60434129191
 20
1875.7494964292871
 30
0.0
 11
31533.60434129191
 21
1915.7494964292871
 31
0.0
  0
LINE
  5
3C60
  8
YODOROGO
 10
31413.604341291921
 20
1707.749496429288
 30
0.0
 11
31413.604341291921
 21
1907.7494964292871
 31
0.0
  0
LINE
  5
3C61
  8
YODOROGO
 10
31237.604341291921
 20
1707.749496429288
 30
0.0
 11
31413.604341291921
 21
1707.749496429288
 31
0.0
  0
LINE
  5
3C62
  8
YODOROGO
 10
31413.604341291921
 20
1963.749496429286
 30
0.0
 11
31413.604341291921
 21
2027.749496429288
 31
0.0
  0
ARC
  5
3C63
  8
YODOROGO
 10
31621.604341291939
 20
2003.749496429285
 30
0.0
 40
15.999999999994539
 50
270.0
 51
0.0000000000081422
  0
LINE
  5
3C64
  8
YODOROGO
 10
31637.604341291921
 20
2027.749496429288
 30
0.0
 11
31637.604341291921
 21
2003.7494964292871
 31
0.0
  0
LINE
  5
3C65
  8
YODOROGO
 10
31701.604341291939
 20
2027.749496429288
 30
0.0
 11
31637.604341291921
 21
2027.749496429288
 31
0.0
  0
LINE
  5
3C66
  8
YODOROGO
 10
31701.604341291939
 20
1955.7494964292871
 30
0.0
 11
31701.604341291939
 21
2027.749496429288
 31
0.0
  0
ARC
  5
3C67
  8
YODOROGO
 10
31661.604341291939
 20
1955.7494964292871
 30
0.0
 40
40.0
 50
270.0
 51
0.0
  0
LINE
  5
3C68
  8
YODOROGO
 10
31701.604341291939
 20
1811.749496429288
 30
0.0
 11
31701.604341291939
 21
1875.7494964292871
 31
0.0
  0
LINE
  5
3C69
  8
YODOROGO
 10
31653.60434129191
 20
1811.749496429288
 30
0.0
 11
31701.604341291939
 21
1811.749496429288
 31
0.0
  0
LINE
  5
3C6D
  8
SUNPOU
  6
CONTINUOUS
 62
     4
 10
13980.475862999991
 20
20126.93456699996
 30
0.0
 11
13980.475862999991
 21
20676.939845999968
 31
0.0
  0
LINE
  5
3C6E
  8
SUNPOU
  6
CONTINUOUS
 62
     4
 10
13894.975863
 20
20596.939845999968
 30
0.0
 11
13654.975863
 21
20596.939845999968
 31
0.0
  0
LINE
  5
3C6F
  8
SUNPOU
  6
CONTINUOUS
 62
     4
 10
13977.475862999991
 20
20596.939845999968
 30
0.0
 11
14217.475862999991
 21
20596.939845999968
 31
0.0
  0
LINE
  5
3C70
  8
SUNPOU
  6
CONTINUOUS
 62
     4
 10
13894.975863
 20
20596.939845999968
 30
0.0
 11
13977.475862999991
 21
20596.939845999968
 31
0.0
  0
LINE
  5
3C71
  8
SUNPOU
  6
CONTINUOUS
 62
     4
 10
10540.975862999991
 20
20126.93456699996
 30
0.0
 11
10540.975862999991
 21
20676.939845999968
 31
0.0
  0
LINE
  5
3C72
  8
SUNPOU
  6
CONTINUOUS
 62
     4
 10
10626.475863
 20
20596.939845999968
 30
0.0
 11
10866.475863
 21
20596.939845999968
 31
0.0
  0
LINE
  5
3C73
  8
SUNPOU
  6
CONTINUOUS
 62
     4
 10
10543.975862999991
 20
20596.939845999968
 30
0.0
 11
10303.975863
 21
20596.939845999968
 31
0.0
  0
LINE
  5
3C74
  8
SUNPOU
  6
CONTINUOUS
 62
     4
 10
10626.475863
 20
20596.939845999968
 30
0.0
 11
10543.975862999991
 21
20596.939845999968
 31
0.0
  0
LINE
  5
3C75
  8
SUNPOU
  6
CONTINUOUS
 62
     4
 10
13894.975863
 20
20596.939845999968
 30
0.0
 11
10626.475863
 21
20596.939845999968
 31
0.0
  0
LINE
  5
3C76
  8
SUNPOU
  6
CONTINUOUS
 62
     4
 10
10463.96804399999
 20
14076.439648
 30
0.0
 11
9616.9726229999978
 21
14076.439648
 31
0.0
  0
LINE
  5
3C77
  8
SUNPOU
  6
CONTINUOUS
 62
     4
 10
9696.9726229999978
 20
14268.934962999991
 30
0.0
 11
9696.9726229999978
 21
14508.934962999991
 31
0.0
  0
LINE
  5
3C78
  8
SUNPOU
  6
CONTINUOUS
 62
     4
 10
9696.9726229999978
 20
14076.439648
 30
0.0
 11
9696.9726229999978
 21
13836.439648
 31
0.0
  0
LINE
  5
3C79
  8
SUNPOU
  6
CONTINUOUS
 62
     4
 10
9696.9726229999978
 20
14268.934962999991
 30
0.0
 11
9696.9726229999978
 21
14076.439648
 31
0.0
  0
LINE
  5
3C7A
  8
SUNPOU
  6
CONTINUOUS
 62
     4
 10
10327.673736000001
 20
15728.17547450002
 30
0.0
 11
9616.9726229999978
 21
15728.17547450002
 31
0.0
  0
LINE
  5
3C7B
  8
SUNPOU
  6
CONTINUOUS
 62
     4
 10
9696.9726229999978
 20
15728.17547450002
 30
0.0
 11
9696.9726229999978
 21
14268.934962999991
 31
0.0
  0
LINE
  5
3C7C
  8
SUNPOU
  6
CONTINUOUS
 62
     4
 10
10327.673736000001
 20
15728.17547450002
 30
0.0
 11
9616.9726229999978
 21
15728.17547450002
 31
0.0
  0
LINE
  5
3C7D
  8
SUNPOU
  6
CONTINUOUS
 62
     4
 10
9696.9726229999978
 20
17186.934963
 30
0.0
 11
9696.9726229999978
 21
15728.17547450002
 31
0.0
  0
LINE
  5
3C7E
  8
SUNPOU
  6
CONTINUOUS
 62
     4
 10
10327.673736000001
 20
18645.934963
 30
0.0
 11
9616.9726229999978
 21
18645.934963
 31
0.0
  0
LINE
  5
3C7F
  8
SUNPOU
  6
CONTINUOUS
 62
     4
 10
9696.9726229999978
 20
18645.934963
 30
0.0
 11
9696.9726229999978
 21
17186.934963
 31
0.0
  0
LINE
  5
3C80
  8
SUNPOU
  6
CONTINUOUS
 62
     4
 10
10463.96804399999
 20
19956.930872000001
 30
0.0
 11
10016.972622999991
 21
19956.930872000001
 31
0.0
  0
LINE
  5
3C81
  8
SUNPOU
  6
CONTINUOUS
 62
     4
 10
10463.972398999969
 20
19976.930872000001
 30
0.0
 11
10016.972622999991
 21
19976.930872000001
 31
0.0
  0
LINE
  5
3C83
  8
SUNPOU
  6
CONTINUOUS
 62
     4
 10
10096.972622999991
 20
19976.930872000001
 30
0.0
 11
10096.972622999991
 21
20216.930872000012
 31
0.0
  0
LINE
  5
3C84
  8
SUNPOU
  6
CONTINUOUS
 62
     4
 10
10096.972622999991
 20
19936.930872000001
 30
0.0
 11
10096.972622999991
 21
19976.930872000001
 31
0.0
  0
LINE
  5
3C85
  8
SUNPOU
  6
CONTINUOUS
 62
     4
 10
10463.972398999969
 20
19976.930872000001
 30
0.0
 11
9616.9726229999978
 21
19976.930872000001
 31
0.0
  0
LINE
  5
3C86
  8
SUNPOU
  6
CONTINUOUS
 62
     4
 10
9696.9726229999978
 20
19754.434963
 30
0.0
 11
9696.9726229999978
 21
19514.434962999989
 31
0.0
  0
LINE
  5
3C87
  8
SUNPOU
  6
CONTINUOUS
 62
     4
 10
9696.9726229999978
 20
19976.930872000001
 30
0.0
 11
9696.9726229999978
 21
20216.930872000012
 31
0.0
  0
LINE
  5
3C88
  8
SUNPOU
  6
CONTINUOUS
 62
     4
 10
9696.9726229999978
 20
19754.434963
 30
0.0
 11
9696.9726229999978
 21
19976.930872000001
 31
0.0
  0
LINE
  5
3C89
  8
SUNPOU
  6
CONTINUOUS
 62
     4
 10
10327.673736000001
 20
18645.934963
 30
0.0
 11
9616.9726229999978
 21
18645.934963
 31
0.0
  0
LINE
  5
3C8A
  8
SUNPOU
  6
CONTINUOUS
 62
     4
 10
9696.9726229999978
 20
18645.934963
 30
0.0
 11
9696.9726229999978
 21
19754.434963
 31
0.0
  0
LINE
  5
3C8B
  8
SUNPOU
  6
CONTINUOUS
 62
     4
 10
23672.46814199998
 20
19346.934962999989
 30
0.0
 11
24722.469461999979
 21
19346.934962999982
 31
0.0
  0
LINE
  5
3C8C
  8
SUNPOU
  6
CONTINUOUS
 62
     4
 10
24522.469461999979
 20
19754.434963
 30
0.0
 11
24722.469461999979
 21
19754.434962999982
 31
0.0
  0
LINE
  5
3C8D
  8
SUNPOU
  6
CONTINUOUS
 62
     4
 10
24642.469461999979
 20
19346.934962999982
 30
0.0
 11
24642.469461999979
 21
19754.434962999982
 31
0.0
  0
LINE
  5
3C8E
  8
SUNPOU
  6
CONTINUOUS
 62
     4
 10
20158.973552999989
 20
18645.934963
 30
0.0
 11
19272.015280999989
 21
18645.934963
 31
0.0
  0
LINE
  5
3C8F
  8
SUNPOU
  6
CONTINUOUS
 62
     4
 10
19352.015280999982
 20
18645.934963
 30
0.0
 11
19352.015280999982
 21
19754.434963
 31
0.0
  0
LINE
  5
3C90
  8
SUNPOU
  6
CONTINUOUS
 62
     4
 10
20158.973552999989
 20
18645.934963
 30
0.0
 11
19272.015280999989
 21
18645.934963
 31
0.0
  0
LINE
  5
3C91
  8
SUNPOU
  6
CONTINUOUS
 62
     4
 10
19352.015280999982
 20
17186.934963
 30
0.0
 11
19352.015280999982
 21
18645.934963
 31
0.0
  0
LINE
  5
3C92
  8
SUNPOU
  6
CONTINUOUS
 62
     4
 10
20158.973552999989
 20
15728.17547450002
 30
0.0
 11
19272.015280999989
 21
15728.17547450002
 31
0.0
  0
LINE
  5
3C93
  8
SUNPOU
  6
CONTINUOUS
 62
     4
 10
19352.015280999982
 20
15728.17547450002
 30
0.0
 11
19352.015280999982
 21
17186.934963
 31
0.0
  0
LINE
  5
3C94
  8
SUNPOU
  6
CONTINUOUS
 62
     4
 10
20158.973552999989
 20
15728.17547450002
 30
0.0
 11
19272.015280999989
 21
15728.17547450002
 31
0.0
  0
LINE
  5
3C95
  8
SUNPOU
  6
CONTINUOUS
 62
     4
 10
19352.015280999982
 20
14268.934962999991
 30
0.0
 11
19352.015280999982
 21
15728.17547450002
 31
0.0
  0
LINE
  5
3C96
  8
SUNPOU
  6
CONTINUOUS
 62
     4
 10
20281.469858
 20
13563.17152899999
 30
0.0
 11
20281.469858
 21
13217.486878999989
 31
0.0
  0
LINE
  5
3C97
  8
SUNPOU
  6
CONTINUOUS
 62
     4
 10
20238.967615000001
 20
14146.437668
 30
0.0
 11
20238.967615000001
 21
13217.486878999989
 31
0.0
  0
LINE
  5
3C98
  8
SUNPOU
  6
CONTINUOUS
 62
     4
 10
20281.469858
 20
13297.486879
 30
0.0
 11
20521.469858
 21
13297.486879
 31
0.0
  0
LINE
  5
3C99
  8
SUNPOU
  6
CONTINUOUS
 62
     4
 10
20238.967615000001
 20
13297.486879
 30
0.0
 11
19998.967615000001
 21
13297.486879
 31
0.0
  0
LINE
  5
3C9A
  8
SUNPOU
  6
CONTINUOUS
 62
     4
 10
20281.469858
 20
13297.486879
 30
0.0
 11
20238.967615000001
 21
13297.486879
 31
0.0
  0
LINE
  5
3C9B
  8
SUNPOU
  6
CONTINUOUS
 62
     4
 10
23549.969858
 20
13563.17152899999
 30
0.0
 11
23549.969858
 21
13217.486878999989
 31
0.0
  0
LINE
  5
3C9C
  8
SUNPOU
  6
CONTINUOUS
 62
     4
 10
23592.472100999988
 20
14146.437668
 30
0.0
 11
23592.472100999988
 21
13217.486878999989
 31
0.0
  0
LINE
  5
3C9D
  8
SUNPOU
  6
CONTINUOUS
 62
     4
 10
23549.969858
 20
13297.486879
 30
0.0
 11
23309.969858
 21
13297.486879
 31
0.0
  0
LINE
  5
3C9E
  8
SUNPOU
  6
CONTINUOUS
 62
     4
 10
23592.472100999988
 20
13297.486879
 30
0.0
 11
23832.472100999988
 21
13297.486879
 31
0.0
  0
LINE
  5
3C9F
  8
SUNPOU
  6
CONTINUOUS
 62
     4
 10
23549.969858
 20
13297.486879
 30
0.0
 11
23592.472100999988
 21
13297.486879
 31
0.0
  0
LINE
  5
3CA0
  8
SUNPOU
  6
CONTINUOUS
 62
     4
 10
23549.969858
 20
13563.17152899999
 30
0.0
 11
23549.969858
 21
13217.486878999989
 31
0.0
  0
LINE
  5
3CA1
  8
SUNPOU
  6
CONTINUOUS
 62
     4
 10
23507.46761499999
 20
14146.437668
 30
0.0
 11
23507.46761499999
 21
13217.486878999989
 31
0.0
  0
LINE
  5
3CA2
  8
SUNPOU
  6
CONTINUOUS
 62
     4
 10
23549.969858
 20
13297.486879
 30
0.0
 11
23789.969858
 21
13297.486879
 31
0.0
  0
LINE
  5
3CA3
  8
SUNPOU
  6
CONTINUOUS
 62
     4
 10
23507.46761499999
 20
13297.486879
 30
0.0
 11
23267.46761499999
 21
13297.486879
 31
0.0
  0
LINE
  5
3CA4
  8
SUNPOU
  6
CONTINUOUS
 62
     4
 10
23549.969858
 20
13297.486879
 30
0.0
 11
23507.46761499999
 21
13297.486879
 31
0.0
  0
LINE
  5
3CA5
  8
SUNPOU
  6
CONTINUOUS
 62
     4
 10
20281.469858
 20
13563.17152899999
 30
0.0
 11
20281.469858
 21
13217.486878999989
 31
0.0
  0
LINE
  5
3CA6
  8
SUNPOU
  6
CONTINUOUS
 62
     4
 10
20323.972100999981
 20
14146.437668
 30
0.0
 11
20323.972100999981
 21
13217.486878999989
 31
0.0
  0
LINE
  5
3CA7
  8
SUNPOU
  6
CONTINUOUS
 62
     4
 10
20281.469858
 20
13297.486879
 30
0.0
 11
20041.469858
 21
13297.486879
 31
0.0
  0
LINE
  5
3CA8
  8
SUNPOU
  6
CONTINUOUS
 62
     4
 10
20323.972100999981
 20
13297.486879
 30
0.0
 11
20563.972100999981
 21
13297.486879
 31
0.0
  0
LINE
  5
3CA9
  8
SUNPOU
  6
CONTINUOUS
 62
     4
 10
20281.469858
 20
13297.486879
 30
0.0
 11
20323.972100999981
 21
13297.486879
 31
0.0
  0
LINE
  5
3CAA
  8
SUNPOU
  6
CONTINUOUS
 62
     4
 10
20238.967615000001
 20
14146.437668
 30
0.0
 11
20238.967615000001
 21
12817.486878999989
 31
0.0
  0
LINE
  5
3CAB
  8
SUNPOU
  6
CONTINUOUS
 62
     4
 10
23592.472100999988
 20
14146.437668
 30
0.0
 11
23592.472100999988
 21
12817.486878999989
 31
0.0
  0
LINE
  5
3CAC
  8
SUNPOU
  6
CONTINUOUS
 62
     4
 10
20238.967615000001
 20
12897.486878999989
 30
0.0
 11
23592.472100999988
 21
12897.486878999989
 31
0.0
  0
LINE
  5
3CAD
  8
SUNPOU
  6
CONTINUOUS
 62
     4
 10
23672.46814199998
 20
15026.934963
 30
0.0
 11
24722.469461999979
 21
15026.934963
 31
0.0
  0
LINE
  5
3CAE
  8
SUNPOU
  6
CONTINUOUS
 62
     4
 10
24522.469461999979
 20
14268.934962999991
 30
0.0
 11
24722.469461999979
 21
14268.934962999991
 31
0.0
  0
LINE
  5
3CAF
  8
SUNPOU
  6
CONTINUOUS
 62
     4
 10
24642.469461999979
 20
15026.934963
 30
0.0
 11
24642.469461999979
 21
14268.934962999991
 31
0.0
  0
LINE
  5
3CB0
  8
SUNPOU
  6
CONTINUOUS
 62
     4
 10
23672.46814199998
 20
15728.17547450002
 30
0.0
 11
24722.469461999979
 21
15728.17547450002
 31
0.0
  0
LINE
  5
3CB1
  8
SUNPOU
  6
CONTINUOUS
 62
     4
 10
23672.46814199998
 20
15026.934963
 30
0.0
 11
24722.469461999979
 21
15026.934963
 31
0.0
  0
LINE
  5
3CB2
  8
SUNPOU
  6
CONTINUOUS
 62
     4
 10
24642.469461999979
 20
15728.17547450002
 30
0.0
 11
24642.469461999979
 21
15026.934963
 31
0.0
  0
LINE
  5
3CB3
  8
SUNPOU
  6
CONTINUOUS
 62
     4
 10
23672.46814199998
 20
16428.934963
 30
0.0
 11
24722.469461999979
 21
16428.934963
 31
0.0
  0
LINE
  5
3CB4
  8
SUNPOU
  6
CONTINUOUS
 62
     4
 10
23672.46814199998
 20
15728.17547450002
 30
0.0
 11
24722.469461999979
 21
15728.17547450002
 31
0.0
  0
LINE
  5
3CB5
  8
SUNPOU
  6
CONTINUOUS
 62
     4
 10
24642.469461999979
 20
16428.934963
 30
0.0
 11
24642.469461999979
 21
15728.17547450002
 31
0.0
  0
LINE
  5
3CB6
  8
SUNPOU
  6
CONTINUOUS
 62
     4
 10
24522.469461999979
 20
17186.934963
 30
0.0
 11
24722.469461999979
 21
17186.934963
 31
0.0
  0
LINE
  5
3CB7
  8
SUNPOU
  6
CONTINUOUS
 62
     4
 10
23672.46814199998
 20
16428.934963
 30
0.0
 11
24722.469461999979
 21
16428.934963
 31
0.0
  0
LINE
  5
3CB8
  8
SUNPOU
  6
CONTINUOUS
 62
     4
 10
24642.469461999979
 20
17186.934963
 30
0.0
 11
24642.469461999979
 21
16428.934963
 31
0.0
  0
LINE
  5
3CB9
  8
SUNPOU
  6
CONTINUOUS
 62
     4
 10
23672.46814199998
 20
17944.934963
 30
0.0
 11
24722.469461999979
 21
17944.934962999982
 31
0.0
  0
LINE
  5
3CBA
  8
SUNPOU
  6
CONTINUOUS
 62
     4
 10
24522.469461999979
 20
17186.934963
 30
0.0
 11
24722.469461999979
 21
17186.934963
 31
0.0
  0
LINE
  5
3CBB
  8
SUNPOU
  6
CONTINUOUS
 62
     4
 10
24642.469461999979
 20
17944.934962999982
 30
0.0
 11
24642.469461999979
 21
17186.934963
 31
0.0
  0
LINE
  5
3CBC
  8
SUNPOU
  6
CONTINUOUS
 62
     4
 10
23672.46814199998
 20
18645.934963
 30
0.0
 11
24722.469461999979
 21
18645.934962999989
 31
0.0
  0
LINE
  5
3CBD
  8
SUNPOU
  6
CONTINUOUS
 62
     4
 10
23672.46814199998
 20
17944.934963
 30
0.0
 11
24722.469461999979
 21
17944.934962999982
 31
0.0
  0
LINE
  5
3CBE
  8
SUNPOU
  6
CONTINUOUS
 62
     4
 10
24642.469461999979
 20
18645.934962999989
 30
0.0
 11
24642.469461999979
 21
17944.934962999982
 31
0.0
  0
LINE
  5
3CBF
  8
SUNPOU
  6
CONTINUOUS
 62
     4
 10
23672.46814199998
 20
19346.934962999989
 30
0.0
 11
24722.469461999979
 21
19346.934962999982
 31
0.0
  0
LINE
  5
3CC0
  8
SUNPOU
  6
CONTINUOUS
 62
     4
 10
23672.46814199998
 20
18645.934963
 30
0.0
 11
24722.469461999979
 21
18645.934962999989
 31
0.0
  0
LINE
  5
3CC1
  8
SUNPOU
  6
CONTINUOUS
 62
     4
 10
24642.469461999979
 20
19346.934962999982
 30
0.0
 11
24642.469461999979
 21
18645.934962999989
 31
0.0
  0
LINE
  5
3CC2
  8
SUNPOU
  6
CONTINUOUS
 62
     4
 10
24522.469461999979
 20
17186.934963
 30
0.0
 11
25122.469461999979
 21
17186.934963
 31
0.0
  0
LINE
  5
3CC3
  8
SUNPOU
  6
CONTINUOUS
 62
     4
 10
24522.469461999979
 20
19754.434963
 30
0.0
 11
25122.469461999979
 21
19754.434962999982
 31
0.0
  0
LINE
  5
3CC4
  8
SUNPOU
  6
CONTINUOUS
 62
     4
 10
25042.469461999979
 20
17186.934963
 30
0.0
 11
25042.469461999979
 21
19754.434962999982
 31
0.0
  0
LINE
  5
3CC5
  8
SUNPOU
  6
CONTINUOUS
 62
     4
 10
24522.469461999979
 20
14268.934962999991
 30
0.0
 11
25122.469461999979
 21
14268.934962999991
 31
0.0
  0
LINE
  5
3CC6
  8
SUNPOU
  6
CONTINUOUS
 62
     4
 10
24522.469461999979
 20
17186.934963
 30
0.0
 11
25122.469461999979
 21
17186.934963
 31
0.0
  0
LINE
  5
3CC7
  8
SUNPOU
  6
CONTINUOUS
 62
     4
 10
25042.469461999979
 20
14268.934962999991
 30
0.0
 11
25042.469461999979
 21
17186.934963
 31
0.0
  0
LINE
  5
3CC8
  8
SUNPOU
  6
CONTINUOUS
 62
     4
 10
23672.46814199998
 20
19796.932258000001
 30
0.0
 11
25522.46946199999
 21
19796.932258000001
 31
0.0
  0
LINE
  5
3CC9
  8
SUNPOU
  6
CONTINUOUS
 62
     4
 10
23672.46814199998
 20
14226.437668
 30
0.0
 11
25522.46946199999
 21
14226.437668
 31
0.0
  0
LINE
  5
3CCA
  8
SUNPOU
  6
CONTINUOUS
 62
     4
 10
25442.46946199999
 20
19796.932258000001
 30
0.0
 11
25442.46946199999
 21
14226.437668
 31
0.0
  0
LINE
  5
3CCB
  8
SUNPOU
  6
CONTINUOUS
 62
     4
 10
24522.469461999979
 20
19754.434963
 30
0.0
 11
25122.469461999979
 21
19754.434962999982
 31
0.0
  0
LINE
  5
3CCC
  8
SUNPOU
  6
CONTINUOUS
 62
     4
 10
23672.46814199998
 20
19796.932258000001
 30
0.0
 11
25122.469461999979
 21
19796.932258000001
 31
0.0
  0
LINE
  5
3CCD
  8
SUNPOU
  6
CONTINUOUS
 62
     4
 10
25042.469461999979
 20
19754.434962999982
 30
0.0
 11
25042.469461999979
 21
19514.434962999982
 31
0.0
  0
LINE
  5
3CCE
  8
SUNPOU
  6
CONTINUOUS
 62
     4
 10
25042.469461999979
 20
19796.932258000001
 30
0.0
 11
25042.469461999979
 21
20036.932258000001
 31
0.0
  0
LINE
  5
3CCF
  8
SUNPOU
  6
CONTINUOUS
 62
     4
 10
25042.469461999979
 20
19754.434962999982
 30
0.0
 11
25042.469461999979
 21
19796.932258000001
 31
0.0
  0
LINE
  5
3CD0
  8
SUNPOU
  6
CONTINUOUS
 62
     4
 10
24522.469461999979
 20
14268.934962999991
 30
0.0
 11
25122.469461999979
 21
14268.934962999991
 31
0.0
  0
LINE
  5
3CD1
  8
SUNPOU
  6
CONTINUOUS
 62
     4
 10
23672.46814199998
 20
14226.437668
 30
0.0
 11
25122.469461999979
 21
14226.437668
 31
0.0
  0
LINE
  5
3CD2
  8
SUNPOU
  6
CONTINUOUS
 62
     4
 10
25042.469461999979
 20
14268.934962999991
 30
0.0
 11
25042.469461999979
 21
14508.934962999991
 31
0.0
  0
LINE
  5
3CD3
  8
SUNPOU
  6
CONTINUOUS
 62
     4
 10
25042.469461999979
 20
14226.437668
 30
0.0
 11
25042.469461999979
 21
13986.437668
 31
0.0
  0
LINE
  5
3CD4
  8
SUNPOU
  6
CONTINUOUS
 62
     4
 10
25042.469461999979
 20
14268.934962999991
 30
0.0
 11
25042.469461999979
 21
14226.437668
 31
0.0
  0
LINE
  5
3CD5
  8
SUNPOU
  6
CONTINUOUS
 62
     4
 10
20281.469858
 20
19876.933248000008
 30
0.0
 11
20281.469858
 21
20606.936151000031
 31
0.0
  0
LINE
  5
3CD6
  8
SUNPOU
  6
CONTINUOUS
 62
     4
 10
20688.969857999989
 20
19876.933248000008
 30
0.0
 11
20688.969857999989
 21
20606.936151000031
 31
0.0
  0
LINE
  5
3CD7
  8
SUNPOU
  6
CONTINUOUS
 62
     4
 10
20281.469858
 20
20526.936151000031
 30
0.0
 11
20041.469858
 21
20526.936151000031
 31
0.0
  0
LINE
  5
3CD8
  8
SUNPOU
  6
CONTINUOUS
 62
     4
 10
20688.969857999989
 20
20526.936151000031
 30
0.0
 11
20928.969857999989
 21
20526.936151000031
 31
0.0
  0
LINE
  5
3CD9
  8
SUNPOU
  6
CONTINUOUS
 62
     4
 10
20281.469858
 20
20526.936151000031
 30
0.0
 11
20688.969857999989
 21
20526.936151000031
 31
0.0
  0
LINE
  5
3CDA
  8
SUNPOU
  6
CONTINUOUS
 62
     4
 10
22791.969858
 20
19876.933248000008
 30
0.0
 11
22791.969858
 21
20606.936151000031
 31
0.0
  0
LINE
  5
3CDB
  8
SUNPOU
  6
CONTINUOUS
 62
     4
 10
23549.970847500001
 20
19876.933248000008
 30
0.0
 11
23549.970847500001
 21
20606.936151000031
 31
0.0
  0
LINE
  5
3CDC
  8
SUNPOU
  6
CONTINUOUS
 62
     4
 10
22791.969858
 20
20526.936151000031
 30
0.0
 11
23549.970847500001
 21
20526.936151000031
 31
0.0
  0
LINE
  5
3CDD
  8
SUNPOU
  6
CONTINUOUS
 62
     4
 10
22090.969858
 20
19876.933248000008
 30
0.0
 11
22090.969858
 21
20606.936151000031
 31
0.0
  0
LINE
  5
3CDE
  8
SUNPOU
  6
CONTINUOUS
 62
     4
 10
22791.969858
 20
19876.933248000008
 30
0.0
 11
22791.969858
 21
20606.936151000031
 31
0.0
  0
LINE
  5
3CDF
  8
SUNPOU
  6
CONTINUOUS
 62
     4
 10
22090.969858
 20
20526.936151000031
 30
0.0
 11
22791.969858
 21
20526.936151000031
 31
0.0
  0
LINE
  5
3CE0
  8
SUNPOU
  6
CONTINUOUS
 62
     4
 10
21389.969857999989
 20
19876.933248000008
 30
0.0
 11
21389.969857999989
 21
20606.936151000031
 31
0.0
  0
LINE
  5
3CE1
  8
SUNPOU
  6
CONTINUOUS
 62
     4
 10
22090.969858
 20
19876.933248000008
 30
0.0
 11
22090.969858
 21
20606.936151000031
 31
0.0
  0
LINE
  5
3CE2
  8
SUNPOU
  6
CONTINUOUS
 62
     4
 10
21389.969857999989
 20
20526.936151000031
 30
0.0
 11
22090.969858
 21
20526.936151000031
 31
0.0
  0
LINE
  5
3CE3
  8
SUNPOU
  6
CONTINUOUS
 62
     4
 10
20688.969857999989
 20
19876.933248000008
 30
0.0
 11
20688.969857999989
 21
20606.936151000031
 31
0.0
  0
LINE
  5
3CE4
  8
SUNPOU
  6
CONTINUOUS
 62
     4
 10
21389.969857999989
 20
19876.933248000008
 30
0.0
 11
21389.969857999989
 21
20606.936151000031
 31
0.0
  0
LINE
  5
3CE5
  8
SUNPOU
  6
CONTINUOUS
 62
     4
 10
20688.969857999989
 20
20526.936151000031
 30
0.0
 11
21389.969857999989
 21
20526.936151000031
 31
0.0
  0
LINE
  5
3CE6
  8
SUNPOU
  6
CONTINUOUS
 62
     4
 10
23549.969858
 20
19876.933248000008
 30
0.0
 11
23549.969858
 21
20606.936151000031
 31
0.0
  0
LINE
  5
3CE7
  8
SUNPOU
  6
CONTINUOUS
 62
     4
 10
23592.46616299999
 20
19876.933248000008
 30
0.0
 11
23592.46616299999
 21
20606.936151000031
 31
0.0
  0
LINE
  5
3CE8
  8
SUNPOU
  6
CONTINUOUS
 62
     4
 10
23549.969858
 20
20526.936151000031
 30
0.0
 11
23309.969858
 21
20526.936151000031
 31
0.0
  0
LINE
  5
3CE9
  8
SUNPOU
  6
CONTINUOUS
 62
     4
 10
23592.46616299999
 20
20526.936151000031
 30
0.0
 11
23832.46616299999
 21
20526.936151000031
 31
0.0
  0
LINE
  5
3CEA
  8
SUNPOU
  6
CONTINUOUS
 62
     4
 10
23549.969858
 20
20526.936151000031
 30
0.0
 11
23592.46616299999
 21
20526.936151000031
 31
0.0
  0
LINE
  5
3CEB
  8
SUNPOU
  6
CONTINUOUS
 62
     4
 10
20281.469858
 20
19876.933248000008
 30
0.0
 11
20281.469858
 21
20606.936151000031
 31
0.0
  0
LINE
  5
3CEC
  8
SUNPOU
  6
CONTINUOUS
 62
     4
 10
20238.973552999989
 20
19876.933248000008
 30
0.0
 11
20238.973552999989
 21
20606.936151000031
 31
0.0
  0
LINE
  5
3CED
  8
SUNPOU
  6
CONTINUOUS
 62
     4
 10
20281.469858
 20
20526.936151000031
 30
0.0
 11
20521.469858
 21
20526.936151000031
 31
0.0
  0
LINE
  5
3CEE
  8
SUNPOU
  6
CONTINUOUS
 62
     4
 10
20238.973552999989
 20
20526.936151000031
 30
0.0
 11
19998.973552999989
 21
20526.936151000031
 31
0.0
  0
LINE
  5
3CEF
  8
SUNPOU
  6
CONTINUOUS
 62
     4
 10
20281.469858
 20
20526.936151000031
 30
0.0
 11
20238.973552999989
 21
20526.936151000031
 31
0.0
  0
LINE
  5
3CF0
  8
SUNPOU
  6
CONTINUOUS
 62
     4
 10
15269.22327699999
 20
6677.6370850000048
 30
0.0
 11
16346.72169299999
 21
6677.6370850000039
 31
0.0
  0
LINE
  5
3CF1
  8
SUNPOU
  6
CONTINUOUS
 62
     4
 10
15361.528556599371
 20
9026.1370850000021
 30
0.0
 11
16346.72169299999
 21
9026.1370850000021
 31
0.0
  0
LINE
  5
3CF2
  8
SUNPOU
  6
CONTINUOUS
 62
     4
 10
16266.72169299999
 20
6677.6370850000039
 30
0.0
 11
16266.72169299999
 21
9026.1370850000021
 31
0.0
  0
LINE
  5
3CF3
  8
SUNPOU
  6
CONTINUOUS
 62
     4
 10
9518.7232769999955
 20
6677.6370850000048
 30
0.0
 11
8436.2248590000017
 21
6677.6370850000039
 31
0.0
  0
LINE
  5
3CF4
  8
SUNPOU
  6
CONTINUOUS
 62
     4
 10
9346.2252549999994
 20
8833.6370850000058
 30
0.0
 11
8436.2248590000017
 21
8833.6370850000058
 31
0.0
  0
LINE
  5
3CF5
  8
SUNPOU
  6
CONTINUOUS
 62
     4
 10
8516.2248590000054
 20
6677.6370850000039
 30
0.0
 11
8516.2248590000054
 21
8833.6370850000058
 31
0.0
  0
LINE
  5
3CF6
  8
SUNPOU
  6
CONTINUOUS
 62
     4
 10
9426.2232769999955
 20
8914.6370850000058
 30
0.0
 11
9426.2232769999955
 21
10305.637111
 31
0.0
  0
LINE
  5
3CF7
  8
SUNPOU
  6
CONTINUOUS
 62
     4
 10
15326.723276999999
 20
9046.5269084124357
 30
0.0
 11
15326.723276999999
 21
10305.637111
 31
0.0
  0
LINE
  5
3CF8
  8
SUNPOU
  6
CONTINUOUS
 62
     4
 10
9426.2232769999955
 20
10225.637111
 30
0.0
 11
15326.723276999999
 21
10225.637111
 31
0.0
  0
LINE
  5
3CF9
  8
SUNPOU
  6
CONTINUOUS
 62
     4
 10
15176.72327699999
 20
8972.5471490000054
 30
0.0
 11
15176.72327699999
 21
9905.638761000002
 31
0.0
  0
LINE
  5
3CFA
  8
SUNPOU
  6
CONTINUOUS
 62
     4
 10
15326.723276999999
 20
9046.5269084124357
 30
0.0
 11
15326.723276999999
 21
9905.638761000002
 31
0.0
  0
LINE
  5
3CFB
  8
SUNPOU
  6
CONTINUOUS
 62
     4
 10
15176.72327699999
 20
9825.638761000002
 30
0.0
 11
14936.72327699999
 21
9825.638761000002
 31
0.0
  0
LINE
  5
3CFC
  8
SUNPOU
  6
CONTINUOUS
 62
     4
 10
15326.723276999999
 20
9825.638761000002
 30
0.0
 11
15566.723276999999
 21
9825.638761000002
 31
0.0
  0
LINE
  5
3CFD
  8
SUNPOU
  6
CONTINUOUS
 62
     4
 10
15176.72327699999
 20
9825.638761000002
 30
0.0
 11
15326.723276999999
 21
9825.638761000002
 31
0.0
  0
LINE
  5
3CFE
  8
SUNPOU
  6
CONTINUOUS
 62
     4
 10
9606.2232769999955
 20
8784.8228606838074
 30
0.0
 11
9606.2232769999955
 21
9905.638761000002
 31
0.0
  0
LINE
  5
3CFF
  8
SUNPOU
  6
CONTINUOUS
 62
     4
 10
15176.72327699999
 20
8972.5471490000054
 30
0.0
 11
15176.72327699999
 21
9905.638761000002
 31
0.0
  0
LINE
  5
3D00
  8
SUNPOU
  6
CONTINUOUS
 62
     4
 10
9606.2232769999955
 20
9825.638761000002
 30
0.0
 11
15176.72327699999
 21
9825.638761000002
 31
0.0
  0
LINE
  5
3D01
  8
SUNPOU
  6
CONTINUOUS
 62
     4
 10
9426.2232769999955
 20
8914.6370850000058
 30
0.0
 11
9426.2232769999955
 21
9905.638761000002
 31
0.0
  0
LINE
  5
3D02
  8
SUNPOU
  6
CONTINUOUS
 62
     4
 10
9606.2232769999955
 20
8784.8228606838074
 30
0.0
 11
9606.2232769999955
 21
9905.638761000002
 31
0.0
  0
LINE
  5
3D03
  8
SUNPOU
  6
CONTINUOUS
 62
     4
 10
9426.2232769999955
 20
9825.638761000002
 30
0.0
 11
9186.2232769999955
 21
9825.638761000002
 31
0.0
  0
LINE
  5
3D04
  8
SUNPOU
  6
CONTINUOUS
 62
     4
 10
9606.2232769999955
 20
9825.638761000002
 30
0.0
 11
9846.2232769999955
 21
9825.638761000002
 31
0.0
  0
LINE
  5
3D05
  8
SUNPOU
  6
CONTINUOUS
 62
     4
 10
9426.2232769999955
 20
9825.638761000002
 30
0.0
 11
9606.2232769999955
 21
9825.638761000002
 31
0.0
  0
LINE
  5
3D06
  8
SUNPOU
  6
CONTINUOUS
 62
     4
 10
9606.2232769999955
 20
6597.6370850000048
 30
0.0
 11
9606.2232769999955
 21
4897.6374150000047
 31
0.0
  0
LINE
  5
3D07
  8
SUNPOU
  6
CONTINUOUS
 62
     4
 10
15176.72327699999
 20
6597.6370850000048
 30
0.0
 11
15176.72327699999
 21
4897.6374150000047
 31
0.0
  0
LINE
  5
3D08
  8
SUNPOU
  6
CONTINUOUS
 62
     4
 10
9606.2232769999955
 20
4977.637415000002
 30
0.0
 11
15176.72327699999
 21
4977.637415000002
 31
0.0
  0
LINE
  5
3D09
  8
SUNPOU
  6
CONTINUOUS
 62
     4
 10
15134.223276999999
 20
6234.984827000002
 30
0.0
 11
15134.223276999999
 21
5297.6372500000007
 31
0.0
  0
LINE
  5
3D0A
  8
SUNPOU
  6
CONTINUOUS
 62
     4
 10
15176.72327699999
 20
6597.6370850000048
 30
0.0
 11
15176.72327699999
 21
5297.6372500000007
 31
0.0
  0
LINE
  5
3D0B
  8
SUNPOU
  6
CONTINUOUS
 62
     4
 10
15134.223276999999
 20
5377.6372500000016
 30
0.0
 11
14894.223276999999
 21
5377.6372500000016
 31
0.0
  0
LINE
  5
3D0C
  8
SUNPOU
  6
CONTINUOUS
 62
     4
 10
15176.72327699999
 20
5377.6372500000016
 30
0.0
 11
15416.72327699999
 21
5377.6372500000016
 31
0.0
  0
LINE
  5
3D0D
  8
SUNPOU
  6
CONTINUOUS
 62
     4
 10
15134.223276999999
 20
5377.6372500000016
 30
0.0
 11
15176.72327699999
 21
5377.6372500000016
 31
0.0
  0
LINE
  5
3D0E
  8
SUNPOU
  6
CONTINUOUS
 62
     4
 10
9648.7232769999955
 20
6234.984827000002
 30
0.0
 11
9648.7232769999955
 21
5297.6372500000007
 31
0.0
  0
LINE
  5
3D0F
  8
SUNPOU
  6
CONTINUOUS
 62
     4
 10
9606.2232769999955
 20
6597.6370850000048
 30
0.0
 11
9606.2232769999955
 21
5297.6372500000007
 31
0.0
  0
LINE
  5
3D10
  8
SUNPOU
  6
CONTINUOUS
 62
     4
 10
9648.7232769999955
 20
5377.6372500000016
 30
0.0
 11
9888.7232769999955
 21
5377.6372500000016
 31
0.0
  0
LINE
  5
3D11
  8
SUNPOU
  6
CONTINUOUS
 62
     4
 10
9606.2232769999955
 20
5377.6372500000016
 30
0.0
 11
9366.2232769999955
 21
5377.6372500000016
 31
0.0
  0
LINE
  5
3D12
  8
SUNPOU
  6
CONTINUOUS
 62
     4
 10
9648.7232769999955
 20
5377.6372500000016
 30
0.0
 11
9606.2232769999955
 21
5377.6372500000016
 31
0.0
  0
LINE
  5
3D13
  8
SUNPOU
  6
CONTINUOUS
 62
     4
 10
12216.223276999999
 20
6234.984827000002
 30
0.0
 11
12216.223276999999
 21
5297.6372500000007
 31
0.0
  0
LINE
  5
3D14
  8
SUNPOU
  6
CONTINUOUS
 62
     4
 10
9648.7232769999955
 20
6234.984827000002
 30
0.0
 11
9648.7232769999955
 21
5297.6372500000007
 31
0.0
  0
LINE
  5
3D15
  8
SUNPOU
  6
CONTINUOUS
 62
     4
 10
12216.223276999999
 20
5377.6372500000016
 30
0.0
 11
9648.7232769999955
 21
5377.6372500000016
 31
0.0
  0
LINE
  5
3D16
  8
SUNPOU
  6
CONTINUOUS
 62
     4
 10
12216.223276999999
 20
6234.984827000002
 30
0.0
 11
12216.223276999999
 21
5297.6372500000007
 31
0.0
  0
LINE
  5
3D17
  8
SUNPOU
  6
CONTINUOUS
 62
     4
 10
15134.223276999999
 20
6234.984827000002
 30
0.0
 11
15134.223276999999
 21
5297.6372500000007
 31
0.0
  0
LINE
  5
3D18
  8
SUNPOU
  6
CONTINUOUS
 62
     4
 10
12216.223276999999
 20
5377.6372500000016
 30
0.0
 11
15134.223276999999
 21
5377.6372500000016
 31
0.0
  0
LINE
  5
3D19
  8
SUNPOU
  6
CONTINUOUS
 62
     4
 10
20151.467218999998
 20
6677.6370850000039
 30
0.0
 11
19351.46853799999
 21
6677.6370850000039
 31
0.0
  0
LINE
  5
3D1A
  8
SUNPOU
  6
CONTINUOUS
 62
     4
 10
20151.467218999998
 20
8569.1370850000021
 30
0.0
 11
19351.468538000001
 21
8569.1370850000021
 31
0.0
  0
LINE
  5
3D1B
  8
SUNPOU
  6
CONTINUOUS
 62
     4
 10
19431.46853799999
 20
6677.6370850000039
 30
0.0
 11
19431.468538000001
 21
8569.1370850000021
 31
0.0
  0
LINE
  5
3D1C
  8
SUNPOU
  6
CONTINUOUS
 62
     4
 10
20151.467218999998
 20
6677.6370850000039
 30
0.0
 11
18951.466228999991
 21
6677.6370850000039
 31
0.0
  0
LINE
  5
3D1D
  8
SUNPOU
  6
CONTINUOUS
 62
     4
 10
20118.969463000009
 20
9026.1369400000021
 30
0.0
 11
18951.466229000001
 21
9026.1369400000021
 31
0.0
  0
LINE
  5
3D1E
  8
SUNPOU
  6
CONTINUOUS
 62
     4
 10
19031.466228999991
 20
6677.6370850000039
 30
0.0
 11
19031.466228999991
 21
9026.1369400000021
 31
0.0
  0
LINE
  5
3D2F
  8
SUNPOU
  6
CONTINUOUS
 62
     4
 10
23549.969858
 20
6234.9848270000048
 30
0.0
 11
23549.969858
 21
5297.637250000008
 31
0.0
  0
LINE
  5
3D30
  8
SUNPOU
  6
CONTINUOUS
 62
     4
 10
23592.469858
 20
6497.6372500000098
 30
0.0
 11
23592.469858
 21
5297.637250000008
 31
0.0
  0
LINE
  5
3D31
  8
SUNPOU
  6
CONTINUOUS
 62
     4
 10
23549.969858
 20
5377.637250000008
 30
0.0
 11
23309.969858
 21
5377.637250000008
 31
0.0
  0
LINE
  5
3D32
  8
SUNPOU
  6
CONTINUOUS
 62
     4
 10
23592.469858
 20
5377.637250000008
 30
0.0
 11
23832.469858
 21
5377.637250000008
 31
0.0
  0
LINE
  5
3D33
  8
SUNPOU
  6
CONTINUOUS
 62
     4
 10
23549.969858
 20
5377.637250000008
 30
0.0
 11
23592.469858
 21
5377.637250000008
 31
0.0
  0
LINE
  5
3D34
  8
SUNPOU
  6
CONTINUOUS
 62
     4
 10
20375.469858
 20
6497.6372500000098
 30
0.0
 11
20375.469858
 21
5697.6372500000089
 31
0.0
  0
LINE
  5
3D35
  8
SUNPOU
  6
CONTINUOUS
 62
     4
 10
23455.969858
 20
6497.6372500000098
 30
0.0
 11
23455.969858
 21
5697.6372500000089
 31
0.0
  0
LINE
  5
3D36
  8
SUNPOU
  6
CONTINUOUS
 62
     4
 10
20375.469858
 20
5777.6372500000089
 30
0.0
 11
23455.969858
 21
5777.6372500000089
 31
0.0
  0
LINE
  5
3D37
  8
SUNPOU
  6
CONTINUOUS
 62
     4
 10
20281.469858
 20
6234.9848270000048
 30
0.0
 11
20281.469858
 21
5297.637250000008
 31
0.0
  0
LINE
  5
3D38
  8
SUNPOU
  6
CONTINUOUS
 62
     4
 10
23549.969858
 20
6234.9848270000048
 30
0.0
 11
23549.969858
 21
5297.637250000008
 31
0.0
  0
LINE
  5
3D39
  8
SUNPOU
  6
CONTINUOUS
 62
     4
 10
20281.469858
 20
5377.637250000008
 30
0.0
 11
23549.969858
 21
5377.637250000008
 31
0.0
  0
LINE
  5
3D3A
  8
SUNPOU
  6
CONTINUOUS
 62
     4
 10
20281.469858
 20
6234.9848270000048
 30
0.0
 11
20281.469858
 21
5297.637250000008
 31
0.0
  0
LINE
  5
3D3B
  8
SUNPOU
  6
CONTINUOUS
 62
     4
 10
20238.969857999989
 20
6497.6372500000098
 30
0.0
 11
20238.969857999989
 21
5297.637250000008
 31
0.0
  0
LINE
  5
3D3C
  8
SUNPOU
  6
CONTINUOUS
 62
     4
 10
20281.469858
 20
5377.637250000008
 30
0.0
 11
20521.469858
 21
5377.637250000008
 31
0.0
  0
LINE
  5
3D3D
  8
SUNPOU
  6
CONTINUOUS
 62
     4
 10
20238.969857999989
 20
5377.637250000008
 30
0.0
 11
19998.969857999989
 21
5377.637250000008
 31
0.0
  0
LINE
  5
3D3E
  8
SUNPOU
  6
CONTINUOUS
 62
     4
 10
20281.469858
 20
5377.637250000008
 30
0.0
 11
20238.969857999989
 21
5377.637250000008
 31
0.0
  0
LINE
  5
3D3F
  8
SUNPOU
  6
CONTINUOUS
 62
     4
 10
20238.969857999989
 20
6497.6372500000098
 30
0.0
 11
20238.969857999989
 21
4897.6374150000047
 31
0.0
  0
LINE
  5
3D40
  8
SUNPOU
  6
CONTINUOUS
 62
     4
 10
23592.469858
 20
6497.6372500000098
 30
0.0
 11
23592.469858
 21
4897.6374150000047
 31
0.0
  0
LINE
  5
3D41
  8
SUNPOU
  6
CONTINUOUS
 62
     4
 10
20238.969857999989
 20
4977.6374150000102
 30
0.0
 11
23592.469858
 21
4977.6374150000102
 31
0.0
  0
TEXT
  5
3D42
  8
0
  6
CONTINUOUS
 62
     7
 10
21515.719857999989
 20
5057.6374150000047
 30
0.0
 40
160.0
  1
3353.5
  0
TEXT
  5
3D43
  8
0
  6
CONTINUOUS
 62
     7
 10
19672.93086774115
 20
5457.637250000008
 30
0.0
 40
160.0
  1
42.5
  0
TEXT
  5
3D44
  8
0
  6
CONTINUOUS
 62
     7
 10
21515.719857999989
 20
5457.637250000008
 30
0.0
 40
160.0
  1
3268.5
  0
TEXT
  5
3D45
  8
0
  6
CONTINUOUS
 62
     7
 10
21014.386524666661
 20
5857.6372500000089
 30
0.0
 40
160.0
  1
有効開口巾 3080.5
  0
TEXT
  5
3D46
  8
0
  6
CONTINUOUS
 62
     7
 10
23678.50884825884
 20
5457.637250000008
 30
0.0
 40
160.0
  1
42.5
  0
TEXT
  5
3D4B
  8
0
  6
CONTINUOUS
 62
     7
 10
18951.466228999991
 20
6870.5536791666746
 30
0.0
 40
160.0
  1
2348.5 (2588.5)
 50
90.0
  0
TEXT
  5
3D4C
  8
0
  6
CONTINUOUS
 62
     7
 10
19351.46853799999
 20
6741.6163232912786
 30
0.0
 40
160.0
  1
有効開口高サ 1891.5
 50
90.0
  0
TEXT
  5
3D4D
  8
0
  6
CONTINUOUS
 62
     7
 10
13408.55661033332
 20
5457.6372500000016
 30
0.0
 40
160.0
  1
2918
  0
TEXT
  5
3D4E
  8
0
  6
CONTINUOUS
 62
     7
 10
10532.473276999999
 20
5457.6372500000016
 30
0.0
 40
160.0
  1
2567.5
  0
TEXT
  5
3D4F
  8
0
  6
CONTINUOUS
 62
     7
 10
9009.0495679036922
 20
5457.6372500000016
 30
0.0
 40
160.0
  1
42.5
  0
TEXT
  5
3D50
  8
0
  6
CONTINUOUS
 62
     7
 10
15315.04191430981
 20
5457.6372500000016
 30
0.0
 40
160.0
  1
42.5
  0
TEXT
  5
3D51
  8
0
  6
CONTINUOUS
 62
     7
 10
12004.80661033332
 20
5057.6374150000047
 30
0.0
 40
160.0
  1
5570.5
  0
TEXT
  5
3D52
  8
0
  6
CONTINUOUS
 62
     7
 10
9012.8899436666597
 20
9905.638761000002
 30
0.0
 40
160.0
  1
180
  0
TEXT
  5
3D53
  8
0
  6
CONTINUOUS
 62
     7
 10
12004.80661033332
 20
9905.638761000002
 30
0.0
 40
160.0
  1
5570.5
  0
TEXT
  5
3D54
  8
0
  6
CONTINUOUS
 62
     7
 10
15393.38994366666
 20
9905.638761000002
 30
0.0
 40
160.0
  1
150
  0
TEXT
  5
3D55
  8
0
  6
CONTINUOUS
 62
     7
 10
12003.13994366666
 20
10305.637111
 30
0.0
 40
160.0
  1
5900.5
  0
TEXT
  5
3D56
  8
0
  6
CONTINUOUS
 62
     7
 10
8436.2248590000017
 20
6976.970418333337
 30
0.0
 40
160.0
  1
2156（2396）
 50
90.0
  0
TEXT
  5
3D57
  8
0
  6
CONTINUOUS
 62
     7
 10
16186.72169299999
 20
6833.220418333337
 30
0.0
 40
160.0
  1
2348.5（2588.5）
 50
90.0
  0
TEXT
  5
3D58
  8
0
  6
CONTINUOUS
 62
     7
 10
19678.657878471189
 20
20606.936151000031
 30
0.0
 40
160.0
  1
42.5
  0
TEXT
  5
3D59
  8
0
  6
CONTINUOUS
 62
     7
 10
23672.781837528779
 20
20606.936151000031
 30
0.0
 40
160.0
  1
42.5
  0
TEXT
  5
3D5A
  8
0
  6
CONTINUOUS
 62
     7
 10
20866.136524666661
 20
20286.936151000031
 30
0.0
 40
160.0
  1
701
  0
TEXT
  5
3D5B
  8
0
  6
CONTINUOUS
 62
     7
 10
21567.136524666661
 20
20606.936151000031
 30
0.0
 40
160.0
  1
701
  0
TEXT
  5
3D5C
  8
0
  6
CONTINUOUS
 62
     7
 10
22268.136524666661
 20
20606.936151000031
 30
0.0
 40
160.0
  1
701
  0
TEXT
  5
3D5D
  8
0
  6
CONTINUOUS
 62
     7
 10
22957.63701941667
 20
20606.936151000031
 30
0.0
 40
160.0
  1
758
  0
TEXT
  5
3D5E
  8
0
  6
CONTINUOUS
 62
     7
 10
20382.303191333329
 20
20606.936151000031
 30
0.0
 40
160.0
  1
407.5
  0
TEXT
  5
3D5F
  8
0
  6
CONTINUOUS
 62
     7
 10
24962.469461999979
 20
13652.8814316032
 30
0.0
 40
160.0
  1
42.5
 50
90.0
  0
TEXT
  5
3D60
  8
0
  6
CONTINUOUS
 62
     7
 10
24962.469461999979
 20
19890.488494396792
 30
0.0
 40
160.0
  1
42.5
 50
90.0
  0
TEXT
  5
3D61
  8
0
  6
CONTINUOUS
 62
     7
 10
25362.46946199999
 20
16625.018296333339
 30
0.0
 40
160.0
  1
5570.5
 50
90.0
  0
TEXT
  5
3D62
  8
0
  6
CONTINUOUS
 62
     7
 10
24962.469461999979
 20
15461.26829633333
 30
0.0
 40
160.0
  1
2918
 50
90.0
  0
TEXT
  5
3D63
  8
0
  6
CONTINUOUS
 62
     7
 10
24962.469461999979
 20
18070.684963
 30
0.0
 40
160.0
  1
2567.5
 50
90.0
  0
TEXT
  5
3D64
  8
0
  6
CONTINUOUS
 62
     7
 10
24562.469461999979
 20
18823.101629666671
 30
0.0
 40
160.0
  1
701
 50
90.0
  0
TEXT
  5
3D65
  8
0
  6
CONTINUOUS
 62
     7
 10
24562.469461999979
 20
18122.101629666671
 30
0.0
 40
160.0
  1
701
 50
90.0
  0
TEXT
  5
3D66
  8
0
  6
CONTINUOUS
 62
     7
 10
24562.469461999979
 20
17352.601629666671
 30
0.0
 40
160.0
  1
758
 50
90.0
  0
TEXT
  5
3D67
  8
0
  6
CONTINUOUS
 62
     7
 10
24562.469461999979
 20
16594.601629666671
 30
0.0
 40
160.0
  1
758
 50
90.0
  0
TEXT
  5
3D68
  8
0
  6
CONTINUOUS
 62
     7
 10
24562.469461999979
 20
15905.22188541668
 30
0.0
 40
160.0
  1
701
 50
90.0
  0
TEXT
  5
3D69
  8
0
  6
CONTINUOUS
 62
     7
 10
24562.469461999979
 20
15204.22188541668
 30
0.0
 40
160.0
  1
701
 50
90.0
  0
TEXT
  5
3D6A
  8
0
  6
CONTINUOUS
 62
     7
 10
24562.469461999979
 20
14434.60162966666
 30
0.0
 40
160.0
  1
758
 50
90.0
  0
TEXT
  5
3D6B
  8
0
  6
CONTINUOUS
 62
     7
 10
21515.719857999989
 20
12977.486878999989
 30
0.0
 40
160.0
  1
3353.5
  0
TEXT
  5
3D6C
  8
0
  6
CONTINUOUS
 62
     7
 10
20399.52353038207
 20
13377.486879
 30
0.0
 40
160.0
  1
42.5
  0
TEXT
  5
3D6D
  8
0
  6
CONTINUOUS
 62
     7
 10
22951.916185617909
 20
13377.486879
 30
0.0
 40
160.0
  1
42.5
  0
TEXT
  5
3D6E
  8
0
  6
CONTINUOUS
 62
     7
 10
23668.023530382081
 20
13377.486879
 30
0.0
 40
160.0
  1
42.5
  0
TEXT
  5
3D6F
  8
0
  6
CONTINUOUS
 62
     7
 10
19683.416185617902
 20
13377.486879
 30
0.0
 40
160.0
  1
42.5
  0
TEXT
  5
3D70
  8
0
  6
CONTINUOUS
 62
     7
 10
19272.015280999989
 20
14731.888552083339
 30
0.0
 40
160.0
  1
1459
 50
90.0
  0
TEXT
  5
3D71
  8
0
  6
CONTINUOUS
 62
     7
 10
19272.015280999989
 20
16190.88855208335
 30
0.0
 40
160.0
  1
1459
 50
90.0
  0
TEXT
  5
3D72
  8
0
  6
CONTINUOUS
 62
     7
 10
19272.015280999989
 20
17649.768296333332
 30
0.0
 40
160.0
  1
1459
 50
90.0
  0
TEXT
  5
3D73
  8
0
  6
CONTINUOUS
 62
     7
 10
19272.015280999989
 20
18866.851629666671
 30
0.0
 40
160.0
  1
1108.5
 50
90.0
  0
TEXT
  5
3D74
  8
0
  6
CONTINUOUS
 62
     7
 10
24922.469461999979
 20
19056.312930643209
 30
0.0
 40
160.0
  1
407.5
 50
90.0
  0
TEXT
  5
3D75
  8
0
  6
CONTINUOUS
 62
     7
 10
9616.9726229999906
 20
18866.851629666671
 30
0.0
 40
160.0
  1
1108.5
 50
90.0
  0
TEXT
  5
3D76
  8
0
  6
CONTINUOUS
 62
     7
 10
9616.9726229999906
 20
20065.89014780768
 30
0.0
 40
160.0
  1
222.5
 50
90.0
  0
TEXT
  5
3D77
  8
0
  6
CONTINUOUS
 62
     7
 10
10016.972622999991
 20
20096.930872000012
 30
0.0
 40
160.0
  1
20
 50
90.0
  0
TEXT
  5
3D78
  8
0
  6
CONTINUOUS
 62
     7
 10
9616.9726229999978
 20
17649.768296333332
 30
0.0
 40
160.0
  1
1459
 50
90.0
  0
TEXT
  5
3D79
  8
0
  6
CONTINUOUS
 62
     7
 10
9616.9726229999978
 20
16190.88855208335
 30
0.0
 40
160.0
  1
1459
 50
90.0
  0
TEXT
  5
3D7A
  8
0
  6
CONTINUOUS
 62
     7
 10
9616.9726229999978
 20
14731.888552083339
 30
0.0
 40
160.0
  1
1459
 50
90.0
  0
TEXT
  5
3D7B
  8
0
  6
CONTINUOUS
 62
     7
 10
9616.9726229999978
 20
13460.98195270263
 30
0.0
 40
160.0
  1
192.5
 50
90.0
  0
TEXT
  5
3D7C
  8
0
  6
CONTINUOUS
 62
     7
 10
11860.725863
 20
20676.939845999968
 30
0.0
 40
160.0
  1
3268.5
  0
TEXT
  5
3D7D
  8
0
  6
CONTINUOUS
 62
     7
 10
10009.97915697674
 20
20676.939845999968
 30
0.0
 40
160.0
  1
85.5
  0
TEXT
  5
3D7E
  8
0
  6
CONTINUOUS
 62
     7
 10
14031.47256902327
 20
20676.939845999968
 30
0.0
 40
160.0
  1
85.5
  0
ARC
  5
3D84
  8
0
  6
BYBLOCK
 62
     0
 10
13894.975863
 20
20596.939845999968
 30
0.0
 40
15.0
 50
180.0
 51
0.0
  0
ARC
  5
3D85
  8
0
  6
BYBLOCK
 62
     0
 10
13894.975863
 20
20596.939845999968
 30
0.0
 40
15.0
 50
0.0
 51
180.0
  0
ARC
  5
3D86
  8
0
  6
BYBLOCK
 62
     0
 10
13980.475862999991
 20
20596.939845999968
 30
0.0
 40
15.0
 50
0.0
 51
180.0
  0
ARC
  5
3D87
  8
0
  6
BYBLOCK
 62
     0
 10
13980.475862999991
 20
20596.939845999968
 30
0.0
 40
15.0
 50
180.0
 51
0.0
  0
ARC
  5
3D88
  8
0
  6
BYBLOCK
 62
     0
 10
10626.475863
 20
20596.939845999968
 30
0.0
 40
15.0
 50
0.0
 51
180.0
  0
ARC
  5
3D89
  8
0
  6
BYBLOCK
 62
     0
 10
10626.475863
 20
20596.939845999968
 30
0.0
 40
15.0
 50
180.0
 51
0.0
  0
ARC
  5
3D8A
  8
0
  6
BYBLOCK
 62
     0
 10
10540.975862999991
 20
20596.939845999968
 30
0.0
 40
15.0
 50
180.0
 51
0.0
  0
ARC
  5
3D8B
  8
0
  6
BYBLOCK
 62
     0
 10
10540.975862999991
 20
20596.939845999968
 30
0.0
 40
15.0
 50
0.0
 51
180.0
  0
ARC
  5
3D8C
  8
0
  6
BYBLOCK
 62
     0
 10
13894.975863
 20
20596.939845999968
 30
0.0
 40
15.0
 50
180.0
 51
0.0
  0
ARC
  5
3D8D
  8
0
  6
BYBLOCK
 62
     0
 10
13894.975863
 20
20596.939845999968
 30
0.0
 40
15.0
 50
0.0
 51
180.0
  0
ARC
  5
3D8E
  8
0
  6
BYBLOCK
 62
     0
 10
10626.475863
 20
20596.939845999968
 30
0.0
 40
15.0
 50
0.0
 51
180.0
  0
ARC
  5
3D8F
  8
0
  6
BYBLOCK
 62
     0
 10
10626.475863
 20
20596.939845999968
 30
0.0
 40
15.0
 50
180.0
 51
0.0
  0
ARC
  5
3D90
  8
0
  6
BYBLOCK
 62
     0
 10
9696.9726229999978
 20
14268.934962999991
 30
0.0
 40
15.0
 50
90.0
 51
270.0
  0
ARC
  5
3D91
  8
0
  6
BYBLOCK
 62
     0
 10
9696.9726229999978
 20
14268.934962999991
 30
0.0
 40
15.0
 50
270.0
 51
90.0
  0
ARC
  5
3D92
  8
0
  6
BYBLOCK
 62
     0
 10
9696.9726229999978
 20
14076.439648
 30
0.0
 40
15.0
 50
270.0
 51
90.0
  0
ARC
  5
3D93
  8
0
  6
BYBLOCK
 62
     0
 10
9696.9726229999978
 20
14076.439648
 30
0.0
 40
15.0
 50
90.0
 51
270.0
  0
ARC
  5
3D94
  8
0
  6
BYBLOCK
 62
     0
 10
9696.9726229999978
 20
15728.17547450002
 30
0.0
 40
15.0
 50
270.0
 51
90.0
  0
ARC
  5
3D95
  8
0
  6
BYBLOCK
 62
     0
 10
9696.9726229999978
 20
15728.17547450002
 30
0.0
 40
15.0
 50
90.0
 51
270.0
  0
ARC
  5
3D96
  8
0
  6
BYBLOCK
 62
     0
 10
9696.9726229999978
 20
14268.934962999991
 30
0.0
 40
15.0
 50
90.0
 51
270.0
  0
ARC
  5
3D97
  8
0
  6
BYBLOCK
 62
     0
 10
9696.9726229999978
 20
14268.934962999991
 30
0.0
 40
15.0
 50
270.0
 51
90.0
  0
ARC
  5
3D98
  8
0
  6
BYBLOCK
 62
     0
 10
9696.9726229999978
 20
17186.934963
 30
0.0
 40
15.0
 50
270.0
 51
90.0
  0
ARC
  5
3D99
  8
0
  6
BYBLOCK
 62
     0
 10
9696.9726229999978
 20
17186.934963
 30
0.0
 40
15.0
 50
90.0
 51
270.0
  0
ARC
  5
3D9A
  8
0
  6
BYBLOCK
 62
     0
 10
9696.9726229999978
 20
15728.17547450002
 30
0.0
 40
15.0
 50
90.0
 51
270.0
  0
ARC
  5
3D9B
  8
0
  6
BYBLOCK
 62
     0
 10
9696.9726229999978
 20
15728.17547450002
 30
0.0
 40
15.0
 50
270.0
 51
90.0
  0
ARC
  5
3D9C
  8
0
  6
BYBLOCK
 62
     0
 10
9696.9726229999978
 20
18645.934963
 30
0.0
 40
15.0
 50
270.0
 51
90.0
  0
ARC
  5
3D9D
  8
0
  6
BYBLOCK
 62
     0
 10
9696.9726229999978
 20
18645.934963
 30
0.0
 40
15.0
 50
90.0
 51
270.0
  0
ARC
  5
3D9E
  8
0
  6
BYBLOCK
 62
     0
 10
9696.9726229999978
 20
17186.934963
 30
0.0
 40
15.0
 50
90.0
 51
270.0
  0
ARC
  5
3D9F
  8
0
  6
BYBLOCK
 62
     0
 10
9696.9726229999978
 20
17186.934963
 30
0.0
 40
15.0
 50
270.0
 51
90.0
  0
ARC
  5
3DA0
  8
0
  6
BYBLOCK
 62
     0
 10
10096.972622999991
 20
19956.930872000001
 30
0.0
 40
15.0
 50
270.0
 51
90.0
  0
ARC
  5
3DA1
  8
0
  6
BYBLOCK
 62
     0
 10
10096.972622999991
 20
19956.930872000001
 30
0.0
 40
15.0
 50
90.0
 51
270.0
  0
ARC
  5
3DA2
  8
0
  6
BYBLOCK
 62
     0
 10
10096.972622999991
 20
19976.930872000001
 30
0.0
 40
15.0
 50
90.0
 51
270.0
  0
ARC
  5
3DA3
  8
0
  6
BYBLOCK
 62
     0
 10
10096.972622999991
 20
19976.930872000001
 30
0.0
 40
15.0
 50
270.0
 51
90.0
  0
ARC
  5
3DA4
  8
0
  6
BYBLOCK
 62
     0
 10
9696.9726229999978
 20
19754.434963
 30
0.0
 40
15.0
 50
270.0
 51
90.0
  0
ARC
  5
3DA5
  8
0
  6
BYBLOCK
 62
     0
 10
9696.9726229999978
 20
19754.434963
 30
0.0
 40
15.0
 50
90.0
 51
270.0
  0
ARC
  5
3DA6
  8
0
  6
BYBLOCK
 62
     0
 10
9696.9726229999978
 20
19976.930872000001
 30
0.0
 40
15.0
 50
90.0
 51
270.0
  0
ARC
  5
3DA7
  8
0
  6
BYBLOCK
 62
     0
 10
9696.9726229999978
 20
19976.930872000001
 30
0.0
 40
15.0
 50
270.0
 51
90.0
  0
ARC
  5
3DA8
  8
0
  6
BYBLOCK
 62
     0
 10
9696.9726229999978
 20
18645.934963
 30
0.0
 40
15.0
 50
90.0
 51
270.0
  0
ARC
  5
3DA9
  8
0
  6
BYBLOCK
 62
     0
 10
9696.9726229999978
 20
18645.934963
 30
0.0
 40
15.0
 50
270.0
 51
90.0
  0
ARC
  5
3DAA
  8
0
  6
BYBLOCK
 62
     0
 10
9696.9726229999978
 20
19754.434963
 30
0.0
 40
15.0
 50
270.0
 51
90.0
  0
ARC
  5
3DAB
  8
0
  6
BYBLOCK
 62
     0
 10
9696.9726229999978
 20
19754.434963
 30
0.0
 40
15.0
 50
90.0
 51
270.0
  0
ARC
  5
3DAC
  8
0
  6
BYBLOCK
 62
     0
 10
24642.469461999979
 20
19346.934962999982
 30
0.0
 40
15.0
 50
90.0
 51
270.0
  0
ARC
  5
3DAD
  8
0
  6
BYBLOCK
 62
     0
 10
24642.469461999979
 20
19346.934962999982
 30
0.0
 40
15.0
 50
270.0
 51
90.0
  0
ARC
  5
3DAE
  8
0
  6
BYBLOCK
 62
     0
 10
24642.469461999979
 20
19754.434962999982
 30
0.0
 40
15.0
 50
270.0
 51
90.0
  0
ARC
  5
3DAF
  8
0
  6
BYBLOCK
 62
     0
 10
24642.469461999979
 20
19754.434962999982
 30
0.0
 40
15.0
 50
90.0
 51
270.0
  0
ARC
  5
3DB0
  8
0
  6
BYBLOCK
 62
     0
 10
19352.015280999982
 20
18645.934963
 30
0.0
 40
15.0
 50
90.0
 51
270.0
  0
ARC
  5
3DB1
  8
0
  6
BYBLOCK
 62
     0
 10
19352.015280999982
 20
18645.934963
 30
0.0
 40
15.0
 50
270.0
 51
90.0
  0
ARC
  5
3DB2
  8
0
  6
BYBLOCK
 62
     0
 10
19352.015280999982
 20
19754.434963
 30
0.0
 40
15.0
 50
270.0
 51
90.0
  0
ARC
  5
3DB3
  8
0
  6
BYBLOCK
 62
     0
 10
19352.015280999982
 20
19754.434963
 30
0.0
 40
15.0
 50
90.0
 51
270.0
  0
ARC
  5
3DB4
  8
0
  6
BYBLOCK
 62
     0
 10
19352.015280999982
 20
17186.934963
 30
0.0
 40
15.0
 50
90.0
 51
270.0
  0
ARC
  5
3DB5
  8
0
  6
BYBLOCK
 62
     0
 10
19352.015280999982
 20
17186.934963
 30
0.0
 40
15.0
 50
270.0
 51
90.0
  0
ARC
  5
3DB6
  8
0
  6
BYBLOCK
 62
     0
 10
19352.015280999982
 20
18645.934963
 30
0.0
 40
15.0
 50
270.0
 51
90.0
  0
ARC
  5
3DB7
  8
0
  6
BYBLOCK
 62
     0
 10
19352.015280999982
 20
18645.934963
 30
0.0
 40
15.0
 50
90.0
 51
270.0
  0
ARC
  5
3DB8
  8
0
  6
BYBLOCK
 62
     0
 10
19352.015280999982
 20
15728.17547450002
 30
0.0
 40
15.0
 50
90.0
 51
270.0
  0
ARC
  5
3DB9
  8
0
  6
BYBLOCK
 62
     0
 10
19352.015280999982
 20
15728.17547450002
 30
0.0
 40
15.0
 50
270.0
 51
90.0
  0
ARC
  5
3DBA
  8
0
  6
BYBLOCK
 62
     0
 10
19352.015280999982
 20
17186.934963
 30
0.0
 40
15.0
 50
270.0
 51
90.0
  0
ARC
  5
3DBB
  8
0
  6
BYBLOCK
 62
     0
 10
19352.015280999982
 20
17186.934963
 30
0.0
 40
15.0
 50
90.0
 51
270.0
  0
ARC
  5
3DBC
  8
0
  6
BYBLOCK
 62
     0
 10
19352.015280999982
 20
14268.934962999991
 30
0.0
 40
15.0
 50
90.0
 51
270.0
  0
ARC
  5
3DBD
  8
0
  6
BYBLOCK
 62
     0
 10
19352.015280999982
 20
14268.934962999991
 30
0.0
 40
15.0
 50
270.0
 51
90.0
  0
ARC
  5
3DBE
  8
0
  6
BYBLOCK
 62
     0
 10
19352.015280999982
 20
15728.17547450002
 30
0.0
 40
15.0
 50
270.0
 51
90.0
  0
ARC
  5
3DBF
  8
0
  6
BYBLOCK
 62
     0
 10
19352.015280999982
 20
15728.17547450002
 30
0.0
 40
15.0
 50
90.0
 51
270.0
  0
ARC
  5
3DC0
  8
0
  6
BYBLOCK
 62
     0
 10
20281.469858
 20
13297.486879
 30
0.0
 40
15.0
 50
0.0
 51
180.0
  0
ARC
  5
3DC1
  8
0
  6
BYBLOCK
 62
     0
 10
20281.469858
 20
13297.486879
 30
0.0
 40
15.0
 50
180.0
 51
0.0
  0
ARC
  5
3DC2
  8
0
  6
BYBLOCK
 62
     0
 10
20238.967615000001
 20
13297.486879
 30
0.0
 40
15.0
 50
180.0
 51
0.0
  0
ARC
  5
3DC3
  8
0
  6
BYBLOCK
 62
     0
 10
20238.967615000001
 20
13297.486879
 30
0.0
 40
15.0
 50
0.0
 51
180.0
  0
ARC
  5
3DC4
  8
0
  6
BYBLOCK
 62
     0
 10
23549.969858
 20
13297.486879
 30
0.0
 40
15.0
 50
180.0
 51
0.0
  0
ARC
  5
3DC5
  8
0
  6
BYBLOCK
 62
     0
 10
23549.969858
 20
13297.486879
 30
0.0
 40
15.0
 50
0.0
 51
180.0
  0
ARC
  5
3DC6
  8
0
  6
BYBLOCK
 62
     0
 10
23592.472100999988
 20
13297.486879
 30
0.0
 40
15.0
 50
0.0
 51
180.0
  0
ARC
  5
3DC7
  8
0
  6
BYBLOCK
 62
     0
 10
23592.472100999988
 20
13297.486879
 30
0.0
 40
15.0
 50
180.0
 51
0.0
  0
ARC
  5
3DC8
  8
0
  6
BYBLOCK
 62
     0
 10
23549.969858
 20
13297.486879
 30
0.0
 40
15.0
 50
0.0
 51
180.0
  0
ARC
  5
3DC9
  8
0
  6
BYBLOCK
 62
     0
 10
23549.969858
 20
13297.486879
 30
0.0
 40
15.0
 50
180.0
 51
0.0
  0
ARC
  5
3DCA
  8
0
  6
BYBLOCK
 62
     0
 10
23507.46761499999
 20
13297.486879
 30
0.0
 40
15.0
 50
180.0
 51
0.0
  0
ARC
  5
3DCB
  8
0
  6
BYBLOCK
 62
     0
 10
23507.46761499999
 20
13297.486879
 30
0.0
 40
15.0
 50
0.0
 51
180.0
  0
ARC
  5
3DCC
  8
0
  6
BYBLOCK
 62
     0
 10
20281.469858
 20
13297.486879
 30
0.0
 40
15.0
 50
180.0
 51
0.0
  0
ARC
  5
3DCD
  8
0
  6
BYBLOCK
 62
     0
 10
20281.469858
 20
13297.486879
 30
0.0
 40
15.0
 50
0.0
 51
180.0
  0
ARC
  5
3DCE
  8
0
  6
BYBLOCK
 62
     0
 10
20323.972100999981
 20
13297.486879
 30
0.0
 40
15.0
 50
0.0
 51
180.0
  0
ARC
  5
3DCF
  8
0
  6
BYBLOCK
 62
     0
 10
20323.972100999981
 20
13297.486879
 30
0.0
 40
15.0
 50
180.0
 51
0.0
  0
ARC
  5
3DD0
  8
0
  6
BYBLOCK
 62
     0
 10
20238.967615000001
 20
12897.486878999989
 30
0.0
 40
15.0
 50
0.0
 51
180.0
  0
ARC
  5
3DD1
  8
0
  6
BYBLOCK
 62
     0
 10
20238.967615000001
 20
12897.486878999989
 30
0.0
 40
15.0
 50
180.0
 51
0.0
  0
ARC
  5
3DD2
  8
0
  6
BYBLOCK
 62
     0
 10
23592.472100999988
 20
12897.486878999989
 30
0.0
 40
15.0
 50
180.0
 51
0.0
  0
ARC
  5
3DD3
  8
0
  6
BYBLOCK
 62
     0
 10
23592.472100999988
 20
12897.486878999989
 30
0.0
 40
15.0
 50
0.0
 51
180.0
  0
ARC
  5
3DD4
  8
0
  6
BYBLOCK
 62
     0
 10
24642.469461999979
 20
15026.934963
 30
0.0
 40
15.0
 50
270.0
 51
90.0
  0
ARC
  5
3DD5
  8
0
  6
BYBLOCK
 62
     0
 10
24642.469461999979
 20
15026.934963
 30
0.0
 40
15.0
 50
90.0
 51
270.0
  0
ARC
  5
3DD6
  8
0
  6
BYBLOCK
 62
     0
 10
24642.469461999979
 20
14268.934962999991
 30
0.0
 40
15.0
 50
90.0
 51
270.0
  0
ARC
  5
3DD7
  8
0
  6
BYBLOCK
 62
     0
 10
24642.469461999979
 20
14268.934962999991
 30
0.0
 40
15.0
 50
270.0
 51
90.0
  0
ARC
  5
3DD8
  8
0
  6
BYBLOCK
 62
     0
 10
24642.469461999979
 20
15728.17547450002
 30
0.0
 40
15.0
 50
270.0
 51
90.0
  0
ARC
  5
3DD9
  8
0
  6
BYBLOCK
 62
     0
 10
24642.469461999979
 20
15728.17547450002
 30
0.0
 40
15.0
 50
90.0
 51
270.0
  0
ARC
  5
3DDA
  8
0
  6
BYBLOCK
 62
     0
 10
24642.469461999979
 20
15026.934963
 30
0.0
 40
15.0
 50
90.0
 51
270.0
  0
ARC
  5
3DDB
  8
0
  6
BYBLOCK
 62
     0
 10
24642.469461999979
 20
15026.934963
 30
0.0
 40
15.0
 50
270.0
 51
90.0
  0
ARC
  5
3DDC
  8
0
  6
BYBLOCK
 62
     0
 10
24642.469461999979
 20
16428.934963
 30
0.0
 40
15.0
 50
270.0
 51
90.0
  0
ARC
  5
3DDD
  8
0
  6
BYBLOCK
 62
     0
 10
24642.469461999979
 20
16428.934963
 30
0.0
 40
15.0
 50
90.0
 51
270.0
  0
ARC
  5
3DDE
  8
0
  6
BYBLOCK
 62
     0
 10
24642.469461999979
 20
15728.17547450002
 30
0.0
 40
15.0
 50
90.0
 51
270.0
  0
ARC
  5
3DDF
  8
0
  6
BYBLOCK
 62
     0
 10
24642.469461999979
 20
15728.17547450002
 30
0.0
 40
15.0
 50
270.0
 51
90.0
  0
ARC
  5
3DE0
  8
0
  6
BYBLOCK
 62
     0
 10
24642.469461999979
 20
17186.934963
 30
0.0
 40
15.0
 50
270.0
 51
90.0
  0
ARC
  5
3DE1
  8
0
  6
BYBLOCK
 62
     0
 10
24642.469461999979
 20
17186.934963
 30
0.0
 40
15.0
 50
90.0
 51
270.0
  0
ARC
  5
3DE2
  8
0
  6
BYBLOCK
 62
     0
 10
24642.469461999979
 20
16428.934963
 30
0.0
 40
15.0
 50
90.0
 51
270.0
  0
ARC
  5
3DE3
  8
0
  6
BYBLOCK
 62
     0
 10
24642.469461999979
 20
16428.934963
 30
0.0
 40
15.0
 50
270.0
 51
90.0
  0
ARC
  5
3DE4
  8
0
  6
BYBLOCK
 62
     0
 10
24642.469461999979
 20
17944.934962999982
 30
0.0
 40
15.0
 50
270.0
 51
90.0
  0
ARC
  5
3DE5
  8
0
  6
BYBLOCK
 62
     0
 10
24642.469461999979
 20
17944.934962999982
 30
0.0
 40
15.0
 50
90.0
 51
270.0
  0
ARC
  5
3DE6
  8
0
  6
BYBLOCK
 62
     0
 10
24642.469461999979
 20
17186.934963
 30
0.0
 40
15.0
 50
90.0
 51
270.0
  0
ARC
  5
3DE7
  8
0
  6
BYBLOCK
 62
     0
 10
24642.469461999979
 20
17186.934963
 30
0.0
 40
15.0
 50
270.0
 51
90.0
  0
ARC
  5
3DE8
  8
0
  6
BYBLOCK
 62
     0
 10
24642.469461999979
 20
18645.934962999989
 30
0.0
 40
15.0
 50
270.0
 51
90.0
  0
ARC
  5
3DE9
  8
0
  6
BYBLOCK
 62
     0
 10
24642.469461999979
 20
18645.934962999989
 30
0.0
 40
15.0
 50
90.0
 51
270.0
  0
ARC
  5
3DEA
  8
0
  6
BYBLOCK
 62
     0
 10
24642.469461999979
 20
17944.934962999982
 30
0.0
 40
15.0
 50
90.0
 51
270.0
  0
ARC
  5
3DEB
  8
0
  6
BYBLOCK
 62
     0
 10
24642.469461999979
 20
17944.934962999982
 30
0.0
 40
15.0
 50
270.0
 51
90.0
  0
ARC
  5
3DEC
  8
0
  6
BYBLOCK
 62
     0
 10
24642.469461999979
 20
19346.934962999982
 30
0.0
 40
15.0
 50
270.0
 51
90.0
  0
ARC
  5
3DED
  8
0
  6
BYBLOCK
 62
     0
 10
24642.469461999979
 20
19346.934962999982
 30
0.0
 40
15.0
 50
90.0
 51
270.0
  0
ARC
  5
3DEE
  8
0
  6
BYBLOCK
 62
     0
 10
24642.469461999979
 20
18645.934962999989
 30
0.0
 40
15.0
 50
90.0
 51
270.0
  0
ARC
  5
3DEF
  8
0
  6
BYBLOCK
 62
     0
 10
24642.469461999979
 20
18645.934962999989
 30
0.0
 40
15.0
 50
270.0
 51
90.0
  0
ARC
  5
3DF0
  8
0
  6
BYBLOCK
 62
     0
 10
25042.469461999979
 20
17186.934963
 30
0.0
 40
15.0
 50
90.0
 51
270.0
  0
ARC
  5
3DF1
  8
0
  6
BYBLOCK
 62
     0
 10
25042.469461999979
 20
17186.934963
 30
0.0
 40
15.0
 50
270.0
 51
90.0
  0
ARC
  5
3DF2
  8
0
  6
BYBLOCK
 62
     0
 10
25042.469461999979
 20
19754.434962999982
 30
0.0
 40
15.0
 50
270.0
 51
90.0
  0
ARC
  5
3DF3
  8
0
  6
BYBLOCK
 62
     0
 10
25042.469461999979
 20
19754.434962999982
 30
0.0
 40
15.0
 50
90.0
 51
270.0
  0
ARC
  5
3DF4
  8
0
  6
BYBLOCK
 62
     0
 10
25042.469461999979
 20
14268.934962999991
 30
0.0
 40
15.0
 50
90.0
 51
270.0
  0
ARC
  5
3DF5
  8
0
  6
BYBLOCK
 62
     0
 10
25042.469461999979
 20
14268.934962999991
 30
0.0
 40
15.0
 50
270.0
 51
90.0
  0
ARC
  5
3DF6
  8
0
  6
BYBLOCK
 62
     0
 10
25042.469461999979
 20
17186.934963
 30
0.0
 40
15.0
 50
270.0
 51
90.0
  0
ARC
  5
3DF7
  8
0
  6
BYBLOCK
 62
     0
 10
25042.469461999979
 20
17186.934963
 30
0.0
 40
15.0
 50
90.0
 51
270.0
  0
ARC
  5
3DF8
  8
0
  6
BYBLOCK
 62
     0
 10
25442.46946199999
 20
19796.932258000001
 30
0.0
 40
15.0
 50
270.0
 51
90.0
  0
ARC
  5
3DF9
  8
0
  6
BYBLOCK
 62
     0
 10
25442.46946199999
 20
19796.932258000001
 30
0.0
 40
15.0
 50
90.0
 51
270.0
  0
ARC
  5
3DFA
  8
0
  6
BYBLOCK
 62
     0
 10
25442.46946199999
 20
14226.437668
 30
0.0
 40
15.0
 50
90.0
 51
270.0
  0
ARC
  5
3DFB
  8
0
  6
BYBLOCK
 62
     0
 10
25442.46946199999
 20
14226.437668
 30
0.0
 40
15.0
 50
270.0
 51
90.0
  0
ARC
  5
3DFC
  8
0
  6
BYBLOCK
 62
     0
 10
25042.469461999979
 20
19754.434962999982
 30
0.0
 40
15.0
 50
270.0
 51
90.0
  0
ARC
  5
3DFD
  8
0
  6
BYBLOCK
 62
     0
 10
25042.469461999979
 20
19754.434962999982
 30
0.0
 40
15.0
 50
90.0
 51
270.0
  0
ARC
  5
3DFE
  8
0
  6
BYBLOCK
 62
     0
 10
25042.469461999979
 20
19796.932258000001
 30
0.0
 40
15.0
 50
90.0
 51
270.0
  0
ARC
  5
3DFF
  8
0
  6
BYBLOCK
 62
     0
 10
25042.469461999979
 20
19796.932258000001
 30
0.0
 40
15.0
 50
270.0
 51
90.0
  0
ARC
  5
3E00
  8
0
  6
BYBLOCK
 62
     0
 10
25042.469461999979
 20
14268.934962999991
 30
0.0
 40
15.0
 50
90.0
 51
270.0
  0
ARC
  5
3E01
  8
0
  6
BYBLOCK
 62
     0
 10
25042.469461999979
 20
14268.934962999991
 30
0.0
 40
15.0
 50
270.0
 51
90.0
  0
ARC
  5
3E02
  8
0
  6
BYBLOCK
 62
     0
 10
25042.469461999979
 20
14226.437668
 30
0.0
 40
15.0
 50
270.0
 51
90.0
  0
ARC
  5
3E03
  8
0
  6
BYBLOCK
 62
     0
 10
25042.469461999979
 20
14226.437668
 30
0.0
 40
15.0
 50
90.0
 51
270.0
  0
ARC
  5
3E04
  8
0
  6
BYBLOCK
 62
     0
 10
20281.469858
 20
20526.936151000031
 30
0.0
 40
15.0
 50
180.0
 51
0.0
  0
ARC
  5
3E05
  8
0
  6
BYBLOCK
 62
     0
 10
20281.469858
 20
20526.936151000031
 30
0.0
 40
15.0
 50
0.0
 51
180.0
  0
ARC
  5
3E06
  8
0
  6
BYBLOCK
 62
     0
 10
20688.969857999989
 20
20526.936151000031
 30
0.0
 40
15.0
 50
0.0
 51
180.0
  0
ARC
  5
3E07
  8
0
  6
BYBLOCK
 62
     0
 10
20688.969857999989
 20
20526.936151000031
 30
0.0
 40
15.0
 50
180.0
 51
0.0
  0
ARC
  5
3E08
  8
0
  6
BYBLOCK
 62
     0
 10
22791.969858
 20
20526.936151000031
 30
0.0
 40
15.0
 50
0.0
 51
180.0
  0
ARC
  5
3E09
  8
0
  6
BYBLOCK
 62
     0
 10
22791.969858
 20
20526.936151000031
 30
0.0
 40
15.0
 50
180.0
 51
0.0
  0
ARC
  5
3E0A
  8
0
  6
BYBLOCK
 62
     0
 10
23549.970847500001
 20
20526.936151000031
 30
0.0
 40
15.0
 50
180.0
 51
0.0
  0
ARC
  5
3E0B
  8
0
  6
BYBLOCK
 62
     0
 10
23549.970847500001
 20
20526.936151000031
 30
0.0
 40
15.0
 50
0.0
 51
180.0
  0
ARC
  5
3E0C
  8
0
  6
BYBLOCK
 62
     0
 10
22090.969858
 20
20526.936151000031
 30
0.0
 40
15.0
 50
0.0
 51
180.0
  0
ARC
  5
3E0D
  8
0
  6
BYBLOCK
 62
     0
 10
22090.969858
 20
20526.936151000031
 30
0.0
 40
15.0
 50
180.0
 51
0.0
  0
ARC
  5
3E0E
  8
0
  6
BYBLOCK
 62
     0
 10
22791.969858
 20
20526.936151000031
 30
0.0
 40
15.0
 50
180.0
 51
0.0
  0
ARC
  5
3E0F
  8
0
  6
BYBLOCK
 62
     0
 10
22791.969858
 20
20526.936151000031
 30
0.0
 40
15.0
 50
0.0
 51
180.0
  0
ARC
  5
3E10
  8
0
  6
BYBLOCK
 62
     0
 10
21389.969857999989
 20
20526.936151000031
 30
0.0
 40
15.0
 50
0.0
 51
180.0
  0
ARC
  5
3E11
  8
0
  6
BYBLOCK
 62
     0
 10
21389.969857999989
 20
20526.936151000031
 30
0.0
 40
15.0
 50
180.0
 51
0.0
  0
ARC
  5
3E12
  8
0
  6
BYBLOCK
 62
     0
 10
22090.969858
 20
20526.936151000031
 30
0.0
 40
15.0
 50
180.0
 51
0.0
  0
ARC
  5
3E13
  8
0
  6
BYBLOCK
 62
     0
 10
22090.969858
 20
20526.936151000031
 30
0.0
 40
15.0
 50
0.0
 51
180.0
  0
ARC
  5
3E14
  8
0
  6
BYBLOCK
 62
     0
 10
20688.969857999989
 20
20526.936151000031
 30
0.0
 40
15.0
 50
0.0
 51
180.0
  0
ARC
  5
3E15
  8
0
  6
BYBLOCK
 62
     0
 10
20688.969857999989
 20
20526.936151000031
 30
0.0
 40
15.0
 50
180.0
 51
0.0
  0
ARC
  5
3E16
  8
0
  6
BYBLOCK
 62
     0
 10
21389.969857999989
 20
20526.936151000031
 30
0.0
 40
15.0
 50
180.0
 51
0.0
  0
ARC
  5
3E17
  8
0
  6
BYBLOCK
 62
     0
 10
21389.969857999989
 20
20526.936151000031
 30
0.0
 40
15.0
 50
0.0
 51
180.0
  0
ARC
  5
3E18
  8
0
  6
BYBLOCK
 62
     0
 10
23549.969858
 20
20526.936151000031
 30
0.0
 40
15.0
 50
180.0
 51
0.0
  0
ARC
  5
3E19
  8
0
  6
BYBLOCK
 62
     0
 10
23549.969858
 20
20526.936151000031
 30
0.0
 40
15.0
 50
0.0
 51
180.0
  0
ARC
  5
3E1A
  8
0
  6
BYBLOCK
 62
     0
 10
23592.46616299999
 20
20526.936151000031
 30
0.0
 40
15.0
 50
0.0
 51
180.0
  0
ARC
  5
3E1B
  8
0
  6
BYBLOCK
 62
     0
 10
23592.46616299999
 20
20526.936151000031
 30
0.0
 40
15.0
 50
180.0
 51
0.0
  0
ARC
  5
3E1C
  8
0
  6
BYBLOCK
 62
     0
 10
20281.469858
 20
20526.936151000031
 30
0.0
 40
15.0
 50
0.0
 51
180.0
  0
ARC
  5
3E1D
  8
0
  6
BYBLOCK
 62
     0
 10
20281.469858
 20
20526.936151000031
 30
0.0
 40
15.0
 50
180.0
 51
0.0
  0
ARC
  5
3E1E
  8
0
  6
BYBLOCK
 62
     0
 10
20238.973552999989
 20
20526.936151000031
 30
0.0
 40
15.0
 50
180.0
 51
0.0
  0
ARC
  5
3E1F
  8
0
  6
BYBLOCK
 62
     0
 10
20238.973552999989
 20
20526.936151000031
 30
0.0
 40
15.0
 50
0.0
 51
180.0
  0
ARC
  5
3E20
  8
0
  6
BYBLOCK
 62
     0
 10
16266.72169299999
 20
6677.6370850000039
 30
0.0
 40
15.0
 50
90.0
 51
270.0
  0
ARC
  5
3E21
  8
0
  6
BYBLOCK
 62
     0
 10
16266.72169299999
 20
6677.6370850000039
 30
0.0
 40
15.0
 50
270.0
 51
90.0
  0
ARC
  5
3E22
  8
0
  6
BYBLOCK
 62
     0
 10
16266.72169299999
 20
9026.1370850000021
 30
0.0
 40
15.0
 50
270.0
 51
90.0
  0
ARC
  5
3E23
  8
0
  6
BYBLOCK
 62
     0
 10
16266.72169299999
 20
9026.1370850000021
 30
0.0
 40
15.0
 50
90.0
 51
270.0
  0
ARC
  5
3E24
  8
0
  6
BYBLOCK
 62
     0
 10
8516.2248590000054
 20
6677.6370850000039
 30
0.0
 40
15.0
 50
90.0
 51
270.0
  0
ARC
  5
3E25
  8
0
  6
BYBLOCK
 62
     0
 10
8516.2248590000054
 20
6677.6370850000039
 30
0.0
 40
15.0
 50
270.0
 51
90.0
  0
ARC
  5
3E26
  8
0
  6
BYBLOCK
 62
     0
 10
8516.2248590000054
 20
8833.6370850000058
 30
0.0
 40
15.0
 50
270.0
 51
90.0
  0
ARC
  5
3E27
  8
0
  6
BYBLOCK
 62
     0
 10
8516.2248590000054
 20
8833.6370850000058
 30
0.0
 40
15.0
 50
90.0
 51
270.0
  0
ARC
  5
3E28
  8
0
  6
BYBLOCK
 62
     0
 10
9426.2232769999955
 20
10225.637111
 30
0.0
 40
15.0
 50
0.0
 51
180.0
  0
ARC
  5
3E29
  8
0
  6
BYBLOCK
 62
     0
 10
9426.2232769999955
 20
10225.637111
 30
0.0
 40
15.0
 50
180.0
 51
0.0
  0
ARC
  5
3E2A
  8
0
  6
BYBLOCK
 62
     0
 10
15326.723276999999
 20
10225.637111
 30
0.0
 40
15.0
 50
180.0
 51
0.0
  0
ARC
  5
3E2B
  8
0
  6
BYBLOCK
 62
     0
 10
15326.723276999999
 20
10225.637111
 30
0.0
 40
15.0
 50
0.0
 51
180.0
  0
ARC
  5
3E2C
  8
0
  6
BYBLOCK
 62
     0
 10
15176.72327699999
 20
9825.638761000002
 30
0.0
 40
15.0
 50
180.0
 51
0.0
  0
ARC
  5
3E2D
  8
0
  6
BYBLOCK
 62
     0
 10
15176.72327699999
 20
9825.638761000002
 30
0.0
 40
15.0
 50
0.0
 51
180.0
  0
ARC
  5
3E2E
  8
0
  6
BYBLOCK
 62
     0
 10
15326.723276999999
 20
9825.638761000002
 30
0.0
 40
15.0
 50
0.0
 51
180.0
  0
ARC
  5
3E2F
  8
0
  6
BYBLOCK
 62
     0
 10
15326.723276999999
 20
9825.638761000002
 30
0.0
 40
15.0
 50
180.0
 51
0.0
  0
ARC
  5
3E30
  8
0
  6
BYBLOCK
 62
     0
 10
9606.2232769999955
 20
9825.638761000002
 30
0.0
 40
15.0
 50
0.0
 51
180.0
  0
ARC
  5
3E31
  8
0
  6
BYBLOCK
 62
     0
 10
9606.2232769999955
 20
9825.638761000002
 30
0.0
 40
15.0
 50
180.0
 51
0.0
  0
ARC
  5
3E32
  8
0
  6
BYBLOCK
 62
     0
 10
15176.72327699999
 20
9825.638761000002
 30
0.0
 40
15.0
 50
180.0
 51
0.0
  0
ARC
  5
3E33
  8
0
  6
BYBLOCK
 62
     0
 10
15176.72327699999
 20
9825.638761000002
 30
0.0
 40
15.0
 50
0.0
 51
180.0
  0
ARC
  5
3E34
  8
0
  6
BYBLOCK
 62
     0
 10
9426.2232769999955
 20
9825.638761000002
 30
0.0
 40
15.0
 50
180.0
 51
0.0
  0
ARC
  5
3E35
  8
0
  6
BYBLOCK
 62
     0
 10
9426.2232769999955
 20
9825.638761000002
 30
0.0
 40
15.0
 50
0.0
 51
180.0
  0
ARC
  5
3E36
  8
0
  6
BYBLOCK
 62
     0
 10
9606.2232769999955
 20
9825.638761000002
 30
0.0
 40
15.0
 50
0.0
 51
180.0
  0
ARC
  5
3E37
  8
0
  6
BYBLOCK
 62
     0
 10
9606.2232769999955
 20
9825.638761000002
 30
0.0
 40
15.0
 50
180.0
 51
0.0
  0
ARC
  5
3E38
  8
0
  6
BYBLOCK
 62
     0
 10
9606.2232769999955
 20
4977.637415000002
 30
0.0
 40
15.0
 50
0.0
 51
180.0
  0
ARC
  5
3E39
  8
0
  6
BYBLOCK
 62
     0
 10
9606.2232769999955
 20
4977.637415000002
 30
0.0
 40
15.0
 50
180.0
 51
0.0
  0
ARC
  5
3E3A
  8
0
  6
BYBLOCK
 62
     0
 10
15176.72327699999
 20
4977.637415000002
 30
0.0
 40
15.0
 50
180.0
 51
0.0
  0
ARC
  5
3E3B
  8
0
  6
BYBLOCK
 62
     0
 10
15176.72327699999
 20
4977.637415000002
 30
0.0
 40
15.0
 50
0.0
 51
180.0
  0
ARC
  5
3E3C
  8
0
  6
BYBLOCK
 62
     0
 10
15134.223276999999
 20
5377.6372500000016
 30
0.0
 40
15.0
 50
180.0
 51
0.0
  0
ARC
  5
3E3D
  8
0
  6
BYBLOCK
 62
     0
 10
15134.223276999999
 20
5377.6372500000016
 30
0.0
 40
15.0
 50
0.0
 51
180.0
  0
ARC
  5
3E3E
  8
0
  6
BYBLOCK
 62
     0
 10
15176.72327699999
 20
5377.6372500000016
 30
0.0
 40
15.0
 50
0.0
 51
180.0
  0
ARC
  5
3E3F
  8
0
  6
BYBLOCK
 62
     0
 10
15176.72327699999
 20
5377.6372500000016
 30
0.0
 40
15.0
 50
180.0
 51
0.0
  0
ARC
  5
3E40
  8
0
  6
BYBLOCK
 62
     0
 10
9648.7232769999955
 20
5377.6372500000016
 30
0.0
 40
15.0
 50
0.0
 51
180.0
  0
ARC
  5
3E41
  8
0
  6
BYBLOCK
 62
     0
 10
9648.7232769999955
 20
5377.6372500000016
 30
0.0
 40
15.0
 50
180.0
 51
0.0
  0
ARC
  5
3E42
  8
0
  6
BYBLOCK
 62
     0
 10
9606.2232769999955
 20
5377.6372500000016
 30
0.0
 40
15.0
 50
180.0
 51
0.0
  0
ARC
  5
3E43
  8
0
  6
BYBLOCK
 62
     0
 10
9606.2232769999955
 20
5377.6372500000016
 30
0.0
 40
15.0
 50
0.0
 51
180.0
  0
ARC
  5
3E44
  8
0
  6
BYBLOCK
 62
     0
 10
12216.223276999999
 20
5377.6372500000016
 30
0.0
 40
15.0
 50
180.0
 51
0.0
  0
ARC
  5
3E45
  8
0
  6
BYBLOCK
 62
     0
 10
12216.223276999999
 20
5377.6372500000016
 30
0.0
 40
15.0
 50
0.0
 51
180.0
  0
ARC
  5
3E46
  8
0
  6
BYBLOCK
 62
     0
 10
9648.7232769999955
 20
5377.6372500000016
 30
0.0
 40
15.0
 50
0.0
 51
180.0
  0
ARC
  5
3E47
  8
0
  6
BYBLOCK
 62
     0
 10
9648.7232769999955
 20
5377.6372500000016
 30
0.0
 40
15.0
 50
180.0
 51
0.0
  0
ARC
  5
3E48
  8
0
  6
BYBLOCK
 62
     0
 10
12216.223276999999
 20
5377.6372500000016
 30
0.0
 40
15.0
 50
0.0
 51
180.0
  0
ARC
  5
3E49
  8
0
  6
BYBLOCK
 62
     0
 10
12216.223276999999
 20
5377.6372500000016
 30
0.0
 40
15.0
 50
180.0
 51
0.0
  0
ARC
  5
3E4A
  8
0
  6
BYBLOCK
 62
     0
 10
15134.223276999999
 20
5377.6372500000016
 30
0.0
 40
15.0
 50
180.0
 51
0.0
  0
ARC
  5
3E4B
  8
0
  6
BYBLOCK
 62
     0
 10
15134.223276999999
 20
5377.6372500000016
 30
0.0
 40
15.0
 50
0.0
 51
180.0
  0
ARC
  5
3E4C
  8
0
  6
BYBLOCK
 62
     0
 10
19431.46853799999
 20
6677.6370850000039
 30
0.0
 40
15.0
 50
90.0
 51
270.0
  0
ARC
  5
3E4D
  8
0
  6
BYBLOCK
 62
     0
 10
19431.46853799999
 20
6677.6370850000039
 30
0.0
 40
15.0
 50
270.0
 51
90.0
  0
ARC
  5
3E4E
  8
0
  6
BYBLOCK
 62
     0
 10
19431.468538000001
 20
8569.1370850000021
 30
0.0
 40
15.0
 50
270.0
 51
90.0
  0
ARC
  5
3E4F
  8
0
  6
BYBLOCK
 62
     0
 10
19431.468538000001
 20
8569.1370850000021
 30
0.0
 40
15.0
 50
90.0
 51
270.0
  0
ARC
  5
3E50
  8
0
  6
BYBLOCK
 62
     0
 10
19031.466228999991
 20
6677.6370850000039
 30
0.0
 40
15.0
 50
90.0
 51
270.0
  0
ARC
  5
3E51
  8
0
  6
BYBLOCK
 62
     0
 10
19031.466228999991
 20
6677.6370850000039
 30
0.0
 40
15.0
 50
270.0
 51
90.0
  0
ARC
  5
3E52
  8
0
  6
BYBLOCK
 62
     0
 10
19031.466228999991
 20
9026.1369400000021
 30
0.0
 40
15.0
 50
270.0
 51
90.0
  0
ARC
  5
3E53
  8
0
  6
BYBLOCK
 62
     0
 10
19031.466228999991
 20
9026.1369400000021
 30
0.0
 40
15.0
 50
90.0
 51
270.0
  0
ARC
  5
3E64
  8
0
  6
BYBLOCK
 62
     0
 10
23549.969858
 20
5377.637250000008
 30
0.0
 40
15.0
 50
180.0
 51
0.0
  0
ARC
  5
3E65
  8
0
  6
BYBLOCK
 62
     0
 10
23549.969858
 20
5377.637250000008
 30
0.0
 40
15.0
 50
0.0
 51
180.0
  0
ARC
  5
3E66
  8
0
  6
BYBLOCK
 62
     0
 10
23592.469858
 20
5377.637250000008
 30
0.0
 40
15.0
 50
0.0
 51
180.0
  0
ARC
  5
3E67
  8
0
  6
BYBLOCK
 62
     0
 10
23592.469858
 20
5377.637250000008
 30
0.0
 40
15.0
 50
180.0
 51
0.0
  0
ARC
  5
3E68
  8
0
  6
BYBLOCK
 62
     0
 10
20375.469858
 20
5777.6372500000089
 30
0.0
 40
15.0
 50
0.0
 51
180.0
  0
ARC
  5
3E69
  8
0
  6
BYBLOCK
 62
     0
 10
20375.469858
 20
5777.6372500000089
 30
0.0
 40
15.0
 50
180.0
 51
0.0
  0
ARC
  5
3E6A
  8
0
  6
BYBLOCK
 62
     0
 10
23455.969858
 20
5777.6372500000089
 30
0.0
 40
15.0
 50
180.0
 51
0.0
  0
ARC
  5
3E6B
  8
0
  6
BYBLOCK
 62
     0
 10
23455.969858
 20
5777.6372500000089
 30
0.0
 40
15.0
 50
0.0
 51
180.0
  0
ARC
  5
3E6C
  8
0
  6
BYBLOCK
 62
     0
 10
20281.469858
 20
5377.637250000008
 30
0.0
 40
15.0
 50
0.0
 51
180.0
  0
ARC
  5
3E6D
  8
0
  6
BYBLOCK
 62
     0
 10
20281.469858
 20
5377.637250000008
 30
0.0
 40
15.0
 50
180.0
 51
0.0
  0
ARC
  5
3E6E
  8
0
  6
BYBLOCK
 62
     0
 10
23549.969858
 20
5377.637250000008
 30
0.0
 40
15.0
 50
180.0
 51
0.0
  0
ARC
  5
3E6F
  8
0
  6
BYBLOCK
 62
     0
 10
23549.969858
 20
5377.637250000008
 30
0.0
 40
15.0
 50
0.0
 51
180.0
  0
ARC
  5
3E70
  8
0
  6
BYBLOCK
 62
     0
 10
20281.469858
 20
5377.637250000008
 30
0.0
 40
15.0
 50
0.0
 51
180.0
  0
ARC
  5
3E71
  8
0
  6
BYBLOCK
 62
     0
 10
20281.469858
 20
5377.637250000008
 30
0.0
 40
15.0
 50
180.0
 51
0.0
  0
ARC
  5
3E72
  8
0
  6
BYBLOCK
 62
     0
 10
20238.969857999989
 20
5377.637250000008
 30
0.0
 40
15.0
 50
180.0
 51
0.0
  0
ARC
  5
3E73
  8
0
  6
BYBLOCK
 62
     0
 10
20238.969857999989
 20
5377.637250000008
 30
0.0
 40
15.0
 50
0.0
 51
180.0
  0
ARC
  5
3E74
  8
0
  6
BYBLOCK
 62
     0
 10
20238.969857999989
 20
4977.6374150000102
 30
0.0
 40
15.0
 50
0.0
 51
180.0
  0
ARC
  5
3E75
  8
0
  6
BYBLOCK
 62
     0
 10
20238.969857999989
 20
4977.6374150000102
 30
0.0
 40
15.0
 50
180.0
 51
0.0
  0
ARC
  5
3E76
  8
0
  6
BYBLOCK
 62
     0
 10
23592.469858
 20
4977.6374150000102
 30
0.0
 40
15.0
 50
180.0
 51
0.0
  0
ARC
  5
3E77
  8
0
  6
BYBLOCK
 62
     0
 10
23592.469858
 20
4977.6374150000102
 30
0.0
 40
15.0
 50
0.0
 51
180.0
  0
LINE
  5
3F81
  8
0-1
  6
CONTINUOUS
 62
     3
 10
20323.966163000001
 20
8762.1374540000015
 30
0.0
 11
23507.469593999991
 21
8762.1374540000015
 31
0.0
  0
LINE
  5
3F82
  8
0-1
  6
CONTINUOUS
 62
     3
 10
20195.969463000009
 20
8699.9513730000017
 30
0.0
 11
20195.969463000009
 21
9025.6371109999982
 31
0.0
  0
LINE
  5
3F83
  8
0-1
  6
CONTINUOUS
 62
     3
 10
23635.468274999988
 20
8895.6371770000005
 30
0.0
 11
20195.969463000009
 21
8895.6371770000005
 31
0.0
  0
LINE
  5
3F84
  8
0-1
  6
CONTINUOUS
 62
     3
 10
23635.468274999988
 20
9025.6371109999982
 30
0.0
 11
23635.468274999988
 21
8699.9513730000017
 31
0.0
  0
LINE
  5
3F85
  8
0-1
  6
CONTINUOUS
 62
     3
 10
20195.969463000009
 20
9025.6371109999982
 30
0.0
 11
23635.468274999988
 21
9025.6371109999982
 31
0.0
  0
LINE
  5
3F86
  8
0-1
  6
CONTINUOUS
 62
     3
 10
23635.468274999988
 20
8699.9513730000017
 30
0.0
 11
23592.468142999998
 21
8699.9513730000017
 31
0.0
  0
LINE
  5
3F87
  8
0-1
  6
CONTINUOUS
 62
     3
 10
20195.969463000009
 20
8699.9513730000017
 30
0.0
 11
20238.967615000009
 21
8699.9513730000017
 31
0.0
  0
LINE
  5
3F88
  8
0-1
  6
CONTINUOUS
 62
     3
 10
20349.969119000009
 20
8771.1378310000091
 30
0.0
 11
20627.398648999999
 21
8771.1378310000091
 31
0.0
  0
LINE
  5
3F89
  8
0-1
  6
CONTINUOUS
 62
     3
 10
20349.969119000009
 20
8813.1372760000031
 30
0.0
 11
20659.395586999999
 21
8813.1372760000031
 31
0.0
  0
LINE
  5
3F8A
  8
0-1
  6
CONTINUOUS
 62
     3
 10
20344.968855999989
 20
8776.1376000000055
 30
0.0
 11
20344.968855999989
 21
8808.1380020000051
 31
0.0
  0
LINE
  5
3F8B
  8
0-1
  6
CONTINUOUS
 62
     3
 10
20323.966163000001
 20
8822.137158000005
 30
0.0
 11
23507.469593999991
 21
8822.137158000005
 31
0.0
  0
LINE
  5
3F8C
  8
0-1
  6
CONTINUOUS
 62
     3
 10
20630.932089000009
 20
8772.6016850000051
 30
0.0
 11
20662.932986999989
 21
8804.6020870000048
 31
0.0
  0
LINE
  5
3F8D
  8
0-1
  6
CONTINUOUS
 62
     3
 10
20344.968855999989
 20
8804.7376840000088
 30
0.0
 11
20663.061655000001
 21
8804.7376840000088
 31
0.0
  0
LINE
  5
3F8E
  8
0-1
  6
CONTINUOUS
 62
     3
 10
20344.968855999989
 20
8796.337597000007
 30
0.0
 11
20654.668496999999
 21
8796.337597000007
 31
0.0
  0
LINE
  5
3F8F
  8
0-1
  6
CONTINUOUS
 62
     3
 10
20344.968855999989
 20
8787.9380050000054
 30
0.0
 11
20646.269399000012
 21
8787.9380050000054
 31
0.0
  0
LINE
  5
3F90
  8
0-1
  6
CONTINUOUS
 62
     3
 10
20344.968855999989
 20
8779.5379180000054
 30
0.0
 11
20637.866343000009
 21
8779.5379180000054
 31
0.0
  0
LINE
  5
3F91
  8
0-1
  6
CONTINUOUS
 62
     3
 10
23486.468881999979
 20
8804.7376840000088
 30
0.0
 11
23168.376081999999
 21
8804.7376840000088
 31
0.0
  0
LINE
  5
3F92
  8
0-1
  6
CONTINUOUS
 62
     3
 10
23486.468881999979
 20
8796.337597000007
 30
0.0
 11
23176.771219999999
 21
8796.337597000007
 31
0.0
  0
LINE
  5
3F93
  8
0-1
  6
CONTINUOUS
 62
     3
 10
23486.468881999979
 20
8787.9380050000054
 30
0.0
 11
23185.170316999989
 21
8787.9380050000054
 31
0.0
  0
LINE
  5
3F94
  8
0-1
  6
CONTINUOUS
 62
     3
 10
23486.468881999979
 20
8779.5379180000054
 30
0.0
 11
23193.569414999991
 21
8779.5379180000054
 31
0.0
  0
LINE
  5
3F95
  8
0-1
  6
CONTINUOUS
 62
     3
 10
23481.468617999999
 20
8813.1372760000031
 30
0.0
 11
23172.042149999979
 21
8813.1372760000031
 31
0.0
  0
LINE
  5
3F96
  8
0-1
  6
CONTINUOUS
 62
     3
 10
23481.468617999999
 20
8771.1378310000091
 30
0.0
 11
23204.039088999991
 21
8771.1378310000091
 31
0.0
  0
LINE
  5
3F97
  8
0-1
  6
CONTINUOUS
 62
     3
 10
23486.468881999979
 20
8776.1376000000055
 30
0.0
 11
23486.468881999979
 21
8808.1380020000051
 31
0.0
  0
LINE
  5
3F98
  8
0-1
  6
CONTINUOUS
 62
     3
 10
23200.50366799999
 20
8772.6016850000051
 30
0.0
 11
23168.506730000001
 21
8804.6020870000048
 31
0.0
  0
ARC
  5
3F99
  8
0-1
  6
CONTINUOUS
 62
     3
 10
20349.969119000009
 20
8808.1380020000051
 30
0.0
 40
5.0
 50
90.0
 51
180.0
  0
ARC
  5
3F9A
  8
0-1
  6
CONTINUOUS
 62
     3
 10
20349.969119000009
 20
8776.1376000000055
 30
0.0
 40
5.0
 50
180.0
 51
269.9999850001808
  0
ARC
  5
3F9B
  8
0-1
  6
CONTINUOUS
 62
     3
 10
20627.398648999999
 20
8776.1376000000055
 30
0.0
 40
5.0
 50
269.9999850001808
 51
314.99998500027471
  0
ARC
  5
3F9C
  8
0-1
  6
CONTINUOUS
 62
     3
 10
20659.395586999999
 20
8808.1380020000051
 30
0.0
 40
5.0
 50
314.99998500027471
 51
90.0
  0
ARC
  5
3F9D
  8
0-1
  6
CONTINUOUS
 62
     3
 10
23481.468617999999
 20
8776.1376000000055
 30
0.0
 40
5.0
 50
269.9999850001808
 51
0.0
  0
ARC
  5
3F9E
  8
0-1
  6
CONTINUOUS
 62
     3
 10
23481.468617999999
 20
8808.1380020000051
 30
0.0
 40
5.0
 50
0.0
 51
90.0
  0
ARC
  5
3F9F
  8
0-1
  6
CONTINUOUS
 62
     3
 10
23172.042149999979
 20
8808.1380020000051
 30
0.0
 40
5.0
 50
90.0
 51
224.99998499997989
  0
ARC
  5
3FA0
  8
0-1
  6
CONTINUOUS
 62
     3
 10
23204.039088999991
 20
8776.1376000000055
 30
0.0
 40
5.0
 50
224.99998499997989
 51
269.9999850001808
  0
LINE
  5
3FA1
  8
SUNPOU
  6
CONTINUOUS
 62
     4
 10
23592.470121999981
 20
9105.637111
 30
0.0
 11
23592.470121999981
 21
9905.1369529999993
 31
0.0
  0
LINE
  5
3FA2
  8
SUNPOU
  6
CONTINUOUS
 62
     4
 10
23635.472232999971
 20
9105.637111
 30
0.0
 11
23635.472232999971
 21
9905.1369529999993
 31
0.0
  0
LINE
  5
3FA3
  8
SUNPOU
  6
CONTINUOUS
 62
     4
 10
23592.470121999981
 20
9825.1369529999993
 30
0.0
 11
23352.470121999981
 21
9825.1369529999993
 31
0.0
  0
LINE
  5
3FA4
  8
SUNPOU
  6
CONTINUOUS
 62
     4
 10
23632.472232999971
 20
9825.1369529999993
 30
0.0
 11
23872.472232999971
 21
9825.1369529999993
 31
0.0
  0
LINE
  5
3FA5
  8
SUNPOU
  6
CONTINUOUS
 62
     4
 10
23592.470121999981
 20
9825.1369529999993
 30
0.0
 11
23632.472232999971
 21
9825.1369529999993
 31
0.0
  0
LINE
  5
3FA6
  8
SUNPOU
  6
CONTINUOUS
 62
     4
 10
20195.967483000019
 20
9105.637111
 30
0.0
 11
20195.967483000019
 21
10305.094723
 31
0.0
  0
LINE
  5
3FA7
  8
SUNPOU
  6
CONTINUOUS
 62
     4
 10
23635.472232999971
 20
9105.637111
 30
0.0
 11
23635.472232999971
 21
10305.094723
 31
0.0
  0
LINE
  5
3FA8
  8
SUNPOU
  6
CONTINUOUS
 62
     4
 10
20198.967483000019
 20
10225.094723
 30
0.0
 11
23632.472232999971
 21
10225.094723
 31
0.0
  0
LINE
  5
3FA9
  8
SUNPOU
  6
CONTINUOUS
 62
     4
 10
20238.969593999998
 20
9105.637111
 30
0.0
 11
20238.969593999998
 21
9905.1369529999993
 31
0.0
  0
LINE
  5
3FAA
  8
SUNPOU
  6
CONTINUOUS
 62
     4
 10
23592.470121999981
 20
9105.637111
 30
0.0
 11
23592.470121999981
 21
9905.1369529999993
 31
0.0
  0
LINE
  5
3FAB
  8
SUNPOU
  6
CONTINUOUS
 62
     4
 10
20238.969593999998
 20
9825.1369529999993
 30
0.0
 11
23592.470121999981
 21
9825.1369529999993
 31
0.0
  0
LINE
  5
3FAC
  8
SUNPOU
  6
CONTINUOUS
 62
     4
 10
20238.969593999998
 20
9105.637111
 30
0.0
 11
20238.969593999998
 21
9905.1369529999993
 31
0.0
  0
LINE
  5
3FAD
  8
SUNPOU
  6
CONTINUOUS
 62
     4
 10
20195.967483000019
 20
9105.637111
 30
0.0
 11
20195.967483000019
 21
9905.1369529999993
 31
0.0
  0
LINE
  5
3FAE
  8
SUNPOU
  6
CONTINUOUS
 62
     4
 10
20238.969593999998
 20
9825.1369529999993
 30
0.0
 11
20478.969593999998
 21
9825.1369529999993
 31
0.0
  0
LINE
  5
3FAF
  8
SUNPOU
  6
CONTINUOUS
 62
     4
 10
20198.967483000019
 20
9825.1369529999993
 30
0.0
 11
19958.967483000011
 21
9825.1369529999993
 31
0.0
  0
LINE
  5
3FB0
  8
SUNPOU
  6
CONTINUOUS
 62
     4
 10
20238.969593999998
 20
9825.1369529999993
 30
0.0
 11
20198.967483000019
 21
9825.1369529999993
 31
0.0
  0
TEXT
  5
3FB1
  8
0
  6
CONTINUOUS
 62
     7
 10
19838.967483000019
 20
9905.1369529999993
 30
0.0
 40
160.0
  1
43
  0
TEXT
  5
3FB2
  8
0
  6
CONTINUOUS
 62
     7
 10
21515.719857999989
 20
9905.1369529999993
 30
0.0
 40
160.0
  1
3353.5
  0
TEXT
  5
3FB3
  8
0
  6
CONTINUOUS
 62
     7
 10
21515.719857999989
 20
10305.094723
 30
0.0
 40
160.0
  1
3439.5
  0
TEXT
  5
3FB4
  8
0
  6
CONTINUOUS
 62
     7
 10
23752.472232999971
 20
9905.1369529999993
 30
0.0
 40
160.0
  1
43
  0
ARC
  5
3FB5
  8
0
  6
BYBLOCK
 62
     0
 10
23592.470121999981
 20
9825.1369529999993
 30
0.0
 40
15.0
 50
180.0
 51
0.0
  0
ARC
  5
3FB6
  8
0
  6
BYBLOCK
 62
     0
 10
23592.470121999981
 20
9825.1369529999993
 30
0.0
 40
15.0
 50
0.0
 51
180.0
  0
ARC
  5
3FB7
  8
0
  6
BYBLOCK
 62
     0
 10
23635.472232999971
 20
9825.1369529999993
 30
0.0
 40
15.0
 50
0.0
 51
180.0
  0
ARC
  5
3FB8
  8
0
  6
BYBLOCK
 62
     0
 10
23635.472232999971
 20
9825.1369529999993
 30
0.0
 40
15.0
 50
180.0
 51
0.0
  0
ARC
  5
3FB9
  8
0
  6
BYBLOCK
 62
     0
 10
20195.967483000019
 20
10225.094723
 30
0.0
 40
15.0
 50
0.0
 51
180.0
  0
ARC
  5
3FBA
  8
0
  6
BYBLOCK
 62
     0
 10
20195.967483000019
 20
10225.094723
 30
0.0
 40
15.0
 50
180.0
 51
0.0
  0
ARC
  5
3FBB
  8
0
  6
BYBLOCK
 62
     0
 10
23635.472232999971
 20
10225.094723
 30
0.0
 40
15.0
 50
180.0
 51
0.0
  0
ARC
  5
3FBC
  8
0
  6
BYBLOCK
 62
     0
 10
23635.472232999971
 20
10225.094723
 30
0.0
 40
15.0
 50
0.0
 51
180.0
  0
ARC
  5
3FBD
  8
0
  6
BYBLOCK
 62
     0
 10
20238.969593999998
 20
9825.1369529999993
 30
0.0
 40
15.0
 50
0.0
 51
180.0
  0
ARC
  5
3FBE
  8
0
  6
BYBLOCK
 62
     0
 10
20238.969593999998
 20
9825.1369529999993
 30
0.0
 40
15.0
 50
180.0
 51
0.0
  0
ARC
  5
3FBF
  8
0
  6
BYBLOCK
 62
     0
 10
23592.470121999981
 20
9825.1369529999993
 30
0.0
 40
15.0
 50
180.0
 51
0.0
  0
ARC
  5
3FC0
  8
0
  6
BYBLOCK
 62
     0
 10
23592.470121999981
 20
9825.1369529999993
 30
0.0
 40
15.0
 50
0.0
 51
180.0
  0
ARC
  5
3FC1
  8
0
  6
BYBLOCK
 62
     0
 10
20238.969593999998
 20
9825.1369529999993
 30
0.0
 40
15.0
 50
0.0
 51
180.0
  0
ARC
  5
3FC2
  8
0
  6
BYBLOCK
 62
     0
 10
20238.969593999998
 20
9825.1369529999993
 30
0.0
 40
15.0
 50
180.0
 51
0.0
  0
ARC
  5
3FC3
  8
0
  6
BYBLOCK
 62
     0
 10
20195.967483000019
 20
9825.1369529999993
 30
0.0
 40
15.0
 50
180.0
 51
0.0
  0
ARC
  5
3FC4
  8
0
  6
BYBLOCK
 62
     0
 10
20195.967483000019
 20
9825.1369529999993
 30
0.0
 40
15.0
 50
0.0
 51
180.0
  0
LINE
  5
3FD2
  8
SUNPOU
  6
CONTINUOUS
 62
     4
 10
10540.969528999971
 20
13996.43370999999
 30
0.0
 11
10540.969528999971
 21
12817.48390999999
 31
0.0
  0
LINE
  5
3FD3
  8
SUNPOU
  6
CONTINUOUS
 62
     4
 10
13980.470320999981
 20
13996.43370999999
 30
0.0
 11
13980.470320999981
 21
12817.48390999999
 31
0.0
  0
LINE
  5
3FD4
  8
SUNPOU
  6
CONTINUOUS
 62
     4
 10
10540.969528999971
 20
12897.48390999999
 30
0.0
 11
13980.470320999981
 21
12897.48390999999
 31
0.0
  0
TEXT
  5
3FD5
  8
0
  6
CONTINUOUS
 62
     7
 10
11338.053258333301
 20
12977.48390999999
 30
0.0
 40
160.0
  1
ケラバ外寸 3439.5
  0
ARC
  5
3FD6
  8
0
  6
BYBLOCK
 62
     0
 10
10540.969528999971
 20
12897.48390999999
 30
0.0
 40
15.0
 50
0.0
 51
180.0
  0
ARC
  5
3FD7
  8
0
  6
BYBLOCK
 62
     0
 10
10540.969528999971
 20
12897.48390999999
 30
0.0
 40
15.0
 50
180.0
 51
0.0
  0
ARC
  5
3FD8
  8
0
  6
BYBLOCK
 62
     0
 10
13980.470320999981
 20
12897.48390999999
 30
0.0
 40
15.0
 50
180.0
 51
0.0
  0
ARC
  5
3FD9
  8
0
  6
BYBLOCK
 62
     0
 10
13980.470320999981
 20
12897.48390999999
 30
0.0
 40
15.0
 50
0.0
 51
180.0
  0
TEXT
  5
402E
  8
NAME
 10
24189.8234220308
 20
1076.0
 30
0.0
 40
360.0
  1
H
 41
0.6700000000000002
  7
00
  0
TEXT
  5
402F
  8
NAME
 10
23813.99143745047
 20
1076.0
 30
0.0
 40
360.0
  1
（ ）
  7
01
  0
TEXT
  5
4030
  8
NAME
 10
24713.98442473351
 20
1076.0
 30
0.0
 40
360.0
  1
型（単棟）
  7
01
  0
TEXT
  5
4031
  8
NAME
 10
21686.3487663915
 20
1076.6369801169251
 30
0.0
 40
360.0
  1
VGCU-3355
 41
0.6700000000000002
  0
TEXT
  5
4033
  8
NAME
 10
21933.552716389011
 20
1876.0
 30
0.0
 40
360.0
  1
ヨドガレージ ラヴィージュ
 41
0.75
  7
01
  0
LINE
  5
4034
  8
NAME
  6
CONTINUOUS
 10
26067.886878884299
 20
2236.0
 30
0.0
 11
26067.886878884299
 21
1876.0
 31
0.0
  0
LINE
  5
4035
  8
NAME
  6
CONTINUOUS
 10
26167.886878884299
 20
2236.0
 30
0.0
 11
26167.886878884299
 21
1876.0
 31
0.0
  0
LINE
  5
4036
  8
NAME
  6
CONTINUOUS
 10
26267.88687888431
 20
2236.0
 30
0.0
 11
26267.88687888431
 21
1876.0
 31
0.0
  0
LINE
  5
4037
  8
NAME
  6
CONTINUOUS
 10
26007.886878884299
 20
2236.0
 30
0.0
 11
26327.886878884299
 21
2236.0
 31
0.0
  0
LINE
  5
4038
  8
NAME
  6
CONTINUOUS
 10
26327.886878884299
 20
1876.0
 30
0.0
 11
26007.886878884299
 21
1876.0
 31
0.0
  0
TEXT
  5
40D2
  8
FILENAME
  6
CONTINUOUS
 10
28546.857142857141
 20
348.0
 30
0.0
 40
200.0
  1
＜VGCU-3355-1-A_0.DXF ＞
  7
FILENAME
 72
     2
 11
32764.0
 21
348.0
 31
0.0
  0
LINE
  5
40D8
  8
WAKUSEN-01
 10
868.00000000000193
 20
827.99999999999955
 30
0.0
 11
32764.000000000011
 21
827.99999999999943
 31
0.0
  0
LINE
  5
40D9
  8
WAKUSEN-01
 10
868.00000000000193
 20
827.99999999999955
 30
0.0
 11
868.00000000000193
 21
22484.000000000011
 31
0.0
  0
LINE
  5
40DA
  8
WAKUSEN-01
 10
32764.000000000011
 20
827.99999999999943
 30
0.0
 11
32764.000000000011
 21
22484.000000000011
 31
0.0
  0
LINE
  5
40DB
  8
WAKUSEN-01
 10
20560.0
 20
827.99999999999716
 30
0.0
 11
20560.0
 21
2484.0
 31
0.0
  0
LINE
  5
40DC
  8
WAKUSEN-02
 10
26868.0
 20
827.99999999999261
 30
0.0
 11
26868.0
 21
2484.0
 31
0.0
  0
ENDSEC
  0
EOF
