  0
SECTION
  2
HEADER
  9
$ACADVER
  1
AC1009
  9
$INSBASE
 10
0.0
 20
0.0
 30
0.0
  9
$EXTMIN
 10
867.99324330406671
 20
327.38164749855792
 30
-0.000000000000013
  9
$EXTMAX
 10
32765.33210850941
 20
22484.553276491992
 30
0.0000000000000023
  9
$LIMMIN
 10
0.0
 20
0.0
  9
$LIMMAX
 10
33600.0
 20
23760.0
  9
$ORTHOMODE
 70
     1
  9
$REGENMODE
 70
     1
  9
$FILLMODE
 70
     1
  9
$QTEXTMODE
 70
     0
  9
$MIRRTEXT
 70
     0
  9
$DRAGMODE
 70
     2
  9
$LTSCALE
 40
80.0
  9
$OSMODE
 70
  3071
  9
$ATTMODE
 70
     1
  9
$TEXTSIZE
 40
0.2
  9
$TRACEWID
 40
0.05
  9
$TEXTSTYLE
  7
00
  9
$CLAYER
  8
0
  9
$CELTYPE
  6
BYLAYER
  9
$CECOLOR
 62
   256
  9
$DIMSCALE
 40
1.0
  9
$DIMASZ
 40
0.18
  9
$DIMEXO
 40
0.0625
  9
$DIMDLI
 40
0.38
  9
$DIMRND
 40
0.0
  9
$DIMDLE
 40
0.0
  9
$DIMEXE
 40
0.18
  9
$DIMTP
 40
0.0
  9
$DIMTM
 40
0.0
  9
$DIMTXT
 40
0.18
  9
$DIMCEN
 40
0.09
  9
$DIMTSZ
 40
0.0
  9
$DIMTOL
 70
     0
  9
$DIMLIM
 70
     0
  9
$DIMTIH
 70
     1
  9
$DIMTOH
 70
     1
  9
$DIMSE1
 70
     0
  9
$DIMSE2
 70
     0
  9
$DIMTAD
 70
     0
  9
$DIMZIN
 70
     0
  9
$DIMBLK
  1

  9
$DIMASO
 70
     1
  9
$DIMSHO
 70
     1
  9
$DIMPOST
  1

  9
$DIMAPOST
  1

  9
$DIMALT
 70
     0
  9
$DIMALTD
 70
     2
  9
$DIMALTF
 40
25.399999999999999
  9
$DIMLFAC
 40
1.0
  9
$DIMTOFL
 70
     0
  9
$DIMTVP
 40
0.0
  9
$DIMTIX
 70
     0
  9
$DIMSOXD
 70
     0
  9
$DIMSAH
 70
     0
  9
$DIMBLK1
  1

  9
$DIMBLK2
  1

  9
$DIMSTYLE
  2
STANDARD
  9
$DIMCLRD
 70
     0
  9
$DIMCLRE
 70
     0
  9
$DIMCLRT
 70
     0
  9
$DIMTFAC
 40
1.0
  9
$DIMGAP
 40
0.09
  9
$LUNITS
 70
     2
  9
$LUPREC
 70
     4
  9
$SKETCHINC
 40
0.1
  9
$FILLETRAD
 40
0.0
  9
$AUNITS
 70
     0
  9
$AUPREC
 70
     0
  9
$MENU
  1
acad
  9
$ELEVATION
 40
0.0
  9
$PELEVATION
 40
0.0
  9
$THICKNESS
 40
0.0
  9
$LIMCHECK
 70
     0
  9
$BLIPMODE
 70
     1
  9
$CHAMFERA
 40
0.0
  9
$CHAMFERB
 40
0.0
  9
$SKPOLY
 70
     0
  9
$TDCREATE
 40
2311940.0749844098
  9
$TDUPDATE
 40
2458942.4437617818
  9
$TDINDWG
 40
0.0550913657
  9
$TDUSRTIMER
 40
0.0550891782
  9
$USRTIMER
 70
     1
  9
$ANGBASE
 50
0.0
  9
$ANGDIR
 70
     0
  9
$PDMODE
 70
     0
  9
$PDSIZE
 40
0.0
  9
$PLINEWID
 40
0.0
  9
$COORDS
 70
     1
  9
$SPLFRAME
 70
     0
  9
$SPLINETYPE
 70
     6
  9
$SPLINESEGS
 70
     8
  9
$ATTDIA
 70
     1
  9
$ATTREQ
 70
     1
  9
$HANDLING
 70
     1
  9
$HANDSEED
  5
5EB7
  9
$SURFTAB1
 70
     6
  9
$SURFTAB2
 70
     6
  9
$SURFTYPE
 70
     6
  9
$SURFU
 70
     6
  9
$SURFV
 70
     6
  9
$UCSNAME
  2

  9
$UCSORG
 10
0.0
 20
0.0
 30
0.0
  9
$UCSXDIR
 10
1.0
 20
0.0
 30
0.0
  9
$UCSYDIR
 10
0.0
 20
1.0
 30
0.0
  9
$PUCSNAME
  2

  9
$PUCSORG
 10
0.0
 20
0.0
 30
0.0
  9
$PUCSXDIR
 10
1.0
 20
0.0
 30
0.0
  9
$PUCSYDIR
 10
0.0
 20
1.0
 30
0.0
  9
$USERI1
 70
     0
  9
$USERI2
 70
     0
  9
$USERI3
 70
     0
  9
$USERI4
 70
     0
  9
$USERI5
 70
     0
  9
$USERR1
 40
0.0
  9
$USERR2
 40
0.0
  9
$USERR3
 40
0.0
  9
$USERR4
 40
0.0
  9
$USERR5
 40
0.0
  9
$WORLDVIEW
 70
     1
  9
$SHADEDGE
 70
     3
  9
$SHADEDIF
 70
    70
  9
$TILEMODE
 70
     1
  9
$MAXACTVP
 70
    16
  9
$PLIMCHECK
 70
     0
  9
$PEXTMIN
 10
1.0000000000000000E+020
 20
1.0000000000000000E+020
 30
1.0000000000000000E+020
  9
$PEXTMAX
 10
-1.0000000000000000E+020
 20
-1.0000000000000000E+020
 30
-1.0000000000000000E+020
  9
$PLIMMIN
 10
0.0
 20
0.0
  9
$PLIMMAX
 10
12.0
 20
9.0
  9
$UNITMODE
 70
     0
  9
$VISRETAIN
 70
     0
  9
$PLINEGEN
 70
     1
  9
$PSLTSCALE
 70
     0
  0
ENDSEC
  0
SECTION
  2
TABLES
  0
TABLE
  2
VPORT
 70
     1
  0
VPORT
  2
*ACTIVE
 70
     0
 10
0.0
 20
0.0
 11
1.0
 21
1.0
 12
16800.0
 22
11880.0
 13
0.0
 23
0.0
 14
1.0
 24
1.0
 15
0.0
 25
0.0
 16
0.0
 26
0.0
 36
1.0
 17
0.0
 27
0.0
 37
0.0
 40
23981.023255813951
 41
2.195652173913043
 42
50.0
 43
0.0
 44
0.0
 50
0.0
 51
0.0
 71
     0
 72
 10000
 73
     1
 74
     1
 75
     0
 76
     0
 77
     0
 78
     0
  0
ENDTAB
  0
TABLE
  2
LTYPE
 70
     3
  0
LTYPE
  2
CONTINUOUS
 70
     0
  3
Solid line
 72
    65
 73
     0
 40
0.0
  0
LTYPE
  2
DASHED3
 70
     0
  3
------  ------  ------  ------  
 72
    65
 73
     2
 40
5.0
 49
3.75
 49
-1.25
  0
LTYPE
  2
CENTER2
 70
     0
  3
----------  --  ----------  --  
 72
    65
 73
     4
 40
20.0
 49
12.5
 49
-2.5
 49
2.5
 49
-2.5
  0
ENDTAB
  0
TABLE
  2
LAYER
 70
    18
  0
LAYER
  2
0
 70
     0
 62
     7
  6
CONTINUOUS
  0
LAYER
  2
SUNPOU
 70
     0
 62
     4
  6
CONTINUOUS
  0
LAYER
  2
0-1
 70
     0
 62
     7
  6
CONTINUOUS
  0
LAYER
  2
0-2
 70
     0
 62
     7
  6
CONTINUOUS
  0
LAYER
  2
0-5
 70
     0
 62
     7
  6
CONTINUOUS
  0
LAYER
  2
0-6
 70
     0
 62
     7
  6
CONTINUOUS
  0
LAYER
  2
2-0
 70
     0
 62
     7
  6
CONTINUOUS
  0
LAYER
  2
YODOROGO
 70
     0
 62
   130
  6
CONTINUOUS
  0
LAYER
  2
WAKUSEN-01
 70
     0
 62
    50
  6
CONTINUOUS
  0
LAYER
  2
WAKUSEN-02
 70
     0
 62
   130
  6
CONTINUOUS
  0
LAYER
  2
WAKUMOJI-01
 70
     0
 62
   130
  6
CONTINUOUS
  0
LAYER
  2
FILENAME
 70
     0
 62
     7
  6
CONTINUOUS
  0
LAYER
  2
NAME
 70
     0
 62
    20
  6
CONTINUOUS
  0
LAYER
  2
0-4
 70
     0
 62
     7
  6
CONTINUOUS
  0
LAYER
  2
0-7
 70
     0
 62
     7
  6
CONTINUOUS
  0
LAYER
  2
0-0
 70
     0
 62
     7
  6
CONTINUOUS
  0
ENDTAB
  0
TABLE
  2
STYLE
 70
     5
  0
STYLE
  2
STANDARD
 70
     0
 40
0.0
 41
1.0
 50
0.0
 71
     0
 42
0.0
  3
txt
  4
BIGFONT
  0
STYLE
  2
00
 70
     0
 40
0.0
 41
0.6666666666666666
 50
0.0
 71
     0
 42
0.2
  3
ROMANS
  4
BIGFONT
  0
STYLE
  2
01
 70
     0
 40
3.0
 41
1.0
 50
0.0
 71
     0
 42
0.2
  3
ROMANS
  4
BIGFONT
  0
STYLE
  2
WAKUMOJI
 70
     0
 40
3.0
 41
1.0
 50
0.0
 71
     0
 42
3.0
  3
SIMPLEX
  4
BIGFONT
  0
STYLE
  2
FILENAME
 70
     0
 40
200.0
 41
1.0
 50
0.0
 71
     0
 42
200.0
  3
romans
  4
bigfont
  0
ENDTAB
  0
TABLE
  2
VIEW
 70
     0
  0
ENDTAB
  0
TABLE
  2
UCS
 70
     0
  0
ENDTAB
  0
TABLE
  2
APPID
 70
    13
  0
APPID
  2
ACAD
 70
     0
  0
APPID
  2
ACADANNOTATIVE
 70
     0
  0
APPID
  2
ACAD_PSEXT
 70
     0
  0
APPID
  2
DCO15
 70
     0
  0
APPID
  2
ACAD_MLEADERVER
 70
     0
  0
APPID
  2
AUTOCAD_POSTSCRIPT_FIGURE
 70
     0
  0
APPID
  2
ACAD_EXEMPT_FROM_CAD_STANDARDS
 70
     0
  0
APPID
  2
ACAD_DSTYLE_DIMJAG
 70
     0
  0
APPID
  2
ACAD_DSTYLE_DIMTALN
 70
     0
  0
APPID
  2
ACAD_DSTYLE_DIM_LINETYPE
 70
     0
  0
APPID
  2
ACAD_DSTYLE_DIM_EXT1_LINETYPE
 70
     0
  0
APPID
  2
ACAD_DSTYLE_DIM_EXT2_LINETYPE
 70
     0
  0
APPID
  2
ACAD_NAV_VCDISPLAY
 70
     0
  0
ENDTAB
  0
TABLE
  2
DIMSTYLE
 70
     2
  0
DIMSTYLE
  2
STANDARD
 70
     0
  3

  4

  5

  6

  7

 40
1.0
 41
0.18
 42
0.0625
 43
0.38
 44
0.18
 45
0.0
 46
0.0
 47
0.0
 48
0.0
140
0.18
141
0.09
142
0.0
143
25.399999999999999
144
1.0
145
0.0
146
1.0
147
0.09
 71
     0
 72
     0
 73
     1
 74
     1
 75
     0
 76
     0
 77
     0
 78
     0
170
     0
171
     2
172
     0
173
     0
174
     0
175
     0
176
     0
177
     0
178
     0
  0
ENDTAB
  0
ENDSEC
  0
SECTION
  2
BLOCKS
  0
BLOCK
  8
0
  2
$MODEL_SPACE
 70
     0
 10
0.0
 20
0.0
 30
0.0
  3
$MODEL_SPACE
  1

  0
ENDBLK
  5
530A
  8
0
  0
BLOCK
 67
     1
  8
0
  2
$PAPER_SPACE
 70
     0
 10
0.0
 20
0.0
 30
0.0
  3
$PAPER_SPACE
  1

  0
ENDBLK
  5
5306
 67
     1
  8
0
  0
ENDSEC
  0
SECTION
  2
ENTITIES
  0
CIRCLE
  5
5338
  8
0-5
  6
CONTINUOUS
 62
     4
 10
15128.71667799999
 20
1375.999611
 30
0.0
 40
20.0
  0
ARC
  5
5339
  8
0-5
  6
CONTINUOUS
 62
     4
 10
15128.71667799999
 20
1375.999611
 30
0.0
 40
20.0
 50
180.0
 51
0.0
  0
ARC
  5
533A
  8
0-5
  6
CONTINUOUS
 62
     4
 10
15128.71667799999
 20
1375.999611
 30
0.0
 40
20.0
 50
0.0
 51
179.99998499999839
  0
CIRCLE
  5
533B
  8
0-5
  6
CONTINUOUS
 62
     4
 10
15128.71667799999
 20
1775.999817000001
 30
0.0
 40
20.0
  0
ARC
  5
533C
  8
0-5
  6
CONTINUOUS
 62
     4
 10
15128.71667799999
 20
1775.999817000001
 30
0.0
 40
20.0
 50
180.0
 51
0.0
  0
ARC
  5
533D
  8
0-5
  6
CONTINUOUS
 62
     4
 10
15128.71667799999
 20
1775.999817000001
 30
0.0
 40
20.0
 50
0.0
 51
179.99998499999839
  0
TEXT
  5
533E
  8
0-5
  6
CONTINUOUS
 62
     7
 10
16655.039326999991
 20
1655.999792000001
 30
0.0
 40
160.0
  1
H
  0
TEXT
  5
533F
  8
0-5
  6
CONTINUOUS
 62
     7
 10
15176.146933
 20
1655.999792000001
 30
0.0
 40
160.0
  1
（ ）内寸法ハ、  タ イプヲ示ス。
  0
TEXT
  5
5340
  8
0-5
  6
CONTINUOUS
 62
     7
 10
15288.716216000001
 20
1255.999710000001
 30
0.0
 40
160.0
  1
有効高サハ、基礎高サヲ含ミマセン。
  0
TEXT
  5
5341
  8
2-0
  6
CONTINUOUS
 62
     7
 10
21388.240472000009
 20
11967.079734999979
 30
0.0
 40
160.0
  1
平　面　図
 72
     4
 11
21841.573805333341
 21
12041.746401666651
 31
0.0
  0
TEXT
  5
5342
  8
2-0
  6
CONTINUOUS
 62
     7
 10
10735.219177585261
 20
11910.68819899998
 30
0.0
 40
160.0
  1
小 屋 伏 図
 50
359.99980699999981
 72
     4
 11
11236.55278039459
 21
11990.68651026549
 31
0.0
  0
TEXT
  5
5343
  8
2-0
  6
CONTINUOUS
 62
     7
 10
21109.387669
 20
3731.8600580000002
 30
0.0
 40
160.0
  1
正 面 立 面 図
 72
     4
 11
21754.721002333328
 21
3811.8600580000002
 31
0.0
  0
TEXT
  5
5344
  8
2-0
  6
CONTINUOUS
 62
     7
 10
10408.432880999981
 20
3727.2547080000022
 30
0.0
 40
160.0
  1
側 面 立 面 図
 72
     4
 11
11053.76621433332
 21
3807.2547080000022
 31
0.0
  0
TEXT
  5
534C
  8
2-0
  6
CONTINUOUS
 62
     7
 10
12405.25839947096
 20
3754.4500770000018
 30
0.0
 40
160.0
  1
1
 72
     4
 11
12431.92506613763
 21
3834.4500770000018
 31
0.0
  0
TEXT
  5
534D
  8
2-0
  6
CONTINUOUS
 62
     7
 10
12648.34711672165
 20
3674.4515450000022
 30
0.0
 40
160.0
  1
80
 72
     4
 11
12768.34711672165
 21
3754.4515450000008
 31
0.0
  0
TEXT
  5
534E
  8
2-0
  6
CONTINUOUS
 62
     7
 10
11906.26036547096
 20
3727.2547080000022
 30
0.0
 40
160.0
  1
(S=  /   )
 72
     4
 11
12466.26036547096
 21
3807.2547080000022
 31
0.0
  0
TEXT
  5
534F
  8
2-0
  6
CONTINUOUS
 62
     7
 10
23106.213187470959
 20
3759.0554269999989
 30
0.0
 40
160.0
  1
1
 72
     4
 11
23132.879854137631
 21
3839.0554269999989
 31
0.0
  0
TEXT
  5
5350
  8
2-0
  6
CONTINUOUS
 62
     7
 10
23349.301904721651
 20
3679.0568950000002
 30
0.0
 40
160.0
  1
80
 72
     4
 11
23469.301904721651
 21
3759.0568950000002
 31
0.0
  0
TEXT
  5
5351
  8
2-0
  6
CONTINUOUS
 62
     7
 10
22607.215153470948
 20
3731.8600580000002
 30
0.0
 40
160.0
  1
(S=  /   )
 72
     4
 11
23167.215153470948
 21
3811.8600580000002
 31
0.0
  0
TEXT
  5
5352
  8
2-0
  6
CONTINUOUS
 62
     7
 10
23193.06599047095
 20
11988.941770666661
 30
0.0
 40
160.0
  1
1
 72
     4
 11
23219.732657137622
 21
12068.941770666661
 31
0.0
  0
TEXT
  5
5353
  8
2-0
  6
CONTINUOUS
 62
     7
 10
23436.154707721649
 20
11908.943238666659
 30
0.0
 40
160.0
  1
80
 72
     4
 11
23556.154707721649
 21
11988.943238666659
 31
0.0
  0
TEXT
  5
5354
  8
2-0
  6
CONTINUOUS
 62
     7
 10
22694.067956470961
 20
11961.746401666651
 30
0.0
 40
160.0
  1
(S=  /   )
 72
     4
 11
23254.067956470961
 21
12041.746401666651
 31
0.0
  0
TEXT
  5
5355
  8
2-0
  6
CONTINUOUS
 62
     7
 10
12588.04496553221
 20
11937.88187926548
 30
0.0
 40
160.0
  1
1
 72
     4
 11
12614.71163219888
 21
12017.88187926548
 31
0.0
  0
TEXT
  5
5356
  8
2-0
  6
CONTINUOUS
 62
     7
 10
12831.1336827829
 20
11857.88334726549
 30
0.0
 40
160.0
  1
80
 72
     4
 11
12951.1336827829
 21
11937.88334726549
 31
0.0
  0
TEXT
  5
5357
  8
2-0
  6
CONTINUOUS
 62
     7
 10
12089.04693153221
 20
11910.68651026549
 30
0.0
 40
160.0
  1
(S=  /   )
 72
     4
 11
12649.04693153221
 21
11990.68651026549
 31
0.0
  0
TEXT
  5
5358
  8
0-5
  6
CONTINUOUS
 62
     7
 10
25150.176835999991
 20
4668.9794949999978
 30
0.0
 40
160.0
  1
3
 72
     4
 11
25203.51016933332
 21
4748.9794949999987
 31
0.0
  0
CIRCLE
  5
5359
  8
0-5
  6
CONTINUOUS
 62
     4
 10
25197.10528299999
 20
4755.5094490000001
 30
0.0
 40
199.9999949999999
  0
LINE
  5
535A
  8
0-5
  6
CONTINUOUS
 62
     4
 10
25197.10528299999
 20
5115.5091519999969
 30
0.0
 11
25197.10528299999
 21
4955.5091190000021
 31
0.0
  0
LINE
  5
535B
  8
SUNPOU
  6
CONTINUOUS
 10
25437.109241999999
 20
5595.5092510000022
 30
0.0
 11
25795.064248721079
 21
5595.5092510000022
 31
0.0
  0
LINE
  5
535C
  8
SUNPOU
  6
CONTINUOUS
 10
19737.10528299999
 20
5595.5092510000022
 30
0.0
 11
19379.15027627887
 21
5595.5092510000022
 31
0.0
  0
CIRCLE
  5
535D
  8
0-4
  6
CONTINUOUS
 62
     4
 10
24221.355282500001
 20
7281.5651919999982
 30
0.0
 40
18.487504999999981
  0
CIRCLE
  5
535E
  8
0-4
  6
CONTINUOUS
 62
     4
 10
21653.855282999979
 20
7281.5651919999982
 30
0.0
 40
18.487504999999981
  0
TEXT
  5
535F
  8
0-5
  6
CONTINUOUS
 62
     7
 10
19972.672876999972
 20
4668.9794949999978
 30
0.0
 40
160.0
  1
1
 72
     4
 11
19999.33954366664
 21
4748.9794949999987
 31
0.0
  0
TEXT
  5
5360
  8
0-5
  6
CONTINUOUS
 62
     7
 10
23241.176835999991
 20
4668.9794949999978
 30
0.0
 40
160.0
  1
2
 72
     4
 11
23294.51016933332
 21
4748.9794949999987
 31
0.0
  0
TEXT
  5
5361
  8
0-5
  6
CONTINUOUS
 62
     7
 10
19401.429344
 20
7524.8694977419946
 30
0.0
 40
160.0
  1
(2131.5)
 50
90.0
 72
     4
 11
19321.429344
 21
7978.2028310753294
 31
0.0
  0
CIRCLE
  5
5362
  8
0-5
  6
CONTINUOUS
 62
     4
 10
20019.60528299999
 20
4755.5094490000001
 30
0.0
 40
199.9999949999999
  0
CIRCLE
  5
5363
  8
0-5
  6
CONTINUOUS
 62
     4
 10
23288.10528299999
 20
4755.5094490000001
 30
0.0
 40
199.9999949999999
  0
LINE
  5
5374
  8
2-0
  6
CENTER2
 62
     6
 10
20019.60528299999
 20
6532.8568280000009
 30
0.0
 11
20019.60528299999
 21
7569.9988650000023
 31
0.0
  0
LINE
  5
5375
  8
2-0
  6
CENTER2
 62
     6
 10
23288.10528299999
 20
6532.8568280000009
 30
0.0
 11
23288.10528299999
 21
7569.9988650000023
 31
0.0
  0
LINE
  5
5376
  8
2-0
  6
CENTER2
 62
     6
 10
25154.605282999979
 20
6532.8568280000009
 30
0.0
 11
25154.605282999979
 21
7569.9988650000023
 31
0.0
  0
LINE
  5
5377
  8
0-5
  6
CONTINUOUS
 62
     4
 10
20019.60528299999
 20
5115.5091519999969
 30
0.0
 11
20019.60528299999
 21
4955.5091190000021
 31
0.0
  0
LINE
  5
5378
  8
0-5
  6
CONTINUOUS
 62
     4
 10
23288.10528299999
 20
5115.5091519999969
 30
0.0
 11
23288.10528299999
 21
4955.5091190000021
 31
0.0
  0
LINE
  5
5379
  8
0-2
  6
CONTINUOUS
 62
     4
 10
21290.16229249999
 20
7542.7349549999999
 30
0.0
 11
21390.159653499992
 21
7542.7349549999999
 31
0.0
  0
LINE
  5
537A
  8
0-2
  6
CONTINUOUS
 62
     4
 10
22017.546293499989
 20
7542.7349549999999
 30
0.0
 11
21917.54695349999
 21
7542.7349549999999
 31
0.0
  0
LINE
  5
537B
  8
0-2
  6
CONTINUOUS
 62
     4
 10
23857.661302500001
 20
7542.734954999999
 30
0.0
 11
23957.660643499989
 21
7542.734954999999
 31
0.0
  0
LINE
  5
537C
  8
0-2
  6
CONTINUOUS
 62
     4
 10
24585.047282500011
 20
7542.734954999999
 30
0.0
 11
24485.047942500001
 21
7542.734954999999
 31
0.0
  0
LINE
  5
5382
  8
0-1
  6
CONTINUOUS
 62
     3
 10
20107.105942999991
 20
8734.9688090000018
 30
0.0
 11
23200.60660299996
 21
8734.9688090000018
 31
0.0
  0
LINE
  5
5383
  8
0-1
  6
CONTINUOUS
 62
     3
 10
20107.105942999991
 20
7380.5099440000022
 30
0.0
 11
23200.60660299996
 21
7380.5099440000022
 31
0.0
  0
LINE
  5
5384
  8
0-1
  6
CONTINUOUS
 62
     3
 10
20107.105942999991
 20
7445.5089210000024
 30
0.0
 11
23200.60660299996
 21
7445.5089210000024
 31
0.0
  0
LINE
  5
5385
  8
0-1
  6
CONTINUOUS
 62
     3
 10
20107.105942999991
 20
7510.5093829999969
 30
0.0
 11
23200.60660299996
 21
7510.5093829999969
 31
0.0
  0
LINE
  5
5386
  8
0-1
  6
CONTINUOUS
 62
     3
 10
20107.105942999991
 20
7575.5093500000003
 30
0.0
 11
23200.60660299996
 21
7575.5093500000003
 31
0.0
  0
LINE
  5
5387
  8
0-1
  6
CONTINUOUS
 62
     3
 10
20107.105942999991
 20
7640.509317
 30
0.0
 11
23200.60660299996
 21
7640.509317
 31
0.0
  0
LINE
  5
5388
  8
0-1
  6
CONTINUOUS
 62
     3
 10
20107.105942999991
 20
7705.5092840000007
 30
0.0
 11
23200.60660299996
 21
7705.5092840000007
 31
0.0
  0
LINE
  5
5389
  8
0-1
  6
CONTINUOUS
 62
     3
 10
20107.105942999991
 20
7770.5097460000034
 30
0.0
 11
23200.60660299996
 21
7770.5097460000034
 31
0.0
  0
LINE
  5
538A
  8
0-1
  6
CONTINUOUS
 62
     3
 10
20107.105942999991
 20
7835.5087230000008
 30
0.0
 11
23200.60660299996
 21
7835.5087230000008
 31
0.0
  0
LINE
  5
538B
  8
0-1
  6
CONTINUOUS
 62
     3
 10
20107.105942999991
 20
7900.5091849999972
 30
0.0
 11
23200.60660299996
 21
7900.5091849999972
 31
0.0
  0
LINE
  5
538C
  8
0-1
  6
CONTINUOUS
 62
     3
 10
20107.105942999991
 20
7965.5091519999987
 30
0.0
 11
23200.60660299996
 21
7965.5091519999987
 31
0.0
  0
LINE
  5
538D
  8
0-1
  6
CONTINUOUS
 62
     3
 10
20107.105942999991
 20
8030.5096139999969
 30
0.0
 11
23200.60660299996
 21
8030.5096139999969
 31
0.0
  0
LINE
  5
538E
  8
0-1
  6
CONTINUOUS
 62
     3
 10
20107.105942999991
 20
8095.5085910000034
 30
0.0
 11
23200.60660299996
 21
8095.5085910000034
 31
0.0
  0
LINE
  5
538F
  8
0-1
  6
CONTINUOUS
 62
     3
 10
20107.105942999991
 20
8160.5090529999998
 30
0.0
 11
23200.60660299996
 21
8160.5090529999998
 31
0.0
  0
LINE
  5
5390
  8
0-1
  6
CONTINUOUS
 62
     3
 10
20107.105942999991
 20
8225.5090200000013
 30
0.0
 11
23200.60660299996
 21
8225.5090200000013
 31
0.0
  0
LINE
  5
5391
  8
0-1
  6
CONTINUOUS
 62
     3
 10
20107.105942999991
 20
8290.5089869999974
 30
0.0
 11
23200.60660299996
 21
8290.5089869999974
 31
0.0
  0
LINE
  5
5392
  8
0-1
  6
CONTINUOUS
 62
     3
 10
20107.105942999991
 20
8355.5094490000029
 30
0.0
 11
23200.60660299996
 21
8355.5094490000029
 31
0.0
  0
LINE
  5
5393
  8
0-1
  6
CONTINUOUS
 62
     3
 10
20107.105942999991
 20
8420.5094160000008
 30
0.0
 11
23200.60660299996
 21
8420.5094160000008
 31
0.0
  0
LINE
  5
5394
  8
0-1
  6
CONTINUOUS
 62
     3
 10
20107.105942999991
 20
8485.5098780000008
 30
0.0
 11
23200.60660299996
 21
8485.5098780000008
 31
0.0
  0
LINE
  5
5395
  8
0-1
  6
CONTINUOUS
 62
     3
 10
20107.105942999991
 20
8550.5088549999982
 30
0.0
 11
23200.60660299996
 21
8550.5088549999982
 31
0.0
  0
LINE
  5
5396
  8
0-1
  6
CONTINUOUS
 62
     3
 10
20107.105942999991
 20
8615.5093170000018
 30
0.0
 11
23200.60660299996
 21
8615.5093170000018
 31
0.0
  0
LINE
  5
5397
  8
0-1
  6
CONTINUOUS
 62
     3
 10
20107.105942999991
 20
8680.5092840000016
 30
0.0
 11
23200.60660299996
 21
8680.5092840000016
 31
0.0
  0
LINE
  5
5398
  8
0-1
  6
CONTINUOUS
 62
     3
 10
20107.105942999991
 20
6860.508722999999
 30
0.0
 11
23200.60660299996
 21
6860.508722999999
 31
0.0
  0
LINE
  5
5399
  8
0-1
  6
CONTINUOUS
 62
     3
 10
20107.105942999991
 20
6925.5096799999992
 30
0.0
 11
23200.60660299996
 21
6925.5096799999992
 31
0.0
  0
LINE
  5
539A
  8
0-1
  6
CONTINUOUS
 62
     3
 10
20107.105942999991
 20
6990.508657000003
 30
0.0
 11
23200.60660299996
 21
6990.508657000003
 31
0.0
  0
LINE
  5
539B
  8
0-1
  6
CONTINUOUS
 62
     3
 10
20107.105942999991
 20
7055.5096139999987
 30
0.0
 11
23200.60660299996
 21
7055.5096139999987
 31
0.0
  0
LINE
  5
539C
  8
0-1
  6
CONTINUOUS
 62
     3
 10
20107.105942999991
 20
7120.5090860000018
 30
0.0
 11
23200.60660299996
 21
7120.5090860000018
 31
0.0
  0
LINE
  5
539D
  8
0-1
  6
CONTINUOUS
 62
     3
 10
20107.105942999991
 20
7185.5090530000007
 30
0.0
 11
23200.60660299996
 21
7185.5090530000007
 31
0.0
  0
LINE
  5
539E
  8
0-1
  6
CONTINUOUS
 62
     3
 10
20107.105942999991
 20
7250.5090200000022
 30
0.0
 11
23200.60660299996
 21
7250.5090200000022
 31
0.0
  0
LINE
  5
539F
  8
0-1
  6
CONTINUOUS
 62
     3
 10
20107.105942999991
 20
7315.5084920000008
 30
0.0
 11
23200.60660299996
 21
7315.5084920000008
 31
0.0
  0
LINE
  5
53A1
  8
0-1
  6
CONTINUOUS
 62
     3
 10
20062.103567999999
 20
8803.5091449999964
 30
0.0
 11
23245.605018999991
 21
8803.5091449999964
 31
0.0
  0
LINE
  5
53A2
  8
0-1
  6
CONTINUOUS
 62
     3
 10
19977.103039999991
 20
9114.0085120000003
 30
0.0
 11
19977.103039999991
 21
6895.5090859999973
 31
0.0
  0
LINE
  5
53A3
  8
0-1
  6
CONTINUOUS
 62
     3
 10
19997.106074999982
 20
9244.0094350000036
 30
0.0
 11
19997.106074999982
 21
6895.5090859999973
 31
0.0
  0
LINE
  5
53A4
  8
0-1
  6
CONTINUOUS
 62
     3
 10
20062.103567999999
 20
9114.0085120000003
 30
0.0
 11
20062.103567999999
 21
6895.5090859999973
 31
0.0
  0
LINE
  5
53A5
  8
0-1
  6
CONTINUOUS
 62
     3
 10
20107.105942999991
 20
8803.5091449999964
 30
0.0
 11
20107.105942999991
 21
6795.5092510000031
 31
0.0
  0
LINE
  5
53A6
  8
0-1
  6
CONTINUOUS
 62
     3
 10
19969.604623999981
 20
6895.5090859999973
 30
0.0
 11
20069.605942999999
 21
6895.5090859999973
 31
0.0
  0
LINE
  5
53A7
  8
0-1
  6
CONTINUOUS
 62
     3
 10
19969.604623999981
 20
6795.5092510000031
 30
0.0
 11
19969.604623999981
 21
6895.5090859999973
 31
0.0
  0
LINE
  5
53A8
  8
0-1
  6
CONTINUOUS
 62
     3
 10
20069.605942999999
 20
6895.5090859999973
 30
0.0
 11
20069.605942999999
 21
6795.5092510000031
 31
0.0
  0
LINE
  5
53B3
  8
0-1
  6
CONTINUOUS
 62
     3
 10
23200.60660299996
 20
8803.5091449999964
 30
0.0
 11
23200.60660299996
 21
6795.5092510000031
 31
0.0
  0
LINE
  5
53B4
  8
0-1
  6
CONTINUOUS
 62
     3
 10
23245.605018999991
 20
9114.0085120000003
 30
0.0
 11
23245.605018999991
 21
6795.5092510000031
 31
0.0
  0
LINE
  5
53BE
  8
0-1
  6
CONTINUOUS
 62
     3
 10
19969.604623999981
 20
6795.5092510000031
 30
0.0
 11
25204.60594299998
 21
6795.5092510000031
 31
0.0
  0
LINE
  5
53BF
  8
0-1
  6
CONTINUOUS
 62
     3
 10
23330.603567000009
 20
8803.5091449999964
 30
0.0
 11
25112.106997999981
 21
8803.5091449999964
 31
0.0
  0
LINE
  5
53C1
  8
0-1
  6
CONTINUOUS
 62
     3
 10
23375.603963000009
 20
7315.5084920000008
 30
0.0
 11
25067.106601999949
 21
7315.5084920000008
 31
0.0
  0
LINE
  5
53C2
  8
0-1
  6
CONTINUOUS
 62
     3
 10
23375.603963000009
 20
7250.5090200000022
 30
0.0
 11
25067.106601999949
 21
7250.5090200000022
 31
0.0
  0
LINE
  5
53C3
  8
0-1
  6
CONTINUOUS
 62
     3
 10
23375.603963000009
 20
7185.5090530000007
 30
0.0
 11
25067.106601999949
 21
7185.5090530000007
 31
0.0
  0
LINE
  5
53C4
  8
0-1
  6
CONTINUOUS
 62
     3
 10
23375.603963000009
 20
7120.5090860000018
 30
0.0
 11
25067.106601999949
 21
7120.5090860000018
 31
0.0
  0
LINE
  5
53C5
  8
0-1
  6
CONTINUOUS
 62
     3
 10
23375.603963000009
 20
7055.5096139999987
 30
0.0
 11
25067.106601999949
 21
7055.5096139999987
 31
0.0
  0
LINE
  5
53C6
  8
0-1
  6
CONTINUOUS
 62
     3
 10
23375.603963000009
 20
6990.508657000003
 30
0.0
 11
25067.106601999949
 21
6990.508657000003
 31
0.0
  0
LINE
  5
53C7
  8
0-1
  6
CONTINUOUS
 62
     3
 10
23375.603963000009
 20
6925.5096799999992
 30
0.0
 11
25067.106601999949
 21
6925.5096799999992
 31
0.0
  0
LINE
  5
53C8
  8
0-1
  6
CONTINUOUS
 62
     3
 10
23375.603963000009
 20
6860.508722999999
 30
0.0
 11
25067.106601999949
 21
6860.508722999999
 31
0.0
  0
LINE
  5
53C9
  8
0-1
  6
CONTINUOUS
 62
     3
 10
23375.603963000009
 20
8680.5092840000016
 30
0.0
 11
25067.106601999949
 21
8680.5092840000016
 31
0.0
  0
LINE
  5
53CA
  8
0-1
  6
CONTINUOUS
 62
     3
 10
23375.603963000009
 20
8615.5093170000018
 30
0.0
 11
25067.106601999949
 21
8615.5093170000018
 31
0.0
  0
LINE
  5
53CB
  8
0-1
  6
CONTINUOUS
 62
     3
 10
23375.603963000009
 20
8550.5088549999982
 30
0.0
 11
25067.106601999949
 21
8550.5088549999982
 31
0.0
  0
LINE
  5
53CC
  8
0-1
  6
CONTINUOUS
 62
     3
 10
23375.603963000009
 20
8485.5098780000008
 30
0.0
 11
25067.106601999949
 21
8485.5098780000008
 31
0.0
  0
LINE
  5
53CD
  8
0-1
  6
CONTINUOUS
 62
     3
 10
23375.603963000009
 20
8420.5094160000008
 30
0.0
 11
25067.106601999949
 21
8420.5094160000008
 31
0.0
  0
LINE
  5
53CE
  8
0-1
  6
CONTINUOUS
 62
     3
 10
23375.603963000009
 20
8355.5094490000029
 30
0.0
 11
25067.106601999949
 21
8355.5094490000029
 31
0.0
  0
LINE
  5
53CF
  8
0-1
  6
CONTINUOUS
 62
     3
 10
23375.603963000009
 20
8290.5089869999974
 30
0.0
 11
25067.106601999949
 21
8290.5089869999974
 31
0.0
  0
LINE
  5
53D0
  8
0-1
  6
CONTINUOUS
 62
     3
 10
23375.603963000009
 20
8225.5090200000013
 30
0.0
 11
25067.106601999949
 21
8225.5090200000013
 31
0.0
  0
LINE
  5
53D1
  8
0-1
  6
CONTINUOUS
 62
     3
 10
23375.603963000009
 20
8160.5090529999998
 30
0.0
 11
25067.106601999949
 21
8160.5090529999998
 31
0.0
  0
LINE
  5
53D2
  8
0-1
  6
CONTINUOUS
 62
     3
 10
23375.603963000009
 20
8095.5085910000034
 30
0.0
 11
25067.106601999949
 21
8095.5085910000034
 31
0.0
  0
LINE
  5
53D3
  8
0-1
  6
CONTINUOUS
 62
     3
 10
23375.603963000009
 20
8030.5096139999969
 30
0.0
 11
25067.106601999949
 21
8030.5096139999969
 31
0.0
  0
LINE
  5
53D4
  8
0-1
  6
CONTINUOUS
 62
     3
 10
23375.603963000009
 20
7965.5091519999987
 30
0.0
 11
25067.106601999949
 21
7965.5091519999987
 31
0.0
  0
LINE
  5
53D5
  8
0-1
  6
CONTINUOUS
 62
     3
 10
23375.603963000009
 20
7900.5091849999972
 30
0.0
 11
25067.106601999949
 21
7900.5091849999972
 31
0.0
  0
LINE
  5
53D6
  8
0-1
  6
CONTINUOUS
 62
     3
 10
23375.603963000009
 20
7835.5087230000008
 30
0.0
 11
25067.106601999949
 21
7835.5087230000008
 31
0.0
  0
LINE
  5
53D7
  8
0-1
  6
CONTINUOUS
 62
     3
 10
23375.603963000009
 20
7770.5097460000034
 30
0.0
 11
25067.106601999949
 21
7770.5097460000034
 31
0.0
  0
LINE
  5
53D8
  8
0-1
  6
CONTINUOUS
 62
     3
 10
23375.603963000009
 20
7705.5092840000007
 30
0.0
 11
25067.106601999949
 21
7705.5092840000007
 31
0.0
  0
LINE
  5
53D9
  8
0-1
  6
CONTINUOUS
 62
     3
 10
23375.603963000009
 20
7640.509317
 30
0.0
 11
25067.106601999949
 21
7640.509317
 31
0.0
  0
LINE
  5
53DA
  8
0-1
  6
CONTINUOUS
 62
     3
 10
23375.603963000009
 20
7575.5093500000003
 30
0.0
 11
25067.106601999949
 21
7575.5093500000003
 31
0.0
  0
LINE
  5
53DB
  8
0-1
  6
CONTINUOUS
 62
     3
 10
23375.603963000009
 20
7510.5093829999969
 30
0.0
 11
25067.106601999949
 21
7510.5093829999969
 31
0.0
  0
LINE
  5
53DC
  8
0-1
  6
CONTINUOUS
 62
     3
 10
23375.603963000009
 20
7445.5089210000024
 30
0.0
 11
25067.106601999949
 21
7445.5089210000024
 31
0.0
  0
LINE
  5
53DD
  8
0-1
  6
CONTINUOUS
 62
     3
 10
23375.603963000009
 20
7380.5099440000022
 30
0.0
 11
25067.106601999949
 21
7380.5099440000022
 31
0.0
  0
LINE
  5
53DE
  8
0-1
  6
CONTINUOUS
 62
     3
 10
23375.603963000009
 20
8734.9688090000018
 30
0.0
 11
25067.106601999949
 21
8734.9688090000018
 31
0.0
  0
LINE
  5
53E1
  8
0-1
  6
CONTINUOUS
 62
     3
 10
23375.603963000009
 20
8803.5091449999964
 30
0.0
 11
23375.603963000009
 21
6795.5092510000031
 31
0.0
  0
LINE
  5
53E2
  8
0-1
  6
CONTINUOUS
 62
     3
 10
23330.603567000009
 20
9114.0085120000003
 30
0.0
 11
23330.603567000009
 21
6795.5092510000031
 31
0.0
  0
LINE
  5
53EB
  8
0-1
  6
CONTINUOUS
 62
     3
 10
25112.106997999981
 20
9114.0085120000003
 30
0.0
 11
25112.106997999981
 21
6895.5090859999973
 31
0.0
  0
LINE
  5
53EC
  8
0-1
  6
CONTINUOUS
 62
     3
 10
25067.106601999949
 20
8803.5091449999964
 30
0.0
 11
25067.106601999949
 21
6795.5092510000031
 31
0.0
  0
LINE
  5
53ED
  8
0-1
  6
CONTINUOUS
 62
     3
 10
25197.105546999988
 20
9114.0085120000003
 30
0.0
 11
25197.105546999988
 21
6895.5090859999973
 31
0.0
  0
LINE
  5
53EE
  8
0-1
  6
CONTINUOUS
 62
     3
 10
25177.106469999992
 20
9244.0094350000036
 30
0.0
 11
25177.106469999992
 21
6895.5090859999973
 31
0.0
  0
LINE
  5
53EF
  8
0-1
  6
CONTINUOUS
 62
     3
 10
25204.60594299998
 20
6795.5092510000031
 30
0.0
 11
25204.60594299998
 21
6895.5090859999973
 31
0.0
  0
LINE
  5
53F0
  8
0-1
  6
CONTINUOUS
 62
     3
 10
25104.606601999982
 20
6895.5090859999973
 30
0.0
 11
25104.606601999982
 21
6795.5092510000031
 31
0.0
  0
LINE
  5
53F1
  8
0-1
  6
CONTINUOUS
 62
     3
 10
25204.60594299998
 20
6895.5090859999973
 30
0.0
 11
25104.606601999982
 21
6895.5090859999973
 31
0.0
  0
LINE
  5
53FC
  8
SUNPOU
  6
CONTINUOUS
 10
9144.3491610000037
 20
10043.510762
 30
0.0
 11
8608.2235194121477
 21
10043.510762
 31
0.0
  0
TEXT
  5
53FD
  8
0-5
  6
CONTINUOUS
 62
     7
 10
17777.724701999981
 20
7083.3555010000027
 30
0.0
 40
160.0
  1
G.L
 72
     4
 11
17937.724701999981
 21
7163.3555010000018
 31
0.0
  0
LINE
  5
53FE
  8
0-5
  6
CONTINUOUS
 62
     4
 10
18017.72153499999
 20
7003.3547430000071
 30
0.0
 11
17777.724701999981
 21
7003.3547430000071
 31
0.0
  0
LINE
  5
53FF
  8
0-5
  6
CONTINUOUS
 62
     4
 10
17897.72113899999
 20
6795.5092510000031
 30
0.0
 11
18017.72153499999
 21
7003.3547430000071
 31
0.0
  0
LINE
  5
5400
  8
0-5
  6
CONTINUOUS
 62
     4
 10
17777.724701999981
 20
7003.3547430000071
 30
0.0
 11
17897.72113899999
 21
6795.5092510000031
 31
0.0
  0
TEXT
  5
5401
  8
0-5
  6
CONTINUOUS
 62
     7
 10
9319.8930010000167
 20
4672.2981580000078
 30
0.0
 40
160.0
  1
C
 72
     4
 11
9373.2263343333489
 21
4752.2981580000078
 31
0.0
  0
TEXT
  5
5402
  8
0-5
  6
CONTINUOUS
 62
     7
 10
11887.393000999989
 20
4672.2981580000078
 30
0.0
 40
160.0
  1
B
 72
     4
 11
11940.726334333331
 21
4752.2981580000078
 31
0.0
  0
TEXT
  5
5403
  8
0-5
  6
CONTINUOUS
 62
     7
 10
14805.393001
 20
4672.2981580000078
 30
0.0
 40
160.0
  1
A
 72
     4
 11
14858.72633433334
 21
4752.2981580000078
 31
0.0
  0
CIRCLE
  5
5404
  8
0-5
  6
CONTINUOUS
 62
     4
 10
9366.8491610000019
 20
4755.5089540000081
 30
0.0
 40
199.9999949999999
  0
CIRCLE
  5
5405
  8
0-5
  6
CONTINUOUS
 62
     4
 10
14852.349161
 20
4755.5089540000081
 30
0.0
 40
199.9999949999999
  0
CIRCLE
  5
5406
  8
0-5
  6
CONTINUOUS
 62
     4
 10
11934.349160999989
 20
4755.5089540000081
 30
0.0
 40
199.9999949999999
  0
LINE
  5
5407
  8
0-5
  6
CONTINUOUS
 62
     4
 10
9366.8491610000019
 20
5115.5096470000062
 30
0.0
 11
9366.8491610000019
 21
4955.5101090000062
 31
0.0
  0
LINE
  5
5408
  8
0-5
  6
CONTINUOUS
 62
     4
 10
11934.349160999989
 20
5115.5096470000062
 30
0.0
 11
11934.349160999989
 21
4955.5101090000062
 31
0.0
  0
LINE
  5
5409
  8
0-5
  6
CONTINUOUS
 62
     4
 10
14852.349161
 20
5115.5096470000062
 30
0.0
 11
14852.349161
 21
4955.5101090000062
 31
0.0
  0
LINE
  5
540A
  8
0-1
  6
CONTINUOUS
 62
     3
 10
9604.3508100000236
 20
6945.5092510000031
 30
0.0
 11
9604.3508100000236
 21
8806.5551300000025
 31
0.0
  0
LINE
  5
540B
  8
0-1
  6
CONTINUOUS
 62
     3
 10
9619.3496220000252
 20
6945.5092510000031
 30
0.0
 11
9619.3496220000252
 21
8806.5551300000025
 31
0.0
  0
TEXT
  5
540C
  8
0-0
  6
CONTINUOUS
 62
     7
 10
16153.34221999999
 20
7183.3553370000027
 30
0.0
 40
160.0
  1
布基礎天端
 72
     4
 11
16612.008886666659
 21
7263.3553370000027
 31
0.0
  0
TEXT
  5
540D
  8
0-0
  6
CONTINUOUS
 62
     7
 10
17777.722721999999
 20
7083.3555020000058
 30
0.0
 40
160.0
  1
G.L
 72
     4
 11
17937.722721999999
 21
7163.3555020000058
 31
0.0
  0
ARC
  5
540E
  8
0-1
  6
CONTINUOUS
 62
     3
 10
14979.846983999991
 20
9178.3562280000024
 30
0.0
 40
24.999998999999999
 50
271.87799100001888
 51
91.877991000018937
  0
ARC
  5
540F
  8
0-1
  6
CONTINUOUS
 62
     3
 10
9148.5607180000097
 20
9015.8090490000068
 30
0.0
 40
3.0
 50
181.87799100002559
 51
271.87799100001888
  0
ARC
  5
5410
  8
0-1
  6
CONTINUOUS
 62
     3
 10
9149.5108870000076
 20
9047.8574550000048
 30
0.0
 40
5.0
 50
91.877991000018937
 51
181.87799100002559
  0
ARC
  5
5411
  8
0-1
  6
CONTINUOUS
 62
     3
 10
14974.848699
 20
9178.1929180000043
 30
0.0
 40
69.999999000000003
 50
293.66478000016298
 51
70.091202000192254
  0
ARC
  5
5412
  8
0-1
  6
CONTINUOUS
 62
     3
 10
9153.4441910000096
 20
8927.9213940000027
 30
0.0
 40
5.0
 50
181.87799100002559
 51
271.87799100001888
  0
ARC
  5
5413
  8
0-1
  6
CONTINUOUS
 62
     3
 10
9150.3957320000118
 20
8959.8391510000056
 30
0.0
 40
3.0
 50
91.877991000018937
 51
181.87799100002559
  0
ARC
  5
5414
  8
0-1
  6
CONTINUOUS
 62
     3
 10
9150.0354600000119
 20
8970.8333970000022
 30
0.0
 40
3.0
 50
181.87799100002559
 51
271.87799100001888
  0
ARC
  5
5415
  8
0-1
  6
CONTINUOUS
 62
     3
 10
14979.846983999991
 20
9178.3562280000024
 30
0.0
 40
20.0
 50
271.87799100001888
 51
91.877991000018937
  0
ARC
  5
5416
  8
0-1
  6
CONTINUOUS
 62
     3
 10
9148.9209910000081
 20
9004.8148030000029
 30
0.0
 40
3.0
 50
91.877991000018937
 51
181.87799100002559
  0
ARC
  5
5417
  8
0-1
  6
CONTINUOUS
 62
     3
 10
9151.7150810000094
 20
8965.3857620000053
 30
0.0
 40
2.5
 50
271.87799100001888
 51
91.877991000018937
  0
ARC
  5
5418
  8
0-1
  6
CONTINUOUS
 62
     3
 10
9150.2403400000148
 20
9010.3604240000077
 30
0.0
 40
2.5
 50
271.87799100001888
 51
91.877991000018937
  0
LINE
  5
5419
  8
2-0
  6
CENTER2
 62
     6
 10
14852.349161
 20
6532.8558390000062
 30
0.0
 11
14852.349161
 21
7589.9989310000019
 31
0.0
  0
LINE
  5
541A
  8
2-0
  6
CENTER2
 62
     6
 10
11934.349160999989
 20
6532.8558390000062
 30
0.0
 11
11934.349160999989
 21
7589.9989310000019
 31
0.0
  0
LINE
  5
541B
  8
2-0
  6
CENTER2
 62
     6
 10
9366.8491610000019
 20
6532.8558390000062
 30
0.0
 11
9366.8491610000019
 21
7589.9989310000019
 31
0.0
  0
LINE
  5
541C
  8
0-5
  6
CONTINUOUS
 62
     4
 10
16492.433753000001
 20
7103.3550730000061
 30
0.0
 11
16612.433159000011
 21
6895.5090860000037
 31
0.0
  0
LINE
  5
541D
  8
0-5
  6
CONTINUOUS
 62
     4
 10
16612.433159000011
 20
6895.5090860000037
 30
0.0
 11
16732.435534
 21
7103.3550730000061
 31
0.0
  0
LINE
  5
541E
  8
0-5
  6
CONTINUOUS
 62
     4
 10
16732.435534
 20
7103.3550730000061
 30
0.0
 11
16492.433753000001
 21
7103.3550730000061
 31
0.0
  0
LINE
  5
541F
  8
0-5
  6
CONTINUOUS
 62
     4
 10
14987.349425
 20
6895.5090860000037
 30
0.0
 11
16704.809373000011
 21
6895.5090860000037
 31
0.0
  0
LINE
  5
5420
  8
0-5
  6
CONTINUOUS
 62
     4
 10
18017.723514000001
 20
7003.3557330000021
 30
0.0
 11
17777.722721999999
 21
7003.3557330000021
 31
0.0
  0
LINE
  5
5421
  8
0-5
  6
CONTINUOUS
 62
     4
 10
17897.72113899999
 20
6795.5092510000031
 30
0.0
 11
18017.723514000001
 21
7003.3557330000021
 31
0.0
  0
LINE
  5
5422
  8
0-5
  6
CONTINUOUS
 62
     4
 10
17777.722721999999
 20
7003.3557330000021
 30
0.0
 11
17897.72113899999
 21
6795.5092510000031
 31
0.0
  0
LINE
  5
5423
  8
0-1
  6
CONTINUOUS
 62
     3
 10
9161.8403190000099
 20
9053.2645100000045
 30
0.0
 11
9166.1012320000063
 21
8923.3338590000058
 31
0.0
  0
LINE
  5
5424
  8
0-1
  6
CONTINUOUS
 62
     3
 10
14980.664525
 20
9153.3707440000071
 30
0.0
 11
9150.2977460000111
 21
8962.8371320000024
 31
0.0
  0
LINE
  5
5425
  8
0-1
  6
CONTINUOUS
 62
     3
 10
9148.659694000009
 20
9012.8110680000045
 30
0.0
 11
14979.028453000001
 21
9203.3436910000037
 31
0.0
  0
LINE
  5
5426
  8
0-1
  6
CONTINUOUS
 62
     3
 10
9144.5135930000106
 20
9047.6931550000045
 30
0.0
 11
9145.5637270000061
 21
9015.7110630000043
 31
0.0
  0
LINE
  5
5427
  8
0-1
  6
CONTINUOUS
 62
     3
 10
14998.68606200001
 20
9244.0089410000091
 30
0.0
 11
9149.3485670000082
 21
9052.8547500000059
 31
0.0
  0
LINE
  5
5428
  8
0-1
  6
CONTINUOUS
 62
     3
 10
9153.6075010000059
 20
8922.9250890000058
 30
0.0
 11
15002.946975999999
 21
9114.0792800000036
 31
0.0
  0
LINE
  5
5429
  8
0-1
  6
CONTINUOUS
 62
     3
 10
9147.3957720000071
 20
8959.8054990000055
 30
0.0
 11
9148.4468960000086
 21
8927.7580830000079
 31
0.0
  0
LINE
  5
542A
  8
0-1
  6
CONTINUOUS
 62
     3
 10
9147.3987410000045
 20
8959.7401750000026
 30
0.0
 11
9147.3957720000071
 21
8959.8054990000055
 31
0.0
  0
LINE
  5
542B
  8
0-1
  6
CONTINUOUS
 62
     3
 10
14980.50220399998
 20
9158.367049000004
 30
0.0
 11
9150.1354250000113
 21
8967.8344270000016
 31
0.0
  0
LINE
  5
542C
  8
0-1
  6
CONTINUOUS
 62
     3
 10
9148.8230050000111
 20
9007.8127840000034
 30
0.0
 11
14979.190773
 21
9198.345406000004
 31
0.0
  0
LINE
  5
542D
  8
0-1
  6
CONTINUOUS
 62
     3
 10
9147.0374790000114
 20
8970.7344210000028
 30
0.0
 11
9145.9230100000113
 21
9004.7168170000004
 31
0.0
  0
LINE
  5
542E
  8
0-1
  6
CONTINUOUS
 62
     3
 10
14907.349161
 20
6895.5090860000037
 30
0.0
 11
14907.349161
 21
6795.5092510000031
 31
0.0
  0
LINE
  5
542F
  8
0-1
  6
CONTINUOUS
 62
     3
 10
12398.350296000001
 20
6945.5092510000031
 30
0.0
 11
12398.350296000001
 21
8806.5551300000025
 31
0.0
  0
LINE
  5
5430
  8
0-1
  6
CONTINUOUS
 62
     3
 10
12531.34920000001
 20
6945.5092510000031
 30
0.0
 11
12531.34920000001
 21
8806.5551300000025
 31
0.0
  0
LINE
  5
5431
  8
0-1
  6
CONTINUOUS
 62
     3
 10
12546.34801300001
 20
6945.5092510000031
 30
0.0
 11
12546.34801300001
 21
8806.5551300000025
 31
0.0
  0
LINE
  5
5432
  8
0-1
  6
CONTINUOUS
 62
     3
 10
14656.34910799998
 20
6945.5092510000031
 30
0.0
 11
14656.34910799998
 21
8806.5551300000025
 31
0.0
  0
LINE
  5
5433
  8
0-1
  6
CONTINUOUS
 62
     3
 10
14641.350296000001
 20
6945.5092510000031
 30
0.0
 11
14641.350296000001
 21
8806.5551300000025
 31
0.0
  0
LINE
  5
5434
  8
0-1
  6
CONTINUOUS
 62
     3
 10
14240.348330000001
 20
6945.5092510000031
 30
0.0
 11
14240.348330000001
 21
8806.5551300000025
 31
0.0
  0
LINE
  5
5435
  8
0-1
  6
CONTINUOUS
 62
     3
 10
14255.350111
 20
6945.5092510000031
 30
0.0
 11
14255.350111
 21
8806.5551300000025
 31
0.0
  0
LINE
  5
5436
  8
0-1
  6
CONTINUOUS
 62
     3
 10
14388.35000600001
 20
6945.5092510000031
 30
0.0
 11
14388.35000600001
 21
8806.5551300000025
 31
0.0
  0
LINE
  5
5437
  8
0-1
  6
CONTINUOUS
 62
     3
 10
14508.35040199998
 20
6945.5092510000031
 30
0.0
 11
14508.35040199998
 21
8806.5551300000025
 31
0.0
  0
LINE
  5
5438
  8
0-1
  6
CONTINUOUS
 62
     3
 10
14438.350666
 20
6945.5092510000031
 30
0.0
 11
14438.350666
 21
8806.5551300000025
 31
0.0
  0
LINE
  5
5439
  8
0-1
  6
CONTINUOUS
 62
     3
 10
14458.349741999989
 20
6945.5092510000031
 30
0.0
 11
14458.349741999989
 21
8806.5551300000025
 31
0.0
  0
LINE
  5
543A
  8
0-1
  6
CONTINUOUS
 62
     3
 10
13748.350296000001
 20
6945.5092510000031
 30
0.0
 11
13748.350296000001
 21
8806.5551300000025
 31
0.0
  0
LINE
  5
543B
  8
0-1
  6
CONTINUOUS
 62
     3
 10
13728.34825000001
 20
6945.5092510000031
 30
0.0
 11
13728.34825000001
 21
8806.5551300000025
 31
0.0
  0
LINE
  5
543C
  8
0-1
  6
CONTINUOUS
 62
     3
 10
13798.34798600001
 20
6945.5092510000031
 30
0.0
 11
13798.34798600001
 21
8806.5551300000025
 31
0.0
  0
LINE
  5
543D
  8
0-1
  6
CONTINUOUS
 62
     3
 10
13678.350560000001
 20
6945.5092510000031
 30
0.0
 11
13678.350560000001
 21
8806.5551300000025
 31
0.0
  0
LINE
  5
543E
  8
0-1
  6
CONTINUOUS
 62
     3
 10
13545.349674999999
 20
6945.5092510000031
 30
0.0
 11
13545.349674999999
 21
8806.5551300000025
 31
0.0
  0
LINE
  5
543F
  8
0-1
  6
CONTINUOUS
 62
     3
 10
13530.348884000001
 20
6945.5092510000031
 30
0.0
 11
13530.348884000001
 21
8806.5551300000025
 31
0.0
  0
LINE
  5
5440
  8
0-1
  6
CONTINUOUS
 62
     3
 10
13931.347881000011
 20
6945.5092510000031
 30
0.0
 11
13931.347881000011
 21
8806.5551300000025
 31
0.0
  0
LINE
  5
5441
  8
0-1
  6
CONTINUOUS
 62
     3
 10
13946.34966199999
 20
6945.5092510000031
 30
0.0
 11
13946.34966199999
 21
8806.5551300000025
 31
0.0
  0
LINE
  5
5442
  8
0-1
  6
CONTINUOUS
 62
     3
 10
13246.350322
 20
6945.5092510000031
 30
0.0
 11
13246.350322
 21
8806.5551300000025
 31
0.0
  0
LINE
  5
5443
  8
0-1
  6
CONTINUOUS
 62
     3
 10
13231.348540000001
 20
6945.5092510000031
 30
0.0
 11
13231.348540000001
 21
8806.5551300000025
 31
0.0
  0
LINE
  5
5444
  8
0-1
  6
CONTINUOUS
 62
     3
 10
12830.349543
 20
6945.5092510000031
 30
0.0
 11
12830.349543
 21
8806.5551300000025
 31
0.0
  0
LINE
  5
5445
  8
0-1
  6
CONTINUOUS
 62
     3
 10
12845.34835600001
 20
6945.5092510000031
 30
0.0
 11
12845.34835600001
 21
8806.5551300000025
 31
0.0
  0
LINE
  5
5446
  8
0-1
  6
CONTINUOUS
 62
     3
 10
12978.34825000001
 20
6945.5092510000031
 30
0.0
 11
12978.34825000001
 21
8806.5551300000025
 31
0.0
  0
LINE
  5
5447
  8
0-1
  6
CONTINUOUS
 62
     3
 10
13098.348645999989
 20
6945.5092510000031
 30
0.0
 11
13098.348645999989
 21
8806.5551300000025
 31
0.0
  0
LINE
  5
5448
  8
0-1
  6
CONTINUOUS
 62
     3
 10
13028.348910000001
 20
6945.5092510000031
 30
0.0
 11
13028.348910000001
 21
8806.5551300000025
 31
0.0
  0
LINE
  5
5449
  8
0-1
  6
CONTINUOUS
 62
     3
 10
13048.34798600001
 20
6945.5092510000031
 30
0.0
 11
13048.34798600001
 21
8806.5551300000025
 31
0.0
  0
LINE
  5
544A
  8
0-1
  6
CONTINUOUS
 62
     3
 10
12706.849358999991
 20
8806.5551300000025
 30
0.0
 11
12706.849358999991
 21
6945.5092510000031
 31
0.0
  0
LINE
  5
544B
  8
0-1
  6
CONTINUOUS
 62
     3
 10
12669.84819699999
 20
8806.5551300000025
 30
0.0
 11
12669.84819699999
 21
6945.5092510000031
 31
0.0
  0
LINE
  5
544C
  8
0-1
  6
CONTINUOUS
 62
     3
 10
14116.848145000011
 20
8806.5551300000025
 30
0.0
 11
14116.848145000011
 21
6945.5092510000031
 31
0.0
  0
LINE
  5
544D
  8
0-1
  6
CONTINUOUS
 62
     3
 10
14079.849953000001
 20
8806.5551300000025
 30
0.0
 11
14079.849953000001
 21
6945.5092510000031
 31
0.0
  0
LINE
  5
544E
  8
0-1
  6
CONTINUOUS
 62
     3
 10
13406.84869899998
 20
8806.5551300000025
 30
0.0
 11
13406.84869899998
 21
6945.5092510000031
 31
0.0
  0
LINE
  5
544F
  8
0-1
  6
CONTINUOUS
 62
     3
 10
13369.849516999981
 20
8806.5551300000025
 30
0.0
 11
13369.849516999981
 21
6945.5092510000031
 31
0.0
  0
LINE
  5
5450
  8
0-1
  6
CONTINUOUS
 62
     3
 10
14874.849359000011
 20
9109.8787420000044
 30
0.0
 11
14874.849359000011
 21
6895.5090860000037
 31
0.0
  0
LINE
  5
5451
  8
0-1
  6
CONTINUOUS
 62
     3
 10
14894.848435
 20
9110.5349520000073
 30
0.0
 11
14894.848435
 21
6895.5090860000037
 31
0.0
  0
LINE
  5
5452
  8
0-1
  6
CONTINUOUS
 62
     3
 10
14779.84929299999
 20
8806.5551300000025
 30
0.0
 11
14779.84929299999
 21
6895.5090860000037
 31
0.0
  0
LINE
  5
5453
  8
0-1
  6
CONTINUOUS
 62
     3
 10
11934.349160999989
 20
9013.7909300000047
 30
0.0
 11
11934.349160999989
 21
8806.5551300000025
 31
0.0
  0
LINE
  5
5454
  8
0-1
  6
CONTINUOUS
 62
     3
 10
11934.349160999989
 20
9013.7909300000047
 30
0.0
 11
11930.088247000011
 21
9143.7205909999993
 31
0.0
  0
LINE
  5
5455
  8
0-1
  6
CONTINUOUS
 62
     3
 10
10498.84880399999
 20
8806.5551300000025
 30
0.0
 11
10498.84880399999
 21
6945.5092510000031
 31
0.0
  0
LINE
  5
5456
  8
0-1
  6
CONTINUOUS
 62
     3
 10
10461.850612
 20
8806.5551300000025
 30
0.0
 11
10461.850612
 21
6945.5092510000031
 31
0.0
  0
LINE
  5
5457
  8
0-1
  6
CONTINUOUS
 62
     3
 10
9789.3496880000166
 20
8806.5551300000025
 30
0.0
 11
9789.3496880000166
 21
6945.5092510000031
 31
0.0
  0
LINE
  5
5458
  8
0-1
  6
CONTINUOUS
 62
     3
 10
9752.3495170000133
 20
8806.5551300000025
 30
0.0
 11
9752.3495170000133
 21
6945.5092510000031
 31
0.0
  0
LINE
  5
5459
  8
0-1
  6
CONTINUOUS
 62
     3
 10
11198.848145000011
 20
8806.5551300000025
 30
0.0
 11
11198.848145000011
 21
6945.5092510000031
 31
0.0
  0
LINE
  5
545A
  8
0-1
  6
CONTINUOUS
 62
     3
 10
11161.849952
 20
8806.5551300000025
 30
0.0
 11
11161.849952
 21
6945.5092510000031
 31
0.0
  0
LINE
  5
545B
  8
0-1
  6
CONTINUOUS
 62
     3
 10
10820.34835599998
 20
6945.5092510000031
 30
0.0
 11
10820.34835599998
 21
8806.5551300000025
 31
0.0
  0
LINE
  5
545C
  8
0-1
  6
CONTINUOUS
 62
     3
 10
10840.350400999991
 20
6945.5092510000031
 30
0.0
 11
10840.350400999991
 21
8806.5551300000025
 31
0.0
  0
LINE
  5
545D
  8
0-1
  6
CONTINUOUS
 62
     3
 10
10770.34967499999
 20
6945.5092510000031
 30
0.0
 11
10770.34967499999
 21
8806.5551300000025
 31
0.0
  0
LINE
  5
545E
  8
0-1
  6
CONTINUOUS
 62
     3
 10
10890.348092
 20
6945.5092510000031
 30
0.0
 11
10890.348092
 21
8806.5551300000025
 31
0.0
  0
LINE
  5
545F
  8
0-1
  6
CONTINUOUS
 62
     3
 10
11023.347986000001
 20
6945.5092510000031
 30
0.0
 11
11023.347986000001
 21
8806.5551300000025
 31
0.0
  0
LINE
  5
5460
  8
0-1
  6
CONTINUOUS
 62
     3
 10
11038.349768
 20
6945.5092510000031
 30
0.0
 11
11038.349768
 21
8806.5551300000025
 31
0.0
  0
LINE
  5
5461
  8
0-1
  6
CONTINUOUS
 62
     3
 10
10637.347800999991
 20
6945.5092510000031
 30
0.0
 11
10637.347800999991
 21
8806.5551300000025
 31
0.0
  0
LINE
  5
5462
  8
0-1
  6
CONTINUOUS
 62
     3
 10
10622.34898899998
 20
6945.5092510000031
 30
0.0
 11
10622.34898899998
 21
8806.5551300000025
 31
0.0
  0
LINE
  5
5463
  8
0-1
  6
CONTINUOUS
 62
     3
 10
9912.850863000016
 20
6945.5092510000031
 30
0.0
 11
9912.850863000016
 21
8806.5551300000025
 31
0.0
  0
LINE
  5
5464
  8
0-1
  6
CONTINUOUS
 62
     3
 10
9927.8496750000122
 20
6945.5092510000031
 30
0.0
 11
9927.8496750000122
 21
8806.5551300000025
 31
0.0
  0
LINE
  5
5465
  8
0-1
  6
CONTINUOUS
 62
     3
 10
10338.350428
 20
6945.5092510000031
 30
0.0
 11
10338.350428
 21
8806.5551300000025
 31
0.0
  0
LINE
  5
5466
  8
0-1
  6
CONTINUOUS
 62
     3
 10
10323.348645999989
 20
6945.5092510000031
 30
0.0
 11
10323.348645999989
 21
8806.5551300000025
 31
0.0
  0
LINE
  5
5467
  8
0-1
  6
CONTINUOUS
 62
     3
 10
10190.348752
 20
6945.5092510000031
 30
0.0
 11
10190.348752
 21
8806.5551300000025
 31
0.0
  0
LINE
  5
5468
  8
0-1
  6
CONTINUOUS
 62
     3
 10
10070.34835599998
 20
6945.5092510000031
 30
0.0
 11
10070.34835599998
 21
8806.5551300000025
 31
0.0
  0
LINE
  5
5469
  8
0-1
  6
CONTINUOUS
 62
     3
 10
10140.35106100001
 20
6945.5092510000031
 30
0.0
 11
10140.35106100001
 21
8806.5551300000025
 31
0.0
  0
LINE
  5
546A
  8
0-1
  6
CONTINUOUS
 62
     3
 10
10120.349014999991
 20
6945.5092510000031
 30
0.0
 11
10120.349014999991
 21
8806.5551300000025
 31
0.0
  0
LINE
  5
546B
  8
0-1
  6
CONTINUOUS
 62
     3
 10
12348.348645999989
 20
6945.5092510000031
 30
0.0
 11
12348.348645999989
 21
8806.5551300000025
 31
0.0
  0
LINE
  5
546C
  8
0-1
  6
CONTINUOUS
 62
     3
 10
12328.34957
 20
6945.5092510000031
 30
0.0
 11
12328.34957
 21
8806.5551300000025
 31
0.0
  0
LINE
  5
546D
  8
0-1
  6
CONTINUOUS
 62
     3
 10
12278.348910000001
 20
6945.5092510000031
 30
0.0
 11
12278.348910000001
 21
8806.5551300000025
 31
0.0
  0
LINE
  5
546E
  8
0-1
  6
CONTINUOUS
 62
     3
 10
12145.350005
 20
6945.5092510000031
 30
0.0
 11
12145.350005
 21
8806.5551300000025
 31
0.0
  0
LINE
  5
546F
  8
0-1
  6
CONTINUOUS
 62
     3
 10
12130.348223999999
 20
6945.5092510000031
 30
0.0
 11
12130.348223999999
 21
8806.5551300000025
 31
0.0
  0
LINE
  5
5470
  8
0-1
  6
CONTINUOUS
 62
     3
 10
11861.84929299999
 20
8806.5551300000025
 30
0.0
 11
11861.84929299999
 21
6895.5090860000037
 31
0.0
  0
LINE
  5
5471
  8
0-1
  6
CONTINUOUS
 62
     3
 10
12006.849029000001
 20
8806.5551300000025
 30
0.0
 11
12006.849029000001
 21
6895.5090860000037
 31
0.0
  0
LINE
  5
5472
  8
0-1
  6
CONTINUOUS
 62
     3
 10
11738.348118000011
 20
6945.5092510000031
 30
0.0
 11
11738.348118000011
 21
8806.5551300000025
 31
0.0
  0
LINE
  5
5473
  8
0-1
  6
CONTINUOUS
 62
     3
 10
11723.349306
 20
6945.5092510000031
 30
0.0
 11
11723.349306
 21
8806.5551300000025
 31
0.0
  0
LINE
  5
5474
  8
0-1
  6
CONTINUOUS
 62
     3
 10
11590.350401
 20
6945.5092510000031
 30
0.0
 11
11590.350401
 21
8806.5551300000025
 31
0.0
  0
LINE
  5
5475
  8
0-1
  6
CONTINUOUS
 62
     3
 10
11540.349740999991
 20
6945.5092510000031
 30
0.0
 11
11540.349740999991
 21
8806.5551300000025
 31
0.0
  0
LINE
  5
5476
  8
0-1
  6
CONTINUOUS
 62
     3
 10
11520.350664999991
 20
6945.5092510000031
 30
0.0
 11
11520.350664999991
 21
8806.5551300000025
 31
0.0
  0
LINE
  5
5477
  8
0-1
  6
CONTINUOUS
 62
     3
 10
11322.348329
 20
6945.5092510000031
 30
0.0
 11
11322.348329
 21
8806.5551300000025
 31
0.0
  0
LINE
  5
5478
  8
0-1
  6
CONTINUOUS
 62
     3
 10
11337.350111000011
 20
6945.5092510000031
 30
0.0
 11
11337.350111000011
 21
8806.5551300000025
 31
0.0
  0
LINE
  5
5479
  8
0-1
  6
CONTINUOUS
 62
     3
 10
11470.349014999991
 20
6945.5092510000031
 30
0.0
 11
11470.349014999991
 21
8806.5551300000025
 31
0.0
  0
LINE
  5
547A
  8
0-1
  6
CONTINUOUS
 62
     3
 10
12006.849029000001
 20
6945.5092510000031
 30
0.0
 11
14779.84929299999
 21
6945.5092510000031
 31
0.0
  0
LINE
  5
547B
  8
0-1
  6
CONTINUOUS
 62
     3
 10
14969.983043
 20
9112.9984630000035
 30
0.0
 11
14965.723119
 21
9242.9281240000037
 31
0.0
  0
LINE
  5
547C
  8
0-1
  6
CONTINUOUS
 62
     3
 10
9316.8491610000037
 20
6795.5092510000031
 30
0.0
 11
9316.8491610000037
 21
6895.5090860000037
 31
0.0
  0
LINE
  5
547D
  8
0-1
  6
CONTINUOUS
 62
     3
 10
9344.3509420000119
 20
8929.1783880000094
 30
0.0
 11
9344.3509420000119
 21
6895.5090860000037
 31
0.0
  0
LINE
  5
547E
  8
0-1
  6
CONTINUOUS
 62
     3
 10
9324.3498860000127
 20
8928.5231669999976
 30
0.0
 11
9324.3498860000127
 21
6895.5090860000037
 31
0.0
  0
LINE
  5
547F
  8
0-1
  6
CONTINUOUS
 62
     3
 10
9439.3500180000101
 20
8806.5551300000025
 30
0.0
 11
9439.3500180000101
 21
6895.5090860000037
 31
0.0
  0
LINE
  5
5480
  8
0-1
  6
CONTINUOUS
 62
     3
 10
9316.8491610000037
 20
6895.5090860000037
 30
0.0
 11
14907.349161
 21
6895.5090860000037
 31
0.0
  0
LINE
  5
5481
  8
0-1
  6
CONTINUOUS
 62
     3
 10
9439.3500180000101
 20
6945.5092510000031
 30
0.0
 11
11861.84929299999
 21
6945.5092510000031
 31
0.0
  0
LINE
  5
5482
  8
0-1
  6
CONTINUOUS
 62
     3
 10
8634.3500840000015
 20
6795.5092510000031
 30
0.0
 11
14907.349161
 21
6795.5092510000031
 31
0.0
  0
LINE
  5
5483
  8
0-1
  6
CONTINUOUS
 62
     3
 10
9344.3509420000119
 20
8806.5551300000025
 30
0.0
 11
14874.849359000011
 21
8806.5551300000025
 31
0.0
  0
LINE
  5
5484
  8
SUNPOU
  6
CONTINUOUS
 10
26247.106866999991
 20
19735.322951999991
 30
0.0
 11
26247.106866999991
 21
20461.54080651627
 31
0.0
  0
TEXT
  5
5485
  8
2-0
  6
CONTINUOUS
 62
     7
 10
25102.975480000008
 20
21082.300227
 30
0.0
 40
160.0
  1
3
 72
     4
 11
25156.30881333334
 21
21162.300227
 31
0.0
  0
CIRCLE
  5
5486
  8
2-0
  6
CONTINUOUS
 62
     4
 10
25154.607263000002
 20
21177.825855999999
 30
0.0
 40
200.00001
  0
LINE
  5
5487
  8
2-0
  6
CONTINUOUS
 62
     3
 10
25197.105546999988
 20
14979.22732099998
 30
0.0
 11
25197.105546999988
 21
14332.360958999991
 31
0.0
  0
LINE
  5
5488
  8
2-0
  6
CONTINUOUS
 62
     3
 10
25197.105546999988
 20
15680.462388999989
 30
0.0
 11
25197.105546999988
 21
15036.423531
 31
0.0
  0
LINE
  5
5489
  8
2-0
  6
CONTINUOUS
 62
     3
 10
23206.679766000001
 20
19777.821237
 30
0.0
 11
22558.705367999992
 21
19777.821237
 31
0.0
  0
LINE
  5
548A
  8
2-0
  6
CONTINUOUS
 62
     3
 10
23370.912504999971
 20
19777.821237
 30
0.0
 11
23667.014106999999
 21
19777.821237
 31
0.0
  0
LINE
  5
548B
  8
2-0
  6
CONTINUOUS
 62
     3
 10
23680.01162600001
 20
19765.82139500001
 30
0.0
 11
23680.01162600001
 21
19772.826911
 31
0.0
  0
LINE
  5
548C
  8
2-0
  6
CONTINUOUS
 62
     3
 10
23680.01162600001
 20
19772.826911
 30
0.0
 11
23685.009910000001
 21
19772.826911
 31
0.0
  0
LINE
  5
548D
  8
2-0
  6
CONTINUOUS
 62
     3
 10
23685.009910000001
 20
19772.826911
 30
0.0
 11
23685.009910000001
 21
19747.817674000002
 31
0.0
  0
LINE
  5
548E
  8
2-0
  6
CONTINUOUS
 62
     3
 10
23685.009910000001
 20
19747.817674000002
 30
0.0
 11
23667.014106999999
 21
19747.817674000002
 31
0.0
  0
LINE
  5
548F
  8
2-0
  6
CONTINUOUS
 62
     3
 10
23667.014106999999
 20
19747.817674000002
 30
0.0
 11
23667.014106999999
 21
19777.821237
 31
0.0
  0
LINE
  5
5490
  8
2-0
  6
CONTINUOUS
 62
     3
 10
23683.103633999999
 20
19747.817674000002
 30
0.0
 11
23677.109651999988
 21
19747.817674000002
 31
0.0
  0
LINE
  5
5491
  8
2-0
  6
CONTINUOUS
 62
     3
 10
23677.109651999988
 20
19747.817674000002
 30
0.0
 11
23677.109651999988
 21
19777.821237
 31
0.0
  0
LINE
  5
5492
  8
2-0
  6
CONTINUOUS
 62
     3
 10
23677.109651999988
 20
19777.821237
 30
0.0
 11
23714.104874000001
 21
19777.821237
 31
0.0
  0
LINE
  5
5493
  8
2-0
  6
CONTINUOUS
 62
     3
 10
23714.104874000001
 20
19747.817674000002
 30
0.0
 11
23714.104874000001
 21
19777.821237
 31
0.0
  0
LINE
  5
5494
  8
2-0
  6
CONTINUOUS
 62
     3
 10
23708.100994000011
 20
19747.817674000002
 30
0.0
 11
23714.104874000001
 21
19747.817674000002
 31
0.0
  0
LINE
  5
5495
  8
2-0
  6
CONTINUOUS
 62
     3
 10
23724.200419000001
 20
19747.817674000002
 30
0.0
 11
23724.200419000001
 21
19777.821237
 31
0.0
  0
LINE
  5
5496
  8
2-0
  6
CONTINUOUS
 62
     3
 10
23706.198676999978
 20
19747.817674000002
 30
0.0
 11
23724.200419000001
 21
19747.817674000002
 31
0.0
  0
LINE
  5
5497
  8
2-0
  6
CONTINUOUS
 62
     3
 10
23706.198676999978
 20
19772.826911
 30
0.0
 11
23706.198676999978
 21
19747.817674000002
 31
0.0
  0
LINE
  5
5498
  8
2-0
  6
CONTINUOUS
 62
     3
 10
23711.198940999999
 20
19772.826911
 30
0.0
 11
23706.198676999978
 21
19772.826911
 31
0.0
  0
LINE
  5
5499
  8
2-0
  6
CONTINUOUS
 62
     3
 10
23711.198940999999
 20
19765.82139500001
 30
0.0
 11
23711.198940999999
 21
19772.826911
 31
0.0
  0
LINE
  5
549A
  8
2-0
  6
CONTINUOUS
 62
     3
 10
25072.490892999998
 20
19777.821237
 30
0.0
 11
24425.205367999999
 21
19777.821237
 31
0.0
  0
LINE
  5
549B
  8
2-0
  6
CONTINUOUS
 62
     3
 10
23724.40628900001
 20
19777.821237
 30
0.0
 11
24368.012127499991
 21
19777.821237
 31
0.0
  0
LINE
  5
549C
  8
2-0
  6
CONTINUOUS
 62
     3
 10
24381.00766649998
 20
19765.82139500001
 30
0.0
 11
24381.00766649998
 21
19772.826911
 31
0.0
  0
LINE
  5
549D
  8
2-0
  6
CONTINUOUS
 62
     3
 10
24381.00766649998
 20
19772.826911
 30
0.0
 11
24386.007930499989
 21
19772.826911
 31
0.0
  0
LINE
  5
549E
  8
2-0
  6
CONTINUOUS
 62
     3
 10
24386.007930499989
 20
19772.826911
 30
0.0
 11
24386.007930499989
 21
19747.817674000002
 31
0.0
  0
LINE
  5
549F
  8
2-0
  6
CONTINUOUS
 62
     3
 10
24386.007930499989
 20
19747.817674000002
 30
0.0
 11
24368.012127499991
 21
19747.817674000002
 31
0.0
  0
LINE
  5
54A0
  8
2-0
  6
CONTINUOUS
 62
     3
 10
24368.012127499991
 20
19747.817674000002
 30
0.0
 11
24368.012127499991
 21
19777.821237
 31
0.0
  0
LINE
  5
54A1
  8
2-0
  6
CONTINUOUS
 62
     3
 10
24384.101654499991
 20
19747.817674000002
 30
0.0
 11
24378.107672499991
 21
19747.817674000002
 31
0.0
  0
LINE
  5
54A2
  8
2-0
  6
CONTINUOUS
 62
     3
 10
24378.107672499991
 20
19747.817674000002
 30
0.0
 11
24378.107672499991
 21
19777.821237
 31
0.0
  0
LINE
  5
54A3
  8
2-0
  6
CONTINUOUS
 62
     3
 10
24378.107672499991
 20
19777.821237
 30
0.0
 11
24415.10685349999
 21
19777.821237
 31
0.0
  0
LINE
  5
54A4
  8
2-0
  6
CONTINUOUS
 62
     3
 10
24415.10685349999
 20
19747.817674000002
 30
0.0
 11
24415.10685349999
 21
19777.821237
 31
0.0
  0
LINE
  5
54A5
  8
2-0
  6
CONTINUOUS
 62
     3
 10
24409.104953499991
 20
19747.817674000002
 30
0.0
 11
24415.10685349999
 21
19747.817674000002
 31
0.0
  0
LINE
  5
54A6
  8
2-0
  6
CONTINUOUS
 62
     3
 10
24425.202398500001
 20
19747.817674000002
 30
0.0
 11
24425.202398500001
 21
19777.821237
 31
0.0
  0
LINE
  5
54A7
  8
2-0
  6
CONTINUOUS
 62
     3
 10
24407.196697499989
 20
19747.817674000002
 30
0.0
 11
24425.202398500001
 21
19747.817674000002
 31
0.0
  0
LINE
  5
54A8
  8
2-0
  6
CONTINUOUS
 62
     3
 10
24407.196697499989
 20
19772.826911
 30
0.0
 11
24407.196697499989
 21
19747.817674000002
 31
0.0
  0
LINE
  5
54A9
  8
2-0
  6
CONTINUOUS
 62
     3
 10
24412.196961500002
 20
19772.826911
 30
0.0
 11
24407.196697499989
 21
19772.826911
 31
0.0
  0
LINE
  5
54AA
  8
2-0
  6
CONTINUOUS
 62
     3
 10
24412.196961500002
 20
19765.82139500001
 30
0.0
 11
24412.196961500002
 21
19772.826911
 31
0.0
  0
LINE
  5
54AB
  8
2-0
  6
CONTINUOUS
 62
     3
 10
24378.106682000001
 20
19747.817674000002
 30
0.0
 11
24378.106682000001
 21
19777.821237
 31
0.0
  0
LINE
  5
54AC
  8
2-0
  6
CONTINUOUS
 62
     3
 10
24384.106602999978
 20
19747.817674000002
 30
0.0
 11
24378.106682000001
 21
19747.817674000002
 31
0.0
  0
LINE
  5
54AD
  8
2-0
  6
CONTINUOUS
 62
     3
 10
24368.013116999999
 20
19747.817674000002
 30
0.0
 11
24368.013116999999
 21
19777.821237
 31
0.0
  0
LINE
  5
54AE
  8
2-0
  6
CONTINUOUS
 62
     3
 10
24386.012879999998
 20
19747.817674000002
 30
0.0
 11
24368.013116999999
 21
19747.817674000002
 31
0.0
  0
LINE
  5
54AF
  8
2-0
  6
CONTINUOUS
 62
     3
 10
24386.012879999998
 20
19772.826911
 30
0.0
 11
24386.012879999998
 21
19747.817674000002
 31
0.0
  0
LINE
  5
54B0
  8
2-0
  6
CONTINUOUS
 62
     3
 10
24381.012615999989
 20
19772.826911
 30
0.0
 11
24386.012879999998
 21
19772.826911
 31
0.0
  0
LINE
  5
54B1
  8
2-0
  6
CONTINUOUS
 62
     3
 10
24381.012615999989
 20
19765.82139500001
 30
0.0
 11
24381.012615999989
 21
19772.826911
 31
0.0
  0
LINE
  5
54B2
  8
2-0
  6
CONTINUOUS
 62
     3
 10
24412.201911
 20
19765.82139500001
 30
0.0
 11
24412.201911
 21
19772.826911
 31
0.0
  0
LINE
  5
54B3
  8
2-0
  6
CONTINUOUS
 62
     3
 10
24412.201911
 20
19772.826911
 30
0.0
 11
24407.201647000002
 21
19772.826911
 31
0.0
  0
LINE
  5
54B4
  8
2-0
  6
CONTINUOUS
 62
     3
 10
24407.201647000002
 20
19772.826911
 30
0.0
 11
24407.201647000002
 21
19747.817674000002
 31
0.0
  0
LINE
  5
54B5
  8
2-0
  6
CONTINUOUS
 62
     3
 10
24407.201647000002
 20
19747.817674000002
 30
0.0
 11
24425.205367999999
 21
19747.817674000002
 31
0.0
  0
LINE
  5
54B6
  8
2-0
  6
CONTINUOUS
 62
     3
 10
24425.205367999999
 20
19747.817674000002
 30
0.0
 11
24425.205367999999
 21
19777.821237
 31
0.0
  0
LINE
  5
54B7
  8
2-0
  6
CONTINUOUS
 62
     3
 10
24409.107922999981
 20
19747.817674000002
 30
0.0
 11
24415.107843999969
 21
19747.817674000002
 31
0.0
  0
LINE
  5
54B8
  8
2-0
  6
CONTINUOUS
 62
     3
 10
24415.107843999969
 20
19747.817674000002
 30
0.0
 11
24415.107843999969
 21
19777.821237
 31
0.0
  0
LINE
  5
54B9
  8
2-0
  6
CONTINUOUS
 62
     3
 10
24415.107843999969
 20
19777.821237
 30
0.0
 11
24378.106682000001
 21
19777.821237
 31
0.0
  0
TEXT
  5
54BA
  8
2-0
  6
CONTINUOUS
 62
     7
 10
19975.400653999968
 20
21089.05830400002
 30
0.0
 40
160.0
  1
1
 72
     4
 11
20002.06732066664
 21
21169.05830400002
 31
0.0
  0
TEXT
  5
54BB
  8
2-0
  6
CONTINUOUS
 62
     7
 10
23236.475480000008
 20
21082.300227
 30
0.0
 40
160.0
  1
2
 72
     4
 11
23289.80881333334
 21
21162.300227
 31
0.0
  0
TEXT
  5
54BC
  8
2-0
  6
CONTINUOUS
 62
     7
 10
18442.41890499997
 20
14161.215740999991
 30
0.0
 40
160.0
  1
A
 72
     4
 11
18495.752238333302
 21
14241.215740999991
 31
0.0
  0
TEXT
  5
54BD
  8
2-0
  6
CONTINUOUS
 62
     7
 10
18442.376344999979
 20
17097.428870000011
 30
0.0
 40
160.0
  1
B
 72
     4
 11
18495.709678333311
 21
17177.428870000011
 31
0.0
  0
TEXT
  5
54BE
  8
2-0
  6
CONTINUOUS
 62
     7
 10
18442.155628999979
 20
19640.842509999991
 30
0.0
 40
160.0
  1
C
 72
     4
 11
18495.488962333311
 21
19720.842509999991
 31
0.0
  0
TEXT
  5
54BF
  8
2-0
  6
CONTINUOUS
 62
     7
 10
22185.821816
 20
19209.448004999991
 30
0.0
 40
160.0
  1
後柱（中）
 72
     4
 11
22601.821816
 21
19289.448004999991
 31
0.0
  0
TEXT
  5
54C0
  8
2-0
  6
CONTINUOUS
 62
     7
 10
20691.571720333319
 20
19140.70328400001
 30
0.0
 40
160.0
  1
間柱（後）
 72
     4
 11
21112.905053666651
 21
19220.70328400001
 31
0.0
  0
TEXT
  5
54C1
  8
2-0
  6
CONTINUOUS
 62
     7
 10
22057.01850100001
 20
14827.661251999971
 30
0.0
 40
160.0
  1
前柱（中）
 72
     4
 11
22473.01850100001
 21
14907.661251999971
 31
0.0
  0
TEXT
  5
54C2
  8
2-0
  6
CONTINUOUS
 62
     7
 10
25969.602776
 20
20587.82044499987
 30
0.0
 40
160.0
  1
後柱（左右）
 50
0.0003540000147867
 72
     4
 11
26481.60228171296
 21
20667.82360837283
 31
0.0
  0
TEXT
  5
54C3
  8
2-0
  6
CONTINUOUS
 62
     7
 10
23651.012457000012
 20
19058.772724499991
 30
0.0
 40
160.0
  1
間柱（側）
 72
     4
 11
24072.34579033334
 21
19138.772724499991
 31
0.0
  0
TEXT
  5
54C4
  8
2-0
  6
CONTINUOUS
 62
     7
 10
23568.15178899996
 20
15451.186629000091
 30
0.0
 40
160.0
  1
補強柱 前
 50
359.99936999998857
 72
     4
 11
23978.819335287761
 21
15531.18211347933
 31
0.0
  0
TEXT
  5
54C5
  8
2-0
  6
CONTINUOUS
 62
     7
 10
24156.047032999999
 20
14662.865339999929
 30
0.0
 40
160.0
  1
下枠
 50
0.0010630000132487
 72
     4
 11
24326.712215409279
 21
14742.86850633926
 31
0.0
  0
TEXT
  5
54C6
  8
2-0
  6
CONTINUOUS
 62
     7
 10
23476.044789
 20
17455.503985999869
 30
0.0
 40
160.0
  1
中柱（左右）
 50
0.0003540000147867
 72
     4
 11
23993.37762804619
 21
17535.507182324662
 31
0.0
  0
TEXT
  5
54C7
  8
2-0
  6
CONTINUOUS
 62
     7
 10
23756.047692999979
 20
16618.316090000058
 30
0.0
 40
160.0
  1
壁パネル
 50
359.9998229999926
 72
     4
 11
24118.714606803551
 21
16698.314969637879
 31
0.0
  0
TEXT
  5
54C8
  8
2-0
  6
CONTINUOUS
 62
     7
 10
23568.151789
 20
18368.946117999982
 30
0.0
 40
160.0
  1
補強柱 後
 50
359.99984199999972
 72
     4
 11
23978.818676274721
 21
18448.944985536971
 31
0.0
  0
TEXT
  5
54C9
  8
2-0
  6
CONTINUOUS
 62
     7
 10
23551.45256999999
 20
13689.82407399994
 30
0.0
 40
160.0
  1
前柱（右）
 50
0.0002130000058044
 72
     4
 11
23967.452272593011
 21
13769.825620500769
 31
0.0
  0
CIRCLE
  5
54CA
  8
2-0
  6
CONTINUOUS
 62
     4
 10
20019.607263000002
 20
21177.825855999999
 30
0.0
 40
200.00001
  0
CIRCLE
  5
54CB
  8
2-0
  6
CONTINUOUS
 62
     4
 10
23288.107263000002
 20
21177.825855999999
 30
0.0
 40
200.00001
  0
CIRCLE
  5
54CC
  8
2-0
  6
CONTINUOUS
 62
     4
 10
18490.154996000001
 20
14249.82295199999
 30
0.0
 40
200.00001
  0
CIRCLE
  5
54CD
  8
2-0
  6
CONTINUOUS
 62
     4
 10
18490.154996000001
 20
17167.822951999991
 30
0.0
 40
200.00001
  0
CIRCLE
  5
54CE
  8
2-0
  6
CONTINUOUS
 62
     4
 10
18490.154996000001
 20
19735.322951999991
 30
0.0
 40
200.00001
  0
LINE
  5
54CF
  8
2-0
  6
CONTINUOUS
 62
     3
 10
25116.103646999989
 20
14292.321235999991
 30
0.0
 11
25116.103646999989
 21
19777.821237
 31
0.0
  0
LINE
  5
54D0
  8
2-0
  6
CONTINUOUS
 62
     3
 10
20058.108898999992
 20
14292.321235999991
 30
0.0
 11
20058.108898999992
 21
19777.821237
 31
0.0
  0
LINE
  5
54D1
  8
2-0
  6
CENTER2
 62
     6
 10
23288.107263000002
 20
20977.821237
 30
0.0
 11
23288.107263000002
 21
14058.41835099998
 31
0.0
  0
LINE
  5
54D2
  8
2-0
  6
CONTINUOUS
 62
     3
 10
19977.11095799999
 20
19652.527608
 30
0.0
 11
19977.11095799999
 21
19356.419077499981
 31
0.0
  0
LINE
  5
54D3
  8
2-0
  6
CONTINUOUS
 62
     3
 10
25197.105546999988
 20
19652.527608
 30
0.0
 11
25197.105546999988
 21
19356.419077499981
 31
0.0
  0
LINE
  5
54D4
  8
2-0
  6
CENTER2
 62
     6
 10
25154.607263000002
 20
20977.821237
 30
0.0
 11
25154.607263000002
 21
13624.05951799998
 31
0.0
  0
LINE
  5
54D5
  8
2-0
  6
CENTER2
 62
     6
 10
20019.607263000002
 20
20977.821237
 30
0.0
 11
20019.607263000002
 21
13624.05951799998
 31
0.0
  0
LINE
  5
54D6
  8
2-0
  6
CONTINUOUS
 62
     3
 10
19977.11095799999
 20
14332.360958999991
 30
0.0
 11
19977.11095799999
 21
14979.22732099998
 31
0.0
  0
LINE
  5
54D7
  8
2-0
  6
CONTINUOUS
 62
     3
 10
19977.11095799999
 20
19692.824668000001
 30
0.0
 11
25116.103646999989
 21
19692.824668000001
 31
0.0
  0
LINE
  5
54D8
  8
2-0
  6
CONTINUOUS
 62
     3
 10
20102.412504999989
 20
19777.821237
 30
0.0
 11
20398.514106999992
 21
19777.821237
 31
0.0
  0
LINE
  5
54D9
  8
2-0
  6
CONTINUOUS
 62
     3
 10
20411.51162600001
 20
19765.82139500001
 30
0.0
 11
20411.51162600001
 21
19772.826911
 31
0.0
  0
LINE
  5
54DA
  8
2-0
  6
CONTINUOUS
 62
     3
 10
20411.51162600001
 20
19772.826911
 30
0.0
 11
20416.509910000001
 21
19772.826911
 31
0.0
  0
LINE
  5
54DB
  8
2-0
  6
CONTINUOUS
 62
     3
 10
20416.509910000001
 20
19772.826911
 30
0.0
 11
20416.509910000001
 21
19747.817674000002
 31
0.0
  0
LINE
  5
54DC
  8
2-0
  6
CONTINUOUS
 62
     3
 10
20416.509910000001
 20
19747.817674000002
 30
0.0
 11
20398.514106999992
 21
19747.817674000002
 31
0.0
  0
LINE
  5
54DD
  8
2-0
  6
CONTINUOUS
 62
     3
 10
20398.514106999992
 20
19747.817674000002
 30
0.0
 11
20398.514106999992
 21
19777.821237
 31
0.0
  0
LINE
  5
54DE
  8
2-0
  6
CONTINUOUS
 62
     3
 10
20414.603633999999
 20
19747.817674000002
 30
0.0
 11
20408.609651999981
 21
19747.817674000002
 31
0.0
  0
LINE
  5
54DF
  8
2-0
  6
CONTINUOUS
 62
     3
 10
20408.609651999981
 20
19747.817674000002
 30
0.0
 11
20408.609651999981
 21
19777.821237
 31
0.0
  0
LINE
  5
54E0
  8
2-0
  6
CONTINUOUS
 62
     3
 10
20408.609651999981
 20
19777.821237
 30
0.0
 11
20445.604874000001
 21
19777.821237
 31
0.0
  0
LINE
  5
54E1
  8
2-0
  6
CONTINUOUS
 62
     3
 10
20445.604874000001
 20
19747.817674000002
 30
0.0
 11
20445.604874000001
 21
19777.821237
 31
0.0
  0
LINE
  5
54E2
  8
2-0
  6
CONTINUOUS
 62
     3
 10
20439.600994
 20
19747.817674000002
 30
0.0
 11
20445.604874000001
 21
19747.817674000002
 31
0.0
  0
LINE
  5
54E3
  8
2-0
  6
CONTINUOUS
 62
     3
 10
20455.700419000001
 20
19747.817674000002
 30
0.0
 11
20455.700419000001
 21
19777.821237
 31
0.0
  0
LINE
  5
54E4
  8
2-0
  6
CONTINUOUS
 62
     3
 10
20437.698677
 20
19747.817674000002
 30
0.0
 11
20455.700419000001
 21
19747.817674000002
 31
0.0
  0
LINE
  5
54E5
  8
2-0
  6
CONTINUOUS
 62
     3
 10
20437.698677
 20
19772.826911
 30
0.0
 11
20437.698677
 21
19747.817674000002
 31
0.0
  0
LINE
  5
54E6
  8
2-0
  6
CONTINUOUS
 62
     3
 10
20442.698940999999
 20
19772.826911
 30
0.0
 11
20437.698677
 21
19772.826911
 31
0.0
  0
LINE
  5
54E7
  8
2-0
  6
CONTINUOUS
 62
     3
 10
20442.698940999999
 20
19765.82139500001
 30
0.0
 11
20442.698940999999
 21
19772.826911
 31
0.0
  0
LINE
  5
54E8
  8
2-0
  6
CENTER2
 62
     6
 10
18690.15268599999
 20
14249.82295199999
 30
0.0
 11
26047.106866999991
 21
14249.82295199999
 31
0.0
  0
LINE
  5
54E9
  8
2-0
  6
CENTER2
 62
     6
 10
18690.15268599999
 20
17167.822951999991
 30
0.0
 11
26047.106866999991
 21
17167.822951999991
 31
0.0
  0
LINE
  5
54EA
  8
2-0
  6
CENTER2
 62
     6
 10
18690.15268599999
 20
19735.322951999991
 30
0.0
 11
26047.106866999991
 21
19735.322951999991
 31
0.0
  0
LINE
  5
54EB
  8
2-0
  6
CONTINUOUS
 62
     3
 10
25197.105546999988
 20
19662.82506399999
 30
0.0
 11
25197.105546999988
 21
19777.821237
 31
0.0
  0
LINE
  5
54EC
  8
2-0
  6
CONTINUOUS
 62
     3
 10
20068.113386000001
 20
15751.321235999971
 30
0.0
 11
20068.113386000001
 21
15666.32466799999
 31
0.0
  0
LINE
  5
54ED
  8
2-0
  6
CONTINUOUS
 62
     3
 10
20021.109716999999
 20
15726.319917000001
 30
0.0
 11
20021.109716999999
 21
15751.321235999971
 31
0.0
  0
LINE
  5
54EE
  8
2-0
  6
CONTINUOUS
 62
     3
 10
20021.109716999999
 20
15666.32466799999
 30
0.0
 11
20021.109716999999
 21
15691.320049
 31
0.0
  0
LINE
  5
54EF
  8
2-0
  6
CONTINUOUS
 62
     3
 10
20021.109716999999
 20
15751.321235999971
 30
0.0
 11
20068.113386000001
 21
15751.321235999971
 31
0.0
  0
LINE
  5
54F0
  8
2-0
  6
CONTINUOUS
 62
     3
 10
20068.113386000001
 20
15666.32466799999
 30
0.0
 11
20021.109716999999
 21
15666.32466799999
 31
0.0
  0
LINE
  5
54F1
  8
2-0
  6
CONTINUOUS
 62
     3
 10
19977.11095799999
 20
16381.22237249998
 30
0.0
 11
19977.11095799999
 21
15737.658599
 31
0.0
  0
LINE
  5
54F2
  8
2-0
  6
CONTINUOUS
 62
     3
 10
20068.113386000001
 20
18669.322225999978
 30
0.0
 11
20068.113386000001
 21
18584.32169799996
 31
0.0
  0
LINE
  5
54F3
  8
2-0
  6
CONTINUOUS
 62
     3
 10
20021.109716999999
 20
18644.320906000001
 30
0.0
 11
20021.109716999999
 21
18669.322225999978
 31
0.0
  0
LINE
  5
54F4
  8
2-0
  6
CONTINUOUS
 62
     3
 10
20021.109716999999
 20
18584.32169799996
 30
0.0
 11
20021.109716999999
 21
18609.324996999982
 31
0.0
  0
LINE
  5
54F5
  8
2-0
  6
CONTINUOUS
 62
     3
 10
20021.109716999999
 20
18669.322225999978
 30
0.0
 11
20068.113386000001
 21
18669.322225999978
 31
0.0
  0
LINE
  5
54F6
  8
2-0
  6
CONTINUOUS
 62
     3
 10
20068.113386000001
 20
18584.32169799996
 30
0.0
 11
20021.109716999999
 21
18584.32169799996
 31
0.0
  0
LINE
  5
54F7
  8
2-0
  6
CONTINUOUS
 62
     3
 10
19977.11095799999
 20
18655.418087999991
 30
0.0
 11
19977.11095799999
 21
19299.228805499981
 31
0.0
  0
LINE
  5
54F8
  8
2-0
  6
CONTINUOUS
 62
     3
 10
19977.11095799999
 20
15036.423531
 30
0.0
 11
19977.11095799999
 21
15680.462388999989
 31
0.0
  0
LINE
  5
54F9
  8
2-0
  6
CONTINUOUS
 62
     3
 10
20007.10858299999
 20
14332.360958999991
 30
0.0
 11
19977.11095799999
 21
14332.360958999991
 31
0.0
  0
LINE
  5
54FA
  8
2-0
  6
CONTINUOUS
 62
     3
 10
20007.10858299999
 20
14314.36218599996
 30
0.0
 11
20007.10858299999
 21
14332.360958999991
 31
0.0
  0
LINE
  5
54FB
  8
2-0
  6
CONTINUOUS
 62
     3
 10
19982.11518099999
 20
14314.36218599996
 30
0.0
 11
20007.10858299999
 21
14314.36218599996
 31
0.0
  0
LINE
  5
54FC
  8
2-0
  6
CONTINUOUS
 62
     3
 10
19982.11518099999
 20
14319.35948099999
 30
0.0
 11
19982.11518099999
 21
14314.36218599996
 31
0.0
  0
LINE
  5
54FD
  8
2-0
  6
CONTINUOUS
 62
     3
 10
19989.11277899997
 20
14319.35948099999
 30
0.0
 11
19982.11518099999
 21
14319.35948099999
 31
0.0
  0
LINE
  5
54FE
  8
2-0
  6
CONTINUOUS
 62
     3
 10
20062.109505999979
 20
14292.321235999991
 30
0.0
 11
20030.112567999971
 21
14292.321235999991
 31
0.0
  0
LINE
  5
54FF
  8
2-0
  6
CONTINUOUS
 62
     3
 10
20062.109505999979
 20
14207.32565699999
 30
0.0
 11
20062.109505999979
 21
14292.321235999991
 31
0.0
  0
LINE
  5
5500
  8
2-0
  6
CONTINUOUS
 62
     3
 10
19977.11095799999
 20
14207.32565699999
 30
0.0
 11
20062.109505999979
 21
14207.32565699999
 31
0.0
  0
LINE
  5
5501
  8
2-0
  6
CONTINUOUS
 62
     3
 10
19977.11095799999
 20
14322.32974799998
 30
0.0
 11
19977.11095799999
 21
14207.32565699999
 31
0.0
  0
LINE
  5
5502
  8
2-0
  6
CONTINUOUS
 62
     3
 10
20007.10858299999
 20
14322.32974799998
 30
0.0
 11
19977.11095799999
 21
14322.32974799998
 31
0.0
  0
LINE
  5
5503
  8
2-0
  6
CONTINUOUS
 62
     3
 10
20007.10858299999
 20
14316.324878999991
 30
0.0
 11
20007.10858299999
 21
14322.32974799998
 31
0.0
  0
LINE
  5
5504
  8
2-0
  6
CONTINUOUS
 62
     3
 10
19989.11277899997
 20
15023.422053
 30
0.0
 11
19982.11518099999
 21
15023.422053
 31
0.0
  0
LINE
  5
5505
  8
2-0
  6
CONTINUOUS
 62
     3
 10
19982.11518099999
 20
15023.422053
 30
0.0
 11
19982.11518099999
 21
15018.416839999991
 31
0.0
  0
LINE
  5
5506
  8
2-0
  6
CONTINUOUS
 62
     3
 10
19982.11518099999
 20
15018.416839999991
 30
0.0
 11
20007.10858299999
 21
15018.416839999991
 31
0.0
  0
LINE
  5
5507
  8
2-0
  6
CONTINUOUS
 62
     3
 10
20007.10858299999
 20
15018.416839999991
 30
0.0
 11
20007.10858299999
 21
15036.423531
 31
0.0
  0
LINE
  5
5508
  8
2-0
  6
CONTINUOUS
 62
     3
 10
20007.10858299999
 20
15036.423531
 30
0.0
 11
19977.11095799999
 21
15036.423531
 31
0.0
  0
LINE
  5
5509
  8
2-0
  6
CONTINUOUS
 62
     3
 10
20007.10858299999
 20
15020.32608599999
 30
0.0
 11
20007.10858299999
 21
15026.32303799997
 31
0.0
  0
LINE
  5
550A
  8
2-0
  6
CONTINUOUS
 62
     3
 10
20007.10858299999
 20
15026.32303799997
 30
0.0
 11
19977.11095799999
 21
15026.32303799997
 31
0.0
  0
LINE
  5
550B
  8
2-0
  6
CONTINUOUS
 62
     3
 10
19977.11095799999
 20
14989.322866
 30
0.0
 11
19977.11095799999
 21
15026.32303799997
 31
0.0
  0
LINE
  5
550C
  8
2-0
  6
CONTINUOUS
 62
     3
 10
20007.10858299999
 20
14989.322866
 30
0.0
 11
19977.11095799999
 21
14989.322866
 31
0.0
  0
LINE
  5
550D
  8
2-0
  6
CONTINUOUS
 62
     3
 10
20007.10858299999
 20
14995.325756
 30
0.0
 11
20007.10858299999
 21
14989.322866
 31
0.0
  0
LINE
  5
550E
  8
2-0
  6
CONTINUOUS
 62
     3
 10
20007.10858299999
 20
14979.22732099998
 30
0.0
 11
19977.11095799999
 21
14979.22732099998
 31
0.0
  0
LINE
  5
550F
  8
2-0
  6
CONTINUOUS
 62
     3
 10
20007.10858299999
 20
14997.223125
 30
0.0
 11
20007.10858299999
 21
14979.22732099998
 31
0.0
  0
LINE
  5
5510
  8
2-0
  6
CONTINUOUS
 62
     3
 10
19982.11518099999
 20
14997.223125
 30
0.0
 11
20007.10858299999
 21
14997.223125
 31
0.0
  0
LINE
  5
5511
  8
2-0
  6
CONTINUOUS
 62
     3
 10
19982.11518099999
 20
14992.22879899998
 30
0.0
 11
19982.11518099999
 21
14997.223125
 31
0.0
  0
LINE
  5
5512
  8
2-0
  6
CONTINUOUS
 62
     3
 10
19989.11277899997
 20
14992.22879899998
 30
0.0
 11
19982.11518099999
 21
14992.22879899998
 31
0.0
  0
LINE
  5
5513
  8
2-0
  6
CONTINUOUS
 62
     3
 10
20064.997624
 20
17210.321235999982
 30
0.0
 11
20064.997624
 21
17125.324668000001
 31
0.0
  0
LINE
  5
5514
  8
2-0
  6
CONTINUOUS
 62
     3
 10
19977.11095799999
 20
17240.320839999989
 30
0.0
 11
19977.11095799999
 21
17095.319125000002
 31
0.0
  0
LINE
  5
5515
  8
2-0
  6
CONTINUOUS
 62
     3
 10
19977.11095799999
 20
17085.710542000001
 30
0.0
 11
19977.11095799999
 21
16438.418582499991
 31
0.0
  0
LINE
  5
5516
  8
2-0
  6
CONTINUOUS
 62
     3
 10
19989.11277899997
 20
15693.46980600001
 30
0.0
 11
19982.11518099999
 21
15693.46980600001
 31
0.0
  0
LINE
  5
5517
  8
2-0
  6
CONTINUOUS
 62
     3
 10
19982.11518099999
 20
15693.46980600001
 30
0.0
 11
19982.11518099999
 21
15698.47006999999
 31
0.0
  0
LINE
  5
5518
  8
2-0
  6
CONTINUOUS
 62
     3
 10
19982.11518099999
 20
15698.47006999999
 30
0.0
 11
20007.10858299999
 21
15698.47006999999
 31
0.0
  0
LINE
  5
5519
  8
2-0
  6
CONTINUOUS
 62
     3
 10
20007.10858299999
 20
15698.47006999999
 30
0.0
 11
20007.10858299999
 21
15680.462388999989
 31
0.0
  0
LINE
  5
551A
  8
2-0
  6
CONTINUOUS
 62
     3
 10
20007.10858299999
 20
15680.462388999989
 30
0.0
 11
19977.11095799999
 21
15680.462388999989
 31
0.0
  0
LINE
  5
551B
  8
2-0
  6
CONTINUOUS
 62
     3
 10
20007.10858299999
 20
15696.56082399998
 30
0.0
 11
20007.10858299999
 21
15690.56387300001
 31
0.0
  0
LINE
  5
551C
  8
2-0
  6
CONTINUOUS
 62
     3
 10
20007.10858299999
 20
15690.56387300001
 30
0.0
 11
19977.11095799999
 21
15690.56387300001
 31
0.0
  0
LINE
  5
551D
  8
2-0
  6
CONTINUOUS
 62
     3
 10
19977.11095799999
 20
15690.56387300001
 30
0.0
 11
19977.11095799999
 21
15727.563054
 31
0.0
  0
LINE
  5
551E
  8
2-0
  6
CONTINUOUS
 62
     3
 10
20007.10858299999
 20
15727.563054
 30
0.0
 11
19977.11095799999
 21
15727.563054
 31
0.0
  0
LINE
  5
551F
  8
2-0
  6
CONTINUOUS
 62
     3
 10
20007.10858299999
 20
15721.561154000001
 30
0.0
 11
20007.10858299999
 21
15727.563054
 31
0.0
  0
LINE
  5
5520
  8
2-0
  6
CONTINUOUS
 62
     3
 10
20007.10858299999
 20
15737.658599
 30
0.0
 11
19977.11095799999
 21
15737.658599
 31
0.0
  0
LINE
  5
5521
  8
2-0
  6
CONTINUOUS
 62
     3
 10
20007.10858299999
 20
15719.66279600001
 30
0.0
 11
20007.10858299999
 21
15737.658599
 31
0.0
  0
LINE
  5
5522
  8
2-0
  6
CONTINUOUS
 62
     3
 10
19982.11518099999
 20
15719.66279600001
 30
0.0
 11
20007.10858299999
 21
15719.66279600001
 31
0.0
  0
LINE
  5
5523
  8
2-0
  6
CONTINUOUS
 62
     3
 10
19982.11518099999
 20
15724.657121
 30
0.0
 11
19982.11518099999
 21
15719.66279600001
 31
0.0
  0
LINE
  5
5524
  8
2-0
  6
CONTINUOUS
 62
     3
 10
19989.11277899997
 20
15724.657121
 30
0.0
 11
19982.11518099999
 21
15724.657121
 31
0.0
  0
LINE
  5
5525
  8
2-0
  6
CONTINUOUS
 62
     3
 10
19989.11277899997
 20
16425.417104499989
 30
0.0
 11
19982.11518099999
 21
16425.417104499989
 31
0.0
  0
LINE
  5
5526
  8
2-0
  6
CONTINUOUS
 62
     3
 10
19982.11518099999
 20
16425.417104499989
 30
0.0
 11
19982.11518099999
 21
16420.410901499981
 31
0.0
  0
LINE
  5
5527
  8
2-0
  6
CONTINUOUS
 62
     3
 10
19982.11518099999
 20
16420.410901499981
 30
0.0
 11
20007.10858299999
 21
16420.410901499981
 31
0.0
  0
LINE
  5
5528
  8
2-0
  6
CONTINUOUS
 62
     3
 10
20007.10858299999
 20
16420.410901499981
 30
0.0
 11
20007.10858299999
 21
16438.418582499991
 31
0.0
  0
LINE
  5
5529
  8
2-0
  6
CONTINUOUS
 62
     3
 10
20007.10858299999
 20
16438.418582499991
 30
0.0
 11
19977.11095799999
 21
16438.418582499991
 31
0.0
  0
LINE
  5
552A
  8
2-0
  6
CONTINUOUS
 62
     3
 10
20007.10858299999
 20
16422.320147499991
 30
0.0
 11
20007.10858299999
 21
16428.323037499991
 31
0.0
  0
LINE
  5
552B
  8
2-0
  6
CONTINUOUS
 62
     3
 10
20007.10858299999
 20
16428.323037499991
 30
0.0
 11
19977.11095799999
 21
16428.323037499991
 31
0.0
  0
LINE
  5
552C
  8
2-0
  6
CONTINUOUS
 62
     3
 10
19977.11095799999
 20
16391.322866499992
 30
0.0
 11
19977.11095799999
 21
16428.323037499991
 31
0.0
  0
LINE
  5
552D
  8
2-0
  6
CONTINUOUS
 62
     3
 10
20007.10858299999
 20
16391.322866499992
 30
0.0
 11
19977.11095799999
 21
16391.322866499992
 31
0.0
  0
LINE
  5
552E
  8
2-0
  6
CONTINUOUS
 62
     3
 10
20007.10858299999
 20
16397.319817499982
 30
0.0
 11
20007.10858299999
 21
16391.322866499992
 31
0.0
  0
LINE
  5
552F
  8
2-0
  6
CONTINUOUS
 62
     3
 10
20007.10858299999
 20
16381.22237249998
 30
0.0
 11
19977.11095799999
 21
16381.22237249998
 31
0.0
  0
LINE
  5
5530
  8
2-0
  6
CONTINUOUS
 62
     3
 10
20007.10858299999
 20
16399.224114499972
 30
0.0
 11
20007.10858299999
 21
16381.22237249998
 31
0.0
  0
LINE
  5
5531
  8
2-0
  6
CONTINUOUS
 62
     3
 10
19982.11518099999
 20
16399.224114499972
 30
0.0
 11
20007.10858299999
 21
16399.224114499972
 31
0.0
  0
LINE
  5
5532
  8
2-0
  6
CONTINUOUS
 62
     3
 10
19982.11518099999
 20
16394.22385049997
 30
0.0
 11
19982.11518099999
 21
16399.224114499972
 31
0.0
  0
LINE
  5
5533
  8
2-0
  6
CONTINUOUS
 62
     3
 10
19989.11277899997
 20
16394.22385049997
 30
0.0
 11
19982.11518099999
 21
16394.22385049997
 31
0.0
  0
LINE
  5
5534
  8
2-0
  6
CONTINUOUS
 62
     3
 10
19989.11277899997
 20
17098.706081
 30
0.0
 11
19982.11518099999
 21
17098.706081
 31
0.0
  0
LINE
  5
5535
  8
2-0
  6
CONTINUOUS
 62
     3
 10
19982.11518099999
 20
17098.706081
 30
0.0
 11
19982.11518099999
 21
17103.706344999991
 31
0.0
  0
LINE
  5
5536
  8
2-0
  6
CONTINUOUS
 62
     3
 10
19982.11518099999
 20
17103.706344999991
 30
0.0
 11
20007.10858299999
 21
17103.706344999991
 31
0.0
  0
LINE
  5
5537
  8
2-0
  6
CONTINUOUS
 62
     3
 10
20007.10858299999
 20
17103.706344999991
 30
0.0
 11
20007.10858299999
 21
17085.710542000001
 31
0.0
  0
LINE
  5
5538
  8
2-0
  6
CONTINUOUS
 62
     3
 10
20007.10858299999
 20
17085.710542000001
 30
0.0
 11
19977.11095799999
 21
17085.710542000001
 31
0.0
  0
LINE
  5
5539
  8
2-0
  6
CONTINUOUS
 62
     3
 10
19979.997095999981
 20
17125.324668000001
 30
0.0
 11
19979.997095999981
 21
17145.319784999989
 31
0.0
  0
LINE
  5
553A
  8
2-0
  6
CONTINUOUS
 62
     3
 10
20064.997624
 20
17125.324668000001
 30
0.0
 11
19979.997095999981
 21
17125.324668000001
 31
0.0
  0
LINE
  5
553B
  8
2-0
  6
CONTINUOUS
 62
     3
 10
20007.10858299999
 20
17095.319125000002
 30
0.0
 11
20007.10858299999
 21
17101.321025000001
 31
0.0
  0
LINE
  5
553C
  8
2-0
  6
CONTINUOUS
 62
     3
 10
19977.11095799999
 20
17095.319125000002
 30
0.0
 11
20007.10858299999
 21
17095.319125000002
 31
0.0
  0
LINE
  5
553D
  8
2-0
  6
CONTINUOUS
 62
     3
 10
19977.11095799999
 20
17954.42402599999
 30
0.0
 11
19977.11095799999
 21
18598.227815999991
 31
0.0
  0
LINE
  5
553E
  8
2-0
  6
CONTINUOUS
 62
     3
 10
19977.11095799999
 20
17249.929424000002
 30
0.0
 11
19977.11095799999
 21
17897.23375499999
 31
0.0
  0
LINE
  5
553F
  8
2-0
  6
CONTINUOUS
 62
     3
 10
19977.11095799999
 20
17240.320839999989
 30
0.0
 11
20007.10858299999
 21
17240.320839999989
 31
0.0
  0
LINE
  5
5540
  8
2-0
  6
CONTINUOUS
 62
     3
 10
20007.10858299999
 20
17240.320839999989
 30
0.0
 11
20007.10858299999
 21
17234.31893999999
 31
0.0
  0
LINE
  5
5541
  8
2-0
  6
CONTINUOUS
 62
     3
 10
20007.10858299999
 20
17249.929424000002
 30
0.0
 11
19977.11095799999
 21
17249.929424000002
 31
0.0
  0
LINE
  5
5542
  8
2-0
  6
CONTINUOUS
 62
     3
 10
20007.10858299999
 20
17231.933619999989
 30
0.0
 11
20007.10858299999
 21
17249.929424000002
 31
0.0
  0
LINE
  5
5543
  8
2-0
  6
CONTINUOUS
 62
     3
 10
19982.11518099999
 20
17231.933619999989
 30
0.0
 11
20007.10858299999
 21
17231.933619999989
 31
0.0
  0
LINE
  5
5544
  8
2-0
  6
CONTINUOUS
 62
     3
 10
19982.11518099999
 20
17236.927945999989
 30
0.0
 11
19982.11518099999
 21
17231.933619999989
 31
0.0
  0
LINE
  5
5545
  8
2-0
  6
CONTINUOUS
 62
     3
 10
19989.11277899997
 20
17236.927945999989
 30
0.0
 11
19982.11518099999
 21
17236.927945999989
 31
0.0
  0
LINE
  5
5546
  8
2-0
  6
CONTINUOUS
 62
     3
 10
19979.997095999981
 20
17210.321235999982
 30
0.0
 11
20064.997624
 21
17210.321235999982
 31
0.0
  0
LINE
  5
5547
  8
2-0
  6
CONTINUOUS
 62
     3
 10
19979.997095999981
 20
17190.320180999981
 30
0.0
 11
19979.997095999981
 21
17210.321235999982
 31
0.0
  0
LINE
  5
5548
  8
2-0
  6
CONTINUOUS
 62
     3
 10
19989.11277899997
 20
17910.22929499999
 30
0.0
 11
19982.11518099999
 21
17910.22929499999
 31
0.0
  0
LINE
  5
5549
  8
2-0
  6
CONTINUOUS
 62
     3
 10
19982.11518099999
 20
17910.22929499999
 30
0.0
 11
19982.11518099999
 21
17915.229557999992
 31
0.0
  0
LINE
  5
554A
  8
2-0
  6
CONTINUOUS
 62
     3
 10
19982.11518099999
 20
17915.229557999992
 30
0.0
 11
20007.10858299999
 21
17915.229557999992
 31
0.0
  0
LINE
  5
554B
  8
2-0
  6
CONTINUOUS
 62
     3
 10
20007.10858299999
 20
17915.229557999992
 30
0.0
 11
20007.10858299999
 21
17897.23375499999
 31
0.0
  0
LINE
  5
554C
  8
2-0
  6
CONTINUOUS
 62
     3
 10
20007.10858299999
 20
17897.23375499999
 30
0.0
 11
19977.11095799999
 21
17897.23375499999
 31
0.0
  0
LINE
  5
554D
  8
2-0
  6
CONTINUOUS
 62
     3
 10
20007.10858299999
 20
17913.32526199998
 30
0.0
 11
20007.10858299999
 21
17907.323360999992
 31
0.0
  0
LINE
  5
554E
  8
2-0
  6
CONTINUOUS
 62
     3
 10
20007.10858299999
 20
17907.323360999992
 30
0.0
 11
19977.11095799999
 21
17907.323360999992
 31
0.0
  0
LINE
  5
554F
  8
2-0
  6
CONTINUOUS
 62
     3
 10
19977.11095799999
 20
17944.32254299998
 30
0.0
 11
19977.11095799999
 21
17907.323360999992
 31
0.0
  0
LINE
  5
5550
  8
2-0
  6
CONTINUOUS
 62
     3
 10
20007.10858299999
 20
17944.32254299998
 30
0.0
 11
19977.11095799999
 21
17944.32254299998
 31
0.0
  0
LINE
  5
5551
  8
2-0
  6
CONTINUOUS
 62
     3
 10
20007.10858299999
 20
17938.32658099999
 30
0.0
 11
20007.10858299999
 21
17944.32254299998
 31
0.0
  0
LINE
  5
5552
  8
2-0
  6
CONTINUOUS
 62
     3
 10
20007.10858299999
 20
17954.42402599999
 30
0.0
 11
19977.11095799999
 21
17954.42402599999
 31
0.0
  0
LINE
  5
5553
  8
2-0
  6
CONTINUOUS
 62
     3
 10
20007.10858299999
 20
17936.428222999992
 30
0.0
 11
20007.10858299999
 21
17954.42402599999
 31
0.0
  0
LINE
  5
5554
  8
2-0
  6
CONTINUOUS
 62
     3
 10
19982.11518099999
 20
17936.428222999992
 30
0.0
 11
20007.10858299999
 21
17936.428222999992
 31
0.0
  0
LINE
  5
5555
  8
2-0
  6
CONTINUOUS
 62
     3
 10
19982.11518099999
 20
17941.416609999978
 30
0.0
 11
19982.11518099999
 21
17936.428222999992
 31
0.0
  0
LINE
  5
5556
  8
2-0
  6
CONTINUOUS
 62
     3
 10
19989.11277899997
 20
17941.416609999978
 30
0.0
 11
19982.11518099999
 21
17941.416609999978
 31
0.0
  0
LINE
  5
5557
  8
2-0
  6
CONTINUOUS
 62
     3
 10
19989.11277899997
 20
18642.42254799998
 30
0.0
 11
19982.11518099999
 21
18642.42254799998
 31
0.0
  0
LINE
  5
5558
  8
2-0
  6
CONTINUOUS
 62
     3
 10
19982.11518099999
 20
18642.42254799998
 30
0.0
 11
19982.11518099999
 21
18637.416345999991
 31
0.0
  0
LINE
  5
5559
  8
2-0
  6
CONTINUOUS
 62
     3
 10
19982.11518099999
 20
18637.416345999991
 30
0.0
 11
20007.10858299999
 21
18637.416345999991
 31
0.0
  0
LINE
  5
555A
  8
2-0
  6
CONTINUOUS
 62
     3
 10
20007.10858299999
 20
18637.416345999991
 30
0.0
 11
20007.10858299999
 21
18655.418087999991
 31
0.0
  0
LINE
  5
555B
  8
2-0
  6
CONTINUOUS
 62
     3
 10
20007.10858299999
 20
18655.418087999991
 30
0.0
 11
19977.11095799999
 21
18655.418087999991
 31
0.0
  0
LINE
  5
555C
  8
2-0
  6
CONTINUOUS
 62
     3
 10
20007.10858299999
 20
18639.32658099999
 30
0.0
 11
20007.10858299999
 21
18645.322542999991
 31
0.0
  0
LINE
  5
555D
  8
2-0
  6
CONTINUOUS
 62
     3
 10
20007.10858299999
 20
18645.322542999991
 30
0.0
 11
19977.11095799999
 21
18645.322542999991
 31
0.0
  0
LINE
  5
555E
  8
2-0
  6
CONTINUOUS
 62
     3
 10
19977.11095799999
 20
18608.323360999981
 30
0.0
 11
19977.11095799999
 21
18645.322542999991
 31
0.0
  0
LINE
  5
555F
  8
2-0
  6
CONTINUOUS
 62
     3
 10
20007.10858299999
 20
18608.323360999981
 30
0.0
 11
19977.11095799999
 21
18608.323360999981
 31
0.0
  0
LINE
  5
5560
  8
2-0
  6
CONTINUOUS
 62
     3
 10
20007.10858299999
 20
18614.319322999982
 30
0.0
 11
20007.10858299999
 21
18608.323360999981
 31
0.0
  0
LINE
  5
5561
  8
2-0
  6
CONTINUOUS
 62
     3
 10
20007.10858299999
 20
18598.227815999991
 30
0.0
 11
19977.11095799999
 21
18598.227815999991
 31
0.0
  0
LINE
  5
5562
  8
2-0
  6
CONTINUOUS
 62
     3
 10
20007.10858299999
 20
18616.229557999981
 30
0.0
 11
20007.10858299999
 21
18598.227815999991
 31
0.0
  0
LINE
  5
5563
  8
2-0
  6
CONTINUOUS
 62
     3
 10
19982.11518099999
 20
18616.229557999981
 30
0.0
 11
20007.10858299999
 21
18616.229557999981
 31
0.0
  0
LINE
  5
5564
  8
2-0
  6
CONTINUOUS
 62
     3
 10
19982.11518099999
 20
18611.223355999991
 30
0.0
 11
19982.11518099999
 21
18616.229557999981
 31
0.0
  0
LINE
  5
5565
  8
2-0
  6
CONTINUOUS
 62
     3
 10
19989.11277899997
 20
18611.223355999991
 30
0.0
 11
19982.11518099999
 21
18611.223355999991
 31
0.0
  0
LINE
  5
5566
  8
2-0
  6
CONTINUOUS
 62
     3
 10
19989.11277899997
 20
19343.41759949995
 30
0.0
 11
19982.11518099999
 21
19343.41759949995
 31
0.0
  0
LINE
  5
5567
  8
2-0
  6
CONTINUOUS
 62
     3
 10
19982.11518099999
 20
19343.41759949995
 30
0.0
 11
19982.11518099999
 21
19338.417335499991
 31
0.0
  0
LINE
  5
5568
  8
2-0
  6
CONTINUOUS
 62
     3
 10
19982.11518099999
 20
19338.417335499991
 30
0.0
 11
20007.10858299999
 21
19338.417335499991
 31
0.0
  0
LINE
  5
5569
  8
2-0
  6
CONTINUOUS
 62
     3
 10
20007.10858299999
 20
19338.417335499991
 30
0.0
 11
20007.10858299999
 21
19356.419077499981
 31
0.0
  0
LINE
  5
556A
  8
2-0
  6
CONTINUOUS
 62
     3
 10
20007.10858299999
 20
19356.419077499981
 30
0.0
 11
19977.11095799999
 21
19356.419077499981
 31
0.0
  0
LINE
  5
556B
  8
2-0
  6
CONTINUOUS
 62
     3
 10
20007.10858299999
 20
19340.31965249998
 30
0.0
 11
20007.10858299999
 21
19346.323532499991
 31
0.0
  0
LINE
  5
556C
  8
2-0
  6
CONTINUOUS
 62
     3
 10
20007.10858299999
 20
19346.323532499991
 30
0.0
 11
19977.11095799999
 21
19346.323532499991
 31
0.0
  0
LINE
  5
556D
  8
2-0
  6
CONTINUOUS
 62
     3
 10
19977.11095799999
 20
19309.322371499991
 30
0.0
 11
19977.11095799999
 21
19346.323532499991
 31
0.0
  0
LINE
  5
556E
  8
2-0
  6
CONTINUOUS
 62
     3
 10
20007.10858299999
 20
19309.322371499991
 30
0.0
 11
19977.11095799999
 21
19309.322371499991
 31
0.0
  0
LINE
  5
556F
  8
2-0
  6
CONTINUOUS
 62
     3
 10
20007.10858299999
 20
19315.32031249996
 30
0.0
 11
20007.10858299999
 21
19309.322371499991
 31
0.0
  0
LINE
  5
5570
  8
2-0
  6
CONTINUOUS
 62
     3
 10
20007.10858299999
 20
19299.228805499981
 30
0.0
 11
19977.11095799999
 21
19299.228805499981
 31
0.0
  0
LINE
  5
5571
  8
2-0
  6
CONTINUOUS
 62
     3
 10
20007.10858299999
 20
19317.224609499979
 30
0.0
 11
20007.10858299999
 21
19299.228805499981
 31
0.0
  0
LINE
  5
5572
  8
2-0
  6
CONTINUOUS
 62
     3
 10
19982.11518099999
 20
19317.224609499979
 30
0.0
 11
20007.10858299999
 21
19317.224609499979
 31
0.0
  0
LINE
  5
5573
  8
2-0
  6
CONTINUOUS
 62
     3
 10
19982.11518099999
 20
19312.224345499981
 30
0.0
 11
19982.11518099999
 21
19317.224609499979
 31
0.0
  0
LINE
  5
5574
  8
2-0
  6
CONTINUOUS
 62
     3
 10
19989.11277899997
 20
19312.224345499981
 30
0.0
 11
19982.11518099999
 21
19312.224345499981
 31
0.0
  0
LINE
  5
5575
  8
2-0
  6
CONTINUOUS
 62
     3
 10
19989.11277899997
 20
19665.52116800001
 30
0.0
 11
19982.11518099999
 21
19665.52116800001
 31
0.0
  0
LINE
  5
5576
  8
2-0
  6
CONTINUOUS
 62
     3
 10
19982.11518099999
 20
19665.52116800001
 30
0.0
 11
19982.11518099999
 21
19670.529350000001
 31
0.0
  0
LINE
  5
5577
  8
2-0
  6
CONTINUOUS
 62
     3
 10
19982.11518099999
 20
19670.529350000001
 30
0.0
 11
20007.10858299999
 21
19670.529350000001
 31
0.0
  0
LINE
  5
5578
  8
2-0
  6
CONTINUOUS
 62
     3
 10
20007.10858299999
 20
19670.529350000001
 30
0.0
 11
20007.10858299999
 21
19652.527608
 31
0.0
  0
LINE
  5
5579
  8
2-0
  6
CONTINUOUS
 62
     3
 10
20007.10858299999
 20
19652.527608
 30
0.0
 11
19977.11095799999
 21
19652.527608
 31
0.0
  0
LINE
  5
557A
  8
2-0
  6
CONTINUOUS
 62
     3
 10
19977.11095799999
 20
19692.824668000001
 30
0.0
 11
20058.108898999992
 21
19692.824668000001
 31
0.0
  0
LINE
  5
557B
  8
2-0
  6
CONTINUOUS
 62
     3
 10
19977.11095799999
 20
19662.82506399999
 30
0.0
 11
19977.11095799999
 21
19777.821237
 31
0.0
  0
LINE
  5
557C
  8
2-0
  6
CONTINUOUS
 62
     3
 10
20007.10858299999
 20
19662.82506399999
 30
0.0
 11
19977.11095799999
 21
19662.82506399999
 31
0.0
  0
LINE
  5
557D
  8
2-0
  6
CONTINUOUS
 62
     3
 10
20007.10858299999
 20
19668.821025999991
 30
0.0
 11
20007.10858299999
 21
19662.82506399999
 31
0.0
  0
LINE
  5
557E
  8
2-0
  6
CONTINUOUS
 62
     3
 10
22501.513116999991
 20
19777.821237
 30
0.0
 11
21857.701408500001
 21
19777.821237
 31
0.0
  0
LINE
  5
557F
  8
2-0
  6
CONTINUOUS
 62
     3
 10
20455.90628900001
 20
19777.821237
 30
0.0
 11
21099.512127499991
 21
19777.821237
 31
0.0
  0
LINE
  5
5580
  8
2-0
  6
CONTINUOUS
 62
     3
 10
21156.702398500001
 20
19777.821237
 30
0.0
 11
21800.51311749997
 21
19777.821237
 31
0.0
  0
LINE
  5
5581
  8
2-0
  6
CONTINUOUS
 62
     3
 10
21844.695971500001
 20
19765.82139500001
 30
0.0
 11
21844.695971500001
 21
19772.826911
 31
0.0
  0
LINE
  5
5582
  8
2-0
  6
CONTINUOUS
 62
     3
 10
21844.695971500001
 20
19772.826911
 30
0.0
 11
21839.705605499981
 21
19772.826911
 31
0.0
  0
LINE
  5
5583
  8
2-0
  6
CONTINUOUS
 62
     3
 10
21839.705605499981
 20
19772.826911
 30
0.0
 11
21839.705605499981
 21
19747.817674000002
 31
0.0
  0
LINE
  5
5584
  8
2-0
  6
CONTINUOUS
 62
     3
 10
21839.705605499981
 20
19747.817674000002
 30
0.0
 11
21857.701408500001
 21
19747.817674000002
 31
0.0
  0
LINE
  5
5585
  8
2-0
  6
CONTINUOUS
 62
     3
 10
21857.701408500001
 20
19747.817674000002
 30
0.0
 11
21857.701408500001
 21
19777.821237
 31
0.0
  0
LINE
  5
5586
  8
2-0
  6
CONTINUOUS
 62
     3
 10
21841.601984500001
 20
19747.817674000002
 30
0.0
 11
21847.607843499991
 21
19747.817674000002
 31
0.0
  0
LINE
  5
5587
  8
2-0
  6
CONTINUOUS
 62
     3
 10
21847.607843499991
 20
19747.817674000002
 30
0.0
 11
21847.607843499991
 21
19777.821237
 31
0.0
  0
LINE
  5
5588
  8
2-0
  6
CONTINUOUS
 62
     3
 10
21847.607843499991
 20
19777.821237
 30
0.0
 11
21810.606682499991
 21
19777.821237
 31
0.0
  0
LINE
  5
5589
  8
2-0
  6
CONTINUOUS
 62
     3
 10
21810.606682499991
 20
19747.817674000002
 30
0.0
 11
21810.606682499991
 21
19777.821237
 31
0.0
  0
LINE
  5
558A
  8
2-0
  6
CONTINUOUS
 62
     3
 10
21816.604623499981
 20
19747.817674000002
 30
0.0
 11
21810.606682499991
 21
19747.817674000002
 31
0.0
  0
LINE
  5
558B
  8
2-0
  6
CONTINUOUS
 62
     3
 10
21800.51311749997
 20
19747.817674000002
 30
0.0
 11
21800.51311749997
 21
19777.821237
 31
0.0
  0
LINE
  5
558C
  8
2-0
  6
CONTINUOUS
 62
     3
 10
21818.506940499989
 20
19747.817674000002
 30
0.0
 11
21800.51311749997
 21
19747.817674000002
 31
0.0
  0
LINE
  5
558D
  8
2-0
  6
CONTINUOUS
 62
     3
 10
21818.506940499989
 20
19772.826911
 30
0.0
 11
21818.506940499989
 21
19747.817674000002
 31
0.0
  0
LINE
  5
558E
  8
2-0
  6
CONTINUOUS
 62
     3
 10
21813.50667749998
 20
19772.826911
 30
0.0
 11
21818.506940499989
 21
19772.826911
 31
0.0
  0
LINE
  5
558F
  8
2-0
  6
CONTINUOUS
 62
     3
 10
21813.50667749998
 20
19765.82139500001
 30
0.0
 11
21813.50667749998
 21
19772.826911
 31
0.0
  0
LINE
  5
5590
  8
2-0
  6
CONTINUOUS
 62
     3
 10
21112.507666499991
 20
19765.82139500001
 30
0.0
 11
21112.507666499991
 21
19772.826911
 31
0.0
  0
LINE
  5
5591
  8
2-0
  6
CONTINUOUS
 62
     3
 10
21112.507666499991
 20
19772.826911
 30
0.0
 11
21117.5079305
 21
19772.826911
 31
0.0
  0
LINE
  5
5592
  8
2-0
  6
CONTINUOUS
 62
     3
 10
21117.5079305
 20
19772.826911
 30
0.0
 11
21117.5079305
 21
19747.817674000002
 31
0.0
  0
LINE
  5
5593
  8
2-0
  6
CONTINUOUS
 62
     3
 10
21117.5079305
 20
19747.817674000002
 30
0.0
 11
21099.512127499991
 21
19747.817674000002
 31
0.0
  0
LINE
  5
5594
  8
2-0
  6
CONTINUOUS
 62
     3
 10
21099.512127499991
 20
19747.817674000002
 30
0.0
 11
21099.512127499991
 21
19777.821237
 31
0.0
  0
LINE
  5
5595
  8
2-0
  6
CONTINUOUS
 62
     3
 10
21115.601654499991
 20
19747.817674000002
 30
0.0
 11
21109.607672499991
 21
19747.817674000002
 31
0.0
  0
LINE
  5
5596
  8
2-0
  6
CONTINUOUS
 62
     3
 10
21109.607672499991
 20
19747.817674000002
 30
0.0
 11
21109.607672499991
 21
19777.821237
 31
0.0
  0
LINE
  5
5597
  8
2-0
  6
CONTINUOUS
 62
     3
 10
21109.607672499991
 20
19777.821237
 30
0.0
 11
21146.606853500001
 21
19777.821237
 31
0.0
  0
LINE
  5
5598
  8
2-0
  6
CONTINUOUS
 62
     3
 10
21146.606853500001
 20
19747.817674000002
 30
0.0
 11
21146.606853500001
 21
19777.821237
 31
0.0
  0
LINE
  5
5599
  8
2-0
  6
CONTINUOUS
 62
     3
 10
21140.604953499991
 20
19747.817674000002
 30
0.0
 11
21146.606853500001
 21
19747.817674000002
 31
0.0
  0
LINE
  5
559A
  8
2-0
  6
CONTINUOUS
 62
     3
 10
21156.702398500001
 20
19747.817674000002
 30
0.0
 11
21156.702398500001
 21
19777.821237
 31
0.0
  0
LINE
  5
559B
  8
2-0
  6
CONTINUOUS
 62
     3
 10
21138.6966975
 20
19747.817674000002
 30
0.0
 11
21156.702398500001
 21
19747.817674000002
 31
0.0
  0
LINE
  5
559C
  8
2-0
  6
CONTINUOUS
 62
     3
 10
21138.6966975
 20
19772.826911
 30
0.0
 11
21138.6966975
 21
19747.817674000002
 31
0.0
  0
LINE
  5
559D
  8
2-0
  6
CONTINUOUS
 62
     3
 10
21143.696961500002
 20
19772.826911
 30
0.0
 11
21138.6966975
 21
19772.826911
 31
0.0
  0
LINE
  5
559E
  8
2-0
  6
CONTINUOUS
 62
     3
 10
21143.696961500002
 20
19765.82139500001
 30
0.0
 11
21143.696961500002
 21
19772.826911
 31
0.0
  0
LINE
  5
559F
  8
2-0
  6
CONTINUOUS
 62
     3
 10
20086.109189999981
 20
19747.817674000002
 30
0.0
 11
20092.113068999999
 21
19747.817674000002
 31
0.0
  0
LINE
  5
55A0
  8
2-0
  6
CONTINUOUS
 62
     3
 10
20092.113068999999
 20
19747.817674000002
 30
0.0
 11
20092.113068999999
 21
19777.821237
 31
0.0
  0
LINE
  5
55A1
  8
2-0
  6
CONTINUOUS
 62
     3
 10
20092.113068999999
 20
19777.821237
 30
0.0
 11
19977.11095799999
 21
19777.821237
 31
0.0
  0
LINE
  5
55A2
  8
2-0
  6
CONTINUOUS
 62
     3
 10
20102.412504999989
 20
19747.817674000002
 30
0.0
 11
20102.412504999989
 21
19777.821237
 31
0.0
  0
LINE
  5
55A3
  8
2-0
  6
CONTINUOUS
 62
     3
 10
20084.404824000001
 20
19747.817674000002
 30
0.0
 11
20102.412504999989
 21
19747.817674000002
 31
0.0
  0
LINE
  5
55A4
  8
2-0
  6
CONTINUOUS
 62
     3
 10
20084.404824000001
 20
19772.826911
 30
0.0
 11
20084.404824000001
 21
19747.817674000002
 31
0.0
  0
LINE
  5
55A5
  8
2-0
  6
CONTINUOUS
 62
     3
 10
20089.407067999971
 20
19772.826911
 30
0.0
 11
20084.404824000001
 21
19772.826911
 31
0.0
  0
LINE
  5
55A6
  8
2-0
  6
CONTINUOUS
 62
     3
 10
20089.407067999971
 20
19765.82139500001
 30
0.0
 11
20089.407067999971
 21
19772.826911
 31
0.0
  0
LINE
  5
55A7
  8
2-0
  6
CONTINUOUS
 62
     3
 10
19989.11277899997
 20
19665.52116800001
 30
0.0
 11
19982.11518099999
 21
19665.52116800001
 31
0.0
  0
LINE
  5
55A8
  8
2-0
  6
CONTINUOUS
 62
     3
 10
19982.11518099999
 20
19665.52116800001
 30
0.0
 11
19982.11518099999
 21
19670.529350000001
 31
0.0
  0
LINE
  5
55A9
  8
2-0
  6
CONTINUOUS
 62
     3
 10
19982.11518099999
 20
19670.529350000001
 30
0.0
 11
20007.10858299999
 21
19670.529350000001
 31
0.0
  0
LINE
  5
55AA
  8
2-0
  6
CONTINUOUS
 62
     3
 10
20007.10858299999
 20
19670.529350000001
 30
0.0
 11
20007.10858299999
 21
19652.527608
 31
0.0
  0
LINE
  5
55AB
  8
2-0
  6
CONTINUOUS
 62
     3
 10
20007.10858299999
 20
19652.527608
 30
0.0
 11
19977.11095799999
 21
19652.527608
 31
0.0
  0
LINE
  5
55AC
  8
2-0
  6
CONTINUOUS
 62
     3
 10
19977.11095799999
 20
19692.824668000001
 30
0.0
 11
20058.108898999992
 21
19692.824668000001
 31
0.0
  0
LINE
  5
55AD
  8
2-0
  6
CONTINUOUS
 62
     3
 10
19977.11095799999
 20
19662.82506399999
 30
0.0
 11
19977.11095799999
 21
19777.821237
 31
0.0
  0
LINE
  5
55AE
  8
2-0
  6
CONTINUOUS
 62
     3
 10
20007.10858299999
 20
19662.82506399999
 30
0.0
 11
19977.11095799999
 21
19662.82506399999
 31
0.0
  0
LINE
  5
55AF
  8
2-0
  6
CONTINUOUS
 62
     3
 10
20007.10858299999
 20
19668.821025999991
 30
0.0
 11
20007.10858299999
 21
19662.82506399999
 31
0.0
  0
LINE
  5
55B0
  8
2-0
  6
CONTINUOUS
 62
     3
 10
22511.606682000001
 20
19747.817674000002
 30
0.0
 11
22511.606682000001
 21
19777.821237
 31
0.0
  0
LINE
  5
55B1
  8
2-0
  6
CONTINUOUS
 62
     3
 10
22517.606602999989
 20
19747.817674000002
 30
0.0
 11
22511.606682000001
 21
19747.817674000002
 31
0.0
  0
LINE
  5
55B2
  8
2-0
  6
CONTINUOUS
 62
     3
 10
22501.513116999991
 20
19747.817674000002
 30
0.0
 11
22501.513116999991
 21
19777.821237
 31
0.0
  0
LINE
  5
55B3
  8
2-0
  6
CONTINUOUS
 62
     3
 10
22519.512879999991
 20
19747.817674000002
 30
0.0
 11
22501.513116999991
 21
19747.817674000002
 31
0.0
  0
LINE
  5
55B4
  8
2-0
  6
CONTINUOUS
 62
     3
 10
22519.512879999991
 20
19772.826911
 30
0.0
 11
22519.512879999991
 21
19747.817674000002
 31
0.0
  0
LINE
  5
55B5
  8
2-0
  6
CONTINUOUS
 62
     3
 10
22514.512615999982
 20
19772.826911
 30
0.0
 11
22519.512879999991
 21
19772.826911
 31
0.0
  0
LINE
  5
55B6
  8
2-0
  6
CONTINUOUS
 62
     3
 10
22514.512615999982
 20
19765.82139500001
 30
0.0
 11
22514.512615999982
 21
19772.826911
 31
0.0
  0
LINE
  5
55B7
  8
2-0
  6
CONTINUOUS
 62
     3
 10
22545.701911
 20
19765.82139500001
 30
0.0
 11
22545.701911
 21
19772.826911
 31
0.0
  0
LINE
  5
55B8
  8
2-0
  6
CONTINUOUS
 62
     3
 10
22545.701911
 20
19772.826911
 30
0.0
 11
22540.70164699998
 21
19772.826911
 31
0.0
  0
LINE
  5
55B9
  8
2-0
  6
CONTINUOUS
 62
     3
 10
22540.70164699998
 20
19772.826911
 30
0.0
 11
22540.70164699998
 21
19747.817674000002
 31
0.0
  0
LINE
  5
55BA
  8
2-0
  6
CONTINUOUS
 62
     3
 10
22540.70164699998
 20
19747.817674000002
 30
0.0
 11
22558.705367999992
 21
19747.817674000002
 31
0.0
  0
LINE
  5
55BB
  8
2-0
  6
CONTINUOUS
 62
     3
 10
22558.705367999992
 20
19747.817674000002
 30
0.0
 11
22558.705367999992
 21
19777.821237
 31
0.0
  0
LINE
  5
55BC
  8
2-0
  6
CONTINUOUS
 62
     3
 10
22542.60792299997
 20
19747.817674000002
 30
0.0
 11
22548.607843999991
 21
19747.817674000002
 31
0.0
  0
LINE
  5
55BD
  8
2-0
  6
CONTINUOUS
 62
     3
 10
22548.607843999991
 20
19747.817674000002
 30
0.0
 11
22548.607843999991
 21
19777.821237
 31
0.0
  0
LINE
  5
55BE
  8
2-0
  6
CONTINUOUS
 62
     3
 10
22548.607843999991
 20
19777.821237
 30
0.0
 11
22511.606682000001
 21
19777.821237
 31
0.0
  0
LINE
  5
55BF
  8
2-0
  6
CONTINUOUS
 62
     6
 10
24974.34042399998
 20
18489.726444
 30
0.0
 11
24950.782172999981
 21
18537.577345999991
 31
0.0
  0
LINE
  5
55C0
  8
2-0
  6
CONTINUOUS
 62
     6
 10
24974.34042399998
 20
18489.726444
 30
0.0
 11
25106.101139999992
 21
18584.321697999982
 31
0.0
  0
LINE
  5
55C1
  8
2-0
  6
CONTINUOUS
 62
     6
 10
24950.782172999981
 20
18537.577345999991
 30
0.0
 11
25106.101139999992
 21
18584.321697999982
 31
0.0
  0
LINE
  5
55C2
  8
2-0
  6
CONTINUOUS
 62
     6
 10
25106.101139999992
 20
18584.321697999982
 30
0.0
 11
24950.782172999981
 21
18537.577345999991
 31
0.0
  0
LINE
  5
55C3
  8
2-0
  6
CONTINUOUS
 62
     6
 10
24974.34042399998
 20
18489.726444
 30
0.0
 11
25106.101139999992
 21
18584.321697999982
 31
0.0
  0
LINE
  5
55C4
  8
2-0
  6
CONTINUOUS
 62
     6
 10
24950.782172999981
 20
18537.577345999991
 30
0.0
 11
24974.34042399998
 21
18489.726444
 31
0.0
  0
LINE
  5
55C5
  8
2-0
  6
CONTINUOUS
 62
     6
 10
25106.101139999992
 20
18584.321697999982
 30
0.0
 11
24974.34042399998
 21
18489.726444
 31
0.0
  0
LINE
  5
55C6
  8
2-0
  6
CONTINUOUS
 62
     6
 10
24950.782172999981
 20
18537.577345999991
 30
0.0
 11
25106.101139999992
 21
18584.321697999982
 31
0.0
  0
LINE
  5
55C7
  8
2-0
  6
CONTINUOUS
 62
     6
 10
24892.15279199999
 20
17246.603411000011
 30
0.0
 11
24909.331053999991
 21
17297.096970999999
 31
0.0
  0
LINE
  5
55C8
  8
2-0
  6
CONTINUOUS
 62
     6
 10
24892.15279199999
 20
17246.603411000011
 30
0.0
 11
25052.214684999992
 21
17220.321341999999
 31
0.0
  0
LINE
  5
55C9
  8
2-0
  6
CONTINUOUS
 62
     6
 10
24909.331053999991
 20
17297.096970999999
 30
0.0
 11
25052.214684999992
 21
17220.321341999999
 31
0.0
  0
LINE
  5
55CA
  8
2-0
  6
CONTINUOUS
 62
     6
 10
25052.214684999992
 20
17220.321341999999
 30
0.0
 11
24909.331053999991
 21
17297.096970999999
 31
0.0
  0
LINE
  5
55CB
  8
2-0
  6
CONTINUOUS
 62
     6
 10
24892.15279199999
 20
17246.603411000011
 30
0.0
 11
25052.214684999992
 21
17220.321341999999
 31
0.0
  0
LINE
  5
55CC
  8
2-0
  6
CONTINUOUS
 62
     6
 10
24909.331053999991
 20
17297.096970999999
 30
0.0
 11
24892.15279199999
 21
17246.603411000011
 31
0.0
  0
LINE
  5
55CD
  8
2-0
  6
CONTINUOUS
 62
     6
 10
25052.214684999992
 20
17220.321341999999
 30
0.0
 11
24892.15279199999
 21
17246.603411000011
 31
0.0
  0
LINE
  5
55CE
  8
2-0
  6
CONTINUOUS
 62
     6
 10
24909.331053999991
 20
17297.096970999999
 30
0.0
 11
25052.214684999992
 21
17220.321341999999
 31
0.0
  0
LINE
  5
55CF
  8
2-0
  6
CONTINUOUS
 62
     6
 10
25068.270559999961
 20
16758.671875000011
 30
0.0
 11
25043.26726099999
 21
16805.778479000011
 31
0.0
  0
LINE
  5
55D0
  8
2-0
  6
CONTINUOUS
 62
     6
 10
25068.270559999961
 20
16758.671875000011
 30
0.0
 11
25197.105546999988
 21
16857.21231000001
 31
0.0
  0
LINE
  5
55D1
  8
2-0
  6
CONTINUOUS
 62
     6
 10
25043.26726099999
 20
16805.778479000011
 30
0.0
 11
25197.105546999988
 21
16857.21231000001
 31
0.0
  0
LINE
  5
55D2
  8
2-0
  6
CONTINUOUS
 62
     6
 10
25197.105546999988
 20
16857.21231000001
 30
0.0
 11
25043.26726099999
 21
16805.778479000011
 31
0.0
  0
LINE
  5
55D3
  8
2-0
  6
CONTINUOUS
 62
     6
 10
25068.270559999961
 20
16758.671875000011
 30
0.0
 11
25197.105546999988
 21
16857.21231000001
 31
0.0
  0
LINE
  5
55D4
  8
2-0
  6
CONTINUOUS
 62
     6
 10
25043.26726099999
 20
16805.778479000011
 30
0.0
 11
25068.270559999961
 21
16758.671875000011
 31
0.0
  0
LINE
  5
55D5
  8
2-0
  6
CONTINUOUS
 62
     6
 10
25197.105546999988
 20
16857.21231000001
 30
0.0
 11
25068.270559999961
 21
16758.671875000011
 31
0.0
  0
LINE
  5
55D6
  8
2-0
  6
CONTINUOUS
 62
     6
 10
25043.26726099999
 20
16805.778479000011
 30
0.0
 11
25197.105546999988
 21
16857.21231000001
 31
0.0
  0
LINE
  5
55D7
  8
2-0
  6
CONTINUOUS
 62
     6
 10
24960.370960999979
 20
14377.90473199999
 30
0.0
 11
24983.503615000001
 21
14425.95754599998
 31
0.0
  0
LINE
  5
55D8
  8
2-0
  6
CONTINUOUS
 62
     6
 10
24960.370960999979
 20
14377.90473199999
 30
0.0
 11
25116.103646999989
 21
14332.52921799998
 31
0.0
  0
LINE
  5
55D9
  8
2-0
  6
CONTINUOUS
 62
     6
 10
24983.503615000001
 20
14425.95754599998
 30
0.0
 11
25116.103646999989
 21
14332.52921799998
 31
0.0
  0
LINE
  5
55DA
  8
2-0
  6
CONTINUOUS
 62
     6
 10
25116.103646999989
 20
14332.52921799998
 30
0.0
 11
24983.503615000001
 21
14425.95754599998
 31
0.0
  0
LINE
  5
55DB
  8
2-0
  6
CONTINUOUS
 62
     6
 10
24960.370960999979
 20
14377.90473199999
 30
0.0
 11
25116.103646999989
 21
14332.52921799998
 31
0.0
  0
LINE
  5
55DC
  8
2-0
  6
CONTINUOUS
 62
     6
 10
24983.503615000001
 20
14425.95754599998
 30
0.0
 11
24960.370960999979
 21
14377.90473199999
 31
0.0
  0
LINE
  5
55DD
  8
2-0
  6
CONTINUOUS
 62
     6
 10
25116.103646999989
 20
14332.52921799998
 30
0.0
 11
24960.370960999979
 21
14377.90473199999
 31
0.0
  0
LINE
  5
55DE
  8
2-0
  6
CONTINUOUS
 62
     6
 10
24983.503615000001
 20
14425.95754599998
 30
0.0
 11
25116.103646999989
 21
14332.52921799998
 31
0.0
  0
LINE
  5
55DF
  8
2-0
  6
CONTINUOUS
 62
     6
 10
24958.284548999982
 20
14061.441075999979
 30
0.0
 11
24920.467825999989
 21
14099.05291899998
 31
0.0
  0
LINE
  5
55E0
  8
2-0
  6
CONTINUOUS
 62
     6
 10
24958.284548999982
 20
14061.441075999979
 30
0.0
 11
25052.214684999992
 21
14193.67984599999
 31
0.0
  0
LINE
  5
55E1
  8
2-0
  6
CONTINUOUS
 62
     6
 10
24920.467825999989
 20
14099.05291899998
 30
0.0
 11
25052.214684999992
 21
14193.67984599999
 31
0.0
  0
LINE
  5
55E2
  8
2-0
  6
CONTINUOUS
 62
     6
 10
25052.214684999992
 20
14193.67984599999
 30
0.0
 11
24920.467825999989
 21
14099.05291899998
 31
0.0
  0
LINE
  5
55E3
  8
2-0
  6
CONTINUOUS
 62
     6
 10
24958.284548999982
 20
14061.441075999979
 30
0.0
 11
25052.214684999992
 21
14193.67984599999
 31
0.0
  0
LINE
  5
55E4
  8
2-0
  6
CONTINUOUS
 62
     6
 10
24920.467825999989
 20
14099.05291899998
 30
0.0
 11
24958.284548999982
 21
14061.441075999979
 31
0.0
  0
LINE
  5
55E5
  8
2-0
  6
CONTINUOUS
 62
     6
 10
25052.214684999992
 20
14193.67984599999
 30
0.0
 11
24958.284548999982
 21
14061.441075999979
 31
0.0
  0
LINE
  5
55E6
  8
2-0
  6
CONTINUOUS
 62
     6
 10
24920.467825999989
 20
14099.05291899998
 30
0.0
 11
25052.214684999992
 21
14193.67984599999
 31
0.0
  0
LINE
  5
55E7
  8
2-0
  6
CONTINUOUS
 62
     6
 10
24974.34042399998
 20
15571.972894
 30
0.0
 11
24950.782172999981
 21
15619.817858
 31
0.0
  0
LINE
  5
55E8
  8
2-0
  6
CONTINUOUS
 62
     6
 10
24974.34042399998
 20
15571.972894
 30
0.0
 11
25106.101139999992
 21
15666.56517900001
 31
0.0
  0
LINE
  5
55E9
  8
2-0
  6
CONTINUOUS
 62
     6
 10
24950.782172999981
 20
15619.817858
 30
0.0
 11
25106.101139999992
 21
15666.56517900001
 31
0.0
  0
LINE
  5
55EA
  8
2-0
  6
CONTINUOUS
 62
     6
 10
25106.101139999992
 20
15666.56517900001
 30
0.0
 11
24950.782172999981
 21
15619.817858
 31
0.0
  0
LINE
  5
55EB
  8
2-0
  6
CONTINUOUS
 62
     6
 10
24974.34042399998
 20
15571.972894
 30
0.0
 11
25106.101139999992
 21
15666.56517900001
 31
0.0
  0
LINE
  5
55EC
  8
2-0
  6
CONTINUOUS
 62
     6
 10
24950.782172999981
 20
15619.817858
 30
0.0
 11
24974.34042399998
 21
15571.972894
 31
0.0
  0
LINE
  5
55ED
  8
2-0
  6
CONTINUOUS
 62
     6
 10
25106.101139999992
 20
15666.56517900001
 30
0.0
 11
24974.34042399998
 21
15571.972894
 31
0.0
  0
LINE
  5
55EE
  8
2-0
  6
CONTINUOUS
 62
     6
 10
24950.782172999981
 20
15619.817858
 30
0.0
 11
25106.101139999992
 21
15666.56517900001
 31
0.0
  0
LINE
  5
55EF
  8
2-0
  6
CONTINUOUS
 62
     4
 10
23288.107263000002
 20
19857.82348000001
 30
0.0
 11
23288.107263000002
 21
20587.820445000001
 31
0.0
  0
LINE
  5
55F0
  8
2-0
  6
CONTINUOUS
 62
     6
 10
23246.691774999999
 20
19659.069917000001
 30
0.0
 11
23229.068121000011
 21
19497.824272000002
 31
0.0
  0
LINE
  5
55F1
  8
2-0
  6
CONTINUOUS
 62
     6
 10
23177.717429999979
 20
19512.258922000001
 30
0.0
 11
23246.691774999999
 21
19659.069917000001
 31
0.0
  0
LINE
  5
55F2
  8
2-0
  6
CONTINUOUS
 62
     6
 10
23229.068121000011
 20
19497.824272000002
 30
0.0
 11
23246.691774999999
 21
19659.069917000001
 31
0.0
  0
LINE
  5
55F3
  8
2-0
  6
CONTINUOUS
 62
     6
 10
23177.717429999979
 20
19512.258922000001
 30
0.0
 11
23246.691774999999
 21
19659.069917000001
 31
0.0
  0
LINE
  5
55F4
  8
2-0
  6
CONTINUOUS
 62
     6
 10
23246.691774999999
 20
19659.069917000001
 30
0.0
 11
23177.717429999979
 21
19512.258922000001
 31
0.0
  0
LINE
  5
55F5
  8
2-0
  6
CONTINUOUS
 62
     6
 10
23229.068121000011
 20
19497.824272000002
 30
0.0
 11
23246.691774999999
 21
19659.069917000001
 31
0.0
  0
LINE
  5
55F6
  8
2-0
  6
CONTINUOUS
 62
     6
 10
23177.717429999979
 20
19512.258922000001
 30
0.0
 11
23229.068121000011
 21
19497.824272000002
 31
0.0
  0
LINE
  5
55F7
  8
2-0
  6
CONTINUOUS
 62
     6
 10
23229.068121000011
 20
19497.824272000002
 30
0.0
 11
23177.717429999979
 21
19512.258922000001
 31
0.0
  0
LINE
  5
55F8
  8
2-0
  6
CONTINUOUS
 62
     6
 10
23097.822080000002
 20
19129.447741
 30
0.0
 11
22072.777870999991
 21
19129.447741
 31
0.0
  0
LINE
  5
55F9
  8
2-0
  6
CONTINUOUS
 62
     6
 10
23246.691774999999
 20
19659.069917000001
 30
0.0
 11
23097.822080000002
 21
19129.447741
 31
0.0
  0
LINE
  5
55FA
  8
2-0
  6
CONTINUOUS
 62
     6
 10
21771.84396100001
 20
19522.83153000001
 30
0.0
 11
21720.499208000001
 21
19537.270139
 31
0.0
  0
LINE
  5
55FB
  8
2-0
  6
CONTINUOUS
 62
     6
 10
21771.84396100001
 20
19522.83153000001
 30
0.0
 11
21789.465634999971
 21
19684.077174999991
 31
0.0
  0
LINE
  5
55FC
  8
2-0
  6
CONTINUOUS
 62
     6
 10
21720.499208000001
 20
19537.270139
 30
0.0
 11
21789.465634999971
 21
19684.077174999991
 31
0.0
  0
LINE
  5
55FD
  8
2-0
  6
CONTINUOUS
 62
     6
 10
21789.465634999971
 20
19684.077174999991
 30
0.0
 11
21720.499208000001
 21
19537.270139
 31
0.0
  0
LINE
  5
55FE
  8
2-0
  6
CONTINUOUS
 62
     6
 10
21771.84396100001
 20
19522.83153000001
 30
0.0
 11
21789.465634999971
 21
19684.077174999991
 31
0.0
  0
LINE
  5
55FF
  8
2-0
  6
CONTINUOUS
 62
     6
 10
21720.499208000001
 20
19537.270139
 30
0.0
 11
21771.84396100001
 21
19522.83153000001
 31
0.0
  0
LINE
  5
5600
  8
2-0
  6
CONTINUOUS
 62
     6
 10
21789.465634999971
 20
19684.077174999991
 30
0.0
 11
21771.84396100001
 21
19522.83153000001
 31
0.0
  0
LINE
  5
5601
  8
2-0
  6
CONTINUOUS
 62
     6
 10
21614.238650999981
 20
19060.703020000001
 30
0.0
 11
20589.200379999998
 21
19060.703020000001
 31
0.0
  0
LINE
  5
5602
  8
2-0
  6
CONTINUOUS
 62
     6
 10
21746.171584
 20
19530.048855000001
 30
0.0
 11
21614.238650999981
 21
19060.703020000001
 31
0.0
  0
LINE
  5
5603
  8
2-0
  6
CONTINUOUS
 62
     6
 10
25329.515544999991
 20
19938.554187000009
 30
0.0
 11
25368.763459999991
 21
19902.43985000001
 31
0.0
  0
LINE
  5
5604
  8
2-0
  6
CONTINUOUS
 62
     6
 10
25329.515544999991
 20
19938.554187000009
 30
0.0
 11
25240.801439999999
 21
19802.757232
 31
0.0
  0
LINE
  5
5605
  8
2-0
  6
CONTINUOUS
 62
     6
 10
25368.763459999991
 20
19902.43985000001
 30
0.0
 11
25240.801439999999
 21
19802.757232
 31
0.0
  0
LINE
  5
5606
  8
2-0
  6
CONTINUOUS
 62
     6
 10
25240.801439999999
 20
19802.757232
 30
0.0
 11
25368.763459999991
 21
19902.43985000001
 31
0.0
  0
LINE
  5
5607
  8
2-0
  6
CONTINUOUS
 62
     6
 10
25329.515544999991
 20
19938.554187000009
 30
0.0
 11
25240.801439999999
 21
19802.757232
 31
0.0
  0
LINE
  5
5608
  8
2-0
  6
CONTINUOUS
 62
     6
 10
25368.763459999991
 20
19902.43985000001
 30
0.0
 11
25329.515544999991
 21
19938.554187000009
 31
0.0
  0
LINE
  5
5609
  8
2-0
  6
CONTINUOUS
 62
     6
 10
25240.801439999999
 20
19802.757232
 30
0.0
 11
25329.515544999991
 21
19938.554187000009
 31
0.0
  0
LINE
  5
560A
  8
2-0
  6
CONTINUOUS
 62
     6
 10
25368.763459999991
 20
19902.43985000001
 30
0.0
 11
25240.801439999999
 21
19802.757232
 31
0.0
  0
LINE
  5
560B
  8
2-0
  6
CONTINUOUS
 62
     6
 10
25040.62658299999
 20
19197.669605499981
 30
0.0
 11
25014.520691999991
 21
19244.182353499989
 31
0.0
  0
LINE
  5
560C
  8
2-0
  6
CONTINUOUS
 62
     6
 10
25040.62658299999
 20
19197.669605499981
 30
0.0
 11
25167.107922999989
 21
19299.228805499992
 31
0.0
  0
LINE
  5
560D
  8
2-0
  6
CONTINUOUS
 62
     6
 10
25014.520691999991
 20
19244.182353499989
 30
0.0
 11
25167.107922999989
 21
19299.228805499992
 31
0.0
  0
LINE
  5
560E
  8
2-0
  6
CONTINUOUS
 62
     6
 10
25167.107922999989
 20
19299.228805499992
 30
0.0
 11
25014.520691999991
 21
19244.182353499989
 31
0.0
  0
LINE
  5
560F
  8
2-0
  6
CONTINUOUS
 62
     6
 10
25040.62658299999
 20
19197.669605499981
 30
0.0
 11
25167.107922999989
 21
19299.228805499992
 31
0.0
  0
LINE
  5
5610
  8
2-0
  6
CONTINUOUS
 62
     6
 10
25014.520691999991
 20
19244.182353499989
 30
0.0
 11
25040.62658299999
 21
19197.669605499981
 31
0.0
  0
LINE
  5
5611
  8
2-0
  6
CONTINUOUS
 62
     6
 10
25167.107922999989
 20
19299.228805499992
 30
0.0
 11
25040.62658299999
 21
19197.669605499981
 31
0.0
  0
LINE
  5
5612
  8
2-0
  6
CONTINUOUS
 62
     6
 10
25014.520691999991
 20
19244.182353499989
 30
0.0
 11
25167.107922999989
 21
19299.228805499992
 31
0.0
  0
LINE
  5
5613
  8
2-0
  6
CONTINUOUS
 62
     6
 10
23139.748284000048
 20
14415.22954499998
 30
0.0
 11
23185.328679000009
 21
14442.91707099998
 31
0.0
  0
LINE
  5
5614
  8
2-0
  6
CONTINUOUS
 62
     6
 10
23139.748284000048
 20
14415.22954499998
 30
0.0
 11
23245.606999000011
 21
14292.321235999991
 31
0.0
  0
LINE
  5
5615
  8
2-0
  6
CONTINUOUS
 62
     6
 10
23185.328679000009
 20
14442.91707099998
 30
0.0
 11
23245.606999000011
 21
14292.321235999991
 31
0.0
  0
LINE
  5
5616
  8
2-0
  6
CONTINUOUS
 62
     6
 10
23245.606999000011
 20
14292.321235999991
 30
0.0
 11
23185.328679000009
 21
14442.91707099998
 31
0.0
  0
LINE
  5
5617
  8
2-0
  6
CONTINUOUS
 62
     6
 10
23139.748284000048
 20
14415.22954499998
 30
0.0
 11
23245.606999000011
 21
14292.321235999991
 31
0.0
  0
LINE
  5
5618
  8
2-0
  6
CONTINUOUS
 62
     6
 10
23185.328679000009
 20
14442.91707099998
 30
0.0
 11
23139.748284000048
 21
14415.22954499998
 31
0.0
  0
LINE
  5
5619
  8
2-0
  6
CONTINUOUS
 62
     6
 10
23245.606999000011
 20
14292.321235999991
 30
0.0
 11
23139.748284000048
 21
14415.22954499998
 31
0.0
  0
LINE
  5
561A
  8
2-0
  6
CONTINUOUS
 62
     6
 10
23185.328679000009
 20
14442.91707099998
 30
0.0
 11
23245.606999000011
 21
14292.321235999991
 31
0.0
  0
LINE
  5
561B
  8
2-0
  6
CONTINUOUS
 62
     3
 10
25106.101139999992
 20
15751.321235999971
 30
0.0
 11
25106.101139999992
 21
15666.32466799999
 31
0.0
  0
LINE
  5
561C
  8
2-0
  6
CONTINUOUS
 62
     3
 10
25153.106787999961
 20
15726.319917000001
 30
0.0
 11
25153.106787999961
 21
15751.321235999971
 31
0.0
  0
LINE
  5
561D
  8
2-0
  6
CONTINUOUS
 62
     3
 10
25153.106787999961
 20
15666.32466799999
 30
0.0
 11
25153.106787999961
 21
15691.320049
 31
0.0
  0
LINE
  5
561E
  8
2-0
  6
CONTINUOUS
 62
     3
 10
25153.106787999961
 20
15751.321235999971
 30
0.0
 11
25106.101139999992
 21
15751.321235999971
 31
0.0
  0
LINE
  5
561F
  8
2-0
  6
CONTINUOUS
 62
     3
 10
25106.101139999992
 20
15666.32466799999
 30
0.0
 11
25153.106787999961
 21
15666.32466799999
 31
0.0
  0
LINE
  5
5620
  8
2-0
  6
CONTINUOUS
 62
     3
 10
25197.105546999988
 20
16381.22237249998
 30
0.0
 11
25197.105546999988
 21
15737.658599
 31
0.0
  0
LINE
  5
5621
  8
2-0
  6
CONTINUOUS
 62
     3
 10
25106.101139999992
 20
18669.322226
 30
0.0
 11
25106.101139999992
 21
18584.321697999982
 31
0.0
  0
LINE
  5
5622
  8
2-0
  6
CONTINUOUS
 62
     3
 10
25153.106787999961
 20
18644.320906000001
 30
0.0
 11
25153.106787999961
 21
18669.322226
 31
0.0
  0
LINE
  5
5623
  8
2-0
  6
CONTINUOUS
 62
     3
 10
25153.106787999961
 20
18584.321697999982
 30
0.0
 11
25153.106787999961
 21
18609.324997
 31
0.0
  0
LINE
  5
5624
  8
2-0
  6
CONTINUOUS
 62
     3
 10
25153.106787999961
 20
18669.322226
 30
0.0
 11
25106.101139999992
 21
18669.322226
 31
0.0
  0
LINE
  5
5625
  8
2-0
  6
CONTINUOUS
 62
     3
 10
25106.101139999992
 20
18584.321697999982
 30
0.0
 11
25153.106787999961
 21
18584.321697999982
 31
0.0
  0
LINE
  5
5626
  8
2-0
  6
CONTINUOUS
 62
     6
 10
22969.016786000011
 20
14747.66593599999
 30
0.0
 11
21938.667467000021
 21
14747.66593599999
 31
0.0
  0
LINE
  5
5627
  8
2-0
  6
CONTINUOUS
 62
     6
 10
23245.606999000011
 20
14292.321235999991
 30
0.0
 11
22969.016786000011
 21
14747.66593599999
 31
0.0
  0
LINE
  5
5628
  8
2-0
  6
CONTINUOUS
 62
     6
 10
25349.146430999961
 20
19920.500977
 30
0.0
 11
25889.610429999972
 21
20507.824140000019
 31
0.0
  0
LINE
  5
5629
  8
2-0
  6
CONTINUOUS
 62
     6
 10
25027.577596999981
 20
19220.923009499991
 30
0.0
 11
24596.046504999991
 21
18978.768501499981
 31
0.0
  0
LINE
  5
562A
  8
2-0
  6
CONTINUOUS
 62
     3
 10
23360.609111000002
 20
19777.821237
 30
0.0
 11
23215.617292999988
 21
19777.821237
 31
0.0
  0
LINE
  5
562B
  8
2-0
  6
CONTINUOUS
 62
     3
 10
23330.607527
 20
19689.930612
 30
0.0
 11
23245.614916999992
 21
19689.930612
 31
0.0
  0
LINE
  5
562C
  8
2-0
  6
CONTINUOUS
 62
     3
 10
23215.617292999988
 20
19777.821237
 30
0.0
 11
23215.617292999988
 21
19747.817674000002
 31
0.0
  0
LINE
  5
562D
  8
2-0
  6
CONTINUOUS
 62
     3
 10
23215.617292999988
 20
19747.817674000002
 30
0.0
 11
23221.613254
 21
19747.817674000002
 31
0.0
  0
LINE
  5
562E
  8
2-0
  6
CONTINUOUS
 62
     3
 10
23245.614916999992
 20
19689.930612
 30
0.0
 11
23245.614916999992
 21
19774.92916
 31
0.0
  0
LINE
  5
562F
  8
2-0
  6
CONTINUOUS
 62
     3
 10
23245.614916999992
 20
19774.92916
 30
0.0
 11
23265.610034000001
 21
19774.92916
 31
0.0
  0
LINE
  5
5630
  8
2-0
  6
CONTINUOUS
 62
     3
 10
23205.994853
 20
19747.817674000002
 30
0.0
 11
23205.994853
 21
19777.821237
 31
0.0
  0
LINE
  5
5631
  8
2-0
  6
CONTINUOUS
 62
     3
 10
23223.996594999979
 20
19747.817674000002
 30
0.0
 11
23205.994853
 21
19747.817674000002
 31
0.0
  0
LINE
  5
5632
  8
2-0
  6
CONTINUOUS
 62
     3
 10
23223.996594999979
 20
19772.826911
 30
0.0
 11
23223.996594999979
 21
19747.817674000002
 31
0.0
  0
LINE
  5
5633
  8
2-0
  6
CONTINUOUS
 62
     3
 10
23218.996330999998
 20
19772.826911
 30
0.0
 11
23223.996594999979
 21
19772.826911
 31
0.0
  0
LINE
  5
5634
  8
2-0
  6
CONTINUOUS
 62
     3
 10
23218.996330999998
 20
19765.82139500001
 30
0.0
 11
23218.996330999998
 21
19772.826911
 31
0.0
  0
LINE
  5
5635
  8
2-0
  6
CONTINUOUS
 62
     3
 10
23310.610430000001
 20
19774.92916
 30
0.0
 11
23330.607527
 21
19774.92916
 31
0.0
  0
LINE
  5
5636
  8
2-0
  6
CONTINUOUS
 62
     3
 10
23330.607527
 20
19774.92916
 30
0.0
 11
23330.607527
 21
19689.930612
 31
0.0
  0
LINE
  5
5637
  8
2-0
  6
CONTINUOUS
 62
     3
 10
23357.224134
 20
19765.82139500001
 30
0.0
 11
23357.224134
 21
19772.826911
 31
0.0
  0
LINE
  5
5638
  8
2-0
  6
CONTINUOUS
 62
     3
 10
23357.224134
 20
19772.826911
 30
0.0
 11
23352.223869999991
 21
19772.826911
 31
0.0
  0
LINE
  5
5639
  8
2-0
  6
CONTINUOUS
 62
     3
 10
23352.223869999991
 20
19772.826911
 30
0.0
 11
23352.223869999991
 21
19747.817674000002
 31
0.0
  0
LINE
  5
563A
  8
2-0
  6
CONTINUOUS
 62
     3
 10
23352.223869999991
 20
19747.817674000002
 30
0.0
 11
23370.225611999998
 21
19747.817674000002
 31
0.0
  0
LINE
  5
563B
  8
2-0
  6
CONTINUOUS
 62
     3
 10
23370.225611999998
 20
19747.817674000002
 30
0.0
 11
23370.225611999998
 21
19777.821237
 31
0.0
  0
LINE
  5
563C
  8
2-0
  6
CONTINUOUS
 62
     3
 10
23360.609111000002
 20
19747.817674000002
 30
0.0
 11
23354.611168999989
 21
19747.817674000002
 31
0.0
  0
LINE
  5
563D
  8
2-0
  6
CONTINUOUS
 62
     3
 10
23360.609111000002
 20
19777.821237
 30
0.0
 11
23360.609111000002
 21
19747.817674000002
 31
0.0
  0
LINE
  5
563E
  8
2-0
  6
CONTINUOUS
 62
     6
 10
25889.610429999972
 20
20507.824140000019
 30
0.0
 11
27089.604491999969
 21
20507.824140000019
 31
0.0
  0
LINE
  5
563F
  8
2-0
  6
CONTINUOUS
 62
     3
 10
25197.105546999988
 20
18655.418087999991
 30
0.0
 11
25197.105546999988
 21
19299.228805499992
 31
0.0
  0
LINE
  5
5640
  8
2-0
  6
CENTER2
 62
     6
 10
25154.607263000002
 20
14009.82809899998
 30
0.0
 11
25154.607263000002
 21
15165.69685700001
 31
0.0
  0
LINE
  5
5641
  8
2-0
  6
CONTINUOUS
 62
     3
 10
25167.107922999989
 20
14332.360958999991
 30
0.0
 11
25197.105546999988
 21
14332.360958999991
 31
0.0
  0
LINE
  5
5642
  8
2-0
  6
CONTINUOUS
 62
     3
 10
25167.107922999989
 20
14314.36218599996
 30
0.0
 11
25167.107922999989
 21
14332.360958999991
 31
0.0
  0
LINE
  5
5643
  8
2-0
  6
CONTINUOUS
 62
     3
 10
25192.105283000001
 20
14314.36218599996
 30
0.0
 11
25167.107922999989
 21
14314.36218599996
 31
0.0
  0
LINE
  5
5644
  8
2-0
  6
CONTINUOUS
 62
     3
 10
25192.105283000001
 20
14319.35948099999
 30
0.0
 11
25192.105283000001
 21
14314.36218599996
 31
0.0
  0
LINE
  5
5645
  8
2-0
  6
CONTINUOUS
 62
     3
 10
25185.103726000001
 20
14319.35948099999
 30
0.0
 11
25192.105283000001
 21
14319.35948099999
 31
0.0
  0
LINE
  5
5646
  8
2-0
  6
CONTINUOUS
 62
     3
 10
25112.106998999989
 20
14292.321235999991
 30
0.0
 11
25144.10591699999
 21
14292.321235999991
 31
0.0
  0
LINE
  5
5647
  8
2-0
  6
CONTINUOUS
 62
     3
 10
25112.106998999989
 20
14207.32565699999
 30
0.0
 11
25112.106998999989
 21
14292.321235999991
 31
0.0
  0
LINE
  5
5648
  8
2-0
  6
CONTINUOUS
 62
     3
 10
25197.105546999988
 20
14207.32565699999
 30
0.0
 11
25112.106998999989
 21
14207.32565699999
 31
0.0
  0
LINE
  5
5649
  8
2-0
  6
CONTINUOUS
 62
     3
 10
25197.105546999988
 20
14322.32974799998
 30
0.0
 11
25197.105546999988
 21
14207.32565699999
 31
0.0
  0
LINE
  5
564A
  8
2-0
  6
CONTINUOUS
 62
     3
 10
25167.107922999989
 20
14322.32974799998
 30
0.0
 11
25197.105546999988
 21
14322.32974799998
 31
0.0
  0
LINE
  5
564B
  8
2-0
  6
CONTINUOUS
 62
     3
 10
25167.107922999989
 20
14316.324878999991
 30
0.0
 11
25167.107922999989
 21
14322.32974799998
 31
0.0
  0
LINE
  5
564C
  8
2-0
  6
CONTINUOUS
 62
     3
 10
25185.103726000001
 20
15023.422053
 30
0.0
 11
25192.105283000001
 21
15023.422053
 31
0.0
  0
LINE
  5
564D
  8
2-0
  6
CONTINUOUS
 62
     3
 10
25192.105283000001
 20
15023.422053
 30
0.0
 11
25192.105283000001
 21
15018.416839999991
 31
0.0
  0
LINE
  5
564E
  8
2-0
  6
CONTINUOUS
 62
     3
 10
25192.105283000001
 20
15018.416839999991
 30
0.0
 11
25167.107922999989
 21
15018.416839999991
 31
0.0
  0
LINE
  5
564F
  8
2-0
  6
CONTINUOUS
 62
     3
 10
25167.107922999989
 20
15018.416839999991
 30
0.0
 11
25167.107922999989
 21
15036.423531
 31
0.0
  0
LINE
  5
5650
  8
2-0
  6
CONTINUOUS
 62
     3
 10
25167.107922999989
 20
15036.423531
 30
0.0
 11
25197.105546999988
 21
15036.423531
 31
0.0
  0
LINE
  5
5651
  8
2-0
  6
CONTINUOUS
 62
     3
 10
25167.107922999989
 20
15020.326085999979
 30
0.0
 11
25167.107922999989
 21
15026.32303799997
 31
0.0
  0
LINE
  5
5652
  8
2-0
  6
CONTINUOUS
 62
     3
 10
25167.107922999989
 20
15026.32303799997
 30
0.0
 11
25197.105546999988
 21
15026.32303799997
 31
0.0
  0
LINE
  5
5653
  8
2-0
  6
CONTINUOUS
 62
     3
 10
25197.105546999988
 20
14989.322866
 30
0.0
 11
25197.105546999988
 21
15026.32303799997
 31
0.0
  0
LINE
  5
5654
  8
2-0
  6
CONTINUOUS
 62
     3
 10
25167.107922999989
 20
14989.322866
 30
0.0
 11
25197.105546999988
 21
14989.322866
 31
0.0
  0
LINE
  5
5655
  8
2-0
  6
CONTINUOUS
 62
     3
 10
25167.107922999989
 20
14995.325756
 30
0.0
 11
25167.107922999989
 21
14989.322866
 31
0.0
  0
LINE
  5
5656
  8
2-0
  6
CONTINUOUS
 62
     3
 10
25167.107922999989
 20
14979.22732099998
 30
0.0
 11
25197.105546999988
 21
14979.22732099998
 31
0.0
  0
LINE
  5
5657
  8
2-0
  6
CONTINUOUS
 62
     3
 10
25167.107922999989
 20
14997.22312499998
 30
0.0
 11
25167.107922999989
 21
14979.22732099998
 31
0.0
  0
LINE
  5
5658
  8
2-0
  6
CONTINUOUS
 62
     3
 10
25192.105283000001
 20
14997.22312499998
 30
0.0
 11
25167.107922999989
 21
14997.22312499998
 31
0.0
  0
LINE
  5
5659
  8
2-0
  6
CONTINUOUS
 62
     3
 10
25192.105283000001
 20
14992.22879899998
 30
0.0
 11
25192.105283000001
 21
14997.22312499998
 31
0.0
  0
LINE
  5
565A
  8
2-0
  6
CONTINUOUS
 62
     3
 10
25185.103726000001
 20
14992.22879899998
 30
0.0
 11
25192.105283000001
 21
14992.22879899998
 31
0.0
  0
LINE
  5
565B
  8
2-0
  6
CONTINUOUS
 62
     6
 10
23571.014172999989
 20
18978.768501499981
 30
0.0
 11
24596.046504999991
 21
18978.768501499981
 31
0.0
  0
LINE
  5
565C
  8
2-0
  6
CONTINUOUS
 62
     3
 10
25109.222839999991
 20
17210.321235999982
 30
0.0
 11
25109.222839999991
 21
17125.324668000001
 31
0.0
  0
LINE
  5
565D
  8
2-0
  6
CONTINUOUS
 62
     3
 10
25197.105546999988
 20
17240.320839999989
 30
0.0
 11
25197.105546999988
 21
17095.319125000002
 31
0.0
  0
LINE
  5
565E
  8
2-0
  6
CONTINUOUS
 62
     3
 10
25197.105546999988
 20
17085.710542000001
 30
0.0
 11
25197.105546999988
 21
16438.418582499991
 31
0.0
  0
LINE
  5
565F
  8
2-0
  6
CONTINUOUS
 62
     3
 10
25185.103726000001
 20
15693.46980600001
 30
0.0
 11
25192.105283000001
 21
15693.46980600001
 31
0.0
  0
LINE
  5
5660
  8
2-0
  6
CONTINUOUS
 62
     3
 10
25192.105283000001
 20
15693.46980600001
 30
0.0
 11
25192.105283000001
 21
15698.47006999999
 31
0.0
  0
LINE
  5
5661
  8
2-0
  6
CONTINUOUS
 62
     3
 10
25192.105283000001
 20
15698.47006999999
 30
0.0
 11
25167.107922999989
 21
15698.47006999999
 31
0.0
  0
LINE
  5
5662
  8
2-0
  6
CONTINUOUS
 62
     3
 10
25167.107922999989
 20
15698.47006999999
 30
0.0
 11
25167.107922999989
 21
15680.462388999989
 31
0.0
  0
LINE
  5
5663
  8
2-0
  6
CONTINUOUS
 62
     3
 10
25167.107922999989
 20
15680.462388999989
 30
0.0
 11
25197.105546999988
 21
15680.462388999989
 31
0.0
  0
LINE
  5
5664
  8
2-0
  6
CONTINUOUS
 62
     3
 10
25167.107922999989
 20
15696.56082399998
 30
0.0
 11
25167.107922999989
 21
15690.56387300001
 31
0.0
  0
LINE
  5
5665
  8
2-0
  6
CONTINUOUS
 62
     3
 10
25167.107922999989
 20
15690.56387300001
 30
0.0
 11
25197.105546999988
 21
15690.56387300001
 31
0.0
  0
LINE
  5
5666
  8
2-0
  6
CONTINUOUS
 62
     3
 10
25197.105546999988
 20
15690.56387300001
 30
0.0
 11
25197.105546999988
 21
15727.563054
 31
0.0
  0
LINE
  5
5667
  8
2-0
  6
CONTINUOUS
 62
     3
 10
25167.107922999989
 20
15727.563054
 30
0.0
 11
25197.105546999988
 21
15727.563054
 31
0.0
  0
LINE
  5
5668
  8
2-0
  6
CONTINUOUS
 62
     3
 10
25167.107922999989
 20
15721.561154000001
 30
0.0
 11
25167.107922999989
 21
15727.563054
 31
0.0
  0
LINE
  5
5669
  8
2-0
  6
CONTINUOUS
 62
     3
 10
25167.107922999989
 20
15737.658599
 30
0.0
 11
25197.105546999988
 21
15737.658599
 31
0.0
  0
LINE
  5
566A
  8
2-0
  6
CONTINUOUS
 62
     3
 10
25167.107922999989
 20
15719.66279600001
 30
0.0
 11
25167.107922999989
 21
15737.658599
 31
0.0
  0
LINE
  5
566B
  8
2-0
  6
CONTINUOUS
 62
     3
 10
25192.105283000001
 20
15719.66279600001
 30
0.0
 11
25167.107922999989
 21
15719.66279600001
 31
0.0
  0
LINE
  5
566C
  8
2-0
  6
CONTINUOUS
 62
     3
 10
25192.105283000001
 20
15724.657121
 30
0.0
 11
25192.105283000001
 21
15719.66279600001
 31
0.0
  0
LINE
  5
566D
  8
2-0
  6
CONTINUOUS
 62
     3
 10
25185.103726000001
 20
15724.657121
 30
0.0
 11
25192.105283000001
 21
15724.657121
 31
0.0
  0
LINE
  5
566E
  8
2-0
  6
CONTINUOUS
 62
     3
 10
25185.103726000001
 20
16425.417104499989
 30
0.0
 11
25192.105283000001
 21
16425.417104499989
 31
0.0
  0
LINE
  5
566F
  8
2-0
  6
CONTINUOUS
 62
     3
 10
25192.105283000001
 20
16425.417104499989
 30
0.0
 11
25192.105283000001
 21
16420.410901499981
 31
0.0
  0
LINE
  5
5670
  8
2-0
  6
CONTINUOUS
 62
     3
 10
25192.105283000001
 20
16420.410901499981
 30
0.0
 11
25167.107922999989
 21
16420.410901499981
 31
0.0
  0
LINE
  5
5671
  8
2-0
  6
CONTINUOUS
 62
     3
 10
25167.107922999989
 20
16420.410901499981
 30
0.0
 11
25167.107922999989
 21
16438.418582499991
 31
0.0
  0
LINE
  5
5672
  8
2-0
  6
CONTINUOUS
 62
     3
 10
25167.107922999989
 20
16438.418582499991
 30
0.0
 11
25197.105546999988
 21
16438.418582499991
 31
0.0
  0
LINE
  5
5673
  8
2-0
  6
CONTINUOUS
 62
     3
 10
25167.107922999989
 20
16422.320147499991
 30
0.0
 11
25167.107922999989
 21
16428.323037499991
 31
0.0
  0
LINE
  5
5674
  8
2-0
  6
CONTINUOUS
 62
     3
 10
25167.107922999989
 20
16428.323037499991
 30
0.0
 11
25197.105546999988
 21
16428.323037499991
 31
0.0
  0
LINE
  5
5675
  8
2-0
  6
CONTINUOUS
 62
     3
 10
25197.105546999988
 20
16391.322866499992
 30
0.0
 11
25197.105546999988
 21
16428.323037499991
 31
0.0
  0
LINE
  5
5676
  8
2-0
  6
CONTINUOUS
 62
     3
 10
25167.107922999989
 20
16391.322866499992
 30
0.0
 11
25197.105546999988
 21
16391.322866499992
 31
0.0
  0
LINE
  5
5677
  8
2-0
  6
CONTINUOUS
 62
     3
 10
25167.107922999989
 20
16397.319817499982
 30
0.0
 11
25167.107922999989
 21
16391.322866499992
 31
0.0
  0
LINE
  5
5678
  8
2-0
  6
CONTINUOUS
 62
     3
 10
25167.107922999989
 20
16381.22237249998
 30
0.0
 11
25197.105546999988
 21
16381.22237249998
 31
0.0
  0
LINE
  5
5679
  8
2-0
  6
CONTINUOUS
 62
     3
 10
25167.107922999989
 20
16399.224114499972
 30
0.0
 11
25167.107922999989
 21
16381.22237249998
 31
0.0
  0
LINE
  5
567A
  8
2-0
  6
CONTINUOUS
 62
     3
 10
25192.105283000001
 20
16399.224114499972
 30
0.0
 11
25167.107922999989
 21
16399.224114499972
 31
0.0
  0
LINE
  5
567B
  8
2-0
  6
CONTINUOUS
 62
     3
 10
25192.105283000001
 20
16394.22385049997
 30
0.0
 11
25192.105283000001
 21
16399.224114499972
 31
0.0
  0
LINE
  5
567C
  8
2-0
  6
CONTINUOUS
 62
     3
 10
25185.103726000001
 20
16394.22385049997
 30
0.0
 11
25192.105283000001
 21
16394.22385049997
 31
0.0
  0
LINE
  5
567D
  8
2-0
  6
CONTINUOUS
 62
     3
 10
25185.103726000001
 20
17098.706081
 30
0.0
 11
25192.105283000001
 21
17098.706081
 31
0.0
  0
LINE
  5
567E
  8
2-0
  6
CONTINUOUS
 62
     3
 10
25192.105283000001
 20
17098.706081
 30
0.0
 11
25192.105283000001
 21
17103.706344999991
 31
0.0
  0
LINE
  5
567F
  8
2-0
  6
CONTINUOUS
 62
     3
 10
25192.105283000001
 20
17103.706344999991
 30
0.0
 11
25167.107922999989
 21
17103.706344999991
 31
0.0
  0
LINE
  5
5680
  8
2-0
  6
CONTINUOUS
 62
     3
 10
25167.107922999989
 20
17103.706344999991
 30
0.0
 11
25167.107922999989
 21
17085.710542000001
 31
0.0
  0
LINE
  5
5681
  8
2-0
  6
CONTINUOUS
 62
     3
 10
25167.107922999989
 20
17085.710542000001
 30
0.0
 11
25197.105546999988
 21
17085.710542000001
 31
0.0
  0
LINE
  5
5682
  8
2-0
  6
CONTINUOUS
 62
     3
 10
25194.219409000001
 20
17125.324668000001
 30
0.0
 11
25194.219409000001
 21
17145.319784999989
 31
0.0
  0
LINE
  5
5683
  8
2-0
  6
CONTINUOUS
 62
     3
 10
25109.222839999991
 20
17125.324668000001
 30
0.0
 11
25194.219409000001
 21
17125.324668000001
 31
0.0
  0
LINE
  5
5684
  8
2-0
  6
CONTINUOUS
 62
     3
 10
25167.107922999989
 20
17095.319125000002
 30
0.0
 11
25167.107922999989
 21
17101.321025000001
 31
0.0
  0
LINE
  5
5685
  8
2-0
  6
CONTINUOUS
 62
     3
 10
25197.105546999988
 20
17095.319125000002
 30
0.0
 11
25167.107922999989
 21
17095.319125000002
 31
0.0
  0
LINE
  5
5686
  8
2-0
  6
CONTINUOUS
 62
     3
 10
25197.105546999988
 20
17954.42402599999
 30
0.0
 11
25197.105546999988
 21
18598.227815999991
 31
0.0
  0
LINE
  5
5687
  8
2-0
  6
CONTINUOUS
 62
     3
 10
25197.105546999988
 20
17249.929424000002
 30
0.0
 11
25197.105546999988
 21
17897.233755000001
 31
0.0
  0
LINE
  5
5688
  8
2-0
  6
CONTINUOUS
 62
     3
 10
25197.105546999988
 20
17240.320839999989
 30
0.0
 11
25167.107922999989
 21
17240.320839999989
 31
0.0
  0
LINE
  5
5689
  8
2-0
  6
CONTINUOUS
 62
     3
 10
25167.107922999989
 20
17240.320839999989
 30
0.0
 11
25167.107922999989
 21
17234.31893999999
 31
0.0
  0
LINE
  5
568A
  8
2-0
  6
CONTINUOUS
 62
     3
 10
25167.107922999989
 20
17249.929424000002
 30
0.0
 11
25197.105546999988
 21
17249.929424000002
 31
0.0
  0
LINE
  5
568B
  8
2-0
  6
CONTINUOUS
 62
     3
 10
25167.107922999989
 20
17231.933619999989
 30
0.0
 11
25167.107922999989
 21
17249.929424000002
 31
0.0
  0
LINE
  5
568C
  8
2-0
  6
CONTINUOUS
 62
     3
 10
25192.105283000001
 20
17231.933619999989
 30
0.0
 11
25167.107922999989
 21
17231.933619999989
 31
0.0
  0
LINE
  5
568D
  8
2-0
  6
CONTINUOUS
 62
     3
 10
25192.105283000001
 20
17236.927945999989
 30
0.0
 11
25192.105283000001
 21
17231.933619999989
 31
0.0
  0
LINE
  5
568E
  8
2-0
  6
CONTINUOUS
 62
     3
 10
25185.103726000001
 20
17236.927945999989
 30
0.0
 11
25192.105283000001
 21
17236.927945999989
 31
0.0
  0
LINE
  5
568F
  8
2-0
  6
CONTINUOUS
 62
     3
 10
25194.219409000001
 20
17210.321235999982
 30
0.0
 11
25109.222839999991
 21
17210.321235999982
 31
0.0
  0
LINE
  5
5690
  8
2-0
  6
CONTINUOUS
 62
     3
 10
25194.219409000001
 20
17190.320180999981
 30
0.0
 11
25194.219409000001
 21
17210.321235999982
 31
0.0
  0
LINE
  5
5691
  8
2-0
  6
CONTINUOUS
 62
     3
 10
25185.103726000001
 20
17910.22929499999
 30
0.0
 11
25192.105283000001
 21
17910.22929499999
 31
0.0
  0
LINE
  5
5692
  8
2-0
  6
CONTINUOUS
 62
     3
 10
25192.105283000001
 20
17910.22929499999
 30
0.0
 11
25192.105283000001
 21
17915.229557999992
 31
0.0
  0
LINE
  5
5693
  8
2-0
  6
CONTINUOUS
 62
     3
 10
25192.105283000001
 20
17915.229557999992
 30
0.0
 11
25167.107922999989
 21
17915.229557999992
 31
0.0
  0
LINE
  5
5694
  8
2-0
  6
CONTINUOUS
 62
     3
 10
25167.107922999989
 20
17915.229557999992
 30
0.0
 11
25167.107922999989
 21
17897.233755000001
 31
0.0
  0
LINE
  5
5695
  8
2-0
  6
CONTINUOUS
 62
     3
 10
25167.107922999989
 20
17897.233755000001
 30
0.0
 11
25197.105546999988
 21
17897.233755000001
 31
0.0
  0
LINE
  5
5696
  8
2-0
  6
CONTINUOUS
 62
     3
 10
25167.107922999989
 20
17913.325261999991
 30
0.0
 11
25167.107922999989
 21
17907.323360999999
 31
0.0
  0
LINE
  5
5697
  8
2-0
  6
CONTINUOUS
 62
     3
 10
25167.107922999989
 20
17907.323360999999
 30
0.0
 11
25197.105546999988
 21
17907.323360999999
 31
0.0
  0
LINE
  5
5698
  8
2-0
  6
CONTINUOUS
 62
     3
 10
25197.105546999988
 20
17944.322542999991
 30
0.0
 11
25197.105546999988
 21
17907.323360999999
 31
0.0
  0
LINE
  5
5699
  8
2-0
  6
CONTINUOUS
 62
     3
 10
25167.107922999989
 20
17944.322542999991
 30
0.0
 11
25197.105546999988
 21
17944.322542999991
 31
0.0
  0
LINE
  5
569A
  8
2-0
  6
CONTINUOUS
 62
     3
 10
25167.107922999989
 20
17938.326581000001
 30
0.0
 11
25167.107922999989
 21
17944.322542999991
 31
0.0
  0
LINE
  5
569B
  8
2-0
  6
CONTINUOUS
 62
     3
 10
25167.107922999989
 20
17954.42402599999
 30
0.0
 11
25197.105546999988
 21
17954.42402599999
 31
0.0
  0
LINE
  5
569C
  8
2-0
  6
CONTINUOUS
 62
     3
 10
25167.107922999989
 20
17936.428222999999
 30
0.0
 11
25167.107922999989
 21
17954.42402599999
 31
0.0
  0
LINE
  5
569D
  8
2-0
  6
CONTINUOUS
 62
     3
 10
25192.105283000001
 20
17936.428222999999
 30
0.0
 11
25167.107922999989
 21
17936.428222999999
 31
0.0
  0
LINE
  5
569E
  8
2-0
  6
CONTINUOUS
 62
     3
 10
25192.105283000001
 20
17941.41661
 30
0.0
 11
25192.105283000001
 21
17936.428222999999
 31
0.0
  0
LINE
  5
569F
  8
2-0
  6
CONTINUOUS
 62
     3
 10
25185.103726000001
 20
17941.41661
 30
0.0
 11
25192.105283000001
 21
17941.41661
 31
0.0
  0
LINE
  5
56A0
  8
2-0
  6
CONTINUOUS
 62
     3
 10
25185.103726000001
 20
18642.422547999991
 30
0.0
 11
25192.105283000001
 21
18642.422547999991
 31
0.0
  0
LINE
  5
56A1
  8
2-0
  6
CONTINUOUS
 62
     3
 10
25192.105283000001
 20
18642.422547999991
 30
0.0
 11
25192.105283000001
 21
18637.416345999991
 31
0.0
  0
LINE
  5
56A2
  8
2-0
  6
CONTINUOUS
 62
     3
 10
25192.105283000001
 20
18637.416345999991
 30
0.0
 11
25167.107922999989
 21
18637.416345999991
 31
0.0
  0
LINE
  5
56A3
  8
2-0
  6
CONTINUOUS
 62
     3
 10
25167.107922999989
 20
18637.416345999991
 30
0.0
 11
25167.107922999989
 21
18655.418087999991
 31
0.0
  0
LINE
  5
56A4
  8
2-0
  6
CONTINUOUS
 62
     3
 10
25167.107922999989
 20
18655.418087999991
 30
0.0
 11
25197.105546999988
 21
18655.418087999991
 31
0.0
  0
LINE
  5
56A5
  8
2-0
  6
CONTINUOUS
 62
     3
 10
25167.107922999989
 20
18639.326581000001
 30
0.0
 11
25167.107922999989
 21
18645.322542999998
 31
0.0
  0
LINE
  5
56A6
  8
2-0
  6
CONTINUOUS
 62
     3
 10
25167.107922999989
 20
18645.322542999998
 30
0.0
 11
25197.105546999988
 21
18645.322542999998
 31
0.0
  0
LINE
  5
56A7
  8
2-0
  6
CONTINUOUS
 62
     3
 10
25197.105546999988
 20
18608.323360999992
 30
0.0
 11
25197.105546999988
 21
18645.322542999998
 31
0.0
  0
LINE
  5
56A8
  8
2-0
  6
CONTINUOUS
 62
     3
 10
25167.107922999989
 20
18608.323360999992
 30
0.0
 11
25197.105546999988
 21
18608.323360999992
 31
0.0
  0
LINE
  5
56A9
  8
2-0
  6
CONTINUOUS
 62
     3
 10
25167.107922999989
 20
18614.319322999982
 30
0.0
 11
25167.107922999989
 21
18608.323360999992
 31
0.0
  0
LINE
  5
56AA
  8
2-0
  6
CONTINUOUS
 62
     3
 10
25167.107922999989
 20
18598.227815999991
 30
0.0
 11
25197.105546999988
 21
18598.227815999991
 31
0.0
  0
LINE
  5
56AB
  8
2-0
  6
CONTINUOUS
 62
     3
 10
25167.107922999989
 20
18616.229557999992
 30
0.0
 11
25167.107922999989
 21
18598.227815999991
 31
0.0
  0
LINE
  5
56AC
  8
2-0
  6
CONTINUOUS
 62
     3
 10
25192.105283000001
 20
18616.229557999992
 30
0.0
 11
25167.107922999989
 21
18616.229557999992
 31
0.0
  0
LINE
  5
56AD
  8
2-0
  6
CONTINUOUS
 62
     3
 10
25192.105283000001
 20
18611.223355999991
 30
0.0
 11
25192.105283000001
 21
18616.229557999992
 31
0.0
  0
LINE
  5
56AE
  8
2-0
  6
CONTINUOUS
 62
     3
 10
25185.103726000001
 20
18611.223355999991
 30
0.0
 11
25192.105283000001
 21
18611.223355999991
 31
0.0
  0
LINE
  5
56AF
  8
2-0
  6
CONTINUOUS
 62
     3
 10
25185.103726000001
 20
19343.417599499979
 30
0.0
 11
25192.105283000001
 21
19343.417599499979
 31
0.0
  0
LINE
  5
56B0
  8
2-0
  6
CONTINUOUS
 62
     3
 10
25192.105283000001
 20
19343.417599499979
 30
0.0
 11
25192.105283000001
 21
19338.417335499991
 31
0.0
  0
LINE
  5
56B1
  8
2-0
  6
CONTINUOUS
 62
     3
 10
25192.105283000001
 20
19338.417335499991
 30
0.0
 11
25167.107922999989
 21
19338.417335499991
 31
0.0
  0
LINE
  5
56B2
  8
2-0
  6
CONTINUOUS
 62
     3
 10
25167.107922999989
 20
19338.417335499991
 30
0.0
 11
25167.107922999989
 21
19356.419077499981
 31
0.0
  0
LINE
  5
56B3
  8
2-0
  6
CONTINUOUS
 62
     3
 10
25167.107922999989
 20
19356.419077499981
 30
0.0
 11
25197.105546999988
 21
19356.419077499981
 31
0.0
  0
LINE
  5
56B4
  8
2-0
  6
CONTINUOUS
 62
     3
 10
25167.107922999989
 20
19340.31965249998
 30
0.0
 11
25167.107922999989
 21
19346.323532499991
 31
0.0
  0
LINE
  5
56B5
  8
2-0
  6
CONTINUOUS
 62
     3
 10
25167.107922999989
 20
19346.323532499991
 30
0.0
 11
25197.105546999988
 21
19346.323532499991
 31
0.0
  0
LINE
  5
56B6
  8
2-0
  6
CONTINUOUS
 62
     3
 10
25197.105546999988
 20
19309.322371499991
 30
0.0
 11
25197.105546999988
 21
19346.323532499991
 31
0.0
  0
LINE
  5
56B7
  8
2-0
  6
CONTINUOUS
 62
     3
 10
25167.107922999989
 20
19309.322371499991
 30
0.0
 11
25197.105546999988
 21
19309.322371499991
 31
0.0
  0
LINE
  5
56B8
  8
2-0
  6
CONTINUOUS
 62
     3
 10
25167.107922999989
 20
19315.32031249996
 30
0.0
 11
25167.107922999989
 21
19309.322371499991
 31
0.0
  0
LINE
  5
56B9
  8
2-0
  6
CONTINUOUS
 62
     3
 10
25167.107922999989
 20
19299.228805499992
 30
0.0
 11
25197.105546999988
 21
19299.228805499992
 31
0.0
  0
LINE
  5
56BA
  8
2-0
  6
CONTINUOUS
 62
     3
 10
25167.107922999989
 20
19317.224609499979
 30
0.0
 11
25167.107922999989
 21
19299.228805499992
 31
0.0
  0
LINE
  5
56BB
  8
2-0
  6
CONTINUOUS
 62
     3
 10
25192.105283000001
 20
19317.224609499979
 30
0.0
 11
25167.107922999989
 21
19317.224609499979
 31
0.0
  0
LINE
  5
56BC
  8
2-0
  6
CONTINUOUS
 62
     3
 10
25192.105283000001
 20
19312.224345499981
 30
0.0
 11
25192.105283000001
 21
19317.224609499979
 31
0.0
  0
LINE
  5
56BD
  8
2-0
  6
CONTINUOUS
 62
     3
 10
25185.103726000001
 20
19312.224345499981
 30
0.0
 11
25192.105283000001
 21
19312.224345499981
 31
0.0
  0
LINE
  5
56BE
  8
2-0
  6
CONTINUOUS
 62
     3
 10
25088.10533599999
 20
19747.817674000002
 30
0.0
 11
25082.10343599999
 21
19747.817674000002
 31
0.0
  0
LINE
  5
56BF
  8
2-0
  6
CONTINUOUS
 62
     3
 10
25082.10343599999
 20
19747.817674000002
 30
0.0
 11
25082.10343599999
 21
19777.821237
 31
0.0
  0
LINE
  5
56C0
  8
2-0
  6
CONTINUOUS
 62
     3
 10
25082.10343599999
 20
19777.821237
 30
0.0
 11
25197.105546999988
 21
19777.821237
 31
0.0
  0
LINE
  5
56C1
  8
2-0
  6
CONTINUOUS
 62
     3
 10
25071.805979999961
 20
19747.817674000002
 30
0.0
 11
25071.805979999961
 21
19777.821237
 31
0.0
  0
LINE
  5
56C2
  8
2-0
  6
CONTINUOUS
 62
     3
 10
25089.807721999969
 20
19747.817674000002
 30
0.0
 11
25071.805979999961
 21
19747.817674000002
 31
0.0
  0
LINE
  5
56C3
  8
2-0
  6
CONTINUOUS
 62
     3
 10
25089.807721999969
 20
19772.826911
 30
0.0
 11
25089.807721999969
 21
19747.817674000002
 31
0.0
  0
LINE
  5
56C4
  8
2-0
  6
CONTINUOUS
 62
     3
 10
25084.807457999999
 20
19772.826911
 30
0.0
 11
25089.807721999969
 21
19772.826911
 31
0.0
  0
LINE
  5
56C5
  8
2-0
  6
CONTINUOUS
 62
     3
 10
25084.807457999999
 20
19765.82139500001
 30
0.0
 11
25084.807457999999
 21
19772.826911
 31
0.0
  0
LINE
  5
56C6
  8
2-0
  6
CONTINUOUS
 62
     3
 10
25185.103726000001
 20
19665.52116800001
 30
0.0
 11
25192.105283000001
 21
19665.52116800001
 31
0.0
  0
LINE
  5
56C7
  8
2-0
  6
CONTINUOUS
 62
     3
 10
25192.105283000001
 20
19665.52116800001
 30
0.0
 11
25192.105283000001
 21
19670.529350000001
 31
0.0
  0
LINE
  5
56C8
  8
2-0
  6
CONTINUOUS
 62
     3
 10
25192.105283000001
 20
19670.529350000001
 30
0.0
 11
25167.107922999989
 21
19670.529350000001
 31
0.0
  0
LINE
  5
56C9
  8
2-0
  6
CONTINUOUS
 62
     3
 10
25167.107922999989
 20
19670.529350000001
 30
0.0
 11
25167.107922999989
 21
19652.527608
 31
0.0
  0
LINE
  5
56CA
  8
2-0
  6
CONTINUOUS
 62
     3
 10
25167.107922999989
 20
19652.527608
 30
0.0
 11
25197.105546999988
 21
19652.527608
 31
0.0
  0
LINE
  5
56CB
  8
2-0
  6
CONTINUOUS
 62
     3
 10
25197.105546999988
 20
19692.824668000001
 30
0.0
 11
25116.103646999989
 21
19692.824668000001
 31
0.0
  0
LINE
  5
56CC
  8
2-0
  6
CONTINUOUS
 62
     3
 10
25167.107922999989
 20
19662.82506399999
 30
0.0
 11
25197.105546999988
 21
19662.82506399999
 31
0.0
  0
LINE
  5
56CD
  8
2-0
  6
CONTINUOUS
 62
     3
 10
25167.107922999989
 20
19668.821025999991
 30
0.0
 11
25167.107922999989
 21
19662.82506399999
 31
0.0
  0
LINE
  5
56CE
  8
2-0
  6
CONTINUOUS
 62
     4
 10
23288.107263000002
 20
19857.82348000001
 30
0.0
 11
23288.107263000002
 21
20587.820445000001
 31
0.0
  0
LINE
  5
56CF
  8
2-0
  6
CONTINUOUS
 62
     6
 10
24962.56030899996
 20
15595.892406999999
 30
0.0
 11
24506.134790999979
 21
15371.179437000001
 31
0.0
  0
LINE
  5
56D0
  8
2-0
  6
CONTINUOUS
 62
     6
 10
24076.044788999981
 20
14582.87002499998
 30
0.0
 11
24596.046504999991
 21
14582.87002499998
 31
0.0
  0
LINE
  5
56D1
  8
2-0
  6
CONTINUOUS
 62
     6
 10
23488.15944299996
 20
15371.179437000001
 30
0.0
 11
24506.134790999979
 21
15371.179437000001
 31
0.0
  0
LINE
  5
56D2
  8
2-0
  6
CONTINUOUS
 62
     6
 10
24971.941246999999
 20
14401.926189999949
 30
0.0
 11
24596.046504999991
 21
14582.87002499998
 31
0.0
  0
LINE
  5
56D3
  8
2-0
  6
CONTINUOUS
 62
     6
 10
23396.05244299999
 20
17375.503722000009
 30
0.0
 11
24596.046504999991
 21
17375.503722000009
 31
0.0
  0
LINE
  5
56D4
  8
2-0
  6
CONTINUOUS
 62
     6
 10
23676.043469999979
 20
16538.314836000001
 30
0.0
 11
24596.046504999991
 21
16538.314836000001
 31
0.0
  0
LINE
  5
56D5
  8
2-0
  6
CONTINUOUS
 62
     6
 10
25055.763961999961
 20
16782.228147000002
 30
0.0
 11
24596.046504999991
 21
16538.314836000001
 31
0.0
  0
LINE
  5
56D6
  8
2-0
  6
CONTINUOUS
 62
     6
 10
24900.74192299999
 20
17271.850191000001
 30
0.0
 11
24596.046504999991
 21
17375.503722000009
 31
0.0
  0
LINE
  5
56D7
  8
2-0
  6
CONTINUOUS
 62
     6
 10
24962.56030899996
 20
18513.656844000001
 30
0.0
 11
24506.134790999979
 21
18288.941894999989
 31
0.0
  0
LINE
  5
56D8
  8
2-0
  6
CONTINUOUS
 62
     6
 10
23488.15944299996
 20
18288.941894999989
 30
0.0
 11
24506.134790999979
 21
18288.941894999989
 31
0.0
  0
LINE
  5
56D9
  8
2-0
  6
CONTINUOUS
 62
     6
 10
24939.382126
 20
14080.24254399999
 30
0.0
 11
24471.441748999961
 21
13609.82182999999
 31
0.0
  0
LINE
  5
56DA
  8
2-0
  6
CONTINUOUS
 62
     6
 10
23471.448347000001
 20
13609.82182999999
 30
0.0
 11
24471.441748999961
 21
13609.82182999999
 31
0.0
  0
LINE
  5
56DB
  8
0-1
  6
CONTINUOUS
 62
     3
 10
9824.5168575852658
 20
19236.878193
 30
0.0
 11
9824.5168575852658
 21
19937.822819000001
 31
0.0
  0
LINE
  5
56DC
  8
0-1
  6
CONTINUOUS
 62
     3
 10
9787.5186655852685
 20
19255.634130999992
 30
0.0
 11
9787.5186655852685
 21
19937.822819000001
 31
0.0
  0
LINE
  5
56DD
  8
0-1
  6
CONTINUOUS
 62
     3
 10
9266.5182035852558
 20
17201.82514199998
 30
0.0
 11
13301.52760512132
 21
17201.82514199998
 31
0.0
  0
LINE
  5
56DE
  8
0-1
  6
CONTINUOUS
 62
     3
 10
9316.518823585262
 20
14089.32655399999
 30
0.0
 11
9316.5188235852584
 21
19937.82281899999
 31
0.0
  0
LINE
  5
56DF
  8
0-1
  6
CONTINUOUS
 62
     3
 10
9181.0187975852677
 20
14057.32565699999
 30
0.0
 11
9181.0187975852677
 21
19947.824271000001
 31
0.0
  0
LINE
  5
56E0
  8
0-1
  6
CONTINUOUS
 62
     3
 10
9375.0175965852595
 20
19459.393896999991
 30
0.0
 11
9375.0175965852577
 21
19937.82281899999
 31
0.0
  0
LINE
  5
56E1
  8
0-1
  6
CONTINUOUS
 62
     3
 10
9412.0187575852597
 20
19440.641917000001
 30
0.0
 11
9412.0187575852597
 21
19937.822819000001
 31
0.0
  0
LINE
  5
56E2
  8
0-1
  6
CONTINUOUS
 62
     3
 10
9575.0192455852593
 20
19358.02275
 30
0.0
 11
9575.0192455852593
 21
19937.822819000001
 31
0.0
  0
LINE
  5
56E3
  8
0-1
  6
CONTINUOUS
 62
     3
 10
9612.0174375852584
 20
19339.266812000002
 30
0.0
 11
9612.0174375852584
 21
19937.82281899999
 31
0.0
  0
LINE
  5
56E4
  8
0-1
  6
CONTINUOUS
 62
     3
 10
9987.5183355852641
 20
19149.016314420562
 30
0.0
 11
9987.5183355852714
 21
19937.822819000001
 31
0.0
  0
LINE
  5
56E5
  8
0-1
  6
CONTINUOUS
 62
     3
 10
10024.518507585261
 20
19130.26590333768
 30
0.0
 11
10024.518507585261
 21
19937.822819000001
 31
0.0
  0
LINE
  5
56E6
  8
0-1
  6
CONTINUOUS
 62
     3
 10
10187.51701558527
 20
19047.663881085071
 30
0.0
 11
10187.51701558527
 21
19937.822819000001
 31
0.0
  0
LINE
  5
56E7
  8
0-1
  6
CONTINUOUS
 62
     3
 10
10224.518177585271
 20
19028.91296830435
 30
0.0
 11
10224.518177585271
 21
19937.822819000001
 31
0.0
  0
LINE
  5
56E8
  8
0-1
  6
CONTINUOUS
 62
     3
 10
12152.815725585249
 20
18051.718275396161
 30
0.0
 11
12315.05310958526
 21
18241.92625639616
 31
0.0
  0
LINE
  5
56E9
  8
0-1
  6
CONTINUOUS
 62
     3
 10
12751.40927758527
 20
17207.560706396162
 30
0.0
 11
12913.64666158527
 21
17397.768687396161
 31
0.0
  0
LINE
  5
56EA
  8
0-1
  6
CONTINUOUS
 62
     3
 10
12751.40927758527
 20
17207.560706396162
 30
0.0
 11
12315.05310958526
 21
18241.92625639616
 31
0.0
  0
LINE
  5
56EB
  8
0-1
  6
CONTINUOUS
 62
     3
 10
9266.5182035852558
 20
17122.824534999982
 30
0.0
 11
13457.913618863809
 21
17122.824534999982
 31
0.0
  0
LINE
  5
56EC
  8
0-1
  6
CONTINUOUS
 62
     3
 10
9224.0179395852683
 20
14213.326566999969
 30
0.0
 11
14444.017477585259
 21
14213.326566999969
 31
0.0
  0
LINE
  5
56ED
  8
0-1
  6
CONTINUOUS
 62
     3
 10
9266.5182035852558
 20
14292.32717399998
 30
0.0
 11
14401.518203585259
 21
14292.32717399998
 31
0.0
  0
LINE
  5
56EE
  8
0-1
  6
CONTINUOUS
 62
     3
 10
9181.0187975852641
 20
14057.32565699999
 30
0.0
 11
14487.018599585261
 21
14057.32565699999
 31
0.0
  0
LINE
  5
56EF
  8
0-1
  6
CONTINUOUS
 62
     3
 10
9181.0187975852641
 20
14089.32655399999
 30
0.0
 11
14487.018599585261
 21
14089.32655399999
 31
0.0
  0
LINE
  5
56F0
  8
0-1
  6
CONTINUOUS
 62
     3
 10
14843.30220533393
 20
16422.975893533701
 30
0.0
 11
12913.64666158527
 21
17397.768687396161
 31
0.0
  0
LINE
  5
56F1
  8
0-1
  6
CONTINUOUS
 62
     3
 10
9266.5182035852558
 20
14213.326566999969
 30
0.0
 11
9266.5182035852558
 21
19514.390862
 31
0.0
  0
LINE
  5
56F2
  8
0-1
  6
CONTINUOUS
 62
     3
 10
9224.0179395852683
 20
14213.326566999969
 30
0.0
 11
9224.0179395852683
 21
19535.931982999991
 31
0.0
  0
LINE
  5
56F3
  8
0-1
  6
CONTINUOUS
 62
     3
 10
10387.51866558527
 20
18946.309942656018
 30
0.0
 11
10387.518665585259
 21
19937.822819000001
 31
0.0
  0
LINE
  5
56F4
  8
0-1
  6
CONTINUOUS
 62
     3
 10
10424.516857585249
 20
18927.56053496887
 30
0.0
 11
10424.516857585249
 21
19937.822819000001
 31
0.0
  0
LINE
  5
56F5
  8
0-1
  6
CONTINUOUS
 62
     3
 10
10587.51833558527
 20
18844.957007622681
 30
0.0
 11
10587.51833558527
 21
19937.82281899999
 31
0.0
  0
LINE
  5
56F6
  8
0-1
  6
CONTINUOUS
 62
     3
 10
10987.517675585261
 20
18642.251137555999
 30
0.0
 11
10987.517675585261
 21
19937.822819000001
 31
0.0
  0
LINE
  5
56F7
  8
0-1
  6
CONTINUOUS
 62
     3
 10
11024.51784758527
 20
18623.50072647315
 30
0.0
 11
11024.517847585261
 21
19937.82281899999
 31
0.0
  0
LINE
  5
56F8
  8
0-1
  6
CONTINUOUS
 62
     3
 10
11187.51833558527
 20
18540.8977008248
 30
0.0
 11
11187.51833558527
 21
19937.822819000001
 31
0.0
  0
LINE
  5
56F9
  8
0-1
  6
CONTINUOUS
 62
     3
 10
11224.517517585249
 20
18522.147791439798
 30
0.0
 11
11224.517517585249
 21
19937.822819000001
 31
0.0
  0
LINE
  5
56FA
  8
0-1
  6
CONTINUOUS
 62
     3
 10
11387.518005585271
 20
18439.54476579147
 30
0.0
 11
11387.51800558524
 21
19937.822819000001
 31
0.0
  0
LINE
  5
56FB
  8
0-1
  6
CONTINUOUS
 62
     3
 10
11424.518177585271
 20
18420.7943547086
 30
0.0
 11
11424.518177585271
 21
19937.822819000001
 31
0.0
  0
LINE
  5
56FC
  8
0-1
  6
CONTINUOUS
 62
     3
 10
11587.51767558525
 20
18338.191830758129
 30
0.0
 11
11587.51767558525
 21
19937.822819000001
 31
0.0
  0
LINE
  5
56FD
  8
0-1
  6
CONTINUOUS
 62
     3
 10
11624.517847585261
 20
18319.44141967527
 30
0.0
 11
11624.517847585261
 21
19937.822819000001
 31
0.0
  0
LINE
  5
56FE
  8
0-1
  6
CONTINUOUS
 62
     3
 10
11787.51932558527
 20
18236.83789232908
 30
0.0
 11
11787.51932558527
 21
19937.82281899999
 31
0.0
  0
LINE
  5
56FF
  8
0-1
  6
CONTINUOUS
 62
     3
 10
11824.51751758526
 20
18218.088484641921
 30
0.0
 11
11824.51751758526
 21
19937.822819000001
 31
0.0
  0
LINE
  5
5700
  8
0-1
  6
CONTINUOUS
 62
     3
 10
11987.518005585271
 20
18135.4854589936
 30
0.0
 11
11987.518005585271
 21
19937.822819000001
 31
0.0
  0
LINE
  5
5701
  8
0-1
  6
CONTINUOUS
 62
     3
 10
12024.519166585271
 20
18116.73454671961
 30
0.0
 11
12024.519166585271
 21
19937.822819000001
 31
0.0
  0
LINE
  5
5702
  8
0-1
  6
CONTINUOUS
 62
     3
 10
12187.51767558525
 20
18092.403028093238
 30
0.0
 11
12187.51767558525
 21
19937.82281899999
 31
0.0
  0
LINE
  5
5703
  8
0-1
  6
CONTINUOUS
 62
     3
 10
12224.51784758527
 20
18135.782228615681
 30
0.0
 11
12224.51784758527
 21
19937.822819000001
 31
0.0
  0
LINE
  5
5704
  8
0-1
  6
CONTINUOUS
 62
     3
 10
12387.51932558527
 20
18070.14787243789
 30
0.0
 11
12387.51932558527
 21
19937.822819000001
 31
0.0
  0
LINE
  5
5705
  8
0-1
  6
CONTINUOUS
 62
     3
 10
12424.51751758526
 20
17982.445078198751
 30
0.0
 11
12424.51751758526
 21
19937.822819000001
 31
0.0
  0
LINE
  5
5706
  8
0-1
  6
CONTINUOUS
 62
     3
 10
10624.518507585261
 20
18826.206596539811
 30
0.0
 11
10624.518507585261
 21
19937.822819000001
 31
0.0
  0
LINE
  5
5707
  8
0-1
  6
CONTINUOUS
 62
     3
 10
10787.518005585251
 20
18743.604072589351
 30
0.0
 11
10787.518005585251
 21
19937.822819000001
 31
0.0
  0
LINE
  5
5708
  8
0-1
  6
CONTINUOUS
 62
     3
 10
10824.518177585271
 20
18724.85366150648
 30
0.0
 11
10824.518177585271
 21
19937.822819000001
 31
0.0
  0
LINE
  5
5709
  8
0-1
  6
CONTINUOUS
 62
     3
 10
12824.51685758528
 20
17293.272426128999
 30
0.0
 11
12824.516857585249
 21
19937.822819000001
 31
0.0
  0
LINE
  5
570A
  8
0-1
  6
CONTINUOUS
 62
     3
 10
12787.518665585259
 20
17249.89554696919
 30
0.0
 11
12787.518665585259
 21
19937.822819000001
 31
0.0
  0
LINE
  5
570B
  8
0-1
  6
CONTINUOUS
 62
     3
 10
12624.519166585271
 20
17508.348844800748
 30
0.0
 11
12624.519166585251
 21
19937.822819000001
 31
0.0
  0
LINE
  5
570C
  8
0-1
  6
CONTINUOUS
 62
     3
 10
12587.518005585271
 20
17587.314853055919
 30
0.0
 11
12587.518005585271
 21
19937.822819000001
 31
0.0
  0
LINE
  5
570D
  8
0-1
  6
CONTINUOUS
 62
     3
 10
14444.017477585259
 20
14213.326566999969
 30
0.0
 11
14444.017477585259
 21
16624.60919927157
 31
0.0
  0
LINE
  5
570E
  8
0-1
  6
CONTINUOUS
 62
     3
 10
14401.518203585259
 20
14213.326566999969
 30
0.0
 11
14401.518203585259
 21
16646.149331271561
 31
0.0
  0
LINE
  5
570F
  8
0-1
  6
CONTINUOUS
 62
     3
 10
14487.018599585261
 20
14057.32565699999
 30
0.0
 11
14487.018599585261
 21
19947.824271000001
 31
0.0
  0
LINE
  5
5710
  8
0-1
  6
CONTINUOUS
 62
     3
 10
14351.51758258524
 20
14089.32655399999
 30
0.0
 11
14351.51758258524
 21
19937.82281899999
 31
0.0
  0
LINE
  5
5711
  8
0-1
  6
CONTINUOUS
 62
     3
 10
12152.815725585249
 20
18051.718275396161
 30
0.0
 11
9032.8231675852676
 21
19632.82289939616
 31
0.0
  0
LINE
  5
5712
  8
0-1
  6
CONTINUOUS
 62
     3
 10
9199.0195495852568
 20
19917.82466599999
 30
0.0
 11
9249.5180585852577
 21
19917.82466599999
 31
0.0
  0
LINE
  5
5713
  8
0-1
  6
CONTINUOUS
 62
     3
 10
9199.0195495852568
 20
19940.323874999991
 30
0.0
 11
9181.0187975852677
 21
19940.323874999991
 31
0.0
  0
LINE
  5
5714
  8
0-1
  6
CONTINUOUS
 62
     3
 10
9249.5180585852577
 20
19957.826777999991
 30
0.0
 11
9186.0180715852694
 21
19957.826777999991
 31
0.0
  0
LINE
  5
5715
  8
0-1
  6
CONTINUOUS
 62
     3
 10
9181.0187975852677
 20
19952.824533999988
 30
0.0
 11
9181.0187975852677
 21
19917.82466599999
 31
0.0
  0
LINE
  5
5716
  8
0-1
  6
CONTINUOUS
 62
     3
 10
9254.5173325852556
 20
19922.824929999992
 30
0.0
 11
9254.5173325852556
 21
19952.824533999988
 31
0.0
  0
LINE
  5
5717
  8
0-1
  6
CONTINUOUS
 62
     3
 10
9254.5173325852556
 20
19937.822819000001
 30
0.0
 11
14413.519074585251
 21
19937.822819000001
 31
0.0
  0
LINE
  5
5718
  8
0-1
  6
CONTINUOUS
 62
     3
 10
9199.0195495852568
 20
19547.084589999991
 30
0.0
 11
9199.0195495852568
 21
19940.323874999991
 31
0.0
  0
LINE
  5
5719
  8
0-1
  6
CONTINUOUS
 62
     3
 10
14418.519338585251
 20
19957.826777999991
 30
0.0
 11
14482.01833558525
 21
19957.826777999991
 31
0.0
  0
LINE
  5
571A
  8
0-1
  6
CONTINUOUS
 62
     3
 10
14469.01883658523
 20
19917.82466599999
 30
0.0
 11
14418.519338585251
 21
19917.82466599999
 31
0.0
  0
LINE
  5
571B
  8
0-1
  6
CONTINUOUS
 62
     3
 10
14413.519074585251
 20
19922.824929999992
 30
0.0
 11
14413.519074585251
 21
19952.824533999988
 31
0.0
  0
LINE
  5
571C
  8
0-1
  6
CONTINUOUS
 62
     3
 10
14487.018599585261
 20
19952.824533999988
 30
0.0
 11
14487.018599585261
 21
19917.82466599999
 31
0.0
  0
LINE
  5
571D
  8
0-1
  6
CONTINUOUS
 62
     3
 10
14469.01883658523
 20
19940.323874999991
 30
0.0
 11
14487.018599585261
 21
19940.323874999991
 31
0.0
  0
LINE
  5
571E
  8
0-1
  6
CONTINUOUS
 62
     3
 10
14469.018836585239
 20
16613.458571271571
 30
0.0
 11
14469.01883658523
 21
19940.323874999991
 31
0.0
  0
LINE
  5
571F
  8
0-1
  6
CONTINUOUS
 62
     3
 10
9266.5182035852558
 20
15753.82730599999
 30
0.0
 11
14401.518203585259
 21
15753.82730599999
 31
0.0
  0
LINE
  5
5720
  8
0-1
  6
CONTINUOUS
 62
     3
 10
9266.5182035852558
 20
15663.827503999981
 30
0.0
 11
14401.518203585259
 21
15663.827503999981
 31
0.0
  0
LINE
  5
5721
  8
0-1
  6
CONTINUOUS
 62
     3
 10
9266.5182035852558
 20
18671.825325999991
 30
0.0
 11
10929.15895190974
 21
18671.825325999991
 31
0.0
  0
LINE
  5
5722
  8
0-1
  6
CONTINUOUS
 62
     3
 10
9266.5182035852558
 20
18581.824533999981
 30
0.0
 11
11106.75744665307
 21
18581.824533999981
 31
0.0
  0
LINE
  5
5723
  8
0-1
  6
CONTINUOUS
 62
     3
 10
12592.01844158524
 20
14292.32717399998
 30
0.0
 11
12592.01844158524
 21
15663.827503999981
 31
0.0
  0
LINE
  5
5724
  8
0-1
  6
CONTINUOUS
 62
     3
 10
12478.01796658527
 20
14292.32717399998
 30
0.0
 11
12478.01796658527
 21
15663.827503999981
 31
0.0
  0
LINE
  5
5725
  8
0-1
  6
CONTINUOUS
 62
     3
 10
12535.018203585239
 20
14292.32717399998
 30
0.0
 11
12535.018203585239
 21
15313.825853999981
 31
0.0
  0
LINE
  5
5726
  8
0-1
  6
CONTINUOUS
 62
     3
 10
12535.018203585239
 20
14213.326566999969
 30
0.0
 11
12535.018203585239
 21
15663.827503999981
 31
0.0
  0
LINE
  5
5727
  8
0-1
  6
CONTINUOUS
 62
     3
 10
12535.018203585239
 20
15753.82730599999
 30
0.0
 11
12535.018203585239
 21
17122.824534999982
 31
0.0
  0
LINE
  5
5728
  8
0-1
  6
CONTINUOUS
 62
     3
 10
12535.018203585239
 20
17201.82514199998
 30
0.0
 11
12535.018203585239
 21
17718.552733999972
 31
0.0
  0
LINE
  5
5729
  8
0-1
  6
CONTINUOUS
 62
     3
 10
12535.018203585239
 20
17201.82514199998
 30
0.0
 11
12535.018203585239
 21
17721.15957905594
 31
0.0
  0
LINE
  5
572A
  8
0-1
  6
CONTINUOUS
 62
     3
 10
12478.01796658527
 20
17201.82514199998
 30
0.0
 11
12478.01796658527
 21
17855.624317055899
 31
0.0
  0
LINE
  5
572B
  8
0-1
  6
CONTINUOUS
 62
     3
 10
12592.01844158524
 20
17201.82514199998
 30
0.0
 11
12592.01844158524
 21
17576.698695055919
 31
0.0
  0
LINE
  5
572C
  8
0-1
  6
CONTINUOUS
 62
     3
 10
12478.01796658527
 20
15753.82730599999
 30
0.0
 11
12478.01796658527
 21
17122.824534999982
 31
0.0
  0
LINE
  5
572D
  8
0-1
  6
CONTINUOUS
 62
     3
 10
12592.01844158524
 20
15753.82730599999
 30
0.0
 11
12592.01844158524
 21
17122.824534999982
 31
0.0
  0
LINE
  5
572E
  8
0-1
  6
CONTINUOUS
 62
     3
 10
12535.018203585239
 20
15753.82730599999
 30
0.0
 11
12535.018203585239
 21
15663.827503999981
 31
0.0
  0
LINE
  5
572F
  8
0-1
  6
CONTINUOUS
 62
     3
 10
12535.018203585239
 20
17201.82514199998
 30
0.0
 11
12535.018203585239
 21
17122.824534999982
 31
0.0
  0
LINE
  5
5730
  8
0-1
  6
CONTINUOUS
 62
     3
 10
9336.5189295852688
 20
14249.826909999991
 30
0.0
 11
12465.018467585271
 21
15708.826909999991
 31
0.0
  0
LINE
  5
5731
  8
0-1
  6
CONTINUOUS
 62
     3
 10
12465.018467585271
 20
14249.826909999991
 30
0.0
 11
9336.5189295852688
 21
15708.826909999991
 31
0.0
  0
LINE
  5
5732
  8
0-1
  6
CONTINUOUS
 62
     3
 10
12465.018467585271
 20
15708.826909999991
 30
0.0
 11
9336.5189295852688
 21
17167.826909999982
 31
0.0
  0
LINE
  5
5733
  8
0-1
  6
CONTINUOUS
 62
     3
 10
12465.018467585271
 20
17167.826909999982
 30
0.0
 11
9336.5189295852688
 21
15708.826909999991
 31
0.0
  0
LINE
  5
5734
  8
0-1
  6
CONTINUOUS
 62
     3
 10
12465.018467585271
 20
17167.826909999982
 30
0.0
 11
9336.5189295852688
 21
18626.826909999982
 31
0.0
  0
LINE
  5
5735
  8
0-1
  6
CONTINUOUS
 62
     3
 10
10326.072537462271
 20
18977.448721193508
 30
0.0
 11
9336.5189295852688
 21
18626.826909999982
 31
0.0
  0
LINE
  5
5736
  8
0-1
  6
CONTINUOUS
 62
     3
 10
11711.432913926339
 20
18275.39586163867
 30
0.0
 11
9336.5189295852688
 21
17167.826909999982
 31
0.0
  0
LINE
  5
5737
  8
0-1
  6
CONTINUOUS
 62
     3
 10
12605.01793958525
 20
14249.826909999991
 30
0.0
 11
14331.518467585251
 21
15708.826909999991
 31
0.0
  0
LINE
  5
5738
  8
0-1
  6
CONTINUOUS
 62
     3
 10
14331.518467585251
 20
14249.826909999991
 30
0.0
 11
12605.01793958525
 21
15708.826909999991
 31
0.0
  0
LINE
  5
5739
  8
0-1
  6
CONTINUOUS
 62
     3
 10
12605.01793958525
 20
17167.826909999982
 30
0.0
 11
14331.518467585251
 21
15708.826909999991
 31
0.0
  0
LINE
  5
573A
  8
0-1
  6
CONTINUOUS
 62
     3
 10
12605.01793958525
 20
15708.826909999991
 30
0.0
 11
13971.344565403
 21
16863.457629619501
 31
0.0
  0
LINE
  5
573B
  8
0-1
  6
CONTINUOUS
 62
     3
 10
12605.01793958525
 20
17167.826909999982
 30
0.0
 11
12725.293480879191
 21
17269.46720022981
 31
0.0
  0
LINE
  5
573C
  8
0-1
  6
CONTINUOUS
 62
     3
 10
13861.517359585259
 20
16918.938396198791
 30
0.0
 11
13861.51735958527
 21
19937.822819000001
 31
0.0
  0
LINE
  5
573D
  8
0-1
  6
CONTINUOUS
 62
     3
 10
13824.519166585251
 20
16937.628556750609
 30
0.0
 11
13824.519166585271
 21
19937.822819000001
 31
0.0
  0
LINE
  5
573E
  8
0-1
  6
CONTINUOUS
 62
     3
 10
12987.51833558527
 20
17360.451366323468
 30
0.0
 11
12987.51833558527
 21
19937.822819000001
 31
0.0
  0
LINE
  5
573F
  8
0-1
  6
CONTINUOUS
 62
     3
 10
13024.518507585281
 20
17341.76020605184
 30
0.0
 11
13024.51850758527
 21
19937.82281899999
 31
0.0
  0
LINE
  5
5740
  8
0-1
  6
CONTINUOUS
 62
     3
 10
13187.518005585251
 20
17259.418703928131
 30
0.0
 11
13187.518005585251
 21
19937.822819000001
 31
0.0
  0
LINE
  5
5741
  8
0-1
  6
CONTINUOUS
 62
     3
 10
13224.51916658524
 20
17240.727044049141
 30
0.0
 11
13224.519166585271
 21
19937.822819000001
 31
0.0
  0
LINE
  5
5742
  8
0-1
  6
CONTINUOUS
 62
     3
 10
13387.517675585281
 20
17158.38604153278
 30
0.0
 11
13387.517675585241
 21
19937.822819000001
 31
0.0
  0
LINE
  5
5743
  8
0-1
  6
CONTINUOUS
 62
     3
 10
13424.51685758526
 20
17139.695381373651
 30
0.0
 11
13424.51685758526
 21
19937.822819000001
 31
0.0
  0
LINE
  5
5744
  8
0-1
  6
CONTINUOUS
 62
     3
 10
13587.51833558527
 20
17057.352879024918
 30
0.0
 11
13587.51833558527
 21
19937.822819000001
 31
0.0
  0
LINE
  5
5745
  8
0-1
  6
CONTINUOUS
 62
     3
 10
13624.51850758527
 20
17038.66171875329
 30
0.0
 11
13624.51850758527
 21
19937.822819000001
 31
0.0
  0
LINE
  5
5746
  8
0-1
  6
CONTINUOUS
 62
     3
 10
12535.018203585239
 20
14213.326566999969
 30
0.0
 11
12535.018203585239
 21
14057.32565699999
 31
0.0
  0
LINE
  5
5747
  8
0-5
  6
CONTINUOUS
 62
     6
 10
11352.984314585239
 20
19675.551386999981
 30
0.0
 11
11496.885417585259
 21
20187.827042000001
 31
0.0
  0
LINE
  5
5748
  8
0-5
  6
CONTINUOUS
 62
     6
 10
11496.885417585259
 20
20187.827042000001
 30
0.0
 11
12014.57505558525
 21
20187.827042000001
 31
0.0
  0
LINE
  5
5749
  8
0-5
  6
CONTINUOUS
 62
     6
 10
9431.046879585263
 20
18965.524307
 30
0.0
 11
9961.5450725852734
 21
18965.524307
 31
0.0
  0
LINE
  5
574A
  8
0-5
  6
CONTINUOUS
 62
     6
 10
10427.399036585261
 20
14444.21563499998
 30
0.0
 11
10510.28642858527
 21
14621.15490299999
 31
0.0
  0
LINE
  5
574B
  8
0-5
  6
CONTINUOUS
 62
     6
 10
10510.28642858527
 20
14621.15490299999
 30
0.0
 11
11310.286098585249
 21
14621.15490299999
 31
0.0
  0
LINE
  5
574C
  8
0-5
  6
CONTINUOUS
 62
     6
 10
11417.81255858527
 20
13257.32598699998
 30
0.0
 11
12280.391738585269
 21
13257.32598699998
 31
0.0
  0
LINE
  5
574D
  8
0-5
  6
CONTINUOUS
 62
     6
 10
11011.698484585269
 20
13920.85764599998
 30
0.0
 11
11417.81255858527
 21
13257.32598699998
 31
0.0
  0
LINE
  5
574E
  8
0-5
  6
CONTINUOUS
 62
     6
 10
7450.6211845852577
 20
12857.326646999991
 30
0.0
 11
8530.6197985852632
 21
12857.326646999991
 31
0.0
  0
LINE
  5
574F
  8
0-5
  6
CONTINUOUS
 62
     6
 10
9089.1246355852636
 20
14637.59876399998
 30
0.0
 11
8530.6197985852632
 21
12857.326646999991
 31
0.0
  0
LINE
  5
5750
  8
0-5
  6
CONTINUOUS
 62
     6
 10
9332.0036475852557
 20
19186.313870999998
 30
0.0
 11
9431.046879585263
 21
18965.524307
 31
0.0
  0
LINE
  5
5751
  8
0-5
  6
CONTINUOUS
 62
     6
 10
10632.002077585261
 20
16733.112752999979
 30
0.0
 11
10737.63512758525
 21
16834.14342199999
 31
0.0
  0
LINE
  5
5752
  8
0-5
  6
CONTINUOUS
 62
     6
 10
9328.7394215852582
 20
20100.605493999989
 30
0.0
 11
9490.2612095852619
 21
20436.363517999998
 31
0.0
  0
LINE
  5
5753
  8
0-5
  6
CONTINUOUS
 62
     6
 10
9551.9232125852632
 20
20564.549223000002
 30
0.0
 11
9728.2558385852699
 21
20909.268527
 31
0.0
  0
LINE
  5
5754
  8
0-5
  6
CONTINUOUS
 62
     6
 10
9728.2558385852699
 20
20909.268527
 30
0.0
 11
11381.101396585271
 21
20909.268527
 31
0.0
  0
LINE
  5
5755
  8
0-5
  6
CONTINUOUS
 62
     6
 10
11369.414318585261
 20
16297.853237999991
 30
0.0
 11
12317.35924858527
 21
16297.853237999991
 31
0.0
  0
LINE
  5
5756
  8
0-5
  6
CONTINUOUS
 62
     6
 10
12478.01796658527
 20
15872.830803999979
 30
0.0
 11
12317.35924858527
 21
16297.853237999991
 31
0.0
  0
LINE
  5
5757
  8
0-5
  6
CONTINUOUS
 62
     6
 10
10737.63512758525
 20
16834.14342199999
 30
0.0
 11
11617.63704058527
 21
16834.14342199999
 31
0.0
  0
LINE
  5
5758
  8
0-5
  6
CONTINUOUS
 62
     6
 10
9356.3358895852634
 20
19197.230915999979
 30
0.0
 11
9266.5182035852558
 21
19332.299407999992
 31
0.0
  0
LINE
  5
5759
  8
0-5
  6
CONTINUOUS
 62
     6
 10
9266.5182035852558
 20
19332.299407999992
 30
0.0
 11
9307.6723945852646
 21
19175.398806000001
 31
0.0
  0
LINE
  5
575A
  8
0-5
  6
CONTINUOUS
 62
     6
 10
9266.5182035852558
 20
19332.299407999992
 30
0.0
 11
9356.3358895852634
 21
19197.230915999979
 31
0.0
  0
LINE
  5
575B
  8
0-5
  6
CONTINUOUS
 62
     6
 10
9356.3358895852634
 20
19197.230915999979
 30
0.0
 11
9307.6723945852646
 21
19175.398806000001
 31
0.0
  0
LINE
  5
575C
  8
0-5
  6
CONTINUOUS
 62
     6
 10
9307.6723945852646
 20
19175.398806000001
 30
0.0
 11
9266.5182035852558
 21
19332.299407999992
 31
0.0
  0
LINE
  5
575D
  8
0-5
  6
CONTINUOUS
 62
     6
 10
9307.6723945852646
 20
19175.398806000001
 30
0.0
 11
9356.3358895852634
 21
19197.230915999979
 31
0.0
  0
LINE
  5
575E
  8
0-5
  6
CONTINUOUS
 62
     6
 10
11034.44315358526
 20
13934.778609999979
 30
0.0
 11
10928.173688585261
 21
14057.32565699999
 31
0.0
  0
LINE
  5
575F
  8
0-5
  6
CONTINUOUS
 62
     6
 10
10928.173688585261
 20
14057.32565699999
 30
0.0
 11
10988.95282658526
 21
13906.937670999991
 31
0.0
  0
LINE
  5
5760
  8
0-5
  6
CONTINUOUS
 62
     6
 10
10928.173688585261
 20
14057.32565699999
 30
0.0
 11
11034.44315358526
 21
13934.778609999979
 31
0.0
  0
LINE
  5
5761
  8
0-5
  6
CONTINUOUS
 62
     6
 10
11034.44315358526
 20
13934.778609999979
 30
0.0
 11
10988.95282658526
 21
13906.937670999991
 31
0.0
  0
LINE
  5
5762
  8
0-5
  6
CONTINUOUS
 62
     6
 10
10988.95282658526
 20
13906.937670999991
 30
0.0
 11
10928.173688585261
 21
14057.32565699999
 31
0.0
  0
LINE
  5
5763
  8
0-5
  6
CONTINUOUS
 62
     6
 10
10988.95282658526
 20
13906.937670999991
 30
0.0
 11
11034.44315358526
 21
13934.778609999979
 31
0.0
  0
LINE
  5
5764
  8
0-5
  6
CONTINUOUS
 62
     6
 10
9114.5683775852594
 20
14629.61635599999
 30
0.0
 11
9137.0180975852636
 21
14790.262206999991
 31
0.0
  0
LINE
  5
5765
  8
0-5
  6
CONTINUOUS
 62
     6
 10
9137.0180975852636
 20
14790.262206999991
 30
0.0
 11
9063.6818835852664
 21
14645.58018299998
 31
0.0
  0
LINE
  5
5766
  8
0-5
  6
CONTINUOUS
 62
     6
 10
9137.0180975852636
 20
14790.262206999991
 30
0.0
 11
9114.5683775852594
 21
14629.61635599999
 31
0.0
  0
LINE
  5
5767
  8
0-5
  6
CONTINUOUS
 62
     6
 10
9114.5683775852594
 20
14629.61635599999
 30
0.0
 11
9063.6818835852664
 21
14645.58018299998
 31
0.0
  0
LINE
  5
5768
  8
0-5
  6
CONTINUOUS
 62
     6
 10
9063.6818835852664
 20
14645.58018299998
 30
0.0
 11
9137.0180975852636
 21
14790.262206999991
 31
0.0
  0
LINE
  5
5769
  8
0-5
  6
CONTINUOUS
 62
     6
 10
9063.6818835852664
 20
14645.58018299998
 30
0.0
 11
9114.5683775852594
 21
14629.61635599999
 31
0.0
  0
LINE
  5
576A
  8
0-5
  6
CONTINUOUS
 62
     6
 10
10403.251879585259
 20
14455.528583999991
 30
0.0
 11
10359.52629358527
 21
14299.326751999981
 31
0.0
  0
LINE
  5
576B
  8
0-5
  6
CONTINUOUS
 62
     6
 10
10359.52629358527
 20
14299.326751999981
 30
0.0
 11
10451.54718358527
 21
14432.903675999971
 31
0.0
  0
LINE
  5
576C
  8
0-5
  6
CONTINUOUS
 62
     6
 10
10359.52629358527
 20
14299.326751999981
 30
0.0
 11
10403.251879585259
 21
14455.528583999991
 31
0.0
  0
LINE
  5
576D
  8
0-5
  6
CONTINUOUS
 62
     6
 10
10403.251879585259
 20
14455.528583999991
 30
0.0
 11
10451.54718358527
 21
14432.903675999971
 31
0.0
  0
LINE
  5
576E
  8
0-5
  6
CONTINUOUS
 62
     6
 10
10451.54718358527
 20
14432.903675999971
 30
0.0
 11
10359.52629358527
 21
14299.326751999981
 31
0.0
  0
LINE
  5
576F
  8
0-5
  6
CONTINUOUS
 62
     6
 10
10451.54718358527
 20
14432.903675999971
 30
0.0
 11
10403.251879585259
 21
14455.528583999991
 31
0.0
  0
LINE
  5
5770
  8
0-5
  6
CONTINUOUS
 62
     6
 10
10613.57077958527
 20
16752.385345999981
 30
0.0
 11
10516.375427585261
 21
16622.526946999998
 31
0.0
  0
LINE
  5
5771
  8
0-5
  6
CONTINUOUS
 62
     6
 10
10516.375427585261
 20
16622.526946999998
 30
0.0
 11
10650.43535458527
 21
16713.84411899999
 31
0.0
  0
LINE
  5
5772
  8
0-5
  6
CONTINUOUS
 62
     6
 10
10516.375427585261
 20
16622.526946999998
 30
0.0
 11
10613.57077958527
 21
16752.385345999981
 31
0.0
  0
LINE
  5
5773
  8
0-5
  6
CONTINUOUS
 62
     6
 10
10613.57077958527
 20
16752.385345999981
 30
0.0
 11
10650.43535458527
 21
16713.84411899999
 31
0.0
  0
LINE
  5
5774
  8
0-5
  6
CONTINUOUS
 62
     6
 10
10650.43535458527
 20
16713.84411899999
 30
0.0
 11
10516.375427585261
 21
16622.526946999998
 31
0.0
  0
LINE
  5
5775
  8
0-5
  6
CONTINUOUS
 62
     6
 10
10650.43535458527
 20
16713.84411899999
 30
0.0
 11
10613.57077958527
 21
16752.385345999981
 31
0.0
  0
LINE
  5
5776
  8
0-5
  6
CONTINUOUS
 62
     6
 10
12445.677581585251
 20
16031.78119699998
 30
0.0
 11
12478.01796658527
 21
15872.830803999979
 31
0.0
  0
LINE
  5
5777
  8
0-5
  6
CONTINUOUS
 62
     6
 10
12478.01796658527
 20
15872.830803999979
 30
0.0
 11
12395.87487358527
 21
16012.699626999991
 31
0.0
  0
LINE
  5
5778
  8
0-5
  6
CONTINUOUS
 62
     6
 10
12478.01796658527
 20
15872.830803999979
 30
0.0
 11
12445.677581585251
 21
16031.78119699998
 31
0.0
  0
LINE
  5
5779
  8
0-5
  6
CONTINUOUS
 62
     6
 10
12445.677581585251
 20
16031.78119699998
 30
0.0
 11
12395.87487358527
 21
16012.699626999991
 31
0.0
  0
LINE
  5
577A
  8
0-5
  6
CONTINUOUS
 62
     6
 10
12395.87487358527
 20
16012.699626999991
 30
0.0
 11
12478.01796658527
 21
15872.830803999979
 31
0.0
  0
LINE
  5
577B
  8
0-5
  6
CONTINUOUS
 62
     6
 10
12395.87487358527
 20
16012.699626999991
 30
0.0
 11
12445.677581585251
 21
16031.78119699998
 31
0.0
  0
LINE
  5
577C
  8
0-5
  6
CONTINUOUS
 62
     6
 10
9304.3576905852606
 20
20111.399808999991
 30
0.0
 11
9263.9636345852705
 21
19954.301254999998
 31
0.0
  0
LINE
  5
577D
  8
0-5
  6
CONTINUOUS
 62
     6
 10
9263.9636345852705
 20
19954.301254999998
 30
0.0
 11
9353.1231315852674
 21
20089.807219999992
 31
0.0
  0
LINE
  5
577E
  8
0-5
  6
CONTINUOUS
 62
     6
 10
9263.9636345852705
 20
19954.301254999998
 30
0.0
 11
9304.3576905852606
 21
20111.399808999991
 31
0.0
  0
LINE
  5
577F
  8
0-5
  6
CONTINUOUS
 62
     6
 10
9304.3576905852606
 20
20111.399808999991
 30
0.0
 11
9353.1231315852674
 21
20089.807219999992
 31
0.0
  0
LINE
  5
5780
  8
0-5
  6
CONTINUOUS
 62
     6
 10
9353.1231315852674
 20
20089.807219999992
 30
0.0
 11
9263.9636345852705
 21
19954.301254999998
 31
0.0
  0
LINE
  5
5781
  8
0-5
  6
CONTINUOUS
 62
     6
 10
9353.1231315852674
 20
20089.807219999992
 30
0.0
 11
9304.3576905852606
 21
20111.399808999991
 31
0.0
  0
LINE
  5
5782
  8
0-5
  6
CONTINUOUS
 62
     6
 10
11327.09617058527
 20
19681.94721200001
 30
0.0
 11
11314.597489585271
 21
19520.222522999989
 31
0.0
  0
LINE
  5
5783
  8
0-5
  6
CONTINUOUS
 62
     6
 10
11314.597489585271
 20
19520.222522999989
 30
0.0
 11
11378.87344858526
 21
19669.15160400001
 31
0.0
  0
LINE
  5
5784
  8
0-5
  6
CONTINUOUS
 62
     6
 10
11314.597489585271
 20
19520.222522999989
 30
0.0
 11
11327.09617058527
 21
19681.94721200001
 31
0.0
  0
LINE
  5
5785
  8
0-5
  6
CONTINUOUS
 62
     6
 10
11327.09617058527
 20
19681.94721200001
 30
0.0
 11
11378.87344858526
 21
19669.15160400001
 31
0.0
  0
LINE
  5
5786
  8
0-5
  6
CONTINUOUS
 62
     6
 10
11378.87344858526
 20
19669.15160400001
 30
0.0
 11
11314.597489585271
 21
19520.222522999989
 31
0.0
  0
LINE
  5
5787
  8
0-5
  6
CONTINUOUS
 62
     6
 10
11378.87344858526
 20
19669.15160400001
 30
0.0
 11
11327.09617058527
 21
19681.94721200001
 31
0.0
  0
LINE
  5
5788
  8
2-0
  6
DASHED3
 62
     6
 10
9266.5182035852558
 20
19696.324454999991
 30
0.0
 11
14401.518203585259
 21
19696.324454999991
 31
0.0
  0
LINE
  5
5789
  8
0-6
  6
CONTINUOUS
 62
     6
 10
9224.0179395852683
 20
19535.931982999991
 30
0.0
 11
9224.0179395852683
 21
19781.324982999991
 31
0.0
  0
LINE
  5
578A
  8
0-6
  6
CONTINUOUS
 62
     6
 10
9266.5182035852558
 20
19514.390862
 30
0.0
 11
9266.5182035852558
 21
19781.324982999991
 31
0.0
  0
LINE
  5
578B
  8
2-0
  6
DASHED3
 62
     6
 10
9224.0179395852683
 20
19781.324982999991
 30
0.0
 11
14444.017477585259
 21
19781.324982999991
 31
0.0
  0
LINE
  5
578C
  8
2-0
  6
DASHED3
 62
     6
 10
13457.913618863809
 20
17122.824534999982
 30
0.0
 11
14401.518203585259
 21
17122.824534999982
 31
0.0
  0
LINE
  5
578D
  8
2-0
  6
DASHED3
 62
     6
 10
13301.52760512132
 20
17201.82514199998
 30
0.0
 11
14401.518203585259
 21
17201.82514199998
 31
0.0
  0
LINE
  5
578E
  8
2-0
  6
DASHED3
 62
     6
 10
14401.518203585259
 20
16646.149331271561
 30
0.0
 11
14401.518203585259
 21
19781.324982999991
 31
0.0
  0
LINE
  5
578F
  8
2-0
  6
DASHED3
 62
     6
 10
14444.017477585259
 20
16624.60919927157
 30
0.0
 11
14444.017477585259
 21
19781.324982999991
 31
0.0
  0
LINE
  5
5790
  8
2-0
  6
DASHED3
 62
     6
 10
11106.75744665307
 20
18581.824533999981
 30
0.0
 11
14401.518203585259
 21
18581.824533999981
 31
0.0
  0
LINE
  5
5791
  8
2-0
  6
DASHED3
 62
     6
 10
10929.15895190974
 20
18671.825325999991
 30
0.0
 11
14401.518203585259
 21
18671.825325999991
 31
0.0
  0
LINE
  5
5792
  8
2-0
  6
DASHED3
 62
     6
 10
12592.01844158524
 20
17576.698695055919
 30
0.0
 11
12592.01844158524
 21
17879.433966055931
 31
0.0
  0
LINE
  5
5793
  8
2-0
  6
DASHED3
 62
     6
 10
12478.01796658527
 20
17855.624317055899
 30
0.0
 11
12478.01796658527
 21
17879.433966055931
 31
0.0
  0
LINE
  5
5794
  8
2-0
  6
DASHED3
 62
     6
 10
12535.018203585239
 20
17721.15957905594
 30
0.0
 11
12535.018203585239
 21
18581.824533999981
 31
0.0
  0
LINE
  5
5795
  8
2-0
  6
DASHED3
 62
     6
 10
12535.018203585239
 20
18671.825325999991
 30
0.0
 11
12535.018203585239
 21
18581.824533999981
 31
0.0
  0
LINE
  5
5796
  8
2-0
  6
DASHED3
 62
     6
 10
12465.018467585271
 20
19735.326909999989
 30
0.0
 11
10326.072537462271
 21
18977.448721193508
 31
0.0
  0
LINE
  5
5797
  8
2-0
  6
DASHED3
 62
     6
 10
12465.018467585271
 20
18626.826909999982
 30
0.0
 11
9336.5189295852688
 21
19735.326909999989
 31
0.0
  0
LINE
  5
5798
  8
0-6
  6
CONTINUOUS
 62
     6
 10
12465.018467585271
 20
18626.826909999982
 30
0.0
 11
11711.432913926339
 21
18275.39586163867
 31
0.0
  0
LINE
  5
5799
  8
2-0
  6
DASHED3
 62
     6
 10
12605.01793958525
 20
18626.826909999982
 30
0.0
 11
14331.518467585251
 21
17167.826909999982
 31
0.0
  0
LINE
  5
579A
  8
2-0
  6
DASHED3
 62
     6
 10
12605.01793958525
 20
19735.326909999989
 30
0.0
 11
14331.518467585251
 21
18626.826909999982
 31
0.0
  0
LINE
  5
579B
  8
2-0
  6
DASHED3
 62
     6
 10
13971.344565403
 20
16863.457629619501
 30
0.0
 11
14331.518467585251
 21
17167.826909999982
 31
0.0
  0
LINE
  5
579C
  8
2-0
  6
DASHED3
 62
     6
 10
12605.01793958525
 20
18626.826909999982
 30
0.0
 11
14331.518467585251
 21
19735.326909999989
 31
0.0
  0
LINE
  5
579D
  8
2-0
  6
DASHED3
 62
     6
 10
12725.293480879191
 20
17269.46720022981
 30
0.0
 11
14331.518467585251
 21
18626.826909999982
 31
0.0
  0
LINE
  5
579E
  8
0-7
  6
CONTINUOUS
 62
     6
 10
14401.518203585259
 20
20977.825194000001
 30
0.0
 11
14401.518203585259
 21
20027.824533999999
 31
0.0
  0
LINE
  5
579F
  8
0-7
  6
CONTINUOUS
 62
     6
 10
12535.018203585239
 20
20907.82545800001
 30
0.0
 11
12535.018203585239
 21
20027.824533999999
 31
0.0
  0
LINE
  5
57A0
  8
2-0
  6
CENTER2
 62
     6
 10
7937.016613585256
 20
19735.326909999989
 30
0.0
 11
9583.5173195852603
 21
19735.326909999989
 31
0.0
  0
LINE
  5
57A1
  8
0-7
  6
CONTINUOUS
 62
     6
 10
9266.5182035852558
 20
20907.82545800001
 30
0.0
 11
9266.5182035852558
 21
20027.824533999999
 31
0.0
  0
LINE
  5
57A2
  8
2-0
  6
CENTER2
 62
     6
 10
7937.016613585256
 20
17167.826909999982
 30
0.0
 11
9583.5173195852603
 21
17167.826909999982
 31
0.0
  0
LINE
  5
57A3
  8
2-0
  6
CENTER2
 62
     6
 10
7937.016613585256
 20
14249.826909999991
 30
0.0
 11
9583.5173195852603
 21
14249.826909999991
 31
0.0
  0
LINE
  5
57A4
  8
2-0
  6
CENTER2
 62
     6
 10
14074.01865258524
 20
17167.826909999982
 30
0.0
 11
14700.28298358525
 21
17167.826909999982
 31
0.0
  0
LINE
  5
57A5
  8
2-0
  6
CENTER2
 62
     6
 10
14074.01865258524
 20
14249.826909999991
 30
0.0
 11
14700.28298358525
 21
14249.826909999991
 31
0.0
  0
LINE
  5
57A6
  8
2-0
  6
CENTER2
 62
     6
 10
9047.7200355852619
 20
15708.826909999991
 30
0.0
 11
14620.31637158525
 21
15708.826909999991
 31
0.0
  0
LINE
  5
57A7
  8
2-0
  6
CENTER2
 62
     6
 10
9047.7200355852619
 20
18626.826909999982
 30
0.0
 11
14620.31637158525
 21
18626.826909999982
 31
0.0
  0
LINE
  5
57A8
  8
2-0
  6
DASHED3
 62
     6
 10
12478.01796658527
 20
18671.825325999991
 30
0.0
 11
12478.01796658527
 21
19696.324454999991
 31
0.0
  0
LINE
  5
57A9
  8
2-0
  6
DASHED3
 62
     6
 10
12535.018203585239
 20
18671.825325999991
 30
0.0
 11
12535.018203585239
 21
19696.324454999991
 31
0.0
  0
LINE
  5
57AA
  8
2-0
  6
DASHED3
 62
     6
 10
12592.01844158524
 20
18671.825325999991
 30
0.0
 11
12592.01844158524
 21
19696.324454999991
 31
0.0
  0
LINE
  5
57AB
  8
2-0
  6
DASHED3
 62
     6
 10
12478.01796658527
 20
17879.433966055931
 30
0.0
 11
12478.01796658527
 21
18581.824533999981
 31
0.0
  0
LINE
  5
57AC
  8
2-0
  6
DASHED3
 62
     6
 10
12592.01844158524
 20
17879.433966055931
 30
0.0
 11
12592.01844158524
 21
18581.824533999981
 31
0.0
  0
ARC
  5
57AD
  8
0-1
  6
CONTINUOUS
 62
     3
 10
9186.0180715852694
 20
19952.824533999988
 30
0.0
 40
5.0
 50
90.0
 51
180.0
  0
ARC
  5
57AE
  8
0-1
  6
CONTINUOUS
 62
     3
 10
9249.5180585852577
 20
19952.824533999988
 30
0.0
 40
5.0
 50
0.0
 51
90.0
  0
ARC
  5
57AF
  8
0-1
  6
CONTINUOUS
 62
     3
 10
9249.5180585852577
 20
19922.824929999992
 30
0.0
 40
5.0
 50
269.9999850001808
 51
0.0
  0
ARC
  5
57B0
  8
0-1
  6
CONTINUOUS
 62
     3
 10
14418.519338585251
 20
19922.824929999992
 30
0.0
 40
5.0
 50
180.0
 51
269.9999850001808
  0
ARC
  5
57B1
  8
0-1
  6
CONTINUOUS
 62
     3
 10
14418.519338585251
 20
19952.824533999988
 30
0.0
 40
5.0
 50
90.0
 51
180.0
  0
ARC
  5
57B2
  8
0-1
  6
CONTINUOUS
 62
     3
 10
14482.01833558525
 20
19952.824533999988
 30
0.0
 40
5.0
 50
0.0
 51
90.0
  0
CIRCLE
  5
57B3
  8
0-4
  6
CONTINUOUS
 62
     4
 10
12535.018203585239
 20
21107.826118000001
 30
0.0
 40
199.9999949999999
  0
CIRCLE
  5
57B4
  8
0-4
  6
CONTINUOUS
 62
     4
 10
9266.5182035852558
 20
21107.826118000001
 30
0.0
 40
199.9999949999999
  0
CIRCLE
  5
57B5
  8
0-4
  6
CONTINUOUS
 62
     4
 10
7737.0169435852567
 20
19735.326909999989
 30
0.0
 40
199.9999949999999
  0
CIRCLE
  5
57B6
  8
0-4
  6
CONTINUOUS
 62
     4
 10
7737.0169435852567
 20
17167.826909999982
 30
0.0
 40
199.9999949999999
  0
CIRCLE
  5
57B7
  8
0-4
  6
CONTINUOUS
 62
     4
 10
7737.0169435852567
 20
14249.826909999991
 30
0.0
 40
199.9999949999999
  0
CIRCLE
  5
57B8
  8
0-4
  6
CONTINUOUS
 62
     4
 10
14401.518203585259
 20
21177.823874999998
 30
0.0
 40
199.9999949999999
  0
TEXT
  5
57B9
  8
0-4
  6
CONTINUOUS
 62
     7
 10
14346.622193585261
 20
21093.08662300001
 30
0.0
 40
160.0
  1
3
 72
     4
 11
14399.955526918589
 21
21173.08662300001
 31
0.0
  0
TEXT
  5
57BA
  8
0-4
  6
CONTINUOUS
 62
     7
 10
12486.75556158526
 20
21015.339050999999
 30
0.0
 40
160.0
  1
2
 72
     4
 11
12540.08889491859
 21
21095.339050999999
 31
0.0
  0
TEXT
  5
57BB
  8
0-4
  6
CONTINUOUS
 62
     7
 10
9220.0994825852667
 20
21017.304713000001
 30
0.0
 40
160.0
  1
1
 72
     4
 11
9246.7661492519328
 21
21097.304713000001
 31
0.0
  0
TEXT
  5
57BC
  8
0-4
  6
CONTINUOUS
 62
     7
 10
7684.1454865852602
 20
19647.642155000001
 30
0.0
 40
160.0
  1
C
 72
     4
 11
7737.4788199185923
 21
19727.642155000001
 31
0.0
  0
TEXT
  5
57BD
  8
0-4
  6
CONTINUOUS
 62
     7
 10
7684.1454865852602
 20
17080.14215499999
 30
0.0
 40
160.0
  1
B
 72
     4
 11
7737.4788199185923
 21
17160.14215499999
 31
0.0
  0
TEXT
  5
57BE
  8
0-4
  6
CONTINUOUS
 62
     7
 10
7684.1454865852602
 20
14162.14314499998
 30
0.0
 40
160.0
  1
A
 72
     4
 11
7737.4788199185923
 21
14242.14314499998
 31
0.0
  0
TEXT
  5
57BF
  8
0-5
  6
CONTINUOUS
 62
     7
 10
11576.886671585249
 20
20267.827305999988
 30
0.0
 40
160.0
  1
屋根
 72
     4
 11
11747.553338251921
 21
20347.827305999988
 31
0.0
  0
TEXT
  5
57C0
  8
0-5
  6
CONTINUOUS
 62
     7
 10
10590.285702585261
 20
14701.15516699999
 30
0.0
 40
160.0
  1
桁（前）
 72
     4
 11
10910.285702585261
 21
14781.15516699999
 31
0.0
  0
TEXT
  5
57C1
  8
0-5
  6
CONTINUOUS
 62
     7
 10
11497.811832585259
 20
13337.327239999981
 30
0.0
 40
160.0
  1
鼻隠し前
 72
     4
 11
11860.478499251931
 21
13417.327239999981
 31
0.0
  0
TEXT
  5
57C2
  8
0-5
  6
CONTINUOUS
 62
     7
 10
7530.6194685852606
 20
12937.326909999991
 30
0.0
 40
160.0
  1
ケラバ 左
 72
     4
 11
7946.6194685852606
 21
13017.326909999991
 31
0.0
  0
TEXT
  5
57C3
  8
0-5
  6
CONTINUOUS
 62
     7
 10
9511.0461545852722
 20
19045.524570999991
 30
0.0
 40
160.0
  1
上枠
 72
     4
 11
9681.7128212519383
 21
19125.524570999991
 31
0.0
  0
TEXT
  5
57C4
  8
0-5
  6
CONTINUOUS
 62
     7
 10
9808.2551125852769
 20
20989.264832000001
 30
0.0
 40
160.0
  1
鼻隠しコーナー後
 72
     4
 11
10554.921779251939
 21
21069.264832000001
 31
0.0
  0
TEXT
  5
57C5
  8
0-5
  6
CONTINUOUS
 62
     7
 10
11385.65329958525
 20
16377.853502
 30
0.0
 40
160.0
  1
梁　梁補強
 72
     4
 11
11844.31996625192
 21
16457.853502000002
 31
0.0
  0
TEXT
  5
57C6
  8
0-5
  6
CONTINUOUS
 62
     7
 10
11605.50358158523
 20
16380.226944999989
 30
0.0
 40
160.0
  1
+
 72
     4
 11
11658.836914918569
 21
16460.226944999991
 31
0.0
  0
TEXT
  5
57C7
  8
0-5
  6
CONTINUOUS
 62
     7
 10
10817.635391585251
 20
16914.143685999981
 30
0.0
 40
160.0
  1
ブレース
 72
     4
 11
11180.30205825192
 21
16999.47701933331
 31
0.0
  0
TEXT
  5
57C8
  8
0-6
  6
CONTINUOUS
 62
     7
 10
9780.8021097300643
 20
20267.823346000001
 30
0.0
 40
160.0
  1
桁後+桁後補強
 72
     4
 11
10415.46877639673
 21
20347.823346000001
 31
0.0
  0
LINE
  5
57C9
  8
0-6
  6
CONTINUOUS
 62
     6
 10
11224.517517585249
 20
19781.324982999991
 30
0.0
 11
11091.123569704019
 21
20187.825061999989
 31
0.0
  0
LINE
  5
57CA
  8
0-6
  6
CONTINUOUS
 62
     6
 10
9741.3812161347978
 20
20187.825061999989
 30
0.0
 11
11091.123569704019
 21
20187.825061999989
 31
0.0
  0
LINE
  5
57CB
  8
0-6
  6
CONTINUOUS
 62
     6
 10
11200.91006221797
 20
19941.806421424921
 30
0.0
 11
11150.136418445019
 21
19925.472905240149
 31
0.0
  0
LINE
  5
57CC
  8
0-6
  6
CONTINUOUS
 62
     6
 10
11200.91006221797
 20
19941.806421424921
 30
0.0
 11
11224.517517585249
 21
19781.324982999991
 31
0.0
  0
LINE
  5
57CD
  8
0-6
  6
CONTINUOUS
 62
     6
 10
11150.136418445019
 20
19925.472905240149
 30
0.0
 11
11200.91006221797
 21
19941.806421424921
 31
0.0
  0
LINE
  5
57CE
  8
0-6
  6
CONTINUOUS
 62
     6
 10
11224.517517585249
 20
19781.324982999991
 30
0.0
 11
11150.136418445019
 21
19925.472905240149
 31
0.0
  0
LINE
  5
57CF
  8
0-6
  6
CONTINUOUS
 62
     6
 10
11224.517517585249
 20
19781.324982999991
 30
0.0
 11
11200.91006221797
 21
19941.806421424921
 31
0.0
  0
LINE
  5
57D0
  8
0-6
  6
CONTINUOUS
 62
     6
 10
11150.136418445019
 20
19925.472905240149
 30
0.0
 11
11224.517517585249
 21
19781.324982999991
 31
0.0
  0
LINE
  5
57D1
  8
SUNPOU
  6
CONTINUOUS
 10
8337.0184275852607
 20
19957.822819000001
 30
0.0
 11
8337.0184275852607
 21
20754.790086778459
 31
0.0
  0
LINE
  5
57D2
  8
SUNPOU
  6
CONTINUOUS
 10
8337.0184275852607
 20
14057.331594999991
 30
0.0
 11
8337.0184275852607
 21
13381.905479189611
 31
0.0
  0
LINE
  5
57D3
  8
0-1
  6
CONTINUOUS
 62
     3
 10
14061.51900958525
 20
16817.904733578442
 30
0.0
 11
14061.51900958527
 21
19937.822819000001
 31
0.0
  0
LINE
  5
57D4
  8
0-1
  6
CONTINUOUS
 62
     3
 10
14024.51883758527
 20
16836.595893850092
 30
0.0
 11
14024.518837585259
 21
19937.822819000001
 31
0.0
  0
LINE
  5
57D5
  8
0-1
  6
CONTINUOUS
 62
     3
 10
14261.51966858525
 20
16716.871571575772
 30
0.0
 11
14261.51966858525
 21
19937.822819000001
 31
0.0
  0
LINE
  5
57D6
  8
0-1
  6
CONTINUOUS
 62
     3
 10
14298.51786158524
 20
16698.181411023961
 30
0.0
 11
14298.517861585249
 21
19937.822819000001
 31
0.0
  0
TEXT
  5
57D7
  8
2-0
  6
CONTINUOUS
 62
     7
 10
14778.614514585221
 20
15332.30763000029
 30
0.0
 40
160.0
  1
桁中B +  桁中補強B
 50
359.9997639999815
 72
     4
 11
15711.948177428831
 21
15412.30378562075
 31
0.0
  0
TEXT
  5
57D8
  8
2-0
  6
CONTINUOUS
 62
     7
 10
14778.61451458525
 20
17640.028411999989
 30
0.0
 40
160.0
  1
桁中A +  桁中補強A
 72
     4
 11
15711.94784791858
 21
17720.028411999989
 31
0.0
  0
TEXT
  5
57D9
  8
2-0
  6
CONTINUOUS
 62
     7
 10
14778.614514585221
 20
19094.040236000281
 30
0.0
 40
160.0
  1
桁中B +  桁中補強B
 50
359.9997639999815
 72
     4
 11
15711.948177428831
 21
19174.036391620739
 31
0.0
  0
TEXT
  5
57DA
  8
2-0
  6
CONTINUOUS
 62
     7
 10
14828.110396585231
 20
16174.05336700012
 30
0.0
 40
160.0
  1
ブレース
 50
359.99973399997828
 72
     4
 11
15190.77745941449
 21
16259.385016624899
 31
0.0
  0
LINE
  5
57DB
  8
2-0
  6
CONTINUOUS
 62
     6
 10
14748.106173585251
 20
16094.04914399999
 30
0.0
 11
15628.10907758525
 21
16094.04914399999
 31
0.0
  0
LINE
  5
57DC
  8
2-0
  6
CONTINUOUS
 62
     6
 10
14685.784990585251
 20
15255.515175999981
 30
0.0
 11
16680.229141585231
 21
15255.515175999981
 31
0.0
  0
LINE
  5
57DD
  8
2-0
  6
CONTINUOUS
 62
     6
 10
14685.784990585251
 20
19017.246792999991
 30
0.0
 11
16680.229141585231
 21
19017.246792999991
 31
0.0
  0
LINE
  5
57DE
  8
2-0
  6
CONTINUOUS
 62
     6
 10
14685.784990585251
 20
17563.246844999991
 30
0.0
 11
16680.229141585231
 21
17563.246844999991
 31
0.0
  0
LINE
  5
57DF
  8
0-6
  6
CONTINUOUS
 62
     6
 10
13788.744370585249
 20
17259.188831999982
 30
0.0
 11
14685.784990585251
 21
17563.242885999989
 31
0.0
  0
LINE
  5
57E0
  8
0-6
  6
CONTINUOUS
 62
     6
 10
13788.744370585249
 20
18713.18878
 30
0.0
 11
14685.784990585251
 21
19017.242833999961
 31
0.0
  0
LINE
  5
57E1
  8
0-6
  6
CONTINUOUS
 62
     6
 10
13797.303808585249
 20
18687.934080999981
 30
0.0
 11
13780.184932585251
 21
18738.447436999992
 31
0.0
  0
LINE
  5
57E2
  8
0-6
  6
CONTINUOUS
 62
     6
 10
13797.303808585249
 20
18687.934080999981
 30
0.0
 11
13637.212223585249
 21
18661.832148999991
 31
0.0
  0
LINE
  5
57E3
  8
0-6
  6
CONTINUOUS
 62
     6
 10
13780.184932585251
 20
18738.447436999992
 30
0.0
 11
13797.303808585249
 21
18687.934080999981
 31
0.0
  0
LINE
  5
57E4
  8
0-6
  6
CONTINUOUS
 62
     6
 10
13637.212223585249
 20
18661.832148999991
 30
0.0
 11
13780.184932585251
 21
18738.447436999992
 31
0.0
  0
LINE
  5
57E5
  8
0-6
  6
CONTINUOUS
 62
     6
 10
13637.212223585249
 20
18661.832148999991
 30
0.0
 11
13797.303808585249
 21
18687.934080999981
 31
0.0
  0
LINE
  5
57E6
  8
0-6
  6
CONTINUOUS
 62
     6
 10
13780.184932585251
 20
18738.447436999992
 30
0.0
 11
13637.212223585249
 21
18661.832148999991
 31
0.0
  0
LINE
  5
57E7
  8
0-6
  6
CONTINUOUS
 62
     6
 10
13797.303808585249
 20
17233.934133999999
 30
0.0
 11
13780.184932585251
 21
17284.447488999991
 31
0.0
  0
LINE
  5
57E8
  8
0-6
  6
CONTINUOUS
 62
     6
 10
13797.303808585249
 20
17233.934133999999
 30
0.0
 11
13637.212223585249
 21
17207.828242999982
 31
0.0
  0
LINE
  5
57E9
  8
0-6
  6
CONTINUOUS
 62
     6
 10
13780.184932585251
 20
17284.447488999991
 30
0.0
 11
13797.303808585249
 21
17233.934133999999
 31
0.0
  0
LINE
  5
57EA
  8
0-6
  6
CONTINUOUS
 62
     6
 10
13637.212223585249
 20
17207.828242999982
 30
0.0
 11
13780.184932585251
 21
17284.447488999991
 31
0.0
  0
LINE
  5
57EB
  8
0-6
  6
CONTINUOUS
 62
     6
 10
13637.212223585249
 20
17207.828242999982
 30
0.0
 11
13797.303808585249
 21
17233.934133999999
 31
0.0
  0
LINE
  5
57EC
  8
0-6
  6
CONTINUOUS
 62
     6
 10
13780.184932585251
 20
17284.447488999991
 30
0.0
 11
13637.212223585249
 21
17207.828242999982
 31
0.0
  0
LINE
  5
57ED
  8
0-6
  6
CONTINUOUS
 62
     6
 10
14275.840548585251
 20
15915.11650099999
 30
0.0
 11
14259.604537585241
 21
15965.918865999991
 31
0.0
  0
LINE
  5
57EE
  8
0-6
  6
CONTINUOUS
 62
     6
 10
14275.840548585251
 20
15915.11650099999
 30
0.0
 11
14115.317428585249
 21
15891.809648999961
 31
0.0
  0
LINE
  5
57EF
  8
0-6
  6
CONTINUOUS
 62
     6
 10
14259.604537585241
 20
15965.918865999991
 30
0.0
 11
14275.840548585251
 21
15915.11650099999
 31
0.0
  0
LINE
  5
57F0
  8
0-6
  6
CONTINUOUS
 62
     6
 10
14115.317428585249
 20
15891.809648999961
 30
0.0
 11
14259.604537585241
 21
15965.918865999991
 31
0.0
  0
LINE
  5
57F1
  8
0-6
  6
CONTINUOUS
 62
     6
 10
14115.317428585249
 20
15891.809648999961
 30
0.0
 11
14275.840548585251
 21
15915.11650099999
 31
0.0
  0
LINE
  5
57F2
  8
0-6
  6
CONTINUOUS
 62
     6
 10
14259.604537585241
 20
15965.918865999991
 30
0.0
 11
14115.317428585249
 21
15891.809648999961
 31
0.0
  0
LINE
  5
57F3
  8
0-6
  6
CONTINUOUS
 62
     6
 10
13776.63367558525
 20
15580.92229699999
 30
0.0
 11
13795.983470585241
 21
15630.621079999981
 31
0.0
  0
LINE
  5
57F4
  8
0-6
  6
CONTINUOUS
 62
     6
 10
13776.63367558525
 20
15580.92229699999
 30
0.0
 11
13637.212223585249
 21
15663.82849399999
 31
0.0
  0
LINE
  5
57F5
  8
0-6
  6
CONTINUOUS
 62
     6
 10
13795.983470585241
 20
15630.621079999981
 30
0.0
 11
13776.63367558525
 21
15580.92229699999
 31
0.0
  0
LINE
  5
57F6
  8
0-6
  6
CONTINUOUS
 62
     6
 10
13637.212223585249
 20
15663.82849399999
 30
0.0
 11
13795.983470585241
 21
15630.621079999981
 31
0.0
  0
LINE
  5
57F7
  8
0-6
  6
CONTINUOUS
 62
     6
 10
13637.212223585249
 20
15663.82849399999
 30
0.0
 11
13776.63367558525
 21
15580.92229699999
 31
0.0
  0
LINE
  5
57F8
  8
0-6
  6
CONTINUOUS
 62
     6
 10
13795.983470585241
 20
15630.621079999981
 30
0.0
 11
13637.212223585249
 21
15663.82849399999
 31
0.0
  0
LINE
  5
57F9
  8
0-6
  6
CONTINUOUS
 62
     6
 10
13786.309562585249
 20
15605.772182999979
 30
0.0
 11
14685.784990585251
 21
15255.51616599999
 31
0.0
  0
LINE
  5
57FA
  8
0-6
  6
CONTINUOUS
 62
     6
 10
14115.317428585249
 20
15891.809648999961
 30
0.0
 11
14748.106173585251
 21
16094.04914399999
 31
0.0
  0
LINE
  5
57FB
  8
0-1
  6
CONTINUOUS
 62
     4
 10
14987.346455999979
 20
6795.509251000005
 30
0.0
 11
19886.143012115241
 21
6795.5092510000031
 31
0.0
  0
LINE
  5
57FE
  8
WAKUSEN-01
 10
868.00000000000193
 20
22484.000000000011
 30
0.0
 11
32764.000000000011
 21
22484.000000000011
 31
0.0
  0
LINE
  5
5801
  8
WAKUSEN-01
 10
20560.0
 20
2484.0
 30
0.0
 11
32764.0
 21
2484.0
 31
0.0
  0
LINE
  5
5802
  8
WAKUSEN-02
 10
20560.0
 20
1655.9999999999991
 30
0.0
 11
26868.0
 21
1655.9999999999991
 31
0.0
  0
TEXT
  5
5803
  8
WAKUMOJI-01
 10
20670.260259962761
 20
2125.9030093393221
 30
0.0
 40
240.0
  1
名　称
  7
WAKUMOJI
  0
TEXT
  5
5804
  8
WAKUMOJI-01
 10
20656.505485091919
 20
1319.12897497982
 30
0.0
 40
240.0
  1
機種名
  7
WAKUMOJI
  0
LINE
  5
5807
  8
YODOROGO
 10
29977.604341291921
 20
1995.7494964292871
 30
0.0
 11
29829.604341291921
 21
1995.7494964292871
 31
0.0
1001
AUTOCAD_POSTSCRIPT_FIGURE
1002
{
1000
PSFILL
1000
Grayscale
1000
Grayscale
1070
    25
1002
}
  0
LINE
  5
5808
  8
YODOROGO
 10
29829.604341291921
 20
1947.749496429288
 30
0.0
 11
29977.604341291921
 21
1947.749496429288
 31
0.0
1001
AUTOCAD_POSTSCRIPT_FIGURE
1002
{
1000
PSFILL
1000
Grayscale
1000
Grayscale
1070
    25
1002
}
  0
LINE
  5
5809
  8
YODOROGO
 10
29977.604341291921
 20
1907.7494964292871
 30
0.0
 11
29829.604341291921
 21
1907.7494964292871
 31
0.0
1001
AUTOCAD_POSTSCRIPT_FIGURE
1002
{
1000
PSFILL
1000
Grayscale
1000
Grayscale
1070
    25
1002
}
  0
LINE
  5
580A
  8
YODOROGO
 10
29829.604341291921
 20
1859.749496429288
 30
0.0
 11
29977.604341291921
 21
1859.749496429288
 31
0.0
1001
AUTOCAD_POSTSCRIPT_FIGURE
1002
{
1000
PSFILL
1000
Grayscale
1000
Grayscale
1070
    25
1002
}
  0
LINE
  5
580B
  8
YODOROGO
 10
29977.604341291921
 20
1819.7494964292871
 30
0.0
 11
29829.604341291921
 21
1819.7494964292871
 31
0.0
1001
AUTOCAD_POSTSCRIPT_FIGURE
1002
{
1000
PSFILL
1000
Grayscale
1000
Grayscale
1070
    25
1002
}
  0
LINE
  5
580C
  8
YODOROGO
 10
29921.60434129191
 20
1707.749496429288
 30
0.0
 11
29977.604341291921
 21
1707.749496429288
 31
0.0
1001
AUTOCAD_POSTSCRIPT_FIGURE
1002
{
1000
PSFILL
1000
Grayscale
1000
Grayscale
1070
    25
1002
}
  0
LINE
  5
580D
  8
YODOROGO
 10
29737.604341291921
 20
1427.749496429288
 30
0.0
 11
29937.604341291932
 21
1481.3393349155101
 31
0.0
  0
LINE
  5
580E
  8
YODOROGO
 10
29949.60434129191
 20
1707.749496429288
 30
0.0
 11
29885.604341291921
 21
1707.749496429288
 31
0.0
  0
ARC
  5
580F
  8
YODOROGO
 10
30254.34774982791
 20
1807.864609233261
 30
0.0
 40
381.88686420564721
 50
213.96111677667841
 51
264.47872074317792
  0
ARC
  5
5810
  8
YODOROGO
 10
30254.347749827921
 20
1807.864609233302
 30
0.0
 40
381.8868642056816
 50
208.14114420486601
 51
212.9210361185994
  0
LINE
  5
5811
  8
YODOROGO
 10
29771.409872985321
 20
1556.807661346234
 30
0.0
 11
29933.78413250855
 21
1600.3157130570869
 31
0.0
  0
LINE
  5
5812
  8
YODOROGO
 10
29737.604341291921
 20
1427.749496429288
 30
0.0
 11
29937.604341291932
 21
1481.3393349155101
 31
0.0
  0
LINE
  5
5813
  8
YODOROGO
 10
29949.60434129191
 20
1707.749496429288
 30
0.0
 11
29885.604341291921
 21
1707.749496429288
 31
0.0
  0
ARC
  5
5814
  8
YODOROGO
 10
30254.34774982791
 20
1807.864609233261
 30
0.0
 40
381.88686420564721
 50
213.96111677667841
 51
264.47872074317792
  0
LINE
  5
5815
  8
YODOROGO
 10
28793.60434129191
 20
1819.7494964292871
 30
0.0
 11
28433.60434129191
 21
1819.7494964292871
 31
0.0
  0
LINE
  5
5816
  8
YODOROGO
 10
28513.60434129191
 20
1427.749496429288
 30
0.0
 11
28793.60434129191
 21
1427.749496429288
 31
0.0
  0
LINE
  5
5817
  8
YODOROGO
 10
28729.604341291921
 20
1923.7494964292871
 30
0.0
 11
28497.60434129191
 21
1923.7494964292871
 31
0.0
  0
LINE
  5
5818
  8
YODOROGO
 10
28585.604341291921
 20
2027.749496429288
 30
0.0
 11
28657.604341291921
 21
2027.749496429288
 31
0.0
  0
LINE
  5
5819
  8
YODOROGO
 10
28433.60434129191
 20
1707.749496429288
 30
0.0
 11
28433.60434129191
 21
1507.749496429288
 31
0.0
  0
LINE
  5
581A
  8
YODOROGO
 10
28497.60434129191
 20
1563.7494964292871
 30
0.0
 11
28497.60434129191
 21
1707.749496429288
 31
0.0
  0
LINE
  5
581B
  8
YODOROGO
 10
28585.604341291921
 20
1747.74949642929
 30
0.0
 11
28585.604341291921
 21
1547.749496429288
 31
0.0
  0
LINE
  5
581C
  8
YODOROGO
 10
27857.604341291921
 20
1683.749496429288
 30
0.0
 11
27777.604341291921
 21
1619.9724140445701
 31
0.0
  0
LINE
  5
581D
  8
YODOROGO
 10
27937.604341291921
 20
1619.9724140445701
 30
0.0
 11
27857.604341291921
 21
1683.749496429288
 31
0.0
  0
LINE
  5
581E
  8
YODOROGO
 10
27857.604341291921
 20
1707.749496429288
 30
0.0
 11
27937.604341291921
 21
1643.9724140445701
 31
0.0
  0
LINE
  5
581F
  8
YODOROGO
 10
27777.604341291921
 20
1643.9724140445701
 30
0.0
 11
27857.604341291921
 21
1707.749496429288
 31
0.0
  0
LINE
  5
5820
  8
YODOROGO
 10
28040.913204016892
 20
1659.749496429288
 30
0.0
 11
28040.913204016892
 21
1683.7494964292871
 31
0.0
  0
LINE
  5
5821
  8
YODOROGO
 10
27977.604341291921
 20
1683.7494964292871
 30
0.0
 11
27977.604341291921
 21
1667.749496429285
 31
0.0
  0
LINE
  5
5822
  8
YODOROGO
 10
28098.135520230931
 20
1707.749496429288
 30
0.0
 11
28098.135520230931
 21
1655.5036372746561
 31
0.0
1001
AUTOCAD_POSTSCRIPT_FIGURE
1002
{
1000
PSFILL
1000
Grayscale
1000
Grayscale
1070
   100
1002
}
  0
LINE
  5
5823
  8
YODOROGO
 10
28082.135520230921
 20
1655.5036372746561
 30
0.0
 11
28082.135520230921
 21
1707.749496429288
 31
0.0
1001
AUTOCAD_POSTSCRIPT_FIGURE
1002
{
1000
PSFILL
1000
Grayscale
1000
Grayscale
1070
   100
1002
}
  0
LINE
  5
5824
  8
YODOROGO
 10
27809.604341291921
 20
1608.771904043258
 30
0.0
 11
27809.604341291921
 21
1632.771904043258
 31
0.0
  0
LINE
  5
5825
  8
YODOROGO
 10
27905.604341291921
 20
1608.771904043258
 30
0.0
 11
27809.604341291921
 21
1608.771904043258
 31
0.0
  0
LINE
  5
5826
  8
YODOROGO
 10
27905.604341291921
 20
1632.771904043258
 30
0.0
 11
27905.604341291921
 21
1608.771904043258
 31
0.0
  0
LINE
  5
5827
  8
YODOROGO
 10
27809.604341291921
 20
1632.771904043258
 30
0.0
 11
27905.604341291921
 21
1632.771904043258
 31
0.0
  0
LINE
  5
5828
  8
YODOROGO
 10
27824.509588915738
 20
1568.5028573704751
 30
0.0
 11
27785.604341291921
 21
1475.7494964292871
 31
0.0
1001
AUTOCAD_POSTSCRIPT_FIGURE
1002
{
1000
PSFILL
1000
Grayscale
1000
Grayscale
1070
   100
1002
}
  0
LINE
  5
5829
  8
YODOROGO
 10
27777.604341291921
 20
1568.5028573704751
 30
0.0
 11
27824.509588915738
 21
1568.5028573704751
 31
0.0
1001
AUTOCAD_POSTSCRIPT_FIGURE
1002
{
1000
PSFILL
1000
Grayscale
1000
Grayscale
1070
   100
1002
}
  0
LINE
  5
582A
  8
YODOROGO
 10
27777.604341291921
 20
1588.5028573704751
 30
0.0
 11
27777.604341291921
 21
1568.5028573704751
 31
0.0
1001
AUTOCAD_POSTSCRIPT_FIGURE
1002
{
1000
PSFILL
1000
Grayscale
1000
Grayscale
1070
   100
1002
}
  0
LINE
  5
582B
  8
YODOROGO
 10
27937.604341291921
 20
1588.5028573704751
 30
0.0
 11
27777.604341291921
 21
1588.5028573704751
 31
0.0
1001
AUTOCAD_POSTSCRIPT_FIGURE
1002
{
1000
PSFILL
1000
Grayscale
1000
Grayscale
1070
   100
1002
}
  0
LINE
  5
582C
  8
YODOROGO
 10
27937.604341291921
 20
1568.5028573704751
 30
0.0
 11
27937.604341291921
 21
1588.5028573704751
 31
0.0
1001
AUTOCAD_POSTSCRIPT_FIGURE
1002
{
1000
PSFILL
1000
Grayscale
1000
Grayscale
1070
   100
1002
}
  0
LINE
  5
582D
  8
YODOROGO
 10
27844.509588915738
 20
1568.5028573704751
 30
0.0
 11
27937.604341291921
 21
1568.5028573704751
 31
0.0
1001
AUTOCAD_POSTSCRIPT_FIGURE
1002
{
1000
PSFILL
1000
Grayscale
1000
Grayscale
1070
   100
1002
}
  0
LINE
  5
582E
  8
YODOROGO
 10
27815.546718284771
 20
1495.7494964292871
 30
0.0
 11
27844.509588915738
 21
1568.5028573704751
 31
0.0
1001
AUTOCAD_POSTSCRIPT_FIGURE
1002
{
1000
PSFILL
1000
Grayscale
1000
Grayscale
1070
   100
1002
}
  0
LINE
  5
582F
  8
YODOROGO
 10
27902.054790808648
 20
1495.7494964292871
 30
0.0
 11
27815.546718284771
 21
1495.7494964292871
 31
0.0
1001
AUTOCAD_POSTSCRIPT_FIGURE
1002
{
1000
PSFILL
1000
Grayscale
1000
Grayscale
1070
   100
1002
}
  0
LINE
  5
5830
  8
YODOROGO
 10
27885.065004790951
 20
1536.2338106976929
 30
0.0
 11
27902.054790808648
 21
1495.7494964292871
 31
0.0
1001
AUTOCAD_POSTSCRIPT_FIGURE
1002
{
1000
PSFILL
1000
Grayscale
1000
Grayscale
1070
   100
1002
}
  0
LINE
  5
5831
  8
YODOROGO
 10
27901.065004790951
 20
1536.2338106976929
 30
0.0
 11
27885.065004790951
 21
1536.2338106976929
 31
0.0
1001
AUTOCAD_POSTSCRIPT_FIGURE
1002
{
1000
PSFILL
1000
Grayscale
1000
Grayscale
1070
   100
1002
}
  0
LINE
  5
5832
  8
YODOROGO
 10
27929.604341291921
 20
1475.7494964292871
 30
0.0
 11
27901.065004790951
 21
1536.2338106976929
 31
0.0
1001
AUTOCAD_POSTSCRIPT_FIGURE
1002
{
1000
PSFILL
1000
Grayscale
1000
Grayscale
1070
   100
1002
}
  0
LINE
  5
5833
  8
YODOROGO
 10
27785.604341291921
 20
1475.7494964292871
 30
0.0
 11
27929.604341291921
 21
1475.7494964292871
 31
0.0
1001
AUTOCAD_POSTSCRIPT_FIGURE
1002
{
1000
PSFILL
1000
Grayscale
1000
Grayscale
1070
   100
1002
}
  0
LINE
  5
5834
  8
YODOROGO
 10
27777.604341291921
 20
1619.9724140445701
 30
0.0
 11
27777.604341291921
 21
1643.9724140445701
 31
0.0
  0
LINE
  5
5835
  8
YODOROGO
 10
27937.604341291921
 20
1643.9724140445701
 30
0.0
 11
27937.604341291921
 21
1619.9724140445701
 31
0.0
  0
ARC
  5
5836
  8
YODOROGO
 10
28225.940442146959
 20
1600.877765325326
 30
0.0
 40
175.9999999999998
 50
280.3644312771313
 51
3.5414836592180561
  0
ARC
  5
5837
  8
YODOROGO
 10
28235.756030759301
 20
1633.5978069619041
 30
0.0
 40
111.9999999999982
 50
281.24905825041549
 51
348.75094174958321
  0
LINE
  5
5838
  8
YODOROGO
 10
28257.604341291921
 20
1523.7494964292871
 30
0.0
 11
28257.604341291921
 21
1427.749496429288
 31
0.0
  0
LINE
  5
5839
  8
YODOROGO
 10
28020.088903736909
 20
1610.650565061914
 30
0.0
 11
28040.913204016892
 21
1659.749496429288
 31
0.0
  0
LINE
  5
583A
  8
YODOROGO
 10
28041.604341291921
 20
1583.120489948401
 30
0.0
 11
28020.088903736909
 21
1610.650565061914
 31
0.0
  0
LINE
  5
583B
  8
YODOROGO
 10
28041.604341291921
 20
1563.120489948398
 30
0.0
 11
28041.604341291921
 21
1583.120489948401
 31
0.0
  0
LINE
  5
583C
  8
YODOROGO
 10
28017.604341291921
 20
1585.2370637495301
 30
0.0
 11
28041.604341291921
 21
1563.120489948398
 31
0.0
  0
LINE
  5
583D
  8
YODOROGO
 10
28017.604341291921
 20
1475.7494964292871
 30
0.0
 11
28017.604341291921
 21
1585.2370637495301
 31
0.0
  0
LINE
  5
583E
  8
YODOROGO
 10
28001.604341291921
 20
1475.7494964292871
 30
0.0
 11
28017.604341291921
 21
1475.7494964292871
 31
0.0
  0
LINE
  5
583F
  8
YODOROGO
 10
28001.604341291921
 20
1580.0053496897469
 30
0.0
 11
28001.604341291921
 21
1475.7494964292871
 31
0.0
  0
LINE
  5
5840
  8
YODOROGO
 10
27977.604341291921
 20
1532.7680790334291
 30
0.0
 11
28001.604341291921
 21
1580.0053496897469
 31
0.0
  0
LINE
  5
5841
  8
YODOROGO
 10
27977.604341291921
 20
1556.76807903343
 30
0.0
 11
27977.604341291921
 21
1532.7680790334291
 31
0.0
  0
LINE
  5
5842
  8
YODOROGO
 10
28025.828774291349
 20
1667.749496429285
 30
0.0
 11
27977.604341291921
 21
1556.76807903343
 31
0.0
  0
LINE
  5
5843
  8
YODOROGO
 10
27977.604341291921
 20
1667.749496429285
 30
0.0
 11
28025.828774291349
 21
1667.749496429285
 31
0.0
  0
LINE
  5
5844
  8
YODOROGO
 10
28050.135520230899
 20
1655.5036372746561
 30
0.0
 11
28082.135520230921
 21
1655.5036372746561
 31
0.0
1001
AUTOCAD_POSTSCRIPT_FIGURE
1002
{
1000
PSFILL
1000
Grayscale
1000
Grayscale
1070
   100
1002
}
  0
LINE
  5
5845
  8
YODOROGO
 10
28050.135520230899
 20
1631.5036372746561
 30
0.0
 11
28050.135520230899
 21
1655.5036372746561
 31
0.0
1001
AUTOCAD_POSTSCRIPT_FIGURE
1002
{
1000
PSFILL
1000
Grayscale
1000
Grayscale
1070
   100
1002
}
  0
LINE
  5
5846
  8
YODOROGO
 10
28082.135520230921
 20
1631.5036372746561
 30
0.0
 11
28050.135520230899
 21
1631.5036372746561
 31
0.0
1001
AUTOCAD_POSTSCRIPT_FIGURE
1002
{
1000
PSFILL
1000
Grayscale
1000
Grayscale
1070
   100
1002
}
  0
LINE
  5
5847
  8
YODOROGO
 10
28082.135520230921
 20
1499.749496429288
 30
0.0
 11
28082.135520230921
 21
1631.5036372746561
 31
0.0
1001
AUTOCAD_POSTSCRIPT_FIGURE
1002
{
1000
PSFILL
1000
Grayscale
1000
Grayscale
1070
   100
1002
}
  0
LINE
  5
5848
  8
YODOROGO
 10
28050.135520230921
 20
1499.749496429288
 30
0.0
 11
28082.135520230921
 21
1499.749496429288
 31
0.0
1001
AUTOCAD_POSTSCRIPT_FIGURE
1002
{
1000
PSFILL
1000
Grayscale
1000
Grayscale
1070
   100
1002
}
  0
LINE
  5
5849
  8
YODOROGO
 10
28050.135520230921
 20
1475.7494964292871
 30
0.0
 11
28050.135520230921
 21
1499.749496429288
 31
0.0
1001
AUTOCAD_POSTSCRIPT_FIGURE
1002
{
1000
PSFILL
1000
Grayscale
1000
Grayscale
1070
   100
1002
}
  0
LINE
  5
584A
  8
YODOROGO
 10
28137.604341291921
 20
1475.7494964292871
 30
0.0
 11
28050.135520230921
 21
1475.7494964292871
 31
0.0
1001
AUTOCAD_POSTSCRIPT_FIGURE
1002
{
1000
PSFILL
1000
Grayscale
1000
Grayscale
1070
   100
1002
}
  0
LINE
  5
584B
  8
YODOROGO
 10
28137.604341291921
 20
1499.749496429288
 30
0.0
 11
28137.604341291921
 21
1475.7494964292871
 31
0.0
1001
AUTOCAD_POSTSCRIPT_FIGURE
1002
{
1000
PSFILL
1000
Grayscale
1000
Grayscale
1070
   100
1002
}
  0
LINE
  5
584C
  8
YODOROGO
 10
28098.135520230931
 20
1499.749496429288
 30
0.0
 11
28137.604341291921
 21
1499.749496429288
 31
0.0
1001
AUTOCAD_POSTSCRIPT_FIGURE
1002
{
1000
PSFILL
1000
Grayscale
1000
Grayscale
1070
   100
1002
}
  0
LINE
  5
584D
  8
YODOROGO
 10
28098.135520230931
 20
1631.5036372746561
 30
0.0
 11
28098.135520230931
 21
1499.749496429288
 31
0.0
1001
AUTOCAD_POSTSCRIPT_FIGURE
1002
{
1000
PSFILL
1000
Grayscale
1000
Grayscale
1070
   100
1002
}
  0
LINE
  5
584E
  8
YODOROGO
 10
28137.604341291921
 20
1631.5036372746561
 30
0.0
 11
28098.135520230931
 21
1631.5036372746561
 31
0.0
1001
AUTOCAD_POSTSCRIPT_FIGURE
1002
{
1000
PSFILL
1000
Grayscale
1000
Grayscale
1070
   100
1002
}
  0
LINE
  5
584F
  8
YODOROGO
 10
28137.604341291921
 20
1655.5036372746561
 30
0.0
 11
28137.604341291921
 21
1631.5036372746561
 31
0.0
1001
AUTOCAD_POSTSCRIPT_FIGURE
1002
{
1000
PSFILL
1000
Grayscale
1000
Grayscale
1070
   100
1002
}
  0
LINE
  5
5850
  8
YODOROGO
 10
28098.135520230931
 20
1655.5036372746561
 30
0.0
 11
28137.604341291921
 21
1655.5036372746561
 31
0.0
1001
AUTOCAD_POSTSCRIPT_FIGURE
1002
{
1000
PSFILL
1000
Grayscale
1000
Grayscale
1070
   100
1002
}
  0
LINE
  5
5851
  8
YODOROGO
 10
28401.60434129191
 20
1667.749496429288
 30
0.0
 11
28345.604341291921
 21
1667.749496429288
 31
0.0
  0
LINE
  5
5852
  8
YODOROGO
 10
28401.60434129191
 20
1611.749496429288
 30
0.0
 11
28401.60434129191
 21
1667.749496429288
 31
0.0
  0
LINE
  5
5853
  8
YODOROGO
 10
28345.604341291921
 20
1667.749496429288
 30
0.0
 11
28345.604341291921
 21
1611.749496429288
 31
0.0
  0
ARC
  5
5854
  8
YODOROGO
 10
28513.60434129191
 20
1507.749496429288
 30
0.0
 40
80.0
 50
180.0
 51
270.0
  0
ARC
  5
5855
  8
YODOROGO
 10
28537.604341291921
 20
1563.7494964292871
 30
0.0
 40
40.0
 50
180.0
 51
270.0
  0
LINE
  5
5856
  8
YODOROGO
 10
28561.604341291932
 20
1523.7494964292871
 30
0.0
 11
28537.604341291921
 21
1523.7494964292871
 31
0.0
  0
ARC
  5
5857
  8
YODOROGO
 10
28561.604341291932
 20
1547.749496429285
 30
0.0
 40
23.999999999996358
 50
270.0
 51
0.0000000000054281
  0
LINE
  5
5858
  8
YODOROGO
 10
27801.604341291921
 20
1890.786580793706
 30
0.0
 11
27777.604341291921
 21
1843.776747951672
 31
0.0
1001
AUTOCAD_POSTSCRIPT_FIGURE
1002
{
1000
PSFILL
1000
Grayscale
1000
Grayscale
1070
   100
1002
}
  0
LINE
  5
5859
  8
YODOROGO
 10
27801.604341291921
 20
1747.749496429286
 30
0.0
 11
27801.604341291921
 21
1890.786580793706
 31
0.0
1001
AUTOCAD_POSTSCRIPT_FIGURE
1002
{
1000
PSFILL
1000
Grayscale
1000
Grayscale
1070
   100
1002
}
  0
LINE
  5
585A
  8
YODOROGO
 10
27817.604341291921
 20
1747.749496429286
 30
0.0
 11
27801.604341291921
 21
1747.749496429286
 31
0.0
1001
AUTOCAD_POSTSCRIPT_FIGURE
1002
{
1000
PSFILL
1000
Grayscale
1000
Grayscale
1070
   100
1002
}
  0
LINE
  5
585B
  8
YODOROGO
 10
27817.604341291921
 20
1893.7713320852661
 30
0.0
 11
27817.604341291921
 21
1747.749496429286
 31
0.0
1001
AUTOCAD_POSTSCRIPT_FIGURE
1002
{
1000
PSFILL
1000
Grayscale
1000
Grayscale
1070
   100
1002
}
  0
LINE
  5
585C
  8
YODOROGO
 10
27841.604341291921
 20
1867.6547582841361
 30
0.0
 11
27817.604341291921
 21
1893.7713320852661
 31
0.0
1001
AUTOCAD_POSTSCRIPT_FIGURE
1002
{
1000
PSFILL
1000
Grayscale
1000
Grayscale
1070
   100
1002
}
  0
LINE
  5
585D
  8
YODOROGO
 10
27841.604341291921
 20
1883.6547582841361
 30
0.0
 11
27841.604341291921
 21
1867.6547582841361
 31
0.0
1001
AUTOCAD_POSTSCRIPT_FIGURE
1002
{
1000
PSFILL
1000
Grayscale
1000
Grayscale
1070
   100
1002
}
  0
LINE
  5
585E
  8
YODOROGO
 10
27817.604341291921
 20
1917.7713320852649
 30
0.0
 11
27841.604341291921
 21
1883.6547582841361
 31
0.0
1001
AUTOCAD_POSTSCRIPT_FIGURE
1002
{
1000
PSFILL
1000
Grayscale
1000
Grayscale
1070
   100
1002
}
  0
LINE
  5
585F
  8
YODOROGO
 10
27817.604341291921
 20
1939.749496429288
 30
0.0
 11
27817.604341291921
 21
1917.7713320852649
 31
0.0
1001
AUTOCAD_POSTSCRIPT_FIGURE
1002
{
1000
PSFILL
1000
Grayscale
1000
Grayscale
1070
   100
1002
}
  0
LINE
  5
5860
  8
YODOROGO
 10
27889.604341291921
 20
1939.749496429288
 30
0.0
 11
27817.604341291921
 21
1939.749496429288
 31
0.0
1001
AUTOCAD_POSTSCRIPT_FIGURE
1002
{
1000
PSFILL
1000
Grayscale
1000
Grayscale
1070
   100
1002
}
  0
LINE
  5
5861
  8
YODOROGO
 10
27889.604341291921
 20
1900.5683489363
 30
0.0
 11
27889.604341291921
 21
1939.749496429288
 31
0.0
1001
AUTOCAD_POSTSCRIPT_FIGURE
1002
{
1000
PSFILL
1000
Grayscale
1000
Grayscale
1070
   100
1002
}
  0
LINE
  5
5862
  8
YODOROGO
 10
27857.604341291921
 20
1900.5683489363
 30
0.0
 11
27889.604341291921
 21
1900.5683489363
 31
0.0
1001
AUTOCAD_POSTSCRIPT_FIGURE
1002
{
1000
PSFILL
1000
Grayscale
1000
Grayscale
1070
   100
1002
}
  0
LINE
  5
5863
  8
YODOROGO
 10
27857.604341291921
 20
1884.568348936298
 30
0.0
 11
27857.604341291921
 21
1900.5683489363
 31
0.0
1001
AUTOCAD_POSTSCRIPT_FIGURE
1002
{
1000
PSFILL
1000
Grayscale
1000
Grayscale
1070
   100
1002
}
  0
LINE
  5
5864
  8
YODOROGO
 10
27889.604341291921
 20
1884.568348936298
 30
0.0
 11
27857.604341291921
 21
1884.568348936298
 31
0.0
1001
AUTOCAD_POSTSCRIPT_FIGURE
1002
{
1000
PSFILL
1000
Grayscale
1000
Grayscale
1070
   100
1002
}
  0
LINE
  5
5865
  8
YODOROGO
 10
27889.604341291921
 20
1879.6191779644371
 30
0.0
 11
27889.604341291921
 21
1884.568348936298
 31
0.0
1001
AUTOCAD_POSTSCRIPT_FIGURE
1002
{
1000
PSFILL
1000
Grayscale
1000
Grayscale
1070
   100
1002
}
  0
LINE
  5
5866
  8
YODOROGO
 10
27849.604341291921
 20
1812.974981161417
 30
0.0
 11
27889.604341291921
 21
1879.6191779644371
 31
0.0
1001
AUTOCAD_POSTSCRIPT_FIGURE
1002
{
1000
PSFILL
1000
Grayscale
1000
Grayscale
1070
   100
1002
}
  0
LINE
  5
5867
  8
YODOROGO
 10
27849.604341291921
 20
1796.9749811614161
 30
0.0
 11
27849.604341291921
 21
1812.974981161417
 31
0.0
1001
AUTOCAD_POSTSCRIPT_FIGURE
1002
{
1000
PSFILL
1000
Grayscale
1000
Grayscale
1070
   100
1002
}
  0
LINE
  5
5868
  8
YODOROGO
 10
27889.604341291921
 20
1847.6191779644359
 30
0.0
 11
27849.604341291921
 21
1796.9749811614161
 31
0.0
1001
AUTOCAD_POSTSCRIPT_FIGURE
1002
{
1000
PSFILL
1000
Grayscale
1000
Grayscale
1070
   100
1002
}
  0
LINE
  5
5869
  8
YODOROGO
 10
27889.604341291921
 20
1747.749496429286
 30
0.0
 11
27889.604341291921
 21
1847.6191779644359
 31
0.0
1001
AUTOCAD_POSTSCRIPT_FIGURE
1002
{
1000
PSFILL
1000
Grayscale
1000
Grayscale
1070
   100
1002
}
  0
LINE
  5
586A
  8
YODOROGO
 10
27905.604341291921
 20
1747.749496429286
 30
0.0
 11
27889.604341291921
 21
1747.749496429286
 31
0.0
1001
AUTOCAD_POSTSCRIPT_FIGURE
1002
{
1000
PSFILL
1000
Grayscale
1000
Grayscale
1070
   100
1002
}
  0
LINE
  5
586B
  8
YODOROGO
 10
27905.604341291921
 20
1849.409012158806
 30
0.0
 11
27905.604341291921
 21
1747.749496429286
 31
0.0
1001
AUTOCAD_POSTSCRIPT_FIGURE
1002
{
1000
PSFILL
1000
Grayscale
1000
Grayscale
1070
   100
1002
}
  0
LINE
  5
586C
  8
YODOROGO
 10
27937.604341291921
 20
1796.9749811614161
 30
0.0
 11
27905.604341291921
 21
1849.409012158806
 31
0.0
1001
AUTOCAD_POSTSCRIPT_FIGURE
1002
{
1000
PSFILL
1000
Grayscale
1000
Grayscale
1070
   100
1002
}
  0
LINE
  5
586D
  8
YODOROGO
 10
27937.604341291921
 20
1812.974981161417
 30
0.0
 11
27937.604341291921
 21
1796.9749811614161
 31
0.0
1001
AUTOCAD_POSTSCRIPT_FIGURE
1002
{
1000
PSFILL
1000
Grayscale
1000
Grayscale
1070
   100
1002
}
  0
LINE
  5
586E
  8
YODOROGO
 10
27905.604341291921
 20
1881.4090121588081
 30
0.0
 11
27937.604341291921
 21
1812.974981161417
 31
0.0
1001
AUTOCAD_POSTSCRIPT_FIGURE
1002
{
1000
PSFILL
1000
Grayscale
1000
Grayscale
1070
   100
1002
}
  0
LINE
  5
586F
  8
YODOROGO
 10
27905.604341291921
 20
1884.5683489363
 30
0.0
 11
27905.604341291921
 21
1881.4090121588081
 31
0.0
1001
AUTOCAD_POSTSCRIPT_FIGURE
1002
{
1000
PSFILL
1000
Grayscale
1000
Grayscale
1070
   100
1002
}
  0
LINE
  5
5870
  8
YODOROGO
 10
27937.604341291921
 20
1884.568348936298
 30
0.0
 11
27905.604341291921
 21
1884.5683489363
 31
0.0
1001
AUTOCAD_POSTSCRIPT_FIGURE
1002
{
1000
PSFILL
1000
Grayscale
1000
Grayscale
1070
   100
1002
}
  0
LINE
  5
5871
  8
YODOROGO
 10
27937.604341291921
 20
1900.5683489363
 30
0.0
 11
27937.604341291921
 21
1884.568348936298
 31
0.0
1001
AUTOCAD_POSTSCRIPT_FIGURE
1002
{
1000
PSFILL
1000
Grayscale
1000
Grayscale
1070
   100
1002
}
  0
LINE
  5
5872
  8
YODOROGO
 10
27905.604341291921
 20
1900.5683489363
 30
0.0
 11
27937.604341291921
 21
1900.5683489363
 31
0.0
1001
AUTOCAD_POSTSCRIPT_FIGURE
1002
{
1000
PSFILL
1000
Grayscale
1000
Grayscale
1070
   100
1002
}
  0
LINE
  5
5873
  8
YODOROGO
 10
27905.604341291921
 20
1939.749496429288
 30
0.0
 11
27905.604341291921
 21
1900.5683489363
 31
0.0
1001
AUTOCAD_POSTSCRIPT_FIGURE
1002
{
1000
PSFILL
1000
Grayscale
1000
Grayscale
1070
   100
1002
}
  0
LINE
  5
5874
  8
YODOROGO
 10
27937.604341291921
 20
1939.749496429288
 30
0.0
 11
27905.604341291921
 21
1939.749496429288
 31
0.0
1001
AUTOCAD_POSTSCRIPT_FIGURE
1002
{
1000
PSFILL
1000
Grayscale
1000
Grayscale
1070
   100
1002
}
  0
LINE
  5
5875
  8
YODOROGO
 10
27937.604341291921
 20
1955.7494964292871
 30
0.0
 11
27937.604341291921
 21
1939.749496429288
 31
0.0
1001
AUTOCAD_POSTSCRIPT_FIGURE
1002
{
1000
PSFILL
1000
Grayscale
1000
Grayscale
1070
   100
1002
}
  0
LINE
  5
5876
  8
YODOROGO
 10
27905.604341291921
 20
1955.7494964292871
 30
0.0
 11
27937.604341291921
 21
1955.7494964292871
 31
0.0
1001
AUTOCAD_POSTSCRIPT_FIGURE
1002
{
1000
PSFILL
1000
Grayscale
1000
Grayscale
1070
   100
1002
}
  0
LINE
  5
5877
  8
YODOROGO
 10
27905.604341291921
 20
1979.749496429288
 30
0.0
 11
27905.604341291921
 21
1955.7494964292871
 31
0.0
1001
AUTOCAD_POSTSCRIPT_FIGURE
1002
{
1000
PSFILL
1000
Grayscale
1000
Grayscale
1070
   100
1002
}
  0
LINE
  5
5878
  8
YODOROGO
 10
27889.604341291921
 20
1979.749496429288
 30
0.0
 11
27905.604341291921
 21
1979.749496429288
 31
0.0
1001
AUTOCAD_POSTSCRIPT_FIGURE
1002
{
1000
PSFILL
1000
Grayscale
1000
Grayscale
1070
   100
1002
}
  0
LINE
  5
5879
  8
YODOROGO
 10
27889.604341291921
 20
1955.7494964292871
 30
0.0
 11
27889.604341291921
 21
1979.749496429288
 31
0.0
1001
AUTOCAD_POSTSCRIPT_FIGURE
1002
{
1000
PSFILL
1000
Grayscale
1000
Grayscale
1070
   100
1002
}
  0
LINE
  5
587A
  8
YODOROGO
 10
27865.604341291921
 20
1955.7494964292871
 30
0.0
 11
27889.604341291921
 21
1955.7494964292871
 31
0.0
1001
AUTOCAD_POSTSCRIPT_FIGURE
1002
{
1000
PSFILL
1000
Grayscale
1000
Grayscale
1070
   100
1002
}
  0
LINE
  5
587B
  8
YODOROGO
 10
27865.604341291921
 20
1979.749496429288
 30
0.0
 11
27865.604341291921
 21
1955.7494964292871
 31
0.0
1001
AUTOCAD_POSTSCRIPT_FIGURE
1002
{
1000
PSFILL
1000
Grayscale
1000
Grayscale
1070
   100
1002
}
  0
LINE
  5
587C
  8
YODOROGO
 10
27849.604341291921
 20
1979.749496429288
 30
0.0
 11
27865.604341291921
 21
1979.749496429288
 31
0.0
1001
AUTOCAD_POSTSCRIPT_FIGURE
1002
{
1000
PSFILL
1000
Grayscale
1000
Grayscale
1070
   100
1002
}
  0
LINE
  5
587D
  8
YODOROGO
 10
27849.604341291921
 20
1955.7494964292871
 30
0.0
 11
27849.604341291921
 21
1979.749496429288
 31
0.0
1001
AUTOCAD_POSTSCRIPT_FIGURE
1002
{
1000
PSFILL
1000
Grayscale
1000
Grayscale
1070
   100
1002
}
  0
LINE
  5
587E
  8
YODOROGO
 10
27817.604341291921
 20
1955.7494964292871
 30
0.0
 11
27849.604341291921
 21
1955.7494964292871
 31
0.0
1001
AUTOCAD_POSTSCRIPT_FIGURE
1002
{
1000
PSFILL
1000
Grayscale
1000
Grayscale
1070
   100
1002
}
  0
LINE
  5
587F
  8
YODOROGO
 10
27817.604341291921
 20
1979.749496429288
 30
0.0
 11
27817.604341291921
 21
1955.7494964292871
 31
0.0
1001
AUTOCAD_POSTSCRIPT_FIGURE
1002
{
1000
PSFILL
1000
Grayscale
1000
Grayscale
1070
   100
1002
}
  0
LINE
  5
5880
  8
YODOROGO
 10
27801.604341291921
 20
1979.749496429288
 30
0.0
 11
27817.604341291921
 21
1979.749496429288
 31
0.0
1001
AUTOCAD_POSTSCRIPT_FIGURE
1002
{
1000
PSFILL
1000
Grayscale
1000
Grayscale
1070
   100
1002
}
  0
LINE
  5
5881
  8
YODOROGO
 10
27801.604341291921
 20
1955.7494964292871
 30
0.0
 11
27801.604341291921
 21
1979.749496429288
 31
0.0
1001
AUTOCAD_POSTSCRIPT_FIGURE
1002
{
1000
PSFILL
1000
Grayscale
1000
Grayscale
1070
   100
1002
}
  0
LINE
  5
5882
  8
YODOROGO
 10
27777.604341291921
 20
1955.7494964292871
 30
0.0
 11
27801.604341291921
 21
1955.7494964292871
 31
0.0
1001
AUTOCAD_POSTSCRIPT_FIGURE
1002
{
1000
PSFILL
1000
Grayscale
1000
Grayscale
1070
   100
1002
}
  0
LINE
  5
5883
  8
YODOROGO
 10
27777.604341291921
 20
1939.749496429288
 30
0.0
 11
27777.604341291921
 21
1955.7494964292871
 31
0.0
1001
AUTOCAD_POSTSCRIPT_FIGURE
1002
{
1000
PSFILL
1000
Grayscale
1000
Grayscale
1070
   100
1002
}
  0
LINE
  5
5884
  8
YODOROGO
 10
27801.604341291921
 20
1939.749496429288
 30
0.0
 11
27777.604341291921
 21
1939.749496429288
 31
0.0
1001
AUTOCAD_POSTSCRIPT_FIGURE
1002
{
1000
PSFILL
1000
Grayscale
1000
Grayscale
1070
   100
1002
}
  0
LINE
  5
5885
  8
YODOROGO
 10
27801.604341291921
 20
1914.7865807937051
 30
0.0
 11
27801.604341291921
 21
1939.749496429288
 31
0.0
1001
AUTOCAD_POSTSCRIPT_FIGURE
1002
{
1000
PSFILL
1000
Grayscale
1000
Grayscale
1070
   100
1002
}
  0
LINE
  5
5886
  8
YODOROGO
 10
27777.604341291921
 20
1859.776747951671
 30
0.0
 11
27801.604341291921
 21
1914.7865807937051
 31
0.0
1001
AUTOCAD_POSTSCRIPT_FIGURE
1002
{
1000
PSFILL
1000
Grayscale
1000
Grayscale
1070
   100
1002
}
  0
LINE
  5
5887
  8
YODOROGO
 10
27777.604341291921
 20
1843.776747951672
 30
0.0
 11
27777.604341291921
 21
1859.776747951671
 31
0.0
1001
AUTOCAD_POSTSCRIPT_FIGURE
1002
{
1000
PSFILL
1000
Grayscale
1000
Grayscale
1070
   100
1002
}
  0
LINE
  5
5888
  8
YODOROGO
 10
28257.604341291921
 20
1867.7494964292871
 30
0.0
 11
28401.60434129191
 21
1824.877625640306
 31
0.0
1001
AUTOCAD_POSTSCRIPT_FIGURE
1002
{
1000
PSFILL
1000
Grayscale
1000
Grayscale
1070
   100
1002
}
  0
LINE
  5
5889
  8
YODOROGO
 10
28401.60434129191
 20
1752.877625640306
 30
0.0
 11
28257.604341291921
 21
1795.7494964292871
 31
0.0
1001
AUTOCAD_POSTSCRIPT_FIGURE
1002
{
1000
PSFILL
1000
Grayscale
1000
Grayscale
1070
   100
1002
}
  0
LINE
  5
588A
  8
YODOROGO
 10
28401.60434129191
 20
1984.877625640306
 30
0.0
 11
28257.604341291921
 21
2027.749496429288
 31
0.0
1001
AUTOCAD_POSTSCRIPT_FIGURE
1002
{
1000
PSFILL
1000
Grayscale
1000
Grayscale
1070
   100
1002
}
  0
LINE
  5
588B
  8
YODOROGO
 10
28257.604341291921
 20
1959.749496429288
 30
0.0
 11
28401.60434129191
 21
1916.8776256403071
 31
0.0
1001
AUTOCAD_POSTSCRIPT_FIGURE
1002
{
1000
PSFILL
1000
Grayscale
1000
Grayscale
1070
   100
1002
}
  0
LINE
  5
588C
  8
YODOROGO
 10
28257.604341291921
 20
1795.7494964292871
 30
0.0
 11
28257.604341291921
 21
1867.7494964292871
 31
0.0
1001
AUTOCAD_POSTSCRIPT_FIGURE
1002
{
1000
PSFILL
1000
Grayscale
1000
Grayscale
1070
   100
1002
}
  0
LINE
  5
588D
  8
YODOROGO
 10
28257.604341291921
 20
2027.749496429288
 30
0.0
 11
28257.604341291921
 21
1959.749496429288
 31
0.0
1001
AUTOCAD_POSTSCRIPT_FIGURE
1002
{
1000
PSFILL
1000
Grayscale
1000
Grayscale
1070
   100
1002
}
  0
LINE
  5
588E
  8
YODOROGO
 10
28080.236320206739
 20
1939.749496429288
 30
0.0
 11
28129.60434129191
 21
1747.749496429286
 31
0.0
1001
AUTOCAD_POSTSCRIPT_FIGURE
1002
{
1000
PSFILL
1000
Grayscale
1000
Grayscale
1070
   100
1002
}
  0
LINE
  5
588F
  8
YODOROGO
 10
27977.604341291921
 20
1939.749496429288
 30
0.0
 11
28080.236320206739
 21
1939.749496429288
 31
0.0
1001
AUTOCAD_POSTSCRIPT_FIGURE
1002
{
1000
PSFILL
1000
Grayscale
1000
Grayscale
1070
   100
1002
}
  0
LINE
  5
5890
  8
YODOROGO
 10
27977.604341291921
 20
1955.7494964292871
 30
0.0
 11
27977.604341291921
 21
1939.749496429288
 31
0.0
1001
AUTOCAD_POSTSCRIPT_FIGURE
1002
{
1000
PSFILL
1000
Grayscale
1000
Grayscale
1070
   100
1002
}
  0
LINE
  5
5891
  8
YODOROGO
 10
28076.60687851991
 20
1955.7494964292871
 30
0.0
 11
27977.604341291921
 21
1955.7494964292871
 31
0.0
1001
AUTOCAD_POSTSCRIPT_FIGURE
1002
{
1000
PSFILL
1000
Grayscale
1000
Grayscale
1070
   100
1002
}
  0
LINE
  5
5892
  8
YODOROGO
 10
28071.162715989711
 20
1979.749496429288
 30
0.0
 11
28076.60687851991
 21
1955.7494964292871
 31
0.0
1001
AUTOCAD_POSTSCRIPT_FIGURE
1002
{
1000
PSFILL
1000
Grayscale
1000
Grayscale
1070
   100
1002
}
  0
LINE
  5
5893
  8
YODOROGO
 10
28091.162715989711
 20
1979.749496429288
 30
0.0
 11
28071.162715989711
 21
1979.749496429288
 31
0.0
1001
AUTOCAD_POSTSCRIPT_FIGURE
1002
{
1000
PSFILL
1000
Grayscale
1000
Grayscale
1070
   100
1002
}
  0
LINE
  5
5894
  8
YODOROGO
 10
28095.806878519939
 20
1955.7494964292871
 30
0.0
 11
28091.162715989711
 21
1979.749496429288
 31
0.0
1001
AUTOCAD_POSTSCRIPT_FIGURE
1002
{
1000
PSFILL
1000
Grayscale
1000
Grayscale
1070
   100
1002
}
  0
LINE
  5
5895
  8
YODOROGO
 10
28121.604341291921
 20
1955.7494964292871
 30
0.0
 11
28095.806878519939
 21
1955.7494964292871
 31
0.0
1001
AUTOCAD_POSTSCRIPT_FIGURE
1002
{
1000
PSFILL
1000
Grayscale
1000
Grayscale
1070
   100
1002
}
  0
LINE
  5
5896
  8
YODOROGO
 10
28121.604341291921
 20
1979.749496429288
 30
0.0
 11
28121.604341291921
 21
1955.7494964292871
 31
0.0
1001
AUTOCAD_POSTSCRIPT_FIGURE
1002
{
1000
PSFILL
1000
Grayscale
1000
Grayscale
1070
   100
1002
}
  0
LINE
  5
5897
  8
YODOROGO
 10
28137.604341291921
 20
1979.749496429288
 30
0.0
 11
28121.604341291921
 21
1979.749496429288
 31
0.0
1001
AUTOCAD_POSTSCRIPT_FIGURE
1002
{
1000
PSFILL
1000
Grayscale
1000
Grayscale
1070
   100
1002
}
  0
LINE
  5
5898
  8
YODOROGO
 10
28137.604341291921
 20
1955.7494964292871
 30
0.0
 11
28137.604341291921
 21
1979.749496429288
 31
0.0
1001
AUTOCAD_POSTSCRIPT_FIGURE
1002
{
1000
PSFILL
1000
Grayscale
1000
Grayscale
1070
   100
1002
}
  0
LINE
  5
5899
  8
YODOROGO
 10
28137.604341291921
 20
1939.749496429288
 30
0.0
 11
28137.604341291921
 21
1955.7494964292871
 31
0.0
1001
AUTOCAD_POSTSCRIPT_FIGURE
1002
{
1000
PSFILL
1000
Grayscale
1000
Grayscale
1070
   100
1002
}
  0
LINE
  5
589A
  8
YODOROGO
 10
28098.902986873411
 20
1939.749496429288
 30
0.0
 11
28137.604341291921
 21
1939.749496429288
 31
0.0
1001
AUTOCAD_POSTSCRIPT_FIGURE
1002
{
1000
PSFILL
1000
Grayscale
1000
Grayscale
1070
   100
1002
}
  0
LINE
  5
589B
  8
YODOROGO
 10
28137.604341291921
 20
1747.749496429286
 30
0.0
 11
28098.902986873411
 21
1939.749496429288
 31
0.0
1001
AUTOCAD_POSTSCRIPT_FIGURE
1002
{
1000
PSFILL
1000
Grayscale
1000
Grayscale
1070
   100
1002
}
  0
LINE
  5
589C
  8
YODOROGO
 10
28129.60434129191
 20
1747.749496429286
 30
0.0
 11
28137.604341291921
 21
1747.749496429286
 31
0.0
1001
AUTOCAD_POSTSCRIPT_FIGURE
1002
{
1000
PSFILL
1000
Grayscale
1000
Grayscale
1070
   100
1002
}
  0
LINE
  5
589D
  8
YODOROGO
 10
28078.06921993379
 20
1775.7407762987939
 30
0.0
 11
27977.604341291921
 21
1747.749496429286
 31
0.0
  0
LINE
  5
589E
  8
YODOROGO
 10
28078.06921993379
 20
1798.6689795290731
 30
0.0
 11
28078.06921993379
 21
1775.7407762987939
 31
0.0
  0
LINE
  5
589F
  8
YODOROGO
 10
28033.83678061287
 20
1786.816933133767
 30
0.0
 11
28078.06921993379
 21
1798.6689795290731
 31
0.0
  0
LINE
  5
58A0
  8
YODOROGO
 10
28033.83678061287
 20
1872.5683489362989
 30
0.0
 11
28033.83678061287
 21
1786.816933133767
 31
0.0
  0
LINE
  5
58A1
  8
YODOROGO
 10
28078.06921993379
 20
1872.5683489362989
 30
0.0
 11
28033.83678061287
 21
1872.5683489362989
 31
0.0
  0
LINE
  5
58A2
  8
YODOROGO
 10
28078.06921993379
 20
1892.568348936298
 30
0.0
 11
28078.06921993379
 21
1872.5683489362989
 31
0.0
  0
LINE
  5
58A3
  8
YODOROGO
 10
27977.604341291921
 20
1892.568348936298
 30
0.0
 11
28078.06921993379
 21
1892.568348936298
 31
0.0
  0
LINE
  5
58A4
  8
YODOROGO
 10
27977.604341291921
 20
1872.5683489362989
 30
0.0
 11
27977.604341291921
 21
1892.568348936298
 31
0.0
  0
LINE
  5
58A5
  8
YODOROGO
 10
28021.836780612852
 20
1872.5683489362989
 30
0.0
 11
27977.604341291921
 21
1872.5683489362989
 31
0.0
  0
LINE
  5
58A6
  8
YODOROGO
 10
28021.836780612852
 20
1784.673339594317
 30
0.0
 11
28021.836780612852
 21
1872.5683489362989
 31
0.0
  0
LINE
  5
58A7
  8
YODOROGO
 10
27977.604341291921
 20
1771.749496429286
 30
0.0
 11
28021.836780612852
 21
1784.673339594317
 31
0.0
  0
LINE
  5
58A8
  8
YODOROGO
 10
27977.604341291921
 20
1747.749496429286
 30
0.0
 11
27977.604341291921
 21
1771.749496429286
 31
0.0
  0
LINE
  5
58A9
  8
YODOROGO
 10
28001.604341291921
 20
1707.749496429288
 30
0.0
 11
28001.604341291921
 21
1683.7494964292871
 31
0.0
  0
LINE
  5
58AA
  8
YODOROGO
 10
28017.604341291921
 20
1707.749496429288
 30
0.0
 11
28001.604341291921
 21
1707.749496429288
 31
0.0
  0
LINE
  5
58AB
  8
YODOROGO
 10
28017.604341291921
 20
1683.7494964292871
 30
0.0
 11
28017.604341291921
 21
1707.749496429288
 31
0.0
  0
LINE
  5
58AC
  8
YODOROGO
 10
28040.913204016892
 20
1683.7494964292871
 30
0.0
 11
28017.604341291921
 21
1683.7494964292871
 31
0.0
  0
LINE
  5
58AD
  8
YODOROGO
 10
28001.604341291921
 20
1683.7494964292871
 30
0.0
 11
27977.604341291921
 21
1683.7494964292871
 31
0.0
  0
LINE
  5
58AE
  8
YODOROGO
 10
28082.135520230921
 20
1707.749496429288
 30
0.0
 11
28098.135520230931
 21
1707.749496429288
 31
0.0
1001
AUTOCAD_POSTSCRIPT_FIGURE
1002
{
1000
PSFILL
1000
Grayscale
1000
Grayscale
1070
   100
1002
}
  0
LINE
  5
58AF
  8
YODOROGO
 10
28401.60434129191
 20
1824.877625640306
 30
0.0
 11
28401.60434129191
 21
1752.877625640306
 31
0.0
1001
AUTOCAD_POSTSCRIPT_FIGURE
1002
{
1000
PSFILL
1000
Grayscale
1000
Grayscale
1070
   100
1002
}
  0
LINE
  5
58B0
  8
YODOROGO
 10
28401.60434129191
 20
1916.8776256403071
 30
0.0
 11
28401.60434129191
 21
1984.877625640306
 31
0.0
1001
AUTOCAD_POSTSCRIPT_FIGURE
1002
{
1000
PSFILL
1000
Grayscale
1000
Grayscale
1070
   100
1002
}
  0
LINE
  5
58B1
  8
YODOROGO
 10
28433.60434129191
 20
1819.7494964292871
 30
0.0
 11
28433.60434129191
 21
1747.74949642929
 31
0.0
  0
LINE
  5
58B2
  8
YODOROGO
 10
28497.60434129191
 20
1707.749496429288
 30
0.0
 11
28433.60434129191
 21
1707.749496429288
 31
0.0
  0
LINE
  5
58B3
  8
YODOROGO
 10
28433.60434129191
 20
1747.74949642929
 30
0.0
 11
28585.604341291921
 21
1747.74949642929
 31
0.0
  0
LINE
  5
58B4
  8
YODOROGO
 10
28497.60434129191
 20
1867.7494964292871
 30
0.0
 11
28433.60434129191
 21
1867.7494964292871
 31
0.0
  0
LINE
  5
58B5
  8
YODOROGO
 10
28497.60434129191
 20
1923.7494964292871
 30
0.0
 11
28497.60434129191
 21
1867.7494964292871
 31
0.0
  0
LINE
  5
58B6
  8
YODOROGO
 10
28585.604341291921
 20
1987.7494964292871
 30
0.0
 11
28585.604341291921
 21
2027.749496429288
 31
0.0
  0
LINE
  5
58B7
  8
YODOROGO
 10
28433.60434129191
 20
1987.7494964292871
 30
0.0
 11
28585.604341291921
 21
1987.7494964292871
 31
0.0
  0
LINE
  5
58B8
  8
YODOROGO
 10
28433.60434129191
 20
1867.7494964292871
 30
0.0
 11
28433.60434129191
 21
1987.7494964292871
 31
0.0
  0
LINE
  5
58B9
  8
YODOROGO
 10
29001.60434129191
 20
2027.749496429288
 30
0.0
 11
29001.60434129191
 21
1619.749496429288
 31
0.0
  0
LINE
  5
58BA
  8
YODOROGO
 10
29073.604341291921
 20
1579.749496429288
 30
0.0
 11
29073.604341291921
 21
2027.749496429288
 31
0.0
  0
LINE
  5
58BB
  8
YODOROGO
 10
29261.604341291921
 20
1491.749496429286
 30
0.0
 11
29261.604341291921
 21
2007.749496429288
 31
0.0
  0
LINE
  5
58BC
  8
YODOROGO
 10
29197.604341291921
 20
2007.749496429288
 30
0.0
 11
29197.604341291921
 21
1491.749496429286
 31
0.0
  0
LINE
  5
58BD
  8
YODOROGO
 10
29385.604341291921
 20
2027.749496429288
 30
0.0
 11
29385.604341291921
 21
1427.749496429288
 31
0.0
  0
LINE
  5
58BE
  8
YODOROGO
 10
29457.604341291921
 20
1427.749496429288
 30
0.0
 11
29457.604341291921
 21
2027.749496429288
 31
0.0
  0
LINE
  5
58BF
  8
YODOROGO
 10
28657.604341291921
 20
1667.749496429288
 30
0.0
 11
28657.604341291921
 21
1747.74949642929
 31
0.0
  0
LINE
  5
58C0
  8
YODOROGO
 10
29885.604341291921
 20
1707.749496429288
 30
0.0
 11
29885.604341291921
 21
1667.749496429288
 31
0.0
  0
LINE
  5
58C1
  8
YODOROGO
 10
29885.604341291921
 20
1707.749496429288
 30
0.0
 11
29885.604341291921
 21
1667.749496429288
 31
0.0
  0
ARC
  5
58C2
  8
YODOROGO
 10
28906.911576186842
 20
1618.217864442272
 30
0.0
 40
94.705151178741644
 50
274.05244162907098
 51
0.9266642149310712
  0
ARC
  5
58C3
  8
YODOROGO
 10
28909.186170719819
 20
1592.61072861044
 30
0.0
 40
164.92042356085511
 50
271.5351210653775
 51
355.52727750585052
  0
LINE
  5
58C4
  8
YODOROGO
 10
28913.604341291921
 20
1523.7494964292871
 30
0.0
 11
28913.604341291921
 21
1427.749496429288
 31
0.0
  0
LINE
  5
58C5
  8
YODOROGO
 10
28793.60434129191
 20
1667.749496429288
 30
0.0
 11
28657.604341291921
 21
1667.749496429288
 31
0.0
  0
LINE
  5
58C6
  8
YODOROGO
 10
28793.60434129191
 20
1603.7494964292871
 30
0.0
 11
28793.60434129191
 21
1667.749496429288
 31
0.0
  0
LINE
  5
58C7
  8
YODOROGO
 10
28657.604341291921
 20
1603.7494964292871
 30
0.0
 11
28793.60434129191
 21
1603.7494964292871
 31
0.0
  0
LINE
  5
58C8
  8
YODOROGO
 10
28657.604341291921
 20
1523.7494964292871
 30
0.0
 11
28657.604341291921
 21
1603.7494964292871
 31
0.0
  0
LINE
  5
58C9
  8
YODOROGO
 10
28793.60434129191
 20
1523.7494964292871
 30
0.0
 11
28657.604341291921
 21
1523.7494964292871
 31
0.0
  0
LINE
  5
58CA
  8
YODOROGO
 10
28793.60434129191
 20
1427.749496429288
 30
0.0
 11
28793.60434129191
 21
1523.7494964292871
 31
0.0
  0
LINE
  5
58CB
  8
YODOROGO
 10
29197.604341291921
 20
1491.749496429286
 30
0.0
 11
29261.604341291921
 21
1491.749496429286
 31
0.0
  0
LINE
  5
58CC
  8
YODOROGO
 10
29385.604341291921
 20
1427.749496429288
 30
0.0
 11
29457.604341291921
 21
1427.749496429288
 31
0.0
  0
LINE
  5
58CD
  8
YODOROGO
 10
29737.604341291921
 20
1528.4414521705639
 30
0.0
 11
29737.604341291921
 21
1427.749496429288
 31
0.0
  0
LINE
  5
58CE
  8
YODOROGO
 10
29617.604341291921
 20
1427.749496429288
 30
0.0
 11
29737.604341291921
 21
1528.4414521705639
 31
0.0
  0
LINE
  5
58CF
  8
YODOROGO
 10
29617.604341291921
 20
1547.749496429288
 30
0.0
 11
29617.604341291921
 21
1427.749496429288
 31
0.0
  0
LINE
  5
58D0
  8
YODOROGO
 10
29712.94462869945
 20
1627.749496429288
 30
0.0
 11
29617.604341291921
 21
1547.749496429288
 31
0.0
  0
LINE
  5
58D1
  8
YODOROGO
 10
29617.604341291921
 20
1627.749496429288
 30
0.0
 11
29712.94462869945
 21
1627.749496429288
 31
0.0
  0
LINE
  5
58D2
  8
YODOROGO
 10
29617.604341291921
 20
1667.749496429288
 30
0.0
 11
29617.604341291921
 21
1627.749496429288
 31
0.0
  0
LINE
  5
58D3
  8
YODOROGO
 10
29885.604341291921
 20
1667.749496429288
 30
0.0
 11
29617.604341291921
 21
1667.749496429288
 31
0.0
  0
LINE
  5
58D4
  8
YODOROGO
 10
29917.604341291921
 20
1627.749496429288
 30
0.0
 11
29777.604341291921
 21
1627.749496429288
 31
0.0
  0
LINE
  5
58D5
  8
YODOROGO
 10
29777.604341291921
 20
1562.0054374176559
 30
0.0
 11
29771.409872985321
 21
1556.807661346234
 31
0.0
  0
LINE
  5
58D6
  8
YODOROGO
 10
29777.604341291921
 20
1627.749496429288
 30
0.0
 11
29777.604341291921
 21
1562.0054374176559
 31
0.0
  0
LINE
  5
58D7
  8
YODOROGO
 10
29737.604341291921
 20
1528.4414521705639
 30
0.0
 11
29737.604341291921
 21
1427.749496429288
 31
0.0
  0
LINE
  5
58D8
  8
YODOROGO
 10
29617.604341291921
 20
1427.749496429288
 30
0.0
 11
29737.604341291921
 21
1528.4414521705639
 31
0.0
  0
LINE
  5
58D9
  8
YODOROGO
 10
29617.604341291921
 20
1547.749496429288
 30
0.0
 11
29617.604341291921
 21
1427.749496429288
 31
0.0
  0
LINE
  5
58DA
  8
YODOROGO
 10
29712.94462869945
 20
1627.749496429288
 30
0.0
 11
29617.604341291921
 21
1547.749496429288
 31
0.0
  0
LINE
  5
58DB
  8
YODOROGO
 10
29617.604341291921
 20
1627.749496429288
 30
0.0
 11
29712.94462869945
 21
1627.749496429288
 31
0.0
  0
LINE
  5
58DC
  8
YODOROGO
 10
29617.604341291921
 20
1667.749496429288
 30
0.0
 11
29617.604341291921
 21
1627.749496429288
 31
0.0
  0
LINE
  5
58DD
  8
YODOROGO
 10
29885.604341291921
 20
1667.749496429288
 30
0.0
 11
29617.604341291921
 21
1667.749496429288
 31
0.0
  0
LINE
  5
58DE
  8
YODOROGO
 10
28793.60434129191
 20
1747.74949642929
 30
0.0
 11
28793.60434129191
 21
1819.7494964292871
 31
0.0
  0
LINE
  5
58DF
  8
YODOROGO
 10
28657.604341291921
 20
1747.74949642929
 30
0.0
 11
28793.60434129191
 21
1747.74949642929
 31
0.0
  0
LINE
  5
58E0
  8
YODOROGO
 10
28729.604341291921
 20
1867.7494964292871
 30
0.0
 11
28729.604341291921
 21
1923.7494964292871
 31
0.0
  0
LINE
  5
58E1
  8
YODOROGO
 10
28793.60434129191
 20
1867.7494964292871
 30
0.0
 11
28729.604341291921
 21
1867.7494964292871
 31
0.0
  0
LINE
  5
58E2
  8
YODOROGO
 10
28793.60434129191
 20
1947.749496429288
 30
0.0
 11
28793.60434129191
 21
1867.7494964292871
 31
0.0
  0
ARC
  5
58E3
  8
YODOROGO
 10
28753.60434129191
 20
1947.749496429288
 30
0.0
 40
40.0
 50
0.0
 51
90.0
  0
LINE
  5
58E4
  8
YODOROGO
 10
28657.604341291921
 20
1987.7494964292871
 30
0.0
 11
28753.60434129191
 21
1987.7494964292871
 31
0.0
  0
LINE
  5
58E5
  8
YODOROGO
 10
28657.604341291921
 20
2027.749496429288
 30
0.0
 11
28657.604341291921
 21
1987.7494964292871
 31
0.0
  0
LINE
  5
58E6
  8
YODOROGO
 10
29073.604341291921
 20
2027.749496429288
 30
0.0
 11
29001.60434129191
 21
2027.749496429288
 31
0.0
  0
LINE
  5
58E7
  8
YODOROGO
 10
29261.604341291921
 20
2007.749496429288
 30
0.0
 11
29197.604341291921
 21
2007.749496429288
 31
0.0
  0
LINE
  5
58E8
  8
YODOROGO
 10
29457.604341291921
 20
2027.749496429288
 30
0.0
 11
29385.604341291921
 21
2027.749496429288
 31
0.0
  0
LINE
  5
58E9
  8
YODOROGO
 10
29673.604341291921
 20
1707.749496429288
 30
0.0
 11
29673.604341291921
 21
1771.7494964292871
 31
0.0
1001
AUTOCAD_POSTSCRIPT_FIGURE
1002
{
1000
PSFILL
1000
Grayscale
1000
Grayscale
1070
    25
1002
}
  0
LINE
  5
58EA
  8
YODOROGO
 10
29617.604341291921
 20
1707.749496429288
 30
0.0
 11
29673.604341291921
 21
1707.749496429288
 31
0.0
1001
AUTOCAD_POSTSCRIPT_FIGURE
1002
{
1000
PSFILL
1000
Grayscale
1000
Grayscale
1070
    25
1002
}
  0
LINE
  5
58EB
  8
YODOROGO
 10
29617.604341291921
 20
1819.7494964292871
 30
0.0
 11
29617.604341291921
 21
1707.749496429288
 31
0.0
1001
AUTOCAD_POSTSCRIPT_FIGURE
1002
{
1000
PSFILL
1000
Grayscale
1000
Grayscale
1070
    25
1002
}
  0
LINE
  5
58EC
  8
YODOROGO
 10
29765.604341291921
 20
1819.7494964292871
 30
0.0
 11
29617.604341291921
 21
1819.7494964292871
 31
0.0
1001
AUTOCAD_POSTSCRIPT_FIGURE
1002
{
1000
PSFILL
1000
Grayscale
1000
Grayscale
1070
    25
1002
}
  0
LINE
  5
58ED
  8
YODOROGO
 10
29765.604341291921
 20
1859.749496429288
 30
0.0
 11
29765.604341291921
 21
1819.7494964292871
 31
0.0
1001
AUTOCAD_POSTSCRIPT_FIGURE
1002
{
1000
PSFILL
1000
Grayscale
1000
Grayscale
1070
    25
1002
}
  0
LINE
  5
58EE
  8
YODOROGO
 10
29617.604341291921
 20
1859.749496429288
 30
0.0
 11
29765.604341291921
 21
1859.749496429288
 31
0.0
1001
AUTOCAD_POSTSCRIPT_FIGURE
1002
{
1000
PSFILL
1000
Grayscale
1000
Grayscale
1070
    25
1002
}
  0
LINE
  5
58EF
  8
YODOROGO
 10
29617.604341291921
 20
1907.7494964292871
 30
0.0
 11
29617.604341291921
 21
1859.749496429288
 31
0.0
1001
AUTOCAD_POSTSCRIPT_FIGURE
1002
{
1000
PSFILL
1000
Grayscale
1000
Grayscale
1070
    25
1002
}
  0
LINE
  5
58F0
  8
YODOROGO
 10
29765.604341291921
 20
1907.7494964292871
 30
0.0
 11
29617.604341291921
 21
1907.7494964292871
 31
0.0
1001
AUTOCAD_POSTSCRIPT_FIGURE
1002
{
1000
PSFILL
1000
Grayscale
1000
Grayscale
1070
    25
1002
}
  0
LINE
  5
58F1
  8
YODOROGO
 10
29765.604341291921
 20
1947.749496429288
 30
0.0
 11
29765.604341291921
 21
1907.7494964292871
 31
0.0
1001
AUTOCAD_POSTSCRIPT_FIGURE
1002
{
1000
PSFILL
1000
Grayscale
1000
Grayscale
1070
    25
1002
}
  0
LINE
  5
58F2
  8
YODOROGO
 10
29617.604341291921
 20
1947.749496429288
 30
0.0
 11
29765.604341291921
 21
1947.749496429288
 31
0.0
1001
AUTOCAD_POSTSCRIPT_FIGURE
1002
{
1000
PSFILL
1000
Grayscale
1000
Grayscale
1070
    25
1002
}
  0
LINE
  5
58F3
  8
YODOROGO
 10
29617.604341291921
 20
2027.749496429288
 30
0.0
 11
29617.604341291921
 21
1947.749496429288
 31
0.0
1001
AUTOCAD_POSTSCRIPT_FIGURE
1002
{
1000
PSFILL
1000
Grayscale
1000
Grayscale
1070
    25
1002
}
  0
LINE
  5
58F4
  8
YODOROGO
 10
29665.604341291921
 20
2027.749496429288
 30
0.0
 11
29617.604341291921
 21
2027.749496429288
 31
0.0
1001
AUTOCAD_POSTSCRIPT_FIGURE
1002
{
1000
PSFILL
1000
Grayscale
1000
Grayscale
1070
    25
1002
}
  0
LINE
  5
58F5
  8
YODOROGO
 10
29665.604341291921
 20
1995.7494964292871
 30
0.0
 11
29665.604341291921
 21
2027.749496429288
 31
0.0
1001
AUTOCAD_POSTSCRIPT_FIGURE
1002
{
1000
PSFILL
1000
Grayscale
1000
Grayscale
1070
    25
1002
}
  0
LINE
  5
58F6
  8
YODOROGO
 10
29765.604341291921
 20
1995.7494964292871
 30
0.0
 11
29665.604341291921
 21
1995.7494964292871
 31
0.0
1001
AUTOCAD_POSTSCRIPT_FIGURE
1002
{
1000
PSFILL
1000
Grayscale
1000
Grayscale
1070
    25
1002
}
  0
LINE
  5
58F7
  8
YODOROGO
 10
29765.604341291921
 20
2027.749496429288
 30
0.0
 11
29765.604341291921
 21
1995.7494964292871
 31
0.0
1001
AUTOCAD_POSTSCRIPT_FIGURE
1002
{
1000
PSFILL
1000
Grayscale
1000
Grayscale
1070
    25
1002
}
  0
LINE
  5
58F8
  8
YODOROGO
 10
29829.604341291921
 20
2027.749496429288
 30
0.0
 11
29765.604341291921
 21
2027.749496429288
 31
0.0
1001
AUTOCAD_POSTSCRIPT_FIGURE
1002
{
1000
PSFILL
1000
Grayscale
1000
Grayscale
1070
    25
1002
}
  0
LINE
  5
58F9
  8
YODOROGO
 10
29829.604341291921
 20
1995.7494964292871
 30
0.0
 11
29829.604341291921
 21
2027.749496429288
 31
0.0
1001
AUTOCAD_POSTSCRIPT_FIGURE
1002
{
1000
PSFILL
1000
Grayscale
1000
Grayscale
1070
    25
1002
}
  0
LINE
  5
58FA
  8
YODOROGO
 10
29829.604341291921
 20
1907.7494964292871
 30
0.0
 11
29829.604341291921
 21
1947.749496429288
 31
0.0
1001
AUTOCAD_POSTSCRIPT_FIGURE
1002
{
1000
PSFILL
1000
Grayscale
1000
Grayscale
1070
    25
1002
}
  0
LINE
  5
58FB
  8
YODOROGO
 10
29829.604341291921
 20
1819.7494964292871
 30
0.0
 11
29829.604341291921
 21
1859.749496429288
 31
0.0
1001
AUTOCAD_POSTSCRIPT_FIGURE
1002
{
1000
PSFILL
1000
Grayscale
1000
Grayscale
1070
    25
1002
}
  0
LINE
  5
58FC
  8
YODOROGO
 10
29921.60434129191
 20
1771.7494964292871
 30
0.0
 11
29921.60434129191
 21
1707.749496429288
 31
0.0
1001
AUTOCAD_POSTSCRIPT_FIGURE
1002
{
1000
PSFILL
1000
Grayscale
1000
Grayscale
1070
    25
1002
}
  0
LINE
  5
58FD
  8
YODOROGO
 10
29829.604341291921
 20
1771.7494964292871
 30
0.0
 11
29921.60434129191
 21
1771.7494964292871
 31
0.0
1001
AUTOCAD_POSTSCRIPT_FIGURE
1002
{
1000
PSFILL
1000
Grayscale
1000
Grayscale
1070
    25
1002
}
  0
LINE
  5
58FE
  8
YODOROGO
 10
29829.604341291921
 20
1707.749496429288
 30
0.0
 11
29829.604341291921
 21
1771.7494964292871
 31
0.0
1001
AUTOCAD_POSTSCRIPT_FIGURE
1002
{
1000
PSFILL
1000
Grayscale
1000
Grayscale
1070
    25
1002
}
  0
LINE
  5
58FF
  8
YODOROGO
 10
29765.604341291921
 20
1707.749496429288
 30
0.0
 11
29829.604341291921
 21
1707.749496429288
 31
0.0
1001
AUTOCAD_POSTSCRIPT_FIGURE
1002
{
1000
PSFILL
1000
Grayscale
1000
Grayscale
1070
    25
1002
}
  0
LINE
  5
5900
  8
YODOROGO
 10
29765.604341291921
 20
1771.7494964292871
 30
0.0
 11
29765.604341291921
 21
1707.749496429288
 31
0.0
1001
AUTOCAD_POSTSCRIPT_FIGURE
1002
{
1000
PSFILL
1000
Grayscale
1000
Grayscale
1070
    25
1002
}
  0
LINE
  5
5901
  8
YODOROGO
 10
29673.604341291921
 20
1771.7494964292871
 30
0.0
 11
29765.604341291921
 21
1771.7494964292871
 31
0.0
1001
AUTOCAD_POSTSCRIPT_FIGURE
1002
{
1000
PSFILL
1000
Grayscale
1000
Grayscale
1070
    25
1002
}
  0
ARC
  5
5902
  8
YODOROGO
 10
31059.517893357912
 20
1602.6807375155761
 30
0.0
 40
178.22128111072141
 50
281.02627495425338
 51
357.77113575573799
  0
LINE
  5
5903
  8
YODOROGO
 10
31413.604341291921
 20
1907.7494964292871
 30
0.0
 11
31165.604341291921
 21
1907.7494964292871
 31
0.0
  0
LINE
  5
5904
  8
YODOROGO
 10
31413.604341291921
 20
2027.749496429288
 30
0.0
 11
31165.604341291921
 21
2027.749496429288
 31
0.0
  0
LINE
  5
5905
  8
YODOROGO
 10
31165.604341291921
 20
1963.749496429286
 30
0.0
 11
31413.604341291921
 21
1963.749496429286
 31
0.0
  0
LINE
  5
5906
  8
YODOROGO
 10
30791.604341291921
 20
1563.7494964292871
 30
0.0
 11
30791.604341291921
 21
1755.7494964292871
 31
0.0
  0
LINE
  5
5907
  8
YODOROGO
 10
30763.604341291921
 20
1691.749496429288
 30
0.0
 11
30763.604341291921
 21
1563.7494964292871
 31
0.0
  0
LINE
  5
5908
  8
YODOROGO
 10
30723.604341291921
 20
1491.749496429288
 30
0.0
 11
30723.604341291921
 21
1691.749496429288
 31
0.0
  0
LINE
  5
5909
  8
YODOROGO
 10
30899.604341291932
 20
1691.749496429288
 30
0.0
 11
30899.604341291932
 21
1491.749496429288
 31
0.0
  0
LINE
  5
590A
  8
YODOROGO
 10
30859.604341291932
 20
1563.7494964292871
 30
0.0
 11
30859.604341291932
 21
1691.749496429288
 31
0.0
  0
LINE
  5
590B
  8
YODOROGO
 10
30831.604341291921
 20
1755.7494964292871
 30
0.0
 11
30831.604341291921
 21
1563.7494964292871
 31
0.0
  0
LINE
  5
590C
  8
YODOROGO
 10
30973.604341291921
 20
2027.749496429288
 30
0.0
 11
30973.604341291921
 21
1467.749496429288
 31
0.0
  0
LINE
  5
590D
  8
YODOROGO
 10
30645.604341291921
 20
1427.749496429288
 30
0.0
 11
30645.604341291921
 21
2027.749496429288
 31
0.0
  0
LINE
  5
590E
  8
YODOROGO
 10
30697.604341291932
 20
1963.749496429286
 30
0.0
 11
30697.604341291932
 21
1427.749496429288
 31
0.0
  0
LINE
  5
590F
  8
YODOROGO
 10
30925.604341291921
 20
1547.749496429288
 30
0.0
 11
30925.604341291921
 21
1963.749496429286
 31
0.0
  0
LINE
  5
5910
  8
YODOROGO
 10
30381.604341291932
 20
1627.749496429288
 30
0.0
 11
30381.604341291932
 21
1679.749496429288
 31
0.0
  0
LINE
  5
5911
  8
YODOROGO
 10
30617.604341291921
 20
1679.749496429288
 30
0.0
 11
30617.604341291921
 21
1627.749496429288
 31
0.0
  0
LINE
  5
5912
  8
YODOROGO
 10
31165.604341291921
 20
1907.7494964292871
 30
0.0
 11
31165.604341291921
 21
1635.7494964292871
 31
0.0
  0
LINE
  5
5913
  8
YODOROGO
 10
29949.60434129191
 20
1667.749496429288
 30
0.0
 11
29949.60434129191
 21
1707.749496429288
 31
0.0
  0
LINE
  5
5914
  8
YODOROGO
 10
29949.60434129191
 20
1667.749496429288
 30
0.0
 11
29949.60434129191
 21
1707.749496429288
 31
0.0
  0
ARC
  5
5915
  8
YODOROGO
 10
30537.604341291921
 20
1507.749496429288
 30
0.0
 40
80.0
 50
270.0
 51
0.0
  0
LINE
  5
5916
  8
YODOROGO
 10
30569.604341291921
 20
1599.7494964292871
 30
0.0
 11
30617.604341291921
 21
1599.7494964292871
 31
0.0
  0
LINE
  5
5917
  8
YODOROGO
 10
30617.604341291921
 20
1627.749496429288
 30
0.0
 11
30529.604341291939
 21
1627.749496429288
 31
0.0
  0
LINE
  5
5918
  8
YODOROGO
 10
30217.604341291921
 20
1667.749496429288
 30
0.0
 11
29949.60434129191
 21
1667.749496429288
 31
0.0
  0
LINE
  5
5919
  8
YODOROGO
 10
30217.604341291921
 20
1627.749496429288
 30
0.0
 11
30217.604341291921
 21
1667.749496429288
 31
0.0
  0
LINE
  5
591A
  8
YODOROGO
 10
30017.604341291921
 20
1627.749496429288
 30
0.0
 11
30217.604341291921
 21
1627.749496429288
 31
0.0
  0
ARC
  5
591B
  8
YODOROGO
 10
30230.05882870136
 20
1868.885714952901
 30
0.0
 40
321.37763628522822
 50
228.6181454618993
 51
245.660289248906
  0
LINE
  5
591C
  8
YODOROGO
 10
30105.604341291921
 20
1603.7494964292871
 30
0.0
 11
30097.60434129195
 21
1576.0728158699001
 31
0.0
  0
LINE
  5
591D
  8
YODOROGO
 10
30189.604341291921
 20
1603.7494964292871
 30
0.0
 11
30105.604341291921
 21
1603.7494964292871
 31
0.0
  0
LINE
  5
591E
  8
YODOROGO
 10
30177.604341291921
 20
1551.817722473427
 30
0.0
 11
30189.604341291921
 21
1603.7494964292871
 31
0.0
  0
ARC
  5
591F
  8
YODOROGO
 10
30230.05882870045
 20
1868.885714953002
 30
0.0
 40
321.37763628529081
 50
260.60629297969911
 51
267.77903556555862
  0
LINE
  5
5920
  8
YODOROGO
 10
30217.604341291921
 20
1427.749496429285
 30
0.0
 11
30217.604341291921
 21
1547.749496429288
 31
0.0
  0
LINE
  5
5921
  8
YODOROGO
 10
29937.604341291932
 20
1481.3393349155101
 30
0.0
 11
29937.604341291921
 21
1594.531090531141
 31
0.0
  0
LINE
  5
5922
  8
YODOROGO
 10
30217.604341291921
 20
1667.749496429288
 30
0.0
 11
29949.60434129191
 21
1667.749496429288
 31
0.0
  0
LINE
  5
5923
  8
YODOROGO
 10
30217.604341291921
 20
1627.749496429288
 30
0.0
 11
30217.604341291921
 21
1667.749496429288
 31
0.0
  0
LINE
  5
5924
  8
YODOROGO
 10
30017.604341291921
 20
1627.749496429288
 30
0.0
 11
30217.604341291921
 21
1627.749496429288
 31
0.0
  0
ARC
  5
5925
  8
YODOROGO
 10
30230.05882870136
 20
1868.885714952901
 30
0.0
 40
321.37763628522822
 50
228.6181454618993
 51
245.660289248906
  0
LINE
  5
5926
  8
YODOROGO
 10
30105.604341291921
 20
1603.7494964292871
 30
0.0
 11
30097.60434129195
 21
1576.0728158699001
 31
0.0
  0
LINE
  5
5927
  8
YODOROGO
 10
30189.604341291921
 20
1603.7494964292871
 30
0.0
 11
30105.604341291921
 21
1603.7494964292871
 31
0.0
  0
LINE
  5
5928
  8
YODOROGO
 10
30177.604341291921
 20
1551.817722473427
 30
0.0
 11
30189.604341291921
 21
1603.7494964292871
 31
0.0
  0
ARC
  5
5929
  8
YODOROGO
 10
30230.05882870045
 20
1868.885714953002
 30
0.0
 40
321.37763628529081
 50
260.60629297969911
 51
267.77903556555862
  0
LINE
  5
592A
  8
YODOROGO
 10
30217.604341291921
 20
1427.749496429285
 30
0.0
 11
30217.604341291921
 21
1547.749496429288
 31
0.0
  0
LINE
  5
592B
  8
YODOROGO
 10
29937.604341291932
 20
1481.3393349155101
 30
0.0
 11
29937.604341291921
 21
1594.531090531141
 31
0.0
  0
LINE
  5
592C
  8
YODOROGO
 10
30433.604341291921
 20
1573.749496429288
 30
0.0
 11
30381.604341291932
 21
1573.749496429288
 31
0.0
  0
LINE
  5
592D
  8
YODOROGO
 10
30433.604341291921
 20
1601.749496429285
 30
0.0
 11
30433.604341291921
 21
1573.749496429288
 31
0.0
  0
LINE
  5
592E
  8
YODOROGO
 10
30381.604341291932
 20
1601.749496429285
 30
0.0
 11
30433.604341291921
 21
1601.749496429285
 31
0.0
  0
LINE
  5
592F
  8
YODOROGO
 10
30381.604341291932
 20
1573.749496429288
 30
0.0
 11
30381.604341291932
 21
1601.749496429285
 31
0.0
  0
LINE
  5
5930
  8
YODOROGO
 10
30429.604341291921
 20
1577.7494964292871
 30
0.0
 11
30385.604341291921
 21
1577.7494964292871
 31
0.0
  0
LINE
  5
5931
  8
YODOROGO
 10
30429.604341291921
 20
1597.749496429288
 30
0.0
 11
30429.604341291921
 21
1577.7494964292871
 31
0.0
  0
LINE
  5
5932
  8
YODOROGO
 10
30385.604341291921
 20
1597.749496429288
 30
0.0
 11
30429.604341291921
 21
1597.749496429288
 31
0.0
  0
LINE
  5
5933
  8
YODOROGO
 10
30385.604341291921
 20
1577.7494964292871
 30
0.0
 11
30385.604341291921
 21
1597.749496429288
 31
0.0
  0
LINE
  5
5934
  8
YODOROGO
 10
30425.604341291921
 20
1581.749496429286
 30
0.0
 11
30389.604341291921
 21
1581.749496429286
 31
0.0
  0
LINE
  5
5935
  8
YODOROGO
 10
30425.604341291921
 20
1593.749496429288
 30
0.0
 11
30425.604341291921
 21
1581.749496429286
 31
0.0
  0
LINE
  5
5936
  8
YODOROGO
 10
30389.604341291921
 20
1593.749496429288
 30
0.0
 11
30425.604341291921
 21
1593.749496429288
 31
0.0
  0
LINE
  5
5937
  8
YODOROGO
 10
30389.604341291921
 20
1581.749496429286
 30
0.0
 11
30389.604341291921
 21
1593.749496429288
 31
0.0
  0
LINE
  5
5938
  8
YODOROGO
 10
30421.604341291932
 20
1585.7494964292871
 30
0.0
 11
30393.604341291921
 21
1585.7494964292871
 31
0.0
  0
LINE
  5
5939
  8
YODOROGO
 10
30421.604341291932
 20
1589.749496429288
 30
0.0
 11
30421.604341291932
 21
1585.7494964292871
 31
0.0
  0
LINE
  5
593A
  8
YODOROGO
 10
30393.604341291921
 20
1589.749496429288
 30
0.0
 11
30421.604341291932
 21
1589.749496429288
 31
0.0
  0
LINE
  5
593B
  8
YODOROGO
 10
30393.604341291921
 20
1585.7494964292871
 30
0.0
 11
30393.604341291921
 21
1589.749496429288
 31
0.0
  0
LINE
  5
593C
  8
YODOROGO
 10
30465.604341291921
 20
1627.749496429288
 30
0.0
 11
30381.604341291932
 21
1627.749496429288
 31
0.0
  0
LINE
  5
593D
  8
YODOROGO
 10
30465.604341291921
 20
1547.749496429288
 30
0.0
 11
30465.604341291921
 21
1627.749496429288
 31
0.0
  0
LINE
  5
593E
  8
YODOROGO
 10
30381.604341291932
 20
1547.749496429288
 30
0.0
 11
30465.604341291921
 21
1547.749496429288
 31
0.0
  0
LINE
  5
593F
  8
YODOROGO
 10
30381.604341291932
 20
1427.749496429288
 30
0.0
 11
30381.604341291932
 21
1547.749496429288
 31
0.0
  0
LINE
  5
5940
  8
YODOROGO
 10
30537.604341291921
 20
1427.749496429288
 30
0.0
 11
30381.604341291932
 21
1427.749496429288
 31
0.0
  0
LINE
  5
5941
  8
YODOROGO
 10
30569.604341291921
 20
1571.749496429285
 30
0.0
 11
30569.604341291921
 21
1599.7494964292871
 31
0.0
  0
ARC
  5
5942
  8
YODOROGO
 10
30545.604341291921
 20
1571.749496429291
 30
0.0
 40
24.000000000003752
 50
270.0
 51
359.99999999998772
  0
LINE
  5
5943
  8
YODOROGO
 10
30529.604341291939
 20
1547.749496429288
 30
0.0
 11
30545.604341291921
 21
1547.749496429288
 31
0.0
  0
LINE
  5
5944
  8
YODOROGO
 10
30529.604341291939
 20
1627.749496429288
 30
0.0
 11
30529.604341291939
 21
1547.749496429288
 31
0.0
  0
LINE
  5
5945
  8
YODOROGO
 10
30899.604341291932
 20
1547.749496429288
 30
0.0
 11
30925.604341291921
 21
1547.749496429288
 31
0.0
  0
LINE
  5
5946
  8
YODOROGO
 10
30933.604341291921
 20
1427.749496429288
 30
0.0
 11
30899.604341291932
 21
1427.749496429288
 31
0.0
  0
LINE
  5
5947
  8
YODOROGO
 10
30763.604341291921
 20
1563.7494964292871
 30
0.0
 11
30791.604341291921
 21
1563.7494964292871
 31
0.0
  0
LINE
  5
5948
  8
YODOROGO
 10
30899.604341291932
 20
1491.749496429288
 30
0.0
 11
30723.604341291921
 21
1491.749496429288
 31
0.0
  0
LINE
  5
5949
  8
YODOROGO
 10
30831.604341291921
 20
1563.7494964292871
 30
0.0
 11
30859.604341291932
 21
1563.7494964292871
 31
0.0
  0
LINE
  5
594A
  8
YODOROGO
 10
30899.604341291932
 20
1427.749496429288
 30
0.0
 11
30899.604341291932
 21
1547.749496429288
 31
0.0
  0
LINE
  5
594B
  8
YODOROGO
 10
30697.604341291932
 20
1427.749496429288
 30
0.0
 11
30645.604341291921
 21
1427.749496429288
 31
0.0
  0
LINE
  5
594C
  8
YODOROGO
 10
30617.604341291921
 20
1599.7494964292871
 30
0.0
 11
30617.604341291921
 21
1507.749496429288
 31
0.0
  0
ARC
  5
594D
  8
YODOROGO
 10
30933.604341291921
 20
1467.749496429288
 30
0.0
 40
40.0
 50
270.0
 51
0.0
  0
LINE
  5
594E
  8
YODOROGO
 10
31093.604341291921
 20
1523.7494964292871
 30
0.0
 11
31093.604341291921
 21
1427.749496429288
 31
0.0
  0
ARC
  5
594F
  8
YODOROGO
 10
31039.721395566768
 20
1637.5313901097329
 30
0.0
 40
125.8955565916754
 50
295.34052442160112
 51
359.18902303418679
  0
LINE
  5
5950
  8
YODOROGO
 10
30617.604341291921
 20
1859.749496429288
 30
0.0
 11
30497.604341291921
 21
1939.749496429288
 31
0.0
  0
LINE
  5
5951
  8
YODOROGO
 10
30497.604341291921
 20
2027.749496429288
 30
0.0
 11
30617.604341291921
 21
1947.749496429288
 31
0.0
  0
LINE
  5
5952
  8
YODOROGO
 10
30529.604341291939
 20
1679.749496429288
 30
0.0
 11
30617.604341291921
 21
1679.749496429288
 31
0.0
  0
LINE
  5
5953
  8
YODOROGO
 10
30617.604341291921
 20
1735.7494964292871
 30
0.0
 11
30529.604341291939
 21
1735.7494964292871
 31
0.0
  0
LINE
  5
5954
  8
YODOROGO
 10
30381.604341291932
 20
1795.7494964292871
 30
0.0
 11
30617.604341291921
 21
1795.7494964292871
 31
0.0
  0
LINE
  5
5955
  8
YODOROGO
 10
30081.604341291921
 20
2027.749496429288
 30
0.0
 11
30021.604341291921
 21
2027.749496429288
 31
0.0
  0
LINE
  5
5956
  8
YODOROGO
 10
30081.604341291921
 20
1827.7494964292871
 30
0.0
 11
30081.604341291921
 21
2027.749496429288
 31
0.0
  0
LINE
  5
5957
  8
YODOROGO
 10
30021.604341291921
 20
1827.7494964292871
 30
0.0
 11
30081.604341291921
 21
1827.7494964292871
 31
0.0
  0
LINE
  5
5958
  8
YODOROGO
 10
30021.604341291921
 20
2027.749496429288
 30
0.0
 11
30021.604341291921
 21
1827.7494964292871
 31
0.0
  0
LINE
  5
5959
  8
YODOROGO
 10
30161.604341291921
 20
2027.749496429288
 30
0.0
 11
30217.604341291921
 21
2027.749496429288
 31
0.0
  0
LINE
  5
595A
  8
YODOROGO
 10
30161.604341291921
 20
1811.749496429288
 30
0.0
 11
30161.604341291921
 21
2027.749496429288
 31
0.0
  0
ARC
  5
595B
  8
YODOROGO
 10
30121.604341291921
 20
1811.749496429288
 30
0.0
 40
40.0
 50
270.0
 51
0.0
  0
LINE
  5
595C
  8
YODOROGO
 10
30021.604341291921
 20
1771.7494964292871
 30
0.0
 11
30121.604341291921
 21
1771.7494964292871
 31
0.0
  0
LINE
  5
595D
  8
YODOROGO
 10
30021.604341291921
 20
1707.749496429288
 30
0.0
 11
30021.604341291921
 21
1771.7494964292871
 31
0.0
  0
LINE
  5
595E
  8
YODOROGO
 10
30137.604341291921
 20
1707.749496429288
 30
0.0
 11
30021.604341291921
 21
1707.749496429288
 31
0.0
  0
ARC
  5
595F
  8
YODOROGO
 10
30137.604341291921
 20
1787.7494964292871
 30
0.0
 40
80.0
 50
270.0
 51
0.0
  0
LINE
  5
5960
  8
YODOROGO
 10
30217.604341291921
 20
2027.749496429288
 30
0.0
 11
30217.604341291921
 21
1787.7494964292871
 31
0.0
  0
LINE
  5
5961
  8
YODOROGO
 10
29977.604341291921
 20
1947.749496429288
 30
0.0
 11
29977.604341291921
 21
1995.7494964292871
 31
0.0
1001
AUTOCAD_POSTSCRIPT_FIGURE
1002
{
1000
PSFILL
1000
Grayscale
1000
Grayscale
1070
    25
1002
}
  0
LINE
  5
5962
  8
YODOROGO
 10
29977.604341291921
 20
1859.749496429288
 30
0.0
 11
29977.604341291921
 21
1907.7494964292871
 31
0.0
1001
AUTOCAD_POSTSCRIPT_FIGURE
1002
{
1000
PSFILL
1000
Grayscale
1000
Grayscale
1070
    25
1002
}
  0
LINE
  5
5963
  8
YODOROGO
 10
29977.604341291921
 20
1707.749496429288
 30
0.0
 11
29977.604341291921
 21
1819.7494964292871
 31
0.0
1001
AUTOCAD_POSTSCRIPT_FIGURE
1002
{
1000
PSFILL
1000
Grayscale
1000
Grayscale
1070
    25
1002
}
  0
LINE
  5
5964
  8
YODOROGO
 10
30381.604341291932
 20
1907.7494964292871
 30
0.0
 11
30497.604341291921
 21
2027.749496429288
 31
0.0
  0
LINE
  5
5965
  8
YODOROGO
 10
30381.604341291932
 20
1819.7494964292871
 30
0.0
 11
30381.604341291932
 21
1907.7494964292871
 31
0.0
  0
LINE
  5
5966
  8
YODOROGO
 10
30497.604341291921
 20
1939.749496429288
 30
0.0
 11
30381.604341291932
 21
1819.7494964292871
 31
0.0
  0
LINE
  5
5967
  8
YODOROGO
 10
30465.604341291921
 20
1679.749496429288
 30
0.0
 11
30465.604341291921
 21
1735.7494964292871
 31
0.0
  0
LINE
  5
5968
  8
YODOROGO
 10
30381.604341291932
 20
1679.749496429288
 30
0.0
 11
30465.604341291921
 21
1679.749496429288
 31
0.0
  0
LINE
  5
5969
  8
YODOROGO
 10
30529.604341291939
 20
1735.7494964292871
 30
0.0
 11
30529.604341291939
 21
1679.749496429288
 31
0.0
  0
LINE
  5
596A
  8
YODOROGO
 10
30381.604341291932
 20
1735.7494964292871
 30
0.0
 11
30381.604341291932
 21
1795.7494964292871
 31
0.0
  0
LINE
  5
596B
  8
YODOROGO
 10
30465.604341291921
 20
1735.7494964292871
 30
0.0
 11
30381.604341291932
 21
1735.7494964292871
 31
0.0
  0
LINE
  5
596C
  8
YODOROGO
 10
30645.604341291921
 20
2027.749496429288
 30
0.0
 11
30973.604341291921
 21
2027.749496429288
 31
0.0
  0
LINE
  5
596D
  8
YODOROGO
 10
30925.604341291921
 20
1963.749496429286
 30
0.0
 11
30697.604341291932
 21
1963.749496429286
 31
0.0
  0
LINE
  5
596E
  8
YODOROGO
 10
30873.604341291921
 20
1819.7494964292871
 30
0.0
 11
30899.604341291932
 21
1819.7494964292871
 31
0.0
  0
LINE
  5
596F
  8
YODOROGO
 10
30899.604341291932
 20
1939.749496429288
 30
0.0
 11
30873.604341291921
 21
1819.7494964292871
 31
0.0
  0
LINE
  5
5970
  8
YODOROGO
 10
30851.604341291939
 20
1939.749496429288
 30
0.0
 11
30899.604341291932
 21
1939.749496429288
 31
0.0
  0
LINE
  5
5971
  8
YODOROGO
 10
30825.604341291921
 20
1819.7494964292871
 30
0.0
 11
30851.604341291939
 21
1939.749496429288
 31
0.0
  0
LINE
  5
5972
  8
YODOROGO
 10
30797.604341291921
 20
1819.7494964292871
 30
0.0
 11
30825.604341291921
 21
1819.7494964292871
 31
0.0
  0
LINE
  5
5973
  8
YODOROGO
 10
30771.604341291939
 20
1939.749496429288
 30
0.0
 11
30797.604341291921
 21
1819.7494964292871
 31
0.0
  0
LINE
  5
5974
  8
YODOROGO
 10
30723.604341291921
 20
1939.749496429288
 30
0.0
 11
30771.604341291939
 21
1939.749496429288
 31
0.0
  0
LINE
  5
5975
  8
YODOROGO
 10
30749.604341291921
 20
1819.7494964292871
 30
0.0
 11
30723.604341291921
 21
1939.749496429288
 31
0.0
  0
LINE
  5
5976
  8
YODOROGO
 10
30723.604341291921
 20
1819.7494964292871
 30
0.0
 11
30749.604341291921
 21
1819.7494964292871
 31
0.0
  0
LINE
  5
5977
  8
YODOROGO
 10
30723.604341291921
 20
1755.7494964292871
 30
0.0
 11
30723.604341291921
 21
1819.7494964292871
 31
0.0
  0
LINE
  5
5978
  8
YODOROGO
 10
30899.604341291932
 20
1755.7494964292871
 30
0.0
 11
30723.604341291921
 21
1755.7494964292871
 31
0.0
  0
LINE
  5
5979
  8
YODOROGO
 10
30899.604341291932
 20
1819.7494964292871
 30
0.0
 11
30899.604341291932
 21
1755.7494964292871
 31
0.0
  0
LINE
  5
597A
  8
YODOROGO
 10
30617.604341291921
 20
1947.749496429288
 30
0.0
 11
30617.604341291921
 21
1859.749496429288
 31
0.0
  0
LINE
  5
597B
  8
YODOROGO
 10
30791.604341291921
 20
1755.7494964292871
 30
0.0
 11
30831.604341291921
 21
1755.7494964292871
 31
0.0
  0
LINE
  5
597C
  8
YODOROGO
 10
30723.604341291921
 20
1691.749496429288
 30
0.0
 11
30763.604341291921
 21
1691.749496429288
 31
0.0
  0
LINE
  5
597D
  8
YODOROGO
 10
30859.604341291932
 20
1691.749496429288
 30
0.0
 11
30899.604341291932
 21
1691.749496429288
 31
0.0
  0
LINE
  5
597E
  8
YODOROGO
 10
30617.604341291921
 20
1795.7494964292871
 30
0.0
 11
30617.604341291921
 21
1735.7494964292871
 31
0.0
  0
LINE
  5
597F
  8
YODOROGO
 10
31165.604341291921
 20
2027.749496429288
 30
0.0
 11
31165.604341291921
 21
1963.749496429286
 31
0.0
  0
LINE
  5
5980
  8
YODOROGO
 10
31533.604341291921
 20
1595.7494964292871
 30
0.0
 11
31533.60434129191
 21
1811.749496429288
 31
0.0
  0
LINE
  5
5981
  8
YODOROGO
 10
31461.60434129191
 20
1987.7494964292871
 30
0.0
 11
31461.60434129191
 21
1635.7494964292871
 31
0.0
  0
LINE
  5
5982
  8
YODOROGO
 10
31653.604341291921
 20
1427.749496429288
 30
0.0
 11
31653.60434129191
 21
1811.749496429288
 31
0.0
  0
LINE
  5
5983
  8
YODOROGO
 10
31589.604341291921
 20
1811.749496429288
 30
0.0
 11
31589.604341291921
 21
1427.749496429288
 31
0.0
  0
LINE
  5
5984
  8
YODOROGO
 10
31237.604341291921
 20
1595.7494964292871
 30
0.0
 11
31237.604341291921
 21
1707.749496429288
 31
0.0
  0
ARC
  5
5985
  8
YODOROGO
 10
31353.914865116069
 20
1607.790351288558
 30
0.0
 40
180.0924485759885
 50
268.62849102169793
 51
356.16638457330322
  0
LINE
  5
5986
  8
YODOROGO
 10
31349.604341291939
 20
1527.749496429288
 30
0.0
 11
31349.604341291939
 21
1427.749496429288
 31
0.0
  0
ARC
  5
5987
  8
YODOROGO
 10
31351.518075724562
 20
1637.838957017655
 30
0.0
 40
110.1060929836122
 50
269.00410209305932
 51
358.91264455492478
  0
LINE
  5
5988
  8
YODOROGO
 10
31589.604341291921
 20
1427.749496429288
 30
0.0
 11
31653.604341291921
 21
1427.749496429288
 31
0.0
  0
LINE
  5
5989
  8
YODOROGO
 10
31533.60434129191
 20
1811.749496429288
 30
0.0
 11
31589.604341291921
 21
1811.749496429288
 31
0.0
  0
LINE
  5
598A
  8
YODOROGO
 10
31621.604341291939
 20
1987.7494964292871
 30
0.0
 11
31461.60434129191
 21
1987.7494964292871
 31
0.0
  0
LINE
  5
598B
  8
YODOROGO
 10
31533.60434129191
 20
1915.7494964292871
 30
0.0
 11
31661.604341291939
 21
1915.7494964292871
 31
0.0
  0
LINE
  5
598C
  8
YODOROGO
 10
31701.604341291939
 20
1875.7494964292871
 30
0.0
 11
31533.60434129191
 21
1875.7494964292871
 31
0.0
  0
LINE
  5
598D
  8
YODOROGO
 10
31237.604341291921
 20
1779.749496429288
 30
0.0
 11
31349.604341291939
 21
1779.749496429288
 31
0.0
  0
LINE
  5
598E
  8
YODOROGO
 10
31237.604341291921
 20
1835.7494964292871
 30
0.0
 11
31237.604341291921
 21
1779.749496429288
 31
0.0
  0
LINE
  5
598F
  8
YODOROGO
 10
31349.604341291939
 20
1835.7494964292871
 30
0.0
 11
31237.604341291921
 21
1835.7494964292871
 31
0.0
  0
LINE
  5
5990
  8
YODOROGO
 10
31349.604341291939
 20
1779.749496429288
 30
0.0
 11
31349.604341291939
 21
1835.7494964292871
 31
0.0
  0
LINE
  5
5991
  8
YODOROGO
 10
31533.60434129191
 20
1875.7494964292871
 30
0.0
 11
31533.60434129191
 21
1915.7494964292871
 31
0.0
  0
LINE
  5
5992
  8
YODOROGO
 10
31413.604341291921
 20
1707.749496429288
 30
0.0
 11
31413.604341291921
 21
1907.7494964292871
 31
0.0
  0
LINE
  5
5993
  8
YODOROGO
 10
31237.604341291921
 20
1707.749496429288
 30
0.0
 11
31413.604341291921
 21
1707.749496429288
 31
0.0
  0
LINE
  5
5994
  8
YODOROGO
 10
31413.604341291921
 20
1963.749496429286
 30
0.0
 11
31413.604341291921
 21
2027.749496429288
 31
0.0
  0
ARC
  5
5995
  8
YODOROGO
 10
31621.604341291939
 20
2003.749496429285
 30
0.0
 40
15.999999999994539
 50
270.0
 51
0.0000000000081422
  0
LINE
  5
5996
  8
YODOROGO
 10
31637.604341291921
 20
2027.749496429288
 30
0.0
 11
31637.604341291921
 21
2003.7494964292871
 31
0.0
  0
LINE
  5
5997
  8
YODOROGO
 10
31701.604341291939
 20
2027.749496429288
 30
0.0
 11
31637.604341291921
 21
2027.749496429288
 31
0.0
  0
LINE
  5
5998
  8
YODOROGO
 10
31701.604341291939
 20
1955.7494964292871
 30
0.0
 11
31701.604341291939
 21
2027.749496429288
 31
0.0
  0
ARC
  5
5999
  8
YODOROGO
 10
31661.604341291939
 20
1955.7494964292871
 30
0.0
 40
40.0
 50
270.0
 51
0.0
  0
LINE
  5
599A
  8
YODOROGO
 10
31701.604341291939
 20
1811.749496429288
 30
0.0
 11
31701.604341291939
 21
1875.7494964292871
 31
0.0
  0
LINE
  5
599B
  8
YODOROGO
 10
31653.60434129191
 20
1811.749496429288
 30
0.0
 11
31701.604341291939
 21
1811.749496429288
 31
0.0
  0
LINE
  5
599F
  8
SUNPOU
  6
CONTINUOUS
 62
     4
 10
9181.0241415852743
 20
20037.826777999991
 30
0.0
 11
9181.0241415852743
 21
20587.832057
 31
0.0
  0
LINE
  5
59A0
  8
SUNPOU
  6
CONTINUOUS
 62
     4
 10
9266.5241415852706
 20
20507.832057
 30
0.0
 11
9506.5241415852724
 21
20507.832057
 31
0.0
  0
LINE
  5
59A1
  8
SUNPOU
  6
CONTINUOUS
 62
     4
 10
9184.0241415852743
 20
20507.832057
 30
0.0
 11
8944.0241415852724
 21
20507.832057
 31
0.0
  0
LINE
  5
59A2
  8
SUNPOU
  6
CONTINUOUS
 62
     4
 10
9266.5241415852706
 20
20507.832057
 30
0.0
 11
9184.0241415852743
 21
20507.832057
 31
0.0
  0
LINE
  5
59A3
  8
SUNPOU
  6
CONTINUOUS
 62
     4
 10
12535.024141585271
 20
20507.832057
 30
0.0
 11
9266.5241415852706
 21
20507.832057
 31
0.0
  0
LINE
  5
59A4
  8
SUNPOU
  6
CONTINUOUS
 62
     4
 10
14487.01226558523
 20
20037.826777999991
 30
0.0
 11
14487.01226558523
 21
20587.832057
 31
0.0
  0
LINE
  5
59A5
  8
SUNPOU
  6
CONTINUOUS
 62
     4
 10
14401.51226558523
 20
20507.832057
 30
0.0
 11
14161.51226558523
 21
20507.832057
 31
0.0
  0
LINE
  5
59A6
  8
SUNPOU
  6
CONTINUOUS
 62
     4
 10
14484.01226558523
 20
20507.832057
 30
0.0
 11
14724.012265585239
 21
20507.832057
 31
0.0
  0
LINE
  5
59A7
  8
SUNPOU
  6
CONTINUOUS
 62
     4
 10
14401.51226558523
 20
20507.832057
 30
0.0
 11
14484.01226558523
 21
20507.832057
 31
0.0
  0
LINE
  5
59A8
  8
SUNPOU
  6
CONTINUOUS
 62
     4
 10
12535.01226558523
 20
20507.832057
 30
0.0
 11
14401.51226558523
 21
20507.832057
 31
0.0
  0
LINE
  5
59A9
  8
SUNPOU
  6
CONTINUOUS
 62
     4
 10
9104.0138485852567
 20
19937.822819000001
 30
0.0
 11
8657.0184275852625
 21
19937.822819000001
 31
0.0
  0
LINE
  5
59AA
  8
SUNPOU
  6
CONTINUOUS
 62
     4
 10
9104.0182035852577
 20
19957.822819000001
 30
0.0
 11
8657.0184275852625
 21
19957.822819000001
 31
0.0
  0
LINE
  5
59AC
  8
SUNPOU
  6
CONTINUOUS
 62
     4
 10
8737.0184275852607
 20
19957.822819000001
 30
0.0
 11
8737.0184275852607
 21
20197.822819000012
 31
0.0
  0
LINE
  5
59AD
  8
SUNPOU
  6
CONTINUOUS
 62
     4
 10
8737.0184275852607
 20
19917.822819000001
 30
0.0
 11
8737.0184275852607
 21
19957.822819000001
 31
0.0
  0
LINE
  5
59AE
  8
SUNPOU
  6
CONTINUOUS
 62
     4
 10
9104.0182035852577
 20
19957.822819000001
 30
0.0
 11
8257.0184275852607
 21
19957.822819000001
 31
0.0
  0
LINE
  5
59AF
  8
SUNPOU
  6
CONTINUOUS
 62
     4
 10
8337.0184275852607
 20
19735.326909999989
 30
0.0
 11
8337.0184275852607
 21
19957.822819000001
 31
0.0
  0
LINE
  5
59B0
  8
SUNPOU
  6
CONTINUOUS
 62
     4
 10
8967.7175605852626
 20
18626.826909999982
 30
0.0
 11
8257.0184275852607
 21
18626.826909999982
 31
0.0
  0
LINE
  5
59B1
  8
SUNPOU
  6
CONTINUOUS
 62
     4
 10
8337.0184275852607
 20
18626.826909999982
 30
0.0
 11
8337.0184275852607
 21
19735.326909999989
 31
0.0
  0
LINE
  5
59B2
  8
SUNPOU
  6
CONTINUOUS
 62
     4
 10
8967.7175605852626
 20
18626.826909999982
 30
0.0
 11
8257.0184275852607
 21
18626.826909999982
 31
0.0
  0
LINE
  5
59B3
  8
SUNPOU
  6
CONTINUOUS
 62
     4
 10
8337.0184275852607
 20
17167.826909999982
 30
0.0
 11
8337.0184275852607
 21
18626.826909999982
 31
0.0
  0
LINE
  5
59B4
  8
SUNPOU
  6
CONTINUOUS
 62
     4
 10
8967.7175605852626
 20
15708.826909999991
 30
0.0
 11
8257.0184275852607
 21
15708.826909999991
 31
0.0
  0
LINE
  5
59B5
  8
SUNPOU
  6
CONTINUOUS
 62
     4
 10
8337.0184275852607
 20
15708.826909999991
 30
0.0
 11
8337.0184275852607
 21
17167.826909999982
 31
0.0
  0
LINE
  5
59B6
  8
SUNPOU
  6
CONTINUOUS
 62
     4
 10
8967.7175605852626
 20
15708.826909999991
 30
0.0
 11
8257.0184275852607
 21
15708.826909999991
 31
0.0
  0
LINE
  5
59B7
  8
SUNPOU
  6
CONTINUOUS
 62
     4
 10
8337.0184275852607
 20
14249.826909999991
 30
0.0
 11
8337.0184275852607
 21
15708.826909999991
 31
0.0
  0
LINE
  5
59B8
  8
SUNPOU
  6
CONTINUOUS
 62
     4
 10
9104.0138485852567
 20
14057.331594999991
 30
0.0
 11
8257.0184275852607
 21
14057.331594999991
 31
0.0
  0
LINE
  5
59B9
  8
SUNPOU
  6
CONTINUOUS
 62
     4
 10
8337.0184275852607
 20
14249.826909999991
 30
0.0
 11
8337.0184275852607
 21
14057.331594999991
 31
0.0
  0
LINE
  5
59BA
  8
SUNPOU
  6
CONTINUOUS
 62
     4
 10
20427.107263000002
 20
19857.821237
 30
0.0
 11
20427.107263000002
 21
20587.824140000019
 31
0.0
  0
LINE
  5
59BB
  8
SUNPOU
  6
CONTINUOUS
 62
     4
 10
21128.107263000002
 20
19857.821237
 30
0.0
 11
21128.107263000002
 21
20587.824140000019
 31
0.0
  0
LINE
  5
59BC
  8
SUNPOU
  6
CONTINUOUS
 62
     4
 10
20427.107263000002
 20
20507.824140000019
 30
0.0
 11
21128.107263000002
 21
20507.824140000019
 31
0.0
  0
LINE
  5
59BD
  8
SUNPOU
  6
CONTINUOUS
 62
     4
 10
21128.107263000002
 20
19857.821237
 30
0.0
 11
21128.107263000002
 21
20587.824140000019
 31
0.0
  0
LINE
  5
59BE
  8
SUNPOU
  6
CONTINUOUS
 62
     4
 10
21829.107263000002
 20
19857.821237
 30
0.0
 11
21829.107263000002
 21
20587.824140000019
 31
0.0
  0
LINE
  5
59BF
  8
SUNPOU
  6
CONTINUOUS
 62
     4
 10
21128.107263000002
 20
20507.824140000019
 30
0.0
 11
21829.107263000002
 21
20507.824140000019
 31
0.0
  0
LINE
  5
59C0
  8
SUNPOU
  6
CONTINUOUS
 62
     4
 10
21829.107263000002
 20
19857.821237
 30
0.0
 11
21829.107263000002
 21
20587.824140000019
 31
0.0
  0
LINE
  5
59C1
  8
SUNPOU
  6
CONTINUOUS
 62
     4
 10
22530.107263000002
 20
19857.821237
 30
0.0
 11
22530.107263000002
 21
20587.824140000019
 31
0.0
  0
LINE
  5
59C2
  8
SUNPOU
  6
CONTINUOUS
 62
     4
 10
21829.107263000002
 20
20507.824140000019
 30
0.0
 11
22530.107263000002
 21
20507.824140000019
 31
0.0
  0
LINE
  5
59C3
  8
SUNPOU
  6
CONTINUOUS
 62
     4
 10
22530.107263000002
 20
19857.821237
 30
0.0
 11
22530.107263000002
 21
20587.824140000019
 31
0.0
  0
LINE
  5
59C4
  8
SUNPOU
  6
CONTINUOUS
 62
     4
 10
23288.108252500009
 20
19857.821237
 30
0.0
 11
23288.108252500009
 21
20587.824140000019
 31
0.0
  0
LINE
  5
59C5
  8
SUNPOU
  6
CONTINUOUS
 62
     4
 10
22530.107263000002
 20
20507.824140000019
 30
0.0
 11
23288.108252500009
 21
20507.824140000019
 31
0.0
  0
LINE
  5
59C6
  8
SUNPOU
  6
CONTINUOUS
 62
     4
 10
20019.607263000002
 20
19857.821237
 30
0.0
 11
20019.607263000002
 21
20587.824140000019
 31
0.0
  0
LINE
  5
59C7
  8
SUNPOU
  6
CONTINUOUS
 62
     4
 10
19977.11095799999
 20
19857.821237
 30
0.0
 11
19977.11095799999
 21
20587.824140000019
 31
0.0
  0
LINE
  5
59C8
  8
SUNPOU
  6
CONTINUOUS
 62
     4
 10
20019.607263000002
 20
20507.824140000019
 30
0.0
 11
20259.607263000002
 21
20507.824140000019
 31
0.0
  0
LINE
  5
59C9
  8
SUNPOU
  6
CONTINUOUS
 62
     4
 10
19977.11095799999
 20
20507.824140000019
 30
0.0
 11
19737.110957999979
 21
20507.824140000019
 31
0.0
  0
LINE
  5
59CA
  8
SUNPOU
  6
CONTINUOUS
 62
     4
 10
20019.607263000002
 20
20507.824140000019
 30
0.0
 11
19977.11095799999
 21
20507.824140000019
 31
0.0
  0
LINE
  5
59CB
  8
SUNPOU
  6
CONTINUOUS
 62
     4
 10
20019.607263000002
 20
19857.821237
 30
0.0
 11
20019.607263000002
 21
20587.824140000019
 31
0.0
  0
LINE
  5
59CC
  8
SUNPOU
  6
CONTINUOUS
 62
     4
 10
20427.107263000002
 20
19857.821237
 30
0.0
 11
20427.107263000002
 21
20587.824140000019
 31
0.0
  0
LINE
  5
59CD
  8
SUNPOU
  6
CONTINUOUS
 62
     4
 10
20019.607263000002
 20
20507.824140000019
 30
0.0
 11
20427.107263000002
 21
20507.824140000019
 31
0.0
  0
LINE
  5
59CE
  8
SUNPOU
  6
CONTINUOUS
 62
     4
 10
25154.607263000002
 20
19857.821237
 30
0.0
 11
25154.607263000002
 21
20587.824140000019
 31
0.0
  0
LINE
  5
59CF
  8
SUNPOU
  6
CONTINUOUS
 62
     4
 10
25197.103567999991
 20
19857.821237
 30
0.0
 11
25197.103567999991
 21
20587.824140000019
 31
0.0
  0
LINE
  5
59D0
  8
SUNPOU
  6
CONTINUOUS
 62
     4
 10
25154.607263000002
 20
20507.824140000019
 30
0.0
 11
24914.607263000002
 21
20507.824140000019
 31
0.0
  0
LINE
  5
59D1
  8
SUNPOU
  6
CONTINUOUS
 62
     4
 10
25197.103567999991
 20
20507.824140000019
 30
0.0
 11
25437.103567999991
 21
20507.824140000019
 31
0.0
  0
LINE
  5
59D2
  8
SUNPOU
  6
CONTINUOUS
 62
     4
 10
25154.607263000002
 20
20507.824140000019
 30
0.0
 11
25197.103567999991
 21
20507.824140000019
 31
0.0
  0
LINE
  5
59D3
  8
SUNPOU
  6
CONTINUOUS
 62
     4
 10
23695.607263000002
 20
19857.821237
 30
0.0
 11
23695.607263000002
 21
20587.824140000019
 31
0.0
  0
LINE
  5
59D4
  8
SUNPOU
  6
CONTINUOUS
 62
     4
 10
24396.607263000002
 20
19857.821237
 30
0.0
 11
24396.607263000002
 21
20587.824140000019
 31
0.0
  0
LINE
  5
59D5
  8
SUNPOU
  6
CONTINUOUS
 62
     4
 10
23695.607263000002
 20
20507.824140000019
 30
0.0
 11
24396.607263000002
 21
20507.824140000019
 31
0.0
  0
LINE
  5
59D6
  8
SUNPOU
  6
CONTINUOUS
 62
     4
 10
24396.607263000002
 20
19857.821237
 30
0.0
 11
24396.607263000002
 21
20587.824140000019
 31
0.0
  0
LINE
  5
59D7
  8
SUNPOU
  6
CONTINUOUS
 62
     4
 10
25154.608252500009
 20
19857.821237
 30
0.0
 11
25154.608252500009
 21
20587.824140000019
 31
0.0
  0
LINE
  5
59D8
  8
SUNPOU
  6
CONTINUOUS
 62
     4
 10
24396.607263000002
 20
20507.824140000019
 30
0.0
 11
25154.608252500009
 21
20507.824140000019
 31
0.0
  0
LINE
  5
59D9
  8
SUNPOU
  6
CONTINUOUS
 62
     4
 10
23288.107263000002
 20
19857.821237
 30
0.0
 11
23288.107263000002
 21
20587.824140000019
 31
0.0
  0
LINE
  5
59DA
  8
SUNPOU
  6
CONTINUOUS
 62
     4
 10
23695.607263000002
 20
19857.821237
 30
0.0
 11
23695.607263000002
 21
20587.824140000019
 31
0.0
  0
LINE
  5
59DB
  8
SUNPOU
  6
CONTINUOUS
 62
     4
 10
23288.107263000002
 20
20507.824140000019
 30
0.0
 11
23695.607263000002
 21
20507.824140000019
 31
0.0
  0
LINE
  5
59DC
  8
SUNPOU
  6
CONTINUOUS
 62
     4
 10
26127.106866999991
 20
14249.82295199999
 30
0.0
 11
26727.106866999991
 21
14249.82295199999
 31
0.0
  0
LINE
  5
59DD
  8
SUNPOU
  6
CONTINUOUS
 62
     4
 10
25277.105546999988
 20
14207.32565699999
 30
0.0
 11
26727.106866999991
 21
14207.32565699999
 31
0.0
  0
LINE
  5
59DE
  8
SUNPOU
  6
CONTINUOUS
 62
     4
 10
26647.106866999991
 20
14249.82295199999
 30
0.0
 11
26647.106866999991
 21
14489.82295199999
 31
0.0
  0
LINE
  5
59DF
  8
SUNPOU
  6
CONTINUOUS
 62
     4
 10
26647.106866999991
 20
14207.32565699999
 30
0.0
 11
26647.106866999991
 21
13967.32565699999
 31
0.0
  0
LINE
  5
59E0
  8
SUNPOU
  6
CONTINUOUS
 62
     4
 10
26647.106866999991
 20
14249.82295199999
 30
0.0
 11
26647.106866999991
 21
14207.32565699999
 31
0.0
  0
LINE
  5
59E1
  8
SUNPOU
  6
CONTINUOUS
 62
     4
 10
26127.106866999991
 20
19735.322951999991
 30
0.0
 11
26727.106866999991
 21
19735.322951999991
 31
0.0
  0
LINE
  5
59E2
  8
SUNPOU
  6
CONTINUOUS
 62
     4
 10
25277.105546999988
 20
19777.820246999981
 30
0.0
 11
26727.106866999991
 21
19777.820246999981
 31
0.0
  0
LINE
  5
59E3
  8
SUNPOU
  6
CONTINUOUS
 62
     4
 10
26647.106866999991
 20
19735.322951999991
 30
0.0
 11
26647.106866999991
 21
19495.322951999991
 31
0.0
  0
LINE
  5
59E4
  8
SUNPOU
  6
CONTINUOUS
 62
     4
 10
26647.106866999991
 20
19777.820246999981
 30
0.0
 11
26647.106866999991
 21
20017.820246999981
 31
0.0
  0
LINE
  5
59E5
  8
SUNPOU
  6
CONTINUOUS
 62
     4
 10
26647.106866999991
 20
19735.322951999991
 30
0.0
 11
26647.106866999991
 21
19777.820246999981
 31
0.0
  0
LINE
  5
59E6
  8
SUNPOU
  6
CONTINUOUS
 62
     4
 10
25277.105546999988
 20
19777.820246999981
 30
0.0
 11
27127.106866999991
 21
19777.820246999981
 31
0.0
  0
LINE
  5
59E7
  8
SUNPOU
  6
CONTINUOUS
 62
     4
 10
25277.105546999988
 20
14207.32565699999
 30
0.0
 11
27127.106866999991
 21
14207.32565699999
 31
0.0
  0
LINE
  5
59E8
  8
SUNPOU
  6
CONTINUOUS
 62
     4
 10
27047.106866999991
 20
19777.820246999981
 30
0.0
 11
27047.106866999991
 21
14207.32565699999
 31
0.0
  0
LINE
  5
59E9
  8
SUNPOU
  6
CONTINUOUS
 62
     4
 10
26127.106866999991
 20
14249.82295199999
 30
0.0
 11
26727.106866999991
 21
14249.82295199999
 31
0.0
  0
LINE
  5
59EA
  8
SUNPOU
  6
CONTINUOUS
 62
     4
 10
26127.106866999991
 20
17167.822951999991
 30
0.0
 11
26727.106866999991
 21
17167.822951999991
 31
0.0
  0
LINE
  5
59EB
  8
SUNPOU
  6
CONTINUOUS
 62
     4
 10
26647.106866999991
 20
14249.82295199999
 30
0.0
 11
26647.106866999991
 21
17167.822951999991
 31
0.0
  0
LINE
  5
59EC
  8
SUNPOU
  6
CONTINUOUS
 62
     4
 10
26127.106866999991
 20
17167.822951999991
 30
0.0
 11
26727.106866999991
 21
17167.822951999991
 31
0.0
  0
LINE
  5
59ED
  8
SUNPOU
  6
CONTINUOUS
 62
     4
 10
26127.106866999991
 20
19735.322951999991
 30
0.0
 11
26727.106866999991
 21
19735.322951999991
 31
0.0
  0
LINE
  5
59EE
  8
SUNPOU
  6
CONTINUOUS
 62
     4
 10
26647.106866999991
 20
17167.822951999991
 30
0.0
 11
26647.106866999991
 21
19735.322951999991
 31
0.0
  0
LINE
  5
59EF
  8
SUNPOU
  6
CONTINUOUS
 62
     4
 10
26127.106866999991
 20
19735.322951999991
 30
0.0
 11
26327.106866999991
 21
19735.322951999991
 31
0.0
  0
LINE
  5
59F0
  8
SUNPOU
  6
CONTINUOUS
 62
     4
 10
25277.105546999988
 20
19327.822951999991
 30
0.0
 11
26327.106866999991
 21
19327.822951999991
 31
0.0
  0
LINE
  5
59F1
  8
SUNPOU
  6
CONTINUOUS
 62
     4
 10
26247.106866999991
 20
19735.322951999991
 30
0.0
 11
26247.106866999991
 21
19327.822951999991
 31
0.0
  0
LINE
  5
59F2
  8
SUNPOU
  6
CONTINUOUS
 62
     4
 10
25277.105546999988
 20
19327.822951999991
 30
0.0
 11
26327.106866999991
 21
19327.822951999991
 31
0.0
  0
LINE
  5
59F3
  8
SUNPOU
  6
CONTINUOUS
 62
     4
 10
25277.105546999988
 20
18626.822951999991
 30
0.0
 11
26327.106866999991
 21
18626.822951999991
 31
0.0
  0
LINE
  5
59F4
  8
SUNPOU
  6
CONTINUOUS
 62
     4
 10
26247.106866999991
 20
19327.822951999991
 30
0.0
 11
26247.106866999991
 21
18626.822951999991
 31
0.0
  0
LINE
  5
59F5
  8
SUNPOU
  6
CONTINUOUS
 62
     4
 10
25277.105546999988
 20
18626.822951999991
 30
0.0
 11
26327.106866999991
 21
18626.822951999991
 31
0.0
  0
LINE
  5
59F6
  8
SUNPOU
  6
CONTINUOUS
 62
     4
 10
25277.105546999988
 20
17925.822951999991
 30
0.0
 11
26327.106866999991
 21
17925.822951999991
 31
0.0
  0
LINE
  5
59F7
  8
SUNPOU
  6
CONTINUOUS
 62
     4
 10
26247.106866999991
 20
18626.822951999991
 30
0.0
 11
26247.106866999991
 21
17925.822951999991
 31
0.0
  0
LINE
  5
59F8
  8
SUNPOU
  6
CONTINUOUS
 62
     4
 10
25277.105546999988
 20
17925.822951999991
 30
0.0
 11
26327.106866999991
 21
17925.822951999991
 31
0.0
  0
LINE
  5
59F9
  8
SUNPOU
  6
CONTINUOUS
 62
     4
 10
26127.106866999991
 20
17167.822951999991
 30
0.0
 11
26327.106866999991
 21
17167.822951999991
 31
0.0
  0
LINE
  5
59FA
  8
SUNPOU
  6
CONTINUOUS
 62
     4
 10
26247.106866999991
 20
17925.822951999991
 30
0.0
 11
26247.106866999991
 21
17167.822951999991
 31
0.0
  0
LINE
  5
59FB
  8
SUNPOU
  6
CONTINUOUS
 62
     4
 10
26127.106866999991
 20
17167.822951999991
 30
0.0
 11
26327.106866999991
 21
17167.822951999991
 31
0.0
  0
LINE
  5
59FC
  8
SUNPOU
  6
CONTINUOUS
 62
     4
 10
25277.105546999988
 20
16409.822951999991
 30
0.0
 11
26327.106866999991
 21
16409.822951999991
 31
0.0
  0
LINE
  5
59FD
  8
SUNPOU
  6
CONTINUOUS
 62
     4
 10
26247.106866999991
 20
17167.822951999991
 30
0.0
 11
26247.106866999991
 21
16409.822951999991
 31
0.0
  0
LINE
  5
59FE
  8
SUNPOU
  6
CONTINUOUS
 62
     4
 10
25277.105546999988
 20
16409.822951999991
 30
0.0
 11
26327.106866999991
 21
16409.822951999991
 31
0.0
  0
LINE
  5
59FF
  8
SUNPOU
  6
CONTINUOUS
 62
     4
 10
25277.105546999988
 20
15709.063463500001
 30
0.0
 11
26327.106866999991
 21
15709.063463500001
 31
0.0
  0
LINE
  5
5A00
  8
SUNPOU
  6
CONTINUOUS
 62
     4
 10
26247.106866999991
 20
16409.822951999991
 30
0.0
 11
26247.106866999991
 21
15709.063463500001
 31
0.0
  0
LINE
  5
5A01
  8
SUNPOU
  6
CONTINUOUS
 62
     4
 10
25277.105546999988
 20
15709.063463500001
 30
0.0
 11
26327.106866999991
 21
15709.063463500001
 31
0.0
  0
LINE
  5
5A02
  8
SUNPOU
  6
CONTINUOUS
 62
     4
 10
25277.105546999988
 20
15007.82295199998
 30
0.0
 11
26327.106866999991
 21
15007.82295199998
 31
0.0
  0
LINE
  5
5A03
  8
SUNPOU
  6
CONTINUOUS
 62
     4
 10
26247.106866999991
 20
15709.063463500001
 30
0.0
 11
26247.106866999991
 21
15007.82295199998
 31
0.0
  0
LINE
  5
5A04
  8
SUNPOU
  6
CONTINUOUS
 62
     4
 10
25277.105546999988
 20
15007.82295199998
 30
0.0
 11
26327.106866999991
 21
15007.82295199998
 31
0.0
  0
LINE
  5
5A05
  8
SUNPOU
  6
CONTINUOUS
 62
     4
 10
26127.106866999991
 20
14249.82295199999
 30
0.0
 11
26327.106866999991
 21
14249.82295199999
 31
0.0
  0
LINE
  5
5A06
  8
SUNPOU
  6
CONTINUOUS
 62
     4
 10
26247.106866999991
 20
15007.82295199998
 30
0.0
 11
26247.106866999991
 21
14249.82295199999
 31
0.0
  0
LINE
  5
5A07
  8
SUNPOU
  6
CONTINUOUS
 62
     4
 10
19977.105019999999
 20
14127.32565699999
 30
0.0
 11
19977.105019999999
 21
12798.37486799999
 31
0.0
  0
LINE
  5
5A08
  8
SUNPOU
  6
CONTINUOUS
 62
     4
 10
25197.10950599999
 20
14127.32565699999
 30
0.0
 11
25197.10950599999
 21
12798.37486799999
 31
0.0
  0
LINE
  5
5A09
  8
SUNPOU
  6
CONTINUOUS
 62
     4
 10
19977.105019999999
 20
12878.37486799999
 30
0.0
 11
25197.10950599999
 21
12878.37486799999
 31
0.0
  0
LINE
  5
5A0A
  8
SUNPOU
  6
CONTINUOUS
 62
     4
 10
20019.607263000002
 20
13544.05951799998
 30
0.0
 11
20019.607263000002
 21
13198.37486799999
 31
0.0
  0
LINE
  5
5A0B
  8
SUNPOU
  6
CONTINUOUS
 62
     4
 10
20062.109505999979
 20
14127.32565699999
 30
0.0
 11
20062.109505999979
 21
13198.37486799999
 31
0.0
  0
LINE
  5
5A0C
  8
SUNPOU
  6
CONTINUOUS
 62
     4
 10
20019.607263000002
 20
13278.37486799999
 30
0.0
 11
19779.607263000002
 21
13278.37486799999
 31
0.0
  0
LINE
  5
5A0D
  8
SUNPOU
  6
CONTINUOUS
 62
     4
 10
20062.109505999979
 20
13278.37486799999
 30
0.0
 11
20302.10950599999
 21
13278.37486799999
 31
0.0
  0
LINE
  5
5A0E
  8
SUNPOU
  6
CONTINUOUS
 62
     4
 10
20019.607263000002
 20
13278.37486799999
 30
0.0
 11
20062.109505999979
 21
13278.37486799999
 31
0.0
  0
LINE
  5
5A0F
  8
SUNPOU
  6
CONTINUOUS
 62
     4
 10
25154.607263000002
 20
13544.05951799998
 30
0.0
 11
25154.607263000002
 21
13198.37486799999
 31
0.0
  0
LINE
  5
5A10
  8
SUNPOU
  6
CONTINUOUS
 62
     4
 10
25112.105019999992
 20
14127.32565699999
 30
0.0
 11
25112.105019999992
 21
13198.37486799999
 31
0.0
  0
LINE
  5
5A11
  8
SUNPOU
  6
CONTINUOUS
 62
     4
 10
25154.607263000002
 20
13278.37486799999
 30
0.0
 11
25394.607263000002
 21
13278.37486799999
 31
0.0
  0
LINE
  5
5A12
  8
SUNPOU
  6
CONTINUOUS
 62
     4
 10
25112.105019999992
 20
13278.37486799999
 30
0.0
 11
24872.105019999992
 21
13278.37486799999
 31
0.0
  0
LINE
  5
5A13
  8
SUNPOU
  6
CONTINUOUS
 62
     4
 10
25154.607263000002
 20
13278.37486799999
 30
0.0
 11
25112.105019999992
 21
13278.37486799999
 31
0.0
  0
LINE
  5
5A14
  8
2-0
  6
CONTINUOUS
 62
     3
 10
23245.607263000002
 20
14207.32295199998
 30
0.0
 11
23330.607263000002
 21
14207.32295199998
 31
0.0
  0
LINE
  5
5A15
  8
2-0
  6
CONTINUOUS
 62
     3
 10
23330.607263000002
 20
14207.32295199998
 30
0.0
 11
23330.607263000002
 21
14292.32295199998
 31
0.0
  0
LINE
  5
5A16
  8
2-0
  6
CONTINUOUS
 62
     3
 10
23330.607263000002
 20
14292.32295199998
 30
0.0
 11
23245.607263000002
 21
14292.32295199998
 31
0.0
  0
LINE
  5
5A17
  8
2-0
  6
CONTINUOUS
 62
     3
 10
23245.607263000002
 20
14292.32295199998
 30
0.0
 11
23245.607263000002
 21
14207.32295199998
 31
0.0
  0
LINE
  5
5A18
  8
SUNPOU
  6
CONTINUOUS
 62
     4
 10
25154.607263000002
 20
13544.05951799998
 30
0.0
 11
25154.607263000002
 21
13198.37486799999
 31
0.0
  0
LINE
  5
5A19
  8
SUNPOU
  6
CONTINUOUS
 62
     4
 10
25197.10950599999
 20
14127.32565699999
 30
0.0
 11
25197.10950599999
 21
13198.37486799999
 31
0.0
  0
LINE
  5
5A1A
  8
SUNPOU
  6
CONTINUOUS
 62
     4
 10
25154.607263000002
 20
13278.37486799999
 30
0.0
 11
24914.607263000002
 21
13278.37486799999
 31
0.0
  0
LINE
  5
5A1B
  8
SUNPOU
  6
CONTINUOUS
 62
     4
 10
25197.10950599999
 20
13278.37486799999
 30
0.0
 11
25437.10950599999
 21
13278.37486799999
 31
0.0
  0
LINE
  5
5A1C
  8
SUNPOU
  6
CONTINUOUS
 62
     4
 10
25154.607263000002
 20
13278.37486799999
 30
0.0
 11
25197.10950599999
 21
13278.37486799999
 31
0.0
  0
LINE
  5
5A1D
  8
SUNPOU
  6
CONTINUOUS
 62
     4
 10
20019.607263000002
 20
13544.05951799998
 30
0.0
 11
20019.607263000002
 21
13198.37486799999
 31
0.0
  0
LINE
  5
5A1E
  8
SUNPOU
  6
CONTINUOUS
 62
     4
 10
19977.105019999999
 20
14127.32565699999
 30
0.0
 11
19977.105019999999
 21
13198.37486799999
 31
0.0
  0
LINE
  5
5A1F
  8
SUNPOU
  6
CONTINUOUS
 62
     4
 10
20019.607263000002
 20
13278.37486799999
 30
0.0
 11
20259.607263000002
 21
13278.37486799999
 31
0.0
  0
LINE
  5
5A20
  8
SUNPOU
  6
CONTINUOUS
 62
     4
 10
19977.105019999999
 20
13278.37486799999
 30
0.0
 11
19737.105019999999
 21
13278.37486799999
 31
0.0
  0
LINE
  5
5A21
  8
SUNPOU
  6
CONTINUOUS
 62
     4
 10
20019.607263000002
 20
13278.37486799999
 30
0.0
 11
19977.105019999999
 21
13278.37486799999
 31
0.0
  0
LINE
  5
5A22
  8
SUNPOU
  6
CONTINUOUS
 62
     4
 10
19897.11095799999
 20
15709.063463500001
 30
0.0
 11
19010.15268599999
 21
15709.063463500001
 31
0.0
  0
LINE
  5
5A23
  8
SUNPOU
  6
CONTINUOUS
 62
     4
 10
19090.15268599999
 20
14249.82295199999
 30
0.0
 11
19090.15268599999
 21
15709.063463500001
 31
0.0
  0
LINE
  5
5A24
  8
SUNPOU
  6
CONTINUOUS
 62
     4
 10
19897.11095799999
 20
15709.063463500001
 30
0.0
 11
19010.15268599999
 21
15709.063463500001
 31
0.0
  0
LINE
  5
5A25
  8
SUNPOU
  6
CONTINUOUS
 62
     4
 10
19090.15268599999
 20
15709.063463500001
 30
0.0
 11
19090.15268599999
 21
17167.822951999991
 31
0.0
  0
LINE
  5
5A26
  8
SUNPOU
  6
CONTINUOUS
 62
     4
 10
19897.11095799999
 20
18626.822951999991
 30
0.0
 11
19010.15268599999
 21
18626.822951999991
 31
0.0
  0
LINE
  5
5A27
  8
SUNPOU
  6
CONTINUOUS
 62
     4
 10
19090.15268599999
 20
17167.822951999991
 30
0.0
 11
19090.15268599999
 21
18626.822951999991
 31
0.0
  0
LINE
  5
5A28
  8
SUNPOU
  6
CONTINUOUS
 62
     4
 10
19897.11095799999
 20
18626.822951999991
 30
0.0
 11
19010.15268599999
 21
18626.822951999991
 31
0.0
  0
LINE
  5
5A29
  8
SUNPOU
  6
CONTINUOUS
 62
     4
 10
19090.15268599999
 20
18626.822951999991
 30
0.0
 11
19090.15268599999
 21
19735.322951999991
 31
0.0
  0
LINE
  5
5A2A
  8
SUNPOU
  6
CONTINUOUS
 62
     4
 10
11934.349160999989
 20
6452.8568280000072
 30
0.0
 11
11934.349160999989
 21
5515.5092510000077
 31
0.0
  0
LINE
  5
5A2B
  8
SUNPOU
  6
CONTINUOUS
 62
     4
 10
14852.349161
 20
6452.8568280000072
 30
0.0
 11
14852.349161
 21
5515.5092510000077
 31
0.0
  0
LINE
  5
5A2C
  8
SUNPOU
  6
CONTINUOUS
 62
     4
 10
11934.349160999989
 20
5595.5092510000086
 30
0.0
 11
14852.349161
 21
5595.5092510000086
 31
0.0
  0
LINE
  5
5A2D
  8
SUNPOU
  6
CONTINUOUS
 62
     4
 10
11934.349160999989
 20
6452.8568280000072
 30
0.0
 11
11934.349160999989
 21
5515.5092510000077
 31
0.0
  0
LINE
  5
5A2E
  8
SUNPOU
  6
CONTINUOUS
 62
     4
 10
9366.8491610000019
 20
6452.8568280000072
 30
0.0
 11
9366.8491610000019
 21
5515.5092510000077
 31
0.0
  0
LINE
  5
5A2F
  8
SUNPOU
  6
CONTINUOUS
 62
     4
 10
11934.349160999989
 20
5595.5092510000086
 30
0.0
 11
9366.8491610000019
 21
5595.5092510000086
 31
0.0
  0
LINE
  5
5A30
  8
SUNPOU
  6
CONTINUOUS
 62
     4
 10
9366.8491610000019
 20
6452.8568280000072
 30
0.0
 11
9366.8491610000019
 21
5515.5092510000077
 31
0.0
  0
LINE
  5
5A31
  8
SUNPOU
  6
CONTINUOUS
 62
     4
 10
9324.3491610000037
 20
6815.5090860000091
 30
0.0
 11
9324.3491610000037
 21
5515.5092510000077
 31
0.0
  0
LINE
  5
5A32
  8
SUNPOU
  6
CONTINUOUS
 62
     4
 10
9366.8491610000019
 20
5595.5092510000086
 30
0.0
 11
9606.8491610000037
 21
5595.5092510000086
 31
0.0
  0
LINE
  5
5A33
  8
SUNPOU
  6
CONTINUOUS
 62
     4
 10
9324.3491610000037
 20
5595.5092510000086
 30
0.0
 11
9084.3491610000037
 21
5595.5092510000086
 31
0.0
  0
LINE
  5
5A34
  8
SUNPOU
  6
CONTINUOUS
 62
     4
 10
9366.8491610000019
 20
5595.5092510000086
 30
0.0
 11
9324.3491610000037
 21
5595.5092510000086
 31
0.0
  0
LINE
  5
5A35
  8
SUNPOU
  6
CONTINUOUS
 62
     4
 10
14852.349161
 20
6452.8568280000072
 30
0.0
 11
14852.349161
 21
5515.5092510000077
 31
0.0
  0
LINE
  5
5A36
  8
SUNPOU
  6
CONTINUOUS
 62
     4
 10
14894.849161
 20
6815.5090860000091
 30
0.0
 11
14894.849161
 21
5515.5092510000077
 31
0.0
  0
LINE
  5
5A37
  8
SUNPOU
  6
CONTINUOUS
 62
     4
 10
14852.349161
 20
5595.5092510000086
 30
0.0
 11
14612.349161
 21
5595.5092510000086
 31
0.0
  0
LINE
  5
5A38
  8
SUNPOU
  6
CONTINUOUS
 62
     4
 10
14894.849161
 20
5595.5092510000086
 30
0.0
 11
15134.849161
 21
5595.5092510000086
 31
0.0
  0
LINE
  5
5A39
  8
SUNPOU
  6
CONTINUOUS
 62
     4
 10
14852.349161
 20
5595.5092510000086
 30
0.0
 11
14894.849161
 21
5595.5092510000086
 31
0.0
  0
LINE
  5
5A3A
  8
SUNPOU
  6
CONTINUOUS
 62
     4
 10
9324.3491610000037
 20
6815.5090860000091
 30
0.0
 11
9324.3491610000037
 21
5115.5094160000081
 31
0.0
  0
LINE
  5
5A3B
  8
SUNPOU
  6
CONTINUOUS
 62
     4
 10
14894.849161
 20
6815.5090860000091
 30
0.0
 11
14894.849161
 21
5115.5094160000081
 31
0.0
  0
LINE
  5
5A3C
  8
SUNPOU
  6
CONTINUOUS
 62
     4
 10
9324.3491610000037
 20
5195.5094160000081
 30
0.0
 11
14894.849161
 21
5195.5094160000081
 31
0.0
  0
LINE
  5
5A3D
  8
SUNPOU
  6
CONTINUOUS
 62
     4
 10
9324.3491610000037
 20
9002.6948616838126
 30
0.0
 11
9324.3491610000037
 21
10123.510762
 31
0.0
  0
LINE
  5
5A3E
  8
SUNPOU
  6
CONTINUOUS
 62
     4
 10
14894.849161
 20
9190.4191500000106
 30
0.0
 11
14894.849161
 21
10123.510762
 31
0.0
  0
LINE
  5
5A3F
  8
SUNPOU
  6
CONTINUOUS
 62
     4
 10
9324.3491610000037
 20
10043.510762
 30
0.0
 11
14894.849161
 21
10043.510762
 31
0.0
  0
LINE
  5
5A40
  8
SUNPOU
  6
CONTINUOUS
 62
     4
 10
14894.849161
 20
9190.4191500000106
 30
0.0
 11
14894.849161
 21
10123.510762
 31
0.0
  0
LINE
  5
5A41
  8
SUNPOU
  6
CONTINUOUS
 62
     4
 10
15044.849161
 20
9264.3989094124372
 30
0.0
 11
15044.849161
 21
10123.510762
 31
0.0
  0
LINE
  5
5A42
  8
SUNPOU
  6
CONTINUOUS
 62
     4
 10
14894.849161
 20
10043.510762
 30
0.0
 11
14654.849161
 21
10043.510762
 31
0.0
  0
LINE
  5
5A43
  8
SUNPOU
  6
CONTINUOUS
 62
     4
 10
15044.849161
 20
10043.510762
 30
0.0
 11
15284.849161
 21
10043.510762
 31
0.0
  0
LINE
  5
5A44
  8
SUNPOU
  6
CONTINUOUS
 62
     4
 10
14894.849161
 20
10043.510762
 30
0.0
 11
15044.849161
 21
10043.510762
 31
0.0
  0
LINE
  5
5A45
  8
SUNPOU
  6
CONTINUOUS
 62
     4
 10
9144.3491610000037
 20
9132.5090860000091
 30
0.0
 11
9144.3491610000037
 21
10523.509112
 31
0.0
  0
LINE
  5
5A46
  8
SUNPOU
  6
CONTINUOUS
 62
     4
 10
15044.849161
 20
9264.3989094124372
 30
0.0
 11
15044.849161
 21
10523.509112
 31
0.0
  0
LINE
  5
5A47
  8
SUNPOU
  6
CONTINUOUS
 62
     4
 10
9144.3491610000037
 20
10443.509112
 30
0.0
 11
15044.849161
 21
10443.509112
 31
0.0
  0
LINE
  5
5A48
  8
SUNPOU
  6
CONTINUOUS
 62
     4
 10
9236.8491610000037
 20
6895.5090860000037
 30
0.0
 11
8154.3507430000209
 21
6895.5090860000037
 31
0.0
  0
LINE
  5
5A49
  8
SUNPOU
  6
CONTINUOUS
 62
     4
 10
9064.351139000004
 20
9051.5090860000073
 30
0.0
 11
8154.3507430000209
 21
9051.5090860000073
 31
0.0
  0
LINE
  5
5A4A
  8
SUNPOU
  6
CONTINUOUS
 62
     4
 10
8234.3507430000191
 20
6895.5090860000037
 30
0.0
 11
8234.3507430000191
 21
9051.5090860000073
 31
0.0
  0
LINE
  5
5A4B
  8
SUNPOU
  6
CONTINUOUS
 62
     4
 10
14987.349161
 20
6895.5090860000037
 30
0.0
 11
16064.84757699998
 21
6895.5090860000037
 31
0.0
  0
LINE
  5
5A4C
  8
SUNPOU
  6
CONTINUOUS
 62
     4
 10
15079.654440599361
 20
9244.0090860000037
 30
0.0
 11
16064.84757699998
 21
9244.0090860000037
 31
0.0
  0
LINE
  5
5A4D
  8
SUNPOU
  6
CONTINUOUS
 62
     4
 10
15984.84757699998
 20
6895.5090860000037
 30
0.0
 11
15984.84757699998
 21
9244.0090860000037
 31
0.0
  0
LINE
  5
5A4E
  8
SUNPOU
  6
CONTINUOUS
 62
     4
 10
9324.3491610000037
 20
9002.6948616838126
 30
0.0
 11
9324.3491610000037
 21
10123.510762
 31
0.0
  0
LINE
  5
5A4F
  8
SUNPOU
  6
CONTINUOUS
 62
     4
 10
9144.3491610000037
 20
9132.5090860000091
 30
0.0
 11
9144.3491610000037
 21
10123.510762
 31
0.0
  0
LINE
  5
5A50
  8
SUNPOU
  6
CONTINUOUS
 62
     4
 10
9324.3491610000037
 20
10043.510762
 30
0.0
 11
9144.3491610000037
 21
10043.510762
 31
0.0
  0
LINE
  5
5A51
  8
SUNPOU
  6
CONTINUOUS
 62
     4
 10
19977.10528299999
 20
6715.5092510000022
 30
0.0
 11
19977.10528299999
 21
5115.5094159999999
 31
0.0
  0
LINE
  5
5A52
  8
SUNPOU
  6
CONTINUOUS
 62
     4
 10
25197.10528299999
 20
6715.5092510000022
 30
0.0
 11
25197.10528299999
 21
5115.5094159999999
 31
0.0
  0
LINE
  5
5A53
  8
SUNPOU
  6
CONTINUOUS
 62
     4
 10
19977.10528299999
 20
5195.5094159999999
 30
0.0
 11
25197.10528299999
 21
5195.5094159999999
 31
0.0
  0
LINE
  5
5A54
  8
SUNPOU
  6
CONTINUOUS
 62
     4
 10
20019.60528299999
 20
6452.8568280000009
 30
0.0
 11
20019.60528299999
 21
5515.5092510000022
 31
0.0
  0
LINE
  5
5A55
  8
SUNPOU
  6
CONTINUOUS
 62
     4
 10
19977.10528299999
 20
6715.5092510000022
 30
0.0
 11
19977.10528299999
 21
5515.5092510000022
 31
0.0
  0
LINE
  5
5A56
  8
SUNPOU
  6
CONTINUOUS
 62
     4
 10
20019.60528299999
 20
5595.5092510000022
 30
0.0
 11
20259.60528299999
 21
5595.5092510000022
 31
0.0
  0
LINE
  5
5A57
  8
SUNPOU
  6
CONTINUOUS
 62
     4
 10
19977.10528299999
 20
5595.5092510000022
 30
0.0
 11
19737.10528299999
 21
5595.5092510000022
 31
0.0
  0
LINE
  5
5A58
  8
SUNPOU
  6
CONTINUOUS
 62
     4
 10
20019.60528299999
 20
5595.5092510000022
 30
0.0
 11
19977.10528299999
 21
5595.5092510000022
 31
0.0
  0
LINE
  5
5A59
  8
SUNPOU
  6
CONTINUOUS
 62
     4
 10
25154.609241999999
 20
6452.8568280000009
 30
0.0
 11
25154.609241999999
 21
5515.5092510000022
 31
0.0
  0
LINE
  5
5A5A
  8
SUNPOU
  6
CONTINUOUS
 62
     4
 10
25197.109241999991
 20
6715.5092510000022
 30
0.0
 11
25197.109241999991
 21
5515.5092510000022
 31
0.0
  0
LINE
  5
5A5B
  8
SUNPOU
  6
CONTINUOUS
 62
     4
 10
25154.609241999999
 20
5595.5092510000022
 30
0.0
 11
24914.609241999999
 21
5595.5092510000022
 31
0.0
  0
LINE
  5
5A5C
  8
SUNPOU
  6
CONTINUOUS
 62
     4
 10
25197.109241999991
 20
5595.5092510000022
 30
0.0
 11
25437.109241999999
 21
5595.5092510000022
 31
0.0
  0
LINE
  5
5A5D
  8
SUNPOU
  6
CONTINUOUS
 62
     4
 10
25154.609241999999
 20
5595.5092510000022
 30
0.0
 11
25197.109241999991
 21
5595.5092510000022
 31
0.0
  0
LINE
  5
5A5E
  8
SUNPOU
  6
CONTINUOUS
 62
     4
 10
20019.60528299999
 20
6452.8568280000009
 30
0.0
 11
20019.60528299999
 21
5515.5092510000022
 31
0.0
  0
LINE
  5
5A5F
  8
SUNPOU
  6
CONTINUOUS
 62
     4
 10
23288.10528299999
 20
6452.8568280000009
 30
0.0
 11
23288.10528299999
 21
5515.5092510000022
 31
0.0
  0
LINE
  5
5A60
  8
SUNPOU
  6
CONTINUOUS
 62
     4
 10
20019.60528299999
 20
5595.5092510000022
 30
0.0
 11
23288.10528299999
 21
5595.5092510000022
 31
0.0
  0
LINE
  5
5A61
  8
SUNPOU
  6
CONTINUOUS
 62
     4
 10
23288.10528299999
 20
6452.8568280000009
 30
0.0
 11
23288.10528299999
 21
5515.5092510000022
 31
0.0
  0
LINE
  5
5A62
  8
SUNPOU
  6
CONTINUOUS
 62
     4
 10
25154.605282999979
 20
6452.8568280000009
 30
0.0
 11
25154.605282999979
 21
5515.5092510000022
 31
0.0
  0
LINE
  5
5A63
  8
SUNPOU
  6
CONTINUOUS
 62
     4
 10
23288.10528299999
 20
5595.5092510000022
 30
0.0
 11
25154.605282999979
 21
5595.5092510000022
 31
0.0
  0
LINE
  5
5A64
  8
SUNPOU
  6
CONTINUOUS
 62
     4
 10
23382.105282999979
 20
6715.5092510000022
 30
0.0
 11
23382.105282999979
 21
5915.5092510000031
 31
0.0
  0
LINE
  5
5A65
  8
SUNPOU
  6
CONTINUOUS
 62
     4
 10
25060.60528299999
 20
6715.5092510000022
 30
0.0
 11
25060.60528299999
 21
5915.5092510000031
 31
0.0
  0
LINE
  5
5A66
  8
SUNPOU
  6
CONTINUOUS
 62
     4
 10
23382.105282999979
 20
5995.5092510000022
 30
0.0
 11
25060.60528299999
 21
5995.5092510000022
 31
0.0
  0
LINE
  5
5A67
  8
SUNPOU
  6
CONTINUOUS
 62
     4
 10
20113.60528299999
 20
6715.5092510000022
 30
0.0
 11
20113.60528299999
 21
5915.5092510000031
 31
0.0
  0
LINE
  5
5A68
  8
SUNPOU
  6
CONTINUOUS
 62
     4
 10
23194.10528299999
 20
6715.5092510000022
 30
0.0
 11
23194.10528299999
 21
5915.5092510000031
 31
0.0
  0
LINE
  5
5A69
  8
SUNPOU
  6
CONTINUOUS
 62
     4
 10
20113.60528299999
 20
5995.5092510000022
 30
0.0
 11
23194.10528299999
 21
5995.5092510000022
 31
0.0
  0
LINE
  5
5A7A
  8
SUNPOU
  6
CONTINUOUS
 62
     4
 10
19889.604623999981
 20
6895.5090859999973
 30
0.0
 11
18689.603633999988
 21
6895.5090859999973
 31
0.0
  0
LINE
  5
5A7B
  8
SUNPOU
  6
CONTINUOUS
 62
     4
 10
19857.10488799998
 20
9244.0090860000037
 30
0.0
 11
18689.603633999988
 21
9244.0090860000037
 31
0.0
  0
LINE
  5
5A7C
  8
SUNPOU
  6
CONTINUOUS
 62
     4
 10
18769.603633999981
 20
6895.5090859999973
 30
0.0
 11
18769.603633999981
 21
9244.0090860000037
 31
0.0
  0
LINE
  5
5A7D
  8
SUNPOU
  6
CONTINUOUS
 62
     4
 10
19889.604623999981
 20
6895.5090859999973
 30
0.0
 11
19089.60594299998
 21
6895.5090859999973
 31
0.0
  0
LINE
  5
5A7E
  8
SUNPOU
  6
CONTINUOUS
 62
     4
 10
19889.604623999981
 20
8787.0090859999982
 30
0.0
 11
19089.60594299998
 21
8787.0090859999982
 31
0.0
  0
LINE
  5
5A7F
  8
SUNPOU
  6
CONTINUOUS
 62
     4
 10
19169.60594299998
 20
6895.5090859999973
 30
0.0
 11
19169.60594299998
 21
8787.0090859999982
 31
0.0
  0
TEXT
  5
5A80
  8
0
  6
CONTINUOUS
 62
     7
 10
19089.60594299998
 20
6959.4883242912747
 30
0.0
 40
160.0
  1
有効開口高サ 1891.5
 50
90.0
  0
TEXT
  5
5A81
  8
0
  6
CONTINUOUS
 62
     7
 10
18689.603633999988
 20
7051.0924193333376
 30
0.0
 40
160.0
  1
2348.5（2588.5）
 50
90.0
  0
TEXT
  5
5A86
  8
0
  6
CONTINUOUS
 62
     7
 10
20752.521949666661
 20
6075.5092510000031
 30
0.0
 40
160.0
  1
有効開口巾 3080.5
  0
TEXT
  5
5A87
  8
0
  6
CONTINUOUS
 62
     7
 10
23757.35528299999
 20
6342.1759176666683
 30
0.0
 40
160.0
  1
有効開口巾
  0
TEXT
  5
5A88
  8
0
  6
CONTINUOUS
 62
     7
 10
23800.021949666661
 20
6075.5092510000031
 30
0.0
 40
160.0
  1
 1678.5
  0
TEXT
  5
5A89
  8
0
  6
CONTINUOUS
 62
     7
 10
23848.021949666661
 20
5675.5092510000022
 30
0.0
 40
160.0
  1
1866.5
  0
TEXT
  5
5A8A
  8
0
  6
CONTINUOUS
 62
     7
 10
21253.855282999979
 20
5675.5092510000022
 30
0.0
 40
160.0
  1
3268.5
  0
TEXT
  5
5A8B
  8
0
  6
CONTINUOUS
 62
     7
 10
25283.148232258831
 20
5675.5092510000022
 30
0.0
 40
160.0
  1
42.5
  0
TEXT
  5
5A8C
  8
0
  6
CONTINUOUS
 62
     7
 10
19411.066292741129
 20
5675.5092510000022
 30
0.0
 40
160.0
  1
42.5
  0
TEXT
  5
5A8D
  8
0
  6
CONTINUOUS
 62
     7
 10
22307.10528299999
 20
5275.5094159999999
 30
0.0
 40
160.0
  1
5220
  0
TEXT
  5
5A8E
  8
0
  6
CONTINUOUS
 62
     7
 10
8683.3957903486371
 20
10123.510762
 30
0.0
 40
160.0
  1
180
  0
TEXT
  5
5A8F
  8
0
  6
CONTINUOUS
 62
     7
 10
15904.84757699998
 20
7051.0924193333412
 30
0.0
 40
160.0
  1
2348.5（2588.5）
 50
90.0
  0
TEXT
  5
5A90
  8
0
  6
CONTINUOUS
 62
     7
 10
8154.3507430000163
 20
7194.8424193333403
 30
0.0
 40
160.0
  1
2156（2396）
 50
90.0
  0
TEXT
  5
5A91
  8
0
  6
CONTINUOUS
 62
     7
 10
11721.265827666661
 20
10523.509112
 30
0.0
 40
160.0
  1
5900.5
  0
TEXT
  5
5A92
  8
0
  6
CONTINUOUS
 62
     7
 10
15111.51582766667
 20
10123.510762
 30
0.0
 40
160.0
  1
150
  0
TEXT
  5
5A93
  8
0
  6
CONTINUOUS
 62
     7
 10
11722.932494333339
 20
10123.510762
 30
0.0
 40
160.0
  1
5570.5
  0
TEXT
  5
5A94
  8
0
  6
CONTINUOUS
 62
     7
 10
11722.932494333339
 20
5275.509416000009
 30
0.0
 40
160.0
  1
5570.5
  0
TEXT
  5
5A95
  8
0
  6
CONTINUOUS
 62
     7
 10
15033.16779830982
 20
5675.5092510000086
 30
0.0
 40
160.0
  1
42.5
  0
TEXT
  5
5A96
  8
0
  6
CONTINUOUS
 62
     7
 10
8727.1754519036967
 20
5675.5092510000086
 30
0.0
 40
160.0
  1
42.5
  0
TEXT
  5
5A97
  8
0
  6
CONTINUOUS
 62
     7
 10
10250.599161
 20
5675.5092510000086
 30
0.0
 40
160.0
  1
2567.5
  0
TEXT
  5
5A98
  8
0
  6
CONTINUOUS
 62
     7
 10
13126.68249433333
 20
5675.5092510000086
 30
0.0
 40
160.0
  1
2918
  0
TEXT
  5
5A99
  8
0
  6
CONTINUOUS
 62
     7
 10
19010.15268599999
 20
18847.739618666648
 30
0.0
 40
160.0
  1
1108.5
 50
90.0
  0
TEXT
  5
5A9A
  8
0
  6
CONTINUOUS
 62
     7
 10
19010.15268599999
 20
17630.656285333331
 30
0.0
 40
160.0
  1
1459
 50
90.0
  0
TEXT
  5
5A9B
  8
0
  6
CONTINUOUS
 62
     7
 10
19010.15268599999
 20
16171.77654108334
 30
0.0
 40
160.0
  1
1459
 50
90.0
  0
TEXT
  5
5A9C
  8
0
  6
CONTINUOUS
 62
     7
 10
19010.15268599999
 20
14712.776541083331
 30
0.0
 40
160.0
  1
1459
 50
90.0
  0
TEXT
  5
5A9D
  8
0
  6
CONTINUOUS
 62
     7
 10
19421.553590617881
 20
13358.37486799999
 30
0.0
 40
160.0
  1
42.5
  0
TEXT
  5
5A9E
  8
0
  6
CONTINUOUS
 62
     7
 10
25272.660935382071
 20
13358.37486799999
 30
0.0
 40
160.0
  1
42.5
  0
TEXT
  5
5A9F
  8
0
  6
CONTINUOUS
 62
     7
 10
24556.553590617888
 20
13358.37486799999
 30
0.0
 40
160.0
  1
42.5
  0
TEXT
  5
5AA0
  8
0
  6
CONTINUOUS
 62
     7
 10
20137.660935382071
 20
13358.37486799999
 30
0.0
 40
160.0
  1
42.5
  0
TEXT
  5
5AA1
  8
0
  6
CONTINUOUS
 62
     7
 10
22307.107263000002
 20
12958.37486799999
 30
0.0
 40
160.0
  1
5220
  0
TEXT
  5
5AA2
  8
0
  6
CONTINUOUS
 62
     7
 10
26167.106866999991
 20
14415.489618666659
 30
0.0
 40
160.0
  1
758
 50
90.0
  0
TEXT
  5
5AA3
  8
0
  6
CONTINUOUS
 62
     7
 10
26167.106866999991
 20
15185.10987441667
 30
0.0
 40
160.0
  1
701
 50
90.0
  0
TEXT
  5
5AA4
  8
0
  6
CONTINUOUS
 62
     7
 10
26167.106866999991
 20
15886.10987441667
 30
0.0
 40
160.0
  1
701
 50
90.0
  0
TEXT
  5
5AA5
  8
0
  6
CONTINUOUS
 62
     7
 10
26167.106866999991
 20
16575.48961866667
 30
0.0
 40
160.0
  1
758
 50
90.0
  0
TEXT
  5
5AA6
  8
0
  6
CONTINUOUS
 62
     7
 10
26167.106866999991
 20
17333.489618666648
 30
0.0
 40
160.0
  1
758
 50
90.0
  0
TEXT
  5
5AA7
  8
0
  6
CONTINUOUS
 62
     7
 10
26167.106866999991
 20
18102.989618666641
 30
0.0
 40
160.0
  1
701
 50
90.0
  0
TEXT
  5
5AA8
  8
0
  6
CONTINUOUS
 62
     7
 10
26167.106866999991
 20
18803.989618666641
 30
0.0
 40
160.0
  1
701
 50
90.0
  0
TEXT
  5
5AA9
  8
0
  6
CONTINUOUS
 62
     7
 10
26160.431704035
 20
19840.281009987841
 30
0.0
 40
160.0
  1
407.5
 50
90.0
  0
TEXT
  5
5AAA
  8
0
  6
CONTINUOUS
 62
     7
 10
26567.106866999991
 20
18051.572951999991
 30
0.0
 40
160.0
  1
2567.5
 50
90.0
  0
TEXT
  5
5AAB
  8
0
  6
CONTINUOUS
 62
     7
 10
26567.106866999991
 20
15442.156285333331
 30
0.0
 40
160.0
  1
2918
 50
90.0
  0
TEXT
  5
5AAC
  8
0
  6
CONTINUOUS
 62
     7
 10
26967.106866999991
 20
16605.906285333331
 30
0.0
 40
160.0
  1
5570.5
 50
90.0
  0
TEXT
  5
5AAD
  8
0
  6
CONTINUOUS
 62
     7
 10
26567.106866999991
 20
19871.37648339678
 30
0.0
 40
160.0
  1
42.5
 50
90.0
  0
TEXT
  5
5AAE
  8
0
  6
CONTINUOUS
 62
     7
 10
26567.106866999991
 20
13633.769420603199
 30
0.0
 40
160.0
  1
42.5
 50
90.0
  0
TEXT
  5
5AAF
  8
0
  6
CONTINUOUS
 62
     7
 10
23388.94059633333
 20
20587.824140000019
 30
0.0
 40
160.0
  1
407.5
  0
TEXT
  5
5AB0
  8
0
  6
CONTINUOUS
 62
     7
 10
24562.274424416672
 20
20587.824140000019
 30
0.0
 40
160.0
  1
758
  0
TEXT
  5
5AB1
  8
0
  6
CONTINUOUS
 62
     7
 10
23872.773929666659
 20
20267.824140000019
 30
0.0
 40
160.0
  1
701
  0
TEXT
  5
5AB2
  8
0
  6
CONTINUOUS
 62
     7
 10
25277.419242528791
 20
20587.824140000019
 30
0.0
 40
160.0
  1
42.5
  0
TEXT
  5
5AB3
  8
0
  6
CONTINUOUS
 62
     7
 10
20120.44059633333
 20
20587.824140000019
 30
0.0
 40
160.0
  1
407.5
  0
TEXT
  5
5AB4
  8
0
  6
CONTINUOUS
 62
     7
 10
19416.79528347119
 20
20587.824140000019
 30
0.0
 40
160.0
  1
42.5
  0
TEXT
  5
5AB5
  8
0
  6
CONTINUOUS
 62
     7
 10
22695.774424416672
 20
20587.824140000019
 30
0.0
 40
160.0
  1
758
  0
TEXT
  5
5AB6
  8
0
  6
CONTINUOUS
 62
     7
 10
22006.27392966667
 20
20587.824140000019
 30
0.0
 40
160.0
  1
701
  0
TEXT
  5
5AB7
  8
0
  6
CONTINUOUS
 62
     7
 10
21305.27392966667
 20
20587.824140000019
 30
0.0
 40
160.0
  1
701
  0
TEXT
  5
5AB8
  8
0
  6
CONTINUOUS
 62
     7
 10
20604.273929666651
 20
20267.824140000019
 30
0.0
 40
160.0
  1
701
  0
TEXT
  5
5AB9
  8
0
  6
CONTINUOUS
 62
     7
 10
8257.0184275852607
 20
13441.873899702619
 30
0.0
 40
160.0
  1
192.5
 50
90.0
  0
TEXT
  5
5ABA
  8
0
  6
CONTINUOUS
 62
     7
 10
8257.0184275852534
 20
14712.66024333333
 30
0.0
 40
160.0
  1
1459
 50
90.0
  0
TEXT
  5
5ABB
  8
0
  6
CONTINUOUS
 62
     7
 10
8257.0184275852534
 20
16171.660243333319
 30
0.0
 40
160.0
  1
1459
 50
90.0
  0
TEXT
  5
5ABC
  8
0
  6
CONTINUOUS
 62
     7
 10
8257.0184275852534
 20
17630.660243333321
 30
0.0
 40
160.0
  1
1459
 50
90.0
  0
TEXT
  5
5ABD
  8
0
  6
CONTINUOUS
 62
     7
 10
8257.0184275852534
 20
18847.743576666671
 30
0.0
 40
160.0
  1
1108.5
 50
90.0
  0
TEXT
  5
5ABE
  8
0
  6
CONTINUOUS
 62
     7
 10
8257.0184275852607
 20
20046.782094807681
 30
0.0
 40
160.0
  1
222.5
 50
90.0
  0
TEXT
  5
5ABF
  8
0
  6
CONTINUOUS
 62
     7
 10
8657.0184275852625
 20
20077.822819000012
 30
0.0
 40
160.0
  1
20
 50
90.0
  0
TEXT
  5
5AC0
  8
0
  6
CONTINUOUS
 62
     7
 10
13094.9289322519
 20
20587.832057
 30
0.0
 40
160.0
  1
1866.5
  0
TEXT
  5
5AC1
  8
0
  6
CONTINUOUS
 62
     7
 10
14538.008971608489
 20
20587.832057
 30
0.0
 40
160.0
  1
85.5
  0
TEXT
  5
5AC2
  8
0
  6
CONTINUOUS
 62
     7
 10
10500.774141585271
 20
20587.832057
 30
0.0
 40
160.0
  1
3268.5
  0
TEXT
  5
5AC3
  8
0
  6
CONTINUOUS
 62
     7
 10
8650.0274355620131
 20
20587.832057
 30
0.0
 40
160.0
  1
85.5
  0
ARC
  5
5AC9
  8
0
  6
BYBLOCK
 62
     0
 10
9266.5241415852706
 20
20507.832057
 30
0.0
 40
15.0
 50
0.0
 51
180.0
  0
ARC
  5
5ACA
  8
0
  6
BYBLOCK
 62
     0
 10
9266.5241415852706
 20
20507.832057
 30
0.0
 40
15.0
 50
180.0
 51
0.0
  0
ARC
  5
5ACB
  8
0
  6
BYBLOCK
 62
     0
 10
9181.0241415852743
 20
20507.832057
 30
0.0
 40
15.0
 50
180.0
 51
0.0
  0
ARC
  5
5ACC
  8
0
  6
BYBLOCK
 62
     0
 10
9181.0241415852743
 20
20507.832057
 30
0.0
 40
15.0
 50
0.0
 51
180.0
  0
ARC
  5
5ACD
  8
0
  6
BYBLOCK
 62
     0
 10
12535.024141585271
 20
20507.832057
 30
0.0
 40
15.0
 50
180.0
 51
0.0
  0
ARC
  5
5ACE
  8
0
  6
BYBLOCK
 62
     0
 10
12535.024141585271
 20
20507.832057
 30
0.0
 40
15.0
 50
0.0
 51
180.0
  0
ARC
  5
5ACF
  8
0
  6
BYBLOCK
 62
     0
 10
9266.5241415852706
 20
20507.832057
 30
0.0
 40
15.0
 50
0.0
 51
180.0
  0
ARC
  5
5AD0
  8
0
  6
BYBLOCK
 62
     0
 10
9266.5241415852706
 20
20507.832057
 30
0.0
 40
15.0
 50
180.0
 51
0.0
  0
ARC
  5
5AD1
  8
0
  6
BYBLOCK
 62
     0
 10
14401.51226558523
 20
20507.832057
 30
0.0
 40
15.0
 50
180.0
 51
0.0
  0
ARC
  5
5AD2
  8
0
  6
BYBLOCK
 62
     0
 10
14401.51226558523
 20
20507.832057
 30
0.0
 40
15.0
 50
0.0
 51
180.0
  0
ARC
  5
5AD3
  8
0
  6
BYBLOCK
 62
     0
 10
14487.01226558523
 20
20507.832057
 30
0.0
 40
15.0
 50
0.0
 51
180.0
  0
ARC
  5
5AD4
  8
0
  6
BYBLOCK
 62
     0
 10
14487.01226558523
 20
20507.832057
 30
0.0
 40
15.0
 50
180.0
 51
0.0
  0
ARC
  5
5AD5
  8
0
  6
BYBLOCK
 62
     0
 10
12535.01226558523
 20
20507.832057
 30
0.0
 40
15.0
 50
0.0
 51
180.0
  0
ARC
  5
5AD6
  8
0
  6
BYBLOCK
 62
     0
 10
12535.01226558523
 20
20507.832057
 30
0.0
 40
15.0
 50
180.0
 51
0.0
  0
ARC
  5
5AD7
  8
0
  6
BYBLOCK
 62
     0
 10
14401.51226558523
 20
20507.832057
 30
0.0
 40
15.0
 50
180.0
 51
0.0
  0
ARC
  5
5AD8
  8
0
  6
BYBLOCK
 62
     0
 10
14401.51226558523
 20
20507.832057
 30
0.0
 40
15.0
 50
0.0
 51
180.0
  0
ARC
  5
5AD9
  8
0
  6
BYBLOCK
 62
     0
 10
8737.0184275852607
 20
19937.822819000001
 30
0.0
 40
15.0
 50
270.0
 51
90.0
  0
ARC
  5
5ADA
  8
0
  6
BYBLOCK
 62
     0
 10
8737.0184275852607
 20
19937.822819000001
 30
0.0
 40
15.0
 50
90.0
 51
270.0
  0
ARC
  5
5ADB
  8
0
  6
BYBLOCK
 62
     0
 10
8737.0184275852607
 20
19957.822819000001
 30
0.0
 40
15.0
 50
90.0
 51
270.0
  0
ARC
  5
5ADC
  8
0
  6
BYBLOCK
 62
     0
 10
8737.0184275852607
 20
19957.822819000001
 30
0.0
 40
15.0
 50
270.0
 51
90.0
  0
ARC
  5
5ADD
  8
0
  6
BYBLOCK
 62
     0
 10
8337.0184275852607
 20
19735.326909999989
 30
0.0
 40
15.0
 50
90.0
 51
270.0
  0
ARC
  5
5ADE
  8
0
  6
BYBLOCK
 62
     0
 10
8337.0184275852607
 20
19735.326909999989
 30
0.0
 40
15.0
 50
270.0
 51
90.0
  0
ARC
  5
5ADF
  8
0
  6
BYBLOCK
 62
     0
 10
8337.0184275852607
 20
19957.822819000001
 30
0.0
 40
15.0
 50
270.0
 51
90.0
  0
ARC
  5
5AE0
  8
0
  6
BYBLOCK
 62
     0
 10
8337.0184275852607
 20
19957.822819000001
 30
0.0
 40
15.0
 50
90.0
 51
270.0
  0
ARC
  5
5AE1
  8
0
  6
BYBLOCK
 62
     0
 10
8337.0184275852607
 20
18626.826909999982
 30
0.0
 40
15.0
 50
90.0
 51
270.0
  0
ARC
  5
5AE2
  8
0
  6
BYBLOCK
 62
     0
 10
8337.0184275852607
 20
18626.826909999982
 30
0.0
 40
15.0
 50
270.0
 51
90.0
  0
ARC
  5
5AE3
  8
0
  6
BYBLOCK
 62
     0
 10
8337.0184275852607
 20
19735.326909999989
 30
0.0
 40
15.0
 50
270.0
 51
90.0
  0
ARC
  5
5AE4
  8
0
  6
BYBLOCK
 62
     0
 10
8337.0184275852607
 20
19735.326909999989
 30
0.0
 40
15.0
 50
90.0
 51
270.0
  0
ARC
  5
5AE5
  8
0
  6
BYBLOCK
 62
     0
 10
8337.0184275852607
 20
17167.826909999982
 30
0.0
 40
15.0
 50
90.0
 51
270.0
  0
ARC
  5
5AE6
  8
0
  6
BYBLOCK
 62
     0
 10
8337.0184275852607
 20
17167.826909999982
 30
0.0
 40
15.0
 50
270.0
 51
90.0
  0
ARC
  5
5AE7
  8
0
  6
BYBLOCK
 62
     0
 10
8337.0184275852607
 20
18626.826909999982
 30
0.0
 40
15.0
 50
270.0
 51
90.0
  0
ARC
  5
5AE8
  8
0
  6
BYBLOCK
 62
     0
 10
8337.0184275852607
 20
18626.826909999982
 30
0.0
 40
15.0
 50
90.0
 51
270.0
  0
ARC
  5
5AE9
  8
0
  6
BYBLOCK
 62
     0
 10
8337.0184275852607
 20
15708.826909999991
 30
0.0
 40
15.0
 50
90.0
 51
270.0
  0
ARC
  5
5AEA
  8
0
  6
BYBLOCK
 62
     0
 10
8337.0184275852607
 20
15708.826909999991
 30
0.0
 40
15.0
 50
270.0
 51
90.0
  0
ARC
  5
5AEB
  8
0
  6
BYBLOCK
 62
     0
 10
8337.0184275852607
 20
17167.826909999982
 30
0.0
 40
15.0
 50
270.0
 51
90.0
  0
ARC
  5
5AEC
  8
0
  6
BYBLOCK
 62
     0
 10
8337.0184275852607
 20
17167.826909999982
 30
0.0
 40
15.0
 50
90.0
 51
270.0
  0
ARC
  5
5AED
  8
0
  6
BYBLOCK
 62
     0
 10
8337.0184275852607
 20
14249.826909999991
 30
0.0
 40
15.0
 50
90.0
 51
270.0
  0
ARC
  5
5AEE
  8
0
  6
BYBLOCK
 62
     0
 10
8337.0184275852607
 20
14249.826909999991
 30
0.0
 40
15.0
 50
270.0
 51
90.0
  0
ARC
  5
5AEF
  8
0
  6
BYBLOCK
 62
     0
 10
8337.0184275852607
 20
15708.826909999991
 30
0.0
 40
15.0
 50
270.0
 51
90.0
  0
ARC
  5
5AF0
  8
0
  6
BYBLOCK
 62
     0
 10
8337.0184275852607
 20
15708.826909999991
 30
0.0
 40
15.0
 50
90.0
 51
270.0
  0
ARC
  5
5AF1
  8
0
  6
BYBLOCK
 62
     0
 10
8337.0184275852607
 20
14249.826909999991
 30
0.0
 40
15.0
 50
270.0
 51
90.0
  0
ARC
  5
5AF2
  8
0
  6
BYBLOCK
 62
     0
 10
8337.0184275852607
 20
14249.826909999991
 30
0.0
 40
15.0
 50
90.0
 51
270.0
  0
ARC
  5
5AF3
  8
0
  6
BYBLOCK
 62
     0
 10
8337.0184275852607
 20
14057.331594999991
 30
0.0
 40
15.0
 50
90.0
 51
270.0
  0
ARC
  5
5AF4
  8
0
  6
BYBLOCK
 62
     0
 10
8337.0184275852607
 20
14057.331594999991
 30
0.0
 40
15.0
 50
270.0
 51
90.0
  0
ARC
  5
5AF5
  8
0
  6
BYBLOCK
 62
     0
 10
20427.107263000002
 20
20507.824140000019
 30
0.0
 40
15.0
 50
0.0
 51
180.0
  0
ARC
  5
5AF6
  8
0
  6
BYBLOCK
 62
     0
 10
20427.107263000002
 20
20507.824140000019
 30
0.0
 40
15.0
 50
180.0
 51
0.0
  0
ARC
  5
5AF7
  8
0
  6
BYBLOCK
 62
     0
 10
21128.107263000002
 20
20507.824140000019
 30
0.0
 40
15.0
 50
180.0
 51
0.0
  0
ARC
  5
5AF8
  8
0
  6
BYBLOCK
 62
     0
 10
21128.107263000002
 20
20507.824140000019
 30
0.0
 40
15.0
 50
0.0
 51
180.0
  0
ARC
  5
5AF9
  8
0
  6
BYBLOCK
 62
     0
 10
21128.107263000002
 20
20507.824140000019
 30
0.0
 40
15.0
 50
0.0
 51
180.0
  0
ARC
  5
5AFA
  8
0
  6
BYBLOCK
 62
     0
 10
21128.107263000002
 20
20507.824140000019
 30
0.0
 40
15.0
 50
180.0
 51
0.0
  0
ARC
  5
5AFB
  8
0
  6
BYBLOCK
 62
     0
 10
21829.107263000002
 20
20507.824140000019
 30
0.0
 40
15.0
 50
180.0
 51
0.0
  0
ARC
  5
5AFC
  8
0
  6
BYBLOCK
 62
     0
 10
21829.107263000002
 20
20507.824140000019
 30
0.0
 40
15.0
 50
0.0
 51
180.0
  0
ARC
  5
5AFD
  8
0
  6
BYBLOCK
 62
     0
 10
21829.107263000002
 20
20507.824140000019
 30
0.0
 40
15.0
 50
0.0
 51
180.0
  0
ARC
  5
5AFE
  8
0
  6
BYBLOCK
 62
     0
 10
21829.107263000002
 20
20507.824140000019
 30
0.0
 40
15.0
 50
180.0
 51
0.0
  0
ARC
  5
5AFF
  8
0
  6
BYBLOCK
 62
     0
 10
22530.107263000002
 20
20507.824140000019
 30
0.0
 40
15.0
 50
180.0
 51
0.0
  0
ARC
  5
5B00
  8
0
  6
BYBLOCK
 62
     0
 10
22530.107263000002
 20
20507.824140000019
 30
0.0
 40
15.0
 50
0.0
 51
180.0
  0
ARC
  5
5B01
  8
0
  6
BYBLOCK
 62
     0
 10
22530.107263000002
 20
20507.824140000019
 30
0.0
 40
15.0
 50
0.0
 51
180.0
  0
ARC
  5
5B02
  8
0
  6
BYBLOCK
 62
     0
 10
22530.107263000002
 20
20507.824140000019
 30
0.0
 40
15.0
 50
180.0
 51
0.0
  0
ARC
  5
5B03
  8
0
  6
BYBLOCK
 62
     0
 10
23288.108252500009
 20
20507.824140000019
 30
0.0
 40
15.0
 50
180.0
 51
0.0
  0
ARC
  5
5B04
  8
0
  6
BYBLOCK
 62
     0
 10
23288.108252500009
 20
20507.824140000019
 30
0.0
 40
15.0
 50
0.0
 51
180.0
  0
ARC
  5
5B05
  8
0
  6
BYBLOCK
 62
     0
 10
20019.607263000002
 20
20507.824140000019
 30
0.0
 40
15.0
 50
0.0
 51
180.0
  0
ARC
  5
5B06
  8
0
  6
BYBLOCK
 62
     0
 10
20019.607263000002
 20
20507.824140000019
 30
0.0
 40
15.0
 50
180.0
 51
0.0
  0
ARC
  5
5B07
  8
0
  6
BYBLOCK
 62
     0
 10
19977.11095799999
 20
20507.824140000019
 30
0.0
 40
15.0
 50
180.0
 51
0.0
  0
ARC
  5
5B08
  8
0
  6
BYBLOCK
 62
     0
 10
19977.11095799999
 20
20507.824140000019
 30
0.0
 40
15.0
 50
0.0
 51
180.0
  0
ARC
  5
5B09
  8
0
  6
BYBLOCK
 62
     0
 10
20019.607263000002
 20
20507.824140000019
 30
0.0
 40
15.0
 50
0.0
 51
180.0
  0
ARC
  5
5B0A
  8
0
  6
BYBLOCK
 62
     0
 10
20019.607263000002
 20
20507.824140000019
 30
0.0
 40
15.0
 50
180.0
 51
0.0
  0
ARC
  5
5B0B
  8
0
  6
BYBLOCK
 62
     0
 10
20427.107263000002
 20
20507.824140000019
 30
0.0
 40
15.0
 50
180.0
 51
0.0
  0
ARC
  5
5B0C
  8
0
  6
BYBLOCK
 62
     0
 10
20427.107263000002
 20
20507.824140000019
 30
0.0
 40
15.0
 50
0.0
 51
180.0
  0
ARC
  5
5B0D
  8
0
  6
BYBLOCK
 62
     0
 10
25154.607263000002
 20
20507.824140000019
 30
0.0
 40
15.0
 50
180.0
 51
0.0
  0
ARC
  5
5B0E
  8
0
  6
BYBLOCK
 62
     0
 10
25154.607263000002
 20
20507.824140000019
 30
0.0
 40
15.0
 50
0.0
 51
180.0
  0
ARC
  5
5B0F
  8
0
  6
BYBLOCK
 62
     0
 10
25197.103567999991
 20
20507.824140000019
 30
0.0
 40
15.0
 50
0.0
 51
180.0
  0
ARC
  5
5B10
  8
0
  6
BYBLOCK
 62
     0
 10
25197.103567999991
 20
20507.824140000019
 30
0.0
 40
15.0
 50
180.0
 51
0.0
  0
ARC
  5
5B11
  8
0
  6
BYBLOCK
 62
     0
 10
23695.607263000002
 20
20507.824140000019
 30
0.0
 40
15.0
 50
0.0
 51
180.0
  0
ARC
  5
5B12
  8
0
  6
BYBLOCK
 62
     0
 10
23695.607263000002
 20
20507.824140000019
 30
0.0
 40
15.0
 50
180.0
 51
0.0
  0
ARC
  5
5B13
  8
0
  6
BYBLOCK
 62
     0
 10
24396.607263000002
 20
20507.824140000019
 30
0.0
 40
15.0
 50
180.0
 51
0.0
  0
ARC
  5
5B14
  8
0
  6
BYBLOCK
 62
     0
 10
24396.607263000002
 20
20507.824140000019
 30
0.0
 40
15.0
 50
0.0
 51
180.0
  0
ARC
  5
5B15
  8
0
  6
BYBLOCK
 62
     0
 10
24396.607263000002
 20
20507.824140000019
 30
0.0
 40
15.0
 50
0.0
 51
180.0
  0
ARC
  5
5B16
  8
0
  6
BYBLOCK
 62
     0
 10
24396.607263000002
 20
20507.824140000019
 30
0.0
 40
15.0
 50
180.0
 51
0.0
  0
ARC
  5
5B17
  8
0
  6
BYBLOCK
 62
     0
 10
25154.608252500009
 20
20507.824140000019
 30
0.0
 40
15.0
 50
180.0
 51
0.0
  0
ARC
  5
5B18
  8
0
  6
BYBLOCK
 62
     0
 10
25154.608252500009
 20
20507.824140000019
 30
0.0
 40
15.0
 50
0.0
 51
180.0
  0
ARC
  5
5B19
  8
0
  6
BYBLOCK
 62
     0
 10
23288.107263000002
 20
20507.824140000019
 30
0.0
 40
15.0
 50
0.0
 51
180.0
  0
ARC
  5
5B1A
  8
0
  6
BYBLOCK
 62
     0
 10
23288.107263000002
 20
20507.824140000019
 30
0.0
 40
15.0
 50
180.0
 51
0.0
  0
ARC
  5
5B1B
  8
0
  6
BYBLOCK
 62
     0
 10
23695.607263000002
 20
20507.824140000019
 30
0.0
 40
15.0
 50
180.0
 51
0.0
  0
ARC
  5
5B1C
  8
0
  6
BYBLOCK
 62
     0
 10
23695.607263000002
 20
20507.824140000019
 30
0.0
 40
15.0
 50
0.0
 51
180.0
  0
ARC
  5
5B1D
  8
0
  6
BYBLOCK
 62
     0
 10
26647.106866999991
 20
14249.82295199999
 30
0.0
 40
15.0
 50
90.0
 51
270.0
  0
ARC
  5
5B1E
  8
0
  6
BYBLOCK
 62
     0
 10
26647.106866999991
 20
14249.82295199999
 30
0.0
 40
15.0
 50
270.0
 51
90.0
  0
ARC
  5
5B1F
  8
0
  6
BYBLOCK
 62
     0
 10
26647.106866999991
 20
14207.32565699999
 30
0.0
 40
15.0
 50
270.0
 51
90.0
  0
ARC
  5
5B20
  8
0
  6
BYBLOCK
 62
     0
 10
26647.106866999991
 20
14207.32565699999
 30
0.0
 40
15.0
 50
90.0
 51
270.0
  0
ARC
  5
5B21
  8
0
  6
BYBLOCK
 62
     0
 10
26647.106866999991
 20
19735.322951999991
 30
0.0
 40
15.0
 50
270.0
 51
90.0
  0
ARC
  5
5B22
  8
0
  6
BYBLOCK
 62
     0
 10
26647.106866999991
 20
19735.322951999991
 30
0.0
 40
15.0
 50
90.0
 51
270.0
  0
ARC
  5
5B23
  8
0
  6
BYBLOCK
 62
     0
 10
26647.106866999991
 20
19777.820246999981
 30
0.0
 40
15.0
 50
90.0
 51
270.0
  0
ARC
  5
5B24
  8
0
  6
BYBLOCK
 62
     0
 10
26647.106866999991
 20
19777.820246999981
 30
0.0
 40
15.0
 50
270.0
 51
90.0
  0
ARC
  5
5B25
  8
0
  6
BYBLOCK
 62
     0
 10
27047.106866999991
 20
19777.820246999981
 30
0.0
 40
15.0
 50
270.0
 51
90.0
  0
ARC
  5
5B26
  8
0
  6
BYBLOCK
 62
     0
 10
27047.106866999991
 20
19777.820246999981
 30
0.0
 40
15.0
 50
90.0
 51
270.0
  0
ARC
  5
5B27
  8
0
  6
BYBLOCK
 62
     0
 10
27047.106866999991
 20
14207.32565699999
 30
0.0
 40
15.0
 50
90.0
 51
270.0
  0
ARC
  5
5B28
  8
0
  6
BYBLOCK
 62
     0
 10
27047.106866999991
 20
14207.32565699999
 30
0.0
 40
15.0
 50
270.0
 51
90.0
  0
ARC
  5
5B29
  8
0
  6
BYBLOCK
 62
     0
 10
26647.106866999991
 20
14249.82295199999
 30
0.0
 40
15.0
 50
90.0
 51
270.0
  0
ARC
  5
5B2A
  8
0
  6
BYBLOCK
 62
     0
 10
26647.106866999991
 20
14249.82295199999
 30
0.0
 40
15.0
 50
270.0
 51
90.0
  0
ARC
  5
5B2B
  8
0
  6
BYBLOCK
 62
     0
 10
26647.106866999991
 20
17167.822951999991
 30
0.0
 40
15.0
 50
270.0
 51
90.0
  0
ARC
  5
5B2C
  8
0
  6
BYBLOCK
 62
     0
 10
26647.106866999991
 20
17167.822951999991
 30
0.0
 40
15.0
 50
90.0
 51
270.0
  0
ARC
  5
5B2D
  8
0
  6
BYBLOCK
 62
     0
 10
26647.106866999991
 20
17167.822951999991
 30
0.0
 40
15.0
 50
90.0
 51
270.0
  0
ARC
  5
5B2E
  8
0
  6
BYBLOCK
 62
     0
 10
26647.106866999991
 20
17167.822951999991
 30
0.0
 40
15.0
 50
270.0
 51
90.0
  0
ARC
  5
5B2F
  8
0
  6
BYBLOCK
 62
     0
 10
26647.106866999991
 20
19735.322951999991
 30
0.0
 40
15.0
 50
270.0
 51
90.0
  0
ARC
  5
5B30
  8
0
  6
BYBLOCK
 62
     0
 10
26647.106866999991
 20
19735.322951999991
 30
0.0
 40
15.0
 50
90.0
 51
270.0
  0
ARC
  5
5B31
  8
0
  6
BYBLOCK
 62
     0
 10
26247.106866999991
 20
19735.322951999991
 30
0.0
 40
15.0
 50
270.0
 51
90.0
  0
ARC
  5
5B32
  8
0
  6
BYBLOCK
 62
     0
 10
26247.106866999991
 20
19735.322951999991
 30
0.0
 40
15.0
 50
90.0
 51
270.0
  0
ARC
  5
5B33
  8
0
  6
BYBLOCK
 62
     0
 10
26247.106866999991
 20
19327.822951999991
 30
0.0
 40
15.0
 50
90.0
 51
270.0
  0
ARC
  5
5B34
  8
0
  6
BYBLOCK
 62
     0
 10
26247.106866999991
 20
19327.822951999991
 30
0.0
 40
15.0
 50
270.0
 51
90.0
  0
ARC
  5
5B35
  8
0
  6
BYBLOCK
 62
     0
 10
26247.106866999991
 20
19327.822951999991
 30
0.0
 40
15.0
 50
270.0
 51
90.0
  0
ARC
  5
5B36
  8
0
  6
BYBLOCK
 62
     0
 10
26247.106866999991
 20
19327.822951999991
 30
0.0
 40
15.0
 50
90.0
 51
270.0
  0
ARC
  5
5B37
  8
0
  6
BYBLOCK
 62
     0
 10
26247.106866999991
 20
18626.822951999991
 30
0.0
 40
15.0
 50
90.0
 51
270.0
  0
ARC
  5
5B38
  8
0
  6
BYBLOCK
 62
     0
 10
26247.106866999991
 20
18626.822951999991
 30
0.0
 40
15.0
 50
270.0
 51
90.0
  0
ARC
  5
5B39
  8
0
  6
BYBLOCK
 62
     0
 10
26247.106866999991
 20
18626.822951999991
 30
0.0
 40
15.0
 50
270.0
 51
90.0
  0
ARC
  5
5B3A
  8
0
  6
BYBLOCK
 62
     0
 10
26247.106866999991
 20
18626.822951999991
 30
0.0
 40
15.0
 50
90.0
 51
270.0
  0
ARC
  5
5B3B
  8
0
  6
BYBLOCK
 62
     0
 10
26247.106866999991
 20
17925.822951999991
 30
0.0
 40
15.0
 50
90.0
 51
270.0
  0
ARC
  5
5B3C
  8
0
  6
BYBLOCK
 62
     0
 10
26247.106866999991
 20
17925.822951999991
 30
0.0
 40
15.0
 50
270.0
 51
90.0
  0
ARC
  5
5B3D
  8
0
  6
BYBLOCK
 62
     0
 10
26247.106866999991
 20
17925.822951999991
 30
0.0
 40
15.0
 50
270.0
 51
90.0
  0
ARC
  5
5B3E
  8
0
  6
BYBLOCK
 62
     0
 10
26247.106866999991
 20
17925.822951999991
 30
0.0
 40
15.0
 50
90.0
 51
270.0
  0
ARC
  5
5B3F
  8
0
  6
BYBLOCK
 62
     0
 10
26247.106866999991
 20
17167.822951999991
 30
0.0
 40
15.0
 50
90.0
 51
270.0
  0
ARC
  5
5B40
  8
0
  6
BYBLOCK
 62
     0
 10
26247.106866999991
 20
17167.822951999991
 30
0.0
 40
15.0
 50
270.0
 51
90.0
  0
ARC
  5
5B41
  8
0
  6
BYBLOCK
 62
     0
 10
26247.106866999991
 20
17167.822951999991
 30
0.0
 40
15.0
 50
270.0
 51
90.0
  0
ARC
  5
5B42
  8
0
  6
BYBLOCK
 62
     0
 10
26247.106866999991
 20
17167.822951999991
 30
0.0
 40
15.0
 50
90.0
 51
270.0
  0
ARC
  5
5B43
  8
0
  6
BYBLOCK
 62
     0
 10
26247.106866999991
 20
16409.822951999991
 30
0.0
 40
15.0
 50
90.0
 51
270.0
  0
ARC
  5
5B44
  8
0
  6
BYBLOCK
 62
     0
 10
26247.106866999991
 20
16409.822951999991
 30
0.0
 40
15.0
 50
270.0
 51
90.0
  0
ARC
  5
5B45
  8
0
  6
BYBLOCK
 62
     0
 10
26247.106866999991
 20
16409.822951999991
 30
0.0
 40
15.0
 50
270.0
 51
90.0
  0
ARC
  5
5B46
  8
0
  6
BYBLOCK
 62
     0
 10
26247.106866999991
 20
16409.822951999991
 30
0.0
 40
15.0
 50
90.0
 51
270.0
  0
ARC
  5
5B47
  8
0
  6
BYBLOCK
 62
     0
 10
26247.106866999991
 20
15709.063463500001
 30
0.0
 40
15.0
 50
90.0
 51
270.0
  0
ARC
  5
5B48
  8
0
  6
BYBLOCK
 62
     0
 10
26247.106866999991
 20
15709.063463500001
 30
0.0
 40
15.0
 50
270.0
 51
90.0
  0
ARC
  5
5B49
  8
0
  6
BYBLOCK
 62
     0
 10
26247.106866999991
 20
15709.063463500001
 30
0.0
 40
15.0
 50
270.0
 51
90.0
  0
ARC
  5
5B4A
  8
0
  6
BYBLOCK
 62
     0
 10
26247.106866999991
 20
15709.063463500001
 30
0.0
 40
15.0
 50
90.0
 51
270.0
  0
ARC
  5
5B4B
  8
0
  6
BYBLOCK
 62
     0
 10
26247.106866999991
 20
15007.82295199998
 30
0.0
 40
15.0
 50
90.0
 51
270.0
  0
ARC
  5
5B4C
  8
0
  6
BYBLOCK
 62
     0
 10
26247.106866999991
 20
15007.82295199998
 30
0.0
 40
15.0
 50
270.0
 51
90.0
  0
ARC
  5
5B4D
  8
0
  6
BYBLOCK
 62
     0
 10
26247.106866999991
 20
15007.82295199998
 30
0.0
 40
15.0
 50
270.0
 51
90.0
  0
ARC
  5
5B4E
  8
0
  6
BYBLOCK
 62
     0
 10
26247.106866999991
 20
15007.82295199998
 30
0.0
 40
15.0
 50
90.0
 51
270.0
  0
ARC
  5
5B4F
  8
0
  6
BYBLOCK
 62
     0
 10
26247.106866999991
 20
14249.82295199999
 30
0.0
 40
15.0
 50
90.0
 51
270.0
  0
ARC
  5
5B50
  8
0
  6
BYBLOCK
 62
     0
 10
26247.106866999991
 20
14249.82295199999
 30
0.0
 40
15.0
 50
270.0
 51
90.0
  0
ARC
  5
5B51
  8
0
  6
BYBLOCK
 62
     0
 10
19977.105019999999
 20
12878.37486799999
 30
0.0
 40
15.0
 50
0.0
 51
180.0
  0
ARC
  5
5B52
  8
0
  6
BYBLOCK
 62
     0
 10
19977.105019999999
 20
12878.37486799999
 30
0.0
 40
15.0
 50
180.0
 51
0.0
  0
ARC
  5
5B53
  8
0
  6
BYBLOCK
 62
     0
 10
25197.10950599999
 20
12878.37486799999
 30
0.0
 40
15.0
 50
180.0
 51
0.0
  0
ARC
  5
5B54
  8
0
  6
BYBLOCK
 62
     0
 10
25197.10950599999
 20
12878.37486799999
 30
0.0
 40
15.0
 50
0.0
 51
180.0
  0
ARC
  5
5B55
  8
0
  6
BYBLOCK
 62
     0
 10
20019.607263000002
 20
13278.37486799999
 30
0.0
 40
15.0
 50
180.0
 51
0.0
  0
ARC
  5
5B56
  8
0
  6
BYBLOCK
 62
     0
 10
20019.607263000002
 20
13278.37486799999
 30
0.0
 40
15.0
 50
0.0
 51
180.0
  0
ARC
  5
5B57
  8
0
  6
BYBLOCK
 62
     0
 10
20062.109505999979
 20
13278.37486799999
 30
0.0
 40
15.0
 50
0.0
 51
180.0
  0
ARC
  5
5B58
  8
0
  6
BYBLOCK
 62
     0
 10
20062.109505999979
 20
13278.37486799999
 30
0.0
 40
15.0
 50
180.0
 51
0.0
  0
ARC
  5
5B59
  8
0
  6
BYBLOCK
 62
     0
 10
25154.607263000002
 20
13278.37486799999
 30
0.0
 40
15.0
 50
0.0
 51
180.0
  0
ARC
  5
5B5A
  8
0
  6
BYBLOCK
 62
     0
 10
25154.607263000002
 20
13278.37486799999
 30
0.0
 40
15.0
 50
180.0
 51
0.0
  0
ARC
  5
5B5B
  8
0
  6
BYBLOCK
 62
     0
 10
25112.105019999992
 20
13278.37486799999
 30
0.0
 40
15.0
 50
180.0
 51
0.0
  0
ARC
  5
5B5C
  8
0
  6
BYBLOCK
 62
     0
 10
25112.105019999992
 20
13278.37486799999
 30
0.0
 40
15.0
 50
0.0
 51
180.0
  0
ARC
  5
5B5D
  8
0
  6
BYBLOCK
 62
     0
 10
25154.607263000002
 20
13278.37486799999
 30
0.0
 40
15.0
 50
180.0
 51
0.0
  0
ARC
  5
5B5E
  8
0
  6
BYBLOCK
 62
     0
 10
25154.607263000002
 20
13278.37486799999
 30
0.0
 40
15.0
 50
0.0
 51
180.0
  0
ARC
  5
5B5F
  8
0
  6
BYBLOCK
 62
     0
 10
25197.10950599999
 20
13278.37486799999
 30
0.0
 40
15.0
 50
0.0
 51
180.0
  0
ARC
  5
5B60
  8
0
  6
BYBLOCK
 62
     0
 10
25197.10950599999
 20
13278.37486799999
 30
0.0
 40
15.0
 50
180.0
 51
0.0
  0
ARC
  5
5B61
  8
0
  6
BYBLOCK
 62
     0
 10
20019.607263000002
 20
13278.37486799999
 30
0.0
 40
15.0
 50
0.0
 51
180.0
  0
ARC
  5
5B62
  8
0
  6
BYBLOCK
 62
     0
 10
20019.607263000002
 20
13278.37486799999
 30
0.0
 40
15.0
 50
180.0
 51
0.0
  0
ARC
  5
5B63
  8
0
  6
BYBLOCK
 62
     0
 10
19977.105019999999
 20
13278.37486799999
 30
0.0
 40
15.0
 50
180.0
 51
0.0
  0
ARC
  5
5B64
  8
0
  6
BYBLOCK
 62
     0
 10
19977.105019999999
 20
13278.37486799999
 30
0.0
 40
15.0
 50
0.0
 51
180.0
  0
ARC
  5
5B65
  8
0
  6
BYBLOCK
 62
     0
 10
19090.15268599999
 20
14249.82295199999
 30
0.0
 40
15.0
 50
90.0
 51
270.0
  0
ARC
  5
5B66
  8
0
  6
BYBLOCK
 62
     0
 10
19090.15268599999
 20
14249.82295199999
 30
0.0
 40
15.0
 50
270.0
 51
90.0
  0
ARC
  5
5B67
  8
0
  6
BYBLOCK
 62
     0
 10
19090.15268599999
 20
15709.063463500001
 30
0.0
 40
15.0
 50
270.0
 51
90.0
  0
ARC
  5
5B68
  8
0
  6
BYBLOCK
 62
     0
 10
19090.15268599999
 20
15709.063463500001
 30
0.0
 40
15.0
 50
90.0
 51
270.0
  0
ARC
  5
5B69
  8
0
  6
BYBLOCK
 62
     0
 10
19090.15268599999
 20
15709.063463500001
 30
0.0
 40
15.0
 50
90.0
 51
270.0
  0
ARC
  5
5B6A
  8
0
  6
BYBLOCK
 62
     0
 10
19090.15268599999
 20
15709.063463500001
 30
0.0
 40
15.0
 50
270.0
 51
90.0
  0
ARC
  5
5B6B
  8
0
  6
BYBLOCK
 62
     0
 10
19090.15268599999
 20
17167.822951999991
 30
0.0
 40
15.0
 50
270.0
 51
90.0
  0
ARC
  5
5B6C
  8
0
  6
BYBLOCK
 62
     0
 10
19090.15268599999
 20
17167.822951999991
 30
0.0
 40
15.0
 50
90.0
 51
270.0
  0
ARC
  5
5B6D
  8
0
  6
BYBLOCK
 62
     0
 10
19090.15268599999
 20
17167.822951999991
 30
0.0
 40
15.0
 50
90.0
 51
270.0
  0
ARC
  5
5B6E
  8
0
  6
BYBLOCK
 62
     0
 10
19090.15268599999
 20
17167.822951999991
 30
0.0
 40
15.0
 50
270.0
 51
90.0
  0
ARC
  5
5B6F
  8
0
  6
BYBLOCK
 62
     0
 10
19090.15268599999
 20
18626.822951999991
 30
0.0
 40
15.0
 50
270.0
 51
90.0
  0
ARC
  5
5B70
  8
0
  6
BYBLOCK
 62
     0
 10
19090.15268599999
 20
18626.822951999991
 30
0.0
 40
15.0
 50
90.0
 51
270.0
  0
ARC
  5
5B71
  8
0
  6
BYBLOCK
 62
     0
 10
19090.15268599999
 20
18626.822951999991
 30
0.0
 40
15.0
 50
90.0
 51
270.0
  0
ARC
  5
5B72
  8
0
  6
BYBLOCK
 62
     0
 10
19090.15268599999
 20
18626.822951999991
 30
0.0
 40
15.0
 50
270.0
 51
90.0
  0
ARC
  5
5B73
  8
0
  6
BYBLOCK
 62
     0
 10
19090.15268599999
 20
19735.322951999991
 30
0.0
 40
15.0
 50
270.0
 51
90.0
  0
ARC
  5
5B74
  8
0
  6
BYBLOCK
 62
     0
 10
19090.15268599999
 20
19735.322951999991
 30
0.0
 40
15.0
 50
90.0
 51
270.0
  0
ARC
  5
5B75
  8
0
  6
BYBLOCK
 62
     0
 10
11934.349160999989
 20
5595.5092510000086
 30
0.0
 40
15.0
 50
0.0
 51
180.0
  0
ARC
  5
5B76
  8
0
  6
BYBLOCK
 62
     0
 10
11934.349160999989
 20
5595.5092510000086
 30
0.0
 40
15.0
 50
180.0
 51
0.0
  0
ARC
  5
5B77
  8
0
  6
BYBLOCK
 62
     0
 10
14852.349161
 20
5595.5092510000086
 30
0.0
 40
15.0
 50
180.0
 51
0.0
  0
ARC
  5
5B78
  8
0
  6
BYBLOCK
 62
     0
 10
14852.349161
 20
5595.5092510000086
 30
0.0
 40
15.0
 50
0.0
 51
180.0
  0
ARC
  5
5B79
  8
0
  6
BYBLOCK
 62
     0
 10
11934.349160999989
 20
5595.5092510000086
 30
0.0
 40
15.0
 50
180.0
 51
0.0
  0
ARC
  5
5B7A
  8
0
  6
BYBLOCK
 62
     0
 10
11934.349160999989
 20
5595.5092510000086
 30
0.0
 40
15.0
 50
0.0
 51
180.0
  0
ARC
  5
5B7B
  8
0
  6
BYBLOCK
 62
     0
 10
9366.8491610000019
 20
5595.5092510000086
 30
0.0
 40
15.0
 50
0.0
 51
180.0
  0
ARC
  5
5B7C
  8
0
  6
BYBLOCK
 62
     0
 10
9366.8491610000019
 20
5595.5092510000086
 30
0.0
 40
15.0
 50
180.0
 51
0.0
  0
ARC
  5
5B7D
  8
0
  6
BYBLOCK
 62
     0
 10
9366.8491610000019
 20
5595.5092510000086
 30
0.0
 40
15.0
 50
0.0
 51
180.0
  0
ARC
  5
5B7E
  8
0
  6
BYBLOCK
 62
     0
 10
9366.8491610000019
 20
5595.5092510000086
 30
0.0
 40
15.0
 50
180.0
 51
0.0
  0
ARC
  5
5B7F
  8
0
  6
BYBLOCK
 62
     0
 10
9324.3491610000037
 20
5595.5092510000086
 30
0.0
 40
15.0
 50
180.0
 51
0.0
  0
ARC
  5
5B80
  8
0
  6
BYBLOCK
 62
     0
 10
9324.3491610000037
 20
5595.5092510000086
 30
0.0
 40
15.0
 50
0.0
 51
180.0
  0
ARC
  5
5B81
  8
0
  6
BYBLOCK
 62
     0
 10
14852.349161
 20
5595.5092510000086
 30
0.0
 40
15.0
 50
180.0
 51
0.0
  0
ARC
  5
5B82
  8
0
  6
BYBLOCK
 62
     0
 10
14852.349161
 20
5595.5092510000086
 30
0.0
 40
15.0
 50
0.0
 51
180.0
  0
ARC
  5
5B83
  8
0
  6
BYBLOCK
 62
     0
 10
14894.849161
 20
5595.5092510000086
 30
0.0
 40
15.0
 50
0.0
 51
180.0
  0
ARC
  5
5B84
  8
0
  6
BYBLOCK
 62
     0
 10
14894.849161
 20
5595.5092510000086
 30
0.0
 40
15.0
 50
180.0
 51
0.0
  0
ARC
  5
5B85
  8
0
  6
BYBLOCK
 62
     0
 10
9324.3491610000037
 20
5195.5094160000081
 30
0.0
 40
15.0
 50
0.0
 51
180.0
  0
ARC
  5
5B86
  8
0
  6
BYBLOCK
 62
     0
 10
9324.3491610000037
 20
5195.5094160000081
 30
0.0
 40
15.0
 50
180.0
 51
0.0
  0
ARC
  5
5B87
  8
0
  6
BYBLOCK
 62
     0
 10
14894.849161
 20
5195.5094160000081
 30
0.0
 40
15.0
 50
180.0
 51
0.0
  0
ARC
  5
5B88
  8
0
  6
BYBLOCK
 62
     0
 10
14894.849161
 20
5195.5094160000081
 30
0.0
 40
15.0
 50
0.0
 51
180.0
  0
ARC
  5
5B89
  8
0
  6
BYBLOCK
 62
     0
 10
9324.3491610000037
 20
10043.510762
 30
0.0
 40
15.0
 50
0.0
 51
180.0
  0
ARC
  5
5B8A
  8
0
  6
BYBLOCK
 62
     0
 10
9324.3491610000037
 20
10043.510762
 30
0.0
 40
15.0
 50
180.0
 51
0.0
  0
ARC
  5
5B8B
  8
0
  6
BYBLOCK
 62
     0
 10
14894.849161
 20
10043.510762
 30
0.0
 40
15.0
 50
180.0
 51
0.0
  0
ARC
  5
5B8C
  8
0
  6
BYBLOCK
 62
     0
 10
14894.849161
 20
10043.510762
 30
0.0
 40
15.0
 50
0.0
 51
180.0
  0
ARC
  5
5B8D
  8
0
  6
BYBLOCK
 62
     0
 10
14894.849161
 20
10043.510762
 30
0.0
 40
15.0
 50
180.0
 51
0.0
  0
ARC
  5
5B8E
  8
0
  6
BYBLOCK
 62
     0
 10
14894.849161
 20
10043.510762
 30
0.0
 40
15.0
 50
0.0
 51
180.0
  0
ARC
  5
5B8F
  8
0
  6
BYBLOCK
 62
     0
 10
15044.849161
 20
10043.510762
 30
0.0
 40
15.0
 50
0.0
 51
180.0
  0
ARC
  5
5B90
  8
0
  6
BYBLOCK
 62
     0
 10
15044.849161
 20
10043.510762
 30
0.0
 40
15.0
 50
180.0
 51
0.0
  0
ARC
  5
5B91
  8
0
  6
BYBLOCK
 62
     0
 10
9144.3491610000037
 20
10443.509112
 30
0.0
 40
15.0
 50
0.0
 51
180.0
  0
ARC
  5
5B92
  8
0
  6
BYBLOCK
 62
     0
 10
9144.3491610000037
 20
10443.509112
 30
0.0
 40
15.0
 50
180.0
 51
0.0
  0
ARC
  5
5B93
  8
0
  6
BYBLOCK
 62
     0
 10
15044.849161
 20
10443.509112
 30
0.0
 40
15.0
 50
180.0
 51
0.0
  0
ARC
  5
5B94
  8
0
  6
BYBLOCK
 62
     0
 10
15044.849161
 20
10443.509112
 30
0.0
 40
15.0
 50
0.0
 51
180.0
  0
ARC
  5
5B95
  8
0
  6
BYBLOCK
 62
     0
 10
8234.3507430000191
 20
6895.5090860000037
 30
0.0
 40
15.0
 50
90.0
 51
270.0
  0
ARC
  5
5B96
  8
0
  6
BYBLOCK
 62
     0
 10
8234.3507430000191
 20
6895.5090860000037
 30
0.0
 40
15.0
 50
270.0
 51
90.0
  0
ARC
  5
5B97
  8
0
  6
BYBLOCK
 62
     0
 10
8234.3507430000191
 20
9051.5090860000073
 30
0.0
 40
15.0
 50
270.0
 51
90.0
  0
ARC
  5
5B98
  8
0
  6
BYBLOCK
 62
     0
 10
8234.3507430000191
 20
9051.5090860000073
 30
0.0
 40
15.0
 50
90.0
 51
270.0
  0
ARC
  5
5B99
  8
0
  6
BYBLOCK
 62
     0
 10
15984.84757699998
 20
6895.5090860000037
 30
0.0
 40
15.0
 50
90.0
 51
270.0
  0
ARC
  5
5B9A
  8
0
  6
BYBLOCK
 62
     0
 10
15984.84757699998
 20
6895.5090860000037
 30
0.0
 40
15.0
 50
270.0
 51
90.0
  0
ARC
  5
5B9B
  8
0
  6
BYBLOCK
 62
     0
 10
15984.84757699998
 20
9244.0090860000037
 30
0.0
 40
15.0
 50
270.0
 51
90.0
  0
ARC
  5
5B9C
  8
0
  6
BYBLOCK
 62
     0
 10
15984.84757699998
 20
9244.0090860000037
 30
0.0
 40
15.0
 50
90.0
 51
270.0
  0
ARC
  5
5B9D
  8
0
  6
BYBLOCK
 62
     0
 10
9324.3491610000037
 20
10043.510762
 30
0.0
 40
15.0
 50
180.0
 51
0.0
  0
ARC
  5
5B9E
  8
0
  6
BYBLOCK
 62
     0
 10
9324.3491610000037
 20
10043.510762
 30
0.0
 40
15.0
 50
0.0
 51
180.0
  0
ARC
  5
5B9F
  8
0
  6
BYBLOCK
 62
     0
 10
9144.3491610000037
 20
10043.510762
 30
0.0
 40
15.0
 50
0.0
 51
180.0
  0
ARC
  5
5BA0
  8
0
  6
BYBLOCK
 62
     0
 10
9144.3491610000037
 20
10043.510762
 30
0.0
 40
15.0
 50
180.0
 51
0.0
  0
ARC
  5
5BA1
  8
0
  6
BYBLOCK
 62
     0
 10
19977.10528299999
 20
5195.5094159999999
 30
0.0
 40
15.0
 50
0.0
 51
180.0
  0
ARC
  5
5BA2
  8
0
  6
BYBLOCK
 62
     0
 10
19977.10528299999
 20
5195.5094159999999
 30
0.0
 40
15.0
 50
180.0
 51
0.0
  0
ARC
  5
5BA3
  8
0
  6
BYBLOCK
 62
     0
 10
25197.10528299999
 20
5195.5094159999999
 30
0.0
 40
15.0
 50
180.0
 51
0.0
  0
ARC
  5
5BA4
  8
0
  6
BYBLOCK
 62
     0
 10
25197.10528299999
 20
5195.5094159999999
 30
0.0
 40
15.0
 50
0.0
 51
180.0
  0
ARC
  5
5BA5
  8
0
  6
BYBLOCK
 62
     0
 10
20019.60528299999
 20
5595.5092510000022
 30
0.0
 40
15.0
 50
0.0
 51
180.0
  0
ARC
  5
5BA6
  8
0
  6
BYBLOCK
 62
     0
 10
20019.60528299999
 20
5595.5092510000022
 30
0.0
 40
15.0
 50
180.0
 51
0.0
  0
ARC
  5
5BA7
  8
0
  6
BYBLOCK
 62
     0
 10
19977.10528299999
 20
5595.5092510000022
 30
0.0
 40
15.0
 50
180.0
 51
0.0
  0
ARC
  5
5BA8
  8
0
  6
BYBLOCK
 62
     0
 10
19977.10528299999
 20
5595.5092510000022
 30
0.0
 40
15.0
 50
0.0
 51
180.0
  0
ARC
  5
5BA9
  8
0
  6
BYBLOCK
 62
     0
 10
25154.609241999999
 20
5595.5092510000022
 30
0.0
 40
15.0
 50
180.0
 51
0.0
  0
ARC
  5
5BAA
  8
0
  6
BYBLOCK
 62
     0
 10
25154.609241999999
 20
5595.5092510000022
 30
0.0
 40
15.0
 50
0.0
 51
180.0
  0
ARC
  5
5BAB
  8
0
  6
BYBLOCK
 62
     0
 10
25197.109241999991
 20
5595.5092510000022
 30
0.0
 40
15.0
 50
0.0
 51
180.0
  0
ARC
  5
5BAC
  8
0
  6
BYBLOCK
 62
     0
 10
25197.109241999991
 20
5595.5092510000022
 30
0.0
 40
15.0
 50
180.0
 51
0.0
  0
ARC
  5
5BAD
  8
0
  6
BYBLOCK
 62
     0
 10
20019.60528299999
 20
5595.5092510000022
 30
0.0
 40
15.0
 50
0.0
 51
180.0
  0
ARC
  5
5BAE
  8
0
  6
BYBLOCK
 62
     0
 10
20019.60528299999
 20
5595.5092510000022
 30
0.0
 40
15.0
 50
180.0
 51
0.0
  0
ARC
  5
5BAF
  8
0
  6
BYBLOCK
 62
     0
 10
23288.10528299999
 20
5595.5092510000022
 30
0.0
 40
15.0
 50
180.0
 51
0.0
  0
ARC
  5
5BB0
  8
0
  6
BYBLOCK
 62
     0
 10
23288.10528299999
 20
5595.5092510000022
 30
0.0
 40
15.0
 50
0.0
 51
180.0
  0
ARC
  5
5BB1
  8
0
  6
BYBLOCK
 62
     0
 10
23288.10528299999
 20
5595.5092510000022
 30
0.0
 40
15.0
 50
0.0
 51
180.0
  0
ARC
  5
5BB2
  8
0
  6
BYBLOCK
 62
     0
 10
23288.10528299999
 20
5595.5092510000022
 30
0.0
 40
15.0
 50
180.0
 51
0.0
  0
ARC
  5
5BB3
  8
0
  6
BYBLOCK
 62
     0
 10
25154.605282999979
 20
5595.5092510000022
 30
0.0
 40
15.0
 50
180.0
 51
0.0
  0
ARC
  5
5BB4
  8
0
  6
BYBLOCK
 62
     0
 10
25154.605282999979
 20
5595.5092510000022
 30
0.0
 40
15.0
 50
0.0
 51
180.0
  0
ARC
  5
5BB5
  8
0
  6
BYBLOCK
 62
     0
 10
23382.105282999979
 20
5995.5092510000022
 30
0.0
 40
15.0
 50
0.0
 51
180.0
  0
ARC
  5
5BB6
  8
0
  6
BYBLOCK
 62
     0
 10
23382.105282999979
 20
5995.5092510000022
 30
0.0
 40
15.0
 50
180.0
 51
0.0
  0
ARC
  5
5BB7
  8
0
  6
BYBLOCK
 62
     0
 10
25060.60528299999
 20
5995.5092510000022
 30
0.0
 40
15.0
 50
180.0
 51
0.0
  0
ARC
  5
5BB8
  8
0
  6
BYBLOCK
 62
     0
 10
25060.60528299999
 20
5995.5092510000022
 30
0.0
 40
15.0
 50
0.0
 51
180.0
  0
ARC
  5
5BB9
  8
0
  6
BYBLOCK
 62
     0
 10
20113.60528299999
 20
5995.5092510000022
 30
0.0
 40
15.0
 50
0.0
 51
180.0
  0
ARC
  5
5BBA
  8
0
  6
BYBLOCK
 62
     0
 10
20113.60528299999
 20
5995.5092510000022
 30
0.0
 40
15.0
 50
180.0
 51
0.0
  0
ARC
  5
5BBB
  8
0
  6
BYBLOCK
 62
     0
 10
23194.10528299999
 20
5995.5092510000022
 30
0.0
 40
15.0
 50
180.0
 51
0.0
  0
ARC
  5
5BBC
  8
0
  6
BYBLOCK
 62
     0
 10
23194.10528299999
 20
5995.5092510000022
 30
0.0
 40
15.0
 50
0.0
 51
180.0
  0
ARC
  5
5BCD
  8
0
  6
BYBLOCK
 62
     0
 10
18769.603633999981
 20
6895.5090859999973
 30
0.0
 40
15.0
 50
90.0
 51
270.0
  0
ARC
  5
5BCE
  8
0
  6
BYBLOCK
 62
     0
 10
18769.603633999981
 20
6895.5090859999973
 30
0.0
 40
15.0
 50
270.0
 51
90.0
  0
ARC
  5
5BCF
  8
0
  6
BYBLOCK
 62
     0
 10
18769.603633999981
 20
9244.0090860000037
 30
0.0
 40
15.0
 50
270.0
 51
90.0
  0
ARC
  5
5BD0
  8
0
  6
BYBLOCK
 62
     0
 10
18769.603633999981
 20
9244.0090860000037
 30
0.0
 40
15.0
 50
90.0
 51
270.0
  0
ARC
  5
5BD1
  8
0
  6
BYBLOCK
 62
     0
 10
19169.60594299998
 20
6895.5090859999973
 30
0.0
 40
15.0
 50
90.0
 51
270.0
  0
ARC
  5
5BD2
  8
0
  6
BYBLOCK
 62
     0
 10
19169.60594299998
 20
6895.5090859999973
 30
0.0
 40
15.0
 50
270.0
 51
90.0
  0
ARC
  5
5BD3
  8
0
  6
BYBLOCK
 62
     0
 10
19169.60594299998
 20
8787.0090859999982
 30
0.0
 40
15.0
 50
270.0
 51
90.0
  0
ARC
  5
5BD4
  8
0
  6
BYBLOCK
 62
     0
 10
19169.60594299998
 20
8787.0090859999982
 30
0.0
 40
15.0
 50
90.0
 51
270.0
  0
LINE
  5
5CFC
  8
0-1
  6
CONTINUOUS
 62
     3
 10
25091.10826499997
 20
8994.0091059999977
 30
0.0
 11
25091.10826499997
 21
9026.0090130000008
 31
0.0
  0
LINE
  5
5CFD
  8
0-1
  6
CONTINUOUS
 62
     3
 10
25240.107657999972
 20
8917.8223839999991
 30
0.0
 11
25197.105546999999
 21
8917.8223839999991
 31
0.0
  0
LINE
  5
5CFE
  8
0-1
  6
CONTINUOUS
 62
     3
 10
25240.107657999972
 20
9244.0094349999981
 30
0.0
 11
25240.107657999972
 21
8917.8223839999991
 31
0.0
  0
LINE
  5
5CFF
  8
0-1
  6
CONTINUOUS
 62
     3
 10
24805.14107199998
 20
8990.473684999999
 30
0.0
 11
24773.14215500002
 21
9022.473592999997
 31
0.0
  0
LINE
  5
5D00
  8
0-1
  6
CONTINUOUS
 62
     3
 10
25086.10800099999
 20
9031.0092769999956
 30
0.0
 11
24776.677575000009
 21
9031.0092769999956
 31
0.0
  0
LINE
  5
5D01
  8
0-1
  6
CONTINUOUS
 62
     3
 10
25091.10826499997
 20
9022.6101800000033
 30
0.0
 11
24773.01150600001
 21
9022.6101800000033
 31
0.0
  0
LINE
  5
5D02
  8
0-1
  6
CONTINUOUS
 62
     3
 10
25086.10800099999
 20
8989.0088419999956
 30
0.0
 11
24808.678472
 21
8989.0088419999956
 31
0.0
  0
LINE
  5
5D03
  8
0-1
  6
CONTINUOUS
 62
     3
 10
25091.10826499997
 20
8997.4089289999974
 30
0.0
 11
24798.20681900001
 21
8997.4089289999974
 31
0.0
  0
LINE
  5
5D04
  8
0-1
  6
CONTINUOUS
 62
     3
 10
25091.10826499997
 20
9005.8090159999902
 30
0.0
 11
24789.807720999979
 21
9005.8090159999902
 31
0.0
  0
LINE
  5
5D05
  8
0-1
  6
CONTINUOUS
 62
     3
 10
25091.10826499997
 20
9014.2100929999997
 30
0.0
 11
24781.406644999999
 21
9014.2100929999997
 31
0.0
  0
LINE
  5
5D06
  8
0-1
  6
CONTINUOUS
 62
     3
 10
23637.571473000022
 20
8990.473684999999
 30
0.0
 11
23669.568411000011
 21
9022.473592999997
 31
0.0
  0
LINE
  5
5D07
  8
0-1
  6
CONTINUOUS
 62
     3
 10
23351.606259000029
 20
8994.0091059999977
 30
0.0
 11
23351.606259000029
 21
9026.0090130000008
 31
0.0
  0
LINE
  5
5D08
  8
0-1
  6
CONTINUOUS
 62
     3
 10
23351.606259000029
 20
8997.4089289999974
 30
0.0
 11
23644.503746999999
 21
8997.4089289999974
 31
0.0
  0
LINE
  5
5D09
  8
0-1
  6
CONTINUOUS
 62
     3
 10
23351.606259000029
 20
9005.8090159999902
 30
0.0
 11
23652.904824000019
 21
9005.8090159999902
 31
0.0
  0
LINE
  5
5D0A
  8
0-1
  6
CONTINUOUS
 62
     3
 10
23356.60652300002
 20
8989.0088419999956
 30
0.0
 11
23634.034073000021
 21
8989.0088419999956
 31
0.0
  0
LINE
  5
5D0B
  8
0-1
  6
CONTINUOUS
 62
     3
 10
23351.606259000029
 20
9014.2100929999997
 30
0.0
 11
23661.303920999999
 21
9014.2100929999997
 31
0.0
  0
LINE
  5
5D0C
  8
0-1
  6
CONTINUOUS
 62
     3
 10
23351.606259000029
 20
9022.6101800000033
 30
0.0
 11
23669.701039000029
 21
9022.6101800000033
 31
0.0
  0
LINE
  5
5D0D
  8
0-1
  6
CONTINUOUS
 62
     3
 10
23356.60652300002
 20
9031.0092769999956
 30
0.0
 11
23666.034970000019
 21
9031.0092769999956
 31
0.0
  0
LINE
  5
5D0E
  8
0-1
  6
CONTINUOUS
 62
     3
 10
25240.107657999972
 20
9114.0085120000003
 30
0.0
 11
23288.105283000012
 21
9114.0085120000003
 31
0.0
  0
LINE
  5
5D0F
  8
0-1
  6
CONTINUOUS
 62
     3
 10
23330.603567000009
 20
9040.0091580000008
 30
0.0
 11
25112.106997999981
 21
9040.0091580000008
 31
0.0
  0
LINE
  5
5D10
  8
0-1
  6
CONTINUOUS
 62
     3
 10
23330.603567000009
 20
8980.008960000001
 30
0.0
 11
25112.106997999981
 21
8980.008960000001
 31
0.0
  0
LINE
  5
5D11
  8
0-1
  6
CONTINUOUS
 62
     3
 10
23288.105283000012
 20
9244.0094349999981
 30
0.0
 11
25240.107657999972
 21
9244.0094349999981
 31
0.0
  0
LINE
  5
5D12
  8
0-1
  6
CONTINUOUS
 62
     3
 10
23224.604307000001
 20
8994.0091059999977
 30
0.0
 11
23224.604307000001
 21
9026.0090130000008
 31
0.0
  0
LINE
  5
5D13
  8
0-1
  6
CONTINUOUS
 62
     3
 10
22938.643051999999
 20
8990.473684999999
 30
0.0
 11
22906.642155000009
 21
9022.473592999997
 31
0.0
  0
LINE
  5
5D14
  8
0-1
  6
CONTINUOUS
 62
     3
 10
23224.604307000001
 20
9022.6101800000033
 30
0.0
 11
22906.511506999981
 21
9022.6101800000033
 31
0.0
  0
LINE
  5
5D15
  8
0-1
  6
CONTINUOUS
 62
     3
 10
23224.604307000001
 20
9014.2100929999997
 30
0.0
 11
22914.906644999999
 21
9014.2100929999997
 31
0.0
  0
LINE
  5
5D16
  8
0-1
  6
CONTINUOUS
 62
     3
 10
23224.604307000001
 20
9005.8090159999902
 30
0.0
 11
22923.305742
 21
9005.8090159999902
 31
0.0
  0
LINE
  5
5D17
  8
0-1
  6
CONTINUOUS
 62
     3
 10
23224.604307000001
 20
8997.4089289999974
 30
0.0
 11
22931.704839999991
 21
8997.4089289999974
 31
0.0
  0
LINE
  5
5D18
  8
0-1
  6
CONTINUOUS
 62
     3
 10
23219.606021999982
 20
9031.0092769999956
 30
0.0
 11
22910.175595999968
 21
9031.0092769999956
 31
0.0
  0
LINE
  5
5D19
  8
0-1
  6
CONTINUOUS
 62
     3
 10
23219.606021999982
 20
8989.0088419999956
 30
0.0
 11
22942.178473
 21
8989.0088419999956
 31
0.0
  0
LINE
  5
5D1A
  8
0-1
  6
CONTINUOUS
 62
     3
 10
20088.104544000002
 20
8989.0088419999956
 30
0.0
 11
20365.534073999981
 21
8989.0088419999956
 31
0.0
  0
LINE
  5
5D1B
  8
0-1
  6
CONTINUOUS
 62
     3
 10
20083.106259999971
 20
8994.0091059999977
 30
0.0
 11
20083.106259999971
 21
9026.0090130000008
 31
0.0
  0
LINE
  5
5D1C
  8
0-1
  6
CONTINUOUS
 62
     3
 10
19934.104888000002
 20
8917.8223839999991
 30
0.0
 11
19977.103040000009
 21
8917.8223839999991
 31
0.0
  0
LINE
  5
5D1D
  8
0-1
  6
CONTINUOUS
 62
     3
 10
19934.104888000002
 20
8917.8223839999991
 30
0.0
 11
19934.104888000002
 21
9244.0094349999981
 31
0.0
  0
LINE
  5
5D1E
  8
0-1
  6
CONTINUOUS
 62
     3
 10
20088.104544000002
 20
9031.0092769999956
 30
0.0
 11
20397.534971000008
 21
9031.0092769999956
 31
0.0
  0
LINE
  5
5D1F
  8
0-1
  6
CONTINUOUS
 62
     3
 10
20369.067513999998
 20
8990.473684999999
 30
0.0
 11
20401.068411999971
 21
9022.473592999997
 31
0.0
  0
LINE
  5
5D20
  8
0-1
  6
CONTINUOUS
 62
     3
 10
20083.106259999971
 20
9022.6101800000033
 30
0.0
 11
20401.201039
 21
9022.6101800000033
 31
0.0
  0
LINE
  5
5D21
  8
0-1
  6
CONTINUOUS
 62
     3
 10
20083.106259999971
 20
9014.2100929999997
 30
0.0
 11
20392.80392200001
 21
9014.2100929999997
 31
0.0
  0
LINE
  5
5D22
  8
0-1
  6
CONTINUOUS
 62
     3
 10
20083.106259999971
 20
9005.8090159999902
 30
0.0
 11
20384.40482399999
 21
9005.8090159999902
 31
0.0
  0
LINE
  5
5D23
  8
0-1
  6
CONTINUOUS
 62
     3
 10
20083.106259999971
 20
8997.4089289999974
 30
0.0
 11
20376.005727000011
 21
8997.4089289999974
 31
0.0
  0
LINE
  5
5D24
  8
0-1
  6
CONTINUOUS
 62
     3
 10
20062.10356800001
 20
8980.008960000001
 30
0.0
 11
23245.60501900001
 21
8980.008960000001
 31
0.0
  0
LINE
  5
5D25
  8
0-1
  6
CONTINUOUS
 62
     3
 10
20062.10356800001
 20
9040.0091580000008
 30
0.0
 11
23245.60501900001
 21
9040.0091580000008
 31
0.0
  0
LINE
  5
5D26
  8
0-1
  6
CONTINUOUS
 62
     3
 10
19934.104888000002
 20
9244.0094349999981
 30
0.0
 11
23288.105283000012
 21
9244.0094349999981
 31
0.0
  0
LINE
  5
5D27
  8
0-1
  6
CONTINUOUS
 62
     3
 10
23288.105283000012
 20
9114.0085120000003
 30
0.0
 11
19934.104888000002
 21
9114.0085120000003
 31
0.0
  0
LINE
  5
5D28
  8
0-1
  6
CONTINUOUS
 62
     3
 10
23288.105283000012
 20
9114.0085120000003
 30
0.0
 11
23288.105283000012
 21
9244.0094349999981
 31
0.0
  0
LINE
  5
5D29
  8
0-1
  6
CONTINUOUS
 62
     3
 10
23288.105283000012
 20
9114.0085120000003
 30
0.0
 11
23288.105283000012
 21
9244.0094349999981
 31
0.0
  0
ARC
  5
5D2A
  8
0-1
  6
CONTINUOUS
 62
     3
 10
25086.10800099999
 20
9026.0090130000008
 30
0.0
 40
5.0
 50
0.0
 51
90.0
  0
ARC
  5
5D2B
  8
0-1
  6
CONTINUOUS
 62
     3
 10
25086.10800099999
 20
8994.0091059999977
 30
0.0
 40
5.0
 50
269.9999850001808
 51
0.0
  0
ARC
  5
5D2C
  8
0-1
  6
CONTINUOUS
 62
     3
 10
24776.677575000009
 20
9026.0090130000008
 30
0.0
 40
5.0
 50
90.0
 51
224.99998499997989
  0
ARC
  5
5D2D
  8
0-1
  6
CONTINUOUS
 62
     3
 10
24808.678472
 20
8994.0091059999977
 30
0.0
 40
5.0
 50
224.99998499997989
 51
269.9999850001808
  0
ARC
  5
5D2E
  8
0-1
  6
CONTINUOUS
 62
     3
 10
23666.034970000019
 20
9026.0090130000008
 30
0.0
 40
5.0
 50
314.99998500027471
 51
90.0
  0
ARC
  5
5D2F
  8
0-1
  6
CONTINUOUS
 62
     3
 10
23634.034073000021
 20
8994.0091059999977
 30
0.0
 40
5.0
 50
269.9999850001808
 51
314.99998500027471
  0
ARC
  5
5D30
  8
0-1
  6
CONTINUOUS
 62
     3
 10
23356.60652300002
 20
8994.0091059999977
 30
0.0
 40
5.0
 50
180.0
 51
269.9999850001808
  0
ARC
  5
5D31
  8
0-1
  6
CONTINUOUS
 62
     3
 10
23356.60652300002
 20
9026.0090130000008
 30
0.0
 40
5.0
 50
90.0
 51
180.0
  0
ARC
  5
5D32
  8
0-1
  6
CONTINUOUS
 62
     3
 10
23219.606021999982
 20
8994.0091059999977
 30
0.0
 40
5.0
 50
269.9999850001808
 51
0.0
  0
ARC
  5
5D33
  8
0-1
  6
CONTINUOUS
 62
     3
 10
23219.606021999982
 20
9026.0090130000008
 30
0.0
 40
5.0
 50
0.0
 51
90.0
  0
ARC
  5
5D34
  8
0-1
  6
CONTINUOUS
 62
     3
 10
22910.175595999968
 20
9026.0090130000008
 30
0.0
 40
5.0
 50
90.0
 51
224.99998499997989
  0
ARC
  5
5D35
  8
0-1
  6
CONTINUOUS
 62
     3
 10
22942.178473
 20
8994.0091059999977
 30
0.0
 40
5.0
 50
224.99998499997989
 51
269.9999850001808
  0
ARC
  5
5D36
  8
0-1
  6
CONTINUOUS
 62
     3
 10
20397.534971000008
 20
9026.0090130000008
 30
0.0
 40
5.0
 50
314.99998500027471
 51
90.0
  0
ARC
  5
5D37
  8
0-1
  6
CONTINUOUS
 62
     3
 10
20088.104544000002
 20
9026.0090130000008
 30
0.0
 40
5.0
 50
90.0
 51
180.0
  0
ARC
  5
5D38
  8
0-1
  6
CONTINUOUS
 62
     3
 10
20088.104544000002
 20
8994.0091059999977
 30
0.0
 40
5.0
 50
180.0
 51
269.9999850001808
  0
ARC
  5
5D39
  8
0-1
  6
CONTINUOUS
 62
     3
 10
20365.534073999981
 20
8994.0091059999977
 30
0.0
 40
5.0
 50
269.9999850001808
 51
314.99998500027471
  0
LINE
  5
5D3A
  8
SUNPOU
  6
CONTINUOUS
 62
     4
 10
19934.102907999972
 20
9324.0094349999981
 30
0.0
 11
19934.102907999972
 21
10523.46704699998
 31
0.0
  0
LINE
  5
5D3B
  8
SUNPOU
  6
CONTINUOUS
 62
     4
 10
25240.107657999972
 20
9324.0094349999981
 30
0.0
 11
25240.107657999972
 21
10523.46704699998
 31
0.0
  0
LINE
  5
5D3C
  8
SUNPOU
  6
CONTINUOUS
 62
     4
 10
19937.102907999972
 20
10443.467046999989
 30
0.0
 11
25237.107657999972
 21
10443.467046999989
 31
0.0
  0
LINE
  5
5D3D
  8
SUNPOU
  6
CONTINUOUS
 62
     4
 10
19977.10501900001
 20
9324.0094349999981
 30
0.0
 11
19977.10501900001
 21
10123.509276999999
 31
0.0
  0
LINE
  5
5D3E
  8
SUNPOU
  6
CONTINUOUS
 62
     4
 10
25197.105546999999
 20
9324.0094349999981
 30
0.0
 11
25197.105546999999
 21
10123.509276999999
 31
0.0
  0
LINE
  5
5D3F
  8
SUNPOU
  6
CONTINUOUS
 62
     4
 10
19977.10501900001
 20
10043.509276999999
 30
0.0
 11
25197.105546999999
 21
10043.509276999999
 31
0.0
  0
LINE
  5
5D40
  8
SUNPOU
  6
CONTINUOUS
 62
     4
 10
19977.10501900001
 20
9324.0094349999981
 30
0.0
 11
19977.10501900001
 21
10123.509276999999
 31
0.0
  0
LINE
  5
5D41
  8
SUNPOU
  6
CONTINUOUS
 62
     4
 10
19934.102907999972
 20
9324.0094349999981
 30
0.0
 11
19934.102907999972
 21
10123.509276999999
 31
0.0
  0
LINE
  5
5D42
  8
SUNPOU
  6
CONTINUOUS
 62
     4
 10
19977.10501900001
 20
10043.509276999999
 30
0.0
 11
20217.10501900001
 21
10043.509276999999
 31
0.0
  0
LINE
  5
5D43
  8
SUNPOU
  6
CONTINUOUS
 62
     4
 10
19937.102907999972
 20
10043.509276999999
 30
0.0
 11
19697.10290799995
 21
10043.509276999999
 31
0.0
  0
LINE
  5
5D44
  8
SUNPOU
  6
CONTINUOUS
 62
     4
 10
19977.10501900001
 20
10043.509276999999
 30
0.0
 11
19937.102907999972
 21
10043.509276999999
 31
0.0
  0
LINE
  5
5D45
  8
SUNPOU
  6
CONTINUOUS
 62
     4
 10
25197.105546999999
 20
9324.0094349999981
 30
0.0
 11
25197.105546999999
 21
10123.509276999999
 31
0.0
  0
LINE
  5
5D46
  8
SUNPOU
  6
CONTINUOUS
 62
     4
 10
25240.107657999972
 20
9324.0094349999981
 30
0.0
 11
25240.107657999972
 21
10123.509276999999
 31
0.0
  0
LINE
  5
5D47
  8
SUNPOU
  6
CONTINUOUS
 62
     4
 10
25197.105546999999
 20
10043.509276999999
 30
0.0
 11
24957.105546999999
 21
10043.509276999999
 31
0.0
  0
LINE
  5
5D48
  8
SUNPOU
  6
CONTINUOUS
 62
     4
 10
25237.107657999972
 20
10043.509276999999
 30
0.0
 11
25477.107657999972
 21
10043.509276999999
 31
0.0
  0
LINE
  5
5D49
  8
SUNPOU
  6
CONTINUOUS
 62
     4
 10
25197.105546999999
 20
10043.509276999999
 30
0.0
 11
25237.107657999972
 21
10043.509276999999
 31
0.0
  0
TEXT
  5
5D4A
  8
0
  6
CONTINUOUS
 62
     7
 10
25357.107657999972
 20
10123.509276999999
 30
0.0
 40
160.0
  1
43
  0
TEXT
  5
5D4B
  8
0
  6
CONTINUOUS
 62
     7
 10
19577.102907999979
 20
10123.509276999999
 30
0.0
 40
160.0
  1
43
  0
TEXT
  5
5D4C
  8
0
  6
CONTINUOUS
 62
     7
 10
22307.105283000019
 20
10123.509276999999
 30
0.0
 40
160.0
  1
5220
  0
TEXT
  5
5D4D
  8
0
  6
CONTINUOUS
 62
     7
 10
22320.438616333329
 20
10523.46704699998
 30
0.0
 40
160.0
  1
5306
  0
ARC
  5
5D4E
  8
0
  6
BYBLOCK
 62
     0
 10
19934.102907999972
 20
10443.467046999989
 30
0.0
 40
15.0
 50
0.0
 51
180.0
  0
ARC
  5
5D4F
  8
0
  6
BYBLOCK
 62
     0
 10
19934.102907999972
 20
10443.467046999989
 30
0.0
 40
15.0
 50
180.0
 51
0.0
  0
ARC
  5
5D50
  8
0
  6
BYBLOCK
 62
     0
 10
25240.107657999972
 20
10443.467046999989
 30
0.0
 40
15.0
 50
180.0
 51
0.0
  0
ARC
  5
5D51
  8
0
  6
BYBLOCK
 62
     0
 10
25240.107657999972
 20
10443.467046999989
 30
0.0
 40
15.0
 50
0.0
 51
180.0
  0
ARC
  5
5D52
  8
0
  6
BYBLOCK
 62
     0
 10
19977.10501900001
 20
10043.509276999999
 30
0.0
 40
15.0
 50
0.0
 51
180.0
  0
ARC
  5
5D53
  8
0
  6
BYBLOCK
 62
     0
 10
19977.10501900001
 20
10043.509276999999
 30
0.0
 40
15.0
 50
180.0
 51
0.0
  0
ARC
  5
5D54
  8
0
  6
BYBLOCK
 62
     0
 10
25197.105546999999
 20
10043.509276999999
 30
0.0
 40
15.0
 50
180.0
 51
0.0
  0
ARC
  5
5D55
  8
0
  6
BYBLOCK
 62
     0
 10
25197.105546999999
 20
10043.509276999999
 30
0.0
 40
15.0
 50
0.0
 51
180.0
  0
ARC
  5
5D56
  8
0
  6
BYBLOCK
 62
     0
 10
19977.10501900001
 20
10043.509276999999
 30
0.0
 40
15.0
 50
0.0
 51
180.0
  0
ARC
  5
5D57
  8
0
  6
BYBLOCK
 62
     0
 10
19977.10501900001
 20
10043.509276999999
 30
0.0
 40
15.0
 50
180.0
 51
0.0
  0
ARC
  5
5D58
  8
0
  6
BYBLOCK
 62
     0
 10
19934.102907999972
 20
10043.509276999999
 30
0.0
 40
15.0
 50
180.0
 51
0.0
  0
ARC
  5
5D59
  8
0
  6
BYBLOCK
 62
     0
 10
19934.102907999972
 20
10043.509276999999
 30
0.0
 40
15.0
 50
0.0
 51
180.0
  0
ARC
  5
5D5A
  8
0
  6
BYBLOCK
 62
     0
 10
25197.105546999999
 20
10043.509276999999
 30
0.0
 40
15.0
 50
180.0
 51
0.0
  0
ARC
  5
5D5B
  8
0
  6
BYBLOCK
 62
     0
 10
25197.105546999999
 20
10043.509276999999
 30
0.0
 40
15.0
 50
0.0
 51
180.0
  0
ARC
  5
5D5C
  8
0
  6
BYBLOCK
 62
     0
 10
25240.107657999972
 20
10043.509276999999
 30
0.0
 40
15.0
 50
0.0
 51
180.0
  0
ARC
  5
5D5D
  8
0
  6
BYBLOCK
 62
     0
 10
25240.107657999972
 20
10043.509276999999
 30
0.0
 40
15.0
 50
180.0
 51
0.0
  0
LINE
  5
5D6B
  8
SUNPOU
  6
CONTINUOUS
 62
     4
 10
9181.0187975852587
 20
13977.32565699999
 30
0.0
 11
9181.0187975852587
 21
12798.37882599998
 31
0.0
  0
LINE
  5
5D6C
  8
SUNPOU
  6
CONTINUOUS
 62
     4
 10
14487.018599585261
 20
13977.32565699999
 30
0.0
 11
14487.018599585261
 21
12798.37882599998
 31
0.0
  0
LINE
  5
5D6D
  8
SUNPOU
  6
CONTINUOUS
 62
     4
 10
9181.0187975852587
 20
12878.37882599998
 30
0.0
 11
14487.018599585261
 21
12878.37882599998
 31
0.0
  0
TEXT
  5
5D6E
  8
0
  6
CONTINUOUS
 62
     7
 10
11044.685365251909
 20
12958.37882599998
 30
0.0
 40
160.0
  1
ケラバ外寸 5306
  0
ARC
  5
5D6F
  8
0
  6
BYBLOCK
 62
     0
 10
9181.0187975852587
 20
12878.37882599998
 30
0.0
 40
15.0
 50
0.0
 51
180.0
  0
ARC
  5
5D70
  8
0
  6
BYBLOCK
 62
     0
 10
9181.0187975852587
 20
12878.37882599998
 30
0.0
 40
15.0
 50
180.0
 51
0.0
  0
ARC
  5
5D71
  8
0
  6
BYBLOCK
 62
     0
 10
14487.018599585261
 20
12878.37882599998
 30
0.0
 40
15.0
 50
180.0
 51
0.0
  0
ARC
  5
5D72
  8
0
  6
BYBLOCK
 62
     0
 10
14487.018599585261
 20
12878.37882599998
 30
0.0
 40
15.0
 50
0.0
 51
180.0
  0
TEXT
  5
5DCA
  8
NAME
 10
25530.092913773489
 20
1076.0
 30
0.0
 40
360.0
  1
型（単棟）
 41
0.6
  7
01
  0
TEXT
  5
5DCB
  8
NAME
 10
21583.547829600899
 20
1076.6369801169251
 30
0.0
 40
360.0
  1
VGCU-3355（H）+1955（H）
 41
0.5200000000000001
  0
TEXT
  5
5DCD
  8
NAME
 10
21933.552716389011
 20
1876.0
 30
0.0
 40
360.0
  1
ヨドガレージ ラヴィージュ
 41
0.75
  7
01
  0
LINE
  5
5DCE
  8
NAME
  6
CONTINUOUS
 10
26067.886878884299
 20
2236.0
 30
0.0
 11
26067.886878884299
 21
1876.0
 31
0.0
  0
LINE
  5
5DCF
  8
NAME
  6
CONTINUOUS
 10
26167.886878884299
 20
2236.0
 30
0.0
 11
26167.886878884299
 21
1876.0
 31
0.0
  0
LINE
  5
5DD0
  8
NAME
  6
CONTINUOUS
 10
26267.88687888431
 20
2236.0
 30
0.0
 11
26267.88687888431
 21
1876.0
 31
0.0
  0
LINE
  5
5DD1
  8
NAME
  6
CONTINUOUS
 10
26007.886878884299
 20
2236.0
 30
0.0
 11
26327.886878884299
 21
2236.0
 31
0.0
  0
LINE
  5
5DD2
  8
NAME
  6
CONTINUOUS
 10
26327.886878884299
 20
1876.0
 30
0.0
 11
26007.886878884299
 21
1876.0
 31
0.0
  0
TEXT
  5
5E6C
  8
FILENAME
  6
CONTINUOUS
 10
27537.333333333339
 20
348.0
 30
0.0
 40
200.0
  1
＜VGCU-3355+1955-1-A_0.DXF ＞
  7
FILENAME
 72
     2
 11
32764.0
 21
348.0
 31
0.0
  0
LINE
  5
5E71
  8
WAKUSEN-01
 10
868.00000000000193
 20
827.99999999999955
 30
0.0
 11
32764.000000000011
 21
827.99999999999943
 31
0.0
  0
LINE
  5
5E72
  8
WAKUSEN-01
 10
868.00000000000193
 20
827.99999999999955
 30
0.0
 11
868.00000000000193
 21
22484.000000000011
 31
0.0
  0
LINE
  5
5E73
  8
WAKUSEN-01
 10
32764.000000000011
 20
827.99999999999943
 30
0.0
 11
32764.000000000011
 21
22484.000000000011
 31
0.0
  0
LINE
  5
5E74
  8
WAKUSEN-01
 10
20560.0
 20
827.99999999999716
 30
0.0
 11
20560.0
 21
2484.0
 31
0.0
  0
LINE
  5
5E75
  8
WAKUSEN-02
 10
26868.0
 20
827.99999999999261
 30
0.0
 11
26868.0
 21
2484.0
 31
0.0
  0
ENDSEC
  0
EOF
