  0
SECTION
  2
HEADER
  9
$ACADVER
  1
AC1009
  9
$INSBASE
 10
0.0
 20
0.0
 30
0.0
  9
$EXTMIN
 10
867.99324330406671
 20
327.38164749855792
 30
-0.0000000000000053
  9
$EXTMAX
 10
32765.33210850941
 20
22484.553276491992
 30
0.0000000000000099
  9
$LIMMIN
 10
0.0
 20
0.0
  9
$LIMMAX
 10
33600.0
 20
23760.0
  9
$ORTHOMODE
 70
     1
  9
$REGENMODE
 70
     1
  9
$FILLMODE
 70
     1
  9
$QTEXTMODE
 70
     0
  9
$MIRRTEXT
 70
     1
  9
$DRAGMODE
 70
     2
  9
$LTSCALE
 40
80.0
  9
$OSMODE
 70
  3071
  9
$ATTMODE
 70
     1
  9
$TEXTSIZE
 40
0.2
  9
$TRACEWID
 40
0.05
  9
$TEXTSTYLE
  7
00
  9
$CLAYER
  8
0
  9
$CELTYPE
  6
BYLAYER
  9
$CECOLOR
 62
   256
  9
$DIMSCALE
 40
80.0
  9
$DIMASZ
 40
3.0
  9
$DIMEXO
 40
1.0
  9
$DIMDLI
 40
0.38
  9
$DIMRND
 40
0.5
  9
$DIMDLE
 40
0.0
  9
$DIMEXE
 40
1.0
  9
$DIMTP
 40
0.0
  9
$DIMTM
 40
0.0
  9
$DIMTXT
 40
2.0
  9
$DIMCEN
 40
0.09
  9
$DIMTSZ
 40
0.0
  9
$DIMTOL
 70
     0
  9
$DIMLIM
 70
     0
  9
$DIMTIH
 70
     0
  9
$DIMTOH
 70
     0
  9
$DIMSE1
 70
     0
  9
$DIMSE2
 70
     0
  9
$DIMTAD
 70
     1
  9
$DIMZIN
 70
     8
  9
$DIMBLK
  1
DOTSMALL
  9
$DIMASO
 70
     1
  9
$DIMSHO
 70
     1
  9
$DIMPOST
  1

  9
$DIMAPOST
  1

  9
$DIMALT
 70
     0
  9
$DIMALTD
 70
     2
  9
$DIMALTF
 40
25.399999999999999
  9
$DIMLFAC
 40
1.0
  9
$DIMTOFL
 70
     1
  9
$DIMTVP
 40
0.0
  9
$DIMTIX
 70
     0
  9
$DIMSOXD
 70
     0
  9
$DIMSAH
 70
     0
  9
$DIMBLK1
  1

  9
$DIMBLK2
  1

  9
$DIMSTYLE
  2
SUNPOU
  9
$DIMCLRD
 70
     4
  9
$DIMCLRE
 70
     4
  9
$DIMCLRT
 70
     7
  9
$DIMTFAC
 40
1.0
  9
$DIMGAP
 40
1.0
  9
$LUNITS
 70
     2
  9
$LUPREC
 70
     4
  9
$SKETCHINC
 40
0.1
  9
$FILLETRAD
 40
0.0
  9
$AUNITS
 70
     0
  9
$AUPREC
 70
     0
  9
$MENU
  1
acad
  9
$ELEVATION
 40
0.0
  9
$PELEVATION
 40
0.0
  9
$THICKNESS
 40
0.0
  9
$LIMCHECK
 70
     0
  9
$BLIPMODE
 70
     1
  9
$CHAMFERA
 40
0.0
  9
$CHAMFERB
 40
0.0
  9
$SKPOLY
 70
     0
  9
$TDCREATE
 40
2311940.0750528472
  9
$TDUPDATE
 40
2458942.44141581
  9
$TDINDWG
 40
0.0380490625
  9
$TDUSRTIMER
 40
0.0380481366
  9
$USRTIMER
 70
     1
  9
$ANGBASE
 50
0.0
  9
$ANGDIR
 70
     0
  9
$PDMODE
 70
     0
  9
$PDSIZE
 40
0.0
  9
$PLINEWID
 40
0.0
  9
$COORDS
 70
     1
  9
$SPLFRAME
 70
     0
  9
$SPLINETYPE
 70
     6
  9
$SPLINESEGS
 70
     8
  9
$ATTDIA
 70
     1
  9
$ATTREQ
 70
     1
  9
$HANDLING
 70
     1
  9
$HANDSEED
  5
49DF
  9
$SURFTAB1
 70
     6
  9
$SURFTAB2
 70
     6
  9
$SURFTYPE
 70
     6
  9
$SURFU
 70
     6
  9
$SURFV
 70
     6
  9
$UCSNAME
  2

  9
$UCSORG
 10
0.0
 20
0.0
 30
0.0
  9
$UCSXDIR
 10
1.0
 20
0.0
 30
0.0
  9
$UCSYDIR
 10
0.0
 20
1.0
 30
0.0
  9
$PUCSNAME
  2

  9
$PUCSORG
 10
0.0
 20
0.0
 30
0.0
  9
$PUCSXDIR
 10
1.0
 20
0.0
 30
0.0
  9
$PUCSYDIR
 10
0.0
 20
1.0
 30
0.0
  9
$USERI1
 70
     0
  9
$USERI2
 70
     0
  9
$USERI3
 70
     0
  9
$USERI4
 70
     0
  9
$USERI5
 70
     0
  9
$USERR1
 40
0.0
  9
$USERR2
 40
0.0
  9
$USERR3
 40
0.0
  9
$USERR4
 40
0.0
  9
$USERR5
 40
0.0
  9
$WORLDVIEW
 70
     1
  9
$SHADEDGE
 70
     3
  9
$SHADEDIF
 70
    70
  9
$TILEMODE
 70
     1
  9
$MAXACTVP
 70
    16
  9
$PLIMCHECK
 70
     0
  9
$PEXTMIN
 10
1.0000000000000000E+020
 20
1.0000000000000000E+020
 30
1.0000000000000000E+020
  9
$PEXTMAX
 10
-1.0000000000000000E+020
 20
-1.0000000000000000E+020
 30
-1.0000000000000000E+020
  9
$PLIMMIN
 10
0.0
 20
0.0
  9
$PLIMMAX
 10
12.0
 20
9.0
  9
$UNITMODE
 70
     0
  9
$VISRETAIN
 70
     0
  9
$PLINEGEN
 70
     1
  9
$PSLTSCALE
 70
     0
  0
ENDSEC
  0
SECTION
  2
TABLES
  0
TABLE
  2
VPORT
 70
     1
  0
VPORT
  2
*ACTIVE
 70
     0
 10
0.0
 20
0.0
 11
1.0
 21
1.0
 12
16800.0
 22
11880.0
 13
0.0
 23
0.0
 14
1.0
 24
1.0
 15
0.0
 25
0.0
 16
0.0
 26
0.0
 36
1.0
 17
0.0
 27
0.0
 37
0.0
 40
23981.023255813951
 41
2.195652173913043
 42
50.0
 43
0.0
 44
0.0
 50
0.0
 51
0.0
 71
     0
 72
 10000
 73
     1
 74
     1
 75
     0
 76
     0
 77
     0
 78
     0
  0
ENDTAB
  0
TABLE
  2
LTYPE
 70
     3
  0
LTYPE
  2
CONTINUOUS
 70
     0
  3
Solid line
 72
    65
 73
     0
 40
0.0
  0
LTYPE
  2
DASHED3
 70
     0
  3
------  ------  ------  ------  
 72
    65
 73
     2
 40
5.0
 49
3.75
 49
-1.25
  0
LTYPE
  2
CENTER2
 70
     0
  3
----------  --  ----------  --  
 72
    65
 73
     4
 40
20.0
 49
12.5
 49
-2.5
 49
2.5
 49
-2.5
  0
ENDTAB
  0
TABLE
  2
LAYER
 70
    18
  0
LAYER
  2
0
 70
     0
 62
     7
  6
CONTINUOUS
  0
LAYER
  2
SUNPOU
 70
     0
 62
     4
  6
CONTINUOUS
  0
LAYER
  2
0-1
 70
     0
 62
     7
  6
CONTINUOUS
  0
LAYER
  2
0-2
 70
     0
 62
     7
  6
CONTINUOUS
  0
LAYER
  2
0-5
 70
     0
 62
     7
  6
CONTINUOUS
  0
LAYER
  2
0-6
 70
     0
 62
     7
  6
CONTINUOUS
  0
LAYER
  2
2-0
 70
     0
 62
     7
  6
CONTINUOUS
  0
LAYER
  2
YODOROGO
 70
     0
 62
   130
  6
CONTINUOUS
  0
LAYER
  2
WAKUSEN-01
 70
     0
 62
    50
  6
CONTINUOUS
  0
LAYER
  2
WAKUSEN-02
 70
     0
 62
   130
  6
CONTINUOUS
  0
LAYER
  2
WAKUMOJI-01
 70
     0
 62
   130
  6
CONTINUOUS
  0
LAYER
  2
FILENAME
 70
     0
 62
     7
  6
CONTINUOUS
  0
LAYER
  2
NAME
 70
     0
 62
    20
  6
CONTINUOUS
  0
LAYER
  2
0-4
 70
     0
 62
     7
  6
CONTINUOUS
  0
LAYER
  2
0-0
 70
     0
 62
     7
  6
CONTINUOUS
  0
LAYER
  2
0-7
 70
     0
 62
     7
  6
CONTINUOUS
  0
ENDTAB
  0
TABLE
  2
STYLE
 70
     6
  0
STYLE
  2
STANDARD
 70
     0
 40
0.0
 41
1.0
 50
0.0
 71
     0
 42
0.0
  3
txt
  4
BIGFONT
  0
STYLE
  2
00
 70
     0
 40
0.0
 41
0.6666666666666666
 50
0.0
 71
     0
 42
0.2
  3
ROMANS
  4
BIGFONT
  0
STYLE
  2
01
 70
     0
 40
3.0
 41
1.0
 50
0.0
 71
     0
 42
0.2
  3
ROMANS
  4
BIGFONT
  0
STYLE
  2
WAKUMOJI
 70
     0
 40
3.0
 41
1.0
 50
0.0
 71
     0
 42
3.0
  3
SIMPLEX
  4
BIGFONT
  0
STYLE
  2
FILENAME
 70
     0
 40
200.0
 41
1.0
 50
0.0
 71
     0
 42
200.0
  3
romans
  4
bigfont
  0
ENDTAB
  0
TABLE
  2
VIEW
 70
     0
  0
ENDTAB
  0
TABLE
  2
UCS
 70
     0
  0
ENDTAB
  0
TABLE
  2
APPID
 70
    13
  0
APPID
  2
ACAD
 70
     0
  0
APPID
  2
ACADANNOTATIVE
 70
     0
  0
APPID
  2
ACAD_PSEXT
 70
     0
  0
APPID
  2
DCO15
 70
     0
  0
APPID
  2
ACAD_MLEADERVER
 70
     0
  0
APPID
  2
AUTOCAD_POSTSCRIPT_FIGURE
 70
     0
  0
APPID
  2
ACAD_EXEMPT_FROM_CAD_STANDARDS
 70
     0
  0
APPID
  2
ACAD_DSTYLE_DIMJAG
 70
     0
  0
APPID
  2
ACAD_DSTYLE_DIMTALN
 70
     0
  0
APPID
  2
ACAD_DSTYLE_DIM_LINETYPE
 70
     0
  0
APPID
  2
ACAD_DSTYLE_DIM_EXT1_LINETYPE
 70
     0
  0
APPID
  2
ACAD_DSTYLE_DIM_EXT2_LINETYPE
 70
     0
  0
APPID
  2
ACAD_NAV_VCDISPLAY
 70
     0
  0
ENDTAB
  0
TABLE
  2
DIMSTYLE
 70
     3
  0
DIMSTYLE
  2
SUNPOU
 70
     0
  3

  4

  5

  6

  7

 40
80.0
 41
3.0
 42
1.0
 43
0.38
 44
1.0
 45
0.5
 46
0.0
 47
0.0
 48
0.0
140
2.0
141
0.09
142
0.0
143
25.399999999999999
144
1.0
145
0.0
146
1.0
147
1.0
 71
     0
 72
     0
 73
     0
 74
     0
 75
     0
 76
     0
 77
     1
 78
     8
170
     0
171
     2
172
     1
173
     0
174
     0
175
     0
176
     4
177
     4
178
     7
  0
ENDTAB
  0
ENDSEC
  0
SECTION
  2
BLOCKS
  0
BLOCK
  8
0
  2
$MODEL_SPACE
 70
     0
 10
0.0
 20
0.0
 30
0.0
  3
$MODEL_SPACE
  1

  0
ENDBLK
  5
3E8D
  8
0
  0
BLOCK
 67
     1
  8
0
  2
$PAPER_SPACE
 70
     0
 10
0.0
 20
0.0
 30
0.0
  3
$PAPER_SPACE
  1

  0
ENDBLK
  5
3E89
 67
     1
  8
0
  0
BLOCK
  8
0
  2
_DOTSMALL
 70
     0
 10
0.0
 20
0.0
 30
0.0
  3
_DOTSMALL
  1

  0
POLYLINE
  5
3EC1
  8
0
  6
BYBLOCK
 62
     0
 66
     1
 10
0.0
 20
0.0
 30
0.0
 70
     1
 40
0.5
 41
0.5
  0
VERTEX
  5
49A7
  8
0
  6
BYBLOCK
 62
     0
 10
-0.0625
 20
0.0
 30
0.0
 42
1.0
  0
VERTEX
  5
49A8
  8
0
  6
BYBLOCK
 62
     0
 10
0.0625
 20
0.0
 30
0.0
 42
1.0
  0
SEQEND
  5
49A9
  8
0
  6
BYBLOCK
 62
     0
  0
ENDBLK
  5
3EC5
  8
0
  0
ENDSEC
  0
SECTION
  2
ENTITIES
  0
LINE
  5
3FBE
  8
0-1
  6
CONTINUOUS
 62
     3
 10
9276.5124190000097
 20
8022.5051830000029
 30
0.0
 11
14456.51479400001
 21
8022.5051830000029
 31
0.0
  0
LINE
  5
3FBF
  8
0-1
  6
CONTINUOUS
 62
     3
 10
8566.5125510000089
 20
6011.4597990000002
 30
0.0
 11
14489.013606
 21
6011.4597990000002
 31
0.0
  0
LINE
  5
3FC0
  8
0-1
  6
CONTINUOUS
 62
     3
 10
9249.0136060000077
 20
6111.4596339999998
 30
0.0
 11
14489.013606
 21
6111.4596339999998
 31
0.0
  0
LINE
  5
3FC1
  8
0-1
  6
CONTINUOUS
 62
     3
 10
9256.5143320000061
 20
8144.4870769999989
 30
0.0
 11
9256.5143320000061
 21
6111.4596339999998
 31
0.0
  0
LINE
  5
3FC2
  8
0-1
  6
CONTINUOUS
 62
     3
 10
9276.5124190000097
 20
8145.1878260000021
 30
0.0
 11
9276.5124190000097
 21
6111.4596339999998
 31
0.0
  0
LINE
  5
3FC3
  8
0-1
  6
CONTINUOUS
 62
     3
 10
9249.0136060000077
 20
6011.4597990000002
 30
0.0
 11
9249.0136060000077
 21
6111.4596339999998
 31
0.0
  0
LINE
  5
3FC4
  8
0-1
  6
CONTINUOUS
 62
     3
 10
14551.79397200001
 20
8329.3840100000016
 30
0.0
 11
14547.242069
 21
8459.3047630000019
 31
0.0
  0
LINE
  5
3FC5
  8
0-1
  6
CONTINUOUS
 62
     3
 10
11939.01347400001
 20
6161.4597990000002
 30
0.0
 11
14361.513738000011
 21
6161.4597990000002
 31
0.0
  0
LINE
  5
3FC6
  8
0-1
  6
CONTINUOUS
 62
     3
 10
11452.513131000011
 20
6161.4597990000002
 30
0.0
 11
11452.513131000011
 21
8022.5051830000029
 31
0.0
  0
LINE
  5
3FC7
  8
0-1
  6
CONTINUOUS
 62
     3
 10
11472.514187000001
 20
6161.4597990000002
 30
0.0
 11
11472.514187000001
 21
8022.5051830000029
 31
0.0
  0
LINE
  5
3FC8
  8
0-1
  6
CONTINUOUS
 62
     3
 10
11402.514450000001
 20
6161.4597990000002
 30
0.0
 11
11402.514450000001
 21
8022.5051830000029
 31
0.0
  0
LINE
  5
3FC9
  8
0-1
  6
CONTINUOUS
 62
     3
 10
11522.512866999999
 20
6161.4597990000002
 30
0.0
 11
11522.512866999999
 21
8022.5051830000029
 31
0.0
  0
LINE
  5
3FCA
  8
0-1
  6
CONTINUOUS
 62
     3
 10
11655.51177100001
 20
6161.4597990000002
 30
0.0
 11
11655.51177100001
 21
8022.5051830000029
 31
0.0
  0
LINE
  5
3FCB
  8
0-1
  6
CONTINUOUS
 62
     3
 10
11670.51355300001
 20
6161.4597990000002
 30
0.0
 11
11670.51355300001
 21
8022.5051830000029
 31
0.0
  0
LINE
  5
3FCC
  8
0-1
  6
CONTINUOUS
 62
     3
 10
11269.512575999999
 20
6161.4597990000002
 30
0.0
 11
11269.512575999999
 21
8022.5051830000029
 31
0.0
  0
LINE
  5
3FCD
  8
0-1
  6
CONTINUOUS
 62
     3
 10
11254.513763999999
 20
6161.4597990000002
 30
0.0
 11
11254.513763999999
 21
8022.5051830000029
 31
0.0
  0
LINE
  5
3FCE
  8
0-1
  6
CONTINUOUS
 62
     3
 10
9371.5114950000097
 20
8022.5051830000029
 30
0.0
 11
9371.5114950000097
 21
6111.4596339999998
 31
0.0
  0
LINE
  5
3FCF
  8
0-1
  6
CONTINUOUS
 62
     3
 10
11939.01347400001
 20
8022.5051830000029
 30
0.0
 11
11939.01347400001
 21
6111.4596339999998
 31
0.0
  0
LINE
  5
3FD0
  8
0-1
  6
CONTINUOUS
 62
     3
 10
11794.013738000011
 20
8022.5051830000029
 30
0.0
 11
11794.013738000011
 21
6111.4596339999998
 31
0.0
  0
LINE
  5
3FD1
  8
0-1
  6
CONTINUOUS
 62
     3
 10
10052.513461
 20
6161.4597990000002
 30
0.0
 11
10052.513461
 21
8022.5051830000029
 31
0.0
  0
LINE
  5
3FD2
  8
0-1
  6
CONTINUOUS
 62
     3
 10
10072.51352699999
 20
6161.4597990000002
 30
0.0
 11
10072.51352699999
 21
8022.5051830000029
 31
0.0
  0
LINE
  5
3FD3
  8
0-1
  6
CONTINUOUS
 62
     3
 10
10002.513790999999
 20
6161.4597990000002
 30
0.0
 11
10002.513790999999
 21
8022.5051830000029
 31
0.0
  0
LINE
  5
3FD4
  8
0-1
  6
CONTINUOUS
 62
     3
 10
10122.513197
 20
6161.4597990000002
 30
0.0
 11
10122.513197
 21
8022.5051830000029
 31
0.0
  0
LINE
  5
3FD5
  8
0-1
  6
CONTINUOUS
 62
     3
 10
10255.51408100001
 20
6161.4597990000002
 30
0.0
 11
10255.51408100001
 21
8022.5051830000029
 31
0.0
  0
LINE
  5
3FD6
  8
0-1
  6
CONTINUOUS
 62
     3
 10
10270.51289300001
 20
6161.4597990000002
 30
0.0
 11
10270.51289300001
 21
8022.5051830000029
 31
0.0
  0
LINE
  5
3FD7
  8
0-1
  6
CONTINUOUS
 62
     3
 10
9869.5129060000127
 20
6161.4597990000002
 30
0.0
 11
9869.5129060000127
 21
8022.5051830000029
 31
0.0
  0
LINE
  5
3FD8
  8
0-1
  6
CONTINUOUS
 62
     3
 10
9854.5121150000123
 20
6161.4597990000002
 30
0.0
 11
9854.5121150000123
 21
8022.5051830000029
 31
0.0
  0
LINE
  5
3FD9
  8
0-1
  6
CONTINUOUS
 62
     3
 10
10554.51343400001
 20
6161.4597990000002
 30
0.0
 11
10554.51343400001
 21
8022.5051830000029
 31
0.0
  0
LINE
  5
3FDA
  8
0-1
  6
CONTINUOUS
 62
     3
 10
10569.51224700001
 20
6161.4597990000002
 30
0.0
 11
10569.51224700001
 21
8022.5051830000029
 31
0.0
  0
LINE
  5
3FDB
  8
0-1
  6
CONTINUOUS
 62
     3
 10
10970.514213
 20
6161.4597990000002
 30
0.0
 11
10970.514213
 21
8022.5051830000029
 31
0.0
  0
LINE
  5
3FDC
  8
0-1
  6
CONTINUOUS
 62
     3
 10
10955.513421
 20
6161.4597990000002
 30
0.0
 11
10955.513421
 21
8022.5051830000029
 31
0.0
  0
LINE
  5
3FDD
  8
0-1
  6
CONTINUOUS
 62
     3
 10
10822.512537000001
 20
6161.4597990000002
 30
0.0
 11
10822.512537000001
 21
8022.5051830000029
 31
0.0
  0
LINE
  5
3FDE
  8
0-1
  6
CONTINUOUS
 62
     3
 10
10702.513131000011
 20
6161.4597990000002
 30
0.0
 11
10702.513131000011
 21
8022.5051830000029
 31
0.0
  0
LINE
  5
3FDF
  8
0-1
  6
CONTINUOUS
 62
     3
 10
10772.51286700001
 20
6161.4597990000002
 30
0.0
 11
10772.51286700001
 21
8022.5051830000029
 31
0.0
  0
LINE
  5
3FE0
  8
0-1
  6
CONTINUOUS
 62
     3
 10
10752.513790999999
 20
6161.4597990000002
 30
0.0
 11
10752.513790999999
 21
8022.5051830000029
 31
0.0
  0
LINE
  5
3FE1
  8
0-1
  6
CONTINUOUS
 62
     3
 10
11094.013408000001
 20
8022.5051830000029
 30
0.0
 11
11094.013408000001
 21
6161.4597990000002
 31
0.0
  0
LINE
  5
3FE2
  8
0-1
  6
CONTINUOUS
 62
     3
 10
11131.013579
 20
8022.5051830000029
 30
0.0
 11
11131.013579
 21
6161.4597990000002
 31
0.0
  0
LINE
  5
3FE3
  8
0-1
  6
CONTINUOUS
 62
     3
 10
9694.0127480000119
 20
8022.5051830000029
 30
0.0
 11
9694.0127480000119
 21
6161.4597990000002
 31
0.0
  0
LINE
  5
3FE4
  8
0-1
  6
CONTINUOUS
 62
     3
 10
9731.0139090000121
 20
8022.5051830000029
 30
0.0
 11
9731.0139090000121
 21
6161.4597990000002
 31
0.0
  0
LINE
  5
3FE5
  8
0-1
  6
CONTINUOUS
 62
     3
 10
10394.01208800001
 20
8022.5051830000029
 30
0.0
 11
10394.01208800001
 21
6161.4597990000002
 31
0.0
  0
LINE
  5
3FE6
  8
0-1
  6
CONTINUOUS
 62
     3
 10
10431.014239
 20
8022.5051830000029
 30
0.0
 11
10431.014239
 21
6161.4597990000002
 31
0.0
  0
LINE
  5
3FE7
  8
0-1
  6
CONTINUOUS
 62
     3
 10
9371.5114950000097
 20
6161.4597990000002
 30
0.0
 11
11794.013738000011
 21
6161.4597990000002
 31
0.0
  0
LINE
  5
3FE8
  8
0-1
  6
CONTINUOUS
 62
     3
 10
11866.51360600001
 20
8235.6181730000044
 30
0.0
 11
11861.959722999991
 21
8365.5369470000005
 31
0.0
  0
LINE
  5
3FE9
  8
0-1
  6
CONTINUOUS
 62
     3
 10
11866.51360600001
 20
8235.6181730000044
 30
0.0
 11
11866.51360600001
 21
8022.5051830000029
 31
0.0
  0
LINE
  5
3FEA
  8
0-1
  6
CONTINUOUS
 62
     3
 10
14361.513738000011
 20
8022.5051830000029
 30
0.0
 11
14361.513738000011
 21
6111.4596339999998
 31
0.0
  0
LINE
  5
3FEB
  8
0-1
  6
CONTINUOUS
 62
     3
 10
14476.513870000001
 20
8326.746301000001
 30
0.0
 11
14476.513870000001
 21
6111.4596339999998
 31
0.0
  0
LINE
  5
3FEC
  8
0-1
  6
CONTINUOUS
 62
     3
 10
14456.51479400001
 20
8326.0455519999978
 30
0.0
 11
14456.51479400001
 21
6111.4596339999998
 31
0.0
  0
LINE
  5
3FED
  8
0-1
  6
CONTINUOUS
 62
     3
 10
13302.011983
 20
8022.5051830000029
 30
0.0
 11
13302.011983
 21
6161.4597990000002
 31
0.0
  0
LINE
  5
3FEE
  8
0-1
  6
CONTINUOUS
 62
     3
 10
13339.013144
 20
8022.5051830000029
 30
0.0
 11
13339.013144
 21
6161.4597990000002
 31
0.0
  0
LINE
  5
3FEF
  8
0-1
  6
CONTINUOUS
 62
     3
 10
14002.014291999991
 20
8022.5051830000029
 30
0.0
 11
14002.014291999991
 21
6161.4597990000002
 31
0.0
  0
LINE
  5
3FF0
  8
0-1
  6
CONTINUOUS
 62
     3
 10
14039.01248400001
 20
8022.5051830000029
 30
0.0
 11
14039.01248400001
 21
6161.4597990000002
 31
0.0
  0
LINE
  5
3FF1
  8
0-1
  6
CONTINUOUS
 62
     3
 10
12602.012642000011
 20
8022.5051830000029
 30
0.0
 11
12602.012642000011
 21
6161.4597990000002
 31
0.0
  0
LINE
  5
3FF2
  8
0-1
  6
CONTINUOUS
 62
     3
 10
12639.012814000011
 20
8022.5051830000029
 30
0.0
 11
12639.012814000011
 21
6161.4597990000002
 31
0.0
  0
LINE
  5
3FF3
  8
0-1
  6
CONTINUOUS
 62
     3
 10
12980.51243100001
 20
6161.4597990000002
 30
0.0
 11
12980.51243100001
 21
8022.5051830000029
 31
0.0
  0
LINE
  5
3FF4
  8
0-1
  6
CONTINUOUS
 62
     3
 10
12960.513354999999
 20
6161.4597990000002
 30
0.0
 11
12960.513354999999
 21
8022.5051830000029
 31
0.0
  0
LINE
  5
3FF5
  8
0-1
  6
CONTINUOUS
 62
     3
 10
13030.51408100001
 20
6161.4597990000002
 30
0.0
 11
13030.51408100001
 21
8022.5051830000029
 31
0.0
  0
LINE
  5
3FF6
  8
0-1
  6
CONTINUOUS
 62
     3
 10
12910.512694999999
 20
6161.4597990000002
 30
0.0
 11
12910.512694999999
 21
8022.5051830000029
 31
0.0
  0
LINE
  5
3FF7
  8
0-1
  6
CONTINUOUS
 62
     3
 10
12777.51379100001
 20
6161.4597990000002
 30
0.0
 11
12777.51379100001
 21
8022.5051830000029
 31
0.0
  0
LINE
  5
3FF8
  8
0-1
  6
CONTINUOUS
 62
     3
 10
12762.51299899999
 20
6161.4597990000002
 30
0.0
 11
12762.51299899999
 21
8022.5051830000029
 31
0.0
  0
LINE
  5
3FF9
  8
0-1
  6
CONTINUOUS
 62
     3
 10
13163.512986000011
 20
6161.4597990000002
 30
0.0
 11
13163.512986000011
 21
8022.5051830000029
 31
0.0
  0
LINE
  5
3FFA
  8
0-1
  6
CONTINUOUS
 62
     3
 10
13178.51179800001
 20
6161.4597990000002
 30
0.0
 11
13178.51179800001
 21
8022.5051830000029
 31
0.0
  0
LINE
  5
3FFB
  8
0-1
  6
CONTINUOUS
 62
     3
 10
13878.51410700001
 20
6161.4597990000002
 30
0.0
 11
13878.51410700001
 21
8022.5051830000029
 31
0.0
  0
LINE
  5
3FFC
  8
0-1
  6
CONTINUOUS
 62
     3
 10
13863.512325999989
 20
6161.4597990000002
 30
0.0
 11
13863.512325999989
 21
8022.5051830000029
 31
0.0
  0
LINE
  5
3FFD
  8
0-1
  6
CONTINUOUS
 62
     3
 10
13462.51332900001
 20
6161.4597990000002
 30
0.0
 11
13462.51332900001
 21
8022.5051830000029
 31
0.0
  0
LINE
  5
3FFE
  8
0-1
  6
CONTINUOUS
 62
     3
 10
13477.512140999999
 20
6161.4597990000002
 30
0.0
 11
13477.512140999999
 21
8022.5051830000029
 31
0.0
  0
LINE
  5
3FFF
  8
0-1
  6
CONTINUOUS
 62
     3
 10
13610.512035000011
 20
6161.4597990000002
 30
0.0
 11
13610.512035000011
 21
8022.5051830000029
 31
0.0
  0
LINE
  5
4000
  8
0-1
  6
CONTINUOUS
 62
     3
 10
13730.51243100001
 20
6161.4597990000002
 30
0.0
 11
13730.51243100001
 21
8022.5051830000029
 31
0.0
  0
LINE
  5
4001
  8
0-1
  6
CONTINUOUS
 62
     3
 10
13660.51269500001
 20
6161.4597990000002
 30
0.0
 11
13660.51269500001
 21
8022.5051830000029
 31
0.0
  0
LINE
  5
4002
  8
0-1
  6
CONTINUOUS
 62
     3
 10
13680.51177100001
 20
6161.4597990000002
 30
0.0
 11
13680.51177100001
 21
8022.5051830000029
 31
0.0
  0
LINE
  5
4003
  8
0-1
  6
CONTINUOUS
 62
     3
 10
12478.51245800001
 20
6161.4597990000002
 30
0.0
 11
12478.51245800001
 21
8022.5051830000029
 31
0.0
  0
LINE
  5
4004
  8
0-1
  6
CONTINUOUS
 62
     3
 10
12463.51265600001
 20
6161.4597990000002
 30
0.0
 11
12463.51265600001
 21
8022.5051830000029
 31
0.0
  0
LINE
  5
4005
  8
0-1
  6
CONTINUOUS
 62
     3
 10
12062.513659
 20
6161.4597990000002
 30
0.0
 11
12062.513659
 21
8022.5051830000029
 31
0.0
  0
LINE
  5
4006
  8
0-1
  6
CONTINUOUS
 62
     3
 10
12077.51445000001
 20
6161.4597990000002
 30
0.0
 11
12077.51445000001
 21
8022.5051830000029
 31
0.0
  0
LINE
  5
4007
  8
0-1
  6
CONTINUOUS
 62
     3
 10
12210.51335500001
 20
6161.4597990000002
 30
0.0
 11
12210.51335500001
 21
8022.5051830000029
 31
0.0
  0
LINE
  5
4008
  8
0-1
  6
CONTINUOUS
 62
     3
 10
12330.512761000011
 20
6161.4597990000002
 30
0.0
 11
12330.512761000011
 21
8022.5051830000029
 31
0.0
  0
LINE
  5
4009
  8
0-1
  6
CONTINUOUS
 62
     3
 10
12260.513025
 20
6161.4597990000002
 30
0.0
 11
12260.513025
 21
8022.5051830000029
 31
0.0
  0
LINE
  5
400A
  8
0-1
  6
CONTINUOUS
 62
     3
 10
12280.513091000001
 20
6161.4597990000002
 30
0.0
 11
12280.513091000001
 21
8022.5051830000029
 31
0.0
  0
LINE
  5
400B
  8
0-1
  6
CONTINUOUS
 62
     3
 10
14489.013606
 20
6111.4596339999998
 30
0.0
 11
14489.013606
 21
6011.4597990000002
 31
0.0
  0
LINE
  5
400C
  8
0-1
  6
CONTINUOUS
 62
     3
 10
9079.3860200000126
 20
8186.3103449999971
 30
0.0
 11
9078.193360000012
 21
8220.2877920000046
 31
0.0
  0
LINE
  5
400D
  8
0-1
  6
CONTINUOUS
 62
     3
 10
9081.087416000013
 20
8223.3916769999978
 30
0.0
 11
14560.81166900001
 21
8414.7517380000008
 31
0.0
  0
LINE
  5
400E
  8
0-1
  6
CONTINUOUS
 62
     3
 10
14562.211189000011
 20
8374.778330000001
 30
0.0
 11
9082.4879260000125
 21
8183.4162890000034
 31
0.0
  0
LINE
  5
400F
  8
0-1
  6
CONTINUOUS
 62
     3
 10
9079.7710360000165
 20
8175.3160990000051
 30
0.0
 11
9079.7680670000118
 21
8175.3814230000016
 31
0.0
  0
LINE
  5
4010
  8
0-1
  6
CONTINUOUS
 62
     3
 10
9079.7680670000118
 20
8175.3814230000016
 30
0.0
 11
9080.8914440000135
 21
8143.3369759999978
 31
0.0
  0
LINE
  5
4011
  8
0-1
  6
CONTINUOUS
 62
     3
 10
9086.062936000013
 20
8138.5138789999974
 30
0.0
 11
14584.75493599999
 21
8330.5390590000006
 31
0.0
  0
LINE
  5
4012
  8
0-1
  6
CONTINUOUS
 62
     3
 10
14580.203033
 20
8460.4588220000023
 30
0.0
 11
9081.5110330000116
 21
8268.4346330000008
 31
0.0
  0
LINE
  5
4013
  8
0-1
  6
CONTINUOUS
 62
     3
 10
9076.687936000013
 20
8263.2621500000005
 30
0.0
 11
9077.8083440000173
 21
8231.283027999998
 31
0.0
  0
LINE
  5
4014
  8
0-1
  6
CONTINUOUS
 62
     3
 10
9080.9132190000128
 20
8228.3889720000006
 30
0.0
 11
14560.63549200001
 21
8419.7490329999982
 31
0.0
  0
LINE
  5
4015
  8
0-1
  6
CONTINUOUS
 62
     3
 10
14562.386376
 20
8369.7810350000018
 30
0.0
 11
9082.6631130000114
 21
8178.4189939999969
 31
0.0
  0
LINE
  5
4016
  8
0-1
  6
CONTINUOUS
 62
     3
 10
9094.0027850000133
 20
8268.8721060000007
 30
0.0
 11
9098.5556780000115
 21
8138.9513529999967
 31
0.0
  0
LINE
  5
4017
  8
0-5
  6
CONTINUOUS
 62
     4
 10
17359.886507999989
 20
6219.3052910000006
 30
0.0
 11
17479.884924000009
 21
6011.4597990000002
 31
0.0
  0
LINE
  5
4018
  8
0-5
  6
CONTINUOUS
 62
     4
 10
14569.013870000001
 20
6011.4597990000002
 30
0.0
 11
19451.75860400001
 21
6011.4597990000002
 31
0.0
  0
LINE
  5
4019
  8
0-5
  6
CONTINUOUS
 62
     4
 10
17479.884924000009
 20
6011.4597990000002
 30
0.0
 11
17599.885320000001
 21
6219.3052910000006
 31
0.0
  0
LINE
  5
401A
  8
0-5
  6
CONTINUOUS
 62
     4
 10
17599.885320000001
 20
6219.3052910000006
 30
0.0
 11
17359.886507999989
 21
6219.3052910000006
 31
0.0
  0
LINE
  5
401B
  8
0-5
  6
CONTINUOUS
 62
     4
 10
9299.0136060000114
 20
4331.4597000000003
 30
0.0
 11
9299.0136060000114
 21
4171.4596669999992
 31
0.0
  0
LINE
  5
401C
  8
0-5
  6
CONTINUOUS
 62
     4
 10
11866.51360600001
 20
4331.4597000000003
 30
0.0
 11
11866.51360600001
 21
4171.4596669999992
 31
0.0
  0
LINE
  5
401D
  8
0-5
  6
CONTINUOUS
 62
     4
 10
14434.01360600001
 20
4331.4597000000003
 30
0.0
 11
14434.01360600001
 21
4171.4596669999992
 31
0.0
  0
LINE
  5
401E
  8
2-0
  6
CENTER2
 62
     6
 10
9299.0136060000114
 20
5748.8063859999984
 30
0.0
 11
9299.0136060000114
 21
6805.9494789999999
 31
0.0
  0
LINE
  5
401F
  8
2-0
  6
CENTER2
 62
     6
 10
11866.51360600001
 20
5748.8063859999984
 30
0.0
 11
11866.51360600001
 21
6805.9494789999999
 31
0.0
  0
LINE
  5
4020
  8
2-0
  6
CENTER2
 62
     6
 10
14434.01360600001
 20
5748.8063859999984
 30
0.0
 11
14434.01360600001
 21
6805.9494789999999
 31
0.0
  0
ARC
  5
4021
  8
0-1
  6
CONTINUOUS
 62
     3
 10
9084.0745100000076
 20
8180.9705939999967
 30
0.0
 40
2.5
 50
272.00698899981808
 51
92.006988999818205
  0
ARC
  5
4022
  8
0-1
  6
CONTINUOUS
 62
     3
 10
9082.499803000017
 20
8225.9442660000004
 30
0.0
 40
2.5
 50
272.00698899981808
 51
92.006988999818205
  0
ARC
  5
4023
  8
0-1
  6
CONTINUOUS
 62
     3
 10
9081.1923310000166
 20
8220.3927060000005
 30
0.0
 40
3.0
 50
92.006988999818205
 51
182.0069889999958
  0
ARC
  5
4024
  8
0-1
  6
CONTINUOUS
 62
     3
 10
14561.510439000011
 20
8394.764538999998
 30
0.0
 40
20.0
 50
272.00698899981808
 51
92.006988999818205
  0
ARC
  5
4025
  8
0-1
  6
CONTINUOUS
 62
     3
 10
9082.3830110000126
 20
8186.4152600000016
 30
0.0
 40
3.0
 50
182.0069889999958
 51
272.00698899981808
  0
ARC
  5
4026
  8
0-1
  6
CONTINUOUS
 62
     3
 10
9082.7680270000128
 20
8175.4220029999988
 30
0.0
 40
3.0
 50
92.006988999818205
 51
182.0069889999958
  0
ARC
  5
4027
  8
0-1
  6
CONTINUOUS
 62
     3
 10
9085.8887380000087
 20
8143.511174000002
 30
0.0
 40
5.0
 50
182.0069889999958
 51
272.00698899981808
  0
ARC
  5
4028
  8
0-1
  6
CONTINUOUS
 62
     3
 10
14556.51413400001
 20
8394.5903410000028
 30
0.0
 40
69.999999000000003
 50
293.79377700003357
 51
70.220199999984345
  0
ARC
  5
4029
  8
0-1
  6
CONTINUOUS
 62
     3
 10
9081.685231000014
 20
8263.4373379999997
 30
0.0
 40
5.0
 50
92.006988999818205
 51
182.0069889999958
  0
ARC
  5
402A
  8
0-1
  6
CONTINUOUS
 62
     3
 10
9080.8063250000123
 20
8231.3869530000029
 30
0.0
 40
3.0
 50
182.0069889999958
 51
272.00698899981808
  0
ARC
  5
402B
  8
0-1
  6
CONTINUOUS
 62
     3
 10
14561.510439000011
 20
8394.764538999998
 30
0.0
 40
24.999998999999999
 50
272.00698899981808
 51
92.006988999818205
  0
CIRCLE
  5
402C
  8
0-5
  6
CONTINUOUS
 62
     4
 10
9299.0136060000114
 20
3971.459006999999
 30
0.0
 40
199.9999949999999
  0
CIRCLE
  5
402D
  8
0-5
  6
CONTINUOUS
 62
     4
 10
14434.01360600001
 20
3971.459006999999
 30
0.0
 40
199.9999949999999
  0
CIRCLE
  5
402E
  8
0-5
  6
CONTINUOUS
 62
     4
 10
11866.51360600001
 20
3971.459006999999
 30
0.0
 40
199.9999949999999
  0
CIRCLE
  5
402F
  8
0-5
  6
CONTINUOUS
 62
     4
 10
15128.71667800001
 20
1375.9998579999999
 30
0.0
 40
20.0
  0
ARC
  5
4030
  8
0-5
  6
CONTINUOUS
 62
     4
 10
15128.71667800001
 20
1375.9998579999999
 30
0.0
 40
20.0
 50
180.0
 51
0.0
  0
ARC
  5
4031
  8
0-5
  6
CONTINUOUS
 62
     4
 10
15128.71667800001
 20
1375.9998579999999
 30
0.0
 40
20.0
 50
0.0
 51
179.99998499999839
  0
CIRCLE
  5
4032
  8
0-5
  6
CONTINUOUS
 62
     4
 10
15128.71667800001
 20
1776.0000640000001
 30
0.0
 40
20.0
  0
ARC
  5
4033
  8
0-5
  6
CONTINUOUS
 62
     4
 10
15128.71667800001
 20
1776.0000640000001
 30
0.0
 40
20.0
 50
180.0
 51
0.0
  0
ARC
  5
4034
  8
0-5
  6
CONTINUOUS
 62
     4
 10
15128.71667800001
 20
1776.0000640000001
 30
0.0
 40
20.0
 50
0.0
 51
179.99998499999839
  0
TEXT
  5
4035
  8
0-5
  6
CONTINUOUS
 62
     7
 10
17359.886507999989
 20
6299.3060500000011
 30
0.0
 40
160.0
  1
G.L
 72
     4
 11
17519.886507999989
 21
6379.3060500000001
 31
0.0
  0
TEXT
  5
4036
  8
0-5
  6
CONTINUOUS
 62
     7
 10
16656.498466743491
 20
1663.151110534548
 30
0.0
 40
160.0
  1
H
  0
TEXT
  5
4037
  8
0-5
  6
CONTINUOUS
 62
     7
 10
15176.147923
 20
1655.9999150000001
 30
0.0
 40
160.0
  1
（ ）内寸法ハ、  タ イプヲ示ス。
  0
TEXT
  5
4038
  8
0-5
  6
CONTINUOUS
 62
     7
 10
15288.715225999989
 20
1256.00008
 30
0.0
 40
160.0
  1
有効高サハ、基礎高サヲ含ミマセン。
  0
TEXT
  5
4039
  8
0-5
  6
CONTINUOUS
 62
     7
 10
9244.8176298542166
 20
3884.205062638202
 30
0.0
 40
160.0
  1
C
 72
     4
 11
9298.1509631875524
 21
3964.205062638202
 31
0.0
  0
TEXT
  5
403A
  8
0-5
  6
CONTINUOUS
 62
     7
 10
11812.31663885419
 20
3884.205062638202
 30
0.0
 40
160.0
  1
B
 72
     4
 11
11865.64997218753
 21
3964.205062638202
 31
0.0
  0
TEXT
  5
403B
  8
0-5
  6
CONTINUOUS
 62
     7
 10
14379.81564985421
 20
3884.205062638202
 30
0.0
 40
160.0
  1
A
 72
     4
 11
14433.14898318755
 21
3964.205062638202
 31
0.0
  0
TEXT
  5
403C
  8
2-0
  6
CONTINUOUS
 62
     7
 10
10397.565323999999
 20
3224.2921930000011
 30
0.0
 40
160.0
  1
側 面 立 面 図
 72
     4
 11
11042.89865733334
 21
3304.2921930000011
 31
0.0
  0
TEXT
  5
4044
  8
2-0
  6
CONTINUOUS
 62
     7
 10
12394.39084247095
 20
3251.4875619999989
 30
0.0
 40
160.0
  1
1
 72
     4
 11
12421.057509137619
 21
3331.4875619999989
 31
0.0
  0
TEXT
  5
4045
  8
2-0
  6
CONTINUOUS
 62
     7
 10
12637.47955972166
 20
3171.4890300000011
 30
0.0
 40
160.0
  1
80
 72
     4
 11
12757.47955972166
 21
3251.4890300000011
 31
0.0
  0
TEXT
  5
4046
  8
2-0
  6
CONTINUOUS
 62
     7
 10
11895.39280847095
 20
3224.2921930000011
 30
0.0
 40
160.0
  1
(S=  /   )
 72
     4
 11
12455.39280847095
 21
3304.2921930000011
 31
0.0
  0
LINE
  5
4047
  8
0-1
  6
CONTINUOUS
 62
     3
 10
19624.255832000021
 20
8019.4596930000034
 30
0.0
 11
22807.759263
 21
8019.4596930000034
 31
0.0
  0
LINE
  5
404E
  8
0-1
  6
CONTINUOUS
 62
     3
 10
22900.25820800001
 20
6111.4596339999998
 30
0.0
 11
22800.258867000011
 21
6111.4596339999998
 31
0.0
  0
LINE
  5
404F
  8
0-1
  6
CONTINUOUS
 62
     3
 10
22800.258867000011
 20
6111.4596339999998
 30
0.0
 11
22800.258867000011
 21
6011.4597990000002
 31
0.0
  0
LINE
  5
4050
  8
0-1
  6
CONTINUOUS
 62
     3
 10
22900.25820800001
 20
6011.4597990000002
 30
0.0
 11
22900.25820800001
 21
6111.4596339999998
 31
0.0
  0
LINE
  5
4051
  8
0-1
  6
CONTINUOUS
 62
     3
 10
22807.759263
 20
8329.4597259999973
 30
0.0
 11
22807.759263
 21
6111.4596339999998
 31
0.0
  0
LINE
  5
4052
  8
0-1
  6
CONTINUOUS
 62
     3
 10
22762.760847000001
 20
8019.4596930000034
 30
0.0
 11
22762.760847000001
 21
6011.4597990000002
 31
0.0
  0
LINE
  5
4053
  8
0-1
  6
CONTINUOUS
 62
     3
 10
22872.760715
 20
8459.4596599999986
 30
0.0
 11
22872.760715
 21
6111.4596339999998
 31
0.0
  0
LINE
  5
4054
  8
0-1
  6
CONTINUOUS
 62
     3
 10
22892.757812000011
 20
8329.4597259999973
 30
0.0
 11
22892.757812000011
 21
6111.4596339999998
 31
0.0
  0
LINE
  5
4056
  8
0-1
  6
CONTINUOUS
 62
     3
 10
19531.756888000011
 20
6111.4596339999998
 30
0.0
 11
19631.75622800002
 21
6111.4596339999998
 31
0.0
  0
LINE
  5
4057
  8
0-1
  6
CONTINUOUS
 62
     3
 10
19631.75622800002
 20
6111.4596339999998
 30
0.0
 11
19631.75622800002
 21
6011.4597990000002
 31
0.0
  0
LINE
  5
4058
  8
0-1
  6
CONTINUOUS
 62
     3
 10
19531.756888000011
 20
6011.4597990000002
 30
0.0
 11
19531.756888000011
 21
6111.4596339999998
 31
0.0
  0
LINE
  5
4059
  8
0-1
  6
CONTINUOUS
 62
     3
 10
19669.258208000021
 20
8019.4596930000034
 30
0.0
 11
19669.258208000021
 21
6011.4597990000002
 31
0.0
  0
LINE
  5
405A
  8
0-1
  6
CONTINUOUS
 62
     3
 10
19624.255832000021
 20
8329.4597259999973
 30
0.0
 11
19624.255832000021
 21
6111.4596339999998
 31
0.0
  0
LINE
  5
405B
  8
0-1
  6
CONTINUOUS
 62
     3
 10
19559.256360000021
 20
8459.4596599999986
 30
0.0
 11
19559.256360000021
 21
6111.4596339999998
 31
0.0
  0
LINE
  5
405C
  8
0-1
  6
CONTINUOUS
 62
     3
 10
19539.257284000021
 20
8329.4597259999973
 30
0.0
 11
19539.257284000021
 21
6111.4596339999998
 31
0.0
  0
LINE
  5
405D
  8
0-1
  6
CONTINUOUS
 62
     3
 10
19669.258208000021
 20
6531.4605249999986
 30
0.0
 11
22762.760847000001
 21
6531.4605249999986
 31
0.0
  0
LINE
  5
405E
  8
0-1
  6
CONTINUOUS
 62
     3
 10
19669.258208000021
 20
6466.4600630000032
 30
0.0
 11
22762.760847000001
 21
6466.4600630000032
 31
0.0
  0
LINE
  5
405F
  8
0-1
  6
CONTINUOUS
 62
     3
 10
19669.258208000021
 20
6401.4600959999998
 30
0.0
 11
22762.760847000001
 21
6401.4600959999998
 31
0.0
  0
LINE
  5
4060
  8
0-1
  6
CONTINUOUS
 62
     3
 10
19669.258208000021
 20
6336.4596339999998
 30
0.0
 11
22762.760847000001
 21
6336.4596339999998
 31
0.0
  0
LINE
  5
4061
  8
0-1
  6
CONTINUOUS
 62
     3
 10
19669.258208000021
 20
6271.460162000003
 30
0.0
 11
22762.760847000001
 21
6271.460162000003
 31
0.0
  0
LINE
  5
4062
  8
0-1
  6
CONTINUOUS
 62
     3
 10
19669.258208000021
 20
6206.4601950000006
 30
0.0
 11
22762.760847000001
 21
6206.4601950000006
 31
0.0
  0
LINE
  5
4063
  8
0-1
  6
CONTINUOUS
 62
     3
 10
19669.258208000021
 20
6141.4602280000026
 30
0.0
 11
22762.760847000001
 21
6141.4602280000026
 31
0.0
  0
LINE
  5
4064
  8
0-1
  6
CONTINUOUS
 62
     3
 10
19669.258208000021
 20
6076.4597660000018
 30
0.0
 11
22762.760847000001
 21
6076.4597660000018
 31
0.0
  0
LINE
  5
4065
  8
0-1
  6
CONTINUOUS
 62
     3
 10
19669.258208000021
 20
7896.4598320000023
 30
0.0
 11
22762.760847000001
 21
7896.4598320000023
 31
0.0
  0
LINE
  5
4066
  8
0-1
  6
CONTINUOUS
 62
     3
 10
19669.258208000021
 20
7831.4598650000016
 30
0.0
 11
22762.760847000001
 21
7831.4598650000016
 31
0.0
  0
LINE
  5
4067
  8
0-1
  6
CONTINUOUS
 62
     3
 10
19669.258208000021
 20
7766.4603930000021
 30
0.0
 11
22762.760847000001
 21
7766.4603930000021
 31
0.0
  0
LINE
  5
4068
  8
0-1
  6
CONTINUOUS
 62
     3
 10
19669.258208000021
 20
7701.4604259999978
 30
0.0
 11
22762.760847000001
 21
7701.4604259999978
 31
0.0
  0
LINE
  5
4069
  8
0-1
  6
CONTINUOUS
 62
     3
 10
19669.258208000021
 20
7636.4604590000017
 30
0.0
 11
22762.760847000001
 21
7636.4604590000017
 31
0.0
  0
LINE
  5
406A
  8
0-1
  6
CONTINUOUS
 62
     3
 10
19669.258208000021
 20
7571.4599969999981
 30
0.0
 11
22762.760847000001
 21
7571.4599969999981
 31
0.0
  0
LINE
  5
406B
  8
0-1
  6
CONTINUOUS
 62
     3
 10
19669.258208000021
 20
7506.4600300000029
 30
0.0
 11
22762.760847000001
 21
7506.4600300000029
 31
0.0
  0
LINE
  5
406C
  8
0-1
  6
CONTINUOUS
 62
     3
 10
19669.258208000021
 20
7441.4605579999998
 30
0.0
 11
22762.760847000001
 21
7441.4605579999998
 31
0.0
  0
LINE
  5
406D
  8
0-1
  6
CONTINUOUS
 62
     3
 10
19669.258208000021
 20
7376.4605909999973
 30
0.0
 11
22762.760847000001
 21
7376.4605909999973
 31
0.0
  0
LINE
  5
406E
  8
0-1
  6
CONTINUOUS
 62
     3
 10
19669.258208000021
 20
7311.4601290000019
 30
0.0
 11
22762.760847000001
 21
7311.4601290000019
 31
0.0
  0
LINE
  5
406F
  8
0-1
  6
CONTINUOUS
 62
     3
 10
19669.258208000021
 20
7246.4601620000021
 30
0.0
 11
22762.760847000001
 21
7246.4601620000021
 31
0.0
  0
LINE
  5
4070
  8
0-1
  6
CONTINUOUS
 62
     3
 10
19669.258208000021
 20
7181.4601950000006
 30
0.0
 11
22762.760847000001
 21
7181.4601950000006
 31
0.0
  0
LINE
  5
4071
  8
0-1
  6
CONTINUOUS
 62
     3
 10
19669.258208000021
 20
7116.4597330000024
 30
0.0
 11
22762.760847000001
 21
7116.4597330000024
 31
0.0
  0
LINE
  5
4072
  8
0-1
  6
CONTINUOUS
 62
     3
 10
19669.258208000021
 20
7051.4597659999999
 30
0.0
 11
22762.760847000001
 21
7051.4597659999999
 31
0.0
  0
LINE
  5
4073
  8
0-1
  6
CONTINUOUS
 62
     3
 10
19669.258208000021
 20
6986.4602940000013
 30
0.0
 11
22762.760847000001
 21
6986.4602940000013
 31
0.0
  0
LINE
  5
4074
  8
0-1
  6
CONTINUOUS
 62
     3
 10
19669.258208000021
 20
6921.4603270000007
 30
0.0
 11
22762.760847000001
 21
6921.4603270000007
 31
0.0
  0
LINE
  5
4075
  8
0-1
  6
CONTINUOUS
 62
     3
 10
19669.258208000021
 20
6856.4603599999991
 30
0.0
 11
22762.760847000001
 21
6856.4603599999991
 31
0.0
  0
LINE
  5
4076
  8
0-1
  6
CONTINUOUS
 62
     3
 10
19669.258208000021
 20
6791.4598980000019
 30
0.0
 11
22762.760847000001
 21
6791.4598980000019
 31
0.0
  0
LINE
  5
4077
  8
0-1
  6
CONTINUOUS
 62
     3
 10
19669.258208000021
 20
6726.4599310000003
 30
0.0
 11
22762.760847000001
 21
6726.4599310000003
 31
0.0
  0
LINE
  5
4078
  8
0-1
  6
CONTINUOUS
 62
     3
 10
19669.258208000021
 20
6661.4604590000008
 30
0.0
 11
22762.760847000001
 21
6661.4604590000008
 31
0.0
  0
LINE
  5
4079
  8
0-1
  6
CONTINUOUS
 62
     3
 10
19669.258208000021
 20
6596.4604920000002
 30
0.0
 11
22762.760847000001
 21
6596.4604920000002
 31
0.0
  0
LINE
  5
407A
  8
0-1
  6
CONTINUOUS
 62
     3
 10
19669.258208000021
 20
7950.9198520000018
 30
0.0
 11
22762.760847000001
 21
7950.9198520000018
 31
0.0
  0
LINE
  5
407B
  8
0-1
  6
CONTINUOUS
 62
     3
 10
19531.756888000011
 20
6011.4597990000002
 30
0.0
 11
22900.25820800001
 21
6011.4597990000002
 31
0.0
  0
LINE
  5
408D
  8
0-2
  6
CONTINUOUS
 62
     4
 10
21579.699547000011
 20
6758.6864930000029
 30
0.0
 11
21479.700207000009
 21
6758.6864930000029
 31
0.0
  0
LINE
  5
408E
  8
0-2
  6
CONTINUOUS
 62
     4
 10
20852.315546999998
 20
6758.6864930000029
 30
0.0
 11
20952.314887
 21
6758.6864930000029
 31
0.0
  0
LINE
  5
408F
  8
0-5
  6
CONTINUOUS
 62
     4
 10
22850.259527000009
 20
4331.4601949999997
 30
0.0
 11
22850.259527000009
 21
4171.4606569999987
 31
0.0
  0
LINE
  5
4090
  8
0-5
  6
CONTINUOUS
 62
     4
 10
19581.759526999991
 20
4331.4601949999997
 30
0.0
 11
19581.759526999991
 21
4171.4606569999987
 31
0.0
  0
LINE
  5
4091
  8
2-0
  6
CENTER2
 62
     6
 10
22850.259527000009
 20
5748.8073760000016
 30
0.0
 11
22850.259527000009
 21
6785.9504030000016
 31
0.0
  0
LINE
  5
4092
  8
2-0
  6
CENTER2
 62
     6
 10
19581.759526999991
 20
5748.8073760000016
 30
0.0
 11
19581.759526999991
 21
6785.9504030000016
 31
0.0
  0
CIRCLE
  5
409B
  8
0-5
  6
CONTINUOUS
 62
     4
 10
22850.259527000009
 20
3971.4595020000011
 30
0.0
 40
199.9999949999999
  0
CIRCLE
  5
409C
  8
0-5
  6
CONTINUOUS
 62
     4
 10
19581.759526999991
 20
3971.4595020000011
 30
0.0
 40
199.9999949999999
  0
TEXT
  5
409D
  8
0-5
  6
CONTINUOUS
 62
     7
 10
22798.346652000011
 20
3881.9845200000018
 30
0.0
 40
160.0
  1
2
 72
     4
 11
22851.67998533334
 21
3961.9845200000009
 31
0.0
  0
TEXT
  5
409E
  8
0-5
  6
CONTINUOUS
 62
     7
 10
19529.846653000019
 20
3881.9845200000018
 30
0.0
 40
160.0
  1
1
 72
     4
 11
19556.51331966669
 21
3961.9845200000009
 31
0.0
  0
TEXT
  5
409F
  8
2-0
  6
CONTINUOUS
 62
     7
 10
19872.915037999999
 20
3163.073848999999
 30
0.0
 40
160.0
  1
正 面 立 面 図
 72
     4
 11
20518.248371333331
 21
3243.073848999999
 31
0.0
  0
CIRCLE
  5
40A0
  8
0-4
  6
CONTINUOUS
 62
     4
 10
21216.009526999998
 20
6497.5162349999991
 30
0.0
 40
18.487504999999981
  0
TEXT
  5
40A1
  8
2-0
  6
CONTINUOUS
 62
     7
 10
21869.740556470981
 20
3190.269217999999
 30
0.0
 40
160.0
  1
1
 72
     4
 11
21896.407223137649
 21
3270.269217999999
 31
0.0
  0
TEXT
  5
40A2
  8
2-0
  6
CONTINUOUS
 62
     7
 10
22112.829273721662
 20
3110.2706859999989
 30
0.0
 40
160.0
  1
80
 72
     4
 11
22232.829273721662
 21
3190.2706859999989
 31
0.0
  0
TEXT
  5
40A3
  8
2-0
  6
CONTINUOUS
 62
     7
 10
21370.74252247098
 20
3163.073848999999
 30
0.0
 40
160.0
  1
(S=  /   )
 72
     4
 11
21930.74252247098
 21
3243.073848999999
 31
0.0
  0
LINE
  5
40A4
  8
SUNPOU
  6
CONTINUOUS
 10
19299.259526999991
 20
4811.4597990000038
 30
0.0
 11
18941.304520278911
 21
4811.4597990000038
 31
0.0
  0
LINE
  5
40A5
  8
SUNPOU
  6
CONTINUOUS
 10
23132.759527000009
 20
4811.4597990000038
 30
0.0
 11
23490.714533721111
 21
4811.4597990000038
 31
0.0
  0
TEXT
  5
40A6
  8
0-5
  6
CONTINUOUS
 62
     7
 10
18963.581608000011
 20
6740.8200457419989
 30
0.0
 40
160.0
  1
(2131.5)
 50
90.0
 72
     4
 11
18883.581608000011
 21
7194.1533790753319
 31
0.0
  0
LINE
  5
40A7
  8
0-1
  6
CONTINUOUS
 62
     3
 10
9561.0118630000215
 20
6161.4597990000002
 30
0.0
 11
9561.0118630000215
 21
8022.5051830000029
 31
0.0
  0
LINE
  5
40A8
  8
0-1
  6
CONTINUOUS
 62
     3
 10
9546.0110720000212
 20
6161.4597990000002
 30
0.0
 11
9546.0110720000212
 21
8022.5051830000029
 31
0.0
  0
LINE
  5
40A9
  8
0-1
  6
CONTINUOUS
 62
     3
 10
14187.01416000001
 20
6161.4597990000002
 30
0.0
 11
14187.01416000001
 21
8022.5051830000029
 31
0.0
  0
LINE
  5
40AA
  8
0-1
  6
CONTINUOUS
 62
     3
 10
14172.012379
 20
6161.4597990000002
 30
0.0
 11
14172.012379
 21
8022.5051830000029
 31
0.0
  0
LINE
  5
40AB
  8
0-5
  6
CONTINUOUS
 62
     4
 10
14569.013870000021
 20
6111.4596339999998
 30
0.0
 11
16286.47381800002
 21
6111.4596339999998
 31
0.0
  0
LINE
  5
40AC
  8
0-5
  6
CONTINUOUS
 62
     4
 10
16314.09997900001
 20
6319.3056209999977
 30
0.0
 11
16074.098198000011
 21
6319.3056209999977
 31
0.0
  0
LINE
  5
40AD
  8
0-5
  6
CONTINUOUS
 62
     4
 10
16194.09760400001
 20
6111.4596339999998
 30
0.0
 11
16314.09997900001
 21
6319.3056209999977
 31
0.0
  0
LINE
  5
40AE
  8
0-5
  6
CONTINUOUS
 62
     4
 10
16074.098198000011
 20
6319.3056209999977
 30
0.0
 11
16194.09760400001
 21
6111.4596339999998
 31
0.0
  0
TEXT
  5
40AF
  8
0-0
  6
CONTINUOUS
 62
     7
 10
15735.006665000001
 20
6399.3058849999961
 30
0.0
 40
160.0
  1
布基礎天端
 72
     4
 11
16193.67333166667
 21
6479.3058849999961
 31
0.0
  0
TEXT
  5
40B0
  8
2-0
  6
CONTINUOUS
 62
     7
 10
19980.717641000021
 20
11822.375701999999
 30
0.0
 40
160.0
  1
平　面　図
 72
     4
 11
20434.05097433335
 21
11897.042368666671
 31
0.0
  0
TEXT
  5
40B1
  8
2-0
  6
CONTINUOUS
 62
     7
 10
21785.543159470981
 20
11844.237737666661
 30
0.0
 40
160.0
  1
1
 72
     4
 11
21812.209826137649
 21
11924.237737666661
 31
0.0
  0
TEXT
  5
40B2
  8
2-0
  6
CONTINUOUS
 62
     7
 10
22028.63187672168
 20
11764.23920566667
 30
0.0
 40
160.0
  1
80
 72
     4
 11
22148.63187672168
 21
11844.23920566667
 31
0.0
  0
TEXT
  5
40B3
  8
2-0
  6
CONTINUOUS
 62
     7
 10
21286.545125470981
 20
11817.042368666671
 30
0.0
 40
160.0
  1
(S=  /   )
 72
     4
 11
21846.545125470981
 21
11897.042368666671
 31
0.0
  0
LINE
  5
40B4
  8
2-0
  6
CONTINUOUS
 62
     6
 10
21167.100611000002
 20
13413.25639
 30
0.0
 11
22167.094012999962
 21
13413.25639
 31
0.0
  0
LINE
  5
40B5
  8
2-0
  6
CONTINUOUS
 62
     6
 10
22635.034390000001
 20
13883.677103999989
 30
0.0
 11
22167.094012999962
 21
13413.25639
 31
0.0
  0
LINE
  5
40B6
  8
2-0
  6
CONTINUOUS
 62
     6
 10
21183.811706999979
 20
17741.876455000001
 30
0.0
 11
22201.78705499999
 21
17741.876455000001
 31
0.0
  0
LINE
  5
40B7
  8
2-0
  6
CONTINUOUS
 62
     6
 10
22658.212572999979
 20
17966.591403999999
 30
0.0
 11
22201.78705499999
 21
17741.876455000001
 31
0.0
  0
LINE
  5
40B8
  8
2-0
  6
CONTINUOUS
 62
     6
 10
22596.394187000002
 20
16724.78475100001
 30
0.0
 11
22291.698768999991
 21
16828.438282000021
 31
0.0
  0
LINE
  5
40B9
  8
2-0
  6
CONTINUOUS
 62
     6
 10
22751.416225999968
 20
16235.16270700001
 30
0.0
 11
22291.698768999991
 21
15991.24939600001
 31
0.0
  0
LINE
  5
40BA
  8
2-0
  6
CONTINUOUS
 62
     6
 10
21371.695734000001
 20
15991.24939600001
 30
0.0
 11
22291.698768999991
 21
15991.24939600001
 31
0.0
  0
LINE
  5
40BB
  8
2-0
  6
CONTINUOUS
 62
     6
 10
21091.704707000001
 20
16828.438282000021
 30
0.0
 11
22291.698768999991
 21
16828.438282000021
 31
0.0
  0
LINE
  5
40BC
  8
2-0
  6
CONTINUOUS
 62
     6
 10
22667.59351100001
 20
14205.36074999998
 30
0.0
 11
22291.698768999991
 21
14386.304585
 31
0.0
  0
LINE
  5
40BD
  8
2-0
  6
CONTINUOUS
 62
     6
 10
21183.811706999979
 20
14824.113997
 30
0.0
 11
22201.78705499999
 21
14824.113997
 31
0.0
  0
LINE
  5
40BE
  8
2-0
  6
CONTINUOUS
 62
     6
 10
21771.697053
 20
14386.304585
 30
0.0
 11
22291.698768999991
 21
14386.304585
 31
0.0
  0
LINE
  5
40BF
  8
2-0
  6
CONTINUOUS
 62
     6
 10
22658.212572999979
 20
15048.82696700001
 30
0.0
 11
22201.78705499999
 21
14824.113997
 31
0.0
  0
LINE
  5
40C0
  8
2-0
  6
CONTINUOUS
 62
     4
 10
19581.759526999991
 20
19310.758040000001
 30
0.0
 11
19581.759526999991
 21
20040.75500500001
 31
0.0
  0
LINE
  5
40C1
  8
2-0
  6
CONTINUOUS
 62
     3
 10
22862.760187
 20
19121.755585999988
 30
0.0
 11
22862.760187
 21
19115.75962400002
 31
0.0
  0
LINE
  5
40C2
  8
2-0
  6
CONTINUOUS
 62
     3
 10
22862.760187
 20
19115.75962400002
 30
0.0
 11
22892.75781100001
 21
19115.75962400002
 31
0.0
  0
LINE
  5
40C3
  8
2-0
  6
CONTINUOUS
 62
     3
 10
22892.75781100001
 20
19145.759227999999
 30
0.0
 11
22811.755910999978
 21
19145.759227999999
 31
0.0
  0
LINE
  5
40C4
  8
2-0
  6
CONTINUOUS
 62
     3
 10
22862.760187
 20
19105.462167999991
 30
0.0
 11
22892.75781100001
 21
19105.462167999991
 31
0.0
  0
LINE
  5
40C5
  8
2-0
  6
CONTINUOUS
 62
     3
 10
22862.760187
 20
19123.463910000009
 30
0.0
 11
22862.760187
 21
19105.462167999991
 31
0.0
  0
LINE
  5
40C6
  8
2-0
  6
CONTINUOUS
 62
     3
 10
22887.757547000001
 20
19123.463910000009
 30
0.0
 11
22862.760187
 21
19123.463910000009
 31
0.0
  0
LINE
  5
40C7
  8
2-0
  6
CONTINUOUS
 62
     3
 10
22887.757547000001
 20
19118.455728000001
 30
0.0
 11
22887.757547000001
 21
19123.463910000009
 31
0.0
  0
LINE
  5
40C8
  8
2-0
  6
CONTINUOUS
 62
     3
 10
22880.755990000001
 20
19118.455728000001
 30
0.0
 11
22887.757547000001
 21
19118.455728000001
 31
0.0
  0
LINE
  5
40C9
  8
2-0
  6
CONTINUOUS
 62
     3
 10
22780.459722000011
 20
19218.755955000001
 30
0.0
 11
22780.459722000011
 21
19225.761471000009
 31
0.0
  0
LINE
  5
40CA
  8
2-0
  6
CONTINUOUS
 62
     3
 10
22780.459722000011
 20
19225.761471000009
 30
0.0
 11
22785.459985999991
 21
19225.761471000009
 31
0.0
  0
LINE
  5
40CB
  8
2-0
  6
CONTINUOUS
 62
     3
 10
22785.459985999991
 20
19225.761471000009
 30
0.0
 11
22785.459985999991
 21
19200.752234
 31
0.0
  0
LINE
  5
40CC
  8
2-0
  6
CONTINUOUS
 62
     3
 10
22785.459985999991
 20
19200.752234
 30
0.0
 11
22767.458243999979
 21
19200.752234
 31
0.0
  0
LINE
  5
40CD
  8
2-0
  6
CONTINUOUS
 62
     3
 10
22767.458243999979
 20
19200.752234
 30
0.0
 11
22767.458243999979
 21
19230.75579700002
 31
0.0
  0
LINE
  5
40CE
  8
2-0
  6
CONTINUOUS
 62
     3
 10
22777.755700000002
 20
19230.75579700002
 30
0.0
 11
22892.75781100001
 21
19230.75579700002
 31
0.0
  0
LINE
  5
40CF
  8
2-0
  6
CONTINUOUS
 62
     3
 10
22777.755700000002
 20
19200.752234
 30
0.0
 11
22777.755700000002
 21
19230.75579700002
 31
0.0
  0
LINE
  5
40D0
  8
2-0
  6
CONTINUOUS
 62
     3
 10
22783.757600000001
 20
19200.752234
 30
0.0
 11
22777.755700000002
 21
19200.752234
 31
0.0
  0
LINE
  5
40D1
  8
2-0
  6
CONTINUOUS
 62
     3
 10
22880.755990000001
 20
18765.158905499949
 30
0.0
 11
22887.757547000001
 21
18765.158905499949
 31
0.0
  0
LINE
  5
40D2
  8
2-0
  6
CONTINUOUS
 62
     3
 10
22887.757547000001
 20
18765.158905499949
 30
0.0
 11
22887.757547000001
 21
18770.159169499992
 31
0.0
  0
LINE
  5
40D3
  8
2-0
  6
CONTINUOUS
 62
     3
 10
22887.757547000001
 20
18770.159169499992
 30
0.0
 11
22862.760187
 21
18770.159169499992
 31
0.0
  0
LINE
  5
40D4
  8
2-0
  6
CONTINUOUS
 62
     3
 10
22862.760187
 20
18770.159169499992
 30
0.0
 11
22862.760187
 21
18752.163365500001
 31
0.0
  0
LINE
  5
40D5
  8
2-0
  6
CONTINUOUS
 62
     3
 10
22862.760187
 20
18752.163365500001
 30
0.0
 11
22892.75781100001
 21
18752.163365500001
 31
0.0
  0
LINE
  5
40D6
  8
2-0
  6
CONTINUOUS
 62
     3
 10
22862.760187
 20
18768.25487249998
 30
0.0
 11
22862.760187
 21
18762.2569315
 31
0.0
  0
LINE
  5
40D7
  8
2-0
  6
CONTINUOUS
 62
     3
 10
22862.760187
 20
18762.2569315
 30
0.0
 11
22892.75781100001
 21
18762.2569315
 31
0.0
  0
LINE
  5
40D8
  8
2-0
  6
CONTINUOUS
 62
     3
 10
22892.75781100001
 20
18762.2569315
 30
0.0
 11
22892.75781100001
 21
18799.2580925
 31
0.0
  0
LINE
  5
40D9
  8
2-0
  6
CONTINUOUS
 62
     3
 10
22862.760187
 20
18799.2580925
 30
0.0
 11
22892.75781100001
 21
18799.2580925
 31
0.0
  0
LINE
  5
40DA
  8
2-0
  6
CONTINUOUS
 62
     3
 10
22862.760187
 20
18793.254212499989
 30
0.0
 11
22862.760187
 21
18799.2580925
 31
0.0
  0
LINE
  5
40DB
  8
2-0
  6
CONTINUOUS
 62
     3
 10
22862.760187
 20
18809.353637499989
 30
0.0
 11
22892.75781100001
 21
18809.353637499989
 31
0.0
  0
LINE
  5
40DC
  8
2-0
  6
CONTINUOUS
 62
     3
 10
22862.760187
 20
18791.3518955
 30
0.0
 11
22862.760187
 21
18809.353637499989
 31
0.0
  0
LINE
  5
40DD
  8
2-0
  6
CONTINUOUS
 62
     3
 10
22887.757547000001
 20
18791.3518955
 30
0.0
 11
22862.760187
 21
18791.3518955
 31
0.0
  0
LINE
  5
40DE
  8
2-0
  6
CONTINUOUS
 62
     3
 10
22887.757547000001
 20
18796.352159499991
 30
0.0
 11
22887.757547000001
 21
18791.3518955
 31
0.0
  0
LINE
  5
40DF
  8
2-0
  6
CONTINUOUS
 62
     3
 10
22880.755990000001
 20
18796.352159499991
 30
0.0
 11
22887.757547000001
 21
18796.352159499991
 31
0.0
  0
LINE
  5
40E0
  8
2-0
  6
CONTINUOUS
 62
     3
 10
22880.755990000001
 20
18064.157916
 30
0.0
 11
22887.757547000001
 21
18064.157916
 31
0.0
  0
LINE
  5
40E1
  8
2-0
  6
CONTINUOUS
 62
     3
 10
22887.757547000001
 20
18064.157916
 30
0.0
 11
22887.757547000001
 21
18069.16411799999
 31
0.0
  0
LINE
  5
40E2
  8
2-0
  6
CONTINUOUS
 62
     3
 10
22887.757547000001
 20
18069.16411799999
 30
0.0
 11
22862.760187
 21
18069.16411799999
 31
0.0
  0
LINE
  5
40E3
  8
2-0
  6
CONTINUOUS
 62
     3
 10
22862.760187
 20
18069.16411799999
 30
0.0
 11
22862.760187
 21
18051.162376
 31
0.0
  0
LINE
  5
40E4
  8
2-0
  6
CONTINUOUS
 62
     3
 10
22862.760187
 20
18051.162376
 30
0.0
 11
22892.75781100001
 21
18051.162376
 31
0.0
  0
LINE
  5
40E5
  8
2-0
  6
CONTINUOUS
 62
     3
 10
22862.760187
 20
18067.25388299999
 30
0.0
 11
22862.760187
 21
18061.257920999989
 31
0.0
  0
LINE
  5
40E6
  8
2-0
  6
CONTINUOUS
 62
     3
 10
22862.760187
 20
18061.257920999989
 30
0.0
 11
22892.75781100001
 21
18061.257920999989
 31
0.0
  0
LINE
  5
40E7
  8
2-0
  6
CONTINUOUS
 62
     3
 10
22892.75781100001
 20
18061.257920999989
 30
0.0
 11
22892.75781100001
 21
18098.257103
 31
0.0
  0
LINE
  5
40E8
  8
2-0
  6
CONTINUOUS
 62
     3
 10
22862.760187
 20
18098.257103
 30
0.0
 11
22892.75781100001
 21
18098.257103
 31
0.0
  0
LINE
  5
40E9
  8
2-0
  6
CONTINUOUS
 62
     3
 10
22862.760187
 20
18092.26114100001
 30
0.0
 11
22862.760187
 21
18098.257103
 31
0.0
  0
LINE
  5
40EA
  8
2-0
  6
CONTINUOUS
 62
     3
 10
22862.760187
 20
18108.352648
 30
0.0
 11
22892.75781100001
 21
18108.352648
 31
0.0
  0
LINE
  5
40EB
  8
2-0
  6
CONTINUOUS
 62
     3
 10
22862.760187
 20
18090.350906
 30
0.0
 11
22862.760187
 21
18108.352648
 31
0.0
  0
LINE
  5
40EC
  8
2-0
  6
CONTINUOUS
 62
     3
 10
22887.757547000001
 20
18090.350906
 30
0.0
 11
22862.760187
 21
18090.350906
 31
0.0
  0
LINE
  5
40ED
  8
2-0
  6
CONTINUOUS
 62
     3
 10
22887.757547000001
 20
18095.357107999978
 30
0.0
 11
22887.757547000001
 21
18090.350906
 31
0.0
  0
LINE
  5
40EE
  8
2-0
  6
CONTINUOUS
 62
     3
 10
22880.755990000001
 20
18095.357107999978
 30
0.0
 11
22887.757547000001
 21
18095.357107999978
 31
0.0
  0
LINE
  5
40EF
  8
2-0
  6
CONTINUOUS
 62
     3
 10
22880.755990000001
 20
17394.351170000002
 30
0.0
 11
22887.757547000001
 21
17394.351170000002
 31
0.0
  0
LINE
  5
40F0
  8
2-0
  6
CONTINUOUS
 62
     3
 10
22887.757547000001
 20
17394.351170000002
 30
0.0
 11
22887.757547000001
 21
17389.362783
 31
0.0
  0
LINE
  5
40F1
  8
2-0
  6
CONTINUOUS
 62
     3
 10
22887.757547000001
 20
17389.362783
 30
0.0
 11
22862.760187
 21
17389.362783
 31
0.0
  0
LINE
  5
40F2
  8
2-0
  6
CONTINUOUS
 62
     3
 10
22862.760187
 20
17389.362783
 30
0.0
 11
22862.760187
 21
17407.358585999991
 31
0.0
  0
LINE
  5
40F3
  8
2-0
  6
CONTINUOUS
 62
     3
 10
22862.760187
 20
17407.358585999991
 30
0.0
 11
22892.75781100001
 21
17407.358585999991
 31
0.0
  0
LINE
  5
40F4
  8
2-0
  6
CONTINUOUS
 62
     3
 10
22862.760187
 20
17391.261140999999
 30
0.0
 11
22862.760187
 21
17397.257102999989
 31
0.0
  0
LINE
  5
40F5
  8
2-0
  6
CONTINUOUS
 62
     3
 10
22862.760187
 20
17397.257102999989
 30
0.0
 11
22892.75781100001
 21
17397.257102999989
 31
0.0
  0
LINE
  5
40F6
  8
2-0
  6
CONTINUOUS
 62
     3
 10
22892.75781100001
 20
17397.257102999989
 30
0.0
 11
22892.75781100001
 21
17360.257921
 31
0.0
  0
LINE
  5
40F7
  8
2-0
  6
CONTINUOUS
 62
     3
 10
22862.760187
 20
17360.257921
 30
0.0
 11
22892.75781100001
 21
17360.257921
 31
0.0
  0
LINE
  5
40F8
  8
2-0
  6
CONTINUOUS
 62
     3
 10
22862.760187
 20
17366.259821999982
 30
0.0
 11
22862.760187
 21
17360.257921
 31
0.0
  0
LINE
  5
40F9
  8
2-0
  6
CONTINUOUS
 62
     3
 10
22862.760187
 20
17350.168314999999
 30
0.0
 11
22892.75781100001
 21
17350.168314999999
 31
0.0
  0
LINE
  5
40FA
  8
2-0
  6
CONTINUOUS
 62
     3
 10
22862.760187
 20
17368.164118000001
 30
0.0
 11
22862.760187
 21
17350.168314999999
 31
0.0
  0
LINE
  5
40FB
  8
2-0
  6
CONTINUOUS
 62
     3
 10
22887.757547000001
 20
17368.164118000001
 30
0.0
 11
22862.760187
 21
17368.164118000001
 31
0.0
  0
LINE
  5
40FC
  8
2-0
  6
CONTINUOUS
 62
     3
 10
22887.757547000001
 20
17363.16385500001
 30
0.0
 11
22887.757547000001
 21
17368.164118000001
 31
0.0
  0
LINE
  5
40FD
  8
2-0
  6
CONTINUOUS
 62
     3
 10
22880.755990000001
 20
17363.16385500001
 30
0.0
 11
22887.757547000001
 21
17363.16385500001
 31
0.0
  0
LINE
  5
40FE
  8
2-0
  6
CONTINUOUS
 62
     3
 10
22889.871673000009
 20
16643.25474099999
 30
0.0
 11
22889.871673000009
 21
16663.255796000001
 31
0.0
  0
LINE
  5
40FF
  8
2-0
  6
CONTINUOUS
 62
     3
 10
22889.871673000009
 20
16663.255796000001
 30
0.0
 11
22804.875103999992
 21
16663.255796000001
 31
0.0
  0
LINE
  5
4100
  8
2-0
  6
CONTINUOUS
 62
     3
 10
22880.755990000001
 20
16689.862506000001
 30
0.0
 11
22887.757547000001
 21
16689.862506000001
 31
0.0
  0
LINE
  5
4101
  8
2-0
  6
CONTINUOUS
 62
     3
 10
22887.757547000001
 20
16689.862506000001
 30
0.0
 11
22887.757547000001
 21
16684.868180000001
 31
0.0
  0
LINE
  5
4102
  8
2-0
  6
CONTINUOUS
 62
     3
 10
22887.757547000001
 20
16684.868180000001
 30
0.0
 11
22862.760187
 21
16684.868180000001
 31
0.0
  0
LINE
  5
4103
  8
2-0
  6
CONTINUOUS
 62
     3
 10
22862.760187
 20
16684.868180000001
 30
0.0
 11
22862.760187
 21
16702.863984
 31
0.0
  0
LINE
  5
4104
  8
2-0
  6
CONTINUOUS
 62
     3
 10
22862.760187
 20
16702.863984
 30
0.0
 11
22892.75781100001
 21
16702.863984
 31
0.0
  0
LINE
  5
4105
  8
2-0
  6
CONTINUOUS
 62
     3
 10
22862.760187
 20
16693.255399999991
 30
0.0
 11
22862.760187
 21
16687.253499999992
 31
0.0
  0
LINE
  5
4106
  8
2-0
  6
CONTINUOUS
 62
     3
 10
22892.75781100001
 20
16693.255399999991
 30
0.0
 11
22862.760187
 21
16693.255399999991
 31
0.0
  0
LINE
  5
4107
  8
2-0
  6
CONTINUOUS
 62
     3
 10
22892.75781100001
 20
16702.863984
 30
0.0
 11
22892.75781100001
 21
17350.168314999999
 31
0.0
  0
LINE
  5
4108
  8
2-0
  6
CONTINUOUS
 62
     3
 10
22892.75781100001
 20
17407.358585999991
 30
0.0
 11
22892.75781100001
 21
18051.162376
 31
0.0
  0
LINE
  5
4109
  8
2-0
  6
CONTINUOUS
 62
     3
 10
22892.75781100001
 20
16548.253685
 30
0.0
 11
22862.760187
 21
16548.253685
 31
0.0
  0
LINE
  5
410A
  8
2-0
  6
CONTINUOUS
 62
     3
 10
22862.760187
 20
16548.253685
 30
0.0
 11
22862.760187
 21
16554.255584999992
 31
0.0
  0
LINE
  5
410B
  8
2-0
  6
CONTINUOUS
 62
     3
 10
22804.875103999992
 20
16578.259227999999
 30
0.0
 11
22889.871673000009
 21
16578.259227999999
 31
0.0
  0
LINE
  5
410C
  8
2-0
  6
CONTINUOUS
 62
     3
 10
22889.871673000009
 20
16578.259227999999
 30
0.0
 11
22889.871673000009
 21
16598.254345000001
 31
0.0
  0
LINE
  5
410D
  8
2-0
  6
CONTINUOUS
 62
     3
 10
22862.760187
 20
16538.64510200001
 30
0.0
 11
22892.75781100001
 21
16538.64510200001
 31
0.0
  0
LINE
  5
410E
  8
2-0
  6
CONTINUOUS
 62
     3
 10
22862.760187
 20
16556.640904999989
 30
0.0
 11
22862.760187
 21
16538.64510200001
 31
0.0
  0
LINE
  5
410F
  8
2-0
  6
CONTINUOUS
 62
     3
 10
22887.757547000001
 20
16556.640904999989
 30
0.0
 11
22862.760187
 21
16556.640904999989
 31
0.0
  0
LINE
  5
4110
  8
2-0
  6
CONTINUOUS
 62
     3
 10
22887.757547000001
 20
16551.640641000002
 30
0.0
 11
22887.757547000001
 21
16556.640904999989
 31
0.0
  0
LINE
  5
4111
  8
2-0
  6
CONTINUOUS
 62
     3
 10
22880.755990000001
 20
16551.640641000002
 30
0.0
 11
22887.757547000001
 21
16551.640641000002
 31
0.0
  0
LINE
  5
4112
  8
2-0
  6
CONTINUOUS
 62
     3
 10
22880.755990000001
 20
15847.15841049998
 30
0.0
 11
22887.757547000001
 21
15847.15841049998
 31
0.0
  0
LINE
  5
4113
  8
2-0
  6
CONTINUOUS
 62
     3
 10
22887.757547000001
 20
15847.15841049998
 30
0.0
 11
22887.757547000001
 21
15852.15867449998
 31
0.0
  0
LINE
  5
4114
  8
2-0
  6
CONTINUOUS
 62
     3
 10
22887.757547000001
 20
15852.15867449998
 30
0.0
 11
22862.760187
 21
15852.15867449998
 31
0.0
  0
LINE
  5
4115
  8
2-0
  6
CONTINUOUS
 62
     3
 10
22862.760187
 20
15852.15867449998
 30
0.0
 11
22862.760187
 21
15834.156932499989
 31
0.0
  0
LINE
  5
4116
  8
2-0
  6
CONTINUOUS
 62
     3
 10
22862.760187
 20
15834.156932499989
 30
0.0
 11
22892.75781100001
 21
15834.156932499989
 31
0.0
  0
LINE
  5
4117
  8
2-0
  6
CONTINUOUS
 62
     3
 10
22862.760187
 20
15850.25437749999
 30
0.0
 11
22862.760187
 21
15844.257426499989
 31
0.0
  0
LINE
  5
4118
  8
2-0
  6
CONTINUOUS
 62
     3
 10
22862.760187
 20
15844.257426499989
 30
0.0
 11
22892.75781100001
 21
15844.257426499989
 31
0.0
  0
LINE
  5
4119
  8
2-0
  6
CONTINUOUS
 62
     3
 10
22892.75781100001
 20
15844.257426499989
 30
0.0
 11
22892.75781100001
 21
15881.2575975
 31
0.0
  0
LINE
  5
411A
  8
2-0
  6
CONTINUOUS
 62
     3
 10
22862.760187
 20
15881.2575975
 30
0.0
 11
22892.75781100001
 21
15881.2575975
 31
0.0
  0
LINE
  5
411B
  8
2-0
  6
CONTINUOUS
 62
     3
 10
22862.760187
 20
15875.254707499989
 30
0.0
 11
22862.760187
 21
15881.2575975
 31
0.0
  0
LINE
  5
411C
  8
2-0
  6
CONTINUOUS
 62
     3
 10
22862.760187
 20
15891.3531425
 30
0.0
 11
22892.75781100001
 21
15891.3531425
 31
0.0
  0
LINE
  5
411D
  8
2-0
  6
CONTINUOUS
 62
     3
 10
22862.760187
 20
15873.34546149999
 30
0.0
 11
22862.760187
 21
15891.3531425
 31
0.0
  0
LINE
  5
411E
  8
2-0
  6
CONTINUOUS
 62
     3
 10
22887.757547000001
 20
15873.34546149999
 30
0.0
 11
22862.760187
 21
15873.34546149999
 31
0.0
  0
LINE
  5
411F
  8
2-0
  6
CONTINUOUS
 62
     3
 10
22887.757547000001
 20
15878.3516645
 30
0.0
 11
22887.757547000001
 21
15873.34546149999
 31
0.0
  0
LINE
  5
4120
  8
2-0
  6
CONTINUOUS
 62
     3
 10
22880.755990000001
 20
15878.3516645
 30
0.0
 11
22887.757547000001
 21
15878.3516645
 31
0.0
  0
LINE
  5
4121
  8
2-0
  6
CONTINUOUS
 62
     3
 10
22880.755990000001
 20
15177.591681000011
 30
0.0
 11
22887.757547000001
 21
15177.591681000011
 31
0.0
  0
LINE
  5
4122
  8
2-0
  6
CONTINUOUS
 62
     3
 10
22887.757547000001
 20
15177.591681000011
 30
0.0
 11
22887.757547000001
 21
15172.597356
 31
0.0
  0
LINE
  5
4123
  8
2-0
  6
CONTINUOUS
 62
     3
 10
22887.757547000001
 20
15172.597356
 30
0.0
 11
22862.760187
 21
15172.597356
 31
0.0
  0
LINE
  5
4124
  8
2-0
  6
CONTINUOUS
 62
     3
 10
22862.760187
 20
15172.597356
 30
0.0
 11
22862.760187
 21
15190.593159
 31
0.0
  0
LINE
  5
4125
  8
2-0
  6
CONTINUOUS
 62
     3
 10
22862.760187
 20
15190.593159
 30
0.0
 11
22892.75781100001
 21
15190.593159
 31
0.0
  0
LINE
  5
4126
  8
2-0
  6
CONTINUOUS
 62
     3
 10
22862.760187
 20
15174.49571400001
 30
0.0
 11
22862.760187
 21
15180.497614000011
 31
0.0
  0
LINE
  5
4127
  8
2-0
  6
CONTINUOUS
 62
     3
 10
22862.760187
 20
15180.497614000011
 30
0.0
 11
22892.75781100001
 21
15180.497614000011
 31
0.0
  0
LINE
  5
4128
  8
2-0
  6
CONTINUOUS
 62
     3
 10
22892.75781100001
 20
15143.49843300001
 30
0.0
 11
22892.75781100001
 21
15180.497614000011
 31
0.0
  0
LINE
  5
4129
  8
2-0
  6
CONTINUOUS
 62
     3
 10
22862.760187
 20
15143.49843300001
 30
0.0
 11
22892.75781100001
 21
15143.49843300001
 31
0.0
  0
LINE
  5
412A
  8
2-0
  6
CONTINUOUS
 62
     3
 10
22862.760187
 20
15149.495383999991
 30
0.0
 11
22862.760187
 21
15143.49843300001
 31
0.0
  0
LINE
  5
412B
  8
2-0
  6
CONTINUOUS
 62
     3
 10
22862.760187
 20
15133.396949000011
 30
0.0
 11
22892.75781100001
 21
15133.396949000011
 31
0.0
  0
LINE
  5
412C
  8
2-0
  6
CONTINUOUS
 62
     3
 10
22862.760187
 20
15151.404630000001
 30
0.0
 11
22862.760187
 21
15133.396949000011
 31
0.0
  0
LINE
  5
412D
  8
2-0
  6
CONTINUOUS
 62
     3
 10
22887.757547000001
 20
15151.404630000001
 30
0.0
 11
22862.760187
 21
15151.404630000001
 31
0.0
  0
LINE
  5
412E
  8
2-0
  6
CONTINUOUS
 62
     3
 10
22887.757547000001
 20
15146.40436600001
 30
0.0
 11
22887.757547000001
 21
15151.404630000001
 31
0.0
  0
LINE
  5
412F
  8
2-0
  6
CONTINUOUS
 62
     3
 10
22880.755990000001
 20
15146.40436600001
 30
0.0
 11
22887.757547000001
 21
15146.40436600001
 31
0.0
  0
LINE
  5
4130
  8
2-0
  6
CONTINUOUS
 62
     3
 10
22892.75781100001
 20
16538.64510200001
 30
0.0
 11
22892.75781100001
 21
15891.3531425
 31
0.0
  0
LINE
  5
4131
  8
2-0
  6
CONTINUOUS
 62
     3
 10
22892.75781100001
 20
16693.255399999991
 30
0.0
 11
22892.75781100001
 21
16548.253685
 31
0.0
  0
LINE
  5
4132
  8
2-0
  6
CONTINUOUS
 62
     3
 10
22804.875103999992
 20
16663.255796000001
 30
0.0
 11
22804.875103999992
 21
16578.259227999999
 31
0.0
  0
LINE
  5
4133
  8
2-0
  6
CONTINUOUS
 62
     6
 10
21266.666437
 20
18431.703061499989
 30
0.0
 11
22291.698768999991
 21
18431.703061499989
 31
0.0
  0
LINE
  5
4134
  8
2-0
  6
CONTINUOUS
 62
     3
 10
22880.755990000001
 20
14445.163359
 30
0.0
 11
22887.757547000001
 21
14445.163359
 31
0.0
  0
LINE
  5
4135
  8
2-0
  6
CONTINUOUS
 62
     3
 10
22887.757547000001
 20
14445.163359
 30
0.0
 11
22887.757547000001
 21
14450.157685
 31
0.0
  0
LINE
  5
4136
  8
2-0
  6
CONTINUOUS
 62
     3
 10
22887.757547000001
 20
14450.157685
 30
0.0
 11
22862.760187
 21
14450.157685
 31
0.0
  0
LINE
  5
4137
  8
2-0
  6
CONTINUOUS
 62
     3
 10
22862.760187
 20
14450.157685
 30
0.0
 11
22862.760187
 21
14432.161881
 31
0.0
  0
LINE
  5
4138
  8
2-0
  6
CONTINUOUS
 62
     3
 10
22862.760187
 20
14432.161881
 30
0.0
 11
22892.75781100001
 21
14432.161881
 31
0.0
  0
LINE
  5
4139
  8
2-0
  6
CONTINUOUS
 62
     3
 10
22862.760187
 20
14448.260316000011
 30
0.0
 11
22862.760187
 21
14442.257426
 31
0.0
  0
LINE
  5
413A
  8
2-0
  6
CONTINUOUS
 62
     3
 10
22862.760187
 20
14442.257426
 30
0.0
 11
22892.75781100001
 21
14442.257426
 31
0.0
  0
LINE
  5
413B
  8
2-0
  6
CONTINUOUS
 62
     3
 10
22892.75781100001
 20
14442.257426
 30
0.0
 11
22892.75781100001
 21
14479.25759799998
 31
0.0
  0
LINE
  5
413C
  8
2-0
  6
CONTINUOUS
 62
     3
 10
22862.760187
 20
14479.25759799998
 30
0.0
 11
22892.75781100001
 21
14479.25759799998
 31
0.0
  0
LINE
  5
413D
  8
2-0
  6
CONTINUOUS
 62
     3
 10
22862.760187
 20
14473.26064599999
 30
0.0
 11
22862.760187
 21
14479.25759799998
 31
0.0
  0
LINE
  5
413E
  8
2-0
  6
CONTINUOUS
 62
     3
 10
22862.760187
 20
14489.358091
 30
0.0
 11
22892.75781100001
 21
14489.358091
 31
0.0
  0
LINE
  5
413F
  8
2-0
  6
CONTINUOUS
 62
     3
 10
22862.760187
 20
14471.35140000001
 30
0.0
 11
22862.760187
 21
14489.358091
 31
0.0
  0
LINE
  5
4140
  8
2-0
  6
CONTINUOUS
 62
     3
 10
22887.757547000001
 20
14471.35140000001
 30
0.0
 11
22862.760187
 21
14471.35140000001
 31
0.0
  0
LINE
  5
4141
  8
2-0
  6
CONTINUOUS
 62
     3
 10
22887.757547000001
 20
14476.356613000011
 30
0.0
 11
22887.757547000001
 21
14471.35140000001
 31
0.0
  0
LINE
  5
4142
  8
2-0
  6
CONTINUOUS
 62
     3
 10
22880.755990000001
 20
14476.356613000011
 30
0.0
 11
22887.757547000001
 21
14476.356613000011
 31
0.0
  0
LINE
  5
4143
  8
2-0
  6
CONTINUOUS
 62
     3
 10
22862.760187
 20
14119.75943899999
 30
0.0
 11
22862.760187
 21
14125.764308
 31
0.0
  0
LINE
  5
4144
  8
2-0
  6
CONTINUOUS
 62
     3
 10
22862.760187
 20
14125.764308
 30
0.0
 11
22892.75781100001
 21
14125.764308
 31
0.0
  0
LINE
  5
4145
  8
2-0
  6
CONTINUOUS
 62
     3
 10
22892.75781100001
 20
14125.764308
 30
0.0
 11
22892.75781100001
 21
14010.76021699999
 31
0.0
  0
LINE
  5
4146
  8
2-0
  6
CONTINUOUS
 62
     3
 10
22892.75781100001
 20
14010.76021699999
 30
0.0
 11
22807.759263000011
 21
14010.76021699999
 31
0.0
  0
LINE
  5
4147
  8
2-0
  6
CONTINUOUS
 62
     3
 10
22807.759263000011
 20
14010.76021699999
 30
0.0
 11
22807.759263000011
 21
14095.755795999999
 31
0.0
  0
LINE
  5
4148
  8
2-0
  6
CONTINUOUS
 62
     3
 10
22807.759263000011
 20
14095.755795999999
 30
0.0
 11
22839.758181000001
 21
14095.755795999999
 31
0.0
  0
LINE
  5
4149
  8
2-0
  6
CONTINUOUS
 62
     3
 10
22880.755990000001
 20
14122.79404099999
 30
0.0
 11
22887.757547000001
 21
14122.79404099999
 31
0.0
  0
LINE
  5
414A
  8
2-0
  6
CONTINUOUS
 62
     3
 10
22887.757547000001
 20
14122.79404099999
 30
0.0
 11
22887.757547000001
 21
14117.79674599998
 31
0.0
  0
LINE
  5
414B
  8
2-0
  6
CONTINUOUS
 62
     3
 10
22887.757547000001
 20
14117.79674599998
 30
0.0
 11
22862.760187
 21
14117.79674599998
 31
0.0
  0
LINE
  5
414C
  8
2-0
  6
CONTINUOUS
 62
     3
 10
22862.760187
 20
14117.79674599998
 30
0.0
 11
22862.760187
 21
14135.795518999999
 31
0.0
  0
LINE
  5
414D
  8
2-0
  6
CONTINUOUS
 62
     3
 10
22862.760187
 20
14135.795518999999
 30
0.0
 11
22892.75781100001
 21
14135.795518999999
 31
0.0
  0
LINE
  5
414E
  8
2-0
  6
CENTER2
 62
     6
 10
22850.259527000009
 20
13813.262658999991
 30
0.0
 11
22850.259527000009
 21
14618.63141700001
 31
0.0
  0
LINE
  5
414F
  8
2-0
  6
CONTINUOUS
 62
     3
 10
22892.75781100001
 20
18108.352648
 30
0.0
 11
22892.75781100001
 21
18752.163365500001
 31
0.0
  0
LINE
  5
4150
  8
2-0
  6
CONTINUOUS
 62
     6
 10
23585.26269399999
 20
19960.75870000002
 30
0.0
 11
24785.256755999981
 21
19960.75870000002
 31
0.0
  0
LINE
  5
4151
  8
2-0
  6
CONTINUOUS
 62
     6
 10
22723.229860999982
 20
18673.857569499989
 30
0.0
 11
22291.698768999991
 21
18431.703061499989
 31
0.0
  0
LINE
  5
4152
  8
2-0
  6
CONTINUOUS
 62
     6
 10
23044.798694999961
 20
19373.435537000001
 30
0.0
 11
23585.26269399999
 21
19960.75870000002
 31
0.0
  0
LINE
  5
4153
  8
2-0
  6
CONTINUOUS
 62
     3
 10
22801.753403999999
 20
18037.256257999961
 30
0.0
 11
22848.759051999979
 21
18037.256257999961
 31
0.0
  0
LINE
  5
4154
  8
2-0
  6
CONTINUOUS
 62
     3
 10
22848.759051999979
 20
18122.256786000002
 30
0.0
 11
22801.753403999999
 21
18122.256786000002
 31
0.0
  0
LINE
  5
4155
  8
2-0
  6
CONTINUOUS
 62
     3
 10
22848.759051999979
 20
18037.256257999961
 30
0.0
 11
22848.759051999979
 21
18062.259557000001
 31
0.0
  0
LINE
  5
4156
  8
2-0
  6
CONTINUOUS
 62
     3
 10
22848.759051999979
 20
18097.25546600001
 30
0.0
 11
22848.759051999979
 21
18122.256786000002
 31
0.0
  0
LINE
  5
4157
  8
2-0
  6
CONTINUOUS
 62
     3
 10
22801.753403999999
 20
18122.256786000002
 30
0.0
 11
22801.753403999999
 21
18037.256257999961
 31
0.0
  0
LINE
  5
4158
  8
2-0
  6
CONTINUOUS
 62
     3
 10
22892.75781100001
 20
15834.156932499989
 30
0.0
 11
22892.75781100001
 21
15190.593159
 31
0.0
  0
LINE
  5
4159
  8
2-0
  6
CONTINUOUS
 62
     3
 10
22801.753403999999
 20
15119.25922800001
 30
0.0
 11
22848.759051999979
 21
15119.25922800001
 31
0.0
  0
LINE
  5
415A
  8
2-0
  6
CONTINUOUS
 62
     3
 10
22848.759051999979
 20
15204.25579599999
 30
0.0
 11
22801.753403999999
 21
15204.25579599999
 31
0.0
  0
LINE
  5
415B
  8
2-0
  6
CONTINUOUS
 62
     3
 10
22848.759051999979
 20
15119.25922800001
 30
0.0
 11
22848.759051999979
 21
15144.254609000011
 31
0.0
  0
LINE
  5
415C
  8
2-0
  6
CONTINUOUS
 62
     3
 10
22848.759051999979
 20
15179.25447700001
 30
0.0
 11
22848.759051999979
 21
15204.25579599999
 31
0.0
  0
LINE
  5
415D
  8
2-0
  6
CONTINUOUS
 62
     3
 10
22801.753403999999
 20
15204.25579599999
 30
0.0
 11
22801.753403999999
 21
15119.25922800001
 31
0.0
  0
LINE
  5
415E
  8
2-0
  6
CONTINUOUS
 62
     6
 10
22710.172955999999
 20
18697.116913499991
 30
0.0
 11
22862.760187
 21
18752.163365500001
 31
0.0
  0
LINE
  5
415F
  8
2-0
  6
CONTINUOUS
 62
     6
 10
22862.760187
 20
18752.163365500001
 30
0.0
 11
22736.278847000001
 21
18650.60416549995
 31
0.0
  0
LINE
  5
4160
  8
2-0
  6
CONTINUOUS
 62
     6
 10
22710.172955999999
 20
18697.116913499991
 30
0.0
 11
22736.278847000001
 21
18650.60416549995
 31
0.0
  0
LINE
  5
4161
  8
2-0
  6
CONTINUOUS
 62
     6
 10
22736.278847000001
 20
18650.60416549995
 30
0.0
 11
22862.760187
 21
18752.163365500001
 31
0.0
  0
LINE
  5
4162
  8
2-0
  6
CONTINUOUS
 62
     6
 10
22862.760187
 20
18752.163365500001
 30
0.0
 11
22710.172955999999
 21
18697.116913499991
 31
0.0
  0
LINE
  5
4163
  8
2-0
  6
CONTINUOUS
 62
     6
 10
22710.172955999999
 20
18697.116913499991
 30
0.0
 11
22862.760187
 21
18752.163365500001
 31
0.0
  0
LINE
  5
4164
  8
2-0
  6
CONTINUOUS
 62
     6
 10
22736.278847000001
 20
18650.60416549995
 30
0.0
 11
22862.760187
 21
18752.163365500001
 31
0.0
  0
LINE
  5
4165
  8
2-0
  6
CONTINUOUS
 62
     6
 10
22736.278847000001
 20
18650.60416549995
 30
0.0
 11
22710.172955999999
 21
18697.116913499991
 31
0.0
  0
LINE
  5
4166
  8
2-0
  6
CONTINUOUS
 62
     6
 10
23064.415723999991
 20
19355.374410000011
 30
0.0
 11
22936.45370400001
 21
19255.691792000009
 31
0.0
  0
LINE
  5
4167
  8
2-0
  6
CONTINUOUS
 62
     6
 10
22936.45370400001
 20
19255.691792000009
 30
0.0
 11
23025.167808999999
 21
19391.488747000021
 31
0.0
  0
LINE
  5
4168
  8
2-0
  6
CONTINUOUS
 62
     6
 10
23064.415723999991
 20
19355.374410000011
 30
0.0
 11
23025.167808999999
 21
19391.488747000021
 31
0.0
  0
LINE
  5
4169
  8
2-0
  6
CONTINUOUS
 62
     6
 10
23025.167808999999
 20
19391.488747000021
 30
0.0
 11
22936.45370400001
 21
19255.691792000009
 31
0.0
  0
LINE
  5
416A
  8
2-0
  6
CONTINUOUS
 62
     6
 10
22936.45370400001
 20
19255.691792000009
 30
0.0
 11
23064.415723999991
 21
19355.374410000011
 31
0.0
  0
LINE
  5
416B
  8
2-0
  6
CONTINUOUS
 62
     6
 10
23064.415723999991
 20
19355.374410000011
 30
0.0
 11
22936.45370400001
 21
19255.691792000009
 31
0.0
  0
LINE
  5
416C
  8
2-0
  6
CONTINUOUS
 62
     6
 10
23025.167808999999
 20
19391.488747000021
 30
0.0
 11
22936.45370400001
 21
19255.691792000009
 31
0.0
  0
LINE
  5
416D
  8
2-0
  6
CONTINUOUS
 62
     6
 10
23025.167808999999
 20
19391.488747000021
 30
0.0
 11
23064.415723999991
 21
19355.374410000011
 31
0.0
  0
LINE
  5
416E
  8
2-0
  6
CONTINUOUS
 62
     4
 10
19581.759526999991
 20
19310.758040000001
 30
0.0
 11
19581.759526999991
 21
20040.75500500001
 31
0.0
  0
LINE
  5
416F
  8
2-0
  6
CONTINUOUS
 62
     6
 10
22646.434437
 20
15072.752418
 30
0.0
 11
22801.753403999999
 21
15119.49973900001
 31
0.0
  0
LINE
  5
4170
  8
2-0
  6
CONTINUOUS
 62
     6
 10
22801.753403999999
 20
15119.49973900001
 30
0.0
 11
22669.992687999991
 21
15024.90745400002
 31
0.0
  0
LINE
  5
4171
  8
2-0
  6
CONTINUOUS
 62
     6
 10
22646.434437
 20
15072.752418
 30
0.0
 11
22669.992687999991
 21
15024.90745400002
 31
0.0
  0
LINE
  5
4172
  8
2-0
  6
CONTINUOUS
 62
     6
 10
22669.992687999991
 20
15024.90745400002
 30
0.0
 11
22801.753403999999
 21
15119.49973900001
 31
0.0
  0
LINE
  5
4173
  8
2-0
  6
CONTINUOUS
 62
     6
 10
22801.753403999999
 20
15119.49973900001
 30
0.0
 11
22646.434437
 21
15072.752418
 31
0.0
  0
LINE
  5
4174
  8
2-0
  6
CONTINUOUS
 62
     6
 10
22646.434437
 20
15072.752418
 30
0.0
 11
22801.753403999999
 21
15119.49973900001
 31
0.0
  0
LINE
  5
4175
  8
2-0
  6
CONTINUOUS
 62
     6
 10
22669.992687999991
 20
15024.90745400002
 30
0.0
 11
22801.753403999999
 21
15119.49973900001
 31
0.0
  0
LINE
  5
4176
  8
2-0
  6
CONTINUOUS
 62
     6
 10
22669.992687999991
 20
15024.90745400002
 30
0.0
 11
22646.434437
 21
15072.752418
 31
0.0
  0
LINE
  5
4177
  8
2-0
  6
CONTINUOUS
 62
     6
 10
22616.120090000011
 20
13902.48747899999
 30
0.0
 11
22747.86694900001
 21
13997.114406000001
 31
0.0
  0
LINE
  5
4178
  8
2-0
  6
CONTINUOUS
 62
     6
 10
22747.86694900001
 20
13997.114406000001
 30
0.0
 11
22653.936812999989
 21
13864.87563599999
 31
0.0
  0
LINE
  5
4179
  8
2-0
  6
CONTINUOUS
 62
     6
 10
22616.120090000011
 20
13902.48747899999
 30
0.0
 11
22653.936812999989
 21
13864.87563599999
 31
0.0
  0
LINE
  5
417A
  8
2-0
  6
CONTINUOUS
 62
     6
 10
22653.936812999989
 20
13864.87563599999
 30
0.0
 11
22747.86694900001
 21
13997.114406000001
 31
0.0
  0
LINE
  5
417B
  8
2-0
  6
CONTINUOUS
 62
     6
 10
22747.86694900001
 20
13997.114406000001
 30
0.0
 11
22616.120090000011
 21
13902.48747899999
 31
0.0
  0
LINE
  5
417C
  8
2-0
  6
CONTINUOUS
 62
     6
 10
22616.120090000011
 20
13902.48747899999
 30
0.0
 11
22747.86694900001
 21
13997.114406000001
 31
0.0
  0
LINE
  5
417D
  8
2-0
  6
CONTINUOUS
 62
     6
 10
22653.936812999989
 20
13864.87563599999
 30
0.0
 11
22747.86694900001
 21
13997.114406000001
 31
0.0
  0
LINE
  5
417E
  8
2-0
  6
CONTINUOUS
 62
     6
 10
22653.936812999989
 20
13864.87563599999
 30
0.0
 11
22616.120090000011
 21
13902.48747899999
 31
0.0
  0
LINE
  5
417F
  8
2-0
  6
CONTINUOUS
 62
     6
 10
22679.155879000009
 20
14229.39210599999
 30
0.0
 11
22811.755910999978
 21
14135.96377799999
 31
0.0
  0
LINE
  5
4180
  8
2-0
  6
CONTINUOUS
 62
     6
 10
22811.755910999978
 20
14135.96377799999
 30
0.0
 11
22656.023225000001
 21
14181.339292000001
 31
0.0
  0
LINE
  5
4181
  8
2-0
  6
CONTINUOUS
 62
     6
 10
22679.155879000009
 20
14229.39210599999
 30
0.0
 11
22656.023225000001
 21
14181.339292000001
 31
0.0
  0
LINE
  5
4182
  8
2-0
  6
CONTINUOUS
 62
     6
 10
22656.023225000001
 20
14181.339292000001
 30
0.0
 11
22811.755910999978
 21
14135.96377799999
 31
0.0
  0
LINE
  5
4183
  8
2-0
  6
CONTINUOUS
 62
     6
 10
22811.755910999978
 20
14135.96377799999
 30
0.0
 11
22679.155879000009
 21
14229.39210599999
 31
0.0
  0
LINE
  5
4184
  8
2-0
  6
CONTINUOUS
 62
     6
 10
22679.155879000009
 20
14229.39210599999
 30
0.0
 11
22811.755910999978
 21
14135.96377799999
 31
0.0
  0
LINE
  5
4185
  8
2-0
  6
CONTINUOUS
 62
     6
 10
22656.023225000001
 20
14181.339292000001
 30
0.0
 11
22811.755910999978
 21
14135.96377799999
 31
0.0
  0
LINE
  5
4186
  8
2-0
  6
CONTINUOUS
 62
     6
 10
22656.023225000001
 20
14181.339292000001
 30
0.0
 11
22679.155879000009
 21
14229.39210599999
 31
0.0
  0
LINE
  5
4187
  8
2-0
  6
CONTINUOUS
 62
     6
 10
22738.919525000001
 20
16258.71303900002
 30
0.0
 11
22892.75781100001
 21
16310.14687000002
 31
0.0
  0
LINE
  5
4188
  8
2-0
  6
CONTINUOUS
 62
     6
 10
22892.75781100001
 20
16310.14687000002
 30
0.0
 11
22763.922823999979
 21
16211.60643500002
 31
0.0
  0
LINE
  5
4189
  8
2-0
  6
CONTINUOUS
 62
     6
 10
22738.919525000001
 20
16258.71303900002
 30
0.0
 11
22763.922823999979
 21
16211.60643500002
 31
0.0
  0
LINE
  5
418A
  8
2-0
  6
CONTINUOUS
 62
     6
 10
22763.922823999979
 20
16211.60643500002
 30
0.0
 11
22892.75781100001
 21
16310.14687000002
 31
0.0
  0
LINE
  5
418B
  8
2-0
  6
CONTINUOUS
 62
     6
 10
22892.75781100001
 20
16310.14687000002
 30
0.0
 11
22738.919525000001
 21
16258.71303900002
 31
0.0
  0
LINE
  5
418C
  8
2-0
  6
CONTINUOUS
 62
     6
 10
22738.919525000001
 20
16258.71303900002
 30
0.0
 11
22892.75781100001
 21
16310.14687000002
 31
0.0
  0
LINE
  5
418D
  8
2-0
  6
CONTINUOUS
 62
     6
 10
22763.922823999979
 20
16211.60643500002
 30
0.0
 11
22892.75781100001
 21
16310.14687000002
 31
0.0
  0
LINE
  5
418E
  8
2-0
  6
CONTINUOUS
 62
     6
 10
22763.922823999979
 20
16211.60643500002
 30
0.0
 11
22738.919525000001
 21
16258.71303900002
 31
0.0
  0
LINE
  5
418F
  8
2-0
  6
CONTINUOUS
 62
     6
 10
22604.983317999999
 20
16750.031531000011
 30
0.0
 11
22747.86694900001
 21
16673.255902000001
 31
0.0
  0
LINE
  5
4190
  8
2-0
  6
CONTINUOUS
 62
     6
 10
22747.86694900001
 20
16673.255902000001
 30
0.0
 11
22587.805056000001
 21
16699.53797100002
 31
0.0
  0
LINE
  5
4191
  8
2-0
  6
CONTINUOUS
 62
     6
 10
22604.983317999999
 20
16750.031531000011
 30
0.0
 11
22587.805056000001
 21
16699.53797100002
 31
0.0
  0
LINE
  5
4192
  8
2-0
  6
CONTINUOUS
 62
     6
 10
22587.805056000001
 20
16699.53797100002
 30
0.0
 11
22747.86694900001
 21
16673.255902000001
 31
0.0
  0
LINE
  5
4193
  8
2-0
  6
CONTINUOUS
 62
     6
 10
22747.86694900001
 20
16673.255902000001
 30
0.0
 11
22604.983317999999
 21
16750.031531000011
 31
0.0
  0
LINE
  5
4194
  8
2-0
  6
CONTINUOUS
 62
     6
 10
22604.983317999999
 20
16750.031531000011
 30
0.0
 11
22747.86694900001
 21
16673.255902000001
 31
0.0
  0
LINE
  5
4195
  8
2-0
  6
CONTINUOUS
 62
     6
 10
22587.805056000001
 20
16699.53797100002
 30
0.0
 11
22747.86694900001
 21
16673.255902000001
 31
0.0
  0
LINE
  5
4196
  8
2-0
  6
CONTINUOUS
 62
     6
 10
22587.805056000001
 20
16699.53797100002
 30
0.0
 11
22604.983317999999
 21
16750.031531000011
 31
0.0
  0
LINE
  5
4197
  8
2-0
  6
CONTINUOUS
 62
     6
 10
22646.434437
 20
17990.511906
 30
0.0
 11
22801.753403999999
 21
18037.256257999961
 31
0.0
  0
LINE
  5
4198
  8
2-0
  6
CONTINUOUS
 62
     6
 10
22801.753403999999
 20
18037.256257999961
 30
0.0
 11
22669.992687999991
 21
17942.66100399999
 31
0.0
  0
LINE
  5
4199
  8
2-0
  6
CONTINUOUS
 62
     6
 10
22646.434437
 20
17990.511906
 30
0.0
 11
22669.992687999991
 21
17942.66100399999
 31
0.0
  0
LINE
  5
419A
  8
2-0
  6
CONTINUOUS
 62
     6
 10
22669.992687999991
 20
17942.66100399999
 30
0.0
 11
22801.753403999999
 21
18037.256257999961
 31
0.0
  0
LINE
  5
419B
  8
2-0
  6
CONTINUOUS
 62
     6
 10
22801.753403999999
 20
18037.256257999961
 30
0.0
 11
22646.434437
 21
17990.511906
 31
0.0
  0
LINE
  5
419C
  8
2-0
  6
CONTINUOUS
 62
     6
 10
22646.434437
 20
17990.511906
 30
0.0
 11
22801.753403999999
 21
18037.256257999961
 31
0.0
  0
LINE
  5
419D
  8
2-0
  6
CONTINUOUS
 62
     6
 10
22669.992687999991
 20
17942.66100399999
 30
0.0
 11
22801.753403999999
 21
18037.256257999961
 31
0.0
  0
LINE
  5
419E
  8
2-0
  6
CONTINUOUS
 62
     6
 10
22669.992687999991
 20
17942.66100399999
 30
0.0
 11
22646.434437
 21
17990.511906
 31
0.0
  0
LINE
  5
419F
  8
2-0
  6
CONTINUOUS
 62
     3
 10
19569.260847000001
 20
19121.755585999988
 30
0.0
 11
19569.260847000001
 21
19115.75962400002
 31
0.0
  0
LINE
  5
41A0
  8
2-0
  6
CONTINUOUS
 62
     3
 10
19569.260847000001
 20
19115.75962400002
 30
0.0
 11
19539.263222000001
 21
19115.75962400002
 31
0.0
  0
LINE
  5
41A1
  8
2-0
  6
CONTINUOUS
 62
     3
 10
19539.263222000001
 20
19115.75962400002
 30
0.0
 11
19539.263222000001
 21
19230.75579700002
 31
0.0
  0
LINE
  5
41A2
  8
2-0
  6
CONTINUOUS
 62
     3
 10
19539.263222000001
 20
19145.759227999999
 30
0.0
 11
19620.261162999999
 21
19145.759227999999
 31
0.0
  0
LINE
  5
41A3
  8
2-0
  6
CONTINUOUS
 62
     3
 10
19569.260847000001
 20
19105.462167999991
 30
0.0
 11
19539.263222000001
 21
19105.462167999991
 31
0.0
  0
LINE
  5
41A4
  8
2-0
  6
CONTINUOUS
 62
     3
 10
19569.260847000001
 20
19123.463910000009
 30
0.0
 11
19569.260847000001
 21
19105.462167999991
 31
0.0
  0
LINE
  5
41A5
  8
2-0
  6
CONTINUOUS
 62
     3
 10
19544.267445000001
 20
19123.463910000009
 30
0.0
 11
19569.260847000001
 21
19123.463910000009
 31
0.0
  0
LINE
  5
41A6
  8
2-0
  6
CONTINUOUS
 62
     3
 10
19544.267445000001
 20
19118.455728000001
 30
0.0
 11
19544.267445000001
 21
19123.463910000009
 31
0.0
  0
LINE
  5
41A7
  8
2-0
  6
CONTINUOUS
 62
     3
 10
19551.265042999981
 20
19118.455728000001
 30
0.0
 11
19544.267445000001
 21
19118.455728000001
 31
0.0
  0
LINE
  5
41A8
  8
2-0
  6
CONTINUOUS
 62
     3
 10
19651.55933199999
 20
19218.755955000001
 30
0.0
 11
19651.55933199999
 21
19225.761471000009
 31
0.0
  0
LINE
  5
41A9
  8
2-0
  6
CONTINUOUS
 62
     3
 10
19651.55933199999
 20
19225.761471000009
 30
0.0
 11
19646.557088000001
 21
19225.761471000009
 31
0.0
  0
LINE
  5
41AA
  8
2-0
  6
CONTINUOUS
 62
     3
 10
19646.557088000001
 20
19225.761471000009
 30
0.0
 11
19646.557088000001
 21
19200.752234
 31
0.0
  0
LINE
  5
41AB
  8
2-0
  6
CONTINUOUS
 62
     3
 10
19646.557088000001
 20
19200.752234
 30
0.0
 11
19664.56476899999
 21
19200.752234
 31
0.0
  0
LINE
  5
41AC
  8
2-0
  6
CONTINUOUS
 62
     3
 10
19664.56476899999
 20
19200.752234
 30
0.0
 11
19664.56476899999
 21
19230.75579700002
 31
0.0
  0
LINE
  5
41AD
  8
2-0
  6
CONTINUOUS
 62
     3
 10
19654.26533300001
 20
19230.75579700002
 30
0.0
 11
19539.263222000001
 21
19230.75579700002
 31
0.0
  0
LINE
  5
41AE
  8
2-0
  6
CONTINUOUS
 62
     3
 10
19654.26533300001
 20
19200.752234
 30
0.0
 11
19654.26533300001
 21
19230.75579700002
 31
0.0
  0
LINE
  5
41AF
  8
2-0
  6
CONTINUOUS
 62
     3
 10
19648.261454
 20
19200.752234
 30
0.0
 11
19654.26533300001
 21
19200.752234
 31
0.0
  0
LINE
  5
41B0
  8
2-0
  6
CONTINUOUS
 62
     3
 10
19569.260847000001
 20
19121.755585999988
 30
0.0
 11
19569.260847000001
 21
19115.75962400002
 31
0.0
  0
LINE
  5
41B1
  8
2-0
  6
CONTINUOUS
 62
     3
 10
19569.260847000001
 20
19115.75962400002
 30
0.0
 11
19539.263222000001
 21
19115.75962400002
 31
0.0
  0
LINE
  5
41B2
  8
2-0
  6
CONTINUOUS
 62
     3
 10
19539.263222000001
 20
19115.75962400002
 30
0.0
 11
19539.263222000001
 21
19230.75579700002
 31
0.0
  0
LINE
  5
41B3
  8
2-0
  6
CONTINUOUS
 62
     3
 10
19539.263222000001
 20
19145.759227999999
 30
0.0
 11
19620.261162999999
 21
19145.759227999999
 31
0.0
  0
LINE
  5
41B4
  8
2-0
  6
CONTINUOUS
 62
     3
 10
19569.260847000001
 20
19105.462167999991
 30
0.0
 11
19539.263222000001
 21
19105.462167999991
 31
0.0
  0
LINE
  5
41B5
  8
2-0
  6
CONTINUOUS
 62
     3
 10
19569.260847000001
 20
19123.463910000009
 30
0.0
 11
19569.260847000001
 21
19105.462167999991
 31
0.0
  0
LINE
  5
41B6
  8
2-0
  6
CONTINUOUS
 62
     3
 10
19544.267445000001
 20
19123.463910000009
 30
0.0
 11
19569.260847000001
 21
19123.463910000009
 31
0.0
  0
LINE
  5
41B7
  8
2-0
  6
CONTINUOUS
 62
     3
 10
19544.267445000001
 20
19118.455728000001
 30
0.0
 11
19544.267445000001
 21
19123.463910000009
 31
0.0
  0
LINE
  5
41B8
  8
2-0
  6
CONTINUOUS
 62
     3
 10
19551.265042999981
 20
19118.455728000001
 30
0.0
 11
19544.267445000001
 21
19118.455728000001
 31
0.0
  0
LINE
  5
41B9
  8
2-0
  6
CONTINUOUS
 62
     3
 10
19551.265042999981
 20
18765.158905499949
 30
0.0
 11
19544.267445000001
 21
18765.158905499949
 31
0.0
  0
LINE
  5
41BA
  8
2-0
  6
CONTINUOUS
 62
     3
 10
19544.267445000001
 20
18765.158905499949
 30
0.0
 11
19544.267445000001
 21
18770.159169499992
 31
0.0
  0
LINE
  5
41BB
  8
2-0
  6
CONTINUOUS
 62
     3
 10
19544.267445000001
 20
18770.159169499992
 30
0.0
 11
19569.260847000001
 21
18770.159169499992
 31
0.0
  0
LINE
  5
41BC
  8
2-0
  6
CONTINUOUS
 62
     3
 10
19569.260847000001
 20
18770.159169499992
 30
0.0
 11
19569.260847000001
 21
18752.163365499979
 31
0.0
  0
LINE
  5
41BD
  8
2-0
  6
CONTINUOUS
 62
     3
 10
19569.260847000001
 20
18752.163365499979
 30
0.0
 11
19539.263222000001
 21
18752.163365499979
 31
0.0
  0
LINE
  5
41BE
  8
2-0
  6
CONTINUOUS
 62
     3
 10
19569.260847000001
 20
18768.254872499961
 30
0.0
 11
19569.260847000001
 21
18762.256931499989
 31
0.0
  0
LINE
  5
41BF
  8
2-0
  6
CONTINUOUS
 62
     3
 10
19569.260847000001
 20
18762.256931499989
 30
0.0
 11
19539.263222000001
 21
18762.256931499989
 31
0.0
  0
LINE
  5
41C0
  8
2-0
  6
CONTINUOUS
 62
     3
 10
19539.263222000001
 20
18762.256931499989
 30
0.0
 11
19539.263222000001
 21
18799.258092499978
 31
0.0
  0
LINE
  5
41C1
  8
2-0
  6
CONTINUOUS
 62
     3
 10
19569.260847000001
 20
18799.258092499978
 30
0.0
 11
19539.263222000001
 21
18799.258092499978
 31
0.0
  0
LINE
  5
41C2
  8
2-0
  6
CONTINUOUS
 62
     3
 10
19569.260847000001
 20
18793.254212499989
 30
0.0
 11
19569.260847000001
 21
18799.258092499978
 31
0.0
  0
LINE
  5
41C3
  8
2-0
  6
CONTINUOUS
 62
     3
 10
19569.260847000001
 20
18809.35363749996
 30
0.0
 11
19539.263222000001
 21
18809.35363749996
 31
0.0
  0
LINE
  5
41C4
  8
2-0
  6
CONTINUOUS
 62
     3
 10
19569.260847000001
 20
18791.3518955
 30
0.0
 11
19569.260847000001
 21
18809.35363749996
 31
0.0
  0
LINE
  5
41C5
  8
2-0
  6
CONTINUOUS
 62
     3
 10
19544.267445000001
 20
18791.3518955
 30
0.0
 11
19569.260847000001
 21
18791.3518955
 31
0.0
  0
LINE
  5
41C6
  8
2-0
  6
CONTINUOUS
 62
     3
 10
19544.267445000001
 20
18796.352159499991
 30
0.0
 11
19544.267445000001
 21
18791.3518955
 31
0.0
  0
LINE
  5
41C7
  8
2-0
  6
CONTINUOUS
 62
     3
 10
19551.265042999981
 20
18796.352159499991
 30
0.0
 11
19544.267445000001
 21
18796.352159499991
 31
0.0
  0
LINE
  5
41C8
  8
2-0
  6
CONTINUOUS
 62
     3
 10
19551.265042999981
 20
18064.157915999989
 30
0.0
 11
19544.267445000001
 21
18064.157915999989
 31
0.0
  0
LINE
  5
41C9
  8
2-0
  6
CONTINUOUS
 62
     3
 10
19544.267445000001
 20
18064.157915999989
 30
0.0
 11
19544.267445000001
 21
18069.164117999979
 31
0.0
  0
LINE
  5
41CA
  8
2-0
  6
CONTINUOUS
 62
     3
 10
19544.267445000001
 20
18069.164117999979
 30
0.0
 11
19569.260847000001
 21
18069.164117999979
 31
0.0
  0
LINE
  5
41CB
  8
2-0
  6
CONTINUOUS
 62
     3
 10
19569.260847000001
 20
18069.164117999979
 30
0.0
 11
19569.260847000001
 21
18051.162376
 31
0.0
  0
LINE
  5
41CC
  8
2-0
  6
CONTINUOUS
 62
     3
 10
19569.260847000001
 20
18051.162376
 30
0.0
 11
19539.263222000001
 21
18051.162376
 31
0.0
  0
LINE
  5
41CD
  8
2-0
  6
CONTINUOUS
 62
     3
 10
19569.260847000001
 20
18067.253882999961
 30
0.0
 11
19569.260847000001
 21
18061.257920999989
 31
0.0
  0
LINE
  5
41CE
  8
2-0
  6
CONTINUOUS
 62
     3
 10
19569.260847000001
 20
18061.257920999989
 30
0.0
 11
19539.263222000001
 21
18061.257920999989
 31
0.0
  0
LINE
  5
41CF
  8
2-0
  6
CONTINUOUS
 62
     3
 10
19539.263222000001
 20
18061.257920999989
 30
0.0
 11
19539.263222000001
 21
18098.257102999989
 31
0.0
  0
LINE
  5
41D0
  8
2-0
  6
CONTINUOUS
 62
     3
 10
19569.260847000001
 20
18098.257102999989
 30
0.0
 11
19539.263222000001
 21
18098.257102999989
 31
0.0
  0
LINE
  5
41D1
  8
2-0
  6
CONTINUOUS
 62
     3
 10
19569.260847000001
 20
18092.261140999992
 30
0.0
 11
19569.260847000001
 21
18098.257102999989
 31
0.0
  0
LINE
  5
41D2
  8
2-0
  6
CONTINUOUS
 62
     3
 10
19569.260847000001
 20
18108.352648
 30
0.0
 11
19539.263222000001
 21
18108.352648
 31
0.0
  0
LINE
  5
41D3
  8
2-0
  6
CONTINUOUS
 62
     3
 10
19569.260847000001
 20
18090.350905999989
 30
0.0
 11
19569.260847000001
 21
18108.352648
 31
0.0
  0
LINE
  5
41D4
  8
2-0
  6
CONTINUOUS
 62
     3
 10
19544.267445000001
 20
18090.350905999989
 30
0.0
 11
19569.260847000001
 21
18090.350905999989
 31
0.0
  0
LINE
  5
41D5
  8
2-0
  6
CONTINUOUS
 62
     3
 10
19544.267445000001
 20
18095.357107999978
 30
0.0
 11
19544.267445000001
 21
18090.350905999989
 31
0.0
  0
LINE
  5
41D6
  8
2-0
  6
CONTINUOUS
 62
     3
 10
19551.265042999981
 20
18095.357107999978
 30
0.0
 11
19544.267445000001
 21
18095.357107999978
 31
0.0
  0
LINE
  5
41D7
  8
2-0
  6
CONTINUOUS
 62
     3
 10
19551.265042999981
 20
17394.351169999991
 30
0.0
 11
19544.267445000001
 21
17394.351169999991
 31
0.0
  0
LINE
  5
41D8
  8
2-0
  6
CONTINUOUS
 62
     3
 10
19544.267445000001
 20
17394.351169999991
 30
0.0
 11
19544.267445000001
 21
17389.36278299999
 31
0.0
  0
LINE
  5
41D9
  8
2-0
  6
CONTINUOUS
 62
     3
 10
19544.267445000001
 20
17389.36278299999
 30
0.0
 11
19569.260847000001
 21
17389.36278299999
 31
0.0
  0
LINE
  5
41DA
  8
2-0
  6
CONTINUOUS
 62
     3
 10
19569.260847000001
 20
17389.36278299999
 30
0.0
 11
19569.260847000001
 21
17407.358585999991
 31
0.0
  0
LINE
  5
41DB
  8
2-0
  6
CONTINUOUS
 62
     3
 10
19569.260847000001
 20
17407.358585999991
 30
0.0
 11
19539.263222000001
 21
17407.358585999991
 31
0.0
  0
LINE
  5
41DC
  8
2-0
  6
CONTINUOUS
 62
     3
 10
19569.260847000001
 20
17391.261140999992
 30
0.0
 11
19569.260847000001
 21
17397.257102999989
 31
0.0
  0
LINE
  5
41DD
  8
2-0
  6
CONTINUOUS
 62
     3
 10
19569.260847000001
 20
17397.257102999989
 30
0.0
 11
19539.263222000001
 21
17397.257102999989
 31
0.0
  0
LINE
  5
41DE
  8
2-0
  6
CONTINUOUS
 62
     3
 10
19539.263222000001
 20
17397.257102999989
 30
0.0
 11
19539.263222000001
 21
17360.257920999989
 31
0.0
  0
LINE
  5
41DF
  8
2-0
  6
CONTINUOUS
 62
     3
 10
19569.260847000001
 20
17360.257920999989
 30
0.0
 11
19539.263222000001
 21
17360.257920999989
 31
0.0
  0
LINE
  5
41E0
  8
2-0
  6
CONTINUOUS
 62
     3
 10
19569.260847000001
 20
17366.259821999982
 30
0.0
 11
19569.260847000001
 21
17360.257920999989
 31
0.0
  0
LINE
  5
41E1
  8
2-0
  6
CONTINUOUS
 62
     3
 10
19569.260847000001
 20
17350.168314999992
 30
0.0
 11
19539.263222000001
 21
17350.168314999992
 31
0.0
  0
LINE
  5
41E2
  8
2-0
  6
CONTINUOUS
 62
     3
 10
19569.260847000001
 20
17368.16411799999
 30
0.0
 11
19569.260847000001
 21
17350.168314999992
 31
0.0
  0
LINE
  5
41E3
  8
2-0
  6
CONTINUOUS
 62
     3
 10
19544.267445000001
 20
17368.16411799999
 30
0.0
 11
19569.260847000001
 21
17368.16411799999
 31
0.0
  0
LINE
  5
41E4
  8
2-0
  6
CONTINUOUS
 62
     3
 10
19544.267445000001
 20
17363.163854999992
 30
0.0
 11
19544.267445000001
 21
17368.16411799999
 31
0.0
  0
LINE
  5
41E5
  8
2-0
  6
CONTINUOUS
 62
     3
 10
19551.265042999981
 20
17363.163854999992
 30
0.0
 11
19544.267445000001
 21
17363.163854999992
 31
0.0
  0
LINE
  5
41E6
  8
2-0
  6
CONTINUOUS
 62
     3
 10
19542.149359999989
 20
16643.25474099999
 30
0.0
 11
19542.149359999989
 21
16663.255796000001
 31
0.0
  0
LINE
  5
41E7
  8
2-0
  6
CONTINUOUS
 62
     3
 10
19542.149359999989
 20
16663.255796000001
 30
0.0
 11
19627.149888
 21
16663.255796000001
 31
0.0
  0
LINE
  5
41E8
  8
2-0
  6
CONTINUOUS
 62
     3
 10
19551.265042999981
 20
16689.862506000001
 30
0.0
 11
19544.267445000001
 21
16689.862506000001
 31
0.0
  0
LINE
  5
41E9
  8
2-0
  6
CONTINUOUS
 62
     3
 10
19544.267445000001
 20
16689.862506000001
 30
0.0
 11
19544.267445000001
 21
16684.868180000001
 31
0.0
  0
LINE
  5
41EA
  8
2-0
  6
CONTINUOUS
 62
     3
 10
19544.267445000001
 20
16684.868180000001
 30
0.0
 11
19569.260847000001
 21
16684.868180000001
 31
0.0
  0
LINE
  5
41EB
  8
2-0
  6
CONTINUOUS
 62
     3
 10
19569.260847000001
 20
16684.868180000001
 30
0.0
 11
19569.260847000001
 21
16702.863984
 31
0.0
  0
LINE
  5
41EC
  8
2-0
  6
CONTINUOUS
 62
     3
 10
19569.260847000001
 20
16702.863984
 30
0.0
 11
19539.263222000001
 21
16702.863984
 31
0.0
  0
LINE
  5
41ED
  8
2-0
  6
CONTINUOUS
 62
     3
 10
19569.260847000001
 20
16693.255399999991
 30
0.0
 11
19569.260847000001
 21
16687.253499999992
 31
0.0
  0
LINE
  5
41EE
  8
2-0
  6
CONTINUOUS
 62
     3
 10
19539.263222000001
 20
16693.255399999991
 30
0.0
 11
19569.260847000001
 21
16693.255399999991
 31
0.0
  0
LINE
  5
41EF
  8
2-0
  6
CONTINUOUS
 62
     3
 10
19539.263222000001
 20
16702.863984
 30
0.0
 11
19539.263222000001
 21
17350.168314999992
 31
0.0
  0
LINE
  5
41F0
  8
2-0
  6
CONTINUOUS
 62
     3
 10
19539.263222000001
 20
17407.358585999991
 30
0.0
 11
19539.263222000001
 21
18051.162376
 31
0.0
  0
LINE
  5
41F1
  8
2-0
  6
CONTINUOUS
 62
     3
 10
19539.263222000001
 20
16548.253685
 30
0.0
 11
19569.260847000001
 21
16548.253685
 31
0.0
  0
LINE
  5
41F2
  8
2-0
  6
CONTINUOUS
 62
     3
 10
19569.260847000001
 20
16548.253685
 30
0.0
 11
19569.260847000001
 21
16554.255584999992
 31
0.0
  0
LINE
  5
41F3
  8
2-0
  6
CONTINUOUS
 62
     3
 10
19627.149888
 20
16578.259227999999
 30
0.0
 11
19542.149359999989
 21
16578.259227999999
 31
0.0
  0
LINE
  5
41F4
  8
2-0
  6
CONTINUOUS
 62
     3
 10
19542.149359999989
 20
16578.259227999999
 30
0.0
 11
19542.149359999989
 21
16598.254345000001
 31
0.0
  0
LINE
  5
41F5
  8
2-0
  6
CONTINUOUS
 62
     3
 10
19569.260847000001
 20
16538.64510200001
 30
0.0
 11
19539.263222000001
 21
16538.64510200001
 31
0.0
  0
LINE
  5
41F6
  8
2-0
  6
CONTINUOUS
 62
     3
 10
19569.260847000001
 20
16556.640904999989
 30
0.0
 11
19569.260847000001
 21
16538.64510200001
 31
0.0
  0
LINE
  5
41F7
  8
2-0
  6
CONTINUOUS
 62
     3
 10
19544.267445000001
 20
16556.640904999989
 30
0.0
 11
19569.260847000001
 21
16556.640904999989
 31
0.0
  0
LINE
  5
41F8
  8
2-0
  6
CONTINUOUS
 62
     3
 10
19544.267445000001
 20
16551.640641000002
 30
0.0
 11
19544.267445000001
 21
16556.640904999989
 31
0.0
  0
LINE
  5
41F9
  8
2-0
  6
CONTINUOUS
 62
     3
 10
19551.265042999981
 20
16551.640641000002
 30
0.0
 11
19544.267445000001
 21
16551.640641000002
 31
0.0
  0
LINE
  5
41FA
  8
2-0
  6
CONTINUOUS
 62
     3
 10
19551.265042999981
 20
15847.15841049998
 30
0.0
 11
19544.267445000001
 21
15847.15841049998
 31
0.0
  0
LINE
  5
41FB
  8
2-0
  6
CONTINUOUS
 62
     3
 10
19544.267445000001
 20
15847.15841049998
 30
0.0
 11
19544.267445000001
 21
15852.15867449998
 31
0.0
  0
LINE
  5
41FC
  8
2-0
  6
CONTINUOUS
 62
     3
 10
19544.267445000001
 20
15852.15867449998
 30
0.0
 11
19569.260847000001
 21
15852.15867449998
 31
0.0
  0
LINE
  5
41FD
  8
2-0
  6
CONTINUOUS
 62
     3
 10
19569.260847000001
 20
15852.15867449998
 30
0.0
 11
19569.260847000001
 21
15834.15693249998
 31
0.0
  0
LINE
  5
41FE
  8
2-0
  6
CONTINUOUS
 62
     3
 10
19569.260847000001
 20
15834.15693249998
 30
0.0
 11
19539.263222000001
 21
15834.15693249998
 31
0.0
  0
LINE
  5
41FF
  8
2-0
  6
CONTINUOUS
 62
     3
 10
19569.260847000001
 20
15850.25437749999
 30
0.0
 11
19569.260847000001
 21
15844.257426499989
 31
0.0
  0
LINE
  5
4200
  8
2-0
  6
CONTINUOUS
 62
     3
 10
19569.260847000001
 20
15844.257426499989
 30
0.0
 11
19539.263222000001
 21
15844.257426499989
 31
0.0
  0
LINE
  5
4201
  8
2-0
  6
CONTINUOUS
 62
     3
 10
19539.263222000001
 20
15844.257426499989
 30
0.0
 11
19539.263222000001
 21
15881.2575975
 31
0.0
  0
LINE
  5
4202
  8
2-0
  6
CONTINUOUS
 62
     3
 10
19569.260847000001
 20
15881.2575975
 30
0.0
 11
19539.263222000001
 21
15881.2575975
 31
0.0
  0
LINE
  5
4203
  8
2-0
  6
CONTINUOUS
 62
     3
 10
19569.260847000001
 20
15875.254707499989
 30
0.0
 11
19569.260847000001
 21
15881.2575975
 31
0.0
  0
LINE
  5
4204
  8
2-0
  6
CONTINUOUS
 62
     3
 10
19569.260847000001
 20
15891.3531425
 30
0.0
 11
19539.263222000001
 21
15891.3531425
 31
0.0
  0
LINE
  5
4205
  8
2-0
  6
CONTINUOUS
 62
     3
 10
19569.260847000001
 20
15873.34546149999
 30
0.0
 11
19569.260847000001
 21
15891.3531425
 31
0.0
  0
LINE
  5
4206
  8
2-0
  6
CONTINUOUS
 62
     3
 10
19544.267445000001
 20
15873.34546149999
 30
0.0
 11
19569.260847000001
 21
15873.34546149999
 31
0.0
  0
LINE
  5
4207
  8
2-0
  6
CONTINUOUS
 62
     3
 10
19544.267445000001
 20
15878.3516645
 30
0.0
 11
19544.267445000001
 21
15873.34546149999
 31
0.0
  0
LINE
  5
4208
  8
2-0
  6
CONTINUOUS
 62
     3
 10
19551.265042999981
 20
15878.3516645
 30
0.0
 11
19544.267445000001
 21
15878.3516645
 31
0.0
  0
LINE
  5
4209
  8
2-0
  6
CONTINUOUS
 62
     3
 10
19551.265042999981
 20
15177.591681000011
 30
0.0
 11
19544.267445000001
 21
15177.591681000011
 31
0.0
  0
LINE
  5
420A
  8
2-0
  6
CONTINUOUS
 62
     3
 10
19544.267445000001
 20
15177.591681000011
 30
0.0
 11
19544.267445000001
 21
15172.597356
 31
0.0
  0
LINE
  5
420B
  8
2-0
  6
CONTINUOUS
 62
     3
 10
19544.267445000001
 20
15172.597356
 30
0.0
 11
19569.260847000001
 21
15172.597356
 31
0.0
  0
LINE
  5
420C
  8
2-0
  6
CONTINUOUS
 62
     3
 10
19569.260847000001
 20
15172.597356
 30
0.0
 11
19569.260847000001
 21
15190.593159
 31
0.0
  0
LINE
  5
420D
  8
2-0
  6
CONTINUOUS
 62
     3
 10
19569.260847000001
 20
15190.593159
 30
0.0
 11
19539.263222000001
 21
15190.593159
 31
0.0
  0
LINE
  5
420E
  8
2-0
  6
CONTINUOUS
 62
     3
 10
19569.260847000001
 20
15174.495714000001
 30
0.0
 11
19569.260847000001
 21
15180.497614000011
 31
0.0
  0
LINE
  5
420F
  8
2-0
  6
CONTINUOUS
 62
     3
 10
19569.260847000001
 20
15180.497614000011
 30
0.0
 11
19539.263222000001
 21
15180.497614000011
 31
0.0
  0
LINE
  5
4210
  8
2-0
  6
CONTINUOUS
 62
     3
 10
19539.263222000001
 20
15143.49843300001
 30
0.0
 11
19539.263222000001
 21
15180.497614000011
 31
0.0
  0
LINE
  5
4211
  8
2-0
  6
CONTINUOUS
 62
     3
 10
19569.260847000001
 20
15143.49843300001
 30
0.0
 11
19539.263222000001
 21
15143.49843300001
 31
0.0
  0
LINE
  5
4212
  8
2-0
  6
CONTINUOUS
 62
     3
 10
19569.260847000001
 20
15149.495383999991
 30
0.0
 11
19569.260847000001
 21
15143.49843300001
 31
0.0
  0
LINE
  5
4213
  8
2-0
  6
CONTINUOUS
 62
     3
 10
19569.260847000001
 20
15133.396949
 30
0.0
 11
19539.263222000001
 21
15133.396949
 31
0.0
  0
LINE
  5
4214
  8
2-0
  6
CONTINUOUS
 62
     3
 10
19569.260847000001
 20
15151.404630000001
 30
0.0
 11
19569.260847000001
 21
15133.396949
 31
0.0
  0
LINE
  5
4215
  8
2-0
  6
CONTINUOUS
 62
     3
 10
19544.267445000001
 20
15151.404630000001
 30
0.0
 11
19569.260847000001
 21
15151.404630000001
 31
0.0
  0
LINE
  5
4216
  8
2-0
  6
CONTINUOUS
 62
     3
 10
19544.267445000001
 20
15146.40436600001
 30
0.0
 11
19544.267445000001
 21
15151.404630000001
 31
0.0
  0
LINE
  5
4217
  8
2-0
  6
CONTINUOUS
 62
     3
 10
19551.265042999981
 20
15146.40436600001
 30
0.0
 11
19544.267445000001
 21
15146.40436600001
 31
0.0
  0
LINE
  5
4218
  8
2-0
  6
CONTINUOUS
 62
     3
 10
19539.263222000001
 20
16538.64510200001
 30
0.0
 11
19539.263222000001
 21
15891.3531425
 31
0.0
  0
LINE
  5
4219
  8
2-0
  6
CONTINUOUS
 62
     3
 10
19539.263222000001
 20
16693.255399999991
 30
0.0
 11
19539.263222000001
 21
16548.253685
 31
0.0
  0
LINE
  5
421A
  8
2-0
  6
CONTINUOUS
 62
     3
 10
19627.149888
 20
16663.255796000001
 30
0.0
 11
19627.149888
 21
16578.259227999999
 31
0.0
  0
LINE
  5
421B
  8
2-0
  6
CONTINUOUS
 62
     3
 10
19551.265042999981
 20
14445.163359
 30
0.0
 11
19544.267445000001
 21
14445.163359
 31
0.0
  0
LINE
  5
421C
  8
2-0
  6
CONTINUOUS
 62
     3
 10
19544.267445000001
 20
14445.163359
 30
0.0
 11
19544.267445000001
 21
14450.157685
 31
0.0
  0
LINE
  5
421D
  8
2-0
  6
CONTINUOUS
 62
     3
 10
19544.267445000001
 20
14450.157685
 30
0.0
 11
19569.260847000001
 21
14450.157685
 31
0.0
  0
LINE
  5
421E
  8
2-0
  6
CONTINUOUS
 62
     3
 10
19569.260847000001
 20
14450.157685
 30
0.0
 11
19569.260847000001
 21
14432.161881
 31
0.0
  0
LINE
  5
421F
  8
2-0
  6
CONTINUOUS
 62
     3
 10
19569.260847000001
 20
14432.161881
 30
0.0
 11
19539.263222000001
 21
14432.161881
 31
0.0
  0
LINE
  5
4220
  8
2-0
  6
CONTINUOUS
 62
     3
 10
19569.260847000001
 20
14448.260316000011
 30
0.0
 11
19569.260847000001
 21
14442.257426
 31
0.0
  0
LINE
  5
4221
  8
2-0
  6
CONTINUOUS
 62
     3
 10
19569.260847000001
 20
14442.257426
 30
0.0
 11
19539.263222000001
 21
14442.257426
 31
0.0
  0
LINE
  5
4222
  8
2-0
  6
CONTINUOUS
 62
     3
 10
19539.263222000001
 20
14442.257426
 30
0.0
 11
19539.263222000001
 21
14479.25759799998
 31
0.0
  0
LINE
  5
4223
  8
2-0
  6
CONTINUOUS
 62
     3
 10
19569.260847000001
 20
14479.25759799998
 30
0.0
 11
19539.263222000001
 21
14479.25759799998
 31
0.0
  0
LINE
  5
4224
  8
2-0
  6
CONTINUOUS
 62
     3
 10
19569.260847000001
 20
14473.260646000001
 30
0.0
 11
19569.260847000001
 21
14479.25759799998
 31
0.0
  0
LINE
  5
4225
  8
2-0
  6
CONTINUOUS
 62
     3
 10
19569.260847000001
 20
14489.358091
 30
0.0
 11
19539.263222000001
 21
14489.358091
 31
0.0
  0
LINE
  5
4226
  8
2-0
  6
CONTINUOUS
 62
     3
 10
19569.260847000001
 20
14471.35140000001
 30
0.0
 11
19569.260847000001
 21
14489.358091
 31
0.0
  0
LINE
  5
4227
  8
2-0
  6
CONTINUOUS
 62
     3
 10
19544.267445000001
 20
14471.35140000001
 30
0.0
 11
19569.260847000001
 21
14471.35140000001
 31
0.0
  0
LINE
  5
4228
  8
2-0
  6
CONTINUOUS
 62
     3
 10
19544.267445000001
 20
14476.356613000011
 30
0.0
 11
19544.267445000001
 21
14471.35140000001
 31
0.0
  0
LINE
  5
4229
  8
2-0
  6
CONTINUOUS
 62
     3
 10
19551.265042999981
 20
14476.356613000011
 30
0.0
 11
19544.267445000001
 21
14476.356613000011
 31
0.0
  0
LINE
  5
422A
  8
2-0
  6
CONTINUOUS
 62
     3
 10
19569.260847000001
 20
14119.75943899999
 30
0.0
 11
19569.260847000001
 21
14125.764308
 31
0.0
  0
LINE
  5
422B
  8
2-0
  6
CONTINUOUS
 62
     3
 10
19569.260847000001
 20
14125.764308
 30
0.0
 11
19539.263222000001
 21
14125.764308
 31
0.0
  0
LINE
  5
422C
  8
2-0
  6
CONTINUOUS
 62
     3
 10
19539.263222000001
 20
14125.764308
 30
0.0
 11
19539.263222000001
 21
14010.76021699999
 31
0.0
  0
LINE
  5
422D
  8
2-0
  6
CONTINUOUS
 62
     3
 10
19539.263222000001
 20
14010.76021699999
 30
0.0
 11
19624.261770000001
 21
14010.76021699999
 31
0.0
  0
LINE
  5
422E
  8
2-0
  6
CONTINUOUS
 62
     3
 10
19624.261770000001
 20
14010.76021699999
 30
0.0
 11
19624.261770000001
 21
14095.755795999999
 31
0.0
  0
LINE
  5
422F
  8
2-0
  6
CONTINUOUS
 62
     3
 10
19624.261770000001
 20
14095.755795999999
 30
0.0
 11
19592.26483199999
 21
14095.755795999999
 31
0.0
  0
LINE
  5
4230
  8
2-0
  6
CONTINUOUS
 62
     3
 10
19551.265042999981
 20
14122.79404099999
 30
0.0
 11
19544.267445000001
 21
14122.79404099999
 31
0.0
  0
LINE
  5
4231
  8
2-0
  6
CONTINUOUS
 62
     3
 10
19544.267445000001
 20
14122.79404099999
 30
0.0
 11
19544.267445000001
 21
14117.79674599998
 31
0.0
  0
LINE
  5
4232
  8
2-0
  6
CONTINUOUS
 62
     3
 10
19544.267445000001
 20
14117.79674599998
 30
0.0
 11
19569.260847000001
 21
14117.79674599998
 31
0.0
  0
LINE
  5
4233
  8
2-0
  6
CONTINUOUS
 62
     3
 10
19569.260847000001
 20
14117.79674599998
 30
0.0
 11
19569.260847000001
 21
14135.795518999999
 31
0.0
  0
LINE
  5
4234
  8
2-0
  6
CONTINUOUS
 62
     3
 10
19569.260847000001
 20
14135.795518999999
 30
0.0
 11
19539.263222000001
 21
14135.795518999999
 31
0.0
  0
LINE
  5
4235
  8
2-0
  6
CONTINUOUS
 62
     3
 10
19539.263222000001
 20
14489.358091
 30
0.0
 11
19539.263222000001
 21
15133.396949
 31
0.0
  0
LINE
  5
4236
  8
2-0
  6
CONTINUOUS
 62
     3
 10
19539.263222000001
 20
18108.352648
 30
0.0
 11
19539.263222000001
 21
18752.163365499979
 31
0.0
  0
LINE
  5
4237
  8
2-0
  6
CONTINUOUS
 62
     3
 10
19630.265650000001
 20
18037.256257999961
 30
0.0
 11
19583.261981
 21
18037.256257999961
 31
0.0
  0
LINE
  5
4238
  8
2-0
  6
CONTINUOUS
 62
     3
 10
19583.261981
 20
18122.256786000002
 30
0.0
 11
19630.265650000001
 21
18122.256786000002
 31
0.0
  0
LINE
  5
4239
  8
2-0
  6
CONTINUOUS
 62
     3
 10
19583.261981
 20
18037.256257999961
 30
0.0
 11
19583.261981
 21
18062.259557000001
 31
0.0
  0
LINE
  5
423A
  8
2-0
  6
CONTINUOUS
 62
     3
 10
19583.261981
 20
18097.255465999999
 30
0.0
 11
19583.261981
 21
18122.256786000002
 31
0.0
  0
LINE
  5
423B
  8
2-0
  6
CONTINUOUS
 62
     3
 10
19630.265650000001
 20
18122.256786000002
 30
0.0
 11
19630.265650000001
 21
18037.256257999961
 31
0.0
  0
LINE
  5
423C
  8
2-0
  6
CONTINUOUS
 62
     3
 10
19539.263222000001
 20
15834.15693249998
 30
0.0
 11
19539.263222000001
 21
15190.593159
 31
0.0
  0
LINE
  5
423D
  8
2-0
  6
CONTINUOUS
 62
     3
 10
19630.265650000001
 20
15119.259228000001
 30
0.0
 11
19583.261981
 21
15119.259228000001
 31
0.0
  0
LINE
  5
423E
  8
2-0
  6
CONTINUOUS
 62
     3
 10
19583.261981
 20
15204.25579599999
 30
0.0
 11
19630.265650000001
 21
15204.25579599999
 31
0.0
  0
LINE
  5
423F
  8
2-0
  6
CONTINUOUS
 62
     3
 10
19583.261981
 20
15119.259228000001
 30
0.0
 11
19583.261981
 21
15144.254609000011
 31
0.0
  0
LINE
  5
4240
  8
2-0
  6
CONTINUOUS
 62
     3
 10
19583.261981
 20
15179.25447700001
 30
0.0
 11
19583.261981
 21
15204.25579599999
 31
0.0
  0
LINE
  5
4241
  8
2-0
  6
CONTINUOUS
 62
     3
 10
19630.265650000001
 20
15204.25579599999
 30
0.0
 11
19630.265650000001
 21
15119.259228000001
 31
0.0
  0
LINE
  5
4242
  8
2-0
  6
CONTINUOUS
 62
     3
 10
22892.75781100001
 20
19115.75962400002
 30
0.0
 11
22892.75781100001
 21
19230.75579700002
 31
0.0
  0
LINE
  5
4243
  8
2-0
  6
CENTER2
 62
     6
 10
18252.304950000002
 20
19188.257511999989
 30
0.0
 11
23742.75913100001
 21
19188.257511999989
 31
0.0
  0
LINE
  5
4244
  8
2-0
  6
CENTER2
 62
     6
 10
18252.304950000002
 20
16620.757511999989
 30
0.0
 11
23742.75913100001
 21
16620.757511999989
 31
0.0
  0
LINE
  5
4245
  8
2-0
  6
CENTER2
 62
     6
 10
18252.304950000002
 20
14053.257512
 30
0.0
 11
23742.75913100001
 21
14053.257512
 31
0.0
  0
LINE
  5
4246
  8
2-0
  6
CONTINUOUS
 62
     3
 10
19539.263222000001
 20
19145.759227999999
 30
0.0
 11
22811.755910999978
 21
19145.759227999999
 31
0.0
  0
LINE
  5
4247
  8
2-0
  6
CONTINUOUS
 62
     3
 10
19539.263222000001
 20
14135.795518999999
 30
0.0
 11
19539.263222000001
 21
14432.161881
 31
0.0
  0
LINE
  5
4248
  8
2-0
  6
CENTER2
 62
     6
 10
19581.759526999991
 20
20430.75579700002
 30
0.0
 11
19581.759526999991
 21
13427.494077999991
 31
0.0
  0
LINE
  5
4249
  8
2-0
  6
CENTER2
 62
     6
 10
22850.259527000009
 20
20430.75579700002
 30
0.0
 11
22850.259527000009
 21
13427.494077999991
 31
0.0
  0
LINE
  5
424A
  8
2-0
  6
CONTINUOUS
 62
     3
 10
22892.75781100001
 20
19105.462167999991
 30
0.0
 11
22892.75781100001
 21
18809.353637499989
 31
0.0
  0
LINE
  5
424B
  8
2-0
  6
CONTINUOUS
 62
     3
 10
19539.263222000001
 20
19105.462167999991
 30
0.0
 11
19539.263222000001
 21
18809.35363749996
 31
0.0
  0
LINE
  5
424C
  8
2-0
  6
CONTINUOUS
 62
     3
 10
19620.261162999999
 20
14095.755795999999
 30
0.0
 11
19620.261162999999
 21
19230.75579700002
 31
0.0
  0
LINE
  5
424D
  8
2-0
  6
CONTINUOUS
 62
     3
 10
22811.755910999978
 20
14095.755795999999
 30
0.0
 11
22811.755910999978
 21
19230.75579700002
 31
0.0
  0
CIRCLE
  5
424E
  8
2-0
  6
CONTINUOUS
 62
     4
 10
18052.30725999999
 20
19188.257511999989
 30
0.0
 40
200.00001
  0
CIRCLE
  5
424F
  8
2-0
  6
CONTINUOUS
 62
     4
 10
18052.30725999999
 20
16620.757511999989
 30
0.0
 40
200.00001
  0
CIRCLE
  5
4250
  8
2-0
  6
CONTINUOUS
 62
     4
 10
18052.30725999999
 20
14053.257512
 30
0.0
 40
200.00001
  0
CIRCLE
  5
4251
  8
2-0
  6
CONTINUOUS
 62
     4
 10
19581.759526999991
 20
20630.760416000008
 30
0.0
 40
200.00001
  0
TEXT
  5
4252
  8
2-0
  6
CONTINUOUS
 62
     7
 10
21247.104834000002
 20
13493.258634
 30
0.0
 40
160.0
  1
前柱（右）
 50
0.000213
 72
     4
 11
21663.104536593019
 21
13573.260180500791
 31
0.0
  0
TEXT
  5
4253
  8
2-0
  6
CONTINUOUS
 62
     7
 10
21263.804053000011
 20
17821.880678000001
 30
0.0
 40
160.0
  1
補強柱 後
 50
359.99984199999989
 72
     4
 11
21674.470940274728
 21
17901.879545536991
 31
0.0
  0
TEXT
  5
4254
  8
2-0
  6
CONTINUOUS
 62
     7
 10
21451.69995699999
 20
16071.250650000011
 30
0.0
 40
160.0
  1
壁パネル
 50
359.99982299999999
 72
     4
 11
21814.366870803551
 21
16151.24952963788
 31
0.0
  0
TEXT
  5
4255
  8
2-0
  6
CONTINUOUS
 62
     7
 10
21171.697052999989
 20
16908.438546000009
 30
0.0
 40
160.0
  1
中柱（左右）
 50
0.000354
 72
     4
 11
21689.029892046208
 21
16988.44174232466
 31
0.0
  0
TEXT
  5
4256
  8
2-0
  6
CONTINUOUS
 62
     7
 10
21851.699296999981
 20
14466.299899999991
 30
0.0
 40
160.0
  1
下枠
 50
0.001063
 72
     4
 11
22022.36447940928
 21
14546.30306633928
 31
0.0
  0
TEXT
  5
4257
  8
2-0
  6
CONTINUOUS
 62
     7
 10
21263.804052999982
 20
14904.12118900002
 30
0.0
 40
160.0
  1
補強柱 前
 50
359.99937
 72
     4
 11
21674.471599287768
 21
14984.116673479341
 31
0.0
  0
TEXT
  5
4258
  8
2-0
  6
CONTINUOUS
 62
     7
 10
21346.664721000019
 20
18511.707284499978
 30
0.0
 40
160.0
  1
間柱（側）
 72
     4
 11
21767.998054333351
 21
18591.707284499978
 31
0.0
  0
TEXT
  5
4259
  8
2-0
  6
CONTINUOUS
 62
     7
 10
23665.25504
 20
20040.755004999992
 30
0.0
 40
160.0
  1
後柱（左右）
 50
0.000354
 72
     4
 11
24177.254545712982
 21
20120.758168372831
 31
0.0
  0
TEXT
  5
425A
  8
2-0
  6
CONTINUOUS
 62
     7
 10
18004.307892999979
 20
19093.777070000011
 30
0.0
 40
160.0
  1
C
 72
     4
 11
18057.641226333311
 21
19173.777070000011
 31
0.0
  0
TEXT
  5
425B
  8
2-0
  6
CONTINUOUS
 62
     7
 10
18004.528609000001
 20
16550.363430000009
 30
0.0
 40
160.0
  1
B
 72
     4
 11
18057.861942333329
 21
16630.363430000009
 31
0.0
  0
TEXT
  5
425C
  8
2-0
  6
CONTINUOUS
 62
     7
 10
18004.571168999981
 20
13964.650301
 30
0.0
 40
160.0
  1
A
 72
     4
 11
18057.904502333309
 21
14044.650301
 31
0.0
  0
TEXT
  5
425D
  8
2-0
  6
CONTINUOUS
 62
     7
 10
19537.552917999968
 20
20541.992864000022
 30
0.0
 40
160.0
  1
1
 72
     4
 11
19564.21958466664
 21
20621.992864000022
 31
0.0
  0
LINE
  5
425E
  8
2-0
  6
CONTINUOUS
 62
     3
 10
22110.760107999991
 20
19230.75579700002
 30
0.0
 11
22073.758946000009
 21
19230.75579700002
 31
0.0
  0
LINE
  5
425F
  8
2-0
  6
CONTINUOUS
 62
     3
 10
22110.760107999991
 20
19200.752234
 30
0.0
 11
22110.760107999991
 21
19230.75579700002
 31
0.0
  0
LINE
  5
4260
  8
2-0
  6
CONTINUOUS
 62
     3
 10
22104.760186999989
 20
19200.752234
 30
0.0
 11
22110.760107999991
 21
19200.752234
 31
0.0
  0
LINE
  5
4261
  8
2-0
  6
CONTINUOUS
 62
     3
 10
22120.85763200001
 20
19200.752234
 30
0.0
 11
22120.85763200001
 21
19230.75579700002
 31
0.0
  0
LINE
  5
4262
  8
2-0
  6
CONTINUOUS
 62
     3
 10
22102.853911000009
 20
19200.752234
 30
0.0
 11
22120.85763200001
 21
19200.752234
 31
0.0
  0
LINE
  5
4263
  8
2-0
  6
CONTINUOUS
 62
     3
 10
22102.853911000009
 20
19225.761471000009
 30
0.0
 11
22102.853911000009
 21
19200.752234
 31
0.0
  0
LINE
  5
4264
  8
2-0
  6
CONTINUOUS
 62
     3
 10
22107.854175000011
 20
19225.761471000009
 30
0.0
 11
22102.853911000009
 21
19225.761471000009
 31
0.0
  0
LINE
  5
4265
  8
2-0
  6
CONTINUOUS
 62
     3
 10
22107.854175000011
 20
19218.755955000001
 30
0.0
 11
22107.854175000011
 21
19225.761471000009
 31
0.0
  0
LINE
  5
4266
  8
2-0
  6
CONTINUOUS
 62
     3
 10
22076.664879999989
 20
19218.755955000001
 30
0.0
 11
22076.664879999989
 21
19225.761471000009
 31
0.0
  0
LINE
  5
4267
  8
2-0
  6
CONTINUOUS
 62
     3
 10
22076.664879999989
 20
19225.761471000009
 30
0.0
 11
22081.66514400001
 21
19225.761471000009
 31
0.0
  0
LINE
  5
4268
  8
2-0
  6
CONTINUOUS
 62
     3
 10
22081.66514400001
 20
19225.761471000009
 30
0.0
 11
22081.66514400001
 21
19200.752234
 31
0.0
  0
LINE
  5
4269
  8
2-0
  6
CONTINUOUS
 62
     3
 10
22081.66514400001
 20
19200.752234
 30
0.0
 11
22063.66538100001
 21
19200.752234
 31
0.0
  0
LINE
  5
426A
  8
2-0
  6
CONTINUOUS
 62
     3
 10
22063.66538100001
 20
19200.752234
 30
0.0
 11
22063.66538100001
 21
19230.75579700002
 31
0.0
  0
LINE
  5
426B
  8
2-0
  6
CONTINUOUS
 62
     3
 10
22079.758867
 20
19200.752234
 30
0.0
 11
22073.758946000009
 21
19200.752234
 31
0.0
  0
LINE
  5
426C
  8
2-0
  6
CONTINUOUS
 62
     3
 10
22073.758946000009
 20
19200.752234
 30
0.0
 11
22073.758946000009
 21
19230.75579700002
 31
0.0
  0
LINE
  5
426D
  8
2-0
  6
CONTINUOUS
 62
     3
 10
20705.849225499998
 20
19218.755955000001
 30
0.0
 11
20705.849225499998
 21
19225.761471000009
 31
0.0
  0
LINE
  5
426E
  8
2-0
  6
CONTINUOUS
 62
     3
 10
20705.849225499998
 20
19225.761471000009
 30
0.0
 11
20700.8489615
 21
19225.761471000009
 31
0.0
  0
LINE
  5
426F
  8
2-0
  6
CONTINUOUS
 62
     3
 10
20700.8489615
 20
19225.761471000009
 30
0.0
 11
20700.8489615
 21
19200.752234
 31
0.0
  0
LINE
  5
4270
  8
2-0
  6
CONTINUOUS
 62
     3
 10
20700.8489615
 20
19200.752234
 30
0.0
 11
20718.854662500002
 21
19200.752234
 31
0.0
  0
LINE
  5
4271
  8
2-0
  6
CONTINUOUS
 62
     3
 10
20718.854662500002
 20
19200.752234
 30
0.0
 11
20718.854662500002
 21
19230.75579700002
 31
0.0
  0
LINE
  5
4272
  8
2-0
  6
CONTINUOUS
 62
     3
 10
20702.757217499991
 20
19200.752234
 30
0.0
 11
20708.759117500002
 21
19200.752234
 31
0.0
  0
LINE
  5
4273
  8
2-0
  6
CONTINUOUS
 62
     3
 10
20708.759117500002
 20
19200.752234
 30
0.0
 11
20708.759117500002
 21
19230.75579700002
 31
0.0
  0
LINE
  5
4274
  8
2-0
  6
CONTINUOUS
 62
     3
 10
20671.759936499991
 20
19230.75579700002
 30
0.0
 11
20708.759117500002
 21
19230.75579700002
 31
0.0
  0
LINE
  5
4275
  8
2-0
  6
CONTINUOUS
 62
     3
 10
20671.759936499991
 20
19200.752234
 30
0.0
 11
20671.759936499991
 21
19230.75579700002
 31
0.0
  0
LINE
  5
4276
  8
2-0
  6
CONTINUOUS
 62
     3
 10
20677.753918499999
 20
19200.752234
 30
0.0
 11
20671.759936499991
 21
19200.752234
 31
0.0
  0
LINE
  5
4277
  8
2-0
  6
CONTINUOUS
 62
     3
 10
20661.66439150001
 20
19200.752234
 30
0.0
 11
20661.66439150001
 21
19230.75579700002
 31
0.0
  0
LINE
  5
4278
  8
2-0
  6
CONTINUOUS
 62
     3
 10
20679.6601945
 20
19200.752234
 30
0.0
 11
20661.66439150001
 21
19200.752234
 31
0.0
  0
LINE
  5
4279
  8
2-0
  6
CONTINUOUS
 62
     3
 10
20679.6601945
 20
19225.761471000009
 30
0.0
 11
20679.6601945
 21
19200.752234
 31
0.0
  0
LINE
  5
427A
  8
2-0
  6
CONTINUOUS
 62
     3
 10
20674.659930500009
 20
19225.761471000009
 30
0.0
 11
20679.6601945
 21
19225.761471000009
 31
0.0
  0
LINE
  5
427B
  8
2-0
  6
CONTINUOUS
 62
     3
 10
20674.659930500009
 20
19218.755955000001
 30
0.0
 11
20674.659930500009
 21
19225.761471000009
 31
0.0
  0
LINE
  5
427C
  8
2-0
  6
CONTINUOUS
 62
     3
 10
21375.658941500002
 20
19218.755955000001
 30
0.0
 11
21375.658941500002
 21
19225.761471000009
 31
0.0
  0
LINE
  5
427D
  8
2-0
  6
CONTINUOUS
 62
     3
 10
21375.658941500002
 20
19225.761471000009
 30
0.0
 11
21380.6592045
 21
19225.761471000009
 31
0.0
  0
LINE
  5
427E
  8
2-0
  6
CONTINUOUS
 62
     3
 10
21380.6592045
 20
19225.761471000009
 30
0.0
 11
21380.6592045
 21
19200.752234
 31
0.0
  0
LINE
  5
427F
  8
2-0
  6
CONTINUOUS
 62
     3
 10
21380.6592045
 20
19200.752234
 30
0.0
 11
21362.665381499999
 21
19200.752234
 31
0.0
  0
LINE
  5
4280
  8
2-0
  6
CONTINUOUS
 62
     3
 10
21362.665381499999
 20
19200.752234
 30
0.0
 11
21362.665381499999
 21
19230.75579700002
 31
0.0
  0
LINE
  5
4281
  8
2-0
  6
CONTINUOUS
 62
     3
 10
21378.756887499989
 20
19200.752234
 30
0.0
 11
21372.758946499998
 21
19200.752234
 31
0.0
  0
LINE
  5
4282
  8
2-0
  6
CONTINUOUS
 62
     3
 10
21372.758946499998
 20
19200.752234
 30
0.0
 11
21372.758946499998
 21
19230.75579700002
 31
0.0
  0
LINE
  5
4283
  8
2-0
  6
CONTINUOUS
 62
     3
 10
21409.760107499998
 20
19230.75579700002
 30
0.0
 11
21372.758946499998
 21
19230.75579700002
 31
0.0
  0
LINE
  5
4284
  8
2-0
  6
CONTINUOUS
 62
     3
 10
21409.760107499998
 20
19200.752234
 30
0.0
 11
21409.760107499998
 21
19230.75579700002
 31
0.0
  0
LINE
  5
4285
  8
2-0
  6
CONTINUOUS
 62
     3
 10
21403.754248500009
 20
19200.752234
 30
0.0
 11
21409.760107499998
 21
19200.752234
 31
0.0
  0
LINE
  5
4286
  8
2-0
  6
CONTINUOUS
 62
     3
 10
21419.853672500009
 20
19200.752234
 30
0.0
 11
21419.853672500009
 21
19230.75579700002
 31
0.0
  0
LINE
  5
4287
  8
2-0
  6
CONTINUOUS
 62
     3
 10
21401.8578695
 20
19200.752234
 30
0.0
 11
21419.853672500009
 21
19200.752234
 31
0.0
  0
LINE
  5
4288
  8
2-0
  6
CONTINUOUS
 62
     3
 10
21401.8578695
 20
19225.761471000009
 30
0.0
 11
21401.8578695
 21
19200.752234
 31
0.0
  0
LINE
  5
4289
  8
2-0
  6
CONTINUOUS
 62
     3
 10
21406.848235500001
 20
19225.761471000009
 30
0.0
 11
21401.8578695
 21
19225.761471000009
 31
0.0
  0
LINE
  5
428A
  8
2-0
  6
CONTINUOUS
 62
     3
 10
21406.848235500001
 20
19218.755955000001
 30
0.0
 11
21406.848235500001
 21
19225.761471000009
 31
0.0
  0
LINE
  5
428B
  8
2-0
  6
CONTINUOUS
 62
     3
 10
20718.854662500002
 20
19230.75579700002
 30
0.0
 11
21362.665381499999
 21
19230.75579700002
 31
0.0
  0
LINE
  5
428C
  8
2-0
  6
CONTINUOUS
 62
     3
 10
20018.05855300001
 20
19230.75579700002
 30
0.0
 11
20661.66439150001
 21
19230.75579700002
 31
0.0
  0
LINE
  5
428D
  8
2-0
  6
CONTINUOUS
 62
     3
 10
22768.14315700001
 20
19230.75579700002
 30
0.0
 11
22120.85763200001
 21
19230.75579700002
 31
0.0
  0
LINE
  5
428E
  8
2-0
  6
CONTINUOUS
 62
     3
 10
22063.66538100001
 20
19230.75579700002
 30
0.0
 11
21419.853672500009
 21
19230.75579700002
 31
0.0
  0
LINE
  5
428F
  8
2-0
  6
CONTINUOUS
 62
     3
 10
20004.851204999999
 20
19218.755955000001
 30
0.0
 11
20004.851204999999
 21
19225.761471000009
 31
0.0
  0
LINE
  5
4290
  8
2-0
  6
CONTINUOUS
 62
     3
 10
20004.851204999999
 20
19225.761471000009
 30
0.0
 11
19999.850941000001
 21
19225.761471000009
 31
0.0
  0
LINE
  5
4291
  8
2-0
  6
CONTINUOUS
 62
     3
 10
19999.850941000001
 20
19225.761471000009
 30
0.0
 11
19999.850941000001
 21
19200.752234
 31
0.0
  0
LINE
  5
4292
  8
2-0
  6
CONTINUOUS
 62
     3
 10
19999.850941000001
 20
19200.752234
 30
0.0
 11
20017.852683000001
 21
19200.752234
 31
0.0
  0
LINE
  5
4293
  8
2-0
  6
CONTINUOUS
 62
     3
 10
20017.852683000001
 20
19200.752234
 30
0.0
 11
20017.852683000001
 21
19230.75579700002
 31
0.0
  0
LINE
  5
4294
  8
2-0
  6
CONTINUOUS
 62
     3
 10
20001.753258000019
 20
19200.752234
 30
0.0
 11
20007.757138000001
 21
19200.752234
 31
0.0
  0
LINE
  5
4295
  8
2-0
  6
CONTINUOUS
 62
     3
 10
20007.757138000001
 20
19200.752234
 30
0.0
 11
20007.757138000001
 21
19230.75579700002
 31
0.0
  0
LINE
  5
4296
  8
2-0
  6
CONTINUOUS
 62
     3
 10
19970.761915999989
 20
19230.75579700002
 30
0.0
 11
20007.757138000001
 21
19230.75579700002
 31
0.0
  0
LINE
  5
4297
  8
2-0
  6
CONTINUOUS
 62
     3
 10
19970.761915999989
 20
19200.752234
 30
0.0
 11
19970.761915999989
 21
19230.75579700002
 31
0.0
  0
LINE
  5
4298
  8
2-0
  6
CONTINUOUS
 62
     3
 10
19976.75589800001
 20
19200.752234
 30
0.0
 11
19970.761915999989
 21
19200.752234
 31
0.0
  0
LINE
  5
4299
  8
2-0
  6
CONTINUOUS
 62
     3
 10
19960.666370999999
 20
19200.752234
 30
0.0
 11
19960.666370999999
 21
19230.75579700002
 31
0.0
  0
LINE
  5
429A
  8
2-0
  6
CONTINUOUS
 62
     3
 10
19978.662174000001
 20
19200.752234
 30
0.0
 11
19960.666370999999
 21
19200.752234
 31
0.0
  0
LINE
  5
429B
  8
2-0
  6
CONTINUOUS
 62
     3
 10
19978.662174000001
 20
19225.761471000009
 30
0.0
 11
19978.662174000001
 21
19200.752234
 31
0.0
  0
LINE
  5
429C
  8
2-0
  6
CONTINUOUS
 62
     3
 10
19973.663890000022
 20
19225.761471000009
 30
0.0
 11
19978.662174000001
 21
19225.761471000009
 31
0.0
  0
LINE
  5
429D
  8
2-0
  6
CONTINUOUS
 62
     3
 10
19973.663890000022
 20
19218.755955000001
 30
0.0
 11
19973.663890000022
 21
19225.761471000009
 31
0.0
  0
LINE
  5
429E
  8
2-0
  6
CONTINUOUS
 62
     3
 10
19664.56476899999
 20
19230.75579700002
 30
0.0
 11
19960.666370999999
 21
19230.75579700002
 31
0.0
  0
LINE
  5
429F
  8
2-0
  6
CONTINUOUS
 62
     3
 10
22892.75781100001
 20
15133.396949000011
 30
0.0
 11
22892.75781100001
 21
14489.358091
 31
0.0
  0
LINE
  5
42A0
  8
2-0
  6
CONTINUOUS
 62
     3
 10
22892.75781100001
 20
14432.161881
 30
0.0
 11
22892.75781100001
 21
14135.795518999999
 31
0.0
  0
CIRCLE
  5
42A1
  8
2-0
  6
CONTINUOUS
 62
     4
 10
22850.259527000009
 20
20630.760416000008
 30
0.0
 40
200.00001
  0
TEXT
  5
42A2
  8
2-0
  6
CONTINUOUS
 62
     7
 10
22798.627744000009
 20
20535.234787000009
 30
0.0
 40
160.0
  1
2
 72
     4
 11
22851.961077333341
 21
20615.234787000009
 31
0.0
  0
LINE
  5
42A3
  8
0-6
  6
CONTINUOUS
 62
     6
 10
19933.083785499999
 20
18519.437569000002
 30
0.0
 11
20958.124035500001
 21
18519.437569000002
 31
0.0
  0
LINE
  5
42A4
  8
0-6
  6
CONTINUOUS
 62
     6
 10
21258.048813500009
 20
19076.790821000021
 30
0.0
 11
21362.66439150001
 21
19200.752234
 31
0.0
  0
LINE
  5
42A5
  8
0-6
  6
CONTINUOUS
 62
     6
 10
21362.66439150001
 20
19200.752234
 30
0.0
 11
21303.906341499998
 21
19049.56056400001
 31
0.0
  0
LINE
  5
42A6
  8
0-6
  6
CONTINUOUS
 62
     6
 10
21362.66439150001
 20
19200.752234
 30
0.0
 11
21258.048813500009
 21
19076.790821000021
 31
0.0
  0
LINE
  5
42A7
  8
0-6
  6
CONTINUOUS
 62
     6
 10
21258.048813500009
 20
19076.790821000021
 30
0.0
 11
21303.906341499998
 21
19049.56056400001
 31
0.0
  0
LINE
  5
42A8
  8
0-6
  6
CONTINUOUS
 62
     6
 10
21303.906341499998
 20
19049.56056400001
 30
0.0
 11
21362.66439150001
 21
19200.752234
 31
0.0
  0
LINE
  5
42A9
  8
0-6
  6
CONTINUOUS
 62
     6
 10
21303.906341499998
 20
19049.56056400001
 30
0.0
 11
21258.048813500009
 21
19076.790821000021
 31
0.0
  0
LINE
  5
42AA
  8
0-6
  6
CONTINUOUS
 62
     6
 10
21280.977577500002
 20
19063.177672000009
 30
0.0
 11
20958.124035500001
 21
18519.437569000002
 31
0.0
  0
TEXT
  5
42AB
  8
0-6
  6
CONTINUOUS
 62
     7
 10
20013.084049500008
 20
18599.439813000001
 30
0.0
 40
160.0
  1
間柱（後）
 72
     4
 11
20434.417382833341
 21
18679.439813000001
 31
0.0
  0
LINE
  5
42AC
  8
0-1
  6
CONTINUOUS
 62
     3
 10
10474.25846100001
 20
18546.667826000001
 30
0.0
 11
10474.25846100001
 21
19390.753421000001
 31
0.0
  0
LINE
  5
42AD
  8
0-1
  6
CONTINUOUS
 62
     3
 10
10437.25730000001
 20
18572.126414999992
 30
0.0
 11
10437.25730000001
 21
19390.75342099999
 31
0.0
  0
LINE
  5
42AE
  8
0-1
  6
CONTINUOUS
 62
     3
 10
9926.7572739999996
 20
16654.755743000002
 30
0.0
 11
13195.257274
 21
16654.755743000002
 31
0.0
  0
LINE
  5
42AF
  8
0-1
  6
CONTINUOUS
 62
     3
 10
13145.256653
 20
13892.757155999991
 30
0.0
 11
13145.256653
 21
19390.753421000001
 31
0.0
  0
LINE
  5
42B0
  8
0-1
  6
CONTINUOUS
 62
     3
 10
9976.7578940000094
 20
13892.757155999991
 30
0.0
 11
9976.7578940000094
 21
19390.753421000001
 31
0.0
  0
LINE
  5
42B1
  8
0-1
  6
CONTINUOUS
 62
     3
 10
9841.258857000008
 20
13860.756259
 30
0.0
 11
9841.258857000008
 21
19400.758830999981
 31
0.0
  0
LINE
  5
42B2
  8
0-1
  6
CONTINUOUS
 62
     3
 10
13280.757670000001
 20
13860.756259
 30
0.0
 11
13280.757670000001
 21
19400.758830999981
 31
0.0
  0
LINE
  5
42B3
  8
0-1
  6
CONTINUOUS
 62
     3
 10
10035.258646
 20
18848.74236199999
 30
0.0
 11
10035.258646
 21
19390.753421000001
 31
0.0
  0
LINE
  5
42B4
  8
0-1
  6
CONTINUOUS
 62
     3
 10
10072.25683800001
 20
18823.281793999991
 30
0.0
 11
10072.25683800001
 21
19390.753421000001
 31
0.0
  0
LINE
  5
42B5
  8
0-1
  6
CONTINUOUS
 62
     3
 10
10235.25732600001
 20
18711.122270999989
 30
0.0
 11
10235.25732600001
 21
19390.753421000001
 31
0.0
  0
LINE
  5
42B6
  8
0-1
  6
CONTINUOUS
 62
     3
 10
10272.25848800001
 20
18685.659723999979
 30
0.0
 11
10272.25848800001
 21
19390.75342099999
 31
0.0
  0
LINE
  5
42B7
  8
0-1
  6
CONTINUOUS
 62
     3
 10
10637.25795999999
 20
18434.506323999991
 30
0.0
 11
10637.25795999999
 21
19390.753421000001
 31
0.0
  0
LINE
  5
42B8
  8
0-1
  6
CONTINUOUS
 62
     3
 10
10674.257142
 20
18409.05169499998
 30
0.0
 11
10674.257142
 21
19390.753421000001
 31
0.0
  0
LINE
  5
42B9
  8
0-1
  6
CONTINUOUS
 62
     3
 10
10837.258620000001
 20
18292.387500000001
 30
0.0
 11
10837.258620000001
 21
19390.75342099999
 31
0.0
  0
LINE
  5
42BA
  8
0-1
  6
CONTINUOUS
 62
     3
 10
10874.256812000011
 20
18266.928911999999
 30
0.0
 11
10874.256812000011
 21
19390.753421000001
 31
0.0
  0
LINE
  5
42BB
  8
0-1
  6
CONTINUOUS
 62
     3
 10
11205.933068
 20
18038.704276
 30
0.0
 11
11350.976354
 21
18242.327454999991
 31
0.0
  0
LINE
  5
42BC
  8
0-1
  6
CONTINUOUS
 62
     3
 10
11875.388437000011
 20
17259.416585999981
 30
0.0
 11
12020.43073200001
 21
17463.03778499999
 31
0.0
  0
LINE
  5
42BD
  8
0-1
  6
CONTINUOUS
 62
     3
 10
11875.388437000011
 20
17259.416585999981
 30
0.0
 11
11350.976354
 21
18242.327454999991
 31
0.0
  0
LINE
  5
42BE
  8
0-1
  6
CONTINUOUS
 62
     3
 10
9926.7572739999996
 20
16575.755136
 30
0.0
 11
13195.257274
 21
16575.755136
 31
0.0
  0
LINE
  5
42BF
  8
0-1
  6
CONTINUOUS
 62
     3
 10
9884.2570100000084
 20
14016.75716899999
 30
0.0
 11
13237.75654799999
 21
14016.75716899999
 31
0.0
  0
LINE
  5
42C0
  8
0-1
  6
CONTINUOUS
 62
     3
 10
9926.7572739999996
 20
14095.75777599998
 30
0.0
 11
13195.257274
 21
14095.75777599998
 31
0.0
  0
LINE
  5
42C1
  8
0-1
  6
CONTINUOUS
 62
     3
 10
9841.258857000008
 20
13860.756259
 30
0.0
 11
13280.757670000001
 21
13860.756259
 31
0.0
  0
LINE
  5
42C2
  8
0-1
  6
CONTINUOUS
 62
     3
 10
9841.258857000008
 20
13892.757155999991
 30
0.0
 11
13280.757670000001
 21
13892.757155999991
 31
0.0
  0
LINE
  5
42C3
  8
0-1
  6
CONTINUOUS
 62
     3
 10
13195.257274
 20
14016.75716899999
 30
0.0
 11
13195.257274
 21
16652.370423
 31
0.0
  0
LINE
  5
42C4
  8
0-1
  6
CONTINUOUS
 62
     3
 10
13237.75654799999
 20
14016.75716899999
 30
0.0
 11
13237.75654799999
 21
16623.126994999991
 31
0.0
  0
LINE
  5
42C5
  8
0-1
  6
CONTINUOUS
 62
     3
 10
13552.08727299999
 20
16406.840835999999
 30
0.0
 11
12020.43073200001
 21
17463.03778499999
 31
0.0
  0
LINE
  5
42C6
  8
0-1
  6
CONTINUOUS
 62
     3
 10
9926.7572739999996
 20
14016.75716899999
 30
0.0
 11
9926.7572739999996
 21
18923.39792599998
 31
0.0
  0
LINE
  5
42C7
  8
0-1
  6
CONTINUOUS
 62
     3
 10
9884.2570100000084
 20
14016.75716899999
 30
0.0
 11
9884.2570100000084
 21
18953.086745000001
 31
0.0
  0
LINE
  5
42C8
  8
0-1
  6
CONTINUOUS
 62
     3
 10
11037.25730000001
 20
18154.767408999989
 30
0.0
 11
11037.25730000001
 21
19390.753421000001
 31
0.0
  0
LINE
  5
42C9
  8
0-1
  6
CONTINUOUS
 62
     3
 10
11074.25846100001
 20
18129.308820999991
 30
0.0
 11
11074.25846100001
 21
19390.75342099999
 31
0.0
  0
LINE
  5
42CA
  8
0-1
  6
CONTINUOUS
 62
     3
 10
11237.257960000001
 20
18082.677301999978
 30
0.0
 11
11237.257960000001
 21
19390.75342099999
 31
0.0
  0
LINE
  5
42CB
  8
0-1
  6
CONTINUOUS
 62
     3
 10
11637.25730000001
 20
17707.791400999991
 30
0.0
 11
11637.25730000001
 21
19390.753421000001
 31
0.0
  0
LINE
  5
42CC
  8
0-1
  6
CONTINUOUS
 62
     3
 10
11674.25846100001
 20
17638.126203999989
 30
0.0
 11
11674.25846100001
 21
19390.753421000001
 31
0.0
  0
LINE
  5
42CD
  8
0-1
  6
CONTINUOUS
 62
     3
 10
11837.257960000001
 20
17331.209765999989
 30
0.0
 11
11837.257960000001
 21
19390.753421000001
 31
0.0
  0
LINE
  5
42CE
  8
0-1
  6
CONTINUOUS
 62
     3
 10
11874.256152
 20
17261.54456799999
 30
0.0
 11
11874.256152
 21
19390.753421000001
 31
0.0
  0
LINE
  5
42CF
  8
0-1
  6
CONTINUOUS
 62
     3
 10
12037.25960999999
 20
17451.459580999981
 30
0.0
 11
12037.25960999999
 21
19390.75342099999
 31
0.0
  0
LINE
  5
42D0
  8
0-1
  6
CONTINUOUS
 62
     3
 10
12074.25780199998
 20
17426.002971999991
 30
0.0
 11
12074.25780199998
 21
19390.753421000001
 31
0.0
  0
LINE
  5
42D1
  8
0-1
  6
CONTINUOUS
 62
     3
 10
12237.25730000001
 20
17313.843448999989
 30
0.0
 11
12237.25730000001
 21
19390.753421000001
 31
0.0
  0
LINE
  5
42D2
  8
0-1
  6
CONTINUOUS
 62
     3
 10
12274.25846100001
 20
17288.38288099999
 30
0.0
 11
12274.25846100001
 21
19390.753421000001
 31
0.0
  0
LINE
  5
42D3
  8
0-1
  6
CONTINUOUS
 62
     3
 10
12437.257960000001
 20
17176.223357999981
 30
0.0
 11
12437.257960000001
 21
19390.753421000001
 31
0.0
  0
LINE
  5
42D4
  8
0-1
  6
CONTINUOUS
 62
     3
 10
12474.256152
 20
17150.76278999999
 30
0.0
 11
12474.256152
 21
19390.753421000001
 31
0.0
  0
LINE
  5
42D5
  8
0-1
  6
CONTINUOUS
 62
     3
 10
12637.25763
 20
17038.607226999979
 30
0.0
 11
12637.25763
 21
19390.753421000001
 31
0.0
  0
LINE
  5
42D6
  8
0-1
  6
CONTINUOUS
 62
     3
 10
12674.25780199998
 20
17013.146658999991
 30
0.0
 11
12674.25780199998
 21
19390.753421000001
 31
0.0
  0
LINE
  5
42D7
  8
0-1
  6
CONTINUOUS
 62
     3
 10
12837.25730000001
 20
16891.484391000002
 30
0.0
 11
12837.25730000001
 21
19390.753421000001
 31
0.0
  0
LINE
  5
42D8
  8
0-1
  6
CONTINUOUS
 62
     3
 10
12874.258460999999
 20
16866.023823
 30
0.0
 11
12874.258460999999
 21
19390.753421000001
 31
0.0
  0
LINE
  5
42D9
  8
0-1
  6
CONTINUOUS
 62
     3
 10
13047.757406000001
 20
16753.864300000001
 30
0.0
 11
13047.757406000001
 21
19390.75342099999
 31
0.0
  0
LINE
  5
42DA
  8
0-1
  6
CONTINUOUS
 62
     3
 10
13084.755597999991
 20
16728.407691
 30
0.0
 11
13084.755597999991
 21
19390.75342099999
 31
0.0
  0
LINE
  5
42DB
  8
0-1
  6
CONTINUOUS
 62
     3
 10
11274.258131000001
 20
18134.619868999991
 30
0.0
 11
11274.258131000001
 21
19390.75342099999
 31
0.0
  0
LINE
  5
42DC
  8
0-1
  6
CONTINUOUS
 62
     3
 10
11437.25961000001
 20
18079.866385000001
 30
0.0
 11
11437.25961000001
 21
19390.753421000001
 31
0.0
  0
LINE
  5
42DD
  8
0-1
  6
CONTINUOUS
 62
     3
 10
11474.257802
 20
18010.201187999992
 30
0.0
 11
11474.257802
 21
19390.753421000001
 31
0.0
  0
LINE
  5
42DE
  8
0-1
  6
CONTINUOUS
 62
     3
 10
11205.933068
 20
18038.704276
 30
0.0
 11
9590.5498989999996
 21
19154.738323999991
 31
0.0
  0
LINE
  5
42DF
  8
0-1
  6
CONTINUOUS
 62
     3
 10
9926.7572739999996
 20
15130.99777250001
 30
0.0
 11
13195.257274
 21
15130.99777250001
 31
0.0
  0
LINE
  5
42E0
  8
0-1
  6
CONTINUOUS
 62
     3
 10
9926.7572739999996
 20
15192.99827350001
 30
0.0
 11
13195.257274
 21
15192.99827350001
 31
0.0
  0
LINE
  5
42E1
  8
0-1
  6
CONTINUOUS
 62
     3
 10
9926.7572739999996
 20
18110.754792999989
 30
0.0
 11
11101.221484000011
 21
18110.754792999989
 31
0.0
  0
LINE
  5
42E2
  8
0-1
  6
CONTINUOUS
 62
     3
 10
9926.7572739999996
 20
18048.756270999991
 30
0.0
 11
11191.325210999999
 21
18048.756270999991
 31
0.0
  0
LINE
  5
42E3
  8
0-1
  6
CONTINUOUS
 62
     3
 10
9996.7570100000103
 20
18079.757511999978
 30
0.0
 11
13125.257538
 21
16620.757511999989
 31
0.0
  0
LINE
  5
42E4
  8
0-1
  6
CONTINUOUS
 62
     3
 10
9996.7570100000103
 20
16620.757511999989
 30
0.0
 11
13125.257538
 21
15161.99802350002
 31
0.0
  0
LINE
  5
42E5
  8
0-1
  6
CONTINUOUS
 62
     3
 10
13125.257538
 20
15161.99802350002
 30
0.0
 11
9996.7570100000103
 21
14053.257512
 31
0.0
  0
LINE
  5
42E6
  8
0-1
  6
CONTINUOUS
 62
     3
 10
13125.257538
 20
16620.757511999989
 30
0.0
 11
9996.7570100000103
 21
15161.99802350002
 31
0.0
  0
LINE
  5
42E7
  8
0-1
  6
CONTINUOUS
 62
     3
 10
9996.7570100000103
 20
15161.99802350002
 30
0.0
 11
13125.257538
 21
14053.257512
 31
0.0
  0
LINE
  5
42E8
  8
0-1
  6
CONTINUOUS
 62
     3
 10
11770.292826000001
 20
17457.301139999981
 30
0.0
 11
9996.7570100000103
 21
16620.757511999989
 31
0.0
  0
LINE
  5
42E9
  8
0-1
  6
CONTINUOUS
 62
     3
 10
10755.727198
 20
18348.487056999991
 30
0.0
 11
9996.7570100000103
 21
18079.757511999978
 31
0.0
  0
LINE
  5
42EA
  8
0-1
  6
CONTINUOUS
 62
     3
 10
11213.092987000011
 20
18048.756270999991
 30
0.0
 11
11453.78067200001
 21
18048.756270999991
 31
0.0
  0
LINE
  5
42EB
  8
0-1
  6
CONTINUOUS
 62
     3
 10
11257.25703600001
 20
18110.754792999989
 30
0.0
 11
11420.855339000011
 21
18110.754792999989
 31
0.0
  0
LINE
  5
42EC
  8
0-1
  6
CONTINUOUS
 62
     3
 10
9859.2586199999987
 20
18967.778731999981
 30
0.0
 11
9859.2586199999987
 21
19393.260415000001
 31
0.0
  0
LINE
  5
42ED
  8
0-1
  6
CONTINUOUS
 62
     3
 10
13262.756916999981
 20
16607.98961700001
 30
0.0
 11
13262.756916999981
 21
19393.260415000001
 31
0.0
  0
LINE
  5
42EE
  8
0-1
  6
CONTINUOUS
 62
     3
 10
9859.2586199999987
 20
19370.761206999981
 30
0.0
 11
9909.7581180000125
 21
19370.761206999981
 31
0.0
  0
LINE
  5
42EF
  8
0-1
  6
CONTINUOUS
 62
     3
 10
9859.2586199999987
 20
19393.260415000001
 30
0.0
 11
9841.258857000008
 21
19393.260415000001
 31
0.0
  0
LINE
  5
42F0
  8
0-1
  6
CONTINUOUS
 62
     3
 10
9909.7581180000125
 20
19410.759358999981
 30
0.0
 11
9846.2571420000058
 21
19410.759358999981
 31
0.0
  0
LINE
  5
42F1
  8
0-1
  6
CONTINUOUS
 62
     3
 10
9841.258857000008
 20
19405.759095000001
 30
0.0
 11
9841.258857000008
 21
19370.761206999981
 31
0.0
  0
LINE
  5
42F2
  8
0-1
  6
CONTINUOUS
 62
     3
 10
9914.7583819999963
 20
19375.755531999981
 30
0.0
 11
9914.7583819999963
 21
19405.759095000001
 31
0.0
  0
LINE
  5
42F3
  8
0-1
  6
CONTINUOUS
 62
     3
 10
9917.7583819999963
 20
19390.753421000001
 30
0.0
 11
13207.258144999991
 21
19390.753421000001
 31
0.0
  0
LINE
  5
42F4
  8
0-1
  6
CONTINUOUS
 62
     3
 10
13212.255439
 20
19410.759358999981
 30
0.0
 11
13275.757406000001
 21
19410.759358999981
 31
0.0
  0
LINE
  5
42F5
  8
0-1
  6
CONTINUOUS
 62
     3
 10
13262.756916999981
 20
19370.761206999981
 30
0.0
 11
13212.255439
 21
19370.761206999981
 31
0.0
  0
LINE
  5
42F6
  8
0-1
  6
CONTINUOUS
 62
     3
 10
13207.258144999991
 20
19375.755531999981
 30
0.0
 11
13207.258144999991
 21
19405.759095000001
 31
0.0
  0
LINE
  5
42F7
  8
0-1
  6
CONTINUOUS
 62
     3
 10
13280.757670000001
 20
19405.759095000001
 30
0.0
 11
13280.757670000001
 21
19370.761206999981
 31
0.0
  0
LINE
  5
42F8
  8
0-1
  6
CONTINUOUS
 62
     3
 10
13262.756916999981
 20
19393.260415000001
 30
0.0
 11
13280.757670000001
 21
19393.260415000001
 31
0.0
  0
LINE
  5
42F9
  8
0-6
  6
CONTINUOUS
 62
     6
 10
11512.643636000001
 20
19128.481988999989
 30
0.0
 11
11656.547709
 21
19640.757644000001
 31
0.0
  0
LINE
  5
42FA
  8
0-6
  6
CONTINUOUS
 62
     6
 10
11486.75648200001
 20
19134.881773000001
 30
0.0
 11
11474.257802
 21
18973.15312499999
 31
0.0
  0
LINE
  5
42FB
  8
0-6
  6
CONTINUOUS
 62
     6
 10
11474.257802
 20
18973.15312499999
 30
0.0
 11
11538.53376
 21
19122.086165000001
 31
0.0
  0
LINE
  5
42FC
  8
0-6
  6
CONTINUOUS
 62
     6
 10
11474.257802
 20
18973.15312499999
 30
0.0
 11
11486.75648200001
 21
19134.881773000001
 31
0.0
  0
LINE
  5
42FD
  8
0-6
  6
CONTINUOUS
 62
     6
 10
11486.75648200001
 20
19134.881773000001
 30
0.0
 11
11538.53376
 21
19122.086165000001
 31
0.0
  0
LINE
  5
42FE
  8
0-6
  6
CONTINUOUS
 62
     6
 10
11538.53376
 20
19122.086165000001
 30
0.0
 11
11474.257802
 21
18973.15312499999
 31
0.0
  0
LINE
  5
42FF
  8
0-6
  6
CONTINUOUS
 62
     6
 10
11538.53376
 20
19122.086165000001
 30
0.0
 11
11486.75648200001
 21
19134.881773000001
 31
0.0
  0
LINE
  5
4300
  8
0-6
  6
CONTINUOUS
 62
     6
 10
11656.547709
 20
19640.757644000001
 30
0.0
 11
12208.355339000011
 21
19640.757644000001
 31
0.0
  0
LINE
  5
4301
  8
0-6
  6
CONTINUOUS
 62
     6
 10
10016.57397000001
 20
17453.743944999991
 30
0.0
 11
9926.7572739999996
 21
17588.816395999991
 31
0.0
  0
LINE
  5
4302
  8
0-6
  6
CONTINUOUS
 62
     6
 10
9926.7572739999996
 20
17588.816395999991
 30
0.0
 11
9967.9114650000083
 21
17431.91579399999
 31
0.0
  0
LINE
  5
4303
  8
0-6
  6
CONTINUOUS
 62
     6
 10
9926.7572739999996
 20
17588.816395999991
 30
0.0
 11
10016.57397000001
 21
17453.743944999991
 31
0.0
  0
LINE
  5
4304
  8
0-6
  6
CONTINUOUS
 62
     6
 10
10016.57397000001
 20
17453.743944999991
 30
0.0
 11
9967.9114650000083
 21
17431.91579399999
 31
0.0
  0
LINE
  5
4305
  8
0-6
  6
CONTINUOUS
 62
     6
 10
9967.9114650000083
 20
17431.91579399999
 30
0.0
 11
9926.7572739999996
 21
17588.816395999991
 31
0.0
  0
LINE
  5
4306
  8
0-6
  6
CONTINUOUS
 62
     6
 10
9967.9114650000083
 20
17431.91579399999
 30
0.0
 11
10016.57397000001
 21
17453.743944999991
 31
0.0
  0
LINE
  5
4307
  8
0-6
  6
CONTINUOUS
 62
     6
 10
10091.28496100001
 20
17222.039315999991
 30
0.0
 11
10611.28469699999
 21
17222.039315999991
 31
0.0
  0
LINE
  5
4308
  8
0-6
  6
CONTINUOUS
 62
     6
 10
11077.140640000011
 20
14247.646237000001
 30
0.0
 11
11136.061011000011
 21
14373.42682699999
 31
0.0
  0
LINE
  5
4309
  8
0-6
  6
CONTINUOUS
 62
     6
 10
11136.061011000011
 20
14373.42682699999
 30
0.0
 11
11936.061670999999
 21
14373.42682699999
 31
0.0
  0
LINE
  5
430A
  8
0-6
  6
CONTINUOUS
 62
     6
 10
11684.184757000001
 20
13738.209212
 30
0.0
 11
11577.912323
 21
13860.756259
 31
0.0
  0
LINE
  5
430B
  8
0-6
  6
CONTINUOUS
 62
     6
 10
11577.912323
 20
13860.756259
 30
0.0
 11
11638.694431
 21
13710.368272999989
 31
0.0
  0
LINE
  5
430C
  8
0-6
  6
CONTINUOUS
 62
     6
 10
11577.912323
 20
13860.756259
 30
0.0
 11
11684.184757000001
 21
13738.209212
 31
0.0
  0
LINE
  5
430D
  8
0-6
  6
CONTINUOUS
 62
     6
 10
11684.184757000001
 20
13738.209212
 30
0.0
 11
11638.694431
 21
13710.368272999989
 31
0.0
  0
LINE
  5
430E
  8
0-6
  6
CONTINUOUS
 62
     6
 10
11638.694431
 20
13710.368272999989
 30
0.0
 11
11577.912323
 21
13860.756259
 31
0.0
  0
LINE
  5
430F
  8
0-6
  6
CONTINUOUS
 62
     6
 10
11638.694431
 20
13710.368272999989
 30
0.0
 11
11684.184757000001
 21
13738.209212
 31
0.0
  0
LINE
  5
4310
  8
0-6
  6
CONTINUOUS
 62
     6
 10
11052.990513999999
 20
14258.960176000001
 30
0.0
 11
11009.26690700001
 21
14102.75735399999
 31
0.0
  0
LINE
  5
4311
  8
0-6
  6
CONTINUOUS
 62
     6
 10
11009.26690700001
 20
14102.75735399999
 30
0.0
 11
11101.288788
 21
14236.334278
 31
0.0
  0
LINE
  5
4312
  8
0-6
  6
CONTINUOUS
 62
     6
 10
11009.26690700001
 20
14102.75735399999
 30
0.0
 11
11052.990513999999
 21
14258.960176000001
 31
0.0
  0
LINE
  5
4313
  8
0-6
  6
CONTINUOUS
 62
     6
 10
11052.990513999999
 20
14258.960176000001
 30
0.0
 11
11101.288788
 21
14236.334278
 31
0.0
  0
LINE
  5
4314
  8
0-6
  6
CONTINUOUS
 62
     6
 10
11101.288788
 20
14236.334278
 30
0.0
 11
11009.26690700001
 21
14102.75735399999
 31
0.0
  0
LINE
  5
4315
  8
0-6
  6
CONTINUOUS
 62
     6
 10
11101.288788
 20
14236.334278
 30
0.0
 11
11052.990513999999
 21
14258.960176000001
 31
0.0
  0
LINE
  5
4316
  8
0-6
  6
CONTINUOUS
 62
     6
 10
12067.55119299999
 20
13060.756589000001
 30
0.0
 11
12930.130372999991
 21
13060.756589000001
 31
0.0
  0
LINE
  5
4317
  8
0-6
  6
CONTINUOUS
 62
     6
 10
11661.43909899999
 20
13724.288248000001
 30
0.0
 11
12067.55119299999
 21
13060.756589000001
 31
0.0
  0
LINE
  5
4318
  8
0-6
  6
CONTINUOUS
 62
     6
 10
9774.8074480000123
 20
14433.04794699999
 30
0.0
 11
9797.2571680000001
 21
14593.692809
 31
0.0
  0
LINE
  5
4319
  8
0-6
  6
CONTINUOUS
 62
     6
 10
9797.2571680000001
 20
14593.692809
 30
0.0
 11
9723.9209530000117
 21
14449.010784999989
 31
0.0
  0
LINE
  5
431A
  8
0-6
  6
CONTINUOUS
 62
     6
 10
9797.2571680000001
 20
14593.692809
 30
0.0
 11
9774.8074480000123
 21
14433.04794699999
 31
0.0
  0
LINE
  5
431B
  8
0-6
  6
CONTINUOUS
 62
     6
 10
9774.8074480000123
 20
14433.04794699999
 30
0.0
 11
9723.9209530000117
 21
14449.010784999989
 31
0.0
  0
LINE
  5
431C
  8
0-6
  6
CONTINUOUS
 62
     6
 10
9723.9209530000117
 20
14449.010784999989
 30
0.0
 11
9797.2571680000001
 21
14593.692809
 31
0.0
  0
LINE
  5
431D
  8
0-6
  6
CONTINUOUS
 62
     6
 10
9723.9209530000117
 20
14449.010784999989
 30
0.0
 11
9774.8074480000123
 21
14433.04794699999
 31
0.0
  0
LINE
  5
431E
  8
0-6
  6
CONTINUOUS
 62
     6
 10
8082.6239070000101
 20
12570.757446
 30
0.0
 11
9162.6235110000107
 21
12570.757446
 31
0.0
  0
LINE
  5
431F
  8
0-6
  6
CONTINUOUS
 62
     6
 10
9749.3646960000078
 20
14441.029366000001
 30
0.0
 11
9162.6235110000107
 21
12570.757446
 31
0.0
  0
LINE
  5
4320
  8
0-6
  6
CONTINUOUS
 62
     6
 10
9992.2427179999995
 20
17442.828879999979
 30
0.0
 11
10091.28496100001
 21
17222.039315999991
 31
0.0
  0
LINE
  5
4321
  8
0-6
  6
CONTINUOUS
 62
     6
 10
12515.585531000001
 20
18162.117362000001
 30
0.0
 11
13699.494103000001
 21
18564.348885999989
 31
0.0
  0
LINE
  5
4322
  8
0-6
  6
CONTINUOUS
 62
     6
 10
12515.585531000001
 20
16706.120290999988
 30
0.0
 11
13699.494103000001
 21
17113.34988899999
 31
0.0
  0
LINE
  5
4323
  8
0-6
  6
CONTINUOUS
 62
     6
 10
13699.494103000001
 20
17113.34988899999
 30
0.0
 11
15693.93825399999
 21
17113.34988899999
 31
0.0
  0
LINE
  5
4324
  8
0-6
  6
CONTINUOUS
 62
     6
 10
13699.494103000001
 20
18564.348885999989
 30
0.0
 11
15693.93825399999
 21
18564.348885999989
 31
0.0
  0
LINE
  5
4325
  8
0-6
  6
CONTINUOUS
 62
     6
 10
12513.148743000011
 20
15072.939482500011
 30
0.0
 11
13699.494103000001
 21
14611.179861999981
 31
0.0
  0
LINE
  5
4326
  8
0-6
  6
CONTINUOUS
 62
     6
 10
13699.494103000001
 20
14611.179861999981
 30
0.0
 11
15693.93825399999
 21
14611.179861999981
 31
0.0
  0
LINE
  5
4327
  8
0-6
  6
CONTINUOUS
 62
     6
 10
12783.46190299999
 20
15330.49068550001
 30
0.0
 11
13699.494103000001
 21
15633.53093699999
 31
0.0
  0
LINE
  5
4328
  8
0-6
  6
CONTINUOUS
 62
     6
 10
13699.494103000001
 20
15633.53093699999
 30
0.0
 11
14579.491067999999
 21
15633.53093699999
 31
0.0
  0
LINE
  5
4329
  8
0-6
  6
CONTINUOUS
 62
     6
 10
12926.431643
 20
15407.10597250001
 30
0.0
 11
12783.46190299999
 21
15330.49068550001
 31
0.0
  0
LINE
  5
432A
  8
0-6
  6
CONTINUOUS
 62
     6
 10
12783.46190299999
 20
15330.49068550001
 30
0.0
 11
12943.553489
 21
15356.59756650001
 31
0.0
  0
LINE
  5
432B
  8
0-6
  6
CONTINUOUS
 62
     6
 10
12783.46190299999
 20
15330.49068550001
 30
0.0
 11
12926.431643
 21
15407.10597250001
 31
0.0
  0
LINE
  5
432C
  8
0-6
  6
CONTINUOUS
 62
     6
 10
12926.431643
 20
15407.10597250001
 30
0.0
 11
12943.553489
 21
15356.59756650001
 31
0.0
  0
LINE
  5
432D
  8
0-6
  6
CONTINUOUS
 62
     6
 10
12943.553489
 20
15356.59756650001
 30
0.0
 11
12783.46190299999
 21
15330.49068550001
 31
0.0
  0
LINE
  5
432E
  8
0-6
  6
CONTINUOUS
 62
     6
 10
12943.553489
 20
15356.59756650001
 30
0.0
 11
12926.431643
 21
15407.10597250001
 31
0.0
  0
LINE
  5
432F
  8
0-6
  6
CONTINUOUS
 62
     6
 10
12522.824629999999
 20
15097.78936850002
 30
0.0
 11
12364.053383
 21
15130.99777250001
 31
0.0
  0
LINE
  5
4330
  8
0-6
  6
CONTINUOUS
 62
     6
 10
12364.053383
 20
15130.99777250001
 30
0.0
 11
12503.470877000011
 21
15048.091575500021
 31
0.0
  0
LINE
  5
4331
  8
0-6
  6
CONTINUOUS
 62
     6
 10
12364.053383
 20
15130.99777250001
 30
0.0
 11
12522.824629999999
 21
15097.78936850002
 31
0.0
  0
LINE
  5
4332
  8
0-6
  6
CONTINUOUS
 62
     6
 10
12522.824629999999
 20
15097.78936850002
 30
0.0
 11
12503.470877000011
 21
15048.091575500021
 31
0.0
  0
LINE
  5
4333
  8
0-6
  6
CONTINUOUS
 62
     6
 10
12503.470877000011
 20
15048.091575500021
 30
0.0
 11
12364.053383
 21
15130.99777250001
 31
0.0
  0
LINE
  5
4334
  8
0-6
  6
CONTINUOUS
 62
     6
 10
12503.470877000011
 20
15048.091575500021
 30
0.0
 11
12522.824629999999
 21
15097.78936850002
 31
0.0
  0
LINE
  5
4335
  8
0-6
  6
CONTINUOUS
 62
     6
 10
12507.02411300001
 20
16731.374989
 30
0.0
 11
12364.053383
 21
16654.755743000002
 31
0.0
  0
LINE
  5
4336
  8
0-6
  6
CONTINUOUS
 62
     6
 10
12364.053383
 20
16654.755743000002
 30
0.0
 11
12524.14595900001
 21
16680.863614000002
 31
0.0
  0
LINE
  5
4337
  8
0-6
  6
CONTINUOUS
 62
     6
 10
12364.053383
 20
16654.755743000002
 30
0.0
 11
12507.02411300001
 21
16731.374989
 31
0.0
  0
LINE
  5
4338
  8
0-6
  6
CONTINUOUS
 62
     6
 10
12507.02411300001
 20
16731.374989
 30
0.0
 11
12524.14595900001
 21
16680.863614000002
 31
0.0
  0
LINE
  5
4339
  8
0-6
  6
CONTINUOUS
 62
     6
 10
12524.14595900001
 20
16680.863614000002
 30
0.0
 11
12364.053383
 21
16654.755743000002
 31
0.0
  0
LINE
  5
433A
  8
0-6
  6
CONTINUOUS
 62
     6
 10
12524.14595900001
 20
16680.863614000002
 30
0.0
 11
12507.02411300001
 21
16731.374989
 31
0.0
  0
LINE
  5
433B
  8
0-6
  6
CONTINUOUS
 62
     6
 10
12507.02411300001
 20
18187.370080000001
 30
0.0
 11
12364.053383
 21
18110.754792999989
 31
0.0
  0
LINE
  5
433C
  8
0-6
  6
CONTINUOUS
 62
     6
 10
12364.053383
 20
18110.754792999989
 30
0.0
 11
12524.14595900001
 21
18136.860683999999
 31
0.0
  0
LINE
  5
433D
  8
0-6
  6
CONTINUOUS
 62
     6
 10
12364.053383
 20
18110.754792999989
 30
0.0
 11
12507.02411300001
 21
18187.370080000001
 31
0.0
  0
LINE
  5
433E
  8
0-6
  6
CONTINUOUS
 62
     6
 10
12507.02411300001
 20
18187.370080000001
 30
0.0
 11
12524.14595900001
 21
18136.860683999999
 31
0.0
  0
LINE
  5
433F
  8
0-6
  6
CONTINUOUS
 62
     6
 10
12524.14595900001
 20
18136.860683999999
 30
0.0
 11
12364.053383
 21
18110.754792999989
 31
0.0
  0
LINE
  5
4340
  8
0-6
  6
CONTINUOUS
 62
     6
 10
12524.14595900001
 20
18136.860683999999
 30
0.0
 11
12507.02411300001
 21
18187.370080000001
 31
0.0
  0
LINE
  5
4341
  8
0-6
  6
CONTINUOUS
 62
     6
 10
13369.444020999999
 20
19544.56491799996
 30
0.0
 11
13277.757670000001
 21
19410.759358999981
 31
0.0
  0
LINE
  5
4342
  8
0-6
  6
CONTINUOUS
 62
     6
 10
13277.757670000001
 20
19410.759358999981
 30
0.0
 11
13407.884292999999
 21
19507.597407999991
 31
0.0
  0
LINE
  5
4343
  8
0-6
  6
CONTINUOUS
 62
     6
 10
13277.757670000001
 20
19410.759358999981
 30
0.0
 11
13369.444020999999
 21
19544.56491799996
 31
0.0
  0
LINE
  5
4344
  8
0-6
  6
CONTINUOUS
 62
     6
 10
13369.444020999999
 20
19544.56491799996
 30
0.0
 11
13407.884292999999
 21
19507.597407999991
 31
0.0
  0
LINE
  5
4345
  8
0-6
  6
CONTINUOUS
 62
     6
 10
13407.884292999999
 20
19507.597407999991
 30
0.0
 11
13277.757670000001
 21
19410.759358999981
 31
0.0
  0
LINE
  5
4346
  8
0-6
  6
CONTINUOUS
 62
     6
 10
13407.884292999999
 20
19507.597407999991
 30
0.0
 11
13369.444020999999
 21
19544.56491799996
 31
0.0
  0
LINE
  5
4347
  8
0-6
  6
CONTINUOUS
 62
     6
 10
13388.663167000001
 20
19526.080172999991
 30
0.0
 11
13905.654035
 21
20030.758436
 31
0.0
  0
LINE
  5
4348
  8
0-6
  6
CONTINUOUS
 62
     6
 10
13905.654035
 20
20030.758436
 30
0.0
 11
15580.652386
 21
20030.758436
 31
0.0
  0
LINE
  5
4349
  8
2-0
  6
DASHED3
 62
     6
 10
9926.7572739999996
 20
19149.259016
 30
0.0
 11
13195.257274
 21
19149.259016
 31
0.0
  0
LINE
  5
434A
  8
2-0
  6
DASHED3
 62
     6
 10
9884.2570100000084
 20
18953.086745000001
 30
0.0
 11
9884.2570100000084
 21
19234.257565
 31
0.0
  0
LINE
  5
434B
  8
2-0
  6
DASHED3
 62
     6
 10
9926.7572739999996
 20
18923.39792599998
 30
0.0
 11
9926.7572739999996
 21
19234.257565
 31
0.0
  0
LINE
  5
434C
  8
2-0
  6
DASHED3
 62
     6
 10
9884.2570100000084
 20
19234.257565
 30
0.0
 11
13237.75654799999
 21
19234.257565
 31
0.0
  0
LINE
  5
434D
  8
2-0
  6
DASHED3
 62
     6
 10
13195.257274
 20
16652.370423
 30
0.0
 11
13195.257274
 21
19234.257565
 31
0.0
  0
LINE
  5
434E
  8
2-0
  6
DASHED3
 62
     6
 10
13237.75654799999
 20
16623.126994999991
 30
0.0
 11
13237.75654799999
 21
19234.257565
 31
0.0
  0
LINE
  5
434F
  8
2-0
  6
DASHED3
 62
     6
 10
9996.7570100000103
 20
19188.257511999989
 30
0.0
 11
13125.257538
 21
18079.757511999978
 31
0.0
  0
LINE
  5
4350
  8
2-0
  6
DASHED3
 62
     6
 10
13125.257538
 20
18079.757511999978
 30
0.0
 11
11770.292826000001
 21
17457.301139999981
 31
0.0
  0
LINE
  5
4351
  8
2-0
  6
DASHED3
 62
     6
 10
13125.257538
 20
19188.257511999989
 30
0.0
 11
10755.727198
 21
18348.487056999991
 31
0.0
  0
LINE
  5
4352
  8
2-0
  6
DASHED3
 62
     6
 10
11453.78067200001
 20
18048.756270999991
 30
0.0
 11
13195.257274
 21
18048.756270999991
 31
0.0
  0
LINE
  5
4353
  8
2-0
  6
DASHED3
 62
     6
 10
11420.855339000011
 20
18110.754792999989
 30
0.0
 11
13195.257274
 21
18110.754792999989
 31
0.0
  0
LINE
  5
4354
  8
0-7
  6
CONTINUOUS
 62
     6
 10
11101.221484000011
 20
18110.754792999989
 30
0.0
 11
11257.25703600001
 21
18110.754792999989
 31
0.0
  0
LINE
  5
4355
  8
0-7
  6
CONTINUOUS
 62
     6
 10
11191.325210999999
 20
18048.756270999991
 30
0.0
 11
11213.092987000011
 21
18048.756270999991
 31
0.0
  0
LINE
  5
4356
  8
2-0
  6
CENTER2
 62
     6
 10
13195.257274
 20
20430.75579599999
 30
0.0
 11
13195.257274
 21
19480.75909499999
 31
0.0
  0
LINE
  5
4357
  8
2-0
  6
CENTER2
 62
     6
 10
8597.2571680000055
 20
19188.257511999989
 30
0.0
 11
10243.756389
 21
19188.257511999989
 31
0.0
  0
LINE
  5
4358
  8
2-0
  6
CENTER2
 62
     6
 10
9926.7572739999996
 20
20430.75579599999
 30
0.0
 11
9926.7572739999996
 21
19480.75909499999
 31
0.0
  0
LINE
  5
4359
  8
2-0
  6
CENTER2
 62
     6
 10
8597.2571680000055
 20
16620.757511999989
 30
0.0
 11
10243.756389
 21
16620.757511999989
 31
0.0
  0
LINE
  5
435A
  8
2-0
  6
CENTER2
 62
     6
 10
8597.2571680000055
 20
14053.257512
 30
0.0
 11
10243.756389
 21
14053.257512
 31
0.0
  0
LINE
  5
435B
  8
2-0
  6
CENTER2
 62
     6
 10
9707.9610850000063
 20
15161.99802350002
 30
0.0
 11
13367.053752999989
 21
15161.99802350002
 31
0.0
  0
LINE
  5
435C
  8
2-0
  6
CENTER2
 62
     6
 10
9707.9610850000063
 20
18079.757511999978
 30
0.0
 11
13367.053752999989
 21
18079.757511999978
 31
0.0
  0
ARC
  5
435D
  8
0-1
  6
CONTINUOUS
 62
     3
 10
9846.2571420000058
 20
19405.759095000001
 30
0.0
 40
5.0
 50
90.0
 51
180.0
  0
ARC
  5
435E
  8
0-1
  6
CONTINUOUS
 62
     3
 10
9909.7581180000125
 20
19405.759095000001
 30
0.0
 40
5.0
 50
0.0
 51
90.0
  0
ARC
  5
435F
  8
0-1
  6
CONTINUOUS
 62
     3
 10
9909.7581180000125
 20
19375.755531999981
 30
0.0
 40
5.0
 50
269.9999850001808
 51
0.0
  0
ARC
  5
4360
  8
0-1
  6
CONTINUOUS
 62
     3
 10
13212.255439
 20
19375.755531999981
 30
0.0
 40
5.0
 50
180.0
 51
269.9999850001808
  0
ARC
  5
4361
  8
0-1
  6
CONTINUOUS
 62
     3
 10
13212.255439
 20
19405.759095000001
 30
0.0
 40
5.0
 50
90.0
 51
180.0
  0
ARC
  5
4362
  8
0-1
  6
CONTINUOUS
 62
     3
 10
13275.757406000001
 20
19405.759095000001
 30
0.0
 40
5.0
 50
0.0
 51
90.0
  0
CIRCLE
  5
4363
  8
0-5
  6
CONTINUOUS
 62
     4
 10
13195.257274
 20
20630.758435999989
 30
0.0
 40
199.9999949999999
  0
CIRCLE
  5
4364
  8
0-5
  6
CONTINUOUS
 62
     4
 10
9926.7572739999996
 20
20630.758435999989
 30
0.0
 40
199.9999949999999
  0
CIRCLE
  5
4365
  8
0-5
  6
CONTINUOUS
 62
     4
 10
8397.2574980000136
 20
16620.757511999989
 30
0.0
 40
199.9999949999999
  0
CIRCLE
  5
4366
  8
0-5
  6
CONTINUOUS
 62
     4
 10
8397.2574980000136
 20
14053.257512
 30
0.0
 40
199.9999949999999
  0
TEXT
  5
4367
  8
0-0
  6
CONTINUOUS
 62
     7
 10
13146.652173999981
 20
20544.142619999991
 30
0.0
 40
160.0
  1
2
 72
     4
 11
13199.98550733332
 21
20624.142619999991
 31
0.0
  0
TEXT
  5
4368
  8
0-0
  6
CONTINUOUS
 62
     7
 10
9878.1521740000098
 20
20544.142619999991
 30
0.0
 40
160.0
  1
1
 72
     4
 11
9904.8188406666741
 21
20624.142619999991
 31
0.0
  0
TEXT
  5
4369
  8
0-0
  6
CONTINUOUS
 62
     7
 10
8344.4093010000088
 20
16528.306076000001
 30
0.0
 40
160.0
  1
B
 72
     4
 11
8397.7426343333445
 21
16608.306076000001
 31
0.0
  0
TEXT
  5
436A
  8
0-0
  6
CONTINUOUS
 62
     7
 10
8344.4093010000088
 20
13960.807065999999
 30
0.0
 40
160.0
  1
A
 72
     4
 11
8397.7426343333445
 21
14040.807065999999
 31
0.0
  0
TEXT
  5
436B
  8
0-0
  6
CONTINUOUS
 62
     7
 10
11736.54797299999
 20
19720.757907999989
 30
0.0
 40
160.0
  1
屋根
 72
     4
 11
11907.214639666659
 21
19800.757907999989
 31
0.0
  0
TEXT
  5
436C
  8
0-0
  6
CONTINUOUS
 62
     7
 10
11216.061275
 20
14453.427091
 30
0.0
 40
160.0
  1
桁（前）
 72
     4
 11
11536.061275
 21
14533.427091
 31
0.0
  0
TEXT
  5
436D
  8
0-0
  6
CONTINUOUS
 62
     7
 10
12147.55145699999
 20
13140.75784199999
 30
0.0
 40
160.0
  1
鼻隠し前
 72
     4
 11
12510.21812366666
 21
13220.75784199999
 31
0.0
  0
TEXT
  5
436E
  8
0-0
  6
CONTINUOUS
 62
     7
 10
8162.6241710000077
 20
12650.757709999991
 30
0.0
 40
160.0
  1
ケラバ 左
 72
     4
 11
8578.6241710000068
 21
12730.757709999991
 31
0.0
  0
TEXT
  5
436F
  8
0-0
  6
CONTINUOUS
 62
     7
 10
10171.28522400001
 20
17302.0376
 30
0.0
 40
160.0
  1
上枠
 72
     4
 11
10341.95189066668
 21
17382.0376
 31
0.0
  0
TEXT
  5
4370
  8
0-0
  6
CONTINUOUS
 62
     7
 10
13779.49436699999
 20
15713.531199999979
 30
0.0
 40
160.0
  1
ブレース
 72
     4
 11
14142.16103366666
 21
15798.864533333321
 31
0.0
  0
TEXT
  5
4371
  8
0-0
  6
CONTINUOUS
 62
     7
 10
13985.654298999991
 20
20110.760678999992
 30
0.0
 40
160.0
  1
鼻隠しコーナー後
 72
     4
 11
14732.32096566666
 21
20190.760678999992
 31
0.0
  0
TEXT
  5
4372
  8
2-0
  6
CONTINUOUS
 62
     7
 10
13793.621201999989
 20
18649.885863999982
 30
0.0
 40
160.0
  1
桁中B +  桁中補強B
 72
     4
 11
14726.954535333331
 21
18729.885863999982
 31
0.0
  0
TEXT
  5
4373
  8
2-0
  6
CONTINUOUS
 62
     7
 10
13793.621201999989
 20
17195.887895999971
 30
0.0
 40
160.0
  1
桁中A +  桁中補強A
 72
     4
 11
14726.954535333331
 21
17275.887895999971
 31
0.0
  0
TEXT
  5
4374
  8
2-0
  6
CONTINUOUS
 62
     7
 10
13793.62120199998
 20
14668.71160099999
 30
0.0
 40
160.0
  1
桁中B +  桁中補強B
 50
0.000118
 72
     4
 11
14726.954370572261
 21
14748.71352318911
 31
0.0
  0
TEXT
  5
4375
  8
0-6
  6
CONTINUOUS
 62
     7
 10
9993.5442021448143
 20
19720.755927999999
 30
0.0
 40
160.0
  1
桁後+桁後補強
 72
     4
 11
10628.21086881148
 21
19800.755927999999
 31
0.0
  0
LINE
  5
4376
  8
0-6
  6
CONTINUOUS
 62
     6
 10
11437.25961000001
 20
19234.257565
 30
0.0
 11
11303.86566211876
 21
19640.757644000001
 31
0.0
  0
LINE
  5
4377
  8
0-6
  6
CONTINUOUS
 62
     6
 10
9954.1233085495478
 20
19640.757644000001
 30
0.0
 11
11303.86566211876
 21
19640.757644000001
 31
0.0
  0
LINE
  5
4378
  8
0-6
  6
CONTINUOUS
 62
     6
 10
11413.65215463272
 20
19394.739003424911
 30
0.0
 11
11362.87851085976
 21
19378.405487240161
 31
0.0
  0
LINE
  5
4379
  8
0-6
  6
CONTINUOUS
 62
     6
 10
11413.65215463272
 20
19394.739003424911
 30
0.0
 11
11437.25961000001
 21
19234.257565
 31
0.0
  0
LINE
  5
437A
  8
0-6
  6
CONTINUOUS
 62
     6
 10
11362.87851085976
 20
19378.405487240161
 30
0.0
 11
11413.65215463272
 21
19394.739003424911
 31
0.0
  0
LINE
  5
437B
  8
0-6
  6
CONTINUOUS
 62
     6
 10
11437.25961000001
 20
19234.257565
 30
0.0
 11
11362.87851085976
 21
19378.405487240161
 31
0.0
  0
LINE
  5
437C
  8
0-6
  6
CONTINUOUS
 62
     6
 10
11437.25961000001
 20
19234.257565
 30
0.0
 11
11413.65215463272
 21
19394.739003424911
 31
0.0
  0
LINE
  5
437D
  8
0-6
  6
CONTINUOUS
 62
     6
 10
11362.87851085976
 20
19378.405487240161
 30
0.0
 11
11437.25961000001
 21
19234.257565
 31
0.0
  0
LINE
  5
437E
  8
SUNPOU
  6
CONTINUOUS
 10
8997.2599720000017
 20
19410.753421000009
 30
0.0
 11
8997.2599720000017
 21
20207.72068877846
 31
0.0
  0
CIRCLE
  5
437F
  8
0-5
  6
CONTINUOUS
 62
     4
 10
8397.2574980000136
 20
19188.257511999989
 30
0.0
 40
199.9999949999999
  0
TEXT
  5
4380
  8
0-0
  6
CONTINUOUS
 62
     7
 10
8344.4093010000088
 20
19095.806076000001
 30
0.0
 40
160.0
  1
C
 72
     4
 11
8397.7426343333445
 21
19175.806076000001
 31
0.0
  0
LINE
  5
4381
  8
SUNPOU
  6
CONTINUOUS
 10
8997.2599720000053
 20
13860.762197
 30
0.0
 11
8997.2599720000053
 21
13185.33608118962
 31
0.0
  0
TEXT
  5
4382
  8
2-0
  6
CONTINUOUS
 62
     7
 10
10376.140653999981
 20
11729.43977299998
 30
0.0
 40
160.0
  1
小 屋 伏 図
 72
     4
 11
10877.47398733332
 21
11809.43977299998
 31
0.0
  0
TEXT
  5
4383
  8
2-0
  6
CONTINUOUS
 62
     7
 10
12228.966172470949
 20
11756.635141999979
 30
0.0
 40
160.0
  1
1
 72
     4
 11
12255.632839137619
 21
11836.635141999979
 31
0.0
  0
TEXT
  5
4384
  8
2-0
  6
CONTINUOUS
 62
     7
 10
12472.05488972165
 20
11676.63660999998
 30
0.0
 40
160.0
  1
80
 72
     4
 11
12592.05488972165
 21
11756.63660999998
 31
0.0
  0
TEXT
  5
4385
  8
2-0
  6
CONTINUOUS
 62
     7
 10
11729.96813847094
 20
11729.43977299998
 30
0.0
 40
160.0
  1
(S=  /   )
 72
     4
 11
12289.96813847094
 21
11809.43977299998
 31
0.0
  0
LINE
  5
4386
  8
SUNPOU
  6
CONTINUOUS
 10
9076.5136060000114
 20
9259.4613089999966
 30
0.0
 11
8601.2244933597794
 21
9259.4613089999966
 31
0.0
  0
LINE
  5
4389
  8
WAKUSEN-01
 10
868.00000000000193
 20
22484.000000000011
 30
0.0
 11
32764.000000000011
 21
22484.000000000011
 31
0.0
  0
LINE
  5
438C
  8
WAKUSEN-01
 10
20560.0
 20
2484.0
 30
0.0
 11
32764.0
 21
2484.0
 31
0.0
  0
LINE
  5
438D
  8
WAKUSEN-02
 10
20560.0
 20
1655.9999999999991
 30
0.0
 11
26868.0
 21
1655.9999999999991
 31
0.0
  0
TEXT
  5
438E
  8
WAKUMOJI-01
 10
20670.260259962761
 20
2125.9030093393221
 30
0.0
 40
240.0
  1
名　称
  7
WAKUMOJI
  0
TEXT
  5
438F
  8
WAKUMOJI-01
 10
20656.505485091919
 20
1319.12897497982
 30
0.0
 40
240.0
  1
機種名
  7
WAKUMOJI
  0
LINE
  5
4392
  8
YODOROGO
 10
29977.604341291921
 20
1995.7494964292871
 30
0.0
 11
29829.604341291921
 21
1995.7494964292871
 31
0.0
1001
AUTOCAD_POSTSCRIPT_FIGURE
1002
{
1000
PSFILL
1000
Grayscale
1000
Grayscale
1070
    25
1002
}
  0
LINE
  5
4393
  8
YODOROGO
 10
29829.604341291921
 20
1947.749496429288
 30
0.0
 11
29977.604341291921
 21
1947.749496429288
 31
0.0
1001
AUTOCAD_POSTSCRIPT_FIGURE
1002
{
1000
PSFILL
1000
Grayscale
1000
Grayscale
1070
    25
1002
}
  0
LINE
  5
4394
  8
YODOROGO
 10
29977.604341291921
 20
1907.7494964292871
 30
0.0
 11
29829.604341291921
 21
1907.7494964292871
 31
0.0
1001
AUTOCAD_POSTSCRIPT_FIGURE
1002
{
1000
PSFILL
1000
Grayscale
1000
Grayscale
1070
    25
1002
}
  0
LINE
  5
4395
  8
YODOROGO
 10
29829.604341291921
 20
1859.749496429288
 30
0.0
 11
29977.604341291921
 21
1859.749496429288
 31
0.0
1001
AUTOCAD_POSTSCRIPT_FIGURE
1002
{
1000
PSFILL
1000
Grayscale
1000
Grayscale
1070
    25
1002
}
  0
LINE
  5
4396
  8
YODOROGO
 10
29977.604341291921
 20
1819.7494964292871
 30
0.0
 11
29829.604341291921
 21
1819.7494964292871
 31
0.0
1001
AUTOCAD_POSTSCRIPT_FIGURE
1002
{
1000
PSFILL
1000
Grayscale
1000
Grayscale
1070
    25
1002
}
  0
LINE
  5
4397
  8
YODOROGO
 10
29921.60434129191
 20
1707.749496429288
 30
0.0
 11
29977.604341291921
 21
1707.749496429288
 31
0.0
1001
AUTOCAD_POSTSCRIPT_FIGURE
1002
{
1000
PSFILL
1000
Grayscale
1000
Grayscale
1070
    25
1002
}
  0
LINE
  5
4398
  8
YODOROGO
 10
29737.604341291921
 20
1427.749496429288
 30
0.0
 11
29937.604341291932
 21
1481.3393349155101
 31
0.0
  0
LINE
  5
4399
  8
YODOROGO
 10
29949.60434129191
 20
1707.749496429288
 30
0.0
 11
29885.604341291921
 21
1707.749496429288
 31
0.0
  0
ARC
  5
439A
  8
YODOROGO
 10
30254.34774982791
 20
1807.864609233261
 30
0.0
 40
381.88686420564721
 50
213.96111677667841
 51
264.47872074317792
  0
ARC
  5
439B
  8
YODOROGO
 10
30254.347749827921
 20
1807.864609233302
 30
0.0
 40
381.8868642056816
 50
208.14114420486601
 51
212.9210361185994
  0
LINE
  5
439C
  8
YODOROGO
 10
29771.409872985321
 20
1556.807661346234
 30
0.0
 11
29933.78413250855
 21
1600.3157130570869
 31
0.0
  0
LINE
  5
439D
  8
YODOROGO
 10
29737.604341291921
 20
1427.749496429288
 30
0.0
 11
29937.604341291932
 21
1481.3393349155101
 31
0.0
  0
LINE
  5
439E
  8
YODOROGO
 10
29949.60434129191
 20
1707.749496429288
 30
0.0
 11
29885.604341291921
 21
1707.749496429288
 31
0.0
  0
ARC
  5
439F
  8
YODOROGO
 10
30254.34774982791
 20
1807.864609233261
 30
0.0
 40
381.88686420564721
 50
213.96111677667841
 51
264.47872074317792
  0
LINE
  5
43A0
  8
YODOROGO
 10
28793.60434129191
 20
1819.7494964292871
 30
0.0
 11
28433.60434129191
 21
1819.7494964292871
 31
0.0
  0
LINE
  5
43A1
  8
YODOROGO
 10
28513.60434129191
 20
1427.749496429288
 30
0.0
 11
28793.60434129191
 21
1427.749496429288
 31
0.0
  0
LINE
  5
43A2
  8
YODOROGO
 10
28729.604341291921
 20
1923.7494964292871
 30
0.0
 11
28497.60434129191
 21
1923.7494964292871
 31
0.0
  0
LINE
  5
43A3
  8
YODOROGO
 10
28585.604341291921
 20
2027.749496429288
 30
0.0
 11
28657.604341291921
 21
2027.749496429288
 31
0.0
  0
LINE
  5
43A4
  8
YODOROGO
 10
28433.60434129191
 20
1707.749496429288
 30
0.0
 11
28433.60434129191
 21
1507.749496429288
 31
0.0
  0
LINE
  5
43A5
  8
YODOROGO
 10
28497.60434129191
 20
1563.7494964292871
 30
0.0
 11
28497.60434129191
 21
1707.749496429288
 31
0.0
  0
LINE
  5
43A6
  8
YODOROGO
 10
28585.604341291921
 20
1747.74949642929
 30
0.0
 11
28585.604341291921
 21
1547.749496429288
 31
0.0
  0
LINE
  5
43A7
  8
YODOROGO
 10
27857.604341291921
 20
1683.749496429288
 30
0.0
 11
27777.604341291921
 21
1619.9724140445701
 31
0.0
  0
LINE
  5
43A8
  8
YODOROGO
 10
27937.604341291921
 20
1619.9724140445701
 30
0.0
 11
27857.604341291921
 21
1683.749496429288
 31
0.0
  0
LINE
  5
43A9
  8
YODOROGO
 10
27857.604341291921
 20
1707.749496429288
 30
0.0
 11
27937.604341291921
 21
1643.9724140445701
 31
0.0
  0
LINE
  5
43AA
  8
YODOROGO
 10
27777.604341291921
 20
1643.9724140445701
 30
0.0
 11
27857.604341291921
 21
1707.749496429288
 31
0.0
  0
LINE
  5
43AB
  8
YODOROGO
 10
28040.913204016892
 20
1659.749496429288
 30
0.0
 11
28040.913204016892
 21
1683.7494964292871
 31
0.0
  0
LINE
  5
43AC
  8
YODOROGO
 10
27977.604341291921
 20
1683.7494964292871
 30
0.0
 11
27977.604341291921
 21
1667.749496429285
 31
0.0
  0
LINE
  5
43AD
  8
YODOROGO
 10
28098.135520230931
 20
1707.749496429288
 30
0.0
 11
28098.135520230931
 21
1655.5036372746561
 31
0.0
1001
AUTOCAD_POSTSCRIPT_FIGURE
1002
{
1000
PSFILL
1000
Grayscale
1000
Grayscale
1070
   100
1002
}
  0
LINE
  5
43AE
  8
YODOROGO
 10
28082.135520230921
 20
1655.5036372746561
 30
0.0
 11
28082.135520230921
 21
1707.749496429288
 31
0.0
1001
AUTOCAD_POSTSCRIPT_FIGURE
1002
{
1000
PSFILL
1000
Grayscale
1000
Grayscale
1070
   100
1002
}
  0
LINE
  5
43AF
  8
YODOROGO
 10
27809.604341291921
 20
1608.771904043258
 30
0.0
 11
27809.604341291921
 21
1632.771904043258
 31
0.0
  0
LINE
  5
43B0
  8
YODOROGO
 10
27905.604341291921
 20
1608.771904043258
 30
0.0
 11
27809.604341291921
 21
1608.771904043258
 31
0.0
  0
LINE
  5
43B1
  8
YODOROGO
 10
27905.604341291921
 20
1632.771904043258
 30
0.0
 11
27905.604341291921
 21
1608.771904043258
 31
0.0
  0
LINE
  5
43B2
  8
YODOROGO
 10
27809.604341291921
 20
1632.771904043258
 30
0.0
 11
27905.604341291921
 21
1632.771904043258
 31
0.0
  0
LINE
  5
43B3
  8
YODOROGO
 10
27824.509588915738
 20
1568.5028573704751
 30
0.0
 11
27785.604341291921
 21
1475.7494964292871
 31
0.0
1001
AUTOCAD_POSTSCRIPT_FIGURE
1002
{
1000
PSFILL
1000
Grayscale
1000
Grayscale
1070
   100
1002
}
  0
LINE
  5
43B4
  8
YODOROGO
 10
27777.604341291921
 20
1568.5028573704751
 30
0.0
 11
27824.509588915738
 21
1568.5028573704751
 31
0.0
1001
AUTOCAD_POSTSCRIPT_FIGURE
1002
{
1000
PSFILL
1000
Grayscale
1000
Grayscale
1070
   100
1002
}
  0
LINE
  5
43B5
  8
YODOROGO
 10
27777.604341291921
 20
1588.5028573704751
 30
0.0
 11
27777.604341291921
 21
1568.5028573704751
 31
0.0
1001
AUTOCAD_POSTSCRIPT_FIGURE
1002
{
1000
PSFILL
1000
Grayscale
1000
Grayscale
1070
   100
1002
}
  0
LINE
  5
43B6
  8
YODOROGO
 10
27937.604341291921
 20
1588.5028573704751
 30
0.0
 11
27777.604341291921
 21
1588.5028573704751
 31
0.0
1001
AUTOCAD_POSTSCRIPT_FIGURE
1002
{
1000
PSFILL
1000
Grayscale
1000
Grayscale
1070
   100
1002
}
  0
LINE
  5
43B7
  8
YODOROGO
 10
27937.604341291921
 20
1568.5028573704751
 30
0.0
 11
27937.604341291921
 21
1588.5028573704751
 31
0.0
1001
AUTOCAD_POSTSCRIPT_FIGURE
1002
{
1000
PSFILL
1000
Grayscale
1000
Grayscale
1070
   100
1002
}
  0
LINE
  5
43B8
  8
YODOROGO
 10
27844.509588915738
 20
1568.5028573704751
 30
0.0
 11
27937.604341291921
 21
1568.5028573704751
 31
0.0
1001
AUTOCAD_POSTSCRIPT_FIGURE
1002
{
1000
PSFILL
1000
Grayscale
1000
Grayscale
1070
   100
1002
}
  0
LINE
  5
43B9
  8
YODOROGO
 10
27815.546718284771
 20
1495.7494964292871
 30
0.0
 11
27844.509588915738
 21
1568.5028573704751
 31
0.0
1001
AUTOCAD_POSTSCRIPT_FIGURE
1002
{
1000
PSFILL
1000
Grayscale
1000
Grayscale
1070
   100
1002
}
  0
LINE
  5
43BA
  8
YODOROGO
 10
27902.054790808648
 20
1495.7494964292871
 30
0.0
 11
27815.546718284771
 21
1495.7494964292871
 31
0.0
1001
AUTOCAD_POSTSCRIPT_FIGURE
1002
{
1000
PSFILL
1000
Grayscale
1000
Grayscale
1070
   100
1002
}
  0
LINE
  5
43BB
  8
YODOROGO
 10
27885.065004790951
 20
1536.2338106976929
 30
0.0
 11
27902.054790808648
 21
1495.7494964292871
 31
0.0
1001
AUTOCAD_POSTSCRIPT_FIGURE
1002
{
1000
PSFILL
1000
Grayscale
1000
Grayscale
1070
   100
1002
}
  0
LINE
  5
43BC
  8
YODOROGO
 10
27901.065004790951
 20
1536.2338106976929
 30
0.0
 11
27885.065004790951
 21
1536.2338106976929
 31
0.0
1001
AUTOCAD_POSTSCRIPT_FIGURE
1002
{
1000
PSFILL
1000
Grayscale
1000
Grayscale
1070
   100
1002
}
  0
LINE
  5
43BD
  8
YODOROGO
 10
27929.604341291921
 20
1475.7494964292871
 30
0.0
 11
27901.065004790951
 21
1536.2338106976929
 31
0.0
1001
AUTOCAD_POSTSCRIPT_FIGURE
1002
{
1000
PSFILL
1000
Grayscale
1000
Grayscale
1070
   100
1002
}
  0
LINE
  5
43BE
  8
YODOROGO
 10
27785.604341291921
 20
1475.7494964292871
 30
0.0
 11
27929.604341291921
 21
1475.7494964292871
 31
0.0
1001
AUTOCAD_POSTSCRIPT_FIGURE
1002
{
1000
PSFILL
1000
Grayscale
1000
Grayscale
1070
   100
1002
}
  0
LINE
  5
43BF
  8
YODOROGO
 10
27777.604341291921
 20
1619.9724140445701
 30
0.0
 11
27777.604341291921
 21
1643.9724140445701
 31
0.0
  0
LINE
  5
43C0
  8
YODOROGO
 10
27937.604341291921
 20
1643.9724140445701
 30
0.0
 11
27937.604341291921
 21
1619.9724140445701
 31
0.0
  0
ARC
  5
43C1
  8
YODOROGO
 10
28225.940442146959
 20
1600.877765325326
 30
0.0
 40
175.9999999999998
 50
280.3644312771313
 51
3.5414836592180561
  0
ARC
  5
43C2
  8
YODOROGO
 10
28235.756030759301
 20
1633.5978069619041
 30
0.0
 40
111.9999999999982
 50
281.24905825041549
 51
348.75094174958321
  0
LINE
  5
43C3
  8
YODOROGO
 10
28257.604341291921
 20
1523.7494964292871
 30
0.0
 11
28257.604341291921
 21
1427.749496429288
 31
0.0
  0
LINE
  5
43C4
  8
YODOROGO
 10
28020.088903736909
 20
1610.650565061914
 30
0.0
 11
28040.913204016892
 21
1659.749496429288
 31
0.0
  0
LINE
  5
43C5
  8
YODOROGO
 10
28041.604341291921
 20
1583.120489948401
 30
0.0
 11
28020.088903736909
 21
1610.650565061914
 31
0.0
  0
LINE
  5
43C6
  8
YODOROGO
 10
28041.604341291921
 20
1563.120489948398
 30
0.0
 11
28041.604341291921
 21
1583.120489948401
 31
0.0
  0
LINE
  5
43C7
  8
YODOROGO
 10
28017.604341291921
 20
1585.2370637495301
 30
0.0
 11
28041.604341291921
 21
1563.120489948398
 31
0.0
  0
LINE
  5
43C8
  8
YODOROGO
 10
28017.604341291921
 20
1475.7494964292871
 30
0.0
 11
28017.604341291921
 21
1585.2370637495301
 31
0.0
  0
LINE
  5
43C9
  8
YODOROGO
 10
28001.604341291921
 20
1475.7494964292871
 30
0.0
 11
28017.604341291921
 21
1475.7494964292871
 31
0.0
  0
LINE
  5
43CA
  8
YODOROGO
 10
28001.604341291921
 20
1580.0053496897469
 30
0.0
 11
28001.604341291921
 21
1475.7494964292871
 31
0.0
  0
LINE
  5
43CB
  8
YODOROGO
 10
27977.604341291921
 20
1532.7680790334291
 30
0.0
 11
28001.604341291921
 21
1580.0053496897469
 31
0.0
  0
LINE
  5
43CC
  8
YODOROGO
 10
27977.604341291921
 20
1556.76807903343
 30
0.0
 11
27977.604341291921
 21
1532.7680790334291
 31
0.0
  0
LINE
  5
43CD
  8
YODOROGO
 10
28025.828774291349
 20
1667.749496429285
 30
0.0
 11
27977.604341291921
 21
1556.76807903343
 31
0.0
  0
LINE
  5
43CE
  8
YODOROGO
 10
27977.604341291921
 20
1667.749496429285
 30
0.0
 11
28025.828774291349
 21
1667.749496429285
 31
0.0
  0
LINE
  5
43CF
  8
YODOROGO
 10
28050.135520230899
 20
1655.5036372746561
 30
0.0
 11
28082.135520230921
 21
1655.5036372746561
 31
0.0
1001
AUTOCAD_POSTSCRIPT_FIGURE
1002
{
1000
PSFILL
1000
Grayscale
1000
Grayscale
1070
   100
1002
}
  0
LINE
  5
43D0
  8
YODOROGO
 10
28050.135520230899
 20
1631.5036372746561
 30
0.0
 11
28050.135520230899
 21
1655.5036372746561
 31
0.0
1001
AUTOCAD_POSTSCRIPT_FIGURE
1002
{
1000
PSFILL
1000
Grayscale
1000
Grayscale
1070
   100
1002
}
  0
LINE
  5
43D1
  8
YODOROGO
 10
28082.135520230921
 20
1631.5036372746561
 30
0.0
 11
28050.135520230899
 21
1631.5036372746561
 31
0.0
1001
AUTOCAD_POSTSCRIPT_FIGURE
1002
{
1000
PSFILL
1000
Grayscale
1000
Grayscale
1070
   100
1002
}
  0
LINE
  5
43D2
  8
YODOROGO
 10
28082.135520230921
 20
1499.749496429288
 30
0.0
 11
28082.135520230921
 21
1631.5036372746561
 31
0.0
1001
AUTOCAD_POSTSCRIPT_FIGURE
1002
{
1000
PSFILL
1000
Grayscale
1000
Grayscale
1070
   100
1002
}
  0
LINE
  5
43D3
  8
YODOROGO
 10
28050.135520230921
 20
1499.749496429288
 30
0.0
 11
28082.135520230921
 21
1499.749496429288
 31
0.0
1001
AUTOCAD_POSTSCRIPT_FIGURE
1002
{
1000
PSFILL
1000
Grayscale
1000
Grayscale
1070
   100
1002
}
  0
LINE
  5
43D4
  8
YODOROGO
 10
28050.135520230921
 20
1475.7494964292871
 30
0.0
 11
28050.135520230921
 21
1499.749496429288
 31
0.0
1001
AUTOCAD_POSTSCRIPT_FIGURE
1002
{
1000
PSFILL
1000
Grayscale
1000
Grayscale
1070
   100
1002
}
  0
LINE
  5
43D5
  8
YODOROGO
 10
28137.604341291921
 20
1475.7494964292871
 30
0.0
 11
28050.135520230921
 21
1475.7494964292871
 31
0.0
1001
AUTOCAD_POSTSCRIPT_FIGURE
1002
{
1000
PSFILL
1000
Grayscale
1000
Grayscale
1070
   100
1002
}
  0
LINE
  5
43D6
  8
YODOROGO
 10
28137.604341291921
 20
1499.749496429288
 30
0.0
 11
28137.604341291921
 21
1475.7494964292871
 31
0.0
1001
AUTOCAD_POSTSCRIPT_FIGURE
1002
{
1000
PSFILL
1000
Grayscale
1000
Grayscale
1070
   100
1002
}
  0
LINE
  5
43D7
  8
YODOROGO
 10
28098.135520230931
 20
1499.749496429288
 30
0.0
 11
28137.604341291921
 21
1499.749496429288
 31
0.0
1001
AUTOCAD_POSTSCRIPT_FIGURE
1002
{
1000
PSFILL
1000
Grayscale
1000
Grayscale
1070
   100
1002
}
  0
LINE
  5
43D8
  8
YODOROGO
 10
28098.135520230931
 20
1631.5036372746561
 30
0.0
 11
28098.135520230931
 21
1499.749496429288
 31
0.0
1001
AUTOCAD_POSTSCRIPT_FIGURE
1002
{
1000
PSFILL
1000
Grayscale
1000
Grayscale
1070
   100
1002
}
  0
LINE
  5
43D9
  8
YODOROGO
 10
28137.604341291921
 20
1631.5036372746561
 30
0.0
 11
28098.135520230931
 21
1631.5036372746561
 31
0.0
1001
AUTOCAD_POSTSCRIPT_FIGURE
1002
{
1000
PSFILL
1000
Grayscale
1000
Grayscale
1070
   100
1002
}
  0
LINE
  5
43DA
  8
YODOROGO
 10
28137.604341291921
 20
1655.5036372746561
 30
0.0
 11
28137.604341291921
 21
1631.5036372746561
 31
0.0
1001
AUTOCAD_POSTSCRIPT_FIGURE
1002
{
1000
PSFILL
1000
Grayscale
1000
Grayscale
1070
   100
1002
}
  0
LINE
  5
43DB
  8
YODOROGO
 10
28098.135520230931
 20
1655.5036372746561
 30
0.0
 11
28137.604341291921
 21
1655.5036372746561
 31
0.0
1001
AUTOCAD_POSTSCRIPT_FIGURE
1002
{
1000
PSFILL
1000
Grayscale
1000
Grayscale
1070
   100
1002
}
  0
LINE
  5
43DC
  8
YODOROGO
 10
28401.60434129191
 20
1667.749496429288
 30
0.0
 11
28345.604341291921
 21
1667.749496429288
 31
0.0
  0
LINE
  5
43DD
  8
YODOROGO
 10
28401.60434129191
 20
1611.749496429288
 30
0.0
 11
28401.60434129191
 21
1667.749496429288
 31
0.0
  0
LINE
  5
43DE
  8
YODOROGO
 10
28345.604341291921
 20
1667.749496429288
 30
0.0
 11
28345.604341291921
 21
1611.749496429288
 31
0.0
  0
ARC
  5
43DF
  8
YODOROGO
 10
28513.60434129191
 20
1507.749496429288
 30
0.0
 40
80.0
 50
180.0
 51
270.0
  0
ARC
  5
43E0
  8
YODOROGO
 10
28537.604341291921
 20
1563.7494964292871
 30
0.0
 40
40.0
 50
180.0
 51
270.0
  0
LINE
  5
43E1
  8
YODOROGO
 10
28561.604341291932
 20
1523.7494964292871
 30
0.0
 11
28537.604341291921
 21
1523.7494964292871
 31
0.0
  0
ARC
  5
43E2
  8
YODOROGO
 10
28561.604341291932
 20
1547.749496429285
 30
0.0
 40
23.999999999996358
 50
270.0
 51
0.0000000000054281
  0
LINE
  5
43E3
  8
YODOROGO
 10
27801.604341291921
 20
1890.786580793706
 30
0.0
 11
27777.604341291921
 21
1843.776747951672
 31
0.0
1001
AUTOCAD_POSTSCRIPT_FIGURE
1002
{
1000
PSFILL
1000
Grayscale
1000
Grayscale
1070
   100
1002
}
  0
LINE
  5
43E4
  8
YODOROGO
 10
27801.604341291921
 20
1747.749496429286
 30
0.0
 11
27801.604341291921
 21
1890.786580793706
 31
0.0
1001
AUTOCAD_POSTSCRIPT_FIGURE
1002
{
1000
PSFILL
1000
Grayscale
1000
Grayscale
1070
   100
1002
}
  0
LINE
  5
43E5
  8
YODOROGO
 10
27817.604341291921
 20
1747.749496429286
 30
0.0
 11
27801.604341291921
 21
1747.749496429286
 31
0.0
1001
AUTOCAD_POSTSCRIPT_FIGURE
1002
{
1000
PSFILL
1000
Grayscale
1000
Grayscale
1070
   100
1002
}
  0
LINE
  5
43E6
  8
YODOROGO
 10
27817.604341291921
 20
1893.7713320852661
 30
0.0
 11
27817.604341291921
 21
1747.749496429286
 31
0.0
1001
AUTOCAD_POSTSCRIPT_FIGURE
1002
{
1000
PSFILL
1000
Grayscale
1000
Grayscale
1070
   100
1002
}
  0
LINE
  5
43E7
  8
YODOROGO
 10
27841.604341291921
 20
1867.6547582841361
 30
0.0
 11
27817.604341291921
 21
1893.7713320852661
 31
0.0
1001
AUTOCAD_POSTSCRIPT_FIGURE
1002
{
1000
PSFILL
1000
Grayscale
1000
Grayscale
1070
   100
1002
}
  0
LINE
  5
43E8
  8
YODOROGO
 10
27841.604341291921
 20
1883.6547582841361
 30
0.0
 11
27841.604341291921
 21
1867.6547582841361
 31
0.0
1001
AUTOCAD_POSTSCRIPT_FIGURE
1002
{
1000
PSFILL
1000
Grayscale
1000
Grayscale
1070
   100
1002
}
  0
LINE
  5
43E9
  8
YODOROGO
 10
27817.604341291921
 20
1917.7713320852649
 30
0.0
 11
27841.604341291921
 21
1883.6547582841361
 31
0.0
1001
AUTOCAD_POSTSCRIPT_FIGURE
1002
{
1000
PSFILL
1000
Grayscale
1000
Grayscale
1070
   100
1002
}
  0
LINE
  5
43EA
  8
YODOROGO
 10
27817.604341291921
 20
1939.749496429288
 30
0.0
 11
27817.604341291921
 21
1917.7713320852649
 31
0.0
1001
AUTOCAD_POSTSCRIPT_FIGURE
1002
{
1000
PSFILL
1000
Grayscale
1000
Grayscale
1070
   100
1002
}
  0
LINE
  5
43EB
  8
YODOROGO
 10
27889.604341291921
 20
1939.749496429288
 30
0.0
 11
27817.604341291921
 21
1939.749496429288
 31
0.0
1001
AUTOCAD_POSTSCRIPT_FIGURE
1002
{
1000
PSFILL
1000
Grayscale
1000
Grayscale
1070
   100
1002
}
  0
LINE
  5
43EC
  8
YODOROGO
 10
27889.604341291921
 20
1900.5683489363
 30
0.0
 11
27889.604341291921
 21
1939.749496429288
 31
0.0
1001
AUTOCAD_POSTSCRIPT_FIGURE
1002
{
1000
PSFILL
1000
Grayscale
1000
Grayscale
1070
   100
1002
}
  0
LINE
  5
43ED
  8
YODOROGO
 10
27857.604341291921
 20
1900.5683489363
 30
0.0
 11
27889.604341291921
 21
1900.5683489363
 31
0.0
1001
AUTOCAD_POSTSCRIPT_FIGURE
1002
{
1000
PSFILL
1000
Grayscale
1000
Grayscale
1070
   100
1002
}
  0
LINE
  5
43EE
  8
YODOROGO
 10
27857.604341291921
 20
1884.568348936298
 30
0.0
 11
27857.604341291921
 21
1900.5683489363
 31
0.0
1001
AUTOCAD_POSTSCRIPT_FIGURE
1002
{
1000
PSFILL
1000
Grayscale
1000
Grayscale
1070
   100
1002
}
  0
LINE
  5
43EF
  8
YODOROGO
 10
27889.604341291921
 20
1884.568348936298
 30
0.0
 11
27857.604341291921
 21
1884.568348936298
 31
0.0
1001
AUTOCAD_POSTSCRIPT_FIGURE
1002
{
1000
PSFILL
1000
Grayscale
1000
Grayscale
1070
   100
1002
}
  0
LINE
  5
43F0
  8
YODOROGO
 10
27889.604341291921
 20
1879.6191779644371
 30
0.0
 11
27889.604341291921
 21
1884.568348936298
 31
0.0
1001
AUTOCAD_POSTSCRIPT_FIGURE
1002
{
1000
PSFILL
1000
Grayscale
1000
Grayscale
1070
   100
1002
}
  0
LINE
  5
43F1
  8
YODOROGO
 10
27849.604341291921
 20
1812.974981161417
 30
0.0
 11
27889.604341291921
 21
1879.6191779644371
 31
0.0
1001
AUTOCAD_POSTSCRIPT_FIGURE
1002
{
1000
PSFILL
1000
Grayscale
1000
Grayscale
1070
   100
1002
}
  0
LINE
  5
43F2
  8
YODOROGO
 10
27849.604341291921
 20
1796.9749811614161
 30
0.0
 11
27849.604341291921
 21
1812.974981161417
 31
0.0
1001
AUTOCAD_POSTSCRIPT_FIGURE
1002
{
1000
PSFILL
1000
Grayscale
1000
Grayscale
1070
   100
1002
}
  0
LINE
  5
43F3
  8
YODOROGO
 10
27889.604341291921
 20
1847.6191779644359
 30
0.0
 11
27849.604341291921
 21
1796.9749811614161
 31
0.0
1001
AUTOCAD_POSTSCRIPT_FIGURE
1002
{
1000
PSFILL
1000
Grayscale
1000
Grayscale
1070
   100
1002
}
  0
LINE
  5
43F4
  8
YODOROGO
 10
27889.604341291921
 20
1747.749496429286
 30
0.0
 11
27889.604341291921
 21
1847.6191779644359
 31
0.0
1001
AUTOCAD_POSTSCRIPT_FIGURE
1002
{
1000
PSFILL
1000
Grayscale
1000
Grayscale
1070
   100
1002
}
  0
LINE
  5
43F5
  8
YODOROGO
 10
27905.604341291921
 20
1747.749496429286
 30
0.0
 11
27889.604341291921
 21
1747.749496429286
 31
0.0
1001
AUTOCAD_POSTSCRIPT_FIGURE
1002
{
1000
PSFILL
1000
Grayscale
1000
Grayscale
1070
   100
1002
}
  0
LINE
  5
43F6
  8
YODOROGO
 10
27905.604341291921
 20
1849.409012158806
 30
0.0
 11
27905.604341291921
 21
1747.749496429286
 31
0.0
1001
AUTOCAD_POSTSCRIPT_FIGURE
1002
{
1000
PSFILL
1000
Grayscale
1000
Grayscale
1070
   100
1002
}
  0
LINE
  5
43F7
  8
YODOROGO
 10
27937.604341291921
 20
1796.9749811614161
 30
0.0
 11
27905.604341291921
 21
1849.409012158806
 31
0.0
1001
AUTOCAD_POSTSCRIPT_FIGURE
1002
{
1000
PSFILL
1000
Grayscale
1000
Grayscale
1070
   100
1002
}
  0
LINE
  5
43F8
  8
YODOROGO
 10
27937.604341291921
 20
1812.974981161417
 30
0.0
 11
27937.604341291921
 21
1796.9749811614161
 31
0.0
1001
AUTOCAD_POSTSCRIPT_FIGURE
1002
{
1000
PSFILL
1000
Grayscale
1000
Grayscale
1070
   100
1002
}
  0
LINE
  5
43F9
  8
YODOROGO
 10
27905.604341291921
 20
1881.4090121588081
 30
0.0
 11
27937.604341291921
 21
1812.974981161417
 31
0.0
1001
AUTOCAD_POSTSCRIPT_FIGURE
1002
{
1000
PSFILL
1000
Grayscale
1000
Grayscale
1070
   100
1002
}
  0
LINE
  5
43FA
  8
YODOROGO
 10
27905.604341291921
 20
1884.5683489363
 30
0.0
 11
27905.604341291921
 21
1881.4090121588081
 31
0.0
1001
AUTOCAD_POSTSCRIPT_FIGURE
1002
{
1000
PSFILL
1000
Grayscale
1000
Grayscale
1070
   100
1002
}
  0
LINE
  5
43FB
  8
YODOROGO
 10
27937.604341291921
 20
1884.568348936298
 30
0.0
 11
27905.604341291921
 21
1884.5683489363
 31
0.0
1001
AUTOCAD_POSTSCRIPT_FIGURE
1002
{
1000
PSFILL
1000
Grayscale
1000
Grayscale
1070
   100
1002
}
  0
LINE
  5
43FC
  8
YODOROGO
 10
27937.604341291921
 20
1900.5683489363
 30
0.0
 11
27937.604341291921
 21
1884.568348936298
 31
0.0
1001
AUTOCAD_POSTSCRIPT_FIGURE
1002
{
1000
PSFILL
1000
Grayscale
1000
Grayscale
1070
   100
1002
}
  0
LINE
  5
43FD
  8
YODOROGO
 10
27905.604341291921
 20
1900.5683489363
 30
0.0
 11
27937.604341291921
 21
1900.5683489363
 31
0.0
1001
AUTOCAD_POSTSCRIPT_FIGURE
1002
{
1000
PSFILL
1000
Grayscale
1000
Grayscale
1070
   100
1002
}
  0
LINE
  5
43FE
  8
YODOROGO
 10
27905.604341291921
 20
1939.749496429288
 30
0.0
 11
27905.604341291921
 21
1900.5683489363
 31
0.0
1001
AUTOCAD_POSTSCRIPT_FIGURE
1002
{
1000
PSFILL
1000
Grayscale
1000
Grayscale
1070
   100
1002
}
  0
LINE
  5
43FF
  8
YODOROGO
 10
27937.604341291921
 20
1939.749496429288
 30
0.0
 11
27905.604341291921
 21
1939.749496429288
 31
0.0
1001
AUTOCAD_POSTSCRIPT_FIGURE
1002
{
1000
PSFILL
1000
Grayscale
1000
Grayscale
1070
   100
1002
}
  0
LINE
  5
4400
  8
YODOROGO
 10
27937.604341291921
 20
1955.7494964292871
 30
0.0
 11
27937.604341291921
 21
1939.749496429288
 31
0.0
1001
AUTOCAD_POSTSCRIPT_FIGURE
1002
{
1000
PSFILL
1000
Grayscale
1000
Grayscale
1070
   100
1002
}
  0
LINE
  5
4401
  8
YODOROGO
 10
27905.604341291921
 20
1955.7494964292871
 30
0.0
 11
27937.604341291921
 21
1955.7494964292871
 31
0.0
1001
AUTOCAD_POSTSCRIPT_FIGURE
1002
{
1000
PSFILL
1000
Grayscale
1000
Grayscale
1070
   100
1002
}
  0
LINE
  5
4402
  8
YODOROGO
 10
27905.604341291921
 20
1979.749496429288
 30
0.0
 11
27905.604341291921
 21
1955.7494964292871
 31
0.0
1001
AUTOCAD_POSTSCRIPT_FIGURE
1002
{
1000
PSFILL
1000
Grayscale
1000
Grayscale
1070
   100
1002
}
  0
LINE
  5
4403
  8
YODOROGO
 10
27889.604341291921
 20
1979.749496429288
 30
0.0
 11
27905.604341291921
 21
1979.749496429288
 31
0.0
1001
AUTOCAD_POSTSCRIPT_FIGURE
1002
{
1000
PSFILL
1000
Grayscale
1000
Grayscale
1070
   100
1002
}
  0
LINE
  5
4404
  8
YODOROGO
 10
27889.604341291921
 20
1955.7494964292871
 30
0.0
 11
27889.604341291921
 21
1979.749496429288
 31
0.0
1001
AUTOCAD_POSTSCRIPT_FIGURE
1002
{
1000
PSFILL
1000
Grayscale
1000
Grayscale
1070
   100
1002
}
  0
LINE
  5
4405
  8
YODOROGO
 10
27865.604341291921
 20
1955.7494964292871
 30
0.0
 11
27889.604341291921
 21
1955.7494964292871
 31
0.0
1001
AUTOCAD_POSTSCRIPT_FIGURE
1002
{
1000
PSFILL
1000
Grayscale
1000
Grayscale
1070
   100
1002
}
  0
LINE
  5
4406
  8
YODOROGO
 10
27865.604341291921
 20
1979.749496429288
 30
0.0
 11
27865.604341291921
 21
1955.7494964292871
 31
0.0
1001
AUTOCAD_POSTSCRIPT_FIGURE
1002
{
1000
PSFILL
1000
Grayscale
1000
Grayscale
1070
   100
1002
}
  0
LINE
  5
4407
  8
YODOROGO
 10
27849.604341291921
 20
1979.749496429288
 30
0.0
 11
27865.604341291921
 21
1979.749496429288
 31
0.0
1001
AUTOCAD_POSTSCRIPT_FIGURE
1002
{
1000
PSFILL
1000
Grayscale
1000
Grayscale
1070
   100
1002
}
  0
LINE
  5
4408
  8
YODOROGO
 10
27849.604341291921
 20
1955.7494964292871
 30
0.0
 11
27849.604341291921
 21
1979.749496429288
 31
0.0
1001
AUTOCAD_POSTSCRIPT_FIGURE
1002
{
1000
PSFILL
1000
Grayscale
1000
Grayscale
1070
   100
1002
}
  0
LINE
  5
4409
  8
YODOROGO
 10
27817.604341291921
 20
1955.7494964292871
 30
0.0
 11
27849.604341291921
 21
1955.7494964292871
 31
0.0
1001
AUTOCAD_POSTSCRIPT_FIGURE
1002
{
1000
PSFILL
1000
Grayscale
1000
Grayscale
1070
   100
1002
}
  0
LINE
  5
440A
  8
YODOROGO
 10
27817.604341291921
 20
1979.749496429288
 30
0.0
 11
27817.604341291921
 21
1955.7494964292871
 31
0.0
1001
AUTOCAD_POSTSCRIPT_FIGURE
1002
{
1000
PSFILL
1000
Grayscale
1000
Grayscale
1070
   100
1002
}
  0
LINE
  5
440B
  8
YODOROGO
 10
27801.604341291921
 20
1979.749496429288
 30
0.0
 11
27817.604341291921
 21
1979.749496429288
 31
0.0
1001
AUTOCAD_POSTSCRIPT_FIGURE
1002
{
1000
PSFILL
1000
Grayscale
1000
Grayscale
1070
   100
1002
}
  0
LINE
  5
440C
  8
YODOROGO
 10
27801.604341291921
 20
1955.7494964292871
 30
0.0
 11
27801.604341291921
 21
1979.749496429288
 31
0.0
1001
AUTOCAD_POSTSCRIPT_FIGURE
1002
{
1000
PSFILL
1000
Grayscale
1000
Grayscale
1070
   100
1002
}
  0
LINE
  5
440D
  8
YODOROGO
 10
27777.604341291921
 20
1955.7494964292871
 30
0.0
 11
27801.604341291921
 21
1955.7494964292871
 31
0.0
1001
AUTOCAD_POSTSCRIPT_FIGURE
1002
{
1000
PSFILL
1000
Grayscale
1000
Grayscale
1070
   100
1002
}
  0
LINE
  5
440E
  8
YODOROGO
 10
27777.604341291921
 20
1939.749496429288
 30
0.0
 11
27777.604341291921
 21
1955.7494964292871
 31
0.0
1001
AUTOCAD_POSTSCRIPT_FIGURE
1002
{
1000
PSFILL
1000
Grayscale
1000
Grayscale
1070
   100
1002
}
  0
LINE
  5
440F
  8
YODOROGO
 10
27801.604341291921
 20
1939.749496429288
 30
0.0
 11
27777.604341291921
 21
1939.749496429288
 31
0.0
1001
AUTOCAD_POSTSCRIPT_FIGURE
1002
{
1000
PSFILL
1000
Grayscale
1000
Grayscale
1070
   100
1002
}
  0
LINE
  5
4410
  8
YODOROGO
 10
27801.604341291921
 20
1914.7865807937051
 30
0.0
 11
27801.604341291921
 21
1939.749496429288
 31
0.0
1001
AUTOCAD_POSTSCRIPT_FIGURE
1002
{
1000
PSFILL
1000
Grayscale
1000
Grayscale
1070
   100
1002
}
  0
LINE
  5
4411
  8
YODOROGO
 10
27777.604341291921
 20
1859.776747951671
 30
0.0
 11
27801.604341291921
 21
1914.7865807937051
 31
0.0
1001
AUTOCAD_POSTSCRIPT_FIGURE
1002
{
1000
PSFILL
1000
Grayscale
1000
Grayscale
1070
   100
1002
}
  0
LINE
  5
4412
  8
YODOROGO
 10
27777.604341291921
 20
1843.776747951672
 30
0.0
 11
27777.604341291921
 21
1859.776747951671
 31
0.0
1001
AUTOCAD_POSTSCRIPT_FIGURE
1002
{
1000
PSFILL
1000
Grayscale
1000
Grayscale
1070
   100
1002
}
  0
LINE
  5
4413
  8
YODOROGO
 10
28257.604341291921
 20
1867.7494964292871
 30
0.0
 11
28401.60434129191
 21
1824.877625640306
 31
0.0
1001
AUTOCAD_POSTSCRIPT_FIGURE
1002
{
1000
PSFILL
1000
Grayscale
1000
Grayscale
1070
   100
1002
}
  0
LINE
  5
4414
  8
YODOROGO
 10
28401.60434129191
 20
1752.877625640306
 30
0.0
 11
28257.604341291921
 21
1795.7494964292871
 31
0.0
1001
AUTOCAD_POSTSCRIPT_FIGURE
1002
{
1000
PSFILL
1000
Grayscale
1000
Grayscale
1070
   100
1002
}
  0
LINE
  5
4415
  8
YODOROGO
 10
28401.60434129191
 20
1984.877625640306
 30
0.0
 11
28257.604341291921
 21
2027.749496429288
 31
0.0
1001
AUTOCAD_POSTSCRIPT_FIGURE
1002
{
1000
PSFILL
1000
Grayscale
1000
Grayscale
1070
   100
1002
}
  0
LINE
  5
4416
  8
YODOROGO
 10
28257.604341291921
 20
1959.749496429288
 30
0.0
 11
28401.60434129191
 21
1916.8776256403071
 31
0.0
1001
AUTOCAD_POSTSCRIPT_FIGURE
1002
{
1000
PSFILL
1000
Grayscale
1000
Grayscale
1070
   100
1002
}
  0
LINE
  5
4417
  8
YODOROGO
 10
28257.604341291921
 20
1795.7494964292871
 30
0.0
 11
28257.604341291921
 21
1867.7494964292871
 31
0.0
1001
AUTOCAD_POSTSCRIPT_FIGURE
1002
{
1000
PSFILL
1000
Grayscale
1000
Grayscale
1070
   100
1002
}
  0
LINE
  5
4418
  8
YODOROGO
 10
28257.604341291921
 20
2027.749496429288
 30
0.0
 11
28257.604341291921
 21
1959.749496429288
 31
0.0
1001
AUTOCAD_POSTSCRIPT_FIGURE
1002
{
1000
PSFILL
1000
Grayscale
1000
Grayscale
1070
   100
1002
}
  0
LINE
  5
4419
  8
YODOROGO
 10
28080.236320206739
 20
1939.749496429288
 30
0.0
 11
28129.60434129191
 21
1747.749496429286
 31
0.0
1001
AUTOCAD_POSTSCRIPT_FIGURE
1002
{
1000
PSFILL
1000
Grayscale
1000
Grayscale
1070
   100
1002
}
  0
LINE
  5
441A
  8
YODOROGO
 10
27977.604341291921
 20
1939.749496429288
 30
0.0
 11
28080.236320206739
 21
1939.749496429288
 31
0.0
1001
AUTOCAD_POSTSCRIPT_FIGURE
1002
{
1000
PSFILL
1000
Grayscale
1000
Grayscale
1070
   100
1002
}
  0
LINE
  5
441B
  8
YODOROGO
 10
27977.604341291921
 20
1955.7494964292871
 30
0.0
 11
27977.604341291921
 21
1939.749496429288
 31
0.0
1001
AUTOCAD_POSTSCRIPT_FIGURE
1002
{
1000
PSFILL
1000
Grayscale
1000
Grayscale
1070
   100
1002
}
  0
LINE
  5
441C
  8
YODOROGO
 10
28076.60687851991
 20
1955.7494964292871
 30
0.0
 11
27977.604341291921
 21
1955.7494964292871
 31
0.0
1001
AUTOCAD_POSTSCRIPT_FIGURE
1002
{
1000
PSFILL
1000
Grayscale
1000
Grayscale
1070
   100
1002
}
  0
LINE
  5
441D
  8
YODOROGO
 10
28071.162715989711
 20
1979.749496429288
 30
0.0
 11
28076.60687851991
 21
1955.7494964292871
 31
0.0
1001
AUTOCAD_POSTSCRIPT_FIGURE
1002
{
1000
PSFILL
1000
Grayscale
1000
Grayscale
1070
   100
1002
}
  0
LINE
  5
441E
  8
YODOROGO
 10
28091.162715989711
 20
1979.749496429288
 30
0.0
 11
28071.162715989711
 21
1979.749496429288
 31
0.0
1001
AUTOCAD_POSTSCRIPT_FIGURE
1002
{
1000
PSFILL
1000
Grayscale
1000
Grayscale
1070
   100
1002
}
  0
LINE
  5
441F
  8
YODOROGO
 10
28095.806878519939
 20
1955.7494964292871
 30
0.0
 11
28091.162715989711
 21
1979.749496429288
 31
0.0
1001
AUTOCAD_POSTSCRIPT_FIGURE
1002
{
1000
PSFILL
1000
Grayscale
1000
Grayscale
1070
   100
1002
}
  0
LINE
  5
4420
  8
YODOROGO
 10
28121.604341291921
 20
1955.7494964292871
 30
0.0
 11
28095.806878519939
 21
1955.7494964292871
 31
0.0
1001
AUTOCAD_POSTSCRIPT_FIGURE
1002
{
1000
PSFILL
1000
Grayscale
1000
Grayscale
1070
   100
1002
}
  0
LINE
  5
4421
  8
YODOROGO
 10
28121.604341291921
 20
1979.749496429288
 30
0.0
 11
28121.604341291921
 21
1955.7494964292871
 31
0.0
1001
AUTOCAD_POSTSCRIPT_FIGURE
1002
{
1000
PSFILL
1000
Grayscale
1000
Grayscale
1070
   100
1002
}
  0
LINE
  5
4422
  8
YODOROGO
 10
28137.604341291921
 20
1979.749496429288
 30
0.0
 11
28121.604341291921
 21
1979.749496429288
 31
0.0
1001
AUTOCAD_POSTSCRIPT_FIGURE
1002
{
1000
PSFILL
1000
Grayscale
1000
Grayscale
1070
   100
1002
}
  0
LINE
  5
4423
  8
YODOROGO
 10
28137.604341291921
 20
1955.7494964292871
 30
0.0
 11
28137.604341291921
 21
1979.749496429288
 31
0.0
1001
AUTOCAD_POSTSCRIPT_FIGURE
1002
{
1000
PSFILL
1000
Grayscale
1000
Grayscale
1070
   100
1002
}
  0
LINE
  5
4424
  8
YODOROGO
 10
28137.604341291921
 20
1939.749496429288
 30
0.0
 11
28137.604341291921
 21
1955.7494964292871
 31
0.0
1001
AUTOCAD_POSTSCRIPT_FIGURE
1002
{
1000
PSFILL
1000
Grayscale
1000
Grayscale
1070
   100
1002
}
  0
LINE
  5
4425
  8
YODOROGO
 10
28098.902986873411
 20
1939.749496429288
 30
0.0
 11
28137.604341291921
 21
1939.749496429288
 31
0.0
1001
AUTOCAD_POSTSCRIPT_FIGURE
1002
{
1000
PSFILL
1000
Grayscale
1000
Grayscale
1070
   100
1002
}
  0
LINE
  5
4426
  8
YODOROGO
 10
28137.604341291921
 20
1747.749496429286
 30
0.0
 11
28098.902986873411
 21
1939.749496429288
 31
0.0
1001
AUTOCAD_POSTSCRIPT_FIGURE
1002
{
1000
PSFILL
1000
Grayscale
1000
Grayscale
1070
   100
1002
}
  0
LINE
  5
4427
  8
YODOROGO
 10
28129.60434129191
 20
1747.749496429286
 30
0.0
 11
28137.604341291921
 21
1747.749496429286
 31
0.0
1001
AUTOCAD_POSTSCRIPT_FIGURE
1002
{
1000
PSFILL
1000
Grayscale
1000
Grayscale
1070
   100
1002
}
  0
LINE
  5
4428
  8
YODOROGO
 10
28078.06921993379
 20
1775.7407762987939
 30
0.0
 11
27977.604341291921
 21
1747.749496429286
 31
0.0
  0
LINE
  5
4429
  8
YODOROGO
 10
28078.06921993379
 20
1798.6689795290731
 30
0.0
 11
28078.06921993379
 21
1775.7407762987939
 31
0.0
  0
LINE
  5
442A
  8
YODOROGO
 10
28033.83678061287
 20
1786.816933133767
 30
0.0
 11
28078.06921993379
 21
1798.6689795290731
 31
0.0
  0
LINE
  5
442B
  8
YODOROGO
 10
28033.83678061287
 20
1872.5683489362989
 30
0.0
 11
28033.83678061287
 21
1786.816933133767
 31
0.0
  0
LINE
  5
442C
  8
YODOROGO
 10
28078.06921993379
 20
1872.5683489362989
 30
0.0
 11
28033.83678061287
 21
1872.5683489362989
 31
0.0
  0
LINE
  5
442D
  8
YODOROGO
 10
28078.06921993379
 20
1892.568348936298
 30
0.0
 11
28078.06921993379
 21
1872.5683489362989
 31
0.0
  0
LINE
  5
442E
  8
YODOROGO
 10
27977.604341291921
 20
1892.568348936298
 30
0.0
 11
28078.06921993379
 21
1892.568348936298
 31
0.0
  0
LINE
  5
442F
  8
YODOROGO
 10
27977.604341291921
 20
1872.5683489362989
 30
0.0
 11
27977.604341291921
 21
1892.568348936298
 31
0.0
  0
LINE
  5
4430
  8
YODOROGO
 10
28021.836780612852
 20
1872.5683489362989
 30
0.0
 11
27977.604341291921
 21
1872.5683489362989
 31
0.0
  0
LINE
  5
4431
  8
YODOROGO
 10
28021.836780612852
 20
1784.673339594317
 30
0.0
 11
28021.836780612852
 21
1872.5683489362989
 31
0.0
  0
LINE
  5
4432
  8
YODOROGO
 10
27977.604341291921
 20
1771.749496429286
 30
0.0
 11
28021.836780612852
 21
1784.673339594317
 31
0.0
  0
LINE
  5
4433
  8
YODOROGO
 10
27977.604341291921
 20
1747.749496429286
 30
0.0
 11
27977.604341291921
 21
1771.749496429286
 31
0.0
  0
LINE
  5
4434
  8
YODOROGO
 10
28001.604341291921
 20
1707.749496429288
 30
0.0
 11
28001.604341291921
 21
1683.7494964292871
 31
0.0
  0
LINE
  5
4436
  8
YODOROGO
 10
28017.604341291921
 20
1707.749496429288
 30
0.0
 11
28001.604341291921
 21
1707.749496429288
 31
0.0
  0
LINE
  5
4437
  8
YODOROGO
 10
28017.604341291921
 20
1683.7494964292871
 30
0.0
 11
28017.604341291921
 21
1707.749496429288
 31
0.0
  0
LINE
  5
4438
  8
YODOROGO
 10
28040.913204016892
 20
1683.7494964292871
 30
0.0
 11
28017.604341291921
 21
1683.7494964292871
 31
0.0
  0
LINE
  5
4439
  8
YODOROGO
 10
28001.604341291921
 20
1683.7494964292871
 30
0.0
 11
27977.604341291921
 21
1683.7494964292871
 31
0.0
  0
LINE
  5
443A
  8
YODOROGO
 10
28082.135520230921
 20
1707.749496429288
 30
0.0
 11
28098.135520230931
 21
1707.749496429288
 31
0.0
1001
AUTOCAD_POSTSCRIPT_FIGURE
1002
{
1000
PSFILL
1000
Grayscale
1000
Grayscale
1070
   100
1002
}
  0
LINE
  5
443B
  8
YODOROGO
 10
28401.60434129191
 20
1824.877625640306
 30
0.0
 11
28401.60434129191
 21
1752.877625640306
 31
0.0
1001
AUTOCAD_POSTSCRIPT_FIGURE
1002
{
1000
PSFILL
1000
Grayscale
1000
Grayscale
1070
   100
1002
}
  0
LINE
  5
443C
  8
YODOROGO
 10
28401.60434129191
 20
1916.8776256403071
 30
0.0
 11
28401.60434129191
 21
1984.877625640306
 31
0.0
1001
AUTOCAD_POSTSCRIPT_FIGURE
1002
{
1000
PSFILL
1000
Grayscale
1000
Grayscale
1070
   100
1002
}
  0
LINE
  5
443D
  8
YODOROGO
 10
28433.60434129191
 20
1819.7494964292871
 30
0.0
 11
28433.60434129191
 21
1747.74949642929
 31
0.0
  0
LINE
  5
443E
  8
YODOROGO
 10
28497.60434129191
 20
1707.749496429288
 30
0.0
 11
28433.60434129191
 21
1707.749496429288
 31
0.0
  0
LINE
  5
443F
  8
YODOROGO
 10
28433.60434129191
 20
1747.74949642929
 30
0.0
 11
28585.604341291921
 21
1747.74949642929
 31
0.0
  0
LINE
  5
4440
  8
YODOROGO
 10
28497.60434129191
 20
1867.7494964292871
 30
0.0
 11
28433.60434129191
 21
1867.7494964292871
 31
0.0
  0
LINE
  5
4441
  8
YODOROGO
 10
28497.60434129191
 20
1923.7494964292871
 30
0.0
 11
28497.60434129191
 21
1867.7494964292871
 31
0.0
  0
LINE
  5
4442
  8
YODOROGO
 10
28585.604341291921
 20
1987.7494964292871
 30
0.0
 11
28585.604341291921
 21
2027.749496429288
 31
0.0
  0
LINE
  5
4443
  8
YODOROGO
 10
28433.60434129191
 20
1987.7494964292871
 30
0.0
 11
28585.604341291921
 21
1987.7494964292871
 31
0.0
  0
LINE
  5
4444
  8
YODOROGO
 10
28433.60434129191
 20
1867.7494964292871
 30
0.0
 11
28433.60434129191
 21
1987.7494964292871
 31
0.0
  0
LINE
  5
4445
  8
YODOROGO
 10
29001.60434129191
 20
2027.749496429288
 30
0.0
 11
29001.60434129191
 21
1619.749496429288
 31
0.0
  0
LINE
  5
4446
  8
YODOROGO
 10
29073.604341291921
 20
1579.749496429288
 30
0.0
 11
29073.604341291921
 21
2027.749496429288
 31
0.0
  0
LINE
  5
4447
  8
YODOROGO
 10
29261.604341291921
 20
1491.749496429286
 30
0.0
 11
29261.604341291921
 21
2007.749496429288
 31
0.0
  0
LINE
  5
4448
  8
YODOROGO
 10
29197.604341291921
 20
2007.749496429288
 30
0.0
 11
29197.604341291921
 21
1491.749496429286
 31
0.0
  0
LINE
  5
4449
  8
YODOROGO
 10
29385.604341291921
 20
2027.749496429288
 30
0.0
 11
29385.604341291921
 21
1427.749496429288
 31
0.0
  0
LINE
  5
444A
  8
YODOROGO
 10
29457.604341291921
 20
1427.749496429288
 30
0.0
 11
29457.604341291921
 21
2027.749496429288
 31
0.0
  0
LINE
  5
444B
  8
YODOROGO
 10
28657.604341291921
 20
1667.749496429288
 30
0.0
 11
28657.604341291921
 21
1747.74949642929
 31
0.0
  0
LINE
  5
444C
  8
YODOROGO
 10
29885.604341291921
 20
1707.749496429288
 30
0.0
 11
29885.604341291921
 21
1667.749496429288
 31
0.0
  0
LINE
  5
444D
  8
YODOROGO
 10
29885.604341291921
 20
1707.749496429288
 30
0.0
 11
29885.604341291921
 21
1667.749496429288
 31
0.0
  0
ARC
  5
444E
  8
YODOROGO
 10
28906.911576186842
 20
1618.217864442272
 30
0.0
 40
94.705151178741644
 50
274.05244162907098
 51
0.9266642149310712
  0
ARC
  5
444F
  8
YODOROGO
 10
28909.186170719819
 20
1592.61072861044
 30
0.0
 40
164.92042356085511
 50
271.5351210653775
 51
355.52727750585052
  0
LINE
  5
4450
  8
YODOROGO
 10
28913.604341291921
 20
1523.7494964292871
 30
0.0
 11
28913.604341291921
 21
1427.749496429288
 31
0.0
  0
LINE
  5
4451
  8
YODOROGO
 10
28793.60434129191
 20
1667.749496429288
 30
0.0
 11
28657.604341291921
 21
1667.749496429288
 31
0.0
  0
LINE
  5
4452
  8
YODOROGO
 10
28793.60434129191
 20
1603.7494964292871
 30
0.0
 11
28793.60434129191
 21
1667.749496429288
 31
0.0
  0
LINE
  5
4453
  8
YODOROGO
 10
28657.604341291921
 20
1603.7494964292871
 30
0.0
 11
28793.60434129191
 21
1603.7494964292871
 31
0.0
  0
LINE
  5
4454
  8
YODOROGO
 10
28657.604341291921
 20
1523.7494964292871
 30
0.0
 11
28657.604341291921
 21
1603.7494964292871
 31
0.0
  0
LINE
  5
4455
  8
YODOROGO
 10
28793.60434129191
 20
1523.7494964292871
 30
0.0
 11
28657.604341291921
 21
1523.7494964292871
 31
0.0
  0
LINE
  5
4456
  8
YODOROGO
 10
28793.60434129191
 20
1427.749496429288
 30
0.0
 11
28793.60434129191
 21
1523.7494964292871
 31
0.0
  0
LINE
  5
4457
  8
YODOROGO
 10
29197.604341291921
 20
1491.749496429286
 30
0.0
 11
29261.604341291921
 21
1491.749496429286
 31
0.0
  0
LINE
  5
4458
  8
YODOROGO
 10
29385.604341291921
 20
1427.749496429288
 30
0.0
 11
29457.604341291921
 21
1427.749496429288
 31
0.0
  0
LINE
  5
4459
  8
YODOROGO
 10
29737.604341291921
 20
1528.4414521705639
 30
0.0
 11
29737.604341291921
 21
1427.749496429288
 31
0.0
  0
LINE
  5
445A
  8
YODOROGO
 10
29617.604341291921
 20
1427.749496429288
 30
0.0
 11
29737.604341291921
 21
1528.4414521705639
 31
0.0
  0
LINE
  5
445B
  8
YODOROGO
 10
29617.604341291921
 20
1547.749496429288
 30
0.0
 11
29617.604341291921
 21
1427.749496429288
 31
0.0
  0
LINE
  5
445C
  8
YODOROGO
 10
29712.94462869945
 20
1627.749496429288
 30
0.0
 11
29617.604341291921
 21
1547.749496429288
 31
0.0
  0
LINE
  5
445D
  8
YODOROGO
 10
29617.604341291921
 20
1627.749496429288
 30
0.0
 11
29712.94462869945
 21
1627.749496429288
 31
0.0
  0
LINE
  5
445E
  8
YODOROGO
 10
29617.604341291921
 20
1667.749496429288
 30
0.0
 11
29617.604341291921
 21
1627.749496429288
 31
0.0
  0
LINE
  5
445F
  8
YODOROGO
 10
29885.604341291921
 20
1667.749496429288
 30
0.0
 11
29617.604341291921
 21
1667.749496429288
 31
0.0
  0
LINE
  5
4460
  8
YODOROGO
 10
29917.604341291921
 20
1627.749496429288
 30
0.0
 11
29777.604341291921
 21
1627.749496429288
 31
0.0
  0
LINE
  5
4461
  8
YODOROGO
 10
29777.604341291921
 20
1562.0054374176559
 30
0.0
 11
29771.409872985321
 21
1556.807661346234
 31
0.0
  0
LINE
  5
4462
  8
YODOROGO
 10
29777.604341291921
 20
1627.749496429288
 30
0.0
 11
29777.604341291921
 21
1562.0054374176559
 31
0.0
  0
LINE
  5
4463
  8
YODOROGO
 10
29737.604341291921
 20
1528.4414521705639
 30
0.0
 11
29737.604341291921
 21
1427.749496429288
 31
0.0
  0
LINE
  5
4464
  8
YODOROGO
 10
29617.604341291921
 20
1427.749496429288
 30
0.0
 11
29737.604341291921
 21
1528.4414521705639
 31
0.0
  0
LINE
  5
4465
  8
YODOROGO
 10
29617.604341291921
 20
1547.749496429288
 30
0.0
 11
29617.604341291921
 21
1427.749496429288
 31
0.0
  0
LINE
  5
4466
  8
YODOROGO
 10
29712.94462869945
 20
1627.749496429288
 30
0.0
 11
29617.604341291921
 21
1547.749496429288
 31
0.0
  0
LINE
  5
4467
  8
YODOROGO
 10
29617.604341291921
 20
1627.749496429288
 30
0.0
 11
29712.94462869945
 21
1627.749496429288
 31
0.0
  0
LINE
  5
4468
  8
YODOROGO
 10
29617.604341291921
 20
1667.749496429288
 30
0.0
 11
29617.604341291921
 21
1627.749496429288
 31
0.0
  0
LINE
  5
4469
  8
YODOROGO
 10
29885.604341291921
 20
1667.749496429288
 30
0.0
 11
29617.604341291921
 21
1667.749496429288
 31
0.0
  0
LINE
  5
446A
  8
YODOROGO
 10
28793.60434129191
 20
1747.74949642929
 30
0.0
 11
28793.60434129191
 21
1819.7494964292871
 31
0.0
  0
LINE
  5
446B
  8
YODOROGO
 10
28657.604341291921
 20
1747.74949642929
 30
0.0
 11
28793.60434129191
 21
1747.74949642929
 31
0.0
  0
LINE
  5
446C
  8
YODOROGO
 10
28729.604341291921
 20
1867.7494964292871
 30
0.0
 11
28729.604341291921
 21
1923.7494964292871
 31
0.0
  0
LINE
  5
446D
  8
YODOROGO
 10
28793.60434129191
 20
1867.7494964292871
 30
0.0
 11
28729.604341291921
 21
1867.7494964292871
 31
0.0
  0
LINE
  5
446E
  8
YODOROGO
 10
28793.60434129191
 20
1947.749496429288
 30
0.0
 11
28793.60434129191
 21
1867.7494964292871
 31
0.0
  0
ARC
  5
446F
  8
YODOROGO
 10
28753.60434129191
 20
1947.749496429288
 30
0.0
 40
40.0
 50
0.0
 51
90.0
  0
LINE
  5
4470
  8
YODOROGO
 10
28657.604341291921
 20
1987.7494964292871
 30
0.0
 11
28753.60434129191
 21
1987.7494964292871
 31
0.0
  0
LINE
  5
4471
  8
YODOROGO
 10
28657.604341291921
 20
2027.749496429288
 30
0.0
 11
28657.604341291921
 21
1987.7494964292871
 31
0.0
  0
LINE
  5
4472
  8
YODOROGO
 10
29073.604341291921
 20
2027.749496429288
 30
0.0
 11
29001.60434129191
 21
2027.749496429288
 31
0.0
  0
LINE
  5
4473
  8
YODOROGO
 10
29261.604341291921
 20
2007.749496429288
 30
0.0
 11
29197.604341291921
 21
2007.749496429288
 31
0.0
  0
LINE
  5
4474
  8
YODOROGO
 10
29457.604341291921
 20
2027.749496429288
 30
0.0
 11
29385.604341291921
 21
2027.749496429288
 31
0.0
  0
LINE
  5
4475
  8
YODOROGO
 10
29673.604341291921
 20
1707.749496429288
 30
0.0
 11
29673.604341291921
 21
1771.7494964292871
 31
0.0
1001
AUTOCAD_POSTSCRIPT_FIGURE
1002
{
1000
PSFILL
1000
Grayscale
1000
Grayscale
1070
    25
1002
}
  0
LINE
  5
4476
  8
YODOROGO
 10
29617.604341291921
 20
1707.749496429288
 30
0.0
 11
29673.604341291921
 21
1707.749496429288
 31
0.0
1001
AUTOCAD_POSTSCRIPT_FIGURE
1002
{
1000
PSFILL
1000
Grayscale
1000
Grayscale
1070
    25
1002
}
  0
LINE
  5
4477
  8
YODOROGO
 10
29617.604341291921
 20
1819.7494964292871
 30
0.0
 11
29617.604341291921
 21
1707.749496429288
 31
0.0
1001
AUTOCAD_POSTSCRIPT_FIGURE
1002
{
1000
PSFILL
1000
Grayscale
1000
Grayscale
1070
    25
1002
}
  0
LINE
  5
4478
  8
YODOROGO
 10
29765.604341291921
 20
1819.7494964292871
 30
0.0
 11
29617.604341291921
 21
1819.7494964292871
 31
0.0
1001
AUTOCAD_POSTSCRIPT_FIGURE
1002
{
1000
PSFILL
1000
Grayscale
1000
Grayscale
1070
    25
1002
}
  0
LINE
  5
4479
  8
YODOROGO
 10
29765.604341291921
 20
1859.749496429288
 30
0.0
 11
29765.604341291921
 21
1819.7494964292871
 31
0.0
1001
AUTOCAD_POSTSCRIPT_FIGURE
1002
{
1000
PSFILL
1000
Grayscale
1000
Grayscale
1070
    25
1002
}
  0
LINE
  5
447A
  8
YODOROGO
 10
29617.604341291921
 20
1859.749496429288
 30
0.0
 11
29765.604341291921
 21
1859.749496429288
 31
0.0
1001
AUTOCAD_POSTSCRIPT_FIGURE
1002
{
1000
PSFILL
1000
Grayscale
1000
Grayscale
1070
    25
1002
}
  0
LINE
  5
447B
  8
YODOROGO
 10
29617.604341291921
 20
1907.7494964292871
 30
0.0
 11
29617.604341291921
 21
1859.749496429288
 31
0.0
1001
AUTOCAD_POSTSCRIPT_FIGURE
1002
{
1000
PSFILL
1000
Grayscale
1000
Grayscale
1070
    25
1002
}
  0
LINE
  5
447C
  8
YODOROGO
 10
29765.604341291921
 20
1907.7494964292871
 30
0.0
 11
29617.604341291921
 21
1907.7494964292871
 31
0.0
1001
AUTOCAD_POSTSCRIPT_FIGURE
1002
{
1000
PSFILL
1000
Grayscale
1000
Grayscale
1070
    25
1002
}
  0
LINE
  5
447D
  8
YODOROGO
 10
29765.604341291921
 20
1947.749496429288
 30
0.0
 11
29765.604341291921
 21
1907.7494964292871
 31
0.0
1001
AUTOCAD_POSTSCRIPT_FIGURE
1002
{
1000
PSFILL
1000
Grayscale
1000
Grayscale
1070
    25
1002
}
  0
LINE
  5
447E
  8
YODOROGO
 10
29617.604341291921
 20
1947.749496429288
 30
0.0
 11
29765.604341291921
 21
1947.749496429288
 31
0.0
1001
AUTOCAD_POSTSCRIPT_FIGURE
1002
{
1000
PSFILL
1000
Grayscale
1000
Grayscale
1070
    25
1002
}
  0
LINE
  5
447F
  8
YODOROGO
 10
29617.604341291921
 20
2027.749496429288
 30
0.0
 11
29617.604341291921
 21
1947.749496429288
 31
0.0
1001
AUTOCAD_POSTSCRIPT_FIGURE
1002
{
1000
PSFILL
1000
Grayscale
1000
Grayscale
1070
    25
1002
}
  0
LINE
  5
4480
  8
YODOROGO
 10
29665.604341291921
 20
2027.749496429288
 30
0.0
 11
29617.604341291921
 21
2027.749496429288
 31
0.0
1001
AUTOCAD_POSTSCRIPT_FIGURE
1002
{
1000
PSFILL
1000
Grayscale
1000
Grayscale
1070
    25
1002
}
  0
LINE
  5
4481
  8
YODOROGO
 10
29665.604341291921
 20
1995.7494964292871
 30
0.0
 11
29665.604341291921
 21
2027.749496429288
 31
0.0
1001
AUTOCAD_POSTSCRIPT_FIGURE
1002
{
1000
PSFILL
1000
Grayscale
1000
Grayscale
1070
    25
1002
}
  0
LINE
  5
4482
  8
YODOROGO
 10
29765.604341291921
 20
1995.7494964292871
 30
0.0
 11
29665.604341291921
 21
1995.7494964292871
 31
0.0
1001
AUTOCAD_POSTSCRIPT_FIGURE
1002
{
1000
PSFILL
1000
Grayscale
1000
Grayscale
1070
    25
1002
}
  0
LINE
  5
4483
  8
YODOROGO
 10
29765.604341291921
 20
2027.749496429288
 30
0.0
 11
29765.604341291921
 21
1995.7494964292871
 31
0.0
1001
AUTOCAD_POSTSCRIPT_FIGURE
1002
{
1000
PSFILL
1000
Grayscale
1000
Grayscale
1070
    25
1002
}
  0
LINE
  5
4484
  8
YODOROGO
 10
29829.604341291921
 20
2027.749496429288
 30
0.0
 11
29765.604341291921
 21
2027.749496429288
 31
0.0
1001
AUTOCAD_POSTSCRIPT_FIGURE
1002
{
1000
PSFILL
1000
Grayscale
1000
Grayscale
1070
    25
1002
}
  0
LINE
  5
4485
  8
YODOROGO
 10
29829.604341291921
 20
1995.7494964292871
 30
0.0
 11
29829.604341291921
 21
2027.749496429288
 31
0.0
1001
AUTOCAD_POSTSCRIPT_FIGURE
1002
{
1000
PSFILL
1000
Grayscale
1000
Grayscale
1070
    25
1002
}
  0
LINE
  5
4486
  8
YODOROGO
 10
29829.604341291921
 20
1907.7494964292871
 30
0.0
 11
29829.604341291921
 21
1947.749496429288
 31
0.0
1001
AUTOCAD_POSTSCRIPT_FIGURE
1002
{
1000
PSFILL
1000
Grayscale
1000
Grayscale
1070
    25
1002
}
  0
LINE
  5
4487
  8
YODOROGO
 10
29829.604341291921
 20
1819.7494964292871
 30
0.0
 11
29829.604341291921
 21
1859.749496429288
 31
0.0
1001
AUTOCAD_POSTSCRIPT_FIGURE
1002
{
1000
PSFILL
1000
Grayscale
1000
Grayscale
1070
    25
1002
}
  0
LINE
  5
4488
  8
YODOROGO
 10
29921.60434129191
 20
1771.7494964292871
 30
0.0
 11
29921.60434129191
 21
1707.749496429288
 31
0.0
1001
AUTOCAD_POSTSCRIPT_FIGURE
1002
{
1000
PSFILL
1000
Grayscale
1000
Grayscale
1070
    25
1002
}
  0
LINE
  5
4489
  8
YODOROGO
 10
29829.604341291921
 20
1771.7494964292871
 30
0.0
 11
29921.60434129191
 21
1771.7494964292871
 31
0.0
1001
AUTOCAD_POSTSCRIPT_FIGURE
1002
{
1000
PSFILL
1000
Grayscale
1000
Grayscale
1070
    25
1002
}
  0
LINE
  5
448A
  8
YODOROGO
 10
29829.604341291921
 20
1707.749496429288
 30
0.0
 11
29829.604341291921
 21
1771.7494964292871
 31
0.0
1001
AUTOCAD_POSTSCRIPT_FIGURE
1002
{
1000
PSFILL
1000
Grayscale
1000
Grayscale
1070
    25
1002
}
  0
LINE
  5
448B
  8
YODOROGO
 10
29765.604341291921
 20
1707.749496429288
 30
0.0
 11
29829.604341291921
 21
1707.749496429288
 31
0.0
1001
AUTOCAD_POSTSCRIPT_FIGURE
1002
{
1000
PSFILL
1000
Grayscale
1000
Grayscale
1070
    25
1002
}
  0
LINE
  5
448C
  8
YODOROGO
 10
29765.604341291921
 20
1771.7494964292871
 30
0.0
 11
29765.604341291921
 21
1707.749496429288
 31
0.0
1001
AUTOCAD_POSTSCRIPT_FIGURE
1002
{
1000
PSFILL
1000
Grayscale
1000
Grayscale
1070
    25
1002
}
  0
LINE
  5
448D
  8
YODOROGO
 10
29673.604341291921
 20
1771.7494964292871
 30
0.0
 11
29765.604341291921
 21
1771.7494964292871
 31
0.0
1001
AUTOCAD_POSTSCRIPT_FIGURE
1002
{
1000
PSFILL
1000
Grayscale
1000
Grayscale
1070
    25
1002
}
  0
ARC
  5
448E
  8
YODOROGO
 10
31059.517893357912
 20
1602.6807375155761
 30
0.0
 40
178.22128111072141
 50
281.02627495425338
 51
357.77113575573799
  0
LINE
  5
448F
  8
YODOROGO
 10
31413.604341291921
 20
1907.7494964292871
 30
0.0
 11
31165.604341291921
 21
1907.7494964292871
 31
0.0
  0
LINE
  5
4490
  8
YODOROGO
 10
31413.604341291921
 20
2027.749496429288
 30
0.0
 11
31165.604341291921
 21
2027.749496429288
 31
0.0
  0
LINE
  5
4491
  8
YODOROGO
 10
31165.604341291921
 20
1963.749496429286
 30
0.0
 11
31413.604341291921
 21
1963.749496429286
 31
0.0
  0
LINE
  5
4492
  8
YODOROGO
 10
30791.604341291921
 20
1563.7494964292871
 30
0.0
 11
30791.604341291921
 21
1755.7494964292871
 31
0.0
  0
LINE
  5
4493
  8
YODOROGO
 10
30763.604341291921
 20
1691.749496429288
 30
0.0
 11
30763.604341291921
 21
1563.7494964292871
 31
0.0
  0
LINE
  5
4494
  8
YODOROGO
 10
30723.604341291921
 20
1491.749496429288
 30
0.0
 11
30723.604341291921
 21
1691.749496429288
 31
0.0
  0
LINE
  5
4495
  8
YODOROGO
 10
30899.604341291932
 20
1691.749496429288
 30
0.0
 11
30899.604341291932
 21
1491.749496429288
 31
0.0
  0
LINE
  5
4496
  8
YODOROGO
 10
30859.604341291932
 20
1563.7494964292871
 30
0.0
 11
30859.604341291932
 21
1691.749496429288
 31
0.0
  0
LINE
  5
4497
  8
YODOROGO
 10
30831.604341291921
 20
1755.7494964292871
 30
0.0
 11
30831.604341291921
 21
1563.7494964292871
 31
0.0
  0
LINE
  5
4498
  8
YODOROGO
 10
30973.604341291921
 20
2027.749496429288
 30
0.0
 11
30973.604341291921
 21
1467.749496429288
 31
0.0
  0
LINE
  5
4499
  8
YODOROGO
 10
30645.604341291921
 20
1427.749496429288
 30
0.0
 11
30645.604341291921
 21
2027.749496429288
 31
0.0
  0
LINE
  5
449A
  8
YODOROGO
 10
30697.604341291932
 20
1963.749496429286
 30
0.0
 11
30697.604341291932
 21
1427.749496429288
 31
0.0
  0
LINE
  5
449B
  8
YODOROGO
 10
30925.604341291921
 20
1547.749496429288
 30
0.0
 11
30925.604341291921
 21
1963.749496429286
 31
0.0
  0
LINE
  5
449C
  8
YODOROGO
 10
30381.604341291932
 20
1627.749496429288
 30
0.0
 11
30381.604341291932
 21
1679.749496429288
 31
0.0
  0
LINE
  5
449D
  8
YODOROGO
 10
30617.604341291921
 20
1679.749496429288
 30
0.0
 11
30617.604341291921
 21
1627.749496429288
 31
0.0
  0
LINE
  5
449E
  8
YODOROGO
 10
31165.604341291921
 20
1907.7494964292871
 30
0.0
 11
31165.604341291921
 21
1635.7494964292871
 31
0.0
  0
LINE
  5
449F
  8
YODOROGO
 10
29949.60434129191
 20
1667.749496429288
 30
0.0
 11
29949.60434129191
 21
1707.749496429288
 31
0.0
  0
LINE
  5
44A0
  8
YODOROGO
 10
29949.60434129191
 20
1667.749496429288
 30
0.0
 11
29949.60434129191
 21
1707.749496429288
 31
0.0
  0
ARC
  5
44A1
  8
YODOROGO
 10
30537.604341291921
 20
1507.749496429288
 30
0.0
 40
80.0
 50
270.0
 51
0.0
  0
LINE
  5
44A2
  8
YODOROGO
 10
30569.604341291921
 20
1599.7494964292871
 30
0.0
 11
30617.604341291921
 21
1599.7494964292871
 31
0.0
  0
LINE
  5
44A3
  8
YODOROGO
 10
30617.604341291921
 20
1627.749496429288
 30
0.0
 11
30529.604341291939
 21
1627.749496429288
 31
0.0
  0
LINE
  5
44A4
  8
YODOROGO
 10
30217.604341291921
 20
1667.749496429288
 30
0.0
 11
29949.60434129191
 21
1667.749496429288
 31
0.0
  0
LINE
  5
44A5
  8
YODOROGO
 10
30217.604341291921
 20
1627.749496429288
 30
0.0
 11
30217.604341291921
 21
1667.749496429288
 31
0.0
  0
LINE
  5
44A6
  8
YODOROGO
 10
30017.604341291921
 20
1627.749496429288
 30
0.0
 11
30217.604341291921
 21
1627.749496429288
 31
0.0
  0
ARC
  5
44A7
  8
YODOROGO
 10
30230.05882870136
 20
1868.885714952901
 30
0.0
 40
321.37763628522822
 50
228.6181454618993
 51
245.660289248906
  0
LINE
  5
44A8
  8
YODOROGO
 10
30105.604341291921
 20
1603.7494964292871
 30
0.0
 11
30097.60434129195
 21
1576.0728158699001
 31
0.0
  0
LINE
  5
44A9
  8
YODOROGO
 10
30189.604341291921
 20
1603.7494964292871
 30
0.0
 11
30105.604341291921
 21
1603.7494964292871
 31
0.0
  0
LINE
  5
44AA
  8
YODOROGO
 10
30177.604341291921
 20
1551.817722473427
 30
0.0
 11
30189.604341291921
 21
1603.7494964292871
 31
0.0
  0
ARC
  5
44AB
  8
YODOROGO
 10
30230.05882870045
 20
1868.885714953002
 30
0.0
 40
321.37763628529081
 50
260.60629297969911
 51
267.77903556555862
  0
LINE
  5
44AC
  8
YODOROGO
 10
30217.604341291921
 20
1427.749496429285
 30
0.0
 11
30217.604341291921
 21
1547.749496429288
 31
0.0
  0
LINE
  5
44AD
  8
YODOROGO
 10
29937.604341291932
 20
1481.3393349155101
 30
0.0
 11
29937.604341291921
 21
1594.531090531141
 31
0.0
  0
LINE
  5
44AE
  8
YODOROGO
 10
30217.604341291921
 20
1667.749496429288
 30
0.0
 11
29949.60434129191
 21
1667.749496429288
 31
0.0
  0
LINE
  5
44AF
  8
YODOROGO
 10
30217.604341291921
 20
1627.749496429288
 30
0.0
 11
30217.604341291921
 21
1667.749496429288
 31
0.0
  0
LINE
  5
44B0
  8
YODOROGO
 10
30017.604341291921
 20
1627.749496429288
 30
0.0
 11
30217.604341291921
 21
1627.749496429288
 31
0.0
  0
ARC
  5
44B1
  8
YODOROGO
 10
30230.05882870136
 20
1868.885714952901
 30
0.0
 40
321.37763628522822
 50
228.6181454618993
 51
245.660289248906
  0
LINE
  5
44B2
  8
YODOROGO
 10
30105.604341291921
 20
1603.7494964292871
 30
0.0
 11
30097.60434129195
 21
1576.0728158699001
 31
0.0
  0
LINE
  5
44B3
  8
YODOROGO
 10
30189.604341291921
 20
1603.7494964292871
 30
0.0
 11
30105.604341291921
 21
1603.7494964292871
 31
0.0
  0
LINE
  5
44B4
  8
YODOROGO
 10
30177.604341291921
 20
1551.817722473427
 30
0.0
 11
30189.604341291921
 21
1603.7494964292871
 31
0.0
  0
ARC
  5
44B5
  8
YODOROGO
 10
30230.05882870045
 20
1868.885714953002
 30
0.0
 40
321.37763628529081
 50
260.60629297969911
 51
267.77903556555862
  0
LINE
  5
44B6
  8
YODOROGO
 10
30217.604341291921
 20
1427.749496429285
 30
0.0
 11
30217.604341291921
 21
1547.749496429288
 31
0.0
  0
LINE
  5
44B7
  8
YODOROGO
 10
29937.604341291932
 20
1481.3393349155101
 30
0.0
 11
29937.604341291921
 21
1594.531090531141
 31
0.0
  0
LINE
  5
44B8
  8
YODOROGO
 10
30433.604341291921
 20
1573.749496429288
 30
0.0
 11
30381.604341291932
 21
1573.749496429288
 31
0.0
  0
LINE
  5
44B9
  8
YODOROGO
 10
30433.604341291921
 20
1601.749496429285
 30
0.0
 11
30433.604341291921
 21
1573.749496429288
 31
0.0
  0
LINE
  5
44BA
  8
YODOROGO
 10
30381.604341291932
 20
1601.749496429285
 30
0.0
 11
30433.604341291921
 21
1601.749496429285
 31
0.0
  0
LINE
  5
44BB
  8
YODOROGO
 10
30381.604341291932
 20
1573.749496429288
 30
0.0
 11
30381.604341291932
 21
1601.749496429285
 31
0.0
  0
LINE
  5
44BC
  8
YODOROGO
 10
30429.604341291921
 20
1577.7494964292871
 30
0.0
 11
30385.604341291921
 21
1577.7494964292871
 31
0.0
  0
LINE
  5
44BD
  8
YODOROGO
 10
30429.604341291921
 20
1597.749496429288
 30
0.0
 11
30429.604341291921
 21
1577.7494964292871
 31
0.0
  0
LINE
  5
44BE
  8
YODOROGO
 10
30385.604341291921
 20
1597.749496429288
 30
0.0
 11
30429.604341291921
 21
1597.749496429288
 31
0.0
  0
LINE
  5
44BF
  8
YODOROGO
 10
30385.604341291921
 20
1577.7494964292871
 30
0.0
 11
30385.604341291921
 21
1597.749496429288
 31
0.0
  0
LINE
  5
44C0
  8
YODOROGO
 10
30425.604341291921
 20
1581.749496429286
 30
0.0
 11
30389.604341291921
 21
1581.749496429286
 31
0.0
  0
LINE
  5
44C1
  8
YODOROGO
 10
30425.604341291921
 20
1593.749496429288
 30
0.0
 11
30425.604341291921
 21
1581.749496429286
 31
0.0
  0
LINE
  5
44C2
  8
YODOROGO
 10
30389.604341291921
 20
1593.749496429288
 30
0.0
 11
30425.604341291921
 21
1593.749496429288
 31
0.0
  0
LINE
  5
44C3
  8
YODOROGO
 10
30389.604341291921
 20
1581.749496429286
 30
0.0
 11
30389.604341291921
 21
1593.749496429288
 31
0.0
  0
LINE
  5
44C4
  8
YODOROGO
 10
30421.604341291932
 20
1585.7494964292871
 30
0.0
 11
30393.604341291921
 21
1585.7494964292871
 31
0.0
  0
LINE
  5
44C5
  8
YODOROGO
 10
30421.604341291932
 20
1589.749496429288
 30
0.0
 11
30421.604341291932
 21
1585.7494964292871
 31
0.0
  0
LINE
  5
44C6
  8
YODOROGO
 10
30393.604341291921
 20
1589.749496429288
 30
0.0
 11
30421.604341291932
 21
1589.749496429288
 31
0.0
  0
LINE
  5
44C7
  8
YODOROGO
 10
30393.604341291921
 20
1585.7494964292871
 30
0.0
 11
30393.604341291921
 21
1589.749496429288
 31
0.0
  0
LINE
  5
44C8
  8
YODOROGO
 10
30465.604341291921
 20
1627.749496429288
 30
0.0
 11
30381.604341291932
 21
1627.749496429288
 31
0.0
  0
LINE
  5
44C9
  8
YODOROGO
 10
30465.604341291921
 20
1547.749496429288
 30
0.0
 11
30465.604341291921
 21
1627.749496429288
 31
0.0
  0
LINE
  5
44CA
  8
YODOROGO
 10
30381.604341291932
 20
1547.749496429288
 30
0.0
 11
30465.604341291921
 21
1547.749496429288
 31
0.0
  0
LINE
  5
44CB
  8
YODOROGO
 10
30381.604341291932
 20
1427.749496429288
 30
0.0
 11
30381.604341291932
 21
1547.749496429288
 31
0.0
  0
LINE
  5
44CC
  8
YODOROGO
 10
30537.604341291921
 20
1427.749496429288
 30
0.0
 11
30381.604341291932
 21
1427.749496429288
 31
0.0
  0
LINE
  5
44CD
  8
YODOROGO
 10
30569.604341291921
 20
1571.749496429285
 30
0.0
 11
30569.604341291921
 21
1599.7494964292871
 31
0.0
  0
ARC
  5
44CE
  8
YODOROGO
 10
30545.604341291921
 20
1571.749496429291
 30
0.0
 40
24.000000000003752
 50
270.0
 51
359.99999999998772
  0
LINE
  5
44CF
  8
YODOROGO
 10
30529.604341291939
 20
1547.749496429288
 30
0.0
 11
30545.604341291921
 21
1547.749496429288
 31
0.0
  0
LINE
  5
44D0
  8
YODOROGO
 10
30529.604341291939
 20
1627.749496429288
 30
0.0
 11
30529.604341291939
 21
1547.749496429288
 31
0.0
  0
LINE
  5
44D1
  8
YODOROGO
 10
30899.604341291932
 20
1547.749496429288
 30
0.0
 11
30925.604341291921
 21
1547.749496429288
 31
0.0
  0
LINE
  5
44D2
  8
YODOROGO
 10
30933.604341291921
 20
1427.749496429288
 30
0.0
 11
30899.604341291932
 21
1427.749496429288
 31
0.0
  0
LINE
  5
44D3
  8
YODOROGO
 10
30763.604341291921
 20
1563.7494964292871
 30
0.0
 11
30791.604341291921
 21
1563.7494964292871
 31
0.0
  0
LINE
  5
44D4
  8
YODOROGO
 10
30899.604341291932
 20
1491.749496429288
 30
0.0
 11
30723.604341291921
 21
1491.749496429288
 31
0.0
  0
LINE
  5
44D5
  8
YODOROGO
 10
30831.604341291921
 20
1563.7494964292871
 30
0.0
 11
30859.604341291932
 21
1563.7494964292871
 31
0.0
  0
LINE
  5
44D6
  8
YODOROGO
 10
30899.604341291932
 20
1427.749496429288
 30
0.0
 11
30899.604341291932
 21
1547.749496429288
 31
0.0
  0
LINE
  5
44D7
  8
YODOROGO
 10
30697.604341291932
 20
1427.749496429288
 30
0.0
 11
30645.604341291921
 21
1427.749496429288
 31
0.0
  0
LINE
  5
44D8
  8
YODOROGO
 10
30617.604341291921
 20
1599.7494964292871
 30
0.0
 11
30617.604341291921
 21
1507.749496429288
 31
0.0
  0
ARC
  5
44D9
  8
YODOROGO
 10
30933.604341291921
 20
1467.749496429288
 30
0.0
 40
40.0
 50
270.0
 51
0.0
  0
LINE
  5
44DA
  8
YODOROGO
 10
31093.604341291921
 20
1523.7494964292871
 30
0.0
 11
31093.604341291921
 21
1427.749496429288
 31
0.0
  0
ARC
  5
44DB
  8
YODOROGO
 10
31039.721395566768
 20
1637.5313901097329
 30
0.0
 40
125.8955565916754
 50
295.34052442160112
 51
359.18902303418679
  0
LINE
  5
44DC
  8
YODOROGO
 10
30617.604341291921
 20
1859.749496429288
 30
0.0
 11
30497.604341291921
 21
1939.749496429288
 31
0.0
  0
LINE
  5
44DD
  8
YODOROGO
 10
30497.604341291921
 20
2027.749496429288
 30
0.0
 11
30617.604341291921
 21
1947.749496429288
 31
0.0
  0
LINE
  5
44DE
  8
YODOROGO
 10
30529.604341291939
 20
1679.749496429288
 30
0.0
 11
30617.604341291921
 21
1679.749496429288
 31
0.0
  0
LINE
  5
44DF
  8
YODOROGO
 10
30617.604341291921
 20
1735.7494964292871
 30
0.0
 11
30529.604341291939
 21
1735.7494964292871
 31
0.0
  0
LINE
  5
44E0
  8
YODOROGO
 10
30381.604341291932
 20
1795.7494964292871
 30
0.0
 11
30617.604341291921
 21
1795.7494964292871
 31
0.0
  0
LINE
  5
44E1
  8
YODOROGO
 10
30081.604341291921
 20
2027.749496429288
 30
0.0
 11
30021.604341291921
 21
2027.749496429288
 31
0.0
  0
LINE
  5
44E2
  8
YODOROGO
 10
30081.604341291921
 20
1827.7494964292871
 30
0.0
 11
30081.604341291921
 21
2027.749496429288
 31
0.0
  0
LINE
  5
44E3
  8
YODOROGO
 10
30021.604341291921
 20
1827.7494964292871
 30
0.0
 11
30081.604341291921
 21
1827.7494964292871
 31
0.0
  0
LINE
  5
44E4
  8
YODOROGO
 10
30021.604341291921
 20
2027.749496429288
 30
0.0
 11
30021.604341291921
 21
1827.7494964292871
 31
0.0
  0
LINE
  5
44E5
  8
YODOROGO
 10
30161.604341291921
 20
2027.749496429288
 30
0.0
 11
30217.604341291921
 21
2027.749496429288
 31
0.0
  0
LINE
  5
44E6
  8
YODOROGO
 10
30161.604341291921
 20
1811.749496429288
 30
0.0
 11
30161.604341291921
 21
2027.749496429288
 31
0.0
  0
ARC
  5
44E7
  8
YODOROGO
 10
30121.604341291921
 20
1811.749496429288
 30
0.0
 40
40.0
 50
270.0
 51
0.0
  0
LINE
  5
44E8
  8
YODOROGO
 10
30021.604341291921
 20
1771.7494964292871
 30
0.0
 11
30121.604341291921
 21
1771.7494964292871
 31
0.0
  0
LINE
  5
44E9
  8
YODOROGO
 10
30021.604341291921
 20
1707.749496429288
 30
0.0
 11
30021.604341291921
 21
1771.7494964292871
 31
0.0
  0
LINE
  5
44EA
  8
YODOROGO
 10
30137.604341291921
 20
1707.749496429288
 30
0.0
 11
30021.604341291921
 21
1707.749496429288
 31
0.0
  0
ARC
  5
44EB
  8
YODOROGO
 10
30137.604341291921
 20
1787.7494964292871
 30
0.0
 40
80.0
 50
270.0
 51
0.0
  0
LINE
  5
44EC
  8
YODOROGO
 10
30217.604341291921
 20
2027.749496429288
 30
0.0
 11
30217.604341291921
 21
1787.7494964292871
 31
0.0
  0
LINE
  5
44ED
  8
YODOROGO
 10
29977.604341291921
 20
1947.749496429288
 30
0.0
 11
29977.604341291921
 21
1995.7494964292871
 31
0.0
1001
AUTOCAD_POSTSCRIPT_FIGURE
1002
{
1000
PSFILL
1000
Grayscale
1000
Grayscale
1070
    25
1002
}
  0
LINE
  5
44EE
  8
YODOROGO
 10
29977.604341291921
 20
1859.749496429288
 30
0.0
 11
29977.604341291921
 21
1907.7494964292871
 31
0.0
1001
AUTOCAD_POSTSCRIPT_FIGURE
1002
{
1000
PSFILL
1000
Grayscale
1000
Grayscale
1070
    25
1002
}
  0
LINE
  5
44EF
  8
YODOROGO
 10
29977.604341291921
 20
1707.749496429288
 30
0.0
 11
29977.604341291921
 21
1819.7494964292871
 31
0.0
1001
AUTOCAD_POSTSCRIPT_FIGURE
1002
{
1000
PSFILL
1000
Grayscale
1000
Grayscale
1070
    25
1002
}
  0
LINE
  5
44F0
  8
YODOROGO
 10
30381.604341291932
 20
1907.7494964292871
 30
0.0
 11
30497.604341291921
 21
2027.749496429288
 31
0.0
  0
LINE
  5
44F1
  8
YODOROGO
 10
30381.604341291932
 20
1819.7494964292871
 30
0.0
 11
30381.604341291932
 21
1907.7494964292871
 31
0.0
  0
LINE
  5
44F2
  8
YODOROGO
 10
30497.604341291921
 20
1939.749496429288
 30
0.0
 11
30381.604341291932
 21
1819.7494964292871
 31
0.0
  0
LINE
  5
44F3
  8
YODOROGO
 10
30465.604341291921
 20
1679.749496429288
 30
0.0
 11
30465.604341291921
 21
1735.7494964292871
 31
0.0
  0
LINE
  5
44F4
  8
YODOROGO
 10
30381.604341291932
 20
1679.749496429288
 30
0.0
 11
30465.604341291921
 21
1679.749496429288
 31
0.0
  0
LINE
  5
44F5
  8
YODOROGO
 10
30529.604341291939
 20
1735.7494964292871
 30
0.0
 11
30529.604341291939
 21
1679.749496429288
 31
0.0
  0
LINE
  5
44F6
  8
YODOROGO
 10
30381.604341291932
 20
1735.7494964292871
 30
0.0
 11
30381.604341291932
 21
1795.7494964292871
 31
0.0
  0
LINE
  5
44F7
  8
YODOROGO
 10
30465.604341291921
 20
1735.7494964292871
 30
0.0
 11
30381.604341291932
 21
1735.7494964292871
 31
0.0
  0
LINE
  5
44F8
  8
YODOROGO
 10
30645.604341291921
 20
2027.749496429288
 30
0.0
 11
30973.604341291921
 21
2027.749496429288
 31
0.0
  0
LINE
  5
44F9
  8
YODOROGO
 10
30925.604341291921
 20
1963.749496429286
 30
0.0
 11
30697.604341291932
 21
1963.749496429286
 31
0.0
  0
LINE
  5
44FA
  8
YODOROGO
 10
30873.604341291921
 20
1819.7494964292871
 30
0.0
 11
30899.604341291932
 21
1819.7494964292871
 31
0.0
  0
LINE
  5
44FB
  8
YODOROGO
 10
30899.604341291932
 20
1939.749496429288
 30
0.0
 11
30873.604341291921
 21
1819.7494964292871
 31
0.0
  0
LINE
  5
44FC
  8
YODOROGO
 10
30851.604341291939
 20
1939.749496429288
 30
0.0
 11
30899.604341291932
 21
1939.749496429288
 31
0.0
  0
LINE
  5
44FD
  8
YODOROGO
 10
30825.604341291921
 20
1819.7494964292871
 30
0.0
 11
30851.604341291939
 21
1939.749496429288
 31
0.0
  0
LINE
  5
44FE
  8
YODOROGO
 10
30797.604341291921
 20
1819.7494964292871
 30
0.0
 11
30825.604341291921
 21
1819.7494964292871
 31
0.0
  0
LINE
  5
44FF
  8
YODOROGO
 10
30771.604341291939
 20
1939.749496429288
 30
0.0
 11
30797.604341291921
 21
1819.7494964292871
 31
0.0
  0
LINE
  5
4500
  8
YODOROGO
 10
30723.604341291921
 20
1939.749496429288
 30
0.0
 11
30771.604341291939
 21
1939.749496429288
 31
0.0
  0
LINE
  5
4501
  8
YODOROGO
 10
30749.604341291921
 20
1819.7494964292871
 30
0.0
 11
30723.604341291921
 21
1939.749496429288
 31
0.0
  0
LINE
  5
4502
  8
YODOROGO
 10
30723.604341291921
 20
1819.7494964292871
 30
0.0
 11
30749.604341291921
 21
1819.7494964292871
 31
0.0
  0
LINE
  5
4503
  8
YODOROGO
 10
30723.604341291921
 20
1755.7494964292871
 30
0.0
 11
30723.604341291921
 21
1819.7494964292871
 31
0.0
  0
LINE
  5
4504
  8
YODOROGO
 10
30899.604341291932
 20
1755.7494964292871
 30
0.0
 11
30723.604341291921
 21
1755.7494964292871
 31
0.0
  0
LINE
  5
4505
  8
YODOROGO
 10
30899.604341291932
 20
1819.7494964292871
 30
0.0
 11
30899.604341291932
 21
1755.7494964292871
 31
0.0
  0
LINE
  5
4506
  8
YODOROGO
 10
30617.604341291921
 20
1947.749496429288
 30
0.0
 11
30617.604341291921
 21
1859.749496429288
 31
0.0
  0
LINE
  5
4507
  8
YODOROGO
 10
30791.604341291921
 20
1755.7494964292871
 30
0.0
 11
30831.604341291921
 21
1755.7494964292871
 31
0.0
  0
LINE
  5
4508
  8
YODOROGO
 10
30723.604341291921
 20
1691.749496429288
 30
0.0
 11
30763.604341291921
 21
1691.749496429288
 31
0.0
  0
LINE
  5
4509
  8
YODOROGO
 10
30859.604341291932
 20
1691.749496429288
 30
0.0
 11
30899.604341291932
 21
1691.749496429288
 31
0.0
  0
LINE
  5
450A
  8
YODOROGO
 10
30617.604341291921
 20
1795.7494964292871
 30
0.0
 11
30617.604341291921
 21
1735.7494964292871
 31
0.0
  0
LINE
  5
450B
  8
YODOROGO
 10
31165.604341291921
 20
2027.749496429288
 30
0.0
 11
31165.604341291921
 21
1963.749496429286
 31
0.0
  0
LINE
  5
450C
  8
YODOROGO
 10
31533.604341291921
 20
1595.7494964292871
 30
0.0
 11
31533.60434129191
 21
1811.749496429288
 31
0.0
  0
LINE
  5
450D
  8
YODOROGO
 10
31461.60434129191
 20
1987.7494964292871
 30
0.0
 11
31461.60434129191
 21
1635.7494964292871
 31
0.0
  0
LINE
  5
450E
  8
YODOROGO
 10
31653.604341291921
 20
1427.749496429288
 30
0.0
 11
31653.60434129191
 21
1811.749496429288
 31
0.0
  0
LINE
  5
450F
  8
YODOROGO
 10
31589.604341291921
 20
1811.749496429288
 30
0.0
 11
31589.604341291921
 21
1427.749496429288
 31
0.0
  0
LINE
  5
4510
  8
YODOROGO
 10
31237.604341291921
 20
1595.7494964292871
 30
0.0
 11
31237.604341291921
 21
1707.749496429288
 31
0.0
  0
ARC
  5
4511
  8
YODOROGO
 10
31353.914865116069
 20
1607.790351288558
 30
0.0
 40
180.0924485759885
 50
268.62849102169793
 51
356.16638457330322
  0
LINE
  5
4512
  8
YODOROGO
 10
31349.604341291939
 20
1527.749496429288
 30
0.0
 11
31349.604341291939
 21
1427.749496429288
 31
0.0
  0
ARC
  5
4513
  8
YODOROGO
 10
31351.518075724562
 20
1637.838957017655
 30
0.0
 40
110.1060929836122
 50
269.00410209305932
 51
358.91264455492478
  0
LINE
  5
4514
  8
YODOROGO
 10
31589.604341291921
 20
1427.749496429288
 30
0.0
 11
31653.604341291921
 21
1427.749496429288
 31
0.0
  0
LINE
  5
4515
  8
YODOROGO
 10
31533.60434129191
 20
1811.749496429288
 30
0.0
 11
31589.604341291921
 21
1811.749496429288
 31
0.0
  0
LINE
  5
4516
  8
YODOROGO
 10
31621.604341291939
 20
1987.7494964292871
 30
0.0
 11
31461.60434129191
 21
1987.7494964292871
 31
0.0
  0
LINE
  5
4517
  8
YODOROGO
 10
31533.60434129191
 20
1915.7494964292871
 30
0.0
 11
31661.604341291939
 21
1915.7494964292871
 31
0.0
  0
LINE
  5
4518
  8
YODOROGO
 10
31701.604341291939
 20
1875.7494964292871
 30
0.0
 11
31533.60434129191
 21
1875.7494964292871
 31
0.0
  0
LINE
  5
4519
  8
YODOROGO
 10
31237.604341291921
 20
1779.749496429288
 30
0.0
 11
31349.604341291939
 21
1779.749496429288
 31
0.0
  0
LINE
  5
451A
  8
YODOROGO
 10
31237.604341291921
 20
1835.7494964292871
 30
0.0
 11
31237.604341291921
 21
1779.749496429288
 31
0.0
  0
LINE
  5
451B
  8
YODOROGO
 10
31349.604341291939
 20
1835.7494964292871
 30
0.0
 11
31237.604341291921
 21
1835.7494964292871
 31
0.0
  0
LINE
  5
451C
  8
YODOROGO
 10
31349.604341291939
 20
1779.749496429288
 30
0.0
 11
31349.604341291939
 21
1835.7494964292871
 31
0.0
  0
LINE
  5
451D
  8
YODOROGO
 10
31533.60434129191
 20
1875.7494964292871
 30
0.0
 11
31533.60434129191
 21
1915.7494964292871
 31
0.0
  0
LINE
  5
451E
  8
YODOROGO
 10
31413.604341291921
 20
1707.749496429288
 30
0.0
 11
31413.604341291921
 21
1907.7494964292871
 31
0.0
  0
LINE
  5
451F
  8
YODOROGO
 10
31237.604341291921
 20
1707.749496429288
 30
0.0
 11
31413.604341291921
 21
1707.749496429288
 31
0.0
  0
LINE
  5
4520
  8
YODOROGO
 10
31413.604341291921
 20
1963.749496429286
 30
0.0
 11
31413.604341291921
 21
2027.749496429288
 31
0.0
  0
ARC
  5
4521
  8
YODOROGO
 10
31621.604341291939
 20
2003.749496429285
 30
0.0
 40
15.999999999994539
 50
270.0
 51
0.0000000000081422
  0
LINE
  5
4522
  8
YODOROGO
 10
31637.604341291921
 20
2027.749496429288
 30
0.0
 11
31637.604341291921
 21
2003.7494964292871
 31
0.0
  0
LINE
  5
4523
  8
YODOROGO
 10
31701.604341291939
 20
2027.749496429288
 30
0.0
 11
31637.604341291921
 21
2027.749496429288
 31
0.0
  0
LINE
  5
4524
  8
YODOROGO
 10
31701.604341291939
 20
1955.7494964292871
 30
0.0
 11
31701.604341291939
 21
2027.749496429288
 31
0.0
  0
ARC
  5
4525
  8
YODOROGO
 10
31661.604341291939
 20
1955.7494964292871
 30
0.0
 40
40.0
 50
270.0
 51
0.0
  0
LINE
  5
4526
  8
YODOROGO
 10
31701.604341291939
 20
1811.749496429288
 30
0.0
 11
31701.604341291939
 21
1875.7494964292871
 31
0.0
  0
LINE
  5
4527
  8
YODOROGO
 10
31653.60434129191
 20
1811.749496429288
 30
0.0
 11
31701.604341291939
 21
1811.749496429288
 31
0.0
  0
LINE
  5
452B
  8
SUNPOU
  6
CONTINUOUS
 62
     4
 10
13280.763212000011
 20
19560.757115999961
 30
0.0
 11
13280.763212000011
 21
20110.76239499998
 31
0.0
  0
LINE
  5
452C
  8
SUNPOU
  6
CONTINUOUS
 62
     4
 10
13195.263212000011
 20
20030.76239499998
 30
0.0
 11
12955.263212000011
 21
20030.76239499998
 31
0.0
  0
LINE
  5
452D
  8
SUNPOU
  6
CONTINUOUS
 62
     4
 10
13277.763212000011
 20
20030.76239499998
 30
0.0
 11
13517.763212000011
 21
20030.76239499998
 31
0.0
  0
LINE
  5
452E
  8
SUNPOU
  6
CONTINUOUS
 62
     4
 10
13195.263212000011
 20
20030.76239499998
 30
0.0
 11
13277.763212000011
 21
20030.76239499998
 31
0.0
  0
LINE
  5
452F
  8
SUNPOU
  6
CONTINUOUS
 62
     4
 10
9841.2632120000126
 20
19560.757115999961
 30
0.0
 11
9841.2632120000126
 21
20110.76239499998
 31
0.0
  0
LINE
  5
4530
  8
SUNPOU
  6
CONTINUOUS
 62
     4
 10
9926.7632120000126
 20
20030.76239499998
 30
0.0
 11
10166.763212000011
 21
20030.76239499998
 31
0.0
  0
LINE
  5
4531
  8
SUNPOU
  6
CONTINUOUS
 62
     4
 10
9844.2632120000126
 20
20030.76239499998
 30
0.0
 11
9604.2632120000126
 21
20030.76239499998
 31
0.0
  0
LINE
  5
4532
  8
SUNPOU
  6
CONTINUOUS
 62
     4
 10
9926.7632120000126
 20
20030.76239499998
 30
0.0
 11
9844.2632120000126
 21
20030.76239499998
 31
0.0
  0
LINE
  5
4533
  8
SUNPOU
  6
CONTINUOUS
 62
     4
 10
13195.263212000011
 20
20030.76239499998
 30
0.0
 11
9926.7632120000126
 21
20030.76239499998
 31
0.0
  0
LINE
  5
4534
  8
SUNPOU
  6
CONTINUOUS
 62
     4
 10
9764.2553930000086
 20
13860.762197
 30
0.0
 11
8917.2599720000053
 21
13860.762197
 31
0.0
  0
LINE
  5
4535
  8
SUNPOU
  6
CONTINUOUS
 62
     4
 10
8997.2599720000053
 20
14053.257512
 30
0.0
 11
8997.2599720000053
 21
14293.257512
 31
0.0
  0
LINE
  5
4536
  8
SUNPOU
  6
CONTINUOUS
 62
     4
 10
8997.2599720000053
 20
13860.762197
 30
0.0
 11
8997.2599720000053
 21
13620.762197
 31
0.0
  0
LINE
  5
4537
  8
SUNPOU
  6
CONTINUOUS
 62
     4
 10
8997.2599720000053
 20
14053.257512
 30
0.0
 11
8997.2599720000053
 21
13860.762197
 31
0.0
  0
LINE
  5
4538
  8
SUNPOU
  6
CONTINUOUS
 62
     4
 10
9627.9610850000081
 20
15161.99802350002
 30
0.0
 11
8917.2599720000053
 21
15161.99802350002
 31
0.0
  0
LINE
  5
4539
  8
SUNPOU
  6
CONTINUOUS
 62
     4
 10
8997.2599720000053
 20
15161.99802350002
 30
0.0
 11
8997.2599720000053
 21
14053.257512
 31
0.0
  0
LINE
  5
453A
  8
SUNPOU
  6
CONTINUOUS
 62
     4
 10
9627.9610850000081
 20
15161.99802350002
 30
0.0
 11
8917.2599720000053
 21
15161.99802350002
 31
0.0
  0
LINE
  5
453B
  8
SUNPOU
  6
CONTINUOUS
 62
     4
 10
8997.2599720000053
 20
16620.757511999989
 30
0.0
 11
8997.2599720000053
 21
15161.99802350002
 31
0.0
  0
LINE
  5
453C
  8
SUNPOU
  6
CONTINUOUS
 62
     4
 10
9627.9610850000081
 20
18079.757511999978
 30
0.0
 11
8917.2599720000053
 21
18079.757511999978
 31
0.0
  0
LINE
  5
453D
  8
SUNPOU
  6
CONTINUOUS
 62
     4
 10
8997.2599720000053
 20
18079.757511999978
 30
0.0
 11
8997.2599720000053
 21
16620.757511999989
 31
0.0
  0
LINE
  5
453E
  8
SUNPOU
  6
CONTINUOUS
 62
     4
 10
9764.2553929999995
 20
19390.753421000001
 30
0.0
 11
9317.2599720000035
 21
19390.753421000001
 31
0.0
  0
LINE
  5
453F
  8
SUNPOU
  6
CONTINUOUS
 62
     4
 10
9764.2597480000022
 20
19410.753421000009
 30
0.0
 11
9317.2599720000035
 21
19410.753421000009
 31
0.0
  0
LINE
  5
4541
  8
SUNPOU
  6
CONTINUOUS
 62
     4
 10
9397.2599720000035
 20
19410.753421000009
 30
0.0
 11
9397.2599720000035
 21
19650.753421000001
 31
0.0
  0
LINE
  5
4542
  8
SUNPOU
  6
CONTINUOUS
 62
     4
 10
9397.2599720000035
 20
19370.753421000001
 30
0.0
 11
9397.2599720000035
 21
19410.753421000009
 31
0.0
  0
LINE
  5
4543
  8
SUNPOU
  6
CONTINUOUS
 62
     4
 10
9764.2597480000022
 20
19410.753421000009
 30
0.0
 11
8917.2599720000017
 21
19410.753421000009
 31
0.0
  0
LINE
  5
4544
  8
SUNPOU
  6
CONTINUOUS
 62
     4
 10
8997.2599720000017
 20
19188.257511999989
 30
0.0
 11
8997.2599720000017
 21
18948.257511999989
 31
0.0
  0
LINE
  5
4545
  8
SUNPOU
  6
CONTINUOUS
 62
     4
 10
8997.2599720000017
 20
19410.753421000009
 30
0.0
 11
8997.2599720000017
 21
19650.753421000001
 31
0.0
  0
LINE
  5
4546
  8
SUNPOU
  6
CONTINUOUS
 62
     4
 10
8997.2599720000017
 20
19188.257511999989
 30
0.0
 11
8997.2599720000017
 21
19410.753421000009
 31
0.0
  0
LINE
  5
4547
  8
SUNPOU
  6
CONTINUOUS
 62
     4
 10
9627.9610850000081
 20
18079.757511999978
 30
0.0
 11
8917.2599720000017
 21
18079.757511999978
 31
0.0
  0
LINE
  5
4548
  8
SUNPOU
  6
CONTINUOUS
 62
     4
 10
8997.2599720000017
 20
18079.757511999978
 30
0.0
 11
8997.2599720000017
 21
19188.257511999989
 31
0.0
  0
LINE
  5
4549
  8
SUNPOU
  6
CONTINUOUS
 62
     4
 10
22972.75781100001
 20
14460.87776775
 30
0.0
 11
24022.759130999999
 21
14460.87776775
 31
0.0
  0
LINE
  5
454A
  8
SUNPOU
  6
CONTINUOUS
 62
     4
 10
23822.75913100001
 20
14053.37776775
 30
0.0
 11
24022.759130999999
 21
14053.37776775
 31
0.0
  0
LINE
  5
454B
  8
SUNPOU
  6
CONTINUOUS
 62
     4
 10
23942.759130999999
 20
14460.87776775
 30
0.0
 11
23942.759130999999
 21
14053.37776775
 31
0.0
  0
LINE
  5
454C
  8
SUNPOU
  6
CONTINUOUS
 62
     4
 10
22972.75781100001
 20
18780.757511999989
 30
0.0
 11
24022.759130999999
 21
18780.757511999989
 31
0.0
  0
LINE
  5
454D
  8
SUNPOU
  6
CONTINUOUS
 62
     4
 10
23822.75913100001
 20
19188.257511999989
 30
0.0
 11
24022.759130999999
 21
19188.257511999989
 31
0.0
  0
LINE
  5
454E
  8
SUNPOU
  6
CONTINUOUS
 62
     4
 10
23942.759130999999
 20
18780.757511999989
 30
0.0
 11
23942.759130999999
 21
19188.257511999989
 31
0.0
  0
LINE
  5
454F
  8
SUNPOU
  6
CONTINUOUS
 62
     4
 10
19459.263222000001
 20
18079.757511999978
 30
0.0
 11
18572.304950000009
 21
18079.757511999978
 31
0.0
  0
LINE
  5
4550
  8
SUNPOU
  6
CONTINUOUS
 62
     4
 10
18652.304950000002
 20
18079.757511999978
 30
0.0
 11
18652.304950000002
 21
19188.257511999989
 31
0.0
  0
LINE
  5
4551
  8
SUNPOU
  6
CONTINUOUS
 62
     4
 10
19459.263222000001
 20
18079.757511999978
 30
0.0
 11
18572.304950000009
 21
18079.757511999978
 31
0.0
  0
LINE
  5
4552
  8
SUNPOU
  6
CONTINUOUS
 62
     4
 10
18652.304950000002
 20
16620.757511999989
 30
0.0
 11
18652.304950000002
 21
18079.757511999978
 31
0.0
  0
LINE
  5
4553
  8
SUNPOU
  6
CONTINUOUS
 62
     4
 10
19459.263222000001
 20
15161.99802350002
 30
0.0
 11
18572.304950000009
 21
15161.99802350002
 31
0.0
  0
LINE
  5
4554
  8
SUNPOU
  6
CONTINUOUS
 62
     4
 10
18652.304950000002
 20
15161.99802350002
 30
0.0
 11
18652.304950000002
 21
16620.757511999989
 31
0.0
  0
LINE
  5
4555
  8
SUNPOU
  6
CONTINUOUS
 62
     4
 10
19459.263222000001
 20
15161.99802350002
 30
0.0
 11
18572.304950000009
 21
15161.99802350002
 31
0.0
  0
LINE
  5
4556
  8
SUNPOU
  6
CONTINUOUS
 62
     4
 10
18652.304950000002
 20
14053.257512
 30
0.0
 11
18652.304950000002
 21
15161.99802350002
 31
0.0
  0
LINE
  5
4557
  8
SUNPOU
  6
CONTINUOUS
 62
     4
 10
19581.759526999991
 20
13347.494077999991
 30
0.0
 11
19581.759526999991
 21
13001.809428
 31
0.0
  0
LINE
  5
4558
  8
SUNPOU
  6
CONTINUOUS
 62
     4
 10
19539.25728400001
 20
13930.76021699999
 30
0.0
 11
19539.25728400001
 21
13001.809428
 31
0.0
  0
LINE
  5
4559
  8
SUNPOU
  6
CONTINUOUS
 62
     4
 10
19581.759526999991
 20
13081.809428
 30
0.0
 11
19821.759526999998
 21
13081.809428
 31
0.0
  0
LINE
  5
455A
  8
SUNPOU
  6
CONTINUOUS
 62
     4
 10
19539.25728400001
 20
13081.809428
 30
0.0
 11
19299.25728400001
 21
13081.809428
 31
0.0
  0
LINE
  5
455B
  8
SUNPOU
  6
CONTINUOUS
 62
     4
 10
19581.759526999991
 20
13081.809428
 30
0.0
 11
19539.25728400001
 21
13081.809428
 31
0.0
  0
LINE
  5
455C
  8
SUNPOU
  6
CONTINUOUS
 62
     4
 10
22850.259527000009
 20
13347.494077999991
 30
0.0
 11
22850.259527000009
 21
13001.809428
 31
0.0
  0
LINE
  5
455D
  8
SUNPOU
  6
CONTINUOUS
 62
     4
 10
22892.761770000001
 20
13930.76021699999
 30
0.0
 11
22892.761770000001
 21
13001.809428
 31
0.0
  0
LINE
  5
455E
  8
SUNPOU
  6
CONTINUOUS
 62
     4
 10
22850.259527000009
 20
13081.809428
 30
0.0
 11
22610.259527000009
 21
13081.809428
 31
0.0
  0
LINE
  5
455F
  8
SUNPOU
  6
CONTINUOUS
 62
     4
 10
22892.761770000001
 20
13081.809428
 30
0.0
 11
23132.761770000001
 21
13081.809428
 31
0.0
  0
LINE
  5
4560
  8
SUNPOU
  6
CONTINUOUS
 62
     4
 10
22850.259527000009
 20
13081.809428
 30
0.0
 11
22892.761770000001
 21
13081.809428
 31
0.0
  0
LINE
  5
4561
  8
SUNPOU
  6
CONTINUOUS
 62
     4
 10
22850.259527000009
 20
13347.494077999991
 30
0.0
 11
22850.259527000009
 21
13001.809428
 31
0.0
  0
LINE
  5
4562
  8
SUNPOU
  6
CONTINUOUS
 62
     4
 10
22807.757283999999
 20
13930.76021699999
 30
0.0
 11
22807.757283999999
 21
13001.809428
 31
0.0
  0
LINE
  5
4563
  8
SUNPOU
  6
CONTINUOUS
 62
     4
 10
22850.259527000009
 20
13081.809428
 30
0.0
 11
23090.259527000009
 21
13081.809428
 31
0.0
  0
LINE
  5
4564
  8
SUNPOU
  6
CONTINUOUS
 62
     4
 10
22807.757283999999
 20
13081.809428
 30
0.0
 11
22567.757283999999
 21
13081.809428
 31
0.0
  0
LINE
  5
4565
  8
SUNPOU
  6
CONTINUOUS
 62
     4
 10
22850.259527000009
 20
13081.809428
 30
0.0
 11
22807.757283999999
 21
13081.809428
 31
0.0
  0
LINE
  5
4566
  8
SUNPOU
  6
CONTINUOUS
 62
     4
 10
19581.759526999991
 20
13347.494077999991
 30
0.0
 11
19581.759526999991
 21
13001.809428
 31
0.0
  0
LINE
  5
4567
  8
SUNPOU
  6
CONTINUOUS
 62
     4
 10
19624.261770000001
 20
13930.76021699999
 30
0.0
 11
19624.261770000001
 21
13001.809428
 31
0.0
  0
LINE
  5
4568
  8
SUNPOU
  6
CONTINUOUS
 62
     4
 10
19581.759526999991
 20
13081.809428
 30
0.0
 11
19341.759526999998
 21
13081.809428
 31
0.0
  0
LINE
  5
4569
  8
SUNPOU
  6
CONTINUOUS
 62
     4
 10
19624.261770000001
 20
13081.809428
 30
0.0
 11
19864.261770000001
 21
13081.809428
 31
0.0
  0
LINE
  5
456A
  8
SUNPOU
  6
CONTINUOUS
 62
     4
 10
19581.759526999991
 20
13081.809428
 30
0.0
 11
19624.261770000001
 21
13081.809428
 31
0.0
  0
LINE
  5
456B
  8
SUNPOU
  6
CONTINUOUS
 62
     4
 10
19539.25728400001
 20
13930.76021699999
 30
0.0
 11
19539.25728400001
 21
12601.809428
 31
0.0
  0
LINE
  5
456C
  8
SUNPOU
  6
CONTINUOUS
 62
     4
 10
22892.761770000001
 20
13930.76021699999
 30
0.0
 11
22892.761770000001
 21
12601.809428
 31
0.0
  0
LINE
  5
456D
  8
SUNPOU
  6
CONTINUOUS
 62
     4
 10
19539.25728400001
 20
12681.809428
 30
0.0
 11
22892.761770000001
 21
12681.809428
 31
0.0
  0
LINE
  5
456E
  8
SUNPOU
  6
CONTINUOUS
 62
     4
 10
22972.75781100001
 20
15161.99802350002
 30
0.0
 11
24022.759130999999
 21
15161.99802350002
 31
0.0
  0
LINE
  5
456F
  8
SUNPOU
  6
CONTINUOUS
 62
     4
 10
22972.75781100001
 20
14460.757511999989
 30
0.0
 11
24022.759130999999
 21
14460.757511999989
 31
0.0
  0
LINE
  5
4570
  8
SUNPOU
  6
CONTINUOUS
 62
     4
 10
23942.759130999999
 20
15161.99802350002
 30
0.0
 11
23942.759130999999
 21
14460.757511999989
 31
0.0
  0
LINE
  5
4571
  8
SUNPOU
  6
CONTINUOUS
 62
     4
 10
22972.75781100001
 20
15862.757512
 30
0.0
 11
24022.759130999999
 21
15862.757512
 31
0.0
  0
LINE
  5
4572
  8
SUNPOU
  6
CONTINUOUS
 62
     4
 10
22972.75781100001
 20
15161.99802350002
 30
0.0
 11
24022.759130999999
 21
15161.99802350002
 31
0.0
  0
LINE
  5
4573
  8
SUNPOU
  6
CONTINUOUS
 62
     4
 10
23942.759130999999
 20
15862.757512
 30
0.0
 11
23942.759130999999
 21
15161.99802350002
 31
0.0
  0
LINE
  5
4574
  8
SUNPOU
  6
CONTINUOUS
 62
     4
 10
23822.75913100001
 20
16620.757511999989
 30
0.0
 11
24022.759130999999
 21
16620.757511999989
 31
0.0
  0
LINE
  5
4575
  8
SUNPOU
  6
CONTINUOUS
 62
     4
 10
22972.75781100001
 20
15862.757512
 30
0.0
 11
24022.759130999999
 21
15862.757512
 31
0.0
  0
LINE
  5
4576
  8
SUNPOU
  6
CONTINUOUS
 62
     4
 10
23942.759130999999
 20
16620.757511999989
 30
0.0
 11
23942.759130999999
 21
15862.757512
 31
0.0
  0
LINE
  5
4577
  8
SUNPOU
  6
CONTINUOUS
 62
     4
 10
22972.75781100001
 20
17378.757511999978
 30
0.0
 11
24022.759130999999
 21
17378.757511999978
 31
0.0
  0
LINE
  5
4578
  8
SUNPOU
  6
CONTINUOUS
 62
     4
 10
23822.75913100001
 20
16620.757511999989
 30
0.0
 11
24022.759130999999
 21
16620.757511999989
 31
0.0
  0
LINE
  5
4579
  8
SUNPOU
  6
CONTINUOUS
 62
     4
 10
23942.759130999999
 20
17378.757511999978
 30
0.0
 11
23942.759130999999
 21
16620.757511999989
 31
0.0
  0
LINE
  5
457A
  8
SUNPOU
  6
CONTINUOUS
 62
     4
 10
22972.75781100001
 20
18079.757511999978
 30
0.0
 11
24022.759130999999
 21
18079.757511999978
 31
0.0
  0
LINE
  5
457B
  8
SUNPOU
  6
CONTINUOUS
 62
     4
 10
22972.75781100001
 20
17378.757511999978
 30
0.0
 11
24022.759130999999
 21
17378.757511999978
 31
0.0
  0
LINE
  5
457C
  8
SUNPOU
  6
CONTINUOUS
 62
     4
 10
23942.759130999999
 20
18079.757511999978
 30
0.0
 11
23942.759130999999
 21
17378.757511999978
 31
0.0
  0
LINE
  5
457D
  8
SUNPOU
  6
CONTINUOUS
 62
     4
 10
22972.75781100001
 20
18780.757511999989
 30
0.0
 11
24022.759130999999
 21
18780.757511999989
 31
0.0
  0
LINE
  5
457E
  8
SUNPOU
  6
CONTINUOUS
 62
     4
 10
22972.75781100001
 20
18079.757511999978
 30
0.0
 11
24022.759130999999
 21
18079.757511999978
 31
0.0
  0
LINE
  5
457F
  8
SUNPOU
  6
CONTINUOUS
 62
     4
 10
23942.759130999999
 20
18780.757511999989
 30
0.0
 11
23942.759130999999
 21
18079.757511999978
 31
0.0
  0
LINE
  5
4580
  8
SUNPOU
  6
CONTINUOUS
 62
     4
 10
23822.75913100001
 20
16620.757511999989
 30
0.0
 11
24422.759130999999
 21
16620.757511999989
 31
0.0
  0
LINE
  5
4581
  8
SUNPOU
  6
CONTINUOUS
 62
     4
 10
23822.75913100001
 20
19188.257511999989
 30
0.0
 11
24422.759130999999
 21
19188.257511999989
 31
0.0
  0
LINE
  5
4582
  8
SUNPOU
  6
CONTINUOUS
 62
     4
 10
24342.759130999999
 20
16620.757511999989
 30
0.0
 11
24342.759130999999
 21
19188.257511999989
 31
0.0
  0
LINE
  5
4583
  8
SUNPOU
  6
CONTINUOUS
 62
     4
 10
23822.75913100001
 20
14053.257512
 30
0.0
 11
24422.759130999999
 21
14053.257512
 31
0.0
  0
LINE
  5
4584
  8
SUNPOU
  6
CONTINUOUS
 62
     4
 10
23822.75913100001
 20
16620.757511999989
 30
0.0
 11
24422.759130999999
 21
16620.757511999989
 31
0.0
  0
LINE
  5
4585
  8
SUNPOU
  6
CONTINUOUS
 62
     4
 10
24342.759130999999
 20
14053.257512
 30
0.0
 11
24342.759130999999
 21
16620.757511999989
 31
0.0
  0
LINE
  5
4586
  8
SUNPOU
  6
CONTINUOUS
 62
     4
 10
22972.75781100001
 20
19230.754807000001
 30
0.0
 11
24822.759130999999
 21
19230.754806999979
 31
0.0
  0
LINE
  5
4587
  8
SUNPOU
  6
CONTINUOUS
 62
     4
 10
22972.75781100001
 20
14010.76021699999
 30
0.0
 11
24822.759130999999
 21
14010.76021699999
 31
0.0
  0
LINE
  5
4588
  8
SUNPOU
  6
CONTINUOUS
 62
     4
 10
24742.759130999999
 20
19230.754806999979
 30
0.0
 11
24742.759130999999
 21
14010.76021699999
 31
0.0
  0
LINE
  5
4589
  8
SUNPOU
  6
CONTINUOUS
 62
     4
 10
23822.75913100001
 20
19188.257511999989
 30
0.0
 11
24422.759130999999
 21
19188.257511999989
 31
0.0
  0
LINE
  5
458A
  8
SUNPOU
  6
CONTINUOUS
 62
     4
 10
22972.75781100001
 20
19230.754807000001
 30
0.0
 11
24422.759130999999
 21
19230.754807000001
 31
0.0
  0
LINE
  5
458B
  8
SUNPOU
  6
CONTINUOUS
 62
     4
 10
24342.759130999999
 20
19188.257511999989
 30
0.0
 11
24342.759130999999
 21
18948.257511999989
 31
0.0
  0
LINE
  5
458C
  8
SUNPOU
  6
CONTINUOUS
 62
     4
 10
24342.759130999999
 20
19230.754807000001
 30
0.0
 11
24342.759130999999
 21
19470.754807000001
 31
0.0
  0
LINE
  5
458D
  8
SUNPOU
  6
CONTINUOUS
 62
     4
 10
24342.759130999999
 20
19188.257511999989
 30
0.0
 11
24342.759130999999
 21
19230.754807000001
 31
0.0
  0
LINE
  5
458E
  8
SUNPOU
  6
CONTINUOUS
 62
     4
 10
23822.75913100001
 20
14053.257512
 30
0.0
 11
24422.759130999999
 21
14053.257512
 31
0.0
  0
LINE
  5
458F
  8
SUNPOU
  6
CONTINUOUS
 62
     4
 10
22972.75781100001
 20
14010.76021699999
 30
0.0
 11
24422.759130999999
 21
14010.76021699999
 31
0.0
  0
LINE
  5
4590
  8
SUNPOU
  6
CONTINUOUS
 62
     4
 10
24342.759130999999
 20
14053.257512
 30
0.0
 11
24342.759130999999
 21
14293.257512
 31
0.0
  0
LINE
  5
4591
  8
SUNPOU
  6
CONTINUOUS
 62
     4
 10
24342.759130999999
 20
14010.76021699999
 30
0.0
 11
24342.759130999999
 21
13770.76021699999
 31
0.0
  0
LINE
  5
4592
  8
SUNPOU
  6
CONTINUOUS
 62
     4
 10
24342.759130999999
 20
14053.257512
 30
0.0
 11
24342.759130999999
 21
14010.76021699999
 31
0.0
  0
LINE
  5
4593
  8
SUNPOU
  6
CONTINUOUS
 62
     4
 10
19581.759526999991
 20
19310.75579700002
 30
0.0
 11
19581.759526999991
 21
20040.75870000002
 31
0.0
  0
LINE
  5
4594
  8
SUNPOU
  6
CONTINUOUS
 62
     4
 10
19989.259526999991
 20
19310.75579700002
 30
0.0
 11
19989.259526999991
 21
20040.75870000002
 31
0.0
  0
LINE
  5
4595
  8
SUNPOU
  6
CONTINUOUS
 62
     4
 10
19581.759526999991
 20
19960.75870000002
 30
0.0
 11
19341.759526999998
 21
19960.75870000002
 31
0.0
  0
LINE
  5
4596
  8
SUNPOU
  6
CONTINUOUS
 62
     4
 10
19989.259526999991
 20
19960.75870000002
 30
0.0
 11
20229.259526999998
 21
19960.75870000002
 31
0.0
  0
LINE
  5
4597
  8
SUNPOU
  6
CONTINUOUS
 62
     4
 10
19581.759526999991
 20
19960.75870000002
 30
0.0
 11
19989.259526999991
 21
19960.75870000002
 31
0.0
  0
LINE
  5
4598
  8
SUNPOU
  6
CONTINUOUS
 62
     4
 10
22092.259527000009
 20
19310.75579700002
 30
0.0
 11
22092.259527000009
 21
20040.75870000002
 31
0.0
  0
LINE
  5
4599
  8
SUNPOU
  6
CONTINUOUS
 62
     4
 10
22850.26051650002
 20
19310.75579700002
 30
0.0
 11
22850.26051650002
 21
20040.75870000002
 31
0.0
  0
LINE
  5
459A
  8
SUNPOU
  6
CONTINUOUS
 62
     4
 10
22092.259527000009
 20
19960.75870000002
 30
0.0
 11
22850.26051650002
 21
19960.75870000002
 31
0.0
  0
LINE
  5
459B
  8
SUNPOU
  6
CONTINUOUS
 62
     4
 10
21391.259526999998
 20
19310.75579700002
 30
0.0
 11
21391.259526999998
 21
20040.75870000002
 31
0.0
  0
LINE
  5
459C
  8
SUNPOU
  6
CONTINUOUS
 62
     4
 10
22092.259527000009
 20
19310.75579700002
 30
0.0
 11
22092.259527000009
 21
20040.75870000002
 31
0.0
  0
LINE
  5
459D
  8
SUNPOU
  6
CONTINUOUS
 62
     4
 10
21391.259526999998
 20
19960.75870000002
 30
0.0
 11
22092.259527000009
 21
19960.75870000002
 31
0.0
  0
LINE
  5
459E
  8
SUNPOU
  6
CONTINUOUS
 62
     4
 10
20690.259526999998
 20
19310.75579700002
 30
0.0
 11
20690.259526999998
 21
20040.75870000002
 31
0.0
  0
LINE
  5
459F
  8
SUNPOU
  6
CONTINUOUS
 62
     4
 10
21391.259526999998
 20
19310.75579700002
 30
0.0
 11
21391.259526999998
 21
20040.75870000002
 31
0.0
  0
LINE
  5
45A0
  8
SUNPOU
  6
CONTINUOUS
 62
     4
 10
20690.259526999998
 20
19960.75870000002
 30
0.0
 11
21391.259526999998
 21
19960.75870000002
 31
0.0
  0
LINE
  5
45A1
  8
SUNPOU
  6
CONTINUOUS
 62
     4
 10
19989.259526999991
 20
19310.75579700002
 30
0.0
 11
19989.259526999991
 21
20040.75870000002
 31
0.0
  0
LINE
  5
45A2
  8
SUNPOU
  6
CONTINUOUS
 62
     4
 10
20690.259526999998
 20
19310.75579700002
 30
0.0
 11
20690.259526999998
 21
20040.75870000002
 31
0.0
  0
LINE
  5
45A3
  8
SUNPOU
  6
CONTINUOUS
 62
     4
 10
19989.259526999991
 20
19960.75870000002
 30
0.0
 11
20690.259526999998
 21
19960.75870000002
 31
0.0
  0
LINE
  5
45A4
  8
SUNPOU
  6
CONTINUOUS
 62
     4
 10
22850.259527000009
 20
19310.75579700002
 30
0.0
 11
22850.259527000009
 21
20040.75870000002
 31
0.0
  0
LINE
  5
45A5
  8
SUNPOU
  6
CONTINUOUS
 62
     4
 10
22892.755831999992
 20
19310.75579700002
 30
0.0
 11
22892.755831999992
 21
20040.75870000002
 31
0.0
  0
LINE
  5
45A6
  8
SUNPOU
  6
CONTINUOUS
 62
     4
 10
22850.259527000009
 20
19960.75870000002
 30
0.0
 11
22610.259527000009
 21
19960.75870000002
 31
0.0
  0
LINE
  5
45A7
  8
SUNPOU
  6
CONTINUOUS
 62
     4
 10
22892.755831999992
 20
19960.75870000002
 30
0.0
 11
23132.755831999992
 21
19960.75870000002
 31
0.0
  0
LINE
  5
45A8
  8
SUNPOU
  6
CONTINUOUS
 62
     4
 10
22850.259527000009
 20
19960.75870000002
 30
0.0
 11
22892.755831999992
 21
19960.75870000002
 31
0.0
  0
LINE
  5
45A9
  8
SUNPOU
  6
CONTINUOUS
 62
     4
 10
19581.759526999991
 20
19310.75579700002
 30
0.0
 11
19581.759526999991
 21
20040.75870000002
 31
0.0
  0
LINE
  5
45AA
  8
SUNPOU
  6
CONTINUOUS
 62
     4
 10
19539.263222000001
 20
19310.75579700002
 30
0.0
 11
19539.263222000001
 21
20040.75870000002
 31
0.0
  0
LINE
  5
45AB
  8
SUNPOU
  6
CONTINUOUS
 62
     4
 10
19581.759526999991
 20
19960.75870000002
 30
0.0
 11
19821.759526999998
 21
19960.75870000002
 31
0.0
  0
LINE
  5
45AC
  8
SUNPOU
  6
CONTINUOUS
 62
     4
 10
19539.263222000001
 20
19960.75870000002
 30
0.0
 11
19299.263222000001
 21
19960.75870000002
 31
0.0
  0
LINE
  5
45AD
  8
SUNPOU
  6
CONTINUOUS
 62
     4
 10
19581.759526999991
 20
19960.75870000002
 30
0.0
 11
19539.263222000001
 21
19960.75870000002
 31
0.0
  0
LINE
  5
45AE
  8
SUNPOU
  6
CONTINUOUS
 62
     4
 10
14569.013606
 20
6111.4596339999998
 30
0.0
 11
15646.51202200001
 21
6111.4596339999998
 31
0.0
  0
LINE
  5
45AF
  8
SUNPOU
  6
CONTINUOUS
 62
     4
 10
14661.31888559939
 20
8460.4596340000007
 30
0.0
 11
15646.51202200001
 21
8460.4596340000007
 31
0.0
  0
LINE
  5
45B0
  8
SUNPOU
  6
CONTINUOUS
 62
     4
 10
15566.51202200001
 20
6111.4596339999998
 30
0.0
 11
15566.51202200001
 21
8460.4596340000007
 31
0.0
  0
LINE
  5
45B1
  8
SUNPOU
  6
CONTINUOUS
 62
     4
 10
9169.0136060000114
 20
6111.4596339999998
 30
0.0
 11
8086.5132100000128
 21
6111.4596339999998
 31
0.0
  0
LINE
  5
45B2
  8
SUNPOU
  6
CONTINUOUS
 62
     4
 10
8996.5136060000059
 20
8266.9596340000026
 30
0.0
 11
8086.5132100000128
 21
8266.9596340000026
 31
0.0
  0
LINE
  5
45B3
  8
SUNPOU
  6
CONTINUOUS
 62
     4
 10
8166.5132100000101
 20
6111.4596339999998
 30
0.0
 11
8166.5132100000128
 21
8266.9596340000026
 31
0.0
  0
LINE
  5
45B4
  8
SUNPOU
  6
CONTINUOUS
 62
     4
 10
14476.513606
 20
8406.3696970000001
 30
0.0
 11
14476.513606
 21
9339.4613089999966
 31
0.0
  0
LINE
  5
45B5
  8
SUNPOU
  6
CONTINUOUS
 62
     4
 10
14626.51360600001
 20
8480.3494564124285
 30
0.0
 11
14626.51360600001
 21
9339.4613089999966
 31
0.0
  0
LINE
  5
45B6
  8
SUNPOU
  6
CONTINUOUS
 62
     4
 10
14476.513606
 20
9259.4613089999966
 30
0.0
 11
14236.513606
 21
9259.4613089999966
 31
0.0
  0
LINE
  5
45B7
  8
SUNPOU
  6
CONTINUOUS
 62
     4
 10
14626.51360600001
 20
9259.4613089999966
 30
0.0
 11
14866.513606
 21
9259.4613089999966
 31
0.0
  0
LINE
  5
45B8
  8
SUNPOU
  6
CONTINUOUS
 62
     4
 10
14476.513606
 20
9259.4613089999966
 30
0.0
 11
14626.51360600001
 21
9259.4613089999966
 31
0.0
  0
LINE
  5
45B9
  8
SUNPOU
  6
CONTINUOUS
 62
     4
 10
9076.5136060000114
 20
8348.4596330000004
 30
0.0
 11
9076.5136060000114
 21
9739.4596589999965
 31
0.0
  0
LINE
  5
45BA
  8
SUNPOU
  6
CONTINUOUS
 62
     4
 10
14626.51360600001
 20
8480.3494564124285
 30
0.0
 11
14626.51360600001
 21
9739.4596589999965
 31
0.0
  0
LINE
  5
45BB
  8
SUNPOU
  6
CONTINUOUS
 62
     4
 10
9076.5136060000114
 20
9659.4596589999965
 30
0.0
 11
14626.51360600001
 21
9659.4596589999965
 31
0.0
  0
LINE
  5
45BC
  8
SUNPOU
  6
CONTINUOUS
 62
     4
 10
9256.5136060000114
 20
8218.6454086838057
 30
0.0
 11
9256.5136060000114
 21
9339.4613089999966
 31
0.0
  0
LINE
  5
45BD
  8
SUNPOU
  6
CONTINUOUS
 62
     4
 10
14476.513606
 20
8406.3696970000001
 30
0.0
 11
14476.513606
 21
9339.4613089999966
 31
0.0
  0
LINE
  5
45BE
  8
SUNPOU
  6
CONTINUOUS
 62
     4
 10
9256.5136060000114
 20
9259.4613089999966
 30
0.0
 11
14476.513606
 21
9259.4613089999966
 31
0.0
  0
LINE
  5
45BF
  8
SUNPOU
  6
CONTINUOUS
 62
     4
 10
9076.5136060000114
 20
8348.4596330000004
 30
0.0
 11
9076.5136060000114
 21
9339.4613089999966
 31
0.0
  0
LINE
  5
45C0
  8
SUNPOU
  6
CONTINUOUS
 62
     4
 10
9256.5136060000114
 20
8218.6454086838057
 30
0.0
 11
9256.5136060000114
 21
9339.4613089999966
 31
0.0
  0
LINE
  5
45C1
  8
SUNPOU
  6
CONTINUOUS
 62
     4
 10
9076.5136060000114
 20
9259.4613089999966
 30
0.0
 11
8836.5136060000114
 21
9259.4613089999966
 31
0.0
  0
LINE
  5
45C2
  8
SUNPOU
  6
CONTINUOUS
 62
     4
 10
9256.5136060000114
 20
9259.4613089999966
 30
0.0
 11
9496.5136060000132
 21
9259.4613089999966
 31
0.0
  0
LINE
  5
45C3
  8
SUNPOU
  6
CONTINUOUS
 62
     4
 10
9076.5136060000114
 20
9259.4613089999966
 30
0.0
 11
9256.5136060000114
 21
9259.4613089999966
 31
0.0
  0
LINE
  5
45C4
  8
SUNPOU
  6
CONTINUOUS
 62
     4
 10
14434.011627
 20
5668.8073749999958
 30
0.0
 11
14434.011627
 21
4731.4597979999953
 31
0.0
  0
LINE
  5
45C5
  8
SUNPOU
  6
CONTINUOUS
 62
     4
 10
14476.511627000011
 20
6031.4596329999977
 30
0.0
 11
14476.511627000011
 21
4731.4597979999953
 31
0.0
  0
LINE
  5
45C6
  8
SUNPOU
  6
CONTINUOUS
 62
     4
 10
14434.011627
 20
4811.4597979999962
 30
0.0
 11
14194.011627
 21
4811.4597979999962
 31
0.0
  0
LINE
  5
45C7
  8
SUNPOU
  6
CONTINUOUS
 62
     4
 10
14476.511627000011
 20
4811.4597979999962
 30
0.0
 11
14716.511627000011
 21
4811.4597979999962
 31
0.0
  0
LINE
  5
45C8
  8
SUNPOU
  6
CONTINUOUS
 62
     4
 10
14434.011627
 20
4811.4597979999962
 30
0.0
 11
14476.511627000011
 21
4811.4597979999962
 31
0.0
  0
LINE
  5
45C9
  8
SUNPOU
  6
CONTINUOUS
 62
     4
 10
11866.51360600001
 20
5668.8063859999993
 30
0.0
 11
11866.51360600001
 21
4731.4597990000002
 31
0.0
  0
LINE
  5
45CA
  8
SUNPOU
  6
CONTINUOUS
 62
     4
 10
14434.01360600001
 20
5668.8063859999993
 30
0.0
 11
14434.01360600001
 21
4731.4597990000002
 31
0.0
  0
LINE
  5
45CB
  8
SUNPOU
  6
CONTINUOUS
 62
     4
 10
11866.51360600001
 20
4811.4597990000002
 30
0.0
 11
14434.01360600001
 21
4811.4597990000002
 31
0.0
  0
LINE
  5
45CC
  8
SUNPOU
  6
CONTINUOUS
 62
     4
 10
9256.5136060000114
 20
6031.4596329999977
 30
0.0
 11
9256.5136060000114
 21
4331.4599629999948
 31
0.0
  0
LINE
  5
45CD
  8
SUNPOU
  6
CONTINUOUS
 62
     4
 10
14476.511627000011
 20
6031.4596329999977
 30
0.0
 11
14476.511627000011
 21
4331.4599629999948
 31
0.0
  0
LINE
  5
45CE
  8
SUNPOU
  6
CONTINUOUS
 62
     4
 10
9256.5136060000114
 20
4411.4599629999948
 30
0.0
 11
14476.511627000011
 21
4411.4599629999948
 31
0.0
  0
LINE
  5
45CF
  8
SUNPOU
  6
CONTINUOUS
 62
     4
 10
9299.0136060000114
 20
5668.8073749999958
 30
0.0
 11
9299.0136060000114
 21
4731.4597979999953
 31
0.0
  0
LINE
  5
45D0
  8
SUNPOU
  6
CONTINUOUS
 62
     4
 10
9256.5136060000114
 20
6031.4596329999977
 30
0.0
 11
9256.5136060000114
 21
4731.4597979999953
 31
0.0
  0
LINE
  5
45D1
  8
SUNPOU
  6
CONTINUOUS
 62
     4
 10
9299.0136060000114
 20
4811.4597979999962
 30
0.0
 11
9539.0136060000114
 21
4811.4597979999962
 31
0.0
  0
LINE
  5
45D2
  8
SUNPOU
  6
CONTINUOUS
 62
     4
 10
9256.5136060000114
 20
4811.4597979999962
 30
0.0
 11
9016.5136060000095
 21
4811.4597979999962
 31
0.0
  0
LINE
  5
45D3
  8
SUNPOU
  6
CONTINUOUS
 62
     4
 10
9299.0136060000114
 20
4811.4597979999962
 30
0.0
 11
9256.5136060000114
 21
4811.4597979999962
 31
0.0
  0
LINE
  5
45D4
  8
SUNPOU
  6
CONTINUOUS
 62
     4
 10
11866.51360600001
 20
5668.8073749999958
 30
0.0
 11
11866.51360600001
 21
4731.4597979999953
 31
0.0
  0
LINE
  5
45D5
  8
SUNPOU
  6
CONTINUOUS
 62
     4
 10
9299.0136060000114
 20
5668.8073749999958
 30
0.0
 11
9299.0136060000114
 21
4731.4597979999953
 31
0.0
  0
LINE
  5
45D6
  8
SUNPOU
  6
CONTINUOUS
 62
     4
 10
11866.51360600001
 20
4811.4597979999962
 30
0.0
 11
9299.0136060000114
 21
4811.4597979999962
 31
0.0
  0
LINE
  5
45D7
  8
SUNPOU
  6
CONTINUOUS
 62
     4
 10
19451.756888000011
 20
6111.4596339999998
 30
0.0
 11
18651.75820700001
 21
6111.4596339999998
 31
0.0
  0
LINE
  5
45D8
  8
SUNPOU
  6
CONTINUOUS
 62
     4
 10
19451.756888000011
 20
8002.9596339999989
 30
0.0
 11
18651.75820700001
 21
8002.9596339999989
 31
0.0
  0
LINE
  5
45D9
  8
SUNPOU
  6
CONTINUOUS
 62
     4
 10
18731.75820700001
 20
6111.4596339999998
 30
0.0
 11
18731.75820700001
 21
8002.9596339999989
 31
0.0
  0
LINE
  5
45DA
  8
SUNPOU
  6
CONTINUOUS
 62
     4
 10
19451.756888000011
 20
6111.4596339999998
 30
0.0
 11
18251.755897999999
 21
6111.4596340000016
 31
0.0
  0
LINE
  5
45DB
  8
SUNPOU
  6
CONTINUOUS
 62
     4
 10
19419.259132000021
 20
8460.4594890000008
 30
0.0
 11
18251.755897999999
 21
8460.4594890000008
 31
0.0
  0
LINE
  5
45DC
  8
SUNPOU
  6
CONTINUOUS
 62
     4
 10
18331.75589800001
 20
6111.4596340000016
 30
0.0
 11
18331.75589800001
 21
8460.4594890000008
 31
0.0
  0
LINE
  5
45ED
  8
SUNPOU
  6
CONTINUOUS
 62
     4
 10
22850.259527000009
 20
5668.8073760000016
 30
0.0
 11
22850.259527000009
 21
4731.4597990000038
 31
0.0
  0
LINE
  5
45EE
  8
SUNPOU
  6
CONTINUOUS
 62
     4
 10
22892.759527000009
 20
5931.4597990000048
 30
0.0
 11
22892.759527000009
 21
4731.4597990000038
 31
0.0
  0
LINE
  5
45EF
  8
SUNPOU
  6
CONTINUOUS
 62
     4
 10
22850.259527000009
 20
4811.4597990000038
 30
0.0
 11
22610.25952700002
 21
4811.4597990000038
 31
0.0
  0
LINE
  5
45F0
  8
SUNPOU
  6
CONTINUOUS
 62
     4
 10
22892.759527000009
 20
4811.4597990000038
 30
0.0
 11
23132.759527000009
 21
4811.4597990000038
 31
0.0
  0
LINE
  5
45F1
  8
SUNPOU
  6
CONTINUOUS
 62
     4
 10
22850.259527000009
 20
4811.4597990000038
 30
0.0
 11
22892.759527000009
 21
4811.4597990000038
 31
0.0
  0
LINE
  5
45F2
  8
SUNPOU
  6
CONTINUOUS
 62
     4
 10
19675.759526999991
 20
5931.4597990000048
 30
0.0
 11
19675.759526999991
 21
5131.4597990000057
 31
0.0
  0
LINE
  5
45F3
  8
SUNPOU
  6
CONTINUOUS
 62
     4
 10
22756.259526999998
 20
5931.4597990000048
 30
0.0
 11
22756.259526999998
 21
5131.4597990000057
 31
0.0
  0
LINE
  5
45F4
  8
SUNPOU
  6
CONTINUOUS
 62
     4
 10
19675.759526999991
 20
5211.4597990000057
 30
0.0
 11
22756.259526999998
 21
5211.4597990000057
 31
0.0
  0
LINE
  5
45F5
  8
SUNPOU
  6
CONTINUOUS
 62
     4
 10
19581.759526999991
 20
5668.8073760000016
 30
0.0
 11
19581.759526999991
 21
4731.4597990000038
 31
0.0
  0
LINE
  5
45F6
  8
SUNPOU
  6
CONTINUOUS
 62
     4
 10
22850.259527000009
 20
5668.8073760000016
 30
0.0
 11
22850.259527000009
 21
4731.4597990000038
 31
0.0
  0
LINE
  5
45F7
  8
SUNPOU
  6
CONTINUOUS
 62
     4
 10
19581.759526999991
 20
4811.4597990000038
 30
0.0
 11
22850.259527000009
 21
4811.4597990000038
 31
0.0
  0
LINE
  5
45F8
  8
SUNPOU
  6
CONTINUOUS
 62
     4
 10
19581.759526999991
 20
5668.8073760000016
 30
0.0
 11
19581.759526999991
 21
4731.4597990000038
 31
0.0
  0
LINE
  5
45F9
  8
SUNPOU
  6
CONTINUOUS
 62
     4
 10
19539.259526999991
 20
5931.4597990000048
 30
0.0
 11
19539.259526999991
 21
4731.4597990000038
 31
0.0
  0
LINE
  5
45FA
  8
SUNPOU
  6
CONTINUOUS
 62
     4
 10
19581.759526999991
 20
4811.4597990000038
 30
0.0
 11
19821.759526999998
 21
4811.4597990000038
 31
0.0
  0
LINE
  5
45FB
  8
SUNPOU
  6
CONTINUOUS
 62
     4
 10
19539.259526999991
 20
4811.4597990000038
 30
0.0
 11
19299.259526999991
 21
4811.4597990000038
 31
0.0
  0
LINE
  5
45FC
  8
SUNPOU
  6
CONTINUOUS
 62
     4
 10
19581.759526999991
 20
4811.4597990000038
 30
0.0
 11
19539.259526999991
 21
4811.4597990000038
 31
0.0
  0
LINE
  5
45FD
  8
SUNPOU
  6
CONTINUOUS
 62
     4
 10
19539.259526999991
 20
5931.4597990000048
 30
0.0
 11
19539.259526999991
 21
4331.4599640000033
 31
0.0
  0
LINE
  5
45FE
  8
SUNPOU
  6
CONTINUOUS
 62
     4
 10
22892.759527000009
 20
5931.4597990000048
 30
0.0
 11
22892.759527000009
 21
4331.4599640000033
 31
0.0
  0
LINE
  5
45FF
  8
SUNPOU
  6
CONTINUOUS
 62
     4
 10
19539.259526999991
 20
4411.4599640000042
 30
0.0
 11
22892.759527000009
 21
4411.4599640000042
 31
0.0
  0
TEXT
  5
4600
  8
0
  6
CONTINUOUS
 62
     7
 10
20816.009526999998
 20
4491.4599640000033
 30
0.0
 40
160.0
  1
3353.5
  0
TEXT
  5
4601
  8
0
  6
CONTINUOUS
 62
     7
 10
18973.22053674117
 20
4891.4597990000057
 30
0.0
 40
160.0
  1
42.5
  0
TEXT
  5
4602
  8
0
  6
CONTINUOUS
 62
     7
 10
20816.009526999998
 20
4891.4597990000057
 30
0.0
 40
160.0
  1
3268.5
  0
TEXT
  5
4603
  8
0
  6
CONTINUOUS
 62
     7
 10
20314.676193666681
 20
5291.4597990000057
 30
0.0
 40
160.0
  1
有効開口巾 3080.5
  0
TEXT
  5
4604
  8
0
  6
CONTINUOUS
 62
     7
 10
22978.798517258849
 20
4891.4597990000057
 30
0.0
 40
160.0
  1
42.5
  0
TEXT
  5
4609
  8
0
  6
CONTINUOUS
 62
     7
 10
18251.755897999999
 20
6517.9595615000053
 30
0.0
 40
160.0
  1
2349 (2589)
 50
90.0
  0
TEXT
  5
460A
  8
0
  6
CONTINUOUS
 62
     7
 10
18651.75820700001
 20
6175.4388722912772
 30
0.0
 40
160.0
  1
有効開口高サ 1891.5
 50
90.0
  0
TEXT
  5
460B
  8
0
  6
CONTINUOUS
 62
     7
 10
10182.763606
 20
4891.4597979999962
 30
0.0
 40
160.0
  1
2567.5
  0
TEXT
  5
460C
  8
0
  6
CONTINUOUS
 62
     7
 10
8659.3398969037044
 20
4891.4597979999962
 30
0.0
 40
160.0
  1
42.5
  0
TEXT
  5
460D
  8
0
  6
CONTINUOUS
 62
     7
 10
11586.5126165
 20
4491.4599629999957
 30
0.0
 40
160.0
  1
5220
  0
TEXT
  5
460E
  8
0
  6
CONTINUOUS
 62
     7
 10
12750.263606
 20
4891.4597990000002
 30
0.0
 40
160.0
  1
2567.5
  0
TEXT
  5
460F
  8
0
  6
CONTINUOUS
 62
     7
 10
14593.6853360963
 20
4891.4597979999962
 30
0.0
 40
160.0
  1
42.5
  0
TEXT
  5
4610
  8
0
  6
CONTINUOUS
 62
     7
 10
8663.1802726666774
 20
9339.4613089999966
 30
0.0
 40
160.0
  1
180
  0
TEXT
  5
4611
  8
0
  6
CONTINUOUS
 62
     7
 10
11586.51360600001
 20
9339.4613089999966
 30
0.0
 40
160.0
  1
5220
  0
TEXT
  5
4612
  8
0
  6
CONTINUOUS
 62
     7
 10
11571.51360600001
 20
9739.4596589999965
 30
0.0
 40
160.0
  1
5550
  0
TEXT
  5
4613
  8
0
  6
CONTINUOUS
 62
     7
 10
14693.18027266667
 20
9339.4613089999966
 30
0.0
 40
160.0
  1
150
  0
TEXT
  5
4614
  8
0
  6
CONTINUOUS
 62
     7
 10
8086.5132100000101
 20
6197.2096340000026
 30
0.0
 40
160.0
  1
2155.5（2395.5）
 50
90.0
  0
TEXT
  5
4615
  8
0
  6
CONTINUOUS
 62
     7
 10
15486.51202200001
 20
6480.6263006666677
 30
0.0
 40
160.0
  1
2349（2589）
 50
90.0
  0
TEXT
  5
4616
  8
0
  6
CONTINUOUS
 62
     7
 10
18978.947547471202
 20
20040.75870000002
 30
0.0
 40
160.0
  1
42.5
  0
TEXT
  5
4617
  8
0
  6
CONTINUOUS
 62
     7
 10
22973.071506528791
 20
20040.75870000002
 30
0.0
 40
160.0
  1
42.5
  0
TEXT
  5
4618
  8
0
  6
CONTINUOUS
 62
     7
 10
20166.426193666681
 20
19720.75870000002
 30
0.0
 40
160.0
  1
701
  0
TEXT
  5
4619
  8
0
  6
CONTINUOUS
 62
     7
 10
20867.426193666681
 20
20040.75870000002
 30
0.0
 40
160.0
  1
701
  0
TEXT
  5
461A
  8
0
  6
CONTINUOUS
 62
     7
 10
21568.426193666681
 20
20040.75870000002
 30
0.0
 40
160.0
  1
701
  0
TEXT
  5
461B
  8
0
  6
CONTINUOUS
 62
     7
 10
22257.926688416679
 20
20040.75870000002
 30
0.0
 40
160.0
  1
758
  0
TEXT
  5
461C
  8
0
  6
CONTINUOUS
 62
     7
 10
19682.592860333341
 20
20040.75870000002
 30
0.0
 40
160.0
  1
407.5
  0
TEXT
  5
461D
  8
0
  6
CONTINUOUS
 62
     7
 10
24262.759130999999
 20
13437.203980603201
 30
0.0
 40
160.0
  1
42.5
 50
90.0
  0
TEXT
  5
461E
  8
0
  6
CONTINUOUS
 62
     7
 10
24262.759130999999
 20
19324.311043396781
 30
0.0
 40
160.0
  1
42.5
 50
90.0
  0
TEXT
  5
461F
  8
0
  6
CONTINUOUS
 62
     7
 10
24662.759130999999
 20
16340.757512
 30
0.0
 40
160.0
  1
5220
 50
90.0
  0
TEXT
  5
4620
  8
0
  6
CONTINUOUS
 62
     7
 10
24262.759130999999
 20
14937.007512
 30
0.0
 40
160.0
  1
2567.5
 50
90.0
  0
TEXT
  5
4621
  8
0
  6
CONTINUOUS
 62
     7
 10
24262.759130999999
 20
17504.507511999989
 30
0.0
 40
160.0
  1
2567.5
 50
90.0
  0
TEXT
  5
4622
  8
0
  6
CONTINUOUS
 62
     7
 10
23862.759130999992
 20
18256.924178666672
 30
0.0
 40
160.0
  1
701
 50
90.0
  0
TEXT
  5
4623
  8
0
  6
CONTINUOUS
 62
     7
 10
23862.759130999992
 20
17555.924178666672
 30
0.0
 40
160.0
  1
701
 50
90.0
  0
TEXT
  5
4624
  8
0
  6
CONTINUOUS
 62
     7
 10
23862.759130999992
 20
16786.424178666672
 30
0.0
 40
160.0
  1
758
 50
90.0
  0
TEXT
  5
4625
  8
0
  6
CONTINUOUS
 62
     7
 10
23862.759130999992
 20
16028.42417866667
 30
0.0
 40
160.0
  1
758
 50
90.0
  0
TEXT
  5
4626
  8
0
  6
CONTINUOUS
 62
     7
 10
23862.759130999992
 20
15339.04443441667
 30
0.0
 40
160.0
  1
701
 50
90.0
  0
TEXT
  5
4627
  8
0
  6
CONTINUOUS
 62
     7
 10
23862.759130999992
 20
14638.04443441667
 30
0.0
 40
160.0
  1
701
 50
90.0
  0
TEXT
  5
4628
  8
0
  6
CONTINUOUS
 62
     7
 10
20816.009526999998
 20
12761.809428
 30
0.0
 40
160.0
  1
3353.5
  0
TEXT
  5
4629
  8
0
  6
CONTINUOUS
 62
     7
 10
19699.81319938209
 20
13161.809428
 30
0.0
 40
160.0
  1
42.5
  0
TEXT
  5
462A
  8
0
  6
CONTINUOUS
 62
     7
 10
22252.205854617911
 20
13161.809428
 30
0.0
 40
160.0
  1
42.5
  0
TEXT
  5
462B
  8
0
  6
CONTINUOUS
 62
     7
 10
22968.313199382079
 20
13161.809428
 30
0.0
 40
160.0
  1
42.5
  0
TEXT
  5
462C
  8
0
  6
CONTINUOUS
 62
     7
 10
18983.705854617911
 20
13161.809428
 30
0.0
 40
160.0
  1
42.5
  0
TEXT
  5
462D
  8
0
  6
CONTINUOUS
 62
     7
 10
18572.304950000009
 20
14274.29443441667
 30
0.0
 40
160.0
  1
1108.5
 50
90.0
  0
TEXT
  5
462E
  8
0
  6
CONTINUOUS
 62
     7
 10
18572.304950000009
 20
15624.711101083331
 30
0.0
 40
160.0
  1
1459
 50
90.0
  0
TEXT
  5
462F
  8
0
  6
CONTINUOUS
 62
     7
 10
18572.304950000009
 20
17083.590845333321
 30
0.0
 40
160.0
  1
1459
 50
90.0
  0
TEXT
  5
4630
  8
0
  6
CONTINUOUS
 62
     7
 10
18572.304950000009
 20
18300.674178666672
 30
0.0
 40
160.0
  1
1108.5
 50
90.0
  0
TEXT
  5
4631
  8
0
  6
CONTINUOUS
 62
     7
 10
24222.759130999999
 20
18490.13547964321
 30
0.0
 40
160.0
  1
407.5
 50
90.0
  0
TEXT
  5
4632
  8
0
  6
CONTINUOUS
 62
     7
 10
24222.759130999999
 20
14126.19818195355
 30
0.0
 40
160.0
  1
407.5
 50
90.0
  0
TEXT
  5
4633
  8
0
  6
CONTINUOUS
 62
     7
 10
8917.2599720000017
 20
18300.674178666672
 30
0.0
 40
160.0
  1
1108.5
 50
90.0
  0
TEXT
  5
4634
  8
0
  6
CONTINUOUS
 62
     7
 10
8917.2599719999998
 20
19499.712696807681
 30
0.0
 40
160.0
  1
222.5
 50
90.0
  0
TEXT
  5
4635
  8
0
  6
CONTINUOUS
 62
     7
 10
9317.2599720000035
 20
19530.753421000001
 30
0.0
 40
160.0
  1
20
 50
90.0
  0
TEXT
  5
4636
  8
0
  6
CONTINUOUS
 62
     7
 10
8917.2599720000017
 20
17083.590845333321
 30
0.0
 40
160.0
  1
1459
 50
90.0
  0
TEXT
  5
4637
  8
0
  6
CONTINUOUS
 62
     7
 10
8917.2599720000017
 20
15624.711101083331
 30
0.0
 40
160.0
  1
1459
 50
90.0
  0
TEXT
  5
4638
  8
0
  6
CONTINUOUS
 62
     7
 10
8917.2599720000017
 20
14274.29443441667
 30
0.0
 40
160.0
  1
1108.5
 50
90.0
  0
TEXT
  5
4639
  8
0
  6
CONTINUOUS
 62
     7
 10
8917.2599720000017
 20
13245.304501702631
 30
0.0
 40
160.0
  1
192.5
 50
90.0
  0
TEXT
  5
463A
  8
0
  6
CONTINUOUS
 62
     7
 10
11161.013212000011
 20
20110.76239499998
 30
0.0
 40
160.0
  1
3268.5
  0
TEXT
  5
463B
  8
0
  6
CONTINUOUS
 62
     7
 10
9310.2665059767514
 20
20110.76239499998
 30
0.0
 40
160.0
  1
85.5
  0
TEXT
  5
463C
  8
0
  6
CONTINUOUS
 62
     7
 10
13331.759918023279
 20
20110.76239499998
 30
0.0
 40
160.0
  1
85.5
  0
ARC
  5
4642
  8
0
  6
BYBLOCK
 62
     0
 10
13195.263212000011
 20
20030.76239499998
 30
0.0
 40
15.0
 50
180.0
 51
0.0
  0
ARC
  5
4643
  8
0
  6
BYBLOCK
 62
     0
 10
13195.263212000011
 20
20030.76239499998
 30
0.0
 40
15.0
 50
0.0
 51
180.0
  0
ARC
  5
4644
  8
0
  6
BYBLOCK
 62
     0
 10
13280.763212000011
 20
20030.76239499998
 30
0.0
 40
15.0
 50
0.0
 51
180.0
  0
ARC
  5
4645
  8
0
  6
BYBLOCK
 62
     0
 10
13280.763212000011
 20
20030.76239499998
 30
0.0
 40
15.0
 50
180.0
 51
0.0
  0
ARC
  5
4646
  8
0
  6
BYBLOCK
 62
     0
 10
9926.7632120000126
 20
20030.76239499998
 30
0.0
 40
15.0
 50
0.0
 51
180.0
  0
ARC
  5
4647
  8
0
  6
BYBLOCK
 62
     0
 10
9926.7632120000126
 20
20030.76239499998
 30
0.0
 40
15.0
 50
180.0
 51
0.0
  0
ARC
  5
4648
  8
0
  6
BYBLOCK
 62
     0
 10
9841.2632120000126
 20
20030.76239499998
 30
0.0
 40
15.0
 50
180.0
 51
0.0
  0
ARC
  5
4649
  8
0
  6
BYBLOCK
 62
     0
 10
9841.2632120000126
 20
20030.76239499998
 30
0.0
 40
15.0
 50
0.0
 51
180.0
  0
ARC
  5
464A
  8
0
  6
BYBLOCK
 62
     0
 10
13195.263212000011
 20
20030.76239499998
 30
0.0
 40
15.0
 50
180.0
 51
0.0
  0
ARC
  5
464B
  8
0
  6
BYBLOCK
 62
     0
 10
13195.263212000011
 20
20030.76239499998
 30
0.0
 40
15.0
 50
0.0
 51
180.0
  0
ARC
  5
464C
  8
0
  6
BYBLOCK
 62
     0
 10
9926.7632120000126
 20
20030.76239499998
 30
0.0
 40
15.0
 50
0.0
 51
180.0
  0
ARC
  5
464D
  8
0
  6
BYBLOCK
 62
     0
 10
9926.7632120000126
 20
20030.76239499998
 30
0.0
 40
15.0
 50
180.0
 51
0.0
  0
ARC
  5
464E
  8
0
  6
BYBLOCK
 62
     0
 10
8997.2599720000053
 20
14053.257512
 30
0.0
 40
15.0
 50
90.0
 51
270.0
  0
ARC
  5
464F
  8
0
  6
BYBLOCK
 62
     0
 10
8997.2599720000053
 20
14053.257512
 30
0.0
 40
15.0
 50
270.0
 51
90.0
  0
ARC
  5
4650
  8
0
  6
BYBLOCK
 62
     0
 10
8997.2599720000053
 20
13860.762197
 30
0.0
 40
15.0
 50
270.0
 51
90.0
  0
ARC
  5
4651
  8
0
  6
BYBLOCK
 62
     0
 10
8997.2599720000053
 20
13860.762197
 30
0.0
 40
15.0
 50
90.0
 51
270.0
  0
ARC
  5
4652
  8
0
  6
BYBLOCK
 62
     0
 10
8997.2599720000053
 20
15161.99802350002
 30
0.0
 40
15.0
 50
270.0
 51
90.0
  0
ARC
  5
4653
  8
0
  6
BYBLOCK
 62
     0
 10
8997.2599720000053
 20
15161.99802350002
 30
0.0
 40
15.0
 50
90.0
 51
270.0
  0
ARC
  5
4654
  8
0
  6
BYBLOCK
 62
     0
 10
8997.2599720000053
 20
14053.257512
 30
0.0
 40
15.0
 50
90.0
 51
270.0
  0
ARC
  5
4655
  8
0
  6
BYBLOCK
 62
     0
 10
8997.2599720000053
 20
14053.257512
 30
0.0
 40
15.0
 50
270.0
 51
90.0
  0
ARC
  5
4656
  8
0
  6
BYBLOCK
 62
     0
 10
8997.2599720000053
 20
16620.757511999989
 30
0.0
 40
15.0
 50
270.0
 51
90.0
  0
ARC
  5
4657
  8
0
  6
BYBLOCK
 62
     0
 10
8997.2599720000053
 20
16620.757511999989
 30
0.0
 40
15.0
 50
90.0
 51
270.0
  0
ARC
  5
4658
  8
0
  6
BYBLOCK
 62
     0
 10
8997.2599720000053
 20
15161.99802350002
 30
0.0
 40
15.0
 50
90.0
 51
270.0
  0
ARC
  5
4659
  8
0
  6
BYBLOCK
 62
     0
 10
8997.2599720000053
 20
15161.99802350002
 30
0.0
 40
15.0
 50
270.0
 51
90.0
  0
ARC
  5
465A
  8
0
  6
BYBLOCK
 62
     0
 10
8997.2599720000053
 20
18079.757511999978
 30
0.0
 40
15.0
 50
270.0
 51
90.0
  0
ARC
  5
465B
  8
0
  6
BYBLOCK
 62
     0
 10
8997.2599720000053
 20
18079.757511999978
 30
0.0
 40
15.0
 50
90.0
 51
270.0
  0
ARC
  5
465C
  8
0
  6
BYBLOCK
 62
     0
 10
8997.2599720000053
 20
16620.757511999989
 30
0.0
 40
15.0
 50
90.0
 51
270.0
  0
ARC
  5
465D
  8
0
  6
BYBLOCK
 62
     0
 10
8997.2599720000053
 20
16620.757511999989
 30
0.0
 40
15.0
 50
270.0
 51
90.0
  0
ARC
  5
465E
  8
0
  6
BYBLOCK
 62
     0
 10
9397.2599720000035
 20
19390.753421000001
 30
0.0
 40
15.0
 50
270.0
 51
90.0
  0
ARC
  5
465F
  8
0
  6
BYBLOCK
 62
     0
 10
9397.2599720000035
 20
19390.753421000001
 30
0.0
 40
15.0
 50
90.0
 51
270.0
  0
ARC
  5
4660
  8
0
  6
BYBLOCK
 62
     0
 10
9397.2599720000035
 20
19410.753421000009
 30
0.0
 40
15.0
 50
90.0
 51
270.0
  0
ARC
  5
4661
  8
0
  6
BYBLOCK
 62
     0
 10
9397.2599720000035
 20
19410.753421000009
 30
0.0
 40
15.0
 50
270.0
 51
90.0
  0
ARC
  5
4662
  8
0
  6
BYBLOCK
 62
     0
 10
8997.2599720000017
 20
19188.257511999989
 30
0.0
 40
15.0
 50
270.0
 51
90.0
  0
ARC
  5
4663
  8
0
  6
BYBLOCK
 62
     0
 10
8997.2599720000017
 20
19188.257511999989
 30
0.0
 40
15.0
 50
90.0
 51
270.0
  0
ARC
  5
4664
  8
0
  6
BYBLOCK
 62
     0
 10
8997.2599720000017
 20
19410.753421000009
 30
0.0
 40
15.0
 50
90.0
 51
270.0
  0
ARC
  5
4665
  8
0
  6
BYBLOCK
 62
     0
 10
8997.2599720000017
 20
19410.753421000009
 30
0.0
 40
15.0
 50
270.0
 51
90.0
  0
ARC
  5
4666
  8
0
  6
BYBLOCK
 62
     0
 10
8997.2599720000017
 20
18079.757511999978
 30
0.0
 40
15.0
 50
90.0
 51
270.0
  0
ARC
  5
4667
  8
0
  6
BYBLOCK
 62
     0
 10
8997.2599720000017
 20
18079.757511999978
 30
0.0
 40
15.0
 50
270.0
 51
90.0
  0
ARC
  5
4668
  8
0
  6
BYBLOCK
 62
     0
 10
8997.2599720000017
 20
19188.257511999989
 30
0.0
 40
15.0
 50
270.0
 51
90.0
  0
ARC
  5
4669
  8
0
  6
BYBLOCK
 62
     0
 10
8997.2599720000017
 20
19188.257511999989
 30
0.0
 40
15.0
 50
90.0
 51
270.0
  0
ARC
  5
466A
  8
0
  6
BYBLOCK
 62
     0
 10
23942.759130999999
 20
14460.87776775
 30
0.0
 40
15.0
 50
270.0
 51
90.0
  0
ARC
  5
466B
  8
0
  6
BYBLOCK
 62
     0
 10
23942.759130999999
 20
14460.87776775
 30
0.0
 40
15.0
 50
90.0
 51
270.0
  0
ARC
  5
466C
  8
0
  6
BYBLOCK
 62
     0
 10
23942.759130999999
 20
14053.37776775
 30
0.0
 40
15.0
 50
90.0
 51
270.0
  0
ARC
  5
466D
  8
0
  6
BYBLOCK
 62
     0
 10
23942.759130999999
 20
14053.37776775
 30
0.0
 40
15.0
 50
270.0
 51
90.0
  0
ARC
  5
466E
  8
0
  6
BYBLOCK
 62
     0
 10
23942.759130999999
 20
18780.757511999989
 30
0.0
 40
15.0
 50
90.0
 51
270.0
  0
ARC
  5
466F
  8
0
  6
BYBLOCK
 62
     0
 10
23942.759130999999
 20
18780.757511999989
 30
0.0
 40
15.0
 50
270.0
 51
90.0
  0
ARC
  5
4670
  8
0
  6
BYBLOCK
 62
     0
 10
23942.759130999999
 20
19188.257511999989
 30
0.0
 40
15.0
 50
270.0
 51
90.0
  0
ARC
  5
4671
  8
0
  6
BYBLOCK
 62
     0
 10
23942.759130999999
 20
19188.257511999989
 30
0.0
 40
15.0
 50
90.0
 51
270.0
  0
ARC
  5
4672
  8
0
  6
BYBLOCK
 62
     0
 10
18652.304950000002
 20
18079.757511999978
 30
0.0
 40
15.0
 50
90.0
 51
270.0
  0
ARC
  5
4673
  8
0
  6
BYBLOCK
 62
     0
 10
18652.304950000002
 20
18079.757511999978
 30
0.0
 40
15.0
 50
270.0
 51
90.0
  0
ARC
  5
4674
  8
0
  6
BYBLOCK
 62
     0
 10
18652.304950000002
 20
19188.257511999989
 30
0.0
 40
15.0
 50
270.0
 51
90.0
  0
ARC
  5
4675
  8
0
  6
BYBLOCK
 62
     0
 10
18652.304950000002
 20
19188.257511999989
 30
0.0
 40
15.0
 50
90.0
 51
270.0
  0
ARC
  5
4676
  8
0
  6
BYBLOCK
 62
     0
 10
18652.304950000002
 20
16620.757511999989
 30
0.0
 40
15.0
 50
90.0
 51
270.0
  0
ARC
  5
4677
  8
0
  6
BYBLOCK
 62
     0
 10
18652.304950000002
 20
16620.757511999989
 30
0.0
 40
15.0
 50
270.0
 51
90.0
  0
ARC
  5
4678
  8
0
  6
BYBLOCK
 62
     0
 10
18652.304950000002
 20
18079.757511999978
 30
0.0
 40
15.0
 50
270.0
 51
90.0
  0
ARC
  5
4679
  8
0
  6
BYBLOCK
 62
     0
 10
18652.304950000002
 20
18079.757511999978
 30
0.0
 40
15.0
 50
90.0
 51
270.0
  0
ARC
  5
467A
  8
0
  6
BYBLOCK
 62
     0
 10
18652.304950000002
 20
15161.99802350002
 30
0.0
 40
15.0
 50
90.0
 51
270.0
  0
ARC
  5
467B
  8
0
  6
BYBLOCK
 62
     0
 10
18652.304950000002
 20
15161.99802350002
 30
0.0
 40
15.0
 50
270.0
 51
90.0
  0
ARC
  5
467C
  8
0
  6
BYBLOCK
 62
     0
 10
18652.304950000002
 20
16620.757511999989
 30
0.0
 40
15.0
 50
270.0
 51
90.0
  0
ARC
  5
467D
  8
0
  6
BYBLOCK
 62
     0
 10
18652.304950000002
 20
16620.757511999989
 30
0.0
 40
15.0
 50
90.0
 51
270.0
  0
ARC
  5
467E
  8
0
  6
BYBLOCK
 62
     0
 10
18652.304950000002
 20
14053.257512
 30
0.0
 40
15.0
 50
90.0
 51
270.0
  0
ARC
  5
467F
  8
0
  6
BYBLOCK
 62
     0
 10
18652.304950000002
 20
14053.257512
 30
0.0
 40
15.0
 50
270.0
 51
90.0
  0
ARC
  5
4680
  8
0
  6
BYBLOCK
 62
     0
 10
18652.304950000002
 20
15161.99802350002
 30
0.0
 40
15.0
 50
270.0
 51
90.0
  0
ARC
  5
4681
  8
0
  6
BYBLOCK
 62
     0
 10
18652.304950000002
 20
15161.99802350002
 30
0.0
 40
15.0
 50
90.0
 51
270.0
  0
ARC
  5
4682
  8
0
  6
BYBLOCK
 62
     0
 10
19581.759526999991
 20
13081.809428
 30
0.0
 40
15.0
 50
0.0
 51
180.0
  0
ARC
  5
4683
  8
0
  6
BYBLOCK
 62
     0
 10
19581.759526999991
 20
13081.809428
 30
0.0
 40
15.0
 50
180.0
 51
0.0
  0
ARC
  5
4684
  8
0
  6
BYBLOCK
 62
     0
 10
19539.25728400001
 20
13081.809428
 30
0.0
 40
15.0
 50
180.0
 51
0.0
  0
ARC
  5
4685
  8
0
  6
BYBLOCK
 62
     0
 10
19539.25728400001
 20
13081.809428
 30
0.0
 40
15.0
 50
0.0
 51
180.0
  0
ARC
  5
4686
  8
0
  6
BYBLOCK
 62
     0
 10
22850.259527000009
 20
13081.809428
 30
0.0
 40
15.0
 50
180.0
 51
0.0
  0
ARC
  5
4687
  8
0
  6
BYBLOCK
 62
     0
 10
22850.259527000009
 20
13081.809428
 30
0.0
 40
15.0
 50
0.0
 51
180.0
  0
ARC
  5
4688
  8
0
  6
BYBLOCK
 62
     0
 10
22892.761770000001
 20
13081.809428
 30
0.0
 40
15.0
 50
0.0
 51
180.0
  0
ARC
  5
4689
  8
0
  6
BYBLOCK
 62
     0
 10
22892.761770000001
 20
13081.809428
 30
0.0
 40
15.0
 50
180.0
 51
0.0
  0
ARC
  5
468A
  8
0
  6
BYBLOCK
 62
     0
 10
22850.259527000009
 20
13081.809428
 30
0.0
 40
15.0
 50
0.0
 51
180.0
  0
ARC
  5
468B
  8
0
  6
BYBLOCK
 62
     0
 10
22850.259527000009
 20
13081.809428
 30
0.0
 40
15.0
 50
180.0
 51
0.0
  0
ARC
  5
468C
  8
0
  6
BYBLOCK
 62
     0
 10
22807.757283999999
 20
13081.809428
 30
0.0
 40
15.0
 50
180.0
 51
0.0
  0
ARC
  5
468D
  8
0
  6
BYBLOCK
 62
     0
 10
22807.757283999999
 20
13081.809428
 30
0.0
 40
15.0
 50
0.0
 51
180.0
  0
ARC
  5
468E
  8
0
  6
BYBLOCK
 62
     0
 10
19581.759526999991
 20
13081.809428
 30
0.0
 40
15.0
 50
180.0
 51
0.0
  0
ARC
  5
468F
  8
0
  6
BYBLOCK
 62
     0
 10
19581.759526999991
 20
13081.809428
 30
0.0
 40
15.0
 50
0.0
 51
180.0
  0
ARC
  5
4690
  8
0
  6
BYBLOCK
 62
     0
 10
19624.261770000001
 20
13081.809428
 30
0.0
 40
15.0
 50
0.0
 51
180.0
  0
ARC
  5
4691
  8
0
  6
BYBLOCK
 62
     0
 10
19624.261770000001
 20
13081.809428
 30
0.0
 40
15.0
 50
180.0
 51
0.0
  0
ARC
  5
4692
  8
0
  6
BYBLOCK
 62
     0
 10
19539.25728400001
 20
12681.809428
 30
0.0
 40
15.0
 50
0.0
 51
180.0
  0
ARC
  5
4693
  8
0
  6
BYBLOCK
 62
     0
 10
19539.25728400001
 20
12681.809428
 30
0.0
 40
15.0
 50
180.0
 51
0.0
  0
ARC
  5
4694
  8
0
  6
BYBLOCK
 62
     0
 10
22892.761770000001
 20
12681.809428
 30
0.0
 40
15.0
 50
180.0
 51
0.0
  0
ARC
  5
4695
  8
0
  6
BYBLOCK
 62
     0
 10
22892.761770000001
 20
12681.809428
 30
0.0
 40
15.0
 50
0.0
 51
180.0
  0
ARC
  5
4696
  8
0
  6
BYBLOCK
 62
     0
 10
23942.759130999999
 20
15161.99802350002
 30
0.0
 40
15.0
 50
270.0
 51
90.0
  0
ARC
  5
4697
  8
0
  6
BYBLOCK
 62
     0
 10
23942.759130999999
 20
15161.99802350002
 30
0.0
 40
15.0
 50
90.0
 51
270.0
  0
ARC
  5
4698
  8
0
  6
BYBLOCK
 62
     0
 10
23942.759130999999
 20
14460.757511999989
 30
0.0
 40
15.0
 50
90.0
 51
270.0
  0
ARC
  5
4699
  8
0
  6
BYBLOCK
 62
     0
 10
23942.759130999999
 20
14460.757511999989
 30
0.0
 40
15.0
 50
270.0
 51
90.0
  0
ARC
  5
469A
  8
0
  6
BYBLOCK
 62
     0
 10
23942.759130999999
 20
15862.757512
 30
0.0
 40
15.0
 50
270.0
 51
90.0
  0
ARC
  5
469B
  8
0
  6
BYBLOCK
 62
     0
 10
23942.759130999999
 20
15862.757512
 30
0.0
 40
15.0
 50
90.0
 51
270.0
  0
ARC
  5
469C
  8
0
  6
BYBLOCK
 62
     0
 10
23942.759130999999
 20
15161.99802350002
 30
0.0
 40
15.0
 50
90.0
 51
270.0
  0
ARC
  5
469D
  8
0
  6
BYBLOCK
 62
     0
 10
23942.759130999999
 20
15161.99802350002
 30
0.0
 40
15.0
 50
270.0
 51
90.0
  0
ARC
  5
469E
  8
0
  6
BYBLOCK
 62
     0
 10
23942.759130999999
 20
16620.757511999989
 30
0.0
 40
15.0
 50
270.0
 51
90.0
  0
ARC
  5
469F
  8
0
  6
BYBLOCK
 62
     0
 10
23942.759130999999
 20
16620.757511999989
 30
0.0
 40
15.0
 50
90.0
 51
270.0
  0
ARC
  5
46A0
  8
0
  6
BYBLOCK
 62
     0
 10
23942.759130999999
 20
15862.757512
 30
0.0
 40
15.0
 50
90.0
 51
270.0
  0
ARC
  5
46A1
  8
0
  6
BYBLOCK
 62
     0
 10
23942.759130999999
 20
15862.757512
 30
0.0
 40
15.0
 50
270.0
 51
90.0
  0
ARC
  5
46A2
  8
0
  6
BYBLOCK
 62
     0
 10
23942.759130999999
 20
17378.757511999978
 30
0.0
 40
15.0
 50
270.0
 51
90.0
  0
ARC
  5
46A3
  8
0
  6
BYBLOCK
 62
     0
 10
23942.759130999999
 20
17378.757511999978
 30
0.0
 40
15.0
 50
90.0
 51
270.0
  0
ARC
  5
46A4
  8
0
  6
BYBLOCK
 62
     0
 10
23942.759130999999
 20
16620.757511999989
 30
0.0
 40
15.0
 50
90.0
 51
270.0
  0
ARC
  5
46A5
  8
0
  6
BYBLOCK
 62
     0
 10
23942.759130999999
 20
16620.757511999989
 30
0.0
 40
15.0
 50
270.0
 51
90.0
  0
ARC
  5
46A6
  8
0
  6
BYBLOCK
 62
     0
 10
23942.759130999999
 20
18079.757511999978
 30
0.0
 40
15.0
 50
270.0
 51
90.0
  0
ARC
  5
46A7
  8
0
  6
BYBLOCK
 62
     0
 10
23942.759130999999
 20
18079.757511999978
 30
0.0
 40
15.0
 50
90.0
 51
270.0
  0
ARC
  5
46A8
  8
0
  6
BYBLOCK
 62
     0
 10
23942.759130999999
 20
17378.757511999978
 30
0.0
 40
15.0
 50
90.0
 51
270.0
  0
ARC
  5
46A9
  8
0
  6
BYBLOCK
 62
     0
 10
23942.759130999999
 20
17378.757511999978
 30
0.0
 40
15.0
 50
270.0
 51
90.0
  0
ARC
  5
46AA
  8
0
  6
BYBLOCK
 62
     0
 10
23942.759130999999
 20
18780.757511999989
 30
0.0
 40
15.0
 50
270.0
 51
90.0
  0
ARC
  5
46AB
  8
0
  6
BYBLOCK
 62
     0
 10
23942.759130999999
 20
18780.757511999989
 30
0.0
 40
15.0
 50
90.0
 51
270.0
  0
ARC
  5
46AC
  8
0
  6
BYBLOCK
 62
     0
 10
23942.759130999999
 20
18079.757511999978
 30
0.0
 40
15.0
 50
90.0
 51
270.0
  0
ARC
  5
46AD
  8
0
  6
BYBLOCK
 62
     0
 10
23942.759130999999
 20
18079.757511999978
 30
0.0
 40
15.0
 50
270.0
 51
90.0
  0
ARC
  5
46AE
  8
0
  6
BYBLOCK
 62
     0
 10
24342.759130999999
 20
16620.757511999989
 30
0.0
 40
15.0
 50
90.0
 51
270.0
  0
ARC
  5
46AF
  8
0
  6
BYBLOCK
 62
     0
 10
24342.759130999999
 20
16620.757511999989
 30
0.0
 40
15.0
 50
270.0
 51
90.0
  0
ARC
  5
46B0
  8
0
  6
BYBLOCK
 62
     0
 10
24342.759130999999
 20
19188.257511999989
 30
0.0
 40
15.0
 50
270.0
 51
90.0
  0
ARC
  5
46B1
  8
0
  6
BYBLOCK
 62
     0
 10
24342.759130999999
 20
19188.257511999989
 30
0.0
 40
15.0
 50
90.0
 51
270.0
  0
ARC
  5
46B2
  8
0
  6
BYBLOCK
 62
     0
 10
24342.759130999999
 20
14053.257512
 30
0.0
 40
15.0
 50
90.0
 51
270.0
  0
ARC
  5
46B3
  8
0
  6
BYBLOCK
 62
     0
 10
24342.759130999999
 20
14053.257512
 30
0.0
 40
15.0
 50
270.0
 51
90.0
  0
ARC
  5
46B4
  8
0
  6
BYBLOCK
 62
     0
 10
24342.759130999999
 20
16620.757511999989
 30
0.0
 40
15.0
 50
270.0
 51
90.0
  0
ARC
  5
46B5
  8
0
  6
BYBLOCK
 62
     0
 10
24342.759130999999
 20
16620.757511999989
 30
0.0
 40
15.0
 50
90.0
 51
270.0
  0
ARC
  5
46B6
  8
0
  6
BYBLOCK
 62
     0
 10
24742.759130999999
 20
19230.754806999979
 30
0.0
 40
15.0
 50
270.0
 51
90.0
  0
ARC
  5
46B7
  8
0
  6
BYBLOCK
 62
     0
 10
24742.759130999999
 20
19230.754806999979
 30
0.0
 40
15.0
 50
90.0
 51
270.0
  0
ARC
  5
46B8
  8
0
  6
BYBLOCK
 62
     0
 10
24742.759130999999
 20
14010.76021699999
 30
0.0
 40
15.0
 50
90.0
 51
270.0
  0
ARC
  5
46B9
  8
0
  6
BYBLOCK
 62
     0
 10
24742.759130999999
 20
14010.76021699999
 30
0.0
 40
15.0
 50
270.0
 51
90.0
  0
ARC
  5
46BA
  8
0
  6
BYBLOCK
 62
     0
 10
24342.759130999999
 20
19188.257511999989
 30
0.0
 40
15.0
 50
270.0
 51
90.0
  0
ARC
  5
46BB
  8
0
  6
BYBLOCK
 62
     0
 10
24342.759130999999
 20
19188.257511999989
 30
0.0
 40
15.0
 50
90.0
 51
270.0
  0
ARC
  5
46BC
  8
0
  6
BYBLOCK
 62
     0
 10
24342.759130999999
 20
19230.754807000001
 30
0.0
 40
15.0
 50
90.0
 51
270.0
  0
ARC
  5
46BD
  8
0
  6
BYBLOCK
 62
     0
 10
24342.759130999999
 20
19230.754807000001
 30
0.0
 40
15.0
 50
270.0
 51
90.0
  0
ARC
  5
46BE
  8
0
  6
BYBLOCK
 62
     0
 10
24342.759130999999
 20
14053.257512
 30
0.0
 40
15.0
 50
90.0
 51
270.0
  0
ARC
  5
46BF
  8
0
  6
BYBLOCK
 62
     0
 10
24342.759130999999
 20
14053.257512
 30
0.0
 40
15.0
 50
270.0
 51
90.0
  0
ARC
  5
46C0
  8
0
  6
BYBLOCK
 62
     0
 10
24342.759130999999
 20
14010.76021699999
 30
0.0
 40
15.0
 50
270.0
 51
90.0
  0
ARC
  5
46C1
  8
0
  6
BYBLOCK
 62
     0
 10
24342.759130999999
 20
14010.76021699999
 30
0.0
 40
15.0
 50
90.0
 51
270.0
  0
ARC
  5
46C2
  8
0
  6
BYBLOCK
 62
     0
 10
19581.759526999991
 20
19960.75870000002
 30
0.0
 40
15.0
 50
180.0
 51
0.0
  0
ARC
  5
46C3
  8
0
  6
BYBLOCK
 62
     0
 10
19581.759526999991
 20
19960.75870000002
 30
0.0
 40
15.0
 50
0.0
 51
180.0
  0
ARC
  5
46C4
  8
0
  6
BYBLOCK
 62
     0
 10
19989.259526999991
 20
19960.75870000002
 30
0.0
 40
15.0
 50
0.0
 51
180.0
  0
ARC
  5
46C5
  8
0
  6
BYBLOCK
 62
     0
 10
19989.259526999991
 20
19960.75870000002
 30
0.0
 40
15.0
 50
180.0
 51
0.0
  0
ARC
  5
46C6
  8
0
  6
BYBLOCK
 62
     0
 10
22092.259527000009
 20
19960.75870000002
 30
0.0
 40
15.0
 50
0.0
 51
180.0
  0
ARC
  5
46C7
  8
0
  6
BYBLOCK
 62
     0
 10
22092.259527000009
 20
19960.75870000002
 30
0.0
 40
15.0
 50
180.0
 51
0.0
  0
ARC
  5
46C8
  8
0
  6
BYBLOCK
 62
     0
 10
22850.26051650002
 20
19960.75870000002
 30
0.0
 40
15.0
 50
180.0
 51
0.0
  0
ARC
  5
46C9
  8
0
  6
BYBLOCK
 62
     0
 10
22850.26051650002
 20
19960.75870000002
 30
0.0
 40
15.0
 50
0.0
 51
180.0
  0
ARC
  5
46CA
  8
0
  6
BYBLOCK
 62
     0
 10
21391.259526999998
 20
19960.75870000002
 30
0.0
 40
15.0
 50
0.0
 51
180.0
  0
ARC
  5
46CB
  8
0
  6
BYBLOCK
 62
     0
 10
21391.259526999998
 20
19960.75870000002
 30
0.0
 40
15.0
 50
180.0
 51
0.0
  0
ARC
  5
46CC
  8
0
  6
BYBLOCK
 62
     0
 10
22092.259527000009
 20
19960.75870000002
 30
0.0
 40
15.0
 50
180.0
 51
0.0
  0
ARC
  5
46CD
  8
0
  6
BYBLOCK
 62
     0
 10
22092.259527000009
 20
19960.75870000002
 30
0.0
 40
15.0
 50
0.0
 51
180.0
  0
ARC
  5
46CE
  8
0
  6
BYBLOCK
 62
     0
 10
20690.259526999998
 20
19960.75870000002
 30
0.0
 40
15.0
 50
0.0
 51
180.0
  0
ARC
  5
46CF
  8
0
  6
BYBLOCK
 62
     0
 10
20690.259526999998
 20
19960.75870000002
 30
0.0
 40
15.0
 50
180.0
 51
0.0
  0
ARC
  5
46D0
  8
0
  6
BYBLOCK
 62
     0
 10
21391.259526999998
 20
19960.75870000002
 30
0.0
 40
15.0
 50
180.0
 51
0.0
  0
ARC
  5
46D1
  8
0
  6
BYBLOCK
 62
     0
 10
21391.259526999998
 20
19960.75870000002
 30
0.0
 40
15.0
 50
0.0
 51
180.0
  0
ARC
  5
46D2
  8
0
  6
BYBLOCK
 62
     0
 10
19989.259526999991
 20
19960.75870000002
 30
0.0
 40
15.0
 50
0.0
 51
180.0
  0
ARC
  5
46D3
  8
0
  6
BYBLOCK
 62
     0
 10
19989.259526999991
 20
19960.75870000002
 30
0.0
 40
15.0
 50
180.0
 51
0.0
  0
ARC
  5
46D4
  8
0
  6
BYBLOCK
 62
     0
 10
20690.259526999998
 20
19960.75870000002
 30
0.0
 40
15.0
 50
180.0
 51
0.0
  0
ARC
  5
46D5
  8
0
  6
BYBLOCK
 62
     0
 10
20690.259526999998
 20
19960.75870000002
 30
0.0
 40
15.0
 50
0.0
 51
180.0
  0
ARC
  5
46D6
  8
0
  6
BYBLOCK
 62
     0
 10
22850.259527000009
 20
19960.75870000002
 30
0.0
 40
15.0
 50
180.0
 51
0.0
  0
ARC
  5
46D7
  8
0
  6
BYBLOCK
 62
     0
 10
22850.259527000009
 20
19960.75870000002
 30
0.0
 40
15.0
 50
0.0
 51
180.0
  0
ARC
  5
46D8
  8
0
  6
BYBLOCK
 62
     0
 10
22892.755831999992
 20
19960.75870000002
 30
0.0
 40
15.0
 50
0.0
 51
180.0
  0
ARC
  5
46D9
  8
0
  6
BYBLOCK
 62
     0
 10
22892.755831999992
 20
19960.75870000002
 30
0.0
 40
15.0
 50
180.0
 51
0.0
  0
ARC
  5
46DA
  8
0
  6
BYBLOCK
 62
     0
 10
19581.759526999991
 20
19960.75870000002
 30
0.0
 40
15.0
 50
0.0
 51
180.0
  0
ARC
  5
46DB
  8
0
  6
BYBLOCK
 62
     0
 10
19581.759526999991
 20
19960.75870000002
 30
0.0
 40
15.0
 50
180.0
 51
0.0
  0
ARC
  5
46DC
  8
0
  6
BYBLOCK
 62
     0
 10
19539.263222000001
 20
19960.75870000002
 30
0.0
 40
15.0
 50
180.0
 51
0.0
  0
ARC
  5
46DD
  8
0
  6
BYBLOCK
 62
     0
 10
19539.263222000001
 20
19960.75870000002
 30
0.0
 40
15.0
 50
0.0
 51
180.0
  0
ARC
  5
46DE
  8
0
  6
BYBLOCK
 62
     0
 10
15566.51202200001
 20
6111.4596339999998
 30
0.0
 40
15.0
 50
90.0
 51
270.0
  0
ARC
  5
46DF
  8
0
  6
BYBLOCK
 62
     0
 10
15566.51202200001
 20
6111.4596339999998
 30
0.0
 40
15.0
 50
270.0
 51
90.0
  0
ARC
  5
46E0
  8
0
  6
BYBLOCK
 62
     0
 10
15566.51202200001
 20
8460.4596340000007
 30
0.0
 40
15.0
 50
270.0
 51
90.0
  0
ARC
  5
46E1
  8
0
  6
BYBLOCK
 62
     0
 10
15566.51202200001
 20
8460.4596340000007
 30
0.0
 40
15.0
 50
90.0
 51
270.0
  0
ARC
  5
46E2
  8
0
  6
BYBLOCK
 62
     0
 10
8166.5132100000101
 20
6111.4596339999998
 30
0.0
 40
15.0
 50
90.0
 51
270.0
  0
ARC
  5
46E3
  8
0
  6
BYBLOCK
 62
     0
 10
8166.5132100000101
 20
6111.4596339999998
 30
0.0
 40
15.0
 50
270.0
 51
90.0
  0
ARC
  5
46E4
  8
0
  6
BYBLOCK
 62
     0
 10
8166.5132100000128
 20
8266.9596340000026
 30
0.0
 40
15.0
 50
270.0
 51
90.0
  0
ARC
  5
46E5
  8
0
  6
BYBLOCK
 62
     0
 10
8166.5132100000128
 20
8266.9596340000026
 30
0.0
 40
15.0
 50
90.0
 51
270.0
  0
ARC
  5
46E6
  8
0
  6
BYBLOCK
 62
     0
 10
14476.513606
 20
9259.4613089999966
 30
0.0
 40
15.0
 50
180.0
 51
0.0
  0
ARC
  5
46E7
  8
0
  6
BYBLOCK
 62
     0
 10
14476.513606
 20
9259.4613089999966
 30
0.0
 40
15.0
 50
0.0
 51
180.0
  0
ARC
  5
46E8
  8
0
  6
BYBLOCK
 62
     0
 10
14626.51360600001
 20
9259.4613089999966
 30
0.0
 40
15.0
 50
0.0
 51
180.0
  0
ARC
  5
46E9
  8
0
  6
BYBLOCK
 62
     0
 10
14626.51360600001
 20
9259.4613089999966
 30
0.0
 40
15.0
 50
180.0
 51
0.0
  0
ARC
  5
46EA
  8
0
  6
BYBLOCK
 62
     0
 10
9076.5136060000114
 20
9659.4596589999965
 30
0.0
 40
15.0
 50
0.0
 51
180.0
  0
ARC
  5
46EB
  8
0
  6
BYBLOCK
 62
     0
 10
9076.5136060000114
 20
9659.4596589999965
 30
0.0
 40
15.0
 50
180.0
 51
0.0
  0
ARC
  5
46EC
  8
0
  6
BYBLOCK
 62
     0
 10
14626.51360600001
 20
9659.4596589999965
 30
0.0
 40
15.0
 50
180.0
 51
0.0
  0
ARC
  5
46ED
  8
0
  6
BYBLOCK
 62
     0
 10
14626.51360600001
 20
9659.4596589999965
 30
0.0
 40
15.0
 50
0.0
 51
180.0
  0
ARC
  5
46EE
  8
0
  6
BYBLOCK
 62
     0
 10
9256.5136060000114
 20
9259.4613089999966
 30
0.0
 40
15.0
 50
0.0
 51
180.0
  0
ARC
  5
46EF
  8
0
  6
BYBLOCK
 62
     0
 10
9256.5136060000114
 20
9259.4613089999966
 30
0.0
 40
15.0
 50
180.0
 51
0.0
  0
ARC
  5
46F0
  8
0
  6
BYBLOCK
 62
     0
 10
14476.513606
 20
9259.4613089999966
 30
0.0
 40
15.0
 50
180.0
 51
0.0
  0
ARC
  5
46F1
  8
0
  6
BYBLOCK
 62
     0
 10
14476.513606
 20
9259.4613089999966
 30
0.0
 40
15.0
 50
0.0
 51
180.0
  0
ARC
  5
46F2
  8
0
  6
BYBLOCK
 62
     0
 10
9076.5136060000114
 20
9259.4613089999966
 30
0.0
 40
15.0
 50
180.0
 51
0.0
  0
ARC
  5
46F3
  8
0
  6
BYBLOCK
 62
     0
 10
9076.5136060000114
 20
9259.4613089999966
 30
0.0
 40
15.0
 50
0.0
 51
180.0
  0
ARC
  5
46F4
  8
0
  6
BYBLOCK
 62
     0
 10
9256.5136060000114
 20
9259.4613089999966
 30
0.0
 40
15.0
 50
0.0
 51
180.0
  0
ARC
  5
46F5
  8
0
  6
BYBLOCK
 62
     0
 10
9256.5136060000114
 20
9259.4613089999966
 30
0.0
 40
15.0
 50
180.0
 51
0.0
  0
ARC
  5
46F6
  8
0
  6
BYBLOCK
 62
     0
 10
14434.011627
 20
4811.4597979999962
 30
0.0
 40
15.0
 50
180.0
 51
0.0
  0
ARC
  5
46F7
  8
0
  6
BYBLOCK
 62
     0
 10
14434.011627
 20
4811.4597979999962
 30
0.0
 40
15.0
 50
0.0
 51
180.0
  0
ARC
  5
46F8
  8
0
  6
BYBLOCK
 62
     0
 10
14476.511627000011
 20
4811.4597979999962
 30
0.0
 40
15.0
 50
0.0
 51
180.0
  0
ARC
  5
46F9
  8
0
  6
BYBLOCK
 62
     0
 10
14476.511627000011
 20
4811.4597979999962
 30
0.0
 40
15.0
 50
180.0
 51
0.0
  0
ARC
  5
46FA
  8
0
  6
BYBLOCK
 62
     0
 10
11866.51360600001
 20
4811.4597990000002
 30
0.0
 40
15.0
 50
0.0
 51
180.0
  0
ARC
  5
46FB
  8
0
  6
BYBLOCK
 62
     0
 10
11866.51360600001
 20
4811.4597990000002
 30
0.0
 40
15.0
 50
180.0
 51
0.0
  0
ARC
  5
46FC
  8
0
  6
BYBLOCK
 62
     0
 10
14434.01360600001
 20
4811.4597990000002
 30
0.0
 40
15.0
 50
180.0
 51
0.0
  0
ARC
  5
46FD
  8
0
  6
BYBLOCK
 62
     0
 10
14434.01360600001
 20
4811.4597990000002
 30
0.0
 40
15.0
 50
0.0
 51
180.0
  0
ARC
  5
46FE
  8
0
  6
BYBLOCK
 62
     0
 10
9256.5136060000114
 20
4411.4599629999948
 30
0.0
 40
15.0
 50
0.0
 51
180.0
  0
ARC
  5
46FF
  8
0
  6
BYBLOCK
 62
     0
 10
9256.5136060000114
 20
4411.4599629999948
 30
0.0
 40
15.0
 50
180.0
 51
0.0
  0
ARC
  5
4700
  8
0
  6
BYBLOCK
 62
     0
 10
14476.511627000011
 20
4411.4599629999948
 30
0.0
 40
15.0
 50
180.0
 51
0.0
  0
ARC
  5
4701
  8
0
  6
BYBLOCK
 62
     0
 10
14476.511627000011
 20
4411.4599629999948
 30
0.0
 40
15.0
 50
0.0
 51
180.0
  0
ARC
  5
4702
  8
0
  6
BYBLOCK
 62
     0
 10
9299.0136060000114
 20
4811.4597979999962
 30
0.0
 40
15.0
 50
0.0
 51
180.0
  0
ARC
  5
4703
  8
0
  6
BYBLOCK
 62
     0
 10
9299.0136060000114
 20
4811.4597979999962
 30
0.0
 40
15.0
 50
180.0
 51
0.0
  0
ARC
  5
4704
  8
0
  6
BYBLOCK
 62
     0
 10
9256.5136060000114
 20
4811.4597979999962
 30
0.0
 40
15.0
 50
180.0
 51
0.0
  0
ARC
  5
4705
  8
0
  6
BYBLOCK
 62
     0
 10
9256.5136060000114
 20
4811.4597979999962
 30
0.0
 40
15.0
 50
0.0
 51
180.0
  0
ARC
  5
4706
  8
0
  6
BYBLOCK
 62
     0
 10
11866.51360600001
 20
4811.4597979999962
 30
0.0
 40
15.0
 50
180.0
 51
0.0
  0
ARC
  5
4707
  8
0
  6
BYBLOCK
 62
     0
 10
11866.51360600001
 20
4811.4597979999962
 30
0.0
 40
15.0
 50
0.0
 51
180.0
  0
ARC
  5
4708
  8
0
  6
BYBLOCK
 62
     0
 10
9299.0136060000114
 20
4811.4597979999962
 30
0.0
 40
15.0
 50
0.0
 51
180.0
  0
ARC
  5
4709
  8
0
  6
BYBLOCK
 62
     0
 10
9299.0136060000114
 20
4811.4597979999962
 30
0.0
 40
15.0
 50
180.0
 51
0.0
  0
ARC
  5
470A
  8
0
  6
BYBLOCK
 62
     0
 10
18731.75820700001
 20
6111.4596339999998
 30
0.0
 40
15.0
 50
90.0
 51
270.0
  0
ARC
  5
470B
  8
0
  6
BYBLOCK
 62
     0
 10
18731.75820700001
 20
6111.4596339999998
 30
0.0
 40
15.0
 50
270.0
 51
90.0
  0
ARC
  5
470C
  8
0
  6
BYBLOCK
 62
     0
 10
18731.75820700001
 20
8002.9596339999989
 30
0.0
 40
15.0
 50
270.0
 51
90.0
  0
ARC
  5
470D
  8
0
  6
BYBLOCK
 62
     0
 10
18731.75820700001
 20
8002.9596339999989
 30
0.0
 40
15.0
 50
90.0
 51
270.0
  0
ARC
  5
470E
  8
0
  6
BYBLOCK
 62
     0
 10
18331.75589800001
 20
6111.4596340000016
 30
0.0
 40
15.0
 50
90.0
 51
270.0
  0
ARC
  5
470F
  8
0
  6
BYBLOCK
 62
     0
 10
18331.75589800001
 20
6111.4596340000016
 30
0.0
 40
15.0
 50
270.0
 51
90.0
  0
ARC
  5
4710
  8
0
  6
BYBLOCK
 62
     0
 10
18331.75589800001
 20
8460.4594890000008
 30
0.0
 40
15.0
 50
270.0
 51
90.0
  0
ARC
  5
4711
  8
0
  6
BYBLOCK
 62
     0
 10
18331.75589800001
 20
8460.4594890000008
 30
0.0
 40
15.0
 50
90.0
 51
270.0
  0
ARC
  5
4722
  8
0
  6
BYBLOCK
 62
     0
 10
22850.259527000009
 20
4811.4597990000038
 30
0.0
 40
15.0
 50
180.0
 51
0.0
  0
ARC
  5
4723
  8
0
  6
BYBLOCK
 62
     0
 10
22850.259527000009
 20
4811.4597990000038
 30
0.0
 40
15.0
 50
0.0
 51
180.0
  0
ARC
  5
4724
  8
0
  6
BYBLOCK
 62
     0
 10
22892.759527000009
 20
4811.4597990000038
 30
0.0
 40
15.0
 50
0.0
 51
180.0
  0
ARC
  5
4725
  8
0
  6
BYBLOCK
 62
     0
 10
22892.759527000009
 20
4811.4597990000038
 30
0.0
 40
15.0
 50
180.0
 51
0.0
  0
ARC
  5
4726
  8
0
  6
BYBLOCK
 62
     0
 10
19675.759526999991
 20
5211.4597990000057
 30
0.0
 40
15.0
 50
0.0
 51
180.0
  0
ARC
  5
4727
  8
0
  6
BYBLOCK
 62
     0
 10
19675.759526999991
 20
5211.4597990000057
 30
0.0
 40
15.0
 50
180.0
 51
0.0
  0
ARC
  5
4728
  8
0
  6
BYBLOCK
 62
     0
 10
22756.259526999998
 20
5211.4597990000057
 30
0.0
 40
15.0
 50
180.0
 51
0.0
  0
ARC
  5
4729
  8
0
  6
BYBLOCK
 62
     0
 10
22756.259526999998
 20
5211.4597990000057
 30
0.0
 40
15.0
 50
0.0
 51
180.0
  0
ARC
  5
472A
  8
0
  6
BYBLOCK
 62
     0
 10
19581.759526999991
 20
4811.4597990000038
 30
0.0
 40
15.0
 50
0.0
 51
180.0
  0
ARC
  5
472B
  8
0
  6
BYBLOCK
 62
     0
 10
19581.759526999991
 20
4811.4597990000038
 30
0.0
 40
15.0
 50
180.0
 51
0.0
  0
ARC
  5
472C
  8
0
  6
BYBLOCK
 62
     0
 10
22850.259527000009
 20
4811.4597990000038
 30
0.0
 40
15.0
 50
180.0
 51
0.0
  0
ARC
  5
472D
  8
0
  6
BYBLOCK
 62
     0
 10
22850.259527000009
 20
4811.4597990000038
 30
0.0
 40
15.0
 50
0.0
 51
180.0
  0
ARC
  5
472E
  8
0
  6
BYBLOCK
 62
     0
 10
19581.759526999991
 20
4811.4597990000038
 30
0.0
 40
15.0
 50
0.0
 51
180.0
  0
ARC
  5
472F
  8
0
  6
BYBLOCK
 62
     0
 10
19581.759526999991
 20
4811.4597990000038
 30
0.0
 40
15.0
 50
180.0
 51
0.0
  0
ARC
  5
4730
  8
0
  6
BYBLOCK
 62
     0
 10
19539.259526999991
 20
4811.4597990000038
 30
0.0
 40
15.0
 50
180.0
 51
0.0
  0
ARC
  5
4731
  8
0
  6
BYBLOCK
 62
     0
 10
19539.259526999991
 20
4811.4597990000038
 30
0.0
 40
15.0
 50
0.0
 51
180.0
  0
ARC
  5
4732
  8
0
  6
BYBLOCK
 62
     0
 10
19539.259526999991
 20
4411.4599640000042
 30
0.0
 40
15.0
 50
0.0
 51
180.0
  0
ARC
  5
4733
  8
0
  6
BYBLOCK
 62
     0
 10
19539.259526999991
 20
4411.4599640000042
 30
0.0
 40
15.0
 50
180.0
 51
0.0
  0
ARC
  5
4734
  8
0
  6
BYBLOCK
 62
     0
 10
22892.759527000009
 20
4411.4599640000042
 30
0.0
 40
15.0
 50
180.0
 51
0.0
  0
ARC
  5
4735
  8
0
  6
BYBLOCK
 62
     0
 10
22892.759527000009
 20
4411.4599640000042
 30
0.0
 40
15.0
 50
0.0
 51
180.0
  0
LINE
  5
4840
  8
0-1
  6
CONTINUOUS
 62
     3
 10
19624.25583200001
 20
8195.9600030000001
 30
0.0
 11
22807.759263
 21
8195.9600030000001
 31
0.0
  0
LINE
  5
4841
  8
0-1
  6
CONTINUOUS
 62
     3
 10
19496.259132000021
 20
8133.7739220000012
 30
0.0
 11
19496.259132000021
 21
8459.4596599999986
 31
0.0
  0
LINE
  5
4842
  8
0-1
  6
CONTINUOUS
 62
     3
 10
22935.757944000001
 20
8329.4597259999973
 30
0.0
 11
19496.259132000021
 21
8329.4597259999973
 31
0.0
  0
LINE
  5
4843
  8
0-1
  6
CONTINUOUS
 62
     3
 10
22935.757944000001
 20
8459.4596599999986
 30
0.0
 11
22935.757944000001
 21
8133.7739220000012
 31
0.0
  0
LINE
  5
4844
  8
0-1
  6
CONTINUOUS
 62
     3
 10
19496.259132000021
 20
8459.4596599999986
 30
0.0
 11
22935.757944000001
 21
8459.4596599999986
 31
0.0
  0
LINE
  5
4845
  8
0-1
  6
CONTINUOUS
 62
     3
 10
22935.757944000001
 20
8133.7739220000012
 30
0.0
 11
22892.757812000011
 21
8133.7739220000012
 31
0.0
  0
LINE
  5
4846
  8
0-1
  6
CONTINUOUS
 62
     3
 10
19496.259132000021
 20
8133.7739220000012
 30
0.0
 11
19539.257284000021
 21
8133.7739220000012
 31
0.0
  0
LINE
  5
4847
  8
0-1
  6
CONTINUOUS
 62
     3
 10
19650.258788000021
 20
8204.9603800000059
 30
0.0
 11
19927.688318000011
 21
8204.9603800000059
 31
0.0
  0
LINE
  5
4848
  8
0-1
  6
CONTINUOUS
 62
     3
 10
19650.258788000021
 20
8246.9598250000017
 30
0.0
 11
19959.685256000012
 21
8246.9598250000017
 31
0.0
  0
LINE
  5
4849
  8
0-1
  6
CONTINUOUS
 62
     3
 10
19645.258525000001
 20
8209.9601490000023
 30
0.0
 11
19645.258525000001
 21
8241.9605510000038
 31
0.0
  0
LINE
  5
484A
  8
0-1
  6
CONTINUOUS
 62
     3
 10
19624.25583200001
 20
8255.9597070000018
 30
0.0
 11
22807.759263
 21
8255.9597070000018
 31
0.0
  0
LINE
  5
484B
  8
0-1
  6
CONTINUOUS
 62
     3
 10
19931.221758000022
 20
8206.4242340000019
 30
0.0
 11
19963.222656000002
 21
8238.4246360000034
 31
0.0
  0
LINE
  5
484C
  8
0-1
  6
CONTINUOUS
 62
     3
 10
19645.258525000001
 20
8238.560233000002
 30
0.0
 11
19963.35132400001
 21
8238.560233000002
 31
0.0
  0
LINE
  5
484D
  8
0-1
  6
CONTINUOUS
 62
     3
 10
19645.258525000001
 20
8230.1601460000002
 30
0.0
 11
19954.958166000011
 21
8230.1601460000002
 31
0.0
  0
LINE
  5
484E
  8
0-1
  6
CONTINUOUS
 62
     3
 10
19645.258525000001
 20
8221.7605540000022
 30
0.0
 11
19946.55906800002
 21
8221.7605540000022
 31
0.0
  0
LINE
  5
484F
  8
0-1
  6
CONTINUOUS
 62
     3
 10
19645.258525000001
 20
8213.3604670000022
 30
0.0
 11
19938.156012000021
 21
8213.3604670000022
 31
0.0
  0
LINE
  5
4850
  8
0-1
  6
CONTINUOUS
 62
     3
 10
22786.758550999992
 20
8238.560233000002
 30
0.0
 11
22468.665751000011
 21
8238.560233000002
 31
0.0
  0
LINE
  5
4851
  8
0-1
  6
CONTINUOUS
 62
     3
 10
22786.758550999992
 20
8230.1601460000002
 30
0.0
 11
22477.060889000011
 21
8230.1601460000002
 31
0.0
  0
LINE
  5
4852
  8
0-1
  6
CONTINUOUS
 62
     3
 10
22786.758550999992
 20
8221.7605540000022
 30
0.0
 11
22485.459986000002
 21
8221.7605540000022
 31
0.0
  0
LINE
  5
4853
  8
0-1
  6
CONTINUOUS
 62
     3
 10
22786.758550999992
 20
8213.3604670000022
 30
0.0
 11
22493.859084
 21
8213.3604670000022
 31
0.0
  0
LINE
  5
4854
  8
0-1
  6
CONTINUOUS
 62
     3
 10
22781.758287000011
 20
8246.9598250000017
 30
0.0
 11
22472.331818999992
 21
8246.9598250000017
 31
0.0
  0
LINE
  5
4855
  8
0-1
  6
CONTINUOUS
 62
     3
 10
22781.758287000011
 20
8204.9603800000059
 30
0.0
 11
22504.328758
 21
8204.9603800000059
 31
0.0
  0
LINE
  5
4856
  8
0-1
  6
CONTINUOUS
 62
     3
 10
22786.758550999992
 20
8209.9601490000023
 30
0.0
 11
22786.758550999992
 21
8241.9605510000038
 31
0.0
  0
LINE
  5
4857
  8
0-1
  6
CONTINUOUS
 62
     3
 10
22500.793336999999
 20
8206.4242340000019
 30
0.0
 11
22468.79639900001
 21
8238.4246360000034
 31
0.0
  0
ARC
  5
4858
  8
0-1
  6
CONTINUOUS
 62
     3
 10
19650.258788000021
 20
8241.9605510000038
 30
0.0
 40
5.0
 50
90.0
 51
180.0
  0
ARC
  5
4859
  8
0-1
  6
CONTINUOUS
 62
     3
 10
19650.258788000021
 20
8209.9601490000023
 30
0.0
 40
5.0
 50
180.0
 51
269.9999850001808
  0
ARC
  5
485A
  8
0-1
  6
CONTINUOUS
 62
     3
 10
19927.688318000011
 20
8209.9601490000023
 30
0.0
 40
5.0
 50
269.9999850001808
 51
314.99998500027471
  0
ARC
  5
485B
  8
0-1
  6
CONTINUOUS
 62
     3
 10
19959.685256000012
 20
8241.9605510000038
 30
0.0
 40
5.0
 50
314.99998500027471
 51
90.0
  0
ARC
  5
485C
  8
0-1
  6
CONTINUOUS
 62
     3
 10
22781.758287000011
 20
8209.9601490000023
 30
0.0
 40
5.0
 50
269.9999850001808
 51
0.0
  0
ARC
  5
485D
  8
0-1
  6
CONTINUOUS
 62
     3
 10
22781.758287000011
 20
8241.9605510000038
 30
0.0
 40
5.0
 50
0.0
 51
90.0
  0
ARC
  5
485E
  8
0-1
  6
CONTINUOUS
 62
     3
 10
22472.331818999992
 20
8241.9605510000038
 30
0.0
 40
5.0
 50
90.0
 51
224.99998499997989
  0
ARC
  5
485F
  8
0-1
  6
CONTINUOUS
 62
     3
 10
22504.328758
 20
8209.9601490000023
 30
0.0
 40
5.0
 50
224.99998499997989
 51
269.9999850001808
  0
LINE
  5
4860
  8
SUNPOU
  6
CONTINUOUS
 62
     4
 10
22892.759790999989
 20
8539.4596599999968
 30
0.0
 11
22892.759790999989
 21
9338.9595019999961
 31
0.0
  0
LINE
  5
4861
  8
SUNPOU
  6
CONTINUOUS
 62
     4
 10
22935.76190199998
 20
8539.4596599999968
 30
0.0
 11
22935.76190199998
 21
9338.9595019999961
 31
0.0
  0
LINE
  5
4862
  8
SUNPOU
  6
CONTINUOUS
 62
     4
 10
22892.759790999989
 20
9258.9595019999961
 30
0.0
 11
22652.759790999989
 21
9258.9595019999961
 31
0.0
  0
LINE
  5
4863
  8
SUNPOU
  6
CONTINUOUS
 62
     4
 10
22932.76190199998
 20
9258.9595019999961
 30
0.0
 11
23172.76190199998
 21
9258.9595019999961
 31
0.0
  0
LINE
  5
4864
  8
SUNPOU
  6
CONTINUOUS
 62
     4
 10
22892.759790999989
 20
9258.9595019999961
 30
0.0
 11
22932.76190199998
 21
9258.9595019999961
 31
0.0
  0
LINE
  5
4865
  8
SUNPOU
  6
CONTINUOUS
 62
     4
 10
19496.257152000031
 20
8539.4596599999968
 30
0.0
 11
19496.257152000031
 21
9738.9172720000006
 31
0.0
  0
LINE
  5
4866
  8
SUNPOU
  6
CONTINUOUS
 62
     4
 10
22935.76190199998
 20
8539.4596599999968
 30
0.0
 11
22935.76190199998
 21
9738.9172720000006
 31
0.0
  0
LINE
  5
4867
  8
SUNPOU
  6
CONTINUOUS
 62
     4
 10
19499.257152000031
 20
9658.9172719999951
 30
0.0
 11
22932.76190199998
 21
9658.9172719999951
 31
0.0
  0
LINE
  5
4868
  8
SUNPOU
  6
CONTINUOUS
 62
     4
 10
19539.259263000022
 20
8539.4596599999968
 30
0.0
 11
19539.259263000022
 21
9338.9595019999961
 31
0.0
  0
LINE
  5
4869
  8
SUNPOU
  6
CONTINUOUS
 62
     4
 10
22892.759790999989
 20
8539.4596599999968
 30
0.0
 11
22892.759790999989
 21
9338.9595019999961
 31
0.0
  0
LINE
  5
486A
  8
SUNPOU
  6
CONTINUOUS
 62
     4
 10
19539.259263000022
 20
9258.9595019999961
 30
0.0
 11
22892.759790999989
 21
9258.9595019999961
 31
0.0
  0
LINE
  5
486B
  8
SUNPOU
  6
CONTINUOUS
 62
     4
 10
19539.259263000022
 20
8539.4596599999968
 30
0.0
 11
19539.259263000022
 21
9338.9595019999961
 31
0.0
  0
LINE
  5
486C
  8
SUNPOU
  6
CONTINUOUS
 62
     4
 10
19496.257152000031
 20
8539.4596599999968
 30
0.0
 11
19496.257152000031
 21
9338.9595019999961
 31
0.0
  0
LINE
  5
486D
  8
SUNPOU
  6
CONTINUOUS
 62
     4
 10
19539.259263000022
 20
9258.9595019999961
 30
0.0
 11
19779.259263000022
 21
9258.9595019999961
 31
0.0
  0
LINE
  5
486E
  8
SUNPOU
  6
CONTINUOUS
 62
     4
 10
19499.257152000031
 20
9258.9595019999961
 30
0.0
 11
19259.257152000031
 21
9258.9595019999961
 31
0.0
  0
LINE
  5
486F
  8
SUNPOU
  6
CONTINUOUS
 62
     4
 10
19539.259263000022
 20
9258.9595019999961
 30
0.0
 11
19499.257152000031
 21
9258.9595019999961
 31
0.0
  0
TEXT
  5
4870
  8
0
  6
CONTINUOUS
 62
     7
 10
19139.257152000031
 20
9338.9595019999961
 30
0.0
 40
160.0
  1
43
  0
TEXT
  5
4871
  8
0
  6
CONTINUOUS
 62
     7
 10
20816.009526999998
 20
9338.9595019999961
 30
0.0
 40
160.0
  1
3353.5
  0
TEXT
  5
4872
  8
0
  6
CONTINUOUS
 62
     7
 10
20816.009526999998
 20
9738.9172720000006
 30
0.0
 40
160.0
  1
3439.5
  0
TEXT
  5
4873
  8
0
  6
CONTINUOUS
 62
     7
 10
23052.76190199998
 20
9338.9595019999961
 30
0.0
 40
160.0
  1
43
  0
ARC
  5
4874
  8
0
  6
BYBLOCK
 62
     0
 10
22892.759790999989
 20
9258.9595019999961
 30
0.0
 40
15.0
 50
180.0
 51
0.0
  0
ARC
  5
4875
  8
0
  6
BYBLOCK
 62
     0
 10
22892.759790999989
 20
9258.9595019999961
 30
0.0
 40
15.0
 50
0.0
 51
180.0
  0
ARC
  5
4876
  8
0
  6
BYBLOCK
 62
     0
 10
22935.76190199998
 20
9258.9595019999961
 30
0.0
 40
15.0
 50
0.0
 51
180.0
  0
ARC
  5
4877
  8
0
  6
BYBLOCK
 62
     0
 10
22935.76190199998
 20
9258.9595019999961
 30
0.0
 40
15.0
 50
180.0
 51
0.0
  0
ARC
  5
4878
  8
0
  6
BYBLOCK
 62
     0
 10
19496.257152000031
 20
9658.9172719999951
 30
0.0
 40
15.0
 50
0.0
 51
180.0
  0
ARC
  5
4879
  8
0
  6
BYBLOCK
 62
     0
 10
19496.257152000031
 20
9658.9172719999951
 30
0.0
 40
15.0
 50
180.0
 51
0.0
  0
ARC
  5
487A
  8
0
  6
BYBLOCK
 62
     0
 10
22935.76190199998
 20
9658.9172719999951
 30
0.0
 40
15.0
 50
180.0
 51
0.0
  0
ARC
  5
487B
  8
0
  6
BYBLOCK
 62
     0
 10
22935.76190199998
 20
9658.9172719999951
 30
0.0
 40
15.0
 50
0.0
 51
180.0
  0
ARC
  5
487C
  8
0
  6
BYBLOCK
 62
     0
 10
19539.259263000022
 20
9258.9595019999961
 30
0.0
 40
15.0
 50
0.0
 51
180.0
  0
ARC
  5
487D
  8
0
  6
BYBLOCK
 62
     0
 10
19539.259263000022
 20
9258.9595019999961
 30
0.0
 40
15.0
 50
180.0
 51
0.0
  0
ARC
  5
487E
  8
0
  6
BYBLOCK
 62
     0
 10
22892.759790999989
 20
9258.9595019999961
 30
0.0
 40
15.0
 50
180.0
 51
0.0
  0
ARC
  5
487F
  8
0
  6
BYBLOCK
 62
     0
 10
22892.759790999989
 20
9258.9595019999961
 30
0.0
 40
15.0
 50
0.0
 51
180.0
  0
ARC
  5
4880
  8
0
  6
BYBLOCK
 62
     0
 10
19539.259263000022
 20
9258.9595019999961
 30
0.0
 40
15.0
 50
0.0
 51
180.0
  0
ARC
  5
4881
  8
0
  6
BYBLOCK
 62
     0
 10
19539.259263000022
 20
9258.9595019999961
 30
0.0
 40
15.0
 50
180.0
 51
0.0
  0
ARC
  5
4882
  8
0
  6
BYBLOCK
 62
     0
 10
19496.257152000031
 20
9258.9595019999961
 30
0.0
 40
15.0
 50
180.0
 51
0.0
  0
ARC
  5
4883
  8
0
  6
BYBLOCK
 62
     0
 10
19496.257152000031
 20
9258.9595019999961
 30
0.0
 40
15.0
 50
0.0
 51
180.0
  0
LINE
  5
4891
  8
SUNPOU
  6
CONTINUOUS
 62
     4
 10
9841.2568779999874
 20
13780.756259
 30
0.0
 11
9841.2568779999874
 21
12601.806458999999
 31
0.0
  0
LINE
  5
4892
  8
SUNPOU
  6
CONTINUOUS
 62
     4
 10
13280.757670000001
 20
13780.756259
 30
0.0
 11
13280.757670000001
 21
12601.806458999999
 31
0.0
  0
LINE
  5
4893
  8
SUNPOU
  6
CONTINUOUS
 62
     4
 10
9841.2568779999874
 20
12681.806458999999
 30
0.0
 11
13280.757670000001
 21
12681.806458999999
 31
0.0
  0
TEXT
  5
4894
  8
0
  6
CONTINUOUS
 62
     7
 10
10638.340607333321
 20
12761.806458999999
 30
0.0
 40
160.0
  1
ケラバ外寸 3439.5
  0
ARC
  5
4895
  8
0
  6
BYBLOCK
 62
     0
 10
9841.2568779999874
 20
12681.806458999999
 30
0.0
 40
15.0
 50
0.0
 51
180.0
  0
ARC
  5
4896
  8
0
  6
BYBLOCK
 62
     0
 10
9841.2568779999874
 20
12681.806458999999
 30
0.0
 40
15.0
 50
180.0
 51
0.0
  0
ARC
  5
4897
  8
0
  6
BYBLOCK
 62
     0
 10
13280.757670000001
 20
12681.806458999999
 30
0.0
 40
15.0
 50
180.0
 51
0.0
  0
ARC
  5
4898
  8
0
  6
BYBLOCK
 62
     0
 10
13280.757670000001
 20
12681.806458999999
 30
0.0
 40
15.0
 50
0.0
 51
180.0
  0
TEXT
  5
48ED
  8
NAME
 10
24189.8234220308
 20
1076.0
 30
0.0
 40
360.0
  1
H
 41
0.6700000000000002
  7
00
  0
TEXT
  5
48EE
  8
NAME
 10
23813.99143745047
 20
1076.0
 30
0.0
 40
360.0
  1
（ ）
  7
01
  0
TEXT
  5
48EF
  8
NAME
 10
24713.98442473351
 20
1076.0
 30
0.0
 40
360.0
  1
型（単棟）
  7
01
  0
TEXT
  5
48F0
  8
NAME
 10
21686.3487663915
 20
1076.6369801169251
 30
0.0
 40
360.0
  1
VGCU-3352
 41
0.6700000000000002
  0
TEXT
  5
48F2
  8
NAME
 10
21933.552716389011
 20
1876.0
 30
0.0
 40
360.0
  1
ヨドガレージ ラヴィージュ
 41
0.75
  7
01
  0
LINE
  5
48F3
  8
NAME
  6
CONTINUOUS
 10
26067.886878884299
 20
2236.0
 30
0.0
 11
26067.886878884299
 21
1876.0
 31
0.0
  0
LINE
  5
48F4
  8
NAME
  6
CONTINUOUS
 10
26167.886878884299
 20
2236.0
 30
0.0
 11
26167.886878884299
 21
1876.0
 31
0.0
  0
LINE
  5
48F5
  8
NAME
  6
CONTINUOUS
 10
26267.88687888431
 20
2236.0
 30
0.0
 11
26267.88687888431
 21
1876.0
 31
0.0
  0
LINE
  5
48F6
  8
NAME
  6
CONTINUOUS
 10
26007.886878884299
 20
2236.0
 30
0.0
 11
26327.886878884299
 21
2236.0
 31
0.0
  0
LINE
  5
48F7
  8
NAME
  6
CONTINUOUS
 10
26327.886878884299
 20
1876.0
 30
0.0
 11
26007.886878884299
 21
1876.0
 31
0.0
  0
TEXT
  5
4991
  8
FILENAME
  6
CONTINUOUS
 10
28546.857142857141
 20
348.0
 30
0.0
 40
200.0
  1
＜VGCU-3352-1-A_0.DXF ＞
  7
FILENAME
 72
     2
 11
32764.0
 21
348.0
 31
0.0
  0
LINE
  5
4996
  8
WAKUSEN-01
 10
868.00000000000193
 20
827.99999999999955
 30
0.0
 11
32764.000000000011
 21
827.99999999999943
 31
0.0
  0
LINE
  5
4997
  8
WAKUSEN-01
 10
868.00000000000193
 20
827.99999999999955
 30
0.0
 11
868.00000000000193
 21
22484.000000000011
 31
0.0
  0
LINE
  5
4998
  8
WAKUSEN-01
 10
32764.000000000011
 20
827.99999999999943
 30
0.0
 11
32764.000000000011
 21
22484.000000000011
 31
0.0
  0
LINE
  5
4999
  8
WAKUSEN-01
 10
20560.0
 20
827.99999999999716
 30
0.0
 11
20560.0
 21
2484.0
 31
0.0
  0
LINE
  5
499A
  8
WAKUSEN-02
 10
26868.0
 20
827.99999999999261
 30
0.0
 11
26868.0
 21
2484.0
 31
0.0
  0
ENDSEC
  0
EOF
