  0
SECTION
  2
HEADER
  9
$ACADVER
  1
AC1009
  9
$INSBASE
 10
0.0
 20
0.0
 30
0.0
  9
$EXTMIN
 10
867.99324330406671
 20
327.38164749855792
 30
-0.0000000000000053
  9
$EXTMAX
 10
32765.33210850941
 20
22484.553276491992
 30
0.0000000000000099
  9
$LIMMIN
 10
0.0
 20
0.0
  9
$LIMMAX
 10
33600.0
 20
23760.0
  9
$ORTHOMODE
 70
     1
  9
$REGENMODE
 70
     1
  9
$FILLMODE
 70
     1
  9
$QTEXTMODE
 70
     0
  9
$MIRRTEXT
 70
     1
  9
$DRAGMODE
 70
     2
  9
$LTSCALE
 40
80.0
  9
$OSMODE
 70
  3071
  9
$ATTMODE
 70
     1
  9
$TEXTSIZE
 40
0.2
  9
$TRACEWID
 40
0.05
  9
$TEXTSTYLE
  7
00
  9
$CLAYER
  8
0
  9
$CELTYPE
  6
BYLAYER
  9
$CECOLOR
 62
   256
  9
$DIMSCALE
 40
80.0
  9
$DIMASZ
 40
3.0
  9
$DIMEXO
 40
1.0
  9
$DIMDLI
 40
0.38
  9
$DIMRND
 40
0.5
  9
$DIMDLE
 40
0.0
  9
$DIMEXE
 40
1.0
  9
$DIMTP
 40
0.0
  9
$DIMTM
 40
0.0
  9
$DIMTXT
 40
2.0
  9
$DIMCEN
 40
0.09
  9
$DIMTSZ
 40
0.0
  9
$DIMTOL
 70
     0
  9
$DIMLIM
 70
     0
  9
$DIMTIH
 70
     0
  9
$DIMTOH
 70
     0
  9
$DIMSE1
 70
     0
  9
$DIMSE2
 70
     0
  9
$DIMTAD
 70
     1
  9
$DIMZIN
 70
     8
  9
$DIMBLK
  1
DOTSMALL
  9
$DIMASO
 70
     1
  9
$DIMSHO
 70
     1
  9
$DIMPOST
  1

  9
$DIMAPOST
  1

  9
$DIMALT
 70
     0
  9
$DIMALTD
 70
     2
  9
$DIMALTF
 40
25.399999999999999
  9
$DIMLFAC
 40
1.0
  9
$DIMTOFL
 70
     1
  9
$DIMTVP
 40
0.0
  9
$DIMTIX
 70
     0
  9
$DIMSOXD
 70
     0
  9
$DIMSAH
 70
     0
  9
$DIMBLK1
  1

  9
$DIMBLK2
  1

  9
$DIMSTYLE
  2
SUNPOU
  9
$DIMCLRD
 70
     4
  9
$DIMCLRE
 70
     4
  9
$DIMCLRT
 70
     7
  9
$DIMTFAC
 40
1.0
  9
$DIMGAP
 40
1.0
  9
$LUNITS
 70
     2
  9
$LUPREC
 70
     4
  9
$SKETCHINC
 40
0.1
  9
$FILLETRAD
 40
0.0
  9
$AUNITS
 70
     0
  9
$AUPREC
 70
     0
  9
$MENU
  1
acad
  9
$ELEVATION
 40
0.0
  9
$PELEVATION
 40
0.0
  9
$THICKNESS
 40
0.0
  9
$LIMCHECK
 70
     0
  9
$BLIPMODE
 70
     1
  9
$CHAMFERA
 40
0.0
  9
$CHAMFERB
 40
0.0
  9
$SKPOLY
 70
     0
  9
$TDCREATE
 40
2454573.387731655
  9
$TDUPDATE
 40
2458942.4439210072
  9
$TDINDWG
 40
0.0455505324
  9
$TDUSRTIMER
 40
0.0455489236
  9
$USRTIMER
 70
     1
  9
$ANGBASE
 50
0.0
  9
$ANGDIR
 70
     0
  9
$PDMODE
 70
     0
  9
$PDSIZE
 40
0.0
  9
$PLINEWID
 40
0.0
  9
$COORDS
 70
     1
  9
$SPLFRAME
 70
     0
  9
$SPLINETYPE
 70
     6
  9
$SPLINESEGS
 70
     8
  9
$ATTDIA
 70
     1
  9
$ATTREQ
 70
     1
  9
$HANDLING
 70
     1
  9
$HANDSEED
  5
489D
  9
$SURFTAB1
 70
     6
  9
$SURFTAB2
 70
     6
  9
$SURFTYPE
 70
     6
  9
$SURFU
 70
     6
  9
$SURFV
 70
     6
  9
$UCSNAME
  2

  9
$UCSORG
 10
0.0
 20
0.0
 30
0.0
  9
$UCSXDIR
 10
1.0
 20
0.0
 30
0.0
  9
$UCSYDIR
 10
0.0
 20
1.0
 30
0.0
  9
$PUCSNAME
  2

  9
$PUCSORG
 10
0.0
 20
0.0
 30
0.0
  9
$PUCSXDIR
 10
1.0
 20
0.0
 30
0.0
  9
$PUCSYDIR
 10
0.0
 20
1.0
 30
0.0
  9
$USERI1
 70
     0
  9
$USERI2
 70
     0
  9
$USERI3
 70
     0
  9
$USERI4
 70
     0
  9
$USERI5
 70
     0
  9
$USERR1
 40
0.0
  9
$USERR2
 40
0.0
  9
$USERR3
 40
0.0
  9
$USERR4
 40
0.0
  9
$USERR5
 40
0.0
  9
$WORLDVIEW
 70
     1
  9
$SHADEDGE
 70
     3
  9
$SHADEDIF
 70
    70
  9
$TILEMODE
 70
     1
  9
$MAXACTVP
 70
    16
  9
$PLIMCHECK
 70
     0
  9
$PEXTMIN
 10
1.0000000000000000E+020
 20
1.0000000000000000E+020
 30
1.0000000000000000E+020
  9
$PEXTMAX
 10
-1.0000000000000000E+020
 20
-1.0000000000000000E+020
 30
-1.0000000000000000E+020
  9
$PLIMMIN
 10
0.0
 20
0.0
  9
$PLIMMAX
 10
12.0
 20
9.0
  9
$UNITMODE
 70
     0
  9
$VISRETAIN
 70
     0
  9
$PLINEGEN
 70
     1
  9
$PSLTSCALE
 70
     0
  0
ENDSEC
  0
SECTION
  2
TABLES
  0
TABLE
  2
VPORT
 70
     1
  0
VPORT
  2
*ACTIVE
 70
     0
 10
0.0
 20
0.0
 11
1.0
 21
1.0
 12
16800.0
 22
11880.0
 13
0.0
 23
0.0
 14
1.0
 24
1.0
 15
0.0
 25
0.0
 16
0.0
 26
0.0
 36
1.0
 17
0.0
 27
0.0
 37
0.0
 40
23981.023255813951
 41
2.195652173913043
 42
50.0
 43
0.0
 44
0.0
 50
0.0
 51
0.0
 71
     0
 72
 10000
 73
     1
 74
     1
 75
     0
 76
     0
 77
     0
 78
     0
  0
ENDTAB
  0
TABLE
  2
LTYPE
 70
     3
  0
LTYPE
  2
CONTINUOUS
 70
     0
  3
Solid line
 72
    65
 73
     0
 40
0.0
  0
LTYPE
  2
DASHED3
 70
     0
  3
------  ------  ------  ------  
 72
    65
 73
     2
 40
5.0
 49
3.75
 49
-1.25
  0
LTYPE
  2
CENTER2
 70
     0
  3
----------  --  ----------  --  
 72
    65
 73
     4
 40
20.0
 49
12.5
 49
-2.5
 49
2.5
 49
-2.5
  0
ENDTAB
  0
TABLE
  2
LAYER
 70
    18
  0
LAYER
  2
0
 70
     0
 62
     7
  6
CONTINUOUS
  0
LAYER
  2
SUNPOU
 70
     0
 62
     4
  6
CONTINUOUS
  0
LAYER
  2
0-1
 70
     0
 62
     7
  6
CONTINUOUS
  0
LAYER
  2
0-2
 70
     0
 62
     7
  6
CONTINUOUS
  0
LAYER
  2
0-5
 70
     0
 62
     7
  6
CONTINUOUS
  0
LAYER
  2
2-0
 70
     0
 62
     7
  6
CONTINUOUS
  0
LAYER
  2
0-6
 70
     0
 62
     7
  6
CONTINUOUS
  0
LAYER
  2
0-7
 70
     0
 62
     7
  6
CONTINUOUS
  0
LAYER
  2
0-8
 70
     0
 62
     7
  6
CONTINUOUS
  0
LAYER
  2
YODOROGO
 70
     0
 62
   130
  6
CONTINUOUS
  0
LAYER
  2
WAKUSEN-01
 70
     0
 62
    50
  6
CONTINUOUS
  0
LAYER
  2
WAKUSEN-02
 70
     0
 62
   130
  6
CONTINUOUS
  0
LAYER
  2
WAKUMOJI-01
 70
     0
 62
   130
  6
CONTINUOUS
  0
LAYER
  2
FILENAME
 70
     0
 62
     7
  6
CONTINUOUS
  0
LAYER
  2
NAME
 70
     0
 62
    20
  6
CONTINUOUS
  0
LAYER
  2
0-4
 70
     0
 62
     7
  6
CONTINUOUS
  0
ENDTAB
  0
TABLE
  2
STYLE
 70
     5
  0
STYLE
  2
STANDARD
 70
     0
 40
0.0
 41
1.0
 50
0.0
 71
     0
 42
0.0
  3
txt
  4
BIGFONT
  0
STYLE
  2
00
 70
     0
 40
0.0
 41
0.6666666666666666
 50
0.0
 71
     0
 42
0.2
  3
ROMANS
  4
BIGFONT
  0
STYLE
  2
01
 70
     0
 40
3.0
 41
1.0
 50
0.0
 71
     0
 42
0.2
  3
ROMANS
  4
BIGFONT
  0
STYLE
  2
WAKUMOJI
 70
     0
 40
3.0
 41
1.0
 50
0.0
 71
     0
 42
3.0
  3
SIMPLEX
  4
BIGFONT
  0
STYLE
  2
FILENAME
 70
     0
 40
200.0
 41
1.0
 50
0.0
 71
     0
 42
200.0
  3
romans
  4
bigfont
  0
ENDTAB
  0
TABLE
  2
VIEW
 70
     0
  0
ENDTAB
  0
TABLE
  2
UCS
 70
     0
  0
ENDTAB
  0
TABLE
  2
APPID
 70
    13
  0
APPID
  2
ACAD
 70
     0
  0
APPID
  2
ACADANNOTATIVE
 70
     0
  0
APPID
  2
ACAD_PSEXT
 70
     0
  0
APPID
  2
DCO15
 70
     0
  0
APPID
  2
ACAD_MLEADERVER
 70
     0
  0
APPID
  2
AUTOCAD_POSTSCRIPT_FIGURE
 70
     0
  0
APPID
  2
ACAD_EXEMPT_FROM_CAD_STANDARDS
 70
     0
  0
APPID
  2
ACAD_DSTYLE_DIMJAG
 70
     0
  0
APPID
  2
ACAD_DSTYLE_DIMTALN
 70
     0
  0
APPID
  2
ACAD_DSTYLE_DIM_LINETYPE
 70
     0
  0
APPID
  2
ACAD_DSTYLE_DIM_EXT1_LINETYPE
 70
     0
  0
APPID
  2
ACAD_DSTYLE_DIM_EXT2_LINETYPE
 70
     0
  0
APPID
  2
ACAD_NAV_VCDISPLAY
 70
     0
  0
ENDTAB
  0
TABLE
  2
DIMSTYLE
 70
     2
  0
DIMSTYLE
  2
SUNPOU
 70
     0
  3

  4

  5

  6

  7

 40
80.0
 41
3.0
 42
1.0
 43
0.38
 44
1.0
 45
0.5
 46
0.0
 47
0.0
 48
0.0
140
2.0
141
0.09
142
0.0
143
25.399999999999999
144
1.0
145
0.0
146
1.0
147
1.0
 71
     0
 72
     0
 73
     0
 74
     0
 75
     0
 76
     0
 77
     1
 78
     8
170
     0
171
     2
172
     1
173
     0
174
     0
175
     0
176
     4
177
     4
178
     7
  0
ENDTAB
  0
ENDSEC
  0
SECTION
  2
BLOCKS
  0
BLOCK
  8
0
  2
$MODEL_SPACE
 70
     0
 10
0.0
 20
0.0
 30
0.0
  3
$MODEL_SPACE
  1

  0
ENDBLK
  5
3CE2
  8
0
  0
BLOCK
 67
     1
  8
0
  2
$PAPER_SPACE
 70
     0
 10
0.0
 20
0.0
 30
0.0
  3
$PAPER_SPACE
  1

  0
ENDBLK
  5
3CDE
 67
     1
  8
0
  0
BLOCK
  8
0
  2
_DOTSMALL
 70
     0
 10
0.0
 20
0.0
 30
0.0
  3
_DOTSMALL
  1

  0
POLYLINE
  5
3D12
  8
0
  6
BYBLOCK
 62
     0
 66
     1
 10
0.0
 20
0.0
 30
0.0
 70
     1
 40
0.5
 41
0.5
  0
VERTEX
  5
4865
  8
0
  6
BYBLOCK
 62
     0
 10
-0.0625
 20
0.0
 30
0.0
 42
1.0
  0
VERTEX
  5
4866
  8
0
  6
BYBLOCK
 62
     0
 10
0.0625
 20
0.0
 30
0.0
 42
1.0
  0
SEQEND
  5
4867
  8
0
  6
BYBLOCK
 62
     0
  0
ENDBLK
  5
3D16
  8
0
  0
ENDSEC
  0
SECTION
  2
ENTITIES
  0
LINE
  5
3D17
  8
0-1
  6
CONTINUOUS
 62
     3
 10
9442.2594760000029
 20
14498.460631
 30
0.0
 11
9442.2594760000029
 21
19492.089351999992
 31
0.0
  0
LINE
  5
3D18
  8
0-1
  6
CONTINUOUS
 62
     3
 10
9484.7597390000028
 20
14498.460631
 30
0.0
 11
9484.7597390000028
 21
19475.330748
 31
0.0
  0
LINE
  5
3D19
  8
0-1
  6
CONTINUOUS
 62
     3
 10
9399.2593440000019
 20
14342.459720000001
 30
0.0
 11
9399.2593440000019
 21
19882.46229299999
 31
0.0
  0
LINE
  5
3D1A
  8
0-1
  6
CONTINUOUS
 62
     3
 10
9534.7583800000048
 20
14374.460617000001
 30
0.0
 11
9534.7583800000048
 21
19872.456883000021
 31
0.0
  0
LINE
  5
3D1B
  8
0-1
  6
CONTINUOUS
 62
     3
 10
9484.7597390000028
 20
15598.702079500021
 30
0.0
 11
14619.759738999999
 21
15598.702079500021
 31
0.0
  0
LINE
  5
3D1C
  8
0-1
  6
CONTINUOUS
 62
     3
 10
9484.7597390000028
 20
15688.702871500011
 30
0.0
 11
14619.759738999999
 21
15688.702871500011
 31
0.0
  0
LINE
  5
3D1D
  8
0-1
  6
CONTINUOUS
 62
     3
 10
9399.2593440000019
 20
14374.460617000001
 30
0.0
 11
14705.26112499999
 21
14374.460617000001
 31
0.0
  0
LINE
  5
3D1E
  8
0-1
  6
CONTINUOUS
 62
     3
 10
9399.2593440000019
 20
14342.459720000001
 30
0.0
 11
14705.26112499999
 21
14342.459720000001
 31
0.0
  0
LINE
  5
3D1F
  8
0-1
  6
CONTINUOUS
 62
     3
 10
9484.7597390000028
 20
14577.460247999999
 30
0.0
 11
14619.759738999999
 21
14577.460247999999
 31
0.0
  0
LINE
  5
3D20
  8
0-1
  6
CONTINUOUS
 62
     3
 10
9442.2594760000029
 20
14498.460631
 30
0.0
 11
14662.260992999991
 21
14498.460631
 31
0.0
  0
LINE
  5
3D21
  8
0-1
  6
CONTINUOUS
 62
     3
 10
12683.260002999999
 20
14534.960974
 30
0.0
 11
9554.7594760000029
 21
15643.701485500011
 31
0.0
  0
LINE
  5
3D22
  8
0-1
  6
CONTINUOUS
 62
     3
 10
9554.7594760000029
 20
14534.960974
 30
0.0
 11
12683.260002999999
 21
15643.701485500011
 31
0.0
  0
LINE
  5
3D23
  8
0-1
  6
CONTINUOUS
 62
     3
 10
12289.885121999991
 20
18378.018988
 30
0.0
 11
9554.7594760000029
 21
17102.460974000001
 31
0.0
  0
LINE
  5
3D24
  8
0-1
  6
CONTINUOUS
 62
     3
 10
12683.260002999999
 20
17102.460974000001
 30
0.0
 11
9554.7594760000029
 21
18561.460974000001
 31
0.0
  0
LINE
  5
3D25
  8
0-1
  6
CONTINUOUS
 62
     3
 10
12683.260002999999
 20
17102.460974000001
 30
0.0
 11
9554.7594760000029
 21
15643.701485500011
 31
0.0
  0
LINE
  5
3D26
  8
0-1
  6
CONTINUOUS
 62
     3
 10
12683.260002999999
 20
15643.701485500011
 30
0.0
 11
9554.7594760000029
 21
17102.460974000001
 31
0.0
  0
LINE
  5
3D27
  8
0-1
  6
CONTINUOUS
 62
     3
 10
9484.7597390000028
 20
18516.46057900001
 30
0.0
 11
11915.61556499998
 21
18516.46057900001
 31
0.0
  0
LINE
  5
3D28
  8
0-1
  6
CONTINUOUS
 62
     3
 10
9484.7597390000028
 20
17057.460577999991
 30
0.0
 11
14365.868613000001
 21
17057.460577999991
 31
0.0
  0
LINE
  5
3D29
  8
0-1
  6
CONTINUOUS
 62
     3
 10
9484.7597390000028
 20
17136.461184999971
 30
0.0
 11
14210.009238000001
 21
17136.461184999971
 31
0.0
  0
LINE
  5
3D2A
  8
0-1
  6
CONTINUOUS
 62
     3
 10
9484.7597390000028
 20
18606.463350000009
 30
0.0
 11
11687.368164
 21
18606.463350000009
 31
0.0
  0
LINE
  5
3D2B
  8
0-1
  6
CONTINUOUS
 62
     3
 10
9472.7588689999993
 20
19872.456883000021
 30
0.0
 11
14631.76060999999
 21
19872.456883000021
 31
0.0
  0
LINE
  5
3D2C
  8
0-1
  6
CONTINUOUS
 62
     3
 10
9417.2581160000045
 20
19500.765581999989
 30
0.0
 11
9417.2581160000045
 21
19874.961898000001
 31
0.0
  0
LINE
  5
3D2D
  8
0-1
  6
CONTINUOUS
 62
     3
 10
9472.7588689999993
 20
19857.462952999991
 30
0.0
 11
9472.7588689999993
 21
19887.460577999991
 31
0.0
  0
LINE
  5
3D2E
  8
0-1
  6
CONTINUOUS
 62
     3
 10
9399.2593440000019
 20
19887.460577999991
 30
0.0
 11
9399.2593440000019
 21
19852.462688999989
 31
0.0
  0
LINE
  5
3D2F
  8
0-1
  6
CONTINUOUS
 62
     3
 10
9467.7576150000004
 20
19892.460841999989
 30
0.0
 11
9404.2566380000044
 21
19892.460841999989
 31
0.0
  0
LINE
  5
3D30
  8
0-1
  6
CONTINUOUS
 62
     3
 10
9417.2581160000045
 20
19874.961898000001
 30
0.0
 11
9399.2593440000019
 21
19874.961898000001
 31
0.0
  0
LINE
  5
3D31
  8
0-1
  6
CONTINUOUS
 62
     3
 10
9417.2581160000045
 20
19852.462688999989
 30
0.0
 11
9467.7576150000004
 21
19852.462688999989
 31
0.0
  0
LINE
  5
3D32
  8
0-1
  6
CONTINUOUS
 62
     3
 10
14687.26136199999
 20
16900.385778999989
 30
0.0
 11
14687.26136199999
 21
19874.961898000001
 31
0.0
  0
LINE
  5
3D33
  8
0-1
  6
CONTINUOUS
 62
     3
 10
14705.26112499999
 20
14342.459720000001
 30
0.0
 11
14705.26112499999
 21
19882.46229299999
 31
0.0
  0
LINE
  5
3D34
  8
0-1
  6
CONTINUOUS
 62
     3
 10
12823.25947599999
 20
17102.460974000001
 30
0.0
 11
14549.760002999999
 21
15643.701485500011
 31
0.0
  0
LINE
  5
3D35
  8
0-1
  6
CONTINUOUS
 62
     3
 10
12823.25947599999
 20
14534.960974
 30
0.0
 11
14549.760002999999
 21
15643.701485500011
 31
0.0
  0
LINE
  5
3D36
  8
0-1
  6
CONTINUOUS
 62
     3
 10
12753.259738999999
 20
14498.460631
 30
0.0
 11
12753.259738999999
 21
15598.702079500021
 31
0.0
  0
LINE
  5
3D37
  8
0-1
  6
CONTINUOUS
 62
     3
 10
12696.26049199999
 20
14577.460247999999
 30
0.0
 11
12696.26049199999
 21
15598.702079500021
 31
0.0
  0
LINE
  5
3D38
  8
0-1
  6
CONTINUOUS
 62
     3
 10
12810.259976999991
 20
14577.460247999999
 30
0.0
 11
12810.259976999991
 21
15598.702079500021
 31
0.0
  0
LINE
  5
3D39
  8
0-1
  6
CONTINUOUS
 62
     3
 10
12753.259738999999
 20
14577.460247999999
 30
0.0
 11
12753.259738999999
 21
15248.702409500011
 31
0.0
  0
LINE
  5
3D3A
  8
0-1
  6
CONTINUOUS
 62
     3
 10
12810.259976999991
 20
17136.461184999971
 30
0.0
 11
12810.259976999991
 21
17873.722772000001
 31
0.0
  0
LINE
  5
3D3B
  8
0-1
  6
CONTINUOUS
 62
     3
 10
12696.26049199999
 20
17136.461184999971
 30
0.0
 11
12696.26049199999
 21
18142.650269000002
 31
0.0
  0
LINE
  5
3D3C
  8
0-1
  6
CONTINUOUS
 62
     3
 10
12753.259738999999
 20
17136.461184999971
 30
0.0
 11
12753.259738999999
 21
18008.18553100001
 31
0.0
  0
LINE
  5
3D3D
  8
0-1
  6
CONTINUOUS
 62
     3
 10
12753.259738999999
 20
17136.461184999971
 30
0.0
 11
12753.259738999999
 21
17658.186850999991
 31
0.0
  0
LINE
  5
3D3E
  8
0-1
  6
CONTINUOUS
 62
     3
 10
12810.259976999991
 20
15688.702871500011
 30
0.0
 11
12810.259976999991
 21
17057.460577999991
 31
0.0
  0
LINE
  5
3D3F
  8
0-1
  6
CONTINUOUS
 62
     3
 10
12696.26049199999
 20
15688.702871500011
 30
0.0
 11
12696.26049199999
 21
17057.460577999991
 31
0.0
  0
LINE
  5
3D40
  8
0-1
  6
CONTINUOUS
 62
     3
 10
12753.259738999999
 20
15688.702871500011
 30
0.0
 11
12753.259738999999
 21
17057.460577999991
 31
0.0
  0
LINE
  5
3D41
  8
0-1
  6
CONTINUOUS
 62
     3
 10
12753.259738999999
 20
15688.702871500011
 30
0.0
 11
12753.259738999999
 21
15598.702079500021
 31
0.0
  0
LINE
  5
3D42
  8
0-1
  6
CONTINUOUS
 62
     3
 10
12753.259738999999
 20
17136.461184999971
 30
0.0
 11
12753.259738999999
 21
17057.460577999991
 31
0.0
  0
LINE
  5
3D43
  8
0-1
  6
CONTINUOUS
 62
     3
 10
14619.759738999999
 20
14498.460631
 30
0.0
 11
14619.759738999999
 21
16933.079507999992
 31
0.0
  0
LINE
  5
3D44
  8
0-1
  6
CONTINUOUS
 62
     3
 10
14662.260992999991
 20
14498.460631
 30
0.0
 11
14662.260992999991
 21
16911.536406999981
 31
0.0
  0
LINE
  5
3D45
  8
0-1
  6
CONTINUOUS
 62
     3
 10
14687.26136199999
 20
19874.961898000001
 30
0.0
 11
14705.26112499999
 21
19874.961898000001
 31
0.0
  0
LINE
  5
3D46
  8
0-1
  6
CONTINUOUS
 62
     3
 10
14705.26112499999
 20
19887.460577999991
 30
0.0
 11
14705.26112499999
 21
19852.462688999989
 31
0.0
  0
LINE
  5
3D47
  8
0-1
  6
CONTINUOUS
 62
     3
 10
14631.76060999999
 20
19857.462952999991
 30
0.0
 11
14631.76060999999
 21
19887.460577999991
 31
0.0
  0
LINE
  5
3D48
  8
0-1
  6
CONTINUOUS
 62
     3
 10
14687.26136199999
 20
19852.462688999989
 30
0.0
 11
14636.761863999989
 21
19852.462688999989
 31
0.0
  0
LINE
  5
3D49
  8
0-1
  6
CONTINUOUS
 62
     3
 10
14636.761863999989
 20
19892.460841999989
 30
0.0
 11
14700.259871
 21
19892.460841999989
 31
0.0
  0
LINE
  5
3D4A
  8
0-1
  6
CONTINUOUS
 62
     3
 10
10605.761191
 20
19037.449360999992
 30
0.0
 11
10605.761191
 21
19872.456883000021
 31
0.0
  0
LINE
  5
3D4B
  8
0-1
  6
CONTINUOUS
 62
     3
 10
10642.761362999991
 20
19022.860309
 30
0.0
 11
10642.761362999991
 21
19872.456883000021
 31
0.0
  0
LINE
  5
3D4C
  8
0-1
  6
CONTINUOUS
 62
     3
 10
10805.759870999969
 20
18958.587319999991
 30
0.0
 11
10805.759870999969
 21
19872.456883000021
 31
0.0
  0
LINE
  5
3D4D
  8
0-1
  6
CONTINUOUS
 62
     3
 10
11205.761191
 20
18800.863238000002
 30
0.0
 11
11205.761191
 21
19872.456883000021
 31
0.0
  0
LINE
  5
3D4E
  8
0-1
  6
CONTINUOUS
 62
     3
 10
11242.761362999991
 20
18786.274185999991
 30
0.0
 11
11242.761362999991
 21
19872.456883000021
 31
0.0
  0
LINE
  5
3D4F
  8
0-1
  6
CONTINUOUS
 62
     3
 10
11405.760861000001
 20
18717.500486000001
 30
0.0
 11
11405.760861000001
 21
19872.456883000021
 31
0.0
  0
LINE
  5
3D50
  8
0-1
  6
CONTINUOUS
 62
     3
 10
11442.761033000001
 20
18702.911434000001
 30
0.0
 11
11442.761033000001
 21
19872.456883000021
 31
0.0
  0
LINE
  5
3D51
  8
0-1
  6
CONTINUOUS
 62
     3
 10
11605.761520999969
 20
18638.640424000008
 30
0.0
 11
11605.761520999969
 21
19872.456883000021
 31
0.0
  0
LINE
  5
3D52
  8
0-1
  6
CONTINUOUS
 62
     3
 10
11642.760703
 20
18624.049393000001
 30
0.0
 11
11642.760703
 21
19872.456883000021
 31
0.0
  0
LINE
  5
3D53
  8
0-1
  6
CONTINUOUS
 62
     3
 10
11805.761190999991
 20
18559.778384000008
 30
0.0
 11
11805.761190999991
 21
19872.456883000021
 31
0.0
  0
LINE
  5
3D54
  8
0-1
  6
CONTINUOUS
 62
     3
 10
11842.761363
 20
18545.187352000001
 30
0.0
 11
11842.761363
 21
19872.45688300001
 31
0.0
  0
LINE
  5
3D55
  8
0-1
  6
CONTINUOUS
 62
     3
 10
12005.759871
 20
18480.916343000001
 30
0.0
 11
12005.759871
 21
19872.456883000021
 31
0.0
  0
LINE
  5
3D56
  8
0-1
  6
CONTINUOUS
 62
     3
 10
12042.76202299999
 20
18466.325311000001
 30
0.0
 11
12042.76202299999
 21
19872.456883000021
 31
0.0
  0
LINE
  5
3D57
  8
0-1
  6
CONTINUOUS
 62
     3
 10
12205.760531
 20
18402.054302
 30
0.0
 11
12205.760531
 21
19872.456883000021
 31
0.0
  0
LINE
  5
3D58
  8
0-1
  6
CONTINUOUS
 62
     3
 10
12242.760702999991
 20
18387.463271000001
 30
0.0
 11
12242.760702999991
 21
19872.45688300001
 31
0.0
  0
LINE
  5
3D59
  8
0-1
  6
CONTINUOUS
 62
     3
 10
12405.76218099998
 20
18377.559739
 30
0.0
 11
12405.76218099998
 21
19872.456883000021
 31
0.0
  0
LINE
  5
3D5A
  8
0-1
  6
CONTINUOUS
 62
     3
 10
12442.761363
 20
18420.940889000009
 30
0.0
 11
12442.761363
 21
19872.456883000021
 31
0.0
  0
LINE
  5
3D5B
  8
0-1
  6
CONTINUOUS
 62
     3
 10
12605.759871
 20
18356.139369
 30
0.0
 11
12605.759871
 21
19872.456883000021
 31
0.0
  0
LINE
  5
3D5C
  8
0-1
  6
CONTINUOUS
 62
     3
 10
12642.761033000001
 20
18268.856456000001
 30
0.0
 11
12642.761033000001
 21
19872.456883000021
 31
0.0
  0
LINE
  5
3D5D
  8
0-1
  6
CONTINUOUS
 62
     3
 10
10842.761033000001
 20
18943.998267999988
 30
0.0
 11
10842.761033000001
 21
19872.456883000021
 31
0.0
  0
LINE
  5
3D5E
  8
0-1
  6
CONTINUOUS
 62
     3
 10
11005.761520999989
 20
18879.725278999991
 30
0.0
 11
11005.761520999989
 21
19872.456883000021
 31
0.0
  0
LINE
  5
3D5F
  8
0-1
  6
CONTINUOUS
 62
     3
 10
11042.759712999999
 20
18865.136226999992
 30
0.0
 11
11042.759712999999
 21
19872.456883000021
 31
0.0
  0
LINE
  5
3D60
  8
0-1
  6
CONTINUOUS
 62
     3
 10
13842.76103299999
 20
17322.60719499999
 30
0.0
 11
13842.76103299999
 21
19872.456883000021
 31
0.0
  0
LINE
  5
3D61
  8
0-1
  6
CONTINUOUS
 62
     3
 10
13805.759871
 20
17346.361207000002
 30
0.0
 11
13805.759871
 21
19872.456883000021
 31
0.0
  0
LINE
  5
3D62
  8
0-1
  6
CONTINUOUS
 62
     3
 10
13642.761362999991
 20
17428.980373999992
 30
0.0
 11
13642.761362999991
 21
19872.456883000021
 31
0.0
  0
LINE
  5
3D63
  8
0-1
  6
CONTINUOUS
 62
     3
 10
13605.762181
 20
17447.736312000001
 30
0.0
 11
13605.762181
 21
19872.456883000021
 31
0.0
  0
LINE
  5
3D64
  8
0-1
  6
CONTINUOUS
 62
     3
 10
13442.760703
 20
17530.355479000009
 30
0.0
 11
13442.760703
 21
19872.456883000021
 31
0.0
  0
LINE
  5
3D65
  8
0-1
  6
CONTINUOUS
 62
     3
 10
13405.761520999989
 20
17549.111418000011
 30
0.0
 11
13405.761520999989
 21
19872.456883000021
 31
0.0
  0
LINE
  5
3D66
  8
0-1
  6
CONTINUOUS
 62
     3
 10
13242.761033000001
 20
17631.730585000001
 30
0.0
 11
13242.761033000001
 21
19872.456883000021
 31
0.0
  0
LINE
  5
3D67
  8
0-1
  6
CONTINUOUS
 62
     3
 10
13205.75987099998
 20
17650.482564000002
 30
0.0
 11
13205.75987099998
 21
19872.45688300001
 31
0.0
  0
LINE
  5
3D68
  8
0-1
  6
CONTINUOUS
 62
     3
 10
13042.761362999991
 20
17583.43033100001
 30
0.0
 11
13042.761362999991
 21
19872.45688300001
 31
0.0
  0
LINE
  5
3D69
  8
0-1
  6
CONTINUOUS
 62
     3
 10
13005.76218099998
 20
17540.04918200001
 30
0.0
 11
13005.76218099998
 21
19872.456883000021
 31
0.0
  0
LINE
  5
3D6A
  8
0-1
  6
CONTINUOUS
 62
     3
 10
12842.760702999991
 20
17797.056017999999
 30
0.0
 11
12842.760702999991
 21
19872.456883000021
 31
0.0
  0
LINE
  5
3D6B
  8
0-1
  6
CONTINUOUS
 62
     3
 10
12805.760531
 20
17884.338930999991
 30
0.0
 11
12805.760531
 21
19872.456883000021
 31
0.0
  0
LINE
  5
3D6C
  8
0-1
  6
CONTINUOUS
 62
     3
 10
14042.760703
 20
17221.234068999991
 30
0.0
 11
14042.760703
 21
19872.456883000021
 31
0.0
  0
LINE
  5
3D6D
  8
0-1
  6
CONTINUOUS
 62
     3
 10
14079.76186399998
 20
17202.48010999999
 30
0.0
 11
14079.76186399998
 21
19872.456883000021
 31
0.0
  0
LINE
  5
3D6E
  8
0-1
  6
CONTINUOUS
 62
     3
 10
14242.760372999979
 20
17119.860942999981
 30
0.0
 11
14242.760372999979
 21
19872.456883000021
 31
0.0
  0
LINE
  5
3D6F
  8
0-1
  6
CONTINUOUS
 62
     3
 10
14279.75955499999
 20
17101.105004000001
 30
0.0
 11
14279.75955499999
 21
19872.456883000021
 31
0.0
  0
LINE
  5
3D70
  8
0-1
  6
CONTINUOUS
 62
     3
 10
14442.76103299999
 20
17018.485837
 30
0.0
 11
14442.76103299999
 21
19872.456883000021
 31
0.0
  0
LINE
  5
3D71
  8
0-1
  6
CONTINUOUS
 62
     3
 10
14488.261309
 20
16999.733856999988
 30
0.0
 11
14488.261309
 21
19872.45688300001
 31
0.0
  0
LINE
  5
3D72
  8
0-1
  6
CONTINUOUS
 62
     3
 10
10405.761520999989
 20
19116.311400999992
 30
0.0
 11
10405.76152099998
 21
19872.456883000021
 31
0.0
  0
LINE
  5
3D73
  8
0-1
  6
CONTINUOUS
 62
     3
 10
10442.759712999999
 20
19101.722349
 30
0.0
 11
10442.759712999999
 21
19872.456883000021
 31
0.0
  0
LINE
  5
3D74
  8
0-1
  6
CONTINUOUS
 62
     3
 10
9803.7612179999996
 20
19353.685372
 30
0.0
 11
9803.7612179999996
 21
19872.456883000021
 31
0.0
  0
LINE
  5
3D75
  8
0-1
  6
CONTINUOUS
 62
     3
 10
9840.7613889999993
 20
19339.098300000001
 30
0.0
 11
9840.7613889999993
 21
19872.456883000021
 31
0.0
  0
LINE
  5
3D76
  8
0-1
  6
CONTINUOUS
 62
     3
 10
9630.257324000002
 20
19417.960339999991
 30
0.0
 11
9630.257324000002
 21
19872.456883000021
 31
0.0
  0
LINE
  5
3D77
  8
0-1
  6
CONTINUOUS
 62
     3
 10
10042.76037299999
 20
19259.446431
 30
0.0
 11
10042.76037299999
 21
19872.456883000021
 31
0.0
  0
LINE
  5
3D78
  8
0-1
  6
CONTINUOUS
 62
     3
 10
10005.762180999989
 20
19274.035483
 30
0.0
 11
10005.762180999989
 21
19872.456883000021
 31
0.0
  0
LINE
  5
3D79
  8
0-1
  6
CONTINUOUS
 62
     3
 10
10205.759870999989
 20
19195.173441999981
 30
0.0
 11
10205.759870999989
 21
19872.456883000021
 31
0.0
  0
LINE
  5
3D7A
  8
0-1
  6
CONTINUOUS
 62
     3
 10
10242.762022999999
 20
19180.58439
 30
0.0
 11
10242.762022999999
 21
19872.456883000021
 31
0.0
  0
LINE
  5
3D7B
  8
0-1
  6
CONTINUOUS
 62
     3
 10
12371.059241000001
 20
18336.87667300001
 30
0.0
 11
9251.0607450000007
 21
19567.481296999998
 31
0.0
  0
LINE
  5
3D7C
  8
0-1
  6
CONTINUOUS
 62
     3
 10
12371.059241000001
 20
18336.87667300001
 30
0.0
 11
12533.296625000001
 21
18527.08465500001
 31
0.0
  0
LINE
  5
3D7D
  8
0-1
  6
CONTINUOUS
 62
     3
 10
12969.65378199999
 20
17497.719155999999
 30
0.0
 11
12533.296625000001
 21
18527.08465500001
 31
0.0
  0
LINE
  5
3D7E
  8
0-1
  6
CONTINUOUS
 62
     3
 10
14853.45873299999
 20
16814.625115999981
 30
0.0
 11
13131.89116599999
 21
17687.927137999988
 31
0.0
  0
LINE
  5
3D7F
  8
0-1
  6
CONTINUOUS
 62
     3
 10
12969.65378199999
 20
17497.719155999999
 30
0.0
 11
13131.89116599999
 21
17687.927137999988
 31
0.0
  0
LINE
  5
3D80
  8
0-1
  6
CONTINUOUS
 62
     3
 10
12823.25947599999
 20
17102.460974000001
 30
0.0
 11
13367.82206799999
 21
17568.340461
 31
0.0
  0
LINE
  5
3D81
  8
0-1
  6
CONTINUOUS
 62
     3
 10
12823.25947599999
 20
15643.701485500011
 30
0.0
 11
14549.760002999999
 21
14534.960974
 31
0.0
  0
LINE
  5
3D82
  8
0-1
  6
CONTINUOUS
 62
     3
 10
12823.25947599999
 20
15643.701485500011
 30
0.0
 11
14442.31069199999
 21
17018.715460999982
 31
0.0
  0
LINE
  5
3D83
  8
0-1
  6
CONTINUOUS
 62
     3
 10
12545.880424000001
 20
18497.397815
 30
0.0
 11
12482.941630999991
 21
18468.049471999999
 31
0.0
  0
LINE
  5
3D84
  8
0-1
  6
CONTINUOUS
 62
     3
 10
9554.7594760000029
 20
18561.460974000001
 30
0.0
 11
10743.493125000001
 21
18983.141267999999
 31
0.0
  0
LINE
  5
3D85
  8
0-1
  6
CONTINUOUS
 62
     3
 10
9958.1745540000029
 20
6491.455444000002
 30
0.0
 11
12371.17405299999
 21
6491.455444000002
 31
0.0
  0
LINE
  5
3D86
  8
0-1
  6
CONTINUOUS
 62
     3
 10
9835.6717170000029
 20
6441.4552789999998
 30
0.0
 11
15056.67315499998
 21
6441.4552789999998
 31
0.0
  0
LINE
  5
3D87
  8
0-1
  6
CONTINUOUS
 62
     3
 10
9153.1726410000028
 20
6341.4554440000011
 30
0.0
 11
15056.67315499998
 21
6341.4554440000011
 31
0.0
  0
LINE
  5
3D88
  8
0-1
  6
CONTINUOUS
 62
     3
 10
9863.1734980000001
 20
8352.500333
 30
0.0
 11
15024.173353
 21
8352.500333
 31
0.0
  0
LINE
  5
3D89
  8
0-1
  6
CONTINUOUS
 62
     3
 10
9669.1490050000011
 20
8513.4119339999979
 30
0.0
 11
15129.86974799999
 21
8704.7729849999978
 31
0.0
  0
LINE
  5
3D8A
  8
0-1
  6
CONTINUOUS
 62
     3
 10
15128.46824899999
 20
8744.7473840000002
 30
0.0
 11
9667.7465160000011
 21
8553.3873220000005
 31
0.0
  0
LINE
  5
3D8B
  8
0-1
  6
CONTINUOUS
 62
     3
 10
9664.8524600000019
 20
8550.2844270000005
 30
0.0
 11
9666.0441300000039
 21
8516.3050010000006
 31
0.0
  0
LINE
  5
3D8C
  8
0-1
  6
CONTINUOUS
 62
     3
 10
15147.862581999991
 20
8790.4564470000023
 30
0.0
 11
9668.1711230000001
 21
8598.4292879999975
 31
0.0
  0
LINE
  5
3D8D
  8
0-1
  6
CONTINUOUS
 62
     3
 10
9663.3490160000001
 20
8593.2577960000017
 30
0.0
 11
9664.4694230000041
 21
8561.2766940000001
 31
0.0
  0
LINE
  5
3D8E
  8
0-1
  6
CONTINUOUS
 62
     3
 10
9667.5723190000008
 20
8558.3846169999997
 30
0.0
 11
15128.29504099999
 21
8749.7446779999973
 31
0.0
  0
LINE
  5
3D8F
  8
0-1
  6
CONTINUOUS
 62
     3
 10
15130.044934999991
 20
8699.7756910000007
 30
0.0
 11
9669.3232030000017
 21
8508.4146399999972
 31
0.0
  0
LINE
  5
3D90
  8
0-1
  6
CONTINUOUS
 62
     3
 10
9666.4291470000026
 20
8505.3117440000005
 30
0.0
 11
9666.4291470000026
 21
8505.3770680000016
 31
0.0
  0
LINE
  5
3D91
  8
0-1
  6
CONTINUOUS
 62
     3
 10
9666.4291470000026
 20
8505.3770680000016
 30
0.0
 11
9667.5505439999997
 21
8473.3306420000044
 31
0.0
  0
LINE
  5
3D92
  8
0-1
  6
CONTINUOUS
 62
     3
 10
9672.7240160000001
 20
8468.5095249999977
 30
0.0
 11
15152.415475
 21
8660.5356939999983
 31
0.0
  0
LINE
  5
3D93
  8
0-1
  6
CONTINUOUS
 62
     3
 10
11008.173564000001
 20
8352.500333
 30
0.0
 11
11008.173564000001
 21
6491.455444000002
 31
0.0
  0
LINE
  5
3D94
  8
0-1
  6
CONTINUOUS
 62
     3
 10
10971.17240299998
 20
8352.500333
 30
0.0
 11
10971.17240299998
 21
6491.455444000002
 31
0.0
  0
LINE
  5
3D95
  8
0-1
  6
CONTINUOUS
 62
     3
 10
10308.172245
 20
8352.500333
 30
0.0
 11
10308.172245
 21
6491.455444000002
 31
0.0
  0
LINE
  5
3D96
  8
0-1
  6
CONTINUOUS
 62
     3
 10
10271.17108299999
 20
8352.500333
 30
0.0
 11
10271.17108299999
 21
6491.455444000002
 31
0.0
  0
LINE
  5
3D97
  8
0-1
  6
CONTINUOUS
 62
     3
 10
11708.17389399999
 20
8352.500333
 30
0.0
 11
11708.17389399999
 21
6491.455444000002
 31
0.0
  0
LINE
  5
3D98
  8
0-1
  6
CONTINUOUS
 62
     3
 10
11671.173723
 20
8352.500333
 30
0.0
 11
11671.173723
 21
6491.455444000002
 31
0.0
  0
LINE
  5
3D99
  8
0-1
  6
CONTINUOUS
 62
     3
 10
11329.671136000001
 20
6491.455444000002
 30
0.0
 11
11329.671136000001
 21
8352.500333
 31
0.0
  0
LINE
  5
3D9A
  8
0-1
  6
CONTINUOUS
 62
     3
 10
11349.672191999991
 20
6491.455444000002
 30
0.0
 11
11349.672191999991
 21
8352.500333
 31
0.0
  0
LINE
  5
3D9B
  8
0-1
  6
CONTINUOUS
 62
     3
 10
11279.673446000001
 20
6491.455444000002
 30
0.0
 11
11279.673446000001
 21
8352.500333
 31
0.0
  0
LINE
  5
3D9C
  8
0-1
  6
CONTINUOUS
 62
     3
 10
11399.67384199998
 20
6491.455444000002
 30
0.0
 11
11399.67384199998
 21
8352.500333
 31
0.0
  0
LINE
  5
3D9D
  8
0-1
  6
CONTINUOUS
 62
     3
 10
11532.673736000001
 20
6491.455444000002
 30
0.0
 11
11532.673736000001
 21
8352.500333
 31
0.0
  0
LINE
  5
3D9E
  8
0-1
  6
CONTINUOUS
 62
     3
 10
11547.672548
 20
6491.455444000002
 30
0.0
 11
11547.672548
 21
8352.500333
 31
0.0
  0
LINE
  5
3D9F
  8
0-1
  6
CONTINUOUS
 62
     3
 10
11146.673551
 20
6491.455444000002
 30
0.0
 11
11146.673551
 21
8352.500333
 31
0.0
  0
LINE
  5
3DA0
  8
0-1
  6
CONTINUOUS
 62
     3
 10
11131.671770000001
 20
6491.455444000002
 30
0.0
 11
11131.671770000001
 21
8352.500333
 31
0.0
  0
LINE
  5
3DA1
  8
0-1
  6
CONTINUOUS
 62
     3
 10
10431.672430000001
 20
6491.455444000002
 30
0.0
 11
10431.672430000001
 21
8352.500333
 31
0.0
  0
LINE
  5
3DA2
  8
0-1
  6
CONTINUOUS
 62
     3
 10
10446.672232000001
 20
6491.455444000002
 30
0.0
 11
10446.672232000001
 21
8352.500333
 31
0.0
  0
LINE
  5
3DA3
  8
0-1
  6
CONTINUOUS
 62
     3
 10
10847.672217999991
 20
6491.455444000002
 30
0.0
 11
10847.672217999991
 21
8352.500333
 31
0.0
  0
LINE
  5
3DA4
  8
0-1
  6
CONTINUOUS
 62
     3
 10
10832.673405999991
 20
6491.455444000002
 30
0.0
 11
10832.673405999991
 21
8352.500333
 31
0.0
  0
LINE
  5
3DA5
  8
0-1
  6
CONTINUOUS
 62
     3
 10
10699.674501
 20
6491.455444000002
 30
0.0
 11
10699.674501
 21
8352.500333
 31
0.0
  0
LINE
  5
3DA6
  8
0-1
  6
CONTINUOUS
 62
     3
 10
10579.67212599999
 20
6491.455444000002
 30
0.0
 11
10579.67212599999
 21
8352.500333
 31
0.0
  0
LINE
  5
3DA7
  8
0-1
  6
CONTINUOUS
 62
     3
 10
10649.672852
 20
6491.455444000002
 30
0.0
 11
10649.672852
 21
8352.500333
 31
0.0
  0
LINE
  5
3DA8
  8
0-1
  6
CONTINUOUS
 62
     3
 10
10629.673775999991
 20
6491.455444000002
 30
0.0
 11
10629.673775999991
 21
8352.500333
 31
0.0
  0
LINE
  5
3DA9
  8
0-1
  6
CONTINUOUS
 62
     3
 10
9958.1745540000029
 20
8352.500333
 30
0.0
 11
9958.1745540000029
 21
6441.4552789999998
 31
0.0
  0
LINE
  5
3DAA
  8
0-1
  6
CONTINUOUS
 62
     3
 10
11831.673089
 20
6491.455444000002
 30
0.0
 11
11831.673089
 21
8352.500333
 31
0.0
  0
LINE
  5
3DAB
  8
0-1
  6
CONTINUOUS
 62
     3
 10
11846.67487099999
 20
6491.455444000002
 30
0.0
 11
11846.67487099999
 21
8352.500333
 31
0.0
  0
LINE
  5
3DAC
  8
0-1
  6
CONTINUOUS
 62
     3
 10
9863.1734980000001
 20
8475.1844610000007
 30
0.0
 11
9863.1734980000001
 21
6441.4552789999998
 31
0.0
  0
LINE
  5
3DAD
  8
0-1
  6
CONTINUOUS
 62
     3
 10
9843.1724430000031
 20
8474.4827220000006
 30
0.0
 11
9843.1724430000031
 21
6441.4552789999998
 31
0.0
  0
LINE
  5
3DAE
  8
0-1
  6
CONTINUOUS
 62
     3
 10
9835.6717170000029
 20
6341.4554440000011
 30
0.0
 11
9835.6717170000029
 21
6441.4552789999998
 31
0.0
  0
LINE
  5
3DAF
  8
0-1
  6
CONTINUOUS
 62
     3
 10
9680.6608959999994
 20
8598.8677520000001
 30
0.0
 11
9685.2137880000046
 21
8468.9469979999976
 31
0.0
  0
LINE
  5
3DB0
  8
0-1
  6
CONTINUOUS
 62
     3
 10
12516.17378899998
 20
6491.455444000002
 30
0.0
 11
14929.173286999991
 21
6491.455444000002
 31
0.0
  0
LINE
  5
3DB1
  8
0-1
  6
CONTINUOUS
 62
     3
 10
12857.674395999989
 20
6491.455444000002
 30
0.0
 11
12857.674395999989
 21
8352.500333
 31
0.0
  0
LINE
  5
3DB2
  8
0-1
  6
CONTINUOUS
 62
     3
 10
12837.672350000001
 20
6491.455444000002
 30
0.0
 11
12837.672350000001
 21
8352.500333
 31
0.0
  0
LINE
  5
3DB3
  8
0-1
  6
CONTINUOUS
 62
     3
 10
12907.672086
 20
6491.455444000002
 30
0.0
 11
12907.672086
 21
8352.500333
 31
0.0
  0
LINE
  5
3DB4
  8
0-1
  6
CONTINUOUS
 62
     3
 10
12787.672679999991
 20
6491.455444000002
 30
0.0
 11
12787.672679999991
 21
8352.500333
 31
0.0
  0
LINE
  5
3DB5
  8
0-1
  6
CONTINUOUS
 62
     3
 10
12654.671796000001
 20
6491.455444000002
 30
0.0
 11
12654.671796000001
 21
8352.500333
 31
0.0
  0
LINE
  5
3DB6
  8
0-1
  6
CONTINUOUS
 62
     3
 10
12639.672984000001
 20
6491.455444000002
 30
0.0
 11
12639.672984000001
 21
8352.500333
 31
0.0
  0
LINE
  5
3DB7
  8
0-1
  6
CONTINUOUS
 62
     3
 10
13040.672970999991
 20
6491.455444000002
 30
0.0
 11
13040.672970999991
 21
8352.500333
 31
0.0
  0
LINE
  5
3DB8
  8
0-1
  6
CONTINUOUS
 62
     3
 10
13055.673762
 20
6491.455444000002
 30
0.0
 11
13055.673762
 21
8352.500333
 31
0.0
  0
LINE
  5
3DB9
  8
0-1
  6
CONTINUOUS
 62
     3
 10
14257.67208599999
 20
6491.455444000002
 30
0.0
 11
14257.67208599999
 21
8352.500333
 31
0.0
  0
LINE
  5
3DBA
  8
0-1
  6
CONTINUOUS
 62
     3
 10
14237.674000000001
 20
6491.455444000002
 30
0.0
 11
14237.674000000001
 21
8352.500333
 31
0.0
  0
LINE
  5
3DBB
  8
0-1
  6
CONTINUOUS
 62
     3
 10
14307.673735999981
 20
6491.455444000002
 30
0.0
 11
14307.673735999981
 21
8352.500333
 31
0.0
  0
LINE
  5
3DBC
  8
0-1
  6
CONTINUOUS
 62
     3
 10
14187.672350000001
 20
6491.455444000002
 30
0.0
 11
14187.672350000001
 21
8352.500333
 31
0.0
  0
LINE
  5
3DBD
  8
0-1
  6
CONTINUOUS
 62
     3
 10
14054.673446000001
 20
6491.455444000002
 30
0.0
 11
14054.673446000001
 21
8352.500333
 31
0.0
  0
LINE
  5
3DBE
  8
0-1
  6
CONTINUOUS
 62
     3
 10
14039.672654
 20
6491.455444000002
 30
0.0
 11
14039.672654
 21
8352.500333
 31
0.0
  0
LINE
  5
3DBF
  8
0-1
  6
CONTINUOUS
 62
     3
 10
14440.672640999999
 20
6491.455444000002
 30
0.0
 11
14440.672640999999
 21
8352.500333
 31
0.0
  0
LINE
  5
3DC0
  8
0-1
  6
CONTINUOUS
 62
     3
 10
14455.671453000001
 20
6491.455444000002
 30
0.0
 11
14455.671453000001
 21
8352.500333
 31
0.0
  0
LINE
  5
3DC1
  8
0-1
  6
CONTINUOUS
 62
     3
 10
13755.672113000001
 20
6491.455444000002
 30
0.0
 11
13755.672113000001
 21
8352.500333
 31
0.0
  0
LINE
  5
3DC2
  8
0-1
  6
CONTINUOUS
 62
     3
 10
13740.67330099999
 20
6491.455444000002
 30
0.0
 11
13740.67330099999
 21
8352.500333
 31
0.0
  0
LINE
  5
3DC3
  8
0-1
  6
CONTINUOUS
 62
     3
 10
13339.673314
 20
6491.455444000002
 30
0.0
 11
13339.673314
 21
8352.500333
 31
0.0
  0
LINE
  5
3DC4
  8
0-1
  6
CONTINUOUS
 62
     3
 10
13354.674106
 20
6491.455444000002
 30
0.0
 11
13354.674106
 21
8352.500333
 31
0.0
  0
LINE
  5
3DC5
  8
0-1
  6
CONTINUOUS
 62
     3
 10
13487.67300999999
 20
6491.455444000002
 30
0.0
 11
13487.67300999999
 21
8352.500333
 31
0.0
  0
LINE
  5
3DC6
  8
0-1
  6
CONTINUOUS
 62
     3
 10
13607.67439599998
 20
6491.455444000002
 30
0.0
 11
13607.67439599998
 21
8352.500333
 31
0.0
  0
LINE
  5
3DC7
  8
0-1
  6
CONTINUOUS
 62
     3
 10
13537.67268
 20
6491.455444000002
 30
0.0
 11
13537.67268
 21
8352.500333
 31
0.0
  0
LINE
  5
3DC8
  8
0-1
  6
CONTINUOUS
 62
     3
 10
13557.673736000001
 20
6491.455444000002
 30
0.0
 11
13557.673736000001
 21
8352.500333
 31
0.0
  0
LINE
  5
3DC9
  8
0-1
  6
CONTINUOUS
 62
     3
 10
13216.173129000001
 20
8352.500333
 30
0.0
 11
13216.173129000001
 21
6491.455444000002
 31
0.0
  0
LINE
  5
3DCA
  8
0-1
  6
CONTINUOUS
 62
     3
 10
13179.173946999999
 20
8352.500333
 30
0.0
 11
13179.173946999999
 21
6491.455444000002
 31
0.0
  0
LINE
  5
3DCB
  8
0-1
  6
CONTINUOUS
 62
     3
 10
13916.17246899999
 20
8352.500333
 30
0.0
 11
13916.17246899999
 21
6491.455444000002
 31
0.0
  0
LINE
  5
3DCC
  8
0-1
  6
CONTINUOUS
 62
     3
 10
13879.173286999991
 20
8352.500333
 30
0.0
 11
13879.173286999991
 21
6491.455444000002
 31
0.0
  0
LINE
  5
3DCD
  8
0-1
  6
CONTINUOUS
 62
     3
 10
12371.17405299999
 20
8352.500333
 30
0.0
 11
12371.17405299999
 21
6441.4552789999998
 31
0.0
  0
LINE
  5
3DCE
  8
0-1
  6
CONTINUOUS
 62
     3
 10
12516.17378899998
 20
8352.500333
 30
0.0
 11
12516.17378899998
 21
6441.4552789999998
 31
0.0
  0
LINE
  5
3DCF
  8
0-1
  6
CONTINUOUS
 62
     3
 10
12247.673867999991
 20
6491.455444000002
 30
0.0
 11
12247.673867999991
 21
8352.500333
 31
0.0
  0
LINE
  5
3DD0
  8
0-1
  6
CONTINUOUS
 62
     3
 10
12232.672086
 20
6491.455444000002
 30
0.0
 11
12232.672086
 21
8352.500333
 31
0.0
  0
LINE
  5
3DD1
  8
0-1
  6
CONTINUOUS
 62
     3
 10
12099.672192
 20
6491.455444000002
 30
0.0
 11
12099.672192
 21
8352.500333
 31
0.0
  0
LINE
  5
3DD2
  8
0-1
  6
CONTINUOUS
 62
     3
 10
11979.674765
 20
6491.455444000002
 30
0.0
 11
11979.674765
 21
8352.500333
 31
0.0
  0
LINE
  5
3DD3
  8
0-1
  6
CONTINUOUS
 62
     3
 10
12049.674501
 20
6491.455444000002
 30
0.0
 11
12049.674501
 21
8352.500333
 31
0.0
  0
LINE
  5
3DD4
  8
0-1
  6
CONTINUOUS
 62
     3
 10
12029.67245599998
 20
6491.455444000002
 30
0.0
 11
12029.67245599998
 21
8352.500333
 31
0.0
  0
LINE
  5
3DD5
  8
0-1
  6
CONTINUOUS
 62
     3
 10
12443.673920999991
 20
8565.6118389999974
 30
0.0
 11
12443.673920999991
 21
8352.500333
 31
0.0
  0
LINE
  5
3DD6
  8
0-1
  6
CONTINUOUS
 62
     3
 10
12443.673920999991
 20
8565.6118389999974
 30
0.0
 11
12439.12003799999
 21
8695.5316029999976
 31
0.0
  0
LINE
  5
3DD7
  8
0-1
  6
CONTINUOUS
 62
     3
 10
14616.172799
 20
8352.500333
 30
0.0
 11
14616.172799
 21
6491.455444000002
 31
0.0
  0
LINE
  5
3DD8
  8
0-1
  6
CONTINUOUS
 62
     3
 10
14579.172627
 20
8352.500333
 30
0.0
 11
14579.172627
 21
6491.455444000002
 31
0.0
  0
LINE
  5
3DD9
  8
0-1
  6
CONTINUOUS
 62
     3
 10
15024.173353
 20
8656.040207
 30
0.0
 11
15024.173353
 21
6441.4552789999998
 31
0.0
  0
LINE
  5
3DDA
  8
0-1
  6
CONTINUOUS
 62
     3
 10
15044.17242999999
 20
8656.740957
 30
0.0
 11
15044.17242999999
 21
6441.4552789999998
 31
0.0
  0
LINE
  5
3DDB
  8
0-1
  6
CONTINUOUS
 62
     3
 10
14929.173286999991
 20
8352.500333
 30
0.0
 11
14929.173286999991
 21
6441.4552789999998
 31
0.0
  0
LINE
  5
3DDC
  8
0-1
  6
CONTINUOUS
 62
     3
 10
15056.67315499998
 20
6441.4552789999998
 30
0.0
 11
15056.67315499998
 21
6341.4554440000011
 31
0.0
  0
LINE
  5
3DDD
  8
0-1
  6
CONTINUOUS
 62
     3
 10
15119.45352099999
 20
8659.3796550000025
 30
0.0
 11
15114.901618
 21
8789.2994190000027
 31
0.0
  0
LINE
  5
3DDE
  8
0-1
  6
CONTINUOUS
 62
     3
 10
12753.259738999999
 20
14498.460631
 30
0.0
 11
12753.259738999999
 21
14342.459720000001
 31
0.0
  0
LINE
  5
3DDF
  8
0-5
  6
CONTINUOUS
 62
     4
 10
15699.17335299998
 20
6341.4554440000011
 30
0.0
 11
20213.926705000002
 21
6341.4554440000011
 31
0.0
  0
LINE
  5
3DE0
  8
0-5
  6
CONTINUOUS
 62
     4
 10
15136.673418999961
 20
6341.4554440000011
 30
0.0
 11
19423.962204999982
 21
6341.4554440000011
 31
0.0
  0
LINE
  5
3DE1
  8
0-5
  6
CONTINUOUS
 62
     4
 10
9925.6748180000031
 20
5141.454948999999
 30
0.0
 11
12403.673789
 21
5141.454948999999
 31
0.0
  0
LINE
  5
3DE2
  8
0-5
  6
CONTINUOUS
 62
     4
 10
15004.173287
 20
9589.4544810000025
 30
0.0
 11
9883.1745540000029
 21
9589.4544810000025
 31
0.0
  0
LINE
  5
3DE3
  8
0-5
  6
CONTINUOUS
 62
     4
 10
9633.173235000002
 20
9989.4558010000001
 30
0.0
 11
15154.173287
 21
9989.4558010000001
 31
0.0
  0
LINE
  5
3DE4
  8
0-5
  6
CONTINUOUS
 62
     4
 10
9883.1745540000029
 20
4741.4551139999976
 30
0.0
 11
15004.173287
 21
4741.4551139999976
 31
0.0
  0
LINE
  5
3DE5
  8
0-5
  6
CONTINUOUS
 62
     4
 10
9885.6717170000011
 20
5998.8017679999984
 30
0.0
 11
9885.6717170000011
 21
4821.4548830000012
 31
0.0
  0
LINE
  5
3DE6
  8
0-5
  6
CONTINUOUS
 62
     4
 10
9843.1724430000031
 20
6261.4551799999999
 30
0.0
 11
9843.1724430000031
 21
4661.4553450000003
 31
0.0
  0
LINE
  5
3DE7
  8
0-5
  6
CONTINUOUS
 62
     4
 10
9885.6717170000011
 20
4661.4553450000003
 30
0.0
 11
9885.6717170000011
 21
4501.4548169999989
 31
0.0
  0
LINE
  5
3DE8
  8
0-5
  6
CONTINUOUS
 62
     4
 10
9823.1733660000064
 20
5141.454948999999
 30
0.0
 11
9355.0865049999993
 21
5141.454948999999
 31
0.0
  0
LINE
  5
3DE9
  8
0-5
  6
CONTINUOUS
 62
     4
 10
9843.1724430000031
 20
8680.7455890000001
 30
0.0
 11
9843.1724430000031
 21
9669.4547449999991
 31
0.0
  0
LINE
  5
3DEA
  8
0-5
  6
CONTINUOUS
 62
     4
 10
9663.1738280000045
 20
8673.4540319999978
 30
0.0
 11
9663.1738280000045
 21
10069.455075
 31
0.0
  0
LINE
  5
3DEB
  8
0-5
  6
CONTINUOUS
 62
     4
 10
9593.1721130000005
 20
8596.9545469999975
 30
0.0
 11
8673.1740260000006
 21
8596.9545469999975
 31
0.0
  0
LINE
  5
3DEC
  8
0-5
  6
CONTINUOUS
 62
     4
 10
9755.6724419999991
 20
6441.4552789999998
 30
0.0
 11
8673.1740260000006
 21
6441.4552789999998
 31
0.0
  0
LINE
  5
3DED
  8
0-5
  6
CONTINUOUS
 62
     4
 10
8753.1742899999954
 20
6481.4554109999981
 30
0.0
 11
8753.1742899999954
 21
8556.9554050000006
 31
0.0
  0
LINE
  5
3DEE
  8
0-5
  6
CONTINUOUS
 62
     4
 10
9623.1717169999993
 20
9589.4544810000025
 30
0.0
 11
9173.649771000004
 21
9589.4544810000025
 31
0.0
  0
LINE
  5
3DEF
  8
0-5
  6
CONTINUOUS
 62
     4
 10
9843.1724430000031
 20
9589.4544810000025
 30
0.0
 11
9663.1738280000045
 21
9589.4544810000025
 31
0.0
  0
LINE
  5
3DF0
  8
0-5
  6
CONTINUOUS
 62
     4
 10
12443.673920999991
 20
5998.8017679999984
 30
0.0
 11
12443.673920999991
 21
5061.4551799999999
 31
0.0
  0
LINE
  5
3DF1
  8
0-5
  6
CONTINUOUS
 62
     4
 10
15044.17242999999
 20
6261.4551799999999
 30
0.0
 11
15044.17242999999
 21
4661.4553450000003
 31
0.0
  0
LINE
  5
3DF2
  8
0-5
  6
CONTINUOUS
 62
     4
 10
15001.67315499998
 20
5998.8017679999984
 30
0.0
 11
15001.67315499998
 21
4821.4548830000012
 31
0.0
  0
LINE
  5
3DF3
  8
0-5
  6
CONTINUOUS
 62
     4
 10
12483.673063
 20
5141.454948999999
 30
0.0
 11
14961.67203399999
 21
5141.454948999999
 31
0.0
  0
LINE
  5
3DF4
  8
0-5
  6
CONTINUOUS
 62
     4
 10
12443.673920999991
 20
4661.4553450000003
 30
0.0
 11
12443.673920999991
 21
4501.4548169999989
 31
0.0
  0
LINE
  5
3DF5
  8
0-5
  6
CONTINUOUS
 62
     4
 10
15001.67315499998
 20
4661.4553450000003
 30
0.0
 11
15001.67315499998
 21
4501.4548169999989
 31
0.0
  0
LINE
  5
3DF6
  8
0-5
  6
CONTINUOUS
 62
     4
 10
15064.171506000001
 20
5141.454948999999
 30
0.0
 11
15532.25836699998
 21
5141.454948999999
 31
0.0
  0
LINE
  5
3DF7
  8
0-5
  6
CONTINUOUS
 62
     4
 10
15194.172429999981
 20
8869.4540849999994
 30
0.0
 11
15194.172429999981
 21
10069.455075
 31
0.0
  0
LINE
  5
3DF8
  8
0-5
  6
CONTINUOUS
 62
     4
 10
15044.17242999999
 20
8862.2377500000002
 30
0.0
 11
15044.17242999999
 21
9669.4547449999991
 31
0.0
  0
LINE
  5
3DF9
  8
0-5
  6
CONTINUOUS
 62
     4
 10
16134.173551
 20
6481.4554109999981
 30
0.0
 11
16134.173551
 21
8750.4563149999994
 31
0.0
  0
LINE
  5
3DFA
  8
0-5
  6
CONTINUOUS
 62
     4
 10
15136.673418999961
 20
6441.4552789999998
 30
0.0
 11
16854.133366999991
 21
6441.4552789999998
 31
0.0
  0
LINE
  5
3DFB
  8
0-5
  6
CONTINUOUS
 62
     4
 10
16641.757747
 20
6649.3012660000013
 30
0.0
 11
16761.758142999999
 21
6441.4552789999998
 31
0.0
  0
LINE
  5
3DFC
  8
0-5
  6
CONTINUOUS
 62
     4
 10
16761.758142999999
 20
6441.4552789999998
 30
0.0
 11
16881.757549000002
 21
6649.3012660000013
 31
0.0
  0
LINE
  5
3DFD
  8
0-5
  6
CONTINUOUS
 62
     4
 10
16881.757549000002
 20
6649.3012660000013
 30
0.0
 11
16641.757747
 21
6649.3012660000013
 31
0.0
  0
LINE
  5
3DFE
  8
0-5
  6
CONTINUOUS
 62
     4
 10
15292.88904199999
 20
8790.4564470000023
 30
0.0
 11
16214.173815
 21
8790.4564470000023
 31
0.0
  0
LINE
  5
3DFF
  8
0-5
  6
CONTINUOUS
 62
     4
 10
15044.17242999999
 20
9589.4544810000025
 30
0.0
 11
15194.172429999981
 21
9589.4544810000025
 31
0.0
  0
LINE
  5
3E00
  8
0-5
  6
CONTINUOUS
 62
     4
 10
15234.173551
 20
9589.4544810000025
 30
0.0
 11
15683.696486999999
 21
9589.4544810000025
 31
0.0
  0
LINE
  5
3E01
  8
0-5
  6
CONTINUOUS
 62
     4
 10
9873.1730370000005
 20
4741.4551139999976
 30
0.0
 11
9903.1736300000048
 21
4741.4551139999976
 31
0.0
  0
LINE
  5
3E02
  8
0-5
  6
CONTINUOUS
 62
     4
 10
9875.6711890000006
 20
5141.454948999999
 30
0.0
 11
9845.6745540000029
 21
5141.454948999999
 31
0.0
  0
LINE
  5
3E03
  8
0-5
  6
CONTINUOUS
 62
     4
 10
9853.1719809999995
 20
5141.454948999999
 30
0.0
 11
9883.1745540000029
 21
5141.454948999999
 31
0.0
  0
LINE
  5
3E04
  8
0-5
  6
CONTINUOUS
 62
     4
 10
9935.6733660000045
 20
5141.454948999999
 30
0.0
 11
9965.6719810000031
 21
5141.454948999999
 31
0.0
  0
LINE
  5
3E05
  8
0-5
  6
CONTINUOUS
 62
     4
 10
8753.1742899999954
 20
6471.4548829999976
 30
0.0
 11
8753.1742899999954
 21
6501.4554769999986
 31
0.0
  0
LINE
  5
3E06
  8
0-5
  6
CONTINUOUS
 62
     4
 10
8753.1742899999954
 20
8566.9549430000006
 30
0.0
 11
8753.1742899999954
 21
8536.9543489999978
 31
0.0
  0
LINE
  5
3E07
  8
0-5
  6
CONTINUOUS
 62
     4
 10
9693.1724429999958
 20
9989.4558010000001
 30
0.0
 11
9723.1730370000023
 21
9989.4558010000001
 31
0.0
  0
LINE
  5
3E08
  8
0-5
  6
CONTINUOUS
 62
     4
 10
9633.173235000002
 20
9589.4544810000025
 30
0.0
 11
9603.1736299999993
 21
9589.4544810000025
 31
0.0
  0
LINE
  5
3E09
  8
0-5
  6
CONTINUOUS
 62
     4
 10
9813.1748180000031
 20
9589.4544810000025
 30
0.0
 11
9783.1722450000016
 21
9589.4544810000025
 31
0.0
  0
LINE
  5
3E0A
  8
0-5
  6
CONTINUOUS
 62
     4
 10
9873.1730370000005
 20
9589.4544810000025
 30
0.0
 11
9903.1736300000048
 21
9589.4544810000025
 31
0.0
  0
LINE
  5
3E0B
  8
0-5
  6
CONTINUOUS
 62
     4
 10
12473.67352499998
 20
5141.454948999999
 30
0.0
 11
12503.672139
 21
5141.454948999999
 31
0.0
  0
LINE
  5
3E0C
  8
0-5
  6
CONTINUOUS
 62
     4
 10
12413.673327
 20
5141.454948999999
 30
0.0
 11
12383.67273299999
 21
5141.454948999999
 31
0.0
  0
LINE
  5
3E0D
  8
0-5
  6
CONTINUOUS
 62
     4
 10
14951.672494999981
 20
5141.454948999999
 30
0.0
 11
14921.672891
 21
5141.454948999999
 31
0.0
  0
LINE
  5
3E0E
  8
0-5
  6
CONTINUOUS
 62
     4
 10
15011.67368299999
 20
5141.454948999999
 30
0.0
 11
15041.67229799999
 21
5141.454948999999
 31
0.0
  0
LINE
  5
3E0F
  8
0-5
  6
CONTINUOUS
 62
     4
 10
15014.173815
 20
4741.4551139999976
 30
0.0
 11
14984.174211
 21
4741.4551139999976
 31
0.0
  0
LINE
  5
3E10
  8
0-5
  6
CONTINUOUS
 62
     4
 10
15034.171902
 20
5141.454948999999
 30
0.0
 11
15004.173287
 21
5141.454948999999
 31
0.0
  0
LINE
  5
3E11
  8
0-5
  6
CONTINUOUS
 62
     4
 10
16134.173551
 20
6471.4548829999976
 30
0.0
 11
16134.173551
 21
6501.4554769999986
 31
0.0
  0
LINE
  5
3E12
  8
0-5
  6
CONTINUOUS
 62
     4
 10
16134.173551
 20
8760.4558530000049
 30
0.0
 11
16134.173551
 21
8730.4552589999967
 31
0.0
  0
LINE
  5
3E13
  8
0-5
  6
CONTINUOUS
 62
     4
 10
15014.173815
 20
9589.4544810000025
 30
0.0
 11
14984.174211
 21
9589.4544810000025
 31
0.0
  0
LINE
  5
3E14
  8
0-5
  6
CONTINUOUS
 62
     4
 10
15074.17302299999
 20
9589.4544810000025
 30
0.0
 11
15104.172627
 21
9589.4544810000025
 31
0.0
  0
LINE
  5
3E15
  8
0-5
  6
CONTINUOUS
 62
     4
 10
15224.173022999999
 20
9589.4544810000025
 30
0.0
 11
15254.172627
 21
9589.4544810000025
 31
0.0
  0
LINE
  5
3E16
  8
0-5
  6
CONTINUOUS
 62
     4
 10
15164.173815
 20
9989.4558010000001
 30
0.0
 11
15134.17421099999
 21
9989.4558010000001
 31
0.0
  0
LINE
  5
3E17
  8
0-6
  6
CONTINUOUS
 62
     6
 10
13996.049013
 20
15540.6457685
 30
0.0
 11
14904.027515
 21
15190.38975150001
 31
0.0
  0
LINE
  5
3E18
  8
0-6
  6
CONTINUOUS
 62
     6
 10
14325.05885799998
 20
15831.44079599999
 30
0.0
 11
14966.348698
 21
16033.68227099998
 31
0.0
  0
LINE
  5
3E19
  8
0-6
  6
CONTINUOUS
 62
     6
 10
13998.486790000001
 20
17198.821959000001
 30
0.0
 11
14904.027515
 21
17507.876066000012
 31
0.0
  0
LINE
  5
3E1A
  8
0-6
  6
CONTINUOUS
 62
     6
 10
13998.486790000001
 20
18657.821959000012
 30
0.0
 11
14904.027515
 21
18966.376725999999
 31
0.0
  0
LINE
  5
3E1B
  8
0-6
  6
CONTINUOUS
 62
     6
 10
9354.3639019999991
 20
14837.474250500019
 30
0.0
 11
8795.8595600000026
 21
13052.46090799999
 31
0.0
  0
LINE
  5
3E1C
  8
0-6
  6
CONTINUOUS
 62
     6
 10
7715.859461
 20
13052.46090799999
 30
0.0
 11
8795.8595600000026
 21
13052.46090799999
 31
0.0
  0
LINE
  5
3E1D
  8
0-6
  6
CONTINUOUS
 62
     6
 10
9649.2854469999984
 20
18899.661011
 30
0.0
 11
10179.786608
 21
18899.661011
 31
0.0
  0
LINE
  5
3E1E
  8
0-6
  6
CONTINUOUS
 62
     6
 10
9550.243204000004
 20
19120.450574999999
 30
0.0
 11
9649.2854469999984
 21
18899.661011
 31
0.0
  0
LINE
  5
3E1F
  8
0-6
  6
CONTINUOUS
 62
     6
 10
9780.6671640000004
 20
20499.183287
 30
0.0
 11
9946.4983640000082
 21
20843.902590999998
 31
0.0
  0
LINE
  5
3E20
  8
0-6
  6
CONTINUOUS
 62
     6
 10
9546.9789780000028
 20
20035.23955799999
 30
0.0
 11
9719.0021910000014
 21
20371.001541000001
 31
0.0
  0
LINE
  5
3E21
  8
0-6
  6
CONTINUOUS
 62
     6
 10
9946.4983640000082
 20
20843.902590999998
 30
0.0
 11
11599.34491199998
 21
20843.902590999998
 31
0.0
  0
LINE
  5
3E22
  8
0-6
  6
CONTINUOUS
 62
     6
 10
11636.05409399999
 20
13542.46005
 30
0.0
 11
12498.633275
 21
13542.46005
 31
0.0
  0
LINE
  5
3E23
  8
0-6
  6
CONTINUOUS
 62
     6
 10
11229.94199999999
 20
14205.992699
 30
0.0
 11
11636.05409399999
 21
13542.46005
 31
0.0
  0
LINE
  5
3E24
  8
0-6
  6
CONTINUOUS
 62
     6
 10
11864.761732000001
 20
14911.0311815
 30
0.0
 11
12664.760412999991
 21
14911.0311815
 31
0.0
  0
LINE
  5
3E25
  8
0-6
  6
CONTINUOUS
 62
     6
 10
11781.87434
 20
14734.0919125
 30
0.0
 11
11864.761732000001
 21
14911.0311815
 31
0.0
  0
LINE
  5
3E26
  8
0-6
  6
CONTINUOUS
 62
     6
 10
11587.656843999999
 20
16232.49027099999
 30
0.0
 11
12535.60177399999
 21
16232.49027099999
 31
0.0
  0
LINE
  5
3E27
  8
0-6
  6
CONTINUOUS
 62
     6
 10
12696.26049199999
 20
15807.466846999991
 30
0.0
 11
12535.60177399999
 21
16232.49027099999
 31
0.0
  0
LINE
  5
3E28
  8
0-6
  6
CONTINUOUS
 62
     6
 10
11715.128933
 20
20122.461105999999
 30
0.0
 11
12232.818571
 21
20122.461105999999
 31
0.0
  0
LINE
  5
3E29
  8
0-6
  6
CONTINUOUS
 62
     6
 10
11571.225850000001
 20
19610.18545099999
 30
0.0
 11
11715.128933
 21
20122.461105999999
 31
0.0
  0
LINE
  5
3E2A
  8
0-6
  6
CONTINUOUS
 62
     6
 10
9574.5744570000043
 20
19131.36761999999
 30
0.0
 11
9484.7597390000028
 21
19266.436110999992
 31
0.0
  0
LINE
  5
3E2B
  8
0-6
  6
CONTINUOUS
 62
     6
 10
9484.7597390000028
 20
19266.436110999992
 30
0.0
 11
9525.9139309999991
 21
19109.537488999991
 31
0.0
  0
LINE
  5
3E2C
  8
0-6
  6
CONTINUOUS
 62
     6
 10
9484.7597390000028
 20
19266.436110999992
 30
0.0
 11
9574.5744570000043
 21
19131.36761999999
 31
0.0
  0
LINE
  5
3E2D
  8
0-6
  6
CONTINUOUS
 62
     6
 10
9574.5744570000043
 20
19131.36761999999
 30
0.0
 11
9525.9139309999991
 21
19109.537488999991
 31
0.0
  0
LINE
  5
3E2E
  8
0-6
  6
CONTINUOUS
 62
     6
 10
9525.9139309999991
 20
19109.537488999991
 30
0.0
 11
9484.7597390000028
 21
19266.436110999992
 31
0.0
  0
LINE
  5
3E2F
  8
0-6
  6
CONTINUOUS
 62
     6
 10
9525.9139309999991
 20
19109.537488999991
 30
0.0
 11
9574.5744570000043
 21
19131.36761999999
 31
0.0
  0
LINE
  5
3E30
  8
0-6
  6
CONTINUOUS
 62
     6
 10
14005.724899999999
 20
15565.4946655
 30
0.0
 11
13846.953653
 21
15598.702079500021
 31
0.0
  0
LINE
  5
3E31
  8
0-6
  6
CONTINUOUS
 62
     6
 10
13846.953653
 20
15598.702079500021
 30
0.0
 11
13986.374116000001
 21
15515.79588250001
 31
0.0
  0
LINE
  5
3E32
  8
0-6
  6
CONTINUOUS
 62
     6
 10
13846.953653
 20
15598.702079500021
 30
0.0
 11
14005.724899999999
 21
15565.4946655
 31
0.0
  0
LINE
  5
3E33
  8
0-6
  6
CONTINUOUS
 62
     6
 10
14005.724899999999
 20
15565.4946655
 30
0.0
 11
13986.374116000001
 21
15515.79588250001
 31
0.0
  0
LINE
  5
3E34
  8
0-6
  6
CONTINUOUS
 62
     6
 10
13986.374116000001
 20
15515.79588250001
 30
0.0
 11
13846.953653
 21
15598.702079500021
 31
0.0
  0
LINE
  5
3E35
  8
0-6
  6
CONTINUOUS
 62
     6
 10
13986.374116000001
 20
15515.79588250001
 30
0.0
 11
14005.724899999999
 21
15565.4946655
 31
0.0
  0
LINE
  5
3E36
  8
0-6
  6
CONTINUOUS
 62
     6
 10
9379.8086340000045
 20
14829.492831500011
 30
0.0
 11
9402.2593440000019
 21
14990.13868250001
 31
0.0
  0
LINE
  5
3E37
  8
0-6
  6
CONTINUOUS
 62
     6
 10
9402.2593440000019
 20
14990.13868250001
 30
0.0
 11
9328.9191699999974
 21
14845.457648500011
 31
0.0
  0
LINE
  5
3E38
  8
0-6
  6
CONTINUOUS
 62
     6
 10
9402.2593440000019
 20
14990.13868250001
 30
0.0
 11
9379.8086340000045
 21
14829.492831500011
 31
0.0
  0
LINE
  5
3E39
  8
0-6
  6
CONTINUOUS
 62
     6
 10
9379.8086340000045
 20
14829.492831500011
 30
0.0
 11
9328.9191699999974
 21
14845.457648500011
 31
0.0
  0
LINE
  5
3E3A
  8
0-6
  6
CONTINUOUS
 62
     6
 10
9328.9191699999974
 20
14845.457648500011
 30
0.0
 11
9402.2593440000019
 21
14990.13868250001
 31
0.0
  0
LINE
  5
3E3B
  8
0-6
  6
CONTINUOUS
 62
     6
 10
9328.9191699999974
 20
14845.457648500011
 30
0.0
 11
9379.8086340000045
 21
14829.492831500011
 31
0.0
  0
LINE
  5
3E3C
  8
0-6
  6
CONTINUOUS
 62
     6
 10
11252.686669000001
 20
14219.91366299999
 30
0.0
 11
11146.415224
 21
14342.459720000001
 31
0.0
  0
LINE
  5
3E3D
  8
0-6
  6
CONTINUOUS
 62
     6
 10
11146.415224
 20
14342.459720000001
 30
0.0
 11
11207.197332
 21
14192.071733999999
 31
0.0
  0
LINE
  5
3E3E
  8
0-6
  6
CONTINUOUS
 62
     6
 10
11146.415224
 20
14342.459720000001
 30
0.0
 11
11252.686669000001
 21
14219.91366299999
 31
0.0
  0
LINE
  5
3E3F
  8
0-6
  6
CONTINUOUS
 62
     6
 10
11252.686669000001
 20
14219.91366299999
 30
0.0
 11
11207.197332
 21
14192.071733999999
 31
0.0
  0
LINE
  5
3E40
  8
0-6
  6
CONTINUOUS
 62
     6
 10
11207.197332
 20
14192.071733999999
 30
0.0
 11
11146.415224
 21
14342.459720000001
 31
0.0
  0
LINE
  5
3E41
  8
0-6
  6
CONTINUOUS
 62
     6
 10
11207.197332
 20
14192.071733999999
 30
0.0
 11
11252.686669000001
 21
14219.91366299999
 31
0.0
  0
LINE
  5
3E42
  8
0-6
  6
CONTINUOUS
 62
     6
 10
11757.727183000001
 20
14745.40486150001
 30
0.0
 11
11714.001597
 21
14584.46081499998
 31
0.0
  0
LINE
  5
3E43
  8
0-6
  6
CONTINUOUS
 62
     6
 10
11714.001597
 20
14584.46081499998
 30
0.0
 11
11806.022488000001
 21
14722.77995350001
 31
0.0
  0
LINE
  5
3E44
  8
0-6
  6
CONTINUOUS
 62
     6
 10
11714.001597
 20
14584.46081499998
 30
0.0
 11
11757.727183000001
 21
14745.40486150001
 31
0.0
  0
LINE
  5
3E45
  8
0-6
  6
CONTINUOUS
 62
     6
 10
11757.727183000001
 20
14745.40486150001
 30
0.0
 11
11806.022488000001
 21
14722.77995350001
 31
0.0
  0
LINE
  5
3E46
  8
0-6
  6
CONTINUOUS
 62
     6
 10
11806.022488000001
 20
14722.77995350001
 30
0.0
 11
11714.001597
 21
14584.46081499998
 31
0.0
  0
LINE
  5
3E47
  8
0-6
  6
CONTINUOUS
 62
     6
 10
11806.022488000001
 20
14722.77995350001
 30
0.0
 11
11757.727183000001
 21
14745.40486150001
 31
0.0
  0
LINE
  5
3E48
  8
0-6
  6
CONTINUOUS
 62
     6
 10
12663.920106999991
 20
15966.417240000001
 30
0.0
 11
12696.26049199999
 21
15807.466846999991
 31
0.0
  0
LINE
  5
3E49
  8
0-6
  6
CONTINUOUS
 62
     6
 10
12696.26049199999
 20
15807.466846999991
 30
0.0
 11
12614.115419
 21
15947.334681
 31
0.0
  0
LINE
  5
3E4A
  8
0-6
  6
CONTINUOUS
 62
     6
 10
12696.26049199999
 20
15807.466846999991
 30
0.0
 11
12663.920106999991
 21
15966.417240000001
 31
0.0
  0
LINE
  5
3E4B
  8
0-6
  6
CONTINUOUS
 62
     6
 10
12663.920106999991
 20
15966.417240000001
 30
0.0
 11
12614.115419
 21
15947.334681
 31
0.0
  0
LINE
  5
3E4C
  8
0-6
  6
CONTINUOUS
 62
     6
 10
12614.115419
 20
15947.334681
 30
0.0
 11
12696.26049199999
 21
15807.466846999991
 31
0.0
  0
LINE
  5
3E4D
  8
0-6
  6
CONTINUOUS
 62
     6
 10
12614.115419
 20
15947.334681
 30
0.0
 11
12663.920106999991
 21
15966.417240000001
 31
0.0
  0
LINE
  5
3E4E
  8
0-6
  6
CONTINUOUS
 62
     6
 10
13989.926362
 20
17224.078636999991
 30
0.0
 11
13846.953653
 21
17147.459390999989
 31
0.0
  0
LINE
  5
3E4F
  8
0-6
  6
CONTINUOUS
 62
     6
 10
13846.953653
 20
17147.459390999989
 30
0.0
 11
14007.04622899999
 21
17173.567260999978
 31
0.0
  0
LINE
  5
3E50
  8
0-6
  6
CONTINUOUS
 62
     6
 10
13846.953653
 20
17147.459390999989
 30
0.0
 11
13989.926362
 21
17224.078636999991
 31
0.0
  0
LINE
  5
3E51
  8
0-6
  6
CONTINUOUS
 62
     6
 10
13989.926362
 20
17224.078636999991
 30
0.0
 11
14007.04622899999
 21
17173.567260999978
 31
0.0
  0
LINE
  5
3E52
  8
0-6
  6
CONTINUOUS
 62
     6
 10
14007.04622899999
 20
17173.567260999978
 30
0.0
 11
13846.953653
 21
17147.459390999989
 31
0.0
  0
LINE
  5
3E53
  8
0-6
  6
CONTINUOUS
 62
     6
 10
14007.04622899999
 20
17173.567260999978
 30
0.0
 11
13989.926362
 21
17224.078636999991
 31
0.0
  0
LINE
  5
3E54
  8
0-6
  6
CONTINUOUS
 62
     6
 10
13989.926362
 20
18683.07863700001
 30
0.0
 11
13846.953653
 21
18606.463350000009
 31
0.0
  0
LINE
  5
3E55
  8
0-6
  6
CONTINUOUS
 62
     6
 10
13846.953653
 20
18606.463350000009
 30
0.0
 11
14007.04622899999
 21
18632.567261
 31
0.0
  0
LINE
  5
3E56
  8
0-6
  6
CONTINUOUS
 62
     6
 10
13846.953653
 20
18606.463350000009
 30
0.0
 11
13989.926362
 21
18683.07863700001
 31
0.0
  0
LINE
  5
3E57
  8
0-6
  6
CONTINUOUS
 62
     6
 10
13989.926362
 20
18683.07863700001
 30
0.0
 11
14007.04622899999
 21
18632.567261
 31
0.0
  0
LINE
  5
3E58
  8
0-6
  6
CONTINUOUS
 62
     6
 10
14007.04622899999
 20
18632.567261
 30
0.0
 11
13846.953653
 21
18606.463350000009
 31
0.0
  0
LINE
  5
3E59
  8
0-6
  6
CONTINUOUS
 62
     6
 10
14007.04622899999
 20
18632.567261
 30
0.0
 11
13989.926362
 21
18683.07863700001
 31
0.0
  0
LINE
  5
3E5A
  8
0-6
  6
CONTINUOUS
 62
     6
 10
14477.84607199998
 20
15905.551003
 30
0.0
 11
14325.05885799998
 21
15831.44079599999
 31
0.0
  0
LINE
  5
3E5B
  8
0-6
  6
CONTINUOUS
 62
     6
 10
14325.05885799998
 20
15831.44079599999
 30
0.0
 11
14494.083073
 21
15854.74764799998
 31
0.0
  0
LINE
  5
3E5C
  8
0-6
  6
CONTINUOUS
 62
     6
 10
14325.05885799998
 20
15831.44079599999
 30
0.0
 11
14477.84607199998
 21
15905.551003
 31
0.0
  0
LINE
  5
3E5D
  8
0-6
  6
CONTINUOUS
 62
     6
 10
14477.84607199998
 20
15905.551003
 30
0.0
 11
14494.083073
 21
15854.74764799998
 31
0.0
  0
LINE
  5
3E5E
  8
0-6
  6
CONTINUOUS
 62
     6
 10
14494.083073
 20
15854.74764799998
 30
0.0
 11
14325.05885799998
 21
15831.44079599999
 31
0.0
  0
LINE
  5
3E5F
  8
0-6
  6
CONTINUOUS
 62
     6
 10
14494.083073
 20
15854.74764799998
 30
0.0
 11
14477.84607199998
 21
15905.551003
 31
0.0
  0
LINE
  5
3E60
  8
0-6
  6
CONTINUOUS
 62
     6
 10
9522.5962579999996
 20
20046.035852000001
 30
0.0
 11
9482.2022010000055
 21
19888.939278000002
 31
0.0
  0
LINE
  5
3E61
  8
0-6
  6
CONTINUOUS
 62
     6
 10
9482.2022010000055
 20
19888.939278000002
 30
0.0
 11
9571.3626879999974
 21
20024.445242999991
 31
0.0
  0
LINE
  5
3E62
  8
0-6
  6
CONTINUOUS
 62
     6
 10
9482.2022010000055
 20
19888.939278000002
 30
0.0
 11
9522.5962579999996
 21
20046.035852000001
 31
0.0
  0
LINE
  5
3E63
  8
0-6
  6
CONTINUOUS
 62
     6
 10
9522.5962579999996
 20
20046.035852000001
 30
0.0
 11
9571.3626879999974
 21
20024.445242999991
 31
0.0
  0
LINE
  5
3E64
  8
0-6
  6
CONTINUOUS
 62
     6
 10
9571.3626879999974
 20
20024.445242999991
 30
0.0
 11
9482.2022010000055
 21
19888.939278000002
 31
0.0
  0
LINE
  5
3E65
  8
0-6
  6
CONTINUOUS
 62
     6
 10
9571.3626879999974
 20
20024.445242999991
 30
0.0
 11
9522.5962579999996
 21
20046.035852000001
 31
0.0
  0
LINE
  5
3E66
  8
0-6
  6
CONTINUOUS
 62
     6
 10
11545.34067499999
 20
19616.585234999991
 30
0.0
 11
11532.839025999991
 21
19454.860546
 31
0.0
  0
LINE
  5
3E67
  8
0-6
  6
CONTINUOUS
 62
     6
 10
11532.839025999991
 20
19454.860546
 30
0.0
 11
11597.114984
 21
19603.789626999991
 31
0.0
  0
LINE
  5
3E68
  8
0-6
  6
CONTINUOUS
 62
     6
 10
11532.839025999991
 20
19454.860546
 30
0.0
 11
11545.34067499999
 21
19616.585234999991
 31
0.0
  0
LINE
  5
3E69
  8
0-6
  6
CONTINUOUS
 62
     6
 10
11545.34067499999
 20
19616.585234999991
 30
0.0
 11
11597.114984
 21
19603.789626999991
 31
0.0
  0
LINE
  5
3E6A
  8
0-6
  6
CONTINUOUS
 62
     6
 10
11597.114984
 20
19603.789626999991
 30
0.0
 11
11532.839025999991
 21
19454.860546
 31
0.0
  0
LINE
  5
3E6B
  8
0-6
  6
CONTINUOUS
 62
     6
 10
11597.114984
 20
19603.789626999991
 30
0.0
 11
11545.34067499999
 21
19616.585234999991
 31
0.0
  0
LINE
  5
3E6C
  8
2-0
  6
DASHED3
 62
     6
 10
12683.260002999999
 20
18561.460974000001
 30
0.0
 11
9554.7594760000029
 21
19669.960974000001
 31
0.0
  0
LINE
  5
3E6D
  8
2-0
  6
DASHED3
 62
     6
 10
9442.2594760000029
 20
19715.96102699999
 30
0.0
 11
14662.260992999991
 21
19715.96102699999
 31
0.0
  0
LINE
  5
3E6E
  8
2-0
  6
DASHED3
 62
     6
 10
9484.7597390000028
 20
19630.96247799999
 30
0.0
 11
14619.759738999999
 21
19630.96247799999
 31
0.0
  0
LINE
  5
3E6F
  8
2-0
  6
DASHED3
 62
     6
 10
9484.7597390000028
 20
19475.330748
 30
0.0
 11
9484.7597390000028
 21
19715.96102699999
 31
0.0
  0
LINE
  5
3E70
  8
2-0
  6
DASHED3
 62
     6
 10
9442.2594760000029
 20
19492.089351999992
 30
0.0
 11
9442.2594760000029
 21
19715.96102699999
 31
0.0
  0
LINE
  5
3E71
  8
2-0
  6
DASHED3
 62
     6
 10
14662.260992999991
 20
16911.536406999981
 30
0.0
 11
14662.260992999991
 21
19715.96102699999
 31
0.0
  0
LINE
  5
3E72
  8
2-0
  6
DASHED3
 62
     6
 10
14619.759738999999
 20
16933.079507999992
 30
0.0
 11
14619.759738999999
 21
19715.96102699999
 31
0.0
  0
LINE
  5
3E73
  8
2-0
  6
DASHED3
 62
     6
 10
11687.368164
 20
18606.463350000009
 30
0.0
 11
14619.759738999999
 21
18606.463350000009
 31
0.0
  0
LINE
  5
3E74
  8
2-0
  6
DASHED3
 62
     6
 10
11915.61556499998
 20
18516.46057900001
 30
0.0
 11
14619.759738999999
 21
18516.46057900001
 31
0.0
  0
LINE
  5
3E75
  8
2-0
  6
DASHED3
 62
     6
 10
14210.009238000001
 20
17136.461184999971
 30
0.0
 11
14619.759738999999
 21
17136.461184999971
 31
0.0
  0
LINE
  5
3E76
  8
2-0
  6
DASHED3
 62
     6
 10
14365.868613000001
 20
17057.460577999991
 30
0.0
 11
14619.759738999999
 21
17057.460577999991
 31
0.0
  0
LINE
  5
3E77
  8
2-0
  6
DASHED3
 62
     6
 10
12753.259738999999
 20
18008.18553100001
 30
0.0
 11
12753.259738999999
 21
18516.46057900001
 31
0.0
  0
LINE
  5
3E78
  8
2-0
  6
DASHED3
 62
     6
 10
12696.26049199999
 20
18142.650269000002
 30
0.0
 11
12696.26049199999
 21
18166.461898000009
 31
0.0
  0
LINE
  5
3E79
  8
2-0
  6
DASHED3
 62
     6
 10
12810.259976999991
 20
17873.722772000001
 30
0.0
 11
12810.259976999991
 21
18166.461898000009
 31
0.0
  0
LINE
  5
3E7A
  8
2-0
  6
DASHED3
 62
     6
 10
12482.941630999991
 20
18468.049471999999
 30
0.0
 11
12289.885121999991
 21
18378.018988
 31
0.0
  0
LINE
  5
3E7B
  8
2-0
  6
DASHED3
 62
     6
 10
12683.260002999999
 20
18561.460974000001
 30
0.0
 11
12545.880424000001
 21
18497.397815
 31
0.0
  0
LINE
  5
3E7C
  8
2-0
  6
DASHED3
 62
     6
 10
12753.259738999999
 20
18606.463350000009
 30
0.0
 11
12753.259738999999
 21
18516.46057900001
 31
0.0
  0
LINE
  5
3E7D
  8
2-0
  6
DASHED3
 62
     6
 10
12842.760702999991
 20
18561.460974000001
 30
0.0
 11
14549.760002999999
 21
19669.960974000001
 31
0.0
  0
LINE
  5
3E7E
  8
2-0
  6
DASHED3
 62
     6
 10
12823.25947599999
 20
19669.960974000001
 30
0.0
 11
14549.760002999999
 21
18561.460974000001
 31
0.0
  0
LINE
  5
3E7F
  8
2-0
  6
DASHED3
 62
     6
 10
12842.760702999991
 20
18561.460974000001
 30
0.0
 11
14549.760002999999
 21
17102.460974000001
 31
0.0
  0
LINE
  5
3E80
  8
0-7
  6
CONTINUOUS
 62
     6
 10
13367.82206799999
 20
17568.340461
 30
0.0
 11
14549.760002999999
 21
18561.460974000001
 31
0.0
  0
LINE
  5
3E81
  8
2-0
  6
DASHED3
 62
     6
 10
10743.493125000001
 20
18983.141267999999
 30
0.0
 11
12683.260002999999
 21
19669.960974000001
 31
0.0
  0
LINE
  5
3E82
  8
0-8
  6
CONTINUOUS
 62
     6
 10
8155.258149000003
 20
14534.960974
 30
0.0
 11
9812.2592910000021
 21
14534.960974
 31
0.0
  0
LINE
  5
3E83
  8
0-8
  6
CONTINUOUS
 62
     6
 10
8155.258149000003
 20
17102.460974000001
 30
0.0
 11
9812.2592910000021
 21
17102.460974000001
 31
0.0
  0
LINE
  5
3E84
  8
0-8
  6
CONTINUOUS
 62
     6
 10
8155.258149000003
 20
19669.960974000001
 30
0.0
 11
9812.2592910000021
 21
19669.960974000001
 31
0.0
  0
LINE
  5
3E85
  8
2-0
  6
DASHED3
 62
     6
 10
9265.960581000003
 20
18561.460974000001
 30
0.0
 11
14918.52550899999
 21
18561.460974000001
 31
0.0
  0
LINE
  5
3E86
  8
2-0
  6
CENTER2
 62
     6
 10
9265.960581000003
 20
15643.701485500011
 30
0.0
 11
14918.52550899999
 21
15643.701485500011
 31
0.0
  0
LINE
  5
3E87
  8
0-8
  6
CONTINUOUS
 62
     6
 10
9484.7597390000028
 20
20912.459259000028
 30
0.0
 11
9484.7597390000028
 21
19962.462556999999
 31
0.0
  0
LINE
  5
3E88
  8
2-0
  6
CENTER2
 62
     6
 10
14294.261508
 20
14534.960974
 30
0.0
 11
14918.52550899999
 21
14534.960974
 31
0.0
  0
LINE
  5
3E89
  8
2-0
  6
CENTER2
 62
     6
 10
14294.261508
 20
17102.460974000001
 30
0.0
 11
14918.52550899999
 21
17102.460974000001
 31
0.0
  0
LINE
  5
3E8A
  8
0-8
  6
CONTINUOUS
 62
     6
 10
12753.259738999999
 20
20912.459259000028
 30
0.0
 11
12753.259738999999
 21
19962.462556999999
 31
0.0
  0
LINE
  5
3E8B
  8
0-8
  6
CONTINUOUS
 62
     6
 10
14619.759738999999
 20
20912.459259000028
 30
0.0
 11
14619.759738999999
 21
19962.462556999999
 31
0.0
  0
LINE
  5
3E8C
  8
2-0
  6
CENTER2
 62
     6
 10
9885.6717170000011
 20
6078.802031000002
 30
0.0
 11
9885.6717170000011
 21
7135.9446289999987
 31
0.0
  0
LINE
  5
3E8D
  8
2-0
  6
CENTER2
 62
     6
 10
12443.673920999991
 20
6078.802031000002
 30
0.0
 11
12443.673920999991
 21
7135.9446289999987
 31
0.0
  0
LINE
  5
3E8E
  8
2-0
  6
CENTER2
 62
     6
 10
15001.67315499998
 20
6078.802031000002
 30
0.0
 11
15001.67315499998
 21
7135.9446289999987
 31
0.0
  0
LINE
  5
3E8F
  8
2-0
  6
DASHED3
 62
     6
 10
14442.31069199999
 20
17018.715460999982
 30
0.0
 11
14549.760002999999
 21
17102.460974000001
 31
0.0
  0
LINE
  5
3E90
  8
2-0
  6
CONTINUOUS
 62
     6
 10
14904.027515
 20
17507.876066000012
 30
0.0
 11
16898.470676000001
 21
17507.876066000012
 31
0.0
  0
LINE
  5
3E91
  8
2-0
  6
CONTINUOUS
 62
     6
 10
14904.027515
 20
18966.378704999999
 30
0.0
 11
16898.470676000001
 21
18966.378704999999
 31
0.0
  0
LINE
  5
3E92
  8
2-0
  6
CONTINUOUS
 62
     6
 10
14904.027515
 20
15190.3887615
 30
0.0
 11
16898.470676000001
 21
15190.3887615
 31
0.0
  0
LINE
  5
3E93
  8
2-0
  6
CONTINUOUS
 62
     6
 10
14966.348698
 20
16033.68227099998
 30
0.0
 11
15846.35061199998
 21
16033.68227099998
 31
0.0
  0
LINE
  5
3E94
  8
2-0
  6
DASHED3
 62
     6
 10
12696.26049199999
 20
18606.463350000009
 30
0.0
 11
12696.26049199999
 21
19630.96247799999
 31
0.0
  0
LINE
  5
3E95
  8
2-0
  6
DASHED3
 62
     6
 10
12753.259738999999
 20
18606.463350000009
 30
0.0
 11
12753.259738999999
 21
19630.96247799999
 31
0.0
  0
LINE
  5
3E96
  8
2-0
  6
DASHED3
 62
     6
 10
12810.259976999991
 20
18606.463350000009
 30
0.0
 11
12810.259976999991
 21
19630.96247799999
 31
0.0
  0
LINE
  5
3E97
  8
2-0
  6
DASHED3
 62
     6
 10
12696.26049199999
 20
18166.461898000009
 30
0.0
 11
12696.26049199999
 21
18516.46057900001
 31
0.0
  0
LINE
  5
3E98
  8
2-0
  6
DASHED3
 62
     6
 10
12810.259976999991
 20
18166.461898000009
 30
0.0
 11
12810.259976999991
 21
18516.46057900001
 31
0.0
  0
ARC
  5
3E99
  8
0-1
  6
CONTINUOUS
 62
     3
 10
9467.7576150000004
 20
19857.462952999991
 30
0.0
 40
5.0
 50
269.9999850001808
 51
0.0
  0
ARC
  5
3E9A
  8
0-1
  6
CONTINUOUS
 62
     3
 10
9467.7576150000004
 20
19887.460577999991
 30
0.0
 40
5.0
 50
0.0
 51
90.0
  0
ARC
  5
3E9B
  8
0-1
  6
CONTINUOUS
 62
     3
 10
9404.2566380000044
 20
19887.460577999991
 30
0.0
 40
5.0
 50
90.0
 51
180.0
  0
ARC
  5
3E9C
  8
0-1
  6
CONTINUOUS
 62
     3
 10
14700.259871
 20
19887.460577999991
 30
0.0
 40
5.0
 50
0.0
 51
90.0
  0
ARC
  5
3E9D
  8
0-1
  6
CONTINUOUS
 62
     3
 10
14636.761863999989
 20
19887.460577999991
 30
0.0
 40
5.0
 50
90.0
 51
180.0
  0
ARC
  5
3E9E
  8
0-1
  6
CONTINUOUS
 62
     3
 10
14636.761863999989
 20
19857.462952999991
 30
0.0
 40
5.0
 50
180.0
 51
269.9999850001808
  0
ARC
  5
3E9F
  8
0-1
  6
CONTINUOUS
 62
     3
 10
15129.169987999991
 20
8724.7601840000007
 30
0.0
 40
20.0
 50
272.00698899981808
 51
92.006988999818205
  0
ARC
  5
3EA0
  8
0-1
  6
CONTINUOUS
 62
     3
 10
9667.8514310000028
 20
8550.3903310000005
 30
0.0
 40
3.0
 50
92.006988999818205
 51
182.00698899999901
  0
ARC
  5
3EA1
  8
0-1
  6
CONTINUOUS
 62
     3
 10
9669.041121000002
 20
8516.4099150000002
 30
0.0
 40
3.0
 50
182.00698899999901
 51
272.00698899981808
  0
ARC
  5
3EA2
  8
0-1
  6
CONTINUOUS
 62
     3
 10
15124.17368299999
 20
8724.5859869999967
 30
0.0
 40
69.999999000000003
 50
293.79377700003357
 51
70.220199999984345
  0
ARC
  5
3EA3
  8
0-1
  6
CONTINUOUS
 62
     3
 10
9668.3443310000002
 20
8593.4319930000001
 30
0.0
 40
5.0
 50
92.006988999818205
 51
182.00698899999901
  0
ARC
  5
3EA4
  8
0-1
  6
CONTINUOUS
 62
     3
 10
9667.4664140000059
 20
8561.3816079999979
 30
0.0
 40
3.0
 50
182.00698899999901
 51
272.00698899981808
  0
ARC
  5
3EA5
  8
0-1
  6
CONTINUOUS
 62
     3
 10
15129.169987999991
 20
8724.7601840000007
 30
0.0
 40
24.999998999999999
 50
272.00698899981808
 51
92.006988999818205
  0
ARC
  5
3EA6
  8
0-1
  6
CONTINUOUS
 62
     3
 10
9669.4281169999995
 20
8505.4166589999968
 30
0.0
 40
3.0
 50
92.006988999818205
 51
182.00698899999901
  0
ARC
  5
3EA7
  8
0-1
  6
CONTINUOUS
 62
     3
 10
9672.5478390000007
 20
8473.5068190000002
 30
0.0
 40
5.0
 50
182.00698899999901
 51
272.00698899981808
  0
ARC
  5
3EA8
  8
0-1
  6
CONTINUOUS
 62
     3
 10
9669.1589029999959
 20
8555.9379319999989
 30
0.0
 40
2.5
 50
272.00698899981808
 51
92.006988999818205
  0
ARC
  5
3EA9
  8
0-1
  6
CONTINUOUS
 62
     3
 10
9670.7336100000048
 20
8510.966239000003
 30
0.0
 40
2.5
 50
272.00698899981808
 51
92.006988999818205
  0
CIRCLE
  5
3EAA
  8
0-5
  6
CONTINUOUS
 62
     4
 10
7955.2599640000026
 20
14534.960974
 30
0.0
 40
199.9999949999999
  0
CIRCLE
  5
3EAB
  8
0-5
  6
CONTINUOUS
 62
     4
 10
7955.2599640000026
 20
17102.460974000001
 30
0.0
 40
199.9999949999999
  0
CIRCLE
  5
3EAC
  8
0-5
  6
CONTINUOUS
 62
     4
 10
7955.2599640000026
 20
19669.960974000001
 30
0.0
 40
199.9999949999999
  0
CIRCLE
  5
3EAD
  8
0-5
  6
CONTINUOUS
 62
     4
 10
9484.7597390000028
 20
21112.455960000021
 30
0.0
 40
199.9999949999999
  0
CIRCLE
  5
3EAE
  8
0-5
  6
CONTINUOUS
 62
     4
 10
12753.259738999999
 20
21112.455960000021
 30
0.0
 40
199.9999949999999
  0
CIRCLE
  5
3EAF
  8
0-5
  6
CONTINUOUS
 62
     4
 10
14619.759738999999
 20
21112.455960000021
 30
0.0
 40
199.9999949999999
  0
CIRCLE
  5
3EB0
  8
0-5
  6
CONTINUOUS
 62
     4
 10
9885.6717170000011
 20
4301.4551470000006
 30
0.0
 40
199.9999949999999
  0
CIRCLE
  5
3EB1
  8
0-5
  6
CONTINUOUS
 62
     4
 10
12443.673920999991
 20
4301.4551470000006
 30
0.0
 40
199.9999949999999
  0
CIRCLE
  5
3EB2
  8
0-5
  6
CONTINUOUS
 62
     4
 10
15001.67315499998
 20
4301.4551470000006
 30
0.0
 40
199.9999949999999
  0
CIRCLE
  5
3EB3
  8
0-5
  6
CONTINUOUS
 62
     4
 10
15128.71667799999
 20
1375.999981999998
 30
0.0
 40
20.0
  0
ARC
  5
3EB4
  8
0-5
  6
CONTINUOUS
 62
     4
 10
15128.71667799999
 20
1375.999981999998
 30
0.0
 40
20.0
 50
180.0
 51
0.0
  0
ARC
  5
3EB5
  8
0-5
  6
CONTINUOUS
 62
     4
 10
15128.71667799999
 20
1375.999981999998
 30
0.0
 40
20.0
 50
0.0
 51
179.99998499999839
  0
CIRCLE
  5
3EB6
  8
0-5
  6
CONTINUOUS
 62
     4
 10
15128.71667799999
 20
1776.0000640000001
 30
0.0
 40
20.0
  0
ARC
  5
3EB7
  8
0-5
  6
CONTINUOUS
 62
     4
 10
15128.71667799999
 20
1776.0000640000001
 30
0.0
 40
20.0
 50
180.0
 51
0.0
  0
ARC
  5
3EB8
  8
0-5
  6
CONTINUOUS
 62
     4
 10
15128.71667799999
 20
1776.0000640000001
 30
0.0
 40
20.0
 50
0.0
 51
179.99998499999839
  0
ARC
  5
3EB9
  8
0-5
  6
CONTINUOUS
 62
     4
 10
9843.1724430000031
 20
4741.4551139999976
 30
0.0
 40
30.0
 50
0.0
 51
179.99998499999839
  0
ARC
  5
3EBA
  8
0-5
  6
CONTINUOUS
 62
     4
 10
9843.1724430000031
 20
4741.4551139999976
 30
0.0
 40
30.0
 50
180.0
 51
0.0
  0
ARC
  5
3EBB
  8
0-5
  6
CONTINUOUS
 62
     4
 10
9905.673762000004
 20
5141.454948999999
 30
0.0
 40
30.0
 50
180.0
 51
0.0
  0
ARC
  5
3EBC
  8
0-5
  6
CONTINUOUS
 62
     4
 10
9905.673762000004
 20
5141.454948999999
 30
0.0
 40
30.0
 50
0.0
 51
179.99998499999839
  0
ARC
  5
3EBD
  8
0-5
  6
CONTINUOUS
 62
     4
 10
9823.1733660000064
 20
5141.454948999999
 30
0.0
 40
30.0
 50
0.0
 51
179.99998499999839
  0
ARC
  5
3EBE
  8
0-5
  6
CONTINUOUS
 62
     4
 10
9823.1733660000064
 20
5141.454948999999
 30
0.0
 40
30.0
 50
180.0
 51
0.0
  0
ARC
  5
3EBF
  8
0-5
  6
CONTINUOUS
 62
     4
 10
9905.673762000004
 20
5141.454948999999
 30
0.0
 40
30.0
 50
0.0
 51
179.99998499999839
  0
ARC
  5
3EC0
  8
0-5
  6
CONTINUOUS
 62
     4
 10
9905.673762000004
 20
5141.454948999999
 30
0.0
 40
30.0
 50
180.0
 51
0.0
  0
ARC
  5
3EC1
  8
0-5
  6
CONTINUOUS
 62
     4
 10
8753.1742899999954
 20
6441.4552789999998
 30
0.0
 40
30.0
 50
90.0
 51
269.9999850001808
  0
ARC
  5
3EC2
  8
0-5
  6
CONTINUOUS
 62
     4
 10
8753.1742899999954
 20
6441.4552789999998
 30
0.0
 40
30.0
 50
269.9999850001808
 51
90.0
  0
ARC
  5
3EC3
  8
0-5
  6
CONTINUOUS
 62
     4
 10
8753.1742899999954
 20
8596.9545469999975
 30
0.0
 40
30.0
 50
269.9999850001808
 51
90.0
  0
ARC
  5
3EC4
  8
0-5
  6
CONTINUOUS
 62
     4
 10
8753.1742899999954
 20
8596.9545469999975
 30
0.0
 40
30.0
 50
90.0
 51
269.9999850001808
  0
ARC
  5
3EC5
  8
0-5
  6
CONTINUOUS
 62
     4
 10
9663.1738280000045
 20
9989.4558010000001
 30
0.0
 40
30.0
 50
0.0
 51
179.99998499999839
  0
ARC
  5
3EC6
  8
0-5
  6
CONTINUOUS
 62
     4
 10
9663.1738280000045
 20
9989.4558010000001
 30
0.0
 40
30.0
 50
180.0
 51
0.0
  0
ARC
  5
3EC7
  8
0-5
  6
CONTINUOUS
 62
     4
 10
9663.1738280000045
 20
9589.4544810000025
 30
0.0
 40
30.0
 50
0.0
 51
180.0
  0
ARC
  5
3EC8
  8
0-5
  6
CONTINUOUS
 62
     4
 10
9663.1738280000045
 20
9589.4544810000025
 30
0.0
 40
30.0
 50
180.0
 51
0.0
  0
ARC
  5
3EC9
  8
0-5
  6
CONTINUOUS
 62
     4
 10
9843.1724430000031
 20
9589.4544810000025
 30
0.0
 40
30.0
 50
180.0
 51
0.0
  0
ARC
  5
3ECA
  8
0-5
  6
CONTINUOUS
 62
     4
 10
9843.1724430000031
 20
9589.4544810000025
 30
0.0
 40
30.0
 50
0.0
 51
179.99998499999839
  0
ARC
  5
3ECB
  8
0-5
  6
CONTINUOUS
 62
     4
 10
9843.1724430000031
 20
9589.4544810000025
 30
0.0
 40
30.0
 50
0.0
 51
179.99998499999839
  0
ARC
  5
3ECC
  8
0-5
  6
CONTINUOUS
 62
     4
 10
9843.1724430000031
 20
9589.4544810000025
 30
0.0
 40
30.0
 50
180.0
 51
0.0
  0
ARC
  5
3ECD
  8
0-5
  6
CONTINUOUS
 62
     4
 10
12443.673920999991
 20
5141.454948999999
 30
0.0
 40
30.0
 50
0.0
 51
179.99998499999839
  0
ARC
  5
3ECE
  8
0-5
  6
CONTINUOUS
 62
     4
 10
12443.673920999991
 20
5141.454948999999
 30
0.0
 40
30.0
 50
180.0
 51
0.0
  0
ARC
  5
3ECF
  8
0-5
  6
CONTINUOUS
 62
     4
 10
12443.673920999991
 20
5141.454948999999
 30
0.0
 40
30.0
 50
180.0
 51
0.0
  0
ARC
  5
3ED0
  8
0-5
  6
CONTINUOUS
 62
     4
 10
12443.673920999991
 20
5141.454948999999
 30
0.0
 40
30.0
 50
0.0
 51
179.99998499999839
  0
ARC
  5
3ED1
  8
0-5
  6
CONTINUOUS
 62
     4
 10
14981.67407899998
 20
5141.454948999999
 30
0.0
 40
30.0
 50
0.0
 51
180.0
  0
ARC
  5
3ED2
  8
0-5
  6
CONTINUOUS
 62
     4
 10
14981.67407899998
 20
5141.454948999999
 30
0.0
 40
30.0
 50
180.0
 51
0.0
  0
ARC
  5
3ED3
  8
0-5
  6
CONTINUOUS
 62
     4
 10
14981.67407899998
 20
5141.454948999999
 30
0.0
 40
30.0
 50
180.0
 51
0.0
  0
ARC
  5
3ED4
  8
0-5
  6
CONTINUOUS
 62
     4
 10
14981.67407899998
 20
5141.454948999999
 30
0.0
 40
30.0
 50
0.0
 51
180.0
  0
ARC
  5
3ED5
  8
0-5
  6
CONTINUOUS
 62
     4
 10
15044.17242999999
 20
4741.4551139999976
 30
0.0
 40
30.0
 50
180.0
 51
0.0
  0
ARC
  5
3ED6
  8
0-5
  6
CONTINUOUS
 62
     4
 10
15044.17242999999
 20
4741.4551139999976
 30
0.0
 40
30.0
 50
0.0
 51
179.99998499999839
  0
ARC
  5
3ED7
  8
0-5
  6
CONTINUOUS
 62
     4
 10
15064.171506000001
 20
5141.454948999999
 30
0.0
 40
30.0
 50
0.0
 51
180.0
  0
ARC
  5
3ED8
  8
0-5
  6
CONTINUOUS
 62
     4
 10
15064.171506000001
 20
5141.454948999999
 30
0.0
 40
30.0
 50
180.0
 51
0.0
  0
ARC
  5
3ED9
  8
0-5
  6
CONTINUOUS
 62
     4
 10
16134.173551
 20
6441.4552789999998
 30
0.0
 40
30.0
 50
90.0
 51
269.9999850001808
  0
ARC
  5
3EDA
  8
0-5
  6
CONTINUOUS
 62
     4
 10
16134.173551
 20
6441.4552789999998
 30
0.0
 40
30.0
 50
269.9999850001808
 51
90.0
  0
ARC
  5
3EDB
  8
0-5
  6
CONTINUOUS
 62
     4
 10
16134.173551
 20
8790.4564470000023
 30
0.0
 40
30.0
 50
269.9999850001808
 51
90.0
  0
ARC
  5
3EDC
  8
0-5
  6
CONTINUOUS
 62
     4
 10
16134.173551
 20
8790.4564470000023
 30
0.0
 40
30.0
 50
90.0
 51
269.9999850001808
  0
ARC
  5
3EDD
  8
0-5
  6
CONTINUOUS
 62
     4
 10
15044.17242999999
 20
9589.4544810000025
 30
0.0
 40
30.0
 50
180.0
 51
0.0
  0
ARC
  5
3EDE
  8
0-5
  6
CONTINUOUS
 62
     4
 10
15044.17242999999
 20
9589.4544810000025
 30
0.0
 40
30.0
 50
0.0
 51
179.99998499999839
  0
ARC
  5
3EDF
  8
0-5
  6
CONTINUOUS
 62
     4
 10
15044.17242999999
 20
9589.4544810000025
 30
0.0
 40
30.0
 50
0.0
 51
179.99998499999839
  0
ARC
  5
3EE0
  8
0-5
  6
CONTINUOUS
 62
     4
 10
15044.17242999999
 20
9589.4544810000025
 30
0.0
 40
30.0
 50
180.0
 51
0.0
  0
ARC
  5
3EE1
  8
0-5
  6
CONTINUOUS
 62
     4
 10
15194.172429999981
 20
9589.4544810000025
 30
0.0
 40
30.0
 50
0.0
 51
179.99998499999839
  0
ARC
  5
3EE2
  8
0-5
  6
CONTINUOUS
 62
     4
 10
15194.172429999981
 20
9589.4544810000025
 30
0.0
 40
30.0
 50
180.0
 51
0.0
  0
ARC
  5
3EE3
  8
0-5
  6
CONTINUOUS
 62
     4
 10
15194.172429999981
 20
9989.4558010000001
 30
0.0
 40
30.0
 50
180.0
 51
0.0
  0
ARC
  5
3EE4
  8
0-5
  6
CONTINUOUS
 62
     4
 10
15194.172429999981
 20
9989.4558010000001
 30
0.0
 40
30.0
 50
0.0
 51
179.99998499999839
  0
TEXT
  5
3EE5
  8
0-5
  6
CONTINUOUS
 62
     7
 10
16671.592288607932
 20
1655.9999159999991
 30
0.0
 40
160.0
  1
H
  0
TEXT
  5
3EE6
  8
0-5
  6
CONTINUOUS
 62
     7
 10
15176.146932999991
 20
1655.9999159999991
 30
0.0
 40
160.0
  1
（ ）内寸法ハ、  タ イプヲ示ス。
  0
TEXT
  5
3EE7
  8
0-5
  6
CONTINUOUS
 62
     7
 10
15288.715227000001
 20
1256.0000809999999
 30
0.0
 40
160.0
  1
有効高サハ、基礎高サヲ含ミマセン。
  0
TEXT
  5
3EE8
  8
0-5
  6
CONTINUOUS
 62
     7
 10
7908.400800000004
 20
14453.660165999991
 30
0.0
 40
160.0
  1
A
 72
     4
 11
7961.734133333337
 21
14533.660165999991
 31
0.0
  0
TEXT
  5
3EE9
  8
0-5
  6
CONTINUOUS
 62
     7
 10
7908.400800000004
 20
17021.162145999991
 30
0.0
 40
160.0
  1
B
 72
     4
 11
7961.734133333337
 21
17101.162145999991
 31
0.0
  0
TEXT
  5
3EEA
  8
0-5
  6
CONTINUOUS
 62
     7
 10
7908.400800000004
 20
19588.662145999991
 30
0.0
 40
160.0
  1
C
 72
     4
 11
7961.734133333337
 21
19668.662145999991
 31
0.0
  0
TEXT
  5
3EEB
  8
0-5
  6
CONTINUOUS
 62
     7
 10
9438.753748000001
 20
21023.579535000012
 30
0.0
 40
160.0
  1
1
 72
     4
 11
9465.4204146666671
 21
21103.579535000012
 31
0.0
  0
TEXT
  5
3EEC
  8
0-5
  6
CONTINUOUS
 62
     7
 10
12707.253747999979
 20
21023.579535000012
 30
0.0
 40
160.0
  1
2
 72
     4
 11
12760.58708133332
 21
21103.579535000012
 31
0.0
  0
TEXT
  5
3EED
  8
0-5
  6
CONTINUOUS
 62
     7
 10
14573.755726999991
 20
21023.579535000012
 30
0.0
 40
160.0
  1
3
 72
     4
 11
14627.08906033333
 21
21103.579535000012
 31
0.0
  0
TEXT
  5
3EEE
  8
0-5
  6
CONTINUOUS
 62
     7
 10
9838.1533729999992
 20
4216.0663859999959
 30
0.0
 40
160.0
  1
C
 72
     4
 11
9891.4867063333331
 21
4296.0663859999968
 31
0.0
  0
TEXT
  5
3EEF
  8
0-5
  6
CONTINUOUS
 62
     7
 10
9266.7158182967669
 20
5221.454718
 30
0.0
 40
160.0
  1
42.5
 72
     4
 11
9506.7158182967669
 21
5301.454718
 31
0.0
  0
TEXT
  5
3EF0
  8
0-5
  6
CONTINUOUS
 62
     7
 10
10862.73505733333
 20
5221.454718
 30
0.0
 40
160.0
  1
2567.5
 72
     4
 11
11262.73505733333
 21
5301.454718
 31
0.0
  0
TEXT
  5
3EF1
  8
0-5
  6
CONTINUOUS
 62
     7
 10
8673.1740260000006
 20
6571.1890042824871
 30
0.0
 40
160.0
  1
2155.5  (2395.5)
 50
90.0
 72
     4
 11
8593.1740260000006
 21
7573.855670949154
 31
0.0
  0
TEXT
  5
3EF2
  8
0-5
  6
CONTINUOUS
 62
     7
 10
9230.7925339999983
 20
9669.4547450000046
 30
0.0
 40
160.0
  1
180
 72
     4
 11
9404.1258673333323
 21
9749.4547450000046
 31
0.0
  0
TEXT
  5
3EF3
  8
0-5
  6
CONTINUOUS
 62
     7
 10
12396.15458699999
 20
4216.0663859999959
 30
0.0
 40
160.0
  1
B
 72
     4
 11
12449.48792033332
 21
4296.0663859999968
 31
0.0
  0
TEXT
  5
3EF4
  8
0-5
  6
CONTINUOUS
 62
     7
 10
12190.39196733332
 20
4821.4548829999976
 30
0.0
 40
160.0
  1
5220
 72
     4
 11
12470.39196733332
 21
4901.4548829999994
 31
0.0
  0
TEXT
  5
3EF5
  8
0-5
  6
CONTINUOUS
 62
     7
 10
13413.52686433332
 20
5221.454718
 30
0.0
 40
160.0
  1
2567.5
 72
     4
 11
13813.52686433332
 21
5301.454718
 31
0.0
  0
TEXT
  5
3EF6
  8
0-5
  6
CONTINUOUS
 62
     7
 10
14954.15382199998
 20
4216.0663859999959
 30
0.0
 40
160.0
  1
A
 72
     4
 11
15007.487155333311
 21
4296.0663859999968
 31
0.0
  0
TEXT
  5
3EF7
  8
0-5
  6
CONTINUOUS
 62
     7
 10
15164.173815
 20
5221.454718
 30
0.0
 40
160.0
  1
42.5
 72
     4
 11
15404.173815
 21
5301.454718
 31
0.0
  0
TEXT
  5
3EF8
  8
0-5
  6
CONTINUOUS
 62
     7
 10
16054.173286999991
 20
6771.8095191904349
 30
0.0
 40
160.0
  1
2349  (2589)
 50
90.0
 72
     4
 11
15974.173286999991
 21
7587.8095191904349
 31
0.0
  0
TEXT
  5
3EF9
  8
0-5
  6
CONTINUOUS
 62
     7
 10
12206.631233666671
 20
10069.455075
 30
0.0
 40
160.0
  1
5550
 72
     4
 11
12486.631233666671
 21
10149.455075
 31
0.0
  0
TEXT
  5
3EFA
  8
0-5
  6
CONTINUOUS
 62
     7
 10
12193.29790033332
 20
9669.4547450000046
 30
0.0
 40
160.0
  1
5220
 72
     4
 11
12473.29790033332
 21
9749.4547450000046
 31
0.0
  0
TEXT
  5
3EFB
  8
0-5
  6
CONTINUOUS
 62
     7
 10
15306.554647999979
 20
9669.4547450000046
 30
0.0
 40
160.0
  1
150
 72
     4
 11
15479.887981333321
 21
9749.4547450000046
 31
0.0
  0
TEXT
  5
3EFC
  8
0-5
  6
CONTINUOUS
 62
     7
 10
16302.66324499998
 20
6729.3015299999988
 30
0.0
 40
160.0
  1
布基礎天端
 72
     4
 11
16761.329911666639
 21
6809.3015299999997
 31
0.0
  0
TEXT
  5
3EFD
  8
0-6
  6
CONTINUOUS
 62
     7
 10
7795.859725000003
 20
13132.459192
 30
0.0
 40
160.0
  1
ケラバ 左
 72
     4
 11
8211.8597250000003
 21
13212.459192
 31
0.0
  0
TEXT
  5
3EFE
  8
0-6
  6
CONTINUOUS
 62
     7
 10
9739.7871360000026
 20
18979.65929499999
 30
0.0
 40
160.0
  1
上枠
 72
     4
 11
9910.4538026666669
 21
19059.65929499999
 31
0.0
  0
TEXT
  5
3EFF
  8
0-6
  6
CONTINUOUS
 62
     7
 10
11716.05435799999
 20
13622.46031399998
 30
0.0
 40
160.0
  1
鼻隠し前
 72
     4
 11
12078.72102466666
 21
13702.46031399998
 31
0.0
  0
TEXT
  5
3F00
  8
0-6
  6
CONTINUOUS
 62
     7
 10
11944.761006000001
 20
14991.031445500021
 30
0.0
 40
160.0
  1
桁（前）
 72
     4
 11
12264.761006000001
 21
15071.031445500021
 31
0.0
  0
TEXT
  5
3F01
  8
0-6
  6
CONTINUOUS
 62
     7
 10
11823.746106999981
 20
16314.862987999981
 30
0.0
 40
160.0
  1
+
 72
     4
 11
11877.07944033332
 21
16394.862987999979
 31
0.0
  0
TEXT
  5
3F02
  8
0-6
  6
CONTINUOUS
 62
     7
 10
11603.895824999991
 20
16312.49053499999
 30
0.0
 40
160.0
  1
梁　梁補強
 72
     4
 11
12062.56249166666
 21
16392.49053499999
 31
0.0
  0
TEXT
  5
3F03
  8
0-6
  6
CONTINUOUS
 62
     7
 10
11795.129197
 20
20202.461370000001
 30
0.0
 40
160.0
  1
屋根
 72
     4
 11
11965.79586366667
 21
20282.461370000001
 31
0.0
  0
TEXT
  5
3F04
  8
0-6
  6
CONTINUOUS
 62
     7
 10
10026.499618
 20
20923.902855
 30
0.0
 40
160.0
  1
鼻隠しコーナー後
 72
     4
 11
10773.16628466667
 21
21003.902855
 31
0.0
  0
TEXT
  5
3F05
  8
2-0
  6
CONTINUOUS
 62
     7
 10
15046.34995199999
 20
16113.683524999989
 30
0.0
 40
160.0
  1
ブレース
 72
     4
 11
15409.016618666659
 21
16199.016858333331
 31
0.0
  0
TEXT
  5
3F06
  8
2-0
  6
CONTINUOUS
 62
     7
 10
14996.855059
 20
19043.172148999991
 30
0.0
 40
160.0
  1
桁中B +  桁中補強B
 50
359.99976400000008
 72
     4
 11
15930.18872184358
 21
19123.168304620751
 31
0.0
  0
TEXT
  5
3F07
  8
2-0
  6
CONTINUOUS
 62
     7
 10
14996.85505899999
 20
17584.65763300001
 30
0.0
 40
160.0
  1
桁中A +  桁中補強A
 50
0.000079
 72
     4
 11
15930.18828202763
 21
17664.658919889371
 31
0.0
  0
TEXT
  5
3F08
  8
2-0
  6
CONTINUOUS
 62
     7
 10
14996.855059
 20
15267.17923550002
 30
0.0
 40
160.0
  1
桁中B +  桁中補強B
 50
359.99988199999967
 72
     4
 11
15930.18855709044
 21
15347.17731331056
 31
0.0
  0
TEXT
  5
3F09
  8
2-0
  6
CONTINUOUS
 62
     7
 10
21733.440798999989
 20
12429.925077999989
 30
0.0
 40
160.0
  1
平　面　図
 72
     4
 11
22186.774132333321
 21
12504.591744666661
 31
0.0
  0
TEXT
  5
3F0A
  8
2-0
  6
CONTINUOUS
 62
     7
 10
10957.636454999991
 20
12424.59343340116
 30
0.0
 40
160.0
  1
小 屋 伏 図
 50
359.99980699999981
 72
     4
 11
11458.97005780932
 21
12504.591744666661
 31
0.0
  0
TEXT
  5
3F0B
  8
2-0
  6
CONTINUOUS
 62
     7
 10
21510.905300000009
 20
3436.987752999999
 30
0.0
 40
160.0
  1
正 面 立 面 図
 72
     4
 11
22156.238633333342
 21
3516.987752999999
 31
0.0
  0
TEXT
  5
3F0C
  8
2-0
  6
CONTINUOUS
 62
     7
 10
10809.950511999979
 20
3432.3824030000001
 30
0.0
 40
160.0
  1
側 面 立 面 図
 72
     4
 11
11455.283845333321
 21
3512.3824030000001
 31
0.0
  0
TEXT
  5
3F14
  8
2-0
  6
CONTINUOUS
 62
     7
 10
12806.776030470941
 20
3459.577772000001
 30
0.0
 40
160.0
  1
1
 72
     4
 11
12833.442697137611
 21
3539.577772000001
 31
0.0
  0
TEXT
  5
3F15
  8
2-0
  6
CONTINUOUS
 62
     7
 10
13049.86474772164
 20
3379.57924
 30
0.0
 40
160.0
  1
80
 72
     4
 11
13169.86474772164
 21
3459.57924
 31
0.0
  0
TEXT
  5
3F16
  8
2-0
  6
CONTINUOUS
 62
     7
 10
12307.777996470941
 20
3432.3824030000001
 30
0.0
 40
160.0
  1
(S=  /   )
 72
     4
 11
12867.777996470941
 21
3512.3824030000001
 31
0.0
  0
TEXT
  5
3F17
  8
2-0
  6
CONTINUOUS
 62
     7
 10
23507.730818470969
 20
3464.1831219999999
 30
0.0
 40
160.0
  1
1
 72
     4
 11
23534.39748513763
 21
3544.183121999999
 31
0.0
  0
TEXT
  5
3F18
  8
2-0
  6
CONTINUOUS
 62
     7
 10
23750.81953572165
 20
3384.1845899999989
 30
0.0
 40
160.0
  1
80
 72
     4
 11
23870.81953572165
 21
3464.1845899999989
 31
0.0
  0
TEXT
  5
3F19
  8
2-0
  6
CONTINUOUS
 62
     7
 10
23008.732784470962
 20
3436.987752999999
 30
0.0
 40
160.0
  1
(S=  /   )
 72
     4
 11
23568.732784470962
 21
3516.987752999999
 31
0.0
  0
TEXT
  5
3F1A
  8
2-0
  6
CONTINUOUS
 62
     7
 10
23538.266317470941
 20
12451.787113666671
 30
0.0
 40
160.0
  1
1
 72
     4
 11
23564.932984137609
 21
12531.787113666671
 31
0.0
  0
TEXT
  5
3F1B
  8
2-0
  6
CONTINUOUS
 62
     7
 10
23781.355034721651
 20
12371.78858166666
 30
0.0
 40
160.0
  1
80
 72
     4
 11
23901.355034721651
 21
12451.78858166666
 31
0.0
  0
TEXT
  5
3F1C
  8
2-0
  6
CONTINUOUS
 62
     7
 10
23039.268283470949
 20
12424.591744666661
 30
0.0
 40
160.0
  1
(S=  /   )
 72
     4
 11
23599.268283470949
 21
12504.591744666661
 31
0.0
  0
TEXT
  5
3F1D
  8
2-0
  6
CONTINUOUS
 62
     7
 10
12810.462242946929
 20
12451.787113666671
 30
0.0
 40
160.0
  1
1
 72
     4
 11
12837.128909613601
 21
12531.787113666671
 31
0.0
  0
TEXT
  5
3F1E
  8
2-0
  6
CONTINUOUS
 62
     7
 10
13053.55096019763
 20
12371.78858166666
 30
0.0
 40
160.0
  1
80
 72
     4
 11
13173.55096019763
 21
12451.78858166666
 31
0.0
  0
TEXT
  5
3F1F
  8
2-0
  6
CONTINUOUS
 62
     7
 10
12311.46420894694
 20
12424.591744666661
 30
0.0
 40
160.0
  1
(S=  /   )
 72
     4
 11
12871.46420894694
 21
12504.591744666661
 31
0.0
  0
TEXT
  5
3F20
  8
0-6
  6
CONTINUOUS
 62
     7
 10
9922.1027954238543
 20
20208.373956835549
 30
0.0
 40
160.0
  1
桁後+桁後補強
 72
     4
 11
10556.76946209052
 21
20288.373956835549
 31
0.0
  0
LINE
  5
3F21
  8
0-6
  6
CONTINUOUS
 62
     6
 10
11365.81820327903
 20
19721.87559383555
 30
0.0
 11
11232.42425539778
 21
20128.375672835551
 31
0.0
  0
LINE
  5
3F22
  8
0-6
  6
CONTINUOUS
 62
     6
 10
9882.6819018285805
 20
20128.375672835551
 30
0.0
 11
11232.42425539778
 21
20128.375672835551
 31
0.0
  0
LINE
  5
3F23
  8
0-6
  6
CONTINUOUS
 62
     6
 10
11342.21074791174
 20
19882.357032260468
 30
0.0
 11
11291.437104138789
 21
19866.023516075711
 31
0.0
  0
LINE
  5
3F24
  8
0-6
  6
CONTINUOUS
 62
     6
 10
11342.21074791174
 20
19882.357032260468
 30
0.0
 11
11365.81820327903
 21
19721.87559383555
 31
0.0
  0
LINE
  5
3F25
  8
0-6
  6
CONTINUOUS
 62
     6
 10
11291.437104138789
 20
19866.023516075711
 30
0.0
 11
11342.21074791174
 21
19882.357032260468
 31
0.0
  0
LINE
  5
3F26
  8
0-6
  6
CONTINUOUS
 62
     6
 10
11365.81820327903
 20
19721.87559383555
 30
0.0
 11
11291.437104138789
 21
19866.023516075711
 31
0.0
  0
LINE
  5
3F27
  8
0-6
  6
CONTINUOUS
 62
     6
 10
11365.81820327903
 20
19721.87559383555
 30
0.0
 11
11342.21074791174
 21
19882.357032260468
 31
0.0
  0
LINE
  5
3F28
  8
0-6
  6
CONTINUOUS
 62
     6
 10
11291.437104138789
 20
19866.023516075711
 30
0.0
 11
11365.81820327903
 21
19721.87559383555
 31
0.0
  0
LINE
  5
3F29
  8
2-0
  6
CONTINUOUS
 62
     6
 10
23795.768713000001
 20
13894.959852
 30
0.0
 11
24795.762114999961
 21
13894.959852
 31
0.0
  0
LINE
  5
3F2A
  8
2-0
  6
CONTINUOUS
 62
     6
 10
25263.702492
 20
14365.380566
 30
0.0
 11
24795.762114999961
 21
13894.959852
 31
0.0
  0
LINE
  5
3F2B
  8
2-0
  6
CONTINUOUS
 62
     6
 10
23812.479808999971
 20
18223.579916999988
 30
0.0
 11
24830.455156999978
 21
18223.579916999988
 31
0.0
  0
LINE
  5
3F2C
  8
2-0
  6
CONTINUOUS
 62
     6
 10
25286.88067499996
 20
18448.294866
 30
0.0
 11
24830.455156999978
 21
18223.579916999988
 31
0.0
  0
LINE
  5
3F2D
  8
2-0
  6
CONTINUOUS
 62
     6
 10
25225.06228899999
 20
17206.488213000011
 30
0.0
 11
24920.366870999991
 21
17310.141744000019
 31
0.0
  0
LINE
  5
3F2E
  8
2-0
  6
CONTINUOUS
 62
     6
 10
25380.084327999961
 20
16716.866169000012
 30
0.0
 11
24920.366870999991
 21
16472.952858000011
 31
0.0
  0
LINE
  5
3F2F
  8
2-0
  6
CONTINUOUS
 62
     6
 10
24000.363835999979
 20
16472.952858000011
 30
0.0
 11
24920.366870999991
 21
16472.952858000011
 31
0.0
  0
LINE
  5
3F30
  8
2-0
  6
CONTINUOUS
 62
     6
 10
23720.372808999979
 20
17310.141744000019
 30
0.0
 11
24920.366870999991
 21
17310.141744000019
 31
0.0
  0
LINE
  5
3F31
  8
2-0
  6
CONTINUOUS
 62
     6
 10
25296.261612999991
 20
14687.064211999979
 30
0.0
 11
24920.366870999991
 21
14868.008046999999
 31
0.0
  0
LINE
  5
3F32
  8
2-0
  6
CONTINUOUS
 62
     6
 10
23812.479808999971
 20
15305.817459000011
 30
0.0
 11
24830.455156999978
 21
15305.817459000011
 31
0.0
  0
LINE
  5
3F33
  8
2-0
  6
CONTINUOUS
 62
     6
 10
24400.365154999981
 20
14868.008046999999
 30
0.0
 11
24920.366870999991
 21
14868.008046999999
 31
0.0
  0
LINE
  5
3F34
  8
2-0
  6
CONTINUOUS
 62
     6
 10
25286.88067499996
 20
15530.53042900002
 30
0.0
 11
24830.455156999978
 21
15305.817459000011
 31
0.0
  0
LINE
  5
3F35
  8
2-0
  6
CONTINUOUS
 62
     4
 10
23612.427629000002
 20
19792.461502000009
 30
0.0
 11
23612.427629000002
 21
20522.458467
 31
0.0
  0
LINE
  5
3F36
  8
2-0
  6
CONTINUOUS
 62
     3
 10
25491.428288999989
 20
19603.459048000001
 30
0.0
 11
25491.428288999989
 21
19597.463086000022
 31
0.0
  0
LINE
  5
3F37
  8
2-0
  6
CONTINUOUS
 62
     3
 10
25491.428288999989
 20
19597.463086000022
 30
0.0
 11
25521.425912999988
 21
19597.463086000022
 31
0.0
  0
LINE
  5
3F38
  8
2-0
  6
CONTINUOUS
 62
     3
 10
25521.425912999988
 20
19627.46269
 30
0.0
 11
25440.424012999989
 21
19627.46269
 31
0.0
  0
LINE
  5
3F39
  8
2-0
  6
CONTINUOUS
 62
     3
 10
25491.428288999989
 20
19587.16563000001
 30
0.0
 11
25521.425912999988
 21
19587.16563000001
 31
0.0
  0
LINE
  5
3F3A
  8
2-0
  6
CONTINUOUS
 62
     3
 10
25491.428288999989
 20
19605.167372000022
 30
0.0
 11
25491.428288999989
 21
19587.16563000001
 31
0.0
  0
LINE
  5
3F3B
  8
2-0
  6
CONTINUOUS
 62
     3
 10
25516.425649000001
 20
19605.167372000022
 30
0.0
 11
25491.428288999989
 21
19605.167372000022
 31
0.0
  0
LINE
  5
3F3C
  8
2-0
  6
CONTINUOUS
 62
     3
 10
25516.425649000001
 20
19600.15919000002
 30
0.0
 11
25516.425649000001
 21
19605.167372000022
 31
0.0
  0
LINE
  5
3F3D
  8
2-0
  6
CONTINUOUS
 62
     3
 10
25509.424092000001
 20
19600.15919000002
 30
0.0
 11
25516.425649000001
 21
19600.15919000002
 31
0.0
  0
LINE
  5
3F3E
  8
2-0
  6
CONTINUOUS
 62
     3
 10
25409.127823999988
 20
19700.45941700002
 30
0.0
 11
25409.127823999988
 21
19707.464933000021
 31
0.0
  0
LINE
  5
3F3F
  8
2-0
  6
CONTINUOUS
 62
     3
 10
25409.127823999988
 20
19707.464933000021
 30
0.0
 11
25414.128087999969
 21
19707.464933000021
 31
0.0
  0
LINE
  5
3F40
  8
2-0
  6
CONTINUOUS
 62
     3
 10
25414.128087999969
 20
19707.464933000021
 30
0.0
 11
25414.128087999969
 21
19682.455696000001
 31
0.0
  0
LINE
  5
3F41
  8
2-0
  6
CONTINUOUS
 62
     3
 10
25414.128087999969
 20
19682.455696000001
 30
0.0
 11
25396.126345999972
 21
19682.455696000001
 31
0.0
  0
LINE
  5
3F42
  8
2-0
  6
CONTINUOUS
 62
     3
 10
25396.126345999972
 20
19682.455696000001
 30
0.0
 11
25396.126345999972
 21
19712.459259000021
 31
0.0
  0
LINE
  5
3F43
  8
2-0
  6
CONTINUOUS
 62
     3
 10
25406.42380199999
 20
19712.459259000021
 30
0.0
 11
25521.425912999988
 21
19712.459259000021
 31
0.0
  0
LINE
  5
3F44
  8
2-0
  6
CONTINUOUS
 62
     3
 10
25406.42380199999
 20
19682.455696000001
 30
0.0
 11
25406.42380199999
 21
19712.459259000021
 31
0.0
  0
LINE
  5
3F45
  8
2-0
  6
CONTINUOUS
 62
     3
 10
25412.42570199999
 20
19682.455696000001
 30
0.0
 11
25406.42380199999
 21
19682.455696000001
 31
0.0
  0
LINE
  5
3F46
  8
2-0
  6
CONTINUOUS
 62
     3
 10
25509.424092000001
 20
19246.862367499991
 30
0.0
 11
25516.425649000001
 21
19246.862367499991
 31
0.0
  0
LINE
  5
3F47
  8
2-0
  6
CONTINUOUS
 62
     3
 10
25516.425649000001
 20
19246.862367499991
 30
0.0
 11
25516.425649000001
 21
19251.862631499989
 31
0.0
  0
LINE
  5
3F48
  8
2-0
  6
CONTINUOUS
 62
     3
 10
25516.425649000001
 20
19251.862631499989
 30
0.0
 11
25491.428288999989
 21
19251.862631499989
 31
0.0
  0
LINE
  5
3F49
  8
2-0
  6
CONTINUOUS
 62
     3
 10
25491.428288999989
 20
19251.862631499989
 30
0.0
 11
25491.428288999989
 21
19233.866827500002
 31
0.0
  0
LINE
  5
3F4A
  8
2-0
  6
CONTINUOUS
 62
     3
 10
25491.428288999989
 20
19233.866827500002
 30
0.0
 11
25521.425912999988
 21
19233.866827500002
 31
0.0
  0
LINE
  5
3F4B
  8
2-0
  6
CONTINUOUS
 62
     3
 10
25491.428288999989
 20
19249.958334499981
 30
0.0
 11
25491.428288999989
 21
19243.960393500001
 31
0.0
  0
LINE
  5
3F4C
  8
2-0
  6
CONTINUOUS
 62
     3
 10
25491.428288999989
 20
19243.960393500001
 30
0.0
 11
25521.425912999988
 21
19243.960393500001
 31
0.0
  0
LINE
  5
3F4D
  8
2-0
  6
CONTINUOUS
 62
     3
 10
25521.425912999988
 20
19243.960393500001
 30
0.0
 11
25521.425912999988
 21
19280.961554499991
 31
0.0
  0
LINE
  5
3F4E
  8
2-0
  6
CONTINUOUS
 62
     3
 10
25491.428288999989
 20
19280.961554499991
 30
0.0
 11
25521.425912999988
 21
19280.961554499991
 31
0.0
  0
LINE
  5
3F4F
  8
2-0
  6
CONTINUOUS
 62
     3
 10
25491.428288999989
 20
19274.95767449999
 30
0.0
 11
25491.428288999989
 21
19280.961554499991
 31
0.0
  0
LINE
  5
3F50
  8
2-0
  6
CONTINUOUS
 62
     3
 10
25491.428288999989
 20
19291.057099499991
 30
0.0
 11
25521.425912999988
 21
19291.057099499991
 31
0.0
  0
LINE
  5
3F51
  8
2-0
  6
CONTINUOUS
 62
     3
 10
25491.428288999989
 20
19273.055357500001
 30
0.0
 11
25491.428288999989
 21
19291.057099499991
 31
0.0
  0
LINE
  5
3F52
  8
2-0
  6
CONTINUOUS
 62
     3
 10
25516.425649000001
 20
19273.055357500001
 30
0.0
 11
25491.428288999989
 21
19273.055357500001
 31
0.0
  0
LINE
  5
3F53
  8
2-0
  6
CONTINUOUS
 62
     3
 10
25516.425649000001
 20
19278.0556215
 30
0.0
 11
25516.425649000001
 21
19273.055357500001
 31
0.0
  0
LINE
  5
3F54
  8
2-0
  6
CONTINUOUS
 62
     3
 10
25509.424092000001
 20
19278.0556215
 30
0.0
 11
25516.425649000001
 21
19278.0556215
 31
0.0
  0
LINE
  5
3F55
  8
2-0
  6
CONTINUOUS
 62
     3
 10
25509.424092000001
 20
18545.861378000009
 30
0.0
 11
25516.425649000001
 21
18545.861378000009
 31
0.0
  0
LINE
  5
3F56
  8
2-0
  6
CONTINUOUS
 62
     3
 10
25516.425649000001
 20
18545.861378000009
 30
0.0
 11
25516.425649000001
 21
18550.867579999991
 31
0.0
  0
LINE
  5
3F57
  8
2-0
  6
CONTINUOUS
 62
     3
 10
25516.425649000001
 20
18550.867579999991
 30
0.0
 11
25491.428288999989
 21
18550.867579999991
 31
0.0
  0
LINE
  5
3F58
  8
2-0
  6
CONTINUOUS
 62
     3
 10
25491.428288999989
 20
18550.867579999991
 30
0.0
 11
25491.428288999989
 21
18532.865838000002
 31
0.0
  0
LINE
  5
3F59
  8
2-0
  6
CONTINUOUS
 62
     3
 10
25491.428288999989
 20
18532.865838000002
 30
0.0
 11
25521.425912999988
 21
18532.865838000002
 31
0.0
  0
LINE
  5
3F5A
  8
2-0
  6
CONTINUOUS
 62
     3
 10
25491.428288999989
 20
18548.957344999992
 30
0.0
 11
25491.428288999989
 21
18542.961383000002
 31
0.0
  0
LINE
  5
3F5B
  8
2-0
  6
CONTINUOUS
 62
     3
 10
25491.428288999989
 20
18542.961383000002
 30
0.0
 11
25521.425912999988
 21
18542.961383000002
 31
0.0
  0
LINE
  5
3F5C
  8
2-0
  6
CONTINUOUS
 62
     3
 10
25521.425912999988
 20
18542.961383000002
 30
0.0
 11
25521.425912999988
 21
18579.960565000001
 31
0.0
  0
LINE
  5
3F5D
  8
2-0
  6
CONTINUOUS
 62
     3
 10
25491.428288999989
 20
18579.960565000001
 30
0.0
 11
25521.425912999988
 21
18579.960565000001
 31
0.0
  0
LINE
  5
3F5E
  8
2-0
  6
CONTINUOUS
 62
     3
 10
25491.428288999989
 20
18573.964603
 30
0.0
 11
25491.428288999989
 21
18579.960565000001
 31
0.0
  0
LINE
  5
3F5F
  8
2-0
  6
CONTINUOUS
 62
     3
 10
25491.428288999989
 20
18590.056110000001
 30
0.0
 11
25521.425912999988
 21
18590.056110000001
 31
0.0
  0
LINE
  5
3F60
  8
2-0
  6
CONTINUOUS
 62
     3
 10
25491.428288999989
 20
18572.054368000001
 30
0.0
 11
25491.428288999989
 21
18590.056110000001
 31
0.0
  0
LINE
  5
3F61
  8
2-0
  6
CONTINUOUS
 62
     3
 10
25516.425649000001
 20
18572.054368000001
 30
0.0
 11
25491.428288999989
 21
18572.054368000001
 31
0.0
  0
LINE
  5
3F62
  8
2-0
  6
CONTINUOUS
 62
     3
 10
25516.425649000001
 20
18577.060570000001
 30
0.0
 11
25516.425649000001
 21
18572.054368000001
 31
0.0
  0
LINE
  5
3F63
  8
2-0
  6
CONTINUOUS
 62
     3
 10
25509.424092000001
 20
18577.060570000001
 30
0.0
 11
25516.425649000001
 21
18577.060570000001
 31
0.0
  0
LINE
  5
3F64
  8
2-0
  6
CONTINUOUS
 62
     3
 10
25509.424092000001
 20
17876.054631999999
 30
0.0
 11
25516.425649000001
 21
17876.054631999999
 31
0.0
  0
LINE
  5
3F65
  8
2-0
  6
CONTINUOUS
 62
     3
 10
25516.425649000001
 20
17876.054631999999
 30
0.0
 11
25516.425649000001
 21
17871.066244999991
 31
0.0
  0
LINE
  5
3F66
  8
2-0
  6
CONTINUOUS
 62
     3
 10
25516.425649000001
 20
17871.066244999991
 30
0.0
 11
25491.428288999989
 21
17871.066244999991
 31
0.0
  0
LINE
  5
3F67
  8
2-0
  6
CONTINUOUS
 62
     3
 10
25491.428288999989
 20
17871.066244999991
 30
0.0
 11
25491.428288999989
 21
17889.062048000011
 31
0.0
  0
LINE
  5
3F68
  8
2-0
  6
CONTINUOUS
 62
     3
 10
25491.428288999989
 20
17889.062048000011
 30
0.0
 11
25521.425912999988
 21
17889.062048000011
 31
0.0
  0
LINE
  5
3F69
  8
2-0
  6
CONTINUOUS
 62
     3
 10
25491.428288999989
 20
17872.964603000011
 30
0.0
 11
25491.428288999989
 21
17878.960565000001
 31
0.0
  0
LINE
  5
3F6A
  8
2-0
  6
CONTINUOUS
 62
     3
 10
25491.428288999989
 20
17878.960565000001
 30
0.0
 11
25521.425912999988
 21
17878.960565000001
 31
0.0
  0
LINE
  5
3F6B
  8
2-0
  6
CONTINUOUS
 62
     3
 10
25521.425912999988
 20
17878.960565000001
 30
0.0
 11
25521.425912999988
 21
17841.961383000002
 31
0.0
  0
LINE
  5
3F6C
  8
2-0
  6
CONTINUOUS
 62
     3
 10
25491.428288999989
 20
17841.961383000002
 30
0.0
 11
25521.425912999988
 21
17841.961383000002
 31
0.0
  0
LINE
  5
3F6D
  8
2-0
  6
CONTINUOUS
 62
     3
 10
25491.428288999989
 20
17847.963284000001
 30
0.0
 11
25491.428288999989
 21
17841.961383000002
 31
0.0
  0
LINE
  5
3F6E
  8
2-0
  6
CONTINUOUS
 62
     3
 10
25491.428288999989
 20
17831.871777000011
 30
0.0
 11
25521.425912999988
 21
17831.871777000011
 31
0.0
  0
LINE
  5
3F6F
  8
2-0
  6
CONTINUOUS
 62
     3
 10
25491.428288999989
 20
17849.867579999991
 30
0.0
 11
25491.428288999989
 21
17831.871777000011
 31
0.0
  0
LINE
  5
3F70
  8
2-0
  6
CONTINUOUS
 62
     3
 10
25516.425649000001
 20
17849.867579999991
 30
0.0
 11
25491.428288999989
 21
17849.867579999991
 31
0.0
  0
LINE
  5
3F71
  8
2-0
  6
CONTINUOUS
 62
     3
 10
25516.425649000001
 20
17844.867317000011
 30
0.0
 11
25516.425649000001
 21
17849.867579999991
 31
0.0
  0
LINE
  5
3F72
  8
2-0
  6
CONTINUOUS
 62
     3
 10
25509.424092000001
 20
17844.867317000011
 30
0.0
 11
25516.425649000001
 21
17844.867317000011
 31
0.0
  0
LINE
  5
3F73
  8
2-0
  6
CONTINUOUS
 62
     3
 10
25518.539775000001
 20
17124.958202999991
 30
0.0
 11
25518.539775000001
 21
17144.959257999992
 31
0.0
  0
LINE
  5
3F74
  8
2-0
  6
CONTINUOUS
 62
     3
 10
25518.539775000001
 20
17144.959257999992
 30
0.0
 11
25433.543205999991
 21
17144.959257999992
 31
0.0
  0
LINE
  5
3F75
  8
2-0
  6
CONTINUOUS
 62
     3
 10
25509.424092000001
 20
17171.56596800001
 30
0.0
 11
25516.425649000001
 21
17171.56596800001
 31
0.0
  0
LINE
  5
3F76
  8
2-0
  6
CONTINUOUS
 62
     3
 10
25516.425649000001
 20
17171.56596800001
 30
0.0
 11
25516.425649000001
 21
17166.571641999999
 31
0.0
  0
LINE
  5
3F77
  8
2-0
  6
CONTINUOUS
 62
     3
 10
25516.425649000001
 20
17166.571641999999
 30
0.0
 11
25491.428288999989
 21
17166.571641999999
 31
0.0
  0
LINE
  5
3F78
  8
2-0
  6
CONTINUOUS
 62
     3
 10
25491.428288999989
 20
17166.571641999999
 30
0.0
 11
25491.428288999989
 21
17184.567446000001
 31
0.0
  0
LINE
  5
3F79
  8
2-0
  6
CONTINUOUS
 62
     3
 10
25491.428288999989
 20
17184.567446000001
 30
0.0
 11
25521.425912999988
 21
17184.567446000001
 31
0.0
  0
LINE
  5
3F7A
  8
2-0
  6
CONTINUOUS
 62
     3
 10
25491.428288999989
 20
17174.958861999999
 30
0.0
 11
25491.428288999989
 21
17168.956962
 31
0.0
  0
LINE
  5
3F7B
  8
2-0
  6
CONTINUOUS
 62
     3
 10
25521.425912999988
 20
17174.958861999999
 30
0.0
 11
25491.428288999989
 21
17174.958861999999
 31
0.0
  0
LINE
  5
3F7C
  8
2-0
  6
CONTINUOUS
 62
     3
 10
25521.425912999988
 20
17184.567446000001
 30
0.0
 11
25521.425912999988
 21
17831.871777000011
 31
0.0
  0
LINE
  5
3F7D
  8
2-0
  6
CONTINUOUS
 62
     3
 10
25521.425912999988
 20
17889.062048000011
 30
0.0
 11
25521.425912999988
 21
18532.865838000002
 31
0.0
  0
LINE
  5
3F7E
  8
2-0
  6
CONTINUOUS
 62
     3
 10
25521.425912999988
 20
17029.957147000001
 30
0.0
 11
25491.428288999989
 21
17029.957147000001
 31
0.0
  0
LINE
  5
3F7F
  8
2-0
  6
CONTINUOUS
 62
     3
 10
25491.428288999989
 20
17029.957147000001
 30
0.0
 11
25491.428288999989
 21
17035.959047000011
 31
0.0
  0
LINE
  5
3F80
  8
2-0
  6
CONTINUOUS
 62
     3
 10
25433.543205999991
 20
17059.96269
 30
0.0
 11
25518.539775000001
 21
17059.96269
 31
0.0
  0
LINE
  5
3F81
  8
2-0
  6
CONTINUOUS
 62
     3
 10
25518.539775000001
 20
17059.96269
 30
0.0
 11
25518.539775000001
 21
17079.95780700001
 31
0.0
  0
LINE
  5
3F82
  8
2-0
  6
CONTINUOUS
 62
     3
 10
25491.428288999989
 20
17020.348564000011
 30
0.0
 11
25521.425912999988
 21
17020.348564000011
 31
0.0
  0
LINE
  5
3F83
  8
2-0
  6
CONTINUOUS
 62
     3
 10
25491.428288999989
 20
17038.344367000002
 30
0.0
 11
25491.428288999989
 21
17020.348564000011
 31
0.0
  0
LINE
  5
3F84
  8
2-0
  6
CONTINUOUS
 62
     3
 10
25516.425649000001
 20
17038.344367000002
 30
0.0
 11
25491.428288999989
 21
17038.344367000002
 31
0.0
  0
LINE
  5
3F85
  8
2-0
  6
CONTINUOUS
 62
     3
 10
25516.425649000001
 20
17033.34410300001
 30
0.0
 11
25516.425649000001
 21
17038.344367000002
 31
0.0
  0
LINE
  5
3F86
  8
2-0
  6
CONTINUOUS
 62
     3
 10
25509.424092000001
 20
17033.34410300001
 30
0.0
 11
25516.425649000001
 21
17033.34410300001
 31
0.0
  0
LINE
  5
3F87
  8
2-0
  6
CONTINUOUS
 62
     3
 10
25509.424092000001
 20
16328.861872499991
 30
0.0
 11
25516.425649000001
 21
16328.861872499991
 31
0.0
  0
LINE
  5
3F88
  8
2-0
  6
CONTINUOUS
 62
     3
 10
25516.425649000001
 20
16328.861872499991
 30
0.0
 11
25516.425649000001
 21
16333.862136499991
 31
0.0
  0
LINE
  5
3F89
  8
2-0
  6
CONTINUOUS
 62
     3
 10
25516.425649000001
 20
16333.862136499991
 30
0.0
 11
25491.428288999989
 21
16333.862136499991
 31
0.0
  0
LINE
  5
3F8A
  8
2-0
  6
CONTINUOUS
 62
     3
 10
25491.428288999989
 20
16333.862136499991
 30
0.0
 11
25491.428288999989
 21
16315.8603945
 31
0.0
  0
LINE
  5
3F8B
  8
2-0
  6
CONTINUOUS
 62
     3
 10
25491.428288999989
 20
16315.8603945
 30
0.0
 11
25521.425912999988
 21
16315.8603945
 31
0.0
  0
LINE
  5
3F8C
  8
2-0
  6
CONTINUOUS
 62
     3
 10
25491.428288999989
 20
16331.957839500001
 30
0.0
 11
25491.428288999989
 21
16325.960888499991
 31
0.0
  0
LINE
  5
3F8D
  8
2-0
  6
CONTINUOUS
 62
     3
 10
25491.428288999989
 20
16325.960888499991
 30
0.0
 11
25521.425912999988
 21
16325.960888499991
 31
0.0
  0
LINE
  5
3F8E
  8
2-0
  6
CONTINUOUS
 62
     3
 10
25521.425912999988
 20
16325.960888499991
 30
0.0
 11
25521.425912999988
 21
16362.961059499999
 31
0.0
  0
LINE
  5
3F8F
  8
2-0
  6
CONTINUOUS
 62
     3
 10
25491.428288999989
 20
16362.961059499999
 30
0.0
 11
25521.425912999988
 21
16362.961059499999
 31
0.0
  0
LINE
  5
3F90
  8
2-0
  6
CONTINUOUS
 62
     3
 10
25491.428288999989
 20
16356.9581695
 30
0.0
 11
25491.428288999989
 21
16362.961059499999
 31
0.0
  0
LINE
  5
3F91
  8
2-0
  6
CONTINUOUS
 62
     3
 10
25491.428288999989
 20
16373.0566045
 30
0.0
 11
25521.425912999988
 21
16373.0566045
 31
0.0
  0
LINE
  5
3F92
  8
2-0
  6
CONTINUOUS
 62
     3
 10
25491.428288999989
 20
16355.0489235
 30
0.0
 11
25491.428288999989
 21
16373.0566045
 31
0.0
  0
LINE
  5
3F93
  8
2-0
  6
CONTINUOUS
 62
     3
 10
25516.425649000001
 20
16355.0489235
 30
0.0
 11
25491.428288999989
 21
16355.0489235
 31
0.0
  0
LINE
  5
3F94
  8
2-0
  6
CONTINUOUS
 62
     3
 10
25516.425649000001
 20
16360.05512649999
 30
0.0
 11
25516.425649000001
 21
16355.0489235
 31
0.0
  0
LINE
  5
3F95
  8
2-0
  6
CONTINUOUS
 62
     3
 10
25509.424092000001
 20
16360.05512649999
 30
0.0
 11
25516.425649000001
 21
16360.05512649999
 31
0.0
  0
LINE
  5
3F96
  8
2-0
  6
CONTINUOUS
 62
     3
 10
25509.424092000001
 20
15659.29514300001
 30
0.0
 11
25516.425649000001
 21
15659.29514300001
 31
0.0
  0
LINE
  5
3F97
  8
2-0
  6
CONTINUOUS
 62
     3
 10
25516.425649000001
 20
15659.29514300001
 30
0.0
 11
25516.425649000001
 21
15654.300818000011
 31
0.0
  0
LINE
  5
3F98
  8
2-0
  6
CONTINUOUS
 62
     3
 10
25516.425649000001
 20
15654.300818000011
 30
0.0
 11
25491.428288999989
 21
15654.300818000011
 31
0.0
  0
LINE
  5
3F99
  8
2-0
  6
CONTINUOUS
 62
     3
 10
25491.428288999989
 20
15654.300818000011
 30
0.0
 11
25491.428288999989
 21
15672.296621
 31
0.0
  0
LINE
  5
3F9A
  8
2-0
  6
CONTINUOUS
 62
     3
 10
25491.428288999989
 20
15672.296621
 30
0.0
 11
25521.425912999988
 21
15672.296621
 31
0.0
  0
LINE
  5
3F9B
  8
2-0
  6
CONTINUOUS
 62
     3
 10
25491.428288999989
 20
15656.199176
 30
0.0
 11
25491.428288999989
 21
15662.201076000019
 31
0.0
  0
LINE
  5
3F9C
  8
2-0
  6
CONTINUOUS
 62
     3
 10
25491.428288999989
 20
15662.201076000019
 30
0.0
 11
25521.425912999988
 21
15662.201076000019
 31
0.0
  0
LINE
  5
3F9D
  8
2-0
  6
CONTINUOUS
 62
     3
 10
25521.425912999988
 20
15625.20189500002
 30
0.0
 11
25521.425912999988
 21
15662.201076000019
 31
0.0
  0
LINE
  5
3F9E
  8
2-0
  6
CONTINUOUS
 62
     3
 10
25491.428288999989
 20
15625.20189500002
 30
0.0
 11
25521.425912999988
 21
15625.20189500002
 31
0.0
  0
LINE
  5
3F9F
  8
2-0
  6
CONTINUOUS
 62
     3
 10
25491.428288999989
 20
15631.198845999999
 30
0.0
 11
25491.428288999989
 21
15625.20189500002
 31
0.0
  0
LINE
  5
3FA0
  8
2-0
  6
CONTINUOUS
 62
     3
 10
25491.428288999989
 20
15615.100410999999
 30
0.0
 11
25521.425912999988
 21
15615.100410999999
 31
0.0
  0
LINE
  5
3FA1
  8
2-0
  6
CONTINUOUS
 62
     3
 10
25491.428288999989
 20
15633.108091999989
 30
0.0
 11
25491.428288999989
 21
15615.100410999999
 31
0.0
  0
LINE
  5
3FA2
  8
2-0
  6
CONTINUOUS
 62
     3
 10
25516.425649000001
 20
15633.108091999989
 30
0.0
 11
25491.428288999989
 21
15633.108091999989
 31
0.0
  0
LINE
  5
3FA3
  8
2-0
  6
CONTINUOUS
 62
     3
 10
25516.425649000001
 20
15628.10782800002
 30
0.0
 11
25516.425649000001
 21
15633.108091999989
 31
0.0
  0
LINE
  5
3FA4
  8
2-0
  6
CONTINUOUS
 62
     3
 10
25509.424092000001
 20
15628.10782800002
 30
0.0
 11
25516.425649000001
 21
15628.10782800002
 31
0.0
  0
LINE
  5
3FA5
  8
2-0
  6
CONTINUOUS
 62
     3
 10
25521.425912999988
 20
17020.348564000011
 30
0.0
 11
25521.425912999988
 21
16373.0566045
 31
0.0
  0
LINE
  5
3FA6
  8
2-0
  6
CONTINUOUS
 62
     3
 10
25521.425912999988
 20
17174.958861999999
 30
0.0
 11
25521.425912999988
 21
17029.957147000001
 31
0.0
  0
LINE
  5
3FA7
  8
2-0
  6
CONTINUOUS
 62
     3
 10
25433.543205999991
 20
17144.959257999992
 30
0.0
 11
25433.543205999991
 21
17059.96269
 31
0.0
  0
LINE
  5
3FA8
  8
2-0
  6
CONTINUOUS
 62
     6
 10
23895.334538999989
 20
18913.406523499991
 30
0.0
 11
24920.366870999991
 21
18913.406523499991
 31
0.0
  0
LINE
  5
3FA9
  8
2-0
  6
CONTINUOUS
 62
     3
 10
25509.424092000001
 20
14926.866821
 30
0.0
 11
25516.425649000001
 21
14926.866821
 31
0.0
  0
LINE
  5
3FAA
  8
2-0
  6
CONTINUOUS
 62
     3
 10
25516.425649000001
 20
14926.866821
 30
0.0
 11
25516.425649000001
 21
14931.861147
 31
0.0
  0
LINE
  5
3FAB
  8
2-0
  6
CONTINUOUS
 62
     3
 10
25516.425649000001
 20
14931.861147
 30
0.0
 11
25491.428288999989
 21
14931.861147
 31
0.0
  0
LINE
  5
3FAC
  8
2-0
  6
CONTINUOUS
 62
     3
 10
25491.428288999989
 20
14931.861147
 30
0.0
 11
25491.428288999989
 21
14913.865342999999
 31
0.0
  0
LINE
  5
3FAD
  8
2-0
  6
CONTINUOUS
 62
     3
 10
25491.428288999989
 20
14913.865342999999
 30
0.0
 11
25521.425912999988
 21
14913.865342999999
 31
0.0
  0
LINE
  5
3FAE
  8
2-0
  6
CONTINUOUS
 62
     3
 10
25491.428288999989
 20
14929.96377800001
 30
0.0
 11
25491.428288999989
 21
14923.960888000011
 31
0.0
  0
LINE
  5
3FAF
  8
2-0
  6
CONTINUOUS
 62
     3
 10
25491.428288999989
 20
14923.960888000011
 30
0.0
 11
25521.425912999988
 21
14923.960888000011
 31
0.0
  0
LINE
  5
3FB0
  8
2-0
  6
CONTINUOUS
 62
     3
 10
25521.425912999988
 20
14923.960888000011
 30
0.0
 11
25521.425912999988
 21
14960.961059999991
 31
0.0
  0
LINE
  5
3FB1
  8
2-0
  6
CONTINUOUS
 62
     3
 10
25491.428288999989
 20
14960.961059999991
 30
0.0
 11
25521.425912999988
 21
14960.961059999991
 31
0.0
  0
LINE
  5
3FB2
  8
2-0
  6
CONTINUOUS
 62
     3
 10
25491.428288999989
 20
14954.96410799998
 30
0.0
 11
25491.428288999989
 21
14960.961059999991
 31
0.0
  0
LINE
  5
3FB3
  8
2-0
  6
CONTINUOUS
 62
     3
 10
25491.428288999989
 20
14971.06155300001
 30
0.0
 11
25521.425912999988
 21
14971.06155300001
 31
0.0
  0
LINE
  5
3FB4
  8
2-0
  6
CONTINUOUS
 62
     3
 10
25491.428288999989
 20
14953.05486200001
 30
0.0
 11
25491.428288999989
 21
14971.06155300001
 31
0.0
  0
LINE
  5
3FB5
  8
2-0
  6
CONTINUOUS
 62
     3
 10
25516.425649000001
 20
14953.05486200001
 30
0.0
 11
25491.428288999989
 21
14953.05486200001
 31
0.0
  0
LINE
  5
3FB6
  8
2-0
  6
CONTINUOUS
 62
     3
 10
25516.425649000001
 20
14958.06007500001
 30
0.0
 11
25516.425649000001
 21
14953.05486200001
 31
0.0
  0
LINE
  5
3FB7
  8
2-0
  6
CONTINUOUS
 62
     3
 10
25509.424092000001
 20
14958.06007500001
 30
0.0
 11
25516.425649000001
 21
14958.06007500001
 31
0.0
  0
LINE
  5
3FB8
  8
2-0
  6
CONTINUOUS
 62
     3
 10
25491.428288999989
 20
14601.462901000001
 30
0.0
 11
25491.428288999989
 21
14607.46776999999
 31
0.0
  0
LINE
  5
3FB9
  8
2-0
  6
CONTINUOUS
 62
     3
 10
25491.428288999989
 20
14607.46776999999
 30
0.0
 11
25521.425912999988
 21
14607.46776999999
 31
0.0
  0
LINE
  5
3FBA
  8
2-0
  6
CONTINUOUS
 62
     3
 10
25521.425912999988
 20
14607.46776999999
 30
0.0
 11
25521.425912999988
 21
14492.463678999989
 31
0.0
  0
LINE
  5
3FBB
  8
2-0
  6
CONTINUOUS
 62
     3
 10
25521.425912999988
 20
14492.463678999989
 30
0.0
 11
25436.427365
 21
14492.463678999989
 31
0.0
  0
LINE
  5
3FBC
  8
2-0
  6
CONTINUOUS
 62
     3
 10
25436.427365
 20
14492.463678999989
 30
0.0
 11
25436.427365
 21
14577.459258000001
 31
0.0
  0
LINE
  5
3FBD
  8
2-0
  6
CONTINUOUS
 62
     3
 10
25436.427365
 20
14577.459258000001
 30
0.0
 11
25468.426282999979
 21
14577.459258000001
 31
0.0
  0
LINE
  5
3FBE
  8
2-0
  6
CONTINUOUS
 62
     3
 10
25509.424092000001
 20
14604.497503000001
 30
0.0
 11
25516.425649000001
 21
14604.497503000001
 31
0.0
  0
LINE
  5
3FBF
  8
2-0
  6
CONTINUOUS
 62
     3
 10
25516.425649000001
 20
14604.497503000001
 30
0.0
 11
25516.425649000001
 21
14599.500207999979
 31
0.0
  0
LINE
  5
3FC0
  8
2-0
  6
CONTINUOUS
 62
     3
 10
25516.425649000001
 20
14599.500207999979
 30
0.0
 11
25491.428288999989
 21
14599.500207999979
 31
0.0
  0
LINE
  5
3FC1
  8
2-0
  6
CONTINUOUS
 62
     3
 10
25491.428288999989
 20
14599.500207999979
 30
0.0
 11
25491.428288999989
 21
14617.498981000001
 31
0.0
  0
LINE
  5
3FC2
  8
2-0
  6
CONTINUOUS
 62
     3
 10
25491.428288999989
 20
14617.498981000001
 30
0.0
 11
25521.425912999988
 21
14617.498981000001
 31
0.0
  0
LINE
  5
3FC3
  8
2-0
  6
CENTER2
 62
     6
 10
25478.927629000002
 20
14294.96612099999
 30
0.0
 11
25478.927629000002
 21
15100.33487900002
 31
0.0
  0
LINE
  5
3FC4
  8
2-0
  6
CONTINUOUS
 62
     3
 10
25521.425912999988
 20
18590.056110000001
 30
0.0
 11
25521.425912999988
 21
19233.866827500002
 31
0.0
  0
LINE
  5
3FC5
  8
2-0
  6
CONTINUOUS
 62
     6
 10
26213.930795999979
 20
20442.462162000022
 30
0.0
 11
27413.924857999958
 21
20442.462162000022
 31
0.0
  0
LINE
  5
3FC6
  8
2-0
  6
CONTINUOUS
 62
     3
 10
23684.929477000001
 20
19712.459259000021
 30
0.0
 11
23684.929477000001
 21
19682.455696000001
 31
0.0
  0
LINE
  5
3FC7
  8
2-0
  6
CONTINUOUS
 62
     3
 10
23684.929477000001
 20
19682.455696000001
 30
0.0
 11
23678.931534999982
 21
19682.455696000001
 31
0.0
  0
LINE
  5
3FC8
  8
2-0
  6
CONTINUOUS
 62
     3
 10
23694.545978000009
 20
19682.455696000001
 30
0.0
 11
23694.545978000009
 21
19712.459259000021
 31
0.0
  0
LINE
  5
3FC9
  8
2-0
  6
CONTINUOUS
 62
     3
 10
23676.544235999991
 20
19682.455696000001
 30
0.0
 11
23694.545978000009
 21
19682.455696000001
 31
0.0
  0
LINE
  5
3FCA
  8
2-0
  6
CONTINUOUS
 62
     3
 10
23676.544235999991
 20
19707.464933000021
 30
0.0
 11
23676.544235999991
 21
19682.455696000001
 31
0.0
  0
LINE
  5
3FCB
  8
2-0
  6
CONTINUOUS
 62
     3
 10
23681.5445
 20
19707.464933000021
 30
0.0
 11
23676.544235999991
 21
19707.464933000021
 31
0.0
  0
LINE
  5
3FCC
  8
2-0
  6
CONTINUOUS
 62
     3
 10
23681.5445
 20
19700.45941700002
 30
0.0
 11
23681.5445
 21
19707.464933000021
 31
0.0
  0
LINE
  5
3FCD
  8
2-0
  6
CONTINUOUS
 62
     3
 10
23654.927893
 20
19709.567182000021
 30
0.0
 11
23654.927893
 21
19624.568634000021
 31
0.0
  0
LINE
  5
3FCE
  8
2-0
  6
CONTINUOUS
 62
     3
 10
23634.93079599999
 20
19709.567182000021
 30
0.0
 11
23654.927893
 21
19709.567182000021
 31
0.0
  0
LINE
  5
3FCF
  8
2-0
  6
CONTINUOUS
 62
     3
 10
23543.316696999998
 20
19700.45941700002
 30
0.0
 11
23543.316696999998
 21
19707.464933000021
 31
0.0
  0
LINE
  5
3FD0
  8
2-0
  6
CONTINUOUS
 62
     3
 10
23543.316696999998
 20
19707.464933000021
 30
0.0
 11
23548.316960999979
 21
19707.464933000021
 31
0.0
  0
LINE
  5
3FD1
  8
2-0
  6
CONTINUOUS
 62
     3
 10
23548.316960999979
 20
19707.464933000021
 30
0.0
 11
23548.316960999979
 21
19682.455696000001
 31
0.0
  0
LINE
  5
3FD2
  8
2-0
  6
CONTINUOUS
 62
     3
 10
23548.316960999979
 20
19682.455696000001
 30
0.0
 11
23530.315219
 21
19682.455696000001
 31
0.0
  0
LINE
  5
3FD3
  8
2-0
  6
CONTINUOUS
 62
     3
 10
23530.315219
 20
19682.455696000001
 30
0.0
 11
23530.315219
 21
19712.459259000021
 31
0.0
  0
LINE
  5
3FD4
  8
2-0
  6
CONTINUOUS
 62
     3
 10
23569.935282999992
 20
19709.567182000021
 30
0.0
 11
23589.930400000001
 21
19709.567182000021
 31
0.0
  0
LINE
  5
3FD5
  8
2-0
  6
CONTINUOUS
 62
     3
 10
23569.935282999992
 20
19624.568634000021
 30
0.0
 11
23569.935282999992
 21
19709.567182000021
 31
0.0
  0
LINE
  5
3FD6
  8
2-0
  6
CONTINUOUS
 62
     3
 10
23539.937658999988
 20
19682.455696000001
 30
0.0
 11
23545.93362
 21
19682.455696000001
 31
0.0
  0
LINE
  5
3FD7
  8
2-0
  6
CONTINUOUS
 62
     3
 10
23539.937658999988
 20
19712.459259000021
 30
0.0
 11
23539.937658999988
 21
19682.455696000001
 31
0.0
  0
LINE
  5
3FD8
  8
2-0
  6
CONTINUOUS
 62
     3
 10
23654.927893
 20
19624.568634000021
 30
0.0
 11
23569.935282999992
 21
19624.568634000021
 31
0.0
  0
LINE
  5
3FD9
  8
2-0
  6
CONTINUOUS
 62
     3
 10
23684.929477000001
 20
19712.459259000021
 30
0.0
 11
23539.937658999988
 21
19712.459259000021
 31
0.0
  0
LINE
  5
3FDA
  8
2-0
  6
CONTINUOUS
 62
     6
 10
25351.897962999981
 20
19155.561031500001
 30
0.0
 11
24920.366870999991
 21
18913.406523499991
 31
0.0
  0
LINE
  5
3FDB
  8
2-0
  6
CONTINUOUS
 62
     6
 10
25673.466796999961
 20
19855.138999000021
 30
0.0
 11
26213.930795999979
 21
20442.462162000022
 31
0.0
  0
LINE
  5
3FDC
  8
2-0
  6
CONTINUOUS
 62
     6
 10
23569.927365
 20
14577.459258000001
 30
0.0
 11
23293.337152000011
 21
15032.803958
 31
0.0
  0
LINE
  5
3FDD
  8
2-0
  6
CONTINUOUS
 62
     6
 10
23293.337152000011
 20
15032.803958
 30
0.0
 11
22262.987833000021
 21
15032.803958
 31
0.0
  0
LINE
  5
3FDE
  8
2-0
  6
CONTINUOUS
 62
     3
 10
25430.421505999991
 20
18518.959719999992
 30
0.0
 11
25477.427153999972
 21
18518.959719999992
 31
0.0
  0
LINE
  5
3FDF
  8
2-0
  6
CONTINUOUS
 62
     3
 10
25477.427153999972
 20
18603.96024800001
 30
0.0
 11
25430.421505999991
 21
18603.96024800001
 31
0.0
  0
LINE
  5
3FE0
  8
2-0
  6
CONTINUOUS
 62
     3
 10
25477.427153999972
 20
18518.959719999992
 30
0.0
 11
25477.427153999972
 21
18543.96301900001
 31
0.0
  0
LINE
  5
3FE1
  8
2-0
  6
CONTINUOUS
 62
     3
 10
25477.427153999972
 20
18578.958928
 30
0.0
 11
25477.427153999972
 21
18603.96024800001
 31
0.0
  0
LINE
  5
3FE2
  8
2-0
  6
CONTINUOUS
 62
     3
 10
25430.421505999991
 20
18603.96024800001
 30
0.0
 11
25430.421505999991
 21
18518.959719999992
 31
0.0
  0
LINE
  5
3FE3
  8
2-0
  6
CONTINUOUS
 62
     3
 10
25521.425912999988
 20
16315.8603945
 30
0.0
 11
25521.425912999988
 21
15672.296621
 31
0.0
  0
LINE
  5
3FE4
  8
2-0
  6
CONTINUOUS
 62
     3
 10
25430.421505999991
 20
15600.96269
 30
0.0
 11
25477.427153999972
 21
15600.96269
 31
0.0
  0
LINE
  5
3FE5
  8
2-0
  6
CONTINUOUS
 62
     3
 10
25477.427153999972
 20
15685.95925799999
 30
0.0
 11
25430.421505999991
 21
15685.95925799999
 31
0.0
  0
LINE
  5
3FE6
  8
2-0
  6
CONTINUOUS
 62
     3
 10
25477.427153999972
 20
15600.96269
 30
0.0
 11
25477.427153999972
 21
15625.95807100001
 31
0.0
  0
LINE
  5
3FE7
  8
2-0
  6
CONTINUOUS
 62
     3
 10
25477.427153999972
 20
15660.957939000011
 30
0.0
 11
25477.427153999972
 21
15685.95925799999
 31
0.0
  0
LINE
  5
3FE8
  8
2-0
  6
CONTINUOUS
 62
     3
 10
25430.421505999991
 20
15685.95925799999
 30
0.0
 11
25430.421505999991
 21
15600.96269
 31
0.0
  0
LINE
  5
3FE9
  8
2-0
  6
CONTINUOUS
 62
     6
 10
23509.649044999998
 20
14728.055092999981
 30
0.0
 11
23569.927365
 21
14577.459258000001
 31
0.0
  0
LINE
  5
3FEA
  8
2-0
  6
CONTINUOUS
 62
     6
 10
23569.927365
 20
14577.459258000001
 30
0.0
 11
23464.068650000041
 21
14700.367566999999
 31
0.0
  0
LINE
  5
3FEB
  8
2-0
  6
CONTINUOUS
 62
     6
 10
23509.649044999998
 20
14728.055092999981
 30
0.0
 11
23464.068650000041
 21
14700.367566999999
 31
0.0
  0
LINE
  5
3FEC
  8
2-0
  6
CONTINUOUS
 62
     6
 10
23464.068650000041
 20
14700.367566999999
 30
0.0
 11
23569.927365
 21
14577.459258000001
 31
0.0
  0
LINE
  5
3FED
  8
2-0
  6
CONTINUOUS
 62
     6
 10
23569.927365
 20
14577.459258000001
 30
0.0
 11
23509.649044999998
 21
14728.055092999981
 31
0.0
  0
LINE
  5
3FEE
  8
2-0
  6
CONTINUOUS
 62
     6
 10
23509.649044999998
 20
14728.055092999981
 30
0.0
 11
23569.927365
 21
14577.459258000001
 31
0.0
  0
LINE
  5
3FEF
  8
2-0
  6
CONTINUOUS
 62
     6
 10
23464.068650000041
 20
14700.367566999999
 30
0.0
 11
23569.927365
 21
14577.459258000001
 31
0.0
  0
LINE
  5
3FF0
  8
2-0
  6
CONTINUOUS
 62
     6
 10
23464.068650000041
 20
14700.367566999999
 30
0.0
 11
23509.649044999998
 21
14728.055092999981
 31
0.0
  0
LINE
  5
3FF1
  8
2-0
  6
CONTINUOUS
 62
     6
 10
25338.841057999991
 20
19178.820375499999
 30
0.0
 11
25491.428288999989
 21
19233.866827500002
 31
0.0
  0
LINE
  5
3FF2
  8
2-0
  6
CONTINUOUS
 62
     6
 10
25491.428288999989
 20
19233.866827500002
 30
0.0
 11
25364.94694899999
 21
19132.307627499991
 31
0.0
  0
LINE
  5
3FF3
  8
2-0
  6
CONTINUOUS
 62
     6
 10
25338.841057999991
 20
19178.820375499999
 30
0.0
 11
25364.94694899999
 21
19132.307627499991
 31
0.0
  0
LINE
  5
3FF4
  8
2-0
  6
CONTINUOUS
 62
     6
 10
25364.94694899999
 20
19132.307627499991
 30
0.0
 11
25491.428288999989
 21
19233.866827500002
 31
0.0
  0
LINE
  5
3FF5
  8
2-0
  6
CONTINUOUS
 62
     6
 10
25491.428288999989
 20
19233.866827500002
 30
0.0
 11
25338.841057999991
 21
19178.820375499999
 31
0.0
  0
LINE
  5
3FF6
  8
2-0
  6
CONTINUOUS
 62
     6
 10
25338.841057999991
 20
19178.820375499999
 30
0.0
 11
25491.428288999989
 21
19233.866827500002
 31
0.0
  0
LINE
  5
3FF7
  8
2-0
  6
CONTINUOUS
 62
     6
 10
25364.94694899999
 20
19132.307627499991
 30
0.0
 11
25491.428288999989
 21
19233.866827500002
 31
0.0
  0
LINE
  5
3FF8
  8
2-0
  6
CONTINUOUS
 62
     6
 10
25364.94694899999
 20
19132.307627499991
 30
0.0
 11
25338.841057999991
 21
19178.820375499999
 31
0.0
  0
LINE
  5
3FF9
  8
2-0
  6
CONTINUOUS
 62
     6
 10
25693.083825999991
 20
19837.07787200002
 30
0.0
 11
25565.121805999988
 21
19737.395254000021
 31
0.0
  0
LINE
  5
3FFA
  8
2-0
  6
CONTINUOUS
 62
     6
 10
25565.121805999988
 20
19737.395254000021
 30
0.0
 11
25653.835910999991
 21
19873.192209000001
 31
0.0
  0
LINE
  5
3FFB
  8
2-0
  6
CONTINUOUS
 62
     6
 10
25693.083825999991
 20
19837.07787200002
 30
0.0
 11
25653.835910999991
 21
19873.192209000001
 31
0.0
  0
LINE
  5
3FFC
  8
2-0
  6
CONTINUOUS
 62
     6
 10
25653.835910999991
 20
19873.192209000001
 30
0.0
 11
25565.121805999988
 21
19737.395254000021
 31
0.0
  0
LINE
  5
3FFD
  8
2-0
  6
CONTINUOUS
 62
     6
 10
25565.121805999988
 20
19737.395254000021
 30
0.0
 11
25693.083825999991
 21
19837.07787200002
 31
0.0
  0
LINE
  5
3FFE
  8
2-0
  6
CONTINUOUS
 62
     6
 10
25693.083825999991
 20
19837.07787200002
 30
0.0
 11
25565.121805999988
 21
19737.395254000021
 31
0.0
  0
LINE
  5
3FFF
  8
2-0
  6
CONTINUOUS
 62
     6
 10
25653.835910999991
 20
19873.192209000001
 30
0.0
 11
25565.121805999988
 21
19737.395254000021
 31
0.0
  0
LINE
  5
4000
  8
2-0
  6
CONTINUOUS
 62
     6
 10
25653.835910999991
 20
19873.192209000001
 30
0.0
 11
25693.083825999991
 21
19837.07787200002
 31
0.0
  0
LINE
  5
4001
  8
2-0
  6
CONTINUOUS
 62
     6
 10
22070.49195
 20
19464.686877000011
 30
0.0
 11
21938.559016999981
 21
18995.341042
 31
0.0
  0
LINE
  5
4002
  8
2-0
  6
CONTINUOUS
 62
     6
 10
21938.559016999981
 20
18995.341042
 30
0.0
 11
20913.520745999998
 21
18995.341042
 31
0.0
  0
LINE
  5
4003
  8
2-0
  6
CONTINUOUS
 62
     6
 10
22113.786000999979
 20
19618.71519700002
 30
0.0
 11
22096.16432700001
 21
19457.46955200002
 31
0.0
  0
LINE
  5
4004
  8
2-0
  6
CONTINUOUS
 62
     6
 10
22044.819574000001
 20
19471.908161000021
 30
0.0
 11
22096.16432700001
 21
19457.46955200002
 31
0.0
  0
LINE
  5
4005
  8
2-0
  6
CONTINUOUS
 62
     6
 10
22096.16432700001
 20
19457.46955200002
 30
0.0
 11
22113.786000999979
 21
19618.71519700002
 31
0.0
  0
LINE
  5
4006
  8
2-0
  6
CONTINUOUS
 62
     6
 10
22113.786000999979
 20
19618.71519700002
 30
0.0
 11
22044.819574000001
 21
19471.908161000021
 31
0.0
  0
LINE
  5
4007
  8
2-0
  6
CONTINUOUS
 62
     6
 10
22044.819574000001
 20
19471.908161000021
 30
0.0
 11
22113.786000999979
 21
19618.71519700002
 31
0.0
  0
LINE
  5
4008
  8
2-0
  6
CONTINUOUS
 62
     6
 10
22096.16432700001
 20
19457.46955200002
 30
0.0
 11
22113.786000999979
 21
19618.71519700002
 31
0.0
  0
LINE
  5
4009
  8
2-0
  6
CONTINUOUS
 62
     6
 10
22096.16432700001
 20
19457.46955200002
 30
0.0
 11
22044.819574000001
 21
19471.908161000021
 31
0.0
  0
LINE
  5
400A
  8
2-0
  6
CONTINUOUS
 62
     6
 10
23571.012140999999
 20
19593.707939000011
 30
0.0
 11
23422.142446000002
 21
19064.085763000021
 31
0.0
  0
LINE
  5
400B
  8
2-0
  6
CONTINUOUS
 62
     6
 10
23422.142446000002
 20
19064.085763000021
 30
0.0
 11
22397.098236999998
 21
19064.085763000021
 31
0.0
  0
LINE
  5
400C
  8
2-0
  6
CONTINUOUS
 62
     6
 10
23553.388487000011
 20
19432.462294000001
 30
0.0
 11
23502.03779599999
 21
19446.896944000011
 31
0.0
  0
LINE
  5
400D
  8
2-0
  6
CONTINUOUS
 62
     6
 10
23502.03779599999
 20
19446.896944000011
 30
0.0
 11
23553.388487000011
 21
19432.462294000001
 31
0.0
  0
LINE
  5
400E
  8
2-0
  6
CONTINUOUS
 62
     6
 10
23553.388487000011
 20
19432.462294000001
 30
0.0
 11
23571.012140999999
 21
19593.707939000011
 31
0.0
  0
LINE
  5
400F
  8
2-0
  6
CONTINUOUS
 62
     6
 10
23571.012140999999
 20
19593.707939000011
 30
0.0
 11
23502.03779599999
 21
19446.896944000011
 31
0.0
  0
LINE
  5
4010
  8
2-0
  6
CONTINUOUS
 62
     6
 10
23502.03779599999
 20
19446.896944000011
 30
0.0
 11
23571.012140999999
 21
19593.707939000011
 31
0.0
  0
LINE
  5
4011
  8
2-0
  6
CONTINUOUS
 62
     6
 10
23553.388487000011
 20
19432.462294000001
 30
0.0
 11
23571.012140999999
 21
19593.707939000011
 31
0.0
  0
LINE
  5
4012
  8
2-0
  6
CONTINUOUS
 62
     6
 10
23502.03779599999
 20
19446.896944000011
 30
0.0
 11
23571.012140999999
 21
19593.707939000011
 31
0.0
  0
LINE
  5
4013
  8
2-0
  6
CONTINUOUS
 62
     6
 10
23571.012140999999
 20
19593.707939000011
 30
0.0
 11
23553.388487000011
 21
19432.462294000001
 31
0.0
  0
LINE
  5
4014
  8
2-0
  6
CONTINUOUS
 62
     4
 10
23612.427629000002
 20
19792.461502000009
 30
0.0
 11
23612.427629000002
 21
20522.458467
 31
0.0
  0
LINE
  5
4015
  8
2-0
  6
CONTINUOUS
 62
     6
 10
25275.102538999989
 20
15554.45588000002
 30
0.0
 11
25430.421505999991
 21
15601.20320100002
 31
0.0
  0
LINE
  5
4016
  8
2-0
  6
CONTINUOUS
 62
     6
 10
25430.421505999991
 20
15601.20320100002
 30
0.0
 11
25298.66078999998
 21
15506.610916000011
 31
0.0
  0
LINE
  5
4017
  8
2-0
  6
CONTINUOUS
 62
     6
 10
25275.102538999989
 20
15554.45588000002
 30
0.0
 11
25298.66078999998
 21
15506.610916000011
 31
0.0
  0
LINE
  5
4018
  8
2-0
  6
CONTINUOUS
 62
     6
 10
25298.66078999998
 20
15506.610916000011
 30
0.0
 11
25430.421505999991
 21
15601.20320100002
 31
0.0
  0
LINE
  5
4019
  8
2-0
  6
CONTINUOUS
 62
     6
 10
25430.421505999991
 20
15601.20320100002
 30
0.0
 11
25275.102538999989
 21
15554.45588000002
 31
0.0
  0
LINE
  5
401A
  8
2-0
  6
CONTINUOUS
 62
     6
 10
25275.102538999989
 20
15554.45588000002
 30
0.0
 11
25430.421505999991
 21
15601.20320100002
 31
0.0
  0
LINE
  5
401B
  8
2-0
  6
CONTINUOUS
 62
     6
 10
25298.66078999998
 20
15506.610916000011
 30
0.0
 11
25430.421505999991
 21
15601.20320100002
 31
0.0
  0
LINE
  5
401C
  8
2-0
  6
CONTINUOUS
 62
     6
 10
25298.66078999998
 20
15506.610916000011
 30
0.0
 11
25275.102538999989
 21
15554.45588000002
 31
0.0
  0
LINE
  5
401D
  8
2-0
  6
CONTINUOUS
 62
     6
 10
25244.788192
 20
14384.19094099999
 30
0.0
 11
25376.535050999999
 21
14478.817868
 31
0.0
  0
LINE
  5
401E
  8
2-0
  6
CONTINUOUS
 62
     6
 10
25376.535050999999
 20
14478.817868
 30
0.0
 11
25282.604914999982
 21
14346.57909799998
 31
0.0
  0
LINE
  5
401F
  8
2-0
  6
CONTINUOUS
 62
     6
 10
25244.788192
 20
14384.19094099999
 30
0.0
 11
25282.604914999982
 21
14346.57909799998
 31
0.0
  0
LINE
  5
4020
  8
2-0
  6
CONTINUOUS
 62
     6
 10
25282.604914999982
 20
14346.57909799998
 30
0.0
 11
25376.535050999999
 21
14478.817868
 31
0.0
  0
LINE
  5
4021
  8
2-0
  6
CONTINUOUS
 62
     6
 10
25376.535050999999
 20
14478.817868
 30
0.0
 11
25244.788192
 21
14384.19094099999
 31
0.0
  0
LINE
  5
4022
  8
2-0
  6
CONTINUOUS
 62
     6
 10
25244.788192
 20
14384.19094099999
 30
0.0
 11
25376.535050999999
 21
14478.817868
 31
0.0
  0
LINE
  5
4023
  8
2-0
  6
CONTINUOUS
 62
     6
 10
25282.604914999982
 20
14346.57909799998
 30
0.0
 11
25376.535050999999
 21
14478.817868
 31
0.0
  0
LINE
  5
4024
  8
2-0
  6
CONTINUOUS
 62
     6
 10
25282.604914999982
 20
14346.57909799998
 30
0.0
 11
25244.788192
 21
14384.19094099999
 31
0.0
  0
LINE
  5
4025
  8
2-0
  6
CONTINUOUS
 62
     6
 10
25307.82398099999
 20
14711.09556799999
 30
0.0
 11
25440.424012999989
 21
14617.667239999981
 31
0.0
  0
LINE
  5
4026
  8
2-0
  6
CONTINUOUS
 62
     6
 10
25440.424012999989
 20
14617.667239999981
 30
0.0
 11
25284.69132699999
 21
14663.042753999989
 31
0.0
  0
LINE
  5
4027
  8
2-0
  6
CONTINUOUS
 62
     6
 10
25307.82398099999
 20
14711.09556799999
 30
0.0
 11
25284.69132699999
 21
14663.042753999989
 31
0.0
  0
LINE
  5
4028
  8
2-0
  6
CONTINUOUS
 62
     6
 10
25284.69132699999
 20
14663.042753999989
 30
0.0
 11
25440.424012999989
 21
14617.667239999981
 31
0.0
  0
LINE
  5
4029
  8
2-0
  6
CONTINUOUS
 62
     6
 10
25440.424012999989
 20
14617.667239999981
 30
0.0
 11
25307.82398099999
 21
14711.09556799999
 31
0.0
  0
LINE
  5
402A
  8
2-0
  6
CONTINUOUS
 62
     6
 10
25307.82398099999
 20
14711.09556799999
 30
0.0
 11
25440.424012999989
 21
14617.667239999981
 31
0.0
  0
LINE
  5
402B
  8
2-0
  6
CONTINUOUS
 62
     6
 10
25284.69132699999
 20
14663.042753999989
 30
0.0
 11
25440.424012999989
 21
14617.667239999981
 31
0.0
  0
LINE
  5
402C
  8
2-0
  6
CONTINUOUS
 62
     6
 10
25284.69132699999
 20
14663.042753999989
 30
0.0
 11
25307.82398099999
 21
14711.09556799999
 31
0.0
  0
LINE
  5
402D
  8
2-0
  6
CONTINUOUS
 62
     6
 10
25367.58762699999
 20
16740.416501000022
 30
0.0
 11
25521.425912999988
 21
16791.85033200002
 31
0.0
  0
LINE
  5
402E
  8
2-0
  6
CONTINUOUS
 62
     6
 10
25521.425912999988
 20
16791.85033200002
 30
0.0
 11
25392.590925999972
 21
16693.309897000021
 31
0.0
  0
LINE
  5
402F
  8
2-0
  6
CONTINUOUS
 62
     6
 10
25367.58762699999
 20
16740.416501000022
 30
0.0
 11
25392.590925999972
 21
16693.309897000021
 31
0.0
  0
LINE
  5
4030
  8
2-0
  6
CONTINUOUS
 62
     6
 10
25392.590925999972
 20
16693.309897000021
 30
0.0
 11
25521.425912999988
 21
16791.85033200002
 31
0.0
  0
LINE
  5
4031
  8
2-0
  6
CONTINUOUS
 62
     6
 10
25521.425912999988
 20
16791.85033200002
 30
0.0
 11
25367.58762699999
 21
16740.416501000022
 31
0.0
  0
LINE
  5
4032
  8
2-0
  6
CONTINUOUS
 62
     6
 10
25367.58762699999
 20
16740.416501000022
 30
0.0
 11
25521.425912999988
 21
16791.85033200002
 31
0.0
  0
LINE
  5
4033
  8
2-0
  6
CONTINUOUS
 62
     6
 10
25392.590925999972
 20
16693.309897000021
 30
0.0
 11
25521.425912999988
 21
16791.85033200002
 31
0.0
  0
LINE
  5
4034
  8
2-0
  6
CONTINUOUS
 62
     6
 10
25392.590925999972
 20
16693.309897000021
 30
0.0
 11
25367.58762699999
 21
16740.416501000022
 31
0.0
  0
LINE
  5
4035
  8
2-0
  6
CONTINUOUS
 62
     6
 10
25233.651419999991
 20
17231.73499300002
 30
0.0
 11
25376.535050999999
 21
17154.959363999991
 31
0.0
  0
LINE
  5
4036
  8
2-0
  6
CONTINUOUS
 62
     6
 10
25376.535050999999
 20
17154.959363999991
 30
0.0
 11
25216.473158000001
 21
17181.241433000021
 31
0.0
  0
LINE
  5
4037
  8
2-0
  6
CONTINUOUS
 62
     6
 10
25233.651419999991
 20
17231.73499300002
 30
0.0
 11
25216.473158000001
 21
17181.241433000021
 31
0.0
  0
LINE
  5
4038
  8
2-0
  6
CONTINUOUS
 62
     6
 10
25216.473158000001
 20
17181.241433000021
 30
0.0
 11
25376.535050999999
 21
17154.959363999991
 31
0.0
  0
LINE
  5
4039
  8
2-0
  6
CONTINUOUS
 62
     6
 10
25376.535050999999
 20
17154.959363999991
 30
0.0
 11
25233.651419999991
 21
17231.73499300002
 31
0.0
  0
LINE
  5
403A
  8
2-0
  6
CONTINUOUS
 62
     6
 10
25233.651419999991
 20
17231.73499300002
 30
0.0
 11
25376.535050999999
 21
17154.959363999991
 31
0.0
  0
LINE
  5
403B
  8
2-0
  6
CONTINUOUS
 62
     6
 10
25216.473158000001
 20
17181.241433000021
 30
0.0
 11
25376.535050999999
 21
17154.959363999991
 31
0.0
  0
LINE
  5
403C
  8
2-0
  6
CONTINUOUS
 62
     6
 10
25216.473158000001
 20
17181.241433000021
 30
0.0
 11
25233.651419999991
 21
17231.73499300002
 31
0.0
  0
LINE
  5
403D
  8
2-0
  6
CONTINUOUS
 62
     6
 10
25275.102538999989
 20
18472.215368000001
 30
0.0
 11
25430.421505999991
 21
18518.959719999992
 31
0.0
  0
LINE
  5
403E
  8
2-0
  6
CONTINUOUS
 62
     6
 10
25430.421505999991
 20
18518.959719999992
 30
0.0
 11
25298.66078999998
 21
18424.36446600001
 31
0.0
  0
LINE
  5
403F
  8
2-0
  6
CONTINUOUS
 62
     6
 10
25275.102538999989
 20
18472.215368000001
 30
0.0
 11
25298.66078999998
 21
18424.36446600001
 31
0.0
  0
LINE
  5
4040
  8
2-0
  6
CONTINUOUS
 62
     6
 10
25298.66078999998
 20
18424.36446600001
 30
0.0
 11
25430.421505999991
 21
18518.959719999992
 31
0.0
  0
LINE
  5
4041
  8
2-0
  6
CONTINUOUS
 62
     6
 10
25430.421505999991
 20
18518.959719999992
 30
0.0
 11
25275.102538999989
 21
18472.215368000001
 31
0.0
  0
LINE
  5
4042
  8
2-0
  6
CONTINUOUS
 62
     6
 10
25275.102538999989
 20
18472.215368000001
 30
0.0
 11
25430.421505999991
 21
18518.959719999992
 31
0.0
  0
LINE
  5
4043
  8
2-0
  6
CONTINUOUS
 62
     6
 10
25298.66078999998
 20
18424.36446600001
 30
0.0
 11
25430.421505999991
 21
18518.959719999992
 31
0.0
  0
LINE
  5
4044
  8
2-0
  6
CONTINUOUS
 62
     6
 10
25298.66078999998
 20
18424.36446600001
 30
0.0
 11
25275.102538999989
 21
18472.215368000001
 31
0.0
  0
LINE
  5
4045
  8
2-0
  6
CONTINUOUS
 62
     3
 10
22872.92820999998
 20
19712.459259000021
 30
0.0
 11
22835.927048000001
 21
19712.459259000021
 31
0.0
  0
LINE
  5
4046
  8
2-0
  6
CONTINUOUS
 62
     3
 10
22872.92820999998
 20
19682.455696000001
 30
0.0
 11
22872.92820999998
 21
19712.459259000021
 31
0.0
  0
LINE
  5
4047
  8
2-0
  6
CONTINUOUS
 62
     3
 10
22866.92828899997
 20
19682.455696000001
 30
0.0
 11
22872.92820999998
 21
19682.455696000001
 31
0.0
  0
LINE
  5
4048
  8
2-0
  6
CONTINUOUS
 62
     3
 10
22883.025733999999
 20
19682.455696000001
 30
0.0
 11
22883.025733999999
 21
19712.459259000021
 31
0.0
  0
LINE
  5
4049
  8
2-0
  6
CONTINUOUS
 62
     3
 10
22865.022012999991
 20
19682.455696000001
 30
0.0
 11
22883.025733999999
 21
19682.455696000001
 31
0.0
  0
LINE
  5
404A
  8
2-0
  6
CONTINUOUS
 62
     3
 10
22865.022012999991
 20
19707.464933000021
 30
0.0
 11
22865.022012999991
 21
19682.455696000001
 31
0.0
  0
LINE
  5
404B
  8
2-0
  6
CONTINUOUS
 62
     3
 10
22870.022276999989
 20
19707.464933000021
 30
0.0
 11
22865.022012999991
 21
19707.464933000021
 31
0.0
  0
LINE
  5
404C
  8
2-0
  6
CONTINUOUS
 62
     3
 10
22870.022276999989
 20
19700.45941700002
 30
0.0
 11
22870.022276999989
 21
19707.464933000021
 31
0.0
  0
LINE
  5
404D
  8
2-0
  6
CONTINUOUS
 62
     3
 10
22838.832981999982
 20
19700.45941700002
 30
0.0
 11
22838.832981999982
 21
19707.464933000021
 31
0.0
  0
LINE
  5
404E
  8
2-0
  6
CONTINUOUS
 62
     3
 10
22838.832981999982
 20
19707.464933000021
 30
0.0
 11
22843.833245999991
 21
19707.464933000021
 31
0.0
  0
LINE
  5
404F
  8
2-0
  6
CONTINUOUS
 62
     3
 10
22843.833245999991
 20
19707.464933000021
 30
0.0
 11
22843.833245999991
 21
19682.455696000001
 31
0.0
  0
LINE
  5
4050
  8
2-0
  6
CONTINUOUS
 62
     3
 10
22843.833245999991
 20
19682.455696000001
 30
0.0
 11
22825.833482999991
 21
19682.455696000001
 31
0.0
  0
LINE
  5
4051
  8
2-0
  6
CONTINUOUS
 62
     3
 10
22825.833482999991
 20
19682.455696000001
 30
0.0
 11
22825.833482999991
 21
19712.459259000021
 31
0.0
  0
LINE
  5
4052
  8
2-0
  6
CONTINUOUS
 62
     3
 10
22841.926968999989
 20
19682.455696000001
 30
0.0
 11
22835.927048000001
 21
19682.455696000001
 31
0.0
  0
LINE
  5
4053
  8
2-0
  6
CONTINUOUS
 62
     3
 10
22835.927048000001
 20
19682.455696000001
 30
0.0
 11
22835.927048000001
 21
19712.459259000021
 31
0.0
  0
LINE
  5
4054
  8
2-0
  6
CONTINUOUS
 62
     3
 10
20331.428949000001
 20
19603.459048000001
 30
0.0
 11
20331.428949000001
 21
19597.463086000022
 31
0.0
  0
LINE
  5
4055
  8
2-0
  6
CONTINUOUS
 62
     3
 10
20331.428949000001
 20
19597.463086000022
 30
0.0
 11
20301.43132399999
 21
19597.463086000022
 31
0.0
  0
LINE
  5
4056
  8
2-0
  6
CONTINUOUS
 62
     3
 10
20301.43132399999
 20
19597.463086000022
 30
0.0
 11
20301.43132399999
 21
19712.459259000021
 31
0.0
  0
LINE
  5
4057
  8
2-0
  6
CONTINUOUS
 62
     3
 10
20301.43132399999
 20
19627.46269
 30
0.0
 11
20382.429264999999
 21
19627.46269
 31
0.0
  0
LINE
  5
4058
  8
2-0
  6
CONTINUOUS
 62
     3
 10
20331.428949000001
 20
19587.16563000001
 30
0.0
 11
20301.43132399999
 21
19587.16563000001
 31
0.0
  0
LINE
  5
4059
  8
2-0
  6
CONTINUOUS
 62
     3
 10
20331.428949000001
 20
19605.167372000022
 30
0.0
 11
20331.428949000001
 21
19587.16563000001
 31
0.0
  0
LINE
  5
405A
  8
2-0
  6
CONTINUOUS
 62
     3
 10
20306.435547000001
 20
19605.167372000022
 30
0.0
 11
20331.428949000001
 21
19605.167372000022
 31
0.0
  0
LINE
  5
405B
  8
2-0
  6
CONTINUOUS
 62
     3
 10
20306.435547000001
 20
19600.15919000002
 30
0.0
 11
20306.435547000001
 21
19605.167372000022
 31
0.0
  0
LINE
  5
405C
  8
2-0
  6
CONTINUOUS
 62
     3
 10
20313.43314499997
 20
19600.15919000002
 30
0.0
 11
20306.435547000001
 21
19600.15919000002
 31
0.0
  0
LINE
  5
405D
  8
2-0
  6
CONTINUOUS
 62
     3
 10
20413.727433999979
 20
19700.45941700002
 30
0.0
 11
20413.727433999979
 21
19707.464933000021
 31
0.0
  0
LINE
  5
405E
  8
2-0
  6
CONTINUOUS
 62
     3
 10
20413.727433999979
 20
19707.464933000021
 30
0.0
 11
20408.725190000001
 21
19707.464933000021
 31
0.0
  0
LINE
  5
405F
  8
2-0
  6
CONTINUOUS
 62
     3
 10
20408.725190000001
 20
19707.464933000021
 30
0.0
 11
20408.725190000001
 21
19682.455696000001
 31
0.0
  0
LINE
  5
4060
  8
2-0
  6
CONTINUOUS
 62
     3
 10
20408.725190000001
 20
19682.455696000001
 30
0.0
 11
20426.732870999989
 21
19682.455696000001
 31
0.0
  0
LINE
  5
4061
  8
2-0
  6
CONTINUOUS
 62
     3
 10
20426.732870999989
 20
19682.455696000001
 30
0.0
 11
20426.732870999989
 21
19712.459259000021
 31
0.0
  0
LINE
  5
4062
  8
2-0
  6
CONTINUOUS
 62
     3
 10
20416.433434999999
 20
19712.459259000021
 30
0.0
 11
20301.43132399999
 21
19712.459259000021
 31
0.0
  0
LINE
  5
4063
  8
2-0
  6
CONTINUOUS
 62
     3
 10
20416.433434999999
 20
19682.455696000001
 30
0.0
 11
20416.433434999999
 21
19712.459259000021
 31
0.0
  0
LINE
  5
4064
  8
2-0
  6
CONTINUOUS
 62
     3
 10
20410.429555999981
 20
19682.455696000001
 30
0.0
 11
20416.433434999999
 21
19682.455696000001
 31
0.0
  0
LINE
  5
4065
  8
2-0
  6
CONTINUOUS
 62
     3
 10
21468.017327500002
 20
19700.45941700002
 30
0.0
 11
21468.017327500002
 21
19707.464933000021
 31
0.0
  0
LINE
  5
4066
  8
2-0
  6
CONTINUOUS
 62
     3
 10
21468.017327500002
 20
19707.464933000021
 30
0.0
 11
21463.017063499999
 21
19707.464933000021
 31
0.0
  0
LINE
  5
4067
  8
2-0
  6
CONTINUOUS
 62
     3
 10
21463.017063499999
 20
19707.464933000021
 30
0.0
 11
21463.017063499999
 21
19682.455696000001
 31
0.0
  0
LINE
  5
4068
  8
2-0
  6
CONTINUOUS
 62
     3
 10
21463.017063499999
 20
19682.455696000001
 30
0.0
 11
21481.022764500001
 21
19682.455696000001
 31
0.0
  0
LINE
  5
4069
  8
2-0
  6
CONTINUOUS
 62
     3
 10
21481.022764500001
 20
19682.455696000001
 30
0.0
 11
21481.022764500001
 21
19712.459259000021
 31
0.0
  0
LINE
  5
406A
  8
2-0
  6
CONTINUOUS
 62
     3
 10
21464.925319499991
 20
19682.455696000001
 30
0.0
 11
21470.927219500001
 21
19682.455696000001
 31
0.0
  0
LINE
  5
406B
  8
2-0
  6
CONTINUOUS
 62
     3
 10
21470.927219500001
 20
19682.455696000001
 30
0.0
 11
21470.927219500001
 21
19712.459259000021
 31
0.0
  0
LINE
  5
406C
  8
2-0
  6
CONTINUOUS
 62
     3
 10
21433.928038499991
 20
19712.459259000021
 30
0.0
 11
21470.927219500001
 21
19712.459259000021
 31
0.0
  0
LINE
  5
406D
  8
2-0
  6
CONTINUOUS
 62
     3
 10
21433.928038499991
 20
19682.455696000001
 30
0.0
 11
21433.928038499991
 21
19712.459259000021
 31
0.0
  0
LINE
  5
406E
  8
2-0
  6
CONTINUOUS
 62
     3
 10
21439.922020499991
 20
19682.455696000001
 30
0.0
 11
21433.928038499991
 21
19682.455696000001
 31
0.0
  0
LINE
  5
406F
  8
2-0
  6
CONTINUOUS
 62
     3
 10
21423.832493499991
 20
19682.455696000001
 30
0.0
 11
21423.832493499991
 21
19712.459259000021
 31
0.0
  0
LINE
  5
4070
  8
2-0
  6
CONTINUOUS
 62
     3
 10
21441.8282965
 20
19682.455696000001
 30
0.0
 11
21423.832493499991
 21
19682.455696000001
 31
0.0
  0
LINE
  5
4071
  8
2-0
  6
CONTINUOUS
 62
     3
 10
21441.8282965
 20
19707.464933000021
 30
0.0
 11
21441.8282965
 21
19682.455696000001
 31
0.0
  0
LINE
  5
4072
  8
2-0
  6
CONTINUOUS
 62
     3
 10
21436.828032499991
 20
19707.464933000021
 30
0.0
 11
21441.8282965
 21
19707.464933000021
 31
0.0
  0
LINE
  5
4073
  8
2-0
  6
CONTINUOUS
 62
     3
 10
21436.828032499991
 20
19700.45941700002
 30
0.0
 11
21436.828032499991
 21
19707.464933000021
 31
0.0
  0
LINE
  5
4074
  8
2-0
  6
CONTINUOUS
 62
     3
 10
22137.82704349999
 20
19700.45941700002
 30
0.0
 11
22137.82704349999
 21
19707.464933000021
 31
0.0
  0
LINE
  5
4075
  8
2-0
  6
CONTINUOUS
 62
     3
 10
22137.82704349999
 20
19707.464933000021
 30
0.0
 11
22142.827306499988
 21
19707.464933000021
 31
0.0
  0
LINE
  5
4076
  8
2-0
  6
CONTINUOUS
 62
     3
 10
22142.827306499988
 20
19707.464933000021
 30
0.0
 11
22142.827306499988
 21
19682.455696000001
 31
0.0
  0
LINE
  5
4077
  8
2-0
  6
CONTINUOUS
 62
     3
 10
22142.827306499988
 20
19682.455696000001
 30
0.0
 11
22124.83348349997
 21
19682.455696000001
 31
0.0
  0
LINE
  5
4078
  8
2-0
  6
CONTINUOUS
 62
     3
 10
22124.83348349997
 20
19682.455696000001
 30
0.0
 11
22124.83348349997
 21
19712.459259000021
 31
0.0
  0
LINE
  5
4079
  8
2-0
  6
CONTINUOUS
 62
     3
 10
22140.924989499981
 20
19682.455696000001
 30
0.0
 11
22134.927048499991
 21
19682.455696000001
 31
0.0
  0
LINE
  5
407A
  8
2-0
  6
CONTINUOUS
 62
     3
 10
22134.927048499991
 20
19682.455696000001
 30
0.0
 11
22134.927048499991
 21
19712.459259000021
 31
0.0
  0
LINE
  5
407B
  8
2-0
  6
CONTINUOUS
 62
     3
 10
22171.928209499991
 20
19712.459259000021
 30
0.0
 11
22134.927048499991
 21
19712.459259000021
 31
0.0
  0
LINE
  5
407C
  8
2-0
  6
CONTINUOUS
 62
     3
 10
22171.928209499991
 20
19682.455696000001
 30
0.0
 11
22171.928209499991
 21
19712.459259000021
 31
0.0
  0
LINE
  5
407D
  8
2-0
  6
CONTINUOUS
 62
     3
 10
22165.922350500001
 20
19682.455696000001
 30
0.0
 11
22171.928209499991
 21
19682.455696000001
 31
0.0
  0
LINE
  5
407E
  8
2-0
  6
CONTINUOUS
 62
     3
 10
22182.021774500001
 20
19682.455696000001
 30
0.0
 11
22182.021774500001
 21
19712.459259000021
 31
0.0
  0
LINE
  5
407F
  8
2-0
  6
CONTINUOUS
 62
     3
 10
22164.025971499988
 20
19682.455696000001
 30
0.0
 11
22182.021774500001
 21
19682.455696000001
 31
0.0
  0
LINE
  5
4080
  8
2-0
  6
CONTINUOUS
 62
     3
 10
22164.025971499988
 20
19707.464933000021
 30
0.0
 11
22164.025971499988
 21
19682.455696000001
 31
0.0
  0
LINE
  5
4081
  8
2-0
  6
CONTINUOUS
 62
     3
 10
22169.016337500001
 20
19707.464933000021
 30
0.0
 11
22164.025971499988
 21
19707.464933000021
 31
0.0
  0
LINE
  5
4082
  8
2-0
  6
CONTINUOUS
 62
     3
 10
22169.016337500001
 20
19700.45941700002
 30
0.0
 11
22169.016337500001
 21
19707.464933000021
 31
0.0
  0
LINE
  5
4083
  8
2-0
  6
CONTINUOUS
 62
     3
 10
21481.022764500001
 20
19712.459259000021
 30
0.0
 11
22124.83348349997
 21
19712.459259000021
 31
0.0
  0
LINE
  5
4084
  8
2-0
  6
CONTINUOUS
 62
     3
 10
20780.226654999999
 20
19712.459259000021
 30
0.0
 11
21423.832493499991
 21
19712.459259000021
 31
0.0
  0
LINE
  5
4085
  8
2-0
  6
CONTINUOUS
 62
     3
 10
22825.833482999991
 20
19712.459259000021
 30
0.0
 11
22182.021774500001
 21
19712.459259000021
 31
0.0
  0
LINE
  5
4086
  8
2-0
  6
CONTINUOUS
 62
     3
 10
20331.428949000001
 20
19603.459048000001
 30
0.0
 11
20331.428949000001
 21
19597.463086000022
 31
0.0
  0
LINE
  5
4087
  8
2-0
  6
CONTINUOUS
 62
     3
 10
20331.428949000001
 20
19597.463086000022
 30
0.0
 11
20301.43132399999
 21
19597.463086000022
 31
0.0
  0
LINE
  5
4088
  8
2-0
  6
CONTINUOUS
 62
     3
 10
20301.43132399999
 20
19597.463086000022
 30
0.0
 11
20301.43132399999
 21
19712.459259000021
 31
0.0
  0
LINE
  5
4089
  8
2-0
  6
CONTINUOUS
 62
     3
 10
20301.43132399999
 20
19627.46269
 30
0.0
 11
20382.429264999999
 21
19627.46269
 31
0.0
  0
LINE
  5
408A
  8
2-0
  6
CONTINUOUS
 62
     3
 10
20331.428949000001
 20
19587.16563000001
 30
0.0
 11
20301.43132399999
 21
19587.16563000001
 31
0.0
  0
LINE
  5
408B
  8
2-0
  6
CONTINUOUS
 62
     3
 10
20331.428949000001
 20
19605.167372000022
 30
0.0
 11
20331.428949000001
 21
19587.16563000001
 31
0.0
  0
LINE
  5
408C
  8
2-0
  6
CONTINUOUS
 62
     3
 10
20306.435547000001
 20
19605.167372000022
 30
0.0
 11
20331.428949000001
 21
19605.167372000022
 31
0.0
  0
LINE
  5
408D
  8
2-0
  6
CONTINUOUS
 62
     3
 10
20306.435547000001
 20
19600.15919000002
 30
0.0
 11
20306.435547000001
 21
19605.167372000022
 31
0.0
  0
LINE
  5
408E
  8
2-0
  6
CONTINUOUS
 62
     3
 10
20313.43314499997
 20
19600.15919000002
 30
0.0
 11
20306.435547000001
 21
19600.15919000002
 31
0.0
  0
LINE
  5
408F
  8
2-0
  6
CONTINUOUS
 62
     3
 10
20313.43314499997
 20
19246.862367499991
 30
0.0
 11
20306.435547000001
 21
19246.862367499991
 31
0.0
  0
LINE
  5
4090
  8
2-0
  6
CONTINUOUS
 62
     3
 10
20306.435547000001
 20
19246.862367499991
 30
0.0
 11
20306.435547000001
 21
19251.862631499989
 31
0.0
  0
LINE
  5
4091
  8
2-0
  6
CONTINUOUS
 62
     3
 10
20306.435547000001
 20
19251.862631499989
 30
0.0
 11
20331.428949000001
 21
19251.862631499989
 31
0.0
  0
LINE
  5
4092
  8
2-0
  6
CONTINUOUS
 62
     3
 10
20331.428949000001
 20
19251.862631499989
 30
0.0
 11
20331.428949000001
 21
19233.866827499991
 31
0.0
  0
LINE
  5
4093
  8
2-0
  6
CONTINUOUS
 62
     3
 10
20331.428949000001
 20
19233.866827499991
 30
0.0
 11
20301.43132399999
 21
19233.866827499991
 31
0.0
  0
LINE
  5
4094
  8
2-0
  6
CONTINUOUS
 62
     3
 10
20331.428949000001
 20
19249.958334499981
 30
0.0
 11
20331.428949000001
 21
19243.960393500001
 31
0.0
  0
LINE
  5
4095
  8
2-0
  6
CONTINUOUS
 62
     3
 10
20331.428949000001
 20
19243.960393500001
 30
0.0
 11
20301.43132399999
 21
19243.960393500001
 31
0.0
  0
LINE
  5
4096
  8
2-0
  6
CONTINUOUS
 62
     3
 10
20301.43132399999
 20
19243.960393500001
 30
0.0
 11
20301.43132399999
 21
19280.961554499991
 31
0.0
  0
LINE
  5
4097
  8
2-0
  6
CONTINUOUS
 62
     3
 10
20331.428949000001
 20
19280.961554499991
 30
0.0
 11
20301.43132399999
 21
19280.961554499991
 31
0.0
  0
LINE
  5
4098
  8
2-0
  6
CONTINUOUS
 62
     3
 10
20331.428949000001
 20
19274.95767449999
 30
0.0
 11
20331.428949000001
 21
19280.961554499991
 31
0.0
  0
LINE
  5
4099
  8
2-0
  6
CONTINUOUS
 62
     3
 10
20331.428949000001
 20
19291.057099499991
 30
0.0
 11
20301.43132399999
 21
19291.057099499991
 31
0.0
  0
LINE
  5
409A
  8
2-0
  6
CONTINUOUS
 62
     3
 10
20331.428949000001
 20
19273.055357500001
 30
0.0
 11
20331.428949000001
 21
19291.057099499991
 31
0.0
  0
LINE
  5
409B
  8
2-0
  6
CONTINUOUS
 62
     3
 10
20306.435547000001
 20
19273.055357500001
 30
0.0
 11
20331.428949000001
 21
19273.055357500001
 31
0.0
  0
LINE
  5
409C
  8
2-0
  6
CONTINUOUS
 62
     3
 10
20306.435547000001
 20
19278.055621499981
 30
0.0
 11
20306.435547000001
 21
19273.055357500001
 31
0.0
  0
LINE
  5
409D
  8
2-0
  6
CONTINUOUS
 62
     3
 10
20313.43314499997
 20
19278.055621499981
 30
0.0
 11
20306.435547000001
 21
19278.055621499981
 31
0.0
  0
LINE
  5
409E
  8
2-0
  6
CONTINUOUS
 62
     3
 10
20313.43314499997
 20
18545.861378000001
 30
0.0
 11
20306.435547000001
 21
18545.861378000001
 31
0.0
  0
LINE
  5
409F
  8
2-0
  6
CONTINUOUS
 62
     3
 10
20306.435547000001
 20
18545.861378000001
 30
0.0
 11
20306.435547000001
 21
18550.867579999991
 31
0.0
  0
LINE
  5
40A0
  8
2-0
  6
CONTINUOUS
 62
     3
 10
20306.435547000001
 20
18550.867579999991
 30
0.0
 11
20331.428949000001
 21
18550.867579999991
 31
0.0
  0
LINE
  5
40A1
  8
2-0
  6
CONTINUOUS
 62
     3
 10
20331.428949000001
 20
18550.867579999991
 30
0.0
 11
20331.428949000001
 21
18532.865838000002
 31
0.0
  0
LINE
  5
40A2
  8
2-0
  6
CONTINUOUS
 62
     3
 10
20331.428949000001
 20
18532.865838000002
 30
0.0
 11
20301.43132399999
 21
18532.865838000002
 31
0.0
  0
LINE
  5
40A3
  8
2-0
  6
CONTINUOUS
 62
     3
 10
20331.428949000001
 20
18548.957344999992
 30
0.0
 11
20331.428949000001
 21
18542.961382999991
 31
0.0
  0
LINE
  5
40A4
  8
2-0
  6
CONTINUOUS
 62
     3
 10
20331.428949000001
 20
18542.961382999991
 30
0.0
 11
20301.43132399999
 21
18542.961382999991
 31
0.0
  0
LINE
  5
40A5
  8
2-0
  6
CONTINUOUS
 62
     3
 10
20301.43132399999
 20
18542.961382999991
 30
0.0
 11
20301.43132399999
 21
18579.960565000001
 31
0.0
  0
LINE
  5
40A6
  8
2-0
  6
CONTINUOUS
 62
     3
 10
20331.428949000001
 20
18579.960565000001
 30
0.0
 11
20301.43132399999
 21
18579.960565000001
 31
0.0
  0
LINE
  5
40A7
  8
2-0
  6
CONTINUOUS
 62
     3
 10
20331.428949000001
 20
18573.964603
 30
0.0
 11
20331.428949000001
 21
18579.960565000001
 31
0.0
  0
LINE
  5
40A8
  8
2-0
  6
CONTINUOUS
 62
     3
 10
20331.428949000001
 20
18590.056110000001
 30
0.0
 11
20301.43132399999
 21
18590.056110000001
 31
0.0
  0
LINE
  5
40A9
  8
2-0
  6
CONTINUOUS
 62
     3
 10
20331.428949000001
 20
18572.05436799999
 30
0.0
 11
20331.428949000001
 21
18590.056110000001
 31
0.0
  0
LINE
  5
40AA
  8
2-0
  6
CONTINUOUS
 62
     3
 10
20306.435547000001
 20
18572.05436799999
 30
0.0
 11
20331.428949000001
 21
18572.05436799999
 31
0.0
  0
LINE
  5
40AB
  8
2-0
  6
CONTINUOUS
 62
     3
 10
20306.435547000001
 20
18577.060569999991
 30
0.0
 11
20306.435547000001
 21
18572.05436799999
 31
0.0
  0
LINE
  5
40AC
  8
2-0
  6
CONTINUOUS
 62
     3
 10
20313.43314499997
 20
18577.060569999991
 30
0.0
 11
20306.435547000001
 21
18577.060569999991
 31
0.0
  0
LINE
  5
40AD
  8
2-0
  6
CONTINUOUS
 62
     3
 10
20313.43314499997
 20
17876.054631999999
 30
0.0
 11
20306.435547000001
 21
17876.054631999999
 31
0.0
  0
LINE
  5
40AE
  8
2-0
  6
CONTINUOUS
 62
     3
 10
20306.435547000001
 20
17876.054631999999
 30
0.0
 11
20306.435547000001
 21
17871.066244999991
 31
0.0
  0
LINE
  5
40AF
  8
2-0
  6
CONTINUOUS
 62
     3
 10
20306.435547000001
 20
17871.066244999991
 30
0.0
 11
20331.428949000001
 21
17871.066244999991
 31
0.0
  0
LINE
  5
40B0
  8
2-0
  6
CONTINUOUS
 62
     3
 10
20331.428949000001
 20
17871.066244999991
 30
0.0
 11
20331.428949000001
 21
17889.062047999989
 31
0.0
  0
LINE
  5
40B1
  8
2-0
  6
CONTINUOUS
 62
     3
 10
20331.428949000001
 20
17889.062047999989
 30
0.0
 11
20301.43132399999
 21
17889.062047999989
 31
0.0
  0
LINE
  5
40B2
  8
2-0
  6
CONTINUOUS
 62
     3
 10
20331.428949000001
 20
17872.964603
 30
0.0
 11
20331.428949000001
 21
17878.96056499999
 31
0.0
  0
LINE
  5
40B3
  8
2-0
  6
CONTINUOUS
 62
     3
 10
20331.428949000001
 20
17878.96056499999
 30
0.0
 11
20301.43132399999
 21
17878.96056499999
 31
0.0
  0
LINE
  5
40B4
  8
2-0
  6
CONTINUOUS
 62
     3
 10
20301.43132399999
 20
17878.96056499999
 30
0.0
 11
20301.43132399999
 21
17841.961383000002
 31
0.0
  0
LINE
  5
40B5
  8
2-0
  6
CONTINUOUS
 62
     3
 10
20331.428949000001
 20
17841.961383000002
 30
0.0
 11
20301.43132399999
 21
17841.961383000002
 31
0.0
  0
LINE
  5
40B6
  8
2-0
  6
CONTINUOUS
 62
     3
 10
20331.428949000001
 20
17847.963283999979
 30
0.0
 11
20331.428949000001
 21
17841.961383000002
 31
0.0
  0
LINE
  5
40B7
  8
2-0
  6
CONTINUOUS
 62
     3
 10
20331.428949000001
 20
17831.871777
 30
0.0
 11
20301.43132399999
 21
17831.871777
 31
0.0
  0
LINE
  5
40B8
  8
2-0
  6
CONTINUOUS
 62
     3
 10
20331.428949000001
 20
17849.867579999991
 30
0.0
 11
20331.428949000001
 21
17831.871777
 31
0.0
  0
LINE
  5
40B9
  8
2-0
  6
CONTINUOUS
 62
     3
 10
20306.435547000001
 20
17849.867579999991
 30
0.0
 11
20331.428949000001
 21
17849.867579999991
 31
0.0
  0
LINE
  5
40BA
  8
2-0
  6
CONTINUOUS
 62
     3
 10
20306.435547000001
 20
17844.867317
 30
0.0
 11
20306.435547000001
 21
17849.867579999991
 31
0.0
  0
LINE
  5
40BB
  8
2-0
  6
CONTINUOUS
 62
     3
 10
20313.43314499997
 20
17844.867317
 30
0.0
 11
20306.435547000001
 21
17844.867317
 31
0.0
  0
LINE
  5
40BC
  8
2-0
  6
CONTINUOUS
 62
     3
 10
20304.317461999992
 20
17124.958202999991
 30
0.0
 11
20304.317461999992
 21
17144.959257999992
 31
0.0
  0
LINE
  5
40BD
  8
2-0
  6
CONTINUOUS
 62
     3
 10
20304.317461999992
 20
17144.959257999992
 30
0.0
 11
20389.31799
 21
17144.959257999992
 31
0.0
  0
LINE
  5
40BE
  8
2-0
  6
CONTINUOUS
 62
     3
 10
20313.43314499997
 20
17171.56596800001
 30
0.0
 11
20306.435547000001
 21
17171.56596800001
 31
0.0
  0
LINE
  5
40BF
  8
2-0
  6
CONTINUOUS
 62
     3
 10
20306.435547000001
 20
17171.56596800001
 30
0.0
 11
20306.435547000001
 21
17166.571641999999
 31
0.0
  0
LINE
  5
40C0
  8
2-0
  6
CONTINUOUS
 62
     3
 10
20306.435547000001
 20
17166.571641999999
 30
0.0
 11
20331.428949000001
 21
17166.571641999999
 31
0.0
  0
LINE
  5
40C1
  8
2-0
  6
CONTINUOUS
 62
     3
 10
20331.428949000001
 20
17166.571641999999
 30
0.0
 11
20331.428949000001
 21
17184.567446000001
 31
0.0
  0
LINE
  5
40C2
  8
2-0
  6
CONTINUOUS
 62
     3
 10
20331.428949000001
 20
17184.567446000001
 30
0.0
 11
20301.43132399999
 21
17184.567446000001
 31
0.0
  0
LINE
  5
40C3
  8
2-0
  6
CONTINUOUS
 62
     3
 10
20331.428949000001
 20
17174.958861999999
 30
0.0
 11
20331.428949000001
 21
17168.956962
 31
0.0
  0
LINE
  5
40C4
  8
2-0
  6
CONTINUOUS
 62
     3
 10
20301.43132399999
 20
17174.958861999999
 30
0.0
 11
20331.428949000001
 21
17174.958861999999
 31
0.0
  0
LINE
  5
40C5
  8
2-0
  6
CONTINUOUS
 62
     3
 10
20301.43132399999
 20
17184.567446000001
 30
0.0
 11
20301.43132399999
 21
17831.871777
 31
0.0
  0
LINE
  5
40C6
  8
2-0
  6
CONTINUOUS
 62
     3
 10
20301.43132399999
 20
17889.062047999989
 30
0.0
 11
20301.43132399999
 21
18532.865838000002
 31
0.0
  0
LINE
  5
40C7
  8
2-0
  6
CONTINUOUS
 62
     3
 10
20301.43132399999
 20
17029.957147000001
 30
0.0
 11
20331.428949000001
 21
17029.957147000001
 31
0.0
  0
LINE
  5
40C8
  8
2-0
  6
CONTINUOUS
 62
     3
 10
20331.428949000001
 20
17029.957147000001
 30
0.0
 11
20331.428949000001
 21
17035.959047000011
 31
0.0
  0
LINE
  5
40C9
  8
2-0
  6
CONTINUOUS
 62
     3
 10
20389.31799
 20
17059.96269
 30
0.0
 11
20304.317461999992
 21
17059.96269
 31
0.0
  0
LINE
  5
40CA
  8
2-0
  6
CONTINUOUS
 62
     3
 10
20304.317461999992
 20
17059.96269
 30
0.0
 11
20304.317461999992
 21
17079.95780700001
 31
0.0
  0
LINE
  5
40CB
  8
2-0
  6
CONTINUOUS
 62
     3
 10
20331.428949000001
 20
17020.348564000011
 30
0.0
 11
20301.43132399999
 21
17020.348564000011
 31
0.0
  0
LINE
  5
40CC
  8
2-0
  6
CONTINUOUS
 62
     3
 10
20331.428949000001
 20
17038.344367000002
 30
0.0
 11
20331.428949000001
 21
17020.348564000011
 31
0.0
  0
LINE
  5
40CD
  8
2-0
  6
CONTINUOUS
 62
     3
 10
20306.435547000001
 20
17038.344367000002
 30
0.0
 11
20331.428949000001
 21
17038.344367000002
 31
0.0
  0
LINE
  5
40CE
  8
2-0
  6
CONTINUOUS
 62
     3
 10
20306.435547000001
 20
17033.34410300001
 30
0.0
 11
20306.435547000001
 21
17038.344367000002
 31
0.0
  0
LINE
  5
40CF
  8
2-0
  6
CONTINUOUS
 62
     3
 10
20313.43314499997
 20
17033.34410300001
 30
0.0
 11
20306.435547000001
 21
17033.34410300001
 31
0.0
  0
LINE
  5
40D0
  8
2-0
  6
CONTINUOUS
 62
     3
 10
20313.43314499997
 20
16328.861872499991
 30
0.0
 11
20306.435547000001
 21
16328.861872499991
 31
0.0
  0
LINE
  5
40D1
  8
2-0
  6
CONTINUOUS
 62
     3
 10
20306.435547000001
 20
16328.861872499991
 30
0.0
 11
20306.435547000001
 21
16333.862136499991
 31
0.0
  0
LINE
  5
40D2
  8
2-0
  6
CONTINUOUS
 62
     3
 10
20306.435547000001
 20
16333.862136499991
 30
0.0
 11
20331.428949000001
 21
16333.862136499991
 31
0.0
  0
LINE
  5
40D3
  8
2-0
  6
CONTINUOUS
 62
     3
 10
20331.428949000001
 20
16333.862136499991
 30
0.0
 11
20331.428949000001
 21
16315.8603945
 31
0.0
  0
LINE
  5
40D4
  8
2-0
  6
CONTINUOUS
 62
     3
 10
20331.428949000001
 20
16315.8603945
 30
0.0
 11
20301.43132399999
 21
16315.8603945
 31
0.0
  0
LINE
  5
40D5
  8
2-0
  6
CONTINUOUS
 62
     3
 10
20331.428949000001
 20
16331.957839500001
 30
0.0
 11
20331.428949000001
 21
16325.960888499991
 31
0.0
  0
LINE
  5
40D6
  8
2-0
  6
CONTINUOUS
 62
     3
 10
20331.428949000001
 20
16325.960888499991
 30
0.0
 11
20301.43132399999
 21
16325.960888499991
 31
0.0
  0
LINE
  5
40D7
  8
2-0
  6
CONTINUOUS
 62
     3
 10
20301.43132399999
 20
16325.960888499991
 30
0.0
 11
20301.43132399999
 21
16362.961059499999
 31
0.0
  0
LINE
  5
40D8
  8
2-0
  6
CONTINUOUS
 62
     3
 10
20331.428949000001
 20
16362.961059499999
 30
0.0
 11
20301.43132399999
 21
16362.961059499999
 31
0.0
  0
LINE
  5
40D9
  8
2-0
  6
CONTINUOUS
 62
     3
 10
20331.428949000001
 20
16356.9581695
 30
0.0
 11
20331.428949000001
 21
16362.961059499999
 31
0.0
  0
LINE
  5
40DA
  8
2-0
  6
CONTINUOUS
 62
     3
 10
20331.428949000001
 20
16373.0566045
 30
0.0
 11
20301.43132399999
 21
16373.0566045
 31
0.0
  0
LINE
  5
40DB
  8
2-0
  6
CONTINUOUS
 62
     3
 10
20331.428949000001
 20
16355.0489235
 30
0.0
 11
20331.428949000001
 21
16373.0566045
 31
0.0
  0
LINE
  5
40DC
  8
2-0
  6
CONTINUOUS
 62
     3
 10
20306.435547000001
 20
16355.0489235
 30
0.0
 11
20331.428949000001
 21
16355.0489235
 31
0.0
  0
LINE
  5
40DD
  8
2-0
  6
CONTINUOUS
 62
     3
 10
20306.435547000001
 20
16360.05512649999
 30
0.0
 11
20306.435547000001
 21
16355.0489235
 31
0.0
  0
LINE
  5
40DE
  8
2-0
  6
CONTINUOUS
 62
     3
 10
20313.43314499997
 20
16360.05512649999
 30
0.0
 11
20306.435547000001
 21
16360.05512649999
 31
0.0
  0
LINE
  5
40DF
  8
2-0
  6
CONTINUOUS
 62
     3
 10
20313.43314499997
 20
15659.29514300001
 30
0.0
 11
20306.435547000001
 21
15659.29514300001
 31
0.0
  0
LINE
  5
40E0
  8
2-0
  6
CONTINUOUS
 62
     3
 10
20306.435547000001
 20
15659.29514300001
 30
0.0
 11
20306.435547000001
 21
15654.300818000011
 31
0.0
  0
LINE
  5
40E1
  8
2-0
  6
CONTINUOUS
 62
     3
 10
20306.435547000001
 20
15654.300818000011
 30
0.0
 11
20331.428949000001
 21
15654.300818000011
 31
0.0
  0
LINE
  5
40E2
  8
2-0
  6
CONTINUOUS
 62
     3
 10
20331.428949000001
 20
15654.300818000011
 30
0.0
 11
20331.428949000001
 21
15672.296621
 31
0.0
  0
LINE
  5
40E3
  8
2-0
  6
CONTINUOUS
 62
     3
 10
20331.428949000001
 20
15672.296621
 30
0.0
 11
20301.43132399999
 21
15672.296621
 31
0.0
  0
LINE
  5
40E4
  8
2-0
  6
CONTINUOUS
 62
     3
 10
20331.428949000001
 20
15656.199176
 30
0.0
 11
20331.428949000001
 21
15662.201076000019
 31
0.0
  0
LINE
  5
40E5
  8
2-0
  6
CONTINUOUS
 62
     3
 10
20331.428949000001
 20
15662.201076000019
 30
0.0
 11
20301.43132399999
 21
15662.201076000019
 31
0.0
  0
LINE
  5
40E6
  8
2-0
  6
CONTINUOUS
 62
     3
 10
20301.43132399999
 20
15625.20189500002
 30
0.0
 11
20301.43132399999
 21
15662.201076000019
 31
0.0
  0
LINE
  5
40E7
  8
2-0
  6
CONTINUOUS
 62
     3
 10
20331.428949000001
 20
15625.20189500002
 30
0.0
 11
20301.43132399999
 21
15625.20189500002
 31
0.0
  0
LINE
  5
40E8
  8
2-0
  6
CONTINUOUS
 62
     3
 10
20331.428949000001
 20
15631.198845999999
 30
0.0
 11
20331.428949000001
 21
15625.20189500002
 31
0.0
  0
LINE
  5
40E9
  8
2-0
  6
CONTINUOUS
 62
     3
 10
20331.428949000001
 20
15615.100410999999
 30
0.0
 11
20301.43132399999
 21
15615.100410999999
 31
0.0
  0
LINE
  5
40EA
  8
2-0
  6
CONTINUOUS
 62
     3
 10
20331.428949000001
 20
15633.108091999989
 30
0.0
 11
20331.428949000001
 21
15615.100410999999
 31
0.0
  0
LINE
  5
40EB
  8
2-0
  6
CONTINUOUS
 62
     3
 10
20306.435547000001
 20
15633.108091999989
 30
0.0
 11
20331.428949000001
 21
15633.108091999989
 31
0.0
  0
LINE
  5
40EC
  8
2-0
  6
CONTINUOUS
 62
     3
 10
20306.435547000001
 20
15628.10782800002
 30
0.0
 11
20306.435547000001
 21
15633.108091999989
 31
0.0
  0
LINE
  5
40ED
  8
2-0
  6
CONTINUOUS
 62
     3
 10
20313.43314499997
 20
15628.10782800002
 30
0.0
 11
20306.435547000001
 21
15628.10782800002
 31
0.0
  0
LINE
  5
40EE
  8
2-0
  6
CONTINUOUS
 62
     3
 10
20301.43132399999
 20
17020.348564000011
 30
0.0
 11
20301.43132399999
 21
16373.0566045
 31
0.0
  0
LINE
  5
40EF
  8
2-0
  6
CONTINUOUS
 62
     3
 10
20301.43132399999
 20
17174.958861999999
 30
0.0
 11
20301.43132399999
 21
17029.957147000001
 31
0.0
  0
LINE
  5
40F0
  8
2-0
  6
CONTINUOUS
 62
     3
 10
20389.31799
 20
17144.959257999992
 30
0.0
 11
20389.31799
 21
17059.96269
 31
0.0
  0
LINE
  5
40F1
  8
2-0
  6
CONTINUOUS
 62
     3
 10
20313.43314499997
 20
14926.866821
 30
0.0
 11
20306.435547000001
 21
14926.866821
 31
0.0
  0
LINE
  5
40F2
  8
2-0
  6
CONTINUOUS
 62
     3
 10
20306.435547000001
 20
14926.866821
 30
0.0
 11
20306.435547000001
 21
14931.861147000011
 31
0.0
  0
LINE
  5
40F3
  8
2-0
  6
CONTINUOUS
 62
     3
 10
20306.435547000001
 20
14931.861147000011
 30
0.0
 11
20331.428949000001
 21
14931.861147000011
 31
0.0
  0
LINE
  5
40F4
  8
2-0
  6
CONTINUOUS
 62
     3
 10
20331.428949000001
 20
14931.861147000011
 30
0.0
 11
20331.428949000001
 21
14913.865342999999
 31
0.0
  0
LINE
  5
40F5
  8
2-0
  6
CONTINUOUS
 62
     3
 10
20331.428949000001
 20
14913.865342999999
 30
0.0
 11
20301.43132399999
 21
14913.865342999999
 31
0.0
  0
LINE
  5
40F6
  8
2-0
  6
CONTINUOUS
 62
     3
 10
20331.428949000001
 20
14929.96377800001
 30
0.0
 11
20331.428949000001
 21
14923.960888000011
 31
0.0
  0
LINE
  5
40F7
  8
2-0
  6
CONTINUOUS
 62
     3
 10
20331.428949000001
 20
14923.960888000011
 30
0.0
 11
20301.43132399999
 21
14923.960888000011
 31
0.0
  0
LINE
  5
40F8
  8
2-0
  6
CONTINUOUS
 62
     3
 10
20301.43132399999
 20
14923.960888000011
 30
0.0
 11
20301.43132399999
 21
14960.961059999991
 31
0.0
  0
LINE
  5
40F9
  8
2-0
  6
CONTINUOUS
 62
     3
 10
20331.428949000001
 20
14960.961059999991
 30
0.0
 11
20301.43132399999
 21
14960.961059999991
 31
0.0
  0
LINE
  5
40FA
  8
2-0
  6
CONTINUOUS
 62
     3
 10
20331.428949000001
 20
14954.964108
 30
0.0
 11
20331.428949000001
 21
14960.961059999991
 31
0.0
  0
LINE
  5
40FB
  8
2-0
  6
CONTINUOUS
 62
     3
 10
20331.428949000001
 20
14971.06155300001
 30
0.0
 11
20301.43132399999
 21
14971.06155300001
 31
0.0
  0
LINE
  5
40FC
  8
2-0
  6
CONTINUOUS
 62
     3
 10
20331.428949000001
 20
14953.05486200001
 30
0.0
 11
20331.428949000001
 21
14971.06155300001
 31
0.0
  0
LINE
  5
40FD
  8
2-0
  6
CONTINUOUS
 62
     3
 10
20306.435547000001
 20
14953.05486200001
 30
0.0
 11
20331.428949000001
 21
14953.05486200001
 31
0.0
  0
LINE
  5
40FE
  8
2-0
  6
CONTINUOUS
 62
     3
 10
20306.435547000001
 20
14958.06007500001
 30
0.0
 11
20306.435547000001
 21
14953.05486200001
 31
0.0
  0
LINE
  5
40FF
  8
2-0
  6
CONTINUOUS
 62
     3
 10
20313.43314499997
 20
14958.06007500001
 30
0.0
 11
20306.435547000001
 21
14958.06007500001
 31
0.0
  0
LINE
  5
4100
  8
2-0
  6
CONTINUOUS
 62
     3
 10
20331.428949000001
 20
14601.462901000001
 30
0.0
 11
20331.428949000001
 21
14607.46776999999
 31
0.0
  0
LINE
  5
4101
  8
2-0
  6
CONTINUOUS
 62
     3
 10
20331.428949000001
 20
14607.46776999999
 30
0.0
 11
20301.43132399999
 21
14607.46776999999
 31
0.0
  0
LINE
  5
4102
  8
2-0
  6
CONTINUOUS
 62
     3
 10
20301.43132399999
 20
14607.46776999999
 30
0.0
 11
20301.43132399999
 21
14492.463678999989
 31
0.0
  0
LINE
  5
4103
  8
2-0
  6
CONTINUOUS
 62
     3
 10
20301.43132399999
 20
14492.463678999989
 30
0.0
 11
20386.429871999979
 21
14492.463678999989
 31
0.0
  0
LINE
  5
4104
  8
2-0
  6
CONTINUOUS
 62
     3
 10
20386.429871999979
 20
14492.463678999989
 30
0.0
 11
20386.429871999979
 21
14577.459258000001
 31
0.0
  0
LINE
  5
4105
  8
2-0
  6
CONTINUOUS
 62
     3
 10
20386.429871999979
 20
14577.459258000001
 30
0.0
 11
20354.432933999971
 21
14577.459258000001
 31
0.0
  0
LINE
  5
4106
  8
2-0
  6
CONTINUOUS
 62
     3
 10
20313.43314499997
 20
14604.497503000001
 30
0.0
 11
20306.435547000001
 21
14604.497503000001
 31
0.0
  0
LINE
  5
4107
  8
2-0
  6
CONTINUOUS
 62
     3
 10
20306.435547000001
 20
14604.497503000001
 30
0.0
 11
20306.435547000001
 21
14599.500207999979
 31
0.0
  0
LINE
  5
4108
  8
2-0
  6
CONTINUOUS
 62
     3
 10
20306.435547000001
 20
14599.500207999979
 30
0.0
 11
20331.428949000001
 21
14599.500207999979
 31
0.0
  0
LINE
  5
4109
  8
2-0
  6
CONTINUOUS
 62
     3
 10
20331.428949000001
 20
14599.500207999979
 30
0.0
 11
20331.428949000001
 21
14617.498981000001
 31
0.0
  0
LINE
  5
410A
  8
2-0
  6
CONTINUOUS
 62
     3
 10
20331.428949000001
 20
14617.498981000001
 30
0.0
 11
20301.43132399999
 21
14617.498981000001
 31
0.0
  0
LINE
  5
410B
  8
2-0
  6
CONTINUOUS
 62
     3
 10
20301.43132399999
 20
14971.06155300001
 30
0.0
 11
20301.43132399999
 21
15615.100410999999
 31
0.0
  0
LINE
  5
410C
  8
2-0
  6
CONTINUOUS
 62
     3
 10
20301.43132399999
 20
18590.056110000001
 30
0.0
 11
20301.43132399999
 21
19233.866827499991
 31
0.0
  0
LINE
  5
410D
  8
2-0
  6
CONTINUOUS
 62
     3
 10
20392.433752000001
 20
18518.959719999981
 30
0.0
 11
20345.430082999999
 21
18518.959719999981
 31
0.0
  0
LINE
  5
410E
  8
2-0
  6
CONTINUOUS
 62
     3
 10
20345.430082999999
 20
18603.960247999988
 30
0.0
 11
20392.433752000001
 21
18603.960247999988
 31
0.0
  0
LINE
  5
410F
  8
2-0
  6
CONTINUOUS
 62
     3
 10
20345.430082999999
 20
18518.959719999981
 30
0.0
 11
20345.430082999999
 21
18543.963018999992
 31
0.0
  0
LINE
  5
4110
  8
2-0
  6
CONTINUOUS
 62
     3
 10
20345.430082999999
 20
18578.958928
 30
0.0
 11
20345.430082999999
 21
18603.960247999988
 31
0.0
  0
LINE
  5
4111
  8
2-0
  6
CONTINUOUS
 62
     3
 10
20392.433752000001
 20
18603.960247999988
 30
0.0
 11
20392.433752000001
 21
18518.959719999981
 31
0.0
  0
LINE
  5
4112
  8
2-0
  6
CONTINUOUS
 62
     3
 10
20301.43132399999
 20
16315.8603945
 30
0.0
 11
20301.43132399999
 21
15672.296621
 31
0.0
  0
LINE
  5
4113
  8
2-0
  6
CONTINUOUS
 62
     3
 10
20392.433752000001
 20
15600.96269
 30
0.0
 11
20345.430082999999
 21
15600.96269
 31
0.0
  0
LINE
  5
4114
  8
2-0
  6
CONTINUOUS
 62
     3
 10
20345.430082999999
 20
15685.95925799999
 30
0.0
 11
20392.433752000001
 21
15685.95925799999
 31
0.0
  0
LINE
  5
4115
  8
2-0
  6
CONTINUOUS
 62
     3
 10
20345.430082999999
 20
15600.96269
 30
0.0
 11
20345.430082999999
 21
15625.95807100001
 31
0.0
  0
LINE
  5
4116
  8
2-0
  6
CONTINUOUS
 62
     3
 10
20345.430082999999
 20
15660.957939000011
 30
0.0
 11
20345.430082999999
 21
15685.95925799999
 31
0.0
  0
LINE
  5
4117
  8
2-0
  6
CONTINUOUS
 62
     3
 10
20392.433752000001
 20
15685.95925799999
 30
0.0
 11
20392.433752000001
 21
15600.96269
 31
0.0
  0
LINE
  5
4118
  8
2-0
  6
CONTINUOUS
 62
     3
 10
25521.425912999988
 20
19597.463086000022
 30
0.0
 11
25521.425912999988
 21
19712.459259000021
 31
0.0
  0
LINE
  5
4119
  8
2-0
  6
CENTER2
 62
     6
 10
19014.47305199999
 20
19669.960974000001
 30
0.0
 11
26371.427232999991
 21
19669.960974000001
 31
0.0
  0
LINE
  5
411A
  8
2-0
  6
CENTER2
 62
     6
 10
19014.47305199999
 20
17102.460974000001
 30
0.0
 11
26371.427232999991
 21
17102.460974000001
 31
0.0
  0
LINE
  5
411B
  8
2-0
  6
CENTER2
 62
     6
 10
19014.47305199999
 20
14534.960974
 30
0.0
 11
26371.427232999991
 21
14534.960974
 31
0.0
  0
LINE
  5
411C
  8
2-0
  6
CONTINUOUS
 62
     3
 10
20767.019306999999
 20
19700.45941700002
 30
0.0
 11
20767.019306999999
 21
19707.464933000021
 31
0.0
  0
LINE
  5
411D
  8
2-0
  6
CONTINUOUS
 62
     3
 10
20767.019306999999
 20
19707.464933000021
 30
0.0
 11
20762.019042999989
 21
19707.464933000021
 31
0.0
  0
LINE
  5
411E
  8
2-0
  6
CONTINUOUS
 62
     3
 10
20762.019042999989
 20
19707.464933000021
 30
0.0
 11
20762.019042999989
 21
19682.455696000001
 31
0.0
  0
LINE
  5
411F
  8
2-0
  6
CONTINUOUS
 62
     3
 10
20762.019042999989
 20
19682.455696000001
 30
0.0
 11
20780.02078499999
 21
19682.455696000001
 31
0.0
  0
LINE
  5
4120
  8
2-0
  6
CONTINUOUS
 62
     3
 10
20780.02078499999
 20
19682.455696000001
 30
0.0
 11
20780.02078499999
 21
19712.459259000021
 31
0.0
  0
LINE
  5
4121
  8
2-0
  6
CONTINUOUS
 62
     3
 10
20763.92136
 20
19682.455696000001
 30
0.0
 11
20769.92524
 21
19682.455696000001
 31
0.0
  0
LINE
  5
4122
  8
2-0
  6
CONTINUOUS
 62
     3
 10
20769.92524
 20
19682.455696000001
 30
0.0
 11
20769.92524
 21
19712.459259000021
 31
0.0
  0
LINE
  5
4123
  8
2-0
  6
CONTINUOUS
 62
     3
 10
20732.93001799997
 20
19712.459259000021
 30
0.0
 11
20769.92524
 21
19712.459259000021
 31
0.0
  0
LINE
  5
4124
  8
2-0
  6
CONTINUOUS
 62
     3
 10
20732.93001799997
 20
19682.455696000001
 30
0.0
 11
20732.93001799997
 21
19712.459259000021
 31
0.0
  0
LINE
  5
4125
  8
2-0
  6
CONTINUOUS
 62
     3
 10
20738.923999999999
 20
19682.455696000001
 30
0.0
 11
20732.93001799997
 21
19682.455696000001
 31
0.0
  0
LINE
  5
4126
  8
2-0
  6
CONTINUOUS
 62
     3
 10
20722.834472999992
 20
19682.455696000001
 30
0.0
 11
20722.834472999992
 21
19712.459259000021
 31
0.0
  0
LINE
  5
4127
  8
2-0
  6
CONTINUOUS
 62
     3
 10
20740.830276000001
 20
19682.455696000001
 30
0.0
 11
20722.834472999992
 21
19682.455696000001
 31
0.0
  0
LINE
  5
4128
  8
2-0
  6
CONTINUOUS
 62
     3
 10
20740.830276000001
 20
19707.464933000021
 30
0.0
 11
20740.830276000001
 21
19682.455696000001
 31
0.0
  0
LINE
  5
4129
  8
2-0
  6
CONTINUOUS
 62
     3
 10
20735.83199200001
 20
19707.464933000021
 30
0.0
 11
20740.830276000001
 21
19707.464933000021
 31
0.0
  0
LINE
  5
412A
  8
2-0
  6
CONTINUOUS
 62
     3
 10
20735.83199200001
 20
19700.45941700002
 30
0.0
 11
20735.83199200001
 21
19707.464933000021
 31
0.0
  0
LINE
  5
412B
  8
2-0
  6
CONTINUOUS
 62
     3
 10
20426.732870999989
 20
19712.459259000021
 30
0.0
 11
20722.834472999992
 21
19712.459259000021
 31
0.0
  0
LINE
  5
412C
  8
2-0
  6
CONTINUOUS
 62
     3
 10
20301.43132399999
 20
19627.46269
 30
0.0
 11
25440.424012999989
 21
19627.46269
 31
0.0
  0
LINE
  5
412D
  8
2-0
  6
CONTINUOUS
 62
     3
 10
20301.43132399999
 20
14617.498981000001
 30
0.0
 11
20301.43132399999
 21
14913.865342999999
 31
0.0
  0
LINE
  5
412E
  8
2-0
  6
CENTER2
 62
     6
 10
20343.927629000002
 20
20912.459259000028
 30
0.0
 11
20343.927629000002
 21
13909.197539999999
 31
0.0
  0
LINE
  5
412F
  8
2-0
  6
CENTER2
 62
     6
 10
25478.927629000002
 20
20912.459259000028
 30
0.0
 11
25478.927629000002
 21
13909.197539999999
 31
0.0
  0
LINE
  5
4130
  8
2-0
  6
CONTINUOUS
 62
     3
 10
25521.425912999988
 20
19587.16563000001
 30
0.0
 11
25521.425912999988
 21
19291.057099499991
 31
0.0
  0
LINE
  5
4131
  8
2-0
  6
CONTINUOUS
 62
     3
 10
20301.43132399999
 20
19587.16563000001
 30
0.0
 11
20301.43132399999
 21
19291.057099499991
 31
0.0
  0
LINE
  5
4132
  8
2-0
  6
CENTER2
 62
     6
 10
23612.427629000002
 20
20912.459259000028
 30
0.0
 11
23612.427629000002
 21
14343.55637299999
 31
0.0
  0
LINE
  5
4133
  8
2-0
  6
CONTINUOUS
 62
     3
 10
20382.429264999999
 20
14577.459258000001
 30
0.0
 11
20382.429264999999
 21
19712.459259000021
 31
0.0
  0
LINE
  5
4134
  8
2-0
  6
CONTINUOUS
 62
     3
 10
25440.424012999989
 20
14577.459258000001
 30
0.0
 11
25440.424012999989
 21
19712.459259000021
 31
0.0
  0
CIRCLE
  5
4135
  8
2-0
  6
CONTINUOUS
 62
     4
 10
18814.47536199999
 20
19669.960974000001
 30
0.0
 40
200.00001
  0
CIRCLE
  5
4136
  8
2-0
  6
CONTINUOUS
 62
     4
 10
18814.47536199999
 20
17102.460974000001
 30
0.0
 40
200.00001
  0
CIRCLE
  5
4137
  8
2-0
  6
CONTINUOUS
 62
     4
 10
18814.47536199999
 20
14534.960974
 30
0.0
 40
200.00001
  0
CIRCLE
  5
4138
  8
2-0
  6
CONTINUOUS
 62
     4
 10
23612.427629000002
 20
21112.463878000031
 30
0.0
 40
200.00001
  0
CIRCLE
  5
4139
  8
2-0
  6
CONTINUOUS
 62
     4
 10
20343.927629000002
 20
21112.463878000031
 30
0.0
 40
200.00001
  0
TEXT
  5
413A
  8
2-0
  6
CONTINUOUS
 62
     7
 10
23875.772936000008
 20
13974.962095999959
 30
0.0
 40
160.0
  1
前柱（右）
 50
0.0002130000058044
 72
     4
 11
24291.772638593018
 21
14054.96364250079
 31
0.0
  0
TEXT
  5
413B
  8
2-0
  6
CONTINUOUS
 62
     7
 10
23892.472154999999
 20
18303.58414000001
 30
0.0
 40
160.0
  1
補強柱 後
 50
359.99984199999972
 72
     4
 11
24303.139042274721
 21
18383.583007537
 31
0.0
  0
TEXT
  5
413C
  8
2-0
  6
CONTINUOUS
 62
     7
 10
24080.368058999979
 20
16552.954112000069
 30
0.0
 40
160.0
  1
壁パネル
 50
359.9998229999926
 72
     4
 11
24443.034972803551
 21
16632.952991637889
 31
0.0
  0
TEXT
  5
413D
  8
2-0
  6
CONTINUOUS
 62
     7
 10
23800.36515500001
 20
17390.142007999879
 30
0.0
 40
160.0
  1
中柱（左右）
 50
0.0003540000147867
 72
     4
 11
24317.697994046201
 21
17470.145204324672
 31
0.0
  0
TEXT
  5
413E
  8
2-0
  6
CONTINUOUS
 62
     7
 10
24480.367398999999
 20
14948.003361999959
 30
0.0
 40
160.0
  1
下枠
 50
0.0010630000132487
 72
     4
 11
24651.032581409279
 21
15028.006528339291
 31
0.0
  0
TEXT
  5
413F
  8
2-0
  6
CONTINUOUS
 62
     7
 10
23892.472154999959
 20
15385.824651000101
 30
0.0
 40
160.0
  1
補強柱 前
 50
359.99936999998857
 72
     4
 11
24303.139701287761
 21
15465.82013547934
 31
0.0
  0
TEXT
  5
4140
  8
2-0
  6
CONTINUOUS
 62
     7
 10
23975.332823000001
 20
18993.410746500002
 30
0.0
 40
160.0
  1
間柱（側）
 72
     4
 11
24396.666156333329
 21
19073.410746500002
 31
0.0
  0
TEXT
  5
4141
  8
2-0
  6
CONTINUOUS
 62
     7
 10
26293.923142000011
 20
20522.45846699988
 30
0.0
 40
160.0
  1
後柱（左右）
 50
0.0003540000147867
 72
     4
 11
26805.922647712971
 21
20602.461630372851
 31
0.0
  0
TEXT
  5
4142
  8
2-0
  6
CONTINUOUS
 62
     7
 10
22381.338867000009
 20
15112.799273999981
 30
0.0
 40
160.0
  1
前柱（中）
 72
     4
 11
22797.338867000009
 21
15192.799273999981
 31
0.0
  0
TEXT
  5
4143
  8
2-0
  6
CONTINUOUS
 62
     7
 10
21015.892086333341
 20
19075.34130600002
 30
0.0
 40
160.0
  1
間柱（後）
 72
     4
 11
21437.225419666669
 21
19155.34130600002
 31
0.0
  0
TEXT
  5
4144
  8
2-0
  6
CONTINUOUS
 62
     7
 10
22510.142182
 20
19144.086027000001
 30
0.0
 40
160.0
  1
後柱（中）
 72
     4
 11
22926.142182
 21
19224.086027000001
 31
0.0
  0
TEXT
  5
4145
  8
2-0
  6
CONTINUOUS
 62
     7
 10
18766.475994999979
 20
19575.480532000009
 30
0.0
 40
160.0
  1
C
 72
     4
 11
18819.809328333311
 21
19655.480532000009
 31
0.0
  0
TEXT
  5
4146
  8
2-0
  6
CONTINUOUS
 62
     7
 10
18766.696710999979
 20
17032.066892000021
 30
0.0
 40
160.0
  1
B
 72
     4
 11
18820.030044333322
 21
17112.066892000021
 31
0.0
  0
TEXT
  5
4147
  8
2-0
  6
CONTINUOUS
 62
     7
 10
18766.739270999969
 20
14446.35376299999
 30
0.0
 40
160.0
  1
A
 72
     4
 11
18820.072604333309
 21
14526.35376299999
 31
0.0
  0
TEXT
  5
4148
  8
2-0
  6
CONTINUOUS
 62
     7
 10
23560.795846000012
 20
21016.938249000021
 30
0.0
 40
160.0
  1
2
 72
     4
 11
23614.12917933334
 21
21096.938249000021
 31
0.0
  0
TEXT
  5
4149
  8
2-0
  6
CONTINUOUS
 62
     7
 10
20299.721019999972
 20
21023.696326000008
 30
0.0
 40
160.0
  1
1
 72
     4
 11
20326.38768666664
 21
21103.696326000008
 31
0.0
  0
LINE
  5
414A
  8
2-0
  6
CONTINUOUS
 62
     3
 10
24739.42820999998
 20
19712.459259000021
 30
0.0
 11
24702.427048000001
 21
19712.459259000021
 31
0.0
  0
LINE
  5
414B
  8
2-0
  6
CONTINUOUS
 62
     3
 10
24739.42820999998
 20
19682.455696000001
 30
0.0
 11
24739.42820999998
 21
19712.459259000021
 31
0.0
  0
LINE
  5
414C
  8
2-0
  6
CONTINUOUS
 62
     3
 10
24733.428288999981
 20
19682.455696000001
 30
0.0
 11
24739.42820999998
 21
19682.455696000001
 31
0.0
  0
LINE
  5
414D
  8
2-0
  6
CONTINUOUS
 62
     3
 10
24749.525733999992
 20
19682.455696000001
 30
0.0
 11
24749.525733999992
 21
19712.459259000021
 31
0.0
  0
LINE
  5
414E
  8
2-0
  6
CONTINUOUS
 62
     3
 10
24731.522013000002
 20
19682.455696000001
 30
0.0
 11
24749.525733999992
 21
19682.455696000001
 31
0.0
  0
LINE
  5
414F
  8
2-0
  6
CONTINUOUS
 62
     3
 10
24731.522013000002
 20
19707.464933000021
 30
0.0
 11
24731.522013000002
 21
19682.455696000001
 31
0.0
  0
LINE
  5
4150
  8
2-0
  6
CONTINUOUS
 62
     3
 10
24736.522277
 20
19707.464933000021
 30
0.0
 11
24731.522013000002
 21
19707.464933000021
 31
0.0
  0
LINE
  5
4151
  8
2-0
  6
CONTINUOUS
 62
     3
 10
24736.522277
 20
19700.45941700002
 30
0.0
 11
24736.522277
 21
19707.464933000021
 31
0.0
  0
LINE
  5
4152
  8
2-0
  6
CONTINUOUS
 62
     3
 10
24705.332981999989
 20
19700.45941700002
 30
0.0
 11
24705.332981999989
 21
19707.464933000021
 31
0.0
  0
LINE
  5
4153
  8
2-0
  6
CONTINUOUS
 62
     3
 10
24705.332981999989
 20
19707.464933000021
 30
0.0
 11
24710.333245999998
 21
19707.464933000021
 31
0.0
  0
LINE
  5
4154
  8
2-0
  6
CONTINUOUS
 62
     3
 10
24710.333245999998
 20
19707.464933000021
 30
0.0
 11
24710.333245999998
 21
19682.455696000001
 31
0.0
  0
LINE
  5
4155
  8
2-0
  6
CONTINUOUS
 62
     3
 10
24710.333245999998
 20
19682.455696000001
 30
0.0
 11
24692.333482999991
 21
19682.455696000001
 31
0.0
  0
LINE
  5
4156
  8
2-0
  6
CONTINUOUS
 62
     3
 10
24692.333482999991
 20
19682.455696000001
 30
0.0
 11
24692.333482999991
 21
19712.459259000021
 31
0.0
  0
LINE
  5
4157
  8
2-0
  6
CONTINUOUS
 62
     3
 10
24708.426968999989
 20
19682.455696000001
 30
0.0
 11
24702.427048000001
 21
19682.455696000001
 31
0.0
  0
LINE
  5
4158
  8
2-0
  6
CONTINUOUS
 62
     3
 10
24702.427048000001
 20
19682.455696000001
 30
0.0
 11
24702.427048000001
 21
19712.459259000021
 31
0.0
  0
LINE
  5
4159
  8
2-0
  6
CONTINUOUS
 62
     3
 10
24736.517327500002
 20
19700.45941700002
 30
0.0
 11
24736.517327500002
 21
19707.464933000021
 31
0.0
  0
LINE
  5
415A
  8
2-0
  6
CONTINUOUS
 62
     3
 10
24736.517327500002
 20
19707.464933000021
 30
0.0
 11
24731.517063499989
 21
19707.464933000021
 31
0.0
  0
LINE
  5
415B
  8
2-0
  6
CONTINUOUS
 62
     3
 10
24731.517063499989
 20
19707.464933000021
 30
0.0
 11
24731.517063499989
 21
19682.455696000001
 31
0.0
  0
LINE
  5
415C
  8
2-0
  6
CONTINUOUS
 62
     3
 10
24731.517063499989
 20
19682.455696000001
 30
0.0
 11
24749.522764500001
 21
19682.455696000001
 31
0.0
  0
LINE
  5
415D
  8
2-0
  6
CONTINUOUS
 62
     3
 10
24749.522764500001
 20
19682.455696000001
 30
0.0
 11
24749.522764500001
 21
19712.459259000021
 31
0.0
  0
LINE
  5
415E
  8
2-0
  6
CONTINUOUS
 62
     3
 10
24733.425319499991
 20
19682.455696000001
 30
0.0
 11
24739.427219499979
 21
19682.455696000001
 31
0.0
  0
LINE
  5
415F
  8
2-0
  6
CONTINUOUS
 62
     3
 10
24739.427219499979
 20
19682.455696000001
 30
0.0
 11
24739.427219499979
 21
19712.459259000021
 31
0.0
  0
LINE
  5
4160
  8
2-0
  6
CONTINUOUS
 62
     3
 10
24702.428038499991
 20
19712.459259000021
 30
0.0
 11
24739.427219499979
 21
19712.459259000021
 31
0.0
  0
LINE
  5
4161
  8
2-0
  6
CONTINUOUS
 62
     3
 10
24702.428038499991
 20
19682.455696000001
 30
0.0
 11
24702.428038499991
 21
19712.459259000021
 31
0.0
  0
LINE
  5
4162
  8
2-0
  6
CONTINUOUS
 62
     3
 10
24708.422020499991
 20
19682.455696000001
 30
0.0
 11
24702.428038499991
 21
19682.455696000001
 31
0.0
  0
LINE
  5
4163
  8
2-0
  6
CONTINUOUS
 62
     3
 10
24692.332493499991
 20
19682.455696000001
 30
0.0
 11
24692.332493499991
 21
19712.459259000021
 31
0.0
  0
LINE
  5
4164
  8
2-0
  6
CONTINUOUS
 62
     3
 10
24710.328296499989
 20
19682.455696000001
 30
0.0
 11
24692.332493499991
 21
19682.455696000001
 31
0.0
  0
LINE
  5
4165
  8
2-0
  6
CONTINUOUS
 62
     3
 10
24710.328296499989
 20
19707.464933000021
 30
0.0
 11
24710.328296499989
 21
19682.455696000001
 31
0.0
  0
LINE
  5
4166
  8
2-0
  6
CONTINUOUS
 62
     3
 10
24705.328032499991
 20
19707.464933000021
 30
0.0
 11
24710.328296499989
 21
19707.464933000021
 31
0.0
  0
LINE
  5
4167
  8
2-0
  6
CONTINUOUS
 62
     3
 10
24705.328032499991
 20
19700.45941700002
 30
0.0
 11
24705.328032499991
 21
19707.464933000021
 31
0.0
  0
LINE
  5
4168
  8
2-0
  6
CONTINUOUS
 62
     3
 10
24048.726655000009
 20
19712.459259000021
 30
0.0
 11
24692.332493499991
 21
19712.459259000021
 31
0.0
  0
LINE
  5
4169
  8
2-0
  6
CONTINUOUS
 62
     3
 10
25396.811258999998
 20
19712.459259000021
 30
0.0
 11
24749.525733999992
 21
19712.459259000021
 31
0.0
  0
LINE
  5
416A
  8
2-0
  6
CONTINUOUS
 62
     3
 10
24035.519306999991
 20
19700.45941700002
 30
0.0
 11
24035.519306999991
 21
19707.464933000021
 31
0.0
  0
LINE
  5
416B
  8
2-0
  6
CONTINUOUS
 62
     3
 10
24035.519306999991
 20
19707.464933000021
 30
0.0
 11
24030.519042999978
 21
19707.464933000021
 31
0.0
  0
LINE
  5
416C
  8
2-0
  6
CONTINUOUS
 62
     3
 10
24030.519042999978
 20
19707.464933000021
 30
0.0
 11
24030.519042999978
 21
19682.455696000001
 31
0.0
  0
LINE
  5
416D
  8
2-0
  6
CONTINUOUS
 62
     3
 10
24030.519042999978
 20
19682.455696000001
 30
0.0
 11
24048.520785000001
 21
19682.455696000001
 31
0.0
  0
LINE
  5
416E
  8
2-0
  6
CONTINUOUS
 62
     3
 10
24048.520785000001
 20
19682.455696000001
 30
0.0
 11
24048.520785000001
 21
19712.459259000021
 31
0.0
  0
LINE
  5
416F
  8
2-0
  6
CONTINUOUS
 62
     3
 10
24032.421360000011
 20
19682.455696000001
 30
0.0
 11
24038.42524
 21
19682.455696000001
 31
0.0
  0
LINE
  5
4170
  8
2-0
  6
CONTINUOUS
 62
     3
 10
24038.42524
 20
19682.455696000001
 30
0.0
 11
24038.42524
 21
19712.459259000021
 31
0.0
  0
LINE
  5
4171
  8
2-0
  6
CONTINUOUS
 62
     3
 10
24001.430017999988
 20
19712.459259000021
 30
0.0
 11
24038.42524
 21
19712.459259000021
 31
0.0
  0
LINE
  5
4172
  8
2-0
  6
CONTINUOUS
 62
     3
 10
24001.430017999988
 20
19682.455696000001
 30
0.0
 11
24001.430017999988
 21
19712.459259000021
 31
0.0
  0
LINE
  5
4173
  8
2-0
  6
CONTINUOUS
 62
     3
 10
24007.423999999992
 20
19682.455696000001
 30
0.0
 11
24001.430017999988
 21
19682.455696000001
 31
0.0
  0
LINE
  5
4174
  8
2-0
  6
CONTINUOUS
 62
     3
 10
23991.334472999999
 20
19682.455696000001
 30
0.0
 11
23991.334472999999
 21
19712.459259000021
 31
0.0
  0
LINE
  5
4175
  8
2-0
  6
CONTINUOUS
 62
     3
 10
24009.330276000012
 20
19682.455696000001
 30
0.0
 11
23991.334472999999
 21
19682.455696000001
 31
0.0
  0
LINE
  5
4176
  8
2-0
  6
CONTINUOUS
 62
     3
 10
24009.330276000012
 20
19707.464933000021
 30
0.0
 11
24009.330276000012
 21
19682.455696000001
 31
0.0
  0
LINE
  5
4177
  8
2-0
  6
CONTINUOUS
 62
     3
 10
24004.331991999999
 20
19707.464933000021
 30
0.0
 11
24009.330276000012
 21
19707.464933000021
 31
0.0
  0
LINE
  5
4178
  8
2-0
  6
CONTINUOUS
 62
     3
 10
24004.331991999999
 20
19700.45941700002
 30
0.0
 11
24004.331991999999
 21
19707.464933000021
 31
0.0
  0
LINE
  5
4179
  8
2-0
  6
CONTINUOUS
 62
     3
 10
23695.232870999971
 20
19712.459259000021
 30
0.0
 11
23991.334472999999
 21
19712.459259000021
 31
0.0
  0
LINE
  5
417A
  8
2-0
  6
CONTINUOUS
 62
     3
 10
23531.000132000001
 20
19712.459259000021
 30
0.0
 11
22883.025733999999
 21
19712.459259000021
 31
0.0
  0
LINE
  5
417B
  8
2-0
  6
CONTINUOUS
 62
     3
 10
25521.425912999988
 20
15615.100410999999
 30
0.0
 11
25521.425912999988
 21
14971.06155300001
 31
0.0
  0
LINE
  5
417C
  8
2-0
  6
CONTINUOUS
 62
     3
 10
25521.425912999988
 20
14913.865342999999
 30
0.0
 11
25521.425912999988
 21
14617.498981000001
 31
0.0
  0
CIRCLE
  5
417D
  8
2-0
  6
CONTINUOUS
 62
     4
 10
25478.927629000002
 20
21112.463878000031
 30
0.0
 40
200.00001
  0
TEXT
  5
417E
  8
2-0
  6
CONTINUOUS
 62
     7
 10
25427.295846000012
 20
21016.938249000021
 30
0.0
 40
160.0
  1
3
 72
     4
 11
25480.62917933334
 21
21096.938249000021
 31
0.0
  0
LINE
  5
417F
  8
SUNPOU
  6
CONTINUOUS
 10
26571.427232999991
 20
19669.960974000001
 30
0.0
 11
26571.427232999991
 21
20396.17882851628
 31
0.0
  0
TEXT
  5
4180
  8
0-5
  6
CONTINUOUS
 62
     7
 10
25474.499180999981
 20
4214.9256879999994
 30
0.0
 40
160.0
  1
3
 72
     4
 11
25527.83251433331
 21
4294.9256879999984
 31
0.0
  0
CIRCLE
  5
4181
  8
0-5
  6
CONTINUOUS
 62
     4
 10
25521.42762799999
 20
4301.455641999999
 30
0.0
 40
199.9999949999999
  0
LINE
  5
4182
  8
0-5
  6
CONTINUOUS
 62
     4
 10
25521.42762799999
 20
4661.4553449999939
 30
0.0
 11
25521.42762799999
 21
4501.455312
 31
0.0
  0
LINE
  5
4183
  8
SUNPOU
  6
CONTINUOUS
 10
25761.431586999988
 20
5141.4554440000002
 30
0.0
 11
26119.38659372109
 21
5141.4554440000002
 31
0.0
  0
LINE
  5
4184
  8
SUNPOU
  6
CONTINUOUS
 10
20061.427627999969
 20
5141.4554440000002
 30
0.0
 11
19703.472621278859
 21
5141.4554440000002
 31
0.0
  0
CIRCLE
  5
4185
  8
0-4
  6
CONTINUOUS
 62
     4
 10
24545.67762749999
 20
6827.511384999998
 30
0.0
 40
18.487504999999981
  0
CIRCLE
  5
4186
  8
0-4
  6
CONTINUOUS
 62
     4
 10
21978.177627999969
 20
6827.511384999998
 30
0.0
 40
18.487504999999981
  0
TEXT
  5
4187
  8
0-5
  6
CONTINUOUS
 62
     7
 10
20296.995221999969
 20
4214.9256879999994
 30
0.0
 40
160.0
  1
1
 72
     4
 11
20323.66188866664
 21
4294.9256879999984
 31
0.0
  0
TEXT
  5
4188
  8
0-5
  6
CONTINUOUS
 62
     7
 10
23565.499180999981
 20
4214.9256879999994
 30
0.0
 40
160.0
  1
2
 72
     4
 11
23618.83251433331
 21
4294.9256879999984
 31
0.0
  0
TEXT
  5
4189
  8
0-5
  6
CONTINUOUS
 62
     7
 10
19725.75168899999
 20
7070.8156907419916
 30
0.0
 40
160.0
  1
(2131.5)
 50
90.0
 72
     4
 11
19645.75168899999
 21
7524.1490240753246
 31
0.0
  0
CIRCLE
  5
418A
  8
0-5
  6
CONTINUOUS
 62
     4
 10
20343.927627999969
 20
4301.455641999999
 30
0.0
 40
199.9999949999999
  0
CIRCLE
  5
418B
  8
0-5
  6
CONTINUOUS
 62
     4
 10
23612.42762799999
 20
4301.455641999999
 30
0.0
 40
199.9999949999999
  0
LINE
  5
419C
  8
2-0
  6
CENTER2
 62
     6
 10
20343.927627999969
 20
6078.8030209999979
 30
0.0
 11
20343.927627999969
 21
7115.9450580000002
 31
0.0
  0
LINE
  5
419D
  8
2-0
  6
CENTER2
 62
     6
 10
23612.42762799999
 20
6078.8030209999979
 30
0.0
 11
23612.42762799999
 21
7115.9450580000002
 31
0.0
  0
LINE
  5
419E
  8
2-0
  6
CENTER2
 62
     6
 10
25478.927627999969
 20
6078.8030209999979
 30
0.0
 11
25478.927627999969
 21
7115.9450580000002
 31
0.0
  0
LINE
  5
419F
  8
0-5
  6
CONTINUOUS
 62
     4
 10
20343.927627999969
 20
4661.4553449999939
 30
0.0
 11
20343.927627999969
 21
4501.455312
 31
0.0
  0
LINE
  5
41A0
  8
0-5
  6
CONTINUOUS
 62
     4
 10
23612.42762799999
 20
4661.4553449999939
 30
0.0
 11
23612.42762799999
 21
4501.455312
 31
0.0
  0
LINE
  5
41A1
  8
0-2
  6
CONTINUOUS
 62
     4
 10
21614.484637499969
 20
7088.6811479999978
 30
0.0
 11
21714.481998499989
 21
7088.6811479999978
 31
0.0
  0
LINE
  5
41A2
  8
0-2
  6
CONTINUOUS
 62
     4
 10
22341.8686385
 20
7088.6811479999978
 30
0.0
 11
22241.869298499991
 21
7088.6811479999978
 31
0.0
  0
LINE
  5
41A3
  8
0-2
  6
CONTINUOUS
 62
     4
 10
24181.983647500001
 20
7088.681147999996
 30
0.0
 11
24281.982988499989
 21
7088.681147999996
 31
0.0
  0
LINE
  5
41A4
  8
0-2
  6
CONTINUOUS
 62
     4
 10
24909.369627500011
 20
7088.681147999996
 30
0.0
 11
24809.370287500002
 21
7088.681147999996
 31
0.0
  0
LINE
  5
41AA
  8
0-1
  6
CONTINUOUS
 62
     3
 10
20431.428287999981
 20
8280.9150019999979
 30
0.0
 11
23524.928947999961
 21
8280.9150019999979
 31
0.0
  0
LINE
  5
41AB
  8
0-1
  6
CONTINUOUS
 62
     3
 10
20431.428287999981
 20
6926.4561369999992
 30
0.0
 11
23524.928947999961
 21
6926.4561369999992
 31
0.0
  0
LINE
  5
41AC
  8
0-1
  6
CONTINUOUS
 62
     3
 10
20431.428287999981
 20
6991.4551140000031
 30
0.0
 11
23524.928947999961
 21
6991.4551140000031
 31
0.0
  0
LINE
  5
41AD
  8
0-1
  6
CONTINUOUS
 62
     3
 10
20431.428287999981
 20
7056.4555760000021
 30
0.0
 11
23524.928947999961
 21
7056.4555760000021
 31
0.0
  0
LINE
  5
41AE
  8
0-1
  6
CONTINUOUS
 62
     3
 10
20431.428287999981
 20
7121.4555429999991
 30
0.0
 11
23524.928947999961
 21
7121.4555429999991
 31
0.0
  0
LINE
  5
41AF
  8
0-1
  6
CONTINUOUS
 62
     3
 10
20431.428287999981
 20
7186.455509999998
 30
0.0
 11
23524.928947999961
 21
7186.455509999998
 31
0.0
  0
LINE
  5
41B0
  8
0-1
  6
CONTINUOUS
 62
     3
 10
20431.428287999981
 20
7251.4554769999968
 30
0.0
 11
23524.928947999961
 21
7251.4554769999968
 31
0.0
  0
LINE
  5
41B1
  8
0-1
  6
CONTINUOUS
 62
     3
 10
20431.428287999981
 20
7316.4559390000004
 30
0.0
 11
23524.928947999961
 21
7316.4559390000004
 31
0.0
  0
LINE
  5
41B2
  8
0-1
  6
CONTINUOUS
 62
     3
 10
20431.428287999981
 20
7381.4549159999997
 30
0.0
 11
23524.928947999961
 21
7381.4549159999997
 31
0.0
  0
LINE
  5
41B3
  8
0-1
  6
CONTINUOUS
 62
     3
 10
20431.428287999981
 20
7446.4553779999969
 30
0.0
 11
23524.928947999961
 21
7446.4553779999969
 31
0.0
  0
LINE
  5
41B4
  8
0-1
  6
CONTINUOUS
 62
     3
 10
20431.428287999981
 20
7511.4553449999976
 30
0.0
 11
23524.928947999961
 21
7511.4553449999976
 31
0.0
  0
LINE
  5
41B5
  8
0-1
  6
CONTINUOUS
 62
     3
 10
20431.428287999981
 20
7576.4558069999939
 30
0.0
 11
23524.928947999961
 21
7576.4558069999939
 31
0.0
  0
LINE
  5
41B6
  8
0-1
  6
CONTINUOUS
 62
     3
 10
20431.428287999981
 20
7641.4547839999977
 30
0.0
 11
23524.928947999961
 21
7641.4547839999977
 31
0.0
  0
LINE
  5
41B7
  8
0-1
  6
CONTINUOUS
 62
     3
 10
20431.428287999981
 20
7706.4552460000004
 30
0.0
 11
23524.928947999961
 21
7706.4552460000004
 31
0.0
  0
LINE
  5
41B8
  8
0-1
  6
CONTINUOUS
 62
     3
 10
20431.428287999981
 20
7771.4552130000002
 30
0.0
 11
23524.928947999961
 21
7771.4552130000002
 31
0.0
  0
LINE
  5
41B9
  8
0-1
  6
CONTINUOUS
 62
     3
 10
20431.428287999981
 20
7836.4551799999972
 30
0.0
 11
23524.928947999961
 21
7836.4551799999972
 31
0.0
  0
LINE
  5
41BA
  8
0-1
  6
CONTINUOUS
 62
     3
 10
20431.428287999981
 20
7901.4556420000026
 30
0.0
 11
23524.928947999961
 21
7901.4556420000026
 31
0.0
  0
LINE
  5
41BB
  8
0-1
  6
CONTINUOUS
 62
     3
 10
20431.428287999981
 20
7966.4556089999969
 30
0.0
 11
23524.928947999961
 21
7966.4556089999969
 31
0.0
  0
LINE
  5
41BC
  8
0-1
  6
CONTINUOUS
 62
     3
 10
20431.428287999981
 20
8031.4560709999987
 30
0.0
 11
23524.928947999961
 21
8031.4560709999987
 31
0.0
  0
LINE
  5
41BD
  8
0-1
  6
CONTINUOUS
 62
     3
 10
20431.428287999981
 20
8096.4550479999934
 30
0.0
 11
23524.928947999961
 21
8096.4550479999934
 31
0.0
  0
LINE
  5
41BE
  8
0-1
  6
CONTINUOUS
 62
     3
 10
20431.428287999981
 20
8161.4555100000007
 30
0.0
 11
23524.928947999961
 21
8161.4555100000007
 31
0.0
  0
LINE
  5
41BF
  8
0-1
  6
CONTINUOUS
 62
     3
 10
20431.428287999981
 20
8226.4554769999977
 30
0.0
 11
23524.928947999961
 21
8226.4554769999977
 31
0.0
  0
LINE
  5
41C0
  8
0-1
  6
CONTINUOUS
 62
     3
 10
20431.428287999981
 20
6406.4549159999979
 30
0.0
 11
23524.928947999961
 21
6406.4549159999979
 31
0.0
  0
LINE
  5
41C1
  8
0-1
  6
CONTINUOUS
 62
     3
 10
20431.428287999981
 20
6471.4558729999981
 30
0.0
 11
23524.928947999961
 21
6471.4558729999981
 31
0.0
  0
LINE
  5
41C2
  8
0-1
  6
CONTINUOUS
 62
     3
 10
20431.428287999981
 20
6536.4548500000001
 30
0.0
 11
23524.928947999961
 21
6536.4548500000001
 31
0.0
  0
LINE
  5
41C3
  8
0-1
  6
CONTINUOUS
 62
     3
 10
20431.428287999981
 20
6601.4558069999975
 30
0.0
 11
23524.928947999961
 21
6601.4558069999975
 31
0.0
  0
LINE
  5
41C4
  8
0-1
  6
CONTINUOUS
 62
     3
 10
20431.428287999981
 20
6666.4552789999998
 30
0.0
 11
23524.928947999961
 21
6666.4552789999998
 31
0.0
  0
LINE
  5
41C5
  8
0-1
  6
CONTINUOUS
 62
     3
 10
20431.428287999981
 20
6731.4552460000004
 30
0.0
 11
23524.928947999961
 21
6731.4552460000004
 31
0.0
  0
LINE
  5
41C6
  8
0-1
  6
CONTINUOUS
 62
     3
 10
20431.428287999981
 20
6796.4552129999965
 30
0.0
 11
23524.928947999961
 21
6796.4552129999965
 31
0.0
  0
LINE
  5
41C7
  8
0-1
  6
CONTINUOUS
 62
     3
 10
20431.428287999981
 20
6861.4546849999988
 30
0.0
 11
23524.928947999961
 21
6861.4546849999988
 31
0.0
  0
LINE
  5
41C9
  8
0-1
  6
CONTINUOUS
 62
     3
 10
20386.425912999988
 20
8349.4553379999943
 30
0.0
 11
23569.927363999981
 21
8349.4553379999943
 31
0.0
  0
LINE
  5
41CA
  8
0-1
  6
CONTINUOUS
 62
     3
 10
20301.425384999991
 20
8659.9547049999983
 30
0.0
 11
20301.425384999991
 21
6441.4552789999952
 31
0.0
  0
LINE
  5
41CB
  8
0-1
  6
CONTINUOUS
 62
     3
 10
20321.428419999971
 20
8789.9556280000033
 30
0.0
 11
20321.428419999971
 21
6441.4552789999952
 31
0.0
  0
LINE
  5
41CC
  8
0-1
  6
CONTINUOUS
 62
     3
 10
20386.425912999988
 20
8659.9547049999983
 30
0.0
 11
20386.425912999988
 21
6441.4552789999952
 31
0.0
  0
LINE
  5
41CD
  8
0-1
  6
CONTINUOUS
 62
     3
 10
20431.428287999981
 20
8349.4553379999943
 30
0.0
 11
20431.428287999981
 21
6341.4554440000011
 31
0.0
  0
LINE
  5
41CE
  8
0-1
  6
CONTINUOUS
 62
     3
 10
20293.926968999989
 20
6441.4552789999952
 30
0.0
 11
20393.928287999981
 21
6441.4552789999952
 31
0.0
  0
LINE
  5
41CF
  8
0-1
  6
CONTINUOUS
 62
     3
 10
20293.926968999989
 20
6341.4554440000011
 30
0.0
 11
20293.926968999989
 21
6441.4552789999952
 31
0.0
  0
LINE
  5
41D0
  8
0-1
  6
CONTINUOUS
 62
     3
 10
20393.928287999981
 20
6441.4552789999952
 30
0.0
 11
20393.928287999981
 21
6341.4554440000011
 31
0.0
  0
LINE
  5
41DB
  8
0-1
  6
CONTINUOUS
 62
     3
 10
23524.928947999961
 20
8349.4553379999943
 30
0.0
 11
23524.928947999961
 21
6341.4554440000011
 31
0.0
  0
LINE
  5
41DC
  8
0-1
  6
CONTINUOUS
 62
     3
 10
23569.927363999981
 20
8659.9547049999983
 30
0.0
 11
23569.927363999981
 21
6341.4554440000011
 31
0.0
  0
LINE
  5
41E6
  8
0-1
  6
CONTINUOUS
 62
     3
 10
20293.926968999989
 20
6341.4554440000011
 30
0.0
 11
25528.92828799997
 21
6341.4554440000011
 31
0.0
  0
LINE
  5
41E7
  8
0-1
  6
CONTINUOUS
 62
     3
 10
23654.925911999992
 20
8349.4553379999943
 30
0.0
 11
25436.42934299996
 21
8349.4553379999943
 31
0.0
  0
LINE
  5
41E9
  8
0-1
  6
CONTINUOUS
 62
     3
 10
23699.926307999998
 20
6861.4546849999988
 30
0.0
 11
25391.42894699996
 21
6861.4546849999988
 31
0.0
  0
LINE
  5
41EA
  8
0-1
  6
CONTINUOUS
 62
     3
 10
23699.926307999998
 20
6796.4552129999965
 30
0.0
 11
25391.42894699996
 21
6796.4552129999965
 31
0.0
  0
LINE
  5
41EB
  8
0-1
  6
CONTINUOUS
 62
     3
 10
23699.926307999998
 20
6731.4552460000004
 30
0.0
 11
25391.42894699996
 21
6731.4552460000004
 31
0.0
  0
LINE
  5
41EC
  8
0-1
  6
CONTINUOUS
 62
     3
 10
23699.926307999998
 20
6666.4552789999998
 30
0.0
 11
25391.42894699996
 21
6666.4552789999998
 31
0.0
  0
LINE
  5
41ED
  8
0-1
  6
CONTINUOUS
 62
     3
 10
23699.926307999998
 20
6601.4558069999975
 30
0.0
 11
25391.42894699996
 21
6601.4558069999975
 31
0.0
  0
LINE
  5
41EE
  8
0-1
  6
CONTINUOUS
 62
     3
 10
23699.926307999998
 20
6536.4548500000001
 30
0.0
 11
25391.42894699996
 21
6536.4548500000001
 31
0.0
  0
LINE
  5
41EF
  8
0-1
  6
CONTINUOUS
 62
     3
 10
23699.926307999998
 20
6471.4558729999981
 30
0.0
 11
25391.42894699996
 21
6471.4558729999981
 31
0.0
  0
LINE
  5
41F0
  8
0-1
  6
CONTINUOUS
 62
     3
 10
23699.926307999998
 20
6406.4549159999979
 30
0.0
 11
25391.42894699996
 21
6406.4549159999979
 31
0.0
  0
LINE
  5
41F1
  8
0-1
  6
CONTINUOUS
 62
     3
 10
23699.926307999998
 20
8226.4554769999977
 30
0.0
 11
25391.42894699996
 21
8226.4554769999977
 31
0.0
  0
LINE
  5
41F2
  8
0-1
  6
CONTINUOUS
 62
     3
 10
23699.926307999998
 20
8161.4555100000007
 30
0.0
 11
25391.42894699996
 21
8161.4555100000007
 31
0.0
  0
LINE
  5
41F3
  8
0-1
  6
CONTINUOUS
 62
     3
 10
23699.926307999998
 20
8096.4550479999934
 30
0.0
 11
25391.42894699996
 21
8096.4550479999934
 31
0.0
  0
LINE
  5
41F4
  8
0-1
  6
CONTINUOUS
 62
     3
 10
23699.926307999998
 20
8031.4560709999987
 30
0.0
 11
25391.42894699996
 21
8031.4560709999987
 31
0.0
  0
LINE
  5
41F5
  8
0-1
  6
CONTINUOUS
 62
     3
 10
23699.926307999998
 20
7966.4556089999969
 30
0.0
 11
25391.42894699996
 21
7966.4556089999969
 31
0.0
  0
LINE
  5
41F6
  8
0-1
  6
CONTINUOUS
 62
     3
 10
23699.926307999998
 20
7901.4556420000026
 30
0.0
 11
25391.42894699996
 21
7901.4556420000026
 31
0.0
  0
LINE
  5
41F7
  8
0-1
  6
CONTINUOUS
 62
     3
 10
23699.926307999998
 20
7836.4551799999972
 30
0.0
 11
25391.42894699996
 21
7836.4551799999972
 31
0.0
  0
LINE
  5
41F8
  8
0-1
  6
CONTINUOUS
 62
     3
 10
23699.926307999998
 20
7771.4552130000002
 30
0.0
 11
25391.42894699996
 21
7771.4552130000002
 31
0.0
  0
LINE
  5
41F9
  8
0-1
  6
CONTINUOUS
 62
     3
 10
23699.926307999998
 20
7706.4552460000004
 30
0.0
 11
25391.42894699996
 21
7706.4552460000004
 31
0.0
  0
LINE
  5
41FA
  8
0-1
  6
CONTINUOUS
 62
     3
 10
23699.926307999998
 20
7641.4547839999977
 30
0.0
 11
25391.42894699996
 21
7641.4547839999977
 31
0.0
  0
LINE
  5
41FB
  8
0-1
  6
CONTINUOUS
 62
     3
 10
23699.926307999998
 20
7576.4558069999939
 30
0.0
 11
25391.42894699996
 21
7576.4558069999939
 31
0.0
  0
LINE
  5
41FC
  8
0-1
  6
CONTINUOUS
 62
     3
 10
23699.926307999998
 20
7511.4553449999976
 30
0.0
 11
25391.42894699996
 21
7511.4553449999976
 31
0.0
  0
LINE
  5
41FD
  8
0-1
  6
CONTINUOUS
 62
     3
 10
23699.926307999998
 20
7446.4553779999969
 30
0.0
 11
25391.42894699996
 21
7446.4553779999969
 31
0.0
  0
LINE
  5
41FE
  8
0-1
  6
CONTINUOUS
 62
     3
 10
23699.926307999998
 20
7381.4549159999997
 30
0.0
 11
25391.42894699996
 21
7381.4549159999997
 31
0.0
  0
LINE
  5
41FF
  8
0-1
  6
CONTINUOUS
 62
     3
 10
23699.926307999998
 20
7316.4559390000004
 30
0.0
 11
25391.42894699996
 21
7316.4559390000004
 31
0.0
  0
LINE
  5
4200
  8
0-1
  6
CONTINUOUS
 62
     3
 10
23699.926307999998
 20
7251.4554769999968
 30
0.0
 11
25391.42894699996
 21
7251.4554769999968
 31
0.0
  0
LINE
  5
4201
  8
0-1
  6
CONTINUOUS
 62
     3
 10
23699.926307999998
 20
7186.455509999998
 30
0.0
 11
25391.42894699996
 21
7186.455509999998
 31
0.0
  0
LINE
  5
4202
  8
0-1
  6
CONTINUOUS
 62
     3
 10
23699.926307999998
 20
7121.4555429999991
 30
0.0
 11
25391.42894699996
 21
7121.4555429999991
 31
0.0
  0
LINE
  5
4203
  8
0-1
  6
CONTINUOUS
 62
     3
 10
23699.926307999998
 20
7056.4555760000021
 30
0.0
 11
25391.42894699996
 21
7056.4555760000021
 31
0.0
  0
LINE
  5
4204
  8
0-1
  6
CONTINUOUS
 62
     3
 10
23699.926307999998
 20
6991.4551140000031
 30
0.0
 11
25391.42894699996
 21
6991.4551140000031
 31
0.0
  0
LINE
  5
4205
  8
0-1
  6
CONTINUOUS
 62
     3
 10
23699.926307999998
 20
6926.4561369999992
 30
0.0
 11
25391.42894699996
 21
6926.4561369999992
 31
0.0
  0
LINE
  5
4206
  8
0-1
  6
CONTINUOUS
 62
     3
 10
23699.926307999998
 20
8280.9150019999979
 30
0.0
 11
25391.42894699996
 21
8280.9150019999979
 31
0.0
  0
LINE
  5
4209
  8
0-1
  6
CONTINUOUS
 62
     3
 10
23699.926307999998
 20
8349.4553379999943
 30
0.0
 11
23699.926307999998
 21
6341.4554440000011
 31
0.0
  0
LINE
  5
420A
  8
0-1
  6
CONTINUOUS
 62
     3
 10
23654.925911999992
 20
8659.9547049999983
 30
0.0
 11
23654.925911999992
 21
6341.4554440000011
 31
0.0
  0
LINE
  5
4213
  8
0-1
  6
CONTINUOUS
 62
     3
 10
25436.42934299996
 20
8659.9547049999983
 30
0.0
 11
25436.42934299996
 21
6441.4552789999952
 31
0.0
  0
LINE
  5
4214
  8
0-1
  6
CONTINUOUS
 62
     3
 10
25391.42894699996
 20
8349.4553379999943
 30
0.0
 11
25391.42894699996
 21
6341.4554440000011
 31
0.0
  0
LINE
  5
4215
  8
0-1
  6
CONTINUOUS
 62
     3
 10
25521.427891999989
 20
8659.9547049999983
 30
0.0
 11
25521.427891999989
 21
6441.4552789999952
 31
0.0
  0
LINE
  5
4216
  8
0-1
  6
CONTINUOUS
 62
     3
 10
25501.428814999981
 20
8789.9556280000033
 30
0.0
 11
25501.428814999981
 21
6441.4552789999952
 31
0.0
  0
LINE
  5
4217
  8
0-1
  6
CONTINUOUS
 62
     3
 10
25528.92828799997
 20
6341.4554440000011
 30
0.0
 11
25528.92828799997
 21
6441.4552789999952
 31
0.0
  0
LINE
  5
4218
  8
0-1
  6
CONTINUOUS
 62
     3
 10
25428.928946999989
 20
6441.4552789999952
 30
0.0
 11
25428.928946999989
 21
6341.4554440000011
 31
0.0
  0
LINE
  5
4219
  8
0-1
  6
CONTINUOUS
 62
     3
 10
25528.92828799997
 20
6441.4552789999952
 30
0.0
 11
25428.928946999989
 21
6441.4552789999952
 31
0.0
  0
LINE
  5
4224
  8
SUNPOU
  6
CONTINUOUS
 10
8555.2599630000022
 20
19892.456883000021
 30
0.0
 11
8555.2599630000022
 21
20689.424150778472
 31
0.0
  0
LINE
  5
4225
  8
SUNPOU
  6
CONTINUOUS
 10
8555.2599630000022
 20
14342.465659
 30
0.0
 11
8555.2599630000022
 21
13667.03954318962
 31
0.0
  0
LINE
  5
4228
  8
WAKUSEN-01
 10
868.00000000000193
 20
22484.000000000011
 30
0.0
 11
32764.000000000011
 21
22484.000000000011
 31
0.0
  0
LINE
  5
422B
  8
WAKUSEN-01
 10
20560.0
 20
2484.0
 30
0.0
 11
32764.0
 21
2484.0
 31
0.0
  0
LINE
  5
422C
  8
WAKUSEN-02
 10
20560.0
 20
1655.9999999999991
 30
0.0
 11
26868.0
 21
1655.9999999999991
 31
0.0
  0
TEXT
  5
422D
  8
WAKUMOJI-01
 10
20670.260259962761
 20
2125.9030093393221
 30
0.0
 40
240.0
  1
名　称
  7
WAKUMOJI
  0
TEXT
  5
422E
  8
WAKUMOJI-01
 10
20656.505485091919
 20
1319.12897497982
 30
0.0
 40
240.0
  1
機種名
  7
WAKUMOJI
  0
LINE
  5
4231
  8
YODOROGO
 10
29977.604341291921
 20
1995.7494964292871
 30
0.0
 11
29829.604341291921
 21
1995.7494964292871
 31
0.0
1001
AUTOCAD_POSTSCRIPT_FIGURE
1002
{
1000
PSFILL
1000
Grayscale
1000
Grayscale
1070
    25
1002
}
  0
LINE
  5
4232
  8
YODOROGO
 10
29829.604341291921
 20
1947.749496429288
 30
0.0
 11
29977.604341291921
 21
1947.749496429288
 31
0.0
1001
AUTOCAD_POSTSCRIPT_FIGURE
1002
{
1000
PSFILL
1000
Grayscale
1000
Grayscale
1070
    25
1002
}
  0
LINE
  5
4233
  8
YODOROGO
 10
29977.604341291921
 20
1907.7494964292871
 30
0.0
 11
29829.604341291921
 21
1907.7494964292871
 31
0.0
1001
AUTOCAD_POSTSCRIPT_FIGURE
1002
{
1000
PSFILL
1000
Grayscale
1000
Grayscale
1070
    25
1002
}
  0
LINE
  5
4234
  8
YODOROGO
 10
29829.604341291921
 20
1859.749496429288
 30
0.0
 11
29977.604341291921
 21
1859.749496429288
 31
0.0
1001
AUTOCAD_POSTSCRIPT_FIGURE
1002
{
1000
PSFILL
1000
Grayscale
1000
Grayscale
1070
    25
1002
}
  0
LINE
  5
4235
  8
YODOROGO
 10
29977.604341291921
 20
1819.7494964292871
 30
0.0
 11
29829.604341291921
 21
1819.7494964292871
 31
0.0
1001
AUTOCAD_POSTSCRIPT_FIGURE
1002
{
1000
PSFILL
1000
Grayscale
1000
Grayscale
1070
    25
1002
}
  0
LINE
  5
4236
  8
YODOROGO
 10
29921.60434129191
 20
1707.749496429288
 30
0.0
 11
29977.604341291921
 21
1707.749496429288
 31
0.0
1001
AUTOCAD_POSTSCRIPT_FIGURE
1002
{
1000
PSFILL
1000
Grayscale
1000
Grayscale
1070
    25
1002
}
  0
LINE
  5
4237
  8
YODOROGO
 10
29737.604341291921
 20
1427.749496429288
 30
0.0
 11
29937.604341291932
 21
1481.3393349155101
 31
0.0
  0
LINE
  5
4238
  8
YODOROGO
 10
29949.60434129191
 20
1707.749496429288
 30
0.0
 11
29885.604341291921
 21
1707.749496429288
 31
0.0
  0
ARC
  5
4239
  8
YODOROGO
 10
30254.34774982791
 20
1807.864609233261
 30
0.0
 40
381.88686420564721
 50
213.96111677667841
 51
264.47872074317792
  0
ARC
  5
423A
  8
YODOROGO
 10
30254.347749827921
 20
1807.864609233302
 30
0.0
 40
381.8868642056816
 50
208.14114420486601
 51
212.9210361185994
  0
LINE
  5
423B
  8
YODOROGO
 10
29771.409872985321
 20
1556.807661346234
 30
0.0
 11
29933.78413250855
 21
1600.3157130570869
 31
0.0
  0
LINE
  5
423C
  8
YODOROGO
 10
29737.604341291921
 20
1427.749496429288
 30
0.0
 11
29937.604341291932
 21
1481.3393349155101
 31
0.0
  0
LINE
  5
423D
  8
YODOROGO
 10
29949.60434129191
 20
1707.749496429288
 30
0.0
 11
29885.604341291921
 21
1707.749496429288
 31
0.0
  0
ARC
  5
423E
  8
YODOROGO
 10
30254.34774982791
 20
1807.864609233261
 30
0.0
 40
381.88686420564721
 50
213.96111677667841
 51
264.47872074317792
  0
LINE
  5
423F
  8
YODOROGO
 10
28793.60434129191
 20
1819.7494964292871
 30
0.0
 11
28433.60434129191
 21
1819.7494964292871
 31
0.0
  0
LINE
  5
4240
  8
YODOROGO
 10
28513.60434129191
 20
1427.749496429288
 30
0.0
 11
28793.60434129191
 21
1427.749496429288
 31
0.0
  0
LINE
  5
4241
  8
YODOROGO
 10
28729.604341291921
 20
1923.7494964292871
 30
0.0
 11
28497.60434129191
 21
1923.7494964292871
 31
0.0
  0
LINE
  5
4242
  8
YODOROGO
 10
28585.604341291921
 20
2027.749496429288
 30
0.0
 11
28657.604341291921
 21
2027.749496429288
 31
0.0
  0
LINE
  5
4243
  8
YODOROGO
 10
28433.60434129191
 20
1707.749496429288
 30
0.0
 11
28433.60434129191
 21
1507.749496429288
 31
0.0
  0
LINE
  5
4244
  8
YODOROGO
 10
28497.60434129191
 20
1563.7494964292871
 30
0.0
 11
28497.60434129191
 21
1707.749496429288
 31
0.0
  0
LINE
  5
4245
  8
YODOROGO
 10
28585.604341291921
 20
1747.74949642929
 30
0.0
 11
28585.604341291921
 21
1547.749496429288
 31
0.0
  0
LINE
  5
4246
  8
YODOROGO
 10
27857.604341291921
 20
1683.749496429288
 30
0.0
 11
27777.604341291921
 21
1619.9724140445701
 31
0.0
  0
LINE
  5
4247
  8
YODOROGO
 10
27937.604341291921
 20
1619.9724140445701
 30
0.0
 11
27857.604341291921
 21
1683.749496429288
 31
0.0
  0
LINE
  5
4248
  8
YODOROGO
 10
27857.604341291921
 20
1707.749496429288
 30
0.0
 11
27937.604341291921
 21
1643.9724140445701
 31
0.0
  0
LINE
  5
4249
  8
YODOROGO
 10
27777.604341291921
 20
1643.9724140445701
 30
0.0
 11
27857.604341291921
 21
1707.749496429288
 31
0.0
  0
LINE
  5
424A
  8
YODOROGO
 10
28040.913204016892
 20
1659.749496429288
 30
0.0
 11
28040.913204016892
 21
1683.7494964292871
 31
0.0
  0
LINE
  5
424B
  8
YODOROGO
 10
27977.604341291921
 20
1683.7494964292871
 30
0.0
 11
27977.604341291921
 21
1667.749496429285
 31
0.0
  0
LINE
  5
424C
  8
YODOROGO
 10
28098.135520230931
 20
1707.749496429288
 30
0.0
 11
28098.135520230931
 21
1655.5036372746561
 31
0.0
1001
AUTOCAD_POSTSCRIPT_FIGURE
1002
{
1000
PSFILL
1000
Grayscale
1000
Grayscale
1070
   100
1002
}
  0
LINE
  5
424D
  8
YODOROGO
 10
28082.135520230921
 20
1655.5036372746561
 30
0.0
 11
28082.135520230921
 21
1707.749496429288
 31
0.0
1001
AUTOCAD_POSTSCRIPT_FIGURE
1002
{
1000
PSFILL
1000
Grayscale
1000
Grayscale
1070
   100
1002
}
  0
LINE
  5
424E
  8
YODOROGO
 10
27809.604341291921
 20
1608.771904043258
 30
0.0
 11
27809.604341291921
 21
1632.771904043258
 31
0.0
  0
LINE
  5
424F
  8
YODOROGO
 10
27905.604341291921
 20
1608.771904043258
 30
0.0
 11
27809.604341291921
 21
1608.771904043258
 31
0.0
  0
LINE
  5
4250
  8
YODOROGO
 10
27905.604341291921
 20
1632.771904043258
 30
0.0
 11
27905.604341291921
 21
1608.771904043258
 31
0.0
  0
LINE
  5
4251
  8
YODOROGO
 10
27809.604341291921
 20
1632.771904043258
 30
0.0
 11
27905.604341291921
 21
1632.771904043258
 31
0.0
  0
LINE
  5
4252
  8
YODOROGO
 10
27824.509588915738
 20
1568.5028573704751
 30
0.0
 11
27785.604341291921
 21
1475.7494964292871
 31
0.0
1001
AUTOCAD_POSTSCRIPT_FIGURE
1002
{
1000
PSFILL
1000
Grayscale
1000
Grayscale
1070
   100
1002
}
  0
LINE
  5
4253
  8
YODOROGO
 10
27777.604341291921
 20
1568.5028573704751
 30
0.0
 11
27824.509588915738
 21
1568.5028573704751
 31
0.0
1001
AUTOCAD_POSTSCRIPT_FIGURE
1002
{
1000
PSFILL
1000
Grayscale
1000
Grayscale
1070
   100
1002
}
  0
LINE
  5
4254
  8
YODOROGO
 10
27777.604341291921
 20
1588.5028573704751
 30
0.0
 11
27777.604341291921
 21
1568.5028573704751
 31
0.0
1001
AUTOCAD_POSTSCRIPT_FIGURE
1002
{
1000
PSFILL
1000
Grayscale
1000
Grayscale
1070
   100
1002
}
  0
LINE
  5
4255
  8
YODOROGO
 10
27937.604341291921
 20
1588.5028573704751
 30
0.0
 11
27777.604341291921
 21
1588.5028573704751
 31
0.0
1001
AUTOCAD_POSTSCRIPT_FIGURE
1002
{
1000
PSFILL
1000
Grayscale
1000
Grayscale
1070
   100
1002
}
  0
LINE
  5
4256
  8
YODOROGO
 10
27937.604341291921
 20
1568.5028573704751
 30
0.0
 11
27937.604341291921
 21
1588.5028573704751
 31
0.0
1001
AUTOCAD_POSTSCRIPT_FIGURE
1002
{
1000
PSFILL
1000
Grayscale
1000
Grayscale
1070
   100
1002
}
  0
LINE
  5
4257
  8
YODOROGO
 10
27844.509588915738
 20
1568.5028573704751
 30
0.0
 11
27937.604341291921
 21
1568.5028573704751
 31
0.0
1001
AUTOCAD_POSTSCRIPT_FIGURE
1002
{
1000
PSFILL
1000
Grayscale
1000
Grayscale
1070
   100
1002
}
  0
LINE
  5
4258
  8
YODOROGO
 10
27815.546718284771
 20
1495.7494964292871
 30
0.0
 11
27844.509588915738
 21
1568.5028573704751
 31
0.0
1001
AUTOCAD_POSTSCRIPT_FIGURE
1002
{
1000
PSFILL
1000
Grayscale
1000
Grayscale
1070
   100
1002
}
  0
LINE
  5
4259
  8
YODOROGO
 10
27902.054790808648
 20
1495.7494964292871
 30
0.0
 11
27815.546718284771
 21
1495.7494964292871
 31
0.0
1001
AUTOCAD_POSTSCRIPT_FIGURE
1002
{
1000
PSFILL
1000
Grayscale
1000
Grayscale
1070
   100
1002
}
  0
LINE
  5
425A
  8
YODOROGO
 10
27885.065004790951
 20
1536.2338106976929
 30
0.0
 11
27902.054790808648
 21
1495.7494964292871
 31
0.0
1001
AUTOCAD_POSTSCRIPT_FIGURE
1002
{
1000
PSFILL
1000
Grayscale
1000
Grayscale
1070
   100
1002
}
  0
LINE
  5
425B
  8
YODOROGO
 10
27901.065004790951
 20
1536.2338106976929
 30
0.0
 11
27885.065004790951
 21
1536.2338106976929
 31
0.0
1001
AUTOCAD_POSTSCRIPT_FIGURE
1002
{
1000
PSFILL
1000
Grayscale
1000
Grayscale
1070
   100
1002
}
  0
LINE
  5
425C
  8
YODOROGO
 10
27929.604341291921
 20
1475.7494964292871
 30
0.0
 11
27901.065004790951
 21
1536.2338106976929
 31
0.0
1001
AUTOCAD_POSTSCRIPT_FIGURE
1002
{
1000
PSFILL
1000
Grayscale
1000
Grayscale
1070
   100
1002
}
  0
LINE
  5
425D
  8
YODOROGO
 10
27785.604341291921
 20
1475.7494964292871
 30
0.0
 11
27929.604341291921
 21
1475.7494964292871
 31
0.0
1001
AUTOCAD_POSTSCRIPT_FIGURE
1002
{
1000
PSFILL
1000
Grayscale
1000
Grayscale
1070
   100
1002
}
  0
LINE
  5
425E
  8
YODOROGO
 10
27777.604341291921
 20
1619.9724140445701
 30
0.0
 11
27777.604341291921
 21
1643.9724140445701
 31
0.0
  0
LINE
  5
425F
  8
YODOROGO
 10
27937.604341291921
 20
1643.9724140445701
 30
0.0
 11
27937.604341291921
 21
1619.9724140445701
 31
0.0
  0
ARC
  5
4260
  8
YODOROGO
 10
28225.940442146959
 20
1600.877765325326
 30
0.0
 40
175.9999999999998
 50
280.3644312771313
 51
3.5414836592180561
  0
ARC
  5
4261
  8
YODOROGO
 10
28235.756030759301
 20
1633.5978069619041
 30
0.0
 40
111.9999999999982
 50
281.24905825041549
 51
348.75094174958321
  0
LINE
  5
4262
  8
YODOROGO
 10
28257.604341291921
 20
1523.7494964292871
 30
0.0
 11
28257.604341291921
 21
1427.749496429288
 31
0.0
  0
LINE
  5
4263
  8
YODOROGO
 10
28020.088903736909
 20
1610.650565061914
 30
0.0
 11
28040.913204016892
 21
1659.749496429288
 31
0.0
  0
LINE
  5
4264
  8
YODOROGO
 10
28041.604341291921
 20
1583.120489948401
 30
0.0
 11
28020.088903736909
 21
1610.650565061914
 31
0.0
  0
LINE
  5
4265
  8
YODOROGO
 10
28041.604341291921
 20
1563.120489948398
 30
0.0
 11
28041.604341291921
 21
1583.120489948401
 31
0.0
  0
LINE
  5
4266
  8
YODOROGO
 10
28017.604341291921
 20
1585.2370637495301
 30
0.0
 11
28041.604341291921
 21
1563.120489948398
 31
0.0
  0
LINE
  5
4267
  8
YODOROGO
 10
28017.604341291921
 20
1475.7494964292871
 30
0.0
 11
28017.604341291921
 21
1585.2370637495301
 31
0.0
  0
LINE
  5
4268
  8
YODOROGO
 10
28001.604341291921
 20
1475.7494964292871
 30
0.0
 11
28017.604341291921
 21
1475.7494964292871
 31
0.0
  0
LINE
  5
4269
  8
YODOROGO
 10
28001.604341291921
 20
1580.0053496897469
 30
0.0
 11
28001.604341291921
 21
1475.7494964292871
 31
0.0
  0
LINE
  5
426A
  8
YODOROGO
 10
27977.604341291921
 20
1532.7680790334291
 30
0.0
 11
28001.604341291921
 21
1580.0053496897469
 31
0.0
  0
LINE
  5
426B
  8
YODOROGO
 10
27977.604341291921
 20
1556.76807903343
 30
0.0
 11
27977.604341291921
 21
1532.7680790334291
 31
0.0
  0
LINE
  5
426C
  8
YODOROGO
 10
28025.828774291349
 20
1667.749496429285
 30
0.0
 11
27977.604341291921
 21
1556.76807903343
 31
0.0
  0
LINE
  5
426D
  8
YODOROGO
 10
27977.604341291921
 20
1667.749496429285
 30
0.0
 11
28025.828774291349
 21
1667.749496429285
 31
0.0
  0
LINE
  5
426E
  8
YODOROGO
 10
28050.135520230899
 20
1655.5036372746561
 30
0.0
 11
28082.135520230921
 21
1655.5036372746561
 31
0.0
1001
AUTOCAD_POSTSCRIPT_FIGURE
1002
{
1000
PSFILL
1000
Grayscale
1000
Grayscale
1070
   100
1002
}
  0
LINE
  5
426F
  8
YODOROGO
 10
28050.135520230899
 20
1631.5036372746561
 30
0.0
 11
28050.135520230899
 21
1655.5036372746561
 31
0.0
1001
AUTOCAD_POSTSCRIPT_FIGURE
1002
{
1000
PSFILL
1000
Grayscale
1000
Grayscale
1070
   100
1002
}
  0
LINE
  5
4270
  8
YODOROGO
 10
28082.135520230921
 20
1631.5036372746561
 30
0.0
 11
28050.135520230899
 21
1631.5036372746561
 31
0.0
1001
AUTOCAD_POSTSCRIPT_FIGURE
1002
{
1000
PSFILL
1000
Grayscale
1000
Grayscale
1070
   100
1002
}
  0
LINE
  5
4271
  8
YODOROGO
 10
28082.135520230921
 20
1499.749496429288
 30
0.0
 11
28082.135520230921
 21
1631.5036372746561
 31
0.0
1001
AUTOCAD_POSTSCRIPT_FIGURE
1002
{
1000
PSFILL
1000
Grayscale
1000
Grayscale
1070
   100
1002
}
  0
LINE
  5
4272
  8
YODOROGO
 10
28050.135520230921
 20
1499.749496429288
 30
0.0
 11
28082.135520230921
 21
1499.749496429288
 31
0.0
1001
AUTOCAD_POSTSCRIPT_FIGURE
1002
{
1000
PSFILL
1000
Grayscale
1000
Grayscale
1070
   100
1002
}
  0
LINE
  5
4273
  8
YODOROGO
 10
28050.135520230921
 20
1475.7494964292871
 30
0.0
 11
28050.135520230921
 21
1499.749496429288
 31
0.0
1001
AUTOCAD_POSTSCRIPT_FIGURE
1002
{
1000
PSFILL
1000
Grayscale
1000
Grayscale
1070
   100
1002
}
  0
LINE
  5
4274
  8
YODOROGO
 10
28137.604341291921
 20
1475.7494964292871
 30
0.0
 11
28050.135520230921
 21
1475.7494964292871
 31
0.0
1001
AUTOCAD_POSTSCRIPT_FIGURE
1002
{
1000
PSFILL
1000
Grayscale
1000
Grayscale
1070
   100
1002
}
  0
LINE
  5
4275
  8
YODOROGO
 10
28137.604341291921
 20
1499.749496429288
 30
0.0
 11
28137.604341291921
 21
1475.7494964292871
 31
0.0
1001
AUTOCAD_POSTSCRIPT_FIGURE
1002
{
1000
PSFILL
1000
Grayscale
1000
Grayscale
1070
   100
1002
}
  0
LINE
  5
4276
  8
YODOROGO
 10
28098.135520230931
 20
1499.749496429288
 30
0.0
 11
28137.604341291921
 21
1499.749496429288
 31
0.0
1001
AUTOCAD_POSTSCRIPT_FIGURE
1002
{
1000
PSFILL
1000
Grayscale
1000
Grayscale
1070
   100
1002
}
  0
LINE
  5
4277
  8
YODOROGO
 10
28098.135520230931
 20
1631.5036372746561
 30
0.0
 11
28098.135520230931
 21
1499.749496429288
 31
0.0
1001
AUTOCAD_POSTSCRIPT_FIGURE
1002
{
1000
PSFILL
1000
Grayscale
1000
Grayscale
1070
   100
1002
}
  0
LINE
  5
4278
  8
YODOROGO
 10
28137.604341291921
 20
1631.5036372746561
 30
0.0
 11
28098.135520230931
 21
1631.5036372746561
 31
0.0
1001
AUTOCAD_POSTSCRIPT_FIGURE
1002
{
1000
PSFILL
1000
Grayscale
1000
Grayscale
1070
   100
1002
}
  0
LINE
  5
4279
  8
YODOROGO
 10
28137.604341291921
 20
1655.5036372746561
 30
0.0
 11
28137.604341291921
 21
1631.5036372746561
 31
0.0
1001
AUTOCAD_POSTSCRIPT_FIGURE
1002
{
1000
PSFILL
1000
Grayscale
1000
Grayscale
1070
   100
1002
}
  0
LINE
  5
427A
  8
YODOROGO
 10
28098.135520230931
 20
1655.5036372746561
 30
0.0
 11
28137.604341291921
 21
1655.5036372746561
 31
0.0
1001
AUTOCAD_POSTSCRIPT_FIGURE
1002
{
1000
PSFILL
1000
Grayscale
1000
Grayscale
1070
   100
1002
}
  0
LINE
  5
427B
  8
YODOROGO
 10
28401.60434129191
 20
1667.749496429288
 30
0.0
 11
28345.604341291921
 21
1667.749496429288
 31
0.0
  0
LINE
  5
427C
  8
YODOROGO
 10
28401.60434129191
 20
1611.749496429288
 30
0.0
 11
28401.60434129191
 21
1667.749496429288
 31
0.0
  0
LINE
  5
427D
  8
YODOROGO
 10
28345.604341291921
 20
1667.749496429288
 30
0.0
 11
28345.604341291921
 21
1611.749496429288
 31
0.0
  0
ARC
  5
427E
  8
YODOROGO
 10
28513.60434129191
 20
1507.749496429288
 30
0.0
 40
80.0
 50
180.0
 51
270.0
  0
ARC
  5
427F
  8
YODOROGO
 10
28537.604341291921
 20
1563.7494964292871
 30
0.0
 40
40.0
 50
180.0
 51
270.0
  0
LINE
  5
4280
  8
YODOROGO
 10
28561.604341291932
 20
1523.7494964292871
 30
0.0
 11
28537.604341291921
 21
1523.7494964292871
 31
0.0
  0
ARC
  5
4281
  8
YODOROGO
 10
28561.604341291932
 20
1547.749496429285
 30
0.0
 40
23.999999999996358
 50
270.0
 51
0.0000000000054281
  0
LINE
  5
4282
  8
YODOROGO
 10
27801.604341291921
 20
1890.786580793706
 30
0.0
 11
27777.604341291921
 21
1843.776747951672
 31
0.0
1001
AUTOCAD_POSTSCRIPT_FIGURE
1002
{
1000
PSFILL
1000
Grayscale
1000
Grayscale
1070
   100
1002
}
  0
LINE
  5
4283
  8
YODOROGO
 10
27801.604341291921
 20
1747.749496429286
 30
0.0
 11
27801.604341291921
 21
1890.786580793706
 31
0.0
1001
AUTOCAD_POSTSCRIPT_FIGURE
1002
{
1000
PSFILL
1000
Grayscale
1000
Grayscale
1070
   100
1002
}
  0
LINE
  5
4284
  8
YODOROGO
 10
27817.604341291921
 20
1747.749496429286
 30
0.0
 11
27801.604341291921
 21
1747.749496429286
 31
0.0
1001
AUTOCAD_POSTSCRIPT_FIGURE
1002
{
1000
PSFILL
1000
Grayscale
1000
Grayscale
1070
   100
1002
}
  0
LINE
  5
4285
  8
YODOROGO
 10
27817.604341291921
 20
1893.7713320852661
 30
0.0
 11
27817.604341291921
 21
1747.749496429286
 31
0.0
1001
AUTOCAD_POSTSCRIPT_FIGURE
1002
{
1000
PSFILL
1000
Grayscale
1000
Grayscale
1070
   100
1002
}
  0
LINE
  5
4286
  8
YODOROGO
 10
27841.604341291921
 20
1867.6547582841361
 30
0.0
 11
27817.604341291921
 21
1893.7713320852661
 31
0.0
1001
AUTOCAD_POSTSCRIPT_FIGURE
1002
{
1000
PSFILL
1000
Grayscale
1000
Grayscale
1070
   100
1002
}
  0
LINE
  5
4287
  8
YODOROGO
 10
27841.604341291921
 20
1883.6547582841361
 30
0.0
 11
27841.604341291921
 21
1867.6547582841361
 31
0.0
1001
AUTOCAD_POSTSCRIPT_FIGURE
1002
{
1000
PSFILL
1000
Grayscale
1000
Grayscale
1070
   100
1002
}
  0
LINE
  5
4288
  8
YODOROGO
 10
27817.604341291921
 20
1917.7713320852649
 30
0.0
 11
27841.604341291921
 21
1883.6547582841361
 31
0.0
1001
AUTOCAD_POSTSCRIPT_FIGURE
1002
{
1000
PSFILL
1000
Grayscale
1000
Grayscale
1070
   100
1002
}
  0
LINE
  5
4289
  8
YODOROGO
 10
27817.604341291921
 20
1939.749496429288
 30
0.0
 11
27817.604341291921
 21
1917.7713320852649
 31
0.0
1001
AUTOCAD_POSTSCRIPT_FIGURE
1002
{
1000
PSFILL
1000
Grayscale
1000
Grayscale
1070
   100
1002
}
  0
LINE
  5
428A
  8
YODOROGO
 10
27889.604341291921
 20
1939.749496429288
 30
0.0
 11
27817.604341291921
 21
1939.749496429288
 31
0.0
1001
AUTOCAD_POSTSCRIPT_FIGURE
1002
{
1000
PSFILL
1000
Grayscale
1000
Grayscale
1070
   100
1002
}
  0
LINE
  5
428B
  8
YODOROGO
 10
27889.604341291921
 20
1900.5683489363
 30
0.0
 11
27889.604341291921
 21
1939.749496429288
 31
0.0
1001
AUTOCAD_POSTSCRIPT_FIGURE
1002
{
1000
PSFILL
1000
Grayscale
1000
Grayscale
1070
   100
1002
}
  0
LINE
  5
428C
  8
YODOROGO
 10
27857.604341291921
 20
1900.5683489363
 30
0.0
 11
27889.604341291921
 21
1900.5683489363
 31
0.0
1001
AUTOCAD_POSTSCRIPT_FIGURE
1002
{
1000
PSFILL
1000
Grayscale
1000
Grayscale
1070
   100
1002
}
  0
LINE
  5
428D
  8
YODOROGO
 10
27857.604341291921
 20
1884.568348936298
 30
0.0
 11
27857.604341291921
 21
1900.5683489363
 31
0.0
1001
AUTOCAD_POSTSCRIPT_FIGURE
1002
{
1000
PSFILL
1000
Grayscale
1000
Grayscale
1070
   100
1002
}
  0
LINE
  5
428E
  8
YODOROGO
 10
27889.604341291921
 20
1884.568348936298
 30
0.0
 11
27857.604341291921
 21
1884.568348936298
 31
0.0
1001
AUTOCAD_POSTSCRIPT_FIGURE
1002
{
1000
PSFILL
1000
Grayscale
1000
Grayscale
1070
   100
1002
}
  0
LINE
  5
428F
  8
YODOROGO
 10
27889.604341291921
 20
1879.6191779644371
 30
0.0
 11
27889.604341291921
 21
1884.568348936298
 31
0.0
1001
AUTOCAD_POSTSCRIPT_FIGURE
1002
{
1000
PSFILL
1000
Grayscale
1000
Grayscale
1070
   100
1002
}
  0
LINE
  5
4290
  8
YODOROGO
 10
27849.604341291921
 20
1812.974981161417
 30
0.0
 11
27889.604341291921
 21
1879.6191779644371
 31
0.0
1001
AUTOCAD_POSTSCRIPT_FIGURE
1002
{
1000
PSFILL
1000
Grayscale
1000
Grayscale
1070
   100
1002
}
  0
LINE
  5
4291
  8
YODOROGO
 10
27849.604341291921
 20
1796.9749811614161
 30
0.0
 11
27849.604341291921
 21
1812.974981161417
 31
0.0
1001
AUTOCAD_POSTSCRIPT_FIGURE
1002
{
1000
PSFILL
1000
Grayscale
1000
Grayscale
1070
   100
1002
}
  0
LINE
  5
4292
  8
YODOROGO
 10
27889.604341291921
 20
1847.6191779644359
 30
0.0
 11
27849.604341291921
 21
1796.9749811614161
 31
0.0
1001
AUTOCAD_POSTSCRIPT_FIGURE
1002
{
1000
PSFILL
1000
Grayscale
1000
Grayscale
1070
   100
1002
}
  0
LINE
  5
4293
  8
YODOROGO
 10
27889.604341291921
 20
1747.749496429286
 30
0.0
 11
27889.604341291921
 21
1847.6191779644359
 31
0.0
1001
AUTOCAD_POSTSCRIPT_FIGURE
1002
{
1000
PSFILL
1000
Grayscale
1000
Grayscale
1070
   100
1002
}
  0
LINE
  5
4294
  8
YODOROGO
 10
27905.604341291921
 20
1747.749496429286
 30
0.0
 11
27889.604341291921
 21
1747.749496429286
 31
0.0
1001
AUTOCAD_POSTSCRIPT_FIGURE
1002
{
1000
PSFILL
1000
Grayscale
1000
Grayscale
1070
   100
1002
}
  0
LINE
  5
4295
  8
YODOROGO
 10
27905.604341291921
 20
1849.409012158806
 30
0.0
 11
27905.604341291921
 21
1747.749496429286
 31
0.0
1001
AUTOCAD_POSTSCRIPT_FIGURE
1002
{
1000
PSFILL
1000
Grayscale
1000
Grayscale
1070
   100
1002
}
  0
LINE
  5
4296
  8
YODOROGO
 10
27937.604341291921
 20
1796.9749811614161
 30
0.0
 11
27905.604341291921
 21
1849.409012158806
 31
0.0
1001
AUTOCAD_POSTSCRIPT_FIGURE
1002
{
1000
PSFILL
1000
Grayscale
1000
Grayscale
1070
   100
1002
}
  0
LINE
  5
4297
  8
YODOROGO
 10
27937.604341291921
 20
1812.974981161417
 30
0.0
 11
27937.604341291921
 21
1796.9749811614161
 31
0.0
1001
AUTOCAD_POSTSCRIPT_FIGURE
1002
{
1000
PSFILL
1000
Grayscale
1000
Grayscale
1070
   100
1002
}
  0
LINE
  5
4298
  8
YODOROGO
 10
27905.604341291921
 20
1881.4090121588081
 30
0.0
 11
27937.604341291921
 21
1812.974981161417
 31
0.0
1001
AUTOCAD_POSTSCRIPT_FIGURE
1002
{
1000
PSFILL
1000
Grayscale
1000
Grayscale
1070
   100
1002
}
  0
LINE
  5
4299
  8
YODOROGO
 10
27905.604341291921
 20
1884.5683489363
 30
0.0
 11
27905.604341291921
 21
1881.4090121588081
 31
0.0
1001
AUTOCAD_POSTSCRIPT_FIGURE
1002
{
1000
PSFILL
1000
Grayscale
1000
Grayscale
1070
   100
1002
}
  0
LINE
  5
429A
  8
YODOROGO
 10
27937.604341291921
 20
1884.568348936298
 30
0.0
 11
27905.604341291921
 21
1884.5683489363
 31
0.0
1001
AUTOCAD_POSTSCRIPT_FIGURE
1002
{
1000
PSFILL
1000
Grayscale
1000
Grayscale
1070
   100
1002
}
  0
LINE
  5
429B
  8
YODOROGO
 10
27937.604341291921
 20
1900.5683489363
 30
0.0
 11
27937.604341291921
 21
1884.568348936298
 31
0.0
1001
AUTOCAD_POSTSCRIPT_FIGURE
1002
{
1000
PSFILL
1000
Grayscale
1000
Grayscale
1070
   100
1002
}
  0
LINE
  5
429C
  8
YODOROGO
 10
27905.604341291921
 20
1900.5683489363
 30
0.0
 11
27937.604341291921
 21
1900.5683489363
 31
0.0
1001
AUTOCAD_POSTSCRIPT_FIGURE
1002
{
1000
PSFILL
1000
Grayscale
1000
Grayscale
1070
   100
1002
}
  0
LINE
  5
429D
  8
YODOROGO
 10
27905.604341291921
 20
1939.749496429288
 30
0.0
 11
27905.604341291921
 21
1900.5683489363
 31
0.0
1001
AUTOCAD_POSTSCRIPT_FIGURE
1002
{
1000
PSFILL
1000
Grayscale
1000
Grayscale
1070
   100
1002
}
  0
LINE
  5
429E
  8
YODOROGO
 10
27937.604341291921
 20
1939.749496429288
 30
0.0
 11
27905.604341291921
 21
1939.749496429288
 31
0.0
1001
AUTOCAD_POSTSCRIPT_FIGURE
1002
{
1000
PSFILL
1000
Grayscale
1000
Grayscale
1070
   100
1002
}
  0
LINE
  5
429F
  8
YODOROGO
 10
27937.604341291921
 20
1955.7494964292871
 30
0.0
 11
27937.604341291921
 21
1939.749496429288
 31
0.0
1001
AUTOCAD_POSTSCRIPT_FIGURE
1002
{
1000
PSFILL
1000
Grayscale
1000
Grayscale
1070
   100
1002
}
  0
LINE
  5
42A0
  8
YODOROGO
 10
27905.604341291921
 20
1955.7494964292871
 30
0.0
 11
27937.604341291921
 21
1955.7494964292871
 31
0.0
1001
AUTOCAD_POSTSCRIPT_FIGURE
1002
{
1000
PSFILL
1000
Grayscale
1000
Grayscale
1070
   100
1002
}
  0
LINE
  5
42A1
  8
YODOROGO
 10
27905.604341291921
 20
1979.749496429288
 30
0.0
 11
27905.604341291921
 21
1955.7494964292871
 31
0.0
1001
AUTOCAD_POSTSCRIPT_FIGURE
1002
{
1000
PSFILL
1000
Grayscale
1000
Grayscale
1070
   100
1002
}
  0
LINE
  5
42A2
  8
YODOROGO
 10
27889.604341291921
 20
1979.749496429288
 30
0.0
 11
27905.604341291921
 21
1979.749496429288
 31
0.0
1001
AUTOCAD_POSTSCRIPT_FIGURE
1002
{
1000
PSFILL
1000
Grayscale
1000
Grayscale
1070
   100
1002
}
  0
LINE
  5
42A3
  8
YODOROGO
 10
27889.604341291921
 20
1955.7494964292871
 30
0.0
 11
27889.604341291921
 21
1979.749496429288
 31
0.0
1001
AUTOCAD_POSTSCRIPT_FIGURE
1002
{
1000
PSFILL
1000
Grayscale
1000
Grayscale
1070
   100
1002
}
  0
LINE
  5
42A4
  8
YODOROGO
 10
27865.604341291921
 20
1955.7494964292871
 30
0.0
 11
27889.604341291921
 21
1955.7494964292871
 31
0.0
1001
AUTOCAD_POSTSCRIPT_FIGURE
1002
{
1000
PSFILL
1000
Grayscale
1000
Grayscale
1070
   100
1002
}
  0
LINE
  5
42A5
  8
YODOROGO
 10
27865.604341291921
 20
1979.749496429288
 30
0.0
 11
27865.604341291921
 21
1955.7494964292871
 31
0.0
1001
AUTOCAD_POSTSCRIPT_FIGURE
1002
{
1000
PSFILL
1000
Grayscale
1000
Grayscale
1070
   100
1002
}
  0
LINE
  5
42A6
  8
YODOROGO
 10
27849.604341291921
 20
1979.749496429288
 30
0.0
 11
27865.604341291921
 21
1979.749496429288
 31
0.0
1001
AUTOCAD_POSTSCRIPT_FIGURE
1002
{
1000
PSFILL
1000
Grayscale
1000
Grayscale
1070
   100
1002
}
  0
LINE
  5
42A7
  8
YODOROGO
 10
27849.604341291921
 20
1955.7494964292871
 30
0.0
 11
27849.604341291921
 21
1979.749496429288
 31
0.0
1001
AUTOCAD_POSTSCRIPT_FIGURE
1002
{
1000
PSFILL
1000
Grayscale
1000
Grayscale
1070
   100
1002
}
  0
LINE
  5
42A8
  8
YODOROGO
 10
27817.604341291921
 20
1955.7494964292871
 30
0.0
 11
27849.604341291921
 21
1955.7494964292871
 31
0.0
1001
AUTOCAD_POSTSCRIPT_FIGURE
1002
{
1000
PSFILL
1000
Grayscale
1000
Grayscale
1070
   100
1002
}
  0
LINE
  5
42A9
  8
YODOROGO
 10
27817.604341291921
 20
1979.749496429288
 30
0.0
 11
27817.604341291921
 21
1955.7494964292871
 31
0.0
1001
AUTOCAD_POSTSCRIPT_FIGURE
1002
{
1000
PSFILL
1000
Grayscale
1000
Grayscale
1070
   100
1002
}
  0
LINE
  5
42AA
  8
YODOROGO
 10
27801.604341291921
 20
1979.749496429288
 30
0.0
 11
27817.604341291921
 21
1979.749496429288
 31
0.0
1001
AUTOCAD_POSTSCRIPT_FIGURE
1002
{
1000
PSFILL
1000
Grayscale
1000
Grayscale
1070
   100
1002
}
  0
LINE
  5
42AB
  8
YODOROGO
 10
27801.604341291921
 20
1955.7494964292871
 30
0.0
 11
27801.604341291921
 21
1979.749496429288
 31
0.0
1001
AUTOCAD_POSTSCRIPT_FIGURE
1002
{
1000
PSFILL
1000
Grayscale
1000
Grayscale
1070
   100
1002
}
  0
LINE
  5
42AC
  8
YODOROGO
 10
27777.604341291921
 20
1955.7494964292871
 30
0.0
 11
27801.604341291921
 21
1955.7494964292871
 31
0.0
1001
AUTOCAD_POSTSCRIPT_FIGURE
1002
{
1000
PSFILL
1000
Grayscale
1000
Grayscale
1070
   100
1002
}
  0
LINE
  5
42AD
  8
YODOROGO
 10
27777.604341291921
 20
1939.749496429288
 30
0.0
 11
27777.604341291921
 21
1955.7494964292871
 31
0.0
1001
AUTOCAD_POSTSCRIPT_FIGURE
1002
{
1000
PSFILL
1000
Grayscale
1000
Grayscale
1070
   100
1002
}
  0
LINE
  5
42AE
  8
YODOROGO
 10
27801.604341291921
 20
1939.749496429288
 30
0.0
 11
27777.604341291921
 21
1939.749496429288
 31
0.0
1001
AUTOCAD_POSTSCRIPT_FIGURE
1002
{
1000
PSFILL
1000
Grayscale
1000
Grayscale
1070
   100
1002
}
  0
LINE
  5
42AF
  8
YODOROGO
 10
27801.604341291921
 20
1914.7865807937051
 30
0.0
 11
27801.604341291921
 21
1939.749496429288
 31
0.0
1001
AUTOCAD_POSTSCRIPT_FIGURE
1002
{
1000
PSFILL
1000
Grayscale
1000
Grayscale
1070
   100
1002
}
  0
LINE
  5
42B0
  8
YODOROGO
 10
27777.604341291921
 20
1859.776747951671
 30
0.0
 11
27801.604341291921
 21
1914.7865807937051
 31
0.0
1001
AUTOCAD_POSTSCRIPT_FIGURE
1002
{
1000
PSFILL
1000
Grayscale
1000
Grayscale
1070
   100
1002
}
  0
LINE
  5
42B1
  8
YODOROGO
 10
27777.604341291921
 20
1843.776747951672
 30
0.0
 11
27777.604341291921
 21
1859.776747951671
 31
0.0
1001
AUTOCAD_POSTSCRIPT_FIGURE
1002
{
1000
PSFILL
1000
Grayscale
1000
Grayscale
1070
   100
1002
}
  0
LINE
  5
42B2
  8
YODOROGO
 10
28257.604341291921
 20
1867.7494964292871
 30
0.0
 11
28401.60434129191
 21
1824.877625640306
 31
0.0
1001
AUTOCAD_POSTSCRIPT_FIGURE
1002
{
1000
PSFILL
1000
Grayscale
1000
Grayscale
1070
   100
1002
}
  0
LINE
  5
42B3
  8
YODOROGO
 10
28401.60434129191
 20
1752.877625640306
 30
0.0
 11
28257.604341291921
 21
1795.7494964292871
 31
0.0
1001
AUTOCAD_POSTSCRIPT_FIGURE
1002
{
1000
PSFILL
1000
Grayscale
1000
Grayscale
1070
   100
1002
}
  0
LINE
  5
42B4
  8
YODOROGO
 10
28401.60434129191
 20
1984.877625640306
 30
0.0
 11
28257.604341291921
 21
2027.749496429288
 31
0.0
1001
AUTOCAD_POSTSCRIPT_FIGURE
1002
{
1000
PSFILL
1000
Grayscale
1000
Grayscale
1070
   100
1002
}
  0
LINE
  5
42B5
  8
YODOROGO
 10
28257.604341291921
 20
1959.749496429288
 30
0.0
 11
28401.60434129191
 21
1916.8776256403071
 31
0.0
1001
AUTOCAD_POSTSCRIPT_FIGURE
1002
{
1000
PSFILL
1000
Grayscale
1000
Grayscale
1070
   100
1002
}
  0
LINE
  5
42B6
  8
YODOROGO
 10
28257.604341291921
 20
1795.7494964292871
 30
0.0
 11
28257.604341291921
 21
1867.7494964292871
 31
0.0
1001
AUTOCAD_POSTSCRIPT_FIGURE
1002
{
1000
PSFILL
1000
Grayscale
1000
Grayscale
1070
   100
1002
}
  0
LINE
  5
42B7
  8
YODOROGO
 10
28257.604341291921
 20
2027.749496429288
 30
0.0
 11
28257.604341291921
 21
1959.749496429288
 31
0.0
1001
AUTOCAD_POSTSCRIPT_FIGURE
1002
{
1000
PSFILL
1000
Grayscale
1000
Grayscale
1070
   100
1002
}
  0
LINE
  5
42B8
  8
YODOROGO
 10
28080.236320206739
 20
1939.749496429288
 30
0.0
 11
28129.60434129191
 21
1747.749496429286
 31
0.0
1001
AUTOCAD_POSTSCRIPT_FIGURE
1002
{
1000
PSFILL
1000
Grayscale
1000
Grayscale
1070
   100
1002
}
  0
LINE
  5
42B9
  8
YODOROGO
 10
27977.604341291921
 20
1939.749496429288
 30
0.0
 11
28080.236320206739
 21
1939.749496429288
 31
0.0
1001
AUTOCAD_POSTSCRIPT_FIGURE
1002
{
1000
PSFILL
1000
Grayscale
1000
Grayscale
1070
   100
1002
}
  0
LINE
  5
42BA
  8
YODOROGO
 10
27977.604341291921
 20
1955.7494964292871
 30
0.0
 11
27977.604341291921
 21
1939.749496429288
 31
0.0
1001
AUTOCAD_POSTSCRIPT_FIGURE
1002
{
1000
PSFILL
1000
Grayscale
1000
Grayscale
1070
   100
1002
}
  0
LINE
  5
42BB
  8
YODOROGO
 10
28076.60687851991
 20
1955.7494964292871
 30
0.0
 11
27977.604341291921
 21
1955.7494964292871
 31
0.0
1001
AUTOCAD_POSTSCRIPT_FIGURE
1002
{
1000
PSFILL
1000
Grayscale
1000
Grayscale
1070
   100
1002
}
  0
LINE
  5
42BC
  8
YODOROGO
 10
28071.162715989711
 20
1979.749496429288
 30
0.0
 11
28076.60687851991
 21
1955.7494964292871
 31
0.0
1001
AUTOCAD_POSTSCRIPT_FIGURE
1002
{
1000
PSFILL
1000
Grayscale
1000
Grayscale
1070
   100
1002
}
  0
LINE
  5
42BD
  8
YODOROGO
 10
28091.162715989711
 20
1979.749496429288
 30
0.0
 11
28071.162715989711
 21
1979.749496429288
 31
0.0
1001
AUTOCAD_POSTSCRIPT_FIGURE
1002
{
1000
PSFILL
1000
Grayscale
1000
Grayscale
1070
   100
1002
}
  0
LINE
  5
42BE
  8
YODOROGO
 10
28095.806878519939
 20
1955.7494964292871
 30
0.0
 11
28091.162715989711
 21
1979.749496429288
 31
0.0
1001
AUTOCAD_POSTSCRIPT_FIGURE
1002
{
1000
PSFILL
1000
Grayscale
1000
Grayscale
1070
   100
1002
}
  0
LINE
  5
42BF
  8
YODOROGO
 10
28121.604341291921
 20
1955.7494964292871
 30
0.0
 11
28095.806878519939
 21
1955.7494964292871
 31
0.0
1001
AUTOCAD_POSTSCRIPT_FIGURE
1002
{
1000
PSFILL
1000
Grayscale
1000
Grayscale
1070
   100
1002
}
  0
LINE
  5
42C0
  8
YODOROGO
 10
28121.604341291921
 20
1979.749496429288
 30
0.0
 11
28121.604341291921
 21
1955.7494964292871
 31
0.0
1001
AUTOCAD_POSTSCRIPT_FIGURE
1002
{
1000
PSFILL
1000
Grayscale
1000
Grayscale
1070
   100
1002
}
  0
LINE
  5
42C1
  8
YODOROGO
 10
28137.604341291921
 20
1979.749496429288
 30
0.0
 11
28121.604341291921
 21
1979.749496429288
 31
0.0
1001
AUTOCAD_POSTSCRIPT_FIGURE
1002
{
1000
PSFILL
1000
Grayscale
1000
Grayscale
1070
   100
1002
}
  0
LINE
  5
42C2
  8
YODOROGO
 10
28137.604341291921
 20
1955.7494964292871
 30
0.0
 11
28137.604341291921
 21
1979.749496429288
 31
0.0
1001
AUTOCAD_POSTSCRIPT_FIGURE
1002
{
1000
PSFILL
1000
Grayscale
1000
Grayscale
1070
   100
1002
}
  0
LINE
  5
42C3
  8
YODOROGO
 10
28137.604341291921
 20
1939.749496429288
 30
0.0
 11
28137.604341291921
 21
1955.7494964292871
 31
0.0
1001
AUTOCAD_POSTSCRIPT_FIGURE
1002
{
1000
PSFILL
1000
Grayscale
1000
Grayscale
1070
   100
1002
}
  0
LINE
  5
42C4
  8
YODOROGO
 10
28098.902986873411
 20
1939.749496429288
 30
0.0
 11
28137.604341291921
 21
1939.749496429288
 31
0.0
1001
AUTOCAD_POSTSCRIPT_FIGURE
1002
{
1000
PSFILL
1000
Grayscale
1000
Grayscale
1070
   100
1002
}
  0
LINE
  5
42C5
  8
YODOROGO
 10
28137.604341291921
 20
1747.749496429286
 30
0.0
 11
28098.902986873411
 21
1939.749496429288
 31
0.0
1001
AUTOCAD_POSTSCRIPT_FIGURE
1002
{
1000
PSFILL
1000
Grayscale
1000
Grayscale
1070
   100
1002
}
  0
LINE
  5
42C6
  8
YODOROGO
 10
28129.60434129191
 20
1747.749496429286
 30
0.0
 11
28137.604341291921
 21
1747.749496429286
 31
0.0
1001
AUTOCAD_POSTSCRIPT_FIGURE
1002
{
1000
PSFILL
1000
Grayscale
1000
Grayscale
1070
   100
1002
}
  0
LINE
  5
42C7
  8
YODOROGO
 10
28078.06921993379
 20
1775.7407762987939
 30
0.0
 11
27977.604341291921
 21
1747.749496429286
 31
0.0
  0
LINE
  5
42C8
  8
YODOROGO
 10
28078.06921993379
 20
1798.6689795290731
 30
0.0
 11
28078.06921993379
 21
1775.7407762987939
 31
0.0
  0
LINE
  5
42C9
  8
YODOROGO
 10
28033.83678061287
 20
1786.816933133767
 30
0.0
 11
28078.06921993379
 21
1798.6689795290731
 31
0.0
  0
LINE
  5
42CA
  8
YODOROGO
 10
28033.83678061287
 20
1872.5683489362989
 30
0.0
 11
28033.83678061287
 21
1786.816933133767
 31
0.0
  0
LINE
  5
42CB
  8
YODOROGO
 10
28078.06921993379
 20
1872.5683489362989
 30
0.0
 11
28033.83678061287
 21
1872.5683489362989
 31
0.0
  0
LINE
  5
42CC
  8
YODOROGO
 10
28078.06921993379
 20
1892.568348936298
 30
0.0
 11
28078.06921993379
 21
1872.5683489362989
 31
0.0
  0
LINE
  5
42CD
  8
YODOROGO
 10
27977.604341291921
 20
1892.568348936298
 30
0.0
 11
28078.06921993379
 21
1892.568348936298
 31
0.0
  0
LINE
  5
42CE
  8
YODOROGO
 10
27977.604341291921
 20
1872.5683489362989
 30
0.0
 11
27977.604341291921
 21
1892.568348936298
 31
0.0
  0
LINE
  5
42CF
  8
YODOROGO
 10
28021.836780612852
 20
1872.5683489362989
 30
0.0
 11
27977.604341291921
 21
1872.5683489362989
 31
0.0
  0
LINE
  5
42D0
  8
YODOROGO
 10
28021.836780612852
 20
1784.673339594317
 30
0.0
 11
28021.836780612852
 21
1872.5683489362989
 31
0.0
  0
LINE
  5
42D1
  8
YODOROGO
 10
27977.604341291921
 20
1771.749496429286
 30
0.0
 11
28021.836780612852
 21
1784.673339594317
 31
0.0
  0
LINE
  5
42D2
  8
YODOROGO
 10
27977.604341291921
 20
1747.749496429286
 30
0.0
 11
27977.604341291921
 21
1771.749496429286
 31
0.0
  0
LINE
  5
42D3
  8
YODOROGO
 10
28001.604341291921
 20
1707.749496429288
 30
0.0
 11
28001.604341291921
 21
1683.7494964292871
 31
0.0
  0
LINE
  5
42D4
  8
YODOROGO
 10
28017.604341291921
 20
1707.749496429288
 30
0.0
 11
28001.604341291921
 21
1707.749496429288
 31
0.0
  0
LINE
  5
42D5
  8
YODOROGO
 10
28017.604341291921
 20
1683.7494964292871
 30
0.0
 11
28017.604341291921
 21
1707.749496429288
 31
0.0
  0
LINE
  5
42D6
  8
YODOROGO
 10
28040.913204016892
 20
1683.7494964292871
 30
0.0
 11
28017.604341291921
 21
1683.7494964292871
 31
0.0
  0
LINE
  5
42D7
  8
YODOROGO
 10
28001.604341291921
 20
1683.7494964292871
 30
0.0
 11
27977.604341291921
 21
1683.7494964292871
 31
0.0
  0
LINE
  5
42D8
  8
YODOROGO
 10
28082.135520230921
 20
1707.749496429288
 30
0.0
 11
28098.135520230931
 21
1707.749496429288
 31
0.0
1001
AUTOCAD_POSTSCRIPT_FIGURE
1002
{
1000
PSFILL
1000
Grayscale
1000
Grayscale
1070
   100
1002
}
  0
LINE
  5
42D9
  8
YODOROGO
 10
28401.60434129191
 20
1824.877625640306
 30
0.0
 11
28401.60434129191
 21
1752.877625640306
 31
0.0
1001
AUTOCAD_POSTSCRIPT_FIGURE
1002
{
1000
PSFILL
1000
Grayscale
1000
Grayscale
1070
   100
1002
}
  0
LINE
  5
42DA
  8
YODOROGO
 10
28401.60434129191
 20
1916.8776256403071
 30
0.0
 11
28401.60434129191
 21
1984.877625640306
 31
0.0
1001
AUTOCAD_POSTSCRIPT_FIGURE
1002
{
1000
PSFILL
1000
Grayscale
1000
Grayscale
1070
   100
1002
}
  0
LINE
  5
42DB
  8
YODOROGO
 10
28433.60434129191
 20
1819.7494964292871
 30
0.0
 11
28433.60434129191
 21
1747.74949642929
 31
0.0
  0
LINE
  5
42DC
  8
YODOROGO
 10
28497.60434129191
 20
1707.749496429288
 30
0.0
 11
28433.60434129191
 21
1707.749496429288
 31
0.0
  0
LINE
  5
42DD
  8
YODOROGO
 10
28433.60434129191
 20
1747.74949642929
 30
0.0
 11
28585.604341291921
 21
1747.74949642929
 31
0.0
  0
LINE
  5
42DE
  8
YODOROGO
 10
28497.60434129191
 20
1867.7494964292871
 30
0.0
 11
28433.60434129191
 21
1867.7494964292871
 31
0.0
  0
LINE
  5
42DF
  8
YODOROGO
 10
28497.60434129191
 20
1923.7494964292871
 30
0.0
 11
28497.60434129191
 21
1867.7494964292871
 31
0.0
  0
LINE
  5
42E0
  8
YODOROGO
 10
28585.604341291921
 20
1987.7494964292871
 30
0.0
 11
28585.604341291921
 21
2027.749496429288
 31
0.0
  0
LINE
  5
42E1
  8
YODOROGO
 10
28433.60434129191
 20
1987.7494964292871
 30
0.0
 11
28585.604341291921
 21
1987.7494964292871
 31
0.0
  0
LINE
  5
42E2
  8
YODOROGO
 10
28433.60434129191
 20
1867.7494964292871
 30
0.0
 11
28433.60434129191
 21
1987.7494964292871
 31
0.0
  0
LINE
  5
42E3
  8
YODOROGO
 10
29001.60434129191
 20
2027.749496429288
 30
0.0
 11
29001.60434129191
 21
1619.749496429288
 31
0.0
  0
LINE
  5
42E4
  8
YODOROGO
 10
29073.604341291921
 20
1579.749496429288
 30
0.0
 11
29073.604341291921
 21
2027.749496429288
 31
0.0
  0
LINE
  5
42E5
  8
YODOROGO
 10
29261.604341291921
 20
1491.749496429286
 30
0.0
 11
29261.604341291921
 21
2007.749496429288
 31
0.0
  0
LINE
  5
42E6
  8
YODOROGO
 10
29197.604341291921
 20
2007.749496429288
 30
0.0
 11
29197.604341291921
 21
1491.749496429286
 31
0.0
  0
LINE
  5
42E7
  8
YODOROGO
 10
29385.604341291921
 20
2027.749496429288
 30
0.0
 11
29385.604341291921
 21
1427.749496429288
 31
0.0
  0
LINE
  5
42E8
  8
YODOROGO
 10
29457.604341291921
 20
1427.749496429288
 30
0.0
 11
29457.604341291921
 21
2027.749496429288
 31
0.0
  0
LINE
  5
42E9
  8
YODOROGO
 10
28657.604341291921
 20
1667.749496429288
 30
0.0
 11
28657.604341291921
 21
1747.74949642929
 31
0.0
  0
LINE
  5
42EA
  8
YODOROGO
 10
29885.604341291921
 20
1707.749496429288
 30
0.0
 11
29885.604341291921
 21
1667.749496429288
 31
0.0
  0
LINE
  5
42EB
  8
YODOROGO
 10
29885.604341291921
 20
1707.749496429288
 30
0.0
 11
29885.604341291921
 21
1667.749496429288
 31
0.0
  0
ARC
  5
42EC
  8
YODOROGO
 10
28906.911576186842
 20
1618.217864442272
 30
0.0
 40
94.705151178741644
 50
274.05244162907098
 51
0.9266642149310712
  0
ARC
  5
42ED
  8
YODOROGO
 10
28909.186170719819
 20
1592.61072861044
 30
0.0
 40
164.92042356085511
 50
271.5351210653775
 51
355.52727750585052
  0
LINE
  5
42EE
  8
YODOROGO
 10
28913.604341291921
 20
1523.7494964292871
 30
0.0
 11
28913.604341291921
 21
1427.749496429288
 31
0.0
  0
LINE
  5
42EF
  8
YODOROGO
 10
28793.60434129191
 20
1667.749496429288
 30
0.0
 11
28657.604341291921
 21
1667.749496429288
 31
0.0
  0
LINE
  5
42F0
  8
YODOROGO
 10
28793.60434129191
 20
1603.7494964292871
 30
0.0
 11
28793.60434129191
 21
1667.749496429288
 31
0.0
  0
LINE
  5
42F1
  8
YODOROGO
 10
28657.604341291921
 20
1603.7494964292871
 30
0.0
 11
28793.60434129191
 21
1603.7494964292871
 31
0.0
  0
LINE
  5
42F2
  8
YODOROGO
 10
28657.604341291921
 20
1523.7494964292871
 30
0.0
 11
28657.604341291921
 21
1603.7494964292871
 31
0.0
  0
LINE
  5
42F3
  8
YODOROGO
 10
28793.60434129191
 20
1523.7494964292871
 30
0.0
 11
28657.604341291921
 21
1523.7494964292871
 31
0.0
  0
LINE
  5
42F4
  8
YODOROGO
 10
28793.60434129191
 20
1427.749496429288
 30
0.0
 11
28793.60434129191
 21
1523.7494964292871
 31
0.0
  0
LINE
  5
42F5
  8
YODOROGO
 10
29197.604341291921
 20
1491.749496429286
 30
0.0
 11
29261.604341291921
 21
1491.749496429286
 31
0.0
  0
LINE
  5
42F6
  8
YODOROGO
 10
29385.604341291921
 20
1427.749496429288
 30
0.0
 11
29457.604341291921
 21
1427.749496429288
 31
0.0
  0
LINE
  5
42F7
  8
YODOROGO
 10
29737.604341291921
 20
1528.4414521705639
 30
0.0
 11
29737.604341291921
 21
1427.749496429288
 31
0.0
  0
LINE
  5
42F8
  8
YODOROGO
 10
29617.604341291921
 20
1427.749496429288
 30
0.0
 11
29737.604341291921
 21
1528.4414521705639
 31
0.0
  0
LINE
  5
42F9
  8
YODOROGO
 10
29617.604341291921
 20
1547.749496429288
 30
0.0
 11
29617.604341291921
 21
1427.749496429288
 31
0.0
  0
LINE
  5
42FA
  8
YODOROGO
 10
29712.94462869945
 20
1627.749496429288
 30
0.0
 11
29617.604341291921
 21
1547.749496429288
 31
0.0
  0
LINE
  5
42FB
  8
YODOROGO
 10
29617.604341291921
 20
1627.749496429288
 30
0.0
 11
29712.94462869945
 21
1627.749496429288
 31
0.0
  0
LINE
  5
42FC
  8
YODOROGO
 10
29617.604341291921
 20
1667.749496429288
 30
0.0
 11
29617.604341291921
 21
1627.749496429288
 31
0.0
  0
LINE
  5
42FD
  8
YODOROGO
 10
29885.604341291921
 20
1667.749496429288
 30
0.0
 11
29617.604341291921
 21
1667.749496429288
 31
0.0
  0
LINE
  5
42FE
  8
YODOROGO
 10
29917.604341291921
 20
1627.749496429288
 30
0.0
 11
29777.604341291921
 21
1627.749496429288
 31
0.0
  0
LINE
  5
42FF
  8
YODOROGO
 10
29777.604341291921
 20
1562.0054374176559
 30
0.0
 11
29771.409872985321
 21
1556.807661346234
 31
0.0
  0
LINE
  5
4300
  8
YODOROGO
 10
29777.604341291921
 20
1627.749496429288
 30
0.0
 11
29777.604341291921
 21
1562.0054374176559
 31
0.0
  0
LINE
  5
4301
  8
YODOROGO
 10
29737.604341291921
 20
1528.4414521705639
 30
0.0
 11
29737.604341291921
 21
1427.749496429288
 31
0.0
  0
LINE
  5
4302
  8
YODOROGO
 10
29617.604341291921
 20
1427.749496429288
 30
0.0
 11
29737.604341291921
 21
1528.4414521705639
 31
0.0
  0
LINE
  5
4303
  8
YODOROGO
 10
29617.604341291921
 20
1547.749496429288
 30
0.0
 11
29617.604341291921
 21
1427.749496429288
 31
0.0
  0
LINE
  5
4304
  8
YODOROGO
 10
29712.94462869945
 20
1627.749496429288
 30
0.0
 11
29617.604341291921
 21
1547.749496429288
 31
0.0
  0
LINE
  5
4305
  8
YODOROGO
 10
29617.604341291921
 20
1627.749496429288
 30
0.0
 11
29712.94462869945
 21
1627.749496429288
 31
0.0
  0
LINE
  5
4306
  8
YODOROGO
 10
29617.604341291921
 20
1667.749496429288
 30
0.0
 11
29617.604341291921
 21
1627.749496429288
 31
0.0
  0
LINE
  5
4307
  8
YODOROGO
 10
29885.604341291921
 20
1667.749496429288
 30
0.0
 11
29617.604341291921
 21
1667.749496429288
 31
0.0
  0
LINE
  5
4308
  8
YODOROGO
 10
28793.60434129191
 20
1747.74949642929
 30
0.0
 11
28793.60434129191
 21
1819.7494964292871
 31
0.0
  0
LINE
  5
4309
  8
YODOROGO
 10
28657.604341291921
 20
1747.74949642929
 30
0.0
 11
28793.60434129191
 21
1747.74949642929
 31
0.0
  0
LINE
  5
430A
  8
YODOROGO
 10
28729.604341291921
 20
1867.7494964292871
 30
0.0
 11
28729.604341291921
 21
1923.7494964292871
 31
0.0
  0
LINE
  5
430B
  8
YODOROGO
 10
28793.60434129191
 20
1867.7494964292871
 30
0.0
 11
28729.604341291921
 21
1867.7494964292871
 31
0.0
  0
LINE
  5
430C
  8
YODOROGO
 10
28793.60434129191
 20
1947.749496429288
 30
0.0
 11
28793.60434129191
 21
1867.7494964292871
 31
0.0
  0
ARC
  5
430D
  8
YODOROGO
 10
28753.60434129191
 20
1947.749496429288
 30
0.0
 40
40.0
 50
0.0
 51
90.0
  0
LINE
  5
430E
  8
YODOROGO
 10
28657.604341291921
 20
1987.7494964292871
 30
0.0
 11
28753.60434129191
 21
1987.7494964292871
 31
0.0
  0
LINE
  5
430F
  8
YODOROGO
 10
28657.604341291921
 20
2027.749496429288
 30
0.0
 11
28657.604341291921
 21
1987.7494964292871
 31
0.0
  0
LINE
  5
4310
  8
YODOROGO
 10
29073.604341291921
 20
2027.749496429288
 30
0.0
 11
29001.60434129191
 21
2027.749496429288
 31
0.0
  0
LINE
  5
4311
  8
YODOROGO
 10
29261.604341291921
 20
2007.749496429288
 30
0.0
 11
29197.604341291921
 21
2007.749496429288
 31
0.0
  0
LINE
  5
4312
  8
YODOROGO
 10
29457.604341291921
 20
2027.749496429288
 30
0.0
 11
29385.604341291921
 21
2027.749496429288
 31
0.0
  0
LINE
  5
4313
  8
YODOROGO
 10
29673.604341291921
 20
1707.749496429288
 30
0.0
 11
29673.604341291921
 21
1771.7494964292871
 31
0.0
1001
AUTOCAD_POSTSCRIPT_FIGURE
1002
{
1000
PSFILL
1000
Grayscale
1000
Grayscale
1070
    25
1002
}
  0
LINE
  5
4314
  8
YODOROGO
 10
29617.604341291921
 20
1707.749496429288
 30
0.0
 11
29673.604341291921
 21
1707.749496429288
 31
0.0
1001
AUTOCAD_POSTSCRIPT_FIGURE
1002
{
1000
PSFILL
1000
Grayscale
1000
Grayscale
1070
    25
1002
}
  0
LINE
  5
4315
  8
YODOROGO
 10
29617.604341291921
 20
1819.7494964292871
 30
0.0
 11
29617.604341291921
 21
1707.749496429288
 31
0.0
1001
AUTOCAD_POSTSCRIPT_FIGURE
1002
{
1000
PSFILL
1000
Grayscale
1000
Grayscale
1070
    25
1002
}
  0
LINE
  5
4316
  8
YODOROGO
 10
29765.604341291921
 20
1819.7494964292871
 30
0.0
 11
29617.604341291921
 21
1819.7494964292871
 31
0.0
1001
AUTOCAD_POSTSCRIPT_FIGURE
1002
{
1000
PSFILL
1000
Grayscale
1000
Grayscale
1070
    25
1002
}
  0
LINE
  5
4317
  8
YODOROGO
 10
29765.604341291921
 20
1859.749496429288
 30
0.0
 11
29765.604341291921
 21
1819.7494964292871
 31
0.0
1001
AUTOCAD_POSTSCRIPT_FIGURE
1002
{
1000
PSFILL
1000
Grayscale
1000
Grayscale
1070
    25
1002
}
  0
LINE
  5
4318
  8
YODOROGO
 10
29617.604341291921
 20
1859.749496429288
 30
0.0
 11
29765.604341291921
 21
1859.749496429288
 31
0.0
1001
AUTOCAD_POSTSCRIPT_FIGURE
1002
{
1000
PSFILL
1000
Grayscale
1000
Grayscale
1070
    25
1002
}
  0
LINE
  5
4319
  8
YODOROGO
 10
29617.604341291921
 20
1907.7494964292871
 30
0.0
 11
29617.604341291921
 21
1859.749496429288
 31
0.0
1001
AUTOCAD_POSTSCRIPT_FIGURE
1002
{
1000
PSFILL
1000
Grayscale
1000
Grayscale
1070
    25
1002
}
  0
LINE
  5
431A
  8
YODOROGO
 10
29765.604341291921
 20
1907.7494964292871
 30
0.0
 11
29617.604341291921
 21
1907.7494964292871
 31
0.0
1001
AUTOCAD_POSTSCRIPT_FIGURE
1002
{
1000
PSFILL
1000
Grayscale
1000
Grayscale
1070
    25
1002
}
  0
LINE
  5
431B
  8
YODOROGO
 10
29765.604341291921
 20
1947.749496429288
 30
0.0
 11
29765.604341291921
 21
1907.7494964292871
 31
0.0
1001
AUTOCAD_POSTSCRIPT_FIGURE
1002
{
1000
PSFILL
1000
Grayscale
1000
Grayscale
1070
    25
1002
}
  0
LINE
  5
431C
  8
YODOROGO
 10
29617.604341291921
 20
1947.749496429288
 30
0.0
 11
29765.604341291921
 21
1947.749496429288
 31
0.0
1001
AUTOCAD_POSTSCRIPT_FIGURE
1002
{
1000
PSFILL
1000
Grayscale
1000
Grayscale
1070
    25
1002
}
  0
LINE
  5
431D
  8
YODOROGO
 10
29617.604341291921
 20
2027.749496429288
 30
0.0
 11
29617.604341291921
 21
1947.749496429288
 31
0.0
1001
AUTOCAD_POSTSCRIPT_FIGURE
1002
{
1000
PSFILL
1000
Grayscale
1000
Grayscale
1070
    25
1002
}
  0
LINE
  5
431E
  8
YODOROGO
 10
29665.604341291921
 20
2027.749496429288
 30
0.0
 11
29617.604341291921
 21
2027.749496429288
 31
0.0
1001
AUTOCAD_POSTSCRIPT_FIGURE
1002
{
1000
PSFILL
1000
Grayscale
1000
Grayscale
1070
    25
1002
}
  0
LINE
  5
431F
  8
YODOROGO
 10
29665.604341291921
 20
1995.7494964292871
 30
0.0
 11
29665.604341291921
 21
2027.749496429288
 31
0.0
1001
AUTOCAD_POSTSCRIPT_FIGURE
1002
{
1000
PSFILL
1000
Grayscale
1000
Grayscale
1070
    25
1002
}
  0
LINE
  5
4320
  8
YODOROGO
 10
29765.604341291921
 20
1995.7494964292871
 30
0.0
 11
29665.604341291921
 21
1995.7494964292871
 31
0.0
1001
AUTOCAD_POSTSCRIPT_FIGURE
1002
{
1000
PSFILL
1000
Grayscale
1000
Grayscale
1070
    25
1002
}
  0
LINE
  5
4321
  8
YODOROGO
 10
29765.604341291921
 20
2027.749496429288
 30
0.0
 11
29765.604341291921
 21
1995.7494964292871
 31
0.0
1001
AUTOCAD_POSTSCRIPT_FIGURE
1002
{
1000
PSFILL
1000
Grayscale
1000
Grayscale
1070
    25
1002
}
  0
LINE
  5
4322
  8
YODOROGO
 10
29829.604341291921
 20
2027.749496429288
 30
0.0
 11
29765.604341291921
 21
2027.749496429288
 31
0.0
1001
AUTOCAD_POSTSCRIPT_FIGURE
1002
{
1000
PSFILL
1000
Grayscale
1000
Grayscale
1070
    25
1002
}
  0
LINE
  5
4323
  8
YODOROGO
 10
29829.604341291921
 20
1995.7494964292871
 30
0.0
 11
29829.604341291921
 21
2027.749496429288
 31
0.0
1001
AUTOCAD_POSTSCRIPT_FIGURE
1002
{
1000
PSFILL
1000
Grayscale
1000
Grayscale
1070
    25
1002
}
  0
LINE
  5
4324
  8
YODOROGO
 10
29829.604341291921
 20
1907.7494964292871
 30
0.0
 11
29829.604341291921
 21
1947.749496429288
 31
0.0
1001
AUTOCAD_POSTSCRIPT_FIGURE
1002
{
1000
PSFILL
1000
Grayscale
1000
Grayscale
1070
    25
1002
}
  0
LINE
  5
4325
  8
YODOROGO
 10
29829.604341291921
 20
1819.7494964292871
 30
0.0
 11
29829.604341291921
 21
1859.749496429288
 31
0.0
1001
AUTOCAD_POSTSCRIPT_FIGURE
1002
{
1000
PSFILL
1000
Grayscale
1000
Grayscale
1070
    25
1002
}
  0
LINE
  5
4326
  8
YODOROGO
 10
29921.60434129191
 20
1771.7494964292871
 30
0.0
 11
29921.60434129191
 21
1707.749496429288
 31
0.0
1001
AUTOCAD_POSTSCRIPT_FIGURE
1002
{
1000
PSFILL
1000
Grayscale
1000
Grayscale
1070
    25
1002
}
  0
LINE
  5
4327
  8
YODOROGO
 10
29829.604341291921
 20
1771.7494964292871
 30
0.0
 11
29921.60434129191
 21
1771.7494964292871
 31
0.0
1001
AUTOCAD_POSTSCRIPT_FIGURE
1002
{
1000
PSFILL
1000
Grayscale
1000
Grayscale
1070
    25
1002
}
  0
LINE
  5
4328
  8
YODOROGO
 10
29829.604341291921
 20
1707.749496429288
 30
0.0
 11
29829.604341291921
 21
1771.7494964292871
 31
0.0
1001
AUTOCAD_POSTSCRIPT_FIGURE
1002
{
1000
PSFILL
1000
Grayscale
1000
Grayscale
1070
    25
1002
}
  0
LINE
  5
4329
  8
YODOROGO
 10
29765.604341291921
 20
1707.749496429288
 30
0.0
 11
29829.604341291921
 21
1707.749496429288
 31
0.0
1001
AUTOCAD_POSTSCRIPT_FIGURE
1002
{
1000
PSFILL
1000
Grayscale
1000
Grayscale
1070
    25
1002
}
  0
LINE
  5
432A
  8
YODOROGO
 10
29765.604341291921
 20
1771.7494964292871
 30
0.0
 11
29765.604341291921
 21
1707.749496429288
 31
0.0
1001
AUTOCAD_POSTSCRIPT_FIGURE
1002
{
1000
PSFILL
1000
Grayscale
1000
Grayscale
1070
    25
1002
}
  0
LINE
  5
432B
  8
YODOROGO
 10
29673.604341291921
 20
1771.7494964292871
 30
0.0
 11
29765.604341291921
 21
1771.7494964292871
 31
0.0
1001
AUTOCAD_POSTSCRIPT_FIGURE
1002
{
1000
PSFILL
1000
Grayscale
1000
Grayscale
1070
    25
1002
}
  0
ARC
  5
432C
  8
YODOROGO
 10
31059.517893357912
 20
1602.6807375155761
 30
0.0
 40
178.22128111072141
 50
281.02627495425338
 51
357.77113575573799
  0
LINE
  5
432D
  8
YODOROGO
 10
31413.604341291921
 20
1907.7494964292871
 30
0.0
 11
31165.604341291921
 21
1907.7494964292871
 31
0.0
  0
LINE
  5
432E
  8
YODOROGO
 10
31413.604341291921
 20
2027.749496429288
 30
0.0
 11
31165.604341291921
 21
2027.749496429288
 31
0.0
  0
LINE
  5
432F
  8
YODOROGO
 10
31165.604341291921
 20
1963.749496429286
 30
0.0
 11
31413.604341291921
 21
1963.749496429286
 31
0.0
  0
LINE
  5
4330
  8
YODOROGO
 10
30791.604341291921
 20
1563.7494964292871
 30
0.0
 11
30791.604341291921
 21
1755.7494964292871
 31
0.0
  0
LINE
  5
4331
  8
YODOROGO
 10
30763.604341291921
 20
1691.749496429288
 30
0.0
 11
30763.604341291921
 21
1563.7494964292871
 31
0.0
  0
LINE
  5
4332
  8
YODOROGO
 10
30723.604341291921
 20
1491.749496429288
 30
0.0
 11
30723.604341291921
 21
1691.749496429288
 31
0.0
  0
LINE
  5
4333
  8
YODOROGO
 10
30899.604341291932
 20
1691.749496429288
 30
0.0
 11
30899.604341291932
 21
1491.749496429288
 31
0.0
  0
LINE
  5
4334
  8
YODOROGO
 10
30859.604341291932
 20
1563.7494964292871
 30
0.0
 11
30859.604341291932
 21
1691.749496429288
 31
0.0
  0
LINE
  5
4335
  8
YODOROGO
 10
30831.604341291921
 20
1755.7494964292871
 30
0.0
 11
30831.604341291921
 21
1563.7494964292871
 31
0.0
  0
LINE
  5
4336
  8
YODOROGO
 10
30973.604341291921
 20
2027.749496429288
 30
0.0
 11
30973.604341291921
 21
1467.749496429288
 31
0.0
  0
LINE
  5
4337
  8
YODOROGO
 10
30645.604341291921
 20
1427.749496429288
 30
0.0
 11
30645.604341291921
 21
2027.749496429288
 31
0.0
  0
LINE
  5
4338
  8
YODOROGO
 10
30697.604341291932
 20
1963.749496429286
 30
0.0
 11
30697.604341291932
 21
1427.749496429288
 31
0.0
  0
LINE
  5
4339
  8
YODOROGO
 10
30925.604341291921
 20
1547.749496429288
 30
0.0
 11
30925.604341291921
 21
1963.749496429286
 31
0.0
  0
LINE
  5
433A
  8
YODOROGO
 10
30381.604341291932
 20
1627.749496429288
 30
0.0
 11
30381.604341291932
 21
1679.749496429288
 31
0.0
  0
LINE
  5
433B
  8
YODOROGO
 10
30617.604341291921
 20
1679.749496429288
 30
0.0
 11
30617.604341291921
 21
1627.749496429288
 31
0.0
  0
LINE
  5
433C
  8
YODOROGO
 10
31165.604341291921
 20
1907.7494964292871
 30
0.0
 11
31165.604341291921
 21
1635.7494964292871
 31
0.0
  0
LINE
  5
433D
  8
YODOROGO
 10
29949.60434129191
 20
1667.749496429288
 30
0.0
 11
29949.60434129191
 21
1707.749496429288
 31
0.0
  0
LINE
  5
433E
  8
YODOROGO
 10
29949.60434129191
 20
1667.749496429288
 30
0.0
 11
29949.60434129191
 21
1707.749496429288
 31
0.0
  0
ARC
  5
433F
  8
YODOROGO
 10
30537.604341291921
 20
1507.749496429288
 30
0.0
 40
80.0
 50
270.0
 51
0.0
  0
LINE
  5
4340
  8
YODOROGO
 10
30569.604341291921
 20
1599.7494964292871
 30
0.0
 11
30617.604341291921
 21
1599.7494964292871
 31
0.0
  0
LINE
  5
4341
  8
YODOROGO
 10
30617.604341291921
 20
1627.749496429288
 30
0.0
 11
30529.604341291939
 21
1627.749496429288
 31
0.0
  0
LINE
  5
4342
  8
YODOROGO
 10
30217.604341291921
 20
1667.749496429288
 30
0.0
 11
29949.60434129191
 21
1667.749496429288
 31
0.0
  0
LINE
  5
4343
  8
YODOROGO
 10
30217.604341291921
 20
1627.749496429288
 30
0.0
 11
30217.604341291921
 21
1667.749496429288
 31
0.0
  0
LINE
  5
4344
  8
YODOROGO
 10
30017.604341291921
 20
1627.749496429288
 30
0.0
 11
30217.604341291921
 21
1627.749496429288
 31
0.0
  0
ARC
  5
4345
  8
YODOROGO
 10
30230.05882870136
 20
1868.885714952901
 30
0.0
 40
321.37763628522822
 50
228.6181454618993
 51
245.660289248906
  0
LINE
  5
4346
  8
YODOROGO
 10
30105.604341291921
 20
1603.7494964292871
 30
0.0
 11
30097.60434129195
 21
1576.0728158699001
 31
0.0
  0
LINE
  5
4347
  8
YODOROGO
 10
30189.604341291921
 20
1603.7494964292871
 30
0.0
 11
30105.604341291921
 21
1603.7494964292871
 31
0.0
  0
LINE
  5
4348
  8
YODOROGO
 10
30177.604341291921
 20
1551.817722473427
 30
0.0
 11
30189.604341291921
 21
1603.7494964292871
 31
0.0
  0
ARC
  5
4349
  8
YODOROGO
 10
30230.05882870045
 20
1868.885714953002
 30
0.0
 40
321.37763628529081
 50
260.60629297969911
 51
267.77903556555862
  0
LINE
  5
434A
  8
YODOROGO
 10
30217.604341291921
 20
1427.749496429285
 30
0.0
 11
30217.604341291921
 21
1547.749496429288
 31
0.0
  0
LINE
  5
434B
  8
YODOROGO
 10
29937.604341291932
 20
1481.3393349155101
 30
0.0
 11
29937.604341291921
 21
1594.531090531141
 31
0.0
  0
LINE
  5
434C
  8
YODOROGO
 10
30217.604341291921
 20
1667.749496429288
 30
0.0
 11
29949.60434129191
 21
1667.749496429288
 31
0.0
  0
LINE
  5
434D
  8
YODOROGO
 10
30217.604341291921
 20
1627.749496429288
 30
0.0
 11
30217.604341291921
 21
1667.749496429288
 31
0.0
  0
LINE
  5
434E
  8
YODOROGO
 10
30017.604341291921
 20
1627.749496429288
 30
0.0
 11
30217.604341291921
 21
1627.749496429288
 31
0.0
  0
ARC
  5
434F
  8
YODOROGO
 10
30230.05882870136
 20
1868.885714952901
 30
0.0
 40
321.37763628522822
 50
228.6181454618993
 51
245.660289248906
  0
LINE
  5
4350
  8
YODOROGO
 10
30105.604341291921
 20
1603.7494964292871
 30
0.0
 11
30097.60434129195
 21
1576.0728158699001
 31
0.0
  0
LINE
  5
4351
  8
YODOROGO
 10
30189.604341291921
 20
1603.7494964292871
 30
0.0
 11
30105.604341291921
 21
1603.7494964292871
 31
0.0
  0
LINE
  5
4352
  8
YODOROGO
 10
30177.604341291921
 20
1551.817722473427
 30
0.0
 11
30189.604341291921
 21
1603.7494964292871
 31
0.0
  0
ARC
  5
4353
  8
YODOROGO
 10
30230.05882870045
 20
1868.885714953002
 30
0.0
 40
321.37763628529081
 50
260.60629297969911
 51
267.77903556555862
  0
LINE
  5
4354
  8
YODOROGO
 10
30217.604341291921
 20
1427.749496429285
 30
0.0
 11
30217.604341291921
 21
1547.749496429288
 31
0.0
  0
LINE
  5
4355
  8
YODOROGO
 10
29937.604341291932
 20
1481.3393349155101
 30
0.0
 11
29937.604341291921
 21
1594.531090531141
 31
0.0
  0
LINE
  5
4356
  8
YODOROGO
 10
30433.604341291921
 20
1573.749496429288
 30
0.0
 11
30381.604341291932
 21
1573.749496429288
 31
0.0
  0
LINE
  5
4357
  8
YODOROGO
 10
30433.604341291921
 20
1601.749496429285
 30
0.0
 11
30433.604341291921
 21
1573.749496429288
 31
0.0
  0
LINE
  5
4358
  8
YODOROGO
 10
30381.604341291932
 20
1601.749496429285
 30
0.0
 11
30433.604341291921
 21
1601.749496429285
 31
0.0
  0
LINE
  5
4359
  8
YODOROGO
 10
30381.604341291932
 20
1573.749496429288
 30
0.0
 11
30381.604341291932
 21
1601.749496429285
 31
0.0
  0
LINE
  5
435A
  8
YODOROGO
 10
30429.604341291921
 20
1577.7494964292871
 30
0.0
 11
30385.604341291921
 21
1577.7494964292871
 31
0.0
  0
LINE
  5
435B
  8
YODOROGO
 10
30429.604341291921
 20
1597.749496429288
 30
0.0
 11
30429.604341291921
 21
1577.7494964292871
 31
0.0
  0
LINE
  5
435C
  8
YODOROGO
 10
30385.604341291921
 20
1597.749496429288
 30
0.0
 11
30429.604341291921
 21
1597.749496429288
 31
0.0
  0
LINE
  5
435D
  8
YODOROGO
 10
30385.604341291921
 20
1577.7494964292871
 30
0.0
 11
30385.604341291921
 21
1597.749496429288
 31
0.0
  0
LINE
  5
435E
  8
YODOROGO
 10
30425.604341291921
 20
1581.749496429286
 30
0.0
 11
30389.604341291921
 21
1581.749496429286
 31
0.0
  0
LINE
  5
435F
  8
YODOROGO
 10
30425.604341291921
 20
1593.749496429288
 30
0.0
 11
30425.604341291921
 21
1581.749496429286
 31
0.0
  0
LINE
  5
4360
  8
YODOROGO
 10
30389.604341291921
 20
1593.749496429288
 30
0.0
 11
30425.604341291921
 21
1593.749496429288
 31
0.0
  0
LINE
  5
4361
  8
YODOROGO
 10
30389.604341291921
 20
1581.749496429286
 30
0.0
 11
30389.604341291921
 21
1593.749496429288
 31
0.0
  0
LINE
  5
4362
  8
YODOROGO
 10
30421.604341291932
 20
1585.7494964292871
 30
0.0
 11
30393.604341291921
 21
1585.7494964292871
 31
0.0
  0
LINE
  5
4363
  8
YODOROGO
 10
30421.604341291932
 20
1589.749496429288
 30
0.0
 11
30421.604341291932
 21
1585.7494964292871
 31
0.0
  0
LINE
  5
4364
  8
YODOROGO
 10
30393.604341291921
 20
1589.749496429288
 30
0.0
 11
30421.604341291932
 21
1589.749496429288
 31
0.0
  0
LINE
  5
4365
  8
YODOROGO
 10
30393.604341291921
 20
1585.7494964292871
 30
0.0
 11
30393.604341291921
 21
1589.749496429288
 31
0.0
  0
LINE
  5
4366
  8
YODOROGO
 10
30465.604341291921
 20
1627.749496429288
 30
0.0
 11
30381.604341291932
 21
1627.749496429288
 31
0.0
  0
LINE
  5
4367
  8
YODOROGO
 10
30465.604341291921
 20
1547.749496429288
 30
0.0
 11
30465.604341291921
 21
1627.749496429288
 31
0.0
  0
LINE
  5
4368
  8
YODOROGO
 10
30381.604341291932
 20
1547.749496429288
 30
0.0
 11
30465.604341291921
 21
1547.749496429288
 31
0.0
  0
LINE
  5
4369
  8
YODOROGO
 10
30381.604341291932
 20
1427.749496429288
 30
0.0
 11
30381.604341291932
 21
1547.749496429288
 31
0.0
  0
LINE
  5
436A
  8
YODOROGO
 10
30537.604341291921
 20
1427.749496429288
 30
0.0
 11
30381.604341291932
 21
1427.749496429288
 31
0.0
  0
LINE
  5
436B
  8
YODOROGO
 10
30569.604341291921
 20
1571.749496429285
 30
0.0
 11
30569.604341291921
 21
1599.7494964292871
 31
0.0
  0
ARC
  5
436C
  8
YODOROGO
 10
30545.604341291921
 20
1571.749496429291
 30
0.0
 40
24.000000000003752
 50
270.0
 51
359.99999999998772
  0
LINE
  5
436D
  8
YODOROGO
 10
30529.604341291939
 20
1547.749496429288
 30
0.0
 11
30545.604341291921
 21
1547.749496429288
 31
0.0
  0
LINE
  5
436E
  8
YODOROGO
 10
30529.604341291939
 20
1627.749496429288
 30
0.0
 11
30529.604341291939
 21
1547.749496429288
 31
0.0
  0
LINE
  5
436F
  8
YODOROGO
 10
30899.604341291932
 20
1547.749496429288
 30
0.0
 11
30925.604341291921
 21
1547.749496429288
 31
0.0
  0
LINE
  5
4370
  8
YODOROGO
 10
30933.604341291921
 20
1427.749496429288
 30
0.0
 11
30899.604341291932
 21
1427.749496429288
 31
0.0
  0
LINE
  5
4371
  8
YODOROGO
 10
30763.604341291921
 20
1563.7494964292871
 30
0.0
 11
30791.604341291921
 21
1563.7494964292871
 31
0.0
  0
LINE
  5
4372
  8
YODOROGO
 10
30899.604341291932
 20
1491.749496429288
 30
0.0
 11
30723.604341291921
 21
1491.749496429288
 31
0.0
  0
LINE
  5
4373
  8
YODOROGO
 10
30831.604341291921
 20
1563.7494964292871
 30
0.0
 11
30859.604341291932
 21
1563.7494964292871
 31
0.0
  0
LINE
  5
4374
  8
YODOROGO
 10
30899.604341291932
 20
1427.749496429288
 30
0.0
 11
30899.604341291932
 21
1547.749496429288
 31
0.0
  0
LINE
  5
4375
  8
YODOROGO
 10
30697.604341291932
 20
1427.749496429288
 30
0.0
 11
30645.604341291921
 21
1427.749496429288
 31
0.0
  0
LINE
  5
4376
  8
YODOROGO
 10
30617.604341291921
 20
1599.7494964292871
 30
0.0
 11
30617.604341291921
 21
1507.749496429288
 31
0.0
  0
ARC
  5
4377
  8
YODOROGO
 10
30933.604341291921
 20
1467.749496429288
 30
0.0
 40
40.0
 50
270.0
 51
0.0
  0
LINE
  5
4378
  8
YODOROGO
 10
31093.604341291921
 20
1523.7494964292871
 30
0.0
 11
31093.604341291921
 21
1427.749496429288
 31
0.0
  0
ARC
  5
4379
  8
YODOROGO
 10
31039.721395566768
 20
1637.5313901097329
 30
0.0
 40
125.8955565916754
 50
295.34052442160112
 51
359.18902303418679
  0
LINE
  5
437A
  8
YODOROGO
 10
30617.604341291921
 20
1859.749496429288
 30
0.0
 11
30497.604341291921
 21
1939.749496429288
 31
0.0
  0
LINE
  5
437B
  8
YODOROGO
 10
30497.604341291921
 20
2027.749496429288
 30
0.0
 11
30617.604341291921
 21
1947.749496429288
 31
0.0
  0
LINE
  5
437C
  8
YODOROGO
 10
30529.604341291939
 20
1679.749496429288
 30
0.0
 11
30617.604341291921
 21
1679.749496429288
 31
0.0
  0
LINE
  5
437D
  8
YODOROGO
 10
30617.604341291921
 20
1735.7494964292871
 30
0.0
 11
30529.604341291939
 21
1735.7494964292871
 31
0.0
  0
LINE
  5
437E
  8
YODOROGO
 10
30381.604341291932
 20
1795.7494964292871
 30
0.0
 11
30617.604341291921
 21
1795.7494964292871
 31
0.0
  0
LINE
  5
437F
  8
YODOROGO
 10
30081.604341291921
 20
2027.749496429288
 30
0.0
 11
30021.604341291921
 21
2027.749496429288
 31
0.0
  0
LINE
  5
4380
  8
YODOROGO
 10
30081.604341291921
 20
1827.7494964292871
 30
0.0
 11
30081.604341291921
 21
2027.749496429288
 31
0.0
  0
LINE
  5
4381
  8
YODOROGO
 10
30021.604341291921
 20
1827.7494964292871
 30
0.0
 11
30081.604341291921
 21
1827.7494964292871
 31
0.0
  0
LINE
  5
4382
  8
YODOROGO
 10
30021.604341291921
 20
2027.749496429288
 30
0.0
 11
30021.604341291921
 21
1827.7494964292871
 31
0.0
  0
LINE
  5
4383
  8
YODOROGO
 10
30161.604341291921
 20
2027.749496429288
 30
0.0
 11
30217.604341291921
 21
2027.749496429288
 31
0.0
  0
LINE
  5
4384
  8
YODOROGO
 10
30161.604341291921
 20
1811.749496429288
 30
0.0
 11
30161.604341291921
 21
2027.749496429288
 31
0.0
  0
ARC
  5
4385
  8
YODOROGO
 10
30121.604341291921
 20
1811.749496429288
 30
0.0
 40
40.0
 50
270.0
 51
0.0
  0
LINE
  5
4386
  8
YODOROGO
 10
30021.604341291921
 20
1771.7494964292871
 30
0.0
 11
30121.604341291921
 21
1771.7494964292871
 31
0.0
  0
LINE
  5
4387
  8
YODOROGO
 10
30021.604341291921
 20
1707.749496429288
 30
0.0
 11
30021.604341291921
 21
1771.7494964292871
 31
0.0
  0
LINE
  5
4388
  8
YODOROGO
 10
30137.604341291921
 20
1707.749496429288
 30
0.0
 11
30021.604341291921
 21
1707.749496429288
 31
0.0
  0
ARC
  5
4389
  8
YODOROGO
 10
30137.604341291921
 20
1787.7494964292871
 30
0.0
 40
80.0
 50
270.0
 51
0.0
  0
LINE
  5
438A
  8
YODOROGO
 10
30217.604341291921
 20
2027.749496429288
 30
0.0
 11
30217.604341291921
 21
1787.7494964292871
 31
0.0
  0
LINE
  5
438B
  8
YODOROGO
 10
29977.604341291921
 20
1947.749496429288
 30
0.0
 11
29977.604341291921
 21
1995.7494964292871
 31
0.0
1001
AUTOCAD_POSTSCRIPT_FIGURE
1002
{
1000
PSFILL
1000
Grayscale
1000
Grayscale
1070
    25
1002
}
  0
LINE
  5
438C
  8
YODOROGO
 10
29977.604341291921
 20
1859.749496429288
 30
0.0
 11
29977.604341291921
 21
1907.7494964292871
 31
0.0
1001
AUTOCAD_POSTSCRIPT_FIGURE
1002
{
1000
PSFILL
1000
Grayscale
1000
Grayscale
1070
    25
1002
}
  0
LINE
  5
438D
  8
YODOROGO
 10
29977.604341291921
 20
1707.749496429288
 30
0.0
 11
29977.604341291921
 21
1819.7494964292871
 31
0.0
1001
AUTOCAD_POSTSCRIPT_FIGURE
1002
{
1000
PSFILL
1000
Grayscale
1000
Grayscale
1070
    25
1002
}
  0
LINE
  5
438E
  8
YODOROGO
 10
30381.604341291932
 20
1907.7494964292871
 30
0.0
 11
30497.604341291921
 21
2027.749496429288
 31
0.0
  0
LINE
  5
438F
  8
YODOROGO
 10
30381.604341291932
 20
1819.7494964292871
 30
0.0
 11
30381.604341291932
 21
1907.7494964292871
 31
0.0
  0
LINE
  5
4390
  8
YODOROGO
 10
30497.604341291921
 20
1939.749496429288
 30
0.0
 11
30381.604341291932
 21
1819.7494964292871
 31
0.0
  0
LINE
  5
4391
  8
YODOROGO
 10
30465.604341291921
 20
1679.749496429288
 30
0.0
 11
30465.604341291921
 21
1735.7494964292871
 31
0.0
  0
LINE
  5
4392
  8
YODOROGO
 10
30381.604341291932
 20
1679.749496429288
 30
0.0
 11
30465.604341291921
 21
1679.749496429288
 31
0.0
  0
LINE
  5
4393
  8
YODOROGO
 10
30529.604341291939
 20
1735.7494964292871
 30
0.0
 11
30529.604341291939
 21
1679.749496429288
 31
0.0
  0
LINE
  5
4394
  8
YODOROGO
 10
30381.604341291932
 20
1735.7494964292871
 30
0.0
 11
30381.604341291932
 21
1795.7494964292871
 31
0.0
  0
LINE
  5
4395
  8
YODOROGO
 10
30465.604341291921
 20
1735.7494964292871
 30
0.0
 11
30381.604341291932
 21
1735.7494964292871
 31
0.0
  0
LINE
  5
4396
  8
YODOROGO
 10
30645.604341291921
 20
2027.749496429288
 30
0.0
 11
30973.604341291921
 21
2027.749496429288
 31
0.0
  0
LINE
  5
4397
  8
YODOROGO
 10
30925.604341291921
 20
1963.749496429286
 30
0.0
 11
30697.604341291932
 21
1963.749496429286
 31
0.0
  0
LINE
  5
4398
  8
YODOROGO
 10
30873.604341291921
 20
1819.7494964292871
 30
0.0
 11
30899.604341291932
 21
1819.7494964292871
 31
0.0
  0
LINE
  5
4399
  8
YODOROGO
 10
30899.604341291932
 20
1939.749496429288
 30
0.0
 11
30873.604341291921
 21
1819.7494964292871
 31
0.0
  0
LINE
  5
439A
  8
YODOROGO
 10
30851.604341291939
 20
1939.749496429288
 30
0.0
 11
30899.604341291932
 21
1939.749496429288
 31
0.0
  0
LINE
  5
439B
  8
YODOROGO
 10
30825.604341291921
 20
1819.7494964292871
 30
0.0
 11
30851.604341291939
 21
1939.749496429288
 31
0.0
  0
LINE
  5
439C
  8
YODOROGO
 10
30797.604341291921
 20
1819.7494964292871
 30
0.0
 11
30825.604341291921
 21
1819.7494964292871
 31
0.0
  0
LINE
  5
439D
  8
YODOROGO
 10
30771.604341291939
 20
1939.749496429288
 30
0.0
 11
30797.604341291921
 21
1819.7494964292871
 31
0.0
  0
LINE
  5
439E
  8
YODOROGO
 10
30723.604341291921
 20
1939.749496429288
 30
0.0
 11
30771.604341291939
 21
1939.749496429288
 31
0.0
  0
LINE
  5
439F
  8
YODOROGO
 10
30749.604341291921
 20
1819.7494964292871
 30
0.0
 11
30723.604341291921
 21
1939.749496429288
 31
0.0
  0
LINE
  5
43A0
  8
YODOROGO
 10
30723.604341291921
 20
1819.7494964292871
 30
0.0
 11
30749.604341291921
 21
1819.7494964292871
 31
0.0
  0
LINE
  5
43A1
  8
YODOROGO
 10
30723.604341291921
 20
1755.7494964292871
 30
0.0
 11
30723.604341291921
 21
1819.7494964292871
 31
0.0
  0
LINE
  5
43A2
  8
YODOROGO
 10
30899.604341291932
 20
1755.7494964292871
 30
0.0
 11
30723.604341291921
 21
1755.7494964292871
 31
0.0
  0
LINE
  5
43A3
  8
YODOROGO
 10
30899.604341291932
 20
1819.7494964292871
 30
0.0
 11
30899.604341291932
 21
1755.7494964292871
 31
0.0
  0
LINE
  5
43A4
  8
YODOROGO
 10
30617.604341291921
 20
1947.749496429288
 30
0.0
 11
30617.604341291921
 21
1859.749496429288
 31
0.0
  0
LINE
  5
43A5
  8
YODOROGO
 10
30791.604341291921
 20
1755.7494964292871
 30
0.0
 11
30831.604341291921
 21
1755.7494964292871
 31
0.0
  0
LINE
  5
43A6
  8
YODOROGO
 10
30723.604341291921
 20
1691.749496429288
 30
0.0
 11
30763.604341291921
 21
1691.749496429288
 31
0.0
  0
LINE
  5
43A7
  8
YODOROGO
 10
30859.604341291932
 20
1691.749496429288
 30
0.0
 11
30899.604341291932
 21
1691.749496429288
 31
0.0
  0
LINE
  5
43A8
  8
YODOROGO
 10
30617.604341291921
 20
1795.7494964292871
 30
0.0
 11
30617.604341291921
 21
1735.7494964292871
 31
0.0
  0
LINE
  5
43A9
  8
YODOROGO
 10
31165.604341291921
 20
2027.749496429288
 30
0.0
 11
31165.604341291921
 21
1963.749496429286
 31
0.0
  0
LINE
  5
43AA
  8
YODOROGO
 10
31533.604341291921
 20
1595.7494964292871
 30
0.0
 11
31533.60434129191
 21
1811.749496429288
 31
0.0
  0
LINE
  5
43AB
  8
YODOROGO
 10
31461.60434129191
 20
1987.7494964292871
 30
0.0
 11
31461.60434129191
 21
1635.7494964292871
 31
0.0
  0
LINE
  5
43AC
  8
YODOROGO
 10
31653.604341291921
 20
1427.749496429288
 30
0.0
 11
31653.60434129191
 21
1811.749496429288
 31
0.0
  0
LINE
  5
43AD
  8
YODOROGO
 10
31589.604341291921
 20
1811.749496429288
 30
0.0
 11
31589.604341291921
 21
1427.749496429288
 31
0.0
  0
LINE
  5
43AE
  8
YODOROGO
 10
31237.604341291921
 20
1595.7494964292871
 30
0.0
 11
31237.604341291921
 21
1707.749496429288
 31
0.0
  0
ARC
  5
43AF
  8
YODOROGO
 10
31353.914865116069
 20
1607.790351288558
 30
0.0
 40
180.0924485759885
 50
268.62849102169793
 51
356.16638457330322
  0
LINE
  5
43B0
  8
YODOROGO
 10
31349.604341291939
 20
1527.749496429288
 30
0.0
 11
31349.604341291939
 21
1427.749496429288
 31
0.0
  0
ARC
  5
43B1
  8
YODOROGO
 10
31351.518075724562
 20
1637.838957017655
 30
0.0
 40
110.1060929836122
 50
269.00410209305932
 51
358.91264455492478
  0
LINE
  5
43B2
  8
YODOROGO
 10
31589.604341291921
 20
1427.749496429288
 30
0.0
 11
31653.604341291921
 21
1427.749496429288
 31
0.0
  0
LINE
  5
43B3
  8
YODOROGO
 10
31533.60434129191
 20
1811.749496429288
 30
0.0
 11
31589.604341291921
 21
1811.749496429288
 31
0.0
  0
LINE
  5
43B4
  8
YODOROGO
 10
31621.604341291939
 20
1987.7494964292871
 30
0.0
 11
31461.60434129191
 21
1987.7494964292871
 31
0.0
  0
LINE
  5
43B5
  8
YODOROGO
 10
31533.60434129191
 20
1915.7494964292871
 30
0.0
 11
31661.604341291939
 21
1915.7494964292871
 31
0.0
  0
LINE
  5
43B6
  8
YODOROGO
 10
31701.604341291939
 20
1875.7494964292871
 30
0.0
 11
31533.60434129191
 21
1875.7494964292871
 31
0.0
  0
LINE
  5
43B7
  8
YODOROGO
 10
31237.604341291921
 20
1779.749496429288
 30
0.0
 11
31349.604341291939
 21
1779.749496429288
 31
0.0
  0
LINE
  5
43B8
  8
YODOROGO
 10
31237.604341291921
 20
1835.7494964292871
 30
0.0
 11
31237.604341291921
 21
1779.749496429288
 31
0.0
  0
LINE
  5
43B9
  8
YODOROGO
 10
31349.604341291939
 20
1835.7494964292871
 30
0.0
 11
31237.604341291921
 21
1835.7494964292871
 31
0.0
  0
LINE
  5
43BA
  8
YODOROGO
 10
31349.604341291939
 20
1779.749496429288
 30
0.0
 11
31349.604341291939
 21
1835.7494964292871
 31
0.0
  0
LINE
  5
43BB
  8
YODOROGO
 10
31533.60434129191
 20
1875.7494964292871
 30
0.0
 11
31533.60434129191
 21
1915.7494964292871
 31
0.0
  0
LINE
  5
43BC
  8
YODOROGO
 10
31413.604341291921
 20
1707.749496429288
 30
0.0
 11
31413.604341291921
 21
1907.7494964292871
 31
0.0
  0
LINE
  5
43BD
  8
YODOROGO
 10
31237.604341291921
 20
1707.749496429288
 30
0.0
 11
31413.604341291921
 21
1707.749496429288
 31
0.0
  0
LINE
  5
43BE
  8
YODOROGO
 10
31413.604341291921
 20
1963.749496429286
 30
0.0
 11
31413.604341291921
 21
2027.749496429288
 31
0.0
  0
ARC
  5
43BF
  8
YODOROGO
 10
31621.604341291939
 20
2003.749496429285
 30
0.0
 40
15.999999999994539
 50
270.0
 51
0.0000000000081422
  0
LINE
  5
43C0
  8
YODOROGO
 10
31637.604341291921
 20
2027.749496429288
 30
0.0
 11
31637.604341291921
 21
2003.7494964292871
 31
0.0
  0
LINE
  5
43C1
  8
YODOROGO
 10
31701.604341291939
 20
2027.749496429288
 30
0.0
 11
31637.604341291921
 21
2027.749496429288
 31
0.0
  0
LINE
  5
43C2
  8
YODOROGO
 10
31701.604341291939
 20
1955.7494964292871
 30
0.0
 11
31701.604341291939
 21
2027.749496429288
 31
0.0
  0
ARC
  5
43C3
  8
YODOROGO
 10
31661.604341291939
 20
1955.7494964292871
 30
0.0
 40
40.0
 50
270.0
 51
0.0
  0
LINE
  5
43C4
  8
YODOROGO
 10
31701.604341291939
 20
1811.749496429288
 30
0.0
 11
31701.604341291939
 21
1875.7494964292871
 31
0.0
  0
LINE
  5
43C5
  8
YODOROGO
 10
31653.60434129191
 20
1811.749496429288
 30
0.0
 11
31701.604341291939
 21
1811.749496429288
 31
0.0
  0
LINE
  5
43C9
  8
SUNPOU
  6
CONTINUOUS
 62
     4
 10
14705.259738999999
 20
19972.456883000021
 30
0.0
 11
14705.259738999999
 21
20522.462162000022
 31
0.0
  0
LINE
  5
43CA
  8
SUNPOU
  6
CONTINUOUS
 62
     4
 10
14619.759738999999
 20
20442.462162000022
 30
0.0
 11
14379.75973899999
 21
20442.462162000022
 31
0.0
  0
LINE
  5
43CB
  8
SUNPOU
  6
CONTINUOUS
 62
     4
 10
14702.259738999999
 20
20442.462162000022
 30
0.0
 11
14942.25973899999
 21
20442.462162000022
 31
0.0
  0
LINE
  5
43CC
  8
SUNPOU
  6
CONTINUOUS
 62
     4
 10
14619.759738999999
 20
20442.462162000022
 30
0.0
 11
14702.259738999999
 21
20442.462162000022
 31
0.0
  0
LINE
  5
43CD
  8
SUNPOU
  6
CONTINUOUS
 62
     4
 10
12753.259738999999
 20
20442.462162000022
 30
0.0
 11
14619.759738999999
 21
20442.462162000022
 31
0.0
  0
LINE
  5
43CE
  8
SUNPOU
  6
CONTINUOUS
 62
     4
 10
9399.2597389999992
 20
19972.456883000021
 30
0.0
 11
9399.2597389999992
 21
20522.462162000022
 31
0.0
  0
LINE
  5
43CF
  8
SUNPOU
  6
CONTINUOUS
 62
     4
 10
9484.7597390000028
 20
20442.462162000022
 30
0.0
 11
9724.7597389999992
 21
20442.462162000022
 31
0.0
  0
LINE
  5
43D0
  8
SUNPOU
  6
CONTINUOUS
 62
     4
 10
9402.2597389999992
 20
20442.462162000022
 30
0.0
 11
9162.2597389999992
 21
20442.462162000022
 31
0.0
  0
LINE
  5
43D1
  8
SUNPOU
  6
CONTINUOUS
 62
     4
 10
9484.7597390000028
 20
20442.462162000022
 30
0.0
 11
9402.2597389999992
 21
20442.462162000022
 31
0.0
  0
LINE
  5
43D2
  8
SUNPOU
  6
CONTINUOUS
 62
     4
 10
12753.259738999999
 20
20442.462162000022
 30
0.0
 11
9484.7597390000028
 21
20442.462162000022
 31
0.0
  0
LINE
  5
43D3
  8
SUNPOU
  6
CONTINUOUS
 62
     4
 10
9322.2553840000037
 20
19872.456883000021
 30
0.0
 11
8875.2599630000022
 21
19872.456883000021
 31
0.0
  0
LINE
  5
43D4
  8
SUNPOU
  6
CONTINUOUS
 62
     4
 10
9322.2597389999992
 20
19892.456883000021
 30
0.0
 11
8875.2599630000022
 21
19892.456883000021
 31
0.0
  0
LINE
  5
43D6
  8
SUNPOU
  6
CONTINUOUS
 62
     4
 10
8955.2599630000004
 20
19892.456883000021
 30
0.0
 11
8955.2599630000004
 21
20132.456883000021
 31
0.0
  0
LINE
  5
43D7
  8
SUNPOU
  6
CONTINUOUS
 62
     4
 10
8955.2599630000004
 20
19852.456883000021
 30
0.0
 11
8955.2599630000004
 21
19892.456883000021
 31
0.0
  0
LINE
  5
43D8
  8
SUNPOU
  6
CONTINUOUS
 62
     4
 10
9322.2597389999992
 20
19892.456883000021
 30
0.0
 11
8475.2599630000022
 21
19892.456883000021
 31
0.0
  0
LINE
  5
43D9
  8
SUNPOU
  6
CONTINUOUS
 62
     4
 10
8555.2599630000022
 20
19669.960974000001
 30
0.0
 11
8555.2599630000022
 21
19892.456883000021
 31
0.0
  0
LINE
  5
43DA
  8
SUNPOU
  6
CONTINUOUS
 62
     4
 10
9185.959096000006
 20
18561.460974000001
 30
0.0
 11
8475.2599630000022
 21
18561.460974000001
 31
0.0
  0
LINE
  5
43DB
  8
SUNPOU
  6
CONTINUOUS
 62
     4
 10
8555.2599630000022
 20
18561.460974000001
 30
0.0
 11
8555.2599630000022
 21
19669.960974000001
 31
0.0
  0
LINE
  5
43DC
  8
SUNPOU
  6
CONTINUOUS
 62
     4
 10
9185.959096000006
 20
18561.460974000001
 30
0.0
 11
8475.2599630000022
 21
18561.460974000001
 31
0.0
  0
LINE
  5
43DD
  8
SUNPOU
  6
CONTINUOUS
 62
     4
 10
8555.2599630000022
 20
17102.460974000001
 30
0.0
 11
8555.2599630000022
 21
18561.460974000001
 31
0.0
  0
LINE
  5
43DE
  8
SUNPOU
  6
CONTINUOUS
 62
     4
 10
9185.959096000006
 20
15643.460974
 30
0.0
 11
8475.2599630000022
 21
15643.460974
 31
0.0
  0
LINE
  5
43DF
  8
SUNPOU
  6
CONTINUOUS
 62
     4
 10
8555.2599630000022
 20
15643.460974
 30
0.0
 11
8555.2599630000022
 21
17102.460974000001
 31
0.0
  0
LINE
  5
43E0
  8
SUNPOU
  6
CONTINUOUS
 62
     4
 10
9185.959096000006
 20
15643.460974
 30
0.0
 11
8475.2599630000022
 21
15643.460974
 31
0.0
  0
LINE
  5
43E1
  8
SUNPOU
  6
CONTINUOUS
 62
     4
 10
8555.2599630000022
 20
14534.960974
 30
0.0
 11
8555.2599630000022
 21
15643.460974
 31
0.0
  0
LINE
  5
43E2
  8
SUNPOU
  6
CONTINUOUS
 62
     4
 10
9322.2553840000037
 20
14342.465659
 30
0.0
 11
8475.2599630000022
 21
14342.465659
 31
0.0
  0
LINE
  5
43E3
  8
SUNPOU
  6
CONTINUOUS
 62
     4
 10
8555.2599630000022
 20
14534.960974
 30
0.0
 11
8555.2599630000022
 21
14342.465659
 31
0.0
  0
LINE
  5
43E4
  8
SUNPOU
  6
CONTINUOUS
 62
     4
 10
20301.427627999969
 20
6261.4554440000011
 30
0.0
 11
20301.427627999969
 21
4661.4556089999978
 31
0.0
  0
LINE
  5
43E5
  8
SUNPOU
  6
CONTINUOUS
 62
     4
 10
25521.42762799999
 20
6261.4554440000011
 30
0.0
 11
25521.42762799999
 21
4661.4556089999978
 31
0.0
  0
LINE
  5
43E6
  8
SUNPOU
  6
CONTINUOUS
 62
     4
 10
20301.427627999969
 20
4741.4556089999978
 30
0.0
 11
25521.42762799999
 21
4741.4556089999978
 31
0.0
  0
LINE
  5
43E7
  8
SUNPOU
  6
CONTINUOUS
 62
     4
 10
20343.927627999969
 20
5998.8030209999988
 30
0.0
 11
20343.927627999969
 21
5061.4554440000002
 31
0.0
  0
LINE
  5
43E8
  8
SUNPOU
  6
CONTINUOUS
 62
     4
 10
20301.427627999969
 20
6261.4554440000011
 30
0.0
 11
20301.427627999969
 21
5061.4554440000002
 31
0.0
  0
LINE
  5
43E9
  8
SUNPOU
  6
CONTINUOUS
 62
     4
 10
20343.927627999969
 20
5141.4554440000002
 30
0.0
 11
20583.927627999969
 21
5141.4554440000002
 31
0.0
  0
LINE
  5
43EA
  8
SUNPOU
  6
CONTINUOUS
 62
     4
 10
20301.427627999969
 20
5141.4554440000002
 30
0.0
 11
20061.427627999969
 21
5141.4554440000002
 31
0.0
  0
LINE
  5
43EB
  8
SUNPOU
  6
CONTINUOUS
 62
     4
 10
20343.927627999969
 20
5141.4554440000002
 30
0.0
 11
20301.427627999969
 21
5141.4554440000002
 31
0.0
  0
LINE
  5
43EC
  8
SUNPOU
  6
CONTINUOUS
 62
     4
 10
25478.931586999988
 20
5998.8030209999988
 30
0.0
 11
25478.931586999988
 21
5061.4554440000002
 31
0.0
  0
LINE
  5
43ED
  8
SUNPOU
  6
CONTINUOUS
 62
     4
 10
25521.431586999988
 20
6261.4554440000011
 30
0.0
 11
25521.431586999988
 21
5061.4554440000002
 31
0.0
  0
LINE
  5
43EE
  8
SUNPOU
  6
CONTINUOUS
 62
     4
 10
25478.931586999988
 20
5141.4554440000002
 30
0.0
 11
25238.931586999988
 21
5141.4554440000002
 31
0.0
  0
LINE
  5
43EF
  8
SUNPOU
  6
CONTINUOUS
 62
     4
 10
25521.431586999988
 20
5141.4554440000002
 30
0.0
 11
25761.431586999988
 21
5141.4554440000002
 31
0.0
  0
LINE
  5
43F0
  8
SUNPOU
  6
CONTINUOUS
 62
     4
 10
25478.931586999988
 20
5141.4554440000002
 30
0.0
 11
25521.431586999988
 21
5141.4554440000002
 31
0.0
  0
LINE
  5
43F1
  8
SUNPOU
  6
CONTINUOUS
 62
     4
 10
20343.927627999969
 20
5998.8030209999988
 30
0.0
 11
20343.927627999969
 21
5061.4554440000002
 31
0.0
  0
LINE
  5
43F2
  8
SUNPOU
  6
CONTINUOUS
 62
     4
 10
23612.42762799999
 20
5998.8030209999988
 30
0.0
 11
23612.42762799999
 21
5061.4554440000002
 31
0.0
  0
LINE
  5
43F3
  8
SUNPOU
  6
CONTINUOUS
 62
     4
 10
20343.927627999969
 20
5141.4554440000002
 30
0.0
 11
23612.42762799999
 21
5141.4554440000002
 31
0.0
  0
LINE
  5
43F4
  8
SUNPOU
  6
CONTINUOUS
 62
     4
 10
23612.42762799999
 20
5998.8030209999988
 30
0.0
 11
23612.42762799999
 21
5061.4554440000002
 31
0.0
  0
LINE
  5
43F5
  8
SUNPOU
  6
CONTINUOUS
 62
     4
 10
25478.927627999969
 20
5998.8030209999988
 30
0.0
 11
25478.927627999969
 21
5061.4554440000002
 31
0.0
  0
LINE
  5
43F6
  8
SUNPOU
  6
CONTINUOUS
 62
     4
 10
23612.42762799999
 20
5141.4554440000002
 30
0.0
 11
25478.927627999969
 21
5141.4554440000002
 31
0.0
  0
LINE
  5
43F7
  8
SUNPOU
  6
CONTINUOUS
 62
     4
 10
23706.427627999961
 20
6261.4554440000011
 30
0.0
 11
23706.427627999961
 21
5461.455444000002
 31
0.0
  0
LINE
  5
43F8
  8
SUNPOU
  6
CONTINUOUS
 62
     4
 10
25384.927627999969
 20
6261.4554440000011
 30
0.0
 11
25384.927627999969
 21
5461.455444000002
 31
0.0
  0
LINE
  5
43F9
  8
SUNPOU
  6
CONTINUOUS
 62
     4
 10
23706.427627999961
 20
5541.4554440000002
 30
0.0
 11
25384.927627999969
 21
5541.4554440000002
 31
0.0
  0
LINE
  5
43FA
  8
SUNPOU
  6
CONTINUOUS
 62
     4
 10
20437.927627999969
 20
6261.4554440000011
 30
0.0
 11
20437.927627999969
 21
5461.455444000002
 31
0.0
  0
LINE
  5
43FB
  8
SUNPOU
  6
CONTINUOUS
 62
     4
 10
23518.427627999969
 20
6261.4554440000011
 30
0.0
 11
23518.427627999969
 21
5461.455444000002
 31
0.0
  0
LINE
  5
43FC
  8
SUNPOU
  6
CONTINUOUS
 62
     4
 10
20437.927627999969
 20
5541.4554440000002
 30
0.0
 11
23518.427627999969
 21
5541.4554440000002
 31
0.0
  0
LINE
  5
440D
  8
SUNPOU
  6
CONTINUOUS
 62
     4
 10
20213.926968999989
 20
6441.4552789999952
 30
0.0
 11
19013.925978999981
 21
6441.4552789999952
 31
0.0
  0
LINE
  5
440E
  8
SUNPOU
  6
CONTINUOUS
 62
     4
 10
20181.427232999959
 20
8790.4552790000052
 30
0.0
 11
19013.925978999981
 21
8790.4552790000052
 31
0.0
  0
LINE
  5
440F
  8
SUNPOU
  6
CONTINUOUS
 62
     4
 10
19093.925978999981
 20
6441.4552789999952
 30
0.0
 11
19093.925978999981
 21
8790.4552790000052
 31
0.0
  0
LINE
  5
4410
  8
SUNPOU
  6
CONTINUOUS
 62
     4
 10
20213.926968999989
 20
6441.4552789999952
 30
0.0
 11
19413.92828799997
 21
6441.4552789999952
 31
0.0
  0
LINE
  5
4411
  8
SUNPOU
  6
CONTINUOUS
 62
     4
 10
20213.926968999989
 20
8332.955278999998
 30
0.0
 11
19413.92828799997
 21
8332.955278999998
 31
0.0
  0
LINE
  5
4412
  8
SUNPOU
  6
CONTINUOUS
 62
     4
 10
19493.92828799997
 20
6441.4552789999952
 30
0.0
 11
19493.92828799997
 21
8332.955278999998
 31
0.0
  0
LINE
  5
4413
  8
SUNPOU
  6
CONTINUOUS
 62
     4
 10
20221.43132399999
 20
18561.460974000001
 30
0.0
 11
19334.47305199999
 21
18561.460974000001
 31
0.0
  0
LINE
  5
4414
  8
SUNPOU
  6
CONTINUOUS
 62
     4
 10
19414.47305199999
 20
18561.460974000001
 30
0.0
 11
19414.47305199999
 21
19669.960974000001
 31
0.0
  0
LINE
  5
4415
  8
SUNPOU
  6
CONTINUOUS
 62
     4
 10
20221.43132399999
 20
18561.460974000001
 30
0.0
 11
19334.47305199999
 21
18561.460974000001
 31
0.0
  0
LINE
  5
4416
  8
SUNPOU
  6
CONTINUOUS
 62
     4
 10
19414.47305199999
 20
17102.460974000001
 30
0.0
 11
19414.47305199999
 21
18561.460974000001
 31
0.0
  0
LINE
  5
4417
  8
SUNPOU
  6
CONTINUOUS
 62
     4
 10
20221.43132399999
 20
15643.701485500011
 30
0.0
 11
19334.47305199999
 21
15643.701485500011
 31
0.0
  0
LINE
  5
4418
  8
SUNPOU
  6
CONTINUOUS
 62
     4
 10
19414.47305199999
 20
15643.701485500011
 30
0.0
 11
19414.47305199999
 21
17102.460974000001
 31
0.0
  0
LINE
  5
4419
  8
SUNPOU
  6
CONTINUOUS
 62
     4
 10
20221.43132399999
 20
15643.701485500011
 30
0.0
 11
19334.47305199999
 21
15643.701485500011
 31
0.0
  0
LINE
  5
441A
  8
SUNPOU
  6
CONTINUOUS
 62
     4
 10
19414.47305199999
 20
14534.960974
 30
0.0
 11
19414.47305199999
 21
15643.701485500011
 31
0.0
  0
LINE
  5
441B
  8
SUNPOU
  6
CONTINUOUS
 62
     4
 10
20343.927629000002
 20
13829.197539999999
 30
0.0
 11
20343.927629000002
 21
13483.51289
 31
0.0
  0
LINE
  5
441C
  8
SUNPOU
  6
CONTINUOUS
 62
     4
 10
20301.425385999992
 20
14412.463678999989
 30
0.0
 11
20301.425385999992
 21
13483.51289
 31
0.0
  0
LINE
  5
441D
  8
SUNPOU
  6
CONTINUOUS
 62
     4
 10
20343.927629000002
 20
13563.51289
 30
0.0
 11
20583.927629000002
 21
13563.51289
 31
0.0
  0
LINE
  5
441E
  8
SUNPOU
  6
CONTINUOUS
 62
     4
 10
20301.425385999992
 20
13563.51289
 30
0.0
 11
20061.425385999992
 21
13563.51289
 31
0.0
  0
LINE
  5
441F
  8
SUNPOU
  6
CONTINUOUS
 62
     4
 10
20343.927629000002
 20
13563.51289
 30
0.0
 11
20301.425385999992
 21
13563.51289
 31
0.0
  0
LINE
  5
4420
  8
SUNPOU
  6
CONTINUOUS
 62
     4
 10
25478.927629000002
 20
13829.197539999999
 30
0.0
 11
25478.927629000002
 21
13483.51289
 31
0.0
  0
LINE
  5
4421
  8
SUNPOU
  6
CONTINUOUS
 62
     4
 10
25521.429871999979
 20
14412.463678999989
 30
0.0
 11
25521.429871999979
 21
13483.51289
 31
0.0
  0
LINE
  5
4422
  8
SUNPOU
  6
CONTINUOUS
 62
     4
 10
25478.927629000002
 20
13563.51289
 30
0.0
 11
25238.927629000002
 21
13563.51289
 31
0.0
  0
LINE
  5
4423
  8
SUNPOU
  6
CONTINUOUS
 62
     4
 10
25521.429871999979
 20
13563.51289
 30
0.0
 11
25761.42987199999
 21
13563.51289
 31
0.0
  0
LINE
  5
4424
  8
SUNPOU
  6
CONTINUOUS
 62
     4
 10
25478.927629000002
 20
13563.51289
 30
0.0
 11
25521.429871999979
 21
13563.51289
 31
0.0
  0
LINE
  5
4425
  8
2-0
  6
CONTINUOUS
 62
     3
 10
23569.927629000002
 20
14492.460974
 30
0.0
 11
23654.927629000002
 21
14492.460974
 31
0.0
  0
LINE
  5
4426
  8
2-0
  6
CONTINUOUS
 62
     3
 10
23654.927629000002
 20
14492.460974
 30
0.0
 11
23654.927629000002
 21
14577.460974
 31
0.0
  0
LINE
  5
4427
  8
2-0
  6
CONTINUOUS
 62
     3
 10
23654.927629000002
 20
14577.460974
 30
0.0
 11
23569.927629000002
 21
14577.460974
 31
0.0
  0
LINE
  5
4428
  8
2-0
  6
CONTINUOUS
 62
     3
 10
23569.927629000002
 20
14577.460974
 30
0.0
 11
23569.927629000002
 21
14492.460974
 31
0.0
  0
LINE
  5
4429
  8
SUNPOU
  6
CONTINUOUS
 62
     4
 10
25478.927629000002
 20
13829.197539999999
 30
0.0
 11
25478.927629000002
 21
13483.51289
 31
0.0
  0
LINE
  5
442A
  8
SUNPOU
  6
CONTINUOUS
 62
     4
 10
25436.425385999992
 20
14412.463678999989
 30
0.0
 11
25436.425385999992
 21
13483.51289
 31
0.0
  0
LINE
  5
442B
  8
SUNPOU
  6
CONTINUOUS
 62
     4
 10
25478.927629000002
 20
13563.51289
 30
0.0
 11
25718.927629000002
 21
13563.51289
 31
0.0
  0
LINE
  5
442C
  8
SUNPOU
  6
CONTINUOUS
 62
     4
 10
25436.425385999992
 20
13563.51289
 30
0.0
 11
25196.425385999992
 21
13563.51289
 31
0.0
  0
LINE
  5
442D
  8
SUNPOU
  6
CONTINUOUS
 62
     4
 10
25478.927629000002
 20
13563.51289
 30
0.0
 11
25436.425385999992
 21
13563.51289
 31
0.0
  0
LINE
  5
442E
  8
SUNPOU
  6
CONTINUOUS
 62
     4
 10
20343.927629000002
 20
13829.197539999999
 30
0.0
 11
20343.927629000002
 21
13483.51289
 31
0.0
  0
LINE
  5
442F
  8
SUNPOU
  6
CONTINUOUS
 62
     4
 10
20386.429871999979
 20
14412.463678999989
 30
0.0
 11
20386.429871999979
 21
13483.51289
 31
0.0
  0
LINE
  5
4430
  8
SUNPOU
  6
CONTINUOUS
 62
     4
 10
20343.927629000002
 20
13563.51289
 30
0.0
 11
20103.927629000002
 21
13563.51289
 31
0.0
  0
LINE
  5
4431
  8
SUNPOU
  6
CONTINUOUS
 62
     4
 10
20386.429871999979
 20
13563.51289
 30
0.0
 11
20626.429871999979
 21
13563.51289
 31
0.0
  0
LINE
  5
4432
  8
SUNPOU
  6
CONTINUOUS
 62
     4
 10
20343.927629000002
 20
13563.51289
 30
0.0
 11
20386.429871999979
 21
13563.51289
 31
0.0
  0
LINE
  5
4433
  8
SUNPOU
  6
CONTINUOUS
 62
     4
 10
20301.425385999992
 20
14412.463678999989
 30
0.0
 11
20301.425385999992
 21
13083.512889999991
 31
0.0
  0
LINE
  5
4434
  8
SUNPOU
  6
CONTINUOUS
 62
     4
 10
25521.429871999979
 20
14412.463678999989
 30
0.0
 11
25521.429871999979
 21
13083.512889999991
 31
0.0
  0
LINE
  5
4435
  8
SUNPOU
  6
CONTINUOUS
 62
     4
 10
20301.425385999992
 20
13163.512889999991
 30
0.0
 11
25521.429871999979
 21
13163.512889999991
 31
0.0
  0
LINE
  5
4436
  8
SUNPOU
  6
CONTINUOUS
 62
     4
 10
25601.425912999988
 20
14942.460974
 30
0.0
 11
26651.427232999991
 21
14942.460974
 31
0.0
  0
LINE
  5
4437
  8
SUNPOU
  6
CONTINUOUS
 62
     4
 10
26451.427232999991
 20
14534.960974
 30
0.0
 11
26651.427232999991
 21
14534.960974
 31
0.0
  0
LINE
  5
4438
  8
SUNPOU
  6
CONTINUOUS
 62
     4
 10
26571.427232999991
 20
14942.460974
 30
0.0
 11
26571.427232999991
 21
14534.960974
 31
0.0
  0
LINE
  5
4439
  8
SUNPOU
  6
CONTINUOUS
 62
     4
 10
26571.427232999991
 20
14534.960974
 30
0.0
 11
26571.427232999991
 21
13521.62764066666
 31
0.0
  0
LINE
  5
443A
  8
SUNPOU
  6
CONTINUOUS
 62
     4
 10
25601.425912999988
 20
15643.701485500011
 30
0.0
 11
26651.427232999991
 21
15643.701485500011
 31
0.0
  0
LINE
  5
443B
  8
SUNPOU
  6
CONTINUOUS
 62
     4
 10
25601.425912999988
 20
14942.460974
 30
0.0
 11
26651.427232999991
 21
14942.460974
 31
0.0
  0
LINE
  5
443C
  8
SUNPOU
  6
CONTINUOUS
 62
     4
 10
26571.427232999991
 20
15643.701485500011
 30
0.0
 11
26571.427232999991
 21
14942.460974
 31
0.0
  0
LINE
  5
443D
  8
SUNPOU
  6
CONTINUOUS
 62
     4
 10
25601.425912999988
 20
16344.460974
 30
0.0
 11
26651.427232999991
 21
16344.460974
 31
0.0
  0
LINE
  5
443E
  8
SUNPOU
  6
CONTINUOUS
 62
     4
 10
25601.425912999988
 20
15643.701485500011
 30
0.0
 11
26651.427232999991
 21
15643.701485500011
 31
0.0
  0
LINE
  5
443F
  8
SUNPOU
  6
CONTINUOUS
 62
     4
 10
26571.427232999991
 20
16344.460974
 30
0.0
 11
26571.427232999991
 21
15643.701485500011
 31
0.0
  0
LINE
  5
4440
  8
SUNPOU
  6
CONTINUOUS
 62
     4
 10
26451.427232999991
 20
17102.460974000001
 30
0.0
 11
26651.427232999991
 21
17102.460974000001
 31
0.0
  0
LINE
  5
4441
  8
SUNPOU
  6
CONTINUOUS
 62
     4
 10
25601.425912999988
 20
16344.460974
 30
0.0
 11
26651.427232999991
 21
16344.460974
 31
0.0
  0
LINE
  5
4442
  8
SUNPOU
  6
CONTINUOUS
 62
     4
 10
26571.427232999991
 20
17102.460974000001
 30
0.0
 11
26571.427232999991
 21
16344.460974
 31
0.0
  0
LINE
  5
4443
  8
SUNPOU
  6
CONTINUOUS
 62
     4
 10
25601.425912999988
 20
17860.460974000001
 30
0.0
 11
26651.427232999991
 21
17860.460974000001
 31
0.0
  0
LINE
  5
4444
  8
SUNPOU
  6
CONTINUOUS
 62
     4
 10
26451.427232999991
 20
17102.460974000001
 30
0.0
 11
26651.427232999991
 21
17102.460974000001
 31
0.0
  0
LINE
  5
4445
  8
SUNPOU
  6
CONTINUOUS
 62
     4
 10
26571.427232999991
 20
17860.460974000001
 30
0.0
 11
26571.427232999991
 21
17102.460974000001
 31
0.0
  0
LINE
  5
4446
  8
SUNPOU
  6
CONTINUOUS
 62
     4
 10
25601.425912999988
 20
18561.460974000001
 30
0.0
 11
26651.427232999991
 21
18561.460974000001
 31
0.0
  0
LINE
  5
4447
  8
SUNPOU
  6
CONTINUOUS
 62
     4
 10
25601.425912999988
 20
17860.460974000001
 30
0.0
 11
26651.427232999991
 21
17860.460974000001
 31
0.0
  0
LINE
  5
4448
  8
SUNPOU
  6
CONTINUOUS
 62
     4
 10
26571.427232999991
 20
18561.460974000001
 30
0.0
 11
26571.427232999991
 21
17860.460974000001
 31
0.0
  0
LINE
  5
4449
  8
SUNPOU
  6
CONTINUOUS
 62
     4
 10
25601.425912999988
 20
19262.460974000001
 30
0.0
 11
26651.427232999991
 21
19262.460974000001
 31
0.0
  0
LINE
  5
444A
  8
SUNPOU
  6
CONTINUOUS
 62
     4
 10
25601.425912999988
 20
18561.460974000001
 30
0.0
 11
26651.427232999991
 21
18561.460974000001
 31
0.0
  0
LINE
  5
444B
  8
SUNPOU
  6
CONTINUOUS
 62
     4
 10
26571.427232999991
 20
19262.460974000001
 30
0.0
 11
26571.427232999991
 21
18561.460974000001
 31
0.0
  0
LINE
  5
444C
  8
SUNPOU
  6
CONTINUOUS
 62
     4
 10
26451.427232999991
 20
19669.960974000001
 30
0.0
 11
26651.427232999991
 21
19669.960974000001
 31
0.0
  0
LINE
  5
444D
  8
SUNPOU
  6
CONTINUOUS
 62
     4
 10
25601.425912999988
 20
19262.460974000001
 30
0.0
 11
26651.427232999991
 21
19262.460974000001
 31
0.0
  0
LINE
  5
444E
  8
SUNPOU
  6
CONTINUOUS
 62
     4
 10
26571.427232999991
 20
19669.960974000001
 30
0.0
 11
26571.427232999991
 21
19262.460974000001
 31
0.0
  0
LINE
  5
444F
  8
SUNPOU
  6
CONTINUOUS
 62
     4
 10
26451.427232999991
 20
17102.460974000001
 30
0.0
 11
27051.427232999991
 21
17102.460974000001
 31
0.0
  0
LINE
  5
4450
  8
SUNPOU
  6
CONTINUOUS
 62
     4
 10
26451.427232999991
 20
19669.960974000001
 30
0.0
 11
27051.427232999991
 21
19669.960974000001
 31
0.0
  0
LINE
  5
4451
  8
SUNPOU
  6
CONTINUOUS
 62
     4
 10
26971.427232999991
 20
17102.460974000001
 30
0.0
 11
26971.427232999991
 21
19669.960974000001
 31
0.0
  0
LINE
  5
4452
  8
SUNPOU
  6
CONTINUOUS
 62
     4
 10
26451.427232999991
 20
14534.960974
 30
0.0
 11
27051.427232999991
 21
14534.960974
 31
0.0
  0
LINE
  5
4453
  8
SUNPOU
  6
CONTINUOUS
 62
     4
 10
26451.427232999991
 20
17102.460974000001
 30
0.0
 11
27051.427232999991
 21
17102.460974000001
 31
0.0
  0
LINE
  5
4454
  8
SUNPOU
  6
CONTINUOUS
 62
     4
 10
26971.427232999991
 20
14534.960974
 30
0.0
 11
26971.427232999991
 21
17102.460974000001
 31
0.0
  0
LINE
  5
4455
  8
SUNPOU
  6
CONTINUOUS
 62
     4
 10
25601.425912999988
 20
19712.458268999992
 30
0.0
 11
27451.427232999991
 21
19712.458268999992
 31
0.0
  0
LINE
  5
4456
  8
SUNPOU
  6
CONTINUOUS
 62
     4
 10
25601.425912999988
 20
14492.463678999989
 30
0.0
 11
27451.427232999991
 21
14492.463678999989
 31
0.0
  0
LINE
  5
4457
  8
SUNPOU
  6
CONTINUOUS
 62
     4
 10
27371.427232999991
 20
19712.458268999992
 30
0.0
 11
27371.427232999991
 21
14492.463678999989
 31
0.0
  0
LINE
  5
4458
  8
SUNPOU
  6
CONTINUOUS
 62
     4
 10
26451.427232999991
 20
19669.960974000001
 30
0.0
 11
27051.427232999991
 21
19669.960974000001
 31
0.0
  0
LINE
  5
4459
  8
SUNPOU
  6
CONTINUOUS
 62
     4
 10
25601.425912999988
 20
19712.458268999992
 30
0.0
 11
27051.427232999991
 21
19712.458268999992
 31
0.0
  0
LINE
  5
445A
  8
SUNPOU
  6
CONTINUOUS
 62
     4
 10
26971.427232999991
 20
19669.960974000001
 30
0.0
 11
26971.427232999991
 21
19429.960974000001
 31
0.0
  0
LINE
  5
445B
  8
SUNPOU
  6
CONTINUOUS
 62
     4
 10
26971.427232999991
 20
19712.458268999992
 30
0.0
 11
26971.427232999991
 21
19952.458268999992
 31
0.0
  0
LINE
  5
445C
  8
SUNPOU
  6
CONTINUOUS
 62
     4
 10
26971.427232999991
 20
19669.960974000001
 30
0.0
 11
26971.427232999991
 21
19712.458268999992
 31
0.0
  0
LINE
  5
445D
  8
SUNPOU
  6
CONTINUOUS
 62
     4
 10
26451.427232999991
 20
14534.960974
 30
0.0
 11
27051.427232999991
 21
14534.960974
 31
0.0
  0
LINE
  5
445E
  8
SUNPOU
  6
CONTINUOUS
 62
     4
 10
25601.425912999988
 20
14492.463678999989
 30
0.0
 11
27051.427232999991
 21
14492.463678999989
 31
0.0
  0
LINE
  5
445F
  8
SUNPOU
  6
CONTINUOUS
 62
     4
 10
26971.427232999991
 20
14534.960974
 30
0.0
 11
26971.427232999991
 21
14774.960974
 31
0.0
  0
LINE
  5
4460
  8
SUNPOU
  6
CONTINUOUS
 62
     4
 10
26971.427232999991
 20
14492.463678999989
 30
0.0
 11
26971.427232999991
 21
14252.463678999989
 31
0.0
  0
LINE
  5
4461
  8
SUNPOU
  6
CONTINUOUS
 62
     4
 10
26971.427232999991
 20
14534.960974
 30
0.0
 11
26971.427232999991
 21
14492.463678999989
 31
0.0
  0
LINE
  5
4462
  8
SUNPOU
  6
CONTINUOUS
 62
     4
 10
23612.427629000002
 20
19792.459259000021
 30
0.0
 11
23612.427629000002
 21
20522.462162000022
 31
0.0
  0
LINE
  5
4463
  8
SUNPOU
  6
CONTINUOUS
 62
     4
 10
24019.927629000002
 20
19792.459259000021
 30
0.0
 11
24019.927629000002
 21
20522.462162000022
 31
0.0
  0
LINE
  5
4464
  8
SUNPOU
  6
CONTINUOUS
 62
     4
 10
23612.427629000002
 20
20442.462162000022
 30
0.0
 11
24019.927629000002
 21
20442.462162000022
 31
0.0
  0
LINE
  5
4465
  8
SUNPOU
  6
CONTINUOUS
 62
     4
 10
24720.927629000002
 20
19792.459259000021
 30
0.0
 11
24720.927629000002
 21
20522.462162000022
 31
0.0
  0
LINE
  5
4466
  8
SUNPOU
  6
CONTINUOUS
 62
     4
 10
25478.928618500009
 20
19792.459259000021
 30
0.0
 11
25478.928618500009
 21
20522.462162000022
 31
0.0
  0
LINE
  5
4467
  8
SUNPOU
  6
CONTINUOUS
 62
     4
 10
24720.927629000002
 20
20442.462162000022
 30
0.0
 11
25478.928618500009
 21
20442.462162000022
 31
0.0
  0
LINE
  5
4468
  8
SUNPOU
  6
CONTINUOUS
 62
     4
 10
24019.927629000002
 20
19792.459259000021
 30
0.0
 11
24019.927629000002
 21
20522.462162000022
 31
0.0
  0
LINE
  5
4469
  8
SUNPOU
  6
CONTINUOUS
 62
     4
 10
24720.927629000002
 20
19792.459259000021
 30
0.0
 11
24720.927629000002
 21
20522.462162000022
 31
0.0
  0
LINE
  5
446A
  8
SUNPOU
  6
CONTINUOUS
 62
     4
 10
24019.927629000002
 20
20442.462162000022
 30
0.0
 11
24720.927629000002
 21
20442.462162000022
 31
0.0
  0
LINE
  5
446B
  8
SUNPOU
  6
CONTINUOUS
 62
     4
 10
25478.927629000002
 20
19792.459259000021
 30
0.0
 11
25478.927629000002
 21
20522.462162000022
 31
0.0
  0
LINE
  5
446C
  8
SUNPOU
  6
CONTINUOUS
 62
     4
 10
25521.423933999991
 20
19792.459259000021
 30
0.0
 11
25521.423933999991
 21
20522.462162000022
 31
0.0
  0
LINE
  5
446D
  8
SUNPOU
  6
CONTINUOUS
 62
     4
 10
25478.927629000002
 20
20442.462162000022
 30
0.0
 11
25238.927629000002
 21
20442.462162000022
 31
0.0
  0
LINE
  5
446E
  8
SUNPOU
  6
CONTINUOUS
 62
     4
 10
25521.423933999991
 20
20442.462162000022
 30
0.0
 11
25761.423933999991
 21
20442.462162000022
 31
0.0
  0
LINE
  5
446F
  8
SUNPOU
  6
CONTINUOUS
 62
     4
 10
25478.927629000002
 20
20442.462162000022
 30
0.0
 11
25521.423933999991
 21
20442.462162000022
 31
0.0
  0
LINE
  5
4470
  8
SUNPOU
  6
CONTINUOUS
 62
     4
 10
20343.927629000002
 20
19792.459259000021
 30
0.0
 11
20343.927629000002
 21
20522.462162000022
 31
0.0
  0
LINE
  5
4471
  8
SUNPOU
  6
CONTINUOUS
 62
     4
 10
20751.427629000002
 20
19792.459259000021
 30
0.0
 11
20751.427629000002
 21
20522.462162000022
 31
0.0
  0
LINE
  5
4472
  8
SUNPOU
  6
CONTINUOUS
 62
     4
 10
20343.927629000002
 20
20442.462162000022
 30
0.0
 11
20751.427629000002
 21
20442.462162000022
 31
0.0
  0
LINE
  5
4473
  8
SUNPOU
  6
CONTINUOUS
 62
     4
 10
20343.927629000002
 20
19792.459259000021
 30
0.0
 11
20343.927629000002
 21
20522.462162000022
 31
0.0
  0
LINE
  5
4474
  8
SUNPOU
  6
CONTINUOUS
 62
     4
 10
20301.43132399999
 20
19792.459259000021
 30
0.0
 11
20301.43132399999
 21
20522.462162000022
 31
0.0
  0
LINE
  5
4475
  8
SUNPOU
  6
CONTINUOUS
 62
     4
 10
20343.927629000002
 20
20442.462162000022
 30
0.0
 11
20583.927629000002
 21
20442.462162000022
 31
0.0
  0
LINE
  5
4476
  8
SUNPOU
  6
CONTINUOUS
 62
     4
 10
20301.43132399999
 20
20442.462162000022
 30
0.0
 11
20061.43132399999
 21
20442.462162000022
 31
0.0
  0
LINE
  5
4477
  8
SUNPOU
  6
CONTINUOUS
 62
     4
 10
20343.927629000002
 20
20442.462162000022
 30
0.0
 11
20301.43132399999
 21
20442.462162000022
 31
0.0
  0
LINE
  5
4478
  8
SUNPOU
  6
CONTINUOUS
 62
     4
 10
22854.427629000002
 20
19792.459259000021
 30
0.0
 11
22854.427629000002
 21
20522.462162000022
 31
0.0
  0
LINE
  5
4479
  8
SUNPOU
  6
CONTINUOUS
 62
     4
 10
23612.428618499998
 20
19792.459259000021
 30
0.0
 11
23612.428618499998
 21
20522.462162000022
 31
0.0
  0
LINE
  5
447A
  8
SUNPOU
  6
CONTINUOUS
 62
     4
 10
22854.427629000002
 20
20442.462162000022
 30
0.0
 11
23612.428618499998
 21
20442.462162000022
 31
0.0
  0
LINE
  5
447B
  8
SUNPOU
  6
CONTINUOUS
 62
     4
 10
22153.427629000002
 20
19792.459259000021
 30
0.0
 11
22153.427629000002
 21
20522.462162000022
 31
0.0
  0
LINE
  5
447C
  8
SUNPOU
  6
CONTINUOUS
 62
     4
 10
22854.427629000002
 20
19792.459259000021
 30
0.0
 11
22854.427629000002
 21
20522.462162000022
 31
0.0
  0
LINE
  5
447D
  8
SUNPOU
  6
CONTINUOUS
 62
     4
 10
22153.427629000002
 20
20442.462162000022
 30
0.0
 11
22854.427629000002
 21
20442.462162000022
 31
0.0
  0
LINE
  5
447E
  8
SUNPOU
  6
CONTINUOUS
 62
     4
 10
21452.427629000002
 20
19792.459259000021
 30
0.0
 11
21452.427629000002
 21
20522.462162000022
 31
0.0
  0
LINE
  5
447F
  8
SUNPOU
  6
CONTINUOUS
 62
     4
 10
22153.427629000002
 20
19792.459259000021
 30
0.0
 11
22153.427629000002
 21
20522.462162000022
 31
0.0
  0
LINE
  5
4480
  8
SUNPOU
  6
CONTINUOUS
 62
     4
 10
21452.427629000002
 20
20442.462162000022
 30
0.0
 11
22153.427629000002
 21
20442.462162000022
 31
0.0
  0
LINE
  5
4481
  8
SUNPOU
  6
CONTINUOUS
 62
     4
 10
20751.427629000002
 20
19792.459259000021
 30
0.0
 11
20751.427629000002
 21
20522.462162000022
 31
0.0
  0
LINE
  5
4482
  8
SUNPOU
  6
CONTINUOUS
 62
     4
 10
21452.427629000002
 20
19792.459259000021
 30
0.0
 11
21452.427629000002
 21
20522.462162000022
 31
0.0
  0
LINE
  5
4483
  8
SUNPOU
  6
CONTINUOUS
 62
     4
 10
20751.427629000002
 20
20442.462162000022
 30
0.0
 11
21452.427629000002
 21
20442.462162000022
 31
0.0
  0
TEXT
  5
4484
  8
0
  6
CONTINUOUS
 62
     7
 10
20928.594295666651
 20
20202.462162000022
 30
0.0
 40
160.0
  1
701
  0
TEXT
  5
4485
  8
0
  6
CONTINUOUS
 62
     7
 10
21629.594295666651
 20
20522.462162000022
 30
0.0
 40
160.0
  1
701
  0
TEXT
  5
4486
  8
0
  6
CONTINUOUS
 62
     7
 10
22330.594295666669
 20
20522.462162000022
 30
0.0
 40
160.0
  1
701
  0
TEXT
  5
4487
  8
0
  6
CONTINUOUS
 62
     7
 10
23020.094790416671
 20
20522.462162000022
 30
0.0
 40
160.0
  1
758
  0
TEXT
  5
4488
  8
0
  6
CONTINUOUS
 62
     7
 10
19741.11564947119
 20
20522.462162000022
 30
0.0
 40
160.0
  1
42.5
  0
TEXT
  5
4489
  8
0
  6
CONTINUOUS
 62
     7
 10
20444.76096233333
 20
20522.462162000022
 30
0.0
 40
160.0
  1
407.5
  0
TEXT
  5
448A
  8
0
  6
CONTINUOUS
 62
     7
 10
25601.739608528791
 20
20522.462162000022
 30
0.0
 40
160.0
  1
42.5
  0
TEXT
  5
448B
  8
0
  6
CONTINUOUS
 62
     7
 10
24197.094295666669
 20
20202.462162000022
 30
0.0
 40
160.0
  1
701
  0
TEXT
  5
448C
  8
0
  6
CONTINUOUS
 62
     7
 10
24886.594790416671
 20
20522.462162000022
 30
0.0
 40
160.0
  1
758
  0
TEXT
  5
448D
  8
0
  6
CONTINUOUS
 62
     7
 10
23713.26096233333
 20
20522.462162000022
 30
0.0
 40
160.0
  1
407.5
  0
TEXT
  5
448E
  8
0
  6
CONTINUOUS
 62
     7
 10
26891.427232999991
 20
13918.9074426032
 30
0.0
 40
160.0
  1
42.5
 50
90.0
  0
TEXT
  5
448F
  8
0
  6
CONTINUOUS
 62
     7
 10
26891.427232999991
 20
19806.01450539679
 30
0.0
 40
160.0
  1
42.5
 50
90.0
  0
TEXT
  5
4490
  8
0
  6
CONTINUOUS
 62
     7
 10
27291.427232999991
 20
16822.460974000001
 30
0.0
 40
160.0
  1
5220
 50
90.0
  0
TEXT
  5
4491
  8
0
  6
CONTINUOUS
 62
     7
 10
26891.427232999991
 20
15418.710974
 30
0.0
 40
160.0
  1
2567.5
 50
90.0
  0
TEXT
  5
4492
  8
0
  6
CONTINUOUS
 62
     7
 10
26891.427232999991
 20
17986.210974000001
 30
0.0
 40
160.0
  1
2567.5
 50
90.0
  0
TEXT
  5
4493
  8
0
  6
CONTINUOUS
 62
     7
 10
26484.752070035
 20
19774.919031987869
 30
0.0
 40
160.0
  1
407.5
 50
90.0
  0
TEXT
  5
4494
  8
0
  6
CONTINUOUS
 62
     7
 10
26491.427232999991
 20
18738.62764066668
 30
0.0
 40
160.0
  1
701
 50
90.0
  0
TEXT
  5
4495
  8
0
  6
CONTINUOUS
 62
     7
 10
26491.427232999991
 20
18037.62764066668
 30
0.0
 40
160.0
  1
701
 50
90.0
  0
TEXT
  5
4496
  8
0
  6
CONTINUOUS
 62
     7
 10
26491.427232999991
 20
17268.127640666651
 30
0.0
 40
160.0
  1
758
 50
90.0
  0
TEXT
  5
4497
  8
0
  6
CONTINUOUS
 62
     7
 10
26491.427232999991
 20
16510.127640666651
 30
0.0
 40
160.0
  1
758
 50
90.0
  0
TEXT
  5
4498
  8
0
  6
CONTINUOUS
 62
     7
 10
26491.427232999991
 20
15820.74789641668
 30
0.0
 40
160.0
  1
701
 50
90.0
  0
TEXT
  5
4499
  8
0
  6
CONTINUOUS
 62
     7
 10
26491.427232999991
 20
15119.74789641668
 30
0.0
 40
160.0
  1
701
 50
90.0
  0
TEXT
  5
449A
  8
0
  6
CONTINUOUS
 62
     7
 10
26491.427232999991
 20
13601.62764066666
 30
0.0
 40
160.0
  1
407.5
 50
90.0
  0
TEXT
  5
449B
  8
0
  6
CONTINUOUS
 62
     7
 10
22631.427629000002
 20
13243.512889999991
 30
0.0
 40
160.0
  1
5220
  0
TEXT
  5
449C
  8
0
  6
CONTINUOUS
 62
     7
 10
20461.981301382079
 20
13643.51289
 30
0.0
 40
160.0
  1
42.5
  0
TEXT
  5
449D
  8
0
  6
CONTINUOUS
 62
     7
 10
24880.873956617888
 20
13643.51289
 30
0.0
 40
160.0
  1
42.5
  0
TEXT
  5
449E
  8
0
  6
CONTINUOUS
 62
     7
 10
25596.981301382071
 20
13643.51289
 30
0.0
 40
160.0
  1
42.5
  0
TEXT
  5
449F
  8
0
  6
CONTINUOUS
 62
     7
 10
19745.873956617888
 20
13643.51289
 30
0.0
 40
160.0
  1
42.5
  0
TEXT
  5
44A0
  8
0
  6
CONTINUOUS
 62
     7
 10
19334.47305199999
 20
14755.99789641666
 30
0.0
 40
160.0
  1
1108.5
 50
90.0
  0
TEXT
  5
44A1
  8
0
  6
CONTINUOUS
 62
     7
 10
19334.47305199999
 20
16106.41456308333
 30
0.0
 40
160.0
  1
1459
 50
90.0
  0
TEXT
  5
44A2
  8
0
  6
CONTINUOUS
 62
     7
 10
19334.47305199999
 20
17565.294307333341
 30
0.0
 40
160.0
  1
1459
 50
90.0
  0
TEXT
  5
44A3
  8
0
  6
CONTINUOUS
 62
     7
 10
19334.47305199999
 20
18782.377640666658
 30
0.0
 40
160.0
  1
1108.5
 50
90.0
  0
TEXT
  5
44A4
  8
0
  6
CONTINUOUS
 62
     7
 10
19413.92828799997
 20
6505.4345172912717
 30
0.0
 40
160.0
  1
有効開口高サ 1891.5
 50
90.0
  0
TEXT
  5
44A5
  8
0
  6
CONTINUOUS
 62
     7
 10
19013.925978999981
 20
6810.6219456666686
 30
0.0
 40
160.0
  1
2349（2589）
 50
90.0
  0
TEXT
  5
44AA
  8
0
  6
CONTINUOUS
 62
     7
 10
21076.84429466664
 20
5621.4554440000002
 30
0.0
 40
160.0
  1
有効開口巾 3080.5
  0
TEXT
  5
44AB
  8
0
  6
CONTINUOUS
 62
     7
 10
24081.677627999969
 20
5888.1221106666671
 30
0.0
 40
160.0
  1
有効開口巾
  0
TEXT
  5
44AC
  8
0
  6
CONTINUOUS
 62
     7
 10
24124.344294666651
 20
5621.4554440000002
 30
0.0
 40
160.0
  1
 1678.5
  0
TEXT
  5
44AD
  8
0
  6
CONTINUOUS
 62
     7
 10
24172.344294666651
 20
5221.4554440000002
 30
0.0
 40
160.0
  1
1866.5
  0
TEXT
  5
44AE
  8
0
  6
CONTINUOUS
 62
     7
 10
21578.177627999969
 20
5221.4554440000002
 30
0.0
 40
160.0
  1
3268.5
  0
TEXT
  5
44AF
  8
0
  6
CONTINUOUS
 62
     7
 10
25607.470577258831
 20
5221.4554440000002
 30
0.0
 40
160.0
  1
42.5
  0
TEXT
  5
44B0
  8
0
  6
CONTINUOUS
 62
     7
 10
19735.388637741122
 20
5221.4554440000002
 30
0.0
 40
160.0
  1
42.5
  0
TEXT
  5
44B1
  8
0
  6
CONTINUOUS
 62
     7
 10
22631.427627999969
 20
4821.4556089999978
 30
0.0
 40
160.0
  1
5220
  0
TEXT
  5
44B2
  8
0
  6
CONTINUOUS
 62
     7
 10
8475.2599629999968
 20
13727.00796370263
 30
0.0
 40
160.0
  1
192.5
 50
90.0
  0
TEXT
  5
44B3
  8
0
  6
CONTINUOUS
 62
     7
 10
8475.2599630000022
 20
14755.87764066666
 30
0.0
 40
160.0
  1
1108.5
 50
90.0
  0
TEXT
  5
44B4
  8
0
  6
CONTINUOUS
 62
     7
 10
8475.2599630000022
 20
16106.29430733333
 30
0.0
 40
160.0
  1
1459
 50
90.0
  0
TEXT
  5
44B5
  8
0
  6
CONTINUOUS
 62
     7
 10
8475.2599630000022
 20
17565.294307333341
 30
0.0
 40
160.0
  1
1459
 50
90.0
  0
TEXT
  5
44B6
  8
0
  6
CONTINUOUS
 62
     7
 10
8475.2599630000022
 20
18782.377640666658
 30
0.0
 40
160.0
  1
1108.5
 50
90.0
  0
TEXT
  5
44B7
  8
0
  6
CONTINUOUS
 62
     7
 10
8475.2599629999968
 20
19981.416158807679
 30
0.0
 40
160.0
  1
222.5
 50
90.0
  0
TEXT
  5
44B8
  8
0
  6
CONTINUOUS
 62
     7
 10
8875.2599630000022
 20
20012.456883000021
 30
0.0
 40
160.0
  1
20
 50
90.0
  0
TEXT
  5
44B9
  8
0
  6
CONTINUOUS
 62
     7
 10
10719.009738999999
 20
20522.462162000022
 30
0.0
 40
160.0
  1
3268.5
  0
TEXT
  5
44BA
  8
0
  6
CONTINUOUS
 62
     7
 10
8868.2630329767399
 20
20522.462162000022
 30
0.0
 40
160.0
  1
85.5
  0
TEXT
  5
44BB
  8
0
  6
CONTINUOUS
 62
     7
 10
13313.17640566666
 20
20522.462162000022
 30
0.0
 40
160.0
  1
1866.5
  0
TEXT
  5
44BC
  8
0
  6
CONTINUOUS
 62
     7
 10
14756.256445023249
 20
20522.462162000022
 30
0.0
 40
160.0
  1
85.5
  0
ARC
  5
44C2
  8
0
  6
BYBLOCK
 62
     0
 10
14619.759738999999
 20
20442.462162000022
 30
0.0
 40
15.0
 50
180.0
 51
0.0
  0
ARC
  5
44C3
  8
0
  6
BYBLOCK
 62
     0
 10
14619.759738999999
 20
20442.462162000022
 30
0.0
 40
15.0
 50
0.0
 51
180.0
  0
ARC
  5
44C4
  8
0
  6
BYBLOCK
 62
     0
 10
14705.259738999999
 20
20442.462162000022
 30
0.0
 40
15.0
 50
0.0
 51
180.0
  0
ARC
  5
44C5
  8
0
  6
BYBLOCK
 62
     0
 10
14705.259738999999
 20
20442.462162000022
 30
0.0
 40
15.0
 50
180.0
 51
0.0
  0
ARC
  5
44C6
  8
0
  6
BYBLOCK
 62
     0
 10
12753.259738999999
 20
20442.462162000022
 30
0.0
 40
15.0
 50
0.0
 51
180.0
  0
ARC
  5
44C7
  8
0
  6
BYBLOCK
 62
     0
 10
12753.259738999999
 20
20442.462162000022
 30
0.0
 40
15.0
 50
180.0
 51
0.0
  0
ARC
  5
44C8
  8
0
  6
BYBLOCK
 62
     0
 10
14619.759738999999
 20
20442.462162000022
 30
0.0
 40
15.0
 50
180.0
 51
0.0
  0
ARC
  5
44C9
  8
0
  6
BYBLOCK
 62
     0
 10
14619.759738999999
 20
20442.462162000022
 30
0.0
 40
15.0
 50
0.0
 51
180.0
  0
ARC
  5
44CA
  8
0
  6
BYBLOCK
 62
     0
 10
9484.7597390000028
 20
20442.462162000022
 30
0.0
 40
15.0
 50
0.0
 51
180.0
  0
ARC
  5
44CB
  8
0
  6
BYBLOCK
 62
     0
 10
9484.7597390000028
 20
20442.462162000022
 30
0.0
 40
15.0
 50
180.0
 51
0.0
  0
ARC
  5
44CC
  8
0
  6
BYBLOCK
 62
     0
 10
9399.2597389999992
 20
20442.462162000022
 30
0.0
 40
15.0
 50
180.0
 51
0.0
  0
ARC
  5
44CD
  8
0
  6
BYBLOCK
 62
     0
 10
9399.2597389999992
 20
20442.462162000022
 30
0.0
 40
15.0
 50
0.0
 51
180.0
  0
ARC
  5
44CE
  8
0
  6
BYBLOCK
 62
     0
 10
12753.259738999999
 20
20442.462162000022
 30
0.0
 40
15.0
 50
180.0
 51
0.0
  0
ARC
  5
44CF
  8
0
  6
BYBLOCK
 62
     0
 10
12753.259738999999
 20
20442.462162000022
 30
0.0
 40
15.0
 50
0.0
 51
180.0
  0
ARC
  5
44D0
  8
0
  6
BYBLOCK
 62
     0
 10
9484.7597390000028
 20
20442.462162000022
 30
0.0
 40
15.0
 50
0.0
 51
180.0
  0
ARC
  5
44D1
  8
0
  6
BYBLOCK
 62
     0
 10
9484.7597390000028
 20
20442.462162000022
 30
0.0
 40
15.0
 50
180.0
 51
0.0
  0
ARC
  5
44D2
  8
0
  6
BYBLOCK
 62
     0
 10
8955.2599630000004
 20
19872.456883000021
 30
0.0
 40
15.0
 50
270.0
 51
90.0
  0
ARC
  5
44D3
  8
0
  6
BYBLOCK
 62
     0
 10
8955.2599630000004
 20
19872.456883000021
 30
0.0
 40
15.0
 50
90.0
 51
270.0
  0
ARC
  5
44D4
  8
0
  6
BYBLOCK
 62
     0
 10
8955.2599630000004
 20
19892.456883000021
 30
0.0
 40
15.0
 50
90.0
 51
270.0
  0
ARC
  5
44D5
  8
0
  6
BYBLOCK
 62
     0
 10
8955.2599630000004
 20
19892.456883000021
 30
0.0
 40
15.0
 50
270.0
 51
90.0
  0
ARC
  5
44D6
  8
0
  6
BYBLOCK
 62
     0
 10
8555.2599630000022
 20
19669.960974000001
 30
0.0
 40
15.0
 50
90.0
 51
270.0
  0
ARC
  5
44D7
  8
0
  6
BYBLOCK
 62
     0
 10
8555.2599630000022
 20
19669.960974000001
 30
0.0
 40
15.0
 50
270.0
 51
90.0
  0
ARC
  5
44D8
  8
0
  6
BYBLOCK
 62
     0
 10
8555.2599630000022
 20
19892.456883000021
 30
0.0
 40
15.0
 50
270.0
 51
90.0
  0
ARC
  5
44D9
  8
0
  6
BYBLOCK
 62
     0
 10
8555.2599630000022
 20
19892.456883000021
 30
0.0
 40
15.0
 50
90.0
 51
270.0
  0
ARC
  5
44DA
  8
0
  6
BYBLOCK
 62
     0
 10
8555.2599630000022
 20
18561.460974000001
 30
0.0
 40
15.0
 50
90.0
 51
270.0
  0
ARC
  5
44DB
  8
0
  6
BYBLOCK
 62
     0
 10
8555.2599630000022
 20
18561.460974000001
 30
0.0
 40
15.0
 50
270.0
 51
90.0
  0
ARC
  5
44DC
  8
0
  6
BYBLOCK
 62
     0
 10
8555.2599630000022
 20
19669.960974000001
 30
0.0
 40
15.0
 50
270.0
 51
90.0
  0
ARC
  5
44DD
  8
0
  6
BYBLOCK
 62
     0
 10
8555.2599630000022
 20
19669.960974000001
 30
0.0
 40
15.0
 50
90.0
 51
270.0
  0
ARC
  5
44DE
  8
0
  6
BYBLOCK
 62
     0
 10
8555.2599630000022
 20
17102.460974000001
 30
0.0
 40
15.0
 50
90.0
 51
270.0
  0
ARC
  5
44DF
  8
0
  6
BYBLOCK
 62
     0
 10
8555.2599630000022
 20
17102.460974000001
 30
0.0
 40
15.0
 50
270.0
 51
90.0
  0
ARC
  5
44E0
  8
0
  6
BYBLOCK
 62
     0
 10
8555.2599630000022
 20
18561.460974000001
 30
0.0
 40
15.0
 50
270.0
 51
90.0
  0
ARC
  5
44E1
  8
0
  6
BYBLOCK
 62
     0
 10
8555.2599630000022
 20
18561.460974000001
 30
0.0
 40
15.0
 50
90.0
 51
270.0
  0
ARC
  5
44E2
  8
0
  6
BYBLOCK
 62
     0
 10
8555.2599630000022
 20
15643.460974
 30
0.0
 40
15.0
 50
90.0
 51
270.0
  0
ARC
  5
44E3
  8
0
  6
BYBLOCK
 62
     0
 10
8555.2599630000022
 20
15643.460974
 30
0.0
 40
15.0
 50
270.0
 51
90.0
  0
ARC
  5
44E4
  8
0
  6
BYBLOCK
 62
     0
 10
8555.2599630000022
 20
17102.460974000001
 30
0.0
 40
15.0
 50
270.0
 51
90.0
  0
ARC
  5
44E5
  8
0
  6
BYBLOCK
 62
     0
 10
8555.2599630000022
 20
17102.460974000001
 30
0.0
 40
15.0
 50
90.0
 51
270.0
  0
ARC
  5
44E6
  8
0
  6
BYBLOCK
 62
     0
 10
8555.2599630000022
 20
14534.960974
 30
0.0
 40
15.0
 50
90.0
 51
270.0
  0
ARC
  5
44E7
  8
0
  6
BYBLOCK
 62
     0
 10
8555.2599630000022
 20
14534.960974
 30
0.0
 40
15.0
 50
270.0
 51
90.0
  0
ARC
  5
44E8
  8
0
  6
BYBLOCK
 62
     0
 10
8555.2599630000022
 20
15643.460974
 30
0.0
 40
15.0
 50
270.0
 51
90.0
  0
ARC
  5
44E9
  8
0
  6
BYBLOCK
 62
     0
 10
8555.2599630000022
 20
15643.460974
 30
0.0
 40
15.0
 50
90.0
 51
270.0
  0
ARC
  5
44EA
  8
0
  6
BYBLOCK
 62
     0
 10
8555.2599630000022
 20
14534.960974
 30
0.0
 40
15.0
 50
270.0
 51
90.0
  0
ARC
  5
44EB
  8
0
  6
BYBLOCK
 62
     0
 10
8555.2599630000022
 20
14534.960974
 30
0.0
 40
15.0
 50
90.0
 51
270.0
  0
ARC
  5
44EC
  8
0
  6
BYBLOCK
 62
     0
 10
8555.2599630000022
 20
14342.465659
 30
0.0
 40
15.0
 50
90.0
 51
270.0
  0
ARC
  5
44ED
  8
0
  6
BYBLOCK
 62
     0
 10
8555.2599630000022
 20
14342.465659
 30
0.0
 40
15.0
 50
270.0
 51
90.0
  0
ARC
  5
44EE
  8
0
  6
BYBLOCK
 62
     0
 10
20301.427627999969
 20
4741.4556089999978
 30
0.0
 40
15.0
 50
0.0
 51
180.0
  0
ARC
  5
44EF
  8
0
  6
BYBLOCK
 62
     0
 10
20301.427627999969
 20
4741.4556089999978
 30
0.0
 40
15.0
 50
180.0
 51
0.0
  0
ARC
  5
44F0
  8
0
  6
BYBLOCK
 62
     0
 10
25521.42762799999
 20
4741.4556089999978
 30
0.0
 40
15.0
 50
180.0
 51
0.0
  0
ARC
  5
44F1
  8
0
  6
BYBLOCK
 62
     0
 10
25521.42762799999
 20
4741.4556089999978
 30
0.0
 40
15.0
 50
0.0
 51
180.0
  0
ARC
  5
44F2
  8
0
  6
BYBLOCK
 62
     0
 10
20343.927627999969
 20
5141.4554440000002
 30
0.0
 40
15.0
 50
0.0
 51
180.0
  0
ARC
  5
44F3
  8
0
  6
BYBLOCK
 62
     0
 10
20343.927627999969
 20
5141.4554440000002
 30
0.0
 40
15.0
 50
180.0
 51
0.0
  0
ARC
  5
44F4
  8
0
  6
BYBLOCK
 62
     0
 10
20301.427627999969
 20
5141.4554440000002
 30
0.0
 40
15.0
 50
180.0
 51
0.0
  0
ARC
  5
44F5
  8
0
  6
BYBLOCK
 62
     0
 10
20301.427627999969
 20
5141.4554440000002
 30
0.0
 40
15.0
 50
0.0
 51
180.0
  0
ARC
  5
44F6
  8
0
  6
BYBLOCK
 62
     0
 10
25478.931586999988
 20
5141.4554440000002
 30
0.0
 40
15.0
 50
180.0
 51
0.0
  0
ARC
  5
44F7
  8
0
  6
BYBLOCK
 62
     0
 10
25478.931586999988
 20
5141.4554440000002
 30
0.0
 40
15.0
 50
0.0
 51
180.0
  0
ARC
  5
44F8
  8
0
  6
BYBLOCK
 62
     0
 10
25521.431586999988
 20
5141.4554440000002
 30
0.0
 40
15.0
 50
0.0
 51
180.0
  0
ARC
  5
44F9
  8
0
  6
BYBLOCK
 62
     0
 10
25521.431586999988
 20
5141.4554440000002
 30
0.0
 40
15.0
 50
180.0
 51
0.0
  0
ARC
  5
44FA
  8
0
  6
BYBLOCK
 62
     0
 10
20343.927627999969
 20
5141.4554440000002
 30
0.0
 40
15.0
 50
0.0
 51
180.0
  0
ARC
  5
44FB
  8
0
  6
BYBLOCK
 62
     0
 10
20343.927627999969
 20
5141.4554440000002
 30
0.0
 40
15.0
 50
180.0
 51
0.0
  0
ARC
  5
44FC
  8
0
  6
BYBLOCK
 62
     0
 10
23612.42762799999
 20
5141.4554440000002
 30
0.0
 40
15.0
 50
180.0
 51
0.0
  0
ARC
  5
44FD
  8
0
  6
BYBLOCK
 62
     0
 10
23612.42762799999
 20
5141.4554440000002
 30
0.0
 40
15.0
 50
0.0
 51
180.0
  0
ARC
  5
44FE
  8
0
  6
BYBLOCK
 62
     0
 10
23612.42762799999
 20
5141.4554440000002
 30
0.0
 40
15.0
 50
0.0
 51
180.0
  0
ARC
  5
44FF
  8
0
  6
BYBLOCK
 62
     0
 10
23612.42762799999
 20
5141.4554440000002
 30
0.0
 40
15.0
 50
180.0
 51
0.0
  0
ARC
  5
4500
  8
0
  6
BYBLOCK
 62
     0
 10
25478.927627999969
 20
5141.4554440000002
 30
0.0
 40
15.0
 50
180.0
 51
0.0
  0
ARC
  5
4501
  8
0
  6
BYBLOCK
 62
     0
 10
25478.927627999969
 20
5141.4554440000002
 30
0.0
 40
15.0
 50
0.0
 51
180.0
  0
ARC
  5
4502
  8
0
  6
BYBLOCK
 62
     0
 10
23706.427627999961
 20
5541.4554440000002
 30
0.0
 40
15.0
 50
0.0
 51
180.0
  0
ARC
  5
4503
  8
0
  6
BYBLOCK
 62
     0
 10
23706.427627999961
 20
5541.4554440000002
 30
0.0
 40
15.0
 50
180.0
 51
0.0
  0
ARC
  5
4504
  8
0
  6
BYBLOCK
 62
     0
 10
25384.927627999969
 20
5541.4554440000002
 30
0.0
 40
15.0
 50
180.0
 51
0.0
  0
ARC
  5
4505
  8
0
  6
BYBLOCK
 62
     0
 10
25384.927627999969
 20
5541.4554440000002
 30
0.0
 40
15.0
 50
0.0
 51
180.0
  0
ARC
  5
4506
  8
0
  6
BYBLOCK
 62
     0
 10
20437.927627999969
 20
5541.4554440000002
 30
0.0
 40
15.0
 50
0.0
 51
180.0
  0
ARC
  5
4507
  8
0
  6
BYBLOCK
 62
     0
 10
20437.927627999969
 20
5541.4554440000002
 30
0.0
 40
15.0
 50
180.0
 51
0.0
  0
ARC
  5
4508
  8
0
  6
BYBLOCK
 62
     0
 10
23518.427627999969
 20
5541.4554440000002
 30
0.0
 40
15.0
 50
180.0
 51
0.0
  0
ARC
  5
4509
  8
0
  6
BYBLOCK
 62
     0
 10
23518.427627999969
 20
5541.4554440000002
 30
0.0
 40
15.0
 50
0.0
 51
180.0
  0
ARC
  5
451A
  8
0
  6
BYBLOCK
 62
     0
 10
19093.925978999981
 20
6441.4552789999952
 30
0.0
 40
15.0
 50
90.0
 51
270.0
  0
ARC
  5
451B
  8
0
  6
BYBLOCK
 62
     0
 10
19093.925978999981
 20
6441.4552789999952
 30
0.0
 40
15.0
 50
270.0
 51
90.0
  0
ARC
  5
451C
  8
0
  6
BYBLOCK
 62
     0
 10
19093.925978999981
 20
8790.4552790000052
 30
0.0
 40
15.0
 50
270.0
 51
90.0
  0
ARC
  5
451D
  8
0
  6
BYBLOCK
 62
     0
 10
19093.925978999981
 20
8790.4552790000052
 30
0.0
 40
15.0
 50
90.0
 51
270.0
  0
ARC
  5
451E
  8
0
  6
BYBLOCK
 62
     0
 10
19493.92828799997
 20
6441.4552789999952
 30
0.0
 40
15.0
 50
90.0
 51
270.0
  0
ARC
  5
451F
  8
0
  6
BYBLOCK
 62
     0
 10
19493.92828799997
 20
6441.4552789999952
 30
0.0
 40
15.0
 50
270.0
 51
90.0
  0
ARC
  5
4520
  8
0
  6
BYBLOCK
 62
     0
 10
19493.92828799997
 20
8332.955278999998
 30
0.0
 40
15.0
 50
270.0
 51
90.0
  0
ARC
  5
4521
  8
0
  6
BYBLOCK
 62
     0
 10
19493.92828799997
 20
8332.955278999998
 30
0.0
 40
15.0
 50
90.0
 51
270.0
  0
ARC
  5
4522
  8
0
  6
BYBLOCK
 62
     0
 10
19414.47305199999
 20
18561.460974000001
 30
0.0
 40
15.0
 50
90.0
 51
270.0
  0
ARC
  5
4523
  8
0
  6
BYBLOCK
 62
     0
 10
19414.47305199999
 20
18561.460974000001
 30
0.0
 40
15.0
 50
270.0
 51
90.0
  0
ARC
  5
4524
  8
0
  6
BYBLOCK
 62
     0
 10
19414.47305199999
 20
19669.960974000001
 30
0.0
 40
15.0
 50
270.0
 51
90.0
  0
ARC
  5
4525
  8
0
  6
BYBLOCK
 62
     0
 10
19414.47305199999
 20
19669.960974000001
 30
0.0
 40
15.0
 50
90.0
 51
270.0
  0
ARC
  5
4526
  8
0
  6
BYBLOCK
 62
     0
 10
19414.47305199999
 20
17102.460974000001
 30
0.0
 40
15.0
 50
90.0
 51
270.0
  0
ARC
  5
4527
  8
0
  6
BYBLOCK
 62
     0
 10
19414.47305199999
 20
17102.460974000001
 30
0.0
 40
15.0
 50
270.0
 51
90.0
  0
ARC
  5
4528
  8
0
  6
BYBLOCK
 62
     0
 10
19414.47305199999
 20
18561.460974000001
 30
0.0
 40
15.0
 50
270.0
 51
90.0
  0
ARC
  5
4529
  8
0
  6
BYBLOCK
 62
     0
 10
19414.47305199999
 20
18561.460974000001
 30
0.0
 40
15.0
 50
90.0
 51
270.0
  0
ARC
  5
452A
  8
0
  6
BYBLOCK
 62
     0
 10
19414.47305199999
 20
15643.701485500011
 30
0.0
 40
15.0
 50
90.0
 51
270.0
  0
ARC
  5
452B
  8
0
  6
BYBLOCK
 62
     0
 10
19414.47305199999
 20
15643.701485500011
 30
0.0
 40
15.0
 50
270.0
 51
90.0
  0
ARC
  5
452C
  8
0
  6
BYBLOCK
 62
     0
 10
19414.47305199999
 20
17102.460974000001
 30
0.0
 40
15.0
 50
270.0
 51
90.0
  0
ARC
  5
452D
  8
0
  6
BYBLOCK
 62
     0
 10
19414.47305199999
 20
17102.460974000001
 30
0.0
 40
15.0
 50
90.0
 51
270.0
  0
ARC
  5
452E
  8
0
  6
BYBLOCK
 62
     0
 10
19414.47305199999
 20
14534.960974
 30
0.0
 40
15.0
 50
90.0
 51
270.0
  0
ARC
  5
452F
  8
0
  6
BYBLOCK
 62
     0
 10
19414.47305199999
 20
14534.960974
 30
0.0
 40
15.0
 50
270.0
 51
90.0
  0
ARC
  5
4530
  8
0
  6
BYBLOCK
 62
     0
 10
19414.47305199999
 20
15643.701485500011
 30
0.0
 40
15.0
 50
270.0
 51
90.0
  0
ARC
  5
4531
  8
0
  6
BYBLOCK
 62
     0
 10
19414.47305199999
 20
15643.701485500011
 30
0.0
 40
15.0
 50
90.0
 51
270.0
  0
ARC
  5
4532
  8
0
  6
BYBLOCK
 62
     0
 10
20343.927629000002
 20
13563.51289
 30
0.0
 40
15.0
 50
0.0
 51
180.0
  0
ARC
  5
4533
  8
0
  6
BYBLOCK
 62
     0
 10
20343.927629000002
 20
13563.51289
 30
0.0
 40
15.0
 50
180.0
 51
0.0
  0
ARC
  5
4534
  8
0
  6
BYBLOCK
 62
     0
 10
20301.425385999992
 20
13563.51289
 30
0.0
 40
15.0
 50
180.0
 51
0.0
  0
ARC
  5
4535
  8
0
  6
BYBLOCK
 62
     0
 10
20301.425385999992
 20
13563.51289
 30
0.0
 40
15.0
 50
0.0
 51
180.0
  0
ARC
  5
4536
  8
0
  6
BYBLOCK
 62
     0
 10
25478.927629000002
 20
13563.51289
 30
0.0
 40
15.0
 50
180.0
 51
0.0
  0
ARC
  5
4537
  8
0
  6
BYBLOCK
 62
     0
 10
25478.927629000002
 20
13563.51289
 30
0.0
 40
15.0
 50
0.0
 51
180.0
  0
ARC
  5
4538
  8
0
  6
BYBLOCK
 62
     0
 10
25521.429871999979
 20
13563.51289
 30
0.0
 40
15.0
 50
0.0
 51
180.0
  0
ARC
  5
4539
  8
0
  6
BYBLOCK
 62
     0
 10
25521.429871999979
 20
13563.51289
 30
0.0
 40
15.0
 50
180.0
 51
0.0
  0
ARC
  5
453A
  8
0
  6
BYBLOCK
 62
     0
 10
25478.927629000002
 20
13563.51289
 30
0.0
 40
15.0
 50
0.0
 51
180.0
  0
ARC
  5
453B
  8
0
  6
BYBLOCK
 62
     0
 10
25478.927629000002
 20
13563.51289
 30
0.0
 40
15.0
 50
180.0
 51
0.0
  0
ARC
  5
453C
  8
0
  6
BYBLOCK
 62
     0
 10
25436.425385999992
 20
13563.51289
 30
0.0
 40
15.0
 50
180.0
 51
0.0
  0
ARC
  5
453D
  8
0
  6
BYBLOCK
 62
     0
 10
25436.425385999992
 20
13563.51289
 30
0.0
 40
15.0
 50
0.0
 51
180.0
  0
ARC
  5
453E
  8
0
  6
BYBLOCK
 62
     0
 10
20343.927629000002
 20
13563.51289
 30
0.0
 40
15.0
 50
180.0
 51
0.0
  0
ARC
  5
453F
  8
0
  6
BYBLOCK
 62
     0
 10
20343.927629000002
 20
13563.51289
 30
0.0
 40
15.0
 50
0.0
 51
180.0
  0
ARC
  5
4540
  8
0
  6
BYBLOCK
 62
     0
 10
20386.429871999979
 20
13563.51289
 30
0.0
 40
15.0
 50
0.0
 51
180.0
  0
ARC
  5
4541
  8
0
  6
BYBLOCK
 62
     0
 10
20386.429871999979
 20
13563.51289
 30
0.0
 40
15.0
 50
180.0
 51
0.0
  0
ARC
  5
4542
  8
0
  6
BYBLOCK
 62
     0
 10
20301.425385999992
 20
13163.512889999991
 30
0.0
 40
15.0
 50
0.0
 51
180.0
  0
ARC
  5
4543
  8
0
  6
BYBLOCK
 62
     0
 10
20301.425385999992
 20
13163.512889999991
 30
0.0
 40
15.0
 50
180.0
 51
0.0
  0
ARC
  5
4544
  8
0
  6
BYBLOCK
 62
     0
 10
25521.429871999979
 20
13163.512889999991
 30
0.0
 40
15.0
 50
180.0
 51
0.0
  0
ARC
  5
4545
  8
0
  6
BYBLOCK
 62
     0
 10
25521.429871999979
 20
13163.512889999991
 30
0.0
 40
15.0
 50
0.0
 51
180.0
  0
ARC
  5
4546
  8
0
  6
BYBLOCK
 62
     0
 10
26571.427232999991
 20
14942.460974
 30
0.0
 40
15.0
 50
270.0
 51
90.0
  0
ARC
  5
4547
  8
0
  6
BYBLOCK
 62
     0
 10
26571.427232999991
 20
14942.460974
 30
0.0
 40
15.0
 50
90.0
 51
270.0
  0
ARC
  5
4548
  8
0
  6
BYBLOCK
 62
     0
 10
26571.427232999991
 20
14534.960974
 30
0.0
 40
15.0
 50
90.0
 51
270.0
  0
ARC
  5
4549
  8
0
  6
BYBLOCK
 62
     0
 10
26571.427232999991
 20
14534.960974
 30
0.0
 40
15.0
 50
270.0
 51
90.0
  0
ARC
  5
454A
  8
0
  6
BYBLOCK
 62
     0
 10
26571.427232999991
 20
15643.701485500011
 30
0.0
 40
15.0
 50
270.0
 51
90.0
  0
ARC
  5
454B
  8
0
  6
BYBLOCK
 62
     0
 10
26571.427232999991
 20
15643.701485500011
 30
0.0
 40
15.0
 50
90.0
 51
270.0
  0
ARC
  5
454C
  8
0
  6
BYBLOCK
 62
     0
 10
26571.427232999991
 20
14942.460974
 30
0.0
 40
15.0
 50
90.0
 51
270.0
  0
ARC
  5
454D
  8
0
  6
BYBLOCK
 62
     0
 10
26571.427232999991
 20
14942.460974
 30
0.0
 40
15.0
 50
270.0
 51
90.0
  0
ARC
  5
454E
  8
0
  6
BYBLOCK
 62
     0
 10
26571.427232999991
 20
16344.460974
 30
0.0
 40
15.0
 50
270.0
 51
90.0
  0
ARC
  5
454F
  8
0
  6
BYBLOCK
 62
     0
 10
26571.427232999991
 20
16344.460974
 30
0.0
 40
15.0
 50
90.0
 51
270.0
  0
ARC
  5
4550
  8
0
  6
BYBLOCK
 62
     0
 10
26571.427232999991
 20
15643.701485500011
 30
0.0
 40
15.0
 50
90.0
 51
270.0
  0
ARC
  5
4551
  8
0
  6
BYBLOCK
 62
     0
 10
26571.427232999991
 20
15643.701485500011
 30
0.0
 40
15.0
 50
270.0
 51
90.0
  0
ARC
  5
4552
  8
0
  6
BYBLOCK
 62
     0
 10
26571.427232999991
 20
17102.460974000001
 30
0.0
 40
15.0
 50
270.0
 51
90.0
  0
ARC
  5
4553
  8
0
  6
BYBLOCK
 62
     0
 10
26571.427232999991
 20
17102.460974000001
 30
0.0
 40
15.0
 50
90.0
 51
270.0
  0
ARC
  5
4554
  8
0
  6
BYBLOCK
 62
     0
 10
26571.427232999991
 20
16344.460974
 30
0.0
 40
15.0
 50
90.0
 51
270.0
  0
ARC
  5
4555
  8
0
  6
BYBLOCK
 62
     0
 10
26571.427232999991
 20
16344.460974
 30
0.0
 40
15.0
 50
270.0
 51
90.0
  0
ARC
  5
4556
  8
0
  6
BYBLOCK
 62
     0
 10
26571.427232999991
 20
17860.460974000001
 30
0.0
 40
15.0
 50
270.0
 51
90.0
  0
ARC
  5
4557
  8
0
  6
BYBLOCK
 62
     0
 10
26571.427232999991
 20
17860.460974000001
 30
0.0
 40
15.0
 50
90.0
 51
270.0
  0
ARC
  5
4558
  8
0
  6
BYBLOCK
 62
     0
 10
26571.427232999991
 20
17102.460974000001
 30
0.0
 40
15.0
 50
90.0
 51
270.0
  0
ARC
  5
4559
  8
0
  6
BYBLOCK
 62
     0
 10
26571.427232999991
 20
17102.460974000001
 30
0.0
 40
15.0
 50
270.0
 51
90.0
  0
ARC
  5
455A
  8
0
  6
BYBLOCK
 62
     0
 10
26571.427232999991
 20
18561.460974000001
 30
0.0
 40
15.0
 50
270.0
 51
90.0
  0
ARC
  5
455B
  8
0
  6
BYBLOCK
 62
     0
 10
26571.427232999991
 20
18561.460974000001
 30
0.0
 40
15.0
 50
90.0
 51
270.0
  0
ARC
  5
455C
  8
0
  6
BYBLOCK
 62
     0
 10
26571.427232999991
 20
17860.460974000001
 30
0.0
 40
15.0
 50
90.0
 51
270.0
  0
ARC
  5
455D
  8
0
  6
BYBLOCK
 62
     0
 10
26571.427232999991
 20
17860.460974000001
 30
0.0
 40
15.0
 50
270.0
 51
90.0
  0
ARC
  5
455E
  8
0
  6
BYBLOCK
 62
     0
 10
26571.427232999991
 20
19262.460974000001
 30
0.0
 40
15.0
 50
270.0
 51
90.0
  0
ARC
  5
455F
  8
0
  6
BYBLOCK
 62
     0
 10
26571.427232999991
 20
19262.460974000001
 30
0.0
 40
15.0
 50
90.0
 51
270.0
  0
ARC
  5
4560
  8
0
  6
BYBLOCK
 62
     0
 10
26571.427232999991
 20
18561.460974000001
 30
0.0
 40
15.0
 50
90.0
 51
270.0
  0
ARC
  5
4561
  8
0
  6
BYBLOCK
 62
     0
 10
26571.427232999991
 20
18561.460974000001
 30
0.0
 40
15.0
 50
270.0
 51
90.0
  0
ARC
  5
4562
  8
0
  6
BYBLOCK
 62
     0
 10
26571.427232999991
 20
19669.960974000001
 30
0.0
 40
15.0
 50
270.0
 51
90.0
  0
ARC
  5
4563
  8
0
  6
BYBLOCK
 62
     0
 10
26571.427232999991
 20
19669.960974000001
 30
0.0
 40
15.0
 50
90.0
 51
270.0
  0
ARC
  5
4564
  8
0
  6
BYBLOCK
 62
     0
 10
26571.427232999991
 20
19262.460974000001
 30
0.0
 40
15.0
 50
90.0
 51
270.0
  0
ARC
  5
4565
  8
0
  6
BYBLOCK
 62
     0
 10
26571.427232999991
 20
19262.460974000001
 30
0.0
 40
15.0
 50
270.0
 51
90.0
  0
ARC
  5
4566
  8
0
  6
BYBLOCK
 62
     0
 10
26971.427232999991
 20
17102.460974000001
 30
0.0
 40
15.0
 50
90.0
 51
270.0
  0
ARC
  5
4567
  8
0
  6
BYBLOCK
 62
     0
 10
26971.427232999991
 20
17102.460974000001
 30
0.0
 40
15.0
 50
270.0
 51
90.0
  0
ARC
  5
4568
  8
0
  6
BYBLOCK
 62
     0
 10
26971.427232999991
 20
19669.960974000001
 30
0.0
 40
15.0
 50
270.0
 51
90.0
  0
ARC
  5
4569
  8
0
  6
BYBLOCK
 62
     0
 10
26971.427232999991
 20
19669.960974000001
 30
0.0
 40
15.0
 50
90.0
 51
270.0
  0
ARC
  5
456A
  8
0
  6
BYBLOCK
 62
     0
 10
26971.427232999991
 20
14534.960974
 30
0.0
 40
15.0
 50
90.0
 51
270.0
  0
ARC
  5
456B
  8
0
  6
BYBLOCK
 62
     0
 10
26971.427232999991
 20
14534.960974
 30
0.0
 40
15.0
 50
270.0
 51
90.0
  0
ARC
  5
456C
  8
0
  6
BYBLOCK
 62
     0
 10
26971.427232999991
 20
17102.460974000001
 30
0.0
 40
15.0
 50
270.0
 51
90.0
  0
ARC
  5
456D
  8
0
  6
BYBLOCK
 62
     0
 10
26971.427232999991
 20
17102.460974000001
 30
0.0
 40
15.0
 50
90.0
 51
270.0
  0
ARC
  5
456E
  8
0
  6
BYBLOCK
 62
     0
 10
27371.427232999991
 20
19712.458268999992
 30
0.0
 40
15.0
 50
270.0
 51
90.0
  0
ARC
  5
456F
  8
0
  6
BYBLOCK
 62
     0
 10
27371.427232999991
 20
19712.458268999992
 30
0.0
 40
15.0
 50
90.0
 51
270.0
  0
ARC
  5
4570
  8
0
  6
BYBLOCK
 62
     0
 10
27371.427232999991
 20
14492.463678999989
 30
0.0
 40
15.0
 50
90.0
 51
270.0
  0
ARC
  5
4571
  8
0
  6
BYBLOCK
 62
     0
 10
27371.427232999991
 20
14492.463678999989
 30
0.0
 40
15.0
 50
270.0
 51
90.0
  0
ARC
  5
4572
  8
0
  6
BYBLOCK
 62
     0
 10
26971.427232999991
 20
19669.960974000001
 30
0.0
 40
15.0
 50
270.0
 51
90.0
  0
ARC
  5
4573
  8
0
  6
BYBLOCK
 62
     0
 10
26971.427232999991
 20
19669.960974000001
 30
0.0
 40
15.0
 50
90.0
 51
270.0
  0
ARC
  5
4574
  8
0
  6
BYBLOCK
 62
     0
 10
26971.427232999991
 20
19712.458268999992
 30
0.0
 40
15.0
 50
90.0
 51
270.0
  0
ARC
  5
4575
  8
0
  6
BYBLOCK
 62
     0
 10
26971.427232999991
 20
19712.458268999992
 30
0.0
 40
15.0
 50
270.0
 51
90.0
  0
ARC
  5
4576
  8
0
  6
BYBLOCK
 62
     0
 10
26971.427232999991
 20
14534.960974
 30
0.0
 40
15.0
 50
90.0
 51
270.0
  0
ARC
  5
4577
  8
0
  6
BYBLOCK
 62
     0
 10
26971.427232999991
 20
14534.960974
 30
0.0
 40
15.0
 50
270.0
 51
90.0
  0
ARC
  5
4578
  8
0
  6
BYBLOCK
 62
     0
 10
26971.427232999991
 20
14492.463678999989
 30
0.0
 40
15.0
 50
270.0
 51
90.0
  0
ARC
  5
4579
  8
0
  6
BYBLOCK
 62
     0
 10
26971.427232999991
 20
14492.463678999989
 30
0.0
 40
15.0
 50
90.0
 51
270.0
  0
ARC
  5
457A
  8
0
  6
BYBLOCK
 62
     0
 10
23612.427629000002
 20
20442.462162000022
 30
0.0
 40
15.0
 50
0.0
 51
180.0
  0
ARC
  5
457B
  8
0
  6
BYBLOCK
 62
     0
 10
23612.427629000002
 20
20442.462162000022
 30
0.0
 40
15.0
 50
180.0
 51
0.0
  0
ARC
  5
457C
  8
0
  6
BYBLOCK
 62
     0
 10
24019.927629000002
 20
20442.462162000022
 30
0.0
 40
15.0
 50
180.0
 51
0.0
  0
ARC
  5
457D
  8
0
  6
BYBLOCK
 62
     0
 10
24019.927629000002
 20
20442.462162000022
 30
0.0
 40
15.0
 50
0.0
 51
180.0
  0
ARC
  5
457E
  8
0
  6
BYBLOCK
 62
     0
 10
24720.927629000002
 20
20442.462162000022
 30
0.0
 40
15.0
 50
0.0
 51
180.0
  0
ARC
  5
457F
  8
0
  6
BYBLOCK
 62
     0
 10
24720.927629000002
 20
20442.462162000022
 30
0.0
 40
15.0
 50
180.0
 51
0.0
  0
ARC
  5
4580
  8
0
  6
BYBLOCK
 62
     0
 10
25478.928618500009
 20
20442.462162000022
 30
0.0
 40
15.0
 50
180.0
 51
0.0
  0
ARC
  5
4581
  8
0
  6
BYBLOCK
 62
     0
 10
25478.928618500009
 20
20442.462162000022
 30
0.0
 40
15.0
 50
0.0
 51
180.0
  0
ARC
  5
4582
  8
0
  6
BYBLOCK
 62
     0
 10
24019.927629000002
 20
20442.462162000022
 30
0.0
 40
15.0
 50
0.0
 51
180.0
  0
ARC
  5
4583
  8
0
  6
BYBLOCK
 62
     0
 10
24019.927629000002
 20
20442.462162000022
 30
0.0
 40
15.0
 50
180.0
 51
0.0
  0
ARC
  5
4584
  8
0
  6
BYBLOCK
 62
     0
 10
24720.927629000002
 20
20442.462162000022
 30
0.0
 40
15.0
 50
180.0
 51
0.0
  0
ARC
  5
4585
  8
0
  6
BYBLOCK
 62
     0
 10
24720.927629000002
 20
20442.462162000022
 30
0.0
 40
15.0
 50
0.0
 51
180.0
  0
ARC
  5
4586
  8
0
  6
BYBLOCK
 62
     0
 10
25478.927629000002
 20
20442.462162000022
 30
0.0
 40
15.0
 50
180.0
 51
0.0
  0
ARC
  5
4587
  8
0
  6
BYBLOCK
 62
     0
 10
25478.927629000002
 20
20442.462162000022
 30
0.0
 40
15.0
 50
0.0
 51
180.0
  0
ARC
  5
4588
  8
0
  6
BYBLOCK
 62
     0
 10
25521.423933999991
 20
20442.462162000022
 30
0.0
 40
15.0
 50
0.0
 51
180.0
  0
ARC
  5
4589
  8
0
  6
BYBLOCK
 62
     0
 10
25521.423933999991
 20
20442.462162000022
 30
0.0
 40
15.0
 50
180.0
 51
0.0
  0
ARC
  5
458A
  8
0
  6
BYBLOCK
 62
     0
 10
20343.927629000002
 20
20442.462162000022
 30
0.0
 40
15.0
 50
0.0
 51
180.0
  0
ARC
  5
458B
  8
0
  6
BYBLOCK
 62
     0
 10
20343.927629000002
 20
20442.462162000022
 30
0.0
 40
15.0
 50
180.0
 51
0.0
  0
ARC
  5
458C
  8
0
  6
BYBLOCK
 62
     0
 10
20751.427629000002
 20
20442.462162000022
 30
0.0
 40
15.0
 50
180.0
 51
0.0
  0
ARC
  5
458D
  8
0
  6
BYBLOCK
 62
     0
 10
20751.427629000002
 20
20442.462162000022
 30
0.0
 40
15.0
 50
0.0
 51
180.0
  0
ARC
  5
458E
  8
0
  6
BYBLOCK
 62
     0
 10
20343.927629000002
 20
20442.462162000022
 30
0.0
 40
15.0
 50
0.0
 51
180.0
  0
ARC
  5
458F
  8
0
  6
BYBLOCK
 62
     0
 10
20343.927629000002
 20
20442.462162000022
 30
0.0
 40
15.0
 50
180.0
 51
0.0
  0
ARC
  5
4590
  8
0
  6
BYBLOCK
 62
     0
 10
20301.43132399999
 20
20442.462162000022
 30
0.0
 40
15.0
 50
180.0
 51
0.0
  0
ARC
  5
4591
  8
0
  6
BYBLOCK
 62
     0
 10
20301.43132399999
 20
20442.462162000022
 30
0.0
 40
15.0
 50
0.0
 51
180.0
  0
ARC
  5
4592
  8
0
  6
BYBLOCK
 62
     0
 10
22854.427629000002
 20
20442.462162000022
 30
0.0
 40
15.0
 50
0.0
 51
180.0
  0
ARC
  5
4593
  8
0
  6
BYBLOCK
 62
     0
 10
22854.427629000002
 20
20442.462162000022
 30
0.0
 40
15.0
 50
180.0
 51
0.0
  0
ARC
  5
4594
  8
0
  6
BYBLOCK
 62
     0
 10
23612.428618499998
 20
20442.462162000022
 30
0.0
 40
15.0
 50
180.0
 51
0.0
  0
ARC
  5
4595
  8
0
  6
BYBLOCK
 62
     0
 10
23612.428618499998
 20
20442.462162000022
 30
0.0
 40
15.0
 50
0.0
 51
180.0
  0
ARC
  5
4596
  8
0
  6
BYBLOCK
 62
     0
 10
22153.427629000002
 20
20442.462162000022
 30
0.0
 40
15.0
 50
0.0
 51
180.0
  0
ARC
  5
4597
  8
0
  6
BYBLOCK
 62
     0
 10
22153.427629000002
 20
20442.462162000022
 30
0.0
 40
15.0
 50
180.0
 51
0.0
  0
ARC
  5
4598
  8
0
  6
BYBLOCK
 62
     0
 10
22854.427629000002
 20
20442.462162000022
 30
0.0
 40
15.0
 50
180.0
 51
0.0
  0
ARC
  5
4599
  8
0
  6
BYBLOCK
 62
     0
 10
22854.427629000002
 20
20442.462162000022
 30
0.0
 40
15.0
 50
0.0
 51
180.0
  0
ARC
  5
459A
  8
0
  6
BYBLOCK
 62
     0
 10
21452.427629000002
 20
20442.462162000022
 30
0.0
 40
15.0
 50
0.0
 51
180.0
  0
ARC
  5
459B
  8
0
  6
BYBLOCK
 62
     0
 10
21452.427629000002
 20
20442.462162000022
 30
0.0
 40
15.0
 50
180.0
 51
0.0
  0
ARC
  5
459C
  8
0
  6
BYBLOCK
 62
     0
 10
22153.427629000002
 20
20442.462162000022
 30
0.0
 40
15.0
 50
180.0
 51
0.0
  0
ARC
  5
459D
  8
0
  6
BYBLOCK
 62
     0
 10
22153.427629000002
 20
20442.462162000022
 30
0.0
 40
15.0
 50
0.0
 51
180.0
  0
ARC
  5
459E
  8
0
  6
BYBLOCK
 62
     0
 10
20751.427629000002
 20
20442.462162000022
 30
0.0
 40
15.0
 50
0.0
 51
180.0
  0
ARC
  5
459F
  8
0
  6
BYBLOCK
 62
     0
 10
20751.427629000002
 20
20442.462162000022
 30
0.0
 40
15.0
 50
180.0
 51
0.0
  0
ARC
  5
45A0
  8
0
  6
BYBLOCK
 62
     0
 10
21452.427629000002
 20
20442.462162000022
 30
0.0
 40
15.0
 50
180.0
 51
0.0
  0
ARC
  5
45A1
  8
0
  6
BYBLOCK
 62
     0
 10
21452.427629000002
 20
20442.462162000022
 30
0.0
 40
15.0
 50
0.0
 51
180.0
  0
LINE
  5
46CA
  8
0-1
  6
CONTINUOUS
 62
     3
 10
25415.430609999949
 20
8539.9552989999975
 30
0.0
 11
25415.430609999949
 21
8571.9552059999969
 31
0.0
  0
LINE
  5
46CB
  8
0-1
  6
CONTINUOUS
 62
     3
 10
25564.43000299995
 20
8463.7685769999971
 30
0.0
 11
25521.427891999982
 21
8463.7685769999971
 31
0.0
  0
LINE
  5
46CC
  8
0-1
  6
CONTINUOUS
 62
     3
 10
25564.43000299995
 20
8789.9556279999942
 30
0.0
 11
25564.43000299995
 21
8463.7685769999971
 31
0.0
  0
LINE
  5
46CD
  8
0-1
  6
CONTINUOUS
 62
     3
 10
25129.463416999959
 20
8536.4198779999952
 30
0.0
 11
25097.464499999998
 21
8568.4197859999895
 31
0.0
  0
LINE
  5
46CE
  8
0-1
  6
CONTINUOUS
 62
     3
 10
25410.430345999968
 20
8576.9554699999971
 30
0.0
 11
25100.999919999991
 21
8576.9554699999971
 31
0.0
  0
LINE
  5
46CF
  8
0-1
  6
CONTINUOUS
 62
     3
 10
25415.430609999949
 20
8568.5563729999994
 30
0.0
 11
25097.333850999988
 21
8568.5563729999994
 31
0.0
  0
LINE
  5
46D0
  8
0-1
  6
CONTINUOUS
 62
     3
 10
25410.430345999968
 20
8534.9550349999954
 30
0.0
 11
25133.000816999978
 21
8534.9550349999954
 31
0.0
  0
LINE
  5
46D1
  8
0-1
  6
CONTINUOUS
 62
     3
 10
25415.430609999949
 20
8543.3551219999954
 30
0.0
 11
25122.529163999989
 21
8543.3551219999954
 31
0.0
  0
LINE
  5
46D2
  8
0-1
  6
CONTINUOUS
 62
     3
 10
25415.430609999949
 20
8551.7552089999917
 30
0.0
 11
25114.130065999962
 21
8551.7552089999917
 31
0.0
  0
LINE
  5
46D3
  8
0-1
  6
CONTINUOUS
 62
     3
 10
25415.430609999949
 20
8560.1562859999958
 30
0.0
 11
25105.728989999981
 21
8560.1562859999958
 31
0.0
  0
LINE
  5
46D4
  8
0-1
  6
CONTINUOUS
 62
     3
 10
23961.893818000011
 20
8536.4198779999952
 30
0.0
 11
23993.89075599999
 21
8568.4197859999895
 31
0.0
  0
LINE
  5
46D5
  8
0-1
  6
CONTINUOUS
 62
     3
 10
23675.928604000012
 20
8539.9552989999975
 30
0.0
 11
23675.928604000012
 21
8571.9552059999969
 31
0.0
  0
LINE
  5
46D6
  8
0-1
  6
CONTINUOUS
 62
     3
 10
23675.928604000012
 20
8543.3551219999954
 30
0.0
 11
23968.826091999988
 21
8543.3551219999954
 31
0.0
  0
LINE
  5
46D7
  8
0-1
  6
CONTINUOUS
 62
     3
 10
23675.928604000012
 20
8551.7552089999917
 30
0.0
 11
23977.227169000002
 21
8551.7552089999917
 31
0.0
  0
LINE
  5
46D8
  8
0-1
  6
CONTINUOUS
 62
     3
 10
23680.928867999999
 20
8534.9550349999954
 30
0.0
 11
23958.35641800001
 21
8534.9550349999954
 31
0.0
  0
LINE
  5
46D9
  8
0-1
  6
CONTINUOUS
 62
     3
 10
23675.928604000012
 20
8560.1562859999958
 30
0.0
 11
23985.626265999988
 21
8560.1562859999958
 31
0.0
  0
LINE
  5
46DA
  8
0-1
  6
CONTINUOUS
 62
     3
 10
23675.928604000012
 20
8568.5563729999994
 30
0.0
 11
23994.023384000011
 21
8568.5563729999994
 31
0.0
  0
LINE
  5
46DB
  8
0-1
  6
CONTINUOUS
 62
     3
 10
23680.928867999999
 20
8576.9554699999971
 30
0.0
 11
23990.357315000001
 21
8576.9554699999971
 31
0.0
  0
LINE
  5
46DC
  8
0-1
  6
CONTINUOUS
 62
     3
 10
25564.43000299995
 20
8659.9547049999983
 30
0.0
 11
23612.42762799999
 21
8659.9547049999983
 31
0.0
  0
LINE
  5
46DD
  8
0-1
  6
CONTINUOUS
 62
     3
 10
23654.925911999992
 20
8585.9553510000005
 30
0.0
 11
25436.42934299996
 21
8585.9553510000005
 31
0.0
  0
LINE
  5
46DE
  8
0-1
  6
CONTINUOUS
 62
     3
 10
23654.925911999992
 20
8525.955152999999
 30
0.0
 11
25436.42934299996
 21
8525.955152999999
 31
0.0
  0
LINE
  5
46DF
  8
0-1
  6
CONTINUOUS
 62
     3
 10
23612.42762799999
 20
8789.9556279999942
 30
0.0
 11
25564.43000299995
 21
8789.9556279999942
 31
0.0
  0
LINE
  5
46E0
  8
0-1
  6
CONTINUOUS
 62
     3
 10
23548.926651999991
 20
8539.9552989999975
 30
0.0
 11
23548.926651999991
 21
8571.9552059999969
 31
0.0
  0
LINE
  5
46E1
  8
0-1
  6
CONTINUOUS
 62
     3
 10
23262.965396999982
 20
8536.4198779999952
 30
0.0
 11
23230.964499999991
 21
8568.4197859999895
 31
0.0
  0
LINE
  5
46E2
  8
0-1
  6
CONTINUOUS
 62
     3
 10
23548.926651999991
 20
8568.5563729999994
 30
0.0
 11
23230.83385199996
 21
8568.5563729999994
 31
0.0
  0
LINE
  5
46E3
  8
0-1
  6
CONTINUOUS
 62
     3
 10
23548.926651999991
 20
8560.1562859999958
 30
0.0
 11
23239.228989999981
 21
8560.1562859999958
 31
0.0
  0
LINE
  5
46E4
  8
0-1
  6
CONTINUOUS
 62
     3
 10
23548.926651999991
 20
8551.7552089999917
 30
0.0
 11
23247.628086999979
 21
8551.7552089999917
 31
0.0
  0
LINE
  5
46E5
  8
0-1
  6
CONTINUOUS
 62
     3
 10
23548.926651999991
 20
8543.3551219999954
 30
0.0
 11
23256.02718499997
 21
8543.3551219999954
 31
0.0
  0
LINE
  5
46E6
  8
0-1
  6
CONTINUOUS
 62
     3
 10
23543.92836699996
 20
8576.9554699999971
 30
0.0
 11
23234.497940999951
 21
8576.9554699999971
 31
0.0
  0
LINE
  5
46E7
  8
0-1
  6
CONTINUOUS
 62
     3
 10
23543.92836699996
 20
8534.9550349999954
 30
0.0
 11
23266.500817999979
 21
8534.9550349999954
 31
0.0
  0
LINE
  5
46E8
  8
0-1
  6
CONTINUOUS
 62
     3
 10
20412.42688899998
 20
8534.9550349999954
 30
0.0
 11
20689.85641899996
 21
8534.9550349999954
 31
0.0
  0
LINE
  5
46E9
  8
0-1
  6
CONTINUOUS
 62
     3
 10
20407.428604999961
 20
8539.9552989999975
 30
0.0
 11
20407.428604999961
 21
8571.9552059999969
 31
0.0
  0
LINE
  5
46EA
  8
0-1
  6
CONTINUOUS
 62
     3
 10
20258.42723299998
 20
8463.7685769999971
 30
0.0
 11
20301.425384999991
 21
8463.7685769999971
 31
0.0
  0
LINE
  5
46EB
  8
0-1
  6
CONTINUOUS
 62
     3
 10
20258.42723299998
 20
8463.7685769999971
 30
0.0
 11
20258.42723299998
 21
8789.9556279999942
 31
0.0
  0
LINE
  5
46EC
  8
0-1
  6
CONTINUOUS
 62
     3
 10
20412.42688899998
 20
8576.9554699999971
 30
0.0
 11
20721.857315999991
 21
8576.9554699999971
 31
0.0
  0
LINE
  5
46ED
  8
0-1
  6
CONTINUOUS
 62
     3
 10
20693.389858999981
 20
8536.4198779999952
 30
0.0
 11
20725.39075699995
 21
8568.4197859999895
 31
0.0
  0
LINE
  5
46EE
  8
0-1
  6
CONTINUOUS
 62
     3
 10
20407.428604999961
 20
8568.5563729999994
 30
0.0
 11
20725.523383999978
 21
8568.5563729999994
 31
0.0
  0
LINE
  5
46EF
  8
0-1
  6
CONTINUOUS
 62
     3
 10
20407.428604999961
 20
8560.1562859999958
 30
0.0
 11
20717.126266999989
 21
8560.1562859999958
 31
0.0
  0
LINE
  5
46F0
  8
0-1
  6
CONTINUOUS
 62
     3
 10
20407.428604999961
 20
8551.7552089999917
 30
0.0
 11
20708.727168999969
 21
8551.7552089999917
 31
0.0
  0
LINE
  5
46F1
  8
0-1
  6
CONTINUOUS
 62
     3
 10
20407.428604999961
 20
8543.3551219999954
 30
0.0
 11
20700.328071999989
 21
8543.3551219999954
 31
0.0
  0
LINE
  5
46F2
  8
0-1
  6
CONTINUOUS
 62
     3
 10
20386.425912999988
 20
8525.955152999999
 30
0.0
 11
23569.927363999988
 21
8525.955152999999
 31
0.0
  0
LINE
  5
46F3
  8
0-1
  6
CONTINUOUS
 62
     3
 10
20386.425912999988
 20
8585.9553510000005
 30
0.0
 11
23569.927363999988
 21
8585.9553510000005
 31
0.0
  0
LINE
  5
46F4
  8
0-1
  6
CONTINUOUS
 62
     3
 10
20258.42723299998
 20
8789.9556279999942
 30
0.0
 11
23612.42762799999
 21
8789.9556279999942
 31
0.0
  0
LINE
  5
46F5
  8
0-1
  6
CONTINUOUS
 62
     3
 10
23612.42762799999
 20
8659.9547049999983
 30
0.0
 11
20258.42723299998
 21
8659.9547049999983
 31
0.0
  0
LINE
  5
46F6
  8
0-1
  6
CONTINUOUS
 62
     3
 10
23612.42762799999
 20
8659.9547049999983
 30
0.0
 11
23612.42762799999
 21
8789.9556279999942
 31
0.0
  0
LINE
  5
46F7
  8
0-1
  6
CONTINUOUS
 62
     3
 10
23612.42762799999
 20
8659.9547049999983
 30
0.0
 11
23612.42762799999
 21
8789.9556279999942
 31
0.0
  0
ARC
  5
46F8
  8
0-1
  6
CONTINUOUS
 62
     3
 10
25410.430345999968
 20
8571.9552059999969
 30
0.0
 40
5.0
 50
0.0
 51
90.0
  0
ARC
  5
46F9
  8
0-1
  6
CONTINUOUS
 62
     3
 10
25410.430345999968
 20
8539.9552989999975
 30
0.0
 40
5.0
 50
269.9999850001808
 51
0.0
  0
ARC
  5
46FA
  8
0-1
  6
CONTINUOUS
 62
     3
 10
25100.999919999991
 20
8571.9552059999969
 30
0.0
 40
5.0
 50
90.0
 51
224.99998499997989
  0
ARC
  5
46FB
  8
0-1
  6
CONTINUOUS
 62
     3
 10
25133.000816999978
 20
8539.9552989999975
 30
0.0
 40
5.0
 50
224.99998499997989
 51
269.9999850001808
  0
ARC
  5
46FC
  8
0-1
  6
CONTINUOUS
 62
     3
 10
23990.357315000001
 20
8571.9552059999969
 30
0.0
 40
5.0
 50
314.99998500027471
 51
90.0
  0
ARC
  5
46FD
  8
0-1
  6
CONTINUOUS
 62
     3
 10
23958.35641800001
 20
8539.9552989999975
 30
0.0
 40
5.0
 50
269.9999850001808
 51
314.99998500027471
  0
ARC
  5
46FE
  8
0-1
  6
CONTINUOUS
 62
     3
 10
23680.928867999999
 20
8539.9552989999975
 30
0.0
 40
5.0
 50
180.0
 51
269.9999850001808
  0
ARC
  5
46FF
  8
0-1
  6
CONTINUOUS
 62
     3
 10
23680.928867999999
 20
8571.9552059999969
 30
0.0
 40
5.0
 50
90.0
 51
180.0
  0
ARC
  5
4700
  8
0-1
  6
CONTINUOUS
 62
     3
 10
23543.92836699996
 20
8539.9552989999975
 30
0.0
 40
5.0
 50
269.9999850001808
 51
0.0
  0
ARC
  5
4701
  8
0-1
  6
CONTINUOUS
 62
     3
 10
23543.92836699996
 20
8571.9552059999969
 30
0.0
 40
5.0
 50
0.0
 51
90.0
  0
ARC
  5
4702
  8
0-1
  6
CONTINUOUS
 62
     3
 10
23234.497940999951
 20
8571.9552059999969
 30
0.0
 40
5.0
 50
90.0
 51
224.99998499997989
  0
ARC
  5
4703
  8
0-1
  6
CONTINUOUS
 62
     3
 10
23266.500817999979
 20
8539.9552989999975
 30
0.0
 40
5.0
 50
224.99998499997989
 51
269.9999850001808
  0
ARC
  5
4704
  8
0-1
  6
CONTINUOUS
 62
     3
 10
20721.857315999991
 20
8571.9552059999969
 30
0.0
 40
5.0
 50
314.99998500027471
 51
90.0
  0
ARC
  5
4705
  8
0-1
  6
CONTINUOUS
 62
     3
 10
20412.42688899998
 20
8571.9552059999969
 30
0.0
 40
5.0
 50
90.0
 51
180.0
  0
ARC
  5
4706
  8
0-1
  6
CONTINUOUS
 62
     3
 10
20412.42688899998
 20
8539.9552989999975
 30
0.0
 40
5.0
 50
180.0
 51
269.9999850001808
  0
ARC
  5
4707
  8
0-1
  6
CONTINUOUS
 62
     3
 10
20689.85641899996
 20
8539.9552989999975
 30
0.0
 40
5.0
 50
269.9999850001808
 51
314.99998500027471
  0
LINE
  5
4708
  8
SUNPOU
  6
CONTINUOUS
 62
     4
 10
20258.42525299995
 20
8869.9556279999979
 30
0.0
 11
20258.42525299995
 21
10069.41323999998
 31
0.0
  0
LINE
  5
4709
  8
SUNPOU
  6
CONTINUOUS
 62
     4
 10
25564.43000299995
 20
8869.9556279999979
 30
0.0
 11
25564.43000299995
 21
10069.41323999998
 31
0.0
  0
LINE
  5
470A
  8
SUNPOU
  6
CONTINUOUS
 62
     4
 10
20261.42525299995
 20
9989.4132399999962
 30
0.0
 11
25561.43000299995
 21
9989.4132399999962
 31
0.0
  0
LINE
  5
470B
  8
SUNPOU
  6
CONTINUOUS
 62
     4
 10
20301.427363999988
 20
8869.9556279999979
 30
0.0
 11
20301.427363999988
 21
9669.4554699999971
 31
0.0
  0
LINE
  5
470C
  8
SUNPOU
  6
CONTINUOUS
 62
     4
 10
25521.427891999982
 20
8869.9556279999979
 30
0.0
 11
25521.427891999982
 21
9669.4554699999971
 31
0.0
  0
LINE
  5
470D
  8
SUNPOU
  6
CONTINUOUS
 62
     4
 10
20301.427363999988
 20
9589.4554699999971
 30
0.0
 11
25521.427891999982
 21
9589.4554699999971
 31
0.0
  0
LINE
  5
470E
  8
SUNPOU
  6
CONTINUOUS
 62
     4
 10
20301.427363999988
 20
8869.9556279999979
 30
0.0
 11
20301.427363999988
 21
9669.4554699999971
 31
0.0
  0
LINE
  5
470F
  8
SUNPOU
  6
CONTINUOUS
 62
     4
 10
20258.42525299995
 20
8869.9556279999979
 30
0.0
 11
20258.42525299995
 21
9669.4554699999971
 31
0.0
  0
LINE
  5
4710
  8
SUNPOU
  6
CONTINUOUS
 62
     4
 10
20301.427363999988
 20
9589.4554699999971
 30
0.0
 11
20541.427363999988
 21
9589.4554699999971
 31
0.0
  0
LINE
  5
4711
  8
SUNPOU
  6
CONTINUOUS
 62
     4
 10
20261.42525299995
 20
9589.4554699999971
 30
0.0
 11
20021.42525299995
 21
9589.4554699999971
 31
0.0
  0
LINE
  5
4712
  8
SUNPOU
  6
CONTINUOUS
 62
     4
 10
20301.427363999988
 20
9589.4554699999971
 30
0.0
 11
20261.42525299995
 21
9589.4554699999971
 31
0.0
  0
LINE
  5
4713
  8
SUNPOU
  6
CONTINUOUS
 62
     4
 10
25521.427891999982
 20
8869.9556279999979
 30
0.0
 11
25521.427891999982
 21
9669.4554699999971
 31
0.0
  0
LINE
  5
4714
  8
SUNPOU
  6
CONTINUOUS
 62
     4
 10
25564.43000299995
 20
8869.9556279999979
 30
0.0
 11
25564.43000299995
 21
9669.4554699999971
 31
0.0
  0
LINE
  5
4715
  8
SUNPOU
  6
CONTINUOUS
 62
     4
 10
25521.427891999982
 20
9589.4554699999971
 30
0.0
 11
25281.427891999982
 21
9589.4554699999971
 31
0.0
  0
LINE
  5
4716
  8
SUNPOU
  6
CONTINUOUS
 62
     4
 10
25561.43000299995
 20
9589.4554699999971
 30
0.0
 11
25801.43000299995
 21
9589.4554699999971
 31
0.0
  0
LINE
  5
4717
  8
SUNPOU
  6
CONTINUOUS
 62
     4
 10
25521.427891999982
 20
9589.4554699999971
 30
0.0
 11
25561.43000299995
 21
9589.4554699999971
 31
0.0
  0
TEXT
  5
4718
  8
0
  6
CONTINUOUS
 62
     7
 10
25681.43000299995
 20
9669.4554699999971
 30
0.0
 40
160.0
  1
43
  0
TEXT
  5
4719
  8
0
  6
CONTINUOUS
 62
     7
 10
19901.425252999969
 20
9669.4554699999971
 30
0.0
 40
160.0
  1
43
  0
TEXT
  5
471A
  8
0
  6
CONTINUOUS
 62
     7
 10
22631.427628000001
 20
9669.4554699999971
 30
0.0
 40
160.0
  1
5220
  0
TEXT
  5
471B
  8
0
  6
CONTINUOUS
 62
     7
 10
22644.760961333312
 20
10069.41323999998
 30
0.0
 40
160.0
  1
5306
  0
ARC
  5
471C
  8
0
  6
BYBLOCK
 62
     0
 10
20258.42525299995
 20
9989.4132399999962
 30
0.0
 40
15.0
 50
0.0
 51
180.0
  0
ARC
  5
471D
  8
0
  6
BYBLOCK
 62
     0
 10
20258.42525299995
 20
9989.4132399999962
 30
0.0
 40
15.0
 50
180.0
 51
0.0
  0
ARC
  5
471E
  8
0
  6
BYBLOCK
 62
     0
 10
25564.43000299995
 20
9989.4132399999962
 30
0.0
 40
15.0
 50
180.0
 51
0.0
  0
ARC
  5
471F
  8
0
  6
BYBLOCK
 62
     0
 10
25564.43000299995
 20
9989.4132399999962
 30
0.0
 40
15.0
 50
0.0
 51
180.0
  0
ARC
  5
4720
  8
0
  6
BYBLOCK
 62
     0
 10
20301.427363999988
 20
9589.4554699999971
 30
0.0
 40
15.0
 50
0.0
 51
180.0
  0
ARC
  5
4721
  8
0
  6
BYBLOCK
 62
     0
 10
20301.427363999988
 20
9589.4554699999971
 30
0.0
 40
15.0
 50
180.0
 51
0.0
  0
ARC
  5
4722
  8
0
  6
BYBLOCK
 62
     0
 10
25521.427891999982
 20
9589.4554699999971
 30
0.0
 40
15.0
 50
180.0
 51
0.0
  0
ARC
  5
4723
  8
0
  6
BYBLOCK
 62
     0
 10
25521.427891999982
 20
9589.4554699999971
 30
0.0
 40
15.0
 50
0.0
 51
180.0
  0
ARC
  5
4724
  8
0
  6
BYBLOCK
 62
     0
 10
20301.427363999988
 20
9589.4554699999971
 30
0.0
 40
15.0
 50
0.0
 51
180.0
  0
ARC
  5
4725
  8
0
  6
BYBLOCK
 62
     0
 10
20301.427363999988
 20
9589.4554699999971
 30
0.0
 40
15.0
 50
180.0
 51
0.0
  0
ARC
  5
4726
  8
0
  6
BYBLOCK
 62
     0
 10
20258.42525299995
 20
9589.4554699999971
 30
0.0
 40
15.0
 50
180.0
 51
0.0
  0
ARC
  5
4727
  8
0
  6
BYBLOCK
 62
     0
 10
20258.42525299995
 20
9589.4554699999971
 30
0.0
 40
15.0
 50
0.0
 51
180.0
  0
ARC
  5
4728
  8
0
  6
BYBLOCK
 62
     0
 10
25521.427891999982
 20
9589.4554699999971
 30
0.0
 40
15.0
 50
180.0
 51
0.0
  0
ARC
  5
4729
  8
0
  6
BYBLOCK
 62
     0
 10
25521.427891999982
 20
9589.4554699999971
 30
0.0
 40
15.0
 50
0.0
 51
180.0
  0
ARC
  5
472A
  8
0
  6
BYBLOCK
 62
     0
 10
25564.43000299995
 20
9589.4554699999971
 30
0.0
 40
15.0
 50
0.0
 51
180.0
  0
ARC
  5
472B
  8
0
  6
BYBLOCK
 62
     0
 10
25564.43000299995
 20
9589.4554699999971
 30
0.0
 40
15.0
 50
180.0
 51
0.0
  0
LINE
  5
4739
  8
SUNPOU
  6
CONTINUOUS
 62
     4
 10
9399.2603330000184
 20
14262.459720000001
 30
0.0
 11
9399.2603330000184
 21
13083.512888999991
 31
0.0
  0
LINE
  5
473A
  8
SUNPOU
  6
CONTINUOUS
 62
     4
 10
14705.26013500002
 20
14262.459720000001
 30
0.0
 11
14705.26013500002
 21
13083.512888999991
 31
0.0
  0
LINE
  5
473B
  8
SUNPOU
  6
CONTINUOUS
 62
     4
 10
9399.2603330000184
 20
13163.512888999991
 30
0.0
 11
14705.26013500002
 21
13163.512888999991
 31
0.0
  0
TEXT
  5
473C
  8
0
  6
CONTINUOUS
 62
     7
 10
11262.926900666669
 20
13243.512888999991
 30
0.0
 40
160.0
  1
ケラバ外寸 5306
  0
ARC
  5
473D
  8
0
  6
BYBLOCK
 62
     0
 10
9399.2603330000184
 20
13163.512888999991
 30
0.0
 40
15.0
 50
0.0
 51
180.0
  0
ARC
  5
473E
  8
0
  6
BYBLOCK
 62
     0
 10
9399.2603330000184
 20
13163.512888999991
 30
0.0
 40
15.0
 50
180.0
 51
0.0
  0
ARC
  5
473F
  8
0
  6
BYBLOCK
 62
     0
 10
14705.26013500002
 20
13163.512888999991
 30
0.0
 40
15.0
 50
180.0
 51
0.0
  0
ARC
  5
4740
  8
0
  6
BYBLOCK
 62
     0
 10
14705.26013500002
 20
13163.512888999991
 30
0.0
 40
15.0
 50
0.0
 51
180.0
  0
TEXT
  5
4793
  8
NAME
 10
25530.092913773478
 20
1076.0
 30
0.0
 40
360.0
  1
型（単棟）
 41
0.6
  7
01
  0
TEXT
  5
4794
  8
NAME
 10
21583.547829600891
 20
1076.6369801169251
 30
0.0
 40
360.0
  1
VGCU-3352（H）+1952（H）
 41
0.5200000000000001
  0
TEXT
  5
4796
  8
NAME
 10
21933.552716388989
 20
1876.0
 30
0.0
 40
360.0
  1
ヨドガレージ ラヴィージュ
 41
0.75
  7
01
  0
LINE
  5
4797
  8
NAME
  6
CONTINUOUS
 10
26067.886878884288
 20
2236.0
 30
0.0
 11
26067.886878884288
 21
1876.0
 31
0.0
  0
LINE
  5
4798
  8
NAME
  6
CONTINUOUS
 10
26167.886878884288
 20
2236.0
 30
0.0
 11
26167.886878884288
 21
1876.0
 31
0.0
  0
LINE
  5
4799
  8
NAME
  6
CONTINUOUS
 10
26267.88687888431
 20
2236.0
 30
0.0
 11
26267.88687888431
 21
1876.0
 31
0.0
  0
LINE
  5
479A
  8
NAME
  6
CONTINUOUS
 10
26007.886878884288
 20
2236.0
 30
0.0
 11
26327.886878884288
 21
2236.0
 31
0.0
  0
LINE
  5
479B
  8
NAME
  6
CONTINUOUS
 10
26327.886878884288
 20
1876.0
 30
0.0
 11
26007.886878884288
 21
1876.0
 31
0.0
  0
TEXT
  5
484F
  8
FILENAME
  6
CONTINUOUS
 10
27537.333333333328
 20
348.0
 30
0.0
 40
200.0
  1
＜VGCU-3352+1952-1-A_0.DXF ＞
  7
FILENAME
 72
     2
 11
32764.0
 21
348.0
 31
0.0
  0
LINE
  5
4854
  8
WAKUSEN-01
 10
868.00000000000193
 20
827.99999999999955
 30
0.0
 11
32764.000000000011
 21
827.99999999999943
 31
0.0
  0
LINE
  5
4855
  8
WAKUSEN-01
 10
868.00000000000193
 20
827.99999999999955
 30
0.0
 11
868.00000000000193
 21
22484.000000000011
 31
0.0
  0
LINE
  5
4856
  8
WAKUSEN-01
 10
32764.000000000011
 20
827.99999999999943
 30
0.0
 11
32764.000000000011
 21
22484.000000000011
 31
0.0
  0
LINE
  5
4857
  8
WAKUSEN-01
 10
20560.0
 20
827.99999999999716
 30
0.0
 11
20560.0
 21
2484.0
 31
0.0
  0
LINE
  5
4858
  8
WAKUSEN-02
 10
26868.0
 20
827.99999999999261
 30
0.0
 11
26868.0
 21
2484.0
 31
0.0
  0
ENDSEC
  0
EOF
