  0
SECTION
  2
HEADER
  9
$ACADVER
  1
AC1009
  9
$INSBASE
 10
0.0
 20
0.0
 30
0.0
  9
$EXTMIN
 10
867.99324330406671
 20
327.38164749855792
 30
-0.000000000000013
  9
$EXTMAX
 10
32765.33210850941
 20
22484.553276491992
 30
0.0000000000000023
  9
$LIMMIN
 10
0.0
 20
0.0
  9
$LIMMAX
 10
33600.0
 20
23760.0
  9
$ORTHOMODE
 70
     1
  9
$REGENMODE
 70
     1
  9
$FILLMODE
 70
     1
  9
$QTEXTMODE
 70
     0
  9
$MIRRTEXT
 70
     1
  9
$DRAGMODE
 70
     2
  9
$LTSCALE
 40
80.0
  9
$OSMODE
 70
  3071
  9
$ATTMODE
 70
     1
  9
$TEXTSIZE
 40
0.2
  9
$TRACEWID
 40
0.05
  9
$TEXTSTYLE
  7
00
  9
$CLAYER
  8
0
  9
$CELTYPE
  6
BYLAYER
  9
$CECOLOR
 62
   256
  9
$DIMSCALE
 40
80.0
  9
$DIMASZ
 40
3.0
  9
$DIMEXO
 40
1.0
  9
$DIMDLI
 40
0.38
  9
$DIMRND
 40
0.5
  9
$DIMDLE
 40
0.0
  9
$DIMEXE
 40
1.0
  9
$DIMTP
 40
0.0
  9
$DIMTM
 40
0.0
  9
$DIMTXT
 40
2.0
  9
$DIMCEN
 40
0.09
  9
$DIMTSZ
 40
0.0
  9
$DIMTOL
 70
     0
  9
$DIMLIM
 70
     0
  9
$DIMTIH
 70
     0
  9
$DIMTOH
 70
     0
  9
$DIMSE1
 70
     0
  9
$DIMSE2
 70
     0
  9
$DIMTAD
 70
     1
  9
$DIMZIN
 70
     8
  9
$DIMBLK
  1
DOTSMALL
  9
$DIMASO
 70
     1
  9
$DIMSHO
 70
     1
  9
$DIMPOST
  1

  9
$DIMAPOST
  1

  9
$DIMALT
 70
     0
  9
$DIMALTD
 70
     2
  9
$DIMALTF
 40
25.399999999999999
  9
$DIMLFAC
 40
1.0
  9
$DIMTOFL
 70
     1
  9
$DIMTVP
 40
0.0
  9
$DIMTIX
 70
     0
  9
$DIMSOXD
 70
     0
  9
$DIMSAH
 70
     0
  9
$DIMBLK1
  1

  9
$DIMBLK2
  1

  9
$DIMSTYLE
  2
SUNPOU
  9
$DIMCLRD
 70
     4
  9
$DIMCLRE
 70
     4
  9
$DIMCLRT
 70
     7
  9
$DIMTFAC
 40
1.0
  9
$DIMGAP
 40
1.0
  9
$LUNITS
 70
     2
  9
$LUPREC
 70
     4
  9
$SKETCHINC
 40
0.1
  9
$FILLETRAD
 40
0.0
  9
$AUNITS
 70
     0
  9
$AUPREC
 70
     0
  9
$MENU
  1
acad
  9
$ELEVATION
 40
0.0
  9
$PELEVATION
 40
0.0
  9
$THICKNESS
 40
0.0
  9
$LIMCHECK
 70
     0
  9
$BLIPMODE
 70
     1
  9
$CHAMFERA
 40
0.0
  9
$CHAMFERB
 40
0.0
  9
$SKPOLY
 70
     0
  9
$TDCREATE
 40
2311940.075052408
  9
$TDUPDATE
 40
2458942.436880081
  9
$TDINDWG
 40
0.0795658912
  9
$TDUSRTIMER
 40
0.079564838
  9
$USRTIMER
 70
     1
  9
$ANGBASE
 50
0.0
  9
$ANGDIR
 70
     0
  9
$PDMODE
 70
     0
  9
$PDSIZE
 40
0.0
  9
$PLINEWID
 40
0.0
  9
$COORDS
 70
     1
  9
$SPLFRAME
 70
     0
  9
$SPLINETYPE
 70
     6
  9
$SPLINESEGS
 70
     8
  9
$ATTDIA
 70
     1
  9
$ATTREQ
 70
     1
  9
$HANDLING
 70
     1
  9
$HANDSEED
  5
4714
  9
$SURFTAB1
 70
     6
  9
$SURFTAB2
 70
     6
  9
$SURFTYPE
 70
     6
  9
$SURFU
 70
     6
  9
$SURFV
 70
     6
  9
$UCSNAME
  2

  9
$UCSORG
 10
0.0
 20
0.0
 30
0.0
  9
$UCSXDIR
 10
1.0
 20
0.0
 30
0.0
  9
$UCSYDIR
 10
0.0
 20
1.0
 30
0.0
  9
$PUCSNAME
  2

  9
$PUCSORG
 10
0.0
 20
0.0
 30
0.0
  9
$PUCSXDIR
 10
1.0
 20
0.0
 30
0.0
  9
$PUCSYDIR
 10
0.0
 20
1.0
 30
0.0
  9
$USERI1
 70
     0
  9
$USERI2
 70
     0
  9
$USERI3
 70
     0
  9
$USERI4
 70
     0
  9
$USERI5
 70
     0
  9
$USERR1
 40
0.0
  9
$USERR2
 40
0.0
  9
$USERR3
 40
0.0
  9
$USERR4
 40
0.0
  9
$USERR5
 40
0.0
  9
$WORLDVIEW
 70
     1
  9
$SHADEDGE
 70
     3
  9
$SHADEDIF
 70
    70
  9
$TILEMODE
 70
     1
  9
$MAXACTVP
 70
    16
  9
$PLIMCHECK
 70
     0
  9
$PEXTMIN
 10
1.0000000000000000E+020
 20
1.0000000000000000E+020
 30
1.0000000000000000E+020
  9
$PEXTMAX
 10
-1.0000000000000000E+020
 20
-1.0000000000000000E+020
 30
-1.0000000000000000E+020
  9
$PLIMMIN
 10
0.0
 20
0.0
  9
$PLIMMAX
 10
12.0
 20
9.0
  9
$UNITMODE
 70
     0
  9
$VISRETAIN
 70
     0
  9
$PLINEGEN
 70
     1
  9
$PSLTSCALE
 70
     0
  0
ENDSEC
  0
SECTION
  2
TABLES
  0
TABLE
  2
VPORT
 70
     1
  0
VPORT
  2
*ACTIVE
 70
     0
 10
0.0
 20
0.0
 11
1.0
 21
1.0
 12
16800.0
 22
11880.0
 13
0.0
 23
0.0
 14
1.0
 24
1.0
 15
0.0
 25
0.0
 16
0.0
 26
0.0
 36
1.0
 17
0.0
 27
0.0
 37
0.0
 40
23981.023255813951
 41
2.195652173913043
 42
50.0
 43
0.0
 44
0.0
 50
0.0
 51
0.0
 71
     0
 72
 10000
 73
     1
 74
     1
 75
     0
 76
     0
 77
     0
 78
     0
  0
ENDTAB
  0
TABLE
  2
LTYPE
 70
     3
  0
LTYPE
  2
CONTINUOUS
 70
     0
  3
Solid line
 72
    65
 73
     0
 40
0.0
  0
LTYPE
  2
DASHED3
 70
     0
  3
------  ------  ------  ------  
 72
    65
 73
     2
 40
5.0
 49
3.75
 49
-1.25
  0
LTYPE
  2
CENTER2
 70
     0
  3
----------  --  ----------  --  
 72
    65
 73
     4
 40
20.0
 49
12.5
 49
-2.5
 49
2.5
 49
-2.5
  0
ENDTAB
  0
TABLE
  2
LAYER
 70
    17
  0
LAYER
  2
0
 70
     0
 62
     7
  6
CONTINUOUS
  0
LAYER
  2
SUNPOU
 70
     0
 62
     4
  6
CONTINUOUS
  0
LAYER
  2
0-1
 70
     0
 62
     7
  6
CONTINUOUS
  0
LAYER
  2
0-2
 70
     0
 62
     7
  6
CONTINUOUS
  0
LAYER
  2
0-5
 70
     0
 62
     7
  6
CONTINUOUS
  0
LAYER
  2
2-0
 70
     0
 62
     7
  6
CONTINUOUS
  0
LAYER
  2
0-6
 70
     0
 62
     7
  6
CONTINUOUS
  0
LAYER
  2
0-7
 70
     0
 62
     7
  6
CONTINUOUS
  0
LAYER
  2
YODOROGO
 70
     0
 62
   130
  6
CONTINUOUS
  0
LAYER
  2
WAKUSEN-01
 70
     0
 62
    50
  6
CONTINUOUS
  0
LAYER
  2
WAKUSEN-02
 70
     0
 62
   130
  6
CONTINUOUS
  0
LAYER
  2
WAKUMOJI-01
 70
     0
 62
   130
  6
CONTINUOUS
  0
LAYER
  2
FILENAME
 70
     0
 62
     7
  6
CONTINUOUS
  0
LAYER
  2
NAME
 70
     0
 62
    20
  6
CONTINUOUS
  0
LAYER
  2
0-4
 70
     0
 62
     7
  6
CONTINUOUS
  0
ENDTAB
  0
TABLE
  2
STYLE
 70
     5
  0
STYLE
  2
STANDARD
 70
     0
 40
0.0
 41
1.0
 50
0.0
 71
     0
 42
0.0
  3
txt
  4
BIGFONT
  0
STYLE
  2
00
 70
     0
 40
0.0
 41
0.6666666666666666
 50
0.0
 71
     0
 42
0.2
  3
ROMANS
  4
BIGFONT
  0
STYLE
  2
01
 70
     0
 40
3.0
 41
1.0
 50
0.0
 71
     0
 42
0.2
  3
ROMANS
  4
BIGFONT
  0
STYLE
  2
WAKUMOJI
 70
     0
 40
3.0
 41
1.0
 50
0.0
 71
     0
 42
3.0
  3
SIMPLEX
  4
BIGFONT
  0
STYLE
  2
FILENAME
 70
     0
 40
200.0
 41
1.0
 50
0.0
 71
     0
 42
200.0
  3
romans
  4
bigfont
  0
ENDTAB
  0
TABLE
  2
VIEW
 70
     0
  0
ENDTAB
  0
TABLE
  2
UCS
 70
     0
  0
ENDTAB
  0
TABLE
  2
APPID
 70
    13
  0
APPID
  2
ACAD
 70
     0
  0
APPID
  2
ACADANNOTATIVE
 70
     0
  0
APPID
  2
ACAD_PSEXT
 70
     0
  0
APPID
  2
DCO15
 70
     0
  0
APPID
  2
ACAD_MLEADERVER
 70
     0
  0
APPID
  2
AUTOCAD_POSTSCRIPT_FIGURE
 70
     0
  0
APPID
  2
ACAD_EXEMPT_FROM_CAD_STANDARDS
 70
     0
  0
APPID
  2
ACAD_DSTYLE_DIMJAG
 70
     0
  0
APPID
  2
ACAD_DSTYLE_DIMTALN
 70
     0
  0
APPID
  2
ACAD_DSTYLE_DIM_LINETYPE
 70
     0
  0
APPID
  2
ACAD_DSTYLE_DIM_EXT1_LINETYPE
 70
     0
  0
APPID
  2
ACAD_DSTYLE_DIM_EXT2_LINETYPE
 70
     0
  0
APPID
  2
ACAD_NAV_VCDISPLAY
 70
     0
  0
ENDTAB
  0
TABLE
  2
DIMSTYLE
 70
     2
  0
DIMSTYLE
  2
SUNPOU
 70
     0
  3

  4

  5

  6

  7

 40
80.0
 41
3.0
 42
1.0
 43
0.38
 44
1.0
 45
0.5
 46
0.0
 47
0.0
 48
0.0
140
2.0
141
0.09
142
0.0
143
25.399999999999999
144
1.0
145
0.0
146
1.0
147
1.0
 71
     0
 72
     0
 73
     0
 74
     0
 75
     0
 76
     0
 77
     1
 78
     8
170
     0
171
     2
172
     1
173
     0
174
     0
175
     0
176
     4
177
     4
178
     7
  0
ENDTAB
  0
ENDSEC
  0
SECTION
  2
BLOCKS
  0
BLOCK
  8
0
  2
$MODEL_SPACE
 70
     0
 10
0.0
 20
0.0
 30
0.0
  3
$MODEL_SPACE
  1

  0
ENDBLK
  5
3B5C
  8
0
  0
BLOCK
 67
     1
  8
0
  2
$PAPER_SPACE
 70
     0
 10
0.0
 20
0.0
 30
0.0
  3
$PAPER_SPACE
  1

  0
ENDBLK
  5
3B58
 67
     1
  8
0
  0
BLOCK
  8
0
  2
_DOTSMALL
 70
     0
 10
0.0
 20
0.0
 30
0.0
  3
_DOTSMALL
  1

  0
POLYLINE
  5
3B8B
  8
0
  6
BYBLOCK
 62
     0
 66
     1
 10
0.0
 20
0.0
 30
0.0
 70
     1
 40
0.5
 41
0.5
  0
VERTEX
  5
46DC
  8
0
  6
BYBLOCK
 62
     0
 10
-0.0625
 20
0.0
 30
0.0
 42
1.0
  0
VERTEX
  5
46DD
  8
0
  6
BYBLOCK
 62
     0
 10
0.0625
 20
0.0
 30
0.0
 42
1.0
  0
SEQEND
  5
46DE
  8
0
  6
BYBLOCK
 62
     0
  0
ENDBLK
  5
3B8F
  8
0
  0
ENDSEC
  0
SECTION
  2
ENTITIES
  0
LINE
  5
3B90
  8
0-1
  6
CONTINUOUS
 62
     3
 10
9093.3272270000016
 20
20094.22682299999
 30
0.0
 11
14953.326000999999
 21
20094.22682299999
 31
0.0
  0
LINE
  5
3B91
  8
0-1
  6
CONTINUOUS
 62
     3
 10
9105.3261189999957
 20
18387.734477000002
 30
0.0
 11
11404.07728
 21
18387.734477000002
 31
0.0
  0
LINE
  5
3B92
  8
0-1
  6
CONTINUOUS
 62
     3
 10
9105.3261189999957
 20
18477.733288999982
 30
0.0
 11
11235.490590999991
 21
18477.733288999982
 31
0.0
  0
LINE
  5
3B93
  8
0-1
  6
CONTINUOUS
 62
     3
 10
11823.81143099998
 20
18364.700798000002
 30
0.0
 11
9175.3258549999991
 21
16973.730914
 31
0.0
  0
LINE
  5
3B94
  8
0-1
  6
CONTINUOUS
 62
     3
 10
9175.3258549999991
 20
18432.730914
 30
0.0
 11
11953.326383
 21
16973.730914
 31
0.0
  0
LINE
  5
3B95
  8
0-1
  6
CONTINUOUS
 62
     3
 10
11953.326383
 20
16973.730914
 30
0.0
 11
9175.3258549999991
 21
15514.971425500011
 31
0.0
  0
LINE
  5
3B96
  8
0-1
  6
CONTINUOUS
 62
     3
 10
9175.3258549999991
 20
16973.730914
 30
0.0
 11
11953.326383
 21
15514.971425500011
 31
0.0
  0
LINE
  5
3B97
  8
0-1
  6
CONTINUOUS
 62
     3
 10
9105.3261189999957
 20
15469.97201950001
 30
0.0
 11
14888.32648899999
 21
15469.97201950001
 31
0.0
  0
LINE
  5
3B98
  8
0-1
  6
CONTINUOUS
 62
     3
 10
9105.3261189999957
 20
15559.971821500019
 30
0.0
 11
14888.32648899999
 21
15559.971821500019
 31
0.0
  0
LINE
  5
3B99
  8
0-1
  6
CONTINUOUS
 62
     3
 10
9175.3258549999991
 20
15514.971425500011
 30
0.0
 11
11953.326383
 21
14055.730913999991
 31
0.0
  0
LINE
  5
3B9A
  8
0-1
  6
CONTINUOUS
 62
     3
 10
11953.326383
 20
15514.971425500011
 30
0.0
 11
9175.3258549999991
 21
14055.730913999991
 31
0.0
  0
LINE
  5
3B9B
  8
0-1
  6
CONTINUOUS
 62
     3
 10
9019.8257229999963
 20
13895.23055700001
 30
0.0
 11
15026.825525
 21
13895.23055700001
 31
0.0
  0
LINE
  5
3B9C
  8
0-1
  6
CONTINUOUS
 62
     3
 10
9019.8257229999963
 20
13863.23065000001
 30
0.0
 11
15026.825525
 21
13863.23065000001
 31
0.0
  0
LINE
  5
3B9D
  8
0-1
  6
CONTINUOUS
 62
     3
 10
9105.3261189999957
 20
14098.231178
 30
0.0
 11
14941.326118999999
 21
14098.231178
 31
0.0
  0
LINE
  5
3B9E
  8
0-1
  6
CONTINUOUS
 62
     3
 10
9062.8258549999955
 20
14019.230571
 30
0.0
 11
14983.82638299998
 21
14019.230571
 31
0.0
  0
LINE
  5
3B9F
  8
0-1
  6
CONTINUOUS
 62
     3
 10
9062.8258549999955
 20
14019.230571
 30
0.0
 11
9062.8258549999955
 21
19637.25588199999
 31
0.0
  0
LINE
  5
3BA0
  8
0-1
  6
CONTINUOUS
 62
     3
 10
9105.3261189999957
 20
14019.230571
 30
0.0
 11
9105.3261189999957
 21
19614.570598999999
 31
0.0
  0
LINE
  5
3BA1
  8
0-1
  6
CONTINUOUS
 62
     3
 10
9019.8257229999963
 20
13863.23065000001
 30
0.0
 11
9019.8257229999963
 21
20104.232232999992
 31
0.0
  0
LINE
  5
3BA2
  8
0-1
  6
CONTINUOUS
 62
     3
 10
9155.3267390000037
 20
13895.23055700001
 30
0.0
 11
9155.3267390000037
 21
20094.22682299999
 31
0.0
  0
LINE
  5
3BA3
  8
0-1
  6
CONTINUOUS
 62
     3
 10
9037.8264750000017
 20
19649.00234499999
 30
0.0
 11
9037.8264750000017
 21
20096.729857999992
 31
0.0
  0
LINE
  5
3BA4
  8
0-1
  6
CONTINUOUS
 62
     3
 10
9194.8270820000016
 20
19566.790959000002
 30
0.0
 11
9194.8270820000016
 21
20094.22682299999
 31
0.0
  0
LINE
  5
3BA5
  8
0-1
  6
CONTINUOUS
 62
     3
 10
9093.3272270000016
 20
20079.230913999989
 30
0.0
 11
9093.3272270000016
 21
20109.232496999979
 31
0.0
  0
LINE
  5
3BA6
  8
0-1
  6
CONTINUOUS
 62
     3
 10
9019.8257229999963
 20
20109.232496999979
 30
0.0
 11
9019.8257229999963
 21
20074.23064999999
 31
0.0
  0
LINE
  5
3BA7
  8
0-1
  6
CONTINUOUS
 62
     3
 10
9088.3259739999958
 20
20114.232760999988
 30
0.0
 11
9024.8259869999983
 21
20114.232760999988
 31
0.0
  0
LINE
  5
3BA8
  8
0-1
  6
CONTINUOUS
 62
     3
 10
9037.8264750000017
 20
20096.729857999992
 30
0.0
 11
9019.8257229999963
 21
20096.729857999992
 31
0.0
  0
LINE
  5
3BA9
  8
0-1
  6
CONTINUOUS
 62
     3
 10
9037.8264750000017
 20
20074.23064999999
 30
0.0
 11
9088.3259739999958
 21
20074.23064999999
 31
0.0
  0
LINE
  5
3BAA
  8
0-1
  6
CONTINUOUS
 62
     3
 10
15008.826752999999
 20
16475.296620999969
 30
0.0
 11
15008.826752999999
 21
20096.729857999992
 31
0.0
  0
LINE
  5
3BAB
  8
0-1
  6
CONTINUOUS
 62
     3
 10
10004.827848000001
 20
19139.71576399999
 30
0.0
 11
10004.827848000001
 21
20094.22682299999
 31
0.0
  0
LINE
  5
3BAC
  8
0-1
  6
CONTINUOUS
 62
     3
 10
9841.8263700000007
 20
19226.731442
 30
0.0
 11
9841.8263700000007
 21
20094.22682299999
 31
0.0
  0
LINE
  5
3BAD
  8
0-1
  6
CONTINUOUS
 62
     3
 10
9804.8261980000025
 20
19246.485057999998
 30
0.0
 11
9804.8261980000025
 21
20094.22682299999
 31
0.0
  0
LINE
  5
3BAE
  8
0-1
  6
CONTINUOUS
 62
     3
 10
9604.8265279999996
 20
19353.252371999999
 30
0.0
 11
9604.8265280000032
 21
20094.226823000001
 31
0.0
  0
LINE
  5
3BAF
  8
0-1
  6
CONTINUOUS
 62
     3
 10
9641.8267000000014
 20
19333.49875599999
 30
0.0
 11
9641.8267000000014
 21
20094.22682299999
 31
0.0
  0
LINE
  5
3BB0
  8
0-1
  6
CONTINUOUS
 62
     3
 10
10041.82604
 20
19119.960167999991
 30
0.0
 11
10041.82604
 21
20094.22682299999
 31
0.0
  0
LINE
  5
3BB1
  8
0-1
  6
CONTINUOUS
 62
     3
 10
10641.826039999991
 20
18799.654266999991
 30
0.0
 11
10641.826039999991
 21
20094.22682299999
 31
0.0
  0
LINE
  5
3BB2
  8
0-1
  6
CONTINUOUS
 62
     3
 10
10604.827847999981
 20
18819.405902999992
 30
0.0
 11
10604.827847999981
 21
20094.22682299999
 31
0.0
  0
LINE
  5
3BB3
  8
0-1
  6
CONTINUOUS
 62
     3
 10
10441.826370000001
 20
18906.42554
 30
0.0
 11
10441.826370000001
 21
20094.22682299999
 31
0.0
  0
LINE
  5
3BB4
  8
0-1
  6
CONTINUOUS
 62
     3
 10
10404.82619799999
 20
18926.177176000001
 30
0.0
 11
10404.82619799999
 21
20094.22682299999
 31
0.0
  0
LINE
  5
3BB5
  8
0-1
  6
CONTINUOUS
 62
     3
 10
10204.826527999991
 20
19032.946469999999
 30
0.0
 11
10204.826527999991
 21
20094.226823000001
 31
0.0
  0
LINE
  5
3BB6
  8
0-1
  6
CONTINUOUS
 62
     3
 10
10241.82769
 20
19013.192854000001
 30
0.0
 11
10241.82769
 21
20094.226823000001
 31
0.0
  0
LINE
  5
3BB7
  8
0-1
  6
CONTINUOUS
 62
     3
 10
10804.826527999991
 20
18712.638588999991
 30
0.0
 11
10804.826527999991
 21
20094.22682299999
 31
0.0
  0
LINE
  5
3BB8
  8
0-1
  6
CONTINUOUS
 62
     3
 10
10841.82769
 20
18687.88689999998
 30
0.0
 11
10841.82769
 21
20094.22682299999
 31
0.0
  0
LINE
  5
3BB9
  8
0-1
  6
CONTINUOUS
 62
     3
 10
11004.82619799999
 20
18600.871222000002
 30
0.0
 11
11004.82619799999
 21
20094.22682299999
 31
0.0
  0
LINE
  5
3BBA
  8
0-1
  6
CONTINUOUS
 62
     3
 10
11041.82538
 20
18581.115625999992
 30
0.0
 11
11041.82538
 21
20094.22682299999
 31
0.0
  0
LINE
  5
3BBB
  8
0-1
  6
CONTINUOUS
 62
     3
 10
11204.827847999981
 20
18494.099948999999
 30
0.0
 11
11204.827847999981
 21
20094.22682299999
 31
0.0
  0
LINE
  5
3BBC
  8
0-1
  6
CONTINUOUS
 62
     3
 10
11241.82604
 20
18474.350291999988
 30
0.0
 11
11241.82604
 21
20094.22682299999
 31
0.0
  0
LINE
  5
3BBD
  8
0-1
  6
CONTINUOUS
 62
     3
 10
11404.825537999999
 20
18387.332633999991
 30
0.0
 11
11404.825537999999
 21
20094.22682299999
 31
0.0
  0
LINE
  5
3BBE
  8
0-1
  6
CONTINUOUS
 62
     3
 10
11441.82768999998
 20
18367.582977999991
 30
0.0
 11
11441.82768999998
 21
20094.22682299999
 31
0.0
  0
LINE
  5
3BBF
  8
0-1
  6
CONTINUOUS
 62
     3
 10
11604.82718799999
 20
18339.931081999988
 30
0.0
 11
11604.82718799999
 21
20094.22682299999
 31
0.0
  0
LINE
  5
3BC0
  8
0-1
  6
CONTINUOUS
 62
     3
 10
11641.82537999998
 20
18402.838202999988
 30
0.0
 11
11641.82537999998
 21
20094.22682299999
 31
0.0
  0
LINE
  5
3BC1
  8
0-1
  6
CONTINUOUS
 62
     3
 10
11841.82703
 20
18336.926173
 30
0.0
 11
11841.82703
 21
20094.22682299999
 31
0.0
  0
LINE
  5
3BC2
  8
0-1
  6
CONTINUOUS
 62
     3
 10
11804.82685799998
 20
18393.964022
 30
0.0
 11
11804.82685799998
 21
20094.22682299999
 31
0.0
  0
LINE
  5
3BC3
  8
0-1
  6
CONTINUOUS
 62
     3
 10
12004.826528
 20
18090.665933
 30
0.0
 11
12004.826528
 21
20094.22682299999
 31
0.0
  0
LINE
  5
3BC4
  8
0-1
  6
CONTINUOUS
 62
     3
 10
12041.827689999989
 20
18033.632042999991
 30
0.0
 11
12041.827689999989
 21
20094.226823000001
 31
0.0
  0
LINE
  5
3BC5
  8
0-1
  6
CONTINUOUS
 62
     3
 10
12204.826197999981
 20
17782.371749999991
 30
0.0
 11
12204.826197999981
 21
20094.22682299999
 31
0.0
  0
LINE
  5
3BC6
  8
0-1
  6
CONTINUOUS
 62
     3
 10
12404.826857999989
 20
17732.608631999989
 30
0.0
 11
12404.826857999989
 21
20094.226823000001
 31
0.0
  0
LINE
  5
3BC7
  8
0-1
  6
CONTINUOUS
 62
     3
 10
12441.82703
 20
17795.515752999981
 30
0.0
 11
12441.82703
 21
20094.226823000001
 31
0.0
  0
LINE
  5
3BC8
  8
0-1
  6
CONTINUOUS
 62
     3
 10
12641.82769
 20
17731.965288999989
 30
0.0
 11
12641.82769
 21
20094.22682299999
 31
0.0
  0
LINE
  5
3BC9
  8
0-1
  6
CONTINUOUS
 62
     3
 10
12604.826527999991
 20
17751.718904999991
 30
0.0
 11
12604.826527999991
 21
20094.226823000001
 31
0.0
  0
LINE
  5
3BCA
  8
0-1
  6
CONTINUOUS
 62
     3
 10
12804.82619799999
 20
17644.951590000001
 30
0.0
 11
12804.82619799999
 21
20094.22682299999
 31
0.0
  0
LINE
  5
3BCB
  8
0-1
  6
CONTINUOUS
 62
     3
 10
12841.826370000001
 20
17625.197974999988
 30
0.0
 11
12841.826370000001
 21
20094.226823000001
 31
0.0
  0
LINE
  5
3BCC
  8
0-1
  6
CONTINUOUS
 62
     3
 10
13041.82702999998
 20
17518.426701
 30
0.0
 11
13041.82702999998
 21
20094.22682299999
 31
0.0
  0
LINE
  5
3BCD
  8
0-1
  6
CONTINUOUS
 62
     3
 10
13004.827848000001
 20
17538.184276
 30
0.0
 11
13004.827848000001
 21
20094.22682299999
 31
0.0
  0
LINE
  5
3BCE
  8
0-1
  6
CONTINUOUS
 62
     3
 10
13241.82769
 20
17411.659387
 30
0.0
 11
13241.82769
 21
20094.22682299999
 31
0.0
  0
LINE
  5
3BCF
  8
0-1
  6
CONTINUOUS
 62
     3
 10
13204.825537999999
 20
17431.413002999991
 30
0.0
 11
13204.825537999999
 21
20094.22682299999
 31
0.0
  0
LINE
  5
3BD0
  8
0-1
  6
CONTINUOUS
 62
     3
 10
13441.826370000001
 20
17304.892072999992
 30
0.0
 11
13441.826370000001
 21
20094.22682299999
 31
0.0
  0
LINE
  5
3BD1
  8
0-1
  6
CONTINUOUS
 62
     3
 10
13404.82619799999
 20
17324.643709
 30
0.0
 11
13404.82619799999
 21
20094.22682299999
 31
0.0
  0
LINE
  5
3BD2
  8
0-1
  6
CONTINUOUS
 62
     3
 10
13641.827029999969
 20
17198.120799999979
 30
0.0
 11
13641.827029999969
 21
20094.22682299999
 31
0.0
  0
LINE
  5
3BD3
  8
0-1
  6
CONTINUOUS
 62
     3
 10
13604.827847999981
 20
17217.872436000001
 30
0.0
 11
13604.827847999981
 21
20094.226823000001
 31
0.0
  0
LINE
  5
3BD4
  8
0-1
  6
CONTINUOUS
 62
     3
 10
13841.826699999991
 20
17081.353381000001
 30
0.0
 11
13841.826699999991
 21
20094.22682299999
 31
0.0
  0
LINE
  5
3BD5
  8
0-1
  6
CONTINUOUS
 62
     3
 10
13804.825537999999
 20
17101.105017000002
 30
0.0
 11
13804.82553799999
 21
20094.22682299999
 31
0.0
  0
LINE
  5
3BD6
  8
0-1
  6
CONTINUOUS
 62
     3
 10
14004.82619799999
 20
16994.337703000001
 30
0.0
 11
14004.82619799999
 21
20094.226823000001
 31
0.0
  0
LINE
  5
3BD7
  8
0-1
  6
CONTINUOUS
 62
     3
 10
14041.82636999999
 20
16974.586066
 30
0.0
 11
14041.82636999999
 21
20094.226823000001
 31
0.0
  0
LINE
  5
3BD8
  8
0-1
  6
CONTINUOUS
 62
     3
 10
14241.82702999998
 20
16867.814793000001
 30
0.0
 11
14241.82702999998
 21
20094.22682299999
 31
0.0
  0
LINE
  5
3BD9
  8
0-1
  6
CONTINUOUS
 62
     3
 10
14204.82784799999
 20
16887.566429999999
 30
0.0
 11
14204.82784799999
 21
20094.226823000001
 31
0.0
  0
LINE
  5
3BDA
  8
0-1
  6
CONTINUOUS
 62
     3
 10
14404.82553799999
 20
16780.800104999991
 30
0.0
 11
14404.82553799999
 21
20094.226823000001
 31
0.0
  0
LINE
  5
3BDB
  8
0-1
  6
CONTINUOUS
 62
     3
 10
14441.8267
 20
16761.048469000001
 30
0.0
 11
14441.8267
 21
20094.22682299999
 31
0.0
  0
LINE
  5
3BDC
  8
0-1
  6
CONTINUOUS
 62
     3
 10
14604.82718799999
 20
16684.030915999982
 30
0.0
 11
14604.82718799999
 21
20094.226823000001
 31
0.0
  0
LINE
  5
3BDD
  8
0-1
  6
CONTINUOUS
 62
     3
 10
14641.82636999999
 20
16664.277299999991
 30
0.0
 11
14641.82636999999
 21
20094.22682299999
 31
0.0
  0
LINE
  5
3BDE
  8
0-1
  6
CONTINUOUS
 62
     3
 10
12241.825379999989
 20
17725.333901000002
 30
0.0
 11
12241.825379999989
 21
20094.22682299999
 31
0.0
  0
LINE
  5
3BDF
  8
0-1
  6
CONTINUOUS
 62
     3
 10
14814.82696399998
 20
16577.261622999991
 30
0.0
 11
14814.82696399998
 21
20094.226823000001
 31
0.0
  0
LINE
  5
3BE0
  8
0-1
  6
CONTINUOUS
 62
     3
 10
14851.826145999979
 20
16557.509986000001
 30
0.0
 11
14851.826145999979
 21
20094.22682299999
 31
0.0
  0
LINE
  5
3BE1
  8
0-1
  6
CONTINUOUS
 62
     3
 10
14891.32648899999
 20
13895.23055700001
 30
0.0
 11
14891.32648899999
 21
20094.226823000001
 31
0.0
  0
LINE
  5
3BE2
  8
0-1
  6
CONTINUOUS
 62
     3
 10
15026.825525
 20
13863.23065000001
 30
0.0
 11
15026.825525
 21
20104.232232999992
 31
0.0
  0
LINE
  5
3BE3
  8
0-1
  6
CONTINUOUS
 62
     3
 10
12093.32684499999
 20
15514.971425500011
 30
0.0
 11
14871.32539299999
 21
14055.730913999991
 31
0.0
  0
LINE
  5
3BE4
  8
0-1
  6
CONTINUOUS
 62
     3
 10
14871.32539299999
 20
15514.971425500011
 30
0.0
 11
12093.32684499999
 21
14055.730913999991
 31
0.0
  0
LINE
  5
3BE5
  8
0-1
  6
CONTINUOUS
 62
     3
 10
12093.32684499999
 20
16973.730914
 30
0.0
 11
14871.32539299999
 21
15514.971425500011
 31
0.0
  0
LINE
  5
3BE6
  8
0-1
  6
CONTINUOUS
 62
     3
 10
12080.326356999991
 20
14098.231178
 30
0.0
 11
12080.326356999991
 21
15469.97201950001
 31
0.0
  0
LINE
  5
3BE7
  8
0-1
  6
CONTINUOUS
 62
     3
 10
11966.32687099999
 20
14098.231178
 30
0.0
 11
11966.32687099999
 21
15469.97201950001
 31
0.0
  0
LINE
  5
3BE8
  8
0-1
  6
CONTINUOUS
 62
     3
 10
12023.32611899999
 20
14098.231178
 30
0.0
 11
12023.32611899999
 21
15469.97201950001
 31
0.0
  0
LINE
  5
3BE9
  8
0-1
  6
CONTINUOUS
 62
     3
 10
12023.32611899999
 20
14019.230571
 30
0.0
 11
12023.32611899999
 21
15469.97201950001
 31
0.0
  0
LINE
  5
3BEA
  8
0-1
  6
CONTINUOUS
 62
     3
 10
12325.075024
 20
17597.015568999999
 30
0.0
 11
11716.598724999991
 21
18529.966845999999
 31
0.0
  0
LINE
  5
3BEB
  8
0-1
  6
CONTINUOUS
 62
     3
 10
11578.254131
 20
18294.752529999991
 30
0.0
 11
11716.598724999991
 21
18529.966845999999
 31
0.0
  0
LINE
  5
3BEC
  8
0-1
  6
CONTINUOUS
 62
     3
 10
12023.32611899999
 20
17018.729330999991
 30
0.0
 11
12023.32611899999
 21
18062.148988000001
 31
0.0
  0
LINE
  5
3BED
  8
0-1
  6
CONTINUOUS
 62
     3
 10
12023.32611899999
 20
17018.729330999991
 30
0.0
 11
12023.32611899999
 21
17884.455523000001
 31
0.0
  0
LINE
  5
3BEE
  8
0-1
  6
CONTINUOUS
 62
     3
 10
11966.32687099999
 20
17018.729330999991
 30
0.0
 11
11966.32687099999
 21
18150.01189999999
 31
0.0
  0
LINE
  5
3BEF
  8
0-1
  6
CONTINUOUS
 62
     3
 10
12080.326356999991
 20
17018.729330999991
 30
0.0
 11
12080.326356999991
 21
17974.286076
 31
0.0
  0
LINE
  5
3BF0
  8
0-1
  6
CONTINUOUS
 62
     3
 10
13076.251848
 20
17500.052810000001
 30
0.0
 11
12093.32684499999
 21
16973.730914
 31
0.0
  0
LINE
  5
3BF1
  8
0-1
  6
CONTINUOUS
 62
     3
 10
12023.32611899999
 20
15559.971821500019
 30
0.0
 11
12023.32611899999
 21
16928.734477000002
 31
0.0
  0
LINE
  5
3BF2
  8
0-1
  6
CONTINUOUS
 62
     3
 10
12023.32611899999
 20
15559.971821500019
 30
0.0
 11
12023.32611899999
 21
16928.734477000002
 31
0.0
  0
LINE
  5
3BF3
  8
0-1
  6
CONTINUOUS
 62
     3
 10
12080.326356999991
 20
15559.971821500019
 30
0.0
 11
12080.326356999991
 21
16928.734477000002
 31
0.0
  0
LINE
  5
3BF4
  8
0-1
  6
CONTINUOUS
 62
     3
 10
11966.32687099999
 20
15559.971821500019
 30
0.0
 11
11966.32687099999
 21
16928.734477000002
 31
0.0
  0
LINE
  5
3BF5
  8
0-1
  6
CONTINUOUS
 62
     3
 10
12325.075024
 20
17597.015568999999
 30
0.0
 11
12461.171875
 21
17828.40743399999
 31
0.0
  0
LINE
  5
3BF6
  8
0-1
  6
CONTINUOUS
 62
     3
 10
14941.326118999999
 20
14019.230571
 30
0.0
 11
14941.326118999999
 21
16509.730345999989
 31
0.0
  0
LINE
  5
3BF7
  8
0-1
  6
CONTINUOUS
 62
     3
 10
14983.82638299998
 20
14019.230571
 30
0.0
 11
14983.82638299998
 21
16487.04308399999
 31
0.0
  0
LINE
  5
3BF8
  8
0-1
  6
CONTINUOUS
 62
     3
 10
9394.8267520000045
 20
19460.02364499999
 30
0.0
 11
9394.8267520000045
 21
20094.22682299999
 31
0.0
  0
LINE
  5
3BF9
  8
0-1
  6
CONTINUOUS
 62
     3
 10
9441.8270300000004
 20
19440.270028999999
 30
0.0
 11
9441.8270300000004
 21
20094.22682299999
 31
0.0
  0
LINE
  5
3BFA
  8
0-1
  6
CONTINUOUS
 62
     3
 10
9231.8262639999994
 20
19547.03932299999
 30
0.0
 11
9231.8262639999994
 21
20094.22682299999
 31
0.0
  0
LINE
  5
3BFB
  8
0-1
  6
CONTINUOUS
 62
     3
 10
15008.826752999999
 20
20096.729857999992
 30
0.0
 11
15026.825525
 21
20096.729857999992
 31
0.0
  0
LINE
  5
3BFC
  8
0-1
  6
CONTINUOUS
 62
     3
 10
14953.326000999999
 20
20079.230913999989
 30
0.0
 11
14953.326000999999
 21
20109.232496999979
 31
0.0
  0
LINE
  5
3BFD
  8
0-1
  6
CONTINUOUS
 62
     3
 10
15008.826752999999
 20
20074.23064999999
 30
0.0
 11
14958.32626399999
 21
20074.23064999999
 31
0.0
  0
LINE
  5
3BFE
  8
0-1
  6
CONTINUOUS
 62
     3
 10
15026.825525
 20
20109.232496999979
 30
0.0
 11
15026.825525
 21
20074.23064999999
 31
0.0
  0
LINE
  5
3BFF
  8
0-1
  6
CONTINUOUS
 62
     3
 10
14958.32626399999
 20
20114.232760999988
 30
0.0
 11
15021.825262
 21
20114.232760999988
 31
0.0
  0
LINE
  5
3C00
  8
0-1
  6
CONTINUOUS
 62
     3
 10
8871.6291039999978
 20
19739.327777999992
 30
0.0
 11
11578.254131
 21
18294.752529999991
 31
0.0
  0
LINE
  5
3C01
  8
0-1
  6
CONTINUOUS
 62
     3
 10
12461.171875
 20
17828.40743399999
 30
0.0
 11
15175.02115499998
 21
16384.973166999978
 31
0.0
  0
LINE
  5
3C02
  8
0-1
  6
CONTINUOUS
 62
     3
 10
10261.17649399999
 20
19002.863726
 30
0.0
 11
9175.3258549999991
 21
18432.730914
 31
0.0
  0
LINE
  5
3C03
  8
0-1
  6
CONTINUOUS
 62
     3
 10
14449.071738000001
 20
16757.180488999991
 30
0.0
 11
12093.32684499999
 21
15514.971425500011
 31
0.0
  0
LINE
  5
3C04
  8
0-1
  6
CONTINUOUS
 62
     3
 10
12023.32611899999
 20
14019.230571
 30
0.0
 11
12023.32611899999
 21
13863.23065000001
 31
0.0
  0
LINE
  5
3C05
  8
0-6
  6
CONTINUOUS
 62
     6
 10
9170.8115629999993
 20
17832.210089
 30
0.0
 11
9269.8538059999955
 21
17611.42052499999
 31
0.0
  0
LINE
  5
3C06
  8
0-6
  6
CONTINUOUS
 62
     6
 10
8927.9325509999962
 20
14443.503757
 30
0.0
 11
8369.4277139999976
 21
12663.23064999999
 31
0.0
  0
LINE
  5
3C07
  8
0-6
  6
CONTINUOUS
 62
     6
 10
14318.55316999999
 20
18529.093878
 30
0.0
 11
15225.591915999979
 21
18838.146005999999
 31
0.0
  0
LINE
  5
3C08
  8
0-6
  6
CONTINUOUS
 62
     6
 10
14318.55316999999
 20
17070.093879
 30
0.0
 11
15225.591915999979
 21
17384.14605799998
 31
0.0
  0
LINE
  5
3C09
  8
0-6
  6
CONTINUOUS
 62
     6
 10
14316.11638299998
 20
15411.91471850002
 30
0.0
 11
15225.591915999979
 21
15076.419338
 31
0.0
  0
LINE
  5
3C0A
  8
0-6
  6
CONTINUOUS
 62
     6
 10
10216.04940899999
 20
14427.058907000001
 30
0.0
 11
11016.04907899998
 21
14427.058907000001
 31
0.0
  0
LINE
  5
3C0B
  8
0-6
  6
CONTINUOUS
 62
     6
 10
10500.00837999999
 20
13726.762639
 30
0.0
 11
10857.61552106636
 21
13063.23098000002
 31
0.0
  0
LINE
  5
3C0C
  8
0-6
  6
CONTINUOUS
 62
     6
 10
10133.16300699999
 20
14250.12062800001
 30
0.0
 11
10216.04940899999
 21
14427.058907000001
 31
0.0
  0
LINE
  5
3C0D
  8
0-6
  6
CONTINUOUS
 62
     6
 10
11966.32687099999
 20
15733.57001799998
 30
0.0
 11
11805.667163999989
 21
16158.593443
 31
0.0
  0
LINE
  5
3C0E
  8
0-6
  6
CONTINUOUS
 62
     6
 10
10857.72322399999
 20
16158.593443
 30
0.0
 11
11805.667163999989
 21
16158.593443
 31
0.0
  0
LINE
  5
3C0F
  8
0-6
  6
CONTINUOUS
 62
     6
 10
9269.8538059999955
 20
17611.42052499999
 30
0.0
 11
9799.8526579999962
 21
17611.42052499999
 31
0.0
  0
LINE
  5
3C10
  8
0-6
  6
CONTINUOUS
 62
     6
 10
15225.591915999979
 20
15878.28074499998
 30
0.0
 11
16105.591850000001
 21
15878.28074499998
 31
0.0
  0
LINE
  5
3C11
  8
0-6
  6
CONTINUOUS
 62
     6
 10
14582.802075
 20
15676.03728999998
 30
0.0
 11
15225.591915999979
 21
15878.28074499998
 31
0.0
  0
LINE
  5
3C12
  8
0-6
  6
CONTINUOUS
 62
     6
 10
14581.89347599999
 20
20734.651494999998
 30
0.0
 11
14391.609282999991
 21
21064.233421000001
 31
0.0
  0
LINE
  5
3C13
  8
0-6
  6
CONTINUOUS
 62
     6
 10
10877.472881
 20
20344.233025000001
 30
0.0
 11
11395.16053899999
 21
20344.233025000001
 31
0.0
  0
LINE
  5
3C14
  8
0-6
  6
CONTINUOUS
 62
     6
 10
10733.56979799999
 20
19831.95934999999
 30
0.0
 11
10877.472881
 21
20344.233025000001
 31
0.0
  0
LINE
  5
3C15
  8
0-6
  6
CONTINUOUS
 62
     6
 10
12716.61093199999
 20
21064.233421000001
 30
0.0
 11
14391.609282999991
 21
21064.233421000001
 31
0.0
  0
LINE
  5
3C16
  8
0-6
  6
CONTINUOUS
 62
     6
 10
14875.091428
 20
20244.138668
 30
0.0
 11
14655.89975699999
 21
20606.467769999999
 31
0.0
  0
LINE
  5
3C17
  8
0-6
  6
CONTINUOUS
 62
     6
 10
15225.591915999979
 20
15076.419338
 30
0.0
 11
17220.034087999979
 21
15076.419338
 31
0.0
  0
LINE
  5
3C18
  8
0-6
  6
CONTINUOUS
 62
     6
 10
15225.591915999979
 20
18838.146005999999
 30
0.0
 11
17220.034087999979
 21
18838.146005999999
 31
0.0
  0
LINE
  5
3C19
  8
0-6
  6
CONTINUOUS
 62
     6
 10
15225.591915999979
 20
17384.14605799998
 30
0.0
 11
17220.034087999979
 21
17384.14605799998
 31
0.0
  0
LINE
  5
3C1A
  8
0-6
  6
CONTINUOUS
 62
     6
 10
7289.427119999993
 20
12663.23064999999
 30
0.0
 11
8369.4277139999976
 21
12663.23064999999
 31
0.0
  0
LINE
  5
3C1B
  8
0-6
  6
CONTINUOUS
 62
     6
 10
8953.3772830000016
 20
14435.520358999989
 30
0.0
 11
8975.8260130000017
 21
14596.16621000001
 31
0.0
  0
LINE
  5
3C1C
  8
0-6
  6
CONTINUOUS
 62
     6
 10
8975.8260130000017
 20
14596.16621000001
 30
0.0
 11
8902.4888089999949
 21
14451.485175999989
 31
0.0
  0
LINE
  5
3C1D
  8
0-6
  6
CONTINUOUS
 62
     6
 10
8975.8260130000017
 20
14596.16621000001
 30
0.0
 11
8953.3772830000016
 21
14435.520358999989
 31
0.0
  0
LINE
  5
3C1E
  8
0-6
  6
CONTINUOUS
 62
     6
 10
8953.3772830000016
 20
14435.520358999989
 30
0.0
 11
8902.4888089999949
 21
14451.485175999989
 31
0.0
  0
LINE
  5
3C1F
  8
0-6
  6
CONTINUOUS
 62
     6
 10
8902.4888089999949
 20
14451.485175999989
 30
0.0
 11
8975.8260130000017
 21
14596.16621000001
 31
0.0
  0
LINE
  5
3C20
  8
0-6
  6
CONTINUOUS
 62
     6
 10
8902.4888089999949
 20
14451.485175999989
 30
0.0
 11
8953.3772830000016
 21
14435.520358999989
 31
0.0
  0
LINE
  5
3C21
  8
0-6
  6
CONTINUOUS
 62
     6
 10
9195.1428150000029
 20
17843.12317499999
 30
0.0
 11
9105.3261189999957
 21
17978.195626000001
 31
0.0
  0
LINE
  5
3C22
  8
0-6
  6
CONTINUOUS
 62
     6
 10
9105.3261189999957
 20
17978.195626000001
 30
0.0
 11
9146.4803100000008
 21
17821.298983000001
 31
0.0
  0
LINE
  5
3C23
  8
0-6
  6
CONTINUOUS
 62
     6
 10
9105.3261189999957
 20
17978.195626000001
 30
0.0
 11
9195.1428150000029
 21
17843.12317499999
 31
0.0
  0
LINE
  5
3C24
  8
0-6
  6
CONTINUOUS
 62
     6
 10
9195.1428150000029
 20
17843.12317499999
 30
0.0
 11
9146.4803100000008
 21
17821.298983000001
 31
0.0
  0
LINE
  5
3C25
  8
0-6
  6
CONTINUOUS
 62
     6
 10
9146.4803100000008
 20
17821.298983000001
 30
0.0
 11
9105.3261189999957
 21
17978.195626000001
 31
0.0
  0
LINE
  5
3C26
  8
0-6
  6
CONTINUOUS
 62
     6
 10
9146.4803100000008
 20
17821.298983000001
 30
0.0
 11
9195.1428150000029
 21
17843.12317499999
 31
0.0
  0
LINE
  5
3C27
  8
0-6
  6
CONTINUOUS
 62
     6
 10
14727.090173999981
 20
15750.14848699998
 30
0.0
 11
14582.802075
 21
15676.03728999998
 31
0.0
  0
LINE
  5
3C28
  8
0-6
  6
CONTINUOUS
 62
     6
 10
14582.802075
 20
15676.03728999998
 30
0.0
 11
14753.325301000001
 21
15699.34612199999
 31
0.0
  0
LINE
  5
3C29
  8
0-6
  6
CONTINUOUS
 62
     6
 10
14582.802075
 20
15676.03728999998
 30
0.0
 11
14727.090173999981
 21
15750.14848699998
 31
0.0
  0
LINE
  5
3C2A
  8
0-6
  6
CONTINUOUS
 62
     6
 10
14727.090173999981
 20
15750.14848699998
 30
0.0
 11
14753.325301000001
 21
15699.34612199999
 31
0.0
  0
LINE
  5
3C2B
  8
0-6
  6
CONTINUOUS
 62
     6
 10
14753.325301000001
 20
15699.34612199999
 30
0.0
 11
14582.802075
 21
15676.03728999998
 31
0.0
  0
LINE
  5
3C2C
  8
0-6
  6
CONTINUOUS
 62
     6
 10
14753.325301000001
 20
15699.34612199999
 30
0.0
 11
14727.090173999981
 21
15750.14848699998
 31
0.0
  0
LINE
  5
3C2D
  8
0-6
  6
CONTINUOUS
 62
     6
 10
14325.79127999999
 20
15436.76262550001
 30
0.0
 11
14167.020032999981
 21
15469.97201950001
 31
0.0
  0
LINE
  5
3C2E
  8
0-6
  6
CONTINUOUS
 62
     6
 10
14167.020032999981
 20
15469.97201950001
 30
0.0
 11
14306.437525999991
 21
15387.063842500011
 31
0.0
  0
LINE
  5
3C2F
  8
0-6
  6
CONTINUOUS
 62
     6
 10
14167.020032999981
 20
15469.97201950001
 30
0.0
 11
14325.79127999999
 21
15436.76262550001
 31
0.0
  0
LINE
  5
3C30
  8
0-6
  6
CONTINUOUS
 62
     6
 10
14325.79127999999
 20
15436.76262550001
 30
0.0
 11
14306.437525999991
 21
15387.063842500011
 31
0.0
  0
LINE
  5
3C31
  8
0-6
  6
CONTINUOUS
 62
     6
 10
14306.437525999991
 20
15387.063842500011
 30
0.0
 11
14167.020032999981
 21
15469.97201950001
 31
0.0
  0
LINE
  5
3C32
  8
0-6
  6
CONTINUOUS
 62
     6
 10
14306.437525999991
 20
15387.063842500011
 30
0.0
 11
14325.79127999999
 21
15436.76262550001
 31
0.0
  0
LINE
  5
3C33
  8
0-6
  6
CONTINUOUS
 62
     6
 10
10522.75304799997
 20
13740.68261300001
 30
0.0
 11
10416.481604000001
 21
13863.23065000001
 31
0.0
  0
LINE
  5
3C34
  8
0-6
  6
CONTINUOUS
 62
     6
 10
10416.481604000001
 20
13863.23065000001
 30
0.0
 11
10477.263712
 21
13712.84167400001
 31
0.0
  0
LINE
  5
3C35
  8
0-6
  6
CONTINUOUS
 62
     6
 10
10416.481604000001
 20
13863.23065000001
 30
0.0
 11
10522.75304799997
 21
13740.68261300001
 31
0.0
  0
LINE
  5
3C36
  8
0-6
  6
CONTINUOUS
 62
     6
 10
10522.75304799997
 20
13740.68261300001
 30
0.0
 11
10477.263712
 21
13712.84167400001
 31
0.0
  0
LINE
  5
3C37
  8
0-6
  6
CONTINUOUS
 62
     6
 10
10477.263712
 20
13712.84167400001
 30
0.0
 11
10416.481604000001
 21
13863.23065000001
 31
0.0
  0
LINE
  5
3C38
  8
0-6
  6
CONTINUOUS
 62
     6
 10
10477.263712
 20
13712.84167400001
 30
0.0
 11
10522.75304799997
 21
13740.68261300001
 31
0.0
  0
LINE
  5
3C39
  8
0-6
  6
CONTINUOUS
 62
     6
 10
10109.01584899999
 20
14261.43258700001
 30
0.0
 11
10065.289274000001
 21
14105.23075500001
 31
0.0
  0
LINE
  5
3C3A
  8
0-6
  6
CONTINUOUS
 62
     6
 10
10065.289274000001
 20
14105.23075500001
 30
0.0
 11
10157.311154000001
 21
14238.80767900001
 31
0.0
  0
LINE
  5
3C3B
  8
0-6
  6
CONTINUOUS
 62
     6
 10
10065.289274000001
 20
14105.23075500001
 30
0.0
 11
10109.01584899999
 21
14261.43258700001
 31
0.0
  0
LINE
  5
3C3C
  8
0-6
  6
CONTINUOUS
 62
     6
 10
10109.01584899999
 20
14261.43258700001
 30
0.0
 11
10157.311154000001
 21
14238.80767900001
 31
0.0
  0
LINE
  5
3C3D
  8
0-6
  6
CONTINUOUS
 62
     6
 10
10157.311154000001
 20
14238.80767900001
 30
0.0
 11
10065.289274000001
 21
14105.23075500001
 31
0.0
  0
LINE
  5
3C3E
  8
0-6
  6
CONTINUOUS
 62
     6
 10
10157.311154000001
 20
14238.80767900001
 30
0.0
 11
10109.01584899999
 21
14261.43258700001
 31
0.0
  0
LINE
  5
3C3F
  8
0-6
  6
CONTINUOUS
 62
     6
 10
11933.985496999991
 20
15892.520411999991
 30
0.0
 11
11966.32687099999
 21
15733.57001799998
 31
0.0
  0
LINE
  5
3C40
  8
0-6
  6
CONTINUOUS
 62
     6
 10
11966.32687099999
 20
15733.57001799998
 30
0.0
 11
11884.18278899998
 21
15873.43884199999
 31
0.0
  0
LINE
  5
3C41
  8
0-6
  6
CONTINUOUS
 62
     6
 10
11966.32687099999
 20
15733.57001799998
 30
0.0
 11
11933.985496999991
 21
15892.520411999991
 31
0.0
  0
LINE
  5
3C42
  8
0-6
  6
CONTINUOUS
 62
     6
 10
11933.985496999991
 20
15892.520411999991
 30
0.0
 11
11884.18278899998
 21
15873.43884199999
 31
0.0
  0
LINE
  5
3C43
  8
0-6
  6
CONTINUOUS
 62
     6
 10
11884.18278899998
 20
15873.43884199999
 30
0.0
 11
11966.32687099999
 21
15733.57001799998
 31
0.0
  0
LINE
  5
3C44
  8
0-6
  6
CONTINUOUS
 62
     6
 10
11884.18278899998
 20
15873.43884199999
 30
0.0
 11
11933.985496999991
 21
15892.520411999991
 31
0.0
  0
LINE
  5
3C45
  8
0-6
  6
CONTINUOUS
 62
     6
 10
14309.991752
 20
17095.348577000001
 30
0.0
 11
14167.020032999981
 21
17018.729330999991
 31
0.0
  0
LINE
  5
3C46
  8
0-6
  6
CONTINUOUS
 62
     6
 10
14167.020032999981
 20
17018.729330999991
 30
0.0
 11
14327.111618000001
 21
17044.84116
 31
0.0
  0
LINE
  5
3C47
  8
0-6
  6
CONTINUOUS
 62
     6
 10
14167.020032999981
 20
17018.729330999991
 30
0.0
 11
14309.991752
 21
17095.348577000001
 31
0.0
  0
LINE
  5
3C48
  8
0-6
  6
CONTINUOUS
 62
     6
 10
14309.991752
 20
17095.348577000001
 30
0.0
 11
14327.111618000001
 21
17044.84116
 31
0.0
  0
LINE
  5
3C49
  8
0-6
  6
CONTINUOUS
 62
     6
 10
14327.111618000001
 20
17044.84116
 30
0.0
 11
14167.020032999981
 21
17018.729330999991
 31
0.0
  0
LINE
  5
3C4A
  8
0-6
  6
CONTINUOUS
 62
     6
 10
14327.111618000001
 20
17044.84116
 30
0.0
 11
14309.991752
 21
17095.348577000001
 31
0.0
  0
LINE
  5
3C4B
  8
0-6
  6
CONTINUOUS
 62
     6
 10
14309.991752
 20
18554.348576
 30
0.0
 11
14167.020032999981
 21
18477.733288999982
 31
0.0
  0
LINE
  5
3C4C
  8
0-6
  6
CONTINUOUS
 62
     6
 10
14167.020032999981
 20
18477.733288999982
 30
0.0
 11
14327.111618000001
 21
18503.84116
 31
0.0
  0
LINE
  5
3C4D
  8
0-6
  6
CONTINUOUS
 62
     6
 10
14167.020032999981
 20
18477.733288999982
 30
0.0
 11
14309.991752
 21
18554.348576
 31
0.0
  0
LINE
  5
3C4E
  8
0-6
  6
CONTINUOUS
 62
     6
 10
14309.991752
 20
18554.348576
 30
0.0
 11
14327.111618000001
 21
18503.84116
 31
0.0
  0
LINE
  5
3C4F
  8
0-6
  6
CONTINUOUS
 62
     6
 10
14327.111618000001
 20
18503.84116
 30
0.0
 11
14167.020032999981
 21
18477.733288999982
 31
0.0
  0
LINE
  5
3C50
  8
0-6
  6
CONTINUOUS
 62
     6
 10
14327.111618000001
 20
18503.84116
 30
0.0
 11
14309.991752
 21
18554.348576
 31
0.0
  0
LINE
  5
3C51
  8
0-6
  6
CONTINUOUS
 62
     6
 10
10707.681654
 20
19838.35517499999
 30
0.0
 11
10695.18297399999
 21
19676.630485999998
 31
0.0
  0
LINE
  5
3C52
  8
0-6
  6
CONTINUOUS
 62
     6
 10
10695.18297399999
 20
19676.630485999998
 30
0.0
 11
10759.45695199997
 21
19825.559567
 31
0.0
  0
LINE
  5
3C53
  8
0-6
  6
CONTINUOUS
 62
     6
 10
10695.18297399999
 20
19676.630485999998
 30
0.0
 11
10707.681654
 21
19838.35517499999
 31
0.0
  0
LINE
  5
3C54
  8
0-6
  6
CONTINUOUS
 62
     6
 10
10707.681654
 20
19838.35517499999
 30
0.0
 11
10759.45695199997
 21
19825.559567
 31
0.0
  0
LINE
  5
3C55
  8
0-6
  6
CONTINUOUS
 62
     6
 10
10759.45695199997
 20
19825.559567
 30
0.0
 11
10695.18297399999
 21
19676.630485999998
 31
0.0
  0
LINE
  5
3C56
  8
0-6
  6
CONTINUOUS
 62
     6
 10
10759.45695199997
 20
19825.559567
 30
0.0
 11
10707.681654
 21
19838.35517499999
 31
0.0
  0
LINE
  5
3C57
  8
0-6
  6
CONTINUOUS
 62
     6
 10
14853.440443
 20
20231.634049
 30
0.0
 11
14950.091428
 21
20114.232760999988
 31
0.0
  0
LINE
  5
3C58
  8
0-6
  6
CONTINUOUS
 62
     6
 10
14950.091428
 20
20114.232760999988
 30
0.0
 11
14896.743402
 21
20256.637348
 31
0.0
  0
LINE
  5
3C59
  8
0-6
  6
CONTINUOUS
 62
     6
 10
14950.091428
 20
20114.232760999988
 30
0.0
 11
14853.440443
 21
20231.634049
 31
0.0
  0
LINE
  5
3C5A
  8
0-6
  6
CONTINUOUS
 62
     6
 10
14853.440443
 20
20231.634049
 30
0.0
 11
14896.743402
 21
20256.637348
 31
0.0
  0
LINE
  5
3C5B
  8
0-6
  6
CONTINUOUS
 62
     6
 10
14896.743402
 20
20256.637348
 30
0.0
 11
14950.091428
 21
20114.232760999988
 31
0.0
  0
LINE
  5
3C5C
  8
0-6
  6
CONTINUOUS
 62
     6
 10
14896.743402
 20
20256.637348
 30
0.0
 11
14853.440443
 21
20231.634049
 31
0.0
  0
LINE
  5
3C5D
  8
2-0
  6
DASHED3
 62
     6
 10
9175.3258549999991
 20
19891.730914
 30
0.0
 11
11953.326383
 21
18432.730914
 31
0.0
  0
LINE
  5
3C5E
  8
2-0
  6
DASHED3
 62
     6
 10
9062.8258549999955
 20
19937.732946
 30
0.0
 11
14983.82638299998
 21
19937.732946
 31
0.0
  0
LINE
  5
3C5F
  8
2-0
  6
DASHED3
 62
     6
 10
9105.3261189999957
 20
19852.732418
 30
0.0
 11
14941.326118999999
 21
19852.732418
 31
0.0
  0
LINE
  5
3C60
  8
2-0
  6
DASHED3
 62
     6
 10
9105.3261189999957
 20
19614.570598999999
 30
0.0
 11
9105.3261189999957
 21
19937.732946
 31
0.0
  0
LINE
  5
3C61
  8
2-0
  6
DASHED3
 62
     6
 10
9062.8258549999955
 20
19637.25588199999
 30
0.0
 11
9062.8258549999955
 21
19937.732946
 31
0.0
  0
LINE
  5
3C62
  8
2-0
  6
DASHED3
 62
     6
 10
12023.32611899999
 20
18477.733288999982
 30
0.0
 11
12023.32611899999
 21
20084.233156999991
 31
0.0
  0
LINE
  5
3C63
  8
2-0
  6
DASHED3
 62
     6
 10
14871.32539299999
 20
19891.730914
 30
0.0
 11
12093.32684499999
 21
18432.730914
 31
0.0
  0
LINE
  5
3C64
  8
2-0
  6
DASHED3
 62
     6
 10
12093.32684499999
 20
19891.730914
 30
0.0
 11
14871.32539299999
 21
18432.730914
 31
0.0
  0
LINE
  5
3C65
  8
2-0
  6
DASHED3
 62
     6
 10
14983.82638299998
 20
16487.04308399999
 30
0.0
 11
14983.82638299998
 21
19937.732946
 31
0.0
  0
LINE
  5
3C66
  8
2-0
  6
DASHED3
 62
     6
 10
14941.326118999999
 20
16509.730345999989
 30
0.0
 11
14941.326118999999
 21
19937.732946
 31
0.0
  0
LINE
  5
3C67
  8
2-0
  6
DASHED3
 62
     6
 10
14871.32539299999
 20
16973.730914
 30
0.0
 11
14449.071738000001
 21
16757.180488999991
 31
0.0
  0
LINE
  5
3C68
  8
0-7
  6
CONTINUOUS
 62
     6
 10
14871.32539299999
 20
18432.730914
 30
0.0
 11
13076.251848
 21
17500.052810000001
 31
0.0
  0
LINE
  5
3C69
  8
2-0
  6
DASHED3
 62
     6
 10
12093.32684499999
 20
18432.730914
 30
0.0
 11
14871.32539299999
 21
16973.730914
 31
0.0
  0
LINE
  5
3C6A
  8
2-0
  6
DASHED3
 62
     6
 10
11404.07728
 20
18387.734477000002
 30
0.0
 11
14941.326118999999
 21
18387.734477000002
 31
0.0
  0
LINE
  5
3C6B
  8
2-0
  6
DASHED3
 62
     6
 10
11235.490590999991
 20
18477.733288999982
 30
0.0
 11
14941.326118999999
 21
18477.733288999982
 31
0.0
  0
LINE
  5
3C6C
  8
2-0
  6
DASHED3
 62
     6
 10
11953.326383
 20
18432.730914
 30
0.0
 11
11823.81143099998
 21
18364.700798000002
 31
0.0
  0
LINE
  5
3C6D
  8
2-0
  6
DASHED3
 62
     6
 10
12080.326356999991
 20
17974.286076
 30
0.0
 11
12080.326356999991
 21
18387.734477000002
 31
0.0
  0
LINE
  5
3C6E
  8
2-0
  6
DASHED3
 62
     6
 10
11966.32687099999
 20
18150.01189999999
 30
0.0
 11
11966.32687099999
 21
18387.734477000002
 31
0.0
  0
LINE
  5
3C6F
  8
2-0
  6
DASHED3
 62
     6
 10
12023.32611899999
 20
18062.148988000001
 30
0.0
 11
12023.32611899999
 21
18387.734477000002
 31
0.0
  0
LINE
  5
3C70
  8
2-0
  6
DASHED3
 62
     6
 10
11953.326383
 20
19891.730914
 30
0.0
 11
10261.17649399999
 21
19002.863726
 31
0.0
  0
LINE
  5
3C71
  8
2-0
  6
CENTER2
 62
     6
 10
8872.3882489999978
 20
18432.730914
 30
0.0
 11
15174.263988999979
 21
18432.730914
 31
0.0
  0
LINE
  5
3C72
  8
2-0
  6
CENTER2
 62
     6
 10
8886.5299300000006
 20
15514.971425500011
 30
0.0
 11
15174.263988999979
 21
15514.971425500011
 31
0.0
  0
LINE
  5
3C73
  8
2-0
  6
CENTER2
 62
     6
 10
7775.8260139999929
 20
14055.730913999991
 30
0.0
 11
9432.3273199999967
 21
14055.730913999991
 31
0.0
  0
LINE
  5
3C74
  8
2-0
  6
CENTER2
 62
     6
 10
7775.8260139999929
 20
16973.730914
 30
0.0
 11
9432.3273199999967
 21
16973.730914
 31
0.0
  0
LINE
  5
3C75
  8
2-0
  6
CENTER2
 62
     6
 10
7775.8260139999929
 20
19891.730914
 30
0.0
 11
9432.3273199999967
 21
19891.730914
 31
0.0
  0
LINE
  5
3C76
  8
2-0
  6
CENTER2
 62
     6
 10
9105.3261189999957
 20
21134.229199000009
 30
0.0
 11
9105.3261189999957
 21
20184.232497000001
 31
0.0
  0
LINE
  5
3C77
  8
2-0
  6
CENTER2
 62
     6
 10
14614.328877
 20
14055.730913999991
 30
0.0
 11
15240.09089999999
 21
14055.730913999991
 31
0.0
  0
LINE
  5
3C78
  8
2-0
  6
CENTER2
 62
     6
 10
14614.328877
 20
16973.730914
 30
0.0
 11
15174.263988999979
 21
16973.730914
 31
0.0
  0
LINE
  5
3C79
  8
2-0
  6
CENTER2
 62
     6
 10
12023.32611899999
 20
21134.229199000009
 30
0.0
 11
12023.32611899999
 21
19674.732128
 31
0.0
  0
LINE
  5
3C7A
  8
2-0
  6
CENTER2
 62
     6
 10
14941.326118999999
 20
21134.231178000002
 30
0.0
 11
14941.326118999999
 21
20184.232497000001
 31
0.0
  0
LINE
  5
3C7B
  8
2-0
  6
DASHED3
 62
     6
 10
11966.32687099999
 20
18477.733288999982
 30
0.0
 11
11966.32687099999
 21
19852.732418
 31
0.0
  0
LINE
  5
3C7C
  8
2-0
  6
DASHED3
 62
     6
 10
12023.32611899999
 20
18477.733288999982
 30
0.0
 11
12023.32611899999
 21
19852.732418
 31
0.0
  0
LINE
  5
3C7D
  8
2-0
  6
DASHED3
 62
     6
 10
12080.326356999991
 20
18477.733288999982
 30
0.0
 11
12080.326356999991
 21
19852.732418
 31
0.0
  0
LINE
  5
3C7E
  8
0-1
  6
CONTINUOUS
 62
     3
 10
9105.3261189999957
 20
17018.729330999991
 30
0.0
 11
13959.132971000001
 21
17018.729330999991
 31
0.0
  0
LINE
  5
3C7F
  8
0-1
  6
CONTINUOUS
 62
     3
 10
9105.3261189999957
 20
16928.734477000002
 30
0.0
 11
14127.712731999991
 21
16928.734477000002
 31
0.0
  0
LINE
  5
3C80
  8
2-0
  6
DASHED3
 62
     6
 10
13959.13396099999
 20
17018.729330999991
 30
0.0
 11
14941.326118999999
 21
17018.729330999991
 31
0.0
  0
LINE
  5
3C81
  8
2-0
  6
DASHED3
 62
     6
 10
14127.712731999991
 20
16928.734477000002
 30
0.0
 11
14941.326118999999
 21
16928.734477000002
 31
0.0
  0
ARC
  5
3C82
  8
0-1
  6
CONTINUOUS
 62
     3
 10
9088.3259739999958
 20
20079.230913999989
 30
0.0
 40
5.0
 50
269.9999850001808
 51
0.0
  0
ARC
  5
3C83
  8
0-1
  6
CONTINUOUS
 62
     3
 10
9088.3259739999958
 20
20109.232496999979
 30
0.0
 40
5.0
 50
0.0
 51
90.0
  0
ARC
  5
3C84
  8
0-1
  6
CONTINUOUS
 62
     3
 10
9024.8259869999983
 20
20109.232496999979
 30
0.0
 40
5.0
 50
90.0
 51
180.0
  0
ARC
  5
3C85
  8
0-1
  6
CONTINUOUS
 62
     3
 10
15021.825262
 20
20109.232496999979
 30
0.0
 40
5.0
 50
0.0
 51
90.0
  0
ARC
  5
3C86
  8
0-1
  6
CONTINUOUS
 62
     3
 10
14958.32626399999
 20
20109.232496999979
 30
0.0
 40
5.0
 50
90.0
 51
180.0
  0
ARC
  5
3C87
  8
0-1
  6
CONTINUOUS
 62
     3
 10
14958.32626399999
 20
20079.230913999989
 30
0.0
 40
5.0
 50
180.0
 51
269.9999850001808
  0
CIRCLE
  5
3C88
  8
0-5
  6
CONTINUOUS
 62
     4
 10
9105.3261189999957
 20
21334.22787900002
 30
0.0
 40
199.9999949999999
  0
CIRCLE
  5
3C89
  8
0-5
  6
CONTINUOUS
 62
     4
 10
7575.8258489999971
 20
14055.730913999991
 30
0.0
 40
199.9999949999999
  0
CIRCLE
  5
3C8A
  8
0-5
  6
CONTINUOUS
 62
     4
 10
7575.8258489999971
 20
16973.730914
 30
0.0
 40
199.9999949999999
  0
CIRCLE
  5
3C8B
  8
0-5
  6
CONTINUOUS
 62
     4
 10
7575.8258489999971
 20
19891.730914
 30
0.0
 40
199.9999949999999
  0
CIRCLE
  5
3C8C
  8
0-5
  6
CONTINUOUS
 62
     4
 10
12023.32611899999
 20
21334.22787900002
 30
0.0
 40
199.9999949999999
  0
CIRCLE
  5
3C8D
  8
0-5
  6
CONTINUOUS
 62
     4
 10
14941.326118999999
 20
21334.231838
 30
0.0
 40
199.9999949999999
  0
CIRCLE
  5
3C8E
  8
0-5
  6
CONTINUOUS
 62
     4
 10
15128.713708999991
 20
1375.999734
 30
0.0
 40
20.0
  0
ARC
  5
3C8F
  8
0-5
  6
CONTINUOUS
 62
     4
 10
15128.713708999991
 20
1375.999734
 30
0.0
 40
20.0
 50
180.0
 51
0.0
  0
ARC
  5
3C90
  8
0-5
  6
CONTINUOUS
 62
     4
 10
15128.713708999991
 20
1375.999734
 30
0.0
 40
20.0
 50
0.0
 51
179.99998499999839
  0
CIRCLE
  5
3C91
  8
0-5
  6
CONTINUOUS
 62
     4
 10
15128.713708999991
 20
1775.999817000001
 30
0.0
 40
20.0
  0
ARC
  5
3C92
  8
0-5
  6
CONTINUOUS
 62
     4
 10
15128.713708999991
 20
1775.999817000001
 30
0.0
 40
20.0
 50
180.0
 51
0.0
  0
ARC
  5
3C93
  8
0-5
  6
CONTINUOUS
 62
     4
 10
15128.713708999991
 20
1775.999817000001
 30
0.0
 40
20.0
 50
0.0
 51
179.99998499999839
  0
TEXT
  5
3C94
  8
0-5
  6
CONTINUOUS
 62
     7
 10
16628.24305257426
 20
1655.999792000001
 30
0.0
 40
160.0
  1
H
  0
TEXT
  5
3C95
  8
0-5
  6
CONTINUOUS
 62
     7
 10
15176.14495399999
 20
1655.999792000001
 30
0.0
 40
160.0
  1
（ ）内寸法ハ、  タ イプヲ示ス。
  0
TEXT
  5
3C96
  8
0-5
  6
CONTINUOUS
 62
     7
 10
15288.714237
 20
1255.999710000001
 30
0.0
 40
160.0
  1
有効高サハ、基礎高サヲ含ミマセン。
  0
TEXT
  5
3C97
  8
0-5
  6
CONTINUOUS
 62
     7
 10
7526.3680719999984
 20
13969.76735
 30
0.0
 40
160.0
  1
A
 72
     4
 11
7579.7014053333314
 21
14049.76735
 31
0.0
  0
TEXT
  5
3C98
  8
0-5
  6
CONTINUOUS
 62
     7
 10
7526.3680719999984
 20
16887.770319999989
 30
0.0
 40
160.0
  1
B
 72
     4
 11
7579.7014053333314
 21
16967.770319999989
 31
0.0
  0
TEXT
  5
3C99
  8
0-5
  6
CONTINUOUS
 62
     7
 10
9051.8741679999985
 20
21245.321761000021
 30
0.0
 40
160.0
  1
1
 72
     4
 11
9078.5408346666645
 21
21325.321761000021
 31
0.0
  0
TEXT
  5
3C9A
  8
0-5
  6
CONTINUOUS
 62
     7
 10
7526.3680719999984
 20
19805.770318999999
 30
0.0
 40
160.0
  1
C
 72
     4
 11
7579.7014053333314
 21
19885.770318999999
 31
0.0
  0
TEXT
  5
3C9B
  8
0-5
  6
CONTINUOUS
 62
     7
 10
11969.873178999989
 20
21245.321761000021
 30
0.0
 40
160.0
  1
2
 72
     4
 11
12023.20651233333
 21
21325.321761000021
 31
0.0
  0
TEXT
  5
3C9C
  8
0-5
  6
CONTINUOUS
 62
     7
 10
14887.873178999989
 20
21245.327699000001
 30
0.0
 40
160.0
  1
3
 72
     4
 11
14941.20651233333
 21
21325.327699000001
 31
0.0
  0
TEXT
  5
3C9D
  8
0-6
  6
CONTINUOUS
 62
     7
 10
10296.04967299998
 20
14507.059171000001
 30
0.0
 40
160.0
  1
桁（前）
 72
     4
 11
10616.04967299998
 21
14587.059171000001
 31
0.0
  0
TEXT
  5
3C9E
  8
0-6
  6
CONTINUOUS
 62
     7
 10
10894.949118399671
 20
13143.23124400001
 30
0.0
 40
160.0
  1
鼻隠し前
 72
     4
 11
11257.61578506634
 21
13223.23124400001
 31
0.0
  0
TEXT
  5
3C9F
  8
0-6
  6
CONTINUOUS
 62
     7
 10
11093.812486999979
 20
16240.96417999999
 30
0.0
 40
160.0
  1
+
 72
     4
 11
11147.14582033332
 21
16320.96417999999
 31
0.0
  0
TEXT
  5
3CA0
  8
0-6
  6
CONTINUOUS
 62
     7
 10
10873.96220399997
 20
16238.59271699999
 30
0.0
 40
160.0
  1
梁　梁補強
 72
     4
 11
11332.62887066664
 21
16318.59271699999
 31
0.0
  0
TEXT
  5
3CA1
  8
0-6
  6
CONTINUOUS
 62
     7
 10
9359.8531860000021
 20
17691.416829999991
 30
0.0
 40
160.0
  1
上枠
 72
     4
 11
9530.5198526666682
 21
17771.416829999991
 31
0.0
  0
TEXT
  5
3CA2
  8
0-6
  6
CONTINUOUS
 62
     7
 10
15305.590200000001
 20
15958.28001899998
 30
0.0
 40
160.0
  1
ブレース
 72
     4
 11
15668.25686666667
 21
16043.613352333319
 31
0.0
  0
TEXT
  5
3CA3
  8
0-6
  6
CONTINUOUS
 62
     7
 10
10957.473145
 20
20424.233289
 30
0.0
 40
160.0
  1
屋根
 72
     4
 11
11128.13981166667
 21
20504.233289
 31
0.0
  0
TEXT
  5
3CA4
  8
0-6
  6
CONTINUOUS
 62
     7
 10
12796.612185999989
 20
21144.233684999999
 30
0.0
 40
160.0
  1
鼻隠しコーナー後
 72
     4
 11
13543.278852666661
 21
21224.233684999999
 31
0.0
  0
TEXT
  5
3CA5
  8
0-6
  6
CONTINUOUS
 62
     7
 10
7369.4268890000021
 20
12743.230914000011
 30
0.0
 40
160.0
  1
ケラバ 左
 72
     4
 11
7785.426889000003
 21
12823.230914000011
 31
0.0
  0
TEXT
  5
3CA6
  8
2-0
  6
CONTINUOUS
 62
     7
 10
10702.15879699998
 20
11882.72230900001
 30
0.0
 40
160.0
  1
小 屋 伏 図
 50
0.000193
 72
     4
 11
11203.49186085164
 21
11962.723997733599
 31
0.0
  0
TEXT
  5
3CA7
  8
2-0
  6
CONTINUOUS
 62
     7
 10
15306.16623999999
 20
18918.14626999999
 30
0.0
 40
160.0
  1
桁中B +  桁中補強B
 72
     4
 11
16239.499573333331
 21
18998.14626999999
 31
0.0
  0
TEXT
  5
3CA8
  8
2-0
  6
CONTINUOUS
 62
     7
 10
15306.16623999999
 20
17464.140383999998
 30
0.0
 40
160.0
  1
桁中A +  桁中補強A
 72
     4
 11
16239.499573333331
 21
17544.140383999998
 31
0.0
  0
TEXT
  5
3CA9
  8
2-0
  6
CONTINUOUS
 62
     7
 10
15306.16623999998
 20
15156.41465299998
 30
0.0
 40
160.0
  1
桁中B +  桁中補強B
 50
0.000118
 72
     4
 11
16239.499408572259
 21
15236.4165751891
 31
0.0
  0
TEXT
  5
3CB2
  8
2-0
  6
CONTINUOUS
 62
     7
 10
12554.984045989269
 20
11909.9193667336
 30
0.0
 40
160.0
  1
1
 72
     4
 11
12581.650712655941
 21
11989.9193667336
 31
0.0
  0
TEXT
  5
3CB3
  8
2-0
  6
CONTINUOUS
 62
     7
 10
12798.07276323997
 20
11829.920834733601
 30
0.0
 40
160.0
  1
80
 72
     4
 11
12918.07276323997
 21
11909.920834733601
 31
0.0
  0
TEXT
  5
3CB4
  8
2-0
  6
CONTINUOUS
 62
     7
 10
12055.98601198926
 20
11882.723997733599
 30
0.0
 40
160.0
  1
(S=  /   )
 72
     4
 11
12615.98601198926
 21
11962.723997733599
 31
0.0
  0
TEXT
  5
3CB5
  8
0-6
  6
CONTINUOUS
 62
     7
 10
9238.3075426574851
 20
20424.231308999999
 30
0.0
 40
160.0
  1
桁後+桁後補強
 72
     4
 11
9872.9742093241512
 21
20504.231308999999
 31
0.0
  0
LINE
  5
3CB6
  8
0-6
  6
CONTINUOUS
 62
     6
 10
10682.02295051265
 20
19937.732946
 30
0.0
 11
10548.62900263142
 21
20344.233025000001
 31
0.0
  0
LINE
  5
3CB7
  8
0-6
  6
CONTINUOUS
 62
     6
 10
9188.8865430622045
 20
20344.233025000001
 30
0.0
 11
10548.62900263142
 21
20344.233025000001
 31
0.0
  0
LINE
  5
3CB8
  8
0-6
  6
CONTINUOUS
 62
     6
 10
10658.41549514536
 20
20098.214384424929
 30
0.0
 11
10607.64185137242
 21
20081.880868240161
 31
0.0
  0
LINE
  5
3CB9
  8
0-6
  6
CONTINUOUS
 62
     6
 10
10658.41549514536
 20
20098.214384424929
 30
0.0
 11
10682.02295051265
 21
19937.732946
 31
0.0
  0
LINE
  5
3CBA
  8
0-6
  6
CONTINUOUS
 62
     6
 10
10607.64185137242
 20
20081.880868240161
 30
0.0
 11
10658.41549514536
 21
20098.214384424929
 31
0.0
  0
LINE
  5
3CBB
  8
0-6
  6
CONTINUOUS
 62
     6
 10
10682.02295051265
 20
19937.732946
 30
0.0
 11
10607.64185137242
 21
20081.880868240161
 31
0.0
  0
LINE
  5
3CBC
  8
0-6
  6
CONTINUOUS
 62
     6
 10
10682.02295051265
 20
19937.732946
 30
0.0
 11
10658.41549514536
 21
20098.214384424929
 31
0.0
  0
LINE
  5
3CBD
  8
0-6
  6
CONTINUOUS
 62
     6
 10
10607.64185137242
 20
20081.880868240161
 30
0.0
 11
10682.02295051265
 21
19937.732946
 31
0.0
  0
LINE
  5
3CBE
  8
0-1
  6
CONTINUOUS
 62
     4
 10
15006.15782100001
 20
6256.3200620000034
 30
0.0
 11
19908.91308599999
 21
6256.3200620000034
 31
0.0
  0
LINE
  5
3CBF
  8
0-1
  6
CONTINUOUS
 62
     3
 10
9012.6593379999977
 20
8267.3654449999976
 30
0.0
 11
14893.65874399998
 21
8267.3654449999976
 31
0.0
  0
LINE
  5
3CC0
  8
0-1
  6
CONTINUOUS
 62
     3
 10
8302.6594689999984
 20
6256.3200620000034
 30
0.0
 11
14926.158546000001
 21
6256.3200620000034
 31
0.0
  0
LINE
  5
3CC1
  8
0-1
  6
CONTINUOUS
 62
     3
 10
9107.6594040000018
 20
6406.320061999998
 30
0.0
 11
11880.658677999991
 21
6406.320061999998
 31
0.0
  0
LINE
  5
3CC2
  8
0-1
  6
CONTINUOUS
 62
     3
 10
8985.1585459999988
 20
6356.319402000001
 30
0.0
 11
14926.158546000001
 21
6356.319402000001
 31
0.0
  0
LINE
  5
3CC3
  8
0-1
  6
CONTINUOUS
 62
     3
 10
9107.6594040000018
 20
8267.3654449999976
 30
0.0
 11
9107.6594040000018
 21
6356.319402000001
 31
0.0
  0
LINE
  5
3CC4
  8
0-1
  6
CONTINUOUS
 62
     3
 10
8992.6572919999981
 20
8389.4007859999983
 30
0.0
 11
8992.6572919999981
 21
6356.319402000001
 31
0.0
  0
LINE
  5
3CC5
  8
0-1
  6
CONTINUOUS
 62
     3
 10
9012.6593379999977
 20
8390.0183960000031
 30
0.0
 11
9012.6593379999977
 21
6356.319402000001
 31
0.0
  0
LINE
  5
3CC6
  8
0-1
  6
CONTINUOUS
 62
     3
 10
9231.1585979999982
 20
6406.320061999998
 30
0.0
 11
9231.1585979999982
 21
8267.3654449999976
 31
0.0
  0
LINE
  5
3CC7
  8
0-1
  6
CONTINUOUS
 62
     3
 10
9246.158400999997
 20
6406.320061999998
 30
0.0
 11
9246.158400999997
 21
8267.3654449999976
 31
0.0
  0
LINE
  5
3CC8
  8
0-1
  6
CONTINUOUS
 62
     3
 10
9647.1573979999903
 20
6406.320061999998
 30
0.0
 11
9647.1573979999903
 21
8267.3654449999976
 31
0.0
  0
LINE
  5
3CC9
  8
0-1
  6
CONTINUOUS
 62
     3
 10
9632.1575959999864
 20
6406.320061999998
 30
0.0
 11
9632.1575959999864
 21
8267.3654449999976
 31
0.0
  0
LINE
  5
3CCA
  8
0-1
  6
CONTINUOUS
 62
     3
 10
9499.1577009999983
 20
6406.320061999998
 30
0.0
 11
9499.1577009999983
 21
8267.3654449999976
 31
0.0
  0
LINE
  5
3CCB
  8
0-1
  6
CONTINUOUS
 62
     3
 10
9379.1592849999979
 20
6406.320061999998
 30
0.0
 11
9379.1592849999979
 21
8267.3654449999976
 31
0.0
  0
LINE
  5
3CCC
  8
0-1
  6
CONTINUOUS
 62
     3
 10
9449.1580310000045
 20
6406.320061999998
 30
0.0
 11
9449.1580310000045
 21
8267.3654449999976
 31
0.0
  0
LINE
  5
3CCD
  8
0-1
  6
CONTINUOUS
 62
     3
 10
9429.1579649999985
 20
6406.320061999998
 30
0.0
 11
9429.1579649999985
 21
8267.3654449999976
 31
0.0
  0
LINE
  5
3CCE
  8
0-1
  6
CONTINUOUS
 62
     3
 10
8985.1585459999988
 20
6256.3200620000034
 30
0.0
 11
8985.1585459999988
 21
6356.319402000001
 31
0.0
  0
LINE
  5
3CCF
  8
0-1
  6
CONTINUOUS
 62
     3
 10
14988.669696999979
 20
8573.8642049999962
 30
0.0
 11
14984.656222999991
 21
8703.8027740000016
 31
0.0
  0
LINE
  5
3CD0
  8
0-1
  6
CONTINUOUS
 62
     3
 10
12025.65841400001
 20
6406.320061999998
 30
0.0
 11
14798.658678
 21
6406.320061999998
 31
0.0
  0
LINE
  5
3CD1
  8
0-1
  6
CONTINUOUS
 62
     3
 10
12025.65841400001
 20
8267.3654449999976
 30
0.0
 11
12025.65841400001
 21
6356.319402000001
 31
0.0
  0
LINE
  5
3CD2
  8
0-1
  6
CONTINUOUS
 62
     3
 10
11880.658677999991
 20
8267.3654449999976
 30
0.0
 11
11880.658677999991
 21
6356.319402000001
 31
0.0
  0
LINE
  5
3CD3
  8
0-1
  6
CONTINUOUS
 62
     3
 10
12149.158599
 20
6406.320061999998
 30
0.0
 11
12149.158599
 21
8267.3654449999976
 31
0.0
  0
LINE
  5
3CD4
  8
0-1
  6
CONTINUOUS
 62
     3
 10
12164.15939100001
 20
6406.320061999998
 30
0.0
 11
12164.15939100001
 21
8267.3654449999976
 31
0.0
  0
LINE
  5
3CD5
  8
0-1
  6
CONTINUOUS
 62
     3
 10
12297.15829500001
 20
6406.320061999998
 30
0.0
 11
12297.15829500001
 21
8267.3654449999976
 31
0.0
  0
LINE
  5
3CD6
  8
0-1
  6
CONTINUOUS
 62
     3
 10
12347.15994500001
 20
6406.320061999998
 30
0.0
 11
12347.15994500001
 21
8267.3654449999976
 31
0.0
  0
LINE
  5
3CD7
  8
0-1
  6
CONTINUOUS
 62
     3
 10
12367.158031000001
 20
6406.320061999998
 30
0.0
 11
12367.158031000001
 21
8267.3654449999976
 31
0.0
  0
LINE
  5
3CD8
  8
0-1
  6
CONTINUOUS
 62
     3
 10
11539.16005100001
 20
6406.320061999998
 30
0.0
 11
11539.16005100001
 21
8267.3654449999976
 31
0.0
  0
LINE
  5
3CD9
  8
0-1
  6
CONTINUOUS
 62
     3
 10
11559.159127000001
 20
6406.320061999998
 30
0.0
 11
11559.159127000001
 21
8267.3654449999976
 31
0.0
  0
LINE
  5
3CDA
  8
0-1
  6
CONTINUOUS
 62
     3
 10
11609.159787000001
 20
6406.320061999998
 30
0.0
 11
11609.159787000001
 21
8267.3654449999976
 31
0.0
  0
LINE
  5
3CDB
  8
0-1
  6
CONTINUOUS
 62
     3
 10
11742.15968100001
 20
6406.320061999998
 30
0.0
 11
11742.15968100001
 21
8267.3654449999976
 31
0.0
  0
LINE
  5
3CDC
  8
0-1
  6
CONTINUOUS
 62
     3
 10
11757.15849300001
 20
6406.320061999998
 30
0.0
 11
11757.15849300001
 21
8267.3654449999976
 31
0.0
  0
LINE
  5
3CDD
  8
0-1
  6
CONTINUOUS
 62
     3
 10
11489.15939100001
 20
6406.320061999998
 30
0.0
 11
11489.15939100001
 21
8267.3654449999976
 31
0.0
  0
LINE
  5
3CDE
  8
0-1
  6
CONTINUOUS
 62
     3
 10
11356.159496
 20
6406.320061999998
 30
0.0
 11
11356.159496
 21
8267.3654449999976
 31
0.0
  0
LINE
  5
3CDF
  8
0-1
  6
CONTINUOUS
 62
     3
 10
11341.15870399999
 20
6406.320061999998
 30
0.0
 11
11341.15870399999
 21
8267.3654449999976
 31
0.0
  0
LINE
  5
3CE0
  8
0-1
  6
CONTINUOUS
 62
     3
 10
10139.15840100001
 20
6406.320061999998
 30
0.0
 11
10139.15840100001
 21
8267.3654449999976
 31
0.0
  0
LINE
  5
3CE1
  8
0-1
  6
CONTINUOUS
 62
     3
 10
10159.160445999991
 20
6406.320061999998
 30
0.0
 11
10159.160445999991
 21
8267.3654449999976
 31
0.0
  0
LINE
  5
3CE2
  8
0-1
  6
CONTINUOUS
 62
     3
 10
10089.15873100001
 20
6406.320061999998
 30
0.0
 11
10089.15873100001
 21
8267.3654449999976
 31
0.0
  0
LINE
  5
3CE3
  8
0-1
  6
CONTINUOUS
 62
     3
 10
10209.158137
 20
6406.320061999998
 30
0.0
 11
10209.158137
 21
8267.3654449999976
 31
0.0
  0
LINE
  5
3CE4
  8
0-1
  6
CONTINUOUS
 62
     3
 10
10342.15902100001
 20
6406.320061999998
 30
0.0
 11
10342.15902100001
 21
8267.3654449999976
 31
0.0
  0
LINE
  5
3CE5
  8
0-1
  6
CONTINUOUS
 62
     3
 10
10357.159813
 20
6406.320061999998
 30
0.0
 11
10357.159813
 21
8267.3654449999976
 31
0.0
  0
LINE
  5
3CE6
  8
0-1
  6
CONTINUOUS
 62
     3
 10
9956.1578470000004
 20
6406.320061999998
 30
0.0
 11
9956.1578470000004
 21
8267.3654449999976
 31
0.0
  0
LINE
  5
3CE7
  8
0-1
  6
CONTINUOUS
 62
     3
 10
9941.1590340000075
 20
6406.320061999998
 30
0.0
 11
9941.1590340000075
 21
8267.3654449999976
 31
0.0
  0
LINE
  5
3CE8
  8
0-1
  6
CONTINUOUS
 62
     3
 10
10641.158375000001
 20
6406.320061999998
 30
0.0
 11
10641.158375000001
 21
8267.3654449999976
 31
0.0
  0
LINE
  5
3CE9
  8
0-1
  6
CONTINUOUS
 62
     3
 10
10656.15718700001
 20
6406.320061999998
 30
0.0
 11
10656.15718700001
 21
8267.3654449999976
 31
0.0
  0
LINE
  5
3CEA
  8
0-1
  6
CONTINUOUS
 62
     3
 10
11057.159153000001
 20
6406.320061999998
 30
0.0
 11
11057.159153000001
 21
8267.3654449999976
 31
0.0
  0
LINE
  5
3CEB
  8
0-1
  6
CONTINUOUS
 62
     3
 10
11042.158361
 20
6406.320061999998
 30
0.0
 11
11042.158361
 21
8267.3654449999976
 31
0.0
  0
LINE
  5
3CEC
  8
0-1
  6
CONTINUOUS
 62
     3
 10
10909.157477000001
 20
6406.320061999998
 30
0.0
 11
10909.157477000001
 21
8267.3654449999976
 31
0.0
  0
LINE
  5
3CED
  8
0-1
  6
CONTINUOUS
 62
     3
 10
10789.16005100001
 20
6406.320061999998
 30
0.0
 11
10789.16005100001
 21
8267.3654449999976
 31
0.0
  0
LINE
  5
3CEE
  8
0-1
  6
CONTINUOUS
 62
     3
 10
10859.15978700001
 20
6406.320061999998
 30
0.0
 11
10859.15978700001
 21
8267.3654449999976
 31
0.0
  0
LINE
  5
3CEF
  8
0-1
  6
CONTINUOUS
 62
     3
 10
10839.159721
 20
6406.320061999998
 30
0.0
 11
10839.159721
 21
8267.3654449999976
 31
0.0
  0
LINE
  5
3CF0
  8
0-1
  6
CONTINUOUS
 62
     3
 10
11180.65933800001
 20
8267.3654449999976
 30
0.0
 11
11180.65933800001
 21
6406.320061999998
 31
0.0
  0
LINE
  5
3CF1
  8
0-1
  6
CONTINUOUS
 62
     3
 10
11217.658520000001
 20
8267.3654449999976
 30
0.0
 11
11217.658520000001
 21
6406.320061999998
 31
0.0
  0
LINE
  5
3CF2
  8
0-1
  6
CONTINUOUS
 62
     3
 10
9770.6575819999907
 20
8267.3654449999976
 30
0.0
 11
9770.6575819999907
 21
6406.320061999998
 31
0.0
  0
LINE
  5
3CF3
  8
0-1
  6
CONTINUOUS
 62
     3
 10
9807.6577539999962
 20
8267.3654449999976
 30
0.0
 11
9807.6577539999962
 21
6406.320061999998
 31
0.0
  0
LINE
  5
3CF4
  8
0-1
  6
CONTINUOUS
 62
     3
 10
10480.65999800001
 20
8267.3654449999976
 30
0.0
 11
10480.65999800001
 21
6406.320061999998
 31
0.0
  0
LINE
  5
3CF5
  8
0-1
  6
CONTINUOUS
 62
     3
 10
10517.659180000001
 20
8267.3654449999976
 30
0.0
 11
10517.659180000001
 21
6406.320061999998
 31
0.0
  0
LINE
  5
3CF6
  8
0-1
  6
CONTINUOUS
 62
     3
 10
11953.10707899999
 20
8480.4734869999957
 30
0.0
 11
11949.094594
 21
8610.4120559999974
 31
0.0
  0
LINE
  5
3CF7
  8
0-1
  6
CONTINUOUS
 62
     3
 10
11953.158546000001
 20
8480.4754670000038
 30
0.0
 11
11953.158546000001
 21
8267.3654449999976
 31
0.0
  0
LINE
  5
3CF8
  8
0-1
  6
CONTINUOUS
 62
     3
 10
14798.658678
 20
8267.3654449999976
 30
0.0
 11
14798.658678
 21
6356.319402000001
 31
0.0
  0
LINE
  5
3CF9
  8
0-1
  6
CONTINUOUS
 62
     3
 10
14913.659798999999
 20
8571.549157999998
 30
0.0
 11
14913.659798999999
 21
6356.319402000001
 31
0.0
  0
LINE
  5
3CFA
  8
0-1
  6
CONTINUOUS
 62
     3
 10
14893.65874399998
 20
8570.9315480000005
 30
0.0
 11
14893.65874399998
 21
6356.319402000001
 31
0.0
  0
LINE
  5
3CFB
  8
0-1
  6
CONTINUOUS
 62
     3
 10
13388.659892
 20
8267.3654449999976
 30
0.0
 11
13388.659892
 21
6406.320061999998
 31
0.0
  0
LINE
  5
3CFC
  8
0-1
  6
CONTINUOUS
 62
     3
 10
13425.660063999991
 20
8267.3654449999976
 30
0.0
 11
13425.660063999991
 21
6406.320061999998
 31
0.0
  0
LINE
  5
3CFD
  8
0-1
  6
CONTINUOUS
 62
     3
 10
14088.659232
 20
8267.3654449999976
 30
0.0
 11
14088.659232
 21
6406.320061999998
 31
0.0
  0
LINE
  5
3CFE
  8
0-1
  6
CONTINUOUS
 62
     3
 10
14125.65841399999
 20
8267.3654449999976
 30
0.0
 11
14125.65841399999
 21
6406.320061999998
 31
0.0
  0
LINE
  5
3CFF
  8
0-1
  6
CONTINUOUS
 62
     3
 10
12688.657583
 20
8267.3654449999976
 30
0.0
 11
12688.657583
 21
6406.320061999998
 31
0.0
  0
LINE
  5
3D00
  8
0-1
  6
CONTINUOUS
 62
     3
 10
12725.658744
 20
8267.3654449999976
 30
0.0
 11
12725.658744
 21
6406.320061999998
 31
0.0
  0
LINE
  5
3D01
  8
0-1
  6
CONTINUOUS
 62
     3
 10
13067.157372000011
 20
6406.320061999998
 30
0.0
 11
13067.157372000011
 21
8267.3654449999976
 31
0.0
  0
LINE
  5
3D02
  8
0-1
  6
CONTINUOUS
 62
     3
 10
13047.158294999999
 20
6406.320061999998
 30
0.0
 11
13047.158294999999
 21
8267.3654449999976
 31
0.0
  0
LINE
  5
3D03
  8
0-1
  6
CONTINUOUS
 62
     3
 10
13117.15902099999
 20
6406.320061999998
 30
0.0
 11
13117.15902099999
 21
8267.3654449999976
 31
0.0
  0
LINE
  5
3D04
  8
0-1
  6
CONTINUOUS
 62
     3
 10
12997.15961500001
 20
6406.320061999998
 30
0.0
 11
12997.15961500001
 21
8267.3654449999976
 31
0.0
  0
LINE
  5
3D05
  8
0-1
  6
CONTINUOUS
 62
     3
 10
12864.15873100001
 20
6406.320061999998
 30
0.0
 11
12864.15873100001
 21
8267.3654449999976
 31
0.0
  0
LINE
  5
3D06
  8
0-1
  6
CONTINUOUS
 62
     3
 10
12849.15892900001
 20
6406.320061999998
 30
0.0
 11
12849.15892900001
 21
8267.3654449999976
 31
0.0
  0
LINE
  5
3D07
  8
0-1
  6
CONTINUOUS
 62
     3
 10
13250.159905
 20
6406.320061999998
 30
0.0
 11
13250.159905
 21
8267.3654449999976
 31
0.0
  0
LINE
  5
3D08
  8
0-1
  6
CONTINUOUS
 62
     3
 10
13265.159707000001
 20
6406.320061999998
 30
0.0
 11
13265.159707000001
 21
8267.3654449999976
 31
0.0
  0
LINE
  5
3D09
  8
0-1
  6
CONTINUOUS
 62
     3
 10
13965.15904799999
 20
6406.320061999998
 30
0.0
 11
13965.15904799999
 21
8267.3654449999976
 31
0.0
  0
LINE
  5
3D0A
  8
0-1
  6
CONTINUOUS
 62
     3
 10
13950.158256000001
 20
6406.320061999998
 30
0.0
 11
13950.158256000001
 21
8267.3654449999976
 31
0.0
  0
LINE
  5
3D0B
  8
0-1
  6
CONTINUOUS
 62
     3
 10
13549.15826900001
 20
6406.320061999998
 30
0.0
 11
13549.15826900001
 21
8267.3654449999976
 31
0.0
  0
LINE
  5
3D0C
  8
0-1
  6
CONTINUOUS
 62
     3
 10
13564.160051000001
 20
6406.320061999998
 30
0.0
 11
13564.160051000001
 21
8267.3654449999976
 31
0.0
  0
LINE
  5
3D0D
  8
0-1
  6
CONTINUOUS
 62
     3
 10
13697.15994499999
 20
6406.320061999998
 30
0.0
 11
13697.15994499999
 21
8267.3654449999976
 31
0.0
  0
LINE
  5
3D0E
  8
0-1
  6
CONTINUOUS
 62
     3
 10
13817.157372000011
 20
6406.320061999998
 30
0.0
 11
13817.157372000011
 21
8267.3654449999976
 31
0.0
  0
LINE
  5
3D0F
  8
0-1
  6
CONTINUOUS
 62
     3
 10
13747.157635999991
 20
6406.320061999998
 30
0.0
 11
13747.157635999991
 21
8267.3654449999976
 31
0.0
  0
LINE
  5
3D10
  8
0-1
  6
CONTINUOUS
 62
     3
 10
13767.15968100001
 20
6406.320061999998
 30
0.0
 11
13767.15968100001
 21
8267.3654449999976
 31
0.0
  0
LINE
  5
3D11
  8
0-1
  6
CONTINUOUS
 62
     3
 10
14467.159020999999
 20
6406.320061999998
 30
0.0
 11
14467.159020999999
 21
8267.3654449999976
 31
0.0
  0
LINE
  5
3D12
  8
0-1
  6
CONTINUOUS
 62
     3
 10
14447.15994499999
 20
6406.320061999998
 30
0.0
 11
14447.15994499999
 21
8267.3654449999976
 31
0.0
  0
LINE
  5
3D13
  8
0-1
  6
CONTINUOUS
 62
     3
 10
14517.159680999999
 20
6406.320061999998
 30
0.0
 11
14517.159680999999
 21
8267.3654449999976
 31
0.0
  0
LINE
  5
3D14
  8
0-1
  6
CONTINUOUS
 62
     3
 10
14397.159285000011
 20
6406.320061999998
 30
0.0
 11
14397.159285000011
 21
8267.3654449999976
 31
0.0
  0
LINE
  5
3D15
  8
0-1
  6
CONTINUOUS
 62
     3
 10
14264.15939100001
 20
6406.320061999998
 30
0.0
 11
14264.15939100001
 21
8267.3654449999976
 31
0.0
  0
LINE
  5
3D16
  8
0-1
  6
CONTINUOUS
 62
     3
 10
14249.157609000011
 20
6406.320061999998
 30
0.0
 11
14249.157609000011
 21
8267.3654449999976
 31
0.0
  0
LINE
  5
3D17
  8
0-1
  6
CONTINUOUS
 62
     3
 10
14660.159680000001
 20
6406.320061999998
 30
0.0
 11
14660.159680000001
 21
8267.3654449999976
 31
0.0
  0
LINE
  5
3D18
  8
0-1
  6
CONTINUOUS
 62
     3
 10
14675.158493000001
 20
6406.320061999998
 30
0.0
 11
14675.158493000001
 21
8267.3654449999976
 31
0.0
  0
LINE
  5
3D19
  8
0-1
  6
CONTINUOUS
 62
     3
 10
12565.15739800001
 20
6406.320061999998
 30
0.0
 11
12565.15739800001
 21
8267.3654449999976
 31
0.0
  0
LINE
  5
3D1A
  8
0-1
  6
CONTINUOUS
 62
     3
 10
12550.15858600001
 20
6406.320061999998
 30
0.0
 11
12550.15858600001
 21
8267.3654449999976
 31
0.0
  0
LINE
  5
3D1B
  8
0-1
  6
CONTINUOUS
 62
     3
 10
12417.159680999999
 20
6406.320061999998
 30
0.0
 11
12417.159680999999
 21
8267.3654449999976
 31
0.0
  0
LINE
  5
3D1C
  8
0-1
  6
CONTINUOUS
 62
     3
 10
14926.158546000001
 20
6356.319402000001
 30
0.0
 11
14926.158546000001
 21
6256.3200620000034
 31
0.0
  0
LINE
  5
3D1D
  8
0-1
  6
CONTINUOUS
 62
     3
 10
8815.1875129999971
 20
8431.945588999999
 30
0.0
 11
8814.1403469999968
 21
8465.9309539999995
 31
0.0
  0
LINE
  5
3D1E
  8
0-1
  6
CONTINUOUS
 62
     3
 10
8817.046280999999
 20
8469.0209829999985
 30
0.0
 11
14998.039747999999
 21
8659.1943229999943
 31
0.0
  0
LINE
  5
3D1F
  8
0-1
  6
CONTINUOUS
 62
     3
 10
14999.272988000001
 20
8619.2129959999984
 30
0.0
 11
8818.2795209999986
 21
8429.0396560000008
 31
0.0
  0
LINE
  5
3D20
  8
0-1
  6
CONTINUOUS
 62
     3
 10
8816.8928680000008
 20
8474.0192669999924
 30
0.0
 11
14997.88534599999
 21
8664.1916170000004
 31
0.0
  0
LINE
  5
3D21
  8
0-1
  6
CONTINUOUS
 62
     3
 10
14999.426401000001
 20
8614.2147119999972
 30
0.0
 11
8818.4319439999908
 21
8424.0423619999983
 31
0.0
  0
LINE
  5
3D22
  8
0-1
  6
CONTINUOUS
 62
     3
 10
8815.5260099999978
 20
8420.9513430000006
 30
0.0
 11
8815.5260099999978
 21
8421.0166670000017
 31
0.0
  0
LINE
  5
3D23
  8
0-1
  6
CONTINUOUS
 62
     3
 10
8815.5260099999978
 20
8421.0166670000017
 30
0.0
 11
8816.5157699999982
 21
8388.9672720000017
 31
0.0
  0
LINE
  5
3D24
  8
0-1
  6
CONTINUOUS
 62
     3
 10
8821.6674670000011
 20
8384.1243800000011
 30
0.0
 11
15021.63363
 21
8574.8816770000049
 31
0.0
  0
LINE
  5
3D25
  8
0-1
  6
CONTINUOUS
 62
     3
 10
15017.623125
 20
8704.8212359999998
 30
0.0
 11
8817.6569619999991
 21
8514.0619590000006
 31
0.0
  0
LINE
  5
3D26
  8
0-1
  6
CONTINUOUS
 62
     3
 10
8812.8120899999994
 20
8508.9092720000026
 30
0.0
 11
8813.8008599999976
 21
8476.9251999999979
 31
0.0
  0
LINE
  5
3D27
  8
0-1
  6
CONTINUOUS
 62
     3
 10
8830.1516829999946
 20
8514.4469749999953
 30
0.0
 11
8834.1621879999984
 21
8384.5084060000008
 31
0.0
  0
LINE
  5
3D28
  8
2-0
  6
CENTER2
 62
     6
 10
9035.1585460000006
 20
5993.6666490000034
 30
0.0
 11
9035.1585460000006
 21
7050.8092470000011
 31
0.0
  0
LINE
  5
3D29
  8
2-0
  6
CENTER2
 62
     6
 10
11953.158546000001
 20
5993.6666490000034
 30
0.0
 11
11953.158546000001
 21
7050.8092470000011
 31
0.0
  0
LINE
  5
3D2A
  8
2-0
  6
CENTER2
 62
     6
 10
14871.158546000001
 20
5993.6666490000034
 30
0.0
 11
14871.158546000001
 21
7050.8092470000011
 31
0.0
  0
ARC
  5
3D2B
  8
0-1
  6
CONTINUOUS
 62
     3
 10
8819.8562069999989
 20
8426.5880219999981
 30
0.0
 40
2.5
 50
271.76798999988182
 51
91.767989999881877
  0
ARC
  5
3D2C
  8
0-1
  6
CONTINUOUS
 62
     3
 10
8818.4685649999974
 20
8471.5656540000018
 30
0.0
 40
2.5
 50
271.76798999988182
 51
91.767989999881877
  0
ARC
  5
3D2D
  8
0-1
  6
CONTINUOUS
 62
     3
 10
8817.1373379999968
 20
8466.0230019999981
 30
0.0
 40
3.0
 50
91.767989999881877
 51
181.7679899999863
  0
ARC
  5
3D2E
  8
0-1
  6
CONTINUOUS
 62
     3
 10
14998.656368
 20
8639.2031639999968
 30
0.0
 40
20.0
 50
271.76798999988182
 51
91.767989999881877
  0
ARC
  5
3D2F
  8
0-1
  6
CONTINUOUS
 62
     3
 10
8818.187473
 20
8432.0396169999949
 30
0.0
 40
3.0
 50
181.7679899999863
 51
271.76798999988182
  0
ARC
  5
3D30
  8
0-1
  6
CONTINUOUS
 62
     3
 10
14998.656368
 20
8639.2031639999968
 30
0.0
 40
24.999998999999999
 50
271.76798999988182
 51
91.767989999881877
  0
ARC
  5
3D31
  8
0-1
  6
CONTINUOUS
 62
     3
 10
8818.5279499999979
 20
8421.0443809999997
 30
0.0
 40
3.0
 50
91.767989999881877
 51
181.7679899999863
  0
ARC
  5
3D32
  8
0-1
  6
CONTINUOUS
 62
     3
 10
8821.5130640000025
 20
8389.121674
 30
0.0
 40
5.0
 50
181.7679899999863
 51
271.76798999988182
  0
ARC
  5
3D33
  8
0-1
  6
CONTINUOUS
 62
     3
 10
14993.659073000001
 20
8639.0487619999985
 30
0.0
 40
69.999999000000003
 50
293.55477900013489
 51
69.981200999902924
  0
ARC
  5
3D34
  8
0-1
  6
CONTINUOUS
 62
     3
 10
8817.8113649999977
 20
8509.0636740000009
 30
0.0
 40
5.0
 50
91.767989999881877
 51
181.7679899999863
  0
ARC
  5
3D35
  8
0-1
  6
CONTINUOUS
 62
     3
 10
8816.7978509999975
 20
8477.0172480000019
 30
0.0
 40
3.0
 50
181.7679899999863
 51
271.76798999988182
  0
TEXT
  5
3D36
  8
2-0
  6
CONTINUOUS
 62
     7
 10
10633.83514600001
 20
3295.169351
 30
0.0
 40
160.0
  1
側 面 立 面 図
 72
     4
 11
11279.168479333341
 21
3375.169351
 31
0.0
  0
TEXT
  5
3D37
  8
2-0
  6
CONTINUOUS
 62
     7
 10
12630.660664470959
 20
3322.3647200000019
 30
0.0
 40
160.0
  1
1
 72
     4
 11
12657.327331137631
 21
3402.3647200000009
 31
0.0
  0
TEXT
  5
3D38
  8
2-0
  6
CONTINUOUS
 62
     7
 10
12873.749381721649
 20
3242.366188
 30
0.0
 40
160.0
  1
80
 72
     4
 11
12993.749381721649
 21
3322.366188
 31
0.0
  0
TEXT
  5
3D39
  8
2-0
  6
CONTINUOUS
 62
     7
 10
12131.66263047095
 20
3295.169351
 30
0.0
 40
160.0
  1
(S=  /   )
 72
     4
 11
12691.66263047095
 21
3375.169351
 31
0.0
  0
LINE
  5
3D3A
  8
0-5
  6
CONTINUOUS
 62
     4
 10
14871.158546000001
 20
4576.3194679999997
 30
0.0
 11
14871.158546000001
 21
4416.3199300000024
 31
0.0
  0
LINE
  5
3D3B
  8
0-5
  6
CONTINUOUS
 62
     4
 10
11953.158546000001
 20
4576.3194679999997
 30
0.0
 11
11953.158546000001
 21
4416.3199300000024
 31
0.0
  0
LINE
  5
3D3C
  8
0-5
  6
CONTINUOUS
 62
     4
 10
9035.1585460000006
 20
4576.3194679999997
 30
0.0
 11
9035.1585460000006
 21
4416.3199300000024
 31
0.0
  0
CIRCLE
  5
3D3D
  8
0-5
  6
CONTINUOUS
 62
     4
 10
11953.158546000001
 20
4216.3187750000034
 30
0.0
 40
199.9999949999999
  0
CIRCLE
  5
3D3E
  8
0-5
  6
CONTINUOUS
 62
     4
 10
14871.158546000001
 20
4216.3187750000034
 30
0.0
 40
199.9999949999999
  0
CIRCLE
  5
3D3F
  8
0-5
  6
CONTINUOUS
 62
     4
 10
9035.1585460000006
 20
4216.3187750000034
 30
0.0
 40
199.9999949999999
  0
TEXT
  5
3D40
  8
0-5
  6
CONTINUOUS
 62
     7
 10
14824.202385999981
 20
4133.1079790000003
 30
0.0
 40
160.0
  1
A
 72
     4
 11
14877.53571933332
 21
4213.1079790000013
 31
0.0
  0
TEXT
  5
3D41
  8
0-5
  6
CONTINUOUS
 62
     7
 10
11906.202385999981
 20
4133.1079790000003
 30
0.0
 40
160.0
  1
B
 72
     4
 11
11959.53571933332
 21
4213.1079790000013
 31
0.0
  0
TEXT
  5
3D42
  8
0-5
  6
CONTINUOUS
 62
     7
 10
8988.2023860000027
 20
4133.1079790000003
 30
0.0
 40
160.0
  1
C
 72
     4
 11
9041.5357193333366
 21
4213.1079790000013
 31
0.0
  0
LINE
  5
3D43
  8
0-5
  6
CONTINUOUS
 62
     4
 10
16631.242542999989
 20
6356.319402000001
 30
0.0
 11
16751.242938999989
 21
6564.1663789999984
 31
0.0
  0
LINE
  5
3D44
  8
0-5
  6
CONTINUOUS
 62
     4
 10
16511.244125999991
 20
6564.1663789999984
 30
0.0
 11
16631.242542999989
 21
6356.319402000001
 31
0.0
  0
LINE
  5
3D45
  8
0-5
  6
CONTINUOUS
 62
     4
 10
16751.242938999989
 20
6564.1663789999984
 30
0.0
 11
16511.244125999991
 21
6564.1663789999984
 31
0.0
  0
LINE
  5
3D46
  8
0-5
  6
CONTINUOUS
 62
     4
 10
15006.155840999991
 20
6356.319402000001
 30
0.0
 11
16723.62073599999
 21
6356.319402000001
 31
0.0
  0
TEXT
  5
3D47
  8
0-5
  6
CONTINUOUS
 62
     7
 10
16172.15061399998
 20
6644.165653
 30
0.0
 40
160.0
  1
布基礎天端
 72
     4
 11
16630.817280666652
 21
6724.165653
 31
0.0
  0
TEXT
  5
3D48
  8
2-0
  6
CONTINUOUS
 62
     7
 10
21875.98791300003
 20
11803.73951899999
 30
0.0
 40
160.0
  1
平　面　図
 50
359.99978700000008
 72
     4
 11
22329.321523907391
 21
11878.40450037622
 31
0.0
  0
TEXT
  5
3D49
  8
2-0
  6
CONTINUOUS
 62
     7
 10
23680.813709045
 20
11825.59986937623
 30
0.0
 40
160.0
  1
1
 72
     4
 11
23707.480375711672
 21
11905.59986937623
 31
0.0
  0
TEXT
  5
3D4A
  8
2-0
  6
CONTINUOUS
 62
     7
 10
23923.902426295699
 20
11745.601337376231
 30
0.0
 40
160.0
  1
80
 72
     4
 11
24043.902426295699
 21
11825.601337376231
 31
0.0
  0
TEXT
  5
3D4B
  8
2-0
  6
CONTINUOUS
 62
     7
 10
23181.815675044989
 20
11798.40450037622
 30
0.0
 40
160.0
  1
(S=  /   )
 72
     4
 11
23741.815675044989
 21
11878.40450037622
 31
0.0
  0
LINE
  5
3D4C
  8
2-0
  6
CONTINUOUS
 62
     6
 10
24191.755094
 20
13415.729792
 30
0.0
 11
25191.748495999971
 21
13415.729792
 31
0.0
  0
LINE
  5
3D4D
  8
2-0
  6
CONTINUOUS
 62
     6
 10
25659.688872999988
 20
13886.150506
 30
0.0
 11
25191.748495999971
 21
13415.729792
 31
0.0
  0
LINE
  5
3D4E
  8
2-0
  6
CONTINUOUS
 62
     6
 10
24208.466189999981
 20
18094.849857000001
 30
0.0
 11
25226.441537999988
 21
18094.849857000001
 31
0.0
  0
LINE
  5
3D4F
  8
2-0
  6
CONTINUOUS
 62
     6
 10
25682.867055999988
 20
18319.564805999991
 30
0.0
 11
25226.441537999988
 21
18094.849857000001
 31
0.0
  0
LINE
  5
3D50
  8
2-0
  6
CONTINUOUS
 62
     6
 10
25621.048669999989
 20
17077.75815300001
 30
0.0
 11
25316.353252000001
 21
17181.411684000021
 31
0.0
  0
LINE
  5
3D51
  8
2-0
  6
CONTINUOUS
 62
     6
 10
25776.07070899996
 20
16588.136109000021
 30
0.0
 11
25316.353252000001
 21
16344.222798000001
 31
0.0
  0
LINE
  5
3D52
  8
2-0
  6
CONTINUOUS
 62
     6
 10
24396.350216999999
 20
16344.222798000001
 30
0.0
 11
25316.353252000001
 21
16344.222798000001
 31
0.0
  0
LINE
  5
3D53
  8
2-0
  6
CONTINUOUS
 62
     6
 10
24116.359189999999
 20
17181.411684000021
 30
0.0
 11
25316.353252000001
 21
17181.411684000021
 31
0.0
  0
LINE
  5
3D54
  8
2-0
  6
CONTINUOUS
 62
     6
 10
25692.247994000001
 20
14207.834151999979
 30
0.0
 11
25316.353252000001
 21
14388.777986999999
 31
0.0
  0
LINE
  5
3D55
  8
2-0
  6
CONTINUOUS
 62
     6
 10
24208.466189999981
 20
15177.087399
 30
0.0
 11
25226.441537999988
 21
15177.087399
 31
0.0
  0
LINE
  5
3D56
  8
2-0
  6
CONTINUOUS
 62
     6
 10
24796.351535999991
 20
14388.777986999999
 30
0.0
 11
25316.353252000001
 21
14388.777986999999
 31
0.0
  0
LINE
  5
3D57
  8
2-0
  6
CONTINUOUS
 62
     6
 10
25682.867055999988
 20
15401.800369000021
 30
0.0
 11
25226.441537999988
 21
15177.087399
 31
0.0
  0
LINE
  5
3D58
  8
2-0
  6
CONTINUOUS
 62
     4
 10
22956.91401
 20
20014.231442000018
 30
0.0
 11
22956.91401
 21
20744.228406999999
 31
0.0
  0
LINE
  5
3D59
  8
2-0
  6
CONTINUOUS
 62
     3
 10
25887.414669999991
 20
19825.228987999999
 30
0.0
 11
25887.414669999991
 21
19819.23302600002
 31
0.0
  0
LINE
  5
3D5A
  8
2-0
  6
CONTINUOUS
 62
     3
 10
25887.414669999991
 20
19819.23302600002
 30
0.0
 11
25917.412294000002
 21
19819.23302600002
 31
0.0
  0
LINE
  5
3D5B
  8
2-0
  6
CONTINUOUS
 62
     3
 10
25917.412294000002
 20
19849.23263000001
 30
0.0
 11
25836.410393999991
 21
19849.23263000001
 31
0.0
  0
LINE
  5
3D5C
  8
2-0
  6
CONTINUOUS
 62
     3
 10
25887.414669999991
 20
19808.935570000001
 30
0.0
 11
25917.412294000002
 21
19808.935570000001
 31
0.0
  0
LINE
  5
3D5D
  8
2-0
  6
CONTINUOUS
 62
     3
 10
25887.414669999991
 20
19826.93731200002
 30
0.0
 11
25887.414669999991
 21
19808.935570000001
 31
0.0
  0
LINE
  5
3D5E
  8
2-0
  6
CONTINUOUS
 62
     3
 10
25912.41203000001
 20
19826.93731200002
 30
0.0
 11
25887.414669999991
 21
19826.93731200002
 31
0.0
  0
LINE
  5
3D5F
  8
2-0
  6
CONTINUOUS
 62
     3
 10
25912.41203000001
 20
19821.929130000019
 30
0.0
 11
25912.41203000001
 21
19826.93731200002
 31
0.0
  0
LINE
  5
3D60
  8
2-0
  6
CONTINUOUS
 62
     3
 10
25905.410472999989
 20
19821.929130000019
 30
0.0
 11
25912.41203000001
 21
19821.929130000019
 31
0.0
  0
LINE
  5
3D61
  8
2-0
  6
CONTINUOUS
 62
     3
 10
25805.114205000002
 20
19922.229357000011
 30
0.0
 11
25805.114205000002
 21
19929.234873000001
 31
0.0
  0
LINE
  5
3D62
  8
2-0
  6
CONTINUOUS
 62
     3
 10
25805.114205000002
 20
19929.234873000001
 30
0.0
 11
25810.114468999971
 21
19929.234873000001
 31
0.0
  0
LINE
  5
3D63
  8
2-0
  6
CONTINUOUS
 62
     3
 10
25810.114468999971
 20
19929.234873000001
 30
0.0
 11
25810.114468999971
 21
19904.22563600001
 31
0.0
  0
LINE
  5
3D64
  8
2-0
  6
CONTINUOUS
 62
     3
 10
25810.114468999971
 20
19904.22563600001
 30
0.0
 11
25792.112726999982
 21
19904.22563600001
 31
0.0
  0
LINE
  5
3D65
  8
2-0
  6
CONTINUOUS
 62
     3
 10
25792.112726999982
 20
19904.22563600001
 30
0.0
 11
25792.112726999982
 21
19934.229199000009
 31
0.0
  0
LINE
  5
3D66
  8
2-0
  6
CONTINUOUS
 62
     3
 10
25802.410183
 20
19934.229199000009
 30
0.0
 11
25917.412294000002
 21
19934.229199000009
 31
0.0
  0
LINE
  5
3D67
  8
2-0
  6
CONTINUOUS
 62
     3
 10
25802.410183
 20
19904.22563600001
 30
0.0
 11
25802.410183
 21
19934.229199000009
 31
0.0
  0
LINE
  5
3D68
  8
2-0
  6
CONTINUOUS
 62
     3
 10
25808.412082999988
 20
19904.22563600001
 30
0.0
 11
25802.410183
 21
19904.22563600001
 31
0.0
  0
LINE
  5
3D69
  8
2-0
  6
CONTINUOUS
 62
     3
 10
25905.410472999989
 20
19118.132307499989
 30
0.0
 11
25912.41203000001
 21
19118.132307499989
 31
0.0
  0
LINE
  5
3D6A
  8
2-0
  6
CONTINUOUS
 62
     3
 10
25912.41203000001
 20
19118.132307499989
 30
0.0
 11
25912.41203000001
 21
19123.132571499991
 31
0.0
  0
LINE
  5
3D6B
  8
2-0
  6
CONTINUOUS
 62
     3
 10
25912.41203000001
 20
19123.132571499991
 30
0.0
 11
25887.414669999991
 21
19123.132571499991
 31
0.0
  0
LINE
  5
3D6C
  8
2-0
  6
CONTINUOUS
 62
     3
 10
25887.414669999991
 20
19123.132571499991
 30
0.0
 11
25887.414669999991
 21
19105.1367675
 31
0.0
  0
LINE
  5
3D6D
  8
2-0
  6
CONTINUOUS
 62
     3
 10
25887.414669999991
 20
19105.1367675
 30
0.0
 11
25917.412294000002
 21
19105.1367675
 31
0.0
  0
LINE
  5
3D6E
  8
2-0
  6
CONTINUOUS
 62
     3
 10
25887.414669999991
 20
19121.22827449995
 30
0.0
 11
25887.414669999991
 21
19115.230333499989
 31
0.0
  0
LINE
  5
3D6F
  8
2-0
  6
CONTINUOUS
 62
     3
 10
25887.414669999991
 20
19115.230333499989
 30
0.0
 11
25917.412294000002
 21
19115.230333499989
 31
0.0
  0
LINE
  5
3D70
  8
2-0
  6
CONTINUOUS
 62
     3
 10
25917.412294000002
 20
19115.230333499989
 30
0.0
 11
25917.412294000002
 21
19152.2314945
 31
0.0
  0
LINE
  5
3D71
  8
2-0
  6
CONTINUOUS
 62
     3
 10
25887.414669999991
 20
19152.2314945
 30
0.0
 11
25917.412294000002
 21
19152.2314945
 31
0.0
  0
LINE
  5
3D72
  8
2-0
  6
CONTINUOUS
 62
     3
 10
25887.414669999991
 20
19146.227614499981
 30
0.0
 11
25887.414669999991
 21
19152.2314945
 31
0.0
  0
LINE
  5
3D73
  8
2-0
  6
CONTINUOUS
 62
     3
 10
25887.414669999991
 20
19162.327039499982
 30
0.0
 11
25917.412294000002
 21
19162.327039499982
 31
0.0
  0
LINE
  5
3D74
  8
2-0
  6
CONTINUOUS
 62
     3
 10
25887.414669999991
 20
19144.3252975
 30
0.0
 11
25887.414669999991
 21
19162.327039499982
 31
0.0
  0
LINE
  5
3D75
  8
2-0
  6
CONTINUOUS
 62
     3
 10
25912.41203000001
 20
19144.3252975
 30
0.0
 11
25887.414669999991
 21
19144.3252975
 31
0.0
  0
LINE
  5
3D76
  8
2-0
  6
CONTINUOUS
 62
     3
 10
25912.41203000001
 20
19149.325561500002
 30
0.0
 11
25912.41203000001
 21
19144.3252975
 31
0.0
  0
LINE
  5
3D77
  8
2-0
  6
CONTINUOUS
 62
     3
 10
25905.410472999989
 20
19149.325561500002
 30
0.0
 11
25912.41203000001
 21
19149.325561500002
 31
0.0
  0
LINE
  5
3D78
  8
2-0
  6
CONTINUOUS
 62
     3
 10
25905.410472999989
 20
18417.131317999989
 30
0.0
 11
25912.41203000001
 21
18417.131317999989
 31
0.0
  0
LINE
  5
3D79
  8
2-0
  6
CONTINUOUS
 62
     3
 10
25912.41203000001
 20
18417.131317999989
 30
0.0
 11
25912.41203000001
 21
18422.13752
 31
0.0
  0
LINE
  5
3D7A
  8
2-0
  6
CONTINUOUS
 62
     3
 10
25912.41203000001
 20
18422.13752
 30
0.0
 11
25887.414669999991
 21
18422.13752
 31
0.0
  0
LINE
  5
3D7B
  8
2-0
  6
CONTINUOUS
 62
     3
 10
25887.414669999991
 20
18422.13752
 30
0.0
 11
25887.414669999991
 21
18404.135778
 31
0.0
  0
LINE
  5
3D7C
  8
2-0
  6
CONTINUOUS
 62
     3
 10
25887.414669999991
 20
18404.135778
 30
0.0
 11
25917.412294000002
 21
18404.135778
 31
0.0
  0
LINE
  5
3D7D
  8
2-0
  6
CONTINUOUS
 62
     3
 10
25887.414669999991
 20
18420.22728499999
 30
0.0
 11
25887.414669999991
 21
18414.231323
 31
0.0
  0
LINE
  5
3D7E
  8
2-0
  6
CONTINUOUS
 62
     3
 10
25887.414669999991
 20
18414.231323
 30
0.0
 11
25917.412294000002
 21
18414.231323
 31
0.0
  0
LINE
  5
3D7F
  8
2-0
  6
CONTINUOUS
 62
     3
 10
25917.412294000002
 20
18414.231323
 30
0.0
 11
25917.412294000002
 21
18451.230504999989
 31
0.0
  0
LINE
  5
3D80
  8
2-0
  6
CONTINUOUS
 62
     3
 10
25887.414669999991
 20
18451.230504999989
 30
0.0
 11
25917.412294000002
 21
18451.230504999989
 31
0.0
  0
LINE
  5
3D81
  8
2-0
  6
CONTINUOUS
 62
     3
 10
25887.414669999991
 20
18445.23454300001
 30
0.0
 11
25887.414669999991
 21
18451.230504999989
 31
0.0
  0
LINE
  5
3D82
  8
2-0
  6
CONTINUOUS
 62
     3
 10
25887.414669999991
 20
18461.32605
 30
0.0
 11
25917.412294000002
 21
18461.32605
 31
0.0
  0
LINE
  5
3D83
  8
2-0
  6
CONTINUOUS
 62
     3
 10
25887.414669999991
 20
18443.324307999988
 30
0.0
 11
25887.414669999991
 21
18461.32605
 31
0.0
  0
LINE
  5
3D84
  8
2-0
  6
CONTINUOUS
 62
     3
 10
25912.41203000001
 20
18443.324307999988
 30
0.0
 11
25887.414669999991
 21
18443.324307999988
 31
0.0
  0
LINE
  5
3D85
  8
2-0
  6
CONTINUOUS
 62
     3
 10
25912.41203000001
 20
18448.33051
 30
0.0
 11
25912.41203000001
 21
18443.324307999988
 31
0.0
  0
LINE
  5
3D86
  8
2-0
  6
CONTINUOUS
 62
     3
 10
25905.410472999989
 20
18448.33051
 30
0.0
 11
25912.41203000001
 21
18448.33051
 31
0.0
  0
LINE
  5
3D87
  8
2-0
  6
CONTINUOUS
 62
     3
 10
25905.410472999989
 20
17747.324572000001
 30
0.0
 11
25912.41203000001
 21
17747.324572000001
 31
0.0
  0
LINE
  5
3D88
  8
2-0
  6
CONTINUOUS
 62
     3
 10
25912.41203000001
 20
17747.324572000001
 30
0.0
 11
25912.41203000001
 21
17742.336185
 31
0.0
  0
LINE
  5
3D89
  8
2-0
  6
CONTINUOUS
 62
     3
 10
25912.41203000001
 20
17742.336185
 30
0.0
 11
25887.414669999991
 21
17742.336185
 31
0.0
  0
LINE
  5
3D8A
  8
2-0
  6
CONTINUOUS
 62
     3
 10
25887.414669999991
 20
17742.336185
 30
0.0
 11
25887.414669999991
 21
17760.331988000002
 31
0.0
  0
LINE
  5
3D8B
  8
2-0
  6
CONTINUOUS
 62
     3
 10
25887.414669999991
 20
17760.331988000002
 30
0.0
 11
25917.412294000002
 21
17760.331988000002
 31
0.0
  0
LINE
  5
3D8C
  8
2-0
  6
CONTINUOUS
 62
     3
 10
25887.414669999991
 20
17744.234542999991
 30
0.0
 11
25887.414669999991
 21
17750.230504999989
 31
0.0
  0
LINE
  5
3D8D
  8
2-0
  6
CONTINUOUS
 62
     3
 10
25887.414669999991
 20
17750.230504999989
 30
0.0
 11
25917.412294000002
 21
17750.230504999989
 31
0.0
  0
LINE
  5
3D8E
  8
2-0
  6
CONTINUOUS
 62
     3
 10
25917.412294000002
 20
17750.230504999989
 30
0.0
 11
25917.412294000002
 21
17713.231323
 31
0.0
  0
LINE
  5
3D8F
  8
2-0
  6
CONTINUOUS
 62
     3
 10
25887.414669999991
 20
17713.231323
 30
0.0
 11
25917.412294000002
 21
17713.231323
 31
0.0
  0
LINE
  5
3D90
  8
2-0
  6
CONTINUOUS
 62
     3
 10
25887.414669999991
 20
17719.233223999989
 30
0.0
 11
25887.414669999991
 21
17713.231323
 31
0.0
  0
LINE
  5
3D91
  8
2-0
  6
CONTINUOUS
 62
     3
 10
25887.414669999991
 20
17703.141716999991
 30
0.0
 11
25917.412294000002
 21
17703.141716999991
 31
0.0
  0
LINE
  5
3D92
  8
2-0
  6
CONTINUOUS
 62
     3
 10
25887.414669999991
 20
17721.13752
 30
0.0
 11
25887.414669999991
 21
17703.141716999991
 31
0.0
  0
LINE
  5
3D93
  8
2-0
  6
CONTINUOUS
 62
     3
 10
25912.41203000001
 20
17721.13752
 30
0.0
 11
25887.414669999991
 21
17721.13752
 31
0.0
  0
LINE
  5
3D94
  8
2-0
  6
CONTINUOUS
 62
     3
 10
25912.41203000001
 20
17716.137256999991
 30
0.0
 11
25912.41203000001
 21
17721.13752
 31
0.0
  0
LINE
  5
3D95
  8
2-0
  6
CONTINUOUS
 62
     3
 10
25905.410472999989
 20
17716.137256999991
 30
0.0
 11
25912.41203000001
 21
17716.137256999991
 31
0.0
  0
LINE
  5
3D96
  8
2-0
  6
CONTINUOUS
 62
     3
 10
25914.526156
 20
16996.228143
 30
0.0
 11
25914.526156
 21
17016.229198000001
 31
0.0
  0
LINE
  5
3D97
  8
2-0
  6
CONTINUOUS
 62
     3
 10
25914.526156
 20
17016.229198000001
 30
0.0
 11
25829.529587000001
 21
17016.229198000001
 31
0.0
  0
LINE
  5
3D98
  8
2-0
  6
CONTINUOUS
 62
     3
 10
25905.410472999989
 20
17042.835908000001
 30
0.0
 11
25912.41203000001
 21
17042.835908000001
 31
0.0
  0
LINE
  5
3D99
  8
2-0
  6
CONTINUOUS
 62
     3
 10
25912.41203000001
 20
17042.835908000001
 30
0.0
 11
25912.41203000001
 21
17037.841582000001
 31
0.0
  0
LINE
  5
3D9A
  8
2-0
  6
CONTINUOUS
 62
     3
 10
25912.41203000001
 20
17037.841582000001
 30
0.0
 11
25887.414669999991
 21
17037.841582000001
 31
0.0
  0
LINE
  5
3D9B
  8
2-0
  6
CONTINUOUS
 62
     3
 10
25887.414669999991
 20
17037.841582000001
 30
0.0
 11
25887.414669999991
 21
17055.83738600001
 31
0.0
  0
LINE
  5
3D9C
  8
2-0
  6
CONTINUOUS
 62
     3
 10
25887.414669999991
 20
17055.83738600001
 30
0.0
 11
25917.412294000002
 21
17055.83738600001
 31
0.0
  0
LINE
  5
3D9D
  8
2-0
  6
CONTINUOUS
 62
     3
 10
25887.414669999991
 20
17046.228802000001
 30
0.0
 11
25887.414669999991
 21
17040.226901999991
 31
0.0
  0
LINE
  5
3D9E
  8
2-0
  6
CONTINUOUS
 62
     3
 10
25917.412294000002
 20
17046.228802000001
 30
0.0
 11
25887.414669999991
 21
17046.228802000001
 31
0.0
  0
LINE
  5
3D9F
  8
2-0
  6
CONTINUOUS
 62
     3
 10
25917.412294000002
 20
17055.83738600001
 30
0.0
 11
25917.412294000002
 21
17703.141716999991
 31
0.0
  0
LINE
  5
3DA0
  8
2-0
  6
CONTINUOUS
 62
     3
 10
25917.412294000002
 20
17760.331988000002
 30
0.0
 11
25917.412294000002
 21
18404.135778
 31
0.0
  0
LINE
  5
3DA1
  8
2-0
  6
CONTINUOUS
 62
     3
 10
25917.412294000002
 20
16901.22708700001
 30
0.0
 11
25887.414669999991
 21
16901.22708700001
 31
0.0
  0
LINE
  5
3DA2
  8
2-0
  6
CONTINUOUS
 62
     3
 10
25887.414669999991
 20
16901.22708700001
 30
0.0
 11
25887.414669999991
 21
16907.22898700001
 31
0.0
  0
LINE
  5
3DA3
  8
2-0
  6
CONTINUOUS
 62
     3
 10
25829.529587000001
 20
16931.232629999991
 30
0.0
 11
25914.526156
 21
16931.232629999991
 31
0.0
  0
LINE
  5
3DA4
  8
2-0
  6
CONTINUOUS
 62
     3
 10
25914.526156
 20
16931.232629999991
 30
0.0
 11
25914.526156
 21
16951.227747000012
 31
0.0
  0
LINE
  5
3DA5
  8
2-0
  6
CONTINUOUS
 62
     3
 10
25887.414669999991
 20
16891.618503999998
 30
0.0
 11
25917.412294000002
 21
16891.618503999998
 31
0.0
  0
LINE
  5
3DA6
  8
2-0
  6
CONTINUOUS
 62
     3
 10
25887.414669999991
 20
16909.614306999982
 30
0.0
 11
25887.414669999991
 21
16891.618503999998
 31
0.0
  0
LINE
  5
3DA7
  8
2-0
  6
CONTINUOUS
 62
     3
 10
25912.41203000001
 20
16909.614306999982
 30
0.0
 11
25887.414669999991
 21
16909.614306999982
 31
0.0
  0
LINE
  5
3DA8
  8
2-0
  6
CONTINUOUS
 62
     3
 10
25912.41203000001
 20
16904.614043000009
 30
0.0
 11
25912.41203000001
 21
16909.614306999982
 31
0.0
  0
LINE
  5
3DA9
  8
2-0
  6
CONTINUOUS
 62
     3
 10
25905.410472999989
 20
16904.614043000009
 30
0.0
 11
25912.41203000001
 21
16904.614043000009
 31
0.0
  0
LINE
  5
3DAA
  8
2-0
  6
CONTINUOUS
 62
     3
 10
25905.410472999989
 20
16200.131812499991
 30
0.0
 11
25912.41203000001
 21
16200.131812499991
 31
0.0
  0
LINE
  5
3DAB
  8
2-0
  6
CONTINUOUS
 62
     3
 10
25912.41203000001
 20
16200.131812499991
 30
0.0
 11
25912.41203000001
 21
16205.13207649998
 31
0.0
  0
LINE
  5
3DAC
  8
2-0
  6
CONTINUOUS
 62
     3
 10
25912.41203000001
 20
16205.13207649998
 30
0.0
 11
25887.414669999991
 21
16205.13207649998
 31
0.0
  0
LINE
  5
3DAD
  8
2-0
  6
CONTINUOUS
 62
     3
 10
25887.414669999991
 20
16205.13207649998
 30
0.0
 11
25887.414669999991
 21
16187.130334499991
 31
0.0
  0
LINE
  5
3DAE
  8
2-0
  6
CONTINUOUS
 62
     3
 10
25887.414669999991
 20
16187.130334499991
 30
0.0
 11
25917.412294000002
 21
16187.130334499991
 31
0.0
  0
LINE
  5
3DAF
  8
2-0
  6
CONTINUOUS
 62
     3
 10
25887.414669999991
 20
16203.227779500001
 30
0.0
 11
25887.414669999991
 21
16197.2308285
 31
0.0
  0
LINE
  5
3DB0
  8
2-0
  6
CONTINUOUS
 62
     3
 10
25887.414669999991
 20
16197.2308285
 30
0.0
 11
25917.412294000002
 21
16197.2308285
 31
0.0
  0
LINE
  5
3DB1
  8
2-0
  6
CONTINUOUS
 62
     3
 10
25917.412294000002
 20
16197.2308285
 30
0.0
 11
25917.412294000002
 21
16234.2309995
 31
0.0
  0
LINE
  5
3DB2
  8
2-0
  6
CONTINUOUS
 62
     3
 10
25887.414669999991
 20
16234.2309995
 30
0.0
 11
25917.412294000002
 21
16234.2309995
 31
0.0
  0
LINE
  5
3DB3
  8
2-0
  6
CONTINUOUS
 62
     3
 10
25887.414669999991
 20
16228.228109499991
 30
0.0
 11
25887.414669999991
 21
16234.2309995
 31
0.0
  0
LINE
  5
3DB4
  8
2-0
  6
CONTINUOUS
 62
     3
 10
25887.414669999991
 20
16244.3265445
 30
0.0
 11
25917.412294000002
 21
16244.3265445
 31
0.0
  0
LINE
  5
3DB5
  8
2-0
  6
CONTINUOUS
 62
     3
 10
25887.414669999991
 20
16226.318863500001
 30
0.0
 11
25887.414669999991
 21
16244.3265445
 31
0.0
  0
LINE
  5
3DB6
  8
2-0
  6
CONTINUOUS
 62
     3
 10
25912.41203000001
 20
16226.318863500001
 30
0.0
 11
25887.414669999991
 21
16226.318863500001
 31
0.0
  0
LINE
  5
3DB7
  8
2-0
  6
CONTINUOUS
 62
     3
 10
25912.41203000001
 20
16231.3250665
 30
0.0
 11
25912.41203000001
 21
16226.318863500001
 31
0.0
  0
LINE
  5
3DB8
  8
2-0
  6
CONTINUOUS
 62
     3
 10
25905.410472999989
 20
16231.3250665
 30
0.0
 11
25912.41203000001
 21
16231.3250665
 31
0.0
  0
LINE
  5
3DB9
  8
2-0
  6
CONTINUOUS
 62
     3
 10
25905.410472999989
 20
15530.565083
 30
0.0
 11
25912.41203000001
 21
15530.565083
 31
0.0
  0
LINE
  5
3DBA
  8
2-0
  6
CONTINUOUS
 62
     3
 10
25912.41203000001
 20
15530.565083
 30
0.0
 11
25912.41203000001
 21
15525.570758000011
 31
0.0
  0
LINE
  5
3DBB
  8
2-0
  6
CONTINUOUS
 62
     3
 10
25912.41203000001
 20
15525.570758000011
 30
0.0
 11
25887.414669999991
 21
15525.570758000011
 31
0.0
  0
LINE
  5
3DBC
  8
2-0
  6
CONTINUOUS
 62
     3
 10
25887.414669999991
 20
15525.570758000011
 30
0.0
 11
25887.414669999991
 21
15543.566561000011
 31
0.0
  0
LINE
  5
3DBD
  8
2-0
  6
CONTINUOUS
 62
     3
 10
25887.414669999991
 20
15543.566561000011
 30
0.0
 11
25917.412294000002
 21
15543.566561000011
 31
0.0
  0
LINE
  5
3DBE
  8
2-0
  6
CONTINUOUS
 62
     3
 10
25887.414669999991
 20
15527.469116
 30
0.0
 11
25887.414669999991
 21
15533.47101600001
 31
0.0
  0
LINE
  5
3DBF
  8
2-0
  6
CONTINUOUS
 62
     3
 10
25887.414669999991
 20
15533.47101600001
 30
0.0
 11
25917.412294000002
 21
15533.47101600001
 31
0.0
  0
LINE
  5
3DC0
  8
2-0
  6
CONTINUOUS
 62
     3
 10
25917.412294000002
 20
15496.471835
 30
0.0
 11
25917.412294000002
 21
15533.47101600001
 31
0.0
  0
LINE
  5
3DC1
  8
2-0
  6
CONTINUOUS
 62
     3
 10
25887.414669999991
 20
15496.471835
 30
0.0
 11
25917.412294000002
 21
15496.471835
 31
0.0
  0
LINE
  5
3DC2
  8
2-0
  6
CONTINUOUS
 62
     3
 10
25887.414669999991
 20
15502.46878600001
 30
0.0
 11
25887.414669999991
 21
15496.471835
 31
0.0
  0
LINE
  5
3DC3
  8
2-0
  6
CONTINUOUS
 62
     3
 10
25887.414669999991
 20
15486.370351
 30
0.0
 11
25917.412294000002
 21
15486.370351
 31
0.0
  0
LINE
  5
3DC4
  8
2-0
  6
CONTINUOUS
 62
     3
 10
25887.414669999991
 20
15504.378032000001
 30
0.0
 11
25887.414669999991
 21
15486.370351
 31
0.0
  0
LINE
  5
3DC5
  8
2-0
  6
CONTINUOUS
 62
     3
 10
25912.41203000001
 20
15504.378032000001
 30
0.0
 11
25887.414669999991
 21
15504.378032000001
 31
0.0
  0
LINE
  5
3DC6
  8
2-0
  6
CONTINUOUS
 62
     3
 10
25912.41203000001
 20
15499.377768000009
 30
0.0
 11
25912.41203000001
 21
15504.378032000001
 31
0.0
  0
LINE
  5
3DC7
  8
2-0
  6
CONTINUOUS
 62
     3
 10
25905.410472999989
 20
15499.377768000009
 30
0.0
 11
25912.41203000001
 21
15499.377768000009
 31
0.0
  0
LINE
  5
3DC8
  8
2-0
  6
CONTINUOUS
 62
     3
 10
25917.412294000002
 20
16891.618503999998
 30
0.0
 11
25917.412294000002
 21
16244.3265445
 31
0.0
  0
LINE
  5
3DC9
  8
2-0
  6
CONTINUOUS
 62
     3
 10
25917.412294000002
 20
17046.228802000001
 30
0.0
 11
25917.412294000002
 21
16901.22708700001
 31
0.0
  0
LINE
  5
3DCA
  8
2-0
  6
CONTINUOUS
 62
     3
 10
25829.529587000001
 20
17016.229198000001
 30
0.0
 11
25829.529587000001
 21
16931.232629999991
 31
0.0
  0
LINE
  5
3DCB
  8
2-0
  6
CONTINUOUS
 62
     6
 10
24291.320919999991
 20
18784.676463499982
 30
0.0
 11
25316.353252000001
 21
18784.676463499982
 31
0.0
  0
LINE
  5
3DCC
  8
2-0
  6
CONTINUOUS
 62
     3
 10
25905.410472999989
 20
14798.136761
 30
0.0
 11
25912.41203000001
 21
14798.136761
 31
0.0
  0
LINE
  5
3DCD
  8
2-0
  6
CONTINUOUS
 62
     3
 10
25912.41203000001
 20
14798.136761
 30
0.0
 11
25912.41203000001
 21
14803.131087
 31
0.0
  0
LINE
  5
3DCE
  8
2-0
  6
CONTINUOUS
 62
     3
 10
25912.41203000001
 20
14803.131087
 30
0.0
 11
25887.414669999991
 21
14803.131087
 31
0.0
  0
LINE
  5
3DCF
  8
2-0
  6
CONTINUOUS
 62
     3
 10
25887.414669999991
 20
14803.131087
 30
0.0
 11
25887.414669999991
 21
14785.135283
 31
0.0
  0
LINE
  5
3DD0
  8
2-0
  6
CONTINUOUS
 62
     3
 10
25887.414669999991
 20
14785.135283
 30
0.0
 11
25917.412294000002
 21
14785.135283
 31
0.0
  0
LINE
  5
3DD1
  8
2-0
  6
CONTINUOUS
 62
     3
 10
25887.414669999991
 20
14801.23371800001
 30
0.0
 11
25887.414669999991
 21
14795.230828000011
 31
0.0
  0
LINE
  5
3DD2
  8
2-0
  6
CONTINUOUS
 62
     3
 10
25887.414669999991
 20
14795.230828000011
 30
0.0
 11
25917.412294000002
 21
14795.230828000011
 31
0.0
  0
LINE
  5
3DD3
  8
2-0
  6
CONTINUOUS
 62
     3
 10
25917.412294000002
 20
14795.230828000011
 30
0.0
 11
25917.412294000002
 21
14832.230999999991
 31
0.0
  0
LINE
  5
3DD4
  8
2-0
  6
CONTINUOUS
 62
     3
 10
25887.414669999991
 20
14832.230999999991
 30
0.0
 11
25917.412294000002
 21
14832.230999999991
 31
0.0
  0
LINE
  5
3DD5
  8
2-0
  6
CONTINUOUS
 62
     3
 10
25887.414669999991
 20
14826.23404799998
 30
0.0
 11
25887.414669999991
 21
14832.230999999991
 31
0.0
  0
LINE
  5
3DD6
  8
2-0
  6
CONTINUOUS
 62
     3
 10
25887.414669999991
 20
14842.331493000011
 30
0.0
 11
25917.412294000002
 21
14842.331493000011
 31
0.0
  0
LINE
  5
3DD7
  8
2-0
  6
CONTINUOUS
 62
     3
 10
25887.414669999991
 20
14824.32480200001
 30
0.0
 11
25887.414669999991
 21
14842.331493000011
 31
0.0
  0
LINE
  5
3DD8
  8
2-0
  6
CONTINUOUS
 62
     3
 10
25912.41203000001
 20
14824.32480200001
 30
0.0
 11
25887.414669999991
 21
14824.32480200001
 31
0.0
  0
LINE
  5
3DD9
  8
2-0
  6
CONTINUOUS
 62
     3
 10
25912.41203000001
 20
14829.33001500001
 30
0.0
 11
25912.41203000001
 21
14824.32480200001
 31
0.0
  0
LINE
  5
3DDA
  8
2-0
  6
CONTINUOUS
 62
     3
 10
25905.410472999989
 20
14829.33001500001
 30
0.0
 11
25912.41203000001
 21
14829.33001500001
 31
0.0
  0
LINE
  5
3DDB
  8
2-0
  6
CONTINUOUS
 62
     3
 10
25887.414669999991
 20
14122.23284099999
 30
0.0
 11
25887.414669999991
 21
14128.237709999999
 31
0.0
  0
LINE
  5
3DDC
  8
2-0
  6
CONTINUOUS
 62
     3
 10
25887.414669999991
 20
14128.237709999999
 30
0.0
 11
25917.412294000002
 21
14128.237709999999
 31
0.0
  0
LINE
  5
3DDD
  8
2-0
  6
CONTINUOUS
 62
     3
 10
25917.412294000002
 20
14128.237709999999
 30
0.0
 11
25917.412294000002
 21
14013.233619000001
 31
0.0
  0
LINE
  5
3DDE
  8
2-0
  6
CONTINUOUS
 62
     3
 10
25917.412294000002
 20
14013.233619000001
 30
0.0
 11
25832.413745999998
 21
14013.233619000001
 31
0.0
  0
LINE
  5
3DDF
  8
2-0
  6
CONTINUOUS
 62
     3
 10
25832.413745999998
 20
14013.233619000001
 30
0.0
 11
25832.413745999998
 21
14098.229198000001
 31
0.0
  0
LINE
  5
3DE0
  8
2-0
  6
CONTINUOUS
 62
     3
 10
25832.413745999998
 20
14098.229198000001
 30
0.0
 11
25864.412663999999
 21
14098.229198000001
 31
0.0
  0
LINE
  5
3DE1
  8
2-0
  6
CONTINUOUS
 62
     3
 10
25905.410472999989
 20
14125.267443000001
 30
0.0
 11
25912.41203000001
 21
14125.267443000001
 31
0.0
  0
LINE
  5
3DE2
  8
2-0
  6
CONTINUOUS
 62
     3
 10
25912.41203000001
 20
14125.267443000001
 30
0.0
 11
25912.41203000001
 21
14120.270147999971
 31
0.0
  0
LINE
  5
3DE3
  8
2-0
  6
CONTINUOUS
 62
     3
 10
25912.41203000001
 20
14120.270147999971
 30
0.0
 11
25887.414669999991
 21
14120.270147999971
 31
0.0
  0
LINE
  5
3DE4
  8
2-0
  6
CONTINUOUS
 62
     3
 10
25887.414669999991
 20
14120.270147999971
 30
0.0
 11
25887.414669999991
 21
14138.268921000001
 31
0.0
  0
LINE
  5
3DE5
  8
2-0
  6
CONTINUOUS
 62
     3
 10
25887.414669999991
 20
14138.268921000001
 30
0.0
 11
25917.412294000002
 21
14138.268921000001
 31
0.0
  0
LINE
  5
3DE6
  8
2-0
  6
CENTER2
 62
     6
 10
25874.91401
 20
13815.736060999991
 30
0.0
 11
25874.91401
 21
14971.60481900002
 31
0.0
  0
LINE
  5
3DE7
  8
2-0
  6
CONTINUOUS
 62
     3
 10
25917.412294000002
 20
18461.32605
 30
0.0
 11
25917.412294000002
 21
19105.1367675
 31
0.0
  0
LINE
  5
3DE8
  8
2-0
  6
CONTINUOUS
 62
     6
 10
26609.917176999988
 20
20664.232102000031
 30
0.0
 11
27809.911238999968
 21
20664.232102000031
 31
0.0
  0
LINE
  5
3DE9
  8
2-0
  6
CONTINUOUS
 62
     3
 10
23029.415858000011
 20
19934.229199000009
 30
0.0
 11
23029.415858000011
 21
19904.22563600001
 31
0.0
  0
LINE
  5
3DEA
  8
2-0
  6
CONTINUOUS
 62
     3
 10
23029.415858000011
 20
19904.22563600001
 30
0.0
 11
23023.417915999991
 21
19904.22563600001
 31
0.0
  0
LINE
  5
3DEB
  8
2-0
  6
CONTINUOUS
 62
     3
 10
23039.032359000001
 20
19904.22563600001
 30
0.0
 11
23039.032359000001
 21
19934.229199000009
 31
0.0
  0
LINE
  5
3DEC
  8
2-0
  6
CONTINUOUS
 62
     3
 10
23021.030617
 20
19904.22563600001
 30
0.0
 11
23039.032359000001
 21
19904.22563600001
 31
0.0
  0
LINE
  5
3DED
  8
2-0
  6
CONTINUOUS
 62
     3
 10
23021.030617
 20
19929.234873000001
 30
0.0
 11
23021.030617
 21
19904.22563600001
 31
0.0
  0
LINE
  5
3DEE
  8
2-0
  6
CONTINUOUS
 62
     3
 10
23026.03088100001
 20
19929.234873000001
 30
0.0
 11
23021.030617
 21
19929.234873000001
 31
0.0
  0
LINE
  5
3DEF
  8
2-0
  6
CONTINUOUS
 62
     3
 10
23026.03088100001
 20
19922.229357000011
 30
0.0
 11
23026.03088100001
 21
19929.234873000001
 31
0.0
  0
LINE
  5
3DF0
  8
2-0
  6
CONTINUOUS
 62
     3
 10
22999.41427400001
 20
19931.337122000001
 30
0.0
 11
22999.41427400001
 21
19846.338574000009
 31
0.0
  0
LINE
  5
3DF1
  8
2-0
  6
CONTINUOUS
 62
     3
 10
22979.417176999999
 20
19931.337122000001
 30
0.0
 11
22999.41427400001
 21
19931.337122000001
 31
0.0
  0
LINE
  5
3DF2
  8
2-0
  6
CONTINUOUS
 62
     3
 10
22887.803078000012
 20
19922.229357000011
 30
0.0
 11
22887.803078000012
 21
19929.234873000001
 31
0.0
  0
LINE
  5
3DF3
  8
2-0
  6
CONTINUOUS
 62
     3
 10
22887.803078000012
 20
19929.234873000001
 30
0.0
 11
22892.803341999988
 21
19929.234873000001
 31
0.0
  0
LINE
  5
3DF4
  8
2-0
  6
CONTINUOUS
 62
     3
 10
22892.803341999988
 20
19929.234873000001
 30
0.0
 11
22892.803341999988
 21
19904.22563600001
 31
0.0
  0
LINE
  5
3DF5
  8
2-0
  6
CONTINUOUS
 62
     3
 10
22892.803341999988
 20
19904.22563600001
 30
0.0
 11
22874.801599999992
 21
19904.22563600001
 31
0.0
  0
LINE
  5
3DF6
  8
2-0
  6
CONTINUOUS
 62
     3
 10
22874.801599999992
 20
19904.22563600001
 30
0.0
 11
22874.801599999992
 21
19934.229199000009
 31
0.0
  0
LINE
  5
3DF7
  8
2-0
  6
CONTINUOUS
 62
     3
 10
22914.421664000001
 20
19931.337122000001
 30
0.0
 11
22934.416781000011
 21
19931.337122000001
 31
0.0
  0
LINE
  5
3DF8
  8
2-0
  6
CONTINUOUS
 62
     3
 10
22914.421664000001
 20
19846.338574000009
 30
0.0
 11
22914.421664000001
 21
19931.337122000001
 31
0.0
  0
LINE
  5
3DF9
  8
2-0
  6
CONTINUOUS
 62
     3
 10
22884.424040000002
 20
19904.22563600001
 30
0.0
 11
22890.420000999991
 21
19904.22563600001
 31
0.0
  0
LINE
  5
3DFA
  8
2-0
  6
CONTINUOUS
 62
     3
 10
22884.424040000002
 20
19934.229199000009
 30
0.0
 11
22884.424040000002
 21
19904.22563600001
 31
0.0
  0
LINE
  5
3DFB
  8
2-0
  6
CONTINUOUS
 62
     3
 10
22999.41427400001
 20
19846.338574000009
 30
0.0
 11
22914.421664000001
 21
19846.338574000009
 31
0.0
  0
LINE
  5
3DFC
  8
2-0
  6
CONTINUOUS
 62
     3
 10
23029.415858000011
 20
19934.229199000009
 30
0.0
 11
22884.424040000002
 21
19934.229199000009
 31
0.0
  0
LINE
  5
3DFD
  8
2-0
  6
CONTINUOUS
 62
     6
 10
25747.884343999991
 20
19026.830971499989
 30
0.0
 11
25316.353252000001
 21
18784.676463499982
 31
0.0
  0
LINE
  5
3DFE
  8
2-0
  6
CONTINUOUS
 62
     6
 10
26069.45317799996
 20
20076.908939000012
 30
0.0
 11
26609.917176999988
 21
20664.232102000031
 31
0.0
  0
LINE
  5
3DFF
  8
2-0
  6
CONTINUOUS
 62
     6
 10
22999.41427400001
 20
14098.229198000001
 30
0.0
 11
23276.004487000009
 21
14553.573898000001
 31
0.0
  0
LINE
  5
3E00
  8
2-0
  6
CONTINUOUS
 62
     6
 10
23276.004487000009
 20
14553.573898000001
 30
0.0
 11
24306.353805999999
 21
14553.573898000001
 31
0.0
  0
LINE
  5
3E01
  8
2-0
  6
CONTINUOUS
 62
     3
 10
25826.407887000001
 20
18390.22965999999
 30
0.0
 11
25873.413534999981
 21
18390.22965999999
 31
0.0
  0
LINE
  5
3E02
  8
2-0
  6
CONTINUOUS
 62
     3
 10
25873.413534999981
 20
18475.230188000001
 30
0.0
 11
25826.407887000001
 21
18475.230188000001
 31
0.0
  0
LINE
  5
3E03
  8
2-0
  6
CONTINUOUS
 62
     3
 10
25873.413534999981
 20
18390.22965999999
 30
0.0
 11
25873.413534999981
 21
18415.232959000001
 31
0.0
  0
LINE
  5
3E04
  8
2-0
  6
CONTINUOUS
 62
     3
 10
25873.413534999981
 20
18450.228867999991
 30
0.0
 11
25873.413534999981
 21
18475.230188000001
 31
0.0
  0
LINE
  5
3E05
  8
2-0
  6
CONTINUOUS
 62
     3
 10
25826.407887000001
 20
18475.230188000001
 30
0.0
 11
25826.407887000001
 21
18390.22965999999
 31
0.0
  0
LINE
  5
3E06
  8
2-0
  6
CONTINUOUS
 62
     3
 10
25917.412294000002
 20
16187.130334499991
 30
0.0
 11
25917.412294000002
 21
15543.566561000011
 31
0.0
  0
LINE
  5
3E07
  8
2-0
  6
CONTINUOUS
 62
     3
 10
25826.407887000001
 20
15472.23263000001
 30
0.0
 11
25873.413534999981
 21
15472.23263000001
 31
0.0
  0
LINE
  5
3E08
  8
2-0
  6
CONTINUOUS
 62
     3
 10
25873.413534999981
 20
15557.22919799999
 30
0.0
 11
25826.407887000001
 21
15557.22919799999
 31
0.0
  0
LINE
  5
3E09
  8
2-0
  6
CONTINUOUS
 62
     3
 10
25873.413534999981
 20
15472.23263000001
 30
0.0
 11
25873.413534999981
 21
15497.22801100001
 31
0.0
  0
LINE
  5
3E0A
  8
2-0
  6
CONTINUOUS
 62
     3
 10
25873.413534999981
 20
15532.227879
 30
0.0
 11
25873.413534999981
 21
15557.22919799999
 31
0.0
  0
LINE
  5
3E0B
  8
2-0
  6
CONTINUOUS
 62
     3
 10
25826.407887000001
 20
15557.22919799999
 30
0.0
 11
25826.407887000001
 21
15472.23263000001
 31
0.0
  0
LINE
  5
3E0C
  8
2-0
  6
CONTINUOUS
 62
     6
 10
23059.692594000011
 20
14248.82503299999
 30
0.0
 11
22999.41427400001
 21
14098.229198000001
 31
0.0
  0
LINE
  5
3E0D
  8
2-0
  6
CONTINUOUS
 62
     6
 10
22999.41427400001
 20
14098.229198000001
 30
0.0
 11
23105.272988999968
 21
14221.137506999999
 31
0.0
  0
LINE
  5
3E0E
  8
2-0
  6
CONTINUOUS
 62
     6
 10
23059.692594000011
 20
14248.82503299999
 30
0.0
 11
23105.272988999968
 21
14221.137506999999
 31
0.0
  0
LINE
  5
3E0F
  8
2-0
  6
CONTINUOUS
 62
     6
 10
23105.272988999968
 20
14221.137506999999
 30
0.0
 11
22999.41427400001
 21
14098.229198000001
 31
0.0
  0
LINE
  5
3E10
  8
2-0
  6
CONTINUOUS
 62
     6
 10
22999.41427400001
 20
14098.229198000001
 30
0.0
 11
23059.692594000011
 21
14248.82503299999
 31
0.0
  0
LINE
  5
3E11
  8
2-0
  6
CONTINUOUS
 62
     6
 10
23059.692594000011
 20
14248.82503299999
 30
0.0
 11
22999.41427400001
 21
14098.229198000001
 31
0.0
  0
LINE
  5
3E12
  8
2-0
  6
CONTINUOUS
 62
     6
 10
23105.272988999968
 20
14221.137506999999
 30
0.0
 11
22999.41427400001
 21
14098.229198000001
 31
0.0
  0
LINE
  5
3E13
  8
2-0
  6
CONTINUOUS
 62
     6
 10
23105.272988999968
 20
14221.137506999999
 30
0.0
 11
23059.692594000011
 21
14248.82503299999
 31
0.0
  0
LINE
  5
3E14
  8
2-0
  6
CONTINUOUS
 62
     6
 10
25734.827439000001
 20
19050.090315500001
 30
0.0
 11
25887.414669999991
 21
19105.1367675
 31
0.0
  0
LINE
  5
3E15
  8
2-0
  6
CONTINUOUS
 62
     6
 10
25887.414669999991
 20
19105.1367675
 30
0.0
 11
25760.93333
 21
19003.57756749999
 31
0.0
  0
LINE
  5
3E16
  8
2-0
  6
CONTINUOUS
 62
     6
 10
25734.827439000001
 20
19050.090315500001
 30
0.0
 11
25760.93333
 21
19003.57756749999
 31
0.0
  0
LINE
  5
3E17
  8
2-0
  6
CONTINUOUS
 62
     6
 10
25760.93333
 20
19003.57756749999
 30
0.0
 11
25887.414669999991
 21
19105.1367675
 31
0.0
  0
LINE
  5
3E18
  8
2-0
  6
CONTINUOUS
 62
     6
 10
25887.414669999991
 20
19105.1367675
 30
0.0
 11
25734.827439000001
 21
19050.090315500001
 31
0.0
  0
LINE
  5
3E19
  8
2-0
  6
CONTINUOUS
 62
     6
 10
25734.827439000001
 20
19050.090315500001
 30
0.0
 11
25887.414669999991
 21
19105.1367675
 31
0.0
  0
LINE
  5
3E1A
  8
2-0
  6
CONTINUOUS
 62
     6
 10
25760.93333
 20
19003.57756749999
 30
0.0
 11
25887.414669999991
 21
19105.1367675
 31
0.0
  0
LINE
  5
3E1B
  8
2-0
  6
CONTINUOUS
 62
     6
 10
25760.93333
 20
19003.57756749999
 30
0.0
 11
25734.827439000001
 21
19050.090315500001
 31
0.0
  0
LINE
  5
3E1C
  8
2-0
  6
CONTINUOUS
 62
     6
 10
26089.070207000001
 20
20058.847812000022
 30
0.0
 11
25961.108187000002
 21
19959.165194000008
 31
0.0
  0
LINE
  5
3E1D
  8
2-0
  6
CONTINUOUS
 62
     6
 10
25961.108187000002
 20
19959.165194000008
 30
0.0
 11
26049.82229199999
 21
20094.962149000021
 31
0.0
  0
LINE
  5
3E1E
  8
2-0
  6
CONTINUOUS
 62
     6
 10
26089.070207000001
 20
20058.847812000022
 30
0.0
 11
26049.82229199999
 21
20094.962149000021
 31
0.0
  0
LINE
  5
3E1F
  8
2-0
  6
CONTINUOUS
 62
     6
 10
26049.82229199999
 20
20094.962149000021
 30
0.0
 11
25961.108187000002
 21
19959.165194000008
 31
0.0
  0
LINE
  5
3E20
  8
2-0
  6
CONTINUOUS
 62
     6
 10
25961.108187000002
 20
19959.165194000008
 30
0.0
 11
26089.070207000001
 21
20058.847812000022
 31
0.0
  0
LINE
  5
3E21
  8
2-0
  6
CONTINUOUS
 62
     6
 10
26089.070207000001
 20
20058.847812000022
 30
0.0
 11
25961.108187000002
 21
19959.165194000008
 31
0.0
  0
LINE
  5
3E22
  8
2-0
  6
CONTINUOUS
 62
     6
 10
26049.82229199999
 20
20094.962149000021
 30
0.0
 11
25961.108187000002
 21
19959.165194000008
 31
0.0
  0
LINE
  5
3E23
  8
2-0
  6
CONTINUOUS
 62
     6
 10
26049.82229199999
 20
20094.962149000021
 30
0.0
 11
26089.070207000001
 21
20058.847812000022
 31
0.0
  0
LINE
  5
3E24
  8
2-0
  6
CONTINUOUS
 62
     6
 10
21580.849688999991
 20
19686.45681700002
 30
0.0
 11
21712.782621999999
 21
19217.110981999998
 31
0.0
  0
LINE
  5
3E25
  8
2-0
  6
CONTINUOUS
 62
     6
 10
21712.782621999999
 20
19217.110981999998
 30
0.0
 11
22737.820893
 21
19217.110981999998
 31
0.0
  0
LINE
  5
3E26
  8
2-0
  6
CONTINUOUS
 62
     6
 10
21537.555638000009
 20
19840.485137000011
 30
0.0
 11
21555.177312
 21
19679.239492000019
 31
0.0
  0
LINE
  5
3E27
  8
2-0
  6
CONTINUOUS
 62
     6
 10
21606.522065000001
 20
19693.67810100002
 30
0.0
 11
21555.177312
 21
19679.239492000019
 31
0.0
  0
LINE
  5
3E28
  8
2-0
  6
CONTINUOUS
 62
     6
 10
21555.177312
 20
19679.239492000019
 30
0.0
 11
21537.555638000009
 21
19840.485137000011
 31
0.0
  0
LINE
  5
3E29
  8
2-0
  6
CONTINUOUS
 62
     6
 10
21537.555638000009
 20
19840.485137000011
 30
0.0
 11
21606.522065000001
 21
19693.67810100002
 31
0.0
  0
LINE
  5
3E2A
  8
2-0
  6
CONTINUOUS
 62
     6
 10
21606.522065000001
 20
19693.67810100002
 30
0.0
 11
21537.555638000009
 21
19840.485137000011
 31
0.0
  0
LINE
  5
3E2B
  8
2-0
  6
CONTINUOUS
 62
     6
 10
21555.177312
 20
19679.239492000019
 30
0.0
 11
21537.555638000009
 21
19840.485137000011
 31
0.0
  0
LINE
  5
3E2C
  8
2-0
  6
CONTINUOUS
 62
     6
 10
21555.177312
 20
19679.239492000019
 30
0.0
 11
21606.522065000001
 21
19693.67810100002
 31
0.0
  0
LINE
  5
3E2D
  8
2-0
  6
CONTINUOUS
 62
     6
 10
22998.337415999998
 20
19815.47787900002
 30
0.0
 11
23147.207111
 21
19285.855703000001
 31
0.0
  0
LINE
  5
3E2E
  8
2-0
  6
CONTINUOUS
 62
     6
 10
23147.207111
 20
19285.855703000001
 30
0.0
 11
24172.251319999988
 21
19285.855703000001
 31
0.0
  0
LINE
  5
3E2F
  8
2-0
  6
CONTINUOUS
 62
     6
 10
23015.96106999999
 20
19654.23223400001
 30
0.0
 11
23067.311761000001
 21
19668.66688400002
 31
0.0
  0
LINE
  5
3E30
  8
2-0
  6
CONTINUOUS
 62
     6
 10
23067.311761000001
 20
19668.66688400002
 30
0.0
 11
23015.96106999999
 21
19654.23223400001
 31
0.0
  0
LINE
  5
3E31
  8
2-0
  6
CONTINUOUS
 62
     6
 10
23015.96106999999
 20
19654.23223400001
 30
0.0
 11
22998.337415999998
 21
19815.47787900002
 31
0.0
  0
LINE
  5
3E32
  8
2-0
  6
CONTINUOUS
 62
     6
 10
22998.337415999998
 20
19815.47787900002
 30
0.0
 11
23067.311761000001
 21
19668.66688400002
 31
0.0
  0
LINE
  5
3E33
  8
2-0
  6
CONTINUOUS
 62
     6
 10
23067.311761000001
 20
19668.66688400002
 30
0.0
 11
22998.337415999998
 21
19815.47787900002
 31
0.0
  0
LINE
  5
3E34
  8
2-0
  6
CONTINUOUS
 62
     6
 10
23015.96106999999
 20
19654.23223400001
 30
0.0
 11
22998.337415999998
 21
19815.47787900002
 31
0.0
  0
LINE
  5
3E35
  8
2-0
  6
CONTINUOUS
 62
     6
 10
23067.311761000001
 20
19668.66688400002
 30
0.0
 11
22998.337415999998
 21
19815.47787900002
 31
0.0
  0
LINE
  5
3E36
  8
2-0
  6
CONTINUOUS
 62
     6
 10
22998.337415999998
 20
19815.47787900002
 30
0.0
 11
23015.96106999999
 21
19654.23223400001
 31
0.0
  0
LINE
  5
3E37
  8
2-0
  6
CONTINUOUS
 62
     4
 10
22956.91401
 20
20014.231442000018
 30
0.0
 11
22956.91401
 21
20744.228406999999
 31
0.0
  0
LINE
  5
3E38
  8
2-0
  6
CONTINUOUS
 62
     6
 10
25671.088919999991
 20
15425.725820000011
 30
0.0
 11
25826.407887000001
 21
15472.473141
 31
0.0
  0
LINE
  5
3E39
  8
2-0
  6
CONTINUOUS
 62
     6
 10
25826.407887000001
 20
15472.473141
 30
0.0
 11
25694.647170999979
 21
15377.880856000011
 31
0.0
  0
LINE
  5
3E3A
  8
2-0
  6
CONTINUOUS
 62
     6
 10
25671.088919999991
 20
15425.725820000011
 30
0.0
 11
25694.647170999979
 21
15377.880856000011
 31
0.0
  0
LINE
  5
3E3B
  8
2-0
  6
CONTINUOUS
 62
     6
 10
25694.647170999979
 20
15377.880856000011
 30
0.0
 11
25826.407887000001
 21
15472.473141
 31
0.0
  0
LINE
  5
3E3C
  8
2-0
  6
CONTINUOUS
 62
     6
 10
25826.407887000001
 20
15472.473141
 30
0.0
 11
25671.088919999991
 21
15425.725820000011
 31
0.0
  0
LINE
  5
3E3D
  8
2-0
  6
CONTINUOUS
 62
     6
 10
25671.088919999991
 20
15425.725820000011
 30
0.0
 11
25826.407887000001
 21
15472.473141
 31
0.0
  0
LINE
  5
3E3E
  8
2-0
  6
CONTINUOUS
 62
     6
 10
25694.647170999979
 20
15377.880856000011
 30
0.0
 11
25826.407887000001
 21
15472.473141
 31
0.0
  0
LINE
  5
3E3F
  8
2-0
  6
CONTINUOUS
 62
     6
 10
25694.647170999979
 20
15377.880856000011
 30
0.0
 11
25671.088919999991
 21
15425.725820000011
 31
0.0
  0
LINE
  5
3E40
  8
2-0
  6
CONTINUOUS
 62
     6
 10
25640.774572999992
 20
13904.96088099999
 30
0.0
 11
25772.521432000001
 21
13999.587808
 31
0.0
  0
LINE
  5
3E41
  8
2-0
  6
CONTINUOUS
 62
     6
 10
25772.521432000001
 20
13999.587808
 30
0.0
 11
25678.591295999991
 21
13867.34903799998
 31
0.0
  0
LINE
  5
3E42
  8
2-0
  6
CONTINUOUS
 62
     6
 10
25640.774572999992
 20
13904.96088099999
 30
0.0
 11
25678.591295999991
 21
13867.34903799998
 31
0.0
  0
LINE
  5
3E43
  8
2-0
  6
CONTINUOUS
 62
     6
 10
25678.591295999991
 20
13867.34903799998
 30
0.0
 11
25772.521432000001
 21
13999.587808
 31
0.0
  0
LINE
  5
3E44
  8
2-0
  6
CONTINUOUS
 62
     6
 10
25772.521432000001
 20
13999.587808
 30
0.0
 11
25640.774572999992
 21
13904.96088099999
 31
0.0
  0
LINE
  5
3E45
  8
2-0
  6
CONTINUOUS
 62
     6
 10
25640.774572999992
 20
13904.96088099999
 30
0.0
 11
25772.521432000001
 21
13999.587808
 31
0.0
  0
LINE
  5
3E46
  8
2-0
  6
CONTINUOUS
 62
     6
 10
25678.591295999991
 20
13867.34903799998
 30
0.0
 11
25772.521432000001
 21
13999.587808
 31
0.0
  0
LINE
  5
3E47
  8
2-0
  6
CONTINUOUS
 62
     6
 10
25678.591295999991
 20
13867.34903799998
 30
0.0
 11
25640.774572999992
 21
13904.96088099999
 31
0.0
  0
LINE
  5
3E48
  8
2-0
  6
CONTINUOUS
 62
     6
 10
25703.810362
 20
14231.865507999981
 30
0.0
 11
25836.410393999991
 21
14138.437179999981
 31
0.0
  0
LINE
  5
3E49
  8
2-0
  6
CONTINUOUS
 62
     6
 10
25836.410393999991
 20
14138.437179999981
 30
0.0
 11
25680.677707999988
 21
14183.812694
 31
0.0
  0
LINE
  5
3E4A
  8
2-0
  6
CONTINUOUS
 62
     6
 10
25703.810362
 20
14231.865507999981
 30
0.0
 11
25680.677707999988
 21
14183.812694
 31
0.0
  0
LINE
  5
3E4B
  8
2-0
  6
CONTINUOUS
 62
     6
 10
25680.677707999988
 20
14183.812694
 30
0.0
 11
25836.410393999991
 21
14138.437179999981
 31
0.0
  0
LINE
  5
3E4C
  8
2-0
  6
CONTINUOUS
 62
     6
 10
25836.410393999991
 20
14138.437179999981
 30
0.0
 11
25703.810362
 21
14231.865507999981
 31
0.0
  0
LINE
  5
3E4D
  8
2-0
  6
CONTINUOUS
 62
     6
 10
25703.810362
 20
14231.865507999981
 30
0.0
 11
25836.410393999991
 21
14138.437179999981
 31
0.0
  0
LINE
  5
3E4E
  8
2-0
  6
CONTINUOUS
 62
     6
 10
25680.677707999988
 20
14183.812694
 30
0.0
 11
25836.410393999991
 21
14138.437179999981
 31
0.0
  0
LINE
  5
3E4F
  8
2-0
  6
CONTINUOUS
 62
     6
 10
25680.677707999988
 20
14183.812694
 30
0.0
 11
25703.810362
 21
14231.865507999981
 31
0.0
  0
LINE
  5
3E50
  8
2-0
  6
CONTINUOUS
 62
     6
 10
25763.574008
 20
16611.686441000009
 30
0.0
 11
25917.412294000002
 21
16663.120272000011
 31
0.0
  0
LINE
  5
3E51
  8
2-0
  6
CONTINUOUS
 62
     6
 10
25917.412294000002
 20
16663.120272000011
 30
0.0
 11
25788.577306999981
 21
16564.579837000008
 31
0.0
  0
LINE
  5
3E52
  8
2-0
  6
CONTINUOUS
 62
     6
 10
25763.574008
 20
16611.686441000009
 30
0.0
 11
25788.577306999981
 21
16564.579837000008
 31
0.0
  0
LINE
  5
3E53
  8
2-0
  6
CONTINUOUS
 62
     6
 10
25788.577306999981
 20
16564.579837000008
 30
0.0
 11
25917.412294000002
 21
16663.120272000011
 31
0.0
  0
LINE
  5
3E54
  8
2-0
  6
CONTINUOUS
 62
     6
 10
25917.412294000002
 20
16663.120272000011
 30
0.0
 11
25763.574008
 21
16611.686441000009
 31
0.0
  0
LINE
  5
3E55
  8
2-0
  6
CONTINUOUS
 62
     6
 10
25763.574008
 20
16611.686441000009
 30
0.0
 11
25917.412294000002
 21
16663.120272000011
 31
0.0
  0
LINE
  5
3E56
  8
2-0
  6
CONTINUOUS
 62
     6
 10
25788.577306999981
 20
16564.579837000008
 30
0.0
 11
25917.412294000002
 21
16663.120272000011
 31
0.0
  0
LINE
  5
3E57
  8
2-0
  6
CONTINUOUS
 62
     6
 10
25788.577306999981
 20
16564.579837000008
 30
0.0
 11
25763.574008
 21
16611.686441000009
 31
0.0
  0
LINE
  5
3E58
  8
2-0
  6
CONTINUOUS
 62
     6
 10
25629.637801000001
 20
17103.004933000011
 30
0.0
 11
25772.521432000001
 21
17026.229304000011
 31
0.0
  0
LINE
  5
3E59
  8
2-0
  6
CONTINUOUS
 62
     6
 10
25772.521432000001
 20
17026.229304000011
 30
0.0
 11
25612.459538999989
 21
17052.511373000019
 31
0.0
  0
LINE
  5
3E5A
  8
2-0
  6
CONTINUOUS
 62
     6
 10
25629.637801000001
 20
17103.004933000011
 30
0.0
 11
25612.459538999989
 21
17052.511373000019
 31
0.0
  0
LINE
  5
3E5B
  8
2-0
  6
CONTINUOUS
 62
     6
 10
25612.459538999989
 20
17052.511373000019
 30
0.0
 11
25772.521432000001
 21
17026.229304000011
 31
0.0
  0
LINE
  5
3E5C
  8
2-0
  6
CONTINUOUS
 62
     6
 10
25772.521432000001
 20
17026.229304000011
 30
0.0
 11
25629.637801000001
 21
17103.004933000011
 31
0.0
  0
LINE
  5
3E5D
  8
2-0
  6
CONTINUOUS
 62
     6
 10
25629.637801000001
 20
17103.004933000011
 30
0.0
 11
25772.521432000001
 21
17026.229304000011
 31
0.0
  0
LINE
  5
3E5E
  8
2-0
  6
CONTINUOUS
 62
     6
 10
25612.459538999989
 20
17052.511373000019
 30
0.0
 11
25772.521432000001
 21
17026.229304000011
 31
0.0
  0
LINE
  5
3E5F
  8
2-0
  6
CONTINUOUS
 62
     6
 10
25612.459538999989
 20
17052.511373000019
 30
0.0
 11
25629.637801000001
 21
17103.004933000011
 31
0.0
  0
LINE
  5
3E60
  8
2-0
  6
CONTINUOUS
 62
     6
 10
25671.088919999991
 20
18343.485307999988
 30
0.0
 11
25826.407887000001
 21
18390.22965999999
 31
0.0
  0
LINE
  5
3E61
  8
2-0
  6
CONTINUOUS
 62
     6
 10
25826.407887000001
 20
18390.22965999999
 30
0.0
 11
25694.647170999979
 21
18295.634406000008
 31
0.0
  0
LINE
  5
3E62
  8
2-0
  6
CONTINUOUS
 62
     6
 10
25671.088919999991
 20
18343.485307999988
 30
0.0
 11
25694.647170999979
 21
18295.634406000008
 31
0.0
  0
LINE
  5
3E63
  8
2-0
  6
CONTINUOUS
 62
     6
 10
25694.647170999979
 20
18295.634406000008
 30
0.0
 11
25826.407887000001
 21
18390.22965999999
 31
0.0
  0
LINE
  5
3E64
  8
2-0
  6
CONTINUOUS
 62
     6
 10
25826.407887000001
 20
18390.22965999999
 30
0.0
 11
25671.088919999991
 21
18343.485307999988
 31
0.0
  0
LINE
  5
3E65
  8
2-0
  6
CONTINUOUS
 62
     6
 10
25671.088919999991
 20
18343.485307999988
 30
0.0
 11
25826.407887000001
 21
18390.22965999999
 31
0.0
  0
LINE
  5
3E66
  8
2-0
  6
CONTINUOUS
 62
     6
 10
25694.647170999979
 20
18295.634406000008
 30
0.0
 11
25826.407887000001
 21
18390.22965999999
 31
0.0
  0
LINE
  5
3E67
  8
2-0
  6
CONTINUOUS
 62
     6
 10
25694.647170999979
 20
18295.634406000008
 30
0.0
 11
25671.088919999991
 21
18343.485307999988
 31
0.0
  0
LINE
  5
3E68
  8
2-0
  6
CONTINUOUS
 62
     3
 10
22217.41459099999
 20
19934.229199000009
 30
0.0
 11
22180.413429
 21
19934.229199000009
 31
0.0
  0
LINE
  5
3E69
  8
2-0
  6
CONTINUOUS
 62
     3
 10
22217.41459099999
 20
19904.22563600001
 30
0.0
 11
22217.41459099999
 21
19934.229199000009
 31
0.0
  0
LINE
  5
3E6A
  8
2-0
  6
CONTINUOUS
 62
     3
 10
22211.41466999998
 20
19904.22563600001
 30
0.0
 11
22217.41459099999
 21
19904.22563600001
 31
0.0
  0
LINE
  5
3E6B
  8
2-0
  6
CONTINUOUS
 62
     3
 10
22227.512115000001
 20
19904.22563600001
 30
0.0
 11
22227.512115000001
 21
19934.229199000009
 31
0.0
  0
LINE
  5
3E6C
  8
2-0
  6
CONTINUOUS
 62
     3
 10
22209.508393999989
 20
19904.22563600001
 30
0.0
 11
22227.512115000001
 21
19904.22563600001
 31
0.0
  0
LINE
  5
3E6D
  8
2-0
  6
CONTINUOUS
 62
     3
 10
22209.508393999989
 20
19929.234873000001
 30
0.0
 11
22209.508393999989
 21
19904.22563600001
 31
0.0
  0
LINE
  5
3E6E
  8
2-0
  6
CONTINUOUS
 62
     3
 10
22214.508657999999
 20
19929.234873000001
 30
0.0
 11
22209.508393999989
 21
19929.234873000001
 31
0.0
  0
LINE
  5
3E6F
  8
2-0
  6
CONTINUOUS
 62
     3
 10
22214.508657999999
 20
19922.229357000011
 30
0.0
 11
22214.508657999999
 21
19929.234873000001
 31
0.0
  0
LINE
  5
3E70
  8
2-0
  6
CONTINUOUS
 62
     3
 10
22183.319362999991
 20
19922.229357000011
 30
0.0
 11
22183.319362999991
 21
19929.234873000001
 31
0.0
  0
LINE
  5
3E71
  8
2-0
  6
CONTINUOUS
 62
     3
 10
22183.319362999991
 20
19929.234873000001
 30
0.0
 11
22188.319627000001
 21
19929.234873000001
 31
0.0
  0
LINE
  5
3E72
  8
2-0
  6
CONTINUOUS
 62
     3
 10
22188.319627000001
 20
19929.234873000001
 30
0.0
 11
22188.319627000001
 21
19904.22563600001
 31
0.0
  0
LINE
  5
3E73
  8
2-0
  6
CONTINUOUS
 62
     3
 10
22188.319627000001
 20
19904.22563600001
 30
0.0
 11
22170.319864000001
 21
19904.22563600001
 31
0.0
  0
LINE
  5
3E74
  8
2-0
  6
CONTINUOUS
 62
     3
 10
22170.319864000001
 20
19904.22563600001
 30
0.0
 11
22170.319864000001
 21
19934.229199000009
 31
0.0
  0
LINE
  5
3E75
  8
2-0
  6
CONTINUOUS
 62
     3
 10
22186.413349999999
 20
19904.22563600001
 30
0.0
 11
22180.413429
 21
19904.22563600001
 31
0.0
  0
LINE
  5
3E76
  8
2-0
  6
CONTINUOUS
 62
     3
 10
22180.413429
 20
19904.22563600001
 30
0.0
 11
22180.413429
 21
19934.229199000009
 31
0.0
  0
LINE
  5
3E77
  8
2-0
  6
CONTINUOUS
 62
     3
 10
20026.41533
 20
19825.228987999999
 30
0.0
 11
20026.41533
 21
19819.23302600002
 31
0.0
  0
LINE
  5
3E78
  8
2-0
  6
CONTINUOUS
 62
     3
 10
20026.41533
 20
19819.23302600002
 30
0.0
 11
19996.417705
 21
19819.23302600002
 31
0.0
  0
LINE
  5
3E79
  8
2-0
  6
CONTINUOUS
 62
     3
 10
19996.417705
 20
19819.23302600002
 30
0.0
 11
19996.417705
 21
19934.229199000009
 31
0.0
  0
LINE
  5
3E7A
  8
2-0
  6
CONTINUOUS
 62
     3
 10
19996.417705
 20
19849.23263000001
 30
0.0
 11
20077.415646000001
 21
19849.23263000001
 31
0.0
  0
LINE
  5
3E7B
  8
2-0
  6
CONTINUOUS
 62
     3
 10
20026.41533
 20
19808.935570000001
 30
0.0
 11
19996.417705
 21
19808.935570000001
 31
0.0
  0
LINE
  5
3E7C
  8
2-0
  6
CONTINUOUS
 62
     3
 10
20026.41533
 20
19826.93731200002
 30
0.0
 11
20026.41533
 21
19808.935570000001
 31
0.0
  0
LINE
  5
3E7D
  8
2-0
  6
CONTINUOUS
 62
     3
 10
20001.421928
 20
19826.93731200002
 30
0.0
 11
20026.41533
 21
19826.93731200002
 31
0.0
  0
LINE
  5
3E7E
  8
2-0
  6
CONTINUOUS
 62
     3
 10
20001.421928
 20
19821.929130000019
 30
0.0
 11
20001.421928
 21
19826.93731200002
 31
0.0
  0
LINE
  5
3E7F
  8
2-0
  6
CONTINUOUS
 62
     3
 10
20008.419525999969
 20
19821.929130000019
 30
0.0
 11
20001.421928
 21
19821.929130000019
 31
0.0
  0
LINE
  5
3E80
  8
2-0
  6
CONTINUOUS
 62
     3
 10
20108.713814999981
 20
19922.229357000011
 30
0.0
 11
20108.713814999981
 21
19929.234873000001
 31
0.0
  0
LINE
  5
3E81
  8
2-0
  6
CONTINUOUS
 62
     3
 10
20108.713814999981
 20
19929.234873000001
 30
0.0
 11
20103.711571
 21
19929.234873000001
 31
0.0
  0
LINE
  5
3E82
  8
2-0
  6
CONTINUOUS
 62
     3
 10
20103.711571
 20
19929.234873000001
 30
0.0
 11
20103.711571
 21
19904.22563600001
 31
0.0
  0
LINE
  5
3E83
  8
2-0
  6
CONTINUOUS
 62
     3
 10
20103.711571
 20
19904.22563600001
 30
0.0
 11
20121.719251999999
 21
19904.22563600001
 31
0.0
  0
LINE
  5
3E84
  8
2-0
  6
CONTINUOUS
 62
     3
 10
20121.719251999999
 20
19904.22563600001
 30
0.0
 11
20121.719251999999
 21
19934.229199000009
 31
0.0
  0
LINE
  5
3E85
  8
2-0
  6
CONTINUOUS
 62
     3
 10
20111.419816000001
 20
19934.229199000009
 30
0.0
 11
19996.417705
 21
19934.229199000009
 31
0.0
  0
LINE
  5
3E86
  8
2-0
  6
CONTINUOUS
 62
     3
 10
20111.419816000001
 20
19904.22563600001
 30
0.0
 11
20111.419816000001
 21
19934.229199000009
 31
0.0
  0
LINE
  5
3E87
  8
2-0
  6
CONTINUOUS
 62
     3
 10
20105.415937000002
 20
19904.22563600001
 30
0.0
 11
20111.419816000001
 21
19904.22563600001
 31
0.0
  0
LINE
  5
3E88
  8
2-0
  6
CONTINUOUS
 62
     3
 10
20812.5037085
 20
19922.229357000011
 30
0.0
 11
20812.5037085
 21
19929.234873000001
 31
0.0
  0
LINE
  5
3E89
  8
2-0
  6
CONTINUOUS
 62
     3
 10
20812.5037085
 20
19929.234873000001
 30
0.0
 11
20807.503444499991
 21
19929.234873000001
 31
0.0
  0
LINE
  5
3E8A
  8
2-0
  6
CONTINUOUS
 62
     3
 10
20807.503444499991
 20
19929.234873000001
 30
0.0
 11
20807.503444499991
 21
19904.22563600001
 31
0.0
  0
LINE
  5
3E8B
  8
2-0
  6
CONTINUOUS
 62
     3
 10
20807.503444499991
 20
19904.22563600001
 30
0.0
 11
20825.5091455
 21
19904.22563600001
 31
0.0
  0
LINE
  5
3E8C
  8
2-0
  6
CONTINUOUS
 62
     3
 10
20825.5091455
 20
19904.22563600001
 30
0.0
 11
20825.5091455
 21
19934.229199000009
 31
0.0
  0
LINE
  5
3E8D
  8
2-0
  6
CONTINUOUS
 62
     3
 10
20809.411700500001
 20
19904.22563600001
 30
0.0
 11
20815.413600500011
 21
19904.22563600001
 31
0.0
  0
LINE
  5
3E8E
  8
2-0
  6
CONTINUOUS
 62
     3
 10
20815.413600500011
 20
19904.22563600001
 30
0.0
 11
20815.413600500011
 21
19934.229199000009
 31
0.0
  0
LINE
  5
3E8F
  8
2-0
  6
CONTINUOUS
 62
     3
 10
20778.41441949999
 20
19934.229199000009
 30
0.0
 11
20815.413600500011
 21
19934.229199000009
 31
0.0
  0
LINE
  5
3E90
  8
2-0
  6
CONTINUOUS
 62
     3
 10
20778.41441949999
 20
19904.22563600001
 30
0.0
 11
20778.41441949999
 21
19934.229199000009
 31
0.0
  0
LINE
  5
3E91
  8
2-0
  6
CONTINUOUS
 62
     3
 10
20784.408401500001
 20
19904.22563600001
 30
0.0
 11
20778.41441949999
 21
19904.22563600001
 31
0.0
  0
LINE
  5
3E92
  8
2-0
  6
CONTINUOUS
 62
     3
 10
20768.318874500001
 20
19904.22563600001
 30
0.0
 11
20768.318874500001
 21
19934.229199000009
 31
0.0
  0
LINE
  5
3E93
  8
2-0
  6
CONTINUOUS
 62
     3
 10
20786.314677499999
 20
19904.22563600001
 30
0.0
 11
20768.318874500001
 21
19904.22563600001
 31
0.0
  0
LINE
  5
3E94
  8
2-0
  6
CONTINUOUS
 62
     3
 10
20786.314677499999
 20
19929.234873000001
 30
0.0
 11
20786.314677499999
 21
19904.22563600001
 31
0.0
  0
LINE
  5
3E95
  8
2-0
  6
CONTINUOUS
 62
     3
 10
20781.3144135
 20
19929.234873000001
 30
0.0
 11
20786.314677499999
 21
19929.234873000001
 31
0.0
  0
LINE
  5
3E96
  8
2-0
  6
CONTINUOUS
 62
     3
 10
20781.3144135
 20
19922.229357000011
 30
0.0
 11
20781.3144135
 21
19929.234873000001
 31
0.0
  0
LINE
  5
3E97
  8
2-0
  6
CONTINUOUS
 62
     3
 10
21482.313424499989
 20
19922.229357000011
 30
0.0
 11
21482.313424499989
 21
19929.234873000001
 31
0.0
  0
LINE
  5
3E98
  8
2-0
  6
CONTINUOUS
 62
     3
 10
21482.313424499989
 20
19929.234873000001
 30
0.0
 11
21487.313687499998
 21
19929.234873000001
 31
0.0
  0
LINE
  5
3E99
  8
2-0
  6
CONTINUOUS
 62
     3
 10
21487.313687499998
 20
19929.234873000001
 30
0.0
 11
21487.313687499998
 21
19904.22563600001
 31
0.0
  0
LINE
  5
3E9A
  8
2-0
  6
CONTINUOUS
 62
     3
 10
21487.313687499998
 20
19904.22563600001
 30
0.0
 11
21469.319864499979
 21
19904.22563600001
 31
0.0
  0
LINE
  5
3E9B
  8
2-0
  6
CONTINUOUS
 62
     3
 10
21469.319864499979
 20
19904.22563600001
 30
0.0
 11
21469.319864499979
 21
19934.229199000009
 31
0.0
  0
LINE
  5
3E9C
  8
2-0
  6
CONTINUOUS
 62
     3
 10
21485.411370499991
 20
19904.22563600001
 30
0.0
 11
21479.4134295
 21
19904.22563600001
 31
0.0
  0
LINE
  5
3E9D
  8
2-0
  6
CONTINUOUS
 62
     3
 10
21479.4134295
 20
19904.22563600001
 30
0.0
 11
21479.4134295
 21
19934.229199000009
 31
0.0
  0
LINE
  5
3E9E
  8
2-0
  6
CONTINUOUS
 62
     3
 10
21516.4145905
 20
19934.229199000009
 30
0.0
 11
21479.4134295
 21
19934.229199000009
 31
0.0
  0
LINE
  5
3E9F
  8
2-0
  6
CONTINUOUS
 62
     3
 10
21516.4145905
 20
19904.22563600001
 30
0.0
 11
21516.4145905
 21
19934.229199000009
 31
0.0
  0
LINE
  5
3EA0
  8
2-0
  6
CONTINUOUS
 62
     3
 10
21510.408731499989
 20
19904.22563600001
 30
0.0
 11
21516.4145905
 21
19904.22563600001
 31
0.0
  0
LINE
  5
3EA1
  8
2-0
  6
CONTINUOUS
 62
     3
 10
21526.508155499989
 20
19904.22563600001
 30
0.0
 11
21526.508155499989
 21
19934.229199000009
 31
0.0
  0
LINE
  5
3EA2
  8
2-0
  6
CONTINUOUS
 62
     3
 10
21508.512352499991
 20
19904.22563600001
 30
0.0
 11
21526.508155499989
 21
19904.22563600001
 31
0.0
  0
LINE
  5
3EA3
  8
2-0
  6
CONTINUOUS
 62
     3
 10
21508.512352499991
 20
19929.234873000001
 30
0.0
 11
21508.512352499991
 21
19904.22563600001
 31
0.0
  0
LINE
  5
3EA4
  8
2-0
  6
CONTINUOUS
 62
     3
 10
21513.5027185
 20
19929.234873000001
 30
0.0
 11
21508.512352499991
 21
19929.234873000001
 31
0.0
  0
LINE
  5
3EA5
  8
2-0
  6
CONTINUOUS
 62
     3
 10
21513.5027185
 20
19922.229357000011
 30
0.0
 11
21513.5027185
 21
19929.234873000001
 31
0.0
  0
LINE
  5
3EA6
  8
2-0
  6
CONTINUOUS
 62
     3
 10
20825.5091455
 20
19934.229199000009
 30
0.0
 11
21469.319864499979
 21
19934.229199000009
 31
0.0
  0
LINE
  5
3EA7
  8
2-0
  6
CONTINUOUS
 62
     3
 10
20121.719251999999
 20
19934.229199000009
 30
0.0
 11
20768.318874500001
 21
19934.229199000009
 31
0.0
  0
LINE
  5
3EA8
  8
2-0
  6
CONTINUOUS
 62
     3
 10
22170.319864000001
 20
19934.229199000009
 30
0.0
 11
21526.508155499989
 21
19934.229199000009
 31
0.0
  0
LINE
  5
3EA9
  8
2-0
  6
CONTINUOUS
 62
     3
 10
20026.41533
 20
19825.228987999999
 30
0.0
 11
20026.41533
 21
19819.23302600002
 31
0.0
  0
LINE
  5
3EAA
  8
2-0
  6
CONTINUOUS
 62
     3
 10
20026.41533
 20
19819.23302600002
 30
0.0
 11
19996.417705
 21
19819.23302600002
 31
0.0
  0
LINE
  5
3EAB
  8
2-0
  6
CONTINUOUS
 62
     3
 10
19996.417705
 20
19819.23302600002
 30
0.0
 11
19996.417705
 21
19934.229199000009
 31
0.0
  0
LINE
  5
3EAC
  8
2-0
  6
CONTINUOUS
 62
     3
 10
19996.417705
 20
19849.23263000001
 30
0.0
 11
20077.415646000001
 21
19849.23263000001
 31
0.0
  0
LINE
  5
3EAD
  8
2-0
  6
CONTINUOUS
 62
     3
 10
20026.41533
 20
19808.935570000001
 30
0.0
 11
19996.417705
 21
19808.935570000001
 31
0.0
  0
LINE
  5
3EAE
  8
2-0
  6
CONTINUOUS
 62
     3
 10
20026.41533
 20
19826.93731200002
 30
0.0
 11
20026.41533
 21
19808.935570000001
 31
0.0
  0
LINE
  5
3EAF
  8
2-0
  6
CONTINUOUS
 62
     3
 10
20001.421928
 20
19826.93731200002
 30
0.0
 11
20026.41533
 21
19826.93731200002
 31
0.0
  0
LINE
  5
3EB0
  8
2-0
  6
CONTINUOUS
 62
     3
 10
20001.421928
 20
19821.929130000019
 30
0.0
 11
20001.421928
 21
19826.93731200002
 31
0.0
  0
LINE
  5
3EB1
  8
2-0
  6
CONTINUOUS
 62
     3
 10
20008.419525999969
 20
19821.929130000019
 30
0.0
 11
20001.421928
 21
19821.929130000019
 31
0.0
  0
LINE
  5
3EB2
  8
2-0
  6
CONTINUOUS
 62
     3
 10
20008.419525999969
 20
19118.132307499989
 30
0.0
 11
20001.421928
 21
19118.132307499989
 31
0.0
  0
LINE
  5
3EB3
  8
2-0
  6
CONTINUOUS
 62
     3
 10
20001.421928
 20
19118.132307499989
 30
0.0
 11
20001.421928
 21
19123.132571499991
 31
0.0
  0
LINE
  5
3EB4
  8
2-0
  6
CONTINUOUS
 62
     3
 10
20001.421928
 20
19123.132571499991
 30
0.0
 11
20026.41533
 21
19123.132571499991
 31
0.0
  0
LINE
  5
3EB5
  8
2-0
  6
CONTINUOUS
 62
     3
 10
20026.41533
 20
19123.132571499991
 30
0.0
 11
20026.41533
 21
19105.136767499989
 31
0.0
  0
LINE
  5
3EB6
  8
2-0
  6
CONTINUOUS
 62
     3
 10
20026.41533
 20
19105.136767499989
 30
0.0
 11
19996.417705
 21
19105.136767499989
 31
0.0
  0
LINE
  5
3EB7
  8
2-0
  6
CONTINUOUS
 62
     3
 10
20026.41533
 20
19121.22827449995
 30
0.0
 11
20026.41533
 21
19115.230333499989
 31
0.0
  0
LINE
  5
3EB8
  8
2-0
  6
CONTINUOUS
 62
     3
 10
20026.41533
 20
19115.230333499989
 30
0.0
 11
19996.417705
 21
19115.230333499989
 31
0.0
  0
LINE
  5
3EB9
  8
2-0
  6
CONTINUOUS
 62
     3
 10
19996.417705
 20
19115.230333499989
 30
0.0
 11
19996.417705
 21
19152.2314945
 31
0.0
  0
LINE
  5
3EBA
  8
2-0
  6
CONTINUOUS
 62
     3
 10
20026.41533
 20
19152.2314945
 30
0.0
 11
19996.417705
 21
19152.2314945
 31
0.0
  0
LINE
  5
3EBB
  8
2-0
  6
CONTINUOUS
 62
     3
 10
20026.41533
 20
19146.227614499981
 30
0.0
 11
20026.41533
 21
19152.2314945
 31
0.0
  0
LINE
  5
3EBC
  8
2-0
  6
CONTINUOUS
 62
     3
 10
20026.41533
 20
19162.327039499982
 30
0.0
 11
19996.417705
 21
19162.327039499982
 31
0.0
  0
LINE
  5
3EBD
  8
2-0
  6
CONTINUOUS
 62
     3
 10
20026.41533
 20
19144.3252975
 30
0.0
 11
20026.41533
 21
19162.327039499982
 31
0.0
  0
LINE
  5
3EBE
  8
2-0
  6
CONTINUOUS
 62
     3
 10
20001.421928
 20
19144.3252975
 30
0.0
 11
20026.41533
 21
19144.3252975
 31
0.0
  0
LINE
  5
3EBF
  8
2-0
  6
CONTINUOUS
 62
     3
 10
20001.421928
 20
19149.325561500002
 30
0.0
 11
20001.421928
 21
19144.3252975
 31
0.0
  0
LINE
  5
3EC0
  8
2-0
  6
CONTINUOUS
 62
     3
 10
20008.419525999969
 20
19149.325561500002
 30
0.0
 11
20001.421928
 21
19149.325561500002
 31
0.0
  0
LINE
  5
3EC1
  8
2-0
  6
CONTINUOUS
 62
     3
 10
20008.419525999969
 20
18417.131317999989
 30
0.0
 11
20001.421928
 21
18417.131317999989
 31
0.0
  0
LINE
  5
3EC2
  8
2-0
  6
CONTINUOUS
 62
     3
 10
20001.421928
 20
18417.131317999989
 30
0.0
 11
20001.421928
 21
18422.13752
 31
0.0
  0
LINE
  5
3EC3
  8
2-0
  6
CONTINUOUS
 62
     3
 10
20001.421928
 20
18422.13752
 30
0.0
 11
20026.41533
 21
18422.13752
 31
0.0
  0
LINE
  5
3EC4
  8
2-0
  6
CONTINUOUS
 62
     3
 10
20026.41533
 20
18422.13752
 30
0.0
 11
20026.41533
 21
18404.135778
 31
0.0
  0
LINE
  5
3EC5
  8
2-0
  6
CONTINUOUS
 62
     3
 10
20026.41533
 20
18404.135778
 30
0.0
 11
19996.417705
 21
18404.135778
 31
0.0
  0
LINE
  5
3EC6
  8
2-0
  6
CONTINUOUS
 62
     3
 10
20026.41533
 20
18420.22728499999
 30
0.0
 11
20026.41533
 21
18414.231322999989
 31
0.0
  0
LINE
  5
3EC7
  8
2-0
  6
CONTINUOUS
 62
     3
 10
20026.41533
 20
18414.231322999989
 30
0.0
 11
19996.417705
 21
18414.231322999989
 31
0.0
  0
LINE
  5
3EC8
  8
2-0
  6
CONTINUOUS
 62
     3
 10
19996.417705
 20
18414.231322999989
 30
0.0
 11
19996.417705
 21
18451.230504999989
 31
0.0
  0
LINE
  5
3EC9
  8
2-0
  6
CONTINUOUS
 62
     3
 10
20026.41533
 20
18451.230504999989
 30
0.0
 11
19996.417705
 21
18451.230504999989
 31
0.0
  0
LINE
  5
3ECA
  8
2-0
  6
CONTINUOUS
 62
     3
 10
20026.41533
 20
18445.23454300001
 30
0.0
 11
20026.41533
 21
18451.230504999989
 31
0.0
  0
LINE
  5
3ECB
  8
2-0
  6
CONTINUOUS
 62
     3
 10
20026.41533
 20
18461.32605
 30
0.0
 11
19996.417705
 21
18461.32605
 31
0.0
  0
LINE
  5
3ECC
  8
2-0
  6
CONTINUOUS
 62
     3
 10
20026.41533
 20
18443.324307999988
 30
0.0
 11
20026.41533
 21
18461.32605
 31
0.0
  0
LINE
  5
3ECD
  8
2-0
  6
CONTINUOUS
 62
     3
 10
20001.421928
 20
18443.324307999988
 30
0.0
 11
20026.41533
 21
18443.324307999988
 31
0.0
  0
LINE
  5
3ECE
  8
2-0
  6
CONTINUOUS
 62
     3
 10
20001.421928
 20
18448.330509999989
 30
0.0
 11
20001.421928
 21
18443.324307999988
 31
0.0
  0
LINE
  5
3ECF
  8
2-0
  6
CONTINUOUS
 62
     3
 10
20008.419525999969
 20
18448.330509999989
 30
0.0
 11
20001.421928
 21
18448.330509999989
 31
0.0
  0
LINE
  5
3ED0
  8
2-0
  6
CONTINUOUS
 62
     3
 10
20008.419525999969
 20
17747.324572000001
 30
0.0
 11
20001.421928
 21
17747.324572000001
 31
0.0
  0
LINE
  5
3ED1
  8
2-0
  6
CONTINUOUS
 62
     3
 10
20001.421928
 20
17747.324572000001
 30
0.0
 11
20001.421928
 21
17742.336185
 31
0.0
  0
LINE
  5
3ED2
  8
2-0
  6
CONTINUOUS
 62
     3
 10
20001.421928
 20
17742.336185
 30
0.0
 11
20026.41533
 21
17742.336185
 31
0.0
  0
LINE
  5
3ED3
  8
2-0
  6
CONTINUOUS
 62
     3
 10
20026.41533
 20
17742.336185
 30
0.0
 11
20026.41533
 21
17760.331988000002
 31
0.0
  0
LINE
  5
3ED4
  8
2-0
  6
CONTINUOUS
 62
     3
 10
20026.41533
 20
17760.331988000002
 30
0.0
 11
19996.417705
 21
17760.331988000002
 31
0.0
  0
LINE
  5
3ED5
  8
2-0
  6
CONTINUOUS
 62
     3
 10
20026.41533
 20
17744.234542999991
 30
0.0
 11
20026.41533
 21
17750.230504999981
 31
0.0
  0
LINE
  5
3ED6
  8
2-0
  6
CONTINUOUS
 62
     3
 10
20026.41533
 20
17750.230504999981
 30
0.0
 11
19996.417705
 21
17750.230504999981
 31
0.0
  0
LINE
  5
3ED7
  8
2-0
  6
CONTINUOUS
 62
     3
 10
19996.417705
 20
17750.230504999981
 30
0.0
 11
19996.417705
 21
17713.231323
 31
0.0
  0
LINE
  5
3ED8
  8
2-0
  6
CONTINUOUS
 62
     3
 10
20026.41533
 20
17713.231323
 30
0.0
 11
19996.417705
 21
17713.231323
 31
0.0
  0
LINE
  5
3ED9
  8
2-0
  6
CONTINUOUS
 62
     3
 10
20026.41533
 20
17719.233223999989
 30
0.0
 11
20026.41533
 21
17713.231323
 31
0.0
  0
LINE
  5
3EDA
  8
2-0
  6
CONTINUOUS
 62
     3
 10
20026.41533
 20
17703.141716999991
 30
0.0
 11
19996.417705
 21
17703.141716999991
 31
0.0
  0
LINE
  5
3EDB
  8
2-0
  6
CONTINUOUS
 62
     3
 10
20026.41533
 20
17721.13752
 30
0.0
 11
20026.41533
 21
17703.141716999991
 31
0.0
  0
LINE
  5
3EDC
  8
2-0
  6
CONTINUOUS
 62
     3
 10
20001.421928
 20
17721.13752
 30
0.0
 11
20026.41533
 21
17721.13752
 31
0.0
  0
LINE
  5
3EDD
  8
2-0
  6
CONTINUOUS
 62
     3
 10
20001.421928
 20
17716.137256999991
 30
0.0
 11
20001.421928
 21
17721.13752
 31
0.0
  0
LINE
  5
3EDE
  8
2-0
  6
CONTINUOUS
 62
     3
 10
20008.419525999969
 20
17716.137256999991
 30
0.0
 11
20001.421928
 21
17716.137256999991
 31
0.0
  0
LINE
  5
3EDF
  8
2-0
  6
CONTINUOUS
 62
     3
 10
19999.303843000002
 20
16996.228143
 30
0.0
 11
19999.303843000002
 21
17016.229198000001
 31
0.0
  0
LINE
  5
3EE0
  8
2-0
  6
CONTINUOUS
 62
     3
 10
19999.303843000002
 20
17016.229198000001
 30
0.0
 11
20084.304370999991
 21
17016.229198000001
 31
0.0
  0
LINE
  5
3EE1
  8
2-0
  6
CONTINUOUS
 62
     3
 10
20008.419525999969
 20
17042.835908000001
 30
0.0
 11
20001.421928
 21
17042.835908000001
 31
0.0
  0
LINE
  5
3EE2
  8
2-0
  6
CONTINUOUS
 62
     3
 10
20001.421928
 20
17042.835908000001
 30
0.0
 11
20001.421928
 21
17037.841582000001
 31
0.0
  0
LINE
  5
3EE3
  8
2-0
  6
CONTINUOUS
 62
     3
 10
20001.421928
 20
17037.841582000001
 30
0.0
 11
20026.41533
 21
17037.841582000001
 31
0.0
  0
LINE
  5
3EE4
  8
2-0
  6
CONTINUOUS
 62
     3
 10
20026.41533
 20
17037.841582000001
 30
0.0
 11
20026.41533
 21
17055.83738600001
 31
0.0
  0
LINE
  5
3EE5
  8
2-0
  6
CONTINUOUS
 62
     3
 10
20026.41533
 20
17055.83738600001
 30
0.0
 11
19996.417705
 21
17055.83738600001
 31
0.0
  0
LINE
  5
3EE6
  8
2-0
  6
CONTINUOUS
 62
     3
 10
20026.41533
 20
17046.228802000001
 30
0.0
 11
20026.41533
 21
17040.226901999991
 31
0.0
  0
LINE
  5
3EE7
  8
2-0
  6
CONTINUOUS
 62
     3
 10
19996.417705
 20
17046.228802000001
 30
0.0
 11
20026.41533
 21
17046.228802000001
 31
0.0
  0
LINE
  5
3EE8
  8
2-0
  6
CONTINUOUS
 62
     3
 10
19996.417705
 20
17055.83738600001
 30
0.0
 11
19996.417705
 21
17703.141716999991
 31
0.0
  0
LINE
  5
3EE9
  8
2-0
  6
CONTINUOUS
 62
     3
 10
19996.417705
 20
17760.331988000002
 30
0.0
 11
19996.417705
 21
18404.135778
 31
0.0
  0
LINE
  5
3EEA
  8
2-0
  6
CONTINUOUS
 62
     3
 10
19996.417705
 20
16901.22708700001
 30
0.0
 11
20026.41533
 21
16901.22708700001
 31
0.0
  0
LINE
  5
3EEB
  8
2-0
  6
CONTINUOUS
 62
     3
 10
20026.41533
 20
16901.22708700001
 30
0.0
 11
20026.41533
 21
16907.22898700001
 31
0.0
  0
LINE
  5
3EEC
  8
2-0
  6
CONTINUOUS
 62
     3
 10
20084.304370999991
 20
16931.232629999991
 30
0.0
 11
19999.303843000002
 21
16931.232629999991
 31
0.0
  0
LINE
  5
3EED
  8
2-0
  6
CONTINUOUS
 62
     3
 10
19999.303843000002
 20
16931.232629999991
 30
0.0
 11
19999.303843000002
 21
16951.227747000012
 31
0.0
  0
LINE
  5
3EEE
  8
2-0
  6
CONTINUOUS
 62
     3
 10
20026.41533
 20
16891.618503999998
 30
0.0
 11
19996.417705
 21
16891.618503999998
 31
0.0
  0
LINE
  5
3EEF
  8
2-0
  6
CONTINUOUS
 62
     3
 10
20026.41533
 20
16909.614306999982
 30
0.0
 11
20026.41533
 21
16891.618503999998
 31
0.0
  0
LINE
  5
3EF0
  8
2-0
  6
CONTINUOUS
 62
     3
 10
20001.421928
 20
16909.614306999982
 30
0.0
 11
20026.41533
 21
16909.614306999982
 31
0.0
  0
LINE
  5
3EF1
  8
2-0
  6
CONTINUOUS
 62
     3
 10
20001.421928
 20
16904.614043000009
 30
0.0
 11
20001.421928
 21
16909.614306999982
 31
0.0
  0
LINE
  5
3EF2
  8
2-0
  6
CONTINUOUS
 62
     3
 10
20008.419525999969
 20
16904.614043000009
 30
0.0
 11
20001.421928
 21
16904.614043000009
 31
0.0
  0
LINE
  5
3EF3
  8
2-0
  6
CONTINUOUS
 62
     3
 10
20008.419525999969
 20
16200.131812499991
 30
0.0
 11
20001.421928
 21
16200.131812499991
 31
0.0
  0
LINE
  5
3EF4
  8
2-0
  6
CONTINUOUS
 62
     3
 10
20001.421928
 20
16200.131812499991
 30
0.0
 11
20001.421928
 21
16205.13207649998
 31
0.0
  0
LINE
  5
3EF5
  8
2-0
  6
CONTINUOUS
 62
     3
 10
20001.421928
 20
16205.13207649998
 30
0.0
 11
20026.41533
 21
16205.13207649998
 31
0.0
  0
LINE
  5
3EF6
  8
2-0
  6
CONTINUOUS
 62
     3
 10
20026.41533
 20
16205.13207649998
 30
0.0
 11
20026.41533
 21
16187.130334499991
 31
0.0
  0
LINE
  5
3EF7
  8
2-0
  6
CONTINUOUS
 62
     3
 10
20026.41533
 20
16187.130334499991
 30
0.0
 11
19996.417705
 21
16187.130334499991
 31
0.0
  0
LINE
  5
3EF8
  8
2-0
  6
CONTINUOUS
 62
     3
 10
20026.41533
 20
16203.227779500001
 30
0.0
 11
20026.41533
 21
16197.2308285
 31
0.0
  0
LINE
  5
3EF9
  8
2-0
  6
CONTINUOUS
 62
     3
 10
20026.41533
 20
16197.2308285
 30
0.0
 11
19996.417705
 21
16197.2308285
 31
0.0
  0
LINE
  5
3EFA
  8
2-0
  6
CONTINUOUS
 62
     3
 10
19996.417705
 20
16197.2308285
 30
0.0
 11
19996.417705
 21
16234.2309995
 31
0.0
  0
LINE
  5
3EFB
  8
2-0
  6
CONTINUOUS
 62
     3
 10
20026.41533
 20
16234.2309995
 30
0.0
 11
19996.417705
 21
16234.2309995
 31
0.0
  0
LINE
  5
3EFC
  8
2-0
  6
CONTINUOUS
 62
     3
 10
20026.41533
 20
16228.228109499991
 30
0.0
 11
20026.41533
 21
16234.2309995
 31
0.0
  0
LINE
  5
3EFD
  8
2-0
  6
CONTINUOUS
 62
     3
 10
20026.41533
 20
16244.3265445
 30
0.0
 11
19996.417705
 21
16244.3265445
 31
0.0
  0
LINE
  5
3EFE
  8
2-0
  6
CONTINUOUS
 62
     3
 10
20026.41533
 20
16226.318863500001
 30
0.0
 11
20026.41533
 21
16244.3265445
 31
0.0
  0
LINE
  5
3EFF
  8
2-0
  6
CONTINUOUS
 62
     3
 10
20001.421928
 20
16226.318863500001
 30
0.0
 11
20026.41533
 21
16226.318863500001
 31
0.0
  0
LINE
  5
3F00
  8
2-0
  6
CONTINUOUS
 62
     3
 10
20001.421928
 20
16231.3250665
 30
0.0
 11
20001.421928
 21
16226.318863500001
 31
0.0
  0
LINE
  5
3F01
  8
2-0
  6
CONTINUOUS
 62
     3
 10
20008.419525999969
 20
16231.3250665
 30
0.0
 11
20001.421928
 21
16231.3250665
 31
0.0
  0
LINE
  5
3F02
  8
2-0
  6
CONTINUOUS
 62
     3
 10
20008.419525999969
 20
15530.565083
 30
0.0
 11
20001.421928
 21
15530.565083
 31
0.0
  0
LINE
  5
3F03
  8
2-0
  6
CONTINUOUS
 62
     3
 10
20001.421928
 20
15530.565083
 30
0.0
 11
20001.421928
 21
15525.570758000011
 31
0.0
  0
LINE
  5
3F04
  8
2-0
  6
CONTINUOUS
 62
     3
 10
20001.421928
 20
15525.570758000011
 30
0.0
 11
20026.41533
 21
15525.570758000011
 31
0.0
  0
LINE
  5
3F05
  8
2-0
  6
CONTINUOUS
 62
     3
 10
20026.41533
 20
15525.570758000011
 30
0.0
 11
20026.41533
 21
15543.566561000011
 31
0.0
  0
LINE
  5
3F06
  8
2-0
  6
CONTINUOUS
 62
     3
 10
20026.41533
 20
15543.566561000011
 30
0.0
 11
19996.417705
 21
15543.566561000011
 31
0.0
  0
LINE
  5
3F07
  8
2-0
  6
CONTINUOUS
 62
     3
 10
20026.41533
 20
15527.469116
 30
0.0
 11
20026.41533
 21
15533.47101600001
 31
0.0
  0
LINE
  5
3F08
  8
2-0
  6
CONTINUOUS
 62
     3
 10
20026.41533
 20
15533.47101600001
 30
0.0
 11
19996.417705
 21
15533.47101600001
 31
0.0
  0
LINE
  5
3F09
  8
2-0
  6
CONTINUOUS
 62
     3
 10
19996.417705
 20
15496.471835
 30
0.0
 11
19996.417705
 21
15533.47101600001
 31
0.0
  0
LINE
  5
3F0A
  8
2-0
  6
CONTINUOUS
 62
     3
 10
20026.41533
 20
15496.471835
 30
0.0
 11
19996.417705
 21
15496.471835
 31
0.0
  0
LINE
  5
3F0B
  8
2-0
  6
CONTINUOUS
 62
     3
 10
20026.41533
 20
15502.468785999999
 30
0.0
 11
20026.41533
 21
15496.471835
 31
0.0
  0
LINE
  5
3F0C
  8
2-0
  6
CONTINUOUS
 62
     3
 10
20026.41533
 20
15486.370351
 30
0.0
 11
19996.417705
 21
15486.370351
 31
0.0
  0
LINE
  5
3F0D
  8
2-0
  6
CONTINUOUS
 62
     3
 10
20026.41533
 20
15504.378032000001
 30
0.0
 11
20026.41533
 21
15486.370351
 31
0.0
  0
LINE
  5
3F0E
  8
2-0
  6
CONTINUOUS
 62
     3
 10
20001.421928
 20
15504.378032000001
 30
0.0
 11
20026.41533
 21
15504.378032000001
 31
0.0
  0
LINE
  5
3F0F
  8
2-0
  6
CONTINUOUS
 62
     3
 10
20001.421928
 20
15499.377768000009
 30
0.0
 11
20001.421928
 21
15504.378032000001
 31
0.0
  0
LINE
  5
3F10
  8
2-0
  6
CONTINUOUS
 62
     3
 10
20008.419525999969
 20
15499.377768000009
 30
0.0
 11
20001.421928
 21
15499.377768000009
 31
0.0
  0
LINE
  5
3F11
  8
2-0
  6
CONTINUOUS
 62
     3
 10
19996.417705
 20
16891.618503999998
 30
0.0
 11
19996.417705
 21
16244.3265445
 31
0.0
  0
LINE
  5
3F12
  8
2-0
  6
CONTINUOUS
 62
     3
 10
19996.417705
 20
17046.228802000001
 30
0.0
 11
19996.417705
 21
16901.22708700001
 31
0.0
  0
LINE
  5
3F13
  8
2-0
  6
CONTINUOUS
 62
     3
 10
20084.304370999991
 20
17016.229198000001
 30
0.0
 11
20084.304370999991
 21
16931.232629999991
 31
0.0
  0
LINE
  5
3F14
  8
2-0
  6
CONTINUOUS
 62
     3
 10
20008.419525999969
 20
14798.136761
 30
0.0
 11
20001.421928
 21
14798.136761
 31
0.0
  0
LINE
  5
3F15
  8
2-0
  6
CONTINUOUS
 62
     3
 10
20001.421928
 20
14798.136761
 30
0.0
 11
20001.421928
 21
14803.131087000011
 31
0.0
  0
LINE
  5
3F16
  8
2-0
  6
CONTINUOUS
 62
     3
 10
20001.421928
 20
14803.131087000011
 30
0.0
 11
20026.41533
 21
14803.131087000011
 31
0.0
  0
LINE
  5
3F17
  8
2-0
  6
CONTINUOUS
 62
     3
 10
20026.41533
 20
14803.131087000011
 30
0.0
 11
20026.41533
 21
14785.135283000011
 31
0.0
  0
LINE
  5
3F18
  8
2-0
  6
CONTINUOUS
 62
     3
 10
20026.41533
 20
14785.135283000011
 30
0.0
 11
19996.417705
 21
14785.135283000011
 31
0.0
  0
LINE
  5
3F19
  8
2-0
  6
CONTINUOUS
 62
     3
 10
20026.41533
 20
14801.23371800001
 30
0.0
 11
20026.41533
 21
14795.230828000011
 31
0.0
  0
LINE
  5
3F1A
  8
2-0
  6
CONTINUOUS
 62
     3
 10
20026.41533
 20
14795.230828000011
 30
0.0
 11
19996.417705
 21
14795.230828000011
 31
0.0
  0
LINE
  5
3F1B
  8
2-0
  6
CONTINUOUS
 62
     3
 10
19996.417705
 20
14795.230828000011
 30
0.0
 11
19996.417705
 21
14832.231
 31
0.0
  0
LINE
  5
3F1C
  8
2-0
  6
CONTINUOUS
 62
     3
 10
20026.41533
 20
14832.231
 30
0.0
 11
19996.417705
 21
14832.231
 31
0.0
  0
LINE
  5
3F1D
  8
2-0
  6
CONTINUOUS
 62
     3
 10
20026.41533
 20
14826.234047999989
 30
0.0
 11
20026.41533
 21
14832.231
 31
0.0
  0
LINE
  5
3F1E
  8
2-0
  6
CONTINUOUS
 62
     3
 10
20026.41533
 20
14842.331493000011
 30
0.0
 11
19996.417705
 21
14842.331493000011
 31
0.0
  0
LINE
  5
3F1F
  8
2-0
  6
CONTINUOUS
 62
     3
 10
20026.41533
 20
14824.32480200001
 30
0.0
 11
20026.41533
 21
14842.331493000011
 31
0.0
  0
LINE
  5
3F20
  8
2-0
  6
CONTINUOUS
 62
     3
 10
20001.421928
 20
14824.32480200001
 30
0.0
 11
20026.41533
 21
14824.32480200001
 31
0.0
  0
LINE
  5
3F21
  8
2-0
  6
CONTINUOUS
 62
     3
 10
20001.421928
 20
14829.33001500001
 30
0.0
 11
20001.421928
 21
14824.32480200001
 31
0.0
  0
LINE
  5
3F22
  8
2-0
  6
CONTINUOUS
 62
     3
 10
20008.419525999969
 20
14829.33001500001
 30
0.0
 11
20001.421928
 21
14829.33001500001
 31
0.0
  0
LINE
  5
3F23
  8
2-0
  6
CONTINUOUS
 62
     3
 10
20026.41533
 20
14122.23284099999
 30
0.0
 11
20026.41533
 21
14128.237709999999
 31
0.0
  0
LINE
  5
3F24
  8
2-0
  6
CONTINUOUS
 62
     3
 10
20026.41533
 20
14128.237709999999
 30
0.0
 11
19996.417705
 21
14128.237709999999
 31
0.0
  0
LINE
  5
3F25
  8
2-0
  6
CONTINUOUS
 62
     3
 10
19996.417705
 20
14128.237709999999
 30
0.0
 11
19996.417705
 21
14013.233619000001
 31
0.0
  0
LINE
  5
3F26
  8
2-0
  6
CONTINUOUS
 62
     3
 10
19996.417705
 20
14013.233619000001
 30
0.0
 11
20081.416252999989
 21
14013.233619000001
 31
0.0
  0
LINE
  5
3F27
  8
2-0
  6
CONTINUOUS
 62
     3
 10
20081.416252999989
 20
14013.233619000001
 30
0.0
 11
20081.416252999989
 21
14098.229198000001
 31
0.0
  0
LINE
  5
3F28
  8
2-0
  6
CONTINUOUS
 62
     3
 10
20081.416252999989
 20
14098.229198000001
 30
0.0
 11
20049.419314999981
 21
14098.229198000001
 31
0.0
  0
LINE
  5
3F29
  8
2-0
  6
CONTINUOUS
 62
     3
 10
20008.419525999969
 20
14125.267443000001
 30
0.0
 11
20001.421928
 21
14125.267443000001
 31
0.0
  0
LINE
  5
3F2A
  8
2-0
  6
CONTINUOUS
 62
     3
 10
20001.421928
 20
14125.267443000001
 30
0.0
 11
20001.421928
 21
14120.270147999971
 31
0.0
  0
LINE
  5
3F2B
  8
2-0
  6
CONTINUOUS
 62
     3
 10
20001.421928
 20
14120.270147999971
 30
0.0
 11
20026.41533
 21
14120.270147999971
 31
0.0
  0
LINE
  5
3F2C
  8
2-0
  6
CONTINUOUS
 62
     3
 10
20026.41533
 20
14120.270147999971
 30
0.0
 11
20026.41533
 21
14138.268921000001
 31
0.0
  0
LINE
  5
3F2D
  8
2-0
  6
CONTINUOUS
 62
     3
 10
20026.41533
 20
14138.268921000001
 30
0.0
 11
19996.417705
 21
14138.268921000001
 31
0.0
  0
LINE
  5
3F2E
  8
2-0
  6
CONTINUOUS
 62
     3
 10
19996.417705
 20
14842.331493000011
 30
0.0
 11
19996.417705
 21
15486.370351
 31
0.0
  0
LINE
  5
3F2F
  8
2-0
  6
CONTINUOUS
 62
     3
 10
19996.417705
 20
18461.32605
 30
0.0
 11
19996.417705
 21
19105.136767499989
 31
0.0
  0
LINE
  5
3F30
  8
2-0
  6
CONTINUOUS
 62
     3
 10
20087.420133
 20
18390.22965999999
 30
0.0
 11
20040.416464000002
 21
18390.22965999999
 31
0.0
  0
LINE
  5
3F31
  8
2-0
  6
CONTINUOUS
 62
     3
 10
20040.416464000002
 20
18475.230188000001
 30
0.0
 11
20087.420133
 21
18475.230188000001
 31
0.0
  0
LINE
  5
3F32
  8
2-0
  6
CONTINUOUS
 62
     3
 10
20040.416464000002
 20
18390.22965999999
 30
0.0
 11
20040.416464000002
 21
18415.232959000001
 31
0.0
  0
LINE
  5
3F33
  8
2-0
  6
CONTINUOUS
 62
     3
 10
20040.416464000002
 20
18450.228867999991
 30
0.0
 11
20040.416464000002
 21
18475.230188000001
 31
0.0
  0
LINE
  5
3F34
  8
2-0
  6
CONTINUOUS
 62
     3
 10
20087.420133
 20
18475.230188000001
 30
0.0
 11
20087.420133
 21
18390.22965999999
 31
0.0
  0
LINE
  5
3F35
  8
2-0
  6
CONTINUOUS
 62
     3
 10
19996.417705
 20
16187.130334499991
 30
0.0
 11
19996.417705
 21
15543.566561000011
 31
0.0
  0
LINE
  5
3F36
  8
2-0
  6
CONTINUOUS
 62
     3
 10
20087.420133
 20
15472.23263
 30
0.0
 11
20040.416464000002
 21
15472.23263
 31
0.0
  0
LINE
  5
3F37
  8
2-0
  6
CONTINUOUS
 62
     3
 10
20040.416464000002
 20
15557.22919799999
 30
0.0
 11
20087.420133
 21
15557.22919799999
 31
0.0
  0
LINE
  5
3F38
  8
2-0
  6
CONTINUOUS
 62
     3
 10
20040.416464000002
 20
15472.23263
 30
0.0
 11
20040.416464000002
 21
15497.22801100001
 31
0.0
  0
LINE
  5
3F39
  8
2-0
  6
CONTINUOUS
 62
     3
 10
20040.416464000002
 20
15532.227879
 30
0.0
 11
20040.416464000002
 21
15557.22919799999
 31
0.0
  0
LINE
  5
3F3A
  8
2-0
  6
CONTINUOUS
 62
     3
 10
20087.420133
 20
15557.22919799999
 30
0.0
 11
20087.420133
 21
15472.23263
 31
0.0
  0
LINE
  5
3F3B
  8
2-0
  6
CONTINUOUS
 62
     3
 10
25917.412294000002
 20
19819.23302600002
 30
0.0
 11
25917.412294000002
 21
19934.229199000009
 31
0.0
  0
LINE
  5
3F3C
  8
2-0
  6
CENTER2
 62
     6
 10
18709.459433
 20
19891.730914
 30
0.0
 11
26767.413614000001
 21
19891.730914
 31
0.0
  0
LINE
  5
3F3D
  8
2-0
  6
CENTER2
 62
     6
 10
18709.459433
 20
16973.730914
 30
0.0
 11
26767.413614000001
 21
16973.730914
 31
0.0
  0
LINE
  5
3F3E
  8
2-0
  6
CENTER2
 62
     6
 10
18709.459433
 20
14055.730913999991
 30
0.0
 11
26767.413614000001
 21
14055.730913999991
 31
0.0
  0
LINE
  5
3F3F
  8
2-0
  6
CONTINUOUS
 62
     3
 10
19996.417705
 20
19849.23263000001
 30
0.0
 11
25836.410393999991
 21
19849.23263000001
 31
0.0
  0
LINE
  5
3F40
  8
2-0
  6
CONTINUOUS
 62
     3
 10
19996.417705
 20
14138.268921000001
 30
0.0
 11
19996.417705
 21
14785.135283000011
 31
0.0
  0
LINE
  5
3F41
  8
2-0
  6
CENTER2
 62
     6
 10
20038.91401
 20
21134.229199000009
 30
0.0
 11
20038.91401
 21
13429.967479999999
 31
0.0
  0
LINE
  5
3F42
  8
2-0
  6
CENTER2
 62
     6
 10
25874.91401
 20
21134.229199000009
 30
0.0
 11
25874.91401
 21
13429.967479999999
 31
0.0
  0
LINE
  5
3F43
  8
2-0
  6
CONTINUOUS
 62
     3
 10
25917.412294000002
 20
19808.935570000001
 30
0.0
 11
25917.412294000002
 21
19162.327039499982
 31
0.0
  0
LINE
  5
3F44
  8
2-0
  6
CONTINUOUS
 62
     3
 10
19996.417705
 20
19808.935570000001
 30
0.0
 11
19996.417705
 21
19162.327039499982
 31
0.0
  0
LINE
  5
3F45
  8
2-0
  6
CENTER2
 62
     6
 10
22956.91401
 20
21134.229199000009
 30
0.0
 11
22956.91401
 21
13864.32631299999
 31
0.0
  0
LINE
  5
3F46
  8
2-0
  6
CONTINUOUS
 62
     3
 10
20077.415646000001
 20
14098.229198000001
 30
0.0
 11
20077.415646000001
 21
19934.229199000009
 31
0.0
  0
LINE
  5
3F47
  8
2-0
  6
CONTINUOUS
 62
     3
 10
25836.410393999991
 20
14098.229198000001
 30
0.0
 11
25836.410393999991
 21
19934.229199000009
 31
0.0
  0
CIRCLE
  5
3F48
  8
2-0
  6
CONTINUOUS
 62
     4
 10
18509.461742999989
 20
19891.730914
 30
0.0
 40
200.00001
  0
CIRCLE
  5
3F49
  8
2-0
  6
CONTINUOUS
 62
     4
 10
18509.461742999989
 20
16973.730914
 30
0.0
 40
200.00001
  0
CIRCLE
  5
3F4A
  8
2-0
  6
CONTINUOUS
 62
     4
 10
18509.461742999989
 20
14055.730913999991
 30
0.0
 40
200.00001
  0
CIRCLE
  5
3F4B
  8
2-0
  6
CONTINUOUS
 62
     4
 10
22956.91401
 20
21334.233818000012
 30
0.0
 40
200.00001
  0
CIRCLE
  5
3F4C
  8
2-0
  6
CONTINUOUS
 62
     4
 10
20038.91401
 20
21334.233818000012
 30
0.0
 40
200.00001
  0
TEXT
  5
3F4D
  8
2-0
  6
CONTINUOUS
 62
     7
 10
24271.759316999978
 20
13495.732035999999
 30
0.0
 40
160.0
  1
前柱（右）
 50
0.000213
 72
     4
 11
24687.759019592999
 21
13575.73358250079
 31
0.0
  0
TEXT
  5
3F4E
  8
2-0
  6
CONTINUOUS
 62
     7
 10
24288.458535999991
 20
18174.854080000001
 30
0.0
 40
160.0
  1
補強柱 後
 50
359.99984199999989
 72
     4
 11
24699.12542327472
 21
18254.852947536991
 31
0.0
  0
TEXT
  5
3F4F
  8
2-0
  6
CONTINUOUS
 62
     7
 10
24476.354439999981
 20
16424.22405200002
 30
0.0
 40
160.0
  1
壁パネル
 50
359.99982299999999
 72
     4
 11
24839.021353803539
 21
16504.222931637891
 31
0.0
  0
TEXT
  5
3F50
  8
2-0
  6
CONTINUOUS
 62
     7
 10
24196.35153599998
 20
17261.411948000012
 30
0.0
 40
160.0
  1
中柱（左右）
 50
0.000354
 72
     4
 11
24713.684375046199
 21
17341.415144324659
 31
0.0
  0
TEXT
  5
3F51
  8
2-0
  6
CONTINUOUS
 62
     7
 10
24876.353779999979
 20
14468.773302
 30
0.0
 40
160.0
  1
下枠
 50
0.001063
 72
     4
 11
25047.018962409282
 21
14548.776468339291
 31
0.0
  0
TEXT
  5
3F52
  8
2-0
  6
CONTINUOUS
 62
     7
 10
24288.458535999991
 20
15257.09459100001
 30
0.0
 40
160.0
  1
補強柱 前
 50
359.99937
 72
     4
 11
24699.12608228777
 21
15337.09007547934
 31
0.0
  0
TEXT
  5
3F53
  8
2-0
  6
CONTINUOUS
 62
     7
 10
24371.319203999999
 20
18864.680686499989
 30
0.0
 40
160.0
  1
間柱（側）
 72
     4
 11
24792.652537333332
 21
18944.680686499989
 31
0.0
  0
TEXT
  5
3F54
  8
2-0
  6
CONTINUOUS
 62
     7
 10
26689.909522999998
 20
20744.228406999999
 30
0.0
 40
160.0
  1
後柱（左右）
 50
0.000354
 72
     4
 11
27201.909028712991
 21
20824.231570372842
 31
0.0
  0
TEXT
  5
3F55
  8
2-0
  6
CONTINUOUS
 62
     7
 10
23356.002772000011
 20
14633.569213999979
 30
0.0
 40
160.0
  1
前柱（中）
 72
     4
 11
23772.002772000011
 21
14713.569213999979
 31
0.0
  0
TEXT
  5
3F56
  8
2-0
  6
CONTINUOUS
 62
     7
 10
21792.782886000001
 20
19297.111246000011
 30
0.0
 40
160.0
  1
間柱（後）
 72
     4
 11
22214.116219333329
 21
19377.111246000011
 31
0.0
  0
TEXT
  5
3F57
  8
2-0
  6
CONTINUOUS
 62
     7
 10
23227.207375000002
 20
19365.855967000021
 30
0.0
 40
160.0
  1
後柱（中）
 72
     4
 11
23643.207375000002
 21
19445.855967000021
 31
0.0
  0
TEXT
  5
3F58
  8
2-0
  6
CONTINUOUS
 62
     7
 10
18461.462375999981
 20
19797.250472000022
 30
0.0
 40
160.0
  1
C
 72
     4
 11
18514.795709333321
 21
19877.250472000022
 31
0.0
  0
TEXT
  5
3F59
  8
2-0
  6
CONTINUOUS
 62
     7
 10
18461.68309199997
 20
16903.336832000019
 30
0.0
 40
160.0
  1
B
 72
     4
 11
18515.01642533331
 21
16983.336832000019
 31
0.0
  0
TEXT
  5
3F5A
  8
2-0
  6
CONTINUOUS
 62
     7
 10
18461.725652000008
 20
13967.12370299999
 30
0.0
 40
160.0
  1
A
 72
     4
 11
18515.05898533334
 21
14047.12370299999
 31
0.0
  0
TEXT
  5
3F5B
  8
2-0
  6
CONTINUOUS
 62
     7
 10
22905.282227
 20
21238.708189000012
 30
0.0
 40
160.0
  1
2
 72
     4
 11
22958.615560333332
 21
21318.708189000012
 31
0.0
  0
TEXT
  5
3F5C
  8
2-0
  6
CONTINUOUS
 62
     7
 10
19994.707400999981
 20
21245.466266000029
 30
0.0
 40
160.0
  1
1
 72
     4
 11
20021.374067666649
 21
21325.466266000029
 31
0.0
  0
LINE
  5
3F5D
  8
2-0
  6
CONTINUOUS
 62
     3
 10
25135.414590999979
 20
19934.229199000009
 30
0.0
 11
25098.413429
 21
19934.229199000009
 31
0.0
  0
LINE
  5
3F5E
  8
2-0
  6
CONTINUOUS
 62
     3
 10
25135.414590999979
 20
19904.22563600001
 30
0.0
 11
25135.414590999979
 21
19934.229199000009
 31
0.0
  0
LINE
  5
3F5F
  8
2-0
  6
CONTINUOUS
 62
     3
 10
25129.41466999998
 20
19904.22563600001
 30
0.0
 11
25135.414590999979
 21
19904.22563600001
 31
0.0
  0
LINE
  5
3F60
  8
2-0
  6
CONTINUOUS
 62
     3
 10
25145.512115000001
 20
19904.22563600001
 30
0.0
 11
25145.512115000001
 21
19934.229199000009
 31
0.0
  0
LINE
  5
3F61
  8
2-0
  6
CONTINUOUS
 62
     3
 10
25127.508394
 20
19904.22563600001
 30
0.0
 11
25145.512115000001
 21
19904.22563600001
 31
0.0
  0
LINE
  5
3F62
  8
2-0
  6
CONTINUOUS
 62
     3
 10
25127.508394
 20
19929.234873000001
 30
0.0
 11
25127.508394
 21
19904.22563600001
 31
0.0
  0
LINE
  5
3F63
  8
2-0
  6
CONTINUOUS
 62
     3
 10
25132.508657999992
 20
19929.234873000001
 30
0.0
 11
25127.508394
 21
19929.234873000001
 31
0.0
  0
LINE
  5
3F64
  8
2-0
  6
CONTINUOUS
 62
     3
 10
25132.508657999992
 20
19922.229357000011
 30
0.0
 11
25132.508657999992
 21
19929.234873000001
 31
0.0
  0
LINE
  5
3F65
  8
2-0
  6
CONTINUOUS
 62
     3
 10
25101.319362999991
 20
19922.229357000011
 30
0.0
 11
25101.319362999991
 21
19929.234873000001
 31
0.0
  0
LINE
  5
3F66
  8
2-0
  6
CONTINUOUS
 62
     3
 10
25101.319362999991
 20
19929.234873000001
 30
0.0
 11
25106.319627000001
 21
19929.234873000001
 31
0.0
  0
LINE
  5
3F67
  8
2-0
  6
CONTINUOUS
 62
     3
 10
25106.319627000001
 20
19929.234873000001
 30
0.0
 11
25106.319627000001
 21
19904.22563600001
 31
0.0
  0
LINE
  5
3F68
  8
2-0
  6
CONTINUOUS
 62
     3
 10
25106.319627000001
 20
19904.22563600001
 30
0.0
 11
25088.319864000001
 21
19904.22563600001
 31
0.0
  0
LINE
  5
3F69
  8
2-0
  6
CONTINUOUS
 62
     3
 10
25088.319864000001
 20
19904.22563600001
 30
0.0
 11
25088.319864000001
 21
19934.229199000009
 31
0.0
  0
LINE
  5
3F6A
  8
2-0
  6
CONTINUOUS
 62
     3
 10
25104.413349999992
 20
19904.22563600001
 30
0.0
 11
25098.413429
 21
19904.22563600001
 31
0.0
  0
LINE
  5
3F6B
  8
2-0
  6
CONTINUOUS
 62
     3
 10
25098.413429
 20
19904.22563600001
 30
0.0
 11
25098.413429
 21
19934.229199000009
 31
0.0
  0
LINE
  5
3F6C
  8
2-0
  6
CONTINUOUS
 62
     3
 10
23730.5037085
 20
19922.229357000011
 30
0.0
 11
23730.5037085
 21
19929.234873000001
 31
0.0
  0
LINE
  5
3F6D
  8
2-0
  6
CONTINUOUS
 62
     3
 10
23730.5037085
 20
19929.234873000001
 30
0.0
 11
23725.503444499998
 21
19929.234873000001
 31
0.0
  0
LINE
  5
3F6E
  8
2-0
  6
CONTINUOUS
 62
     3
 10
23725.503444499998
 20
19929.234873000001
 30
0.0
 11
23725.503444499998
 21
19904.22563600001
 31
0.0
  0
LINE
  5
3F6F
  8
2-0
  6
CONTINUOUS
 62
     3
 10
23725.503444499998
 20
19904.22563600001
 30
0.0
 11
23743.509145499989
 21
19904.22563600001
 31
0.0
  0
LINE
  5
3F70
  8
2-0
  6
CONTINUOUS
 62
     3
 10
23743.509145499989
 20
19904.22563600001
 30
0.0
 11
23743.509145499989
 21
19934.229199000009
 31
0.0
  0
LINE
  5
3F71
  8
2-0
  6
CONTINUOUS
 62
     3
 10
23727.411700499979
 20
19904.22563600001
 30
0.0
 11
23733.413600499989
 21
19904.22563600001
 31
0.0
  0
LINE
  5
3F72
  8
2-0
  6
CONTINUOUS
 62
     3
 10
23733.413600499989
 20
19904.22563600001
 30
0.0
 11
23733.413600499989
 21
19934.229199000009
 31
0.0
  0
LINE
  5
3F73
  8
2-0
  6
CONTINUOUS
 62
     3
 10
23696.414419499979
 20
19934.229199000009
 30
0.0
 11
23733.413600499989
 21
19934.229199000009
 31
0.0
  0
LINE
  5
3F74
  8
2-0
  6
CONTINUOUS
 62
     3
 10
23696.414419499979
 20
19904.22563600001
 30
0.0
 11
23696.414419499979
 21
19934.229199000009
 31
0.0
  0
LINE
  5
3F75
  8
2-0
  6
CONTINUOUS
 62
     3
 10
23702.408401500001
 20
19904.22563600001
 30
0.0
 11
23696.414419499979
 21
19904.22563600001
 31
0.0
  0
LINE
  5
3F76
  8
2-0
  6
CONTINUOUS
 62
     3
 10
23686.318874500001
 20
19904.22563600001
 30
0.0
 11
23686.318874500001
 21
19934.229199000009
 31
0.0
  0
LINE
  5
3F77
  8
2-0
  6
CONTINUOUS
 62
     3
 10
23704.314677499999
 20
19904.22563600001
 30
0.0
 11
23686.318874500001
 21
19904.22563600001
 31
0.0
  0
LINE
  5
3F78
  8
2-0
  6
CONTINUOUS
 62
     3
 10
23704.314677499999
 20
19929.234873000001
 30
0.0
 11
23704.314677499999
 21
19904.22563600001
 31
0.0
  0
LINE
  5
3F79
  8
2-0
  6
CONTINUOUS
 62
     3
 10
23699.3144135
 20
19929.234873000001
 30
0.0
 11
23704.314677499999
 21
19929.234873000001
 31
0.0
  0
LINE
  5
3F7A
  8
2-0
  6
CONTINUOUS
 62
     3
 10
23699.3144135
 20
19922.229357000011
 30
0.0
 11
23699.3144135
 21
19929.234873000001
 31
0.0
  0
LINE
  5
3F7B
  8
2-0
  6
CONTINUOUS
 62
     3
 10
24400.3134245
 20
19922.229357000011
 30
0.0
 11
24400.3134245
 21
19929.234873000001
 31
0.0
  0
LINE
  5
3F7C
  8
2-0
  6
CONTINUOUS
 62
     3
 10
24400.3134245
 20
19929.234873000001
 30
0.0
 11
24405.313687499991
 21
19929.234873000001
 31
0.0
  0
LINE
  5
3F7D
  8
2-0
  6
CONTINUOUS
 62
     3
 10
24405.313687499991
 20
19929.234873000001
 30
0.0
 11
24405.313687499991
 21
19904.22563600001
 31
0.0
  0
LINE
  5
3F7E
  8
2-0
  6
CONTINUOUS
 62
     3
 10
24405.313687499991
 20
19904.22563600001
 30
0.0
 11
24387.31986449999
 21
19904.22563600001
 31
0.0
  0
LINE
  5
3F7F
  8
2-0
  6
CONTINUOUS
 62
     3
 10
24387.31986449999
 20
19904.22563600001
 30
0.0
 11
24387.31986449999
 21
19934.229199000009
 31
0.0
  0
LINE
  5
3F80
  8
2-0
  6
CONTINUOUS
 62
     3
 10
24403.41137049998
 20
19904.22563600001
 30
0.0
 11
24397.4134295
 21
19904.22563600001
 31
0.0
  0
LINE
  5
3F81
  8
2-0
  6
CONTINUOUS
 62
     3
 10
24397.4134295
 20
19904.22563600001
 30
0.0
 11
24397.4134295
 21
19934.229199000009
 31
0.0
  0
LINE
  5
3F82
  8
2-0
  6
CONTINUOUS
 62
     3
 10
24434.4145905
 20
19934.229199000009
 30
0.0
 11
24397.4134295
 21
19934.229199000009
 31
0.0
  0
LINE
  5
3F83
  8
2-0
  6
CONTINUOUS
 62
     3
 10
24434.4145905
 20
19904.22563600001
 30
0.0
 11
24434.4145905
 21
19934.229199000009
 31
0.0
  0
LINE
  5
3F84
  8
2-0
  6
CONTINUOUS
 62
     3
 10
24428.4087315
 20
19904.22563600001
 30
0.0
 11
24434.4145905
 21
19904.22563600001
 31
0.0
  0
LINE
  5
3F85
  8
2-0
  6
CONTINUOUS
 62
     3
 10
24444.5081555
 20
19904.22563600001
 30
0.0
 11
24444.5081555
 21
19934.229199000009
 31
0.0
  0
LINE
  5
3F86
  8
2-0
  6
CONTINUOUS
 62
     3
 10
24426.512352500002
 20
19904.22563600001
 30
0.0
 11
24444.5081555
 21
19904.22563600001
 31
0.0
  0
LINE
  5
3F87
  8
2-0
  6
CONTINUOUS
 62
     3
 10
24426.512352500002
 20
19929.234873000001
 30
0.0
 11
24426.512352500002
 21
19904.22563600001
 31
0.0
  0
LINE
  5
3F88
  8
2-0
  6
CONTINUOUS
 62
     3
 10
24431.502718499989
 20
19929.234873000001
 30
0.0
 11
24426.512352500002
 21
19929.234873000001
 31
0.0
  0
LINE
  5
3F89
  8
2-0
  6
CONTINUOUS
 62
     3
 10
24431.502718499989
 20
19922.229357000011
 30
0.0
 11
24431.502718499989
 21
19929.234873000001
 31
0.0
  0
LINE
  5
3F8A
  8
2-0
  6
CONTINUOUS
 62
     3
 10
23743.509145499989
 20
19934.229199000009
 30
0.0
 11
24387.31986449999
 21
19934.229199000009
 31
0.0
  0
LINE
  5
3F8B
  8
2-0
  6
CONTINUOUS
 62
     3
 10
23039.032359000001
 20
19934.229199000009
 30
0.0
 11
23686.318874500001
 21
19934.229199000009
 31
0.0
  0
LINE
  5
3F8C
  8
2-0
  6
CONTINUOUS
 62
     3
 10
25792.797640000001
 20
19934.229199000009
 30
0.0
 11
25145.512115000001
 21
19934.229199000009
 31
0.0
  0
LINE
  5
3F8D
  8
2-0
  6
CONTINUOUS
 62
     3
 10
25088.319864000001
 20
19934.229199000009
 30
0.0
 11
24444.5081555
 21
19934.229199000009
 31
0.0
  0
LINE
  5
3F8E
  8
2-0
  6
CONTINUOUS
 62
     3
 10
22875.486513000011
 20
19934.229199000009
 30
0.0
 11
22227.512115000001
 21
19934.229199000009
 31
0.0
  0
LINE
  5
3F8F
  8
2-0
  6
CONTINUOUS
 62
     3
 10
25917.412294000002
 20
15486.370351
 30
0.0
 11
25917.412294000002
 21
14842.331493000011
 31
0.0
  0
LINE
  5
3F90
  8
2-0
  6
CONTINUOUS
 62
     3
 10
25917.412294000002
 20
14785.135283
 30
0.0
 11
25917.412294000002
 21
14138.268921000001
 31
0.0
  0
CIRCLE
  5
3F91
  8
2-0
  6
CONTINUOUS
 62
     4
 10
25874.91401
 20
21334.233818000012
 30
0.0
 40
200.00001
  0
TEXT
  5
3F92
  8
2-0
  6
CONTINUOUS
 62
     7
 10
25823.282227
 20
21238.708189000012
 30
0.0
 40
160.0
  1
3
 72
     4
 11
25876.615560333332
 21
21318.708189000012
 31
0.0
  0
LINE
  5
3F9D
  8
0-1
  6
CONTINUOUS
 62
     3
 10
25924.91466899998
 20
6356.3198969999958
 30
0.0
 11
25824.915327999988
 21
6356.3198969999958
 31
0.0
  0
LINE
  5
3F9E
  8
0-1
  6
CONTINUOUS
 62
     3
 10
25824.915327999988
 20
6356.3198969999958
 30
0.0
 11
25824.915327999988
 21
6256.3200619999989
 31
0.0
  0
LINE
  5
3F9F
  8
0-1
  6
CONTINUOUS
 62
     3
 10
25924.91466899998
 20
6256.3200619999989
 30
0.0
 11
25924.91466899998
 21
6356.3198969999958
 31
0.0
  0
LINE
  5
3FA0
  8
0-1
  6
CONTINUOUS
 62
     3
 10
25897.415195999991
 20
8704.8202459999975
 30
0.0
 11
25897.415195999991
 21
6356.3198969999958
 31
0.0
  0
LINE
  5
3FA1
  8
0-1
  6
CONTINUOUS
 62
     3
 10
25917.414272999991
 20
8574.8193229999979
 30
0.0
 11
25917.414272999991
 21
6356.3198969999958
 31
0.0
  0
LINE
  5
3FA2
  8
0-1
  6
CONTINUOUS
 62
     3
 10
25787.415327999959
 20
8264.3199559999957
 30
0.0
 11
25787.415327999959
 21
6256.3200619999989
 31
0.0
  0
LINE
  5
3FA3
  8
0-1
  6
CONTINUOUS
 62
     3
 10
25832.415723999991
 20
8574.8193229999979
 30
0.0
 11
25832.415723999991
 21
6356.3198969999958
 31
0.0
  0
LINE
  5
3FAC
  8
0-1
  6
CONTINUOUS
 62
     3
 10
22999.412293000001
 20
8574.8193229999979
 30
0.0
 11
22999.412293000001
 21
6256.3200619999989
 31
0.0
  0
LINE
  5
3FAD
  8
0-1
  6
CONTINUOUS
 62
     3
 10
23044.412689000012
 20
8264.3199559999957
 30
0.0
 11
23044.412689000012
 21
6256.3200619999989
 31
0.0
  0
LINE
  5
3FB0
  8
0-1
  6
CONTINUOUS
 62
     3
 10
23044.412689000012
 20
8195.7796199999975
 30
0.0
 11
25787.415327999959
 21
8195.7796199999975
 31
0.0
  0
LINE
  5
3FB1
  8
0-1
  6
CONTINUOUS
 62
     3
 10
23044.412689000012
 20
6841.3207549999979
 30
0.0
 11
25787.415327999959
 21
6841.3207549999979
 31
0.0
  0
LINE
  5
3FB2
  8
0-1
  6
CONTINUOUS
 62
     3
 10
23044.412689000012
 20
6906.319731999999
 30
0.0
 11
25787.415327999959
 21
6906.319731999999
 31
0.0
  0
LINE
  5
3FB3
  8
0-1
  6
CONTINUOUS
 62
     3
 10
23044.412689000012
 20
6971.3201939999963
 30
0.0
 11
25787.415327999959
 21
6971.3201939999963
 31
0.0
  0
LINE
  5
3FB4
  8
0-1
  6
CONTINUOUS
 62
     3
 10
23044.412689000012
 20
7036.3201609999978
 30
0.0
 11
25787.415327999959
 21
7036.3201609999978
 31
0.0
  0
LINE
  5
3FB5
  8
0-1
  6
CONTINUOUS
 62
     3
 10
23044.412689000012
 20
7101.3201279999967
 30
0.0
 11
25787.415327999959
 21
7101.3201279999967
 31
0.0
  0
LINE
  5
3FB6
  8
0-1
  6
CONTINUOUS
 62
     3
 10
23044.412689000012
 20
7166.3200949999973
 30
0.0
 11
25787.415327999959
 21
7166.3200949999973
 31
0.0
  0
LINE
  5
3FB7
  8
0-1
  6
CONTINUOUS
 62
     3
 10
23044.412689000012
 20
7231.320557
 30
0.0
 11
25787.415327999959
 21
7231.320557
 31
0.0
  0
LINE
  5
3FB8
  8
0-1
  6
CONTINUOUS
 62
     3
 10
23044.412689000012
 20
7296.3195339999966
 30
0.0
 11
25787.415327999959
 21
7296.3195339999966
 31
0.0
  0
LINE
  5
3FB9
  8
0-1
  6
CONTINUOUS
 62
     3
 10
23044.412689000012
 20
7361.3199959999947
 30
0.0
 11
25787.415327999959
 21
7361.3199959999947
 31
0.0
  0
LINE
  5
3FBA
  8
0-1
  6
CONTINUOUS
 62
     3
 10
23044.412689000012
 20
7426.3199629999917
 30
0.0
 11
25787.415327999959
 21
7426.3199629999917
 31
0.0
  0
LINE
  5
3FBB
  8
0-1
  6
CONTINUOUS
 62
     3
 10
23044.412689000012
 20
7491.3204249999953
 30
0.0
 11
25787.415327999959
 21
7491.3204249999953
 31
0.0
  0
LINE
  5
3FBC
  8
0-1
  6
CONTINUOUS
 62
     3
 10
23044.412689000012
 20
7556.3194019999974
 30
0.0
 11
25787.415327999959
 21
7556.3194019999974
 31
0.0
  0
LINE
  5
3FBD
  8
0-1
  6
CONTINUOUS
 62
     3
 10
23044.412689000012
 20
7621.3198639999973
 30
0.0
 11
25787.415327999959
 21
7621.3198639999973
 31
0.0
  0
LINE
  5
3FBE
  8
0-1
  6
CONTINUOUS
 62
     3
 10
23044.412689000012
 20
7686.319830999998
 30
0.0
 11
25787.415327999959
 21
7686.319830999998
 31
0.0
  0
LINE
  5
3FBF
  8
0-1
  6
CONTINUOUS
 62
     3
 10
23044.412689000012
 20
7751.3197979999968
 30
0.0
 11
25787.415327999959
 21
7751.3197979999968
 31
0.0
  0
LINE
  5
3FC0
  8
0-1
  6
CONTINUOUS
 62
     3
 10
23044.412689000012
 20
7816.3202600000022
 30
0.0
 11
25787.415327999959
 21
7816.3202600000022
 31
0.0
  0
LINE
  5
3FC1
  8
0-1
  6
CONTINUOUS
 62
     3
 10
23044.412689000012
 20
7881.3202269999929
 30
0.0
 11
25787.415327999959
 21
7881.3202269999929
 31
0.0
  0
LINE
  5
3FC2
  8
0-1
  6
CONTINUOUS
 62
     3
 10
23044.412689000012
 20
7946.3206889999929
 30
0.0
 11
25787.415327999959
 21
7946.3206889999929
 31
0.0
  0
LINE
  5
3FC3
  8
0-1
  6
CONTINUOUS
 62
     3
 10
23044.412689000012
 20
8011.3196659999958
 30
0.0
 11
25787.415327999959
 21
8011.3196659999958
 31
0.0
  0
LINE
  5
3FC4
  8
0-1
  6
CONTINUOUS
 62
     3
 10
23044.412689000012
 20
8076.3201279999967
 30
0.0
 11
25787.415327999959
 21
8076.3201279999967
 31
0.0
  0
LINE
  5
3FC5
  8
0-1
  6
CONTINUOUS
 62
     3
 10
23044.412689000012
 20
8141.3200949999973
 30
0.0
 11
25787.415327999959
 21
8141.3200949999973
 31
0.0
  0
LINE
  5
3FC6
  8
0-1
  6
CONTINUOUS
 62
     3
 10
23044.412689000012
 20
6321.3195339999966
 30
0.0
 11
25787.415327999959
 21
6321.3195339999966
 31
0.0
  0
LINE
  5
3FC7
  8
0-1
  6
CONTINUOUS
 62
     3
 10
23044.412689000012
 20
6386.3204909999977
 30
0.0
 11
25787.415327999959
 21
6386.3204909999977
 31
0.0
  0
LINE
  5
3FC8
  8
0-1
  6
CONTINUOUS
 62
     3
 10
23044.412689000012
 20
6451.3194679999979
 30
0.0
 11
25787.415327999959
 21
6451.3194679999979
 31
0.0
  0
LINE
  5
3FC9
  8
0-1
  6
CONTINUOUS
 62
     3
 10
23044.412689000012
 20
6516.3204249999962
 30
0.0
 11
25787.415327999959
 21
6516.3204249999962
 31
0.0
  0
LINE
  5
3FCA
  8
0-1
  6
CONTINUOUS
 62
     3
 10
23044.412689000012
 20
6581.3198969999967
 30
0.0
 11
25787.415327999959
 21
6581.3198969999967
 31
0.0
  0
LINE
  5
3FCB
  8
0-1
  6
CONTINUOUS
 62
     3
 10
23044.412689000012
 20
6646.3198639999973
 30
0.0
 11
25787.415327999959
 21
6646.3198639999973
 31
0.0
  0
LINE
  5
3FCC
  8
0-1
  6
CONTINUOUS
 62
     3
 10
23044.412689000012
 20
6711.3198309999989
 30
0.0
 11
25787.415327999959
 21
6711.3198309999989
 31
0.0
  0
LINE
  5
3FCD
  8
0-1
  6
CONTINUOUS
 62
     3
 10
23044.412689000012
 20
6776.3193029999984
 30
0.0
 11
25787.415327999959
 21
6776.3193029999984
 31
0.0
  0
LINE
  5
3FCF
  8
0-1
  6
CONTINUOUS
 62
     3
 10
22999.412293000001
 20
8264.3199559999957
 30
0.0
 11
25832.415723999991
 21
8264.3199559999957
 31
0.0
  0
LINE
  5
3FD0
  8
0-1
  6
CONTINUOUS
 62
     3
 10
19988.913349999992
 20
6256.3200619999989
 30
0.0
 11
25924.91466899998
 21
6256.3200619999989
 31
0.0
  0
LINE
  5
3FDA
  8
0-1
  6
CONTINUOUS
 62
     3
 10
22914.413744999969
 20
8574.8193229999979
 30
0.0
 11
22914.413744999969
 21
6256.3200619999989
 31
0.0
  0
LINE
  5
3FDB
  8
0-1
  6
CONTINUOUS
 62
     3
 10
22869.41532899997
 20
8264.3199559999957
 30
0.0
 11
22869.41532899997
 21
6256.3200619999989
 31
0.0
  0
LINE
  5
3FE6
  8
0-1
  6
CONTINUOUS
 62
     3
 10
20088.914668999991
 20
6356.3198969999958
 30
0.0
 11
20088.914668999991
 21
6256.3200619999989
 31
0.0
  0
LINE
  5
3FE7
  8
0-1
  6
CONTINUOUS
 62
     3
 10
19988.913349999992
 20
6256.3200619999989
 30
0.0
 11
19988.913349999992
 21
6356.3198969999958
 31
0.0
  0
LINE
  5
3FE8
  8
0-1
  6
CONTINUOUS
 62
     3
 10
19988.913349999992
 20
6356.3198969999958
 30
0.0
 11
20088.914668999991
 21
6356.3198969999958
 31
0.0
  0
LINE
  5
3FE9
  8
0-1
  6
CONTINUOUS
 62
     3
 10
20126.414668999991
 20
8264.3199559999957
 30
0.0
 11
20126.414668999991
 21
6256.3200619999989
 31
0.0
  0
LINE
  5
3FEA
  8
0-1
  6
CONTINUOUS
 62
     3
 10
20081.412294000002
 20
8574.8193229999979
 30
0.0
 11
20081.412294000002
 21
6356.3198969999958
 31
0.0
  0
LINE
  5
3FEB
  8
0-1
  6
CONTINUOUS
 62
     3
 10
20016.414800999992
 20
8704.8202459999975
 30
0.0
 11
20016.414800999992
 21
6356.3198969999958
 31
0.0
  0
LINE
  5
3FEC
  8
0-1
  6
CONTINUOUS
 62
     3
 10
19996.41176599999
 20
8574.8193229999979
 30
0.0
 11
19996.41176599999
 21
6356.3198969999958
 31
0.0
  0
LINE
  5
3FED
  8
0-1
  6
CONTINUOUS
 62
     3
 10
20081.412294000002
 20
8264.3199559999957
 30
0.0
 11
22914.413744999969
 21
8264.3199559999957
 31
0.0
  0
LINE
  5
3FEF
  8
0-1
  6
CONTINUOUS
 62
     3
 10
20126.414668999991
 20
6776.3193029999984
 30
0.0
 11
22869.41532899997
 21
6776.3193029999984
 31
0.0
  0
LINE
  5
3FF0
  8
0-1
  6
CONTINUOUS
 62
     3
 10
20126.414668999991
 20
6711.3198309999989
 30
0.0
 11
22869.41532899997
 21
6711.3198309999989
 31
0.0
  0
LINE
  5
3FF1
  8
0-1
  6
CONTINUOUS
 62
     3
 10
20126.414668999991
 20
6646.3198639999973
 30
0.0
 11
22869.41532899997
 21
6646.3198639999973
 31
0.0
  0
LINE
  5
3FF2
  8
0-1
  6
CONTINUOUS
 62
     3
 10
20126.414668999991
 20
6581.3198969999967
 30
0.0
 11
22869.41532899997
 21
6581.3198969999967
 31
0.0
  0
LINE
  5
3FF3
  8
0-1
  6
CONTINUOUS
 62
     3
 10
20126.414668999991
 20
6516.3204249999962
 30
0.0
 11
22869.41532899997
 21
6516.3204249999962
 31
0.0
  0
LINE
  5
3FF4
  8
0-1
  6
CONTINUOUS
 62
     3
 10
20126.414668999991
 20
6451.3194679999979
 30
0.0
 11
22869.41532899997
 21
6451.3194679999979
 31
0.0
  0
LINE
  5
3FF5
  8
0-1
  6
CONTINUOUS
 62
     3
 10
20126.414668999991
 20
6386.3204909999977
 30
0.0
 11
22869.41532899997
 21
6386.3204909999977
 31
0.0
  0
LINE
  5
3FF6
  8
0-1
  6
CONTINUOUS
 62
     3
 10
20126.414668999991
 20
6321.3195339999966
 30
0.0
 11
22869.41532899997
 21
6321.3195339999966
 31
0.0
  0
LINE
  5
3FF7
  8
0-1
  6
CONTINUOUS
 62
     3
 10
20126.414668999991
 20
8141.3200949999973
 30
0.0
 11
22869.41532899997
 21
8141.3200949999973
 31
0.0
  0
LINE
  5
3FF8
  8
0-1
  6
CONTINUOUS
 62
     3
 10
20126.414668999991
 20
8076.3201279999967
 30
0.0
 11
22869.41532899997
 21
8076.3201279999967
 31
0.0
  0
LINE
  5
3FF9
  8
0-1
  6
CONTINUOUS
 62
     3
 10
20126.414668999991
 20
8011.3196659999958
 30
0.0
 11
22869.41532899997
 21
8011.3196659999958
 31
0.0
  0
LINE
  5
3FFA
  8
0-1
  6
CONTINUOUS
 62
     3
 10
20126.414668999991
 20
7946.3206889999929
 30
0.0
 11
22869.41532899997
 21
7946.3206889999929
 31
0.0
  0
LINE
  5
3FFB
  8
0-1
  6
CONTINUOUS
 62
     3
 10
20126.414668999991
 20
7881.3202269999929
 30
0.0
 11
22869.41532899997
 21
7881.3202269999929
 31
0.0
  0
LINE
  5
3FFC
  8
0-1
  6
CONTINUOUS
 62
     3
 10
20126.414668999991
 20
7816.3202600000022
 30
0.0
 11
22869.41532899997
 21
7816.3202600000022
 31
0.0
  0
LINE
  5
3FFD
  8
0-1
  6
CONTINUOUS
 62
     3
 10
20126.414668999991
 20
7751.3197979999968
 30
0.0
 11
22869.41532899997
 21
7751.3197979999968
 31
0.0
  0
LINE
  5
3FFE
  8
0-1
  6
CONTINUOUS
 62
     3
 10
20126.414668999991
 20
7686.319830999998
 30
0.0
 11
22869.41532899997
 21
7686.319830999998
 31
0.0
  0
LINE
  5
3FFF
  8
0-1
  6
CONTINUOUS
 62
     3
 10
20126.414668999991
 20
7621.3198639999973
 30
0.0
 11
22869.41532899997
 21
7621.3198639999973
 31
0.0
  0
LINE
  5
4000
  8
0-1
  6
CONTINUOUS
 62
     3
 10
20126.414668999991
 20
7556.3194019999974
 30
0.0
 11
22869.41532899997
 21
7556.3194019999974
 31
0.0
  0
LINE
  5
4001
  8
0-1
  6
CONTINUOUS
 62
     3
 10
20126.414668999991
 20
7491.3204249999953
 30
0.0
 11
22869.41532899997
 21
7491.3204249999953
 31
0.0
  0
LINE
  5
4002
  8
0-1
  6
CONTINUOUS
 62
     3
 10
20126.414668999991
 20
7426.3199629999917
 30
0.0
 11
22869.41532899997
 21
7426.3199629999917
 31
0.0
  0
LINE
  5
4003
  8
0-1
  6
CONTINUOUS
 62
     3
 10
20126.414668999991
 20
7361.3199959999947
 30
0.0
 11
22869.41532899997
 21
7361.3199959999947
 31
0.0
  0
LINE
  5
4004
  8
0-1
  6
CONTINUOUS
 62
     3
 10
20126.414668999991
 20
7296.3195339999966
 30
0.0
 11
22869.41532899997
 21
7296.3195339999966
 31
0.0
  0
LINE
  5
4005
  8
0-1
  6
CONTINUOUS
 62
     3
 10
20126.414668999991
 20
7231.320557
 30
0.0
 11
22869.41532899997
 21
7231.320557
 31
0.0
  0
LINE
  5
4006
  8
0-1
  6
CONTINUOUS
 62
     3
 10
20126.414668999991
 20
7166.3200949999973
 30
0.0
 11
22869.41532899997
 21
7166.3200949999973
 31
0.0
  0
LINE
  5
4007
  8
0-1
  6
CONTINUOUS
 62
     3
 10
20126.414668999991
 20
7101.3201279999967
 30
0.0
 11
22869.41532899997
 21
7101.3201279999967
 31
0.0
  0
LINE
  5
4008
  8
0-1
  6
CONTINUOUS
 62
     3
 10
20126.414668999991
 20
7036.3201609999978
 30
0.0
 11
22869.41532899997
 21
7036.3201609999978
 31
0.0
  0
LINE
  5
4009
  8
0-1
  6
CONTINUOUS
 62
     3
 10
20126.414668999991
 20
6971.3201939999963
 30
0.0
 11
22869.41532899997
 21
6971.3201939999963
 31
0.0
  0
LINE
  5
400A
  8
0-1
  6
CONTINUOUS
 62
     3
 10
20126.414668999991
 20
6906.319731999999
 30
0.0
 11
22869.41532899997
 21
6906.319731999999
 31
0.0
  0
LINE
  5
400B
  8
0-1
  6
CONTINUOUS
 62
     3
 10
20126.414668999991
 20
6841.3207549999979
 30
0.0
 11
22869.41532899997
 21
6841.3207549999979
 31
0.0
  0
LINE
  5
400C
  8
0-1
  6
CONTINUOUS
 62
     3
 10
20126.414668999991
 20
8195.7796199999975
 30
0.0
 11
22869.41532899997
 21
8195.7796199999975
 31
0.0
  0
LINE
  5
4012
  8
0-2
  6
CONTINUOUS
 62
     4
 10
24779.606008999988
 20
7003.5457659999956
 30
0.0
 11
24679.606668999979
 21
7003.5457659999956
 31
0.0
  0
LINE
  5
4013
  8
0-2
  6
CONTINUOUS
 62
     4
 10
24052.220028999989
 20
7003.5457659999956
 30
0.0
 11
24152.219369999992
 21
7003.5457659999956
 31
0.0
  0
LINE
  5
4014
  8
0-2
  6
CONTINUOUS
 62
     4
 10
21861.605019499992
 20
7003.5457659999956
 30
0.0
 11
21761.605679499979
 21
7003.5457659999956
 31
0.0
  0
LINE
  5
4015
  8
0-2
  6
CONTINUOUS
 62
     4
 10
21134.221018499989
 20
7003.5457659999956
 30
0.0
 11
21234.218379499998
 21
7003.5457659999956
 31
0.0
  0
LINE
  5
4016
  8
0-5
  6
CONTINUOUS
 62
     4
 10
22956.914008999989
 20
4576.3199629999954
 30
0.0
 11
22956.914008999989
 21
4416.3199299999978
 31
0.0
  0
LINE
  5
4017
  8
0-5
  6
CONTINUOUS
 62
     4
 10
20038.914008999978
 20
4576.3199629999954
 30
0.0
 11
20038.914008999978
 21
4416.3199299999978
 31
0.0
  0
LINE
  5
4018
  8
2-0
  6
CENTER2
 62
     6
 10
25874.914008999971
 20
5993.6676389999984
 30
0.0
 11
25874.914008999971
 21
7030.8096759999962
 31
0.0
  0
LINE
  5
4019
  8
2-0
  6
CENTER2
 62
     6
 10
22956.914008999989
 20
5993.6676389999984
 30
0.0
 11
22956.914008999989
 21
7030.8096759999962
 31
0.0
  0
LINE
  5
401A
  8
2-0
  6
CENTER2
 62
     6
 10
20038.914008999978
 20
5993.6676389999984
 30
0.0
 11
20038.914008999978
 21
7030.8096759999962
 31
0.0
  0
CIRCLE
  5
402B
  8
0-5
  6
CONTINUOUS
 62
     4
 10
22956.914008999989
 20
4216.3202599999968
 30
0.0
 40
199.9999949999999
  0
CIRCLE
  5
402C
  8
0-5
  6
CONTINUOUS
 62
     4
 10
20038.914008999978
 20
4216.3202599999968
 30
0.0
 40
199.9999949999999
  0
TEXT
  5
402D
  8
0-5
  6
CONTINUOUS
 62
     7
 10
19420.738069999981
 20
6985.6803087419958
 30
0.0
 40
160.0
  1
(2131.5)
 50
90.0
 72
     4
 11
19340.738069999981
 21
7439.0136420753288
 31
0.0
  0
TEXT
  5
402E
  8
0-5
  6
CONTINUOUS
 62
     7
 10
22909.985561999991
 20
4129.7903059999971
 30
0.0
 40
160.0
  1
2
 72
     4
 11
22963.318895333319
 21
4209.7903059999971
 31
0.0
  0
TEXT
  5
402F
  8
0-5
  6
CONTINUOUS
 62
     7
 10
19991.981602999989
 20
4129.7903059999971
 30
0.0
 40
160.0
  1
1
 72
     4
 11
20018.648269666661
 21
4209.7903059999971
 31
0.0
  0
CIRCLE
  5
4030
  8
0-4
  6
CONTINUOUS
 62
     4
 10
21497.914008999971
 20
6742.3760029999939
 30
0.0
 40
18.487504999999981
  0
CIRCLE
  5
4031
  8
0-4
  6
CONTINUOUS
 62
     4
 10
24415.914008999978
 20
6742.3760029999939
 30
0.0
 40
18.487504999999981
  0
LINE
  5
4032
  8
SUNPOU
  6
CONTINUOUS
 10
19756.41400899996
 20
5056.3200619999989
 30
0.0
 11
19398.45900227888
 21
5056.3200619999989
 31
0.0
  0
LINE
  5
4033
  8
SUNPOU
  6
CONTINUOUS
 10
26157.417968000002
 20
5056.3200619999989
 30
0.0
 11
26515.3729747211
 21
5056.3200619999989
 31
0.0
  0
LINE
  5
4034
  8
0-5
  6
CONTINUOUS
 62
     4
 10
25917.414008999978
 20
4576.3199629999954
 30
0.0
 11
25917.414008999978
 21
4416.3199299999978
 31
0.0
  0
CIRCLE
  5
4035
  8
0-5
  6
CONTINUOUS
 62
     4
 10
25917.414008999978
 20
4216.3202599999968
 30
0.0
 40
199.9999949999999
  0
TEXT
  5
4036
  8
0-5
  6
CONTINUOUS
 62
     7
 10
25870.485561999969
 20
4129.7903059999971
 30
0.0
 40
160.0
  1
3
 72
     4
 11
25923.818895333301
 21
4209.7903059999971
 31
0.0
  0
LINE
  5
4037
  8
0-5
  6
CONTINUOUS
 62
     4
 10
17466.54494899997
 20
6464.1655539999992
 30
0.0
 11
17586.541385999979
 21
6256.3200620000034
 31
0.0
  0
LINE
  5
4038
  8
0-5
  6
CONTINUOUS
 62
     4
 10
17586.541385999979
 20
6256.3200620000034
 30
0.0
 11
17706.541781999971
 21
6464.1655539999992
 31
0.0
  0
LINE
  5
4039
  8
0-5
  6
CONTINUOUS
 62
     4
 10
17706.541781999971
 20
6464.1655539999992
 30
0.0
 11
17466.54494899997
 21
6464.1655539999992
 31
0.0
  0
TEXT
  5
403A
  8
0-5
  6
CONTINUOUS
 62
     7
 10
17466.54494899997
 20
6544.1663119999967
 30
0.0
 40
160.0
  1
G.L
 72
     4
 11
17626.54494899997
 21
6624.1663119999967
 31
0.0
  0
LINE
  5
403B
  8
SUNPOU
  6
CONTINUOUS
 10
8175.8278279999931
 20
20114.226823000001
 30
0.0
 11
8175.8278279999931
 21
20911.19409077847
 31
0.0
  0
LINE
  5
403C
  8
SUNPOU
  6
CONTINUOUS
 10
8175.8278279999931
 20
13863.235599
 30
0.0
 11
8175.8278279999931
 21
13187.80948318962
 31
0.0
  0
LINE
  5
403D
  8
0-6
  6
CONTINUOUS
 62
     6
 10
10857.61552106636
 20
13063.23098000002
 30
0.0
 11
11657.61519106635
 21
13063.23098000002
 31
0.0
  0
TEXT
  5
403E
  8
2-0
  6
CONTINUOUS
 62
     7
 10
21637.590608999999
 20
3295.170340999995
 30
0.0
 40
160.0
  1
正 面 立 面 図
 72
     4
 11
22282.923942333331
 21
3375.1703409999941
 31
0.0
  0
TEXT
  5
403F
  8
2-0
  6
CONTINUOUS
 62
     7
 10
23634.41612747094
 20
3322.3657099999941
 30
0.0
 40
160.0
  1
1
 72
     4
 11
23661.082794137608
 21
3402.3657099999941
 31
0.0
  0
TEXT
  5
4040
  8
2-0
  6
CONTINUOUS
 62
     7
 10
23877.50484472165
 20
3242.3671779999941
 30
0.0
 40
160.0
  1
80
 72
     4
 11
23997.50484472165
 21
3322.3671779999941
 31
0.0
  0
TEXT
  5
4041
  8
2-0
  6
CONTINUOUS
 62
     7
 10
23135.418093470951
 20
3295.170340999995
 30
0.0
 40
160.0
  1
(S=  /   )
 72
     4
 11
23695.418093470951
 21
3375.1703409999941
 31
0.0
  0
LINE
  5
4042
  8
SUNPOU
  6
CONTINUOUS
 10
8812.6572919999944
 20
9504.3200880000004
 30
0.0
 11
8337.3681793597625
 21
9504.3200880000004
 31
0.0
  0
LINE
  5
4045
  8
WAKUSEN-01
 10
868.00000000000193
 20
22484.000000000011
 30
0.0
 11
32764.000000000011
 21
22484.000000000011
 31
0.0
  0
LINE
  5
4048
  8
WAKUSEN-01
 10
20560.0
 20
2484.0
 30
0.0
 11
32764.0
 21
2484.0
 31
0.0
  0
LINE
  5
4049
  8
WAKUSEN-02
 10
20560.0
 20
1655.9999999999991
 30
0.0
 11
26868.0
 21
1655.9999999999991
 31
0.0
  0
TEXT
  5
404A
  8
WAKUMOJI-01
 10
20670.260259962761
 20
2125.9030093393221
 30
0.0
 40
240.0
  1
名　称
  7
WAKUMOJI
  0
TEXT
  5
404B
  8
WAKUMOJI-01
 10
20656.505485091919
 20
1319.12897497982
 30
0.0
 40
240.0
  1
機種名
  7
WAKUMOJI
  0
LINE
  5
404E
  8
YODOROGO
 10
29977.604341291921
 20
1995.7494964292871
 30
0.0
 11
29829.604341291921
 21
1995.7494964292871
 31
0.0
1001
AUTOCAD_POSTSCRIPT_FIGURE
1002
{
1000
PSFILL
1000
Grayscale
1000
Grayscale
1070
    25
1002
}
  0
LINE
  5
404F
  8
YODOROGO
 10
29829.604341291921
 20
1947.749496429288
 30
0.0
 11
29977.604341291921
 21
1947.749496429288
 31
0.0
1001
AUTOCAD_POSTSCRIPT_FIGURE
1002
{
1000
PSFILL
1000
Grayscale
1000
Grayscale
1070
    25
1002
}
  0
LINE
  5
4050
  8
YODOROGO
 10
29977.604341291921
 20
1907.7494964292871
 30
0.0
 11
29829.604341291921
 21
1907.7494964292871
 31
0.0
1001
AUTOCAD_POSTSCRIPT_FIGURE
1002
{
1000
PSFILL
1000
Grayscale
1000
Grayscale
1070
    25
1002
}
  0
LINE
  5
4051
  8
YODOROGO
 10
29829.604341291921
 20
1859.749496429288
 30
0.0
 11
29977.604341291921
 21
1859.749496429288
 31
0.0
1001
AUTOCAD_POSTSCRIPT_FIGURE
1002
{
1000
PSFILL
1000
Grayscale
1000
Grayscale
1070
    25
1002
}
  0
LINE
  5
4052
  8
YODOROGO
 10
29977.604341291921
 20
1819.7494964292871
 30
0.0
 11
29829.604341291921
 21
1819.7494964292871
 31
0.0
1001
AUTOCAD_POSTSCRIPT_FIGURE
1002
{
1000
PSFILL
1000
Grayscale
1000
Grayscale
1070
    25
1002
}
  0
LINE
  5
4053
  8
YODOROGO
 10
29921.60434129191
 20
1707.749496429288
 30
0.0
 11
29977.604341291921
 21
1707.749496429288
 31
0.0
1001
AUTOCAD_POSTSCRIPT_FIGURE
1002
{
1000
PSFILL
1000
Grayscale
1000
Grayscale
1070
    25
1002
}
  0
LINE
  5
4054
  8
YODOROGO
 10
29737.604341291921
 20
1427.749496429288
 30
0.0
 11
29937.604341291932
 21
1481.3393349155101
 31
0.0
  0
LINE
  5
4055
  8
YODOROGO
 10
29949.60434129191
 20
1707.749496429288
 30
0.0
 11
29885.604341291921
 21
1707.749496429288
 31
0.0
  0
ARC
  5
4056
  8
YODOROGO
 10
30254.34774982791
 20
1807.864609233261
 30
0.0
 40
381.88686420564721
 50
213.96111677667841
 51
264.47872074317792
  0
ARC
  5
4057
  8
YODOROGO
 10
30254.347749827921
 20
1807.864609233302
 30
0.0
 40
381.8868642056816
 50
208.14114420486601
 51
212.9210361185994
  0
LINE
  5
4058
  8
YODOROGO
 10
29771.409872985321
 20
1556.807661346234
 30
0.0
 11
29933.78413250855
 21
1600.3157130570869
 31
0.0
  0
LINE
  5
4059
  8
YODOROGO
 10
29737.604341291921
 20
1427.749496429288
 30
0.0
 11
29937.604341291932
 21
1481.3393349155101
 31
0.0
  0
LINE
  5
405A
  8
YODOROGO
 10
29949.60434129191
 20
1707.749496429288
 30
0.0
 11
29885.604341291921
 21
1707.749496429288
 31
0.0
  0
ARC
  5
405B
  8
YODOROGO
 10
30254.34774982791
 20
1807.864609233261
 30
0.0
 40
381.88686420564721
 50
213.96111677667841
 51
264.47872074317792
  0
LINE
  5
405C
  8
YODOROGO
 10
28793.60434129191
 20
1819.7494964292871
 30
0.0
 11
28433.60434129191
 21
1819.7494964292871
 31
0.0
  0
LINE
  5
405D
  8
YODOROGO
 10
28513.60434129191
 20
1427.749496429288
 30
0.0
 11
28793.60434129191
 21
1427.749496429288
 31
0.0
  0
LINE
  5
405E
  8
YODOROGO
 10
28729.604341291921
 20
1923.7494964292871
 30
0.0
 11
28497.60434129191
 21
1923.7494964292871
 31
0.0
  0
LINE
  5
405F
  8
YODOROGO
 10
28585.604341291921
 20
2027.749496429288
 30
0.0
 11
28657.604341291921
 21
2027.749496429288
 31
0.0
  0
LINE
  5
4060
  8
YODOROGO
 10
28433.60434129191
 20
1707.749496429288
 30
0.0
 11
28433.60434129191
 21
1507.749496429288
 31
0.0
  0
LINE
  5
4061
  8
YODOROGO
 10
28497.60434129191
 20
1563.7494964292871
 30
0.0
 11
28497.60434129191
 21
1707.749496429288
 31
0.0
  0
LINE
  5
4062
  8
YODOROGO
 10
28585.604341291921
 20
1747.74949642929
 30
0.0
 11
28585.604341291921
 21
1547.749496429288
 31
0.0
  0
LINE
  5
4063
  8
YODOROGO
 10
27857.604341291921
 20
1683.749496429288
 30
0.0
 11
27777.604341291921
 21
1619.9724140445701
 31
0.0
  0
LINE
  5
4064
  8
YODOROGO
 10
27937.604341291921
 20
1619.9724140445701
 30
0.0
 11
27857.604341291921
 21
1683.749496429288
 31
0.0
  0
LINE
  5
4065
  8
YODOROGO
 10
27857.604341291921
 20
1707.749496429288
 30
0.0
 11
27937.604341291921
 21
1643.9724140445701
 31
0.0
  0
LINE
  5
4066
  8
YODOROGO
 10
27777.604341291921
 20
1643.9724140445701
 30
0.0
 11
27857.604341291921
 21
1707.749496429288
 31
0.0
  0
LINE
  5
4067
  8
YODOROGO
 10
28040.913204016892
 20
1659.749496429288
 30
0.0
 11
28040.913204016892
 21
1683.7494964292871
 31
0.0
  0
LINE
  5
4068
  8
YODOROGO
 10
27977.604341291921
 20
1683.7494964292871
 30
0.0
 11
27977.604341291921
 21
1667.749496429285
 31
0.0
  0
LINE
  5
4069
  8
YODOROGO
 10
28098.135520230931
 20
1707.749496429288
 30
0.0
 11
28098.135520230931
 21
1655.5036372746561
 31
0.0
1001
AUTOCAD_POSTSCRIPT_FIGURE
1002
{
1000
PSFILL
1000
Grayscale
1000
Grayscale
1070
   100
1002
}
  0
LINE
  5
406A
  8
YODOROGO
 10
28082.135520230921
 20
1655.5036372746561
 30
0.0
 11
28082.135520230921
 21
1707.749496429288
 31
0.0
1001
AUTOCAD_POSTSCRIPT_FIGURE
1002
{
1000
PSFILL
1000
Grayscale
1000
Grayscale
1070
   100
1002
}
  0
LINE
  5
406B
  8
YODOROGO
 10
27809.604341291921
 20
1608.771904043258
 30
0.0
 11
27809.604341291921
 21
1632.771904043258
 31
0.0
  0
LINE
  5
406C
  8
YODOROGO
 10
27905.604341291921
 20
1608.771904043258
 30
0.0
 11
27809.604341291921
 21
1608.771904043258
 31
0.0
  0
LINE
  5
406D
  8
YODOROGO
 10
27905.604341291921
 20
1632.771904043258
 30
0.0
 11
27905.604341291921
 21
1608.771904043258
 31
0.0
  0
LINE
  5
406E
  8
YODOROGO
 10
27809.604341291921
 20
1632.771904043258
 30
0.0
 11
27905.604341291921
 21
1632.771904043258
 31
0.0
  0
LINE
  5
406F
  8
YODOROGO
 10
27824.509588915738
 20
1568.5028573704751
 30
0.0
 11
27785.604341291921
 21
1475.7494964292871
 31
0.0
1001
AUTOCAD_POSTSCRIPT_FIGURE
1002
{
1000
PSFILL
1000
Grayscale
1000
Grayscale
1070
   100
1002
}
  0
LINE
  5
4070
  8
YODOROGO
 10
27777.604341291921
 20
1568.5028573704751
 30
0.0
 11
27824.509588915738
 21
1568.5028573704751
 31
0.0
1001
AUTOCAD_POSTSCRIPT_FIGURE
1002
{
1000
PSFILL
1000
Grayscale
1000
Grayscale
1070
   100
1002
}
  0
LINE
  5
4071
  8
YODOROGO
 10
27777.604341291921
 20
1588.5028573704751
 30
0.0
 11
27777.604341291921
 21
1568.5028573704751
 31
0.0
1001
AUTOCAD_POSTSCRIPT_FIGURE
1002
{
1000
PSFILL
1000
Grayscale
1000
Grayscale
1070
   100
1002
}
  0
LINE
  5
4072
  8
YODOROGO
 10
27937.604341291921
 20
1588.5028573704751
 30
0.0
 11
27777.604341291921
 21
1588.5028573704751
 31
0.0
1001
AUTOCAD_POSTSCRIPT_FIGURE
1002
{
1000
PSFILL
1000
Grayscale
1000
Grayscale
1070
   100
1002
}
  0
LINE
  5
4073
  8
YODOROGO
 10
27937.604341291921
 20
1568.5028573704751
 30
0.0
 11
27937.604341291921
 21
1588.5028573704751
 31
0.0
1001
AUTOCAD_POSTSCRIPT_FIGURE
1002
{
1000
PSFILL
1000
Grayscale
1000
Grayscale
1070
   100
1002
}
  0
LINE
  5
4074
  8
YODOROGO
 10
27844.509588915738
 20
1568.5028573704751
 30
0.0
 11
27937.604341291921
 21
1568.5028573704751
 31
0.0
1001
AUTOCAD_POSTSCRIPT_FIGURE
1002
{
1000
PSFILL
1000
Grayscale
1000
Grayscale
1070
   100
1002
}
  0
LINE
  5
4075
  8
YODOROGO
 10
27815.546718284771
 20
1495.7494964292871
 30
0.0
 11
27844.509588915738
 21
1568.5028573704751
 31
0.0
1001
AUTOCAD_POSTSCRIPT_FIGURE
1002
{
1000
PSFILL
1000
Grayscale
1000
Grayscale
1070
   100
1002
}
  0
LINE
  5
4076
  8
YODOROGO
 10
27902.054790808648
 20
1495.7494964292871
 30
0.0
 11
27815.546718284771
 21
1495.7494964292871
 31
0.0
1001
AUTOCAD_POSTSCRIPT_FIGURE
1002
{
1000
PSFILL
1000
Grayscale
1000
Grayscale
1070
   100
1002
}
  0
LINE
  5
4077
  8
YODOROGO
 10
27885.065004790951
 20
1536.2338106976929
 30
0.0
 11
27902.054790808648
 21
1495.7494964292871
 31
0.0
1001
AUTOCAD_POSTSCRIPT_FIGURE
1002
{
1000
PSFILL
1000
Grayscale
1000
Grayscale
1070
   100
1002
}
  0
LINE
  5
4078
  8
YODOROGO
 10
27901.065004790951
 20
1536.2338106976929
 30
0.0
 11
27885.065004790951
 21
1536.2338106976929
 31
0.0
1001
AUTOCAD_POSTSCRIPT_FIGURE
1002
{
1000
PSFILL
1000
Grayscale
1000
Grayscale
1070
   100
1002
}
  0
LINE
  5
4079
  8
YODOROGO
 10
27929.604341291921
 20
1475.7494964292871
 30
0.0
 11
27901.065004790951
 21
1536.2338106976929
 31
0.0
1001
AUTOCAD_POSTSCRIPT_FIGURE
1002
{
1000
PSFILL
1000
Grayscale
1000
Grayscale
1070
   100
1002
}
  0
LINE
  5
407A
  8
YODOROGO
 10
27785.604341291921
 20
1475.7494964292871
 30
0.0
 11
27929.604341291921
 21
1475.7494964292871
 31
0.0
1001
AUTOCAD_POSTSCRIPT_FIGURE
1002
{
1000
PSFILL
1000
Grayscale
1000
Grayscale
1070
   100
1002
}
  0
LINE
  5
407B
  8
YODOROGO
 10
27777.604341291921
 20
1619.9724140445701
 30
0.0
 11
27777.604341291921
 21
1643.9724140445701
 31
0.0
  0
LINE
  5
407C
  8
YODOROGO
 10
27937.604341291921
 20
1643.9724140445701
 30
0.0
 11
27937.604341291921
 21
1619.9724140445701
 31
0.0
  0
ARC
  5
407D
  8
YODOROGO
 10
28225.940442146959
 20
1600.877765325326
 30
0.0
 40
175.9999999999998
 50
280.3644312771313
 51
3.5414836592180561
  0
ARC
  5
407E
  8
YODOROGO
 10
28235.756030759301
 20
1633.5978069619041
 30
0.0
 40
111.9999999999982
 50
281.24905825041549
 51
348.75094174958321
  0
LINE
  5
407F
  8
YODOROGO
 10
28257.604341291921
 20
1523.7494964292871
 30
0.0
 11
28257.604341291921
 21
1427.749496429288
 31
0.0
  0
LINE
  5
4080
  8
YODOROGO
 10
28020.088903736909
 20
1610.650565061914
 30
0.0
 11
28040.913204016892
 21
1659.749496429288
 31
0.0
  0
LINE
  5
4081
  8
YODOROGO
 10
28041.604341291921
 20
1583.120489948401
 30
0.0
 11
28020.088903736909
 21
1610.650565061914
 31
0.0
  0
LINE
  5
4082
  8
YODOROGO
 10
28041.604341291921
 20
1563.120489948398
 30
0.0
 11
28041.604341291921
 21
1583.120489948401
 31
0.0
  0
LINE
  5
4083
  8
YODOROGO
 10
28017.604341291921
 20
1585.2370637495301
 30
0.0
 11
28041.604341291921
 21
1563.120489948398
 31
0.0
  0
LINE
  5
4084
  8
YODOROGO
 10
28017.604341291921
 20
1475.7494964292871
 30
0.0
 11
28017.604341291921
 21
1585.2370637495301
 31
0.0
  0
LINE
  5
4085
  8
YODOROGO
 10
28001.604341291921
 20
1475.7494964292871
 30
0.0
 11
28017.604341291921
 21
1475.7494964292871
 31
0.0
  0
LINE
  5
4086
  8
YODOROGO
 10
28001.604341291921
 20
1580.0053496897469
 30
0.0
 11
28001.604341291921
 21
1475.7494964292871
 31
0.0
  0
LINE
  5
4087
  8
YODOROGO
 10
27977.604341291921
 20
1532.7680790334291
 30
0.0
 11
28001.604341291921
 21
1580.0053496897469
 31
0.0
  0
LINE
  5
4088
  8
YODOROGO
 10
27977.604341291921
 20
1556.76807903343
 30
0.0
 11
27977.604341291921
 21
1532.7680790334291
 31
0.0
  0
LINE
  5
4089
  8
YODOROGO
 10
28025.828774291349
 20
1667.749496429285
 30
0.0
 11
27977.604341291921
 21
1556.76807903343
 31
0.0
  0
LINE
  5
408A
  8
YODOROGO
 10
27977.604341291921
 20
1667.749496429285
 30
0.0
 11
28025.828774291349
 21
1667.749496429285
 31
0.0
  0
LINE
  5
408B
  8
YODOROGO
 10
28050.135520230899
 20
1655.5036372746561
 30
0.0
 11
28082.135520230921
 21
1655.5036372746561
 31
0.0
1001
AUTOCAD_POSTSCRIPT_FIGURE
1002
{
1000
PSFILL
1000
Grayscale
1000
Grayscale
1070
   100
1002
}
  0
LINE
  5
408C
  8
YODOROGO
 10
28050.135520230899
 20
1631.5036372746561
 30
0.0
 11
28050.135520230899
 21
1655.5036372746561
 31
0.0
1001
AUTOCAD_POSTSCRIPT_FIGURE
1002
{
1000
PSFILL
1000
Grayscale
1000
Grayscale
1070
   100
1002
}
  0
LINE
  5
408D
  8
YODOROGO
 10
28082.135520230921
 20
1631.5036372746561
 30
0.0
 11
28050.135520230899
 21
1631.5036372746561
 31
0.0
1001
AUTOCAD_POSTSCRIPT_FIGURE
1002
{
1000
PSFILL
1000
Grayscale
1000
Grayscale
1070
   100
1002
}
  0
LINE
  5
408E
  8
YODOROGO
 10
28082.135520230921
 20
1499.749496429288
 30
0.0
 11
28082.135520230921
 21
1631.5036372746561
 31
0.0
1001
AUTOCAD_POSTSCRIPT_FIGURE
1002
{
1000
PSFILL
1000
Grayscale
1000
Grayscale
1070
   100
1002
}
  0
LINE
  5
408F
  8
YODOROGO
 10
28050.135520230921
 20
1499.749496429288
 30
0.0
 11
28082.135520230921
 21
1499.749496429288
 31
0.0
1001
AUTOCAD_POSTSCRIPT_FIGURE
1002
{
1000
PSFILL
1000
Grayscale
1000
Grayscale
1070
   100
1002
}
  0
LINE
  5
4090
  8
YODOROGO
 10
28050.135520230921
 20
1475.7494964292871
 30
0.0
 11
28050.135520230921
 21
1499.749496429288
 31
0.0
1001
AUTOCAD_POSTSCRIPT_FIGURE
1002
{
1000
PSFILL
1000
Grayscale
1000
Grayscale
1070
   100
1002
}
  0
LINE
  5
4091
  8
YODOROGO
 10
28137.604341291921
 20
1475.7494964292871
 30
0.0
 11
28050.135520230921
 21
1475.7494964292871
 31
0.0
1001
AUTOCAD_POSTSCRIPT_FIGURE
1002
{
1000
PSFILL
1000
Grayscale
1000
Grayscale
1070
   100
1002
}
  0
LINE
  5
4092
  8
YODOROGO
 10
28137.604341291921
 20
1499.749496429288
 30
0.0
 11
28137.604341291921
 21
1475.7494964292871
 31
0.0
1001
AUTOCAD_POSTSCRIPT_FIGURE
1002
{
1000
PSFILL
1000
Grayscale
1000
Grayscale
1070
   100
1002
}
  0
LINE
  5
4093
  8
YODOROGO
 10
28098.135520230931
 20
1499.749496429288
 30
0.0
 11
28137.604341291921
 21
1499.749496429288
 31
0.0
1001
AUTOCAD_POSTSCRIPT_FIGURE
1002
{
1000
PSFILL
1000
Grayscale
1000
Grayscale
1070
   100
1002
}
  0
LINE
  5
4094
  8
YODOROGO
 10
28098.135520230931
 20
1631.5036372746561
 30
0.0
 11
28098.135520230931
 21
1499.749496429288
 31
0.0
1001
AUTOCAD_POSTSCRIPT_FIGURE
1002
{
1000
PSFILL
1000
Grayscale
1000
Grayscale
1070
   100
1002
}
  0
LINE
  5
4095
  8
YODOROGO
 10
28137.604341291921
 20
1631.5036372746561
 30
0.0
 11
28098.135520230931
 21
1631.5036372746561
 31
0.0
1001
AUTOCAD_POSTSCRIPT_FIGURE
1002
{
1000
PSFILL
1000
Grayscale
1000
Grayscale
1070
   100
1002
}
  0
LINE
  5
4096
  8
YODOROGO
 10
28137.604341291921
 20
1655.5036372746561
 30
0.0
 11
28137.604341291921
 21
1631.5036372746561
 31
0.0
1001
AUTOCAD_POSTSCRIPT_FIGURE
1002
{
1000
PSFILL
1000
Grayscale
1000
Grayscale
1070
   100
1002
}
  0
LINE
  5
4097
  8
YODOROGO
 10
28098.135520230931
 20
1655.5036372746561
 30
0.0
 11
28137.604341291921
 21
1655.5036372746561
 31
0.0
1001
AUTOCAD_POSTSCRIPT_FIGURE
1002
{
1000
PSFILL
1000
Grayscale
1000
Grayscale
1070
   100
1002
}
  0
LINE
  5
4098
  8
YODOROGO
 10
28401.60434129191
 20
1667.749496429288
 30
0.0
 11
28345.604341291921
 21
1667.749496429288
 31
0.0
  0
LINE
  5
4099
  8
YODOROGO
 10
28401.60434129191
 20
1611.749496429288
 30
0.0
 11
28401.60434129191
 21
1667.749496429288
 31
0.0
  0
LINE
  5
409A
  8
YODOROGO
 10
28345.604341291921
 20
1667.749496429288
 30
0.0
 11
28345.604341291921
 21
1611.749496429288
 31
0.0
  0
ARC
  5
409B
  8
YODOROGO
 10
28513.60434129191
 20
1507.749496429288
 30
0.0
 40
80.0
 50
180.0
 51
270.0
  0
ARC
  5
409C
  8
YODOROGO
 10
28537.604341291921
 20
1563.7494964292871
 30
0.0
 40
40.0
 50
180.0
 51
270.0
  0
LINE
  5
409D
  8
YODOROGO
 10
28561.604341291932
 20
1523.7494964292871
 30
0.0
 11
28537.604341291921
 21
1523.7494964292871
 31
0.0
  0
ARC
  5
409E
  8
YODOROGO
 10
28561.604341291932
 20
1547.749496429285
 30
0.0
 40
23.999999999996358
 50
270.0
 51
0.0000000000054281
  0
LINE
  5
409F
  8
YODOROGO
 10
27801.604341291921
 20
1890.786580793706
 30
0.0
 11
27777.604341291921
 21
1843.776747951672
 31
0.0
1001
AUTOCAD_POSTSCRIPT_FIGURE
1002
{
1000
PSFILL
1000
Grayscale
1000
Grayscale
1070
   100
1002
}
  0
LINE
  5
40A0
  8
YODOROGO
 10
27801.604341291921
 20
1747.749496429286
 30
0.0
 11
27801.604341291921
 21
1890.786580793706
 31
0.0
1001
AUTOCAD_POSTSCRIPT_FIGURE
1002
{
1000
PSFILL
1000
Grayscale
1000
Grayscale
1070
   100
1002
}
  0
LINE
  5
40A1
  8
YODOROGO
 10
27817.604341291921
 20
1747.749496429286
 30
0.0
 11
27801.604341291921
 21
1747.749496429286
 31
0.0
1001
AUTOCAD_POSTSCRIPT_FIGURE
1002
{
1000
PSFILL
1000
Grayscale
1000
Grayscale
1070
   100
1002
}
  0
LINE
  5
40A2
  8
YODOROGO
 10
27817.604341291921
 20
1893.7713320852661
 30
0.0
 11
27817.604341291921
 21
1747.749496429286
 31
0.0
1001
AUTOCAD_POSTSCRIPT_FIGURE
1002
{
1000
PSFILL
1000
Grayscale
1000
Grayscale
1070
   100
1002
}
  0
LINE
  5
40A3
  8
YODOROGO
 10
27841.604341291921
 20
1867.6547582841361
 30
0.0
 11
27817.604341291921
 21
1893.7713320852661
 31
0.0
1001
AUTOCAD_POSTSCRIPT_FIGURE
1002
{
1000
PSFILL
1000
Grayscale
1000
Grayscale
1070
   100
1002
}
  0
LINE
  5
40A4
  8
YODOROGO
 10
27841.604341291921
 20
1883.6547582841361
 30
0.0
 11
27841.604341291921
 21
1867.6547582841361
 31
0.0
1001
AUTOCAD_POSTSCRIPT_FIGURE
1002
{
1000
PSFILL
1000
Grayscale
1000
Grayscale
1070
   100
1002
}
  0
LINE
  5
40A5
  8
YODOROGO
 10
27817.604341291921
 20
1917.7713320852649
 30
0.0
 11
27841.604341291921
 21
1883.6547582841361
 31
0.0
1001
AUTOCAD_POSTSCRIPT_FIGURE
1002
{
1000
PSFILL
1000
Grayscale
1000
Grayscale
1070
   100
1002
}
  0
LINE
  5
40A6
  8
YODOROGO
 10
27817.604341291921
 20
1939.749496429288
 30
0.0
 11
27817.604341291921
 21
1917.7713320852649
 31
0.0
1001
AUTOCAD_POSTSCRIPT_FIGURE
1002
{
1000
PSFILL
1000
Grayscale
1000
Grayscale
1070
   100
1002
}
  0
LINE
  5
40A7
  8
YODOROGO
 10
27889.604341291921
 20
1939.749496429288
 30
0.0
 11
27817.604341291921
 21
1939.749496429288
 31
0.0
1001
AUTOCAD_POSTSCRIPT_FIGURE
1002
{
1000
PSFILL
1000
Grayscale
1000
Grayscale
1070
   100
1002
}
  0
LINE
  5
40A8
  8
YODOROGO
 10
27889.604341291921
 20
1900.5683489363
 30
0.0
 11
27889.604341291921
 21
1939.749496429288
 31
0.0
1001
AUTOCAD_POSTSCRIPT_FIGURE
1002
{
1000
PSFILL
1000
Grayscale
1000
Grayscale
1070
   100
1002
}
  0
LINE
  5
40A9
  8
YODOROGO
 10
27857.604341291921
 20
1900.5683489363
 30
0.0
 11
27889.604341291921
 21
1900.5683489363
 31
0.0
1001
AUTOCAD_POSTSCRIPT_FIGURE
1002
{
1000
PSFILL
1000
Grayscale
1000
Grayscale
1070
   100
1002
}
  0
LINE
  5
40AA
  8
YODOROGO
 10
27857.604341291921
 20
1884.568348936298
 30
0.0
 11
27857.604341291921
 21
1900.5683489363
 31
0.0
1001
AUTOCAD_POSTSCRIPT_FIGURE
1002
{
1000
PSFILL
1000
Grayscale
1000
Grayscale
1070
   100
1002
}
  0
LINE
  5
40AB
  8
YODOROGO
 10
27889.604341291921
 20
1884.568348936298
 30
0.0
 11
27857.604341291921
 21
1884.568348936298
 31
0.0
1001
AUTOCAD_POSTSCRIPT_FIGURE
1002
{
1000
PSFILL
1000
Grayscale
1000
Grayscale
1070
   100
1002
}
  0
LINE
  5
40AC
  8
YODOROGO
 10
27889.604341291921
 20
1879.6191779644371
 30
0.0
 11
27889.604341291921
 21
1884.568348936298
 31
0.0
1001
AUTOCAD_POSTSCRIPT_FIGURE
1002
{
1000
PSFILL
1000
Grayscale
1000
Grayscale
1070
   100
1002
}
  0
LINE
  5
40AD
  8
YODOROGO
 10
27849.604341291921
 20
1812.974981161417
 30
0.0
 11
27889.604341291921
 21
1879.6191779644371
 31
0.0
1001
AUTOCAD_POSTSCRIPT_FIGURE
1002
{
1000
PSFILL
1000
Grayscale
1000
Grayscale
1070
   100
1002
}
  0
LINE
  5
40AE
  8
YODOROGO
 10
27849.604341291921
 20
1796.9749811614161
 30
0.0
 11
27849.604341291921
 21
1812.974981161417
 31
0.0
1001
AUTOCAD_POSTSCRIPT_FIGURE
1002
{
1000
PSFILL
1000
Grayscale
1000
Grayscale
1070
   100
1002
}
  0
LINE
  5
40AF
  8
YODOROGO
 10
27889.604341291921
 20
1847.6191779644359
 30
0.0
 11
27849.604341291921
 21
1796.9749811614161
 31
0.0
1001
AUTOCAD_POSTSCRIPT_FIGURE
1002
{
1000
PSFILL
1000
Grayscale
1000
Grayscale
1070
   100
1002
}
  0
LINE
  5
40B0
  8
YODOROGO
 10
27889.604341291921
 20
1747.749496429286
 30
0.0
 11
27889.604341291921
 21
1847.6191779644359
 31
0.0
1001
AUTOCAD_POSTSCRIPT_FIGURE
1002
{
1000
PSFILL
1000
Grayscale
1000
Grayscale
1070
   100
1002
}
  0
LINE
  5
40B1
  8
YODOROGO
 10
27905.604341291921
 20
1747.749496429286
 30
0.0
 11
27889.604341291921
 21
1747.749496429286
 31
0.0
1001
AUTOCAD_POSTSCRIPT_FIGURE
1002
{
1000
PSFILL
1000
Grayscale
1000
Grayscale
1070
   100
1002
}
  0
LINE
  5
40B2
  8
YODOROGO
 10
27905.604341291921
 20
1849.409012158806
 30
0.0
 11
27905.604341291921
 21
1747.749496429286
 31
0.0
1001
AUTOCAD_POSTSCRIPT_FIGURE
1002
{
1000
PSFILL
1000
Grayscale
1000
Grayscale
1070
   100
1002
}
  0
LINE
  5
40B3
  8
YODOROGO
 10
27937.604341291921
 20
1796.9749811614161
 30
0.0
 11
27905.604341291921
 21
1849.409012158806
 31
0.0
1001
AUTOCAD_POSTSCRIPT_FIGURE
1002
{
1000
PSFILL
1000
Grayscale
1000
Grayscale
1070
   100
1002
}
  0
LINE
  5
40B4
  8
YODOROGO
 10
27937.604341291921
 20
1812.974981161417
 30
0.0
 11
27937.604341291921
 21
1796.9749811614161
 31
0.0
1001
AUTOCAD_POSTSCRIPT_FIGURE
1002
{
1000
PSFILL
1000
Grayscale
1000
Grayscale
1070
   100
1002
}
  0
LINE
  5
40B5
  8
YODOROGO
 10
27905.604341291921
 20
1881.4090121588081
 30
0.0
 11
27937.604341291921
 21
1812.974981161417
 31
0.0
1001
AUTOCAD_POSTSCRIPT_FIGURE
1002
{
1000
PSFILL
1000
Grayscale
1000
Grayscale
1070
   100
1002
}
  0
LINE
  5
40B6
  8
YODOROGO
 10
27905.604341291921
 20
1884.5683489363
 30
0.0
 11
27905.604341291921
 21
1881.4090121588081
 31
0.0
1001
AUTOCAD_POSTSCRIPT_FIGURE
1002
{
1000
PSFILL
1000
Grayscale
1000
Grayscale
1070
   100
1002
}
  0
LINE
  5
40B7
  8
YODOROGO
 10
27937.604341291921
 20
1884.568348936298
 30
0.0
 11
27905.604341291921
 21
1884.5683489363
 31
0.0
1001
AUTOCAD_POSTSCRIPT_FIGURE
1002
{
1000
PSFILL
1000
Grayscale
1000
Grayscale
1070
   100
1002
}
  0
LINE
  5
40B8
  8
YODOROGO
 10
27937.604341291921
 20
1900.5683489363
 30
0.0
 11
27937.604341291921
 21
1884.568348936298
 31
0.0
1001
AUTOCAD_POSTSCRIPT_FIGURE
1002
{
1000
PSFILL
1000
Grayscale
1000
Grayscale
1070
   100
1002
}
  0
LINE
  5
40B9
  8
YODOROGO
 10
27905.604341291921
 20
1900.5683489363
 30
0.0
 11
27937.604341291921
 21
1900.5683489363
 31
0.0
1001
AUTOCAD_POSTSCRIPT_FIGURE
1002
{
1000
PSFILL
1000
Grayscale
1000
Grayscale
1070
   100
1002
}
  0
LINE
  5
40BA
  8
YODOROGO
 10
27905.604341291921
 20
1939.749496429288
 30
0.0
 11
27905.604341291921
 21
1900.5683489363
 31
0.0
1001
AUTOCAD_POSTSCRIPT_FIGURE
1002
{
1000
PSFILL
1000
Grayscale
1000
Grayscale
1070
   100
1002
}
  0
LINE
  5
40BB
  8
YODOROGO
 10
27937.604341291921
 20
1939.749496429288
 30
0.0
 11
27905.604341291921
 21
1939.749496429288
 31
0.0
1001
AUTOCAD_POSTSCRIPT_FIGURE
1002
{
1000
PSFILL
1000
Grayscale
1000
Grayscale
1070
   100
1002
}
  0
LINE
  5
40BC
  8
YODOROGO
 10
27937.604341291921
 20
1955.7494964292871
 30
0.0
 11
27937.604341291921
 21
1939.749496429288
 31
0.0
1001
AUTOCAD_POSTSCRIPT_FIGURE
1002
{
1000
PSFILL
1000
Grayscale
1000
Grayscale
1070
   100
1002
}
  0
LINE
  5
40BD
  8
YODOROGO
 10
27905.604341291921
 20
1955.7494964292871
 30
0.0
 11
27937.604341291921
 21
1955.7494964292871
 31
0.0
1001
AUTOCAD_POSTSCRIPT_FIGURE
1002
{
1000
PSFILL
1000
Grayscale
1000
Grayscale
1070
   100
1002
}
  0
LINE
  5
40BE
  8
YODOROGO
 10
27905.604341291921
 20
1979.749496429288
 30
0.0
 11
27905.604341291921
 21
1955.7494964292871
 31
0.0
1001
AUTOCAD_POSTSCRIPT_FIGURE
1002
{
1000
PSFILL
1000
Grayscale
1000
Grayscale
1070
   100
1002
}
  0
LINE
  5
40BF
  8
YODOROGO
 10
27889.604341291921
 20
1979.749496429288
 30
0.0
 11
27905.604341291921
 21
1979.749496429288
 31
0.0
1001
AUTOCAD_POSTSCRIPT_FIGURE
1002
{
1000
PSFILL
1000
Grayscale
1000
Grayscale
1070
   100
1002
}
  0
LINE
  5
40C0
  8
YODOROGO
 10
27889.604341291921
 20
1955.7494964292871
 30
0.0
 11
27889.604341291921
 21
1979.749496429288
 31
0.0
1001
AUTOCAD_POSTSCRIPT_FIGURE
1002
{
1000
PSFILL
1000
Grayscale
1000
Grayscale
1070
   100
1002
}
  0
LINE
  5
40C1
  8
YODOROGO
 10
27865.604341291921
 20
1955.7494964292871
 30
0.0
 11
27889.604341291921
 21
1955.7494964292871
 31
0.0
1001
AUTOCAD_POSTSCRIPT_FIGURE
1002
{
1000
PSFILL
1000
Grayscale
1000
Grayscale
1070
   100
1002
}
  0
LINE
  5
40C2
  8
YODOROGO
 10
27865.604341291921
 20
1979.749496429288
 30
0.0
 11
27865.604341291921
 21
1955.7494964292871
 31
0.0
1001
AUTOCAD_POSTSCRIPT_FIGURE
1002
{
1000
PSFILL
1000
Grayscale
1000
Grayscale
1070
   100
1002
}
  0
LINE
  5
40C3
  8
YODOROGO
 10
27849.604341291921
 20
1979.749496429288
 30
0.0
 11
27865.604341291921
 21
1979.749496429288
 31
0.0
1001
AUTOCAD_POSTSCRIPT_FIGURE
1002
{
1000
PSFILL
1000
Grayscale
1000
Grayscale
1070
   100
1002
}
  0
LINE
  5
40C4
  8
YODOROGO
 10
27849.604341291921
 20
1955.7494964292871
 30
0.0
 11
27849.604341291921
 21
1979.749496429288
 31
0.0
1001
AUTOCAD_POSTSCRIPT_FIGURE
1002
{
1000
PSFILL
1000
Grayscale
1000
Grayscale
1070
   100
1002
}
  0
LINE
  5
40C5
  8
YODOROGO
 10
27817.604341291921
 20
1955.7494964292871
 30
0.0
 11
27849.604341291921
 21
1955.7494964292871
 31
0.0
1001
AUTOCAD_POSTSCRIPT_FIGURE
1002
{
1000
PSFILL
1000
Grayscale
1000
Grayscale
1070
   100
1002
}
  0
LINE
  5
40C6
  8
YODOROGO
 10
27817.604341291921
 20
1979.749496429288
 30
0.0
 11
27817.604341291921
 21
1955.7494964292871
 31
0.0
1001
AUTOCAD_POSTSCRIPT_FIGURE
1002
{
1000
PSFILL
1000
Grayscale
1000
Grayscale
1070
   100
1002
}
  0
LINE
  5
40C7
  8
YODOROGO
 10
27801.604341291921
 20
1979.749496429288
 30
0.0
 11
27817.604341291921
 21
1979.749496429288
 31
0.0
1001
AUTOCAD_POSTSCRIPT_FIGURE
1002
{
1000
PSFILL
1000
Grayscale
1000
Grayscale
1070
   100
1002
}
  0
LINE
  5
40C8
  8
YODOROGO
 10
27801.604341291921
 20
1955.7494964292871
 30
0.0
 11
27801.604341291921
 21
1979.749496429288
 31
0.0
1001
AUTOCAD_POSTSCRIPT_FIGURE
1002
{
1000
PSFILL
1000
Grayscale
1000
Grayscale
1070
   100
1002
}
  0
LINE
  5
40C9
  8
YODOROGO
 10
27777.604341291921
 20
1955.7494964292871
 30
0.0
 11
27801.604341291921
 21
1955.7494964292871
 31
0.0
1001
AUTOCAD_POSTSCRIPT_FIGURE
1002
{
1000
PSFILL
1000
Grayscale
1000
Grayscale
1070
   100
1002
}
  0
LINE
  5
40CA
  8
YODOROGO
 10
27777.604341291921
 20
1939.749496429288
 30
0.0
 11
27777.604341291921
 21
1955.7494964292871
 31
0.0
1001
AUTOCAD_POSTSCRIPT_FIGURE
1002
{
1000
PSFILL
1000
Grayscale
1000
Grayscale
1070
   100
1002
}
  0
LINE
  5
40CB
  8
YODOROGO
 10
27801.604341291921
 20
1939.749496429288
 30
0.0
 11
27777.604341291921
 21
1939.749496429288
 31
0.0
1001
AUTOCAD_POSTSCRIPT_FIGURE
1002
{
1000
PSFILL
1000
Grayscale
1000
Grayscale
1070
   100
1002
}
  0
LINE
  5
40CC
  8
YODOROGO
 10
27801.604341291921
 20
1914.7865807937051
 30
0.0
 11
27801.604341291921
 21
1939.749496429288
 31
0.0
1001
AUTOCAD_POSTSCRIPT_FIGURE
1002
{
1000
PSFILL
1000
Grayscale
1000
Grayscale
1070
   100
1002
}
  0
LINE
  5
40CD
  8
YODOROGO
 10
27777.604341291921
 20
1859.776747951671
 30
0.0
 11
27801.604341291921
 21
1914.7865807937051
 31
0.0
1001
AUTOCAD_POSTSCRIPT_FIGURE
1002
{
1000
PSFILL
1000
Grayscale
1000
Grayscale
1070
   100
1002
}
  0
LINE
  5
40CE
  8
YODOROGO
 10
27777.604341291921
 20
1843.776747951672
 30
0.0
 11
27777.604341291921
 21
1859.776747951671
 31
0.0
1001
AUTOCAD_POSTSCRIPT_FIGURE
1002
{
1000
PSFILL
1000
Grayscale
1000
Grayscale
1070
   100
1002
}
  0
LINE
  5
40CF
  8
YODOROGO
 10
28257.604341291921
 20
1867.7494964292871
 30
0.0
 11
28401.60434129191
 21
1824.877625640306
 31
0.0
1001
AUTOCAD_POSTSCRIPT_FIGURE
1002
{
1000
PSFILL
1000
Grayscale
1000
Grayscale
1070
   100
1002
}
  0
LINE
  5
40D0
  8
YODOROGO
 10
28401.60434129191
 20
1752.877625640306
 30
0.0
 11
28257.604341291921
 21
1795.7494964292871
 31
0.0
1001
AUTOCAD_POSTSCRIPT_FIGURE
1002
{
1000
PSFILL
1000
Grayscale
1000
Grayscale
1070
   100
1002
}
  0
LINE
  5
40D1
  8
YODOROGO
 10
28401.60434129191
 20
1984.877625640306
 30
0.0
 11
28257.604341291921
 21
2027.749496429288
 31
0.0
1001
AUTOCAD_POSTSCRIPT_FIGURE
1002
{
1000
PSFILL
1000
Grayscale
1000
Grayscale
1070
   100
1002
}
  0
LINE
  5
40D2
  8
YODOROGO
 10
28257.604341291921
 20
1959.749496429288
 30
0.0
 11
28401.60434129191
 21
1916.8776256403071
 31
0.0
1001
AUTOCAD_POSTSCRIPT_FIGURE
1002
{
1000
PSFILL
1000
Grayscale
1000
Grayscale
1070
   100
1002
}
  0
LINE
  5
40D3
  8
YODOROGO
 10
28257.604341291921
 20
1795.7494964292871
 30
0.0
 11
28257.604341291921
 21
1867.7494964292871
 31
0.0
1001
AUTOCAD_POSTSCRIPT_FIGURE
1002
{
1000
PSFILL
1000
Grayscale
1000
Grayscale
1070
   100
1002
}
  0
LINE
  5
40D4
  8
YODOROGO
 10
28257.604341291921
 20
2027.749496429288
 30
0.0
 11
28257.604341291921
 21
1959.749496429288
 31
0.0
1001
AUTOCAD_POSTSCRIPT_FIGURE
1002
{
1000
PSFILL
1000
Grayscale
1000
Grayscale
1070
   100
1002
}
  0
LINE
  5
40D5
  8
YODOROGO
 10
28080.236320206739
 20
1939.749496429288
 30
0.0
 11
28129.60434129191
 21
1747.749496429286
 31
0.0
1001
AUTOCAD_POSTSCRIPT_FIGURE
1002
{
1000
PSFILL
1000
Grayscale
1000
Grayscale
1070
   100
1002
}
  0
LINE
  5
40D6
  8
YODOROGO
 10
27977.604341291921
 20
1939.749496429288
 30
0.0
 11
28080.236320206739
 21
1939.749496429288
 31
0.0
1001
AUTOCAD_POSTSCRIPT_FIGURE
1002
{
1000
PSFILL
1000
Grayscale
1000
Grayscale
1070
   100
1002
}
  0
LINE
  5
40D7
  8
YODOROGO
 10
27977.604341291921
 20
1955.7494964292871
 30
0.0
 11
27977.604341291921
 21
1939.749496429288
 31
0.0
1001
AUTOCAD_POSTSCRIPT_FIGURE
1002
{
1000
PSFILL
1000
Grayscale
1000
Grayscale
1070
   100
1002
}
  0
LINE
  5
40D8
  8
YODOROGO
 10
28076.60687851991
 20
1955.7494964292871
 30
0.0
 11
27977.604341291921
 21
1955.7494964292871
 31
0.0
1001
AUTOCAD_POSTSCRIPT_FIGURE
1002
{
1000
PSFILL
1000
Grayscale
1000
Grayscale
1070
   100
1002
}
  0
LINE
  5
40D9
  8
YODOROGO
 10
28071.162715989711
 20
1979.749496429288
 30
0.0
 11
28076.60687851991
 21
1955.7494964292871
 31
0.0
1001
AUTOCAD_POSTSCRIPT_FIGURE
1002
{
1000
PSFILL
1000
Grayscale
1000
Grayscale
1070
   100
1002
}
  0
LINE
  5
40DA
  8
YODOROGO
 10
28091.162715989711
 20
1979.749496429288
 30
0.0
 11
28071.162715989711
 21
1979.749496429288
 31
0.0
1001
AUTOCAD_POSTSCRIPT_FIGURE
1002
{
1000
PSFILL
1000
Grayscale
1000
Grayscale
1070
   100
1002
}
  0
LINE
  5
40DB
  8
YODOROGO
 10
28095.806878519939
 20
1955.7494964292871
 30
0.0
 11
28091.162715989711
 21
1979.749496429288
 31
0.0
1001
AUTOCAD_POSTSCRIPT_FIGURE
1002
{
1000
PSFILL
1000
Grayscale
1000
Grayscale
1070
   100
1002
}
  0
LINE
  5
40DC
  8
YODOROGO
 10
28121.604341291921
 20
1955.7494964292871
 30
0.0
 11
28095.806878519939
 21
1955.7494964292871
 31
0.0
1001
AUTOCAD_POSTSCRIPT_FIGURE
1002
{
1000
PSFILL
1000
Grayscale
1000
Grayscale
1070
   100
1002
}
  0
LINE
  5
40DD
  8
YODOROGO
 10
28121.604341291921
 20
1979.749496429288
 30
0.0
 11
28121.604341291921
 21
1955.7494964292871
 31
0.0
1001
AUTOCAD_POSTSCRIPT_FIGURE
1002
{
1000
PSFILL
1000
Grayscale
1000
Grayscale
1070
   100
1002
}
  0
LINE
  5
40DE
  8
YODOROGO
 10
28137.604341291921
 20
1979.749496429288
 30
0.0
 11
28121.604341291921
 21
1979.749496429288
 31
0.0
1001
AUTOCAD_POSTSCRIPT_FIGURE
1002
{
1000
PSFILL
1000
Grayscale
1000
Grayscale
1070
   100
1002
}
  0
LINE
  5
40DF
  8
YODOROGO
 10
28137.604341291921
 20
1955.7494964292871
 30
0.0
 11
28137.604341291921
 21
1979.749496429288
 31
0.0
1001
AUTOCAD_POSTSCRIPT_FIGURE
1002
{
1000
PSFILL
1000
Grayscale
1000
Grayscale
1070
   100
1002
}
  0
LINE
  5
40E0
  8
YODOROGO
 10
28137.604341291921
 20
1939.749496429288
 30
0.0
 11
28137.604341291921
 21
1955.7494964292871
 31
0.0
1001
AUTOCAD_POSTSCRIPT_FIGURE
1002
{
1000
PSFILL
1000
Grayscale
1000
Grayscale
1070
   100
1002
}
  0
LINE
  5
40E1
  8
YODOROGO
 10
28098.902986873411
 20
1939.749496429288
 30
0.0
 11
28137.604341291921
 21
1939.749496429288
 31
0.0
1001
AUTOCAD_POSTSCRIPT_FIGURE
1002
{
1000
PSFILL
1000
Grayscale
1000
Grayscale
1070
   100
1002
}
  0
LINE
  5
40E2
  8
YODOROGO
 10
28137.604341291921
 20
1747.749496429286
 30
0.0
 11
28098.902986873411
 21
1939.749496429288
 31
0.0
1001
AUTOCAD_POSTSCRIPT_FIGURE
1002
{
1000
PSFILL
1000
Grayscale
1000
Grayscale
1070
   100
1002
}
  0
LINE
  5
40E3
  8
YODOROGO
 10
28129.60434129191
 20
1747.749496429286
 30
0.0
 11
28137.604341291921
 21
1747.749496429286
 31
0.0
1001
AUTOCAD_POSTSCRIPT_FIGURE
1002
{
1000
PSFILL
1000
Grayscale
1000
Grayscale
1070
   100
1002
}
  0
LINE
  5
40E4
  8
YODOROGO
 10
28078.06921993379
 20
1775.7407762987939
 30
0.0
 11
27977.604341291921
 21
1747.749496429286
 31
0.0
  0
LINE
  5
40E5
  8
YODOROGO
 10
28078.06921993379
 20
1798.6689795290731
 30
0.0
 11
28078.06921993379
 21
1775.7407762987939
 31
0.0
  0
LINE
  5
40E6
  8
YODOROGO
 10
28033.83678061287
 20
1786.816933133767
 30
0.0
 11
28078.06921993379
 21
1798.6689795290731
 31
0.0
  0
LINE
  5
40E7
  8
YODOROGO
 10
28033.83678061287
 20
1872.5683489362989
 30
0.0
 11
28033.83678061287
 21
1786.816933133767
 31
0.0
  0
LINE
  5
40E8
  8
YODOROGO
 10
28078.06921993379
 20
1872.5683489362989
 30
0.0
 11
28033.83678061287
 21
1872.5683489362989
 31
0.0
  0
LINE
  5
40E9
  8
YODOROGO
 10
28078.06921993379
 20
1892.568348936298
 30
0.0
 11
28078.06921993379
 21
1872.5683489362989
 31
0.0
  0
LINE
  5
40EA
  8
YODOROGO
 10
27977.604341291921
 20
1892.568348936298
 30
0.0
 11
28078.06921993379
 21
1892.568348936298
 31
0.0
  0
LINE
  5
40EB
  8
YODOROGO
 10
27977.604341291921
 20
1872.5683489362989
 30
0.0
 11
27977.604341291921
 21
1892.568348936298
 31
0.0
  0
LINE
  5
40EC
  8
YODOROGO
 10
28021.836780612852
 20
1872.5683489362989
 30
0.0
 11
27977.604341291921
 21
1872.5683489362989
 31
0.0
  0
LINE
  5
40ED
  8
YODOROGO
 10
28021.836780612852
 20
1784.673339594317
 30
0.0
 11
28021.836780612852
 21
1872.5683489362989
 31
0.0
  0
LINE
  5
40EE
  8
YODOROGO
 10
27977.604341291921
 20
1771.749496429286
 30
0.0
 11
28021.836780612852
 21
1784.673339594317
 31
0.0
  0
LINE
  5
40EF
  8
YODOROGO
 10
27977.604341291921
 20
1747.749496429286
 30
0.0
 11
27977.604341291921
 21
1771.749496429286
 31
0.0
  0
LINE
  5
40F0
  8
YODOROGO
 10
28001.604341291921
 20
1707.749496429288
 30
0.0
 11
28001.604341291921
 21
1683.7494964292871
 31
0.0
  0
LINE
  5
40F1
  8
YODOROGO
 10
28017.604341291921
 20
1707.749496429288
 30
0.0
 11
28001.604341291921
 21
1707.749496429288
 31
0.0
  0
LINE
  5
40F2
  8
YODOROGO
 10
28017.604341291921
 20
1683.7494964292871
 30
0.0
 11
28017.604341291921
 21
1707.749496429288
 31
0.0
  0
LINE
  5
40F3
  8
YODOROGO
 10
28040.913204016892
 20
1683.7494964292871
 30
0.0
 11
28017.604341291921
 21
1683.7494964292871
 31
0.0
  0
LINE
  5
40F4
  8
YODOROGO
 10
28001.604341291921
 20
1683.7494964292871
 30
0.0
 11
27977.604341291921
 21
1683.7494964292871
 31
0.0
  0
LINE
  5
40F5
  8
YODOROGO
 10
28082.135520230921
 20
1707.749496429288
 30
0.0
 11
28098.135520230931
 21
1707.749496429288
 31
0.0
1001
AUTOCAD_POSTSCRIPT_FIGURE
1002
{
1000
PSFILL
1000
Grayscale
1000
Grayscale
1070
   100
1002
}
  0
LINE
  5
40F6
  8
YODOROGO
 10
28401.60434129191
 20
1824.877625640306
 30
0.0
 11
28401.60434129191
 21
1752.877625640306
 31
0.0
1001
AUTOCAD_POSTSCRIPT_FIGURE
1002
{
1000
PSFILL
1000
Grayscale
1000
Grayscale
1070
   100
1002
}
  0
LINE
  5
40F7
  8
YODOROGO
 10
28401.60434129191
 20
1916.8776256403071
 30
0.0
 11
28401.60434129191
 21
1984.877625640306
 31
0.0
1001
AUTOCAD_POSTSCRIPT_FIGURE
1002
{
1000
PSFILL
1000
Grayscale
1000
Grayscale
1070
   100
1002
}
  0
LINE
  5
40F8
  8
YODOROGO
 10
28433.60434129191
 20
1819.7494964292871
 30
0.0
 11
28433.60434129191
 21
1747.74949642929
 31
0.0
  0
LINE
  5
40F9
  8
YODOROGO
 10
28497.60434129191
 20
1707.749496429288
 30
0.0
 11
28433.60434129191
 21
1707.749496429288
 31
0.0
  0
LINE
  5
40FA
  8
YODOROGO
 10
28433.60434129191
 20
1747.74949642929
 30
0.0
 11
28585.604341291921
 21
1747.74949642929
 31
0.0
  0
LINE
  5
40FB
  8
YODOROGO
 10
28497.60434129191
 20
1867.7494964292871
 30
0.0
 11
28433.60434129191
 21
1867.7494964292871
 31
0.0
  0
LINE
  5
40FC
  8
YODOROGO
 10
28497.60434129191
 20
1923.7494964292871
 30
0.0
 11
28497.60434129191
 21
1867.7494964292871
 31
0.0
  0
LINE
  5
40FD
  8
YODOROGO
 10
28585.604341291921
 20
1987.7494964292871
 30
0.0
 11
28585.604341291921
 21
2027.749496429288
 31
0.0
  0
LINE
  5
40FE
  8
YODOROGO
 10
28433.60434129191
 20
1987.7494964292871
 30
0.0
 11
28585.604341291921
 21
1987.7494964292871
 31
0.0
  0
LINE
  5
40FF
  8
YODOROGO
 10
28433.60434129191
 20
1867.7494964292871
 30
0.0
 11
28433.60434129191
 21
1987.7494964292871
 31
0.0
  0
LINE
  5
4100
  8
YODOROGO
 10
29001.60434129191
 20
2027.749496429288
 30
0.0
 11
29001.60434129191
 21
1619.749496429288
 31
0.0
  0
LINE
  5
4101
  8
YODOROGO
 10
29073.604341291921
 20
1579.749496429288
 30
0.0
 11
29073.604341291921
 21
2027.749496429288
 31
0.0
  0
LINE
  5
4102
  8
YODOROGO
 10
29261.604341291921
 20
1491.749496429286
 30
0.0
 11
29261.604341291921
 21
2007.749496429288
 31
0.0
  0
LINE
  5
4103
  8
YODOROGO
 10
29197.604341291921
 20
2007.749496429288
 30
0.0
 11
29197.604341291921
 21
1491.749496429286
 31
0.0
  0
LINE
  5
4104
  8
YODOROGO
 10
29385.604341291921
 20
2027.749496429288
 30
0.0
 11
29385.604341291921
 21
1427.749496429288
 31
0.0
  0
LINE
  5
4105
  8
YODOROGO
 10
29457.604341291921
 20
1427.749496429288
 30
0.0
 11
29457.604341291921
 21
2027.749496429288
 31
0.0
  0
LINE
  5
4106
  8
YODOROGO
 10
28657.604341291921
 20
1667.749496429288
 30
0.0
 11
28657.604341291921
 21
1747.74949642929
 31
0.0
  0
LINE
  5
4107
  8
YODOROGO
 10
29885.604341291921
 20
1707.749496429288
 30
0.0
 11
29885.604341291921
 21
1667.749496429288
 31
0.0
  0
LINE
  5
4108
  8
YODOROGO
 10
29885.604341291921
 20
1707.749496429288
 30
0.0
 11
29885.604341291921
 21
1667.749496429288
 31
0.0
  0
ARC
  5
4109
  8
YODOROGO
 10
28906.911576186842
 20
1618.217864442272
 30
0.0
 40
94.705151178741644
 50
274.05244162907098
 51
0.9266642149310712
  0
ARC
  5
410A
  8
YODOROGO
 10
28909.186170719819
 20
1592.61072861044
 30
0.0
 40
164.92042356085511
 50
271.5351210653775
 51
355.52727750585052
  0
LINE
  5
410B
  8
YODOROGO
 10
28913.604341291921
 20
1523.7494964292871
 30
0.0
 11
28913.604341291921
 21
1427.749496429288
 31
0.0
  0
LINE
  5
410C
  8
YODOROGO
 10
28793.60434129191
 20
1667.749496429288
 30
0.0
 11
28657.604341291921
 21
1667.749496429288
 31
0.0
  0
LINE
  5
410D
  8
YODOROGO
 10
28793.60434129191
 20
1603.7494964292871
 30
0.0
 11
28793.60434129191
 21
1667.749496429288
 31
0.0
  0
LINE
  5
410E
  8
YODOROGO
 10
28657.604341291921
 20
1603.7494964292871
 30
0.0
 11
28793.60434129191
 21
1603.7494964292871
 31
0.0
  0
LINE
  5
410F
  8
YODOROGO
 10
28657.604341291921
 20
1523.7494964292871
 30
0.0
 11
28657.604341291921
 21
1603.7494964292871
 31
0.0
  0
LINE
  5
4110
  8
YODOROGO
 10
28793.60434129191
 20
1523.7494964292871
 30
0.0
 11
28657.604341291921
 21
1523.7494964292871
 31
0.0
  0
LINE
  5
4111
  8
YODOROGO
 10
28793.60434129191
 20
1427.749496429288
 30
0.0
 11
28793.60434129191
 21
1523.7494964292871
 31
0.0
  0
LINE
  5
4112
  8
YODOROGO
 10
29197.604341291921
 20
1491.749496429286
 30
0.0
 11
29261.604341291921
 21
1491.749496429286
 31
0.0
  0
LINE
  5
4113
  8
YODOROGO
 10
29385.604341291921
 20
1427.749496429288
 30
0.0
 11
29457.604341291921
 21
1427.749496429288
 31
0.0
  0
LINE
  5
4114
  8
YODOROGO
 10
29737.604341291921
 20
1528.4414521705639
 30
0.0
 11
29737.604341291921
 21
1427.749496429288
 31
0.0
  0
LINE
  5
4115
  8
YODOROGO
 10
29617.604341291921
 20
1427.749496429288
 30
0.0
 11
29737.604341291921
 21
1528.4414521705639
 31
0.0
  0
LINE
  5
4116
  8
YODOROGO
 10
29617.604341291921
 20
1547.749496429288
 30
0.0
 11
29617.604341291921
 21
1427.749496429288
 31
0.0
  0
LINE
  5
4117
  8
YODOROGO
 10
29712.94462869945
 20
1627.749496429288
 30
0.0
 11
29617.604341291921
 21
1547.749496429288
 31
0.0
  0
LINE
  5
4118
  8
YODOROGO
 10
29617.604341291921
 20
1627.749496429288
 30
0.0
 11
29712.94462869945
 21
1627.749496429288
 31
0.0
  0
LINE
  5
4119
  8
YODOROGO
 10
29617.604341291921
 20
1667.749496429288
 30
0.0
 11
29617.604341291921
 21
1627.749496429288
 31
0.0
  0
LINE
  5
411A
  8
YODOROGO
 10
29885.604341291921
 20
1667.749496429288
 30
0.0
 11
29617.604341291921
 21
1667.749496429288
 31
0.0
  0
LINE
  5
411B
  8
YODOROGO
 10
29917.604341291921
 20
1627.749496429288
 30
0.0
 11
29777.604341291921
 21
1627.749496429288
 31
0.0
  0
LINE
  5
411C
  8
YODOROGO
 10
29777.604341291921
 20
1562.0054374176559
 30
0.0
 11
29771.409872985321
 21
1556.807661346234
 31
0.0
  0
LINE
  5
411D
  8
YODOROGO
 10
29777.604341291921
 20
1627.749496429288
 30
0.0
 11
29777.604341291921
 21
1562.0054374176559
 31
0.0
  0
LINE
  5
411E
  8
YODOROGO
 10
29737.604341291921
 20
1528.4414521705639
 30
0.0
 11
29737.604341291921
 21
1427.749496429288
 31
0.0
  0
LINE
  5
411F
  8
YODOROGO
 10
29617.604341291921
 20
1427.749496429288
 30
0.0
 11
29737.604341291921
 21
1528.4414521705639
 31
0.0
  0
LINE
  5
4120
  8
YODOROGO
 10
29617.604341291921
 20
1547.749496429288
 30
0.0
 11
29617.604341291921
 21
1427.749496429288
 31
0.0
  0
LINE
  5
4121
  8
YODOROGO
 10
29712.94462869945
 20
1627.749496429288
 30
0.0
 11
29617.604341291921
 21
1547.749496429288
 31
0.0
  0
LINE
  5
4122
  8
YODOROGO
 10
29617.604341291921
 20
1627.749496429288
 30
0.0
 11
29712.94462869945
 21
1627.749496429288
 31
0.0
  0
LINE
  5
4123
  8
YODOROGO
 10
29617.604341291921
 20
1667.749496429288
 30
0.0
 11
29617.604341291921
 21
1627.749496429288
 31
0.0
  0
LINE
  5
4124
  8
YODOROGO
 10
29885.604341291921
 20
1667.749496429288
 30
0.0
 11
29617.604341291921
 21
1667.749496429288
 31
0.0
  0
LINE
  5
4125
  8
YODOROGO
 10
28793.60434129191
 20
1747.74949642929
 30
0.0
 11
28793.60434129191
 21
1819.7494964292871
 31
0.0
  0
LINE
  5
4126
  8
YODOROGO
 10
28657.604341291921
 20
1747.74949642929
 30
0.0
 11
28793.60434129191
 21
1747.74949642929
 31
0.0
  0
LINE
  5
4127
  8
YODOROGO
 10
28729.604341291921
 20
1867.7494964292871
 30
0.0
 11
28729.604341291921
 21
1923.7494964292871
 31
0.0
  0
LINE
  5
4128
  8
YODOROGO
 10
28793.60434129191
 20
1867.7494964292871
 30
0.0
 11
28729.604341291921
 21
1867.7494964292871
 31
0.0
  0
LINE
  5
4129
  8
YODOROGO
 10
28793.60434129191
 20
1947.749496429288
 30
0.0
 11
28793.60434129191
 21
1867.7494964292871
 31
0.0
  0
ARC
  5
412A
  8
YODOROGO
 10
28753.60434129191
 20
1947.749496429288
 30
0.0
 40
40.0
 50
0.0
 51
90.0
  0
LINE
  5
412B
  8
YODOROGO
 10
28657.604341291921
 20
1987.7494964292871
 30
0.0
 11
28753.60434129191
 21
1987.7494964292871
 31
0.0
  0
LINE
  5
412C
  8
YODOROGO
 10
28657.604341291921
 20
2027.749496429288
 30
0.0
 11
28657.604341291921
 21
1987.7494964292871
 31
0.0
  0
LINE
  5
412D
  8
YODOROGO
 10
29073.604341291921
 20
2027.749496429288
 30
0.0
 11
29001.60434129191
 21
2027.749496429288
 31
0.0
  0
LINE
  5
412E
  8
YODOROGO
 10
29261.604341291921
 20
2007.749496429288
 30
0.0
 11
29197.604341291921
 21
2007.749496429288
 31
0.0
  0
LINE
  5
412F
  8
YODOROGO
 10
29457.604341291921
 20
2027.749496429288
 30
0.0
 11
29385.604341291921
 21
2027.749496429288
 31
0.0
  0
LINE
  5
4130
  8
YODOROGO
 10
29673.604341291921
 20
1707.749496429288
 30
0.0
 11
29673.604341291921
 21
1771.7494964292871
 31
0.0
1001
AUTOCAD_POSTSCRIPT_FIGURE
1002
{
1000
PSFILL
1000
Grayscale
1000
Grayscale
1070
    25
1002
}
  0
LINE
  5
4131
  8
YODOROGO
 10
29617.604341291921
 20
1707.749496429288
 30
0.0
 11
29673.604341291921
 21
1707.749496429288
 31
0.0
1001
AUTOCAD_POSTSCRIPT_FIGURE
1002
{
1000
PSFILL
1000
Grayscale
1000
Grayscale
1070
    25
1002
}
  0
LINE
  5
4132
  8
YODOROGO
 10
29617.604341291921
 20
1819.7494964292871
 30
0.0
 11
29617.604341291921
 21
1707.749496429288
 31
0.0
1001
AUTOCAD_POSTSCRIPT_FIGURE
1002
{
1000
PSFILL
1000
Grayscale
1000
Grayscale
1070
    25
1002
}
  0
LINE
  5
4133
  8
YODOROGO
 10
29765.604341291921
 20
1819.7494964292871
 30
0.0
 11
29617.604341291921
 21
1819.7494964292871
 31
0.0
1001
AUTOCAD_POSTSCRIPT_FIGURE
1002
{
1000
PSFILL
1000
Grayscale
1000
Grayscale
1070
    25
1002
}
  0
LINE
  5
4134
  8
YODOROGO
 10
29765.604341291921
 20
1859.749496429288
 30
0.0
 11
29765.604341291921
 21
1819.7494964292871
 31
0.0
1001
AUTOCAD_POSTSCRIPT_FIGURE
1002
{
1000
PSFILL
1000
Grayscale
1000
Grayscale
1070
    25
1002
}
  0
LINE
  5
4135
  8
YODOROGO
 10
29617.604341291921
 20
1859.749496429288
 30
0.0
 11
29765.604341291921
 21
1859.749496429288
 31
0.0
1001
AUTOCAD_POSTSCRIPT_FIGURE
1002
{
1000
PSFILL
1000
Grayscale
1000
Grayscale
1070
    25
1002
}
  0
LINE
  5
4136
  8
YODOROGO
 10
29617.604341291921
 20
1907.7494964292871
 30
0.0
 11
29617.604341291921
 21
1859.749496429288
 31
0.0
1001
AUTOCAD_POSTSCRIPT_FIGURE
1002
{
1000
PSFILL
1000
Grayscale
1000
Grayscale
1070
    25
1002
}
  0
LINE
  5
4137
  8
YODOROGO
 10
29765.604341291921
 20
1907.7494964292871
 30
0.0
 11
29617.604341291921
 21
1907.7494964292871
 31
0.0
1001
AUTOCAD_POSTSCRIPT_FIGURE
1002
{
1000
PSFILL
1000
Grayscale
1000
Grayscale
1070
    25
1002
}
  0
LINE
  5
4138
  8
YODOROGO
 10
29765.604341291921
 20
1947.749496429288
 30
0.0
 11
29765.604341291921
 21
1907.7494964292871
 31
0.0
1001
AUTOCAD_POSTSCRIPT_FIGURE
1002
{
1000
PSFILL
1000
Grayscale
1000
Grayscale
1070
    25
1002
}
  0
LINE
  5
4139
  8
YODOROGO
 10
29617.604341291921
 20
1947.749496429288
 30
0.0
 11
29765.604341291921
 21
1947.749496429288
 31
0.0
1001
AUTOCAD_POSTSCRIPT_FIGURE
1002
{
1000
PSFILL
1000
Grayscale
1000
Grayscale
1070
    25
1002
}
  0
LINE
  5
413A
  8
YODOROGO
 10
29617.604341291921
 20
2027.749496429288
 30
0.0
 11
29617.604341291921
 21
1947.749496429288
 31
0.0
1001
AUTOCAD_POSTSCRIPT_FIGURE
1002
{
1000
PSFILL
1000
Grayscale
1000
Grayscale
1070
    25
1002
}
  0
LINE
  5
413B
  8
YODOROGO
 10
29665.604341291921
 20
2027.749496429288
 30
0.0
 11
29617.604341291921
 21
2027.749496429288
 31
0.0
1001
AUTOCAD_POSTSCRIPT_FIGURE
1002
{
1000
PSFILL
1000
Grayscale
1000
Grayscale
1070
    25
1002
}
  0
LINE
  5
413C
  8
YODOROGO
 10
29665.604341291921
 20
1995.7494964292871
 30
0.0
 11
29665.604341291921
 21
2027.749496429288
 31
0.0
1001
AUTOCAD_POSTSCRIPT_FIGURE
1002
{
1000
PSFILL
1000
Grayscale
1000
Grayscale
1070
    25
1002
}
  0
LINE
  5
413D
  8
YODOROGO
 10
29765.604341291921
 20
1995.7494964292871
 30
0.0
 11
29665.604341291921
 21
1995.7494964292871
 31
0.0
1001
AUTOCAD_POSTSCRIPT_FIGURE
1002
{
1000
PSFILL
1000
Grayscale
1000
Grayscale
1070
    25
1002
}
  0
LINE
  5
413E
  8
YODOROGO
 10
29765.604341291921
 20
2027.749496429288
 30
0.0
 11
29765.604341291921
 21
1995.7494964292871
 31
0.0
1001
AUTOCAD_POSTSCRIPT_FIGURE
1002
{
1000
PSFILL
1000
Grayscale
1000
Grayscale
1070
    25
1002
}
  0
LINE
  5
413F
  8
YODOROGO
 10
29829.604341291921
 20
2027.749496429288
 30
0.0
 11
29765.604341291921
 21
2027.749496429288
 31
0.0
1001
AUTOCAD_POSTSCRIPT_FIGURE
1002
{
1000
PSFILL
1000
Grayscale
1000
Grayscale
1070
    25
1002
}
  0
LINE
  5
4140
  8
YODOROGO
 10
29829.604341291921
 20
1995.7494964292871
 30
0.0
 11
29829.604341291921
 21
2027.749496429288
 31
0.0
1001
AUTOCAD_POSTSCRIPT_FIGURE
1002
{
1000
PSFILL
1000
Grayscale
1000
Grayscale
1070
    25
1002
}
  0
LINE
  5
4141
  8
YODOROGO
 10
29829.604341291921
 20
1907.7494964292871
 30
0.0
 11
29829.604341291921
 21
1947.749496429288
 31
0.0
1001
AUTOCAD_POSTSCRIPT_FIGURE
1002
{
1000
PSFILL
1000
Grayscale
1000
Grayscale
1070
    25
1002
}
  0
LINE
  5
4142
  8
YODOROGO
 10
29829.604341291921
 20
1819.7494964292871
 30
0.0
 11
29829.604341291921
 21
1859.749496429288
 31
0.0
1001
AUTOCAD_POSTSCRIPT_FIGURE
1002
{
1000
PSFILL
1000
Grayscale
1000
Grayscale
1070
    25
1002
}
  0
LINE
  5
4143
  8
YODOROGO
 10
29921.60434129191
 20
1771.7494964292871
 30
0.0
 11
29921.60434129191
 21
1707.749496429288
 31
0.0
1001
AUTOCAD_POSTSCRIPT_FIGURE
1002
{
1000
PSFILL
1000
Grayscale
1000
Grayscale
1070
    25
1002
}
  0
LINE
  5
4144
  8
YODOROGO
 10
29829.604341291921
 20
1771.7494964292871
 30
0.0
 11
29921.60434129191
 21
1771.7494964292871
 31
0.0
1001
AUTOCAD_POSTSCRIPT_FIGURE
1002
{
1000
PSFILL
1000
Grayscale
1000
Grayscale
1070
    25
1002
}
  0
LINE
  5
4145
  8
YODOROGO
 10
29829.604341291921
 20
1707.749496429288
 30
0.0
 11
29829.604341291921
 21
1771.7494964292871
 31
0.0
1001
AUTOCAD_POSTSCRIPT_FIGURE
1002
{
1000
PSFILL
1000
Grayscale
1000
Grayscale
1070
    25
1002
}
  0
LINE
  5
4146
  8
YODOROGO
 10
29765.604341291921
 20
1707.749496429288
 30
0.0
 11
29829.604341291921
 21
1707.749496429288
 31
0.0
1001
AUTOCAD_POSTSCRIPT_FIGURE
1002
{
1000
PSFILL
1000
Grayscale
1000
Grayscale
1070
    25
1002
}
  0
LINE
  5
4147
  8
YODOROGO
 10
29765.604341291921
 20
1771.7494964292871
 30
0.0
 11
29765.604341291921
 21
1707.749496429288
 31
0.0
1001
AUTOCAD_POSTSCRIPT_FIGURE
1002
{
1000
PSFILL
1000
Grayscale
1000
Grayscale
1070
    25
1002
}
  0
LINE
  5
4148
  8
YODOROGO
 10
29673.604341291921
 20
1771.7494964292871
 30
0.0
 11
29765.604341291921
 21
1771.7494964292871
 31
0.0
1001
AUTOCAD_POSTSCRIPT_FIGURE
1002
{
1000
PSFILL
1000
Grayscale
1000
Grayscale
1070
    25
1002
}
  0
ARC
  5
4149
  8
YODOROGO
 10
31059.517893357912
 20
1602.6807375155761
 30
0.0
 40
178.22128111072141
 50
281.02627495425338
 51
357.77113575573799
  0
LINE
  5
414A
  8
YODOROGO
 10
31413.604341291921
 20
1907.7494964292871
 30
0.0
 11
31165.604341291921
 21
1907.7494964292871
 31
0.0
  0
LINE
  5
414B
  8
YODOROGO
 10
31413.604341291921
 20
2027.749496429288
 30
0.0
 11
31165.604341291921
 21
2027.749496429288
 31
0.0
  0
LINE
  5
414C
  8
YODOROGO
 10
31165.604341291921
 20
1963.749496429286
 30
0.0
 11
31413.604341291921
 21
1963.749496429286
 31
0.0
  0
LINE
  5
414D
  8
YODOROGO
 10
30791.604341291921
 20
1563.7494964292871
 30
0.0
 11
30791.604341291921
 21
1755.7494964292871
 31
0.0
  0
LINE
  5
414E
  8
YODOROGO
 10
30763.604341291921
 20
1691.749496429288
 30
0.0
 11
30763.604341291921
 21
1563.7494964292871
 31
0.0
  0
LINE
  5
414F
  8
YODOROGO
 10
30723.604341291921
 20
1491.749496429288
 30
0.0
 11
30723.604341291921
 21
1691.749496429288
 31
0.0
  0
LINE
  5
4150
  8
YODOROGO
 10
30899.604341291932
 20
1691.749496429288
 30
0.0
 11
30899.604341291932
 21
1491.749496429288
 31
0.0
  0
LINE
  5
4151
  8
YODOROGO
 10
30859.604341291932
 20
1563.7494964292871
 30
0.0
 11
30859.604341291932
 21
1691.749496429288
 31
0.0
  0
LINE
  5
4152
  8
YODOROGO
 10
30831.604341291921
 20
1755.7494964292871
 30
0.0
 11
30831.604341291921
 21
1563.7494964292871
 31
0.0
  0
LINE
  5
4153
  8
YODOROGO
 10
30973.604341291921
 20
2027.749496429288
 30
0.0
 11
30973.604341291921
 21
1467.749496429288
 31
0.0
  0
LINE
  5
4154
  8
YODOROGO
 10
30645.604341291921
 20
1427.749496429288
 30
0.0
 11
30645.604341291921
 21
2027.749496429288
 31
0.0
  0
LINE
  5
4155
  8
YODOROGO
 10
30697.604341291932
 20
1963.749496429286
 30
0.0
 11
30697.604341291932
 21
1427.749496429288
 31
0.0
  0
LINE
  5
4156
  8
YODOROGO
 10
30925.604341291921
 20
1547.749496429288
 30
0.0
 11
30925.604341291921
 21
1963.749496429286
 31
0.0
  0
LINE
  5
4157
  8
YODOROGO
 10
30381.604341291932
 20
1627.749496429288
 30
0.0
 11
30381.604341291932
 21
1679.749496429288
 31
0.0
  0
LINE
  5
4158
  8
YODOROGO
 10
30617.604341291921
 20
1679.749496429288
 30
0.0
 11
30617.604341291921
 21
1627.749496429288
 31
0.0
  0
LINE
  5
4159
  8
YODOROGO
 10
31165.604341291921
 20
1907.7494964292871
 30
0.0
 11
31165.604341291921
 21
1635.7494964292871
 31
0.0
  0
LINE
  5
415A
  8
YODOROGO
 10
29949.60434129191
 20
1667.749496429288
 30
0.0
 11
29949.60434129191
 21
1707.749496429288
 31
0.0
  0
LINE
  5
415B
  8
YODOROGO
 10
29949.60434129191
 20
1667.749496429288
 30
0.0
 11
29949.60434129191
 21
1707.749496429288
 31
0.0
  0
ARC
  5
415C
  8
YODOROGO
 10
30537.604341291921
 20
1507.749496429288
 30
0.0
 40
80.0
 50
270.0
 51
0.0
  0
LINE
  5
415D
  8
YODOROGO
 10
30569.604341291921
 20
1599.7494964292871
 30
0.0
 11
30617.604341291921
 21
1599.7494964292871
 31
0.0
  0
LINE
  5
415E
  8
YODOROGO
 10
30617.604341291921
 20
1627.749496429288
 30
0.0
 11
30529.604341291939
 21
1627.749496429288
 31
0.0
  0
LINE
  5
415F
  8
YODOROGO
 10
30217.604341291921
 20
1667.749496429288
 30
0.0
 11
29949.60434129191
 21
1667.749496429288
 31
0.0
  0
LINE
  5
4160
  8
YODOROGO
 10
30217.604341291921
 20
1627.749496429288
 30
0.0
 11
30217.604341291921
 21
1667.749496429288
 31
0.0
  0
LINE
  5
4161
  8
YODOROGO
 10
30017.604341291921
 20
1627.749496429288
 30
0.0
 11
30217.604341291921
 21
1627.749496429288
 31
0.0
  0
ARC
  5
4162
  8
YODOROGO
 10
30230.05882870136
 20
1868.885714952901
 30
0.0
 40
321.37763628522822
 50
228.6181454618993
 51
245.660289248906
  0
LINE
  5
4163
  8
YODOROGO
 10
30105.604341291921
 20
1603.7494964292871
 30
0.0
 11
30097.60434129195
 21
1576.0728158699001
 31
0.0
  0
LINE
  5
4164
  8
YODOROGO
 10
30189.604341291921
 20
1603.7494964292871
 30
0.0
 11
30105.604341291921
 21
1603.7494964292871
 31
0.0
  0
LINE
  5
4165
  8
YODOROGO
 10
30177.604341291921
 20
1551.817722473427
 30
0.0
 11
30189.604341291921
 21
1603.7494964292871
 31
0.0
  0
ARC
  5
4166
  8
YODOROGO
 10
30230.05882870045
 20
1868.885714953002
 30
0.0
 40
321.37763628529081
 50
260.60629297969911
 51
267.77903556555862
  0
LINE
  5
4167
  8
YODOROGO
 10
30217.604341291921
 20
1427.749496429285
 30
0.0
 11
30217.604341291921
 21
1547.749496429288
 31
0.0
  0
LINE
  5
4168
  8
YODOROGO
 10
29937.604341291932
 20
1481.3393349155101
 30
0.0
 11
29937.604341291921
 21
1594.531090531141
 31
0.0
  0
LINE
  5
4169
  8
YODOROGO
 10
30217.604341291921
 20
1667.749496429288
 30
0.0
 11
29949.60434129191
 21
1667.749496429288
 31
0.0
  0
LINE
  5
416A
  8
YODOROGO
 10
30217.604341291921
 20
1627.749496429288
 30
0.0
 11
30217.604341291921
 21
1667.749496429288
 31
0.0
  0
LINE
  5
416B
  8
YODOROGO
 10
30017.604341291921
 20
1627.749496429288
 30
0.0
 11
30217.604341291921
 21
1627.749496429288
 31
0.0
  0
ARC
  5
416C
  8
YODOROGO
 10
30230.05882870136
 20
1868.885714952901
 30
0.0
 40
321.37763628522822
 50
228.6181454618993
 51
245.660289248906
  0
LINE
  5
416D
  8
YODOROGO
 10
30105.604341291921
 20
1603.7494964292871
 30
0.0
 11
30097.60434129195
 21
1576.0728158699001
 31
0.0
  0
LINE
  5
416E
  8
YODOROGO
 10
30189.604341291921
 20
1603.7494964292871
 30
0.0
 11
30105.604341291921
 21
1603.7494964292871
 31
0.0
  0
LINE
  5
416F
  8
YODOROGO
 10
30177.604341291921
 20
1551.817722473427
 30
0.0
 11
30189.604341291921
 21
1603.7494964292871
 31
0.0
  0
ARC
  5
4170
  8
YODOROGO
 10
30230.05882870045
 20
1868.885714953002
 30
0.0
 40
321.37763628529081
 50
260.60629297969911
 51
267.77903556555862
  0
LINE
  5
4171
  8
YODOROGO
 10
30217.604341291921
 20
1427.749496429285
 30
0.0
 11
30217.604341291921
 21
1547.749496429288
 31
0.0
  0
LINE
  5
4172
  8
YODOROGO
 10
29937.604341291932
 20
1481.3393349155101
 30
0.0
 11
29937.604341291921
 21
1594.531090531141
 31
0.0
  0
LINE
  5
4173
  8
YODOROGO
 10
30433.604341291921
 20
1573.749496429288
 30
0.0
 11
30381.604341291932
 21
1573.749496429288
 31
0.0
  0
LINE
  5
4174
  8
YODOROGO
 10
30433.604341291921
 20
1601.749496429285
 30
0.0
 11
30433.604341291921
 21
1573.749496429288
 31
0.0
  0
LINE
  5
4175
  8
YODOROGO
 10
30381.604341291932
 20
1601.749496429285
 30
0.0
 11
30433.604341291921
 21
1601.749496429285
 31
0.0
  0
LINE
  5
4176
  8
YODOROGO
 10
30381.604341291932
 20
1573.749496429288
 30
0.0
 11
30381.604341291932
 21
1601.749496429285
 31
0.0
  0
LINE
  5
4177
  8
YODOROGO
 10
30429.604341291921
 20
1577.7494964292871
 30
0.0
 11
30385.604341291921
 21
1577.7494964292871
 31
0.0
  0
LINE
  5
4178
  8
YODOROGO
 10
30429.604341291921
 20
1597.749496429288
 30
0.0
 11
30429.604341291921
 21
1577.7494964292871
 31
0.0
  0
LINE
  5
4179
  8
YODOROGO
 10
30385.604341291921
 20
1597.749496429288
 30
0.0
 11
30429.604341291921
 21
1597.749496429288
 31
0.0
  0
LINE
  5
417A
  8
YODOROGO
 10
30385.604341291921
 20
1577.7494964292871
 30
0.0
 11
30385.604341291921
 21
1597.749496429288
 31
0.0
  0
LINE
  5
417B
  8
YODOROGO
 10
30425.604341291921
 20
1581.749496429286
 30
0.0
 11
30389.604341291921
 21
1581.749496429286
 31
0.0
  0
LINE
  5
417C
  8
YODOROGO
 10
30425.604341291921
 20
1593.749496429288
 30
0.0
 11
30425.604341291921
 21
1581.749496429286
 31
0.0
  0
LINE
  5
417D
  8
YODOROGO
 10
30389.604341291921
 20
1593.749496429288
 30
0.0
 11
30425.604341291921
 21
1593.749496429288
 31
0.0
  0
LINE
  5
417E
  8
YODOROGO
 10
30389.604341291921
 20
1581.749496429286
 30
0.0
 11
30389.604341291921
 21
1593.749496429288
 31
0.0
  0
LINE
  5
417F
  8
YODOROGO
 10
30421.604341291932
 20
1585.7494964292871
 30
0.0
 11
30393.604341291921
 21
1585.7494964292871
 31
0.0
  0
LINE
  5
4180
  8
YODOROGO
 10
30421.604341291932
 20
1589.749496429288
 30
0.0
 11
30421.604341291932
 21
1585.7494964292871
 31
0.0
  0
LINE
  5
4181
  8
YODOROGO
 10
30393.604341291921
 20
1589.749496429288
 30
0.0
 11
30421.604341291932
 21
1589.749496429288
 31
0.0
  0
LINE
  5
4182
  8
YODOROGO
 10
30393.604341291921
 20
1585.7494964292871
 30
0.0
 11
30393.604341291921
 21
1589.749496429288
 31
0.0
  0
LINE
  5
4183
  8
YODOROGO
 10
30465.604341291921
 20
1627.749496429288
 30
0.0
 11
30381.604341291932
 21
1627.749496429288
 31
0.0
  0
LINE
  5
4184
  8
YODOROGO
 10
30465.604341291921
 20
1547.749496429288
 30
0.0
 11
30465.604341291921
 21
1627.749496429288
 31
0.0
  0
LINE
  5
4185
  8
YODOROGO
 10
30381.604341291932
 20
1547.749496429288
 30
0.0
 11
30465.604341291921
 21
1547.749496429288
 31
0.0
  0
LINE
  5
4186
  8
YODOROGO
 10
30381.604341291932
 20
1427.749496429288
 30
0.0
 11
30381.604341291932
 21
1547.749496429288
 31
0.0
  0
LINE
  5
4187
  8
YODOROGO
 10
30537.604341291921
 20
1427.749496429288
 30
0.0
 11
30381.604341291932
 21
1427.749496429288
 31
0.0
  0
LINE
  5
4188
  8
YODOROGO
 10
30569.604341291921
 20
1571.749496429285
 30
0.0
 11
30569.604341291921
 21
1599.7494964292871
 31
0.0
  0
ARC
  5
4189
  8
YODOROGO
 10
30545.604341291921
 20
1571.749496429291
 30
0.0
 40
24.000000000003752
 50
270.0
 51
359.99999999998772
  0
LINE
  5
418A
  8
YODOROGO
 10
30529.604341291939
 20
1547.749496429288
 30
0.0
 11
30545.604341291921
 21
1547.749496429288
 31
0.0
  0
LINE
  5
418B
  8
YODOROGO
 10
30529.604341291939
 20
1627.749496429288
 30
0.0
 11
30529.604341291939
 21
1547.749496429288
 31
0.0
  0
LINE
  5
418C
  8
YODOROGO
 10
30899.604341291932
 20
1547.749496429288
 30
0.0
 11
30925.604341291921
 21
1547.749496429288
 31
0.0
  0
LINE
  5
418D
  8
YODOROGO
 10
30933.604341291921
 20
1427.749496429288
 30
0.0
 11
30899.604341291932
 21
1427.749496429288
 31
0.0
  0
LINE
  5
418E
  8
YODOROGO
 10
30763.604341291921
 20
1563.7494964292871
 30
0.0
 11
30791.604341291921
 21
1563.7494964292871
 31
0.0
  0
LINE
  5
418F
  8
YODOROGO
 10
30899.604341291932
 20
1491.749496429288
 30
0.0
 11
30723.604341291921
 21
1491.749496429288
 31
0.0
  0
LINE
  5
4190
  8
YODOROGO
 10
30831.604341291921
 20
1563.7494964292871
 30
0.0
 11
30859.604341291932
 21
1563.7494964292871
 31
0.0
  0
LINE
  5
4191
  8
YODOROGO
 10
30899.604341291932
 20
1427.749496429288
 30
0.0
 11
30899.604341291932
 21
1547.749496429288
 31
0.0
  0
LINE
  5
4192
  8
YODOROGO
 10
30697.604341291932
 20
1427.749496429288
 30
0.0
 11
30645.604341291921
 21
1427.749496429288
 31
0.0
  0
LINE
  5
4193
  8
YODOROGO
 10
30617.604341291921
 20
1599.7494964292871
 30
0.0
 11
30617.604341291921
 21
1507.749496429288
 31
0.0
  0
ARC
  5
4194
  8
YODOROGO
 10
30933.604341291921
 20
1467.749496429288
 30
0.0
 40
40.0
 50
270.0
 51
0.0
  0
LINE
  5
4195
  8
YODOROGO
 10
31093.604341291921
 20
1523.7494964292871
 30
0.0
 11
31093.604341291921
 21
1427.749496429288
 31
0.0
  0
ARC
  5
4196
  8
YODOROGO
 10
31039.721395566768
 20
1637.5313901097329
 30
0.0
 40
125.8955565916754
 50
295.34052442160112
 51
359.18902303418679
  0
LINE
  5
4197
  8
YODOROGO
 10
30617.604341291921
 20
1859.749496429288
 30
0.0
 11
30497.604341291921
 21
1939.749496429288
 31
0.0
  0
LINE
  5
4198
  8
YODOROGO
 10
30497.604341291921
 20
2027.749496429288
 30
0.0
 11
30617.604341291921
 21
1947.749496429288
 31
0.0
  0
LINE
  5
4199
  8
YODOROGO
 10
30529.604341291939
 20
1679.749496429288
 30
0.0
 11
30617.604341291921
 21
1679.749496429288
 31
0.0
  0
LINE
  5
419A
  8
YODOROGO
 10
30617.604341291921
 20
1735.7494964292871
 30
0.0
 11
30529.604341291939
 21
1735.7494964292871
 31
0.0
  0
LINE
  5
419B
  8
YODOROGO
 10
30381.604341291932
 20
1795.7494964292871
 30
0.0
 11
30617.604341291921
 21
1795.7494964292871
 31
0.0
  0
LINE
  5
419C
  8
YODOROGO
 10
30081.604341291921
 20
2027.749496429288
 30
0.0
 11
30021.604341291921
 21
2027.749496429288
 31
0.0
  0
LINE
  5
419D
  8
YODOROGO
 10
30081.604341291921
 20
1827.7494964292871
 30
0.0
 11
30081.604341291921
 21
2027.749496429288
 31
0.0
  0
LINE
  5
419E
  8
YODOROGO
 10
30021.604341291921
 20
1827.7494964292871
 30
0.0
 11
30081.604341291921
 21
1827.7494964292871
 31
0.0
  0
LINE
  5
419F
  8
YODOROGO
 10
30021.604341291921
 20
2027.749496429288
 30
0.0
 11
30021.604341291921
 21
1827.7494964292871
 31
0.0
  0
LINE
  5
41A0
  8
YODOROGO
 10
30161.604341291921
 20
2027.749496429288
 30
0.0
 11
30217.604341291921
 21
2027.749496429288
 31
0.0
  0
LINE
  5
41A1
  8
YODOROGO
 10
30161.604341291921
 20
1811.749496429288
 30
0.0
 11
30161.604341291921
 21
2027.749496429288
 31
0.0
  0
ARC
  5
41A2
  8
YODOROGO
 10
30121.604341291921
 20
1811.749496429288
 30
0.0
 40
40.0
 50
270.0
 51
0.0
  0
LINE
  5
41A3
  8
YODOROGO
 10
30021.604341291921
 20
1771.7494964292871
 30
0.0
 11
30121.604341291921
 21
1771.7494964292871
 31
0.0
  0
LINE
  5
41A4
  8
YODOROGO
 10
30021.604341291921
 20
1707.749496429288
 30
0.0
 11
30021.604341291921
 21
1771.7494964292871
 31
0.0
  0
LINE
  5
41A5
  8
YODOROGO
 10
30137.604341291921
 20
1707.749496429288
 30
0.0
 11
30021.604341291921
 21
1707.749496429288
 31
0.0
  0
ARC
  5
41A6
  8
YODOROGO
 10
30137.604341291921
 20
1787.7494964292871
 30
0.0
 40
80.0
 50
270.0
 51
0.0
  0
LINE
  5
41A7
  8
YODOROGO
 10
30217.604341291921
 20
2027.749496429288
 30
0.0
 11
30217.604341291921
 21
1787.7494964292871
 31
0.0
  0
LINE
  5
41A8
  8
YODOROGO
 10
29977.604341291921
 20
1947.749496429288
 30
0.0
 11
29977.604341291921
 21
1995.7494964292871
 31
0.0
1001
AUTOCAD_POSTSCRIPT_FIGURE
1002
{
1000
PSFILL
1000
Grayscale
1000
Grayscale
1070
    25
1002
}
  0
LINE
  5
41A9
  8
YODOROGO
 10
29977.604341291921
 20
1859.749496429288
 30
0.0
 11
29977.604341291921
 21
1907.7494964292871
 31
0.0
1001
AUTOCAD_POSTSCRIPT_FIGURE
1002
{
1000
PSFILL
1000
Grayscale
1000
Grayscale
1070
    25
1002
}
  0
LINE
  5
41AA
  8
YODOROGO
 10
29977.604341291921
 20
1707.749496429288
 30
0.0
 11
29977.604341291921
 21
1819.7494964292871
 31
0.0
1001
AUTOCAD_POSTSCRIPT_FIGURE
1002
{
1000
PSFILL
1000
Grayscale
1000
Grayscale
1070
    25
1002
}
  0
LINE
  5
41AB
  8
YODOROGO
 10
30381.604341291932
 20
1907.7494964292871
 30
0.0
 11
30497.604341291921
 21
2027.749496429288
 31
0.0
  0
LINE
  5
41AC
  8
YODOROGO
 10
30381.604341291932
 20
1819.7494964292871
 30
0.0
 11
30381.604341291932
 21
1907.7494964292871
 31
0.0
  0
LINE
  5
41AD
  8
YODOROGO
 10
30497.604341291921
 20
1939.749496429288
 30
0.0
 11
30381.604341291932
 21
1819.7494964292871
 31
0.0
  0
LINE
  5
41AE
  8
YODOROGO
 10
30465.604341291921
 20
1679.749496429288
 30
0.0
 11
30465.604341291921
 21
1735.7494964292871
 31
0.0
  0
LINE
  5
41AF
  8
YODOROGO
 10
30381.604341291932
 20
1679.749496429288
 30
0.0
 11
30465.604341291921
 21
1679.749496429288
 31
0.0
  0
LINE
  5
41B0
  8
YODOROGO
 10
30529.604341291939
 20
1735.7494964292871
 30
0.0
 11
30529.604341291939
 21
1679.749496429288
 31
0.0
  0
LINE
  5
41B1
  8
YODOROGO
 10
30381.604341291932
 20
1735.7494964292871
 30
0.0
 11
30381.604341291932
 21
1795.7494964292871
 31
0.0
  0
LINE
  5
41B2
  8
YODOROGO
 10
30465.604341291921
 20
1735.7494964292871
 30
0.0
 11
30381.604341291932
 21
1735.7494964292871
 31
0.0
  0
LINE
  5
41B3
  8
YODOROGO
 10
30645.604341291921
 20
2027.749496429288
 30
0.0
 11
30973.604341291921
 21
2027.749496429288
 31
0.0
  0
LINE
  5
41B4
  8
YODOROGO
 10
30925.604341291921
 20
1963.749496429286
 30
0.0
 11
30697.604341291932
 21
1963.749496429286
 31
0.0
  0
LINE
  5
41B5
  8
YODOROGO
 10
30873.604341291921
 20
1819.7494964292871
 30
0.0
 11
30899.604341291932
 21
1819.7494964292871
 31
0.0
  0
LINE
  5
41B6
  8
YODOROGO
 10
30899.604341291932
 20
1939.749496429288
 30
0.0
 11
30873.604341291921
 21
1819.7494964292871
 31
0.0
  0
LINE
  5
41B7
  8
YODOROGO
 10
30851.604341291939
 20
1939.749496429288
 30
0.0
 11
30899.604341291932
 21
1939.749496429288
 31
0.0
  0
LINE
  5
41B8
  8
YODOROGO
 10
30825.604341291921
 20
1819.7494964292871
 30
0.0
 11
30851.604341291939
 21
1939.749496429288
 31
0.0
  0
LINE
  5
41B9
  8
YODOROGO
 10
30797.604341291921
 20
1819.7494964292871
 30
0.0
 11
30825.604341291921
 21
1819.7494964292871
 31
0.0
  0
LINE
  5
41BA
  8
YODOROGO
 10
30771.604341291939
 20
1939.749496429288
 30
0.0
 11
30797.604341291921
 21
1819.7494964292871
 31
0.0
  0
LINE
  5
41BB
  8
YODOROGO
 10
30723.604341291921
 20
1939.749496429288
 30
0.0
 11
30771.604341291939
 21
1939.749496429288
 31
0.0
  0
LINE
  5
41BC
  8
YODOROGO
 10
30749.604341291921
 20
1819.7494964292871
 30
0.0
 11
30723.604341291921
 21
1939.749496429288
 31
0.0
  0
LINE
  5
41BD
  8
YODOROGO
 10
30723.604341291921
 20
1819.7494964292871
 30
0.0
 11
30749.604341291921
 21
1819.7494964292871
 31
0.0
  0
LINE
  5
41BE
  8
YODOROGO
 10
30723.604341291921
 20
1755.7494964292871
 30
0.0
 11
30723.604341291921
 21
1819.7494964292871
 31
0.0
  0
LINE
  5
41BF
  8
YODOROGO
 10
30899.604341291932
 20
1755.7494964292871
 30
0.0
 11
30723.604341291921
 21
1755.7494964292871
 31
0.0
  0
LINE
  5
41C0
  8
YODOROGO
 10
30899.604341291932
 20
1819.7494964292871
 30
0.0
 11
30899.604341291932
 21
1755.7494964292871
 31
0.0
  0
LINE
  5
41C1
  8
YODOROGO
 10
30617.604341291921
 20
1947.749496429288
 30
0.0
 11
30617.604341291921
 21
1859.749496429288
 31
0.0
  0
LINE
  5
41C2
  8
YODOROGO
 10
30791.604341291921
 20
1755.7494964292871
 30
0.0
 11
30831.604341291921
 21
1755.7494964292871
 31
0.0
  0
LINE
  5
41C3
  8
YODOROGO
 10
30723.604341291921
 20
1691.749496429288
 30
0.0
 11
30763.604341291921
 21
1691.749496429288
 31
0.0
  0
LINE
  5
41C4
  8
YODOROGO
 10
30859.604341291932
 20
1691.749496429288
 30
0.0
 11
30899.604341291932
 21
1691.749496429288
 31
0.0
  0
LINE
  5
41C5
  8
YODOROGO
 10
30617.604341291921
 20
1795.7494964292871
 30
0.0
 11
30617.604341291921
 21
1735.7494964292871
 31
0.0
  0
LINE
  5
41C6
  8
YODOROGO
 10
31165.604341291921
 20
2027.749496429288
 30
0.0
 11
31165.604341291921
 21
1963.749496429286
 31
0.0
  0
LINE
  5
41C7
  8
YODOROGO
 10
31533.604341291921
 20
1595.7494964292871
 30
0.0
 11
31533.60434129191
 21
1811.749496429288
 31
0.0
  0
LINE
  5
41C8
  8
YODOROGO
 10
31461.60434129191
 20
1987.7494964292871
 30
0.0
 11
31461.60434129191
 21
1635.7494964292871
 31
0.0
  0
LINE
  5
41C9
  8
YODOROGO
 10
31653.604341291921
 20
1427.749496429288
 30
0.0
 11
31653.60434129191
 21
1811.749496429288
 31
0.0
  0
LINE
  5
41CA
  8
YODOROGO
 10
31589.604341291921
 20
1811.749496429288
 30
0.0
 11
31589.604341291921
 21
1427.749496429288
 31
0.0
  0
LINE
  5
41CB
  8
YODOROGO
 10
31237.604341291921
 20
1595.7494964292871
 30
0.0
 11
31237.604341291921
 21
1707.749496429288
 31
0.0
  0
ARC
  5
41CC
  8
YODOROGO
 10
31353.914865116069
 20
1607.790351288558
 30
0.0
 40
180.0924485759885
 50
268.62849102169793
 51
356.16638457330322
  0
LINE
  5
41CD
  8
YODOROGO
 10
31349.604341291939
 20
1527.749496429288
 30
0.0
 11
31349.604341291939
 21
1427.749496429288
 31
0.0
  0
ARC
  5
41CE
  8
YODOROGO
 10
31351.518075724562
 20
1637.838957017655
 30
0.0
 40
110.1060929836122
 50
269.00410209305932
 51
358.91264455492478
  0
LINE
  5
41CF
  8
YODOROGO
 10
31589.604341291921
 20
1427.749496429288
 30
0.0
 11
31653.604341291921
 21
1427.749496429288
 31
0.0
  0
LINE
  5
41D0
  8
YODOROGO
 10
31533.60434129191
 20
1811.749496429288
 30
0.0
 11
31589.604341291921
 21
1811.749496429288
 31
0.0
  0
LINE
  5
41D1
  8
YODOROGO
 10
31621.604341291939
 20
1987.7494964292871
 30
0.0
 11
31461.60434129191
 21
1987.7494964292871
 31
0.0
  0
LINE
  5
41D2
  8
YODOROGO
 10
31533.60434129191
 20
1915.7494964292871
 30
0.0
 11
31661.604341291939
 21
1915.7494964292871
 31
0.0
  0
LINE
  5
41D3
  8
YODOROGO
 10
31701.604341291939
 20
1875.7494964292871
 30
0.0
 11
31533.60434129191
 21
1875.7494964292871
 31
0.0
  0
LINE
  5
41D4
  8
YODOROGO
 10
31237.604341291921
 20
1779.749496429288
 30
0.0
 11
31349.604341291939
 21
1779.749496429288
 31
0.0
  0
LINE
  5
41D5
  8
YODOROGO
 10
31237.604341291921
 20
1835.7494964292871
 30
0.0
 11
31237.604341291921
 21
1779.749496429288
 31
0.0
  0
LINE
  5
41D6
  8
YODOROGO
 10
31349.604341291939
 20
1835.7494964292871
 30
0.0
 11
31237.604341291921
 21
1835.7494964292871
 31
0.0
  0
LINE
  5
41D7
  8
YODOROGO
 10
31349.604341291939
 20
1779.749496429288
 30
0.0
 11
31349.604341291939
 21
1835.7494964292871
 31
0.0
  0
LINE
  5
41D8
  8
YODOROGO
 10
31533.60434129191
 20
1875.7494964292871
 30
0.0
 11
31533.60434129191
 21
1915.7494964292871
 31
0.0
  0
LINE
  5
41D9
  8
YODOROGO
 10
31413.604341291921
 20
1707.749496429288
 30
0.0
 11
31413.604341291921
 21
1907.7494964292871
 31
0.0
  0
LINE
  5
41DA
  8
YODOROGO
 10
31237.604341291921
 20
1707.749496429288
 30
0.0
 11
31413.604341291921
 21
1707.749496429288
 31
0.0
  0
LINE
  5
41DB
  8
YODOROGO
 10
31413.604341291921
 20
1963.749496429286
 30
0.0
 11
31413.604341291921
 21
2027.749496429288
 31
0.0
  0
ARC
  5
41DC
  8
YODOROGO
 10
31621.604341291939
 20
2003.749496429285
 30
0.0
 40
15.999999999994539
 50
270.0
 51
0.0000000000081422
  0
LINE
  5
41DD
  8
YODOROGO
 10
31637.604341291921
 20
2027.749496429288
 30
0.0
 11
31637.604341291921
 21
2003.7494964292871
 31
0.0
  0
LINE
  5
41DE
  8
YODOROGO
 10
31701.604341291939
 20
2027.749496429288
 30
0.0
 11
31637.604341291921
 21
2027.749496429288
 31
0.0
  0
LINE
  5
41DF
  8
YODOROGO
 10
31701.604341291939
 20
1955.7494964292871
 30
0.0
 11
31701.604341291939
 21
2027.749496429288
 31
0.0
  0
ARC
  5
41E0
  8
YODOROGO
 10
31661.604341291939
 20
1955.7494964292871
 30
0.0
 40
40.0
 50
270.0
 51
0.0
  0
LINE
  5
41E1
  8
YODOROGO
 10
31701.604341291939
 20
1811.749496429288
 30
0.0
 11
31701.604341291939
 21
1875.7494964292871
 31
0.0
  0
LINE
  5
41E2
  8
YODOROGO
 10
31653.60434129191
 20
1811.749496429288
 30
0.0
 11
31701.604341291939
 21
1811.749496429288
 31
0.0
  0
LINE
  5
41E6
  8
SUNPOU
  6
CONTINUOUS
 62
     4
 10
8942.8232489999937
 20
13863.235599
 30
0.0
 11
8095.827827999995
 21
13863.235599
 31
0.0
  0
LINE
  5
41E7
  8
SUNPOU
  6
CONTINUOUS
 62
     4
 10
8175.8278279999931
 20
14055.730913999991
 30
0.0
 11
8175.8278279999931
 21
13863.235599
 31
0.0
  0
LINE
  5
41E8
  8
SUNPOU
  6
CONTINUOUS
 62
     4
 10
8806.5299300000006
 20
15514.971425500011
 30
0.0
 11
8095.827827999995
 21
15514.971425500011
 31
0.0
  0
LINE
  5
41E9
  8
SUNPOU
  6
CONTINUOUS
 62
     4
 10
8175.827827999995
 20
15514.971425500011
 30
0.0
 11
8175.8278279999931
 21
14055.730913999991
 31
0.0
  0
LINE
  5
41EA
  8
SUNPOU
  6
CONTINUOUS
 62
     4
 10
8806.5299300000006
 20
15514.971425500011
 30
0.0
 11
8095.827827999995
 21
15514.971425500011
 31
0.0
  0
LINE
  5
41EB
  8
SUNPOU
  6
CONTINUOUS
 62
     4
 10
8175.827827999995
 20
16973.730914
 30
0.0
 11
8175.827827999995
 21
15514.971425500011
 31
0.0
  0
LINE
  5
41EC
  8
SUNPOU
  6
CONTINUOUS
 62
     4
 10
8792.3882489999978
 20
18432.730914
 30
0.0
 11
8095.827827999995
 21
18432.730914
 31
0.0
  0
LINE
  5
41ED
  8
SUNPOU
  6
CONTINUOUS
 62
     4
 10
8175.827827999995
 20
18432.730914
 30
0.0
 11
8175.827827999995
 21
16973.730914
 31
0.0
  0
LINE
  5
41EE
  8
SUNPOU
  6
CONTINUOUS
 62
     4
 10
8942.8232489999937
 20
20094.226823000001
 30
0.0
 11
8495.827827999994
 21
20094.226823000001
 31
0.0
  0
LINE
  5
41EF
  8
SUNPOU
  6
CONTINUOUS
 62
     4
 10
8942.8276039999946
 20
20114.226823000001
 30
0.0
 11
8495.827827999994
 21
20114.226823000001
 31
0.0
  0
LINE
  5
41F1
  8
SUNPOU
  6
CONTINUOUS
 62
     4
 10
8575.827827999994
 20
20114.226823000001
 30
0.0
 11
8575.827827999994
 21
20354.226823000012
 31
0.0
  0
LINE
  5
41F2
  8
SUNPOU
  6
CONTINUOUS
 62
     4
 10
8575.827827999994
 20
20074.226823000001
 30
0.0
 11
8575.827827999994
 21
20114.226823000001
 31
0.0
  0
LINE
  5
41F3
  8
SUNPOU
  6
CONTINUOUS
 62
     4
 10
8942.8276039999946
 20
20114.226823000001
 30
0.0
 11
8095.827827999995
 21
20114.226823000001
 31
0.0
  0
LINE
  5
41F4
  8
SUNPOU
  6
CONTINUOUS
 62
     4
 10
8175.8278279999931
 20
19891.730914
 30
0.0
 11
8175.8278279999931
 21
20114.226823000001
 31
0.0
  0
LINE
  5
41F5
  8
SUNPOU
  6
CONTINUOUS
 62
     4
 10
8792.3882489999978
 20
18432.730914
 30
0.0
 11
8095.827827999995
 21
18432.730914
 31
0.0
  0
LINE
  5
41F6
  8
SUNPOU
  6
CONTINUOUS
 62
     4
 10
8175.8278279999931
 20
18432.730914
 30
0.0
 11
8175.8278279999931
 21
19891.730914
 31
0.0
  0
LINE
  5
41F7
  8
SUNPOU
  6
CONTINUOUS
 62
     4
 10
9021.276633748621
 20
20194.226823000001
 30
0.0
 11
9021.276633748621
 21
20744.232102000031
 31
0.0
  0
LINE
  5
41F8
  8
SUNPOU
  6
CONTINUOUS
 62
     4
 10
9106.776633748621
 20
20664.232102000031
 30
0.0
 11
9346.776633748621
 21
20664.232102000031
 31
0.0
  0
LINE
  5
41F9
  8
SUNPOU
  6
CONTINUOUS
 62
     4
 10
9024.276633748621
 20
20664.232102000031
 30
0.0
 11
8784.276633748621
 21
20664.232102000031
 31
0.0
  0
LINE
  5
41FA
  8
SUNPOU
  6
CONTINUOUS
 62
     4
 10
9106.776633748621
 20
20664.232102000031
 30
0.0
 11
9024.276633748621
 21
20664.232102000031
 31
0.0
  0
LINE
  5
41FB
  8
SUNPOU
  6
CONTINUOUS
 62
     4
 10
12024.776633748619
 20
20664.232102000031
 30
0.0
 11
9106.776633748621
 21
20664.232102000031
 31
0.0
  0
LINE
  5
41FC
  8
SUNPOU
  6
CONTINUOUS
 62
     4
 10
15026.826118999999
 20
20194.226823000001
 30
0.0
 11
15026.826118999999
 21
20744.232102000031
 31
0.0
  0
LINE
  5
41FD
  8
SUNPOU
  6
CONTINUOUS
 62
     4
 10
14941.326118999999
 20
20664.232102000031
 30
0.0
 11
14701.32611899999
 21
20664.232102000031
 31
0.0
  0
LINE
  5
41FE
  8
SUNPOU
  6
CONTINUOUS
 62
     4
 10
15023.826118999999
 20
20664.232102000031
 30
0.0
 11
15263.82611899999
 21
20664.232102000031
 31
0.0
  0
LINE
  5
41FF
  8
SUNPOU
  6
CONTINUOUS
 62
     4
 10
14941.326118999999
 20
20664.232102000031
 30
0.0
 11
15023.826118999999
 21
20664.232102000031
 31
0.0
  0
LINE
  5
4200
  8
SUNPOU
  6
CONTINUOUS
 62
     4
 10
12023.32611899999
 20
20664.232102000031
 30
0.0
 11
14941.326118999999
 21
20664.232102000031
 31
0.0
  0
LINE
  5
4201
  8
SUNPOU
  6
CONTINUOUS
 62
     4
 10
22956.914999500012
 20
20014.229199000009
 30
0.0
 11
22956.914999500012
 21
20744.232102000031
 31
0.0
  0
LINE
  5
4202
  8
SUNPOU
  6
CONTINUOUS
 62
     4
 10
23714.91401
 20
20014.229199000009
 30
0.0
 11
23714.91401
 21
20744.232102000031
 31
0.0
  0
LINE
  5
4203
  8
SUNPOU
  6
CONTINUOUS
 62
     4
 10
22956.914999500012
 20
20664.232102000031
 30
0.0
 11
23714.91401
 21
20664.232102000031
 31
0.0
  0
LINE
  5
4204
  8
SUNPOU
  6
CONTINUOUS
 62
     4
 10
20038.91401
 20
20014.229199000009
 30
0.0
 11
20038.91401
 21
20744.232102000031
 31
0.0
  0
LINE
  5
4205
  8
SUNPOU
  6
CONTINUOUS
 62
     4
 10
20796.91401
 20
20014.229199000009
 30
0.0
 11
20796.91401
 21
20744.232102000031
 31
0.0
  0
LINE
  5
4206
  8
SUNPOU
  6
CONTINUOUS
 62
     4
 10
20038.91401
 20
20664.232102000031
 30
0.0
 11
20796.91401
 21
20664.232102000031
 31
0.0
  0
LINE
  5
4207
  8
SUNPOU
  6
CONTINUOUS
 62
     4
 10
19908.913349999992
 20
6356.3198969999958
 30
0.0
 11
19108.91466899998
 21
6356.3198969999958
 31
0.0
  0
LINE
  5
4208
  8
SUNPOU
  6
CONTINUOUS
 62
     4
 10
19908.913349999992
 20
8247.8198969999976
 30
0.0
 11
19108.91466899998
 21
8247.8198969999976
 31
0.0
  0
LINE
  5
4209
  8
SUNPOU
  6
CONTINUOUS
 62
     4
 10
19188.91466899998
 20
6356.3198969999958
 30
0.0
 11
19188.91466899998
 21
8247.8198969999976
 31
0.0
  0
LINE
  5
420A
  8
SUNPOU
  6
CONTINUOUS
 62
     4
 10
19908.913349999992
 20
6356.3198969999958
 30
0.0
 11
18708.91235999998
 21
6356.3198969999958
 31
0.0
  0
LINE
  5
420B
  8
SUNPOU
  6
CONTINUOUS
 62
     4
 10
19876.413613999961
 20
8704.8194019999955
 30
0.0
 11
18708.91235999998
 21
8704.8194019999955
 31
0.0
  0
LINE
  5
420C
  8
SUNPOU
  6
CONTINUOUS
 62
     4
 10
18788.912359999958
 20
6356.3198969999958
 30
0.0
 11
18788.912359999969
 21
8704.8194019999955
 31
0.0
  0
LINE
  5
421D
  8
SUNPOU
  6
CONTINUOUS
 62
     4
 10
20132.914008999989
 20
6176.3200619999989
 30
0.0
 11
20132.914008999989
 21
5376.3200619999989
 31
0.0
  0
LINE
  5
421E
  8
SUNPOU
  6
CONTINUOUS
 62
     4
 10
22862.914008999978
 20
6176.3200619999989
 30
0.0
 11
22862.914008999978
 21
5376.3200619999989
 31
0.0
  0
LINE
  5
421F
  8
SUNPOU
  6
CONTINUOUS
 62
     4
 10
20132.914008999989
 20
5456.3200619999989
 30
0.0
 11
22862.914008999978
 21
5456.3200619999989
 31
0.0
  0
LINE
  5
4220
  8
SUNPOU
  6
CONTINUOUS
 62
     4
 10
23050.914008999971
 20
6176.3200619999989
 30
0.0
 11
23050.914008999971
 21
5376.3200619999989
 31
0.0
  0
LINE
  5
4221
  8
SUNPOU
  6
CONTINUOUS
 62
     4
 10
25780.914008999989
 20
6176.3200619999989
 30
0.0
 11
25780.914008999989
 21
5376.3200619999989
 31
0.0
  0
LINE
  5
4222
  8
SUNPOU
  6
CONTINUOUS
 62
     4
 10
23050.914008999971
 20
5456.3200619999989
 30
0.0
 11
25780.914008999989
 21
5456.3200619999989
 31
0.0
  0
LINE
  5
4223
  8
SUNPOU
  6
CONTINUOUS
 62
     4
 10
22956.914008999989
 20
5913.6676389999984
 30
0.0
 11
22956.914008999989
 21
4976.3200619999989
 31
0.0
  0
LINE
  5
4224
  8
SUNPOU
  6
CONTINUOUS
 62
     4
 10
25874.914008999971
 20
5913.6676389999984
 30
0.0
 11
25874.914008999971
 21
4976.3200619999989
 31
0.0
  0
LINE
  5
4225
  8
SUNPOU
  6
CONTINUOUS
 62
     4
 10
22956.914008999989
 20
5056.3200619999989
 30
0.0
 11
25874.914008999971
 21
5056.3200619999989
 31
0.0
  0
LINE
  5
4226
  8
SUNPOU
  6
CONTINUOUS
 62
     4
 10
20038.914008999978
 20
5913.6676389999984
 30
0.0
 11
20038.914008999978
 21
4976.3200619999989
 31
0.0
  0
LINE
  5
4227
  8
SUNPOU
  6
CONTINUOUS
 62
     4
 10
22956.914008999989
 20
5913.6676389999984
 30
0.0
 11
22956.914008999989
 21
4976.3200619999989
 31
0.0
  0
LINE
  5
4228
  8
SUNPOU
  6
CONTINUOUS
 62
     4
 10
20038.914008999978
 20
5056.3200619999989
 30
0.0
 11
22956.914008999989
 21
5056.3200619999989
 31
0.0
  0
LINE
  5
4229
  8
SUNPOU
  6
CONTINUOUS
 62
     4
 10
25874.917968000002
 20
5913.6676389999984
 30
0.0
 11
25874.917968000002
 21
4976.3200619999989
 31
0.0
  0
LINE
  5
422A
  8
SUNPOU
  6
CONTINUOUS
 62
     4
 10
25917.417968000002
 20
6176.3200619999989
 30
0.0
 11
25917.417968000002
 21
4976.3200619999989
 31
0.0
  0
LINE
  5
422B
  8
SUNPOU
  6
CONTINUOUS
 62
     4
 10
25874.917968000002
 20
5056.3200619999989
 30
0.0
 11
25634.917968000002
 21
5056.3200619999989
 31
0.0
  0
LINE
  5
422C
  8
SUNPOU
  6
CONTINUOUS
 62
     4
 10
25917.417968000002
 20
5056.3200619999989
 30
0.0
 11
26157.417968000002
 21
5056.3200619999989
 31
0.0
  0
LINE
  5
422D
  8
SUNPOU
  6
CONTINUOUS
 62
     4
 10
25874.917968000002
 20
5056.3200619999989
 30
0.0
 11
25917.417968000002
 21
5056.3200619999989
 31
0.0
  0
LINE
  5
422E
  8
SUNPOU
  6
CONTINUOUS
 62
     4
 10
20038.914008999978
 20
5913.6676389999984
 30
0.0
 11
20038.914008999978
 21
4976.3200619999989
 31
0.0
  0
LINE
  5
422F
  8
SUNPOU
  6
CONTINUOUS
 62
     4
 10
19996.41400899996
 20
6176.3200619999989
 30
0.0
 11
19996.41400899996
 21
4976.3200619999989
 31
0.0
  0
LINE
  5
4230
  8
SUNPOU
  6
CONTINUOUS
 62
     4
 10
20038.914008999978
 20
5056.3200619999989
 30
0.0
 11
20278.914008999978
 21
5056.3200619999989
 31
0.0
  0
LINE
  5
4231
  8
SUNPOU
  6
CONTINUOUS
 62
     4
 10
19996.41400899996
 20
5056.3200619999989
 30
0.0
 11
19756.41400899996
 21
5056.3200619999989
 31
0.0
  0
LINE
  5
4232
  8
SUNPOU
  6
CONTINUOUS
 62
     4
 10
20038.914008999978
 20
5056.3200619999989
 30
0.0
 11
19996.41400899996
 21
5056.3200619999989
 31
0.0
  0
LINE
  5
4233
  8
SUNPOU
  6
CONTINUOUS
 62
     4
 10
19996.41400899996
 20
6176.3200619999989
 30
0.0
 11
19996.41400899996
 21
4576.320226999992
 31
0.0
  0
LINE
  5
4234
  8
SUNPOU
  6
CONTINUOUS
 62
     4
 10
25917.414008999978
 20
6176.3200619999989
 30
0.0
 11
25917.414008999978
 21
4576.320226999992
 31
0.0
  0
LINE
  5
4235
  8
SUNPOU
  6
CONTINUOUS
 62
     4
 10
19996.41400899996
 20
4656.3202269999974
 30
0.0
 11
25917.414008999978
 21
4656.3202269999974
 31
0.0
  0
LINE
  5
4236
  8
SUNPOU
  6
CONTINUOUS
 62
     4
 10
19916.417705
 20
18432.730914
 30
0.0
 11
19029.459432999989
 21
18432.730914
 31
0.0
  0
LINE
  5
4237
  8
SUNPOU
  6
CONTINUOUS
 62
     4
 10
19109.459432999989
 20
18432.730914
 30
0.0
 11
19109.459432999989
 21
19891.730914
 31
0.0
  0
LINE
  5
4238
  8
SUNPOU
  6
CONTINUOUS
 62
     4
 10
19916.417705
 20
18432.730914
 30
0.0
 11
19029.459432999989
 21
18432.730914
 31
0.0
  0
LINE
  5
4239
  8
SUNPOU
  6
CONTINUOUS
 62
     4
 10
19109.459432999989
 20
16973.730914
 30
0.0
 11
19109.459432999989
 21
18432.730914
 31
0.0
  0
LINE
  5
423A
  8
SUNPOU
  6
CONTINUOUS
 62
     4
 10
19916.417705
 20
15514.971425500011
 30
0.0
 11
19029.459432999989
 21
15514.971425500011
 31
0.0
  0
LINE
  5
423B
  8
SUNPOU
  6
CONTINUOUS
 62
     4
 10
19109.459432999989
 20
15514.971425500011
 30
0.0
 11
19109.459432999989
 21
16973.730914
 31
0.0
  0
LINE
  5
423C
  8
SUNPOU
  6
CONTINUOUS
 62
     4
 10
19916.417705
 20
15514.971425500011
 30
0.0
 11
19029.459432999989
 21
15514.971425500011
 31
0.0
  0
LINE
  5
423D
  8
SUNPOU
  6
CONTINUOUS
 62
     4
 10
19109.459432999989
 20
14055.730913999991
 30
0.0
 11
19109.459432999989
 21
15514.971425500011
 31
0.0
  0
LINE
  5
423E
  8
SUNPOU
  6
CONTINUOUS
 62
     4
 10
20038.91401
 20
13349.967479999999
 30
0.0
 11
20038.91401
 21
13004.28283
 31
0.0
  0
LINE
  5
423F
  8
SUNPOU
  6
CONTINUOUS
 62
     4
 10
19996.411767000001
 20
13933.233619000001
 30
0.0
 11
19996.411767000001
 21
13004.28283
 31
0.0
  0
LINE
  5
4240
  8
SUNPOU
  6
CONTINUOUS
 62
     4
 10
20038.91401
 20
13084.28283
 30
0.0
 11
20278.91401
 21
13084.28283
 31
0.0
  0
LINE
  5
4241
  8
SUNPOU
  6
CONTINUOUS
 62
     4
 10
19996.411767000001
 20
13084.28283
 30
0.0
 11
19756.411767000001
 21
13084.28283
 31
0.0
  0
LINE
  5
4242
  8
SUNPOU
  6
CONTINUOUS
 62
     4
 10
20038.91401
 20
13084.28283
 30
0.0
 11
19996.411767000001
 21
13084.28283
 31
0.0
  0
LINE
  5
4243
  8
SUNPOU
  6
CONTINUOUS
 62
     4
 10
25874.91401
 20
13349.967479999999
 30
0.0
 11
25874.91401
 21
13004.28283
 31
0.0
  0
LINE
  5
4244
  8
SUNPOU
  6
CONTINUOUS
 62
     4
 10
25917.416252999999
 20
13933.233619000001
 30
0.0
 11
25917.416252999999
 21
13004.28283
 31
0.0
  0
LINE
  5
4245
  8
SUNPOU
  6
CONTINUOUS
 62
     4
 10
25874.91401
 20
13084.28283
 30
0.0
 11
25634.91401
 21
13084.28283
 31
0.0
  0
LINE
  5
4246
  8
SUNPOU
  6
CONTINUOUS
 62
     4
 10
25917.416252999999
 20
13084.28283
 30
0.0
 11
26157.416252999999
 21
13084.28283
 31
0.0
  0
LINE
  5
4247
  8
SUNPOU
  6
CONTINUOUS
 62
     4
 10
25874.91401
 20
13084.28283
 30
0.0
 11
25917.416252999999
 21
13084.28283
 31
0.0
  0
LINE
  5
4248
  8
2-0
  6
CONTINUOUS
 62
     3
 10
22914.41401
 20
14013.230913999991
 30
0.0
 11
22999.41401
 21
14013.230913999991
 31
0.0
  0
LINE
  5
4249
  8
2-0
  6
CONTINUOUS
 62
     3
 10
22999.41401
 20
14013.230913999991
 30
0.0
 11
22999.41401
 21
14098.230913999991
 31
0.0
  0
LINE
  5
424A
  8
2-0
  6
CONTINUOUS
 62
     3
 10
22999.41401
 20
14098.230913999991
 30
0.0
 11
22914.41401
 21
14098.230913999991
 31
0.0
  0
LINE
  5
424B
  8
2-0
  6
CONTINUOUS
 62
     3
 10
22914.41401
 20
14098.230913999991
 30
0.0
 11
22914.41401
 21
14013.230913999991
 31
0.0
  0
LINE
  5
424C
  8
SUNPOU
  6
CONTINUOUS
 62
     4
 10
25874.91401
 20
13349.967479999999
 30
0.0
 11
25874.91401
 21
13004.28283
 31
0.0
  0
LINE
  5
424D
  8
SUNPOU
  6
CONTINUOUS
 62
     4
 10
25832.411767000001
 20
13933.233619000001
 30
0.0
 11
25832.411767000001
 21
13004.28283
 31
0.0
  0
LINE
  5
424E
  8
SUNPOU
  6
CONTINUOUS
 62
     4
 10
25874.91401
 20
13084.28283
 30
0.0
 11
26114.91401
 21
13084.28283
 31
0.0
  0
LINE
  5
424F
  8
SUNPOU
  6
CONTINUOUS
 62
     4
 10
25832.411767000001
 20
13084.28283
 30
0.0
 11
25592.411767000001
 21
13084.28283
 31
0.0
  0
LINE
  5
4250
  8
SUNPOU
  6
CONTINUOUS
 62
     4
 10
25874.91401
 20
13084.28283
 30
0.0
 11
25832.411767000001
 21
13084.28283
 31
0.0
  0
LINE
  5
4251
  8
SUNPOU
  6
CONTINUOUS
 62
     4
 10
20038.91401
 20
13349.967479999999
 30
0.0
 11
20038.91401
 21
13004.28283
 31
0.0
  0
LINE
  5
4252
  8
SUNPOU
  6
CONTINUOUS
 62
     4
 10
20081.416252999989
 20
13933.233619000001
 30
0.0
 11
20081.416252999989
 21
13004.28283
 31
0.0
  0
LINE
  5
4253
  8
SUNPOU
  6
CONTINUOUS
 62
     4
 10
20038.91401
 20
13084.28283
 30
0.0
 11
19798.91401
 21
13084.28283
 31
0.0
  0
LINE
  5
4254
  8
SUNPOU
  6
CONTINUOUS
 62
     4
 10
20081.416252999989
 20
13084.28283
 30
0.0
 11
20321.416252999989
 21
13084.28283
 31
0.0
  0
LINE
  5
4255
  8
SUNPOU
  6
CONTINUOUS
 62
     4
 10
20038.91401
 20
13084.28283
 30
0.0
 11
20081.416252999989
 21
13084.28283
 31
0.0
  0
LINE
  5
4256
  8
SUNPOU
  6
CONTINUOUS
 62
     4
 10
19996.411767000001
 20
13933.233619000001
 30
0.0
 11
19996.411767000001
 21
12604.282829999989
 31
0.0
  0
LINE
  5
4257
  8
SUNPOU
  6
CONTINUOUS
 62
     4
 10
25917.416252999999
 20
13933.233619000001
 30
0.0
 11
25917.416252999999
 21
12604.282829999989
 31
0.0
  0
LINE
  5
4258
  8
SUNPOU
  6
CONTINUOUS
 62
     4
 10
19996.411767000001
 20
12684.282829999989
 30
0.0
 11
25917.416252999999
 21
12684.282829999989
 31
0.0
  0
LINE
  5
4259
  8
SUNPOU
  6
CONTINUOUS
 62
     4
 10
25997.412294000002
 20
14813.730913999991
 30
0.0
 11
27047.413614000001
 21
14813.730913999991
 31
0.0
  0
LINE
  5
425A
  8
SUNPOU
  6
CONTINUOUS
 62
     4
 10
26847.413614000001
 20
14055.730913999991
 30
0.0
 11
27047.413614000001
 21
14055.730913999991
 31
0.0
  0
LINE
  5
425B
  8
SUNPOU
  6
CONTINUOUS
 62
     4
 10
26967.413614000001
 20
14813.730913999991
 30
0.0
 11
26967.413614000001
 21
14055.730913999991
 31
0.0
  0
LINE
  5
425C
  8
SUNPOU
  6
CONTINUOUS
 62
     4
 10
25997.412294000002
 20
15514.971425500011
 30
0.0
 11
27047.413614000001
 21
15514.971425500011
 31
0.0
  0
LINE
  5
425D
  8
SUNPOU
  6
CONTINUOUS
 62
     4
 10
25997.412294000002
 20
14813.730913999991
 30
0.0
 11
27047.413614000001
 21
14813.730913999991
 31
0.0
  0
LINE
  5
425E
  8
SUNPOU
  6
CONTINUOUS
 62
     4
 10
26967.413614000001
 20
15514.971425500011
 30
0.0
 11
26967.413614000001
 21
14813.730913999991
 31
0.0
  0
LINE
  5
425F
  8
SUNPOU
  6
CONTINUOUS
 62
     4
 10
25997.412294000002
 20
16215.730913999991
 30
0.0
 11
27047.413614000001
 21
16215.730913999991
 31
0.0
  0
LINE
  5
4260
  8
SUNPOU
  6
CONTINUOUS
 62
     4
 10
25997.412294000002
 20
15514.971425500011
 30
0.0
 11
27047.413614000001
 21
15514.971425500011
 31
0.0
  0
LINE
  5
4261
  8
SUNPOU
  6
CONTINUOUS
 62
     4
 10
26967.413614000001
 20
16215.730913999991
 30
0.0
 11
26967.413614000001
 21
15514.971425500011
 31
0.0
  0
LINE
  5
4262
  8
SUNPOU
  6
CONTINUOUS
 62
     4
 10
26847.413614000001
 20
16973.730914
 30
0.0
 11
27047.413614000001
 21
16973.730914
 31
0.0
  0
LINE
  5
4263
  8
SUNPOU
  6
CONTINUOUS
 62
     4
 10
25997.412294000002
 20
16215.730913999991
 30
0.0
 11
27047.413614000001
 21
16215.730913999991
 31
0.0
  0
LINE
  5
4264
  8
SUNPOU
  6
CONTINUOUS
 62
     4
 10
26967.413614000001
 20
16973.730914
 30
0.0
 11
26967.413614000001
 21
16215.730913999991
 31
0.0
  0
LINE
  5
4265
  8
SUNPOU
  6
CONTINUOUS
 62
     4
 10
25997.412294000002
 20
17731.730914
 30
0.0
 11
27047.413614000001
 21
17731.730914
 31
0.0
  0
LINE
  5
4266
  8
SUNPOU
  6
CONTINUOUS
 62
     4
 10
26847.413614000001
 20
16973.730914
 30
0.0
 11
27047.413614000001
 21
16973.730914
 31
0.0
  0
LINE
  5
4267
  8
SUNPOU
  6
CONTINUOUS
 62
     4
 10
26967.413614000001
 20
17731.730914
 30
0.0
 11
26967.413614000001
 21
16973.730914
 31
0.0
  0
LINE
  5
4268
  8
SUNPOU
  6
CONTINUOUS
 62
     4
 10
25997.412294000002
 20
18432.730914
 30
0.0
 11
27047.413614000001
 21
18432.730914
 31
0.0
  0
LINE
  5
4269
  8
SUNPOU
  6
CONTINUOUS
 62
     4
 10
25997.412294000002
 20
17731.730914
 30
0.0
 11
27047.413614000001
 21
17731.730914
 31
0.0
  0
LINE
  5
426A
  8
SUNPOU
  6
CONTINUOUS
 62
     4
 10
26967.413614000001
 20
18432.730914
 30
0.0
 11
26967.413614000001
 21
17731.730914
 31
0.0
  0
LINE
  5
426B
  8
SUNPOU
  6
CONTINUOUS
 62
     4
 10
25997.412294000002
 20
19133.730914
 30
0.0
 11
27047.413614000001
 21
19133.730914
 31
0.0
  0
LINE
  5
426C
  8
SUNPOU
  6
CONTINUOUS
 62
     4
 10
25997.412294000002
 20
18432.730914
 30
0.0
 11
27047.413614000001
 21
18432.730914
 31
0.0
  0
LINE
  5
426D
  8
SUNPOU
  6
CONTINUOUS
 62
     4
 10
26967.413614000001
 20
19133.730914
 30
0.0
 11
26967.413614000001
 21
18432.730914
 31
0.0
  0
LINE
  5
426E
  8
SUNPOU
  6
CONTINUOUS
 62
     4
 10
26847.413614000001
 20
19891.730914
 30
0.0
 11
27047.413614000001
 21
19891.730914
 31
0.0
  0
LINE
  5
426F
  8
SUNPOU
  6
CONTINUOUS
 62
     4
 10
25997.412294000002
 20
19133.730914
 30
0.0
 11
27047.413614000001
 21
19133.730914
 31
0.0
  0
LINE
  5
4270
  8
SUNPOU
  6
CONTINUOUS
 62
     4
 10
26967.413614000001
 20
19891.730914
 30
0.0
 11
26967.413614000001
 21
19133.730914
 31
0.0
  0
LINE
  5
4271
  8
SUNPOU
  6
CONTINUOUS
 62
     4
 10
26847.413614000001
 20
16973.730914
 30
0.0
 11
27447.413614000001
 21
16973.730914
 31
0.0
  0
LINE
  5
4272
  8
SUNPOU
  6
CONTINUOUS
 62
     4
 10
26847.413614000001
 20
19891.730914
 30
0.0
 11
27447.413614000001
 21
19891.730914
 31
0.0
  0
LINE
  5
4273
  8
SUNPOU
  6
CONTINUOUS
 62
     4
 10
27367.413614000001
 20
16973.730914
 30
0.0
 11
27367.413614000001
 21
19891.730914
 31
0.0
  0
LINE
  5
4274
  8
SUNPOU
  6
CONTINUOUS
 62
     4
 10
26847.413614000001
 20
14055.730913999991
 30
0.0
 11
27447.413614000001
 21
14055.730913999991
 31
0.0
  0
LINE
  5
4275
  8
SUNPOU
  6
CONTINUOUS
 62
     4
 10
26847.413614000001
 20
16973.730914
 30
0.0
 11
27447.413614000001
 21
16973.730914
 31
0.0
  0
LINE
  5
4276
  8
SUNPOU
  6
CONTINUOUS
 62
     4
 10
27367.413614000001
 20
14055.730913999991
 30
0.0
 11
27367.413614000001
 21
16973.730914
 31
0.0
  0
LINE
  5
4277
  8
SUNPOU
  6
CONTINUOUS
 62
     4
 10
25997.412294000002
 20
19934.228209000001
 30
0.0
 11
27847.413614000001
 21
19934.228209000001
 31
0.0
  0
LINE
  5
4278
  8
SUNPOU
  6
CONTINUOUS
 62
     4
 10
25997.412294000002
 20
14013.233619000001
 30
0.0
 11
27847.413614000001
 21
14013.233619000001
 31
0.0
  0
LINE
  5
4279
  8
SUNPOU
  6
CONTINUOUS
 62
     4
 10
27767.413614000001
 20
19934.228209000001
 30
0.0
 11
27767.413614000001
 21
14013.233619000001
 31
0.0
  0
LINE
  5
427A
  8
SUNPOU
  6
CONTINUOUS
 62
     4
 10
26847.413614000001
 20
19891.730914
 30
0.0
 11
27447.413614000001
 21
19891.730914
 31
0.0
  0
LINE
  5
427B
  8
SUNPOU
  6
CONTINUOUS
 62
     4
 10
25997.412294000002
 20
19934.228209000001
 30
0.0
 11
27447.413614000001
 21
19934.228209000001
 31
0.0
  0
LINE
  5
427C
  8
SUNPOU
  6
CONTINUOUS
 62
     4
 10
27367.413614000001
 20
19891.730914
 30
0.0
 11
27367.413614000001
 21
19651.730914
 31
0.0
  0
LINE
  5
427D
  8
SUNPOU
  6
CONTINUOUS
 62
     4
 10
27367.413614000001
 20
19934.228209000001
 30
0.0
 11
27367.413614000001
 21
20174.228209000001
 31
0.0
  0
LINE
  5
427E
  8
SUNPOU
  6
CONTINUOUS
 62
     4
 10
27367.413614000001
 20
19891.730914
 30
0.0
 11
27367.413614000001
 21
19934.228209000001
 31
0.0
  0
LINE
  5
427F
  8
SUNPOU
  6
CONTINUOUS
 62
     4
 10
26847.413614000001
 20
14055.730913999991
 30
0.0
 11
27447.413614000001
 21
14055.730913999991
 31
0.0
  0
LINE
  5
4280
  8
SUNPOU
  6
CONTINUOUS
 62
     4
 10
25997.412294000002
 20
14013.233619000001
 30
0.0
 11
27447.413614000001
 21
14013.233619000001
 31
0.0
  0
LINE
  5
4281
  8
SUNPOU
  6
CONTINUOUS
 62
     4
 10
27367.413614000001
 20
14055.730913999991
 30
0.0
 11
27367.413614000001
 21
14295.730913999991
 31
0.0
  0
LINE
  5
4282
  8
SUNPOU
  6
CONTINUOUS
 62
     4
 10
27367.413614000001
 20
14013.233619000001
 30
0.0
 11
27367.413614000001
 21
13773.233619000001
 31
0.0
  0
LINE
  5
4283
  8
SUNPOU
  6
CONTINUOUS
 62
     4
 10
27367.413614000001
 20
14055.730913999991
 30
0.0
 11
27367.413614000001
 21
14013.233619000001
 31
0.0
  0
LINE
  5
4284
  8
SUNPOU
  6
CONTINUOUS
 62
     4
 10
25116.91401
 20
20014.229199000009
 30
0.0
 11
25116.91401
 21
20744.232102000031
 31
0.0
  0
LINE
  5
4285
  8
SUNPOU
  6
CONTINUOUS
 62
     4
 10
25874.914999500001
 20
20014.229199000009
 30
0.0
 11
25874.914999500001
 21
20744.232102000031
 31
0.0
  0
LINE
  5
4286
  8
SUNPOU
  6
CONTINUOUS
 62
     4
 10
25116.91401
 20
20664.232102000031
 30
0.0
 11
25874.914999500001
 21
20664.232102000031
 31
0.0
  0
LINE
  5
4287
  8
SUNPOU
  6
CONTINUOUS
 62
     4
 10
24415.91401
 20
20014.229199000009
 30
0.0
 11
24415.91401
 21
20744.232102000031
 31
0.0
  0
LINE
  5
4288
  8
SUNPOU
  6
CONTINUOUS
 62
     4
 10
25116.91401
 20
20014.229199000009
 30
0.0
 11
25116.91401
 21
20744.232102000031
 31
0.0
  0
LINE
  5
4289
  8
SUNPOU
  6
CONTINUOUS
 62
     4
 10
24415.91401
 20
20664.232102000031
 30
0.0
 11
25116.91401
 21
20664.232102000031
 31
0.0
  0
LINE
  5
428A
  8
SUNPOU
  6
CONTINUOUS
 62
     4
 10
23714.91401
 20
20014.229199000009
 30
0.0
 11
23714.91401
 21
20744.232102000031
 31
0.0
  0
LINE
  5
428B
  8
SUNPOU
  6
CONTINUOUS
 62
     4
 10
24415.91401
 20
20014.229199000009
 30
0.0
 11
24415.91401
 21
20744.232102000031
 31
0.0
  0
LINE
  5
428C
  8
SUNPOU
  6
CONTINUOUS
 62
     4
 10
23714.91401
 20
20664.232102000031
 30
0.0
 11
24415.91401
 21
20664.232102000031
 31
0.0
  0
LINE
  5
428D
  8
SUNPOU
  6
CONTINUOUS
 62
     4
 10
25874.91401
 20
20014.229199000009
 30
0.0
 11
25874.91401
 21
20744.232102000031
 31
0.0
  0
LINE
  5
428E
  8
SUNPOU
  6
CONTINUOUS
 62
     4
 10
25917.410315000001
 20
20014.229199000009
 30
0.0
 11
25917.410315000001
 21
20744.232102000031
 31
0.0
  0
LINE
  5
428F
  8
SUNPOU
  6
CONTINUOUS
 62
     4
 10
25874.91401
 20
20664.232102000031
 30
0.0
 11
25634.91401
 21
20664.232102000031
 31
0.0
  0
LINE
  5
4290
  8
SUNPOU
  6
CONTINUOUS
 62
     4
 10
25917.410315000001
 20
20664.232102000031
 30
0.0
 11
26157.410315000001
 21
20664.232102000031
 31
0.0
  0
LINE
  5
4291
  8
SUNPOU
  6
CONTINUOUS
 62
     4
 10
25874.91401
 20
20664.232102000031
 30
0.0
 11
25917.410315000001
 21
20664.232102000031
 31
0.0
  0
LINE
  5
4292
  8
SUNPOU
  6
CONTINUOUS
 62
     4
 10
20038.91401
 20
20014.229199000009
 30
0.0
 11
20038.91401
 21
20744.232102000031
 31
0.0
  0
LINE
  5
4293
  8
SUNPOU
  6
CONTINUOUS
 62
     4
 10
19996.417705
 20
20014.229199000009
 30
0.0
 11
19996.417705
 21
20744.232102000031
 31
0.0
  0
LINE
  5
4294
  8
SUNPOU
  6
CONTINUOUS
 62
     4
 10
20038.91401
 20
20664.232102000031
 30
0.0
 11
20278.91401
 21
20664.232102000031
 31
0.0
  0
LINE
  5
4295
  8
SUNPOU
  6
CONTINUOUS
 62
     4
 10
19996.417705
 20
20664.232102000031
 30
0.0
 11
19756.417705
 21
20664.232102000031
 31
0.0
  0
LINE
  5
4296
  8
SUNPOU
  6
CONTINUOUS
 62
     4
 10
20038.91401
 20
20664.232102000031
 30
0.0
 11
19996.417705
 21
20664.232102000031
 31
0.0
  0
LINE
  5
4297
  8
SUNPOU
  6
CONTINUOUS
 62
     4
 10
22198.91400999999
 20
20014.229199000009
 30
0.0
 11
22198.91400999999
 21
20744.232102000031
 31
0.0
  0
LINE
  5
4298
  8
SUNPOU
  6
CONTINUOUS
 62
     4
 10
22956.914999500012
 20
20014.229199000009
 30
0.0
 11
22956.914999500012
 21
20744.232102000031
 31
0.0
  0
LINE
  5
4299
  8
SUNPOU
  6
CONTINUOUS
 62
     4
 10
22198.91400999999
 20
20664.232102000031
 30
0.0
 11
22956.914999500012
 21
20664.232102000031
 31
0.0
  0
LINE
  5
429A
  8
SUNPOU
  6
CONTINUOUS
 62
     4
 10
21497.91401
 20
20014.229199000009
 30
0.0
 11
21497.91401
 21
20744.232102000031
 31
0.0
  0
LINE
  5
429B
  8
SUNPOU
  6
CONTINUOUS
 62
     4
 10
22198.91400999999
 20
20014.229199000009
 30
0.0
 11
22198.91400999999
 21
20744.232102000031
 31
0.0
  0
LINE
  5
429C
  8
SUNPOU
  6
CONTINUOUS
 62
     4
 10
21497.91401
 20
20664.232102000031
 30
0.0
 11
22198.91400999999
 21
20664.232102000031
 31
0.0
  0
LINE
  5
429D
  8
SUNPOU
  6
CONTINUOUS
 62
     4
 10
20796.91401
 20
20014.229199000009
 30
0.0
 11
20796.91401
 21
20744.232102000031
 31
0.0
  0
LINE
  5
429E
  8
SUNPOU
  6
CONTINUOUS
 62
     4
 10
21497.91401
 20
20014.229199000009
 30
0.0
 11
21497.91401
 21
20744.232102000031
 31
0.0
  0
LINE
  5
429F
  8
SUNPOU
  6
CONTINUOUS
 62
     4
 10
20796.91401
 20
20664.232102000031
 30
0.0
 11
21497.91401
 21
20664.232102000031
 31
0.0
  0
LINE
  5
42A0
  8
SUNPOU
  6
CONTINUOUS
 62
     4
 10
8812.6585459999988
 20
8593.3184120000024
 30
0.0
 11
8812.6585459999988
 21
9984.3184379999984
 31
0.0
  0
LINE
  5
42A1
  8
SUNPOU
  6
CONTINUOUS
 62
     4
 10
15063.658546000001
 20
8725.2082354124323
 30
0.0
 11
15063.658546000001
 21
9984.3184379999984
 31
0.0
  0
LINE
  5
42A2
  8
SUNPOU
  6
CONTINUOUS
 62
     4
 10
8812.6585459999988
 20
9904.3184379999984
 30
0.0
 11
15063.658546000001
 21
9904.3184379999984
 31
0.0
  0
LINE
  5
42A3
  8
SUNPOU
  6
CONTINUOUS
 62
     4
 10
14913.659798999999
 20
8651.5491579999998
 30
0.0
 11
14913.659798999999
 21
9584.3200880000004
 31
0.0
  0
LINE
  5
42A4
  8
SUNPOU
  6
CONTINUOUS
 62
     4
 10
15063.658546000001
 20
8725.2082354124323
 30
0.0
 11
15063.658546000001
 21
9584.3200880000004
 31
0.0
  0
LINE
  5
42A5
  8
SUNPOU
  6
CONTINUOUS
 62
     4
 10
14913.659798999999
 20
9504.3200880000004
 30
0.0
 11
14673.659798999999
 21
9504.3200880000004
 31
0.0
  0
LINE
  5
42A6
  8
SUNPOU
  6
CONTINUOUS
 62
     4
 10
15063.658546000001
 20
9504.3200880000004
 30
0.0
 11
15303.658546000001
 21
9504.3200880000004
 31
0.0
  0
LINE
  5
42A7
  8
SUNPOU
  6
CONTINUOUS
 62
     4
 10
14913.659798999999
 20
9504.3200880000004
 30
0.0
 11
15063.658546000001
 21
9504.3200880000004
 31
0.0
  0
LINE
  5
42A8
  8
SUNPOU
  6
CONTINUOUS
 62
     4
 10
8992.6572919999981
 20
8469.4007859999983
 30
0.0
 11
8992.6572919999981
 21
9584.3200880000004
 31
0.0
  0
LINE
  5
42A9
  8
SUNPOU
  6
CONTINUOUS
 62
     4
 10
14913.659798999999
 20
8651.5491579999998
 30
0.0
 11
14913.659798999999
 21
9584.3200880000004
 31
0.0
  0
LINE
  5
42AA
  8
SUNPOU
  6
CONTINUOUS
 62
     4
 10
8992.6572919999981
 20
9504.3200880000004
 30
0.0
 11
14913.659798999999
 21
9504.3200880000004
 31
0.0
  0
LINE
  5
42AB
  8
SUNPOU
  6
CONTINUOUS
 62
     4
 10
8812.6585459999988
 20
8593.3184120000024
 30
0.0
 11
8812.6585459999988
 21
9584.3200880000004
 31
0.0
  0
LINE
  5
42AC
  8
SUNPOU
  6
CONTINUOUS
 62
     4
 10
8992.6572919999981
 20
8469.4007859999983
 30
0.0
 11
8992.6572919999981
 21
9584.3200880000004
 31
0.0
  0
LINE
  5
42AD
  8
SUNPOU
  6
CONTINUOUS
 62
     4
 10
8812.6585459999988
 20
9504.3200880000004
 30
0.0
 11
8992.6572919999981
 21
9504.3200880000004
 31
0.0
  0
LINE
  5
42AE
  8
SUNPOU
  6
CONTINUOUS
 62
     4
 10
8905.1585459999988
 20
6356.319402000001
 30
0.0
 11
7822.660127999995
 21
6356.319402000001
 31
0.0
  0
LINE
  5
42AF
  8
SUNPOU
  6
CONTINUOUS
 62
     4
 10
8732.6605239999917
 20
8512.819402000001
 30
0.0
 11
7822.660127999995
 21
8512.819402000001
 31
0.0
  0
LINE
  5
42B0
  8
SUNPOU
  6
CONTINUOUS
 62
     4
 10
7902.6601279999977
 20
6356.319402000001
 30
0.0
 11
7902.6601279999977
 21
8512.819402000001
 31
0.0
  0
LINE
  5
42B1
  8
SUNPOU
  6
CONTINUOUS
 62
     4
 10
15006.158546000001
 20
6356.319402000001
 30
0.0
 11
16083.65795099999
 21
6356.319402000001
 31
0.0
  0
LINE
  5
42B2
  8
SUNPOU
  6
CONTINUOUS
 62
     4
 10
15098.464814599371
 20
8704.8194019999955
 30
0.0
 11
16083.65795099999
 21
8704.8194019999955
 31
0.0
  0
LINE
  5
42B3
  8
SUNPOU
  6
CONTINUOUS
 62
     4
 10
16003.65795099999
 20
6356.319402000001
 30
0.0
 11
16003.65795099999
 21
8704.8194019999955
 31
0.0
  0
LINE
  5
42B4
  8
SUNPOU
  6
CONTINUOUS
 62
     4
 10
8992.6585460000006
 20
6276.3189070000053
 30
0.0
 11
8992.6585460000006
 21
4576.3192370000006
 31
0.0
  0
LINE
  5
42B5
  8
SUNPOU
  6
CONTINUOUS
 62
     4
 10
14913.658546000001
 20
6276.3189070000053
 30
0.0
 11
14913.658546000001
 21
4576.3192370000006
 31
0.0
  0
LINE
  5
42B6
  8
SUNPOU
  6
CONTINUOUS
 62
     4
 10
8992.6585460000006
 20
4656.3192370000006
 30
0.0
 11
14913.658546000001
 21
4656.3192370000006
 31
0.0
  0
LINE
  5
42B7
  8
SUNPOU
  6
CONTINUOUS
 62
     4
 10
14871.158546000001
 20
5913.6666490000034
 30
0.0
 11
14871.158546000001
 21
4976.3190720000021
 31
0.0
  0
LINE
  5
42B8
  8
SUNPOU
  6
CONTINUOUS
 62
     4
 10
14913.658546000001
 20
6276.3189070000053
 30
0.0
 11
14913.658546000001
 21
4976.3190720000021
 31
0.0
  0
LINE
  5
42B9
  8
SUNPOU
  6
CONTINUOUS
 62
     4
 10
14871.158546000001
 20
5056.3190720000021
 30
0.0
 11
14631.15854599999
 21
5056.3190720000021
 31
0.0
  0
LINE
  5
42BA
  8
SUNPOU
  6
CONTINUOUS
 62
     4
 10
14913.658546000001
 20
5056.3190720000021
 30
0.0
 11
15153.658546000001
 21
5056.3190720000021
 31
0.0
  0
LINE
  5
42BB
  8
SUNPOU
  6
CONTINUOUS
 62
     4
 10
14871.158546000001
 20
5056.3190720000021
 30
0.0
 11
14913.658546000001
 21
5056.3190720000021
 31
0.0
  0
LINE
  5
42BC
  8
SUNPOU
  6
CONTINUOUS
 62
     4
 10
9035.1585460000006
 20
5913.6666490000034
 30
0.0
 11
9035.1585460000006
 21
4976.3190720000021
 31
0.0
  0
LINE
  5
42BD
  8
SUNPOU
  6
CONTINUOUS
 62
     4
 10
8992.6585460000006
 20
6276.3189070000053
 30
0.0
 11
8992.6585460000006
 21
4976.3190720000021
 31
0.0
  0
LINE
  5
42BE
  8
SUNPOU
  6
CONTINUOUS
 62
     4
 10
9035.1585460000006
 20
5056.3190720000021
 30
0.0
 11
9275.1585459999988
 21
5056.3190720000021
 31
0.0
  0
LINE
  5
42BF
  8
SUNPOU
  6
CONTINUOUS
 62
     4
 10
8992.6585460000006
 20
5056.3190720000021
 30
0.0
 11
8752.6585460000006
 21
5056.3190720000021
 31
0.0
  0
LINE
  5
42C0
  8
SUNPOU
  6
CONTINUOUS
 62
     4
 10
9035.1585460000006
 20
5056.3190720000021
 30
0.0
 11
8992.6585460000006
 21
5056.3190720000021
 31
0.0
  0
LINE
  5
42C1
  8
SUNPOU
  6
CONTINUOUS
 62
     4
 10
11953.158546000001
 20
5913.6666490000034
 30
0.0
 11
11953.158546000001
 21
4976.3190720000021
 31
0.0
  0
LINE
  5
42C2
  8
SUNPOU
  6
CONTINUOUS
 62
     4
 10
9035.1585460000006
 20
5913.6666490000034
 30
0.0
 11
9035.1585460000006
 21
4976.3190720000021
 31
0.0
  0
LINE
  5
42C3
  8
SUNPOU
  6
CONTINUOUS
 62
     4
 10
11953.158546000001
 20
5056.3190720000021
 30
0.0
 11
9035.1585460000006
 21
5056.3190720000021
 31
0.0
  0
LINE
  5
42C4
  8
SUNPOU
  6
CONTINUOUS
 62
     4
 10
11953.158546000001
 20
5913.6666490000034
 30
0.0
 11
11953.158546000001
 21
4976.3190720000021
 31
0.0
  0
LINE
  5
42C5
  8
SUNPOU
  6
CONTINUOUS
 62
     4
 10
14871.158546000001
 20
5913.6666490000034
 30
0.0
 11
14871.158546000001
 21
4976.3190720000021
 31
0.0
  0
LINE
  5
42C6
  8
SUNPOU
  6
CONTINUOUS
 62
     4
 10
11953.158546000001
 20
5056.3190720000021
 30
0.0
 11
14871.158546000001
 21
5056.3190720000021
 31
0.0
  0
TEXT
  5
42C7
  8
0
  6
CONTINUOUS
 62
     7
 10
13145.491879333331
 20
5136.3190720000021
 30
0.0
 40
160.0
  1
2918
  0
TEXT
  5
42C8
  8
0
  6
CONTINUOUS
 62
     7
 10
10227.491879333331
 20
5136.3190720000021
 30
0.0
 40
160.0
  1
2918
  0
TEXT
  5
42C9
  8
0
  6
CONTINUOUS
 62
     7
 10
8395.4848369036918
 20
5136.3190720000021
 30
0.0
 40
160.0
  1
42.5
  0
TEXT
  5
42CA
  8
0
  6
CONTINUOUS
 62
     7
 10
15051.977183309809
 20
5136.3190720000021
 30
0.0
 40
160.0
  1
42.5
  0
TEXT
  5
42CB
  8
0
  6
CONTINUOUS
 62
     7
 10
11686.491879333331
 20
4736.3192370000006
 30
0.0
 40
160.0
  1
5921
  0
TEXT
  5
42CC
  8
0
  6
CONTINUOUS
 62
     7
 10
15923.65795099999
 20
6511.9027353333349
 30
0.0
 40
160.0
  1
2348.5（2588.5）
 50
90.0
  0
TEXT
  5
42CD
  8
0
  6
CONTINUOUS
 62
     7
 10
7822.660127999995
 20
6442.5694020000019
 30
0.0
 40
160.0
  1
2156.5（2396.5）
 50
90.0
  0
TEXT
  5
42CE
  8
0
  6
CONTINUOUS
 62
     7
 10
8399.3252126666648
 20
9584.3200880000004
 30
0.0
 40
160.0
  1
180
  0
TEXT
  5
42CF
  8
0
  6
CONTINUOUS
 62
     7
 10
11686.491878833331
 20
9584.3200880000004
 30
0.0
 40
160.0
  1
5921
  0
TEXT
  5
42D0
  8
0
  6
CONTINUOUS
 62
     7
 10
15130.325212666659
 20
9584.3200880000004
 30
0.0
 40
160.0
  1
150
  0
TEXT
  5
42D1
  8
0
  6
CONTINUOUS
 62
     7
 10
11671.491879333331
 20
9984.3184379999984
 30
0.0
 40
160.0
  1
6251
  0
TEXT
  5
42D2
  8
0
  6
CONTINUOUS
 62
     7
 10
20974.080676666668
 20
20744.232102000031
 30
0.0
 40
160.0
  1
701
  0
TEXT
  5
42D3
  8
0
  6
CONTINUOUS
 62
     7
 10
21675.080676666668
 20
20744.232102000031
 30
0.0
 40
160.0
  1
701
  0
TEXT
  5
42D4
  8
0
  6
CONTINUOUS
 62
     7
 10
22364.58117141667
 20
20744.232102000031
 30
0.0
 40
160.0
  1
758
  0
TEXT
  5
42D5
  8
0
  6
CONTINUOUS
 62
     7
 10
19436.1020304712
 20
20744.232102000031
 30
0.0
 40
160.0
  1
42.5
  0
TEXT
  5
42D6
  8
0
  6
CONTINUOUS
 62
     7
 10
25997.72598952879
 20
20744.232102000031
 30
0.0
 40
160.0
  1
42.5
  0
TEXT
  5
42D7
  8
0
  6
CONTINUOUS
 62
     7
 10
23892.080676666661
 20
20744.232102000031
 30
0.0
 40
160.0
  1
701
  0
TEXT
  5
42D8
  8
0
  6
CONTINUOUS
 62
     7
 10
24593.080676666661
 20
20744.232102000031
 30
0.0
 40
160.0
  1
701
  0
TEXT
  5
42D9
  8
0
  6
CONTINUOUS
 62
     7
 10
25282.581171416681
 20
20744.232102000031
 30
0.0
 40
160.0
  1
758
  0
TEXT
  5
42DA
  8
0
  6
CONTINUOUS
 62
     7
 10
27287.413614000001
 20
13439.6773826032
 30
0.0
 40
160.0
  1
42.5
 50
90.0
  0
TEXT
  5
42DB
  8
0
  6
CONTINUOUS
 62
     7
 10
27287.413614000001
 20
20027.784445396788
 30
0.0
 40
160.0
  1
42.5
 50
90.0
  0
TEXT
  5
42DC
  8
0
  6
CONTINUOUS
 62
     7
 10
27687.413614000001
 20
16707.064247333339
 30
0.0
 40
160.0
  1
5921
 50
90.0
  0
TEXT
  5
42DD
  8
0
  6
CONTINUOUS
 62
     7
 10
27287.413614000001
 20
15248.06424733333
 30
0.0
 40
160.0
  1
2918
 50
90.0
  0
TEXT
  5
42DE
  8
0
  6
CONTINUOUS
 62
     7
 10
27287.413614000001
 20
18166.064247333321
 30
0.0
 40
160.0
  1
2918
 50
90.0
  0
TEXT
  5
42DF
  8
0
  6
CONTINUOUS
 62
     7
 10
26887.41361399999
 20
19299.397580666671
 30
0.0
 40
160.0
  1
758
 50
90.0
  0
TEXT
  5
42E0
  8
0
  6
CONTINUOUS
 62
     7
 10
26887.41361399999
 20
18609.897580666671
 30
0.0
 40
160.0
  1
701
 50
90.0
  0
TEXT
  5
42E1
  8
0
  6
CONTINUOUS
 62
     7
 10
26887.41361399999
 20
17908.897580666671
 30
0.0
 40
160.0
  1
701
 50
90.0
  0
TEXT
  5
42E2
  8
0
  6
CONTINUOUS
 62
     7
 10
26887.41361399999
 20
17139.397580666671
 30
0.0
 40
160.0
  1
758
 50
90.0
  0
TEXT
  5
42E3
  8
0
  6
CONTINUOUS
 62
     7
 10
26887.41361399999
 20
16381.39758066666
 30
0.0
 40
160.0
  1
758
 50
90.0
  0
TEXT
  5
42E4
  8
0
  6
CONTINUOUS
 62
     7
 10
26887.41361399999
 20
15692.01783641668
 30
0.0
 40
160.0
  1
701
 50
90.0
  0
TEXT
  5
42E5
  8
0
  6
CONTINUOUS
 62
     7
 10
26887.41361399999
 20
14991.01783641668
 30
0.0
 40
160.0
  1
701
 50
90.0
  0
TEXT
  5
42E6
  8
0
  6
CONTINUOUS
 62
     7
 10
26887.41361399999
 20
14221.39758066666
 30
0.0
 40
160.0
  1
758
 50
90.0
  0
TEXT
  5
42E7
  8
0
  6
CONTINUOUS
 62
     7
 10
22690.24734333334
 20
12764.282829999989
 30
0.0
 40
160.0
  1
5921
  0
TEXT
  5
42E8
  8
0
  6
CONTINUOUS
 62
     7
 10
20156.967682382081
 20
13164.28283
 30
0.0
 40
160.0
  1
42.5
  0
TEXT
  5
42E9
  8
0
  6
CONTINUOUS
 62
     7
 10
25276.860337617902
 20
13164.28283
 30
0.0
 40
160.0
  1
42.5
  0
TEXT
  5
42EA
  8
0
  6
CONTINUOUS
 62
     7
 10
25992.967682382081
 20
13164.28283
 30
0.0
 40
160.0
  1
42.5
  0
TEXT
  5
42EB
  8
0
  6
CONTINUOUS
 62
     7
 10
19440.860337617902
 20
13164.28283
 30
0.0
 40
160.0
  1
42.5
  0
TEXT
  5
42EC
  8
0
  6
CONTINUOUS
 62
     7
 10
19029.459432999989
 20
14518.68450308333
 30
0.0
 40
160.0
  1
1459
 50
90.0
  0
TEXT
  5
42ED
  8
0
  6
CONTINUOUS
 62
     7
 10
19029.459432999989
 20
15977.684503083339
 30
0.0
 40
160.0
  1
1459
 50
90.0
  0
TEXT
  5
42EE
  8
0
  6
CONTINUOUS
 62
     7
 10
19029.459432999989
 20
17436.56424733331
 30
0.0
 40
160.0
  1
1459
 50
90.0
  0
TEXT
  5
42EF
  8
0
  6
CONTINUOUS
 62
     7
 10
19029.459432999989
 20
18895.564247333321
 30
0.0
 40
160.0
  1
1459
 50
90.0
  0
TEXT
  5
42F0
  8
0
  6
CONTINUOUS
 62
     7
 10
22690.247342333321
 20
4736.3202269999929
 30
0.0
 40
160.0
  1
5921
  0
TEXT
  5
42F1
  8
0
  6
CONTINUOUS
 62
     7
 10
19430.375018741121
 20
5136.3200619999989
 30
0.0
 40
160.0
  1
42.5
  0
TEXT
  5
42F2
  8
0
  6
CONTINUOUS
 62
     7
 10
26003.45695825883
 20
5136.3200619999989
 30
0.0
 40
160.0
  1
42.5
  0
TEXT
  5
42F3
  8
0
  6
CONTINUOUS
 62
     7
 10
21231.247342333321
 20
5136.3200619999989
 30
0.0
 40
160.0
  1
2918
  0
TEXT
  5
42F4
  8
0
  6
CONTINUOUS
 62
     7
 10
24149.247342333321
 20
5136.3200619999989
 30
0.0
 40
160.0
  1
2918
  0
TEXT
  5
42F5
  8
0
  6
CONTINUOUS
 62
     7
 10
23607.914008999978
 20
5536.3200619999971
 30
0.0
 40
160.0
  1
有効開口巾 2730
  0
TEXT
  5
42F6
  8
0
  6
CONTINUOUS
 62
     7
 10
20689.914008999989
 20
5536.3200619999971
 30
0.0
 40
160.0
  1
有効開口巾 2730
  0
TEXT
  5
42FB
  8
0
  6
CONTINUOUS
 62
     7
 10
18708.91235999998
 20
6511.9029828333332
 30
0.0
 40
160.0
  1
2348.5（2588.5）
 50
90.0
  0
TEXT
  5
42FC
  8
0
  6
CONTINUOUS
 62
     7
 10
19108.914668999969
 20
6420.2991352912723
 30
0.0
 40
160.0
  1
有効開口高サ 1891.5
 50
90.0
  0
TEXT
  5
42FD
  8
0
  6
CONTINUOUS
 62
     7
 10
20204.580676666668
 20
20744.232102000031
 30
0.0
 40
160.0
  1
758
  0
TEXT
  5
42FE
  8
0
  6
CONTINUOUS
 62
     7
 10
23122.581171416659
 20
20744.232102000031
 30
0.0
 40
160.0
  1
758
  0
TEXT
  5
42FF
  8
0
  6
CONTINUOUS
 62
     7
 10
13215.65945233333
 20
20744.232102000031
 30
0.0
 40
160.0
  1
2918
  0
TEXT
  5
4300
  8
0
  6
CONTINUOUS
 62
     7
 10
15077.82282502325
 20
20744.232102000031
 30
0.0
 40
160.0
  1
85.5
  0
TEXT
  5
4301
  8
0
  6
CONTINUOUS
 62
     7
 10
10299.10996708194
 20
20744.232102000031
 30
0.0
 40
160.0
  1
2918
  0
TEXT
  5
4302
  8
0
  6
CONTINUOUS
 62
     7
 10
8490.279927725358
 20
20744.232102000031
 30
0.0
 40
160.0
  1
85.5
  0
TEXT
  5
4303
  8
0
  6
CONTINUOUS
 62
     7
 10
8095.8278279999904
 20
18895.564247333321
 30
0.0
 40
160.0
  1
1459
 50
90.0
  0
TEXT
  5
4304
  8
0
  6
CONTINUOUS
 62
     7
 10
8095.827827999995
 20
20203.186098807681
 30
0.0
 40
160.0
  1
222.5
 50
90.0
  0
TEXT
  5
4305
  8
0
  6
CONTINUOUS
 62
     7
 10
8495.827827999994
 20
20234.226823000001
 30
0.0
 40
160.0
  1
20
 50
90.0
  0
TEXT
  5
4306
  8
0
  6
CONTINUOUS
 62
     7
 10
8095.827827999995
 20
17436.56424733331
 30
0.0
 40
160.0
  1
1459
 50
90.0
  0
TEXT
  5
4307
  8
0
  6
CONTINUOUS
 62
     7
 10
8095.827827999995
 20
15977.684503083339
 30
0.0
 40
160.0
  1
1459
 50
90.0
  0
TEXT
  5
4308
  8
0
  6
CONTINUOUS
 62
     7
 10
8095.827827999995
 20
14518.68450308333
 30
0.0
 40
160.0
  1
1459
 50
90.0
  0
TEXT
  5
4309
  8
0
  6
CONTINUOUS
 62
     7
 10
8095.8278279999904
 20
13247.77790370263
 30
0.0
 40
160.0
  1
192.5
 50
90.0
  0
ARC
  5
430F
  8
0
  6
BYBLOCK
 62
     0
 10
8175.8278279999931
 20
14055.730913999991
 30
0.0
 40
15.0
 50
270.0
 51
90.0
  0
ARC
  5
4310
  8
0
  6
BYBLOCK
 62
     0
 10
8175.8278279999931
 20
14055.730913999991
 30
0.0
 40
15.0
 50
90.0
 51
270.0
  0
ARC
  5
4311
  8
0
  6
BYBLOCK
 62
     0
 10
8175.8278279999931
 20
13863.235599
 30
0.0
 40
15.0
 50
90.0
 51
270.0
  0
ARC
  5
4312
  8
0
  6
BYBLOCK
 62
     0
 10
8175.8278279999931
 20
13863.235599
 30
0.0
 40
15.0
 50
270.0
 51
90.0
  0
ARC
  5
4313
  8
0
  6
BYBLOCK
 62
     0
 10
8175.827827999995
 20
15514.971425500011
 30
0.0
 40
15.0
 50
270.0
 51
90.0
  0
ARC
  5
4314
  8
0
  6
BYBLOCK
 62
     0
 10
8175.827827999995
 20
15514.971425500011
 30
0.0
 40
15.0
 50
90.0
 51
270.0
  0
ARC
  5
4315
  8
0
  6
BYBLOCK
 62
     0
 10
8175.8278279999931
 20
14055.730913999991
 30
0.0
 40
15.0
 50
90.0
 51
270.0
  0
ARC
  5
4316
  8
0
  6
BYBLOCK
 62
     0
 10
8175.8278279999931
 20
14055.730913999991
 30
0.0
 40
15.0
 50
270.0
 51
90.0
  0
ARC
  5
4317
  8
0
  6
BYBLOCK
 62
     0
 10
8175.827827999995
 20
16973.730914
 30
0.0
 40
15.0
 50
270.0
 51
90.0
  0
ARC
  5
4318
  8
0
  6
BYBLOCK
 62
     0
 10
8175.827827999995
 20
16973.730914
 30
0.0
 40
15.0
 50
90.0
 51
270.0
  0
ARC
  5
4319
  8
0
  6
BYBLOCK
 62
     0
 10
8175.827827999995
 20
15514.971425500011
 30
0.0
 40
15.0
 50
90.0
 51
270.0
  0
ARC
  5
431A
  8
0
  6
BYBLOCK
 62
     0
 10
8175.827827999995
 20
15514.971425500011
 30
0.0
 40
15.0
 50
270.0
 51
90.0
  0
ARC
  5
431B
  8
0
  6
BYBLOCK
 62
     0
 10
8175.827827999995
 20
18432.730914
 30
0.0
 40
15.0
 50
270.0
 51
90.0
  0
ARC
  5
431C
  8
0
  6
BYBLOCK
 62
     0
 10
8175.827827999995
 20
18432.730914
 30
0.0
 40
15.0
 50
90.0
 51
270.0
  0
ARC
  5
431D
  8
0
  6
BYBLOCK
 62
     0
 10
8175.827827999995
 20
16973.730914
 30
0.0
 40
15.0
 50
90.0
 51
270.0
  0
ARC
  5
431E
  8
0
  6
BYBLOCK
 62
     0
 10
8175.827827999995
 20
16973.730914
 30
0.0
 40
15.0
 50
270.0
 51
90.0
  0
ARC
  5
431F
  8
0
  6
BYBLOCK
 62
     0
 10
8575.827827999994
 20
20094.226823000001
 30
0.0
 40
15.0
 50
270.0
 51
90.0
  0
ARC
  5
4320
  8
0
  6
BYBLOCK
 62
     0
 10
8575.827827999994
 20
20094.226823000001
 30
0.0
 40
15.0
 50
90.0
 51
270.0
  0
ARC
  5
4321
  8
0
  6
BYBLOCK
 62
     0
 10
8575.827827999994
 20
20114.226823000001
 30
0.0
 40
15.0
 50
90.0
 51
270.0
  0
ARC
  5
4322
  8
0
  6
BYBLOCK
 62
     0
 10
8575.827827999994
 20
20114.226823000001
 30
0.0
 40
15.0
 50
270.0
 51
90.0
  0
ARC
  5
4323
  8
0
  6
BYBLOCK
 62
     0
 10
8175.8278279999931
 20
19891.730914
 30
0.0
 40
15.0
 50
90.0
 51
270.0
  0
ARC
  5
4324
  8
0
  6
BYBLOCK
 62
     0
 10
8175.8278279999931
 20
19891.730914
 30
0.0
 40
15.0
 50
270.0
 51
90.0
  0
ARC
  5
4325
  8
0
  6
BYBLOCK
 62
     0
 10
8175.8278279999931
 20
20114.226823000001
 30
0.0
 40
15.0
 50
270.0
 51
90.0
  0
ARC
  5
4326
  8
0
  6
BYBLOCK
 62
     0
 10
8175.8278279999931
 20
20114.226823000001
 30
0.0
 40
15.0
 50
90.0
 51
270.0
  0
ARC
  5
4327
  8
0
  6
BYBLOCK
 62
     0
 10
8175.8278279999931
 20
18432.730914
 30
0.0
 40
15.0
 50
90.0
 51
270.0
  0
ARC
  5
4328
  8
0
  6
BYBLOCK
 62
     0
 10
8175.8278279999931
 20
18432.730914
 30
0.0
 40
15.0
 50
270.0
 51
90.0
  0
ARC
  5
4329
  8
0
  6
BYBLOCK
 62
     0
 10
8175.8278279999931
 20
19891.730914
 30
0.0
 40
15.0
 50
270.0
 51
90.0
  0
ARC
  5
432A
  8
0
  6
BYBLOCK
 62
     0
 10
8175.8278279999931
 20
19891.730914
 30
0.0
 40
15.0
 50
90.0
 51
270.0
  0
ARC
  5
432B
  8
0
  6
BYBLOCK
 62
     0
 10
9106.776633748621
 20
20664.232102000031
 30
0.0
 40
15.0
 50
0.0
 51
180.0
  0
ARC
  5
432C
  8
0
  6
BYBLOCK
 62
     0
 10
9106.776633748621
 20
20664.232102000031
 30
0.0
 40
15.0
 50
180.0
 51
0.0
  0
ARC
  5
432D
  8
0
  6
BYBLOCK
 62
     0
 10
9021.276633748621
 20
20664.232102000031
 30
0.0
 40
15.0
 50
180.0
 51
0.0
  0
ARC
  5
432E
  8
0
  6
BYBLOCK
 62
     0
 10
9021.276633748621
 20
20664.232102000031
 30
0.0
 40
15.0
 50
0.0
 51
180.0
  0
ARC
  5
432F
  8
0
  6
BYBLOCK
 62
     0
 10
12024.776633748619
 20
20664.232102000031
 30
0.0
 40
15.0
 50
180.0
 51
0.0
  0
ARC
  5
4330
  8
0
  6
BYBLOCK
 62
     0
 10
12024.776633748619
 20
20664.232102000031
 30
0.0
 40
15.0
 50
0.0
 51
180.0
  0
ARC
  5
4331
  8
0
  6
BYBLOCK
 62
     0
 10
9106.776633748621
 20
20664.232102000031
 30
0.0
 40
15.0
 50
0.0
 51
180.0
  0
ARC
  5
4332
  8
0
  6
BYBLOCK
 62
     0
 10
9106.776633748621
 20
20664.232102000031
 30
0.0
 40
15.0
 50
180.0
 51
0.0
  0
ARC
  5
4333
  8
0
  6
BYBLOCK
 62
     0
 10
14941.326118999999
 20
20664.232102000031
 30
0.0
 40
15.0
 50
180.0
 51
0.0
  0
ARC
  5
4334
  8
0
  6
BYBLOCK
 62
     0
 10
14941.326118999999
 20
20664.232102000031
 30
0.0
 40
15.0
 50
0.0
 51
180.0
  0
ARC
  5
4335
  8
0
  6
BYBLOCK
 62
     0
 10
15026.826118999999
 20
20664.232102000031
 30
0.0
 40
15.0
 50
0.0
 51
180.0
  0
ARC
  5
4336
  8
0
  6
BYBLOCK
 62
     0
 10
15026.826118999999
 20
20664.232102000031
 30
0.0
 40
15.0
 50
180.0
 51
0.0
  0
ARC
  5
4337
  8
0
  6
BYBLOCK
 62
     0
 10
12023.32611899999
 20
20664.232102000031
 30
0.0
 40
15.0
 50
0.0
 51
180.0
  0
ARC
  5
4338
  8
0
  6
BYBLOCK
 62
     0
 10
12023.32611899999
 20
20664.232102000031
 30
0.0
 40
15.0
 50
180.0
 51
0.0
  0
ARC
  5
4339
  8
0
  6
BYBLOCK
 62
     0
 10
14941.326118999999
 20
20664.232102000031
 30
0.0
 40
15.0
 50
180.0
 51
0.0
  0
ARC
  5
433A
  8
0
  6
BYBLOCK
 62
     0
 10
14941.326118999999
 20
20664.232102000031
 30
0.0
 40
15.0
 50
0.0
 51
180.0
  0
ARC
  5
433B
  8
0
  6
BYBLOCK
 62
     0
 10
22956.914999500012
 20
20664.232102000031
 30
0.0
 40
15.0
 50
0.0
 51
180.0
  0
ARC
  5
433C
  8
0
  6
BYBLOCK
 62
     0
 10
22956.914999500012
 20
20664.232102000031
 30
0.0
 40
15.0
 50
180.0
 51
0.0
  0
ARC
  5
433D
  8
0
  6
BYBLOCK
 62
     0
 10
23714.91401
 20
20664.232102000031
 30
0.0
 40
15.0
 50
180.0
 51
0.0
  0
ARC
  5
433E
  8
0
  6
BYBLOCK
 62
     0
 10
23714.91401
 20
20664.232102000031
 30
0.0
 40
15.0
 50
0.0
 51
180.0
  0
ARC
  5
433F
  8
0
  6
BYBLOCK
 62
     0
 10
20038.91401
 20
20664.232102000031
 30
0.0
 40
15.0
 50
0.0
 51
180.0
  0
ARC
  5
4340
  8
0
  6
BYBLOCK
 62
     0
 10
20038.91401
 20
20664.232102000031
 30
0.0
 40
15.0
 50
180.0
 51
0.0
  0
ARC
  5
4341
  8
0
  6
BYBLOCK
 62
     0
 10
20796.91401
 20
20664.232102000031
 30
0.0
 40
15.0
 50
180.0
 51
0.0
  0
ARC
  5
4342
  8
0
  6
BYBLOCK
 62
     0
 10
20796.91401
 20
20664.232102000031
 30
0.0
 40
15.0
 50
0.0
 51
180.0
  0
ARC
  5
4343
  8
0
  6
BYBLOCK
 62
     0
 10
19188.91466899998
 20
6356.3198969999958
 30
0.0
 40
15.0
 50
90.0
 51
270.0
  0
ARC
  5
4344
  8
0
  6
BYBLOCK
 62
     0
 10
19188.91466899998
 20
6356.3198969999958
 30
0.0
 40
15.0
 50
270.0
 51
90.0
  0
ARC
  5
4345
  8
0
  6
BYBLOCK
 62
     0
 10
19188.91466899998
 20
8247.8198969999976
 30
0.0
 40
15.0
 50
270.0
 51
90.0
  0
ARC
  5
4346
  8
0
  6
BYBLOCK
 62
     0
 10
19188.91466899998
 20
8247.8198969999976
 30
0.0
 40
15.0
 50
90.0
 51
270.0
  0
ARC
  5
4347
  8
0
  6
BYBLOCK
 62
     0
 10
18788.912359999958
 20
6356.3198969999958
 30
0.0
 40
15.0
 50
90.0
 51
270.0
  0
ARC
  5
4348
  8
0
  6
BYBLOCK
 62
     0
 10
18788.912359999958
 20
6356.3198969999958
 30
0.0
 40
15.0
 50
270.0
 51
90.0
  0
ARC
  5
4349
  8
0
  6
BYBLOCK
 62
     0
 10
18788.912359999969
 20
8704.8194019999955
 30
0.0
 40
15.0
 50
270.0
 51
90.0
  0
ARC
  5
434A
  8
0
  6
BYBLOCK
 62
     0
 10
18788.912359999969
 20
8704.8194019999955
 30
0.0
 40
15.0
 50
90.0
 51
270.0
  0
ARC
  5
435B
  8
0
  6
BYBLOCK
 62
     0
 10
20132.914008999989
 20
5456.3200619999989
 30
0.0
 40
15.0
 50
0.0
 51
180.0
  0
ARC
  5
435C
  8
0
  6
BYBLOCK
 62
     0
 10
20132.914008999989
 20
5456.3200619999989
 30
0.0
 40
15.0
 50
180.0
 51
0.0
  0
ARC
  5
435D
  8
0
  6
BYBLOCK
 62
     0
 10
22862.914008999978
 20
5456.3200619999989
 30
0.0
 40
15.0
 50
180.0
 51
0.0
  0
ARC
  5
435E
  8
0
  6
BYBLOCK
 62
     0
 10
22862.914008999978
 20
5456.3200619999989
 30
0.0
 40
15.0
 50
0.0
 51
180.0
  0
ARC
  5
435F
  8
0
  6
BYBLOCK
 62
     0
 10
23050.914008999971
 20
5456.3200619999989
 30
0.0
 40
15.0
 50
0.0
 51
180.0
  0
ARC
  5
4360
  8
0
  6
BYBLOCK
 62
     0
 10
23050.914008999971
 20
5456.3200619999989
 30
0.0
 40
15.0
 50
180.0
 51
0.0
  0
ARC
  5
4361
  8
0
  6
BYBLOCK
 62
     0
 10
25780.914008999989
 20
5456.3200619999989
 30
0.0
 40
15.0
 50
180.0
 51
0.0
  0
ARC
  5
4362
  8
0
  6
BYBLOCK
 62
     0
 10
25780.914008999989
 20
5456.3200619999989
 30
0.0
 40
15.0
 50
0.0
 51
180.0
  0
ARC
  5
4363
  8
0
  6
BYBLOCK
 62
     0
 10
22956.914008999989
 20
5056.3200619999989
 30
0.0
 40
15.0
 50
0.0
 51
180.0
  0
ARC
  5
4364
  8
0
  6
BYBLOCK
 62
     0
 10
22956.914008999989
 20
5056.3200619999989
 30
0.0
 40
15.0
 50
180.0
 51
0.0
  0
ARC
  5
4365
  8
0
  6
BYBLOCK
 62
     0
 10
25874.914008999971
 20
5056.3200619999989
 30
0.0
 40
15.0
 50
180.0
 51
0.0
  0
ARC
  5
4366
  8
0
  6
BYBLOCK
 62
     0
 10
25874.914008999971
 20
5056.3200619999989
 30
0.0
 40
15.0
 50
0.0
 51
180.0
  0
ARC
  5
4367
  8
0
  6
BYBLOCK
 62
     0
 10
20038.914008999978
 20
5056.3200619999989
 30
0.0
 40
15.0
 50
0.0
 51
180.0
  0
ARC
  5
4368
  8
0
  6
BYBLOCK
 62
     0
 10
20038.914008999978
 20
5056.3200619999989
 30
0.0
 40
15.0
 50
180.0
 51
0.0
  0
ARC
  5
4369
  8
0
  6
BYBLOCK
 62
     0
 10
22956.914008999989
 20
5056.3200619999989
 30
0.0
 40
15.0
 50
180.0
 51
0.0
  0
ARC
  5
436A
  8
0
  6
BYBLOCK
 62
     0
 10
22956.914008999989
 20
5056.3200619999989
 30
0.0
 40
15.0
 50
0.0
 51
180.0
  0
ARC
  5
436B
  8
0
  6
BYBLOCK
 62
     0
 10
25874.917968000002
 20
5056.3200619999989
 30
0.0
 40
15.0
 50
180.0
 51
0.0
  0
ARC
  5
436C
  8
0
  6
BYBLOCK
 62
     0
 10
25874.917968000002
 20
5056.3200619999989
 30
0.0
 40
15.0
 50
0.0
 51
180.0
  0
ARC
  5
436D
  8
0
  6
BYBLOCK
 62
     0
 10
25917.417968000002
 20
5056.3200619999989
 30
0.0
 40
15.0
 50
0.0
 51
180.0
  0
ARC
  5
436E
  8
0
  6
BYBLOCK
 62
     0
 10
25917.417968000002
 20
5056.3200619999989
 30
0.0
 40
15.0
 50
180.0
 51
0.0
  0
ARC
  5
436F
  8
0
  6
BYBLOCK
 62
     0
 10
20038.914008999978
 20
5056.3200619999989
 30
0.0
 40
15.0
 50
0.0
 51
180.0
  0
ARC
  5
4370
  8
0
  6
BYBLOCK
 62
     0
 10
20038.914008999978
 20
5056.3200619999989
 30
0.0
 40
15.0
 50
180.0
 51
0.0
  0
ARC
  5
4371
  8
0
  6
BYBLOCK
 62
     0
 10
19996.41400899996
 20
5056.3200619999989
 30
0.0
 40
15.0
 50
180.0
 51
0.0
  0
ARC
  5
4372
  8
0
  6
BYBLOCK
 62
     0
 10
19996.41400899996
 20
5056.3200619999989
 30
0.0
 40
15.0
 50
0.0
 51
180.0
  0
ARC
  5
4373
  8
0
  6
BYBLOCK
 62
     0
 10
19996.41400899996
 20
4656.3202269999974
 30
0.0
 40
15.0
 50
0.0
 51
180.0
  0
ARC
  5
4374
  8
0
  6
BYBLOCK
 62
     0
 10
19996.41400899996
 20
4656.3202269999974
 30
0.0
 40
15.0
 50
180.0
 51
0.0
  0
ARC
  5
4375
  8
0
  6
BYBLOCK
 62
     0
 10
25917.414008999978
 20
4656.3202269999974
 30
0.0
 40
15.0
 50
180.0
 51
0.0
  0
ARC
  5
4376
  8
0
  6
BYBLOCK
 62
     0
 10
25917.414008999978
 20
4656.3202269999974
 30
0.0
 40
15.0
 50
0.0
 51
180.0
  0
ARC
  5
4377
  8
0
  6
BYBLOCK
 62
     0
 10
19109.459432999989
 20
18432.730914
 30
0.0
 40
15.0
 50
90.0
 51
270.0
  0
ARC
  5
4378
  8
0
  6
BYBLOCK
 62
     0
 10
19109.459432999989
 20
18432.730914
 30
0.0
 40
15.0
 50
270.0
 51
90.0
  0
ARC
  5
4379
  8
0
  6
BYBLOCK
 62
     0
 10
19109.459432999989
 20
19891.730914
 30
0.0
 40
15.0
 50
270.0
 51
90.0
  0
ARC
  5
437A
  8
0
  6
BYBLOCK
 62
     0
 10
19109.459432999989
 20
19891.730914
 30
0.0
 40
15.0
 50
90.0
 51
270.0
  0
ARC
  5
437B
  8
0
  6
BYBLOCK
 62
     0
 10
19109.459432999989
 20
16973.730914
 30
0.0
 40
15.0
 50
90.0
 51
270.0
  0
ARC
  5
437C
  8
0
  6
BYBLOCK
 62
     0
 10
19109.459432999989
 20
16973.730914
 30
0.0
 40
15.0
 50
270.0
 51
90.0
  0
ARC
  5
437D
  8
0
  6
BYBLOCK
 62
     0
 10
19109.459432999989
 20
18432.730914
 30
0.0
 40
15.0
 50
270.0
 51
90.0
  0
ARC
  5
437E
  8
0
  6
BYBLOCK
 62
     0
 10
19109.459432999989
 20
18432.730914
 30
0.0
 40
15.0
 50
90.0
 51
270.0
  0
ARC
  5
437F
  8
0
  6
BYBLOCK
 62
     0
 10
19109.459432999989
 20
15514.971425500011
 30
0.0
 40
15.0
 50
90.0
 51
270.0
  0
ARC
  5
4380
  8
0
  6
BYBLOCK
 62
     0
 10
19109.459432999989
 20
15514.971425500011
 30
0.0
 40
15.0
 50
270.0
 51
90.0
  0
ARC
  5
4381
  8
0
  6
BYBLOCK
 62
     0
 10
19109.459432999989
 20
16973.730914
 30
0.0
 40
15.0
 50
270.0
 51
90.0
  0
ARC
  5
4382
  8
0
  6
BYBLOCK
 62
     0
 10
19109.459432999989
 20
16973.730914
 30
0.0
 40
15.0
 50
90.0
 51
270.0
  0
ARC
  5
4383
  8
0
  6
BYBLOCK
 62
     0
 10
19109.459432999989
 20
14055.730913999991
 30
0.0
 40
15.0
 50
90.0
 51
270.0
  0
ARC
  5
4384
  8
0
  6
BYBLOCK
 62
     0
 10
19109.459432999989
 20
14055.730913999991
 30
0.0
 40
15.0
 50
270.0
 51
90.0
  0
ARC
  5
4385
  8
0
  6
BYBLOCK
 62
     0
 10
19109.459432999989
 20
15514.971425500011
 30
0.0
 40
15.0
 50
270.0
 51
90.0
  0
ARC
  5
4386
  8
0
  6
BYBLOCK
 62
     0
 10
19109.459432999989
 20
15514.971425500011
 30
0.0
 40
15.0
 50
90.0
 51
270.0
  0
ARC
  5
4387
  8
0
  6
BYBLOCK
 62
     0
 10
20038.91401
 20
13084.28283
 30
0.0
 40
15.0
 50
0.0
 51
180.0
  0
ARC
  5
4388
  8
0
  6
BYBLOCK
 62
     0
 10
20038.91401
 20
13084.28283
 30
0.0
 40
15.0
 50
180.0
 51
0.0
  0
ARC
  5
4389
  8
0
  6
BYBLOCK
 62
     0
 10
19996.411767000001
 20
13084.28283
 30
0.0
 40
15.0
 50
180.0
 51
0.0
  0
ARC
  5
438A
  8
0
  6
BYBLOCK
 62
     0
 10
19996.411767000001
 20
13084.28283
 30
0.0
 40
15.0
 50
0.0
 51
180.0
  0
ARC
  5
438B
  8
0
  6
BYBLOCK
 62
     0
 10
25874.91401
 20
13084.28283
 30
0.0
 40
15.0
 50
180.0
 51
0.0
  0
ARC
  5
438C
  8
0
  6
BYBLOCK
 62
     0
 10
25874.91401
 20
13084.28283
 30
0.0
 40
15.0
 50
0.0
 51
180.0
  0
ARC
  5
438D
  8
0
  6
BYBLOCK
 62
     0
 10
25917.416252999999
 20
13084.28283
 30
0.0
 40
15.0
 50
0.0
 51
180.0
  0
ARC
  5
438E
  8
0
  6
BYBLOCK
 62
     0
 10
25917.416252999999
 20
13084.28283
 30
0.0
 40
15.0
 50
180.0
 51
0.0
  0
ARC
  5
438F
  8
0
  6
BYBLOCK
 62
     0
 10
25874.91401
 20
13084.28283
 30
0.0
 40
15.0
 50
0.0
 51
180.0
  0
ARC
  5
4390
  8
0
  6
BYBLOCK
 62
     0
 10
25874.91401
 20
13084.28283
 30
0.0
 40
15.0
 50
180.0
 51
0.0
  0
ARC
  5
4391
  8
0
  6
BYBLOCK
 62
     0
 10
25832.411767000001
 20
13084.28283
 30
0.0
 40
15.0
 50
180.0
 51
0.0
  0
ARC
  5
4392
  8
0
  6
BYBLOCK
 62
     0
 10
25832.411767000001
 20
13084.28283
 30
0.0
 40
15.0
 50
0.0
 51
180.0
  0
ARC
  5
4393
  8
0
  6
BYBLOCK
 62
     0
 10
20038.91401
 20
13084.28283
 30
0.0
 40
15.0
 50
180.0
 51
0.0
  0
ARC
  5
4394
  8
0
  6
BYBLOCK
 62
     0
 10
20038.91401
 20
13084.28283
 30
0.0
 40
15.0
 50
0.0
 51
180.0
  0
ARC
  5
4395
  8
0
  6
BYBLOCK
 62
     0
 10
20081.416252999989
 20
13084.28283
 30
0.0
 40
15.0
 50
0.0
 51
180.0
  0
ARC
  5
4396
  8
0
  6
BYBLOCK
 62
     0
 10
20081.416252999989
 20
13084.28283
 30
0.0
 40
15.0
 50
180.0
 51
0.0
  0
ARC
  5
4397
  8
0
  6
BYBLOCK
 62
     0
 10
19996.411767000001
 20
12684.282829999989
 30
0.0
 40
15.0
 50
0.0
 51
180.0
  0
ARC
  5
4398
  8
0
  6
BYBLOCK
 62
     0
 10
19996.411767000001
 20
12684.282829999989
 30
0.0
 40
15.0
 50
180.0
 51
0.0
  0
ARC
  5
4399
  8
0
  6
BYBLOCK
 62
     0
 10
25917.416252999999
 20
12684.282829999989
 30
0.0
 40
15.0
 50
180.0
 51
0.0
  0
ARC
  5
439A
  8
0
  6
BYBLOCK
 62
     0
 10
25917.416252999999
 20
12684.282829999989
 30
0.0
 40
15.0
 50
0.0
 51
180.0
  0
ARC
  5
439B
  8
0
  6
BYBLOCK
 62
     0
 10
26967.413614000001
 20
14813.730913999991
 30
0.0
 40
15.0
 50
270.0
 51
90.0
  0
ARC
  5
439C
  8
0
  6
BYBLOCK
 62
     0
 10
26967.413614000001
 20
14813.730913999991
 30
0.0
 40
15.0
 50
90.0
 51
270.0
  0
ARC
  5
439D
  8
0
  6
BYBLOCK
 62
     0
 10
26967.413614000001
 20
14055.730913999991
 30
0.0
 40
15.0
 50
90.0
 51
270.0
  0
ARC
  5
439E
  8
0
  6
BYBLOCK
 62
     0
 10
26967.413614000001
 20
14055.730913999991
 30
0.0
 40
15.0
 50
270.0
 51
90.0
  0
ARC
  5
439F
  8
0
  6
BYBLOCK
 62
     0
 10
26967.413614000001
 20
15514.971425500011
 30
0.0
 40
15.0
 50
270.0
 51
90.0
  0
ARC
  5
43A0
  8
0
  6
BYBLOCK
 62
     0
 10
26967.413614000001
 20
15514.971425500011
 30
0.0
 40
15.0
 50
90.0
 51
270.0
  0
ARC
  5
43A1
  8
0
  6
BYBLOCK
 62
     0
 10
26967.413614000001
 20
14813.730913999991
 30
0.0
 40
15.0
 50
90.0
 51
270.0
  0
ARC
  5
43A2
  8
0
  6
BYBLOCK
 62
     0
 10
26967.413614000001
 20
14813.730913999991
 30
0.0
 40
15.0
 50
270.0
 51
90.0
  0
ARC
  5
43A3
  8
0
  6
BYBLOCK
 62
     0
 10
26967.413614000001
 20
16215.730913999991
 30
0.0
 40
15.0
 50
270.0
 51
90.0
  0
ARC
  5
43A4
  8
0
  6
BYBLOCK
 62
     0
 10
26967.413614000001
 20
16215.730913999991
 30
0.0
 40
15.0
 50
90.0
 51
270.0
  0
ARC
  5
43A5
  8
0
  6
BYBLOCK
 62
     0
 10
26967.413614000001
 20
15514.971425500011
 30
0.0
 40
15.0
 50
90.0
 51
270.0
  0
ARC
  5
43A6
  8
0
  6
BYBLOCK
 62
     0
 10
26967.413614000001
 20
15514.971425500011
 30
0.0
 40
15.0
 50
270.0
 51
90.0
  0
ARC
  5
43A7
  8
0
  6
BYBLOCK
 62
     0
 10
26967.413614000001
 20
16973.730914
 30
0.0
 40
15.0
 50
270.0
 51
90.0
  0
ARC
  5
43A8
  8
0
  6
BYBLOCK
 62
     0
 10
26967.413614000001
 20
16973.730914
 30
0.0
 40
15.0
 50
90.0
 51
270.0
  0
ARC
  5
43A9
  8
0
  6
BYBLOCK
 62
     0
 10
26967.413614000001
 20
16215.730913999991
 30
0.0
 40
15.0
 50
90.0
 51
270.0
  0
ARC
  5
43AA
  8
0
  6
BYBLOCK
 62
     0
 10
26967.413614000001
 20
16215.730913999991
 30
0.0
 40
15.0
 50
270.0
 51
90.0
  0
ARC
  5
43AB
  8
0
  6
BYBLOCK
 62
     0
 10
26967.413614000001
 20
17731.730914
 30
0.0
 40
15.0
 50
270.0
 51
90.0
  0
ARC
  5
43AC
  8
0
  6
BYBLOCK
 62
     0
 10
26967.413614000001
 20
17731.730914
 30
0.0
 40
15.0
 50
90.0
 51
270.0
  0
ARC
  5
43AD
  8
0
  6
BYBLOCK
 62
     0
 10
26967.413614000001
 20
16973.730914
 30
0.0
 40
15.0
 50
90.0
 51
270.0
  0
ARC
  5
43AE
  8
0
  6
BYBLOCK
 62
     0
 10
26967.413614000001
 20
16973.730914
 30
0.0
 40
15.0
 50
270.0
 51
90.0
  0
ARC
  5
43AF
  8
0
  6
BYBLOCK
 62
     0
 10
26967.413614000001
 20
18432.730914
 30
0.0
 40
15.0
 50
270.0
 51
90.0
  0
ARC
  5
43B0
  8
0
  6
BYBLOCK
 62
     0
 10
26967.413614000001
 20
18432.730914
 30
0.0
 40
15.0
 50
90.0
 51
270.0
  0
ARC
  5
43B1
  8
0
  6
BYBLOCK
 62
     0
 10
26967.413614000001
 20
17731.730914
 30
0.0
 40
15.0
 50
90.0
 51
270.0
  0
ARC
  5
43B2
  8
0
  6
BYBLOCK
 62
     0
 10
26967.413614000001
 20
17731.730914
 30
0.0
 40
15.0
 50
270.0
 51
90.0
  0
ARC
  5
43B3
  8
0
  6
BYBLOCK
 62
     0
 10
26967.413614000001
 20
19133.730914
 30
0.0
 40
15.0
 50
270.0
 51
90.0
  0
ARC
  5
43B4
  8
0
  6
BYBLOCK
 62
     0
 10
26967.413614000001
 20
19133.730914
 30
0.0
 40
15.0
 50
90.0
 51
270.0
  0
ARC
  5
43B5
  8
0
  6
BYBLOCK
 62
     0
 10
26967.413614000001
 20
18432.730914
 30
0.0
 40
15.0
 50
90.0
 51
270.0
  0
ARC
  5
43B6
  8
0
  6
BYBLOCK
 62
     0
 10
26967.413614000001
 20
18432.730914
 30
0.0
 40
15.0
 50
270.0
 51
90.0
  0
ARC
  5
43B7
  8
0
  6
BYBLOCK
 62
     0
 10
26967.413614000001
 20
19891.730914
 30
0.0
 40
15.0
 50
270.0
 51
90.0
  0
ARC
  5
43B8
  8
0
  6
BYBLOCK
 62
     0
 10
26967.413614000001
 20
19891.730914
 30
0.0
 40
15.0
 50
90.0
 51
270.0
  0
ARC
  5
43B9
  8
0
  6
BYBLOCK
 62
     0
 10
26967.413614000001
 20
19133.730914
 30
0.0
 40
15.0
 50
90.0
 51
270.0
  0
ARC
  5
43BA
  8
0
  6
BYBLOCK
 62
     0
 10
26967.413614000001
 20
19133.730914
 30
0.0
 40
15.0
 50
270.0
 51
90.0
  0
ARC
  5
43BB
  8
0
  6
BYBLOCK
 62
     0
 10
27367.413614000001
 20
16973.730914
 30
0.0
 40
15.0
 50
90.0
 51
270.0
  0
ARC
  5
43BC
  8
0
  6
BYBLOCK
 62
     0
 10
27367.413614000001
 20
16973.730914
 30
0.0
 40
15.0
 50
270.0
 51
90.0
  0
ARC
  5
43BD
  8
0
  6
BYBLOCK
 62
     0
 10
27367.413614000001
 20
19891.730914
 30
0.0
 40
15.0
 50
270.0
 51
90.0
  0
ARC
  5
43BE
  8
0
  6
BYBLOCK
 62
     0
 10
27367.413614000001
 20
19891.730914
 30
0.0
 40
15.0
 50
90.0
 51
270.0
  0
ARC
  5
43BF
  8
0
  6
BYBLOCK
 62
     0
 10
27367.413614000001
 20
14055.730913999991
 30
0.0
 40
15.0
 50
90.0
 51
270.0
  0
ARC
  5
43C0
  8
0
  6
BYBLOCK
 62
     0
 10
27367.413614000001
 20
14055.730913999991
 30
0.0
 40
15.0
 50
270.0
 51
90.0
  0
ARC
  5
43C1
  8
0
  6
BYBLOCK
 62
     0
 10
27367.413614000001
 20
16973.730914
 30
0.0
 40
15.0
 50
270.0
 51
90.0
  0
ARC
  5
43C2
  8
0
  6
BYBLOCK
 62
     0
 10
27367.413614000001
 20
16973.730914
 30
0.0
 40
15.0
 50
90.0
 51
270.0
  0
ARC
  5
43C3
  8
0
  6
BYBLOCK
 62
     0
 10
27767.413614000001
 20
19934.228209000001
 30
0.0
 40
15.0
 50
270.0
 51
90.0
  0
ARC
  5
43C4
  8
0
  6
BYBLOCK
 62
     0
 10
27767.413614000001
 20
19934.228209000001
 30
0.0
 40
15.0
 50
90.0
 51
270.0
  0
ARC
  5
43C5
  8
0
  6
BYBLOCK
 62
     0
 10
27767.413614000001
 20
14013.233619000001
 30
0.0
 40
15.0
 50
90.0
 51
270.0
  0
ARC
  5
43C6
  8
0
  6
BYBLOCK
 62
     0
 10
27767.413614000001
 20
14013.233619000001
 30
0.0
 40
15.0
 50
270.0
 51
90.0
  0
ARC
  5
43C7
  8
0
  6
BYBLOCK
 62
     0
 10
27367.413614000001
 20
19891.730914
 30
0.0
 40
15.0
 50
270.0
 51
90.0
  0
ARC
  5
43C8
  8
0
  6
BYBLOCK
 62
     0
 10
27367.413614000001
 20
19891.730914
 30
0.0
 40
15.0
 50
90.0
 51
270.0
  0
ARC
  5
43C9
  8
0
  6
BYBLOCK
 62
     0
 10
27367.413614000001
 20
19934.228209000001
 30
0.0
 40
15.0
 50
90.0
 51
270.0
  0
ARC
  5
43CA
  8
0
  6
BYBLOCK
 62
     0
 10
27367.413614000001
 20
19934.228209000001
 30
0.0
 40
15.0
 50
270.0
 51
90.0
  0
ARC
  5
43CB
  8
0
  6
BYBLOCK
 62
     0
 10
27367.413614000001
 20
14055.730913999991
 30
0.0
 40
15.0
 50
90.0
 51
270.0
  0
ARC
  5
43CC
  8
0
  6
BYBLOCK
 62
     0
 10
27367.413614000001
 20
14055.730913999991
 30
0.0
 40
15.0
 50
270.0
 51
90.0
  0
ARC
  5
43CD
  8
0
  6
BYBLOCK
 62
     0
 10
27367.413614000001
 20
14013.233619000001
 30
0.0
 40
15.0
 50
270.0
 51
90.0
  0
ARC
  5
43CE
  8
0
  6
BYBLOCK
 62
     0
 10
27367.413614000001
 20
14013.233619000001
 30
0.0
 40
15.0
 50
90.0
 51
270.0
  0
ARC
  5
43CF
  8
0
  6
BYBLOCK
 62
     0
 10
25116.91401
 20
20664.232102000031
 30
0.0
 40
15.0
 50
0.0
 51
180.0
  0
ARC
  5
43D0
  8
0
  6
BYBLOCK
 62
     0
 10
25116.91401
 20
20664.232102000031
 30
0.0
 40
15.0
 50
180.0
 51
0.0
  0
ARC
  5
43D1
  8
0
  6
BYBLOCK
 62
     0
 10
25874.914999500001
 20
20664.232102000031
 30
0.0
 40
15.0
 50
180.0
 51
0.0
  0
ARC
  5
43D2
  8
0
  6
BYBLOCK
 62
     0
 10
25874.914999500001
 20
20664.232102000031
 30
0.0
 40
15.0
 50
0.0
 51
180.0
  0
ARC
  5
43D3
  8
0
  6
BYBLOCK
 62
     0
 10
24415.91401
 20
20664.232102000031
 30
0.0
 40
15.0
 50
0.0
 51
180.0
  0
ARC
  5
43D4
  8
0
  6
BYBLOCK
 62
     0
 10
24415.91401
 20
20664.232102000031
 30
0.0
 40
15.0
 50
180.0
 51
0.0
  0
ARC
  5
43D5
  8
0
  6
BYBLOCK
 62
     0
 10
25116.91401
 20
20664.232102000031
 30
0.0
 40
15.0
 50
180.0
 51
0.0
  0
ARC
  5
43D6
  8
0
  6
BYBLOCK
 62
     0
 10
25116.91401
 20
20664.232102000031
 30
0.0
 40
15.0
 50
0.0
 51
180.0
  0
ARC
  5
43D7
  8
0
  6
BYBLOCK
 62
     0
 10
23714.91401
 20
20664.232102000031
 30
0.0
 40
15.0
 50
0.0
 51
180.0
  0
ARC
  5
43D8
  8
0
  6
BYBLOCK
 62
     0
 10
23714.91401
 20
20664.232102000031
 30
0.0
 40
15.0
 50
180.0
 51
0.0
  0
ARC
  5
43D9
  8
0
  6
BYBLOCK
 62
     0
 10
24415.91401
 20
20664.232102000031
 30
0.0
 40
15.0
 50
180.0
 51
0.0
  0
ARC
  5
43DA
  8
0
  6
BYBLOCK
 62
     0
 10
24415.91401
 20
20664.232102000031
 30
0.0
 40
15.0
 50
0.0
 51
180.0
  0
ARC
  5
43DB
  8
0
  6
BYBLOCK
 62
     0
 10
25874.91401
 20
20664.232102000031
 30
0.0
 40
15.0
 50
180.0
 51
0.0
  0
ARC
  5
43DC
  8
0
  6
BYBLOCK
 62
     0
 10
25874.91401
 20
20664.232102000031
 30
0.0
 40
15.0
 50
0.0
 51
180.0
  0
ARC
  5
43DD
  8
0
  6
BYBLOCK
 62
     0
 10
25917.410315000001
 20
20664.232102000031
 30
0.0
 40
15.0
 50
0.0
 51
180.0
  0
ARC
  5
43DE
  8
0
  6
BYBLOCK
 62
     0
 10
25917.410315000001
 20
20664.232102000031
 30
0.0
 40
15.0
 50
180.0
 51
0.0
  0
ARC
  5
43DF
  8
0
  6
BYBLOCK
 62
     0
 10
20038.91401
 20
20664.232102000031
 30
0.0
 40
15.0
 50
0.0
 51
180.0
  0
ARC
  5
43E0
  8
0
  6
BYBLOCK
 62
     0
 10
20038.91401
 20
20664.232102000031
 30
0.0
 40
15.0
 50
180.0
 51
0.0
  0
ARC
  5
43E1
  8
0
  6
BYBLOCK
 62
     0
 10
19996.417705
 20
20664.232102000031
 30
0.0
 40
15.0
 50
180.0
 51
0.0
  0
ARC
  5
43E2
  8
0
  6
BYBLOCK
 62
     0
 10
19996.417705
 20
20664.232102000031
 30
0.0
 40
15.0
 50
0.0
 51
180.0
  0
ARC
  5
43E3
  8
0
  6
BYBLOCK
 62
     0
 10
22198.91400999999
 20
20664.232102000031
 30
0.0
 40
15.0
 50
0.0
 51
180.0
  0
ARC
  5
43E4
  8
0
  6
BYBLOCK
 62
     0
 10
22198.91400999999
 20
20664.232102000031
 30
0.0
 40
15.0
 50
180.0
 51
0.0
  0
ARC
  5
43E5
  8
0
  6
BYBLOCK
 62
     0
 10
22956.914999500012
 20
20664.232102000031
 30
0.0
 40
15.0
 50
180.0
 51
0.0
  0
ARC
  5
43E6
  8
0
  6
BYBLOCK
 62
     0
 10
22956.914999500012
 20
20664.232102000031
 30
0.0
 40
15.0
 50
0.0
 51
180.0
  0
ARC
  5
43E7
  8
0
  6
BYBLOCK
 62
     0
 10
21497.91401
 20
20664.232102000031
 30
0.0
 40
15.0
 50
0.0
 51
180.0
  0
ARC
  5
43E8
  8
0
  6
BYBLOCK
 62
     0
 10
21497.91401
 20
20664.232102000031
 30
0.0
 40
15.0
 50
180.0
 51
0.0
  0
ARC
  5
43E9
  8
0
  6
BYBLOCK
 62
     0
 10
22198.91400999999
 20
20664.232102000031
 30
0.0
 40
15.0
 50
180.0
 51
0.0
  0
ARC
  5
43EA
  8
0
  6
BYBLOCK
 62
     0
 10
22198.91400999999
 20
20664.232102000031
 30
0.0
 40
15.0
 50
0.0
 51
180.0
  0
ARC
  5
43EB
  8
0
  6
BYBLOCK
 62
     0
 10
20796.91401
 20
20664.232102000031
 30
0.0
 40
15.0
 50
0.0
 51
180.0
  0
ARC
  5
43EC
  8
0
  6
BYBLOCK
 62
     0
 10
20796.91401
 20
20664.232102000031
 30
0.0
 40
15.0
 50
180.0
 51
0.0
  0
ARC
  5
43ED
  8
0
  6
BYBLOCK
 62
     0
 10
21497.91401
 20
20664.232102000031
 30
0.0
 40
15.0
 50
180.0
 51
0.0
  0
ARC
  5
43EE
  8
0
  6
BYBLOCK
 62
     0
 10
21497.91401
 20
20664.232102000031
 30
0.0
 40
15.0
 50
0.0
 51
180.0
  0
ARC
  5
43EF
  8
0
  6
BYBLOCK
 62
     0
 10
8812.6585459999988
 20
9904.3184379999984
 30
0.0
 40
15.0
 50
0.0
 51
180.0
  0
ARC
  5
43F0
  8
0
  6
BYBLOCK
 62
     0
 10
8812.6585459999988
 20
9904.3184379999984
 30
0.0
 40
15.0
 50
180.0
 51
0.0
  0
ARC
  5
43F1
  8
0
  6
BYBLOCK
 62
     0
 10
15063.658546000001
 20
9904.3184379999984
 30
0.0
 40
15.0
 50
180.0
 51
0.0
  0
ARC
  5
43F2
  8
0
  6
BYBLOCK
 62
     0
 10
15063.658546000001
 20
9904.3184379999984
 30
0.0
 40
15.0
 50
0.0
 51
180.0
  0
ARC
  5
43F3
  8
0
  6
BYBLOCK
 62
     0
 10
14913.659798999999
 20
9504.3200880000004
 30
0.0
 40
15.0
 50
180.0
 51
0.0
  0
ARC
  5
43F4
  8
0
  6
BYBLOCK
 62
     0
 10
14913.659798999999
 20
9504.3200880000004
 30
0.0
 40
15.0
 50
0.0
 51
180.0
  0
ARC
  5
43F5
  8
0
  6
BYBLOCK
 62
     0
 10
15063.658546000001
 20
9504.3200880000004
 30
0.0
 40
15.0
 50
0.0
 51
180.0
  0
ARC
  5
43F6
  8
0
  6
BYBLOCK
 62
     0
 10
15063.658546000001
 20
9504.3200880000004
 30
0.0
 40
15.0
 50
180.0
 51
0.0
  0
ARC
  5
43F7
  8
0
  6
BYBLOCK
 62
     0
 10
8992.6572919999981
 20
9504.3200880000004
 30
0.0
 40
15.0
 50
0.0
 51
180.0
  0
ARC
  5
43F8
  8
0
  6
BYBLOCK
 62
     0
 10
8992.6572919999981
 20
9504.3200880000004
 30
0.0
 40
15.0
 50
180.0
 51
0.0
  0
ARC
  5
43F9
  8
0
  6
BYBLOCK
 62
     0
 10
14913.659798999999
 20
9504.3200880000004
 30
0.0
 40
15.0
 50
180.0
 51
0.0
  0
ARC
  5
43FA
  8
0
  6
BYBLOCK
 62
     0
 10
14913.659798999999
 20
9504.3200880000004
 30
0.0
 40
15.0
 50
0.0
 51
180.0
  0
ARC
  5
43FB
  8
0
  6
BYBLOCK
 62
     0
 10
8812.6585459999988
 20
9504.3200880000004
 30
0.0
 40
15.0
 50
0.0
 51
180.0
  0
ARC
  5
43FC
  8
0
  6
BYBLOCK
 62
     0
 10
8812.6585459999988
 20
9504.3200880000004
 30
0.0
 40
15.0
 50
180.0
 51
0.0
  0
ARC
  5
43FD
  8
0
  6
BYBLOCK
 62
     0
 10
8992.6572919999981
 20
9504.3200880000004
 30
0.0
 40
15.0
 50
180.0
 51
0.0
  0
ARC
  5
43FE
  8
0
  6
BYBLOCK
 62
     0
 10
8992.6572919999981
 20
9504.3200880000004
 30
0.0
 40
15.0
 50
0.0
 51
180.0
  0
ARC
  5
43FF
  8
0
  6
BYBLOCK
 62
     0
 10
7902.6601279999977
 20
6356.319402000001
 30
0.0
 40
15.0
 50
90.0
 51
270.0
  0
ARC
  5
4400
  8
0
  6
BYBLOCK
 62
     0
 10
7902.6601279999977
 20
6356.319402000001
 30
0.0
 40
15.0
 50
270.0
 51
90.0
  0
ARC
  5
4401
  8
0
  6
BYBLOCK
 62
     0
 10
7902.6601279999977
 20
8512.819402000001
 30
0.0
 40
15.0
 50
270.0
 51
90.0
  0
ARC
  5
4402
  8
0
  6
BYBLOCK
 62
     0
 10
7902.6601279999977
 20
8512.819402000001
 30
0.0
 40
15.0
 50
90.0
 51
270.0
  0
ARC
  5
4403
  8
0
  6
BYBLOCK
 62
     0
 10
16003.65795099999
 20
6356.319402000001
 30
0.0
 40
15.0
 50
90.0
 51
270.0
  0
ARC
  5
4404
  8
0
  6
BYBLOCK
 62
     0
 10
16003.65795099999
 20
6356.319402000001
 30
0.0
 40
15.0
 50
270.0
 51
90.0
  0
ARC
  5
4405
  8
0
  6
BYBLOCK
 62
     0
 10
16003.65795099999
 20
8704.8194019999955
 30
0.0
 40
15.0
 50
270.0
 51
90.0
  0
ARC
  5
4406
  8
0
  6
BYBLOCK
 62
     0
 10
16003.65795099999
 20
8704.8194019999955
 30
0.0
 40
15.0
 50
90.0
 51
270.0
  0
ARC
  5
4407
  8
0
  6
BYBLOCK
 62
     0
 10
8992.6585460000006
 20
4656.3192370000006
 30
0.0
 40
15.0
 50
0.0
 51
180.0
  0
ARC
  5
4408
  8
0
  6
BYBLOCK
 62
     0
 10
8992.6585460000006
 20
4656.3192370000006
 30
0.0
 40
15.0
 50
180.0
 51
0.0
  0
ARC
  5
4409
  8
0
  6
BYBLOCK
 62
     0
 10
14913.658546000001
 20
4656.3192370000006
 30
0.0
 40
15.0
 50
180.0
 51
0.0
  0
ARC
  5
440A
  8
0
  6
BYBLOCK
 62
     0
 10
14913.658546000001
 20
4656.3192370000006
 30
0.0
 40
15.0
 50
0.0
 51
180.0
  0
ARC
  5
440B
  8
0
  6
BYBLOCK
 62
     0
 10
14871.158546000001
 20
5056.3190720000021
 30
0.0
 40
15.0
 50
180.0
 51
0.0
  0
ARC
  5
440C
  8
0
  6
BYBLOCK
 62
     0
 10
14871.158546000001
 20
5056.3190720000021
 30
0.0
 40
15.0
 50
0.0
 51
180.0
  0
ARC
  5
440D
  8
0
  6
BYBLOCK
 62
     0
 10
14913.658546000001
 20
5056.3190720000021
 30
0.0
 40
15.0
 50
0.0
 51
180.0
  0
ARC
  5
440E
  8
0
  6
BYBLOCK
 62
     0
 10
14913.658546000001
 20
5056.3190720000021
 30
0.0
 40
15.0
 50
180.0
 51
0.0
  0
ARC
  5
440F
  8
0
  6
BYBLOCK
 62
     0
 10
9035.1585460000006
 20
5056.3190720000021
 30
0.0
 40
15.0
 50
0.0
 51
180.0
  0
ARC
  5
4410
  8
0
  6
BYBLOCK
 62
     0
 10
9035.1585460000006
 20
5056.3190720000021
 30
0.0
 40
15.0
 50
180.0
 51
0.0
  0
ARC
  5
4411
  8
0
  6
BYBLOCK
 62
     0
 10
8992.6585460000006
 20
5056.3190720000021
 30
0.0
 40
15.0
 50
180.0
 51
0.0
  0
ARC
  5
4412
  8
0
  6
BYBLOCK
 62
     0
 10
8992.6585460000006
 20
5056.3190720000021
 30
0.0
 40
15.0
 50
0.0
 51
180.0
  0
ARC
  5
4413
  8
0
  6
BYBLOCK
 62
     0
 10
11953.158546000001
 20
5056.3190720000021
 30
0.0
 40
15.0
 50
180.0
 51
0.0
  0
ARC
  5
4414
  8
0
  6
BYBLOCK
 62
     0
 10
11953.158546000001
 20
5056.3190720000021
 30
0.0
 40
15.0
 50
0.0
 51
180.0
  0
ARC
  5
4415
  8
0
  6
BYBLOCK
 62
     0
 10
9035.1585460000006
 20
5056.3190720000021
 30
0.0
 40
15.0
 50
0.0
 51
180.0
  0
ARC
  5
4416
  8
0
  6
BYBLOCK
 62
     0
 10
9035.1585460000006
 20
5056.3190720000021
 30
0.0
 40
15.0
 50
180.0
 51
0.0
  0
ARC
  5
4417
  8
0
  6
BYBLOCK
 62
     0
 10
11953.158546000001
 20
5056.3190720000021
 30
0.0
 40
15.0
 50
0.0
 51
180.0
  0
ARC
  5
4418
  8
0
  6
BYBLOCK
 62
     0
 10
11953.158546000001
 20
5056.3190720000021
 30
0.0
 40
15.0
 50
180.0
 51
0.0
  0
ARC
  5
4419
  8
0
  6
BYBLOCK
 62
     0
 10
14871.158546000001
 20
5056.3190720000021
 30
0.0
 40
15.0
 50
180.0
 51
0.0
  0
ARC
  5
441A
  8
0
  6
BYBLOCK
 62
     0
 10
14871.158546000001
 20
5056.3190720000021
 30
0.0
 40
15.0
 50
0.0
 51
180.0
  0
LINE
  5
4540
  8
0-1
  6
CONTINUOUS
 62
     3
 10
25811.41699099998
 20
8454.8199169999989
 30
0.0
 11
25811.41699099998
 21
8486.8198239999983
 31
0.0
  0
LINE
  5
4541
  8
0-1
  6
CONTINUOUS
 62
     3
 10
25960.416384
 20
8378.6331950000003
 30
0.0
 11
25917.414272999969
 21
8378.6331950000003
 31
0.0
  0
LINE
  5
4542
  8
0-1
  6
CONTINUOUS
 62
     3
 10
25960.416384
 20
8704.8202460000011
 30
0.0
 11
25960.416384
 21
8378.6331950000003
 31
0.0
  0
LINE
  5
4543
  8
0-1
  6
CONTINUOUS
 62
     3
 10
25525.449798000001
 20
8451.2844959999966
 30
0.0
 11
25493.45088099999
 21
8483.2844039999982
 31
0.0
  0
LINE
  5
4544
  8
0-1
  6
CONTINUOUS
 62
     3
 10
25806.416726999971
 20
8491.8200880000004
 30
0.0
 11
25496.98630099999
 21
8491.8200880000004
 31
0.0
  0
LINE
  5
4545
  8
0-1
  6
CONTINUOUS
 62
     3
 10
25811.41699099998
 20
8483.4209910000027
 30
0.0
 11
25493.32023199998
 21
8483.4209910000027
 31
0.0
  0
LINE
  5
4546
  8
0-1
  6
CONTINUOUS
 62
     3
 10
25806.416726999971
 20
8449.8196530000005
 30
0.0
 11
25528.987197999992
 21
8449.8196530000005
 31
0.0
  0
LINE
  5
4547
  8
0-1
  6
CONTINUOUS
 62
     3
 10
25811.41699099998
 20
8458.2197400000023
 30
0.0
 11
25518.51554499998
 21
8458.2197400000023
 31
0.0
  0
LINE
  5
4548
  8
0-1
  6
CONTINUOUS
 62
     3
 10
25811.41699099998
 20
8466.6198269999968
 30
0.0
 11
25510.116446999989
 21
8466.6198269999968
 31
0.0
  0
LINE
  5
4549
  8
0-1
  6
CONTINUOUS
 62
     3
 10
25811.41699099998
 20
8475.0209039999972
 30
0.0
 11
25501.71537099998
 21
8475.0209039999972
 31
0.0
  0
LINE
  5
454A
  8
0-1
  6
CONTINUOUS
 62
     3
 10
23306.380199000021
 20
8451.2844959999966
 30
0.0
 11
23338.377137000021
 21
8483.2844039999982
 31
0.0
  0
LINE
  5
454B
  8
0-1
  6
CONTINUOUS
 62
     3
 10
23020.414985000021
 20
8454.8199169999989
 30
0.0
 11
23020.414985000021
 21
8486.8198239999983
 31
0.0
  0
LINE
  5
454C
  8
0-1
  6
CONTINUOUS
 62
     3
 10
23020.414985000021
 20
8458.2197400000023
 30
0.0
 11
23313.312473000002
 21
8458.2197400000023
 31
0.0
  0
LINE
  5
454D
  8
0-1
  6
CONTINUOUS
 62
     3
 10
23020.414985000021
 20
8466.6198269999968
 30
0.0
 11
23321.713550000011
 21
8466.6198269999968
 31
0.0
  0
LINE
  5
454E
  8
0-1
  6
CONTINUOUS
 62
     3
 10
23025.415249000001
 20
8449.8196530000005
 30
0.0
 11
23302.842798999998
 21
8449.8196530000005
 31
0.0
  0
LINE
  5
454F
  8
0-1
  6
CONTINUOUS
 62
     3
 10
23020.414985000021
 20
8475.0209039999972
 30
0.0
 11
23330.112647000009
 21
8475.0209039999972
 31
0.0
  0
LINE
  5
4550
  8
0-1
  6
CONTINUOUS
 62
     3
 10
23020.414985000021
 20
8483.4209910000027
 30
0.0
 11
23338.50976500001
 21
8483.4209910000027
 31
0.0
  0
LINE
  5
4551
  8
0-1
  6
CONTINUOUS
 62
     3
 10
23025.415249000001
 20
8491.8200880000004
 30
0.0
 11
23334.843696000022
 21
8491.8200880000004
 31
0.0
  0
LINE
  5
4552
  8
0-1
  6
CONTINUOUS
 62
     3
 10
25960.416384
 20
8574.8193229999979
 30
0.0
 11
22956.914009
 21
8574.8193229999979
 31
0.0
  0
LINE
  5
4553
  8
0-1
  6
CONTINUOUS
 62
     3
 10
22999.412293000001
 20
8500.8199690000038
 30
0.0
 11
25832.415723999991
 21
8500.8199690000038
 31
0.0
  0
LINE
  5
4554
  8
0-1
  6
CONTINUOUS
 62
     3
 10
22999.412293000001
 20
8440.8197709999986
 30
0.0
 11
25832.415723999991
 21
8440.8197709999986
 31
0.0
  0
LINE
  5
4555
  8
0-1
  6
CONTINUOUS
 62
     3
 10
22956.914009
 20
8704.8202460000011
 30
0.0
 11
25960.416384
 21
8704.8202460000011
 31
0.0
  0
LINE
  5
4556
  8
0-1
  6
CONTINUOUS
 62
     3
 10
22893.413033000001
 20
8454.8199169999989
 30
0.0
 11
22893.413033000001
 21
8486.8198239999983
 31
0.0
  0
LINE
  5
4557
  8
0-1
  6
CONTINUOUS
 62
     3
 10
22607.451777999981
 20
8451.2844959999966
 30
0.0
 11
22575.450881000001
 21
8483.2844039999982
 31
0.0
  0
LINE
  5
4558
  8
0-1
  6
CONTINUOUS
 62
     3
 10
22893.413033000001
 20
8483.4209910000027
 30
0.0
 11
22575.320232999969
 21
8483.4209910000027
 31
0.0
  0
LINE
  5
4559
  8
0-1
  6
CONTINUOUS
 62
     3
 10
22893.413033000001
 20
8475.0209039999972
 30
0.0
 11
22583.71537099998
 21
8475.0209039999972
 31
0.0
  0
LINE
  5
455A
  8
0-1
  6
CONTINUOUS
 62
     3
 10
22893.413033000001
 20
8466.6198269999968
 30
0.0
 11
22592.114467999989
 21
8466.6198269999968
 31
0.0
  0
LINE
  5
455B
  8
0-1
  6
CONTINUOUS
 62
     3
 10
22893.413033000001
 20
8458.2197400000023
 30
0.0
 11
22600.513565999969
 21
8458.2197400000023
 31
0.0
  0
LINE
  5
455C
  8
0-1
  6
CONTINUOUS
 62
     3
 10
22888.414747999981
 20
8491.8200880000004
 30
0.0
 11
22578.984321999989
 21
8491.8200880000004
 31
0.0
  0
LINE
  5
455D
  8
0-1
  6
CONTINUOUS
 62
     3
 10
22888.414747999981
 20
8449.8196530000005
 30
0.0
 11
22610.987198999981
 21
8449.8196530000005
 31
0.0
  0
LINE
  5
455E
  8
0-1
  6
CONTINUOUS
 62
     3
 10
20107.41326999999
 20
8449.8196530000005
 30
0.0
 11
20384.842799999959
 21
8449.8196530000005
 31
0.0
  0
LINE
  5
455F
  8
0-1
  6
CONTINUOUS
 62
     3
 10
20102.414985999989
 20
8454.8199169999989
 30
0.0
 11
20102.414985999989
 21
8486.8198239999983
 31
0.0
  0
LINE
  5
4560
  8
0-1
  6
CONTINUOUS
 62
     3
 10
19953.413613999968
 20
8378.6331950000003
 30
0.0
 11
19996.41176599999
 21
8378.6331950000003
 31
0.0
  0
LINE
  5
4561
  8
0-1
  6
CONTINUOUS
 62
     3
 10
19953.413613999968
 20
8378.6331950000003
 30
0.0
 11
19953.413613999968
 21
8704.8202460000011
 31
0.0
  0
LINE
  5
4562
  8
0-1
  6
CONTINUOUS
 62
     3
 10
20107.41326999999
 20
8491.8200880000004
 30
0.0
 11
20416.843697
 21
8491.8200880000004
 31
0.0
  0
LINE
  5
4563
  8
0-1
  6
CONTINUOUS
 62
     3
 10
20388.376240000001
 20
8451.2844959999966
 30
0.0
 11
20420.377137999989
 21
8483.2844039999982
 31
0.0
  0
LINE
  5
4564
  8
0-1
  6
CONTINUOUS
 62
     3
 10
20102.414985999989
 20
8483.4209910000027
 30
0.0
 11
20420.50976500001
 21
8483.4209910000027
 31
0.0
  0
LINE
  5
4565
  8
0-1
  6
CONTINUOUS
 62
     3
 10
20102.414985999989
 20
8475.0209039999972
 30
0.0
 11
20412.112647999991
 21
8475.0209039999972
 31
0.0
  0
LINE
  5
4566
  8
0-1
  6
CONTINUOUS
 62
     3
 10
20102.414985999989
 20
8466.6198269999968
 30
0.0
 11
20403.71355
 21
8466.6198269999968
 31
0.0
  0
LINE
  5
4567
  8
0-1
  6
CONTINUOUS
 62
     3
 10
20102.414985999989
 20
8458.2197400000023
 30
0.0
 11
20395.31445299997
 21
8458.2197400000023
 31
0.0
  0
LINE
  5
4568
  8
0-1
  6
CONTINUOUS
 62
     3
 10
20081.412294000002
 20
8440.8197709999986
 30
0.0
 11
22914.41374499998
 21
8440.8197709999986
 31
0.0
  0
LINE
  5
4569
  8
0-1
  6
CONTINUOUS
 62
     3
 10
20081.412294000002
 20
8500.8199690000038
 30
0.0
 11
22914.41374499998
 21
8500.8199690000038
 31
0.0
  0
LINE
  5
456A
  8
0-1
  6
CONTINUOUS
 62
     3
 10
19953.413613999968
 20
8704.8202460000011
 30
0.0
 11
22956.914009
 21
8704.8202460000011
 31
0.0
  0
LINE
  5
456B
  8
0-1
  6
CONTINUOUS
 62
     3
 10
22956.914009
 20
8574.8193229999979
 30
0.0
 11
19953.413613999968
 21
8574.8193229999979
 31
0.0
  0
LINE
  5
456C
  8
0-1
  6
CONTINUOUS
 62
     3
 10
22956.914009
 20
8574.8193229999979
 30
0.0
 11
22956.914009
 21
8704.8202460000011
 31
0.0
  0
LINE
  5
456D
  8
0-1
  6
CONTINUOUS
 62
     3
 10
22956.914009
 20
8574.8193229999979
 30
0.0
 11
22956.914009
 21
8704.8202460000011
 31
0.0
  0
ARC
  5
456E
  8
0-1
  6
CONTINUOUS
 62
     3
 10
25806.416726999971
 20
8486.8198239999983
 30
0.0
 40
5.0
 50
0.0
 51
90.0
  0
ARC
  5
456F
  8
0-1
  6
CONTINUOUS
 62
     3
 10
25806.416726999971
 20
8454.8199169999989
 30
0.0
 40
5.0
 50
269.9999850001808
 51
0.0
  0
ARC
  5
4570
  8
0-1
  6
CONTINUOUS
 62
     3
 10
25496.98630099999
 20
8486.8198239999983
 30
0.0
 40
5.0
 50
90.0
 51
224.99998499997989
  0
ARC
  5
4571
  8
0-1
  6
CONTINUOUS
 62
     3
 10
25528.987197999992
 20
8454.8199169999989
 30
0.0
 40
5.0
 50
224.99998499997989
 51
269.9999850001808
  0
ARC
  5
4572
  8
0-1
  6
CONTINUOUS
 62
     3
 10
23334.843696000022
 20
8486.8198239999983
 30
0.0
 40
5.0
 50
314.99998500027471
 51
90.0
  0
ARC
  5
4573
  8
0-1
  6
CONTINUOUS
 62
     3
 10
23302.842798999998
 20
8454.8199169999989
 30
0.0
 40
5.0
 50
269.9999850001808
 51
314.99998500027471
  0
ARC
  5
4574
  8
0-1
  6
CONTINUOUS
 62
     3
 10
23025.415249000001
 20
8454.8199169999989
 30
0.0
 40
5.0
 50
180.0
 51
269.9999850001808
  0
ARC
  5
4575
  8
0-1
  6
CONTINUOUS
 62
     3
 10
23025.415249000001
 20
8486.8198239999983
 30
0.0
 40
5.0
 50
90.0
 51
180.0
  0
ARC
  5
4576
  8
0-1
  6
CONTINUOUS
 62
     3
 10
22888.414747999981
 20
8454.8199169999989
 30
0.0
 40
5.0
 50
269.9999850001808
 51
0.0
  0
ARC
  5
4577
  8
0-1
  6
CONTINUOUS
 62
     3
 10
22888.414747999981
 20
8486.8198239999983
 30
0.0
 40
5.0
 50
0.0
 51
90.0
  0
ARC
  5
4578
  8
0-1
  6
CONTINUOUS
 62
     3
 10
22578.984321999989
 20
8486.8198239999983
 30
0.0
 40
5.0
 50
90.0
 51
224.99998499997989
  0
ARC
  5
4579
  8
0-1
  6
CONTINUOUS
 62
     3
 10
22610.987198999981
 20
8454.8199169999989
 30
0.0
 40
5.0
 50
224.99998499997989
 51
269.9999850001808
  0
ARC
  5
457A
  8
0-1
  6
CONTINUOUS
 62
     3
 10
20416.843697
 20
8486.8198239999983
 30
0.0
 40
5.0
 50
314.99998500027471
 51
90.0
  0
ARC
  5
457B
  8
0-1
  6
CONTINUOUS
 62
     3
 10
20107.41326999999
 20
8486.8198239999983
 30
0.0
 40
5.0
 50
90.0
 51
180.0
  0
ARC
  5
457C
  8
0-1
  6
CONTINUOUS
 62
     3
 10
20107.41326999999
 20
8454.8199169999989
 30
0.0
 40
5.0
 50
180.0
 51
269.9999850001808
  0
ARC
  5
457D
  8
0-1
  6
CONTINUOUS
 62
     3
 10
20384.842799999959
 20
8454.8199169999989
 30
0.0
 40
5.0
 50
269.9999850001808
 51
314.99998500027471
  0
LINE
  5
457E
  8
SUNPOU
  6
CONTINUOUS
 62
     4
 10
19953.411633999971
 20
8784.8202460000011
 30
0.0
 11
19953.411633999971
 21
9984.2778579999995
 31
0.0
  0
LINE
  5
457F
  8
SUNPOU
  6
CONTINUOUS
 62
     4
 10
25960.416384
 20
8784.8202460000011
 30
0.0
 11
25960.416384
 21
9984.2778579999995
 31
0.0
  0
LINE
  5
4580
  8
SUNPOU
  6
CONTINUOUS
 62
     4
 10
19956.41163399996
 20
9904.2778579999995
 30
0.0
 11
25957.416383999989
 21
9904.2778579999995
 31
0.0
  0
LINE
  5
4581
  8
SUNPOU
  6
CONTINUOUS
 62
     4
 10
19996.413744999969
 20
8784.8202460000011
 30
0.0
 11
19996.413744999969
 21
9584.3200880000004
 31
0.0
  0
LINE
  5
4582
  8
SUNPOU
  6
CONTINUOUS
 62
     4
 10
25917.414272999969
 20
8784.8202460000011
 30
0.0
 11
25917.414272999969
 21
9584.3200880000004
 31
0.0
  0
LINE
  5
4583
  8
SUNPOU
  6
CONTINUOUS
 62
     4
 10
19996.413744999969
 20
9504.3200880000004
 30
0.0
 11
25917.414272999969
 21
9504.3200880000004
 31
0.0
  0
LINE
  5
4584
  8
SUNPOU
  6
CONTINUOUS
 62
     4
 10
19996.413744999969
 20
8784.8202460000011
 30
0.0
 11
19996.413744999969
 21
9584.3200880000004
 31
0.0
  0
LINE
  5
4585
  8
SUNPOU
  6
CONTINUOUS
 62
     4
 10
19953.411633999971
 20
8784.8202460000011
 30
0.0
 11
19953.411633999971
 21
9584.3200880000004
 31
0.0
  0
LINE
  5
4586
  8
SUNPOU
  6
CONTINUOUS
 62
     4
 10
19996.413744999969
 20
9504.3200880000004
 30
0.0
 11
20236.413744999969
 21
9504.3200880000004
 31
0.0
  0
LINE
  5
4587
  8
SUNPOU
  6
CONTINUOUS
 62
     4
 10
19956.41163399996
 20
9504.3200880000004
 30
0.0
 11
19716.411633999989
 21
9504.3200880000004
 31
0.0
  0
LINE
  5
4588
  8
SUNPOU
  6
CONTINUOUS
 62
     4
 10
19996.413744999969
 20
9504.3200880000004
 30
0.0
 11
19956.41163399996
 21
9504.3200880000004
 31
0.0
  0
LINE
  5
4589
  8
SUNPOU
  6
CONTINUOUS
 62
     4
 10
25917.414272999969
 20
8784.8202460000011
 30
0.0
 11
25917.414272999969
 21
9584.3200880000004
 31
0.0
  0
LINE
  5
458A
  8
SUNPOU
  6
CONTINUOUS
 62
     4
 10
25960.416384
 20
8784.8202460000011
 30
0.0
 11
25960.416384
 21
9584.3200880000004
 31
0.0
  0
LINE
  5
458B
  8
SUNPOU
  6
CONTINUOUS
 62
     4
 10
25917.414272999969
 20
9504.3200880000004
 30
0.0
 11
25677.414272999969
 21
9504.3200880000004
 31
0.0
  0
LINE
  5
458C
  8
SUNPOU
  6
CONTINUOUS
 62
     4
 10
25957.416383999989
 20
9504.3200880000004
 30
0.0
 11
26197.416383999989
 21
9504.3200880000004
 31
0.0
  0
LINE
  5
458D
  8
SUNPOU
  6
CONTINUOUS
 62
     4
 10
25917.414272999969
 20
9504.3200880000004
 30
0.0
 11
25957.416383999989
 21
9504.3200880000004
 31
0.0
  0
TEXT
  5
458E
  8
0
  6
CONTINUOUS
 62
     7
 10
26077.416383999989
 20
9584.3200880000004
 30
0.0
 40
160.0
  1
43
  0
TEXT
  5
458F
  8
0
  6
CONTINUOUS
 62
     7
 10
19596.411633999989
 20
9584.3200880000004
 30
0.0
 40
160.0
  1
43
  0
TEXT
  5
4590
  8
0
  6
CONTINUOUS
 62
     7
 10
22690.247342333321
 20
9584.3200880000004
 30
0.0
 40
160.0
  1
5921
  0
TEXT
  5
4591
  8
0
  6
CONTINUOUS
 62
     7
 10
22716.914008999989
 20
9984.2778579999995
 30
0.0
 40
160.0
  1
6007
  0
ARC
  5
4592
  8
0
  6
BYBLOCK
 62
     0
 10
19953.411633999971
 20
9904.2778579999995
 30
0.0
 40
15.0
 50
0.0
 51
180.0
  0
ARC
  5
4593
  8
0
  6
BYBLOCK
 62
     0
 10
19953.411633999971
 20
9904.2778579999995
 30
0.0
 40
15.0
 50
180.0
 51
0.0
  0
ARC
  5
4594
  8
0
  6
BYBLOCK
 62
     0
 10
25960.416384
 20
9904.2778579999995
 30
0.0
 40
15.0
 50
180.0
 51
0.0
  0
ARC
  5
4595
  8
0
  6
BYBLOCK
 62
     0
 10
25960.416384
 20
9904.2778579999995
 30
0.0
 40
15.0
 50
0.0
 51
180.0
  0
ARC
  5
4596
  8
0
  6
BYBLOCK
 62
     0
 10
19996.413744999969
 20
9504.3200880000004
 30
0.0
 40
15.0
 50
0.0
 51
180.0
  0
ARC
  5
4597
  8
0
  6
BYBLOCK
 62
     0
 10
19996.413744999969
 20
9504.3200880000004
 30
0.0
 40
15.0
 50
180.0
 51
0.0
  0
ARC
  5
4598
  8
0
  6
BYBLOCK
 62
     0
 10
25917.414272999969
 20
9504.3200880000004
 30
0.0
 40
15.0
 50
180.0
 51
0.0
  0
ARC
  5
4599
  8
0
  6
BYBLOCK
 62
     0
 10
25917.414272999969
 20
9504.3200880000004
 30
0.0
 40
15.0
 50
0.0
 51
180.0
  0
ARC
  5
459A
  8
0
  6
BYBLOCK
 62
     0
 10
19996.413744999969
 20
9504.3200880000004
 30
0.0
 40
15.0
 50
0.0
 51
180.0
  0
ARC
  5
459B
  8
0
  6
BYBLOCK
 62
     0
 10
19996.413744999969
 20
9504.3200880000004
 30
0.0
 40
15.0
 50
180.0
 51
0.0
  0
ARC
  5
459C
  8
0
  6
BYBLOCK
 62
     0
 10
19953.411633999971
 20
9504.3200880000004
 30
0.0
 40
15.0
 50
180.0
 51
0.0
  0
ARC
  5
459D
  8
0
  6
BYBLOCK
 62
     0
 10
19953.411633999971
 20
9504.3200880000004
 30
0.0
 40
15.0
 50
0.0
 51
180.0
  0
ARC
  5
459E
  8
0
  6
BYBLOCK
 62
     0
 10
25917.414272999969
 20
9504.3200880000004
 30
0.0
 40
15.0
 50
180.0
 51
0.0
  0
ARC
  5
459F
  8
0
  6
BYBLOCK
 62
     0
 10
25917.414272999969
 20
9504.3200880000004
 30
0.0
 40
15.0
 50
0.0
 51
180.0
  0
ARC
  5
45A0
  8
0
  6
BYBLOCK
 62
     0
 10
25960.416384
 20
9504.3200880000004
 30
0.0
 40
15.0
 50
0.0
 51
180.0
  0
ARC
  5
45A1
  8
0
  6
BYBLOCK
 62
     0
 10
25960.416384
 20
9504.3200880000004
 30
0.0
 40
15.0
 50
180.0
 51
0.0
  0
LINE
  5
45AF
  8
SUNPOU
  6
CONTINUOUS
 62
     4
 10
9019.8257229999981
 20
13783.23065000001
 30
0.0
 11
9019.8257229999981
 21
12604.282830000009
 31
0.0
  0
LINE
  5
45B0
  8
SUNPOU
  6
CONTINUOUS
 62
     4
 10
15026.82651499997
 20
13783.23065000001
 30
0.0
 11
15026.82651499997
 21
12604.282830000009
 31
0.0
  0
LINE
  5
45B1
  8
SUNPOU
  6
CONTINUOUS
 62
     4
 10
9019.8257229999981
 20
12684.282830000009
 30
0.0
 11
15026.82651499997
 21
12684.282830000009
 31
0.0
  0
TEXT
  5
45B2
  8
0
  6
CONTINUOUS
 62
     7
 10
11260.659452333321
 20
12764.282830000009
 30
0.0
 40
160.0
  1
ケラバ外寸 6007
  0
ARC
  5
45B3
  8
0
  6
BYBLOCK
 62
     0
 10
9019.8257229999981
 20
12684.282830000009
 30
0.0
 40
15.0
 50
0.0
 51
180.0
  0
ARC
  5
45B4
  8
0
  6
BYBLOCK
 62
     0
 10
9019.8257229999981
 20
12684.282830000009
 30
0.0
 40
15.0
 50
180.0
 51
0.0
  0
ARC
  5
45B5
  8
0
  6
BYBLOCK
 62
     0
 10
15026.82651499997
 20
12684.282830000009
 30
0.0
 40
15.0
 50
180.0
 51
0.0
  0
ARC
  5
45B6
  8
0
  6
BYBLOCK
 62
     0
 10
15026.82651499997
 20
12684.282830000009
 30
0.0
 40
15.0
 50
0.0
 51
180.0
  0
TEXT
  5
4621
  8
NAME
 10
24033.05354655402
 20
1076.0
 30
0.0
 40
360.0
  1
H
 41
0.6700000000000002
  7
00
  0
TEXT
  5
4622
  8
NAME
 10
23657.2215619737
 20
1076.0
 30
0.0
 40
360.0
  1
（ ）
  7
01
  0
TEXT
  5
4623
  8
NAME
 10
21933.552716389018
 20
1876.0
 30
0.0
 40
360.0
  1
ヨドガレージ ラヴィージュ
 41
0.75
  7
01
  0
TEXT
  5
4624
  8
NAME
 10
21550.022791898398
 20
1076.6369801169251
 30
0.0
 40
360.0
  1
VGCU-3059
 41
0.6700000000000002
  0
LINE
  5
4625
  8
NAME
  6
CONTINUOUS
 10
26067.886878884321
 20
2236.0
 30
0.0
 11
26067.886878884321
 21
1876.0
 31
0.0
  0
LINE
  5
4626
  8
NAME
  6
CONTINUOUS
 10
26167.886878884321
 20
2236.0
 30
0.0
 11
26167.886878884321
 21
1876.0
 31
0.0
  0
LINE
  5
4627
  8
NAME
  6
CONTINUOUS
 10
26267.886878884328
 20
2236.0
 30
0.0
 11
26267.886878884328
 21
1876.0
 31
0.0
  0
LINE
  5
4628
  8
NAME
  6
CONTINUOUS
 10
26007.886878884321
 20
2236.0
 30
0.0
 11
26327.886878884321
 21
2236.0
 31
0.0
  0
LINE
  5
4629
  8
NAME
  6
CONTINUOUS
 10
26327.886878884321
 20
1876.0
 30
0.0
 11
26007.886878884321
 21
1876.0
 31
0.0
  0
TEXT
  5
462A
  8
NAME
 10
25346.041792426691
 20
1076.0
 30
0.0
 40
360.0
  1
2
 41
0.6700000000000002
  7
00
  0
TEXT
  5
462B
  8
NAME
 10
24557.214549256729
 20
1076.0
 30
0.0
 40
360.0
  1
型（ 連棟）
  7
01
  0
TEXT
  5
46C5
  8
FILENAME
  6
CONTINUOUS
 10
28546.857142857141
 20
348.0
 30
0.0
 40
200.0
  1
＜VGCU-3059-2-A_0.DXF ＞
  7
FILENAME
 72
     2
 11
32764.0
 21
348.0
 31
0.0
  0
LINE
  5
46CB
  8
WAKUSEN-01
 10
868.00000000000193
 20
827.99999999999955
 30
0.0
 11
32764.000000000011
 21
827.99999999999943
 31
0.0
  0
LINE
  5
46CC
  8
WAKUSEN-01
 10
868.00000000000193
 20
827.99999999999955
 30
0.0
 11
868.00000000000193
 21
22484.000000000011
 31
0.0
  0
LINE
  5
46CD
  8
WAKUSEN-01
 10
32764.000000000011
 20
827.99999999999943
 30
0.0
 11
32764.000000000011
 21
22484.000000000011
 31
0.0
  0
LINE
  5
46CE
  8
WAKUSEN-01
 10
20560.0
 20
827.99999999999716
 30
0.0
 11
20560.0
 21
2484.0
 31
0.0
  0
LINE
  5
46CF
  8
WAKUSEN-02
 10
26868.0
 20
827.99999999999261
 30
0.0
 11
26868.0
 21
2484.0
 31
0.0
  0
ENDSEC
  0
EOF
