  0
SECTION
  2
HEADER
  9
$ACADVER
  1
AC1009
  9
$INSBASE
 10
0.0
 20
0.0
 30
0.0
  9
$EXTMIN
 10
867.99324330406671
 20
327.38164749855792
 30
-0.000000000000013
  9
$EXTMAX
 10
32765.33210850941
 20
22484.553276491992
 30
0.0000000000000023
  9
$LIMMIN
 10
0.0
 20
0.0
  9
$LIMMAX
 10
33600.0
 20
23760.0
  9
$ORTHOMODE
 70
     1
  9
$REGENMODE
 70
     1
  9
$FILLMODE
 70
     1
  9
$QTEXTMODE
 70
     0
  9
$MIRRTEXT
 70
     1
  9
$DRAGMODE
 70
     2
  9
$LTSCALE
 40
80.0
  9
$OSMODE
 70
  3071
  9
$ATTMODE
 70
     1
  9
$TEXTSIZE
 40
0.2
  9
$TRACEWID
 40
0.05
  9
$TEXTSTYLE
  7
00
  9
$CLAYER
  8
0
  9
$CELTYPE
  6
BYLAYER
  9
$CECOLOR
 62
   256
  9
$DIMSCALE
 40
80.0
  9
$DIMASZ
 40
3.0
  9
$DIMEXO
 40
1.0
  9
$DIMDLI
 40
0.38
  9
$DIMRND
 40
0.5
  9
$DIMDLE
 40
0.0
  9
$DIMEXE
 40
1.0
  9
$DIMTP
 40
0.0
  9
$DIMTM
 40
0.0
  9
$DIMTXT
 40
2.0
  9
$DIMCEN
 40
0.09
  9
$DIMTSZ
 40
0.0
  9
$DIMTOL
 70
     0
  9
$DIMLIM
 70
     0
  9
$DIMTIH
 70
     0
  9
$DIMTOH
 70
     0
  9
$DIMSE1
 70
     0
  9
$DIMSE2
 70
     0
  9
$DIMTAD
 70
     1
  9
$DIMZIN
 70
     8
  9
$DIMBLK
  1
DOTSMALL
  9
$DIMASO
 70
     1
  9
$DIMSHO
 70
     1
  9
$DIMPOST
  1

  9
$DIMAPOST
  1

  9
$DIMALT
 70
     0
  9
$DIMALTD
 70
     2
  9
$DIMALTF
 40
25.399999999999999
  9
$DIMLFAC
 40
1.0
  9
$DIMTOFL
 70
     1
  9
$DIMTVP
 40
0.0
  9
$DIMTIX
 70
     0
  9
$DIMSOXD
 70
     0
  9
$DIMSAH
 70
     0
  9
$DIMBLK1
  1

  9
$DIMBLK2
  1

  9
$DIMSTYLE
  2
SUNPOU
  9
$DIMCLRD
 70
     4
  9
$DIMCLRE
 70
     4
  9
$DIMCLRT
 70
     7
  9
$DIMTFAC
 40
1.0
  9
$DIMGAP
 40
1.0
  9
$LUNITS
 70
     2
  9
$LUPREC
 70
     4
  9
$SKETCHINC
 40
0.1
  9
$FILLETRAD
 40
0.0
  9
$AUNITS
 70
     0
  9
$AUPREC
 70
     0
  9
$MENU
  1
acad
  9
$ELEVATION
 40
0.0
  9
$PELEVATION
 40
0.0
  9
$THICKNESS
 40
0.0
  9
$LIMCHECK
 70
     0
  9
$BLIPMODE
 70
     1
  9
$CHAMFERA
 40
0.0
  9
$CHAMFERB
 40
0.0
  9
$SKPOLY
 70
     0
  9
$TDCREATE
 40
2454570.9542431599
  9
$TDUPDATE
 40
2458942.4370390978
  9
$TDINDWG
 40
0.0606059028
  9
$TDUSRTIMER
 40
0.0606037384
  9
$USRTIMER
 70
     1
  9
$ANGBASE
 50
0.0
  9
$ANGDIR
 70
     0
  9
$PDMODE
 70
     0
  9
$PDSIZE
 40
0.0
  9
$PLINEWID
 40
0.0
  9
$COORDS
 70
     1
  9
$SPLFRAME
 70
     0
  9
$SPLINETYPE
 70
     6
  9
$SPLINESEGS
 70
     8
  9
$ATTDIA
 70
     1
  9
$ATTREQ
 70
     1
  9
$HANDLING
 70
     1
  9
$HANDSEED
  5
3EF0
  9
$SURFTAB1
 70
     6
  9
$SURFTAB2
 70
     6
  9
$SURFTYPE
 70
     6
  9
$SURFU
 70
     6
  9
$SURFV
 70
     6
  9
$UCSNAME
  2

  9
$UCSORG
 10
0.0
 20
0.0
 30
0.0
  9
$UCSXDIR
 10
1.0
 20
0.0
 30
0.0
  9
$UCSYDIR
 10
0.0
 20
1.0
 30
0.0
  9
$PUCSNAME
  2

  9
$PUCSORG
 10
0.0
 20
0.0
 30
0.0
  9
$PUCSXDIR
 10
1.0
 20
0.0
 30
0.0
  9
$PUCSYDIR
 10
0.0
 20
1.0
 30
0.0
  9
$USERI1
 70
     0
  9
$USERI2
 70
     0
  9
$USERI3
 70
     0
  9
$USERI4
 70
     0
  9
$USERI5
 70
     0
  9
$USERR1
 40
0.0
  9
$USERR2
 40
0.0
  9
$USERR3
 40
0.0
  9
$USERR4
 40
0.0
  9
$USERR5
 40
0.0
  9
$WORLDVIEW
 70
     1
  9
$SHADEDGE
 70
     3
  9
$SHADEDIF
 70
    70
  9
$TILEMODE
 70
     1
  9
$MAXACTVP
 70
    16
  9
$PLIMCHECK
 70
     0
  9
$PEXTMIN
 10
1.0000000000000000E+020
 20
1.0000000000000000E+020
 30
1.0000000000000000E+020
  9
$PEXTMAX
 10
-1.0000000000000000E+020
 20
-1.0000000000000000E+020
 30
-1.0000000000000000E+020
  9
$PLIMMIN
 10
0.0
 20
0.0
  9
$PLIMMAX
 10
12.0
 20
9.0
  9
$UNITMODE
 70
     0
  9
$VISRETAIN
 70
     0
  9
$PLINEGEN
 70
     1
  9
$PSLTSCALE
 70
     0
  0
ENDSEC
  0
SECTION
  2
TABLES
  0
TABLE
  2
VPORT
 70
     1
  0
VPORT
  2
*ACTIVE
 70
     0
 10
0.0
 20
0.0
 11
1.0
 21
1.0
 12
16800.0
 22
11880.0
 13
0.0
 23
0.0
 14
1.0
 24
1.0
 15
0.0
 25
0.0
 16
0.0
 26
0.0
 36
1.0
 17
0.0
 27
0.0
 37
0.0
 40
23981.023255813951
 41
2.195652173913043
 42
50.0
 43
0.0
 44
0.0
 50
0.0
 51
0.0
 71
     0
 72
 10000
 73
     1
 74
     1
 75
     0
 76
     0
 77
     0
 78
     0
  0
ENDTAB
  0
TABLE
  2
LTYPE
 70
     3
  0
LTYPE
  2
CONTINUOUS
 70
     0
  3
Solid line
 72
    65
 73
     0
 40
0.0
  0
LTYPE
  2
DASHED3
 70
     0
  3
------  ------  ------  ------  
 72
    65
 73
     2
 40
5.0
 49
3.75
 49
-1.25
  0
LTYPE
  2
CENTER2
 70
     0
  3
----------  --  ----------  --  
 72
    65
 73
     4
 40
20.0
 49
12.5
 49
-2.5
 49
2.5
 49
-2.5
  0
ENDTAB
  0
TABLE
  2
LAYER
 70
    16
  0
LAYER
  2
0
 70
     0
 62
     7
  6
CONTINUOUS
  0
LAYER
  2
SUNPOU
 70
     0
 62
     4
  6
CONTINUOUS
  0
LAYER
  2
0-1
 70
     0
 62
     7
  6
CONTINUOUS
  0
LAYER
  2
0-2
 70
     0
 62
     7
  6
CONTINUOUS
  0
LAYER
  2
0-5
 70
     0
 62
     7
  6
CONTINUOUS
  0
LAYER
  2
0-6
 70
     0
 62
     7
  6
CONTINUOUS
  0
LAYER
  2
2-0
 70
     0
 62
     7
  6
CONTINUOUS
  0
LAYER
  2
YODOROGO
 70
     0
 62
   130
  6
CONTINUOUS
  0
LAYER
  2
WAKUSEN-01
 70
     0
 62
    50
  6
CONTINUOUS
  0
LAYER
  2
WAKUSEN-02
 70
     0
 62
   130
  6
CONTINUOUS
  0
LAYER
  2
WAKUMOJI-01
 70
     0
 62
   130
  6
CONTINUOUS
  0
LAYER
  2
FILENAME
 70
     0
 62
     7
  6
CONTINUOUS
  0
LAYER
  2
NAME
 70
     0
 62
    20
  6
CONTINUOUS
  0
LAYER
  2
0-4
 70
     0
 62
     7
  6
CONTINUOUS
  0
ENDTAB
  0
TABLE
  2
STYLE
 70
     5
  0
STYLE
  2
STANDARD
 70
     0
 40
0.0
 41
1.0
 50
0.0
 71
     0
 42
0.0
  3
txt
  4
BIGFONT
  0
STYLE
  2
00
 70
     0
 40
0.0
 41
0.6666666666666666
 50
0.0
 71
     0
 42
0.2
  3
ROMANS
  4
BIGFONT
  0
STYLE
  2
01
 70
     0
 40
3.0
 41
1.0
 50
0.0
 71
     0
 42
0.2
  3
ROMANS
  4
BIGFONT
  0
STYLE
  2
WAKUMOJI
 70
     0
 40
3.0
 41
1.0
 50
0.0
 71
     0
 42
3.0
  3
SIMPLEX
  4
BIGFONT
  0
STYLE
  2
FILENAME
 70
     0
 40
200.0
 41
1.0
 50
0.0
 71
     0
 42
200.0
  3
romans
  4
bigfont
  0
ENDTAB
  0
TABLE
  2
VIEW
 70
     0
  0
ENDTAB
  0
TABLE
  2
UCS
 70
     0
  0
ENDTAB
  0
TABLE
  2
APPID
 70
    13
  0
APPID
  2
ACAD
 70
     0
  0
APPID
  2
ACADANNOTATIVE
 70
     0
  0
APPID
  2
ACAD_PSEXT
 70
     0
  0
APPID
  2
DCO15
 70
     0
  0
APPID
  2
ACAD_MLEADERVER
 70
     0
  0
APPID
  2
AUTOCAD_POSTSCRIPT_FIGURE
 70
     0
  0
APPID
  2
ACAD_EXEMPT_FROM_CAD_STANDARDS
 70
     0
  0
APPID
  2
ACAD_DSTYLE_DIMJAG
 70
     0
  0
APPID
  2
ACAD_DSTYLE_DIMTALN
 70
     0
  0
APPID
  2
ACAD_DSTYLE_DIM_LINETYPE
 70
     0
  0
APPID
  2
ACAD_DSTYLE_DIM_EXT1_LINETYPE
 70
     0
  0
APPID
  2
ACAD_DSTYLE_DIM_EXT2_LINETYPE
 70
     0
  0
APPID
  2
ACAD_NAV_VCDISPLAY
 70
     0
  0
ENDTAB
  0
TABLE
  2
DIMSTYLE
 70
     2
  0
DIMSTYLE
  2
SUNPOU
 70
     0
  3

  4

  5

  6

  7

 40
80.0
 41
3.0
 42
1.0
 43
0.38
 44
1.0
 45
0.5
 46
0.0
 47
0.0
 48
0.0
140
2.0
141
0.09
142
0.0
143
25.399999999999999
144
1.0
145
0.0
146
1.0
147
1.0
 71
     0
 72
     0
 73
     0
 74
     0
 75
     0
 76
     0
 77
     1
 78
     8
170
     0
171
     2
172
     1
173
     0
174
     0
175
     0
176
     4
177
     4
178
     7
  0
ENDTAB
  0
ENDSEC
  0
SECTION
  2
BLOCKS
  0
BLOCK
  8
0
  2
$MODEL_SPACE
 70
     0
 10
0.0
 20
0.0
 30
0.0
  3
$MODEL_SPACE
  1

  0
ENDBLK
  5
34B9
  8
0
  0
BLOCK
 67
     1
  8
0
  2
$PAPER_SPACE
 70
     0
 10
0.0
 20
0.0
 30
0.0
  3
$PAPER_SPACE
  1

  0
ENDBLK
  5
34B5
 67
     1
  8
0
  0
BLOCK
  8
0
  2
_DOTSMALL
 70
     0
 10
0.0
 20
0.0
 30
0.0
  3
_DOTSMALL
  1

  0
POLYLINE
  5
34E7
  8
0
  6
BYBLOCK
 62
     0
 66
     1
 10
0.0
 20
0.0
 30
0.0
 70
     1
 40
0.5
 41
0.5
  0
VERTEX
  5
3EB8
  8
0
  6
BYBLOCK
 62
     0
 10
-0.0625
 20
0.0
 30
0.0
 42
1.0
  0
VERTEX
  5
3EB9
  8
0
  6
BYBLOCK
 62
     0
 10
0.0625
 20
0.0
 30
0.0
 42
1.0
  0
SEQEND
  5
3EBA
  8
0
  6
BYBLOCK
 62
     0
  0
ENDBLK
  5
34EB
  8
0
  0
ENDSEC
  0
SECTION
  2
ENTITIES
  0
LINE
  5
34EC
  8
0-1
  6
CONTINUOUS
 62
     3
 10
14352.59531999998
 20
13671.985894999991
 30
0.0
 11
14352.59531999998
 21
19870.982161000022
 31
0.0
  0
LINE
  5
34ED
  8
0-1
  6
CONTINUOUS
 62
     3
 10
11534.600518999991
 20
13671.985894999991
 30
0.0
 11
11534.600518999991
 21
19870.982161000022
 31
0.0
  0
LINE
  5
34EE
  8
0-1
  6
CONTINUOUS
 62
     3
 10
11399.09950299999
 20
13639.985988
 30
0.0
 11
11399.09950299999
 21
19880.98559199999
 31
0.0
  0
LINE
  5
34EF
  8
0-1
  6
CONTINUOUS
 62
     3
 10
14488.096335999981
 20
13639.985988
 30
0.0
 11
14488.096335999981
 21
19880.98559199999
 31
0.0
  0
LINE
  5
34F0
  8
0-1
  6
CONTINUOUS
 62
     3
 10
11484.59791999998
 20
13795.98590899999
 30
0.0
 11
11484.59791999998
 21
19329.745093000001
 31
0.0
  0
LINE
  5
34F1
  8
0-1
  6
CONTINUOUS
 62
     3
 10
11442.10062499999
 20
13795.98590899999
 30
0.0
 11
11442.10062499999
 21
19365.350693999979
 31
0.0
  0
LINE
  5
34F2
  8
0-1
  6
CONTINUOUS
 62
     3
 10
12430.096731999971
 20
18545.996280999989
 30
0.0
 11
12430.096731999971
 21
19870.982161000011
 31
0.0
  0
LINE
  5
34F3
  8
0-1
  6
CONTINUOUS
 62
     3
 10
12467.09591399999
 20
18515.000978999989
 30
0.0
 11
12467.09591399999
 21
19870.982161000022
 31
0.0
  0
LINE
  5
34F4
  8
0-1
  6
CONTINUOUS
 62
     3
 10
12630.097391999991
 20
18382.470442999991
 30
0.0
 11
12630.097391999991
 21
19870.982161000022
 31
0.0
  0
LINE
  5
34F5
  8
0-1
  6
CONTINUOUS
 62
     3
 10
13030.096731999991
 20
18000.935839999991
 30
0.0
 11
13030.096731999991
 21
19870.982161000022
 31
0.0
  0
LINE
  5
34F6
  8
0-1
  6
CONTINUOUS
 62
     3
 10
13067.09591399999
 20
17913.652926999988
 30
0.0
 11
13067.09591399999
 21
19870.982161000022
 31
0.0
  0
LINE
  5
34F7
  8
0-1
  6
CONTINUOUS
 62
     3
 10
13230.097391999991
 20
17549.957957999999
 30
0.0
 11
13230.097391999991
 21
19870.982161000011
 31
0.0
  0
LINE
  5
34F8
  8
0-1
  6
CONTINUOUS
 62
     3
 10
13267.097563999991
 20
17593.337127999981
 30
0.0
 11
13267.097563999991
 21
19870.982161000011
 31
0.0
  0
LINE
  5
34F9
  8
0-1
  6
CONTINUOUS
 62
     3
 10
13430.09607199998
 20
17708.21255
 30
0.0
 11
13430.09607199998
 21
19870.982161000022
 31
0.0
  0
LINE
  5
34FA
  8
0-1
  6
CONTINUOUS
 62
     3
 10
13467.098222999981
 20
17677.213288999988
 30
0.0
 11
13467.098222999981
 21
19870.982161000022
 31
0.0
  0
LINE
  5
34FB
  8
0-1
  6
CONTINUOUS
 62
     3
 10
13630.09673199998
 20
17540.65422
 30
0.0
 11
13630.09673199998
 21
19870.982161000011
 31
0.0
  0
LINE
  5
34FC
  8
0-1
  6
CONTINUOUS
 62
     3
 10
13667.096903999991
 20
17509.65693899999
 30
0.0
 11
13667.096903999991
 21
19870.982161000022
 31
0.0
  0
LINE
  5
34FD
  8
0-1
  6
CONTINUOUS
 62
     3
 10
13830.09739199998
 20
17373.097870000001
 30
0.0
 11
13830.09739199998
 21
19870.982161000022
 31
0.0
  0
LINE
  5
34FE
  8
0-1
  6
CONTINUOUS
 62
     3
 10
13867.097563999991
 20
17342.100588000001
 30
0.0
 11
13867.097563999991
 21
19870.982161000022
 31
0.0
  0
LINE
  5
34FF
  8
0-1
  6
CONTINUOUS
 62
     3
 10
14030.096071999969
 20
17205.541519999999
 30
0.0
 11
14030.096071999969
 21
19870.982161000022
 31
0.0
  0
LINE
  5
3500
  8
0-1
  6
CONTINUOUS
 62
     3
 10
14067.098222999981
 20
17174.542259000002
 30
0.0
 11
14067.098222999981
 21
19870.982161000022
 31
0.0
  0
LINE
  5
3501
  8
0-1
  6
CONTINUOUS
 62
     3
 10
14230.09673199998
 20
17037.983189999992
 30
0.0
 11
14230.09673199998
 21
19870.982161000022
 31
0.0
  0
LINE
  5
3502
  8
0-1
  6
CONTINUOUS
 62
     3
 10
14267.096903999991
 20
16996.98580300001
 30
0.0
 11
14267.096903999991
 21
19870.982161000011
 31
0.0
  0
LINE
  5
3503
  8
0-1
  6
CONTINUOUS
 62
     3
 10
12667.097563999991
 20
18425.847633000001
 30
0.0
 11
12667.097563999991
 21
19870.982161000022
 31
0.0
  0
LINE
  5
3504
  8
0-1
  6
CONTINUOUS
 62
     3
 10
12830.09607199998
 20
18472.734297999988
 30
0.0
 11
12830.09607199998
 21
19870.982161000011
 31
0.0
  0
LINE
  5
3505
  8
0-1
  6
CONTINUOUS
 62
     3
 10
12867.098222999981
 20
18380.453312999991
 30
0.0
 11
12867.098222999981
 21
19870.982161000011
 31
0.0
  0
LINE
  5
3506
  8
0-1
  6
CONTINUOUS
 62
     3
 10
12625.606853999971
 20
18377.202943999979
 30
0.0
 11
11144.39884599998
 21
19614.758158000001
 31
0.0
  0
LINE
  5
3507
  8
0-1
  6
CONTINUOUS
 62
     3
 10
12339.76733999998
 20
18621.675255999991
 30
0.0
 11
11554.59963499998
 21
18209.486251999992
 31
0.0
  0
LINE
  5
3508
  8
0-1
  6
CONTINUOUS
 62
     3
 10
11554.59963499998
 20
15291.72676350001
 30
0.0
 11
14332.59620399999
 21
13832.486252000001
 31
0.0
  0
LINE
  5
3509
  8
0-1
  6
CONTINUOUS
 62
     3
 10
14332.59620399999
 20
15291.72676350001
 30
0.0
 11
11537.600518999991
 21
13832.486252000001
 31
0.0
  0
LINE
  5
350A
  8
0-1
  6
CONTINUOUS
 62
     3
 10
14402.59791999998
 20
13795.98590899999
 30
0.0
 11
14402.59791999998
 21
16883.46635100001
 31
0.0
  0
LINE
  5
350B
  8
0-1
  6
CONTINUOUS
 62
     3
 10
14445.097193999991
 20
13795.98590899999
 30
0.0
 11
14445.097193999991
 21
16847.860751
 31
0.0
  0
LINE
  5
350C
  8
0-1
  6
CONTINUOUS
 62
     3
 10
11442.10062499999
 20
13795.98590899999
 30
0.0
 11
14445.097193999991
 21
13795.98590899999
 31
0.0
  0
LINE
  5
350D
  8
0-1
  6
CONTINUOUS
 62
     3
 10
11484.59791999998
 20
13874.986515999981
 30
0.0
 11
14402.59791999998
 21
13874.986515999981
 31
0.0
  0
LINE
  5
350E
  8
0-1
  6
CONTINUOUS
 62
     3
 10
11399.09950299999
 20
13639.985988
 30
0.0
 11
14488.096335999981
 21
13639.985987999989
 31
0.0
  0
LINE
  5
350F
  8
0-1
  6
CONTINUOUS
 62
     3
 10
11399.09950299999
 20
13671.985894999991
 30
0.0
 11
14488.096335999981
 21
13671.985894999991
 31
0.0
  0
LINE
  5
3510
  8
0-1
  6
CONTINUOUS
 62
     3
 10
11484.59791999998
 20
16705.48585600001
 30
0.0
 11
14402.59791999998
 21
16705.48585600001
 31
0.0
  0
LINE
  5
3511
  8
0-1
  6
CONTINUOUS
 62
     3
 10
11484.59791999998
 20
15336.7271595
 30
0.0
 11
14402.59791999998
 21
15336.7271595
 31
0.0
  0
LINE
  5
3512
  8
0-1
  6
CONTINUOUS
 62
     3
 10
11484.59791999998
 20
15246.727357499991
 30
0.0
 11
14402.59791999998
 21
15246.727357499991
 31
0.0
  0
LINE
  5
3513
  8
0-1
  6
CONTINUOUS
 62
     3
 10
11484.59791999998
 20
16795.486647999991
 30
0.0
 11
14402.59791999998
 21
16795.486647999991
 31
0.0
  0
LINE
  5
3514
  8
0-1
  6
CONTINUOUS
 62
     3
 10
11498.73861099999
 20
18254.486647999991
 30
0.0
 11
12920.494746999981
 21
18254.486647999991
 31
0.0
  0
LINE
  5
3515
  8
0-1
  6
CONTINUOUS
 62
     3
 10
11498.73861099999
 20
18164.485855999999
 30
0.0
 11
12958.64501899999
 21
18164.485855999999
 31
0.0
  0
LINE
  5
3516
  8
0-1
  6
CONTINUOUS
 62
     3
 10
11554.59963499998
 20
16750.486251999992
 30
0.0
 11
14332.59620399999
 21
15291.72676350001
 31
0.0
  0
LINE
  5
3517
  8
0-1
  6
CONTINUOUS
 62
     3
 10
14332.59620399999
 20
16750.486251999992
 30
0.0
 11
11554.59963499998
 21
15291.72676350001
 31
0.0
  0
LINE
  5
3518
  8
0-1
  6
CONTINUOUS
 62
     3
 10
11554.59963499998
 20
18209.486251999992
 30
0.0
 11
14332.59620399999
 21
16750.486251999992
 31
0.0
  0
LINE
  5
3519
  8
0-1
  6
CONTINUOUS
 62
     3
 10
13193.27141799998
 20
17616.01053399999
 30
0.0
 11
11554.59963499998
 21
16750.486251999992
 31
0.0
  0
LINE
  5
351A
  8
0-1
  6
CONTINUOUS
 62
     3
 10
14738.42126799998
 20
16602.117375000002
 30
0.0
 11
13392.17542499999
 21
17739.981844000002
 31
0.0
  0
LINE
  5
351B
  8
0-1
  6
CONTINUOUS
 62
     3
 10
13224.20139599998
 20
17543.045479
 30
0.0
 11
13392.17542499999
 21
17739.981844000002
 31
0.0
  0
LINE
  5
351C
  8
0-1
  6
CONTINUOUS
 62
     3
 10
13224.20139599998
 20
17543.045479
 30
0.0
 11
12787.844237999991
 21
18572.410977
 31
0.0
  0
LINE
  5
351D
  8
0-1
  6
CONTINUOUS
 62
     3
 10
12625.606853999971
 20
18377.202943999979
 30
0.0
 11
12787.844237999991
 21
18572.410977
 31
0.0
  0
LINE
  5
351E
  8
0-1
  6
CONTINUOUS
 62
     3
 10
11867.09591399999
 20
19017.67002999999
 30
0.0
 11
11867.09591399999
 21
19870.982161000022
 31
0.0
  0
LINE
  5
351F
  8
0-1
  6
CONTINUOUS
 62
     3
 10
11830.096731999991
 20
19048.66731099999
 30
0.0
 11
11830.096731999991
 21
19870.982161000022
 31
0.0
  0
LINE
  5
3520
  8
0-1
  6
CONTINUOUS
 62
     3
 10
11618.097642999999
 20
19217.900313999999
 30
0.0
 11
11618.097642999999
 21
19870.982161000022
 31
0.0
  0
LINE
  5
3521
  8
0-1
  6
CONTINUOUS
 62
     3
 10
11655.09682399998
 20
19186.903032999999
 30
0.0
 11
11655.09682399998
 21
19870.982161000011
 31
0.0
  0
LINE
  5
3522
  8
0-1
  6
CONTINUOUS
 62
     3
 10
12030.097391999991
 20
18881.110960999991
 30
0.0
 11
12030.097391999991
 21
19870.982161000022
 31
0.0
  0
LINE
  5
3523
  8
0-1
  6
CONTINUOUS
 62
     3
 10
12067.096573999979
 20
18850.113679999991
 30
0.0
 11
12067.096573999979
 21
19870.982161000022
 31
0.0
  0
LINE
  5
3524
  8
0-1
  6
CONTINUOUS
 62
     3
 10
12230.09607199998
 20
18713.554611
 30
0.0
 11
12230.09607199998
 21
19870.982161000022
 31
0.0
  0
LINE
  5
3525
  8
0-1
  6
CONTINUOUS
 62
     3
 10
12267.09822299999
 20
18682.557328999988
 30
0.0
 11
12267.09822299999
 21
19870.982161000011
 31
0.0
  0
LINE
  5
3526
  8
0-1
  6
CONTINUOUS
 62
     3
 10
11417.09827599999
 20
19383.781992
 30
0.0
 11
11417.09827599999
 21
19873.487174999991
 31
0.0
  0
LINE
  5
3527
  8
0-1
  6
CONTINUOUS
 62
     3
 10
14470.097563999991
 20
16829.429453000012
 30
0.0
 11
14470.097563999991
 21
19873.487174999991
 31
0.0
  0
LINE
  5
3528
  8
0-1
  6
CONTINUOUS
 62
     3
 10
11417.09827599999
 20
19850.985988
 30
0.0
 11
11467.597773999991
 21
19850.985988
 31
0.0
  0
LINE
  5
3529
  8
0-1
  6
CONTINUOUS
 62
     3
 10
11417.09827599999
 20
19873.487174999991
 30
0.0
 11
11399.09950299999
 21
19873.487174999991
 31
0.0
  0
LINE
  5
352A
  8
0-1
  6
CONTINUOUS
 62
     3
 10
11467.597773999991
 20
19890.986120000001
 30
0.0
 11
11404.09679799998
 21
19890.986120000001
 31
0.0
  0
LINE
  5
352B
  8
0-1
  6
CONTINUOUS
 62
     3
 10
11399.09950299999
 20
19885.985855999988
 30
0.0
 11
11399.09950299999
 21
19850.985988
 31
0.0
  0
LINE
  5
352C
  8
0-1
  6
CONTINUOUS
 62
     3
 10
11472.598038
 20
19855.986251999992
 30
0.0
 11
11472.598038
 21
19885.985855999988
 31
0.0
  0
LINE
  5
352D
  8
0-1
  6
CONTINUOUS
 62
     3
 10
11475.598038
 20
19870.982161000022
 30
0.0
 11
14414.597800999991
 21
19870.982161000022
 31
0.0
  0
LINE
  5
352E
  8
0-1
  6
CONTINUOUS
 62
     3
 10
14419.59806499998
 20
19890.986120000001
 30
0.0
 11
14483.09607199998
 21
19890.986120000001
 31
0.0
  0
LINE
  5
352F
  8
0-1
  6
CONTINUOUS
 62
     3
 10
14470.097563999991
 20
19850.985988
 30
0.0
 11
14419.59806499998
 21
19850.985988
 31
0.0
  0
LINE
  5
3530
  8
0-1
  6
CONTINUOUS
 62
     3
 10
14414.597800999991
 20
19855.986251999992
 30
0.0
 11
14414.597800999991
 21
19885.985855999988
 31
0.0
  0
LINE
  5
3531
  8
0-1
  6
CONTINUOUS
 62
     3
 10
14488.096335999981
 20
19885.985855999988
 30
0.0
 11
14488.096335999981
 21
19850.985988
 31
0.0
  0
LINE
  5
3532
  8
0-1
  6
CONTINUOUS
 62
     3
 10
14470.097563999991
 20
19873.487174999991
 30
0.0
 11
14488.096335999981
 21
19873.487174999991
 31
0.0
  0
LINE
  5
3533
  8
0-6
  6
CONTINUOUS
 62
     6
 10
9640.4650480000018
 20
12349.986186
 30
0.0
 11
10720.46613599999
 21
12349.986186
 31
0.0
  0
LINE
  5
3534
  8
0-6
  6
CONTINUOUS
 62
     6
 10
13908.421992999991
 20
18305.847237000002
 30
0.0
 11
14906.832769999981
 21
18708.576121999999
 31
0.0
  0
LINE
  5
3535
  8
0-6
  6
CONTINUOUS
 62
     6
 10
14906.832769999981
 20
17254.578153999992
 30
0.0
 11
16901.27692099999
 21
17254.578153999992
 31
0.0
  0
LINE
  5
3536
  8
0-6
  6
CONTINUOUS
 62
     6
 10
14906.832769999981
 20
15767.908231999991
 30
0.0
 11
15786.833693999981
 21
15767.908231999991
 31
0.0
  0
LINE
  5
3537
  8
0-6
  6
CONTINUOUS
 62
     6
 10
14906.832769999981
 20
14745.556167999979
 30
0.0
 11
16901.27692099999
 21
14745.556167999979
 31
0.0
  0
LINE
  5
3538
  8
0-6
  6
CONTINUOUS
 62
     6
 10
13905.98718599998
 20
15188.669066500021
 30
0.0
 11
14906.832769999981
 21
14745.556167999979
 31
0.0
  0
LINE
  5
3539
  8
0-6
  6
CONTINUOUS
 62
     6
 10
12469.980071999969
 20
14026.875966
 30
0.0
 11
12517.28165899998
 21
14147.854388999989
 31
0.0
  0
LINE
  5
353A
  8
0-6
  6
CONTINUOUS
 62
     6
 10
12445.829945999971
 20
14038.189904999999
 30
0.0
 11
12402.106338999991
 21
13881.986093
 31
0.0
  0
LINE
  5
353B
  8
0-6
  6
CONTINUOUS
 62
     6
 10
12402.106338999991
 20
13881.986093
 30
0.0
 11
12494.126239999991
 21
14015.56499699999
 31
0.0
  0
LINE
  5
353C
  8
0-6
  6
CONTINUOUS
 62
     6
 10
12402.106338999991
 20
13881.986093
 30
0.0
 11
12445.829945999971
 21
14038.189904999999
 31
0.0
  0
LINE
  5
353D
  8
0-6
  6
CONTINUOUS
 62
     6
 10
12445.829945999971
 20
14038.189904999999
 30
0.0
 11
12494.126239999991
 21
14015.56499699999
 31
0.0
  0
LINE
  5
353E
  8
0-6
  6
CONTINUOUS
 62
     6
 10
12494.126239999991
 20
14015.56499699999
 30
0.0
 11
12402.106338999991
 21
13881.986093
 31
0.0
  0
LINE
  5
353F
  8
0-6
  6
CONTINUOUS
 62
     6
 10
12494.126239999991
 20
14015.56499699999
 30
0.0
 11
12445.829945999971
 21
14038.189904999999
 31
0.0
  0
LINE
  5
3540
  8
0-6
  6
CONTINUOUS
 62
     6
 10
11307.20435199999
 20
14240.258316999991
 30
0.0
 11
10720.46613599999
 21
12349.986186
 31
0.0
  0
LINE
  5
3541
  8
0-6
  6
CONTINUOUS
 62
     6
 10
11332.65007299999
 20
14232.27788699998
 30
0.0
 11
11355.09682399998
 21
14392.922748999999
 31
0.0
  0
LINE
  5
3542
  8
0-6
  6
CONTINUOUS
 62
     6
 10
11355.09682399998
 20
14392.922748999999
 30
0.0
 11
11281.76159899999
 21
14248.240725
 31
0.0
  0
LINE
  5
3543
  8
0-6
  6
CONTINUOUS
 62
     6
 10
11355.09682399998
 20
14392.922748999999
 30
0.0
 11
11332.65007299999
 21
14232.27788699998
 31
0.0
  0
LINE
  5
3544
  8
0-6
  6
CONTINUOUS
 62
     6
 10
11332.65007299999
 20
14232.27788699998
 30
0.0
 11
11281.76159899999
 21
14248.240725
 31
0.0
  0
LINE
  5
3545
  8
0-6
  6
CONTINUOUS
 62
     6
 10
11281.76159899999
 20
14248.240725
 30
0.0
 11
11355.09682399998
 21
14392.922748999999
 31
0.0
  0
LINE
  5
3546
  8
0-6
  6
CONTINUOUS
 62
     6
 10
11281.76159899999
 20
14248.240725
 30
0.0
 11
11332.65007299999
 21
14232.27788699998
 31
0.0
  0
LINE
  5
3547
  8
0-6
  6
CONTINUOUS
 62
     6
 10
13054.27655199999
 20
13503.517977
 30
0.0
 11
13460.390624999991
 21
12839.986317999999
 31
0.0
  0
LINE
  5
3548
  8
0-6
  6
CONTINUOUS
 62
     6
 10
13460.390624999991
 20
12839.986317999999
 30
0.0
 11
14322.97079499999
 21
12839.986317999999
 31
0.0
  0
LINE
  5
3549
  8
0-6
  6
CONTINUOUS
 62
     6
 10
13077.02121999999
 20
13517.438941
 30
0.0
 11
12970.753733999991
 21
13639.985988
 31
0.0
  0
LINE
  5
354A
  8
0-6
  6
CONTINUOUS
 62
     6
 10
12970.753733999991
 20
13639.985988
 30
0.0
 11
13031.53287299998
 21
13489.597012
 31
0.0
  0
LINE
  5
354B
  8
0-6
  6
CONTINUOUS
 62
     6
 10
12970.753733999991
 20
13639.985988
 30
0.0
 11
13077.02121999999
 21
13517.438941
 31
0.0
  0
LINE
  5
354C
  8
0-6
  6
CONTINUOUS
 62
     6
 10
13077.02121999999
 20
13517.438941
 30
0.0
 11
13031.53287299998
 21
13489.597012
 31
0.0
  0
LINE
  5
354D
  8
0-6
  6
CONTINUOUS
 62
     6
 10
13031.53287299998
 20
13489.597012
 30
0.0
 11
12970.753733999991
 21
13639.985988
 31
0.0
  0
LINE
  5
354E
  8
0-6
  6
CONTINUOUS
 62
     6
 10
13031.53287299998
 20
13489.597012
 30
0.0
 11
13077.02121999999
 21
13517.438941
 31
0.0
  0
LINE
  5
354F
  8
0-6
  6
CONTINUOUS
 62
     6
 10
12517.28165899998
 20
14147.854388999989
 30
0.0
 11
13317.280338999981
 21
14147.854388999989
 31
0.0
  0
LINE
  5
3550
  8
0-6
  6
CONTINUOUS
 62
     6
 10
11574.415606
 20
17566.716561999991
 30
0.0
 11
11484.59791999998
 21
17701.787033000001
 31
0.0
  0
LINE
  5
3551
  8
0-6
  6
CONTINUOUS
 62
     6
 10
11484.59791999998
 20
17701.787033000001
 30
0.0
 11
11525.752110999991
 21
17544.886430999999
 31
0.0
  0
LINE
  5
3552
  8
0-6
  6
CONTINUOUS
 62
     6
 10
11484.59791999998
 20
17701.787033000001
 30
0.0
 11
11574.415606
 21
17566.716561999991
 31
0.0
  0
LINE
  5
3553
  8
0-6
  6
CONTINUOUS
 62
     6
 10
11574.415606
 20
17566.716561999991
 30
0.0
 11
11525.752110999991
 21
17544.886430999999
 31
0.0
  0
LINE
  5
3554
  8
0-6
  6
CONTINUOUS
 62
     6
 10
11525.752110999991
 20
17544.886430999999
 30
0.0
 11
11484.59791999998
 21
17701.787033000001
 31
0.0
  0
LINE
  5
3555
  8
0-6
  6
CONTINUOUS
 62
     6
 10
11525.752110999991
 20
17544.886430999999
 30
0.0
 11
11574.415606
 21
17566.716561999991
 31
0.0
  0
LINE
  5
3556
  8
0-6
  6
CONTINUOUS
 62
     6
 10
11649.125606999991
 20
17335.00995299999
 30
0.0
 11
12179.12346899998
 21
17335.00995299999
 31
0.0
  0
LINE
  5
3557
  8
0-6
  6
CONTINUOUS
 62
     6
 10
11550.08336399998
 20
17555.801495999989
 30
0.0
 11
11649.125606999991
 21
17335.00995299999
 31
0.0
  0
LINE
  5
3558
  8
0-6
  6
CONTINUOUS
 62
     6
 10
13915.66505199998
 20
15213.51994350001
 30
0.0
 11
13756.893804999991
 21
15246.727357499991
 31
0.0
  0
LINE
  5
3559
  8
0-6
  6
CONTINUOUS
 62
     6
 10
13756.893804999991
 20
15246.727357499991
 30
0.0
 11
13896.31129899999
 21
15163.821160500011
 31
0.0
  0
LINE
  5
355A
  8
0-6
  6
CONTINUOUS
 62
     6
 10
13756.893804999991
 20
15246.727357499991
 30
0.0
 11
13915.66505199998
 21
15213.51994350001
 31
0.0
  0
LINE
  5
355B
  8
0-6
  6
CONTINUOUS
 62
     6
 10
13915.66505199998
 20
15213.51994350001
 30
0.0
 11
13896.31129899999
 21
15163.821160500011
 31
0.0
  0
LINE
  5
355C
  8
0-6
  6
CONTINUOUS
 62
     6
 10
13896.31129899999
 20
15163.821160500011
 30
0.0
 11
13756.893804999991
 21
15246.727357499991
 31
0.0
  0
LINE
  5
355D
  8
0-6
  6
CONTINUOUS
 62
     6
 10
13896.31129899999
 20
15163.821160500011
 30
0.0
 11
13915.66505199998
 21
15213.51994350001
 31
0.0
  0
LINE
  5
355E
  8
0-6
  6
CONTINUOUS
 62
     6
 10
14099.73058699998
 20
15414.0481445
 30
0.0
 11
14906.832769999981
 21
15767.908231999991
 31
0.0
  0
LINE
  5
355F
  8
0-6
  6
CONTINUOUS
 62
     6
 10
14235.481022999989
 20
15502.83450150001
 30
0.0
 11
14099.73058699998
 21
15414.0481445
 31
0.0
  0
LINE
  5
3560
  8
0-6
  6
CONTINUOUS
 62
     6
 10
14099.73058699998
 20
15414.0481445
 30
0.0
 11
14256.93999399998
 21
15454.00868650001
 31
0.0
  0
LINE
  5
3561
  8
0-6
  6
CONTINUOUS
 62
     6
 10
14099.73058699998
 20
15414.0481445
 30
0.0
 11
14235.481022999989
 21
15502.83450150001
 31
0.0
  0
LINE
  5
3562
  8
0-6
  6
CONTINUOUS
 62
     6
 10
14235.481022999989
 20
15502.83450150001
 30
0.0
 11
14256.93999399998
 21
15454.00868650001
 31
0.0
  0
LINE
  5
3563
  8
0-6
  6
CONTINUOUS
 62
     6
 10
14256.93999399998
 20
15454.00868650001
 30
0.0
 11
14099.73058699998
 21
15414.0481445
 31
0.0
  0
LINE
  5
3564
  8
0-6
  6
CONTINUOUS
 62
     6
 10
14256.93999399998
 20
15454.00868650001
 30
0.0
 11
14235.481022999989
 21
15502.83450150001
 31
0.0
  0
LINE
  5
3565
  8
0-6
  6
CONTINUOUS
 62
     6
 10
13899.86354499998
 20
18331.103914999989
 30
0.0
 11
13756.893804999991
 21
18254.486647999991
 31
0.0
  0
LINE
  5
3566
  8
0-6
  6
CONTINUOUS
 62
     6
 10
13756.893804999991
 20
18254.486647999991
 30
0.0
 11
13916.98341099999
 21
18280.592539000001
 31
0.0
  0
LINE
  5
3567
  8
0-6
  6
CONTINUOUS
 62
     6
 10
13756.893804999991
 20
18254.486647999991
 30
0.0
 11
13899.86354499998
 21
18331.103914999989
 31
0.0
  0
LINE
  5
3568
  8
0-6
  6
CONTINUOUS
 62
     6
 10
13899.86354499998
 20
18331.103914999989
 30
0.0
 11
13916.98341099999
 21
18280.592539000001
 31
0.0
  0
LINE
  5
3569
  8
0-6
  6
CONTINUOUS
 62
     6
 10
13916.98341099999
 20
18280.592539000001
 30
0.0
 11
13756.893804999991
 21
18254.486647999991
 31
0.0
  0
LINE
  5
356A
  8
0-6
  6
CONTINUOUS
 62
     6
 10
13916.98341099999
 20
18280.592539000001
 30
0.0
 11
13899.86354499998
 21
18331.103914999989
 31
0.0
  0
LINE
  5
356B
  8
0-6
  6
CONTINUOUS
 62
     6
 10
13899.86354499998
 20
16872.103915000011
 30
0.0
 11
13756.893804999991
 21
16795.486647999991
 31
0.0
  0
LINE
  5
356C
  8
0-6
  6
CONTINUOUS
 62
     6
 10
13756.893804999991
 20
16795.486647999991
 30
0.0
 11
13916.98341099999
 21
16821.592539000001
 31
0.0
  0
LINE
  5
356D
  8
0-6
  6
CONTINUOUS
 62
     6
 10
13756.893804999991
 20
16795.486647999991
 30
0.0
 11
13899.86354499998
 21
16872.103915000011
 31
0.0
  0
LINE
  5
356E
  8
0-6
  6
CONTINUOUS
 62
     6
 10
13899.86354499998
 20
16872.103915000011
 30
0.0
 11
13916.98341099999
 21
16821.592539000001
 31
0.0
  0
LINE
  5
356F
  8
0-6
  6
CONTINUOUS
 62
     6
 10
13916.98341099999
 20
16821.592539000001
 30
0.0
 11
13756.893804999991
 21
16795.486647999991
 31
0.0
  0
LINE
  5
3570
  8
0-6
  6
CONTINUOUS
 62
     6
 10
13916.98341099999
 20
16821.592539000001
 30
0.0
 11
13899.86354499998
 21
16872.103915000011
 31
0.0
  0
LINE
  5
3571
  8
0-6
  6
CONTINUOUS
 62
     6
 10
13908.421992999991
 20
16846.847237000002
 30
0.0
 11
14906.832769999981
 21
17254.578153999992
 31
0.0
  0
LINE
  5
3572
  8
0-6
  6
CONTINUOUS
 62
     6
 10
14906.832769999981
 20
18708.576121999999
 30
0.0
 11
16901.27692099999
 21
18708.576121999999
 31
0.0
  0
LINE
  5
3573
  8
0-6
  6
CONTINUOUS
 62
     6
 10
13079.596573999979
 20
19615.108532999991
 30
0.0
 11
13067.09591399999
 21
19453.383844
 31
0.0
  0
LINE
  5
3574
  8
0-6
  6
CONTINUOUS
 62
     6
 10
13067.09591399999
 20
19453.383844
 30
0.0
 11
13131.37286199998
 21
19602.312924999991
 31
0.0
  0
LINE
  5
3575
  8
0-6
  6
CONTINUOUS
 62
     6
 10
13067.09591399999
 20
19453.383844
 30
0.0
 11
13079.596573999979
 21
19615.108532999991
 31
0.0
  0
LINE
  5
3576
  8
0-6
  6
CONTINUOUS
 62
     6
 10
13079.596573999979
 20
19615.108532999991
 30
0.0
 11
13131.37286199998
 21
19602.312924999991
 31
0.0
  0
LINE
  5
3577
  8
0-6
  6
CONTINUOUS
 62
     6
 10
13131.37286199998
 20
19602.312924999991
 30
0.0
 11
13067.09591399999
 21
19453.383844
 31
0.0
  0
LINE
  5
3578
  8
0-6
  6
CONTINUOUS
 62
     6
 10
13131.37286199998
 20
19602.312924999991
 30
0.0
 11
13079.596573999979
 21
19615.108532999991
 31
0.0
  0
LINE
  5
3579
  8
0-6
  6
CONTINUOUS
 62
     6
 10
13105.48471799998
 20
19608.712707999999
 30
0.0
 11
13249.38681099998
 21
20120.986382999989
 31
0.0
  0
LINE
  5
357A
  8
0-6
  6
CONTINUOUS
 62
     6
 10
13249.38681099998
 20
20120.986382999989
 30
0.0
 11
13767.075458999991
 21
20120.986382999989
 31
0.0
  0
LINE
  5
357B
  8
0-6
  6
CONTINUOUS
 62
     6
 10
14576.783677999991
 20
20024.795636999999
 30
0.0
 11
14485.096335999981
 21
19890.986120000001
 31
0.0
  0
LINE
  5
357C
  8
0-6
  6
CONTINUOUS
 62
     6
 10
14485.096335999981
 20
19890.986120000001
 30
0.0
 11
14615.22790799999
 21
19987.826147999989
 31
0.0
  0
LINE
  5
357D
  8
0-6
  6
CONTINUOUS
 62
     6
 10
14485.096335999981
 20
19890.986120000001
 30
0.0
 11
14576.783677999991
 21
20024.795636999999
 31
0.0
  0
LINE
  5
357E
  8
0-6
  6
CONTINUOUS
 62
     6
 10
14576.783677999991
 20
20024.795636999999
 30
0.0
 11
14615.22790799999
 21
19987.826147999989
 31
0.0
  0
LINE
  5
357F
  8
0-6
  6
CONTINUOUS
 62
     6
 10
14615.22790799999
 20
19987.826147999989
 30
0.0
 11
14485.096335999981
 21
19890.986120000001
 31
0.0
  0
LINE
  5
3580
  8
0-6
  6
CONTINUOUS
 62
     6
 10
14615.22790799999
 20
19987.826147999989
 30
0.0
 11
14576.783677999991
 21
20024.795636999999
 31
0.0
  0
LINE
  5
3581
  8
0-6
  6
CONTINUOUS
 62
     6
 10
14596.00579299998
 20
20006.308913000001
 30
0.0
 11
15112.99468099998
 21
20510.987174999991
 31
0.0
  0
LINE
  5
3582
  8
0-6
  6
CONTINUOUS
 62
     6
 10
15112.99468099998
 20
20510.987174999991
 30
0.0
 11
16787.994020999991
 21
20510.987174999991
 31
0.0
  0
LINE
  5
3583
  8
2-0
  6
DASHED3
 62
     6
 10
14402.59791999998
 20
16883.46635100001
 30
0.0
 11
14402.59791999998
 21
19714.486303999991
 31
0.0
  0
LINE
  5
3584
  8
2-0
  6
DASHED3
 62
     6
 10
14445.097193999991
 20
16847.860751
 30
0.0
 11
14445.097193999991
 21
19714.486303999991
 31
0.0
  0
LINE
  5
3585
  8
2-0
  6
DASHED3
 62
     6
 10
11554.59963499998
 20
19668.486251999992
 30
0.0
 11
14332.59620399999
 21
18209.486251999992
 31
0.0
  0
LINE
  5
3586
  8
2-0
  6
DASHED3
 62
     6
 10
12958.64501899999
 20
18164.485855999999
 30
0.0
 11
14416.738610999981
 21
18164.485855999999
 31
0.0
  0
LINE
  5
3587
  8
2-0
  6
DASHED3
 62
     6
 10
12920.494746999981
 20
18254.486647999991
 30
0.0
 11
14416.738610999981
 21
18254.486647999991
 31
0.0
  0
LINE
  5
3588
  8
2-0
  6
DASHED3
 62
     6
 10
14332.59620399999
 20
18209.486251999992
 30
0.0
 11
13193.27141799998
 21
17616.01053399999
 31
0.0
  0
LINE
  5
3589
  8
2-0
  6
DASHED3
 62
     6
 10
11484.59791999998
 20
19629.485776000001
 30
0.0
 11
14402.59791999998
 21
19629.485776000001
 31
0.0
  0
LINE
  5
358A
  8
2-0
  6
DASHED3
 62
     6
 10
11442.10062499999
 20
19714.486303999991
 30
0.0
 11
14445.097193999991
 21
19714.486303999991
 31
0.0
  0
LINE
  5
358B
  8
2-0
  6
DASHED3
 62
     6
 10
14332.59620399999
 20
19668.486251999992
 30
0.0
 11
12339.76733999998
 21
18621.675255999991
 31
0.0
  0
LINE
  5
358C
  8
2-0
  6
DASHED3
 62
     6
 10
11442.10062499999
 20
19365.350693999979
 30
0.0
 11
11442.10062499999
 21
19714.486303999991
 31
0.0
  0
LINE
  5
358D
  8
2-0
  6
DASHED3
 62
     6
 10
11484.59791999998
 20
19329.745093000001
 30
0.0
 11
11484.59791999998
 21
19714.486303999991
 31
0.0
  0
LINE
  5
358E
  8
2-0
  6
CENTER2
 62
     6
 10
10155.096823999969
 20
13832.486252000001
 30
0.0
 11
11626.599674999999
 21
13832.486252000001
 31
0.0
  0
LINE
  5
358F
  8
2-0
  6
CENTER2
 62
     6
 10
11265.80074099999
 20
18209.486251999992
 30
0.0
 11
14574.39538899999
 21
18209.486251999992
 31
0.0
  0
LINE
  5
3590
  8
2-0
  6
CENTER2
 62
     6
 10
11265.80074099999
 20
15291.72676350001
 30
0.0
 11
14574.39538899999
 21
15291.72676350001
 31
0.0
  0
LINE
  5
3591
  8
2-0
  6
CENTER2
 62
     6
 10
10155.096823999969
 20
16750.486251999992
 30
0.0
 11
11626.599674999999
 21
16750.486251999992
 31
0.0
  0
LINE
  5
3592
  8
2-0
  6
CENTER2
 62
     6
 10
11484.59791999998
 20
20910.986514999979
 30
0.0
 11
11484.59791999998
 21
19960.985855999981
 31
0.0
  0
LINE
  5
3593
  8
2-0
  6
CENTER2
 62
     6
 10
10155.096823999969
 20
19668.486251999992
 30
0.0
 11
11626.599674999999
 21
19668.486251999992
 31
0.0
  0
LINE
  5
3594
  8
2-0
  6
CENTER2
 62
     6
 10
14402.59791999998
 20
20910.986514999979
 30
0.0
 11
14402.59791999998
 21
19960.985855999981
 31
0.0
  0
ARC
  5
3595
  8
0-1
  6
CONTINUOUS
 62
     3
 10
11404.09679799998
 20
19885.985855999988
 30
0.0
 40
5.0
 50
90.0
 51
180.0
  0
ARC
  5
3596
  8
0-1
  6
CONTINUOUS
 62
     3
 10
11467.597773999991
 20
19885.985855999988
 30
0.0
 40
5.0
 50
0.0
 51
90.0
  0
ARC
  5
3597
  8
0-1
  6
CONTINUOUS
 62
     3
 10
11467.597773999991
 20
19855.986251999992
 30
0.0
 40
5.0
 50
269.9999850001808
 51
0.0
  0
ARC
  5
3598
  8
0-1
  6
CONTINUOUS
 62
     3
 10
14419.59806499998
 20
19855.986251999992
 30
0.0
 40
5.0
 50
180.0
 51
269.9999850001808
  0
ARC
  5
3599
  8
0-1
  6
CONTINUOUS
 62
     3
 10
14419.59806499998
 20
19885.985855999988
 30
0.0
 40
5.0
 50
90.0
 51
180.0
  0
ARC
  5
359A
  8
0-1
  6
CONTINUOUS
 62
     3
 10
14483.09607199998
 20
19885.985855999988
 30
0.0
 40
5.0
 50
0.0
 51
90.0
  0
CIRCLE
  5
359B
  8
0-5
  6
CONTINUOUS
 62
     4
 10
9955.0986389999962
 20
19668.486251999992
 30
0.0
 40
199.9999949999999
  0
CIRCLE
  5
359C
  8
0-5
  6
CONTINUOUS
 62
     4
 10
9955.0986389999962
 20
16750.486251999992
 30
0.0
 40
199.9999949999999
  0
CIRCLE
  5
359D
  8
0-5
  6
CONTINUOUS
 62
     4
 10
9955.0986389999962
 20
13832.486252000001
 30
0.0
 40
199.9999949999999
  0
CIRCLE
  5
359E
  8
0-5
  6
CONTINUOUS
 62
     4
 10
11484.59791999998
 20
21110.989154999988
 30
0.0
 40
199.9999949999999
  0
CIRCLE
  5
359F
  8
0-5
  6
CONTINUOUS
 62
     4
 10
14402.59791999998
 20
21110.989154999988
 30
0.0
 40
199.9999949999999
  0
CIRCLE
  5
35A0
  8
0-5
  6
CONTINUOUS
 62
     4
 10
15128.715689000001
 20
1375.9998579999999
 30
0.0
 40
20.0
  0
ARC
  5
35A1
  8
0-5
  6
CONTINUOUS
 62
     4
 10
15128.715689000001
 20
1375.9998579999999
 30
0.0
 40
20.0
 50
180.0
 51
0.0
  0
ARC
  5
35A2
  8
0-5
  6
CONTINUOUS
 62
     4
 10
15128.715689000001
 20
1375.9998579999999
 30
0.0
 40
20.0
 50
0.0
 51
179.99998499999839
  0
CIRCLE
  5
35A3
  8
0-5
  6
CONTINUOUS
 62
     4
 10
15128.715689000001
 20
1776.000188
 30
0.0
 40
20.0
  0
ARC
  5
35A4
  8
0-5
  6
CONTINUOUS
 62
     4
 10
15128.715689000001
 20
1776.000188
 30
0.0
 40
20.0
 50
180.0
 51
0.0
  0
ARC
  5
35A5
  8
0-5
  6
CONTINUOUS
 62
     4
 10
15128.715689000001
 20
1776.000188
 30
0.0
 40
20.0
 50
0.0
 51
179.99998499999839
  0
TEXT
  5
35A6
  8
0-5
  6
CONTINUOUS
 62
     7
 10
16659.663050499908
 20
1656.000039
 30
0.0
 40
160.0
  1
H
  0
TEXT
  5
35A7
  8
0-5
  6
CONTINUOUS
 62
     7
 10
15176.146932999991
 20
1656.000039
 30
0.0
 40
160.0
  1
（ ）内寸法ハ、  タ イプヲ示ス。
  0
TEXT
  5
35A8
  8
0-5
  6
CONTINUOUS
 62
     7
 10
15288.715226999981
 20
1256.0000809999999
 30
0.0
 40
160.0
  1
有効高サハ、基礎高サヲ含ミマセン。
  0
TEXT
  5
35A9
  8
0-5
  6
CONTINUOUS
 62
     7
 10
9898.9104989999942
 20
13751.831757
 30
0.0
 40
160.0
  1
A
 72
     4
 11
9952.2438323333299
 21
13831.831757
 31
0.0
  0
TEXT
  5
35AA
  8
0-5
  6
CONTINUOUS
 62
     7
 10
9898.9104989999942
 20
16669.832747000011
 30
0.0
 40
160.0
  1
B
 72
     4
 11
9952.2438323333299
 21
16749.832747000011
 31
0.0
  0
TEXT
  5
35AB
  8
0-5
  6
CONTINUOUS
 62
     7
 10
9898.9104989999942
 20
19587.830766999999
 30
0.0
 40
160.0
  1
C
 72
     4
 11
9952.2438323333299
 21
19667.830766999999
 31
0.0
  0
TEXT
  5
35AC
  8
0-5
  6
CONTINUOUS
 62
     7
 10
11429.788018999991
 20
21020.232186999991
 30
0.0
 40
160.0
  1
1
 72
     4
 11
11456.45468566666
 21
21100.232186999991
 31
0.0
  0
TEXT
  5
35AD
  8
0-5
  6
CONTINUOUS
 62
     7
 10
14347.789998999981
 20
21020.232186999991
 30
0.0
 40
160.0
  1
2
 72
     4
 11
14401.123332333311
 21
21100.232186999991
 31
0.0
  0
TEXT
  5
35AE
  8
0-6
  6
CONTINUOUS
 62
     7
 10
9720.4638269999905
 20
12429.98546
 30
0.0
 40
160.0
  1
ケラバ 左
 72
     4
 11
10136.46382699999
 21
12509.98546
 31
0.0
  0
TEXT
  5
35AF
  8
0-6
  6
CONTINUOUS
 62
     7
 10
14986.833033999979
 20
15847.908495999989
 30
0.0
 40
160.0
  1
ブレース
 72
     4
 11
15349.499700666651
 21
15933.24182933333
 31
0.0
  0
TEXT
  5
35B0
  8
0-6
  6
CONTINUOUS
 62
     7
 10
13540.391877999989
 20
12919.98658199999
 30
0.0
 40
160.0
  1
鼻隠し前
 72
     4
 11
13903.058544666659
 21
12999.98658199999
 31
0.0
  0
TEXT
  5
35B1
  8
0-6
  6
CONTINUOUS
 62
     7
 10
12597.28093299998
 20
14227.85465299998
 30
0.0
 40
160.0
  1
桁（前）
 72
     4
 11
12917.28093299998
 21
14307.85465299998
 31
0.0
  0
TEXT
  5
35B2
  8
0-6
  6
CONTINUOUS
 62
     7
 10
11739.12597599999
 20
17415.010216999988
 30
0.0
 40
160.0
  1
上枠
 72
     4
 11
11909.79264266666
 21
17495.010216999988
 31
0.0
  0
TEXT
  5
35B3
  8
0-6
  6
CONTINUOUS
 62
     7
 10
13329.38608499998
 20
20200.986647000002
 30
0.0
 40
160.0
  1
屋根
 72
     4
 11
13500.05275166665
 21
20280.986647000002
 31
0.0
  0
TEXT
  5
35B4
  8
0-6
  6
CONTINUOUS
 62
     7
 10
15192.994944999989
 20
20590.985459999989
 30
0.0
 40
160.0
  1
鼻隠しコーナー後
 72
     4
 11
15939.661611666659
 21
20670.985459999989
 31
0.0
  0
TEXT
  5
35B5
  8
2-0
  6
CONTINUOUS
 62
     7
 10
11838.66606799999
 20
11583.09509899998
 30
0.0
 40
160.0
  1
小 屋 伏 図
 72
     4
 11
12339.999401333331
 21
11663.09509899998
 31
0.0
  0
TEXT
  5
35B6
  8
2-0
  6
CONTINUOUS
 62
     7
 10
14987.401155999991
 20
18788.572426999999
 30
0.0
 40
160.0
  1
桁中B +  桁中補強B
 72
     4
 11
15920.73448933333
 21
18868.572426999999
 31
0.0
  0
TEXT
  5
35B7
  8
2-0
  6
CONTINUOUS
 62
     7
 10
14987.401155999991
 20
17334.572478999991
 30
0.0
 40
160.0
  1
桁中A +  桁中補強A
 72
     4
 11
15920.73448933333
 21
17414.572478999991
 31
0.0
  0
TEXT
  5
35B8
  8
2-0
  6
CONTINUOUS
 62
     7
 10
14987.401156
 20
14825.543564999991
 30
0.0
 40
160.0
  1
桁中B +  桁中補強B
 50
0.000236
 72
     4
 11
15920.734159807251
 21
14905.547409377879
 31
0.0
  0
TEXT
  5
35C0
  8
2-0
  6
CONTINUOUS
 62
     7
 10
13691.491586470949
 20
11610.29046799999
 30
0.0
 40
160.0
  1
1
 72
     4
 11
13718.158253137621
 21
11690.29046799999
 31
0.0
  0
TEXT
  5
35C1
  8
2-0
  6
CONTINUOUS
 62
     7
 10
13934.58030372165
 20
11530.291935999991
 30
0.0
 40
160.0
  1
80
 72
     4
 11
14054.58030372165
 21
11610.291935999991
 31
0.0
  0
TEXT
  5
35C2
  8
2-0
  6
CONTINUOUS
 62
     7
 10
13192.493552470951
 20
11583.09509899998
 30
0.0
 40
160.0
  1
(S=  /   )
 72
     4
 11
13752.493552470951
 21
11663.09509899998
 31
0.0
  0
TEXT
  5
35C3
  8
0-6
  6
CONTINUOUS
 62
     7
 10
11586.381324144801
 20
20200.984667000001
 30
0.0
 40
160.0
  1
桁後+桁後補強
 72
     4
 11
12221.04799081147
 21
20280.984667000001
 31
0.0
  0
LINE
  5
35C4
  8
0-6
  6
CONTINUOUS
 62
     6
 10
13030.096731999991
 20
19714.486303999991
 30
0.0
 11
12896.702784118739
 21
20120.986382999989
 31
0.0
  0
LINE
  5
35C5
  8
0-6
  6
CONTINUOUS
 62
     6
 10
11536.96131454952
 20
20120.986382999989
 30
0.0
 11
12896.702784118739
 21
20120.986382999989
 31
0.0
  0
LINE
  5
35C6
  8
0-6
  6
CONTINUOUS
 62
     6
 10
13006.489276632699
 20
19874.96774242492
 30
0.0
 11
12955.715632859759
 21
19858.634226240149
 31
0.0
  0
LINE
  5
35C7
  8
0-6
  6
CONTINUOUS
 62
     6
 10
13006.489276632699
 20
19874.96774242492
 30
0.0
 11
13030.096731999991
 21
19714.486303999991
 31
0.0
  0
LINE
  5
35C8
  8
0-6
  6
CONTINUOUS
 62
     6
 10
12955.715632859759
 20
19858.634226240149
 30
0.0
 11
13006.489276632699
 21
19874.96774242492
 31
0.0
  0
LINE
  5
35C9
  8
0-6
  6
CONTINUOUS
 62
     6
 10
13030.096731999991
 20
19714.486303999991
 30
0.0
 11
12955.715632859759
 21
19858.634226240149
 31
0.0
  0
LINE
  5
35CA
  8
0-6
  6
CONTINUOUS
 62
     6
 10
13030.096731999991
 20
19714.486303999991
 30
0.0
 11
13006.489276632699
 21
19874.96774242492
 31
0.0
  0
LINE
  5
35CB
  8
0-6
  6
CONTINUOUS
 62
     6
 10
12955.715632859759
 20
19858.634226240149
 30
0.0
 11
13030.096731999991
 21
19714.486303999991
 31
0.0
  0
LINE
  5
35CC
  8
0-1
  6
CONTINUOUS
 62
     3
 10
9673.5677129999895
 20
8478.9693009999955
 30
0.0
 11
15554.567118999979
 21
8478.9693009999955
 31
0.0
  0
LINE
  5
35CD
  8
0-1
  6
CONTINUOUS
 62
     3
 10
8963.567843999992
 20
6467.9239179999977
 30
0.0
 11
15587.066920999991
 21
6467.9239179999977
 31
0.0
  0
LINE
  5
35CE
  8
0-1
  6
CONTINUOUS
 62
     3
 10
9768.56777899999
 20
6617.9239179999977
 30
0.0
 11
12541.567053000001
 21
6617.9239179999977
 31
0.0
  0
LINE
  5
35CF
  8
0-1
  6
CONTINUOUS
 62
     3
 10
9646.0669209999924
 20
6567.9232579999998
 30
0.0
 11
15587.066920999991
 21
6567.9232579999998
 31
0.0
  0
LINE
  5
35D0
  8
0-1
  6
CONTINUOUS
 62
     3
 10
9768.56777899999
 20
8478.9693009999955
 30
0.0
 11
9768.56777899999
 21
6567.9232579999998
 31
0.0
  0
LINE
  5
35D1
  8
0-1
  6
CONTINUOUS
 62
     3
 10
9653.565666999988
 20
8601.0046419999962
 30
0.0
 11
9653.565666999988
 21
6567.9232579999998
 31
0.0
  0
LINE
  5
35D2
  8
0-1
  6
CONTINUOUS
 62
     3
 10
9673.5677129999895
 20
8601.6222520000028
 30
0.0
 11
9673.5677129999895
 21
6567.9232579999998
 31
0.0
  0
LINE
  5
35D3
  8
0-1
  6
CONTINUOUS
 62
     3
 10
9892.0669729999972
 20
6617.9239179999977
 30
0.0
 11
9892.0669729999972
 21
8478.9693009999955
 31
0.0
  0
LINE
  5
35D4
  8
0-1
  6
CONTINUOUS
 62
     3
 10
9907.0667759999887
 20
6617.9239179999977
 30
0.0
 11
9907.0667759999887
 21
8478.9693009999955
 31
0.0
  0
LINE
  5
35D5
  8
0-1
  6
CONTINUOUS
 62
     3
 10
10308.065772999969
 20
6617.9239179999977
 30
0.0
 11
10308.065772999969
 21
8478.9693009999955
 31
0.0
  0
LINE
  5
35D6
  8
0-1
  6
CONTINUOUS
 62
     3
 10
10293.065970999971
 20
6617.9239179999977
 30
0.0
 11
10293.065970999971
 21
8478.9693009999955
 31
0.0
  0
LINE
  5
35D7
  8
0-1
  6
CONTINUOUS
 62
     3
 10
10160.066075999979
 20
6617.9239179999977
 30
0.0
 11
10160.066075999979
 21
8478.9693009999955
 31
0.0
  0
LINE
  5
35D8
  8
0-1
  6
CONTINUOUS
 62
     3
 10
10040.067659999981
 20
6617.9239179999977
 30
0.0
 11
10040.067659999981
 21
8478.9693009999955
 31
0.0
  0
LINE
  5
35D9
  8
0-1
  6
CONTINUOUS
 62
     3
 10
10110.066405999991
 20
6617.9239179999977
 30
0.0
 11
10110.066405999991
 21
8478.9693009999955
 31
0.0
  0
LINE
  5
35DA
  8
0-1
  6
CONTINUOUS
 62
     3
 10
10090.06633999999
 20
6617.9239179999977
 30
0.0
 11
10090.06633999999
 21
8478.9693009999955
 31
0.0
  0
LINE
  5
35DB
  8
0-1
  6
CONTINUOUS
 62
     3
 10
9646.0669209999924
 20
6467.9239179999977
 30
0.0
 11
9646.0669209999924
 21
6567.9232579999998
 31
0.0
  0
LINE
  5
35DC
  8
0-1
  6
CONTINUOUS
 62
     3
 10
15649.57807199998
 20
8785.4680609999978
 30
0.0
 11
15645.56459799999
 21
8915.4066299999977
 31
0.0
  0
LINE
  5
35DD
  8
0-1
  6
CONTINUOUS
 62
     3
 10
12686.566789
 20
6617.9239179999977
 30
0.0
 11
15459.56705299999
 21
6617.9239179999977
 31
0.0
  0
LINE
  5
35DE
  8
0-1
  6
CONTINUOUS
 62
     3
 10
12686.566789
 20
8478.9693009999955
 30
0.0
 11
12686.566789
 21
6567.9232579999998
 31
0.0
  0
LINE
  5
35DF
  8
0-1
  6
CONTINUOUS
 62
     3
 10
12541.567053000001
 20
8478.9693009999955
 30
0.0
 11
12541.567053000001
 21
6567.9232579999998
 31
0.0
  0
LINE
  5
35E0
  8
0-1
  6
CONTINUOUS
 62
     3
 10
12810.06697399999
 20
6617.9239179999977
 30
0.0
 11
12810.06697399999
 21
8478.9693009999955
 31
0.0
  0
LINE
  5
35E1
  8
0-1
  6
CONTINUOUS
 62
     3
 10
12825.067766
 20
6617.9239179999977
 30
0.0
 11
12825.067766
 21
8478.9693009999955
 31
0.0
  0
LINE
  5
35E2
  8
0-1
  6
CONTINUOUS
 62
     3
 10
12958.06667
 20
6617.9239179999977
 30
0.0
 11
12958.06667
 21
8478.9693009999955
 31
0.0
  0
LINE
  5
35E3
  8
0-1
  6
CONTINUOUS
 62
     3
 10
13008.06832
 20
6617.9239179999977
 30
0.0
 11
13008.06832
 21
8478.9693009999955
 31
0.0
  0
LINE
  5
35E4
  8
0-1
  6
CONTINUOUS
 62
     3
 10
13028.066405999991
 20
6617.9239179999977
 30
0.0
 11
13028.066405999991
 21
8478.9693009999955
 31
0.0
  0
LINE
  5
35E5
  8
0-1
  6
CONTINUOUS
 62
     3
 10
12200.068426
 20
6617.9239179999977
 30
0.0
 11
12200.068426
 21
8478.9693009999955
 31
0.0
  0
LINE
  5
35E6
  8
0-1
  6
CONTINUOUS
 62
     3
 10
12220.067501999991
 20
6617.9239179999977
 30
0.0
 11
12220.067501999991
 21
8478.9693009999955
 31
0.0
  0
LINE
  5
35E7
  8
0-1
  6
CONTINUOUS
 62
     3
 10
12270.068162
 20
6617.9239179999977
 30
0.0
 11
12270.068162
 21
8478.9693009999955
 31
0.0
  0
LINE
  5
35E8
  8
0-1
  6
CONTINUOUS
 62
     3
 10
12403.068056
 20
6617.9239179999977
 30
0.0
 11
12403.068056
 21
8478.9693009999955
 31
0.0
  0
LINE
  5
35E9
  8
0-1
  6
CONTINUOUS
 62
     3
 10
12418.066867999991
 20
6617.9239179999977
 30
0.0
 11
12418.066867999991
 21
8478.9693009999955
 31
0.0
  0
LINE
  5
35EA
  8
0-1
  6
CONTINUOUS
 62
     3
 10
12150.067766
 20
6617.9239179999977
 30
0.0
 11
12150.067766
 21
8478.9693009999955
 31
0.0
  0
LINE
  5
35EB
  8
0-1
  6
CONTINUOUS
 62
     3
 10
12017.06787099999
 20
6617.9239179999977
 30
0.0
 11
12017.06787099999
 21
8478.9693009999955
 31
0.0
  0
LINE
  5
35EC
  8
0-1
  6
CONTINUOUS
 62
     3
 10
12002.06707899998
 20
6617.9239179999977
 30
0.0
 11
12002.06707899998
 21
8478.9693009999955
 31
0.0
  0
LINE
  5
35ED
  8
0-1
  6
CONTINUOUS
 62
     3
 10
10800.066775999991
 20
6617.9239179999977
 30
0.0
 11
10800.066775999991
 21
8478.9693009999955
 31
0.0
  0
LINE
  5
35EE
  8
0-1
  6
CONTINUOUS
 62
     3
 10
10820.06882099999
 20
6617.9239179999977
 30
0.0
 11
10820.06882099999
 21
8478.9693009999955
 31
0.0
  0
LINE
  5
35EF
  8
0-1
  6
CONTINUOUS
 62
     3
 10
10750.067106
 20
6617.9239179999977
 30
0.0
 11
10750.067106
 21
8478.9693009999955
 31
0.0
  0
LINE
  5
35F0
  8
0-1
  6
CONTINUOUS
 62
     3
 10
10870.066511999999
 20
6617.9239179999977
 30
0.0
 11
10870.066511999999
 21
8478.9693009999955
 31
0.0
  0
LINE
  5
35F1
  8
0-1
  6
CONTINUOUS
 62
     3
 10
11003.067395999989
 20
6617.9239179999977
 30
0.0
 11
11003.067395999989
 21
8478.9693009999955
 31
0.0
  0
LINE
  5
35F2
  8
0-1
  6
CONTINUOUS
 62
     3
 10
11018.068187999999
 20
6617.9239179999977
 30
0.0
 11
11018.068187999999
 21
8478.9693009999955
 31
0.0
  0
LINE
  5
35F3
  8
0-1
  6
CONTINUOUS
 62
     3
 10
10617.06622199999
 20
6617.9239179999977
 30
0.0
 11
10617.06622199999
 21
8478.9693009999955
 31
0.0
  0
LINE
  5
35F4
  8
0-1
  6
CONTINUOUS
 62
     3
 10
10602.06740899999
 20
6617.9239179999977
 30
0.0
 11
10602.06740899999
 21
8478.9693009999955
 31
0.0
  0
LINE
  5
35F5
  8
0-1
  6
CONTINUOUS
 62
     3
 10
11302.06675
 20
6617.9239179999977
 30
0.0
 11
11302.06675
 21
8478.9693009999955
 31
0.0
  0
LINE
  5
35F6
  8
0-1
  6
CONTINUOUS
 62
     3
 10
11317.065561999991
 20
6617.9239179999977
 30
0.0
 11
11317.065561999991
 21
8478.9693009999955
 31
0.0
  0
LINE
  5
35F7
  8
0-1
  6
CONTINUOUS
 62
     3
 10
11718.06752799999
 20
6617.9239179999977
 30
0.0
 11
11718.06752799999
 21
8478.9693009999955
 31
0.0
  0
LINE
  5
35F8
  8
0-1
  6
CONTINUOUS
 62
     3
 10
11703.066735999981
 20
6617.9239179999977
 30
0.0
 11
11703.066735999981
 21
8478.9693009999955
 31
0.0
  0
LINE
  5
35F9
  8
0-1
  6
CONTINUOUS
 62
     3
 10
11570.065851999991
 20
6617.9239179999977
 30
0.0
 11
11570.065851999991
 21
8478.9693009999955
 31
0.0
  0
LINE
  5
35FA
  8
0-1
  6
CONTINUOUS
 62
     3
 10
11450.068425999991
 20
6617.9239179999977
 30
0.0
 11
11450.068425999991
 21
8478.9693009999955
 31
0.0
  0
LINE
  5
35FB
  8
0-1
  6
CONTINUOUS
 62
     3
 10
11520.068162
 20
6617.9239179999977
 30
0.0
 11
11520.068162
 21
8478.9693009999955
 31
0.0
  0
LINE
  5
35FC
  8
0-1
  6
CONTINUOUS
 62
     3
 10
11500.06809599999
 20
6617.9239179999977
 30
0.0
 11
11500.06809599999
 21
8478.9693009999955
 31
0.0
  0
LINE
  5
35FD
  8
0-1
  6
CONTINUOUS
 62
     3
 10
11841.567713
 20
8478.9693009999955
 30
0.0
 11
11841.567713
 21
6617.9239179999977
 31
0.0
  0
LINE
  5
35FE
  8
0-1
  6
CONTINUOUS
 62
     3
 10
11878.566894999991
 20
8478.9693009999955
 30
0.0
 11
11878.566894999991
 21
6617.9239179999977
 31
0.0
  0
LINE
  5
35FF
  8
0-1
  6
CONTINUOUS
 62
     3
 10
10431.565956999981
 20
8478.9693009999955
 30
0.0
 11
10431.565956999981
 21
6617.9239179999977
 31
0.0
  0
LINE
  5
3600
  8
0-1
  6
CONTINUOUS
 62
     3
 10
10468.566128999981
 20
8478.9693009999955
 30
0.0
 11
10468.566128999981
 21
6617.9239179999977
 31
0.0
  0
LINE
  5
3601
  8
0-1
  6
CONTINUOUS
 62
     3
 10
11141.568373
 20
8478.9693009999955
 30
0.0
 11
11141.568373
 21
6617.9239179999977
 31
0.0
  0
LINE
  5
3602
  8
0-1
  6
CONTINUOUS
 62
     3
 10
11178.567555
 20
8478.9693009999955
 30
0.0
 11
11178.567555
 21
6617.9239179999977
 31
0.0
  0
LINE
  5
3603
  8
0-1
  6
CONTINUOUS
 62
     3
 10
12614.01545399998
 20
8692.0773429999954
 30
0.0
 11
12610.00296899999
 21
8822.0159119999971
 31
0.0
  0
LINE
  5
3604
  8
0-1
  6
CONTINUOUS
 62
     3
 10
12614.066920999991
 20
8692.0793229999981
 30
0.0
 11
12614.066920999991
 21
8478.9693009999955
 31
0.0
  0
LINE
  5
3605
  8
0-1
  6
CONTINUOUS
 62
     3
 10
15459.56705299999
 20
8478.9693009999955
 30
0.0
 11
15459.56705299999
 21
6567.9232579999998
 31
0.0
  0
LINE
  5
3606
  8
0-1
  6
CONTINUOUS
 62
     3
 10
15574.568173999991
 20
8783.1530139999977
 30
0.0
 11
15574.568173999991
 21
6567.9232579999998
 31
0.0
  0
LINE
  5
3607
  8
0-1
  6
CONTINUOUS
 62
     3
 10
15554.567118999979
 20
8782.5354040000002
 30
0.0
 11
15554.567118999979
 21
6567.9232579999998
 31
0.0
  0
LINE
  5
3608
  8
0-1
  6
CONTINUOUS
 62
     3
 10
14049.568267000001
 20
8478.9693009999955
 30
0.0
 11
14049.568267000001
 21
6617.9239179999977
 31
0.0
  0
LINE
  5
3609
  8
0-1
  6
CONTINUOUS
 62
     3
 10
14086.56843899999
 20
8478.9693009999955
 30
0.0
 11
14086.56843899999
 21
6617.9239179999977
 31
0.0
  0
LINE
  5
360A
  8
0-1
  6
CONTINUOUS
 62
     3
 10
14749.56760699999
 20
8478.9693009999955
 30
0.0
 11
14749.56760699999
 21
6617.9239179999977
 31
0.0
  0
LINE
  5
360B
  8
0-1
  6
CONTINUOUS
 62
     3
 10
14786.56678899999
 20
8478.9693009999955
 30
0.0
 11
14786.56678899999
 21
6617.9239179999977
 31
0.0
  0
LINE
  5
360C
  8
0-1
  6
CONTINUOUS
 62
     3
 10
13349.565957999999
 20
8478.9693009999955
 30
0.0
 11
13349.565957999999
 21
6617.9239179999977
 31
0.0
  0
LINE
  5
360D
  8
0-1
  6
CONTINUOUS
 62
     3
 10
13386.56711899999
 20
8478.9693009999955
 30
0.0
 11
13386.56711899999
 21
6617.9239179999977
 31
0.0
  0
LINE
  5
360E
  8
0-1
  6
CONTINUOUS
 62
     3
 10
13728.065747000001
 20
6617.9239179999977
 30
0.0
 11
13728.065747000001
 21
8478.9693009999955
 31
0.0
  0
LINE
  5
360F
  8
0-1
  6
CONTINUOUS
 62
     3
 10
13708.066669999989
 20
6617.9239179999977
 30
0.0
 11
13708.066669999989
 21
8478.9693009999955
 31
0.0
  0
LINE
  5
3610
  8
0-1
  6
CONTINUOUS
 62
     3
 10
13778.067395999989
 20
6617.9239179999977
 30
0.0
 11
13778.067395999989
 21
8478.9693009999955
 31
0.0
  0
LINE
  5
3611
  8
0-1
  6
CONTINUOUS
 62
     3
 10
13658.06799
 20
6617.9239179999977
 30
0.0
 11
13658.06799
 21
8478.9693009999955
 31
0.0
  0
LINE
  5
3612
  8
0-1
  6
CONTINUOUS
 62
     3
 10
13525.067106
 20
6617.9239179999977
 30
0.0
 11
13525.067106
 21
8478.9693009999955
 31
0.0
  0
LINE
  5
3613
  8
0-1
  6
CONTINUOUS
 62
     3
 10
13510.067303999989
 20
6617.9239179999977
 30
0.0
 11
13510.067303999989
 21
8478.9693009999955
 31
0.0
  0
LINE
  5
3614
  8
0-1
  6
CONTINUOUS
 62
     3
 10
13911.06828
 20
6617.9239179999977
 30
0.0
 11
13911.06828
 21
8478.9693009999955
 31
0.0
  0
LINE
  5
3615
  8
0-1
  6
CONTINUOUS
 62
     3
 10
13926.068081999991
 20
6617.9239179999977
 30
0.0
 11
13926.068081999991
 21
8478.9693009999955
 31
0.0
  0
LINE
  5
3616
  8
0-1
  6
CONTINUOUS
 62
     3
 10
14626.06742299998
 20
6617.9239179999977
 30
0.0
 11
14626.06742299998
 21
8478.9693009999955
 31
0.0
  0
LINE
  5
3617
  8
0-1
  6
CONTINUOUS
 62
     3
 10
14611.066630999991
 20
6617.9239179999977
 30
0.0
 11
14611.066630999991
 21
8478.9693009999955
 31
0.0
  0
LINE
  5
3618
  8
0-1
  6
CONTINUOUS
 62
     3
 10
14210.066644
 20
6617.9239179999977
 30
0.0
 11
14210.066644
 21
8478.9693009999955
 31
0.0
  0
LINE
  5
3619
  8
0-1
  6
CONTINUOUS
 62
     3
 10
14225.068425999991
 20
6617.9239179999977
 30
0.0
 11
14225.068425999991
 21
8478.9693009999955
 31
0.0
  0
LINE
  5
361A
  8
0-1
  6
CONTINUOUS
 62
     3
 10
14358.06831999998
 20
6617.9239179999977
 30
0.0
 11
14358.06831999998
 21
8478.9693009999955
 31
0.0
  0
LINE
  5
361B
  8
0-1
  6
CONTINUOUS
 62
     3
 10
14478.065747000001
 20
6617.9239179999977
 30
0.0
 11
14478.065747000001
 21
8478.9693009999955
 31
0.0
  0
LINE
  5
361C
  8
0-1
  6
CONTINUOUS
 62
     3
 10
14408.06601099999
 20
6617.9239179999977
 30
0.0
 11
14408.06601099999
 21
8478.9693009999955
 31
0.0
  0
LINE
  5
361D
  8
0-1
  6
CONTINUOUS
 62
     3
 10
14428.068056
 20
6617.9239179999977
 30
0.0
 11
14428.068056
 21
8478.9693009999955
 31
0.0
  0
LINE
  5
361E
  8
0-1
  6
CONTINUOUS
 62
     3
 10
15128.067396
 20
6617.9239179999977
 30
0.0
 11
15128.067396
 21
8478.9693009999955
 31
0.0
  0
LINE
  5
361F
  8
0-1
  6
CONTINUOUS
 62
     3
 10
15108.06831999998
 20
6617.9239179999977
 30
0.0
 11
15108.06831999998
 21
8478.9693009999955
 31
0.0
  0
LINE
  5
3620
  8
0-1
  6
CONTINUOUS
 62
     3
 10
15178.06805599998
 20
6617.9239179999977
 30
0.0
 11
15178.06805599998
 21
8478.9693009999955
 31
0.0
  0
LINE
  5
3621
  8
0-1
  6
CONTINUOUS
 62
     3
 10
15058.067660000001
 20
6617.9239179999977
 30
0.0
 11
15058.067660000001
 21
8478.9693009999955
 31
0.0
  0
LINE
  5
3622
  8
0-1
  6
CONTINUOUS
 62
     3
 10
14925.067765999989
 20
6617.9239179999977
 30
0.0
 11
14925.067765999989
 21
8478.9693009999955
 31
0.0
  0
LINE
  5
3623
  8
0-1
  6
CONTINUOUS
 62
     3
 10
14910.065984000001
 20
6617.9239179999977
 30
0.0
 11
14910.065984000001
 21
8478.9693009999955
 31
0.0
  0
LINE
  5
3624
  8
0-1
  6
CONTINUOUS
 62
     3
 10
15321.068054999991
 20
6617.9239179999977
 30
0.0
 11
15321.068054999991
 21
8478.9693009999955
 31
0.0
  0
LINE
  5
3625
  8
0-1
  6
CONTINUOUS
 62
     3
 10
15336.066867999991
 20
6617.9239179999977
 30
0.0
 11
15336.066867999991
 21
8478.9693009999955
 31
0.0
  0
LINE
  5
3626
  8
0-1
  6
CONTINUOUS
 62
     3
 10
13226.065773
 20
6617.9239179999977
 30
0.0
 11
13226.065773
 21
8478.9693009999955
 31
0.0
  0
LINE
  5
3627
  8
0-1
  6
CONTINUOUS
 62
     3
 10
13211.066961
 20
6617.9239179999977
 30
0.0
 11
13211.066961
 21
8478.9693009999955
 31
0.0
  0
LINE
  5
3628
  8
0-1
  6
CONTINUOUS
 62
     3
 10
13078.06805599998
 20
6617.9239179999977
 30
0.0
 11
13078.06805599998
 21
8478.9693009999955
 31
0.0
  0
LINE
  5
3629
  8
0-1
  6
CONTINUOUS
 62
     3
 10
15587.066920999991
 20
6567.9232579999998
 30
0.0
 11
15587.066920999991
 21
6467.9239179999977
 31
0.0
  0
LINE
  5
362A
  8
0-1
  6
CONTINUOUS
 62
     3
 10
9476.0958879999871
 20
8643.5494449999951
 30
0.0
 11
9475.0487219999868
 21
8677.5348099999956
 31
0.0
  0
LINE
  5
362B
  8
0-1
  6
CONTINUOUS
 62
     3
 10
9477.9546559999926
 20
8680.6248389999982
 30
0.0
 11
15658.94812299998
 21
8870.7981789999976
 31
0.0
  0
LINE
  5
362C
  8
0-1
  6
CONTINUOUS
 62
     3
 10
15660.181362999991
 20
8830.8168519999981
 30
0.0
 11
9479.1878959999922
 21
8640.6435120000024
 31
0.0
  0
LINE
  5
362D
  8
0-1
  6
CONTINUOUS
 62
     3
 10
9477.8012429999908
 20
8685.6231229999976
 30
0.0
 11
15658.79372099998
 21
8875.7954730000001
 31
0.0
  0
LINE
  5
362E
  8
0-1
  6
CONTINUOUS
 62
     3
 10
15660.334775999991
 20
8825.818567999997
 30
0.0
 11
9479.3403189999863
 21
8635.6462179999962
 31
0.0
  0
LINE
  5
362F
  8
0-1
  6
CONTINUOUS
 62
     3
 10
9476.4343849999877
 20
8632.5551990000004
 30
0.0
 11
9476.4343849999877
 21
8632.6205229999978
 31
0.0
  0
LINE
  5
3630
  8
0-1
  6
CONTINUOUS
 62
     3
 10
9476.4343849999877
 20
8632.6205229999978
 30
0.0
 11
9477.4241449999918
 21
8600.5711280000032
 31
0.0
  0
LINE
  5
3631
  8
0-1
  6
CONTINUOUS
 62
     3
 10
9482.5758419999911
 20
8595.7282360000008
 30
0.0
 11
15682.54200499999
 21
8786.4855330000028
 31
0.0
  0
LINE
  5
3632
  8
0-1
  6
CONTINUOUS
 62
     3
 10
15678.53149999999
 20
8916.4250919999977
 30
0.0
 11
9478.5653369999909
 21
8725.6658149999967
 31
0.0
  0
LINE
  5
3633
  8
0-1
  6
CONTINUOUS
 62
     3
 10
9473.7204649999876
 20
8720.5131280000005
 30
0.0
 11
9474.7092349999912
 21
8688.5290559999976
 31
0.0
  0
LINE
  5
3634
  8
0-1
  6
CONTINUOUS
 62
     3
 10
9491.0600579999864
 20
8726.0508310000005
 30
0.0
 11
9495.0705629999884
 21
8596.1122620000006
 31
0.0
  0
LINE
  5
3635
  8
0-5
  6
CONTINUOUS
 62
     4
 10
18457.442461999992
 20
6675.7694099999999
 30
0.0
 11
18577.438899000001
 21
6467.9239179999977
 31
0.0
  0
LINE
  5
3636
  8
0-5
  6
CONTINUOUS
 62
     4
 10
15667.066196
 20
6467.9239179999977
 30
0.0
 11
20724.562579000001
 21
6467.9239179999977
 31
0.0
  0
LINE
  5
3637
  8
0-5
  6
CONTINUOUS
 62
     4
 10
18577.438899000001
 20
6467.9239179999977
 30
0.0
 11
18697.439295
 21
6675.7694099999999
 31
0.0
  0
LINE
  5
3638
  8
0-5
  6
CONTINUOUS
 62
     4
 10
18697.439295
 20
6675.7694099999999
 30
0.0
 11
18457.442461999992
 21
6675.7694099999999
 31
0.0
  0
LINE
  5
3639
  8
2-0
  6
CENTER2
 62
     6
 10
9696.0669209999924
 20
6205.2705050000022
 30
0.0
 11
9696.0669209999924
 21
7262.4131029999999
 31
0.0
  0
LINE
  5
363A
  8
2-0
  6
CENTER2
 62
     6
 10
12614.066920999991
 20
6205.2705050000022
 30
0.0
 11
12614.066920999991
 21
7262.4131029999999
 31
0.0
  0
LINE
  5
363B
  8
2-0
  6
CENTER2
 62
     6
 10
15532.066920999991
 20
6205.2705050000022
 30
0.0
 11
15532.066920999991
 21
7262.4131029999999
 31
0.0
  0
ARC
  5
363C
  8
0-1
  6
CONTINUOUS
 62
     3
 10
9480.7645819999907
 20
8638.1918779999978
 30
0.0
 40
2.5
 50
271.76798999988182
 51
91.767989999881877
  0
ARC
  5
363D
  8
0-1
  6
CONTINUOUS
 62
     3
 10
9479.3769399999946
 20
8683.1695100000015
 30
0.0
 40
2.5
 50
271.76798999988182
 51
91.767989999881877
  0
ARC
  5
363E
  8
0-1
  6
CONTINUOUS
 62
     3
 10
9478.0457129999886
 20
8677.6268579999978
 30
0.0
 40
3.0
 50
91.767989999881877
 51
181.7679900000058
  0
ARC
  5
363F
  8
0-1
  6
CONTINUOUS
 62
     3
 10
15659.56474299999
 20
8850.8070199999984
 30
0.0
 40
20.0
 50
271.76798999988182
 51
91.767989999881877
  0
ARC
  5
3640
  8
0-1
  6
CONTINUOUS
 62
     3
 10
9479.0958479999917
 20
8643.6434729999946
 30
0.0
 40
3.0
 50
181.7679900000058
 51
271.76798999988182
  0
ARC
  5
3641
  8
0-1
  6
CONTINUOUS
 62
     3
 10
15659.56474299999
 20
8850.8070199999984
 30
0.0
 40
24.999998999999999
 50
271.76798999988182
 51
91.767989999881877
  0
ARC
  5
3642
  8
0-1
  6
CONTINUOUS
 62
     3
 10
9479.4363249999915
 20
8632.6482369999976
 30
0.0
 40
3.0
 50
91.767989999881877
 51
181.7679900000058
  0
ARC
  5
3643
  8
0-1
  6
CONTINUOUS
 62
     3
 10
9482.4214389999943
 20
8600.7255299999979
 30
0.0
 40
5.0
 50
181.7679900000058
 51
271.76798999988182
  0
ARC
  5
3644
  8
0-1
  6
CONTINUOUS
 62
     3
 10
15654.567447999991
 20
8850.6526179999983
 30
0.0
 40
69.999999000000003
 50
293.5547790001263
 51
69.981200999909021
  0
ARC
  5
3645
  8
0-1
  6
CONTINUOUS
 62
     3
 10
9478.7197399999877
 20
8720.6675300000006
 30
0.0
 40
5.0
 50
91.767989999881877
 51
181.7679900000058
  0
ARC
  5
3646
  8
0-1
  6
CONTINUOUS
 62
     3
 10
9477.7062259999911
 20
8688.6211039999998
 30
0.0
 40
3.0
 50
181.7679900000058
 51
271.76798999988182
  0
TEXT
  5
3647
  8
0-5
  6
CONTINUOUS
 62
     7
 10
18457.442461999992
 20
6755.7701679999973
 30
0.0
 40
160.0
  1
G.L
 72
     4
 11
18617.442461999992
 21
6835.7701679999982
 31
0.0
  0
TEXT
  5
3648
  8
2-0
  6
CONTINUOUS
 62
     7
 10
11294.743520999989
 20
3506.7732069999979
 30
0.0
 40
160.0
  1
側 面 立 面 図
 72
     4
 11
11940.076854333331
 21
3586.7732069999979
 31
0.0
  0
TEXT
  5
3649
  8
2-0
  6
CONTINUOUS
 62
     7
 10
13291.56903947094
 20
3533.9685759999988
 30
0.0
 40
160.0
  1
1
 72
     4
 11
13318.23570613761
 21
3613.9685759999988
 31
0.0
  0
TEXT
  5
364A
  8
2-0
  6
CONTINUOUS
 62
     7
 10
13534.65775672165
 20
3453.9700439999988
 30
0.0
 40
160.0
  1
80
 72
     4
 11
13654.65775672165
 21
3533.9700439999988
 31
0.0
  0
TEXT
  5
364B
  8
2-0
  6
CONTINUOUS
 62
     7
 10
12792.571005470951
 20
3506.7732069999979
 30
0.0
 40
160.0
  1
(S=  /   )
 72
     4
 11
13352.571005470951
 21
3586.7732069999979
 31
0.0
  0
TEXT
  5
364C
  8
2-0
  6
CONTINUOUS
 62
     7
 10
21078.271616000009
 20
11601.604441999991
 30
0.0
 40
160.0
  1
平　面　図
 72
     4
 11
21531.604949333341
 21
11676.27110866666
 31
0.0
  0
TEXT
  5
364D
  8
2-0
  6
CONTINUOUS
 62
     7
 10
22883.097134470969
 20
11623.46647766667
 30
0.0
 40
160.0
  1
1
 72
     4
 11
22909.76380113764
 21
11703.46647766667
 31
0.0
  0
TEXT
  5
364E
  8
2-0
  6
CONTINUOUS
 62
     7
 10
23126.185851721671
 20
11543.467945666671
 30
0.0
 40
160.0
  1
80
 72
     4
 11
23246.185851721671
 21
11623.467945666671
 31
0.0
  0
TEXT
  5
364F
  8
2-0
  6
CONTINUOUS
 62
     7
 10
22384.099100470969
 20
11596.27110866666
 30
0.0
 40
160.0
  1
(S=  /   )
 72
     4
 11
22944.099100470969
 21
11676.27110866666
 31
0.0
  0
LINE
  5
3650
  8
2-0
  6
CONTINUOUS
 62
     6
 10
22089.404586000001
 20
13192.485129999999
 30
0.0
 11
23089.397987999961
 21
13192.485129999999
 31
0.0
  0
LINE
  5
3651
  8
2-0
  6
CONTINUOUS
 62
     6
 10
23557.338365
 20
13662.905844000001
 30
0.0
 11
23089.397987999961
 21
13192.485129999999
 31
0.0
  0
LINE
  5
3652
  8
2-0
  6
CONTINUOUS
 62
     6
 10
22106.115681999981
 20
17871.605194999989
 30
0.0
 11
23124.091029999981
 21
17871.605194999989
 31
0.0
  0
LINE
  5
3653
  8
2-0
  6
CONTINUOUS
 62
     6
 10
23580.516547999981
 20
18096.320144000001
 30
0.0
 11
23124.091029999981
 21
17871.605194999989
 31
0.0
  0
LINE
  5
3654
  8
2-0
  6
CONTINUOUS
 62
     6
 10
23518.698161999979
 20
16854.513491000002
 30
0.0
 11
23214.00274399999
 21
16958.16702200002
 31
0.0
  0
LINE
  5
3655
  8
2-0
  6
CONTINUOUS
 62
     6
 10
23673.72020099996
 20
16364.89144700002
 30
0.0
 11
23214.00274399999
 21
16120.978136000011
 31
0.0
  0
LINE
  5
3656
  8
2-0
  6
CONTINUOUS
 62
     6
 10
22293.999708999982
 20
16120.978136000011
 30
0.0
 11
23214.00274399999
 21
16120.978136000011
 31
0.0
  0
LINE
  5
3657
  8
2-0
  6
CONTINUOUS
 62
     6
 10
22014.008681999989
 20
16958.16702200002
 30
0.0
 11
23214.00274399999
 21
16958.16702200002
 31
0.0
  0
LINE
  5
3658
  8
2-0
  6
CONTINUOUS
 62
     6
 10
23589.897485999991
 20
13984.58948999998
 30
0.0
 11
23214.00274399999
 21
14165.533325
 31
0.0
  0
LINE
  5
3659
  8
2-0
  6
CONTINUOUS
 62
     6
 10
22106.115681999981
 20
14953.84273700001
 30
0.0
 11
23124.091029999981
 21
14953.84273700001
 31
0.0
  0
LINE
  5
365A
  8
2-0
  6
CONTINUOUS
 62
     6
 10
22694.001027999991
 20
14165.533325
 30
0.0
 11
23214.00274399999
 21
14165.533325
 31
0.0
  0
LINE
  5
365B
  8
2-0
  6
CONTINUOUS
 62
     6
 10
23580.516547999981
 20
15178.55570700001
 30
0.0
 11
23124.091029999981
 21
14953.84273700001
 31
0.0
  0
LINE
  5
365C
  8
2-0
  6
CONTINUOUS
 62
     4
 10
20854.563502000001
 20
19790.986780000021
 30
0.0
 11
20854.563502000001
 21
20520.983745000001
 31
0.0
  0
LINE
  5
365D
  8
2-0
  6
CONTINUOUS
 62
     3
 10
23785.064161999991
 20
19601.984326000009
 30
0.0
 11
23785.064161999991
 21
19595.988364000012
 31
0.0
  0
LINE
  5
365E
  8
2-0
  6
CONTINUOUS
 62
     3
 10
23785.064161999991
 20
19595.988364000012
 30
0.0
 11
23815.061785999991
 21
19595.988364000012
 31
0.0
  0
LINE
  5
365F
  8
2-0
  6
CONTINUOUS
 62
     3
 10
23815.061785999991
 20
19625.987968000001
 30
0.0
 11
23734.059885999981
 21
19625.987968000001
 31
0.0
  0
LINE
  5
3660
  8
2-0
  6
CONTINUOUS
 62
     3
 10
23785.064161999991
 20
19585.690908
 30
0.0
 11
23815.061785999991
 21
19585.690908
 31
0.0
  0
LINE
  5
3661
  8
2-0
  6
CONTINUOUS
 62
     3
 10
23785.064161999991
 20
19603.692650000001
 30
0.0
 11
23785.064161999991
 21
19585.690908
 31
0.0
  0
LINE
  5
3662
  8
2-0
  6
CONTINUOUS
 62
     3
 10
23810.061521999989
 20
19603.692650000001
 30
0.0
 11
23785.064161999991
 21
19603.692650000001
 31
0.0
  0
LINE
  5
3663
  8
2-0
  6
CONTINUOUS
 62
     3
 10
23810.061521999989
 20
19598.68446800001
 30
0.0
 11
23810.061521999989
 21
19603.692650000001
 31
0.0
  0
LINE
  5
3664
  8
2-0
  6
CONTINUOUS
 62
     3
 10
23803.059965
 20
19598.68446800001
 30
0.0
 11
23810.061521999989
 21
19598.68446800001
 31
0.0
  0
LINE
  5
3665
  8
2-0
  6
CONTINUOUS
 62
     3
 10
23702.763696999991
 20
19698.984695000021
 30
0.0
 11
23702.763696999991
 21
19705.990211000011
 31
0.0
  0
LINE
  5
3666
  8
2-0
  6
CONTINUOUS
 62
     3
 10
23702.763696999991
 20
19705.990211000011
 30
0.0
 11
23707.763960999961
 21
19705.990211000011
 31
0.0
  0
LINE
  5
3667
  8
2-0
  6
CONTINUOUS
 62
     3
 10
23707.763960999961
 20
19705.990211000011
 30
0.0
 11
23707.763960999961
 21
19680.980973999998
 31
0.0
  0
LINE
  5
3668
  8
2-0
  6
CONTINUOUS
 62
     3
 10
23707.763960999961
 20
19680.980973999998
 30
0.0
 11
23689.762218999971
 21
19680.980973999998
 31
0.0
  0
LINE
  5
3669
  8
2-0
  6
CONTINUOUS
 62
     3
 10
23689.762218999971
 20
19680.980973999998
 30
0.0
 11
23689.762218999971
 21
19710.984537000011
 31
0.0
  0
LINE
  5
366A
  8
2-0
  6
CONTINUOUS
 62
     3
 10
23700.05967499999
 20
19710.984537000011
 30
0.0
 11
23815.061785999991
 21
19710.984537000011
 31
0.0
  0
LINE
  5
366B
  8
2-0
  6
CONTINUOUS
 62
     3
 10
23700.05967499999
 20
19680.980973999998
 30
0.0
 11
23700.05967499999
 21
19710.984537000011
 31
0.0
  0
LINE
  5
366C
  8
2-0
  6
CONTINUOUS
 62
     3
 10
23706.061574999982
 20
19680.980973999998
 30
0.0
 11
23700.05967499999
 21
19680.980973999998
 31
0.0
  0
LINE
  5
366D
  8
2-0
  6
CONTINUOUS
 62
     3
 10
23803.059965
 20
18894.887645499992
 30
0.0
 11
23810.061521999989
 21
18894.887645499992
 31
0.0
  0
LINE
  5
366E
  8
2-0
  6
CONTINUOUS
 62
     3
 10
23810.061521999989
 20
18894.887645499992
 30
0.0
 11
23810.061521999989
 21
18899.887909500001
 31
0.0
  0
LINE
  5
366F
  8
2-0
  6
CONTINUOUS
 62
     3
 10
23810.061521999989
 20
18899.887909500001
 30
0.0
 11
23785.064161999991
 21
18899.887909500001
 31
0.0
  0
LINE
  5
3670
  8
2-0
  6
CONTINUOUS
 62
     3
 10
23785.064161999991
 20
18899.887909500001
 30
0.0
 11
23785.064161999991
 21
18881.892105499999
 31
0.0
  0
LINE
  5
3671
  8
2-0
  6
CONTINUOUS
 62
     3
 10
23785.064161999991
 20
18881.892105499999
 30
0.0
 11
23815.061785999991
 21
18881.892105499999
 31
0.0
  0
LINE
  5
3672
  8
2-0
  6
CONTINUOUS
 62
     3
 10
23785.064161999991
 20
18897.98361249996
 30
0.0
 11
23785.064161999991
 21
18891.985671499999
 31
0.0
  0
LINE
  5
3673
  8
2-0
  6
CONTINUOUS
 62
     3
 10
23785.064161999991
 20
18891.985671499999
 30
0.0
 11
23815.061785999991
 21
18891.985671499999
 31
0.0
  0
LINE
  5
3674
  8
2-0
  6
CONTINUOUS
 62
     3
 10
23815.061785999991
 20
18891.985671499999
 30
0.0
 11
23815.061785999991
 21
18928.986832499992
 31
0.0
  0
LINE
  5
3675
  8
2-0
  6
CONTINUOUS
 62
     3
 10
23785.064161999991
 20
18928.986832499992
 30
0.0
 11
23815.061785999991
 21
18928.986832499992
 31
0.0
  0
LINE
  5
3676
  8
2-0
  6
CONTINUOUS
 62
     3
 10
23785.064161999991
 20
18922.982952499991
 30
0.0
 11
23785.064161999991
 21
18928.986832499992
 31
0.0
  0
LINE
  5
3677
  8
2-0
  6
CONTINUOUS
 62
     3
 10
23785.064161999991
 20
18939.082377499992
 30
0.0
 11
23815.061785999991
 21
18939.082377499992
 31
0.0
  0
LINE
  5
3678
  8
2-0
  6
CONTINUOUS
 62
     3
 10
23785.064161999991
 20
18921.080635499999
 30
0.0
 11
23785.064161999991
 21
18939.082377499992
 31
0.0
  0
LINE
  5
3679
  8
2-0
  6
CONTINUOUS
 62
     3
 10
23810.061521999989
 20
18921.080635499999
 30
0.0
 11
23785.064161999991
 21
18921.080635499999
 31
0.0
  0
LINE
  5
367A
  8
2-0
  6
CONTINUOUS
 62
     3
 10
23810.061521999989
 20
18926.080899500001
 30
0.0
 11
23810.061521999989
 21
18921.080635499999
 31
0.0
  0
LINE
  5
367B
  8
2-0
  6
CONTINUOUS
 62
     3
 10
23803.059965
 20
18926.080899500001
 30
0.0
 11
23810.061521999989
 21
18926.080899500001
 31
0.0
  0
LINE
  5
367C
  8
2-0
  6
CONTINUOUS
 62
     3
 10
23803.059965
 20
18193.886655999999
 30
0.0
 11
23810.061521999989
 21
18193.886655999999
 31
0.0
  0
LINE
  5
367D
  8
2-0
  6
CONTINUOUS
 62
     3
 10
23810.061521999989
 20
18193.886655999999
 30
0.0
 11
23810.061521999989
 21
18198.892857999999
 31
0.0
  0
LINE
  5
367E
  8
2-0
  6
CONTINUOUS
 62
     3
 10
23810.061521999989
 20
18198.892857999999
 30
0.0
 11
23785.064161999991
 21
18198.892857999999
 31
0.0
  0
LINE
  5
367F
  8
2-0
  6
CONTINUOUS
 62
     3
 10
23785.064161999991
 20
18198.892857999999
 30
0.0
 11
23785.064161999991
 21
18180.89111600001
 31
0.0
  0
LINE
  5
3680
  8
2-0
  6
CONTINUOUS
 62
     3
 10
23785.064161999991
 20
18180.89111600001
 30
0.0
 11
23815.061785999991
 21
18180.89111600001
 31
0.0
  0
LINE
  5
3681
  8
2-0
  6
CONTINUOUS
 62
     3
 10
23785.064161999991
 20
18196.982622999989
 30
0.0
 11
23785.064161999991
 21
18190.986660999999
 31
0.0
  0
LINE
  5
3682
  8
2-0
  6
CONTINUOUS
 62
     3
 10
23785.064161999991
 20
18190.986660999999
 30
0.0
 11
23815.061785999991
 21
18190.986660999999
 31
0.0
  0
LINE
  5
3683
  8
2-0
  6
CONTINUOUS
 62
     3
 10
23815.061785999991
 20
18190.986660999999
 30
0.0
 11
23815.061785999991
 21
18227.985842999991
 31
0.0
  0
LINE
  5
3684
  8
2-0
  6
CONTINUOUS
 62
     3
 10
23785.064161999991
 20
18227.985842999991
 30
0.0
 11
23815.061785999991
 21
18227.985842999991
 31
0.0
  0
LINE
  5
3685
  8
2-0
  6
CONTINUOUS
 62
     3
 10
23785.064161999991
 20
18221.989881000001
 30
0.0
 11
23785.064161999991
 21
18227.985842999991
 31
0.0
  0
LINE
  5
3686
  8
2-0
  6
CONTINUOUS
 62
     3
 10
23785.064161999991
 20
18238.08138800001
 30
0.0
 11
23815.061785999991
 21
18238.08138800001
 31
0.0
  0
LINE
  5
3687
  8
2-0
  6
CONTINUOUS
 62
     3
 10
23785.064161999991
 20
18220.079645999998
 30
0.0
 11
23785.064161999991
 21
18238.08138800001
 31
0.0
  0
LINE
  5
3688
  8
2-0
  6
CONTINUOUS
 62
     3
 10
23810.061521999989
 20
18220.079645999998
 30
0.0
 11
23785.064161999991
 21
18220.079645999998
 31
0.0
  0
LINE
  5
3689
  8
2-0
  6
CONTINUOUS
 62
     3
 10
23810.061521999989
 20
18225.085847999992
 30
0.0
 11
23810.061521999989
 21
18220.079645999998
 31
0.0
  0
LINE
  5
368A
  8
2-0
  6
CONTINUOUS
 62
     3
 10
23803.059965
 20
18225.085847999992
 30
0.0
 11
23810.061521999989
 21
18225.085847999992
 31
0.0
  0
LINE
  5
368B
  8
2-0
  6
CONTINUOUS
 62
     3
 10
23803.059965
 20
17524.07991
 30
0.0
 11
23810.061521999989
 21
17524.07991
 31
0.0
  0
LINE
  5
368C
  8
2-0
  6
CONTINUOUS
 62
     3
 10
23810.061521999989
 20
17524.07991
 30
0.0
 11
23810.061521999989
 21
17519.091522999999
 31
0.0
  0
LINE
  5
368D
  8
2-0
  6
CONTINUOUS
 62
     3
 10
23810.061521999989
 20
17519.091522999999
 30
0.0
 11
23785.064161999991
 21
17519.091522999999
 31
0.0
  0
LINE
  5
368E
  8
2-0
  6
CONTINUOUS
 62
     3
 10
23785.064161999991
 20
17519.091522999999
 30
0.0
 11
23785.064161999991
 21
17537.087326000001
 31
0.0
  0
LINE
  5
368F
  8
2-0
  6
CONTINUOUS
 62
     3
 10
23785.064161999991
 20
17537.087326000001
 30
0.0
 11
23815.061785999991
 21
17537.087326000001
 31
0.0
  0
LINE
  5
3690
  8
2-0
  6
CONTINUOUS
 62
     3
 10
23785.064161999991
 20
17520.989881000001
 30
0.0
 11
23785.064161999991
 21
17526.985842999999
 31
0.0
  0
LINE
  5
3691
  8
2-0
  6
CONTINUOUS
 62
     3
 10
23785.064161999991
 20
17526.985842999999
 30
0.0
 11
23815.061785999991
 21
17526.985842999999
 31
0.0
  0
LINE
  5
3692
  8
2-0
  6
CONTINUOUS
 62
     3
 10
23815.061785999991
 20
17526.985842999999
 30
0.0
 11
23815.061785999991
 21
17489.98666100001
 31
0.0
  0
LINE
  5
3693
  8
2-0
  6
CONTINUOUS
 62
     3
 10
23785.064161999991
 20
17489.98666100001
 30
0.0
 11
23815.061785999991
 21
17489.98666100001
 31
0.0
  0
LINE
  5
3694
  8
2-0
  6
CONTINUOUS
 62
     3
 10
23785.064161999991
 20
17495.988561999991
 30
0.0
 11
23785.064161999991
 21
17489.98666100001
 31
0.0
  0
LINE
  5
3695
  8
2-0
  6
CONTINUOUS
 62
     3
 10
23785.064161999991
 20
17479.897055000001
 30
0.0
 11
23815.061785999991
 21
17479.897055000001
 31
0.0
  0
LINE
  5
3696
  8
2-0
  6
CONTINUOUS
 62
     3
 10
23785.064161999991
 20
17497.892857999988
 30
0.0
 11
23785.064161999991
 21
17479.897055000001
 31
0.0
  0
LINE
  5
3697
  8
2-0
  6
CONTINUOUS
 62
     3
 10
23810.061521999989
 20
17497.892857999988
 30
0.0
 11
23785.064161999991
 21
17497.892857999988
 31
0.0
  0
LINE
  5
3698
  8
2-0
  6
CONTINUOUS
 62
     3
 10
23810.061521999989
 20
17492.892595000001
 30
0.0
 11
23810.061521999989
 21
17497.892857999988
 31
0.0
  0
LINE
  5
3699
  8
2-0
  6
CONTINUOUS
 62
     3
 10
23803.059965
 20
17492.892595000001
 30
0.0
 11
23810.061521999989
 21
17492.892595000001
 31
0.0
  0
LINE
  5
369A
  8
2-0
  6
CONTINUOUS
 62
     3
 10
23812.175648
 20
16772.983480999999
 30
0.0
 11
23812.175648
 21
16792.984536
 31
0.0
  0
LINE
  5
369B
  8
2-0
  6
CONTINUOUS
 62
     3
 10
23812.175648
 20
16792.984536
 30
0.0
 11
23727.17907899999
 21
16792.984536
 31
0.0
  0
LINE
  5
369C
  8
2-0
  6
CONTINUOUS
 62
     3
 10
23803.059965
 20
16819.591246
 30
0.0
 11
23810.061521999989
 21
16819.591246
 31
0.0
  0
LINE
  5
369D
  8
2-0
  6
CONTINUOUS
 62
     3
 10
23810.061521999989
 20
16819.591246
 30
0.0
 11
23810.061521999989
 21
16814.596920000011
 31
0.0
  0
LINE
  5
369E
  8
2-0
  6
CONTINUOUS
 62
     3
 10
23810.061521999989
 20
16814.596920000011
 30
0.0
 11
23785.064161999991
 21
16814.596920000011
 31
0.0
  0
LINE
  5
369F
  8
2-0
  6
CONTINUOUS
 62
     3
 10
23785.064161999991
 20
16814.596920000011
 30
0.0
 11
23785.064161999991
 21
16832.592723999991
 31
0.0
  0
LINE
  5
36A0
  8
2-0
  6
CONTINUOUS
 62
     3
 10
23785.064161999991
 20
16832.592723999991
 30
0.0
 11
23815.061785999991
 21
16832.592723999991
 31
0.0
  0
LINE
  5
36A1
  8
2-0
  6
CONTINUOUS
 62
     3
 10
23785.064161999991
 20
16822.98413999999
 30
0.0
 11
23785.064161999991
 21
16816.982240000001
 31
0.0
  0
LINE
  5
36A2
  8
2-0
  6
CONTINUOUS
 62
     3
 10
23815.061785999991
 20
16822.98413999999
 30
0.0
 11
23785.064161999991
 21
16822.98413999999
 31
0.0
  0
LINE
  5
36A3
  8
2-0
  6
CONTINUOUS
 62
     3
 10
23815.061785999991
 20
16832.592723999991
 30
0.0
 11
23815.061785999991
 21
17479.897055000001
 31
0.0
  0
LINE
  5
36A4
  8
2-0
  6
CONTINUOUS
 62
     3
 10
23815.061785999991
 20
17537.087326000001
 30
0.0
 11
23815.061785999991
 21
18180.89111600001
 31
0.0
  0
LINE
  5
36A5
  8
2-0
  6
CONTINUOUS
 62
     3
 10
23815.061785999991
 20
16677.982424999991
 30
0.0
 11
23785.064161999991
 21
16677.982424999991
 31
0.0
  0
LINE
  5
36A6
  8
2-0
  6
CONTINUOUS
 62
     3
 10
23785.064161999991
 20
16677.982424999991
 30
0.0
 11
23785.064161999991
 21
16683.984325000001
 31
0.0
  0
LINE
  5
36A7
  8
2-0
  6
CONTINUOUS
 62
     3
 10
23727.17907899999
 20
16707.987968000001
 30
0.0
 11
23812.175648
 21
16707.987968000001
 31
0.0
  0
LINE
  5
36A8
  8
2-0
  6
CONTINUOUS
 62
     3
 10
23812.175648
 20
16707.987968000001
 30
0.0
 11
23812.175648
 21
16727.983085000011
 31
0.0
  0
LINE
  5
36A9
  8
2-0
  6
CONTINUOUS
 62
     3
 10
23785.064161999991
 20
16668.373842000012
 30
0.0
 11
23815.061785999991
 21
16668.373842000012
 31
0.0
  0
LINE
  5
36AA
  8
2-0
  6
CONTINUOUS
 62
     3
 10
23785.064161999991
 20
16686.369644999992
 30
0.0
 11
23785.064161999991
 21
16668.373842000012
 31
0.0
  0
LINE
  5
36AB
  8
2-0
  6
CONTINUOUS
 62
     3
 10
23810.061521999989
 20
16686.369644999992
 30
0.0
 11
23785.064161999991
 21
16686.369644999992
 31
0.0
  0
LINE
  5
36AC
  8
2-0
  6
CONTINUOUS
 62
     3
 10
23810.061521999989
 20
16681.369381000011
 30
0.0
 11
23810.061521999989
 21
16686.369644999992
 31
0.0
  0
LINE
  5
36AD
  8
2-0
  6
CONTINUOUS
 62
     3
 10
23803.059965
 20
16681.369381000011
 30
0.0
 11
23810.061521999989
 21
16681.369381000011
 31
0.0
  0
LINE
  5
36AE
  8
2-0
  6
CONTINUOUS
 62
     3
 10
23803.059965
 20
15976.887150499981
 30
0.0
 11
23810.061521999989
 21
15976.887150499981
 31
0.0
  0
LINE
  5
36AF
  8
2-0
  6
CONTINUOUS
 62
     3
 10
23810.061521999989
 20
15976.887150499981
 30
0.0
 11
23810.061521999989
 21
15981.88741449999
 31
0.0
  0
LINE
  5
36B0
  8
2-0
  6
CONTINUOUS
 62
     3
 10
23810.061521999989
 20
15981.88741449999
 30
0.0
 11
23785.064161999991
 21
15981.88741449999
 31
0.0
  0
LINE
  5
36B1
  8
2-0
  6
CONTINUOUS
 62
     3
 10
23785.064161999991
 20
15981.88741449999
 30
0.0
 11
23785.064161999991
 21
15963.885672500001
 31
0.0
  0
LINE
  5
36B2
  8
2-0
  6
CONTINUOUS
 62
     3
 10
23785.064161999991
 20
15963.885672500001
 30
0.0
 11
23815.061785999991
 21
15963.885672500001
 31
0.0
  0
LINE
  5
36B3
  8
2-0
  6
CONTINUOUS
 62
     3
 10
23785.064161999991
 20
15979.9831175
 30
0.0
 11
23785.064161999991
 21
15973.986166500001
 31
0.0
  0
LINE
  5
36B4
  8
2-0
  6
CONTINUOUS
 62
     3
 10
23785.064161999991
 20
15973.986166500001
 30
0.0
 11
23815.061785999991
 21
15973.986166500001
 31
0.0
  0
LINE
  5
36B5
  8
2-0
  6
CONTINUOUS
 62
     3
 10
23815.061785999991
 20
15973.986166500001
 30
0.0
 11
23815.061785999991
 21
16010.9863375
 31
0.0
  0
LINE
  5
36B6
  8
2-0
  6
CONTINUOUS
 62
     3
 10
23785.064161999991
 20
16010.9863375
 30
0.0
 11
23815.061785999991
 21
16010.9863375
 31
0.0
  0
LINE
  5
36B7
  8
2-0
  6
CONTINUOUS
 62
     3
 10
23785.064161999991
 20
16004.983447500001
 30
0.0
 11
23785.064161999991
 21
16010.9863375
 31
0.0
  0
LINE
  5
36B8
  8
2-0
  6
CONTINUOUS
 62
     3
 10
23785.064161999991
 20
16021.081882500001
 30
0.0
 11
23815.061785999991
 21
16021.081882500001
 31
0.0
  0
LINE
  5
36B9
  8
2-0
  6
CONTINUOUS
 62
     3
 10
23785.064161999991
 20
16003.074201499991
 30
0.0
 11
23785.064161999991
 21
16021.081882500001
 31
0.0
  0
LINE
  5
36BA
  8
2-0
  6
CONTINUOUS
 62
     3
 10
23810.061521999989
 20
16003.074201499991
 30
0.0
 11
23785.064161999991
 21
16003.074201499991
 31
0.0
  0
LINE
  5
36BB
  8
2-0
  6
CONTINUOUS
 62
     3
 10
23810.061521999989
 20
16008.0804045
 30
0.0
 11
23810.061521999989
 21
16003.074201499991
 31
0.0
  0
LINE
  5
36BC
  8
2-0
  6
CONTINUOUS
 62
     3
 10
23803.059965
 20
16008.0804045
 30
0.0
 11
23810.061521999989
 21
16008.0804045
 31
0.0
  0
LINE
  5
36BD
  8
2-0
  6
CONTINUOUS
 62
     3
 10
23803.059965
 20
15307.320421
 30
0.0
 11
23810.061521999989
 21
15307.320421
 31
0.0
  0
LINE
  5
36BE
  8
2-0
  6
CONTINUOUS
 62
     3
 10
23810.061521999989
 20
15307.320421
 30
0.0
 11
23810.061521999989
 21
15302.326096000001
 31
0.0
  0
LINE
  5
36BF
  8
2-0
  6
CONTINUOUS
 62
     3
 10
23810.061521999989
 20
15302.326096000001
 30
0.0
 11
23785.064161999991
 21
15302.326096000001
 31
0.0
  0
LINE
  5
36C0
  8
2-0
  6
CONTINUOUS
 62
     3
 10
23785.064161999991
 20
15302.326096000001
 30
0.0
 11
23785.064161999991
 21
15320.32189900001
 31
0.0
  0
LINE
  5
36C1
  8
2-0
  6
CONTINUOUS
 62
     3
 10
23785.064161999991
 20
15320.32189900001
 30
0.0
 11
23815.061785999991
 21
15320.32189900001
 31
0.0
  0
LINE
  5
36C2
  8
2-0
  6
CONTINUOUS
 62
     3
 10
23785.064161999991
 20
15304.22445400001
 30
0.0
 11
23785.064161999991
 21
15310.226354
 31
0.0
  0
LINE
  5
36C3
  8
2-0
  6
CONTINUOUS
 62
     3
 10
23785.064161999991
 20
15310.226354
 30
0.0
 11
23815.061785999991
 21
15310.226354
 31
0.0
  0
LINE
  5
36C4
  8
2-0
  6
CONTINUOUS
 62
     3
 10
23815.061785999991
 20
15273.22717300001
 30
0.0
 11
23815.061785999991
 21
15310.226354
 31
0.0
  0
LINE
  5
36C5
  8
2-0
  6
CONTINUOUS
 62
     3
 10
23785.064161999991
 20
15273.22717300001
 30
0.0
 11
23815.061785999991
 21
15273.22717300001
 31
0.0
  0
LINE
  5
36C6
  8
2-0
  6
CONTINUOUS
 62
     3
 10
23785.064161999991
 20
15279.224124
 30
0.0
 11
23785.064161999991
 21
15273.22717300001
 31
0.0
  0
LINE
  5
36C7
  8
2-0
  6
CONTINUOUS
 62
     3
 10
23785.064161999991
 20
15263.12568899999
 30
0.0
 11
23815.061785999991
 21
15263.12568899999
 31
0.0
  0
LINE
  5
36C8
  8
2-0
  6
CONTINUOUS
 62
     3
 10
23785.064161999991
 20
15281.13336999999
 30
0.0
 11
23785.064161999991
 21
15263.12568899999
 31
0.0
  0
LINE
  5
36C9
  8
2-0
  6
CONTINUOUS
 62
     3
 10
23810.061521999989
 20
15281.13336999999
 30
0.0
 11
23785.064161999991
 21
15281.13336999999
 31
0.0
  0
LINE
  5
36CA
  8
2-0
  6
CONTINUOUS
 62
     3
 10
23810.061521999989
 20
15276.133106000019
 30
0.0
 11
23810.061521999989
 21
15281.13336999999
 31
0.0
  0
LINE
  5
36CB
  8
2-0
  6
CONTINUOUS
 62
     3
 10
23803.059965
 20
15276.133106000019
 30
0.0
 11
23810.061521999989
 21
15276.133106000019
 31
0.0
  0
LINE
  5
36CC
  8
2-0
  6
CONTINUOUS
 62
     3
 10
23815.061785999991
 20
16668.373842000012
 30
0.0
 11
23815.061785999991
 21
16021.081882500001
 31
0.0
  0
LINE
  5
36CD
  8
2-0
  6
CONTINUOUS
 62
     3
 10
23815.061785999991
 20
16822.98413999999
 30
0.0
 11
23815.061785999991
 21
16677.982424999991
 31
0.0
  0
LINE
  5
36CE
  8
2-0
  6
CONTINUOUS
 62
     3
 10
23727.17907899999
 20
16792.984536
 30
0.0
 11
23727.17907899999
 21
16707.987968000001
 31
0.0
  0
LINE
  5
36CF
  8
2-0
  6
CONTINUOUS
 62
     6
 10
22188.970411999991
 20
18561.431801499992
 30
0.0
 11
23214.00274399999
 21
18561.431801499992
 31
0.0
  0
LINE
  5
36D0
  8
2-0
  6
CONTINUOUS
 62
     3
 10
23803.059965
 20
14574.892099000001
 30
0.0
 11
23810.061521999989
 21
14574.892099000001
 31
0.0
  0
LINE
  5
36D1
  8
2-0
  6
CONTINUOUS
 62
     3
 10
23810.061521999989
 20
14574.892099000001
 30
0.0
 11
23810.061521999989
 21
14579.886425000001
 31
0.0
  0
LINE
  5
36D2
  8
2-0
  6
CONTINUOUS
 62
     3
 10
23810.061521999989
 20
14579.886425000001
 30
0.0
 11
23785.064161999991
 21
14579.886425000001
 31
0.0
  0
LINE
  5
36D3
  8
2-0
  6
CONTINUOUS
 62
     3
 10
23785.064161999991
 20
14579.886425000001
 30
0.0
 11
23785.064161999991
 21
14561.890621
 31
0.0
  0
LINE
  5
36D4
  8
2-0
  6
CONTINUOUS
 62
     3
 10
23785.064161999991
 20
14561.890621
 30
0.0
 11
23815.061785999991
 21
14561.890621
 31
0.0
  0
LINE
  5
36D5
  8
2-0
  6
CONTINUOUS
 62
     3
 10
23785.064161999991
 20
14577.989056
 30
0.0
 11
23785.064161999991
 21
14571.98616600001
 31
0.0
  0
LINE
  5
36D6
  8
2-0
  6
CONTINUOUS
 62
     3
 10
23785.064161999991
 20
14571.98616600001
 30
0.0
 11
23815.061785999991
 21
14571.98616600001
 31
0.0
  0
LINE
  5
36D7
  8
2-0
  6
CONTINUOUS
 62
     3
 10
23815.061785999991
 20
14571.98616600001
 30
0.0
 11
23815.061785999991
 21
14608.986337999981
 31
0.0
  0
LINE
  5
36D8
  8
2-0
  6
CONTINUOUS
 62
     3
 10
23785.064161999991
 20
14608.986337999981
 30
0.0
 11
23815.061785999991
 21
14608.986337999981
 31
0.0
  0
LINE
  5
36D9
  8
2-0
  6
CONTINUOUS
 62
     3
 10
23785.064161999991
 20
14602.98938599999
 30
0.0
 11
23785.064161999991
 21
14608.986337999981
 31
0.0
  0
LINE
  5
36DA
  8
2-0
  6
CONTINUOUS
 62
     3
 10
23785.064161999991
 20
14619.086831000001
 30
0.0
 11
23815.061785999991
 21
14619.086831000001
 31
0.0
  0
LINE
  5
36DB
  8
2-0
  6
CONTINUOUS
 62
     3
 10
23785.064161999991
 20
14601.08014
 30
0.0
 11
23785.064161999991
 21
14619.086831000001
 31
0.0
  0
LINE
  5
36DC
  8
2-0
  6
CONTINUOUS
 62
     3
 10
23810.061521999989
 20
14601.08014
 30
0.0
 11
23785.064161999991
 21
14601.08014
 31
0.0
  0
LINE
  5
36DD
  8
2-0
  6
CONTINUOUS
 62
     3
 10
23810.061521999989
 20
14606.085353
 30
0.0
 11
23810.061521999989
 21
14601.08014
 31
0.0
  0
LINE
  5
36DE
  8
2-0
  6
CONTINUOUS
 62
     3
 10
23803.059965
 20
14606.085353
 30
0.0
 11
23810.061521999989
 21
14606.085353
 31
0.0
  0
LINE
  5
36DF
  8
2-0
  6
CONTINUOUS
 62
     3
 10
23785.064161999991
 20
13898.988179
 30
0.0
 11
23785.064161999991
 21
13904.993047999989
 31
0.0
  0
LINE
  5
36E0
  8
2-0
  6
CONTINUOUS
 62
     3
 10
23785.064161999991
 20
13904.993047999989
 30
0.0
 11
23815.061785999991
 21
13904.993047999989
 31
0.0
  0
LINE
  5
36E1
  8
2-0
  6
CONTINUOUS
 62
     3
 10
23815.061785999991
 20
13904.993047999989
 30
0.0
 11
23815.061785999991
 21
13789.988957
 31
0.0
  0
LINE
  5
36E2
  8
2-0
  6
CONTINUOUS
 62
     3
 10
23815.061785999991
 20
13789.988957
 30
0.0
 11
23730.063237999992
 21
13789.988957
 31
0.0
  0
LINE
  5
36E3
  8
2-0
  6
CONTINUOUS
 62
     3
 10
23730.063237999992
 20
13789.988957
 30
0.0
 11
23730.063237999992
 21
13874.984536
 31
0.0
  0
LINE
  5
36E4
  8
2-0
  6
CONTINUOUS
 62
     3
 10
23730.063237999992
 20
13874.984536
 30
0.0
 11
23762.062155999989
 21
13874.984536
 31
0.0
  0
LINE
  5
36E5
  8
2-0
  6
CONTINUOUS
 62
     3
 10
23803.059965
 20
13902.022781
 30
0.0
 11
23810.061521999989
 21
13902.022781
 31
0.0
  0
LINE
  5
36E6
  8
2-0
  6
CONTINUOUS
 62
     3
 10
23810.061521999989
 20
13902.022781
 30
0.0
 11
23810.061521999989
 21
13897.02548599998
 31
0.0
  0
LINE
  5
36E7
  8
2-0
  6
CONTINUOUS
 62
     3
 10
23810.061521999989
 20
13897.02548599998
 30
0.0
 11
23785.064161999991
 21
13897.02548599998
 31
0.0
  0
LINE
  5
36E8
  8
2-0
  6
CONTINUOUS
 62
     3
 10
23785.064161999991
 20
13897.02548599998
 30
0.0
 11
23785.064161999991
 21
13915.024258999991
 31
0.0
  0
LINE
  5
36E9
  8
2-0
  6
CONTINUOUS
 62
     3
 10
23785.064161999991
 20
13915.024258999991
 30
0.0
 11
23815.061785999991
 21
13915.024258999991
 31
0.0
  0
LINE
  5
36EA
  8
2-0
  6
CENTER2
 62
     6
 10
23772.563502000001
 20
13592.49139899999
 30
0.0
 11
23772.563502000001
 21
14748.360157000019
 31
0.0
  0
LINE
  5
36EB
  8
2-0
  6
CONTINUOUS
 62
     3
 10
23815.061785999991
 20
18238.08138800001
 30
0.0
 11
23815.061785999991
 21
18881.892105499999
 31
0.0
  0
LINE
  5
36EC
  8
2-0
  6
CONTINUOUS
 62
     6
 10
24507.566668999982
 20
20440.987440000012
 30
0.0
 11
25707.560730999961
 21
20440.987440000012
 31
0.0
  0
LINE
  5
36ED
  8
2-0
  6
CONTINUOUS
 62
     6
 10
23645.533835999981
 20
18803.586309499991
 30
0.0
 11
23214.00274399999
 21
18561.431801499992
 31
0.0
  0
LINE
  5
36EE
  8
2-0
  6
CONTINUOUS
 62
     6
 10
23967.10266999996
 20
19853.664277000022
 30
0.0
 11
24507.566668999982
 21
20440.987440000012
 31
0.0
  0
LINE
  5
36EF
  8
2-0
  6
CONTINUOUS
 62
     3
 10
23724.057379000002
 20
18166.984997999989
 30
0.0
 11
23771.063026999971
 21
18166.984997999989
 31
0.0
  0
LINE
  5
36F0
  8
2-0
  6
CONTINUOUS
 62
     3
 10
23771.063026999971
 20
18251.985526
 30
0.0
 11
23724.057379000002
 21
18251.985526
 31
0.0
  0
LINE
  5
36F1
  8
2-0
  6
CONTINUOUS
 62
     3
 10
23771.063026999971
 20
18166.984997999989
 30
0.0
 11
23771.063026999971
 21
18191.988297
 31
0.0
  0
LINE
  5
36F2
  8
2-0
  6
CONTINUOUS
 62
     3
 10
23771.063026999971
 20
18226.984206000001
 30
0.0
 11
23771.063026999971
 21
18251.985526
 31
0.0
  0
LINE
  5
36F3
  8
2-0
  6
CONTINUOUS
 62
     3
 10
23724.057379000002
 20
18251.985526
 30
0.0
 11
23724.057379000002
 21
18166.984997999989
 31
0.0
  0
LINE
  5
36F4
  8
2-0
  6
CONTINUOUS
 62
     3
 10
23815.061785999991
 20
15963.885672500001
 30
0.0
 11
23815.061785999991
 21
15320.32189900001
 31
0.0
  0
LINE
  5
36F5
  8
2-0
  6
CONTINUOUS
 62
     3
 10
23724.057379000002
 20
15248.987967999999
 30
0.0
 11
23771.063026999971
 21
15248.987967999999
 31
0.0
  0
LINE
  5
36F6
  8
2-0
  6
CONTINUOUS
 62
     3
 10
23771.063026999971
 20
15333.984535999991
 30
0.0
 11
23724.057379000002
 21
15333.984535999991
 31
0.0
  0
LINE
  5
36F7
  8
2-0
  6
CONTINUOUS
 62
     3
 10
23771.063026999971
 20
15248.987967999999
 30
0.0
 11
23771.063026999971
 21
15273.983349
 31
0.0
  0
LINE
  5
36F8
  8
2-0
  6
CONTINUOUS
 62
     3
 10
23771.063026999971
 20
15308.98321700001
 30
0.0
 11
23771.063026999971
 21
15333.984535999991
 31
0.0
  0
LINE
  5
36F9
  8
2-0
  6
CONTINUOUS
 62
     3
 10
23724.057379000002
 20
15333.984535999991
 30
0.0
 11
23724.057379000002
 21
15248.987967999999
 31
0.0
  0
LINE
  5
36FA
  8
2-0
  6
CONTINUOUS
 62
     6
 10
23632.47693099999
 20
18826.84565349999
 30
0.0
 11
23785.064161999991
 21
18881.892105499999
 31
0.0
  0
LINE
  5
36FB
  8
2-0
  6
CONTINUOUS
 62
     6
 10
23785.064161999991
 20
18881.892105499999
 30
0.0
 11
23658.582821999989
 21
18780.332905499981
 31
0.0
  0
LINE
  5
36FC
  8
2-0
  6
CONTINUOUS
 62
     6
 10
23632.47693099999
 20
18826.84565349999
 30
0.0
 11
23658.582821999989
 21
18780.332905499981
 31
0.0
  0
LINE
  5
36FD
  8
2-0
  6
CONTINUOUS
 62
     6
 10
23658.582821999989
 20
18780.332905499981
 30
0.0
 11
23785.064161999991
 21
18881.892105499999
 31
0.0
  0
LINE
  5
36FE
  8
2-0
  6
CONTINUOUS
 62
     6
 10
23785.064161999991
 20
18881.892105499999
 30
0.0
 11
23632.47693099999
 21
18826.84565349999
 31
0.0
  0
LINE
  5
36FF
  8
2-0
  6
CONTINUOUS
 62
     6
 10
23632.47693099999
 20
18826.84565349999
 30
0.0
 11
23785.064161999991
 21
18881.892105499999
 31
0.0
  0
LINE
  5
3700
  8
2-0
  6
CONTINUOUS
 62
     6
 10
23658.582821999989
 20
18780.332905499981
 30
0.0
 11
23785.064161999991
 21
18881.892105499999
 31
0.0
  0
LINE
  5
3701
  8
2-0
  6
CONTINUOUS
 62
     6
 10
23658.582821999989
 20
18780.332905499981
 30
0.0
 11
23632.47693099999
 21
18826.84565349999
 31
0.0
  0
LINE
  5
3702
  8
2-0
  6
CONTINUOUS
 62
     6
 10
23986.71969899999
 20
19835.603150000021
 30
0.0
 11
23858.757678999991
 21
19735.920532000011
 31
0.0
  0
LINE
  5
3703
  8
2-0
  6
CONTINUOUS
 62
     6
 10
23858.757678999991
 20
19735.920532000011
 30
0.0
 11
23947.471783999979
 21
19871.717487000009
 31
0.0
  0
LINE
  5
3704
  8
2-0
  6
CONTINUOUS
 62
     6
 10
23986.71969899999
 20
19835.603150000021
 30
0.0
 11
23947.471783999979
 21
19871.717487000009
 31
0.0
  0
LINE
  5
3705
  8
2-0
  6
CONTINUOUS
 62
     6
 10
23947.471783999979
 20
19871.717487000009
 30
0.0
 11
23858.757678999991
 21
19735.920532000011
 31
0.0
  0
LINE
  5
3706
  8
2-0
  6
CONTINUOUS
 62
     6
 10
23858.757678999991
 20
19735.920532000011
 30
0.0
 11
23986.71969899999
 21
19835.603150000021
 31
0.0
  0
LINE
  5
3707
  8
2-0
  6
CONTINUOUS
 62
     6
 10
23986.71969899999
 20
19835.603150000021
 30
0.0
 11
23858.757678999991
 21
19735.920532000011
 31
0.0
  0
LINE
  5
3708
  8
2-0
  6
CONTINUOUS
 62
     6
 10
23947.471783999979
 20
19871.717487000009
 30
0.0
 11
23858.757678999991
 21
19735.920532000011
 31
0.0
  0
LINE
  5
3709
  8
2-0
  6
CONTINUOUS
 62
     6
 10
23947.471783999979
 20
19871.717487000009
 30
0.0
 11
23986.71969899999
 21
19835.603150000021
 31
0.0
  0
LINE
  5
370A
  8
2-0
  6
CONTINUOUS
 62
     4
 10
20854.563502000001
 20
19790.986780000021
 30
0.0
 11
20854.563502000001
 21
20520.983745000001
 31
0.0
  0
LINE
  5
370B
  8
2-0
  6
CONTINUOUS
 62
     6
 10
23568.738411999981
 20
15202.48115800001
 30
0.0
 11
23724.057379000002
 21
15249.22847900001
 31
0.0
  0
LINE
  5
370C
  8
2-0
  6
CONTINUOUS
 62
     6
 10
23724.057379000002
 20
15249.22847900001
 30
0.0
 11
23592.296662999968
 21
15154.63619400001
 31
0.0
  0
LINE
  5
370D
  8
2-0
  6
CONTINUOUS
 62
     6
 10
23568.738411999981
 20
15202.48115800001
 30
0.0
 11
23592.296662999968
 21
15154.63619400001
 31
0.0
  0
LINE
  5
370E
  8
2-0
  6
CONTINUOUS
 62
     6
 10
23592.296662999968
 20
15154.63619400001
 30
0.0
 11
23724.057379000002
 21
15249.22847900001
 31
0.0
  0
LINE
  5
370F
  8
2-0
  6
CONTINUOUS
 62
     6
 10
23724.057379000002
 20
15249.22847900001
 30
0.0
 11
23568.738411999981
 21
15202.48115800001
 31
0.0
  0
LINE
  5
3710
  8
2-0
  6
CONTINUOUS
 62
     6
 10
23568.738411999981
 20
15202.48115800001
 30
0.0
 11
23724.057379000002
 21
15249.22847900001
 31
0.0
  0
LINE
  5
3711
  8
2-0
  6
CONTINUOUS
 62
     6
 10
23592.296662999968
 20
15154.63619400001
 30
0.0
 11
23724.057379000002
 21
15249.22847900001
 31
0.0
  0
LINE
  5
3712
  8
2-0
  6
CONTINUOUS
 62
     6
 10
23592.296662999968
 20
15154.63619400001
 30
0.0
 11
23568.738411999981
 21
15202.48115800001
 31
0.0
  0
LINE
  5
3713
  8
2-0
  6
CONTINUOUS
 62
     6
 10
23538.424064999988
 20
13681.716218999991
 30
0.0
 11
23670.170923999991
 21
13776.343145999999
 31
0.0
  0
LINE
  5
3714
  8
2-0
  6
CONTINUOUS
 62
     6
 10
23670.170923999991
 20
13776.343145999999
 30
0.0
 11
23576.240787999988
 21
13644.10437599999
 31
0.0
  0
LINE
  5
3715
  8
2-0
  6
CONTINUOUS
 62
     6
 10
23538.424064999988
 20
13681.716218999991
 30
0.0
 11
23576.240787999988
 21
13644.10437599999
 31
0.0
  0
LINE
  5
3716
  8
2-0
  6
CONTINUOUS
 62
     6
 10
23576.240787999988
 20
13644.10437599999
 30
0.0
 11
23670.170923999991
 21
13776.343145999999
 31
0.0
  0
LINE
  5
3717
  8
2-0
  6
CONTINUOUS
 62
     6
 10
23670.170923999991
 20
13776.343145999999
 30
0.0
 11
23538.424064999988
 21
13681.716218999991
 31
0.0
  0
LINE
  5
3718
  8
2-0
  6
CONTINUOUS
 62
     6
 10
23538.424064999988
 20
13681.716218999991
 30
0.0
 11
23670.170923999991
 21
13776.343145999999
 31
0.0
  0
LINE
  5
3719
  8
2-0
  6
CONTINUOUS
 62
     6
 10
23576.240787999988
 20
13644.10437599999
 30
0.0
 11
23670.170923999991
 21
13776.343145999999
 31
0.0
  0
LINE
  5
371A
  8
2-0
  6
CONTINUOUS
 62
     6
 10
23576.240787999988
 20
13644.10437599999
 30
0.0
 11
23538.424064999988
 21
13681.716218999991
 31
0.0
  0
LINE
  5
371B
  8
2-0
  6
CONTINUOUS
 62
     6
 10
23601.45985399999
 20
14008.620845999991
 30
0.0
 11
23734.059885999981
 21
13915.192517999991
 31
0.0
  0
LINE
  5
371C
  8
2-0
  6
CONTINUOUS
 62
     6
 10
23734.059885999981
 20
13915.192517999991
 30
0.0
 11
23578.327199999982
 21
13960.568031999999
 31
0.0
  0
LINE
  5
371D
  8
2-0
  6
CONTINUOUS
 62
     6
 10
23601.45985399999
 20
14008.620845999991
 30
0.0
 11
23578.327199999982
 21
13960.568031999999
 31
0.0
  0
LINE
  5
371E
  8
2-0
  6
CONTINUOUS
 62
     6
 10
23578.327199999982
 20
13960.568031999999
 30
0.0
 11
23734.059885999981
 21
13915.192517999991
 31
0.0
  0
LINE
  5
371F
  8
2-0
  6
CONTINUOUS
 62
     6
 10
23734.059885999981
 20
13915.192517999991
 30
0.0
 11
23601.45985399999
 21
14008.620845999991
 31
0.0
  0
LINE
  5
3720
  8
2-0
  6
CONTINUOUS
 62
     6
 10
23601.45985399999
 20
14008.620845999991
 30
0.0
 11
23734.059885999981
 21
13915.192517999991
 31
0.0
  0
LINE
  5
3721
  8
2-0
  6
CONTINUOUS
 62
     6
 10
23578.327199999982
 20
13960.568031999999
 30
0.0
 11
23734.059885999981
 21
13915.192517999991
 31
0.0
  0
LINE
  5
3722
  8
2-0
  6
CONTINUOUS
 62
     6
 10
23578.327199999982
 20
13960.568031999999
 30
0.0
 11
23601.45985399999
 21
14008.620845999991
 31
0.0
  0
LINE
  5
3723
  8
2-0
  6
CONTINUOUS
 62
     6
 10
23661.223499999989
 20
16388.441779000019
 30
0.0
 11
23815.061785999991
 21
16439.875610000021
 31
0.0
  0
LINE
  5
3724
  8
2-0
  6
CONTINUOUS
 62
     6
 10
23815.061785999991
 20
16439.875610000021
 30
0.0
 11
23686.22679899996
 21
16341.33517500002
 31
0.0
  0
LINE
  5
3725
  8
2-0
  6
CONTINUOUS
 62
     6
 10
23661.223499999989
 20
16388.441779000019
 30
0.0
 11
23686.22679899996
 21
16341.33517500002
 31
0.0
  0
LINE
  5
3726
  8
2-0
  6
CONTINUOUS
 62
     6
 10
23686.22679899996
 20
16341.33517500002
 30
0.0
 11
23815.061785999991
 21
16439.875610000021
 31
0.0
  0
LINE
  5
3727
  8
2-0
  6
CONTINUOUS
 62
     6
 10
23815.061785999991
 20
16439.875610000021
 30
0.0
 11
23661.223499999989
 21
16388.441779000019
 31
0.0
  0
LINE
  5
3728
  8
2-0
  6
CONTINUOUS
 62
     6
 10
23661.223499999989
 20
16388.441779000019
 30
0.0
 11
23815.061785999991
 21
16439.875610000021
 31
0.0
  0
LINE
  5
3729
  8
2-0
  6
CONTINUOUS
 62
     6
 10
23686.22679899996
 20
16341.33517500002
 30
0.0
 11
23815.061785999991
 21
16439.875610000021
 31
0.0
  0
LINE
  5
372A
  8
2-0
  6
CONTINUOUS
 62
     6
 10
23686.22679899996
 20
16341.33517500002
 30
0.0
 11
23661.223499999989
 21
16388.441779000019
 31
0.0
  0
LINE
  5
372B
  8
2-0
  6
CONTINUOUS
 62
     6
 10
23527.287292999979
 20
16879.76027100001
 30
0.0
 11
23670.170923999991
 21
16802.984641999999
 31
0.0
  0
LINE
  5
372C
  8
2-0
  6
CONTINUOUS
 62
     6
 10
23670.170923999991
 20
16802.984641999999
 30
0.0
 11
23510.109030999982
 21
16829.266711000011
 31
0.0
  0
LINE
  5
372D
  8
2-0
  6
CONTINUOUS
 62
     6
 10
23527.287292999979
 20
16879.76027100001
 30
0.0
 11
23510.109030999982
 21
16829.266711000011
 31
0.0
  0
LINE
  5
372E
  8
2-0
  6
CONTINUOUS
 62
     6
 10
23510.109030999982
 20
16829.266711000011
 30
0.0
 11
23670.170923999991
 21
16802.984641999999
 31
0.0
  0
LINE
  5
372F
  8
2-0
  6
CONTINUOUS
 62
     6
 10
23670.170923999991
 20
16802.984641999999
 30
0.0
 11
23527.287292999979
 21
16879.76027100001
 31
0.0
  0
LINE
  5
3730
  8
2-0
  6
CONTINUOUS
 62
     6
 10
23527.287292999979
 20
16879.76027100001
 30
0.0
 11
23670.170923999991
 21
16802.984641999999
 31
0.0
  0
LINE
  5
3731
  8
2-0
  6
CONTINUOUS
 62
     6
 10
23510.109030999982
 20
16829.266711000011
 30
0.0
 11
23670.170923999991
 21
16802.984641999999
 31
0.0
  0
LINE
  5
3732
  8
2-0
  6
CONTINUOUS
 62
     6
 10
23510.109030999982
 20
16829.266711000011
 30
0.0
 11
23527.287292999979
 21
16879.76027100001
 31
0.0
  0
LINE
  5
3733
  8
2-0
  6
CONTINUOUS
 62
     6
 10
23568.738411999981
 20
18120.240645999991
 30
0.0
 11
23724.057379000002
 21
18166.984997999989
 31
0.0
  0
LINE
  5
3734
  8
2-0
  6
CONTINUOUS
 62
     6
 10
23724.057379000002
 20
18166.984997999989
 30
0.0
 11
23592.296662999968
 21
18072.389744
 31
0.0
  0
LINE
  5
3735
  8
2-0
  6
CONTINUOUS
 62
     6
 10
23568.738411999981
 20
18120.240645999991
 30
0.0
 11
23592.296662999968
 21
18072.389744
 31
0.0
  0
LINE
  5
3736
  8
2-0
  6
CONTINUOUS
 62
     6
 10
23592.296662999968
 20
18072.389744
 30
0.0
 11
23724.057379000002
 21
18166.984997999989
 31
0.0
  0
LINE
  5
3737
  8
2-0
  6
CONTINUOUS
 62
     6
 10
23724.057379000002
 20
18166.984997999989
 30
0.0
 11
23568.738411999981
 21
18120.240645999991
 31
0.0
  0
LINE
  5
3738
  8
2-0
  6
CONTINUOUS
 62
     6
 10
23568.738411999981
 20
18120.240645999991
 30
0.0
 11
23724.057379000002
 21
18166.984997999989
 31
0.0
  0
LINE
  5
3739
  8
2-0
  6
CONTINUOUS
 62
     6
 10
23592.296662999968
 20
18072.389744
 30
0.0
 11
23724.057379000002
 21
18166.984997999989
 31
0.0
  0
LINE
  5
373A
  8
2-0
  6
CONTINUOUS
 62
     6
 10
23592.296662999968
 20
18072.389744
 30
0.0
 11
23568.738411999981
 21
18120.240645999991
 31
0.0
  0
LINE
  5
373B
  8
2-0
  6
CONTINUOUS
 62
     3
 10
20842.064821999989
 20
19601.984326000009
 30
0.0
 11
20842.064821999989
 21
19595.988364000012
 31
0.0
  0
LINE
  5
373C
  8
2-0
  6
CONTINUOUS
 62
     3
 10
20842.064821999989
 20
19595.988364000012
 30
0.0
 11
20812.067196999989
 21
19595.988364000012
 31
0.0
  0
LINE
  5
373D
  8
2-0
  6
CONTINUOUS
 62
     3
 10
20812.067196999989
 20
19595.988364000012
 30
0.0
 11
20812.067196999989
 21
19710.984537000011
 31
0.0
  0
LINE
  5
373E
  8
2-0
  6
CONTINUOUS
 62
     3
 10
20812.067196999989
 20
19625.987968000001
 30
0.0
 11
20893.065138000002
 21
19625.987968000001
 31
0.0
  0
LINE
  5
373F
  8
2-0
  6
CONTINUOUS
 62
     3
 10
20842.064821999989
 20
19585.690908
 30
0.0
 11
20812.067196999989
 21
19585.690908
 31
0.0
  0
LINE
  5
3740
  8
2-0
  6
CONTINUOUS
 62
     3
 10
20842.064821999989
 20
19603.692650000001
 30
0.0
 11
20842.064821999989
 21
19585.690908
 31
0.0
  0
LINE
  5
3741
  8
2-0
  6
CONTINUOUS
 62
     3
 10
20817.071419999989
 20
19603.692650000001
 30
0.0
 11
20842.064821999989
 21
19603.692650000001
 31
0.0
  0
LINE
  5
3742
  8
2-0
  6
CONTINUOUS
 62
     3
 10
20817.071419999989
 20
19598.68446800001
 30
0.0
 11
20817.071419999989
 21
19603.692650000001
 31
0.0
  0
LINE
  5
3743
  8
2-0
  6
CONTINUOUS
 62
     3
 10
20824.069017999969
 20
19598.68446800001
 30
0.0
 11
20817.071419999989
 21
19598.68446800001
 31
0.0
  0
LINE
  5
3744
  8
2-0
  6
CONTINUOUS
 62
     3
 10
20924.363306999989
 20
19698.984695000021
 30
0.0
 11
20924.363306999989
 21
19705.990211000011
 31
0.0
  0
LINE
  5
3745
  8
2-0
  6
CONTINUOUS
 62
     3
 10
20924.363306999989
 20
19705.990211000011
 30
0.0
 11
20919.361062999989
 21
19705.990211000011
 31
0.0
  0
LINE
  5
3746
  8
2-0
  6
CONTINUOUS
 62
     3
 10
20919.361062999989
 20
19705.990211000011
 30
0.0
 11
20919.361062999989
 21
19680.980973999998
 31
0.0
  0
LINE
  5
3747
  8
2-0
  6
CONTINUOUS
 62
     3
 10
20919.361062999989
 20
19680.980973999998
 30
0.0
 11
20937.368743999981
 21
19680.980973999998
 31
0.0
  0
LINE
  5
3748
  8
2-0
  6
CONTINUOUS
 62
     3
 10
20937.368743999981
 20
19680.980973999998
 30
0.0
 11
20937.368743999981
 21
19710.984537000011
 31
0.0
  0
LINE
  5
3749
  8
2-0
  6
CONTINUOUS
 62
     3
 10
20927.069307999991
 20
19710.984537000011
 30
0.0
 11
20812.067196999989
 21
19710.984537000011
 31
0.0
  0
LINE
  5
374A
  8
2-0
  6
CONTINUOUS
 62
     3
 10
20927.069307999991
 20
19680.980973999998
 30
0.0
 11
20927.069307999991
 21
19710.984537000011
 31
0.0
  0
LINE
  5
374B
  8
2-0
  6
CONTINUOUS
 62
     3
 10
20921.065428999991
 20
19680.980973999998
 30
0.0
 11
20927.069307999991
 21
19680.980973999998
 31
0.0
  0
LINE
  5
374C
  8
2-0
  6
CONTINUOUS
 62
     3
 10
20842.064821999989
 20
19601.984326000009
 30
0.0
 11
20842.064821999989
 21
19595.988364000012
 31
0.0
  0
LINE
  5
374D
  8
2-0
  6
CONTINUOUS
 62
     3
 10
20842.064821999989
 20
19595.988364000012
 30
0.0
 11
20812.067196999989
 21
19595.988364000012
 31
0.0
  0
LINE
  5
374E
  8
2-0
  6
CONTINUOUS
 62
     3
 10
20812.067196999989
 20
19595.988364000012
 30
0.0
 11
20812.067196999989
 21
19710.984537000011
 31
0.0
  0
LINE
  5
374F
  8
2-0
  6
CONTINUOUS
 62
     3
 10
20812.067196999989
 20
19625.987968000001
 30
0.0
 11
20893.065138000002
 21
19625.987968000001
 31
0.0
  0
LINE
  5
3750
  8
2-0
  6
CONTINUOUS
 62
     3
 10
20842.064821999989
 20
19585.690908
 30
0.0
 11
20812.067196999989
 21
19585.690908
 31
0.0
  0
LINE
  5
3751
  8
2-0
  6
CONTINUOUS
 62
     3
 10
20842.064821999989
 20
19603.692650000001
 30
0.0
 11
20842.064821999989
 21
19585.690908
 31
0.0
  0
LINE
  5
3752
  8
2-0
  6
CONTINUOUS
 62
     3
 10
20817.071419999989
 20
19603.692650000001
 30
0.0
 11
20842.064821999989
 21
19603.692650000001
 31
0.0
  0
LINE
  5
3753
  8
2-0
  6
CONTINUOUS
 62
     3
 10
20817.071419999989
 20
19598.68446800001
 30
0.0
 11
20817.071419999989
 21
19603.692650000001
 31
0.0
  0
LINE
  5
3754
  8
2-0
  6
CONTINUOUS
 62
     3
 10
20824.069017999969
 20
19598.68446800001
 30
0.0
 11
20817.071419999989
 21
19598.68446800001
 31
0.0
  0
LINE
  5
3755
  8
2-0
  6
CONTINUOUS
 62
     3
 10
20824.069017999969
 20
18894.887645499992
 30
0.0
 11
20817.071419999989
 21
18894.887645499992
 31
0.0
  0
LINE
  5
3756
  8
2-0
  6
CONTINUOUS
 62
     3
 10
20817.071419999989
 20
18894.887645499992
 30
0.0
 11
20817.071419999989
 21
18899.887909500001
 31
0.0
  0
LINE
  5
3757
  8
2-0
  6
CONTINUOUS
 62
     3
 10
20817.071419999989
 20
18899.887909500001
 30
0.0
 11
20842.064821999989
 21
18899.887909500001
 31
0.0
  0
LINE
  5
3758
  8
2-0
  6
CONTINUOUS
 62
     3
 10
20842.064821999989
 20
18899.887909500001
 30
0.0
 11
20842.064821999989
 21
18881.892105499981
 31
0.0
  0
LINE
  5
3759
  8
2-0
  6
CONTINUOUS
 62
     3
 10
20842.064821999989
 20
18881.892105499981
 30
0.0
 11
20812.067196999989
 21
18881.892105499981
 31
0.0
  0
LINE
  5
375A
  8
2-0
  6
CONTINUOUS
 62
     3
 10
20842.064821999989
 20
18897.98361249996
 30
0.0
 11
20842.064821999989
 21
18891.985671499991
 31
0.0
  0
LINE
  5
375B
  8
2-0
  6
CONTINUOUS
 62
     3
 10
20842.064821999989
 20
18891.985671499991
 30
0.0
 11
20812.067196999989
 21
18891.985671499991
 31
0.0
  0
LINE
  5
375C
  8
2-0
  6
CONTINUOUS
 62
     3
 10
20812.067196999989
 20
18891.985671499991
 30
0.0
 11
20812.067196999989
 21
18928.986832499992
 31
0.0
  0
LINE
  5
375D
  8
2-0
  6
CONTINUOUS
 62
     3
 10
20842.064821999989
 20
18928.986832499992
 30
0.0
 11
20812.067196999989
 21
18928.986832499992
 31
0.0
  0
LINE
  5
375E
  8
2-0
  6
CONTINUOUS
 62
     3
 10
20842.064821999989
 20
18922.982952499991
 30
0.0
 11
20842.064821999989
 21
18928.986832499992
 31
0.0
  0
LINE
  5
375F
  8
2-0
  6
CONTINUOUS
 62
     3
 10
20842.064821999989
 20
18939.082377499981
 30
0.0
 11
20812.067196999989
 21
18939.082377499981
 31
0.0
  0
LINE
  5
3760
  8
2-0
  6
CONTINUOUS
 62
     3
 10
20842.064821999989
 20
18921.080635499999
 30
0.0
 11
20842.064821999989
 21
18939.082377499981
 31
0.0
  0
LINE
  5
3761
  8
2-0
  6
CONTINUOUS
 62
     3
 10
20817.071419999989
 20
18921.080635499999
 30
0.0
 11
20842.064821999989
 21
18921.080635499999
 31
0.0
  0
LINE
  5
3762
  8
2-0
  6
CONTINUOUS
 62
     3
 10
20817.071419999989
 20
18926.080899499979
 30
0.0
 11
20817.071419999989
 21
18921.080635499999
 31
0.0
  0
LINE
  5
3763
  8
2-0
  6
CONTINUOUS
 62
     3
 10
20824.069017999969
 20
18926.080899499979
 30
0.0
 11
20817.071419999989
 21
18926.080899499979
 31
0.0
  0
LINE
  5
3764
  8
2-0
  6
CONTINUOUS
 62
     3
 10
20824.069017999969
 20
18193.886655999999
 30
0.0
 11
20817.071419999989
 21
18193.886655999999
 31
0.0
  0
LINE
  5
3765
  8
2-0
  6
CONTINUOUS
 62
     3
 10
20817.071419999989
 20
18193.886655999999
 30
0.0
 11
20817.071419999989
 21
18198.892857999999
 31
0.0
  0
LINE
  5
3766
  8
2-0
  6
CONTINUOUS
 62
     3
 10
20817.071419999989
 20
18198.892857999999
 30
0.0
 11
20842.064821999989
 21
18198.892857999999
 31
0.0
  0
LINE
  5
3767
  8
2-0
  6
CONTINUOUS
 62
     3
 10
20842.064821999989
 20
18198.892857999999
 30
0.0
 11
20842.064821999989
 21
18180.891115999992
 31
0.0
  0
LINE
  5
3768
  8
2-0
  6
CONTINUOUS
 62
     3
 10
20842.064821999989
 20
18180.891115999992
 30
0.0
 11
20812.067196999989
 21
18180.891115999992
 31
0.0
  0
LINE
  5
3769
  8
2-0
  6
CONTINUOUS
 62
     3
 10
20842.064821999989
 20
18196.982622999982
 30
0.0
 11
20842.064821999989
 21
18190.986660999992
 31
0.0
  0
LINE
  5
376A
  8
2-0
  6
CONTINUOUS
 62
     3
 10
20842.064821999989
 20
18190.986660999992
 30
0.0
 11
20812.067196999989
 21
18190.986660999992
 31
0.0
  0
LINE
  5
376B
  8
2-0
  6
CONTINUOUS
 62
     3
 10
20812.067196999989
 20
18190.986660999992
 30
0.0
 11
20812.067196999989
 21
18227.985842999991
 31
0.0
  0
LINE
  5
376C
  8
2-0
  6
CONTINUOUS
 62
     3
 10
20842.064821999989
 20
18227.985842999991
 30
0.0
 11
20812.067196999989
 21
18227.985842999991
 31
0.0
  0
LINE
  5
376D
  8
2-0
  6
CONTINUOUS
 62
     3
 10
20842.064821999989
 20
18221.989881000001
 30
0.0
 11
20842.064821999989
 21
18227.985842999991
 31
0.0
  0
LINE
  5
376E
  8
2-0
  6
CONTINUOUS
 62
     3
 10
20842.064821999989
 20
18238.081387999999
 30
0.0
 11
20812.067196999989
 21
18238.081387999999
 31
0.0
  0
LINE
  5
376F
  8
2-0
  6
CONTINUOUS
 62
     3
 10
20842.064821999989
 20
18220.079645999991
 30
0.0
 11
20842.064821999989
 21
18238.081387999999
 31
0.0
  0
LINE
  5
3770
  8
2-0
  6
CONTINUOUS
 62
     3
 10
20817.071419999989
 20
18220.079645999991
 30
0.0
 11
20842.064821999989
 21
18220.079645999991
 31
0.0
  0
LINE
  5
3771
  8
2-0
  6
CONTINUOUS
 62
     3
 10
20817.071419999989
 20
18225.085847999992
 30
0.0
 11
20817.071419999989
 21
18220.079645999991
 31
0.0
  0
LINE
  5
3772
  8
2-0
  6
CONTINUOUS
 62
     3
 10
20824.069017999969
 20
18225.085847999992
 30
0.0
 11
20817.071419999989
 21
18225.085847999992
 31
0.0
  0
LINE
  5
3773
  8
2-0
  6
CONTINUOUS
 62
     3
 10
20824.069017999969
 20
17524.079909999989
 30
0.0
 11
20817.071419999989
 21
17524.079909999989
 31
0.0
  0
LINE
  5
3774
  8
2-0
  6
CONTINUOUS
 62
     3
 10
20817.071419999989
 20
17524.079909999989
 30
0.0
 11
20817.071419999989
 21
17519.091522999999
 31
0.0
  0
LINE
  5
3775
  8
2-0
  6
CONTINUOUS
 62
     3
 10
20817.071419999989
 20
17519.091522999999
 30
0.0
 11
20842.064821999989
 21
17519.091522999999
 31
0.0
  0
LINE
  5
3776
  8
2-0
  6
CONTINUOUS
 62
     3
 10
20842.064821999989
 20
17519.091522999999
 30
0.0
 11
20842.064821999989
 21
17537.08732599999
 31
0.0
  0
LINE
  5
3777
  8
2-0
  6
CONTINUOUS
 62
     3
 10
20842.064821999989
 20
17537.08732599999
 30
0.0
 11
20812.067196999989
 21
17537.08732599999
 31
0.0
  0
LINE
  5
3778
  8
2-0
  6
CONTINUOUS
 62
     3
 10
20842.064821999989
 20
17520.989881000001
 30
0.0
 11
20842.064821999989
 21
17526.985842999991
 31
0.0
  0
LINE
  5
3779
  8
2-0
  6
CONTINUOUS
 62
     3
 10
20842.064821999989
 20
17526.985842999991
 30
0.0
 11
20812.067196999989
 21
17526.985842999991
 31
0.0
  0
LINE
  5
377A
  8
2-0
  6
CONTINUOUS
 62
     3
 10
20812.067196999989
 20
17526.985842999991
 30
0.0
 11
20812.067196999989
 21
17489.986660999992
 31
0.0
  0
LINE
  5
377B
  8
2-0
  6
CONTINUOUS
 62
     3
 10
20842.064821999989
 20
17489.986660999992
 30
0.0
 11
20812.067196999989
 21
17489.986660999992
 31
0.0
  0
LINE
  5
377C
  8
2-0
  6
CONTINUOUS
 62
     3
 10
20842.064821999989
 20
17495.988561999991
 30
0.0
 11
20842.064821999989
 21
17489.986660999992
 31
0.0
  0
LINE
  5
377D
  8
2-0
  6
CONTINUOUS
 62
     3
 10
20842.064821999989
 20
17479.897055000001
 30
0.0
 11
20812.067196999989
 21
17479.897055000001
 31
0.0
  0
LINE
  5
377E
  8
2-0
  6
CONTINUOUS
 62
     3
 10
20842.064821999989
 20
17497.892857999981
 30
0.0
 11
20842.064821999989
 21
17479.897055000001
 31
0.0
  0
LINE
  5
377F
  8
2-0
  6
CONTINUOUS
 62
     3
 10
20817.071419999989
 20
17497.892857999981
 30
0.0
 11
20842.064821999989
 21
17497.892857999981
 31
0.0
  0
LINE
  5
3780
  8
2-0
  6
CONTINUOUS
 62
     3
 10
20817.071419999989
 20
17492.892595000001
 30
0.0
 11
20817.071419999989
 21
17497.892857999981
 31
0.0
  0
LINE
  5
3781
  8
2-0
  6
CONTINUOUS
 62
     3
 10
20824.069017999969
 20
17492.892595000001
 30
0.0
 11
20817.071419999989
 21
17492.892595000001
 31
0.0
  0
LINE
  5
3782
  8
2-0
  6
CONTINUOUS
 62
     3
 10
20814.953334999991
 20
16772.983480999999
 30
0.0
 11
20814.953334999991
 21
16792.984536
 31
0.0
  0
LINE
  5
3783
  8
2-0
  6
CONTINUOUS
 62
     3
 10
20814.953334999991
 20
16792.984536
 30
0.0
 11
20899.953862999999
 21
16792.984536
 31
0.0
  0
LINE
  5
3784
  8
2-0
  6
CONTINUOUS
 62
     3
 10
20824.069017999969
 20
16819.591246
 30
0.0
 11
20817.071419999989
 21
16819.591246
 31
0.0
  0
LINE
  5
3785
  8
2-0
  6
CONTINUOUS
 62
     3
 10
20817.071419999989
 20
16819.591246
 30
0.0
 11
20817.071419999989
 21
16814.596920000011
 31
0.0
  0
LINE
  5
3786
  8
2-0
  6
CONTINUOUS
 62
     3
 10
20817.071419999989
 20
16814.596920000011
 30
0.0
 11
20842.064821999989
 21
16814.596920000011
 31
0.0
  0
LINE
  5
3787
  8
2-0
  6
CONTINUOUS
 62
     3
 10
20842.064821999989
 20
16814.596920000011
 30
0.0
 11
20842.064821999989
 21
16832.592723999991
 31
0.0
  0
LINE
  5
3788
  8
2-0
  6
CONTINUOUS
 62
     3
 10
20842.064821999989
 20
16832.592723999991
 30
0.0
 11
20812.067196999989
 21
16832.592723999991
 31
0.0
  0
LINE
  5
3789
  8
2-0
  6
CONTINUOUS
 62
     3
 10
20842.064821999989
 20
16822.98413999999
 30
0.0
 11
20842.064821999989
 21
16816.982240000001
 31
0.0
  0
LINE
  5
378A
  8
2-0
  6
CONTINUOUS
 62
     3
 10
20812.067196999989
 20
16822.98413999999
 30
0.0
 11
20842.064821999989
 21
16822.98413999999
 31
0.0
  0
LINE
  5
378B
  8
2-0
  6
CONTINUOUS
 62
     3
 10
20812.067196999989
 20
16832.592723999991
 30
0.0
 11
20812.067196999989
 21
17479.897055000001
 31
0.0
  0
LINE
  5
378C
  8
2-0
  6
CONTINUOUS
 62
     3
 10
20812.067196999989
 20
17537.08732599999
 30
0.0
 11
20812.067196999989
 21
18180.891115999992
 31
0.0
  0
LINE
  5
378D
  8
2-0
  6
CONTINUOUS
 62
     3
 10
20812.067196999989
 20
16677.982424999991
 30
0.0
 11
20842.064821999989
 21
16677.982424999991
 31
0.0
  0
LINE
  5
378E
  8
2-0
  6
CONTINUOUS
 62
     3
 10
20842.064821999989
 20
16677.982424999991
 30
0.0
 11
20842.064821999989
 21
16683.984325000001
 31
0.0
  0
LINE
  5
378F
  8
2-0
  6
CONTINUOUS
 62
     3
 10
20899.953862999999
 20
16707.987968000001
 30
0.0
 11
20814.953334999991
 21
16707.987968000001
 31
0.0
  0
LINE
  5
3790
  8
2-0
  6
CONTINUOUS
 62
     3
 10
20814.953334999991
 20
16707.987968000001
 30
0.0
 11
20814.953334999991
 21
16727.983085000011
 31
0.0
  0
LINE
  5
3791
  8
2-0
  6
CONTINUOUS
 62
     3
 10
20842.064821999989
 20
16668.373842000012
 30
0.0
 11
20812.067196999989
 21
16668.373842000012
 31
0.0
  0
LINE
  5
3792
  8
2-0
  6
CONTINUOUS
 62
     3
 10
20842.064821999989
 20
16686.369644999992
 30
0.0
 11
20842.064821999989
 21
16668.373842000012
 31
0.0
  0
LINE
  5
3793
  8
2-0
  6
CONTINUOUS
 62
     3
 10
20817.071419999989
 20
16686.369644999992
 30
0.0
 11
20842.064821999989
 21
16686.369644999992
 31
0.0
  0
LINE
  5
3794
  8
2-0
  6
CONTINUOUS
 62
     3
 10
20817.071419999989
 20
16681.369381000011
 30
0.0
 11
20817.071419999989
 21
16686.369644999992
 31
0.0
  0
LINE
  5
3795
  8
2-0
  6
CONTINUOUS
 62
     3
 10
20824.069017999969
 20
16681.369381000011
 30
0.0
 11
20817.071419999989
 21
16681.369381000011
 31
0.0
  0
LINE
  5
3796
  8
2-0
  6
CONTINUOUS
 62
     3
 10
20824.069017999969
 20
15976.887150499981
 30
0.0
 11
20817.071419999989
 21
15976.887150499981
 31
0.0
  0
LINE
  5
3797
  8
2-0
  6
CONTINUOUS
 62
     3
 10
20817.071419999989
 20
15976.887150499981
 30
0.0
 11
20817.071419999989
 21
15981.88741449999
 31
0.0
  0
LINE
  5
3798
  8
2-0
  6
CONTINUOUS
 62
     3
 10
20817.071419999989
 20
15981.88741449999
 30
0.0
 11
20842.064821999989
 21
15981.88741449999
 31
0.0
  0
LINE
  5
3799
  8
2-0
  6
CONTINUOUS
 62
     3
 10
20842.064821999989
 20
15981.88741449999
 30
0.0
 11
20842.064821999989
 21
15963.88567249999
 31
0.0
  0
LINE
  5
379A
  8
2-0
  6
CONTINUOUS
 62
     3
 10
20842.064821999989
 20
15963.88567249999
 30
0.0
 11
20812.067196999989
 21
15963.88567249999
 31
0.0
  0
LINE
  5
379B
  8
2-0
  6
CONTINUOUS
 62
     3
 10
20842.064821999989
 20
15979.9831175
 30
0.0
 11
20842.064821999989
 21
15973.986166500001
 31
0.0
  0
LINE
  5
379C
  8
2-0
  6
CONTINUOUS
 62
     3
 10
20842.064821999989
 20
15973.986166500001
 30
0.0
 11
20812.067196999989
 21
15973.986166500001
 31
0.0
  0
LINE
  5
379D
  8
2-0
  6
CONTINUOUS
 62
     3
 10
20812.067196999989
 20
15973.986166500001
 30
0.0
 11
20812.067196999989
 21
16010.9863375
 31
0.0
  0
LINE
  5
379E
  8
2-0
  6
CONTINUOUS
 62
     3
 10
20842.064821999989
 20
16010.9863375
 30
0.0
 11
20812.067196999989
 21
16010.9863375
 31
0.0
  0
LINE
  5
379F
  8
2-0
  6
CONTINUOUS
 62
     3
 10
20842.064821999989
 20
16004.983447500001
 30
0.0
 11
20842.064821999989
 21
16010.9863375
 31
0.0
  0
LINE
  5
37A0
  8
2-0
  6
CONTINUOUS
 62
     3
 10
20842.064821999989
 20
16021.08188249999
 30
0.0
 11
20812.067196999989
 21
16021.08188249999
 31
0.0
  0
LINE
  5
37A1
  8
2-0
  6
CONTINUOUS
 62
     3
 10
20842.064821999989
 20
16003.074201499991
 30
0.0
 11
20842.064821999989
 21
16021.08188249999
 31
0.0
  0
LINE
  5
37A2
  8
2-0
  6
CONTINUOUS
 62
     3
 10
20817.071419999989
 20
16003.074201499991
 30
0.0
 11
20842.064821999989
 21
16003.074201499991
 31
0.0
  0
LINE
  5
37A3
  8
2-0
  6
CONTINUOUS
 62
     3
 10
20817.071419999989
 20
16008.0804045
 30
0.0
 11
20817.071419999989
 21
16003.074201499991
 31
0.0
  0
LINE
  5
37A4
  8
2-0
  6
CONTINUOUS
 62
     3
 10
20824.069017999969
 20
16008.0804045
 30
0.0
 11
20817.071419999989
 21
16008.0804045
 31
0.0
  0
LINE
  5
37A5
  8
2-0
  6
CONTINUOUS
 62
     3
 10
20824.069017999969
 20
15307.320421
 30
0.0
 11
20817.071419999989
 21
15307.320421
 31
0.0
  0
LINE
  5
37A6
  8
2-0
  6
CONTINUOUS
 62
     3
 10
20817.071419999989
 20
15307.320421
 30
0.0
 11
20817.071419999989
 21
15302.326096000001
 31
0.0
  0
LINE
  5
37A7
  8
2-0
  6
CONTINUOUS
 62
     3
 10
20817.071419999989
 20
15302.326096000001
 30
0.0
 11
20842.064821999989
 21
15302.326096000001
 31
0.0
  0
LINE
  5
37A8
  8
2-0
  6
CONTINUOUS
 62
     3
 10
20842.064821999989
 20
15302.326096000001
 30
0.0
 11
20842.064821999989
 21
15320.32189900001
 31
0.0
  0
LINE
  5
37A9
  8
2-0
  6
CONTINUOUS
 62
     3
 10
20842.064821999989
 20
15320.32189900001
 30
0.0
 11
20812.067196999989
 21
15320.32189900001
 31
0.0
  0
LINE
  5
37AA
  8
2-0
  6
CONTINUOUS
 62
     3
 10
20842.064821999989
 20
15304.22445399999
 30
0.0
 11
20842.064821999989
 21
15310.226354
 31
0.0
  0
LINE
  5
37AB
  8
2-0
  6
CONTINUOUS
 62
     3
 10
20842.064821999989
 20
15310.226354
 30
0.0
 11
20812.067196999989
 21
15310.226354
 31
0.0
  0
LINE
  5
37AC
  8
2-0
  6
CONTINUOUS
 62
     3
 10
20812.067196999989
 20
15273.22717300001
 30
0.0
 11
20812.067196999989
 21
15310.226354
 31
0.0
  0
LINE
  5
37AD
  8
2-0
  6
CONTINUOUS
 62
     3
 10
20842.064821999989
 20
15273.22717300001
 30
0.0
 11
20812.067196999989
 21
15273.22717300001
 31
0.0
  0
LINE
  5
37AE
  8
2-0
  6
CONTINUOUS
 62
     3
 10
20842.064821999989
 20
15279.224124
 30
0.0
 11
20842.064821999989
 21
15273.22717300001
 31
0.0
  0
LINE
  5
37AF
  8
2-0
  6
CONTINUOUS
 62
     3
 10
20842.064821999989
 20
15263.12568899999
 30
0.0
 11
20812.067196999989
 21
15263.12568899999
 31
0.0
  0
LINE
  5
37B0
  8
2-0
  6
CONTINUOUS
 62
     3
 10
20842.064821999989
 20
15281.13336999999
 30
0.0
 11
20842.064821999989
 21
15263.12568899999
 31
0.0
  0
LINE
  5
37B1
  8
2-0
  6
CONTINUOUS
 62
     3
 10
20817.071419999989
 20
15281.13336999999
 30
0.0
 11
20842.064821999989
 21
15281.13336999999
 31
0.0
  0
LINE
  5
37B2
  8
2-0
  6
CONTINUOUS
 62
     3
 10
20817.071419999989
 20
15276.133106000019
 30
0.0
 11
20817.071419999989
 21
15281.13336999999
 31
0.0
  0
LINE
  5
37B3
  8
2-0
  6
CONTINUOUS
 62
     3
 10
20824.069017999969
 20
15276.133106000019
 30
0.0
 11
20817.071419999989
 21
15276.133106000019
 31
0.0
  0
LINE
  5
37B4
  8
2-0
  6
CONTINUOUS
 62
     3
 10
20812.067196999989
 20
16668.373842000012
 30
0.0
 11
20812.067196999989
 21
16021.08188249999
 31
0.0
  0
LINE
  5
37B5
  8
2-0
  6
CONTINUOUS
 62
     3
 10
20812.067196999989
 20
16822.98413999999
 30
0.0
 11
20812.067196999989
 21
16677.982424999991
 31
0.0
  0
LINE
  5
37B6
  8
2-0
  6
CONTINUOUS
 62
     3
 10
20899.953862999999
 20
16792.984536
 30
0.0
 11
20899.953862999999
 21
16707.987968000001
 31
0.0
  0
LINE
  5
37B7
  8
2-0
  6
CONTINUOUS
 62
     3
 10
20824.069017999969
 20
14574.892099000001
 30
0.0
 11
20817.071419999989
 21
14574.892099000001
 31
0.0
  0
LINE
  5
37B8
  8
2-0
  6
CONTINUOUS
 62
     3
 10
20817.071419999989
 20
14574.892099000001
 30
0.0
 11
20817.071419999989
 21
14579.88642500001
 31
0.0
  0
LINE
  5
37B9
  8
2-0
  6
CONTINUOUS
 62
     3
 10
20817.071419999989
 20
14579.88642500001
 30
0.0
 11
20842.064821999989
 21
14579.88642500001
 31
0.0
  0
LINE
  5
37BA
  8
2-0
  6
CONTINUOUS
 62
     3
 10
20842.064821999989
 20
14579.88642500001
 30
0.0
 11
20842.064821999989
 21
14561.890621
 31
0.0
  0
LINE
  5
37BB
  8
2-0
  6
CONTINUOUS
 62
     3
 10
20842.064821999989
 20
14561.890621
 30
0.0
 11
20812.067196999989
 21
14561.890621
 31
0.0
  0
LINE
  5
37BC
  8
2-0
  6
CONTINUOUS
 62
     3
 10
20842.064821999989
 20
14577.989056
 30
0.0
 11
20842.064821999989
 21
14571.98616600001
 31
0.0
  0
LINE
  5
37BD
  8
2-0
  6
CONTINUOUS
 62
     3
 10
20842.064821999989
 20
14571.98616600001
 30
0.0
 11
20812.067196999989
 21
14571.98616600001
 31
0.0
  0
LINE
  5
37BE
  8
2-0
  6
CONTINUOUS
 62
     3
 10
20812.067196999989
 20
14571.98616600001
 30
0.0
 11
20812.067196999989
 21
14608.986337999981
 31
0.0
  0
LINE
  5
37BF
  8
2-0
  6
CONTINUOUS
 62
     3
 10
20842.064821999989
 20
14608.986337999981
 30
0.0
 11
20812.067196999989
 21
14608.986337999981
 31
0.0
  0
LINE
  5
37C0
  8
2-0
  6
CONTINUOUS
 62
     3
 10
20842.064821999989
 20
14602.989385999999
 30
0.0
 11
20842.064821999989
 21
14608.986337999981
 31
0.0
  0
LINE
  5
37C1
  8
2-0
  6
CONTINUOUS
 62
     3
 10
20842.064821999989
 20
14619.086831000001
 30
0.0
 11
20812.067196999989
 21
14619.086831000001
 31
0.0
  0
LINE
  5
37C2
  8
2-0
  6
CONTINUOUS
 62
     3
 10
20842.064821999989
 20
14601.08014
 30
0.0
 11
20842.064821999989
 21
14619.086831000001
 31
0.0
  0
LINE
  5
37C3
  8
2-0
  6
CONTINUOUS
 62
     3
 10
20817.071419999989
 20
14601.08014
 30
0.0
 11
20842.064821999989
 21
14601.08014
 31
0.0
  0
LINE
  5
37C4
  8
2-0
  6
CONTINUOUS
 62
     3
 10
20817.071419999989
 20
14606.085353
 30
0.0
 11
20817.071419999989
 21
14601.08014
 31
0.0
  0
LINE
  5
37C5
  8
2-0
  6
CONTINUOUS
 62
     3
 10
20824.069017999969
 20
14606.085353
 30
0.0
 11
20817.071419999989
 21
14606.085353
 31
0.0
  0
LINE
  5
37C6
  8
2-0
  6
CONTINUOUS
 62
     3
 10
20842.064821999989
 20
13898.988179
 30
0.0
 11
20842.064821999989
 21
13904.993047999989
 31
0.0
  0
LINE
  5
37C7
  8
2-0
  6
CONTINUOUS
 62
     3
 10
20842.064821999989
 20
13904.993047999989
 30
0.0
 11
20812.067196999989
 21
13904.993047999989
 31
0.0
  0
LINE
  5
37C8
  8
2-0
  6
CONTINUOUS
 62
     3
 10
20812.067196999989
 20
13904.993047999989
 30
0.0
 11
20812.067196999989
 21
13789.988957
 31
0.0
  0
LINE
  5
37C9
  8
2-0
  6
CONTINUOUS
 62
     3
 10
20812.067196999989
 20
13789.988957
 30
0.0
 11
20897.065744999989
 21
13789.988957
 31
0.0
  0
LINE
  5
37CA
  8
2-0
  6
CONTINUOUS
 62
     3
 10
20897.065744999989
 20
13789.988957
 30
0.0
 11
20897.065744999989
 21
13874.984536
 31
0.0
  0
LINE
  5
37CB
  8
2-0
  6
CONTINUOUS
 62
     3
 10
20897.065744999989
 20
13874.984536
 30
0.0
 11
20865.068806999981
 21
13874.984536
 31
0.0
  0
LINE
  5
37CC
  8
2-0
  6
CONTINUOUS
 62
     3
 10
20824.069017999969
 20
13902.022781
 30
0.0
 11
20817.071419999989
 21
13902.022781
 31
0.0
  0
LINE
  5
37CD
  8
2-0
  6
CONTINUOUS
 62
     3
 10
20817.071419999989
 20
13902.022781
 30
0.0
 11
20817.071419999989
 21
13897.02548599998
 31
0.0
  0
LINE
  5
37CE
  8
2-0
  6
CONTINUOUS
 62
     3
 10
20817.071419999989
 20
13897.02548599998
 30
0.0
 11
20842.064821999989
 21
13897.02548599998
 31
0.0
  0
LINE
  5
37CF
  8
2-0
  6
CONTINUOUS
 62
     3
 10
20842.064821999989
 20
13897.02548599998
 30
0.0
 11
20842.064821999989
 21
13915.024258999991
 31
0.0
  0
LINE
  5
37D0
  8
2-0
  6
CONTINUOUS
 62
     3
 10
20842.064821999989
 20
13915.024258999991
 30
0.0
 11
20812.067196999989
 21
13915.024258999991
 31
0.0
  0
LINE
  5
37D1
  8
2-0
  6
CONTINUOUS
 62
     3
 10
20812.067196999989
 20
14619.086831000001
 30
0.0
 11
20812.067196999989
 21
15263.12568899999
 31
0.0
  0
LINE
  5
37D2
  8
2-0
  6
CONTINUOUS
 62
     3
 10
20812.067196999989
 20
18238.081387999999
 30
0.0
 11
20812.067196999989
 21
18881.892105499981
 31
0.0
  0
LINE
  5
37D3
  8
2-0
  6
CONTINUOUS
 62
     3
 10
20903.069625
 20
18166.984997999982
 30
0.0
 11
20856.065955999991
 21
18166.984997999982
 31
0.0
  0
LINE
  5
37D4
  8
2-0
  6
CONTINUOUS
 62
     3
 10
20856.065955999991
 20
18251.985526
 30
0.0
 11
20903.069625
 21
18251.985526
 31
0.0
  0
LINE
  5
37D5
  8
2-0
  6
CONTINUOUS
 62
     3
 10
20856.065955999991
 20
18166.984997999982
 30
0.0
 11
20856.065955999991
 21
18191.988297
 31
0.0
  0
LINE
  5
37D6
  8
2-0
  6
CONTINUOUS
 62
     3
 10
20856.065955999991
 20
18226.984206000001
 30
0.0
 11
20856.065955999991
 21
18251.985526
 31
0.0
  0
LINE
  5
37D7
  8
2-0
  6
CONTINUOUS
 62
     3
 10
20903.069625
 20
18251.985526
 30
0.0
 11
20903.069625
 21
18166.984997999982
 31
0.0
  0
LINE
  5
37D8
  8
2-0
  6
CONTINUOUS
 62
     3
 10
20812.067196999989
 20
15963.88567249999
 30
0.0
 11
20812.067196999989
 21
15320.32189900001
 31
0.0
  0
LINE
  5
37D9
  8
2-0
  6
CONTINUOUS
 62
     3
 10
20903.069625
 20
15248.987967999999
 30
0.0
 11
20856.065955999991
 21
15248.987967999999
 31
0.0
  0
LINE
  5
37DA
  8
2-0
  6
CONTINUOUS
 62
     3
 10
20856.065955999991
 20
15333.984535999991
 30
0.0
 11
20903.069625
 21
15333.984535999991
 31
0.0
  0
LINE
  5
37DB
  8
2-0
  6
CONTINUOUS
 62
     3
 10
20856.065955999991
 20
15248.987967999999
 30
0.0
 11
20856.065955999991
 21
15273.983349
 31
0.0
  0
LINE
  5
37DC
  8
2-0
  6
CONTINUOUS
 62
     3
 10
20856.065955999991
 20
15308.98321700001
 30
0.0
 11
20856.065955999991
 21
15333.984535999991
 31
0.0
  0
LINE
  5
37DD
  8
2-0
  6
CONTINUOUS
 62
     3
 10
20903.069625
 20
15333.984535999991
 30
0.0
 11
20903.069625
 21
15248.987967999999
 31
0.0
  0
LINE
  5
37DE
  8
2-0
  6
CONTINUOUS
 62
     3
 10
23815.061785999991
 20
19595.988364000012
 30
0.0
 11
23815.061785999991
 21
19710.984537000011
 31
0.0
  0
LINE
  5
37DF
  8
2-0
  6
CENTER2
 62
     6
 10
19525.10892499999
 20
19668.486251999992
 30
0.0
 11
24665.063105999991
 21
19668.486251999992
 31
0.0
  0
LINE
  5
37E0
  8
2-0
  6
CENTER2
 62
     6
 10
19525.10892499999
 20
16750.486251999992
 30
0.0
 11
24665.063105999991
 21
16750.486251999992
 31
0.0
  0
LINE
  5
37E1
  8
2-0
  6
CENTER2
 62
     6
 10
19525.10892499999
 20
13832.486252000001
 30
0.0
 11
24665.063105999991
 21
13832.486252000001
 31
0.0
  0
LINE
  5
37E2
  8
2-0
  6
CONTINUOUS
 62
     3
 10
20812.067196999989
 20
19625.987968000001
 30
0.0
 11
23734.059885999981
 21
19625.987968000001
 31
0.0
  0
LINE
  5
37E3
  8
2-0
  6
CONTINUOUS
 62
     3
 10
20812.067196999989
 20
13915.024258999991
 30
0.0
 11
20812.067196999989
 21
14561.890621
 31
0.0
  0
LINE
  5
37E4
  8
2-0
  6
CENTER2
 62
     6
 10
20854.563502000001
 20
20910.984537000018
 30
0.0
 11
20854.563502000001
 21
13206.722818
 31
0.0
  0
LINE
  5
37E5
  8
2-0
  6
CENTER2
 62
     6
 10
23772.563502000001
 20
20910.984537000018
 30
0.0
 11
23772.563502000001
 21
13206.722818
 31
0.0
  0
LINE
  5
37E6
  8
2-0
  6
CONTINUOUS
 62
     3
 10
23815.061785999991
 20
19585.690908
 30
0.0
 11
23815.061785999991
 21
18939.082377499992
 31
0.0
  0
LINE
  5
37E7
  8
2-0
  6
CONTINUOUS
 62
     3
 10
20812.067196999989
 20
19585.690908
 30
0.0
 11
20812.067196999989
 21
18939.082377499981
 31
0.0
  0
LINE
  5
37E8
  8
2-0
  6
CONTINUOUS
 62
     3
 10
20893.065138000002
 20
13874.984536
 30
0.0
 11
20893.065138000002
 21
19710.984537000011
 31
0.0
  0
LINE
  5
37E9
  8
2-0
  6
CONTINUOUS
 62
     3
 10
23734.059885999981
 20
13874.984536
 30
0.0
 11
23734.059885999981
 21
19710.984537000011
 31
0.0
  0
CIRCLE
  5
37EA
  8
2-0
  6
CONTINUOUS
 62
     4
 10
19325.111234999989
 20
19668.486251999992
 30
0.0
 40
200.00001
  0
CIRCLE
  5
37EB
  8
2-0
  6
CONTINUOUS
 62
     4
 10
19325.111234999989
 20
16750.486251999992
 30
0.0
 40
200.00001
  0
CIRCLE
  5
37EC
  8
2-0
  6
CONTINUOUS
 62
     4
 10
19325.111234999989
 20
13832.486252000001
 30
0.0
 40
200.00001
  0
CIRCLE
  5
37ED
  8
2-0
  6
CONTINUOUS
 62
     4
 10
20854.563502000001
 20
21110.989156000011
 30
0.0
 40
200.00001
  0
TEXT
  5
37EE
  8
2-0
  6
CONTINUOUS
 62
     7
 10
22169.40880899999
 20
13272.487373999989
 30
0.0
 40
160.0
  1
前柱（右）
 50
0.000213
 72
     4
 11
22585.40851159301
 21
13352.48892050078
 31
0.0
  0
TEXT
  5
37EF
  8
2-0
  6
CONTINUOUS
 62
     7
 10
22186.108027999981
 20
17951.609418000011
 30
0.0
 40
160.0
  1
補強柱 後
 50
359.99984199999989
 72
     4
 11
22596.774915274698
 21
18031.608285537
 31
0.0
  0
TEXT
  5
37F0
  8
2-0
  6
CONTINUOUS
 62
     7
 10
22374.003931999989
 20
16200.97939000001
 30
0.0
 40
160.0
  1
壁パネル
 50
359.99982299999999
 72
     4
 11
22736.67084580355
 21
16280.978269637881
 31
0.0
  0
TEXT
  5
37F1
  8
2-0
  6
CONTINUOUS
 62
     7
 10
22094.001027999981
 20
17038.167286000022
 30
0.0
 40
160.0
  1
中柱（左右）
 50
0.000354
 72
     4
 11
22611.333867046189
 21
17118.170482324669
 31
0.0
  0
TEXT
  5
37F2
  8
2-0
  6
CONTINUOUS
 62
     7
 10
22774.00327199998
 20
14245.52863999999
 30
0.0
 40
160.0
  1
下枠
 50
0.001063
 72
     4
 11
22944.668454409279
 21
14325.531806339281
 31
0.0
  0
TEXT
  5
37F3
  8
2-0
  6
CONTINUOUS
 62
     7
 10
22186.108027999981
 20
15033.84992900002
 30
0.0
 40
160.0
  1
補強柱 前
 50
359.99937
 72
     4
 11
22596.77557428776
 21
15113.845413479339
 31
0.0
  0
TEXT
  5
37F4
  8
2-0
  6
CONTINUOUS
 62
     7
 10
22268.968695999989
 20
18641.436024499992
 30
0.0
 40
160.0
  1
間柱（側）
 72
     4
 11
22690.302029333328
 21
18721.436024499992
 31
0.0
  0
TEXT
  5
37F5
  8
2-0
  6
CONTINUOUS
 62
     7
 10
24587.559014999992
 20
20520.983745000009
 30
0.0
 40
160.0
  1
後柱（左右）
 50
0.000354
 72
     4
 11
25099.55852071297
 21
20600.986908372841
 31
0.0
  0
TEXT
  5
37F6
  8
2-0
  6
CONTINUOUS
 62
     7
 10
19277.111867999982
 20
19574.005810000021
 30
0.0
 40
160.0
  1
C
 72
     4
 11
19330.44520133331
 21
19654.005810000021
 31
0.0
  0
TEXT
  5
37F7
  8
2-0
  6
CONTINUOUS
 62
     7
 10
19277.332583999982
 20
16680.092170000022
 30
0.0
 40
160.0
  1
B
 72
     4
 11
19330.665917333321
 21
16760.092170000022
 31
0.0
  0
TEXT
  5
37F8
  8
2-0
  6
CONTINUOUS
 62
     7
 10
19277.37514399998
 20
13743.879041
 30
0.0
 40
160.0
  1
A
 72
     4
 11
19330.708477333319
 21
13823.879041
 31
0.0
  0
TEXT
  5
37F9
  8
2-0
  6
CONTINUOUS
 62
     7
 10
20810.356892999989
 20
21022.221604000009
 30
0.0
 40
160.0
  1
1
 72
     4
 11
20837.023559666661
 21
21102.221604000009
 31
0.0
  0
LINE
  5
37FA
  8
2-0
  6
CONTINUOUS
 62
     3
 10
23033.064082999968
 20
19710.984537000011
 30
0.0
 11
22996.062921000001
 21
19710.984537000011
 31
0.0
  0
LINE
  5
37FB
  8
2-0
  6
CONTINUOUS
 62
     3
 10
23033.064082999968
 20
19680.980973999998
 30
0.0
 11
23033.064082999968
 21
19710.984537000011
 31
0.0
  0
LINE
  5
37FC
  8
2-0
  6
CONTINUOUS
 62
     3
 10
23027.06416199997
 20
19680.980973999998
 30
0.0
 11
23033.064082999968
 21
19680.980973999998
 31
0.0
  0
LINE
  5
37FD
  8
2-0
  6
CONTINUOUS
 62
     3
 10
23043.161606999998
 20
19680.980973999998
 30
0.0
 11
23043.161606999998
 21
19710.984537000011
 31
0.0
  0
LINE
  5
37FE
  8
2-0
  6
CONTINUOUS
 62
     3
 10
23025.157886000001
 20
19680.980973999998
 30
0.0
 11
23043.161606999998
 21
19680.980973999998
 31
0.0
  0
LINE
  5
37FF
  8
2-0
  6
CONTINUOUS
 62
     3
 10
23025.157886000001
 20
19705.990211000011
 30
0.0
 11
23025.157886000001
 21
19680.980973999998
 31
0.0
  0
LINE
  5
3800
  8
2-0
  6
CONTINUOUS
 62
     3
 10
23030.158149999999
 20
19705.990211000011
 30
0.0
 11
23025.157886000001
 21
19705.990211000011
 31
0.0
  0
LINE
  5
3801
  8
2-0
  6
CONTINUOUS
 62
     3
 10
23030.158149999999
 20
19698.984695000021
 30
0.0
 11
23030.158149999999
 21
19705.990211000011
 31
0.0
  0
LINE
  5
3802
  8
2-0
  6
CONTINUOUS
 62
     3
 10
22998.968854999981
 20
19698.984695000021
 30
0.0
 11
22998.968854999981
 21
19705.990211000011
 31
0.0
  0
LINE
  5
3803
  8
2-0
  6
CONTINUOUS
 62
     3
 10
22998.968854999981
 20
19705.990211000011
 30
0.0
 11
23003.969119000001
 21
19705.990211000011
 31
0.0
  0
LINE
  5
3804
  8
2-0
  6
CONTINUOUS
 62
     3
 10
23003.969119000001
 20
19705.990211000011
 30
0.0
 11
23003.969119000001
 21
19680.980973999998
 31
0.0
  0
LINE
  5
3805
  8
2-0
  6
CONTINUOUS
 62
     3
 10
23003.969119000001
 20
19680.980973999998
 30
0.0
 11
22985.969356000001
 21
19680.980973999998
 31
0.0
  0
LINE
  5
3806
  8
2-0
  6
CONTINUOUS
 62
     3
 10
22985.969356000001
 20
19680.980973999998
 30
0.0
 11
22985.969356000001
 21
19710.984537000011
 31
0.0
  0
LINE
  5
3807
  8
2-0
  6
CONTINUOUS
 62
     3
 10
23002.062841999981
 20
19680.980973999998
 30
0.0
 11
22996.062921000001
 21
19680.980973999998
 31
0.0
  0
LINE
  5
3808
  8
2-0
  6
CONTINUOUS
 62
     3
 10
22996.062921000001
 20
19680.980973999998
 30
0.0
 11
22996.062921000001
 21
19710.984537000011
 31
0.0
  0
LINE
  5
3809
  8
2-0
  6
CONTINUOUS
 62
     3
 10
21628.15320049999
 20
19698.984695000021
 30
0.0
 11
21628.15320049999
 21
19705.990211000011
 31
0.0
  0
LINE
  5
380A
  8
2-0
  6
CONTINUOUS
 62
     3
 10
21628.15320049999
 20
19705.990211000011
 30
0.0
 11
21623.152936499991
 21
19705.990211000011
 31
0.0
  0
LINE
  5
380B
  8
2-0
  6
CONTINUOUS
 62
     3
 10
21623.152936499991
 20
19705.990211000011
 30
0.0
 11
21623.152936499991
 21
19680.980973999998
 31
0.0
  0
LINE
  5
380C
  8
2-0
  6
CONTINUOUS
 62
     3
 10
21623.152936499991
 20
19680.980973999998
 30
0.0
 11
21641.158637500001
 21
19680.980973999998
 31
0.0
  0
LINE
  5
380D
  8
2-0
  6
CONTINUOUS
 62
     3
 10
21641.158637500001
 20
19680.980973999998
 30
0.0
 11
21641.158637500001
 21
19710.984537000011
 31
0.0
  0
LINE
  5
380E
  8
2-0
  6
CONTINUOUS
 62
     3
 10
21625.06119249999
 20
19680.980973999998
 30
0.0
 11
21631.063092499979
 21
19680.980973999998
 31
0.0
  0
LINE
  5
380F
  8
2-0
  6
CONTINUOUS
 62
     3
 10
21631.063092499979
 20
19680.980973999998
 30
0.0
 11
21631.063092499979
 21
19710.984537000011
 31
0.0
  0
LINE
  5
3810
  8
2-0
  6
CONTINUOUS
 62
     3
 10
21594.06391149999
 20
19710.984537000011
 30
0.0
 11
21631.063092499979
 21
19710.984537000011
 31
0.0
  0
LINE
  5
3811
  8
2-0
  6
CONTINUOUS
 62
     3
 10
21594.06391149999
 20
19680.980973999998
 30
0.0
 11
21594.06391149999
 21
19710.984537000011
 31
0.0
  0
LINE
  5
3812
  8
2-0
  6
CONTINUOUS
 62
     3
 10
21600.05789349999
 20
19680.980973999998
 30
0.0
 11
21594.06391149999
 21
19680.980973999998
 31
0.0
  0
LINE
  5
3813
  8
2-0
  6
CONTINUOUS
 62
     3
 10
21583.968366500001
 20
19680.980973999998
 30
0.0
 11
21583.968366500001
 21
19710.984537000011
 31
0.0
  0
LINE
  5
3814
  8
2-0
  6
CONTINUOUS
 62
     3
 10
21601.964169499988
 20
19680.980973999998
 30
0.0
 11
21583.968366500001
 21
19680.980973999998
 31
0.0
  0
LINE
  5
3815
  8
2-0
  6
CONTINUOUS
 62
     3
 10
21601.964169499988
 20
19705.990211000011
 30
0.0
 11
21601.964169499988
 21
19680.980973999998
 31
0.0
  0
LINE
  5
3816
  8
2-0
  6
CONTINUOUS
 62
     3
 10
21596.96390549999
 20
19705.990211000011
 30
0.0
 11
21601.964169499988
 21
19705.990211000011
 31
0.0
  0
LINE
  5
3817
  8
2-0
  6
CONTINUOUS
 62
     3
 10
21596.96390549999
 20
19698.984695000021
 30
0.0
 11
21596.96390549999
 21
19705.990211000011
 31
0.0
  0
LINE
  5
3818
  8
2-0
  6
CONTINUOUS
 62
     3
 10
22297.96291649999
 20
19698.984695000021
 30
0.0
 11
22297.96291649999
 21
19705.990211000011
 31
0.0
  0
LINE
  5
3819
  8
2-0
  6
CONTINUOUS
 62
     3
 10
22297.96291649999
 20
19705.990211000011
 30
0.0
 11
22302.963179499999
 21
19705.990211000011
 31
0.0
  0
LINE
  5
381A
  8
2-0
  6
CONTINUOUS
 62
     3
 10
22302.963179499999
 20
19705.990211000011
 30
0.0
 11
22302.963179499999
 21
19680.980973999998
 31
0.0
  0
LINE
  5
381B
  8
2-0
  6
CONTINUOUS
 62
     3
 10
22302.963179499999
 20
19680.980973999998
 30
0.0
 11
22284.969356499991
 21
19680.980973999998
 31
0.0
  0
LINE
  5
381C
  8
2-0
  6
CONTINUOUS
 62
     3
 10
22284.969356499991
 20
19680.980973999998
 30
0.0
 11
22284.969356499991
 21
19710.984537000011
 31
0.0
  0
LINE
  5
381D
  8
2-0
  6
CONTINUOUS
 62
     3
 10
22301.06086249997
 20
19680.980973999998
 30
0.0
 11
22295.06292149999
 21
19680.980973999998
 31
0.0
  0
LINE
  5
381E
  8
2-0
  6
CONTINUOUS
 62
     3
 10
22295.06292149999
 20
19680.980973999998
 30
0.0
 11
22295.06292149999
 21
19710.984537000011
 31
0.0
  0
LINE
  5
381F
  8
2-0
  6
CONTINUOUS
 62
     3
 10
22332.064082500001
 20
19710.984537000011
 30
0.0
 11
22295.06292149999
 21
19710.984537000011
 31
0.0
  0
LINE
  5
3820
  8
2-0
  6
CONTINUOUS
 62
     3
 10
22332.064082500001
 20
19680.980973999998
 30
0.0
 11
22332.064082500001
 21
19710.984537000011
 31
0.0
  0
LINE
  5
3821
  8
2-0
  6
CONTINUOUS
 62
     3
 10
22326.0582235
 20
19680.980973999998
 30
0.0
 11
22332.064082500001
 21
19680.980973999998
 31
0.0
  0
LINE
  5
3822
  8
2-0
  6
CONTINUOUS
 62
     3
 10
22342.1576475
 20
19680.980973999998
 30
0.0
 11
22342.1576475
 21
19710.984537000011
 31
0.0
  0
LINE
  5
3823
  8
2-0
  6
CONTINUOUS
 62
     3
 10
22324.161844499991
 20
19680.980973999998
 30
0.0
 11
22342.1576475
 21
19680.980973999998
 31
0.0
  0
LINE
  5
3824
  8
2-0
  6
CONTINUOUS
 62
     3
 10
22324.161844499991
 20
19705.990211000011
 30
0.0
 11
22324.161844499991
 21
19680.980973999998
 31
0.0
  0
LINE
  5
3825
  8
2-0
  6
CONTINUOUS
 62
     3
 10
22329.1522105
 20
19705.990211000011
 30
0.0
 11
22324.161844499991
 21
19705.990211000011
 31
0.0
  0
LINE
  5
3826
  8
2-0
  6
CONTINUOUS
 62
     3
 10
22329.1522105
 20
19698.984695000021
 30
0.0
 11
22329.1522105
 21
19705.990211000011
 31
0.0
  0
LINE
  5
3827
  8
2-0
  6
CONTINUOUS
 62
     3
 10
21641.158637500001
 20
19710.984537000011
 30
0.0
 11
22284.969356499991
 21
19710.984537000011
 31
0.0
  0
LINE
  5
3828
  8
2-0
  6
CONTINUOUS
 62
     3
 10
20937.368743999981
 20
19710.984537000011
 30
0.0
 11
21583.968366500001
 21
19710.984537000011
 31
0.0
  0
LINE
  5
3829
  8
2-0
  6
CONTINUOUS
 62
     3
 10
23690.447132000001
 20
19710.984537000011
 30
0.0
 11
23043.161606999998
 21
19710.984537000011
 31
0.0
  0
LINE
  5
382A
  8
2-0
  6
CONTINUOUS
 62
     3
 10
22985.969356000001
 20
19710.984537000011
 30
0.0
 11
22342.1576475
 21
19710.984537000011
 31
0.0
  0
LINE
  5
382B
  8
2-0
  6
CONTINUOUS
 62
     3
 10
23815.061785999991
 20
15263.12568899999
 30
0.0
 11
23815.061785999991
 21
14619.086831000001
 31
0.0
  0
LINE
  5
382C
  8
2-0
  6
CONTINUOUS
 62
     3
 10
23815.061785999991
 20
14561.890621
 30
0.0
 11
23815.061785999991
 21
13915.024258999991
 31
0.0
  0
CIRCLE
  5
382D
  8
2-0
  6
CONTINUOUS
 62
     4
 10
23772.563502000001
 20
21110.989156000011
 30
0.0
 40
200.00001
  0
TEXT
  5
382E
  8
2-0
  6
CONTINUOUS
 62
     7
 10
23720.931719000011
 20
21015.463527000022
 30
0.0
 40
160.0
  1
2
 72
     4
 11
23774.26505233334
 21
21095.463527000022
 31
0.0
  0
LINE
  5
382F
  8
0-6
  6
CONTINUOUS
 62
     6
 10
22045.698993499991
 20
18999.666309
 30
0.0
 11
23070.7392435
 21
18999.666309
 31
0.0
  0
LINE
  5
3830
  8
0-6
  6
CONTINUOUS
 62
     6
 10
21745.774215500001
 20
19557.019561000008
 30
0.0
 11
21641.158637500001
 21
19680.980973999998
 31
0.0
  0
LINE
  5
3831
  8
0-6
  6
CONTINUOUS
 62
     6
 10
21641.158637500001
 20
19680.980973999998
 30
0.0
 11
21699.916687500001
 21
19529.78930400002
 31
0.0
  0
LINE
  5
3832
  8
0-6
  6
CONTINUOUS
 62
     6
 10
21641.158637500001
 20
19680.980973999998
 30
0.0
 11
21745.774215500001
 21
19557.019561000008
 31
0.0
  0
LINE
  5
3833
  8
0-6
  6
CONTINUOUS
 62
     6
 10
21745.774215500001
 20
19557.019561000008
 30
0.0
 11
21699.916687500001
 21
19529.78930400002
 31
0.0
  0
LINE
  5
3834
  8
0-6
  6
CONTINUOUS
 62
     6
 10
21699.916687500001
 20
19529.78930400002
 30
0.0
 11
21641.158637500001
 21
19680.980973999998
 31
0.0
  0
LINE
  5
3835
  8
0-6
  6
CONTINUOUS
 62
     6
 10
21699.916687500001
 20
19529.78930400002
 30
0.0
 11
21745.774215500001
 21
19557.019561000008
 31
0.0
  0
LINE
  5
3836
  8
0-6
  6
CONTINUOUS
 62
     6
 10
21722.845451500001
 20
19543.406412000011
 30
0.0
 11
22045.698993499991
 21
18999.666309
 31
0.0
  0
TEXT
  5
3837
  8
0-6
  6
CONTINUOUS
 62
     7
 10
22125.6992575
 20
19079.668553000021
 30
0.0
 40
160.0
  1
間柱（後）
 72
     4
 11
22547.032590833329
 21
19159.668553000021
 31
0.0
  0
LINE
  5
3838
  8
0-5
  6
CONTINUOUS
 62
     4
 10
15532.066920999991
 20
4787.9233240000003
 30
0.0
 11
15532.066920999991
 21
4627.9237860000003
 31
0.0
  0
LINE
  5
3839
  8
0-5
  6
CONTINUOUS
 62
     4
 10
12614.066920999991
 20
4787.9233240000003
 30
0.0
 11
12614.066920999991
 21
4627.9237860000003
 31
0.0
  0
LINE
  5
383A
  8
0-5
  6
CONTINUOUS
 62
     4
 10
9696.0669209999924
 20
4787.9233240000003
 30
0.0
 11
9696.0669209999924
 21
4627.9237860000003
 31
0.0
  0
CIRCLE
  5
383B
  8
0-5
  6
CONTINUOUS
 62
     4
 10
12614.066920999991
 20
4427.9226310000013
 30
0.0
 40
199.9999949999999
  0
CIRCLE
  5
383C
  8
0-5
  6
CONTINUOUS
 62
     4
 10
15532.066920999991
 20
4427.9226310000013
 30
0.0
 40
199.9999949999999
  0
CIRCLE
  5
383D
  8
0-5
  6
CONTINUOUS
 62
     4
 10
9696.0669209999924
 20
4427.9226310000013
 30
0.0
 40
199.9999949999999
  0
TEXT
  5
383E
  8
0-5
  6
CONTINUOUS
 62
     7
 10
15485.11076099998
 20
4344.7118350000001
 30
0.0
 40
160.0
  1
A
 72
     4
 11
15538.444094333319
 21
4424.7118350000001
 31
0.0
  0
TEXT
  5
383F
  8
0-5
  6
CONTINUOUS
 62
     7
 10
12567.110760999991
 20
4344.7118350000001
 30
0.0
 40
160.0
  1
B
 72
     4
 11
12620.444094333319
 21
4424.7118350000001
 31
0.0
  0
TEXT
  5
3840
  8
0-5
  6
CONTINUOUS
 62
     7
 10
9649.1107609999963
 20
4344.7118350000001
 30
0.0
 40
160.0
  1
C
 72
     4
 11
9702.4440943333302
 21
4424.7118350000001
 31
0.0
  0
LINE
  5
3841
  8
0-5
  6
CONTINUOUS
 62
     4
 10
17292.150917999981
 20
6567.9232579999989
 30
0.0
 11
17412.151313999981
 21
6775.7702349999954
 31
0.0
  0
LINE
  5
3842
  8
0-5
  6
CONTINUOUS
 62
     4
 10
17172.152500999971
 20
6775.7702349999954
 30
0.0
 11
17292.150917999981
 21
6567.9232579999989
 31
0.0
  0
LINE
  5
3843
  8
0-5
  6
CONTINUOUS
 62
     4
 10
17412.151313999981
 20
6775.7702349999954
 30
0.0
 11
17172.152500999971
 21
6775.7702349999954
 31
0.0
  0
LINE
  5
3844
  8
0-5
  6
CONTINUOUS
 62
     4
 10
15667.064216000001
 20
6567.9232579999998
 30
0.0
 11
17384.529110999982
 21
6567.9232579999989
 31
0.0
  0
TEXT
  5
3845
  8
0-5
  6
CONTINUOUS
 62
     7
 10
16833.058988999979
 20
6855.7695089999979
 30
0.0
 40
160.0
  1
布基礎天端
 72
     4
 11
17291.725655666651
 21
6935.7695089999979
 31
0.0
  0
LINE
  5
3846
  8
0-1
  6
CONTINUOUS
 62
     3
 10
20897.059807000009
 20
8475.9238119999973
 30
0.0
 11
23730.063237999992
 21
8475.9238119999973
 31
0.0
  0
LINE
  5
384D
  8
0-1
  6
CONTINUOUS
 62
     3
 10
23822.562182999991
 20
6567.9237529999991
 30
0.0
 11
23722.562841999999
 21
6567.9237529999991
 31
0.0
  0
LINE
  5
384E
  8
0-1
  6
CONTINUOUS
 62
     3
 10
23722.562841999999
 20
6567.9237529999991
 30
0.0
 11
23722.562841999999
 21
6467.9239179999959
 31
0.0
  0
LINE
  5
384F
  8
0-1
  6
CONTINUOUS
 62
     3
 10
23822.562182999991
 20
6467.9239179999959
 30
0.0
 11
23822.562182999991
 21
6567.9237529999991
 31
0.0
  0
LINE
  5
3850
  8
0-1
  6
CONTINUOUS
 62
     3
 10
23730.063237999992
 20
8785.9238449999975
 30
0.0
 11
23730.063237999992
 21
6567.9237529999991
 31
0.0
  0
LINE
  5
3851
  8
0-1
  6
CONTINUOUS
 62
     3
 10
23685.064821999989
 20
8475.9238119999973
 30
0.0
 11
23685.064821999989
 21
6467.9239179999959
 31
0.0
  0
LINE
  5
3852
  8
0-1
  6
CONTINUOUS
 62
     3
 10
23795.064689999988
 20
8915.9237789999934
 30
0.0
 11
23795.064689999988
 21
6567.9237529999991
 31
0.0
  0
LINE
  5
3853
  8
0-1
  6
CONTINUOUS
 62
     3
 10
23815.061786999999
 20
8785.9238449999975
 30
0.0
 11
23815.061786999999
 21
6567.9237529999991
 31
0.0
  0
LINE
  5
3855
  8
0-1
  6
CONTINUOUS
 62
     3
 10
20804.56086300001
 20
6567.9237529999991
 30
0.0
 11
20904.560203000001
 21
6567.9237529999991
 31
0.0
  0
LINE
  5
3856
  8
0-1
  6
CONTINUOUS
 62
     3
 10
20904.560203000001
 20
6567.9237529999991
 30
0.0
 11
20904.560203000001
 21
6467.9239179999959
 31
0.0
  0
LINE
  5
3857
  8
0-1
  6
CONTINUOUS
 62
     3
 10
20804.56086300001
 20
6467.9239179999959
 30
0.0
 11
20804.56086300001
 21
6567.9237529999991
 31
0.0
  0
LINE
  5
3858
  8
0-1
  6
CONTINUOUS
 62
     3
 10
20942.062182999998
 20
8475.9238119999973
 30
0.0
 11
20942.062182999998
 21
6467.9239179999959
 31
0.0
  0
LINE
  5
3859
  8
0-1
  6
CONTINUOUS
 62
     3
 10
20897.059807000009
 20
8785.9238449999975
 30
0.0
 11
20897.059807000009
 21
6567.9237529999991
 31
0.0
  0
LINE
  5
385A
  8
0-1
  6
CONTINUOUS
 62
     3
 10
20832.060334999998
 20
8915.9237789999934
 30
0.0
 11
20832.060334999998
 21
6567.9237529999991
 31
0.0
  0
LINE
  5
385B
  8
0-1
  6
CONTINUOUS
 62
     3
 10
20812.061258999998
 20
8785.9238449999975
 30
0.0
 11
20812.061258999998
 21
6567.9237529999991
 31
0.0
  0
LINE
  5
385C
  8
0-1
  6
CONTINUOUS
 62
     3
 10
20942.062182999998
 20
6987.9246439999988
 30
0.0
 11
23685.064821999989
 21
6987.9246439999988
 31
0.0
  0
LINE
  5
385D
  8
0-1
  6
CONTINUOUS
 62
     3
 10
20942.062182999998
 20
6922.9241819999988
 30
0.0
 11
23685.064821999989
 21
6922.9241819999988
 31
0.0
  0
LINE
  5
385E
  8
0-1
  6
CONTINUOUS
 62
     3
 10
20942.062182999998
 20
6857.9242150000009
 30
0.0
 11
23685.064821999989
 21
6857.9242150000009
 31
0.0
  0
LINE
  5
385F
  8
0-1
  6
CONTINUOUS
 62
     3
 10
20942.062182999998
 20
6792.923753
 30
0.0
 11
23685.064821999989
 21
6792.923753
 31
0.0
  0
LINE
  5
3860
  8
0-1
  6
CONTINUOUS
 62
     3
 10
20942.062182999998
 20
6727.9242810000032
 30
0.0
 11
23685.064821999989
 21
6727.9242810000032
 31
0.0
  0
LINE
  5
3861
  8
0-1
  6
CONTINUOUS
 62
     3
 10
20942.062182999998
 20
6662.9243139999999
 30
0.0
 11
23685.064821999989
 21
6662.9243139999999
 31
0.0
  0
LINE
  5
3862
  8
0-1
  6
CONTINUOUS
 62
     3
 10
20942.062182999998
 20
6597.9243470000001
 30
0.0
 11
23685.064821999989
 21
6597.9243470000001
 31
0.0
  0
LINE
  5
3863
  8
0-1
  6
CONTINUOUS
 62
     3
 10
20942.062182999998
 20
6532.9238849999983
 30
0.0
 11
23685.064821999989
 21
6532.9238849999983
 31
0.0
  0
LINE
  5
3864
  8
0-1
  6
CONTINUOUS
 62
     3
 10
20942.062182999998
 20
8352.9239510000007
 30
0.0
 11
23685.064821999989
 21
8352.9239510000007
 31
0.0
  0
LINE
  5
3865
  8
0-1
  6
CONTINUOUS
 62
     3
 10
20942.062182999998
 20
8287.9239839999973
 30
0.0
 11
23685.064821999989
 21
8287.9239839999973
 31
0.0
  0
LINE
  5
3866
  8
0-1
  6
CONTINUOUS
 62
     3
 10
20942.062182999998
 20
8222.9245120000032
 30
0.0
 11
23685.064821999989
 21
8222.9245120000032
 31
0.0
  0
LINE
  5
3867
  8
0-1
  6
CONTINUOUS
 62
     3
 10
20942.062182999998
 20
8157.924544999998
 30
0.0
 11
23685.064821999989
 21
8157.924544999998
 31
0.0
  0
LINE
  5
3868
  8
0-1
  6
CONTINUOUS
 62
     3
 10
20942.062182999998
 20
8092.924578000001
 30
0.0
 11
23685.064821999989
 21
8092.924578000001
 31
0.0
  0
LINE
  5
3869
  8
0-1
  6
CONTINUOUS
 62
     3
 10
20942.062182999998
 20
8027.9241159999974
 30
0.0
 11
23685.064821999989
 21
8027.9241159999974
 31
0.0
  0
LINE
  5
386A
  8
0-1
  6
CONTINUOUS
 62
     3
 10
20942.062182999998
 20
7962.9241489999986
 30
0.0
 11
23685.064821999989
 21
7962.9241489999986
 31
0.0
  0
LINE
  5
386B
  8
0-1
  6
CONTINUOUS
 62
     3
 10
20942.062182999998
 20
7897.9246769999982
 30
0.0
 11
23685.064821999989
 21
7897.9246769999982
 31
0.0
  0
LINE
  5
386C
  8
0-1
  6
CONTINUOUS
 62
     3
 10
20942.062182999998
 20
7832.9247099999948
 30
0.0
 11
23685.064821999989
 21
7832.9247099999948
 31
0.0
  0
LINE
  5
386D
  8
0-1
  6
CONTINUOUS
 62
     3
 10
20942.062182999998
 20
7767.924248000003
 30
0.0
 11
23685.064821999989
 21
7767.924248000003
 31
0.0
  0
LINE
  5
386E
  8
0-1
  6
CONTINUOUS
 62
     3
 10
20942.062182999998
 20
7702.9242809999978
 30
0.0
 11
23685.064821999989
 21
7702.9242809999978
 31
0.0
  0
LINE
  5
386F
  8
0-1
  6
CONTINUOUS
 62
     3
 10
20942.062182999998
 20
7637.9243139999999
 30
0.0
 11
23685.064821999989
 21
7637.9243139999999
 31
0.0
  0
LINE
  5
3870
  8
0-1
  6
CONTINUOUS
 62
     3
 10
20942.062182999998
 20
7572.923851999999
 30
0.0
 11
23685.064821999989
 21
7572.923851999999
 31
0.0
  0
LINE
  5
3871
  8
0-1
  6
CONTINUOUS
 62
     3
 10
20942.062182999998
 20
7507.9238849999938
 30
0.0
 11
23685.064821999989
 21
7507.9238849999938
 31
0.0
  0
LINE
  5
3872
  8
0-1
  6
CONTINUOUS
 62
     3
 10
20942.062182999998
 20
7442.9244129999988
 30
0.0
 11
23685.064821999989
 21
7442.9244129999988
 31
0.0
  0
LINE
  5
3873
  8
0-1
  6
CONTINUOUS
 62
     3
 10
20942.062182999998
 20
7377.9244459999973
 30
0.0
 11
23685.064821999989
 21
7377.9244459999973
 31
0.0
  0
LINE
  5
3874
  8
0-1
  6
CONTINUOUS
 62
     3
 10
20942.062182999998
 20
7312.9244789999966
 30
0.0
 11
23685.064821999989
 21
7312.9244789999966
 31
0.0
  0
LINE
  5
3875
  8
0-1
  6
CONTINUOUS
 62
     3
 10
20942.062182999998
 20
7247.9240170000021
 30
0.0
 11
23685.064821999989
 21
7247.9240170000021
 31
0.0
  0
LINE
  5
3876
  8
0-1
  6
CONTINUOUS
 62
     3
 10
20942.062182999998
 20
7182.9240499999978
 30
0.0
 11
23685.064821999989
 21
7182.9240499999978
 31
0.0
  0
LINE
  5
3877
  8
0-1
  6
CONTINUOUS
 62
     3
 10
20942.062182999998
 20
7117.9245780000001
 30
0.0
 11
23685.064821999989
 21
7117.9245780000001
 31
0.0
  0
LINE
  5
3878
  8
0-1
  6
CONTINUOUS
 62
     3
 10
20942.062182999998
 20
7052.9246109999985
 30
0.0
 11
23685.064821999989
 21
7052.9246109999985
 31
0.0
  0
LINE
  5
3879
  8
0-1
  6
CONTINUOUS
 62
     3
 10
20942.062182999998
 20
8407.3839709999975
 30
0.0
 11
23685.064821999989
 21
8407.3839709999975
 31
0.0
  0
LINE
  5
387A
  8
0-1
  6
CONTINUOUS
 62
     3
 10
20804.56086300001
 20
6467.9239179999959
 30
0.0
 11
23822.562182999991
 21
6467.9239179999959
 31
0.0
  0
LINE
  5
388C
  8
0-2
  6
CONTINUOUS
 62
     4
 10
22677.25352200001
 20
7215.1506119999976
 30
0.0
 11
22577.254182000001
 21
7215.1506119999976
 31
0.0
  0
LINE
  5
388D
  8
0-2
  6
CONTINUOUS
 62
     4
 10
21949.869521999979
 20
7215.1506119999976
 30
0.0
 11
22049.868861999988
 21
7215.1506119999976
 31
0.0
  0
LINE
  5
388E
  8
0-5
  6
CONTINUOUS
 62
     4
 10
23772.563502000001
 20
4787.9243139999962
 30
0.0
 11
23772.563502000001
 21
4627.9247759999989
 31
0.0
  0
LINE
  5
388F
  8
0-5
  6
CONTINUOUS
 62
     4
 10
20854.563502000001
 20
4787.9243139999962
 30
0.0
 11
20854.563502000001
 21
4627.9247759999989
 31
0.0
  0
LINE
  5
3890
  8
2-0
  6
CENTER2
 62
     6
 10
23772.563502000001
 20
6205.2714950000009
 30
0.0
 11
23772.563502000001
 21
7242.414522
 31
0.0
  0
LINE
  5
3891
  8
2-0
  6
CENTER2
 62
     6
 10
20854.563502000001
 20
6205.2714950000009
 30
0.0
 11
20854.563502000001
 21
7242.414522
 31
0.0
  0
CIRCLE
  5
389A
  8
0-5
  6
CONTINUOUS
 62
     4
 10
23772.563502000001
 20
4427.9236209999972
 30
0.0
 40
199.9999949999999
  0
CIRCLE
  5
389B
  8
0-5
  6
CONTINUOUS
 62
     4
 10
20854.563502000001
 20
4427.9236209999972
 30
0.0
 40
199.9999949999999
  0
TEXT
  5
389C
  8
0-5
  6
CONTINUOUS
 62
     7
 10
23720.650626999999
 20
4338.4486389999984
 30
0.0
 40
160.0
  1
2
 72
     4
 11
23773.983960333331
 21
4418.4486389999984
 31
0.0
  0
TEXT
  5
389D
  8
0-5
  6
CONTINUOUS
 62
     7
 10
20802.65062800001
 20
4338.4486389999984
 30
0.0
 40
160.0
  1
1
 72
     4
 11
20829.317294666671
 21
4418.4486389999984
 31
0.0
  0
CIRCLE
  5
389E
  8
0-4
  6
CONTINUOUS
 62
     4
 10
22313.563502000001
 20
6953.9803539999957
 30
0.0
 40
18.487504999999981
  0
LINE
  5
389F
  8
SUNPOU
  6
CONTINUOUS
 10
20572.06350199999
 20
5267.9239180000041
 30
0.0
 11
20214.108495278891
 21
5267.9239180000041
 31
0.0
  0
LINE
  5
38A0
  8
SUNPOU
  6
CONTINUOUS
 10
24055.063502000001
 20
5267.9239180000041
 30
0.0
 11
24413.018508721081
 21
5267.9239180000041
 31
0.0
  0
TEXT
  5
38A1
  8
0-5
  6
CONTINUOUS
 62
     7
 10
20236.385582999999
 20
7197.2841647419982
 30
0.0
 40
160.0
  1
(2131.5)
 50
90.0
 72
     4
 11
20156.385582999999
 21
7650.6174980753312
 31
0.0
  0
TEXT
  5
38A2
  8
2-0
  6
CONTINUOUS
 62
     7
 10
20994.240102
 20
3506.7741969999988
 30
0.0
 40
160.0
  1
正 面 立 面 図
 72
     4
 11
21639.573435333328
 21
3586.7741969999988
 31
0.0
  0
TEXT
  5
38A3
  8
2-0
  6
CONTINUOUS
 62
     7
 10
22991.065620470959
 20
3533.9695660000002
 30
0.0
 40
160.0
  1
1
 72
     4
 11
23017.732287137631
 21
3613.9695660000002
 31
0.0
  0
TEXT
  5
38A4
  8
2-0
  6
CONTINUOUS
 62
     7
 10
23234.154337721651
 20
3453.9710340000001
 30
0.0
 40
160.0
  1
80
 72
     4
 11
23354.154337721651
 21
3533.9710340000001
 31
0.0
  0
TEXT
  5
38A5
  8
2-0
  6
CONTINUOUS
 62
     7
 10
22492.067586470948
 20
3506.7741969999988
 30
0.0
 40
160.0
  1
(S=  /   )
 72
     4
 11
23052.067586470948
 21
3586.7741969999988
 31
0.0
  0
LINE
  5
38A6
  8
SUNPOU
  6
CONTINUOUS
 10
10555.09863799999
 20
19890.982161000022
 30
0.0
 11
10555.09863799999
 21
20687.949428778458
 31
0.0
  0
LINE
  5
38A7
  8
SUNPOU
  6
CONTINUOUS
 10
10555.09863799999
 20
13639.990937
 30
0.0
 11
10555.09863799999
 21
12964.56482118961
 31
0.0
  0
LINE
  5
38A8
  8
SUNPOU
  6
CONTINUOUS
 10
9473.565666999988
 20
9715.9239440000001
 30
0.0
 11
8998.2765543597579
 21
9715.9239440000001
 31
0.0
  0
LINE
  5
38AB
  8
WAKUSEN-01
 10
868.00000000000193
 20
22484.000000000011
 30
0.0
 11
32764.000000000011
 21
22484.000000000011
 31
0.0
  0
LINE
  5
38AE
  8
WAKUSEN-01
 10
20560.0
 20
2484.0
 30
0.0
 11
32764.0
 21
2484.0
 31
0.0
  0
LINE
  5
38AF
  8
WAKUSEN-02
 10
20560.0
 20
1655.9999999999991
 30
0.0
 11
26868.0
 21
1655.9999999999991
 31
0.0
  0
TEXT
  5
38B0
  8
WAKUMOJI-01
 10
20670.260259962761
 20
2125.9030093393221
 30
0.0
 40
240.0
  1
名　称
  7
WAKUMOJI
  0
TEXT
  5
38B1
  8
WAKUMOJI-01
 10
20656.505485091919
 20
1319.12897497982
 30
0.0
 40
240.0
  1
機種名
  7
WAKUMOJI
  0
LINE
  5
38B4
  8
YODOROGO
 10
29977.604341291921
 20
1995.7494964292871
 30
0.0
 11
29829.604341291921
 21
1995.7494964292871
 31
0.0
1001
AUTOCAD_POSTSCRIPT_FIGURE
1002
{
1000
PSFILL
1000
Grayscale
1000
Grayscale
1070
    25
1002
}
  0
LINE
  5
38B5
  8
YODOROGO
 10
29829.604341291921
 20
1947.749496429288
 30
0.0
 11
29977.604341291921
 21
1947.749496429288
 31
0.0
1001
AUTOCAD_POSTSCRIPT_FIGURE
1002
{
1000
PSFILL
1000
Grayscale
1000
Grayscale
1070
    25
1002
}
  0
LINE
  5
38B6
  8
YODOROGO
 10
29977.604341291921
 20
1907.7494964292871
 30
0.0
 11
29829.604341291921
 21
1907.7494964292871
 31
0.0
1001
AUTOCAD_POSTSCRIPT_FIGURE
1002
{
1000
PSFILL
1000
Grayscale
1000
Grayscale
1070
    25
1002
}
  0
LINE
  5
38B7
  8
YODOROGO
 10
29829.604341291921
 20
1859.749496429288
 30
0.0
 11
29977.604341291921
 21
1859.749496429288
 31
0.0
1001
AUTOCAD_POSTSCRIPT_FIGURE
1002
{
1000
PSFILL
1000
Grayscale
1000
Grayscale
1070
    25
1002
}
  0
LINE
  5
38B8
  8
YODOROGO
 10
29977.604341291921
 20
1819.7494964292871
 30
0.0
 11
29829.604341291921
 21
1819.7494964292871
 31
0.0
1001
AUTOCAD_POSTSCRIPT_FIGURE
1002
{
1000
PSFILL
1000
Grayscale
1000
Grayscale
1070
    25
1002
}
  0
LINE
  5
38B9
  8
YODOROGO
 10
29921.60434129191
 20
1707.749496429288
 30
0.0
 11
29977.604341291921
 21
1707.749496429288
 31
0.0
1001
AUTOCAD_POSTSCRIPT_FIGURE
1002
{
1000
PSFILL
1000
Grayscale
1000
Grayscale
1070
    25
1002
}
  0
LINE
  5
38BA
  8
YODOROGO
 10
29737.604341291921
 20
1427.749496429288
 30
0.0
 11
29937.604341291932
 21
1481.3393349155101
 31
0.0
  0
LINE
  5
38BB
  8
YODOROGO
 10
29949.60434129191
 20
1707.749496429288
 30
0.0
 11
29885.604341291921
 21
1707.749496429288
 31
0.0
  0
ARC
  5
38BC
  8
YODOROGO
 10
30254.34774982791
 20
1807.864609233261
 30
0.0
 40
381.88686420564721
 50
213.96111677667841
 51
264.47872074317792
  0
ARC
  5
38BD
  8
YODOROGO
 10
30254.347749827921
 20
1807.864609233302
 30
0.0
 40
381.8868642056816
 50
208.14114420486601
 51
212.9210361185994
  0
LINE
  5
38BE
  8
YODOROGO
 10
29771.409872985321
 20
1556.807661346234
 30
0.0
 11
29933.78413250855
 21
1600.3157130570869
 31
0.0
  0
LINE
  5
38BF
  8
YODOROGO
 10
29737.604341291921
 20
1427.749496429288
 30
0.0
 11
29937.604341291932
 21
1481.3393349155101
 31
0.0
  0
LINE
  5
38C0
  8
YODOROGO
 10
29949.60434129191
 20
1707.749496429288
 30
0.0
 11
29885.604341291921
 21
1707.749496429288
 31
0.0
  0
ARC
  5
38C1
  8
YODOROGO
 10
30254.34774982791
 20
1807.864609233261
 30
0.0
 40
381.88686420564721
 50
213.96111677667841
 51
264.47872074317792
  0
LINE
  5
38C2
  8
YODOROGO
 10
28793.60434129191
 20
1819.7494964292871
 30
0.0
 11
28433.60434129191
 21
1819.7494964292871
 31
0.0
  0
LINE
  5
38C3
  8
YODOROGO
 10
28513.60434129191
 20
1427.749496429288
 30
0.0
 11
28793.60434129191
 21
1427.749496429288
 31
0.0
  0
LINE
  5
38C4
  8
YODOROGO
 10
28729.604341291921
 20
1923.7494964292871
 30
0.0
 11
28497.60434129191
 21
1923.7494964292871
 31
0.0
  0
LINE
  5
38C5
  8
YODOROGO
 10
28585.604341291921
 20
2027.749496429288
 30
0.0
 11
28657.604341291921
 21
2027.749496429288
 31
0.0
  0
LINE
  5
38C6
  8
YODOROGO
 10
28433.60434129191
 20
1707.749496429288
 30
0.0
 11
28433.60434129191
 21
1507.749496429288
 31
0.0
  0
LINE
  5
38C7
  8
YODOROGO
 10
28497.60434129191
 20
1563.7494964292871
 30
0.0
 11
28497.60434129191
 21
1707.749496429288
 31
0.0
  0
LINE
  5
38C8
  8
YODOROGO
 10
28585.604341291921
 20
1747.74949642929
 30
0.0
 11
28585.604341291921
 21
1547.749496429288
 31
0.0
  0
LINE
  5
38C9
  8
YODOROGO
 10
27857.604341291921
 20
1683.749496429288
 30
0.0
 11
27777.604341291921
 21
1619.9724140445701
 31
0.0
  0
LINE
  5
38CA
  8
YODOROGO
 10
27937.604341291921
 20
1619.9724140445701
 30
0.0
 11
27857.604341291921
 21
1683.749496429288
 31
0.0
  0
LINE
  5
38CB
  8
YODOROGO
 10
27857.604341291921
 20
1707.749496429288
 30
0.0
 11
27937.604341291921
 21
1643.9724140445701
 31
0.0
  0
LINE
  5
38CC
  8
YODOROGO
 10
27777.604341291921
 20
1643.9724140445701
 30
0.0
 11
27857.604341291921
 21
1707.749496429288
 31
0.0
  0
LINE
  5
38CD
  8
YODOROGO
 10
28040.913204016892
 20
1659.749496429288
 30
0.0
 11
28040.913204016892
 21
1683.7494964292871
 31
0.0
  0
LINE
  5
38CE
  8
YODOROGO
 10
27977.604341291921
 20
1683.7494964292871
 30
0.0
 11
27977.604341291921
 21
1667.749496429285
 31
0.0
  0
LINE
  5
38CF
  8
YODOROGO
 10
28098.135520230931
 20
1707.749496429288
 30
0.0
 11
28098.135520230931
 21
1655.5036372746561
 31
0.0
1001
AUTOCAD_POSTSCRIPT_FIGURE
1002
{
1000
PSFILL
1000
Grayscale
1000
Grayscale
1070
   100
1002
}
  0
LINE
  5
38D0
  8
YODOROGO
 10
28082.135520230921
 20
1655.5036372746561
 30
0.0
 11
28082.135520230921
 21
1707.749496429288
 31
0.0
1001
AUTOCAD_POSTSCRIPT_FIGURE
1002
{
1000
PSFILL
1000
Grayscale
1000
Grayscale
1070
   100
1002
}
  0
LINE
  5
38D1
  8
YODOROGO
 10
27809.604341291921
 20
1608.771904043258
 30
0.0
 11
27809.604341291921
 21
1632.771904043258
 31
0.0
  0
LINE
  5
38D2
  8
YODOROGO
 10
27905.604341291921
 20
1608.771904043258
 30
0.0
 11
27809.604341291921
 21
1608.771904043258
 31
0.0
  0
LINE
  5
38D3
  8
YODOROGO
 10
27905.604341291921
 20
1632.771904043258
 30
0.0
 11
27905.604341291921
 21
1608.771904043258
 31
0.0
  0
LINE
  5
38D4
  8
YODOROGO
 10
27809.604341291921
 20
1632.771904043258
 30
0.0
 11
27905.604341291921
 21
1632.771904043258
 31
0.0
  0
LINE
  5
38D5
  8
YODOROGO
 10
27824.509588915738
 20
1568.5028573704751
 30
0.0
 11
27785.604341291921
 21
1475.7494964292871
 31
0.0
1001
AUTOCAD_POSTSCRIPT_FIGURE
1002
{
1000
PSFILL
1000
Grayscale
1000
Grayscale
1070
   100
1002
}
  0
LINE
  5
38D6
  8
YODOROGO
 10
27777.604341291921
 20
1568.5028573704751
 30
0.0
 11
27824.509588915738
 21
1568.5028573704751
 31
0.0
1001
AUTOCAD_POSTSCRIPT_FIGURE
1002
{
1000
PSFILL
1000
Grayscale
1000
Grayscale
1070
   100
1002
}
  0
LINE
  5
38D7
  8
YODOROGO
 10
27777.604341291921
 20
1588.5028573704751
 30
0.0
 11
27777.604341291921
 21
1568.5028573704751
 31
0.0
1001
AUTOCAD_POSTSCRIPT_FIGURE
1002
{
1000
PSFILL
1000
Grayscale
1000
Grayscale
1070
   100
1002
}
  0
LINE
  5
38D8
  8
YODOROGO
 10
27937.604341291921
 20
1588.5028573704751
 30
0.0
 11
27777.604341291921
 21
1588.5028573704751
 31
0.0
1001
AUTOCAD_POSTSCRIPT_FIGURE
1002
{
1000
PSFILL
1000
Grayscale
1000
Grayscale
1070
   100
1002
}
  0
LINE
  5
38D9
  8
YODOROGO
 10
27937.604341291921
 20
1568.5028573704751
 30
0.0
 11
27937.604341291921
 21
1588.5028573704751
 31
0.0
1001
AUTOCAD_POSTSCRIPT_FIGURE
1002
{
1000
PSFILL
1000
Grayscale
1000
Grayscale
1070
   100
1002
}
  0
LINE
  5
38DA
  8
YODOROGO
 10
27844.509588915738
 20
1568.5028573704751
 30
0.0
 11
27937.604341291921
 21
1568.5028573704751
 31
0.0
1001
AUTOCAD_POSTSCRIPT_FIGURE
1002
{
1000
PSFILL
1000
Grayscale
1000
Grayscale
1070
   100
1002
}
  0
LINE
  5
38DB
  8
YODOROGO
 10
27815.546718284771
 20
1495.7494964292871
 30
0.0
 11
27844.509588915738
 21
1568.5028573704751
 31
0.0
1001
AUTOCAD_POSTSCRIPT_FIGURE
1002
{
1000
PSFILL
1000
Grayscale
1000
Grayscale
1070
   100
1002
}
  0
LINE
  5
38DC
  8
YODOROGO
 10
27902.054790808648
 20
1495.7494964292871
 30
0.0
 11
27815.546718284771
 21
1495.7494964292871
 31
0.0
1001
AUTOCAD_POSTSCRIPT_FIGURE
1002
{
1000
PSFILL
1000
Grayscale
1000
Grayscale
1070
   100
1002
}
  0
LINE
  5
38DD
  8
YODOROGO
 10
27885.065004790951
 20
1536.2338106976929
 30
0.0
 11
27902.054790808648
 21
1495.7494964292871
 31
0.0
1001
AUTOCAD_POSTSCRIPT_FIGURE
1002
{
1000
PSFILL
1000
Grayscale
1000
Grayscale
1070
   100
1002
}
  0
LINE
  5
38DE
  8
YODOROGO
 10
27901.065004790951
 20
1536.2338106976929
 30
0.0
 11
27885.065004790951
 21
1536.2338106976929
 31
0.0
1001
AUTOCAD_POSTSCRIPT_FIGURE
1002
{
1000
PSFILL
1000
Grayscale
1000
Grayscale
1070
   100
1002
}
  0
LINE
  5
38DF
  8
YODOROGO
 10
27929.604341291921
 20
1475.7494964292871
 30
0.0
 11
27901.065004790951
 21
1536.2338106976929
 31
0.0
1001
AUTOCAD_POSTSCRIPT_FIGURE
1002
{
1000
PSFILL
1000
Grayscale
1000
Grayscale
1070
   100
1002
}
  0
LINE
  5
38E0
  8
YODOROGO
 10
27785.604341291921
 20
1475.7494964292871
 30
0.0
 11
27929.604341291921
 21
1475.7494964292871
 31
0.0
1001
AUTOCAD_POSTSCRIPT_FIGURE
1002
{
1000
PSFILL
1000
Grayscale
1000
Grayscale
1070
   100
1002
}
  0
LINE
  5
38E1
  8
YODOROGO
 10
27777.604341291921
 20
1619.9724140445701
 30
0.0
 11
27777.604341291921
 21
1643.9724140445701
 31
0.0
  0
LINE
  5
38E2
  8
YODOROGO
 10
27937.604341291921
 20
1643.9724140445701
 30
0.0
 11
27937.604341291921
 21
1619.9724140445701
 31
0.0
  0
ARC
  5
38E3
  8
YODOROGO
 10
28225.940442146959
 20
1600.877765325326
 30
0.0
 40
175.9999999999998
 50
280.3644312771313
 51
3.5414836592180561
  0
ARC
  5
38E4
  8
YODOROGO
 10
28235.756030759301
 20
1633.5978069619041
 30
0.0
 40
111.9999999999982
 50
281.24905825041549
 51
348.75094174958321
  0
LINE
  5
38E5
  8
YODOROGO
 10
28257.604341291921
 20
1523.7494964292871
 30
0.0
 11
28257.604341291921
 21
1427.749496429288
 31
0.0
  0
LINE
  5
38E6
  8
YODOROGO
 10
28020.088903736909
 20
1610.650565061914
 30
0.0
 11
28040.913204016892
 21
1659.749496429288
 31
0.0
  0
LINE
  5
38E7
  8
YODOROGO
 10
28041.604341291921
 20
1583.120489948401
 30
0.0
 11
28020.088903736909
 21
1610.650565061914
 31
0.0
  0
LINE
  5
38E8
  8
YODOROGO
 10
28041.604341291921
 20
1563.120489948398
 30
0.0
 11
28041.604341291921
 21
1583.120489948401
 31
0.0
  0
LINE
  5
38E9
  8
YODOROGO
 10
28017.604341291921
 20
1585.2370637495301
 30
0.0
 11
28041.604341291921
 21
1563.120489948398
 31
0.0
  0
LINE
  5
38EA
  8
YODOROGO
 10
28017.604341291921
 20
1475.7494964292871
 30
0.0
 11
28017.604341291921
 21
1585.2370637495301
 31
0.0
  0
LINE
  5
38EB
  8
YODOROGO
 10
28001.604341291921
 20
1475.7494964292871
 30
0.0
 11
28017.604341291921
 21
1475.7494964292871
 31
0.0
  0
LINE
  5
38EC
  8
YODOROGO
 10
28001.604341291921
 20
1580.0053496897469
 30
0.0
 11
28001.604341291921
 21
1475.7494964292871
 31
0.0
  0
LINE
  5
38ED
  8
YODOROGO
 10
27977.604341291921
 20
1532.7680790334291
 30
0.0
 11
28001.604341291921
 21
1580.0053496897469
 31
0.0
  0
LINE
  5
38EE
  8
YODOROGO
 10
27977.604341291921
 20
1556.76807903343
 30
0.0
 11
27977.604341291921
 21
1532.7680790334291
 31
0.0
  0
LINE
  5
38EF
  8
YODOROGO
 10
28025.828774291349
 20
1667.749496429285
 30
0.0
 11
27977.604341291921
 21
1556.76807903343
 31
0.0
  0
LINE
  5
38F0
  8
YODOROGO
 10
27977.604341291921
 20
1667.749496429285
 30
0.0
 11
28025.828774291349
 21
1667.749496429285
 31
0.0
  0
LINE
  5
38F1
  8
YODOROGO
 10
28050.135520230899
 20
1655.5036372746561
 30
0.0
 11
28082.135520230921
 21
1655.5036372746561
 31
0.0
1001
AUTOCAD_POSTSCRIPT_FIGURE
1002
{
1000
PSFILL
1000
Grayscale
1000
Grayscale
1070
   100
1002
}
  0
LINE
  5
38F2
  8
YODOROGO
 10
28050.135520230899
 20
1631.5036372746561
 30
0.0
 11
28050.135520230899
 21
1655.5036372746561
 31
0.0
1001
AUTOCAD_POSTSCRIPT_FIGURE
1002
{
1000
PSFILL
1000
Grayscale
1000
Grayscale
1070
   100
1002
}
  0
LINE
  5
38F3
  8
YODOROGO
 10
28082.135520230921
 20
1631.5036372746561
 30
0.0
 11
28050.135520230899
 21
1631.5036372746561
 31
0.0
1001
AUTOCAD_POSTSCRIPT_FIGURE
1002
{
1000
PSFILL
1000
Grayscale
1000
Grayscale
1070
   100
1002
}
  0
LINE
  5
38F4
  8
YODOROGO
 10
28082.135520230921
 20
1499.749496429288
 30
0.0
 11
28082.135520230921
 21
1631.5036372746561
 31
0.0
1001
AUTOCAD_POSTSCRIPT_FIGURE
1002
{
1000
PSFILL
1000
Grayscale
1000
Grayscale
1070
   100
1002
}
  0
LINE
  5
38F5
  8
YODOROGO
 10
28050.135520230921
 20
1499.749496429288
 30
0.0
 11
28082.135520230921
 21
1499.749496429288
 31
0.0
1001
AUTOCAD_POSTSCRIPT_FIGURE
1002
{
1000
PSFILL
1000
Grayscale
1000
Grayscale
1070
   100
1002
}
  0
LINE
  5
38F6
  8
YODOROGO
 10
28050.135520230921
 20
1475.7494964292871
 30
0.0
 11
28050.135520230921
 21
1499.749496429288
 31
0.0
1001
AUTOCAD_POSTSCRIPT_FIGURE
1002
{
1000
PSFILL
1000
Grayscale
1000
Grayscale
1070
   100
1002
}
  0
LINE
  5
38F7
  8
YODOROGO
 10
28137.604341291921
 20
1475.7494964292871
 30
0.0
 11
28050.135520230921
 21
1475.7494964292871
 31
0.0
1001
AUTOCAD_POSTSCRIPT_FIGURE
1002
{
1000
PSFILL
1000
Grayscale
1000
Grayscale
1070
   100
1002
}
  0
LINE
  5
38F8
  8
YODOROGO
 10
28137.604341291921
 20
1499.749496429288
 30
0.0
 11
28137.604341291921
 21
1475.7494964292871
 31
0.0
1001
AUTOCAD_POSTSCRIPT_FIGURE
1002
{
1000
PSFILL
1000
Grayscale
1000
Grayscale
1070
   100
1002
}
  0
LINE
  5
38F9
  8
YODOROGO
 10
28098.135520230931
 20
1499.749496429288
 30
0.0
 11
28137.604341291921
 21
1499.749496429288
 31
0.0
1001
AUTOCAD_POSTSCRIPT_FIGURE
1002
{
1000
PSFILL
1000
Grayscale
1000
Grayscale
1070
   100
1002
}
  0
LINE
  5
38FA
  8
YODOROGO
 10
28098.135520230931
 20
1631.5036372746561
 30
0.0
 11
28098.135520230931
 21
1499.749496429288
 31
0.0
1001
AUTOCAD_POSTSCRIPT_FIGURE
1002
{
1000
PSFILL
1000
Grayscale
1000
Grayscale
1070
   100
1002
}
  0
LINE
  5
38FB
  8
YODOROGO
 10
28137.604341291921
 20
1631.5036372746561
 30
0.0
 11
28098.135520230931
 21
1631.5036372746561
 31
0.0
1001
AUTOCAD_POSTSCRIPT_FIGURE
1002
{
1000
PSFILL
1000
Grayscale
1000
Grayscale
1070
   100
1002
}
  0
LINE
  5
38FC
  8
YODOROGO
 10
28137.604341291921
 20
1655.5036372746561
 30
0.0
 11
28137.604341291921
 21
1631.5036372746561
 31
0.0
1001
AUTOCAD_POSTSCRIPT_FIGURE
1002
{
1000
PSFILL
1000
Grayscale
1000
Grayscale
1070
   100
1002
}
  0
LINE
  5
38FD
  8
YODOROGO
 10
28098.135520230931
 20
1655.5036372746561
 30
0.0
 11
28137.604341291921
 21
1655.5036372746561
 31
0.0
1001
AUTOCAD_POSTSCRIPT_FIGURE
1002
{
1000
PSFILL
1000
Grayscale
1000
Grayscale
1070
   100
1002
}
  0
LINE
  5
38FE
  8
YODOROGO
 10
28401.60434129191
 20
1667.749496429288
 30
0.0
 11
28345.604341291921
 21
1667.749496429288
 31
0.0
  0
LINE
  5
38FF
  8
YODOROGO
 10
28401.60434129191
 20
1611.749496429288
 30
0.0
 11
28401.60434129191
 21
1667.749496429288
 31
0.0
  0
LINE
  5
3900
  8
YODOROGO
 10
28345.604341291921
 20
1667.749496429288
 30
0.0
 11
28345.604341291921
 21
1611.749496429288
 31
0.0
  0
ARC
  5
3901
  8
YODOROGO
 10
28513.60434129191
 20
1507.749496429288
 30
0.0
 40
80.0
 50
180.0
 51
270.0
  0
ARC
  5
3902
  8
YODOROGO
 10
28537.604341291921
 20
1563.7494964292871
 30
0.0
 40
40.0
 50
180.0
 51
270.0
  0
LINE
  5
3903
  8
YODOROGO
 10
28561.604341291932
 20
1523.7494964292871
 30
0.0
 11
28537.604341291921
 21
1523.7494964292871
 31
0.0
  0
ARC
  5
3904
  8
YODOROGO
 10
28561.604341291932
 20
1547.749496429285
 30
0.0
 40
23.999999999996358
 50
270.0
 51
0.0000000000054281
  0
LINE
  5
3905
  8
YODOROGO
 10
27801.604341291921
 20
1890.786580793706
 30
0.0
 11
27777.604341291921
 21
1843.776747951672
 31
0.0
1001
AUTOCAD_POSTSCRIPT_FIGURE
1002
{
1000
PSFILL
1000
Grayscale
1000
Grayscale
1070
   100
1002
}
  0
LINE
  5
3906
  8
YODOROGO
 10
27801.604341291921
 20
1747.749496429286
 30
0.0
 11
27801.604341291921
 21
1890.786580793706
 31
0.0
1001
AUTOCAD_POSTSCRIPT_FIGURE
1002
{
1000
PSFILL
1000
Grayscale
1000
Grayscale
1070
   100
1002
}
  0
LINE
  5
3907
  8
YODOROGO
 10
27817.604341291921
 20
1747.749496429286
 30
0.0
 11
27801.604341291921
 21
1747.749496429286
 31
0.0
1001
AUTOCAD_POSTSCRIPT_FIGURE
1002
{
1000
PSFILL
1000
Grayscale
1000
Grayscale
1070
   100
1002
}
  0
LINE
  5
3908
  8
YODOROGO
 10
27817.604341291921
 20
1893.7713320852661
 30
0.0
 11
27817.604341291921
 21
1747.749496429286
 31
0.0
1001
AUTOCAD_POSTSCRIPT_FIGURE
1002
{
1000
PSFILL
1000
Grayscale
1000
Grayscale
1070
   100
1002
}
  0
LINE
  5
3909
  8
YODOROGO
 10
27841.604341291921
 20
1867.6547582841361
 30
0.0
 11
27817.604341291921
 21
1893.7713320852661
 31
0.0
1001
AUTOCAD_POSTSCRIPT_FIGURE
1002
{
1000
PSFILL
1000
Grayscale
1000
Grayscale
1070
   100
1002
}
  0
LINE
  5
390A
  8
YODOROGO
 10
27841.604341291921
 20
1883.6547582841361
 30
0.0
 11
27841.604341291921
 21
1867.6547582841361
 31
0.0
1001
AUTOCAD_POSTSCRIPT_FIGURE
1002
{
1000
PSFILL
1000
Grayscale
1000
Grayscale
1070
   100
1002
}
  0
LINE
  5
390B
  8
YODOROGO
 10
27817.604341291921
 20
1917.7713320852649
 30
0.0
 11
27841.604341291921
 21
1883.6547582841361
 31
0.0
1001
AUTOCAD_POSTSCRIPT_FIGURE
1002
{
1000
PSFILL
1000
Grayscale
1000
Grayscale
1070
   100
1002
}
  0
LINE
  5
390C
  8
YODOROGO
 10
27817.604341291921
 20
1939.749496429288
 30
0.0
 11
27817.604341291921
 21
1917.7713320852649
 31
0.0
1001
AUTOCAD_POSTSCRIPT_FIGURE
1002
{
1000
PSFILL
1000
Grayscale
1000
Grayscale
1070
   100
1002
}
  0
LINE
  5
390D
  8
YODOROGO
 10
27889.604341291921
 20
1939.749496429288
 30
0.0
 11
27817.604341291921
 21
1939.749496429288
 31
0.0
1001
AUTOCAD_POSTSCRIPT_FIGURE
1002
{
1000
PSFILL
1000
Grayscale
1000
Grayscale
1070
   100
1002
}
  0
LINE
  5
390E
  8
YODOROGO
 10
27889.604341291921
 20
1900.5683489363
 30
0.0
 11
27889.604341291921
 21
1939.749496429288
 31
0.0
1001
AUTOCAD_POSTSCRIPT_FIGURE
1002
{
1000
PSFILL
1000
Grayscale
1000
Grayscale
1070
   100
1002
}
  0
LINE
  5
390F
  8
YODOROGO
 10
27857.604341291921
 20
1900.5683489363
 30
0.0
 11
27889.604341291921
 21
1900.5683489363
 31
0.0
1001
AUTOCAD_POSTSCRIPT_FIGURE
1002
{
1000
PSFILL
1000
Grayscale
1000
Grayscale
1070
   100
1002
}
  0
LINE
  5
3910
  8
YODOROGO
 10
27857.604341291921
 20
1884.568348936298
 30
0.0
 11
27857.604341291921
 21
1900.5683489363
 31
0.0
1001
AUTOCAD_POSTSCRIPT_FIGURE
1002
{
1000
PSFILL
1000
Grayscale
1000
Grayscale
1070
   100
1002
}
  0
LINE
  5
3911
  8
YODOROGO
 10
27889.604341291921
 20
1884.568348936298
 30
0.0
 11
27857.604341291921
 21
1884.568348936298
 31
0.0
1001
AUTOCAD_POSTSCRIPT_FIGURE
1002
{
1000
PSFILL
1000
Grayscale
1000
Grayscale
1070
   100
1002
}
  0
LINE
  5
3912
  8
YODOROGO
 10
27889.604341291921
 20
1879.6191779644371
 30
0.0
 11
27889.604341291921
 21
1884.568348936298
 31
0.0
1001
AUTOCAD_POSTSCRIPT_FIGURE
1002
{
1000
PSFILL
1000
Grayscale
1000
Grayscale
1070
   100
1002
}
  0
LINE
  5
3913
  8
YODOROGO
 10
27849.604341291921
 20
1812.974981161417
 30
0.0
 11
27889.604341291921
 21
1879.6191779644371
 31
0.0
1001
AUTOCAD_POSTSCRIPT_FIGURE
1002
{
1000
PSFILL
1000
Grayscale
1000
Grayscale
1070
   100
1002
}
  0
LINE
  5
3914
  8
YODOROGO
 10
27849.604341291921
 20
1796.9749811614161
 30
0.0
 11
27849.604341291921
 21
1812.974981161417
 31
0.0
1001
AUTOCAD_POSTSCRIPT_FIGURE
1002
{
1000
PSFILL
1000
Grayscale
1000
Grayscale
1070
   100
1002
}
  0
LINE
  5
3915
  8
YODOROGO
 10
27889.604341291921
 20
1847.6191779644359
 30
0.0
 11
27849.604341291921
 21
1796.9749811614161
 31
0.0
1001
AUTOCAD_POSTSCRIPT_FIGURE
1002
{
1000
PSFILL
1000
Grayscale
1000
Grayscale
1070
   100
1002
}
  0
LINE
  5
3916
  8
YODOROGO
 10
27889.604341291921
 20
1747.749496429286
 30
0.0
 11
27889.604341291921
 21
1847.6191779644359
 31
0.0
1001
AUTOCAD_POSTSCRIPT_FIGURE
1002
{
1000
PSFILL
1000
Grayscale
1000
Grayscale
1070
   100
1002
}
  0
LINE
  5
3917
  8
YODOROGO
 10
27905.604341291921
 20
1747.749496429286
 30
0.0
 11
27889.604341291921
 21
1747.749496429286
 31
0.0
1001
AUTOCAD_POSTSCRIPT_FIGURE
1002
{
1000
PSFILL
1000
Grayscale
1000
Grayscale
1070
   100
1002
}
  0
LINE
  5
3918
  8
YODOROGO
 10
27905.604341291921
 20
1849.409012158806
 30
0.0
 11
27905.604341291921
 21
1747.749496429286
 31
0.0
1001
AUTOCAD_POSTSCRIPT_FIGURE
1002
{
1000
PSFILL
1000
Grayscale
1000
Grayscale
1070
   100
1002
}
  0
LINE
  5
3919
  8
YODOROGO
 10
27937.604341291921
 20
1796.9749811614161
 30
0.0
 11
27905.604341291921
 21
1849.409012158806
 31
0.0
1001
AUTOCAD_POSTSCRIPT_FIGURE
1002
{
1000
PSFILL
1000
Grayscale
1000
Grayscale
1070
   100
1002
}
  0
LINE
  5
391A
  8
YODOROGO
 10
27937.604341291921
 20
1812.974981161417
 30
0.0
 11
27937.604341291921
 21
1796.9749811614161
 31
0.0
1001
AUTOCAD_POSTSCRIPT_FIGURE
1002
{
1000
PSFILL
1000
Grayscale
1000
Grayscale
1070
   100
1002
}
  0
LINE
  5
391B
  8
YODOROGO
 10
27905.604341291921
 20
1881.4090121588081
 30
0.0
 11
27937.604341291921
 21
1812.974981161417
 31
0.0
1001
AUTOCAD_POSTSCRIPT_FIGURE
1002
{
1000
PSFILL
1000
Grayscale
1000
Grayscale
1070
   100
1002
}
  0
LINE
  5
391C
  8
YODOROGO
 10
27905.604341291921
 20
1884.5683489363
 30
0.0
 11
27905.604341291921
 21
1881.4090121588081
 31
0.0
1001
AUTOCAD_POSTSCRIPT_FIGURE
1002
{
1000
PSFILL
1000
Grayscale
1000
Grayscale
1070
   100
1002
}
  0
LINE
  5
391D
  8
YODOROGO
 10
27937.604341291921
 20
1884.568348936298
 30
0.0
 11
27905.604341291921
 21
1884.5683489363
 31
0.0
1001
AUTOCAD_POSTSCRIPT_FIGURE
1002
{
1000
PSFILL
1000
Grayscale
1000
Grayscale
1070
   100
1002
}
  0
LINE
  5
391E
  8
YODOROGO
 10
27937.604341291921
 20
1900.5683489363
 30
0.0
 11
27937.604341291921
 21
1884.568348936298
 31
0.0
1001
AUTOCAD_POSTSCRIPT_FIGURE
1002
{
1000
PSFILL
1000
Grayscale
1000
Grayscale
1070
   100
1002
}
  0
LINE
  5
391F
  8
YODOROGO
 10
27905.604341291921
 20
1900.5683489363
 30
0.0
 11
27937.604341291921
 21
1900.5683489363
 31
0.0
1001
AUTOCAD_POSTSCRIPT_FIGURE
1002
{
1000
PSFILL
1000
Grayscale
1000
Grayscale
1070
   100
1002
}
  0
LINE
  5
3920
  8
YODOROGO
 10
27905.604341291921
 20
1939.749496429288
 30
0.0
 11
27905.604341291921
 21
1900.5683489363
 31
0.0
1001
AUTOCAD_POSTSCRIPT_FIGURE
1002
{
1000
PSFILL
1000
Grayscale
1000
Grayscale
1070
   100
1002
}
  0
LINE
  5
3921
  8
YODOROGO
 10
27937.604341291921
 20
1939.749496429288
 30
0.0
 11
27905.604341291921
 21
1939.749496429288
 31
0.0
1001
AUTOCAD_POSTSCRIPT_FIGURE
1002
{
1000
PSFILL
1000
Grayscale
1000
Grayscale
1070
   100
1002
}
  0
LINE
  5
3922
  8
YODOROGO
 10
27937.604341291921
 20
1955.7494964292871
 30
0.0
 11
27937.604341291921
 21
1939.749496429288
 31
0.0
1001
AUTOCAD_POSTSCRIPT_FIGURE
1002
{
1000
PSFILL
1000
Grayscale
1000
Grayscale
1070
   100
1002
}
  0
LINE
  5
3923
  8
YODOROGO
 10
27905.604341291921
 20
1955.7494964292871
 30
0.0
 11
27937.604341291921
 21
1955.7494964292871
 31
0.0
1001
AUTOCAD_POSTSCRIPT_FIGURE
1002
{
1000
PSFILL
1000
Grayscale
1000
Grayscale
1070
   100
1002
}
  0
LINE
  5
3924
  8
YODOROGO
 10
27905.604341291921
 20
1979.749496429288
 30
0.0
 11
27905.604341291921
 21
1955.7494964292871
 31
0.0
1001
AUTOCAD_POSTSCRIPT_FIGURE
1002
{
1000
PSFILL
1000
Grayscale
1000
Grayscale
1070
   100
1002
}
  0
LINE
  5
3925
  8
YODOROGO
 10
27889.604341291921
 20
1979.749496429288
 30
0.0
 11
27905.604341291921
 21
1979.749496429288
 31
0.0
1001
AUTOCAD_POSTSCRIPT_FIGURE
1002
{
1000
PSFILL
1000
Grayscale
1000
Grayscale
1070
   100
1002
}
  0
LINE
  5
3926
  8
YODOROGO
 10
27889.604341291921
 20
1955.7494964292871
 30
0.0
 11
27889.604341291921
 21
1979.749496429288
 31
0.0
1001
AUTOCAD_POSTSCRIPT_FIGURE
1002
{
1000
PSFILL
1000
Grayscale
1000
Grayscale
1070
   100
1002
}
  0
LINE
  5
3927
  8
YODOROGO
 10
27865.604341291921
 20
1955.7494964292871
 30
0.0
 11
27889.604341291921
 21
1955.7494964292871
 31
0.0
1001
AUTOCAD_POSTSCRIPT_FIGURE
1002
{
1000
PSFILL
1000
Grayscale
1000
Grayscale
1070
   100
1002
}
  0
LINE
  5
3928
  8
YODOROGO
 10
27865.604341291921
 20
1979.749496429288
 30
0.0
 11
27865.604341291921
 21
1955.7494964292871
 31
0.0
1001
AUTOCAD_POSTSCRIPT_FIGURE
1002
{
1000
PSFILL
1000
Grayscale
1000
Grayscale
1070
   100
1002
}
  0
LINE
  5
3929
  8
YODOROGO
 10
27849.604341291921
 20
1979.749496429288
 30
0.0
 11
27865.604341291921
 21
1979.749496429288
 31
0.0
1001
AUTOCAD_POSTSCRIPT_FIGURE
1002
{
1000
PSFILL
1000
Grayscale
1000
Grayscale
1070
   100
1002
}
  0
LINE
  5
392A
  8
YODOROGO
 10
27849.604341291921
 20
1955.7494964292871
 30
0.0
 11
27849.604341291921
 21
1979.749496429288
 31
0.0
1001
AUTOCAD_POSTSCRIPT_FIGURE
1002
{
1000
PSFILL
1000
Grayscale
1000
Grayscale
1070
   100
1002
}
  0
LINE
  5
392B
  8
YODOROGO
 10
27817.604341291921
 20
1955.7494964292871
 30
0.0
 11
27849.604341291921
 21
1955.7494964292871
 31
0.0
1001
AUTOCAD_POSTSCRIPT_FIGURE
1002
{
1000
PSFILL
1000
Grayscale
1000
Grayscale
1070
   100
1002
}
  0
LINE
  5
392C
  8
YODOROGO
 10
27817.604341291921
 20
1979.749496429288
 30
0.0
 11
27817.604341291921
 21
1955.7494964292871
 31
0.0
1001
AUTOCAD_POSTSCRIPT_FIGURE
1002
{
1000
PSFILL
1000
Grayscale
1000
Grayscale
1070
   100
1002
}
  0
LINE
  5
392D
  8
YODOROGO
 10
27801.604341291921
 20
1979.749496429288
 30
0.0
 11
27817.604341291921
 21
1979.749496429288
 31
0.0
1001
AUTOCAD_POSTSCRIPT_FIGURE
1002
{
1000
PSFILL
1000
Grayscale
1000
Grayscale
1070
   100
1002
}
  0
LINE
  5
392E
  8
YODOROGO
 10
27801.604341291921
 20
1955.7494964292871
 30
0.0
 11
27801.604341291921
 21
1979.749496429288
 31
0.0
1001
AUTOCAD_POSTSCRIPT_FIGURE
1002
{
1000
PSFILL
1000
Grayscale
1000
Grayscale
1070
   100
1002
}
  0
LINE
  5
392F
  8
YODOROGO
 10
27777.604341291921
 20
1955.7494964292871
 30
0.0
 11
27801.604341291921
 21
1955.7494964292871
 31
0.0
1001
AUTOCAD_POSTSCRIPT_FIGURE
1002
{
1000
PSFILL
1000
Grayscale
1000
Grayscale
1070
   100
1002
}
  0
LINE
  5
3930
  8
YODOROGO
 10
27777.604341291921
 20
1939.749496429288
 30
0.0
 11
27777.604341291921
 21
1955.7494964292871
 31
0.0
1001
AUTOCAD_POSTSCRIPT_FIGURE
1002
{
1000
PSFILL
1000
Grayscale
1000
Grayscale
1070
   100
1002
}
  0
LINE
  5
3931
  8
YODOROGO
 10
27801.604341291921
 20
1939.749496429288
 30
0.0
 11
27777.604341291921
 21
1939.749496429288
 31
0.0
1001
AUTOCAD_POSTSCRIPT_FIGURE
1002
{
1000
PSFILL
1000
Grayscale
1000
Grayscale
1070
   100
1002
}
  0
LINE
  5
3932
  8
YODOROGO
 10
27801.604341291921
 20
1914.7865807937051
 30
0.0
 11
27801.604341291921
 21
1939.749496429288
 31
0.0
1001
AUTOCAD_POSTSCRIPT_FIGURE
1002
{
1000
PSFILL
1000
Grayscale
1000
Grayscale
1070
   100
1002
}
  0
LINE
  5
3933
  8
YODOROGO
 10
27777.604341291921
 20
1859.776747951671
 30
0.0
 11
27801.604341291921
 21
1914.7865807937051
 31
0.0
1001
AUTOCAD_POSTSCRIPT_FIGURE
1002
{
1000
PSFILL
1000
Grayscale
1000
Grayscale
1070
   100
1002
}
  0
LINE
  5
3934
  8
YODOROGO
 10
27777.604341291921
 20
1843.776747951672
 30
0.0
 11
27777.604341291921
 21
1859.776747951671
 31
0.0
1001
AUTOCAD_POSTSCRIPT_FIGURE
1002
{
1000
PSFILL
1000
Grayscale
1000
Grayscale
1070
   100
1002
}
  0
LINE
  5
3935
  8
YODOROGO
 10
28257.604341291921
 20
1867.7494964292871
 30
0.0
 11
28401.60434129191
 21
1824.877625640306
 31
0.0
1001
AUTOCAD_POSTSCRIPT_FIGURE
1002
{
1000
PSFILL
1000
Grayscale
1000
Grayscale
1070
   100
1002
}
  0
LINE
  5
3936
  8
YODOROGO
 10
28401.60434129191
 20
1752.877625640306
 30
0.0
 11
28257.604341291921
 21
1795.7494964292871
 31
0.0
1001
AUTOCAD_POSTSCRIPT_FIGURE
1002
{
1000
PSFILL
1000
Grayscale
1000
Grayscale
1070
   100
1002
}
  0
LINE
  5
3937
  8
YODOROGO
 10
28401.60434129191
 20
1984.877625640306
 30
0.0
 11
28257.604341291921
 21
2027.749496429288
 31
0.0
1001
AUTOCAD_POSTSCRIPT_FIGURE
1002
{
1000
PSFILL
1000
Grayscale
1000
Grayscale
1070
   100
1002
}
  0
LINE
  5
3938
  8
YODOROGO
 10
28257.604341291921
 20
1959.749496429288
 30
0.0
 11
28401.60434129191
 21
1916.8776256403071
 31
0.0
1001
AUTOCAD_POSTSCRIPT_FIGURE
1002
{
1000
PSFILL
1000
Grayscale
1000
Grayscale
1070
   100
1002
}
  0
LINE
  5
3939
  8
YODOROGO
 10
28257.604341291921
 20
1795.7494964292871
 30
0.0
 11
28257.604341291921
 21
1867.7494964292871
 31
0.0
1001
AUTOCAD_POSTSCRIPT_FIGURE
1002
{
1000
PSFILL
1000
Grayscale
1000
Grayscale
1070
   100
1002
}
  0
LINE
  5
393A
  8
YODOROGO
 10
28257.604341291921
 20
2027.749496429288
 30
0.0
 11
28257.604341291921
 21
1959.749496429288
 31
0.0
1001
AUTOCAD_POSTSCRIPT_FIGURE
1002
{
1000
PSFILL
1000
Grayscale
1000
Grayscale
1070
   100
1002
}
  0
LINE
  5
393B
  8
YODOROGO
 10
28080.236320206739
 20
1939.749496429288
 30
0.0
 11
28129.60434129191
 21
1747.749496429286
 31
0.0
1001
AUTOCAD_POSTSCRIPT_FIGURE
1002
{
1000
PSFILL
1000
Grayscale
1000
Grayscale
1070
   100
1002
}
  0
LINE
  5
393C
  8
YODOROGO
 10
27977.604341291921
 20
1939.749496429288
 30
0.0
 11
28080.236320206739
 21
1939.749496429288
 31
0.0
1001
AUTOCAD_POSTSCRIPT_FIGURE
1002
{
1000
PSFILL
1000
Grayscale
1000
Grayscale
1070
   100
1002
}
  0
LINE
  5
393D
  8
YODOROGO
 10
27977.604341291921
 20
1955.7494964292871
 30
0.0
 11
27977.604341291921
 21
1939.749496429288
 31
0.0
1001
AUTOCAD_POSTSCRIPT_FIGURE
1002
{
1000
PSFILL
1000
Grayscale
1000
Grayscale
1070
   100
1002
}
  0
LINE
  5
393E
  8
YODOROGO
 10
28076.60687851991
 20
1955.7494964292871
 30
0.0
 11
27977.604341291921
 21
1955.7494964292871
 31
0.0
1001
AUTOCAD_POSTSCRIPT_FIGURE
1002
{
1000
PSFILL
1000
Grayscale
1000
Grayscale
1070
   100
1002
}
  0
LINE
  5
393F
  8
YODOROGO
 10
28071.162715989711
 20
1979.749496429288
 30
0.0
 11
28076.60687851991
 21
1955.7494964292871
 31
0.0
1001
AUTOCAD_POSTSCRIPT_FIGURE
1002
{
1000
PSFILL
1000
Grayscale
1000
Grayscale
1070
   100
1002
}
  0
LINE
  5
3940
  8
YODOROGO
 10
28091.162715989711
 20
1979.749496429288
 30
0.0
 11
28071.162715989711
 21
1979.749496429288
 31
0.0
1001
AUTOCAD_POSTSCRIPT_FIGURE
1002
{
1000
PSFILL
1000
Grayscale
1000
Grayscale
1070
   100
1002
}
  0
LINE
  5
3941
  8
YODOROGO
 10
28095.806878519939
 20
1955.7494964292871
 30
0.0
 11
28091.162715989711
 21
1979.749496429288
 31
0.0
1001
AUTOCAD_POSTSCRIPT_FIGURE
1002
{
1000
PSFILL
1000
Grayscale
1000
Grayscale
1070
   100
1002
}
  0
LINE
  5
3942
  8
YODOROGO
 10
28121.604341291921
 20
1955.7494964292871
 30
0.0
 11
28095.806878519939
 21
1955.7494964292871
 31
0.0
1001
AUTOCAD_POSTSCRIPT_FIGURE
1002
{
1000
PSFILL
1000
Grayscale
1000
Grayscale
1070
   100
1002
}
  0
LINE
  5
3943
  8
YODOROGO
 10
28121.604341291921
 20
1979.749496429288
 30
0.0
 11
28121.604341291921
 21
1955.7494964292871
 31
0.0
1001
AUTOCAD_POSTSCRIPT_FIGURE
1002
{
1000
PSFILL
1000
Grayscale
1000
Grayscale
1070
   100
1002
}
  0
LINE
  5
3944
  8
YODOROGO
 10
28137.604341291921
 20
1979.749496429288
 30
0.0
 11
28121.604341291921
 21
1979.749496429288
 31
0.0
1001
AUTOCAD_POSTSCRIPT_FIGURE
1002
{
1000
PSFILL
1000
Grayscale
1000
Grayscale
1070
   100
1002
}
  0
LINE
  5
3945
  8
YODOROGO
 10
28137.604341291921
 20
1955.7494964292871
 30
0.0
 11
28137.604341291921
 21
1979.749496429288
 31
0.0
1001
AUTOCAD_POSTSCRIPT_FIGURE
1002
{
1000
PSFILL
1000
Grayscale
1000
Grayscale
1070
   100
1002
}
  0
LINE
  5
3946
  8
YODOROGO
 10
28137.604341291921
 20
1939.749496429288
 30
0.0
 11
28137.604341291921
 21
1955.7494964292871
 31
0.0
1001
AUTOCAD_POSTSCRIPT_FIGURE
1002
{
1000
PSFILL
1000
Grayscale
1000
Grayscale
1070
   100
1002
}
  0
LINE
  5
3947
  8
YODOROGO
 10
28098.902986873411
 20
1939.749496429288
 30
0.0
 11
28137.604341291921
 21
1939.749496429288
 31
0.0
1001
AUTOCAD_POSTSCRIPT_FIGURE
1002
{
1000
PSFILL
1000
Grayscale
1000
Grayscale
1070
   100
1002
}
  0
LINE
  5
3948
  8
YODOROGO
 10
28137.604341291921
 20
1747.749496429286
 30
0.0
 11
28098.902986873411
 21
1939.749496429288
 31
0.0
1001
AUTOCAD_POSTSCRIPT_FIGURE
1002
{
1000
PSFILL
1000
Grayscale
1000
Grayscale
1070
   100
1002
}
  0
LINE
  5
3949
  8
YODOROGO
 10
28129.60434129191
 20
1747.749496429286
 30
0.0
 11
28137.604341291921
 21
1747.749496429286
 31
0.0
1001
AUTOCAD_POSTSCRIPT_FIGURE
1002
{
1000
PSFILL
1000
Grayscale
1000
Grayscale
1070
   100
1002
}
  0
LINE
  5
394A
  8
YODOROGO
 10
28078.06921993379
 20
1775.7407762987939
 30
0.0
 11
27977.604341291921
 21
1747.749496429286
 31
0.0
  0
LINE
  5
394B
  8
YODOROGO
 10
28078.06921993379
 20
1798.6689795290731
 30
0.0
 11
28078.06921993379
 21
1775.7407762987939
 31
0.0
  0
LINE
  5
394C
  8
YODOROGO
 10
28033.83678061287
 20
1786.816933133767
 30
0.0
 11
28078.06921993379
 21
1798.6689795290731
 31
0.0
  0
LINE
  5
394D
  8
YODOROGO
 10
28033.83678061287
 20
1872.5683489362989
 30
0.0
 11
28033.83678061287
 21
1786.816933133767
 31
0.0
  0
LINE
  5
394E
  8
YODOROGO
 10
28078.06921993379
 20
1872.5683489362989
 30
0.0
 11
28033.83678061287
 21
1872.5683489362989
 31
0.0
  0
LINE
  5
394F
  8
YODOROGO
 10
28078.06921993379
 20
1892.568348936298
 30
0.0
 11
28078.06921993379
 21
1872.5683489362989
 31
0.0
  0
LINE
  5
3950
  8
YODOROGO
 10
27977.604341291921
 20
1892.568348936298
 30
0.0
 11
28078.06921993379
 21
1892.568348936298
 31
0.0
  0
LINE
  5
3951
  8
YODOROGO
 10
27977.604341291921
 20
1872.5683489362989
 30
0.0
 11
27977.604341291921
 21
1892.568348936298
 31
0.0
  0
LINE
  5
3952
  8
YODOROGO
 10
28021.836780612852
 20
1872.5683489362989
 30
0.0
 11
27977.604341291921
 21
1872.5683489362989
 31
0.0
  0
LINE
  5
3953
  8
YODOROGO
 10
28021.836780612852
 20
1784.673339594317
 30
0.0
 11
28021.836780612852
 21
1872.5683489362989
 31
0.0
  0
LINE
  5
3954
  8
YODOROGO
 10
27977.604341291921
 20
1771.749496429286
 30
0.0
 11
28021.836780612852
 21
1784.673339594317
 31
0.0
  0
LINE
  5
3955
  8
YODOROGO
 10
27977.604341291921
 20
1747.749496429286
 30
0.0
 11
27977.604341291921
 21
1771.749496429286
 31
0.0
  0
LINE
  5
3956
  8
YODOROGO
 10
28001.604341291921
 20
1707.749496429288
 30
0.0
 11
28001.604341291921
 21
1683.7494964292871
 31
0.0
  0
LINE
  5
3957
  8
YODOROGO
 10
28017.604341291921
 20
1707.749496429288
 30
0.0
 11
28001.604341291921
 21
1707.749496429288
 31
0.0
  0
LINE
  5
3958
  8
YODOROGO
 10
28017.604341291921
 20
1683.7494964292871
 30
0.0
 11
28017.604341291921
 21
1707.749496429288
 31
0.0
  0
LINE
  5
3959
  8
YODOROGO
 10
28040.913204016892
 20
1683.7494964292871
 30
0.0
 11
28017.604341291921
 21
1683.7494964292871
 31
0.0
  0
LINE
  5
395A
  8
YODOROGO
 10
28001.604341291921
 20
1683.7494964292871
 30
0.0
 11
27977.604341291921
 21
1683.7494964292871
 31
0.0
  0
LINE
  5
395B
  8
YODOROGO
 10
28082.135520230921
 20
1707.749496429288
 30
0.0
 11
28098.135520230931
 21
1707.749496429288
 31
0.0
1001
AUTOCAD_POSTSCRIPT_FIGURE
1002
{
1000
PSFILL
1000
Grayscale
1000
Grayscale
1070
   100
1002
}
  0
LINE
  5
395C
  8
YODOROGO
 10
28401.60434129191
 20
1824.877625640306
 30
0.0
 11
28401.60434129191
 21
1752.877625640306
 31
0.0
1001
AUTOCAD_POSTSCRIPT_FIGURE
1002
{
1000
PSFILL
1000
Grayscale
1000
Grayscale
1070
   100
1002
}
  0
LINE
  5
395D
  8
YODOROGO
 10
28401.60434129191
 20
1916.8776256403071
 30
0.0
 11
28401.60434129191
 21
1984.877625640306
 31
0.0
1001
AUTOCAD_POSTSCRIPT_FIGURE
1002
{
1000
PSFILL
1000
Grayscale
1000
Grayscale
1070
   100
1002
}
  0
LINE
  5
395E
  8
YODOROGO
 10
28433.60434129191
 20
1819.7494964292871
 30
0.0
 11
28433.60434129191
 21
1747.74949642929
 31
0.0
  0
LINE
  5
395F
  8
YODOROGO
 10
28497.60434129191
 20
1707.749496429288
 30
0.0
 11
28433.60434129191
 21
1707.749496429288
 31
0.0
  0
LINE
  5
3960
  8
YODOROGO
 10
28433.60434129191
 20
1747.74949642929
 30
0.0
 11
28585.604341291921
 21
1747.74949642929
 31
0.0
  0
LINE
  5
3961
  8
YODOROGO
 10
28497.60434129191
 20
1867.7494964292871
 30
0.0
 11
28433.60434129191
 21
1867.7494964292871
 31
0.0
  0
LINE
  5
3962
  8
YODOROGO
 10
28497.60434129191
 20
1923.7494964292871
 30
0.0
 11
28497.60434129191
 21
1867.7494964292871
 31
0.0
  0
LINE
  5
3963
  8
YODOROGO
 10
28585.604341291921
 20
1987.7494964292871
 30
0.0
 11
28585.604341291921
 21
2027.749496429288
 31
0.0
  0
LINE
  5
3964
  8
YODOROGO
 10
28433.60434129191
 20
1987.7494964292871
 30
0.0
 11
28585.604341291921
 21
1987.7494964292871
 31
0.0
  0
LINE
  5
3965
  8
YODOROGO
 10
28433.60434129191
 20
1867.7494964292871
 30
0.0
 11
28433.60434129191
 21
1987.7494964292871
 31
0.0
  0
LINE
  5
3966
  8
YODOROGO
 10
29001.60434129191
 20
2027.749496429288
 30
0.0
 11
29001.60434129191
 21
1619.749496429288
 31
0.0
  0
LINE
  5
3967
  8
YODOROGO
 10
29073.604341291921
 20
1579.749496429288
 30
0.0
 11
29073.604341291921
 21
2027.749496429288
 31
0.0
  0
LINE
  5
3968
  8
YODOROGO
 10
29261.604341291921
 20
1491.749496429286
 30
0.0
 11
29261.604341291921
 21
2007.749496429288
 31
0.0
  0
LINE
  5
3969
  8
YODOROGO
 10
29197.604341291921
 20
2007.749496429288
 30
0.0
 11
29197.604341291921
 21
1491.749496429286
 31
0.0
  0
LINE
  5
396A
  8
YODOROGO
 10
29385.604341291921
 20
2027.749496429288
 30
0.0
 11
29385.604341291921
 21
1427.749496429288
 31
0.0
  0
LINE
  5
396B
  8
YODOROGO
 10
29457.604341291921
 20
1427.749496429288
 30
0.0
 11
29457.604341291921
 21
2027.749496429288
 31
0.0
  0
LINE
  5
396C
  8
YODOROGO
 10
28657.604341291921
 20
1667.749496429288
 30
0.0
 11
28657.604341291921
 21
1747.74949642929
 31
0.0
  0
LINE
  5
396D
  8
YODOROGO
 10
29885.604341291921
 20
1707.749496429288
 30
0.0
 11
29885.604341291921
 21
1667.749496429288
 31
0.0
  0
LINE
  5
396E
  8
YODOROGO
 10
29885.604341291921
 20
1707.749496429288
 30
0.0
 11
29885.604341291921
 21
1667.749496429288
 31
0.0
  0
ARC
  5
396F
  8
YODOROGO
 10
28906.911576186842
 20
1618.217864442272
 30
0.0
 40
94.705151178741644
 50
274.05244162907098
 51
0.9266642149310712
  0
ARC
  5
3970
  8
YODOROGO
 10
28909.186170719819
 20
1592.61072861044
 30
0.0
 40
164.92042356085511
 50
271.5351210653775
 51
355.52727750585052
  0
LINE
  5
3971
  8
YODOROGO
 10
28913.604341291921
 20
1523.7494964292871
 30
0.0
 11
28913.604341291921
 21
1427.749496429288
 31
0.0
  0
LINE
  5
3972
  8
YODOROGO
 10
28793.60434129191
 20
1667.749496429288
 30
0.0
 11
28657.604341291921
 21
1667.749496429288
 31
0.0
  0
LINE
  5
3973
  8
YODOROGO
 10
28793.60434129191
 20
1603.7494964292871
 30
0.0
 11
28793.60434129191
 21
1667.749496429288
 31
0.0
  0
LINE
  5
3974
  8
YODOROGO
 10
28657.604341291921
 20
1603.7494964292871
 30
0.0
 11
28793.60434129191
 21
1603.7494964292871
 31
0.0
  0
LINE
  5
3975
  8
YODOROGO
 10
28657.604341291921
 20
1523.7494964292871
 30
0.0
 11
28657.604341291921
 21
1603.7494964292871
 31
0.0
  0
LINE
  5
3976
  8
YODOROGO
 10
28793.60434129191
 20
1523.7494964292871
 30
0.0
 11
28657.604341291921
 21
1523.7494964292871
 31
0.0
  0
LINE
  5
3977
  8
YODOROGO
 10
28793.60434129191
 20
1427.749496429288
 30
0.0
 11
28793.60434129191
 21
1523.7494964292871
 31
0.0
  0
LINE
  5
3978
  8
YODOROGO
 10
29197.604341291921
 20
1491.749496429286
 30
0.0
 11
29261.604341291921
 21
1491.749496429286
 31
0.0
  0
LINE
  5
3979
  8
YODOROGO
 10
29385.604341291921
 20
1427.749496429288
 30
0.0
 11
29457.604341291921
 21
1427.749496429288
 31
0.0
  0
LINE
  5
397A
  8
YODOROGO
 10
29737.604341291921
 20
1528.4414521705639
 30
0.0
 11
29737.604341291921
 21
1427.749496429288
 31
0.0
  0
LINE
  5
397B
  8
YODOROGO
 10
29617.604341291921
 20
1427.749496429288
 30
0.0
 11
29737.604341291921
 21
1528.4414521705639
 31
0.0
  0
LINE
  5
397C
  8
YODOROGO
 10
29617.604341291921
 20
1547.749496429288
 30
0.0
 11
29617.604341291921
 21
1427.749496429288
 31
0.0
  0
LINE
  5
397D
  8
YODOROGO
 10
29712.94462869945
 20
1627.749496429288
 30
0.0
 11
29617.604341291921
 21
1547.749496429288
 31
0.0
  0
LINE
  5
397E
  8
YODOROGO
 10
29617.604341291921
 20
1627.749496429288
 30
0.0
 11
29712.94462869945
 21
1627.749496429288
 31
0.0
  0
LINE
  5
397F
  8
YODOROGO
 10
29617.604341291921
 20
1667.749496429288
 30
0.0
 11
29617.604341291921
 21
1627.749496429288
 31
0.0
  0
LINE
  5
3980
  8
YODOROGO
 10
29885.604341291921
 20
1667.749496429288
 30
0.0
 11
29617.604341291921
 21
1667.749496429288
 31
0.0
  0
LINE
  5
3981
  8
YODOROGO
 10
29917.604341291921
 20
1627.749496429288
 30
0.0
 11
29777.604341291921
 21
1627.749496429288
 31
0.0
  0
LINE
  5
3982
  8
YODOROGO
 10
29777.604341291921
 20
1562.0054374176559
 30
0.0
 11
29771.409872985321
 21
1556.807661346234
 31
0.0
  0
LINE
  5
3983
  8
YODOROGO
 10
29777.604341291921
 20
1627.749496429288
 30
0.0
 11
29777.604341291921
 21
1562.0054374176559
 31
0.0
  0
LINE
  5
3984
  8
YODOROGO
 10
29737.604341291921
 20
1528.4414521705639
 30
0.0
 11
29737.604341291921
 21
1427.749496429288
 31
0.0
  0
LINE
  5
3985
  8
YODOROGO
 10
29617.604341291921
 20
1427.749496429288
 30
0.0
 11
29737.604341291921
 21
1528.4414521705639
 31
0.0
  0
LINE
  5
3986
  8
YODOROGO
 10
29617.604341291921
 20
1547.749496429288
 30
0.0
 11
29617.604341291921
 21
1427.749496429288
 31
0.0
  0
LINE
  5
3987
  8
YODOROGO
 10
29712.94462869945
 20
1627.749496429288
 30
0.0
 11
29617.604341291921
 21
1547.749496429288
 31
0.0
  0
LINE
  5
3988
  8
YODOROGO
 10
29617.604341291921
 20
1627.749496429288
 30
0.0
 11
29712.94462869945
 21
1627.749496429288
 31
0.0
  0
LINE
  5
3989
  8
YODOROGO
 10
29617.604341291921
 20
1667.749496429288
 30
0.0
 11
29617.604341291921
 21
1627.749496429288
 31
0.0
  0
LINE
  5
398A
  8
YODOROGO
 10
29885.604341291921
 20
1667.749496429288
 30
0.0
 11
29617.604341291921
 21
1667.749496429288
 31
0.0
  0
LINE
  5
398B
  8
YODOROGO
 10
28793.60434129191
 20
1747.74949642929
 30
0.0
 11
28793.60434129191
 21
1819.7494964292871
 31
0.0
  0
LINE
  5
398C
  8
YODOROGO
 10
28657.604341291921
 20
1747.74949642929
 30
0.0
 11
28793.60434129191
 21
1747.74949642929
 31
0.0
  0
LINE
  5
398D
  8
YODOROGO
 10
28729.604341291921
 20
1867.7494964292871
 30
0.0
 11
28729.604341291921
 21
1923.7494964292871
 31
0.0
  0
LINE
  5
398E
  8
YODOROGO
 10
28793.60434129191
 20
1867.7494964292871
 30
0.0
 11
28729.604341291921
 21
1867.7494964292871
 31
0.0
  0
LINE
  5
398F
  8
YODOROGO
 10
28793.60434129191
 20
1947.749496429288
 30
0.0
 11
28793.60434129191
 21
1867.7494964292871
 31
0.0
  0
ARC
  5
3990
  8
YODOROGO
 10
28753.60434129191
 20
1947.749496429288
 30
0.0
 40
40.0
 50
0.0
 51
90.0
  0
LINE
  5
3991
  8
YODOROGO
 10
28657.604341291921
 20
1987.7494964292871
 30
0.0
 11
28753.60434129191
 21
1987.7494964292871
 31
0.0
  0
LINE
  5
3992
  8
YODOROGO
 10
28657.604341291921
 20
2027.749496429288
 30
0.0
 11
28657.604341291921
 21
1987.7494964292871
 31
0.0
  0
LINE
  5
3993
  8
YODOROGO
 10
29073.604341291921
 20
2027.749496429288
 30
0.0
 11
29001.60434129191
 21
2027.749496429288
 31
0.0
  0
LINE
  5
3994
  8
YODOROGO
 10
29261.604341291921
 20
2007.749496429288
 30
0.0
 11
29197.604341291921
 21
2007.749496429288
 31
0.0
  0
LINE
  5
3995
  8
YODOROGO
 10
29457.604341291921
 20
2027.749496429288
 30
0.0
 11
29385.604341291921
 21
2027.749496429288
 31
0.0
  0
LINE
  5
3996
  8
YODOROGO
 10
29673.604341291921
 20
1707.749496429288
 30
0.0
 11
29673.604341291921
 21
1771.7494964292871
 31
0.0
1001
AUTOCAD_POSTSCRIPT_FIGURE
1002
{
1000
PSFILL
1000
Grayscale
1000
Grayscale
1070
    25
1002
}
  0
LINE
  5
3997
  8
YODOROGO
 10
29617.604341291921
 20
1707.749496429288
 30
0.0
 11
29673.604341291921
 21
1707.749496429288
 31
0.0
1001
AUTOCAD_POSTSCRIPT_FIGURE
1002
{
1000
PSFILL
1000
Grayscale
1000
Grayscale
1070
    25
1002
}
  0
LINE
  5
3998
  8
YODOROGO
 10
29617.604341291921
 20
1819.7494964292871
 30
0.0
 11
29617.604341291921
 21
1707.749496429288
 31
0.0
1001
AUTOCAD_POSTSCRIPT_FIGURE
1002
{
1000
PSFILL
1000
Grayscale
1000
Grayscale
1070
    25
1002
}
  0
LINE
  5
3999
  8
YODOROGO
 10
29765.604341291921
 20
1819.7494964292871
 30
0.0
 11
29617.604341291921
 21
1819.7494964292871
 31
0.0
1001
AUTOCAD_POSTSCRIPT_FIGURE
1002
{
1000
PSFILL
1000
Grayscale
1000
Grayscale
1070
    25
1002
}
  0
LINE
  5
399A
  8
YODOROGO
 10
29765.604341291921
 20
1859.749496429288
 30
0.0
 11
29765.604341291921
 21
1819.7494964292871
 31
0.0
1001
AUTOCAD_POSTSCRIPT_FIGURE
1002
{
1000
PSFILL
1000
Grayscale
1000
Grayscale
1070
    25
1002
}
  0
LINE
  5
399B
  8
YODOROGO
 10
29617.604341291921
 20
1859.749496429288
 30
0.0
 11
29765.604341291921
 21
1859.749496429288
 31
0.0
1001
AUTOCAD_POSTSCRIPT_FIGURE
1002
{
1000
PSFILL
1000
Grayscale
1000
Grayscale
1070
    25
1002
}
  0
LINE
  5
399C
  8
YODOROGO
 10
29617.604341291921
 20
1907.7494964292871
 30
0.0
 11
29617.604341291921
 21
1859.749496429288
 31
0.0
1001
AUTOCAD_POSTSCRIPT_FIGURE
1002
{
1000
PSFILL
1000
Grayscale
1000
Grayscale
1070
    25
1002
}
  0
LINE
  5
399D
  8
YODOROGO
 10
29765.604341291921
 20
1907.7494964292871
 30
0.0
 11
29617.604341291921
 21
1907.7494964292871
 31
0.0
1001
AUTOCAD_POSTSCRIPT_FIGURE
1002
{
1000
PSFILL
1000
Grayscale
1000
Grayscale
1070
    25
1002
}
  0
LINE
  5
399E
  8
YODOROGO
 10
29765.604341291921
 20
1947.749496429288
 30
0.0
 11
29765.604341291921
 21
1907.7494964292871
 31
0.0
1001
AUTOCAD_POSTSCRIPT_FIGURE
1002
{
1000
PSFILL
1000
Grayscale
1000
Grayscale
1070
    25
1002
}
  0
LINE
  5
399F
  8
YODOROGO
 10
29617.604341291921
 20
1947.749496429288
 30
0.0
 11
29765.604341291921
 21
1947.749496429288
 31
0.0
1001
AUTOCAD_POSTSCRIPT_FIGURE
1002
{
1000
PSFILL
1000
Grayscale
1000
Grayscale
1070
    25
1002
}
  0
LINE
  5
39A0
  8
YODOROGO
 10
29617.604341291921
 20
2027.749496429288
 30
0.0
 11
29617.604341291921
 21
1947.749496429288
 31
0.0
1001
AUTOCAD_POSTSCRIPT_FIGURE
1002
{
1000
PSFILL
1000
Grayscale
1000
Grayscale
1070
    25
1002
}
  0
LINE
  5
39A1
  8
YODOROGO
 10
29665.604341291921
 20
2027.749496429288
 30
0.0
 11
29617.604341291921
 21
2027.749496429288
 31
0.0
1001
AUTOCAD_POSTSCRIPT_FIGURE
1002
{
1000
PSFILL
1000
Grayscale
1000
Grayscale
1070
    25
1002
}
  0
LINE
  5
39A2
  8
YODOROGO
 10
29665.604341291921
 20
1995.7494964292871
 30
0.0
 11
29665.604341291921
 21
2027.749496429288
 31
0.0
1001
AUTOCAD_POSTSCRIPT_FIGURE
1002
{
1000
PSFILL
1000
Grayscale
1000
Grayscale
1070
    25
1002
}
  0
LINE
  5
39A3
  8
YODOROGO
 10
29765.604341291921
 20
1995.7494964292871
 30
0.0
 11
29665.604341291921
 21
1995.7494964292871
 31
0.0
1001
AUTOCAD_POSTSCRIPT_FIGURE
1002
{
1000
PSFILL
1000
Grayscale
1000
Grayscale
1070
    25
1002
}
  0
LINE
  5
39A4
  8
YODOROGO
 10
29765.604341291921
 20
2027.749496429288
 30
0.0
 11
29765.604341291921
 21
1995.7494964292871
 31
0.0
1001
AUTOCAD_POSTSCRIPT_FIGURE
1002
{
1000
PSFILL
1000
Grayscale
1000
Grayscale
1070
    25
1002
}
  0
LINE
  5
39A5
  8
YODOROGO
 10
29829.604341291921
 20
2027.749496429288
 30
0.0
 11
29765.604341291921
 21
2027.749496429288
 31
0.0
1001
AUTOCAD_POSTSCRIPT_FIGURE
1002
{
1000
PSFILL
1000
Grayscale
1000
Grayscale
1070
    25
1002
}
  0
LINE
  5
39A6
  8
YODOROGO
 10
29829.604341291921
 20
1995.7494964292871
 30
0.0
 11
29829.604341291921
 21
2027.749496429288
 31
0.0
1001
AUTOCAD_POSTSCRIPT_FIGURE
1002
{
1000
PSFILL
1000
Grayscale
1000
Grayscale
1070
    25
1002
}
  0
LINE
  5
39A7
  8
YODOROGO
 10
29829.604341291921
 20
1907.7494964292871
 30
0.0
 11
29829.604341291921
 21
1947.749496429288
 31
0.0
1001
AUTOCAD_POSTSCRIPT_FIGURE
1002
{
1000
PSFILL
1000
Grayscale
1000
Grayscale
1070
    25
1002
}
  0
LINE
  5
39A8
  8
YODOROGO
 10
29829.604341291921
 20
1819.7494964292871
 30
0.0
 11
29829.604341291921
 21
1859.749496429288
 31
0.0
1001
AUTOCAD_POSTSCRIPT_FIGURE
1002
{
1000
PSFILL
1000
Grayscale
1000
Grayscale
1070
    25
1002
}
  0
LINE
  5
39A9
  8
YODOROGO
 10
29921.60434129191
 20
1771.7494964292871
 30
0.0
 11
29921.60434129191
 21
1707.749496429288
 31
0.0
1001
AUTOCAD_POSTSCRIPT_FIGURE
1002
{
1000
PSFILL
1000
Grayscale
1000
Grayscale
1070
    25
1002
}
  0
LINE
  5
39AA
  8
YODOROGO
 10
29829.604341291921
 20
1771.7494964292871
 30
0.0
 11
29921.60434129191
 21
1771.7494964292871
 31
0.0
1001
AUTOCAD_POSTSCRIPT_FIGURE
1002
{
1000
PSFILL
1000
Grayscale
1000
Grayscale
1070
    25
1002
}
  0
LINE
  5
39AB
  8
YODOROGO
 10
29829.604341291921
 20
1707.749496429288
 30
0.0
 11
29829.604341291921
 21
1771.7494964292871
 31
0.0
1001
AUTOCAD_POSTSCRIPT_FIGURE
1002
{
1000
PSFILL
1000
Grayscale
1000
Grayscale
1070
    25
1002
}
  0
LINE
  5
39AC
  8
YODOROGO
 10
29765.604341291921
 20
1707.749496429288
 30
0.0
 11
29829.604341291921
 21
1707.749496429288
 31
0.0
1001
AUTOCAD_POSTSCRIPT_FIGURE
1002
{
1000
PSFILL
1000
Grayscale
1000
Grayscale
1070
    25
1002
}
  0
LINE
  5
39AD
  8
YODOROGO
 10
29765.604341291921
 20
1771.7494964292871
 30
0.0
 11
29765.604341291921
 21
1707.749496429288
 31
0.0
1001
AUTOCAD_POSTSCRIPT_FIGURE
1002
{
1000
PSFILL
1000
Grayscale
1000
Grayscale
1070
    25
1002
}
  0
LINE
  5
39AE
  8
YODOROGO
 10
29673.604341291921
 20
1771.7494964292871
 30
0.0
 11
29765.604341291921
 21
1771.7494964292871
 31
0.0
1001
AUTOCAD_POSTSCRIPT_FIGURE
1002
{
1000
PSFILL
1000
Grayscale
1000
Grayscale
1070
    25
1002
}
  0
ARC
  5
39AF
  8
YODOROGO
 10
31059.517893357912
 20
1602.6807375155761
 30
0.0
 40
178.22128111072141
 50
281.02627495425338
 51
357.77113575573799
  0
LINE
  5
39B0
  8
YODOROGO
 10
31413.604341291921
 20
1907.7494964292871
 30
0.0
 11
31165.604341291921
 21
1907.7494964292871
 31
0.0
  0
LINE
  5
39B1
  8
YODOROGO
 10
31413.604341291921
 20
2027.749496429288
 30
0.0
 11
31165.604341291921
 21
2027.749496429288
 31
0.0
  0
LINE
  5
39B2
  8
YODOROGO
 10
31165.604341291921
 20
1963.749496429286
 30
0.0
 11
31413.604341291921
 21
1963.749496429286
 31
0.0
  0
LINE
  5
39B3
  8
YODOROGO
 10
30791.604341291921
 20
1563.7494964292871
 30
0.0
 11
30791.604341291921
 21
1755.7494964292871
 31
0.0
  0
LINE
  5
39B4
  8
YODOROGO
 10
30763.604341291921
 20
1691.749496429288
 30
0.0
 11
30763.604341291921
 21
1563.7494964292871
 31
0.0
  0
LINE
  5
39B5
  8
YODOROGO
 10
30723.604341291921
 20
1491.749496429288
 30
0.0
 11
30723.604341291921
 21
1691.749496429288
 31
0.0
  0
LINE
  5
39B6
  8
YODOROGO
 10
30899.604341291932
 20
1691.749496429288
 30
0.0
 11
30899.604341291932
 21
1491.749496429288
 31
0.0
  0
LINE
  5
39B7
  8
YODOROGO
 10
30859.604341291932
 20
1563.7494964292871
 30
0.0
 11
30859.604341291932
 21
1691.749496429288
 31
0.0
  0
LINE
  5
39B8
  8
YODOROGO
 10
30831.604341291921
 20
1755.7494964292871
 30
0.0
 11
30831.604341291921
 21
1563.7494964292871
 31
0.0
  0
LINE
  5
39B9
  8
YODOROGO
 10
30973.604341291921
 20
2027.749496429288
 30
0.0
 11
30973.604341291921
 21
1467.749496429288
 31
0.0
  0
LINE
  5
39BA
  8
YODOROGO
 10
30645.604341291921
 20
1427.749496429288
 30
0.0
 11
30645.604341291921
 21
2027.749496429288
 31
0.0
  0
LINE
  5
39BB
  8
YODOROGO
 10
30697.604341291932
 20
1963.749496429286
 30
0.0
 11
30697.604341291932
 21
1427.749496429288
 31
0.0
  0
LINE
  5
39BC
  8
YODOROGO
 10
30925.604341291921
 20
1547.749496429288
 30
0.0
 11
30925.604341291921
 21
1963.749496429286
 31
0.0
  0
LINE
  5
39BD
  8
YODOROGO
 10
30381.604341291932
 20
1627.749496429288
 30
0.0
 11
30381.604341291932
 21
1679.749496429288
 31
0.0
  0
LINE
  5
39BE
  8
YODOROGO
 10
30617.604341291921
 20
1679.749496429288
 30
0.0
 11
30617.604341291921
 21
1627.749496429288
 31
0.0
  0
LINE
  5
39BF
  8
YODOROGO
 10
31165.604341291921
 20
1907.7494964292871
 30
0.0
 11
31165.604341291921
 21
1635.7494964292871
 31
0.0
  0
LINE
  5
39C0
  8
YODOROGO
 10
29949.60434129191
 20
1667.749496429288
 30
0.0
 11
29949.60434129191
 21
1707.749496429288
 31
0.0
  0
LINE
  5
39C1
  8
YODOROGO
 10
29949.60434129191
 20
1667.749496429288
 30
0.0
 11
29949.60434129191
 21
1707.749496429288
 31
0.0
  0
ARC
  5
39C2
  8
YODOROGO
 10
30537.604341291921
 20
1507.749496429288
 30
0.0
 40
80.0
 50
270.0
 51
0.0
  0
LINE
  5
39C3
  8
YODOROGO
 10
30569.604341291921
 20
1599.7494964292871
 30
0.0
 11
30617.604341291921
 21
1599.7494964292871
 31
0.0
  0
LINE
  5
39C4
  8
YODOROGO
 10
30617.604341291921
 20
1627.749496429288
 30
0.0
 11
30529.604341291939
 21
1627.749496429288
 31
0.0
  0
LINE
  5
39C5
  8
YODOROGO
 10
30217.604341291921
 20
1667.749496429288
 30
0.0
 11
29949.60434129191
 21
1667.749496429288
 31
0.0
  0
LINE
  5
39C6
  8
YODOROGO
 10
30217.604341291921
 20
1627.749496429288
 30
0.0
 11
30217.604341291921
 21
1667.749496429288
 31
0.0
  0
LINE
  5
39C7
  8
YODOROGO
 10
30017.604341291921
 20
1627.749496429288
 30
0.0
 11
30217.604341291921
 21
1627.749496429288
 31
0.0
  0
ARC
  5
39C8
  8
YODOROGO
 10
30230.05882870136
 20
1868.885714952901
 30
0.0
 40
321.37763628522822
 50
228.6181454618993
 51
245.660289248906
  0
LINE
  5
39C9
  8
YODOROGO
 10
30105.604341291921
 20
1603.7494964292871
 30
0.0
 11
30097.60434129195
 21
1576.0728158699001
 31
0.0
  0
LINE
  5
39CA
  8
YODOROGO
 10
30189.604341291921
 20
1603.7494964292871
 30
0.0
 11
30105.604341291921
 21
1603.7494964292871
 31
0.0
  0
LINE
  5
39CB
  8
YODOROGO
 10
30177.604341291921
 20
1551.817722473427
 30
0.0
 11
30189.604341291921
 21
1603.7494964292871
 31
0.0
  0
ARC
  5
39CC
  8
YODOROGO
 10
30230.05882870045
 20
1868.885714953002
 30
0.0
 40
321.37763628529081
 50
260.60629297969911
 51
267.77903556555862
  0
LINE
  5
39CD
  8
YODOROGO
 10
30217.604341291921
 20
1427.749496429285
 30
0.0
 11
30217.604341291921
 21
1547.749496429288
 31
0.0
  0
LINE
  5
39CE
  8
YODOROGO
 10
29937.604341291932
 20
1481.3393349155101
 30
0.0
 11
29937.604341291921
 21
1594.531090531141
 31
0.0
  0
LINE
  5
39CF
  8
YODOROGO
 10
30217.604341291921
 20
1667.749496429288
 30
0.0
 11
29949.60434129191
 21
1667.749496429288
 31
0.0
  0
LINE
  5
39D0
  8
YODOROGO
 10
30217.604341291921
 20
1627.749496429288
 30
0.0
 11
30217.604341291921
 21
1667.749496429288
 31
0.0
  0
LINE
  5
39D1
  8
YODOROGO
 10
30017.604341291921
 20
1627.749496429288
 30
0.0
 11
30217.604341291921
 21
1627.749496429288
 31
0.0
  0
ARC
  5
39D2
  8
YODOROGO
 10
30230.05882870136
 20
1868.885714952901
 30
0.0
 40
321.37763628522822
 50
228.6181454618993
 51
245.660289248906
  0
LINE
  5
39D3
  8
YODOROGO
 10
30105.604341291921
 20
1603.7494964292871
 30
0.0
 11
30097.60434129195
 21
1576.0728158699001
 31
0.0
  0
LINE
  5
39D4
  8
YODOROGO
 10
30189.604341291921
 20
1603.7494964292871
 30
0.0
 11
30105.604341291921
 21
1603.7494964292871
 31
0.0
  0
LINE
  5
39D5
  8
YODOROGO
 10
30177.604341291921
 20
1551.817722473427
 30
0.0
 11
30189.604341291921
 21
1603.7494964292871
 31
0.0
  0
ARC
  5
39D6
  8
YODOROGO
 10
30230.05882870045
 20
1868.885714953002
 30
0.0
 40
321.37763628529081
 50
260.60629297969911
 51
267.77903556555862
  0
LINE
  5
39D7
  8
YODOROGO
 10
30217.604341291921
 20
1427.749496429285
 30
0.0
 11
30217.604341291921
 21
1547.749496429288
 31
0.0
  0
LINE
  5
39D8
  8
YODOROGO
 10
29937.604341291932
 20
1481.3393349155101
 30
0.0
 11
29937.604341291921
 21
1594.531090531141
 31
0.0
  0
LINE
  5
39D9
  8
YODOROGO
 10
30433.604341291921
 20
1573.749496429288
 30
0.0
 11
30381.604341291932
 21
1573.749496429288
 31
0.0
  0
LINE
  5
39DA
  8
YODOROGO
 10
30433.604341291921
 20
1601.749496429285
 30
0.0
 11
30433.604341291921
 21
1573.749496429288
 31
0.0
  0
LINE
  5
39DB
  8
YODOROGO
 10
30381.604341291932
 20
1601.749496429285
 30
0.0
 11
30433.604341291921
 21
1601.749496429285
 31
0.0
  0
LINE
  5
39DC
  8
YODOROGO
 10
30381.604341291932
 20
1573.749496429288
 30
0.0
 11
30381.604341291932
 21
1601.749496429285
 31
0.0
  0
LINE
  5
39DD
  8
YODOROGO
 10
30429.604341291921
 20
1577.7494964292871
 30
0.0
 11
30385.604341291921
 21
1577.7494964292871
 31
0.0
  0
LINE
  5
39DE
  8
YODOROGO
 10
30429.604341291921
 20
1597.749496429288
 30
0.0
 11
30429.604341291921
 21
1577.7494964292871
 31
0.0
  0
LINE
  5
39DF
  8
YODOROGO
 10
30385.604341291921
 20
1597.749496429288
 30
0.0
 11
30429.604341291921
 21
1597.749496429288
 31
0.0
  0
LINE
  5
39E0
  8
YODOROGO
 10
30385.604341291921
 20
1577.7494964292871
 30
0.0
 11
30385.604341291921
 21
1597.749496429288
 31
0.0
  0
LINE
  5
39E1
  8
YODOROGO
 10
30425.604341291921
 20
1581.749496429286
 30
0.0
 11
30389.604341291921
 21
1581.749496429286
 31
0.0
  0
LINE
  5
39E2
  8
YODOROGO
 10
30425.604341291921
 20
1593.749496429288
 30
0.0
 11
30425.604341291921
 21
1581.749496429286
 31
0.0
  0
LINE
  5
39E3
  8
YODOROGO
 10
30389.604341291921
 20
1593.749496429288
 30
0.0
 11
30425.604341291921
 21
1593.749496429288
 31
0.0
  0
LINE
  5
39E4
  8
YODOROGO
 10
30389.604341291921
 20
1581.749496429286
 30
0.0
 11
30389.604341291921
 21
1593.749496429288
 31
0.0
  0
LINE
  5
39E5
  8
YODOROGO
 10
30421.604341291932
 20
1585.7494964292871
 30
0.0
 11
30393.604341291921
 21
1585.7494964292871
 31
0.0
  0
LINE
  5
39E6
  8
YODOROGO
 10
30421.604341291932
 20
1589.749496429288
 30
0.0
 11
30421.604341291932
 21
1585.7494964292871
 31
0.0
  0
LINE
  5
39E7
  8
YODOROGO
 10
30393.604341291921
 20
1589.749496429288
 30
0.0
 11
30421.604341291932
 21
1589.749496429288
 31
0.0
  0
LINE
  5
39E8
  8
YODOROGO
 10
30393.604341291921
 20
1585.7494964292871
 30
0.0
 11
30393.604341291921
 21
1589.749496429288
 31
0.0
  0
LINE
  5
39E9
  8
YODOROGO
 10
30465.604341291921
 20
1627.749496429288
 30
0.0
 11
30381.604341291932
 21
1627.749496429288
 31
0.0
  0
LINE
  5
39EA
  8
YODOROGO
 10
30465.604341291921
 20
1547.749496429288
 30
0.0
 11
30465.604341291921
 21
1627.749496429288
 31
0.0
  0
LINE
  5
39EB
  8
YODOROGO
 10
30381.604341291932
 20
1547.749496429288
 30
0.0
 11
30465.604341291921
 21
1547.749496429288
 31
0.0
  0
LINE
  5
39EC
  8
YODOROGO
 10
30381.604341291932
 20
1427.749496429288
 30
0.0
 11
30381.604341291932
 21
1547.749496429288
 31
0.0
  0
LINE
  5
39ED
  8
YODOROGO
 10
30537.604341291921
 20
1427.749496429288
 30
0.0
 11
30381.604341291932
 21
1427.749496429288
 31
0.0
  0
LINE
  5
39EE
  8
YODOROGO
 10
30569.604341291921
 20
1571.749496429285
 30
0.0
 11
30569.604341291921
 21
1599.7494964292871
 31
0.0
  0
ARC
  5
39EF
  8
YODOROGO
 10
30545.604341291921
 20
1571.749496429291
 30
0.0
 40
24.000000000003752
 50
270.0
 51
359.99999999998772
  0
LINE
  5
39F0
  8
YODOROGO
 10
30529.604341291939
 20
1547.749496429288
 30
0.0
 11
30545.604341291921
 21
1547.749496429288
 31
0.0
  0
LINE
  5
39F1
  8
YODOROGO
 10
30529.604341291939
 20
1627.749496429288
 30
0.0
 11
30529.604341291939
 21
1547.749496429288
 31
0.0
  0
LINE
  5
39F2
  8
YODOROGO
 10
30899.604341291932
 20
1547.749496429288
 30
0.0
 11
30925.604341291921
 21
1547.749496429288
 31
0.0
  0
LINE
  5
39F3
  8
YODOROGO
 10
30933.604341291921
 20
1427.749496429288
 30
0.0
 11
30899.604341291932
 21
1427.749496429288
 31
0.0
  0
LINE
  5
39F4
  8
YODOROGO
 10
30763.604341291921
 20
1563.7494964292871
 30
0.0
 11
30791.604341291921
 21
1563.7494964292871
 31
0.0
  0
LINE
  5
39F5
  8
YODOROGO
 10
30899.604341291932
 20
1491.749496429288
 30
0.0
 11
30723.604341291921
 21
1491.749496429288
 31
0.0
  0
LINE
  5
39F6
  8
YODOROGO
 10
30831.604341291921
 20
1563.7494964292871
 30
0.0
 11
30859.604341291932
 21
1563.7494964292871
 31
0.0
  0
LINE
  5
39F7
  8
YODOROGO
 10
30899.604341291932
 20
1427.749496429288
 30
0.0
 11
30899.604341291932
 21
1547.749496429288
 31
0.0
  0
LINE
  5
39F8
  8
YODOROGO
 10
30697.604341291932
 20
1427.749496429288
 30
0.0
 11
30645.604341291921
 21
1427.749496429288
 31
0.0
  0
LINE
  5
39F9
  8
YODOROGO
 10
30617.604341291921
 20
1599.7494964292871
 30
0.0
 11
30617.604341291921
 21
1507.749496429288
 31
0.0
  0
ARC
  5
39FA
  8
YODOROGO
 10
30933.604341291921
 20
1467.749496429288
 30
0.0
 40
40.0
 50
270.0
 51
0.0
  0
LINE
  5
39FB
  8
YODOROGO
 10
31093.604341291921
 20
1523.7494964292871
 30
0.0
 11
31093.604341291921
 21
1427.749496429288
 31
0.0
  0
ARC
  5
39FC
  8
YODOROGO
 10
31039.721395566768
 20
1637.5313901097329
 30
0.0
 40
125.8955565916754
 50
295.34052442160112
 51
359.18902303418679
  0
LINE
  5
39FD
  8
YODOROGO
 10
30617.604341291921
 20
1859.749496429288
 30
0.0
 11
30497.604341291921
 21
1939.749496429288
 31
0.0
  0
LINE
  5
39FE
  8
YODOROGO
 10
30497.604341291921
 20
2027.749496429288
 30
0.0
 11
30617.604341291921
 21
1947.749496429288
 31
0.0
  0
LINE
  5
39FF
  8
YODOROGO
 10
30529.604341291939
 20
1679.749496429288
 30
0.0
 11
30617.604341291921
 21
1679.749496429288
 31
0.0
  0
LINE
  5
3A00
  8
YODOROGO
 10
30617.604341291921
 20
1735.7494964292871
 30
0.0
 11
30529.604341291939
 21
1735.7494964292871
 31
0.0
  0
LINE
  5
3A01
  8
YODOROGO
 10
30381.604341291932
 20
1795.7494964292871
 30
0.0
 11
30617.604341291921
 21
1795.7494964292871
 31
0.0
  0
LINE
  5
3A02
  8
YODOROGO
 10
30081.604341291921
 20
2027.749496429288
 30
0.0
 11
30021.604341291921
 21
2027.749496429288
 31
0.0
  0
LINE
  5
3A03
  8
YODOROGO
 10
30081.604341291921
 20
1827.7494964292871
 30
0.0
 11
30081.604341291921
 21
2027.749496429288
 31
0.0
  0
LINE
  5
3A04
  8
YODOROGO
 10
30021.604341291921
 20
1827.7494964292871
 30
0.0
 11
30081.604341291921
 21
1827.7494964292871
 31
0.0
  0
LINE
  5
3A05
  8
YODOROGO
 10
30021.604341291921
 20
2027.749496429288
 30
0.0
 11
30021.604341291921
 21
1827.7494964292871
 31
0.0
  0
LINE
  5
3A06
  8
YODOROGO
 10
30161.604341291921
 20
2027.749496429288
 30
0.0
 11
30217.604341291921
 21
2027.749496429288
 31
0.0
  0
LINE
  5
3A07
  8
YODOROGO
 10
30161.604341291921
 20
1811.749496429288
 30
0.0
 11
30161.604341291921
 21
2027.749496429288
 31
0.0
  0
ARC
  5
3A08
  8
YODOROGO
 10
30121.604341291921
 20
1811.749496429288
 30
0.0
 40
40.0
 50
270.0
 51
0.0
  0
LINE
  5
3A09
  8
YODOROGO
 10
30021.604341291921
 20
1771.7494964292871
 30
0.0
 11
30121.604341291921
 21
1771.7494964292871
 31
0.0
  0
LINE
  5
3A0A
  8
YODOROGO
 10
30021.604341291921
 20
1707.749496429288
 30
0.0
 11
30021.604341291921
 21
1771.7494964292871
 31
0.0
  0
LINE
  5
3A0B
  8
YODOROGO
 10
30137.604341291921
 20
1707.749496429288
 30
0.0
 11
30021.604341291921
 21
1707.749496429288
 31
0.0
  0
ARC
  5
3A0C
  8
YODOROGO
 10
30137.604341291921
 20
1787.7494964292871
 30
0.0
 40
80.0
 50
270.0
 51
0.0
  0
LINE
  5
3A0D
  8
YODOROGO
 10
30217.604341291921
 20
2027.749496429288
 30
0.0
 11
30217.604341291921
 21
1787.7494964292871
 31
0.0
  0
LINE
  5
3A0E
  8
YODOROGO
 10
29977.604341291921
 20
1947.749496429288
 30
0.0
 11
29977.604341291921
 21
1995.7494964292871
 31
0.0
1001
AUTOCAD_POSTSCRIPT_FIGURE
1002
{
1000
PSFILL
1000
Grayscale
1000
Grayscale
1070
    25
1002
}
  0
LINE
  5
3A0F
  8
YODOROGO
 10
29977.604341291921
 20
1859.749496429288
 30
0.0
 11
29977.604341291921
 21
1907.7494964292871
 31
0.0
1001
AUTOCAD_POSTSCRIPT_FIGURE
1002
{
1000
PSFILL
1000
Grayscale
1000
Grayscale
1070
    25
1002
}
  0
LINE
  5
3A10
  8
YODOROGO
 10
29977.604341291921
 20
1707.749496429288
 30
0.0
 11
29977.604341291921
 21
1819.7494964292871
 31
0.0
1001
AUTOCAD_POSTSCRIPT_FIGURE
1002
{
1000
PSFILL
1000
Grayscale
1000
Grayscale
1070
    25
1002
}
  0
LINE
  5
3A11
  8
YODOROGO
 10
30381.604341291932
 20
1907.7494964292871
 30
0.0
 11
30497.604341291921
 21
2027.749496429288
 31
0.0
  0
LINE
  5
3A12
  8
YODOROGO
 10
30381.604341291932
 20
1819.7494964292871
 30
0.0
 11
30381.604341291932
 21
1907.7494964292871
 31
0.0
  0
LINE
  5
3A13
  8
YODOROGO
 10
30497.604341291921
 20
1939.749496429288
 30
0.0
 11
30381.604341291932
 21
1819.7494964292871
 31
0.0
  0
LINE
  5
3A14
  8
YODOROGO
 10
30465.604341291921
 20
1679.749496429288
 30
0.0
 11
30465.604341291921
 21
1735.7494964292871
 31
0.0
  0
LINE
  5
3A15
  8
YODOROGO
 10
30381.604341291932
 20
1679.749496429288
 30
0.0
 11
30465.604341291921
 21
1679.749496429288
 31
0.0
  0
LINE
  5
3A16
  8
YODOROGO
 10
30529.604341291939
 20
1735.7494964292871
 30
0.0
 11
30529.604341291939
 21
1679.749496429288
 31
0.0
  0
LINE
  5
3A17
  8
YODOROGO
 10
30381.604341291932
 20
1735.7494964292871
 30
0.0
 11
30381.604341291932
 21
1795.7494964292871
 31
0.0
  0
LINE
  5
3A18
  8
YODOROGO
 10
30465.604341291921
 20
1735.7494964292871
 30
0.0
 11
30381.604341291932
 21
1735.7494964292871
 31
0.0
  0
LINE
  5
3A19
  8
YODOROGO
 10
30645.604341291921
 20
2027.749496429288
 30
0.0
 11
30973.604341291921
 21
2027.749496429288
 31
0.0
  0
LINE
  5
3A1A
  8
YODOROGO
 10
30925.604341291921
 20
1963.749496429286
 30
0.0
 11
30697.604341291932
 21
1963.749496429286
 31
0.0
  0
LINE
  5
3A1B
  8
YODOROGO
 10
30873.604341291921
 20
1819.7494964292871
 30
0.0
 11
30899.604341291932
 21
1819.7494964292871
 31
0.0
  0
LINE
  5
3A1C
  8
YODOROGO
 10
30899.604341291932
 20
1939.749496429288
 30
0.0
 11
30873.604341291921
 21
1819.7494964292871
 31
0.0
  0
LINE
  5
3A1D
  8
YODOROGO
 10
30851.604341291939
 20
1939.749496429288
 30
0.0
 11
30899.604341291932
 21
1939.749496429288
 31
0.0
  0
LINE
  5
3A1E
  8
YODOROGO
 10
30825.604341291921
 20
1819.7494964292871
 30
0.0
 11
30851.604341291939
 21
1939.749496429288
 31
0.0
  0
LINE
  5
3A1F
  8
YODOROGO
 10
30797.604341291921
 20
1819.7494964292871
 30
0.0
 11
30825.604341291921
 21
1819.7494964292871
 31
0.0
  0
LINE
  5
3A20
  8
YODOROGO
 10
30771.604341291939
 20
1939.749496429288
 30
0.0
 11
30797.604341291921
 21
1819.7494964292871
 31
0.0
  0
LINE
  5
3A21
  8
YODOROGO
 10
30723.604341291921
 20
1939.749496429288
 30
0.0
 11
30771.604341291939
 21
1939.749496429288
 31
0.0
  0
LINE
  5
3A22
  8
YODOROGO
 10
30749.604341291921
 20
1819.7494964292871
 30
0.0
 11
30723.604341291921
 21
1939.749496429288
 31
0.0
  0
LINE
  5
3A23
  8
YODOROGO
 10
30723.604341291921
 20
1819.7494964292871
 30
0.0
 11
30749.604341291921
 21
1819.7494964292871
 31
0.0
  0
LINE
  5
3A24
  8
YODOROGO
 10
30723.604341291921
 20
1755.7494964292871
 30
0.0
 11
30723.604341291921
 21
1819.7494964292871
 31
0.0
  0
LINE
  5
3A25
  8
YODOROGO
 10
30899.604341291932
 20
1755.7494964292871
 30
0.0
 11
30723.604341291921
 21
1755.7494964292871
 31
0.0
  0
LINE
  5
3A26
  8
YODOROGO
 10
30899.604341291932
 20
1819.7494964292871
 30
0.0
 11
30899.604341291932
 21
1755.7494964292871
 31
0.0
  0
LINE
  5
3A27
  8
YODOROGO
 10
30617.604341291921
 20
1947.749496429288
 30
0.0
 11
30617.604341291921
 21
1859.749496429288
 31
0.0
  0
LINE
  5
3A28
  8
YODOROGO
 10
30791.604341291921
 20
1755.7494964292871
 30
0.0
 11
30831.604341291921
 21
1755.7494964292871
 31
0.0
  0
LINE
  5
3A29
  8
YODOROGO
 10
30723.604341291921
 20
1691.749496429288
 30
0.0
 11
30763.604341291921
 21
1691.749496429288
 31
0.0
  0
LINE
  5
3A2A
  8
YODOROGO
 10
30859.604341291932
 20
1691.749496429288
 30
0.0
 11
30899.604341291932
 21
1691.749496429288
 31
0.0
  0
LINE
  5
3A2B
  8
YODOROGO
 10
30617.604341291921
 20
1795.7494964292871
 30
0.0
 11
30617.604341291921
 21
1735.7494964292871
 31
0.0
  0
LINE
  5
3A2C
  8
YODOROGO
 10
31165.604341291921
 20
2027.749496429288
 30
0.0
 11
31165.604341291921
 21
1963.749496429286
 31
0.0
  0
LINE
  5
3A2D
  8
YODOROGO
 10
31533.604341291921
 20
1595.7494964292871
 30
0.0
 11
31533.60434129191
 21
1811.749496429288
 31
0.0
  0
LINE
  5
3A2E
  8
YODOROGO
 10
31461.60434129191
 20
1987.7494964292871
 30
0.0
 11
31461.60434129191
 21
1635.7494964292871
 31
0.0
  0
LINE
  5
3A2F
  8
YODOROGO
 10
31653.604341291921
 20
1427.749496429288
 30
0.0
 11
31653.60434129191
 21
1811.749496429288
 31
0.0
  0
LINE
  5
3A30
  8
YODOROGO
 10
31589.604341291921
 20
1811.749496429288
 30
0.0
 11
31589.604341291921
 21
1427.749496429288
 31
0.0
  0
LINE
  5
3A31
  8
YODOROGO
 10
31237.604341291921
 20
1595.7494964292871
 30
0.0
 11
31237.604341291921
 21
1707.749496429288
 31
0.0
  0
ARC
  5
3A32
  8
YODOROGO
 10
31353.914865116069
 20
1607.790351288558
 30
0.0
 40
180.0924485759885
 50
268.62849102169793
 51
356.16638457330322
  0
LINE
  5
3A33
  8
YODOROGO
 10
31349.604341291939
 20
1527.749496429288
 30
0.0
 11
31349.604341291939
 21
1427.749496429288
 31
0.0
  0
ARC
  5
3A34
  8
YODOROGO
 10
31351.518075724562
 20
1637.838957017655
 30
0.0
 40
110.1060929836122
 50
269.00410209305932
 51
358.91264455492478
  0
LINE
  5
3A35
  8
YODOROGO
 10
31589.604341291921
 20
1427.749496429288
 30
0.0
 11
31653.604341291921
 21
1427.749496429288
 31
0.0
  0
LINE
  5
3A36
  8
YODOROGO
 10
31533.60434129191
 20
1811.749496429288
 30
0.0
 11
31589.604341291921
 21
1811.749496429288
 31
0.0
  0
LINE
  5
3A37
  8
YODOROGO
 10
31621.604341291939
 20
1987.7494964292871
 30
0.0
 11
31461.60434129191
 21
1987.7494964292871
 31
0.0
  0
LINE
  5
3A38
  8
YODOROGO
 10
31533.60434129191
 20
1915.7494964292871
 30
0.0
 11
31661.604341291939
 21
1915.7494964292871
 31
0.0
  0
LINE
  5
3A39
  8
YODOROGO
 10
31701.604341291939
 20
1875.7494964292871
 30
0.0
 11
31533.60434129191
 21
1875.7494964292871
 31
0.0
  0
LINE
  5
3A3A
  8
YODOROGO
 10
31237.604341291921
 20
1779.749496429288
 30
0.0
 11
31349.604341291939
 21
1779.749496429288
 31
0.0
  0
LINE
  5
3A3B
  8
YODOROGO
 10
31237.604341291921
 20
1835.7494964292871
 30
0.0
 11
31237.604341291921
 21
1779.749496429288
 31
0.0
  0
LINE
  5
3A3C
  8
YODOROGO
 10
31349.604341291939
 20
1835.7494964292871
 30
0.0
 11
31237.604341291921
 21
1835.7494964292871
 31
0.0
  0
LINE
  5
3A3D
  8
YODOROGO
 10
31349.604341291939
 20
1779.749496429288
 30
0.0
 11
31349.604341291939
 21
1835.7494964292871
 31
0.0
  0
LINE
  5
3A3E
  8
YODOROGO
 10
31533.60434129191
 20
1875.7494964292871
 30
0.0
 11
31533.60434129191
 21
1915.7494964292871
 31
0.0
  0
LINE
  5
3A3F
  8
YODOROGO
 10
31413.604341291921
 20
1707.749496429288
 30
0.0
 11
31413.604341291921
 21
1907.7494964292871
 31
0.0
  0
LINE
  5
3A40
  8
YODOROGO
 10
31237.604341291921
 20
1707.749496429288
 30
0.0
 11
31413.604341291921
 21
1707.749496429288
 31
0.0
  0
LINE
  5
3A41
  8
YODOROGO
 10
31413.604341291921
 20
1963.749496429286
 30
0.0
 11
31413.604341291921
 21
2027.749496429288
 31
0.0
  0
ARC
  5
3A42
  8
YODOROGO
 10
31621.604341291939
 20
2003.749496429285
 30
0.0
 40
15.999999999994539
 50
270.0
 51
0.0000000000081422
  0
LINE
  5
3A43
  8
YODOROGO
 10
31637.604341291921
 20
2027.749496429288
 30
0.0
 11
31637.604341291921
 21
2003.7494964292871
 31
0.0
  0
LINE
  5
3A44
  8
YODOROGO
 10
31701.604341291939
 20
2027.749496429288
 30
0.0
 11
31637.604341291921
 21
2027.749496429288
 31
0.0
  0
LINE
  5
3A45
  8
YODOROGO
 10
31701.604341291939
 20
1955.7494964292871
 30
0.0
 11
31701.604341291939
 21
2027.749496429288
 31
0.0
  0
ARC
  5
3A46
  8
YODOROGO
 10
31661.604341291939
 20
1955.7494964292871
 30
0.0
 40
40.0
 50
270.0
 51
0.0
  0
LINE
  5
3A47
  8
YODOROGO
 10
31701.604341291939
 20
1811.749496429288
 30
0.0
 11
31701.604341291939
 21
1875.7494964292871
 31
0.0
  0
LINE
  5
3A48
  8
YODOROGO
 10
31653.60434129191
 20
1811.749496429288
 30
0.0
 11
31701.604341291939
 21
1811.749496429288
 31
0.0
  0
LINE
  5
3A4C
  8
SUNPOU
  6
CONTINUOUS
 62
     4
 10
11322.094058999979
 20
13639.990937
 30
0.0
 11
10475.09863799999
 21
13639.990937
 31
0.0
  0
LINE
  5
3A4D
  8
SUNPOU
  6
CONTINUOUS
 62
     4
 10
10555.09863799999
 20
13832.486252000001
 30
0.0
 11
10555.09863799999
 21
14072.486252000001
 31
0.0
  0
LINE
  5
3A4E
  8
SUNPOU
  6
CONTINUOUS
 62
     4
 10
10555.09863799999
 20
13639.990937
 30
0.0
 11
10555.09863799999
 21
13399.990937
 31
0.0
  0
LINE
  5
3A4F
  8
SUNPOU
  6
CONTINUOUS
 62
     4
 10
10555.09863799999
 20
13832.486252000001
 30
0.0
 11
10555.09863799999
 21
13639.990937
 31
0.0
  0
LINE
  5
3A50
  8
SUNPOU
  6
CONTINUOUS
 62
     4
 10
11185.80074099999
 20
15291.72676350001
 30
0.0
 11
10475.09863799999
 21
15291.72676350001
 31
0.0
  0
LINE
  5
3A51
  8
SUNPOU
  6
CONTINUOUS
 62
     4
 10
10555.09863799999
 20
15291.72676350001
 30
0.0
 11
10555.09863799999
 21
13832.486252000001
 31
0.0
  0
LINE
  5
3A52
  8
SUNPOU
  6
CONTINUOUS
 62
     4
 10
11185.80074099999
 20
15291.72676350001
 30
0.0
 11
10475.09863799999
 21
15291.72676350001
 31
0.0
  0
LINE
  5
3A53
  8
SUNPOU
  6
CONTINUOUS
 62
     4
 10
10555.09863799999
 20
16750.486251999992
 30
0.0
 11
10555.09863799999
 21
15291.72676350001
 31
0.0
  0
LINE
  5
3A54
  8
SUNPOU
  6
CONTINUOUS
 62
     4
 10
11185.80074099999
 20
18209.486251999992
 30
0.0
 11
10475.09863799999
 21
18209.486251999992
 31
0.0
  0
LINE
  5
3A55
  8
SUNPOU
  6
CONTINUOUS
 62
     4
 10
10555.09863799999
 20
18209.486251999992
 30
0.0
 11
10555.09863799999
 21
16750.486251999992
 31
0.0
  0
LINE
  5
3A56
  8
SUNPOU
  6
CONTINUOUS
 62
     4
 10
11322.094058999979
 20
19870.982161000022
 30
0.0
 11
10875.09863799999
 21
19870.982161000022
 31
0.0
  0
LINE
  5
3A57
  8
SUNPOU
  6
CONTINUOUS
 62
     4
 10
11322.09841399998
 20
19890.982161000022
 30
0.0
 11
10875.09863799999
 21
19890.982161000022
 31
0.0
  0
LINE
  5
3A59
  8
SUNPOU
  6
CONTINUOUS
 62
     4
 10
10955.09863799999
 20
19890.982161000022
 30
0.0
 11
10955.09863799999
 21
20130.982161000022
 31
0.0
  0
LINE
  5
3A5A
  8
SUNPOU
  6
CONTINUOUS
 62
     4
 10
10955.09863799999
 20
19850.982161000022
 30
0.0
 11
10955.09863799999
 21
19890.982161000022
 31
0.0
  0
LINE
  5
3A5B
  8
SUNPOU
  6
CONTINUOUS
 62
     4
 10
11322.09841399998
 20
19890.982161000022
 30
0.0
 11
10475.09863799999
 21
19890.982161000022
 31
0.0
  0
LINE
  5
3A5C
  8
SUNPOU
  6
CONTINUOUS
 62
     4
 10
10555.09863799999
 20
19668.486251999992
 30
0.0
 11
10555.09863799999
 21
19428.486251999992
 31
0.0
  0
LINE
  5
3A5D
  8
SUNPOU
  6
CONTINUOUS
 62
     4
 10
10555.09863799999
 20
19890.982161000022
 30
0.0
 11
10555.09863799999
 21
20130.982161000022
 31
0.0
  0
LINE
  5
3A5E
  8
SUNPOU
  6
CONTINUOUS
 62
     4
 10
10555.09863799999
 20
19668.486251999992
 30
0.0
 11
10555.09863799999
 21
19890.982161000022
 31
0.0
  0
LINE
  5
3A5F
  8
SUNPOU
  6
CONTINUOUS
 62
     4
 10
11185.80074099999
 20
18209.486251999992
 30
0.0
 11
10475.09863799999
 21
18209.486251999992
 31
0.0
  0
LINE
  5
3A60
  8
SUNPOU
  6
CONTINUOUS
 62
     4
 10
10555.09863799999
 20
18209.486251999992
 30
0.0
 11
10555.09863799999
 21
19668.486251999992
 31
0.0
  0
LINE
  5
3A61
  8
SUNPOU
  6
CONTINUOUS
 62
     4
 10
11399.09792
 20
19970.98414
 30
0.0
 11
11399.09792
 21
20520.989419000009
 31
0.0
  0
LINE
  5
3A62
  8
SUNPOU
  6
CONTINUOUS
 62
     4
 10
11484.59792
 20
20440.989419000009
 30
0.0
 11
11724.59792
 21
20440.989419000009
 31
0.0
  0
LINE
  5
3A63
  8
SUNPOU
  6
CONTINUOUS
 62
     4
 10
11402.09792
 20
20440.989419000009
 30
0.0
 11
11162.09792
 21
20440.989419000009
 31
0.0
  0
LINE
  5
3A64
  8
SUNPOU
  6
CONTINUOUS
 62
     4
 10
11484.59792
 20
20440.989419000009
 30
0.0
 11
11402.09792
 21
20440.989419000009
 31
0.0
  0
LINE
  5
3A65
  8
SUNPOU
  6
CONTINUOUS
 62
     4
 10
14488.103858
 20
19970.98414
 30
0.0
 11
14488.103858
 21
20520.989419000009
 31
0.0
  0
LINE
  5
3A66
  8
SUNPOU
  6
CONTINUOUS
 62
     4
 10
14402.603858
 20
20440.989419000009
 30
0.0
 11
14162.603858
 21
20440.989419000009
 31
0.0
  0
LINE
  5
3A67
  8
SUNPOU
  6
CONTINUOUS
 62
     4
 10
14485.103858
 20
20440.989419000009
 30
0.0
 11
14725.103858
 21
20440.989419000009
 31
0.0
  0
LINE
  5
3A68
  8
SUNPOU
  6
CONTINUOUS
 62
     4
 10
14402.603858
 20
20440.989419000009
 30
0.0
 11
14485.103858
 21
20440.989419000009
 31
0.0
  0
LINE
  5
3A69
  8
SUNPOU
  6
CONTINUOUS
 62
     4
 10
14402.603858
 20
20440.989419000009
 30
0.0
 11
11484.59791999998
 21
20440.989419000009
 31
0.0
  0
LINE
  5
3A6A
  8
SUNPOU
  6
CONTINUOUS
 62
     4
 10
21612.563502000001
 20
19790.984537000018
 30
0.0
 11
21612.563502000001
 21
20520.987440000012
 31
0.0
  0
LINE
  5
3A6B
  8
SUNPOU
  6
CONTINUOUS
 62
     4
 10
20854.563502000001
 20
19790.984537000018
 30
0.0
 11
20854.563502000001
 21
20520.987440000012
 31
0.0
  0
LINE
  5
3A6C
  8
SUNPOU
  6
CONTINUOUS
 62
     4
 10
21612.563502000001
 20
20440.987440000012
 30
0.0
 11
20854.563502000001
 21
20440.987440000012
 31
0.0
  0
LINE
  5
3A6D
  8
SUNPOU
  6
CONTINUOUS
 62
     4
 10
20724.56086300001
 20
6567.9237529999991
 30
0.0
 11
19924.562182000001
 21
6567.9237529999991
 31
0.0
  0
LINE
  5
3A6E
  8
SUNPOU
  6
CONTINUOUS
 62
     4
 10
20724.56086300001
 20
8459.4237529999973
 30
0.0
 11
19924.562182000001
 21
8459.4237530000028
 31
0.0
  0
LINE
  5
3A6F
  8
SUNPOU
  6
CONTINUOUS
 62
     4
 10
20004.562182000001
 20
6567.9237529999991
 30
0.0
 11
20004.562182000001
 21
8459.4237530000028
 31
0.0
  0
LINE
  5
3A70
  8
SUNPOU
  6
CONTINUOUS
 62
     4
 10
20724.56086300001
 20
6567.9237529999991
 30
0.0
 11
19524.559872999991
 21
6567.9237529999991
 31
0.0
  0
LINE
  5
3A71
  8
SUNPOU
  6
CONTINUOUS
 62
     4
 10
20692.063107000009
 20
8916.4237789999952
 30
0.0
 11
19524.559872999998
 21
8916.4237789999952
 31
0.0
  0
LINE
  5
3A72
  8
SUNPOU
  6
CONTINUOUS
 62
     4
 10
19604.559872999991
 20
6567.9237529999991
 30
0.0
 11
19604.559872999991
 21
8916.4237789999952
 31
0.0
  0
LINE
  5
3A83
  8
SUNPOU
  6
CONTINUOUS
 62
     4
 10
23772.563502000001
 20
6125.2714950000009
 30
0.0
 11
23772.563502000001
 21
5187.9239180000041
 31
0.0
  0
LINE
  5
3A84
  8
SUNPOU
  6
CONTINUOUS
 62
     4
 10
23815.063502000001
 20
6387.9239180000041
 30
0.0
 11
23815.063502000001
 21
5187.9239180000041
 31
0.0
  0
LINE
  5
3A85
  8
SUNPOU
  6
CONTINUOUS
 62
     4
 10
23772.563502000001
 20
5267.9239180000041
 30
0.0
 11
23532.563502000001
 21
5267.9239180000041
 31
0.0
  0
LINE
  5
3A86
  8
SUNPOU
  6
CONTINUOUS
 62
     4
 10
23815.063502000001
 20
5267.9239180000041
 30
0.0
 11
24055.063502000001
 21
5267.9239180000041
 31
0.0
  0
LINE
  5
3A87
  8
SUNPOU
  6
CONTINUOUS
 62
     4
 10
23772.563502000001
 20
5267.9239180000041
 30
0.0
 11
23815.063502000001
 21
5267.9239180000041
 31
0.0
  0
LINE
  5
3A88
  8
SUNPOU
  6
CONTINUOUS
 62
     4
 10
20948.563502000001
 20
6387.9239180000041
 30
0.0
 11
20948.563502000001
 21
5587.9239180000041
 31
0.0
  0
LINE
  5
3A89
  8
SUNPOU
  6
CONTINUOUS
 62
     4
 10
23678.563502000001
 20
6387.9239180000041
 30
0.0
 11
23678.563502000001
 21
5587.9239180000041
 31
0.0
  0
LINE
  5
3A8A
  8
SUNPOU
  6
CONTINUOUS
 62
     4
 10
20948.563502000001
 20
5667.9239180000041
 30
0.0
 11
23678.563502000001
 21
5667.9239180000041
 31
0.0
  0
LINE
  5
3A8B
  8
SUNPOU
  6
CONTINUOUS
 62
     4
 10
20854.563502000001
 20
6125.2714950000009
 30
0.0
 11
20854.563502000001
 21
5187.9239180000041
 31
0.0
  0
LINE
  5
3A8C
  8
SUNPOU
  6
CONTINUOUS
 62
     4
 10
23772.563502000001
 20
6125.2714950000009
 30
0.0
 11
23772.563502000001
 21
5187.9239180000041
 31
0.0
  0
LINE
  5
3A8D
  8
SUNPOU
  6
CONTINUOUS
 62
     4
 10
20854.563502000001
 20
5267.9239180000041
 30
0.0
 11
23772.563502000001
 21
5267.9239180000041
 31
0.0
  0
LINE
  5
3A8E
  8
SUNPOU
  6
CONTINUOUS
 62
     4
 10
20854.563502000001
 20
6125.2714950000009
 30
0.0
 11
20854.563502000001
 21
5187.9239180000041
 31
0.0
  0
LINE
  5
3A8F
  8
SUNPOU
  6
CONTINUOUS
 62
     4
 10
20812.06350199999
 20
6387.9239180000041
 30
0.0
 11
20812.06350199999
 21
5187.9239180000041
 31
0.0
  0
LINE
  5
3A90
  8
SUNPOU
  6
CONTINUOUS
 62
     4
 10
20854.563502000001
 20
5267.9239180000041
 30
0.0
 11
21094.563502000001
 21
5267.9239180000041
 31
0.0
  0
LINE
  5
3A91
  8
SUNPOU
  6
CONTINUOUS
 62
     4
 10
20812.06350199999
 20
5267.9239180000041
 30
0.0
 11
20572.06350199999
 21
5267.9239180000041
 31
0.0
  0
LINE
  5
3A92
  8
SUNPOU
  6
CONTINUOUS
 62
     4
 10
20854.563502000001
 20
5267.9239180000041
 30
0.0
 11
20812.06350199999
 21
5267.9239180000041
 31
0.0
  0
LINE
  5
3A93
  8
SUNPOU
  6
CONTINUOUS
 62
     4
 10
20812.06350199999
 20
6387.9239180000041
 30
0.0
 11
20812.06350199999
 21
4787.9240829999999
 31
0.0
  0
LINE
  5
3A94
  8
SUNPOU
  6
CONTINUOUS
 62
     4
 10
23815.063502000001
 20
6387.9239180000041
 30
0.0
 11
23815.063502000001
 21
4787.9240829999999
 31
0.0
  0
LINE
  5
3A95
  8
SUNPOU
  6
CONTINUOUS
 62
     4
 10
20812.06350199999
 20
4867.9240830000008
 30
0.0
 11
23815.063502000001
 21
4867.9240830000008
 31
0.0
  0
LINE
  5
3A96
  8
SUNPOU
  6
CONTINUOUS
 62
     4
 10
9473.5669209999905
 20
8804.9222680000057
 30
0.0
 11
9473.5669209999905
 21
10195.922293999991
 31
0.0
  0
LINE
  5
3A97
  8
SUNPOU
  6
CONTINUOUS
 62
     4
 10
15724.566920999991
 20
8936.812091412432
 30
0.0
 11
15724.566920999991
 21
10195.922293999991
 31
0.0
  0
LINE
  5
3A98
  8
SUNPOU
  6
CONTINUOUS
 62
     4
 10
9473.5669209999905
 20
10115.922293999991
 30
0.0
 11
15724.566920999991
 21
10115.922293999991
 31
0.0
  0
LINE
  5
3A99
  8
SUNPOU
  6
CONTINUOUS
 62
     4
 10
15574.568173999991
 20
8863.1530139999977
 30
0.0
 11
15574.568173999991
 21
9795.9239440000001
 31
0.0
  0
LINE
  5
3A9A
  8
SUNPOU
  6
CONTINUOUS
 62
     4
 10
15724.566920999991
 20
8936.812091412432
 30
0.0
 11
15724.566920999991
 21
9795.9239440000001
 31
0.0
  0
LINE
  5
3A9B
  8
SUNPOU
  6
CONTINUOUS
 62
     4
 10
15574.568173999991
 20
9715.9239440000001
 30
0.0
 11
15334.568173999991
 21
9715.9239440000001
 31
0.0
  0
LINE
  5
3A9C
  8
SUNPOU
  6
CONTINUOUS
 62
     4
 10
15724.566920999991
 20
9715.9239440000001
 30
0.0
 11
15964.566920999991
 21
9715.9239440000001
 31
0.0
  0
LINE
  5
3A9D
  8
SUNPOU
  6
CONTINUOUS
 62
     4
 10
15574.568173999991
 20
9715.9239440000001
 30
0.0
 11
15724.566920999991
 21
9715.9239440000001
 31
0.0
  0
LINE
  5
3A9E
  8
SUNPOU
  6
CONTINUOUS
 62
     4
 10
9653.565666999988
 20
8681.0046419999962
 30
0.0
 11
9653.565666999988
 21
9795.9239440000001
 31
0.0
  0
LINE
  5
3A9F
  8
SUNPOU
  6
CONTINUOUS
 62
     4
 10
15574.568173999991
 20
8863.1530139999977
 30
0.0
 11
15574.568173999991
 21
9795.9239440000001
 31
0.0
  0
LINE
  5
3AA0
  8
SUNPOU
  6
CONTINUOUS
 62
     4
 10
9653.565666999988
 20
9715.9239440000001
 30
0.0
 11
15574.568173999991
 21
9715.9239440000001
 31
0.0
  0
LINE
  5
3AA1
  8
SUNPOU
  6
CONTINUOUS
 62
     4
 10
9473.5669209999905
 20
8804.9222680000057
 30
0.0
 11
9473.5669209999905
 21
9795.9239440000001
 31
0.0
  0
LINE
  5
3AA2
  8
SUNPOU
  6
CONTINUOUS
 62
     4
 10
9653.565666999988
 20
8681.0046419999962
 30
0.0
 11
9653.565666999988
 21
9795.9239440000001
 31
0.0
  0
LINE
  5
3AA3
  8
SUNPOU
  6
CONTINUOUS
 62
     4
 10
9473.5669209999905
 20
9715.9239439999983
 30
0.0
 11
9233.5669209999905
 21
9715.9239439999983
 31
0.0
  0
LINE
  5
3AA4
  8
SUNPOU
  6
CONTINUOUS
 62
     4
 10
9653.565666999988
 20
9715.9239439999983
 30
0.0
 11
9893.5656669999898
 21
9715.9239439999983
 31
0.0
  0
LINE
  5
3AA5
  8
SUNPOU
  6
CONTINUOUS
 62
     4
 10
9473.5669209999905
 20
9715.9239439999983
 30
0.0
 11
9653.565666999988
 21
9715.9239439999983
 31
0.0
  0
LINE
  5
3AA6
  8
SUNPOU
  6
CONTINUOUS
 62
     4
 10
9566.0669209999924
 20
6567.9232579999998
 30
0.0
 11
8483.5685029999859
 21
6567.9232579999989
 31
0.0
  0
LINE
  5
3AA7
  8
SUNPOU
  6
CONTINUOUS
 62
     4
 10
9393.5688989999835
 20
8724.4232579999989
 30
0.0
 11
8483.5685029999859
 21
8724.4232579999989
 31
0.0
  0
LINE
  5
3AA8
  8
SUNPOU
  6
CONTINUOUS
 62
     4
 10
8563.5685029999859
 20
6567.9232579999989
 30
0.0
 11
8563.5685029999859
 21
8724.4232579999989
 31
0.0
  0
LINE
  5
3AA9
  8
SUNPOU
  6
CONTINUOUS
 62
     4
 10
15667.066920999991
 20
6567.9232579999998
 30
0.0
 11
16744.56632599996
 21
6567.9232579999989
 31
0.0
  0
LINE
  5
3AAA
  8
SUNPOU
  6
CONTINUOUS
 62
     4
 10
15759.373189599361
 20
8916.4232580000007
 30
0.0
 11
16744.56632599996
 21
8916.4232580000007
 31
0.0
  0
LINE
  5
3AAB
  8
SUNPOU
  6
CONTINUOUS
 62
     4
 10
16664.56632599996
 20
6567.9232579999989
 30
0.0
 11
16664.56632599996
 21
8916.4232580000007
 31
0.0
  0
LINE
  5
3AAC
  8
SUNPOU
  6
CONTINUOUS
 62
     4
 10
9653.5669209999924
 20
6487.9227630000032
 30
0.0
 11
9653.5669209999924
 21
4787.9230930000012
 31
0.0
  0
LINE
  5
3AAD
  8
SUNPOU
  6
CONTINUOUS
 62
     4
 10
15574.566920999991
 20
6487.9227630000032
 30
0.0
 11
15574.566920999991
 21
4787.9230930000012
 31
0.0
  0
LINE
  5
3AAE
  8
SUNPOU
  6
CONTINUOUS
 62
     4
 10
9653.5669209999924
 20
4867.9230930000012
 30
0.0
 11
15574.566920999991
 21
4867.9230930000012
 31
0.0
  0
LINE
  5
3AAF
  8
SUNPOU
  6
CONTINUOUS
 62
     4
 10
15532.066920999991
 20
6125.2705049999986
 30
0.0
 11
15532.066920999991
 21
5187.922928
 31
0.0
  0
LINE
  5
3AB0
  8
SUNPOU
  6
CONTINUOUS
 62
     4
 10
15574.566920999991
 20
6487.9227630000032
 30
0.0
 11
15574.566920999991
 21
5187.922928
 31
0.0
  0
LINE
  5
3AB1
  8
SUNPOU
  6
CONTINUOUS
 62
     4
 10
15532.066920999991
 20
5267.922928
 30
0.0
 11
15292.066920999991
 21
5267.922928
 31
0.0
  0
LINE
  5
3AB2
  8
SUNPOU
  6
CONTINUOUS
 62
     4
 10
15574.566920999991
 20
5267.922928
 30
0.0
 11
15814.566920999991
 21
5267.922928
 31
0.0
  0
LINE
  5
3AB3
  8
SUNPOU
  6
CONTINUOUS
 62
     4
 10
15532.066920999991
 20
5267.922928
 30
0.0
 11
15574.566920999991
 21
5267.922928
 31
0.0
  0
LINE
  5
3AB4
  8
SUNPOU
  6
CONTINUOUS
 62
     4
 10
9696.0669209999924
 20
6125.2705049999986
 30
0.0
 11
9696.0669209999924
 21
5187.922928
 31
0.0
  0
LINE
  5
3AB5
  8
SUNPOU
  6
CONTINUOUS
 62
     4
 10
9653.5669209999924
 20
6487.9227630000032
 30
0.0
 11
9653.5669209999924
 21
5187.922928
 31
0.0
  0
LINE
  5
3AB6
  8
SUNPOU
  6
CONTINUOUS
 62
     4
 10
9696.0669209999924
 20
5267.922928
 30
0.0
 11
9936.0669209999924
 21
5267.922928
 31
0.0
  0
LINE
  5
3AB7
  8
SUNPOU
  6
CONTINUOUS
 62
     4
 10
9653.5669209999924
 20
5267.922928
 30
0.0
 11
9413.5669209999905
 21
5267.922928
 31
0.0
  0
LINE
  5
3AB8
  8
SUNPOU
  6
CONTINUOUS
 62
     4
 10
9696.0669209999924
 20
5267.922928
 30
0.0
 11
9653.5669209999924
 21
5267.922928
 31
0.0
  0
LINE
  5
3AB9
  8
SUNPOU
  6
CONTINUOUS
 62
     4
 10
12614.066920999991
 20
6125.2705049999986
 30
0.0
 11
12614.066920999991
 21
5187.922928
 31
0.0
  0
LINE
  5
3ABA
  8
SUNPOU
  6
CONTINUOUS
 62
     4
 10
9696.0669209999924
 20
6125.2705049999986
 30
0.0
 11
9696.0669209999924
 21
5187.922928
 31
0.0
  0
LINE
  5
3ABB
  8
SUNPOU
  6
CONTINUOUS
 62
     4
 10
12614.066920999991
 20
5267.922928
 30
0.0
 11
9696.0669209999924
 21
5267.922928
 31
0.0
  0
LINE
  5
3ABC
  8
SUNPOU
  6
CONTINUOUS
 62
     4
 10
12614.066920999991
 20
6125.2705049999986
 30
0.0
 11
12614.066920999991
 21
5187.922928
 31
0.0
  0
LINE
  5
3ABD
  8
SUNPOU
  6
CONTINUOUS
 62
     4
 10
15532.066920999991
 20
6125.2705049999986
 30
0.0
 11
15532.066920999991
 21
5187.922928
 31
0.0
  0
LINE
  5
3ABE
  8
SUNPOU
  6
CONTINUOUS
 62
     4
 10
12614.066920999991
 20
5267.922928
 30
0.0
 11
15532.066920999991
 21
5267.922928
 31
0.0
  0
LINE
  5
3ABF
  8
SUNPOU
  6
CONTINUOUS
 62
     4
 10
20732.067196999989
 20
18209.486251999992
 30
0.0
 11
19845.108925
 21
18209.486251999992
 31
0.0
  0
LINE
  5
3AC0
  8
SUNPOU
  6
CONTINUOUS
 62
     4
 10
19925.108925
 20
18209.486251999992
 30
0.0
 11
19925.108925
 21
19668.486251999992
 31
0.0
  0
LINE
  5
3AC1
  8
SUNPOU
  6
CONTINUOUS
 62
     4
 10
20732.067196999989
 20
18209.486251999992
 30
0.0
 11
19845.108925
 21
18209.486251999992
 31
0.0
  0
LINE
  5
3AC2
  8
SUNPOU
  6
CONTINUOUS
 62
     4
 10
19925.108925
 20
16750.486251999992
 30
0.0
 11
19925.108925
 21
18209.486251999992
 31
0.0
  0
LINE
  5
3AC3
  8
SUNPOU
  6
CONTINUOUS
 62
     4
 10
20732.067196999989
 20
15291.72676350001
 30
0.0
 11
19845.108925
 21
15291.72676350001
 31
0.0
  0
LINE
  5
3AC4
  8
SUNPOU
  6
CONTINUOUS
 62
     4
 10
19925.108925
 20
15291.72676350001
 30
0.0
 11
19925.108925
 21
16750.486251999992
 31
0.0
  0
LINE
  5
3AC5
  8
SUNPOU
  6
CONTINUOUS
 62
     4
 10
20732.067196999989
 20
15291.72676350001
 30
0.0
 11
19845.108925
 21
15291.72676350001
 31
0.0
  0
LINE
  5
3AC6
  8
SUNPOU
  6
CONTINUOUS
 62
     4
 10
19925.108925
 20
13832.486252000001
 30
0.0
 11
19925.108925
 21
15291.72676350001
 31
0.0
  0
LINE
  5
3AC7
  8
SUNPOU
  6
CONTINUOUS
 62
     4
 10
20854.563502000001
 20
13126.722818
 30
0.0
 11
20854.563502000001
 21
12781.038167999999
 31
0.0
  0
LINE
  5
3AC8
  8
SUNPOU
  6
CONTINUOUS
 62
     4
 10
20812.061258999998
 20
13709.988957
 30
0.0
 11
20812.061258999998
 21
12781.038167999999
 31
0.0
  0
LINE
  5
3AC9
  8
SUNPOU
  6
CONTINUOUS
 62
     4
 10
20854.563502000001
 20
12861.038167999999
 30
0.0
 11
21094.563502000001
 21
12861.038167999999
 31
0.0
  0
LINE
  5
3ACA
  8
SUNPOU
  6
CONTINUOUS
 62
     4
 10
20812.061258999998
 20
12861.038167999999
 30
0.0
 11
20572.061258999998
 21
12861.038167999999
 31
0.0
  0
LINE
  5
3ACB
  8
SUNPOU
  6
CONTINUOUS
 62
     4
 10
20854.563502000001
 20
12861.038167999999
 30
0.0
 11
20812.061258999998
 21
12861.038167999999
 31
0.0
  0
LINE
  5
3ACC
  8
SUNPOU
  6
CONTINUOUS
 62
     4
 10
23772.563502000001
 20
13126.722818
 30
0.0
 11
23772.563502000001
 21
12781.038167999999
 31
0.0
  0
LINE
  5
3ACD
  8
SUNPOU
  6
CONTINUOUS
 62
     4
 10
23815.065744999989
 20
13709.988957
 30
0.0
 11
23815.065744999989
 21
12781.038167999999
 31
0.0
  0
LINE
  5
3ACE
  8
SUNPOU
  6
CONTINUOUS
 62
     4
 10
23772.563502000001
 20
12861.038167999999
 30
0.0
 11
23532.563502000001
 21
12861.038167999999
 31
0.0
  0
LINE
  5
3ACF
  8
SUNPOU
  6
CONTINUOUS
 62
     4
 10
23815.065744999989
 20
12861.038167999999
 30
0.0
 11
24055.065744999989
 21
12861.038167999999
 31
0.0
  0
LINE
  5
3AD0
  8
SUNPOU
  6
CONTINUOUS
 62
     4
 10
23772.563502000001
 20
12861.038167999999
 30
0.0
 11
23815.065744999989
 21
12861.038167999999
 31
0.0
  0
LINE
  5
3AD1
  8
SUNPOU
  6
CONTINUOUS
 62
     4
 10
23772.563502000001
 20
13126.722818
 30
0.0
 11
23772.563502000001
 21
12781.038167999999
 31
0.0
  0
LINE
  5
3AD2
  8
SUNPOU
  6
CONTINUOUS
 62
     4
 10
23730.061258999991
 20
13709.988957
 30
0.0
 11
23730.061258999991
 21
12781.038167999999
 31
0.0
  0
LINE
  5
3AD3
  8
SUNPOU
  6
CONTINUOUS
 62
     4
 10
23772.563502000001
 20
12861.038167999999
 30
0.0
 11
24012.563502000001
 21
12861.038167999999
 31
0.0
  0
LINE
  5
3AD4
  8
SUNPOU
  6
CONTINUOUS
 62
     4
 10
23730.061258999991
 20
12861.038167999999
 30
0.0
 11
23490.061258999991
 21
12861.038167999999
 31
0.0
  0
LINE
  5
3AD5
  8
SUNPOU
  6
CONTINUOUS
 62
     4
 10
23772.563502000001
 20
12861.038167999999
 30
0.0
 11
23730.061258999991
 21
12861.038167999999
 31
0.0
  0
LINE
  5
3AD6
  8
SUNPOU
  6
CONTINUOUS
 62
     4
 10
20854.563502000001
 20
13126.722818
 30
0.0
 11
20854.563502000001
 21
12781.038167999999
 31
0.0
  0
LINE
  5
3AD7
  8
SUNPOU
  6
CONTINUOUS
 62
     4
 10
20897.065744999989
 20
13709.988957
 30
0.0
 11
20897.065744999989
 21
12781.038167999999
 31
0.0
  0
LINE
  5
3AD8
  8
SUNPOU
  6
CONTINUOUS
 62
     4
 10
20854.563502000001
 20
12861.038167999999
 30
0.0
 11
20614.563502000001
 21
12861.038167999999
 31
0.0
  0
LINE
  5
3AD9
  8
SUNPOU
  6
CONTINUOUS
 62
     4
 10
20897.065744999989
 20
12861.038167999999
 30
0.0
 11
21137.065744999989
 21
12861.038167999999
 31
0.0
  0
LINE
  5
3ADA
  8
SUNPOU
  6
CONTINUOUS
 62
     4
 10
20854.563502000001
 20
12861.038167999999
 30
0.0
 11
20897.065744999989
 21
12861.038167999999
 31
0.0
  0
LINE
  5
3ADB
  8
SUNPOU
  6
CONTINUOUS
 62
     4
 10
20812.061258999998
 20
13709.988957
 30
0.0
 11
20812.061258999998
 21
12381.038167999999
 31
0.0
  0
LINE
  5
3ADC
  8
SUNPOU
  6
CONTINUOUS
 62
     4
 10
23815.065744999989
 20
13709.988957
 30
0.0
 11
23815.065744999989
 21
12381.038167999999
 31
0.0
  0
LINE
  5
3ADD
  8
SUNPOU
  6
CONTINUOUS
 62
     4
 10
20812.061258999998
 20
12461.038167999999
 30
0.0
 11
23815.065744999989
 21
12461.038167999999
 31
0.0
  0
LINE
  5
3ADE
  8
SUNPOU
  6
CONTINUOUS
 62
     4
 10
23895.061785999991
 20
14590.486252000001
 30
0.0
 11
24945.063105999991
 21
14590.486252000001
 31
0.0
  0
LINE
  5
3ADF
  8
SUNPOU
  6
CONTINUOUS
 62
     4
 10
24745.063105999991
 20
13832.486252000001
 30
0.0
 11
24945.063105999991
 21
13832.486252000001
 31
0.0
  0
LINE
  5
3AE0
  8
SUNPOU
  6
CONTINUOUS
 62
     4
 10
24865.063105999991
 20
14590.486252000001
 30
0.0
 11
24865.063105999991
 21
13832.486252000001
 31
0.0
  0
LINE
  5
3AE1
  8
SUNPOU
  6
CONTINUOUS
 62
     4
 10
23895.061785999991
 20
15291.72676350001
 30
0.0
 11
24945.063105999991
 21
15291.72676350001
 31
0.0
  0
LINE
  5
3AE2
  8
SUNPOU
  6
CONTINUOUS
 62
     4
 10
23895.061785999991
 20
14590.486252000001
 30
0.0
 11
24945.063105999991
 21
14590.486252000001
 31
0.0
  0
LINE
  5
3AE3
  8
SUNPOU
  6
CONTINUOUS
 62
     4
 10
24865.063105999991
 20
15291.72676350001
 30
0.0
 11
24865.063105999991
 21
14590.486252000001
 31
0.0
  0
LINE
  5
3AE4
  8
SUNPOU
  6
CONTINUOUS
 62
     4
 10
23895.061785999991
 20
15992.486252000001
 30
0.0
 11
24945.063105999991
 21
15992.486252000001
 31
0.0
  0
LINE
  5
3AE5
  8
SUNPOU
  6
CONTINUOUS
 62
     4
 10
23895.061785999991
 20
15291.72676350001
 30
0.0
 11
24945.063105999991
 21
15291.72676350001
 31
0.0
  0
LINE
  5
3AE6
  8
SUNPOU
  6
CONTINUOUS
 62
     4
 10
24865.063105999991
 20
15992.486252000001
 30
0.0
 11
24865.063105999991
 21
15291.72676350001
 31
0.0
  0
LINE
  5
3AE7
  8
SUNPOU
  6
CONTINUOUS
 62
     4
 10
24745.063105999991
 20
16750.486251999992
 30
0.0
 11
24945.063105999991
 21
16750.486251999992
 31
0.0
  0
LINE
  5
3AE8
  8
SUNPOU
  6
CONTINUOUS
 62
     4
 10
23895.061785999991
 20
15992.486252000001
 30
0.0
 11
24945.063105999991
 21
15992.486252000001
 31
0.0
  0
LINE
  5
3AE9
  8
SUNPOU
  6
CONTINUOUS
 62
     4
 10
24865.063105999991
 20
16750.486251999992
 30
0.0
 11
24865.063105999991
 21
15992.486252000001
 31
0.0
  0
LINE
  5
3AEA
  8
SUNPOU
  6
CONTINUOUS
 62
     4
 10
23895.061785999991
 20
17508.486251999992
 30
0.0
 11
24945.063105999991
 21
17508.486251999992
 31
0.0
  0
LINE
  5
3AEB
  8
SUNPOU
  6
CONTINUOUS
 62
     4
 10
24745.063105999991
 20
16750.486251999992
 30
0.0
 11
24945.063105999991
 21
16750.486251999992
 31
0.0
  0
LINE
  5
3AEC
  8
SUNPOU
  6
CONTINUOUS
 62
     4
 10
24865.063105999991
 20
17508.486251999992
 30
0.0
 11
24865.063105999991
 21
16750.486251999992
 31
0.0
  0
LINE
  5
3AED
  8
SUNPOU
  6
CONTINUOUS
 62
     4
 10
23895.061785999991
 20
18209.486251999992
 30
0.0
 11
24945.063105999991
 21
18209.486251999992
 31
0.0
  0
LINE
  5
3AEE
  8
SUNPOU
  6
CONTINUOUS
 62
     4
 10
23895.061785999991
 20
17508.486251999992
 30
0.0
 11
24945.063105999991
 21
17508.486251999992
 31
0.0
  0
LINE
  5
3AEF
  8
SUNPOU
  6
CONTINUOUS
 62
     4
 10
24865.063105999991
 20
18209.486251999992
 30
0.0
 11
24865.063105999991
 21
17508.486251999992
 31
0.0
  0
LINE
  5
3AF0
  8
SUNPOU
  6
CONTINUOUS
 62
     4
 10
23895.061785999991
 20
18910.486251999999
 30
0.0
 11
24945.063105999991
 21
18910.486251999992
 31
0.0
  0
LINE
  5
3AF1
  8
SUNPOU
  6
CONTINUOUS
 62
     4
 10
23895.061785999991
 20
18209.486251999992
 30
0.0
 11
24945.063105999991
 21
18209.486251999992
 31
0.0
  0
LINE
  5
3AF2
  8
SUNPOU
  6
CONTINUOUS
 62
     4
 10
24865.063105999991
 20
18910.486251999992
 30
0.0
 11
24865.063105999991
 21
18209.486251999992
 31
0.0
  0
LINE
  5
3AF3
  8
SUNPOU
  6
CONTINUOUS
 62
     4
 10
24745.063105999991
 20
19668.486251999992
 30
0.0
 11
24945.063105999991
 21
19668.486251999992
 31
0.0
  0
LINE
  5
3AF4
  8
SUNPOU
  6
CONTINUOUS
 62
     4
 10
23895.061785999991
 20
18910.486251999999
 30
0.0
 11
24945.063105999991
 21
18910.486251999992
 31
0.0
  0
LINE
  5
3AF5
  8
SUNPOU
  6
CONTINUOUS
 62
     4
 10
24865.063105999991
 20
19668.486251999992
 30
0.0
 11
24865.063105999991
 21
18910.486251999992
 31
0.0
  0
LINE
  5
3AF6
  8
SUNPOU
  6
CONTINUOUS
 62
     4
 10
24745.063105999991
 20
16750.486251999992
 30
0.0
 11
25345.06310599998
 21
16750.486251999992
 31
0.0
  0
LINE
  5
3AF7
  8
SUNPOU
  6
CONTINUOUS
 62
     4
 10
24745.063105999991
 20
19668.486251999992
 30
0.0
 11
25345.06310599998
 21
19668.486251999992
 31
0.0
  0
LINE
  5
3AF8
  8
SUNPOU
  6
CONTINUOUS
 62
     4
 10
25265.06310599998
 20
16750.486251999992
 30
0.0
 11
25265.06310599998
 21
19668.486251999992
 31
0.0
  0
LINE
  5
3AF9
  8
SUNPOU
  6
CONTINUOUS
 62
     4
 10
24745.063105999991
 20
13832.486252000001
 30
0.0
 11
25345.06310599998
 21
13832.486252000001
 31
0.0
  0
LINE
  5
3AFA
  8
SUNPOU
  6
CONTINUOUS
 62
     4
 10
24745.063105999991
 20
16750.486251999992
 30
0.0
 11
25345.06310599998
 21
16750.486251999992
 31
0.0
  0
LINE
  5
3AFB
  8
SUNPOU
  6
CONTINUOUS
 62
     4
 10
25265.06310599998
 20
13832.486252000001
 30
0.0
 11
25265.06310599998
 21
16750.486251999992
 31
0.0
  0
LINE
  5
3AFC
  8
SUNPOU
  6
CONTINUOUS
 62
     4
 10
23895.061785999991
 20
19710.983547
 30
0.0
 11
25745.063105999991
 21
19710.983546999982
 31
0.0
  0
LINE
  5
3AFD
  8
SUNPOU
  6
CONTINUOUS
 62
     4
 10
23895.061785999991
 20
13789.988957
 30
0.0
 11
25745.063105999991
 21
13789.988957
 31
0.0
  0
LINE
  5
3AFE
  8
SUNPOU
  6
CONTINUOUS
 62
     4
 10
25665.063105999991
 20
19710.983546999982
 30
0.0
 11
25665.063105999991
 21
13789.988957
 31
0.0
  0
LINE
  5
3AFF
  8
SUNPOU
  6
CONTINUOUS
 62
     4
 10
24745.063105999991
 20
19668.486251999992
 30
0.0
 11
25345.06310599998
 21
19668.486251999992
 31
0.0
  0
LINE
  5
3B00
  8
SUNPOU
  6
CONTINUOUS
 62
     4
 10
23895.061785999991
 20
19710.983547
 30
0.0
 11
25345.06310599998
 21
19710.983546999982
 31
0.0
  0
LINE
  5
3B01
  8
SUNPOU
  6
CONTINUOUS
 62
     4
 10
25265.06310599998
 20
19668.486251999992
 30
0.0
 11
25265.06310599998
 21
19428.486251999992
 31
0.0
  0
LINE
  5
3B02
  8
SUNPOU
  6
CONTINUOUS
 62
     4
 10
25265.06310599998
 20
19710.983546999982
 30
0.0
 11
25265.06310599998
 21
19950.983546999982
 31
0.0
  0
LINE
  5
3B03
  8
SUNPOU
  6
CONTINUOUS
 62
     4
 10
25265.06310599998
 20
19668.486251999992
 30
0.0
 11
25265.06310599998
 21
19710.983546999982
 31
0.0
  0
LINE
  5
3B04
  8
SUNPOU
  6
CONTINUOUS
 62
     4
 10
24745.063105999991
 20
13832.486252000001
 30
0.0
 11
25345.06310599998
 21
13832.486252000001
 31
0.0
  0
LINE
  5
3B05
  8
SUNPOU
  6
CONTINUOUS
 62
     4
 10
23895.061785999991
 20
13789.988957
 30
0.0
 11
25345.06310599998
 21
13789.988957
 31
0.0
  0
LINE
  5
3B06
  8
SUNPOU
  6
CONTINUOUS
 62
     4
 10
25265.06310599998
 20
13832.486252000001
 30
0.0
 11
25265.06310599998
 21
14072.486252000001
 31
0.0
  0
LINE
  5
3B07
  8
SUNPOU
  6
CONTINUOUS
 62
     4
 10
25265.06310599998
 20
13789.988957
 30
0.0
 11
25265.06310599998
 21
13549.988957
 31
0.0
  0
LINE
  5
3B08
  8
SUNPOU
  6
CONTINUOUS
 62
     4
 10
25265.06310599998
 20
13832.486252000001
 30
0.0
 11
25265.06310599998
 21
13789.988957
 31
0.0
  0
LINE
  5
3B09
  8
SUNPOU
  6
CONTINUOUS
 62
     4
 10
23014.563502000001
 20
19790.984537000018
 30
0.0
 11
23014.563502000001
 21
20520.987440000012
 31
0.0
  0
LINE
  5
3B0A
  8
SUNPOU
  6
CONTINUOUS
 62
     4
 10
23772.564491500001
 20
19790.984537000018
 30
0.0
 11
23772.564491500001
 21
20520.987440000012
 31
0.0
  0
LINE
  5
3B0B
  8
SUNPOU
  6
CONTINUOUS
 62
     4
 10
23014.563502000001
 20
20440.987440000012
 30
0.0
 11
23772.564491500001
 21
20440.987440000012
 31
0.0
  0
LINE
  5
3B0C
  8
SUNPOU
  6
CONTINUOUS
 62
     4
 10
22313.563502000001
 20
19790.984537000018
 30
0.0
 11
22313.563502000001
 21
20520.987440000012
 31
0.0
  0
LINE
  5
3B0D
  8
SUNPOU
  6
CONTINUOUS
 62
     4
 10
23014.563502000001
 20
19790.984537000018
 30
0.0
 11
23014.563502000001
 21
20520.987440000012
 31
0.0
  0
LINE
  5
3B0E
  8
SUNPOU
  6
CONTINUOUS
 62
     4
 10
22313.563502000001
 20
20440.987440000012
 30
0.0
 11
23014.563502000001
 21
20440.987440000012
 31
0.0
  0
LINE
  5
3B0F
  8
SUNPOU
  6
CONTINUOUS
 62
     4
 10
21612.563502000001
 20
19790.984537000018
 30
0.0
 11
21612.563502000001
 21
20520.987440000012
 31
0.0
  0
LINE
  5
3B10
  8
SUNPOU
  6
CONTINUOUS
 62
     4
 10
22313.563502000001
 20
19790.984537000018
 30
0.0
 11
22313.563502000001
 21
20520.987440000012
 31
0.0
  0
LINE
  5
3B11
  8
SUNPOU
  6
CONTINUOUS
 62
     4
 10
21612.563502000001
 20
20440.987440000012
 30
0.0
 11
22313.563502000001
 21
20440.987440000012
 31
0.0
  0
LINE
  5
3B12
  8
SUNPOU
  6
CONTINUOUS
 62
     4
 10
23772.563502000001
 20
19790.984537000018
 30
0.0
 11
23772.563502000001
 21
20520.987440000012
 31
0.0
  0
LINE
  5
3B13
  8
SUNPOU
  6
CONTINUOUS
 62
     4
 10
23815.059806999991
 20
19790.984537000018
 30
0.0
 11
23815.059806999991
 21
20520.987440000012
 31
0.0
  0
LINE
  5
3B14
  8
SUNPOU
  6
CONTINUOUS
 62
     4
 10
23772.563502000001
 20
20440.987440000012
 30
0.0
 11
23532.563502000001
 21
20440.987440000012
 31
0.0
  0
LINE
  5
3B15
  8
SUNPOU
  6
CONTINUOUS
 62
     4
 10
23815.059806999991
 20
20440.987440000012
 30
0.0
 11
24055.059806999991
 21
20440.987440000012
 31
0.0
  0
LINE
  5
3B16
  8
SUNPOU
  6
CONTINUOUS
 62
     4
 10
23772.563502000001
 20
20440.987440000012
 30
0.0
 11
23815.059806999991
 21
20440.987440000012
 31
0.0
  0
LINE
  5
3B17
  8
SUNPOU
  6
CONTINUOUS
 62
     4
 10
20854.563502000001
 20
19790.984537000018
 30
0.0
 11
20854.563502000001
 21
20520.987440000012
 31
0.0
  0
LINE
  5
3B18
  8
SUNPOU
  6
CONTINUOUS
 62
     4
 10
20812.067196999989
 20
19790.984537000018
 30
0.0
 11
20812.067196999989
 21
20520.987440000012
 31
0.0
  0
LINE
  5
3B19
  8
SUNPOU
  6
CONTINUOUS
 62
     4
 10
20854.563502000001
 20
20440.987440000012
 30
0.0
 11
21094.563502000001
 21
20440.987440000012
 31
0.0
  0
LINE
  5
3B1A
  8
SUNPOU
  6
CONTINUOUS
 62
     4
 10
20812.067196999989
 20
20440.987440000012
 30
0.0
 11
20572.067196999989
 21
20440.987440000012
 31
0.0
  0
LINE
  5
3B1B
  8
SUNPOU
  6
CONTINUOUS
 62
     4
 10
20854.563502000001
 20
20440.987440000012
 30
0.0
 11
20812.067196999989
 21
20440.987440000012
 31
0.0
  0
TEXT
  5
3B1C
  8
0
  6
CONTINUOUS
 62
     7
 10
20251.751522471179
 20
20520.987440000012
 30
0.0
 40
160.0
  1
42.5
  0
TEXT
  5
3B1D
  8
0
  6
CONTINUOUS
 62
     7
 10
23895.37548152879
 20
20520.987440000012
 30
0.0
 40
160.0
  1
42.5
  0
TEXT
  5
3B1E
  8
0
  6
CONTINUOUS
 62
     7
 10
21789.730168666661
 20
20520.987440000012
 30
0.0
 40
160.0
  1
701
  0
TEXT
  5
3B1F
  8
0
  6
CONTINUOUS
 62
     7
 10
22490.730168666661
 20
20520.987440000012
 30
0.0
 40
160.0
  1
701
  0
TEXT
  5
3B20
  8
0
  6
CONTINUOUS
 62
     7
 10
23180.23066341666
 20
20520.987440000012
 30
0.0
 40
160.0
  1
758
  0
TEXT
  5
3B21
  8
0
  6
CONTINUOUS
 62
     7
 10
25185.06310599998
 20
13216.43272060321
 30
0.0
 40
160.0
  1
42.5
 50
90.0
  0
TEXT
  5
3B22
  8
0
  6
CONTINUOUS
 62
     7
 10
25185.06310599998
 20
19804.539783396791
 30
0.0
 40
160.0
  1
42.5
 50
90.0
  0
TEXT
  5
3B23
  8
0
  6
CONTINUOUS
 62
     7
 10
25585.063105999991
 20
16483.819585333331
 30
0.0
 40
160.0
  1
5921
 50
90.0
  0
TEXT
  5
3B24
  8
0
  6
CONTINUOUS
 62
     7
 10
25185.06310599998
 20
15024.819585333331
 30
0.0
 40
160.0
  1
2918
 50
90.0
  0
TEXT
  5
3B25
  8
0
  6
CONTINUOUS
 62
     7
 10
25185.06310599998
 20
17942.819585333331
 30
0.0
 40
160.0
  1
2918
 50
90.0
  0
TEXT
  5
3B26
  8
0
  6
CONTINUOUS
 62
     7
 10
24785.063105999991
 20
19076.15291866667
 30
0.0
 40
160.0
  1
758
 50
90.0
  0
TEXT
  5
3B27
  8
0
  6
CONTINUOUS
 62
     7
 10
24785.063105999991
 20
18386.652918666659
 30
0.0
 40
160.0
  1
701
 50
90.0
  0
TEXT
  5
3B28
  8
0
  6
CONTINUOUS
 62
     7
 10
24785.063105999991
 20
17685.65291866667
 30
0.0
 40
160.0
  1
701
 50
90.0
  0
TEXT
  5
3B29
  8
0
  6
CONTINUOUS
 62
     7
 10
24785.063105999991
 20
16916.15291866667
 30
0.0
 40
160.0
  1
758
 50
90.0
  0
TEXT
  5
3B2A
  8
0
  6
CONTINUOUS
 62
     7
 10
24785.063105999991
 20
16158.15291866667
 30
0.0
 40
160.0
  1
758
 50
90.0
  0
TEXT
  5
3B2B
  8
0
  6
CONTINUOUS
 62
     7
 10
24785.063105999991
 20
15468.773174416679
 30
0.0
 40
160.0
  1
701
 50
90.0
  0
TEXT
  5
3B2C
  8
0
  6
CONTINUOUS
 62
     7
 10
24785.063105999991
 20
14767.773174416679
 30
0.0
 40
160.0
  1
701
 50
90.0
  0
TEXT
  5
3B2D
  8
0
  6
CONTINUOUS
 62
     7
 10
24785.063105999991
 20
13998.15291866667
 30
0.0
 40
160.0
  1
758
 50
90.0
  0
TEXT
  5
3B2E
  8
0
  6
CONTINUOUS
 62
     7
 10
22046.896835333329
 20
12541.038167999999
 30
0.0
 40
160.0
  1
3003
  0
TEXT
  5
3B2F
  8
0
  6
CONTINUOUS
 62
     7
 10
20972.617174382081
 20
12941.038167999999
 30
0.0
 40
160.0
  1
42.5
  0
TEXT
  5
3B30
  8
0
  6
CONTINUOUS
 62
     7
 10
23174.509829617891
 20
12941.038167999999
 30
0.0
 40
160.0
  1
42.5
  0
TEXT
  5
3B31
  8
0
  6
CONTINUOUS
 62
     7
 10
23890.617174382081
 20
12941.038167999999
 30
0.0
 40
160.0
  1
42.5
  0
TEXT
  5
3B32
  8
0
  6
CONTINUOUS
 62
     7
 10
20256.509829617891
 20
12941.038167999999
 30
0.0
 40
160.0
  1
42.5
  0
TEXT
  5
3B33
  8
0
  6
CONTINUOUS
 62
     7
 10
19845.10892499999
 20
14295.43984108334
 30
0.0
 40
160.0
  1
1459
 50
90.0
  0
TEXT
  5
3B34
  8
0
  6
CONTINUOUS
 62
     7
 10
19845.10892499999
 20
15754.43984108334
 30
0.0
 40
160.0
  1
1459
 50
90.0
  0
TEXT
  5
3B35
  8
0
  6
CONTINUOUS
 62
     7
 10
19845.10892499999
 20
17213.319585333331
 30
0.0
 40
160.0
  1
1459
 50
90.0
  0
TEXT
  5
3B36
  8
0
  6
CONTINUOUS
 62
     7
 10
19845.10892499999
 20
18672.319585333309
 30
0.0
 40
160.0
  1
1459
 50
90.0
  0
TEXT
  5
3B37
  8
0
  6
CONTINUOUS
 62
     7
 10
13806.400254333321
 20
5347.922928
 30
0.0
 40
160.0
  1
2918
  0
TEXT
  5
3B38
  8
0
  6
CONTINUOUS
 62
     7
 10
10888.400254333321
 20
5347.922928
 30
0.0
 40
160.0
  1
2918
  0
TEXT
  5
3B39
  8
0
  6
CONTINUOUS
 62
     7
 10
9056.3932119036836
 20
5347.922928
 30
0.0
 40
160.0
  1
42.5
  0
TEXT
  5
3B3A
  8
0
  6
CONTINUOUS
 62
     7
 10
15712.88555830981
 20
5347.922928
 30
0.0
 40
160.0
  1
42.5
  0
TEXT
  5
3B3B
  8
0
  6
CONTINUOUS
 62
     7
 10
12347.400254333321
 20
4947.9230930000012
 30
0.0
 40
160.0
  1
5921
  0
TEXT
  5
3B3C
  8
0
  6
CONTINUOUS
 62
     7
 10
16584.56632599996
 20
6723.5065913333337
 30
0.0
 40
160.0
  1
2348.5（2588.5）
 50
90.0
  0
TEXT
  5
3B3D
  8
0
  6
CONTINUOUS
 62
     7
 10
8483.5685029999859
 20
6654.1732579999998
 30
0.0
 40
160.0
  1
2156.5（2396.5）
 50
90.0
  0
TEXT
  5
3B3E
  8
0
  6
CONTINUOUS
 62
     7
 10
9060.2335876666566
 20
9795.9239440000001
 30
0.0
 40
160.0
  1
180
  0
TEXT
  5
3B3F
  8
0
  6
CONTINUOUS
 62
     7
 10
12347.400253833321
 20
9795.9239440000001
 30
0.0
 40
160.0
  1
5921
  0
TEXT
  5
3B40
  8
0
  6
CONTINUOUS
 62
     7
 10
15791.23358766666
 20
9795.9239440000001
 30
0.0
 40
160.0
  1
150
  0
TEXT
  5
3B41
  8
0
  6
CONTINUOUS
 62
     7
 10
12332.400254333321
 20
10195.922293999991
 30
0.0
 40
160.0
  1
6251
  0
TEXT
  5
3B42
  8
0
  6
CONTINUOUS
 62
     7
 10
22046.896835333329
 20
4947.9240830000008
 30
0.0
 40
160.0
  1
3003
  0
TEXT
  5
3B43
  8
0
  6
CONTINUOUS
 62
     7
 10
20246.024511741161
 20
5347.9239180000041
 30
0.0
 40
160.0
  1
42.5
  0
TEXT
  5
3B44
  8
0
  6
CONTINUOUS
 62
     7
 10
22046.896835333329
 20
5347.9239180000041
 30
0.0
 40
160.0
  1
2918
  0
TEXT
  5
3B45
  8
0
  6
CONTINUOUS
 62
     7
 10
21505.563502000001
 20
5747.923918000005
 30
0.0
 40
160.0
  1
有効開口巾 2730
  0
TEXT
  5
3B46
  8
0
  6
CONTINUOUS
 62
     7
 10
23901.10249225884
 20
5347.9239180000041
 30
0.0
 40
160.0
  1
42.5
  0
TEXT
  5
3B4B
  8
0
  6
CONTINUOUS
 62
     7
 10
19524.559872999991
 20
6723.5070993333338
 30
0.0
 40
160.0
  1
2348.5（2588.5）
 50
90.0
  0
TEXT
  5
3B4C
  8
0
  6
CONTINUOUS
 62
     7
 10
19924.562181999991
 20
6631.9029912912747
 30
0.0
 40
160.0
  1
有効開口高サ 1891.5
 50
90.0
  0
TEXT
  5
3B4D
  8
0
  6
CONTINUOUS
 62
     7
 10
21020.230168666669
 20
20520.987440000012
 30
0.0
 40
160.0
  1
758
  0
TEXT
  5
3B4E
  8
0
  6
CONTINUOUS
 62
     7
 10
12676.934222333341
 20
20520.989419000009
 30
0.0
 40
160.0
  1
2918
  0
TEXT
  5
3B4F
  8
0
  6
CONTINUOUS
 62
     7
 10
14539.100564023271
 20
20520.989419000009
 30
0.0
 40
160.0
  1
85.5
  0
TEXT
  5
3B50
  8
0
  6
CONTINUOUS
 62
     7
 10
10868.10121397673
 20
20520.989419000009
 30
0.0
 40
160.0
  1
85.5
  0
TEXT
  5
3B51
  8
0
  6
CONTINUOUS
 62
     7
 10
10475.09863799999
 20
18672.319585333309
 30
0.0
 40
160.0
  1
1459
 50
90.0
  0
TEXT
  5
3B52
  8
0
  6
CONTINUOUS
 62
     7
 10
10475.09863799999
 20
19979.941436807669
 30
0.0
 40
160.0
  1
222.5
 50
90.0
  0
TEXT
  5
3B53
  8
0
  6
CONTINUOUS
 62
     7
 10
10875.09863799999
 20
20010.982161000022
 30
0.0
 40
160.0
  1
20
 50
90.0
  0
TEXT
  5
3B54
  8
0
  6
CONTINUOUS
 62
     7
 10
10475.09863799999
 20
17213.319585333331
 30
0.0
 40
160.0
  1
1459
 50
90.0
  0
TEXT
  5
3B55
  8
0
  6
CONTINUOUS
 62
     7
 10
10475.09863799999
 20
15754.43984108334
 30
0.0
 40
160.0
  1
1459
 50
90.0
  0
TEXT
  5
3B56
  8
0
  6
CONTINUOUS
 62
     7
 10
10475.09863799999
 20
14295.43984108334
 30
0.0
 40
160.0
  1
1459
 50
90.0
  0
TEXT
  5
3B57
  8
0
  6
CONTINUOUS
 62
     7
 10
10475.09863799999
 20
13024.53324170262
 30
0.0
 40
160.0
  1
192.5
 50
90.0
  0
ARC
  5
3B5D
  8
0
  6
BYBLOCK
 62
     0
 10
10555.09863799999
 20
13832.486252000001
 30
0.0
 40
15.0
 50
90.0
 51
270.0
  0
ARC
  5
3B5E
  8
0
  6
BYBLOCK
 62
     0
 10
10555.09863799999
 20
13832.486252000001
 30
0.0
 40
15.0
 50
270.0
 51
90.0
  0
ARC
  5
3B5F
  8
0
  6
BYBLOCK
 62
     0
 10
10555.09863799999
 20
13639.990937
 30
0.0
 40
15.0
 50
270.0
 51
90.0
  0
ARC
  5
3B60
  8
0
  6
BYBLOCK
 62
     0
 10
10555.09863799999
 20
13639.990937
 30
0.0
 40
15.0
 50
90.0
 51
270.0
  0
ARC
  5
3B61
  8
0
  6
BYBLOCK
 62
     0
 10
10555.09863799999
 20
15291.72676350001
 30
0.0
 40
15.0
 50
270.0
 51
90.0
  0
ARC
  5
3B62
  8
0
  6
BYBLOCK
 62
     0
 10
10555.09863799999
 20
15291.72676350001
 30
0.0
 40
15.0
 50
90.0
 51
270.0
  0
ARC
  5
3B63
  8
0
  6
BYBLOCK
 62
     0
 10
10555.09863799999
 20
13832.486252000001
 30
0.0
 40
15.0
 50
90.0
 51
270.0
  0
ARC
  5
3B64
  8
0
  6
BYBLOCK
 62
     0
 10
10555.09863799999
 20
13832.486252000001
 30
0.0
 40
15.0
 50
270.0
 51
90.0
  0
ARC
  5
3B65
  8
0
  6
BYBLOCK
 62
     0
 10
10555.09863799999
 20
16750.486251999992
 30
0.0
 40
15.0
 50
270.0
 51
90.0
  0
ARC
  5
3B66
  8
0
  6
BYBLOCK
 62
     0
 10
10555.09863799999
 20
16750.486251999992
 30
0.0
 40
15.0
 50
90.0
 51
270.0
  0
ARC
  5
3B67
  8
0
  6
BYBLOCK
 62
     0
 10
10555.09863799999
 20
15291.72676350001
 30
0.0
 40
15.0
 50
90.0
 51
270.0
  0
ARC
  5
3B68
  8
0
  6
BYBLOCK
 62
     0
 10
10555.09863799999
 20
15291.72676350001
 30
0.0
 40
15.0
 50
270.0
 51
90.0
  0
ARC
  5
3B69
  8
0
  6
BYBLOCK
 62
     0
 10
10555.09863799999
 20
18209.486251999992
 30
0.0
 40
15.0
 50
270.0
 51
90.0
  0
ARC
  5
3B6A
  8
0
  6
BYBLOCK
 62
     0
 10
10555.09863799999
 20
18209.486251999992
 30
0.0
 40
15.0
 50
90.0
 51
270.0
  0
ARC
  5
3B6B
  8
0
  6
BYBLOCK
 62
     0
 10
10555.09863799999
 20
16750.486251999992
 30
0.0
 40
15.0
 50
90.0
 51
270.0
  0
ARC
  5
3B6C
  8
0
  6
BYBLOCK
 62
     0
 10
10555.09863799999
 20
16750.486251999992
 30
0.0
 40
15.0
 50
270.0
 51
90.0
  0
ARC
  5
3B6D
  8
0
  6
BYBLOCK
 62
     0
 10
10955.09863799999
 20
19870.982161000022
 30
0.0
 40
15.0
 50
270.0
 51
90.0
  0
ARC
  5
3B6E
  8
0
  6
BYBLOCK
 62
     0
 10
10955.09863799999
 20
19870.982161000022
 30
0.0
 40
15.0
 50
90.0
 51
270.0
  0
ARC
  5
3B6F
  8
0
  6
BYBLOCK
 62
     0
 10
10955.09863799999
 20
19890.982161000022
 30
0.0
 40
15.0
 50
90.0
 51
270.0
  0
ARC
  5
3B70
  8
0
  6
BYBLOCK
 62
     0
 10
10955.09863799999
 20
19890.982161000022
 30
0.0
 40
15.0
 50
270.0
 51
90.0
  0
ARC
  5
3B71
  8
0
  6
BYBLOCK
 62
     0
 10
10555.09863799999
 20
19668.486251999992
 30
0.0
 40
15.0
 50
270.0
 51
90.0
  0
ARC
  5
3B72
  8
0
  6
BYBLOCK
 62
     0
 10
10555.09863799999
 20
19668.486251999992
 30
0.0
 40
15.0
 50
90.0
 51
270.0
  0
ARC
  5
3B73
  8
0
  6
BYBLOCK
 62
     0
 10
10555.09863799999
 20
19890.982161000022
 30
0.0
 40
15.0
 50
90.0
 51
270.0
  0
ARC
  5
3B74
  8
0
  6
BYBLOCK
 62
     0
 10
10555.09863799999
 20
19890.982161000022
 30
0.0
 40
15.0
 50
270.0
 51
90.0
  0
ARC
  5
3B75
  8
0
  6
BYBLOCK
 62
     0
 10
10555.09863799999
 20
18209.486251999992
 30
0.0
 40
15.0
 50
90.0
 51
270.0
  0
ARC
  5
3B76
  8
0
  6
BYBLOCK
 62
     0
 10
10555.09863799999
 20
18209.486251999992
 30
0.0
 40
15.0
 50
270.0
 51
90.0
  0
ARC
  5
3B77
  8
0
  6
BYBLOCK
 62
     0
 10
10555.09863799999
 20
19668.486251999992
 30
0.0
 40
15.0
 50
270.0
 51
90.0
  0
ARC
  5
3B78
  8
0
  6
BYBLOCK
 62
     0
 10
10555.09863799999
 20
19668.486251999992
 30
0.0
 40
15.0
 50
90.0
 51
270.0
  0
ARC
  5
3B79
  8
0
  6
BYBLOCK
 62
     0
 10
11484.59792
 20
20440.989419000009
 30
0.0
 40
15.0
 50
0.0
 51
180.0
  0
ARC
  5
3B7A
  8
0
  6
BYBLOCK
 62
     0
 10
11484.59792
 20
20440.989419000009
 30
0.0
 40
15.0
 50
180.0
 51
0.0
  0
ARC
  5
3B7B
  8
0
  6
BYBLOCK
 62
     0
 10
11399.09792
 20
20440.989419000009
 30
0.0
 40
15.0
 50
180.0
 51
0.0
  0
ARC
  5
3B7C
  8
0
  6
BYBLOCK
 62
     0
 10
11399.09792
 20
20440.989419000009
 30
0.0
 40
15.0
 50
0.0
 51
180.0
  0
ARC
  5
3B7D
  8
0
  6
BYBLOCK
 62
     0
 10
14402.603858
 20
20440.989419000009
 30
0.0
 40
15.0
 50
180.0
 51
0.0
  0
ARC
  5
3B7E
  8
0
  6
BYBLOCK
 62
     0
 10
14402.603858
 20
20440.989419000009
 30
0.0
 40
15.0
 50
0.0
 51
180.0
  0
ARC
  5
3B7F
  8
0
  6
BYBLOCK
 62
     0
 10
14488.103858
 20
20440.989419000009
 30
0.0
 40
15.0
 50
0.0
 51
180.0
  0
ARC
  5
3B80
  8
0
  6
BYBLOCK
 62
     0
 10
14488.103858
 20
20440.989419000009
 30
0.0
 40
15.0
 50
180.0
 51
0.0
  0
ARC
  5
3B81
  8
0
  6
BYBLOCK
 62
     0
 10
14402.603858
 20
20440.989419000009
 30
0.0
 40
15.0
 50
180.0
 51
0.0
  0
ARC
  5
3B82
  8
0
  6
BYBLOCK
 62
     0
 10
14402.603858
 20
20440.989419000009
 30
0.0
 40
15.0
 50
0.0
 51
180.0
  0
ARC
  5
3B83
  8
0
  6
BYBLOCK
 62
     0
 10
11484.59791999998
 20
20440.989419000009
 30
0.0
 40
15.0
 50
0.0
 51
180.0
  0
ARC
  5
3B84
  8
0
  6
BYBLOCK
 62
     0
 10
11484.59791999998
 20
20440.989419000009
 30
0.0
 40
15.0
 50
180.0
 51
0.0
  0
ARC
  5
3B85
  8
0
  6
BYBLOCK
 62
     0
 10
21612.563502000001
 20
20440.987440000012
 30
0.0
 40
15.0
 50
180.0
 51
0.0
  0
ARC
  5
3B86
  8
0
  6
BYBLOCK
 62
     0
 10
21612.563502000001
 20
20440.987440000012
 30
0.0
 40
15.0
 50
0.0
 51
180.0
  0
ARC
  5
3B87
  8
0
  6
BYBLOCK
 62
     0
 10
20854.563502000001
 20
20440.987440000012
 30
0.0
 40
15.0
 50
0.0
 51
180.0
  0
ARC
  5
3B88
  8
0
  6
BYBLOCK
 62
     0
 10
20854.563502000001
 20
20440.987440000012
 30
0.0
 40
15.0
 50
180.0
 51
0.0
  0
ARC
  5
3B89
  8
0
  6
BYBLOCK
 62
     0
 10
20004.562182000001
 20
6567.9237529999991
 30
0.0
 40
15.0
 50
90.0
 51
270.0
  0
ARC
  5
3B8A
  8
0
  6
BYBLOCK
 62
     0
 10
20004.562182000001
 20
6567.9237529999991
 30
0.0
 40
15.0
 50
270.0
 51
90.0
  0
ARC
  5
3B8B
  8
0
  6
BYBLOCK
 62
     0
 10
20004.562182000001
 20
8459.4237530000028
 30
0.0
 40
15.0
 50
270.0
 51
90.0
  0
ARC
  5
3B8C
  8
0
  6
BYBLOCK
 62
     0
 10
20004.562182000001
 20
8459.4237530000028
 30
0.0
 40
15.0
 50
90.0
 51
270.0
  0
ARC
  5
3B8D
  8
0
  6
BYBLOCK
 62
     0
 10
19604.559872999991
 20
6567.9237529999991
 30
0.0
 40
15.0
 50
90.0
 51
270.0
  0
ARC
  5
3B8E
  8
0
  6
BYBLOCK
 62
     0
 10
19604.559872999991
 20
6567.9237529999991
 30
0.0
 40
15.0
 50
270.0
 51
90.0
  0
ARC
  5
3B8F
  8
0
  6
BYBLOCK
 62
     0
 10
19604.559872999991
 20
8916.4237789999952
 30
0.0
 40
15.0
 50
270.0
 51
90.0
  0
ARC
  5
3B90
  8
0
  6
BYBLOCK
 62
     0
 10
19604.559872999991
 20
8916.4237789999952
 30
0.0
 40
15.0
 50
90.0
 51
270.0
  0
ARC
  5
3BA1
  8
0
  6
BYBLOCK
 62
     0
 10
23772.563502000001
 20
5267.9239180000041
 30
0.0
 40
15.0
 50
180.0
 51
0.0
  0
ARC
  5
3BA2
  8
0
  6
BYBLOCK
 62
     0
 10
23772.563502000001
 20
5267.9239180000041
 30
0.0
 40
15.0
 50
0.0
 51
180.0
  0
ARC
  5
3BA3
  8
0
  6
BYBLOCK
 62
     0
 10
23815.063502000001
 20
5267.9239180000041
 30
0.0
 40
15.0
 50
0.0
 51
180.0
  0
ARC
  5
3BA4
  8
0
  6
BYBLOCK
 62
     0
 10
23815.063502000001
 20
5267.9239180000041
 30
0.0
 40
15.0
 50
180.0
 51
0.0
  0
ARC
  5
3BA5
  8
0
  6
BYBLOCK
 62
     0
 10
20948.563502000001
 20
5667.9239180000041
 30
0.0
 40
15.0
 50
0.0
 51
180.0
  0
ARC
  5
3BA6
  8
0
  6
BYBLOCK
 62
     0
 10
20948.563502000001
 20
5667.9239180000041
 30
0.0
 40
15.0
 50
180.0
 51
0.0
  0
ARC
  5
3BA7
  8
0
  6
BYBLOCK
 62
     0
 10
23678.563502000001
 20
5667.9239180000041
 30
0.0
 40
15.0
 50
180.0
 51
0.0
  0
ARC
  5
3BA8
  8
0
  6
BYBLOCK
 62
     0
 10
23678.563502000001
 20
5667.9239180000041
 30
0.0
 40
15.0
 50
0.0
 51
180.0
  0
ARC
  5
3BA9
  8
0
  6
BYBLOCK
 62
     0
 10
20854.563502000001
 20
5267.9239180000041
 30
0.0
 40
15.0
 50
0.0
 51
180.0
  0
ARC
  5
3BAA
  8
0
  6
BYBLOCK
 62
     0
 10
20854.563502000001
 20
5267.9239180000041
 30
0.0
 40
15.0
 50
180.0
 51
0.0
  0
ARC
  5
3BAB
  8
0
  6
BYBLOCK
 62
     0
 10
23772.563502000001
 20
5267.9239180000041
 30
0.0
 40
15.0
 50
180.0
 51
0.0
  0
ARC
  5
3BAC
  8
0
  6
BYBLOCK
 62
     0
 10
23772.563502000001
 20
5267.9239180000041
 30
0.0
 40
15.0
 50
0.0
 51
180.0
  0
ARC
  5
3BAD
  8
0
  6
BYBLOCK
 62
     0
 10
20854.563502000001
 20
5267.9239180000041
 30
0.0
 40
15.0
 50
0.0
 51
180.0
  0
ARC
  5
3BAE
  8
0
  6
BYBLOCK
 62
     0
 10
20854.563502000001
 20
5267.9239180000041
 30
0.0
 40
15.0
 50
180.0
 51
0.0
  0
ARC
  5
3BAF
  8
0
  6
BYBLOCK
 62
     0
 10
20812.06350199999
 20
5267.9239180000041
 30
0.0
 40
15.0
 50
180.0
 51
0.0
  0
ARC
  5
3BB0
  8
0
  6
BYBLOCK
 62
     0
 10
20812.06350199999
 20
5267.9239180000041
 30
0.0
 40
15.0
 50
0.0
 51
180.0
  0
ARC
  5
3BB1
  8
0
  6
BYBLOCK
 62
     0
 10
20812.06350199999
 20
4867.9240830000008
 30
0.0
 40
15.0
 50
0.0
 51
180.0
  0
ARC
  5
3BB2
  8
0
  6
BYBLOCK
 62
     0
 10
20812.06350199999
 20
4867.9240830000008
 30
0.0
 40
15.0
 50
180.0
 51
0.0
  0
ARC
  5
3BB3
  8
0
  6
BYBLOCK
 62
     0
 10
23815.063502000001
 20
4867.9240830000008
 30
0.0
 40
15.0
 50
180.0
 51
0.0
  0
ARC
  5
3BB4
  8
0
  6
BYBLOCK
 62
     0
 10
23815.063502000001
 20
4867.9240830000008
 30
0.0
 40
15.0
 50
0.0
 51
180.0
  0
ARC
  5
3BB5
  8
0
  6
BYBLOCK
 62
     0
 10
9473.5669209999905
 20
10115.922293999991
 30
0.0
 40
15.0
 50
0.0
 51
180.0
  0
ARC
  5
3BB6
  8
0
  6
BYBLOCK
 62
     0
 10
9473.5669209999905
 20
10115.922293999991
 30
0.0
 40
15.0
 50
180.0
 51
0.0
  0
ARC
  5
3BB7
  8
0
  6
BYBLOCK
 62
     0
 10
15724.566920999991
 20
10115.922293999991
 30
0.0
 40
15.0
 50
180.0
 51
0.0
  0
ARC
  5
3BB8
  8
0
  6
BYBLOCK
 62
     0
 10
15724.566920999991
 20
10115.922293999991
 30
0.0
 40
15.0
 50
0.0
 51
180.0
  0
ARC
  5
3BB9
  8
0
  6
BYBLOCK
 62
     0
 10
15574.568173999991
 20
9715.9239440000001
 30
0.0
 40
15.0
 50
180.0
 51
0.0
  0
ARC
  5
3BBA
  8
0
  6
BYBLOCK
 62
     0
 10
15574.568173999991
 20
9715.9239440000001
 30
0.0
 40
15.0
 50
0.0
 51
180.0
  0
ARC
  5
3BBB
  8
0
  6
BYBLOCK
 62
     0
 10
15724.566920999991
 20
9715.9239440000001
 30
0.0
 40
15.0
 50
0.0
 51
180.0
  0
ARC
  5
3BBC
  8
0
  6
BYBLOCK
 62
     0
 10
15724.566920999991
 20
9715.9239440000001
 30
0.0
 40
15.0
 50
180.0
 51
0.0
  0
ARC
  5
3BBD
  8
0
  6
BYBLOCK
 62
     0
 10
9653.565666999988
 20
9715.9239440000001
 30
0.0
 40
15.0
 50
0.0
 51
180.0
  0
ARC
  5
3BBE
  8
0
  6
BYBLOCK
 62
     0
 10
9653.565666999988
 20
9715.9239440000001
 30
0.0
 40
15.0
 50
180.0
 51
0.0
  0
ARC
  5
3BBF
  8
0
  6
BYBLOCK
 62
     0
 10
15574.568173999991
 20
9715.9239440000001
 30
0.0
 40
15.0
 50
180.0
 51
0.0
  0
ARC
  5
3BC0
  8
0
  6
BYBLOCK
 62
     0
 10
15574.568173999991
 20
9715.9239440000001
 30
0.0
 40
15.0
 50
0.0
 51
180.0
  0
ARC
  5
3BC1
  8
0
  6
BYBLOCK
 62
     0
 10
9473.5669209999905
 20
9715.9239439999983
 30
0.0
 40
15.0
 50
180.0
 51
0.0
  0
ARC
  5
3BC2
  8
0
  6
BYBLOCK
 62
     0
 10
9473.5669209999905
 20
9715.9239439999983
 30
0.0
 40
15.0
 50
0.0
 51
180.0
  0
ARC
  5
3BC3
  8
0
  6
BYBLOCK
 62
     0
 10
9653.565666999988
 20
9715.9239439999983
 30
0.0
 40
15.0
 50
0.0
 51
180.0
  0
ARC
  5
3BC4
  8
0
  6
BYBLOCK
 62
     0
 10
9653.565666999988
 20
9715.9239439999983
 30
0.0
 40
15.0
 50
180.0
 51
0.0
  0
ARC
  5
3BC5
  8
0
  6
BYBLOCK
 62
     0
 10
8563.5685029999859
 20
6567.9232579999989
 30
0.0
 40
15.0
 50
90.0
 51
270.0
  0
ARC
  5
3BC6
  8
0
  6
BYBLOCK
 62
     0
 10
8563.5685029999859
 20
6567.9232579999989
 30
0.0
 40
15.0
 50
270.0
 51
90.0
  0
ARC
  5
3BC7
  8
0
  6
BYBLOCK
 62
     0
 10
8563.5685029999859
 20
8724.4232579999989
 30
0.0
 40
15.0
 50
270.0
 51
90.0
  0
ARC
  5
3BC8
  8
0
  6
BYBLOCK
 62
     0
 10
8563.5685029999859
 20
8724.4232579999989
 30
0.0
 40
15.0
 50
90.0
 51
270.0
  0
ARC
  5
3BC9
  8
0
  6
BYBLOCK
 62
     0
 10
16664.56632599996
 20
6567.9232579999989
 30
0.0
 40
15.0
 50
90.0
 51
270.0
  0
ARC
  5
3BCA
  8
0
  6
BYBLOCK
 62
     0
 10
16664.56632599996
 20
6567.9232579999989
 30
0.0
 40
15.0
 50
270.0
 51
90.0
  0
ARC
  5
3BCB
  8
0
  6
BYBLOCK
 62
     0
 10
16664.56632599996
 20
8916.4232580000007
 30
0.0
 40
15.0
 50
270.0
 51
90.0
  0
ARC
  5
3BCC
  8
0
  6
BYBLOCK
 62
     0
 10
16664.56632599996
 20
8916.4232580000007
 30
0.0
 40
15.0
 50
90.0
 51
270.0
  0
ARC
  5
3BCD
  8
0
  6
BYBLOCK
 62
     0
 10
9653.5669209999924
 20
4867.9230930000012
 30
0.0
 40
15.0
 50
0.0
 51
180.0
  0
ARC
  5
3BCE
  8
0
  6
BYBLOCK
 62
     0
 10
9653.5669209999924
 20
4867.9230930000012
 30
0.0
 40
15.0
 50
180.0
 51
0.0
  0
ARC
  5
3BCF
  8
0
  6
BYBLOCK
 62
     0
 10
15574.566920999991
 20
4867.9230930000012
 30
0.0
 40
15.0
 50
180.0
 51
0.0
  0
ARC
  5
3BD0
  8
0
  6
BYBLOCK
 62
     0
 10
15574.566920999991
 20
4867.9230930000012
 30
0.0
 40
15.0
 50
0.0
 51
180.0
  0
ARC
  5
3BD1
  8
0
  6
BYBLOCK
 62
     0
 10
15532.066920999991
 20
5267.922928
 30
0.0
 40
15.0
 50
180.0
 51
0.0
  0
ARC
  5
3BD2
  8
0
  6
BYBLOCK
 62
     0
 10
15532.066920999991
 20
5267.922928
 30
0.0
 40
15.0
 50
0.0
 51
180.0
  0
ARC
  5
3BD3
  8
0
  6
BYBLOCK
 62
     0
 10
15574.566920999991
 20
5267.922928
 30
0.0
 40
15.0
 50
0.0
 51
180.0
  0
ARC
  5
3BD4
  8
0
  6
BYBLOCK
 62
     0
 10
15574.566920999991
 20
5267.922928
 30
0.0
 40
15.0
 50
180.0
 51
0.0
  0
ARC
  5
3BD5
  8
0
  6
BYBLOCK
 62
     0
 10
9696.0669209999924
 20
5267.922928
 30
0.0
 40
15.0
 50
0.0
 51
180.0
  0
ARC
  5
3BD6
  8
0
  6
BYBLOCK
 62
     0
 10
9696.0669209999924
 20
5267.922928
 30
0.0
 40
15.0
 50
180.0
 51
0.0
  0
ARC
  5
3BD7
  8
0
  6
BYBLOCK
 62
     0
 10
9653.5669209999924
 20
5267.922928
 30
0.0
 40
15.0
 50
180.0
 51
0.0
  0
ARC
  5
3BD8
  8
0
  6
BYBLOCK
 62
     0
 10
9653.5669209999924
 20
5267.922928
 30
0.0
 40
15.0
 50
0.0
 51
180.0
  0
ARC
  5
3BD9
  8
0
  6
BYBLOCK
 62
     0
 10
12614.066920999991
 20
5267.922928
 30
0.0
 40
15.0
 50
180.0
 51
0.0
  0
ARC
  5
3BDA
  8
0
  6
BYBLOCK
 62
     0
 10
12614.066920999991
 20
5267.922928
 30
0.0
 40
15.0
 50
0.0
 51
180.0
  0
ARC
  5
3BDB
  8
0
  6
BYBLOCK
 62
     0
 10
9696.0669209999924
 20
5267.922928
 30
0.0
 40
15.0
 50
0.0
 51
180.0
  0
ARC
  5
3BDC
  8
0
  6
BYBLOCK
 62
     0
 10
9696.0669209999924
 20
5267.922928
 30
0.0
 40
15.0
 50
180.0
 51
0.0
  0
ARC
  5
3BDD
  8
0
  6
BYBLOCK
 62
     0
 10
12614.066920999991
 20
5267.922928
 30
0.0
 40
15.0
 50
0.0
 51
180.0
  0
ARC
  5
3BDE
  8
0
  6
BYBLOCK
 62
     0
 10
12614.066920999991
 20
5267.922928
 30
0.0
 40
15.0
 50
180.0
 51
0.0
  0
ARC
  5
3BDF
  8
0
  6
BYBLOCK
 62
     0
 10
15532.066920999991
 20
5267.922928
 30
0.0
 40
15.0
 50
180.0
 51
0.0
  0
ARC
  5
3BE0
  8
0
  6
BYBLOCK
 62
     0
 10
15532.066920999991
 20
5267.922928
 30
0.0
 40
15.0
 50
0.0
 51
180.0
  0
ARC
  5
3BE1
  8
0
  6
BYBLOCK
 62
     0
 10
19925.108925
 20
18209.486251999992
 30
0.0
 40
15.0
 50
90.0
 51
270.0
  0
ARC
  5
3BE2
  8
0
  6
BYBLOCK
 62
     0
 10
19925.108925
 20
18209.486251999992
 30
0.0
 40
15.0
 50
270.0
 51
90.0
  0
ARC
  5
3BE3
  8
0
  6
BYBLOCK
 62
     0
 10
19925.108925
 20
19668.486251999992
 30
0.0
 40
15.0
 50
270.0
 51
90.0
  0
ARC
  5
3BE4
  8
0
  6
BYBLOCK
 62
     0
 10
19925.108925
 20
19668.486251999992
 30
0.0
 40
15.0
 50
90.0
 51
270.0
  0
ARC
  5
3BE5
  8
0
  6
BYBLOCK
 62
     0
 10
19925.108925
 20
16750.486251999992
 30
0.0
 40
15.0
 50
90.0
 51
270.0
  0
ARC
  5
3BE6
  8
0
  6
BYBLOCK
 62
     0
 10
19925.108925
 20
16750.486251999992
 30
0.0
 40
15.0
 50
270.0
 51
90.0
  0
ARC
  5
3BE7
  8
0
  6
BYBLOCK
 62
     0
 10
19925.108925
 20
18209.486251999992
 30
0.0
 40
15.0
 50
270.0
 51
90.0
  0
ARC
  5
3BE8
  8
0
  6
BYBLOCK
 62
     0
 10
19925.108925
 20
18209.486251999992
 30
0.0
 40
15.0
 50
90.0
 51
270.0
  0
ARC
  5
3BE9
  8
0
  6
BYBLOCK
 62
     0
 10
19925.108925
 20
15291.72676350001
 30
0.0
 40
15.0
 50
90.0
 51
270.0
  0
ARC
  5
3BEA
  8
0
  6
BYBLOCK
 62
     0
 10
19925.108925
 20
15291.72676350001
 30
0.0
 40
15.0
 50
270.0
 51
90.0
  0
ARC
  5
3BEB
  8
0
  6
BYBLOCK
 62
     0
 10
19925.108925
 20
16750.486251999992
 30
0.0
 40
15.0
 50
270.0
 51
90.0
  0
ARC
  5
3BEC
  8
0
  6
BYBLOCK
 62
     0
 10
19925.108925
 20
16750.486251999992
 30
0.0
 40
15.0
 50
90.0
 51
270.0
  0
ARC
  5
3BED
  8
0
  6
BYBLOCK
 62
     0
 10
19925.108925
 20
13832.486252000001
 30
0.0
 40
15.0
 50
90.0
 51
270.0
  0
ARC
  5
3BEE
  8
0
  6
BYBLOCK
 62
     0
 10
19925.108925
 20
13832.486252000001
 30
0.0
 40
15.0
 50
270.0
 51
90.0
  0
ARC
  5
3BEF
  8
0
  6
BYBLOCK
 62
     0
 10
19925.108925
 20
15291.72676350001
 30
0.0
 40
15.0
 50
270.0
 51
90.0
  0
ARC
  5
3BF0
  8
0
  6
BYBLOCK
 62
     0
 10
19925.108925
 20
15291.72676350001
 30
0.0
 40
15.0
 50
90.0
 51
270.0
  0
ARC
  5
3BF1
  8
0
  6
BYBLOCK
 62
     0
 10
20854.563502000001
 20
12861.038167999999
 30
0.0
 40
15.0
 50
0.0
 51
180.0
  0
ARC
  5
3BF2
  8
0
  6
BYBLOCK
 62
     0
 10
20854.563502000001
 20
12861.038167999999
 30
0.0
 40
15.0
 50
180.0
 51
0.0
  0
ARC
  5
3BF3
  8
0
  6
BYBLOCK
 62
     0
 10
20812.061258999998
 20
12861.038167999999
 30
0.0
 40
15.0
 50
180.0
 51
0.0
  0
ARC
  5
3BF4
  8
0
  6
BYBLOCK
 62
     0
 10
20812.061258999998
 20
12861.038167999999
 30
0.0
 40
15.0
 50
0.0
 51
180.0
  0
ARC
  5
3BF5
  8
0
  6
BYBLOCK
 62
     0
 10
23772.563502000001
 20
12861.038167999999
 30
0.0
 40
15.0
 50
180.0
 51
0.0
  0
ARC
  5
3BF6
  8
0
  6
BYBLOCK
 62
     0
 10
23772.563502000001
 20
12861.038167999999
 30
0.0
 40
15.0
 50
0.0
 51
180.0
  0
ARC
  5
3BF7
  8
0
  6
BYBLOCK
 62
     0
 10
23815.065744999989
 20
12861.038167999999
 30
0.0
 40
15.0
 50
0.0
 51
180.0
  0
ARC
  5
3BF8
  8
0
  6
BYBLOCK
 62
     0
 10
23815.065744999989
 20
12861.038167999999
 30
0.0
 40
15.0
 50
180.0
 51
0.0
  0
ARC
  5
3BF9
  8
0
  6
BYBLOCK
 62
     0
 10
23772.563502000001
 20
12861.038167999999
 30
0.0
 40
15.0
 50
0.0
 51
180.0
  0
ARC
  5
3BFA
  8
0
  6
BYBLOCK
 62
     0
 10
23772.563502000001
 20
12861.038167999999
 30
0.0
 40
15.0
 50
180.0
 51
0.0
  0
ARC
  5
3BFB
  8
0
  6
BYBLOCK
 62
     0
 10
23730.061258999991
 20
12861.038167999999
 30
0.0
 40
15.0
 50
180.0
 51
0.0
  0
ARC
  5
3BFC
  8
0
  6
BYBLOCK
 62
     0
 10
23730.061258999991
 20
12861.038167999999
 30
0.0
 40
15.0
 50
0.0
 51
180.0
  0
ARC
  5
3BFD
  8
0
  6
BYBLOCK
 62
     0
 10
20854.563502000001
 20
12861.038167999999
 30
0.0
 40
15.0
 50
180.0
 51
0.0
  0
ARC
  5
3BFE
  8
0
  6
BYBLOCK
 62
     0
 10
20854.563502000001
 20
12861.038167999999
 30
0.0
 40
15.0
 50
0.0
 51
180.0
  0
ARC
  5
3BFF
  8
0
  6
BYBLOCK
 62
     0
 10
20897.065744999989
 20
12861.038167999999
 30
0.0
 40
15.0
 50
0.0
 51
180.0
  0
ARC
  5
3C00
  8
0
  6
BYBLOCK
 62
     0
 10
20897.065744999989
 20
12861.038167999999
 30
0.0
 40
15.0
 50
180.0
 51
0.0
  0
ARC
  5
3C01
  8
0
  6
BYBLOCK
 62
     0
 10
20812.061258999998
 20
12461.038167999999
 30
0.0
 40
15.0
 50
0.0
 51
180.0
  0
ARC
  5
3C02
  8
0
  6
BYBLOCK
 62
     0
 10
20812.061258999998
 20
12461.038167999999
 30
0.0
 40
15.0
 50
180.0
 51
0.0
  0
ARC
  5
3C03
  8
0
  6
BYBLOCK
 62
     0
 10
23815.065744999989
 20
12461.038167999999
 30
0.0
 40
15.0
 50
180.0
 51
0.0
  0
ARC
  5
3C04
  8
0
  6
BYBLOCK
 62
     0
 10
23815.065744999989
 20
12461.038167999999
 30
0.0
 40
15.0
 50
0.0
 51
180.0
  0
ARC
  5
3C05
  8
0
  6
BYBLOCK
 62
     0
 10
24865.063105999991
 20
14590.486252000001
 30
0.0
 40
15.0
 50
270.0
 51
90.0
  0
ARC
  5
3C06
  8
0
  6
BYBLOCK
 62
     0
 10
24865.063105999991
 20
14590.486252000001
 30
0.0
 40
15.0
 50
90.0
 51
270.0
  0
ARC
  5
3C07
  8
0
  6
BYBLOCK
 62
     0
 10
24865.063105999991
 20
13832.486252000001
 30
0.0
 40
15.0
 50
90.0
 51
270.0
  0
ARC
  5
3C08
  8
0
  6
BYBLOCK
 62
     0
 10
24865.063105999991
 20
13832.486252000001
 30
0.0
 40
15.0
 50
270.0
 51
90.0
  0
ARC
  5
3C09
  8
0
  6
BYBLOCK
 62
     0
 10
24865.063105999991
 20
15291.72676350001
 30
0.0
 40
15.0
 50
270.0
 51
90.0
  0
ARC
  5
3C0A
  8
0
  6
BYBLOCK
 62
     0
 10
24865.063105999991
 20
15291.72676350001
 30
0.0
 40
15.0
 50
90.0
 51
270.0
  0
ARC
  5
3C0B
  8
0
  6
BYBLOCK
 62
     0
 10
24865.063105999991
 20
14590.486252000001
 30
0.0
 40
15.0
 50
90.0
 51
270.0
  0
ARC
  5
3C0C
  8
0
  6
BYBLOCK
 62
     0
 10
24865.063105999991
 20
14590.486252000001
 30
0.0
 40
15.0
 50
270.0
 51
90.0
  0
ARC
  5
3C0D
  8
0
  6
BYBLOCK
 62
     0
 10
24865.063105999991
 20
15992.486252000001
 30
0.0
 40
15.0
 50
270.0
 51
90.0
  0
ARC
  5
3C0E
  8
0
  6
BYBLOCK
 62
     0
 10
24865.063105999991
 20
15992.486252000001
 30
0.0
 40
15.0
 50
90.0
 51
270.0
  0
ARC
  5
3C0F
  8
0
  6
BYBLOCK
 62
     0
 10
24865.063105999991
 20
15291.72676350001
 30
0.0
 40
15.0
 50
90.0
 51
270.0
  0
ARC
  5
3C10
  8
0
  6
BYBLOCK
 62
     0
 10
24865.063105999991
 20
15291.72676350001
 30
0.0
 40
15.0
 50
270.0
 51
90.0
  0
ARC
  5
3C11
  8
0
  6
BYBLOCK
 62
     0
 10
24865.063105999991
 20
16750.486251999992
 30
0.0
 40
15.0
 50
270.0
 51
90.0
  0
ARC
  5
3C12
  8
0
  6
BYBLOCK
 62
     0
 10
24865.063105999991
 20
16750.486251999992
 30
0.0
 40
15.0
 50
90.0
 51
270.0
  0
ARC
  5
3C13
  8
0
  6
BYBLOCK
 62
     0
 10
24865.063105999991
 20
15992.486252000001
 30
0.0
 40
15.0
 50
90.0
 51
270.0
  0
ARC
  5
3C14
  8
0
  6
BYBLOCK
 62
     0
 10
24865.063105999991
 20
15992.486252000001
 30
0.0
 40
15.0
 50
270.0
 51
90.0
  0
ARC
  5
3C15
  8
0
  6
BYBLOCK
 62
     0
 10
24865.063105999991
 20
17508.486251999992
 30
0.0
 40
15.0
 50
270.0
 51
90.0
  0
ARC
  5
3C16
  8
0
  6
BYBLOCK
 62
     0
 10
24865.063105999991
 20
17508.486251999992
 30
0.0
 40
15.0
 50
90.0
 51
270.0
  0
ARC
  5
3C17
  8
0
  6
BYBLOCK
 62
     0
 10
24865.063105999991
 20
16750.486251999992
 30
0.0
 40
15.0
 50
90.0
 51
270.0
  0
ARC
  5
3C18
  8
0
  6
BYBLOCK
 62
     0
 10
24865.063105999991
 20
16750.486251999992
 30
0.0
 40
15.0
 50
270.0
 51
90.0
  0
ARC
  5
3C19
  8
0
  6
BYBLOCK
 62
     0
 10
24865.063105999991
 20
18209.486251999992
 30
0.0
 40
15.0
 50
270.0
 51
90.0
  0
ARC
  5
3C1A
  8
0
  6
BYBLOCK
 62
     0
 10
24865.063105999991
 20
18209.486251999992
 30
0.0
 40
15.0
 50
90.0
 51
270.0
  0
ARC
  5
3C1B
  8
0
  6
BYBLOCK
 62
     0
 10
24865.063105999991
 20
17508.486251999992
 30
0.0
 40
15.0
 50
90.0
 51
270.0
  0
ARC
  5
3C1C
  8
0
  6
BYBLOCK
 62
     0
 10
24865.063105999991
 20
17508.486251999992
 30
0.0
 40
15.0
 50
270.0
 51
90.0
  0
ARC
  5
3C1D
  8
0
  6
BYBLOCK
 62
     0
 10
24865.063105999991
 20
18910.486251999992
 30
0.0
 40
15.0
 50
270.0
 51
90.0
  0
ARC
  5
3C1E
  8
0
  6
BYBLOCK
 62
     0
 10
24865.063105999991
 20
18910.486251999992
 30
0.0
 40
15.0
 50
90.0
 51
270.0
  0
ARC
  5
3C1F
  8
0
  6
BYBLOCK
 62
     0
 10
24865.063105999991
 20
18209.486251999992
 30
0.0
 40
15.0
 50
90.0
 51
270.0
  0
ARC
  5
3C20
  8
0
  6
BYBLOCK
 62
     0
 10
24865.063105999991
 20
18209.486251999992
 30
0.0
 40
15.0
 50
270.0
 51
90.0
  0
ARC
  5
3C21
  8
0
  6
BYBLOCK
 62
     0
 10
24865.063105999991
 20
19668.486251999992
 30
0.0
 40
15.0
 50
270.0
 51
90.0
  0
ARC
  5
3C22
  8
0
  6
BYBLOCK
 62
     0
 10
24865.063105999991
 20
19668.486251999992
 30
0.0
 40
15.0
 50
90.0
 51
270.0
  0
ARC
  5
3C23
  8
0
  6
BYBLOCK
 62
     0
 10
24865.063105999991
 20
18910.486251999992
 30
0.0
 40
15.0
 50
90.0
 51
270.0
  0
ARC
  5
3C24
  8
0
  6
BYBLOCK
 62
     0
 10
24865.063105999991
 20
18910.486251999992
 30
0.0
 40
15.0
 50
270.0
 51
90.0
  0
ARC
  5
3C25
  8
0
  6
BYBLOCK
 62
     0
 10
25265.06310599998
 20
16750.486251999992
 30
0.0
 40
15.0
 50
90.0
 51
270.0
  0
ARC
  5
3C26
  8
0
  6
BYBLOCK
 62
     0
 10
25265.06310599998
 20
16750.486251999992
 30
0.0
 40
15.0
 50
270.0
 51
90.0
  0
ARC
  5
3C27
  8
0
  6
BYBLOCK
 62
     0
 10
25265.06310599998
 20
19668.486251999992
 30
0.0
 40
15.0
 50
270.0
 51
90.0
  0
ARC
  5
3C28
  8
0
  6
BYBLOCK
 62
     0
 10
25265.06310599998
 20
19668.486251999992
 30
0.0
 40
15.0
 50
90.0
 51
270.0
  0
ARC
  5
3C29
  8
0
  6
BYBLOCK
 62
     0
 10
25265.06310599998
 20
13832.486252000001
 30
0.0
 40
15.0
 50
90.0
 51
270.0
  0
ARC
  5
3C2A
  8
0
  6
BYBLOCK
 62
     0
 10
25265.06310599998
 20
13832.486252000001
 30
0.0
 40
15.0
 50
270.0
 51
90.0
  0
ARC
  5
3C2B
  8
0
  6
BYBLOCK
 62
     0
 10
25265.06310599998
 20
16750.486251999992
 30
0.0
 40
15.0
 50
270.0
 51
90.0
  0
ARC
  5
3C2C
  8
0
  6
BYBLOCK
 62
     0
 10
25265.06310599998
 20
16750.486251999992
 30
0.0
 40
15.0
 50
90.0
 51
270.0
  0
ARC
  5
3C2D
  8
0
  6
BYBLOCK
 62
     0
 10
25665.063105999991
 20
19710.983546999982
 30
0.0
 40
15.0
 50
270.0
 51
90.0
  0
ARC
  5
3C2E
  8
0
  6
BYBLOCK
 62
     0
 10
25665.063105999991
 20
19710.983546999982
 30
0.0
 40
15.0
 50
90.0
 51
270.0
  0
ARC
  5
3C2F
  8
0
  6
BYBLOCK
 62
     0
 10
25665.063105999991
 20
13789.988957
 30
0.0
 40
15.0
 50
90.0
 51
270.0
  0
ARC
  5
3C30
  8
0
  6
BYBLOCK
 62
     0
 10
25665.063105999991
 20
13789.988957
 30
0.0
 40
15.0
 50
270.0
 51
90.0
  0
ARC
  5
3C31
  8
0
  6
BYBLOCK
 62
     0
 10
25265.06310599998
 20
19668.486251999992
 30
0.0
 40
15.0
 50
270.0
 51
90.0
  0
ARC
  5
3C32
  8
0
  6
BYBLOCK
 62
     0
 10
25265.06310599998
 20
19668.486251999992
 30
0.0
 40
15.0
 50
90.0
 51
270.0
  0
ARC
  5
3C33
  8
0
  6
BYBLOCK
 62
     0
 10
25265.06310599998
 20
19710.983546999982
 30
0.0
 40
15.0
 50
90.0
 51
270.0
  0
ARC
  5
3C34
  8
0
  6
BYBLOCK
 62
     0
 10
25265.06310599998
 20
19710.983546999982
 30
0.0
 40
15.0
 50
270.0
 51
90.0
  0
ARC
  5
3C35
  8
0
  6
BYBLOCK
 62
     0
 10
25265.06310599998
 20
13832.486252000001
 30
0.0
 40
15.0
 50
90.0
 51
270.0
  0
ARC
  5
3C36
  8
0
  6
BYBLOCK
 62
     0
 10
25265.06310599998
 20
13832.486252000001
 30
0.0
 40
15.0
 50
270.0
 51
90.0
  0
ARC
  5
3C37
  8
0
  6
BYBLOCK
 62
     0
 10
25265.06310599998
 20
13789.988957
 30
0.0
 40
15.0
 50
270.0
 51
90.0
  0
ARC
  5
3C38
  8
0
  6
BYBLOCK
 62
     0
 10
25265.06310599998
 20
13789.988957
 30
0.0
 40
15.0
 50
90.0
 51
270.0
  0
ARC
  5
3C39
  8
0
  6
BYBLOCK
 62
     0
 10
23014.563502000001
 20
20440.987440000012
 30
0.0
 40
15.0
 50
0.0
 51
180.0
  0
ARC
  5
3C3A
  8
0
  6
BYBLOCK
 62
     0
 10
23014.563502000001
 20
20440.987440000012
 30
0.0
 40
15.0
 50
180.0
 51
0.0
  0
ARC
  5
3C3B
  8
0
  6
BYBLOCK
 62
     0
 10
23772.564491500001
 20
20440.987440000012
 30
0.0
 40
15.0
 50
180.0
 51
0.0
  0
ARC
  5
3C3C
  8
0
  6
BYBLOCK
 62
     0
 10
23772.564491500001
 20
20440.987440000012
 30
0.0
 40
15.0
 50
0.0
 51
180.0
  0
ARC
  5
3C3D
  8
0
  6
BYBLOCK
 62
     0
 10
22313.563502000001
 20
20440.987440000012
 30
0.0
 40
15.0
 50
0.0
 51
180.0
  0
ARC
  5
3C3E
  8
0
  6
BYBLOCK
 62
     0
 10
22313.563502000001
 20
20440.987440000012
 30
0.0
 40
15.0
 50
180.0
 51
0.0
  0
ARC
  5
3C3F
  8
0
  6
BYBLOCK
 62
     0
 10
23014.563502000001
 20
20440.987440000012
 30
0.0
 40
15.0
 50
180.0
 51
0.0
  0
ARC
  5
3C40
  8
0
  6
BYBLOCK
 62
     0
 10
23014.563502000001
 20
20440.987440000012
 30
0.0
 40
15.0
 50
0.0
 51
180.0
  0
ARC
  5
3C41
  8
0
  6
BYBLOCK
 62
     0
 10
21612.563502000001
 20
20440.987440000012
 30
0.0
 40
15.0
 50
0.0
 51
180.0
  0
ARC
  5
3C42
  8
0
  6
BYBLOCK
 62
     0
 10
21612.563502000001
 20
20440.987440000012
 30
0.0
 40
15.0
 50
180.0
 51
0.0
  0
ARC
  5
3C43
  8
0
  6
BYBLOCK
 62
     0
 10
22313.563502000001
 20
20440.987440000012
 30
0.0
 40
15.0
 50
180.0
 51
0.0
  0
ARC
  5
3C44
  8
0
  6
BYBLOCK
 62
     0
 10
22313.563502000001
 20
20440.987440000012
 30
0.0
 40
15.0
 50
0.0
 51
180.0
  0
ARC
  5
3C45
  8
0
  6
BYBLOCK
 62
     0
 10
23772.563502000001
 20
20440.987440000012
 30
0.0
 40
15.0
 50
180.0
 51
0.0
  0
ARC
  5
3C46
  8
0
  6
BYBLOCK
 62
     0
 10
23772.563502000001
 20
20440.987440000012
 30
0.0
 40
15.0
 50
0.0
 51
180.0
  0
ARC
  5
3C47
  8
0
  6
BYBLOCK
 62
     0
 10
23815.059806999991
 20
20440.987440000012
 30
0.0
 40
15.0
 50
0.0
 51
180.0
  0
ARC
  5
3C48
  8
0
  6
BYBLOCK
 62
     0
 10
23815.059806999991
 20
20440.987440000012
 30
0.0
 40
15.0
 50
180.0
 51
0.0
  0
ARC
  5
3C49
  8
0
  6
BYBLOCK
 62
     0
 10
20854.563502000001
 20
20440.987440000012
 30
0.0
 40
15.0
 50
0.0
 51
180.0
  0
ARC
  5
3C4A
  8
0
  6
BYBLOCK
 62
     0
 10
20854.563502000001
 20
20440.987440000012
 30
0.0
 40
15.0
 50
180.0
 51
0.0
  0
ARC
  5
3C4B
  8
0
  6
BYBLOCK
 62
     0
 10
20812.067196999989
 20
20440.987440000012
 30
0.0
 40
15.0
 50
180.0
 51
0.0
  0
ARC
  5
3C4C
  8
0
  6
BYBLOCK
 62
     0
 10
20812.067196999989
 20
20440.987440000012
 30
0.0
 40
15.0
 50
0.0
 51
180.0
  0
TEXT
  5
3D51
  8
0
  6
CONTINUOUS
 62
     7
 10
22046.896835333329
 20
9795.4236209999963
 30
0.0
 40
160.0
  1
3003
  0
TEXT
  5
3D52
  8
0
  6
CONTINUOUS
 62
     7
 10
22033.56350199999
 20
10195.381391000001
 30
0.0
 40
160.0
  1
3089
  0
LINE
  5
3D53
  8
0-1
  6
CONTINUOUS
 62
     3
 10
20897.059807000001
 20
8652.4241219999985
 30
0.0
 11
23730.063237999992
 21
8652.4241219999985
 31
0.0
  0
LINE
  5
3D54
  8
0-1
  6
CONTINUOUS
 62
     3
 10
20769.063107000009
 20
8590.2380409999969
 30
0.0
 11
20769.063107000009
 21
8915.9237789999934
 31
0.0
  0
LINE
  5
3D55
  8
0-1
  6
CONTINUOUS
 62
     3
 10
23858.061918999989
 20
8785.9238449999921
 30
0.0
 11
20769.063107000009
 21
8785.9238449999921
 31
0.0
  0
LINE
  5
3D56
  8
0-1
  6
CONTINUOUS
 62
     3
 10
23858.061918999989
 20
8915.9237789999934
 30
0.0
 11
23858.061918999989
 21
8590.2380409999969
 31
0.0
  0
LINE
  5
3D57
  8
0-1
  6
CONTINUOUS
 62
     3
 10
20769.063107000009
 20
8915.9237789999934
 30
0.0
 11
23858.061918999989
 21
8915.9237789999934
 31
0.0
  0
LINE
  5
3D58
  8
0-1
  6
CONTINUOUS
 62
     3
 10
23858.061918999989
 20
8590.2380409999969
 30
0.0
 11
23815.061786999999
 21
8590.2380409999969
 31
0.0
  0
LINE
  5
3D59
  8
0-1
  6
CONTINUOUS
 62
     3
 10
20769.063107000009
 20
8590.2380409999969
 30
0.0
 11
20812.061259000009
 21
8590.2380409999969
 31
0.0
  0
LINE
  5
3D5A
  8
0-1
  6
CONTINUOUS
 62
     3
 10
20923.062763000009
 20
8661.4244990000043
 30
0.0
 11
21200.49229300001
 21
8661.4244990000043
 31
0.0
  0
LINE
  5
3D5B
  8
0-1
  6
CONTINUOUS
 62
     3
 10
20923.062763000009
 20
8703.4239439999983
 30
0.0
 11
21232.48923100001
 21
8703.4239439999983
 31
0.0
  0
LINE
  5
3D5C
  8
0-1
  6
CONTINUOUS
 62
     3
 10
20918.0625
 20
8666.4242679999988
 30
0.0
 11
20918.0625
 21
8698.4246699999985
 31
0.0
  0
LINE
  5
3D5D
  8
0-1
  6
CONTINUOUS
 62
     3
 10
20897.059807000001
 20
8712.4238259999984
 30
0.0
 11
23730.063237999992
 21
8712.4238259999984
 31
0.0
  0
LINE
  5
3D5E
  8
0-1
  6
CONTINUOUS
 62
     3
 10
21204.025733000009
 20
8662.8883529999966
 30
0.0
 11
21236.02663099999
 21
8694.8887549999981
 31
0.0
  0
LINE
  5
3D5F
  8
0-1
  6
CONTINUOUS
 62
     3
 10
20918.0625
 20
8695.0243519999985
 30
0.0
 11
21236.155298999991
 21
8695.0243519999985
 31
0.0
  0
LINE
  5
3D60
  8
0-1
  6
CONTINUOUS
 62
     3
 10
20918.0625
 20
8686.6242649999967
 30
0.0
 11
21227.762140999999
 21
8686.6242649999967
 31
0.0
  0
LINE
  5
3D61
  8
0-1
  6
CONTINUOUS
 62
     3
 10
20918.0625
 20
8678.2246729999988
 30
0.0
 11
21219.363043000008
 21
8678.2246729999988
 31
0.0
  0
LINE
  5
3D62
  8
0-1
  6
CONTINUOUS
 62
     3
 10
20918.0625
 20
8669.824585999997
 30
0.0
 11
21210.959987000009
 21
8669.824585999997
 31
0.0
  0
LINE
  5
3D63
  8
0-1
  6
CONTINUOUS
 62
     3
 10
23709.06252599998
 20
8695.0243519999985
 30
0.0
 11
23390.969725999999
 21
8695.0243519999985
 31
0.0
  0
LINE
  5
3D64
  8
0-1
  6
CONTINUOUS
 62
     3
 10
23709.06252599998
 20
8686.6242649999967
 30
0.0
 11
23399.364863999999
 21
8686.6242649999967
 31
0.0
  0
LINE
  5
3D65
  8
0-1
  6
CONTINUOUS
 62
     3
 10
23709.06252599998
 20
8678.2246729999988
 30
0.0
 11
23407.76396099999
 21
8678.2246729999988
 31
0.0
  0
LINE
  5
3D66
  8
0-1
  6
CONTINUOUS
 62
     3
 10
23709.06252599998
 20
8669.824585999997
 30
0.0
 11
23416.163058999991
 21
8669.824585999997
 31
0.0
  0
LINE
  5
3D67
  8
0-1
  6
CONTINUOUS
 62
     3
 10
23704.062261999999
 20
8703.4239439999983
 30
0.0
 11
23394.63579399998
 21
8703.4239439999983
 31
0.0
  0
LINE
  5
3D68
  8
0-1
  6
CONTINUOUS
 62
     3
 10
23704.062261999999
 20
8661.4244990000043
 30
0.0
 11
23426.632732999991
 21
8661.4244990000043
 31
0.0
  0
LINE
  5
3D69
  8
0-1
  6
CONTINUOUS
 62
     3
 10
23709.06252599998
 20
8666.4242679999988
 30
0.0
 11
23709.06252599998
 21
8698.4246699999985
 31
0.0
  0
LINE
  5
3D6A
  8
0-1
  6
CONTINUOUS
 62
     3
 10
23423.097312000002
 20
8662.8883529999966
 30
0.0
 11
23391.100374000001
 21
8694.8887549999981
 31
0.0
  0
ARC
  5
3D6B
  8
0-1
  6
CONTINUOUS
 62
     3
 10
20923.062763000009
 20
8698.4246699999985
 30
0.0
 40
5.0
 50
90.0
 51
180.0
  0
ARC
  5
3D6C
  8
0-1
  6
CONTINUOUS
 62
     3
 10
20923.062763000009
 20
8666.4242679999988
 30
0.0
 40
5.0
 50
180.0
 51
269.9999850001808
  0
ARC
  5
3D6D
  8
0-1
  6
CONTINUOUS
 62
     3
 10
21200.49229300001
 20
8666.4242679999988
 30
0.0
 40
5.0
 50
269.9999850001808
 51
314.99998500027471
  0
ARC
  5
3D6E
  8
0-1
  6
CONTINUOUS
 62
     3
 10
21232.48923100001
 20
8698.4246699999985
 30
0.0
 40
5.0
 50
314.99998500027471
 51
90.0
  0
ARC
  5
3D6F
  8
0-1
  6
CONTINUOUS
 62
     3
 10
23704.062261999999
 20
8666.4242679999988
 30
0.0
 40
5.0
 50
269.9999850001808
 51
0.0
  0
ARC
  5
3D70
  8
0-1
  6
CONTINUOUS
 62
     3
 10
23704.062261999999
 20
8698.4246699999985
 30
0.0
 40
5.0
 50
0.0
 51
90.0
  0
ARC
  5
3D71
  8
0-1
  6
CONTINUOUS
 62
     3
 10
23394.63579399998
 20
8698.4246699999985
 30
0.0
 40
5.0
 50
90.0
 51
224.99998499997989
  0
ARC
  5
3D72
  8
0-1
  6
CONTINUOUS
 62
     3
 10
23426.632732999991
 20
8666.4242679999988
 30
0.0
 40
5.0
 50
224.99998499997989
 51
269.9999850001808
  0
LINE
  5
3D73
  8
SUNPOU
  6
CONTINUOUS
 62
     4
 10
23815.063765999981
 20
8995.9237789999916
 30
0.0
 11
23815.063765999981
 21
9795.4236209999963
 31
0.0
  0
LINE
  5
3D74
  8
SUNPOU
  6
CONTINUOUS
 62
     4
 10
23815.063765999981
 20
9715.4236209999926
 30
0.0
 11
23575.063765999981
 21
9715.4236209999926
 31
0.0
  0
LINE
  5
3D75
  8
SUNPOU
  6
CONTINUOUS
 62
     4
 10
23855.065876999972
 20
9715.4236209999926
 30
0.0
 11
24095.065876999972
 21
9715.4236209999926
 31
0.0
  0
LINE
  5
3D76
  8
SUNPOU
  6
CONTINUOUS
 62
     4
 10
23815.063765999981
 20
9715.4236209999926
 30
0.0
 11
23855.065876999972
 21
9715.4236209999926
 31
0.0
  0
LINE
  5
3D77
  8
SUNPOU
  6
CONTINUOUS
 62
     4
 10
20769.061127000019
 20
8995.9237789999916
 30
0.0
 11
20769.061127000019
 21
10195.381391000001
 31
0.0
  0
LINE
  5
3D78
  8
SUNPOU
  6
CONTINUOUS
 62
     4
 10
23858.065876999972
 20
8995.9237789999916
 30
0.0
 11
23858.065876999972
 21
10195.381391000001
 31
0.0
  0
LINE
  5
3D79
  8
SUNPOU
  6
CONTINUOUS
 62
     4
 10
20769.061127000019
 20
10115.38139099999
 30
0.0
 11
23855.065876999972
 21
10115.38139099999
 31
0.0
  0
LINE
  5
3D7A
  8
SUNPOU
  6
CONTINUOUS
 62
     4
 10
20812.06323800001
 20
8995.9237789999916
 30
0.0
 11
20812.06323800001
 21
9795.4236209999963
 31
0.0
  0
LINE
  5
3D7B
  8
SUNPOU
  6
CONTINUOUS
 62
     4
 10
23815.063765999981
 20
8995.9237789999916
 30
0.0
 11
23815.063765999981
 21
9795.4236209999963
 31
0.0
  0
LINE
  5
3D7C
  8
SUNPOU
  6
CONTINUOUS
 62
     4
 10
20812.06323800001
 20
9715.4236209999926
 30
0.0
 11
23815.063765999981
 21
9715.4236209999926
 31
0.0
  0
LINE
  5
3D7D
  8
SUNPOU
  6
CONTINUOUS
 62
     4
 10
20812.06323800001
 20
8995.9237789999916
 30
0.0
 11
20812.06323800001
 21
9795.4236209999963
 31
0.0
  0
LINE
  5
3D7E
  8
SUNPOU
  6
CONTINUOUS
 62
     4
 10
20769.061127000019
 20
8995.9237789999916
 30
0.0
 11
20769.061127000019
 21
9795.4236209999963
 31
0.0
  0
LINE
  5
3D7F
  8
SUNPOU
  6
CONTINUOUS
 62
     4
 10
20812.06323800001
 20
9715.4236209999926
 30
0.0
 11
21052.063237999999
 21
9715.4236209999926
 31
0.0
  0
LINE
  5
3D80
  8
SUNPOU
  6
CONTINUOUS
 62
     4
 10
20772.061127000019
 20
9715.4236209999926
 30
0.0
 11
20532.061127000019
 21
9715.4236209999926
 31
0.0
  0
LINE
  5
3D81
  8
SUNPOU
  6
CONTINUOUS
 62
     4
 10
20812.06323800001
 20
9715.4236209999926
 30
0.0
 11
20772.061127000019
 21
9715.4236209999926
 31
0.0
  0
TEXT
  5
3D82
  8
0
  6
CONTINUOUS
 62
     7
 10
20412.061127000019
 20
9795.4236209999963
 30
0.0
 40
160.0
  1
43
  0
TEXT
  5
3D83
  8
0
  6
CONTINUOUS
 62
     7
 10
23975.065876999972
 20
9795.4236209999963
 30
0.0
 40
160.0
  1
43
  0
ARC
  5
3D84
  8
0
  6
BYBLOCK
 62
     0
 10
23815.063765999981
 20
9715.4236209999926
 30
0.0
 40
15.0
 50
180.0
 51
0.0
  0
ARC
  5
3D85
  8
0
  6
BYBLOCK
 62
     0
 10
23815.063765999981
 20
9715.4236209999926
 30
0.0
 40
15.0
 50
0.0
 51
180.0
  0
ARC
  5
3D86
  8
0
  6
BYBLOCK
 62
     0
 10
23858.065876999972
 20
9715.4236209999926
 30
0.0
 40
15.0
 50
0.0
 51
180.0
  0
ARC
  5
3D87
  8
0
  6
BYBLOCK
 62
     0
 10
23858.065876999972
 20
9715.4236209999926
 30
0.0
 40
15.0
 50
180.0
 51
0.0
  0
ARC
  5
3D88
  8
0
  6
BYBLOCK
 62
     0
 10
20769.061127000019
 20
10115.38139099999
 30
0.0
 40
15.0
 50
0.0
 51
180.0
  0
ARC
  5
3D89
  8
0
  6
BYBLOCK
 62
     0
 10
20769.061127000019
 20
10115.38139099999
 30
0.0
 40
15.0
 50
180.0
 51
0.0
  0
ARC
  5
3D8A
  8
0
  6
BYBLOCK
 62
     0
 10
23858.065876999972
 20
10115.38139099999
 30
0.0
 40
15.0
 50
180.0
 51
0.0
  0
ARC
  5
3D8B
  8
0
  6
BYBLOCK
 62
     0
 10
23858.065876999972
 20
10115.38139099999
 30
0.0
 40
15.0
 50
0.0
 51
180.0
  0
ARC
  5
3D8C
  8
0
  6
BYBLOCK
 62
     0
 10
20812.06323800001
 20
9715.4236209999926
 30
0.0
 40
15.0
 50
0.0
 51
180.0
  0
ARC
  5
3D8D
  8
0
  6
BYBLOCK
 62
     0
 10
20812.06323800001
 20
9715.4236209999926
 30
0.0
 40
15.0
 50
180.0
 51
0.0
  0
ARC
  5
3D8E
  8
0
  6
BYBLOCK
 62
     0
 10
23815.063765999981
 20
9715.4236209999926
 30
0.0
 40
15.0
 50
180.0
 51
0.0
  0
ARC
  5
3D8F
  8
0
  6
BYBLOCK
 62
     0
 10
23815.063765999981
 20
9715.4236209999926
 30
0.0
 40
15.0
 50
0.0
 51
180.0
  0
ARC
  5
3D90
  8
0
  6
BYBLOCK
 62
     0
 10
20812.06323800001
 20
9715.4236209999926
 30
0.0
 40
15.0
 50
0.0
 51
180.0
  0
ARC
  5
3D91
  8
0
  6
BYBLOCK
 62
     0
 10
20812.06323800001
 20
9715.4236209999926
 30
0.0
 40
15.0
 50
180.0
 51
0.0
  0
ARC
  5
3D92
  8
0
  6
BYBLOCK
 62
     0
 10
20769.061127000019
 20
9715.4236209999926
 30
0.0
 40
15.0
 50
180.0
 51
0.0
  0
ARC
  5
3D93
  8
0
  6
BYBLOCK
 62
     0
 10
20769.061127000019
 20
9715.4236209999926
 30
0.0
 40
15.0
 50
0.0
 51
180.0
  0
LINE
  5
3DA1
  8
SUNPOU
  6
CONTINUOUS
 62
     4
 10
11399.099503499971
 20
13559.985988
 30
0.0
 11
11399.099503499971
 21
12381.036187999989
 31
0.0
  0
LINE
  5
3DA2
  8
SUNPOU
  6
CONTINUOUS
 62
     4
 10
14488.096335499989
 20
13559.985988
 30
0.0
 11
14488.096335499989
 21
12381.036187999989
 31
0.0
  0
LINE
  5
3DA3
  8
SUNPOU
  6
CONTINUOUS
 62
     4
 10
11399.099503499971
 20
12461.036187999989
 30
0.0
 11
14488.096335499989
 21
12461.036187999989
 31
0.0
  0
TEXT
  5
3DA4
  8
0
  6
CONTINUOUS
 62
     7
 10
12140.931252833319
 20
12541.036187999989
 30
0.0
 40
160.0
  1
ケラバ外寸 3089
  0
ARC
  5
3DA5
  8
0
  6
BYBLOCK
 62
     0
 10
11399.099503499971
 20
12461.036187999989
 30
0.0
 40
15.0
 50
0.0
 51
180.0
  0
ARC
  5
3DA6
  8
0
  6
BYBLOCK
 62
     0
 10
11399.099503499971
 20
12461.036187999989
 30
0.0
 40
15.0
 50
180.0
 51
0.0
  0
ARC
  5
3DA7
  8
0
  6
BYBLOCK
 62
     0
 10
14488.096335499989
 20
12461.036187999989
 30
0.0
 40
15.0
 50
180.0
 51
0.0
  0
ARC
  5
3DA8
  8
0
  6
BYBLOCK
 62
     0
 10
14488.096335499989
 20
12461.036187999989
 30
0.0
 40
15.0
 50
0.0
 51
180.0
  0
TEXT
  5
3DFD
  8
NAME
 10
24189.8234220308
 20
1076.0
 30
0.0
 40
360.0
  1
H
 41
0.6700000000000002
  7
00
  0
TEXT
  5
3DFE
  8
NAME
 10
23813.99143745047
 20
1076.0
 30
0.0
 40
360.0
  1
（ ）
  7
01
  0
TEXT
  5
3DFF
  8
NAME
 10
24713.98442473351
 20
1076.0
 30
0.0
 40
360.0
  1
型（単棟）
  7
01
  0
TEXT
  5
3E00
  8
NAME
 10
21686.3487663915
 20
1076.6369801169251
 30
0.0
 40
360.0
  1
VGCU-3059
 41
0.6700000000000002
  0
TEXT
  5
3E02
  8
NAME
 10
21933.552716389011
 20
1876.0
 30
0.0
 40
360.0
  1
ヨドガレージ ラヴィージュ
 41
0.75
  7
01
  0
LINE
  5
3E03
  8
NAME
  6
CONTINUOUS
 10
26067.886878884299
 20
2236.0
 30
0.0
 11
26067.886878884299
 21
1876.0
 31
0.0
  0
LINE
  5
3E04
  8
NAME
  6
CONTINUOUS
 10
26167.886878884299
 20
2236.0
 30
0.0
 11
26167.886878884299
 21
1876.0
 31
0.0
  0
LINE
  5
3E05
  8
NAME
  6
CONTINUOUS
 10
26267.88687888431
 20
2236.0
 30
0.0
 11
26267.88687888431
 21
1876.0
 31
0.0
  0
LINE
  5
3E06
  8
NAME
  6
CONTINUOUS
 10
26007.886878884299
 20
2236.0
 30
0.0
 11
26327.886878884299
 21
2236.0
 31
0.0
  0
LINE
  5
3E07
  8
NAME
  6
CONTINUOUS
 10
26327.886878884299
 20
1876.0
 30
0.0
 11
26007.886878884299
 21
1876.0
 31
0.0
  0
TEXT
  5
3EA1
  8
FILENAME
  6
CONTINUOUS
 10
28546.857142857141
 20
348.0
 30
0.0
 40
200.0
  1
＜VGCU-3059-1-A_0.DXF ＞
  7
FILENAME
 72
     2
 11
32764.0
 21
348.0
 31
0.0
  0
LINE
  5
3EA7
  8
WAKUSEN-01
 10
868.00000000000193
 20
827.99999999999955
 30
0.0
 11
32764.000000000011
 21
827.99999999999943
 31
0.0
  0
LINE
  5
3EA8
  8
WAKUSEN-01
 10
868.00000000000193
 20
827.99999999999955
 30
0.0
 11
868.00000000000193
 21
22484.000000000011
 31
0.0
  0
LINE
  5
3EA9
  8
WAKUSEN-01
 10
32764.000000000011
 20
827.99999999999943
 30
0.0
 11
32764.000000000011
 21
22484.000000000011
 31
0.0
  0
LINE
  5
3EAA
  8
WAKUSEN-01
 10
20560.0
 20
827.99999999999716
 30
0.0
 11
20560.0
 21
2484.0
 31
0.0
  0
LINE
  5
3EAB
  8
WAKUSEN-02
 10
26868.0
 20
827.99999999999261
 30
0.0
 11
26868.0
 21
2484.0
 31
0.0
  0
ENDSEC
  0
EOF
