  0
SECTION
  2
HEADER
  9
$ACADVER
  1
AC1009
  9
$INSBASE
 10
0.0
 20
0.0
 30
0.0
  9
$EXTMIN
 10
867.99324330406671
 20
327.38164749855792
 30
-0.000000000000013
  9
$EXTMAX
 10
32765.33210850941
 20
22484.553276491992
 30
0.0000000000000023
  9
$LIMMIN
 10
0.0
 20
0.0
  9
$LIMMAX
 10
33600.0
 20
23760.0
  9
$ORTHOMODE
 70
     1
  9
$REGENMODE
 70
     1
  9
$FILLMODE
 70
     1
  9
$QTEXTMODE
 70
     0
  9
$MIRRTEXT
 70
     1
  9
$DRAGMODE
 70
     2
  9
$LTSCALE
 40
80.0
  9
$OSMODE
 70
  3071
  9
$ATTMODE
 70
     1
  9
$TEXTSIZE
 40
0.2
  9
$TRACEWID
 40
0.05
  9
$TEXTSTYLE
  7
00
  9
$CLAYER
  8
0
  9
$CELTYPE
  6
BYLAYER
  9
$CECOLOR
 62
   256
  9
$DIMSCALE
 40
80.0
  9
$DIMASZ
 40
3.0
  9
$DIMEXO
 40
1.0
  9
$DIMDLI
 40
0.38
  9
$DIMRND
 40
0.5
  9
$DIMDLE
 40
0.0
  9
$DIMEXE
 40
1.0
  9
$DIMTP
 40
0.0
  9
$DIMTM
 40
0.0
  9
$DIMTXT
 40
2.0
  9
$DIMCEN
 40
0.09
  9
$DIMTSZ
 40
0.0
  9
$DIMTOL
 70
     0
  9
$DIMLIM
 70
     0
  9
$DIMTIH
 70
     0
  9
$DIMTOH
 70
     0
  9
$DIMSE1
 70
     0
  9
$DIMSE2
 70
     0
  9
$DIMTAD
 70
     1
  9
$DIMZIN
 70
     8
  9
$DIMBLK
  1
DOTSMALL
  9
$DIMASO
 70
     1
  9
$DIMSHO
 70
     1
  9
$DIMPOST
  1

  9
$DIMAPOST
  1

  9
$DIMALT
 70
     0
  9
$DIMALTD
 70
     2
  9
$DIMALTF
 40
25.399999999999999
  9
$DIMLFAC
 40
1.0
  9
$DIMTOFL
 70
     1
  9
$DIMTVP
 40
0.0
  9
$DIMTIX
 70
     0
  9
$DIMSOXD
 70
     0
  9
$DIMSAH
 70
     0
  9
$DIMBLK1
  1

  9
$DIMBLK2
  1

  9
$DIMSTYLE
  2
SUNPOU
  9
$DIMCLRD
 70
     4
  9
$DIMCLRE
 70
     4
  9
$DIMCLRT
 70
     7
  9
$DIMTFAC
 40
1.0
  9
$DIMGAP
 40
1.0
  9
$LUNITS
 70
     2
  9
$LUPREC
 70
     4
  9
$SKETCHINC
 40
0.1
  9
$FILLETRAD
 40
0.0
  9
$AUNITS
 70
     0
  9
$AUPREC
 70
     0
  9
$MENU
  1
acad
  9
$ELEVATION
 40
0.0
  9
$PELEVATION
 40
0.0
  9
$THICKNESS
 40
0.0
  9
$LIMCHECK
 70
     0
  9
$BLIPMODE
 70
     1
  9
$CHAMFERA
 40
0.0
  9
$CHAMFERB
 40
0.0
  9
$SKPOLY
 70
     0
  9
$TDCREATE
 40
2454573.3781490512
  9
$TDUPDATE
 40
2458942.4443866429
  9
$TDINDWG
 40
0.0454884375
  9
$TDUSRTIMER
 40
0.0454877199
  9
$USRTIMER
 70
     1
  9
$ANGBASE
 50
0.0
  9
$ANGDIR
 70
     0
  9
$PDMODE
 70
     0
  9
$PDSIZE
 40
0.0
  9
$PLINEWID
 40
0.0
  9
$COORDS
 70
     1
  9
$SPLFRAME
 70
     0
  9
$SPLINETYPE
 70
     6
  9
$SPLINESEGS
 70
     8
  9
$ATTDIA
 70
     1
  9
$ATTREQ
 70
     1
  9
$HANDLING
 70
     1
  9
$HANDSEED
  5
4012
  9
$SURFTAB1
 70
     6
  9
$SURFTAB2
 70
     6
  9
$SURFTYPE
 70
     6
  9
$SURFU
 70
     6
  9
$SURFV
 70
     6
  9
$UCSNAME
  2

  9
$UCSORG
 10
0.0
 20
0.0
 30
0.0
  9
$UCSXDIR
 10
1.0
 20
0.0
 30
0.0
  9
$UCSYDIR
 10
0.0
 20
1.0
 30
0.0
  9
$PUCSNAME
  2

  9
$PUCSORG
 10
0.0
 20
0.0
 30
0.0
  9
$PUCSXDIR
 10
1.0
 20
0.0
 30
0.0
  9
$PUCSYDIR
 10
0.0
 20
1.0
 30
0.0
  9
$USERI1
 70
     0
  9
$USERI2
 70
     0
  9
$USERI3
 70
     0
  9
$USERI4
 70
     0
  9
$USERI5
 70
     0
  9
$USERR1
 40
0.0
  9
$USERR2
 40
0.0
  9
$USERR3
 40
0.0
  9
$USERR4
 40
0.0
  9
$USERR5
 40
0.0
  9
$WORLDVIEW
 70
     1
  9
$SHADEDGE
 70
     3
  9
$SHADEDIF
 70
    70
  9
$TILEMODE
 70
     1
  9
$MAXACTVP
 70
    16
  9
$PLIMCHECK
 70
     0
  9
$PEXTMIN
 10
1.0000000000000000E+020
 20
1.0000000000000000E+020
 30
1.0000000000000000E+020
  9
$PEXTMAX
 10
-1.0000000000000000E+020
 20
-1.0000000000000000E+020
 30
-1.0000000000000000E+020
  9
$PLIMMIN
 10
0.0
 20
0.0
  9
$PLIMMAX
 10
12.0
 20
9.0
  9
$UNITMODE
 70
     0
  9
$VISRETAIN
 70
     0
  9
$PLINEGEN
 70
     1
  9
$PSLTSCALE
 70
     0
  0
ENDSEC
  0
SECTION
  2
TABLES
  0
TABLE
  2
VPORT
 70
     1
  0
VPORT
  2
*ACTIVE
 70
     0
 10
0.0
 20
0.0
 11
1.0
 21
1.0
 12
16800.0
 22
11880.0
 13
0.0
 23
0.0
 14
1.0
 24
1.0
 15
0.0
 25
0.0
 16
0.0
 26
0.0
 36
1.0
 17
0.0
 27
0.0
 37
0.0
 40
23981.023255813951
 41
2.195652173913043
 42
50.0
 43
0.0
 44
0.0
 50
0.0
 51
0.0
 71
     0
 72
 10000
 73
     1
 74
     1
 75
     0
 76
     0
 77
     0
 78
     0
  0
ENDTAB
  0
TABLE
  2
LTYPE
 70
     3
  0
LTYPE
  2
CONTINUOUS
 70
     0
  3
Solid line
 72
    65
 73
     0
 40
0.0
  0
LTYPE
  2
DASHED3
 70
     0
  3
------  ------  ------  ------  
 72
    65
 73
     2
 40
5.0
 49
3.75
 49
-1.25
  0
LTYPE
  2
CENTER2
 70
     0
  3
----------  --  ----------  --  
 72
    65
 73
     4
 40
20.0
 49
12.5
 49
-2.5
 49
2.5
 49
-2.5
  0
ENDTAB
  0
TABLE
  2
LAYER
 70
    20
  0
LAYER
  2
0
 70
     0
 62
     7
  6
CONTINUOUS
  0
LAYER
  2
SUNPOU
 70
     0
 62
     4
  6
CONTINUOUS
  0
LAYER
  2
0-1
 70
     0
 62
     7
  6
CONTINUOUS
  0
LAYER
  2
0-2
 70
     0
 62
     7
  6
CONTINUOUS
  0
LAYER
  2
0-5
 70
     0
 62
     7
  6
CONTINUOUS
  0
LAYER
  2
2-0
 70
     0
 62
     7
  6
CONTINUOUS
  0
LAYER
  2
0-6
 70
     0
 62
     7
  6
CONTINUOUS
  0
LAYER
  2
0-7
 70
     0
 62
     7
  6
CONTINUOUS
  0
LAYER
  2
0-8
 70
     0
 62
     7
  6
CONTINUOUS
  0
LAYER
  2
1-5
 70
     0
 62
     7
  6
CONTINUOUS
  0
LAYER
  2
YODOROGO
 70
     0
 62
   130
  6
CONTINUOUS
  0
LAYER
  2
WAKUSEN-01
 70
     0
 62
    50
  6
CONTINUOUS
  0
LAYER
  2
WAKUSEN-02
 70
     0
 62
   130
  6
CONTINUOUS
  0
LAYER
  2
WAKUMOJI-01
 70
     0
 62
   130
  6
CONTINUOUS
  0
LAYER
  2
FILENAME
 70
     0
 62
     7
  6
CONTINUOUS
  0
LAYER
  2
NAME
 70
     0
 62
    20
  6
CONTINUOUS
  0
LAYER
  2
0-4
 70
     0
 62
     7
  6
CONTINUOUS
  0
LAYER
  2
0-0
 70
     0
 62
     7
  6
CONTINUOUS
  0
ENDTAB
  0
TABLE
  2
STYLE
 70
     5
  0
STYLE
  2
STANDARD
 70
     0
 40
0.0
 41
1.0
 50
0.0
 71
     0
 42
0.0
  3
txt
  4
BIGFONT
  0
STYLE
  2
00
 70
     0
 40
0.0
 41
0.6666666666666666
 50
0.0
 71
     0
 42
0.2
  3
ROMANS
  4
BIGFONT
  0
STYLE
  2
01
 70
     0
 40
3.0
 41
1.0
 50
0.0
 71
     0
 42
0.2
  3
ROMANS
  4
BIGFONT
  0
STYLE
  2
WAKUMOJI
 70
     0
 40
3.0
 41
1.0
 50
0.0
 71
     0
 42
3.0
  3
SIMPLEX
  4
BIGFONT
  0
STYLE
  2
FILENAME
 70
     0
 40
200.0
 41
1.0
 50
0.0
 71
     0
 42
200.0
  3
romans
  4
bigfont
  0
ENDTAB
  0
TABLE
  2
VIEW
 70
     0
  0
ENDTAB
  0
TABLE
  2
UCS
 70
     0
  0
ENDTAB
  0
TABLE
  2
APPID
 70
    13
  0
APPID
  2
ACAD
 70
     0
  0
APPID
  2
ACADANNOTATIVE
 70
     0
  0
APPID
  2
ACAD_PSEXT
 70
     0
  0
APPID
  2
DCO15
 70
     0
  0
APPID
  2
ACAD_MLEADERVER
 70
     0
  0
APPID
  2
AUTOCAD_POSTSCRIPT_FIGURE
 70
     0
  0
APPID
  2
ACAD_EXEMPT_FROM_CAD_STANDARDS
 70
     0
  0
APPID
  2
ACAD_DSTYLE_DIMJAG
 70
     0
  0
APPID
  2
ACAD_DSTYLE_DIMTALN
 70
     0
  0
APPID
  2
ACAD_DSTYLE_DIM_LINETYPE
 70
     0
  0
APPID
  2
ACAD_DSTYLE_DIM_EXT1_LINETYPE
 70
     0
  0
APPID
  2
ACAD_DSTYLE_DIM_EXT2_LINETYPE
 70
     0
  0
APPID
  2
ACAD_NAV_VCDISPLAY
 70
     0
  0
ENDTAB
  0
TABLE
  2
DIMSTYLE
 70
     2
  0
DIMSTYLE
  2
SUNPOU
 70
     0
  3

  4

  5

  6

  7

 40
80.0
 41
3.0
 42
1.0
 43
0.38
 44
1.0
 45
0.5
 46
0.0
 47
0.0
 48
0.0
140
2.0
141
0.09
142
0.0
143
25.399999999999999
144
1.0
145
0.0
146
1.0
147
1.0
 71
     0
 72
     0
 73
     0
 74
     0
 75
     0
 76
     0
 77
     1
 78
     8
170
     0
171
     2
172
     1
173
     0
174
     0
175
     0
176
     4
177
     4
178
     7
  0
ENDTAB
  0
ENDSEC
  0
SECTION
  2
BLOCKS
  0
BLOCK
  8
0
  2
$MODEL_SPACE
 70
     0
 10
0.0
 20
0.0
 30
0.0
  3
$MODEL_SPACE
  1

  0
ENDBLK
  5
3489
  8
0
  0
BLOCK
 67
     1
  8
0
  2
$PAPER_SPACE
 70
     0
 10
0.0
 20
0.0
 30
0.0
  3
$PAPER_SPACE
  1

  0
ENDBLK
  5
3485
 67
     1
  8
0
  0
BLOCK
  8
0
  2
_DOTSMALL
 70
     0
 10
0.0
 20
0.0
 30
0.0
  3
_DOTSMALL
  1

  0
POLYLINE
  5
34BB
  8
0
  6
BYBLOCK
 62
     0
 66
     1
 10
0.0
 20
0.0
 30
0.0
 70
     1
 40
0.5
 41
0.5
  0
VERTEX
  5
3FDA
  8
0
  6
BYBLOCK
 62
     0
 10
-0.0625
 20
0.0
 30
0.0
 42
1.0
  0
VERTEX
  5
3FDB
  8
0
  6
BYBLOCK
 62
     0
 10
0.0625
 20
0.0
 30
0.0
 42
1.0
  0
SEQEND
  5
3FDC
  8
0
  6
BYBLOCK
 62
     0
  0
ENDBLK
  5
34BF
  8
0
  0
ENDSEC
  0
SECTION
  2
ENTITIES
  0
LINE
  5
34C0
  8
0-1
  6
CONTINUOUS
 62
     3
 10
9107.1612114999916
 20
14369.732549999981
 30
0.0
 11
9107.1612114999916
 21
19704.296237999999
 31
0.0
  0
LINE
  5
34C1
  8
0-1
  6
CONTINUOUS
 62
     3
 10
9149.6604854999914
 20
14369.732549999981
 30
0.0
 11
9149.6604854999914
 21
19685.413610999989
 31
0.0
  0
LINE
  5
34C2
  8
0-1
  6
CONTINUOUS
 62
     3
 10
9064.1630594999915
 20
14213.73164
 30
0.0
 11
9064.1630594999915
 21
20104.232233999999
 31
0.0
  0
LINE
  5
34C3
  8
0-1
  6
CONTINUOUS
 62
     3
 10
9199.6611064999834
 20
14245.732537
 30
0.0
 11
9199.6611064999834
 21
20094.226823000001
 31
0.0
  0
LINE
  5
34C4
  8
0-1
  6
CONTINUOUS
 62
     3
 10
9149.6604854999914
 20
15820.47201950001
 30
0.0
 11
13934.16048549999
 21
15820.47201950001
 31
0.0
  0
LINE
  5
34C5
  8
0-1
  6
CONTINUOUS
 62
     3
 10
9149.6604854999914
 20
15910.47281150002
 30
0.0
 11
13934.16048549999
 21
15910.47281150002
 31
0.0
  0
LINE
  5
34C6
  8
0-1
  6
CONTINUOUS
 62
     3
 10
9064.1630594999915
 20
14245.732537
 30
0.0
 11
14019.659891499979
 21
14245.732537
 31
0.0
  0
LINE
  5
34C7
  8
0-1
  6
CONTINUOUS
 62
     3
 10
9064.1630594999915
 20
14213.73164
 30
0.0
 11
14019.659891499979
 21
14213.73164
 31
0.0
  0
LINE
  5
34C8
  8
0-1
  6
CONTINUOUS
 62
     3
 10
9149.6604854999914
 20
14448.732166999989
 30
0.0
 11
13934.16048549999
 21
14448.732166999989
 31
0.0
  0
LINE
  5
34C9
  8
0-1
  6
CONTINUOUS
 62
     3
 10
9107.1612114999916
 20
14369.732549999981
 30
0.0
 11
13976.65975949998
 21
14369.732549999981
 31
0.0
  0
LINE
  5
34CA
  8
0-1
  6
CONTINUOUS
 62
     3
 10
11997.65976049999
 20
14406.230913999991
 30
0.0
 11
9219.6622014999884
 21
15865.47142550002
 31
0.0
  0
LINE
  5
34CB
  8
0-1
  6
CONTINUOUS
 62
     3
 10
9219.6622014999884
 20
14406.230913999991
 30
0.0
 11
11997.65976049999
 21
15865.47142550002
 31
0.0
  0
LINE
  5
34CC
  8
0-1
  6
CONTINUOUS
 62
     3
 10
11997.65976049999
 20
17324.230914
 30
0.0
 11
9219.6622014999884
 21
18783.230914
 31
0.0
  0
LINE
  5
34CD
  8
0-1
  6
CONTINUOUS
 62
     3
 10
11997.65976049999
 20
17324.230914
 30
0.0
 11
9219.6622014999884
 21
15865.47142550002
 31
0.0
  0
LINE
  5
34CE
  8
0-1
  6
CONTINUOUS
 62
     3
 10
11997.65976049999
 20
15865.47142550002
 30
0.0
 11
9219.6622014999884
 21
17324.230914
 31
0.0
  0
LINE
  5
34CF
  8
0-1
  6
CONTINUOUS
 62
     3
 10
9149.6604854999914
 20
18738.230517999978
 30
0.0
 11
11281.27792449998
 21
18738.230517999978
 31
0.0
  0
LINE
  5
34D0
  8
0-1
  6
CONTINUOUS
 62
     3
 10
9149.6604854999914
 20
17279.230518
 30
0.0
 11
13688.76946449999
 21
17279.230518
 31
0.0
  0
LINE
  5
34D1
  8
0-1
  6
CONTINUOUS
 62
     3
 10
9149.6604854999914
 20
17358.23112499998
 30
0.0
 11
13524.40899449998
 21
17358.23112499998
 31
0.0
  0
LINE
  5
34D2
  8
0-1
  6
CONTINUOUS
 62
     3
 10
9149.6604854999914
 20
18828.231309999981
 30
0.0
 11
11078.72170549998
 21
18828.231309999981
 31
0.0
  0
LINE
  5
34D3
  8
0-1
  6
CONTINUOUS
 62
     3
 10
9140.6625844999908
 20
20094.226823000001
 30
0.0
 11
13946.16036649998
 21
20094.226823000001
 31
0.0
  0
LINE
  5
34D4
  8
0-1
  6
CONTINUOUS
 62
     3
 10
9082.1628214999873
 20
19714.07110099999
 30
0.0
 11
9082.1628214999873
 21
20096.731837999989
 31
0.0
  0
LINE
  5
34D5
  8
0-1
  6
CONTINUOUS
 62
     3
 10
9137.6625844999908
 20
20079.230913999989
 30
0.0
 11
9137.6625844999908
 21
20109.232497999979
 31
0.0
  0
LINE
  5
34D6
  8
0-1
  6
CONTINUOUS
 62
     3
 10
9064.1630594999915
 20
20109.232497999979
 30
0.0
 11
9064.1630594999915
 21
20074.23064999999
 31
0.0
  0
LINE
  5
34D7
  8
0-1
  6
CONTINUOUS
 62
     3
 10
9132.6623204999869
 20
20114.232761999989
 30
0.0
 11
9069.1613434999908
 21
20114.232761999989
 31
0.0
  0
LINE
  5
34D8
  8
0-1
  6
CONTINUOUS
 62
     3
 10
9082.1628214999873
 20
20096.731837999989
 30
0.0
 11
9064.1630594999915
 21
20096.731837999989
 31
0.0
  0
LINE
  5
34D9
  8
0-1
  6
CONTINUOUS
 62
     3
 10
9082.1628214999873
 20
20074.23064999999
 30
0.0
 11
9132.6623204999869
 21
20074.23064999999
 31
0.0
  0
LINE
  5
34DA
  8
0-1
  6
CONTINUOUS
 62
     3
 10
14001.660128499971
 20
17122.15472899998
 30
0.0
 11
14001.660128499971
 21
20096.731837999989
 31
0.0
  0
LINE
  5
34DB
  8
0-1
  6
CONTINUOUS
 62
     3
 10
14019.659891499979
 20
14213.73164
 30
0.0
 11
14019.659891499979
 21
20104.232233999999
 31
0.0
  0
LINE
  5
34DC
  8
0-1
  6
CONTINUOUS
 62
     3
 10
12137.66022149998
 20
17324.230914
 30
0.0
 11
13864.15975949998
 21
15865.47142550002
 31
0.0
  0
LINE
  5
34DD
  8
0-1
  6
CONTINUOUS
 62
     3
 10
12137.66022149998
 20
14406.230913999991
 30
0.0
 11
13864.15975949998
 21
15865.47142550002
 31
0.0
  0
LINE
  5
34DE
  8
0-1
  6
CONTINUOUS
 62
     3
 10
12067.66048549998
 20
14369.732549999981
 30
0.0
 11
12067.66048549998
 21
15820.47201950001
 31
0.0
  0
LINE
  5
34DF
  8
0-1
  6
CONTINUOUS
 62
     3
 10
12010.66024849998
 20
14448.732166999989
 30
0.0
 11
12010.66024849998
 21
15820.47201950001
 31
0.0
  0
LINE
  5
34E0
  8
0-1
  6
CONTINUOUS
 62
     3
 10
12124.659733499981
 20
14448.732166999989
 30
0.0
 11
12124.659733499981
 21
15820.47201950001
 31
0.0
  0
LINE
  5
34E1
  8
0-1
  6
CONTINUOUS
 62
     3
 10
12067.66048549998
 20
14448.732166999989
 30
0.0
 11
12067.66048549998
 21
15470.47135950001
 31
0.0
  0
LINE
  5
34E2
  8
0-1
  6
CONTINUOUS
 62
     3
 10
12124.659733499981
 20
17358.23112499998
 30
0.0
 11
12124.659733499981
 21
18095.494690999982
 31
0.0
  0
LINE
  5
34E3
  8
0-1
  6
CONTINUOUS
 62
     3
 10
12010.66024849998
 20
17358.23112499998
 30
0.0
 11
12010.66024849998
 21
18364.418228999992
 31
0.0
  0
LINE
  5
34E4
  8
0-1
  6
CONTINUOUS
 62
     3
 10
12067.66048549998
 20
17358.23112499998
 30
0.0
 11
12067.66048549998
 21
18229.955471000001
 31
0.0
  0
LINE
  5
34E5
  8
0-1
  6
CONTINUOUS
 62
     3
 10
12067.66048549998
 20
17358.23112499998
 30
0.0
 11
12067.66048549998
 21
17879.956789999989
 31
0.0
  0
LINE
  5
34E6
  8
0-1
  6
CONTINUOUS
 62
     3
 10
12124.659733499981
 20
15910.47281150002
 30
0.0
 11
12124.659733499981
 21
17279.230518
 31
0.0
  0
LINE
  5
34E7
  8
0-1
  6
CONTINUOUS
 62
     3
 10
12010.66024849998
 20
15910.47281150002
 30
0.0
 11
12010.66024849998
 21
17279.230518
 31
0.0
  0
LINE
  5
34E8
  8
0-1
  6
CONTINUOUS
 62
     3
 10
12067.66048549998
 20
15910.47281150002
 30
0.0
 11
12067.66048549998
 21
17279.230518
 31
0.0
  0
LINE
  5
34E9
  8
0-1
  6
CONTINUOUS
 62
     3
 10
12067.66048549998
 20
15910.47281150002
 30
0.0
 11
12067.66048549998
 21
15820.47201950001
 31
0.0
  0
LINE
  5
34EA
  8
0-1
  6
CONTINUOUS
 62
     3
 10
12067.66048549998
 20
17358.23112499998
 30
0.0
 11
12067.66048549998
 21
17279.230518
 31
0.0
  0
LINE
  5
34EB
  8
0-1
  6
CONTINUOUS
 62
     3
 10
13934.16048549999
 20
14369.732549999981
 30
0.0
 11
13934.16048549999
 21
17154.848458
 31
0.0
  0
LINE
  5
34EC
  8
0-1
  6
CONTINUOUS
 62
     3
 10
13976.65975949998
 20
14369.732549999981
 30
0.0
 11
13976.65975949998
 21
17133.306347000002
 31
0.0
  0
LINE
  5
34ED
  8
0-1
  6
CONTINUOUS
 62
     3
 10
14001.660128499971
 20
20096.731837999989
 30
0.0
 11
14019.659891499979
 21
20096.731837999989
 31
0.0
  0
LINE
  5
34EE
  8
0-1
  6
CONTINUOUS
 62
     3
 10
14019.659891499979
 20
20109.232497999979
 30
0.0
 11
14019.659891499979
 21
20074.23064999999
 31
0.0
  0
LINE
  5
34EF
  8
0-1
  6
CONTINUOUS
 62
     3
 10
13946.16036649998
 20
20079.230913999989
 30
0.0
 11
13946.16036649998
 21
20109.232497999979
 31
0.0
  0
LINE
  5
34F0
  8
0-1
  6
CONTINUOUS
 62
     3
 10
14001.660128499971
 20
20074.23064999999
 30
0.0
 11
13951.16063049999
 21
20074.23064999999
 31
0.0
  0
LINE
  5
34F1
  8
0-1
  6
CONTINUOUS
 62
     3
 10
13951.16063049999
 20
20114.232761999989
 30
0.0
 11
14014.65962749999
 21
20114.232761999989
 31
0.0
  0
LINE
  5
34F2
  8
0-1
  6
CONTINUOUS
 62
     3
 10
10520.159958499969
 20
19080.91218499999
 30
0.0
 11
10520.159958499969
 21
20094.226823000001
 31
0.0
  0
LINE
  5
34F3
  8
0-1
  6
CONTINUOUS
 62
     3
 10
10557.16012949998
 20
19064.472283999999
 30
0.0
 11
10557.16012949998
 21
20094.226823000001
 31
0.0
  0
LINE
  5
34F4
  8
0-1
  6
CONTINUOUS
 62
     3
 10
10720.15962849997
 20
18987.54494499998
 30
0.0
 11
10720.15962849997
 21
20094.226823000001
 31
0.0
  0
LINE
  5
34F5
  8
0-1
  6
CONTINUOUS
 62
     3
 10
10757.160789499971
 20
18971.107021999989
 30
0.0
 11
10757.160789499971
 21
20094.226823000001
 31
0.0
  0
LINE
  5
34F6
  8
0-1
  6
CONTINUOUS
 62
     3
 10
10920.16127749999
 20
18898.684356000002
 30
0.0
 11
10920.16127749999
 21
20094.226823000001
 31
0.0
  0
LINE
  5
34F7
  8
0-1
  6
CONTINUOUS
 62
     3
 10
10957.15946949998
 20
18882.242473999991
 30
0.0
 11
10957.15946949998
 21
20094.226823000001
 31
0.0
  0
LINE
  5
34F8
  8
0-1
  6
CONTINUOUS
 62
     3
 10
11120.159958499969
 20
18809.817827999988
 30
0.0
 11
11120.159958499969
 21
20094.226823000001
 31
0.0
  0
LINE
  5
34F9
  8
0-1
  6
CONTINUOUS
 62
     3
 10
11157.16012949998
 20
18793.379905999991
 30
0.0
 11
11157.16012949998
 21
20094.226823000001
 31
0.0
  0
LINE
  5
34FA
  8
0-1
  6
CONTINUOUS
 62
     3
 10
11320.159628499991
 20
18720.95327999998
 30
0.0
 11
11320.159628499991
 21
20094.226823000001
 31
0.0
  0
LINE
  5
34FB
  8
0-1
  6
CONTINUOUS
 62
     3
 10
11357.16078949998
 20
18704.513378
 30
0.0
 11
11357.16078949998
 21
20094.226823000001
 31
0.0
  0
LINE
  5
34FC
  8
0-1
  6
CONTINUOUS
 62
     3
 10
11520.161277499979
 20
18632.088731999978
 30
0.0
 11
11520.161277499979
 21
20094.226823000001
 31
0.0
  0
LINE
  5
34FD
  8
0-1
  6
CONTINUOUS
 62
     3
 10
11557.15946949998
 20
18615.648829999991
 30
0.0
 11
11557.15946949998
 21
20094.226823000001
 31
0.0
  0
LINE
  5
34FE
  8
0-1
  6
CONTINUOUS
 62
     3
 10
11720.16094749998
 20
18599.329678999991
 30
0.0
 11
11720.16094749998
 21
20094.226823000001
 31
0.0
  0
LINE
  5
34FF
  8
0-1
  6
CONTINUOUS
 62
     3
 10
11757.16012949998
 20
18642.710827999999
 30
0.0
 11
11757.16012949998
 21
20094.226823000001
 31
0.0
  0
LINE
  5
3500
  8
0-1
  6
CONTINUOUS
 62
     3
 10
11920.15962849998
 20
18577.907329000001
 30
0.0
 11
11920.15962849998
 21
20094.226823000001
 31
0.0
  0
LINE
  5
3501
  8
0-1
  6
CONTINUOUS
 62
     3
 10
11957.160789499971
 20
18490.624415999991
 30
0.0
 11
11957.160789499971
 21
20094.226823000001
 31
0.0
  0
LINE
  5
3502
  8
0-1
  6
CONTINUOUS
 62
     3
 10
13157.16177949998
 20
17549.377186999991
 30
0.0
 11
13157.16177949998
 21
20094.226823000001
 31
0.0
  0
LINE
  5
3503
  8
0-1
  6
CONTINUOUS
 62
     3
 10
13120.160617499971
 20
17568.133126000001
 30
0.0
 11
13120.160617499971
 21
20094.226823000001
 31
0.0
  0
LINE
  5
3504
  8
0-1
  6
CONTINUOUS
 62
     3
 10
12957.16012949998
 20
17650.752293000001
 30
0.0
 11
12957.16012949998
 21
20094.226823000001
 31
0.0
  0
LINE
  5
3505
  8
0-1
  6
CONTINUOUS
 62
     3
 10
12920.16094749998
 20
17669.506251999988
 30
0.0
 11
12920.16094749998
 21
20094.226823000001
 31
0.0
  0
LINE
  5
3506
  8
0-1
  6
CONTINUOUS
 62
     3
 10
12757.15946949996
 20
17752.125418999982
 30
0.0
 11
12757.15946949996
 21
20094.226823000001
 31
0.0
  0
LINE
  5
3507
  8
0-1
  6
CONTINUOUS
 62
     3
 10
12720.16028749999
 20
17770.879377999991
 30
0.0
 11
12720.16028749999
 21
20094.226823000001
 31
0.0
  0
LINE
  5
3508
  8
0-1
  6
CONTINUOUS
 62
     3
 10
12557.160789499991
 20
17853.498544999991
 30
0.0
 11
12557.160789499991
 21
20094.226823000001
 31
0.0
  0
LINE
  5
3509
  8
0-1
  6
CONTINUOUS
 62
     3
 10
12520.16061749998
 20
17872.252503999978
 30
0.0
 11
12520.16061749998
 21
20094.226823000001
 31
0.0
  0
LINE
  5
350A
  8
0-1
  6
CONTINUOUS
 62
     3
 10
12357.160129499969
 20
17805.200271000002
 30
0.0
 11
12357.160129499969
 21
20094.226823000001
 31
0.0
  0
LINE
  5
350B
  8
0-1
  6
CONTINUOUS
 62
     3
 10
12320.16094749998
 20
17761.81912099999
 30
0.0
 11
12320.16094749998
 21
20094.226823000001
 31
0.0
  0
LINE
  5
350C
  8
0-1
  6
CONTINUOUS
 62
     3
 10
12157.15946949998
 20
18018.82595699999
 30
0.0
 11
12157.15946949998
 21
20094.226823000001
 31
0.0
  0
LINE
  5
350D
  8
0-1
  6
CONTINUOUS
 62
     3
 10
12120.161277499979
 20
18106.110850000001
 30
0.0
 11
12120.161277499979
 21
20094.226823000001
 31
0.0
  0
LINE
  5
350E
  8
0-1
  6
CONTINUOUS
 62
     3
 10
13357.15946949998
 20
17443.004008
 30
0.0
 11
13357.15946949998
 21
20094.226823000001
 31
0.0
  0
LINE
  5
350F
  8
0-1
  6
CONTINUOUS
 62
     3
 10
13394.160631499981
 20
17424.25004899998
 30
0.0
 11
13394.160631499981
 21
20094.226823000001
 31
0.0
  0
LINE
  5
3510
  8
0-1
  6
CONTINUOUS
 62
     3
 10
13557.16012949998
 20
17341.630882000001
 30
0.0
 11
13557.16012949998
 21
20094.226823000001
 31
0.0
  0
LINE
  5
3511
  8
0-1
  6
CONTINUOUS
 62
     3
 10
13594.16030149998
 20
17322.874943999988
 30
0.0
 11
13594.16030149998
 21
20094.226823000001
 31
0.0
  0
LINE
  5
3512
  8
0-1
  6
CONTINUOUS
 62
     3
 10
13765.66188449999
 20
17240.255776000002
 30
0.0
 11
13765.66188449999
 21
20094.226823000001
 31
0.0
  0
LINE
  5
3513
  8
0-1
  6
CONTINUOUS
 62
     3
 10
13802.66007649998
 20
17221.501817
 30
0.0
 11
13802.66007649998
 21
20094.226823000001
 31
0.0
  0
LINE
  5
3514
  8
0-1
  6
CONTINUOUS
 62
     3
 10
11685.45800749997
 20
18558.642653999981
 30
0.0
 11
8915.9664404999912
 21
19789.251236999979
 31
0.0
  0
LINE
  5
3515
  8
0-1
  6
CONTINUOUS
 62
     3
 10
11685.45800749997
 20
18558.642653999981
 30
0.0
 11
11847.69539149999
 21
18748.850634999999
 31
0.0
  0
LINE
  5
3516
  8
0-1
  6
CONTINUOUS
 62
     3
 10
12284.05254949998
 20
17719.487115999989
 30
0.0
 11
11847.69539149999
 21
18748.850634999999
 31
0.0
  0
LINE
  5
3517
  8
0-1
  6
CONTINUOUS
 62
     3
 10
14167.85848949998
 20
17036.39505499999
 30
0.0
 11
12446.289933499949
 21
17909.695098
 31
0.0
  0
LINE
  5
3518
  8
0-1
  6
CONTINUOUS
 62
     3
 10
12284.05254949998
 20
17719.487115999989
 30
0.0
 11
12446.289933499949
 21
17909.695098
 31
0.0
  0
LINE
  5
3519
  8
0-1
  6
CONTINUOUS
 62
     3
 10
12137.66022149998
 20
17324.230914
 30
0.0
 11
12682.220834499991
 21
17790.110401000002
 31
0.0
  0
LINE
  5
351A
  8
0-1
  6
CONTINUOUS
 62
     3
 10
12137.66022149998
 20
15865.47142550002
 30
0.0
 11
13864.15975949998
 21
14406.230913999991
 31
0.0
  0
LINE
  5
351B
  8
0-1
  6
CONTINUOUS
 62
     3
 10
12137.66022149998
 20
15865.47142550002
 30
0.0
 11
13765.20956449999
 21
17240.485400999991
 31
0.0
  0
LINE
  5
351C
  8
0-1
  6
CONTINUOUS
 62
     3
 10
9219.6622014999884
 20
17324.230914
 30
0.0
 11
11630.197766499979
 21
18590.206077999988
 31
0.0
  0
LINE
  5
351D
  8
0-1
  6
CONTINUOUS
 62
     3
 10
11779.089236499991
 20
18668.416856999978
 30
0.0
 11
11863.08911749998
 21
18712.540325999991
 31
0.0
  0
LINE
  5
351E
  8
0-1
  6
CONTINUOUS
 62
     3
 10
10357.158479499991
 20
19153.33683199999
 30
0.0
 11
10357.158479499991
 21
20094.226823000001
 31
0.0
  0
LINE
  5
351F
  8
0-1
  6
CONTINUOUS
 62
     3
 10
10320.16028749999
 20
19169.776733999988
 30
0.0
 11
10320.16028749999
 21
20094.226823000001
 31
0.0
  0
LINE
  5
3520
  8
0-1
  6
CONTINUOUS
 62
     3
 10
10157.160789499991
 20
19242.203358999999
 30
0.0
 11
10157.160789499991
 21
20094.226823000001
 31
0.0
  0
LINE
  5
3521
  8
0-1
  6
CONTINUOUS
 62
     3
 10
10120.15962849997
 20
19258.641282000001
 30
0.0
 11
10120.15962849997
 21
20094.226823000001
 31
0.0
  0
LINE
  5
3522
  8
0-1
  6
CONTINUOUS
 62
     3
 10
9957.1601294999837
 20
19331.067908000001
 30
0.0
 11
9957.1601294999837
 21
20094.226823000001
 31
0.0
  0
LINE
  5
3523
  8
0-1
  6
CONTINUOUS
 62
     3
 10
9920.1599584999767
 20
19347.507808999992
 30
0.0
 11
9920.1599584999713
 21
20094.22682299999
 31
0.0
  0
LINE
  5
3524
  8
0-1
  6
CONTINUOUS
 62
     3
 10
9520.1596284999887
 20
19525.23492599999
 30
0.0
 11
9520.1596284999887
 21
20094.226823000001
 31
0.0
  0
LINE
  5
3525
  8
0-1
  6
CONTINUOUS
 62
     3
 10
9557.1607894999761
 20
19508.795023999999
 30
0.0
 11
9557.1607894999797
 21
20094.226823000001
 31
0.0
  0
LINE
  5
3526
  8
0-1
  6
CONTINUOUS
 62
     3
 10
9720.160287499988
 20
19436.372358000001
 30
0.0
 11
9720.160287499988
 21
20094.226823000001
 31
0.0
  0
LINE
  5
3527
  8
0-1
  6
CONTINUOUS
 62
     3
 10
9757.1584794999817
 20
19419.93047599999
 30
0.0
 11
9757.1584794999817
 21
20094.226823000001
 31
0.0
  0
LINE
  5
3528
  8
0-1
  6
CONTINUOUS
 62
     3
 10
9310.1618324999872
 20
19614.099473999991
 30
0.0
 11
9310.1618324999872
 21
20094.226823000001
 31
0.0
  0
LINE
  5
3529
  8
0-1
  6
CONTINUOUS
 62
     3
 10
9347.1610134999864
 20
19597.659572
 30
0.0
 11
9347.1610134999846
 21
20094.226823000001
 31
0.0
  0
LINE
  5
352A
  8
0-1
  6
CONTINUOUS
 62
     3
 10
9219.6622014999884
 20
18783.230914
 30
0.0
 11
10257.42835449998
 21
19197.650334999991
 31
0.0
  0
LINE
  5
352B
  8
0-1
  6
CONTINUOUS
 62
     3
 10
12067.66048549998
 20
14369.732549999981
 30
0.0
 11
12067.66048549998
 21
14213.73164
 31
0.0
  0
LINE
  5
352C
  8
0-6
  6
CONTINUOUS
 62
     6
 10
14218.42628149998
 20
17729.644026000002
 30
0.0
 11
16212.87142249998
 21
17729.644026000002
 31
0.0
  0
LINE
  5
352D
  8
0-6
  6
CONTINUOUS
 62
     6
 10
14218.42628149998
 20
19188.144686
 30
0.0
 11
16212.87142249998
 21
19188.144686
 31
0.0
  0
LINE
  5
352E
  8
0-6
  6
CONTINUOUS
 62
     6
 10
14218.42628149998
 20
15412.159690500021
 30
0.0
 11
16212.87142249998
 21
15412.159690500021
 31
0.0
  0
LINE
  5
352F
  8
0-6
  6
CONTINUOUS
 62
     6
 10
13310.449759499979
 20
15762.41570850001
 30
0.0
 11
14218.42628149998
 21
15412.159690500021
 31
0.0
  0
LINE
  5
3530
  8
0-6
  6
CONTINUOUS
 62
     6
 10
13639.459604499971
 20
16053.208755999991
 30
0.0
 11
14280.748455499979
 21
16255.45023099999
 31
0.0
  0
LINE
  5
3531
  8
0-6
  6
CONTINUOUS
 62
     6
 10
13312.88555749998
 20
17420.593878
 30
0.0
 11
14218.42628149998
 21
17729.644026000002
 31
0.0
  0
LINE
  5
3532
  8
0-6
  6
CONTINUOUS
 62
     6
 10
13312.88555749998
 20
18879.593878
 30
0.0
 11
14218.42628149998
 21
19188.144686
 31
0.0
  0
LINE
  5
3533
  8
0-6
  6
CONTINUOUS
 62
     6
 10
9019.2686074999838
 20
14709.244519500009
 30
0.0
 11
8460.7632754999868
 21
12923.73084799999
 31
0.0
  0
LINE
  5
3534
  8
0-6
  6
CONTINUOUS
 62
     6
 10
7380.7636714999862
 20
12923.73084799999
 30
0.0
 11
8460.7632754999868
 21
12923.73084799999
 31
0.0
  0
LINE
  5
3535
  8
0-6
  6
CONTINUOUS
 62
     6
 10
9314.1891624999898
 20
19098.50812599999
 30
0.0
 11
9844.1870244999882
 21
19098.50812599999
 31
0.0
  0
LINE
  5
3536
  8
0-6
  6
CONTINUOUS
 62
     6
 10
9215.1488994999909
 20
19319.301649000001
 30
0.0
 11
9314.1891624999898
 21
19098.50812599999
 31
0.0
  0
LINE
  5
3537
  8
0-6
  6
CONTINUOUS
 62
     6
 10
9435.0694544999878
 20
20720.953227000002
 30
0.0
 11
9610.8987804999797
 21
21065.672532000001
 31
0.0
  0
LINE
  5
3538
  8
0-6
  6
CONTINUOUS
 62
     6
 10
9211.8846734999934
 20
20257.009498999989
 30
0.0
 11
9373.404481499987
 21
20592.771481
 31
0.0
  0
LINE
  5
3539
  8
0-6
  6
CONTINUOUS
 62
     6
 10
9610.8987804999797
 20
21065.672532000001
 30
0.0
 11
11263.74334849998
 21
21065.672532000001
 31
0.0
  0
LINE
  5
353A
  8
0-6
  6
CONTINUOUS
 62
     6
 10
11300.453520499979
 20
13413.731970000001
 30
0.0
 11
12163.03270149998
 21
13413.731970000001
 31
0.0
  0
LINE
  5
353B
  8
0-6
  6
CONTINUOUS
 62
     6
 10
10894.34142749998
 20
14077.263628999999
 30
0.0
 11
11300.453520499979
 21
13413.731970000001
 31
0.0
  0
LINE
  5
353C
  8
0-6
  6
CONTINUOUS
 62
     6
 10
11176.851390499971
 20
14782.801450499999
 30
0.0
 11
11976.85106049997
 21
14782.801450499999
 31
0.0
  0
LINE
  5
353D
  8
0-6
  6
CONTINUOUS
 62
     6
 10
11093.96399849999
 20
14600.62161799999
 30
0.0
 11
11176.851390499971
 21
14782.801450499999
 31
0.0
  0
LINE
  5
353E
  8
0-6
  6
CONTINUOUS
 62
     6
 10
10902.05561049998
 20
16454.259221
 30
0.0
 11
11850.001530499971
 21
16454.259221
 31
0.0
  0
LINE
  5
353F
  8
0-6
  6
CONTINUOUS
 62
     6
 10
12010.66024849998
 20
16029.235796999979
 30
0.0
 11
11850.001530499971
 21
16454.259221
 31
0.0
  0
LINE
  5
3540
  8
0-6
  6
CONTINUOUS
 62
     6
 10
11379.529349499981
 20
20344.231046000001
 30
0.0
 11
11897.217007499979
 21
20344.231046000001
 31
0.0
  0
LINE
  5
3541
  8
0-6
  6
CONTINUOUS
 62
     6
 10
11235.626266499979
 20
19831.955392
 30
0.0
 11
11379.529349499981
 21
20344.231046000001
 31
0.0
  0
LINE
  5
3542
  8
0-6
  6
CONTINUOUS
 62
     6
 10
13320.12465649998
 20
15787.26460550002
 30
0.0
 11
13161.35340949998
 21
15820.47201950001
 31
0.0
  0
LINE
  5
3543
  8
0-6
  6
CONTINUOUS
 62
     6
 10
13161.35340949998
 20
15820.47201950001
 30
0.0
 11
13300.772882499979
 21
15737.5648325
 31
0.0
  0
LINE
  5
3544
  8
0-6
  6
CONTINUOUS
 62
     6
 10
13161.35340949998
 20
15820.47201950001
 30
0.0
 11
13320.12465649998
 21
15787.26460550002
 31
0.0
  0
LINE
  5
3545
  8
0-6
  6
CONTINUOUS
 62
     6
 10
13320.12465649998
 20
15787.26460550002
 30
0.0
 11
13300.772882499979
 21
15737.5648325
 31
0.0
  0
LINE
  5
3546
  8
0-6
  6
CONTINUOUS
 62
     6
 10
13300.772882499979
 20
15737.5648325
 30
0.0
 11
13161.35340949998
 21
15820.47201950001
 31
0.0
  0
LINE
  5
3547
  8
0-6
  6
CONTINUOUS
 62
     6
 10
13300.772882499979
 20
15737.5648325
 30
0.0
 11
13320.12465649998
 21
15787.26460550002
 31
0.0
  0
LINE
  5
3548
  8
0-6
  6
CONTINUOUS
 62
     6
 10
10917.087085499979
 20
14091.184592999991
 30
0.0
 11
10810.81564049997
 21
14213.73164
 31
0.0
  0
LINE
  5
3549
  8
0-6
  6
CONTINUOUS
 62
     6
 10
10810.81564049997
 20
14213.73164
 30
0.0
 11
10871.59774849998
 21
14063.342663999991
 31
0.0
  0
LINE
  5
354A
  8
0-6
  6
CONTINUOUS
 62
     6
 10
10810.81564049997
 20
14213.73164
 30
0.0
 11
10917.087085499979
 21
14091.184592999991
 31
0.0
  0
LINE
  5
354B
  8
0-6
  6
CONTINUOUS
 62
     6
 10
10917.087085499979
 20
14091.184592999991
 30
0.0
 11
10871.59774849998
 21
14063.342663999991
 31
0.0
  0
LINE
  5
354C
  8
0-6
  6
CONTINUOUS
 62
     6
 10
10871.59774849998
 20
14063.342663999991
 30
0.0
 11
10810.81564049997
 21
14213.73164
 31
0.0
  0
LINE
  5
354D
  8
0-6
  6
CONTINUOUS
 62
     6
 10
10871.59774849998
 20
14063.342663999991
 30
0.0
 11
10917.087085499979
 21
14091.184592999991
 31
0.0
  0
LINE
  5
354E
  8
0-6
  6
CONTINUOUS
 62
     6
 10
9044.7133394999873
 20
14701.26310050002
 30
0.0
 11
9067.1630594999915
 21
14861.90796250001
 31
0.0
  0
LINE
  5
354F
  8
0-6
  6
CONTINUOUS
 62
     6
 10
9067.1630594999915
 20
14861.90796250001
 30
0.0
 11
8993.8228854999907
 21
14717.225938500011
 31
0.0
  0
LINE
  5
3550
  8
0-6
  6
CONTINUOUS
 62
     6
 10
9067.1630594999915
 20
14861.90796250001
 30
0.0
 11
9044.7133394999873
 21
14701.26310050002
 31
0.0
  0
LINE
  5
3551
  8
0-6
  6
CONTINUOUS
 62
     6
 10
9044.7133394999873
 20
14701.26310050002
 30
0.0
 11
8993.8228854999907
 21
14717.225938500011
 31
0.0
  0
LINE
  5
3552
  8
0-6
  6
CONTINUOUS
 62
     6
 10
8993.8228854999907
 20
14717.225938500011
 30
0.0
 11
9067.1630594999915
 21
14861.90796250001
 31
0.0
  0
LINE
  5
3553
  8
0-6
  6
CONTINUOUS
 62
     6
 10
8993.8228854999907
 20
14717.225938500011
 30
0.0
 11
9044.7133394999873
 21
14701.26310050002
 31
0.0
  0
LINE
  5
3554
  8
0-6
  6
CONTINUOUS
 62
     6
 10
11069.81684149998
 20
14611.933577
 30
0.0
 11
11026.09125549998
 21
14455.730755
 31
0.0
  0
LINE
  5
3555
  8
0-6
  6
CONTINUOUS
 62
     6
 10
11026.09125549998
 20
14455.730755
 30
0.0
 11
11118.11214649998
 21
14589.308669
 31
0.0
  0
LINE
  5
3556
  8
0-6
  6
CONTINUOUS
 62
     6
 10
11026.09125549998
 20
14455.730755
 30
0.0
 11
11069.81684149998
 21
14611.933577
 31
0.0
  0
LINE
  5
3557
  8
0-6
  6
CONTINUOUS
 62
     6
 10
11069.81684149998
 20
14611.933577
 30
0.0
 11
11118.11214649998
 21
14589.308669
 31
0.0
  0
LINE
  5
3558
  8
0-6
  6
CONTINUOUS
 62
     6
 10
11118.11214649998
 20
14589.308669
 30
0.0
 11
11026.09125549998
 21
14455.730755
 31
0.0
  0
LINE
  5
3559
  8
0-6
  6
CONTINUOUS
 62
     6
 10
11118.11214649998
 20
14589.308669
 30
0.0
 11
11069.81684149998
 21
14611.933577
 31
0.0
  0
LINE
  5
355A
  8
0-6
  6
CONTINUOUS
 62
     6
 10
9239.4771824999862
 20
19330.212756000001
 30
0.0
 11
9149.6604854999914
 21
19465.283226
 31
0.0
  0
LINE
  5
355B
  8
0-6
  6
CONTINUOUS
 62
     6
 10
9149.6604854999914
 20
19465.283226
 30
0.0
 11
9190.8146774999914
 21
19308.384603999981
 31
0.0
  0
LINE
  5
355C
  8
0-6
  6
CONTINUOUS
 62
     6
 10
9149.6604854999914
 20
19465.283226
 30
0.0
 11
9239.4771824999862
 21
19330.212756000001
 31
0.0
  0
LINE
  5
355D
  8
0-6
  6
CONTINUOUS
 62
     6
 10
9239.4771824999862
 20
19330.212756000001
 30
0.0
 11
9190.8146774999914
 21
19308.384603999981
 31
0.0
  0
LINE
  5
355E
  8
0-6
  6
CONTINUOUS
 62
     6
 10
9190.8146774999914
 20
19308.384603999981
 30
0.0
 11
9149.6604854999914
 21
19465.283226
 31
0.0
  0
LINE
  5
355F
  8
0-6
  6
CONTINUOUS
 62
     6
 10
9190.8146774999914
 20
19308.384603999981
 30
0.0
 11
9239.4771824999862
 21
19330.212756000001
 31
0.0
  0
LINE
  5
3560
  8
0-6
  6
CONTINUOUS
 62
     6
 10
11978.320853499979
 20
16188.18618999998
 30
0.0
 11
12010.66024849998
 21
16029.235796999979
 31
0.0
  0
LINE
  5
3561
  8
0-6
  6
CONTINUOUS
 62
     6
 10
12010.66024849998
 20
16029.235796999979
 30
0.0
 11
11928.515176499959
 21
16169.103630999991
 31
0.0
  0
LINE
  5
3562
  8
0-6
  6
CONTINUOUS
 62
     6
 10
12010.66024849998
 20
16029.235796999979
 30
0.0
 11
11978.320853499979
 21
16188.18618999998
 31
0.0
  0
LINE
  5
3563
  8
0-6
  6
CONTINUOUS
 62
     6
 10
11978.320853499979
 20
16188.18618999998
 30
0.0
 11
11928.515176499959
 21
16169.103630999991
 31
0.0
  0
LINE
  5
3564
  8
0-6
  6
CONTINUOUS
 62
     6
 10
11928.515176499959
 20
16169.103630999991
 30
0.0
 11
12010.66024849998
 21
16029.235796999979
 31
0.0
  0
LINE
  5
3565
  8
0-6
  6
CONTINUOUS
 62
     6
 10
11928.515176499959
 20
16169.103630999991
 30
0.0
 11
11978.320853499979
 21
16188.18618999998
 31
0.0
  0
LINE
  5
3566
  8
0-6
  6
CONTINUOUS
 62
     6
 10
13304.32710849998
 20
17445.844616999992
 30
0.0
 11
13161.35340949998
 21
17369.229329999991
 31
0.0
  0
LINE
  5
3567
  8
0-6
  6
CONTINUOUS
 62
     6
 10
13161.35340949998
 20
17369.229329999991
 30
0.0
 11
13321.44499549998
 21
17395.337200999991
 31
0.0
  0
LINE
  5
3568
  8
0-6
  6
CONTINUOUS
 62
     6
 10
13161.35340949998
 20
17369.229329999991
 30
0.0
 11
13304.32710849998
 21
17445.844616999992
 31
0.0
  0
LINE
  5
3569
  8
0-6
  6
CONTINUOUS
 62
     6
 10
13304.32710849998
 20
17445.844616999992
 30
0.0
 11
13321.44499549998
 21
17395.337200999991
 31
0.0
  0
LINE
  5
356A
  8
0-6
  6
CONTINUOUS
 62
     6
 10
13321.44499549998
 20
17395.337200999991
 30
0.0
 11
13161.35340949998
 21
17369.229329999991
 31
0.0
  0
LINE
  5
356B
  8
0-6
  6
CONTINUOUS
 62
     6
 10
13321.44499549998
 20
17395.337200999991
 30
0.0
 11
13304.32710849998
 21
17445.844616999992
 31
0.0
  0
LINE
  5
356C
  8
0-6
  6
CONTINUOUS
 62
     6
 10
13304.32710849998
 20
18904.844616999999
 30
0.0
 11
13161.35340949998
 21
18828.231309999981
 31
0.0
  0
LINE
  5
356D
  8
0-6
  6
CONTINUOUS
 62
     6
 10
13161.35340949998
 20
18828.231309999981
 30
0.0
 11
13321.44499549998
 21
18854.337200999991
 31
0.0
  0
LINE
  5
356E
  8
0-6
  6
CONTINUOUS
 62
     6
 10
13161.35340949998
 20
18828.231309999981
 30
0.0
 11
13304.32710849998
 21
18904.844616999999
 31
0.0
  0
LINE
  5
356F
  8
0-6
  6
CONTINUOUS
 62
     6
 10
13304.32710849998
 20
18904.844616999999
 30
0.0
 11
13321.44499549998
 21
18854.337200999991
 31
0.0
  0
LINE
  5
3570
  8
0-6
  6
CONTINUOUS
 62
     6
 10
13321.44499549998
 20
18854.337200999991
 30
0.0
 11
13161.35340949998
 21
18828.231309999981
 31
0.0
  0
LINE
  5
3571
  8
0-6
  6
CONTINUOUS
 62
     6
 10
13321.44499549998
 20
18854.337200999991
 30
0.0
 11
13304.32710849998
 21
18904.844616999999
 31
0.0
  0
LINE
  5
3572
  8
0-6
  6
CONTINUOUS
 62
     6
 10
13792.246818499991
 20
16127.319951999991
 30
0.0
 11
13639.459604499971
 21
16053.208755999991
 31
0.0
  0
LINE
  5
3573
  8
0-6
  6
CONTINUOUS
 62
     6
 10
13639.459604499971
 20
16053.208755999991
 30
0.0
 11
13808.48184049999
 21
16076.51659799998
 31
0.0
  0
LINE
  5
3574
  8
0-6
  6
CONTINUOUS
 62
     6
 10
13639.459604499971
 20
16053.208755999991
 30
0.0
 11
13792.246818499991
 21
16127.319951999991
 31
0.0
  0
LINE
  5
3575
  8
0-6
  6
CONTINUOUS
 62
     6
 10
13792.246818499991
 20
16127.319951999991
 30
0.0
 11
13808.48184049999
 21
16076.51659799998
 31
0.0
  0
LINE
  5
3576
  8
0-6
  6
CONTINUOUS
 62
     6
 10
13808.48184049999
 20
16076.51659799998
 30
0.0
 11
13639.459604499971
 21
16053.208755999991
 31
0.0
  0
LINE
  5
3577
  8
0-6
  6
CONTINUOUS
 62
     6
 10
13808.48184049999
 20
16076.51659799998
 30
0.0
 11
13792.246818499991
 21
16127.319951999991
 31
0.0
  0
LINE
  5
3578
  8
0-6
  6
CONTINUOUS
 62
     6
 10
9187.4999734999874
 20
20267.807771999989
 30
0.0
 11
9147.10591749999
 21
20110.709219
 31
0.0
  0
LINE
  5
3579
  8
0-6
  6
CONTINUOUS
 62
     6
 10
9147.10591749999
 20
20110.709219
 30
0.0
 11
9236.2664034999907
 21
20246.213204
 31
0.0
  0
LINE
  5
357A
  8
0-6
  6
CONTINUOUS
 62
     6
 10
9147.10591749999
 20
20110.709219
 30
0.0
 11
9187.4999734999874
 21
20267.807771999989
 31
0.0
  0
LINE
  5
357B
  8
0-6
  6
CONTINUOUS
 62
     6
 10
9187.4999734999874
 20
20267.807771999989
 30
0.0
 11
9236.2664034999907
 21
20246.213204
 31
0.0
  0
LINE
  5
357C
  8
0-6
  6
CONTINUOUS
 62
     6
 10
9236.2664034999907
 20
20246.213204
 30
0.0
 11
9147.10591749999
 21
20110.709219
 31
0.0
  0
LINE
  5
357D
  8
0-6
  6
CONTINUOUS
 62
     6
 10
9236.2664034999907
 20
20246.213204
 30
0.0
 11
9187.4999734999874
 21
20267.807771999989
 31
0.0
  0
LINE
  5
357E
  8
0-6
  6
CONTINUOUS
 62
     6
 10
11209.73812249999
 20
19838.353195999989
 30
0.0
 11
11197.23944249998
 21
19676.62850699999
 31
0.0
  0
LINE
  5
357F
  8
0-6
  6
CONTINUOUS
 62
     6
 10
11197.23944249998
 20
19676.62850699999
 30
0.0
 11
11261.51540049998
 21
19825.559566999989
 31
0.0
  0
LINE
  5
3580
  8
0-6
  6
CONTINUOUS
 62
     6
 10
11197.23944249998
 20
19676.62850699999
 30
0.0
 11
11209.73812249999
 21
19838.353195999989
 31
0.0
  0
LINE
  5
3581
  8
0-6
  6
CONTINUOUS
 62
     6
 10
11209.73812249999
 20
19838.353195999989
 30
0.0
 11
11261.51540049998
 21
19825.559566999989
 31
0.0
  0
LINE
  5
3582
  8
0-6
  6
CONTINUOUS
 62
     6
 10
11261.51540049998
 20
19825.559566999989
 30
0.0
 11
11197.23944249998
 21
19676.62850699999
 31
0.0
  0
LINE
  5
3583
  8
0-6
  6
CONTINUOUS
 62
     6
 10
11261.51540049998
 20
19825.559566999989
 30
0.0
 11
11209.73812249999
 21
19838.353195999989
 31
0.0
  0
LINE
  5
3584
  8
2-0
  6
DASHED3
 62
     6
 10
11997.65976049999
 20
18783.230914
 30
0.0
 11
9219.6622014999884
 21
19891.730914
 31
0.0
  0
LINE
  5
3585
  8
2-0
  6
DASHED3
 62
     6
 10
9107.1612114999916
 20
19937.730966999981
 30
0.0
 11
13976.65975949998
 21
19937.730966999981
 31
0.0
  0
LINE
  5
3586
  8
2-0
  6
DASHED3
 62
     6
 10
9149.6604854999914
 20
19852.732419
 30
0.0
 11
13934.16048549999
 21
19852.732419
 31
0.0
  0
LINE
  5
3587
  8
2-0
  6
DASHED3
 62
     6
 10
9149.6604854999914
 20
19685.413610999989
 30
0.0
 11
9149.6604854999914
 21
19937.730966999981
 31
0.0
  0
LINE
  5
3588
  8
2-0
  6
DASHED3
 62
     6
 10
9107.1612114999916
 20
19704.296237999999
 30
0.0
 11
9107.1612114999916
 21
19937.730966999981
 31
0.0
  0
LINE
  5
3589
  8
2-0
  6
DASHED3
 62
     6
 10
13976.65975949998
 20
17133.306347000002
 30
0.0
 11
13976.65975949998
 21
19937.730966999981
 31
0.0
  0
LINE
  5
358A
  8
2-0
  6
DASHED3
 62
     6
 10
13934.16048549999
 20
17154.848458
 30
0.0
 11
13934.16048549999
 21
19937.730966999981
 31
0.0
  0
LINE
  5
358B
  8
2-0
  6
DASHED3
 62
     6
 10
11078.72170549998
 20
18828.231309999981
 30
0.0
 11
13934.16048549999
 21
18828.231309999981
 31
0.0
  0
LINE
  5
358C
  8
2-0
  6
DASHED3
 62
     6
 10
11281.27792449998
 20
18738.230517999978
 30
0.0
 11
13934.16048549999
 21
18738.230517999978
 31
0.0
  0
LINE
  5
358D
  8
2-0
  6
DASHED3
 62
     6
 10
13524.40899449998
 20
17358.23112499998
 30
0.0
 11
13934.16048549999
 21
17358.23112499998
 31
0.0
  0
LINE
  5
358E
  8
2-0
  6
DASHED3
 62
     6
 10
13688.76946449999
 20
17279.230518
 30
0.0
 11
13934.16048549999
 21
17279.230518
 31
0.0
  0
LINE
  5
358F
  8
2-0
  6
DASHED3
 62
     6
 10
12067.66048549998
 20
18229.955471000001
 30
0.0
 11
12067.66048549998
 21
18738.230517999978
 31
0.0
  0
LINE
  5
3590
  8
2-0
  6
DASHED3
 62
     6
 10
12067.66048549998
 20
18828.231309999981
 30
0.0
 11
12067.66048549998
 21
18738.230517999978
 31
0.0
  0
LINE
  5
3591
  8
2-0
  6
DASHED3
 62
     6
 10
12157.15946949998
 20
18783.230914
 30
0.0
 11
13864.15975949998
 21
19891.730914
 31
0.0
  0
LINE
  5
3592
  8
2-0
  6
DASHED3
 62
     6
 10
12137.66022149998
 20
19891.730914
 30
0.0
 11
13864.15975949998
 21
18783.230914
 31
0.0
  0
LINE
  5
3593
  8
2-0
  6
DASHED3
 62
     6
 10
12157.15946949998
 20
18783.230914
 30
0.0
 11
13864.15975949998
 21
17324.230914
 31
0.0
  0
LINE
  5
3594
  8
0-7
  6
CONTINUOUS
 62
     6
 10
12682.220834499991
 20
17790.110401000002
 30
0.0
 11
13864.15975949998
 21
18783.230914
 31
0.0
  0
LINE
  5
3595
  8
2-0
  6
DASHED3
 62
     6
 10
11863.08911749998
 20
18712.540325999991
 30
0.0
 11
11997.65976049999
 21
18783.230914
 31
0.0
  0
LINE
  5
3596
  8
2-0
  6
DASHED3
 62
     6
 10
10257.42835449998
 20
19197.650334999991
 30
0.0
 11
11997.65976049999
 21
19891.730914
 31
0.0
  0
LINE
  5
3597
  8
2-0
  6
CENTER2
 62
     6
 10
7820.1588954999879
 20
14406.230913999991
 30
0.0
 11
9476.6606974999777
 21
14406.230913999991
 31
0.0
  0
LINE
  5
3598
  8
2-0
  6
CENTER2
 62
     6
 10
7820.1588954999879
 20
17324.230914
 30
0.0
 11
9476.6606974999777
 21
17324.230914
 31
0.0
  0
LINE
  5
3599
  8
2-0
  6
CENTER2
 62
     6
 10
7820.1588954999879
 20
19891.730914
 30
0.0
 11
9476.6606974999777
 21
19891.730914
 31
0.0
  0
LINE
  5
359A
  8
2-0
  6
CENTER2
 62
     6
 10
8930.8652864999895
 20
18783.230914
 30
0.0
 11
14232.92427549997
 21
18783.230914
 31
0.0
  0
LINE
  5
359B
  8
2-0
  6
CENTER2
 62
     6
 10
8930.8652864999895
 20
15865.47142550002
 30
0.0
 11
14232.92427549997
 21
15865.47142550002
 31
0.0
  0
LINE
  5
359C
  8
0-8
  6
CONTINUOUS
 62
     6
 10
9149.6604854999914
 20
21134.229199000009
 30
0.0
 11
9149.6604854999914
 21
20184.230518
 31
0.0
  0
LINE
  5
359D
  8
2-0
  6
CENTER2
 62
     6
 10
13608.66225449999
 20
14406.230913999991
 30
0.0
 11
14232.92427549997
 21
14406.230913999991
 31
0.0
  0
LINE
  5
359E
  8
2-0
  6
CENTER2
 62
     6
 10
13608.66225449999
 20
17324.230914
 30
0.0
 11
14232.92427549997
 21
17324.230914
 31
0.0
  0
LINE
  5
359F
  8
0-8
  6
CONTINUOUS
 62
     6
 10
12067.66048549998
 20
21134.229199000009
 30
0.0
 11
12067.66048549998
 21
20184.230518
 31
0.0
  0
LINE
  5
35A0
  8
0-8
  6
CONTINUOUS
 62
     6
 10
13934.16048549999
 20
21134.229199000009
 30
0.0
 11
13934.16048549999
 21
20184.230518
 31
0.0
  0
LINE
  5
35A1
  8
1-5
  6
CONTINUOUS
 62
     6
 10
13765.20956449999
 20
17240.485400999991
 30
0.0
 11
13864.15975949998
 21
17324.230914
 31
0.0
  0
LINE
  5
35A2
  8
2-0
  6
DASHED3
 62
     6
 10
11630.197766499979
 20
18590.206077999988
 30
0.0
 11
11779.089236499991
 21
18668.416856999978
 31
0.0
  0
LINE
  5
35A3
  8
2-0
  6
DASHED3
 62
     6
 10
12010.66024849998
 20
18828.231309999981
 30
0.0
 11
12010.66024849998
 21
19852.732419
 31
0.0
  0
LINE
  5
35A4
  8
2-0
  6
DASHED3
 62
     6
 10
12067.66048549998
 20
18828.231309999981
 30
0.0
 11
12067.66048549998
 21
19852.732419
 31
0.0
  0
LINE
  5
35A5
  8
2-0
  6
DASHED3
 62
     6
 10
12124.659733499981
 20
18828.231309999981
 30
0.0
 11
12124.659733499981
 21
19852.732419
 31
0.0
  0
LINE
  5
35A6
  8
0-6
  6
CONTINUOUS
 62
     6
 10
15305.78474649999
 20
16255.45023099999
 30
0.0
 11
14280.748455499979
 21
16255.45023099999
 31
0.0
  0
LINE
  5
35A7
  8
2-0
  6
DASHED3
 62
     6
 10
12010.66024849998
 20
18364.418228999992
 30
0.0
 11
12010.66024849998
 21
18738.230517999978
 31
0.0
  0
LINE
  5
35A8
  8
2-0
  6
DASHED3
 62
     6
 10
12124.659733499981
 20
18095.492711999999
 30
0.0
 11
12124.659733499981
 21
18738.230517999978
 31
0.0
  0
ARC
  5
35A9
  8
0-1
  6
CONTINUOUS
 62
     3
 10
9132.6623204999869
 20
20079.230913999989
 30
0.0
 40
5.0
 50
269.9999850001808
 51
0.0
  0
ARC
  5
35AA
  8
0-1
  6
CONTINUOUS
 62
     3
 10
9132.6623204999869
 20
20109.232497999979
 30
0.0
 40
5.0
 50
0.0
 51
90.0
  0
ARC
  5
35AB
  8
0-1
  6
CONTINUOUS
 62
     3
 10
9069.1613434999908
 20
20109.232497999979
 30
0.0
 40
5.0
 50
90.0
 51
180.0
  0
ARC
  5
35AC
  8
0-1
  6
CONTINUOUS
 62
     3
 10
14014.65962749999
 20
20109.232497999979
 30
0.0
 40
5.0
 50
0.0
 51
90.0
  0
ARC
  5
35AD
  8
0-1
  6
CONTINUOUS
 62
     3
 10
13951.16063049999
 20
20109.232497999979
 30
0.0
 40
5.0
 50
90.0
 51
180.0
  0
ARC
  5
35AE
  8
0-1
  6
CONTINUOUS
 62
     3
 10
13951.16063049999
 20
20079.230913999989
 30
0.0
 40
5.0
 50
180.0
 51
269.9999850001808
  0
CIRCLE
  5
35AF
  8
0-5
  6
CONTINUOUS
 62
     4
 10
7620.1562554999873
 20
14406.230913999991
 30
0.0
 40
199.9999949999999
  0
CIRCLE
  5
35B0
  8
0-5
  6
CONTINUOUS
 62
     4
 10
7620.1562554999873
 20
17324.230914
 30
0.0
 40
199.9999949999999
  0
CIRCLE
  5
35B1
  8
0-5
  6
CONTINUOUS
 62
     4
 10
7620.1562554999873
 20
19891.730914
 30
0.0
 40
199.9999949999999
  0
CIRCLE
  5
35B2
  8
0-5
  6
CONTINUOUS
 62
     4
 10
9149.6604854999914
 20
21334.22787900002
 30
0.0
 40
199.9999949999999
  0
CIRCLE
  5
35B3
  8
0-5
  6
CONTINUOUS
 62
     4
 10
12067.66048549998
 20
21334.22787900002
 30
0.0
 40
199.9999949999999
  0
CIRCLE
  5
35B4
  8
0-5
  6
CONTINUOUS
 62
     4
 10
13934.16048549999
 20
21334.22787900002
 30
0.0
 40
199.9999949999999
  0
CIRCLE
  5
35B5
  8
0-5
  6
CONTINUOUS
 62
     4
 10
15128.716678999999
 20
1375.9997339999991
 30
0.0
 40
20.0
  0
ARC
  5
35B6
  8
0-5
  6
CONTINUOUS
 62
     4
 10
15128.716678999999
 20
1375.9997339999991
 30
0.0
 40
20.0
 50
180.0
 51
0.0
  0
ARC
  5
35B7
  8
0-5
  6
CONTINUOUS
 62
     4
 10
15128.716678999999
 20
1375.9997339999991
 30
0.0
 40
20.0
 50
0.0
 51
179.99998500000001
  0
CIRCLE
  5
35B8
  8
0-5
  6
CONTINUOUS
 62
     4
 10
15128.716678999999
 20
1775.9996929999991
 30
0.0
 40
20.0
  0
ARC
  5
35B9
  8
0-5
  6
CONTINUOUS
 62
     4
 10
15128.716678999999
 20
1775.9996929999991
 30
0.0
 40
20.0
 50
180.0
 51
0.0
  0
ARC
  5
35BA
  8
0-5
  6
CONTINUOUS
 62
     4
 10
15128.716678999999
 20
1775.9996929999991
 30
0.0
 40
20.0
 50
0.0
 51
179.99998500000001
  0
TEXT
  5
35BB
  8
0-5
  6
CONTINUOUS
 62
     7
 10
16620.615409225149
 20
1655.999791999998
 30
0.0
 40
160.0
  1
H
  0
TEXT
  5
35BC
  8
0-5
  6
CONTINUOUS
 62
     7
 10
15176.14792299999
 20
1655.999791999998
 30
0.0
 40
160.0
  1
（ ）内寸法ハ、  タ イプヲ示ス。
  0
TEXT
  5
35BD
  8
0-5
  6
CONTINUOUS
 62
     7
 10
15288.715227000001
 20
1255.999832999998
 30
0.0
 40
160.0
  1
有効高サハ、基礎高サヲ含ミマセン。
  0
TEXT
  5
35BE
  8
0-5
  6
CONTINUOUS
 62
     7
 10
7574.5847684999926
 20
14312.351255
 30
0.0
 40
160.0
  1
A
 72
     4
 11
7627.9181018333256
 21
14392.351255
 31
0.0
  0
TEXT
  5
35BF
  8
0-5
  6
CONTINUOUS
 62
     7
 10
7574.5847684999926
 20
17230.35125499998
 30
0.0
 40
160.0
  1
B
 72
     4
 11
7627.9181018333256
 21
17310.35125499998
 31
0.0
  0
TEXT
  5
35C0
  8
0-5
  6
CONTINUOUS
 62
     7
 10
7574.5847684999926
 20
19797.85026599999
 30
0.0
 40
160.0
  1
C
 72
     4
 11
7627.9181018333256
 21
19877.85026599999
 31
0.0
  0
TEXT
  5
35C1
  8
0-5
  6
CONTINUOUS
 62
     7
 10
9103.9425144999932
 20
21251.577040000018
 30
0.0
 40
160.0
  1
1
 72
     4
 11
9130.6091811666593
 21
21331.577040000018
 31
0.0
  0
TEXT
  5
35C2
  8
0-5
  6
CONTINUOUS
 62
     7
 10
12021.94053449998
 20
21251.577040000018
 30
0.0
 40
160.0
  1
2
 72
     4
 11
12075.273867833321
 21
21331.577040000018
 31
0.0
  0
TEXT
  5
35C3
  8
0-5
  6
CONTINUOUS
 62
     7
 10
13888.44053449999
 20
21251.577040000018
 30
0.0
 40
160.0
  1
3
 72
     4
 11
13941.773867833321
 21
21331.577040000018
 31
0.0
  0
TEXT
  5
35C4
  8
0-6
  6
CONTINUOUS
 62
     7
 10
7460.7639354999856
 20
13003.731111999999
 30
0.0
 40
160.0
  1
ケラバ 左
 72
     4
 11
7876.7639354999874
 21
13083.731111999999
 31
0.0
  0
TEXT
  5
35C5
  8
0-6
  6
CONTINUOUS
 62
     7
 10
9404.1875524999778
 20
19178.508389999992
 30
0.0
 40
160.0
  1
上枠
 72
     4
 11
9574.8542191666438
 21
19258.508389999992
 31
0.0
  0
TEXT
  5
35C6
  8
0-6
  6
CONTINUOUS
 62
     7
 10
11380.45378449997
 20
13493.732233000001
 30
0.0
 40
160.0
  1
鼻隠し前
 72
     4
 11
11743.12045116664
 21
13573.732233000001
 31
0.0
  0
TEXT
  5
35C7
  8
0-6
  6
CONTINUOUS
 62
     7
 10
11256.85066449998
 20
14862.79973550001
 30
0.0
 40
160.0
  1
桁（前）
 72
     4
 11
11576.85066449998
 21
14942.79973550001
 31
0.0
  0
TEXT
  5
35C8
  8
0-6
  6
CONTINUOUS
 62
     7
 10
11138.14487449998
 20
16536.63193799997
 30
0.0
 40
160.0
  1
+
 72
     4
 11
11191.478207833319
 21
16616.63193799997
 31
0.0
  0
TEXT
  5
35C9
  8
0-6
  6
CONTINUOUS
 62
     7
 10
10918.29657149997
 20
16534.25948499998
 30
0.0
 40
160.0
  1
梁　梁補強
 72
     4
 11
11376.96323816664
 21
16614.25948499998
 31
0.0
  0
TEXT
  5
35CA
  8
0-6
  6
CONTINUOUS
 62
     7
 10
11459.529613499981
 20
20424.231309999999
 30
0.0
 40
160.0
  1
屋根
 72
     4
 11
11630.19628016665
 21
20504.231309999999
 31
0.0
  0
TEXT
  5
35CB
  8
0-6
  6
CONTINUOUS
 62
     7
 10
9690.8990444999636
 20
21145.672795999992
 30
0.0
 40
160.0
  1
鼻隠しコーナー後
 72
     4
 11
10437.56571116663
 21
21225.672795999992
 31
0.0
  0
TEXT
  5
35CC
  8
2-0
  6
CONTINUOUS
 62
     7
 10
10467.83534349997
 20
12148.90618911071
 30
0.0
 40
160.0
  1
小 屋 伏 図
 50
359.99980699999981
 72
     4
 11
10969.168946309301
 21
12228.90450037622
 31
0.0
  0
TEXT
  5
35CD
  8
2-0
  6
CONTINUOUS
 62
     7
 10
14313.62726849998
 20
19258.88278299999
 30
0.0
 40
160.0
  1
桁中B +  桁中補強B
 50
359.99992099999997
 72
     4
 11
15246.960712137239
 21
19338.88149611048
 31
0.0
  0
TEXT
  5
35CE
  8
2-0
  6
CONTINUOUS
 62
     7
 10
14313.627268499989
 20
17800.37024599998
 30
0.0
 40
160.0
  1
桁中A +  桁中補強A
 50
0.000079
 72
     4
 11
15246.96049152763
 21
17880.371532889341
 31
0.0
  0
TEXT
  5
35CF
  8
2-0
  6
CONTINUOUS
 62
     7
 10
14313.62726849998
 20
15482.89283850002
 30
0.0
 40
160.0
  1
桁中B +  桁中補強B
 50
359.99988199999967
 72
     4
 11
15246.96076659042
 21
15562.89091631056
 31
0.0
  0
TEXT
  5
35D0
  8
0-6
  6
CONTINUOUS
 62
     7
 10
14360.74871949997
 20
16335.450494999979
 30
0.0
 40
160.0
  1
ブレース
 72
     4
 11
14723.41538616664
 21
16420.783828333311
 31
0.0
  0
TEXT
  5
35D8
  8
2-0
  6
CONTINUOUS
 62
     7
 10
12320.661131446919
 20
12176.09986937623
 30
0.0
 40
160.0
  1
1
 72
     4
 11
12347.327798113591
 21
12256.09986937623
 31
0.0
  0
TEXT
  5
35D9
  8
2-0
  6
CONTINUOUS
 62
     7
 10
12563.74984869762
 20
12096.101337376231
 30
0.0
 40
160.0
  1
80
 72
     4
 11
12683.74984869762
 21
12176.101337376231
 31
0.0
  0
TEXT
  5
35DA
  8
2-0
  6
CONTINUOUS
 62
     7
 10
11821.66309744691
 20
12148.90450037622
 30
0.0
 40
160.0
  1
(S=  /   )
 72
     4
 11
12381.66309744691
 21
12228.90450037622
 31
0.0
  0
TEXT
  5
35DB
  8
0-6
  6
CONTINUOUS
 62
     7
 10
9757.3900983991934
 20
20424.229329999991
 30
0.0
 40
160.0
  1
桁後+桁後補強
 72
     4
 11
10392.05676506586
 21
20504.229329999991
 31
0.0
  0
LINE
  5
35DC
  8
0-6
  6
CONTINUOUS
 62
     6
 10
11201.10550625436
 20
19937.730966999981
 30
0.0
 11
11067.71155837313
 21
20344.23104599999
 31
0.0
  0
LINE
  5
35DD
  8
0-6
  6
CONTINUOUS
 62
     6
 10
9717.9692048039142
 20
20344.23104599999
 30
0.0
 11
11067.71155837313
 21
20344.23104599999
 31
0.0
  0
LINE
  5
35DE
  8
0-6
  6
CONTINUOUS
 62
     6
 10
11177.498050887079
 20
20098.212405424911
 30
0.0
 11
11126.724407114139
 21
20081.87888924015
 31
0.0
  0
LINE
  5
35DF
  8
0-6
  6
CONTINUOUS
 62
     6
 10
11177.498050887079
 20
20098.212405424911
 30
0.0
 11
11201.10550625436
 21
19937.730966999981
 31
0.0
  0
LINE
  5
35E0
  8
0-6
  6
CONTINUOUS
 62
     6
 10
11126.724407114139
 20
20081.87888924015
 30
0.0
 11
11177.498050887079
 21
20098.212405424911
 31
0.0
  0
LINE
  5
35E1
  8
0-6
  6
CONTINUOUS
 62
     6
 10
11201.10550625436
 20
19937.730966999981
 30
0.0
 11
11126.724407114139
 21
20081.87888924015
 31
0.0
  0
LINE
  5
35E2
  8
0-6
  6
CONTINUOUS
 62
     6
 10
11201.10550625436
 20
19937.730966999981
 30
0.0
 11
11177.498050887079
 21
20098.212405424911
 31
0.0
  0
LINE
  5
35E3
  8
0-6
  6
CONTINUOUS
 62
     6
 10
11126.724407114139
 20
20081.87888924015
 30
0.0
 11
11201.10550625436
 21
19937.730966999981
 31
0.0
  0
LINE
  5
35E4
  8
0-1
  6
CONTINUOUS
 62
     3
 10
8789.3756595000086
 20
8526.8256480000018
 30
0.0
 11
14319.874076499989
 21
8526.8256480000018
 31
0.0
  0
LINE
  5
35E5
  8
0-1
  6
CONTINUOUS
 62
     3
 10
8079.3748015000074
 20
6515.7797690000016
 30
0.0
 11
14352.373878500001
 21
6515.7797690000016
 31
0.0
  0
LINE
  5
35E6
  8
0-1
  6
CONTINUOUS
 62
     3
 10
8884.3747355000087
 20
6665.7797690000016
 30
0.0
 11
11306.8740105
 21
6665.7797690000016
 31
0.0
  0
LINE
  5
35E7
  8
0-1
  6
CONTINUOUS
 62
     3
 10
8761.8738785000005
 20
6615.7796040000021
 30
0.0
 11
14352.373878500001
 21
6615.7796040000021
 31
0.0
  0
LINE
  5
35E8
  8
0-1
  6
CONTINUOUS
 62
     3
 10
8884.3747355000087
 20
8526.8256480000018
 30
0.0
 11
8884.3747355000087
 21
6615.7796040000021
 31
0.0
  0
LINE
  5
35E9
  8
0-1
  6
CONTINUOUS
 62
     3
 10
8769.3746035000058
 20
8648.7936849999969
 30
0.0
 11
8769.3746035000058
 21
6615.7796040000021
 31
0.0
  0
LINE
  5
35EA
  8
0-1
  6
CONTINUOUS
 62
     3
 10
8789.3756595000086
 20
8649.4489060000051
 30
0.0
 11
8789.3756595000086
 21
6615.7796040000021
 31
0.0
  0
LINE
  5
35EB
  8
0-1
  6
CONTINUOUS
 62
     3
 10
8761.8738785000005
 20
6515.7797690000016
 30
0.0
 11
8761.8738785000005
 21
6615.7796040000021
 31
0.0
  0
LINE
  5
35EC
  8
0-1
  6
CONTINUOUS
 62
     3
 10
14415.00776049999
 20
8833.2689810000029
 30
0.0
 11
14410.747836500001
 21
8963.198642000003
 31
0.0
  0
LINE
  5
35ED
  8
0-1
  6
CONTINUOUS
 62
     3
 10
11451.873746499999
 20
6665.7797690000016
 30
0.0
 11
14224.874010499991
 21
6665.7797690000016
 31
0.0
  0
LINE
  5
35EE
  8
0-1
  6
CONTINUOUS
 62
     3
 10
10915.373732499969
 20
6665.7797690000016
 30
0.0
 11
10915.373732499969
 21
8526.8256480000018
 31
0.0
  0
LINE
  5
35EF
  8
0-1
  6
CONTINUOUS
 62
     3
 10
10782.3748285
 20
6665.7797690000016
 30
0.0
 11
10782.3748285
 21
8526.8256480000018
 31
0.0
  0
LINE
  5
35F0
  8
0-1
  6
CONTINUOUS
 62
     3
 10
10767.373046500001
 20
6665.7797690000016
 30
0.0
 11
10767.373046500001
 21
8526.8256480000018
 31
0.0
  0
LINE
  5
35F1
  8
0-1
  6
CONTINUOUS
 62
     3
 10
10965.37538249998
 20
6665.7797690000016
 30
0.0
 11
10965.37538249998
 21
8526.8256480000018
 31
0.0
  0
LINE
  5
35F2
  8
0-1
  6
CONTINUOUS
 62
     3
 10
10985.374458499989
 20
6665.7797690000016
 30
0.0
 11
10985.374458499989
 21
8526.8256480000018
 31
0.0
  0
LINE
  5
35F3
  8
0-1
  6
CONTINUOUS
 62
     3
 10
11035.3751185
 20
6665.7797690000016
 30
0.0
 11
11035.3751185
 21
8526.8256480000018
 31
0.0
  0
LINE
  5
35F4
  8
0-1
  6
CONTINUOUS
 62
     3
 10
11168.3740235
 20
6665.7797690000016
 30
0.0
 11
11168.3740235
 21
8526.8256480000018
 31
0.0
  0
LINE
  5
35F5
  8
0-1
  6
CONTINUOUS
 62
     3
 10
11183.3728355
 20
6665.7797690000016
 30
0.0
 11
11183.3728355
 21
8526.8256480000018
 31
0.0
  0
LINE
  5
35F6
  8
0-1
  6
CONTINUOUS
 62
     3
 10
11451.873746499999
 20
8526.8256480000018
 30
0.0
 11
11451.873746499999
 21
6615.7796040000021
 31
0.0
  0
LINE
  5
35F7
  8
0-1
  6
CONTINUOUS
 62
     3
 10
11306.8740105
 20
8526.8256480000018
 30
0.0
 11
11306.8740105
 21
6615.7796040000021
 31
0.0
  0
LINE
  5
35F8
  8
0-1
  6
CONTINUOUS
 62
     3
 10
11575.372941499991
 20
6665.7797690000016
 30
0.0
 11
11575.372941499991
 21
8526.8256480000018
 31
0.0
  0
LINE
  5
35F9
  8
0-1
  6
CONTINUOUS
 62
     3
 10
11590.374722500001
 20
6665.7797690000016
 30
0.0
 11
11590.374722500001
 21
8526.8256480000018
 31
0.0
  0
LINE
  5
35FA
  8
0-1
  6
CONTINUOUS
 62
     3
 10
11723.373627499999
 20
6665.7797690000016
 30
0.0
 11
11723.373627499999
 21
8526.8256480000018
 31
0.0
  0
LINE
  5
35FB
  8
0-1
  6
CONTINUOUS
 62
     3
 10
11773.37428749999
 20
6665.7797690000016
 30
0.0
 11
11773.37428749999
 21
8526.8256480000018
 31
0.0
  0
LINE
  5
35FC
  8
0-1
  6
CONTINUOUS
 62
     3
 10
11793.373363500001
 20
6665.7797690000016
 30
0.0
 11
11793.373363500001
 21
8526.8256480000018
 31
0.0
  0
LINE
  5
35FD
  8
0-1
  6
CONTINUOUS
 62
     3
 10
9565.3737324999875
 20
6665.7797690000016
 30
0.0
 11
9565.3737324999875
 21
8526.8256480000018
 31
0.0
  0
LINE
  5
35FE
  8
0-1
  6
CONTINUOUS
 62
     3
 10
9585.3757785000034
 20
6665.7797690000016
 30
0.0
 11
9585.3757785000034
 21
8526.8256480000018
 31
0.0
  0
LINE
  5
35FF
  8
0-1
  6
CONTINUOUS
 62
     3
 10
9515.3730734999917
 20
6665.7797690000016
 30
0.0
 11
9515.3730734999917
 21
8526.8256480000018
 31
0.0
  0
LINE
  5
3600
  8
0-1
  6
CONTINUOUS
 62
     3
 10
9635.3734695000021
 20
6665.7797690000016
 30
0.0
 11
9635.3734695000021
 21
8526.8256480000018
 31
0.0
  0
LINE
  5
3601
  8
0-1
  6
CONTINUOUS
 62
     3
 10
9768.3733635000044
 20
6665.7797690000016
 30
0.0
 11
9768.3733635000044
 21
8526.8256480000018
 31
0.0
  0
LINE
  5
3602
  8
0-1
  6
CONTINUOUS
 62
     3
 10
9783.375145500002
 20
6665.7797690000016
 30
0.0
 11
9783.375145500002
 21
8526.8256480000018
 31
0.0
  0
LINE
  5
3603
  8
0-1
  6
CONTINUOUS
 62
     3
 10
9372.8743925000072
 20
6665.7797690000016
 30
0.0
 11
9372.8743925000072
 21
8526.8256480000018
 31
0.0
  0
LINE
  5
3604
  8
0-1
  6
CONTINUOUS
 62
     3
 10
9357.8755805000092
 20
6665.7797690000016
 30
0.0
 11
9357.8755805000092
 21
8526.8256480000018
 31
0.0
  0
LINE
  5
3605
  8
0-1
  6
CONTINUOUS
 62
     3
 10
10067.37370649998
 20
6665.7797690000016
 30
0.0
 11
10067.37370649998
 21
8526.8256480000018
 31
0.0
  0
LINE
  5
3606
  8
0-1
  6
CONTINUOUS
 62
     3
 10
10082.37251849998
 20
6665.7797690000016
 30
0.0
 11
10082.37251849998
 21
8526.8256480000018
 31
0.0
  0
LINE
  5
3607
  8
0-1
  6
CONTINUOUS
 62
     3
 10
10483.3744855
 20
6665.7797690000016
 30
0.0
 11
10483.3744855
 21
8526.8256480000018
 31
0.0
  0
LINE
  5
3608
  8
0-1
  6
CONTINUOUS
 62
     3
 10
10468.37270349999
 20
6665.7797690000016
 30
0.0
 11
10468.37270349999
 21
8526.8256480000018
 31
0.0
  0
LINE
  5
3609
  8
0-1
  6
CONTINUOUS
 62
     3
 10
10335.372809499981
 20
6665.7797690000016
 30
0.0
 11
10335.372809499981
 21
8526.8256480000018
 31
0.0
  0
LINE
  5
360A
  8
0-1
  6
CONTINUOUS
 62
     3
 10
10215.3743925
 20
6665.7797690000016
 30
0.0
 11
10215.3743925
 21
8526.8256480000018
 31
0.0
  0
LINE
  5
360B
  8
0-1
  6
CONTINUOUS
 62
     3
 10
10285.37511849998
 20
6665.7797690000016
 30
0.0
 11
10285.37511849998
 21
8526.8256480000018
 31
0.0
  0
LINE
  5
360C
  8
0-1
  6
CONTINUOUS
 62
     3
 10
10265.37307349999
 20
6665.7797690000016
 30
0.0
 11
10265.37307349999
 21
8526.8256480000018
 31
0.0
  0
LINE
  5
360D
  8
0-1
  6
CONTINUOUS
 62
     3
 10
10606.874669500001
 20
8526.8256480000018
 30
0.0
 11
10606.874669500001
 21
6665.7797690000016
 31
0.0
  0
LINE
  5
360E
  8
0-1
  6
CONTINUOUS
 62
     3
 10
10643.8728625
 20
8526.8256480000018
 30
0.0
 11
10643.8728625
 21
6665.7797690000016
 31
0.0
  0
LINE
  5
360F
  8
0-1
  6
CONTINUOUS
 62
     3
 10
9197.3742345000101
 20
8526.8256480000018
 30
0.0
 11
9197.3742345000101
 21
6665.7797690000016
 31
0.0
  0
LINE
  5
3610
  8
0-1
  6
CONTINUOUS
 62
     3
 10
9234.3744055000116
 20
8526.8256480000018
 30
0.0
 11
9234.3744055000116
 21
6665.7797690000016
 31
0.0
  0
LINE
  5
3611
  8
0-1
  6
CONTINUOUS
 62
     3
 10
9906.8753295000079
 20
8526.8256480000018
 30
0.0
 11
9906.8753295000079
 21
6665.7797690000016
 31
0.0
  0
LINE
  5
3612
  8
0-1
  6
CONTINUOUS
 62
     3
 10
9943.8735214999961
 20
8526.8256480000018
 30
0.0
 11
9943.8735214999961
 21
6665.7797690000016
 31
0.0
  0
LINE
  5
3613
  8
0-1
  6
CONTINUOUS
 62
     3
 10
11379.373878500001
 20
8734.0614480000004
 30
0.0
 11
11375.1129645
 21
8863.9911090000023
 31
0.0
  0
LINE
  5
3614
  8
0-1
  6
CONTINUOUS
 62
     3
 10
11379.373878500001
 20
8734.0614480000004
 30
0.0
 11
11379.373878500001
 21
8526.8256480000018
 31
0.0
  0
LINE
  5
3615
  8
0-1
  6
CONTINUOUS
 62
     3
 10
14224.874010499991
 20
8526.8256480000018
 30
0.0
 11
14224.874010499991
 21
6615.7796040000021
 31
0.0
  0
LINE
  5
3616
  8
0-1
  6
CONTINUOUS
 62
     3
 10
14339.8731525
 20
8830.805470000003
 30
0.0
 11
14339.8731525
 21
6615.7796040000021
 31
0.0
  0
LINE
  5
3617
  8
0-1
  6
CONTINUOUS
 62
     3
 10
14319.874076499989
 20
8830.149260000002
 30
0.0
 11
14319.874076499989
 21
6615.7796040000021
 31
0.0
  0
LINE
  5
3618
  8
0-1
  6
CONTINUOUS
 62
     3
 10
12814.87423449999
 20
8526.8256480000018
 30
0.0
 11
12814.87423449999
 21
6665.7797690000016
 31
0.0
  0
LINE
  5
3619
  8
0-1
  6
CONTINUOUS
 62
     3
 10
12851.87341649999
 20
8526.8256480000018
 30
0.0
 11
12851.87341649999
 21
6665.7797690000016
 31
0.0
  0
LINE
  5
361A
  8
0-1
  6
CONTINUOUS
 62
     3
 10
13524.874670499999
 20
8526.8256480000018
 30
0.0
 11
13524.874670499999
 21
6665.7797690000016
 31
0.0
  0
LINE
  5
361B
  8
0-1
  6
CONTINUOUS
 62
     3
 10
13561.8728625
 20
8526.8256480000018
 30
0.0
 11
13561.8728625
 21
6665.7797690000016
 31
0.0
  0
LINE
  5
361C
  8
0-1
  6
CONTINUOUS
 62
     3
 10
12114.8729145
 20
8526.8256480000018
 30
0.0
 11
12114.8729145
 21
6665.7797690000016
 31
0.0
  0
LINE
  5
361D
  8
0-1
  6
CONTINUOUS
 62
     3
 10
12151.87407649998
 20
8526.8256480000018
 30
0.0
 11
12151.87407649998
 21
6665.7797690000016
 31
0.0
  0
LINE
  5
361E
  8
0-1
  6
CONTINUOUS
 62
     3
 10
12493.372703499999
 20
6665.7797690000016
 30
0.0
 11
12493.372703499999
 21
8526.8256480000018
 31
0.0
  0
LINE
  5
361F
  8
0-1
  6
CONTINUOUS
 62
     3
 10
12473.37362749999
 20
6665.7797690000016
 30
0.0
 11
12473.37362749999
 21
8526.8256480000018
 31
0.0
  0
LINE
  5
3620
  8
0-1
  6
CONTINUOUS
 62
     3
 10
12543.373363500001
 20
6665.7797690000016
 30
0.0
 11
12543.373363500001
 21
8526.8256480000018
 31
0.0
  0
LINE
  5
3621
  8
0-1
  6
CONTINUOUS
 62
     3
 10
12423.37296749999
 20
6665.7797690000016
 30
0.0
 11
12423.37296749999
 21
8526.8256480000018
 31
0.0
  0
LINE
  5
3622
  8
0-1
  6
CONTINUOUS
 62
     3
 10
12290.373073500001
 20
6665.7797690000016
 30
0.0
 11
12290.373073500001
 21
8526.8256480000018
 31
0.0
  0
LINE
  5
3623
  8
0-1
  6
CONTINUOUS
 62
     3
 10
12275.374260500001
 20
6665.7797690000016
 30
0.0
 11
12275.374260500001
 21
8526.8256480000018
 31
0.0
  0
LINE
  5
3624
  8
0-1
  6
CONTINUOUS
 62
     3
 10
12676.37325749999
 20
6665.7797690000016
 30
0.0
 11
12676.37325749999
 21
8526.8256480000018
 31
0.0
  0
LINE
  5
3625
  8
0-1
  6
CONTINUOUS
 62
     3
 10
12691.375039500001
 20
6665.7797690000016
 30
0.0
 11
12691.375039500001
 21
8526.8256480000018
 31
0.0
  0
LINE
  5
3626
  8
0-1
  6
CONTINUOUS
 62
     3
 10
13391.37437949999
 20
6665.7797690000016
 30
0.0
 11
13391.37437949999
 21
8526.8256480000018
 31
0.0
  0
LINE
  5
3627
  8
0-1
  6
CONTINUOUS
 62
     3
 10
13376.3725985
 20
6665.7797690000016
 30
0.0
 11
13376.3725985
 21
8526.8256480000018
 31
0.0
  0
LINE
  5
3628
  8
0-1
  6
CONTINUOUS
 62
     3
 10
12975.37360149999
 20
6665.7797690000016
 30
0.0
 11
12975.37360149999
 21
8526.8256480000018
 31
0.0
  0
LINE
  5
3629
  8
0-1
  6
CONTINUOUS
 62
     3
 10
12990.3743925
 20
6665.7797690000016
 30
0.0
 11
12990.3743925
 21
8526.8256480000018
 31
0.0
  0
LINE
  5
362A
  8
0-1
  6
CONTINUOUS
 62
     3
 10
13123.375277499999
 20
6665.7797690000016
 30
0.0
 11
13123.375277499999
 21
8526.8256480000018
 31
0.0
  0
LINE
  5
362B
  8
0-1
  6
CONTINUOUS
 62
     3
 10
13243.372703499999
 20
6665.7797690000016
 30
0.0
 11
13243.372703499999
 21
8526.8256480000018
 31
0.0
  0
LINE
  5
362C
  8
0-1
  6
CONTINUOUS
 62
     3
 10
13173.3729675
 20
6665.7797690000016
 30
0.0
 11
13173.3729675
 21
8526.8256480000018
 31
0.0
  0
LINE
  5
362D
  8
0-1
  6
CONTINUOUS
 62
     3
 10
13193.37501349999
 20
6665.7797690000016
 30
0.0
 11
13193.37501349999
 21
8526.8256480000018
 31
0.0
  0
LINE
  5
362E
  8
0-1
  6
CONTINUOUS
 62
     3
 10
13903.374459500001
 20
6665.7797690000016
 30
0.0
 11
13903.374459500001
 21
8526.8256480000018
 31
0.0
  0
LINE
  5
362F
  8
0-1
  6
CONTINUOUS
 62
     3
 10
13883.375383500001
 20
6665.7797690000016
 30
0.0
 11
13883.375383500001
 21
8526.8256480000018
 31
0.0
  0
LINE
  5
3630
  8
0-1
  6
CONTINUOUS
 62
     3
 10
13953.37511949999
 20
6665.7797690000016
 30
0.0
 11
13953.37511949999
 21
8526.8256480000018
 31
0.0
  0
LINE
  5
3631
  8
0-1
  6
CONTINUOUS
 62
     3
 10
13833.374723499999
 20
6665.7797690000016
 30
0.0
 11
13833.374723499999
 21
8526.8256480000018
 31
0.0
  0
LINE
  5
3632
  8
0-1
  6
CONTINUOUS
 62
     3
 10
13700.3748285
 20
6665.7797690000016
 30
0.0
 11
13700.3748285
 21
8526.8256480000018
 31
0.0
  0
LINE
  5
3633
  8
0-1
  6
CONTINUOUS
 62
     3
 10
13685.373047499999
 20
6665.7797690000016
 30
0.0
 11
13685.373047499999
 21
8526.8256480000018
 31
0.0
  0
LINE
  5
3634
  8
0-1
  6
CONTINUOUS
 62
     3
 10
14086.37501349999
 20
6665.7797690000016
 30
0.0
 11
14086.37501349999
 21
8526.8256480000018
 31
0.0
  0
LINE
  5
3635
  8
0-1
  6
CONTINUOUS
 62
     3
 10
14101.373825499981
 20
6665.7797690000016
 30
0.0
 11
14101.373825499981
 21
8526.8256480000018
 31
0.0
  0
LINE
  5
3636
  8
0-1
  6
CONTINUOUS
 62
     3
 10
11991.372730499999
 20
6665.7797690000016
 30
0.0
 11
11991.372730499999
 21
8526.8256480000018
 31
0.0
  0
LINE
  5
3637
  8
0-1
  6
CONTINUOUS
 62
     3
 10
11976.373917499999
 20
6665.7797690000016
 30
0.0
 11
11976.373917499999
 21
8526.8256480000018
 31
0.0
  0
LINE
  5
3638
  8
0-1
  6
CONTINUOUS
 62
     3
 10
11843.37501349999
 20
6665.7797690000016
 30
0.0
 11
11843.37501349999
 21
8526.8256480000018
 31
0.0
  0
LINE
  5
3639
  8
0-1
  6
CONTINUOUS
 62
     3
 10
14352.373878500001
 20
6615.7796040000021
 30
0.0
 11
14352.373878500001
 21
6515.7797690000016
 31
0.0
  0
LINE
  5
363A
  8
0-1
  6
CONTINUOUS
 62
     3
 10
8592.0621965000137
 20
8691.0049390000022
 30
0.0
 11
8590.9477275000136
 21
8724.9873349999998
 31
0.0
  0
LINE
  5
363B
  8
0-1
  6
CONTINUOUS
 62
     3
 10
8593.8477225000097
 20
8728.0833020000027
 30
0.0
 11
14424.215490500001
 21
8918.6159240000015
 31
0.0
  0
LINE
  5
363C
  8
0-1
  6
CONTINUOUS
 62
     3
 10
14425.52692149999
 20
8878.6375670000016
 30
0.0
 11
8595.1601425000081
 21
8688.1049450000046
 31
0.0
  0
LINE
  5
363D
  8
0-1
  6
CONTINUOUS
 62
     3
 10
8592.4234584999995
 20
8680.0106930000056
 30
0.0
 11
8592.4204895000057
 21
8680.0760170000012
 31
0.0
  0
LINE
  5
363E
  8
0-1
  6
CONTINUOUS
 62
     3
 10
8592.4204895000057
 20
8680.0760170000012
 30
0.0
 11
8593.4716135000053
 21
8648.0286010000054
 31
0.0
  0
LINE
  5
363F
  8
0-1
  6
CONTINUOUS
 62
     3
 10
8598.6322185000045
 20
8643.1956070000069
 30
0.0
 11
14447.971693499991
 21
8834.3497980000029
 31
0.0
  0
LINE
  5
3640
  8
0-1
  6
CONTINUOUS
 62
     3
 10
14443.710779499999
 20
8964.2794590000049
 30
0.0
 11
8594.3732845000068
 21
8773.1252680000016
 31
0.0
  0
LINE
  5
3641
  8
0-1
  6
CONTINUOUS
 62
     3
 10
8589.5383105000055
 20
8767.963673000002
 30
0.0
 11
8590.5884445000029
 21
8735.981581
 31
0.0
  0
LINE
  5
3642
  8
0-1
  6
CONTINUOUS
 62
     3
 10
8593.6844115000058
 20
8733.0815860000002
 30
0.0
 11
14424.05317049999
 21
8923.614209000003
 31
0.0
  0
LINE
  5
3643
  8
0-1
  6
CONTINUOUS
 62
     3
 10
14425.689242500001
 20
8873.6412620000028
 30
0.0
 11
8595.3224635000097
 21
8683.1076500000017
 31
0.0
  0
LINE
  5
3644
  8
0-1
  6
CONTINUOUS
 62
     3
 10
8606.8650365000067
 20
8773.5350280000057
 30
0.0
 11
8611.1259495000049
 21
8643.6043770000033
 31
0.0
  0
LINE
  5
3645
  8
0-5
  6
CONTINUOUS
 62
     4
 10
17222.747439499992
 20
6723.6262510000033
 30
0.0
 11
17342.745856499991
 21
6515.7797690000016
 31
0.0
  0
LINE
  5
3646
  8
0-5
  6
CONTINUOUS
 62
     4
 10
14432.374142500001
 20
6515.7797690000016
 30
0.0
 11
19665.119536499999
 21
6515.7797690000016
 31
0.0
  0
LINE
  5
3647
  8
0-5
  6
CONTINUOUS
 62
     4
 10
17342.745856499991
 20
6515.7797690000016
 30
0.0
 11
17462.748231499991
 21
6723.6262510000033
 31
0.0
  0
LINE
  5
3648
  8
0-5
  6
CONTINUOUS
 62
     4
 10
17462.748231499991
 20
6723.6262510000033
 30
0.0
 11
17222.747439499992
 21
6723.6262510000033
 31
0.0
  0
LINE
  5
3649
  8
0-5
  6
CONTINUOUS
 62
     4
 10
14432.374142500001
 20
6615.7796040000021
 30
0.0
 11
16149.8340905
 21
6615.7796040000021
 31
0.0
  0
LINE
  5
364A
  8
0-5
  6
CONTINUOUS
 62
     4
 10
16177.460251500001
 20
6823.6255910000036
 30
0.0
 11
15937.4584705
 21
6823.6255910000036
 31
0.0
  0
LINE
  5
364B
  8
0-5
  6
CONTINUOUS
 62
     4
 10
16057.457876500001
 20
6615.7796040000021
 30
0.0
 11
16177.460251500001
 21
6823.6255910000036
 31
0.0
  0
LINE
  5
364C
  8
0-5
  6
CONTINUOUS
 62
     4
 10
15937.4584705
 20
6823.6255910000036
 30
0.0
 11
16057.457876500001
 21
6615.7796040000021
 31
0.0
  0
LINE
  5
364D
  8
2-0
  6
CENTER2
 62
     6
 10
8811.8738785000005
 20
6253.1263570000046
 30
0.0
 11
8811.8738785000005
 21
7310.2694489999967
 31
0.0
  0
LINE
  5
364E
  8
2-0
  6
CENTER2
 62
     6
 10
11379.373878500001
 20
6253.1263570000046
 30
0.0
 11
11379.373878500001
 21
7310.2694489999967
 31
0.0
  0
LINE
  5
364F
  8
2-0
  6
CENTER2
 62
     6
 10
14297.373878500001
 20
6253.1263570000046
 30
0.0
 11
14297.373878500001
 21
7310.2694489999967
 31
0.0
  0
ARC
  5
3650
  8
0-1
  6
CONTINUOUS
 62
     3
 10
8595.2650575000062
 20
8730.6309420000034
 30
0.0
 40
2.5
 50
271.87799100002047
 51
91.877991000020657
  0
ARC
  5
3651
  8
0-1
  6
CONTINUOUS
 62
     3
 10
8596.7397985000061
 20
8685.6562800000029
 30
0.0
 40
2.5
 50
271.87799100002047
 51
91.877991000020657
  0
ARC
  5
3652
  8
0-1
  6
CONTINUOUS
 62
     3
 10
8593.9457085000067
 20
8725.0853210000023
 30
0.0
 40
3.0
 50
91.877991000020657
 51
181.87799100002039
  0
ARC
  5
3653
  8
0-1
  6
CONTINUOUS
 62
     3
 10
14424.871701499989
 20
8898.6267460000035
 30
0.0
 40
20.0
 50
271.87799100002047
 51
91.877991000020657
  0
ARC
  5
3654
  8
0-1
  6
CONTINUOUS
 62
     3
 10
8595.0601775000068
 20
8691.1039149999979
 30
0.0
 40
3.0
 50
181.87799100002039
 51
271.87799100002047
  0
ARC
  5
3655
  8
0-1
  6
CONTINUOUS
 62
     3
 10
8595.4204495000085
 20
8680.1096690000049
 30
0.0
 40
3.0
 50
91.877991000020657
 51
181.87799100002039
  0
ARC
  5
3656
  8
0-1
  6
CONTINUOUS
 62
     3
 10
8598.4689085000082
 20
8648.1919120000057
 30
0.0
 40
5.0
 50
181.87799100002039
 51
271.87799100002047
  0
ARC
  5
3657
  8
0-1
  6
CONTINUOUS
 62
     3
 10
14419.873416500001
 20
8898.4634360000018
 30
0.0
 40
69.999999000000003
 50
293.66478000018742
 51
70.091202000197327
  0
ARC
  5
3658
  8
0-1
  6
CONTINUOUS
 62
     3
 10
8594.5356045000062
 20
8768.1279730000024
 30
0.0
 40
5.0
 50
91.877991000020657
 51
181.87799100002039
  0
ARC
  5
3659
  8
0-1
  6
CONTINUOUS
 62
     3
 10
8593.5854355000029
 20
8736.0795670000025
 30
0.0
 40
3.0
 50
181.87799100002039
 51
271.87799100002047
  0
ARC
  5
365A
  8
0-1
  6
CONTINUOUS
 62
     3
 10
14424.871701499989
 20
8898.6267460000035
 30
0.0
 40
24.999998999999999
 50
271.87799100002047
 51
91.877991000020657
  0
TEXT
  5
365B
  8
0-0
  6
CONTINUOUS
 62
     7
 10
17222.747439499992
 20
6803.6260200000024
 30
0.0
 40
160.0
  1
G.L
 72
     4
 11
17382.747439499992
 21
6883.6260200000042
 31
0.0
  0
TEXT
  5
365C
  8
0-0
  6
CONTINUOUS
 62
     7
 10
15598.366937499981
 20
6903.6258549999966
 30
0.0
 40
160.0
  1
布基礎天端
 72
     4
 11
16057.033604166651
 21
6983.6258549999984
 31
0.0
  0
TEXT
  5
365D
  8
2-0
  6
CONTINUOUS
 62
     7
 10
9898.7830575000098
 20
3638.6597025833762
 30
0.0
 40
160.0
  1
側 面 立 面 図
 72
     4
 11
10544.11639083334
 21
3718.6597025833762
 31
0.0
  0
TEXT
  5
365E
  8
2-0
  6
CONTINUOUS
 62
     7
 10
11895.60857597094
 20
3665.855071583379
 30
0.0
 40
160.0
  1
1
 72
     4
 11
11922.27524263761
 21
3745.855071583379
 31
0.0
  0
TEXT
  5
365F
  8
2-0
  6
CONTINUOUS
 62
     7
 10
12138.69729322165
 20
3585.8565395833748
 30
0.0
 40
160.0
  1
80
 72
     4
 11
12258.69729322165
 21
3665.8565395833748
 31
0.0
  0
TEXT
  5
3660
  8
2-0
  6
CONTINUOUS
 62
     7
 10
11396.61054197096
 20
3638.6597025833762
 30
0.0
 40
160.0
  1
(S=  /   )
 72
     4
 11
11956.61054197096
 21
3718.6597025833762
 31
0.0
  0
LINE
  5
3661
  8
0-1
  6
CONTINUOUS
 62
     3
 10
9064.3743395000256
 20
6665.7797690000016
 30
0.0
 11
9064.3743395000256
 21
8526.8256480000018
 31
0.0
  0
LINE
  5
3662
  8
0-1
  6
CONTINUOUS
 62
     3
 10
9049.3755275000221
 20
6665.7797690000016
 30
0.0
 11
9049.3755275000221
 21
8526.8256480000018
 31
0.0
  0
LINE
  5
3663
  8
0-5
  6
CONTINUOUS
 62
     4
 10
14297.373878500001
 20
4835.7801650000047
 30
0.0
 11
14297.373878500001
 21
4675.7806270000037
 31
0.0
  0
LINE
  5
3664
  8
0-5
  6
CONTINUOUS
 62
     4
 10
11379.373878500001
 20
4835.7801650000047
 30
0.0
 11
11379.373878500001
 21
4675.7806270000037
 31
0.0
  0
LINE
  5
3665
  8
0-5
  6
CONTINUOUS
 62
     4
 10
8811.8738785000005
 20
4835.7801650000047
 30
0.0
 11
8811.8738785000005
 21
4675.7806270000037
 31
0.0
  0
CIRCLE
  5
3666
  8
0-5
  6
CONTINUOUS
 62
     4
 10
11379.373878500001
 20
4475.7794720000047
 30
0.0
 40
199.9999949999999
  0
CIRCLE
  5
3667
  8
0-5
  6
CONTINUOUS
 62
     4
 10
14297.373878500001
 20
4475.7794720000047
 30
0.0
 40
199.9999949999999
  0
CIRCLE
  5
3668
  8
0-5
  6
CONTINUOUS
 62
     4
 10
8811.8738785000005
 20
4475.7794720000047
 30
0.0
 40
199.9999949999999
  0
TEXT
  5
3669
  8
0-5
  6
CONTINUOUS
 62
     7
 10
14250.417718499981
 20
4392.5686760000062
 30
0.0
 40
160.0
  1
A
 72
     4
 11
14303.75105183332
 21
4472.5686760000071
 31
0.0
  0
TEXT
  5
366A
  8
0-5
  6
CONTINUOUS
 62
     7
 10
11332.417718499981
 20
4392.5686760000062
 30
0.0
 40
160.0
  1
B
 72
     4
 11
11385.75105183332
 21
4472.5686760000071
 31
0.0
  0
TEXT
  5
366B
  8
0-5
  6
CONTINUOUS
 62
     7
 10
8764.9177185000062
 20
4392.5686760000062
 30
0.0
 40
160.0
  1
C
 72
     4
 11
8818.2510518333402
 21
4472.5686760000071
 31
0.0
  0
LINE
  5
3676
  8
0-1
  6
CONTINUOUS
 62
     3
 10
24629.619139499991
 20
6615.7796039999957
 30
0.0
 11
24529.619798499989
 21
6615.7796039999957
 31
0.0
  0
LINE
  5
3677
  8
0-1
  6
CONTINUOUS
 62
     3
 10
24529.619798499989
 20
6615.7796039999957
 30
0.0
 11
24529.619798499989
 21
6515.7797690000016
 31
0.0
  0
LINE
  5
3678
  8
0-1
  6
CONTINUOUS
 62
     3
 10
24629.619139499991
 20
6515.7797690000016
 30
0.0
 11
24629.619139499991
 21
6615.7796039999957
 31
0.0
  0
LINE
  5
3679
  8
0-1
  6
CONTINUOUS
 62
     3
 10
24602.119666499999
 20
8964.2799530000029
 30
0.0
 11
24602.119666499999
 21
6615.7796039999957
 31
0.0
  0
LINE
  5
367A
  8
0-1
  6
CONTINUOUS
 62
     3
 10
24622.118743499988
 20
8834.2790299999979
 30
0.0
 11
24622.118743499988
 21
6615.7796039999957
 31
0.0
  0
LINE
  5
367B
  8
0-1
  6
CONTINUOUS
 62
     3
 10
24492.119798499982
 20
8523.7796629999975
 30
0.0
 11
24492.119798499982
 21
6515.7797690000016
 31
0.0
  0
LINE
  5
367C
  8
0-1
  6
CONTINUOUS
 62
     3
 10
24537.120194499981
 20
8834.2790299999979
 30
0.0
 11
24537.120194499981
 21
6615.7796039999957
 31
0.0
  0
LINE
  5
3685
  8
0-1
  6
CONTINUOUS
 62
     3
 10
22755.616763500009
 20
8834.2790299999979
 30
0.0
 11
22755.616763500009
 21
6515.7797690000016
 31
0.0
  0
LINE
  5
3686
  8
0-1
  6
CONTINUOUS
 62
     3
 10
22800.61715950002
 20
8523.7796629999975
 30
0.0
 11
22800.61715950002
 21
6515.7797690000016
 31
0.0
  0
LINE
  5
3689
  8
0-1
  6
CONTINUOUS
 62
     3
 10
22800.61715950002
 20
8455.2393269999993
 30
0.0
 11
24492.119798499982
 21
8455.2393269999993
 31
0.0
  0
LINE
  5
368A
  8
0-1
  6
CONTINUOUS
 62
     3
 10
22800.61715950002
 20
7100.7804619999988
 30
0.0
 11
24492.119798499982
 21
7100.7804619999988
 31
0.0
  0
LINE
  5
368B
  8
0-1
  6
CONTINUOUS
 62
     3
 10
22800.61715950002
 20
7165.7794390000035
 30
0.0
 11
24492.119798499982
 21
7165.7794390000035
 31
0.0
  0
LINE
  5
368C
  8
0-1
  6
CONTINUOUS
 62
     3
 10
22800.61715950002
 20
7230.7799009999972
 30
0.0
 11
24492.119798499982
 21
7230.7799009999972
 31
0.0
  0
LINE
  5
368D
  8
0-1
  6
CONTINUOUS
 62
     3
 10
22800.61715950002
 20
7295.7798679999978
 30
0.0
 11
24492.119798499982
 21
7295.7798679999978
 31
0.0
  0
LINE
  5
368E
  8
0-1
  6
CONTINUOUS
 62
     3
 10
22800.61715950002
 20
7360.7798349999975
 30
0.0
 11
24492.119798499982
 21
7360.7798349999975
 31
0.0
  0
LINE
  5
368F
  8
0-1
  6
CONTINUOUS
 62
     3
 10
22800.61715950002
 20
7425.7798019999982
 30
0.0
 11
24492.119798499982
 21
7425.7798019999982
 31
0.0
  0
LINE
  5
3690
  8
0-1
  6
CONTINUOUS
 62
     3
 10
22800.61715950002
 20
7490.7802640000027
 30
0.0
 11
24492.119798499982
 21
7490.7802640000027
 31
0.0
  0
LINE
  5
3691
  8
0-1
  6
CONTINUOUS
 62
     3
 10
22800.61715950002
 20
7555.7792409999929
 30
0.0
 11
24492.119798499982
 21
7555.7792409999929
 31
0.0
  0
LINE
  5
3692
  8
0-1
  6
CONTINUOUS
 62
     3
 10
22800.61715950002
 20
7620.7797029999929
 30
0.0
 11
24492.119798499982
 21
7620.7797029999929
 31
0.0
  0
LINE
  5
3693
  8
0-1
  6
CONTINUOUS
 62
     3
 10
22800.61715950002
 20
7685.7796699999981
 30
0.0
 11
24492.119798499982
 21
7685.7796699999981
 31
0.0
  0
LINE
  5
3694
  8
0-1
  6
CONTINUOUS
 62
     3
 10
22800.61715950002
 20
7750.7801319999971
 30
0.0
 11
24492.119798499982
 21
7750.7801319999971
 31
0.0
  0
LINE
  5
3695
  8
0-1
  6
CONTINUOUS
 62
     3
 10
22800.61715950002
 20
7815.7791089999973
 30
0.0
 11
24492.119798499982
 21
7815.7791089999973
 31
0.0
  0
LINE
  5
3696
  8
0-1
  6
CONTINUOUS
 62
     3
 10
22800.61715950002
 20
7880.7795709999973
 30
0.0
 11
24492.119798499982
 21
7880.7795709999973
 31
0.0
  0
LINE
  5
3697
  8
0-1
  6
CONTINUOUS
 62
     3
 10
22800.61715950002
 20
7945.7795379999998
 30
0.0
 11
24492.119798499982
 21
7945.7795379999998
 31
0.0
  0
LINE
  5
3698
  8
0-1
  6
CONTINUOUS
 62
     3
 10
22800.61715950002
 20
8010.7795050000004
 30
0.0
 11
24492.119798499982
 21
8010.7795050000004
 31
0.0
  0
LINE
  5
3699
  8
0-1
  6
CONTINUOUS
 62
     3
 10
22800.61715950002
 20
8075.7799670000022
 30
0.0
 11
24492.119798499982
 21
8075.7799670000022
 31
0.0
  0
LINE
  5
369A
  8
0-1
  6
CONTINUOUS
 62
     3
 10
22800.61715950002
 20
8140.7799339999992
 30
0.0
 11
24492.119798499982
 21
8140.7799339999992
 31
0.0
  0
LINE
  5
369B
  8
0-1
  6
CONTINUOUS
 62
     3
 10
22800.61715950002
 20
8205.7803959999983
 30
0.0
 11
24492.119798499982
 21
8205.7803959999983
 31
0.0
  0
LINE
  5
369C
  8
0-1
  6
CONTINUOUS
 62
     3
 10
22800.61715950002
 20
8270.7793729999976
 30
0.0
 11
24492.119798499982
 21
8270.7793729999976
 31
0.0
  0
LINE
  5
369D
  8
0-1
  6
CONTINUOUS
 62
     3
 10
22800.61715950002
 20
8335.779835000003
 30
0.0
 11
24492.119798499982
 21
8335.779835000003
 31
0.0
  0
LINE
  5
369E
  8
0-1
  6
CONTINUOUS
 62
     3
 10
22800.61715950002
 20
8400.7798019999973
 30
0.0
 11
24492.119798499982
 21
8400.7798019999973
 31
0.0
  0
LINE
  5
369F
  8
0-1
  6
CONTINUOUS
 62
     3
 10
22800.61715950002
 20
6580.7792409999956
 30
0.0
 11
24492.119798499982
 21
6580.7792409999956
 31
0.0
  0
LINE
  5
36A0
  8
0-1
  6
CONTINUOUS
 62
     3
 10
22800.61715950002
 20
6645.7801979999967
 30
0.0
 11
24492.119798499982
 21
6645.7801979999967
 31
0.0
  0
LINE
  5
36A1
  8
0-1
  6
CONTINUOUS
 62
     3
 10
22800.61715950002
 20
6710.7791749999997
 30
0.0
 11
24492.119798499982
 21
6710.7791749999997
 31
0.0
  0
LINE
  5
36A2
  8
0-1
  6
CONTINUOUS
 62
     3
 10
22800.61715950002
 20
6775.7801319999971
 30
0.0
 11
24492.119798499982
 21
6775.7801319999971
 31
0.0
  0
LINE
  5
36A3
  8
0-1
  6
CONTINUOUS
 62
     3
 10
22800.61715950002
 20
6840.7796040000012
 30
0.0
 11
24492.119798499982
 21
6840.7796040000012
 31
0.0
  0
LINE
  5
36A4
  8
0-1
  6
CONTINUOUS
 62
     3
 10
22800.61715950002
 20
6905.779571
 30
0.0
 11
24492.119798499982
 21
6905.779571
 31
0.0
  0
LINE
  5
36A5
  8
0-1
  6
CONTINUOUS
 62
     3
 10
22800.61715950002
 20
6970.7795379999989
 30
0.0
 11
24492.119798499982
 21
6970.7795379999989
 31
0.0
  0
LINE
  5
36A6
  8
0-1
  6
CONTINUOUS
 62
     3
 10
22800.61715950002
 20
7035.7790099999966
 30
0.0
 11
24492.119798499982
 21
7035.7790099999966
 31
0.0
  0
LINE
  5
36A8
  8
0-1
  6
CONTINUOUS
 62
     3
 10
22755.616763500009
 20
8523.7796629999975
 30
0.0
 11
24537.120194499981
 21
8523.7796629999975
 31
0.0
  0
LINE
  5
36A9
  8
0-1
  6
CONTINUOUS
 62
     3
 10
19745.117820499989
 20
6515.7797690000016
 30
0.0
 11
24629.619139499991
 21
6515.7797690000016
 31
0.0
  0
LINE
  5
36B3
  8
0-1
  6
CONTINUOUS
 62
     3
 10
22670.618215499991
 20
8834.2790299999979
 30
0.0
 11
22670.618215499991
 21
6515.7797690000016
 31
0.0
  0
LINE
  5
36B4
  8
0-1
  6
CONTINUOUS
 62
     3
 10
22625.61979949996
 20
8523.7796629999975
 30
0.0
 11
22625.61979949996
 21
6515.7797690000016
 31
0.0
  0
LINE
  5
36BF
  8
0-1
  6
CONTINUOUS
 62
     3
 10
19845.119139499991
 20
6615.7796039999957
 30
0.0
 11
19845.119139499991
 21
6515.7797690000016
 31
0.0
  0
LINE
  5
36C0
  8
0-1
  6
CONTINUOUS
 62
     3
 10
19745.117820499989
 20
6515.7797690000016
 30
0.0
 11
19745.117820499989
 21
6615.7796039999957
 31
0.0
  0
LINE
  5
36C1
  8
0-1
  6
CONTINUOUS
 62
     3
 10
19745.117820499989
 20
6615.7796039999957
 30
0.0
 11
19845.119139499991
 21
6615.7796039999957
 31
0.0
  0
LINE
  5
36C2
  8
0-1
  6
CONTINUOUS
 62
     3
 10
19882.619139499991
 20
8523.7796629999975
 30
0.0
 11
19882.619139499991
 21
6515.7797690000016
 31
0.0
  0
LINE
  5
36C3
  8
0-1
  6
CONTINUOUS
 62
     3
 10
19837.616764499991
 20
8834.2790299999979
 30
0.0
 11
19837.616764499991
 21
6615.7796039999957
 31
0.0
  0
LINE
  5
36C4
  8
0-1
  6
CONTINUOUS
 62
     3
 10
19772.619271499982
 20
8964.2799530000029
 30
0.0
 11
19772.619271499982
 21
6615.7796039999957
 31
0.0
  0
LINE
  5
36C5
  8
0-1
  6
CONTINUOUS
 62
     3
 10
19752.616236499991
 20
8834.2790299999979
 30
0.0
 11
19752.616236499991
 21
6615.7796039999957
 31
0.0
  0
LINE
  5
36C6
  8
0-1
  6
CONTINUOUS
 62
     3
 10
19837.616764499991
 20
8523.7796629999975
 30
0.0
 11
22670.618215499991
 21
8523.7796629999975
 31
0.0
  0
LINE
  5
36C8
  8
0-1
  6
CONTINUOUS
 62
     3
 10
19882.619139499991
 20
7035.7790099999966
 30
0.0
 11
22625.61979949996
 21
7035.7790099999966
 31
0.0
  0
LINE
  5
36C9
  8
0-1
  6
CONTINUOUS
 62
     3
 10
19882.619139499991
 20
6970.7795379999989
 30
0.0
 11
22625.61979949996
 21
6970.7795379999989
 31
0.0
  0
LINE
  5
36CA
  8
0-1
  6
CONTINUOUS
 62
     3
 10
19882.619139499991
 20
6905.779571
 30
0.0
 11
22625.61979949996
 21
6905.779571
 31
0.0
  0
LINE
  5
36CB
  8
0-1
  6
CONTINUOUS
 62
     3
 10
19882.619139499991
 20
6840.7796040000012
 30
0.0
 11
22625.61979949996
 21
6840.7796040000012
 31
0.0
  0
LINE
  5
36CC
  8
0-1
  6
CONTINUOUS
 62
     3
 10
19882.619139499991
 20
6775.7801319999971
 30
0.0
 11
22625.61979949996
 21
6775.7801319999971
 31
0.0
  0
LINE
  5
36CD
  8
0-1
  6
CONTINUOUS
 62
     3
 10
19882.619139499991
 20
6710.7791749999997
 30
0.0
 11
22625.61979949996
 21
6710.7791749999997
 31
0.0
  0
LINE
  5
36CE
  8
0-1
  6
CONTINUOUS
 62
     3
 10
19882.619139499991
 20
6645.7801979999967
 30
0.0
 11
22625.61979949996
 21
6645.7801979999967
 31
0.0
  0
LINE
  5
36CF
  8
0-1
  6
CONTINUOUS
 62
     3
 10
19882.619139499991
 20
6580.7792409999956
 30
0.0
 11
22625.61979949996
 21
6580.7792409999956
 31
0.0
  0
LINE
  5
36D0
  8
0-1
  6
CONTINUOUS
 62
     3
 10
19882.619139499991
 20
8400.7798019999973
 30
0.0
 11
22625.61979949996
 21
8400.7798019999973
 31
0.0
  0
LINE
  5
36D1
  8
0-1
  6
CONTINUOUS
 62
     3
 10
19882.619139499991
 20
8335.779835000003
 30
0.0
 11
22625.61979949996
 21
8335.779835000003
 31
0.0
  0
LINE
  5
36D2
  8
0-1
  6
CONTINUOUS
 62
     3
 10
19882.619139499991
 20
8270.7793729999976
 30
0.0
 11
22625.61979949996
 21
8270.7793729999976
 31
0.0
  0
LINE
  5
36D3
  8
0-1
  6
CONTINUOUS
 62
     3
 10
19882.619139499991
 20
8205.7803959999983
 30
0.0
 11
22625.61979949996
 21
8205.7803959999983
 31
0.0
  0
LINE
  5
36D4
  8
0-1
  6
CONTINUOUS
 62
     3
 10
19882.619139499991
 20
8140.7799339999992
 30
0.0
 11
22625.61979949996
 21
8140.7799339999992
 31
0.0
  0
LINE
  5
36D5
  8
0-1
  6
CONTINUOUS
 62
     3
 10
19882.619139499991
 20
8075.7799670000022
 30
0.0
 11
22625.61979949996
 21
8075.7799670000022
 31
0.0
  0
LINE
  5
36D6
  8
0-1
  6
CONTINUOUS
 62
     3
 10
19882.619139499991
 20
8010.7795050000004
 30
0.0
 11
22625.61979949996
 21
8010.7795050000004
 31
0.0
  0
LINE
  5
36D7
  8
0-1
  6
CONTINUOUS
 62
     3
 10
19882.619139499991
 20
7945.7795379999998
 30
0.0
 11
22625.61979949996
 21
7945.7795379999998
 31
0.0
  0
LINE
  5
36D8
  8
0-1
  6
CONTINUOUS
 62
     3
 10
19882.619139499991
 20
7880.7795709999973
 30
0.0
 11
22625.61979949996
 21
7880.7795709999973
 31
0.0
  0
LINE
  5
36D9
  8
0-1
  6
CONTINUOUS
 62
     3
 10
19882.619139499991
 20
7815.7791089999973
 30
0.0
 11
22625.61979949996
 21
7815.7791089999973
 31
0.0
  0
LINE
  5
36DA
  8
0-1
  6
CONTINUOUS
 62
     3
 10
19882.619139499991
 20
7750.7801319999971
 30
0.0
 11
22625.61979949996
 21
7750.7801319999971
 31
0.0
  0
LINE
  5
36DB
  8
0-1
  6
CONTINUOUS
 62
     3
 10
19882.619139499991
 20
7685.7796699999981
 30
0.0
 11
22625.61979949996
 21
7685.7796699999981
 31
0.0
  0
LINE
  5
36DC
  8
0-1
  6
CONTINUOUS
 62
     3
 10
19882.619139499991
 20
7620.7797029999929
 30
0.0
 11
22625.61979949996
 21
7620.7797029999929
 31
0.0
  0
LINE
  5
36DD
  8
0-1
  6
CONTINUOUS
 62
     3
 10
19882.619139499991
 20
7555.7792409999929
 30
0.0
 11
22625.61979949996
 21
7555.7792409999929
 31
0.0
  0
LINE
  5
36DE
  8
0-1
  6
CONTINUOUS
 62
     3
 10
19882.619139499991
 20
7490.7802640000027
 30
0.0
 11
22625.61979949996
 21
7490.7802640000027
 31
0.0
  0
LINE
  5
36DF
  8
0-1
  6
CONTINUOUS
 62
     3
 10
19882.619139499991
 20
7425.7798019999982
 30
0.0
 11
22625.61979949996
 21
7425.7798019999982
 31
0.0
  0
LINE
  5
36E0
  8
0-1
  6
CONTINUOUS
 62
     3
 10
19882.619139499991
 20
7360.7798349999975
 30
0.0
 11
22625.61979949996
 21
7360.7798349999975
 31
0.0
  0
LINE
  5
36E1
  8
0-1
  6
CONTINUOUS
 62
     3
 10
19882.619139499991
 20
7295.7798679999978
 30
0.0
 11
22625.61979949996
 21
7295.7798679999978
 31
0.0
  0
LINE
  5
36E2
  8
0-1
  6
CONTINUOUS
 62
     3
 10
19882.619139499991
 20
7230.7799009999972
 30
0.0
 11
22625.61979949996
 21
7230.7799009999972
 31
0.0
  0
LINE
  5
36E3
  8
0-1
  6
CONTINUOUS
 62
     3
 10
19882.619139499991
 20
7165.7794390000035
 30
0.0
 11
22625.61979949996
 21
7165.7794390000035
 31
0.0
  0
LINE
  5
36E4
  8
0-1
  6
CONTINUOUS
 62
     3
 10
19882.619139499991
 20
7100.7804619999988
 30
0.0
 11
22625.61979949996
 21
7100.7804619999988
 31
0.0
  0
LINE
  5
36E5
  8
0-1
  6
CONTINUOUS
 62
     3
 10
19882.619139499991
 20
8455.2393269999993
 30
0.0
 11
22625.61979949996
 21
8455.2393269999993
 31
0.0
  0
LINE
  5
36EB
  8
0-2
  6
CONTINUOUS
 62
     4
 10
21617.80949
 20
7263.0054729999974
 30
0.0
 11
21517.810150000001
 21
7263.0054729999974
 31
0.0
  0
LINE
  5
36EC
  8
0-2
  6
CONTINUOUS
 62
     4
 10
20890.425489000001
 20
7263.0054729999974
 30
0.0
 11
20990.422849999992
 21
7263.0054729999974
 31
0.0
  0
LINE
  5
36ED
  8
0-5
  6
CONTINUOUS
 62
     4
 10
22713.118479499979
 20
4835.7796699999972
 30
0.0
 11
22713.118479499979
 21
4675.7796369999969
 31
0.0
  0
LINE
  5
36EE
  8
0-5
  6
CONTINUOUS
 62
     4
 10
19795.11847949999
 20
4835.7796699999972
 30
0.0
 11
19795.11847949999
 21
4675.7796369999969
 31
0.0
  0
LINE
  5
36EF
  8
2-0
  6
CENTER2
 62
     6
 10
24579.618479500001
 20
6253.1273459999966
 30
0.0
 11
24579.618479500001
 21
7290.2693829999998
 31
0.0
  0
LINE
  5
36F0
  8
2-0
  6
CENTER2
 62
     6
 10
22713.118479499979
 20
6253.1273459999966
 30
0.0
 11
22713.118479499979
 21
7290.2693829999998
 31
0.0
  0
LINE
  5
36F1
  8
2-0
  6
CENTER2
 62
     6
 10
19795.11847949999
 20
6253.1273459999966
 30
0.0
 11
19795.11847949999
 21
7290.2693829999998
 31
0.0
  0
CIRCLE
  5
3702
  8
0-5
  6
CONTINUOUS
 62
     4
 10
22713.118479499979
 20
4475.7799669999986
 30
0.0
 40
199.9999949999999
  0
CIRCLE
  5
3703
  8
0-5
  6
CONTINUOUS
 62
     4
 10
19795.11847949999
 20
4475.7799669999986
 30
0.0
 40
199.9999949999999
  0
TEXT
  5
3704
  8
0-5
  6
CONTINUOUS
 62
     7
 10
19176.9425405
 20
7245.1400157419948
 30
0.0
 40
160.0
  1
(2131.5)
 50
90.0
 72
     4
 11
19096.9425405
 21
7698.4733490753279
 31
0.0
  0
TEXT
  5
3705
  8
0-5
  6
CONTINUOUS
 62
     7
 10
22666.190032499992
 20
4389.2500129999971
 30
0.0
 40
160.0
  1
2
 72
     4
 11
22719.52336583332
 21
4469.2500129999971
 31
0.0
  0
TEXT
  5
3706
  8
0-5
  6
CONTINUOUS
 62
     7
 10
19748.18607349999
 20
4389.2500129999971
 30
0.0
 40
160.0
  1
1
 72
     4
 11
19774.852740166662
 21
4469.2500129999971
 31
0.0
  0
CIRCLE
  5
3707
  8
0-4
  6
CONTINUOUS
 62
     4
 10
21254.11847949999
 20
7001.8357099999976
 30
0.0
 40
18.487504999999981
  0
LINE
  5
3708
  8
SUNPOU
  6
CONTINUOUS
 10
19512.618479499979
 20
5315.7797690000016
 30
0.0
 11
19154.663472778881
 21
5315.7797690000016
 31
0.0
  0
LINE
  5
3709
  8
SUNPOU
  6
CONTINUOUS
 10
24862.122438499991
 20
5315.7797690000016
 30
0.0
 11
25220.07744522109
 21
5315.7797690000016
 31
0.0
  0
LINE
  5
370A
  8
0-5
  6
CONTINUOUS
 62
     4
 10
24622.11847949999
 20
4835.7796699999972
 30
0.0
 11
24622.11847949999
 21
4675.7796369999969
 31
0.0
  0
CIRCLE
  5
370B
  8
0-5
  6
CONTINUOUS
 62
     4
 10
24622.11847949999
 20
4475.7799669999986
 30
0.0
 40
199.9999949999999
  0
TEXT
  5
370C
  8
0-5
  6
CONTINUOUS
 62
     7
 10
24575.190032499999
 20
4389.2500129999971
 30
0.0
 40
160.0
  1
3
 72
     4
 11
24628.523365833331
 21
4469.2500129999971
 31
0.0
  0
TEXT
  5
370D
  8
2-0
  6
CONTINUOUS
 62
     7
 10
20869.334735499979
 20
3638.6581370000022
 30
0.0
 40
160.0
  1
正 面 立 面 図
 50
0.000139
 72
     4
 11
21514.667874750801
 21
3718.6597025833762
 31
0.0
  0
TEXT
  5
370E
  8
2-0
  6
CONTINUOUS
 62
     7
 10
22866.16005988844
 20
3665.855071583379
 30
0.0
 40
160.0
  1
1
 72
     4
 11
22892.826726555111
 21
3745.855071583379
 31
0.0
  0
TEXT
  5
370F
  8
2-0
  6
CONTINUOUS
 62
     7
 10
23109.248777139121
 20
3585.8565395833748
 30
0.0
 40
160.0
  1
80
 72
     4
 11
23229.248777139121
 21
3665.8565395833748
 31
0.0
  0
TEXT
  5
3710
  8
2-0
  6
CONTINUOUS
 62
     7
 10
22367.16202588844
 20
3638.6597025833762
 30
0.0
 40
160.0
  1
(S=  /   )
 72
     4
 11
22927.16202588844
 21
3718.6597025833762
 31
0.0
  0
LINE
  5
3711
  8
0-5
  6
CONTINUOUS
 62
     4
 10
17222.749419499982
 20
6723.625261000001
 30
0.0
 11
17342.745856499991
 21
6515.7797690000016
 31
0.0
  0
LINE
  5
3712
  8
0-5
  6
CONTINUOUS
 62
     4
 10
17342.745856499991
 20
6515.7797690000016
 30
0.0
 11
17462.746252499979
 21
6723.625261000001
 31
0.0
  0
LINE
  5
3713
  8
0-5
  6
CONTINUOUS
 62
     4
 10
17462.746252499979
 20
6723.625261000001
 30
0.0
 11
17222.749419499982
 21
6723.625261000001
 31
0.0
  0
TEXT
  5
3714
  8
0-5
  6
CONTINUOUS
 62
     7
 10
17222.749419499982
 20
6803.6260190000021
 30
0.0
 40
160.0
  1
G.L
 72
     4
 11
17382.749419499982
 21
6883.6260190000021
 31
0.0
  0
LINE
  5
3715
  8
SUNPOU
  6
CONTINUOUS
 10
8589.3738785000023
 20
9763.7812800000029
 30
0.0
 11
8053.2482369121444
 21
9763.7812800000029
 31
0.0
  0
TEXT
  5
3716
  8
2-0
  6
CONTINUOUS
 62
     7
 10
21106.442382500009
 20
12154.23951899999
 30
0.0
 40
160.0
  1
平　面　図
 50
359.99978700000008
 72
     4
 11
21559.775993407369
 21
12228.90450037622
 31
0.0
  0
TEXT
  5
3717
  8
2-0
  6
CONTINUOUS
 62
     7
 10
22911.268178544989
 20
12176.09986937623
 30
0.0
 40
160.0
  1
1
 72
     4
 11
22937.934845211661
 21
12256.09986937623
 31
0.0
  0
TEXT
  5
3718
  8
2-0
  6
CONTINUOUS
 62
     7
 10
23154.356895795681
 20
12096.101337376231
 30
0.0
 40
160.0
  1
80
 72
     4
 11
23274.356895795681
 21
12176.101337376231
 31
0.0
  0
TEXT
  5
3719
  8
2-0
  6
CONTINUOUS
 62
     7
 10
22412.270144544978
 20
12148.90450037622
 30
0.0
 40
160.0
  1
(S=  /   )
 72
     4
 11
22972.270144544978
 21
12228.90450037622
 31
0.0
  0
LINE
  5
371A
  8
2-0
  6
CONTINUOUS
 62
     6
 10
22896.459563499979
 20
13766.229791999989
 30
0.0
 11
23896.452965499961
 21
13766.229791999989
 31
0.0
  0
LINE
  5
371B
  8
2-0
  6
CONTINUOUS
 62
     6
 10
24364.393342499981
 20
14236.650506
 30
0.0
 11
23896.452965499961
 21
13766.229791999989
 31
0.0
  0
LINE
  5
371C
  8
2-0
  6
CONTINUOUS
 62
     6
 10
22913.170659499981
 20
18445.349857000001
 30
0.0
 11
23931.146007499981
 21
18445.349857000001
 31
0.0
  0
LINE
  5
371D
  8
2-0
  6
CONTINUOUS
 62
     6
 10
24387.571525499981
 20
18670.064805999991
 30
0.0
 11
23931.146007499981
 21
18445.349857000001
 31
0.0
  0
LINE
  5
371E
  8
2-0
  6
CONTINUOUS
 62
     6
 10
24325.75313949999
 20
17428.25815300001
 30
0.0
 11
24021.057721500001
 21
17531.911684000021
 31
0.0
  0
LINE
  5
371F
  8
2-0
  6
CONTINUOUS
 62
     6
 10
24480.77517849996
 20
16938.636109000021
 30
0.0
 11
24021.057721500001
 21
16694.722797999999
 31
0.0
  0
LINE
  5
3720
  8
2-0
  6
CONTINUOUS
 62
     6
 10
23101.054686499981
 20
16694.722797999999
 30
0.0
 11
24021.057721500001
 21
16694.722797999999
 31
0.0
  0
LINE
  5
3721
  8
2-0
  6
CONTINUOUS
 62
     6
 10
22821.063659499981
 20
17531.911684000021
 30
0.0
 11
24021.057721500001
 21
17531.911684000021
 31
0.0
  0
LINE
  5
3722
  8
2-0
  6
CONTINUOUS
 62
     6
 10
24396.952463499991
 20
14558.334151999979
 30
0.0
 11
24021.057721500001
 21
14739.277986999999
 31
0.0
  0
LINE
  5
3723
  8
2-0
  6
CONTINUOUS
 62
     6
 10
22913.170659499981
 20
15527.58739900002
 30
0.0
 11
23931.146007499981
 21
15527.58739900002
 31
0.0
  0
LINE
  5
3724
  8
2-0
  6
CONTINUOUS
 62
     6
 10
23501.056005499991
 20
14739.277986999999
 30
0.0
 11
24021.057721500001
 21
14739.277986999999
 31
0.0
  0
LINE
  5
3725
  8
2-0
  6
CONTINUOUS
 62
     6
 10
24387.571525499981
 20
15752.30036900001
 30
0.0
 11
23931.146007499981
 21
15527.58739900002
 31
0.0
  0
LINE
  5
3726
  8
2-0
  6
CONTINUOUS
 62
     4
 10
22713.118479499979
 20
20014.231442000018
 30
0.0
 11
22713.118479499979
 21
20744.228406999999
 31
0.0
  0
LINE
  5
3727
  8
2-0
  6
CONTINUOUS
 62
     3
 10
24592.119139499991
 20
19825.228987999999
 30
0.0
 11
24592.119139499991
 21
19819.23302600002
 31
0.0
  0
LINE
  5
3728
  8
2-0
  6
CONTINUOUS
 62
     3
 10
24592.119139499991
 20
19819.23302600002
 30
0.0
 11
24622.116763499991
 21
19819.23302600002
 31
0.0
  0
LINE
  5
3729
  8
2-0
  6
CONTINUOUS
 62
     3
 10
24622.116763499991
 20
19849.23263000001
 30
0.0
 11
24541.114863499992
 21
19849.23263000001
 31
0.0
  0
LINE
  5
372A
  8
2-0
  6
CONTINUOUS
 62
     3
 10
24592.119139499991
 20
19808.935570000001
 30
0.0
 11
24622.116763499991
 21
19808.935570000001
 31
0.0
  0
LINE
  5
372B
  8
2-0
  6
CONTINUOUS
 62
     3
 10
24592.119139499991
 20
19826.93731200002
 30
0.0
 11
24592.119139499991
 21
19808.935570000001
 31
0.0
  0
LINE
  5
372C
  8
2-0
  6
CONTINUOUS
 62
     3
 10
24617.1164995
 20
19826.93731200002
 30
0.0
 11
24592.119139499991
 21
19826.93731200002
 31
0.0
  0
LINE
  5
372D
  8
2-0
  6
CONTINUOUS
 62
     3
 10
24617.1164995
 20
19821.929130000019
 30
0.0
 11
24617.1164995
 21
19826.93731200002
 31
0.0
  0
LINE
  5
372E
  8
2-0
  6
CONTINUOUS
 62
     3
 10
24610.1149425
 20
19821.929130000019
 30
0.0
 11
24617.1164995
 21
19821.929130000019
 31
0.0
  0
LINE
  5
372F
  8
2-0
  6
CONTINUOUS
 62
     3
 10
24509.818674499991
 20
19922.229357000011
 30
0.0
 11
24509.818674499991
 21
19929.234873000001
 31
0.0
  0
LINE
  5
3730
  8
2-0
  6
CONTINUOUS
 62
     3
 10
24509.818674499991
 20
19929.234873000001
 30
0.0
 11
24514.818938499971
 21
19929.234873000001
 31
0.0
  0
LINE
  5
3731
  8
2-0
  6
CONTINUOUS
 62
     3
 10
24514.818938499971
 20
19929.234873000001
 30
0.0
 11
24514.818938499971
 21
19904.22563600001
 31
0.0
  0
LINE
  5
3732
  8
2-0
  6
CONTINUOUS
 62
     3
 10
24514.818938499971
 20
19904.22563600001
 30
0.0
 11
24496.81719649996
 21
19904.22563600001
 31
0.0
  0
LINE
  5
3733
  8
2-0
  6
CONTINUOUS
 62
     3
 10
24496.81719649996
 20
19904.22563600001
 30
0.0
 11
24496.81719649996
 21
19934.229199000009
 31
0.0
  0
LINE
  5
3734
  8
2-0
  6
CONTINUOUS
 62
     3
 10
24507.114652499989
 20
19934.229199000009
 30
0.0
 11
24622.116763499991
 21
19934.229199000009
 31
0.0
  0
LINE
  5
3735
  8
2-0
  6
CONTINUOUS
 62
     3
 10
24507.114652499989
 20
19904.22563600001
 30
0.0
 11
24507.114652499989
 21
19934.229199000009
 31
0.0
  0
LINE
  5
3736
  8
2-0
  6
CONTINUOUS
 62
     3
 10
24513.116552499989
 20
19904.22563600001
 30
0.0
 11
24507.114652499989
 21
19904.22563600001
 31
0.0
  0
LINE
  5
3737
  8
2-0
  6
CONTINUOUS
 62
     3
 10
24610.1149425
 20
19468.632307499978
 30
0.0
 11
24617.1164995
 21
19468.632307499978
 31
0.0
  0
LINE
  5
3738
  8
2-0
  6
CONTINUOUS
 62
     3
 10
24617.1164995
 20
19468.632307499978
 30
0.0
 11
24617.1164995
 21
19473.632571499991
 31
0.0
  0
LINE
  5
3739
  8
2-0
  6
CONTINUOUS
 62
     3
 10
24617.1164995
 20
19473.632571499991
 30
0.0
 11
24592.119139499991
 21
19473.632571499991
 31
0.0
  0
LINE
  5
373A
  8
2-0
  6
CONTINUOUS
 62
     3
 10
24592.119139499991
 20
19473.632571499991
 30
0.0
 11
24592.119139499991
 21
19455.6367675
 31
0.0
  0
LINE
  5
373B
  8
2-0
  6
CONTINUOUS
 62
     3
 10
24592.119139499991
 20
19455.6367675
 30
0.0
 11
24622.116763499991
 21
19455.6367675
 31
0.0
  0
LINE
  5
373C
  8
2-0
  6
CONTINUOUS
 62
     3
 10
24592.119139499991
 20
19471.728274499968
 30
0.0
 11
24592.119139499991
 21
19465.730333499989
 31
0.0
  0
LINE
  5
373D
  8
2-0
  6
CONTINUOUS
 62
     3
 10
24592.119139499991
 20
19465.730333499989
 30
0.0
 11
24622.116763499991
 21
19465.730333499989
 31
0.0
  0
LINE
  5
373E
  8
2-0
  6
CONTINUOUS
 62
     3
 10
24622.116763499991
 20
19465.730333499989
 30
0.0
 11
24622.116763499991
 21
19502.7314945
 31
0.0
  0
LINE
  5
373F
  8
2-0
  6
CONTINUOUS
 62
     3
 10
24592.119139499991
 20
19502.7314945
 30
0.0
 11
24622.116763499991
 21
19502.7314945
 31
0.0
  0
LINE
  5
3740
  8
2-0
  6
CONTINUOUS
 62
     3
 10
24592.119139499991
 20
19496.727614499981
 30
0.0
 11
24592.119139499991
 21
19502.7314945
 31
0.0
  0
LINE
  5
3741
  8
2-0
  6
CONTINUOUS
 62
     3
 10
24592.119139499991
 20
19512.827039499982
 30
0.0
 11
24622.116763499991
 21
19512.827039499982
 31
0.0
  0
LINE
  5
3742
  8
2-0
  6
CONTINUOUS
 62
     3
 10
24592.119139499991
 20
19494.8252975
 30
0.0
 11
24592.119139499991
 21
19512.827039499982
 31
0.0
  0
LINE
  5
3743
  8
2-0
  6
CONTINUOUS
 62
     3
 10
24617.1164995
 20
19494.8252975
 30
0.0
 11
24592.119139499991
 21
19494.8252975
 31
0.0
  0
LINE
  5
3744
  8
2-0
  6
CONTINUOUS
 62
     3
 10
24617.1164995
 20
19499.825561500002
 30
0.0
 11
24617.1164995
 21
19494.8252975
 31
0.0
  0
LINE
  5
3745
  8
2-0
  6
CONTINUOUS
 62
     3
 10
24610.1149425
 20
19499.825561500002
 30
0.0
 11
24617.1164995
 21
19499.825561500002
 31
0.0
  0
LINE
  5
3746
  8
2-0
  6
CONTINUOUS
 62
     3
 10
24610.1149425
 20
18767.631318
 30
0.0
 11
24617.1164995
 21
18767.631318
 31
0.0
  0
LINE
  5
3747
  8
2-0
  6
CONTINUOUS
 62
     3
 10
24617.1164995
 20
18767.631318
 30
0.0
 11
24617.1164995
 21
18772.63752
 31
0.0
  0
LINE
  5
3748
  8
2-0
  6
CONTINUOUS
 62
     3
 10
24617.1164995
 20
18772.63752
 30
0.0
 11
24592.119139499991
 21
18772.63752
 31
0.0
  0
LINE
  5
3749
  8
2-0
  6
CONTINUOUS
 62
     3
 10
24592.119139499991
 20
18772.63752
 30
0.0
 11
24592.119139499991
 21
18754.635778
 31
0.0
  0
LINE
  5
374A
  8
2-0
  6
CONTINUOUS
 62
     3
 10
24592.119139499991
 20
18754.635778
 30
0.0
 11
24622.116763499991
 21
18754.635778
 31
0.0
  0
LINE
  5
374B
  8
2-0
  6
CONTINUOUS
 62
     3
 10
24592.119139499991
 20
18770.72728499999
 30
0.0
 11
24592.119139499991
 21
18764.731323
 31
0.0
  0
LINE
  5
374C
  8
2-0
  6
CONTINUOUS
 62
     3
 10
24592.119139499991
 20
18764.731323
 30
0.0
 11
24622.116763499991
 21
18764.731323
 31
0.0
  0
LINE
  5
374D
  8
2-0
  6
CONTINUOUS
 62
     3
 10
24622.116763499991
 20
18764.731323
 30
0.0
 11
24622.116763499991
 21
18801.730505
 31
0.0
  0
LINE
  5
374E
  8
2-0
  6
CONTINUOUS
 62
     3
 10
24592.119139499991
 20
18801.730505
 30
0.0
 11
24622.116763499991
 21
18801.730505
 31
0.0
  0
LINE
  5
374F
  8
2-0
  6
CONTINUOUS
 62
     3
 10
24592.119139499991
 20
18795.73454300001
 30
0.0
 11
24592.119139499991
 21
18801.730505
 31
0.0
  0
LINE
  5
3750
  8
2-0
  6
CONTINUOUS
 62
     3
 10
24592.119139499991
 20
18811.82605
 30
0.0
 11
24622.116763499991
 21
18811.82605
 31
0.0
  0
LINE
  5
3751
  8
2-0
  6
CONTINUOUS
 62
     3
 10
24592.119139499991
 20
18793.824307999988
 30
0.0
 11
24592.119139499991
 21
18811.82605
 31
0.0
  0
LINE
  5
3752
  8
2-0
  6
CONTINUOUS
 62
     3
 10
24617.1164995
 20
18793.824307999988
 30
0.0
 11
24592.119139499991
 21
18793.824307999988
 31
0.0
  0
LINE
  5
3753
  8
2-0
  6
CONTINUOUS
 62
     3
 10
24617.1164995
 20
18798.83051
 30
0.0
 11
24617.1164995
 21
18793.824307999988
 31
0.0
  0
LINE
  5
3754
  8
2-0
  6
CONTINUOUS
 62
     3
 10
24610.1149425
 20
18798.83051
 30
0.0
 11
24617.1164995
 21
18798.83051
 31
0.0
  0
LINE
  5
3755
  8
2-0
  6
CONTINUOUS
 62
     3
 10
24610.1149425
 20
18097.824572000001
 30
0.0
 11
24617.1164995
 21
18097.824572000001
 31
0.0
  0
LINE
  5
3756
  8
2-0
  6
CONTINUOUS
 62
     3
 10
24617.1164995
 20
18097.824572000001
 30
0.0
 11
24617.1164995
 21
18092.836185
 31
0.0
  0
LINE
  5
3757
  8
2-0
  6
CONTINUOUS
 62
     3
 10
24617.1164995
 20
18092.836185
 30
0.0
 11
24592.119139499991
 21
18092.836185
 31
0.0
  0
LINE
  5
3758
  8
2-0
  6
CONTINUOUS
 62
     3
 10
24592.119139499991
 20
18092.836185
 30
0.0
 11
24592.119139499991
 21
18110.831988000002
 31
0.0
  0
LINE
  5
3759
  8
2-0
  6
CONTINUOUS
 62
     3
 10
24592.119139499991
 20
18110.831988000002
 30
0.0
 11
24622.116763499991
 21
18110.831988000002
 31
0.0
  0
LINE
  5
375A
  8
2-0
  6
CONTINUOUS
 62
     3
 10
24592.119139499991
 20
18094.734542999991
 30
0.0
 11
24592.119139499991
 21
18100.730504999989
 31
0.0
  0
LINE
  5
375B
  8
2-0
  6
CONTINUOUS
 62
     3
 10
24592.119139499991
 20
18100.730504999989
 30
0.0
 11
24622.116763499991
 21
18100.730504999989
 31
0.0
  0
LINE
  5
375C
  8
2-0
  6
CONTINUOUS
 62
     3
 10
24622.116763499991
 20
18100.730504999989
 30
0.0
 11
24622.116763499991
 21
18063.731323
 31
0.0
  0
LINE
  5
375D
  8
2-0
  6
CONTINUOUS
 62
     3
 10
24592.119139499991
 20
18063.731323
 30
0.0
 11
24622.116763499991
 21
18063.731323
 31
0.0
  0
LINE
  5
375E
  8
2-0
  6
CONTINUOUS
 62
     3
 10
24592.119139499991
 20
18069.733224
 30
0.0
 11
24592.119139499991
 21
18063.731323
 31
0.0
  0
LINE
  5
375F
  8
2-0
  6
CONTINUOUS
 62
     3
 10
24592.119139499991
 20
18053.641716999991
 30
0.0
 11
24622.116763499991
 21
18053.641716999991
 31
0.0
  0
LINE
  5
3760
  8
2-0
  6
CONTINUOUS
 62
     3
 10
24592.119139499991
 20
18071.63752
 30
0.0
 11
24592.119139499991
 21
18053.641716999991
 31
0.0
  0
LINE
  5
3761
  8
2-0
  6
CONTINUOUS
 62
     3
 10
24617.1164995
 20
18071.63752
 30
0.0
 11
24592.119139499991
 21
18071.63752
 31
0.0
  0
LINE
  5
3762
  8
2-0
  6
CONTINUOUS
 62
     3
 10
24617.1164995
 20
18066.637256999998
 30
0.0
 11
24617.1164995
 21
18071.63752
 31
0.0
  0
LINE
  5
3763
  8
2-0
  6
CONTINUOUS
 62
     3
 10
24610.1149425
 20
18066.637256999998
 30
0.0
 11
24617.1164995
 21
18066.637256999998
 31
0.0
  0
LINE
  5
3764
  8
2-0
  6
CONTINUOUS
 62
     3
 10
24619.230625499989
 20
17346.728143
 30
0.0
 11
24619.230625499989
 21
17366.72919799999
 31
0.0
  0
LINE
  5
3765
  8
2-0
  6
CONTINUOUS
 62
     3
 10
24619.230625499989
 20
17366.72919799999
 30
0.0
 11
24534.23405649999
 21
17366.72919799999
 31
0.0
  0
LINE
  5
3766
  8
2-0
  6
CONTINUOUS
 62
     3
 10
24610.1149425
 20
17393.335908000001
 30
0.0
 11
24617.1164995
 21
17393.335908000001
 31
0.0
  0
LINE
  5
3767
  8
2-0
  6
CONTINUOUS
 62
     3
 10
24617.1164995
 20
17393.335908000001
 30
0.0
 11
24617.1164995
 21
17388.341582000001
 31
0.0
  0
LINE
  5
3768
  8
2-0
  6
CONTINUOUS
 62
     3
 10
24617.1164995
 20
17388.341582000001
 30
0.0
 11
24592.119139499991
 21
17388.341582000001
 31
0.0
  0
LINE
  5
3769
  8
2-0
  6
CONTINUOUS
 62
     3
 10
24592.119139499991
 20
17388.341582000001
 30
0.0
 11
24592.119139499991
 21
17406.33738600001
 31
0.0
  0
LINE
  5
376A
  8
2-0
  6
CONTINUOUS
 62
     3
 10
24592.119139499991
 20
17406.33738600001
 30
0.0
 11
24622.116763499991
 21
17406.33738600001
 31
0.0
  0
LINE
  5
376B
  8
2-0
  6
CONTINUOUS
 62
     3
 10
24592.119139499991
 20
17396.728802000001
 30
0.0
 11
24592.119139499991
 21
17390.726901999991
 31
0.0
  0
LINE
  5
376C
  8
2-0
  6
CONTINUOUS
 62
     3
 10
24622.116763499991
 20
17396.728802000001
 30
0.0
 11
24592.119139499991
 21
17396.728802000001
 31
0.0
  0
LINE
  5
376D
  8
2-0
  6
CONTINUOUS
 62
     3
 10
24622.116763499991
 20
17406.33738600001
 30
0.0
 11
24622.116763499991
 21
18053.641716999991
 31
0.0
  0
LINE
  5
376E
  8
2-0
  6
CONTINUOUS
 62
     3
 10
24622.116763499991
 20
18110.831988000002
 30
0.0
 11
24622.116763499991
 21
18754.635778
 31
0.0
  0
LINE
  5
376F
  8
2-0
  6
CONTINUOUS
 62
     3
 10
24622.116763499991
 20
17251.72708700001
 30
0.0
 11
24592.119139499991
 21
17251.72708700001
 31
0.0
  0
LINE
  5
3770
  8
2-0
  6
CONTINUOUS
 62
     3
 10
24592.119139499991
 20
17251.72708700001
 30
0.0
 11
24592.119139499991
 21
17257.728986999999
 31
0.0
  0
LINE
  5
3771
  8
2-0
  6
CONTINUOUS
 62
     3
 10
24534.23405649999
 20
17281.732629999991
 30
0.0
 11
24619.230625499989
 21
17281.732629999991
 31
0.0
  0
LINE
  5
3772
  8
2-0
  6
CONTINUOUS
 62
     3
 10
24619.230625499989
 20
17281.732629999991
 30
0.0
 11
24619.230625499989
 21
17301.727747000012
 31
0.0
  0
LINE
  5
3773
  8
2-0
  6
CONTINUOUS
 62
     3
 10
24592.119139499991
 20
17242.118504000009
 30
0.0
 11
24622.116763499991
 21
17242.118504000009
 31
0.0
  0
LINE
  5
3774
  8
2-0
  6
CONTINUOUS
 62
     3
 10
24592.119139499991
 20
17260.114306999982
 30
0.0
 11
24592.119139499991
 21
17242.118504000009
 31
0.0
  0
LINE
  5
3775
  8
2-0
  6
CONTINUOUS
 62
     3
 10
24617.1164995
 20
17260.114306999982
 30
0.0
 11
24592.119139499991
 21
17260.114306999982
 31
0.0
  0
LINE
  5
3776
  8
2-0
  6
CONTINUOUS
 62
     3
 10
24617.1164995
 20
17255.114043000009
 30
0.0
 11
24617.1164995
 21
17260.114306999982
 31
0.0
  0
LINE
  5
3777
  8
2-0
  6
CONTINUOUS
 62
     3
 10
24610.1149425
 20
17255.114043000009
 30
0.0
 11
24617.1164995
 21
17255.114043000009
 31
0.0
  0
LINE
  5
3778
  8
2-0
  6
CONTINUOUS
 62
     3
 10
24610.1149425
 20
16550.631812499989
 30
0.0
 11
24617.1164995
 21
16550.631812499989
 31
0.0
  0
LINE
  5
3779
  8
2-0
  6
CONTINUOUS
 62
     3
 10
24617.1164995
 20
16550.631812499989
 30
0.0
 11
24617.1164995
 21
16555.632076499991
 31
0.0
  0
LINE
  5
377A
  8
2-0
  6
CONTINUOUS
 62
     3
 10
24617.1164995
 20
16555.632076499991
 30
0.0
 11
24592.119139499991
 21
16555.632076499991
 31
0.0
  0
LINE
  5
377B
  8
2-0
  6
CONTINUOUS
 62
     3
 10
24592.119139499991
 20
16555.632076499991
 30
0.0
 11
24592.119139499991
 21
16537.630334499991
 31
0.0
  0
LINE
  5
377C
  8
2-0
  6
CONTINUOUS
 62
     3
 10
24592.119139499991
 20
16537.630334499991
 30
0.0
 11
24622.116763499991
 21
16537.630334499991
 31
0.0
  0
LINE
  5
377D
  8
2-0
  6
CONTINUOUS
 62
     3
 10
24592.119139499991
 20
16553.727779500001
 30
0.0
 11
24592.119139499991
 21
16547.7308285
 31
0.0
  0
LINE
  5
377E
  8
2-0
  6
CONTINUOUS
 62
     3
 10
24592.119139499991
 20
16547.7308285
 30
0.0
 11
24622.116763499991
 21
16547.7308285
 31
0.0
  0
LINE
  5
377F
  8
2-0
  6
CONTINUOUS
 62
     3
 10
24622.116763499991
 20
16547.7308285
 30
0.0
 11
24622.116763499991
 21
16584.7309995
 31
0.0
  0
LINE
  5
3780
  8
2-0
  6
CONTINUOUS
 62
     3
 10
24592.119139499991
 20
16584.7309995
 30
0.0
 11
24622.116763499991
 21
16584.7309995
 31
0.0
  0
LINE
  5
3781
  8
2-0
  6
CONTINUOUS
 62
     3
 10
24592.119139499991
 20
16578.7281095
 30
0.0
 11
24592.119139499991
 21
16584.7309995
 31
0.0
  0
LINE
  5
3782
  8
2-0
  6
CONTINUOUS
 62
     3
 10
24592.119139499991
 20
16594.8265445
 30
0.0
 11
24622.116763499991
 21
16594.8265445
 31
0.0
  0
LINE
  5
3783
  8
2-0
  6
CONTINUOUS
 62
     3
 10
24592.119139499991
 20
16576.818863500001
 30
0.0
 11
24592.119139499991
 21
16594.8265445
 31
0.0
  0
LINE
  5
3784
  8
2-0
  6
CONTINUOUS
 62
     3
 10
24617.1164995
 20
16576.818863500001
 30
0.0
 11
24592.119139499991
 21
16576.818863500001
 31
0.0
  0
LINE
  5
3785
  8
2-0
  6
CONTINUOUS
 62
     3
 10
24617.1164995
 20
16581.825066500001
 30
0.0
 11
24617.1164995
 21
16576.818863500001
 31
0.0
  0
LINE
  5
3786
  8
2-0
  6
CONTINUOUS
 62
     3
 10
24610.1149425
 20
16581.825066500001
 30
0.0
 11
24617.1164995
 21
16581.825066500001
 31
0.0
  0
LINE
  5
3787
  8
2-0
  6
CONTINUOUS
 62
     3
 10
24610.1149425
 20
15881.065083
 30
0.0
 11
24617.1164995
 21
15881.065083
 31
0.0
  0
LINE
  5
3788
  8
2-0
  6
CONTINUOUS
 62
     3
 10
24617.1164995
 20
15881.065083
 30
0.0
 11
24617.1164995
 21
15876.070758000011
 31
0.0
  0
LINE
  5
3789
  8
2-0
  6
CONTINUOUS
 62
     3
 10
24617.1164995
 20
15876.070758000011
 30
0.0
 11
24592.119139499991
 21
15876.070758000011
 31
0.0
  0
LINE
  5
378A
  8
2-0
  6
CONTINUOUS
 62
     3
 10
24592.119139499991
 20
15876.070758000011
 30
0.0
 11
24592.119139499991
 21
15894.06656100002
 31
0.0
  0
LINE
  5
378B
  8
2-0
  6
CONTINUOUS
 62
     3
 10
24592.119139499991
 20
15894.06656100002
 30
0.0
 11
24622.116763499991
 21
15894.06656100002
 31
0.0
  0
LINE
  5
378C
  8
2-0
  6
CONTINUOUS
 62
     3
 10
24592.119139499991
 20
15877.969116
 30
0.0
 11
24592.119139499991
 21
15883.97101600001
 31
0.0
  0
LINE
  5
378D
  8
2-0
  6
CONTINUOUS
 62
     3
 10
24592.119139499991
 20
15883.97101600001
 30
0.0
 11
24622.116763499991
 21
15883.97101600001
 31
0.0
  0
LINE
  5
378E
  8
2-0
  6
CONTINUOUS
 62
     3
 10
24622.116763499991
 20
15846.971835
 30
0.0
 11
24622.116763499991
 21
15883.97101600001
 31
0.0
  0
LINE
  5
378F
  8
2-0
  6
CONTINUOUS
 62
     3
 10
24592.119139499991
 20
15846.971835
 30
0.0
 11
24622.116763499991
 21
15846.971835
 31
0.0
  0
LINE
  5
3790
  8
2-0
  6
CONTINUOUS
 62
     3
 10
24592.119139499991
 20
15852.96878600001
 30
0.0
 11
24592.119139499991
 21
15846.971835
 31
0.0
  0
LINE
  5
3791
  8
2-0
  6
CONTINUOUS
 62
     3
 10
24592.119139499991
 20
15836.870351
 30
0.0
 11
24622.116763499991
 21
15836.870351
 31
0.0
  0
LINE
  5
3792
  8
2-0
  6
CONTINUOUS
 62
     3
 10
24592.119139499991
 20
15854.878032000001
 30
0.0
 11
24592.119139499991
 21
15836.870351
 31
0.0
  0
LINE
  5
3793
  8
2-0
  6
CONTINUOUS
 62
     3
 10
24617.1164995
 20
15854.878032000001
 30
0.0
 11
24592.119139499991
 21
15854.878032000001
 31
0.0
  0
LINE
  5
3794
  8
2-0
  6
CONTINUOUS
 62
     3
 10
24617.1164995
 20
15849.87776800002
 30
0.0
 11
24617.1164995
 21
15854.878032000001
 31
0.0
  0
LINE
  5
3795
  8
2-0
  6
CONTINUOUS
 62
     3
 10
24610.1149425
 20
15849.87776800002
 30
0.0
 11
24617.1164995
 21
15849.87776800002
 31
0.0
  0
LINE
  5
3796
  8
2-0
  6
CONTINUOUS
 62
     3
 10
24622.116763499991
 20
17242.118504000009
 30
0.0
 11
24622.116763499991
 21
16594.8265445
 31
0.0
  0
LINE
  5
3797
  8
2-0
  6
CONTINUOUS
 62
     3
 10
24622.116763499991
 20
17396.728802000001
 30
0.0
 11
24622.116763499991
 21
17251.72708700001
 31
0.0
  0
LINE
  5
3798
  8
2-0
  6
CONTINUOUS
 62
     3
 10
24534.23405649999
 20
17366.72919799999
 30
0.0
 11
24534.23405649999
 21
17281.732629999991
 31
0.0
  0
LINE
  5
3799
  8
2-0
  6
CONTINUOUS
 62
     6
 10
22996.025389499981
 20
19135.176463499982
 30
0.0
 11
24021.057721500001
 21
19135.176463499982
 31
0.0
  0
LINE
  5
379A
  8
2-0
  6
CONTINUOUS
 62
     3
 10
24610.1149425
 20
15148.636761
 30
0.0
 11
24617.1164995
 21
15148.636761
 31
0.0
  0
LINE
  5
379B
  8
2-0
  6
CONTINUOUS
 62
     3
 10
24617.1164995
 20
15148.636761
 30
0.0
 11
24617.1164995
 21
15153.631087
 31
0.0
  0
LINE
  5
379C
  8
2-0
  6
CONTINUOUS
 62
     3
 10
24617.1164995
 20
15153.631087
 30
0.0
 11
24592.119139499991
 21
15153.631087
 31
0.0
  0
LINE
  5
379D
  8
2-0
  6
CONTINUOUS
 62
     3
 10
24592.119139499991
 20
15153.631087
 30
0.0
 11
24592.119139499991
 21
15135.635283
 31
0.0
  0
LINE
  5
379E
  8
2-0
  6
CONTINUOUS
 62
     3
 10
24592.119139499991
 20
15135.635283
 30
0.0
 11
24622.116763499991
 21
15135.635283
 31
0.0
  0
LINE
  5
379F
  8
2-0
  6
CONTINUOUS
 62
     3
 10
24592.119139499991
 20
15151.73371800001
 30
0.0
 11
24592.119139499991
 21
15145.730828000011
 31
0.0
  0
LINE
  5
37A0
  8
2-0
  6
CONTINUOUS
 62
     3
 10
24592.119139499991
 20
15145.730828000011
 30
0.0
 11
24622.116763499991
 21
15145.730828000011
 31
0.0
  0
LINE
  5
37A1
  8
2-0
  6
CONTINUOUS
 62
     3
 10
24622.116763499991
 20
15145.730828000011
 30
0.0
 11
24622.116763499991
 21
15182.730999999991
 31
0.0
  0
LINE
  5
37A2
  8
2-0
  6
CONTINUOUS
 62
     3
 10
24592.119139499991
 20
15182.730999999991
 30
0.0
 11
24622.116763499991
 21
15182.730999999991
 31
0.0
  0
LINE
  5
37A3
  8
2-0
  6
CONTINUOUS
 62
     3
 10
24592.119139499991
 20
15176.734048
 30
0.0
 11
24592.119139499991
 21
15182.730999999991
 31
0.0
  0
LINE
  5
37A4
  8
2-0
  6
CONTINUOUS
 62
     3
 10
24592.119139499991
 20
15192.831493000011
 30
0.0
 11
24622.116763499991
 21
15192.831493000011
 31
0.0
  0
LINE
  5
37A5
  8
2-0
  6
CONTINUOUS
 62
     3
 10
24592.119139499991
 20
15174.82480200001
 30
0.0
 11
24592.119139499991
 21
15192.831493000011
 31
0.0
  0
LINE
  5
37A6
  8
2-0
  6
CONTINUOUS
 62
     3
 10
24617.1164995
 20
15174.82480200001
 30
0.0
 11
24592.119139499991
 21
15174.82480200001
 31
0.0
  0
LINE
  5
37A7
  8
2-0
  6
CONTINUOUS
 62
     3
 10
24617.1164995
 20
15179.83001500001
 30
0.0
 11
24617.1164995
 21
15174.82480200001
 31
0.0
  0
LINE
  5
37A8
  8
2-0
  6
CONTINUOUS
 62
     3
 10
24610.1149425
 20
15179.83001500001
 30
0.0
 11
24617.1164995
 21
15179.83001500001
 31
0.0
  0
LINE
  5
37A9
  8
2-0
  6
CONTINUOUS
 62
     3
 10
24592.119139499991
 20
14472.732840999999
 30
0.0
 11
24592.119139499991
 21
14478.737709999999
 31
0.0
  0
LINE
  5
37AA
  8
2-0
  6
CONTINUOUS
 62
     3
 10
24592.119139499991
 20
14478.737709999999
 30
0.0
 11
24622.116763499991
 21
14478.737709999999
 31
0.0
  0
LINE
  5
37AB
  8
2-0
  6
CONTINUOUS
 62
     3
 10
24622.116763499991
 20
14478.737709999999
 30
0.0
 11
24622.116763499991
 21
14363.733619000001
 31
0.0
  0
LINE
  5
37AC
  8
2-0
  6
CONTINUOUS
 62
     3
 10
24622.116763499991
 20
14363.733619000001
 30
0.0
 11
24537.118215499991
 21
14363.733619000001
 31
0.0
  0
LINE
  5
37AD
  8
2-0
  6
CONTINUOUS
 62
     3
 10
24537.118215499991
 20
14363.733619000001
 30
0.0
 11
24537.118215499991
 21
14448.729198000001
 31
0.0
  0
LINE
  5
37AE
  8
2-0
  6
CONTINUOUS
 62
     3
 10
24537.118215499991
 20
14448.729198000001
 30
0.0
 11
24569.117133499982
 21
14448.729198000001
 31
0.0
  0
LINE
  5
37AF
  8
2-0
  6
CONTINUOUS
 62
     3
 10
24610.1149425
 20
14475.767443000001
 30
0.0
 11
24617.1164995
 21
14475.767443000001
 31
0.0
  0
LINE
  5
37B0
  8
2-0
  6
CONTINUOUS
 62
     3
 10
24617.1164995
 20
14475.767443000001
 30
0.0
 11
24617.1164995
 21
14470.77014799998
 31
0.0
  0
LINE
  5
37B1
  8
2-0
  6
CONTINUOUS
 62
     3
 10
24617.1164995
 20
14470.77014799998
 30
0.0
 11
24592.119139499991
 21
14470.77014799998
 31
0.0
  0
LINE
  5
37B2
  8
2-0
  6
CONTINUOUS
 62
     3
 10
24592.119139499991
 20
14470.77014799998
 30
0.0
 11
24592.119139499991
 21
14488.768921000001
 31
0.0
  0
LINE
  5
37B3
  8
2-0
  6
CONTINUOUS
 62
     3
 10
24592.119139499991
 20
14488.768921000001
 30
0.0
 11
24622.116763499991
 21
14488.768921000001
 31
0.0
  0
LINE
  5
37B4
  8
2-0
  6
CENTER2
 62
     6
 10
24579.618479500001
 20
14166.236060999991
 30
0.0
 11
24579.618479500001
 21
15322.10481900002
 31
0.0
  0
LINE
  5
37B5
  8
2-0
  6
CONTINUOUS
 62
     3
 10
24622.116763499991
 20
18811.82605
 30
0.0
 11
24622.116763499991
 21
19455.6367675
 31
0.0
  0
LINE
  5
37B6
  8
2-0
  6
CONTINUOUS
 62
     6
 10
25314.621646499982
 20
20664.232102000031
 30
0.0
 11
26514.615708499961
 21
20664.232102000031
 31
0.0
  0
LINE
  5
37B7
  8
2-0
  6
CONTINUOUS
 62
     3
 10
22785.620327500001
 20
19934.229199000009
 30
0.0
 11
22785.620327500001
 21
19904.22563600001
 31
0.0
  0
LINE
  5
37B8
  8
2-0
  6
CONTINUOUS
 62
     3
 10
22785.620327500001
 20
19904.22563600001
 30
0.0
 11
22779.622385499981
 21
19904.22563600001
 31
0.0
  0
LINE
  5
37B9
  8
2-0
  6
CONTINUOUS
 62
     3
 10
22795.236828500001
 20
19904.22563600001
 30
0.0
 11
22795.236828500001
 21
19934.229199000009
 31
0.0
  0
LINE
  5
37BA
  8
2-0
  6
CONTINUOUS
 62
     3
 10
22777.235086499979
 20
19904.22563600001
 30
0.0
 11
22795.236828500001
 21
19904.22563600001
 31
0.0
  0
LINE
  5
37BB
  8
2-0
  6
CONTINUOUS
 62
     3
 10
22777.235086499979
 20
19929.234873000001
 30
0.0
 11
22777.235086499979
 21
19904.22563600001
 31
0.0
  0
LINE
  5
37BC
  8
2-0
  6
CONTINUOUS
 62
     3
 10
22782.235350499988
 20
19929.234873000001
 30
0.0
 11
22777.235086499979
 21
19929.234873000001
 31
0.0
  0
LINE
  5
37BD
  8
2-0
  6
CONTINUOUS
 62
     3
 10
22782.235350499988
 20
19922.229357000011
 30
0.0
 11
22782.235350499988
 21
19929.234873000001
 31
0.0
  0
LINE
  5
37BE
  8
2-0
  6
CONTINUOUS
 62
     3
 10
22755.61874350001
 20
19931.337122000001
 30
0.0
 11
22755.61874350001
 21
19846.338574000009
 31
0.0
  0
LINE
  5
37BF
  8
2-0
  6
CONTINUOUS
 62
     3
 10
22735.621646499989
 20
19931.337122000001
 30
0.0
 11
22755.61874350001
 21
19931.337122000001
 31
0.0
  0
LINE
  5
37C0
  8
2-0
  6
CONTINUOUS
 62
     3
 10
22644.007547500001
 20
19922.229357000011
 30
0.0
 11
22644.007547500001
 21
19929.234873000001
 31
0.0
  0
LINE
  5
37C1
  8
2-0
  6
CONTINUOUS
 62
     3
 10
22644.007547500001
 20
19929.234873000001
 30
0.0
 11
22649.007811499981
 21
19929.234873000001
 31
0.0
  0
LINE
  5
37C2
  8
2-0
  6
CONTINUOUS
 62
     3
 10
22649.007811499981
 20
19929.234873000001
 30
0.0
 11
22649.007811499981
 21
19904.22563600001
 31
0.0
  0
LINE
  5
37C3
  8
2-0
  6
CONTINUOUS
 62
     3
 10
22649.007811499981
 20
19904.22563600001
 30
0.0
 11
22631.006069499988
 21
19904.22563600001
 31
0.0
  0
LINE
  5
37C4
  8
2-0
  6
CONTINUOUS
 62
     3
 10
22631.006069499988
 20
19904.22563600001
 30
0.0
 11
22631.006069499988
 21
19934.229199000009
 31
0.0
  0
LINE
  5
37C5
  8
2-0
  6
CONTINUOUS
 62
     3
 10
22670.626133499991
 20
19931.337122000001
 30
0.0
 11
22690.6212505
 21
19931.337122000001
 31
0.0
  0
LINE
  5
37C6
  8
2-0
  6
CONTINUOUS
 62
     3
 10
22670.626133499991
 20
19846.338574000009
 30
0.0
 11
22670.626133499991
 21
19931.337122000001
 31
0.0
  0
LINE
  5
37C7
  8
2-0
  6
CONTINUOUS
 62
     3
 10
22640.628509500009
 20
19904.22563600001
 30
0.0
 11
22646.624470499992
 21
19904.22563600001
 31
0.0
  0
LINE
  5
37C8
  8
2-0
  6
CONTINUOUS
 62
     3
 10
22640.628509500009
 20
19934.229199000009
 30
0.0
 11
22640.628509500009
 21
19904.22563600001
 31
0.0
  0
LINE
  5
37C9
  8
2-0
  6
CONTINUOUS
 62
     3
 10
22755.61874350001
 20
19846.338574000009
 30
0.0
 11
22670.626133499991
 21
19846.338574000009
 31
0.0
  0
LINE
  5
37CA
  8
2-0
  6
CONTINUOUS
 62
     3
 10
22785.620327500001
 20
19934.229199000009
 30
0.0
 11
22640.628509500009
 21
19934.229199000009
 31
0.0
  0
LINE
  5
37CB
  8
2-0
  6
CONTINUOUS
 62
     6
 10
24452.588813499991
 20
19377.330971499989
 30
0.0
 11
24021.057721500001
 21
19135.176463499982
 31
0.0
  0
LINE
  5
37CC
  8
2-0
  6
CONTINUOUS
 62
     6
 10
24774.15764749996
 20
20076.908939000012
 30
0.0
 11
25314.621646499982
 21
20664.232102000031
 31
0.0
  0
LINE
  5
37CD
  8
2-0
  6
CONTINUOUS
 62
     3
 10
24531.112356499991
 20
18740.72965999999
 30
0.0
 11
24578.11800449996
 21
18740.72965999999
 31
0.0
  0
LINE
  5
37CE
  8
2-0
  6
CONTINUOUS
 62
     3
 10
24578.11800449996
 20
18825.730188000001
 30
0.0
 11
24531.112356499991
 21
18825.730188000001
 31
0.0
  0
LINE
  5
37CF
  8
2-0
  6
CONTINUOUS
 62
     3
 10
24578.11800449996
 20
18740.72965999999
 30
0.0
 11
24578.11800449996
 21
18765.732959000001
 31
0.0
  0
LINE
  5
37D0
  8
2-0
  6
CONTINUOUS
 62
     3
 10
24578.11800449996
 20
18800.728867999991
 30
0.0
 11
24578.11800449996
 21
18825.730188000001
 31
0.0
  0
LINE
  5
37D1
  8
2-0
  6
CONTINUOUS
 62
     3
 10
24531.112356499991
 20
18825.730188000001
 30
0.0
 11
24531.112356499991
 21
18740.72965999999
 31
0.0
  0
LINE
  5
37D2
  8
2-0
  6
CONTINUOUS
 62
     3
 10
24622.116763499991
 20
16537.630334499991
 30
0.0
 11
24622.116763499991
 21
15894.06656100002
 31
0.0
  0
LINE
  5
37D3
  8
2-0
  6
CONTINUOUS
 62
     3
 10
24531.112356499991
 20
15822.73263
 30
0.0
 11
24578.11800449996
 21
15822.73263
 31
0.0
  0
LINE
  5
37D4
  8
2-0
  6
CONTINUOUS
 62
     3
 10
24578.11800449996
 20
15907.72919799999
 30
0.0
 11
24531.112356499991
 21
15907.72919799999
 31
0.0
  0
LINE
  5
37D5
  8
2-0
  6
CONTINUOUS
 62
     3
 10
24578.11800449996
 20
15822.73263
 30
0.0
 11
24578.11800449996
 21
15847.72801100001
 31
0.0
  0
LINE
  5
37D6
  8
2-0
  6
CONTINUOUS
 62
     3
 10
24578.11800449996
 20
15882.727879
 30
0.0
 11
24578.11800449996
 21
15907.72919799999
 31
0.0
  0
LINE
  5
37D7
  8
2-0
  6
CONTINUOUS
 62
     3
 10
24531.112356499991
 20
15907.72919799999
 30
0.0
 11
24531.112356499991
 21
15822.73263
 31
0.0
  0
LINE
  5
37D8
  8
2-0
  6
CONTINUOUS
 62
     6
 10
24439.531908499979
 20
19400.590315500001
 30
0.0
 11
24592.119139499991
 21
19455.6367675
 31
0.0
  0
LINE
  5
37D9
  8
2-0
  6
CONTINUOUS
 62
     6
 10
24592.119139499991
 20
19455.6367675
 30
0.0
 11
24465.637799499989
 21
19354.07756749999
 31
0.0
  0
LINE
  5
37DA
  8
2-0
  6
CONTINUOUS
 62
     6
 10
24439.531908499979
 20
19400.590315500001
 30
0.0
 11
24465.637799499989
 21
19354.07756749999
 31
0.0
  0
LINE
  5
37DB
  8
2-0
  6
CONTINUOUS
 62
     6
 10
24465.637799499989
 20
19354.07756749999
 30
0.0
 11
24592.119139499991
 21
19455.6367675
 31
0.0
  0
LINE
  5
37DC
  8
2-0
  6
CONTINUOUS
 62
     6
 10
24592.119139499991
 20
19455.6367675
 30
0.0
 11
24439.531908499979
 21
19400.590315500001
 31
0.0
  0
LINE
  5
37DD
  8
2-0
  6
CONTINUOUS
 62
     6
 10
24439.531908499979
 20
19400.590315500001
 30
0.0
 11
24592.119139499991
 21
19455.6367675
 31
0.0
  0
LINE
  5
37DE
  8
2-0
  6
CONTINUOUS
 62
     6
 10
24465.637799499989
 20
19354.07756749999
 30
0.0
 11
24592.119139499991
 21
19455.6367675
 31
0.0
  0
LINE
  5
37DF
  8
2-0
  6
CONTINUOUS
 62
     6
 10
24465.637799499989
 20
19354.07756749999
 30
0.0
 11
24439.531908499979
 21
19400.590315500001
 31
0.0
  0
LINE
  5
37E0
  8
2-0
  6
CONTINUOUS
 62
     6
 10
24793.77467649999
 20
20058.847812000022
 30
0.0
 11
24665.812656499991
 21
19959.165194000008
 31
0.0
  0
LINE
  5
37E1
  8
2-0
  6
CONTINUOUS
 62
     6
 10
24665.812656499991
 20
19959.165194000008
 30
0.0
 11
24754.52676149999
 21
20094.962149000021
 31
0.0
  0
LINE
  5
37E2
  8
2-0
  6
CONTINUOUS
 62
     6
 10
24793.77467649999
 20
20058.847812000022
 30
0.0
 11
24754.52676149999
 21
20094.962149000021
 31
0.0
  0
LINE
  5
37E3
  8
2-0
  6
CONTINUOUS
 62
     6
 10
24754.52676149999
 20
20094.962149000021
 30
0.0
 11
24665.812656499991
 21
19959.165194000008
 31
0.0
  0
LINE
  5
37E4
  8
2-0
  6
CONTINUOUS
 62
     6
 10
24665.812656499991
 20
19959.165194000008
 30
0.0
 11
24793.77467649999
 21
20058.847812000022
 31
0.0
  0
LINE
  5
37E5
  8
2-0
  6
CONTINUOUS
 62
     6
 10
24793.77467649999
 20
20058.847812000022
 30
0.0
 11
24665.812656499991
 21
19959.165194000008
 31
0.0
  0
LINE
  5
37E6
  8
2-0
  6
CONTINUOUS
 62
     6
 10
24754.52676149999
 20
20094.962149000021
 30
0.0
 11
24665.812656499991
 21
19959.165194000008
 31
0.0
  0
LINE
  5
37E7
  8
2-0
  6
CONTINUOUS
 62
     6
 10
24754.52676149999
 20
20094.962149000021
 30
0.0
 11
24793.77467649999
 21
20058.847812000022
 31
0.0
  0
LINE
  5
37E8
  8
2-0
  6
CONTINUOUS
 62
     4
 10
22713.118479499979
 20
20014.231442000018
 30
0.0
 11
22713.118479499979
 21
20744.228406999999
 31
0.0
  0
LINE
  5
37E9
  8
2-0
  6
CONTINUOUS
 62
     6
 10
24375.793389499981
 20
15776.225820000011
 30
0.0
 11
24531.112356499991
 21
15822.973141
 31
0.0
  0
LINE
  5
37EA
  8
2-0
  6
CONTINUOUS
 62
     6
 10
24531.112356499991
 20
15822.973141
 30
0.0
 11
24399.351640499968
 21
15728.380856000011
 31
0.0
  0
LINE
  5
37EB
  8
2-0
  6
CONTINUOUS
 62
     6
 10
24375.793389499981
 20
15776.225820000011
 30
0.0
 11
24399.351640499968
 21
15728.380856000011
 31
0.0
  0
LINE
  5
37EC
  8
2-0
  6
CONTINUOUS
 62
     6
 10
24399.351640499968
 20
15728.380856000011
 30
0.0
 11
24531.112356499991
 21
15822.973141
 31
0.0
  0
LINE
  5
37ED
  8
2-0
  6
CONTINUOUS
 62
     6
 10
24531.112356499991
 20
15822.973141
 30
0.0
 11
24375.793389499981
 21
15776.225820000011
 31
0.0
  0
LINE
  5
37EE
  8
2-0
  6
CONTINUOUS
 62
     6
 10
24375.793389499981
 20
15776.225820000011
 30
0.0
 11
24531.112356499991
 21
15822.973141
 31
0.0
  0
LINE
  5
37EF
  8
2-0
  6
CONTINUOUS
 62
     6
 10
24399.351640499968
 20
15728.380856000011
 30
0.0
 11
24531.112356499991
 21
15822.973141
 31
0.0
  0
LINE
  5
37F0
  8
2-0
  6
CONTINUOUS
 62
     6
 10
24399.351640499968
 20
15728.380856000011
 30
0.0
 11
24375.793389499981
 21
15776.225820000011
 31
0.0
  0
LINE
  5
37F1
  8
2-0
  6
CONTINUOUS
 62
     6
 10
24345.479042499988
 20
14255.46088099999
 30
0.0
 11
24477.225901500002
 21
14350.087808
 31
0.0
  0
LINE
  5
37F2
  8
2-0
  6
CONTINUOUS
 62
     6
 10
24477.225901500002
 20
14350.087808
 30
0.0
 11
24383.295765499988
 21
14217.84903799998
 31
0.0
  0
LINE
  5
37F3
  8
2-0
  6
CONTINUOUS
 62
     6
 10
24345.479042499988
 20
14255.46088099999
 30
0.0
 11
24383.295765499988
 21
14217.84903799998
 31
0.0
  0
LINE
  5
37F4
  8
2-0
  6
CONTINUOUS
 62
     6
 10
24383.295765499988
 20
14217.84903799998
 30
0.0
 11
24477.225901500002
 21
14350.087808
 31
0.0
  0
LINE
  5
37F5
  8
2-0
  6
CONTINUOUS
 62
     6
 10
24477.225901500002
 20
14350.087808
 30
0.0
 11
24345.479042499988
 21
14255.46088099999
 31
0.0
  0
LINE
  5
37F6
  8
2-0
  6
CONTINUOUS
 62
     6
 10
24345.479042499988
 20
14255.46088099999
 30
0.0
 11
24477.225901500002
 21
14350.087808
 31
0.0
  0
LINE
  5
37F7
  8
2-0
  6
CONTINUOUS
 62
     6
 10
24383.295765499988
 20
14217.84903799998
 30
0.0
 11
24477.225901500002
 21
14350.087808
 31
0.0
  0
LINE
  5
37F8
  8
2-0
  6
CONTINUOUS
 62
     6
 10
24383.295765499988
 20
14217.84903799998
 30
0.0
 11
24345.479042499988
 21
14255.46088099999
 31
0.0
  0
LINE
  5
37F9
  8
2-0
  6
CONTINUOUS
 62
     6
 10
24408.51483149999
 20
14582.365507999981
 30
0.0
 11
24541.114863499992
 21
14488.937179999981
 31
0.0
  0
LINE
  5
37FA
  8
2-0
  6
CONTINUOUS
 62
     6
 10
24541.114863499992
 20
14488.937179999981
 30
0.0
 11
24385.382177499981
 21
14534.312694
 31
0.0
  0
LINE
  5
37FB
  8
2-0
  6
CONTINUOUS
 62
     6
 10
24408.51483149999
 20
14582.365507999981
 30
0.0
 11
24385.382177499981
 21
14534.312694
 31
0.0
  0
LINE
  5
37FC
  8
2-0
  6
CONTINUOUS
 62
     6
 10
24385.382177499981
 20
14534.312694
 30
0.0
 11
24541.114863499992
 21
14488.937179999981
 31
0.0
  0
LINE
  5
37FD
  8
2-0
  6
CONTINUOUS
 62
     6
 10
24541.114863499992
 20
14488.937179999981
 30
0.0
 11
24408.51483149999
 21
14582.365507999981
 31
0.0
  0
LINE
  5
37FE
  8
2-0
  6
CONTINUOUS
 62
     6
 10
24408.51483149999
 20
14582.365507999981
 30
0.0
 11
24541.114863499992
 21
14488.937179999981
 31
0.0
  0
LINE
  5
37FF
  8
2-0
  6
CONTINUOUS
 62
     6
 10
24385.382177499981
 20
14534.312694
 30
0.0
 11
24541.114863499992
 21
14488.937179999981
 31
0.0
  0
LINE
  5
3800
  8
2-0
  6
CONTINUOUS
 62
     6
 10
24385.382177499981
 20
14534.312694
 30
0.0
 11
24408.51483149999
 21
14582.365507999981
 31
0.0
  0
LINE
  5
3801
  8
2-0
  6
CONTINUOUS
 62
     6
 10
24468.278477499982
 20
16962.186441000009
 30
0.0
 11
24622.116763499991
 21
17013.620272000011
 31
0.0
  0
LINE
  5
3802
  8
2-0
  6
CONTINUOUS
 62
     6
 10
24622.116763499991
 20
17013.620272000011
 30
0.0
 11
24493.281776499989
 21
16915.079837000008
 31
0.0
  0
LINE
  5
3803
  8
2-0
  6
CONTINUOUS
 62
     6
 10
24468.278477499982
 20
16962.186441000009
 30
0.0
 11
24493.281776499989
 21
16915.079837000008
 31
0.0
  0
LINE
  5
3804
  8
2-0
  6
CONTINUOUS
 62
     6
 10
24493.281776499989
 20
16915.079837000008
 30
0.0
 11
24622.116763499991
 21
17013.620272000011
 31
0.0
  0
LINE
  5
3805
  8
2-0
  6
CONTINUOUS
 62
     6
 10
24622.116763499991
 20
17013.620272000011
 30
0.0
 11
24468.278477499982
 21
16962.186441000009
 31
0.0
  0
LINE
  5
3806
  8
2-0
  6
CONTINUOUS
 62
     6
 10
24468.278477499982
 20
16962.186441000009
 30
0.0
 11
24622.116763499991
 21
17013.620272000011
 31
0.0
  0
LINE
  5
3807
  8
2-0
  6
CONTINUOUS
 62
     6
 10
24493.281776499989
 20
16915.079837000008
 30
0.0
 11
24622.116763499991
 21
17013.620272000011
 31
0.0
  0
LINE
  5
3808
  8
2-0
  6
CONTINUOUS
 62
     6
 10
24493.281776499989
 20
16915.079837000008
 30
0.0
 11
24468.278477499982
 21
16962.186441000009
 31
0.0
  0
LINE
  5
3809
  8
2-0
  6
CONTINUOUS
 62
     6
 10
24334.34227049999
 20
17453.504933000011
 30
0.0
 11
24477.225901500002
 21
17376.729304000011
 31
0.0
  0
LINE
  5
380A
  8
2-0
  6
CONTINUOUS
 62
     6
 10
24477.225901500002
 20
17376.729304000011
 30
0.0
 11
24317.164008499989
 21
17403.011373000008
 31
0.0
  0
LINE
  5
380B
  8
2-0
  6
CONTINUOUS
 62
     6
 10
24334.34227049999
 20
17453.504933000011
 30
0.0
 11
24317.164008499989
 21
17403.011373000008
 31
0.0
  0
LINE
  5
380C
  8
2-0
  6
CONTINUOUS
 62
     6
 10
24317.164008499989
 20
17403.011373000008
 30
0.0
 11
24477.225901500002
 21
17376.729304000011
 31
0.0
  0
LINE
  5
380D
  8
2-0
  6
CONTINUOUS
 62
     6
 10
24477.225901500002
 20
17376.729304000011
 30
0.0
 11
24334.34227049999
 21
17453.504933000011
 31
0.0
  0
LINE
  5
380E
  8
2-0
  6
CONTINUOUS
 62
     6
 10
24334.34227049999
 20
17453.504933000011
 30
0.0
 11
24477.225901500002
 21
17376.729304000011
 31
0.0
  0
LINE
  5
380F
  8
2-0
  6
CONTINUOUS
 62
     6
 10
24317.164008499989
 20
17403.011373000008
 30
0.0
 11
24477.225901500002
 21
17376.729304000011
 31
0.0
  0
LINE
  5
3810
  8
2-0
  6
CONTINUOUS
 62
     6
 10
24317.164008499989
 20
17403.011373000008
 30
0.0
 11
24334.34227049999
 21
17453.504933000011
 31
0.0
  0
LINE
  5
3811
  8
2-0
  6
CONTINUOUS
 62
     6
 10
24375.793389499981
 20
18693.985307999999
 30
0.0
 11
24531.112356499991
 21
18740.72965999999
 31
0.0
  0
LINE
  5
3812
  8
2-0
  6
CONTINUOUS
 62
     6
 10
24531.112356499991
 20
18740.72965999999
 30
0.0
 11
24399.351640499968
 21
18646.134406000008
 31
0.0
  0
LINE
  5
3813
  8
2-0
  6
CONTINUOUS
 62
     6
 10
24375.793389499981
 20
18693.985307999999
 30
0.0
 11
24399.351640499968
 21
18646.134406000008
 31
0.0
  0
LINE
  5
3814
  8
2-0
  6
CONTINUOUS
 62
     6
 10
24399.351640499968
 20
18646.134406000008
 30
0.0
 11
24531.112356499991
 21
18740.72965999999
 31
0.0
  0
LINE
  5
3815
  8
2-0
  6
CONTINUOUS
 62
     6
 10
24531.112356499991
 20
18740.72965999999
 30
0.0
 11
24375.793389499981
 21
18693.985307999999
 31
0.0
  0
LINE
  5
3816
  8
2-0
  6
CONTINUOUS
 62
     6
 10
24375.793389499981
 20
18693.985307999999
 30
0.0
 11
24531.112356499991
 21
18740.72965999999
 31
0.0
  0
LINE
  5
3817
  8
2-0
  6
CONTINUOUS
 62
     6
 10
24399.351640499968
 20
18646.134406000008
 30
0.0
 11
24531.112356499991
 21
18740.72965999999
 31
0.0
  0
LINE
  5
3818
  8
2-0
  6
CONTINUOUS
 62
     6
 10
24399.351640499968
 20
18646.134406000008
 30
0.0
 11
24375.793389499981
 21
18693.985307999999
 31
0.0
  0
LINE
  5
3819
  8
2-0
  6
CONTINUOUS
 62
     3
 10
21973.619060499979
 20
19934.229199000009
 30
0.0
 11
21936.61789849999
 21
19934.229199000009
 31
0.0
  0
LINE
  5
381A
  8
2-0
  6
CONTINUOUS
 62
     3
 10
21973.619060499979
 20
19904.22563600001
 30
0.0
 11
21973.619060499979
 21
19934.229199000009
 31
0.0
  0
LINE
  5
381B
  8
2-0
  6
CONTINUOUS
 62
     3
 10
21967.619139499981
 20
19904.22563600001
 30
0.0
 11
21973.619060499979
 21
19904.22563600001
 31
0.0
  0
LINE
  5
381C
  8
2-0
  6
CONTINUOUS
 62
     3
 10
21983.716584499991
 20
19904.22563600001
 30
0.0
 11
21983.716584499991
 21
19934.229199000009
 31
0.0
  0
LINE
  5
381D
  8
2-0
  6
CONTINUOUS
 62
     3
 10
21965.712863499979
 20
19904.22563600001
 30
0.0
 11
21983.716584499991
 21
19904.22563600001
 31
0.0
  0
LINE
  5
381E
  8
2-0
  6
CONTINUOUS
 62
     3
 10
21965.712863499979
 20
19929.234873000001
 30
0.0
 11
21965.712863499979
 21
19904.22563600001
 31
0.0
  0
LINE
  5
381F
  8
2-0
  6
CONTINUOUS
 62
     3
 10
21970.713127499988
 20
19929.234873000001
 30
0.0
 11
21965.712863499979
 21
19929.234873000001
 31
0.0
  0
LINE
  5
3820
  8
2-0
  6
CONTINUOUS
 62
     3
 10
21970.713127499988
 20
19922.229357000011
 30
0.0
 11
21970.713127499988
 21
19929.234873000001
 31
0.0
  0
LINE
  5
3821
  8
2-0
  6
CONTINUOUS
 62
     3
 10
21939.523832499981
 20
19922.229357000011
 30
0.0
 11
21939.523832499981
 21
19929.234873000001
 31
0.0
  0
LINE
  5
3822
  8
2-0
  6
CONTINUOUS
 62
     3
 10
21939.523832499981
 20
19929.234873000001
 30
0.0
 11
21944.52409649999
 21
19929.234873000001
 31
0.0
  0
LINE
  5
3823
  8
2-0
  6
CONTINUOUS
 62
     3
 10
21944.52409649999
 20
19929.234873000001
 30
0.0
 11
21944.52409649999
 21
19904.22563600001
 31
0.0
  0
LINE
  5
3824
  8
2-0
  6
CONTINUOUS
 62
     3
 10
21944.52409649999
 20
19904.22563600001
 30
0.0
 11
21926.52433349999
 21
19904.22563600001
 31
0.0
  0
LINE
  5
3825
  8
2-0
  6
CONTINUOUS
 62
     3
 10
21926.52433349999
 20
19904.22563600001
 30
0.0
 11
21926.52433349999
 21
19934.229199000009
 31
0.0
  0
LINE
  5
3826
  8
2-0
  6
CONTINUOUS
 62
     3
 10
21942.617819499981
 20
19904.22563600001
 30
0.0
 11
21936.61789849999
 21
19904.22563600001
 31
0.0
  0
LINE
  5
3827
  8
2-0
  6
CONTINUOUS
 62
     3
 10
21936.61789849999
 20
19904.22563600001
 30
0.0
 11
21936.61789849999
 21
19934.229199000009
 31
0.0
  0
LINE
  5
3828
  8
2-0
  6
CONTINUOUS
 62
     3
 10
19782.6197995
 20
19825.228987999999
 30
0.0
 11
19782.6197995
 21
19819.23302600002
 31
0.0
  0
LINE
  5
3829
  8
2-0
  6
CONTINUOUS
 62
     3
 10
19782.6197995
 20
19819.23302600002
 30
0.0
 11
19752.622174499989
 21
19819.23302600002
 31
0.0
  0
LINE
  5
382A
  8
2-0
  6
CONTINUOUS
 62
     3
 10
19752.622174499989
 20
19819.23302600002
 30
0.0
 11
19752.622174499989
 21
19934.229199000009
 31
0.0
  0
LINE
  5
382B
  8
2-0
  6
CONTINUOUS
 62
     3
 10
19752.622174499989
 20
19849.23263000001
 30
0.0
 11
19833.620115499991
 21
19849.23263000001
 31
0.0
  0
LINE
  5
382C
  8
2-0
  6
CONTINUOUS
 62
     3
 10
19782.6197995
 20
19808.935570000001
 30
0.0
 11
19752.622174499989
 21
19808.935570000001
 31
0.0
  0
LINE
  5
382D
  8
2-0
  6
CONTINUOUS
 62
     3
 10
19782.6197995
 20
19826.93731200002
 30
0.0
 11
19782.6197995
 21
19808.935570000001
 31
0.0
  0
LINE
  5
382E
  8
2-0
  6
CONTINUOUS
 62
     3
 10
19757.626397499989
 20
19826.93731200002
 30
0.0
 11
19782.6197995
 21
19826.93731200002
 31
0.0
  0
LINE
  5
382F
  8
2-0
  6
CONTINUOUS
 62
     3
 10
19757.626397499989
 20
19821.929130000019
 30
0.0
 11
19757.626397499989
 21
19826.93731200002
 31
0.0
  0
LINE
  5
3830
  8
2-0
  6
CONTINUOUS
 62
     3
 10
19764.623995499969
 20
19821.929130000019
 30
0.0
 11
19757.626397499989
 21
19821.929130000019
 31
0.0
  0
LINE
  5
3831
  8
2-0
  6
CONTINUOUS
 62
     3
 10
19864.918284499981
 20
19922.229357000011
 30
0.0
 11
19864.918284499981
 21
19929.234873000001
 31
0.0
  0
LINE
  5
3832
  8
2-0
  6
CONTINUOUS
 62
     3
 10
19864.918284499981
 20
19929.234873000001
 30
0.0
 11
19859.916040499978
 21
19929.234873000001
 31
0.0
  0
LINE
  5
3833
  8
2-0
  6
CONTINUOUS
 62
     3
 10
19859.916040499978
 20
19929.234873000001
 30
0.0
 11
19859.916040499978
 21
19904.22563600001
 31
0.0
  0
LINE
  5
3834
  8
2-0
  6
CONTINUOUS
 62
     3
 10
19859.916040499978
 20
19904.22563600001
 30
0.0
 11
19877.923721499981
 21
19904.22563600001
 31
0.0
  0
LINE
  5
3835
  8
2-0
  6
CONTINUOUS
 62
     3
 10
19877.923721499981
 20
19904.22563600001
 30
0.0
 11
19877.923721499981
 21
19934.229199000009
 31
0.0
  0
LINE
  5
3836
  8
2-0
  6
CONTINUOUS
 62
     3
 10
19867.624285499991
 20
19934.229199000009
 30
0.0
 11
19752.622174499989
 21
19934.229199000009
 31
0.0
  0
LINE
  5
3837
  8
2-0
  6
CONTINUOUS
 62
     3
 10
19867.624285499991
 20
19904.22563600001
 30
0.0
 11
19867.624285499991
 21
19934.229199000009
 31
0.0
  0
LINE
  5
3838
  8
2-0
  6
CONTINUOUS
 62
     3
 10
19861.620406499991
 20
19904.22563600001
 30
0.0
 11
19867.624285499991
 21
19904.22563600001
 31
0.0
  0
LINE
  5
3839
  8
2-0
  6
CONTINUOUS
 62
     3
 10
20568.70817799999
 20
19922.229357000011
 30
0.0
 11
20568.70817799999
 21
19929.234873000001
 31
0.0
  0
LINE
  5
383A
  8
2-0
  6
CONTINUOUS
 62
     3
 10
20568.70817799999
 20
19929.234873000001
 30
0.0
 11
20563.707913999991
 21
19929.234873000001
 31
0.0
  0
LINE
  5
383B
  8
2-0
  6
CONTINUOUS
 62
     3
 10
20563.707913999991
 20
19929.234873000001
 30
0.0
 11
20563.707913999991
 21
19904.22563600001
 31
0.0
  0
LINE
  5
383C
  8
2-0
  6
CONTINUOUS
 62
     3
 10
20563.707913999991
 20
19904.22563600001
 30
0.0
 11
20581.71361499999
 21
19904.22563600001
 31
0.0
  0
LINE
  5
383D
  8
2-0
  6
CONTINUOUS
 62
     3
 10
20581.71361499999
 20
19904.22563600001
 30
0.0
 11
20581.71361499999
 21
19934.229199000009
 31
0.0
  0
LINE
  5
383E
  8
2-0
  6
CONTINUOUS
 62
     3
 10
20565.616169999979
 20
19904.22563600001
 30
0.0
 11
20571.61806999999
 21
19904.22563600001
 31
0.0
  0
LINE
  5
383F
  8
2-0
  6
CONTINUOUS
 62
     3
 10
20571.61806999999
 20
19904.22563600001
 30
0.0
 11
20571.61806999999
 21
19934.229199000009
 31
0.0
  0
LINE
  5
3840
  8
2-0
  6
CONTINUOUS
 62
     3
 10
20534.618888999968
 20
19934.229199000009
 30
0.0
 11
20571.61806999999
 21
19934.229199000009
 31
0.0
  0
LINE
  5
3841
  8
2-0
  6
CONTINUOUS
 62
     3
 10
20534.618888999968
 20
19904.22563600001
 30
0.0
 11
20534.618888999968
 21
19934.229199000009
 31
0.0
  0
LINE
  5
3842
  8
2-0
  6
CONTINUOUS
 62
     3
 10
20540.61287099999
 20
19904.22563600001
 30
0.0
 11
20534.618888999968
 21
19904.22563600001
 31
0.0
  0
LINE
  5
3843
  8
2-0
  6
CONTINUOUS
 62
     3
 10
20524.523343999979
 20
19904.22563600001
 30
0.0
 11
20524.523343999979
 21
19934.229199000009
 31
0.0
  0
LINE
  5
3844
  8
2-0
  6
CONTINUOUS
 62
     3
 10
20542.519146999992
 20
19904.22563600001
 30
0.0
 11
20524.523343999979
 21
19904.22563600001
 31
0.0
  0
LINE
  5
3845
  8
2-0
  6
CONTINUOUS
 62
     3
 10
20542.519146999992
 20
19929.234873000001
 30
0.0
 11
20542.519146999992
 21
19904.22563600001
 31
0.0
  0
LINE
  5
3846
  8
2-0
  6
CONTINUOUS
 62
     3
 10
20537.518882999979
 20
19929.234873000001
 30
0.0
 11
20542.519146999992
 21
19929.234873000001
 31
0.0
  0
LINE
  5
3847
  8
2-0
  6
CONTINUOUS
 62
     3
 10
20537.518882999979
 20
19922.229357000011
 30
0.0
 11
20537.518882999979
 21
19929.234873000001
 31
0.0
  0
LINE
  5
3848
  8
2-0
  6
CONTINUOUS
 62
     3
 10
21238.517893999979
 20
19922.229357000011
 30
0.0
 11
21238.517893999979
 21
19929.234873000001
 31
0.0
  0
LINE
  5
3849
  8
2-0
  6
CONTINUOUS
 62
     3
 10
21238.517893999979
 20
19929.234873000001
 30
0.0
 11
21243.518156999991
 21
19929.234873000001
 31
0.0
  0
LINE
  5
384A
  8
2-0
  6
CONTINUOUS
 62
     3
 10
21243.518156999991
 20
19929.234873000001
 30
0.0
 11
21243.518156999991
 21
19904.22563600001
 31
0.0
  0
LINE
  5
384B
  8
2-0
  6
CONTINUOUS
 62
     3
 10
21243.518156999991
 20
19904.22563600001
 30
0.0
 11
21225.524333999969
 21
19904.22563600001
 31
0.0
  0
LINE
  5
384C
  8
2-0
  6
CONTINUOUS
 62
     3
 10
21225.524333999969
 20
19904.22563600001
 30
0.0
 11
21225.524333999969
 21
19934.229199000009
 31
0.0
  0
LINE
  5
384D
  8
2-0
  6
CONTINUOUS
 62
     3
 10
21241.61583999998
 20
19904.22563600001
 30
0.0
 11
21235.61789899999
 21
19904.22563600001
 31
0.0
  0
LINE
  5
384E
  8
2-0
  6
CONTINUOUS
 62
     3
 10
21235.61789899999
 20
19904.22563600001
 30
0.0
 11
21235.61789899999
 21
19934.229199000009
 31
0.0
  0
LINE
  5
384F
  8
2-0
  6
CONTINUOUS
 62
     3
 10
21272.61905999999
 20
19934.229199000009
 30
0.0
 11
21235.61789899999
 21
19934.229199000009
 31
0.0
  0
LINE
  5
3850
  8
2-0
  6
CONTINUOUS
 62
     3
 10
21272.61905999999
 20
19904.22563600001
 30
0.0
 11
21272.61905999999
 21
19934.229199000009
 31
0.0
  0
LINE
  5
3851
  8
2-0
  6
CONTINUOUS
 62
     3
 10
21266.613200999978
 20
19904.22563600001
 30
0.0
 11
21272.61905999999
 21
19904.22563600001
 31
0.0
  0
LINE
  5
3852
  8
2-0
  6
CONTINUOUS
 62
     3
 10
21282.712624999978
 20
19904.22563600001
 30
0.0
 11
21282.712624999978
 21
19934.229199000009
 31
0.0
  0
LINE
  5
3853
  8
2-0
  6
CONTINUOUS
 62
     3
 10
21264.716821999991
 20
19904.22563600001
 30
0.0
 11
21282.712624999978
 21
19904.22563600001
 31
0.0
  0
LINE
  5
3854
  8
2-0
  6
CONTINUOUS
 62
     3
 10
21264.716821999991
 20
19929.234873000001
 30
0.0
 11
21264.716821999991
 21
19904.22563600001
 31
0.0
  0
LINE
  5
3855
  8
2-0
  6
CONTINUOUS
 62
     3
 10
21269.707187999989
 20
19929.234873000001
 30
0.0
 11
21264.716821999991
 21
19929.234873000001
 31
0.0
  0
LINE
  5
3856
  8
2-0
  6
CONTINUOUS
 62
     3
 10
21269.707187999989
 20
19922.229357000011
 30
0.0
 11
21269.707187999989
 21
19929.234873000001
 31
0.0
  0
LINE
  5
3857
  8
2-0
  6
CONTINUOUS
 62
     3
 10
20581.71361499999
 20
19934.229199000009
 30
0.0
 11
21225.524333999969
 21
19934.229199000009
 31
0.0
  0
LINE
  5
3858
  8
2-0
  6
CONTINUOUS
 62
     3
 10
19877.923721499981
 20
19934.229199000009
 30
0.0
 11
20524.523343999979
 21
19934.229199000009
 31
0.0
  0
LINE
  5
3859
  8
2-0
  6
CONTINUOUS
 62
     3
 10
21926.52433349999
 20
19934.229199000009
 30
0.0
 11
21282.712624999978
 21
19934.229199000009
 31
0.0
  0
LINE
  5
385A
  8
2-0
  6
CONTINUOUS
 62
     3
 10
19782.6197995
 20
19825.228987999999
 30
0.0
 11
19782.6197995
 21
19819.23302600002
 31
0.0
  0
LINE
  5
385B
  8
2-0
  6
CONTINUOUS
 62
     3
 10
19782.6197995
 20
19819.23302600002
 30
0.0
 11
19752.622174499989
 21
19819.23302600002
 31
0.0
  0
LINE
  5
385C
  8
2-0
  6
CONTINUOUS
 62
     3
 10
19752.622174499989
 20
19819.23302600002
 30
0.0
 11
19752.622174499989
 21
19934.229199000009
 31
0.0
  0
LINE
  5
385D
  8
2-0
  6
CONTINUOUS
 62
     3
 10
19752.622174499989
 20
19849.23263000001
 30
0.0
 11
19833.620115499991
 21
19849.23263000001
 31
0.0
  0
LINE
  5
385E
  8
2-0
  6
CONTINUOUS
 62
     3
 10
19782.6197995
 20
19808.935570000001
 30
0.0
 11
19752.622174499989
 21
19808.935570000001
 31
0.0
  0
LINE
  5
385F
  8
2-0
  6
CONTINUOUS
 62
     3
 10
19782.6197995
 20
19826.93731200002
 30
0.0
 11
19782.6197995
 21
19808.935570000001
 31
0.0
  0
LINE
  5
3860
  8
2-0
  6
CONTINUOUS
 62
     3
 10
19757.626397499989
 20
19826.93731200002
 30
0.0
 11
19782.6197995
 21
19826.93731200002
 31
0.0
  0
LINE
  5
3861
  8
2-0
  6
CONTINUOUS
 62
     3
 10
19757.626397499989
 20
19821.929130000019
 30
0.0
 11
19757.626397499989
 21
19826.93731200002
 31
0.0
  0
LINE
  5
3862
  8
2-0
  6
CONTINUOUS
 62
     3
 10
19764.623995499969
 20
19821.929130000019
 30
0.0
 11
19757.626397499989
 21
19821.929130000019
 31
0.0
  0
LINE
  5
3863
  8
2-0
  6
CONTINUOUS
 62
     3
 10
19764.623995499969
 20
19468.632307499978
 30
0.0
 11
19757.626397499989
 21
19468.632307499978
 31
0.0
  0
LINE
  5
3864
  8
2-0
  6
CONTINUOUS
 62
     3
 10
19757.626397499989
 20
19468.632307499978
 30
0.0
 11
19757.626397499989
 21
19473.632571499991
 31
0.0
  0
LINE
  5
3865
  8
2-0
  6
CONTINUOUS
 62
     3
 10
19757.626397499989
 20
19473.632571499991
 30
0.0
 11
19782.6197995
 21
19473.632571499991
 31
0.0
  0
LINE
  5
3866
  8
2-0
  6
CONTINUOUS
 62
     3
 10
19782.6197995
 20
19473.632571499991
 30
0.0
 11
19782.6197995
 21
19455.636767499989
 31
0.0
  0
LINE
  5
3867
  8
2-0
  6
CONTINUOUS
 62
     3
 10
19782.6197995
 20
19455.636767499989
 30
0.0
 11
19752.622174499989
 21
19455.636767499989
 31
0.0
  0
LINE
  5
3868
  8
2-0
  6
CONTINUOUS
 62
     3
 10
19782.6197995
 20
19471.728274499968
 30
0.0
 11
19782.6197995
 21
19465.730333499989
 31
0.0
  0
LINE
  5
3869
  8
2-0
  6
CONTINUOUS
 62
     3
 10
19782.6197995
 20
19465.730333499989
 30
0.0
 11
19752.622174499989
 21
19465.730333499989
 31
0.0
  0
LINE
  5
386A
  8
2-0
  6
CONTINUOUS
 62
     3
 10
19752.622174499989
 20
19465.730333499989
 30
0.0
 11
19752.622174499989
 21
19502.7314945
 31
0.0
  0
LINE
  5
386B
  8
2-0
  6
CONTINUOUS
 62
     3
 10
19782.6197995
 20
19502.7314945
 30
0.0
 11
19752.622174499989
 21
19502.7314945
 31
0.0
  0
LINE
  5
386C
  8
2-0
  6
CONTINUOUS
 62
     3
 10
19782.6197995
 20
19496.727614499981
 30
0.0
 11
19782.6197995
 21
19502.7314945
 31
0.0
  0
LINE
  5
386D
  8
2-0
  6
CONTINUOUS
 62
     3
 10
19782.6197995
 20
19512.827039499982
 30
0.0
 11
19752.622174499989
 21
19512.827039499982
 31
0.0
  0
LINE
  5
386E
  8
2-0
  6
CONTINUOUS
 62
     3
 10
19782.6197995
 20
19494.8252975
 30
0.0
 11
19782.6197995
 21
19512.827039499982
 31
0.0
  0
LINE
  5
386F
  8
2-0
  6
CONTINUOUS
 62
     3
 10
19757.626397499989
 20
19494.8252975
 30
0.0
 11
19782.6197995
 21
19494.8252975
 31
0.0
  0
LINE
  5
3870
  8
2-0
  6
CONTINUOUS
 62
     3
 10
19757.626397499989
 20
19499.825561500002
 30
0.0
 11
19757.626397499989
 21
19494.8252975
 31
0.0
  0
LINE
  5
3871
  8
2-0
  6
CONTINUOUS
 62
     3
 10
19764.623995499969
 20
19499.825561500002
 30
0.0
 11
19757.626397499989
 21
19499.825561500002
 31
0.0
  0
LINE
  5
3872
  8
2-0
  6
CONTINUOUS
 62
     3
 10
19764.623995499969
 20
18767.631317999989
 30
0.0
 11
19757.626397499989
 21
18767.631317999989
 31
0.0
  0
LINE
  5
3873
  8
2-0
  6
CONTINUOUS
 62
     3
 10
19757.626397499989
 20
18767.631317999989
 30
0.0
 11
19757.626397499989
 21
18772.63752
 31
0.0
  0
LINE
  5
3874
  8
2-0
  6
CONTINUOUS
 62
     3
 10
19757.626397499989
 20
18772.63752
 30
0.0
 11
19782.6197995
 21
18772.63752
 31
0.0
  0
LINE
  5
3875
  8
2-0
  6
CONTINUOUS
 62
     3
 10
19782.6197995
 20
18772.63752
 30
0.0
 11
19782.6197995
 21
18754.635778
 31
0.0
  0
LINE
  5
3876
  8
2-0
  6
CONTINUOUS
 62
     3
 10
19782.6197995
 20
18754.635778
 30
0.0
 11
19752.622174499989
 21
18754.635778
 31
0.0
  0
LINE
  5
3877
  8
2-0
  6
CONTINUOUS
 62
     3
 10
19782.6197995
 20
18770.72728499999
 30
0.0
 11
19782.6197995
 21
18764.731322999989
 31
0.0
  0
LINE
  5
3878
  8
2-0
  6
CONTINUOUS
 62
     3
 10
19782.6197995
 20
18764.731322999989
 30
0.0
 11
19752.622174499989
 21
18764.731322999989
 31
0.0
  0
LINE
  5
3879
  8
2-0
  6
CONTINUOUS
 62
     3
 10
19752.622174499989
 20
18764.731322999989
 30
0.0
 11
19752.622174499989
 21
18801.730505
 31
0.0
  0
LINE
  5
387A
  8
2-0
  6
CONTINUOUS
 62
     3
 10
19782.6197995
 20
18801.730505
 30
0.0
 11
19752.622174499989
 21
18801.730505
 31
0.0
  0
LINE
  5
387B
  8
2-0
  6
CONTINUOUS
 62
     3
 10
19782.6197995
 20
18795.73454300001
 30
0.0
 11
19782.6197995
 21
18801.730505
 31
0.0
  0
LINE
  5
387C
  8
2-0
  6
CONTINUOUS
 62
     3
 10
19782.6197995
 20
18811.82605
 30
0.0
 11
19752.622174499989
 21
18811.82605
 31
0.0
  0
LINE
  5
387D
  8
2-0
  6
CONTINUOUS
 62
     3
 10
19782.6197995
 20
18793.824307999988
 30
0.0
 11
19782.6197995
 21
18811.82605
 31
0.0
  0
LINE
  5
387E
  8
2-0
  6
CONTINUOUS
 62
     3
 10
19757.626397499989
 20
18793.824307999988
 30
0.0
 11
19782.6197995
 21
18793.824307999988
 31
0.0
  0
LINE
  5
387F
  8
2-0
  6
CONTINUOUS
 62
     3
 10
19757.626397499989
 20
18798.83051
 30
0.0
 11
19757.626397499989
 21
18793.824307999988
 31
0.0
  0
LINE
  5
3880
  8
2-0
  6
CONTINUOUS
 62
     3
 10
19764.623995499969
 20
18798.83051
 30
0.0
 11
19757.626397499989
 21
18798.83051
 31
0.0
  0
LINE
  5
3881
  8
2-0
  6
CONTINUOUS
 62
     3
 10
19764.623995499969
 20
18097.824572000001
 30
0.0
 11
19757.626397499989
 21
18097.824572000001
 31
0.0
  0
LINE
  5
3882
  8
2-0
  6
CONTINUOUS
 62
     3
 10
19757.626397499989
 20
18097.824572000001
 30
0.0
 11
19757.626397499989
 21
18092.836185
 31
0.0
  0
LINE
  5
3883
  8
2-0
  6
CONTINUOUS
 62
     3
 10
19757.626397499989
 20
18092.836185
 30
0.0
 11
19782.6197995
 21
18092.836185
 31
0.0
  0
LINE
  5
3884
  8
2-0
  6
CONTINUOUS
 62
     3
 10
19782.6197995
 20
18092.836185
 30
0.0
 11
19782.6197995
 21
18110.831988000002
 31
0.0
  0
LINE
  5
3885
  8
2-0
  6
CONTINUOUS
 62
     3
 10
19782.6197995
 20
18110.831988000002
 30
0.0
 11
19752.622174499989
 21
18110.831988000002
 31
0.0
  0
LINE
  5
3886
  8
2-0
  6
CONTINUOUS
 62
     3
 10
19782.6197995
 20
18094.734542999991
 30
0.0
 11
19782.6197995
 21
18100.730504999981
 31
0.0
  0
LINE
  5
3887
  8
2-0
  6
CONTINUOUS
 62
     3
 10
19782.6197995
 20
18100.730504999981
 30
0.0
 11
19752.622174499989
 21
18100.730504999981
 31
0.0
  0
LINE
  5
3888
  8
2-0
  6
CONTINUOUS
 62
     3
 10
19752.622174499989
 20
18100.730504999981
 30
0.0
 11
19752.622174499989
 21
18063.731323
 31
0.0
  0
LINE
  5
3889
  8
2-0
  6
CONTINUOUS
 62
     3
 10
19782.6197995
 20
18063.731323
 30
0.0
 11
19752.622174499989
 21
18063.731323
 31
0.0
  0
LINE
  5
388A
  8
2-0
  6
CONTINUOUS
 62
     3
 10
19782.6197995
 20
18069.733223999981
 30
0.0
 11
19782.6197995
 21
18063.731323
 31
0.0
  0
LINE
  5
388B
  8
2-0
  6
CONTINUOUS
 62
     3
 10
19782.6197995
 20
18053.641716999991
 30
0.0
 11
19752.622174499989
 21
18053.641716999991
 31
0.0
  0
LINE
  5
388C
  8
2-0
  6
CONTINUOUS
 62
     3
 10
19782.6197995
 20
18071.63752
 30
0.0
 11
19782.6197995
 21
18053.641716999991
 31
0.0
  0
LINE
  5
388D
  8
2-0
  6
CONTINUOUS
 62
     3
 10
19757.626397499989
 20
18071.63752
 30
0.0
 11
19782.6197995
 21
18071.63752
 31
0.0
  0
LINE
  5
388E
  8
2-0
  6
CONTINUOUS
 62
     3
 10
19757.626397499989
 20
18066.637256999998
 30
0.0
 11
19757.626397499989
 21
18071.63752
 31
0.0
  0
LINE
  5
388F
  8
2-0
  6
CONTINUOUS
 62
     3
 10
19764.623995499969
 20
18066.637256999998
 30
0.0
 11
19757.626397499989
 21
18066.637256999998
 31
0.0
  0
LINE
  5
3890
  8
2-0
  6
CONTINUOUS
 62
     3
 10
19755.508312499991
 20
17346.728143
 30
0.0
 11
19755.508312499991
 21
17366.72919799999
 31
0.0
  0
LINE
  5
3891
  8
2-0
  6
CONTINUOUS
 62
     3
 10
19755.508312499991
 20
17366.72919799999
 30
0.0
 11
19840.508840499991
 21
17366.72919799999
 31
0.0
  0
LINE
  5
3892
  8
2-0
  6
CONTINUOUS
 62
     3
 10
19764.623995499969
 20
17393.335908000001
 30
0.0
 11
19757.626397499989
 21
17393.335908000001
 31
0.0
  0
LINE
  5
3893
  8
2-0
  6
CONTINUOUS
 62
     3
 10
19757.626397499989
 20
17393.335908000001
 30
0.0
 11
19757.626397499989
 21
17388.341582000001
 31
0.0
  0
LINE
  5
3894
  8
2-0
  6
CONTINUOUS
 62
     3
 10
19757.626397499989
 20
17388.341582000001
 30
0.0
 11
19782.6197995
 21
17388.341582000001
 31
0.0
  0
LINE
  5
3895
  8
2-0
  6
CONTINUOUS
 62
     3
 10
19782.6197995
 20
17388.341582000001
 30
0.0
 11
19782.6197995
 21
17406.33738600001
 31
0.0
  0
LINE
  5
3896
  8
2-0
  6
CONTINUOUS
 62
     3
 10
19782.6197995
 20
17406.33738600001
 30
0.0
 11
19752.622174499989
 21
17406.33738600001
 31
0.0
  0
LINE
  5
3897
  8
2-0
  6
CONTINUOUS
 62
     3
 10
19782.6197995
 20
17396.728802000001
 30
0.0
 11
19782.6197995
 21
17390.726901999991
 31
0.0
  0
LINE
  5
3898
  8
2-0
  6
CONTINUOUS
 62
     3
 10
19752.622174499989
 20
17396.728802000001
 30
0.0
 11
19782.6197995
 21
17396.728802000001
 31
0.0
  0
LINE
  5
3899
  8
2-0
  6
CONTINUOUS
 62
     3
 10
19752.622174499989
 20
17406.33738600001
 30
0.0
 11
19752.622174499989
 21
18053.641716999991
 31
0.0
  0
LINE
  5
389A
  8
2-0
  6
CONTINUOUS
 62
     3
 10
19752.622174499989
 20
18110.831988000002
 30
0.0
 11
19752.622174499989
 21
18754.635778
 31
0.0
  0
LINE
  5
389B
  8
2-0
  6
CONTINUOUS
 62
     3
 10
19752.622174499989
 20
17251.72708700001
 30
0.0
 11
19782.6197995
 21
17251.72708700001
 31
0.0
  0
LINE
  5
389C
  8
2-0
  6
CONTINUOUS
 62
     3
 10
19782.6197995
 20
17251.72708700001
 30
0.0
 11
19782.6197995
 21
17257.728986999999
 31
0.0
  0
LINE
  5
389D
  8
2-0
  6
CONTINUOUS
 62
     3
 10
19840.508840499991
 20
17281.732629999991
 30
0.0
 11
19755.508312499991
 21
17281.732629999991
 31
0.0
  0
LINE
  5
389E
  8
2-0
  6
CONTINUOUS
 62
     3
 10
19755.508312499991
 20
17281.732629999991
 30
0.0
 11
19755.508312499991
 21
17301.727747000012
 31
0.0
  0
LINE
  5
389F
  8
2-0
  6
CONTINUOUS
 62
     3
 10
19782.6197995
 20
17242.118504000009
 30
0.0
 11
19752.622174499989
 21
17242.118504000009
 31
0.0
  0
LINE
  5
38A0
  8
2-0
  6
CONTINUOUS
 62
     3
 10
19782.6197995
 20
17260.114306999982
 30
0.0
 11
19782.6197995
 21
17242.118504000009
 31
0.0
  0
LINE
  5
38A1
  8
2-0
  6
CONTINUOUS
 62
     3
 10
19757.626397499989
 20
17260.114306999982
 30
0.0
 11
19782.6197995
 21
17260.114306999982
 31
0.0
  0
LINE
  5
38A2
  8
2-0
  6
CONTINUOUS
 62
     3
 10
19757.626397499989
 20
17255.114043000009
 30
0.0
 11
19757.626397499989
 21
17260.114306999982
 31
0.0
  0
LINE
  5
38A3
  8
2-0
  6
CONTINUOUS
 62
     3
 10
19764.623995499969
 20
17255.114043000009
 30
0.0
 11
19757.626397499989
 21
17255.114043000009
 31
0.0
  0
LINE
  5
38A4
  8
2-0
  6
CONTINUOUS
 62
     3
 10
19764.623995499969
 20
16550.631812499989
 30
0.0
 11
19757.626397499989
 21
16550.631812499989
 31
0.0
  0
LINE
  5
38A5
  8
2-0
  6
CONTINUOUS
 62
     3
 10
19757.626397499989
 20
16550.631812499989
 30
0.0
 11
19757.626397499989
 21
16555.632076499991
 31
0.0
  0
LINE
  5
38A6
  8
2-0
  6
CONTINUOUS
 62
     3
 10
19757.626397499989
 20
16555.632076499991
 30
0.0
 11
19782.6197995
 21
16555.632076499991
 31
0.0
  0
LINE
  5
38A7
  8
2-0
  6
CONTINUOUS
 62
     3
 10
19782.6197995
 20
16555.632076499991
 30
0.0
 11
19782.6197995
 21
16537.630334499991
 31
0.0
  0
LINE
  5
38A8
  8
2-0
  6
CONTINUOUS
 62
     3
 10
19782.6197995
 20
16537.630334499991
 30
0.0
 11
19752.622174499989
 21
16537.630334499991
 31
0.0
  0
LINE
  5
38A9
  8
2-0
  6
CONTINUOUS
 62
     3
 10
19782.6197995
 20
16553.727779500001
 30
0.0
 11
19782.6197995
 21
16547.7308285
 31
0.0
  0
LINE
  5
38AA
  8
2-0
  6
CONTINUOUS
 62
     3
 10
19782.6197995
 20
16547.7308285
 30
0.0
 11
19752.622174499989
 21
16547.7308285
 31
0.0
  0
LINE
  5
38AB
  8
2-0
  6
CONTINUOUS
 62
     3
 10
19752.622174499989
 20
16547.7308285
 30
0.0
 11
19752.622174499989
 21
16584.7309995
 31
0.0
  0
LINE
  5
38AC
  8
2-0
  6
CONTINUOUS
 62
     3
 10
19782.6197995
 20
16584.7309995
 30
0.0
 11
19752.622174499989
 21
16584.7309995
 31
0.0
  0
LINE
  5
38AD
  8
2-0
  6
CONTINUOUS
 62
     3
 10
19782.6197995
 20
16578.7281095
 30
0.0
 11
19782.6197995
 21
16584.7309995
 31
0.0
  0
LINE
  5
38AE
  8
2-0
  6
CONTINUOUS
 62
     3
 10
19782.6197995
 20
16594.8265445
 30
0.0
 11
19752.622174499989
 21
16594.8265445
 31
0.0
  0
LINE
  5
38AF
  8
2-0
  6
CONTINUOUS
 62
     3
 10
19782.6197995
 20
16576.818863500001
 30
0.0
 11
19782.6197995
 21
16594.8265445
 31
0.0
  0
LINE
  5
38B0
  8
2-0
  6
CONTINUOUS
 62
     3
 10
19757.626397499989
 20
16576.818863500001
 30
0.0
 11
19782.6197995
 21
16576.818863500001
 31
0.0
  0
LINE
  5
38B1
  8
2-0
  6
CONTINUOUS
 62
     3
 10
19757.626397499989
 20
16581.825066500001
 30
0.0
 11
19757.626397499989
 21
16576.818863500001
 31
0.0
  0
LINE
  5
38B2
  8
2-0
  6
CONTINUOUS
 62
     3
 10
19764.623995499969
 20
16581.825066500001
 30
0.0
 11
19757.626397499989
 21
16581.825066500001
 31
0.0
  0
LINE
  5
38B3
  8
2-0
  6
CONTINUOUS
 62
     3
 10
19764.623995499969
 20
15881.065083
 30
0.0
 11
19757.626397499989
 21
15881.065083
 31
0.0
  0
LINE
  5
38B4
  8
2-0
  6
CONTINUOUS
 62
     3
 10
19757.626397499989
 20
15881.065083
 30
0.0
 11
19757.626397499989
 21
15876.070758000011
 31
0.0
  0
LINE
  5
38B5
  8
2-0
  6
CONTINUOUS
 62
     3
 10
19757.626397499989
 20
15876.070758000011
 30
0.0
 11
19782.6197995
 21
15876.070758000011
 31
0.0
  0
LINE
  5
38B6
  8
2-0
  6
CONTINUOUS
 62
     3
 10
19782.6197995
 20
15876.070758000011
 30
0.0
 11
19782.6197995
 21
15894.066561000011
 31
0.0
  0
LINE
  5
38B7
  8
2-0
  6
CONTINUOUS
 62
     3
 10
19782.6197995
 20
15894.066561000011
 30
0.0
 11
19752.622174499989
 21
15894.066561000011
 31
0.0
  0
LINE
  5
38B8
  8
2-0
  6
CONTINUOUS
 62
     3
 10
19782.6197995
 20
15877.969116
 30
0.0
 11
19782.6197995
 21
15883.97101600001
 31
0.0
  0
LINE
  5
38B9
  8
2-0
  6
CONTINUOUS
 62
     3
 10
19782.6197995
 20
15883.97101600001
 30
0.0
 11
19752.622174499989
 21
15883.97101600001
 31
0.0
  0
LINE
  5
38BA
  8
2-0
  6
CONTINUOUS
 62
     3
 10
19752.622174499989
 20
15846.971835
 30
0.0
 11
19752.622174499989
 21
15883.97101600001
 31
0.0
  0
LINE
  5
38BB
  8
2-0
  6
CONTINUOUS
 62
     3
 10
19782.6197995
 20
15846.971835
 30
0.0
 11
19752.622174499989
 21
15846.971835
 31
0.0
  0
LINE
  5
38BC
  8
2-0
  6
CONTINUOUS
 62
     3
 10
19782.6197995
 20
15852.968785999999
 30
0.0
 11
19782.6197995
 21
15846.971835
 31
0.0
  0
LINE
  5
38BD
  8
2-0
  6
CONTINUOUS
 62
     3
 10
19782.6197995
 20
15836.870351
 30
0.0
 11
19752.622174499989
 21
15836.870351
 31
0.0
  0
LINE
  5
38BE
  8
2-0
  6
CONTINUOUS
 62
     3
 10
19782.6197995
 20
15854.878032000001
 30
0.0
 11
19782.6197995
 21
15836.870351
 31
0.0
  0
LINE
  5
38BF
  8
2-0
  6
CONTINUOUS
 62
     3
 10
19757.626397499989
 20
15854.878032000001
 30
0.0
 11
19782.6197995
 21
15854.878032000001
 31
0.0
  0
LINE
  5
38C0
  8
2-0
  6
CONTINUOUS
 62
     3
 10
19757.626397499989
 20
15849.87776800002
 30
0.0
 11
19757.626397499989
 21
15854.878032000001
 31
0.0
  0
LINE
  5
38C1
  8
2-0
  6
CONTINUOUS
 62
     3
 10
19764.623995499969
 20
15849.87776800002
 30
0.0
 11
19757.626397499989
 21
15849.87776800002
 31
0.0
  0
LINE
  5
38C2
  8
2-0
  6
CONTINUOUS
 62
     3
 10
19752.622174499989
 20
17242.118504000009
 30
0.0
 11
19752.622174499989
 21
16594.8265445
 31
0.0
  0
LINE
  5
38C3
  8
2-0
  6
CONTINUOUS
 62
     3
 10
19752.622174499989
 20
17396.728802000001
 30
0.0
 11
19752.622174499989
 21
17251.72708700001
 31
0.0
  0
LINE
  5
38C4
  8
2-0
  6
CONTINUOUS
 62
     3
 10
19840.508840499991
 20
17366.72919799999
 30
0.0
 11
19840.508840499991
 21
17281.732629999991
 31
0.0
  0
LINE
  5
38C5
  8
2-0
  6
CONTINUOUS
 62
     3
 10
19764.623995499969
 20
15148.636761
 30
0.0
 11
19757.626397499989
 21
15148.636761
 31
0.0
  0
LINE
  5
38C6
  8
2-0
  6
CONTINUOUS
 62
     3
 10
19757.626397499989
 20
15148.636761
 30
0.0
 11
19757.626397499989
 21
15153.631087000011
 31
0.0
  0
LINE
  5
38C7
  8
2-0
  6
CONTINUOUS
 62
     3
 10
19757.626397499989
 20
15153.631087000011
 30
0.0
 11
19782.6197995
 21
15153.631087000011
 31
0.0
  0
LINE
  5
38C8
  8
2-0
  6
CONTINUOUS
 62
     3
 10
19782.6197995
 20
15153.631087000011
 30
0.0
 11
19782.6197995
 21
15135.635283000011
 31
0.0
  0
LINE
  5
38C9
  8
2-0
  6
CONTINUOUS
 62
     3
 10
19782.6197995
 20
15135.635283000011
 30
0.0
 11
19752.622174499989
 21
15135.635283000011
 31
0.0
  0
LINE
  5
38CA
  8
2-0
  6
CONTINUOUS
 62
     3
 10
19782.6197995
 20
15151.73371800001
 30
0.0
 11
19782.6197995
 21
15145.730828000011
 31
0.0
  0
LINE
  5
38CB
  8
2-0
  6
CONTINUOUS
 62
     3
 10
19782.6197995
 20
15145.730828000011
 30
0.0
 11
19752.622174499989
 21
15145.730828000011
 31
0.0
  0
LINE
  5
38CC
  8
2-0
  6
CONTINUOUS
 62
     3
 10
19752.622174499989
 20
15145.730828000011
 30
0.0
 11
19752.622174499989
 21
15182.730999999991
 31
0.0
  0
LINE
  5
38CD
  8
2-0
  6
CONTINUOUS
 62
     3
 10
19782.6197995
 20
15182.730999999991
 30
0.0
 11
19752.622174499989
 21
15182.730999999991
 31
0.0
  0
LINE
  5
38CE
  8
2-0
  6
CONTINUOUS
 62
     3
 10
19782.6197995
 20
15176.734048
 30
0.0
 11
19782.6197995
 21
15182.730999999991
 31
0.0
  0
LINE
  5
38CF
  8
2-0
  6
CONTINUOUS
 62
     3
 10
19782.6197995
 20
15192.831493000011
 30
0.0
 11
19752.622174499989
 21
15192.831493000011
 31
0.0
  0
LINE
  5
38D0
  8
2-0
  6
CONTINUOUS
 62
     3
 10
19782.6197995
 20
15174.82480200001
 30
0.0
 11
19782.6197995
 21
15192.831493000011
 31
0.0
  0
LINE
  5
38D1
  8
2-0
  6
CONTINUOUS
 62
     3
 10
19757.626397499989
 20
15174.82480200001
 30
0.0
 11
19782.6197995
 21
15174.82480200001
 31
0.0
  0
LINE
  5
38D2
  8
2-0
  6
CONTINUOUS
 62
     3
 10
19757.626397499989
 20
15179.83001500001
 30
0.0
 11
19757.626397499989
 21
15174.82480200001
 31
0.0
  0
LINE
  5
38D3
  8
2-0
  6
CONTINUOUS
 62
     3
 10
19764.623995499969
 20
15179.83001500001
 30
0.0
 11
19757.626397499989
 21
15179.83001500001
 31
0.0
  0
LINE
  5
38D4
  8
2-0
  6
CONTINUOUS
 62
     3
 10
19782.6197995
 20
14472.732840999999
 30
0.0
 11
19782.6197995
 21
14478.737709999999
 31
0.0
  0
LINE
  5
38D5
  8
2-0
  6
CONTINUOUS
 62
     3
 10
19782.6197995
 20
14478.737709999999
 30
0.0
 11
19752.622174499989
 21
14478.737709999999
 31
0.0
  0
LINE
  5
38D6
  8
2-0
  6
CONTINUOUS
 62
     3
 10
19752.622174499989
 20
14478.737709999999
 30
0.0
 11
19752.622174499989
 21
14363.733619000001
 31
0.0
  0
LINE
  5
38D7
  8
2-0
  6
CONTINUOUS
 62
     3
 10
19752.622174499989
 20
14363.733619000001
 30
0.0
 11
19837.620722499982
 21
14363.733619000001
 31
0.0
  0
LINE
  5
38D8
  8
2-0
  6
CONTINUOUS
 62
     3
 10
19837.620722499982
 20
14363.733619000001
 30
0.0
 11
19837.620722499982
 21
14448.729198000001
 31
0.0
  0
LINE
  5
38D9
  8
2-0
  6
CONTINUOUS
 62
     3
 10
19837.620722499982
 20
14448.729198000001
 30
0.0
 11
19805.623784499981
 21
14448.729198000001
 31
0.0
  0
LINE
  5
38DA
  8
2-0
  6
CONTINUOUS
 62
     3
 10
19764.623995499969
 20
14475.767443000001
 30
0.0
 11
19757.626397499989
 21
14475.767443000001
 31
0.0
  0
LINE
  5
38DB
  8
2-0
  6
CONTINUOUS
 62
     3
 10
19757.626397499989
 20
14475.767443000001
 30
0.0
 11
19757.626397499989
 21
14470.77014799998
 31
0.0
  0
LINE
  5
38DC
  8
2-0
  6
CONTINUOUS
 62
     3
 10
19757.626397499989
 20
14470.77014799998
 30
0.0
 11
19782.6197995
 21
14470.77014799998
 31
0.0
  0
LINE
  5
38DD
  8
2-0
  6
CONTINUOUS
 62
     3
 10
19782.6197995
 20
14470.77014799998
 30
0.0
 11
19782.6197995
 21
14488.768921000001
 31
0.0
  0
LINE
  5
38DE
  8
2-0
  6
CONTINUOUS
 62
     3
 10
19782.6197995
 20
14488.768921000001
 30
0.0
 11
19752.622174499989
 21
14488.768921000001
 31
0.0
  0
LINE
  5
38DF
  8
2-0
  6
CONTINUOUS
 62
     3
 10
19752.622174499989
 20
15192.831493000011
 30
0.0
 11
19752.622174499989
 21
15836.870351
 31
0.0
  0
LINE
  5
38E0
  8
2-0
  6
CONTINUOUS
 62
     3
 10
19752.622174499989
 20
18811.82605
 30
0.0
 11
19752.622174499989
 21
19455.636767499989
 31
0.0
  0
LINE
  5
38E1
  8
2-0
  6
CONTINUOUS
 62
     3
 10
19843.624602499978
 20
18740.729659999961
 30
0.0
 11
19796.620933499991
 21
18740.729659999961
 31
0.0
  0
LINE
  5
38E2
  8
2-0
  6
CONTINUOUS
 62
     3
 10
19796.620933499991
 20
18825.730188000001
 30
0.0
 11
19843.624602499978
 21
18825.730188000001
 31
0.0
  0
LINE
  5
38E3
  8
2-0
  6
CONTINUOUS
 62
     3
 10
19796.620933499991
 20
18740.729659999961
 30
0.0
 11
19796.620933499991
 21
18765.732959000001
 31
0.0
  0
LINE
  5
38E4
  8
2-0
  6
CONTINUOUS
 62
     3
 10
19796.620933499991
 20
18800.728867999991
 30
0.0
 11
19796.620933499991
 21
18825.730188000001
 31
0.0
  0
LINE
  5
38E5
  8
2-0
  6
CONTINUOUS
 62
     3
 10
19843.624602499978
 20
18825.730188000001
 30
0.0
 11
19843.624602499978
 21
18740.729659999961
 31
0.0
  0
LINE
  5
38E6
  8
2-0
  6
CONTINUOUS
 62
     3
 10
19752.622174499989
 20
16537.630334499991
 30
0.0
 11
19752.622174499989
 21
15894.066561000011
 31
0.0
  0
LINE
  5
38E7
  8
2-0
  6
CONTINUOUS
 62
     3
 10
19843.624602499978
 20
15822.73263
 30
0.0
 11
19796.620933499991
 21
15822.73263
 31
0.0
  0
LINE
  5
38E8
  8
2-0
  6
CONTINUOUS
 62
     3
 10
19796.620933499991
 20
15907.72919799999
 30
0.0
 11
19843.624602499978
 21
15907.72919799999
 31
0.0
  0
LINE
  5
38E9
  8
2-0
  6
CONTINUOUS
 62
     3
 10
19796.620933499991
 20
15822.73263
 30
0.0
 11
19796.620933499991
 21
15847.72801100001
 31
0.0
  0
LINE
  5
38EA
  8
2-0
  6
CONTINUOUS
 62
     3
 10
19796.620933499991
 20
15882.727879
 30
0.0
 11
19796.620933499991
 21
15907.72919799999
 31
0.0
  0
LINE
  5
38EB
  8
2-0
  6
CONTINUOUS
 62
     3
 10
19843.624602499978
 20
15907.72919799999
 30
0.0
 11
19843.624602499978
 21
15822.73263
 31
0.0
  0
LINE
  5
38EC
  8
2-0
  6
CONTINUOUS
 62
     3
 10
24622.116763499991
 20
19819.23302600002
 30
0.0
 11
24622.116763499991
 21
19934.229199000009
 31
0.0
  0
LINE
  5
38ED
  8
2-0
  6
CENTER2
 62
     6
 10
18465.6639025
 20
19891.730914
 30
0.0
 11
25472.11808349999
 21
19891.730914
 31
0.0
  0
LINE
  5
38EE
  8
2-0
  6
CENTER2
 62
     6
 10
18465.6639025
 20
17324.230914
 30
0.0
 11
25472.11808349999
 21
17324.230914
 31
0.0
  0
LINE
  5
38EF
  8
2-0
  6
CENTER2
 62
     6
 10
18465.6639025
 20
14406.230913999991
 30
0.0
 11
25472.11808349999
 21
14406.230913999991
 31
0.0
  0
LINE
  5
38F0
  8
2-0
  6
CONTINUOUS
 62
     3
 10
19752.622174499989
 20
19849.23263000001
 30
0.0
 11
24541.114863499992
 21
19849.23263000001
 31
0.0
  0
LINE
  5
38F1
  8
2-0
  6
CONTINUOUS
 62
     3
 10
19752.622174499989
 20
14488.768921000001
 30
0.0
 11
19752.622174499989
 21
15135.635283000011
 31
0.0
  0
LINE
  5
38F2
  8
2-0
  6
CENTER2
 62
     6
 10
19795.11847949999
 20
21134.229199000009
 30
0.0
 11
19795.11847949999
 21
13780.467479999999
 31
0.0
  0
LINE
  5
38F3
  8
2-0
  6
CENTER2
 62
     6
 10
24579.618479500001
 20
21134.229199000009
 30
0.0
 11
24579.618479500001
 21
13780.467479999999
 31
0.0
  0
LINE
  5
38F4
  8
2-0
  6
CONTINUOUS
 62
     3
 10
24622.116763499991
 20
19808.935570000001
 30
0.0
 11
24622.116763499991
 21
19512.827039499982
 31
0.0
  0
LINE
  5
38F5
  8
2-0
  6
CONTINUOUS
 62
     3
 10
19752.622174499989
 20
19808.935570000001
 30
0.0
 11
19752.622174499989
 21
19512.827039499982
 31
0.0
  0
LINE
  5
38F6
  8
2-0
  6
CENTER2
 62
     6
 10
22713.118479499979
 20
21134.229199000009
 30
0.0
 11
22713.118479499979
 21
14214.82631299999
 31
0.0
  0
LINE
  5
38F7
  8
2-0
  6
CONTINUOUS
 62
     3
 10
19833.620115499991
 20
14448.729198000001
 30
0.0
 11
19833.620115499991
 21
19934.229199000009
 31
0.0
  0
LINE
  5
38F8
  8
2-0
  6
CONTINUOUS
 62
     3
 10
24541.114863499992
 20
14448.729198000001
 30
0.0
 11
24541.114863499992
 21
19934.229199000009
 31
0.0
  0
CIRCLE
  5
38F9
  8
2-0
  6
CONTINUOUS
 62
     4
 10
18265.666212499978
 20
19891.730914
 30
0.0
 40
200.00001
  0
CIRCLE
  5
38FA
  8
2-0
  6
CONTINUOUS
 62
     4
 10
18265.666212499978
 20
17324.230914
 30
0.0
 40
200.00001
  0
CIRCLE
  5
38FB
  8
2-0
  6
CONTINUOUS
 62
     4
 10
18265.666212499978
 20
14406.230913999991
 30
0.0
 40
200.00001
  0
CIRCLE
  5
38FC
  8
2-0
  6
CONTINUOUS
 62
     4
 10
22713.118479499979
 20
21334.233818000012
 30
0.0
 40
200.00001
  0
CIRCLE
  5
38FD
  8
2-0
  6
CONTINUOUS
 62
     4
 10
19795.11847949999
 20
21334.233818000012
 30
0.0
 40
200.00001
  0
TEXT
  5
38FE
  8
2-0
  6
CONTINUOUS
 62
     7
 10
22976.463786499979
 20
13846.232035999999
 30
0.0
 40
160.0
  1
前柱（右）
 50
0.000213
 72
     4
 11
23392.463489092999
 21
13926.23358250079
 31
0.0
  0
TEXT
  5
38FF
  8
2-0
  6
CONTINUOUS
 62
     7
 10
22993.16300549998
 20
18525.354080000001
 30
0.0
 40
160.0
  1
補強柱 後
 50
359.99984199999989
 72
     4
 11
23403.829892774709
 21
18605.352947536991
 31
0.0
  0
TEXT
  5
3900
  8
2-0
  6
CONTINUOUS
 62
     7
 10
23181.058909499989
 20
16774.72405200003
 30
0.0
 40
160.0
  1
壁パネル
 50
359.99982299999999
 72
     4
 11
23543.72582330355
 21
16854.722931637891
 31
0.0
  0
TEXT
  5
3901
  8
2-0
  6
CONTINUOUS
 62
     7
 10
22901.056005499991
 20
17611.911948000012
 30
0.0
 40
160.0
  1
中柱（左右）
 50
0.000354
 72
     4
 11
23418.3888445462
 21
17691.915144324659
 31
0.0
  0
TEXT
  5
3902
  8
2-0
  6
CONTINUOUS
 62
     7
 10
23581.058249499991
 20
14819.273302
 30
0.0
 40
160.0
  1
下枠
 50
0.001063
 72
     4
 11
23751.723431909279
 21
14899.276468339291
 31
0.0
  0
TEXT
  5
3903
  8
2-0
  6
CONTINUOUS
 62
     7
 10
22993.163005499999
 20
15607.594591000019
 30
0.0
 40
160.0
  1
補強柱 前
 50
359.99937
 72
     4
 11
23403.830551787782
 21
15687.59007547934
 31
0.0
  0
TEXT
  5
3904
  8
2-0
  6
CONTINUOUS
 62
     7
 10
23076.0236735
 20
19215.1806865
 30
0.0
 40
160.0
  1
間柱（側）
 72
     4
 11
23497.357006833328
 21
19295.1806865
 31
0.0
  0
TEXT
  5
3905
  8
2-0
  6
CONTINUOUS
 62
     7
 10
25394.613992499999
 20
20744.228406999999
 30
0.0
 40
160.0
  1
後柱（左右）
 50
0.000354
 72
     4
 11
25906.613498212981
 21
20824.231570372842
 31
0.0
  0
TEXT
  5
3906
  8
2-0
  6
CONTINUOUS
 62
     7
 10
18217.666845499982
 20
19797.250472000022
 30
0.0
 40
160.0
  1
C
 72
     4
 11
18271.000178833321
 21
19877.250472000022
 31
0.0
  0
TEXT
  5
3907
  8
2-0
  6
CONTINUOUS
 62
     7
 10
18217.887561499982
 20
17253.836832000019
 30
0.0
 40
160.0
  1
B
 72
     4
 11
18271.22089483331
 21
17333.836832000019
 31
0.0
  0
TEXT
  5
3908
  8
2-0
  6
CONTINUOUS
 62
     7
 10
18217.930121500001
 20
14317.62370299999
 30
0.0
 40
160.0
  1
A
 72
     4
 11
18271.26345483333
 21
14397.62370299999
 31
0.0
  0
TEXT
  5
3909
  8
2-0
  6
CONTINUOUS
 62
     7
 10
22661.486696499989
 20
21238.708189000012
 30
0.0
 40
160.0
  1
2
 72
     4
 11
22714.820029833321
 21
21318.708189000012
 31
0.0
  0
TEXT
  5
390A
  8
2-0
  6
CONTINUOUS
 62
     7
 10
19750.911870499978
 20
21245.466266000029
 30
0.0
 40
160.0
  1
1
 72
     4
 11
19777.57853716665
 21
21325.466266000029
 31
0.0
  0
LINE
  5
390B
  8
2-0
  6
CONTINUOUS
 62
     3
 10
23840.11906049999
 20
19934.229199000009
 30
0.0
 11
23803.11789849999
 21
19934.229199000009
 31
0.0
  0
LINE
  5
390C
  8
2-0
  6
CONTINUOUS
 62
     3
 10
23840.11906049999
 20
19904.22563600001
 30
0.0
 11
23840.11906049999
 21
19934.229199000009
 31
0.0
  0
LINE
  5
390D
  8
2-0
  6
CONTINUOUS
 62
     3
 10
23834.119139499981
 20
19904.22563600001
 30
0.0
 11
23840.11906049999
 21
19904.22563600001
 31
0.0
  0
LINE
  5
390E
  8
2-0
  6
CONTINUOUS
 62
     3
 10
23850.216584499991
 20
19904.22563600001
 30
0.0
 11
23850.216584499991
 21
19934.229199000009
 31
0.0
  0
LINE
  5
390F
  8
2-0
  6
CONTINUOUS
 62
     3
 10
23832.21286349999
 20
19904.22563600001
 30
0.0
 11
23850.216584499991
 21
19904.22563600001
 31
0.0
  0
LINE
  5
3910
  8
2-0
  6
CONTINUOUS
 62
     3
 10
23832.21286349999
 20
19929.234873000001
 30
0.0
 11
23832.21286349999
 21
19904.22563600001
 31
0.0
  0
LINE
  5
3911
  8
2-0
  6
CONTINUOUS
 62
     3
 10
23837.213127499988
 20
19929.234873000001
 30
0.0
 11
23832.21286349999
 21
19929.234873000001
 31
0.0
  0
LINE
  5
3912
  8
2-0
  6
CONTINUOUS
 62
     3
 10
23837.213127499988
 20
19922.229357000011
 30
0.0
 11
23837.213127499988
 21
19929.234873000001
 31
0.0
  0
LINE
  5
3913
  8
2-0
  6
CONTINUOUS
 62
     3
 10
23806.023832499981
 20
19922.229357000011
 30
0.0
 11
23806.023832499981
 21
19929.234873000001
 31
0.0
  0
LINE
  5
3914
  8
2-0
  6
CONTINUOUS
 62
     3
 10
23806.023832499981
 20
19929.234873000001
 30
0.0
 11
23811.02409649999
 21
19929.234873000001
 31
0.0
  0
LINE
  5
3915
  8
2-0
  6
CONTINUOUS
 62
     3
 10
23811.02409649999
 20
19929.234873000001
 30
0.0
 11
23811.02409649999
 21
19904.22563600001
 31
0.0
  0
LINE
  5
3916
  8
2-0
  6
CONTINUOUS
 62
     3
 10
23811.02409649999
 20
19904.22563600001
 30
0.0
 11
23793.02433349999
 21
19904.22563600001
 31
0.0
  0
LINE
  5
3917
  8
2-0
  6
CONTINUOUS
 62
     3
 10
23793.02433349999
 20
19904.22563600001
 30
0.0
 11
23793.02433349999
 21
19934.229199000009
 31
0.0
  0
LINE
  5
3918
  8
2-0
  6
CONTINUOUS
 62
     3
 10
23809.117819499988
 20
19904.22563600001
 30
0.0
 11
23803.11789849999
 21
19904.22563600001
 31
0.0
  0
LINE
  5
3919
  8
2-0
  6
CONTINUOUS
 62
     3
 10
23803.11789849999
 20
19904.22563600001
 30
0.0
 11
23803.11789849999
 21
19934.229199000009
 31
0.0
  0
LINE
  5
391A
  8
2-0
  6
CONTINUOUS
 62
     3
 10
23105.01789399999
 20
19922.229357000011
 30
0.0
 11
23105.01789399999
 21
19929.234873000001
 31
0.0
  0
LINE
  5
391B
  8
2-0
  6
CONTINUOUS
 62
     3
 10
23105.01789399999
 20
19929.234873000001
 30
0.0
 11
23110.018156999991
 21
19929.234873000001
 31
0.0
  0
LINE
  5
391C
  8
2-0
  6
CONTINUOUS
 62
     3
 10
23110.018156999991
 20
19929.234873000001
 30
0.0
 11
23110.018156999991
 21
19904.22563600001
 31
0.0
  0
LINE
  5
391D
  8
2-0
  6
CONTINUOUS
 62
     3
 10
23110.018156999991
 20
19904.22563600001
 30
0.0
 11
23092.02433399998
 21
19904.22563600001
 31
0.0
  0
LINE
  5
391E
  8
2-0
  6
CONTINUOUS
 62
     3
 10
23092.02433399998
 20
19904.22563600001
 30
0.0
 11
23092.02433399998
 21
19934.229199000009
 31
0.0
  0
LINE
  5
391F
  8
2-0
  6
CONTINUOUS
 62
     3
 10
23108.11583999998
 20
19904.22563600001
 30
0.0
 11
23102.117898999979
 21
19904.22563600001
 31
0.0
  0
LINE
  5
3920
  8
2-0
  6
CONTINUOUS
 62
     3
 10
23102.117898999979
 20
19904.22563600001
 30
0.0
 11
23102.117898999979
 21
19934.229199000009
 31
0.0
  0
LINE
  5
3921
  8
2-0
  6
CONTINUOUS
 62
     3
 10
23139.11905999999
 20
19934.229199000009
 30
0.0
 11
23102.117898999979
 21
19934.229199000009
 31
0.0
  0
LINE
  5
3922
  8
2-0
  6
CONTINUOUS
 62
     3
 10
23139.11905999999
 20
19904.22563600001
 30
0.0
 11
23139.11905999999
 21
19934.229199000009
 31
0.0
  0
LINE
  5
3923
  8
2-0
  6
CONTINUOUS
 62
     3
 10
23133.113200999989
 20
19904.22563600001
 30
0.0
 11
23139.11905999999
 21
19904.22563600001
 31
0.0
  0
LINE
  5
3924
  8
2-0
  6
CONTINUOUS
 62
     3
 10
23149.212624999989
 20
19904.22563600001
 30
0.0
 11
23149.212624999989
 21
19934.229199000009
 31
0.0
  0
LINE
  5
3925
  8
2-0
  6
CONTINUOUS
 62
     3
 10
23131.216821999991
 20
19904.22563600001
 30
0.0
 11
23149.212624999989
 21
19904.22563600001
 31
0.0
  0
LINE
  5
3926
  8
2-0
  6
CONTINUOUS
 62
     3
 10
23131.216821999991
 20
19929.234873000001
 30
0.0
 11
23131.216821999991
 21
19904.22563600001
 31
0.0
  0
LINE
  5
3927
  8
2-0
  6
CONTINUOUS
 62
     3
 10
23136.207187999978
 20
19929.234873000001
 30
0.0
 11
23131.216821999991
 21
19929.234873000001
 31
0.0
  0
LINE
  5
3928
  8
2-0
  6
CONTINUOUS
 62
     3
 10
23136.207187999978
 20
19922.229357000011
 30
0.0
 11
23136.207187999978
 21
19929.234873000001
 31
0.0
  0
LINE
  5
3929
  8
2-0
  6
CONTINUOUS
 62
     3
 10
22795.236828500001
 20
19934.22919900003
 30
0.0
 11
23092.02433399998
 21
19934.229199000009
 31
0.0
  0
LINE
  5
392A
  8
2-0
  6
CONTINUOUS
 62
     3
 10
24497.50210949999
 20
19934.229199000009
 30
0.0
 11
23850.216584499991
 21
19934.229199000009
 31
0.0
  0
LINE
  5
392B
  8
2-0
  6
CONTINUOUS
 62
     3
 10
23793.02433349999
 20
19934.229199000009
 30
0.0
 11
23149.212624999989
 21
19934.229199000009
 31
0.0
  0
LINE
  5
392C
  8
2-0
  6
CONTINUOUS
 62
     3
 10
22631.690982500011
 20
19934.229199000009
 30
0.0
 11
21983.716584499991
 21
19934.229199000009
 31
0.0
  0
LINE
  5
392D
  8
2-0
  6
CONTINUOUS
 62
     3
 10
24622.116763499991
 20
15836.870351
 30
0.0
 11
24622.116763499991
 21
15192.831493000011
 31
0.0
  0
LINE
  5
392E
  8
2-0
  6
CONTINUOUS
 62
     3
 10
24622.116763499991
 20
15135.635283
 30
0.0
 11
24622.116763499991
 21
14488.768921000001
 31
0.0
  0
CIRCLE
  5
392F
  8
2-0
  6
CONTINUOUS
 62
     4
 10
24579.618479500001
 20
21334.233818000012
 30
0.0
 40
200.00001
  0
TEXT
  5
3930
  8
2-0
  6
CONTINUOUS
 62
     7
 10
24527.9866965
 20
21238.708189000012
 30
0.0
 40
160.0
  1
3
 72
     4
 11
24581.320029833329
 21
21318.708189000012
 31
0.0
  0
LINE
  5
3931
  8
0-6
  6
CONTINUOUS
 62
     6
 10
21350.733621999989
 20
18934.079416000019
 30
0.0
 11
22375.771892000001
 21
18934.079416000019
 31
0.0
  0
LINE
  5
3932
  8
0-6
  6
CONTINUOUS
 62
     6
 10
20550.717126
 20
19904.22959500003
 30
0.0
 11
20962.359993999999
 21
18516.963178000031
 31
0.0
  0
LINE
  5
3933
  8
0-6
  6
CONTINUOUS
 62
     6
 10
20962.359993999999
 20
18516.963178000031
 30
0.0
 11
21987.400244000011
 21
18516.963178000031
 31
0.0
  0
LINE
  5
3934
  8
0-6
  6
CONTINUOUS
 62
     6
 10
21388.714645
 20
17738.675858000031
 30
0.0
 11
20363.678354
 21
17738.675858000031
 31
0.0
  0
LINE
  5
3935
  8
0-6
  6
CONTINUOUS
 62
     6
 10
19932.15320099999
 20
17980.832345000032
 30
0.0
 11
20363.678354
 21
17738.675858000031
 31
0.0
  0
LINE
  5
3936
  8
0-6
  6
CONTINUOUS
 62
     6
 10
22639.534824999992
 20
19822.972337000021
 30
0.0
 11
22375.771892000001
 21
18934.079416000019
 31
0.0
  0
LINE
  5
3937
  8
0-6
  6
CONTINUOUS
 62
     6
 10
19945.204167
 20
18004.089709000022
 30
0.0
 11
19792.620895
 21
18059.132203000001
 31
0.0
  0
LINE
  5
3938
  8
0-6
  6
CONTINUOUS
 62
     6
 10
19792.620895
 20
18059.132203000001
 30
0.0
 11
19919.104213999999
 21
17957.576961000032
 31
0.0
  0
LINE
  5
3939
  8
0-6
  6
CONTINUOUS
 62
     6
 10
19792.620895
 20
18059.132203000001
 30
0.0
 11
19945.204167
 21
18004.089709000022
 31
0.0
  0
LINE
  5
393A
  8
0-6
  6
CONTINUOUS
 62
     6
 10
19945.204167
 20
18004.089709000022
 30
0.0
 11
19919.104213999999
 21
17957.576961000032
 31
0.0
  0
LINE
  5
393B
  8
0-6
  6
CONTINUOUS
 62
     6
 10
19919.104213999999
 20
17957.576961000032
 30
0.0
 11
19792.620895
 21
18059.132203000001
 31
0.0
  0
LINE
  5
393C
  8
0-6
  6
CONTINUOUS
 62
     6
 10
19919.104213999999
 20
17957.576961000032
 30
0.0
 11
19945.204167
 21
18004.089709000022
 31
0.0
  0
LINE
  5
393D
  8
0-6
  6
CONTINUOUS
 62
     6
 10
20619.687512
 20
19757.414641000021
 30
0.0
 11
20550.717126
 21
19904.22959500003
 31
0.0
  0
LINE
  5
393E
  8
0-6
  6
CONTINUOUS
 62
     6
 10
20550.717126
 20
19904.22959500003
 30
0.0
 11
20568.342758999988
 21
19742.981971000008
 31
0.0
  0
LINE
  5
393F
  8
0-6
  6
CONTINUOUS
 62
     6
 10
20550.717126
 20
19904.22959500003
 30
0.0
 11
20619.687512
 21
19757.414641000021
 31
0.0
  0
LINE
  5
3940
  8
0-6
  6
CONTINUOUS
 62
     6
 10
20619.687512
 20
19757.414641000021
 30
0.0
 11
20568.342758999988
 21
19742.981971000008
 31
0.0
  0
LINE
  5
3941
  8
0-6
  6
CONTINUOUS
 62
     6
 10
20568.342758999988
 20
19742.981971000008
 30
0.0
 11
20550.717126
 21
19904.22959500003
 31
0.0
  0
LINE
  5
3942
  8
0-6
  6
CONTINUOUS
 62
     6
 10
20568.342758999988
 20
19742.981971000008
 30
0.0
 11
20619.687512
 21
19757.414641000021
 31
0.0
  0
LINE
  5
3943
  8
0-6
  6
CONTINUOUS
 62
     6
 10
22570.566417999991
 20
19676.15936200002
 30
0.0
 11
22639.534824999992
 21
19822.972337000021
 31
0.0
  0
LINE
  5
3944
  8
0-6
  6
CONTINUOUS
 62
     6
 10
22639.534824999992
 20
19822.972337000021
 30
0.0
 11
22621.907211999998
 21
19661.724712000021
 31
0.0
  0
LINE
  5
3945
  8
0-6
  6
CONTINUOUS
 62
     6
 10
22639.534824999992
 20
19822.972337000021
 30
0.0
 11
22570.566417999991
 21
19676.15936200002
 31
0.0
  0
LINE
  5
3946
  8
0-6
  6
CONTINUOUS
 62
     6
 10
22570.566417999991
 20
19676.15936200002
 30
0.0
 11
22621.907211999998
 21
19661.724712000021
 31
0.0
  0
LINE
  5
3947
  8
0-6
  6
CONTINUOUS
 62
     6
 10
22621.907211999998
 20
19661.724712000021
 30
0.0
 11
22639.534824999992
 21
19822.972337000021
 31
0.0
  0
LINE
  5
3948
  8
0-6
  6
CONTINUOUS
 62
     6
 10
22621.907211999998
 20
19661.724712000021
 30
0.0
 11
22570.566417999991
 21
19676.15936200002
 31
0.0
  0
TEXT
  5
3949
  8
0-6
  6
CONTINUOUS
 62
     7
 10
21430.733886000002
 20
19014.079680000032
 30
0.0
 40
160.0
  1
後柱（中）
 72
     4
 11
21846.733886000002
 21
19094.079680000032
 31
0.0
  0
TEXT
  5
394A
  8
0-6
  6
CONTINUOUS
 62
     7
 10
20443.678618000009
 20
17818.676122000012
 30
0.0
 40
160.0
  1
間柱（側）
 72
     4
 11
20865.011951333341
 21
17898.676122000012
 31
0.0
  0
TEXT
  5
394B
  8
0-6
  6
CONTINUOUS
 62
     7
 10
21042.360258000012
 20
18596.963442000018
 30
0.0
 40
160.0
  1
間柱（後）
 72
     4
 11
21463.69359133334
 21
18676.963442000018
 31
0.0
  0
LINE
  5
394C
  8
2-0
  6
CONTINUOUS
 62
     6
 10
22670.618215499991
 20
14448.729198000001
 30
0.0
 11
22425.587792474369
 21
14852.11767387305
 31
0.0
  0
LINE
  5
394D
  8
2-0
  6
CONTINUOUS
 62
     6
 10
21395.238473474368
 20
14852.11767387305
 30
0.0
 11
22425.587792474369
 21
14852.11767387305
 31
0.0
  0
LINE
  5
394E
  8
2-0
  6
CONTINUOUS
 62
     6
 10
22610.33989549999
 20
14599.32503299999
 30
0.0
 11
22670.618215499991
 21
14448.729198000001
 31
0.0
  0
LINE
  5
394F
  8
2-0
  6
CONTINUOUS
 62
     6
 10
22670.618215499991
 20
14448.729198000001
 30
0.0
 11
22564.759500500011
 21
14571.63750699999
 31
0.0
  0
LINE
  5
3950
  8
2-0
  6
CONTINUOUS
 62
     6
 10
22610.33989549999
 20
14599.32503299999
 30
0.0
 11
22564.759500500011
 21
14571.63750699999
 31
0.0
  0
LINE
  5
3951
  8
2-0
  6
CONTINUOUS
 62
     6
 10
22564.759500500011
 20
14571.63750699999
 30
0.0
 11
22670.618215499991
 21
14448.729198000001
 31
0.0
  0
LINE
  5
3952
  8
2-0
  6
CONTINUOUS
 62
     6
 10
22670.618215499991
 20
14448.729198000001
 30
0.0
 11
22610.33989549999
 21
14599.32503299999
 31
0.0
  0
LINE
  5
3953
  8
2-0
  6
CONTINUOUS
 62
     6
 10
22610.33989549999
 20
14599.32503299999
 30
0.0
 11
22670.618215499991
 21
14448.729198000001
 31
0.0
  0
LINE
  5
3954
  8
2-0
  6
CONTINUOUS
 62
     6
 10
22564.759500500011
 20
14571.63750699999
 30
0.0
 11
22670.618215499991
 21
14448.729198000001
 31
0.0
  0
LINE
  5
3955
  8
2-0
  6
CONTINUOUS
 62
     6
 10
22564.759500500011
 20
14571.63750699999
 30
0.0
 11
22610.33989549999
 21
14599.32503299999
 31
0.0
  0
TEXT
  5
3956
  8
2-0
  6
CONTINUOUS
 62
     7
 10
21475.236758474359
 20
14932.112989873031
 30
0.0
 40
160.0
  1
前柱（中）
 72
     4
 11
21891.236758474359
 21
15012.112989873031
 31
0.0
  0
LINE
  5
3957
  8
SUNPOU
  6
CONTINUOUS
 10
8220.1607094999908
 20
20114.226823000001
 30
0.0
 11
8220.1607094999908
 21
20911.19409077847
 31
0.0
  0
LINE
  5
3958
  8
SUNPOU
  6
CONTINUOUS
 10
8220.1607094999908
 20
14213.735599000011
 30
0.0
 11
8220.1607094999908
 21
13538.309483189631
 31
0.0
  0
LINE
  5
3959
  8
0-2
  6
CONTINUOUS
 62
     4
 10
24010.05849950001
 20
7263.0054729999974
 30
0.0
 11
23910.059159500011
 21
7263.0054729999974
 31
0.0
  0
LINE
  5
395A
  8
0-2
  6
CONTINUOUS
 62
     4
 10
23282.674498500011
 20
7263.0054729999974
 30
0.0
 11
23382.671859499998
 21
7263.0054729999974
 31
0.0
  0
CIRCLE
  5
395B
  8
0-4
  6
CONTINUOUS
 62
     4
 10
23646.367489000011
 20
7001.8357099999976
 30
0.0
 40
18.487504999999981
  0
LINE
  5
395E
  8
WAKUSEN-01
 10
868.00000000000193
 20
22484.000000000011
 30
0.0
 11
32764.000000000011
 21
22484.000000000011
 31
0.0
  0
LINE
  5
3961
  8
WAKUSEN-01
 10
20560.0
 20
2484.0
 30
0.0
 11
32764.0
 21
2484.0
 31
0.0
  0
LINE
  5
3962
  8
WAKUSEN-02
 10
20560.0
 20
1655.9999999999991
 30
0.0
 11
26868.0
 21
1655.9999999999991
 31
0.0
  0
TEXT
  5
3963
  8
WAKUMOJI-01
 10
20670.260259962761
 20
2125.9030093393221
 30
0.0
 40
240.0
  1
名　称
  7
WAKUMOJI
  0
TEXT
  5
3964
  8
WAKUMOJI-01
 10
20656.505485091919
 20
1319.12897497982
 30
0.0
 40
240.0
  1
機種名
  7
WAKUMOJI
  0
LINE
  5
3967
  8
YODOROGO
 10
29977.604341291921
 20
1995.7494964292871
 30
0.0
 11
29829.604341291921
 21
1995.7494964292871
 31
0.0
1001
AUTOCAD_POSTSCRIPT_FIGURE
1002
{
1000
PSFILL
1000
Grayscale
1000
Grayscale
1070
    25
1002
}
  0
LINE
  5
3968
  8
YODOROGO
 10
29829.604341291921
 20
1947.749496429288
 30
0.0
 11
29977.604341291921
 21
1947.749496429288
 31
0.0
1001
AUTOCAD_POSTSCRIPT_FIGURE
1002
{
1000
PSFILL
1000
Grayscale
1000
Grayscale
1070
    25
1002
}
  0
LINE
  5
3969
  8
YODOROGO
 10
29977.604341291921
 20
1907.7494964292871
 30
0.0
 11
29829.604341291921
 21
1907.7494964292871
 31
0.0
1001
AUTOCAD_POSTSCRIPT_FIGURE
1002
{
1000
PSFILL
1000
Grayscale
1000
Grayscale
1070
    25
1002
}
  0
LINE
  5
396A
  8
YODOROGO
 10
29829.604341291921
 20
1859.749496429288
 30
0.0
 11
29977.604341291921
 21
1859.749496429288
 31
0.0
1001
AUTOCAD_POSTSCRIPT_FIGURE
1002
{
1000
PSFILL
1000
Grayscale
1000
Grayscale
1070
    25
1002
}
  0
LINE
  5
396B
  8
YODOROGO
 10
29977.604341291921
 20
1819.7494964292871
 30
0.0
 11
29829.604341291921
 21
1819.7494964292871
 31
0.0
1001
AUTOCAD_POSTSCRIPT_FIGURE
1002
{
1000
PSFILL
1000
Grayscale
1000
Grayscale
1070
    25
1002
}
  0
LINE
  5
396C
  8
YODOROGO
 10
29921.60434129191
 20
1707.749496429288
 30
0.0
 11
29977.604341291921
 21
1707.749496429288
 31
0.0
1001
AUTOCAD_POSTSCRIPT_FIGURE
1002
{
1000
PSFILL
1000
Grayscale
1000
Grayscale
1070
    25
1002
}
  0
LINE
  5
396D
  8
YODOROGO
 10
29737.604341291921
 20
1427.749496429288
 30
0.0
 11
29937.604341291932
 21
1481.3393349155101
 31
0.0
  0
LINE
  5
396E
  8
YODOROGO
 10
29949.60434129191
 20
1707.749496429288
 30
0.0
 11
29885.604341291921
 21
1707.749496429288
 31
0.0
  0
ARC
  5
396F
  8
YODOROGO
 10
30254.34774982791
 20
1807.864609233261
 30
0.0
 40
381.88686420564721
 50
213.96111677667841
 51
264.47872074317792
  0
ARC
  5
3970
  8
YODOROGO
 10
30254.347749827921
 20
1807.864609233302
 30
0.0
 40
381.8868642056816
 50
208.14114420486601
 51
212.9210361185994
  0
LINE
  5
3971
  8
YODOROGO
 10
29771.409872985321
 20
1556.807661346234
 30
0.0
 11
29933.78413250855
 21
1600.3157130570869
 31
0.0
  0
LINE
  5
3972
  8
YODOROGO
 10
29737.604341291921
 20
1427.749496429288
 30
0.0
 11
29937.604341291932
 21
1481.3393349155101
 31
0.0
  0
LINE
  5
3973
  8
YODOROGO
 10
29949.60434129191
 20
1707.749496429288
 30
0.0
 11
29885.604341291921
 21
1707.749496429288
 31
0.0
  0
ARC
  5
3974
  8
YODOROGO
 10
30254.34774982791
 20
1807.864609233261
 30
0.0
 40
381.88686420564721
 50
213.96111677667841
 51
264.47872074317792
  0
LINE
  5
3975
  8
YODOROGO
 10
28793.60434129191
 20
1819.7494964292871
 30
0.0
 11
28433.60434129191
 21
1819.7494964292871
 31
0.0
  0
LINE
  5
3976
  8
YODOROGO
 10
28513.60434129191
 20
1427.749496429288
 30
0.0
 11
28793.60434129191
 21
1427.749496429288
 31
0.0
  0
LINE
  5
3977
  8
YODOROGO
 10
28729.604341291921
 20
1923.7494964292871
 30
0.0
 11
28497.60434129191
 21
1923.7494964292871
 31
0.0
  0
LINE
  5
3978
  8
YODOROGO
 10
28585.604341291921
 20
2027.749496429288
 30
0.0
 11
28657.604341291921
 21
2027.749496429288
 31
0.0
  0
LINE
  5
3979
  8
YODOROGO
 10
28433.60434129191
 20
1707.749496429288
 30
0.0
 11
28433.60434129191
 21
1507.749496429288
 31
0.0
  0
LINE
  5
397A
  8
YODOROGO
 10
28497.60434129191
 20
1563.7494964292871
 30
0.0
 11
28497.60434129191
 21
1707.749496429288
 31
0.0
  0
LINE
  5
397B
  8
YODOROGO
 10
28585.604341291921
 20
1747.74949642929
 30
0.0
 11
28585.604341291921
 21
1547.749496429288
 31
0.0
  0
LINE
  5
397C
  8
YODOROGO
 10
27857.604341291921
 20
1683.749496429288
 30
0.0
 11
27777.604341291921
 21
1619.9724140445701
 31
0.0
  0
LINE
  5
397D
  8
YODOROGO
 10
27937.604341291921
 20
1619.9724140445701
 30
0.0
 11
27857.604341291921
 21
1683.749496429288
 31
0.0
  0
LINE
  5
397E
  8
YODOROGO
 10
27857.604341291921
 20
1707.749496429288
 30
0.0
 11
27937.604341291921
 21
1643.9724140445701
 31
0.0
  0
LINE
  5
397F
  8
YODOROGO
 10
27777.604341291921
 20
1643.9724140445701
 30
0.0
 11
27857.604341291921
 21
1707.749496429288
 31
0.0
  0
LINE
  5
3980
  8
YODOROGO
 10
28040.913204016892
 20
1659.749496429288
 30
0.0
 11
28040.913204016892
 21
1683.7494964292871
 31
0.0
  0
LINE
  5
3981
  8
YODOROGO
 10
27977.604341291921
 20
1683.7494964292871
 30
0.0
 11
27977.604341291921
 21
1667.749496429285
 31
0.0
  0
LINE
  5
3982
  8
YODOROGO
 10
28098.135520230931
 20
1707.749496429288
 30
0.0
 11
28098.135520230931
 21
1655.5036372746561
 31
0.0
1001
AUTOCAD_POSTSCRIPT_FIGURE
1002
{
1000
PSFILL
1000
Grayscale
1000
Grayscale
1070
   100
1002
}
  0
LINE
  5
3983
  8
YODOROGO
 10
28082.135520230921
 20
1655.5036372746561
 30
0.0
 11
28082.135520230921
 21
1707.749496429288
 31
0.0
1001
AUTOCAD_POSTSCRIPT_FIGURE
1002
{
1000
PSFILL
1000
Grayscale
1000
Grayscale
1070
   100
1002
}
  0
LINE
  5
3984
  8
YODOROGO
 10
27809.604341291921
 20
1608.771904043258
 30
0.0
 11
27809.604341291921
 21
1632.771904043258
 31
0.0
  0
LINE
  5
3985
  8
YODOROGO
 10
27905.604341291921
 20
1608.771904043258
 30
0.0
 11
27809.604341291921
 21
1608.771904043258
 31
0.0
  0
LINE
  5
3986
  8
YODOROGO
 10
27905.604341291921
 20
1632.771904043258
 30
0.0
 11
27905.604341291921
 21
1608.771904043258
 31
0.0
  0
LINE
  5
3987
  8
YODOROGO
 10
27809.604341291921
 20
1632.771904043258
 30
0.0
 11
27905.604341291921
 21
1632.771904043258
 31
0.0
  0
LINE
  5
3988
  8
YODOROGO
 10
27824.509588915738
 20
1568.5028573704751
 30
0.0
 11
27785.604341291921
 21
1475.7494964292871
 31
0.0
1001
AUTOCAD_POSTSCRIPT_FIGURE
1002
{
1000
PSFILL
1000
Grayscale
1000
Grayscale
1070
   100
1002
}
  0
LINE
  5
3989
  8
YODOROGO
 10
27777.604341291921
 20
1568.5028573704751
 30
0.0
 11
27824.509588915738
 21
1568.5028573704751
 31
0.0
1001
AUTOCAD_POSTSCRIPT_FIGURE
1002
{
1000
PSFILL
1000
Grayscale
1000
Grayscale
1070
   100
1002
}
  0
LINE
  5
398A
  8
YODOROGO
 10
27777.604341291921
 20
1588.5028573704751
 30
0.0
 11
27777.604341291921
 21
1568.5028573704751
 31
0.0
1001
AUTOCAD_POSTSCRIPT_FIGURE
1002
{
1000
PSFILL
1000
Grayscale
1000
Grayscale
1070
   100
1002
}
  0
LINE
  5
398B
  8
YODOROGO
 10
27937.604341291921
 20
1588.5028573704751
 30
0.0
 11
27777.604341291921
 21
1588.5028573704751
 31
0.0
1001
AUTOCAD_POSTSCRIPT_FIGURE
1002
{
1000
PSFILL
1000
Grayscale
1000
Grayscale
1070
   100
1002
}
  0
LINE
  5
398C
  8
YODOROGO
 10
27937.604341291921
 20
1568.5028573704751
 30
0.0
 11
27937.604341291921
 21
1588.5028573704751
 31
0.0
1001
AUTOCAD_POSTSCRIPT_FIGURE
1002
{
1000
PSFILL
1000
Grayscale
1000
Grayscale
1070
   100
1002
}
  0
LINE
  5
398D
  8
YODOROGO
 10
27844.509588915738
 20
1568.5028573704751
 30
0.0
 11
27937.604341291921
 21
1568.5028573704751
 31
0.0
1001
AUTOCAD_POSTSCRIPT_FIGURE
1002
{
1000
PSFILL
1000
Grayscale
1000
Grayscale
1070
   100
1002
}
  0
LINE
  5
398E
  8
YODOROGO
 10
27815.546718284771
 20
1495.7494964292871
 30
0.0
 11
27844.509588915738
 21
1568.5028573704751
 31
0.0
1001
AUTOCAD_POSTSCRIPT_FIGURE
1002
{
1000
PSFILL
1000
Grayscale
1000
Grayscale
1070
   100
1002
}
  0
LINE
  5
398F
  8
YODOROGO
 10
27902.054790808648
 20
1495.7494964292871
 30
0.0
 11
27815.546718284771
 21
1495.7494964292871
 31
0.0
1001
AUTOCAD_POSTSCRIPT_FIGURE
1002
{
1000
PSFILL
1000
Grayscale
1000
Grayscale
1070
   100
1002
}
  0
LINE
  5
3990
  8
YODOROGO
 10
27885.065004790951
 20
1536.2338106976929
 30
0.0
 11
27902.054790808648
 21
1495.7494964292871
 31
0.0
1001
AUTOCAD_POSTSCRIPT_FIGURE
1002
{
1000
PSFILL
1000
Grayscale
1000
Grayscale
1070
   100
1002
}
  0
LINE
  5
3991
  8
YODOROGO
 10
27901.065004790951
 20
1536.2338106976929
 30
0.0
 11
27885.065004790951
 21
1536.2338106976929
 31
0.0
1001
AUTOCAD_POSTSCRIPT_FIGURE
1002
{
1000
PSFILL
1000
Grayscale
1000
Grayscale
1070
   100
1002
}
  0
LINE
  5
3992
  8
YODOROGO
 10
27929.604341291921
 20
1475.7494964292871
 30
0.0
 11
27901.065004790951
 21
1536.2338106976929
 31
0.0
1001
AUTOCAD_POSTSCRIPT_FIGURE
1002
{
1000
PSFILL
1000
Grayscale
1000
Grayscale
1070
   100
1002
}
  0
LINE
  5
3993
  8
YODOROGO
 10
27785.604341291921
 20
1475.7494964292871
 30
0.0
 11
27929.604341291921
 21
1475.7494964292871
 31
0.0
1001
AUTOCAD_POSTSCRIPT_FIGURE
1002
{
1000
PSFILL
1000
Grayscale
1000
Grayscale
1070
   100
1002
}
  0
LINE
  5
3994
  8
YODOROGO
 10
27777.604341291921
 20
1619.9724140445701
 30
0.0
 11
27777.604341291921
 21
1643.9724140445701
 31
0.0
  0
LINE
  5
3995
  8
YODOROGO
 10
27937.604341291921
 20
1643.9724140445701
 30
0.0
 11
27937.604341291921
 21
1619.9724140445701
 31
0.0
  0
ARC
  5
3996
  8
YODOROGO
 10
28225.940442146959
 20
1600.877765325326
 30
0.0
 40
175.9999999999998
 50
280.3644312771313
 51
3.5414836592180561
  0
ARC
  5
3997
  8
YODOROGO
 10
28235.756030759301
 20
1633.5978069619041
 30
0.0
 40
111.9999999999982
 50
281.24905825041549
 51
348.75094174958321
  0
LINE
  5
3998
  8
YODOROGO
 10
28257.604341291921
 20
1523.7494964292871
 30
0.0
 11
28257.604341291921
 21
1427.749496429288
 31
0.0
  0
LINE
  5
3999
  8
YODOROGO
 10
28020.088903736909
 20
1610.650565061914
 30
0.0
 11
28040.913204016892
 21
1659.749496429288
 31
0.0
  0
LINE
  5
399A
  8
YODOROGO
 10
28041.604341291921
 20
1583.120489948401
 30
0.0
 11
28020.088903736909
 21
1610.650565061914
 31
0.0
  0
LINE
  5
399B
  8
YODOROGO
 10
28041.604341291921
 20
1563.120489948398
 30
0.0
 11
28041.604341291921
 21
1583.120489948401
 31
0.0
  0
LINE
  5
399C
  8
YODOROGO
 10
28017.604341291921
 20
1585.2370637495301
 30
0.0
 11
28041.604341291921
 21
1563.120489948398
 31
0.0
  0
LINE
  5
399D
  8
YODOROGO
 10
28017.604341291921
 20
1475.7494964292871
 30
0.0
 11
28017.604341291921
 21
1585.2370637495301
 31
0.0
  0
LINE
  5
399E
  8
YODOROGO
 10
28001.604341291921
 20
1475.7494964292871
 30
0.0
 11
28017.604341291921
 21
1475.7494964292871
 31
0.0
  0
LINE
  5
399F
  8
YODOROGO
 10
28001.604341291921
 20
1580.0053496897469
 30
0.0
 11
28001.604341291921
 21
1475.7494964292871
 31
0.0
  0
LINE
  5
39A0
  8
YODOROGO
 10
27977.604341291921
 20
1532.7680790334291
 30
0.0
 11
28001.604341291921
 21
1580.0053496897469
 31
0.0
  0
LINE
  5
39A1
  8
YODOROGO
 10
27977.604341291921
 20
1556.76807903343
 30
0.0
 11
27977.604341291921
 21
1532.7680790334291
 31
0.0
  0
LINE
  5
39A2
  8
YODOROGO
 10
28025.828774291349
 20
1667.749496429285
 30
0.0
 11
27977.604341291921
 21
1556.76807903343
 31
0.0
  0
LINE
  5
39A3
  8
YODOROGO
 10
27977.604341291921
 20
1667.749496429285
 30
0.0
 11
28025.828774291349
 21
1667.749496429285
 31
0.0
  0
LINE
  5
39A4
  8
YODOROGO
 10
28050.135520230899
 20
1655.5036372746561
 30
0.0
 11
28082.135520230921
 21
1655.5036372746561
 31
0.0
1001
AUTOCAD_POSTSCRIPT_FIGURE
1002
{
1000
PSFILL
1000
Grayscale
1000
Grayscale
1070
   100
1002
}
  0
LINE
  5
39A5
  8
YODOROGO
 10
28050.135520230899
 20
1631.5036372746561
 30
0.0
 11
28050.135520230899
 21
1655.5036372746561
 31
0.0
1001
AUTOCAD_POSTSCRIPT_FIGURE
1002
{
1000
PSFILL
1000
Grayscale
1000
Grayscale
1070
   100
1002
}
  0
LINE
  5
39A6
  8
YODOROGO
 10
28082.135520230921
 20
1631.5036372746561
 30
0.0
 11
28050.135520230899
 21
1631.5036372746561
 31
0.0
1001
AUTOCAD_POSTSCRIPT_FIGURE
1002
{
1000
PSFILL
1000
Grayscale
1000
Grayscale
1070
   100
1002
}
  0
LINE
  5
39A7
  8
YODOROGO
 10
28082.135520230921
 20
1499.749496429288
 30
0.0
 11
28082.135520230921
 21
1631.5036372746561
 31
0.0
1001
AUTOCAD_POSTSCRIPT_FIGURE
1002
{
1000
PSFILL
1000
Grayscale
1000
Grayscale
1070
   100
1002
}
  0
LINE
  5
39A8
  8
YODOROGO
 10
28050.135520230921
 20
1499.749496429288
 30
0.0
 11
28082.135520230921
 21
1499.749496429288
 31
0.0
1001
AUTOCAD_POSTSCRIPT_FIGURE
1002
{
1000
PSFILL
1000
Grayscale
1000
Grayscale
1070
   100
1002
}
  0
LINE
  5
39A9
  8
YODOROGO
 10
28050.135520230921
 20
1475.7494964292871
 30
0.0
 11
28050.135520230921
 21
1499.749496429288
 31
0.0
1001
AUTOCAD_POSTSCRIPT_FIGURE
1002
{
1000
PSFILL
1000
Grayscale
1000
Grayscale
1070
   100
1002
}
  0
LINE
  5
39AA
  8
YODOROGO
 10
28137.604341291921
 20
1475.7494964292871
 30
0.0
 11
28050.135520230921
 21
1475.7494964292871
 31
0.0
1001
AUTOCAD_POSTSCRIPT_FIGURE
1002
{
1000
PSFILL
1000
Grayscale
1000
Grayscale
1070
   100
1002
}
  0
LINE
  5
39AB
  8
YODOROGO
 10
28137.604341291921
 20
1499.749496429288
 30
0.0
 11
28137.604341291921
 21
1475.7494964292871
 31
0.0
1001
AUTOCAD_POSTSCRIPT_FIGURE
1002
{
1000
PSFILL
1000
Grayscale
1000
Grayscale
1070
   100
1002
}
  0
LINE
  5
39AC
  8
YODOROGO
 10
28098.135520230931
 20
1499.749496429288
 30
0.0
 11
28137.604341291921
 21
1499.749496429288
 31
0.0
1001
AUTOCAD_POSTSCRIPT_FIGURE
1002
{
1000
PSFILL
1000
Grayscale
1000
Grayscale
1070
   100
1002
}
  0
LINE
  5
39AD
  8
YODOROGO
 10
28098.135520230931
 20
1631.5036372746561
 30
0.0
 11
28098.135520230931
 21
1499.749496429288
 31
0.0
1001
AUTOCAD_POSTSCRIPT_FIGURE
1002
{
1000
PSFILL
1000
Grayscale
1000
Grayscale
1070
   100
1002
}
  0
LINE
  5
39AE
  8
YODOROGO
 10
28137.604341291921
 20
1631.5036372746561
 30
0.0
 11
28098.135520230931
 21
1631.5036372746561
 31
0.0
1001
AUTOCAD_POSTSCRIPT_FIGURE
1002
{
1000
PSFILL
1000
Grayscale
1000
Grayscale
1070
   100
1002
}
  0
LINE
  5
39AF
  8
YODOROGO
 10
28137.604341291921
 20
1655.5036372746561
 30
0.0
 11
28137.604341291921
 21
1631.5036372746561
 31
0.0
1001
AUTOCAD_POSTSCRIPT_FIGURE
1002
{
1000
PSFILL
1000
Grayscale
1000
Grayscale
1070
   100
1002
}
  0
LINE
  5
39B0
  8
YODOROGO
 10
28098.135520230931
 20
1655.5036372746561
 30
0.0
 11
28137.604341291921
 21
1655.5036372746561
 31
0.0
1001
AUTOCAD_POSTSCRIPT_FIGURE
1002
{
1000
PSFILL
1000
Grayscale
1000
Grayscale
1070
   100
1002
}
  0
LINE
  5
39B1
  8
YODOROGO
 10
28401.60434129191
 20
1667.749496429288
 30
0.0
 11
28345.604341291921
 21
1667.749496429288
 31
0.0
  0
LINE
  5
39B2
  8
YODOROGO
 10
28401.60434129191
 20
1611.749496429288
 30
0.0
 11
28401.60434129191
 21
1667.749496429288
 31
0.0
  0
LINE
  5
39B3
  8
YODOROGO
 10
28345.604341291921
 20
1667.749496429288
 30
0.0
 11
28345.604341291921
 21
1611.749496429288
 31
0.0
  0
ARC
  5
39B4
  8
YODOROGO
 10
28513.60434129191
 20
1507.749496429288
 30
0.0
 40
80.0
 50
180.0
 51
270.0
  0
ARC
  5
39B5
  8
YODOROGO
 10
28537.604341291921
 20
1563.7494964292871
 30
0.0
 40
40.0
 50
180.0
 51
270.0
  0
LINE
  5
39B6
  8
YODOROGO
 10
28561.604341291932
 20
1523.7494964292871
 30
0.0
 11
28537.604341291921
 21
1523.7494964292871
 31
0.0
  0
ARC
  5
39B7
  8
YODOROGO
 10
28561.604341291932
 20
1547.749496429285
 30
0.0
 40
23.999999999996358
 50
270.0
 51
0.0000000000054281
  0
LINE
  5
39B8
  8
YODOROGO
 10
27801.604341291921
 20
1890.786580793706
 30
0.0
 11
27777.604341291921
 21
1843.776747951672
 31
0.0
1001
AUTOCAD_POSTSCRIPT_FIGURE
1002
{
1000
PSFILL
1000
Grayscale
1000
Grayscale
1070
   100
1002
}
  0
LINE
  5
39B9
  8
YODOROGO
 10
27801.604341291921
 20
1747.749496429286
 30
0.0
 11
27801.604341291921
 21
1890.786580793706
 31
0.0
1001
AUTOCAD_POSTSCRIPT_FIGURE
1002
{
1000
PSFILL
1000
Grayscale
1000
Grayscale
1070
   100
1002
}
  0
LINE
  5
39BA
  8
YODOROGO
 10
27817.604341291921
 20
1747.749496429286
 30
0.0
 11
27801.604341291921
 21
1747.749496429286
 31
0.0
1001
AUTOCAD_POSTSCRIPT_FIGURE
1002
{
1000
PSFILL
1000
Grayscale
1000
Grayscale
1070
   100
1002
}
  0
LINE
  5
39BB
  8
YODOROGO
 10
27817.604341291921
 20
1893.7713320852661
 30
0.0
 11
27817.604341291921
 21
1747.749496429286
 31
0.0
1001
AUTOCAD_POSTSCRIPT_FIGURE
1002
{
1000
PSFILL
1000
Grayscale
1000
Grayscale
1070
   100
1002
}
  0
LINE
  5
39BC
  8
YODOROGO
 10
27841.604341291921
 20
1867.6547582841361
 30
0.0
 11
27817.604341291921
 21
1893.7713320852661
 31
0.0
1001
AUTOCAD_POSTSCRIPT_FIGURE
1002
{
1000
PSFILL
1000
Grayscale
1000
Grayscale
1070
   100
1002
}
  0
LINE
  5
39BD
  8
YODOROGO
 10
27841.604341291921
 20
1883.6547582841361
 30
0.0
 11
27841.604341291921
 21
1867.6547582841361
 31
0.0
1001
AUTOCAD_POSTSCRIPT_FIGURE
1002
{
1000
PSFILL
1000
Grayscale
1000
Grayscale
1070
   100
1002
}
  0
LINE
  5
39BE
  8
YODOROGO
 10
27817.604341291921
 20
1917.7713320852649
 30
0.0
 11
27841.604341291921
 21
1883.6547582841361
 31
0.0
1001
AUTOCAD_POSTSCRIPT_FIGURE
1002
{
1000
PSFILL
1000
Grayscale
1000
Grayscale
1070
   100
1002
}
  0
LINE
  5
39BF
  8
YODOROGO
 10
27817.604341291921
 20
1939.749496429288
 30
0.0
 11
27817.604341291921
 21
1917.7713320852649
 31
0.0
1001
AUTOCAD_POSTSCRIPT_FIGURE
1002
{
1000
PSFILL
1000
Grayscale
1000
Grayscale
1070
   100
1002
}
  0
LINE
  5
39C0
  8
YODOROGO
 10
27889.604341291921
 20
1939.749496429288
 30
0.0
 11
27817.604341291921
 21
1939.749496429288
 31
0.0
1001
AUTOCAD_POSTSCRIPT_FIGURE
1002
{
1000
PSFILL
1000
Grayscale
1000
Grayscale
1070
   100
1002
}
  0
LINE
  5
39C1
  8
YODOROGO
 10
27889.604341291921
 20
1900.5683489363
 30
0.0
 11
27889.604341291921
 21
1939.749496429288
 31
0.0
1001
AUTOCAD_POSTSCRIPT_FIGURE
1002
{
1000
PSFILL
1000
Grayscale
1000
Grayscale
1070
   100
1002
}
  0
LINE
  5
39C2
  8
YODOROGO
 10
27857.604341291921
 20
1900.5683489363
 30
0.0
 11
27889.604341291921
 21
1900.5683489363
 31
0.0
1001
AUTOCAD_POSTSCRIPT_FIGURE
1002
{
1000
PSFILL
1000
Grayscale
1000
Grayscale
1070
   100
1002
}
  0
LINE
  5
39C3
  8
YODOROGO
 10
27857.604341291921
 20
1884.568348936298
 30
0.0
 11
27857.604341291921
 21
1900.5683489363
 31
0.0
1001
AUTOCAD_POSTSCRIPT_FIGURE
1002
{
1000
PSFILL
1000
Grayscale
1000
Grayscale
1070
   100
1002
}
  0
LINE
  5
39C4
  8
YODOROGO
 10
27889.604341291921
 20
1884.568348936298
 30
0.0
 11
27857.604341291921
 21
1884.568348936298
 31
0.0
1001
AUTOCAD_POSTSCRIPT_FIGURE
1002
{
1000
PSFILL
1000
Grayscale
1000
Grayscale
1070
   100
1002
}
  0
LINE
  5
39C5
  8
YODOROGO
 10
27889.604341291921
 20
1879.6191779644371
 30
0.0
 11
27889.604341291921
 21
1884.568348936298
 31
0.0
1001
AUTOCAD_POSTSCRIPT_FIGURE
1002
{
1000
PSFILL
1000
Grayscale
1000
Grayscale
1070
   100
1002
}
  0
LINE
  5
39C6
  8
YODOROGO
 10
27849.604341291921
 20
1812.974981161417
 30
0.0
 11
27889.604341291921
 21
1879.6191779644371
 31
0.0
1001
AUTOCAD_POSTSCRIPT_FIGURE
1002
{
1000
PSFILL
1000
Grayscale
1000
Grayscale
1070
   100
1002
}
  0
LINE
  5
39C7
  8
YODOROGO
 10
27849.604341291921
 20
1796.9749811614161
 30
0.0
 11
27849.604341291921
 21
1812.974981161417
 31
0.0
1001
AUTOCAD_POSTSCRIPT_FIGURE
1002
{
1000
PSFILL
1000
Grayscale
1000
Grayscale
1070
   100
1002
}
  0
LINE
  5
39C8
  8
YODOROGO
 10
27889.604341291921
 20
1847.6191779644359
 30
0.0
 11
27849.604341291921
 21
1796.9749811614161
 31
0.0
1001
AUTOCAD_POSTSCRIPT_FIGURE
1002
{
1000
PSFILL
1000
Grayscale
1000
Grayscale
1070
   100
1002
}
  0
LINE
  5
39C9
  8
YODOROGO
 10
27889.604341291921
 20
1747.749496429286
 30
0.0
 11
27889.604341291921
 21
1847.6191779644359
 31
0.0
1001
AUTOCAD_POSTSCRIPT_FIGURE
1002
{
1000
PSFILL
1000
Grayscale
1000
Grayscale
1070
   100
1002
}
  0
LINE
  5
39CA
  8
YODOROGO
 10
27905.604341291921
 20
1747.749496429286
 30
0.0
 11
27889.604341291921
 21
1747.749496429286
 31
0.0
1001
AUTOCAD_POSTSCRIPT_FIGURE
1002
{
1000
PSFILL
1000
Grayscale
1000
Grayscale
1070
   100
1002
}
  0
LINE
  5
39CB
  8
YODOROGO
 10
27905.604341291921
 20
1849.409012158806
 30
0.0
 11
27905.604341291921
 21
1747.749496429286
 31
0.0
1001
AUTOCAD_POSTSCRIPT_FIGURE
1002
{
1000
PSFILL
1000
Grayscale
1000
Grayscale
1070
   100
1002
}
  0
LINE
  5
39CC
  8
YODOROGO
 10
27937.604341291921
 20
1796.9749811614161
 30
0.0
 11
27905.604341291921
 21
1849.409012158806
 31
0.0
1001
AUTOCAD_POSTSCRIPT_FIGURE
1002
{
1000
PSFILL
1000
Grayscale
1000
Grayscale
1070
   100
1002
}
  0
LINE
  5
39CD
  8
YODOROGO
 10
27937.604341291921
 20
1812.974981161417
 30
0.0
 11
27937.604341291921
 21
1796.9749811614161
 31
0.0
1001
AUTOCAD_POSTSCRIPT_FIGURE
1002
{
1000
PSFILL
1000
Grayscale
1000
Grayscale
1070
   100
1002
}
  0
LINE
  5
39CE
  8
YODOROGO
 10
27905.604341291921
 20
1881.4090121588081
 30
0.0
 11
27937.604341291921
 21
1812.974981161417
 31
0.0
1001
AUTOCAD_POSTSCRIPT_FIGURE
1002
{
1000
PSFILL
1000
Grayscale
1000
Grayscale
1070
   100
1002
}
  0
LINE
  5
39CF
  8
YODOROGO
 10
27905.604341291921
 20
1884.5683489363
 30
0.0
 11
27905.604341291921
 21
1881.4090121588081
 31
0.0
1001
AUTOCAD_POSTSCRIPT_FIGURE
1002
{
1000
PSFILL
1000
Grayscale
1000
Grayscale
1070
   100
1002
}
  0
LINE
  5
39D0
  8
YODOROGO
 10
27937.604341291921
 20
1884.568348936298
 30
0.0
 11
27905.604341291921
 21
1884.5683489363
 31
0.0
1001
AUTOCAD_POSTSCRIPT_FIGURE
1002
{
1000
PSFILL
1000
Grayscale
1000
Grayscale
1070
   100
1002
}
  0
LINE
  5
39D1
  8
YODOROGO
 10
27937.604341291921
 20
1900.5683489363
 30
0.0
 11
27937.604341291921
 21
1884.568348936298
 31
0.0
1001
AUTOCAD_POSTSCRIPT_FIGURE
1002
{
1000
PSFILL
1000
Grayscale
1000
Grayscale
1070
   100
1002
}
  0
LINE
  5
39D2
  8
YODOROGO
 10
27905.604341291921
 20
1900.5683489363
 30
0.0
 11
27937.604341291921
 21
1900.5683489363
 31
0.0
1001
AUTOCAD_POSTSCRIPT_FIGURE
1002
{
1000
PSFILL
1000
Grayscale
1000
Grayscale
1070
   100
1002
}
  0
LINE
  5
39D3
  8
YODOROGO
 10
27905.604341291921
 20
1939.749496429288
 30
0.0
 11
27905.604341291921
 21
1900.5683489363
 31
0.0
1001
AUTOCAD_POSTSCRIPT_FIGURE
1002
{
1000
PSFILL
1000
Grayscale
1000
Grayscale
1070
   100
1002
}
  0
LINE
  5
39D4
  8
YODOROGO
 10
27937.604341291921
 20
1939.749496429288
 30
0.0
 11
27905.604341291921
 21
1939.749496429288
 31
0.0
1001
AUTOCAD_POSTSCRIPT_FIGURE
1002
{
1000
PSFILL
1000
Grayscale
1000
Grayscale
1070
   100
1002
}
  0
LINE
  5
39D5
  8
YODOROGO
 10
27937.604341291921
 20
1955.7494964292871
 30
0.0
 11
27937.604341291921
 21
1939.749496429288
 31
0.0
1001
AUTOCAD_POSTSCRIPT_FIGURE
1002
{
1000
PSFILL
1000
Grayscale
1000
Grayscale
1070
   100
1002
}
  0
LINE
  5
39D6
  8
YODOROGO
 10
27905.604341291921
 20
1955.7494964292871
 30
0.0
 11
27937.604341291921
 21
1955.7494964292871
 31
0.0
1001
AUTOCAD_POSTSCRIPT_FIGURE
1002
{
1000
PSFILL
1000
Grayscale
1000
Grayscale
1070
   100
1002
}
  0
LINE
  5
39D7
  8
YODOROGO
 10
27905.604341291921
 20
1979.749496429288
 30
0.0
 11
27905.604341291921
 21
1955.7494964292871
 31
0.0
1001
AUTOCAD_POSTSCRIPT_FIGURE
1002
{
1000
PSFILL
1000
Grayscale
1000
Grayscale
1070
   100
1002
}
  0
LINE
  5
39D8
  8
YODOROGO
 10
27889.604341291921
 20
1979.749496429288
 30
0.0
 11
27905.604341291921
 21
1979.749496429288
 31
0.0
1001
AUTOCAD_POSTSCRIPT_FIGURE
1002
{
1000
PSFILL
1000
Grayscale
1000
Grayscale
1070
   100
1002
}
  0
LINE
  5
39D9
  8
YODOROGO
 10
27889.604341291921
 20
1955.7494964292871
 30
0.0
 11
27889.604341291921
 21
1979.749496429288
 31
0.0
1001
AUTOCAD_POSTSCRIPT_FIGURE
1002
{
1000
PSFILL
1000
Grayscale
1000
Grayscale
1070
   100
1002
}
  0
LINE
  5
39DA
  8
YODOROGO
 10
27865.604341291921
 20
1955.7494964292871
 30
0.0
 11
27889.604341291921
 21
1955.7494964292871
 31
0.0
1001
AUTOCAD_POSTSCRIPT_FIGURE
1002
{
1000
PSFILL
1000
Grayscale
1000
Grayscale
1070
   100
1002
}
  0
LINE
  5
39DB
  8
YODOROGO
 10
27865.604341291921
 20
1979.749496429288
 30
0.0
 11
27865.604341291921
 21
1955.7494964292871
 31
0.0
1001
AUTOCAD_POSTSCRIPT_FIGURE
1002
{
1000
PSFILL
1000
Grayscale
1000
Grayscale
1070
   100
1002
}
  0
LINE
  5
39DC
  8
YODOROGO
 10
27849.604341291921
 20
1979.749496429288
 30
0.0
 11
27865.604341291921
 21
1979.749496429288
 31
0.0
1001
AUTOCAD_POSTSCRIPT_FIGURE
1002
{
1000
PSFILL
1000
Grayscale
1000
Grayscale
1070
   100
1002
}
  0
LINE
  5
39DD
  8
YODOROGO
 10
27849.604341291921
 20
1955.7494964292871
 30
0.0
 11
27849.604341291921
 21
1979.749496429288
 31
0.0
1001
AUTOCAD_POSTSCRIPT_FIGURE
1002
{
1000
PSFILL
1000
Grayscale
1000
Grayscale
1070
   100
1002
}
  0
LINE
  5
39DE
  8
YODOROGO
 10
27817.604341291921
 20
1955.7494964292871
 30
0.0
 11
27849.604341291921
 21
1955.7494964292871
 31
0.0
1001
AUTOCAD_POSTSCRIPT_FIGURE
1002
{
1000
PSFILL
1000
Grayscale
1000
Grayscale
1070
   100
1002
}
  0
LINE
  5
39DF
  8
YODOROGO
 10
27817.604341291921
 20
1979.749496429288
 30
0.0
 11
27817.604341291921
 21
1955.7494964292871
 31
0.0
1001
AUTOCAD_POSTSCRIPT_FIGURE
1002
{
1000
PSFILL
1000
Grayscale
1000
Grayscale
1070
   100
1002
}
  0
LINE
  5
39E0
  8
YODOROGO
 10
27801.604341291921
 20
1979.749496429288
 30
0.0
 11
27817.604341291921
 21
1979.749496429288
 31
0.0
1001
AUTOCAD_POSTSCRIPT_FIGURE
1002
{
1000
PSFILL
1000
Grayscale
1000
Grayscale
1070
   100
1002
}
  0
LINE
  5
39E1
  8
YODOROGO
 10
27801.604341291921
 20
1955.7494964292871
 30
0.0
 11
27801.604341291921
 21
1979.749496429288
 31
0.0
1001
AUTOCAD_POSTSCRIPT_FIGURE
1002
{
1000
PSFILL
1000
Grayscale
1000
Grayscale
1070
   100
1002
}
  0
LINE
  5
39E2
  8
YODOROGO
 10
27777.604341291921
 20
1955.7494964292871
 30
0.0
 11
27801.604341291921
 21
1955.7494964292871
 31
0.0
1001
AUTOCAD_POSTSCRIPT_FIGURE
1002
{
1000
PSFILL
1000
Grayscale
1000
Grayscale
1070
   100
1002
}
  0
LINE
  5
39E3
  8
YODOROGO
 10
27777.604341291921
 20
1939.749496429288
 30
0.0
 11
27777.604341291921
 21
1955.7494964292871
 31
0.0
1001
AUTOCAD_POSTSCRIPT_FIGURE
1002
{
1000
PSFILL
1000
Grayscale
1000
Grayscale
1070
   100
1002
}
  0
LINE
  5
39E4
  8
YODOROGO
 10
27801.604341291921
 20
1939.749496429288
 30
0.0
 11
27777.604341291921
 21
1939.749496429288
 31
0.0
1001
AUTOCAD_POSTSCRIPT_FIGURE
1002
{
1000
PSFILL
1000
Grayscale
1000
Grayscale
1070
   100
1002
}
  0
LINE
  5
39E5
  8
YODOROGO
 10
27801.604341291921
 20
1914.7865807937051
 30
0.0
 11
27801.604341291921
 21
1939.749496429288
 31
0.0
1001
AUTOCAD_POSTSCRIPT_FIGURE
1002
{
1000
PSFILL
1000
Grayscale
1000
Grayscale
1070
   100
1002
}
  0
LINE
  5
39E6
  8
YODOROGO
 10
27777.604341291921
 20
1859.776747951671
 30
0.0
 11
27801.604341291921
 21
1914.7865807937051
 31
0.0
1001
AUTOCAD_POSTSCRIPT_FIGURE
1002
{
1000
PSFILL
1000
Grayscale
1000
Grayscale
1070
   100
1002
}
  0
LINE
  5
39E7
  8
YODOROGO
 10
27777.604341291921
 20
1843.776747951672
 30
0.0
 11
27777.604341291921
 21
1859.776747951671
 31
0.0
1001
AUTOCAD_POSTSCRIPT_FIGURE
1002
{
1000
PSFILL
1000
Grayscale
1000
Grayscale
1070
   100
1002
}
  0
LINE
  5
39E8
  8
YODOROGO
 10
28257.604341291921
 20
1867.7494964292871
 30
0.0
 11
28401.60434129191
 21
1824.877625640306
 31
0.0
1001
AUTOCAD_POSTSCRIPT_FIGURE
1002
{
1000
PSFILL
1000
Grayscale
1000
Grayscale
1070
   100
1002
}
  0
LINE
  5
39E9
  8
YODOROGO
 10
28401.60434129191
 20
1752.877625640306
 30
0.0
 11
28257.604341291921
 21
1795.7494964292871
 31
0.0
1001
AUTOCAD_POSTSCRIPT_FIGURE
1002
{
1000
PSFILL
1000
Grayscale
1000
Grayscale
1070
   100
1002
}
  0
LINE
  5
39EA
  8
YODOROGO
 10
28401.60434129191
 20
1984.877625640306
 30
0.0
 11
28257.604341291921
 21
2027.749496429288
 31
0.0
1001
AUTOCAD_POSTSCRIPT_FIGURE
1002
{
1000
PSFILL
1000
Grayscale
1000
Grayscale
1070
   100
1002
}
  0
LINE
  5
39EB
  8
YODOROGO
 10
28257.604341291921
 20
1959.749496429288
 30
0.0
 11
28401.60434129191
 21
1916.8776256403071
 31
0.0
1001
AUTOCAD_POSTSCRIPT_FIGURE
1002
{
1000
PSFILL
1000
Grayscale
1000
Grayscale
1070
   100
1002
}
  0
LINE
  5
39EC
  8
YODOROGO
 10
28257.604341291921
 20
1795.7494964292871
 30
0.0
 11
28257.604341291921
 21
1867.7494964292871
 31
0.0
1001
AUTOCAD_POSTSCRIPT_FIGURE
1002
{
1000
PSFILL
1000
Grayscale
1000
Grayscale
1070
   100
1002
}
  0
LINE
  5
39ED
  8
YODOROGO
 10
28257.604341291921
 20
2027.749496429288
 30
0.0
 11
28257.604341291921
 21
1959.749496429288
 31
0.0
1001
AUTOCAD_POSTSCRIPT_FIGURE
1002
{
1000
PSFILL
1000
Grayscale
1000
Grayscale
1070
   100
1002
}
  0
LINE
  5
39EE
  8
YODOROGO
 10
28080.236320206739
 20
1939.749496429288
 30
0.0
 11
28129.60434129191
 21
1747.749496429286
 31
0.0
1001
AUTOCAD_POSTSCRIPT_FIGURE
1002
{
1000
PSFILL
1000
Grayscale
1000
Grayscale
1070
   100
1002
}
  0
LINE
  5
39EF
  8
YODOROGO
 10
27977.604341291921
 20
1939.749496429288
 30
0.0
 11
28080.236320206739
 21
1939.749496429288
 31
0.0
1001
AUTOCAD_POSTSCRIPT_FIGURE
1002
{
1000
PSFILL
1000
Grayscale
1000
Grayscale
1070
   100
1002
}
  0
LINE
  5
39F0
  8
YODOROGO
 10
27977.604341291921
 20
1955.7494964292871
 30
0.0
 11
27977.604341291921
 21
1939.749496429288
 31
0.0
1001
AUTOCAD_POSTSCRIPT_FIGURE
1002
{
1000
PSFILL
1000
Grayscale
1000
Grayscale
1070
   100
1002
}
  0
LINE
  5
39F1
  8
YODOROGO
 10
28076.60687851991
 20
1955.7494964292871
 30
0.0
 11
27977.604341291921
 21
1955.7494964292871
 31
0.0
1001
AUTOCAD_POSTSCRIPT_FIGURE
1002
{
1000
PSFILL
1000
Grayscale
1000
Grayscale
1070
   100
1002
}
  0
LINE
  5
39F2
  8
YODOROGO
 10
28071.162715989711
 20
1979.749496429288
 30
0.0
 11
28076.60687851991
 21
1955.7494964292871
 31
0.0
1001
AUTOCAD_POSTSCRIPT_FIGURE
1002
{
1000
PSFILL
1000
Grayscale
1000
Grayscale
1070
   100
1002
}
  0
LINE
  5
39F3
  8
YODOROGO
 10
28091.162715989711
 20
1979.749496429288
 30
0.0
 11
28071.162715989711
 21
1979.749496429288
 31
0.0
1001
AUTOCAD_POSTSCRIPT_FIGURE
1002
{
1000
PSFILL
1000
Grayscale
1000
Grayscale
1070
   100
1002
}
  0
LINE
  5
39F4
  8
YODOROGO
 10
28095.806878519939
 20
1955.7494964292871
 30
0.0
 11
28091.162715989711
 21
1979.749496429288
 31
0.0
1001
AUTOCAD_POSTSCRIPT_FIGURE
1002
{
1000
PSFILL
1000
Grayscale
1000
Grayscale
1070
   100
1002
}
  0
LINE
  5
39F5
  8
YODOROGO
 10
28121.604341291921
 20
1955.7494964292871
 30
0.0
 11
28095.806878519939
 21
1955.7494964292871
 31
0.0
1001
AUTOCAD_POSTSCRIPT_FIGURE
1002
{
1000
PSFILL
1000
Grayscale
1000
Grayscale
1070
   100
1002
}
  0
LINE
  5
39F6
  8
YODOROGO
 10
28121.604341291921
 20
1979.749496429288
 30
0.0
 11
28121.604341291921
 21
1955.7494964292871
 31
0.0
1001
AUTOCAD_POSTSCRIPT_FIGURE
1002
{
1000
PSFILL
1000
Grayscale
1000
Grayscale
1070
   100
1002
}
  0
LINE
  5
39F7
  8
YODOROGO
 10
28137.604341291921
 20
1979.749496429288
 30
0.0
 11
28121.604341291921
 21
1979.749496429288
 31
0.0
1001
AUTOCAD_POSTSCRIPT_FIGURE
1002
{
1000
PSFILL
1000
Grayscale
1000
Grayscale
1070
   100
1002
}
  0
LINE
  5
39F8
  8
YODOROGO
 10
28137.604341291921
 20
1955.7494964292871
 30
0.0
 11
28137.604341291921
 21
1979.749496429288
 31
0.0
1001
AUTOCAD_POSTSCRIPT_FIGURE
1002
{
1000
PSFILL
1000
Grayscale
1000
Grayscale
1070
   100
1002
}
  0
LINE
  5
39F9
  8
YODOROGO
 10
28137.604341291921
 20
1939.749496429288
 30
0.0
 11
28137.604341291921
 21
1955.7494964292871
 31
0.0
1001
AUTOCAD_POSTSCRIPT_FIGURE
1002
{
1000
PSFILL
1000
Grayscale
1000
Grayscale
1070
   100
1002
}
  0
LINE
  5
39FA
  8
YODOROGO
 10
28098.902986873411
 20
1939.749496429288
 30
0.0
 11
28137.604341291921
 21
1939.749496429288
 31
0.0
1001
AUTOCAD_POSTSCRIPT_FIGURE
1002
{
1000
PSFILL
1000
Grayscale
1000
Grayscale
1070
   100
1002
}
  0
LINE
  5
39FB
  8
YODOROGO
 10
28137.604341291921
 20
1747.749496429286
 30
0.0
 11
28098.902986873411
 21
1939.749496429288
 31
0.0
1001
AUTOCAD_POSTSCRIPT_FIGURE
1002
{
1000
PSFILL
1000
Grayscale
1000
Grayscale
1070
   100
1002
}
  0
LINE
  5
39FC
  8
YODOROGO
 10
28129.60434129191
 20
1747.749496429286
 30
0.0
 11
28137.604341291921
 21
1747.749496429286
 31
0.0
1001
AUTOCAD_POSTSCRIPT_FIGURE
1002
{
1000
PSFILL
1000
Grayscale
1000
Grayscale
1070
   100
1002
}
  0
LINE
  5
39FD
  8
YODOROGO
 10
28078.06921993379
 20
1775.7407762987939
 30
0.0
 11
27977.604341291921
 21
1747.749496429286
 31
0.0
  0
LINE
  5
39FE
  8
YODOROGO
 10
28078.06921993379
 20
1798.6689795290731
 30
0.0
 11
28078.06921993379
 21
1775.7407762987939
 31
0.0
  0
LINE
  5
39FF
  8
YODOROGO
 10
28033.83678061287
 20
1786.816933133767
 30
0.0
 11
28078.06921993379
 21
1798.6689795290731
 31
0.0
  0
LINE
  5
3A00
  8
YODOROGO
 10
28033.83678061287
 20
1872.5683489362989
 30
0.0
 11
28033.83678061287
 21
1786.816933133767
 31
0.0
  0
LINE
  5
3A01
  8
YODOROGO
 10
28078.06921993379
 20
1872.5683489362989
 30
0.0
 11
28033.83678061287
 21
1872.5683489362989
 31
0.0
  0
LINE
  5
3A02
  8
YODOROGO
 10
28078.06921993379
 20
1892.568348936298
 30
0.0
 11
28078.06921993379
 21
1872.5683489362989
 31
0.0
  0
LINE
  5
3A03
  8
YODOROGO
 10
27977.604341291921
 20
1892.568348936298
 30
0.0
 11
28078.06921993379
 21
1892.568348936298
 31
0.0
  0
LINE
  5
3A04
  8
YODOROGO
 10
27977.604341291921
 20
1872.5683489362989
 30
0.0
 11
27977.604341291921
 21
1892.568348936298
 31
0.0
  0
LINE
  5
3A05
  8
YODOROGO
 10
28021.836780612852
 20
1872.5683489362989
 30
0.0
 11
27977.604341291921
 21
1872.5683489362989
 31
0.0
  0
LINE
  5
3A06
  8
YODOROGO
 10
28021.836780612852
 20
1784.673339594317
 30
0.0
 11
28021.836780612852
 21
1872.5683489362989
 31
0.0
  0
LINE
  5
3A07
  8
YODOROGO
 10
27977.604341291921
 20
1771.749496429286
 30
0.0
 11
28021.836780612852
 21
1784.673339594317
 31
0.0
  0
LINE
  5
3A08
  8
YODOROGO
 10
27977.604341291921
 20
1747.749496429286
 30
0.0
 11
27977.604341291921
 21
1771.749496429286
 31
0.0
  0
LINE
  5
3A09
  8
YODOROGO
 10
28001.604341291921
 20
1707.749496429288
 30
0.0
 11
28001.604341291921
 21
1683.7494964292871
 31
0.0
  0
LINE
  5
3A0A
  8
YODOROGO
 10
28017.604341291921
 20
1707.749496429288
 30
0.0
 11
28001.604341291921
 21
1707.749496429288
 31
0.0
  0
LINE
  5
3A0B
  8
YODOROGO
 10
28017.604341291921
 20
1683.7494964292871
 30
0.0
 11
28017.604341291921
 21
1707.749496429288
 31
0.0
  0
LINE
  5
3A0C
  8
YODOROGO
 10
28040.913204016892
 20
1683.7494964292871
 30
0.0
 11
28017.604341291921
 21
1683.7494964292871
 31
0.0
  0
LINE
  5
3A0D
  8
YODOROGO
 10
28001.604341291921
 20
1683.7494964292871
 30
0.0
 11
27977.604341291921
 21
1683.7494964292871
 31
0.0
  0
LINE
  5
3A0E
  8
YODOROGO
 10
28082.135520230921
 20
1707.749496429288
 30
0.0
 11
28098.135520230931
 21
1707.749496429288
 31
0.0
1001
AUTOCAD_POSTSCRIPT_FIGURE
1002
{
1000
PSFILL
1000
Grayscale
1000
Grayscale
1070
   100
1002
}
  0
LINE
  5
3A0F
  8
YODOROGO
 10
28401.60434129191
 20
1824.877625640306
 30
0.0
 11
28401.60434129191
 21
1752.877625640306
 31
0.0
1001
AUTOCAD_POSTSCRIPT_FIGURE
1002
{
1000
PSFILL
1000
Grayscale
1000
Grayscale
1070
   100
1002
}
  0
LINE
  5
3A10
  8
YODOROGO
 10
28401.60434129191
 20
1916.8776256403071
 30
0.0
 11
28401.60434129191
 21
1984.877625640306
 31
0.0
1001
AUTOCAD_POSTSCRIPT_FIGURE
1002
{
1000
PSFILL
1000
Grayscale
1000
Grayscale
1070
   100
1002
}
  0
LINE
  5
3A11
  8
YODOROGO
 10
28433.60434129191
 20
1819.7494964292871
 30
0.0
 11
28433.60434129191
 21
1747.74949642929
 31
0.0
  0
LINE
  5
3A12
  8
YODOROGO
 10
28497.60434129191
 20
1707.749496429288
 30
0.0
 11
28433.60434129191
 21
1707.749496429288
 31
0.0
  0
LINE
  5
3A13
  8
YODOROGO
 10
28433.60434129191
 20
1747.74949642929
 30
0.0
 11
28585.604341291921
 21
1747.74949642929
 31
0.0
  0
LINE
  5
3A14
  8
YODOROGO
 10
28497.60434129191
 20
1867.7494964292871
 30
0.0
 11
28433.60434129191
 21
1867.7494964292871
 31
0.0
  0
LINE
  5
3A15
  8
YODOROGO
 10
28497.60434129191
 20
1923.7494964292871
 30
0.0
 11
28497.60434129191
 21
1867.7494964292871
 31
0.0
  0
LINE
  5
3A16
  8
YODOROGO
 10
28585.604341291921
 20
1987.7494964292871
 30
0.0
 11
28585.604341291921
 21
2027.749496429288
 31
0.0
  0
LINE
  5
3A17
  8
YODOROGO
 10
28433.60434129191
 20
1987.7494964292871
 30
0.0
 11
28585.604341291921
 21
1987.7494964292871
 31
0.0
  0
LINE
  5
3A18
  8
YODOROGO
 10
28433.60434129191
 20
1867.7494964292871
 30
0.0
 11
28433.60434129191
 21
1987.7494964292871
 31
0.0
  0
LINE
  5
3A19
  8
YODOROGO
 10
29001.60434129191
 20
2027.749496429288
 30
0.0
 11
29001.60434129191
 21
1619.749496429288
 31
0.0
  0
LINE
  5
3A1A
  8
YODOROGO
 10
29073.604341291921
 20
1579.749496429288
 30
0.0
 11
29073.604341291921
 21
2027.749496429288
 31
0.0
  0
LINE
  5
3A1B
  8
YODOROGO
 10
29261.604341291921
 20
1491.749496429286
 30
0.0
 11
29261.604341291921
 21
2007.749496429288
 31
0.0
  0
LINE
  5
3A1C
  8
YODOROGO
 10
29197.604341291921
 20
2007.749496429288
 30
0.0
 11
29197.604341291921
 21
1491.749496429286
 31
0.0
  0
LINE
  5
3A1D
  8
YODOROGO
 10
29385.604341291921
 20
2027.749496429288
 30
0.0
 11
29385.604341291921
 21
1427.749496429288
 31
0.0
  0
LINE
  5
3A1E
  8
YODOROGO
 10
29457.604341291921
 20
1427.749496429288
 30
0.0
 11
29457.604341291921
 21
2027.749496429288
 31
0.0
  0
LINE
  5
3A1F
  8
YODOROGO
 10
28657.604341291921
 20
1667.749496429288
 30
0.0
 11
28657.604341291921
 21
1747.74949642929
 31
0.0
  0
LINE
  5
3A20
  8
YODOROGO
 10
29885.604341291921
 20
1707.749496429288
 30
0.0
 11
29885.604341291921
 21
1667.749496429288
 31
0.0
  0
LINE
  5
3A21
  8
YODOROGO
 10
29885.604341291921
 20
1707.749496429288
 30
0.0
 11
29885.604341291921
 21
1667.749496429288
 31
0.0
  0
ARC
  5
3A22
  8
YODOROGO
 10
28906.911576186842
 20
1618.217864442272
 30
0.0
 40
94.705151178741644
 50
274.05244162907098
 51
0.9266642149310712
  0
ARC
  5
3A23
  8
YODOROGO
 10
28909.186170719819
 20
1592.61072861044
 30
0.0
 40
164.92042356085511
 50
271.5351210653775
 51
355.52727750585052
  0
LINE
  5
3A24
  8
YODOROGO
 10
28913.604341291921
 20
1523.7494964292871
 30
0.0
 11
28913.604341291921
 21
1427.749496429288
 31
0.0
  0
LINE
  5
3A25
  8
YODOROGO
 10
28793.60434129191
 20
1667.749496429288
 30
0.0
 11
28657.604341291921
 21
1667.749496429288
 31
0.0
  0
LINE
  5
3A26
  8
YODOROGO
 10
28793.60434129191
 20
1603.7494964292871
 30
0.0
 11
28793.60434129191
 21
1667.749496429288
 31
0.0
  0
LINE
  5
3A27
  8
YODOROGO
 10
28657.604341291921
 20
1603.7494964292871
 30
0.0
 11
28793.60434129191
 21
1603.7494964292871
 31
0.0
  0
LINE
  5
3A28
  8
YODOROGO
 10
28657.604341291921
 20
1523.7494964292871
 30
0.0
 11
28657.604341291921
 21
1603.7494964292871
 31
0.0
  0
LINE
  5
3A29
  8
YODOROGO
 10
28793.60434129191
 20
1523.7494964292871
 30
0.0
 11
28657.604341291921
 21
1523.7494964292871
 31
0.0
  0
LINE
  5
3A2A
  8
YODOROGO
 10
28793.60434129191
 20
1427.749496429288
 30
0.0
 11
28793.60434129191
 21
1523.7494964292871
 31
0.0
  0
LINE
  5
3A2B
  8
YODOROGO
 10
29197.604341291921
 20
1491.749496429286
 30
0.0
 11
29261.604341291921
 21
1491.749496429286
 31
0.0
  0
LINE
  5
3A2C
  8
YODOROGO
 10
29385.604341291921
 20
1427.749496429288
 30
0.0
 11
29457.604341291921
 21
1427.749496429288
 31
0.0
  0
LINE
  5
3A2D
  8
YODOROGO
 10
29737.604341291921
 20
1528.4414521705639
 30
0.0
 11
29737.604341291921
 21
1427.749496429288
 31
0.0
  0
LINE
  5
3A2E
  8
YODOROGO
 10
29617.604341291921
 20
1427.749496429288
 30
0.0
 11
29737.604341291921
 21
1528.4414521705639
 31
0.0
  0
LINE
  5
3A2F
  8
YODOROGO
 10
29617.604341291921
 20
1547.749496429288
 30
0.0
 11
29617.604341291921
 21
1427.749496429288
 31
0.0
  0
LINE
  5
3A30
  8
YODOROGO
 10
29712.94462869945
 20
1627.749496429288
 30
0.0
 11
29617.604341291921
 21
1547.749496429288
 31
0.0
  0
LINE
  5
3A31
  8
YODOROGO
 10
29617.604341291921
 20
1627.749496429288
 30
0.0
 11
29712.94462869945
 21
1627.749496429288
 31
0.0
  0
LINE
  5
3A32
  8
YODOROGO
 10
29617.604341291921
 20
1667.749496429288
 30
0.0
 11
29617.604341291921
 21
1627.749496429288
 31
0.0
  0
LINE
  5
3A33
  8
YODOROGO
 10
29885.604341291921
 20
1667.749496429288
 30
0.0
 11
29617.604341291921
 21
1667.749496429288
 31
0.0
  0
LINE
  5
3A34
  8
YODOROGO
 10
29917.604341291921
 20
1627.749496429288
 30
0.0
 11
29777.604341291921
 21
1627.749496429288
 31
0.0
  0
LINE
  5
3A35
  8
YODOROGO
 10
29777.604341291921
 20
1562.0054374176559
 30
0.0
 11
29771.409872985321
 21
1556.807661346234
 31
0.0
  0
LINE
  5
3A36
  8
YODOROGO
 10
29777.604341291921
 20
1627.749496429288
 30
0.0
 11
29777.604341291921
 21
1562.0054374176559
 31
0.0
  0
LINE
  5
3A37
  8
YODOROGO
 10
29737.604341291921
 20
1528.4414521705639
 30
0.0
 11
29737.604341291921
 21
1427.749496429288
 31
0.0
  0
LINE
  5
3A38
  8
YODOROGO
 10
29617.604341291921
 20
1427.749496429288
 30
0.0
 11
29737.604341291921
 21
1528.4414521705639
 31
0.0
  0
LINE
  5
3A39
  8
YODOROGO
 10
29617.604341291921
 20
1547.749496429288
 30
0.0
 11
29617.604341291921
 21
1427.749496429288
 31
0.0
  0
LINE
  5
3A3A
  8
YODOROGO
 10
29712.94462869945
 20
1627.749496429288
 30
0.0
 11
29617.604341291921
 21
1547.749496429288
 31
0.0
  0
LINE
  5
3A3B
  8
YODOROGO
 10
29617.604341291921
 20
1627.749496429288
 30
0.0
 11
29712.94462869945
 21
1627.749496429288
 31
0.0
  0
LINE
  5
3A3C
  8
YODOROGO
 10
29617.604341291921
 20
1667.749496429288
 30
0.0
 11
29617.604341291921
 21
1627.749496429288
 31
0.0
  0
LINE
  5
3A3D
  8
YODOROGO
 10
29885.604341291921
 20
1667.749496429288
 30
0.0
 11
29617.604341291921
 21
1667.749496429288
 31
0.0
  0
LINE
  5
3A3E
  8
YODOROGO
 10
28793.60434129191
 20
1747.74949642929
 30
0.0
 11
28793.60434129191
 21
1819.7494964292871
 31
0.0
  0
LINE
  5
3A3F
  8
YODOROGO
 10
28657.604341291921
 20
1747.74949642929
 30
0.0
 11
28793.60434129191
 21
1747.74949642929
 31
0.0
  0
LINE
  5
3A40
  8
YODOROGO
 10
28729.604341291921
 20
1867.7494964292871
 30
0.0
 11
28729.604341291921
 21
1923.7494964292871
 31
0.0
  0
LINE
  5
3A41
  8
YODOROGO
 10
28793.60434129191
 20
1867.7494964292871
 30
0.0
 11
28729.604341291921
 21
1867.7494964292871
 31
0.0
  0
LINE
  5
3A42
  8
YODOROGO
 10
28793.60434129191
 20
1947.749496429288
 30
0.0
 11
28793.60434129191
 21
1867.7494964292871
 31
0.0
  0
ARC
  5
3A43
  8
YODOROGO
 10
28753.60434129191
 20
1947.749496429288
 30
0.0
 40
40.0
 50
0.0
 51
90.0
  0
LINE
  5
3A44
  8
YODOROGO
 10
28657.604341291921
 20
1987.7494964292871
 30
0.0
 11
28753.60434129191
 21
1987.7494964292871
 31
0.0
  0
LINE
  5
3A45
  8
YODOROGO
 10
28657.604341291921
 20
2027.749496429288
 30
0.0
 11
28657.604341291921
 21
1987.7494964292871
 31
0.0
  0
LINE
  5
3A46
  8
YODOROGO
 10
29073.604341291921
 20
2027.749496429288
 30
0.0
 11
29001.60434129191
 21
2027.749496429288
 31
0.0
  0
LINE
  5
3A47
  8
YODOROGO
 10
29261.604341291921
 20
2007.749496429288
 30
0.0
 11
29197.604341291921
 21
2007.749496429288
 31
0.0
  0
LINE
  5
3A48
  8
YODOROGO
 10
29457.604341291921
 20
2027.749496429288
 30
0.0
 11
29385.604341291921
 21
2027.749496429288
 31
0.0
  0
LINE
  5
3A49
  8
YODOROGO
 10
29673.604341291921
 20
1707.749496429288
 30
0.0
 11
29673.604341291921
 21
1771.7494964292871
 31
0.0
1001
AUTOCAD_POSTSCRIPT_FIGURE
1002
{
1000
PSFILL
1000
Grayscale
1000
Grayscale
1070
    25
1002
}
  0
LINE
  5
3A4A
  8
YODOROGO
 10
29617.604341291921
 20
1707.749496429288
 30
0.0
 11
29673.604341291921
 21
1707.749496429288
 31
0.0
1001
AUTOCAD_POSTSCRIPT_FIGURE
1002
{
1000
PSFILL
1000
Grayscale
1000
Grayscale
1070
    25
1002
}
  0
LINE
  5
3A4B
  8
YODOROGO
 10
29617.604341291921
 20
1819.7494964292871
 30
0.0
 11
29617.604341291921
 21
1707.749496429288
 31
0.0
1001
AUTOCAD_POSTSCRIPT_FIGURE
1002
{
1000
PSFILL
1000
Grayscale
1000
Grayscale
1070
    25
1002
}
  0
LINE
  5
3A4C
  8
YODOROGO
 10
29765.604341291921
 20
1819.7494964292871
 30
0.0
 11
29617.604341291921
 21
1819.7494964292871
 31
0.0
1001
AUTOCAD_POSTSCRIPT_FIGURE
1002
{
1000
PSFILL
1000
Grayscale
1000
Grayscale
1070
    25
1002
}
  0
LINE
  5
3A4D
  8
YODOROGO
 10
29765.604341291921
 20
1859.749496429288
 30
0.0
 11
29765.604341291921
 21
1819.7494964292871
 31
0.0
1001
AUTOCAD_POSTSCRIPT_FIGURE
1002
{
1000
PSFILL
1000
Grayscale
1000
Grayscale
1070
    25
1002
}
  0
LINE
  5
3A4E
  8
YODOROGO
 10
29617.604341291921
 20
1859.749496429288
 30
0.0
 11
29765.604341291921
 21
1859.749496429288
 31
0.0
1001
AUTOCAD_POSTSCRIPT_FIGURE
1002
{
1000
PSFILL
1000
Grayscale
1000
Grayscale
1070
    25
1002
}
  0
LINE
  5
3A4F
  8
YODOROGO
 10
29617.604341291921
 20
1907.7494964292871
 30
0.0
 11
29617.604341291921
 21
1859.749496429288
 31
0.0
1001
AUTOCAD_POSTSCRIPT_FIGURE
1002
{
1000
PSFILL
1000
Grayscale
1000
Grayscale
1070
    25
1002
}
  0
LINE
  5
3A50
  8
YODOROGO
 10
29765.604341291921
 20
1907.7494964292871
 30
0.0
 11
29617.604341291921
 21
1907.7494964292871
 31
0.0
1001
AUTOCAD_POSTSCRIPT_FIGURE
1002
{
1000
PSFILL
1000
Grayscale
1000
Grayscale
1070
    25
1002
}
  0
LINE
  5
3A51
  8
YODOROGO
 10
29765.604341291921
 20
1947.749496429288
 30
0.0
 11
29765.604341291921
 21
1907.7494964292871
 31
0.0
1001
AUTOCAD_POSTSCRIPT_FIGURE
1002
{
1000
PSFILL
1000
Grayscale
1000
Grayscale
1070
    25
1002
}
  0
LINE
  5
3A52
  8
YODOROGO
 10
29617.604341291921
 20
1947.749496429288
 30
0.0
 11
29765.604341291921
 21
1947.749496429288
 31
0.0
1001
AUTOCAD_POSTSCRIPT_FIGURE
1002
{
1000
PSFILL
1000
Grayscale
1000
Grayscale
1070
    25
1002
}
  0
LINE
  5
3A53
  8
YODOROGO
 10
29617.604341291921
 20
2027.749496429288
 30
0.0
 11
29617.604341291921
 21
1947.749496429288
 31
0.0
1001
AUTOCAD_POSTSCRIPT_FIGURE
1002
{
1000
PSFILL
1000
Grayscale
1000
Grayscale
1070
    25
1002
}
  0
LINE
  5
3A54
  8
YODOROGO
 10
29665.604341291921
 20
2027.749496429288
 30
0.0
 11
29617.604341291921
 21
2027.749496429288
 31
0.0
1001
AUTOCAD_POSTSCRIPT_FIGURE
1002
{
1000
PSFILL
1000
Grayscale
1000
Grayscale
1070
    25
1002
}
  0
LINE
  5
3A55
  8
YODOROGO
 10
29665.604341291921
 20
1995.7494964292871
 30
0.0
 11
29665.604341291921
 21
2027.749496429288
 31
0.0
1001
AUTOCAD_POSTSCRIPT_FIGURE
1002
{
1000
PSFILL
1000
Grayscale
1000
Grayscale
1070
    25
1002
}
  0
LINE
  5
3A56
  8
YODOROGO
 10
29765.604341291921
 20
1995.7494964292871
 30
0.0
 11
29665.604341291921
 21
1995.7494964292871
 31
0.0
1001
AUTOCAD_POSTSCRIPT_FIGURE
1002
{
1000
PSFILL
1000
Grayscale
1000
Grayscale
1070
    25
1002
}
  0
LINE
  5
3A57
  8
YODOROGO
 10
29765.604341291921
 20
2027.749496429288
 30
0.0
 11
29765.604341291921
 21
1995.7494964292871
 31
0.0
1001
AUTOCAD_POSTSCRIPT_FIGURE
1002
{
1000
PSFILL
1000
Grayscale
1000
Grayscale
1070
    25
1002
}
  0
LINE
  5
3A58
  8
YODOROGO
 10
29829.604341291921
 20
2027.749496429288
 30
0.0
 11
29765.604341291921
 21
2027.749496429288
 31
0.0
1001
AUTOCAD_POSTSCRIPT_FIGURE
1002
{
1000
PSFILL
1000
Grayscale
1000
Grayscale
1070
    25
1002
}
  0
LINE
  5
3A59
  8
YODOROGO
 10
29829.604341291921
 20
1995.7494964292871
 30
0.0
 11
29829.604341291921
 21
2027.749496429288
 31
0.0
1001
AUTOCAD_POSTSCRIPT_FIGURE
1002
{
1000
PSFILL
1000
Grayscale
1000
Grayscale
1070
    25
1002
}
  0
LINE
  5
3A5A
  8
YODOROGO
 10
29829.604341291921
 20
1907.7494964292871
 30
0.0
 11
29829.604341291921
 21
1947.749496429288
 31
0.0
1001
AUTOCAD_POSTSCRIPT_FIGURE
1002
{
1000
PSFILL
1000
Grayscale
1000
Grayscale
1070
    25
1002
}
  0
LINE
  5
3A5B
  8
YODOROGO
 10
29829.604341291921
 20
1819.7494964292871
 30
0.0
 11
29829.604341291921
 21
1859.749496429288
 31
0.0
1001
AUTOCAD_POSTSCRIPT_FIGURE
1002
{
1000
PSFILL
1000
Grayscale
1000
Grayscale
1070
    25
1002
}
  0
LINE
  5
3A5C
  8
YODOROGO
 10
29921.60434129191
 20
1771.7494964292871
 30
0.0
 11
29921.60434129191
 21
1707.749496429288
 31
0.0
1001
AUTOCAD_POSTSCRIPT_FIGURE
1002
{
1000
PSFILL
1000
Grayscale
1000
Grayscale
1070
    25
1002
}
  0
LINE
  5
3A5D
  8
YODOROGO
 10
29829.604341291921
 20
1771.7494964292871
 30
0.0
 11
29921.60434129191
 21
1771.7494964292871
 31
0.0
1001
AUTOCAD_POSTSCRIPT_FIGURE
1002
{
1000
PSFILL
1000
Grayscale
1000
Grayscale
1070
    25
1002
}
  0
LINE
  5
3A5E
  8
YODOROGO
 10
29829.604341291921
 20
1707.749496429288
 30
0.0
 11
29829.604341291921
 21
1771.7494964292871
 31
0.0
1001
AUTOCAD_POSTSCRIPT_FIGURE
1002
{
1000
PSFILL
1000
Grayscale
1000
Grayscale
1070
    25
1002
}
  0
LINE
  5
3A5F
  8
YODOROGO
 10
29765.604341291921
 20
1707.749496429288
 30
0.0
 11
29829.604341291921
 21
1707.749496429288
 31
0.0
1001
AUTOCAD_POSTSCRIPT_FIGURE
1002
{
1000
PSFILL
1000
Grayscale
1000
Grayscale
1070
    25
1002
}
  0
LINE
  5
3A60
  8
YODOROGO
 10
29765.604341291921
 20
1771.7494964292871
 30
0.0
 11
29765.604341291921
 21
1707.749496429288
 31
0.0
1001
AUTOCAD_POSTSCRIPT_FIGURE
1002
{
1000
PSFILL
1000
Grayscale
1000
Grayscale
1070
    25
1002
}
  0
LINE
  5
3A61
  8
YODOROGO
 10
29673.604341291921
 20
1771.7494964292871
 30
0.0
 11
29765.604341291921
 21
1771.7494964292871
 31
0.0
1001
AUTOCAD_POSTSCRIPT_FIGURE
1002
{
1000
PSFILL
1000
Grayscale
1000
Grayscale
1070
    25
1002
}
  0
ARC
  5
3A62
  8
YODOROGO
 10
31059.517893357912
 20
1602.6807375155761
 30
0.0
 40
178.22128111072141
 50
281.02627495425338
 51
357.77113575573799
  0
LINE
  5
3A63
  8
YODOROGO
 10
31413.604341291921
 20
1907.7494964292871
 30
0.0
 11
31165.604341291921
 21
1907.7494964292871
 31
0.0
  0
LINE
  5
3A64
  8
YODOROGO
 10
31413.604341291921
 20
2027.749496429288
 30
0.0
 11
31165.604341291921
 21
2027.749496429288
 31
0.0
  0
LINE
  5
3A65
  8
YODOROGO
 10
31165.604341291921
 20
1963.749496429286
 30
0.0
 11
31413.604341291921
 21
1963.749496429286
 31
0.0
  0
LINE
  5
3A66
  8
YODOROGO
 10
30791.604341291921
 20
1563.7494964292871
 30
0.0
 11
30791.604341291921
 21
1755.7494964292871
 31
0.0
  0
LINE
  5
3A67
  8
YODOROGO
 10
30763.604341291921
 20
1691.749496429288
 30
0.0
 11
30763.604341291921
 21
1563.7494964292871
 31
0.0
  0
LINE
  5
3A68
  8
YODOROGO
 10
30723.604341291921
 20
1491.749496429288
 30
0.0
 11
30723.604341291921
 21
1691.749496429288
 31
0.0
  0
LINE
  5
3A69
  8
YODOROGO
 10
30899.604341291932
 20
1691.749496429288
 30
0.0
 11
30899.604341291932
 21
1491.749496429288
 31
0.0
  0
LINE
  5
3A6A
  8
YODOROGO
 10
30859.604341291932
 20
1563.7494964292871
 30
0.0
 11
30859.604341291932
 21
1691.749496429288
 31
0.0
  0
LINE
  5
3A6B
  8
YODOROGO
 10
30831.604341291921
 20
1755.7494964292871
 30
0.0
 11
30831.604341291921
 21
1563.7494964292871
 31
0.0
  0
LINE
  5
3A6C
  8
YODOROGO
 10
30973.604341291921
 20
2027.749496429288
 30
0.0
 11
30973.604341291921
 21
1467.749496429288
 31
0.0
  0
LINE
  5
3A6D
  8
YODOROGO
 10
30645.604341291921
 20
1427.749496429288
 30
0.0
 11
30645.604341291921
 21
2027.749496429288
 31
0.0
  0
LINE
  5
3A6E
  8
YODOROGO
 10
30697.604341291932
 20
1963.749496429286
 30
0.0
 11
30697.604341291932
 21
1427.749496429288
 31
0.0
  0
LINE
  5
3A6F
  8
YODOROGO
 10
30925.604341291921
 20
1547.749496429288
 30
0.0
 11
30925.604341291921
 21
1963.749496429286
 31
0.0
  0
LINE
  5
3A70
  8
YODOROGO
 10
30381.604341291932
 20
1627.749496429288
 30
0.0
 11
30381.604341291932
 21
1679.749496429288
 31
0.0
  0
LINE
  5
3A71
  8
YODOROGO
 10
30617.604341291921
 20
1679.749496429288
 30
0.0
 11
30617.604341291921
 21
1627.749496429288
 31
0.0
  0
LINE
  5
3A72
  8
YODOROGO
 10
31165.604341291921
 20
1907.7494964292871
 30
0.0
 11
31165.604341291921
 21
1635.7494964292871
 31
0.0
  0
LINE
  5
3A73
  8
YODOROGO
 10
29949.60434129191
 20
1667.749496429288
 30
0.0
 11
29949.60434129191
 21
1707.749496429288
 31
0.0
  0
LINE
  5
3A74
  8
YODOROGO
 10
29949.60434129191
 20
1667.749496429288
 30
0.0
 11
29949.60434129191
 21
1707.749496429288
 31
0.0
  0
ARC
  5
3A75
  8
YODOROGO
 10
30537.604341291921
 20
1507.749496429288
 30
0.0
 40
80.0
 50
270.0
 51
0.0
  0
LINE
  5
3A76
  8
YODOROGO
 10
30569.604341291921
 20
1599.7494964292871
 30
0.0
 11
30617.604341291921
 21
1599.7494964292871
 31
0.0
  0
LINE
  5
3A77
  8
YODOROGO
 10
30617.604341291921
 20
1627.749496429288
 30
0.0
 11
30529.604341291939
 21
1627.749496429288
 31
0.0
  0
LINE
  5
3A78
  8
YODOROGO
 10
30217.604341291921
 20
1667.749496429288
 30
0.0
 11
29949.60434129191
 21
1667.749496429288
 31
0.0
  0
LINE
  5
3A79
  8
YODOROGO
 10
30217.604341291921
 20
1627.749496429288
 30
0.0
 11
30217.604341291921
 21
1667.749496429288
 31
0.0
  0
LINE
  5
3A7A
  8
YODOROGO
 10
30017.604341291921
 20
1627.749496429288
 30
0.0
 11
30217.604341291921
 21
1627.749496429288
 31
0.0
  0
ARC
  5
3A7B
  8
YODOROGO
 10
30230.05882870136
 20
1868.885714952901
 30
0.0
 40
321.37763628522822
 50
228.6181454618993
 51
245.660289248906
  0
LINE
  5
3A7C
  8
YODOROGO
 10
30105.604341291921
 20
1603.7494964292871
 30
0.0
 11
30097.60434129195
 21
1576.0728158699001
 31
0.0
  0
LINE
  5
3A7D
  8
YODOROGO
 10
30189.604341291921
 20
1603.7494964292871
 30
0.0
 11
30105.604341291921
 21
1603.7494964292871
 31
0.0
  0
LINE
  5
3A7E
  8
YODOROGO
 10
30177.604341291921
 20
1551.817722473427
 30
0.0
 11
30189.604341291921
 21
1603.7494964292871
 31
0.0
  0
ARC
  5
3A7F
  8
YODOROGO
 10
30230.05882870045
 20
1868.885714953002
 30
0.0
 40
321.37763628529081
 50
260.60629297969911
 51
267.77903556555862
  0
LINE
  5
3A80
  8
YODOROGO
 10
30217.604341291921
 20
1427.749496429285
 30
0.0
 11
30217.604341291921
 21
1547.749496429288
 31
0.0
  0
LINE
  5
3A81
  8
YODOROGO
 10
29937.604341291932
 20
1481.3393349155101
 30
0.0
 11
29937.604341291921
 21
1594.531090531141
 31
0.0
  0
LINE
  5
3A82
  8
YODOROGO
 10
30217.604341291921
 20
1667.749496429288
 30
0.0
 11
29949.60434129191
 21
1667.749496429288
 31
0.0
  0
LINE
  5
3A83
  8
YODOROGO
 10
30217.604341291921
 20
1627.749496429288
 30
0.0
 11
30217.604341291921
 21
1667.749496429288
 31
0.0
  0
LINE
  5
3A84
  8
YODOROGO
 10
30017.604341291921
 20
1627.749496429288
 30
0.0
 11
30217.604341291921
 21
1627.749496429288
 31
0.0
  0
ARC
  5
3A85
  8
YODOROGO
 10
30230.05882870136
 20
1868.885714952901
 30
0.0
 40
321.37763628522822
 50
228.6181454618993
 51
245.660289248906
  0
LINE
  5
3A86
  8
YODOROGO
 10
30105.604341291921
 20
1603.7494964292871
 30
0.0
 11
30097.60434129195
 21
1576.0728158699001
 31
0.0
  0
LINE
  5
3A87
  8
YODOROGO
 10
30189.604341291921
 20
1603.7494964292871
 30
0.0
 11
30105.604341291921
 21
1603.7494964292871
 31
0.0
  0
LINE
  5
3A88
  8
YODOROGO
 10
30177.604341291921
 20
1551.817722473427
 30
0.0
 11
30189.604341291921
 21
1603.7494964292871
 31
0.0
  0
ARC
  5
3A89
  8
YODOROGO
 10
30230.05882870045
 20
1868.885714953002
 30
0.0
 40
321.37763628529081
 50
260.60629297969911
 51
267.77903556555862
  0
LINE
  5
3A8A
  8
YODOROGO
 10
30217.604341291921
 20
1427.749496429285
 30
0.0
 11
30217.604341291921
 21
1547.749496429288
 31
0.0
  0
LINE
  5
3A8B
  8
YODOROGO
 10
29937.604341291932
 20
1481.3393349155101
 30
0.0
 11
29937.604341291921
 21
1594.531090531141
 31
0.0
  0
LINE
  5
3A8C
  8
YODOROGO
 10
30433.604341291921
 20
1573.749496429288
 30
0.0
 11
30381.604341291932
 21
1573.749496429288
 31
0.0
  0
LINE
  5
3A8D
  8
YODOROGO
 10
30433.604341291921
 20
1601.749496429285
 30
0.0
 11
30433.604341291921
 21
1573.749496429288
 31
0.0
  0
LINE
  5
3A8E
  8
YODOROGO
 10
30381.604341291932
 20
1601.749496429285
 30
0.0
 11
30433.604341291921
 21
1601.749496429285
 31
0.0
  0
LINE
  5
3A8F
  8
YODOROGO
 10
30381.604341291932
 20
1573.749496429288
 30
0.0
 11
30381.604341291932
 21
1601.749496429285
 31
0.0
  0
LINE
  5
3A90
  8
YODOROGO
 10
30429.604341291921
 20
1577.7494964292871
 30
0.0
 11
30385.604341291921
 21
1577.7494964292871
 31
0.0
  0
LINE
  5
3A91
  8
YODOROGO
 10
30429.604341291921
 20
1597.749496429288
 30
0.0
 11
30429.604341291921
 21
1577.7494964292871
 31
0.0
  0
LINE
  5
3A92
  8
YODOROGO
 10
30385.604341291921
 20
1597.749496429288
 30
0.0
 11
30429.604341291921
 21
1597.749496429288
 31
0.0
  0
LINE
  5
3A93
  8
YODOROGO
 10
30385.604341291921
 20
1577.7494964292871
 30
0.0
 11
30385.604341291921
 21
1597.749496429288
 31
0.0
  0
LINE
  5
3A94
  8
YODOROGO
 10
30425.604341291921
 20
1581.749496429286
 30
0.0
 11
30389.604341291921
 21
1581.749496429286
 31
0.0
  0
LINE
  5
3A95
  8
YODOROGO
 10
30425.604341291921
 20
1593.749496429288
 30
0.0
 11
30425.604341291921
 21
1581.749496429286
 31
0.0
  0
LINE
  5
3A96
  8
YODOROGO
 10
30389.604341291921
 20
1593.749496429288
 30
0.0
 11
30425.604341291921
 21
1593.749496429288
 31
0.0
  0
LINE
  5
3A97
  8
YODOROGO
 10
30389.604341291921
 20
1581.749496429286
 30
0.0
 11
30389.604341291921
 21
1593.749496429288
 31
0.0
  0
LINE
  5
3A98
  8
YODOROGO
 10
30421.604341291932
 20
1585.7494964292871
 30
0.0
 11
30393.604341291921
 21
1585.7494964292871
 31
0.0
  0
LINE
  5
3A99
  8
YODOROGO
 10
30421.604341291932
 20
1589.749496429288
 30
0.0
 11
30421.604341291932
 21
1585.7494964292871
 31
0.0
  0
LINE
  5
3A9A
  8
YODOROGO
 10
30393.604341291921
 20
1589.749496429288
 30
0.0
 11
30421.604341291932
 21
1589.749496429288
 31
0.0
  0
LINE
  5
3A9B
  8
YODOROGO
 10
30393.604341291921
 20
1585.7494964292871
 30
0.0
 11
30393.604341291921
 21
1589.749496429288
 31
0.0
  0
LINE
  5
3A9C
  8
YODOROGO
 10
30465.604341291921
 20
1627.749496429288
 30
0.0
 11
30381.604341291932
 21
1627.749496429288
 31
0.0
  0
LINE
  5
3A9D
  8
YODOROGO
 10
30465.604341291921
 20
1547.749496429288
 30
0.0
 11
30465.604341291921
 21
1627.749496429288
 31
0.0
  0
LINE
  5
3A9E
  8
YODOROGO
 10
30381.604341291932
 20
1547.749496429288
 30
0.0
 11
30465.604341291921
 21
1547.749496429288
 31
0.0
  0
LINE
  5
3A9F
  8
YODOROGO
 10
30381.604341291932
 20
1427.749496429288
 30
0.0
 11
30381.604341291932
 21
1547.749496429288
 31
0.0
  0
LINE
  5
3AA0
  8
YODOROGO
 10
30537.604341291921
 20
1427.749496429288
 30
0.0
 11
30381.604341291932
 21
1427.749496429288
 31
0.0
  0
LINE
  5
3AA1
  8
YODOROGO
 10
30569.604341291921
 20
1571.749496429285
 30
0.0
 11
30569.604341291921
 21
1599.7494964292871
 31
0.0
  0
ARC
  5
3AA2
  8
YODOROGO
 10
30545.604341291921
 20
1571.749496429291
 30
0.0
 40
24.000000000003752
 50
270.0
 51
359.99999999998772
  0
LINE
  5
3AA3
  8
YODOROGO
 10
30529.604341291939
 20
1547.749496429288
 30
0.0
 11
30545.604341291921
 21
1547.749496429288
 31
0.0
  0
LINE
  5
3AA4
  8
YODOROGO
 10
30529.604341291939
 20
1627.749496429288
 30
0.0
 11
30529.604341291939
 21
1547.749496429288
 31
0.0
  0
LINE
  5
3AA5
  8
YODOROGO
 10
30899.604341291932
 20
1547.749496429288
 30
0.0
 11
30925.604341291921
 21
1547.749496429288
 31
0.0
  0
LINE
  5
3AA6
  8
YODOROGO
 10
30933.604341291921
 20
1427.749496429288
 30
0.0
 11
30899.604341291932
 21
1427.749496429288
 31
0.0
  0
LINE
  5
3AA7
  8
YODOROGO
 10
30763.604341291921
 20
1563.7494964292871
 30
0.0
 11
30791.604341291921
 21
1563.7494964292871
 31
0.0
  0
LINE
  5
3AA8
  8
YODOROGO
 10
30899.604341291932
 20
1491.749496429288
 30
0.0
 11
30723.604341291921
 21
1491.749496429288
 31
0.0
  0
LINE
  5
3AA9
  8
YODOROGO
 10
30831.604341291921
 20
1563.7494964292871
 30
0.0
 11
30859.604341291932
 21
1563.7494964292871
 31
0.0
  0
LINE
  5
3AAA
  8
YODOROGO
 10
30899.604341291932
 20
1427.749496429288
 30
0.0
 11
30899.604341291932
 21
1547.749496429288
 31
0.0
  0
LINE
  5
3AAB
  8
YODOROGO
 10
30697.604341291932
 20
1427.749496429288
 30
0.0
 11
30645.604341291921
 21
1427.749496429288
 31
0.0
  0
LINE
  5
3AAC
  8
YODOROGO
 10
30617.604341291921
 20
1599.7494964292871
 30
0.0
 11
30617.604341291921
 21
1507.749496429288
 31
0.0
  0
ARC
  5
3AAD
  8
YODOROGO
 10
30933.604341291921
 20
1467.749496429288
 30
0.0
 40
40.0
 50
270.0
 51
0.0
  0
LINE
  5
3AAE
  8
YODOROGO
 10
31093.604341291921
 20
1523.7494964292871
 30
0.0
 11
31093.604341291921
 21
1427.749496429288
 31
0.0
  0
ARC
  5
3AAF
  8
YODOROGO
 10
31039.721395566768
 20
1637.5313901097329
 30
0.0
 40
125.8955565916754
 50
295.34052442160112
 51
359.18902303418679
  0
LINE
  5
3AB0
  8
YODOROGO
 10
30617.604341291921
 20
1859.749496429288
 30
0.0
 11
30497.604341291921
 21
1939.749496429288
 31
0.0
  0
LINE
  5
3AB1
  8
YODOROGO
 10
30497.604341291921
 20
2027.749496429288
 30
0.0
 11
30617.604341291921
 21
1947.749496429288
 31
0.0
  0
LINE
  5
3AB2
  8
YODOROGO
 10
30529.604341291939
 20
1679.749496429288
 30
0.0
 11
30617.604341291921
 21
1679.749496429288
 31
0.0
  0
LINE
  5
3AB3
  8
YODOROGO
 10
30617.604341291921
 20
1735.7494964292871
 30
0.0
 11
30529.604341291939
 21
1735.7494964292871
 31
0.0
  0
LINE
  5
3AB4
  8
YODOROGO
 10
30381.604341291932
 20
1795.7494964292871
 30
0.0
 11
30617.604341291921
 21
1795.7494964292871
 31
0.0
  0
LINE
  5
3AB5
  8
YODOROGO
 10
30081.604341291921
 20
2027.749496429288
 30
0.0
 11
30021.604341291921
 21
2027.749496429288
 31
0.0
  0
LINE
  5
3AB6
  8
YODOROGO
 10
30081.604341291921
 20
1827.7494964292871
 30
0.0
 11
30081.604341291921
 21
2027.749496429288
 31
0.0
  0
LINE
  5
3AB7
  8
YODOROGO
 10
30021.604341291921
 20
1827.7494964292871
 30
0.0
 11
30081.604341291921
 21
1827.7494964292871
 31
0.0
  0
LINE
  5
3AB8
  8
YODOROGO
 10
30021.604341291921
 20
2027.749496429288
 30
0.0
 11
30021.604341291921
 21
1827.7494964292871
 31
0.0
  0
LINE
  5
3AB9
  8
YODOROGO
 10
30161.604341291921
 20
2027.749496429288
 30
0.0
 11
30217.604341291921
 21
2027.749496429288
 31
0.0
  0
LINE
  5
3ABA
  8
YODOROGO
 10
30161.604341291921
 20
1811.749496429288
 30
0.0
 11
30161.604341291921
 21
2027.749496429288
 31
0.0
  0
ARC
  5
3ABB
  8
YODOROGO
 10
30121.604341291921
 20
1811.749496429288
 30
0.0
 40
40.0
 50
270.0
 51
0.0
  0
LINE
  5
3ABC
  8
YODOROGO
 10
30021.604341291921
 20
1771.7494964292871
 30
0.0
 11
30121.604341291921
 21
1771.7494964292871
 31
0.0
  0
LINE
  5
3ABD
  8
YODOROGO
 10
30021.604341291921
 20
1707.749496429288
 30
0.0
 11
30021.604341291921
 21
1771.7494964292871
 31
0.0
  0
LINE
  5
3ABE
  8
YODOROGO
 10
30137.604341291921
 20
1707.749496429288
 30
0.0
 11
30021.604341291921
 21
1707.749496429288
 31
0.0
  0
ARC
  5
3ABF
  8
YODOROGO
 10
30137.604341291921
 20
1787.7494964292871
 30
0.0
 40
80.0
 50
270.0
 51
0.0
  0
LINE
  5
3AC0
  8
YODOROGO
 10
30217.604341291921
 20
2027.749496429288
 30
0.0
 11
30217.604341291921
 21
1787.7494964292871
 31
0.0
  0
LINE
  5
3AC1
  8
YODOROGO
 10
29977.604341291921
 20
1947.749496429288
 30
0.0
 11
29977.604341291921
 21
1995.7494964292871
 31
0.0
1001
AUTOCAD_POSTSCRIPT_FIGURE
1002
{
1000
PSFILL
1000
Grayscale
1000
Grayscale
1070
    25
1002
}
  0
LINE
  5
3AC2
  8
YODOROGO
 10
29977.604341291921
 20
1859.749496429288
 30
0.0
 11
29977.604341291921
 21
1907.7494964292871
 31
0.0
1001
AUTOCAD_POSTSCRIPT_FIGURE
1002
{
1000
PSFILL
1000
Grayscale
1000
Grayscale
1070
    25
1002
}
  0
LINE
  5
3AC3
  8
YODOROGO
 10
29977.604341291921
 20
1707.749496429288
 30
0.0
 11
29977.604341291921
 21
1819.7494964292871
 31
0.0
1001
AUTOCAD_POSTSCRIPT_FIGURE
1002
{
1000
PSFILL
1000
Grayscale
1000
Grayscale
1070
    25
1002
}
  0
LINE
  5
3AC4
  8
YODOROGO
 10
30381.604341291932
 20
1907.7494964292871
 30
0.0
 11
30497.604341291921
 21
2027.749496429288
 31
0.0
  0
LINE
  5
3AC5
  8
YODOROGO
 10
30381.604341291932
 20
1819.7494964292871
 30
0.0
 11
30381.604341291932
 21
1907.7494964292871
 31
0.0
  0
LINE
  5
3AC6
  8
YODOROGO
 10
30497.604341291921
 20
1939.749496429288
 30
0.0
 11
30381.604341291932
 21
1819.7494964292871
 31
0.0
  0
LINE
  5
3AC7
  8
YODOROGO
 10
30465.604341291921
 20
1679.749496429288
 30
0.0
 11
30465.604341291921
 21
1735.7494964292871
 31
0.0
  0
LINE
  5
3AC8
  8
YODOROGO
 10
30381.604341291932
 20
1679.749496429288
 30
0.0
 11
30465.604341291921
 21
1679.749496429288
 31
0.0
  0
LINE
  5
3AC9
  8
YODOROGO
 10
30529.604341291939
 20
1735.7494964292871
 30
0.0
 11
30529.604341291939
 21
1679.749496429288
 31
0.0
  0
LINE
  5
3ACA
  8
YODOROGO
 10
30381.604341291932
 20
1735.7494964292871
 30
0.0
 11
30381.604341291932
 21
1795.7494964292871
 31
0.0
  0
LINE
  5
3ACB
  8
YODOROGO
 10
30465.604341291921
 20
1735.7494964292871
 30
0.0
 11
30381.604341291932
 21
1735.7494964292871
 31
0.0
  0
LINE
  5
3ACC
  8
YODOROGO
 10
30645.604341291921
 20
2027.749496429288
 30
0.0
 11
30973.604341291921
 21
2027.749496429288
 31
0.0
  0
LINE
  5
3ACD
  8
YODOROGO
 10
30925.604341291921
 20
1963.749496429286
 30
0.0
 11
30697.604341291932
 21
1963.749496429286
 31
0.0
  0
LINE
  5
3ACE
  8
YODOROGO
 10
30873.604341291921
 20
1819.7494964292871
 30
0.0
 11
30899.604341291932
 21
1819.7494964292871
 31
0.0
  0
LINE
  5
3ACF
  8
YODOROGO
 10
30899.604341291932
 20
1939.749496429288
 30
0.0
 11
30873.604341291921
 21
1819.7494964292871
 31
0.0
  0
LINE
  5
3AD0
  8
YODOROGO
 10
30851.604341291939
 20
1939.749496429288
 30
0.0
 11
30899.604341291932
 21
1939.749496429288
 31
0.0
  0
LINE
  5
3AD1
  8
YODOROGO
 10
30825.604341291921
 20
1819.7494964292871
 30
0.0
 11
30851.604341291939
 21
1939.749496429288
 31
0.0
  0
LINE
  5
3AD2
  8
YODOROGO
 10
30797.604341291921
 20
1819.7494964292871
 30
0.0
 11
30825.604341291921
 21
1819.7494964292871
 31
0.0
  0
LINE
  5
3AD3
  8
YODOROGO
 10
30771.604341291939
 20
1939.749496429288
 30
0.0
 11
30797.604341291921
 21
1819.7494964292871
 31
0.0
  0
LINE
  5
3AD4
  8
YODOROGO
 10
30723.604341291921
 20
1939.749496429288
 30
0.0
 11
30771.604341291939
 21
1939.749496429288
 31
0.0
  0
LINE
  5
3AD5
  8
YODOROGO
 10
30749.604341291921
 20
1819.7494964292871
 30
0.0
 11
30723.604341291921
 21
1939.749496429288
 31
0.0
  0
LINE
  5
3AD6
  8
YODOROGO
 10
30723.604341291921
 20
1819.7494964292871
 30
0.0
 11
30749.604341291921
 21
1819.7494964292871
 31
0.0
  0
LINE
  5
3AD7
  8
YODOROGO
 10
30723.604341291921
 20
1755.7494964292871
 30
0.0
 11
30723.604341291921
 21
1819.7494964292871
 31
0.0
  0
LINE
  5
3AD8
  8
YODOROGO
 10
30899.604341291932
 20
1755.7494964292871
 30
0.0
 11
30723.604341291921
 21
1755.7494964292871
 31
0.0
  0
LINE
  5
3AD9
  8
YODOROGO
 10
30899.604341291932
 20
1819.7494964292871
 30
0.0
 11
30899.604341291932
 21
1755.7494964292871
 31
0.0
  0
LINE
  5
3ADA
  8
YODOROGO
 10
30617.604341291921
 20
1947.749496429288
 30
0.0
 11
30617.604341291921
 21
1859.749496429288
 31
0.0
  0
LINE
  5
3ADB
  8
YODOROGO
 10
30791.604341291921
 20
1755.7494964292871
 30
0.0
 11
30831.604341291921
 21
1755.7494964292871
 31
0.0
  0
LINE
  5
3ADC
  8
YODOROGO
 10
30723.604341291921
 20
1691.749496429288
 30
0.0
 11
30763.604341291921
 21
1691.749496429288
 31
0.0
  0
LINE
  5
3ADD
  8
YODOROGO
 10
30859.604341291932
 20
1691.749496429288
 30
0.0
 11
30899.604341291932
 21
1691.749496429288
 31
0.0
  0
LINE
  5
3ADE
  8
YODOROGO
 10
30617.604341291921
 20
1795.7494964292871
 30
0.0
 11
30617.604341291921
 21
1735.7494964292871
 31
0.0
  0
LINE
  5
3ADF
  8
YODOROGO
 10
31165.604341291921
 20
2027.749496429288
 30
0.0
 11
31165.604341291921
 21
1963.749496429286
 31
0.0
  0
LINE
  5
3AE0
  8
YODOROGO
 10
31533.604341291921
 20
1595.7494964292871
 30
0.0
 11
31533.60434129191
 21
1811.749496429288
 31
0.0
  0
LINE
  5
3AE1
  8
YODOROGO
 10
31461.60434129191
 20
1987.7494964292871
 30
0.0
 11
31461.60434129191
 21
1635.7494964292871
 31
0.0
  0
LINE
  5
3AE2
  8
YODOROGO
 10
31653.604341291921
 20
1427.749496429288
 30
0.0
 11
31653.60434129191
 21
1811.749496429288
 31
0.0
  0
LINE
  5
3AE3
  8
YODOROGO
 10
31589.604341291921
 20
1811.749496429288
 30
0.0
 11
31589.604341291921
 21
1427.749496429288
 31
0.0
  0
LINE
  5
3AE4
  8
YODOROGO
 10
31237.604341291921
 20
1595.7494964292871
 30
0.0
 11
31237.604341291921
 21
1707.749496429288
 31
0.0
  0
ARC
  5
3AE5
  8
YODOROGO
 10
31353.914865116069
 20
1607.790351288558
 30
0.0
 40
180.0924485759885
 50
268.62849102169793
 51
356.16638457330322
  0
LINE
  5
3AE6
  8
YODOROGO
 10
31349.604341291939
 20
1527.749496429288
 30
0.0
 11
31349.604341291939
 21
1427.749496429288
 31
0.0
  0
ARC
  5
3AE7
  8
YODOROGO
 10
31351.518075724562
 20
1637.838957017655
 30
0.0
 40
110.1060929836122
 50
269.00410209305932
 51
358.91264455492478
  0
LINE
  5
3AE8
  8
YODOROGO
 10
31589.604341291921
 20
1427.749496429288
 30
0.0
 11
31653.604341291921
 21
1427.749496429288
 31
0.0
  0
LINE
  5
3AE9
  8
YODOROGO
 10
31533.60434129191
 20
1811.749496429288
 30
0.0
 11
31589.604341291921
 21
1811.749496429288
 31
0.0
  0
LINE
  5
3AEA
  8
YODOROGO
 10
31621.604341291939
 20
1987.7494964292871
 30
0.0
 11
31461.60434129191
 21
1987.7494964292871
 31
0.0
  0
LINE
  5
3AEB
  8
YODOROGO
 10
31533.60434129191
 20
1915.7494964292871
 30
0.0
 11
31661.604341291939
 21
1915.7494964292871
 31
0.0
  0
LINE
  5
3AEC
  8
YODOROGO
 10
31701.604341291939
 20
1875.7494964292871
 30
0.0
 11
31533.60434129191
 21
1875.7494964292871
 31
0.0
  0
LINE
  5
3AED
  8
YODOROGO
 10
31237.604341291921
 20
1779.749496429288
 30
0.0
 11
31349.604341291939
 21
1779.749496429288
 31
0.0
  0
LINE
  5
3AEE
  8
YODOROGO
 10
31237.604341291921
 20
1835.7494964292871
 30
0.0
 11
31237.604341291921
 21
1779.749496429288
 31
0.0
  0
LINE
  5
3AEF
  8
YODOROGO
 10
31349.604341291939
 20
1835.7494964292871
 30
0.0
 11
31237.604341291921
 21
1835.7494964292871
 31
0.0
  0
LINE
  5
3AF0
  8
YODOROGO
 10
31349.604341291939
 20
1779.749496429288
 30
0.0
 11
31349.604341291939
 21
1835.7494964292871
 31
0.0
  0
LINE
  5
3AF1
  8
YODOROGO
 10
31533.60434129191
 20
1875.7494964292871
 30
0.0
 11
31533.60434129191
 21
1915.7494964292871
 31
0.0
  0
LINE
  5
3AF2
  8
YODOROGO
 10
31413.604341291921
 20
1707.749496429288
 30
0.0
 11
31413.604341291921
 21
1907.7494964292871
 31
0.0
  0
LINE
  5
3AF3
  8
YODOROGO
 10
31237.604341291921
 20
1707.749496429288
 30
0.0
 11
31413.604341291921
 21
1707.749496429288
 31
0.0
  0
LINE
  5
3AF4
  8
YODOROGO
 10
31413.604341291921
 20
1963.749496429286
 30
0.0
 11
31413.604341291921
 21
2027.749496429288
 31
0.0
  0
ARC
  5
3AF5
  8
YODOROGO
 10
31621.604341291939
 20
2003.749496429285
 30
0.0
 40
15.999999999994539
 50
270.0
 51
0.0000000000081422
  0
LINE
  5
3AF6
  8
YODOROGO
 10
31637.604341291921
 20
2027.749496429288
 30
0.0
 11
31637.604341291921
 21
2003.7494964292871
 31
0.0
  0
LINE
  5
3AF7
  8
YODOROGO
 10
31701.604341291939
 20
2027.749496429288
 30
0.0
 11
31637.604341291921
 21
2027.749496429288
 31
0.0
  0
LINE
  5
3AF8
  8
YODOROGO
 10
31701.604341291939
 20
1955.7494964292871
 30
0.0
 11
31701.604341291939
 21
2027.749496429288
 31
0.0
  0
ARC
  5
3AF9
  8
YODOROGO
 10
31661.604341291939
 20
1955.7494964292871
 30
0.0
 40
40.0
 50
270.0
 51
0.0
  0
LINE
  5
3AFA
  8
YODOROGO
 10
31701.604341291939
 20
1811.749496429288
 30
0.0
 11
31701.604341291939
 21
1875.7494964292871
 31
0.0
  0
LINE
  5
3AFB
  8
YODOROGO
 10
31653.60434129191
 20
1811.749496429288
 30
0.0
 11
31701.604341291939
 21
1811.749496429288
 31
0.0
  0
LINE
  5
3AFF
  8
SUNPOU
  6
CONTINUOUS
 62
     4
 10
9064.1619694999881
 20
20194.226823000001
 30
0.0
 11
9064.1619694999881
 21
20744.232102000031
 31
0.0
  0
LINE
  5
3B00
  8
SUNPOU
  6
CONTINUOUS
 62
     4
 10
9149.6619694999863
 20
20664.232102000031
 30
0.0
 11
9389.6619694999881
 21
20664.232102000031
 31
0.0
  0
LINE
  5
3B01
  8
SUNPOU
  6
CONTINUOUS
 62
     4
 10
9067.1619694999881
 20
20664.232102000031
 30
0.0
 11
8827.1619694999881
 21
20664.232102000031
 31
0.0
  0
LINE
  5
3B02
  8
SUNPOU
  6
CONTINUOUS
 62
     4
 10
9149.6619694999863
 20
20664.232102000031
 30
0.0
 11
9067.1619694999881
 21
20664.232102000031
 31
0.0
  0
LINE
  5
3B03
  8
SUNPOU
  6
CONTINUOUS
 62
     4
 10
12067.66048549998
 20
20664.232102000031
 30
0.0
 11
9149.6619694999863
 21
20664.232102000031
 31
0.0
  0
LINE
  5
3B04
  8
SUNPOU
  6
CONTINUOUS
 62
     4
 10
14019.66048549999
 20
20194.226823000001
 30
0.0
 11
14019.66048549999
 21
20744.232102000031
 31
0.0
  0
LINE
  5
3B05
  8
SUNPOU
  6
CONTINUOUS
 62
     4
 10
13934.16048549999
 20
20664.232102000031
 30
0.0
 11
13694.16048549999
 21
20664.232102000031
 31
0.0
  0
LINE
  5
3B06
  8
SUNPOU
  6
CONTINUOUS
 62
     4
 10
14016.66048549999
 20
20664.232102000031
 30
0.0
 11
14256.66048549999
 21
20664.232102000031
 31
0.0
  0
LINE
  5
3B07
  8
SUNPOU
  6
CONTINUOUS
 62
     4
 10
13934.16048549999
 20
20664.232102000031
 30
0.0
 11
14016.66048549999
 21
20664.232102000031
 31
0.0
  0
LINE
  5
3B08
  8
SUNPOU
  6
CONTINUOUS
 62
     4
 10
12067.66048549998
 20
20664.232102000031
 30
0.0
 11
13934.16048549999
 21
20664.232102000031
 31
0.0
  0
LINE
  5
3B09
  8
SUNPOU
  6
CONTINUOUS
 62
     4
 10
8987.1561304999905
 20
14213.735599
 30
0.0
 11
8140.1607094999918
 21
14213.735599
 31
0.0
  0
LINE
  5
3B0A
  8
SUNPOU
  6
CONTINUOUS
 62
     4
 10
8220.1607094999908
 20
14406.230913999991
 30
0.0
 11
8220.1607094999908
 21
14213.735599
 31
0.0
  0
LINE
  5
3B0B
  8
SUNPOU
  6
CONTINUOUS
 62
     4
 10
8850.8642964999908
 20
15865.47142550002
 30
0.0
 11
8140.1607094999918
 21
15865.47142550002
 31
0.0
  0
LINE
  5
3B0C
  8
SUNPOU
  6
CONTINUOUS
 62
     4
 10
8220.1607094999908
 20
15865.47142550002
 30
0.0
 11
8220.1607094999908
 21
14406.230913999991
 31
0.0
  0
LINE
  5
3B0D
  8
SUNPOU
  6
CONTINUOUS
 62
     4
 10
8850.8642964999908
 20
15865.47142550002
 30
0.0
 11
8140.1607094999918
 21
15865.47142550002
 31
0.0
  0
LINE
  5
3B0E
  8
SUNPOU
  6
CONTINUOUS
 62
     4
 10
8220.1607094999908
 20
17324.230914
 30
0.0
 11
8220.1607094999908
 21
15865.47142550002
 31
0.0
  0
LINE
  5
3B0F
  8
SUNPOU
  6
CONTINUOUS
 62
     4
 10
8836.7221214999863
 20
18783.230914
 30
0.0
 11
8140.1607094999918
 21
18783.230914
 31
0.0
  0
LINE
  5
3B10
  8
SUNPOU
  6
CONTINUOUS
 62
     4
 10
8220.1607094999908
 20
18783.230914
 30
0.0
 11
8220.1607094999908
 21
17324.230914
 31
0.0
  0
LINE
  5
3B11
  8
SUNPOU
  6
CONTINUOUS
 62
     4
 10
8987.1561304999923
 20
20094.226823000001
 30
0.0
 11
8540.1607094999908
 21
20094.226823000001
 31
0.0
  0
LINE
  5
3B12
  8
SUNPOU
  6
CONTINUOUS
 62
     4
 10
8987.1604854999896
 20
20114.226823000001
 30
0.0
 11
8540.1607094999908
 21
20114.226823000001
 31
0.0
  0
LINE
  5
3B14
  8
SUNPOU
  6
CONTINUOUS
 62
     4
 10
8620.1607094999908
 20
20114.226823000001
 30
0.0
 11
8620.1607094999908
 21
20354.226823000012
 31
0.0
  0
LINE
  5
3B15
  8
SUNPOU
  6
CONTINUOUS
 62
     4
 10
8620.1607094999908
 20
20074.226823000001
 30
0.0
 11
8620.1607094999908
 21
20114.226823000001
 31
0.0
  0
LINE
  5
3B16
  8
SUNPOU
  6
CONTINUOUS
 62
     4
 10
8987.1604854999896
 20
20114.226823000001
 30
0.0
 11
8140.1607094999918
 21
20114.226823000001
 31
0.0
  0
LINE
  5
3B17
  8
SUNPOU
  6
CONTINUOUS
 62
     4
 10
8220.1607094999908
 20
19891.730914
 30
0.0
 11
8220.1607094999908
 21
20114.226823000001
 31
0.0
  0
LINE
  5
3B18
  8
SUNPOU
  6
CONTINUOUS
 62
     4
 10
8836.7221214999863
 20
18783.230914
 30
0.0
 11
8140.1607094999918
 21
18783.230914
 31
0.0
  0
LINE
  5
3B19
  8
SUNPOU
  6
CONTINUOUS
 62
     4
 10
8220.1607094999908
 20
18783.230914
 30
0.0
 11
8220.1607094999908
 21
19891.730914
 31
0.0
  0
LINE
  5
3B1A
  8
SUNPOU
  6
CONTINUOUS
 62
     4
 10
22713.118479499979
 20
20014.229199000009
 30
0.0
 11
22713.118479499979
 21
20744.232102000031
 31
0.0
  0
LINE
  5
3B1B
  8
SUNPOU
  6
CONTINUOUS
 62
     4
 10
23120.61847949999
 20
20014.229199000009
 30
0.0
 11
23120.61847949999
 21
20744.232102000031
 31
0.0
  0
LINE
  5
3B1C
  8
SUNPOU
  6
CONTINUOUS
 62
     4
 10
22713.118479499979
 20
20664.232102000031
 30
0.0
 11
23120.61847949999
 21
20664.232102000031
 31
0.0
  0
LINE
  5
3B1D
  8
SUNPOU
  6
CONTINUOUS
 62
     4
 10
23120.61847949999
 20
20014.229199000009
 30
0.0
 11
23120.61847949999
 21
20744.232102000031
 31
0.0
  0
LINE
  5
3B1E
  8
SUNPOU
  6
CONTINUOUS
 62
     4
 10
23821.61847949999
 20
20014.229199000009
 30
0.0
 11
23821.61847949999
 21
20744.232102000031
 31
0.0
  0
LINE
  5
3B1F
  8
SUNPOU
  6
CONTINUOUS
 62
     4
 10
23120.61847949999
 20
20664.232102000031
 30
0.0
 11
23821.61847949999
 21
20664.232102000031
 31
0.0
  0
LINE
  5
3B20
  8
SUNPOU
  6
CONTINUOUS
 62
     4
 10
20553.118479500001
 20
20014.229199000009
 30
0.0
 11
20553.118479500001
 21
20744.232102000031
 31
0.0
  0
LINE
  5
3B21
  8
SUNPOU
  6
CONTINUOUS
 62
     4
 10
19795.11847949999
 20
20014.229199000009
 30
0.0
 11
19795.11847949999
 21
20744.232102000031
 31
0.0
  0
LINE
  5
3B22
  8
SUNPOU
  6
CONTINUOUS
 62
     4
 10
20553.118479500001
 20
20664.232102000031
 30
0.0
 11
19795.11847949999
 21
20664.232102000031
 31
0.0
  0
LINE
  5
3B23
  8
SUNPOU
  6
CONTINUOUS
 62
     4
 10
24702.11676349998
 20
19484.230914
 30
0.0
 11
25752.11808349999
 21
19484.230914
 31
0.0
  0
LINE
  5
3B24
  8
SUNPOU
  6
CONTINUOUS
 62
     4
 10
25552.11808349999
 20
19891.730914
 30
0.0
 11
25752.11808349999
 21
19891.730914
 31
0.0
  0
LINE
  5
3B25
  8
SUNPOU
  6
CONTINUOUS
 62
     4
 10
25672.11808349999
 20
19484.230914
 30
0.0
 11
25672.11808349999
 21
19891.730914
 31
0.0
  0
LINE
  5
3B26
  8
SUNPOU
  6
CONTINUOUS
 62
     4
 10
19672.622174499989
 20
18783.230914
 30
0.0
 11
18785.6639025
 21
18783.230914
 31
0.0
  0
LINE
  5
3B27
  8
SUNPOU
  6
CONTINUOUS
 62
     4
 10
18865.663902499979
 20
18783.230914
 30
0.0
 11
18865.663902499979
 21
19891.730914
 31
0.0
  0
LINE
  5
3B28
  8
SUNPOU
  6
CONTINUOUS
 62
     4
 10
19672.622174499989
 20
18783.230914
 30
0.0
 11
18785.6639025
 21
18783.230914
 31
0.0
  0
LINE
  5
3B29
  8
SUNPOU
  6
CONTINUOUS
 62
     4
 10
18865.663902499979
 20
17324.230914
 30
0.0
 11
18865.663902499979
 21
18783.230914
 31
0.0
  0
LINE
  5
3B2A
  8
SUNPOU
  6
CONTINUOUS
 62
     4
 10
19672.622174499989
 20
15865.471425500011
 30
0.0
 11
18785.6639025
 21
15865.471425500011
 31
0.0
  0
LINE
  5
3B2B
  8
SUNPOU
  6
CONTINUOUS
 62
     4
 10
18865.663902499979
 20
15865.471425500011
 30
0.0
 11
18865.663902499979
 21
17324.230914
 31
0.0
  0
LINE
  5
3B2C
  8
SUNPOU
  6
CONTINUOUS
 62
     4
 10
19672.622174499989
 20
15865.471425500011
 30
0.0
 11
18785.6639025
 21
15865.471425500011
 31
0.0
  0
LINE
  5
3B2D
  8
SUNPOU
  6
CONTINUOUS
 62
     4
 10
18865.663902499979
 20
14406.230913999991
 30
0.0
 11
18865.663902499979
 21
15865.471425500011
 31
0.0
  0
LINE
  5
3B2E
  8
SUNPOU
  6
CONTINUOUS
 62
     4
 10
19795.11847949999
 20
13700.467479999999
 30
0.0
 11
19795.11847949999
 21
13354.78283
 31
0.0
  0
LINE
  5
3B2F
  8
SUNPOU
  6
CONTINUOUS
 62
     4
 10
19752.616236499991
 20
14283.733619000001
 30
0.0
 11
19752.616236499991
 21
13354.78283
 31
0.0
  0
LINE
  5
3B30
  8
SUNPOU
  6
CONTINUOUS
 62
     4
 10
19795.11847949999
 20
13434.78283
 30
0.0
 11
20035.118479500001
 21
13434.78283
 31
0.0
  0
LINE
  5
3B31
  8
SUNPOU
  6
CONTINUOUS
 62
     4
 10
19752.616236499991
 20
13434.78283
 30
0.0
 11
19512.616236499991
 21
13434.78283
 31
0.0
  0
LINE
  5
3B32
  8
SUNPOU
  6
CONTINUOUS
 62
     4
 10
19795.11847949999
 20
13434.78283
 30
0.0
 11
19752.616236499991
 21
13434.78283
 31
0.0
  0
LINE
  5
3B33
  8
SUNPOU
  6
CONTINUOUS
 62
     4
 10
24579.618479500001
 20
13700.467479999999
 30
0.0
 11
24579.618479500001
 21
13354.78283
 31
0.0
  0
LINE
  5
3B34
  8
SUNPOU
  6
CONTINUOUS
 62
     4
 10
24622.1207225
 20
14283.733619000001
 30
0.0
 11
24622.1207225
 21
13354.78283
 31
0.0
  0
LINE
  5
3B35
  8
SUNPOU
  6
CONTINUOUS
 62
     4
 10
24579.618479500001
 20
13434.78283
 30
0.0
 11
24339.618479500001
 21
13434.78283
 31
0.0
  0
LINE
  5
3B36
  8
SUNPOU
  6
CONTINUOUS
 62
     4
 10
24622.1207225
 20
13434.78283
 30
0.0
 11
24862.1207225
 21
13434.78283
 31
0.0
  0
LINE
  5
3B37
  8
SUNPOU
  6
CONTINUOUS
 62
     4
 10
24579.618479500001
 20
13434.78283
 30
0.0
 11
24622.1207225
 21
13434.78283
 31
0.0
  0
LINE
  5
3B38
  8
2-0
  6
CONTINUOUS
 62
     3
 10
22670.61847949999
 20
14363.730913999991
 30
0.0
 11
22755.61847949999
 21
14363.730913999991
 31
0.0
  0
LINE
  5
3B39
  8
2-0
  6
CONTINUOUS
 62
     3
 10
22755.61847949999
 20
14363.730913999991
 30
0.0
 11
22755.61847949999
 21
14448.730913999991
 31
0.0
  0
LINE
  5
3B3A
  8
2-0
  6
CONTINUOUS
 62
     3
 10
22755.61847949999
 20
14448.730913999991
 30
0.0
 11
22670.61847949999
 21
14448.730913999991
 31
0.0
  0
LINE
  5
3B3B
  8
2-0
  6
CONTINUOUS
 62
     3
 10
22670.61847949999
 20
14448.730913999991
 30
0.0
 11
22670.61847949999
 21
14363.730913999991
 31
0.0
  0
LINE
  5
3B3C
  8
SUNPOU
  6
CONTINUOUS
 62
     4
 10
24579.618479500001
 20
13700.467479999999
 30
0.0
 11
24579.618479500001
 21
13354.78283
 31
0.0
  0
LINE
  5
3B3D
  8
SUNPOU
  6
CONTINUOUS
 62
     4
 10
24537.116236499991
 20
14283.733619000001
 30
0.0
 11
24537.116236499991
 21
13354.78283
 31
0.0
  0
LINE
  5
3B3E
  8
SUNPOU
  6
CONTINUOUS
 62
     4
 10
24579.618479500001
 20
13434.78283
 30
0.0
 11
24819.618479500001
 21
13434.78283
 31
0.0
  0
LINE
  5
3B3F
  8
SUNPOU
  6
CONTINUOUS
 62
     4
 10
24537.116236499991
 20
13434.78283
 30
0.0
 11
24297.116236499991
 21
13434.78283
 31
0.0
  0
LINE
  5
3B40
  8
SUNPOU
  6
CONTINUOUS
 62
     4
 10
24579.618479500001
 20
13434.78283
 30
0.0
 11
24537.116236499991
 21
13434.78283
 31
0.0
  0
LINE
  5
3B41
  8
SUNPOU
  6
CONTINUOUS
 62
     4
 10
19795.11847949999
 20
13700.467479999999
 30
0.0
 11
19795.11847949999
 21
13354.78283
 31
0.0
  0
LINE
  5
3B42
  8
SUNPOU
  6
CONTINUOUS
 62
     4
 10
19837.620722499982
 20
14283.733619000001
 30
0.0
 11
19837.620722499982
 21
13354.78283
 31
0.0
  0
LINE
  5
3B43
  8
SUNPOU
  6
CONTINUOUS
 62
     4
 10
19795.11847949999
 20
13434.78283
 30
0.0
 11
19555.11847949999
 21
13434.78283
 31
0.0
  0
LINE
  5
3B44
  8
SUNPOU
  6
CONTINUOUS
 62
     4
 10
19837.620722499982
 20
13434.78283
 30
0.0
 11
20077.620722499982
 21
13434.78283
 31
0.0
  0
LINE
  5
3B45
  8
SUNPOU
  6
CONTINUOUS
 62
     4
 10
19795.11847949999
 20
13434.78283
 30
0.0
 11
19837.620722499982
 21
13434.78283
 31
0.0
  0
LINE
  5
3B46
  8
SUNPOU
  6
CONTINUOUS
 62
     4
 10
19752.616236499991
 20
14283.733619000001
 30
0.0
 11
19752.616236499991
 21
12954.78283
 31
0.0
  0
LINE
  5
3B47
  8
SUNPOU
  6
CONTINUOUS
 62
     4
 10
24622.1207225
 20
14283.733619000001
 30
0.0
 11
24622.1207225
 21
12954.78283
 31
0.0
  0
LINE
  5
3B48
  8
SUNPOU
  6
CONTINUOUS
 62
     4
 10
19752.616236499991
 20
13034.78283
 30
0.0
 11
24622.1207225
 21
13034.78283
 31
0.0
  0
LINE
  5
3B49
  8
SUNPOU
  6
CONTINUOUS
 62
     4
 10
24702.116763499991
 20
15164.230913999991
 30
0.0
 11
25752.11808349999
 21
15164.230913999991
 31
0.0
  0
LINE
  5
3B4A
  8
SUNPOU
  6
CONTINUOUS
 62
     4
 10
25552.11808349999
 20
14406.230913999991
 30
0.0
 11
25752.11808349999
 21
14406.230913999991
 31
0.0
  0
LINE
  5
3B4B
  8
SUNPOU
  6
CONTINUOUS
 62
     4
 10
25672.11808349999
 20
15164.230913999991
 30
0.0
 11
25672.11808349999
 21
14406.230913999991
 31
0.0
  0
LINE
  5
3B4C
  8
SUNPOU
  6
CONTINUOUS
 62
     4
 10
24702.116763499991
 20
15865.471425500011
 30
0.0
 11
25752.11808349999
 21
15865.471425500011
 31
0.0
  0
LINE
  5
3B4D
  8
SUNPOU
  6
CONTINUOUS
 62
     4
 10
24702.116763499991
 20
15164.230913999991
 30
0.0
 11
25752.11808349999
 21
15164.230913999991
 31
0.0
  0
LINE
  5
3B4E
  8
SUNPOU
  6
CONTINUOUS
 62
     4
 10
25672.11808349999
 20
15865.471425500011
 30
0.0
 11
25672.11808349999
 21
15164.230913999991
 31
0.0
  0
LINE
  5
3B4F
  8
SUNPOU
  6
CONTINUOUS
 62
     4
 10
24702.116763499991
 20
16566.230914
 30
0.0
 11
25752.11808349999
 21
16566.230914
 31
0.0
  0
LINE
  5
3B50
  8
SUNPOU
  6
CONTINUOUS
 62
     4
 10
24702.116763499991
 20
15865.471425500011
 30
0.0
 11
25752.11808349999
 21
15865.471425500011
 31
0.0
  0
LINE
  5
3B51
  8
SUNPOU
  6
CONTINUOUS
 62
     4
 10
25672.11808349999
 20
16566.230914
 30
0.0
 11
25672.11808349999
 21
15865.471425500011
 31
0.0
  0
LINE
  5
3B52
  8
SUNPOU
  6
CONTINUOUS
 62
     4
 10
25552.11808349999
 20
17324.230914
 30
0.0
 11
25752.11808349999
 21
17324.230914
 31
0.0
  0
LINE
  5
3B53
  8
SUNPOU
  6
CONTINUOUS
 62
     4
 10
24702.116763499991
 20
16566.230914
 30
0.0
 11
25752.11808349999
 21
16566.230914
 31
0.0
  0
LINE
  5
3B54
  8
SUNPOU
  6
CONTINUOUS
 62
     4
 10
25672.11808349999
 20
17324.230914
 30
0.0
 11
25672.11808349999
 21
16566.230914
 31
0.0
  0
LINE
  5
3B55
  8
SUNPOU
  6
CONTINUOUS
 62
     4
 10
24702.116763499991
 20
18082.230914
 30
0.0
 11
25752.11808349999
 21
18082.230914
 31
0.0
  0
LINE
  5
3B56
  8
SUNPOU
  6
CONTINUOUS
 62
     4
 10
25552.11808349999
 20
17324.230914
 30
0.0
 11
25752.11808349999
 21
17324.230914
 31
0.0
  0
LINE
  5
3B57
  8
SUNPOU
  6
CONTINUOUS
 62
     4
 10
25672.11808349999
 20
18082.230914
 30
0.0
 11
25672.11808349999
 21
17324.230914
 31
0.0
  0
LINE
  5
3B58
  8
SUNPOU
  6
CONTINUOUS
 62
     4
 10
24702.116763499991
 20
18783.230914
 30
0.0
 11
25752.11808349999
 21
18783.230914
 31
0.0
  0
LINE
  5
3B59
  8
SUNPOU
  6
CONTINUOUS
 62
     4
 10
24702.116763499991
 20
18082.230914
 30
0.0
 11
25752.11808349999
 21
18082.230914
 31
0.0
  0
LINE
  5
3B5A
  8
SUNPOU
  6
CONTINUOUS
 62
     4
 10
25672.11808349999
 20
18783.230914
 30
0.0
 11
25672.11808349999
 21
18082.230914
 31
0.0
  0
LINE
  5
3B5B
  8
SUNPOU
  6
CONTINUOUS
 62
     4
 10
24702.116763499991
 20
19484.230914
 30
0.0
 11
25752.11808349999
 21
19484.230914
 31
0.0
  0
LINE
  5
3B5C
  8
SUNPOU
  6
CONTINUOUS
 62
     4
 10
24702.116763499991
 20
18783.230914
 30
0.0
 11
25752.11808349999
 21
18783.230914
 31
0.0
  0
LINE
  5
3B5D
  8
SUNPOU
  6
CONTINUOUS
 62
     4
 10
25672.11808349999
 20
19484.230914
 30
0.0
 11
25672.11808349999
 21
18783.230914
 31
0.0
  0
LINE
  5
3B5E
  8
SUNPOU
  6
CONTINUOUS
 62
     4
 10
25552.11808349999
 20
17324.230914
 30
0.0
 11
26152.11808349999
 21
17324.230914
 31
0.0
  0
LINE
  5
3B5F
  8
SUNPOU
  6
CONTINUOUS
 62
     4
 10
25552.11808349999
 20
19891.730914
 30
0.0
 11
26152.11808349999
 21
19891.730914
 31
0.0
  0
LINE
  5
3B60
  8
SUNPOU
  6
CONTINUOUS
 62
     4
 10
26072.11808349999
 20
17324.230914
 30
0.0
 11
26072.11808349999
 21
19891.730914
 31
0.0
  0
LINE
  5
3B61
  8
SUNPOU
  6
CONTINUOUS
 62
     4
 10
25552.11808349999
 20
14406.230913999991
 30
0.0
 11
26152.11808349999
 21
14406.230913999991
 31
0.0
  0
LINE
  5
3B62
  8
SUNPOU
  6
CONTINUOUS
 62
     4
 10
25552.11808349999
 20
17324.230914
 30
0.0
 11
26152.11808349999
 21
17324.230914
 31
0.0
  0
LINE
  5
3B63
  8
SUNPOU
  6
CONTINUOUS
 62
     4
 10
26072.11808349999
 20
14406.230913999991
 30
0.0
 11
26072.11808349999
 21
17324.230914
 31
0.0
  0
LINE
  5
3B64
  8
SUNPOU
  6
CONTINUOUS
 62
     4
 10
24702.116763499991
 20
19934.228209000001
 30
0.0
 11
26552.11808349999
 21
19934.228209000001
 31
0.0
  0
LINE
  5
3B65
  8
SUNPOU
  6
CONTINUOUS
 62
     4
 10
24702.116763499991
 20
14363.733619000001
 30
0.0
 11
26552.11808349999
 21
14363.733619000001
 31
0.0
  0
LINE
  5
3B66
  8
SUNPOU
  6
CONTINUOUS
 62
     4
 10
26472.11808349999
 20
19934.228209000001
 30
0.0
 11
26472.11808349999
 21
14363.733619000001
 31
0.0
  0
LINE
  5
3B67
  8
SUNPOU
  6
CONTINUOUS
 62
     4
 10
25552.11808349999
 20
19891.730914
 30
0.0
 11
26152.11808349999
 21
19891.730914
 31
0.0
  0
LINE
  5
3B68
  8
SUNPOU
  6
CONTINUOUS
 62
     4
 10
24702.116763499991
 20
19934.228209000001
 30
0.0
 11
26152.11808349999
 21
19934.228209000001
 31
0.0
  0
LINE
  5
3B69
  8
SUNPOU
  6
CONTINUOUS
 62
     4
 10
26072.11808349999
 20
19891.730914
 30
0.0
 11
26072.11808349999
 21
19651.730914
 31
0.0
  0
LINE
  5
3B6A
  8
SUNPOU
  6
CONTINUOUS
 62
     4
 10
26072.11808349999
 20
19934.228209000001
 30
0.0
 11
26072.11808349999
 21
20174.228209000001
 31
0.0
  0
LINE
  5
3B6B
  8
SUNPOU
  6
CONTINUOUS
 62
     4
 10
26072.11808349999
 20
19891.730914
 30
0.0
 11
26072.11808349999
 21
19934.228209000001
 31
0.0
  0
LINE
  5
3B6C
  8
SUNPOU
  6
CONTINUOUS
 62
     4
 10
25552.11808349999
 20
14406.230913999991
 30
0.0
 11
26152.11808349999
 21
14406.230913999991
 31
0.0
  0
LINE
  5
3B6D
  8
SUNPOU
  6
CONTINUOUS
 62
     4
 10
24702.116763499991
 20
14363.733619000001
 30
0.0
 11
26152.11808349999
 21
14363.733619000001
 31
0.0
  0
LINE
  5
3B6E
  8
SUNPOU
  6
CONTINUOUS
 62
     4
 10
26072.11808349999
 20
14406.230913999991
 30
0.0
 11
26072.11808349999
 21
14646.230913999991
 31
0.0
  0
LINE
  5
3B6F
  8
SUNPOU
  6
CONTINUOUS
 62
     4
 10
26072.11808349999
 20
14363.733619000001
 30
0.0
 11
26072.11808349999
 21
14123.733619000001
 31
0.0
  0
LINE
  5
3B70
  8
SUNPOU
  6
CONTINUOUS
 62
     4
 10
26072.11808349999
 20
14406.230913999991
 30
0.0
 11
26072.11808349999
 21
14363.733619000001
 31
0.0
  0
LINE
  5
3B71
  8
SUNPOU
  6
CONTINUOUS
 62
     4
 10
23821.61847949999
 20
20014.229199000009
 30
0.0
 11
23821.61847949999
 21
20744.232102000031
 31
0.0
  0
LINE
  5
3B72
  8
SUNPOU
  6
CONTINUOUS
 62
     4
 10
24579.619469000008
 20
20014.229199000009
 30
0.0
 11
24579.619469000008
 21
20744.232102000031
 31
0.0
  0
LINE
  5
3B73
  8
SUNPOU
  6
CONTINUOUS
 62
     4
 10
23821.61847949999
 20
20664.232102000031
 30
0.0
 11
24579.619469000008
 21
20664.232102000031
 31
0.0
  0
LINE
  5
3B74
  8
SUNPOU
  6
CONTINUOUS
 62
     4
 10
24579.618479500001
 20
20014.229199000009
 30
0.0
 11
24579.618479500001
 21
20744.232102000031
 31
0.0
  0
LINE
  5
3B75
  8
SUNPOU
  6
CONTINUOUS
 62
     4
 10
24622.11478449999
 20
20014.229199000009
 30
0.0
 11
24622.11478449999
 21
20744.232102000031
 31
0.0
  0
LINE
  5
3B76
  8
SUNPOU
  6
CONTINUOUS
 62
     4
 10
24579.618479500001
 20
20664.232102000031
 30
0.0
 11
24339.618479500001
 21
20664.232102000031
 31
0.0
  0
LINE
  5
3B77
  8
SUNPOU
  6
CONTINUOUS
 62
     4
 10
24622.11478449999
 20
20664.232102000031
 30
0.0
 11
24862.114784500001
 21
20664.232102000031
 31
0.0
  0
LINE
  5
3B78
  8
SUNPOU
  6
CONTINUOUS
 62
     4
 10
24579.618479500001
 20
20664.232102000031
 30
0.0
 11
24622.11478449999
 21
20664.232102000031
 31
0.0
  0
LINE
  5
3B79
  8
SUNPOU
  6
CONTINUOUS
 62
     4
 10
19795.11847949999
 20
20014.229199000009
 30
0.0
 11
19795.11847949999
 21
20744.232102000031
 31
0.0
  0
LINE
  5
3B7A
  8
SUNPOU
  6
CONTINUOUS
 62
     4
 10
19752.622174499989
 20
20014.229199000009
 30
0.0
 11
19752.622174499989
 21
20744.232102000031
 31
0.0
  0
LINE
  5
3B7B
  8
SUNPOU
  6
CONTINUOUS
 62
     4
 10
19795.11847949999
 20
20664.232102000031
 30
0.0
 11
20035.118479500001
 21
20664.232102000031
 31
0.0
  0
LINE
  5
3B7C
  8
SUNPOU
  6
CONTINUOUS
 62
     4
 10
19752.622174499989
 20
20664.232102000031
 30
0.0
 11
19512.622174499978
 21
20664.232102000031
 31
0.0
  0
LINE
  5
3B7D
  8
SUNPOU
  6
CONTINUOUS
 62
     4
 10
19795.11847949999
 20
20664.232102000031
 30
0.0
 11
19752.622174499989
 21
20664.232102000031
 31
0.0
  0
LINE
  5
3B7E
  8
SUNPOU
  6
CONTINUOUS
 62
     4
 10
21955.11847949999
 20
20014.229199000009
 30
0.0
 11
21955.11847949999
 21
20744.232102000031
 31
0.0
  0
LINE
  5
3B7F
  8
SUNPOU
  6
CONTINUOUS
 62
     4
 10
22713.119469000001
 20
20014.229199000009
 30
0.0
 11
22713.119469000001
 21
20744.232102000031
 31
0.0
  0
LINE
  5
3B80
  8
SUNPOU
  6
CONTINUOUS
 62
     4
 10
21955.11847949999
 20
20664.232102000031
 30
0.0
 11
22713.119469000001
 21
20664.232102000031
 31
0.0
  0
LINE
  5
3B81
  8
SUNPOU
  6
CONTINUOUS
 62
     4
 10
21254.11847949999
 20
20014.229199000009
 30
0.0
 11
21254.11847949999
 21
20744.232102000031
 31
0.0
  0
LINE
  5
3B82
  8
SUNPOU
  6
CONTINUOUS
 62
     4
 10
21955.11847949999
 20
20014.229199000009
 30
0.0
 11
21955.11847949999
 21
20744.232102000031
 31
0.0
  0
LINE
  5
3B83
  8
SUNPOU
  6
CONTINUOUS
 62
     4
 10
21254.11847949999
 20
20664.232102000031
 30
0.0
 11
21955.11847949999
 21
20664.232102000031
 31
0.0
  0
LINE
  5
3B84
  8
SUNPOU
  6
CONTINUOUS
 62
     4
 10
20553.118479500001
 20
20014.229199000009
 30
0.0
 11
20553.118479500001
 21
20744.232102000031
 31
0.0
  0
LINE
  5
3B85
  8
SUNPOU
  6
CONTINUOUS
 62
     4
 10
21254.11847949999
 20
20014.229199000009
 30
0.0
 11
21254.11847949999
 21
20744.232102000031
 31
0.0
  0
LINE
  5
3B86
  8
SUNPOU
  6
CONTINUOUS
 62
     4
 10
20553.118479500001
 20
20664.232102000031
 30
0.0
 11
21254.11847949999
 21
20664.232102000031
 31
0.0
  0
LINE
  5
3B87
  8
SUNPOU
  6
CONTINUOUS
 62
     4
 10
8769.3738785000023
 20
8722.9653796838102
 30
0.0
 11
8769.3738785000023
 21
9843.7812800000029
 31
0.0
  0
LINE
  5
3B88
  8
SUNPOU
  6
CONTINUOUS
 62
     4
 10
8589.3738785000023
 20
8852.7796040000067
 30
0.0
 11
8589.3738785000023
 21
9843.7812800000029
 31
0.0
  0
LINE
  5
3B89
  8
SUNPOU
  6
CONTINUOUS
 62
     4
 10
8769.3738785000023
 20
9763.7812800000029
 30
0.0
 11
8589.3738785000023
 21
9763.7812800000029
 31
0.0
  0
LINE
  5
3B8A
  8
SUNPOU
  6
CONTINUOUS
 62
     4
 10
19665.1178205
 20
6615.7796039999957
 30
0.0
 11
18865.119139499991
 21
6615.7796039999957
 31
0.0
  0
LINE
  5
3B8B
  8
SUNPOU
  6
CONTINUOUS
 62
     4
 10
19665.1178205
 20
8507.2796039999957
 30
0.0
 11
18865.119139499991
 21
8507.2796039999957
 31
0.0
  0
LINE
  5
3B8C
  8
SUNPOU
  6
CONTINUOUS
 62
     4
 10
18945.119139499991
 20
6615.7796039999957
 30
0.0
 11
18945.119139499991
 21
8507.2796039999957
 31
0.0
  0
LINE
  5
3B8D
  8
SUNPOU
  6
CONTINUOUS
 62
     4
 10
19665.1178205
 20
6615.7796039999957
 30
0.0
 11
18465.116830499981
 21
6615.7796039999957
 31
0.0
  0
LINE
  5
3B8E
  8
SUNPOU
  6
CONTINUOUS
 62
     4
 10
19632.618084499969
 20
8964.2791089999973
 30
0.0
 11
18465.116830499988
 21
8964.2791089999973
 31
0.0
  0
LINE
  5
3B8F
  8
SUNPOU
  6
CONTINUOUS
 62
     4
 10
18545.116830499981
 20
6615.7796039999957
 30
0.0
 11
18545.116830499988
 21
8964.2791089999973
 31
0.0
  0
LINE
  5
3BA0
  8
SUNPOU
  6
CONTINUOUS
 62
     4
 10
19889.118479499979
 20
6435.7797690000007
 30
0.0
 11
19889.118479499979
 21
5635.7797689999989
 31
0.0
  0
LINE
  5
3BA1
  8
SUNPOU
  6
CONTINUOUS
 62
     4
 10
22619.11847949999
 20
6435.7797690000007
 30
0.0
 11
22619.11847949999
 21
5635.7797689999989
 31
0.0
  0
LINE
  5
3BA2
  8
SUNPOU
  6
CONTINUOUS
 62
     4
 10
19889.118479499979
 20
5715.7797689999998
 30
0.0
 11
22619.11847949999
 21
5715.7797689999998
 31
0.0
  0
LINE
  5
3BA3
  8
SUNPOU
  6
CONTINUOUS
 62
     4
 10
22807.11847949999
 20
6435.7797690000007
 30
0.0
 11
22807.11847949999
 21
5635.7797689999989
 31
0.0
  0
LINE
  5
3BA4
  8
SUNPOU
  6
CONTINUOUS
 62
     4
 10
24485.61847949999
 20
6435.7797690000007
 30
0.0
 11
24485.61847949999
 21
5635.7797689999989
 31
0.0
  0
LINE
  5
3BA5
  8
SUNPOU
  6
CONTINUOUS
 62
     4
 10
22807.11847949999
 20
5715.7797689999998
 30
0.0
 11
24485.61847949999
 21
5715.7797689999998
 31
0.0
  0
LINE
  5
3BA6
  8
SUNPOU
  6
CONTINUOUS
 62
     4
 10
22713.118479499979
 20
6173.1273459999966
 30
0.0
 11
22713.118479499979
 21
5235.7797689999998
 31
0.0
  0
LINE
  5
3BA7
  8
SUNPOU
  6
CONTINUOUS
 62
     4
 10
24579.618479500001
 20
6173.1273459999966
 30
0.0
 11
24579.618479500001
 21
5235.7797689999998
 31
0.0
  0
LINE
  5
3BA8
  8
SUNPOU
  6
CONTINUOUS
 62
     4
 10
22713.118479499979
 20
5315.7797690000016
 30
0.0
 11
24579.618479500001
 21
5315.7797690000016
 31
0.0
  0
LINE
  5
3BA9
  8
SUNPOU
  6
CONTINUOUS
 62
     4
 10
19795.11847949999
 20
6173.1273459999966
 30
0.0
 11
19795.11847949999
 21
5235.7797689999998
 31
0.0
  0
LINE
  5
3BAA
  8
SUNPOU
  6
CONTINUOUS
 62
     4
 10
22713.118479499979
 20
6173.1273459999966
 30
0.0
 11
22713.118479499979
 21
5235.7797689999998
 31
0.0
  0
LINE
  5
3BAB
  8
SUNPOU
  6
CONTINUOUS
 62
     4
 10
19795.11847949999
 20
5315.7797690000016
 30
0.0
 11
22713.118479499979
 21
5315.7797690000016
 31
0.0
  0
LINE
  5
3BAC
  8
SUNPOU
  6
CONTINUOUS
 62
     4
 10
24579.622438499991
 20
6173.1273459999966
 30
0.0
 11
24579.622438499991
 21
5235.7797689999998
 31
0.0
  0
LINE
  5
3BAD
  8
SUNPOU
  6
CONTINUOUS
 62
     4
 10
24622.122438499991
 20
6435.7797690000007
 30
0.0
 11
24622.122438499991
 21
5235.7797689999998
 31
0.0
  0
LINE
  5
3BAE
  8
SUNPOU
  6
CONTINUOUS
 62
     4
 10
24579.622438499991
 20
5315.7797690000016
 30
0.0
 11
24339.622438499991
 21
5315.7797690000016
 31
0.0
  0
LINE
  5
3BAF
  8
SUNPOU
  6
CONTINUOUS
 62
     4
 10
24622.122438499991
 20
5315.7797690000016
 30
0.0
 11
24862.122438499991
 21
5315.7797690000016
 31
0.0
  0
LINE
  5
3BB0
  8
SUNPOU
  6
CONTINUOUS
 62
     4
 10
24579.622438499991
 20
5315.7797690000016
 30
0.0
 11
24622.122438499991
 21
5315.7797690000016
 31
0.0
  0
LINE
  5
3BB1
  8
SUNPOU
  6
CONTINUOUS
 62
     4
 10
19795.11847949999
 20
6173.1273459999966
 30
0.0
 11
19795.11847949999
 21
5235.7797689999998
 31
0.0
  0
LINE
  5
3BB2
  8
SUNPOU
  6
CONTINUOUS
 62
     4
 10
19752.618479499979
 20
6435.7797690000007
 30
0.0
 11
19752.618479499979
 21
5235.7797689999998
 31
0.0
  0
LINE
  5
3BB3
  8
SUNPOU
  6
CONTINUOUS
 62
     4
 10
19795.11847949999
 20
5315.7797690000016
 30
0.0
 11
20035.118479500001
 21
5315.7797690000016
 31
0.0
  0
LINE
  5
3BB4
  8
SUNPOU
  6
CONTINUOUS
 62
     4
 10
19752.618479499979
 20
5315.7797690000016
 30
0.0
 11
19512.618479499979
 21
5315.7797690000016
 31
0.0
  0
LINE
  5
3BB5
  8
SUNPOU
  6
CONTINUOUS
 62
     4
 10
19795.11847949999
 20
5315.7797690000016
 30
0.0
 11
19752.618479499979
 21
5315.7797690000016
 31
0.0
  0
LINE
  5
3BB6
  8
SUNPOU
  6
CONTINUOUS
 62
     4
 10
19752.618479499979
 20
6435.7797690000007
 30
0.0
 11
19752.618479499979
 21
4835.7799339999983
 31
0.0
  0
LINE
  5
3BB7
  8
SUNPOU
  6
CONTINUOUS
 62
     4
 10
24622.11847949999
 20
6435.7797690000007
 30
0.0
 11
24622.11847949999
 21
4835.7799339999983
 31
0.0
  0
LINE
  5
3BB8
  8
SUNPOU
  6
CONTINUOUS
 62
     4
 10
19752.618479499979
 20
4915.7799339999983
 30
0.0
 11
24622.11847949999
 21
4915.7799339999983
 31
0.0
  0
LINE
  5
3BB9
  8
SUNPOU
  6
CONTINUOUS
 62
     4
 10
14432.373878500001
 20
6615.7796040000021
 30
0.0
 11
15509.87229449999
 21
6615.7796040000021
 31
0.0
  0
LINE
  5
3BBA
  8
SUNPOU
  6
CONTINUOUS
 62
     4
 10
14524.679158099359
 20
8964.279604000003
 30
0.0
 11
15509.87229449999
 21
8964.279604000003
 31
0.0
  0
LINE
  5
3BBB
  8
SUNPOU
  6
CONTINUOUS
 62
     4
 10
15429.87229449999
 20
6615.7796040000021
 30
0.0
 11
15429.87229449999
 21
8964.279604000003
 31
0.0
  0
LINE
  5
3BBC
  8
SUNPOU
  6
CONTINUOUS
 62
     4
 10
8681.8738785000005
 20
6615.7796040000021
 30
0.0
 11
7599.3754605000086
 21
6615.7796040000021
 31
0.0
  0
LINE
  5
3BBD
  8
SUNPOU
  6
CONTINUOUS
 62
     4
 10
8509.3758565000026
 20
8771.7796040000067
 30
0.0
 11
7599.3754605000086
 21
8771.7796040000067
 31
0.0
  0
LINE
  5
3BBE
  8
SUNPOU
  6
CONTINUOUS
 62
     4
 10
7679.3754605000104
 20
6615.7796040000021
 30
0.0
 11
7679.3754605000104
 21
8771.7796040000067
 31
0.0
  0
LINE
  5
3BBF
  8
SUNPOU
  6
CONTINUOUS
 62
     4
 10
8589.3738785000023
 20
8852.7796040000067
 30
0.0
 11
8589.3738785000023
 21
10243.779630000001
 31
0.0
  0
LINE
  5
3BC0
  8
SUNPOU
  6
CONTINUOUS
 62
     4
 10
14489.873878500001
 20
8984.6694274124347
 30
0.0
 11
14489.873878500001
 21
10243.779630000001
 31
0.0
  0
LINE
  5
3BC1
  8
SUNPOU
  6
CONTINUOUS
 62
     4
 10
8589.3738785000023
 20
10163.779630000001
 30
0.0
 11
14489.873878500001
 21
10163.779630000001
 31
0.0
  0
LINE
  5
3BC2
  8
SUNPOU
  6
CONTINUOUS
 62
     4
 10
14339.873878500001
 20
8910.6896680000063
 30
0.0
 11
14339.873878500001
 21
9843.7812800000029
 31
0.0
  0
LINE
  5
3BC3
  8
SUNPOU
  6
CONTINUOUS
 62
     4
 10
14489.873878500001
 20
8984.6694274124347
 30
0.0
 11
14489.873878500001
 21
9843.7812800000029
 31
0.0
  0
LINE
  5
3BC4
  8
SUNPOU
  6
CONTINUOUS
 62
     4
 10
14339.873878500001
 20
9763.7812800000029
 30
0.0
 11
14099.873878500001
 21
9763.7812800000029
 31
0.0
  0
LINE
  5
3BC5
  8
SUNPOU
  6
CONTINUOUS
 62
     4
 10
14489.873878500001
 20
9763.7812800000029
 30
0.0
 11
14729.873878500001
 21
9763.7812800000029
 31
0.0
  0
LINE
  5
3BC6
  8
SUNPOU
  6
CONTINUOUS
 62
     4
 10
14339.873878500001
 20
9763.7812800000029
 30
0.0
 11
14489.873878500001
 21
9763.7812800000029
 31
0.0
  0
LINE
  5
3BC7
  8
SUNPOU
  6
CONTINUOUS
 62
     4
 10
8769.3738785000023
 20
8722.9653796838102
 30
0.0
 11
8769.3738785000023
 21
9843.7812800000029
 31
0.0
  0
LINE
  5
3BC8
  8
SUNPOU
  6
CONTINUOUS
 62
     4
 10
14339.873878500001
 20
8910.6896680000063
 30
0.0
 11
14339.873878500001
 21
9843.7812800000029
 31
0.0
  0
LINE
  5
3BC9
  8
SUNPOU
  6
CONTINUOUS
 62
     4
 10
8769.3738785000023
 20
9763.7812800000029
 30
0.0
 11
14339.873878500001
 21
9763.7812800000029
 31
0.0
  0
LINE
  5
3BCA
  8
SUNPOU
  6
CONTINUOUS
 62
     4
 10
8769.3738785000023
 20
6535.7796040000076
 30
0.0
 11
8769.3738785000023
 21
4835.7799340000038
 31
0.0
  0
LINE
  5
3BCB
  8
SUNPOU
  6
CONTINUOUS
 62
     4
 10
14339.873878500001
 20
6535.7796040000076
 30
0.0
 11
14339.873878500001
 21
4835.7799340000038
 31
0.0
  0
LINE
  5
3BCC
  8
SUNPOU
  6
CONTINUOUS
 62
     4
 10
8769.3738785000023
 20
4915.7799340000047
 30
0.0
 11
14339.873878500001
 21
4915.7799340000047
 31
0.0
  0
LINE
  5
3BCD
  8
SUNPOU
  6
CONTINUOUS
 62
     4
 10
14297.373878500001
 20
6173.1273460000039
 30
0.0
 11
14297.373878500001
 21
5235.7797690000043
 31
0.0
  0
LINE
  5
3BCE
  8
SUNPOU
  6
CONTINUOUS
 62
     4
 10
14339.873878500001
 20
6535.7796040000076
 30
0.0
 11
14339.873878500001
 21
5235.7797690000043
 31
0.0
  0
LINE
  5
3BCF
  8
SUNPOU
  6
CONTINUOUS
 62
     4
 10
14297.373878500001
 20
5315.7797690000052
 30
0.0
 11
14057.373878500001
 21
5315.7797690000052
 31
0.0
  0
LINE
  5
3BD0
  8
SUNPOU
  6
CONTINUOUS
 62
     4
 10
14339.873878500001
 20
5315.7797690000052
 30
0.0
 11
14579.873878500001
 21
5315.7797690000052
 31
0.0
  0
LINE
  5
3BD1
  8
SUNPOU
  6
CONTINUOUS
 62
     4
 10
14297.373878500001
 20
5315.7797690000052
 30
0.0
 11
14339.873878500001
 21
5315.7797690000052
 31
0.0
  0
LINE
  5
3BD2
  8
SUNPOU
  6
CONTINUOUS
 62
     4
 10
8811.8738785000005
 20
6173.1273460000039
 30
0.0
 11
8811.8738785000005
 21
5235.7797690000043
 31
0.0
  0
LINE
  5
3BD3
  8
SUNPOU
  6
CONTINUOUS
 62
     4
 10
8769.3738785000023
 20
6535.7796040000076
 30
0.0
 11
8769.3738785000023
 21
5235.7797690000043
 31
0.0
  0
LINE
  5
3BD4
  8
SUNPOU
  6
CONTINUOUS
 62
     4
 10
8811.8738785000005
 20
5315.7797690000052
 30
0.0
 11
9051.8738785000023
 21
5315.7797690000052
 31
0.0
  0
LINE
  5
3BD5
  8
SUNPOU
  6
CONTINUOUS
 62
     4
 10
8769.3738785000023
 20
5315.7797690000052
 30
0.0
 11
8529.3738785000023
 21
5315.7797690000052
 31
0.0
  0
LINE
  5
3BD6
  8
SUNPOU
  6
CONTINUOUS
 62
     4
 10
8811.8738785000005
 20
5315.7797690000052
 30
0.0
 11
8769.3738785000023
 21
5315.7797690000052
 31
0.0
  0
LINE
  5
3BD7
  8
SUNPOU
  6
CONTINUOUS
 62
     4
 10
11379.373878500001
 20
6173.1273460000039
 30
0.0
 11
11379.373878500001
 21
5235.7797690000043
 31
0.0
  0
LINE
  5
3BD8
  8
SUNPOU
  6
CONTINUOUS
 62
     4
 10
8811.8738785000005
 20
6173.1273460000039
 30
0.0
 11
8811.8738785000005
 21
5235.7797690000043
 31
0.0
  0
LINE
  5
3BD9
  8
SUNPOU
  6
CONTINUOUS
 62
     4
 10
11379.373878500001
 20
5315.7797690000052
 30
0.0
 11
8811.8738785000005
 21
5315.7797690000052
 31
0.0
  0
LINE
  5
3BDA
  8
SUNPOU
  6
CONTINUOUS
 62
     4
 10
11379.373878500001
 20
6173.1273460000039
 30
0.0
 11
11379.373878500001
 21
5235.7797690000043
 31
0.0
  0
LINE
  5
3BDB
  8
SUNPOU
  6
CONTINUOUS
 62
     4
 10
14297.373878500001
 20
6173.1273460000039
 30
0.0
 11
14297.373878500001
 21
5235.7797690000043
 31
0.0
  0
LINE
  5
3BDC
  8
SUNPOU
  6
CONTINUOUS
 62
     4
 10
11379.373878500001
 20
5315.7797690000052
 30
0.0
 11
14297.373878500001
 21
5315.7797690000052
 31
0.0
  0
TEXT
  5
3BDD
  8
0
  6
CONTINUOUS
 62
     7
 10
12571.707211833331
 20
5395.7797690000043
 30
0.0
 40
160.0
  1
2918
  0
TEXT
  5
3BDE
  8
0
  6
CONTINUOUS
 62
     7
 10
9695.6238785000023
 20
5395.7797690000043
 30
0.0
 40
160.0
  1
2567.5
  0
TEXT
  5
3BDF
  8
0
  6
CONTINUOUS
 62
     7
 10
8172.2001694036962
 20
5395.7797690000043
 30
0.0
 40
160.0
  1
42.5
  0
TEXT
  5
3BE0
  8
0
  6
CONTINUOUS
 62
     7
 10
14478.192515809809
 20
5395.7797690000043
 30
0.0
 40
160.0
  1
42.5
  0
TEXT
  5
3BE1
  8
0
  6
CONTINUOUS
 62
     7
 10
11167.957211833331
 20
4995.7799340000047
 30
0.0
 40
160.0
  1
5570.5
  0
TEXT
  5
3BE2
  8
0
  6
CONTINUOUS
 62
     7
 10
11167.957211833331
 20
9843.7812800000029
 30
0.0
 40
160.0
  1
5570.5
  0
TEXT
  5
3BE3
  8
0
  6
CONTINUOUS
 62
     7
 10
14556.54054516667
 20
9843.7812800000029
 30
0.0
 40
160.0
  1
150
  0
TEXT
  5
3BE4
  8
0
  6
CONTINUOUS
 62
     7
 10
11166.29054516667
 20
10243.779630000001
 30
0.0
 40
160.0
  1
5900.5
  0
TEXT
  5
3BE5
  8
0
  6
CONTINUOUS
 62
     7
 10
7599.3754605000086
 20
6915.112937333337
 30
0.0
 40
160.0
  1
2156（2396）
 50
90.0
  0
TEXT
  5
3BE6
  8
0
  6
CONTINUOUS
 62
     7
 10
15349.87229449999
 20
6771.362937333337
 30
0.0
 40
160.0
  1
2348.5（2588.5）
 50
90.0
  0
TEXT
  5
3BE7
  8
0
  6
CONTINUOUS
 62
     7
 10
21787.368479499979
 20
4995.7799339999983
 30
0.0
 40
160.0
  1
4869.5
  0
TEXT
  5
3BE8
  8
0
  6
CONTINUOUS
 62
     7
 10
19186.57948924115
 20
5395.7797689999998
 30
0.0
 40
160.0
  1
42.5
  0
TEXT
  5
3BE9
  8
0
  6
CONTINUOUS
 62
     7
 10
24708.161428758849
 20
5395.7797689999998
 30
0.0
 40
160.0
  1
42.5
  0
TEXT
  5
3BEA
  8
0
  6
CONTINUOUS
 62
     7
 10
20987.451812833318
 20
5395.7797689999998
 30
0.0
 40
160.0
  1
2918
  0
TEXT
  5
3BEB
  8
0
  6
CONTINUOUS
 62
     7
 10
23273.035146166661
 20
5395.7797689999998
 30
0.0
 40
160.0
  1
1866.5
  0
TEXT
  5
3BEC
  8
0
  6
CONTINUOUS
 62
     7
 10
23182.36847949999
 20
6062.446435666664
 30
0.0
 40
160.0
  1
有効開口巾
  0
TEXT
  5
3BED
  8
0
  6
CONTINUOUS
 62
     7
 10
23273.035146166661
 20
5795.7797690000007
 30
0.0
 40
160.0
  1
1678.5
  0
TEXT
  5
3BEE
  8
0
  6
CONTINUOUS
 62
     7
 10
20446.11847949999
 20
5795.7797690000007
 30
0.0
 40
160.0
  1
有効開口巾 2730
  0
TEXT
  5
3BF3
  8
0
  6
CONTINUOUS
 62
     7
 10
18465.116830499981
 20
6771.3626898333332
 30
0.0
 40
160.0
  1
2348.5（2588.5）
 50
90.0
  0
TEXT
  5
3BF4
  8
0
  6
CONTINUOUS
 62
     7
 10
18865.119139499991
 20
6679.7588422912713
 30
0.0
 40
160.0
  1
有効開口高サ 1891.5
 50
90.0
  0
TEXT
  5
3BF5
  8
0
  6
CONTINUOUS
 62
     7
 10
8128.4205078486357
 20
9843.7812800000029
 30
0.0
 40
160.0
  1
180
  0
TEXT
  5
3BF6
  8
0
  6
CONTINUOUS
 62
     7
 10
20730.285146166661
 20
20744.232102000031
 30
0.0
 40
160.0
  1
701
  0
TEXT
  5
3BF7
  8
0
  6
CONTINUOUS
 62
     7
 10
21431.285146166661
 20
20744.232102000031
 30
0.0
 40
160.0
  1
701
  0
TEXT
  5
3BF8
  8
0
  6
CONTINUOUS
 62
     7
 10
22120.785640916671
 20
20744.232102000031
 30
0.0
 40
160.0
  1
758
  0
TEXT
  5
3BF9
  8
0
  6
CONTINUOUS
 62
     7
 10
19192.30649997119
 20
20744.232102000031
 30
0.0
 40
160.0
  1
42.5
  0
TEXT
  5
3BFA
  8
0
  6
CONTINUOUS
 62
     7
 10
24702.43045902879
 20
20744.232102000031
 30
0.0
 40
160.0
  1
42.5
  0
TEXT
  5
3BFB
  8
0
  6
CONTINUOUS
 62
     7
 10
23987.285640916671
 20
20744.232102000031
 30
0.0
 40
160.0
  1
758
  0
TEXT
  5
3BFC
  8
0
  6
CONTINUOUS
 62
     7
 10
25992.11808349999
 20
13790.1773826032
 30
0.0
 40
160.0
  1
42.5
 50
90.0
  0
TEXT
  5
3BFD
  8
0
  6
CONTINUOUS
 62
     7
 10
25992.11808349999
 20
20027.784445396788
 30
0.0
 40
160.0
  1
42.5
 50
90.0
  0
TEXT
  5
3BFE
  8
0
  6
CONTINUOUS
 62
     7
 10
26392.11808349999
 20
16762.314247333339
 30
0.0
 40
160.0
  1
5570.5
 50
90.0
  0
TEXT
  5
3BFF
  8
0
  6
CONTINUOUS
 62
     7
 10
25992.11808349999
 20
15598.56424733333
 30
0.0
 40
160.0
  1
2918
 50
90.0
  0
TEXT
  5
3C00
  8
0
  6
CONTINUOUS
 62
     7
 10
25992.11808349999
 20
18207.980914
 30
0.0
 40
160.0
  1
2567.5
 50
90.0
  0
TEXT
  5
3C01
  8
0
  6
CONTINUOUS
 62
     7
 10
25592.11808349999
 20
18960.397580666671
 30
0.0
 40
160.0
  1
701
 50
90.0
  0
TEXT
  5
3C02
  8
0
  6
CONTINUOUS
 62
     7
 10
25592.11808349999
 20
18259.397580666671
 30
0.0
 40
160.0
  1
701
 50
90.0
  0
TEXT
  5
3C03
  8
0
  6
CONTINUOUS
 62
     7
 10
25592.11808349999
 20
17489.897580666671
 30
0.0
 40
160.0
  1
758
 50
90.0
  0
TEXT
  5
3C04
  8
0
  6
CONTINUOUS
 62
     7
 10
25592.11808349999
 20
16731.897580666671
 30
0.0
 40
160.0
  1
758
 50
90.0
  0
TEXT
  5
3C05
  8
0
  6
CONTINUOUS
 62
     7
 10
25592.11808349999
 20
16042.51783641668
 30
0.0
 40
160.0
  1
701
 50
90.0
  0
TEXT
  5
3C06
  8
0
  6
CONTINUOUS
 62
     7
 10
25592.11808349999
 20
15341.51783641668
 30
0.0
 40
160.0
  1
701
 50
90.0
  0
TEXT
  5
3C07
  8
0
  6
CONTINUOUS
 62
     7
 10
25592.11808349999
 20
14571.89758066666
 30
0.0
 40
160.0
  1
758
 50
90.0
  0
TEXT
  5
3C08
  8
0
  6
CONTINUOUS
 62
     7
 10
21787.368479500001
 20
13114.78283
 30
0.0
 40
160.0
  1
4869.5
  0
TEXT
  5
3C09
  8
0
  6
CONTINUOUS
 62
     7
 10
19913.172151882081
 20
13514.78283
 30
0.0
 40
160.0
  1
42.5
  0
TEXT
  5
3C0A
  8
0
  6
CONTINUOUS
 62
     7
 10
23981.564807117891
 20
13514.78283
 30
0.0
 40
160.0
  1
42.5
  0
TEXT
  5
3C0B
  8
0
  6
CONTINUOUS
 62
     7
 10
24697.672151882089
 20
13514.78283
 30
0.0
 40
160.0
  1
42.5
  0
TEXT
  5
3C0C
  8
0
  6
CONTINUOUS
 62
     7
 10
19197.06480711788
 20
13514.78283
 30
0.0
 40
160.0
  1
42.5
  0
TEXT
  5
3C0D
  8
0
  6
CONTINUOUS
 62
     7
 10
18785.663902499979
 20
14869.18450308333
 30
0.0
 40
160.0
  1
1459
 50
90.0
  0
TEXT
  5
3C0E
  8
0
  6
CONTINUOUS
 62
     7
 10
18785.663902499979
 20
16328.184503083339
 30
0.0
 40
160.0
  1
1459
 50
90.0
  0
TEXT
  5
3C0F
  8
0
  6
CONTINUOUS
 62
     7
 10
18785.663902499979
 20
17787.06424733331
 30
0.0
 40
160.0
  1
1459
 50
90.0
  0
TEXT
  5
3C10
  8
0
  6
CONTINUOUS
 62
     7
 10
18785.663902499979
 20
19004.147580666671
 30
0.0
 40
160.0
  1
1108.5
 50
90.0
  0
TEXT
  5
3C11
  8
0
  6
CONTINUOUS
 62
     7
 10
25952.11808349999
 20
19193.608881643198
 30
0.0
 40
160.0
  1
407.5
 50
90.0
  0
TEXT
  5
3C12
  8
0
  6
CONTINUOUS
 62
     7
 10
19960.785146166661
 20
20744.232102000031
 30
0.0
 40
160.0
  1
758
  0
TEXT
  5
3C13
  8
0
  6
CONTINUOUS
 62
     7
 10
23297.785146166661
 20
20424.232102000031
 30
0.0
 40
160.0
  1
701
  0
TEXT
  5
3C14
  8
0
  6
CONTINUOUS
 62
     7
 10
22813.951812833329
 20
20744.232102000031
 30
0.0
 40
160.0
  1
407.5
  0
TEXT
  5
3C15
  8
0
  6
CONTINUOUS
 62
     7
 10
8140.1607094999918
 20
19004.147580666671
 30
0.0
 40
160.0
  1
1108.5
 50
90.0
  0
TEXT
  5
3C16
  8
0
  6
CONTINUOUS
 62
     7
 10
8140.1607094999854
 20
20203.186098807681
 30
0.0
 40
160.0
  1
222.5
 50
90.0
  0
TEXT
  5
3C17
  8
0
  6
CONTINUOUS
 62
     7
 10
8540.1607094999908
 20
20234.226823000001
 30
0.0
 40
160.0
  1
20
 50
90.0
  0
TEXT
  5
3C18
  8
0
  6
CONTINUOUS
 62
     7
 10
8140.160709499989
 20
17787.06424733331
 30
0.0
 40
160.0
  1
1459
 50
90.0
  0
TEXT
  5
3C19
  8
0
  6
CONTINUOUS
 62
     7
 10
8140.160709499989
 20
16328.184503083339
 30
0.0
 40
160.0
  1
1459
 50
90.0
  0
TEXT
  5
3C1A
  8
0
  6
CONTINUOUS
 62
     7
 10
8140.160709499989
 20
14869.18450308333
 30
0.0
 40
160.0
  1
1459
 50
90.0
  0
TEXT
  5
3C1B
  8
0
  6
CONTINUOUS
 62
     7
 10
8140.1607094999781
 20
13598.27790370263
 30
0.0
 40
160.0
  1
192.5
 50
90.0
  0
TEXT
  5
3C1C
  8
0
  6
CONTINUOUS
 62
     7
 10
12627.57715216665
 20
20744.232102000031
 30
0.0
 40
160.0
  1
1866.5
  0
TEXT
  5
3C1D
  8
0
  6
CONTINUOUS
 62
     7
 10
14070.657191523251
 20
20744.232102000031
 30
0.0
 40
160.0
  1
85.5
  0
TEXT
  5
3C1E
  8
0
  6
CONTINUOUS
 62
     7
 10
10341.99456083332
 20
20744.232102000031
 30
0.0
 40
160.0
  1
2918
  0
TEXT
  5
3C1F
  8
0
  6
CONTINUOUS
 62
     7
 10
8533.1652634767233
 20
20744.232102000031
 30
0.0
 40
160.0
  1
85.5
  0
ARC
  5
3C25
  8
0
  6
BYBLOCK
 62
     0
 10
9149.6619694999863
 20
20664.232102000031
 30
0.0
 40
15.0
 50
0.0
 51
180.0
  0
ARC
  5
3C26
  8
0
  6
BYBLOCK
 62
     0
 10
9149.6619694999863
 20
20664.232102000031
 30
0.0
 40
15.0
 50
180.0
 51
0.0
  0
ARC
  5
3C27
  8
0
  6
BYBLOCK
 62
     0
 10
9064.1619694999881
 20
20664.232102000031
 30
0.0
 40
15.0
 50
180.0
 51
0.0
  0
ARC
  5
3C28
  8
0
  6
BYBLOCK
 62
     0
 10
9064.1619694999881
 20
20664.232102000031
 30
0.0
 40
15.0
 50
0.0
 51
180.0
  0
ARC
  5
3C29
  8
0
  6
BYBLOCK
 62
     0
 10
12067.66048549998
 20
20664.232102000031
 30
0.0
 40
15.0
 50
180.0
 51
0.0
  0
ARC
  5
3C2A
  8
0
  6
BYBLOCK
 62
     0
 10
12067.66048549998
 20
20664.232102000031
 30
0.0
 40
15.0
 50
0.0
 51
180.0
  0
ARC
  5
3C2B
  8
0
  6
BYBLOCK
 62
     0
 10
9149.6619694999863
 20
20664.232102000031
 30
0.0
 40
15.0
 50
0.0
 51
180.0
  0
ARC
  5
3C2C
  8
0
  6
BYBLOCK
 62
     0
 10
9149.6619694999863
 20
20664.232102000031
 30
0.0
 40
15.0
 50
180.0
 51
0.0
  0
ARC
  5
3C2D
  8
0
  6
BYBLOCK
 62
     0
 10
13934.16048549999
 20
20664.232102000031
 30
0.0
 40
15.0
 50
180.0
 51
0.0
  0
ARC
  5
3C2E
  8
0
  6
BYBLOCK
 62
     0
 10
13934.16048549999
 20
20664.232102000031
 30
0.0
 40
15.0
 50
0.0
 51
180.0
  0
ARC
  5
3C2F
  8
0
  6
BYBLOCK
 62
     0
 10
14019.66048549999
 20
20664.232102000031
 30
0.0
 40
15.0
 50
0.0
 51
180.0
  0
ARC
  5
3C30
  8
0
  6
BYBLOCK
 62
     0
 10
14019.66048549999
 20
20664.232102000031
 30
0.0
 40
15.0
 50
180.0
 51
0.0
  0
ARC
  5
3C31
  8
0
  6
BYBLOCK
 62
     0
 10
12067.66048549998
 20
20664.232102000031
 30
0.0
 40
15.0
 50
0.0
 51
180.0
  0
ARC
  5
3C32
  8
0
  6
BYBLOCK
 62
     0
 10
12067.66048549998
 20
20664.232102000031
 30
0.0
 40
15.0
 50
180.0
 51
0.0
  0
ARC
  5
3C33
  8
0
  6
BYBLOCK
 62
     0
 10
13934.16048549999
 20
20664.232102000031
 30
0.0
 40
15.0
 50
180.0
 51
0.0
  0
ARC
  5
3C34
  8
0
  6
BYBLOCK
 62
     0
 10
13934.16048549999
 20
20664.232102000031
 30
0.0
 40
15.0
 50
0.0
 51
180.0
  0
ARC
  5
3C35
  8
0
  6
BYBLOCK
 62
     0
 10
8220.1607094999908
 20
14406.230913999991
 30
0.0
 40
15.0
 50
270.0
 51
90.0
  0
ARC
  5
3C36
  8
0
  6
BYBLOCK
 62
     0
 10
8220.1607094999908
 20
14406.230913999991
 30
0.0
 40
15.0
 50
90.0
 51
270.0
  0
ARC
  5
3C37
  8
0
  6
BYBLOCK
 62
     0
 10
8220.1607094999908
 20
14213.735599
 30
0.0
 40
15.0
 50
90.0
 51
270.0
  0
ARC
  5
3C38
  8
0
  6
BYBLOCK
 62
     0
 10
8220.1607094999908
 20
14213.735599
 30
0.0
 40
15.0
 50
270.0
 51
90.0
  0
ARC
  5
3C39
  8
0
  6
BYBLOCK
 62
     0
 10
8220.1607094999908
 20
15865.47142550002
 30
0.0
 40
15.0
 50
270.0
 51
90.0
  0
ARC
  5
3C3A
  8
0
  6
BYBLOCK
 62
     0
 10
8220.1607094999908
 20
15865.47142550002
 30
0.0
 40
15.0
 50
90.0
 51
270.0
  0
ARC
  5
3C3B
  8
0
  6
BYBLOCK
 62
     0
 10
8220.1607094999908
 20
14406.230913999991
 30
0.0
 40
15.0
 50
90.0
 51
270.0
  0
ARC
  5
3C3C
  8
0
  6
BYBLOCK
 62
     0
 10
8220.1607094999908
 20
14406.230913999991
 30
0.0
 40
15.0
 50
270.0
 51
90.0
  0
ARC
  5
3C3D
  8
0
  6
BYBLOCK
 62
     0
 10
8220.1607094999908
 20
17324.230914
 30
0.0
 40
15.0
 50
270.0
 51
90.0
  0
ARC
  5
3C3E
  8
0
  6
BYBLOCK
 62
     0
 10
8220.1607094999908
 20
17324.230914
 30
0.0
 40
15.0
 50
90.0
 51
270.0
  0
ARC
  5
3C3F
  8
0
  6
BYBLOCK
 62
     0
 10
8220.1607094999908
 20
15865.47142550002
 30
0.0
 40
15.0
 50
90.0
 51
270.0
  0
ARC
  5
3C40
  8
0
  6
BYBLOCK
 62
     0
 10
8220.1607094999908
 20
15865.47142550002
 30
0.0
 40
15.0
 50
270.0
 51
90.0
  0
ARC
  5
3C41
  8
0
  6
BYBLOCK
 62
     0
 10
8220.1607094999908
 20
18783.230914
 30
0.0
 40
15.0
 50
270.0
 51
90.0
  0
ARC
  5
3C42
  8
0
  6
BYBLOCK
 62
     0
 10
8220.1607094999908
 20
18783.230914
 30
0.0
 40
15.0
 50
90.0
 51
270.0
  0
ARC
  5
3C43
  8
0
  6
BYBLOCK
 62
     0
 10
8220.1607094999908
 20
17324.230914
 30
0.0
 40
15.0
 50
90.0
 51
270.0
  0
ARC
  5
3C44
  8
0
  6
BYBLOCK
 62
     0
 10
8220.1607094999908
 20
17324.230914
 30
0.0
 40
15.0
 50
270.0
 51
90.0
  0
ARC
  5
3C45
  8
0
  6
BYBLOCK
 62
     0
 10
8620.1607094999908
 20
20094.226823000001
 30
0.0
 40
15.0
 50
270.0
 51
90.0
  0
ARC
  5
3C46
  8
0
  6
BYBLOCK
 62
     0
 10
8620.1607094999908
 20
20094.226823000001
 30
0.0
 40
15.0
 50
90.0
 51
270.0
  0
ARC
  5
3C47
  8
0
  6
BYBLOCK
 62
     0
 10
8620.1607094999908
 20
20114.226823000001
 30
0.0
 40
15.0
 50
90.0
 51
270.0
  0
ARC
  5
3C48
  8
0
  6
BYBLOCK
 62
     0
 10
8620.1607094999908
 20
20114.226823000001
 30
0.0
 40
15.0
 50
270.0
 51
90.0
  0
ARC
  5
3C49
  8
0
  6
BYBLOCK
 62
     0
 10
8220.1607094999908
 20
19891.730914
 30
0.0
 40
15.0
 50
90.0
 51
270.0
  0
ARC
  5
3C4A
  8
0
  6
BYBLOCK
 62
     0
 10
8220.1607094999908
 20
19891.730914
 30
0.0
 40
15.0
 50
270.0
 51
90.0
  0
ARC
  5
3C4B
  8
0
  6
BYBLOCK
 62
     0
 10
8220.1607094999908
 20
20114.226823000001
 30
0.0
 40
15.0
 50
270.0
 51
90.0
  0
ARC
  5
3C4C
  8
0
  6
BYBLOCK
 62
     0
 10
8220.1607094999908
 20
20114.226823000001
 30
0.0
 40
15.0
 50
90.0
 51
270.0
  0
ARC
  5
3C4D
  8
0
  6
BYBLOCK
 62
     0
 10
8220.1607094999908
 20
18783.230914
 30
0.0
 40
15.0
 50
90.0
 51
270.0
  0
ARC
  5
3C4E
  8
0
  6
BYBLOCK
 62
     0
 10
8220.1607094999908
 20
18783.230914
 30
0.0
 40
15.0
 50
270.0
 51
90.0
  0
ARC
  5
3C4F
  8
0
  6
BYBLOCK
 62
     0
 10
8220.1607094999908
 20
19891.730914
 30
0.0
 40
15.0
 50
270.0
 51
90.0
  0
ARC
  5
3C50
  8
0
  6
BYBLOCK
 62
     0
 10
8220.1607094999908
 20
19891.730914
 30
0.0
 40
15.0
 50
90.0
 51
270.0
  0
ARC
  5
3C51
  8
0
  6
BYBLOCK
 62
     0
 10
22713.118479499979
 20
20664.232102000031
 30
0.0
 40
15.0
 50
0.0
 51
180.0
  0
ARC
  5
3C52
  8
0
  6
BYBLOCK
 62
     0
 10
22713.118479499979
 20
20664.232102000031
 30
0.0
 40
15.0
 50
180.0
 51
0.0
  0
ARC
  5
3C53
  8
0
  6
BYBLOCK
 62
     0
 10
23120.61847949999
 20
20664.232102000031
 30
0.0
 40
15.0
 50
180.0
 51
0.0
  0
ARC
  5
3C54
  8
0
  6
BYBLOCK
 62
     0
 10
23120.61847949999
 20
20664.232102000031
 30
0.0
 40
15.0
 50
0.0
 51
180.0
  0
ARC
  5
3C55
  8
0
  6
BYBLOCK
 62
     0
 10
23120.61847949999
 20
20664.232102000031
 30
0.0
 40
15.0
 50
0.0
 51
180.0
  0
ARC
  5
3C56
  8
0
  6
BYBLOCK
 62
     0
 10
23120.61847949999
 20
20664.232102000031
 30
0.0
 40
15.0
 50
180.0
 51
0.0
  0
ARC
  5
3C57
  8
0
  6
BYBLOCK
 62
     0
 10
23821.61847949999
 20
20664.232102000031
 30
0.0
 40
15.0
 50
180.0
 51
0.0
  0
ARC
  5
3C58
  8
0
  6
BYBLOCK
 62
     0
 10
23821.61847949999
 20
20664.232102000031
 30
0.0
 40
15.0
 50
0.0
 51
180.0
  0
ARC
  5
3C59
  8
0
  6
BYBLOCK
 62
     0
 10
20553.118479500001
 20
20664.232102000031
 30
0.0
 40
15.0
 50
180.0
 51
0.0
  0
ARC
  5
3C5A
  8
0
  6
BYBLOCK
 62
     0
 10
20553.118479500001
 20
20664.232102000031
 30
0.0
 40
15.0
 50
0.0
 51
180.0
  0
ARC
  5
3C5B
  8
0
  6
BYBLOCK
 62
     0
 10
19795.11847949999
 20
20664.232102000031
 30
0.0
 40
15.0
 50
0.0
 51
180.0
  0
ARC
  5
3C5C
  8
0
  6
BYBLOCK
 62
     0
 10
19795.11847949999
 20
20664.232102000031
 30
0.0
 40
15.0
 50
180.0
 51
0.0
  0
ARC
  5
3C5D
  8
0
  6
BYBLOCK
 62
     0
 10
25672.11808349999
 20
19484.230914
 30
0.0
 40
15.0
 50
90.0
 51
270.0
  0
ARC
  5
3C5E
  8
0
  6
BYBLOCK
 62
     0
 10
25672.11808349999
 20
19484.230914
 30
0.0
 40
15.0
 50
270.0
 51
90.0
  0
ARC
  5
3C5F
  8
0
  6
BYBLOCK
 62
     0
 10
25672.11808349999
 20
19891.730914
 30
0.0
 40
15.0
 50
270.0
 51
90.0
  0
ARC
  5
3C60
  8
0
  6
BYBLOCK
 62
     0
 10
25672.11808349999
 20
19891.730914
 30
0.0
 40
15.0
 50
90.0
 51
270.0
  0
ARC
  5
3C61
  8
0
  6
BYBLOCK
 62
     0
 10
18865.663902499979
 20
18783.230914
 30
0.0
 40
15.0
 50
90.0
 51
270.0
  0
ARC
  5
3C62
  8
0
  6
BYBLOCK
 62
     0
 10
18865.663902499979
 20
18783.230914
 30
0.0
 40
15.0
 50
270.0
 51
90.0
  0
ARC
  5
3C63
  8
0
  6
BYBLOCK
 62
     0
 10
18865.663902499979
 20
19891.730914
 30
0.0
 40
15.0
 50
270.0
 51
90.0
  0
ARC
  5
3C64
  8
0
  6
BYBLOCK
 62
     0
 10
18865.663902499979
 20
19891.730914
 30
0.0
 40
15.0
 50
90.0
 51
270.0
  0
ARC
  5
3C65
  8
0
  6
BYBLOCK
 62
     0
 10
18865.663902499979
 20
17324.230914
 30
0.0
 40
15.0
 50
90.0
 51
270.0
  0
ARC
  5
3C66
  8
0
  6
BYBLOCK
 62
     0
 10
18865.663902499979
 20
17324.230914
 30
0.0
 40
15.0
 50
270.0
 51
90.0
  0
ARC
  5
3C67
  8
0
  6
BYBLOCK
 62
     0
 10
18865.663902499979
 20
18783.230914
 30
0.0
 40
15.0
 50
270.0
 51
90.0
  0
ARC
  5
3C68
  8
0
  6
BYBLOCK
 62
     0
 10
18865.663902499979
 20
18783.230914
 30
0.0
 40
15.0
 50
90.0
 51
270.0
  0
ARC
  5
3C69
  8
0
  6
BYBLOCK
 62
     0
 10
18865.663902499979
 20
15865.471425500011
 30
0.0
 40
15.0
 50
90.0
 51
270.0
  0
ARC
  5
3C6A
  8
0
  6
BYBLOCK
 62
     0
 10
18865.663902499979
 20
15865.471425500011
 30
0.0
 40
15.0
 50
270.0
 51
90.0
  0
ARC
  5
3C6B
  8
0
  6
BYBLOCK
 62
     0
 10
18865.663902499979
 20
17324.230914
 30
0.0
 40
15.0
 50
270.0
 51
90.0
  0
ARC
  5
3C6C
  8
0
  6
BYBLOCK
 62
     0
 10
18865.663902499979
 20
17324.230914
 30
0.0
 40
15.0
 50
90.0
 51
270.0
  0
ARC
  5
3C6D
  8
0
  6
BYBLOCK
 62
     0
 10
18865.663902499979
 20
14406.230913999991
 30
0.0
 40
15.0
 50
90.0
 51
270.0
  0
ARC
  5
3C6E
  8
0
  6
BYBLOCK
 62
     0
 10
18865.663902499979
 20
14406.230913999991
 30
0.0
 40
15.0
 50
270.0
 51
90.0
  0
ARC
  5
3C6F
  8
0
  6
BYBLOCK
 62
     0
 10
18865.663902499979
 20
15865.471425500011
 30
0.0
 40
15.0
 50
270.0
 51
90.0
  0
ARC
  5
3C70
  8
0
  6
BYBLOCK
 62
     0
 10
18865.663902499979
 20
15865.471425500011
 30
0.0
 40
15.0
 50
90.0
 51
270.0
  0
ARC
  5
3C71
  8
0
  6
BYBLOCK
 62
     0
 10
19795.11847949999
 20
13434.78283
 30
0.0
 40
15.0
 50
0.0
 51
180.0
  0
ARC
  5
3C72
  8
0
  6
BYBLOCK
 62
     0
 10
19795.11847949999
 20
13434.78283
 30
0.0
 40
15.0
 50
180.0
 51
0.0
  0
ARC
  5
3C73
  8
0
  6
BYBLOCK
 62
     0
 10
19752.616236499991
 20
13434.78283
 30
0.0
 40
15.0
 50
180.0
 51
0.0
  0
ARC
  5
3C74
  8
0
  6
BYBLOCK
 62
     0
 10
19752.616236499991
 20
13434.78283
 30
0.0
 40
15.0
 50
0.0
 51
180.0
  0
ARC
  5
3C75
  8
0
  6
BYBLOCK
 62
     0
 10
24579.618479500001
 20
13434.78283
 30
0.0
 40
15.0
 50
180.0
 51
0.0
  0
ARC
  5
3C76
  8
0
  6
BYBLOCK
 62
     0
 10
24579.618479500001
 20
13434.78283
 30
0.0
 40
15.0
 50
0.0
 51
180.0
  0
ARC
  5
3C77
  8
0
  6
BYBLOCK
 62
     0
 10
24622.1207225
 20
13434.78283
 30
0.0
 40
15.0
 50
0.0
 51
180.0
  0
ARC
  5
3C78
  8
0
  6
BYBLOCK
 62
     0
 10
24622.1207225
 20
13434.78283
 30
0.0
 40
15.0
 50
180.0
 51
0.0
  0
ARC
  5
3C79
  8
0
  6
BYBLOCK
 62
     0
 10
24579.618479500001
 20
13434.78283
 30
0.0
 40
15.0
 50
0.0
 51
180.0
  0
ARC
  5
3C7A
  8
0
  6
BYBLOCK
 62
     0
 10
24579.618479500001
 20
13434.78283
 30
0.0
 40
15.0
 50
180.0
 51
0.0
  0
ARC
  5
3C7B
  8
0
  6
BYBLOCK
 62
     0
 10
24537.116236499991
 20
13434.78283
 30
0.0
 40
15.0
 50
180.0
 51
0.0
  0
ARC
  5
3C7C
  8
0
  6
BYBLOCK
 62
     0
 10
24537.116236499991
 20
13434.78283
 30
0.0
 40
15.0
 50
0.0
 51
180.0
  0
ARC
  5
3C7D
  8
0
  6
BYBLOCK
 62
     0
 10
19795.11847949999
 20
13434.78283
 30
0.0
 40
15.0
 50
180.0
 51
0.0
  0
ARC
  5
3C7E
  8
0
  6
BYBLOCK
 62
     0
 10
19795.11847949999
 20
13434.78283
 30
0.0
 40
15.0
 50
0.0
 51
180.0
  0
ARC
  5
3C7F
  8
0
  6
BYBLOCK
 62
     0
 10
19837.620722499982
 20
13434.78283
 30
0.0
 40
15.0
 50
0.0
 51
180.0
  0
ARC
  5
3C80
  8
0
  6
BYBLOCK
 62
     0
 10
19837.620722499982
 20
13434.78283
 30
0.0
 40
15.0
 50
180.0
 51
0.0
  0
ARC
  5
3C81
  8
0
  6
BYBLOCK
 62
     0
 10
19752.616236499991
 20
13034.78283
 30
0.0
 40
15.0
 50
0.0
 51
180.0
  0
ARC
  5
3C82
  8
0
  6
BYBLOCK
 62
     0
 10
19752.616236499991
 20
13034.78283
 30
0.0
 40
15.0
 50
180.0
 51
0.0
  0
ARC
  5
3C83
  8
0
  6
BYBLOCK
 62
     0
 10
24622.1207225
 20
13034.78283
 30
0.0
 40
15.0
 50
180.0
 51
0.0
  0
ARC
  5
3C84
  8
0
  6
BYBLOCK
 62
     0
 10
24622.1207225
 20
13034.78283
 30
0.0
 40
15.0
 50
0.0
 51
180.0
  0
ARC
  5
3C85
  8
0
  6
BYBLOCK
 62
     0
 10
25672.11808349999
 20
15164.230913999991
 30
0.0
 40
15.0
 50
270.0
 51
90.0
  0
ARC
  5
3C86
  8
0
  6
BYBLOCK
 62
     0
 10
25672.11808349999
 20
15164.230913999991
 30
0.0
 40
15.0
 50
90.0
 51
270.0
  0
ARC
  5
3C87
  8
0
  6
BYBLOCK
 62
     0
 10
25672.11808349999
 20
14406.230913999991
 30
0.0
 40
15.0
 50
90.0
 51
270.0
  0
ARC
  5
3C88
  8
0
  6
BYBLOCK
 62
     0
 10
25672.11808349999
 20
14406.230913999991
 30
0.0
 40
15.0
 50
270.0
 51
90.0
  0
ARC
  5
3C89
  8
0
  6
BYBLOCK
 62
     0
 10
25672.11808349999
 20
15865.471425500011
 30
0.0
 40
15.0
 50
270.0
 51
90.0
  0
ARC
  5
3C8A
  8
0
  6
BYBLOCK
 62
     0
 10
25672.11808349999
 20
15865.471425500011
 30
0.0
 40
15.0
 50
90.0
 51
270.0
  0
ARC
  5
3C8B
  8
0
  6
BYBLOCK
 62
     0
 10
25672.11808349999
 20
15164.230913999991
 30
0.0
 40
15.0
 50
90.0
 51
270.0
  0
ARC
  5
3C8C
  8
0
  6
BYBLOCK
 62
     0
 10
25672.11808349999
 20
15164.230913999991
 30
0.0
 40
15.0
 50
270.0
 51
90.0
  0
ARC
  5
3C8D
  8
0
  6
BYBLOCK
 62
     0
 10
25672.11808349999
 20
16566.230914
 30
0.0
 40
15.0
 50
270.0
 51
90.0
  0
ARC
  5
3C8E
  8
0
  6
BYBLOCK
 62
     0
 10
25672.11808349999
 20
16566.230914
 30
0.0
 40
15.0
 50
90.0
 51
270.0
  0
ARC
  5
3C8F
  8
0
  6
BYBLOCK
 62
     0
 10
25672.11808349999
 20
15865.471425500011
 30
0.0
 40
15.0
 50
90.0
 51
270.0
  0
ARC
  5
3C90
  8
0
  6
BYBLOCK
 62
     0
 10
25672.11808349999
 20
15865.471425500011
 30
0.0
 40
15.0
 50
270.0
 51
90.0
  0
ARC
  5
3C91
  8
0
  6
BYBLOCK
 62
     0
 10
25672.11808349999
 20
17324.230914
 30
0.0
 40
15.0
 50
270.0
 51
90.0
  0
ARC
  5
3C92
  8
0
  6
BYBLOCK
 62
     0
 10
25672.11808349999
 20
17324.230914
 30
0.0
 40
15.0
 50
90.0
 51
270.0
  0
ARC
  5
3C93
  8
0
  6
BYBLOCK
 62
     0
 10
25672.11808349999
 20
16566.230914
 30
0.0
 40
15.0
 50
90.0
 51
270.0
  0
ARC
  5
3C94
  8
0
  6
BYBLOCK
 62
     0
 10
25672.11808349999
 20
16566.230914
 30
0.0
 40
15.0
 50
270.0
 51
90.0
  0
ARC
  5
3C95
  8
0
  6
BYBLOCK
 62
     0
 10
25672.11808349999
 20
18082.230914
 30
0.0
 40
15.0
 50
270.0
 51
90.0
  0
ARC
  5
3C96
  8
0
  6
BYBLOCK
 62
     0
 10
25672.11808349999
 20
18082.230914
 30
0.0
 40
15.0
 50
90.0
 51
270.0
  0
ARC
  5
3C97
  8
0
  6
BYBLOCK
 62
     0
 10
25672.11808349999
 20
17324.230914
 30
0.0
 40
15.0
 50
90.0
 51
270.0
  0
ARC
  5
3C98
  8
0
  6
BYBLOCK
 62
     0
 10
25672.11808349999
 20
17324.230914
 30
0.0
 40
15.0
 50
270.0
 51
90.0
  0
ARC
  5
3C99
  8
0
  6
BYBLOCK
 62
     0
 10
25672.11808349999
 20
18783.230914
 30
0.0
 40
15.0
 50
270.0
 51
90.0
  0
ARC
  5
3C9A
  8
0
  6
BYBLOCK
 62
     0
 10
25672.11808349999
 20
18783.230914
 30
0.0
 40
15.0
 50
90.0
 51
270.0
  0
ARC
  5
3C9B
  8
0
  6
BYBLOCK
 62
     0
 10
25672.11808349999
 20
18082.230914
 30
0.0
 40
15.0
 50
90.0
 51
270.0
  0
ARC
  5
3C9C
  8
0
  6
BYBLOCK
 62
     0
 10
25672.11808349999
 20
18082.230914
 30
0.0
 40
15.0
 50
270.0
 51
90.0
  0
ARC
  5
3C9D
  8
0
  6
BYBLOCK
 62
     0
 10
25672.11808349999
 20
19484.230914
 30
0.0
 40
15.0
 50
270.0
 51
90.0
  0
ARC
  5
3C9E
  8
0
  6
BYBLOCK
 62
     0
 10
25672.11808349999
 20
19484.230914
 30
0.0
 40
15.0
 50
90.0
 51
270.0
  0
ARC
  5
3C9F
  8
0
  6
BYBLOCK
 62
     0
 10
25672.11808349999
 20
18783.230914
 30
0.0
 40
15.0
 50
90.0
 51
270.0
  0
ARC
  5
3CA0
  8
0
  6
BYBLOCK
 62
     0
 10
25672.11808349999
 20
18783.230914
 30
0.0
 40
15.0
 50
270.0
 51
90.0
  0
ARC
  5
3CA1
  8
0
  6
BYBLOCK
 62
     0
 10
26072.11808349999
 20
17324.230914
 30
0.0
 40
15.0
 50
90.0
 51
270.0
  0
ARC
  5
3CA2
  8
0
  6
BYBLOCK
 62
     0
 10
26072.11808349999
 20
17324.230914
 30
0.0
 40
15.0
 50
270.0
 51
90.0
  0
ARC
  5
3CA3
  8
0
  6
BYBLOCK
 62
     0
 10
26072.11808349999
 20
19891.730914
 30
0.0
 40
15.0
 50
270.0
 51
90.0
  0
ARC
  5
3CA4
  8
0
  6
BYBLOCK
 62
     0
 10
26072.11808349999
 20
19891.730914
 30
0.0
 40
15.0
 50
90.0
 51
270.0
  0
ARC
  5
3CA5
  8
0
  6
BYBLOCK
 62
     0
 10
26072.11808349999
 20
14406.230913999991
 30
0.0
 40
15.0
 50
90.0
 51
270.0
  0
ARC
  5
3CA6
  8
0
  6
BYBLOCK
 62
     0
 10
26072.11808349999
 20
14406.230913999991
 30
0.0
 40
15.0
 50
270.0
 51
90.0
  0
ARC
  5
3CA7
  8
0
  6
BYBLOCK
 62
     0
 10
26072.11808349999
 20
17324.230914
 30
0.0
 40
15.0
 50
270.0
 51
90.0
  0
ARC
  5
3CA8
  8
0
  6
BYBLOCK
 62
     0
 10
26072.11808349999
 20
17324.230914
 30
0.0
 40
15.0
 50
90.0
 51
270.0
  0
ARC
  5
3CA9
  8
0
  6
BYBLOCK
 62
     0
 10
26472.11808349999
 20
19934.228209000001
 30
0.0
 40
15.0
 50
270.0
 51
90.0
  0
ARC
  5
3CAA
  8
0
  6
BYBLOCK
 62
     0
 10
26472.11808349999
 20
19934.228209000001
 30
0.0
 40
15.0
 50
90.0
 51
270.0
  0
ARC
  5
3CAB
  8
0
  6
BYBLOCK
 62
     0
 10
26472.11808349999
 20
14363.733619000001
 30
0.0
 40
15.0
 50
90.0
 51
270.0
  0
ARC
  5
3CAC
  8
0
  6
BYBLOCK
 62
     0
 10
26472.11808349999
 20
14363.733619000001
 30
0.0
 40
15.0
 50
270.0
 51
90.0
  0
ARC
  5
3CAD
  8
0
  6
BYBLOCK
 62
     0
 10
26072.11808349999
 20
19891.730914
 30
0.0
 40
15.0
 50
270.0
 51
90.0
  0
ARC
  5
3CAE
  8
0
  6
BYBLOCK
 62
     0
 10
26072.11808349999
 20
19891.730914
 30
0.0
 40
15.0
 50
90.0
 51
270.0
  0
ARC
  5
3CAF
  8
0
  6
BYBLOCK
 62
     0
 10
26072.11808349999
 20
19934.228209000001
 30
0.0
 40
15.0
 50
90.0
 51
270.0
  0
ARC
  5
3CB0
  8
0
  6
BYBLOCK
 62
     0
 10
26072.11808349999
 20
19934.228209000001
 30
0.0
 40
15.0
 50
270.0
 51
90.0
  0
ARC
  5
3CB1
  8
0
  6
BYBLOCK
 62
     0
 10
26072.11808349999
 20
14406.230913999991
 30
0.0
 40
15.0
 50
90.0
 51
270.0
  0
ARC
  5
3CB2
  8
0
  6
BYBLOCK
 62
     0
 10
26072.11808349999
 20
14406.230913999991
 30
0.0
 40
15.0
 50
270.0
 51
90.0
  0
ARC
  5
3CB3
  8
0
  6
BYBLOCK
 62
     0
 10
26072.11808349999
 20
14363.733619000001
 30
0.0
 40
15.0
 50
270.0
 51
90.0
  0
ARC
  5
3CB4
  8
0
  6
BYBLOCK
 62
     0
 10
26072.11808349999
 20
14363.733619000001
 30
0.0
 40
15.0
 50
90.0
 51
270.0
  0
ARC
  5
3CB5
  8
0
  6
BYBLOCK
 62
     0
 10
23821.61847949999
 20
20664.232102000031
 30
0.0
 40
15.0
 50
0.0
 51
180.0
  0
ARC
  5
3CB6
  8
0
  6
BYBLOCK
 62
     0
 10
23821.61847949999
 20
20664.232102000031
 30
0.0
 40
15.0
 50
180.0
 51
0.0
  0
ARC
  5
3CB7
  8
0
  6
BYBLOCK
 62
     0
 10
24579.619469000008
 20
20664.232102000031
 30
0.0
 40
15.0
 50
180.0
 51
0.0
  0
ARC
  5
3CB8
  8
0
  6
BYBLOCK
 62
     0
 10
24579.619469000008
 20
20664.232102000031
 30
0.0
 40
15.0
 50
0.0
 51
180.0
  0
ARC
  5
3CB9
  8
0
  6
BYBLOCK
 62
     0
 10
24579.618479500001
 20
20664.232102000031
 30
0.0
 40
15.0
 50
180.0
 51
0.0
  0
ARC
  5
3CBA
  8
0
  6
BYBLOCK
 62
     0
 10
24579.618479500001
 20
20664.232102000031
 30
0.0
 40
15.0
 50
0.0
 51
180.0
  0
ARC
  5
3CBB
  8
0
  6
BYBLOCK
 62
     0
 10
24622.11478449999
 20
20664.232102000031
 30
0.0
 40
15.0
 50
0.0
 51
180.0
  0
ARC
  5
3CBC
  8
0
  6
BYBLOCK
 62
     0
 10
24622.11478449999
 20
20664.232102000031
 30
0.0
 40
15.0
 50
180.0
 51
0.0
  0
ARC
  5
3CBD
  8
0
  6
BYBLOCK
 62
     0
 10
19795.11847949999
 20
20664.232102000031
 30
0.0
 40
15.0
 50
0.0
 51
180.0
  0
ARC
  5
3CBE
  8
0
  6
BYBLOCK
 62
     0
 10
19795.11847949999
 20
20664.232102000031
 30
0.0
 40
15.0
 50
180.0
 51
0.0
  0
ARC
  5
3CBF
  8
0
  6
BYBLOCK
 62
     0
 10
19752.622174499989
 20
20664.232102000031
 30
0.0
 40
15.0
 50
180.0
 51
0.0
  0
ARC
  5
3CC0
  8
0
  6
BYBLOCK
 62
     0
 10
19752.622174499989
 20
20664.232102000031
 30
0.0
 40
15.0
 50
0.0
 51
180.0
  0
ARC
  5
3CC1
  8
0
  6
BYBLOCK
 62
     0
 10
21955.11847949999
 20
20664.232102000031
 30
0.0
 40
15.0
 50
0.0
 51
180.0
  0
ARC
  5
3CC2
  8
0
  6
BYBLOCK
 62
     0
 10
21955.11847949999
 20
20664.232102000031
 30
0.0
 40
15.0
 50
180.0
 51
0.0
  0
ARC
  5
3CC3
  8
0
  6
BYBLOCK
 62
     0
 10
22713.119469000001
 20
20664.232102000031
 30
0.0
 40
15.0
 50
180.0
 51
0.0
  0
ARC
  5
3CC4
  8
0
  6
BYBLOCK
 62
     0
 10
22713.119469000001
 20
20664.232102000031
 30
0.0
 40
15.0
 50
0.0
 51
180.0
  0
ARC
  5
3CC5
  8
0
  6
BYBLOCK
 62
     0
 10
21254.11847949999
 20
20664.232102000031
 30
0.0
 40
15.0
 50
0.0
 51
180.0
  0
ARC
  5
3CC6
  8
0
  6
BYBLOCK
 62
     0
 10
21254.11847949999
 20
20664.232102000031
 30
0.0
 40
15.0
 50
180.0
 51
0.0
  0
ARC
  5
3CC7
  8
0
  6
BYBLOCK
 62
     0
 10
21955.11847949999
 20
20664.232102000031
 30
0.0
 40
15.0
 50
180.0
 51
0.0
  0
ARC
  5
3CC8
  8
0
  6
BYBLOCK
 62
     0
 10
21955.11847949999
 20
20664.232102000031
 30
0.0
 40
15.0
 50
0.0
 51
180.0
  0
ARC
  5
3CC9
  8
0
  6
BYBLOCK
 62
     0
 10
20553.118479500001
 20
20664.232102000031
 30
0.0
 40
15.0
 50
0.0
 51
180.0
  0
ARC
  5
3CCA
  8
0
  6
BYBLOCK
 62
     0
 10
20553.118479500001
 20
20664.232102000031
 30
0.0
 40
15.0
 50
180.0
 51
0.0
  0
ARC
  5
3CCB
  8
0
  6
BYBLOCK
 62
     0
 10
21254.11847949999
 20
20664.232102000031
 30
0.0
 40
15.0
 50
180.0
 51
0.0
  0
ARC
  5
3CCC
  8
0
  6
BYBLOCK
 62
     0
 10
21254.11847949999
 20
20664.232102000031
 30
0.0
 40
15.0
 50
0.0
 51
180.0
  0
ARC
  5
3CCD
  8
0
  6
BYBLOCK
 62
     0
 10
8769.3738785000023
 20
9763.7812800000029
 30
0.0
 40
15.0
 50
180.0
 51
0.0
  0
ARC
  5
3CCE
  8
0
  6
BYBLOCK
 62
     0
 10
8769.3738785000023
 20
9763.7812800000029
 30
0.0
 40
15.0
 50
0.0
 51
180.0
  0
ARC
  5
3CCF
  8
0
  6
BYBLOCK
 62
     0
 10
8589.3738785000023
 20
9763.7812800000029
 30
0.0
 40
15.0
 50
0.0
 51
180.0
  0
ARC
  5
3CD0
  8
0
  6
BYBLOCK
 62
     0
 10
8589.3738785000023
 20
9763.7812800000029
 30
0.0
 40
15.0
 50
180.0
 51
0.0
  0
ARC
  5
3CD1
  8
0
  6
BYBLOCK
 62
     0
 10
18945.119139499991
 20
6615.7796039999957
 30
0.0
 40
15.0
 50
90.0
 51
270.0
  0
ARC
  5
3CD2
  8
0
  6
BYBLOCK
 62
     0
 10
18945.119139499991
 20
6615.7796039999957
 30
0.0
 40
15.0
 50
270.0
 51
90.0
  0
ARC
  5
3CD3
  8
0
  6
BYBLOCK
 62
     0
 10
18945.119139499991
 20
8507.2796039999957
 30
0.0
 40
15.0
 50
270.0
 51
90.0
  0
ARC
  5
3CD4
  8
0
  6
BYBLOCK
 62
     0
 10
18945.119139499991
 20
8507.2796039999957
 30
0.0
 40
15.0
 50
90.0
 51
270.0
  0
ARC
  5
3CD5
  8
0
  6
BYBLOCK
 62
     0
 10
18545.116830499981
 20
6615.7796039999957
 30
0.0
 40
15.0
 50
90.0
 51
270.0
  0
ARC
  5
3CD6
  8
0
  6
BYBLOCK
 62
     0
 10
18545.116830499981
 20
6615.7796039999957
 30
0.0
 40
15.0
 50
270.0
 51
90.0
  0
ARC
  5
3CD7
  8
0
  6
BYBLOCK
 62
     0
 10
18545.116830499988
 20
8964.2791089999973
 30
0.0
 40
15.0
 50
270.0
 51
90.0
  0
ARC
  5
3CD8
  8
0
  6
BYBLOCK
 62
     0
 10
18545.116830499988
 20
8964.2791089999973
 30
0.0
 40
15.0
 50
90.0
 51
270.0
  0
ARC
  5
3CE9
  8
0
  6
BYBLOCK
 62
     0
 10
19889.118479499979
 20
5715.7797689999998
 30
0.0
 40
15.0
 50
0.0
 51
180.0
  0
ARC
  5
3CEA
  8
0
  6
BYBLOCK
 62
     0
 10
19889.118479499979
 20
5715.7797689999998
 30
0.0
 40
15.0
 50
180.0
 51
0.0
  0
ARC
  5
3CEB
  8
0
  6
BYBLOCK
 62
     0
 10
22619.11847949999
 20
5715.7797689999998
 30
0.0
 40
15.0
 50
180.0
 51
0.0
  0
ARC
  5
3CEC
  8
0
  6
BYBLOCK
 62
     0
 10
22619.11847949999
 20
5715.7797689999998
 30
0.0
 40
15.0
 50
0.0
 51
180.0
  0
ARC
  5
3CED
  8
0
  6
BYBLOCK
 62
     0
 10
22807.11847949999
 20
5715.7797689999998
 30
0.0
 40
15.0
 50
0.0
 51
180.0
  0
ARC
  5
3CEE
  8
0
  6
BYBLOCK
 62
     0
 10
22807.11847949999
 20
5715.7797689999998
 30
0.0
 40
15.0
 50
180.0
 51
0.0
  0
ARC
  5
3CEF
  8
0
  6
BYBLOCK
 62
     0
 10
24485.61847949999
 20
5715.7797689999998
 30
0.0
 40
15.0
 50
180.0
 51
0.0
  0
ARC
  5
3CF0
  8
0
  6
BYBLOCK
 62
     0
 10
24485.61847949999
 20
5715.7797689999998
 30
0.0
 40
15.0
 50
0.0
 51
180.0
  0
ARC
  5
3CF1
  8
0
  6
BYBLOCK
 62
     0
 10
22713.118479499979
 20
5315.7797690000016
 30
0.0
 40
15.0
 50
0.0
 51
180.0
  0
ARC
  5
3CF2
  8
0
  6
BYBLOCK
 62
     0
 10
22713.118479499979
 20
5315.7797690000016
 30
0.0
 40
15.0
 50
180.0
 51
0.0
  0
ARC
  5
3CF3
  8
0
  6
BYBLOCK
 62
     0
 10
24579.618479500001
 20
5315.7797690000016
 30
0.0
 40
15.0
 50
180.0
 51
0.0
  0
ARC
  5
3CF4
  8
0
  6
BYBLOCK
 62
     0
 10
24579.618479500001
 20
5315.7797690000016
 30
0.0
 40
15.0
 50
0.0
 51
180.0
  0
ARC
  5
3CF5
  8
0
  6
BYBLOCK
 62
     0
 10
19795.11847949999
 20
5315.7797690000016
 30
0.0
 40
15.0
 50
0.0
 51
180.0
  0
ARC
  5
3CF6
  8
0
  6
BYBLOCK
 62
     0
 10
19795.11847949999
 20
5315.7797690000016
 30
0.0
 40
15.0
 50
180.0
 51
0.0
  0
ARC
  5
3CF7
  8
0
  6
BYBLOCK
 62
     0
 10
22713.118479499979
 20
5315.7797690000016
 30
0.0
 40
15.0
 50
180.0
 51
0.0
  0
ARC
  5
3CF8
  8
0
  6
BYBLOCK
 62
     0
 10
22713.118479499979
 20
5315.7797690000016
 30
0.0
 40
15.0
 50
0.0
 51
180.0
  0
ARC
  5
3CF9
  8
0
  6
BYBLOCK
 62
     0
 10
24579.622438499991
 20
5315.7797690000016
 30
0.0
 40
15.0
 50
180.0
 51
0.0
  0
ARC
  5
3CFA
  8
0
  6
BYBLOCK
 62
     0
 10
24579.622438499991
 20
5315.7797690000016
 30
0.0
 40
15.0
 50
0.0
 51
180.0
  0
ARC
  5
3CFB
  8
0
  6
BYBLOCK
 62
     0
 10
24622.122438499991
 20
5315.7797690000016
 30
0.0
 40
15.0
 50
0.0
 51
180.0
  0
ARC
  5
3CFC
  8
0
  6
BYBLOCK
 62
     0
 10
24622.122438499991
 20
5315.7797690000016
 30
0.0
 40
15.0
 50
180.0
 51
0.0
  0
ARC
  5
3CFD
  8
0
  6
BYBLOCK
 62
     0
 10
19795.11847949999
 20
5315.7797690000016
 30
0.0
 40
15.0
 50
0.0
 51
180.0
  0
ARC
  5
3CFE
  8
0
  6
BYBLOCK
 62
     0
 10
19795.11847949999
 20
5315.7797690000016
 30
0.0
 40
15.0
 50
180.0
 51
0.0
  0
ARC
  5
3CFF
  8
0
  6
BYBLOCK
 62
     0
 10
19752.618479499979
 20
5315.7797690000016
 30
0.0
 40
15.0
 50
180.0
 51
0.0
  0
ARC
  5
3D00
  8
0
  6
BYBLOCK
 62
     0
 10
19752.618479499979
 20
5315.7797690000016
 30
0.0
 40
15.0
 50
0.0
 51
180.0
  0
ARC
  5
3D01
  8
0
  6
BYBLOCK
 62
     0
 10
19752.618479499979
 20
4915.7799339999983
 30
0.0
 40
15.0
 50
0.0
 51
180.0
  0
ARC
  5
3D02
  8
0
  6
BYBLOCK
 62
     0
 10
19752.618479499979
 20
4915.7799339999983
 30
0.0
 40
15.0
 50
180.0
 51
0.0
  0
ARC
  5
3D03
  8
0
  6
BYBLOCK
 62
     0
 10
24622.11847949999
 20
4915.7799339999983
 30
0.0
 40
15.0
 50
180.0
 51
0.0
  0
ARC
  5
3D04
  8
0
  6
BYBLOCK
 62
     0
 10
24622.11847949999
 20
4915.7799339999983
 30
0.0
 40
15.0
 50
0.0
 51
180.0
  0
ARC
  5
3D05
  8
0
  6
BYBLOCK
 62
     0
 10
15429.87229449999
 20
6615.7796040000021
 30
0.0
 40
15.0
 50
90.0
 51
270.0
  0
ARC
  5
3D06
  8
0
  6
BYBLOCK
 62
     0
 10
15429.87229449999
 20
6615.7796040000021
 30
0.0
 40
15.0
 50
270.0
 51
90.0
  0
ARC
  5
3D07
  8
0
  6
BYBLOCK
 62
     0
 10
15429.87229449999
 20
8964.279604000003
 30
0.0
 40
15.0
 50
270.0
 51
90.0
  0
ARC
  5
3D08
  8
0
  6
BYBLOCK
 62
     0
 10
15429.87229449999
 20
8964.279604000003
 30
0.0
 40
15.0
 50
90.0
 51
270.0
  0
ARC
  5
3D09
  8
0
  6
BYBLOCK
 62
     0
 10
7679.3754605000104
 20
6615.7796040000021
 30
0.0
 40
15.0
 50
90.0
 51
270.0
  0
ARC
  5
3D0A
  8
0
  6
BYBLOCK
 62
     0
 10
7679.3754605000104
 20
6615.7796040000021
 30
0.0
 40
15.0
 50
270.0
 51
90.0
  0
ARC
  5
3D0B
  8
0
  6
BYBLOCK
 62
     0
 10
7679.3754605000104
 20
8771.7796040000067
 30
0.0
 40
15.0
 50
270.0
 51
90.0
  0
ARC
  5
3D0C
  8
0
  6
BYBLOCK
 62
     0
 10
7679.3754605000104
 20
8771.7796040000067
 30
0.0
 40
15.0
 50
90.0
 51
270.0
  0
ARC
  5
3D0D
  8
0
  6
BYBLOCK
 62
     0
 10
8589.3738785000023
 20
10163.779630000001
 30
0.0
 40
15.0
 50
0.0
 51
180.0
  0
ARC
  5
3D0E
  8
0
  6
BYBLOCK
 62
     0
 10
8589.3738785000023
 20
10163.779630000001
 30
0.0
 40
15.0
 50
180.0
 51
0.0
  0
ARC
  5
3D0F
  8
0
  6
BYBLOCK
 62
     0
 10
14489.873878500001
 20
10163.779630000001
 30
0.0
 40
15.0
 50
180.0
 51
0.0
  0
ARC
  5
3D10
  8
0
  6
BYBLOCK
 62
     0
 10
14489.873878500001
 20
10163.779630000001
 30
0.0
 40
15.0
 50
0.0
 51
180.0
  0
ARC
  5
3D11
  8
0
  6
BYBLOCK
 62
     0
 10
14339.873878500001
 20
9763.7812800000029
 30
0.0
 40
15.0
 50
180.0
 51
0.0
  0
ARC
  5
3D12
  8
0
  6
BYBLOCK
 62
     0
 10
14339.873878500001
 20
9763.7812800000029
 30
0.0
 40
15.0
 50
0.0
 51
180.0
  0
ARC
  5
3D13
  8
0
  6
BYBLOCK
 62
     0
 10
14489.873878500001
 20
9763.7812800000029
 30
0.0
 40
15.0
 50
0.0
 51
180.0
  0
ARC
  5
3D14
  8
0
  6
BYBLOCK
 62
     0
 10
14489.873878500001
 20
9763.7812800000029
 30
0.0
 40
15.0
 50
180.0
 51
0.0
  0
ARC
  5
3D15
  8
0
  6
BYBLOCK
 62
     0
 10
8769.3738785000023
 20
9763.7812800000029
 30
0.0
 40
15.0
 50
0.0
 51
180.0
  0
ARC
  5
3D16
  8
0
  6
BYBLOCK
 62
     0
 10
8769.3738785000023
 20
9763.7812800000029
 30
0.0
 40
15.0
 50
180.0
 51
0.0
  0
ARC
  5
3D17
  8
0
  6
BYBLOCK
 62
     0
 10
14339.873878500001
 20
9763.7812800000029
 30
0.0
 40
15.0
 50
180.0
 51
0.0
  0
ARC
  5
3D18
  8
0
  6
BYBLOCK
 62
     0
 10
14339.873878500001
 20
9763.7812800000029
 30
0.0
 40
15.0
 50
0.0
 51
180.0
  0
ARC
  5
3D19
  8
0
  6
BYBLOCK
 62
     0
 10
8769.3738785000023
 20
4915.7799340000047
 30
0.0
 40
15.0
 50
0.0
 51
180.0
  0
ARC
  5
3D1A
  8
0
  6
BYBLOCK
 62
     0
 10
8769.3738785000023
 20
4915.7799340000047
 30
0.0
 40
15.0
 50
180.0
 51
0.0
  0
ARC
  5
3D1B
  8
0
  6
BYBLOCK
 62
     0
 10
14339.873878500001
 20
4915.7799340000047
 30
0.0
 40
15.0
 50
180.0
 51
0.0
  0
ARC
  5
3D1C
  8
0
  6
BYBLOCK
 62
     0
 10
14339.873878500001
 20
4915.7799340000047
 30
0.0
 40
15.0
 50
0.0
 51
180.0
  0
ARC
  5
3D1D
  8
0
  6
BYBLOCK
 62
     0
 10
14297.373878500001
 20
5315.7797690000052
 30
0.0
 40
15.0
 50
180.0
 51
0.0
  0
ARC
  5
3D1E
  8
0
  6
BYBLOCK
 62
     0
 10
14297.373878500001
 20
5315.7797690000052
 30
0.0
 40
15.0
 50
0.0
 51
180.0
  0
ARC
  5
3D1F
  8
0
  6
BYBLOCK
 62
     0
 10
14339.873878500001
 20
5315.7797690000052
 30
0.0
 40
15.0
 50
0.0
 51
180.0
  0
ARC
  5
3D20
  8
0
  6
BYBLOCK
 62
     0
 10
14339.873878500001
 20
5315.7797690000052
 30
0.0
 40
15.0
 50
180.0
 51
0.0
  0
ARC
  5
3D21
  8
0
  6
BYBLOCK
 62
     0
 10
8811.8738785000005
 20
5315.7797690000052
 30
0.0
 40
15.0
 50
0.0
 51
180.0
  0
ARC
  5
3D22
  8
0
  6
BYBLOCK
 62
     0
 10
8811.8738785000005
 20
5315.7797690000052
 30
0.0
 40
15.0
 50
180.0
 51
0.0
  0
ARC
  5
3D23
  8
0
  6
BYBLOCK
 62
     0
 10
8769.3738785000023
 20
5315.7797690000052
 30
0.0
 40
15.0
 50
180.0
 51
0.0
  0
ARC
  5
3D24
  8
0
  6
BYBLOCK
 62
     0
 10
8769.3738785000023
 20
5315.7797690000052
 30
0.0
 40
15.0
 50
0.0
 51
180.0
  0
ARC
  5
3D25
  8
0
  6
BYBLOCK
 62
     0
 10
11379.373878500001
 20
5315.7797690000052
 30
0.0
 40
15.0
 50
180.0
 51
0.0
  0
ARC
  5
3D26
  8
0
  6
BYBLOCK
 62
     0
 10
11379.373878500001
 20
5315.7797690000052
 30
0.0
 40
15.0
 50
0.0
 51
180.0
  0
ARC
  5
3D27
  8
0
  6
BYBLOCK
 62
     0
 10
8811.8738785000005
 20
5315.7797690000052
 30
0.0
 40
15.0
 50
0.0
 51
180.0
  0
ARC
  5
3D28
  8
0
  6
BYBLOCK
 62
     0
 10
8811.8738785000005
 20
5315.7797690000052
 30
0.0
 40
15.0
 50
180.0
 51
0.0
  0
ARC
  5
3D29
  8
0
  6
BYBLOCK
 62
     0
 10
11379.373878500001
 20
5315.7797690000052
 30
0.0
 40
15.0
 50
0.0
 51
180.0
  0
ARC
  5
3D2A
  8
0
  6
BYBLOCK
 62
     0
 10
11379.373878500001
 20
5315.7797690000052
 30
0.0
 40
15.0
 50
180.0
 51
0.0
  0
ARC
  5
3D2B
  8
0
  6
BYBLOCK
 62
     0
 10
14297.373878500001
 20
5315.7797690000052
 30
0.0
 40
15.0
 50
180.0
 51
0.0
  0
ARC
  5
3D2C
  8
0
  6
BYBLOCK
 62
     0
 10
14297.373878500001
 20
5315.7797690000052
 30
0.0
 40
15.0
 50
0.0
 51
180.0
  0
LINE
  5
3E58
  8
0-1
  6
CONTINUOUS
 62
     3
 10
24516.121461499992
 20
8714.2796239999971
 30
0.0
 11
24516.121461499992
 21
8746.2795310000001
 31
0.0
  0
LINE
  5
3E59
  8
0-1
  6
CONTINUOUS
 62
     3
 10
24665.120854500001
 20
8638.0929020000021
 30
0.0
 11
24622.118743499981
 21
8638.0929020000021
 31
0.0
  0
LINE
  5
3E5A
  8
0-1
  6
CONTINUOUS
 62
     3
 10
24665.120854500001
 20
8964.2799530000029
 30
0.0
 11
24665.120854500001
 21
8638.0929020000021
 31
0.0
  0
LINE
  5
3E5B
  8
0-1
  6
CONTINUOUS
 62
     3
 10
24230.154268500009
 20
8710.7442029999984
 30
0.0
 11
24198.155351500001
 21
8742.7441109999982
 31
0.0
  0
LINE
  5
3E5C
  8
0-1
  6
CONTINUOUS
 62
     3
 10
24511.121197499979
 20
8751.2797950000004
 30
0.0
 11
24201.690771500002
 21
8751.2797950000004
 31
0.0
  0
LINE
  5
3E5D
  8
0-1
  6
CONTINUOUS
 62
     3
 10
24516.121461499992
 20
8742.8806980000045
 30
0.0
 11
24198.024702499992
 21
8742.8806980000045
 31
0.0
  0
LINE
  5
3E5E
  8
0-1
  6
CONTINUOUS
 62
     3
 10
24511.121197499979
 20
8709.2793600000005
 30
0.0
 11
24233.691668499989
 21
8709.2793600000005
 31
0.0
  0
LINE
  5
3E5F
  8
0-1
  6
CONTINUOUS
 62
     3
 10
24516.121461499992
 20
8717.6794470000004
 30
0.0
 11
24223.220015499988
 21
8717.6794470000004
 31
0.0
  0
LINE
  5
3E60
  8
0-1
  6
CONTINUOUS
 62
     3
 10
24516.121461499992
 20
8726.0795339999986
 30
0.0
 11
24214.820917500001
 21
8726.0795339999986
 31
0.0
  0
LINE
  5
3E61
  8
0-1
  6
CONTINUOUS
 62
     3
 10
24516.121461499992
 20
8734.4806109999972
 30
0.0
 11
24206.419841499988
 21
8734.4806109999972
 31
0.0
  0
LINE
  5
3E62
  8
0-1
  6
CONTINUOUS
 62
     3
 10
23062.584669500018
 20
8710.7442029999984
 30
0.0
 11
23094.581607500018
 21
8742.7441109999982
 31
0.0
  0
LINE
  5
3E63
  8
0-1
  6
CONTINUOUS
 62
     3
 10
22776.619455500018
 20
8714.2796239999971
 30
0.0
 11
22776.619455500018
 21
8746.2795310000001
 31
0.0
  0
LINE
  5
3E64
  8
0-1
  6
CONTINUOUS
 62
     3
 10
22776.619455500018
 20
8717.6794470000004
 30
0.0
 11
23069.516943499999
 21
8717.6794470000004
 31
0.0
  0
LINE
  5
3E65
  8
0-1
  6
CONTINUOUS
 62
     3
 10
22776.619455500018
 20
8726.0795339999986
 30
0.0
 11
23077.918020500008
 21
8726.0795339999986
 31
0.0
  0
LINE
  5
3E66
  8
0-1
  6
CONTINUOUS
 62
     3
 10
22781.619719499999
 20
8709.2793600000005
 30
0.0
 11
23059.04726950001
 21
8709.2793600000005
 31
0.0
  0
LINE
  5
3E67
  8
0-1
  6
CONTINUOUS
 62
     3
 10
22776.619455500018
 20
8734.4806109999972
 30
0.0
 11
23086.317117500021
 21
8734.4806109999972
 31
0.0
  0
LINE
  5
3E68
  8
0-1
  6
CONTINUOUS
 62
     3
 10
22776.619455500018
 20
8742.8806980000045
 30
0.0
 11
23094.714235500021
 21
8742.8806980000045
 31
0.0
  0
LINE
  5
3E69
  8
0-1
  6
CONTINUOUS
 62
     3
 10
22781.619719499999
 20
8751.2797950000004
 30
0.0
 11
23091.04816650003
 21
8751.2797950000004
 31
0.0
  0
LINE
  5
3E6A
  8
0-1
  6
CONTINUOUS
 62
     3
 10
24665.120854500001
 20
8834.2790299999979
 30
0.0
 11
22713.118479500001
 21
8834.2790299999979
 31
0.0
  0
LINE
  5
3E6B
  8
0-1
  6
CONTINUOUS
 62
     3
 10
22755.616763500009
 20
8760.2796760000001
 30
0.0
 11
24537.120194499988
 21
8760.2796760000001
 31
0.0
  0
LINE
  5
3E6C
  8
0-1
  6
CONTINUOUS
 62
     3
 10
22755.616763500009
 20
8700.2794779999967
 30
0.0
 11
24537.120194499988
 21
8700.2794779999967
 31
0.0
  0
LINE
  5
3E6D
  8
0-1
  6
CONTINUOUS
 62
     3
 10
22713.118479500001
 20
8964.2799530000029
 30
0.0
 11
24665.120854500001
 21
8964.2799530000029
 31
0.0
  0
LINE
  5
3E6E
  8
0-1
  6
CONTINUOUS
 62
     3
 10
22649.617503500001
 20
8714.2796239999971
 30
0.0
 11
22649.617503500001
 21
8746.2795310000001
 31
0.0
  0
LINE
  5
3E6F
  8
0-1
  6
CONTINUOUS
 62
     3
 10
22363.656248499989
 20
8710.7442029999984
 30
0.0
 11
22331.655351500001
 21
8742.7441109999982
 31
0.0
  0
LINE
  5
3E70
  8
0-1
  6
CONTINUOUS
 62
     3
 10
22649.617503500001
 20
8742.8806980000045
 30
0.0
 11
22331.524703499981
 21
8742.8806980000045
 31
0.0
  0
LINE
  5
3E71
  8
0-1
  6
CONTINUOUS
 62
     3
 10
22649.617503500001
 20
8734.4806109999972
 30
0.0
 11
22339.919841499988
 21
8734.4806109999972
 31
0.0
  0
LINE
  5
3E72
  8
0-1
  6
CONTINUOUS
 62
     3
 10
22649.617503500001
 20
8726.0795339999986
 30
0.0
 11
22348.318938500001
 21
8726.0795339999986
 31
0.0
  0
LINE
  5
3E73
  8
0-1
  6
CONTINUOUS
 62
     3
 10
22649.617503500001
 20
8717.6794470000004
 30
0.0
 11
22356.71803649998
 21
8717.6794470000004
 31
0.0
  0
LINE
  5
3E74
  8
0-1
  6
CONTINUOUS
 62
     3
 10
22644.619218499989
 20
8751.2797950000004
 30
0.0
 11
22335.188792500001
 21
8751.2797950000004
 31
0.0
  0
LINE
  5
3E75
  8
0-1
  6
CONTINUOUS
 62
     3
 10
22644.619218499989
 20
8709.2793600000005
 30
0.0
 11
22367.191669499989
 21
8709.2793600000005
 31
0.0
  0
LINE
  5
3E76
  8
0-1
  6
CONTINUOUS
 62
     3
 10
19863.617740500002
 20
8709.2793600000005
 30
0.0
 11
20141.04727049997
 21
8709.2793600000005
 31
0.0
  0
LINE
  5
3E77
  8
0-1
  6
CONTINUOUS
 62
     3
 10
19858.619456500001
 20
8714.2796239999971
 30
0.0
 11
19858.619456500001
 21
8746.2795310000001
 31
0.0
  0
LINE
  5
3E78
  8
0-1
  6
CONTINUOUS
 62
     3
 10
19709.61808449998
 20
8638.0929020000021
 30
0.0
 11
19752.616236499998
 21
8638.0929020000021
 31
0.0
  0
LINE
  5
3E79
  8
0-1
  6
CONTINUOUS
 62
     3
 10
19709.61808449998
 20
8638.0929020000021
 30
0.0
 11
19709.61808449998
 21
8964.2799530000029
 31
0.0
  0
LINE
  5
3E7A
  8
0-1
  6
CONTINUOUS
 62
     3
 10
19863.617740500002
 20
8751.2797950000004
 30
0.0
 11
20173.048167500001
 21
8751.2797950000004
 31
0.0
  0
LINE
  5
3E7B
  8
0-1
  6
CONTINUOUS
 62
     3
 10
20144.580710499999
 20
8710.7442029999984
 30
0.0
 11
20176.581608500001
 21
8742.7441109999982
 31
0.0
  0
LINE
  5
3E7C
  8
0-1
  6
CONTINUOUS
 62
     3
 10
19858.619456500001
 20
8742.8806980000045
 30
0.0
 11
20176.714235500011
 21
8742.8806980000045
 31
0.0
  0
LINE
  5
3E7D
  8
0-1
  6
CONTINUOUS
 62
     3
 10
19858.619456500001
 20
8734.4806109999972
 30
0.0
 11
20168.317118499999
 21
8734.4806109999972
 31
0.0
  0
LINE
  5
3E7E
  8
0-1
  6
CONTINUOUS
 62
     3
 10
19858.619456500001
 20
8726.0795339999986
 30
0.0
 11
20159.918020500008
 21
8726.0795339999986
 31
0.0
  0
LINE
  5
3E7F
  8
0-1
  6
CONTINUOUS
 62
     3
 10
19858.619456500001
 20
8717.6794470000004
 30
0.0
 11
20151.518923499982
 21
8717.6794470000004
 31
0.0
  0
LINE
  5
3E80
  8
0-1
  6
CONTINUOUS
 62
     3
 10
19837.616764499999
 20
8700.2794779999967
 30
0.0
 11
22670.618215499991
 21
8700.2794779999967
 31
0.0
  0
LINE
  5
3E81
  8
0-1
  6
CONTINUOUS
 62
     3
 10
19837.616764499999
 20
8760.2796760000001
 30
0.0
 11
22670.618215499991
 21
8760.2796760000001
 31
0.0
  0
LINE
  5
3E82
  8
0-1
  6
CONTINUOUS
 62
     3
 10
19709.61808449998
 20
8964.2799530000029
 30
0.0
 11
22713.118479500001
 21
8964.2799530000029
 31
0.0
  0
LINE
  5
3E83
  8
0-1
  6
CONTINUOUS
 62
     3
 10
22713.118479500001
 20
8834.2790299999979
 30
0.0
 11
19709.61808449998
 21
8834.2790299999979
 31
0.0
  0
LINE
  5
3E84
  8
0-1
  6
CONTINUOUS
 62
     3
 10
22713.118479500001
 20
8834.2790299999979
 30
0.0
 11
22713.118479500001
 21
8964.2799530000029
 31
0.0
  0
LINE
  5
3E85
  8
0-1
  6
CONTINUOUS
 62
     3
 10
22713.118479500001
 20
8834.2790299999979
 30
0.0
 11
22713.118479500001
 21
8964.2799530000029
 31
0.0
  0
ARC
  5
3E86
  8
0-1
  6
CONTINUOUS
 62
     3
 10
24511.121197499979
 20
8746.2795310000001
 30
0.0
 40
5.0
 50
0.0
 51
90.0
  0
ARC
  5
3E87
  8
0-1
  6
CONTINUOUS
 62
     3
 10
24511.121197499979
 20
8714.2796239999971
 30
0.0
 40
5.0
 50
269.9999850001808
 51
0.0
  0
ARC
  5
3E88
  8
0-1
  6
CONTINUOUS
 62
     3
 10
24201.690771500002
 20
8746.2795310000001
 30
0.0
 40
5.0
 50
90.0
 51
224.99998499997989
  0
ARC
  5
3E89
  8
0-1
  6
CONTINUOUS
 62
     3
 10
24233.691668499989
 20
8714.2796239999971
 30
0.0
 40
5.0
 50
224.99998499997989
 51
269.9999850001808
  0
ARC
  5
3E8A
  8
0-1
  6
CONTINUOUS
 62
     3
 10
23091.04816650003
 20
8746.2795310000001
 30
0.0
 40
5.0
 50
314.99998500027471
 51
90.0
  0
ARC
  5
3E8B
  8
0-1
  6
CONTINUOUS
 62
     3
 10
23059.04726950001
 20
8714.2796239999971
 30
0.0
 40
5.0
 50
269.9999850001808
 51
314.99998500027471
  0
ARC
  5
3E8C
  8
0-1
  6
CONTINUOUS
 62
     3
 10
22781.619719499999
 20
8714.2796239999971
 30
0.0
 40
5.0
 50
180.0
 51
269.9999850001808
  0
ARC
  5
3E8D
  8
0-1
  6
CONTINUOUS
 62
     3
 10
22781.619719499999
 20
8746.2795310000001
 30
0.0
 40
5.0
 50
90.0
 51
180.0
  0
ARC
  5
3E8E
  8
0-1
  6
CONTINUOUS
 62
     3
 10
22644.619218499989
 20
8714.2796239999971
 30
0.0
 40
5.0
 50
269.9999850001808
 51
0.0
  0
ARC
  5
3E8F
  8
0-1
  6
CONTINUOUS
 62
     3
 10
22644.619218499989
 20
8746.2795310000001
 30
0.0
 40
5.0
 50
0.0
 51
90.0
  0
ARC
  5
3E90
  8
0-1
  6
CONTINUOUS
 62
     3
 10
22335.188792500001
 20
8746.2795310000001
 30
0.0
 40
5.0
 50
90.0
 51
224.99998499997989
  0
ARC
  5
3E91
  8
0-1
  6
CONTINUOUS
 62
     3
 10
22367.191669499989
 20
8714.2796239999971
 30
0.0
 40
5.0
 50
224.99998499997989
 51
269.9999850001808
  0
ARC
  5
3E92
  8
0-1
  6
CONTINUOUS
 62
     3
 10
20173.048167500001
 20
8746.2795310000001
 30
0.0
 40
5.0
 50
314.99998500027471
 51
90.0
  0
ARC
  5
3E93
  8
0-1
  6
CONTINUOUS
 62
     3
 10
19863.617740500002
 20
8746.2795310000001
 30
0.0
 40
5.0
 50
90.0
 51
180.0
  0
ARC
  5
3E94
  8
0-1
  6
CONTINUOUS
 62
     3
 10
19863.617740500002
 20
8714.2796239999971
 30
0.0
 40
5.0
 50
180.0
 51
269.9999850001808
  0
ARC
  5
3E95
  8
0-1
  6
CONTINUOUS
 62
     3
 10
20141.04727049997
 20
8714.2796239999971
 30
0.0
 40
5.0
 50
269.9999850001808
 51
314.99998500027471
  0
LINE
  5
3E96
  8
SUNPOU
  6
CONTINUOUS
 62
     4
 10
19709.616104499979
 20
9044.2799530000029
 30
0.0
 11
19709.616104499979
 21
10243.737564999999
 31
0.0
  0
LINE
  5
3E97
  8
SUNPOU
  6
CONTINUOUS
 62
     4
 10
24665.120854500001
 20
9044.2799530000029
 30
0.0
 11
24665.120854500001
 21
10243.737564999999
 31
0.0
  0
LINE
  5
3E98
  8
SUNPOU
  6
CONTINUOUS
 62
     4
 10
19712.616104499979
 20
10163.737564999999
 30
0.0
 11
24662.120854500001
 21
10163.737564999999
 31
0.0
  0
LINE
  5
3E99
  8
SUNPOU
  6
CONTINUOUS
 62
     4
 10
19752.618215499981
 20
9044.2799530000029
 30
0.0
 11
19752.618215499981
 21
9843.7797950000004
 31
0.0
  0
LINE
  5
3E9A
  8
SUNPOU
  6
CONTINUOUS
 62
     4
 10
24622.118743499981
 20
9044.2799530000029
 30
0.0
 11
24622.118743499981
 21
9843.7797950000004
 31
0.0
  0
LINE
  5
3E9B
  8
SUNPOU
  6
CONTINUOUS
 62
     4
 10
19752.618215499981
 20
9763.7797950000004
 30
0.0
 11
24622.118743499981
 21
9763.7797950000004
 31
0.0
  0
LINE
  5
3E9C
  8
SUNPOU
  6
CONTINUOUS
 62
     4
 10
19752.618215499981
 20
9044.2799530000029
 30
0.0
 11
19752.618215499981
 21
9843.7797950000004
 31
0.0
  0
LINE
  5
3E9D
  8
SUNPOU
  6
CONTINUOUS
 62
     4
 10
19709.616104499979
 20
9044.2799530000029
 30
0.0
 11
19709.616104499979
 21
9843.7797950000004
 31
0.0
  0
LINE
  5
3E9E
  8
SUNPOU
  6
CONTINUOUS
 62
     4
 10
19752.618215499981
 20
9763.7797950000004
 30
0.0
 11
19992.618215499981
 21
9763.7797950000004
 31
0.0
  0
LINE
  5
3E9F
  8
SUNPOU
  6
CONTINUOUS
 62
     4
 10
19712.616104499979
 20
9763.7797950000004
 30
0.0
 11
19472.616104500001
 21
9763.7797950000004
 31
0.0
  0
LINE
  5
3EA0
  8
SUNPOU
  6
CONTINUOUS
 62
     4
 10
19752.618215499981
 20
9763.7797950000004
 30
0.0
 11
19712.616104499979
 21
9763.7797950000004
 31
0.0
  0
LINE
  5
3EA1
  8
SUNPOU
  6
CONTINUOUS
 62
     4
 10
24622.118743499981
 20
9044.2799530000029
 30
0.0
 11
24622.118743499981
 21
9843.7797950000004
 31
0.0
  0
LINE
  5
3EA2
  8
SUNPOU
  6
CONTINUOUS
 62
     4
 10
24665.120854500001
 20
9044.2799530000029
 30
0.0
 11
24665.120854500001
 21
9843.7797950000004
 31
0.0
  0
LINE
  5
3EA3
  8
SUNPOU
  6
CONTINUOUS
 62
     4
 10
24622.118743499981
 20
9763.7797950000004
 30
0.0
 11
24382.118743499981
 21
9763.7797950000004
 31
0.0
  0
LINE
  5
3EA4
  8
SUNPOU
  6
CONTINUOUS
 62
     4
 10
24662.120854500001
 20
9763.7797950000004
 30
0.0
 11
24902.120854500001
 21
9763.7797950000004
 31
0.0
  0
LINE
  5
3EA5
  8
SUNPOU
  6
CONTINUOUS
 62
     4
 10
24622.118743499981
 20
9763.7797950000004
 30
0.0
 11
24662.120854500001
 21
9763.7797950000004
 31
0.0
  0
TEXT
  5
3EA6
  8
0
  6
CONTINUOUS
 62
     7
 10
24782.120854500001
 20
9843.7797950000004
 30
0.0
 40
160.0
  1
43
  0
TEXT
  5
3EA7
  8
0
  6
CONTINUOUS
 62
     7
 10
19352.616104500001
 20
9843.7797950000004
 30
0.0
 40
160.0
  1
43
  0
TEXT
  5
3EA8
  8
0
  6
CONTINUOUS
 62
     7
 10
21787.368479500001
 20
9843.7797950000004
 30
0.0
 40
160.0
  1
4869.5
  0
TEXT
  5
3EA9
  8
0
  6
CONTINUOUS
 62
     7
 10
21787.368479500001
 20
10243.737564999999
 30
0.0
 40
160.0
  1
4955.5
  0
ARC
  5
3EAA
  8
0
  6
BYBLOCK
 62
     0
 10
19709.616104499979
 20
10163.737564999999
 30
0.0
 40
15.0
 50
0.0
 51
180.0
  0
ARC
  5
3EAB
  8
0
  6
BYBLOCK
 62
     0
 10
19709.616104499979
 20
10163.737564999999
 30
0.0
 40
15.0
 50
180.0
 51
0.0
  0
ARC
  5
3EAC
  8
0
  6
BYBLOCK
 62
     0
 10
24665.120854500001
 20
10163.737564999999
 30
0.0
 40
15.0
 50
180.0
 51
0.0
  0
ARC
  5
3EAD
  8
0
  6
BYBLOCK
 62
     0
 10
24665.120854500001
 20
10163.737564999999
 30
0.0
 40
15.0
 50
0.0
 51
180.0
  0
ARC
  5
3EAE
  8
0
  6
BYBLOCK
 62
     0
 10
19752.618215499981
 20
9763.7797950000004
 30
0.0
 40
15.0
 50
0.0
 51
180.0
  0
ARC
  5
3EAF
  8
0
  6
BYBLOCK
 62
     0
 10
19752.618215499981
 20
9763.7797950000004
 30
0.0
 40
15.0
 50
180.0
 51
0.0
  0
ARC
  5
3EB0
  8
0
  6
BYBLOCK
 62
     0
 10
24622.118743499981
 20
9763.7797950000004
 30
0.0
 40
15.0
 50
180.0
 51
0.0
  0
ARC
  5
3EB1
  8
0
  6
BYBLOCK
 62
     0
 10
24622.118743499981
 20
9763.7797950000004
 30
0.0
 40
15.0
 50
0.0
 51
180.0
  0
ARC
  5
3EB2
  8
0
  6
BYBLOCK
 62
     0
 10
19752.618215499981
 20
9763.7797950000004
 30
0.0
 40
15.0
 50
0.0
 51
180.0
  0
ARC
  5
3EB3
  8
0
  6
BYBLOCK
 62
     0
 10
19752.618215499981
 20
9763.7797950000004
 30
0.0
 40
15.0
 50
180.0
 51
0.0
  0
ARC
  5
3EB4
  8
0
  6
BYBLOCK
 62
     0
 10
19709.616104499979
 20
9763.7797950000004
 30
0.0
 40
15.0
 50
180.0
 51
0.0
  0
ARC
  5
3EB5
  8
0
  6
BYBLOCK
 62
     0
 10
19709.616104499979
 20
9763.7797950000004
 30
0.0
 40
15.0
 50
0.0
 51
180.0
  0
ARC
  5
3EB6
  8
0
  6
BYBLOCK
 62
     0
 10
24622.118743499981
 20
9763.7797950000004
 30
0.0
 40
15.0
 50
180.0
 51
0.0
  0
ARC
  5
3EB7
  8
0
  6
BYBLOCK
 62
     0
 10
24622.118743499981
 20
9763.7797950000004
 30
0.0
 40
15.0
 50
0.0
 51
180.0
  0
ARC
  5
3EB8
  8
0
  6
BYBLOCK
 62
     0
 10
24665.120854500001
 20
9763.7797950000004
 30
0.0
 40
15.0
 50
0.0
 51
180.0
  0
ARC
  5
3EB9
  8
0
  6
BYBLOCK
 62
     0
 10
24665.120854500001
 20
9763.7797950000004
 30
0.0
 40
15.0
 50
180.0
 51
0.0
  0
LINE
  5
3EC7
  8
SUNPOU
  6
CONTINUOUS
 62
     4
 10
9064.1600894999792
 20
14133.73164
 30
0.0
 11
9064.1600894999792
 21
12935.787238000001
 31
0.0
  0
LINE
  5
3EC8
  8
SUNPOU
  6
CONTINUOUS
 62
     4
 10
14019.660881499971
 20
14133.73164
 30
0.0
 11
14019.660881499971
 21
12935.787238000001
 31
0.0
  0
LINE
  5
3EC9
  8
SUNPOU
  6
CONTINUOUS
 62
     4
 10
9064.1600894999792
 20
13015.787238000001
 30
0.0
 11
14019.660881499971
 21
13015.787238000001
 31
0.0
  0
TEXT
  5
3ECA
  8
0
  6
CONTINUOUS
 62
     7
 10
10619.243818833311
 20
13095.78723800001
 30
0.0
 40
160.0
  1
ケラバ外寸 4955.5
  0
ARC
  5
3ECB
  8
0
  6
BYBLOCK
 62
     0
 10
9064.1600894999792
 20
13015.787238000001
 30
0.0
 40
15.0
 50
0.0
 51
180.0
  0
ARC
  5
3ECC
  8
0
  6
BYBLOCK
 62
     0
 10
9064.1600894999792
 20
13015.787238000001
 30
0.0
 40
15.0
 50
180.0
 51
0.0
  0
ARC
  5
3ECD
  8
0
  6
BYBLOCK
 62
     0
 10
14019.660881499971
 20
13015.787238000001
 30
0.0
 40
15.0
 50
180.0
 51
0.0
  0
ARC
  5
3ECE
  8
0
  6
BYBLOCK
 62
     0
 10
14019.660881499971
 20
13015.787238000001
 30
0.0
 40
15.0
 50
0.0
 51
180.0
  0
TEXT
  5
3F21
  8
NAME
 10
25530.092913773478
 20
1076.0
 30
0.0
 40
360.0
  1
型（単棟）
 41
0.6
  7
01
  0
TEXT
  5
3F22
  8
NAME
 10
21583.547829600891
 20
1076.6369801169251
 30
0.0
 40
360.0
  1
VGCU-3055（H）+1955（H）
 41
0.5200000000000001
  0
TEXT
  5
3F24
  8
NAME
 10
21933.552716388989
 20
1876.0
 30
0.0
 40
360.0
  1
ヨドガレージ ラヴィージュ
 41
0.75
  7
01
  0
LINE
  5
3F25
  8
NAME
  6
CONTINUOUS
 10
26067.886878884288
 20
2236.0
 30
0.0
 11
26067.886878884288
 21
1876.0
 31
0.0
  0
LINE
  5
3F26
  8
NAME
  6
CONTINUOUS
 10
26167.886878884288
 20
2236.0
 30
0.0
 11
26167.886878884288
 21
1876.0
 31
0.0
  0
LINE
  5
3F27
  8
NAME
  6
CONTINUOUS
 10
26267.88687888431
 20
2236.0
 30
0.0
 11
26267.88687888431
 21
1876.0
 31
0.0
  0
LINE
  5
3F28
  8
NAME
  6
CONTINUOUS
 10
26007.886878884288
 20
2236.0
 30
0.0
 11
26327.886878884288
 21
2236.0
 31
0.0
  0
LINE
  5
3F29
  8
NAME
  6
CONTINUOUS
 10
26327.886878884288
 20
1876.0
 30
0.0
 11
26007.886878884288
 21
1876.0
 31
0.0
  0
TEXT
  5
3FC3
  8
FILENAME
  6
CONTINUOUS
 10
27537.333333333339
 20
348.0
 30
0.0
 40
200.0
  1
＜VGCU-3055+1955-1-A_0.DXF ＞
  7
FILENAME
 72
     2
 11
32764.0
 21
348.0
 31
0.0
  0
LINE
  5
3FC9
  8
WAKUSEN-01
 10
868.00000000000193
 20
827.99999999999955
 30
0.0
 11
32764.000000000011
 21
827.99999999999943
 31
0.0
  0
LINE
  5
3FCA
  8
WAKUSEN-01
 10
868.00000000000193
 20
827.99999999999955
 30
0.0
 11
868.00000000000193
 21
22484.000000000011
 31
0.0
  0
LINE
  5
3FCB
  8
WAKUSEN-01
 10
32764.000000000011
 20
827.99999999999943
 30
0.0
 11
32764.000000000011
 21
22484.000000000011
 31
0.0
  0
LINE
  5
3FCC
  8
WAKUSEN-01
 10
20560.0
 20
827.99999999999716
 30
0.0
 11
20560.0
 21
2484.0
 31
0.0
  0
LINE
  5
3FCD
  8
WAKUSEN-02
 10
26868.0
 20
827.99999999999261
 30
0.0
 11
26868.0
 21
2484.0
 31
0.0
  0
ENDSEC
  0
EOF
