  0
SECTION
  2
HEADER
  9
$ACADVER
  1
AC1009
  9
$INSBASE
 10
0.0
 20
0.0
 30
0.0
  9
$EXTMIN
 10
867.99324330406671
 20
327.38164749855792
 30
-0.0000000000000053
  9
$EXTMAX
 10
32765.33210850941
 20
22484.553276491992
 30
0.0000000000000099
  9
$LIMMIN
 10
0.0
 20
0.0
  9
$LIMMAX
 10
33600.0
 20
23760.0
  9
$ORTHOMODE
 70
     1
  9
$REGENMODE
 70
     1
  9
$FILLMODE
 70
     1
  9
$QTEXTMODE
 70
     0
  9
$MIRRTEXT
 70
     1
  9
$DRAGMODE
 70
     2
  9
$LTSCALE
 40
80.0
  9
$OSMODE
 70
  3071
  9
$ATTMODE
 70
     1
  9
$TEXTSIZE
 40
0.2
  9
$TRACEWID
 40
0.05
  9
$TEXTSTYLE
  7
00
  9
$CLAYER
  8
0
  9
$CELTYPE
  6
BYLAYER
  9
$CECOLOR
 62
   256
  9
$DIMSCALE
 40
80.0
  9
$DIMASZ
 40
3.0
  9
$DIMEXO
 40
1.0
  9
$DIMDLI
 40
0.38
  9
$DIMRND
 40
0.5
  9
$DIMDLE
 40
0.0
  9
$DIMEXE
 40
1.0
  9
$DIMTP
 40
0.0
  9
$DIMTM
 40
0.0
  9
$DIMTXT
 40
2.0
  9
$DIMCEN
 40
0.09
  9
$DIMTSZ
 40
0.0
  9
$DIMTOL
 70
     0
  9
$DIMLIM
 70
     0
  9
$DIMTIH
 70
     0
  9
$DIMTOH
 70
     0
  9
$DIMSE1
 70
     0
  9
$DIMSE2
 70
     0
  9
$DIMTAD
 70
     1
  9
$DIMZIN
 70
     8
  9
$DIMBLK
  1
DOTSMALL
  9
$DIMASO
 70
     1
  9
$DIMSHO
 70
     1
  9
$DIMPOST
  1

  9
$DIMAPOST
  1

  9
$DIMALT
 70
     0
  9
$DIMALTD
 70
     2
  9
$DIMALTF
 40
25.399999999999999
  9
$DIMLFAC
 40
1.0
  9
$DIMTOFL
 70
     1
  9
$DIMTVP
 40
0.0
  9
$DIMTIX
 70
     0
  9
$DIMSOXD
 70
     0
  9
$DIMSAH
 70
     0
  9
$DIMBLK1
  1

  9
$DIMBLK2
  1

  9
$DIMSTYLE
  2
SUNPOU
  9
$DIMCLRD
 70
     4
  9
$DIMCLRE
 70
     4
  9
$DIMCLRT
 70
     7
  9
$DIMTFAC
 40
1.0
  9
$DIMGAP
 40
1.0
  9
$LUNITS
 70
     2
  9
$LUPREC
 70
     4
  9
$SKETCHINC
 40
0.1
  9
$FILLETRAD
 40
0.0
  9
$AUNITS
 70
     0
  9
$AUPREC
 70
     0
  9
$MENU
  1
acad
  9
$ELEVATION
 40
0.0
  9
$PELEVATION
 40
0.0
  9
$THICKNESS
 40
0.0
  9
$LIMCHECK
 70
     0
  9
$BLIPMODE
 70
     1
  9
$CHAMFERA
 40
0.0
  9
$CHAMFERB
 40
0.0
  9
$SKPOLY
 70
     0
  9
$TDCREATE
 40
2454570.9320341442
  9
$TDUPDATE
 40
2458942.438001852
  9
$TDINDWG
 40
0.0591903125
  9
$TDUSRTIMER
 40
0.0591843287
  9
$USRTIMER
 70
     1
  9
$ANGBASE
 50
0.0
  9
$ANGDIR
 70
     0
  9
$PDMODE
 70
     0
  9
$PDSIZE
 40
0.0
  9
$PLINEWID
 40
0.0
  9
$COORDS
 70
     1
  9
$SPLFRAME
 70
     0
  9
$SPLINETYPE
 70
     6
  9
$SPLINESEGS
 70
     8
  9
$ATTDIA
 70
     1
  9
$ATTREQ
 70
     1
  9
$HANDLING
 70
     1
  9
$HANDSEED
  5
3DDB
  9
$SURFTAB1
 70
     6
  9
$SURFTAB2
 70
     6
  9
$SURFTYPE
 70
     6
  9
$SURFU
 70
     6
  9
$SURFV
 70
     6
  9
$UCSNAME
  2

  9
$UCSORG
 10
0.0
 20
0.0
 30
0.0
  9
$UCSXDIR
 10
1.0
 20
0.0
 30
0.0
  9
$UCSYDIR
 10
0.0
 20
1.0
 30
0.0
  9
$PUCSNAME
  2

  9
$PUCSORG
 10
0.0
 20
0.0
 30
0.0
  9
$PUCSXDIR
 10
1.0
 20
0.0
 30
0.0
  9
$PUCSYDIR
 10
0.0
 20
1.0
 30
0.0
  9
$USERI1
 70
     0
  9
$USERI2
 70
     0
  9
$USERI3
 70
     0
  9
$USERI4
 70
     0
  9
$USERI5
 70
     0
  9
$USERR1
 40
0.0
  9
$USERR2
 40
0.0
  9
$USERR3
 40
0.0
  9
$USERR4
 40
0.0
  9
$USERR5
 40
0.0
  9
$WORLDVIEW
 70
     1
  9
$SHADEDGE
 70
     3
  9
$SHADEDIF
 70
    70
  9
$TILEMODE
 70
     1
  9
$MAXACTVP
 70
    16
  9
$PLIMCHECK
 70
     0
  9
$PEXTMIN
 10
1.0000000000000000E+020
 20
1.0000000000000000E+020
 30
1.0000000000000000E+020
  9
$PEXTMAX
 10
-1.0000000000000000E+020
 20
-1.0000000000000000E+020
 30
-1.0000000000000000E+020
  9
$PLIMMIN
 10
0.0
 20
0.0
  9
$PLIMMAX
 10
12.0
 20
9.0
  9
$UNITMODE
 70
     0
  9
$VISRETAIN
 70
     0
  9
$PLINEGEN
 70
     1
  9
$PSLTSCALE
 70
     0
  0
ENDSEC
  0
SECTION
  2
TABLES
  0
TABLE
  2
VPORT
 70
     1
  0
VPORT
  2
*ACTIVE
 70
     0
 10
0.0
 20
0.0
 11
1.0
 21
1.0
 12
16800.0
 22
11880.0
 13
0.0
 23
0.0
 14
1.0
 24
1.0
 15
0.0
 25
0.0
 16
0.0
 26
0.0
 36
1.0
 17
0.0
 27
0.0
 37
0.0
 40
23981.023255813951
 41
2.195652173913043
 42
50.0
 43
0.0
 44
0.0
 50
0.0
 51
0.0
 71
     0
 72
 10000
 73
     1
 74
     1
 75
     0
 76
     0
 77
     0
 78
     0
  0
ENDTAB
  0
TABLE
  2
LTYPE
 70
     3
  0
LTYPE
  2
CONTINUOUS
 70
     0
  3
Solid line
 72
    65
 73
     0
 40
0.0
  0
LTYPE
  2
DASHED3
 70
     0
  3
------  ------  ------  ------  
 72
    65
 73
     2
 40
5.0
 49
3.75
 49
-1.25
  0
LTYPE
  2
CENTER2
 70
     0
  3
----------  --  ----------  --  
 72
    65
 73
     4
 40
20.0
 49
12.5
 49
-2.5
 49
2.5
 49
-2.5
  0
ENDTAB
  0
TABLE
  2
LAYER
 70
    19
  0
LAYER
  2
0
 70
     0
 62
     7
  6
CONTINUOUS
  0
LAYER
  2
SUNPOU
 70
     0
 62
     4
  6
CONTINUOUS
  0
LAYER
  2
0-1
 70
     0
 62
     7
  6
CONTINUOUS
  0
LAYER
  2
0-2
 70
     0
 62
     7
  6
CONTINUOUS
  0
LAYER
  2
0-5
 70
     0
 62
     7
  6
CONTINUOUS
  0
LAYER
  2
0-6
 70
     0
 62
     7
  6
CONTINUOUS
  0
LAYER
  2
2-0
 70
     0
 62
     7
  6
CONTINUOUS
  0
LAYER
  2
0-7
 70
     0
 62
     7
  6
CONTINUOUS
  0
LAYER
  2
0-8
 70
     0
 62
     7
  6
CONTINUOUS
  0
LAYER
  2
YODOROGO
 70
     0
 62
   130
  6
CONTINUOUS
  0
LAYER
  2
WAKUSEN-01
 70
     0
 62
    50
  6
CONTINUOUS
  0
LAYER
  2
WAKUSEN-02
 70
     0
 62
   130
  6
CONTINUOUS
  0
LAYER
  2
WAKUMOJI-01
 70
     0
 62
   130
  6
CONTINUOUS
  0
LAYER
  2
FILENAME
 70
     0
 62
     7
  6
CONTINUOUS
  0
LAYER
  2
NAME
 70
     0
 62
    20
  6
CONTINUOUS
  0
LAYER
  2
0-4
 70
     0
 62
     7
  6
CONTINUOUS
  0
LAYER
  2
0-0
 70
     0
 62
     7
  6
CONTINUOUS
  0
ENDTAB
  0
TABLE
  2
STYLE
 70
     5
  0
STYLE
  2
STANDARD
 70
     0
 40
0.0
 41
1.0
 50
0.0
 71
     0
 42
0.0
  3
txt
  4
BIGFONT
  0
STYLE
  2
00
 70
     0
 40
0.0
 41
0.6666666666666666
 50
0.0
 71
     0
 42
0.2
  3
ROMANS
  4
BIGFONT
  0
STYLE
  2
01
 70
     0
 40
3.0
 41
1.0
 50
0.0
 71
     0
 42
0.2
  3
ROMANS
  4
BIGFONT
  0
STYLE
  2
WAKUMOJI
 70
     0
 40
3.0
 41
1.0
 50
0.0
 71
     0
 42
3.0
  3
SIMPLEX
  4
BIGFONT
  0
STYLE
  2
FILENAME
 70
     0
 40
200.0
 41
1.0
 50
0.0
 71
     0
 42
200.0
  3
romans
  4
bigfont
  0
ENDTAB
  0
TABLE
  2
VIEW
 70
     0
  0
ENDTAB
  0
TABLE
  2
UCS
 70
     0
  0
ENDTAB
  0
TABLE
  2
APPID
 70
    13
  0
APPID
  2
ACAD
 70
     0
  0
APPID
  2
ACADANNOTATIVE
 70
     0
  0
APPID
  2
ACAD_PSEXT
 70
     0
  0
APPID
  2
DCO15
 70
     0
  0
APPID
  2
ACAD_MLEADERVER
 70
     0
  0
APPID
  2
AUTOCAD_POSTSCRIPT_FIGURE
 70
     0
  0
APPID
  2
ACAD_EXEMPT_FROM_CAD_STANDARDS
 70
     0
  0
APPID
  2
ACAD_DSTYLE_DIMJAG
 70
     0
  0
APPID
  2
ACAD_DSTYLE_DIMTALN
 70
     0
  0
APPID
  2
ACAD_DSTYLE_DIM_LINETYPE
 70
     0
  0
APPID
  2
ACAD_DSTYLE_DIM_EXT1_LINETYPE
 70
     0
  0
APPID
  2
ACAD_DSTYLE_DIM_EXT2_LINETYPE
 70
     0
  0
APPID
  2
ACAD_NAV_VCDISPLAY
 70
     0
  0
ENDTAB
  0
TABLE
  2
DIMSTYLE
 70
     2
  0
DIMSTYLE
  2
SUNPOU
 70
     0
  3

  4

  5

  6

  7

 40
80.0
 41
3.0
 42
1.0
 43
0.38
 44
1.0
 45
0.5
 46
0.0
 47
0.0
 48
0.0
140
2.0
141
0.09
142
0.0
143
25.399999999999999
144
1.0
145
0.0
146
1.0
147
1.0
 71
     0
 72
     0
 73
     0
 74
     0
 75
     0
 76
     0
 77
     1
 78
     8
170
     0
171
     2
172
     1
173
     0
174
     0
175
     0
176
     4
177
     4
178
     7
  0
ENDTAB
  0
ENDSEC
  0
SECTION
  2
BLOCKS
  0
BLOCK
  8
0
  2
$MODEL_SPACE
 70
     0
 10
0.0
 20
0.0
 30
0.0
  3
$MODEL_SPACE
  1

  0
ENDBLK
  5
339D
  8
0
  0
BLOCK
 67
     1
  8
0
  2
$PAPER_SPACE
 70
     0
 10
0.0
 20
0.0
 30
0.0
  3
$PAPER_SPACE
  1

  0
ENDBLK
  5
3399
 67
     1
  8
0
  0
BLOCK
  8
0
  2
_DOTSMALL
 70
     0
 10
0.0
 20
0.0
 30
0.0
  3
_DOTSMALL
  1

  0
POLYLINE
  5
33CE
  8
0
  6
BYBLOCK
 62
     0
 66
     1
 10
0.0
 20
0.0
 30
0.0
 70
     1
 40
0.5
 41
0.5
  0
VERTEX
  5
3DA3
  8
0
  6
BYBLOCK
 62
     0
 10
-0.0625
 20
0.0
 30
0.0
 42
1.0
  0
VERTEX
  5
3DA4
  8
0
  6
BYBLOCK
 62
     0
 10
0.0625
 20
0.0
 30
0.0
 42
1.0
  0
SEQEND
  5
3DA5
  8
0
  6
BYBLOCK
 62
     0
  0
ENDBLK
  5
33D2
  8
0
  0
ENDSEC
  0
SECTION
  2
ENTITIES
  0
LINE
  5
33D3
  8
0-1
  6
CONTINUOUS
 62
     3
 10
11059.756588
 20
18449.445750999981
 30
0.0
 11
11059.756588
 21
19390.753421000001
 31
0.0
  0
LINE
  5
33D4
  8
0-1
  6
CONTINUOUS
 62
     3
 10
11022.756416
 20
18475.310140000001
 30
0.0
 11
11022.756416
 21
19390.753421000001
 31
0.0
  0
LINE
  5
33D5
  8
0-1
  6
CONTINUOUS
 62
     3
 10
11391.43284400001
 20
18213.082048
 30
0.0
 11
9927.6158959999975
 21
19233.885414999961
 31
0.0
  0
LINE
  5
33D6
  8
0-1
  6
CONTINUOUS
 62
     3
 10
11659.756588
 20
18184.578959999992
 30
0.0
 11
11659.756588
 21
19390.753421000001
 31
0.0
  0
LINE
  5
33D7
  8
0-1
  6
CONTINUOUS
 62
     3
 10
11622.756416
 20
18258.746848999999
 30
0.0
 11
11622.756416
 21
19390.753421000001
 31
0.0
  0
LINE
  5
33D8
  8
0-1
  6
CONTINUOUS
 62
     3
 10
11459.75592800001
 20
18313.500332999982
 30
0.0
 11
11459.75592800001
 21
19390.753421000001
 31
0.0
  0
LINE
  5
33D9
  8
0-1
  6
CONTINUOUS
 62
     3
 10
13059.757248000011
 20
17046.826901
 30
0.0
 11
13059.757248000011
 21
19390.753421000001
 31
0.0
  0
LINE
  5
33DA
  8
0-1
  6
CONTINUOUS
 62
     3
 10
13022.75509700001
 20
17072.693269999982
 30
0.0
 11
13022.75509700001
 21
19390.753421000001
 31
0.0
  0
LINE
  5
33DB
  8
0-1
  6
CONTINUOUS
 62
     3
 10
12859.756588
 20
17186.640297999991
 30
0.0
 11
12859.756588
 21
19390.753421000001
 31
0.0
  0
LINE
  5
33DC
  8
0-1
  6
CONTINUOUS
 62
     3
 10
12822.757406000001
 20
17212.504688000001
 30
0.0
 11
12822.757406000001
 21
19390.753421000001
 31
0.0
  0
LINE
  5
33DD
  8
0-1
  6
CONTINUOUS
 62
     3
 10
12659.755928
 20
17326.449736999992
 30
0.0
 11
12659.755928
 21
19390.753421000001
 31
0.0
  0
LINE
  5
33DE
  8
0-1
  6
CONTINUOUS
 62
     3
 10
12622.755756
 20
17352.318085999981
 30
0.0
 11
12622.755756
 21
19390.753421000001
 31
0.0
  0
LINE
  5
33DF
  8
0-1
  6
CONTINUOUS
 62
     3
 10
12459.757248000011
 20
17466.261154999978
 30
0.0
 11
12459.757248000011
 21
19390.753421000001
 31
0.0
  0
LINE
  5
33E0
  8
0-1
  6
CONTINUOUS
 62
     3
 10
12422.75509700001
 20
17492.127523999989
 30
0.0
 11
12422.75509700001
 21
19390.753421000001
 31
0.0
  0
LINE
  5
33E1
  8
0-1
  6
CONTINUOUS
 62
     3
 10
12259.756588
 20
17606.074551999991
 30
0.0
 11
12259.756588
 21
19390.753421000001
 31
0.0
  0
LINE
  5
33E2
  8
0-1
  6
CONTINUOUS
 62
     3
 10
12222.75740600001
 20
17631.938942000001
 30
0.0
 11
12222.75740600001
 21
19390.753421000001
 31
0.0
  0
LINE
  5
33E3
  8
0-1
  6
CONTINUOUS
 62
     3
 10
12059.75592800001
 20
17431.419647999981
 30
0.0
 11
12059.75592800001
 21
19390.753421000001
 31
0.0
  0
LINE
  5
33E4
  8
0-1
  6
CONTINUOUS
 62
     3
 10
12022.755756
 20
17501.086824999991
 30
0.0
 11
12022.755756
 21
19390.753421000001
 31
0.0
  0
LINE
  5
33E5
  8
0-1
  6
CONTINUOUS
 62
     3
 10
11859.757248000011
 20
17808.001283000001
 30
0.0
 11
11859.757248000011
 21
19390.753421000001
 31
0.0
  0
LINE
  5
33E6
  8
0-1
  6
CONTINUOUS
 62
     3
 10
11822.75509700001
 20
17877.666480999971
 30
0.0
 11
11822.75509700001
 21
19390.753421000001
 31
0.0
  0
LINE
  5
33E7
  8
0-1
  6
CONTINUOUS
 62
     3
 10
11422.755756
 20
18261.557765000001
 30
0.0
 11
11422.755756
 21
19390.753421000001
 31
0.0
  0
LINE
  5
33E8
  8
0-1
  6
CONTINUOUS
 62
     3
 10
11259.757248000011
 20
18309.632353000001
 30
0.0
 11
11259.757248000011
 21
19390.753421000001
 31
0.0
  0
LINE
  5
33E9
  8
0-1
  6
CONTINUOUS
 62
     3
 10
11222.75509700001
 20
18335.496743
 30
0.0
 11
11222.75509700001
 21
19390.753421000001
 31
0.0
  0
LINE
  5
33EA
  8
0-1
  6
CONTINUOUS
 62
     3
 10
10234.75601999999
 20
14016.758159000001
 30
0.0
 11
10234.75601999999
 21
19019.174952999991
 31
0.0
  0
LINE
  5
33EB
  8
0-1
  6
CONTINUOUS
 62
     3
 10
10277.257274
 20
14016.758159000001
 30
0.0
 11
10277.257274
 21
18989.466337999991
 31
0.0
  0
LINE
  5
33EC
  8
0-1
  6
CONTINUOUS
 62
     3
 10
13280.757670000001
 20
13860.758238
 30
0.0
 11
13280.757670000001
 21
19400.758830999999
 31
0.0
  0
LINE
  5
33ED
  8
0-1
  6
CONTINUOUS
 62
     3
 10
10191.756877999989
 20
13860.758238
 30
0.0
 11
10191.756877999989
 21
19400.758830999999
 31
0.0
  0
LINE
  5
33EE
  8
0-1
  6
CONTINUOUS
 62
     3
 10
10327.25591399999
 20
13892.757155999991
 30
0.0
 11
10327.25591399999
 21
19390.753421000001
 31
0.0
  0
LINE
  5
33EF
  8
0-1
  6
CONTINUOUS
 62
     3
 10
13145.25665400001
 20
13892.757155999991
 30
0.0
 11
13145.25665400001
 21
19390.753421000001
 31
0.0
  0
LINE
  5
33F0
  8
0-1
  6
CONTINUOUS
 62
     3
 10
13237.75654800001
 20
14016.758159000001
 30
0.0
 11
13237.75654800001
 21
16922.394362999981
 31
0.0
  0
LINE
  5
33F1
  8
0-1
  6
CONTINUOUS
 62
     3
 10
13195.257274
 20
14016.758159000001
 30
0.0
 11
13195.257274
 21
16952.104956999981
 31
0.0
  0
LINE
  5
33F2
  8
0-1
  6
CONTINUOUS
 62
     3
 10
10191.756877999989
 20
13892.757155999991
 30
0.0
 11
13280.757670000001
 21
13892.757155999991
 31
0.0
  0
LINE
  5
33F3
  8
0-1
  6
CONTINUOUS
 62
     3
 10
10191.756877999989
 20
13860.758238
 30
0.0
 11
13280.757670000001
 21
13860.758238
 31
0.0
  0
LINE
  5
33F4
  8
0-1
  6
CONTINUOUS
 62
     3
 10
10277.257274
 20
14095.756786
 30
0.0
 11
13195.257274
 21
14095.756786
 31
0.0
  0
LINE
  5
33F5
  8
0-1
  6
CONTINUOUS
 62
     3
 10
10234.75601999999
 20
14016.758159000001
 30
0.0
 11
13237.75654800001
 21
14016.758159000001
 31
0.0
  0
LINE
  5
33F6
  8
0-1
  6
CONTINUOUS
 62
     3
 10
12022.948759000001
 20
17500.72655299999
 30
0.0
 11
10347.25700999999
 21
16620.757511999989
 31
0.0
  0
LINE
  5
33F7
  8
0-1
  6
CONTINUOUS
 62
     3
 10
10347.25700999999
 20
18079.757511999978
 30
0.0
 11
13125.257538
 21
16620.757511999989
 31
0.0
  0
LINE
  5
33F8
  8
0-1
  6
CONTINUOUS
 62
     3
 10
13125.257538
 20
16620.757511999989
 30
0.0
 11
10347.25700999999
 21
15161.99802350002
 31
0.0
  0
LINE
  5
33F9
  8
0-1
  6
CONTINUOUS
 62
     3
 10
10347.25700999999
 20
16620.757511999989
 30
0.0
 11
13125.257538
 21
15161.99802350002
 31
0.0
  0
LINE
  5
33FA
  8
0-1
  6
CONTINUOUS
 62
     3
 10
10291.39895399998
 20
18034.755137
 30
0.0
 11
11739.32729600001
 21
18034.755137
 31
0.0
  0
LINE
  5
33FB
  8
0-1
  6
CONTINUOUS
 62
     3
 10
10291.39895399998
 20
18124.755928999992
 30
0.0
 11
11691.525882000011
 21
18124.755928999992
 31
0.0
  0
LINE
  5
33FC
  8
0-1
  6
CONTINUOUS
 62
     3
 10
10277.257274
 20
16665.755927999991
 30
0.0
 11
13195.257274
 21
16665.755927999991
 31
0.0
  0
LINE
  5
33FD
  8
0-1
  6
CONTINUOUS
 62
     3
 10
10277.257274
 20
15116.99762750001
 30
0.0
 11
13195.257274
 21
15116.99762750001
 31
0.0
  0
LINE
  5
33FE
  8
0-1
  6
CONTINUOUS
 62
     3
 10
10277.257274
 20
15206.99742950001
 30
0.0
 11
13195.257274
 21
15206.99742950001
 31
0.0
  0
LINE
  5
33FF
  8
0-1
  6
CONTINUOUS
 62
     3
 10
10277.257274
 20
16575.755136999989
 30
0.0
 11
13195.257274
 21
16575.755136999989
 31
0.0
  0
LINE
  5
3400
  8
0-1
  6
CONTINUOUS
 62
     3
 10
11137.17556
 20
18395.32373299999
 30
0.0
 11
10347.25700999999
 21
18079.757511999978
 31
0.0
  0
LINE
  5
3401
  8
0-1
  6
CONTINUOUS
 62
     3
 10
13560.96244500001
 20
16691.45601799999
 30
0.0
 11
12211.060431000011
 21
17640.116332999991
 31
0.0
  0
LINE
  5
3402
  8
0-1
  6
CONTINUOUS
 62
     3
 10
12060.888213
 20
17429.29166599999
 30
0.0
 11
11536.47613000001
 21
18421.205938999981
 31
0.0
  0
LINE
  5
3403
  8
0-1
  6
CONTINUOUS
 62
     3
 10
12060.888213
 20
17429.29166599999
 30
0.0
 11
12211.060431000011
 21
17640.116332999991
 31
0.0
  0
LINE
  5
3404
  8
0-1
  6
CONTINUOUS
 62
     3
 10
11391.43284400001
 20
18213.082048
 30
0.0
 11
11536.47613000001
 21
18421.205938999981
 31
0.0
  0
LINE
  5
3405
  8
0-1
  6
CONTINUOUS
 62
     3
 10
12164.87529299999
 20
17575.279181000002
 30
0.0
 11
12244.201531000001
 21
17616.948047999991
 31
0.0
  0
LINE
  5
3406
  8
0-1
  6
CONTINUOUS
 62
     3
 10
10447.75716799998
 20
18870.275564999982
 30
0.0
 11
10447.75716799998
 21
19390.753421000001
 31
0.0
  0
LINE
  5
3407
  8
0-1
  6
CONTINUOUS
 62
     3
 10
10410.75501699999
 20
18896.143913999978
 30
0.0
 11
10410.75501699999
 21
19390.753421000001
 31
0.0
  0
LINE
  5
3408
  8
0-1
  6
CONTINUOUS
 62
     3
 10
10622.75509700001
 20
18754.932975999978
 30
0.0
 11
10622.75509700001
 21
19390.753421000001
 31
0.0
  0
LINE
  5
3409
  8
0-1
  6
CONTINUOUS
 62
     3
 10
10859.754938
 20
18589.255188999981
 30
0.0
 11
10859.754938
 21
19390.753421000001
 31
0.0
  0
LINE
  5
340A
  8
0-1
  6
CONTINUOUS
 62
     3
 10
10822.75575600001
 20
18615.119578999991
 30
0.0
 11
10822.75575600001
 21
19390.753421000001
 31
0.0
  0
LINE
  5
340B
  8
0-1
  6
CONTINUOUS
 62
     3
 10
10659.757248000011
 20
18729.066607000001
 30
0.0
 11
10659.757248000011
 21
19390.753421000001
 31
0.0
  0
LINE
  5
340C
  8
0-1
  6
CONTINUOUS
 62
     3
 10
10347.25700999999
 20
15161.99802350002
 30
0.0
 11
13125.257538
 21
14053.257512
 31
0.0
  0
LINE
  5
340D
  8
0-1
  6
CONTINUOUS
 62
     3
 10
13125.257538
 20
15161.99802350002
 30
0.0
 11
10347.25700999999
 21
14053.257512
 31
0.0
  0
LINE
  5
340E
  8
0-1
  6
CONTINUOUS
 62
     3
 10
10209.755649999999
 20
19034.553832000001
 30
0.0
 11
10209.755649999999
 21
19393.258434999982
 31
0.0
  0
LINE
  5
340F
  8
0-1
  6
CONTINUOUS
 62
     3
 10
13262.755928
 20
16902.015429999981
 30
0.0
 11
13262.755928
 21
19393.258434999982
 31
0.0
  0
LINE
  5
3410
  8
0-1
  6
CONTINUOUS
 62
     3
 10
10209.755649999999
 20
19370.759226999991
 30
0.0
 11
10260.255149000001
 21
19370.759226999991
 31
0.0
  0
LINE
  5
3411
  8
0-1
  6
CONTINUOUS
 62
     3
 10
10209.755649999999
 20
19393.258434999982
 30
0.0
 11
10191.756877999989
 21
19393.258434999982
 31
0.0
  0
LINE
  5
3412
  8
0-1
  6
CONTINUOUS
 62
     3
 10
10260.255149000001
 20
19410.757379999999
 30
0.0
 11
10196.757142
 21
19410.757379999999
 31
0.0
  0
LINE
  5
3413
  8
0-1
  6
CONTINUOUS
 62
     3
 10
10191.756877999989
 20
19405.757116000001
 30
0.0
 11
10191.756877999989
 21
19370.759226999991
 31
0.0
  0
LINE
  5
3414
  8
0-1
  6
CONTINUOUS
 62
     3
 10
10265.254423
 20
19375.755531999999
 30
0.0
 11
10265.254423
 21
19405.757116000001
 31
0.0
  0
LINE
  5
3415
  8
0-1
  6
CONTINUOUS
 62
     3
 10
10265.254423
 20
19390.753421000001
 30
0.0
 11
13207.255176000001
 21
19390.753421000001
 31
0.0
  0
LINE
  5
3416
  8
0-1
  6
CONTINUOUS
 62
     3
 10
13212.25642900001
 20
19410.757379999999
 30
0.0
 11
13275.75740600001
 21
19410.757379999999
 31
0.0
  0
LINE
  5
3417
  8
0-1
  6
CONTINUOUS
 62
     3
 10
13262.755928
 20
19370.759226999991
 30
0.0
 11
13212.25642900001
 21
19370.759226999991
 31
0.0
  0
LINE
  5
3418
  8
0-1
  6
CONTINUOUS
 62
     3
 10
13207.255176000001
 20
19375.755531999999
 30
0.0
 11
13207.255176000001
 21
19405.757116000001
 31
0.0
  0
LINE
  5
3419
  8
0-1
  6
CONTINUOUS
 62
     3
 10
13280.757670000001
 20
19405.757116000001
 30
0.0
 11
13280.757670000001
 21
19370.759226999991
 31
0.0
  0
LINE
  5
341A
  8
0-1
  6
CONTINUOUS
 62
     3
 10
13262.755928
 20
19393.258434999982
 30
0.0
 11
13280.757670000001
 21
19393.258434999982
 31
0.0
  0
LINE
  5
341B
  8
0-6
  6
CONTINUOUS
 62
     6
 10
8433.1248969999979
 20
12570.757446
 30
0.0
 11
9513.1235110000016
 21
12570.757446
 31
0.0
  0
LINE
  5
341C
  8
0-6
  6
CONTINUOUS
 62
     6
 10
12701.083327
 20
18176.118496999999
 30
0.0
 11
13699.49410400001
 21
18578.348042000001
 31
0.0
  0
LINE
  5
341D
  8
0-6
  6
CONTINUOUS
 62
     6
 10
13699.49410400001
 20
15628.17740799999
 30
0.0
 11
14579.492058000011
 21
15628.17740799999
 31
0.0
  0
LINE
  5
341E
  8
0-6
  6
CONTINUOUS
 62
     6
 10
12698.64753
 20
15058.9403275
 30
0.0
 11
13699.49410400001
 21
14601.066792500011
 31
0.0
  0
LINE
  5
341F
  8
0-6
  6
CONTINUOUS
 62
     6
 10
12226.239379000001
 20
14258.960175
 30
0.0
 11
12182.512803000011
 21
14102.75735399999
 31
0.0
  0
LINE
  5
3420
  8
0-6
  6
CONTINUOUS
 62
     6
 10
12182.512803000011
 20
14102.75735399999
 30
0.0
 11
12274.53567400001
 21
14236.33625699999
 31
0.0
  0
LINE
  5
3421
  8
0-6
  6
CONTINUOUS
 62
     6
 10
12182.512803000011
 20
14102.75735399999
 30
0.0
 11
12226.239379000001
 21
14258.960175
 31
0.0
  0
LINE
  5
3422
  8
0-6
  6
CONTINUOUS
 62
     6
 10
12226.239379000001
 20
14258.960175
 30
0.0
 11
12274.53567400001
 21
14236.33625699999
 31
0.0
  0
LINE
  5
3423
  8
0-6
  6
CONTINUOUS
 62
     6
 10
12274.53567400001
 20
14236.33625699999
 30
0.0
 11
12182.512803000011
 21
14102.75735399999
 31
0.0
  0
LINE
  5
3424
  8
0-6
  6
CONTINUOUS
 62
     6
 10
12274.53567400001
 20
14236.33625699999
 30
0.0
 11
12226.239379000001
 21
14258.960175
 31
0.0
  0
LINE
  5
3425
  8
0-6
  6
CONTINUOUS
 62
     6
 10
12250.386537
 20
14247.64821599999
 30
0.0
 11
12297.690102
 21
14353.3656725
 31
0.0
  0
LINE
  5
3426
  8
0-6
  6
CONTINUOUS
 62
     6
 10
10099.86172599999
 20
14445.7696005
 30
0.0
 11
9513.1235110000016
 21
12570.757446
 31
0.0
  0
LINE
  5
3427
  8
0-6
  6
CONTINUOUS
 62
     6
 10
10125.307448
 20
14437.7881815
 30
0.0
 11
10147.757168
 21
14598.434032500019
 31
0.0
  0
LINE
  5
3428
  8
0-6
  6
CONTINUOUS
 62
     6
 10
10147.757168
 20
14598.434032500019
 30
0.0
 11
10074.418974
 21
14453.75299850002
 31
0.0
  0
LINE
  5
3429
  8
0-6
  6
CONTINUOUS
 62
     6
 10
10147.757168
 20
14598.434032500019
 30
0.0
 11
10125.307448
 21
14437.7881815
 31
0.0
  0
LINE
  5
342A
  8
0-6
  6
CONTINUOUS
 62
     6
 10
10125.307448
 20
14437.7881815
 30
0.0
 11
10074.418974
 21
14453.75299850002
 31
0.0
  0
LINE
  5
342B
  8
0-6
  6
CONTINUOUS
 62
     6
 10
10074.418974
 20
14453.75299850002
 30
0.0
 11
10147.757168
 21
14598.434032500019
 31
0.0
  0
LINE
  5
342C
  8
0-6
  6
CONTINUOUS
 62
     6
 10
10074.418974
 20
14453.75299850002
 30
0.0
 11
10125.307448
 21
14437.7881815
 31
0.0
  0
LINE
  5
342D
  8
0-6
  6
CONTINUOUS
 62
     6
 10
11846.93788499999
 20
13724.288247
 30
0.0
 11
12253.04898900001
 21
13060.756587999989
 31
0.0
  0
LINE
  5
342E
  8
0-6
  6
CONTINUOUS
 62
     6
 10
12253.04898900001
 20
13060.756587999989
 30
0.0
 11
13115.62916000001
 21
13060.756587999989
 31
0.0
  0
LINE
  5
342F
  8
0-6
  6
CONTINUOUS
 62
     6
 10
11869.681564
 20
13738.209212
 30
0.0
 11
11763.41209899999
 21
13860.758238
 31
0.0
  0
LINE
  5
3430
  8
0-6
  6
CONTINUOUS
 62
     6
 10
11763.41209899999
 20
13860.758238
 30
0.0
 11
11824.192227
 21
13710.369262
 31
0.0
  0
LINE
  5
3431
  8
0-6
  6
CONTINUOUS
 62
     6
 10
11763.41209899999
 20
13860.758238
 30
0.0
 11
11869.681564
 21
13738.209212
 31
0.0
  0
LINE
  5
3432
  8
0-6
  6
CONTINUOUS
 62
     6
 10
11869.681564
 20
13738.209212
 30
0.0
 11
11824.192227
 21
13710.369262
 31
0.0
  0
LINE
  5
3433
  8
0-6
  6
CONTINUOUS
 62
     6
 10
11824.192227
 20
13710.369262
 30
0.0
 11
11763.41209899999
 21
13860.758238
 31
0.0
  0
LINE
  5
3434
  8
0-6
  6
CONTINUOUS
 62
     6
 10
11824.192227
 20
13710.369262
 30
0.0
 11
11869.681564
 21
13738.209212
 31
0.0
  0
LINE
  5
3435
  8
0-6
  6
CONTINUOUS
 62
     6
 10
12297.690102
 20
14353.3656725
 30
0.0
 11
13097.689772
 21
14353.3656725
 31
0.0
  0
LINE
  5
3436
  8
0-6
  6
CONTINUOUS
 62
     6
 10
10367.071001
 20
17431.987769999982
 30
0.0
 11
10277.257274
 21
17567.056261000002
 31
0.0
  0
LINE
  5
3437
  8
0-6
  6
CONTINUOUS
 62
     6
 10
10277.257274
 20
17567.056261000002
 30
0.0
 11
10318.41146499999
 21
17410.155658999971
 31
0.0
  0
LINE
  5
3438
  8
0-6
  6
CONTINUOUS
 62
     6
 10
10277.257274
 20
17567.056261000002
 30
0.0
 11
10367.071001
 21
17431.987769999982
 31
0.0
  0
LINE
  5
3439
  8
0-6
  6
CONTINUOUS
 62
     6
 10
10367.071001
 20
17431.987769999982
 30
0.0
 11
10318.41146499999
 21
17410.155658999971
 31
0.0
  0
LINE
  5
343A
  8
0-6
  6
CONTINUOUS
 62
     6
 10
10318.41146499999
 20
17410.155658999971
 30
0.0
 11
10277.257274
 21
17567.056261000002
 31
0.0
  0
LINE
  5
343B
  8
0-6
  6
CONTINUOUS
 62
     6
 10
10318.41146499999
 20
17410.155658999971
 30
0.0
 11
10367.071001
 21
17431.987769999982
 31
0.0
  0
LINE
  5
343C
  8
0-6
  6
CONTINUOUS
 62
     6
 10
10441.782981
 20
17200.279181000002
 30
0.0
 11
10971.78183300001
 21
17200.279181000002
 31
0.0
  0
LINE
  5
343D
  8
0-6
  6
CONTINUOUS
 62
     6
 10
10342.74073799998
 20
17421.070725000001
 30
0.0
 11
10441.782981
 21
17200.279181000002
 31
0.0
  0
LINE
  5
343E
  8
0-6
  6
CONTINUOUS
 62
     6
 10
12708.32341600001
 20
15083.790213499989
 30
0.0
 11
12549.55217000001
 21
15116.99762750001
 31
0.0
  0
LINE
  5
343F
  8
0-6
  6
CONTINUOUS
 62
     6
 10
12549.55217000001
 20
15116.99762750001
 30
0.0
 11
12688.969663
 21
15034.091430500001
 31
0.0
  0
LINE
  5
3440
  8
0-6
  6
CONTINUOUS
 62
     6
 10
12549.55217000001
 20
15116.99762750001
 30
0.0
 11
12708.32341600001
 21
15083.790213499989
 31
0.0
  0
LINE
  5
3441
  8
0-6
  6
CONTINUOUS
 62
     6
 10
12708.32341600001
 20
15083.790213499989
 30
0.0
 11
12688.969663
 21
15034.091430500001
 31
0.0
  0
LINE
  5
3442
  8
0-6
  6
CONTINUOUS
 62
     6
 10
12688.969663
 20
15034.091430500001
 30
0.0
 11
12549.55217000001
 21
15116.99762750001
 31
0.0
  0
LINE
  5
3443
  8
0-6
  6
CONTINUOUS
 62
     6
 10
12688.969663
 20
15034.091430500001
 30
0.0
 11
12708.32341600001
 21
15083.790213499989
 31
0.0
  0
LINE
  5
3444
  8
0-6
  6
CONTINUOUS
 62
     6
 10
12892.38994100001
 20
15284.31841550002
 30
0.0
 11
13699.49410400001
 21
15628.17740799999
 31
0.0
  0
LINE
  5
3445
  8
0-6
  6
CONTINUOUS
 62
     6
 10
13028.141367
 20
15373.10477250001
 30
0.0
 11
12892.38994100001
 21
15284.31841550002
 31
0.0
  0
LINE
  5
3446
  8
0-6
  6
CONTINUOUS
 62
     6
 10
12892.38994100001
 20
15284.31841550002
 30
0.0
 11
13049.59835800001
 21
15324.279946500001
 31
0.0
  0
LINE
  5
3447
  8
0-6
  6
CONTINUOUS
 62
     6
 10
12892.38994100001
 20
15284.31841550002
 30
0.0
 11
13028.141367
 21
15373.10477250001
 31
0.0
  0
LINE
  5
3448
  8
0-6
  6
CONTINUOUS
 62
     6
 10
13028.141367
 20
15373.10477250001
 30
0.0
 11
13049.59835800001
 21
15324.279946500001
 31
0.0
  0
LINE
  5
3449
  8
0-6
  6
CONTINUOUS
 62
     6
 10
13049.59835800001
 20
15324.279946500001
 30
0.0
 11
12892.38994100001
 21
15284.31841550002
 31
0.0
  0
LINE
  5
344A
  8
0-6
  6
CONTINUOUS
 62
     6
 10
13049.59835800001
 20
15324.279946500001
 30
0.0
 11
13028.141367
 21
15373.10477250001
 31
0.0
  0
LINE
  5
344B
  8
0-6
  6
CONTINUOUS
 62
     6
 10
12692.521908999999
 20
16742.37517499999
 30
0.0
 11
12549.55217000001
 21
16665.755927999991
 31
0.0
  0
LINE
  5
344C
  8
0-6
  6
CONTINUOUS
 62
     6
 10
12549.55217000001
 20
16665.755927999991
 30
0.0
 11
12709.64375500001
 21
16691.861818999991
 31
0.0
  0
LINE
  5
344D
  8
0-6
  6
CONTINUOUS
 62
     6
 10
12549.55217000001
 20
16665.755927999991
 30
0.0
 11
12692.521908999999
 21
16742.37517499999
 31
0.0
  0
LINE
  5
344E
  8
0-6
  6
CONTINUOUS
 62
     6
 10
12692.521908999999
 20
16742.37517499999
 30
0.0
 11
12709.64375500001
 21
16691.861818999991
 31
0.0
  0
LINE
  5
344F
  8
0-6
  6
CONTINUOUS
 62
     6
 10
12709.64375500001
 20
16691.861818999991
 30
0.0
 11
12549.55217000001
 21
16665.755927999991
 31
0.0
  0
LINE
  5
3450
  8
0-6
  6
CONTINUOUS
 62
     6
 10
12709.64375500001
 20
16691.861818999991
 30
0.0
 11
12692.521908999999
 21
16742.37517499999
 31
0.0
  0
LINE
  5
3451
  8
0-6
  6
CONTINUOUS
 62
     6
 10
12692.521908999999
 20
18201.375175000001
 30
0.0
 11
12549.55217000001
 21
18124.755928999992
 31
0.0
  0
LINE
  5
3452
  8
0-6
  6
CONTINUOUS
 62
     6
 10
12549.55217000001
 20
18124.755928999992
 30
0.0
 11
12709.64375500001
 21
18150.861819999991
 31
0.0
  0
LINE
  5
3453
  8
0-6
  6
CONTINUOUS
 62
     6
 10
12549.55217000001
 20
18124.755928999992
 30
0.0
 11
12692.521908999999
 21
18201.375175000001
 31
0.0
  0
LINE
  5
3454
  8
0-6
  6
CONTINUOUS
 62
     6
 10
12692.521908999999
 20
18201.375175000001
 30
0.0
 11
12709.64375500001
 21
18150.861819999991
 31
0.0
  0
LINE
  5
3455
  8
0-6
  6
CONTINUOUS
 62
     6
 10
12709.64375500001
 20
18150.861819999991
 30
0.0
 11
12549.55217000001
 21
18124.755928999992
 31
0.0
  0
LINE
  5
3456
  8
0-6
  6
CONTINUOUS
 62
     6
 10
12709.64375500001
 20
18150.861819999991
 30
0.0
 11
12692.521908999999
 21
18201.375175000001
 31
0.0
  0
LINE
  5
3457
  8
0-6
  6
CONTINUOUS
 62
     6
 10
12701.083327
 20
16717.118496999981
 30
0.0
 11
13699.49410400001
 21
17119.847381999982
 31
0.0
  0
LINE
  5
3458
  8
0-6
  6
CONTINUOUS
 62
     6
 10
11898.143082000001
 20
19128.480009999999
 30
0.0
 11
12042.04517500001
 21
19640.757644000001
 31
0.0
  0
LINE
  5
3459
  8
0-6
  6
CONTINUOUS
 62
     6
 10
11872.254938
 20
19134.877813999981
 30
0.0
 11
11859.757248000011
 21
18973.155105000002
 31
0.0
  0
LINE
  5
345A
  8
0-6
  6
CONTINUOUS
 62
     6
 10
11859.757248000011
 20
18973.155105000002
 30
0.0
 11
11924.03122600001
 21
19122.082204999992
 31
0.0
  0
LINE
  5
345B
  8
0-6
  6
CONTINUOUS
 62
     6
 10
11859.757248000011
 20
18973.155105000002
 30
0.0
 11
11872.254938
 21
19134.877813999981
 31
0.0
  0
LINE
  5
345C
  8
0-6
  6
CONTINUOUS
 62
     6
 10
11872.254938
 20
19134.877813999981
 30
0.0
 11
11924.03122600001
 21
19122.082204999992
 31
0.0
  0
LINE
  5
345D
  8
0-6
  6
CONTINUOUS
 62
     6
 10
11924.03122600001
 20
19122.082204999992
 30
0.0
 11
11859.757248000011
 21
18973.155105000002
 31
0.0
  0
LINE
  5
345E
  8
0-6
  6
CONTINUOUS
 62
     6
 10
11924.03122600001
 20
19122.082204999992
 30
0.0
 11
11872.254938
 21
19134.877813999981
 31
0.0
  0
LINE
  5
345F
  8
0-6
  6
CONTINUOUS
 62
     6
 10
12042.04517500001
 20
19640.757644000001
 30
0.0
 11
12559.733823
 21
19640.757644000001
 31
0.0
  0
LINE
  5
3460
  8
0-6
  6
CONTINUOUS
 62
     6
 10
13369.44303200001
 20
19544.564918
 30
0.0
 11
13277.757670000001
 21
19410.757379999999
 31
0.0
  0
LINE
  5
3461
  8
0-6
  6
CONTINUOUS
 62
     6
 10
13277.757670000001
 20
19410.757379999999
 30
0.0
 11
13407.884292999999
 21
19507.59740799998
 31
0.0
  0
LINE
  5
3462
  8
0-6
  6
CONTINUOUS
 62
     6
 10
13277.757670000001
 20
19410.757379999999
 30
0.0
 11
13369.44303200001
 21
19544.564918
 31
0.0
  0
LINE
  5
3463
  8
0-6
  6
CONTINUOUS
 62
     6
 10
13369.44303200001
 20
19544.564918
 30
0.0
 11
13407.884292999999
 21
19507.59740799998
 31
0.0
  0
LINE
  5
3464
  8
0-6
  6
CONTINUOUS
 62
     6
 10
13407.884292999999
 20
19507.59740799998
 30
0.0
 11
13277.757670000001
 21
19410.757379999999
 31
0.0
  0
LINE
  5
3465
  8
0-6
  6
CONTINUOUS
 62
     6
 10
13407.884292999999
 20
19507.59740799998
 30
0.0
 11
13369.44303200001
 21
19544.564918
 31
0.0
  0
LINE
  5
3466
  8
0-6
  6
CONTINUOUS
 62
     6
 10
13388.664156999999
 20
19526.080172999998
 30
0.0
 11
13905.65304600001
 21
20030.756455999999
 31
0.0
  0
LINE
  5
3467
  8
0-6
  6
CONTINUOUS
 62
     6
 10
13905.65304600001
 20
20030.756455999999
 30
0.0
 11
15580.652386000011
 21
20030.756455999999
 31
0.0
  0
LINE
  5
3468
  8
2-0
  6
DASHED3
 62
     6
 10
13125.257538
 20
19188.257511999989
 30
0.0
 11
11137.17556
 21
18395.32373299999
 31
0.0
  0
LINE
  5
3469
  8
2-0
  6
DASHED3
 62
     6
 10
10347.25700999999
 20
19188.257511999989
 30
0.0
 11
13125.257538
 21
18079.757511999978
 31
0.0
  0
LINE
  5
346A
  8
2-0
  6
DASHED3
 62
     6
 10
13237.75654800001
 20
16922.394362999981
 30
0.0
 11
13237.75654800001
 21
19234.257563999981
 31
0.0
  0
LINE
  5
346B
  8
2-0
  6
DASHED3
 62
     6
 10
13195.257274
 20
16952.104956999981
 30
0.0
 11
13195.257274
 21
19234.257563999981
 31
0.0
  0
LINE
  5
346C
  8
2-0
  6
DASHED3
 62
     6
 10
13125.257538
 20
18079.757511999978
 30
0.0
 11
12244.201531000001
 21
17616.948047999991
 31
0.0
  0
LINE
  5
346D
  8
2-0
  6
DASHED3
 62
     6
 10
11691.525882000011
 20
18124.755928999992
 30
0.0
 11
13209.397965
 21
18124.755928999992
 31
0.0
  0
LINE
  5
346E
  8
2-0
  6
DASHED3
 62
     6
 10
11739.32729600001
 20
18034.755137
 30
0.0
 11
13209.397965
 21
18034.755137
 31
0.0
  0
LINE
  5
346F
  8
0-7
  6
CONTINUOUS
 62
     6
 10
12164.87529299999
 20
17575.279181000002
 30
0.0
 11
12022.948759000001
 21
17500.72655299999
 31
0.0
  0
LINE
  5
3470
  8
2-0
  6
DASHED3
 62
     6
 10
10234.75601999999
 20
19234.257563999981
 30
0.0
 11
13237.75654800001
 21
19234.257563999981
 31
0.0
  0
LINE
  5
3471
  8
2-0
  6
DASHED3
 62
     6
 10
10277.257274
 20
19149.259016
 30
0.0
 11
13195.257274
 21
19149.259016
 31
0.0
  0
LINE
  5
3472
  8
2-0
  6
DASHED3
 62
     6
 10
10277.257274
 20
18989.466337999991
 30
0.0
 11
10277.257274
 21
19234.257563999981
 31
0.0
  0
LINE
  5
3473
  8
2-0
  6
DASHED3
 62
     6
 10
10234.75601999999
 20
19019.174952999991
 30
0.0
 11
10234.75601999999
 21
19234.257563999981
 31
0.0
  0
LINE
  5
3474
  8
2-0
  6
CENTER2
 62
     6
 10
8947.7571679999946
 20
14053.257512
 30
0.0
 11
10419.256059999991
 21
14053.257512
 31
0.0
  0
LINE
  5
3475
  8
2-0
  6
CENTER2
 62
     6
 10
10058.458115999991
 20
15161.99802350002
 30
0.0
 11
13367.053753
 21
15161.99802350002
 31
0.0
  0
LINE
  5
3476
  8
2-0
  6
CENTER2
 62
     6
 10
10058.458115999991
 20
18079.757511999978
 30
0.0
 11
13367.053753
 21
18079.757511999978
 31
0.0
  0
LINE
  5
3477
  8
2-0
  6
CENTER2
 62
     6
 10
8947.7571679999946
 20
16620.757511999989
 30
0.0
 11
10419.256059999991
 21
16620.757511999989
 31
0.0
  0
LINE
  5
3478
  8
0-8
  6
CONTINUOUS
 62
     6
 10
10277.257274
 20
20430.75579700002
 30
0.0
 11
10277.257274
 21
19480.757115999961
 31
0.0
  0
LINE
  5
3479
  8
2-0
  6
CENTER2
 62
     6
 10
8947.7571679999946
 20
19188.257511999989
 30
0.0
 11
10419.256059999991
 21
19188.257511999989
 31
0.0
  0
LINE
  5
347A
  8
0-8
  6
CONTINUOUS
 62
     6
 10
13195.257274
 20
20430.75579700002
 30
0.0
 11
13195.257274
 21
19480.757115999961
 31
0.0
  0
LINE
  5
347B
  8
2-0
  6
CONTINUOUS
 62
     6
 10
13699.49410400001
 20
14601.06481250001
 30
0.0
 11
15693.93825500001
 21
14601.06481250001
 31
0.0
  0
LINE
  5
347C
  8
2-0
  6
CONTINUOUS
 62
     6
 10
13699.49410400001
 20
17119.847381999982
 30
0.0
 11
15693.93825500001
 21
17119.847381999982
 31
0.0
  0
LINE
  5
347D
  8
2-0
  6
CONTINUOUS
 62
     6
 10
13699.49410400001
 20
18578.348042000001
 30
0.0
 11
15693.93825500001
 21
18578.348042000001
 31
0.0
  0
ARC
  5
347E
  8
0-1
  6
CONTINUOUS
 62
     3
 10
10196.757142
 20
19405.757116000001
 30
0.0
 40
5.0
 50
90.0
 51
180.0
  0
ARC
  5
347F
  8
0-1
  6
CONTINUOUS
 62
     3
 10
10260.255149000001
 20
19405.757116000001
 30
0.0
 40
5.0
 50
0.0
 51
90.0
  0
ARC
  5
3480
  8
0-1
  6
CONTINUOUS
 62
     3
 10
10260.255149000001
 20
19375.755531999999
 30
0.0
 40
5.0
 50
269.9999850001808
 51
0.0
  0
ARC
  5
3481
  8
0-1
  6
CONTINUOUS
 62
     3
 10
13212.25642900001
 20
19375.755531999999
 30
0.0
 40
5.0
 50
180.0
 51
269.9999850001808
  0
ARC
  5
3482
  8
0-1
  6
CONTINUOUS
 62
     3
 10
13212.25642900001
 20
19405.757116000001
 30
0.0
 40
5.0
 50
90.0
 51
180.0
  0
ARC
  5
3483
  8
0-1
  6
CONTINUOUS
 62
     3
 10
13275.75740600001
 20
19405.757116000001
 30
0.0
 40
5.0
 50
0.0
 51
90.0
  0
CIRCLE
  5
3484
  8
0-5
  6
CONTINUOUS
 62
     4
 10
8747.7555179999981
 20
14053.257512
 30
0.0
 40
199.9999949999999
  0
CIRCLE
  5
3485
  8
0-5
  6
CONTINUOUS
 62
     4
 10
8747.7555179999981
 20
16620.757511999989
 30
0.0
 40
199.9999949999999
  0
CIRCLE
  5
3486
  8
0-5
  6
CONTINUOUS
 62
     4
 10
8747.7555179999981
 20
19188.257511999989
 30
0.0
 40
199.9999949999999
  0
CIRCLE
  5
3487
  8
0-5
  6
CONTINUOUS
 62
     4
 10
10277.257274
 20
20630.756457000021
 30
0.0
 40
199.9999949999999
  0
CIRCLE
  5
3488
  8
0-5
  6
CONTINUOUS
 62
     4
 10
13195.257274
 20
20630.756457000021
 30
0.0
 40
199.9999949999999
  0
CIRCLE
  5
3489
  8
0-5
  6
CONTINUOUS
 62
     4
 10
15128.71568799998
 20
1375.999982
 30
0.0
 40
20.0
  0
ARC
  5
348A
  8
0-5
  6
CONTINUOUS
 62
     4
 10
15128.71568799998
 20
1375.999982
 30
0.0
 40
20.0
 50
180.0
 51
0.0
  0
ARC
  5
348B
  8
0-5
  6
CONTINUOUS
 62
     4
 10
15128.71568799998
 20
1375.999982
 30
0.0
 40
20.0
 50
0.0
 51
179.99998499999839
  0
CIRCLE
  5
348C
  8
0-5
  6
CONTINUOUS
 62
     4
 10
15128.71568799998
 20
1776.000188
 30
0.0
 40
20.0
  0
ARC
  5
348D
  8
0-5
  6
CONTINUOUS
 62
     4
 10
15128.71568799998
 20
1776.000188
 30
0.0
 40
20.0
 50
180.0
 51
0.0
  0
ARC
  5
348E
  8
0-5
  6
CONTINUOUS
 62
     4
 10
15128.71568799998
 20
1776.000188
 30
0.0
 40
20.0
 50
0.0
 51
179.99998499999839
  0
TEXT
  5
348F
  8
0-5
  6
CONTINUOUS
 62
     7
 10
16630.241896999989
 20
1656.0000389999991
 30
0.0
 40
160.0
  1
H
  0
TEXT
  5
3490
  8
0-5
  6
CONTINUOUS
 62
     7
 10
15176.146933
 20
1656.0000389999991
 30
0.0
 40
160.0
  1
（ ）内寸法ハ、  タ イプヲ示ス。
  0
TEXT
  5
3491
  8
0-5
  6
CONTINUOUS
 62
     7
 10
15288.715225999989
 20
1256.0002039999999
 30
0.0
 40
160.0
  1
有効高サハ、基礎高サヲ含ミマセン。
  0
TEXT
  5
3492
  8
0-5
  6
CONTINUOUS
 62
     7
 10
8690.199036
 20
13965.888489999999
 30
0.0
 40
160.0
  1
A
 72
     4
 11
8743.5323693333357
 21
14045.888489999999
 31
0.0
  0
TEXT
  5
3493
  8
0-5
  6
CONTINUOUS
 62
     7
 10
8690.199036
 20
16533.387500000001
 30
0.0
 40
160.0
  1
B
 72
     4
 11
8743.5323693333357
 21
16613.387500000001
 31
0.0
  0
TEXT
  5
3494
  8
0-5
  6
CONTINUOUS
 62
     7
 10
8690.199036
 20
19100.889480000002
 30
0.0
 40
160.0
  1
C
 72
     4
 11
8743.5323693333357
 21
19180.889480000002
 31
0.0
  0
TEXT
  5
3495
  8
0-5
  6
CONTINUOUS
 62
     7
 10
10229.4905
 20
20538.370345000021
 30
0.0
 40
160.0
  1
1
 72
     4
 11
10256.15716666667
 21
20618.370345000021
 31
0.0
  0
TEXT
  5
3496
  8
0-5
  6
CONTINUOUS
 62
     7
 10
13147.490500999989
 20
20538.370345000021
 30
0.0
 40
160.0
  1
2
 72
     4
 11
13200.823834333331
 21
20618.370345000021
 31
0.0
  0
TEXT
  5
3497
  8
0-6
  6
CONTINUOUS
 62
     7
 10
8513.1207069999982
 20
12650.757709999991
 30
0.0
 40
160.0
  1
ケラバ 左
 72
     4
 11
8929.1207069999982
 21
12730.757709999991
 31
0.0
  0
TEXT
  5
3498
  8
0-6
  6
CONTINUOUS
 62
     7
 10
13779.491398
 20
15708.17767099999
 30
0.0
 40
160.0
  1
ブレース
 72
     4
 11
14142.15806466667
 21
15793.51100433333
 31
0.0
  0
TEXT
  5
3499
  8
0-6
  6
CONTINUOUS
 62
     7
 10
12333.050243000011
 20
13140.756852
 30
0.0
 40
160.0
  1
鼻隠し前
 72
     4
 11
12695.71690966668
 21
13220.756852
 31
0.0
  0
TEXT
  5
349A
  8
0-6
  6
CONTINUOUS
 62
     7
 10
12377.690366000001
 20
14433.36593650002
 30
0.0
 40
160.0
  1
桁（前）
 72
     4
 11
12697.690366000001
 21
14513.36593650002
 31
0.0
  0
TEXT
  5
349B
  8
0-6
  6
CONTINUOUS
 62
     7
 10
10531.783351000009
 20
17280.281425000001
 30
0.0
 40
160.0
  1
上枠
 72
     4
 11
10702.450017666681
 21
17360.281425000001
 31
0.0
  0
TEXT
  5
349C
  8
0-6
  6
CONTINUOUS
 62
     7
 10
12122.044449000001
 20
19720.757907999989
 30
0.0
 40
160.0
  1
屋根
 72
     4
 11
12292.711115666671
 21
19800.757907999989
 31
0.0
  0
TEXT
  5
349D
  8
0-6
  6
CONTINUOUS
 62
     7
 10
13985.653309999991
 20
20110.756720000001
 30
0.0
 40
160.0
  1
鼻隠しコーナー後
 72
     4
 11
14732.31997666666
 21
20190.756720000001
 31
0.0
  0
TEXT
  5
349E
  8
2-0
  6
CONTINUOUS
 62
     7
 10
13780.063479
 20
18658.34236699999
 30
0.0
 40
160.0
  1
桁中B +  桁中補強B
 72
     4
 11
14713.39681233334
 21
18738.342367000001
 31
0.0
  0
TEXT
  5
349F
  8
2-0
  6
CONTINUOUS
 62
     7
 10
13780.063479
 20
17199.841707999989
 30
0.0
 40
160.0
  1
桁中A +  桁中補強A
 72
     4
 11
14713.39681233334
 21
17279.841707999989
 31
0.0
  0
TEXT
  5
34A0
  8
2-0
  6
CONTINUOUS
 62
     7
 10
13780.063479000009
 20
14681.05517850001
 30
0.0
 40
160.0
  1
桁中B +  桁中補強B
 50
0.000118
 72
     4
 11
14713.396647572279
 21
14761.05710068913
 31
0.0
  0
TEXT
  5
34A1
  8
2-0
  6
CONTINUOUS
 62
     7
 10
10611.913717975909
 20
11817.042368666671
 30
0.0
 40
160.0
  1
小 屋 伏 図
 72
     4
 11
11113.24705130925
 21
11897.042368666671
 31
0.0
  0
TEXT
  5
34A9
  8
2-0
  6
CONTINUOUS
 62
     7
 10
12464.739236446871
 20
11844.237737666661
 30
0.0
 40
160.0
  1
1
 72
     4
 11
12491.40590311354
 21
11924.237737666661
 31
0.0
  0
TEXT
  5
34AA
  8
2-0
  6
CONTINUOUS
 62
     7
 10
12707.82795369757
 20
11764.23920566667
 30
0.0
 40
160.0
  1
80
 72
     4
 11
12827.82795369757
 21
11844.23920566667
 31
0.0
  0
TEXT
  5
34AB
  8
2-0
  6
CONTINUOUS
 62
     7
 10
11965.74120244687
 20
11817.042368666671
 30
0.0
 40
160.0
  1
(S=  /   )
 72
     4
 11
12525.74120244687
 21
11897.042368666671
 31
0.0
  0
TEXT
  5
34AC
  8
0-6
  6
CONTINUOUS
 62
     7
 10
10379.03968914482
 20
19720.755926999991
 30
0.0
 40
160.0
  1
桁後+桁後補強
 72
     4
 11
11013.70635581149
 21
19800.755926999991
 31
0.0
  0
LINE
  5
34AD
  8
0-6
  6
CONTINUOUS
 62
     6
 10
11822.75509700001
 20
19234.257563999981
 30
0.0
 11
11689.36114911876
 21
19640.757642999979
 31
0.0
  0
LINE
  5
34AE
  8
0-6
  6
CONTINUOUS
 62
     6
 10
10329.618689549539
 20
19640.757642999979
 30
0.0
 11
11689.36114911876
 21
19640.757642999979
 31
0.0
  0
LINE
  5
34AF
  8
0-6
  6
CONTINUOUS
 62
     6
 10
11799.14764163272
 20
19394.739002424911
 30
0.0
 11
11748.37399785977
 21
19378.40548624015
 31
0.0
  0
LINE
  5
34B0
  8
0-6
  6
CONTINUOUS
 62
     6
 10
11799.14764163272
 20
19394.739002424911
 30
0.0
 11
11822.75509700001
 21
19234.257563999981
 31
0.0
  0
LINE
  5
34B1
  8
0-6
  6
CONTINUOUS
 62
     6
 10
11748.37399785977
 20
19378.40548624015
 30
0.0
 11
11799.14764163272
 21
19394.739002424911
 31
0.0
  0
LINE
  5
34B2
  8
0-6
  6
CONTINUOUS
 62
     6
 10
11822.75509700001
 20
19234.257563999981
 30
0.0
 11
11748.37399785977
 21
19378.40548624015
 31
0.0
  0
LINE
  5
34B3
  8
0-6
  6
CONTINUOUS
 62
     6
 10
11822.75509700001
 20
19234.257563999981
 30
0.0
 11
11799.14764163272
 21
19394.739002424911
 31
0.0
  0
LINE
  5
34B4
  8
0-6
  6
CONTINUOUS
 62
     6
 10
11748.37399785977
 20
19378.40548624015
 30
0.0
 11
11822.75509700001
 21
19234.257563999981
 31
0.0
  0
LINE
  5
34B5
  8
0-1
  6
CONTINUOUS
 62
     3
 10
9276.5124190000097
 20
8022.5051830000029
 30
0.0
 11
14456.51479400001
 21
8022.5051830000029
 31
0.0
  0
LINE
  5
34B6
  8
0-1
  6
CONTINUOUS
 62
     3
 10
8566.5125510000089
 20
6011.4597990000002
 30
0.0
 11
14489.013606
 21
6011.4597990000002
 31
0.0
  0
LINE
  5
34B7
  8
0-1
  6
CONTINUOUS
 62
     3
 10
9249.0136060000077
 20
6111.4596339999998
 30
0.0
 11
14489.013606
 21
6111.4596339999998
 31
0.0
  0
LINE
  5
34B8
  8
0-1
  6
CONTINUOUS
 62
     3
 10
9256.5143320000061
 20
8144.4870769999989
 30
0.0
 11
9256.5143320000061
 21
6111.4596339999998
 31
0.0
  0
LINE
  5
34B9
  8
0-1
  6
CONTINUOUS
 62
     3
 10
9276.5124190000097
 20
8145.1878260000021
 30
0.0
 11
9276.5124190000097
 21
6111.4596339999998
 31
0.0
  0
LINE
  5
34BA
  8
0-1
  6
CONTINUOUS
 62
     3
 10
9249.0136060000077
 20
6011.4597990000002
 30
0.0
 11
9249.0136060000077
 21
6111.4596339999998
 31
0.0
  0
LINE
  5
34BB
  8
0-1
  6
CONTINUOUS
 62
     3
 10
14551.79397200001
 20
8329.3840100000016
 30
0.0
 11
14547.242069
 21
8459.3047630000019
 31
0.0
  0
LINE
  5
34BC
  8
0-1
  6
CONTINUOUS
 62
     3
 10
11939.01347400001
 20
6161.4597990000002
 30
0.0
 11
14361.513738000011
 21
6161.4597990000002
 31
0.0
  0
LINE
  5
34BD
  8
0-1
  6
CONTINUOUS
 62
     3
 10
11452.513131000011
 20
6161.4597990000002
 30
0.0
 11
11452.513131000011
 21
8022.5051830000029
 31
0.0
  0
LINE
  5
34BE
  8
0-1
  6
CONTINUOUS
 62
     3
 10
11472.514187000001
 20
6161.4597990000002
 30
0.0
 11
11472.514187000001
 21
8022.5051830000029
 31
0.0
  0
LINE
  5
34BF
  8
0-1
  6
CONTINUOUS
 62
     3
 10
11402.514450000001
 20
6161.4597990000002
 30
0.0
 11
11402.514450000001
 21
8022.5051830000029
 31
0.0
  0
LINE
  5
34C0
  8
0-1
  6
CONTINUOUS
 62
     3
 10
11522.512866999999
 20
6161.4597990000002
 30
0.0
 11
11522.512866999999
 21
8022.5051830000029
 31
0.0
  0
LINE
  5
34C1
  8
0-1
  6
CONTINUOUS
 62
     3
 10
11655.51177100001
 20
6161.4597990000002
 30
0.0
 11
11655.51177100001
 21
8022.5051830000029
 31
0.0
  0
LINE
  5
34C2
  8
0-1
  6
CONTINUOUS
 62
     3
 10
11670.51355300001
 20
6161.4597990000002
 30
0.0
 11
11670.51355300001
 21
8022.5051830000029
 31
0.0
  0
LINE
  5
34C3
  8
0-1
  6
CONTINUOUS
 62
     3
 10
11269.512575999999
 20
6161.4597990000002
 30
0.0
 11
11269.512575999999
 21
8022.5051830000029
 31
0.0
  0
LINE
  5
34C4
  8
0-1
  6
CONTINUOUS
 62
     3
 10
11254.513763999999
 20
6161.4597990000002
 30
0.0
 11
11254.513763999999
 21
8022.5051830000029
 31
0.0
  0
LINE
  5
34C5
  8
0-1
  6
CONTINUOUS
 62
     3
 10
9371.5114950000097
 20
8022.5051830000029
 30
0.0
 11
9371.5114950000097
 21
6111.4596339999998
 31
0.0
  0
LINE
  5
34C6
  8
0-1
  6
CONTINUOUS
 62
     3
 10
11939.01347400001
 20
8022.5051830000029
 30
0.0
 11
11939.01347400001
 21
6111.4596339999998
 31
0.0
  0
LINE
  5
34C7
  8
0-1
  6
CONTINUOUS
 62
     3
 10
11794.013738000011
 20
8022.5051830000029
 30
0.0
 11
11794.013738000011
 21
6111.4596339999998
 31
0.0
  0
LINE
  5
34C8
  8
0-1
  6
CONTINUOUS
 62
     3
 10
10052.513461
 20
6161.4597990000002
 30
0.0
 11
10052.513461
 21
8022.5051830000029
 31
0.0
  0
LINE
  5
34C9
  8
0-1
  6
CONTINUOUS
 62
     3
 10
10072.51352699999
 20
6161.4597990000002
 30
0.0
 11
10072.51352699999
 21
8022.5051830000029
 31
0.0
  0
LINE
  5
34CA
  8
0-1
  6
CONTINUOUS
 62
     3
 10
10002.513790999999
 20
6161.4597990000002
 30
0.0
 11
10002.513790999999
 21
8022.5051830000029
 31
0.0
  0
LINE
  5
34CB
  8
0-1
  6
CONTINUOUS
 62
     3
 10
10122.513197
 20
6161.4597990000002
 30
0.0
 11
10122.513197
 21
8022.5051830000029
 31
0.0
  0
LINE
  5
34CC
  8
0-1
  6
CONTINUOUS
 62
     3
 10
10255.51408100001
 20
6161.4597990000002
 30
0.0
 11
10255.51408100001
 21
8022.5051830000029
 31
0.0
  0
LINE
  5
34CD
  8
0-1
  6
CONTINUOUS
 62
     3
 10
10270.51289300001
 20
6161.4597990000002
 30
0.0
 11
10270.51289300001
 21
8022.5051830000029
 31
0.0
  0
LINE
  5
34CE
  8
0-1
  6
CONTINUOUS
 62
     3
 10
9869.5129060000127
 20
6161.4597990000002
 30
0.0
 11
9869.5129060000127
 21
8022.5051830000029
 31
0.0
  0
LINE
  5
34CF
  8
0-1
  6
CONTINUOUS
 62
     3
 10
9854.5121150000123
 20
6161.4597990000002
 30
0.0
 11
9854.5121150000123
 21
8022.5051830000029
 31
0.0
  0
LINE
  5
34D0
  8
0-1
  6
CONTINUOUS
 62
     3
 10
10554.51343400001
 20
6161.4597990000002
 30
0.0
 11
10554.51343400001
 21
8022.5051830000029
 31
0.0
  0
LINE
  5
34D1
  8
0-1
  6
CONTINUOUS
 62
     3
 10
10569.51224700001
 20
6161.4597990000002
 30
0.0
 11
10569.51224700001
 21
8022.5051830000029
 31
0.0
  0
LINE
  5
34D2
  8
0-1
  6
CONTINUOUS
 62
     3
 10
10970.514213
 20
6161.4597990000002
 30
0.0
 11
10970.514213
 21
8022.5051830000029
 31
0.0
  0
LINE
  5
34D3
  8
0-1
  6
CONTINUOUS
 62
     3
 10
10955.513421
 20
6161.4597990000002
 30
0.0
 11
10955.513421
 21
8022.5051830000029
 31
0.0
  0
LINE
  5
34D4
  8
0-1
  6
CONTINUOUS
 62
     3
 10
10822.512537000001
 20
6161.4597990000002
 30
0.0
 11
10822.512537000001
 21
8022.5051830000029
 31
0.0
  0
LINE
  5
34D5
  8
0-1
  6
CONTINUOUS
 62
     3
 10
10702.513131000011
 20
6161.4597990000002
 30
0.0
 11
10702.513131000011
 21
8022.5051830000029
 31
0.0
  0
LINE
  5
34D6
  8
0-1
  6
CONTINUOUS
 62
     3
 10
10772.51286700001
 20
6161.4597990000002
 30
0.0
 11
10772.51286700001
 21
8022.5051830000029
 31
0.0
  0
LINE
  5
34D7
  8
0-1
  6
CONTINUOUS
 62
     3
 10
10752.513790999999
 20
6161.4597990000002
 30
0.0
 11
10752.513790999999
 21
8022.5051830000029
 31
0.0
  0
LINE
  5
34D8
  8
0-1
  6
CONTINUOUS
 62
     3
 10
11094.013408000001
 20
8022.5051830000029
 30
0.0
 11
11094.013408000001
 21
6161.4597990000002
 31
0.0
  0
LINE
  5
34D9
  8
0-1
  6
CONTINUOUS
 62
     3
 10
11131.013579
 20
8022.5051830000029
 30
0.0
 11
11131.013579
 21
6161.4597990000002
 31
0.0
  0
LINE
  5
34DA
  8
0-1
  6
CONTINUOUS
 62
     3
 10
9694.0127480000119
 20
8022.5051830000029
 30
0.0
 11
9694.0127480000119
 21
6161.4597990000002
 31
0.0
  0
LINE
  5
34DB
  8
0-1
  6
CONTINUOUS
 62
     3
 10
9731.0139090000121
 20
8022.5051830000029
 30
0.0
 11
9731.0139090000121
 21
6161.4597990000002
 31
0.0
  0
LINE
  5
34DC
  8
0-1
  6
CONTINUOUS
 62
     3
 10
10394.01208800001
 20
8022.5051830000029
 30
0.0
 11
10394.01208800001
 21
6161.4597990000002
 31
0.0
  0
LINE
  5
34DD
  8
0-1
  6
CONTINUOUS
 62
     3
 10
10431.014239
 20
8022.5051830000029
 30
0.0
 11
10431.014239
 21
6161.4597990000002
 31
0.0
  0
LINE
  5
34DE
  8
0-1
  6
CONTINUOUS
 62
     3
 10
9371.5114950000097
 20
6161.4597990000002
 30
0.0
 11
11794.013738000011
 21
6161.4597990000002
 31
0.0
  0
LINE
  5
34DF
  8
0-1
  6
CONTINUOUS
 62
     3
 10
11866.51360600001
 20
8235.6181730000044
 30
0.0
 11
11861.959722999991
 21
8365.5369470000005
 31
0.0
  0
LINE
  5
34E0
  8
0-1
  6
CONTINUOUS
 62
     3
 10
11866.51360600001
 20
8235.6181730000044
 30
0.0
 11
11866.51360600001
 21
8022.5051830000029
 31
0.0
  0
LINE
  5
34E1
  8
0-1
  6
CONTINUOUS
 62
     3
 10
14361.513738000011
 20
8022.5051830000029
 30
0.0
 11
14361.513738000011
 21
6111.4596339999998
 31
0.0
  0
LINE
  5
34E2
  8
0-1
  6
CONTINUOUS
 62
     3
 10
14476.513870000001
 20
8326.746301000001
 30
0.0
 11
14476.513870000001
 21
6111.4596339999998
 31
0.0
  0
LINE
  5
34E3
  8
0-1
  6
CONTINUOUS
 62
     3
 10
14456.51479400001
 20
8326.0455519999978
 30
0.0
 11
14456.51479400001
 21
6111.4596339999998
 31
0.0
  0
LINE
  5
34E4
  8
0-1
  6
CONTINUOUS
 62
     3
 10
13302.011983
 20
8022.5051830000029
 30
0.0
 11
13302.011983
 21
6161.4597990000002
 31
0.0
  0
LINE
  5
34E5
  8
0-1
  6
CONTINUOUS
 62
     3
 10
13339.013144
 20
8022.5051830000029
 30
0.0
 11
13339.013144
 21
6161.4597990000002
 31
0.0
  0
LINE
  5
34E6
  8
0-1
  6
CONTINUOUS
 62
     3
 10
14002.014291999991
 20
8022.5051830000029
 30
0.0
 11
14002.014291999991
 21
6161.4597990000002
 31
0.0
  0
LINE
  5
34E7
  8
0-1
  6
CONTINUOUS
 62
     3
 10
14039.01248400001
 20
8022.5051830000029
 30
0.0
 11
14039.01248400001
 21
6161.4597990000002
 31
0.0
  0
LINE
  5
34E8
  8
0-1
  6
CONTINUOUS
 62
     3
 10
12602.012642000011
 20
8022.5051830000029
 30
0.0
 11
12602.012642000011
 21
6161.4597990000002
 31
0.0
  0
LINE
  5
34E9
  8
0-1
  6
CONTINUOUS
 62
     3
 10
12639.012814000011
 20
8022.5051830000029
 30
0.0
 11
12639.012814000011
 21
6161.4597990000002
 31
0.0
  0
LINE
  5
34EA
  8
0-1
  6
CONTINUOUS
 62
     3
 10
12980.51243100001
 20
6161.4597990000002
 30
0.0
 11
12980.51243100001
 21
8022.5051830000029
 31
0.0
  0
LINE
  5
34EB
  8
0-1
  6
CONTINUOUS
 62
     3
 10
12960.513354999999
 20
6161.4597990000002
 30
0.0
 11
12960.513354999999
 21
8022.5051830000029
 31
0.0
  0
LINE
  5
34EC
  8
0-1
  6
CONTINUOUS
 62
     3
 10
13030.51408100001
 20
6161.4597990000002
 30
0.0
 11
13030.51408100001
 21
8022.5051830000029
 31
0.0
  0
LINE
  5
34ED
  8
0-1
  6
CONTINUOUS
 62
     3
 10
12910.512694999999
 20
6161.4597990000002
 30
0.0
 11
12910.512694999999
 21
8022.5051830000029
 31
0.0
  0
LINE
  5
34EE
  8
0-1
  6
CONTINUOUS
 62
     3
 10
12777.51379100001
 20
6161.4597990000002
 30
0.0
 11
12777.51379100001
 21
8022.5051830000029
 31
0.0
  0
LINE
  5
34EF
  8
0-1
  6
CONTINUOUS
 62
     3
 10
12762.51299899999
 20
6161.4597990000002
 30
0.0
 11
12762.51299899999
 21
8022.5051830000029
 31
0.0
  0
LINE
  5
34F0
  8
0-1
  6
CONTINUOUS
 62
     3
 10
13163.512986000011
 20
6161.4597990000002
 30
0.0
 11
13163.512986000011
 21
8022.5051830000029
 31
0.0
  0
LINE
  5
34F1
  8
0-1
  6
CONTINUOUS
 62
     3
 10
13178.51179800001
 20
6161.4597990000002
 30
0.0
 11
13178.51179800001
 21
8022.5051830000029
 31
0.0
  0
LINE
  5
34F2
  8
0-1
  6
CONTINUOUS
 62
     3
 10
13878.51410700001
 20
6161.4597990000002
 30
0.0
 11
13878.51410700001
 21
8022.5051830000029
 31
0.0
  0
LINE
  5
34F3
  8
0-1
  6
CONTINUOUS
 62
     3
 10
13863.512325999989
 20
6161.4597990000002
 30
0.0
 11
13863.512325999989
 21
8022.5051830000029
 31
0.0
  0
LINE
  5
34F4
  8
0-1
  6
CONTINUOUS
 62
     3
 10
13462.51332900001
 20
6161.4597990000002
 30
0.0
 11
13462.51332900001
 21
8022.5051830000029
 31
0.0
  0
LINE
  5
34F5
  8
0-1
  6
CONTINUOUS
 62
     3
 10
13477.512140999999
 20
6161.4597990000002
 30
0.0
 11
13477.512140999999
 21
8022.5051830000029
 31
0.0
  0
LINE
  5
34F6
  8
0-1
  6
CONTINUOUS
 62
     3
 10
13610.512035000011
 20
6161.4597990000002
 30
0.0
 11
13610.512035000011
 21
8022.5051830000029
 31
0.0
  0
LINE
  5
34F7
  8
0-1
  6
CONTINUOUS
 62
     3
 10
13730.51243100001
 20
6161.4597990000002
 30
0.0
 11
13730.51243100001
 21
8022.5051830000029
 31
0.0
  0
LINE
  5
34F8
  8
0-1
  6
CONTINUOUS
 62
     3
 10
13660.51269500001
 20
6161.4597990000002
 30
0.0
 11
13660.51269500001
 21
8022.5051830000029
 31
0.0
  0
LINE
  5
34F9
  8
0-1
  6
CONTINUOUS
 62
     3
 10
13680.51177100001
 20
6161.4597990000002
 30
0.0
 11
13680.51177100001
 21
8022.5051830000029
 31
0.0
  0
LINE
  5
34FA
  8
0-1
  6
CONTINUOUS
 62
     3
 10
12478.51245800001
 20
6161.4597990000002
 30
0.0
 11
12478.51245800001
 21
8022.5051830000029
 31
0.0
  0
LINE
  5
34FB
  8
0-1
  6
CONTINUOUS
 62
     3
 10
12463.51265600001
 20
6161.4597990000002
 30
0.0
 11
12463.51265600001
 21
8022.5051830000029
 31
0.0
  0
LINE
  5
34FC
  8
0-1
  6
CONTINUOUS
 62
     3
 10
12062.513659
 20
6161.4597990000002
 30
0.0
 11
12062.513659
 21
8022.5051830000029
 31
0.0
  0
LINE
  5
34FD
  8
0-1
  6
CONTINUOUS
 62
     3
 10
12077.51445000001
 20
6161.4597990000002
 30
0.0
 11
12077.51445000001
 21
8022.5051830000029
 31
0.0
  0
LINE
  5
34FE
  8
0-1
  6
CONTINUOUS
 62
     3
 10
12210.51335500001
 20
6161.4597990000002
 30
0.0
 11
12210.51335500001
 21
8022.5051830000029
 31
0.0
  0
LINE
  5
34FF
  8
0-1
  6
CONTINUOUS
 62
     3
 10
12330.512761000011
 20
6161.4597990000002
 30
0.0
 11
12330.512761000011
 21
8022.5051830000029
 31
0.0
  0
LINE
  5
3500
  8
0-1
  6
CONTINUOUS
 62
     3
 10
12260.513025
 20
6161.4597990000002
 30
0.0
 11
12260.513025
 21
8022.5051830000029
 31
0.0
  0
LINE
  5
3501
  8
0-1
  6
CONTINUOUS
 62
     3
 10
12280.513091000001
 20
6161.4597990000002
 30
0.0
 11
12280.513091000001
 21
8022.5051830000029
 31
0.0
  0
LINE
  5
3502
  8
0-1
  6
CONTINUOUS
 62
     3
 10
14489.013606
 20
6111.4596339999998
 30
0.0
 11
14489.013606
 21
6011.4597990000002
 31
0.0
  0
LINE
  5
3503
  8
0-1
  6
CONTINUOUS
 62
     3
 10
9079.3860200000126
 20
8186.3103449999971
 30
0.0
 11
9078.193360000012
 21
8220.2877920000046
 31
0.0
  0
LINE
  5
3504
  8
0-1
  6
CONTINUOUS
 62
     3
 10
9081.087416000013
 20
8223.3916769999978
 30
0.0
 11
14560.81166900001
 21
8414.7517380000008
 31
0.0
  0
LINE
  5
3505
  8
0-1
  6
CONTINUOUS
 62
     3
 10
14562.211189000011
 20
8374.778330000001
 30
0.0
 11
9082.4879260000125
 21
8183.4162890000034
 31
0.0
  0
LINE
  5
3506
  8
0-1
  6
CONTINUOUS
 62
     3
 10
9079.7710360000165
 20
8175.3160990000051
 30
0.0
 11
9079.7680670000118
 21
8175.3814230000016
 31
0.0
  0
LINE
  5
3507
  8
0-1
  6
CONTINUOUS
 62
     3
 10
9079.7680670000118
 20
8175.3814230000016
 30
0.0
 11
9080.8914440000135
 21
8143.3369759999978
 31
0.0
  0
LINE
  5
3508
  8
0-1
  6
CONTINUOUS
 62
     3
 10
9086.062936000013
 20
8138.5138789999974
 30
0.0
 11
14584.75493599999
 21
8330.5390590000006
 31
0.0
  0
LINE
  5
3509
  8
0-1
  6
CONTINUOUS
 62
     3
 10
14580.203033
 20
8460.4588220000023
 30
0.0
 11
9081.5110330000116
 21
8268.4346330000008
 31
0.0
  0
LINE
  5
350A
  8
0-1
  6
CONTINUOUS
 62
     3
 10
9076.687936000013
 20
8263.2621500000005
 30
0.0
 11
9077.8083440000173
 21
8231.283027999998
 31
0.0
  0
LINE
  5
350B
  8
0-1
  6
CONTINUOUS
 62
     3
 10
9080.9132190000128
 20
8228.3889720000006
 30
0.0
 11
14560.63549200001
 21
8419.7490329999982
 31
0.0
  0
LINE
  5
350C
  8
0-1
  6
CONTINUOUS
 62
     3
 10
14562.386376
 20
8369.7810350000018
 30
0.0
 11
9082.6631130000114
 21
8178.4189939999969
 31
0.0
  0
LINE
  5
350D
  8
0-1
  6
CONTINUOUS
 62
     3
 10
9094.0027850000133
 20
8268.8721060000007
 30
0.0
 11
9098.5556780000115
 21
8138.9513529999967
 31
0.0
  0
LINE
  5
350E
  8
0-5
  6
CONTINUOUS
 62
     4
 10
17359.886507999989
 20
6219.3052910000006
 30
0.0
 11
17479.884924000009
 21
6011.4597990000002
 31
0.0
  0
LINE
  5
350F
  8
0-5
  6
CONTINUOUS
 62
     4
 10
14569.013870000001
 20
6011.4597990000002
 30
0.0
 11
19627.00860400001
 21
6011.4597990000002
 31
0.0
  0
LINE
  5
3510
  8
0-5
  6
CONTINUOUS
 62
     4
 10
17479.884924000009
 20
6011.4597990000002
 30
0.0
 11
17599.885320000001
 21
6219.3052910000006
 31
0.0
  0
LINE
  5
3511
  8
0-5
  6
CONTINUOUS
 62
     4
 10
17599.885320000001
 20
6219.3052910000006
 30
0.0
 11
17359.886507999989
 21
6219.3052910000006
 31
0.0
  0
LINE
  5
3512
  8
0-5
  6
CONTINUOUS
 62
     4
 10
9299.0136060000114
 20
4331.4597000000003
 30
0.0
 11
9299.0136060000114
 21
4171.4596669999992
 31
0.0
  0
LINE
  5
3513
  8
0-5
  6
CONTINUOUS
 62
     4
 10
11866.51360600001
 20
4331.4597000000003
 30
0.0
 11
11866.51360600001
 21
4171.4596669999992
 31
0.0
  0
LINE
  5
3514
  8
0-5
  6
CONTINUOUS
 62
     4
 10
14434.01360600001
 20
4331.4597000000003
 30
0.0
 11
14434.01360600001
 21
4171.4596669999992
 31
0.0
  0
LINE
  5
3515
  8
2-0
  6
CENTER2
 62
     6
 10
9299.0136060000114
 20
5748.8063859999984
 30
0.0
 11
9299.0136060000114
 21
6805.9494789999999
 31
0.0
  0
LINE
  5
3516
  8
2-0
  6
CENTER2
 62
     6
 10
11866.51360600001
 20
5748.8063859999984
 30
0.0
 11
11866.51360600001
 21
6805.9494789999999
 31
0.0
  0
LINE
  5
3517
  8
2-0
  6
CENTER2
 62
     6
 10
14434.01360600001
 20
5748.8063859999984
 30
0.0
 11
14434.01360600001
 21
6805.9494789999999
 31
0.0
  0
ARC
  5
3518
  8
0-1
  6
CONTINUOUS
 62
     3
 10
9084.0745100000076
 20
8180.9705939999967
 30
0.0
 40
2.5
 50
272.00698899981808
 51
92.006988999818205
  0
ARC
  5
3519
  8
0-1
  6
CONTINUOUS
 62
     3
 10
9082.499803000017
 20
8225.9442660000004
 30
0.0
 40
2.5
 50
272.00698899981808
 51
92.006988999818205
  0
ARC
  5
351A
  8
0-1
  6
CONTINUOUS
 62
     3
 10
9081.1923310000166
 20
8220.3927060000005
 30
0.0
 40
3.0
 50
92.006988999818205
 51
182.00698899999421
  0
ARC
  5
351B
  8
0-1
  6
CONTINUOUS
 62
     3
 10
14561.510439000011
 20
8394.764538999998
 30
0.0
 40
20.0
 50
272.00698899981808
 51
92.006988999818205
  0
ARC
  5
351C
  8
0-1
  6
CONTINUOUS
 62
     3
 10
9082.3830110000126
 20
8186.4152600000016
 30
0.0
 40
3.0
 50
182.00698899999421
 51
272.00698899981808
  0
ARC
  5
351D
  8
0-1
  6
CONTINUOUS
 62
     3
 10
9082.7680270000128
 20
8175.4220029999988
 30
0.0
 40
3.0
 50
92.006988999818205
 51
182.00698899999421
  0
ARC
  5
351E
  8
0-1
  6
CONTINUOUS
 62
     3
 10
9085.8887380000087
 20
8143.511174000002
 30
0.0
 40
5.0
 50
182.00698899999421
 51
272.00698899981808
  0
ARC
  5
351F
  8
0-1
  6
CONTINUOUS
 62
     3
 10
14556.51413400001
 20
8394.5903410000028
 30
0.0
 40
69.999999000000003
 50
293.79377700003289
 51
70.220199999983819
  0
ARC
  5
3520
  8
0-1
  6
CONTINUOUS
 62
     3
 10
9081.685231000014
 20
8263.4373379999997
 30
0.0
 40
5.0
 50
92.006988999818205
 51
182.00698899999421
  0
ARC
  5
3521
  8
0-1
  6
CONTINUOUS
 62
     3
 10
9080.8063250000123
 20
8231.3869530000029
 30
0.0
 40
3.0
 50
182.00698899999421
 51
272.00698899981808
  0
ARC
  5
3522
  8
0-1
  6
CONTINUOUS
 62
     3
 10
14561.510439000011
 20
8394.764538999998
 30
0.0
 40
24.999998999999999
 50
272.00698899981808
 51
92.006988999818205
  0
CIRCLE
  5
3523
  8
0-5
  6
CONTINUOUS
 62
     4
 10
9299.0136060000114
 20
3971.459006999999
 30
0.0
 40
199.9999949999999
  0
CIRCLE
  5
3524
  8
0-5
  6
CONTINUOUS
 62
     4
 10
14434.01360600001
 20
3971.459006999999
 30
0.0
 40
199.9999949999999
  0
CIRCLE
  5
3525
  8
0-5
  6
CONTINUOUS
 62
     4
 10
11866.51360600001
 20
3971.459006999999
 30
0.0
 40
199.9999949999999
  0
TEXT
  5
3526
  8
0-5
  6
CONTINUOUS
 62
     7
 10
17359.886507999989
 20
6299.3060500000011
 30
0.0
 40
160.0
  1
G.L
 72
     4
 11
17519.886507999989
 21
6379.3060500000001
 31
0.0
  0
TEXT
  5
3527
  8
0-5
  6
CONTINUOUS
 62
     7
 10
9244.8176298542166
 20
3884.205062638202
 30
0.0
 40
160.0
  1
C
 72
     4
 11
9298.1509631875524
 21
3964.205062638202
 31
0.0
  0
TEXT
  5
3528
  8
0-5
  6
CONTINUOUS
 62
     7
 10
11812.31663885419
 20
3884.205062638202
 30
0.0
 40
160.0
  1
B
 72
     4
 11
11865.64997218753
 21
3964.205062638202
 31
0.0
  0
TEXT
  5
3529
  8
0-5
  6
CONTINUOUS
 62
     7
 10
14379.81564985421
 20
3884.205062638202
 30
0.0
 40
160.0
  1
A
 72
     4
 11
14433.14898318755
 21
3964.205062638202
 31
0.0
  0
TEXT
  5
352A
  8
2-0
  6
CONTINUOUS
 62
     7
 10
10397.565323999999
 20
3224.2921930000011
 30
0.0
 40
160.0
  1
側 面 立 面 図
 72
     4
 11
11042.89865733334
 21
3304.2921930000011
 31
0.0
  0
TEXT
  5
352B
  8
2-0
  6
CONTINUOUS
 62
     7
 10
12394.39084247095
 20
3251.4875619999989
 30
0.0
 40
160.0
  1
1
 72
     4
 11
12421.057509137619
 21
3331.4875619999989
 31
0.0
  0
TEXT
  5
352C
  8
2-0
  6
CONTINUOUS
 62
     7
 10
12637.47955972166
 20
3171.4890300000011
 30
0.0
 40
160.0
  1
80
 72
     4
 11
12757.47955972166
 21
3251.4890300000011
 31
0.0
  0
TEXT
  5
352D
  8
2-0
  6
CONTINUOUS
 62
     7
 10
11895.39280847095
 20
3224.2921930000011
 30
0.0
 40
160.0
  1
(S=  /   )
 72
     4
 11
12455.39280847095
 21
3304.2921930000011
 31
0.0
  0
LINE
  5
352E
  8
0-1
  6
CONTINUOUS
 62
     3
 10
19799.50583200001
 20
8019.4596930000034
 30
0.0
 11
22632.509263
 21
8019.4596930000034
 31
0.0
  0
LINE
  5
3535
  8
0-1
  6
CONTINUOUS
 62
     3
 10
22725.00820800001
 20
6111.4596339999998
 30
0.0
 11
22625.008867000011
 21
6111.4596339999998
 31
0.0
  0
LINE
  5
3536
  8
0-1
  6
CONTINUOUS
 62
     3
 10
22625.008867000011
 20
6111.4596339999998
 30
0.0
 11
22625.008867000011
 21
6011.4597990000002
 31
0.0
  0
LINE
  5
3537
  8
0-1
  6
CONTINUOUS
 62
     3
 10
22725.00820800001
 20
6011.4597990000002
 30
0.0
 11
22725.00820800001
 21
6111.4596339999998
 31
0.0
  0
LINE
  5
3538
  8
0-1
  6
CONTINUOUS
 62
     3
 10
22632.509263
 20
8329.4597259999973
 30
0.0
 11
22632.509263
 21
6111.4596339999998
 31
0.0
  0
LINE
  5
3539
  8
0-1
  6
CONTINUOUS
 62
     3
 10
22587.510847000001
 20
8019.4596930000034
 30
0.0
 11
22587.510847000001
 21
6011.4597990000002
 31
0.0
  0
LINE
  5
353A
  8
0-1
  6
CONTINUOUS
 62
     3
 10
22697.510714999989
 20
8459.4596599999986
 30
0.0
 11
22697.510714999989
 21
6111.4596339999998
 31
0.0
  0
LINE
  5
353B
  8
0-1
  6
CONTINUOUS
 62
     3
 10
22717.507812000011
 20
8329.4597259999973
 30
0.0
 11
22717.507812000011
 21
6111.4596339999998
 31
0.0
  0
LINE
  5
353D
  8
0-1
  6
CONTINUOUS
 62
     3
 10
19707.006888
 20
6111.4596339999998
 30
0.0
 11
19807.00622800002
 21
6111.4596339999998
 31
0.0
  0
LINE
  5
353E
  8
0-1
  6
CONTINUOUS
 62
     3
 10
19807.00622800002
 20
6111.4596339999998
 30
0.0
 11
19807.00622800002
 21
6011.4597990000002
 31
0.0
  0
LINE
  5
353F
  8
0-1
  6
CONTINUOUS
 62
     3
 10
19707.006888
 20
6011.4597990000002
 30
0.0
 11
19707.006888
 21
6111.4596339999998
 31
0.0
  0
LINE
  5
3540
  8
0-1
  6
CONTINUOUS
 62
     3
 10
19844.508208000021
 20
8019.4596930000034
 30
0.0
 11
19844.508208000021
 21
6011.4597990000002
 31
0.0
  0
LINE
  5
3541
  8
0-1
  6
CONTINUOUS
 62
     3
 10
19799.50583200001
 20
8329.4597259999973
 30
0.0
 11
19799.50583200001
 21
6111.4596339999998
 31
0.0
  0
LINE
  5
3542
  8
0-1
  6
CONTINUOUS
 62
     3
 10
19734.506360000021
 20
8459.4596599999986
 30
0.0
 11
19734.506360000021
 21
6111.4596339999998
 31
0.0
  0
LINE
  5
3543
  8
0-1
  6
CONTINUOUS
 62
     3
 10
19714.507284000021
 20
8329.4597259999973
 30
0.0
 11
19714.507284000021
 21
6111.4596339999998
 31
0.0
  0
LINE
  5
3544
  8
0-1
  6
CONTINUOUS
 62
     3
 10
19844.508208000021
 20
6531.4605249999986
 30
0.0
 11
22587.510847000001
 21
6531.4605249999986
 31
0.0
  0
LINE
  5
3545
  8
0-1
  6
CONTINUOUS
 62
     3
 10
19844.508208000021
 20
6466.4600630000032
 30
0.0
 11
22587.510847000001
 21
6466.4600630000032
 31
0.0
  0
LINE
  5
3546
  8
0-1
  6
CONTINUOUS
 62
     3
 10
19844.508208000021
 20
6401.4600959999998
 30
0.0
 11
22587.510847000001
 21
6401.4600959999998
 31
0.0
  0
LINE
  5
3547
  8
0-1
  6
CONTINUOUS
 62
     3
 10
19844.508208000021
 20
6336.4596339999998
 30
0.0
 11
22587.510847000001
 21
6336.4596339999998
 31
0.0
  0
LINE
  5
3548
  8
0-1
  6
CONTINUOUS
 62
     3
 10
19844.508208000021
 20
6271.460162000003
 30
0.0
 11
22587.510847000001
 21
6271.460162000003
 31
0.0
  0
LINE
  5
3549
  8
0-1
  6
CONTINUOUS
 62
     3
 10
19844.508208000021
 20
6206.4601950000006
 30
0.0
 11
22587.510847000001
 21
6206.4601950000006
 31
0.0
  0
LINE
  5
354A
  8
0-1
  6
CONTINUOUS
 62
     3
 10
19844.508208000021
 20
6141.4602280000026
 30
0.0
 11
22587.510847000001
 21
6141.4602280000026
 31
0.0
  0
LINE
  5
354B
  8
0-1
  6
CONTINUOUS
 62
     3
 10
19844.508208000021
 20
6076.4597660000018
 30
0.0
 11
22587.510847000001
 21
6076.4597660000018
 31
0.0
  0
LINE
  5
354C
  8
0-1
  6
CONTINUOUS
 62
     3
 10
19844.508208000021
 20
7896.4598320000023
 30
0.0
 11
22587.510847000001
 21
7896.4598320000023
 31
0.0
  0
LINE
  5
354D
  8
0-1
  6
CONTINUOUS
 62
     3
 10
19844.508208000021
 20
7831.4598650000016
 30
0.0
 11
22587.510847000001
 21
7831.4598650000016
 31
0.0
  0
LINE
  5
354E
  8
0-1
  6
CONTINUOUS
 62
     3
 10
19844.508208000021
 20
7766.4603930000021
 30
0.0
 11
22587.510847000001
 21
7766.4603930000021
 31
0.0
  0
LINE
  5
354F
  8
0-1
  6
CONTINUOUS
 62
     3
 10
19844.508208000021
 20
7701.4604259999978
 30
0.0
 11
22587.510847000001
 21
7701.4604259999978
 31
0.0
  0
LINE
  5
3550
  8
0-1
  6
CONTINUOUS
 62
     3
 10
19844.508208000021
 20
7636.4604590000017
 30
0.0
 11
22587.510847000001
 21
7636.4604590000017
 31
0.0
  0
LINE
  5
3551
  8
0-1
  6
CONTINUOUS
 62
     3
 10
19844.508208000021
 20
7571.4599969999981
 30
0.0
 11
22587.510847000001
 21
7571.4599969999981
 31
0.0
  0
LINE
  5
3552
  8
0-1
  6
CONTINUOUS
 62
     3
 10
19844.508208000021
 20
7506.4600300000029
 30
0.0
 11
22587.510847000001
 21
7506.4600300000029
 31
0.0
  0
LINE
  5
3553
  8
0-1
  6
CONTINUOUS
 62
     3
 10
19844.508208000021
 20
7441.4605579999998
 30
0.0
 11
22587.510847000001
 21
7441.4605579999998
 31
0.0
  0
LINE
  5
3554
  8
0-1
  6
CONTINUOUS
 62
     3
 10
19844.508208000021
 20
7376.4605909999973
 30
0.0
 11
22587.510847000001
 21
7376.4605909999973
 31
0.0
  0
LINE
  5
3555
  8
0-1
  6
CONTINUOUS
 62
     3
 10
19844.508208000021
 20
7311.4601290000019
 30
0.0
 11
22587.510847000001
 21
7311.4601290000019
 31
0.0
  0
LINE
  5
3556
  8
0-1
  6
CONTINUOUS
 62
     3
 10
19844.508208000021
 20
7246.4601620000021
 30
0.0
 11
22587.510847000001
 21
7246.4601620000021
 31
0.0
  0
LINE
  5
3557
  8
0-1
  6
CONTINUOUS
 62
     3
 10
19844.508208000021
 20
7181.4601950000006
 30
0.0
 11
22587.510847000001
 21
7181.4601950000006
 31
0.0
  0
LINE
  5
3558
  8
0-1
  6
CONTINUOUS
 62
     3
 10
19844.508208000021
 20
7116.4597330000024
 30
0.0
 11
22587.510847000001
 21
7116.4597330000024
 31
0.0
  0
LINE
  5
3559
  8
0-1
  6
CONTINUOUS
 62
     3
 10
19844.508208000021
 20
7051.4597659999999
 30
0.0
 11
22587.510847000001
 21
7051.4597659999999
 31
0.0
  0
LINE
  5
355A
  8
0-1
  6
CONTINUOUS
 62
     3
 10
19844.508208000021
 20
6986.4602940000013
 30
0.0
 11
22587.510847000001
 21
6986.4602940000013
 31
0.0
  0
LINE
  5
355B
  8
0-1
  6
CONTINUOUS
 62
     3
 10
19844.508208000021
 20
6921.4603270000007
 30
0.0
 11
22587.510847000001
 21
6921.4603270000007
 31
0.0
  0
LINE
  5
355C
  8
0-1
  6
CONTINUOUS
 62
     3
 10
19844.508208000021
 20
6856.4603599999991
 30
0.0
 11
22587.510847000001
 21
6856.4603599999991
 31
0.0
  0
LINE
  5
355D
  8
0-1
  6
CONTINUOUS
 62
     3
 10
19844.508208000021
 20
6791.4598980000019
 30
0.0
 11
22587.510847000001
 21
6791.4598980000019
 31
0.0
  0
LINE
  5
355E
  8
0-1
  6
CONTINUOUS
 62
     3
 10
19844.508208000021
 20
6726.4599310000003
 30
0.0
 11
22587.510847000001
 21
6726.4599310000003
 31
0.0
  0
LINE
  5
355F
  8
0-1
  6
CONTINUOUS
 62
     3
 10
19844.508208000021
 20
6661.4604590000008
 30
0.0
 11
22587.510847000001
 21
6661.4604590000008
 31
0.0
  0
LINE
  5
3560
  8
0-1
  6
CONTINUOUS
 62
     3
 10
19844.508208000021
 20
6596.4604920000002
 30
0.0
 11
22587.510847000001
 21
6596.4604920000002
 31
0.0
  0
LINE
  5
3561
  8
0-1
  6
CONTINUOUS
 62
     3
 10
19844.508208000021
 20
7950.9198520000018
 30
0.0
 11
22587.510847000001
 21
7950.9198520000018
 31
0.0
  0
LINE
  5
3562
  8
0-1
  6
CONTINUOUS
 62
     3
 10
19707.006888
 20
6011.4597990000002
 30
0.0
 11
22725.00820800001
 21
6011.4597990000002
 31
0.0
  0
LINE
  5
3574
  8
0-2
  6
CONTINUOUS
 62
     4
 10
21579.699547
 20
6758.6864930000029
 30
0.0
 11
21479.700207000002
 21
6758.6864930000029
 31
0.0
  0
LINE
  5
3575
  8
0-2
  6
CONTINUOUS
 62
     4
 10
20852.315546999998
 20
6758.6864930000029
 30
0.0
 11
20952.314887
 21
6758.6864930000029
 31
0.0
  0
LINE
  5
3576
  8
0-5
  6
CONTINUOUS
 62
     4
 10
22675.009527000009
 20
4331.4601949999997
 30
0.0
 11
22675.009527000009
 21
4171.4606569999987
 31
0.0
  0
LINE
  5
3577
  8
0-5
  6
CONTINUOUS
 62
     4
 10
19757.009526999998
 20
4331.4601949999997
 30
0.0
 11
19757.009526999998
 21
4171.4606569999987
 31
0.0
  0
LINE
  5
3578
  8
2-0
  6
CENTER2
 62
     6
 10
22675.009527000009
 20
5748.8073760000016
 30
0.0
 11
22675.009527000009
 21
6785.9504030000016
 31
0.0
  0
LINE
  5
3579
  8
2-0
  6
CENTER2
 62
     6
 10
19757.009526999998
 20
5748.8073760000016
 30
0.0
 11
19757.009526999998
 21
6785.9504030000016
 31
0.0
  0
CIRCLE
  5
3582
  8
0-5
  6
CONTINUOUS
 62
     4
 10
22675.009527000009
 20
3971.4595020000011
 30
0.0
 40
199.9999949999999
  0
CIRCLE
  5
3583
  8
0-5
  6
CONTINUOUS
 62
     4
 10
19757.009526999998
 20
3971.4595020000011
 30
0.0
 40
199.9999949999999
  0
TEXT
  5
3584
  8
0-5
  6
CONTINUOUS
 62
     7
 10
22623.096652000011
 20
3881.9845200000018
 30
0.0
 40
160.0
  1
2
 72
     4
 11
22676.42998533334
 21
3961.9845200000009
 31
0.0
  0
TEXT
  5
3585
  8
0-5
  6
CONTINUOUS
 62
     7
 10
19705.096653000019
 20
3881.9845200000018
 30
0.0
 40
160.0
  1
1
 72
     4
 11
19731.76331966669
 21
3961.9845200000009
 31
0.0
  0
TEXT
  5
3586
  8
2-0
  6
CONTINUOUS
 62
     7
 10
19872.915037999999
 20
3163.073848999999
 30
0.0
 40
160.0
  1
正 面 立 面 図
 72
     4
 11
20518.248371333331
 21
3243.073848999999
 31
0.0
  0
CIRCLE
  5
3587
  8
0-4
  6
CONTINUOUS
 62
     4
 10
21216.009526999998
 20
6497.5162349999991
 30
0.0
 40
18.487504999999981
  0
TEXT
  5
3588
  8
2-0
  6
CONTINUOUS
 62
     7
 10
21869.740556470959
 20
3190.269217999999
 30
0.0
 40
160.0
  1
1
 72
     4
 11
21896.40722313763
 21
3270.269217999999
 31
0.0
  0
TEXT
  5
3589
  8
2-0
  6
CONTINUOUS
 62
     7
 10
22112.829273721662
 20
3110.2706859999989
 30
0.0
 40
160.0
  1
80
 72
     4
 11
22232.829273721662
 21
3190.2706859999989
 31
0.0
  0
TEXT
  5
358A
  8
2-0
  6
CONTINUOUS
 62
     7
 10
21370.74252247098
 20
3163.073848999999
 30
0.0
 40
160.0
  1
(S=  /   )
 72
     4
 11
21930.74252247098
 21
3243.073848999999
 31
0.0
  0
LINE
  5
358B
  8
SUNPOU
  6
CONTINUOUS
 10
19474.509526999991
 20
4811.4597990000038
 30
0.0
 11
19116.554520278911
 21
4811.4597990000038
 31
0.0
  0
LINE
  5
358C
  8
SUNPOU
  6
CONTINUOUS
 10
22957.509527000009
 20
4811.4597990000038
 30
0.0
 11
23315.464533721119
 21
4811.4597990000038
 31
0.0
  0
TEXT
  5
358D
  8
0-5
  6
CONTINUOUS
 62
     7
 10
19138.831608000011
 20
6740.8200457419989
 30
0.0
 40
160.0
  1
(2131.5)
 50
90.0
 72
     4
 11
19058.831608000011
 21
7194.1533790753319
 31
0.0
  0
LINE
  5
358E
  8
0-1
  6
CONTINUOUS
 62
     3
 10
9561.0118630000215
 20
6161.4597990000002
 30
0.0
 11
9561.0118630000215
 21
8022.5051830000029
 31
0.0
  0
LINE
  5
358F
  8
0-1
  6
CONTINUOUS
 62
     3
 10
9546.0110720000212
 20
6161.4597990000002
 30
0.0
 11
9546.0110720000212
 21
8022.5051830000029
 31
0.0
  0
LINE
  5
3590
  8
0-1
  6
CONTINUOUS
 62
     3
 10
14187.01416000001
 20
6161.4597990000002
 30
0.0
 11
14187.01416000001
 21
8022.5051830000029
 31
0.0
  0
LINE
  5
3591
  8
0-1
  6
CONTINUOUS
 62
     3
 10
14172.012379
 20
6161.4597990000002
 30
0.0
 11
14172.012379
 21
8022.5051830000029
 31
0.0
  0
LINE
  5
3592
  8
0-5
  6
CONTINUOUS
 62
     4
 10
14569.013870000021
 20
6111.4596339999998
 30
0.0
 11
16286.47381800002
 21
6111.4596339999998
 31
0.0
  0
LINE
  5
3593
  8
0-5
  6
CONTINUOUS
 62
     4
 10
16314.09997900001
 20
6319.3056209999977
 30
0.0
 11
16074.098198000011
 21
6319.3056209999977
 31
0.0
  0
LINE
  5
3594
  8
0-5
  6
CONTINUOUS
 62
     4
 10
16194.09760400001
 20
6111.4596339999998
 30
0.0
 11
16314.09997900001
 21
6319.3056209999977
 31
0.0
  0
LINE
  5
3595
  8
0-5
  6
CONTINUOUS
 62
     4
 10
16074.098198000011
 20
6319.3056209999977
 30
0.0
 11
16194.09760400001
 21
6111.4596339999998
 31
0.0
  0
TEXT
  5
3596
  8
0-0
  6
CONTINUOUS
 62
     7
 10
15735.006665000001
 20
6399.3058849999961
 30
0.0
 40
160.0
  1
布基礎天端
 72
     4
 11
16193.67333166667
 21
6479.3058849999961
 31
0.0
  0
TEXT
  5
3597
  8
2-0
  6
CONTINUOUS
 62
     7
 10
19980.717641000021
 20
11822.375701999999
 30
0.0
 40
160.0
  1
平　面　図
 72
     4
 11
20434.05097433335
 21
11897.042368666671
 31
0.0
  0
TEXT
  5
3598
  8
2-0
  6
CONTINUOUS
 62
     7
 10
21785.543159470981
 20
11844.237737666661
 30
0.0
 40
160.0
  1
1
 72
     4
 11
21812.209826137649
 21
11924.237737666661
 31
0.0
  0
TEXT
  5
3599
  8
2-0
  6
CONTINUOUS
 62
     7
 10
22028.631876721662
 20
11764.23920566667
 30
0.0
 40
160.0
  1
80
 72
     4
 11
22148.631876721662
 21
11844.23920566667
 31
0.0
  0
TEXT
  5
359A
  8
2-0
  6
CONTINUOUS
 62
     7
 10
21286.545125470981
 20
11817.042368666671
 30
0.0
 40
160.0
  1
(S=  /   )
 72
     4
 11
21846.545125470981
 21
11897.042368666671
 31
0.0
  0
LINE
  5
359B
  8
2-0
  6
CONTINUOUS
 62
     6
 10
20991.850611000002
 20
13413.25639
 30
0.0
 11
21991.844012999962
 21
13413.25639
 31
0.0
  0
LINE
  5
359C
  8
2-0
  6
CONTINUOUS
 62
     6
 10
22459.784390000001
 20
13883.677103999989
 30
0.0
 11
21991.844012999962
 21
13413.25639
 31
0.0
  0
LINE
  5
359D
  8
2-0
  6
CONTINUOUS
 62
     6
 10
21008.56170699999
 20
17741.876455000001
 30
0.0
 11
22026.537055000001
 21
17741.876455000001
 31
0.0
  0
LINE
  5
359E
  8
2-0
  6
CONTINUOUS
 62
     6
 10
22482.962572999979
 20
17966.591403999999
 30
0.0
 11
22026.537055000001
 21
17741.876455000001
 31
0.0
  0
LINE
  5
359F
  8
2-0
  6
CONTINUOUS
 62
     6
 10
22421.144187000002
 20
16724.78475100001
 30
0.0
 11
22116.448768999991
 21
16828.438282000021
 31
0.0
  0
LINE
  5
35A0
  8
2-0
  6
CONTINUOUS
 62
     6
 10
22576.166225999968
 20
16235.16270700001
 30
0.0
 11
22116.448768999991
 21
15991.24939600001
 31
0.0
  0
LINE
  5
35A1
  8
2-0
  6
CONTINUOUS
 62
     6
 10
21196.445734000001
 20
15991.24939600001
 30
0.0
 11
22116.448768999991
 21
15991.24939600001
 31
0.0
  0
LINE
  5
35A2
  8
2-0
  6
CONTINUOUS
 62
     6
 10
20916.454707000001
 20
16828.438282000021
 30
0.0
 11
22116.448768999991
 21
16828.438282000021
 31
0.0
  0
LINE
  5
35A3
  8
2-0
  6
CONTINUOUS
 62
     6
 10
22492.34351100001
 20
14205.36074999998
 30
0.0
 11
22116.448768999991
 21
14386.304585
 31
0.0
  0
LINE
  5
35A4
  8
2-0
  6
CONTINUOUS
 62
     6
 10
21008.56170699999
 20
14824.113997
 30
0.0
 11
22026.537055000001
 21
14824.113997
 31
0.0
  0
LINE
  5
35A5
  8
2-0
  6
CONTINUOUS
 62
     6
 10
21596.447053
 20
14386.304585
 30
0.0
 11
22116.448768999991
 21
14386.304585
 31
0.0
  0
LINE
  5
35A6
  8
2-0
  6
CONTINUOUS
 62
     6
 10
22482.962572999979
 20
15048.82696700001
 30
0.0
 11
22026.537055000001
 21
14824.113997
 31
0.0
  0
LINE
  5
35A7
  8
2-0
  6
CONTINUOUS
 62
     4
 10
19757.009526999998
 20
19310.758040000001
 30
0.0
 11
19757.009526999998
 21
20040.75500500001
 31
0.0
  0
LINE
  5
35A8
  8
2-0
  6
CONTINUOUS
 62
     3
 10
22687.510187
 20
19121.755585999988
 30
0.0
 11
22687.510187
 21
19115.75962400002
 31
0.0
  0
LINE
  5
35A9
  8
2-0
  6
CONTINUOUS
 62
     3
 10
22687.510187
 20
19115.75962400002
 30
0.0
 11
22717.50781100001
 21
19115.75962400002
 31
0.0
  0
LINE
  5
35AA
  8
2-0
  6
CONTINUOUS
 62
     3
 10
22717.50781100001
 20
19145.759227999999
 30
0.0
 11
22636.505910999978
 21
19145.759227999999
 31
0.0
  0
LINE
  5
35AB
  8
2-0
  6
CONTINUOUS
 62
     3
 10
22687.510187
 20
19105.462167999991
 30
0.0
 11
22717.50781100001
 21
19105.462167999991
 31
0.0
  0
LINE
  5
35AC
  8
2-0
  6
CONTINUOUS
 62
     3
 10
22687.510187
 20
19123.463910000009
 30
0.0
 11
22687.510187
 21
19105.462167999991
 31
0.0
  0
LINE
  5
35AD
  8
2-0
  6
CONTINUOUS
 62
     3
 10
22712.507547000001
 20
19123.463910000009
 30
0.0
 11
22687.510187
 21
19123.463910000009
 31
0.0
  0
LINE
  5
35AE
  8
2-0
  6
CONTINUOUS
 62
     3
 10
22712.507547000001
 20
19118.455728000001
 30
0.0
 11
22712.507547000001
 21
19123.463910000009
 31
0.0
  0
LINE
  5
35AF
  8
2-0
  6
CONTINUOUS
 62
     3
 10
22705.505990000001
 20
19118.455728000001
 30
0.0
 11
22712.507547000001
 21
19118.455728000001
 31
0.0
  0
LINE
  5
35B0
  8
2-0
  6
CONTINUOUS
 62
     3
 10
22605.209722000011
 20
19218.755955000001
 30
0.0
 11
22605.209722000011
 21
19225.761471000009
 31
0.0
  0
LINE
  5
35B1
  8
2-0
  6
CONTINUOUS
 62
     3
 10
22605.209722000011
 20
19225.761471000009
 30
0.0
 11
22610.209985999991
 21
19225.761471000009
 31
0.0
  0
LINE
  5
35B2
  8
2-0
  6
CONTINUOUS
 62
     3
 10
22610.209985999991
 20
19225.761471000009
 30
0.0
 11
22610.209985999991
 21
19200.752234
 31
0.0
  0
LINE
  5
35B3
  8
2-0
  6
CONTINUOUS
 62
     3
 10
22610.209985999991
 20
19200.752234
 30
0.0
 11
22592.208243999979
 21
19200.752234
 31
0.0
  0
LINE
  5
35B4
  8
2-0
  6
CONTINUOUS
 62
     3
 10
22592.208243999979
 20
19200.752234
 30
0.0
 11
22592.208243999979
 21
19230.75579700002
 31
0.0
  0
LINE
  5
35B5
  8
2-0
  6
CONTINUOUS
 62
     3
 10
22602.505700000002
 20
19230.75579700002
 30
0.0
 11
22717.50781100001
 21
19230.75579700002
 31
0.0
  0
LINE
  5
35B6
  8
2-0
  6
CONTINUOUS
 62
     3
 10
22602.505700000002
 20
19200.752234
 30
0.0
 11
22602.505700000002
 21
19230.75579700002
 31
0.0
  0
LINE
  5
35B7
  8
2-0
  6
CONTINUOUS
 62
     3
 10
22608.507600000001
 20
19200.752234
 30
0.0
 11
22602.505700000002
 21
19200.752234
 31
0.0
  0
LINE
  5
35B8
  8
2-0
  6
CONTINUOUS
 62
     3
 10
22705.505990000001
 20
18765.158905499949
 30
0.0
 11
22712.507547000001
 21
18765.158905499949
 31
0.0
  0
LINE
  5
35B9
  8
2-0
  6
CONTINUOUS
 62
     3
 10
22712.507547000001
 20
18765.158905499949
 30
0.0
 11
22712.507547000001
 21
18770.159169499992
 31
0.0
  0
LINE
  5
35BA
  8
2-0
  6
CONTINUOUS
 62
     3
 10
22712.507547000001
 20
18770.159169499992
 30
0.0
 11
22687.510187
 21
18770.159169499992
 31
0.0
  0
LINE
  5
35BB
  8
2-0
  6
CONTINUOUS
 62
     3
 10
22687.510187
 20
18770.159169499992
 30
0.0
 11
22687.510187
 21
18752.163365500001
 31
0.0
  0
LINE
  5
35BC
  8
2-0
  6
CONTINUOUS
 62
     3
 10
22687.510187
 20
18752.163365500001
 30
0.0
 11
22717.50781100001
 21
18752.163365500001
 31
0.0
  0
LINE
  5
35BD
  8
2-0
  6
CONTINUOUS
 62
     3
 10
22687.510187
 20
18768.25487249998
 30
0.0
 11
22687.510187
 21
18762.2569315
 31
0.0
  0
LINE
  5
35BE
  8
2-0
  6
CONTINUOUS
 62
     3
 10
22687.510187
 20
18762.2569315
 30
0.0
 11
22717.50781100001
 21
18762.2569315
 31
0.0
  0
LINE
  5
35BF
  8
2-0
  6
CONTINUOUS
 62
     3
 10
22717.50781100001
 20
18762.2569315
 30
0.0
 11
22717.50781100001
 21
18799.2580925
 31
0.0
  0
LINE
  5
35C0
  8
2-0
  6
CONTINUOUS
 62
     3
 10
22687.510187
 20
18799.2580925
 30
0.0
 11
22717.50781100001
 21
18799.2580925
 31
0.0
  0
LINE
  5
35C1
  8
2-0
  6
CONTINUOUS
 62
     3
 10
22687.510187
 20
18793.254212499989
 30
0.0
 11
22687.510187
 21
18799.2580925
 31
0.0
  0
LINE
  5
35C2
  8
2-0
  6
CONTINUOUS
 62
     3
 10
22687.510187
 20
18809.353637499989
 30
0.0
 11
22717.50781100001
 21
18809.353637499989
 31
0.0
  0
LINE
  5
35C3
  8
2-0
  6
CONTINUOUS
 62
     3
 10
22687.510187
 20
18791.3518955
 30
0.0
 11
22687.510187
 21
18809.353637499989
 31
0.0
  0
LINE
  5
35C4
  8
2-0
  6
CONTINUOUS
 62
     3
 10
22712.507547000001
 20
18791.3518955
 30
0.0
 11
22687.510187
 21
18791.3518955
 31
0.0
  0
LINE
  5
35C5
  8
2-0
  6
CONTINUOUS
 62
     3
 10
22712.507547000001
 20
18796.352159499991
 30
0.0
 11
22712.507547000001
 21
18791.3518955
 31
0.0
  0
LINE
  5
35C6
  8
2-0
  6
CONTINUOUS
 62
     3
 10
22705.505990000001
 20
18796.352159499991
 30
0.0
 11
22712.507547000001
 21
18796.352159499991
 31
0.0
  0
LINE
  5
35C7
  8
2-0
  6
CONTINUOUS
 62
     3
 10
22705.505990000001
 20
18064.157916
 30
0.0
 11
22712.507547000001
 21
18064.157916
 31
0.0
  0
LINE
  5
35C8
  8
2-0
  6
CONTINUOUS
 62
     3
 10
22712.507547000001
 20
18064.157916
 30
0.0
 11
22712.507547000001
 21
18069.16411799999
 31
0.0
  0
LINE
  5
35C9
  8
2-0
  6
CONTINUOUS
 62
     3
 10
22712.507547000001
 20
18069.16411799999
 30
0.0
 11
22687.510187
 21
18069.16411799999
 31
0.0
  0
LINE
  5
35CA
  8
2-0
  6
CONTINUOUS
 62
     3
 10
22687.510187
 20
18069.16411799999
 30
0.0
 11
22687.510187
 21
18051.162376
 31
0.0
  0
LINE
  5
35CB
  8
2-0
  6
CONTINUOUS
 62
     3
 10
22687.510187
 20
18051.162376
 30
0.0
 11
22717.50781100001
 21
18051.162376
 31
0.0
  0
LINE
  5
35CC
  8
2-0
  6
CONTINUOUS
 62
     3
 10
22687.510187
 20
18067.25388299999
 30
0.0
 11
22687.510187
 21
18061.257920999989
 31
0.0
  0
LINE
  5
35CD
  8
2-0
  6
CONTINUOUS
 62
     3
 10
22687.510187
 20
18061.257920999989
 30
0.0
 11
22717.50781100001
 21
18061.257920999989
 31
0.0
  0
LINE
  5
35CE
  8
2-0
  6
CONTINUOUS
 62
     3
 10
22717.50781100001
 20
18061.257920999989
 30
0.0
 11
22717.50781100001
 21
18098.257103
 31
0.0
  0
LINE
  5
35CF
  8
2-0
  6
CONTINUOUS
 62
     3
 10
22687.510187
 20
18098.257103
 30
0.0
 11
22717.50781100001
 21
18098.257103
 31
0.0
  0
LINE
  5
35D0
  8
2-0
  6
CONTINUOUS
 62
     3
 10
22687.510187
 20
18092.26114100001
 30
0.0
 11
22687.510187
 21
18098.257103
 31
0.0
  0
LINE
  5
35D1
  8
2-0
  6
CONTINUOUS
 62
     3
 10
22687.510187
 20
18108.352648
 30
0.0
 11
22717.50781100001
 21
18108.352648
 31
0.0
  0
LINE
  5
35D2
  8
2-0
  6
CONTINUOUS
 62
     3
 10
22687.510187
 20
18090.350906
 30
0.0
 11
22687.510187
 21
18108.352648
 31
0.0
  0
LINE
  5
35D3
  8
2-0
  6
CONTINUOUS
 62
     3
 10
22712.507547000001
 20
18090.350906
 30
0.0
 11
22687.510187
 21
18090.350906
 31
0.0
  0
LINE
  5
35D4
  8
2-0
  6
CONTINUOUS
 62
     3
 10
22712.507547000001
 20
18095.357107999978
 30
0.0
 11
22712.507547000001
 21
18090.350906
 31
0.0
  0
LINE
  5
35D5
  8
2-0
  6
CONTINUOUS
 62
     3
 10
22705.505990000001
 20
18095.357107999978
 30
0.0
 11
22712.507547000001
 21
18095.357107999978
 31
0.0
  0
LINE
  5
35D6
  8
2-0
  6
CONTINUOUS
 62
     3
 10
22705.505990000001
 20
17394.351170000002
 30
0.0
 11
22712.507547000001
 21
17394.351170000002
 31
0.0
  0
LINE
  5
35D7
  8
2-0
  6
CONTINUOUS
 62
     3
 10
22712.507547000001
 20
17394.351170000002
 30
0.0
 11
22712.507547000001
 21
17389.362783
 31
0.0
  0
LINE
  5
35D8
  8
2-0
  6
CONTINUOUS
 62
     3
 10
22712.507547000001
 20
17389.362783
 30
0.0
 11
22687.510187
 21
17389.362783
 31
0.0
  0
LINE
  5
35D9
  8
2-0
  6
CONTINUOUS
 62
     3
 10
22687.510187
 20
17389.362783
 30
0.0
 11
22687.510187
 21
17407.358585999991
 31
0.0
  0
LINE
  5
35DA
  8
2-0
  6
CONTINUOUS
 62
     3
 10
22687.510187
 20
17407.358585999991
 30
0.0
 11
22717.50781100001
 21
17407.358585999991
 31
0.0
  0
LINE
  5
35DB
  8
2-0
  6
CONTINUOUS
 62
     3
 10
22687.510187
 20
17391.261140999999
 30
0.0
 11
22687.510187
 21
17397.257102999989
 31
0.0
  0
LINE
  5
35DC
  8
2-0
  6
CONTINUOUS
 62
     3
 10
22687.510187
 20
17397.257102999989
 30
0.0
 11
22717.50781100001
 21
17397.257102999989
 31
0.0
  0
LINE
  5
35DD
  8
2-0
  6
CONTINUOUS
 62
     3
 10
22717.50781100001
 20
17397.257102999989
 30
0.0
 11
22717.50781100001
 21
17360.257921
 31
0.0
  0
LINE
  5
35DE
  8
2-0
  6
CONTINUOUS
 62
     3
 10
22687.510187
 20
17360.257921
 30
0.0
 11
22717.50781100001
 21
17360.257921
 31
0.0
  0
LINE
  5
35DF
  8
2-0
  6
CONTINUOUS
 62
     3
 10
22687.510187
 20
17366.259821999982
 30
0.0
 11
22687.510187
 21
17360.257921
 31
0.0
  0
LINE
  5
35E0
  8
2-0
  6
CONTINUOUS
 62
     3
 10
22687.510187
 20
17350.168314999999
 30
0.0
 11
22717.50781100001
 21
17350.168314999999
 31
0.0
  0
LINE
  5
35E1
  8
2-0
  6
CONTINUOUS
 62
     3
 10
22687.510187
 20
17368.164118000001
 30
0.0
 11
22687.510187
 21
17350.168314999999
 31
0.0
  0
LINE
  5
35E2
  8
2-0
  6
CONTINUOUS
 62
     3
 10
22712.507547000001
 20
17368.164118000001
 30
0.0
 11
22687.510187
 21
17368.164118000001
 31
0.0
  0
LINE
  5
35E3
  8
2-0
  6
CONTINUOUS
 62
     3
 10
22712.507547000001
 20
17363.16385500001
 30
0.0
 11
22712.507547000001
 21
17368.164118000001
 31
0.0
  0
LINE
  5
35E4
  8
2-0
  6
CONTINUOUS
 62
     3
 10
22705.505990000001
 20
17363.16385500001
 30
0.0
 11
22712.507547000001
 21
17363.16385500001
 31
0.0
  0
LINE
  5
35E5
  8
2-0
  6
CONTINUOUS
 62
     3
 10
22714.621673000009
 20
16643.25474099999
 30
0.0
 11
22714.621673000009
 21
16663.255796000001
 31
0.0
  0
LINE
  5
35E6
  8
2-0
  6
CONTINUOUS
 62
     3
 10
22714.621673000009
 20
16663.255796000001
 30
0.0
 11
22629.625103999992
 21
16663.255796000001
 31
0.0
  0
LINE
  5
35E7
  8
2-0
  6
CONTINUOUS
 62
     3
 10
22705.505990000001
 20
16689.862506000001
 30
0.0
 11
22712.507547000001
 21
16689.862506000001
 31
0.0
  0
LINE
  5
35E8
  8
2-0
  6
CONTINUOUS
 62
     3
 10
22712.507547000001
 20
16689.862506000001
 30
0.0
 11
22712.507547000001
 21
16684.868180000001
 31
0.0
  0
LINE
  5
35E9
  8
2-0
  6
CONTINUOUS
 62
     3
 10
22712.507547000001
 20
16684.868180000001
 30
0.0
 11
22687.510187
 21
16684.868180000001
 31
0.0
  0
LINE
  5
35EA
  8
2-0
  6
CONTINUOUS
 62
     3
 10
22687.510187
 20
16684.868180000001
 30
0.0
 11
22687.510187
 21
16702.863984
 31
0.0
  0
LINE
  5
35EB
  8
2-0
  6
CONTINUOUS
 62
     3
 10
22687.510187
 20
16702.863984
 30
0.0
 11
22717.50781100001
 21
16702.863984
 31
0.0
  0
LINE
  5
35EC
  8
2-0
  6
CONTINUOUS
 62
     3
 10
22687.510187
 20
16693.255399999991
 30
0.0
 11
22687.510187
 21
16687.253499999992
 31
0.0
  0
LINE
  5
35ED
  8
2-0
  6
CONTINUOUS
 62
     3
 10
22717.50781100001
 20
16693.255399999991
 30
0.0
 11
22687.510187
 21
16693.255399999991
 31
0.0
  0
LINE
  5
35EE
  8
2-0
  6
CONTINUOUS
 62
     3
 10
22717.50781100001
 20
16702.863984
 30
0.0
 11
22717.50781100001
 21
17350.168314999999
 31
0.0
  0
LINE
  5
35EF
  8
2-0
  6
CONTINUOUS
 62
     3
 10
22717.50781100001
 20
17407.358585999991
 30
0.0
 11
22717.50781100001
 21
18051.162376
 31
0.0
  0
LINE
  5
35F0
  8
2-0
  6
CONTINUOUS
 62
     3
 10
22717.50781100001
 20
16548.253685
 30
0.0
 11
22687.510187
 21
16548.253685
 31
0.0
  0
LINE
  5
35F1
  8
2-0
  6
CONTINUOUS
 62
     3
 10
22687.510187
 20
16548.253685
 30
0.0
 11
22687.510187
 21
16554.255584999992
 31
0.0
  0
LINE
  5
35F2
  8
2-0
  6
CONTINUOUS
 62
     3
 10
22629.625103999992
 20
16578.259227999999
 30
0.0
 11
22714.621673000009
 21
16578.259227999999
 31
0.0
  0
LINE
  5
35F3
  8
2-0
  6
CONTINUOUS
 62
     3
 10
22714.621673000009
 20
16578.259227999999
 30
0.0
 11
22714.621673000009
 21
16598.254345000001
 31
0.0
  0
LINE
  5
35F4
  8
2-0
  6
CONTINUOUS
 62
     3
 10
22687.510187
 20
16538.64510200001
 30
0.0
 11
22717.50781100001
 21
16538.64510200001
 31
0.0
  0
LINE
  5
35F5
  8
2-0
  6
CONTINUOUS
 62
     3
 10
22687.510187
 20
16556.640904999989
 30
0.0
 11
22687.510187
 21
16538.64510200001
 31
0.0
  0
LINE
  5
35F6
  8
2-0
  6
CONTINUOUS
 62
     3
 10
22712.507547000001
 20
16556.640904999989
 30
0.0
 11
22687.510187
 21
16556.640904999989
 31
0.0
  0
LINE
  5
35F7
  8
2-0
  6
CONTINUOUS
 62
     3
 10
22712.507547000001
 20
16551.640641000002
 30
0.0
 11
22712.507547000001
 21
16556.640904999989
 31
0.0
  0
LINE
  5
35F8
  8
2-0
  6
CONTINUOUS
 62
     3
 10
22705.505990000001
 20
16551.640641000002
 30
0.0
 11
22712.507547000001
 21
16551.640641000002
 31
0.0
  0
LINE
  5
35F9
  8
2-0
  6
CONTINUOUS
 62
     3
 10
22705.505990000001
 20
15847.15841049998
 30
0.0
 11
22712.507547000001
 21
15847.15841049998
 31
0.0
  0
LINE
  5
35FA
  8
2-0
  6
CONTINUOUS
 62
     3
 10
22712.507547000001
 20
15847.15841049998
 30
0.0
 11
22712.507547000001
 21
15852.15867449998
 31
0.0
  0
LINE
  5
35FB
  8
2-0
  6
CONTINUOUS
 62
     3
 10
22712.507547000001
 20
15852.15867449998
 30
0.0
 11
22687.510187
 21
15852.15867449998
 31
0.0
  0
LINE
  5
35FC
  8
2-0
  6
CONTINUOUS
 62
     3
 10
22687.510187
 20
15852.15867449998
 30
0.0
 11
22687.510187
 21
15834.156932499989
 31
0.0
  0
LINE
  5
35FD
  8
2-0
  6
CONTINUOUS
 62
     3
 10
22687.510187
 20
15834.156932499989
 30
0.0
 11
22717.50781100001
 21
15834.156932499989
 31
0.0
  0
LINE
  5
35FE
  8
2-0
  6
CONTINUOUS
 62
     3
 10
22687.510187
 20
15850.25437749999
 30
0.0
 11
22687.510187
 21
15844.257426499989
 31
0.0
  0
LINE
  5
35FF
  8
2-0
  6
CONTINUOUS
 62
     3
 10
22687.510187
 20
15844.257426499989
 30
0.0
 11
22717.50781100001
 21
15844.257426499989
 31
0.0
  0
LINE
  5
3600
  8
2-0
  6
CONTINUOUS
 62
     3
 10
22717.50781100001
 20
15844.257426499989
 30
0.0
 11
22717.50781100001
 21
15881.2575975
 31
0.0
  0
LINE
  5
3601
  8
2-0
  6
CONTINUOUS
 62
     3
 10
22687.510187
 20
15881.2575975
 30
0.0
 11
22717.50781100001
 21
15881.2575975
 31
0.0
  0
LINE
  5
3602
  8
2-0
  6
CONTINUOUS
 62
     3
 10
22687.510187
 20
15875.254707499989
 30
0.0
 11
22687.510187
 21
15881.2575975
 31
0.0
  0
LINE
  5
3603
  8
2-0
  6
CONTINUOUS
 62
     3
 10
22687.510187
 20
15891.3531425
 30
0.0
 11
22717.50781100001
 21
15891.3531425
 31
0.0
  0
LINE
  5
3604
  8
2-0
  6
CONTINUOUS
 62
     3
 10
22687.510187
 20
15873.34546149999
 30
0.0
 11
22687.510187
 21
15891.3531425
 31
0.0
  0
LINE
  5
3605
  8
2-0
  6
CONTINUOUS
 62
     3
 10
22712.507547000001
 20
15873.34546149999
 30
0.0
 11
22687.510187
 21
15873.34546149999
 31
0.0
  0
LINE
  5
3606
  8
2-0
  6
CONTINUOUS
 62
     3
 10
22712.507547000001
 20
15878.3516645
 30
0.0
 11
22712.507547000001
 21
15873.34546149999
 31
0.0
  0
LINE
  5
3607
  8
2-0
  6
CONTINUOUS
 62
     3
 10
22705.505990000001
 20
15878.3516645
 30
0.0
 11
22712.507547000001
 21
15878.3516645
 31
0.0
  0
LINE
  5
3608
  8
2-0
  6
CONTINUOUS
 62
     3
 10
22705.505990000001
 20
15177.591681000011
 30
0.0
 11
22712.507547000001
 21
15177.591681000011
 31
0.0
  0
LINE
  5
3609
  8
2-0
  6
CONTINUOUS
 62
     3
 10
22712.507547000001
 20
15177.591681000011
 30
0.0
 11
22712.507547000001
 21
15172.597356
 31
0.0
  0
LINE
  5
360A
  8
2-0
  6
CONTINUOUS
 62
     3
 10
22712.507547000001
 20
15172.597356
 30
0.0
 11
22687.510187
 21
15172.597356
 31
0.0
  0
LINE
  5
360B
  8
2-0
  6
CONTINUOUS
 62
     3
 10
22687.510187
 20
15172.597356
 30
0.0
 11
22687.510187
 21
15190.593159
 31
0.0
  0
LINE
  5
360C
  8
2-0
  6
CONTINUOUS
 62
     3
 10
22687.510187
 20
15190.593159
 30
0.0
 11
22717.50781100001
 21
15190.593159
 31
0.0
  0
LINE
  5
360D
  8
2-0
  6
CONTINUOUS
 62
     3
 10
22687.510187
 20
15174.49571400001
 30
0.0
 11
22687.510187
 21
15180.497614000011
 31
0.0
  0
LINE
  5
360E
  8
2-0
  6
CONTINUOUS
 62
     3
 10
22687.510187
 20
15180.497614000011
 30
0.0
 11
22717.50781100001
 21
15180.497614000011
 31
0.0
  0
LINE
  5
360F
  8
2-0
  6
CONTINUOUS
 62
     3
 10
22717.50781100001
 20
15143.49843300001
 30
0.0
 11
22717.50781100001
 21
15180.497614000011
 31
0.0
  0
LINE
  5
3610
  8
2-0
  6
CONTINUOUS
 62
     3
 10
22687.510187
 20
15143.49843300001
 30
0.0
 11
22717.50781100001
 21
15143.49843300001
 31
0.0
  0
LINE
  5
3611
  8
2-0
  6
CONTINUOUS
 62
     3
 10
22687.510187
 20
15149.495383999991
 30
0.0
 11
22687.510187
 21
15143.49843300001
 31
0.0
  0
LINE
  5
3612
  8
2-0
  6
CONTINUOUS
 62
     3
 10
22687.510187
 20
15133.396949000011
 30
0.0
 11
22717.50781100001
 21
15133.396949000011
 31
0.0
  0
LINE
  5
3613
  8
2-0
  6
CONTINUOUS
 62
     3
 10
22687.510187
 20
15151.404630000001
 30
0.0
 11
22687.510187
 21
15133.396949000011
 31
0.0
  0
LINE
  5
3614
  8
2-0
  6
CONTINUOUS
 62
     3
 10
22712.507547000001
 20
15151.404630000001
 30
0.0
 11
22687.510187
 21
15151.404630000001
 31
0.0
  0
LINE
  5
3615
  8
2-0
  6
CONTINUOUS
 62
     3
 10
22712.507547000001
 20
15146.40436600001
 30
0.0
 11
22712.507547000001
 21
15151.404630000001
 31
0.0
  0
LINE
  5
3616
  8
2-0
  6
CONTINUOUS
 62
     3
 10
22705.505990000001
 20
15146.40436600001
 30
0.0
 11
22712.507547000001
 21
15146.40436600001
 31
0.0
  0
LINE
  5
3617
  8
2-0
  6
CONTINUOUS
 62
     3
 10
22717.50781100001
 20
16538.64510200001
 30
0.0
 11
22717.50781100001
 21
15891.3531425
 31
0.0
  0
LINE
  5
3618
  8
2-0
  6
CONTINUOUS
 62
     3
 10
22717.50781100001
 20
16693.255399999991
 30
0.0
 11
22717.50781100001
 21
16548.253685
 31
0.0
  0
LINE
  5
3619
  8
2-0
  6
CONTINUOUS
 62
     3
 10
22629.625103999992
 20
16663.255796000001
 30
0.0
 11
22629.625103999992
 21
16578.259227999999
 31
0.0
  0
LINE
  5
361A
  8
2-0
  6
CONTINUOUS
 62
     6
 10
21091.416437
 20
18431.703061499989
 30
0.0
 11
22116.448768999991
 21
18431.703061499989
 31
0.0
  0
LINE
  5
361B
  8
2-0
  6
CONTINUOUS
 62
     3
 10
22705.505990000001
 20
14445.163359
 30
0.0
 11
22712.507547000001
 21
14445.163359
 31
0.0
  0
LINE
  5
361C
  8
2-0
  6
CONTINUOUS
 62
     3
 10
22712.507547000001
 20
14445.163359
 30
0.0
 11
22712.507547000001
 21
14450.157685
 31
0.0
  0
LINE
  5
361D
  8
2-0
  6
CONTINUOUS
 62
     3
 10
22712.507547000001
 20
14450.157685
 30
0.0
 11
22687.510187
 21
14450.157685
 31
0.0
  0
LINE
  5
361E
  8
2-0
  6
CONTINUOUS
 62
     3
 10
22687.510187
 20
14450.157685
 30
0.0
 11
22687.510187
 21
14432.161881
 31
0.0
  0
LINE
  5
361F
  8
2-0
  6
CONTINUOUS
 62
     3
 10
22687.510187
 20
14432.161881
 30
0.0
 11
22717.50781100001
 21
14432.161881
 31
0.0
  0
LINE
  5
3620
  8
2-0
  6
CONTINUOUS
 62
     3
 10
22687.510187
 20
14448.260316000011
 30
0.0
 11
22687.510187
 21
14442.257426
 31
0.0
  0
LINE
  5
3621
  8
2-0
  6
CONTINUOUS
 62
     3
 10
22687.510187
 20
14442.257426
 30
0.0
 11
22717.50781100001
 21
14442.257426
 31
0.0
  0
LINE
  5
3622
  8
2-0
  6
CONTINUOUS
 62
     3
 10
22717.50781100001
 20
14442.257426
 30
0.0
 11
22717.50781100001
 21
14479.25759799998
 31
0.0
  0
LINE
  5
3623
  8
2-0
  6
CONTINUOUS
 62
     3
 10
22687.510187
 20
14479.25759799998
 30
0.0
 11
22717.50781100001
 21
14479.25759799998
 31
0.0
  0
LINE
  5
3624
  8
2-0
  6
CONTINUOUS
 62
     3
 10
22687.510187
 20
14473.26064599999
 30
0.0
 11
22687.510187
 21
14479.25759799998
 31
0.0
  0
LINE
  5
3625
  8
2-0
  6
CONTINUOUS
 62
     3
 10
22687.510187
 20
14489.358091
 30
0.0
 11
22717.50781100001
 21
14489.358091
 31
0.0
  0
LINE
  5
3626
  8
2-0
  6
CONTINUOUS
 62
     3
 10
22687.510187
 20
14471.35140000001
 30
0.0
 11
22687.510187
 21
14489.358091
 31
0.0
  0
LINE
  5
3627
  8
2-0
  6
CONTINUOUS
 62
     3
 10
22712.507547000001
 20
14471.35140000001
 30
0.0
 11
22687.510187
 21
14471.35140000001
 31
0.0
  0
LINE
  5
3628
  8
2-0
  6
CONTINUOUS
 62
     3
 10
22712.507547000001
 20
14476.356613000011
 30
0.0
 11
22712.507547000001
 21
14471.35140000001
 31
0.0
  0
LINE
  5
3629
  8
2-0
  6
CONTINUOUS
 62
     3
 10
22705.505990000001
 20
14476.356613000011
 30
0.0
 11
22712.507547000001
 21
14476.356613000011
 31
0.0
  0
LINE
  5
362A
  8
2-0
  6
CONTINUOUS
 62
     3
 10
22687.510187
 20
14119.75943899999
 30
0.0
 11
22687.510187
 21
14125.764308
 31
0.0
  0
LINE
  5
362B
  8
2-0
  6
CONTINUOUS
 62
     3
 10
22687.510187
 20
14125.764308
 30
0.0
 11
22717.50781100001
 21
14125.764308
 31
0.0
  0
LINE
  5
362C
  8
2-0
  6
CONTINUOUS
 62
     3
 10
22717.50781100001
 20
14125.764308
 30
0.0
 11
22717.50781100001
 21
14010.76021699999
 31
0.0
  0
LINE
  5
362D
  8
2-0
  6
CONTINUOUS
 62
     3
 10
22717.50781100001
 20
14010.76021699999
 30
0.0
 11
22632.509263000011
 21
14010.76021699999
 31
0.0
  0
LINE
  5
362E
  8
2-0
  6
CONTINUOUS
 62
     3
 10
22632.509263000011
 20
14010.76021699999
 30
0.0
 11
22632.509263000011
 21
14095.755795999999
 31
0.0
  0
LINE
  5
362F
  8
2-0
  6
CONTINUOUS
 62
     3
 10
22632.509263000011
 20
14095.755795999999
 30
0.0
 11
22664.508181000001
 21
14095.755795999999
 31
0.0
  0
LINE
  5
3630
  8
2-0
  6
CONTINUOUS
 62
     3
 10
22705.505990000001
 20
14122.79404099999
 30
0.0
 11
22712.507547000001
 21
14122.79404099999
 31
0.0
  0
LINE
  5
3631
  8
2-0
  6
CONTINUOUS
 62
     3
 10
22712.507547000001
 20
14122.79404099999
 30
0.0
 11
22712.507547000001
 21
14117.79674599998
 31
0.0
  0
LINE
  5
3632
  8
2-0
  6
CONTINUOUS
 62
     3
 10
22712.507547000001
 20
14117.79674599998
 30
0.0
 11
22687.510187
 21
14117.79674599998
 31
0.0
  0
LINE
  5
3633
  8
2-0
  6
CONTINUOUS
 62
     3
 10
22687.510187
 20
14117.79674599998
 30
0.0
 11
22687.510187
 21
14135.795518999999
 31
0.0
  0
LINE
  5
3634
  8
2-0
  6
CONTINUOUS
 62
     3
 10
22687.510187
 20
14135.795518999999
 30
0.0
 11
22717.50781100001
 21
14135.795518999999
 31
0.0
  0
LINE
  5
3635
  8
2-0
  6
CENTER2
 62
     6
 10
22675.009527000009
 20
13813.262658999991
 30
0.0
 11
22675.009527000009
 21
14618.63141700001
 31
0.0
  0
LINE
  5
3636
  8
2-0
  6
CONTINUOUS
 62
     3
 10
22717.50781100001
 20
18108.352648
 30
0.0
 11
22717.50781100001
 21
18752.163365500001
 31
0.0
  0
LINE
  5
3637
  8
2-0
  6
CONTINUOUS
 62
     6
 10
23410.012694000001
 20
19960.75870000002
 30
0.0
 11
24610.006755999981
 21
19960.75870000002
 31
0.0
  0
LINE
  5
3638
  8
2-0
  6
CONTINUOUS
 62
     6
 10
22547.979860999982
 20
18673.857569499989
 30
0.0
 11
22116.448768999991
 21
18431.703061499989
 31
0.0
  0
LINE
  5
3639
  8
2-0
  6
CONTINUOUS
 62
     6
 10
22869.548694999961
 20
19373.435537000001
 30
0.0
 11
23410.012694000001
 21
19960.75870000002
 31
0.0
  0
LINE
  5
363A
  8
2-0
  6
CONTINUOUS
 62
     3
 10
22626.503403999999
 20
18037.256257999961
 30
0.0
 11
22673.509051999979
 21
18037.256257999961
 31
0.0
  0
LINE
  5
363B
  8
2-0
  6
CONTINUOUS
 62
     3
 10
22673.509051999979
 20
18122.256786000002
 30
0.0
 11
22626.503403999999
 21
18122.256786000002
 31
0.0
  0
LINE
  5
363C
  8
2-0
  6
CONTINUOUS
 62
     3
 10
22673.509051999979
 20
18037.256257999961
 30
0.0
 11
22673.509051999979
 21
18062.259557000001
 31
0.0
  0
LINE
  5
363D
  8
2-0
  6
CONTINUOUS
 62
     3
 10
22673.509051999979
 20
18097.25546600001
 30
0.0
 11
22673.509051999979
 21
18122.256786000002
 31
0.0
  0
LINE
  5
363E
  8
2-0
  6
CONTINUOUS
 62
     3
 10
22626.503403999999
 20
18122.256786000002
 30
0.0
 11
22626.503403999999
 21
18037.256257999961
 31
0.0
  0
LINE
  5
363F
  8
2-0
  6
CONTINUOUS
 62
     3
 10
22717.50781100001
 20
15834.156932499989
 30
0.0
 11
22717.50781100001
 21
15190.593159
 31
0.0
  0
LINE
  5
3640
  8
2-0
  6
CONTINUOUS
 62
     3
 10
22626.503403999999
 20
15119.25922800001
 30
0.0
 11
22673.509051999979
 21
15119.25922800001
 31
0.0
  0
LINE
  5
3641
  8
2-0
  6
CONTINUOUS
 62
     3
 10
22673.509051999979
 20
15204.25579599999
 30
0.0
 11
22626.503403999999
 21
15204.25579599999
 31
0.0
  0
LINE
  5
3642
  8
2-0
  6
CONTINUOUS
 62
     3
 10
22673.509051999979
 20
15119.25922800001
 30
0.0
 11
22673.509051999979
 21
15144.254609000011
 31
0.0
  0
LINE
  5
3643
  8
2-0
  6
CONTINUOUS
 62
     3
 10
22673.509051999979
 20
15179.25447700001
 30
0.0
 11
22673.509051999979
 21
15204.25579599999
 31
0.0
  0
LINE
  5
3644
  8
2-0
  6
CONTINUOUS
 62
     3
 10
22626.503403999999
 20
15204.25579599999
 30
0.0
 11
22626.503403999999
 21
15119.25922800001
 31
0.0
  0
LINE
  5
3645
  8
2-0
  6
CONTINUOUS
 62
     6
 10
22534.922955999999
 20
18697.116913499991
 30
0.0
 11
22687.510187
 21
18752.163365500001
 31
0.0
  0
LINE
  5
3646
  8
2-0
  6
CONTINUOUS
 62
     6
 10
22687.510187
 20
18752.163365500001
 30
0.0
 11
22561.028847000001
 21
18650.60416549995
 31
0.0
  0
LINE
  5
3647
  8
2-0
  6
CONTINUOUS
 62
     6
 10
22534.922955999999
 20
18697.116913499991
 30
0.0
 11
22561.028847000001
 21
18650.60416549995
 31
0.0
  0
LINE
  5
3648
  8
2-0
  6
CONTINUOUS
 62
     6
 10
22561.028847000001
 20
18650.60416549995
 30
0.0
 11
22687.510187
 21
18752.163365500001
 31
0.0
  0
LINE
  5
3649
  8
2-0
  6
CONTINUOUS
 62
     6
 10
22687.510187
 20
18752.163365500001
 30
0.0
 11
22534.922955999999
 21
18697.116913499991
 31
0.0
  0
LINE
  5
364A
  8
2-0
  6
CONTINUOUS
 62
     6
 10
22534.922955999999
 20
18697.116913499991
 30
0.0
 11
22687.510187
 21
18752.163365500001
 31
0.0
  0
LINE
  5
364B
  8
2-0
  6
CONTINUOUS
 62
     6
 10
22561.028847000001
 20
18650.60416549995
 30
0.0
 11
22687.510187
 21
18752.163365500001
 31
0.0
  0
LINE
  5
364C
  8
2-0
  6
CONTINUOUS
 62
     6
 10
22561.028847000001
 20
18650.60416549995
 30
0.0
 11
22534.922955999999
 21
18697.116913499991
 31
0.0
  0
LINE
  5
364D
  8
2-0
  6
CONTINUOUS
 62
     6
 10
22889.165723999991
 20
19355.374410000011
 30
0.0
 11
22761.20370400001
 21
19255.691792000009
 31
0.0
  0
LINE
  5
364E
  8
2-0
  6
CONTINUOUS
 62
     6
 10
22761.20370400001
 20
19255.691792000009
 30
0.0
 11
22849.917808999991
 21
19391.488747000021
 31
0.0
  0
LINE
  5
364F
  8
2-0
  6
CONTINUOUS
 62
     6
 10
22889.165723999991
 20
19355.374410000011
 30
0.0
 11
22849.917808999991
 21
19391.488747000021
 31
0.0
  0
LINE
  5
3650
  8
2-0
  6
CONTINUOUS
 62
     6
 10
22849.917808999991
 20
19391.488747000021
 30
0.0
 11
22761.20370400001
 21
19255.691792000009
 31
0.0
  0
LINE
  5
3651
  8
2-0
  6
CONTINUOUS
 62
     6
 10
22761.20370400001
 20
19255.691792000009
 30
0.0
 11
22889.165723999991
 21
19355.374410000011
 31
0.0
  0
LINE
  5
3652
  8
2-0
  6
CONTINUOUS
 62
     6
 10
22889.165723999991
 20
19355.374410000011
 30
0.0
 11
22761.20370400001
 21
19255.691792000009
 31
0.0
  0
LINE
  5
3653
  8
2-0
  6
CONTINUOUS
 62
     6
 10
22849.917808999991
 20
19391.488747000021
 30
0.0
 11
22761.20370400001
 21
19255.691792000009
 31
0.0
  0
LINE
  5
3654
  8
2-0
  6
CONTINUOUS
 62
     6
 10
22849.917808999991
 20
19391.488747000021
 30
0.0
 11
22889.165723999991
 21
19355.374410000011
 31
0.0
  0
LINE
  5
3655
  8
2-0
  6
CONTINUOUS
 62
     4
 10
19757.009526999998
 20
19310.758040000001
 30
0.0
 11
19757.009526999998
 21
20040.75500500001
 31
0.0
  0
LINE
  5
3656
  8
2-0
  6
CONTINUOUS
 62
     6
 10
22471.184437
 20
15072.752418
 30
0.0
 11
22626.503403999999
 21
15119.49973900001
 31
0.0
  0
LINE
  5
3657
  8
2-0
  6
CONTINUOUS
 62
     6
 10
22626.503403999999
 20
15119.49973900001
 30
0.0
 11
22494.742687999991
 21
15024.90745400002
 31
0.0
  0
LINE
  5
3658
  8
2-0
  6
CONTINUOUS
 62
     6
 10
22471.184437
 20
15072.752418
 30
0.0
 11
22494.742687999991
 21
15024.90745400002
 31
0.0
  0
LINE
  5
3659
  8
2-0
  6
CONTINUOUS
 62
     6
 10
22494.742687999991
 20
15024.90745400002
 30
0.0
 11
22626.503403999999
 21
15119.49973900001
 31
0.0
  0
LINE
  5
365A
  8
2-0
  6
CONTINUOUS
 62
     6
 10
22626.503403999999
 20
15119.49973900001
 30
0.0
 11
22471.184437
 21
15072.752418
 31
0.0
  0
LINE
  5
365B
  8
2-0
  6
CONTINUOUS
 62
     6
 10
22471.184437
 20
15072.752418
 30
0.0
 11
22626.503403999999
 21
15119.49973900001
 31
0.0
  0
LINE
  5
365C
  8
2-0
  6
CONTINUOUS
 62
     6
 10
22494.742687999991
 20
15024.90745400002
 30
0.0
 11
22626.503403999999
 21
15119.49973900001
 31
0.0
  0
LINE
  5
365D
  8
2-0
  6
CONTINUOUS
 62
     6
 10
22494.742687999991
 20
15024.90745400002
 30
0.0
 11
22471.184437
 21
15072.752418
 31
0.0
  0
LINE
  5
365E
  8
2-0
  6
CONTINUOUS
 62
     6
 10
22440.870090000011
 20
13902.48747899999
 30
0.0
 11
22572.61694900001
 21
13997.114406000001
 31
0.0
  0
LINE
  5
365F
  8
2-0
  6
CONTINUOUS
 62
     6
 10
22572.61694900001
 20
13997.114406000001
 30
0.0
 11
22478.686812999989
 21
13864.87563599999
 31
0.0
  0
LINE
  5
3660
  8
2-0
  6
CONTINUOUS
 62
     6
 10
22440.870090000011
 20
13902.48747899999
 30
0.0
 11
22478.686812999989
 21
13864.87563599999
 31
0.0
  0
LINE
  5
3661
  8
2-0
  6
CONTINUOUS
 62
     6
 10
22478.686812999989
 20
13864.87563599999
 30
0.0
 11
22572.61694900001
 21
13997.114406000001
 31
0.0
  0
LINE
  5
3662
  8
2-0
  6
CONTINUOUS
 62
     6
 10
22572.61694900001
 20
13997.114406000001
 30
0.0
 11
22440.870090000011
 21
13902.48747899999
 31
0.0
  0
LINE
  5
3663
  8
2-0
  6
CONTINUOUS
 62
     6
 10
22440.870090000011
 20
13902.48747899999
 30
0.0
 11
22572.61694900001
 21
13997.114406000001
 31
0.0
  0
LINE
  5
3664
  8
2-0
  6
CONTINUOUS
 62
     6
 10
22478.686812999989
 20
13864.87563599999
 30
0.0
 11
22572.61694900001
 21
13997.114406000001
 31
0.0
  0
LINE
  5
3665
  8
2-0
  6
CONTINUOUS
 62
     6
 10
22478.686812999989
 20
13864.87563599999
 30
0.0
 11
22440.870090000011
 21
13902.48747899999
 31
0.0
  0
LINE
  5
3666
  8
2-0
  6
CONTINUOUS
 62
     6
 10
22503.905879000009
 20
14229.39210599999
 30
0.0
 11
22636.505910999978
 21
14135.96377799999
 31
0.0
  0
LINE
  5
3667
  8
2-0
  6
CONTINUOUS
 62
     6
 10
22636.505910999978
 20
14135.96377799999
 30
0.0
 11
22480.773225000001
 21
14181.339292000001
 31
0.0
  0
LINE
  5
3668
  8
2-0
  6
CONTINUOUS
 62
     6
 10
22503.905879000009
 20
14229.39210599999
 30
0.0
 11
22480.773225000001
 21
14181.339292000001
 31
0.0
  0
LINE
  5
3669
  8
2-0
  6
CONTINUOUS
 62
     6
 10
22480.773225000001
 20
14181.339292000001
 30
0.0
 11
22636.505910999978
 21
14135.96377799999
 31
0.0
  0
LINE
  5
366A
  8
2-0
  6
CONTINUOUS
 62
     6
 10
22636.505910999978
 20
14135.96377799999
 30
0.0
 11
22503.905879000009
 21
14229.39210599999
 31
0.0
  0
LINE
  5
366B
  8
2-0
  6
CONTINUOUS
 62
     6
 10
22503.905879000009
 20
14229.39210599999
 30
0.0
 11
22636.505910999978
 21
14135.96377799999
 31
0.0
  0
LINE
  5
366C
  8
2-0
  6
CONTINUOUS
 62
     6
 10
22480.773225000001
 20
14181.339292000001
 30
0.0
 11
22636.505910999978
 21
14135.96377799999
 31
0.0
  0
LINE
  5
366D
  8
2-0
  6
CONTINUOUS
 62
     6
 10
22480.773225000001
 20
14181.339292000001
 30
0.0
 11
22503.905879000009
 21
14229.39210599999
 31
0.0
  0
LINE
  5
366E
  8
2-0
  6
CONTINUOUS
 62
     6
 10
22563.669525000001
 20
16258.71303900002
 30
0.0
 11
22717.50781100001
 21
16310.14687000002
 31
0.0
  0
LINE
  5
366F
  8
2-0
  6
CONTINUOUS
 62
     6
 10
22717.50781100001
 20
16310.14687000002
 30
0.0
 11
22588.67282399999
 21
16211.60643500002
 31
0.0
  0
LINE
  5
3670
  8
2-0
  6
CONTINUOUS
 62
     6
 10
22563.669525000001
 20
16258.71303900002
 30
0.0
 11
22588.67282399999
 21
16211.60643500002
 31
0.0
  0
LINE
  5
3671
  8
2-0
  6
CONTINUOUS
 62
     6
 10
22588.67282399999
 20
16211.60643500002
 30
0.0
 11
22717.50781100001
 21
16310.14687000002
 31
0.0
  0
LINE
  5
3672
  8
2-0
  6
CONTINUOUS
 62
     6
 10
22717.50781100001
 20
16310.14687000002
 30
0.0
 11
22563.669525000001
 21
16258.71303900002
 31
0.0
  0
LINE
  5
3673
  8
2-0
  6
CONTINUOUS
 62
     6
 10
22563.669525000001
 20
16258.71303900002
 30
0.0
 11
22717.50781100001
 21
16310.14687000002
 31
0.0
  0
LINE
  5
3674
  8
2-0
  6
CONTINUOUS
 62
     6
 10
22588.67282399999
 20
16211.60643500002
 30
0.0
 11
22717.50781100001
 21
16310.14687000002
 31
0.0
  0
LINE
  5
3675
  8
2-0
  6
CONTINUOUS
 62
     6
 10
22588.67282399999
 20
16211.60643500002
 30
0.0
 11
22563.669525000001
 21
16258.71303900002
 31
0.0
  0
LINE
  5
3676
  8
2-0
  6
CONTINUOUS
 62
     6
 10
22429.733317999999
 20
16750.031531000011
 30
0.0
 11
22572.61694900001
 21
16673.255902000001
 31
0.0
  0
LINE
  5
3677
  8
2-0
  6
CONTINUOUS
 62
     6
 10
22572.61694900001
 20
16673.255902000001
 30
0.0
 11
22412.555056000001
 21
16699.53797100002
 31
0.0
  0
LINE
  5
3678
  8
2-0
  6
CONTINUOUS
 62
     6
 10
22429.733317999999
 20
16750.031531000011
 30
0.0
 11
22412.555056000001
 21
16699.53797100002
 31
0.0
  0
LINE
  5
3679
  8
2-0
  6
CONTINUOUS
 62
     6
 10
22412.555056000001
 20
16699.53797100002
 30
0.0
 11
22572.61694900001
 21
16673.255902000001
 31
0.0
  0
LINE
  5
367A
  8
2-0
  6
CONTINUOUS
 62
     6
 10
22572.61694900001
 20
16673.255902000001
 30
0.0
 11
22429.733317999999
 21
16750.031531000011
 31
0.0
  0
LINE
  5
367B
  8
2-0
  6
CONTINUOUS
 62
     6
 10
22429.733317999999
 20
16750.031531000011
 30
0.0
 11
22572.61694900001
 21
16673.255902000001
 31
0.0
  0
LINE
  5
367C
  8
2-0
  6
CONTINUOUS
 62
     6
 10
22412.555056000001
 20
16699.53797100002
 30
0.0
 11
22572.61694900001
 21
16673.255902000001
 31
0.0
  0
LINE
  5
367D
  8
2-0
  6
CONTINUOUS
 62
     6
 10
22412.555056000001
 20
16699.53797100002
 30
0.0
 11
22429.733317999999
 21
16750.031531000011
 31
0.0
  0
LINE
  5
367E
  8
2-0
  6
CONTINUOUS
 62
     6
 10
22471.184437
 20
17990.511906
 30
0.0
 11
22626.503403999999
 21
18037.256257999961
 31
0.0
  0
LINE
  5
367F
  8
2-0
  6
CONTINUOUS
 62
     6
 10
22626.503403999999
 20
18037.256257999961
 30
0.0
 11
22494.742687999991
 21
17942.66100399999
 31
0.0
  0
LINE
  5
3680
  8
2-0
  6
CONTINUOUS
 62
     6
 10
22471.184437
 20
17990.511906
 30
0.0
 11
22494.742687999991
 21
17942.66100399999
 31
0.0
  0
LINE
  5
3681
  8
2-0
  6
CONTINUOUS
 62
     6
 10
22494.742687999991
 20
17942.66100399999
 30
0.0
 11
22626.503403999999
 21
18037.256257999961
 31
0.0
  0
LINE
  5
3682
  8
2-0
  6
CONTINUOUS
 62
     6
 10
22626.503403999999
 20
18037.256257999961
 30
0.0
 11
22471.184437
 21
17990.511906
 31
0.0
  0
LINE
  5
3683
  8
2-0
  6
CONTINUOUS
 62
     6
 10
22471.184437
 20
17990.511906
 30
0.0
 11
22626.503403999999
 21
18037.256257999961
 31
0.0
  0
LINE
  5
3684
  8
2-0
  6
CONTINUOUS
 62
     6
 10
22494.742687999991
 20
17942.66100399999
 30
0.0
 11
22626.503403999999
 21
18037.256257999961
 31
0.0
  0
LINE
  5
3685
  8
2-0
  6
CONTINUOUS
 62
     6
 10
22494.742687999991
 20
17942.66100399999
 30
0.0
 11
22471.184437
 21
17990.511906
 31
0.0
  0
LINE
  5
3686
  8
2-0
  6
CONTINUOUS
 62
     3
 10
19744.510847000001
 20
19121.755585999988
 30
0.0
 11
19744.510847000001
 21
19115.75962400002
 31
0.0
  0
LINE
  5
3687
  8
2-0
  6
CONTINUOUS
 62
     3
 10
19744.510847000001
 20
19115.75962400002
 30
0.0
 11
19714.513222000001
 21
19115.75962400002
 31
0.0
  0
LINE
  5
3688
  8
2-0
  6
CONTINUOUS
 62
     3
 10
19714.513222000001
 20
19115.75962400002
 30
0.0
 11
19714.513222000001
 21
19230.75579700002
 31
0.0
  0
LINE
  5
3689
  8
2-0
  6
CONTINUOUS
 62
     3
 10
19714.513222000001
 20
19145.759227999999
 30
0.0
 11
19795.51116300001
 21
19145.759227999999
 31
0.0
  0
LINE
  5
368A
  8
2-0
  6
CONTINUOUS
 62
     3
 10
19744.510847000001
 20
19105.462167999991
 30
0.0
 11
19714.513222000001
 21
19105.462167999991
 31
0.0
  0
LINE
  5
368B
  8
2-0
  6
CONTINUOUS
 62
     3
 10
19744.510847000001
 20
19123.463910000009
 30
0.0
 11
19744.510847000001
 21
19105.462167999991
 31
0.0
  0
LINE
  5
368C
  8
2-0
  6
CONTINUOUS
 62
     3
 10
19719.517445000001
 20
19123.463910000009
 30
0.0
 11
19744.510847000001
 21
19123.463910000009
 31
0.0
  0
LINE
  5
368D
  8
2-0
  6
CONTINUOUS
 62
     3
 10
19719.517445000001
 20
19118.455728000001
 30
0.0
 11
19719.517445000001
 21
19123.463910000009
 31
0.0
  0
LINE
  5
368E
  8
2-0
  6
CONTINUOUS
 62
     3
 10
19726.515042999981
 20
19118.455728000001
 30
0.0
 11
19719.517445000001
 21
19118.455728000001
 31
0.0
  0
LINE
  5
368F
  8
2-0
  6
CONTINUOUS
 62
     3
 10
19826.80933199999
 20
19218.755955000001
 30
0.0
 11
19826.80933199999
 21
19225.761471000009
 31
0.0
  0
LINE
  5
3690
  8
2-0
  6
CONTINUOUS
 62
     3
 10
19826.80933199999
 20
19225.761471000009
 30
0.0
 11
19821.807088000009
 21
19225.761471000009
 31
0.0
  0
LINE
  5
3691
  8
2-0
  6
CONTINUOUS
 62
     3
 10
19821.807088000009
 20
19225.761471000009
 30
0.0
 11
19821.807088000009
 21
19200.752234
 31
0.0
  0
LINE
  5
3692
  8
2-0
  6
CONTINUOUS
 62
     3
 10
19821.807088000009
 20
19200.752234
 30
0.0
 11
19839.814769000001
 21
19200.752234
 31
0.0
  0
LINE
  5
3693
  8
2-0
  6
CONTINUOUS
 62
     3
 10
19839.814769000001
 20
19200.752234
 30
0.0
 11
19839.814769000001
 21
19230.75579700002
 31
0.0
  0
LINE
  5
3694
  8
2-0
  6
CONTINUOUS
 62
     3
 10
19829.51533300001
 20
19230.75579700002
 30
0.0
 11
19714.513222000001
 21
19230.75579700002
 31
0.0
  0
LINE
  5
3695
  8
2-0
  6
CONTINUOUS
 62
     3
 10
19829.51533300001
 20
19200.752234
 30
0.0
 11
19829.51533300001
 21
19230.75579700002
 31
0.0
  0
LINE
  5
3696
  8
2-0
  6
CONTINUOUS
 62
     3
 10
19823.511454
 20
19200.752234
 30
0.0
 11
19829.51533300001
 21
19200.752234
 31
0.0
  0
LINE
  5
3697
  8
2-0
  6
CONTINUOUS
 62
     3
 10
19744.510847000001
 20
19121.755585999988
 30
0.0
 11
19744.510847000001
 21
19115.75962400002
 31
0.0
  0
LINE
  5
3698
  8
2-0
  6
CONTINUOUS
 62
     3
 10
19744.510847000001
 20
19115.75962400002
 30
0.0
 11
19714.513222000001
 21
19115.75962400002
 31
0.0
  0
LINE
  5
3699
  8
2-0
  6
CONTINUOUS
 62
     3
 10
19714.513222000001
 20
19115.75962400002
 30
0.0
 11
19714.513222000001
 21
19230.75579700002
 31
0.0
  0
LINE
  5
369A
  8
2-0
  6
CONTINUOUS
 62
     3
 10
19714.513222000001
 20
19145.759227999999
 30
0.0
 11
19795.51116300001
 21
19145.759227999999
 31
0.0
  0
LINE
  5
369B
  8
2-0
  6
CONTINUOUS
 62
     3
 10
19744.510847000001
 20
19105.462167999991
 30
0.0
 11
19714.513222000001
 21
19105.462167999991
 31
0.0
  0
LINE
  5
369C
  8
2-0
  6
CONTINUOUS
 62
     3
 10
19744.510847000001
 20
19123.463910000009
 30
0.0
 11
19744.510847000001
 21
19105.462167999991
 31
0.0
  0
LINE
  5
369D
  8
2-0
  6
CONTINUOUS
 62
     3
 10
19719.517445000001
 20
19123.463910000009
 30
0.0
 11
19744.510847000001
 21
19123.463910000009
 31
0.0
  0
LINE
  5
369E
  8
2-0
  6
CONTINUOUS
 62
     3
 10
19719.517445000001
 20
19118.455728000001
 30
0.0
 11
19719.517445000001
 21
19123.463910000009
 31
0.0
  0
LINE
  5
369F
  8
2-0
  6
CONTINUOUS
 62
     3
 10
19726.515042999981
 20
19118.455728000001
 30
0.0
 11
19719.517445000001
 21
19118.455728000001
 31
0.0
  0
LINE
  5
36A0
  8
2-0
  6
CONTINUOUS
 62
     3
 10
19726.515042999981
 20
18765.158905499949
 30
0.0
 11
19719.517445000001
 21
18765.158905499949
 31
0.0
  0
LINE
  5
36A1
  8
2-0
  6
CONTINUOUS
 62
     3
 10
19719.517445000001
 20
18765.158905499949
 30
0.0
 11
19719.517445000001
 21
18770.159169499992
 31
0.0
  0
LINE
  5
36A2
  8
2-0
  6
CONTINUOUS
 62
     3
 10
19719.517445000001
 20
18770.159169499992
 30
0.0
 11
19744.510847000001
 21
18770.159169499992
 31
0.0
  0
LINE
  5
36A3
  8
2-0
  6
CONTINUOUS
 62
     3
 10
19744.510847000001
 20
18770.159169499992
 30
0.0
 11
19744.510847000001
 21
18752.163365499979
 31
0.0
  0
LINE
  5
36A4
  8
2-0
  6
CONTINUOUS
 62
     3
 10
19744.510847000001
 20
18752.163365499979
 30
0.0
 11
19714.513222000001
 21
18752.163365499979
 31
0.0
  0
LINE
  5
36A5
  8
2-0
  6
CONTINUOUS
 62
     3
 10
19744.510847000001
 20
18768.254872499961
 30
0.0
 11
19744.510847000001
 21
18762.256931499989
 31
0.0
  0
LINE
  5
36A6
  8
2-0
  6
CONTINUOUS
 62
     3
 10
19744.510847000001
 20
18762.256931499989
 30
0.0
 11
19714.513222000001
 21
18762.256931499989
 31
0.0
  0
LINE
  5
36A7
  8
2-0
  6
CONTINUOUS
 62
     3
 10
19714.513222000001
 20
18762.256931499989
 30
0.0
 11
19714.513222000001
 21
18799.258092499978
 31
0.0
  0
LINE
  5
36A8
  8
2-0
  6
CONTINUOUS
 62
     3
 10
19744.510847000001
 20
18799.258092499978
 30
0.0
 11
19714.513222000001
 21
18799.258092499978
 31
0.0
  0
LINE
  5
36A9
  8
2-0
  6
CONTINUOUS
 62
     3
 10
19744.510847000001
 20
18793.254212499989
 30
0.0
 11
19744.510847000001
 21
18799.258092499978
 31
0.0
  0
LINE
  5
36AA
  8
2-0
  6
CONTINUOUS
 62
     3
 10
19744.510847000001
 20
18809.35363749996
 30
0.0
 11
19714.513222000001
 21
18809.35363749996
 31
0.0
  0
LINE
  5
36AB
  8
2-0
  6
CONTINUOUS
 62
     3
 10
19744.510847000001
 20
18791.3518955
 30
0.0
 11
19744.510847000001
 21
18809.35363749996
 31
0.0
  0
LINE
  5
36AC
  8
2-0
  6
CONTINUOUS
 62
     3
 10
19719.517445000001
 20
18791.3518955
 30
0.0
 11
19744.510847000001
 21
18791.3518955
 31
0.0
  0
LINE
  5
36AD
  8
2-0
  6
CONTINUOUS
 62
     3
 10
19719.517445000001
 20
18796.352159499991
 30
0.0
 11
19719.517445000001
 21
18791.3518955
 31
0.0
  0
LINE
  5
36AE
  8
2-0
  6
CONTINUOUS
 62
     3
 10
19726.515042999981
 20
18796.352159499991
 30
0.0
 11
19719.517445000001
 21
18796.352159499991
 31
0.0
  0
LINE
  5
36AF
  8
2-0
  6
CONTINUOUS
 62
     3
 10
19726.515042999981
 20
18064.157915999989
 30
0.0
 11
19719.517445000001
 21
18064.157915999989
 31
0.0
  0
LINE
  5
36B0
  8
2-0
  6
CONTINUOUS
 62
     3
 10
19719.517445000001
 20
18064.157915999989
 30
0.0
 11
19719.517445000001
 21
18069.164117999979
 31
0.0
  0
LINE
  5
36B1
  8
2-0
  6
CONTINUOUS
 62
     3
 10
19719.517445000001
 20
18069.164117999979
 30
0.0
 11
19744.510847000001
 21
18069.164117999979
 31
0.0
  0
LINE
  5
36B2
  8
2-0
  6
CONTINUOUS
 62
     3
 10
19744.510847000001
 20
18069.164117999979
 30
0.0
 11
19744.510847000001
 21
18051.162376
 31
0.0
  0
LINE
  5
36B3
  8
2-0
  6
CONTINUOUS
 62
     3
 10
19744.510847000001
 20
18051.162376
 30
0.0
 11
19714.513222000001
 21
18051.162376
 31
0.0
  0
LINE
  5
36B4
  8
2-0
  6
CONTINUOUS
 62
     3
 10
19744.510847000001
 20
18067.253882999961
 30
0.0
 11
19744.510847000001
 21
18061.257920999989
 31
0.0
  0
LINE
  5
36B5
  8
2-0
  6
CONTINUOUS
 62
     3
 10
19744.510847000001
 20
18061.257920999989
 30
0.0
 11
19714.513222000001
 21
18061.257920999989
 31
0.0
  0
LINE
  5
36B6
  8
2-0
  6
CONTINUOUS
 62
     3
 10
19714.513222000001
 20
18061.257920999989
 30
0.0
 11
19714.513222000001
 21
18098.257102999989
 31
0.0
  0
LINE
  5
36B7
  8
2-0
  6
CONTINUOUS
 62
     3
 10
19744.510847000001
 20
18098.257102999989
 30
0.0
 11
19714.513222000001
 21
18098.257102999989
 31
0.0
  0
LINE
  5
36B8
  8
2-0
  6
CONTINUOUS
 62
     3
 10
19744.510847000001
 20
18092.261140999992
 30
0.0
 11
19744.510847000001
 21
18098.257102999989
 31
0.0
  0
LINE
  5
36B9
  8
2-0
  6
CONTINUOUS
 62
     3
 10
19744.510847000001
 20
18108.352648
 30
0.0
 11
19714.513222000001
 21
18108.352648
 31
0.0
  0
LINE
  5
36BA
  8
2-0
  6
CONTINUOUS
 62
     3
 10
19744.510847000001
 20
18090.350905999989
 30
0.0
 11
19744.510847000001
 21
18108.352648
 31
0.0
  0
LINE
  5
36BB
  8
2-0
  6
CONTINUOUS
 62
     3
 10
19719.517445000001
 20
18090.350905999989
 30
0.0
 11
19744.510847000001
 21
18090.350905999989
 31
0.0
  0
LINE
  5
36BC
  8
2-0
  6
CONTINUOUS
 62
     3
 10
19719.517445000001
 20
18095.357107999978
 30
0.0
 11
19719.517445000001
 21
18090.350905999989
 31
0.0
  0
LINE
  5
36BD
  8
2-0
  6
CONTINUOUS
 62
     3
 10
19726.515042999981
 20
18095.357107999978
 30
0.0
 11
19719.517445000001
 21
18095.357107999978
 31
0.0
  0
LINE
  5
36BE
  8
2-0
  6
CONTINUOUS
 62
     3
 10
19726.515042999981
 20
17394.351169999991
 30
0.0
 11
19719.517445000001
 21
17394.351169999991
 31
0.0
  0
LINE
  5
36BF
  8
2-0
  6
CONTINUOUS
 62
     3
 10
19719.517445000001
 20
17394.351169999991
 30
0.0
 11
19719.517445000001
 21
17389.36278299999
 31
0.0
  0
LINE
  5
36C0
  8
2-0
  6
CONTINUOUS
 62
     3
 10
19719.517445000001
 20
17389.36278299999
 30
0.0
 11
19744.510847000001
 21
17389.36278299999
 31
0.0
  0
LINE
  5
36C1
  8
2-0
  6
CONTINUOUS
 62
     3
 10
19744.510847000001
 20
17389.36278299999
 30
0.0
 11
19744.510847000001
 21
17407.358585999991
 31
0.0
  0
LINE
  5
36C2
  8
2-0
  6
CONTINUOUS
 62
     3
 10
19744.510847000001
 20
17407.358585999991
 30
0.0
 11
19714.513222000001
 21
17407.358585999991
 31
0.0
  0
LINE
  5
36C3
  8
2-0
  6
CONTINUOUS
 62
     3
 10
19744.510847000001
 20
17391.261140999992
 30
0.0
 11
19744.510847000001
 21
17397.257102999989
 31
0.0
  0
LINE
  5
36C4
  8
2-0
  6
CONTINUOUS
 62
     3
 10
19744.510847000001
 20
17397.257102999989
 30
0.0
 11
19714.513222000001
 21
17397.257102999989
 31
0.0
  0
LINE
  5
36C5
  8
2-0
  6
CONTINUOUS
 62
     3
 10
19714.513222000001
 20
17397.257102999989
 30
0.0
 11
19714.513222000001
 21
17360.257920999989
 31
0.0
  0
LINE
  5
36C6
  8
2-0
  6
CONTINUOUS
 62
     3
 10
19744.510847000001
 20
17360.257920999989
 30
0.0
 11
19714.513222000001
 21
17360.257920999989
 31
0.0
  0
LINE
  5
36C7
  8
2-0
  6
CONTINUOUS
 62
     3
 10
19744.510847000001
 20
17366.259821999982
 30
0.0
 11
19744.510847000001
 21
17360.257920999989
 31
0.0
  0
LINE
  5
36C8
  8
2-0
  6
CONTINUOUS
 62
     3
 10
19744.510847000001
 20
17350.168314999992
 30
0.0
 11
19714.513222000001
 21
17350.168314999992
 31
0.0
  0
LINE
  5
36C9
  8
2-0
  6
CONTINUOUS
 62
     3
 10
19744.510847000001
 20
17368.16411799999
 30
0.0
 11
19744.510847000001
 21
17350.168314999992
 31
0.0
  0
LINE
  5
36CA
  8
2-0
  6
CONTINUOUS
 62
     3
 10
19719.517445000001
 20
17368.16411799999
 30
0.0
 11
19744.510847000001
 21
17368.16411799999
 31
0.0
  0
LINE
  5
36CB
  8
2-0
  6
CONTINUOUS
 62
     3
 10
19719.517445000001
 20
17363.163854999992
 30
0.0
 11
19719.517445000001
 21
17368.16411799999
 31
0.0
  0
LINE
  5
36CC
  8
2-0
  6
CONTINUOUS
 62
     3
 10
19726.515042999981
 20
17363.163854999992
 30
0.0
 11
19719.517445000001
 21
17363.163854999992
 31
0.0
  0
LINE
  5
36CD
  8
2-0
  6
CONTINUOUS
 62
     3
 10
19717.399359999999
 20
16643.25474099999
 30
0.0
 11
19717.399359999999
 21
16663.255796000001
 31
0.0
  0
LINE
  5
36CE
  8
2-0
  6
CONTINUOUS
 62
     3
 10
19717.399359999999
 20
16663.255796000001
 30
0.0
 11
19802.399888
 21
16663.255796000001
 31
0.0
  0
LINE
  5
36CF
  8
2-0
  6
CONTINUOUS
 62
     3
 10
19726.515042999981
 20
16689.862506000001
 30
0.0
 11
19719.517445000001
 21
16689.862506000001
 31
0.0
  0
LINE
  5
36D0
  8
2-0
  6
CONTINUOUS
 62
     3
 10
19719.517445000001
 20
16689.862506000001
 30
0.0
 11
19719.517445000001
 21
16684.868180000001
 31
0.0
  0
LINE
  5
36D1
  8
2-0
  6
CONTINUOUS
 62
     3
 10
19719.517445000001
 20
16684.868180000001
 30
0.0
 11
19744.510847000001
 21
16684.868180000001
 31
0.0
  0
LINE
  5
36D2
  8
2-0
  6
CONTINUOUS
 62
     3
 10
19744.510847000001
 20
16684.868180000001
 30
0.0
 11
19744.510847000001
 21
16702.863984
 31
0.0
  0
LINE
  5
36D3
  8
2-0
  6
CONTINUOUS
 62
     3
 10
19744.510847000001
 20
16702.863984
 30
0.0
 11
19714.513222000001
 21
16702.863984
 31
0.0
  0
LINE
  5
36D4
  8
2-0
  6
CONTINUOUS
 62
     3
 10
19744.510847000001
 20
16693.255399999991
 30
0.0
 11
19744.510847000001
 21
16687.253499999992
 31
0.0
  0
LINE
  5
36D5
  8
2-0
  6
CONTINUOUS
 62
     3
 10
19714.513222000001
 20
16693.255399999991
 30
0.0
 11
19744.510847000001
 21
16693.255399999991
 31
0.0
  0
LINE
  5
36D6
  8
2-0
  6
CONTINUOUS
 62
     3
 10
19714.513222000001
 20
16702.863984
 30
0.0
 11
19714.513222000001
 21
17350.168314999992
 31
0.0
  0
LINE
  5
36D7
  8
2-0
  6
CONTINUOUS
 62
     3
 10
19714.513222000001
 20
17407.358585999991
 30
0.0
 11
19714.513222000001
 21
18051.162376
 31
0.0
  0
LINE
  5
36D8
  8
2-0
  6
CONTINUOUS
 62
     3
 10
19714.513222000001
 20
16548.253685
 30
0.0
 11
19744.510847000001
 21
16548.253685
 31
0.0
  0
LINE
  5
36D9
  8
2-0
  6
CONTINUOUS
 62
     3
 10
19744.510847000001
 20
16548.253685
 30
0.0
 11
19744.510847000001
 21
16554.255584999992
 31
0.0
  0
LINE
  5
36DA
  8
2-0
  6
CONTINUOUS
 62
     3
 10
19802.399888
 20
16578.259227999999
 30
0.0
 11
19717.399359999999
 21
16578.259227999999
 31
0.0
  0
LINE
  5
36DB
  8
2-0
  6
CONTINUOUS
 62
     3
 10
19717.399359999999
 20
16578.259227999999
 30
0.0
 11
19717.399359999999
 21
16598.254345000001
 31
0.0
  0
LINE
  5
36DC
  8
2-0
  6
CONTINUOUS
 62
     3
 10
19744.510847000001
 20
16538.64510200001
 30
0.0
 11
19714.513222000001
 21
16538.64510200001
 31
0.0
  0
LINE
  5
36DD
  8
2-0
  6
CONTINUOUS
 62
     3
 10
19744.510847000001
 20
16556.640904999989
 30
0.0
 11
19744.510847000001
 21
16538.64510200001
 31
0.0
  0
LINE
  5
36DE
  8
2-0
  6
CONTINUOUS
 62
     3
 10
19719.517445000001
 20
16556.640904999989
 30
0.0
 11
19744.510847000001
 21
16556.640904999989
 31
0.0
  0
LINE
  5
36DF
  8
2-0
  6
CONTINUOUS
 62
     3
 10
19719.517445000001
 20
16551.640641000002
 30
0.0
 11
19719.517445000001
 21
16556.640904999989
 31
0.0
  0
LINE
  5
36E0
  8
2-0
  6
CONTINUOUS
 62
     3
 10
19726.515042999981
 20
16551.640641000002
 30
0.0
 11
19719.517445000001
 21
16551.640641000002
 31
0.0
  0
LINE
  5
36E1
  8
2-0
  6
CONTINUOUS
 62
     3
 10
19726.515042999981
 20
15847.15841049998
 30
0.0
 11
19719.517445000001
 21
15847.15841049998
 31
0.0
  0
LINE
  5
36E2
  8
2-0
  6
CONTINUOUS
 62
     3
 10
19719.517445000001
 20
15847.15841049998
 30
0.0
 11
19719.517445000001
 21
15852.15867449998
 31
0.0
  0
LINE
  5
36E3
  8
2-0
  6
CONTINUOUS
 62
     3
 10
19719.517445000001
 20
15852.15867449998
 30
0.0
 11
19744.510847000001
 21
15852.15867449998
 31
0.0
  0
LINE
  5
36E4
  8
2-0
  6
CONTINUOUS
 62
     3
 10
19744.510847000001
 20
15852.15867449998
 30
0.0
 11
19744.510847000001
 21
15834.15693249998
 31
0.0
  0
LINE
  5
36E5
  8
2-0
  6
CONTINUOUS
 62
     3
 10
19744.510847000001
 20
15834.15693249998
 30
0.0
 11
19714.513222000001
 21
15834.15693249998
 31
0.0
  0
LINE
  5
36E6
  8
2-0
  6
CONTINUOUS
 62
     3
 10
19744.510847000001
 20
15850.25437749999
 30
0.0
 11
19744.510847000001
 21
15844.257426499989
 31
0.0
  0
LINE
  5
36E7
  8
2-0
  6
CONTINUOUS
 62
     3
 10
19744.510847000001
 20
15844.257426499989
 30
0.0
 11
19714.513222000001
 21
15844.257426499989
 31
0.0
  0
LINE
  5
36E8
  8
2-0
  6
CONTINUOUS
 62
     3
 10
19714.513222000001
 20
15844.257426499989
 30
0.0
 11
19714.513222000001
 21
15881.2575975
 31
0.0
  0
LINE
  5
36E9
  8
2-0
  6
CONTINUOUS
 62
     3
 10
19744.510847000001
 20
15881.2575975
 30
0.0
 11
19714.513222000001
 21
15881.2575975
 31
0.0
  0
LINE
  5
36EA
  8
2-0
  6
CONTINUOUS
 62
     3
 10
19744.510847000001
 20
15875.254707499989
 30
0.0
 11
19744.510847000001
 21
15881.2575975
 31
0.0
  0
LINE
  5
36EB
  8
2-0
  6
CONTINUOUS
 62
     3
 10
19744.510847000001
 20
15891.3531425
 30
0.0
 11
19714.513222000001
 21
15891.3531425
 31
0.0
  0
LINE
  5
36EC
  8
2-0
  6
CONTINUOUS
 62
     3
 10
19744.510847000001
 20
15873.34546149999
 30
0.0
 11
19744.510847000001
 21
15891.3531425
 31
0.0
  0
LINE
  5
36ED
  8
2-0
  6
CONTINUOUS
 62
     3
 10
19719.517445000001
 20
15873.34546149999
 30
0.0
 11
19744.510847000001
 21
15873.34546149999
 31
0.0
  0
LINE
  5
36EE
  8
2-0
  6
CONTINUOUS
 62
     3
 10
19719.517445000001
 20
15878.3516645
 30
0.0
 11
19719.517445000001
 21
15873.34546149999
 31
0.0
  0
LINE
  5
36EF
  8
2-0
  6
CONTINUOUS
 62
     3
 10
19726.515042999981
 20
15878.3516645
 30
0.0
 11
19719.517445000001
 21
15878.3516645
 31
0.0
  0
LINE
  5
36F0
  8
2-0
  6
CONTINUOUS
 62
     3
 10
19726.515042999981
 20
15177.591681000011
 30
0.0
 11
19719.517445000001
 21
15177.591681000011
 31
0.0
  0
LINE
  5
36F1
  8
2-0
  6
CONTINUOUS
 62
     3
 10
19719.517445000001
 20
15177.591681000011
 30
0.0
 11
19719.517445000001
 21
15172.597356
 31
0.0
  0
LINE
  5
36F2
  8
2-0
  6
CONTINUOUS
 62
     3
 10
19719.517445000001
 20
15172.597356
 30
0.0
 11
19744.510847000001
 21
15172.597356
 31
0.0
  0
LINE
  5
36F3
  8
2-0
  6
CONTINUOUS
 62
     3
 10
19744.510847000001
 20
15172.597356
 30
0.0
 11
19744.510847000001
 21
15190.593159
 31
0.0
  0
LINE
  5
36F4
  8
2-0
  6
CONTINUOUS
 62
     3
 10
19744.510847000001
 20
15190.593159
 30
0.0
 11
19714.513222000001
 21
15190.593159
 31
0.0
  0
LINE
  5
36F5
  8
2-0
  6
CONTINUOUS
 62
     3
 10
19744.510847000001
 20
15174.495714000001
 30
0.0
 11
19744.510847000001
 21
15180.497614000011
 31
0.0
  0
LINE
  5
36F6
  8
2-0
  6
CONTINUOUS
 62
     3
 10
19744.510847000001
 20
15180.497614000011
 30
0.0
 11
19714.513222000001
 21
15180.497614000011
 31
0.0
  0
LINE
  5
36F7
  8
2-0
  6
CONTINUOUS
 62
     3
 10
19714.513222000001
 20
15143.49843300001
 30
0.0
 11
19714.513222000001
 21
15180.497614000011
 31
0.0
  0
LINE
  5
36F8
  8
2-0
  6
CONTINUOUS
 62
     3
 10
19744.510847000001
 20
15143.49843300001
 30
0.0
 11
19714.513222000001
 21
15143.49843300001
 31
0.0
  0
LINE
  5
36F9
  8
2-0
  6
CONTINUOUS
 62
     3
 10
19744.510847000001
 20
15149.495383999991
 30
0.0
 11
19744.510847000001
 21
15143.49843300001
 31
0.0
  0
LINE
  5
36FA
  8
2-0
  6
CONTINUOUS
 62
     3
 10
19744.510847000001
 20
15133.396949
 30
0.0
 11
19714.513222000001
 21
15133.396949
 31
0.0
  0
LINE
  5
36FB
  8
2-0
  6
CONTINUOUS
 62
     3
 10
19744.510847000001
 20
15151.404630000001
 30
0.0
 11
19744.510847000001
 21
15133.396949
 31
0.0
  0
LINE
  5
36FC
  8
2-0
  6
CONTINUOUS
 62
     3
 10
19719.517445000001
 20
15151.404630000001
 30
0.0
 11
19744.510847000001
 21
15151.404630000001
 31
0.0
  0
LINE
  5
36FD
  8
2-0
  6
CONTINUOUS
 62
     3
 10
19719.517445000001
 20
15146.40436600001
 30
0.0
 11
19719.517445000001
 21
15151.404630000001
 31
0.0
  0
LINE
  5
36FE
  8
2-0
  6
CONTINUOUS
 62
     3
 10
19726.515042999981
 20
15146.40436600001
 30
0.0
 11
19719.517445000001
 21
15146.40436600001
 31
0.0
  0
LINE
  5
36FF
  8
2-0
  6
CONTINUOUS
 62
     3
 10
19714.513222000001
 20
16538.64510200001
 30
0.0
 11
19714.513222000001
 21
15891.3531425
 31
0.0
  0
LINE
  5
3700
  8
2-0
  6
CONTINUOUS
 62
     3
 10
19714.513222000001
 20
16693.255399999991
 30
0.0
 11
19714.513222000001
 21
16548.253685
 31
0.0
  0
LINE
  5
3701
  8
2-0
  6
CONTINUOUS
 62
     3
 10
19802.399888
 20
16663.255796000001
 30
0.0
 11
19802.399888
 21
16578.259227999999
 31
0.0
  0
LINE
  5
3702
  8
2-0
  6
CONTINUOUS
 62
     3
 10
19726.515042999981
 20
14445.163359
 30
0.0
 11
19719.517445000001
 21
14445.163359
 31
0.0
  0
LINE
  5
3703
  8
2-0
  6
CONTINUOUS
 62
     3
 10
19719.517445000001
 20
14445.163359
 30
0.0
 11
19719.517445000001
 21
14450.157685
 31
0.0
  0
LINE
  5
3704
  8
2-0
  6
CONTINUOUS
 62
     3
 10
19719.517445000001
 20
14450.157685
 30
0.0
 11
19744.510847000001
 21
14450.157685
 31
0.0
  0
LINE
  5
3705
  8
2-0
  6
CONTINUOUS
 62
     3
 10
19744.510847000001
 20
14450.157685
 30
0.0
 11
19744.510847000001
 21
14432.161881
 31
0.0
  0
LINE
  5
3706
  8
2-0
  6
CONTINUOUS
 62
     3
 10
19744.510847000001
 20
14432.161881
 30
0.0
 11
19714.513222000001
 21
14432.161881
 31
0.0
  0
LINE
  5
3707
  8
2-0
  6
CONTINUOUS
 62
     3
 10
19744.510847000001
 20
14448.260316000011
 30
0.0
 11
19744.510847000001
 21
14442.257426
 31
0.0
  0
LINE
  5
3708
  8
2-0
  6
CONTINUOUS
 62
     3
 10
19744.510847000001
 20
14442.257426
 30
0.0
 11
19714.513222000001
 21
14442.257426
 31
0.0
  0
LINE
  5
3709
  8
2-0
  6
CONTINUOUS
 62
     3
 10
19714.513222000001
 20
14442.257426
 30
0.0
 11
19714.513222000001
 21
14479.25759799998
 31
0.0
  0
LINE
  5
370A
  8
2-0
  6
CONTINUOUS
 62
     3
 10
19744.510847000001
 20
14479.25759799998
 30
0.0
 11
19714.513222000001
 21
14479.25759799998
 31
0.0
  0
LINE
  5
370B
  8
2-0
  6
CONTINUOUS
 62
     3
 10
19744.510847000001
 20
14473.260646000001
 30
0.0
 11
19744.510847000001
 21
14479.25759799998
 31
0.0
  0
LINE
  5
370C
  8
2-0
  6
CONTINUOUS
 62
     3
 10
19744.510847000001
 20
14489.358091
 30
0.0
 11
19714.513222000001
 21
14489.358091
 31
0.0
  0
LINE
  5
370D
  8
2-0
  6
CONTINUOUS
 62
     3
 10
19744.510847000001
 20
14471.35140000001
 30
0.0
 11
19744.510847000001
 21
14489.358091
 31
0.0
  0
LINE
  5
370E
  8
2-0
  6
CONTINUOUS
 62
     3
 10
19719.517445000001
 20
14471.35140000001
 30
0.0
 11
19744.510847000001
 21
14471.35140000001
 31
0.0
  0
LINE
  5
370F
  8
2-0
  6
CONTINUOUS
 62
     3
 10
19719.517445000001
 20
14476.356613000011
 30
0.0
 11
19719.517445000001
 21
14471.35140000001
 31
0.0
  0
LINE
  5
3710
  8
2-0
  6
CONTINUOUS
 62
     3
 10
19726.515042999981
 20
14476.356613000011
 30
0.0
 11
19719.517445000001
 21
14476.356613000011
 31
0.0
  0
LINE
  5
3711
  8
2-0
  6
CONTINUOUS
 62
     3
 10
19744.510847000001
 20
14119.75943899999
 30
0.0
 11
19744.510847000001
 21
14125.764308
 31
0.0
  0
LINE
  5
3712
  8
2-0
  6
CONTINUOUS
 62
     3
 10
19744.510847000001
 20
14125.764308
 30
0.0
 11
19714.513222000001
 21
14125.764308
 31
0.0
  0
LINE
  5
3713
  8
2-0
  6
CONTINUOUS
 62
     3
 10
19714.513222000001
 20
14125.764308
 30
0.0
 11
19714.513222000001
 21
14010.76021699999
 31
0.0
  0
LINE
  5
3714
  8
2-0
  6
CONTINUOUS
 62
     3
 10
19714.513222000001
 20
14010.76021699999
 30
0.0
 11
19799.511770000001
 21
14010.76021699999
 31
0.0
  0
LINE
  5
3715
  8
2-0
  6
CONTINUOUS
 62
     3
 10
19799.511770000001
 20
14010.76021699999
 30
0.0
 11
19799.511770000001
 21
14095.755795999999
 31
0.0
  0
LINE
  5
3716
  8
2-0
  6
CONTINUOUS
 62
     3
 10
19799.511770000001
 20
14095.755795999999
 30
0.0
 11
19767.51483199999
 21
14095.755795999999
 31
0.0
  0
LINE
  5
3717
  8
2-0
  6
CONTINUOUS
 62
     3
 10
19726.515042999981
 20
14122.79404099999
 30
0.0
 11
19719.517445000001
 21
14122.79404099999
 31
0.0
  0
LINE
  5
3718
  8
2-0
  6
CONTINUOUS
 62
     3
 10
19719.517445000001
 20
14122.79404099999
 30
0.0
 11
19719.517445000001
 21
14117.79674599998
 31
0.0
  0
LINE
  5
3719
  8
2-0
  6
CONTINUOUS
 62
     3
 10
19719.517445000001
 20
14117.79674599998
 30
0.0
 11
19744.510847000001
 21
14117.79674599998
 31
0.0
  0
LINE
  5
371A
  8
2-0
  6
CONTINUOUS
 62
     3
 10
19744.510847000001
 20
14117.79674599998
 30
0.0
 11
19744.510847000001
 21
14135.795518999999
 31
0.0
  0
LINE
  5
371B
  8
2-0
  6
CONTINUOUS
 62
     3
 10
19744.510847000001
 20
14135.795518999999
 30
0.0
 11
19714.513222000001
 21
14135.795518999999
 31
0.0
  0
LINE
  5
371C
  8
2-0
  6
CONTINUOUS
 62
     3
 10
19714.513222000001
 20
14489.358091
 30
0.0
 11
19714.513222000001
 21
15133.396949
 31
0.0
  0
LINE
  5
371D
  8
2-0
  6
CONTINUOUS
 62
     3
 10
19714.513222000001
 20
18108.352648
 30
0.0
 11
19714.513222000001
 21
18752.163365499979
 31
0.0
  0
LINE
  5
371E
  8
2-0
  6
CONTINUOUS
 62
     3
 10
19805.515650000001
 20
18037.256257999961
 30
0.0
 11
19758.511981
 21
18037.256257999961
 31
0.0
  0
LINE
  5
371F
  8
2-0
  6
CONTINUOUS
 62
     3
 10
19758.511981
 20
18122.256786000002
 30
0.0
 11
19805.515650000001
 21
18122.256786000002
 31
0.0
  0
LINE
  5
3720
  8
2-0
  6
CONTINUOUS
 62
     3
 10
19758.511981
 20
18037.256257999961
 30
0.0
 11
19758.511981
 21
18062.259557000001
 31
0.0
  0
LINE
  5
3721
  8
2-0
  6
CONTINUOUS
 62
     3
 10
19758.511981
 20
18097.255465999999
 30
0.0
 11
19758.511981
 21
18122.256786000002
 31
0.0
  0
LINE
  5
3722
  8
2-0
  6
CONTINUOUS
 62
     3
 10
19805.515650000001
 20
18122.256786000002
 30
0.0
 11
19805.515650000001
 21
18037.256257999961
 31
0.0
  0
LINE
  5
3723
  8
2-0
  6
CONTINUOUS
 62
     3
 10
19714.513222000001
 20
15834.15693249998
 30
0.0
 11
19714.513222000001
 21
15190.593159
 31
0.0
  0
LINE
  5
3724
  8
2-0
  6
CONTINUOUS
 62
     3
 10
19805.515650000001
 20
15119.259228000001
 30
0.0
 11
19758.511981
 21
15119.259228000001
 31
0.0
  0
LINE
  5
3725
  8
2-0
  6
CONTINUOUS
 62
     3
 10
19758.511981
 20
15204.25579599999
 30
0.0
 11
19805.515650000001
 21
15204.25579599999
 31
0.0
  0
LINE
  5
3726
  8
2-0
  6
CONTINUOUS
 62
     3
 10
19758.511981
 20
15119.259228000001
 30
0.0
 11
19758.511981
 21
15144.254609000011
 31
0.0
  0
LINE
  5
3727
  8
2-0
  6
CONTINUOUS
 62
     3
 10
19758.511981
 20
15179.25447700001
 30
0.0
 11
19758.511981
 21
15204.25579599999
 31
0.0
  0
LINE
  5
3728
  8
2-0
  6
CONTINUOUS
 62
     3
 10
19805.515650000001
 20
15204.25579599999
 30
0.0
 11
19805.515650000001
 21
15119.259228000001
 31
0.0
  0
LINE
  5
3729
  8
2-0
  6
CONTINUOUS
 62
     3
 10
22717.50781100001
 20
19115.75962400002
 30
0.0
 11
22717.50781100001
 21
19230.75579700002
 31
0.0
  0
LINE
  5
372A
  8
2-0
  6
CENTER2
 62
     6
 10
18427.554950000002
 20
19188.257511999989
 30
0.0
 11
23567.50913100001
 21
19188.257511999989
 31
0.0
  0
LINE
  5
372B
  8
2-0
  6
CENTER2
 62
     6
 10
18427.554950000002
 20
16620.757511999989
 30
0.0
 11
23567.50913100001
 21
16620.757511999989
 31
0.0
  0
LINE
  5
372C
  8
2-0
  6
CENTER2
 62
     6
 10
18427.554950000002
 20
14053.257512
 30
0.0
 11
23567.50913100001
 21
14053.257512
 31
0.0
  0
LINE
  5
372D
  8
2-0
  6
CONTINUOUS
 62
     3
 10
19714.513222000001
 20
19145.759227999999
 30
0.0
 11
22636.505910999978
 21
19145.759227999999
 31
0.0
  0
LINE
  5
372E
  8
2-0
  6
CONTINUOUS
 62
     3
 10
19714.513222000001
 20
14135.795518999999
 30
0.0
 11
19714.513222000001
 21
14432.161881
 31
0.0
  0
LINE
  5
372F
  8
2-0
  6
CENTER2
 62
     6
 10
19757.009526999998
 20
20430.75579700002
 30
0.0
 11
19757.009526999998
 21
13427.494077999991
 31
0.0
  0
LINE
  5
3730
  8
2-0
  6
CENTER2
 62
     6
 10
22675.009527000009
 20
20430.75579700002
 30
0.0
 11
22675.009527000009
 21
13427.494077999991
 31
0.0
  0
LINE
  5
3731
  8
2-0
  6
CONTINUOUS
 62
     3
 10
22717.50781100001
 20
19105.462167999991
 30
0.0
 11
22717.50781100001
 21
18809.353637499989
 31
0.0
  0
LINE
  5
3732
  8
2-0
  6
CONTINUOUS
 62
     3
 10
19714.513222000001
 20
19105.462167999991
 30
0.0
 11
19714.513222000001
 21
18809.35363749996
 31
0.0
  0
LINE
  5
3733
  8
2-0
  6
CONTINUOUS
 62
     3
 10
19795.51116300001
 20
14095.755795999999
 30
0.0
 11
19795.51116300001
 21
19230.75579700002
 31
0.0
  0
LINE
  5
3734
  8
2-0
  6
CONTINUOUS
 62
     3
 10
22636.505910999978
 20
14095.755795999999
 30
0.0
 11
22636.505910999978
 21
19230.75579700002
 31
0.0
  0
CIRCLE
  5
3735
  8
2-0
  6
CONTINUOUS
 62
     4
 10
18227.557260000001
 20
19188.257511999989
 30
0.0
 40
200.00001
  0
CIRCLE
  5
3736
  8
2-0
  6
CONTINUOUS
 62
     4
 10
18227.557260000001
 20
16620.757511999989
 30
0.0
 40
200.00001
  0
CIRCLE
  5
3737
  8
2-0
  6
CONTINUOUS
 62
     4
 10
18227.557260000001
 20
14053.257512
 30
0.0
 40
200.00001
  0
CIRCLE
  5
3738
  8
2-0
  6
CONTINUOUS
 62
     4
 10
19757.009526999998
 20
20630.760416000008
 30
0.0
 40
200.00001
  0
TEXT
  5
3739
  8
2-0
  6
CONTINUOUS
 62
     7
 10
21071.854834000002
 20
13493.258634
 30
0.0
 40
160.0
  1
前柱（右）
 50
0.000213
 72
     4
 11
21487.854536593019
 21
13573.260180500791
 31
0.0
  0
TEXT
  5
373A
  8
2-0
  6
CONTINUOUS
 62
     7
 10
21088.554053000011
 20
17821.880678000001
 30
0.0
 40
160.0
  1
補強柱 後
 50
359.99984199999989
 72
     4
 11
21499.220940274728
 21
17901.879545536991
 31
0.0
  0
TEXT
  5
373B
  8
2-0
  6
CONTINUOUS
 62
     7
 10
21276.44995699999
 20
16071.250650000011
 30
0.0
 40
160.0
  1
壁パネル
 50
359.99982299999999
 72
     4
 11
21639.116870803551
 21
16151.24952963788
 31
0.0
  0
TEXT
  5
373C
  8
2-0
  6
CONTINUOUS
 62
     7
 10
20996.447052999989
 20
16908.438546000009
 30
0.0
 40
160.0
  1
中柱（左右）
 50
0.000354
 72
     4
 11
21513.779892046208
 21
16988.44174232466
 31
0.0
  0
TEXT
  5
373D
  8
2-0
  6
CONTINUOUS
 62
     7
 10
21676.449296999981
 20
14466.299899999991
 30
0.0
 40
160.0
  1
下枠
 50
0.001063
 72
     4
 11
21847.11447940928
 21
14546.30306633928
 31
0.0
  0
TEXT
  5
373E
  8
2-0
  6
CONTINUOUS
 62
     7
 10
21088.554052999971
 20
14904.12118900002
 30
0.0
 40
160.0
  1
補強柱 前
 50
359.99937
 72
     4
 11
21499.221599287761
 21
14984.116673479341
 31
0.0
  0
TEXT
  5
373F
  8
2-0
  6
CONTINUOUS
 62
     7
 10
21171.414721000019
 20
18511.707284499978
 30
0.0
 40
160.0
  1
間柱（側）
 72
     4
 11
21592.748054333351
 21
18591.707284499978
 31
0.0
  0
TEXT
  5
3740
  8
2-0
  6
CONTINUOUS
 62
     7
 10
23490.00504
 20
20040.755004999992
 30
0.0
 40
160.0
  1
後柱（左右）
 50
0.000354
 72
     4
 11
24002.004545712982
 21
20120.758168372831
 31
0.0
  0
TEXT
  5
3741
  8
2-0
  6
CONTINUOUS
 62
     7
 10
18179.557892999979
 20
19093.777070000011
 30
0.0
 40
160.0
  1
C
 72
     4
 11
18232.891226333311
 21
19173.777070000011
 31
0.0
  0
TEXT
  5
3742
  8
2-0
  6
CONTINUOUS
 62
     7
 10
18179.778609000001
 20
16550.363430000009
 30
0.0
 40
160.0
  1
B
 72
     4
 11
18233.111942333329
 21
16630.363430000009
 31
0.0
  0
TEXT
  5
3743
  8
2-0
  6
CONTINUOUS
 62
     7
 10
18179.821168999981
 20
13964.650301
 30
0.0
 40
160.0
  1
A
 72
     4
 11
18233.15450233332
 21
14044.650301
 31
0.0
  0
TEXT
  5
3744
  8
2-0
  6
CONTINUOUS
 62
     7
 10
19712.802917999968
 20
20541.992864000022
 30
0.0
 40
160.0
  1
1
 72
     4
 11
19739.46958466664
 21
20621.992864000022
 31
0.0
  0
LINE
  5
3745
  8
2-0
  6
CONTINUOUS
 62
     3
 10
21935.510107999991
 20
19230.75579700002
 30
0.0
 11
21898.508946000009
 21
19230.75579700002
 31
0.0
  0
LINE
  5
3746
  8
2-0
  6
CONTINUOUS
 62
     3
 10
21935.510107999991
 20
19200.752234
 30
0.0
 11
21935.510107999991
 21
19230.75579700002
 31
0.0
  0
LINE
  5
3747
  8
2-0
  6
CONTINUOUS
 62
     3
 10
21929.510186999989
 20
19200.752234
 30
0.0
 11
21935.510107999991
 21
19200.752234
 31
0.0
  0
LINE
  5
3748
  8
2-0
  6
CONTINUOUS
 62
     3
 10
21945.60763200001
 20
19200.752234
 30
0.0
 11
21945.60763200001
 21
19230.75579700002
 31
0.0
  0
LINE
  5
3749
  8
2-0
  6
CONTINUOUS
 62
     3
 10
21927.603910999998
 20
19200.752234
 30
0.0
 11
21945.60763200001
 21
19200.752234
 31
0.0
  0
LINE
  5
374A
  8
2-0
  6
CONTINUOUS
 62
     3
 10
21927.603910999998
 20
19225.761471000009
 30
0.0
 11
21927.603910999998
 21
19200.752234
 31
0.0
  0
LINE
  5
374B
  8
2-0
  6
CONTINUOUS
 62
     3
 10
21932.604175
 20
19225.761471000009
 30
0.0
 11
21927.603910999998
 21
19225.761471000009
 31
0.0
  0
LINE
  5
374C
  8
2-0
  6
CONTINUOUS
 62
     3
 10
21932.604175
 20
19218.755955000001
 30
0.0
 11
21932.604175
 21
19225.761471000009
 31
0.0
  0
LINE
  5
374D
  8
2-0
  6
CONTINUOUS
 62
     3
 10
21901.414879999989
 20
19218.755955000001
 30
0.0
 11
21901.414879999989
 21
19225.761471000009
 31
0.0
  0
LINE
  5
374E
  8
2-0
  6
CONTINUOUS
 62
     3
 10
21901.414879999989
 20
19225.761471000009
 30
0.0
 11
21906.41514400001
 21
19225.761471000009
 31
0.0
  0
LINE
  5
374F
  8
2-0
  6
CONTINUOUS
 62
     3
 10
21906.41514400001
 20
19225.761471000009
 30
0.0
 11
21906.41514400001
 21
19200.752234
 31
0.0
  0
LINE
  5
3750
  8
2-0
  6
CONTINUOUS
 62
     3
 10
21906.41514400001
 20
19200.752234
 30
0.0
 11
21888.41538100001
 21
19200.752234
 31
0.0
  0
LINE
  5
3751
  8
2-0
  6
CONTINUOUS
 62
     3
 10
21888.41538100001
 20
19200.752234
 30
0.0
 11
21888.41538100001
 21
19230.75579700002
 31
0.0
  0
LINE
  5
3752
  8
2-0
  6
CONTINUOUS
 62
     3
 10
21904.508867
 20
19200.752234
 30
0.0
 11
21898.508946000009
 21
19200.752234
 31
0.0
  0
LINE
  5
3753
  8
2-0
  6
CONTINUOUS
 62
     3
 10
21898.508946000009
 20
19200.752234
 30
0.0
 11
21898.508946000009
 21
19230.75579700002
 31
0.0
  0
LINE
  5
3754
  8
2-0
  6
CONTINUOUS
 62
     3
 10
20530.599225499998
 20
19218.755955000001
 30
0.0
 11
20530.599225499998
 21
19225.761471000009
 31
0.0
  0
LINE
  5
3755
  8
2-0
  6
CONTINUOUS
 62
     3
 10
20530.599225499998
 20
19225.761471000009
 30
0.0
 11
20525.5989615
 21
19225.761471000009
 31
0.0
  0
LINE
  5
3756
  8
2-0
  6
CONTINUOUS
 62
     3
 10
20525.5989615
 20
19225.761471000009
 30
0.0
 11
20525.5989615
 21
19200.752234
 31
0.0
  0
LINE
  5
3757
  8
2-0
  6
CONTINUOUS
 62
     3
 10
20525.5989615
 20
19200.752234
 30
0.0
 11
20543.604662500002
 21
19200.752234
 31
0.0
  0
LINE
  5
3758
  8
2-0
  6
CONTINUOUS
 62
     3
 10
20543.604662500002
 20
19200.752234
 30
0.0
 11
20543.604662500002
 21
19230.75579700002
 31
0.0
  0
LINE
  5
3759
  8
2-0
  6
CONTINUOUS
 62
     3
 10
20527.507217499991
 20
19200.752234
 30
0.0
 11
20533.509117500002
 21
19200.752234
 31
0.0
  0
LINE
  5
375A
  8
2-0
  6
CONTINUOUS
 62
     3
 10
20533.509117500002
 20
19200.752234
 30
0.0
 11
20533.509117500002
 21
19230.75579700002
 31
0.0
  0
LINE
  5
375B
  8
2-0
  6
CONTINUOUS
 62
     3
 10
20496.509936499991
 20
19230.75579700002
 30
0.0
 11
20533.509117500002
 21
19230.75579700002
 31
0.0
  0
LINE
  5
375C
  8
2-0
  6
CONTINUOUS
 62
     3
 10
20496.509936499991
 20
19200.752234
 30
0.0
 11
20496.509936499991
 21
19230.75579700002
 31
0.0
  0
LINE
  5
375D
  8
2-0
  6
CONTINUOUS
 62
     3
 10
20502.503918499999
 20
19200.752234
 30
0.0
 11
20496.509936499991
 21
19200.752234
 31
0.0
  0
LINE
  5
375E
  8
2-0
  6
CONTINUOUS
 62
     3
 10
20486.41439150001
 20
19200.752234
 30
0.0
 11
20486.41439150001
 21
19230.75579700002
 31
0.0
  0
LINE
  5
375F
  8
2-0
  6
CONTINUOUS
 62
     3
 10
20504.4101945
 20
19200.752234
 30
0.0
 11
20486.41439150001
 21
19200.752234
 31
0.0
  0
LINE
  5
3760
  8
2-0
  6
CONTINUOUS
 62
     3
 10
20504.4101945
 20
19225.761471000009
 30
0.0
 11
20504.4101945
 21
19200.752234
 31
0.0
  0
LINE
  5
3761
  8
2-0
  6
CONTINUOUS
 62
     3
 10
20499.409930500009
 20
19225.761471000009
 30
0.0
 11
20504.4101945
 21
19225.761471000009
 31
0.0
  0
LINE
  5
3762
  8
2-0
  6
CONTINUOUS
 62
     3
 10
20499.409930500009
 20
19218.755955000001
 30
0.0
 11
20499.409930500009
 21
19225.761471000009
 31
0.0
  0
LINE
  5
3763
  8
2-0
  6
CONTINUOUS
 62
     3
 10
21200.408941500002
 20
19218.755955000001
 30
0.0
 11
21200.408941500002
 21
19225.761471000009
 31
0.0
  0
LINE
  5
3764
  8
2-0
  6
CONTINUOUS
 62
     3
 10
21200.408941500002
 20
19225.761471000009
 30
0.0
 11
21205.4092045
 21
19225.761471000009
 31
0.0
  0
LINE
  5
3765
  8
2-0
  6
CONTINUOUS
 62
     3
 10
21205.4092045
 20
19225.761471000009
 30
0.0
 11
21205.4092045
 21
19200.752234
 31
0.0
  0
LINE
  5
3766
  8
2-0
  6
CONTINUOUS
 62
     3
 10
21205.4092045
 20
19200.752234
 30
0.0
 11
21187.415381499999
 21
19200.752234
 31
0.0
  0
LINE
  5
3767
  8
2-0
  6
CONTINUOUS
 62
     3
 10
21187.415381499999
 20
19200.752234
 30
0.0
 11
21187.415381499999
 21
19230.75579700002
 31
0.0
  0
LINE
  5
3768
  8
2-0
  6
CONTINUOUS
 62
     3
 10
21203.506887499982
 20
19200.752234
 30
0.0
 11
21197.508946499998
 21
19200.752234
 31
0.0
  0
LINE
  5
3769
  8
2-0
  6
CONTINUOUS
 62
     3
 10
21197.508946499998
 20
19200.752234
 30
0.0
 11
21197.508946499998
 21
19230.75579700002
 31
0.0
  0
LINE
  5
376A
  8
2-0
  6
CONTINUOUS
 62
     3
 10
21234.510107499998
 20
19230.75579700002
 30
0.0
 11
21197.508946499998
 21
19230.75579700002
 31
0.0
  0
LINE
  5
376B
  8
2-0
  6
CONTINUOUS
 62
     3
 10
21234.510107499998
 20
19200.752234
 30
0.0
 11
21234.510107499998
 21
19230.75579700002
 31
0.0
  0
LINE
  5
376C
  8
2-0
  6
CONTINUOUS
 62
     3
 10
21228.504248500009
 20
19200.752234
 30
0.0
 11
21234.510107499998
 21
19200.752234
 31
0.0
  0
LINE
  5
376D
  8
2-0
  6
CONTINUOUS
 62
     3
 10
21244.603672500009
 20
19200.752234
 30
0.0
 11
21244.603672500009
 21
19230.75579700002
 31
0.0
  0
LINE
  5
376E
  8
2-0
  6
CONTINUOUS
 62
     3
 10
21226.6078695
 20
19200.752234
 30
0.0
 11
21244.603672500009
 21
19200.752234
 31
0.0
  0
LINE
  5
376F
  8
2-0
  6
CONTINUOUS
 62
     3
 10
21226.6078695
 20
19225.761471000009
 30
0.0
 11
21226.6078695
 21
19200.752234
 31
0.0
  0
LINE
  5
3770
  8
2-0
  6
CONTINUOUS
 62
     3
 10
21231.598235500001
 20
19225.761471000009
 30
0.0
 11
21226.6078695
 21
19225.761471000009
 31
0.0
  0
LINE
  5
3771
  8
2-0
  6
CONTINUOUS
 62
     3
 10
21231.598235500001
 20
19218.755955000001
 30
0.0
 11
21231.598235500001
 21
19225.761471000009
 31
0.0
  0
LINE
  5
3772
  8
2-0
  6
CONTINUOUS
 62
     3
 10
20543.604662500002
 20
19230.75579700002
 30
0.0
 11
21187.415381499999
 21
19230.75579700002
 31
0.0
  0
LINE
  5
3773
  8
2-0
  6
CONTINUOUS
 62
     3
 10
19839.814769000001
 20
19230.75579700002
 30
0.0
 11
20486.41439150001
 21
19230.75579700002
 31
0.0
  0
LINE
  5
3774
  8
2-0
  6
CONTINUOUS
 62
     3
 10
22592.89315700001
 20
19230.75579700002
 30
0.0
 11
21945.60763200001
 21
19230.75579700002
 31
0.0
  0
LINE
  5
3775
  8
2-0
  6
CONTINUOUS
 62
     3
 10
21888.41538100001
 20
19230.75579700002
 30
0.0
 11
21244.603672500009
 21
19230.75579700002
 31
0.0
  0
LINE
  5
3776
  8
2-0
  6
CONTINUOUS
 62
     3
 10
22717.50781100001
 20
15133.396949000011
 30
0.0
 11
22717.50781100001
 21
14489.358091
 31
0.0
  0
LINE
  5
3777
  8
2-0
  6
CONTINUOUS
 62
     3
 10
22717.50781100001
 20
14432.161881
 30
0.0
 11
22717.50781100001
 21
14135.795518999999
 31
0.0
  0
CIRCLE
  5
3778
  8
2-0
  6
CONTINUOUS
 62
     4
 10
22675.009527000009
 20
20630.760416000008
 30
0.0
 40
200.00001
  0
TEXT
  5
3779
  8
2-0
  6
CONTINUOUS
 62
     7
 10
22623.377744000009
 20
20535.234787000009
 30
0.0
 40
160.0
  1
2
 72
     4
 11
22676.711077333341
 21
20615.234787000009
 31
0.0
  0
LINE
  5
377A
  8
0-6
  6
CONTINUOUS
 62
     6
 10
19757.833785499999
 20
18519.437569000002
 30
0.0
 11
20782.874035500012
 21
18519.437569000002
 31
0.0
  0
LINE
  5
377B
  8
0-6
  6
CONTINUOUS
 62
     6
 10
21082.798813500009
 20
19076.790821000021
 30
0.0
 11
21187.41439150001
 21
19200.752234
 31
0.0
  0
LINE
  5
377C
  8
0-6
  6
CONTINUOUS
 62
     6
 10
21187.41439150001
 20
19200.752234
 30
0.0
 11
21128.656341499998
 21
19049.56056400001
 31
0.0
  0
LINE
  5
377D
  8
0-6
  6
CONTINUOUS
 62
     6
 10
21187.41439150001
 20
19200.752234
 30
0.0
 11
21082.798813500009
 21
19076.790821000021
 31
0.0
  0
LINE
  5
377E
  8
0-6
  6
CONTINUOUS
 62
     6
 10
21082.798813500009
 20
19076.790821000021
 30
0.0
 11
21128.656341499998
 21
19049.56056400001
 31
0.0
  0
LINE
  5
377F
  8
0-6
  6
CONTINUOUS
 62
     6
 10
21128.656341499998
 20
19049.56056400001
 30
0.0
 11
21187.41439150001
 21
19200.752234
 31
0.0
  0
LINE
  5
3780
  8
0-6
  6
CONTINUOUS
 62
     6
 10
21128.656341499998
 20
19049.56056400001
 30
0.0
 11
21082.798813500009
 21
19076.790821000021
 31
0.0
  0
LINE
  5
3781
  8
0-6
  6
CONTINUOUS
 62
     6
 10
21105.727577500002
 20
19063.177672000009
 30
0.0
 11
20782.874035500012
 21
18519.437569000002
 31
0.0
  0
TEXT
  5
3782
  8
0-6
  6
CONTINUOUS
 62
     7
 10
19837.834049500008
 20
18599.439813000001
 30
0.0
 40
160.0
  1
間柱（後）
 72
     4
 11
20259.167382833341
 21
18679.439813000001
 31
0.0
  0
LINE
  5
3783
  8
SUNPOU
  6
CONTINUOUS
 10
9347.7599719999871
 20
19410.753421000009
 30
0.0
 11
9347.7599719999871
 21
20207.72068877846
 31
0.0
  0
LINE
  5
3784
  8
SUNPOU
  6
CONTINUOUS
 10
9347.7599719999907
 20
13860.762197
 30
0.0
 11
9347.7599719999907
 21
13185.33608118962
 31
0.0
  0
LINE
  5
3785
  8
SUNPOU
  6
CONTINUOUS
 10
9076.5136060000114
 20
9259.4613089999966
 30
0.0
 11
8601.2244933597794
 21
9259.4613089999966
 31
0.0
  0
LINE
  5
3788
  8
WAKUSEN-01
 10
868.00000000000193
 20
22484.000000000011
 30
0.0
 11
32764.000000000011
 21
22484.000000000011
 31
0.0
  0
LINE
  5
378B
  8
WAKUSEN-01
 10
20560.0
 20
2484.0
 30
0.0
 11
32764.0
 21
2484.0
 31
0.0
  0
LINE
  5
378C
  8
WAKUSEN-02
 10
20560.0
 20
1655.9999999999991
 30
0.0
 11
26868.0
 21
1655.9999999999991
 31
0.0
  0
TEXT
  5
378D
  8
WAKUMOJI-01
 10
20670.260259962761
 20
2125.9030093393221
 30
0.0
 40
240.0
  1
名　称
  7
WAKUMOJI
  0
TEXT
  5
378E
  8
WAKUMOJI-01
 10
20656.505485091919
 20
1319.12897497982
 30
0.0
 40
240.0
  1
機種名
  7
WAKUMOJI
  0
LINE
  5
3791
  8
YODOROGO
 10
29977.604341291921
 20
1995.7494964292871
 30
0.0
 11
29829.604341291921
 21
1995.7494964292871
 31
0.0
1001
AUTOCAD_POSTSCRIPT_FIGURE
1002
{
1000
PSFILL
1000
Grayscale
1000
Grayscale
1070
    25
1002
}
  0
LINE
  5
3792
  8
YODOROGO
 10
29829.604341291921
 20
1947.749496429288
 30
0.0
 11
29977.604341291921
 21
1947.749496429288
 31
0.0
1001
AUTOCAD_POSTSCRIPT_FIGURE
1002
{
1000
PSFILL
1000
Grayscale
1000
Grayscale
1070
    25
1002
}
  0
LINE
  5
3793
  8
YODOROGO
 10
29977.604341291921
 20
1907.7494964292871
 30
0.0
 11
29829.604341291921
 21
1907.7494964292871
 31
0.0
1001
AUTOCAD_POSTSCRIPT_FIGURE
1002
{
1000
PSFILL
1000
Grayscale
1000
Grayscale
1070
    25
1002
}
  0
LINE
  5
3794
  8
YODOROGO
 10
29829.604341291921
 20
1859.749496429288
 30
0.0
 11
29977.604341291921
 21
1859.749496429288
 31
0.0
1001
AUTOCAD_POSTSCRIPT_FIGURE
1002
{
1000
PSFILL
1000
Grayscale
1000
Grayscale
1070
    25
1002
}
  0
LINE
  5
3795
  8
YODOROGO
 10
29977.604341291921
 20
1819.7494964292871
 30
0.0
 11
29829.604341291921
 21
1819.7494964292871
 31
0.0
1001
AUTOCAD_POSTSCRIPT_FIGURE
1002
{
1000
PSFILL
1000
Grayscale
1000
Grayscale
1070
    25
1002
}
  0
LINE
  5
3796
  8
YODOROGO
 10
29921.60434129191
 20
1707.749496429288
 30
0.0
 11
29977.604341291921
 21
1707.749496429288
 31
0.0
1001
AUTOCAD_POSTSCRIPT_FIGURE
1002
{
1000
PSFILL
1000
Grayscale
1000
Grayscale
1070
    25
1002
}
  0
LINE
  5
3797
  8
YODOROGO
 10
29737.604341291921
 20
1427.749496429288
 30
0.0
 11
29937.604341291932
 21
1481.3393349155101
 31
0.0
  0
LINE
  5
3798
  8
YODOROGO
 10
29949.60434129191
 20
1707.749496429288
 30
0.0
 11
29885.604341291921
 21
1707.749496429288
 31
0.0
  0
ARC
  5
3799
  8
YODOROGO
 10
30254.34774982791
 20
1807.864609233261
 30
0.0
 40
381.88686420564721
 50
213.96111677667841
 51
264.47872074317792
  0
ARC
  5
379A
  8
YODOROGO
 10
30254.347749827921
 20
1807.864609233302
 30
0.0
 40
381.8868642056816
 50
208.14114420486601
 51
212.9210361185994
  0
LINE
  5
379B
  8
YODOROGO
 10
29771.409872985321
 20
1556.807661346234
 30
0.0
 11
29933.78413250855
 21
1600.3157130570869
 31
0.0
  0
LINE
  5
379C
  8
YODOROGO
 10
29737.604341291921
 20
1427.749496429288
 30
0.0
 11
29937.604341291932
 21
1481.3393349155101
 31
0.0
  0
LINE
  5
379D
  8
YODOROGO
 10
29949.60434129191
 20
1707.749496429288
 30
0.0
 11
29885.604341291921
 21
1707.749496429288
 31
0.0
  0
ARC
  5
379E
  8
YODOROGO
 10
30254.34774982791
 20
1807.864609233261
 30
0.0
 40
381.88686420564721
 50
213.96111677667841
 51
264.47872074317792
  0
LINE
  5
379F
  8
YODOROGO
 10
28793.60434129191
 20
1819.7494964292871
 30
0.0
 11
28433.60434129191
 21
1819.7494964292871
 31
0.0
  0
LINE
  5
37A0
  8
YODOROGO
 10
28513.60434129191
 20
1427.749496429288
 30
0.0
 11
28793.60434129191
 21
1427.749496429288
 31
0.0
  0
LINE
  5
37A1
  8
YODOROGO
 10
28729.604341291921
 20
1923.7494964292871
 30
0.0
 11
28497.60434129191
 21
1923.7494964292871
 31
0.0
  0
LINE
  5
37A2
  8
YODOROGO
 10
28585.604341291921
 20
2027.749496429288
 30
0.0
 11
28657.604341291921
 21
2027.749496429288
 31
0.0
  0
LINE
  5
37A3
  8
YODOROGO
 10
28433.60434129191
 20
1707.749496429288
 30
0.0
 11
28433.60434129191
 21
1507.749496429288
 31
0.0
  0
LINE
  5
37A4
  8
YODOROGO
 10
28497.60434129191
 20
1563.7494964292871
 30
0.0
 11
28497.60434129191
 21
1707.749496429288
 31
0.0
  0
LINE
  5
37A5
  8
YODOROGO
 10
28585.604341291921
 20
1747.74949642929
 30
0.0
 11
28585.604341291921
 21
1547.749496429288
 31
0.0
  0
LINE
  5
37A6
  8
YODOROGO
 10
27857.604341291921
 20
1683.749496429288
 30
0.0
 11
27777.604341291921
 21
1619.9724140445701
 31
0.0
  0
LINE
  5
37A7
  8
YODOROGO
 10
27937.604341291921
 20
1619.9724140445701
 30
0.0
 11
27857.604341291921
 21
1683.749496429288
 31
0.0
  0
LINE
  5
37A8
  8
YODOROGO
 10
27857.604341291921
 20
1707.749496429288
 30
0.0
 11
27937.604341291921
 21
1643.9724140445701
 31
0.0
  0
LINE
  5
37A9
  8
YODOROGO
 10
27777.604341291921
 20
1643.9724140445701
 30
0.0
 11
27857.604341291921
 21
1707.749496429288
 31
0.0
  0
LINE
  5
37AA
  8
YODOROGO
 10
28040.913204016892
 20
1659.749496429288
 30
0.0
 11
28040.913204016892
 21
1683.7494964292871
 31
0.0
  0
LINE
  5
37AB
  8
YODOROGO
 10
27977.604341291921
 20
1683.7494964292871
 30
0.0
 11
27977.604341291921
 21
1667.749496429285
 31
0.0
  0
LINE
  5
37AC
  8
YODOROGO
 10
28098.135520230931
 20
1707.749496429288
 30
0.0
 11
28098.135520230931
 21
1655.5036372746561
 31
0.0
1001
AUTOCAD_POSTSCRIPT_FIGURE
1002
{
1000
PSFILL
1000
Grayscale
1000
Grayscale
1070
   100
1002
}
  0
LINE
  5
37AD
  8
YODOROGO
 10
28082.135520230921
 20
1655.5036372746561
 30
0.0
 11
28082.135520230921
 21
1707.749496429288
 31
0.0
1001
AUTOCAD_POSTSCRIPT_FIGURE
1002
{
1000
PSFILL
1000
Grayscale
1000
Grayscale
1070
   100
1002
}
  0
LINE
  5
37AE
  8
YODOROGO
 10
27809.604341291921
 20
1608.771904043258
 30
0.0
 11
27809.604341291921
 21
1632.771904043258
 31
0.0
  0
LINE
  5
37AF
  8
YODOROGO
 10
27905.604341291921
 20
1608.771904043258
 30
0.0
 11
27809.604341291921
 21
1608.771904043258
 31
0.0
  0
LINE
  5
37B0
  8
YODOROGO
 10
27905.604341291921
 20
1632.771904043258
 30
0.0
 11
27905.604341291921
 21
1608.771904043258
 31
0.0
  0
LINE
  5
37B1
  8
YODOROGO
 10
27809.604341291921
 20
1632.771904043258
 30
0.0
 11
27905.604341291921
 21
1632.771904043258
 31
0.0
  0
LINE
  5
37B2
  8
YODOROGO
 10
27824.509588915738
 20
1568.5028573704751
 30
0.0
 11
27785.604341291921
 21
1475.7494964292871
 31
0.0
1001
AUTOCAD_POSTSCRIPT_FIGURE
1002
{
1000
PSFILL
1000
Grayscale
1000
Grayscale
1070
   100
1002
}
  0
LINE
  5
37B3
  8
YODOROGO
 10
27777.604341291921
 20
1568.5028573704751
 30
0.0
 11
27824.509588915738
 21
1568.5028573704751
 31
0.0
1001
AUTOCAD_POSTSCRIPT_FIGURE
1002
{
1000
PSFILL
1000
Grayscale
1000
Grayscale
1070
   100
1002
}
  0
LINE
  5
37B4
  8
YODOROGO
 10
27777.604341291921
 20
1588.5028573704751
 30
0.0
 11
27777.604341291921
 21
1568.5028573704751
 31
0.0
1001
AUTOCAD_POSTSCRIPT_FIGURE
1002
{
1000
PSFILL
1000
Grayscale
1000
Grayscale
1070
   100
1002
}
  0
LINE
  5
37B5
  8
YODOROGO
 10
27937.604341291921
 20
1588.5028573704751
 30
0.0
 11
27777.604341291921
 21
1588.5028573704751
 31
0.0
1001
AUTOCAD_POSTSCRIPT_FIGURE
1002
{
1000
PSFILL
1000
Grayscale
1000
Grayscale
1070
   100
1002
}
  0
LINE
  5
37B6
  8
YODOROGO
 10
27937.604341291921
 20
1568.5028573704751
 30
0.0
 11
27937.604341291921
 21
1588.5028573704751
 31
0.0
1001
AUTOCAD_POSTSCRIPT_FIGURE
1002
{
1000
PSFILL
1000
Grayscale
1000
Grayscale
1070
   100
1002
}
  0
LINE
  5
37B7
  8
YODOROGO
 10
27844.509588915738
 20
1568.5028573704751
 30
0.0
 11
27937.604341291921
 21
1568.5028573704751
 31
0.0
1001
AUTOCAD_POSTSCRIPT_FIGURE
1002
{
1000
PSFILL
1000
Grayscale
1000
Grayscale
1070
   100
1002
}
  0
LINE
  5
37B8
  8
YODOROGO
 10
27815.546718284771
 20
1495.7494964292871
 30
0.0
 11
27844.509588915738
 21
1568.5028573704751
 31
0.0
1001
AUTOCAD_POSTSCRIPT_FIGURE
1002
{
1000
PSFILL
1000
Grayscale
1000
Grayscale
1070
   100
1002
}
  0
LINE
  5
37B9
  8
YODOROGO
 10
27902.054790808648
 20
1495.7494964292871
 30
0.0
 11
27815.546718284771
 21
1495.7494964292871
 31
0.0
1001
AUTOCAD_POSTSCRIPT_FIGURE
1002
{
1000
PSFILL
1000
Grayscale
1000
Grayscale
1070
   100
1002
}
  0
LINE
  5
37BA
  8
YODOROGO
 10
27885.065004790951
 20
1536.2338106976929
 30
0.0
 11
27902.054790808648
 21
1495.7494964292871
 31
0.0
1001
AUTOCAD_POSTSCRIPT_FIGURE
1002
{
1000
PSFILL
1000
Grayscale
1000
Grayscale
1070
   100
1002
}
  0
LINE
  5
37BB
  8
YODOROGO
 10
27901.065004790951
 20
1536.2338106976929
 30
0.0
 11
27885.065004790951
 21
1536.2338106976929
 31
0.0
1001
AUTOCAD_POSTSCRIPT_FIGURE
1002
{
1000
PSFILL
1000
Grayscale
1000
Grayscale
1070
   100
1002
}
  0
LINE
  5
37BC
  8
YODOROGO
 10
27929.604341291921
 20
1475.7494964292871
 30
0.0
 11
27901.065004790951
 21
1536.2338106976929
 31
0.0
1001
AUTOCAD_POSTSCRIPT_FIGURE
1002
{
1000
PSFILL
1000
Grayscale
1000
Grayscale
1070
   100
1002
}
  0
LINE
  5
37BD
  8
YODOROGO
 10
27785.604341291921
 20
1475.7494964292871
 30
0.0
 11
27929.604341291921
 21
1475.7494964292871
 31
0.0
1001
AUTOCAD_POSTSCRIPT_FIGURE
1002
{
1000
PSFILL
1000
Grayscale
1000
Grayscale
1070
   100
1002
}
  0
LINE
  5
37BE
  8
YODOROGO
 10
27777.604341291921
 20
1619.9724140445701
 30
0.0
 11
27777.604341291921
 21
1643.9724140445701
 31
0.0
  0
LINE
  5
37BF
  8
YODOROGO
 10
27937.604341291921
 20
1643.9724140445701
 30
0.0
 11
27937.604341291921
 21
1619.9724140445701
 31
0.0
  0
ARC
  5
37C0
  8
YODOROGO
 10
28225.940442146959
 20
1600.877765325326
 30
0.0
 40
175.9999999999998
 50
280.3644312771313
 51
3.5414836592180561
  0
ARC
  5
37C1
  8
YODOROGO
 10
28235.756030759301
 20
1633.5978069619041
 30
0.0
 40
111.9999999999982
 50
281.24905825041549
 51
348.75094174958321
  0
LINE
  5
37C2
  8
YODOROGO
 10
28257.604341291921
 20
1523.7494964292871
 30
0.0
 11
28257.604341291921
 21
1427.749496429288
 31
0.0
  0
LINE
  5
37C3
  8
YODOROGO
 10
28020.088903736909
 20
1610.650565061914
 30
0.0
 11
28040.913204016892
 21
1659.749496429288
 31
0.0
  0
LINE
  5
37C4
  8
YODOROGO
 10
28041.604341291921
 20
1583.120489948401
 30
0.0
 11
28020.088903736909
 21
1610.650565061914
 31
0.0
  0
LINE
  5
37C5
  8
YODOROGO
 10
28041.604341291921
 20
1563.120489948398
 30
0.0
 11
28041.604341291921
 21
1583.120489948401
 31
0.0
  0
LINE
  5
37C6
  8
YODOROGO
 10
28017.604341291921
 20
1585.2370637495301
 30
0.0
 11
28041.604341291921
 21
1563.120489948398
 31
0.0
  0
LINE
  5
37C7
  8
YODOROGO
 10
28017.604341291921
 20
1475.7494964292871
 30
0.0
 11
28017.604341291921
 21
1585.2370637495301
 31
0.0
  0
LINE
  5
37C8
  8
YODOROGO
 10
28001.604341291921
 20
1475.7494964292871
 30
0.0
 11
28017.604341291921
 21
1475.7494964292871
 31
0.0
  0
LINE
  5
37C9
  8
YODOROGO
 10
28001.604341291921
 20
1580.0053496897469
 30
0.0
 11
28001.604341291921
 21
1475.7494964292871
 31
0.0
  0
LINE
  5
37CA
  8
YODOROGO
 10
27977.604341291921
 20
1532.7680790334291
 30
0.0
 11
28001.604341291921
 21
1580.0053496897469
 31
0.0
  0
LINE
  5
37CB
  8
YODOROGO
 10
27977.604341291921
 20
1556.76807903343
 30
0.0
 11
27977.604341291921
 21
1532.7680790334291
 31
0.0
  0
LINE
  5
37CC
  8
YODOROGO
 10
28025.828774291349
 20
1667.749496429285
 30
0.0
 11
27977.604341291921
 21
1556.76807903343
 31
0.0
  0
LINE
  5
37CD
  8
YODOROGO
 10
27977.604341291921
 20
1667.749496429285
 30
0.0
 11
28025.828774291349
 21
1667.749496429285
 31
0.0
  0
LINE
  5
37CE
  8
YODOROGO
 10
28050.135520230899
 20
1655.5036372746561
 30
0.0
 11
28082.135520230921
 21
1655.5036372746561
 31
0.0
1001
AUTOCAD_POSTSCRIPT_FIGURE
1002
{
1000
PSFILL
1000
Grayscale
1000
Grayscale
1070
   100
1002
}
  0
LINE
  5
37CF
  8
YODOROGO
 10
28050.135520230899
 20
1631.5036372746561
 30
0.0
 11
28050.135520230899
 21
1655.5036372746561
 31
0.0
1001
AUTOCAD_POSTSCRIPT_FIGURE
1002
{
1000
PSFILL
1000
Grayscale
1000
Grayscale
1070
   100
1002
}
  0
LINE
  5
37D0
  8
YODOROGO
 10
28082.135520230921
 20
1631.5036372746561
 30
0.0
 11
28050.135520230899
 21
1631.5036372746561
 31
0.0
1001
AUTOCAD_POSTSCRIPT_FIGURE
1002
{
1000
PSFILL
1000
Grayscale
1000
Grayscale
1070
   100
1002
}
  0
LINE
  5
37D1
  8
YODOROGO
 10
28082.135520230921
 20
1499.749496429288
 30
0.0
 11
28082.135520230921
 21
1631.5036372746561
 31
0.0
1001
AUTOCAD_POSTSCRIPT_FIGURE
1002
{
1000
PSFILL
1000
Grayscale
1000
Grayscale
1070
   100
1002
}
  0
LINE
  5
37D2
  8
YODOROGO
 10
28050.135520230921
 20
1499.749496429288
 30
0.0
 11
28082.135520230921
 21
1499.749496429288
 31
0.0
1001
AUTOCAD_POSTSCRIPT_FIGURE
1002
{
1000
PSFILL
1000
Grayscale
1000
Grayscale
1070
   100
1002
}
  0
LINE
  5
37D3
  8
YODOROGO
 10
28050.135520230921
 20
1475.7494964292871
 30
0.0
 11
28050.135520230921
 21
1499.749496429288
 31
0.0
1001
AUTOCAD_POSTSCRIPT_FIGURE
1002
{
1000
PSFILL
1000
Grayscale
1000
Grayscale
1070
   100
1002
}
  0
LINE
  5
37D4
  8
YODOROGO
 10
28137.604341291921
 20
1475.7494964292871
 30
0.0
 11
28050.135520230921
 21
1475.7494964292871
 31
0.0
1001
AUTOCAD_POSTSCRIPT_FIGURE
1002
{
1000
PSFILL
1000
Grayscale
1000
Grayscale
1070
   100
1002
}
  0
LINE
  5
37D5
  8
YODOROGO
 10
28137.604341291921
 20
1499.749496429288
 30
0.0
 11
28137.604341291921
 21
1475.7494964292871
 31
0.0
1001
AUTOCAD_POSTSCRIPT_FIGURE
1002
{
1000
PSFILL
1000
Grayscale
1000
Grayscale
1070
   100
1002
}
  0
LINE
  5
37D6
  8
YODOROGO
 10
28098.135520230931
 20
1499.749496429288
 30
0.0
 11
28137.604341291921
 21
1499.749496429288
 31
0.0
1001
AUTOCAD_POSTSCRIPT_FIGURE
1002
{
1000
PSFILL
1000
Grayscale
1000
Grayscale
1070
   100
1002
}
  0
LINE
  5
37D7
  8
YODOROGO
 10
28098.135520230931
 20
1631.5036372746561
 30
0.0
 11
28098.135520230931
 21
1499.749496429288
 31
0.0
1001
AUTOCAD_POSTSCRIPT_FIGURE
1002
{
1000
PSFILL
1000
Grayscale
1000
Grayscale
1070
   100
1002
}
  0
LINE
  5
37D8
  8
YODOROGO
 10
28137.604341291921
 20
1631.5036372746561
 30
0.0
 11
28098.135520230931
 21
1631.5036372746561
 31
0.0
1001
AUTOCAD_POSTSCRIPT_FIGURE
1002
{
1000
PSFILL
1000
Grayscale
1000
Grayscale
1070
   100
1002
}
  0
LINE
  5
37D9
  8
YODOROGO
 10
28137.604341291921
 20
1655.5036372746561
 30
0.0
 11
28137.604341291921
 21
1631.5036372746561
 31
0.0
1001
AUTOCAD_POSTSCRIPT_FIGURE
1002
{
1000
PSFILL
1000
Grayscale
1000
Grayscale
1070
   100
1002
}
  0
LINE
  5
37DA
  8
YODOROGO
 10
28098.135520230931
 20
1655.5036372746561
 30
0.0
 11
28137.604341291921
 21
1655.5036372746561
 31
0.0
1001
AUTOCAD_POSTSCRIPT_FIGURE
1002
{
1000
PSFILL
1000
Grayscale
1000
Grayscale
1070
   100
1002
}
  0
LINE
  5
37DB
  8
YODOROGO
 10
28401.60434129191
 20
1667.749496429288
 30
0.0
 11
28345.604341291921
 21
1667.749496429288
 31
0.0
  0
LINE
  5
37DC
  8
YODOROGO
 10
28401.60434129191
 20
1611.749496429288
 30
0.0
 11
28401.60434129191
 21
1667.749496429288
 31
0.0
  0
LINE
  5
37DD
  8
YODOROGO
 10
28345.604341291921
 20
1667.749496429288
 30
0.0
 11
28345.604341291921
 21
1611.749496429288
 31
0.0
  0
ARC
  5
37DE
  8
YODOROGO
 10
28513.60434129191
 20
1507.749496429288
 30
0.0
 40
80.0
 50
180.0
 51
270.0
  0
ARC
  5
37DF
  8
YODOROGO
 10
28537.604341291921
 20
1563.7494964292871
 30
0.0
 40
40.0
 50
180.0
 51
270.0
  0
LINE
  5
37E0
  8
YODOROGO
 10
28561.604341291932
 20
1523.7494964292871
 30
0.0
 11
28537.604341291921
 21
1523.7494964292871
 31
0.0
  0
ARC
  5
37E1
  8
YODOROGO
 10
28561.604341291932
 20
1547.749496429285
 30
0.0
 40
23.999999999996358
 50
270.0
 51
0.0000000000054281
  0
LINE
  5
37E2
  8
YODOROGO
 10
27801.604341291921
 20
1890.786580793706
 30
0.0
 11
27777.604341291921
 21
1843.776747951672
 31
0.0
1001
AUTOCAD_POSTSCRIPT_FIGURE
1002
{
1000
PSFILL
1000
Grayscale
1000
Grayscale
1070
   100
1002
}
  0
LINE
  5
37E3
  8
YODOROGO
 10
27801.604341291921
 20
1747.749496429286
 30
0.0
 11
27801.604341291921
 21
1890.786580793706
 31
0.0
1001
AUTOCAD_POSTSCRIPT_FIGURE
1002
{
1000
PSFILL
1000
Grayscale
1000
Grayscale
1070
   100
1002
}
  0
LINE
  5
37E4
  8
YODOROGO
 10
27817.604341291921
 20
1747.749496429286
 30
0.0
 11
27801.604341291921
 21
1747.749496429286
 31
0.0
1001
AUTOCAD_POSTSCRIPT_FIGURE
1002
{
1000
PSFILL
1000
Grayscale
1000
Grayscale
1070
   100
1002
}
  0
LINE
  5
37E5
  8
YODOROGO
 10
27817.604341291921
 20
1893.7713320852661
 30
0.0
 11
27817.604341291921
 21
1747.749496429286
 31
0.0
1001
AUTOCAD_POSTSCRIPT_FIGURE
1002
{
1000
PSFILL
1000
Grayscale
1000
Grayscale
1070
   100
1002
}
  0
LINE
  5
37E6
  8
YODOROGO
 10
27841.604341291921
 20
1867.6547582841361
 30
0.0
 11
27817.604341291921
 21
1893.7713320852661
 31
0.0
1001
AUTOCAD_POSTSCRIPT_FIGURE
1002
{
1000
PSFILL
1000
Grayscale
1000
Grayscale
1070
   100
1002
}
  0
LINE
  5
37E7
  8
YODOROGO
 10
27841.604341291921
 20
1883.6547582841361
 30
0.0
 11
27841.604341291921
 21
1867.6547582841361
 31
0.0
1001
AUTOCAD_POSTSCRIPT_FIGURE
1002
{
1000
PSFILL
1000
Grayscale
1000
Grayscale
1070
   100
1002
}
  0
LINE
  5
37E8
  8
YODOROGO
 10
27817.604341291921
 20
1917.7713320852649
 30
0.0
 11
27841.604341291921
 21
1883.6547582841361
 31
0.0
1001
AUTOCAD_POSTSCRIPT_FIGURE
1002
{
1000
PSFILL
1000
Grayscale
1000
Grayscale
1070
   100
1002
}
  0
LINE
  5
37E9
  8
YODOROGO
 10
27817.604341291921
 20
1939.749496429288
 30
0.0
 11
27817.604341291921
 21
1917.7713320852649
 31
0.0
1001
AUTOCAD_POSTSCRIPT_FIGURE
1002
{
1000
PSFILL
1000
Grayscale
1000
Grayscale
1070
   100
1002
}
  0
LINE
  5
37EA
  8
YODOROGO
 10
27889.604341291921
 20
1939.749496429288
 30
0.0
 11
27817.604341291921
 21
1939.749496429288
 31
0.0
1001
AUTOCAD_POSTSCRIPT_FIGURE
1002
{
1000
PSFILL
1000
Grayscale
1000
Grayscale
1070
   100
1002
}
  0
LINE
  5
37EB
  8
YODOROGO
 10
27889.604341291921
 20
1900.5683489363
 30
0.0
 11
27889.604341291921
 21
1939.749496429288
 31
0.0
1001
AUTOCAD_POSTSCRIPT_FIGURE
1002
{
1000
PSFILL
1000
Grayscale
1000
Grayscale
1070
   100
1002
}
  0
LINE
  5
37EC
  8
YODOROGO
 10
27857.604341291921
 20
1900.5683489363
 30
0.0
 11
27889.604341291921
 21
1900.5683489363
 31
0.0
1001
AUTOCAD_POSTSCRIPT_FIGURE
1002
{
1000
PSFILL
1000
Grayscale
1000
Grayscale
1070
   100
1002
}
  0
LINE
  5
37ED
  8
YODOROGO
 10
27857.604341291921
 20
1884.568348936298
 30
0.0
 11
27857.604341291921
 21
1900.5683489363
 31
0.0
1001
AUTOCAD_POSTSCRIPT_FIGURE
1002
{
1000
PSFILL
1000
Grayscale
1000
Grayscale
1070
   100
1002
}
  0
LINE
  5
37EE
  8
YODOROGO
 10
27889.604341291921
 20
1884.568348936298
 30
0.0
 11
27857.604341291921
 21
1884.568348936298
 31
0.0
1001
AUTOCAD_POSTSCRIPT_FIGURE
1002
{
1000
PSFILL
1000
Grayscale
1000
Grayscale
1070
   100
1002
}
  0
LINE
  5
37EF
  8
YODOROGO
 10
27889.604341291921
 20
1879.6191779644371
 30
0.0
 11
27889.604341291921
 21
1884.568348936298
 31
0.0
1001
AUTOCAD_POSTSCRIPT_FIGURE
1002
{
1000
PSFILL
1000
Grayscale
1000
Grayscale
1070
   100
1002
}
  0
LINE
  5
37F0
  8
YODOROGO
 10
27849.604341291921
 20
1812.974981161417
 30
0.0
 11
27889.604341291921
 21
1879.6191779644371
 31
0.0
1001
AUTOCAD_POSTSCRIPT_FIGURE
1002
{
1000
PSFILL
1000
Grayscale
1000
Grayscale
1070
   100
1002
}
  0
LINE
  5
37F1
  8
YODOROGO
 10
27849.604341291921
 20
1796.9749811614161
 30
0.0
 11
27849.604341291921
 21
1812.974981161417
 31
0.0
1001
AUTOCAD_POSTSCRIPT_FIGURE
1002
{
1000
PSFILL
1000
Grayscale
1000
Grayscale
1070
   100
1002
}
  0
LINE
  5
37F2
  8
YODOROGO
 10
27889.604341291921
 20
1847.6191779644359
 30
0.0
 11
27849.604341291921
 21
1796.9749811614161
 31
0.0
1001
AUTOCAD_POSTSCRIPT_FIGURE
1002
{
1000
PSFILL
1000
Grayscale
1000
Grayscale
1070
   100
1002
}
  0
LINE
  5
37F3
  8
YODOROGO
 10
27889.604341291921
 20
1747.749496429286
 30
0.0
 11
27889.604341291921
 21
1847.6191779644359
 31
0.0
1001
AUTOCAD_POSTSCRIPT_FIGURE
1002
{
1000
PSFILL
1000
Grayscale
1000
Grayscale
1070
   100
1002
}
  0
LINE
  5
37F4
  8
YODOROGO
 10
27905.604341291921
 20
1747.749496429286
 30
0.0
 11
27889.604341291921
 21
1747.749496429286
 31
0.0
1001
AUTOCAD_POSTSCRIPT_FIGURE
1002
{
1000
PSFILL
1000
Grayscale
1000
Grayscale
1070
   100
1002
}
  0
LINE
  5
37F5
  8
YODOROGO
 10
27905.604341291921
 20
1849.409012158806
 30
0.0
 11
27905.604341291921
 21
1747.749496429286
 31
0.0
1001
AUTOCAD_POSTSCRIPT_FIGURE
1002
{
1000
PSFILL
1000
Grayscale
1000
Grayscale
1070
   100
1002
}
  0
LINE
  5
37F6
  8
YODOROGO
 10
27937.604341291921
 20
1796.9749811614161
 30
0.0
 11
27905.604341291921
 21
1849.409012158806
 31
0.0
1001
AUTOCAD_POSTSCRIPT_FIGURE
1002
{
1000
PSFILL
1000
Grayscale
1000
Grayscale
1070
   100
1002
}
  0
LINE
  5
37F7
  8
YODOROGO
 10
27937.604341291921
 20
1812.974981161417
 30
0.0
 11
27937.604341291921
 21
1796.9749811614161
 31
0.0
1001
AUTOCAD_POSTSCRIPT_FIGURE
1002
{
1000
PSFILL
1000
Grayscale
1000
Grayscale
1070
   100
1002
}
  0
LINE
  5
37F8
  8
YODOROGO
 10
27905.604341291921
 20
1881.4090121588081
 30
0.0
 11
27937.604341291921
 21
1812.974981161417
 31
0.0
1001
AUTOCAD_POSTSCRIPT_FIGURE
1002
{
1000
PSFILL
1000
Grayscale
1000
Grayscale
1070
   100
1002
}
  0
LINE
  5
37F9
  8
YODOROGO
 10
27905.604341291921
 20
1884.5683489363
 30
0.0
 11
27905.604341291921
 21
1881.4090121588081
 31
0.0
1001
AUTOCAD_POSTSCRIPT_FIGURE
1002
{
1000
PSFILL
1000
Grayscale
1000
Grayscale
1070
   100
1002
}
  0
LINE
  5
37FA
  8
YODOROGO
 10
27937.604341291921
 20
1884.568348936298
 30
0.0
 11
27905.604341291921
 21
1884.5683489363
 31
0.0
1001
AUTOCAD_POSTSCRIPT_FIGURE
1002
{
1000
PSFILL
1000
Grayscale
1000
Grayscale
1070
   100
1002
}
  0
LINE
  5
37FB
  8
YODOROGO
 10
27937.604341291921
 20
1900.5683489363
 30
0.0
 11
27937.604341291921
 21
1884.568348936298
 31
0.0
1001
AUTOCAD_POSTSCRIPT_FIGURE
1002
{
1000
PSFILL
1000
Grayscale
1000
Grayscale
1070
   100
1002
}
  0
LINE
  5
37FC
  8
YODOROGO
 10
27905.604341291921
 20
1900.5683489363
 30
0.0
 11
27937.604341291921
 21
1900.5683489363
 31
0.0
1001
AUTOCAD_POSTSCRIPT_FIGURE
1002
{
1000
PSFILL
1000
Grayscale
1000
Grayscale
1070
   100
1002
}
  0
LINE
  5
37FD
  8
YODOROGO
 10
27905.604341291921
 20
1939.749496429288
 30
0.0
 11
27905.604341291921
 21
1900.5683489363
 31
0.0
1001
AUTOCAD_POSTSCRIPT_FIGURE
1002
{
1000
PSFILL
1000
Grayscale
1000
Grayscale
1070
   100
1002
}
  0
LINE
  5
37FE
  8
YODOROGO
 10
27937.604341291921
 20
1939.749496429288
 30
0.0
 11
27905.604341291921
 21
1939.749496429288
 31
0.0
1001
AUTOCAD_POSTSCRIPT_FIGURE
1002
{
1000
PSFILL
1000
Grayscale
1000
Grayscale
1070
   100
1002
}
  0
LINE
  5
37FF
  8
YODOROGO
 10
27937.604341291921
 20
1955.7494964292871
 30
0.0
 11
27937.604341291921
 21
1939.749496429288
 31
0.0
1001
AUTOCAD_POSTSCRIPT_FIGURE
1002
{
1000
PSFILL
1000
Grayscale
1000
Grayscale
1070
   100
1002
}
  0
LINE
  5
3800
  8
YODOROGO
 10
27905.604341291921
 20
1955.7494964292871
 30
0.0
 11
27937.604341291921
 21
1955.7494964292871
 31
0.0
1001
AUTOCAD_POSTSCRIPT_FIGURE
1002
{
1000
PSFILL
1000
Grayscale
1000
Grayscale
1070
   100
1002
}
  0
LINE
  5
3801
  8
YODOROGO
 10
27905.604341291921
 20
1979.749496429288
 30
0.0
 11
27905.604341291921
 21
1955.7494964292871
 31
0.0
1001
AUTOCAD_POSTSCRIPT_FIGURE
1002
{
1000
PSFILL
1000
Grayscale
1000
Grayscale
1070
   100
1002
}
  0
LINE
  5
3802
  8
YODOROGO
 10
27889.604341291921
 20
1979.749496429288
 30
0.0
 11
27905.604341291921
 21
1979.749496429288
 31
0.0
1001
AUTOCAD_POSTSCRIPT_FIGURE
1002
{
1000
PSFILL
1000
Grayscale
1000
Grayscale
1070
   100
1002
}
  0
LINE
  5
3803
  8
YODOROGO
 10
27889.604341291921
 20
1955.7494964292871
 30
0.0
 11
27889.604341291921
 21
1979.749496429288
 31
0.0
1001
AUTOCAD_POSTSCRIPT_FIGURE
1002
{
1000
PSFILL
1000
Grayscale
1000
Grayscale
1070
   100
1002
}
  0
LINE
  5
3804
  8
YODOROGO
 10
27865.604341291921
 20
1955.7494964292871
 30
0.0
 11
27889.604341291921
 21
1955.7494964292871
 31
0.0
1001
AUTOCAD_POSTSCRIPT_FIGURE
1002
{
1000
PSFILL
1000
Grayscale
1000
Grayscale
1070
   100
1002
}
  0
LINE
  5
3805
  8
YODOROGO
 10
27865.604341291921
 20
1979.749496429288
 30
0.0
 11
27865.604341291921
 21
1955.7494964292871
 31
0.0
1001
AUTOCAD_POSTSCRIPT_FIGURE
1002
{
1000
PSFILL
1000
Grayscale
1000
Grayscale
1070
   100
1002
}
  0
LINE
  5
3806
  8
YODOROGO
 10
27849.604341291921
 20
1979.749496429288
 30
0.0
 11
27865.604341291921
 21
1979.749496429288
 31
0.0
1001
AUTOCAD_POSTSCRIPT_FIGURE
1002
{
1000
PSFILL
1000
Grayscale
1000
Grayscale
1070
   100
1002
}
  0
LINE
  5
3807
  8
YODOROGO
 10
27849.604341291921
 20
1955.7494964292871
 30
0.0
 11
27849.604341291921
 21
1979.749496429288
 31
0.0
1001
AUTOCAD_POSTSCRIPT_FIGURE
1002
{
1000
PSFILL
1000
Grayscale
1000
Grayscale
1070
   100
1002
}
  0
LINE
  5
3808
  8
YODOROGO
 10
27817.604341291921
 20
1955.7494964292871
 30
0.0
 11
27849.604341291921
 21
1955.7494964292871
 31
0.0
1001
AUTOCAD_POSTSCRIPT_FIGURE
1002
{
1000
PSFILL
1000
Grayscale
1000
Grayscale
1070
   100
1002
}
  0
LINE
  5
3809
  8
YODOROGO
 10
27817.604341291921
 20
1979.749496429288
 30
0.0
 11
27817.604341291921
 21
1955.7494964292871
 31
0.0
1001
AUTOCAD_POSTSCRIPT_FIGURE
1002
{
1000
PSFILL
1000
Grayscale
1000
Grayscale
1070
   100
1002
}
  0
LINE
  5
380A
  8
YODOROGO
 10
27801.604341291921
 20
1979.749496429288
 30
0.0
 11
27817.604341291921
 21
1979.749496429288
 31
0.0
1001
AUTOCAD_POSTSCRIPT_FIGURE
1002
{
1000
PSFILL
1000
Grayscale
1000
Grayscale
1070
   100
1002
}
  0
LINE
  5
380B
  8
YODOROGO
 10
27801.604341291921
 20
1955.7494964292871
 30
0.0
 11
27801.604341291921
 21
1979.749496429288
 31
0.0
1001
AUTOCAD_POSTSCRIPT_FIGURE
1002
{
1000
PSFILL
1000
Grayscale
1000
Grayscale
1070
   100
1002
}
  0
LINE
  5
380C
  8
YODOROGO
 10
27777.604341291921
 20
1955.7494964292871
 30
0.0
 11
27801.604341291921
 21
1955.7494964292871
 31
0.0
1001
AUTOCAD_POSTSCRIPT_FIGURE
1002
{
1000
PSFILL
1000
Grayscale
1000
Grayscale
1070
   100
1002
}
  0
LINE
  5
380D
  8
YODOROGO
 10
27777.604341291921
 20
1939.749496429288
 30
0.0
 11
27777.604341291921
 21
1955.7494964292871
 31
0.0
1001
AUTOCAD_POSTSCRIPT_FIGURE
1002
{
1000
PSFILL
1000
Grayscale
1000
Grayscale
1070
   100
1002
}
  0
LINE
  5
380E
  8
YODOROGO
 10
27801.604341291921
 20
1939.749496429288
 30
0.0
 11
27777.604341291921
 21
1939.749496429288
 31
0.0
1001
AUTOCAD_POSTSCRIPT_FIGURE
1002
{
1000
PSFILL
1000
Grayscale
1000
Grayscale
1070
   100
1002
}
  0
LINE
  5
380F
  8
YODOROGO
 10
27801.604341291921
 20
1914.7865807937051
 30
0.0
 11
27801.604341291921
 21
1939.749496429288
 31
0.0
1001
AUTOCAD_POSTSCRIPT_FIGURE
1002
{
1000
PSFILL
1000
Grayscale
1000
Grayscale
1070
   100
1002
}
  0
LINE
  5
3810
  8
YODOROGO
 10
27777.604341291921
 20
1859.776747951671
 30
0.0
 11
27801.604341291921
 21
1914.7865807937051
 31
0.0
1001
AUTOCAD_POSTSCRIPT_FIGURE
1002
{
1000
PSFILL
1000
Grayscale
1000
Grayscale
1070
   100
1002
}
  0
LINE
  5
3811
  8
YODOROGO
 10
27777.604341291921
 20
1843.776747951672
 30
0.0
 11
27777.604341291921
 21
1859.776747951671
 31
0.0
1001
AUTOCAD_POSTSCRIPT_FIGURE
1002
{
1000
PSFILL
1000
Grayscale
1000
Grayscale
1070
   100
1002
}
  0
LINE
  5
3812
  8
YODOROGO
 10
28257.604341291921
 20
1867.7494964292871
 30
0.0
 11
28401.60434129191
 21
1824.877625640306
 31
0.0
1001
AUTOCAD_POSTSCRIPT_FIGURE
1002
{
1000
PSFILL
1000
Grayscale
1000
Grayscale
1070
   100
1002
}
  0
LINE
  5
3813
  8
YODOROGO
 10
28401.60434129191
 20
1752.877625640306
 30
0.0
 11
28257.604341291921
 21
1795.7494964292871
 31
0.0
1001
AUTOCAD_POSTSCRIPT_FIGURE
1002
{
1000
PSFILL
1000
Grayscale
1000
Grayscale
1070
   100
1002
}
  0
LINE
  5
3814
  8
YODOROGO
 10
28401.60434129191
 20
1984.877625640306
 30
0.0
 11
28257.604341291921
 21
2027.749496429288
 31
0.0
1001
AUTOCAD_POSTSCRIPT_FIGURE
1002
{
1000
PSFILL
1000
Grayscale
1000
Grayscale
1070
   100
1002
}
  0
LINE
  5
3815
  8
YODOROGO
 10
28257.604341291921
 20
1959.749496429288
 30
0.0
 11
28401.60434129191
 21
1916.8776256403071
 31
0.0
1001
AUTOCAD_POSTSCRIPT_FIGURE
1002
{
1000
PSFILL
1000
Grayscale
1000
Grayscale
1070
   100
1002
}
  0
LINE
  5
3816
  8
YODOROGO
 10
28257.604341291921
 20
1795.7494964292871
 30
0.0
 11
28257.604341291921
 21
1867.7494964292871
 31
0.0
1001
AUTOCAD_POSTSCRIPT_FIGURE
1002
{
1000
PSFILL
1000
Grayscale
1000
Grayscale
1070
   100
1002
}
  0
LINE
  5
3817
  8
YODOROGO
 10
28257.604341291921
 20
2027.749496429288
 30
0.0
 11
28257.604341291921
 21
1959.749496429288
 31
0.0
1001
AUTOCAD_POSTSCRIPT_FIGURE
1002
{
1000
PSFILL
1000
Grayscale
1000
Grayscale
1070
   100
1002
}
  0
LINE
  5
3818
  8
YODOROGO
 10
28080.236320206739
 20
1939.749496429288
 30
0.0
 11
28129.60434129191
 21
1747.749496429286
 31
0.0
1001
AUTOCAD_POSTSCRIPT_FIGURE
1002
{
1000
PSFILL
1000
Grayscale
1000
Grayscale
1070
   100
1002
}
  0
LINE
  5
3819
  8
YODOROGO
 10
27977.604341291921
 20
1939.749496429288
 30
0.0
 11
28080.236320206739
 21
1939.749496429288
 31
0.0
1001
AUTOCAD_POSTSCRIPT_FIGURE
1002
{
1000
PSFILL
1000
Grayscale
1000
Grayscale
1070
   100
1002
}
  0
LINE
  5
381A
  8
YODOROGO
 10
27977.604341291921
 20
1955.7494964292871
 30
0.0
 11
27977.604341291921
 21
1939.749496429288
 31
0.0
1001
AUTOCAD_POSTSCRIPT_FIGURE
1002
{
1000
PSFILL
1000
Grayscale
1000
Grayscale
1070
   100
1002
}
  0
LINE
  5
381B
  8
YODOROGO
 10
28076.60687851991
 20
1955.7494964292871
 30
0.0
 11
27977.604341291921
 21
1955.7494964292871
 31
0.0
1001
AUTOCAD_POSTSCRIPT_FIGURE
1002
{
1000
PSFILL
1000
Grayscale
1000
Grayscale
1070
   100
1002
}
  0
LINE
  5
381C
  8
YODOROGO
 10
28071.162715989711
 20
1979.749496429288
 30
0.0
 11
28076.60687851991
 21
1955.7494964292871
 31
0.0
1001
AUTOCAD_POSTSCRIPT_FIGURE
1002
{
1000
PSFILL
1000
Grayscale
1000
Grayscale
1070
   100
1002
}
  0
LINE
  5
381D
  8
YODOROGO
 10
28091.162715989711
 20
1979.749496429288
 30
0.0
 11
28071.162715989711
 21
1979.749496429288
 31
0.0
1001
AUTOCAD_POSTSCRIPT_FIGURE
1002
{
1000
PSFILL
1000
Grayscale
1000
Grayscale
1070
   100
1002
}
  0
LINE
  5
381E
  8
YODOROGO
 10
28095.806878519939
 20
1955.7494964292871
 30
0.0
 11
28091.162715989711
 21
1979.749496429288
 31
0.0
1001
AUTOCAD_POSTSCRIPT_FIGURE
1002
{
1000
PSFILL
1000
Grayscale
1000
Grayscale
1070
   100
1002
}
  0
LINE
  5
381F
  8
YODOROGO
 10
28121.604341291921
 20
1955.7494964292871
 30
0.0
 11
28095.806878519939
 21
1955.7494964292871
 31
0.0
1001
AUTOCAD_POSTSCRIPT_FIGURE
1002
{
1000
PSFILL
1000
Grayscale
1000
Grayscale
1070
   100
1002
}
  0
LINE
  5
3820
  8
YODOROGO
 10
28121.604341291921
 20
1979.749496429288
 30
0.0
 11
28121.604341291921
 21
1955.7494964292871
 31
0.0
1001
AUTOCAD_POSTSCRIPT_FIGURE
1002
{
1000
PSFILL
1000
Grayscale
1000
Grayscale
1070
   100
1002
}
  0
LINE
  5
3821
  8
YODOROGO
 10
28137.604341291921
 20
1979.749496429288
 30
0.0
 11
28121.604341291921
 21
1979.749496429288
 31
0.0
1001
AUTOCAD_POSTSCRIPT_FIGURE
1002
{
1000
PSFILL
1000
Grayscale
1000
Grayscale
1070
   100
1002
}
  0
LINE
  5
3822
  8
YODOROGO
 10
28137.604341291921
 20
1955.7494964292871
 30
0.0
 11
28137.604341291921
 21
1979.749496429288
 31
0.0
1001
AUTOCAD_POSTSCRIPT_FIGURE
1002
{
1000
PSFILL
1000
Grayscale
1000
Grayscale
1070
   100
1002
}
  0
LINE
  5
3823
  8
YODOROGO
 10
28137.604341291921
 20
1939.749496429288
 30
0.0
 11
28137.604341291921
 21
1955.7494964292871
 31
0.0
1001
AUTOCAD_POSTSCRIPT_FIGURE
1002
{
1000
PSFILL
1000
Grayscale
1000
Grayscale
1070
   100
1002
}
  0
LINE
  5
3824
  8
YODOROGO
 10
28098.902986873411
 20
1939.749496429288
 30
0.0
 11
28137.604341291921
 21
1939.749496429288
 31
0.0
1001
AUTOCAD_POSTSCRIPT_FIGURE
1002
{
1000
PSFILL
1000
Grayscale
1000
Grayscale
1070
   100
1002
}
  0
LINE
  5
3825
  8
YODOROGO
 10
28137.604341291921
 20
1747.749496429286
 30
0.0
 11
28098.902986873411
 21
1939.749496429288
 31
0.0
1001
AUTOCAD_POSTSCRIPT_FIGURE
1002
{
1000
PSFILL
1000
Grayscale
1000
Grayscale
1070
   100
1002
}
  0
LINE
  5
3826
  8
YODOROGO
 10
28129.60434129191
 20
1747.749496429286
 30
0.0
 11
28137.604341291921
 21
1747.749496429286
 31
0.0
1001
AUTOCAD_POSTSCRIPT_FIGURE
1002
{
1000
PSFILL
1000
Grayscale
1000
Grayscale
1070
   100
1002
}
  0
LINE
  5
3827
  8
YODOROGO
 10
28078.06921993379
 20
1775.7407762987939
 30
0.0
 11
27977.604341291921
 21
1747.749496429286
 31
0.0
  0
LINE
  5
3828
  8
YODOROGO
 10
28078.06921993379
 20
1798.6689795290731
 30
0.0
 11
28078.06921993379
 21
1775.7407762987939
 31
0.0
  0
LINE
  5
3829
  8
YODOROGO
 10
28033.83678061287
 20
1786.816933133767
 30
0.0
 11
28078.06921993379
 21
1798.6689795290731
 31
0.0
  0
LINE
  5
382A
  8
YODOROGO
 10
28033.83678061287
 20
1872.5683489362989
 30
0.0
 11
28033.83678061287
 21
1786.816933133767
 31
0.0
  0
LINE
  5
382B
  8
YODOROGO
 10
28078.06921993379
 20
1872.5683489362989
 30
0.0
 11
28033.83678061287
 21
1872.5683489362989
 31
0.0
  0
LINE
  5
382C
  8
YODOROGO
 10
28078.06921993379
 20
1892.568348936298
 30
0.0
 11
28078.06921993379
 21
1872.5683489362989
 31
0.0
  0
LINE
  5
382D
  8
YODOROGO
 10
27977.604341291921
 20
1892.568348936298
 30
0.0
 11
28078.06921993379
 21
1892.568348936298
 31
0.0
  0
LINE
  5
382E
  8
YODOROGO
 10
27977.604341291921
 20
1872.5683489362989
 30
0.0
 11
27977.604341291921
 21
1892.568348936298
 31
0.0
  0
LINE
  5
382F
  8
YODOROGO
 10
28021.836780612852
 20
1872.5683489362989
 30
0.0
 11
27977.604341291921
 21
1872.5683489362989
 31
0.0
  0
LINE
  5
3830
  8
YODOROGO
 10
28021.836780612852
 20
1784.673339594317
 30
0.0
 11
28021.836780612852
 21
1872.5683489362989
 31
0.0
  0
LINE
  5
3831
  8
YODOROGO
 10
27977.604341291921
 20
1771.749496429286
 30
0.0
 11
28021.836780612852
 21
1784.673339594317
 31
0.0
  0
LINE
  5
3832
  8
YODOROGO
 10
27977.604341291921
 20
1747.749496429286
 30
0.0
 11
27977.604341291921
 21
1771.749496429286
 31
0.0
  0
LINE
  5
3833
  8
YODOROGO
 10
28001.604341291921
 20
1707.749496429288
 30
0.0
 11
28001.604341291921
 21
1683.7494964292871
 31
0.0
  0
LINE
  5
3834
  8
YODOROGO
 10
28017.604341291921
 20
1707.749496429288
 30
0.0
 11
28001.604341291921
 21
1707.749496429288
 31
0.0
  0
LINE
  5
3835
  8
YODOROGO
 10
28017.604341291921
 20
1683.7494964292871
 30
0.0
 11
28017.604341291921
 21
1707.749496429288
 31
0.0
  0
LINE
  5
3836
  8
YODOROGO
 10
28040.913204016892
 20
1683.7494964292871
 30
0.0
 11
28017.604341291921
 21
1683.7494964292871
 31
0.0
  0
LINE
  5
3837
  8
YODOROGO
 10
28001.604341291921
 20
1683.7494964292871
 30
0.0
 11
27977.604341291921
 21
1683.7494964292871
 31
0.0
  0
LINE
  5
3838
  8
YODOROGO
 10
28082.135520230921
 20
1707.749496429288
 30
0.0
 11
28098.135520230931
 21
1707.749496429288
 31
0.0
1001
AUTOCAD_POSTSCRIPT_FIGURE
1002
{
1000
PSFILL
1000
Grayscale
1000
Grayscale
1070
   100
1002
}
  0
LINE
  5
3839
  8
YODOROGO
 10
28401.60434129191
 20
1824.877625640306
 30
0.0
 11
28401.60434129191
 21
1752.877625640306
 31
0.0
1001
AUTOCAD_POSTSCRIPT_FIGURE
1002
{
1000
PSFILL
1000
Grayscale
1000
Grayscale
1070
   100
1002
}
  0
LINE
  5
383A
  8
YODOROGO
 10
28401.60434129191
 20
1916.8776256403071
 30
0.0
 11
28401.60434129191
 21
1984.877625640306
 31
0.0
1001
AUTOCAD_POSTSCRIPT_FIGURE
1002
{
1000
PSFILL
1000
Grayscale
1000
Grayscale
1070
   100
1002
}
  0
LINE
  5
383B
  8
YODOROGO
 10
28433.60434129191
 20
1819.7494964292871
 30
0.0
 11
28433.60434129191
 21
1747.74949642929
 31
0.0
  0
LINE
  5
383C
  8
YODOROGO
 10
28497.60434129191
 20
1707.749496429288
 30
0.0
 11
28433.60434129191
 21
1707.749496429288
 31
0.0
  0
LINE
  5
383D
  8
YODOROGO
 10
28433.60434129191
 20
1747.74949642929
 30
0.0
 11
28585.604341291921
 21
1747.74949642929
 31
0.0
  0
LINE
  5
383E
  8
YODOROGO
 10
28497.60434129191
 20
1867.7494964292871
 30
0.0
 11
28433.60434129191
 21
1867.7494964292871
 31
0.0
  0
LINE
  5
383F
  8
YODOROGO
 10
28497.60434129191
 20
1923.7494964292871
 30
0.0
 11
28497.60434129191
 21
1867.7494964292871
 31
0.0
  0
LINE
  5
3840
  8
YODOROGO
 10
28585.604341291921
 20
1987.7494964292871
 30
0.0
 11
28585.604341291921
 21
2027.749496429288
 31
0.0
  0
LINE
  5
3841
  8
YODOROGO
 10
28433.60434129191
 20
1987.7494964292871
 30
0.0
 11
28585.604341291921
 21
1987.7494964292871
 31
0.0
  0
LINE
  5
3842
  8
YODOROGO
 10
28433.60434129191
 20
1867.7494964292871
 30
0.0
 11
28433.60434129191
 21
1987.7494964292871
 31
0.0
  0
LINE
  5
3843
  8
YODOROGO
 10
29001.60434129191
 20
2027.749496429288
 30
0.0
 11
29001.60434129191
 21
1619.749496429288
 31
0.0
  0
LINE
  5
3844
  8
YODOROGO
 10
29073.604341291921
 20
1579.749496429288
 30
0.0
 11
29073.604341291921
 21
2027.749496429288
 31
0.0
  0
LINE
  5
3845
  8
YODOROGO
 10
29261.604341291921
 20
1491.749496429286
 30
0.0
 11
29261.604341291921
 21
2007.749496429288
 31
0.0
  0
LINE
  5
3846
  8
YODOROGO
 10
29197.604341291921
 20
2007.749496429288
 30
0.0
 11
29197.604341291921
 21
1491.749496429286
 31
0.0
  0
LINE
  5
3847
  8
YODOROGO
 10
29385.604341291921
 20
2027.749496429288
 30
0.0
 11
29385.604341291921
 21
1427.749496429288
 31
0.0
  0
LINE
  5
3848
  8
YODOROGO
 10
29457.604341291921
 20
1427.749496429288
 30
0.0
 11
29457.604341291921
 21
2027.749496429288
 31
0.0
  0
LINE
  5
3849
  8
YODOROGO
 10
28657.604341291921
 20
1667.749496429288
 30
0.0
 11
28657.604341291921
 21
1747.74949642929
 31
0.0
  0
LINE
  5
384A
  8
YODOROGO
 10
29885.604341291921
 20
1707.749496429288
 30
0.0
 11
29885.604341291921
 21
1667.749496429288
 31
0.0
  0
LINE
  5
384B
  8
YODOROGO
 10
29885.604341291921
 20
1707.749496429288
 30
0.0
 11
29885.604341291921
 21
1667.749496429288
 31
0.0
  0
ARC
  5
384C
  8
YODOROGO
 10
28906.911576186842
 20
1618.217864442272
 30
0.0
 40
94.705151178741644
 50
274.05244162907098
 51
0.9266642149310712
  0
ARC
  5
384D
  8
YODOROGO
 10
28909.186170719819
 20
1592.61072861044
 30
0.0
 40
164.92042356085511
 50
271.5351210653775
 51
355.52727750585052
  0
LINE
  5
384E
  8
YODOROGO
 10
28913.604341291921
 20
1523.7494964292871
 30
0.0
 11
28913.604341291921
 21
1427.749496429288
 31
0.0
  0
LINE
  5
384F
  8
YODOROGO
 10
28793.60434129191
 20
1667.749496429288
 30
0.0
 11
28657.604341291921
 21
1667.749496429288
 31
0.0
  0
LINE
  5
3850
  8
YODOROGO
 10
28793.60434129191
 20
1603.7494964292871
 30
0.0
 11
28793.60434129191
 21
1667.749496429288
 31
0.0
  0
LINE
  5
3851
  8
YODOROGO
 10
28657.604341291921
 20
1603.7494964292871
 30
0.0
 11
28793.60434129191
 21
1603.7494964292871
 31
0.0
  0
LINE
  5
3852
  8
YODOROGO
 10
28657.604341291921
 20
1523.7494964292871
 30
0.0
 11
28657.604341291921
 21
1603.7494964292871
 31
0.0
  0
LINE
  5
3853
  8
YODOROGO
 10
28793.60434129191
 20
1523.7494964292871
 30
0.0
 11
28657.604341291921
 21
1523.7494964292871
 31
0.0
  0
LINE
  5
3854
  8
YODOROGO
 10
28793.60434129191
 20
1427.749496429288
 30
0.0
 11
28793.60434129191
 21
1523.7494964292871
 31
0.0
  0
LINE
  5
3855
  8
YODOROGO
 10
29197.604341291921
 20
1491.749496429286
 30
0.0
 11
29261.604341291921
 21
1491.749496429286
 31
0.0
  0
LINE
  5
3856
  8
YODOROGO
 10
29385.604341291921
 20
1427.749496429288
 30
0.0
 11
29457.604341291921
 21
1427.749496429288
 31
0.0
  0
LINE
  5
3857
  8
YODOROGO
 10
29737.604341291921
 20
1528.4414521705639
 30
0.0
 11
29737.604341291921
 21
1427.749496429288
 31
0.0
  0
LINE
  5
3858
  8
YODOROGO
 10
29617.604341291921
 20
1427.749496429288
 30
0.0
 11
29737.604341291921
 21
1528.4414521705639
 31
0.0
  0
LINE
  5
3859
  8
YODOROGO
 10
29617.604341291921
 20
1547.749496429288
 30
0.0
 11
29617.604341291921
 21
1427.749496429288
 31
0.0
  0
LINE
  5
385A
  8
YODOROGO
 10
29712.94462869945
 20
1627.749496429288
 30
0.0
 11
29617.604341291921
 21
1547.749496429288
 31
0.0
  0
LINE
  5
385B
  8
YODOROGO
 10
29617.604341291921
 20
1627.749496429288
 30
0.0
 11
29712.94462869945
 21
1627.749496429288
 31
0.0
  0
LINE
  5
385C
  8
YODOROGO
 10
29617.604341291921
 20
1667.749496429288
 30
0.0
 11
29617.604341291921
 21
1627.749496429288
 31
0.0
  0
LINE
  5
385D
  8
YODOROGO
 10
29885.604341291921
 20
1667.749496429288
 30
0.0
 11
29617.604341291921
 21
1667.749496429288
 31
0.0
  0
LINE
  5
385E
  8
YODOROGO
 10
29917.604341291921
 20
1627.749496429288
 30
0.0
 11
29777.604341291921
 21
1627.749496429288
 31
0.0
  0
LINE
  5
385F
  8
YODOROGO
 10
29777.604341291921
 20
1562.0054374176559
 30
0.0
 11
29771.409872985321
 21
1556.807661346234
 31
0.0
  0
LINE
  5
3860
  8
YODOROGO
 10
29777.604341291921
 20
1627.749496429288
 30
0.0
 11
29777.604341291921
 21
1562.0054374176559
 31
0.0
  0
LINE
  5
3861
  8
YODOROGO
 10
29737.604341291921
 20
1528.4414521705639
 30
0.0
 11
29737.604341291921
 21
1427.749496429288
 31
0.0
  0
LINE
  5
3862
  8
YODOROGO
 10
29617.604341291921
 20
1427.749496429288
 30
0.0
 11
29737.604341291921
 21
1528.4414521705639
 31
0.0
  0
LINE
  5
3863
  8
YODOROGO
 10
29617.604341291921
 20
1547.749496429288
 30
0.0
 11
29617.604341291921
 21
1427.749496429288
 31
0.0
  0
LINE
  5
3864
  8
YODOROGO
 10
29712.94462869945
 20
1627.749496429288
 30
0.0
 11
29617.604341291921
 21
1547.749496429288
 31
0.0
  0
LINE
  5
3865
  8
YODOROGO
 10
29617.604341291921
 20
1627.749496429288
 30
0.0
 11
29712.94462869945
 21
1627.749496429288
 31
0.0
  0
LINE
  5
3866
  8
YODOROGO
 10
29617.604341291921
 20
1667.749496429288
 30
0.0
 11
29617.604341291921
 21
1627.749496429288
 31
0.0
  0
LINE
  5
3867
  8
YODOROGO
 10
29885.604341291921
 20
1667.749496429288
 30
0.0
 11
29617.604341291921
 21
1667.749496429288
 31
0.0
  0
LINE
  5
3868
  8
YODOROGO
 10
28793.60434129191
 20
1747.74949642929
 30
0.0
 11
28793.60434129191
 21
1819.7494964292871
 31
0.0
  0
LINE
  5
3869
  8
YODOROGO
 10
28657.604341291921
 20
1747.74949642929
 30
0.0
 11
28793.60434129191
 21
1747.74949642929
 31
0.0
  0
LINE
  5
386A
  8
YODOROGO
 10
28729.604341291921
 20
1867.7494964292871
 30
0.0
 11
28729.604341291921
 21
1923.7494964292871
 31
0.0
  0
LINE
  5
386B
  8
YODOROGO
 10
28793.60434129191
 20
1867.7494964292871
 30
0.0
 11
28729.604341291921
 21
1867.7494964292871
 31
0.0
  0
LINE
  5
386C
  8
YODOROGO
 10
28793.60434129191
 20
1947.749496429288
 30
0.0
 11
28793.60434129191
 21
1867.7494964292871
 31
0.0
  0
ARC
  5
386D
  8
YODOROGO
 10
28753.60434129191
 20
1947.749496429288
 30
0.0
 40
40.0
 50
0.0
 51
90.0
  0
LINE
  5
386E
  8
YODOROGO
 10
28657.604341291921
 20
1987.7494964292871
 30
0.0
 11
28753.60434129191
 21
1987.7494964292871
 31
0.0
  0
LINE
  5
386F
  8
YODOROGO
 10
28657.604341291921
 20
2027.749496429288
 30
0.0
 11
28657.604341291921
 21
1987.7494964292871
 31
0.0
  0
LINE
  5
3870
  8
YODOROGO
 10
29073.604341291921
 20
2027.749496429288
 30
0.0
 11
29001.60434129191
 21
2027.749496429288
 31
0.0
  0
LINE
  5
3871
  8
YODOROGO
 10
29261.604341291921
 20
2007.749496429288
 30
0.0
 11
29197.604341291921
 21
2007.749496429288
 31
0.0
  0
LINE
  5
3872
  8
YODOROGO
 10
29457.604341291921
 20
2027.749496429288
 30
0.0
 11
29385.604341291921
 21
2027.749496429288
 31
0.0
  0
LINE
  5
3873
  8
YODOROGO
 10
29673.604341291921
 20
1707.749496429288
 30
0.0
 11
29673.604341291921
 21
1771.7494964292871
 31
0.0
1001
AUTOCAD_POSTSCRIPT_FIGURE
1002
{
1000
PSFILL
1000
Grayscale
1000
Grayscale
1070
    25
1002
}
  0
LINE
  5
3874
  8
YODOROGO
 10
29617.604341291921
 20
1707.749496429288
 30
0.0
 11
29673.604341291921
 21
1707.749496429288
 31
0.0
1001
AUTOCAD_POSTSCRIPT_FIGURE
1002
{
1000
PSFILL
1000
Grayscale
1000
Grayscale
1070
    25
1002
}
  0
LINE
  5
3875
  8
YODOROGO
 10
29617.604341291921
 20
1819.7494964292871
 30
0.0
 11
29617.604341291921
 21
1707.749496429288
 31
0.0
1001
AUTOCAD_POSTSCRIPT_FIGURE
1002
{
1000
PSFILL
1000
Grayscale
1000
Grayscale
1070
    25
1002
}
  0
LINE
  5
3876
  8
YODOROGO
 10
29765.604341291921
 20
1819.7494964292871
 30
0.0
 11
29617.604341291921
 21
1819.7494964292871
 31
0.0
1001
AUTOCAD_POSTSCRIPT_FIGURE
1002
{
1000
PSFILL
1000
Grayscale
1000
Grayscale
1070
    25
1002
}
  0
LINE
  5
3877
  8
YODOROGO
 10
29765.604341291921
 20
1859.749496429288
 30
0.0
 11
29765.604341291921
 21
1819.7494964292871
 31
0.0
1001
AUTOCAD_POSTSCRIPT_FIGURE
1002
{
1000
PSFILL
1000
Grayscale
1000
Grayscale
1070
    25
1002
}
  0
LINE
  5
3878
  8
YODOROGO
 10
29617.604341291921
 20
1859.749496429288
 30
0.0
 11
29765.604341291921
 21
1859.749496429288
 31
0.0
1001
AUTOCAD_POSTSCRIPT_FIGURE
1002
{
1000
PSFILL
1000
Grayscale
1000
Grayscale
1070
    25
1002
}
  0
LINE
  5
3879
  8
YODOROGO
 10
29617.604341291921
 20
1907.7494964292871
 30
0.0
 11
29617.604341291921
 21
1859.749496429288
 31
0.0
1001
AUTOCAD_POSTSCRIPT_FIGURE
1002
{
1000
PSFILL
1000
Grayscale
1000
Grayscale
1070
    25
1002
}
  0
LINE
  5
387A
  8
YODOROGO
 10
29765.604341291921
 20
1907.7494964292871
 30
0.0
 11
29617.604341291921
 21
1907.7494964292871
 31
0.0
1001
AUTOCAD_POSTSCRIPT_FIGURE
1002
{
1000
PSFILL
1000
Grayscale
1000
Grayscale
1070
    25
1002
}
  0
LINE
  5
387B
  8
YODOROGO
 10
29765.604341291921
 20
1947.749496429288
 30
0.0
 11
29765.604341291921
 21
1907.7494964292871
 31
0.0
1001
AUTOCAD_POSTSCRIPT_FIGURE
1002
{
1000
PSFILL
1000
Grayscale
1000
Grayscale
1070
    25
1002
}
  0
LINE
  5
387C
  8
YODOROGO
 10
29617.604341291921
 20
1947.749496429288
 30
0.0
 11
29765.604341291921
 21
1947.749496429288
 31
0.0
1001
AUTOCAD_POSTSCRIPT_FIGURE
1002
{
1000
PSFILL
1000
Grayscale
1000
Grayscale
1070
    25
1002
}
  0
LINE
  5
387D
  8
YODOROGO
 10
29617.604341291921
 20
2027.749496429288
 30
0.0
 11
29617.604341291921
 21
1947.749496429288
 31
0.0
1001
AUTOCAD_POSTSCRIPT_FIGURE
1002
{
1000
PSFILL
1000
Grayscale
1000
Grayscale
1070
    25
1002
}
  0
LINE
  5
387E
  8
YODOROGO
 10
29665.604341291921
 20
2027.749496429288
 30
0.0
 11
29617.604341291921
 21
2027.749496429288
 31
0.0
1001
AUTOCAD_POSTSCRIPT_FIGURE
1002
{
1000
PSFILL
1000
Grayscale
1000
Grayscale
1070
    25
1002
}
  0
LINE
  5
387F
  8
YODOROGO
 10
29665.604341291921
 20
1995.7494964292871
 30
0.0
 11
29665.604341291921
 21
2027.749496429288
 31
0.0
1001
AUTOCAD_POSTSCRIPT_FIGURE
1002
{
1000
PSFILL
1000
Grayscale
1000
Grayscale
1070
    25
1002
}
  0
LINE
  5
3880
  8
YODOROGO
 10
29765.604341291921
 20
1995.7494964292871
 30
0.0
 11
29665.604341291921
 21
1995.7494964292871
 31
0.0
1001
AUTOCAD_POSTSCRIPT_FIGURE
1002
{
1000
PSFILL
1000
Grayscale
1000
Grayscale
1070
    25
1002
}
  0
LINE
  5
3881
  8
YODOROGO
 10
29765.604341291921
 20
2027.749496429288
 30
0.0
 11
29765.604341291921
 21
1995.7494964292871
 31
0.0
1001
AUTOCAD_POSTSCRIPT_FIGURE
1002
{
1000
PSFILL
1000
Grayscale
1000
Grayscale
1070
    25
1002
}
  0
LINE
  5
3882
  8
YODOROGO
 10
29829.604341291921
 20
2027.749496429288
 30
0.0
 11
29765.604341291921
 21
2027.749496429288
 31
0.0
1001
AUTOCAD_POSTSCRIPT_FIGURE
1002
{
1000
PSFILL
1000
Grayscale
1000
Grayscale
1070
    25
1002
}
  0
LINE
  5
3883
  8
YODOROGO
 10
29829.604341291921
 20
1995.7494964292871
 30
0.0
 11
29829.604341291921
 21
2027.749496429288
 31
0.0
1001
AUTOCAD_POSTSCRIPT_FIGURE
1002
{
1000
PSFILL
1000
Grayscale
1000
Grayscale
1070
    25
1002
}
  0
LINE
  5
3884
  8
YODOROGO
 10
29829.604341291921
 20
1907.7494964292871
 30
0.0
 11
29829.604341291921
 21
1947.749496429288
 31
0.0
1001
AUTOCAD_POSTSCRIPT_FIGURE
1002
{
1000
PSFILL
1000
Grayscale
1000
Grayscale
1070
    25
1002
}
  0
LINE
  5
3885
  8
YODOROGO
 10
29829.604341291921
 20
1819.7494964292871
 30
0.0
 11
29829.604341291921
 21
1859.749496429288
 31
0.0
1001
AUTOCAD_POSTSCRIPT_FIGURE
1002
{
1000
PSFILL
1000
Grayscale
1000
Grayscale
1070
    25
1002
}
  0
LINE
  5
3886
  8
YODOROGO
 10
29921.60434129191
 20
1771.7494964292871
 30
0.0
 11
29921.60434129191
 21
1707.749496429288
 31
0.0
1001
AUTOCAD_POSTSCRIPT_FIGURE
1002
{
1000
PSFILL
1000
Grayscale
1000
Grayscale
1070
    25
1002
}
  0
LINE
  5
3887
  8
YODOROGO
 10
29829.604341291921
 20
1771.7494964292871
 30
0.0
 11
29921.60434129191
 21
1771.7494964292871
 31
0.0
1001
AUTOCAD_POSTSCRIPT_FIGURE
1002
{
1000
PSFILL
1000
Grayscale
1000
Grayscale
1070
    25
1002
}
  0
LINE
  5
3888
  8
YODOROGO
 10
29829.604341291921
 20
1707.749496429288
 30
0.0
 11
29829.604341291921
 21
1771.7494964292871
 31
0.0
1001
AUTOCAD_POSTSCRIPT_FIGURE
1002
{
1000
PSFILL
1000
Grayscale
1000
Grayscale
1070
    25
1002
}
  0
LINE
  5
3889
  8
YODOROGO
 10
29765.604341291921
 20
1707.749496429288
 30
0.0
 11
29829.604341291921
 21
1707.749496429288
 31
0.0
1001
AUTOCAD_POSTSCRIPT_FIGURE
1002
{
1000
PSFILL
1000
Grayscale
1000
Grayscale
1070
    25
1002
}
  0
LINE
  5
388A
  8
YODOROGO
 10
29765.604341291921
 20
1771.7494964292871
 30
0.0
 11
29765.604341291921
 21
1707.749496429288
 31
0.0
1001
AUTOCAD_POSTSCRIPT_FIGURE
1002
{
1000
PSFILL
1000
Grayscale
1000
Grayscale
1070
    25
1002
}
  0
LINE
  5
388B
  8
YODOROGO
 10
29673.604341291921
 20
1771.7494964292871
 30
0.0
 11
29765.604341291921
 21
1771.7494964292871
 31
0.0
1001
AUTOCAD_POSTSCRIPT_FIGURE
1002
{
1000
PSFILL
1000
Grayscale
1000
Grayscale
1070
    25
1002
}
  0
ARC
  5
388C
  8
YODOROGO
 10
31059.517893357912
 20
1602.6807375155761
 30
0.0
 40
178.22128111072141
 50
281.02627495425338
 51
357.77113575573799
  0
LINE
  5
388D
  8
YODOROGO
 10
31413.604341291921
 20
1907.7494964292871
 30
0.0
 11
31165.604341291921
 21
1907.7494964292871
 31
0.0
  0
LINE
  5
388E
  8
YODOROGO
 10
31413.604341291921
 20
2027.749496429288
 30
0.0
 11
31165.604341291921
 21
2027.749496429288
 31
0.0
  0
LINE
  5
388F
  8
YODOROGO
 10
31165.604341291921
 20
1963.749496429286
 30
0.0
 11
31413.604341291921
 21
1963.749496429286
 31
0.0
  0
LINE
  5
3890
  8
YODOROGO
 10
30791.604341291921
 20
1563.7494964292871
 30
0.0
 11
30791.604341291921
 21
1755.7494964292871
 31
0.0
  0
LINE
  5
3891
  8
YODOROGO
 10
30763.604341291921
 20
1691.749496429288
 30
0.0
 11
30763.604341291921
 21
1563.7494964292871
 31
0.0
  0
LINE
  5
3892
  8
YODOROGO
 10
30723.604341291921
 20
1491.749496429288
 30
0.0
 11
30723.604341291921
 21
1691.749496429288
 31
0.0
  0
LINE
  5
3893
  8
YODOROGO
 10
30899.604341291932
 20
1691.749496429288
 30
0.0
 11
30899.604341291932
 21
1491.749496429288
 31
0.0
  0
LINE
  5
3894
  8
YODOROGO
 10
30859.604341291932
 20
1563.7494964292871
 30
0.0
 11
30859.604341291932
 21
1691.749496429288
 31
0.0
  0
LINE
  5
3895
  8
YODOROGO
 10
30831.604341291921
 20
1755.7494964292871
 30
0.0
 11
30831.604341291921
 21
1563.7494964292871
 31
0.0
  0
LINE
  5
3896
  8
YODOROGO
 10
30973.604341291921
 20
2027.749496429288
 30
0.0
 11
30973.604341291921
 21
1467.749496429288
 31
0.0
  0
LINE
  5
3897
  8
YODOROGO
 10
30645.604341291921
 20
1427.749496429288
 30
0.0
 11
30645.604341291921
 21
2027.749496429288
 31
0.0
  0
LINE
  5
3898
  8
YODOROGO
 10
30697.604341291932
 20
1963.749496429286
 30
0.0
 11
30697.604341291932
 21
1427.749496429288
 31
0.0
  0
LINE
  5
3899
  8
YODOROGO
 10
30925.604341291921
 20
1547.749496429288
 30
0.0
 11
30925.604341291921
 21
1963.749496429286
 31
0.0
  0
LINE
  5
389A
  8
YODOROGO
 10
30381.604341291932
 20
1627.749496429288
 30
0.0
 11
30381.604341291932
 21
1679.749496429288
 31
0.0
  0
LINE
  5
389B
  8
YODOROGO
 10
30617.604341291921
 20
1679.749496429288
 30
0.0
 11
30617.604341291921
 21
1627.749496429288
 31
0.0
  0
LINE
  5
389C
  8
YODOROGO
 10
31165.604341291921
 20
1907.7494964292871
 30
0.0
 11
31165.604341291921
 21
1635.7494964292871
 31
0.0
  0
LINE
  5
389D
  8
YODOROGO
 10
29949.60434129191
 20
1667.749496429288
 30
0.0
 11
29949.60434129191
 21
1707.749496429288
 31
0.0
  0
LINE
  5
389E
  8
YODOROGO
 10
29949.60434129191
 20
1667.749496429288
 30
0.0
 11
29949.60434129191
 21
1707.749496429288
 31
0.0
  0
ARC
  5
389F
  8
YODOROGO
 10
30537.604341291921
 20
1507.749496429288
 30
0.0
 40
80.0
 50
270.0
 51
0.0
  0
LINE
  5
38A0
  8
YODOROGO
 10
30569.604341291921
 20
1599.7494964292871
 30
0.0
 11
30617.604341291921
 21
1599.7494964292871
 31
0.0
  0
LINE
  5
38A1
  8
YODOROGO
 10
30617.604341291921
 20
1627.749496429288
 30
0.0
 11
30529.604341291939
 21
1627.749496429288
 31
0.0
  0
LINE
  5
38A2
  8
YODOROGO
 10
30217.604341291921
 20
1667.749496429288
 30
0.0
 11
29949.60434129191
 21
1667.749496429288
 31
0.0
  0
LINE
  5
38A3
  8
YODOROGO
 10
30217.604341291921
 20
1627.749496429288
 30
0.0
 11
30217.604341291921
 21
1667.749496429288
 31
0.0
  0
LINE
  5
38A4
  8
YODOROGO
 10
30017.604341291921
 20
1627.749496429288
 30
0.0
 11
30217.604341291921
 21
1627.749496429288
 31
0.0
  0
ARC
  5
38A5
  8
YODOROGO
 10
30230.05882870136
 20
1868.885714952901
 30
0.0
 40
321.37763628522822
 50
228.6181454618993
 51
245.660289248906
  0
LINE
  5
38A6
  8
YODOROGO
 10
30105.604341291921
 20
1603.7494964292871
 30
0.0
 11
30097.60434129195
 21
1576.0728158699001
 31
0.0
  0
LINE
  5
38A7
  8
YODOROGO
 10
30189.604341291921
 20
1603.7494964292871
 30
0.0
 11
30105.604341291921
 21
1603.7494964292871
 31
0.0
  0
LINE
  5
38A8
  8
YODOROGO
 10
30177.604341291921
 20
1551.817722473427
 30
0.0
 11
30189.604341291921
 21
1603.7494964292871
 31
0.0
  0
ARC
  5
38A9
  8
YODOROGO
 10
30230.05882870045
 20
1868.885714953002
 30
0.0
 40
321.37763628529081
 50
260.60629297969911
 51
267.77903556555862
  0
LINE
  5
38AA
  8
YODOROGO
 10
30217.604341291921
 20
1427.749496429285
 30
0.0
 11
30217.604341291921
 21
1547.749496429288
 31
0.0
  0
LINE
  5
38AB
  8
YODOROGO
 10
29937.604341291932
 20
1481.3393349155101
 30
0.0
 11
29937.604341291921
 21
1594.531090531141
 31
0.0
  0
LINE
  5
38AC
  8
YODOROGO
 10
30217.604341291921
 20
1667.749496429288
 30
0.0
 11
29949.60434129191
 21
1667.749496429288
 31
0.0
  0
LINE
  5
38AD
  8
YODOROGO
 10
30217.604341291921
 20
1627.749496429288
 30
0.0
 11
30217.604341291921
 21
1667.749496429288
 31
0.0
  0
LINE
  5
38AE
  8
YODOROGO
 10
30017.604341291921
 20
1627.749496429288
 30
0.0
 11
30217.604341291921
 21
1627.749496429288
 31
0.0
  0
ARC
  5
38AF
  8
YODOROGO
 10
30230.05882870136
 20
1868.885714952901
 30
0.0
 40
321.37763628522822
 50
228.6181454618993
 51
245.660289248906
  0
LINE
  5
38B0
  8
YODOROGO
 10
30105.604341291921
 20
1603.7494964292871
 30
0.0
 11
30097.60434129195
 21
1576.0728158699001
 31
0.0
  0
LINE
  5
38B1
  8
YODOROGO
 10
30189.604341291921
 20
1603.7494964292871
 30
0.0
 11
30105.604341291921
 21
1603.7494964292871
 31
0.0
  0
LINE
  5
38B2
  8
YODOROGO
 10
30177.604341291921
 20
1551.817722473427
 30
0.0
 11
30189.604341291921
 21
1603.7494964292871
 31
0.0
  0
ARC
  5
38B3
  8
YODOROGO
 10
30230.05882870045
 20
1868.885714953002
 30
0.0
 40
321.37763628529081
 50
260.60629297969911
 51
267.77903556555862
  0
LINE
  5
38B4
  8
YODOROGO
 10
30217.604341291921
 20
1427.749496429285
 30
0.0
 11
30217.604341291921
 21
1547.749496429288
 31
0.0
  0
LINE
  5
38B5
  8
YODOROGO
 10
29937.604341291932
 20
1481.3393349155101
 30
0.0
 11
29937.604341291921
 21
1594.531090531141
 31
0.0
  0
LINE
  5
38B6
  8
YODOROGO
 10
30433.604341291921
 20
1573.749496429288
 30
0.0
 11
30381.604341291932
 21
1573.749496429288
 31
0.0
  0
LINE
  5
38B7
  8
YODOROGO
 10
30433.604341291921
 20
1601.749496429285
 30
0.0
 11
30433.604341291921
 21
1573.749496429288
 31
0.0
  0
LINE
  5
38B8
  8
YODOROGO
 10
30381.604341291932
 20
1601.749496429285
 30
0.0
 11
30433.604341291921
 21
1601.749496429285
 31
0.0
  0
LINE
  5
38B9
  8
YODOROGO
 10
30381.604341291932
 20
1573.749496429288
 30
0.0
 11
30381.604341291932
 21
1601.749496429285
 31
0.0
  0
LINE
  5
38BA
  8
YODOROGO
 10
30429.604341291921
 20
1577.7494964292871
 30
0.0
 11
30385.604341291921
 21
1577.7494964292871
 31
0.0
  0
LINE
  5
38BB
  8
YODOROGO
 10
30429.604341291921
 20
1597.749496429288
 30
0.0
 11
30429.604341291921
 21
1577.7494964292871
 31
0.0
  0
LINE
  5
38BC
  8
YODOROGO
 10
30385.604341291921
 20
1597.749496429288
 30
0.0
 11
30429.604341291921
 21
1597.749496429288
 31
0.0
  0
LINE
  5
38BD
  8
YODOROGO
 10
30385.604341291921
 20
1577.7494964292871
 30
0.0
 11
30385.604341291921
 21
1597.749496429288
 31
0.0
  0
LINE
  5
38BE
  8
YODOROGO
 10
30425.604341291921
 20
1581.749496429286
 30
0.0
 11
30389.604341291921
 21
1581.749496429286
 31
0.0
  0
LINE
  5
38BF
  8
YODOROGO
 10
30425.604341291921
 20
1593.749496429288
 30
0.0
 11
30425.604341291921
 21
1581.749496429286
 31
0.0
  0
LINE
  5
38C0
  8
YODOROGO
 10
30389.604341291921
 20
1593.749496429288
 30
0.0
 11
30425.604341291921
 21
1593.749496429288
 31
0.0
  0
LINE
  5
38C1
  8
YODOROGO
 10
30389.604341291921
 20
1581.749496429286
 30
0.0
 11
30389.604341291921
 21
1593.749496429288
 31
0.0
  0
LINE
  5
38C2
  8
YODOROGO
 10
30421.604341291932
 20
1585.7494964292871
 30
0.0
 11
30393.604341291921
 21
1585.7494964292871
 31
0.0
  0
LINE
  5
38C3
  8
YODOROGO
 10
30421.604341291932
 20
1589.749496429288
 30
0.0
 11
30421.604341291932
 21
1585.7494964292871
 31
0.0
  0
LINE
  5
38C4
  8
YODOROGO
 10
30393.604341291921
 20
1589.749496429288
 30
0.0
 11
30421.604341291932
 21
1589.749496429288
 31
0.0
  0
LINE
  5
38C5
  8
YODOROGO
 10
30393.604341291921
 20
1585.7494964292871
 30
0.0
 11
30393.604341291921
 21
1589.749496429288
 31
0.0
  0
LINE
  5
38C6
  8
YODOROGO
 10
30465.604341291921
 20
1627.749496429288
 30
0.0
 11
30381.604341291932
 21
1627.749496429288
 31
0.0
  0
LINE
  5
38C7
  8
YODOROGO
 10
30465.604341291921
 20
1547.749496429288
 30
0.0
 11
30465.604341291921
 21
1627.749496429288
 31
0.0
  0
LINE
  5
38C8
  8
YODOROGO
 10
30381.604341291932
 20
1547.749496429288
 30
0.0
 11
30465.604341291921
 21
1547.749496429288
 31
0.0
  0
LINE
  5
38C9
  8
YODOROGO
 10
30381.604341291932
 20
1427.749496429288
 30
0.0
 11
30381.604341291932
 21
1547.749496429288
 31
0.0
  0
LINE
  5
38CA
  8
YODOROGO
 10
30537.604341291921
 20
1427.749496429288
 30
0.0
 11
30381.604341291932
 21
1427.749496429288
 31
0.0
  0
LINE
  5
38CB
  8
YODOROGO
 10
30569.604341291921
 20
1571.749496429285
 30
0.0
 11
30569.604341291921
 21
1599.7494964292871
 31
0.0
  0
ARC
  5
38CC
  8
YODOROGO
 10
30545.604341291921
 20
1571.749496429291
 30
0.0
 40
24.000000000003752
 50
270.0
 51
359.99999999998772
  0
LINE
  5
38CD
  8
YODOROGO
 10
30529.604341291939
 20
1547.749496429288
 30
0.0
 11
30545.604341291921
 21
1547.749496429288
 31
0.0
  0
LINE
  5
38CE
  8
YODOROGO
 10
30529.604341291939
 20
1627.749496429288
 30
0.0
 11
30529.604341291939
 21
1547.749496429288
 31
0.0
  0
LINE
  5
38CF
  8
YODOROGO
 10
30899.604341291932
 20
1547.749496429288
 30
0.0
 11
30925.604341291921
 21
1547.749496429288
 31
0.0
  0
LINE
  5
38D0
  8
YODOROGO
 10
30933.604341291921
 20
1427.749496429288
 30
0.0
 11
30899.604341291932
 21
1427.749496429288
 31
0.0
  0
LINE
  5
38D1
  8
YODOROGO
 10
30763.604341291921
 20
1563.7494964292871
 30
0.0
 11
30791.604341291921
 21
1563.7494964292871
 31
0.0
  0
LINE
  5
38D2
  8
YODOROGO
 10
30899.604341291932
 20
1491.749496429288
 30
0.0
 11
30723.604341291921
 21
1491.749496429288
 31
0.0
  0
LINE
  5
38D3
  8
YODOROGO
 10
30831.604341291921
 20
1563.7494964292871
 30
0.0
 11
30859.604341291932
 21
1563.7494964292871
 31
0.0
  0
LINE
  5
38D4
  8
YODOROGO
 10
30899.604341291932
 20
1427.749496429288
 30
0.0
 11
30899.604341291932
 21
1547.749496429288
 31
0.0
  0
LINE
  5
38D5
  8
YODOROGO
 10
30697.604341291932
 20
1427.749496429288
 30
0.0
 11
30645.604341291921
 21
1427.749496429288
 31
0.0
  0
LINE
  5
38D6
  8
YODOROGO
 10
30617.604341291921
 20
1599.7494964292871
 30
0.0
 11
30617.604341291921
 21
1507.749496429288
 31
0.0
  0
ARC
  5
38D7
  8
YODOROGO
 10
30933.604341291921
 20
1467.749496429288
 30
0.0
 40
40.0
 50
270.0
 51
0.0
  0
LINE
  5
38D8
  8
YODOROGO
 10
31093.604341291921
 20
1523.7494964292871
 30
0.0
 11
31093.604341291921
 21
1427.749496429288
 31
0.0
  0
ARC
  5
38D9
  8
YODOROGO
 10
31039.721395566768
 20
1637.5313901097329
 30
0.0
 40
125.8955565916754
 50
295.34052442160112
 51
359.18902303418679
  0
LINE
  5
38DA
  8
YODOROGO
 10
30617.604341291921
 20
1859.749496429288
 30
0.0
 11
30497.604341291921
 21
1939.749496429288
 31
0.0
  0
LINE
  5
38DB
  8
YODOROGO
 10
30497.604341291921
 20
2027.749496429288
 30
0.0
 11
30617.604341291921
 21
1947.749496429288
 31
0.0
  0
LINE
  5
38DC
  8
YODOROGO
 10
30529.604341291939
 20
1679.749496429288
 30
0.0
 11
30617.604341291921
 21
1679.749496429288
 31
0.0
  0
LINE
  5
38DD
  8
YODOROGO
 10
30617.604341291921
 20
1735.7494964292871
 30
0.0
 11
30529.604341291939
 21
1735.7494964292871
 31
0.0
  0
LINE
  5
38DE
  8
YODOROGO
 10
30381.604341291932
 20
1795.7494964292871
 30
0.0
 11
30617.604341291921
 21
1795.7494964292871
 31
0.0
  0
LINE
  5
38DF
  8
YODOROGO
 10
30081.604341291921
 20
2027.749496429288
 30
0.0
 11
30021.604341291921
 21
2027.749496429288
 31
0.0
  0
LINE
  5
38E0
  8
YODOROGO
 10
30081.604341291921
 20
1827.7494964292871
 30
0.0
 11
30081.604341291921
 21
2027.749496429288
 31
0.0
  0
LINE
  5
38E1
  8
YODOROGO
 10
30021.604341291921
 20
1827.7494964292871
 30
0.0
 11
30081.604341291921
 21
1827.7494964292871
 31
0.0
  0
LINE
  5
38E2
  8
YODOROGO
 10
30021.604341291921
 20
2027.749496429288
 30
0.0
 11
30021.604341291921
 21
1827.7494964292871
 31
0.0
  0
LINE
  5
38E3
  8
YODOROGO
 10
30161.604341291921
 20
2027.749496429288
 30
0.0
 11
30217.604341291921
 21
2027.749496429288
 31
0.0
  0
LINE
  5
38E4
  8
YODOROGO
 10
30161.604341291921
 20
1811.749496429288
 30
0.0
 11
30161.604341291921
 21
2027.749496429288
 31
0.0
  0
ARC
  5
38E5
  8
YODOROGO
 10
30121.604341291921
 20
1811.749496429288
 30
0.0
 40
40.0
 50
270.0
 51
0.0
  0
LINE
  5
38E6
  8
YODOROGO
 10
30021.604341291921
 20
1771.7494964292871
 30
0.0
 11
30121.604341291921
 21
1771.7494964292871
 31
0.0
  0
LINE
  5
38E7
  8
YODOROGO
 10
30021.604341291921
 20
1707.749496429288
 30
0.0
 11
30021.604341291921
 21
1771.7494964292871
 31
0.0
  0
LINE
  5
38E8
  8
YODOROGO
 10
30137.604341291921
 20
1707.749496429288
 30
0.0
 11
30021.604341291921
 21
1707.749496429288
 31
0.0
  0
ARC
  5
38E9
  8
YODOROGO
 10
30137.604341291921
 20
1787.7494964292871
 30
0.0
 40
80.0
 50
270.0
 51
0.0
  0
LINE
  5
38EA
  8
YODOROGO
 10
30217.604341291921
 20
2027.749496429288
 30
0.0
 11
30217.604341291921
 21
1787.7494964292871
 31
0.0
  0
LINE
  5
38EB
  8
YODOROGO
 10
29977.604341291921
 20
1947.749496429288
 30
0.0
 11
29977.604341291921
 21
1995.7494964292871
 31
0.0
1001
AUTOCAD_POSTSCRIPT_FIGURE
1002
{
1000
PSFILL
1000
Grayscale
1000
Grayscale
1070
    25
1002
}
  0
LINE
  5
38EC
  8
YODOROGO
 10
29977.604341291921
 20
1859.749496429288
 30
0.0
 11
29977.604341291921
 21
1907.7494964292871
 31
0.0
1001
AUTOCAD_POSTSCRIPT_FIGURE
1002
{
1000
PSFILL
1000
Grayscale
1000
Grayscale
1070
    25
1002
}
  0
LINE
  5
38ED
  8
YODOROGO
 10
29977.604341291921
 20
1707.749496429288
 30
0.0
 11
29977.604341291921
 21
1819.7494964292871
 31
0.0
1001
AUTOCAD_POSTSCRIPT_FIGURE
1002
{
1000
PSFILL
1000
Grayscale
1000
Grayscale
1070
    25
1002
}
  0
LINE
  5
38EE
  8
YODOROGO
 10
30381.604341291932
 20
1907.7494964292871
 30
0.0
 11
30497.604341291921
 21
2027.749496429288
 31
0.0
  0
LINE
  5
38EF
  8
YODOROGO
 10
30381.604341291932
 20
1819.7494964292871
 30
0.0
 11
30381.604341291932
 21
1907.7494964292871
 31
0.0
  0
LINE
  5
38F0
  8
YODOROGO
 10
30497.604341291921
 20
1939.749496429288
 30
0.0
 11
30381.604341291932
 21
1819.7494964292871
 31
0.0
  0
LINE
  5
38F1
  8
YODOROGO
 10
30465.604341291921
 20
1679.749496429288
 30
0.0
 11
30465.604341291921
 21
1735.7494964292871
 31
0.0
  0
LINE
  5
38F2
  8
YODOROGO
 10
30381.604341291932
 20
1679.749496429288
 30
0.0
 11
30465.604341291921
 21
1679.749496429288
 31
0.0
  0
LINE
  5
38F3
  8
YODOROGO
 10
30529.604341291939
 20
1735.7494964292871
 30
0.0
 11
30529.604341291939
 21
1679.749496429288
 31
0.0
  0
LINE
  5
38F4
  8
YODOROGO
 10
30381.604341291932
 20
1735.7494964292871
 30
0.0
 11
30381.604341291932
 21
1795.7494964292871
 31
0.0
  0
LINE
  5
38F5
  8
YODOROGO
 10
30465.604341291921
 20
1735.7494964292871
 30
0.0
 11
30381.604341291932
 21
1735.7494964292871
 31
0.0
  0
LINE
  5
38F6
  8
YODOROGO
 10
30645.604341291921
 20
2027.749496429288
 30
0.0
 11
30973.604341291921
 21
2027.749496429288
 31
0.0
  0
LINE
  5
38F7
  8
YODOROGO
 10
30925.604341291921
 20
1963.749496429286
 30
0.0
 11
30697.604341291932
 21
1963.749496429286
 31
0.0
  0
LINE
  5
38F8
  8
YODOROGO
 10
30873.604341291921
 20
1819.7494964292871
 30
0.0
 11
30899.604341291932
 21
1819.7494964292871
 31
0.0
  0
LINE
  5
38F9
  8
YODOROGO
 10
30899.604341291932
 20
1939.749496429288
 30
0.0
 11
30873.604341291921
 21
1819.7494964292871
 31
0.0
  0
LINE
  5
38FA
  8
YODOROGO
 10
30851.604341291939
 20
1939.749496429288
 30
0.0
 11
30899.604341291932
 21
1939.749496429288
 31
0.0
  0
LINE
  5
38FB
  8
YODOROGO
 10
30825.604341291921
 20
1819.7494964292871
 30
0.0
 11
30851.604341291939
 21
1939.749496429288
 31
0.0
  0
LINE
  5
38FC
  8
YODOROGO
 10
30797.604341291921
 20
1819.7494964292871
 30
0.0
 11
30825.604341291921
 21
1819.7494964292871
 31
0.0
  0
LINE
  5
38FD
  8
YODOROGO
 10
30771.604341291939
 20
1939.749496429288
 30
0.0
 11
30797.604341291921
 21
1819.7494964292871
 31
0.0
  0
LINE
  5
38FE
  8
YODOROGO
 10
30723.604341291921
 20
1939.749496429288
 30
0.0
 11
30771.604341291939
 21
1939.749496429288
 31
0.0
  0
LINE
  5
38FF
  8
YODOROGO
 10
30749.604341291921
 20
1819.7494964292871
 30
0.0
 11
30723.604341291921
 21
1939.749496429288
 31
0.0
  0
LINE
  5
3900
  8
YODOROGO
 10
30723.604341291921
 20
1819.7494964292871
 30
0.0
 11
30749.604341291921
 21
1819.7494964292871
 31
0.0
  0
LINE
  5
3901
  8
YODOROGO
 10
30723.604341291921
 20
1755.7494964292871
 30
0.0
 11
30723.604341291921
 21
1819.7494964292871
 31
0.0
  0
LINE
  5
3902
  8
YODOROGO
 10
30899.604341291932
 20
1755.7494964292871
 30
0.0
 11
30723.604341291921
 21
1755.7494964292871
 31
0.0
  0
LINE
  5
3903
  8
YODOROGO
 10
30899.604341291932
 20
1819.7494964292871
 30
0.0
 11
30899.604341291932
 21
1755.7494964292871
 31
0.0
  0
LINE
  5
3904
  8
YODOROGO
 10
30617.604341291921
 20
1947.749496429288
 30
0.0
 11
30617.604341291921
 21
1859.749496429288
 31
0.0
  0
LINE
  5
3905
  8
YODOROGO
 10
30791.604341291921
 20
1755.7494964292871
 30
0.0
 11
30831.604341291921
 21
1755.7494964292871
 31
0.0
  0
LINE
  5
3906
  8
YODOROGO
 10
30723.604341291921
 20
1691.749496429288
 30
0.0
 11
30763.604341291921
 21
1691.749496429288
 31
0.0
  0
LINE
  5
3907
  8
YODOROGO
 10
30859.604341291932
 20
1691.749496429288
 30
0.0
 11
30899.604341291932
 21
1691.749496429288
 31
0.0
  0
LINE
  5
3908
  8
YODOROGO
 10
30617.604341291921
 20
1795.7494964292871
 30
0.0
 11
30617.604341291921
 21
1735.7494964292871
 31
0.0
  0
LINE
  5
3909
  8
YODOROGO
 10
31165.604341291921
 20
2027.749496429288
 30
0.0
 11
31165.604341291921
 21
1963.749496429286
 31
0.0
  0
LINE
  5
390A
  8
YODOROGO
 10
31533.604341291921
 20
1595.7494964292871
 30
0.0
 11
31533.60434129191
 21
1811.749496429288
 31
0.0
  0
LINE
  5
390B
  8
YODOROGO
 10
31461.60434129191
 20
1987.7494964292871
 30
0.0
 11
31461.60434129191
 21
1635.7494964292871
 31
0.0
  0
LINE
  5
390C
  8
YODOROGO
 10
31653.604341291921
 20
1427.749496429288
 30
0.0
 11
31653.60434129191
 21
1811.749496429288
 31
0.0
  0
LINE
  5
390D
  8
YODOROGO
 10
31589.604341291921
 20
1811.749496429288
 30
0.0
 11
31589.604341291921
 21
1427.749496429288
 31
0.0
  0
LINE
  5
390E
  8
YODOROGO
 10
31237.604341291921
 20
1595.7494964292871
 30
0.0
 11
31237.604341291921
 21
1707.749496429288
 31
0.0
  0
ARC
  5
390F
  8
YODOROGO
 10
31353.914865116069
 20
1607.790351288558
 30
0.0
 40
180.0924485759885
 50
268.62849102169793
 51
356.16638457330322
  0
LINE
  5
3910
  8
YODOROGO
 10
31349.604341291939
 20
1527.749496429288
 30
0.0
 11
31349.604341291939
 21
1427.749496429288
 31
0.0
  0
ARC
  5
3911
  8
YODOROGO
 10
31351.518075724562
 20
1637.838957017655
 30
0.0
 40
110.1060929836122
 50
269.00410209305932
 51
358.91264455492478
  0
LINE
  5
3912
  8
YODOROGO
 10
31589.604341291921
 20
1427.749496429288
 30
0.0
 11
31653.604341291921
 21
1427.749496429288
 31
0.0
  0
LINE
  5
3913
  8
YODOROGO
 10
31533.60434129191
 20
1811.749496429288
 30
0.0
 11
31589.604341291921
 21
1811.749496429288
 31
0.0
  0
LINE
  5
3914
  8
YODOROGO
 10
31621.604341291939
 20
1987.7494964292871
 30
0.0
 11
31461.60434129191
 21
1987.7494964292871
 31
0.0
  0
LINE
  5
3915
  8
YODOROGO
 10
31533.60434129191
 20
1915.7494964292871
 30
0.0
 11
31661.604341291939
 21
1915.7494964292871
 31
0.0
  0
LINE
  5
3916
  8
YODOROGO
 10
31701.604341291939
 20
1875.7494964292871
 30
0.0
 11
31533.60434129191
 21
1875.7494964292871
 31
0.0
  0
LINE
  5
3917
  8
YODOROGO
 10
31237.604341291921
 20
1779.749496429288
 30
0.0
 11
31349.604341291939
 21
1779.749496429288
 31
0.0
  0
LINE
  5
3918
  8
YODOROGO
 10
31237.604341291921
 20
1835.7494964292871
 30
0.0
 11
31237.604341291921
 21
1779.749496429288
 31
0.0
  0
LINE
  5
3919
  8
YODOROGO
 10
31349.604341291939
 20
1835.7494964292871
 30
0.0
 11
31237.604341291921
 21
1835.7494964292871
 31
0.0
  0
LINE
  5
391A
  8
YODOROGO
 10
31349.604341291939
 20
1779.749496429288
 30
0.0
 11
31349.604341291939
 21
1835.7494964292871
 31
0.0
  0
LINE
  5
391B
  8
YODOROGO
 10
31533.60434129191
 20
1875.7494964292871
 30
0.0
 11
31533.60434129191
 21
1915.7494964292871
 31
0.0
  0
LINE
  5
391C
  8
YODOROGO
 10
31413.604341291921
 20
1707.749496429288
 30
0.0
 11
31413.604341291921
 21
1907.7494964292871
 31
0.0
  0
LINE
  5
391D
  8
YODOROGO
 10
31237.604341291921
 20
1707.749496429288
 30
0.0
 11
31413.604341291921
 21
1707.749496429288
 31
0.0
  0
LINE
  5
391E
  8
YODOROGO
 10
31413.604341291921
 20
1963.749496429286
 30
0.0
 11
31413.604341291921
 21
2027.749496429288
 31
0.0
  0
ARC
  5
391F
  8
YODOROGO
 10
31621.604341291939
 20
2003.749496429285
 30
0.0
 40
15.999999999994539
 50
270.0
 51
0.0000000000081422
  0
LINE
  5
3920
  8
YODOROGO
 10
31637.604341291921
 20
2027.749496429288
 30
0.0
 11
31637.604341291921
 21
2003.7494964292871
 31
0.0
  0
LINE
  5
3921
  8
YODOROGO
 10
31701.604341291939
 20
2027.749496429288
 30
0.0
 11
31637.604341291921
 21
2027.749496429288
 31
0.0
  0
LINE
  5
3922
  8
YODOROGO
 10
31701.604341291939
 20
1955.7494964292871
 30
0.0
 11
31701.604341291939
 21
2027.749496429288
 31
0.0
  0
ARC
  5
3923
  8
YODOROGO
 10
31661.604341291939
 20
1955.7494964292871
 30
0.0
 40
40.0
 50
270.0
 51
0.0
  0
LINE
  5
3924
  8
YODOROGO
 10
31701.604341291939
 20
1811.749496429288
 30
0.0
 11
31701.604341291939
 21
1875.7494964292871
 31
0.0
  0
LINE
  5
3925
  8
YODOROGO
 10
31653.60434129191
 20
1811.749496429288
 30
0.0
 11
31701.604341291939
 21
1811.749496429288
 31
0.0
  0
LINE
  5
3929
  8
SUNPOU
  6
CONTINUOUS
 62
     4
 10
10114.75539299999
 20
13860.762197
 30
0.0
 11
9267.7599719999907
 21
13860.762197
 31
0.0
  0
LINE
  5
392A
  8
SUNPOU
  6
CONTINUOUS
 62
     4
 10
9347.7599719999907
 20
14053.257512
 30
0.0
 11
9347.7599719999907
 21
14293.257512
 31
0.0
  0
LINE
  5
392B
  8
SUNPOU
  6
CONTINUOUS
 62
     4
 10
9347.7599719999907
 20
13860.762197
 30
0.0
 11
9347.7599719999907
 21
13620.762197
 31
0.0
  0
LINE
  5
392C
  8
SUNPOU
  6
CONTINUOUS
 62
     4
 10
9347.7599719999907
 20
14053.257512
 30
0.0
 11
9347.7599719999907
 21
13860.762197
 31
0.0
  0
LINE
  5
392D
  8
SUNPOU
  6
CONTINUOUS
 62
     4
 10
9978.458115999998
 20
15161.99802350002
 30
0.0
 11
9267.7599719999907
 21
15161.99802350002
 31
0.0
  0
LINE
  5
392E
  8
SUNPOU
  6
CONTINUOUS
 62
     4
 10
9347.7599719999907
 20
15161.99802350002
 30
0.0
 11
9347.7599719999907
 21
14053.257512
 31
0.0
  0
LINE
  5
392F
  8
SUNPOU
  6
CONTINUOUS
 62
     4
 10
9978.458115999998
 20
15161.99802350002
 30
0.0
 11
9267.7599719999907
 21
15161.99802350002
 31
0.0
  0
LINE
  5
3930
  8
SUNPOU
  6
CONTINUOUS
 62
     4
 10
9347.7599719999907
 20
16620.757511999989
 30
0.0
 11
9347.7599719999907
 21
15161.99802350002
 31
0.0
  0
LINE
  5
3931
  8
SUNPOU
  6
CONTINUOUS
 62
     4
 10
9978.4610849999917
 20
18079.757511999978
 30
0.0
 11
9267.7599719999907
 21
18079.757511999978
 31
0.0
  0
LINE
  5
3932
  8
SUNPOU
  6
CONTINUOUS
 62
     4
 10
9347.7599719999907
 20
18079.757511999978
 30
0.0
 11
9347.7599719999907
 21
16620.757511999989
 31
0.0
  0
LINE
  5
3933
  8
SUNPOU
  6
CONTINUOUS
 62
     4
 10
10114.75539299999
 20
19390.753421000001
 30
0.0
 11
9667.7599719999907
 21
19390.753421000001
 31
0.0
  0
LINE
  5
3934
  8
SUNPOU
  6
CONTINUOUS
 62
     4
 10
10114.75974799998
 20
19410.753421000009
 30
0.0
 11
9667.7599719999907
 21
19410.753421000009
 31
0.0
  0
LINE
  5
3936
  8
SUNPOU
  6
CONTINUOUS
 62
     4
 10
9747.7599719999907
 20
19410.753421000009
 30
0.0
 11
9747.7599719999907
 21
19650.753421000001
 31
0.0
  0
LINE
  5
3937
  8
SUNPOU
  6
CONTINUOUS
 62
     4
 10
9747.7599719999907
 20
19370.753421000001
 30
0.0
 11
9747.7599719999907
 21
19410.753421000009
 31
0.0
  0
LINE
  5
3938
  8
SUNPOU
  6
CONTINUOUS
 62
     4
 10
10114.75974799998
 20
19410.753421000009
 30
0.0
 11
9267.7599719999871
 21
19410.753421000009
 31
0.0
  0
LINE
  5
3939
  8
SUNPOU
  6
CONTINUOUS
 62
     4
 10
9347.7599719999871
 20
19188.257511999989
 30
0.0
 11
9347.7599719999871
 21
18948.257511999989
 31
0.0
  0
LINE
  5
393A
  8
SUNPOU
  6
CONTINUOUS
 62
     4
 10
9347.7599719999871
 20
19410.753421000009
 30
0.0
 11
9347.7599719999871
 21
19650.753421000001
 31
0.0
  0
LINE
  5
393B
  8
SUNPOU
  6
CONTINUOUS
 62
     4
 10
9347.7599719999871
 20
19188.257511999989
 30
0.0
 11
9347.7599719999871
 21
19410.753421000009
 31
0.0
  0
LINE
  5
393C
  8
SUNPOU
  6
CONTINUOUS
 62
     4
 10
9978.4610849999917
 20
18079.757511999978
 30
0.0
 11
9267.7599719999871
 21
18079.757511999978
 31
0.0
  0
LINE
  5
393D
  8
SUNPOU
  6
CONTINUOUS
 62
     4
 10
9347.7599719999871
 20
18079.757511999978
 30
0.0
 11
9347.7599719999871
 21
19188.257511999989
 31
0.0
  0
LINE
  5
393E
  8
SUNPOU
  6
CONTINUOUS
 62
     4
 10
10191.757273999991
 20
19490.753421000009
 30
0.0
 11
10191.757273999991
 21
20040.75870000002
 31
0.0
  0
LINE
  5
393F
  8
SUNPOU
  6
CONTINUOUS
 62
     4
 10
10277.257274
 20
19960.75870000002
 30
0.0
 11
10517.257274
 21
19960.75870000002
 31
0.0
  0
LINE
  5
3940
  8
SUNPOU
  6
CONTINUOUS
 62
     4
 10
10194.757273999991
 20
19960.75870000002
 30
0.0
 11
9954.7572739999996
 21
19960.75870000002
 31
0.0
  0
LINE
  5
3941
  8
SUNPOU
  6
CONTINUOUS
 62
     4
 10
10277.257274
 20
19960.75870000002
 30
0.0
 11
10194.757273999991
 21
19960.75870000002
 31
0.0
  0
LINE
  5
3942
  8
SUNPOU
  6
CONTINUOUS
 62
     4
 10
13280.757273999991
 20
19490.753421000009
 30
0.0
 11
13280.757273999991
 21
20040.75870000002
 31
0.0
  0
LINE
  5
3943
  8
SUNPOU
  6
CONTINUOUS
 62
     4
 10
13195.257274
 20
19960.75870000002
 30
0.0
 11
12955.257274
 21
19960.75870000002
 31
0.0
  0
LINE
  5
3944
  8
SUNPOU
  6
CONTINUOUS
 62
     4
 10
13277.757273999991
 20
19960.75870000002
 30
0.0
 11
13517.757274
 21
19960.75870000002
 31
0.0
  0
LINE
  5
3945
  8
SUNPOU
  6
CONTINUOUS
 62
     4
 10
13195.257274
 20
19960.75870000002
 30
0.0
 11
13277.757273999991
 21
19960.75870000002
 31
0.0
  0
LINE
  5
3946
  8
SUNPOU
  6
CONTINUOUS
 62
     4
 10
13195.257274
 20
19960.75870000002
 30
0.0
 11
10277.257274
 21
19960.75870000002
 31
0.0
  0
LINE
  5
3947
  8
SUNPOU
  6
CONTINUOUS
 62
     4
 10
19757.009526999998
 20
19310.75579700002
 30
0.0
 11
19757.009526999998
 21
20040.75870000002
 31
0.0
  0
LINE
  5
3948
  8
SUNPOU
  6
CONTINUOUS
 62
     4
 10
20515.009526999998
 20
19310.75579700002
 30
0.0
 11
20515.009526999998
 21
20040.75870000002
 31
0.0
  0
LINE
  5
3949
  8
SUNPOU
  6
CONTINUOUS
 62
     4
 10
19757.009526999998
 20
19960.75870000002
 30
0.0
 11
20515.009526999998
 21
19960.75870000002
 31
0.0
  0
LINE
  5
394A
  8
SUNPOU
  6
CONTINUOUS
 62
     4
 10
22797.50781100001
 20
14460.87776775
 30
0.0
 11
23847.50913100001
 21
14460.87776775
 31
0.0
  0
LINE
  5
394B
  8
SUNPOU
  6
CONTINUOUS
 62
     4
 10
23647.50913100001
 20
14053.37776775
 30
0.0
 11
23847.50913100001
 21
14053.37776775
 31
0.0
  0
LINE
  5
394C
  8
SUNPOU
  6
CONTINUOUS
 62
     4
 10
23767.50913100001
 20
14460.87776775
 30
0.0
 11
23767.50913100001
 21
14053.37776775
 31
0.0
  0
LINE
  5
394D
  8
SUNPOU
  6
CONTINUOUS
 62
     4
 10
22797.50781100001
 20
18780.757511999989
 30
0.0
 11
23847.50913100001
 21
18780.757511999989
 31
0.0
  0
LINE
  5
394E
  8
SUNPOU
  6
CONTINUOUS
 62
     4
 10
23647.50913100001
 20
19188.257511999989
 30
0.0
 11
23847.50913100001
 21
19188.257511999989
 31
0.0
  0
LINE
  5
394F
  8
SUNPOU
  6
CONTINUOUS
 62
     4
 10
23767.50913100001
 20
18780.757511999989
 30
0.0
 11
23767.50913100001
 21
19188.257511999989
 31
0.0
  0
LINE
  5
3950
  8
SUNPOU
  6
CONTINUOUS
 62
     4
 10
19634.513222000001
 20
18079.757511999978
 30
0.0
 11
18747.554950000002
 21
18079.757511999978
 31
0.0
  0
LINE
  5
3951
  8
SUNPOU
  6
CONTINUOUS
 62
     4
 10
18827.554950000002
 20
18079.757511999978
 30
0.0
 11
18827.554950000002
 21
19188.257511999989
 31
0.0
  0
LINE
  5
3952
  8
SUNPOU
  6
CONTINUOUS
 62
     4
 10
19634.513222000001
 20
18079.757511999978
 30
0.0
 11
18747.554950000002
 21
18079.757511999978
 31
0.0
  0
LINE
  5
3953
  8
SUNPOU
  6
CONTINUOUS
 62
     4
 10
18827.554950000002
 20
16620.757511999989
 30
0.0
 11
18827.554950000002
 21
18079.757511999978
 31
0.0
  0
LINE
  5
3954
  8
SUNPOU
  6
CONTINUOUS
 62
     4
 10
19634.513222000001
 20
15161.99802350002
 30
0.0
 11
18747.554950000002
 21
15161.99802350002
 31
0.0
  0
LINE
  5
3955
  8
SUNPOU
  6
CONTINUOUS
 62
     4
 10
18827.554950000002
 20
15161.99802350002
 30
0.0
 11
18827.554950000002
 21
16620.757511999989
 31
0.0
  0
LINE
  5
3956
  8
SUNPOU
  6
CONTINUOUS
 62
     4
 10
19634.513222000001
 20
15161.99802350002
 30
0.0
 11
18747.554950000002
 21
15161.99802350002
 31
0.0
  0
LINE
  5
3957
  8
SUNPOU
  6
CONTINUOUS
 62
     4
 10
18827.554950000002
 20
14053.257512
 30
0.0
 11
18827.554950000002
 21
15161.99802350002
 31
0.0
  0
LINE
  5
3958
  8
SUNPOU
  6
CONTINUOUS
 62
     4
 10
19757.009526999998
 20
13347.494077999991
 30
0.0
 11
19757.009526999998
 21
13001.809428
 31
0.0
  0
LINE
  5
3959
  8
SUNPOU
  6
CONTINUOUS
 62
     4
 10
19714.50728400001
 20
13930.76021699999
 30
0.0
 11
19714.50728400001
 21
13001.809428
 31
0.0
  0
LINE
  5
395A
  8
SUNPOU
  6
CONTINUOUS
 62
     4
 10
19757.009526999998
 20
13081.809428
 30
0.0
 11
19997.009526999998
 21
13081.809428
 31
0.0
  0
LINE
  5
395B
  8
SUNPOU
  6
CONTINUOUS
 62
     4
 10
19714.50728400001
 20
13081.809428
 30
0.0
 11
19474.50728400001
 21
13081.809428
 31
0.0
  0
LINE
  5
395C
  8
SUNPOU
  6
CONTINUOUS
 62
     4
 10
19757.009526999998
 20
13081.809428
 30
0.0
 11
19714.50728400001
 21
13081.809428
 31
0.0
  0
LINE
  5
395D
  8
SUNPOU
  6
CONTINUOUS
 62
     4
 10
22675.009527000009
 20
13347.494077999991
 30
0.0
 11
22675.009527000009
 21
13001.809428
 31
0.0
  0
LINE
  5
395E
  8
SUNPOU
  6
CONTINUOUS
 62
     4
 10
22717.511770000001
 20
13930.76021699999
 30
0.0
 11
22717.511770000001
 21
13001.809428
 31
0.0
  0
LINE
  5
395F
  8
SUNPOU
  6
CONTINUOUS
 62
     4
 10
22675.009527000009
 20
13081.809428
 30
0.0
 11
22435.009527000009
 21
13081.809428
 31
0.0
  0
LINE
  5
3960
  8
SUNPOU
  6
CONTINUOUS
 62
     4
 10
22717.511770000001
 20
13081.809428
 30
0.0
 11
22957.511770000001
 21
13081.809428
 31
0.0
  0
LINE
  5
3961
  8
SUNPOU
  6
CONTINUOUS
 62
     4
 10
22675.009527000009
 20
13081.809428
 30
0.0
 11
22717.511770000001
 21
13081.809428
 31
0.0
  0
LINE
  5
3962
  8
SUNPOU
  6
CONTINUOUS
 62
     4
 10
22675.009527000009
 20
13347.494077999991
 30
0.0
 11
22675.009527000009
 21
13001.809428
 31
0.0
  0
LINE
  5
3963
  8
SUNPOU
  6
CONTINUOUS
 62
     4
 10
22632.507283999999
 20
13930.76021699999
 30
0.0
 11
22632.507283999999
 21
13001.809428
 31
0.0
  0
LINE
  5
3964
  8
SUNPOU
  6
CONTINUOUS
 62
     4
 10
22675.009527000009
 20
13081.809428
 30
0.0
 11
22915.009527000009
 21
13081.809428
 31
0.0
  0
LINE
  5
3965
  8
SUNPOU
  6
CONTINUOUS
 62
     4
 10
22632.507283999999
 20
13081.809428
 30
0.0
 11
22392.507283999999
 21
13081.809428
 31
0.0
  0
LINE
  5
3966
  8
SUNPOU
  6
CONTINUOUS
 62
     4
 10
22675.009527000009
 20
13081.809428
 30
0.0
 11
22632.507283999999
 21
13081.809428
 31
0.0
  0
LINE
  5
3967
  8
SUNPOU
  6
CONTINUOUS
 62
     4
 10
19757.009526999998
 20
13347.494077999991
 30
0.0
 11
19757.009526999998
 21
13001.809428
 31
0.0
  0
LINE
  5
3968
  8
SUNPOU
  6
CONTINUOUS
 62
     4
 10
19799.511770000001
 20
13930.76021699999
 30
0.0
 11
19799.511770000001
 21
13001.809428
 31
0.0
  0
LINE
  5
3969
  8
SUNPOU
  6
CONTINUOUS
 62
     4
 10
19757.009526999998
 20
13081.809428
 30
0.0
 11
19517.009526999991
 21
13081.809428
 31
0.0
  0
LINE
  5
396A
  8
SUNPOU
  6
CONTINUOUS
 62
     4
 10
19799.511770000001
 20
13081.809428
 30
0.0
 11
20039.511770000008
 21
13081.809428
 31
0.0
  0
LINE
  5
396B
  8
SUNPOU
  6
CONTINUOUS
 62
     4
 10
19757.009526999998
 20
13081.809428
 30
0.0
 11
19799.511770000001
 21
13081.809428
 31
0.0
  0
LINE
  5
396C
  8
SUNPOU
  6
CONTINUOUS
 62
     4
 10
19714.50728400001
 20
13930.76021699999
 30
0.0
 11
19714.50728400001
 21
12601.809428
 31
0.0
  0
LINE
  5
396D
  8
SUNPOU
  6
CONTINUOUS
 62
     4
 10
22717.511770000001
 20
13930.76021699999
 30
0.0
 11
22717.511770000001
 21
12601.809428
 31
0.0
  0
LINE
  5
396E
  8
SUNPOU
  6
CONTINUOUS
 62
     4
 10
19714.50728400001
 20
12681.809428
 30
0.0
 11
22717.511770000001
 21
12681.809428
 31
0.0
  0
LINE
  5
396F
  8
SUNPOU
  6
CONTINUOUS
 62
     4
 10
22797.50781100001
 20
15161.99802350002
 30
0.0
 11
23847.50913100001
 21
15161.99802350002
 31
0.0
  0
LINE
  5
3970
  8
SUNPOU
  6
CONTINUOUS
 62
     4
 10
22797.50781100001
 20
14460.757511999989
 30
0.0
 11
23847.50913100001
 21
14460.757511999989
 31
0.0
  0
LINE
  5
3971
  8
SUNPOU
  6
CONTINUOUS
 62
     4
 10
23767.50913100001
 20
15161.99802350002
 30
0.0
 11
23767.50913100001
 21
14460.757511999989
 31
0.0
  0
LINE
  5
3972
  8
SUNPOU
  6
CONTINUOUS
 62
     4
 10
22797.50781100001
 20
15862.757512
 30
0.0
 11
23847.50913100001
 21
15862.757512
 31
0.0
  0
LINE
  5
3973
  8
SUNPOU
  6
CONTINUOUS
 62
     4
 10
22797.50781100001
 20
15161.99802350002
 30
0.0
 11
23847.50913100001
 21
15161.99802350002
 31
0.0
  0
LINE
  5
3974
  8
SUNPOU
  6
CONTINUOUS
 62
     4
 10
23767.50913100001
 20
15862.757512
 30
0.0
 11
23767.50913100001
 21
15161.99802350002
 31
0.0
  0
LINE
  5
3975
  8
SUNPOU
  6
CONTINUOUS
 62
     4
 10
23647.50913100001
 20
16620.757511999989
 30
0.0
 11
23847.50913100001
 21
16620.757511999989
 31
0.0
  0
LINE
  5
3976
  8
SUNPOU
  6
CONTINUOUS
 62
     4
 10
22797.50781100001
 20
15862.757512
 30
0.0
 11
23847.50913100001
 21
15862.757512
 31
0.0
  0
LINE
  5
3977
  8
SUNPOU
  6
CONTINUOUS
 62
     4
 10
23767.50913100001
 20
16620.757511999989
 30
0.0
 11
23767.50913100001
 21
15862.757512
 31
0.0
  0
LINE
  5
3978
  8
SUNPOU
  6
CONTINUOUS
 62
     4
 10
22797.50781100001
 20
17378.757511999978
 30
0.0
 11
23847.50913100001
 21
17378.757511999978
 31
0.0
  0
LINE
  5
3979
  8
SUNPOU
  6
CONTINUOUS
 62
     4
 10
23647.50913100001
 20
16620.757511999989
 30
0.0
 11
23847.50913100001
 21
16620.757511999989
 31
0.0
  0
LINE
  5
397A
  8
SUNPOU
  6
CONTINUOUS
 62
     4
 10
23767.50913100001
 20
17378.757511999978
 30
0.0
 11
23767.50913100001
 21
16620.757511999989
 31
0.0
  0
LINE
  5
397B
  8
SUNPOU
  6
CONTINUOUS
 62
     4
 10
22797.50781100001
 20
18079.757511999978
 30
0.0
 11
23847.50913100001
 21
18079.757511999978
 31
0.0
  0
LINE
  5
397C
  8
SUNPOU
  6
CONTINUOUS
 62
     4
 10
22797.50781100001
 20
17378.757511999978
 30
0.0
 11
23847.50913100001
 21
17378.757511999978
 31
0.0
  0
LINE
  5
397D
  8
SUNPOU
  6
CONTINUOUS
 62
     4
 10
23767.50913100001
 20
18079.757511999978
 30
0.0
 11
23767.50913100001
 21
17378.757511999978
 31
0.0
  0
LINE
  5
397E
  8
SUNPOU
  6
CONTINUOUS
 62
     4
 10
22797.50781100001
 20
18780.757511999989
 30
0.0
 11
23847.50913100001
 21
18780.757511999989
 31
0.0
  0
LINE
  5
397F
  8
SUNPOU
  6
CONTINUOUS
 62
     4
 10
22797.50781100001
 20
18079.757511999978
 30
0.0
 11
23847.50913100001
 21
18079.757511999978
 31
0.0
  0
LINE
  5
3980
  8
SUNPOU
  6
CONTINUOUS
 62
     4
 10
23767.50913100001
 20
18780.757511999989
 30
0.0
 11
23767.50913100001
 21
18079.757511999978
 31
0.0
  0
LINE
  5
3981
  8
SUNPOU
  6
CONTINUOUS
 62
     4
 10
23647.50913100001
 20
16620.757511999989
 30
0.0
 11
24247.509130999999
 21
16620.757511999989
 31
0.0
  0
LINE
  5
3982
  8
SUNPOU
  6
CONTINUOUS
 62
     4
 10
23647.50913100001
 20
19188.257511999989
 30
0.0
 11
24247.509130999999
 21
19188.257511999989
 31
0.0
  0
LINE
  5
3983
  8
SUNPOU
  6
CONTINUOUS
 62
     4
 10
24167.509130999999
 20
16620.757511999989
 30
0.0
 11
24167.509130999999
 21
19188.257511999989
 31
0.0
  0
LINE
  5
3984
  8
SUNPOU
  6
CONTINUOUS
 62
     4
 10
23647.50913100001
 20
14053.257512
 30
0.0
 11
24247.509130999999
 21
14053.257512
 31
0.0
  0
LINE
  5
3985
  8
SUNPOU
  6
CONTINUOUS
 62
     4
 10
23647.50913100001
 20
16620.757511999989
 30
0.0
 11
24247.509130999999
 21
16620.757511999989
 31
0.0
  0
LINE
  5
3986
  8
SUNPOU
  6
CONTINUOUS
 62
     4
 10
24167.509130999999
 20
14053.257512
 30
0.0
 11
24167.509130999999
 21
16620.757511999989
 31
0.0
  0
LINE
  5
3987
  8
SUNPOU
  6
CONTINUOUS
 62
     4
 10
22797.50781100001
 20
19230.754807000001
 30
0.0
 11
24647.509130999999
 21
19230.754806999979
 31
0.0
  0
LINE
  5
3988
  8
SUNPOU
  6
CONTINUOUS
 62
     4
 10
22797.50781100001
 20
14010.76021699999
 30
0.0
 11
24647.509130999999
 21
14010.76021699999
 31
0.0
  0
LINE
  5
3989
  8
SUNPOU
  6
CONTINUOUS
 62
     4
 10
24567.509130999999
 20
19230.754807000001
 30
0.0
 11
24567.509130999999
 21
14010.76021699999
 31
0.0
  0
LINE
  5
398A
  8
SUNPOU
  6
CONTINUOUS
 62
     4
 10
23647.50913100001
 20
19188.257511999989
 30
0.0
 11
24247.509130999999
 21
19188.257511999989
 31
0.0
  0
LINE
  5
398B
  8
SUNPOU
  6
CONTINUOUS
 62
     4
 10
22797.50781100001
 20
19230.754807000001
 30
0.0
 11
24247.509130999999
 21
19230.754807000001
 31
0.0
  0
LINE
  5
398C
  8
SUNPOU
  6
CONTINUOUS
 62
     4
 10
24167.509130999999
 20
19188.257511999989
 30
0.0
 11
24167.509130999999
 21
18948.257511999989
 31
0.0
  0
LINE
  5
398D
  8
SUNPOU
  6
CONTINUOUS
 62
     4
 10
24167.509130999999
 20
19230.754807000001
 30
0.0
 11
24167.509130999999
 21
19470.754807000001
 31
0.0
  0
LINE
  5
398E
  8
SUNPOU
  6
CONTINUOUS
 62
     4
 10
24167.509130999999
 20
19188.257511999989
 30
0.0
 11
24167.509130999999
 21
19230.754807000001
 31
0.0
  0
LINE
  5
398F
  8
SUNPOU
  6
CONTINUOUS
 62
     4
 10
23647.50913100001
 20
14053.257512
 30
0.0
 11
24247.509130999999
 21
14053.257512
 31
0.0
  0
LINE
  5
3990
  8
SUNPOU
  6
CONTINUOUS
 62
     4
 10
22797.50781100001
 20
14010.76021699999
 30
0.0
 11
24247.509130999999
 21
14010.76021699999
 31
0.0
  0
LINE
  5
3991
  8
SUNPOU
  6
CONTINUOUS
 62
     4
 10
24167.509130999999
 20
14053.257512
 30
0.0
 11
24167.509130999999
 21
14293.257512
 31
0.0
  0
LINE
  5
3992
  8
SUNPOU
  6
CONTINUOUS
 62
     4
 10
24167.509130999999
 20
14010.76021699999
 30
0.0
 11
24167.509130999999
 21
13770.76021699999
 31
0.0
  0
LINE
  5
3993
  8
SUNPOU
  6
CONTINUOUS
 62
     4
 10
24167.509130999999
 20
14053.257512
 30
0.0
 11
24167.509130999999
 21
14010.76021699999
 31
0.0
  0
LINE
  5
3994
  8
SUNPOU
  6
CONTINUOUS
 62
     4
 10
21917.009526999998
 20
19310.75579700002
 30
0.0
 11
21917.009526999998
 21
20040.75870000002
 31
0.0
  0
LINE
  5
3995
  8
SUNPOU
  6
CONTINUOUS
 62
     4
 10
22675.01051650002
 20
19310.75579700002
 30
0.0
 11
22675.01051650002
 21
20040.75870000002
 31
0.0
  0
LINE
  5
3996
  8
SUNPOU
  6
CONTINUOUS
 62
     4
 10
21917.009526999998
 20
19960.75870000002
 30
0.0
 11
22675.01051650002
 21
19960.75870000002
 31
0.0
  0
LINE
  5
3997
  8
SUNPOU
  6
CONTINUOUS
 62
     4
 10
21216.009526999998
 20
19310.75579700002
 30
0.0
 11
21216.009526999998
 21
20040.75870000002
 31
0.0
  0
LINE
  5
3998
  8
SUNPOU
  6
CONTINUOUS
 62
     4
 10
21917.009526999998
 20
19310.75579700002
 30
0.0
 11
21917.009526999998
 21
20040.75870000002
 31
0.0
  0
LINE
  5
3999
  8
SUNPOU
  6
CONTINUOUS
 62
     4
 10
21216.009526999998
 20
19960.75870000002
 30
0.0
 11
21917.009526999998
 21
19960.75870000002
 31
0.0
  0
LINE
  5
399A
  8
SUNPOU
  6
CONTINUOUS
 62
     4
 10
20515.009526999998
 20
19310.75579700002
 30
0.0
 11
20515.009526999998
 21
20040.75870000002
 31
0.0
  0
LINE
  5
399B
  8
SUNPOU
  6
CONTINUOUS
 62
     4
 10
21216.009526999998
 20
19310.75579700002
 30
0.0
 11
21216.009526999998
 21
20040.75870000002
 31
0.0
  0
LINE
  5
399C
  8
SUNPOU
  6
CONTINUOUS
 62
     4
 10
20515.009526999998
 20
19960.75870000002
 30
0.0
 11
21216.009526999998
 21
19960.75870000002
 31
0.0
  0
LINE
  5
399D
  8
SUNPOU
  6
CONTINUOUS
 62
     4
 10
22675.009527000009
 20
19310.75579700002
 30
0.0
 11
22675.009527000009
 21
20040.75870000002
 31
0.0
  0
LINE
  5
399E
  8
SUNPOU
  6
CONTINUOUS
 62
     4
 10
22717.505831999992
 20
19310.75579700002
 30
0.0
 11
22717.505831999992
 21
20040.75870000002
 31
0.0
  0
LINE
  5
399F
  8
SUNPOU
  6
CONTINUOUS
 62
     4
 10
22675.009527000009
 20
19960.75870000002
 30
0.0
 11
22435.009527000009
 21
19960.75870000002
 31
0.0
  0
LINE
  5
39A0
  8
SUNPOU
  6
CONTINUOUS
 62
     4
 10
22717.505831999992
 20
19960.75870000002
 30
0.0
 11
22957.505831999992
 21
19960.75870000002
 31
0.0
  0
LINE
  5
39A1
  8
SUNPOU
  6
CONTINUOUS
 62
     4
 10
22675.009527000009
 20
19960.75870000002
 30
0.0
 11
22717.505831999992
 21
19960.75870000002
 31
0.0
  0
LINE
  5
39A2
  8
SUNPOU
  6
CONTINUOUS
 62
     4
 10
19757.009526999998
 20
19310.75579700002
 30
0.0
 11
19757.009526999998
 21
20040.75870000002
 31
0.0
  0
LINE
  5
39A3
  8
SUNPOU
  6
CONTINUOUS
 62
     4
 10
19714.513222000001
 20
19310.75579700002
 30
0.0
 11
19714.513222000001
 21
20040.75870000002
 31
0.0
  0
LINE
  5
39A4
  8
SUNPOU
  6
CONTINUOUS
 62
     4
 10
19757.009526999998
 20
19960.75870000002
 30
0.0
 11
19997.009526999998
 21
19960.75870000002
 31
0.0
  0
LINE
  5
39A5
  8
SUNPOU
  6
CONTINUOUS
 62
     4
 10
19714.513222000001
 20
19960.75870000002
 30
0.0
 11
19474.513222000001
 21
19960.75870000002
 31
0.0
  0
LINE
  5
39A6
  8
SUNPOU
  6
CONTINUOUS
 62
     4
 10
19757.009526999998
 20
19960.75870000002
 30
0.0
 11
19714.513222000001
 21
19960.75870000002
 31
0.0
  0
LINE
  5
39A7
  8
SUNPOU
  6
CONTINUOUS
 62
     4
 10
14569.013606
 20
6111.4596339999998
 30
0.0
 11
15646.51202200001
 21
6111.4596339999998
 31
0.0
  0
LINE
  5
39A8
  8
SUNPOU
  6
CONTINUOUS
 62
     4
 10
14661.31888559939
 20
8460.4596340000007
 30
0.0
 11
15646.51202200001
 21
8460.4596340000007
 31
0.0
  0
LINE
  5
39A9
  8
SUNPOU
  6
CONTINUOUS
 62
     4
 10
15566.51202200001
 20
6111.4596339999998
 30
0.0
 11
15566.51202200001
 21
8460.4596340000007
 31
0.0
  0
LINE
  5
39AA
  8
SUNPOU
  6
CONTINUOUS
 62
     4
 10
9169.0136060000114
 20
6111.4596339999998
 30
0.0
 11
8086.5132100000128
 21
6111.4596339999998
 31
0.0
  0
LINE
  5
39AB
  8
SUNPOU
  6
CONTINUOUS
 62
     4
 10
8996.5136060000059
 20
8266.9596340000026
 30
0.0
 11
8086.5132100000128
 21
8266.9596340000026
 31
0.0
  0
LINE
  5
39AC
  8
SUNPOU
  6
CONTINUOUS
 62
     4
 10
8166.5132100000101
 20
6111.4596339999998
 30
0.0
 11
8166.5132100000128
 21
8266.9596340000026
 31
0.0
  0
LINE
  5
39AD
  8
SUNPOU
  6
CONTINUOUS
 62
     4
 10
14476.513606
 20
8406.3696970000001
 30
0.0
 11
14476.513606
 21
9339.4613089999966
 31
0.0
  0
LINE
  5
39AE
  8
SUNPOU
  6
CONTINUOUS
 62
     4
 10
14626.51360600001
 20
8480.3494564124285
 30
0.0
 11
14626.51360600001
 21
9339.4613089999966
 31
0.0
  0
LINE
  5
39AF
  8
SUNPOU
  6
CONTINUOUS
 62
     4
 10
14476.513606
 20
9259.4613089999966
 30
0.0
 11
14236.513606
 21
9259.4613089999966
 31
0.0
  0
LINE
  5
39B0
  8
SUNPOU
  6
CONTINUOUS
 62
     4
 10
14626.51360600001
 20
9259.4613089999966
 30
0.0
 11
14866.513606
 21
9259.4613089999966
 31
0.0
  0
LINE
  5
39B1
  8
SUNPOU
  6
CONTINUOUS
 62
     4
 10
14476.513606
 20
9259.4613089999966
 30
0.0
 11
14626.51360600001
 21
9259.4613089999966
 31
0.0
  0
LINE
  5
39B2
  8
SUNPOU
  6
CONTINUOUS
 62
     4
 10
9076.5136060000114
 20
8348.4596330000004
 30
0.0
 11
9076.5136060000114
 21
9739.4596589999965
 31
0.0
  0
LINE
  5
39B3
  8
SUNPOU
  6
CONTINUOUS
 62
     4
 10
14626.51360600001
 20
8480.3494564124285
 30
0.0
 11
14626.51360600001
 21
9739.4596589999965
 31
0.0
  0
LINE
  5
39B4
  8
SUNPOU
  6
CONTINUOUS
 62
     4
 10
9076.5136060000114
 20
9659.4596589999965
 30
0.0
 11
14626.51360600001
 21
9659.4596589999965
 31
0.0
  0
LINE
  5
39B5
  8
SUNPOU
  6
CONTINUOUS
 62
     4
 10
9256.5136060000114
 20
8218.6454086838057
 30
0.0
 11
9256.5136060000114
 21
9339.4613089999966
 31
0.0
  0
LINE
  5
39B6
  8
SUNPOU
  6
CONTINUOUS
 62
     4
 10
14476.513606
 20
8406.3696970000001
 30
0.0
 11
14476.513606
 21
9339.4613089999966
 31
0.0
  0
LINE
  5
39B7
  8
SUNPOU
  6
CONTINUOUS
 62
     4
 10
9256.5136060000114
 20
9259.4613089999966
 30
0.0
 11
14476.513606
 21
9259.4613089999966
 31
0.0
  0
LINE
  5
39B8
  8
SUNPOU
  6
CONTINUOUS
 62
     4
 10
9076.5136060000114
 20
8348.4596330000004
 30
0.0
 11
9076.5136060000114
 21
9339.4613089999966
 31
0.0
  0
LINE
  5
39B9
  8
SUNPOU
  6
CONTINUOUS
 62
     4
 10
9256.5136060000114
 20
8218.6454086838057
 30
0.0
 11
9256.5136060000114
 21
9339.4613089999966
 31
0.0
  0
LINE
  5
39BA
  8
SUNPOU
  6
CONTINUOUS
 62
     4
 10
9076.5136060000114
 20
9259.4613089999966
 30
0.0
 11
8836.5136060000114
 21
9259.4613089999966
 31
0.0
  0
LINE
  5
39BB
  8
SUNPOU
  6
CONTINUOUS
 62
     4
 10
9256.5136060000114
 20
9259.4613089999966
 30
0.0
 11
9496.5136060000132
 21
9259.4613089999966
 31
0.0
  0
LINE
  5
39BC
  8
SUNPOU
  6
CONTINUOUS
 62
     4
 10
9076.5136060000114
 20
9259.4613089999966
 30
0.0
 11
9256.5136060000114
 21
9259.4613089999966
 31
0.0
  0
LINE
  5
39BD
  8
SUNPOU
  6
CONTINUOUS
 62
     4
 10
14434.011627
 20
5668.8073749999958
 30
0.0
 11
14434.011627
 21
4731.4597979999953
 31
0.0
  0
LINE
  5
39BE
  8
SUNPOU
  6
CONTINUOUS
 62
     4
 10
14476.511627000011
 20
6031.4596329999977
 30
0.0
 11
14476.511627000011
 21
4731.4597979999953
 31
0.0
  0
LINE
  5
39BF
  8
SUNPOU
  6
CONTINUOUS
 62
     4
 10
14434.011627
 20
4811.4597979999962
 30
0.0
 11
14194.011627
 21
4811.4597979999962
 31
0.0
  0
LINE
  5
39C0
  8
SUNPOU
  6
CONTINUOUS
 62
     4
 10
14476.511627000011
 20
4811.4597979999962
 30
0.0
 11
14716.511627000011
 21
4811.4597979999962
 31
0.0
  0
LINE
  5
39C1
  8
SUNPOU
  6
CONTINUOUS
 62
     4
 10
14434.011627
 20
4811.4597979999962
 30
0.0
 11
14476.511627000011
 21
4811.4597979999962
 31
0.0
  0
LINE
  5
39C2
  8
SUNPOU
  6
CONTINUOUS
 62
     4
 10
11866.51360600001
 20
5668.8063859999993
 30
0.0
 11
11866.51360600001
 21
4731.4597990000002
 31
0.0
  0
LINE
  5
39C3
  8
SUNPOU
  6
CONTINUOUS
 62
     4
 10
14434.01360600001
 20
5668.8063859999993
 30
0.0
 11
14434.01360600001
 21
4731.4597990000002
 31
0.0
  0
LINE
  5
39C4
  8
SUNPOU
  6
CONTINUOUS
 62
     4
 10
11866.51360600001
 20
4811.4597990000002
 30
0.0
 11
14434.01360600001
 21
4811.4597990000002
 31
0.0
  0
LINE
  5
39C5
  8
SUNPOU
  6
CONTINUOUS
 62
     4
 10
9256.5136060000114
 20
6031.4596329999977
 30
0.0
 11
9256.5136060000114
 21
4331.4599629999948
 31
0.0
  0
LINE
  5
39C6
  8
SUNPOU
  6
CONTINUOUS
 62
     4
 10
14476.511627000011
 20
6031.4596329999977
 30
0.0
 11
14476.511627000011
 21
4331.4599629999948
 31
0.0
  0
LINE
  5
39C7
  8
SUNPOU
  6
CONTINUOUS
 62
     4
 10
9256.5136060000114
 20
4411.4599629999948
 30
0.0
 11
14476.511627000011
 21
4411.4599629999948
 31
0.0
  0
LINE
  5
39C8
  8
SUNPOU
  6
CONTINUOUS
 62
     4
 10
9299.0136060000114
 20
5668.8073749999958
 30
0.0
 11
9299.0136060000114
 21
4731.4597979999953
 31
0.0
  0
LINE
  5
39C9
  8
SUNPOU
  6
CONTINUOUS
 62
     4
 10
9256.5136060000114
 20
6031.4596329999977
 30
0.0
 11
9256.5136060000114
 21
4731.4597979999953
 31
0.0
  0
LINE
  5
39CA
  8
SUNPOU
  6
CONTINUOUS
 62
     4
 10
9299.0136060000114
 20
4811.4597979999962
 30
0.0
 11
9539.0136060000114
 21
4811.4597979999962
 31
0.0
  0
LINE
  5
39CB
  8
SUNPOU
  6
CONTINUOUS
 62
     4
 10
9256.5136060000114
 20
4811.4597979999962
 30
0.0
 11
9016.5136060000095
 21
4811.4597979999962
 31
0.0
  0
LINE
  5
39CC
  8
SUNPOU
  6
CONTINUOUS
 62
     4
 10
9299.0136060000114
 20
4811.4597979999962
 30
0.0
 11
9256.5136060000114
 21
4811.4597979999962
 31
0.0
  0
LINE
  5
39CD
  8
SUNPOU
  6
CONTINUOUS
 62
     4
 10
11866.51360600001
 20
5668.8073749999958
 30
0.0
 11
11866.51360600001
 21
4731.4597979999953
 31
0.0
  0
LINE
  5
39CE
  8
SUNPOU
  6
CONTINUOUS
 62
     4
 10
9299.0136060000114
 20
5668.8073749999958
 30
0.0
 11
9299.0136060000114
 21
4731.4597979999953
 31
0.0
  0
LINE
  5
39CF
  8
SUNPOU
  6
CONTINUOUS
 62
     4
 10
11866.51360600001
 20
4811.4597979999962
 30
0.0
 11
9299.0136060000114
 21
4811.4597979999962
 31
0.0
  0
LINE
  5
39D0
  8
SUNPOU
  6
CONTINUOUS
 62
     4
 10
19627.006888
 20
6111.4596339999998
 30
0.0
 11
18827.008206999999
 21
6111.4596339999998
 31
0.0
  0
LINE
  5
39D1
  8
SUNPOU
  6
CONTINUOUS
 62
     4
 10
19627.006888
 20
8002.9596339999989
 30
0.0
 11
18827.008206999999
 21
8002.9596339999989
 31
0.0
  0
LINE
  5
39D2
  8
SUNPOU
  6
CONTINUOUS
 62
     4
 10
18907.008206999999
 20
6111.4596339999998
 30
0.0
 11
18907.008206999999
 21
8002.9596339999989
 31
0.0
  0
LINE
  5
39D3
  8
SUNPOU
  6
CONTINUOUS
 62
     4
 10
19627.006888
 20
6111.4596339999998
 30
0.0
 11
18427.00589800001
 21
6111.4596340000016
 31
0.0
  0
LINE
  5
39D4
  8
SUNPOU
  6
CONTINUOUS
 62
     4
 10
19594.509132000021
 20
8460.4594890000008
 30
0.0
 11
18427.00589800001
 21
8460.4594890000008
 31
0.0
  0
LINE
  5
39D5
  8
SUNPOU
  6
CONTINUOUS
 62
     4
 10
18507.005897999989
 20
6111.4596339999998
 30
0.0
 11
18507.005897999999
 21
8460.4594890000008
 31
0.0
  0
LINE
  5
39E6
  8
SUNPOU
  6
CONTINUOUS
 62
     4
 10
22675.009527000009
 20
5668.8073760000016
 30
0.0
 11
22675.009527000009
 21
4731.4597990000038
 31
0.0
  0
LINE
  5
39E7
  8
SUNPOU
  6
CONTINUOUS
 62
     4
 10
22717.509527000009
 20
5931.4597990000048
 30
0.0
 11
22717.509527000009
 21
4731.4597990000038
 31
0.0
  0
LINE
  5
39E8
  8
SUNPOU
  6
CONTINUOUS
 62
     4
 10
22675.009527000009
 20
4811.4597990000038
 30
0.0
 11
22435.009527000009
 21
4811.4597990000038
 31
0.0
  0
LINE
  5
39E9
  8
SUNPOU
  6
CONTINUOUS
 62
     4
 10
22717.509527000009
 20
4811.4597990000038
 30
0.0
 11
22957.509527000009
 21
4811.4597990000038
 31
0.0
  0
LINE
  5
39EA
  8
SUNPOU
  6
CONTINUOUS
 62
     4
 10
22675.009527000009
 20
4811.4597990000038
 30
0.0
 11
22717.509527000009
 21
4811.4597990000038
 31
0.0
  0
LINE
  5
39EB
  8
SUNPOU
  6
CONTINUOUS
 62
     4
 10
19851.009526999991
 20
5931.4597990000048
 30
0.0
 11
19851.009526999991
 21
5131.4597990000057
 31
0.0
  0
LINE
  5
39EC
  8
SUNPOU
  6
CONTINUOUS
 62
     4
 10
22581.009526999998
 20
5931.4597990000048
 30
0.0
 11
22581.009526999998
 21
5131.4597990000057
 31
0.0
  0
LINE
  5
39ED
  8
SUNPOU
  6
CONTINUOUS
 62
     4
 10
19851.009526999991
 20
5211.4597990000057
 30
0.0
 11
22581.009526999998
 21
5211.4597990000057
 31
0.0
  0
LINE
  5
39EE
  8
SUNPOU
  6
CONTINUOUS
 62
     4
 10
19757.009526999998
 20
5668.8073760000016
 30
0.0
 11
19757.009526999998
 21
4731.4597990000038
 31
0.0
  0
LINE
  5
39EF
  8
SUNPOU
  6
CONTINUOUS
 62
     4
 10
22675.009527000009
 20
5668.8073760000016
 30
0.0
 11
22675.009527000009
 21
4731.4597990000038
 31
0.0
  0
LINE
  5
39F0
  8
SUNPOU
  6
CONTINUOUS
 62
     4
 10
19757.009526999998
 20
4811.4597990000038
 30
0.0
 11
22675.009527000009
 21
4811.4597990000038
 31
0.0
  0
LINE
  5
39F1
  8
SUNPOU
  6
CONTINUOUS
 62
     4
 10
19757.009526999998
 20
5668.8073760000016
 30
0.0
 11
19757.009526999998
 21
4731.4597990000038
 31
0.0
  0
LINE
  5
39F2
  8
SUNPOU
  6
CONTINUOUS
 62
     4
 10
19714.509526999991
 20
5931.4597990000048
 30
0.0
 11
19714.509526999991
 21
4731.4597990000038
 31
0.0
  0
LINE
  5
39F3
  8
SUNPOU
  6
CONTINUOUS
 62
     4
 10
19757.009526999998
 20
4811.4597990000038
 30
0.0
 11
19997.009526999998
 21
4811.4597990000038
 31
0.0
  0
LINE
  5
39F4
  8
SUNPOU
  6
CONTINUOUS
 62
     4
 10
19714.509526999991
 20
4811.4597990000038
 30
0.0
 11
19474.509526999991
 21
4811.4597990000038
 31
0.0
  0
LINE
  5
39F5
  8
SUNPOU
  6
CONTINUOUS
 62
     4
 10
19757.009526999998
 20
4811.4597990000038
 30
0.0
 11
19714.509526999991
 21
4811.4597990000038
 31
0.0
  0
LINE
  5
39F6
  8
SUNPOU
  6
CONTINUOUS
 62
     4
 10
19714.509526999991
 20
5931.4597990000048
 30
0.0
 11
19714.509526999991
 21
4331.4599640000033
 31
0.0
  0
LINE
  5
39F7
  8
SUNPOU
  6
CONTINUOUS
 62
     4
 10
22717.509527000009
 20
5931.4597990000048
 30
0.0
 11
22717.509527000009
 21
4331.4599640000033
 31
0.0
  0
LINE
  5
39F8
  8
SUNPOU
  6
CONTINUOUS
 62
     4
 10
19714.509526999991
 20
4411.4599640000042
 30
0.0
 11
22717.509527000009
 21
4411.4599640000042
 31
0.0
  0
TEXT
  5
39F9
  8
0
  6
CONTINUOUS
 62
     7
 10
20949.342860333341
 20
4491.4599640000033
 30
0.0
 40
160.0
  1
3003
  0
TEXT
  5
39FA
  8
0
  6
CONTINUOUS
 62
     7
 10
19148.470536741152
 20
4891.4597990000057
 30
0.0
 40
160.0
  1
42.5
  0
TEXT
  5
39FB
  8
0
  6
CONTINUOUS
 62
     7
 10
20949.342860333341
 20
4891.4597990000057
 30
0.0
 40
160.0
  1
2918
  0
TEXT
  5
39FC
  8
0
  6
CONTINUOUS
 62
     7
 10
20408.009526999998
 20
5291.4597990000057
 30
0.0
 40
160.0
  1
有効開口巾 2730
  0
TEXT
  5
39FD
  8
0
  6
CONTINUOUS
 62
     7
 10
22803.548517258841
 20
4891.4597990000057
 30
0.0
 40
160.0
  1
42.5
  0
TEXT
  5
3A02
  8
0
  6
CONTINUOUS
 62
     7
 10
18427.00589800001
 20
6517.9595615000053
 30
0.0
 40
160.0
  1
2349 (2589)
 50
90.0
  0
TEXT
  5
3A03
  8
0
  6
CONTINUOUS
 62
     7
 10
18827.008206999999
 20
6175.4388722912772
 30
0.0
 40
160.0
  1
有効開口高サ 1891.5
 50
90.0
  0
TEXT
  5
3A04
  8
0
  6
CONTINUOUS
 62
     7
 10
10182.763606
 20
4891.4597979999962
 30
0.0
 40
160.0
  1
2567.5
  0
TEXT
  5
3A05
  8
0
  6
CONTINUOUS
 62
     7
 10
8659.3398969037044
 20
4891.4597979999962
 30
0.0
 40
160.0
  1
42.5
  0
TEXT
  5
3A06
  8
0
  6
CONTINUOUS
 62
     7
 10
11586.5126165
 20
4491.4599629999957
 30
0.0
 40
160.0
  1
5220
  0
TEXT
  5
3A07
  8
0
  6
CONTINUOUS
 62
     7
 10
12750.263606
 20
4891.4597990000002
 30
0.0
 40
160.0
  1
2567.5
  0
TEXT
  5
3A08
  8
0
  6
CONTINUOUS
 62
     7
 10
14593.6853360963
 20
4891.4597979999962
 30
0.0
 40
160.0
  1
42.5
  0
TEXT
  5
3A09
  8
0
  6
CONTINUOUS
 62
     7
 10
8663.1802726666774
 20
9339.4613089999966
 30
0.0
 40
160.0
  1
180
  0
TEXT
  5
3A0A
  8
0
  6
CONTINUOUS
 62
     7
 10
11586.51360600001
 20
9339.4613089999966
 30
0.0
 40
160.0
  1
5220
  0
TEXT
  5
3A0B
  8
0
  6
CONTINUOUS
 62
     7
 10
11571.51360600001
 20
9739.4596589999965
 30
0.0
 40
160.0
  1
5550
  0
TEXT
  5
3A0C
  8
0
  6
CONTINUOUS
 62
     7
 10
14693.18027266667
 20
9339.4613089999966
 30
0.0
 40
160.0
  1
150
  0
TEXT
  5
3A0D
  8
0
  6
CONTINUOUS
 62
     7
 10
8086.5132100000101
 20
6197.2096340000026
 30
0.0
 40
160.0
  1
2155.5（2395.5）
 50
90.0
  0
TEXT
  5
3A0E
  8
0
  6
CONTINUOUS
 62
     7
 10
15486.51202200001
 20
6480.6263006666677
 30
0.0
 40
160.0
  1
2349（2589）
 50
90.0
  0
TEXT
  5
3A0F
  8
0
  6
CONTINUOUS
 62
     7
 10
19154.197547471202
 20
20040.75870000002
 30
0.0
 40
160.0
  1
42.5
  0
TEXT
  5
3A10
  8
0
  6
CONTINUOUS
 62
     7
 10
22797.821506528791
 20
20040.75870000002
 30
0.0
 40
160.0
  1
42.5
  0
TEXT
  5
3A11
  8
0
  6
CONTINUOUS
 62
     7
 10
20692.176193666681
 20
20040.75870000002
 30
0.0
 40
160.0
  1
701
  0
TEXT
  5
3A12
  8
0
  6
CONTINUOUS
 62
     7
 10
21393.176193666681
 20
20040.75870000002
 30
0.0
 40
160.0
  1
701
  0
TEXT
  5
3A13
  8
0
  6
CONTINUOUS
 62
     7
 10
22082.676688416679
 20
20040.75870000002
 30
0.0
 40
160.0
  1
758
  0
TEXT
  5
3A14
  8
0
  6
CONTINUOUS
 62
     7
 10
24087.509130999999
 20
13437.203980603201
 30
0.0
 40
160.0
  1
42.5
 50
90.0
  0
TEXT
  5
3A15
  8
0
  6
CONTINUOUS
 62
     7
 10
24087.509130999999
 20
19324.311043396781
 30
0.0
 40
160.0
  1
42.5
 50
90.0
  0
TEXT
  5
3A16
  8
0
  6
CONTINUOUS
 62
     7
 10
24487.509130999999
 20
16340.757512
 30
0.0
 40
160.0
  1
5220
 50
90.0
  0
TEXT
  5
3A17
  8
0
  6
CONTINUOUS
 62
     7
 10
24087.509130999999
 20
14937.007512
 30
0.0
 40
160.0
  1
2567.5
 50
90.0
  0
TEXT
  5
3A18
  8
0
  6
CONTINUOUS
 62
     7
 10
24087.509130999999
 20
17504.507511999989
 30
0.0
 40
160.0
  1
2567.5
 50
90.0
  0
TEXT
  5
3A19
  8
0
  6
CONTINUOUS
 62
     7
 10
23687.509130999992
 20
18256.924178666672
 30
0.0
 40
160.0
  1
701
 50
90.0
  0
TEXT
  5
3A1A
  8
0
  6
CONTINUOUS
 62
     7
 10
23687.509130999992
 20
17555.924178666672
 30
0.0
 40
160.0
  1
701
 50
90.0
  0
TEXT
  5
3A1B
  8
0
  6
CONTINUOUS
 62
     7
 10
23687.509130999992
 20
16786.424178666672
 30
0.0
 40
160.0
  1
758
 50
90.0
  0
TEXT
  5
3A1C
  8
0
  6
CONTINUOUS
 62
     7
 10
23687.509130999992
 20
16028.42417866667
 30
0.0
 40
160.0
  1
758
 50
90.0
  0
TEXT
  5
3A1D
  8
0
  6
CONTINUOUS
 62
     7
 10
23687.509130999992
 20
15339.04443441667
 30
0.0
 40
160.0
  1
701
 50
90.0
  0
TEXT
  5
3A1E
  8
0
  6
CONTINUOUS
 62
     7
 10
23687.509130999992
 20
14638.04443441667
 30
0.0
 40
160.0
  1
701
 50
90.0
  0
TEXT
  5
3A1F
  8
0
  6
CONTINUOUS
 62
     7
 10
20949.342860333341
 20
12761.809428
 30
0.0
 40
160.0
  1
3003
  0
TEXT
  5
3A20
  8
0
  6
CONTINUOUS
 62
     7
 10
19875.06319938209
 20
13161.809428
 30
0.0
 40
160.0
  1
42.5
  0
TEXT
  5
3A21
  8
0
  6
CONTINUOUS
 62
     7
 10
22076.955854617911
 20
13161.809428
 30
0.0
 40
160.0
  1
42.5
  0
TEXT
  5
3A22
  8
0
  6
CONTINUOUS
 62
     7
 10
22793.063199382079
 20
13161.809428
 30
0.0
 40
160.0
  1
42.5
  0
TEXT
  5
3A23
  8
0
  6
CONTINUOUS
 62
     7
 10
19158.955854617911
 20
13161.809428
 30
0.0
 40
160.0
  1
42.5
  0
TEXT
  5
3A24
  8
0
  6
CONTINUOUS
 62
     7
 10
18747.554950000002
 20
14274.29443441667
 30
0.0
 40
160.0
  1
1108.5
 50
90.0
  0
TEXT
  5
3A25
  8
0
  6
CONTINUOUS
 62
     7
 10
18747.554950000002
 20
15624.711101083331
 30
0.0
 40
160.0
  1
1459
 50
90.0
  0
TEXT
  5
3A26
  8
0
  6
CONTINUOUS
 62
     7
 10
18747.554950000002
 20
17083.590845333321
 30
0.0
 40
160.0
  1
1459
 50
90.0
  0
TEXT
  5
3A27
  8
0
  6
CONTINUOUS
 62
     7
 10
18747.554950000002
 20
18300.674178666672
 30
0.0
 40
160.0
  1
1108.5
 50
90.0
  0
TEXT
  5
3A28
  8
0
  6
CONTINUOUS
 62
     7
 10
24047.509130999999
 20
18490.13547964321
 30
0.0
 40
160.0
  1
407.5
 50
90.0
  0
TEXT
  5
3A29
  8
0
  6
CONTINUOUS
 62
     7
 10
24047.509130999999
 20
14126.19818195355
 30
0.0
 40
160.0
  1
407.5
 50
90.0
  0
TEXT
  5
3A2A
  8
0
  6
CONTINUOUS
 62
     7
 10
19922.676193666681
 20
20040.75870000002
 30
0.0
 40
160.0
  1
758
  0
TEXT
  5
3A2B
  8
0
  6
CONTINUOUS
 62
     7
 10
11469.59060733333
 20
20040.75870000002
 30
0.0
 40
160.0
  1
2918
  0
TEXT
  5
3A2C
  8
0
  6
CONTINUOUS
 62
     7
 10
13331.75398002325
 20
20040.75870000002
 30
0.0
 40
160.0
  1
85.5
  0
TEXT
  5
3A2D
  8
0
  6
CONTINUOUS
 62
     7
 10
9660.7605679767366
 20
20040.75870000002
 30
0.0
 40
160.0
  1
85.5
  0
TEXT
  5
3A2E
  8
0
  6
CONTINUOUS
 62
     7
 10
9267.7599719999871
 20
18300.674178666672
 30
0.0
 40
160.0
  1
1108.5
 50
90.0
  0
TEXT
  5
3A2F
  8
0
  6
CONTINUOUS
 62
     7
 10
9267.7599719999835
 20
19499.712696807681
 30
0.0
 40
160.0
  1
222.5
 50
90.0
  0
TEXT
  5
3A30
  8
0
  6
CONTINUOUS
 62
     7
 10
9667.7599719999907
 20
19530.753421000001
 30
0.0
 40
160.0
  1
20
 50
90.0
  0
TEXT
  5
3A31
  8
0
  6
CONTINUOUS
 62
     7
 10
9267.7599719999871
 20
17083.590845333321
 30
0.0
 40
160.0
  1
1459
 50
90.0
  0
TEXT
  5
3A32
  8
0
  6
CONTINUOUS
 62
     7
 10
9267.7599719999907
 20
15624.711101083331
 30
0.0
 40
160.0
  1
1459
 50
90.0
  0
TEXT
  5
3A33
  8
0
  6
CONTINUOUS
 62
     7
 10
9267.7599719999871
 20
14274.29443441667
 30
0.0
 40
160.0
  1
1108.5
 50
90.0
  0
TEXT
  5
3A34
  8
0
  6
CONTINUOUS
 62
     7
 10
9267.7599719999871
 20
13245.304501702631
 30
0.0
 40
160.0
  1
192.5
 50
90.0
  0
ARC
  5
3A3A
  8
0
  6
BYBLOCK
 62
     0
 10
9347.7599719999907
 20
14053.257512
 30
0.0
 40
15.0
 50
90.0
 51
270.0
  0
ARC
  5
3A3B
  8
0
  6
BYBLOCK
 62
     0
 10
9347.7599719999907
 20
14053.257512
 30
0.0
 40
15.0
 50
270.0
 51
90.0
  0
ARC
  5
3A3C
  8
0
  6
BYBLOCK
 62
     0
 10
9347.7599719999907
 20
13860.762197
 30
0.0
 40
15.0
 50
270.0
 51
90.0
  0
ARC
  5
3A3D
  8
0
  6
BYBLOCK
 62
     0
 10
9347.7599719999907
 20
13860.762197
 30
0.0
 40
15.0
 50
90.0
 51
270.0
  0
ARC
  5
3A3E
  8
0
  6
BYBLOCK
 62
     0
 10
9347.7599719999907
 20
15161.99802350002
 30
0.0
 40
15.0
 50
270.0
 51
90.0
  0
ARC
  5
3A3F
  8
0
  6
BYBLOCK
 62
     0
 10
9347.7599719999907
 20
15161.99802350002
 30
0.0
 40
15.0
 50
90.0
 51
270.0
  0
ARC
  5
3A40
  8
0
  6
BYBLOCK
 62
     0
 10
9347.7599719999907
 20
14053.257512
 30
0.0
 40
15.0
 50
90.0
 51
270.0
  0
ARC
  5
3A41
  8
0
  6
BYBLOCK
 62
     0
 10
9347.7599719999907
 20
14053.257512
 30
0.0
 40
15.0
 50
270.0
 51
90.0
  0
ARC
  5
3A42
  8
0
  6
BYBLOCK
 62
     0
 10
9347.7599719999907
 20
16620.757511999989
 30
0.0
 40
15.0
 50
270.0
 51
90.0
  0
ARC
  5
3A43
  8
0
  6
BYBLOCK
 62
     0
 10
9347.7599719999907
 20
16620.757511999989
 30
0.0
 40
15.0
 50
90.0
 51
270.0
  0
ARC
  5
3A44
  8
0
  6
BYBLOCK
 62
     0
 10
9347.7599719999907
 20
15161.99802350002
 30
0.0
 40
15.0
 50
90.0
 51
270.0
  0
ARC
  5
3A45
  8
0
  6
BYBLOCK
 62
     0
 10
9347.7599719999907
 20
15161.99802350002
 30
0.0
 40
15.0
 50
270.0
 51
90.0
  0
ARC
  5
3A46
  8
0
  6
BYBLOCK
 62
     0
 10
9347.7599719999907
 20
18079.757511999978
 30
0.0
 40
15.0
 50
270.0
 51
90.0
  0
ARC
  5
3A47
  8
0
  6
BYBLOCK
 62
     0
 10
9347.7599719999907
 20
18079.757511999978
 30
0.0
 40
15.0
 50
90.0
 51
270.0
  0
ARC
  5
3A48
  8
0
  6
BYBLOCK
 62
     0
 10
9347.7599719999907
 20
16620.757511999989
 30
0.0
 40
15.0
 50
90.0
 51
270.0
  0
ARC
  5
3A49
  8
0
  6
BYBLOCK
 62
     0
 10
9347.7599719999907
 20
16620.757511999989
 30
0.0
 40
15.0
 50
270.0
 51
90.0
  0
ARC
  5
3A4A
  8
0
  6
BYBLOCK
 62
     0
 10
9747.7599719999907
 20
19390.753421000001
 30
0.0
 40
15.0
 50
270.0
 51
90.0
  0
ARC
  5
3A4B
  8
0
  6
BYBLOCK
 62
     0
 10
9747.7599719999907
 20
19390.753421000001
 30
0.0
 40
15.0
 50
90.0
 51
270.0
  0
ARC
  5
3A4C
  8
0
  6
BYBLOCK
 62
     0
 10
9747.7599719999907
 20
19410.753421000009
 30
0.0
 40
15.0
 50
90.0
 51
270.0
  0
ARC
  5
3A4D
  8
0
  6
BYBLOCK
 62
     0
 10
9747.7599719999907
 20
19410.753421000009
 30
0.0
 40
15.0
 50
270.0
 51
90.0
  0
ARC
  5
3A4E
  8
0
  6
BYBLOCK
 62
     0
 10
9347.7599719999871
 20
19188.257511999989
 30
0.0
 40
15.0
 50
270.0
 51
90.0
  0
ARC
  5
3A4F
  8
0
  6
BYBLOCK
 62
     0
 10
9347.7599719999871
 20
19188.257511999989
 30
0.0
 40
15.0
 50
90.0
 51
270.0
  0
ARC
  5
3A50
  8
0
  6
BYBLOCK
 62
     0
 10
9347.7599719999871
 20
19410.753421000009
 30
0.0
 40
15.0
 50
90.0
 51
270.0
  0
ARC
  5
3A51
  8
0
  6
BYBLOCK
 62
     0
 10
9347.7599719999871
 20
19410.753421000009
 30
0.0
 40
15.0
 50
270.0
 51
90.0
  0
ARC
  5
3A52
  8
0
  6
BYBLOCK
 62
     0
 10
9347.7599719999871
 20
18079.757511999978
 30
0.0
 40
15.0
 50
90.0
 51
270.0
  0
ARC
  5
3A53
  8
0
  6
BYBLOCK
 62
     0
 10
9347.7599719999871
 20
18079.757511999978
 30
0.0
 40
15.0
 50
270.0
 51
90.0
  0
ARC
  5
3A54
  8
0
  6
BYBLOCK
 62
     0
 10
9347.7599719999871
 20
19188.257511999989
 30
0.0
 40
15.0
 50
270.0
 51
90.0
  0
ARC
  5
3A55
  8
0
  6
BYBLOCK
 62
     0
 10
9347.7599719999871
 20
19188.257511999989
 30
0.0
 40
15.0
 50
90.0
 51
270.0
  0
ARC
  5
3A56
  8
0
  6
BYBLOCK
 62
     0
 10
10277.257274
 20
19960.75870000002
 30
0.0
 40
15.0
 50
0.0
 51
180.0
  0
ARC
  5
3A57
  8
0
  6
BYBLOCK
 62
     0
 10
10277.257274
 20
19960.75870000002
 30
0.0
 40
15.0
 50
180.0
 51
0.0
  0
ARC
  5
3A58
  8
0
  6
BYBLOCK
 62
     0
 10
10191.757273999991
 20
19960.75870000002
 30
0.0
 40
15.0
 50
180.0
 51
0.0
  0
ARC
  5
3A59
  8
0
  6
BYBLOCK
 62
     0
 10
10191.757273999991
 20
19960.75870000002
 30
0.0
 40
15.0
 50
0.0
 51
180.0
  0
ARC
  5
3A5A
  8
0
  6
BYBLOCK
 62
     0
 10
13195.257274
 20
19960.75870000002
 30
0.0
 40
15.0
 50
180.0
 51
0.0
  0
ARC
  5
3A5B
  8
0
  6
BYBLOCK
 62
     0
 10
13195.257274
 20
19960.75870000002
 30
0.0
 40
15.0
 50
0.0
 51
180.0
  0
ARC
  5
3A5C
  8
0
  6
BYBLOCK
 62
     0
 10
13280.757273999991
 20
19960.75870000002
 30
0.0
 40
15.0
 50
0.0
 51
180.0
  0
ARC
  5
3A5D
  8
0
  6
BYBLOCK
 62
     0
 10
13280.757273999991
 20
19960.75870000002
 30
0.0
 40
15.0
 50
180.0
 51
0.0
  0
ARC
  5
3A5E
  8
0
  6
BYBLOCK
 62
     0
 10
13195.257274
 20
19960.75870000002
 30
0.0
 40
15.0
 50
180.0
 51
0.0
  0
ARC
  5
3A5F
  8
0
  6
BYBLOCK
 62
     0
 10
13195.257274
 20
19960.75870000002
 30
0.0
 40
15.0
 50
0.0
 51
180.0
  0
ARC
  5
3A60
  8
0
  6
BYBLOCK
 62
     0
 10
10277.257274
 20
19960.75870000002
 30
0.0
 40
15.0
 50
0.0
 51
180.0
  0
ARC
  5
3A61
  8
0
  6
BYBLOCK
 62
     0
 10
10277.257274
 20
19960.75870000002
 30
0.0
 40
15.0
 50
180.0
 51
0.0
  0
ARC
  5
3A62
  8
0
  6
BYBLOCK
 62
     0
 10
19757.009526999998
 20
19960.75870000002
 30
0.0
 40
15.0
 50
0.0
 51
180.0
  0
ARC
  5
3A63
  8
0
  6
BYBLOCK
 62
     0
 10
19757.009526999998
 20
19960.75870000002
 30
0.0
 40
15.0
 50
180.0
 51
0.0
  0
ARC
  5
3A64
  8
0
  6
BYBLOCK
 62
     0
 10
20515.009526999998
 20
19960.75870000002
 30
0.0
 40
15.0
 50
180.0
 51
0.0
  0
ARC
  5
3A65
  8
0
  6
BYBLOCK
 62
     0
 10
20515.009526999998
 20
19960.75870000002
 30
0.0
 40
15.0
 50
0.0
 51
180.0
  0
ARC
  5
3A66
  8
0
  6
BYBLOCK
 62
     0
 10
23767.50913100001
 20
14460.87776775
 30
0.0
 40
15.0
 50
270.0
 51
90.0
  0
ARC
  5
3A67
  8
0
  6
BYBLOCK
 62
     0
 10
23767.50913100001
 20
14460.87776775
 30
0.0
 40
15.0
 50
90.0
 51
270.0
  0
ARC
  5
3A68
  8
0
  6
BYBLOCK
 62
     0
 10
23767.50913100001
 20
14053.37776775
 30
0.0
 40
15.0
 50
90.0
 51
270.0
  0
ARC
  5
3A69
  8
0
  6
BYBLOCK
 62
     0
 10
23767.50913100001
 20
14053.37776775
 30
0.0
 40
15.0
 50
270.0
 51
90.0
  0
ARC
  5
3A6A
  8
0
  6
BYBLOCK
 62
     0
 10
23767.50913100001
 20
18780.757511999989
 30
0.0
 40
15.0
 50
90.0
 51
270.0
  0
ARC
  5
3A6B
  8
0
  6
BYBLOCK
 62
     0
 10
23767.50913100001
 20
18780.757511999989
 30
0.0
 40
15.0
 50
270.0
 51
90.0
  0
ARC
  5
3A6C
  8
0
  6
BYBLOCK
 62
     0
 10
23767.50913100001
 20
19188.257511999989
 30
0.0
 40
15.0
 50
270.0
 51
90.0
  0
ARC
  5
3A6D
  8
0
  6
BYBLOCK
 62
     0
 10
23767.50913100001
 20
19188.257511999989
 30
0.0
 40
15.0
 50
90.0
 51
270.0
  0
ARC
  5
3A6E
  8
0
  6
BYBLOCK
 62
     0
 10
18827.554950000002
 20
18079.757511999978
 30
0.0
 40
15.0
 50
90.0
 51
270.0
  0
ARC
  5
3A6F
  8
0
  6
BYBLOCK
 62
     0
 10
18827.554950000002
 20
18079.757511999978
 30
0.0
 40
15.0
 50
270.0
 51
90.0
  0
ARC
  5
3A70
  8
0
  6
BYBLOCK
 62
     0
 10
18827.554950000002
 20
19188.257511999989
 30
0.0
 40
15.0
 50
270.0
 51
90.0
  0
ARC
  5
3A71
  8
0
  6
BYBLOCK
 62
     0
 10
18827.554950000002
 20
19188.257511999989
 30
0.0
 40
15.0
 50
90.0
 51
270.0
  0
ARC
  5
3A72
  8
0
  6
BYBLOCK
 62
     0
 10
18827.554950000002
 20
16620.757511999989
 30
0.0
 40
15.0
 50
90.0
 51
270.0
  0
ARC
  5
3A73
  8
0
  6
BYBLOCK
 62
     0
 10
18827.554950000002
 20
16620.757511999989
 30
0.0
 40
15.0
 50
270.0
 51
90.0
  0
ARC
  5
3A74
  8
0
  6
BYBLOCK
 62
     0
 10
18827.554950000002
 20
18079.757511999978
 30
0.0
 40
15.0
 50
270.0
 51
90.0
  0
ARC
  5
3A75
  8
0
  6
BYBLOCK
 62
     0
 10
18827.554950000002
 20
18079.757511999978
 30
0.0
 40
15.0
 50
90.0
 51
270.0
  0
ARC
  5
3A76
  8
0
  6
BYBLOCK
 62
     0
 10
18827.554950000002
 20
15161.99802350002
 30
0.0
 40
15.0
 50
90.0
 51
270.0
  0
ARC
  5
3A77
  8
0
  6
BYBLOCK
 62
     0
 10
18827.554950000002
 20
15161.99802350002
 30
0.0
 40
15.0
 50
270.0
 51
90.0
  0
ARC
  5
3A78
  8
0
  6
BYBLOCK
 62
     0
 10
18827.554950000002
 20
16620.757511999989
 30
0.0
 40
15.0
 50
270.0
 51
90.0
  0
ARC
  5
3A79
  8
0
  6
BYBLOCK
 62
     0
 10
18827.554950000002
 20
16620.757511999989
 30
0.0
 40
15.0
 50
90.0
 51
270.0
  0
ARC
  5
3A7A
  8
0
  6
BYBLOCK
 62
     0
 10
18827.554950000002
 20
14053.257512
 30
0.0
 40
15.0
 50
90.0
 51
270.0
  0
ARC
  5
3A7B
  8
0
  6
BYBLOCK
 62
     0
 10
18827.554950000002
 20
14053.257512
 30
0.0
 40
15.0
 50
270.0
 51
90.0
  0
ARC
  5
3A7C
  8
0
  6
BYBLOCK
 62
     0
 10
18827.554950000002
 20
15161.99802350002
 30
0.0
 40
15.0
 50
270.0
 51
90.0
  0
ARC
  5
3A7D
  8
0
  6
BYBLOCK
 62
     0
 10
18827.554950000002
 20
15161.99802350002
 30
0.0
 40
15.0
 50
90.0
 51
270.0
  0
ARC
  5
3A7E
  8
0
  6
BYBLOCK
 62
     0
 10
19757.009526999998
 20
13081.809428
 30
0.0
 40
15.0
 50
0.0
 51
180.0
  0
ARC
  5
3A7F
  8
0
  6
BYBLOCK
 62
     0
 10
19757.009526999998
 20
13081.809428
 30
0.0
 40
15.0
 50
180.0
 51
0.0
  0
ARC
  5
3A80
  8
0
  6
BYBLOCK
 62
     0
 10
19714.50728400001
 20
13081.809428
 30
0.0
 40
15.0
 50
180.0
 51
0.0
  0
ARC
  5
3A81
  8
0
  6
BYBLOCK
 62
     0
 10
19714.50728400001
 20
13081.809428
 30
0.0
 40
15.0
 50
0.0
 51
180.0
  0
ARC
  5
3A82
  8
0
  6
BYBLOCK
 62
     0
 10
22675.009527000009
 20
13081.809428
 30
0.0
 40
15.0
 50
180.0
 51
0.0
  0
ARC
  5
3A83
  8
0
  6
BYBLOCK
 62
     0
 10
22675.009527000009
 20
13081.809428
 30
0.0
 40
15.0
 50
0.0
 51
180.0
  0
ARC
  5
3A84
  8
0
  6
BYBLOCK
 62
     0
 10
22717.511770000001
 20
13081.809428
 30
0.0
 40
15.0
 50
0.0
 51
180.0
  0
ARC
  5
3A85
  8
0
  6
BYBLOCK
 62
     0
 10
22717.511770000001
 20
13081.809428
 30
0.0
 40
15.0
 50
180.0
 51
0.0
  0
ARC
  5
3A86
  8
0
  6
BYBLOCK
 62
     0
 10
22675.009527000009
 20
13081.809428
 30
0.0
 40
15.0
 50
0.0
 51
180.0
  0
ARC
  5
3A87
  8
0
  6
BYBLOCK
 62
     0
 10
22675.009527000009
 20
13081.809428
 30
0.0
 40
15.0
 50
180.0
 51
0.0
  0
ARC
  5
3A88
  8
0
  6
BYBLOCK
 62
     0
 10
22632.507283999999
 20
13081.809428
 30
0.0
 40
15.0
 50
180.0
 51
0.0
  0
ARC
  5
3A89
  8
0
  6
BYBLOCK
 62
     0
 10
22632.507283999999
 20
13081.809428
 30
0.0
 40
15.0
 50
0.0
 51
180.0
  0
ARC
  5
3A8A
  8
0
  6
BYBLOCK
 62
     0
 10
19757.009526999998
 20
13081.809428
 30
0.0
 40
15.0
 50
180.0
 51
0.0
  0
ARC
  5
3A8B
  8
0
  6
BYBLOCK
 62
     0
 10
19757.009526999998
 20
13081.809428
 30
0.0
 40
15.0
 50
0.0
 51
180.0
  0
ARC
  5
3A8C
  8
0
  6
BYBLOCK
 62
     0
 10
19799.511770000001
 20
13081.809428
 30
0.0
 40
15.0
 50
0.0
 51
180.0
  0
ARC
  5
3A8D
  8
0
  6
BYBLOCK
 62
     0
 10
19799.511770000001
 20
13081.809428
 30
0.0
 40
15.0
 50
180.0
 51
0.0
  0
ARC
  5
3A8E
  8
0
  6
BYBLOCK
 62
     0
 10
19714.50728400001
 20
12681.809428
 30
0.0
 40
15.0
 50
0.0
 51
180.0
  0
ARC
  5
3A8F
  8
0
  6
BYBLOCK
 62
     0
 10
19714.50728400001
 20
12681.809428
 30
0.0
 40
15.0
 50
180.0
 51
0.0
  0
ARC
  5
3A90
  8
0
  6
BYBLOCK
 62
     0
 10
22717.511770000001
 20
12681.809428
 30
0.0
 40
15.0
 50
180.0
 51
0.0
  0
ARC
  5
3A91
  8
0
  6
BYBLOCK
 62
     0
 10
22717.511770000001
 20
12681.809428
 30
0.0
 40
15.0
 50
0.0
 51
180.0
  0
ARC
  5
3A92
  8
0
  6
BYBLOCK
 62
     0
 10
23767.50913100001
 20
15161.99802350002
 30
0.0
 40
15.0
 50
270.0
 51
90.0
  0
ARC
  5
3A93
  8
0
  6
BYBLOCK
 62
     0
 10
23767.50913100001
 20
15161.99802350002
 30
0.0
 40
15.0
 50
90.0
 51
270.0
  0
ARC
  5
3A94
  8
0
  6
BYBLOCK
 62
     0
 10
23767.50913100001
 20
14460.757511999989
 30
0.0
 40
15.0
 50
90.0
 51
270.0
  0
ARC
  5
3A95
  8
0
  6
BYBLOCK
 62
     0
 10
23767.50913100001
 20
14460.757511999989
 30
0.0
 40
15.0
 50
270.0
 51
90.0
  0
ARC
  5
3A96
  8
0
  6
BYBLOCK
 62
     0
 10
23767.50913100001
 20
15862.757512
 30
0.0
 40
15.0
 50
270.0
 51
90.0
  0
ARC
  5
3A97
  8
0
  6
BYBLOCK
 62
     0
 10
23767.50913100001
 20
15862.757512
 30
0.0
 40
15.0
 50
90.0
 51
270.0
  0
ARC
  5
3A98
  8
0
  6
BYBLOCK
 62
     0
 10
23767.50913100001
 20
15161.99802350002
 30
0.0
 40
15.0
 50
90.0
 51
270.0
  0
ARC
  5
3A99
  8
0
  6
BYBLOCK
 62
     0
 10
23767.50913100001
 20
15161.99802350002
 30
0.0
 40
15.0
 50
270.0
 51
90.0
  0
ARC
  5
3A9A
  8
0
  6
BYBLOCK
 62
     0
 10
23767.50913100001
 20
16620.757511999989
 30
0.0
 40
15.0
 50
270.0
 51
90.0
  0
ARC
  5
3A9B
  8
0
  6
BYBLOCK
 62
     0
 10
23767.50913100001
 20
16620.757511999989
 30
0.0
 40
15.0
 50
90.0
 51
270.0
  0
ARC
  5
3A9C
  8
0
  6
BYBLOCK
 62
     0
 10
23767.50913100001
 20
15862.757512
 30
0.0
 40
15.0
 50
90.0
 51
270.0
  0
ARC
  5
3A9D
  8
0
  6
BYBLOCK
 62
     0
 10
23767.50913100001
 20
15862.757512
 30
0.0
 40
15.0
 50
270.0
 51
90.0
  0
ARC
  5
3A9E
  8
0
  6
BYBLOCK
 62
     0
 10
23767.50913100001
 20
17378.757511999978
 30
0.0
 40
15.0
 50
270.0
 51
90.0
  0
ARC
  5
3A9F
  8
0
  6
BYBLOCK
 62
     0
 10
23767.50913100001
 20
17378.757511999978
 30
0.0
 40
15.0
 50
90.0
 51
270.0
  0
ARC
  5
3AA0
  8
0
  6
BYBLOCK
 62
     0
 10
23767.50913100001
 20
16620.757511999989
 30
0.0
 40
15.0
 50
90.0
 51
270.0
  0
ARC
  5
3AA1
  8
0
  6
BYBLOCK
 62
     0
 10
23767.50913100001
 20
16620.757511999989
 30
0.0
 40
15.0
 50
270.0
 51
90.0
  0
ARC
  5
3AA2
  8
0
  6
BYBLOCK
 62
     0
 10
23767.50913100001
 20
18079.757511999978
 30
0.0
 40
15.0
 50
270.0
 51
90.0
  0
ARC
  5
3AA3
  8
0
  6
BYBLOCK
 62
     0
 10
23767.50913100001
 20
18079.757511999978
 30
0.0
 40
15.0
 50
90.0
 51
270.0
  0
ARC
  5
3AA4
  8
0
  6
BYBLOCK
 62
     0
 10
23767.50913100001
 20
17378.757511999978
 30
0.0
 40
15.0
 50
90.0
 51
270.0
  0
ARC
  5
3AA5
  8
0
  6
BYBLOCK
 62
     0
 10
23767.50913100001
 20
17378.757511999978
 30
0.0
 40
15.0
 50
270.0
 51
90.0
  0
ARC
  5
3AA6
  8
0
  6
BYBLOCK
 62
     0
 10
23767.50913100001
 20
18780.757511999989
 30
0.0
 40
15.0
 50
270.0
 51
90.0
  0
ARC
  5
3AA7
  8
0
  6
BYBLOCK
 62
     0
 10
23767.50913100001
 20
18780.757511999989
 30
0.0
 40
15.0
 50
90.0
 51
270.0
  0
ARC
  5
3AA8
  8
0
  6
BYBLOCK
 62
     0
 10
23767.50913100001
 20
18079.757511999978
 30
0.0
 40
15.0
 50
90.0
 51
270.0
  0
ARC
  5
3AA9
  8
0
  6
BYBLOCK
 62
     0
 10
23767.50913100001
 20
18079.757511999978
 30
0.0
 40
15.0
 50
270.0
 51
90.0
  0
ARC
  5
3AAA
  8
0
  6
BYBLOCK
 62
     0
 10
24167.509130999999
 20
16620.757511999989
 30
0.0
 40
15.0
 50
90.0
 51
270.0
  0
ARC
  5
3AAB
  8
0
  6
BYBLOCK
 62
     0
 10
24167.509130999999
 20
16620.757511999989
 30
0.0
 40
15.0
 50
270.0
 51
90.0
  0
ARC
  5
3AAC
  8
0
  6
BYBLOCK
 62
     0
 10
24167.509130999999
 20
19188.257511999989
 30
0.0
 40
15.0
 50
270.0
 51
90.0
  0
ARC
  5
3AAD
  8
0
  6
BYBLOCK
 62
     0
 10
24167.509130999999
 20
19188.257511999989
 30
0.0
 40
15.0
 50
90.0
 51
270.0
  0
ARC
  5
3AAE
  8
0
  6
BYBLOCK
 62
     0
 10
24167.509130999999
 20
14053.257512
 30
0.0
 40
15.0
 50
90.0
 51
270.0
  0
ARC
  5
3AAF
  8
0
  6
BYBLOCK
 62
     0
 10
24167.509130999999
 20
14053.257512
 30
0.0
 40
15.0
 50
270.0
 51
90.0
  0
ARC
  5
3AB0
  8
0
  6
BYBLOCK
 62
     0
 10
24167.509130999999
 20
16620.757511999989
 30
0.0
 40
15.0
 50
270.0
 51
90.0
  0
ARC
  5
3AB1
  8
0
  6
BYBLOCK
 62
     0
 10
24167.509130999999
 20
16620.757511999989
 30
0.0
 40
15.0
 50
90.0
 51
270.0
  0
ARC
  5
3AB2
  8
0
  6
BYBLOCK
 62
     0
 10
24567.509130999999
 20
19230.754807000001
 30
0.0
 40
15.0
 50
270.0
 51
90.0
  0
ARC
  5
3AB3
  8
0
  6
BYBLOCK
 62
     0
 10
24567.509130999999
 20
19230.754807000001
 30
0.0
 40
15.0
 50
90.0
 51
270.0
  0
ARC
  5
3AB4
  8
0
  6
BYBLOCK
 62
     0
 10
24567.509130999999
 20
14010.76021699999
 30
0.0
 40
15.0
 50
90.0
 51
270.0
  0
ARC
  5
3AB5
  8
0
  6
BYBLOCK
 62
     0
 10
24567.509130999999
 20
14010.76021699999
 30
0.0
 40
15.0
 50
270.0
 51
90.0
  0
ARC
  5
3AB6
  8
0
  6
BYBLOCK
 62
     0
 10
24167.509130999999
 20
19188.257511999989
 30
0.0
 40
15.0
 50
270.0
 51
90.0
  0
ARC
  5
3AB7
  8
0
  6
BYBLOCK
 62
     0
 10
24167.509130999999
 20
19188.257511999989
 30
0.0
 40
15.0
 50
90.0
 51
270.0
  0
ARC
  5
3AB8
  8
0
  6
BYBLOCK
 62
     0
 10
24167.509130999999
 20
19230.754807000001
 30
0.0
 40
15.0
 50
90.0
 51
270.0
  0
ARC
  5
3AB9
  8
0
  6
BYBLOCK
 62
     0
 10
24167.509130999999
 20
19230.754807000001
 30
0.0
 40
15.0
 50
270.0
 51
90.0
  0
ARC
  5
3ABA
  8
0
  6
BYBLOCK
 62
     0
 10
24167.509130999999
 20
14053.257512
 30
0.0
 40
15.0
 50
90.0
 51
270.0
  0
ARC
  5
3ABB
  8
0
  6
BYBLOCK
 62
     0
 10
24167.509130999999
 20
14053.257512
 30
0.0
 40
15.0
 50
270.0
 51
90.0
  0
ARC
  5
3ABC
  8
0
  6
BYBLOCK
 62
     0
 10
24167.509130999999
 20
14010.76021699999
 30
0.0
 40
15.0
 50
270.0
 51
90.0
  0
ARC
  5
3ABD
  8
0
  6
BYBLOCK
 62
     0
 10
24167.509130999999
 20
14010.76021699999
 30
0.0
 40
15.0
 50
90.0
 51
270.0
  0
ARC
  5
3ABE
  8
0
  6
BYBLOCK
 62
     0
 10
21917.009526999998
 20
19960.75870000002
 30
0.0
 40
15.0
 50
0.0
 51
180.0
  0
ARC
  5
3ABF
  8
0
  6
BYBLOCK
 62
     0
 10
21917.009526999998
 20
19960.75870000002
 30
0.0
 40
15.0
 50
180.0
 51
0.0
  0
ARC
  5
3AC0
  8
0
  6
BYBLOCK
 62
     0
 10
22675.01051650002
 20
19960.75870000002
 30
0.0
 40
15.0
 50
180.0
 51
0.0
  0
ARC
  5
3AC1
  8
0
  6
BYBLOCK
 62
     0
 10
22675.01051650002
 20
19960.75870000002
 30
0.0
 40
15.0
 50
0.0
 51
180.0
  0
ARC
  5
3AC2
  8
0
  6
BYBLOCK
 62
     0
 10
21216.009526999998
 20
19960.75870000002
 30
0.0
 40
15.0
 50
0.0
 51
180.0
  0
ARC
  5
3AC3
  8
0
  6
BYBLOCK
 62
     0
 10
21216.009526999998
 20
19960.75870000002
 30
0.0
 40
15.0
 50
180.0
 51
0.0
  0
ARC
  5
3AC4
  8
0
  6
BYBLOCK
 62
     0
 10
21917.009526999998
 20
19960.75870000002
 30
0.0
 40
15.0
 50
180.0
 51
0.0
  0
ARC
  5
3AC5
  8
0
  6
BYBLOCK
 62
     0
 10
21917.009526999998
 20
19960.75870000002
 30
0.0
 40
15.0
 50
0.0
 51
180.0
  0
ARC
  5
3AC6
  8
0
  6
BYBLOCK
 62
     0
 10
20515.009526999998
 20
19960.75870000002
 30
0.0
 40
15.0
 50
0.0
 51
180.0
  0
ARC
  5
3AC7
  8
0
  6
BYBLOCK
 62
     0
 10
20515.009526999998
 20
19960.75870000002
 30
0.0
 40
15.0
 50
180.0
 51
0.0
  0
ARC
  5
3AC8
  8
0
  6
BYBLOCK
 62
     0
 10
21216.009526999998
 20
19960.75870000002
 30
0.0
 40
15.0
 50
180.0
 51
0.0
  0
ARC
  5
3AC9
  8
0
  6
BYBLOCK
 62
     0
 10
21216.009526999998
 20
19960.75870000002
 30
0.0
 40
15.0
 50
0.0
 51
180.0
  0
ARC
  5
3ACA
  8
0
  6
BYBLOCK
 62
     0
 10
22675.009527000009
 20
19960.75870000002
 30
0.0
 40
15.0
 50
180.0
 51
0.0
  0
ARC
  5
3ACB
  8
0
  6
BYBLOCK
 62
     0
 10
22675.009527000009
 20
19960.75870000002
 30
0.0
 40
15.0
 50
0.0
 51
180.0
  0
ARC
  5
3ACC
  8
0
  6
BYBLOCK
 62
     0
 10
22717.505831999992
 20
19960.75870000002
 30
0.0
 40
15.0
 50
0.0
 51
180.0
  0
ARC
  5
3ACD
  8
0
  6
BYBLOCK
 62
     0
 10
22717.505831999992
 20
19960.75870000002
 30
0.0
 40
15.0
 50
180.0
 51
0.0
  0
ARC
  5
3ACE
  8
0
  6
BYBLOCK
 62
     0
 10
19757.009526999998
 20
19960.75870000002
 30
0.0
 40
15.0
 50
0.0
 51
180.0
  0
ARC
  5
3ACF
  8
0
  6
BYBLOCK
 62
     0
 10
19757.009526999998
 20
19960.75870000002
 30
0.0
 40
15.0
 50
180.0
 51
0.0
  0
ARC
  5
3AD0
  8
0
  6
BYBLOCK
 62
     0
 10
19714.513222000001
 20
19960.75870000002
 30
0.0
 40
15.0
 50
180.0
 51
0.0
  0
ARC
  5
3AD1
  8
0
  6
BYBLOCK
 62
     0
 10
19714.513222000001
 20
19960.75870000002
 30
0.0
 40
15.0
 50
0.0
 51
180.0
  0
ARC
  5
3AD2
  8
0
  6
BYBLOCK
 62
     0
 10
15566.51202200001
 20
6111.4596339999998
 30
0.0
 40
15.0
 50
90.0
 51
270.0
  0
ARC
  5
3AD3
  8
0
  6
BYBLOCK
 62
     0
 10
15566.51202200001
 20
6111.4596339999998
 30
0.0
 40
15.0
 50
270.0
 51
90.0
  0
ARC
  5
3AD4
  8
0
  6
BYBLOCK
 62
     0
 10
15566.51202200001
 20
8460.4596340000007
 30
0.0
 40
15.0
 50
270.0
 51
90.0
  0
ARC
  5
3AD5
  8
0
  6
BYBLOCK
 62
     0
 10
15566.51202200001
 20
8460.4596340000007
 30
0.0
 40
15.0
 50
90.0
 51
270.0
  0
ARC
  5
3AD6
  8
0
  6
BYBLOCK
 62
     0
 10
8166.5132100000101
 20
6111.4596339999998
 30
0.0
 40
15.0
 50
90.0
 51
270.0
  0
ARC
  5
3AD7
  8
0
  6
BYBLOCK
 62
     0
 10
8166.5132100000101
 20
6111.4596339999998
 30
0.0
 40
15.0
 50
270.0
 51
90.0
  0
ARC
  5
3AD8
  8
0
  6
BYBLOCK
 62
     0
 10
8166.5132100000128
 20
8266.9596340000026
 30
0.0
 40
15.0
 50
270.0
 51
90.0
  0
ARC
  5
3AD9
  8
0
  6
BYBLOCK
 62
     0
 10
8166.5132100000128
 20
8266.9596340000026
 30
0.0
 40
15.0
 50
90.0
 51
270.0
  0
ARC
  5
3ADA
  8
0
  6
BYBLOCK
 62
     0
 10
14476.513606
 20
9259.4613089999966
 30
0.0
 40
15.0
 50
180.0
 51
0.0
  0
ARC
  5
3ADB
  8
0
  6
BYBLOCK
 62
     0
 10
14476.513606
 20
9259.4613089999966
 30
0.0
 40
15.0
 50
0.0
 51
180.0
  0
ARC
  5
3ADC
  8
0
  6
BYBLOCK
 62
     0
 10
14626.51360600001
 20
9259.4613089999966
 30
0.0
 40
15.0
 50
0.0
 51
180.0
  0
ARC
  5
3ADD
  8
0
  6
BYBLOCK
 62
     0
 10
14626.51360600001
 20
9259.4613089999966
 30
0.0
 40
15.0
 50
180.0
 51
0.0
  0
ARC
  5
3ADE
  8
0
  6
BYBLOCK
 62
     0
 10
9076.5136060000114
 20
9659.4596589999965
 30
0.0
 40
15.0
 50
0.0
 51
180.0
  0
ARC
  5
3ADF
  8
0
  6
BYBLOCK
 62
     0
 10
9076.5136060000114
 20
9659.4596589999965
 30
0.0
 40
15.0
 50
180.0
 51
0.0
  0
ARC
  5
3AE0
  8
0
  6
BYBLOCK
 62
     0
 10
14626.51360600001
 20
9659.4596589999965
 30
0.0
 40
15.0
 50
180.0
 51
0.0
  0
ARC
  5
3AE1
  8
0
  6
BYBLOCK
 62
     0
 10
14626.51360600001
 20
9659.4596589999965
 30
0.0
 40
15.0
 50
0.0
 51
180.0
  0
ARC
  5
3AE2
  8
0
  6
BYBLOCK
 62
     0
 10
9256.5136060000114
 20
9259.4613089999966
 30
0.0
 40
15.0
 50
0.0
 51
180.0
  0
ARC
  5
3AE3
  8
0
  6
BYBLOCK
 62
     0
 10
9256.5136060000114
 20
9259.4613089999966
 30
0.0
 40
15.0
 50
180.0
 51
0.0
  0
ARC
  5
3AE4
  8
0
  6
BYBLOCK
 62
     0
 10
14476.513606
 20
9259.4613089999966
 30
0.0
 40
15.0
 50
180.0
 51
0.0
  0
ARC
  5
3AE5
  8
0
  6
BYBLOCK
 62
     0
 10
14476.513606
 20
9259.4613089999966
 30
0.0
 40
15.0
 50
0.0
 51
180.0
  0
ARC
  5
3AE6
  8
0
  6
BYBLOCK
 62
     0
 10
9076.5136060000114
 20
9259.4613089999966
 30
0.0
 40
15.0
 50
180.0
 51
0.0
  0
ARC
  5
3AE7
  8
0
  6
BYBLOCK
 62
     0
 10
9076.5136060000114
 20
9259.4613089999966
 30
0.0
 40
15.0
 50
0.0
 51
180.0
  0
ARC
  5
3AE8
  8
0
  6
BYBLOCK
 62
     0
 10
9256.5136060000114
 20
9259.4613089999966
 30
0.0
 40
15.0
 50
0.0
 51
180.0
  0
ARC
  5
3AE9
  8
0
  6
BYBLOCK
 62
     0
 10
9256.5136060000114
 20
9259.4613089999966
 30
0.0
 40
15.0
 50
180.0
 51
0.0
  0
ARC
  5
3AEA
  8
0
  6
BYBLOCK
 62
     0
 10
14434.011627
 20
4811.4597979999962
 30
0.0
 40
15.0
 50
180.0
 51
0.0
  0
ARC
  5
3AEB
  8
0
  6
BYBLOCK
 62
     0
 10
14434.011627
 20
4811.4597979999962
 30
0.0
 40
15.0
 50
0.0
 51
180.0
  0
ARC
  5
3AEC
  8
0
  6
BYBLOCK
 62
     0
 10
14476.511627000011
 20
4811.4597979999962
 30
0.0
 40
15.0
 50
0.0
 51
180.0
  0
ARC
  5
3AED
  8
0
  6
BYBLOCK
 62
     0
 10
14476.511627000011
 20
4811.4597979999962
 30
0.0
 40
15.0
 50
180.0
 51
0.0
  0
ARC
  5
3AEE
  8
0
  6
BYBLOCK
 62
     0
 10
11866.51360600001
 20
4811.4597990000002
 30
0.0
 40
15.0
 50
0.0
 51
180.0
  0
ARC
  5
3AEF
  8
0
  6
BYBLOCK
 62
     0
 10
11866.51360600001
 20
4811.4597990000002
 30
0.0
 40
15.0
 50
180.0
 51
0.0
  0
ARC
  5
3AF0
  8
0
  6
BYBLOCK
 62
     0
 10
14434.01360600001
 20
4811.4597990000002
 30
0.0
 40
15.0
 50
180.0
 51
0.0
  0
ARC
  5
3AF1
  8
0
  6
BYBLOCK
 62
     0
 10
14434.01360600001
 20
4811.4597990000002
 30
0.0
 40
15.0
 50
0.0
 51
180.0
  0
ARC
  5
3AF2
  8
0
  6
BYBLOCK
 62
     0
 10
9256.5136060000114
 20
4411.4599629999948
 30
0.0
 40
15.0
 50
0.0
 51
180.0
  0
ARC
  5
3AF3
  8
0
  6
BYBLOCK
 62
     0
 10
9256.5136060000114
 20
4411.4599629999948
 30
0.0
 40
15.0
 50
180.0
 51
0.0
  0
ARC
  5
3AF4
  8
0
  6
BYBLOCK
 62
     0
 10
14476.511627000011
 20
4411.4599629999948
 30
0.0
 40
15.0
 50
180.0
 51
0.0
  0
ARC
  5
3AF5
  8
0
  6
BYBLOCK
 62
     0
 10
14476.511627000011
 20
4411.4599629999948
 30
0.0
 40
15.0
 50
0.0
 51
180.0
  0
ARC
  5
3AF6
  8
0
  6
BYBLOCK
 62
     0
 10
9299.0136060000114
 20
4811.4597979999962
 30
0.0
 40
15.0
 50
0.0
 51
180.0
  0
ARC
  5
3AF7
  8
0
  6
BYBLOCK
 62
     0
 10
9299.0136060000114
 20
4811.4597979999962
 30
0.0
 40
15.0
 50
180.0
 51
0.0
  0
ARC
  5
3AF8
  8
0
  6
BYBLOCK
 62
     0
 10
9256.5136060000114
 20
4811.4597979999962
 30
0.0
 40
15.0
 50
180.0
 51
0.0
  0
ARC
  5
3AF9
  8
0
  6
BYBLOCK
 62
     0
 10
9256.5136060000114
 20
4811.4597979999962
 30
0.0
 40
15.0
 50
0.0
 51
180.0
  0
ARC
  5
3AFA
  8
0
  6
BYBLOCK
 62
     0
 10
11866.51360600001
 20
4811.4597979999962
 30
0.0
 40
15.0
 50
180.0
 51
0.0
  0
ARC
  5
3AFB
  8
0
  6
BYBLOCK
 62
     0
 10
11866.51360600001
 20
4811.4597979999962
 30
0.0
 40
15.0
 50
0.0
 51
180.0
  0
ARC
  5
3AFC
  8
0
  6
BYBLOCK
 62
     0
 10
9299.0136060000114
 20
4811.4597979999962
 30
0.0
 40
15.0
 50
0.0
 51
180.0
  0
ARC
  5
3AFD
  8
0
  6
BYBLOCK
 62
     0
 10
9299.0136060000114
 20
4811.4597979999962
 30
0.0
 40
15.0
 50
180.0
 51
0.0
  0
ARC
  5
3AFE
  8
0
  6
BYBLOCK
 62
     0
 10
18907.008206999999
 20
6111.4596339999998
 30
0.0
 40
15.0
 50
90.0
 51
270.0
  0
ARC
  5
3AFF
  8
0
  6
BYBLOCK
 62
     0
 10
18907.008206999999
 20
6111.4596339999998
 30
0.0
 40
15.0
 50
270.0
 51
90.0
  0
ARC
  5
3B00
  8
0
  6
BYBLOCK
 62
     0
 10
18907.008206999999
 20
8002.9596339999989
 30
0.0
 40
15.0
 50
270.0
 51
90.0
  0
ARC
  5
3B01
  8
0
  6
BYBLOCK
 62
     0
 10
18907.008206999999
 20
8002.9596339999989
 30
0.0
 40
15.0
 50
90.0
 51
270.0
  0
ARC
  5
3B02
  8
0
  6
BYBLOCK
 62
     0
 10
18507.005897999989
 20
6111.4596339999998
 30
0.0
 40
15.0
 50
90.0
 51
270.0
  0
ARC
  5
3B03
  8
0
  6
BYBLOCK
 62
     0
 10
18507.005897999989
 20
6111.4596339999998
 30
0.0
 40
15.0
 50
270.0
 51
90.0
  0
ARC
  5
3B04
  8
0
  6
BYBLOCK
 62
     0
 10
18507.005897999999
 20
8460.4594890000008
 30
0.0
 40
15.0
 50
270.0
 51
90.0
  0
ARC
  5
3B05
  8
0
  6
BYBLOCK
 62
     0
 10
18507.005897999999
 20
8460.4594890000008
 30
0.0
 40
15.0
 50
90.0
 51
270.0
  0
ARC
  5
3B16
  8
0
  6
BYBLOCK
 62
     0
 10
22675.009527000009
 20
4811.4597990000038
 30
0.0
 40
15.0
 50
180.0
 51
0.0
  0
ARC
  5
3B17
  8
0
  6
BYBLOCK
 62
     0
 10
22675.009527000009
 20
4811.4597990000038
 30
0.0
 40
15.0
 50
0.0
 51
180.0
  0
ARC
  5
3B18
  8
0
  6
BYBLOCK
 62
     0
 10
22717.509527000009
 20
4811.4597990000038
 30
0.0
 40
15.0
 50
0.0
 51
180.0
  0
ARC
  5
3B19
  8
0
  6
BYBLOCK
 62
     0
 10
22717.509527000009
 20
4811.4597990000038
 30
0.0
 40
15.0
 50
180.0
 51
0.0
  0
ARC
  5
3B1A
  8
0
  6
BYBLOCK
 62
     0
 10
19851.009526999991
 20
5211.4597990000057
 30
0.0
 40
15.0
 50
0.0
 51
180.0
  0
ARC
  5
3B1B
  8
0
  6
BYBLOCK
 62
     0
 10
19851.009526999991
 20
5211.4597990000057
 30
0.0
 40
15.0
 50
180.0
 51
0.0
  0
ARC
  5
3B1C
  8
0
  6
BYBLOCK
 62
     0
 10
22581.009526999998
 20
5211.4597990000057
 30
0.0
 40
15.0
 50
180.0
 51
0.0
  0
ARC
  5
3B1D
  8
0
  6
BYBLOCK
 62
     0
 10
22581.009526999998
 20
5211.4597990000057
 30
0.0
 40
15.0
 50
0.0
 51
180.0
  0
ARC
  5
3B1E
  8
0
  6
BYBLOCK
 62
     0
 10
19757.009526999998
 20
4811.4597990000038
 30
0.0
 40
15.0
 50
0.0
 51
180.0
  0
ARC
  5
3B1F
  8
0
  6
BYBLOCK
 62
     0
 10
19757.009526999998
 20
4811.4597990000038
 30
0.0
 40
15.0
 50
180.0
 51
0.0
  0
ARC
  5
3B20
  8
0
  6
BYBLOCK
 62
     0
 10
22675.009527000009
 20
4811.4597990000038
 30
0.0
 40
15.0
 50
180.0
 51
0.0
  0
ARC
  5
3B21
  8
0
  6
BYBLOCK
 62
     0
 10
22675.009527000009
 20
4811.4597990000038
 30
0.0
 40
15.0
 50
0.0
 51
180.0
  0
ARC
  5
3B22
  8
0
  6
BYBLOCK
 62
     0
 10
19757.009526999998
 20
4811.4597990000038
 30
0.0
 40
15.0
 50
0.0
 51
180.0
  0
ARC
  5
3B23
  8
0
  6
BYBLOCK
 62
     0
 10
19757.009526999998
 20
4811.4597990000038
 30
0.0
 40
15.0
 50
180.0
 51
0.0
  0
ARC
  5
3B24
  8
0
  6
BYBLOCK
 62
     0
 10
19714.509526999991
 20
4811.4597990000038
 30
0.0
 40
15.0
 50
180.0
 51
0.0
  0
ARC
  5
3B25
  8
0
  6
BYBLOCK
 62
     0
 10
19714.509526999991
 20
4811.4597990000038
 30
0.0
 40
15.0
 50
0.0
 51
180.0
  0
ARC
  5
3B26
  8
0
  6
BYBLOCK
 62
     0
 10
19714.509526999991
 20
4411.4599640000042
 30
0.0
 40
15.0
 50
0.0
 51
180.0
  0
ARC
  5
3B27
  8
0
  6
BYBLOCK
 62
     0
 10
19714.509526999991
 20
4411.4599640000042
 30
0.0
 40
15.0
 50
180.0
 51
0.0
  0
ARC
  5
3B28
  8
0
  6
BYBLOCK
 62
     0
 10
22717.509527000009
 20
4411.4599640000042
 30
0.0
 40
15.0
 50
180.0
 51
0.0
  0
ARC
  5
3B29
  8
0
  6
BYBLOCK
 62
     0
 10
22717.509527000009
 20
4411.4599640000042
 30
0.0
 40
15.0
 50
0.0
 51
180.0
  0
TEXT
  5
3C34
  8
0
  6
CONTINUOUS
 62
     7
 10
20949.342860333341
 20
9338.9595019999961
 30
0.0
 40
160.0
  1
3003
  0
TEXT
  5
3C35
  8
0
  6
CONTINUOUS
 62
     7
 10
20936.009526999998
 20
9738.9172720000006
 30
0.0
 40
160.0
  1
3089
  0
LINE
  5
3C36
  8
0-1
  6
CONTINUOUS
 62
     3
 10
19799.50583200001
 20
8195.9600030000001
 30
0.0
 11
22632.509263
 21
8195.9600030000001
 31
0.0
  0
LINE
  5
3C37
  8
0-1
  6
CONTINUOUS
 62
     3
 10
19671.509132000021
 20
8133.7739220000012
 30
0.0
 11
19671.509132000021
 21
8459.4596599999986
 31
0.0
  0
LINE
  5
3C38
  8
0-1
  6
CONTINUOUS
 62
     3
 10
22760.507944000001
 20
8329.4597259999973
 30
0.0
 11
19671.509132000021
 21
8329.4597259999973
 31
0.0
  0
LINE
  5
3C39
  8
0-1
  6
CONTINUOUS
 62
     3
 10
22760.507944000001
 20
8459.4596599999986
 30
0.0
 11
22760.507944000001
 21
8133.7739220000012
 31
0.0
  0
LINE
  5
3C3A
  8
0-1
  6
CONTINUOUS
 62
     3
 10
19671.509132000021
 20
8459.4596599999986
 30
0.0
 11
22760.507944000001
 21
8459.4596599999986
 31
0.0
  0
LINE
  5
3C3B
  8
0-1
  6
CONTINUOUS
 62
     3
 10
22760.507944000001
 20
8133.7739220000012
 30
0.0
 11
22717.507812000011
 21
8133.7739220000012
 31
0.0
  0
LINE
  5
3C3C
  8
0-1
  6
CONTINUOUS
 62
     3
 10
19671.509132000021
 20
8133.7739220000012
 30
0.0
 11
19714.507284000021
 21
8133.7739220000012
 31
0.0
  0
LINE
  5
3C3D
  8
0-1
  6
CONTINUOUS
 62
     3
 10
19825.508788000021
 20
8204.9603800000059
 30
0.0
 11
20102.938318000019
 21
8204.9603800000059
 31
0.0
  0
LINE
  5
3C3E
  8
0-1
  6
CONTINUOUS
 62
     3
 10
19825.508788000021
 20
8246.9598250000017
 30
0.0
 11
20134.935256000019
 21
8246.9598250000017
 31
0.0
  0
LINE
  5
3C3F
  8
0-1
  6
CONTINUOUS
 62
     3
 10
19820.508525000008
 20
8209.9601490000023
 30
0.0
 11
19820.508525000008
 21
8241.9605510000038
 31
0.0
  0
LINE
  5
3C40
  8
0-1
  6
CONTINUOUS
 62
     3
 10
19799.50583200001
 20
8255.9597070000018
 30
0.0
 11
22632.509263
 21
8255.9597070000018
 31
0.0
  0
LINE
  5
3C41
  8
0-1
  6
CONTINUOUS
 62
     3
 10
20106.471758000022
 20
8206.4242340000019
 30
0.0
 11
20138.472656000002
 21
8238.4246360000034
 31
0.0
  0
LINE
  5
3C42
  8
0-1
  6
CONTINUOUS
 62
     3
 10
19820.508525000008
 20
8238.560233000002
 30
0.0
 11
20138.601323999999
 21
8238.560233000002
 31
0.0
  0
LINE
  5
3C43
  8
0-1
  6
CONTINUOUS
 62
     3
 10
19820.508525000008
 20
8230.1601460000002
 30
0.0
 11
20130.208166000011
 21
8230.1601460000002
 31
0.0
  0
LINE
  5
3C44
  8
0-1
  6
CONTINUOUS
 62
     3
 10
19820.508525000008
 20
8221.7605540000022
 30
0.0
 11
20121.80906800002
 21
8221.7605540000022
 31
0.0
  0
LINE
  5
3C45
  8
0-1
  6
CONTINUOUS
 62
     3
 10
19820.508525000008
 20
8213.3604670000022
 30
0.0
 11
20113.406012000021
 21
8213.3604670000022
 31
0.0
  0
LINE
  5
3C46
  8
0-1
  6
CONTINUOUS
 62
     3
 10
22611.508550999992
 20
8238.560233000002
 30
0.0
 11
22293.415751000011
 21
8238.560233000002
 31
0.0
  0
LINE
  5
3C47
  8
0-1
  6
CONTINUOUS
 62
     3
 10
22611.508550999992
 20
8230.1601460000002
 30
0.0
 11
22301.810889000011
 21
8230.1601460000002
 31
0.0
  0
LINE
  5
3C48
  8
0-1
  6
CONTINUOUS
 62
     3
 10
22611.508550999992
 20
8221.7605540000022
 30
0.0
 11
22310.209986000002
 21
8221.7605540000022
 31
0.0
  0
LINE
  5
3C49
  8
0-1
  6
CONTINUOUS
 62
     3
 10
22611.508550999992
 20
8213.3604670000022
 30
0.0
 11
22318.609084
 21
8213.3604670000022
 31
0.0
  0
LINE
  5
3C4A
  8
0-1
  6
CONTINUOUS
 62
     3
 10
22606.508287000011
 20
8246.9598250000017
 30
0.0
 11
22297.081818999992
 21
8246.9598250000017
 31
0.0
  0
LINE
  5
3C4B
  8
0-1
  6
CONTINUOUS
 62
     3
 10
22606.508287000011
 20
8204.9603800000059
 30
0.0
 11
22329.078758
 21
8204.9603800000059
 31
0.0
  0
LINE
  5
3C4C
  8
0-1
  6
CONTINUOUS
 62
     3
 10
22611.508550999992
 20
8209.9601490000023
 30
0.0
 11
22611.508550999992
 21
8241.9605510000038
 31
0.0
  0
LINE
  5
3C4D
  8
0-1
  6
CONTINUOUS
 62
     3
 10
22325.54333700001
 20
8206.4242340000019
 30
0.0
 11
22293.54639900001
 21
8238.4246360000034
 31
0.0
  0
ARC
  5
3C4E
  8
0-1
  6
CONTINUOUS
 62
     3
 10
19825.508788000021
 20
8241.9605510000038
 30
0.0
 40
5.0
 50
90.0
 51
180.0
  0
ARC
  5
3C4F
  8
0-1
  6
CONTINUOUS
 62
     3
 10
19825.508788000021
 20
8209.9601490000023
 30
0.0
 40
5.0
 50
180.0
 51
269.9999850001808
  0
ARC
  5
3C50
  8
0-1
  6
CONTINUOUS
 62
     3
 10
20102.938318000019
 20
8209.9601490000023
 30
0.0
 40
5.0
 50
269.9999850001808
 51
314.99998500027471
  0
ARC
  5
3C51
  8
0-1
  6
CONTINUOUS
 62
     3
 10
20134.935256000019
 20
8241.9605510000038
 30
0.0
 40
5.0
 50
314.99998500027471
 51
90.0
  0
ARC
  5
3C52
  8
0-1
  6
CONTINUOUS
 62
     3
 10
22606.508287000011
 20
8209.9601490000023
 30
0.0
 40
5.0
 50
269.9999850001808
 51
0.0
  0
ARC
  5
3C53
  8
0-1
  6
CONTINUOUS
 62
     3
 10
22606.508287000011
 20
8241.9605510000038
 30
0.0
 40
5.0
 50
0.0
 51
90.0
  0
ARC
  5
3C54
  8
0-1
  6
CONTINUOUS
 62
     3
 10
22297.081818999992
 20
8241.9605510000038
 30
0.0
 40
5.0
 50
90.0
 51
224.99998499997989
  0
ARC
  5
3C55
  8
0-1
  6
CONTINUOUS
 62
     3
 10
22329.078758
 20
8209.9601490000023
 30
0.0
 40
5.0
 50
224.99998499997989
 51
269.9999850001808
  0
LINE
  5
3C56
  8
SUNPOU
  6
CONTINUOUS
 62
     4
 10
22717.509790999989
 20
8539.4596599999968
 30
0.0
 11
22717.509790999989
 21
9338.9595019999961
 31
0.0
  0
LINE
  5
3C57
  8
SUNPOU
  6
CONTINUOUS
 62
     4
 10
22717.509790999989
 20
9258.9595019999961
 30
0.0
 11
22477.509790999989
 21
9258.9595019999961
 31
0.0
  0
LINE
  5
3C58
  8
SUNPOU
  6
CONTINUOUS
 62
     4
 10
22757.51190199998
 20
9258.9595019999961
 30
0.0
 11
22997.51190199998
 21
9258.9595019999961
 31
0.0
  0
LINE
  5
3C59
  8
SUNPOU
  6
CONTINUOUS
 62
     4
 10
22717.509790999989
 20
9258.9595019999961
 30
0.0
 11
22757.51190199998
 21
9258.9595019999961
 31
0.0
  0
LINE
  5
3C5A
  8
SUNPOU
  6
CONTINUOUS
 62
     4
 10
19671.507152000031
 20
8539.4596599999968
 30
0.0
 11
19671.507152000031
 21
9738.9172720000006
 31
0.0
  0
LINE
  5
3C5B
  8
SUNPOU
  6
CONTINUOUS
 62
     4
 10
22760.51190199998
 20
8539.4596599999968
 30
0.0
 11
22760.51190199998
 21
9738.9172720000006
 31
0.0
  0
LINE
  5
3C5C
  8
SUNPOU
  6
CONTINUOUS
 62
     4
 10
19671.507152000031
 20
9658.9172719999951
 30
0.0
 11
22757.51190199998
 21
9658.9172719999951
 31
0.0
  0
LINE
  5
3C5D
  8
SUNPOU
  6
CONTINUOUS
 62
     4
 10
19714.509263000022
 20
8539.4596599999968
 30
0.0
 11
19714.509263000022
 21
9338.9595019999961
 31
0.0
  0
LINE
  5
3C5E
  8
SUNPOU
  6
CONTINUOUS
 62
     4
 10
22717.509790999989
 20
8539.4596599999968
 30
0.0
 11
22717.509790999989
 21
9338.9595019999961
 31
0.0
  0
LINE
  5
3C5F
  8
SUNPOU
  6
CONTINUOUS
 62
     4
 10
19714.509263000022
 20
9258.9595019999961
 30
0.0
 11
22717.509790999989
 21
9258.9595019999961
 31
0.0
  0
LINE
  5
3C60
  8
SUNPOU
  6
CONTINUOUS
 62
     4
 10
19714.509263000022
 20
8539.4596599999968
 30
0.0
 11
19714.509263000022
 21
9338.9595019999961
 31
0.0
  0
LINE
  5
3C61
  8
SUNPOU
  6
CONTINUOUS
 62
     4
 10
19671.507152000031
 20
8539.4596599999968
 30
0.0
 11
19671.507152000031
 21
9338.9595019999961
 31
0.0
  0
LINE
  5
3C62
  8
SUNPOU
  6
CONTINUOUS
 62
     4
 10
19714.509263000022
 20
9258.9595019999961
 30
0.0
 11
19954.509263000022
 21
9258.9595019999961
 31
0.0
  0
LINE
  5
3C63
  8
SUNPOU
  6
CONTINUOUS
 62
     4
 10
19674.507152000031
 20
9258.9595019999961
 30
0.0
 11
19434.507152000031
 21
9258.9595019999961
 31
0.0
  0
LINE
  5
3C64
  8
SUNPOU
  6
CONTINUOUS
 62
     4
 10
19714.509263000022
 20
9258.9595019999961
 30
0.0
 11
19674.507152000031
 21
9258.9595019999961
 31
0.0
  0
TEXT
  5
3C65
  8
0
  6
CONTINUOUS
 62
     7
 10
19314.507152000031
 20
9338.9595019999961
 30
0.0
 40
160.0
  1
43
  0
TEXT
  5
3C66
  8
0
  6
CONTINUOUS
 62
     7
 10
22877.51190199998
 20
9338.9595019999961
 30
0.0
 40
160.0
  1
43
  0
ARC
  5
3C67
  8
0
  6
BYBLOCK
 62
     0
 10
22717.509790999989
 20
9258.9595019999961
 30
0.0
 40
15.0
 50
180.0
 51
0.0
  0
ARC
  5
3C68
  8
0
  6
BYBLOCK
 62
     0
 10
22717.509790999989
 20
9258.9595019999961
 30
0.0
 40
15.0
 50
0.0
 51
180.0
  0
ARC
  5
3C69
  8
0
  6
BYBLOCK
 62
     0
 10
22760.51190199998
 20
9258.9595019999961
 30
0.0
 40
15.0
 50
0.0
 51
180.0
  0
ARC
  5
3C6A
  8
0
  6
BYBLOCK
 62
     0
 10
22760.51190199998
 20
9258.9595019999961
 30
0.0
 40
15.0
 50
180.0
 51
0.0
  0
ARC
  5
3C6B
  8
0
  6
BYBLOCK
 62
     0
 10
19671.507152000031
 20
9658.9172719999951
 30
0.0
 40
15.0
 50
0.0
 51
180.0
  0
ARC
  5
3C6C
  8
0
  6
BYBLOCK
 62
     0
 10
19671.507152000031
 20
9658.9172719999951
 30
0.0
 40
15.0
 50
180.0
 51
0.0
  0
ARC
  5
3C6D
  8
0
  6
BYBLOCK
 62
     0
 10
22760.51190199998
 20
9658.9172719999951
 30
0.0
 40
15.0
 50
180.0
 51
0.0
  0
ARC
  5
3C6E
  8
0
  6
BYBLOCK
 62
     0
 10
22760.51190199998
 20
9658.9172719999951
 30
0.0
 40
15.0
 50
0.0
 51
180.0
  0
ARC
  5
3C6F
  8
0
  6
BYBLOCK
 62
     0
 10
19714.509263000022
 20
9258.9595019999961
 30
0.0
 40
15.0
 50
0.0
 51
180.0
  0
ARC
  5
3C70
  8
0
  6
BYBLOCK
 62
     0
 10
19714.509263000022
 20
9258.9595019999961
 30
0.0
 40
15.0
 50
180.0
 51
0.0
  0
ARC
  5
3C71
  8
0
  6
BYBLOCK
 62
     0
 10
22717.509790999989
 20
9258.9595019999961
 30
0.0
 40
15.0
 50
180.0
 51
0.0
  0
ARC
  5
3C72
  8
0
  6
BYBLOCK
 62
     0
 10
22717.509790999989
 20
9258.9595019999961
 30
0.0
 40
15.0
 50
0.0
 51
180.0
  0
ARC
  5
3C73
  8
0
  6
BYBLOCK
 62
     0
 10
19714.509263000022
 20
9258.9595019999961
 30
0.0
 40
15.0
 50
0.0
 51
180.0
  0
ARC
  5
3C74
  8
0
  6
BYBLOCK
 62
     0
 10
19714.509263000022
 20
9258.9595019999961
 30
0.0
 40
15.0
 50
180.0
 51
0.0
  0
ARC
  5
3C75
  8
0
  6
BYBLOCK
 62
     0
 10
19671.507152000031
 20
9258.9595019999961
 30
0.0
 40
15.0
 50
180.0
 51
0.0
  0
ARC
  5
3C76
  8
0
  6
BYBLOCK
 62
     0
 10
19671.507152000031
 20
9258.9595019999961
 30
0.0
 40
15.0
 50
0.0
 51
180.0
  0
LINE
  5
3C8A
  8
SUNPOU
  6
CONTINUOUS
 62
     4
 10
10191.75885799999
 20
13780.758238
 30
0.0
 11
10191.75885799999
 21
12601.808438
 31
0.0
  0
LINE
  5
3C8B
  8
SUNPOU
  6
CONTINUOUS
 62
     4
 10
13280.755690000011
 20
13780.758238
 30
0.0
 11
13280.755690000011
 21
12601.808438
 31
0.0
  0
LINE
  5
3C8C
  8
SUNPOU
  6
CONTINUOUS
 62
     4
 10
10191.75885799999
 20
12681.808438
 30
0.0
 11
13280.755690000011
 21
12681.808438
 31
0.0
  0
TEXT
  5
3C8D
  8
0
  6
CONTINUOUS
 62
     7
 10
10933.59060733333
 20
12761.808438
 30
0.0
 40
160.0
  1
ケラバ外寸 3089
  0
ARC
  5
3C8E
  8
0
  6
BYBLOCK
 62
     0
 10
10191.75885799999
 20
12681.808438
 30
0.0
 40
15.0
 50
0.0
 51
180.0
  0
ARC
  5
3C8F
  8
0
  6
BYBLOCK
 62
     0
 10
10191.75885799999
 20
12681.808438
 30
0.0
 40
15.0
 50
180.0
 51
0.0
  0
ARC
  5
3C90
  8
0
  6
BYBLOCK
 62
     0
 10
13280.755690000011
 20
12681.808438
 30
0.0
 40
15.0
 50
180.0
 51
0.0
  0
ARC
  5
3C91
  8
0
  6
BYBLOCK
 62
     0
 10
13280.755690000011
 20
12681.808438
 30
0.0
 40
15.0
 50
0.0
 51
180.0
  0
TEXT
  5
3CE8
  8
NAME
 10
24189.8234220308
 20
1076.0
 30
0.0
 40
360.0
  1
H
 41
0.6700000000000002
  7
00
  0
TEXT
  5
3CE9
  8
NAME
 10
23813.99143745047
 20
1076.0
 30
0.0
 40
360.0
  1
（ ）
  7
01
  0
TEXT
  5
3CEA
  8
NAME
 10
24713.98442473351
 20
1076.0
 30
0.0
 40
360.0
  1
型（単棟）
  7
01
  0
TEXT
  5
3CEB
  8
NAME
 10
21686.3487663915
 20
1076.6369801169251
 30
0.0
 40
360.0
  1
VGCU-3052
 41
0.6700000000000002
  0
TEXT
  5
3CED
  8
NAME
 10
21933.552716389011
 20
1876.0
 30
0.0
 40
360.0
  1
ヨドガレージ ラヴィージュ
 41
0.75
  7
01
  0
LINE
  5
3CEE
  8
NAME
  6
CONTINUOUS
 10
26067.886878884299
 20
2236.0
 30
0.0
 11
26067.886878884299
 21
1876.0
 31
0.0
  0
LINE
  5
3CEF
  8
NAME
  6
CONTINUOUS
 10
26167.886878884299
 20
2236.0
 30
0.0
 11
26167.886878884299
 21
1876.0
 31
0.0
  0
LINE
  5
3CF0
  8
NAME
  6
CONTINUOUS
 10
26267.88687888431
 20
2236.0
 30
0.0
 11
26267.88687888431
 21
1876.0
 31
0.0
  0
LINE
  5
3CF1
  8
NAME
  6
CONTINUOUS
 10
26007.886878884299
 20
2236.0
 30
0.0
 11
26327.886878884299
 21
2236.0
 31
0.0
  0
LINE
  5
3CF2
  8
NAME
  6
CONTINUOUS
 10
26327.886878884299
 20
1876.0
 30
0.0
 11
26007.886878884299
 21
1876.0
 31
0.0
  0
TEXT
  5
3D8C
  8
FILENAME
  6
CONTINUOUS
 10
28546.857142857141
 20
348.0
 30
0.0
 40
200.0
  1
＜VGCU-3052-1-A_0.DXF ＞
  7
FILENAME
 72
     2
 11
32764.0
 21
348.0
 31
0.0
  0
LINE
  5
3D92
  8
WAKUSEN-01
 10
868.00000000000193
 20
827.99999999999955
 30
0.0
 11
32764.000000000011
 21
827.99999999999943
 31
0.0
  0
LINE
  5
3D93
  8
WAKUSEN-01
 10
868.00000000000193
 20
827.99999999999955
 30
0.0
 11
868.00000000000193
 21
22484.000000000011
 31
0.0
  0
LINE
  5
3D94
  8
WAKUSEN-01
 10
32764.000000000011
 20
827.99999999999943
 30
0.0
 11
32764.000000000011
 21
22484.000000000011
 31
0.0
  0
LINE
  5
3D95
  8
WAKUSEN-01
 10
20560.0
 20
827.99999999999716
 30
0.0
 11
20560.0
 21
2484.0
 31
0.0
  0
LINE
  5
3D96
  8
WAKUSEN-02
 10
26868.0
 20
827.99999999999261
 30
0.0
 11
26868.0
 21
2484.0
 31
0.0
  0
ENDSEC
  0
EOF
