  0
SECTION
  2
HEADER
  9
$ACADVER
  1
AC1009
  9
$INSBASE
 10
0.0
 20
0.0
 30
0.0
  9
$EXTMIN
 10
867.99324330406671
 20
327.38164749855792
 30
-0.000000000000013
  9
$EXTMAX
 10
32765.33210850941
 20
22484.553276491992
 30
0.0000000000000023
  9
$LIMMIN
 10
0.0
 20
0.0
  9
$LIMMAX
 10
33600.0
 20
23760.0
  9
$ORTHOMODE
 70
     1
  9
$REGENMODE
 70
     1
  9
$FILLMODE
 70
     1
  9
$QTEXTMODE
 70
     0
  9
$MIRRTEXT
 70
     1
  9
$DRAGMODE
 70
     2
  9
$LTSCALE
 40
80.0
  9
$OSMODE
 70
  3071
  9
$ATTMODE
 70
     1
  9
$TEXTSIZE
 40
0.2
  9
$TRACEWID
 40
0.05
  9
$TEXTSTYLE
  7
00
  9
$CLAYER
  8
0
  9
$CELTYPE
  6
BYLAYER
  9
$CECOLOR
 62
   256
  9
$DIMSCALE
 40
80.0
  9
$DIMASZ
 40
3.0
  9
$DIMEXO
 40
1.0
  9
$DIMDLI
 40
0.38
  9
$DIMRND
 40
0.5
  9
$DIMDLE
 40
0.0
  9
$DIMEXE
 40
1.0
  9
$DIMTP
 40
0.0
  9
$DIMTM
 40
0.0
  9
$DIMTXT
 40
2.0
  9
$DIMCEN
 40
0.09
  9
$DIMTSZ
 40
0.0
  9
$DIMTOL
 70
     0
  9
$DIMLIM
 70
     0
  9
$DIMTIH
 70
     0
  9
$DIMTOH
 70
     0
  9
$DIMSE1
 70
     0
  9
$DIMSE2
 70
     0
  9
$DIMTAD
 70
     1
  9
$DIMZIN
 70
     8
  9
$DIMBLK
  1
DOTSMALL
  9
$DIMASO
 70
     1
  9
$DIMSHO
 70
     1
  9
$DIMPOST
  1

  9
$DIMAPOST
  1

  9
$DIMALT
 70
     0
  9
$DIMALTD
 70
     2
  9
$DIMALTF
 40
25.399999999999999
  9
$DIMLFAC
 40
1.0
  9
$DIMTOFL
 70
     1
  9
$DIMTVP
 40
0.0
  9
$DIMTIX
 70
     0
  9
$DIMSOXD
 70
     0
  9
$DIMSAH
 70
     0
  9
$DIMBLK1
  1

  9
$DIMBLK2
  1

  9
$DIMSTYLE
  2
SUNPOU
  9
$DIMCLRD
 70
     4
  9
$DIMCLRE
 70
     4
  9
$DIMCLRT
 70
     7
  9
$DIMTFAC
 40
1.0
  9
$DIMGAP
 40
1.0
  9
$LUNITS
 70
     2
  9
$LUPREC
 70
     4
  9
$SKETCHINC
 40
0.1
  9
$FILLETRAD
 40
0.0
  9
$AUNITS
 70
     0
  9
$AUPREC
 70
     0
  9
$MENU
  1
acad
  9
$ELEVATION
 40
0.0
  9
$PELEVATION
 40
0.0
  9
$THICKNESS
 40
0.0
  9
$LIMCHECK
 70
     0
  9
$BLIPMODE
 70
     1
  9
$CHAMFERA
 40
0.0
  9
$CHAMFERB
 40
0.0
  9
$SKPOLY
 70
     0
  9
$TDCREATE
 40
2311940.0749272341
  9
$TDUPDATE
 40
2458942.4332341668
  9
$TDINDWG
 40
0.0601882755
  9
$TDUSRTIMER
 40
0.0601859259
  9
$USRTIMER
 70
     1
  9
$ANGBASE
 50
0.0
  9
$ANGDIR
 70
     0
  9
$PDMODE
 70
     0
  9
$PDSIZE
 40
0.0
  9
$PLINEWID
 40
0.0
  9
$COORDS
 70
     1
  9
$SPLFRAME
 70
     0
  9
$SPLINETYPE
 70
     6
  9
$SPLINESEGS
 70
     8
  9
$ATTDIA
 70
     1
  9
$ATTREQ
 70
     1
  9
$HANDLING
 70
     1
  9
$HANDSEED
  5
4C3A
  9
$SURFTAB1
 70
     6
  9
$SURFTAB2
 70
     6
  9
$SURFTYPE
 70
     6
  9
$SURFU
 70
     6
  9
$SURFV
 70
     6
  9
$UCSNAME
  2

  9
$UCSORG
 10
0.0
 20
0.0
 30
0.0
  9
$UCSXDIR
 10
1.0
 20
0.0
 30
0.0
  9
$UCSYDIR
 10
0.0
 20
1.0
 30
0.0
  9
$PUCSNAME
  2

  9
$PUCSORG
 10
0.0
 20
0.0
 30
0.0
  9
$PUCSXDIR
 10
1.0
 20
0.0
 30
0.0
  9
$PUCSYDIR
 10
0.0
 20
1.0
 30
0.0
  9
$USERI1
 70
     0
  9
$USERI2
 70
     0
  9
$USERI3
 70
     0
  9
$USERI4
 70
     0
  9
$USERI5
 70
     0
  9
$USERR1
 40
0.0
  9
$USERR2
 40
0.0
  9
$USERR3
 40
0.0
  9
$USERR4
 40
0.0
  9
$USERR5
 40
0.0
  9
$WORLDVIEW
 70
     1
  9
$SHADEDGE
 70
     3
  9
$SHADEDIF
 70
    70
  9
$TILEMODE
 70
     1
  9
$MAXACTVP
 70
    16
  9
$PLIMCHECK
 70
     0
  9
$PEXTMIN
 10
1.0000000000000000E+020
 20
1.0000000000000000E+020
 30
1.0000000000000000E+020
  9
$PEXTMAX
 10
-1.0000000000000000E+020
 20
-1.0000000000000000E+020
 30
-1.0000000000000000E+020
  9
$PLIMMIN
 10
0.0
 20
0.0
  9
$PLIMMAX
 10
12.0
 20
9.0
  9
$UNITMODE
 70
     0
  9
$VISRETAIN
 70
     0
  9
$PLINEGEN
 70
     1
  9
$PSLTSCALE
 70
     0
  0
ENDSEC
  0
SECTION
  2
TABLES
  0
TABLE
  2
VPORT
 70
     1
  0
VPORT
  2
*ACTIVE
 70
     0
 10
0.0
 20
0.0
 11
1.0
 21
1.0
 12
16800.0
 22
11880.0
 13
0.0
 23
0.0
 14
1.0
 24
1.0
 15
0.0
 25
0.0
 16
0.0
 26
0.0
 36
1.0
 17
0.0
 27
0.0
 37
0.0
 40
23981.023255813951
 41
2.195652173913043
 42
50.0
 43
0.0
 44
0.0
 50
0.0
 51
0.0
 71
     0
 72
 10000
 73
     1
 74
     1
 75
     0
 76
     0
 77
     0
 78
     0
  0
ENDTAB
  0
TABLE
  2
LTYPE
 70
     3
  0
LTYPE
  2
CONTINUOUS
 70
     0
  3
Solid line
 72
    65
 73
     0
 40
0.0
  0
LTYPE
  2
DASHED3
 70
     0
  3
------  ------  ------  ------  
 72
    65
 73
     2
 40
5.0
 49
3.75
 49
-1.25
  0
LTYPE
  2
CENTER2
 70
     0
  3
----------  --  ----------  --  
 72
    65
 73
     4
 40
20.0
 49
12.5
 49
-2.5
 49
2.5
 49
-2.5
  0
ENDTAB
  0
TABLE
  2
LAYER
 70
    17
  0
LAYER
  2
0
 70
     0
 62
     7
  6
CONTINUOUS
  0
LAYER
  2
SUNPOU
 70
     0
 62
     4
  6
CONTINUOUS
  0
LAYER
  2
0-1
 70
     0
 62
     7
  6
CONTINUOUS
  0
LAYER
  2
2-0
 70
     0
 62
     7
  6
CONTINUOUS
  0
LAYER
  2
0-2
 70
     0
 62
     7
  6
CONTINUOUS
  0
LAYER
  2
0-6
 70
     0
 62
     7
  6
CONTINUOUS
  0
LAYER
  2
0-7
 70
     0
 62
     7
  6
CONTINUOUS
  0
LAYER
  2
0-5
 70
     0
 62
     7
  6
CONTINUOUS
  0
LAYER
  2
YODOROGO
 70
     0
 62
   130
  6
CONTINUOUS
  0
LAYER
  2
WAKUSEN-01
 70
     0
 62
    50
  6
CONTINUOUS
  0
LAYER
  2
WAKUSEN-02
 70
     0
 62
   130
  6
CONTINUOUS
  0
LAYER
  2
WAKUMOJI-01
 70
     0
 62
   130
  6
CONTINUOUS
  0
LAYER
  2
FILENAME
 70
     0
 62
     7
  6
CONTINUOUS
  0
LAYER
  2
NAME
 70
     0
 62
    20
  6
CONTINUOUS
  0
LAYER
  2
0-4
 70
     0
 62
     7
  6
CONTINUOUS
  0
ENDTAB
  0
TABLE
  2
STYLE
 70
     5
  0
STYLE
  2
STANDARD
 70
     0
 40
0.0
 41
1.0
 50
0.0
 71
     0
 42
0.0
  3
txt
  4
BIGFONT
  0
STYLE
  2
00
 70
     0
 40
0.0
 41
0.6666666666666666
 50
0.0
 71
     0
 42
0.2
  3
ROMANS
  4
BIGFONT
  0
STYLE
  2
01
 70
     0
 40
3.0
 41
1.0
 50
0.0
 71
     0
 42
0.2
  3
ROMANS
  4
BIGFONT
  0
STYLE
  2
WAKUMOJI
 70
     0
 40
3.0
 41
1.0
 50
0.0
 71
     0
 42
3.0
  3
SIMPLEX
  4
BIGFONT
  0
STYLE
  2
FILENAME
 70
     0
 40
200.0
 41
1.0
 50
0.0
 71
     0
 42
200.0
  3
romans
  4
bigfont
  0
ENDTAB
  0
TABLE
  2
VIEW
 70
     0
  0
ENDTAB
  0
TABLE
  2
UCS
 70
     0
  0
ENDTAB
  0
TABLE
  2
APPID
 70
    13
  0
APPID
  2
ACAD
 70
     0
  0
APPID
  2
ACADANNOTATIVE
 70
     0
  0
APPID
  2
ACAD_PSEXT
 70
     0
  0
APPID
  2
DCO15
 70
     0
  0
APPID
  2
ACAD_MLEADERVER
 70
     0
  0
APPID
  2
AUTOCAD_POSTSCRIPT_FIGURE
 70
     0
  0
APPID
  2
ACAD_EXEMPT_FROM_CAD_STANDARDS
 70
     0
  0
APPID
  2
ACAD_DSTYLE_DIMJAG
 70
     0
  0
APPID
  2
ACAD_DSTYLE_DIMTALN
 70
     0
  0
APPID
  2
ACAD_DSTYLE_DIM_LINETYPE
 70
     0
  0
APPID
  2
ACAD_DSTYLE_DIM_EXT1_LINETYPE
 70
     0
  0
APPID
  2
ACAD_DSTYLE_DIM_EXT2_LINETYPE
 70
     0
  0
APPID
  2
ACAD_NAV_VCDISPLAY
 70
     0
  0
ENDTAB
  0
TABLE
  2
DIMSTYLE
 70
     2
  0
DIMSTYLE
  2
SUNPOU
 70
     0
  3

  4

  5

  6

  7

 40
80.0
 41
3.0
 42
1.0
 43
0.38
 44
1.0
 45
0.5
 46
0.0
 47
0.0
 48
0.0
140
2.0
141
0.09
142
0.0
143
25.399999999999999
144
1.0
145
0.0
146
1.0
147
1.0
 71
     0
 72
     0
 73
     0
 74
     0
 75
     0
 76
     0
 77
     1
 78
     8
170
     0
171
     2
172
     1
173
     0
174
     0
175
     0
176
     4
177
     4
178
     7
  0
ENDTAB
  0
ENDSEC
  0
SECTION
  2
BLOCKS
  0
BLOCK
  8
0
  2
$MODEL_SPACE
 70
     0
 10
0.0
 20
0.0
 30
0.0
  3
$MODEL_SPACE
  1

  0
ENDBLK
  5
4005
  8
0
  0
BLOCK
 67
     1
  8
0
  2
$PAPER_SPACE
 70
     0
 10
0.0
 20
0.0
 30
0.0
  3
$PAPER_SPACE
  1

  0
ENDBLK
  5
4001
 67
     1
  8
0
  0
BLOCK
  8
0
  2
_DOTSMALL
 70
     0
 10
0.0
 20
0.0
 30
0.0
  3
_DOTSMALL
  1

  0
POLYLINE
  5
4034
  8
0
  6
BYBLOCK
 62
     0
 66
     1
 10
0.0
 20
0.0
 30
0.0
 70
     1
 40
0.5
 41
0.5
  0
VERTEX
  5
4C02
  8
0
  6
BYBLOCK
 62
     0
 10
-0.0625
 20
0.0
 30
0.0
 42
1.0
  0
VERTEX
  5
4C03
  8
0
  6
BYBLOCK
 62
     0
 10
0.0625
 20
0.0
 30
0.0
 42
1.0
  0
SEQEND
  5
4C04
  8
0
  6
BYBLOCK
 62
     0
  0
ENDBLK
  5
4038
  8
0
  0
ENDSEC
  0
SECTION
  2
ENTITIES
  0
LINE
  5
4039
  8
0-2
  6
CONTINUOUS
 62
     3
 10
9949.3627009999836
 20
13544.73055700001
 30
0.0
 11
9949.3627009999836
 21
20094.231178000002
 31
0.0
  0
LINE
  5
403A
  8
0-2
  6
CONTINUOUS
 62
     3
 10
9813.8626749999803
 20
13512.731640000011
 30
0.0
 11
9813.8626749999803
 21
20104.230254999999
 31
0.0
  0
LINE
  5
403B
  8
0-2
  6
CONTINUOUS
 62
     3
 10
9856.8628069999831
 20
13668.730571
 30
0.0
 11
15076.86531299998
 21
13668.730571
 31
0.0
  0
LINE
  5
403C
  8
0-2
  6
CONTINUOUS
 62
     3
 10
9899.3640599999835
 20
13747.731178
 30
0.0
 11
15034.36405999998
 21
13747.731178
 31
0.0
  0
LINE
  5
403D
  8
0-2
  6
CONTINUOUS
 62
     3
 10
9816.8626749999803
 20
13512.731640000011
 30
0.0
 11
15119.864455999979
 21
13512.731640000011
 31
0.0
  0
LINE
  5
403E
  8
0-2
  6
CONTINUOUS
 62
     3
 10
9816.8626749999803
 20
13544.73055700001
 30
0.0
 11
15119.864455999979
 21
13544.73055700001
 31
0.0
  0
LINE
  5
403F
  8
0-2
  6
CONTINUOUS
 62
     3
 10
9899.3640599999835
 20
13668.730571
 30
0.0
 11
9899.3640599999835
 21
19636.382914999991
 31
0.0
  0
LINE
  5
4040
  8
0-2
  6
CONTINUOUS
 62
     3
 10
9856.8628069999831
 20
13668.730571
 30
0.0
 11
9856.8628069999831
 21
19664.18327400001
 31
0.0
  0
LINE
  5
4041
  8
0-2
  6
CONTINUOUS
 62
     3
 10
12466.86405999998
 20
13668.730571
 30
0.0
 11
12466.86405999998
 21
15469.97201950001
 31
0.0
  0
LINE
  5
4042
  8
0-2
  6
CONTINUOUS
 62
     3
 10
15076.86531299998
 20
13668.730571
 30
0.0
 11
15076.86531299998
 21
16100.818646
 31
0.0
  0
LINE
  5
4043
  8
0-2
  6
CONTINUOUS
 62
     3
 10
15034.36405999998
 20
13668.730571
 30
0.0
 11
15034.36405999998
 21
16128.61900499999
 31
0.0
  0
LINE
  5
4044
  8
0-2
  6
CONTINUOUS
 62
     3
 10
15119.864455999979
 20
13512.731640000011
 30
0.0
 11
15119.864455999979
 21
20104.230254999999
 31
0.0
  0
LINE
  5
4045
  8
0-2
  6
CONTINUOUS
 62
     3
 10
14984.365418999991
 20
13544.73055700001
 30
0.0
 11
14984.365418999991
 21
20094.231178000002
 31
0.0
  0
LINE
  5
4046
  8
0-2
  6
CONTINUOUS
 62
     3
 10
15051.36519499996
 20
20114.230781999991
 30
0.0
 11
15114.864191999981
 21
20114.230781999991
 31
0.0
  0
LINE
  5
4047
  8
0-2
  6
CONTINUOUS
 62
     3
 10
15119.864455999979
 20
20109.230519000001
 30
0.0
 11
15119.864455999979
 21
20074.230651000009
 31
0.0
  0
LINE
  5
4048
  8
0-2
  6
CONTINUOUS
 62
     3
 10
15101.86469299999
 20
20074.230651000009
 30
0.0
 11
15051.36519499996
 21
20074.230651000009
 31
0.0
  0
LINE
  5
4049
  8
0-2
  6
CONTINUOUS
 62
     3
 10
15046.36493099998
 20
20079.230913999989
 30
0.0
 11
15046.36493099998
 21
20109.230519000001
 31
0.0
  0
LINE
  5
404A
  8
0-2
  6
CONTINUOUS
 62
     3
 10
15101.86469299999
 20
20096.72985900001
 30
0.0
 11
15119.864455999979
 21
20096.72985900001
 31
0.0
  0
LINE
  5
404B
  8
0-2
  6
CONTINUOUS
 62
     3
 10
15101.86469299999
 20
16086.42754599999
 30
0.0
 11
15101.86469299999
 21
20096.72985900001
 31
0.0
  0
LINE
  5
404C
  8
0-2
  6
CONTINUOUS
 62
     3
 10
12396.86333399998
 20
15514.971425500011
 30
0.0
 11
9969.362806999985
 21
13705.230913999991
 31
0.0
  0
LINE
  5
404D
  8
0-2
  6
CONTINUOUS
 62
     3
 10
9969.362806999985
 20
15514.971425500011
 30
0.0
 11
12396.86333399998
 21
13705.230913999991
 31
0.0
  0
LINE
  5
404E
  8
0-2
  6
CONTINUOUS
 62
     3
 10
9899.3640599999835
 20
15559.971821499999
 30
0.0
 11
14981.365418999991
 21
15559.971821499999
 31
0.0
  0
LINE
  5
404F
  8
0-2
  6
CONTINUOUS
 62
     3
 10
9899.3640599999835
 20
15469.97201950001
 30
0.0
 11
14981.365418999991
 21
15469.97201950001
 31
0.0
  0
LINE
  5
4050
  8
0-2
  6
CONTINUOUS
 62
     3
 10
9969.362806999985
 20
16973.730914
 30
0.0
 11
12396.86333399998
 21
15514.971425500011
 31
0.0
  0
LINE
  5
4051
  8
0-2
  6
CONTINUOUS
 62
     3
 10
12396.86333399998
 20
16973.730914
 30
0.0
 11
9969.362806999985
 21
15514.971425500011
 31
0.0
  0
LINE
  5
4052
  8
0-2
  6
CONTINUOUS
 62
     3
 10
9969.362806999985
 20
18432.730914
 30
0.0
 11
12396.86333399998
 21
16973.730914
 31
0.0
  0
LINE
  5
4053
  8
0-2
  6
CONTINUOUS
 62
     3
 10
9899.3640599999835
 20
18477.731309999999
 30
0.0
 11
11672.527791999981
 21
18477.731309999999
 31
0.0
  0
LINE
  5
4054
  8
0-2
  6
CONTINUOUS
 62
     3
 10
9899.3640599999835
 20
18387.730518
 30
0.0
 11
11810.117200999979
 21
18387.730518
 31
0.0
  0
LINE
  5
4055
  8
0-2
  6
CONTINUOUS
 62
     3
 10
9831.8624369999798
 20
20074.230651000009
 30
0.0
 11
9882.3619359999811
 21
20074.230651000009
 31
0.0
  0
LINE
  5
4056
  8
0-2
  6
CONTINUOUS
 62
     3
 10
9831.8624369999798
 20
20096.72985900001
 30
0.0
 11
9813.8626749999803
 21
20096.72985900001
 31
0.0
  0
LINE
  5
4057
  8
0-2
  6
CONTINUOUS
 62
     3
 10
9882.3619359999811
 20
20114.230781999991
 30
0.0
 11
9818.8609589999833
 21
20114.230781999991
 31
0.0
  0
LINE
  5
4058
  8
0-2
  6
CONTINUOUS
 62
     3
 10
9813.8626749999803
 20
20109.230519000001
 30
0.0
 11
9813.8626749999803
 21
20074.230651000009
 31
0.0
  0
LINE
  5
4059
  8
0-2
  6
CONTINUOUS
 62
     3
 10
9887.3612099999791
 20
20079.230913999989
 30
0.0
 11
9887.3612099999791
 21
20109.230519000001
 31
0.0
  0
LINE
  5
405A
  8
0-2
  6
CONTINUOUS
 62
     3
 10
9887.3612099999773
 20
20094.231178000002
 30
0.0
 11
15046.364930999969
 21
20094.231178000002
 31
0.0
  0
LINE
  5
405B
  8
0-2
  6
CONTINUOUS
 62
     3
 10
9831.8624369999798
 20
19678.574374
 30
0.0
 11
9831.8624369999798
 21
20096.72985900001
 31
0.0
  0
LINE
  5
405C
  8
0-2
  6
CONTINUOUS
 62
     3
 10
12536.863795999991
 20
16973.730914
 30
0.0
 11
14964.364323999949
 21
15514.971425500011
 31
0.0
  0
LINE
  5
405D
  8
0-2
  6
CONTINUOUS
 62
     3
 10
14964.364323999949
 20
15514.971425500011
 30
0.0
 11
12536.863795999991
 21
13705.230913999991
 31
0.0
  0
LINE
  5
405E
  8
0-2
  6
CONTINUOUS
 62
     3
 10
12536.863795999991
 20
15514.971425500011
 30
0.0
 11
14964.364323999949
 21
13705.230913999991
 31
0.0
  0
LINE
  5
405F
  8
0-2
  6
CONTINUOUS
 62
     3
 10
12466.86405999998
 20
13747.731178
 30
0.0
 11
12466.86405999998
 21
15469.97201950001
 31
0.0
  0
LINE
  5
4060
  8
0-2
  6
CONTINUOUS
 62
     3
 10
12409.863821999979
 20
13747.731178
 30
0.0
 11
12409.863821999979
 21
15469.97201950001
 31
0.0
  0
LINE
  5
4061
  8
0-2
  6
CONTINUOUS
 62
     3
 10
12523.86330799998
 20
13747.731178
 30
0.0
 11
12523.86330799998
 21
15469.97201950001
 31
0.0
  0
LINE
  5
4062
  8
0-2
  6
CONTINUOUS
 62
     3
 10
12523.86330799998
 20
17018.729329999991
 30
0.0
 11
12523.86330799998
 21
17744.992711999999
 31
0.0
  0
LINE
  5
4063
  8
0-2
  6
CONTINUOUS
 62
     3
 10
12409.863821999979
 20
17018.729329999991
 30
0.0
 11
12409.863821999979
 21
18013.918228999992
 31
0.0
  0
LINE
  5
4064
  8
0-2
  6
CONTINUOUS
 62
     3
 10
12409.863821999979
 20
15559.971821499999
 30
0.0
 11
12409.863821999979
 21
16928.730518
 31
0.0
  0
LINE
  5
4065
  8
0-2
  6
CONTINUOUS
 62
     3
 10
12523.86330799998
 20
15559.971821499999
 30
0.0
 11
12523.86330799998
 21
16928.730518
 31
0.0
  0
LINE
  5
4066
  8
0-2
  6
CONTINUOUS
 62
     3
 10
12466.86405999998
 20
17018.729329999991
 30
0.0
 11
12466.86405999998
 21
17879.455471000001
 31
0.0
  0
LINE
  5
4067
  8
0-2
  6
CONTINUOUS
 62
     3
 10
12466.86405999998
 20
17018.729329999991
 30
0.0
 11
12466.86405999998
 21
17879.455471000001
 31
0.0
  0
LINE
  5
4068
  8
0-2
  6
CONTINUOUS
 62
     3
 10
12466.86405999998
 20
15559.971821499999
 30
0.0
 11
12466.86405999998
 21
16928.730518
 31
0.0
  0
LINE
  5
4069
  8
0-2
  6
CONTINUOUS
 62
     3
 10
12466.86405999998
 20
15559.971821499999
 30
0.0
 11
12466.86405999998
 21
16928.730518
 31
0.0
  0
LINE
  5
406A
  8
0-2
  6
CONTINUOUS
 62
     3
 10
12084.66158099998
 20
18208.144633999989
 30
0.0
 11
9665.6650659999887
 21
19789.249258
 31
0.0
  0
LINE
  5
406B
  8
0-2
  6
CONTINUOUS
 62
     3
 10
10038.860734999969
 20
19545.13304700001
 30
0.0
 11
10038.860734999969
 21
20094.231178000002
 31
0.0
  0
LINE
  5
406C
  8
0-2
  6
CONTINUOUS
 62
     3
 10
10285.362330999969
 20
19390.105070000001
 30
0.0
 11
10285.362330999969
 21
20094.231178000002
 31
0.0
  0
LINE
  5
406D
  8
0-2
  6
CONTINUOUS
 62
     3
 10
10248.363148999981
 20
19414.308644000001
 30
0.0
 11
10248.363148999981
 21
20094.231178000002
 31
0.0
  0
LINE
  5
406E
  8
0-2
  6
CONTINUOUS
 62
     3
 10
10075.863875999979
 20
19520.929473
 30
0.0
 11
10075.863875999979
 21
20094.231178000002
 31
0.0
  0
LINE
  5
406F
  8
0-2
  6
CONTINUOUS
 62
     3
 10
11085.36398099998
 20
18866.807455999991
 30
0.0
 11
11085.36398099998
 21
20094.231178000002
 31
0.0
  0
LINE
  5
4070
  8
0-2
  6
CONTINUOUS
 62
     3
 10
11048.36380899998
 20
18891.011030000001
 30
0.0
 11
11048.36380899998
 21
20094.231178000002
 31
0.0
  0
LINE
  5
4071
  8
0-2
  6
CONTINUOUS
 62
     3
 10
10885.36233099998
 20
18997.631859000001
 30
0.0
 11
10885.36233099998
 21
20094.231178000002
 31
0.0
  0
LINE
  5
4072
  8
0-2
  6
CONTINUOUS
 62
     3
 10
10848.36314899999
 20
19021.835433000011
 30
0.0
 11
10848.36314899999
 21
20094.231178000002
 31
0.0
  0
LINE
  5
4073
  8
0-2
  6
CONTINUOUS
 62
     3
 10
10685.36464099998
 20
19128.456263
 30
0.0
 11
10685.36464099998
 21
20094.231178000002
 31
0.0
  0
LINE
  5
4074
  8
0-2
  6
CONTINUOUS
 62
     3
 10
11248.362488999979
 20
18760.184646000002
 30
0.0
 11
11248.362488999979
 21
20094.231178000002
 31
0.0
  0
LINE
  5
4075
  8
0-2
  6
CONTINUOUS
 62
     3
 10
11285.363650999971
 20
18730.982999
 30
0.0
 11
11285.363650999971
 21
20094.231178000002
 31
0.0
  0
LINE
  5
4076
  8
0-2
  6
CONTINUOUS
 62
     3
 10
10448.363808999969
 20
19283.484240000009
 30
0.0
 11
10448.363808999969
 21
20094.231178000002
 31
0.0
  0
LINE
  5
4077
  8
0-2
  6
CONTINUOUS
 62
     3
 10
10485.36299099998
 20
19259.28066600001
 30
0.0
 11
10485.36299099998
 21
20094.231178000002
 31
0.0
  0
LINE
  5
4078
  8
0-2
  6
CONTINUOUS
 62
     3
 10
10648.362488999979
 20
19152.65983700001
 30
0.0
 11
10648.362488999979
 21
20094.231178000002
 31
0.0
  0
LINE
  5
4079
  8
0-2
  6
CONTINUOUS
 62
     3
 10
11448.36314899997
 20
18624.360189999999
 30
0.0
 11
11448.36314899997
 21
20094.231178000002
 31
0.0
  0
LINE
  5
407A
  8
0-2
  6
CONTINUOUS
 62
     3
 10
11485.36233099998
 20
18600.15859599999
 30
0.0
 11
11485.36233099998
 21
20094.231178000002
 31
0.0
  0
LINE
  5
407B
  8
0-2
  6
CONTINUOUS
 62
     3
 10
11648.36380899996
 20
18493.535785999989
 30
0.0
 11
11648.36380899996
 21
20094.231178000002
 31
0.0
  0
LINE
  5
407C
  8
0-2
  6
CONTINUOUS
 62
     3
 10
11685.36398099998
 20
18469.334191999991
 30
0.0
 11
11685.36398099998
 21
20094.231178000002
 31
0.0
  0
LINE
  5
407D
  8
0-2
  6
CONTINUOUS
 62
     3
 10
11848.362488999979
 20
18362.711382999991
 30
0.0
 11
11848.362488999979
 21
20094.231178000002
 31
0.0
  0
LINE
  5
407E
  8
0-2
  6
CONTINUOUS
 62
     3
 10
11885.36365099998
 20
18338.509789
 30
0.0
 11
11885.36365099998
 21
20094.231178000002
 31
0.0
  0
LINE
  5
407F
  8
0-2
  6
CONTINUOUS
 62
     3
 10
12048.36314899997
 20
18231.886978999992
 30
0.0
 11
12048.36314899997
 21
20094.231178000002
 31
0.0
  0
LINE
  5
4080
  8
0-2
  6
CONTINUOUS
 62
     3
 10
12085.36332099997
 20
18208.968112999992
 30
0.0
 11
12085.36332099997
 21
20094.231178000002
 31
0.0
  0
LINE
  5
4081
  8
0-2
  6
CONTINUOUS
 62
     3
 10
12285.36398099999
 20
18307.613462999991
 30
0.0
 11
12285.36398099999
 21
20094.231178000002
 31
0.0
  0
LINE
  5
4082
  8
0-2
  6
CONTINUOUS
 62
     3
 10
12248.36380899998
 20
18394.896375999979
 30
0.0
 11
12248.36380899998
 21
20094.231178000002
 31
0.0
  0
LINE
  5
4083
  8
0-2
  6
CONTINUOUS
 62
     3
 10
12084.66158099998
 20
18208.144633999989
 30
0.0
 11
12246.89896499998
 21
18398.352615
 31
0.0
  0
LINE
  5
4084
  8
0-2
  6
CONTINUOUS
 62
     3
 10
12648.36314899999
 20
17451.29945799999
 30
0.0
 11
12648.36314899999
 21
20094.231178000002
 31
0.0
  0
LINE
  5
4085
  8
0-2
  6
CONTINUOUS
 62
     3
 10
12848.364798999981
 20
17557.318514999992
 30
0.0
 11
12848.364798999981
 21
20094.231178000002
 31
0.0
  0
LINE
  5
4086
  8
0-2
  6
CONTINUOUS
 62
     3
 10
12885.362990999991
 20
17533.114941
 30
0.0
 11
12885.362990999991
 21
20094.231178000002
 31
0.0
  0
LINE
  5
4087
  8
0-2
  6
CONTINUOUS
 62
     3
 10
13085.363650999971
 20
17402.290537000001
 30
0.0
 11
13085.363650999971
 21
20094.231178000002
 31
0.0
  0
LINE
  5
4088
  8
0-2
  6
CONTINUOUS
 62
     3
 10
13048.362488999979
 20
17426.494110999989
 30
0.0
 11
13048.362488999979
 21
20094.231178000002
 31
0.0
  0
LINE
  5
4089
  8
0-2
  6
CONTINUOUS
 62
     3
 10
13248.36314899997
 20
17295.66970799999
 30
0.0
 11
13248.36314899997
 21
20094.231178000002
 31
0.0
  0
LINE
  5
408A
  8
0-2
  6
CONTINUOUS
 62
     3
 10
13285.363320999961
 20
17271.466133999991
 30
0.0
 11
13285.363320999961
 21
20094.231178000002
 31
0.0
  0
LINE
  5
408B
  8
0-2
  6
CONTINUOUS
 62
     3
 10
13485.36299099998
 20
17135.641676999989
 30
0.0
 11
13485.36299099998
 21
20094.231178000002
 31
0.0
  0
LINE
  5
408C
  8
0-2
  6
CONTINUOUS
 62
     3
 10
13448.364798999981
 20
17159.843271000002
 30
0.0
 11
13448.364798999981
 21
20094.231178000002
 31
0.0
  0
LINE
  5
408D
  8
0-2
  6
CONTINUOUS
 62
     3
 10
13685.363650999971
 20
17004.817274000001
 30
0.0
 11
13685.363650999971
 21
20094.231178000002
 31
0.0
  0
LINE
  5
408E
  8
0-2
  6
CONTINUOUS
 62
     3
 10
13648.362488999979
 20
17029.018867999999
 30
0.0
 11
13648.362488999979
 21
20094.231178000002
 31
0.0
  0
LINE
  5
408F
  8
0-2
  6
CONTINUOUS
 62
     3
 10
13885.36233099998
 20
16873.992869999991
 30
0.0
 11
13885.36233099998
 21
20094.231178000002
 31
0.0
  0
LINE
  5
4090
  8
0-2
  6
CONTINUOUS
 62
     3
 10
13848.364138999979
 20
16898.194464
 30
0.0
 11
13848.364138999979
 21
20094.231178000002
 31
0.0
  0
LINE
  5
4091
  8
0-2
  6
CONTINUOUS
 62
     3
 10
14085.362990999971
 20
16743.168466999981
 30
0.0
 11
14085.362990999971
 21
20094.231178000002
 31
0.0
  0
LINE
  5
4092
  8
0-2
  6
CONTINUOUS
 62
     3
 10
14048.36479899999
 20
16767.370060999991
 30
0.0
 11
14048.36479899999
 21
20094.231178000002
 31
0.0
  0
LINE
  5
4093
  8
0-2
  6
CONTINUOUS
 62
     3
 10
14285.36365099998
 20
16612.342083999989
 30
0.0
 11
14285.36365099998
 21
20094.231178000002
 31
0.0
  0
LINE
  5
4094
  8
0-2
  6
CONTINUOUS
 62
     3
 10
14248.362488999979
 20
16636.545656999991
 30
0.0
 11
14248.362488999979
 21
20094.231178000002
 31
0.0
  0
LINE
  5
4095
  8
0-2
  6
CONTINUOUS
 62
     3
 10
14448.364138999979
 20
16505.721254
 30
0.0
 11
14448.364138999979
 21
20094.231178000002
 31
0.0
  0
LINE
  5
4096
  8
0-2
  6
CONTINUOUS
 62
     3
 10
14485.36233099998
 20
16481.519659999991
 30
0.0
 11
14485.36233099998
 21
20094.231178000002
 31
0.0
  0
LINE
  5
4097
  8
0-2
  6
CONTINUOUS
 62
     3
 10
14685.362990999951
 20
16350.693277
 30
0.0
 11
14685.362990999951
 21
20094.231178000002
 31
0.0
  0
LINE
  5
4098
  8
0-2
  6
CONTINUOUS
 62
     3
 10
14648.36380899996
 20
16374.896849999999
 30
0.0
 11
14648.36380899996
 21
20094.231178000002
 31
0.0
  0
LINE
  5
4099
  8
0-2
  6
CONTINUOUS
 62
     3
 10
14857.865233999981
 20
16244.07244699998
 30
0.0
 11
14857.865233999981
 21
20094.231178000002
 31
0.0
  0
LINE
  5
409A
  8
0-2
  6
CONTINUOUS
 62
     3
 10
14894.865405999981
 20
16219.870852999989
 30
0.0
 11
14894.865405999981
 21
20094.231178000002
 31
0.0
  0
LINE
  5
409B
  8
0-2
  6
CONTINUOUS
 62
     3
 10
12685.363320999961
 20
17371.457556000001
 30
0.0
 11
12685.363320999961
 21
20094.231178000002
 31
0.0
  0
LINE
  5
409C
  8
0-2
  6
CONTINUOUS
 62
     3
 10
12448.362488999979
 20
17923.097916999988
 30
0.0
 11
12448.362488999979
 21
20094.231178000002
 31
0.0
  0
LINE
  5
409D
  8
0-2
  6
CONTINUOUS
 62
     3
 10
12485.36365099998
 20
17835.815004
 30
0.0
 11
12485.36365099998
 21
20094.231178000002
 31
0.0
  0
LINE
  5
409E
  8
0-2
  6
CONTINUOUS
 62
     3
 10
12683.256122999979
 20
17368.987116999979
 30
0.0
 11
12246.89896499998
 21
18398.352615
 31
0.0
  0
LINE
  5
409F
  8
0-2
  6
CONTINUOUS
 62
     3
 10
12683.256122999979
 20
17368.987116999979
 30
0.0
 11
12845.493506999979
 21
17559.195098
 31
0.0
  0
LINE
  5
40A0
  8
0-2
  6
CONTINUOUS
 62
     3
 10
15264.489032999971
 20
15978.090474000001
 30
0.0
 11
12845.493506999979
 21
17559.195098
 31
0.0
  0
LINE
  5
40A1
  8
0-2
  6
CONTINUOUS
 62
     3
 10
13160.02515299999
 20
17353.451854999988
 30
0.0
 11
12536.863795999991
 21
16973.730914
 31
0.0
  0
LINE
  5
40A2
  8
0-2
  6
CONTINUOUS
 62
     3
 10
10897.153333999981
 20
18989.919655000002
 30
0.0
 11
9969.362806999985
 21
18432.730914
 31
0.0
  0
LINE
  5
40A3
  8
0-2
  6
CONTINUOUS
 62
     3
 10
14318.18109999998
 20
16590.876184000001
 30
0.0
 11
12536.863795999991
 21
15514.971425500011
 31
0.0
  0
LINE
  5
40A4
  8
0-2
  6
CONTINUOUS
 62
     3
 10
12055.307299999969
 20
18227.343983999988
 30
0.0
 11
9969.362806999985
 21
16973.730914
 31
0.0
  0
LINE
  5
40A5
  8
0-2
  6
CONTINUOUS
 62
     3
 10
12265.74794099998
 20
18353.886688999999
 30
0.0
 11
12149.189927999971
 21
18283.79985399999
 31
0.0
  0
LINE
  5
40A6
  8
0-2
  6
CONTINUOUS
 62
     3
 10
12466.86405999998
 20
17018.729329999991
 30
0.0
 11
12466.86405999998
 21
16928.730518
 31
0.0
  0
LINE
  5
40A7
  8
0-2
  6
CONTINUOUS
 62
     3
 10
12466.86405999998
 20
15559.971821499999
 30
0.0
 11
12466.86405999998
 21
15469.97201950001
 31
0.0
  0
LINE
  5
40A8
  8
0-2
  6
CONTINUOUS
 62
     3
 10
12466.86405999998
 20
13668.730571
 30
0.0
 11
12466.86405999998
 21
13512.731640000011
 31
0.0
  0
LINE
  5
40A9
  8
0-6
  6
CONTINUOUS
 62
     6
 10
11782.899916262721
 20
19831.955392
 30
0.0
 11
11926.802009262719
 21
20344.231046000001
 31
0.0
  0
LINE
  5
40AA
  8
0-6
  6
CONTINUOUS
 62
     6
 10
11926.802009262719
 20
20344.231046000001
 30
0.0
 11
12444.49263726272
 21
20344.231046000001
 31
0.0
  0
LINE
  5
40AB
  8
0-6
  6
CONTINUOUS
 62
     6
 10
10063.88778799998
 20
17606.418493000001
 30
0.0
 11
10593.389278999981
 21
17606.418493000001
 31
0.0
  0
LINE
  5
40AC
  8
0-6
  6
CONTINUOUS
 62
     6
 10
10718.969937999969
 20
13899.62161800001
 30
0.0
 11
10801.85633999998
 21
14082.29980150001
 31
0.0
  0
LINE
  5
40AD
  8
0-6
  6
CONTINUOUS
 62
     6
 10
10801.85633999998
 20
14082.29980150001
 30
0.0
 11
11601.856999999991
 21
14082.29980150001
 31
0.0
  0
LINE
  5
40AE
  8
0-6
  6
CONTINUOUS
 62
     6
 10
10943.544340999981
 20
13376.262639
 30
0.0
 11
11301.15148206636
 21
12712.730980000009
 31
0.0
  0
LINE
  5
40AF
  8
0-6
  6
CONTINUOUS
 62
     6
 10
8083.4630819999848
 20
12312.73065
 30
0.0
 11
9163.4636759999848
 21
12312.73065
 31
0.0
  0
LINE
  5
40B0
  8
0-6
  6
CONTINUOUS
 62
     6
 10
9721.9685129999834
 20
14448.7443215
 30
0.0
 11
9163.4636759999848
 21
12312.73065
 31
0.0
  0
LINE
  5
40B1
  8
0-6
  6
CONTINUOUS
 62
     6
 10
9964.8475249999847
 20
17827.208057
 30
0.0
 11
10063.88778799998
 21
17606.418493000001
 31
0.0
  0
LINE
  5
40B2
  8
0-6
  6
CONTINUOUS
 62
     6
 10
12810.14722299998
 20
21064.229463
 30
0.0
 11
14485.14656399999
 21
21064.229463
 31
0.0
  0
LINE
  5
40B3
  8
0-6
  6
CONTINUOUS
 62
     6
 10
14675.42976699998
 20
20734.649517000002
 30
0.0
 11
14485.14656399999
 21
21064.229463
 31
0.0
  0
LINE
  5
40B4
  8
0-6
  6
CONTINUOUS
 62
     6
 10
14968.13134699998
 20
20244.134709999998
 30
0.0
 11
14758.937802999981
 21
20606.46579100001
 31
0.0
  0
LINE
  5
40B5
  8
0-6
  6
CONTINUOUS
 62
     6
 10
15318.63084599996
 20
15868.27965
 30
0.0
 11
16198.63077999997
 21
15868.27965
 31
0.0
  0
LINE
  5
40B6
  8
0-6
  6
CONTINUOUS
 62
     6
 10
14409.652673999981
 20
15411.9147185
 30
0.0
 11
15318.63084599996
 21
15061.6587015
 31
0.0
  0
LINE
  5
40B7
  8
0-6
  6
CONTINUOUS
 62
     6
 10
14676.338365999971
 20
15666.03619499999
 30
0.0
 11
15318.63084599996
 21
15868.27965
 31
0.0
  0
LINE
  5
40B8
  8
0-6
  6
CONTINUOUS
 62
     6
 10
14412.08946099999
 20
17070.091898999988
 30
0.0
 11
15318.63084599996
 21
17379.144026999991
 31
0.0
  0
LINE
  5
40B9
  8
0-6
  6
CONTINUOUS
 62
     6
 10
14412.08946099999
 20
18529.091898999999
 30
0.0
 11
15318.63084599996
 21
18838.144026999991
 31
0.0
  0
LINE
  5
40BA
  8
0-6
  6
CONTINUOUS
 62
     6
 10
12409.863821999979
 20
15723.567934000001
 30
0.0
 11
12249.203124999971
 21
16148.59234799998
 31
0.0
  0
LINE
  5
40BB
  8
0-6
  6
CONTINUOUS
 62
     6
 10
11301.259184999961
 20
16148.59234799998
 30
0.0
 11
12249.203124999971
 21
16148.59234799998
 31
0.0
  0
LINE
  5
40BC
  8
0-6
  6
CONTINUOUS
 62
     6
 10
14419.32757099998
 20
15436.76460550001
 30
0.0
 11
14260.556323999979
 21
15469.97201950001
 31
0.0
  0
LINE
  5
40BD
  8
0-6
  6
CONTINUOUS
 62
     6
 10
14260.556323999979
 20
15469.97201950001
 30
0.0
 11
14399.975796999979
 21
15387.063842500011
 31
0.0
  0
LINE
  5
40BE
  8
0-6
  6
CONTINUOUS
 62
     6
 10
14260.556323999979
 20
15469.97201950001
 30
0.0
 11
14419.32757099998
 21
15436.76460550001
 31
0.0
  0
LINE
  5
40BF
  8
0-6
  6
CONTINUOUS
 62
     6
 10
14419.32757099998
 20
15436.76460550001
 30
0.0
 11
14399.975796999979
 21
15387.063842500011
 31
0.0
  0
LINE
  5
40C0
  8
0-6
  6
CONTINUOUS
 62
     6
 10
14399.975796999979
 20
15387.063842500011
 30
0.0
 11
14260.556323999979
 21
15469.97201950001
 31
0.0
  0
LINE
  5
40C1
  8
0-6
  6
CONTINUOUS
 62
     6
 10
14399.975796999979
 20
15387.063842500011
 30
0.0
 11
14419.32757099998
 21
15436.76460550001
 31
0.0
  0
LINE
  5
40C2
  8
0-6
  6
CONTINUOUS
 62
     6
 10
10966.289009999969
 20
13390.184593
 30
0.0
 11
10860.01954399999
 21
13512.731640000011
 31
0.0
  0
LINE
  5
40C3
  8
0-6
  6
CONTINUOUS
 62
     6
 10
10860.01954399999
 20
13512.731640000011
 30
0.0
 11
10920.79967299999
 21
13362.34167400001
 31
0.0
  0
LINE
  5
40C4
  8
0-6
  6
CONTINUOUS
 62
     6
 10
10860.01954399999
 20
13512.731640000011
 30
0.0
 11
10966.289009999969
 21
13390.184593
 31
0.0
  0
LINE
  5
40C5
  8
0-6
  6
CONTINUOUS
 62
     6
 10
10966.289009999969
 20
13390.184593
 30
0.0
 11
10920.79967299999
 21
13362.34167400001
 31
0.0
  0
LINE
  5
40C6
  8
0-6
  6
CONTINUOUS
 62
     6
 10
10920.79967299999
 20
13362.34167400001
 30
0.0
 11
10860.01954399999
 21
13512.731640000011
 31
0.0
  0
LINE
  5
40C7
  8
0-6
  6
CONTINUOUS
 62
     6
 10
10920.79967299999
 20
13362.34167400001
 30
0.0
 11
10966.289009999969
 21
13390.184593
 31
0.0
  0
LINE
  5
40C8
  8
0-6
  6
CONTINUOUS
 62
     6
 10
9747.4142339999817
 20
14440.760923500011
 30
0.0
 11
9769.8629649999802
 21
14601.4087535
 31
0.0
  0
LINE
  5
40C9
  8
0-6
  6
CONTINUOUS
 62
     6
 10
9769.8629649999802
 20
14601.4087535
 30
0.0
 11
9696.5257609999826
 21
14456.7257405
 31
0.0
  0
LINE
  5
40CA
  8
0-6
  6
CONTINUOUS
 62
     6
 10
9769.8629649999802
 20
14601.4087535
 30
0.0
 11
9747.4142339999817
 21
14440.760923500011
 31
0.0
  0
LINE
  5
40CB
  8
0-6
  6
CONTINUOUS
 62
     6
 10
9747.4142339999817
 20
14440.760923500011
 30
0.0
 11
9696.5257609999826
 21
14456.7257405
 31
0.0
  0
LINE
  5
40CC
  8
0-6
  6
CONTINUOUS
 62
     6
 10
9696.5257609999826
 20
14456.7257405
 30
0.0
 11
9769.8629649999802
 21
14601.4087535
 31
0.0
  0
LINE
  5
40CD
  8
0-6
  6
CONTINUOUS
 62
     6
 10
9696.5257609999826
 20
14456.7257405
 30
0.0
 11
9747.4142339999817
 21
14440.760923500011
 31
0.0
  0
LINE
  5
40CE
  8
0-6
  6
CONTINUOUS
 62
     6
 10
10694.821790999969
 20
13910.93258700001
 30
0.0
 11
10651.096204999991
 21
13754.73075500001
 31
0.0
  0
LINE
  5
40CF
  8
0-6
  6
CONTINUOUS
 62
     6
 10
10651.096204999991
 20
13754.73075500001
 30
0.0
 11
10743.119074999981
 21
13888.30767900001
 31
0.0
  0
LINE
  5
40D0
  8
0-6
  6
CONTINUOUS
 62
     6
 10
10651.096204999991
 20
13754.73075500001
 30
0.0
 11
10694.821790999969
 21
13910.93258700001
 31
0.0
  0
LINE
  5
40D1
  8
0-6
  6
CONTINUOUS
 62
     6
 10
10694.821790999969
 20
13910.93258700001
 30
0.0
 11
10743.119074999981
 21
13888.30767900001
 31
0.0
  0
LINE
  5
40D2
  8
0-6
  6
CONTINUOUS
 62
     6
 10
10743.119074999981
 20
13888.30767900001
 30
0.0
 11
10651.096204999991
 21
13754.73075500001
 31
0.0
  0
LINE
  5
40D3
  8
0-6
  6
CONTINUOUS
 62
     6
 10
10743.119074999981
 20
13888.30767900001
 30
0.0
 11
10694.821790999969
 21
13910.93258700001
 31
0.0
  0
LINE
  5
40D4
  8
0-6
  6
CONTINUOUS
 62
     6
 10
9989.1777879999845
 20
17838.12312299999
 30
0.0
 11
9899.3640599999835
 21
17973.193594
 31
0.0
  0
LINE
  5
40D5
  8
0-6
  6
CONTINUOUS
 62
     6
 10
9899.3640599999835
 20
17973.193594
 30
0.0
 11
9940.5182519999835
 21
17816.294970999981
 31
0.0
  0
LINE
  5
40D6
  8
0-6
  6
CONTINUOUS
 62
     6
 10
9899.3640599999835
 20
17973.193594
 30
0.0
 11
9989.1777879999845
 21
17838.12312299999
 31
0.0
  0
LINE
  5
40D7
  8
0-6
  6
CONTINUOUS
 62
     6
 10
9989.1777879999845
 20
17838.12312299999
 30
0.0
 11
9940.5182519999835
 21
17816.294970999981
 31
0.0
  0
LINE
  5
40D8
  8
0-6
  6
CONTINUOUS
 62
     6
 10
9940.5182519999835
 20
17816.294970999981
 30
0.0
 11
9899.3640599999835
 21
17973.193594
 31
0.0
  0
LINE
  5
40D9
  8
0-6
  6
CONTINUOUS
 62
     6
 10
9940.5182519999835
 20
17816.294970999981
 30
0.0
 11
9989.1777879999845
 21
17838.12312299999
 31
0.0
  0
LINE
  5
40DA
  8
0-6
  6
CONTINUOUS
 62
     6
 10
12377.521457999979
 20
15882.518326999991
 30
0.0
 11
12409.863821999979
 21
15723.567934000001
 31
0.0
  0
LINE
  5
40DB
  8
0-6
  6
CONTINUOUS
 62
     6
 10
12409.863821999979
 20
15723.567934000001
 30
0.0
 11
12327.718749999971
 21
15863.437746999991
 31
0.0
  0
LINE
  5
40DC
  8
0-6
  6
CONTINUOUS
 62
     6
 10
12409.863821999979
 20
15723.567934000001
 30
0.0
 11
12377.521457999979
 21
15882.518326999991
 31
0.0
  0
LINE
  5
40DD
  8
0-6
  6
CONTINUOUS
 62
     6
 10
12377.521457999979
 20
15882.518326999991
 30
0.0
 11
12327.718749999971
 21
15863.437746999991
 31
0.0
  0
LINE
  5
40DE
  8
0-6
  6
CONTINUOUS
 62
     6
 10
12327.718749999971
 20
15863.437746999991
 30
0.0
 11
12409.863821999979
 21
15723.567934000001
 31
0.0
  0
LINE
  5
40DF
  8
0-6
  6
CONTINUOUS
 62
     6
 10
12327.718749999971
 20
15863.437746999991
 30
0.0
 11
12377.521457999979
 21
15882.518326999991
 31
0.0
  0
LINE
  5
40E0
  8
0-6
  6
CONTINUOUS
 62
     6
 10
14403.530022999979
 20
17095.346596999989
 30
0.0
 11
14260.556323999979
 21
17018.729329999991
 31
0.0
  0
LINE
  5
40E1
  8
0-6
  6
CONTINUOUS
 62
     6
 10
14260.556323999979
 20
17018.729329999991
 30
0.0
 11
14420.64790999998
 21
17044.837200999991
 31
0.0
  0
LINE
  5
40E2
  8
0-6
  6
CONTINUOUS
 62
     6
 10
14260.556323999979
 20
17018.729329999991
 30
0.0
 11
14403.530022999979
 21
17095.346596999989
 31
0.0
  0
LINE
  5
40E3
  8
0-6
  6
CONTINUOUS
 62
     6
 10
14403.530022999979
 20
17095.346596999989
 30
0.0
 11
14420.64790999998
 21
17044.837200999991
 31
0.0
  0
LINE
  5
40E4
  8
0-6
  6
CONTINUOUS
 62
     6
 10
14420.64790999998
 20
17044.837200999991
 30
0.0
 11
14260.556323999979
 21
17018.729329999991
 31
0.0
  0
LINE
  5
40E5
  8
0-6
  6
CONTINUOUS
 62
     6
 10
14420.64790999998
 20
17044.837200999991
 30
0.0
 11
14403.530022999979
 21
17095.346596999989
 31
0.0
  0
LINE
  5
40E6
  8
0-6
  6
CONTINUOUS
 62
     6
 10
14403.530022999979
 20
18554.346597
 30
0.0
 11
14260.556323999979
 21
18477.731309999999
 31
0.0
  0
LINE
  5
40E7
  8
0-6
  6
CONTINUOUS
 62
     6
 10
14260.556323999979
 20
18477.731309999999
 30
0.0
 11
14420.64790999998
 21
18503.837200999991
 31
0.0
  0
LINE
  5
40E8
  8
0-6
  6
CONTINUOUS
 62
     6
 10
14260.556323999979
 20
18477.731309999999
 30
0.0
 11
14403.530022999979
 21
18554.346597
 31
0.0
  0
LINE
  5
40E9
  8
0-6
  6
CONTINUOUS
 62
     6
 10
14403.530022999979
 20
18554.346597
 30
0.0
 11
14420.64790999998
 21
18503.837200999991
 31
0.0
  0
LINE
  5
40EA
  8
0-6
  6
CONTINUOUS
 62
     6
 10
14420.64790999998
 20
18503.837200999991
 30
0.0
 11
14260.556323999979
 21
18477.731309999999
 31
0.0
  0
LINE
  5
40EB
  8
0-6
  6
CONTINUOUS
 62
     6
 10
14420.64790999998
 20
18503.837200999991
 30
0.0
 11
14403.530022999979
 21
18554.346597
 31
0.0
  0
LINE
  5
40EC
  8
0-6
  6
CONTINUOUS
 62
     6
 10
14830.127229999969
 20
15740.146402
 30
0.0
 11
14676.338365999971
 21
15666.03619499999
 31
0.0
  0
LINE
  5
40ED
  8
0-6
  6
CONTINUOUS
 62
     6
 10
14676.338365999971
 20
15666.03619499999
 30
0.0
 11
14846.365220999969
 21
15689.34403699999
 31
0.0
  0
LINE
  5
40EE
  8
0-6
  6
CONTINUOUS
 62
     6
 10
14676.338365999971
 20
15666.03619499999
 30
0.0
 11
14830.127229999969
 21
15740.146402
 31
0.0
  0
LINE
  5
40EF
  8
0-6
  6
CONTINUOUS
 62
     6
 10
14830.127229999969
 20
15740.146402
 30
0.0
 11
14846.365220999969
 21
15689.34403699999
 31
0.0
  0
LINE
  5
40F0
  8
0-6
  6
CONTINUOUS
 62
     6
 10
14846.365220999969
 20
15689.34403699999
 30
0.0
 11
14676.338365999971
 21
15666.03619499999
 31
0.0
  0
LINE
  5
40F1
  8
0-6
  6
CONTINUOUS
 62
     6
 10
14846.365220999969
 20
15689.34403699999
 30
0.0
 11
14830.127229999969
 21
15740.146402
 31
0.0
  0
LINE
  5
40F2
  8
0-6
  6
CONTINUOUS
 62
     6
 10
11757.01276226271
 20
19838.353196
 30
0.0
 11
11744.51309226272
 21
19676.628507000001
 31
0.0
  0
LINE
  5
40F3
  8
0-6
  6
CONTINUOUS
 62
     6
 10
11744.51309226272
 20
19676.628507000001
 30
0.0
 11
11808.787070262701
 21
19825.557588
 31
0.0
  0
LINE
  5
40F4
  8
0-6
  6
CONTINUOUS
 62
     6
 10
11744.51309226272
 20
19676.628507000001
 30
0.0
 11
11757.01276226271
 21
19838.353196
 31
0.0
  0
LINE
  5
40F5
  8
0-6
  6
CONTINUOUS
 62
     6
 10
11757.01276226271
 20
19838.353196
 30
0.0
 11
11808.787070262701
 21
19825.557588
 31
0.0
  0
LINE
  5
40F6
  8
0-6
  6
CONTINUOUS
 62
     6
 10
11808.787070262701
 20
19825.557588
 30
0.0
 11
11744.51309226272
 21
19676.628507000001
 31
0.0
  0
LINE
  5
40F7
  8
0-6
  6
CONTINUOUS
 62
     6
 10
11808.787070262701
 20
19825.557588
 30
0.0
 11
11757.01276226271
 21
19838.353196
 31
0.0
  0
LINE
  5
40F8
  8
0-6
  6
CONTINUOUS
 62
     6
 10
14946.47937299996
 20
20231.634050000001
 30
0.0
 11
15043.13134699998
 21
20114.230781999991
 31
0.0
  0
LINE
  5
40F9
  8
0-6
  6
CONTINUOUS
 62
     6
 10
15043.13134699998
 20
20114.230781999991
 30
0.0
 11
14989.782331999981
 21
20256.63339000001
 31
0.0
  0
LINE
  5
40FA
  8
0-6
  6
CONTINUOUS
 62
     6
 10
15043.13134699998
 20
20114.230781999991
 30
0.0
 11
14946.47937299996
 21
20231.634050000001
 31
0.0
  0
LINE
  5
40FB
  8
0-6
  6
CONTINUOUS
 62
     6
 10
14946.47937299996
 20
20231.634050000001
 30
0.0
 11
14989.782331999981
 21
20256.63339000001
 31
0.0
  0
LINE
  5
40FC
  8
0-6
  6
CONTINUOUS
 62
     6
 10
14989.782331999981
 20
20256.63339000001
 30
0.0
 11
15043.13134699998
 21
20114.230781999991
 31
0.0
  0
LINE
  5
40FD
  8
0-6
  6
CONTINUOUS
 62
     6
 10
14989.782331999981
 20
20256.63339000001
 30
0.0
 11
14946.47937299996
 21
20231.634050000001
 31
0.0
  0
LINE
  5
40FE
  8
2-0
  6
DASHED3
 62
     6
 10
9899.3640599999835
 20
19852.73043900001
 30
0.0
 11
15034.36405999998
 21
19852.73043900001
 31
0.0
  0
LINE
  5
40FF
  8
2-0
  6
DASHED3
 62
     6
 10
9856.8628069999831
 20
19664.18327400001
 30
0.0
 11
9856.8628069999831
 21
19937.73096700001
 31
0.0
  0
LINE
  5
4100
  8
2-0
  6
DASHED3
 62
     6
 10
9899.3640599999835
 20
19636.382914999991
 30
0.0
 11
9899.3640599999835
 21
19937.73096700001
 31
0.0
  0
LINE
  5
4101
  8
2-0
  6
DASHED3
 62
     6
 10
9856.8628069999831
 20
19937.73096700001
 30
0.0
 11
15076.86531299998
 21
19937.73096700001
 31
0.0
  0
LINE
  5
4102
  8
0-7
  6
CONTINUOUS
 62
     6
 10
12466.86405999998
 20
17879.455471000001
 30
0.0
 11
12466.86405999998
 21
18387.730518
 31
0.0
  0
LINE
  5
4103
  8
2-0
  6
DASHED3
 62
     6
 10
15034.36405999998
 20
16128.61900499999
 30
0.0
 11
15034.36405999998
 21
19937.73096700001
 31
0.0
  0
LINE
  5
4104
  8
2-0
  6
DASHED3
 62
     6
 10
15076.86531299998
 20
16100.818646
 30
0.0
 11
15076.86531299998
 21
19937.73096700001
 31
0.0
  0
LINE
  5
4105
  8
2-0
  6
DASHED3
 62
     6
 10
9969.362806999985
 20
19891.730914
 30
0.0
 11
12396.86333399998
 21
18432.730914
 31
0.0
  0
LINE
  5
4106
  8
2-0
  6
DASHED3
 62
     6
 10
11672.527791999981
 20
18477.731309999999
 30
0.0
 11
15034.36405999998
 21
18477.731309999999
 31
0.0
  0
LINE
  5
4107
  8
2-0
  6
DASHED3
 62
     6
 10
11810.117200999979
 20
18387.730518
 30
0.0
 11
15034.36405999998
 21
18387.730518
 31
0.0
  0
LINE
  5
4108
  8
2-0
  6
DASHED3
 62
     6
 10
12536.863795999991
 20
18432.730914
 30
0.0
 11
14964.364323999949
 21
16973.730914
 31
0.0
  0
LINE
  5
4109
  8
2-0
  6
DASHED3
 62
     6
 10
14964.364323999949
 20
16973.730914
 30
0.0
 11
14318.18109999998
 21
16590.876184000001
 31
0.0
  0
LINE
  5
410A
  8
2-0
  6
DASHED3
 62
     6
 10
12536.863795999991
 20
19891.730914
 30
0.0
 11
14964.364323999949
 21
18432.730914
 31
0.0
  0
LINE
  5
410B
  8
2-0
  6
DASHED3
 62
     6
 10
14964.364323999949
 20
19891.730914
 30
0.0
 11
12536.863795999991
 21
18432.730914
 31
0.0
  0
LINE
  5
410C
  8
2-0
  6
DASHED3
 62
     6
 10
12409.863821999979
 20
18013.918228999992
 30
0.0
 11
12409.863821999979
 21
18387.730518
 31
0.0
  0
LINE
  5
410D
  8
0-7
  6
CONTINUOUS
 62
     6
 10
12466.86405999998
 20
18063.681346999991
 30
0.0
 11
12466.86405999998
 21
18387.730518
 31
0.0
  0
LINE
  5
410E
  8
2-0
  6
DASHED3
 62
     6
 10
12523.86330799998
 20
17744.992711999999
 30
0.0
 11
12523.86330799998
 21
18387.730518
 31
0.0
  0
LINE
  5
410F
  8
2-0
  6
DASHED3
 62
     6
 10
12523.86330799998
 20
18477.731309999999
 30
0.0
 11
12523.86330799998
 21
20094.231178000002
 31
0.0
  0
LINE
  5
4110
  8
2-0
  6
DASHED3
 62
     6
 10
12409.863821999979
 20
18477.731309999999
 30
0.0
 11
12409.863821999979
 21
20094.231178000002
 31
0.0
  0
LINE
  5
4111
  8
2-0
  6
DASHED3
 62
     6
 10
12466.86405999998
 20
18477.731309999999
 30
0.0
 11
12466.86405999998
 21
20094.231178000002
 31
0.0
  0
LINE
  5
4112
  8
2-0
  6
DASHED3
 62
     6
 10
14964.364323999949
 20
18432.730914
 30
0.0
 11
13160.02515299999
 21
17353.451854999988
 31
0.0
  0
LINE
  5
4113
  8
2-0
  6
DASHED3
 62
     6
 10
12396.86333399998
 20
19891.730914
 30
0.0
 11
10897.153333999981
 21
18989.919655000002
 31
0.0
  0
LINE
  5
4114
  8
2-0
  6
DASHED3
 62
     6
 10
12396.86333399998
 20
18432.730914
 30
0.0
 11
12265.74794099998
 21
18353.886688999999
 31
0.0
  0
LINE
  5
4115
  8
0-7
  6
CONTINUOUS
 62
     6
 10
12149.189927999971
 20
18283.79985399999
 30
0.0
 11
12055.307299999969
 21
18227.343983999988
 31
0.0
  0
LINE
  5
4116
  8
2-0
  6
DASHED3
 62
     6
 10
12466.86405999998
 20
18477.731309999999
 30
0.0
 11
12466.86405999998
 21
18387.730518
 31
0.0
  0
LINE
  5
4117
  8
2-0
  6
CENTER2
 62
     6
 10
15034.36405999998
 20
21134.229199000009
 30
0.0
 11
15034.36405999998
 21
20184.230519000012
 31
0.0
  0
LINE
  5
4118
  8
2-0
  6
CENTER2
 62
     6
 10
12466.86405999998
 20
21134.229199000009
 30
0.0
 11
12466.86405999998
 21
20184.230519000012
 31
0.0
  0
LINE
  5
4119
  8
2-0
  6
CENTER2
 62
     6
 10
8569.8624699999873
 20
19891.730914
 30
0.0
 11
10225.86295099999
 21
19891.730914
 31
0.0
  0
LINE
  5
411A
  8
2-0
  6
CENTER2
 62
     6
 10
9899.3640599999835
 20
21134.229199000009
 30
0.0
 11
9899.3640599999835
 21
20184.230519000012
 31
0.0
  0
LINE
  5
411B
  8
2-0
  6
CENTER2
 62
     6
 10
8569.8624699999873
 20
16973.730914
 30
0.0
 11
10225.86295099999
 21
16973.730914
 31
0.0
  0
LINE
  5
411C
  8
2-0
  6
CENTER2
 62
     6
 10
8569.8624699999873
 20
13705.230913999991
 30
0.0
 11
10225.86295099999
 21
13705.230913999991
 31
0.0
  0
LINE
  5
411D
  8
2-0
  6
CENTER2
 62
     6
 10
14707.86516799998
 20
16973.730914
 30
0.0
 11
15267.30390899998
 21
16973.730914
 31
0.0
  0
LINE
  5
411E
  8
2-0
  6
CENTER2
 62
     6
 10
14707.86516799998
 20
13705.230913999991
 30
0.0
 11
15333.128839999979
 21
13705.230913999991
 31
0.0
  0
LINE
  5
411F
  8
2-0
  6
CENTER2
 62
     6
 10
9680.5649019999837
 20
15514.971425500011
 30
0.0
 11
15267.30390899998
 21
15514.971425500011
 31
0.0
  0
LINE
  5
4120
  8
2-0
  6
CENTER2
 62
     6
 10
9666.4252009999836
 20
18432.730914
 30
0.0
 11
15267.30390899998
 21
18432.730914
 31
0.0
  0
LINE
  5
4121
  8
2-0
  6
CONTINUOUS
 62
     6
 10
15318.63084599996
 20
17379.14204699999
 30
0.0
 11
17313.074996999982
 21
17379.14204699999
 31
0.0
  0
LINE
  5
4122
  8
2-0
  6
CONTINUOUS
 62
     6
 10
15318.63084599996
 20
18838.144026999991
 30
0.0
 11
17313.074996999982
 21
18838.144026999991
 31
0.0
  0
LINE
  5
4123
  8
2-0
  6
CONTINUOUS
 62
     6
 10
15318.63084599996
 20
15061.6577115
 30
0.0
 11
17313.074996999982
 21
15061.6577115
 31
0.0
  0
LINE
  5
4124
  8
2-0
  6
DASHED3
 62
     6
 10
13718.522566999971
 20
16928.730518
 30
0.0
 11
14981.365418999991
 21
16928.730518
 31
0.0
  0
LINE
  5
4125
  8
2-0
  6
CONTINUOUS
 62
     3
 10
9899.3640599999835
 20
16928.730518
 30
0.0
 11
13801.68313199998
 21
16928.730518
 31
0.0
  0
LINE
  5
4126
  8
0-2
  6
CONTINUOUS
 62
     3
 10
9899.3640599999835
 20
17018.729329999991
 30
0.0
 11
13664.096692999979
 21
17018.729329999991
 31
0.0
  0
LINE
  5
4127
  8
2-0
  6
DASHED3
 62
     6
 10
13664.096692999979
 20
17018.729329999991
 30
0.0
 11
15034.36405999998
 21
17018.729329999991
 31
0.0
  0
CIRCLE
  5
4128
  8
0-1
  6
CONTINUOUS
 62
     4
 10
12466.86405999998
 20
21334.229859000021
 30
0.0
 40
199.9999949999999
  0
CIRCLE
  5
4129
  8
0-1
  6
CONTINUOUS
 62
     4
 10
9899.3640599999835
 20
21334.229859000021
 30
0.0
 40
199.9999949999999
  0
CIRCLE
  5
412A
  8
0-1
  6
CONTINUOUS
 62
     4
 10
8369.8642849999869
 20
19891.730914
 30
0.0
 40
199.9999949999999
  0
CIRCLE
  5
412B
  8
0-1
  6
CONTINUOUS
 62
     4
 10
8369.8642849999869
 20
16973.730914
 30
0.0
 40
199.9999949999999
  0
CIRCLE
  5
412C
  8
0-1
  6
CONTINUOUS
 62
     4
 10
8369.8642849999869
 20
13705.230913999991
 30
0.0
 40
199.9999949999999
  0
CIRCLE
  5
412D
  8
0-1
  6
CONTINUOUS
 62
     4
 10
15034.36405999998
 20
21334.227880000031
 30
0.0
 40
199.9999949999999
  0
CIRCLE
  5
412E
  8
0-1
  6
CONTINUOUS
 62
     4
 10
15128.71667799999
 20
1375.999610999999
 30
0.0
 40
20.0
  0
ARC
  5
412F
  8
0-1
  6
CONTINUOUS
 62
     4
 10
15128.71667799999
 20
1375.999610999999
 30
0.0
 40
20.0
 50
180.0
 51
0.0
  0
ARC
  5
4130
  8
0-1
  6
CONTINUOUS
 62
     4
 10
15128.71667799999
 20
1375.999610999999
 30
0.0
 40
20.0
 50
0.0
 51
179.99998499999839
  0
CIRCLE
  5
4131
  8
0-1
  6
CONTINUOUS
 62
     4
 10
15128.71667799999
 20
1775.999939999999
 30
0.0
 40
20.0
  0
ARC
  5
4132
  8
0-1
  6
CONTINUOUS
 62
     4
 10
15128.71667799999
 20
1775.999939999999
 30
0.0
 40
20.0
 50
180.0
 51
0.0
  0
ARC
  5
4133
  8
0-1
  6
CONTINUOUS
 62
     4
 10
15128.71667799999
 20
1775.999939999999
 30
0.0
 40
20.0
 50
0.0
 51
179.99998499999839
  0
ARC
  5
4134
  8
0-2
  6
CONTINUOUS
 62
     3
 10
15051.36519499996
 20
20079.230913999989
 30
0.0
 40
5.0
 50
180.0
 51
269.9999850001808
  0
ARC
  5
4135
  8
0-2
  6
CONTINUOUS
 62
     3
 10
15051.36519499996
 20
20109.230519000001
 30
0.0
 40
5.0
 50
90.0
 51
180.0
  0
ARC
  5
4136
  8
0-2
  6
CONTINUOUS
 62
     3
 10
15114.864191999981
 20
20109.230519000001
 30
0.0
 40
5.0
 50
0.0
 51
90.0
  0
ARC
  5
4137
  8
0-2
  6
CONTINUOUS
 62
     3
 10
9818.8609589999833
 20
20109.230519000001
 30
0.0
 40
5.0
 50
90.0
 51
180.0
  0
ARC
  5
4138
  8
0-2
  6
CONTINUOUS
 62
     3
 10
9882.3619359999811
 20
20109.230519000001
 30
0.0
 40
5.0
 50
0.0
 51
90.0
  0
ARC
  5
4139
  8
0-2
  6
CONTINUOUS
 62
     3
 10
9882.3619359999811
 20
20079.230913999989
 30
0.0
 40
5.0
 50
269.9999850001808
 51
0.0
  0
TEXT
  5
413A
  8
0-1
  6
CONTINUOUS
 62
     7
 10
14993.258366999969
 20
21248.12080100003
 30
0.0
 40
160.0
  1
3
 72
     4
 11
15046.5917003333
 21
21328.12080100003
 31
0.0
  0
TEXT
  5
413B
  8
0-1
  6
CONTINUOUS
 62
     7
 10
12414.842311999961
 20
21249.158068000001
 30
0.0
 40
160.0
  1
2
 72
     4
 11
12468.1756453333
 21
21329.158068000001
 31
0.0
  0
TEXT
  5
413C
  8
0-1
  6
CONTINUOUS
 62
     7
 10
9847.3433019999848
 20
21249.158068000001
 30
0.0
 40
160.0
  1
1
 72
     4
 11
9874.0099686666508
 21
21329.158068000001
 31
0.0
  0
TEXT
  5
413D
  8
0-1
  6
CONTINUOUS
 62
     7
 10
8316.0881879999833
 20
19801.017496
 30
0.0
 40
160.0
  1
C
 72
     4
 11
8369.4215213333173
 21
19881.017496
 31
0.0
  0
TEXT
  5
413E
  8
0-1
  6
CONTINUOUS
 62
     7
 10
8316.0881879999833
 20
16883.017496
 30
0.0
 40
160.0
  1
B
 72
     4
 11
8369.4215213333173
 21
16963.017496
 31
0.0
  0
TEXT
  5
413F
  8
0-1
  6
CONTINUOUS
 62
     7
 10
8316.0881879999833
 20
13614.517494999989
 30
0.0
 40
160.0
  1
A
 72
     4
 11
8369.4215213333173
 21
13694.517494999989
 31
0.0
  0
TEXT
  5
4140
  8
0-1
  6
CONTINUOUS
 62
     7
 10
16688.845544
 20
1655.9997920000001
 30
0.0
 40
160.0
  1
H
  0
TEXT
  5
4141
  8
0-1
  6
CONTINUOUS
 62
     7
 10
15176.146932999991
 20
1655.9997920000001
 30
0.0
 40
160.0
  1
（ ）内寸法ハ、  タ イプヲ示ス。
  0
TEXT
  5
4142
  8
0-1
  6
CONTINUOUS
 62
     7
 10
15288.715225999989
 20
1255.9998330000001
 30
0.0
 40
160.0
  1
有効高サハ、基礎高サヲ含ミマセン。
  0
TEXT
  5
4143
  8
0-6
  6
CONTINUOUS
 62
     7
 10
12006.802273262711
 20
20424.231309999999
 30
0.0
 40
160.0
  1
屋根
 72
     4
 11
12177.46893992938
 21
20504.231309999999
 31
0.0
  0
TEXT
  5
4144
  8
0-6
  6
CONTINUOUS
 62
     7
 10
10881.85561399998
 20
14162.300065500011
 30
0.0
 40
160.0
  1
桁（前）
 72
     4
 11
11201.85561399998
 21
14242.300065500011
 31
0.0
  0
TEXT
  5
4145
  8
0-6
  6
CONTINUOUS
 62
     7
 10
11338.48408939969
 20
12792.73124400001
 30
0.0
 40
160.0
  1
鼻隠し前
 72
     4
 11
11701.150756066359
 21
12872.73124400001
 31
0.0
  0
TEXT
  5
4146
  8
0-6
  6
CONTINUOUS
 62
     7
 10
8163.4633459999823
 20
12392.730914000011
 30
0.0
 40
160.0
  1
ケラバ 左
 72
     4
 11
8579.4633459999823
 21
12472.730914000011
 31
0.0
  0
TEXT
  5
4147
  8
0-6
  6
CONTINUOUS
 62
     7
 10
10153.390796999989
 20
17686.416777999992
 30
0.0
 40
160.0
  1
上枠
 72
     4
 11
10324.057463666661
 21
17766.416777999992
 31
0.0
  0
TEXT
  5
4148
  8
0-6
  6
CONTINUOUS
 62
     7
 10
12890.147486999969
 20
21144.229727000002
 30
0.0
 40
160.0
  1
鼻隠しコーナー後
 72
     4
 11
13636.814153666641
 21
21224.229727000002
 31
0.0
  0
TEXT
  5
4149
  8
0-6
  6
CONTINUOUS
 62
     7
 10
15398.63110999998
 20
15948.27793399998
 30
0.0
 40
160.0
  1
ブレース
 72
     4
 11
15761.29777666665
 21
16033.611267333319
 31
0.0
  0
TEXT
  5
414A
  8
0-6
  6
CONTINUOUS
 62
     7
 10
11317.50014499998
 20
16228.592612
 30
0.0
 40
160.0
  1
梁　梁補強
 72
     4
 11
11776.16681166665
 21
16308.592612
 31
0.0
  0
TEXT
  5
414B
  8
0-6
  6
CONTINUOUS
 62
     7
 10
11537.348447999961
 20
16230.964075
 30
0.0
 40
160.0
  1
+
 72
     4
 11
11590.6817813333
 21
16310.964075
 31
0.0
  0
TEXT
  5
414C
  8
2-0
  6
CONTINUOUS
 62
     7
 10
11078.59699599998
 20
11547.05767999998
 30
0.0
 40
160.0
  1
小 屋 伏 図
 50
0.000193
 72
     4
 11
11579.930059851629
 21
11627.059368733569
 31
0.0
  0
TEXT
  5
414D
  8
2-0
  6
CONTINUOUS
 62
     7
 10
15399.205169999979
 20
18918.144291000001
 30
0.0
 40
160.0
  1
桁中B +  桁中補強B
 72
     4
 11
16332.53850333332
 21
18998.144291000001
 31
0.0
  0
TEXT
  5
414E
  8
2-0
  6
CONTINUOUS
 62
     7
 10
15399.205169999979
 20
17459.138352000002
 30
0.0
 40
160.0
  1
桁中A +  桁中補強A
 50
0.000079
 72
     4
 11
16332.53839302762
 21
17539.139638889359
 31
0.0
  0
TEXT
  5
414F
  8
2-0
  6
CONTINUOUS
 62
     7
 10
15399.205169999979
 20
15141.654016500001
 30
0.0
 40
160.0
  1
桁中B +  桁中補強B
 50
0.000118
 72
     4
 11
16332.538338572251
 21
15221.65593868912
 31
0.0
  0
TEXT
  5
4158
  8
2-0
  6
CONTINUOUS
 62
     7
 10
12931.42224498926
 20
11574.25473773359
 30
0.0
 40
160.0
  1
1
 72
     4
 11
12958.08891165593
 21
11654.25473773359
 31
0.0
  0
TEXT
  5
4159
  8
2-0
  6
CONTINUOUS
 62
     7
 10
13174.51096223995
 20
11494.256205733591
 30
0.0
 40
160.0
  1
80
 72
     4
 11
13294.51096223995
 21
11574.256205733591
 31
0.0
  0
TEXT
  5
415A
  8
2-0
  6
CONTINUOUS
 62
     7
 10
12432.42421098926
 20
11547.059368733569
 30
0.0
 40
160.0
  1
(S=  /   )
 72
     4
 11
12992.42421098926
 21
11627.059368733569
 31
0.0
  0
TEXT
  5
415B
  8
0-6
  6
CONTINUOUS
 62
     7
 10
10119.172667450101
 20
20424.229329999998
 30
0.0
 40
160.0
  1
桁後+桁後補強
 72
     4
 11
10753.83933411677
 21
20504.229329999998
 31
0.0
  0
LINE
  5
415C
  8
0-6
  6
CONTINUOUS
 62
     6
 10
11562.888075305291
 20
19937.73096700001
 30
0.0
 11
11429.49412742405
 21
20344.231046000001
 31
0.0
  0
LINE
  5
415D
  8
0-6
  6
CONTINUOUS
 62
     6
 10
10070.251008854821
 20
20344.231046000001
 30
0.0
 11
11429.49412742405
 21
20344.231046000001
 31
0.0
  0
LINE
  5
415E
  8
0-6
  6
CONTINUOUS
 62
     6
 10
11539.280619937999
 20
20098.21240542494
 30
0.0
 11
11488.506976165039
 21
20081.878889240172
 31
0.0
  0
LINE
  5
415F
  8
0-6
  6
CONTINUOUS
 62
     6
 10
11539.280619937999
 20
20098.21240542494
 30
0.0
 11
11562.888075305291
 21
19937.73096700001
 31
0.0
  0
LINE
  5
4160
  8
0-6
  6
CONTINUOUS
 62
     6
 10
11488.506976165039
 20
20081.878889240172
 30
0.0
 11
11539.280619937999
 21
20098.21240542494
 31
0.0
  0
LINE
  5
4161
  8
0-6
  6
CONTINUOUS
 62
     6
 10
11562.888075305291
 20
19937.73096700001
 30
0.0
 11
11488.506976165039
 21
20081.878889240172
 31
0.0
  0
LINE
  5
4162
  8
0-6
  6
CONTINUOUS
 62
     6
 10
11562.888075305291
 20
19937.73096700001
 30
0.0
 11
11539.280619937999
 21
20098.21240542494
 31
0.0
  0
LINE
  5
4163
  8
0-6
  6
CONTINUOUS
 62
     6
 10
11488.506976165039
 20
20081.878889240172
 30
0.0
 11
11562.888075305291
 21
19937.73096700001
 31
0.0
  0
LINE
  5
4164
  8
0-4
  6
CONTINUOUS
 62
     4
 10
17611.93860899999
 20
6384.4362370000017
 30
0.0
 11
17731.940983999979
 21
6176.5902500000011
 31
0.0
  0
LINE
  5
4165
  8
0-4
  6
CONTINUOUS
 62
     4
 10
15426.53135600001
 20
6176.5902500000002
 30
0.0
 11
20064.820470999992
 21
6176.5902500000011
 31
0.0
  0
LINE
  5
4166
  8
0-4
  6
CONTINUOUS
 62
     4
 10
17731.940983999979
 20
6176.5902500000011
 30
0.0
 11
17851.939400999989
 21
6384.4362370000017
 31
0.0
  0
LINE
  5
4167
  8
0-4
  6
CONTINUOUS
 62
     4
 10
17851.939400999989
 20
6384.4362370000017
 30
0.0
 11
17611.93860899999
 21
6384.4362370000017
 31
0.0
  0
TEXT
  5
4168
  8
0-4
  6
CONTINUOUS
 62
     7
 10
17611.93860899999
 20
6464.4365009999983
 30
0.0
 40
160.0
  1
G.L
 72
     4
 11
17771.93860899999
 21
6544.4365009999992
 31
0.0
  0
TEXT
  5
4169
  8
2-0
  6
CONTINUOUS
 62
     7
 10
21681.395296999988
 20
11453.23951899999
 30
0.0
 40
160.0
  1
平　面　図
 50
359.99978700000008
 72
     4
 11
22134.72890790736
 21
11527.90450037622
 31
0.0
  0
TEXT
  5
416A
  8
2-0
  6
CONTINUOUS
 62
     7
 10
23486.22109304498
 20
11475.09986937623
 30
0.0
 40
160.0
  1
1
 72
     4
 11
23512.887759711652
 21
11555.09986937623
 31
0.0
  0
TEXT
  5
416B
  8
2-0
  6
CONTINUOUS
 62
     7
 10
23729.309810295679
 20
11395.101337376231
 30
0.0
 40
160.0
  1
80
 72
     4
 11
23849.309810295679
 21
11475.101337376231
 31
0.0
  0
TEXT
  5
416C
  8
2-0
  6
CONTINUOUS
 62
     7
 10
22987.223059044991
 20
11447.90450037622
 30
0.0
 40
160.0
  1
(S=  /   )
 72
     4
 11
23547.223059044991
 21
11527.90450037622
 31
0.0
  0
LINE
  5
416D
  8
0-1
  6
CONTINUOUS
 62
     3
 10
9509.0335860000068
 20
6326.5902500000011
 30
0.0
 11
9509.0335860000068
 21
8187.6361290000032
 31
0.0
  0
LINE
  5
416E
  8
0-1
  6
CONTINUOUS
 62
     3
 10
9529.0346419999969
 20
6326.5902500000011
 30
0.0
 11
9529.0346419999969
 21
8187.6361290000032
 31
0.0
  0
LINE
  5
416F
  8
0-1
  6
CONTINUOUS
 62
     3
 10
9459.0339160000131
 20
6326.5902500000011
 30
0.0
 11
9459.0339160000131
 21
8187.6361290000032
 31
0.0
  0
LINE
  5
4170
  8
0-1
  6
CONTINUOUS
 62
     3
 10
9579.0333220000066
 20
6326.5902500000011
 30
0.0
 11
9579.0333220000066
 21
8187.6361290000032
 31
0.0
  0
LINE
  5
4171
  8
0-1
  6
CONTINUOUS
 62
     3
 10
9712.0342059999984
 20
6326.5902500000011
 30
0.0
 11
9712.0342059999984
 21
8187.6361290000032
 31
0.0
  0
LINE
  5
4172
  8
0-1
  6
CONTINUOUS
 62
     3
 10
9727.0340080000115
 20
6326.5902500000011
 30
0.0
 11
9727.0340080000115
 21
8187.6361290000032
 31
0.0
  0
LINE
  5
4173
  8
0-1
  6
CONTINUOUS
 62
     3
 10
9326.0340210000086
 20
6326.5902500000011
 30
0.0
 11
9326.0340210000086
 21
8187.6361290000032
 31
0.0
  0
LINE
  5
4174
  8
0-1
  6
CONTINUOUS
 62
     3
 10
9311.0342190000083
 20
6326.5902500000011
 30
0.0
 11
9311.0342190000083
 21
8187.6361290000032
 31
0.0
  0
LINE
  5
4175
  8
0-1
  6
CONTINUOUS
 62
     3
 10
10587.533705000011
 20
8187.6361290000032
 30
0.0
 11
10587.533705000011
 21
6326.5902500000011
 31
0.0
  0
LINE
  5
4176
  8
0-1
  6
CONTINUOUS
 62
     3
 10
10550.535513000001
 20
8187.6361290000032
 30
0.0
 11
10550.535513000001
 21
6326.5902500000011
 31
0.0
  0
LINE
  5
4177
  8
0-1
  6
CONTINUOUS
 62
     3
 10
9887.5343640000083
 20
8187.6361290000032
 30
0.0
 11
9887.5343640000083
 21
6326.5902500000011
 31
0.0
  0
LINE
  5
4178
  8
0-1
  6
CONTINUOUS
 62
     3
 10
9850.534192999994
 20
8187.6361290000032
 30
0.0
 11
9850.534192999994
 21
6326.5902500000011
 31
0.0
  0
LINE
  5
4179
  8
0-1
  6
CONTINUOUS
 62
     3
 10
11287.53304499998
 20
8187.6361290000032
 30
0.0
 11
11287.53304499998
 21
6326.5902500000011
 31
0.0
  0
LINE
  5
417A
  8
0-1
  6
CONTINUOUS
 62
     3
 10
11250.534852999999
 20
8187.6361290000032
 30
0.0
 11
11250.534852999999
 21
6326.5902500000011
 31
0.0
  0
LINE
  5
417B
  8
0-1
  6
CONTINUOUS
 62
     3
 10
10909.033255999981
 20
6326.5902500000011
 30
0.0
 11
10909.033255999981
 21
8187.6361290000032
 31
0.0
  0
LINE
  5
417C
  8
0-1
  6
CONTINUOUS
 62
     3
 10
10929.034312
 20
6326.5902500000011
 30
0.0
 11
10929.034312
 21
8187.6361290000032
 31
0.0
  0
LINE
  5
417D
  8
0-1
  6
CONTINUOUS
 62
     3
 10
10859.034575999989
 20
6326.5902500000011
 30
0.0
 11
10859.034575999989
 21
8187.6361290000032
 31
0.0
  0
LINE
  5
417E
  8
0-1
  6
CONTINUOUS
 62
     3
 10
10979.03398200001
 20
6326.5902500000011
 30
0.0
 11
10979.03398200001
 21
8187.6361290000032
 31
0.0
  0
LINE
  5
417F
  8
0-1
  6
CONTINUOUS
 62
     3
 10
11112.03387599999
 20
6326.5902500000011
 30
0.0
 11
11112.03387599999
 21
8187.6361290000032
 31
0.0
  0
LINE
  5
4180
  8
0-1
  6
CONTINUOUS
 62
     3
 10
11127.033678
 20
6326.5902500000011
 30
0.0
 11
11127.033678
 21
8187.6361290000032
 31
0.0
  0
LINE
  5
4181
  8
0-1
  6
CONTINUOUS
 62
     3
 10
10726.033691000001
 20
6326.5902500000011
 30
0.0
 11
10726.033691000001
 21
8187.6361290000032
 31
0.0
  0
LINE
  5
4182
  8
0-1
  6
CONTINUOUS
 62
     3
 10
10711.034879000001
 20
6326.5902500000011
 30
0.0
 11
10711.034879000001
 21
8187.6361290000032
 31
0.0
  0
LINE
  5
4183
  8
0-1
  6
CONTINUOUS
 62
     3
 10
10011.03355899999
 20
6326.5902500000011
 30
0.0
 11
10011.03355899999
 21
8187.6361290000032
 31
0.0
  0
LINE
  5
4184
  8
0-1
  6
CONTINUOUS
 62
     3
 10
10026.03435099998
 20
6326.5902500000011
 30
0.0
 11
10026.03435099998
 21
8187.6361290000032
 31
0.0
  0
LINE
  5
4185
  8
0-1
  6
CONTINUOUS
 62
     3
 10
10427.034337999999
 20
6326.5902500000011
 30
0.0
 11
10427.034337999999
 21
8187.6361290000032
 31
0.0
  0
LINE
  5
4186
  8
0-1
  6
CONTINUOUS
 62
     3
 10
10412.033546000001
 20
6326.5902500000011
 30
0.0
 11
10412.033546000001
 21
8187.6361290000032
 31
0.0
  0
LINE
  5
4187
  8
0-1
  6
CONTINUOUS
 62
     3
 10
10279.034642000001
 20
6326.5902500000011
 30
0.0
 11
10279.034642000001
 21
8187.6361290000032
 31
0.0
  0
LINE
  5
4188
  8
0-1
  6
CONTINUOUS
 62
     3
 10
10159.033256000001
 20
6326.5902500000011
 30
0.0
 11
10159.033256000001
 21
8187.6361290000032
 31
0.0
  0
LINE
  5
4189
  8
0-1
  6
CONTINUOUS
 62
     3
 10
10229.035961000011
 20
6326.5902500000011
 30
0.0
 11
10229.035961000011
 21
8187.6361290000032
 31
0.0
  0
LINE
  5
418A
  8
0-1
  6
CONTINUOUS
 62
     3
 10
10209.034906000001
 20
6326.5902500000011
 30
0.0
 11
10209.034906000001
 21
8187.6361290000032
 31
0.0
  0
LINE
  5
418B
  8
0-1
  6
CONTINUOUS
 62
     3
 10
11411.033229999999
 20
6326.5902500000011
 30
0.0
 11
11411.033229999999
 21
8187.6361290000032
 31
0.0
  0
LINE
  5
418C
  8
0-1
  6
CONTINUOUS
 62
     3
 10
11426.03402099999
 20
6326.5902500000011
 30
0.0
 11
11426.03402099999
 21
8187.6361290000032
 31
0.0
  0
LINE
  5
418D
  8
0-1
  6
CONTINUOUS
 62
     3
 10
11559.034906000001
 20
6326.5902500000011
 30
0.0
 11
11559.034906000001
 21
8187.6361290000032
 31
0.0
  0
LINE
  5
418E
  8
0-1
  6
CONTINUOUS
 62
     3
 10
11827.034008000001
 20
6326.5902500000011
 30
0.0
 11
11827.034008000001
 21
8187.6361290000032
 31
0.0
  0
LINE
  5
418F
  8
0-1
  6
CONTINUOUS
 62
     3
 10
11812.035196000001
 20
6326.5902500000011
 30
0.0
 11
11812.035196000001
 21
8187.6361290000032
 31
0.0
  0
LINE
  5
4190
  8
0-1
  6
CONTINUOUS
 62
     3
 10
11679.034311999991
 20
6326.5902500000011
 30
0.0
 11
11679.034311999991
 21
8187.6361290000032
 31
0.0
  0
LINE
  5
4191
  8
0-1
  6
CONTINUOUS
 62
     3
 10
11629.034642000001
 20
6326.5902500000011
 30
0.0
 11
11629.034642000001
 21
8187.6361290000032
 31
0.0
  0
LINE
  5
4192
  8
0-1
  6
CONTINUOUS
 62
     3
 10
11609.035565
 20
6326.5902500000011
 30
0.0
 11
11609.035565
 21
8187.6361290000032
 31
0.0
  0
LINE
  5
4193
  8
0-1
  6
CONTINUOUS
 62
     3
 10
12437.034535999999
 20
6326.5902500000011
 30
0.0
 11
12437.034535999999
 21
8187.6361290000032
 31
0.0
  0
LINE
  5
4194
  8
0-1
  6
CONTINUOUS
 62
     3
 10
12417.03545999999
 20
6326.5902500000011
 30
0.0
 11
12417.03545999999
 21
8187.6361290000032
 31
0.0
  0
LINE
  5
4195
  8
0-1
  6
CONTINUOUS
 62
     3
 10
12487.035196000001
 20
6326.5902500000011
 30
0.0
 11
12487.035196000001
 21
8187.6361290000032
 31
0.0
  0
LINE
  5
4196
  8
0-1
  6
CONTINUOUS
 62
     3
 10
12367.03480000001
 20
6326.5902500000011
 30
0.0
 11
12367.03480000001
 21
8187.6361290000032
 31
0.0
  0
LINE
  5
4197
  8
0-1
  6
CONTINUOUS
 62
     3
 10
12234.03490599999
 20
6326.5902500000011
 30
0.0
 11
12234.03490599999
 21
8187.6361290000032
 31
0.0
  0
LINE
  5
4198
  8
0-1
  6
CONTINUOUS
 62
     3
 10
12219.03312399999
 20
6326.5902500000011
 30
0.0
 11
12219.03312399999
 21
8187.6361290000032
 31
0.0
  0
LINE
  5
4199
  8
0-1
  6
CONTINUOUS
 62
     3
 10
12620.03508999999
 20
6326.5902500000011
 30
0.0
 11
12620.03508999999
 21
8187.6361290000032
 31
0.0
  0
LINE
  5
419A
  8
0-1
  6
CONTINUOUS
 62
     3
 10
12635.03390300001
 20
6326.5902500000011
 30
0.0
 11
12635.03390300001
 21
8187.6361290000032
 31
0.0
  0
LINE
  5
419B
  8
0-1
  6
CONTINUOUS
 62
     3
 10
14735.03390300001
 20
6326.5902500000011
 30
0.0
 11
14735.03390300001
 21
8187.6361290000032
 31
0.0
  0
LINE
  5
419C
  8
0-1
  6
CONTINUOUS
 62
     3
 10
14720.03509000001
 20
6326.5902500000011
 30
0.0
 11
14720.03509000001
 21
8187.6361290000032
 31
0.0
  0
LINE
  5
419D
  8
0-1
  6
CONTINUOUS
 62
     3
 10
14319.03411399998
 20
6326.5902500000011
 30
0.0
 11
14319.03411399998
 21
8187.6361290000032
 31
0.0
  0
LINE
  5
419E
  8
0-1
  6
CONTINUOUS
 62
     3
 10
14334.033916
 20
6326.5902500000011
 30
0.0
 11
14334.033916
 21
8187.6361290000032
 31
0.0
  0
LINE
  5
419F
  8
0-1
  6
CONTINUOUS
 62
     3
 10
14467.03480000001
 20
6326.5902500000011
 30
0.0
 11
14467.03480000001
 21
8187.6361290000032
 31
0.0
  0
LINE
  5
41A0
  8
0-1
  6
CONTINUOUS
 62
     3
 10
14587.034206
 20
6326.5902500000011
 30
0.0
 11
14587.034206
 21
8187.6361290000032
 31
0.0
  0
LINE
  5
41A1
  8
0-1
  6
CONTINUOUS
 62
     3
 10
14517.035459999999
 20
6326.5902500000011
 30
0.0
 11
14517.035459999999
 21
8187.6361290000032
 31
0.0
  0
LINE
  5
41A2
  8
0-1
  6
CONTINUOUS
 62
     3
 10
14537.034535999999
 20
6326.5902500000011
 30
0.0
 11
14537.034535999999
 21
8187.6361290000032
 31
0.0
  0
LINE
  5
41A3
  8
0-1
  6
CONTINUOUS
 62
     3
 10
13837.035196000001
 20
6326.5902500000011
 30
0.0
 11
13837.035196000001
 21
8187.6361290000032
 31
0.0
  0
LINE
  5
41A4
  8
0-1
  6
CONTINUOUS
 62
     3
 10
13817.034140000011
 20
6326.5902500000011
 30
0.0
 11
13817.034140000011
 21
8187.6361290000032
 31
0.0
  0
LINE
  5
41A5
  8
0-1
  6
CONTINUOUS
 62
     3
 10
13887.03387600001
 20
6326.5902500000011
 30
0.0
 11
13887.03387600001
 21
8187.6361290000032
 31
0.0
  0
LINE
  5
41A6
  8
0-1
  6
CONTINUOUS
 62
     3
 10
13767.03545999999
 20
6326.5902500000011
 30
0.0
 11
13767.03545999999
 21
8187.6361290000032
 31
0.0
  0
LINE
  5
41A7
  8
0-1
  6
CONTINUOUS
 62
     3
 10
13634.034575999989
 20
6326.5902500000011
 30
0.0
 11
13634.034575999989
 21
8187.6361290000032
 31
0.0
  0
LINE
  5
41A8
  8
0-1
  6
CONTINUOUS
 62
     3
 10
13619.034773999991
 20
6326.5902500000011
 30
0.0
 11
13619.034773999991
 21
8187.6361290000032
 31
0.0
  0
LINE
  5
41A9
  8
0-1
  6
CONTINUOUS
 62
     3
 10
14020.032781000011
 20
6326.5902500000011
 30
0.0
 11
14020.032781000011
 21
8187.6361290000032
 31
0.0
  0
LINE
  5
41AA
  8
0-1
  6
CONTINUOUS
 62
     3
 10
14035.03456200001
 20
6326.5902500000011
 30
0.0
 11
14035.03456200001
 21
8187.6361290000032
 31
0.0
  0
LINE
  5
41AB
  8
0-1
  6
CONTINUOUS
 62
     3
 10
13335.035222
 20
6326.5902500000011
 30
0.0
 11
13335.035222
 21
8187.6361290000032
 31
0.0
  0
LINE
  5
41AC
  8
0-1
  6
CONTINUOUS
 62
     3
 10
13320.033441
 20
6326.5902500000011
 30
0.0
 11
13320.033441
 21
8187.6361290000032
 31
0.0
  0
LINE
  5
41AD
  8
0-1
  6
CONTINUOUS
 62
     3
 10
12919.03543299999
 20
6326.5902500000011
 30
0.0
 11
12919.03543299999
 21
8187.6361290000032
 31
0.0
  0
LINE
  5
41AE
  8
0-1
  6
CONTINUOUS
 62
     3
 10
12934.03424599999
 20
6326.5902500000011
 30
0.0
 11
12934.03424599999
 21
8187.6361290000032
 31
0.0
  0
LINE
  5
41AF
  8
0-1
  6
CONTINUOUS
 62
     3
 10
13067.03315000001
 20
6326.5902500000011
 30
0.0
 11
13067.03315000001
 21
8187.6361290000032
 31
0.0
  0
LINE
  5
41B0
  8
0-1
  6
CONTINUOUS
 62
     3
 10
13187.03453599999
 20
6326.5902500000011
 30
0.0
 11
13187.03453599999
 21
8187.6361290000032
 31
0.0
  0
LINE
  5
41B1
  8
0-1
  6
CONTINUOUS
 62
     3
 10
13117.03479999999
 20
6326.5902500000011
 30
0.0
 11
13117.03479999999
 21
8187.6361290000032
 31
0.0
  0
LINE
  5
41B2
  8
0-1
  6
CONTINUOUS
 62
     3
 10
13137.03387600001
 20
6326.5902500000011
 30
0.0
 11
13137.03387600001
 21
8187.6361290000032
 31
0.0
  0
LINE
  5
41B3
  8
0-1
  6
CONTINUOUS
 62
     3
 10
12795.53524899999
 20
8187.6361290000032
 30
0.0
 11
12795.53524899999
 21
6326.5902500000011
 31
0.0
  0
LINE
  5
41B4
  8
0-1
  6
CONTINUOUS
 62
     3
 10
12758.534087
 20
8187.6361290000032
 30
0.0
 11
12758.534087
 21
6326.5902500000011
 31
0.0
  0
LINE
  5
41B5
  8
0-1
  6
CONTINUOUS
 62
     3
 10
14195.532939000001
 20
8187.6361290000032
 30
0.0
 11
14195.532939000001
 21
6326.5902500000011
 31
0.0
  0
LINE
  5
41B6
  8
0-1
  6
CONTINUOUS
 62
     3
 10
14158.533756999999
 20
8187.6361290000032
 30
0.0
 11
14158.533756999999
 21
6326.5902500000011
 31
0.0
  0
LINE
  5
41B7
  8
0-1
  6
CONTINUOUS
 62
     3
 10
13495.53458899999
 20
8187.6361290000032
 30
0.0
 11
13495.53458899999
 21
6326.5902500000011
 31
0.0
  0
LINE
  5
41B8
  8
0-1
  6
CONTINUOUS
 62
     3
 10
13458.534417000001
 20
8187.6361290000032
 30
0.0
 11
13458.534417000001
 21
6326.5902500000011
 31
0.0
  0
LINE
  5
41B9
  8
0-1
  6
CONTINUOUS
 62
     3
 10
14895.53524899998
 20
8187.6361290000032
 30
0.0
 11
14895.53524899998
 21
6326.5902500000011
 31
0.0
  0
LINE
  5
41BA
  8
0-1
  6
CONTINUOUS
 62
     3
 10
14858.534087
 20
8187.6361290000032
 30
0.0
 11
14858.534087
 21
6326.5902500000011
 31
0.0
  0
LINE
  5
41BB
  8
0-1
  6
CONTINUOUS
 62
     3
 10
15346.534061
 20
6276.5900850000025
 30
0.0
 11
15346.534061
 21
6176.5902500000002
 31
0.0
  0
LINE
  5
41BC
  8
0-1
  6
CONTINUOUS
 62
     3
 10
15314.033269999991
 20
8490.9191600000013
 30
0.0
 11
15314.033269999991
 21
6276.5900850000025
 31
0.0
  0
LINE
  5
41BD
  8
0-1
  6
CONTINUOUS
 62
     3
 10
15334.034061
 20
8491.5001490000031
 30
0.0
 11
15334.034061
 21
6276.5900850000025
 31
0.0
  0
LINE
  5
41BE
  8
0-1
  6
CONTINUOUS
 62
     3
 10
15219.03419299999
 20
8187.6361290000032
 30
0.0
 11
15219.03419299999
 21
6276.5900850000025
 31
0.0
  0
LINE
  5
41BF
  8
0-1
  6
CONTINUOUS
 62
     3
 10
12023.034061
 20
8392.3915919999999
 30
0.0
 11
12023.034061
 21
8187.6361290000032
 31
0.0
  0
LINE
  5
41C0
  8
0-1
  6
CONTINUOUS
 62
     3
 10
11950.534193
 20
8187.6361290000032
 30
0.0
 11
11950.534193
 21
6276.5900850000025
 31
0.0
  0
LINE
  5
41C1
  8
0-1
  6
CONTINUOUS
 62
     3
 10
12095.53293899999
 20
8187.6361290000032
 30
0.0
 11
12095.53293899999
 21
6276.5900850000025
 31
0.0
  0
LINE
  5
41C2
  8
0-1
  6
CONTINUOUS
 62
     3
 10
12095.53293899999
 20
6326.5902500000011
 30
0.0
 11
15219.03419299999
 21
6326.5902500000011
 31
0.0
  0
LINE
  5
41C3
  8
0-1
  6
CONTINUOUS
 62
     3
 10
9055.0340609999967
 20
6176.5902500000002
 30
0.0
 11
9055.0340609999967
 21
6276.5900850000025
 31
0.0
  0
LINE
  5
41C4
  8
0-1
  6
CONTINUOUS
 62
     3
 10
9082.5338630000006
 20
8304.3925880000043
 30
0.0
 11
9082.5338630000006
 21
6276.5900850000025
 31
0.0
  0
LINE
  5
41C5
  8
0-1
  6
CONTINUOUS
 62
     3
 10
9062.5340609999967
 20
8303.7758606838124
 30
0.0
 11
9062.5340609999967
 21
6276.5900850000025
 31
0.0
  0
LINE
  5
41C6
  8
0-1
  6
CONTINUOUS
 62
     3
 10
9177.5329400000046
 20
8187.6361290000032
 30
0.0
 11
9177.5329400000046
 21
6276.5900850000025
 31
0.0
  0
LINE
  5
41C7
  8
0-1
  6
CONTINUOUS
 62
     3
 10
9055.0340609999967
 20
6276.5900850000025
 30
0.0
 11
15346.534061
 21
6276.5900850000025
 31
0.0
  0
LINE
  5
41C8
  8
0-1
  6
CONTINUOUS
 62
     3
 10
9177.5329400000046
 20
6326.5902500000011
 30
0.0
 11
11950.534193
 21
6326.5902500000011
 31
0.0
  0
LINE
  5
41C9
  8
0-1
  6
CONTINUOUS
 62
     3
 10
8372.5330059999978
 20
6176.5902500000011
 30
0.0
 11
15346.534061
 21
6176.5902500000002
 31
0.0
  0
LINE
  5
41CA
  8
0-1
  6
CONTINUOUS
 62
     3
 10
9082.5338630000006
 20
8187.6361290000032
 30
0.0
 11
15314.033269999991
 21
8187.6361290000032
 31
0.0
  0
LINE
  5
41CB
  8
0-1
  6
CONTINUOUS
 62
     3
 10
8888.2322370000002
 20
8338.5754100000013
 30
0.0
 11
15419.723725999989
 21
8534.0914710000015
 31
0.0
  0
LINE
  5
41CC
  8
0-1
  6
CONTINUOUS
 62
     3
 10
15418.223250999999
 20
8584.0703560000038
 30
0.0
 11
8886.7327519999981
 21
8388.553305999998
 31
0.0
  0
LINE
  5
41CD
  8
0-1
  6
CONTINUOUS
 62
     3
 10
8883.642724000003
 20
8391.4622080000008
 30
0.0
 11
8882.6826569999976
 21
8423.4477640000005
 31
0.0
  0
LINE
  5
41CE
  8
0-1
  6
CONTINUOUS
 62
     3
 10
8887.5314879999987
 20
8428.5950069999999
 30
0.0
 11
15437.992703
 21
8624.682159
 31
0.0
  0
LINE
  5
41CF
  8
0-1
  6
CONTINUOUS
 62
     3
 10
15441.897303
 20
8494.7406210000008
 30
0.0
 11
8891.4321290000007
 21
8298.6539639999974
 31
0.0
  0
LINE
  5
41D0
  8
0-1
  6
CONTINUOUS
 62
     3
 10
8886.2843910000029
 20
8303.5013100000033
 30
0.0
 11
8885.3253140000033
 21
8335.4873609999977
 31
0.0
  0
LINE
  5
41D1
  8
0-1
  6
CONTINUOUS
 62
     3
 10
8884.9937449999998
 20
8346.4821019999981
 30
0.0
 11
8883.9733030000007
 21
8380.4664770000054
 31
0.0
  0
LINE
  5
41D2
  8
0-1
  6
CONTINUOUS
 62
     3
 10
8886.882206000002
 20
8383.5555159999967
 30
0.0
 11
15418.374683999989
 21
8579.0730610000028
 31
0.0
  0
LINE
  5
41D3
  8
0-1
  6
CONTINUOUS
 62
     3
 10
15419.574272
 20
8539.0897550000045
 30
0.0
 11
8888.0837740000006
 21
8343.5736950000028
 31
0.0
  0
LINE
  5
41D4
  8
0-1
  6
CONTINUOUS
 62
     3
 10
12023.034061
 20
8392.3915919999999
 30
0.0
 11
12019.13143999999
 21
8522.3331300000027
 31
0.0
  0
LINE
  5
41D5
  8
0-1
  6
CONTINUOUS
 62
     3
 10
15408.930401
 20
8493.7498720000003
 30
0.0
 11
15405.02876999999
 21
8623.6914100000049
 31
0.0
  0
LINE
  5
41D6
  8
0-1
  6
CONTINUOUS
 62
     3
 10
8900.0242299999973
 20
8428.9701260000002
 30
0.0
 11
8903.9268509999984
 21
8299.0290830000049
 31
0.0
  0
LINE
  5
41D7
  8
0-5
  6
CONTINUOUS
 62
     4
 10
17051.61904899999
 20
6276.5900850000025
 30
0.0
 11
17171.619444999989
 21
6484.4370620000009
 31
0.0
  0
LINE
  5
41D8
  8
0-5
  6
CONTINUOUS
 62
     4
 10
16931.620631999991
 20
6484.4370620000009
 30
0.0
 11
17051.61904899999
 21
6276.5900850000025
 31
0.0
  0
LINE
  5
41D9
  8
0-5
  6
CONTINUOUS
 62
     4
 10
17171.619444999989
 20
6484.4370620000009
 30
0.0
 11
16931.620631999991
 21
6484.4370620000009
 31
0.0
  0
LINE
  5
41DA
  8
0-5
  6
CONTINUOUS
 62
     4
 10
15426.53135600001
 20
6276.5900850000025
 30
0.0
 11
17143.99724199999
 21
6276.5900850000025
 31
0.0
  0
LINE
  5
41DB
  8
0-5
  6
CONTINUOUS
 62
     4
 10
15291.534061
 20
4496.5906459999997
 30
0.0
 11
15291.534061
 21
4336.5911079999987
 31
0.0
  0
LINE
  5
41DC
  8
0-5
  6
CONTINUOUS
 62
     4
 10
12023.034061
 20
4496.5906459999997
 30
0.0
 11
12023.034061
 21
4336.5911079999987
 31
0.0
  0
LINE
  5
41DD
  8
0-5
  6
CONTINUOUS
 62
     4
 10
9105.0340609999967
 20
4496.5906459999997
 30
0.0
 11
9105.0340609999967
 21
4336.5911079999987
 31
0.0
  0
LINE
  5
41DE
  8
2-0
  6
CENTER2
 62
     6
 10
15291.534061
 20
5913.9378270000043
 30
0.0
 11
15291.534061
 21
6971.0804250000019
 31
0.0
  0
LINE
  5
41DF
  8
2-0
  6
CENTER2
 62
     6
 10
12023.034061
 20
5913.9378270000043
 30
0.0
 11
12023.034061
 21
6971.0804250000019
 31
0.0
  0
LINE
  5
41E0
  8
2-0
  6
CENTER2
 62
     6
 10
9105.0340609999967
 20
5913.9378270000043
 30
0.0
 11
9105.0340609999967
 21
6971.0804250000019
 31
0.0
  0
ARC
  5
41E1
  8
0-1
  6
CONTINUOUS
 62
     3
 10
15418.973487999991
 20
8559.0819030000021
 30
0.0
 40
24.999998999999999
 50
271.71998600002598
 51
91.719986000025997
  0
ARC
  5
41E2
  8
0-1
  6
CONTINUOUS
 62
     3
 10
8886.6426839999986
 20
8391.552276000004
 30
0.0
 40
3.0
 50
181.7199859999738
 51
271.71998600002598
  0
ARC
  5
41E3
  8
0-1
  6
CONTINUOUS
 62
     3
 10
8887.6799519999968
 20
8423.5972180000026
 30
0.0
 40
5.0
 50
91.719986000025997
 51
181.7199859999738
  0
ARC
  5
41E4
  8
0-1
  6
CONTINUOUS
 62
     3
 10
15413.976193999981
 20
8558.9314600000016
 30
0.0
 40
69.999999000000003
 50
293.50677499977832
 51
69.933196999913747
  0
ARC
  5
41E5
  8
0-1
  6
CONTINUOUS
 62
     3
 10
8891.2836650000027
 20
8303.6517540000023
 30
0.0
 40
5.0
 50
181.7199859999738
 51
271.71998600002598
  0
ARC
  5
41E6
  8
0-1
  6
CONTINUOUS
 62
     3
 10
8888.3223060000018
 20
8335.5769340000006
 30
0.0
 40
3.0
 50
91.719986000025997
 51
181.7199859999738
  0
ARC
  5
41E7
  8
0-1
  6
CONTINUOUS
 62
     3
 10
8888.3064689999974
 20
8386.0996919999998
 30
0.0
 40
2.5
 50
271.71998600002598
 51
91.719986000025997
  0
ARC
  5
41E8
  8
0-1
  6
CONTINUOUS
 62
     3
 10
8889.6565009999977
 20
8341.1195860000007
 30
0.0
 40
2.5
 50
271.71998600002598
 51
91.719986000025997
  0
ARC
  5
41E9
  8
0-1
  6
CONTINUOUS
 62
     3
 10
8886.9722739999997
 20
8380.5570399999979
 30
0.0
 40
3.0
 50
91.719986000025997
 51
181.7199859999738
  0
ARC
  5
41EA
  8
0-1
  6
CONTINUOUS
 62
     3
 10
15418.973487999991
 20
8559.0819030000021
 30
0.0
 40
20.0
 50
271.71998600002598
 51
91.719986000025997
  0
ARC
  5
41EB
  8
0-1
  6
CONTINUOUS
 62
     3
 10
8887.992715999997
 20
8346.5716750000029
 30
0.0
 40
3.0
 50
181.7199859999738
 51
271.71998600002598
  0
CIRCLE
  5
41EC
  8
0-5
  6
CONTINUOUS
 62
     4
 10
12023.034061
 20
4136.5899530000006
 30
0.0
 40
199.9999949999999
  0
CIRCLE
  5
41ED
  8
0-5
  6
CONTINUOUS
 62
     4
 10
15291.534061
 20
4136.5899530000006
 30
0.0
 40
199.9999949999999
  0
CIRCLE
  5
41EE
  8
0-5
  6
CONTINUOUS
 62
     4
 10
9105.0340609999967
 20
4136.5899530000006
 30
0.0
 40
199.9999949999999
  0
TEXT
  5
41EF
  8
0-5
  6
CONTINUOUS
 62
     7
 10
16592.527119999992
 20
6564.4363360000034
 30
0.0
 40
160.0
  1
布基礎天端
 72
     4
 11
17051.193786666659
 21
6644.4363360000016
 31
0.0
  0
TEXT
  5
41F0
  8
0-5
  6
CONTINUOUS
 62
     7
 10
15244.577901000001
 20
4053.3791570000012
 30
0.0
 40
160.0
  1
A
 72
     4
 11
15297.911234333331
 21
4133.3791570000012
 31
0.0
  0
TEXT
  5
41F1
  8
0-5
  6
CONTINUOUS
 62
     7
 10
11976.07790099999
 20
4053.3791570000012
 30
0.0
 40
160.0
  1
B
 72
     4
 11
12029.411234333331
 21
4133.3791570000012
 31
0.0
  0
TEXT
  5
41F2
  8
0-5
  6
CONTINUOUS
 62
     7
 10
9058.0779010000024
 20
4053.3791570000012
 30
0.0
 40
160.0
  1
C
 72
     4
 11
9111.4112343333363
 21
4133.3791570000012
 31
0.0
  0
TEXT
  5
41F3
  8
2-0
  6
CONTINUOUS
 62
     7
 10
10705.000317
 20
3299.4686180000022
 30
0.0
 40
160.0
  1
側 面 立 面 図
 50
0.000139
 72
     4
 11
11350.333456250821
 21
3379.4701835833762
 31
0.0
  0
TEXT
  5
41F4
  8
2-0
  6
CONTINUOUS
 62
     7
 10
12701.825641388439
 20
3326.6655525833762
 30
0.0
 40
160.0
  1
1
 72
     4
 11
12728.492308055111
 21
3406.6655525833762
 31
0.0
  0
TEXT
  5
41F5
  8
2-0
  6
CONTINUOUS
 62
     7
 10
12944.91435863914
 20
3246.6670205833748
 30
0.0
 40
160.0
  1
80
 72
     4
 11
13064.91435863914
 21
3326.6670205833748
 31
0.0
  0
TEXT
  5
41F6
  8
2-0
  6
CONTINUOUS
 62
     7
 10
12202.827607388441
 20
3299.4701835833762
 30
0.0
 40
160.0
  1
(S=  /   )
 72
     4
 11
12762.827607388441
 21
3379.4701835833762
 31
0.0
  0
LINE
  5
41F7
  8
0-1
  6
CONTINUOUS
 62
     3
 10
15019.03642399998
 20
6326.5902500000011
 30
0.0
 11
15019.03642399998
 21
8187.6361290000032
 31
0.0
  0
LINE
  5
41F8
  8
0-1
  6
CONTINUOUS
 62
     3
 10
15034.036225999989
 20
6326.5902500000011
 30
0.0
 11
15034.036225999989
 21
8187.6361290000032
 31
0.0
  0
LINE
  5
4203
  8
0-1
  6
CONTINUOUS
 62
     3
 10
25379.822053999989
 20
6276.5900849999962
 30
0.0
 11
25279.82271299999
 21
6276.5900849999962
 31
0.0
  0
LINE
  5
4204
  8
0-1
  6
CONTINUOUS
 62
     3
 10
25279.82271299999
 20
6276.5900849999962
 30
0.0
 11
25279.82271299999
 21
6176.5902500000002
 31
0.0
  0
LINE
  5
4205
  8
0-1
  6
CONTINUOUS
 62
     3
 10
25379.822053999989
 20
6176.5902500000002
 30
0.0
 11
25379.822053999989
 21
6276.5900849999962
 31
0.0
  0
LINE
  5
4206
  8
0-1
  6
CONTINUOUS
 62
     3
 10
25352.322580999979
 20
8625.0904339999979
 30
0.0
 11
25352.322580999979
 21
6276.5900849999962
 31
0.0
  0
LINE
  5
4207
  8
0-1
  6
CONTINUOUS
 62
     3
 10
25372.321657999979
 20
8495.0895109999983
 30
0.0
 11
25372.321657999979
 21
6276.5900849999962
 31
0.0
  0
LINE
  5
4208
  8
0-1
  6
CONTINUOUS
 62
     3
 10
25242.322712999961
 20
8184.5901439999952
 30
0.0
 11
25242.322712999961
 21
6176.5902500000002
 31
0.0
  0
LINE
  5
4209
  8
0-1
  6
CONTINUOUS
 62
     3
 10
25287.32310899999
 20
8495.0895109999983
 30
0.0
 11
25287.32310899999
 21
6276.5900849999962
 31
0.0
  0
LINE
  5
4212
  8
0-1
  6
CONTINUOUS
 62
     3
 10
22804.819678000011
 20
8495.0895109999983
 30
0.0
 11
22804.819678000011
 21
6176.5902500000002
 31
0.0
  0
LINE
  5
4213
  8
0-1
  6
CONTINUOUS
 62
     3
 10
22849.820074000021
 20
8184.5901439999952
 30
0.0
 11
22849.820074000021
 21
6176.5902500000002
 31
0.0
  0
LINE
  5
4216
  8
0-1
  6
CONTINUOUS
 62
     3
 10
22849.820074000021
 20
8116.049807999997
 30
0.0
 11
25242.322712999961
 21
8116.049807999997
 31
0.0
  0
LINE
  5
4217
  8
0-1
  6
CONTINUOUS
 62
     3
 10
22849.820074000021
 20
6761.5909429999983
 30
0.0
 11
25242.322712999961
 21
6761.5909429999983
 31
0.0
  0
LINE
  5
4218
  8
0-1
  6
CONTINUOUS
 62
     3
 10
22849.820074000021
 20
6826.5899200000003
 30
0.0
 11
25242.322712999961
 21
6826.5899200000003
 31
0.0
  0
LINE
  5
4219
  8
0-1
  6
CONTINUOUS
 62
     3
 10
22849.820074000021
 20
6891.5903819999958
 30
0.0
 11
25242.322712999961
 21
6891.5903819999958
 31
0.0
  0
LINE
  5
421A
  8
0-1
  6
CONTINUOUS
 62
     3
 10
22849.820074000021
 20
6956.5903489999973
 30
0.0
 11
25242.322712999961
 21
6956.5903489999973
 31
0.0
  0
LINE
  5
421B
  8
0-1
  6
CONTINUOUS
 62
     3
 10
22849.820074000021
 20
7021.590315999998
 30
0.0
 11
25242.322712999961
 21
7021.590315999998
 31
0.0
  0
LINE
  5
421C
  8
0-1
  6
CONTINUOUS
 62
     3
 10
22849.820074000021
 20
7086.5902829999959
 30
0.0
 11
25242.322712999961
 21
7086.5902829999959
 31
0.0
  0
LINE
  5
421D
  8
0-1
  6
CONTINUOUS
 62
     3
 10
22849.820074000021
 20
7151.5907450000004
 30
0.0
 11
25242.322712999961
 21
7151.5907450000004
 31
0.0
  0
LINE
  5
421E
  8
0-1
  6
CONTINUOUS
 62
     3
 10
22849.820074000021
 20
7216.5897219999979
 30
0.0
 11
25242.322712999961
 21
7216.5897219999979
 31
0.0
  0
LINE
  5
421F
  8
0-1
  6
CONTINUOUS
 62
     3
 10
22849.820074000021
 20
7281.5901839999979
 30
0.0
 11
25242.322712999961
 21
7281.5901839999979
 31
0.0
  0
LINE
  5
4220
  8
0-1
  6
CONTINUOUS
 62
     3
 10
22849.820074000021
 20
7346.5901509999949
 30
0.0
 11
25242.322712999961
 21
7346.5901509999949
 31
0.0
  0
LINE
  5
4221
  8
0-1
  6
CONTINUOUS
 62
     3
 10
22849.820074000021
 20
7411.5906129999948
 30
0.0
 11
25242.322712999961
 21
7411.5906129999948
 31
0.0
  0
LINE
  5
4222
  8
0-1
  6
CONTINUOUS
 62
     3
 10
22849.820074000021
 20
7476.5895899999969
 30
0.0
 11
25242.322712999961
 21
7476.5895899999969
 31
0.0
  0
LINE
  5
4223
  8
0-1
  6
CONTINUOUS
 62
     3
 10
22849.820074000021
 20
7541.5900519999977
 30
0.0
 11
25242.322712999961
 21
7541.5900519999977
 31
0.0
  0
LINE
  5
4224
  8
0-1
  6
CONTINUOUS
 62
     3
 10
22849.820074000021
 20
7606.5900189999984
 30
0.0
 11
25242.322712999961
 21
7606.5900189999984
 31
0.0
  0
LINE
  5
4225
  8
0-1
  6
CONTINUOUS
 62
     3
 10
22849.820074000021
 20
7671.589985999999
 30
0.0
 11
25242.322712999961
 21
7671.589985999999
 31
0.0
  0
LINE
  5
4226
  8
0-1
  6
CONTINUOUS
 62
     3
 10
22849.820074000021
 20
7736.5904480000008
 30
0.0
 11
25242.322712999961
 21
7736.5904480000008
 31
0.0
  0
LINE
  5
4227
  8
0-1
  6
CONTINUOUS
 62
     3
 10
22849.820074000021
 20
7801.5904149999978
 30
0.0
 11
25242.322712999961
 21
7801.5904149999978
 31
0.0
  0
LINE
  5
4228
  8
0-1
  6
CONTINUOUS
 62
     3
 10
22849.820074000021
 20
7866.5908769999969
 30
0.0
 11
25242.322712999961
 21
7866.5908769999969
 31
0.0
  0
LINE
  5
4229
  8
0-1
  6
CONTINUOUS
 62
     3
 10
22849.820074000021
 20
7931.5898539999944
 30
0.0
 11
25242.322712999961
 21
7931.5898539999944
 31
0.0
  0
LINE
  5
422A
  8
0-1
  6
CONTINUOUS
 62
     3
 10
22849.820074000021
 20
7996.5903159999989
 30
0.0
 11
25242.322712999961
 21
7996.5903159999989
 31
0.0
  0
LINE
  5
422B
  8
0-1
  6
CONTINUOUS
 62
     3
 10
22849.820074000021
 20
8061.5902829999986
 30
0.0
 11
25242.322712999961
 21
8061.5902829999986
 31
0.0
  0
LINE
  5
422C
  8
0-1
  6
CONTINUOUS
 62
     3
 10
22849.820074000021
 20
6241.5897219999961
 30
0.0
 11
25242.322712999961
 21
6241.5897219999961
 31
0.0
  0
LINE
  5
422D
  8
0-1
  6
CONTINUOUS
 62
     3
 10
22849.820074000021
 20
6306.5906789999972
 30
0.0
 11
25242.322712999961
 21
6306.5906789999972
 31
0.0
  0
LINE
  5
422E
  8
0-1
  6
CONTINUOUS
 62
     3
 10
22849.820074000021
 20
6371.5896559999974
 30
0.0
 11
25242.322712999961
 21
6371.5896559999974
 31
0.0
  0
LINE
  5
422F
  8
0-1
  6
CONTINUOUS
 62
     3
 10
22849.820074000021
 20
6436.5906129999967
 30
0.0
 11
25242.322712999961
 21
6436.5906129999967
 31
0.0
  0
LINE
  5
4230
  8
0-1
  6
CONTINUOUS
 62
     3
 10
22849.820074000021
 20
6501.590084999998
 30
0.0
 11
25242.322712999961
 21
6501.590084999998
 31
0.0
  0
LINE
  5
4231
  8
0-1
  6
CONTINUOUS
 62
     3
 10
22849.820074000021
 20
6566.5900519999977
 30
0.0
 11
25242.322712999961
 21
6566.5900519999977
 31
0.0
  0
LINE
  5
4232
  8
0-1
  6
CONTINUOUS
 62
     3
 10
22849.820074000021
 20
6631.5900189999984
 30
0.0
 11
25242.322712999961
 21
6631.5900189999984
 31
0.0
  0
LINE
  5
4233
  8
0-1
  6
CONTINUOUS
 62
     3
 10
22849.820074000021
 20
6696.589490999997
 30
0.0
 11
25242.322712999961
 21
6696.589490999997
 31
0.0
  0
LINE
  5
4235
  8
0-1
  6
CONTINUOUS
 62
     3
 10
22804.819678000011
 20
8184.5901439999952
 30
0.0
 11
25287.32310899999
 21
8184.5901439999952
 31
0.0
  0
LINE
  5
4236
  8
0-1
  6
CONTINUOUS
 62
     3
 10
20144.820735000001
 20
6176.5902500000002
 30
0.0
 11
25379.822053999989
 21
6176.5902500000002
 31
0.0
  0
LINE
  5
4240
  8
0-1
  6
CONTINUOUS
 62
     3
 10
22719.821129999989
 20
8495.0895109999983
 30
0.0
 11
22719.821129999989
 21
6176.5902500000002
 31
0.0
  0
LINE
  5
4241
  8
0-1
  6
CONTINUOUS
 62
     3
 10
22674.822713999962
 20
8184.5901439999952
 30
0.0
 11
22674.822713999962
 21
6176.5902500000002
 31
0.0
  0
LINE
  5
424C
  8
0-1
  6
CONTINUOUS
 62
     3
 10
20244.822054
 20
6276.5900849999962
 30
0.0
 11
20244.822054
 21
6176.5902500000002
 31
0.0
  0
LINE
  5
424D
  8
0-1
  6
CONTINUOUS
 62
     3
 10
20144.820735000001
 20
6176.5902500000002
 30
0.0
 11
20144.820735000001
 21
6276.5900849999962
 31
0.0
  0
LINE
  5
424E
  8
0-1
  6
CONTINUOUS
 62
     3
 10
20144.820735000001
 20
6276.5900849999962
 30
0.0
 11
20244.822054
 21
6276.5900849999962
 31
0.0
  0
LINE
  5
424F
  8
0-1
  6
CONTINUOUS
 62
     3
 10
20282.322054
 20
8184.5901439999952
 30
0.0
 11
20282.322054
 21
6176.5902500000002
 31
0.0
  0
LINE
  5
4250
  8
0-1
  6
CONTINUOUS
 62
     3
 10
20237.319679
 20
8495.0895109999983
 30
0.0
 11
20237.319679
 21
6276.5900849999962
 31
0.0
  0
LINE
  5
4251
  8
0-1
  6
CONTINUOUS
 62
     3
 10
20172.32218599999
 20
8625.0904339999979
 30
0.0
 11
20172.32218599999
 21
6276.5900849999962
 31
0.0
  0
LINE
  5
4252
  8
0-1
  6
CONTINUOUS
 62
     3
 10
20152.319151
 20
8495.0895109999983
 30
0.0
 11
20152.319151
 21
6276.5900849999962
 31
0.0
  0
LINE
  5
4253
  8
0-1
  6
CONTINUOUS
 62
     3
 10
20237.319679
 20
8184.5901439999952
 30
0.0
 11
22719.821129999989
 21
8184.5901439999952
 31
0.0
  0
LINE
  5
4255
  8
0-1
  6
CONTINUOUS
 62
     3
 10
20282.322054
 20
6696.589490999997
 30
0.0
 11
22674.822713999962
 21
6696.589490999997
 31
0.0
  0
LINE
  5
4256
  8
0-1
  6
CONTINUOUS
 62
     3
 10
20282.322054
 20
6631.5900189999984
 30
0.0
 11
22674.822713999962
 21
6631.5900189999984
 31
0.0
  0
LINE
  5
4257
  8
0-1
  6
CONTINUOUS
 62
     3
 10
20282.322054
 20
6566.5900519999977
 30
0.0
 11
22674.822713999962
 21
6566.5900519999977
 31
0.0
  0
LINE
  5
4258
  8
0-1
  6
CONTINUOUS
 62
     3
 10
20282.322054
 20
6501.590084999998
 30
0.0
 11
22674.822713999962
 21
6501.590084999998
 31
0.0
  0
LINE
  5
4259
  8
0-1
  6
CONTINUOUS
 62
     3
 10
20282.322054
 20
6436.5906129999967
 30
0.0
 11
22674.822713999962
 21
6436.5906129999967
 31
0.0
  0
LINE
  5
425A
  8
0-1
  6
CONTINUOUS
 62
     3
 10
20282.322054
 20
6371.5896559999974
 30
0.0
 11
22674.822713999962
 21
6371.5896559999974
 31
0.0
  0
LINE
  5
425B
  8
0-1
  6
CONTINUOUS
 62
     3
 10
20282.322054
 20
6306.5906789999972
 30
0.0
 11
22674.822713999962
 21
6306.5906789999972
 31
0.0
  0
LINE
  5
425C
  8
0-1
  6
CONTINUOUS
 62
     3
 10
20282.322054
 20
6241.5897219999961
 30
0.0
 11
22674.822713999962
 21
6241.5897219999961
 31
0.0
  0
LINE
  5
425D
  8
0-1
  6
CONTINUOUS
 62
     3
 10
20282.322054
 20
8061.5902829999986
 30
0.0
 11
22674.822713999962
 21
8061.5902829999986
 31
0.0
  0
LINE
  5
425E
  8
0-1
  6
CONTINUOUS
 62
     3
 10
20282.322054
 20
7996.5903159999989
 30
0.0
 11
22674.822713999962
 21
7996.5903159999989
 31
0.0
  0
LINE
  5
425F
  8
0-1
  6
CONTINUOUS
 62
     3
 10
20282.322054
 20
7931.5898539999944
 30
0.0
 11
22674.822713999962
 21
7931.5898539999944
 31
0.0
  0
LINE
  5
4260
  8
0-1
  6
CONTINUOUS
 62
     3
 10
20282.322054
 20
7866.5908769999969
 30
0.0
 11
22674.822713999962
 21
7866.5908769999969
 31
0.0
  0
LINE
  5
4261
  8
0-1
  6
CONTINUOUS
 62
     3
 10
20282.322054
 20
7801.5904149999978
 30
0.0
 11
22674.822713999962
 21
7801.5904149999978
 31
0.0
  0
LINE
  5
4262
  8
0-1
  6
CONTINUOUS
 62
     3
 10
20282.322054
 20
7736.5904480000008
 30
0.0
 11
22674.822713999962
 21
7736.5904480000008
 31
0.0
  0
LINE
  5
4263
  8
0-1
  6
CONTINUOUS
 62
     3
 10
20282.322054
 20
7671.589985999999
 30
0.0
 11
22674.822713999962
 21
7671.589985999999
 31
0.0
  0
LINE
  5
4264
  8
0-1
  6
CONTINUOUS
 62
     3
 10
20282.322054
 20
7606.5900189999984
 30
0.0
 11
22674.822713999962
 21
7606.5900189999984
 31
0.0
  0
LINE
  5
4265
  8
0-1
  6
CONTINUOUS
 62
     3
 10
20282.322054
 20
7541.5900519999977
 30
0.0
 11
22674.822713999962
 21
7541.5900519999977
 31
0.0
  0
LINE
  5
4266
  8
0-1
  6
CONTINUOUS
 62
     3
 10
20282.322054
 20
7476.5895899999969
 30
0.0
 11
22674.822713999962
 21
7476.5895899999969
 31
0.0
  0
LINE
  5
4267
  8
0-1
  6
CONTINUOUS
 62
     3
 10
20282.322054
 20
7411.5906129999948
 30
0.0
 11
22674.822713999962
 21
7411.5906129999948
 31
0.0
  0
LINE
  5
4268
  8
0-1
  6
CONTINUOUS
 62
     3
 10
20282.322054
 20
7346.5901509999949
 30
0.0
 11
22674.822713999962
 21
7346.5901509999949
 31
0.0
  0
LINE
  5
4269
  8
0-1
  6
CONTINUOUS
 62
     3
 10
20282.322054
 20
7281.5901839999979
 30
0.0
 11
22674.822713999962
 21
7281.5901839999979
 31
0.0
  0
LINE
  5
426A
  8
0-1
  6
CONTINUOUS
 62
     3
 10
20282.322054
 20
7216.5897219999979
 30
0.0
 11
22674.822713999962
 21
7216.5897219999979
 31
0.0
  0
LINE
  5
426B
  8
0-1
  6
CONTINUOUS
 62
     3
 10
20282.322054
 20
7151.5907450000004
 30
0.0
 11
22674.822713999962
 21
7151.5907450000004
 31
0.0
  0
LINE
  5
426C
  8
0-1
  6
CONTINUOUS
 62
     3
 10
20282.322054
 20
7086.5902829999959
 30
0.0
 11
22674.822713999962
 21
7086.5902829999959
 31
0.0
  0
LINE
  5
426D
  8
0-1
  6
CONTINUOUS
 62
     3
 10
20282.322054
 20
7021.590315999998
 30
0.0
 11
22674.822713999962
 21
7021.590315999998
 31
0.0
  0
LINE
  5
426E
  8
0-1
  6
CONTINUOUS
 62
     3
 10
20282.322054
 20
6956.5903489999973
 30
0.0
 11
22674.822713999962
 21
6956.5903489999973
 31
0.0
  0
LINE
  5
426F
  8
0-1
  6
CONTINUOUS
 62
     3
 10
20282.322054
 20
6891.5903819999958
 30
0.0
 11
22674.822713999962
 21
6891.5903819999958
 31
0.0
  0
LINE
  5
4270
  8
0-1
  6
CONTINUOUS
 62
     3
 10
20282.322054
 20
6826.5899200000003
 30
0.0
 11
22674.822713999962
 21
6826.5899200000003
 31
0.0
  0
LINE
  5
4271
  8
0-1
  6
CONTINUOUS
 62
     3
 10
20282.322054
 20
6761.5909429999983
 30
0.0
 11
22674.822713999962
 21
6761.5909429999983
 31
0.0
  0
LINE
  5
4272
  8
0-1
  6
CONTINUOUS
 62
     3
 10
20282.322054
 20
8116.049807999997
 30
0.0
 11
22674.822713999962
 21
8116.049807999997
 31
0.0
  0
LINE
  5
4278
  8
0-2
  6
CONTINUOUS
 62
     4
 10
24409.763394000001
 20
6923.8159539999951
 30
0.0
 11
24309.764053999999
 21
6923.8159539999951
 31
0.0
  0
LINE
  5
4279
  8
0-2
  6
CONTINUOUS
 62
     4
 10
23682.377413999991
 20
6923.8159539999951
 30
0.0
 11
23782.376754999979
 21
6923.8159539999951
 31
0.0
  0
LINE
  5
427A
  8
0-2
  6
CONTINUOUS
 62
     4
 10
21842.262404500008
 20
6923.8159539999951
 30
0.0
 11
21742.263064499999
 21
6923.8159539999951
 31
0.0
  0
LINE
  5
427B
  8
0-2
  6
CONTINUOUS
 62
     4
 10
21114.878403499999
 20
6923.8159539999951
 30
0.0
 11
21214.875764500001
 21
6923.8159539999951
 31
0.0
  0
LINE
  5
427C
  8
0-5
  6
CONTINUOUS
 62
     4
 10
22762.321393999991
 20
4496.5901509999949
 30
0.0
 11
22762.321393999991
 21
4336.5901179999992
 31
0.0
  0
LINE
  5
427D
  8
0-5
  6
CONTINUOUS
 62
     4
 10
20194.821393999991
 20
4496.5901509999949
 30
0.0
 11
20194.821393999991
 21
4336.5901179999992
 31
0.0
  0
LINE
  5
427E
  8
2-0
  6
CENTER2
 62
     6
 10
25329.821393999991
 20
5913.9378269999979
 30
0.0
 11
25329.821393999991
 21
6951.0798639999966
 31
0.0
  0
LINE
  5
427F
  8
2-0
  6
CENTER2
 62
     6
 10
22762.321393999991
 20
5913.9378269999979
 30
0.0
 11
22762.321393999991
 21
6951.0798639999966
 31
0.0
  0
LINE
  5
4280
  8
2-0
  6
CENTER2
 62
     6
 10
20194.821393999991
 20
5913.9378269999979
 30
0.0
 11
20194.821393999991
 21
6951.0798639999966
 31
0.0
  0
CIRCLE
  5
4291
  8
0-5
  6
CONTINUOUS
 62
     4
 10
22762.321393999991
 20
4136.5904479999972
 30
0.0
 40
199.9999949999999
  0
CIRCLE
  5
4292
  8
0-5
  6
CONTINUOUS
 62
     4
 10
20194.821393999991
 20
4136.5904479999972
 30
0.0
 40
199.9999949999999
  0
TEXT
  5
4293
  8
0-5
  6
CONTINUOUS
 62
     7
 10
19576.645455000002
 20
6905.9504967419953
 30
0.0
 40
160.0
  1
(2131.5)
 50
90.0
 72
     4
 11
19496.645455000002
 21
7359.2838300753283
 31
0.0
  0
TEXT
  5
4294
  8
0-5
  6
CONTINUOUS
 62
     7
 10
22715.392946999989
 20
4050.0604939999939
 30
0.0
 40
160.0
  1
2
 72
     4
 11
22768.726280333321
 21
4130.0604939999939
 31
0.0
  0
TEXT
  5
4295
  8
0-5
  6
CONTINUOUS
 62
     7
 10
20147.888987999992
 20
4050.0604939999939
 30
0.0
 40
160.0
  1
1
 72
     4
 11
20174.555654666648
 21
4130.0604939999939
 31
0.0
  0
CIRCLE
  5
4296
  8
0-4
  6
CONTINUOUS
 62
     4
 10
21478.571393999991
 20
6662.6461909999962
 30
0.0
 40
18.487504999999981
  0
CIRCLE
  5
4297
  8
0-4
  6
CONTINUOUS
 62
     4
 10
24046.071393999991
 20
6662.6461909999962
 30
0.0
 40
18.487504999999981
  0
LINE
  5
4298
  8
SUNPOU
  6
CONTINUOUS
 10
19912.321393999991
 20
4976.5902500000002
 30
0.0
 11
19554.366387278878
 21
4976.5902500000002
 31
0.0
  0
LINE
  5
4299
  8
SUNPOU
  6
CONTINUOUS
 10
25612.325353
 20
4976.5902500000002
 30
0.0
 11
25970.280359721091
 21
4976.5902500000002
 31
0.0
  0
LINE
  5
429A
  8
0-5
  6
CONTINUOUS
 62
     4
 10
25372.321393999991
 20
4496.5901509999949
 30
0.0
 11
25372.321393999991
 21
4336.5901179999992
 31
0.0
  0
CIRCLE
  5
429B
  8
0-5
  6
CONTINUOUS
 62
     4
 10
25372.321393999991
 20
4136.5904479999972
 30
0.0
 40
199.9999949999999
  0
TEXT
  5
429C
  8
0-5
  6
CONTINUOUS
 62
     7
 10
25325.392946999989
 20
4050.0604939999939
 30
0.0
 40
160.0
  1
3
 72
     4
 11
25378.726280333321
 21
4130.0604939999939
 31
0.0
  0
TEXT
  5
429D
  8
2-0
  6
CONTINUOUS
 62
     7
 10
21444.287649999998
 20
3299.4686180000022
 30
0.0
 40
160.0
  1
正 面 立 面 図
 50
0.000139
 72
     4
 11
22089.620789250821
 21
3379.4701835833762
 31
0.0
  0
TEXT
  5
429E
  8
2-0
  6
CONTINUOUS
 62
     7
 10
23441.11297438843
 20
3326.6655525833762
 30
0.0
 40
160.0
  1
1
 72
     4
 11
23467.779641055098
 21
3406.6655525833762
 31
0.0
  0
TEXT
  5
429F
  8
2-0
  6
CONTINUOUS
 62
     7
 10
23684.201691639129
 20
3246.6670205833748
 30
0.0
 40
160.0
  1
80
 72
     4
 11
23804.201691639129
 21
3326.6670205833748
 31
0.0
  0
TEXT
  5
42A0
  8
2-0
  6
CONTINUOUS
 62
     7
 10
22942.114940388441
 20
3299.4701835833762
 30
0.0
 40
160.0
  1
(S=  /   )
 72
     4
 11
23502.114940388441
 21
3379.4701835833762
 31
0.0
  0
LINE
  5
42A1
  8
2-0
  6
CONTINUOUS
 62
     6
 10
23646.662477999991
 20
13065.229792
 30
0.0
 11
24646.655879999958
 21
13065.229792
 31
0.0
  0
LINE
  5
42A2
  8
2-0
  6
CONTINUOUS
 62
     6
 10
25114.59625699999
 20
13535.650506
 30
0.0
 11
24646.655879999958
 21
13065.229792
 31
0.0
  0
LINE
  5
42A3
  8
2-0
  6
CONTINUOUS
 62
     6
 10
23663.373573999968
 20
18094.849857000001
 30
0.0
 11
24681.34892199999
 21
18094.849857000001
 31
0.0
  0
LINE
  5
42A4
  8
2-0
  6
CONTINUOUS
 62
     6
 10
25137.774439999968
 20
18319.564805999991
 30
0.0
 11
24681.34892199999
 21
18094.849857000001
 31
0.0
  0
LINE
  5
42A5
  8
2-0
  6
CONTINUOUS
 62
     6
 10
25075.956053999991
 20
17077.75815300001
 30
0.0
 11
24771.260635999992
 21
17181.411684000021
 31
0.0
  0
LINE
  5
42A6
  8
2-0
  6
CONTINUOUS
 62
     6
 10
25230.978092999962
 20
16588.136109000021
 30
0.0
 11
24771.260635999992
 21
16344.222798000001
 31
0.0
  0
LINE
  5
42A7
  8
2-0
  6
CONTINUOUS
 62
     6
 10
23851.25760099999
 20
16344.222798000001
 30
0.0
 11
24771.260635999992
 21
16344.222798000001
 31
0.0
  0
LINE
  5
42A8
  8
2-0
  6
CONTINUOUS
 62
     6
 10
23571.266573999979
 20
17181.411684000021
 30
0.0
 11
24771.260635999992
 21
17181.411684000021
 31
0.0
  0
LINE
  5
42A9
  8
2-0
  6
CONTINUOUS
 62
     6
 10
25147.155377999989
 20
13857.334151999979
 30
0.0
 11
24771.260635999992
 21
14038.277986999999
 31
0.0
  0
LINE
  5
42AA
  8
2-0
  6
CONTINUOUS
 62
     6
 10
23663.373573999968
 20
15177.087399
 30
0.0
 11
24681.34892199999
 21
15177.087399
 31
0.0
  0
LINE
  5
42AB
  8
2-0
  6
CONTINUOUS
 62
     6
 10
24251.258919999989
 20
14038.277986999999
 30
0.0
 11
24771.260635999992
 21
14038.277986999999
 31
0.0
  0
LINE
  5
42AC
  8
2-0
  6
CONTINUOUS
 62
     6
 10
25137.774439999968
 20
15401.800369000021
 30
0.0
 11
24681.34892199999
 21
15177.087399
 31
0.0
  0
LINE
  5
42AD
  8
2-0
  6
CONTINUOUS
 62
     4
 10
22762.321393999991
 20
20014.231442000018
 30
0.0
 11
22762.321393999991
 21
20744.228406999999
 31
0.0
  0
LINE
  5
42AE
  8
2-0
  6
CONTINUOUS
 62
     3
 10
25342.322053999971
 20
19825.228987999999
 30
0.0
 11
25342.322053999971
 21
19819.23302600002
 31
0.0
  0
LINE
  5
42AF
  8
2-0
  6
CONTINUOUS
 62
     3
 10
25342.322053999971
 20
19819.23302600002
 30
0.0
 11
25372.319677999989
 21
19819.23302600002
 31
0.0
  0
LINE
  5
42B0
  8
2-0
  6
CONTINUOUS
 62
     3
 10
25372.319677999989
 20
19849.23263000001
 30
0.0
 11
25291.317777999971
 21
19849.23263000001
 31
0.0
  0
LINE
  5
42B1
  8
2-0
  6
CONTINUOUS
 62
     3
 10
25342.322053999971
 20
19808.935570000001
 30
0.0
 11
25372.319677999989
 21
19808.935570000001
 31
0.0
  0
LINE
  5
42B2
  8
2-0
  6
CONTINUOUS
 62
     3
 10
25342.322053999971
 20
19826.93731200002
 30
0.0
 11
25342.322053999971
 21
19808.935570000001
 31
0.0
  0
LINE
  5
42B3
  8
2-0
  6
CONTINUOUS
 62
     3
 10
25367.319414000001
 20
19826.93731200002
 30
0.0
 11
25342.322053999971
 21
19826.93731200002
 31
0.0
  0
LINE
  5
42B4
  8
2-0
  6
CONTINUOUS
 62
     3
 10
25367.319414000001
 20
19821.929130000019
 30
0.0
 11
25367.319414000001
 21
19826.93731200002
 31
0.0
  0
LINE
  5
42B5
  8
2-0
  6
CONTINUOUS
 62
     3
 10
25360.317856999998
 20
19821.929130000019
 30
0.0
 11
25367.319414000001
 21
19821.929130000019
 31
0.0
  0
LINE
  5
42B6
  8
2-0
  6
CONTINUOUS
 62
     3
 10
25260.021588999989
 20
19922.229357000011
 30
0.0
 11
25260.021588999989
 21
19929.234873000001
 31
0.0
  0
LINE
  5
42B7
  8
2-0
  6
CONTINUOUS
 62
     3
 10
25260.021588999989
 20
19929.234873000001
 30
0.0
 11
25265.02185299998
 21
19929.234873000001
 31
0.0
  0
LINE
  5
42B8
  8
2-0
  6
CONTINUOUS
 62
     3
 10
25265.02185299998
 20
19929.234873000001
 30
0.0
 11
25265.02185299998
 21
19904.22563600001
 31
0.0
  0
LINE
  5
42B9
  8
2-0
  6
CONTINUOUS
 62
     3
 10
25265.02185299998
 20
19904.22563600001
 30
0.0
 11
25247.02011099998
 21
19904.22563600001
 31
0.0
  0
LINE
  5
42BA
  8
2-0
  6
CONTINUOUS
 62
     3
 10
25247.02011099998
 20
19904.22563600001
 30
0.0
 11
25247.02011099998
 21
19934.229199000009
 31
0.0
  0
LINE
  5
42BB
  8
2-0
  6
CONTINUOUS
 62
     3
 10
25257.317566999991
 20
19934.229199000009
 30
0.0
 11
25372.319677999989
 21
19934.229199000009
 31
0.0
  0
LINE
  5
42BC
  8
2-0
  6
CONTINUOUS
 62
     3
 10
25257.317566999991
 20
19904.22563600001
 30
0.0
 11
25257.317566999991
 21
19934.229199000009
 31
0.0
  0
LINE
  5
42BD
  8
2-0
  6
CONTINUOUS
 62
     3
 10
25263.31946699999
 20
19904.22563600001
 30
0.0
 11
25257.317566999991
 21
19904.22563600001
 31
0.0
  0
LINE
  5
42BE
  8
2-0
  6
CONTINUOUS
 62
     3
 10
25360.317856999998
 20
19118.132307499989
 30
0.0
 11
25367.319414000001
 21
19118.132307499989
 31
0.0
  0
LINE
  5
42BF
  8
2-0
  6
CONTINUOUS
 62
     3
 10
25367.319414000001
 20
19118.132307499989
 30
0.0
 11
25367.319414000001
 21
19123.132571499991
 31
0.0
  0
LINE
  5
42C0
  8
2-0
  6
CONTINUOUS
 62
     3
 10
25367.319414000001
 20
19123.132571499991
 30
0.0
 11
25342.322053999971
 21
19123.132571499991
 31
0.0
  0
LINE
  5
42C1
  8
2-0
  6
CONTINUOUS
 62
     3
 10
25342.322053999971
 20
19123.132571499991
 30
0.0
 11
25342.322053999971
 21
19105.1367675
 31
0.0
  0
LINE
  5
42C2
  8
2-0
  6
CONTINUOUS
 62
     3
 10
25342.322053999971
 20
19105.1367675
 30
0.0
 11
25372.319677999989
 21
19105.1367675
 31
0.0
  0
LINE
  5
42C3
  8
2-0
  6
CONTINUOUS
 62
     3
 10
25342.322053999971
 20
19121.22827449995
 30
0.0
 11
25342.322053999971
 21
19115.230333499989
 31
0.0
  0
LINE
  5
42C4
  8
2-0
  6
CONTINUOUS
 62
     3
 10
25342.322053999971
 20
19115.230333499989
 30
0.0
 11
25372.319677999989
 21
19115.230333499989
 31
0.0
  0
LINE
  5
42C5
  8
2-0
  6
CONTINUOUS
 62
     3
 10
25372.319677999989
 20
19115.230333499989
 30
0.0
 11
25372.319677999989
 21
19152.2314945
 31
0.0
  0
LINE
  5
42C6
  8
2-0
  6
CONTINUOUS
 62
     3
 10
25342.322053999971
 20
19152.2314945
 30
0.0
 11
25372.319677999989
 21
19152.2314945
 31
0.0
  0
LINE
  5
42C7
  8
2-0
  6
CONTINUOUS
 62
     3
 10
25342.322053999971
 20
19146.227614499981
 30
0.0
 11
25342.322053999971
 21
19152.2314945
 31
0.0
  0
LINE
  5
42C8
  8
2-0
  6
CONTINUOUS
 62
     3
 10
25342.322053999971
 20
19162.327039499982
 30
0.0
 11
25372.319677999989
 21
19162.327039499982
 31
0.0
  0
LINE
  5
42C9
  8
2-0
  6
CONTINUOUS
 62
     3
 10
25342.322053999971
 20
19144.3252975
 30
0.0
 11
25342.322053999971
 21
19162.327039499982
 31
0.0
  0
LINE
  5
42CA
  8
2-0
  6
CONTINUOUS
 62
     3
 10
25367.319414000001
 20
19144.3252975
 30
0.0
 11
25342.322053999971
 21
19144.3252975
 31
0.0
  0
LINE
  5
42CB
  8
2-0
  6
CONTINUOUS
 62
     3
 10
25367.319414000001
 20
19149.325561500002
 30
0.0
 11
25367.319414000001
 21
19144.3252975
 31
0.0
  0
LINE
  5
42CC
  8
2-0
  6
CONTINUOUS
 62
     3
 10
25360.317856999998
 20
19149.325561500002
 30
0.0
 11
25367.319414000001
 21
19149.325561500002
 31
0.0
  0
LINE
  5
42CD
  8
2-0
  6
CONTINUOUS
 62
     3
 10
25360.317856999998
 20
18417.131317999989
 30
0.0
 11
25367.319414000001
 21
18417.131317999989
 31
0.0
  0
LINE
  5
42CE
  8
2-0
  6
CONTINUOUS
 62
     3
 10
25367.319414000001
 20
18417.131317999989
 30
0.0
 11
25367.319414000001
 21
18422.13752
 31
0.0
  0
LINE
  5
42CF
  8
2-0
  6
CONTINUOUS
 62
     3
 10
25367.319414000001
 20
18422.13752
 30
0.0
 11
25342.322053999971
 21
18422.13752
 31
0.0
  0
LINE
  5
42D0
  8
2-0
  6
CONTINUOUS
 62
     3
 10
25342.322053999971
 20
18422.13752
 30
0.0
 11
25342.322053999971
 21
18404.135778
 31
0.0
  0
LINE
  5
42D1
  8
2-0
  6
CONTINUOUS
 62
     3
 10
25342.322053999971
 20
18404.135778
 30
0.0
 11
25372.319677999989
 21
18404.135778
 31
0.0
  0
LINE
  5
42D2
  8
2-0
  6
CONTINUOUS
 62
     3
 10
25342.322053999971
 20
18420.22728499999
 30
0.0
 11
25342.322053999971
 21
18414.231323
 31
0.0
  0
LINE
  5
42D3
  8
2-0
  6
CONTINUOUS
 62
     3
 10
25342.322053999971
 20
18414.231323
 30
0.0
 11
25372.319677999989
 21
18414.231323
 31
0.0
  0
LINE
  5
42D4
  8
2-0
  6
CONTINUOUS
 62
     3
 10
25372.319677999989
 20
18414.231323
 30
0.0
 11
25372.319677999989
 21
18451.230504999989
 31
0.0
  0
LINE
  5
42D5
  8
2-0
  6
CONTINUOUS
 62
     3
 10
25342.322053999971
 20
18451.230504999989
 30
0.0
 11
25372.319677999989
 21
18451.230504999989
 31
0.0
  0
LINE
  5
42D6
  8
2-0
  6
CONTINUOUS
 62
     3
 10
25342.322053999971
 20
18445.23454300001
 30
0.0
 11
25342.322053999971
 21
18451.230504999989
 31
0.0
  0
LINE
  5
42D7
  8
2-0
  6
CONTINUOUS
 62
     3
 10
25342.322053999971
 20
18461.32605
 30
0.0
 11
25372.319677999989
 21
18461.32605
 31
0.0
  0
LINE
  5
42D8
  8
2-0
  6
CONTINUOUS
 62
     3
 10
25342.322053999971
 20
18443.324307999988
 30
0.0
 11
25342.322053999971
 21
18461.32605
 31
0.0
  0
LINE
  5
42D9
  8
2-0
  6
CONTINUOUS
 62
     3
 10
25367.319414000001
 20
18443.324307999988
 30
0.0
 11
25342.322053999971
 21
18443.324307999988
 31
0.0
  0
LINE
  5
42DA
  8
2-0
  6
CONTINUOUS
 62
     3
 10
25367.319414000001
 20
18448.33051
 30
0.0
 11
25367.319414000001
 21
18443.324307999988
 31
0.0
  0
LINE
  5
42DB
  8
2-0
  6
CONTINUOUS
 62
     3
 10
25360.317856999998
 20
18448.33051
 30
0.0
 11
25367.319414000001
 21
18448.33051
 31
0.0
  0
LINE
  5
42DC
  8
2-0
  6
CONTINUOUS
 62
     3
 10
25360.317856999998
 20
17747.324572000001
 30
0.0
 11
25367.319414000001
 21
17747.324572000001
 31
0.0
  0
LINE
  5
42DD
  8
2-0
  6
CONTINUOUS
 62
     3
 10
25367.319414000001
 20
17747.324572000001
 30
0.0
 11
25367.319414000001
 21
17742.336185
 31
0.0
  0
LINE
  5
42DE
  8
2-0
  6
CONTINUOUS
 62
     3
 10
25367.319414000001
 20
17742.336185
 30
0.0
 11
25342.322053999971
 21
17742.336185
 31
0.0
  0
LINE
  5
42DF
  8
2-0
  6
CONTINUOUS
 62
     3
 10
25342.322053999971
 20
17742.336185
 30
0.0
 11
25342.322053999971
 21
17760.331988000002
 31
0.0
  0
LINE
  5
42E0
  8
2-0
  6
CONTINUOUS
 62
     3
 10
25342.322053999971
 20
17760.331988000002
 30
0.0
 11
25372.319677999989
 21
17760.331988000002
 31
0.0
  0
LINE
  5
42E1
  8
2-0
  6
CONTINUOUS
 62
     3
 10
25342.322053999971
 20
17744.234542999991
 30
0.0
 11
25342.322053999971
 21
17750.230504999989
 31
0.0
  0
LINE
  5
42E2
  8
2-0
  6
CONTINUOUS
 62
     3
 10
25342.322053999971
 20
17750.230504999989
 30
0.0
 11
25372.319677999989
 21
17750.230504999989
 31
0.0
  0
LINE
  5
42E3
  8
2-0
  6
CONTINUOUS
 62
     3
 10
25372.319677999989
 20
17750.230504999989
 30
0.0
 11
25372.319677999989
 21
17713.231323
 31
0.0
  0
LINE
  5
42E4
  8
2-0
  6
CONTINUOUS
 62
     3
 10
25342.322053999971
 20
17713.231323
 30
0.0
 11
25372.319677999989
 21
17713.231323
 31
0.0
  0
LINE
  5
42E5
  8
2-0
  6
CONTINUOUS
 62
     3
 10
25342.322053999971
 20
17719.233223999989
 30
0.0
 11
25342.322053999971
 21
17713.231323
 31
0.0
  0
LINE
  5
42E6
  8
2-0
  6
CONTINUOUS
 62
     3
 10
25342.322053999971
 20
17703.141716999991
 30
0.0
 11
25372.319677999989
 21
17703.141716999991
 31
0.0
  0
LINE
  5
42E7
  8
2-0
  6
CONTINUOUS
 62
     3
 10
25342.322053999971
 20
17721.13752
 30
0.0
 11
25342.322053999971
 21
17703.141716999991
 31
0.0
  0
LINE
  5
42E8
  8
2-0
  6
CONTINUOUS
 62
     3
 10
25367.319414000001
 20
17721.13752
 30
0.0
 11
25342.322053999971
 21
17721.13752
 31
0.0
  0
LINE
  5
42E9
  8
2-0
  6
CONTINUOUS
 62
     3
 10
25367.319414000001
 20
17716.137256999991
 30
0.0
 11
25367.319414000001
 21
17721.13752
 31
0.0
  0
LINE
  5
42EA
  8
2-0
  6
CONTINUOUS
 62
     3
 10
25360.317856999998
 20
17716.137256999991
 30
0.0
 11
25367.319414000001
 21
17716.137256999991
 31
0.0
  0
LINE
  5
42EB
  8
2-0
  6
CONTINUOUS
 62
     3
 10
25369.433539999991
 20
16996.228143
 30
0.0
 11
25369.433539999991
 21
17016.229198000001
 31
0.0
  0
LINE
  5
42EC
  8
2-0
  6
CONTINUOUS
 62
     3
 10
25369.433539999991
 20
17016.229198000001
 30
0.0
 11
25284.436970999988
 21
17016.229198000001
 31
0.0
  0
LINE
  5
42ED
  8
2-0
  6
CONTINUOUS
 62
     3
 10
25360.317856999998
 20
17042.835908000001
 30
0.0
 11
25367.319414000001
 21
17042.835908000001
 31
0.0
  0
LINE
  5
42EE
  8
2-0
  6
CONTINUOUS
 62
     3
 10
25367.319414000001
 20
17042.835908000001
 30
0.0
 11
25367.319414000001
 21
17037.841582000001
 31
0.0
  0
LINE
  5
42EF
  8
2-0
  6
CONTINUOUS
 62
     3
 10
25367.319414000001
 20
17037.841582000001
 30
0.0
 11
25342.322053999971
 21
17037.841582000001
 31
0.0
  0
LINE
  5
42F0
  8
2-0
  6
CONTINUOUS
 62
     3
 10
25342.322053999971
 20
17037.841582000001
 30
0.0
 11
25342.322053999971
 21
17055.83738600001
 31
0.0
  0
LINE
  5
42F1
  8
2-0
  6
CONTINUOUS
 62
     3
 10
25342.322053999971
 20
17055.83738600001
 30
0.0
 11
25372.319677999989
 21
17055.83738600001
 31
0.0
  0
LINE
  5
42F2
  8
2-0
  6
CONTINUOUS
 62
     3
 10
25342.322053999971
 20
17046.228802000001
 30
0.0
 11
25342.322053999971
 21
17040.226901999991
 31
0.0
  0
LINE
  5
42F3
  8
2-0
  6
CONTINUOUS
 62
     3
 10
25372.319677999989
 20
17046.228802000001
 30
0.0
 11
25342.322053999971
 21
17046.228802000001
 31
0.0
  0
LINE
  5
42F4
  8
2-0
  6
CONTINUOUS
 62
     3
 10
25372.319677999989
 20
17055.83738600001
 30
0.0
 11
25372.319677999989
 21
17703.141716999991
 31
0.0
  0
LINE
  5
42F5
  8
2-0
  6
CONTINUOUS
 62
     3
 10
25372.319677999989
 20
17760.331988000002
 30
0.0
 11
25372.319677999989
 21
18404.135778
 31
0.0
  0
LINE
  5
42F6
  8
2-0
  6
CONTINUOUS
 62
     3
 10
25372.319677999989
 20
16901.22708700001
 30
0.0
 11
25342.322053999971
 21
16901.22708700001
 31
0.0
  0
LINE
  5
42F7
  8
2-0
  6
CONTINUOUS
 62
     3
 10
25342.322053999971
 20
16901.22708700001
 30
0.0
 11
25342.322053999971
 21
16907.22898700001
 31
0.0
  0
LINE
  5
42F8
  8
2-0
  6
CONTINUOUS
 62
     3
 10
25284.436970999988
 20
16931.232629999991
 30
0.0
 11
25369.433539999991
 21
16931.232629999991
 31
0.0
  0
LINE
  5
42F9
  8
2-0
  6
CONTINUOUS
 62
     3
 10
25369.433539999991
 20
16931.232629999991
 30
0.0
 11
25369.433539999991
 21
16951.227747000012
 31
0.0
  0
LINE
  5
42FA
  8
2-0
  6
CONTINUOUS
 62
     3
 10
25342.322053999971
 20
16891.618503999998
 30
0.0
 11
25372.319677999989
 21
16891.618503999998
 31
0.0
  0
LINE
  5
42FB
  8
2-0
  6
CONTINUOUS
 62
     3
 10
25342.322053999971
 20
16909.614306999982
 30
0.0
 11
25342.322053999971
 21
16891.618503999998
 31
0.0
  0
LINE
  5
42FC
  8
2-0
  6
CONTINUOUS
 62
     3
 10
25367.319414000001
 20
16909.614306999982
 30
0.0
 11
25342.322053999971
 21
16909.614306999982
 31
0.0
  0
LINE
  5
42FD
  8
2-0
  6
CONTINUOUS
 62
     3
 10
25367.319414000001
 20
16904.614043000009
 30
0.0
 11
25367.319414000001
 21
16909.614306999982
 31
0.0
  0
LINE
  5
42FE
  8
2-0
  6
CONTINUOUS
 62
     3
 10
25360.317856999998
 20
16904.614043000009
 30
0.0
 11
25367.319414000001
 21
16904.614043000009
 31
0.0
  0
LINE
  5
42FF
  8
2-0
  6
CONTINUOUS
 62
     3
 10
25360.317856999998
 20
16200.131812499991
 30
0.0
 11
25367.319414000001
 21
16200.131812499991
 31
0.0
  0
LINE
  5
4300
  8
2-0
  6
CONTINUOUS
 62
     3
 10
25367.319414000001
 20
16200.131812499991
 30
0.0
 11
25367.319414000001
 21
16205.13207649998
 31
0.0
  0
LINE
  5
4301
  8
2-0
  6
CONTINUOUS
 62
     3
 10
25367.319414000001
 20
16205.13207649998
 30
0.0
 11
25342.322053999971
 21
16205.13207649998
 31
0.0
  0
LINE
  5
4302
  8
2-0
  6
CONTINUOUS
 62
     3
 10
25342.322053999971
 20
16205.13207649998
 30
0.0
 11
25342.322053999971
 21
16187.130334499991
 31
0.0
  0
LINE
  5
4303
  8
2-0
  6
CONTINUOUS
 62
     3
 10
25342.322053999971
 20
16187.130334499991
 30
0.0
 11
25372.319677999989
 21
16187.130334499991
 31
0.0
  0
LINE
  5
4304
  8
2-0
  6
CONTINUOUS
 62
     3
 10
25342.322053999971
 20
16203.227779500001
 30
0.0
 11
25342.322053999971
 21
16197.2308285
 31
0.0
  0
LINE
  5
4305
  8
2-0
  6
CONTINUOUS
 62
     3
 10
25342.322053999971
 20
16197.2308285
 30
0.0
 11
25372.319677999989
 21
16197.2308285
 31
0.0
  0
LINE
  5
4306
  8
2-0
  6
CONTINUOUS
 62
     3
 10
25372.319677999989
 20
16197.2308285
 30
0.0
 11
25372.319677999989
 21
16234.2309995
 31
0.0
  0
LINE
  5
4307
  8
2-0
  6
CONTINUOUS
 62
     3
 10
25342.322053999971
 20
16234.2309995
 30
0.0
 11
25372.319677999989
 21
16234.2309995
 31
0.0
  0
LINE
  5
4308
  8
2-0
  6
CONTINUOUS
 62
     3
 10
25342.322053999971
 20
16228.228109499991
 30
0.0
 11
25342.322053999971
 21
16234.2309995
 31
0.0
  0
LINE
  5
4309
  8
2-0
  6
CONTINUOUS
 62
     3
 10
25342.322053999971
 20
16244.3265445
 30
0.0
 11
25372.319677999989
 21
16244.3265445
 31
0.0
  0
LINE
  5
430A
  8
2-0
  6
CONTINUOUS
 62
     3
 10
25342.322053999971
 20
16226.318863500001
 30
0.0
 11
25342.322053999971
 21
16244.3265445
 31
0.0
  0
LINE
  5
430B
  8
2-0
  6
CONTINUOUS
 62
     3
 10
25367.319414000001
 20
16226.318863500001
 30
0.0
 11
25342.322053999971
 21
16226.318863500001
 31
0.0
  0
LINE
  5
430C
  8
2-0
  6
CONTINUOUS
 62
     3
 10
25367.319414000001
 20
16231.3250665
 30
0.0
 11
25367.319414000001
 21
16226.318863500001
 31
0.0
  0
LINE
  5
430D
  8
2-0
  6
CONTINUOUS
 62
     3
 10
25360.317856999998
 20
16231.3250665
 30
0.0
 11
25367.319414000001
 21
16231.3250665
 31
0.0
  0
LINE
  5
430E
  8
2-0
  6
CONTINUOUS
 62
     3
 10
25360.317856999998
 20
15530.565083
 30
0.0
 11
25367.319414000001
 21
15530.565083
 31
0.0
  0
LINE
  5
430F
  8
2-0
  6
CONTINUOUS
 62
     3
 10
25367.319414000001
 20
15530.565083
 30
0.0
 11
25367.319414000001
 21
15525.570758000011
 31
0.0
  0
LINE
  5
4310
  8
2-0
  6
CONTINUOUS
 62
     3
 10
25367.319414000001
 20
15525.570758000011
 30
0.0
 11
25342.322053999971
 21
15525.570758000011
 31
0.0
  0
LINE
  5
4311
  8
2-0
  6
CONTINUOUS
 62
     3
 10
25342.322053999971
 20
15525.570758000011
 30
0.0
 11
25342.322053999971
 21
15543.566561000011
 31
0.0
  0
LINE
  5
4312
  8
2-0
  6
CONTINUOUS
 62
     3
 10
25342.322053999971
 20
15543.566561000011
 30
0.0
 11
25372.319677999989
 21
15543.566561000011
 31
0.0
  0
LINE
  5
4313
  8
2-0
  6
CONTINUOUS
 62
     3
 10
25342.322053999971
 20
15527.469116
 30
0.0
 11
25342.322053999971
 21
15533.47101600001
 31
0.0
  0
LINE
  5
4314
  8
2-0
  6
CONTINUOUS
 62
     3
 10
25342.322053999971
 20
15533.47101600001
 30
0.0
 11
25372.319677999989
 21
15533.47101600001
 31
0.0
  0
LINE
  5
4315
  8
2-0
  6
CONTINUOUS
 62
     3
 10
25372.319677999989
 20
15496.471835
 30
0.0
 11
25372.319677999989
 21
15533.47101600001
 31
0.0
  0
LINE
  5
4316
  8
2-0
  6
CONTINUOUS
 62
     3
 10
25342.322053999971
 20
15496.471835
 30
0.0
 11
25372.319677999989
 21
15496.471835
 31
0.0
  0
LINE
  5
4317
  8
2-0
  6
CONTINUOUS
 62
     3
 10
25342.322053999971
 20
15502.46878600001
 30
0.0
 11
25342.322053999971
 21
15496.471835
 31
0.0
  0
LINE
  5
4318
  8
2-0
  6
CONTINUOUS
 62
     3
 10
25342.322053999971
 20
15486.370351
 30
0.0
 11
25372.319677999989
 21
15486.370351
 31
0.0
  0
LINE
  5
4319
  8
2-0
  6
CONTINUOUS
 62
     3
 10
25342.322053999971
 20
15504.378032000001
 30
0.0
 11
25342.322053999971
 21
15486.370351
 31
0.0
  0
LINE
  5
431A
  8
2-0
  6
CONTINUOUS
 62
     3
 10
25367.319414000001
 20
15504.378032000001
 30
0.0
 11
25342.322053999971
 21
15504.378032000001
 31
0.0
  0
LINE
  5
431B
  8
2-0
  6
CONTINUOUS
 62
     3
 10
25367.319414000001
 20
15499.377768000009
 30
0.0
 11
25367.319414000001
 21
15504.378032000001
 31
0.0
  0
LINE
  5
431C
  8
2-0
  6
CONTINUOUS
 62
     3
 10
25360.317856999998
 20
15499.377768000009
 30
0.0
 11
25367.319414000001
 21
15499.377768000009
 31
0.0
  0
LINE
  5
431D
  8
2-0
  6
CONTINUOUS
 62
     3
 10
25372.319677999989
 20
16891.618503999998
 30
0.0
 11
25372.319677999989
 21
16244.3265445
 31
0.0
  0
LINE
  5
431E
  8
2-0
  6
CONTINUOUS
 62
     3
 10
25372.319677999989
 20
17046.228802000001
 30
0.0
 11
25372.319677999989
 21
16901.22708700001
 31
0.0
  0
LINE
  5
431F
  8
2-0
  6
CONTINUOUS
 62
     3
 10
25284.436970999988
 20
17016.229198000001
 30
0.0
 11
25284.436970999988
 21
16931.232629999991
 31
0.0
  0
LINE
  5
4320
  8
2-0
  6
CONTINUOUS
 62
     6
 10
23746.228303999971
 20
18784.676463499982
 30
0.0
 11
24771.260635999992
 21
18784.676463499982
 31
0.0
  0
LINE
  5
4321
  8
2-0
  6
CONTINUOUS
 62
     3
 10
25360.317856999998
 20
14798.136761
 30
0.0
 11
25367.319414000001
 21
14798.136761
 31
0.0
  0
LINE
  5
4322
  8
2-0
  6
CONTINUOUS
 62
     3
 10
25367.319414000001
 20
14798.136761
 30
0.0
 11
25367.319414000001
 21
14803.131087
 31
0.0
  0
LINE
  5
4323
  8
2-0
  6
CONTINUOUS
 62
     3
 10
25367.319414000001
 20
14803.131087
 30
0.0
 11
25342.322053999971
 21
14803.131087
 31
0.0
  0
LINE
  5
4324
  8
2-0
  6
CONTINUOUS
 62
     3
 10
25342.322053999971
 20
14803.131087
 30
0.0
 11
25342.322053999971
 21
14785.135283
 31
0.0
  0
LINE
  5
4325
  8
2-0
  6
CONTINUOUS
 62
     3
 10
25342.322053999971
 20
14785.135283
 30
0.0
 11
25372.319677999989
 21
14785.135283
 31
0.0
  0
LINE
  5
4326
  8
2-0
  6
CONTINUOUS
 62
     3
 10
25342.322053999971
 20
14801.23371800001
 30
0.0
 11
25342.322053999971
 21
14795.230828000011
 31
0.0
  0
LINE
  5
4327
  8
2-0
  6
CONTINUOUS
 62
     3
 10
25342.322053999971
 20
14795.230828000011
 30
0.0
 11
25372.319677999989
 21
14795.230828000011
 31
0.0
  0
LINE
  5
4328
  8
2-0
  6
CONTINUOUS
 62
     3
 10
25372.319677999989
 20
14795.230828000011
 30
0.0
 11
25372.319677999989
 21
14832.230999999991
 31
0.0
  0
LINE
  5
4329
  8
2-0
  6
CONTINUOUS
 62
     3
 10
25342.322053999971
 20
14832.230999999991
 30
0.0
 11
25372.319677999989
 21
14832.230999999991
 31
0.0
  0
LINE
  5
432A
  8
2-0
  6
CONTINUOUS
 62
     3
 10
25342.322053999971
 20
14826.23404799998
 30
0.0
 11
25342.322053999971
 21
14832.230999999991
 31
0.0
  0
LINE
  5
432B
  8
2-0
  6
CONTINUOUS
 62
     3
 10
25342.322053999971
 20
14842.331493000011
 30
0.0
 11
25372.319677999989
 21
14842.331493000011
 31
0.0
  0
LINE
  5
432C
  8
2-0
  6
CONTINUOUS
 62
     3
 10
25342.322053999971
 20
14824.32480200001
 30
0.0
 11
25342.322053999971
 21
14842.331493000011
 31
0.0
  0
LINE
  5
432D
  8
2-0
  6
CONTINUOUS
 62
     3
 10
25367.319414000001
 20
14824.32480200001
 30
0.0
 11
25342.322053999971
 21
14824.32480200001
 31
0.0
  0
LINE
  5
432E
  8
2-0
  6
CONTINUOUS
 62
     3
 10
25367.319414000001
 20
14829.33001500001
 30
0.0
 11
25367.319414000001
 21
14824.32480200001
 31
0.0
  0
LINE
  5
432F
  8
2-0
  6
CONTINUOUS
 62
     3
 10
25360.317856999998
 20
14829.33001500001
 30
0.0
 11
25367.319414000001
 21
14829.33001500001
 31
0.0
  0
LINE
  5
4330
  8
2-0
  6
CONTINUOUS
 62
     3
 10
25342.322053999971
 20
13771.73284099999
 30
0.0
 11
25342.322053999971
 21
13777.73770999999
 31
0.0
  0
LINE
  5
4331
  8
2-0
  6
CONTINUOUS
 62
     3
 10
25342.322053999971
 20
13777.73770999999
 30
0.0
 11
25372.319677999989
 21
13777.73770999999
 31
0.0
  0
LINE
  5
4332
  8
2-0
  6
CONTINUOUS
 62
     3
 10
25372.319677999989
 20
13777.73770999999
 30
0.0
 11
25372.319677999989
 21
13662.733619000001
 31
0.0
  0
LINE
  5
4333
  8
2-0
  6
CONTINUOUS
 62
     3
 10
25372.319677999989
 20
13662.733619000001
 30
0.0
 11
25287.321129999978
 21
13662.733619000001
 31
0.0
  0
LINE
  5
4334
  8
2-0
  6
CONTINUOUS
 62
     3
 10
25287.321129999978
 20
13662.733619000001
 30
0.0
 11
25287.321129999978
 21
13747.729198000001
 31
0.0
  0
LINE
  5
4335
  8
2-0
  6
CONTINUOUS
 62
     3
 10
25287.321129999978
 20
13747.729198000001
 30
0.0
 11
25319.32004799999
 21
13747.729198000001
 31
0.0
  0
LINE
  5
4336
  8
2-0
  6
CONTINUOUS
 62
     3
 10
25360.317856999998
 20
13774.767443000001
 30
0.0
 11
25367.319414000001
 21
13774.767443000001
 31
0.0
  0
LINE
  5
4337
  8
2-0
  6
CONTINUOUS
 62
     3
 10
25367.319414000001
 20
13774.767443000001
 30
0.0
 11
25367.319414000001
 21
13769.77014799998
 31
0.0
  0
LINE
  5
4338
  8
2-0
  6
CONTINUOUS
 62
     3
 10
25367.319414000001
 20
13769.77014799998
 30
0.0
 11
25342.322053999971
 21
13769.77014799998
 31
0.0
  0
LINE
  5
4339
  8
2-0
  6
CONTINUOUS
 62
     3
 10
25342.322053999971
 20
13769.77014799998
 30
0.0
 11
25342.322053999971
 21
13787.768921000001
 31
0.0
  0
LINE
  5
433A
  8
2-0
  6
CONTINUOUS
 62
     3
 10
25342.322053999971
 20
13787.768921000001
 30
0.0
 11
25372.319677999989
 21
13787.768921000001
 31
0.0
  0
LINE
  5
433B
  8
2-0
  6
CENTER2
 62
     6
 10
25329.821393999991
 20
13465.236060999991
 30
0.0
 11
25329.821393999991
 21
14971.60481900002
 31
0.0
  0
LINE
  5
433C
  8
2-0
  6
CONTINUOUS
 62
     3
 10
25372.319677999989
 20
18461.32605
 30
0.0
 11
25372.319677999989
 21
19105.1367675
 31
0.0
  0
LINE
  5
433D
  8
2-0
  6
CONTINUOUS
 62
     6
 10
26064.82456099999
 20
20664.232102000031
 30
0.0
 11
27264.81862299997
 21
20664.232102000031
 31
0.0
  0
LINE
  5
433E
  8
2-0
  6
CONTINUOUS
 62
     3
 10
22834.823241999991
 20
19934.229199000009
 30
0.0
 11
22834.823241999991
 21
19904.22563600001
 31
0.0
  0
LINE
  5
433F
  8
2-0
  6
CONTINUOUS
 62
     3
 10
22834.823241999991
 20
19904.22563600001
 30
0.0
 11
22828.82529999996
 21
19904.22563600001
 31
0.0
  0
LINE
  5
4340
  8
2-0
  6
CONTINUOUS
 62
     3
 10
22844.439742999992
 20
19904.22563600001
 30
0.0
 11
22844.439742999992
 21
19934.229199000009
 31
0.0
  0
LINE
  5
4341
  8
2-0
  6
CONTINUOUS
 62
     3
 10
22826.438000999991
 20
19904.22563600001
 30
0.0
 11
22844.439742999992
 21
19904.22563600001
 31
0.0
  0
LINE
  5
4342
  8
2-0
  6
CONTINUOUS
 62
     3
 10
22826.438000999991
 20
19929.234873000001
 30
0.0
 11
22826.438000999991
 21
19904.22563600001
 31
0.0
  0
LINE
  5
4343
  8
2-0
  6
CONTINUOUS
 62
     3
 10
22831.438265000001
 20
19929.234873000001
 30
0.0
 11
22826.438000999991
 21
19929.234873000001
 31
0.0
  0
LINE
  5
4344
  8
2-0
  6
CONTINUOUS
 62
     3
 10
22831.438265000001
 20
19922.229357000011
 30
0.0
 11
22831.438265000001
 21
19929.234873000001
 31
0.0
  0
LINE
  5
4345
  8
2-0
  6
CONTINUOUS
 62
     3
 10
22804.821658000001
 20
19931.337122000001
 30
0.0
 11
22804.821658000001
 21
19846.338574000009
 31
0.0
  0
LINE
  5
4346
  8
2-0
  6
CONTINUOUS
 62
     3
 10
22784.824561000001
 20
19931.337122000001
 30
0.0
 11
22804.821658000001
 21
19931.337122000001
 31
0.0
  0
LINE
  5
4347
  8
2-0
  6
CONTINUOUS
 62
     3
 10
22693.210461999988
 20
19922.229357000011
 30
0.0
 11
22693.210461999988
 21
19929.234873000001
 31
0.0
  0
LINE
  5
4348
  8
2-0
  6
CONTINUOUS
 62
     3
 10
22693.210461999988
 20
19929.234873000001
 30
0.0
 11
22698.21072599999
 21
19929.234873000001
 31
0.0
  0
LINE
  5
4349
  8
2-0
  6
CONTINUOUS
 62
     3
 10
22698.21072599999
 20
19929.234873000001
 30
0.0
 11
22698.21072599999
 21
19904.22563600001
 31
0.0
  0
LINE
  5
434A
  8
2-0
  6
CONTINUOUS
 62
     3
 10
22698.21072599999
 20
19904.22563600001
 30
0.0
 11
22680.20898399999
 21
19904.22563600001
 31
0.0
  0
LINE
  5
434B
  8
2-0
  6
CONTINUOUS
 62
     3
 10
22680.20898399999
 20
19904.22563600001
 30
0.0
 11
22680.20898399999
 21
19934.229199000009
 31
0.0
  0
LINE
  5
434C
  8
2-0
  6
CONTINUOUS
 62
     3
 10
22719.829047999981
 20
19931.337122000001
 30
0.0
 11
22739.824165000002
 21
19931.337122000001
 31
0.0
  0
LINE
  5
434D
  8
2-0
  6
CONTINUOUS
 62
     3
 10
22719.829047999981
 20
19846.338574000009
 30
0.0
 11
22719.829047999981
 21
19931.337122000001
 31
0.0
  0
LINE
  5
434E
  8
2-0
  6
CONTINUOUS
 62
     3
 10
22689.831424000011
 20
19904.22563600001
 30
0.0
 11
22695.82738499999
 21
19904.22563600001
 31
0.0
  0
LINE
  5
434F
  8
2-0
  6
CONTINUOUS
 62
     3
 10
22689.831424000011
 20
19934.229199000009
 30
0.0
 11
22689.831424000011
 21
19904.22563600001
 31
0.0
  0
LINE
  5
4350
  8
2-0
  6
CONTINUOUS
 62
     3
 10
22804.821658000001
 20
19846.338574000009
 30
0.0
 11
22719.829047999981
 21
19846.338574000009
 31
0.0
  0
LINE
  5
4351
  8
2-0
  6
CONTINUOUS
 62
     3
 10
22834.823241999991
 20
19934.229199000009
 30
0.0
 11
22689.831424000011
 21
19934.229199000009
 31
0.0
  0
LINE
  5
4352
  8
2-0
  6
CONTINUOUS
 62
     6
 10
25202.791727999971
 20
19026.830971499989
 30
0.0
 11
24771.260635999992
 21
18784.676463499982
 31
0.0
  0
LINE
  5
4353
  8
2-0
  6
CONTINUOUS
 62
     6
 10
25524.360561999962
 20
20076.908939000012
 30
0.0
 11
26064.82456099999
 21
20664.232102000031
 31
0.0
  0
LINE
  5
4354
  8
2-0
  6
CONTINUOUS
 62
     6
 10
22804.821658000001
 20
13747.729198000001
 30
0.0
 11
23081.411870999989
 21
14203.073898000001
 31
0.0
  0
LINE
  5
4355
  8
2-0
  6
CONTINUOUS
 62
     6
 10
23081.411870999989
 20
14203.073898000001
 30
0.0
 11
24111.761189999979
 21
14203.073898000001
 31
0.0
  0
LINE
  5
4356
  8
2-0
  6
CONTINUOUS
 62
     3
 10
25281.315270999981
 20
18390.22965999999
 30
0.0
 11
25328.32091899998
 21
18390.22965999999
 31
0.0
  0
LINE
  5
4357
  8
2-0
  6
CONTINUOUS
 62
     3
 10
25328.32091899998
 20
18475.230188000001
 30
0.0
 11
25281.315270999981
 21
18475.230188000001
 31
0.0
  0
LINE
  5
4358
  8
2-0
  6
CONTINUOUS
 62
     3
 10
25328.32091899998
 20
18390.22965999999
 30
0.0
 11
25328.32091899998
 21
18415.232959000001
 31
0.0
  0
LINE
  5
4359
  8
2-0
  6
CONTINUOUS
 62
     3
 10
25328.32091899998
 20
18450.228867999991
 30
0.0
 11
25328.32091899998
 21
18475.230188000001
 31
0.0
  0
LINE
  5
435A
  8
2-0
  6
CONTINUOUS
 62
     3
 10
25281.315270999981
 20
18475.230188000001
 30
0.0
 11
25281.315270999981
 21
18390.22965999999
 31
0.0
  0
LINE
  5
435B
  8
2-0
  6
CONTINUOUS
 62
     3
 10
25372.319677999989
 20
16187.130334499991
 30
0.0
 11
25372.319677999989
 21
15543.566561000011
 31
0.0
  0
LINE
  5
435C
  8
2-0
  6
CONTINUOUS
 62
     3
 10
25281.315270999981
 20
15472.23263000001
 30
0.0
 11
25328.32091899998
 21
15472.23263000001
 31
0.0
  0
LINE
  5
435D
  8
2-0
  6
CONTINUOUS
 62
     3
 10
25328.32091899998
 20
15557.22919799999
 30
0.0
 11
25281.315270999981
 21
15557.22919799999
 31
0.0
  0
LINE
  5
435E
  8
2-0
  6
CONTINUOUS
 62
     3
 10
25328.32091899998
 20
15472.23263000001
 30
0.0
 11
25328.32091899998
 21
15497.22801100001
 31
0.0
  0
LINE
  5
435F
  8
2-0
  6
CONTINUOUS
 62
     3
 10
25328.32091899998
 20
15532.227879
 30
0.0
 11
25328.32091899998
 21
15557.22919799999
 31
0.0
  0
LINE
  5
4360
  8
2-0
  6
CONTINUOUS
 62
     3
 10
25281.315270999981
 20
15557.22919799999
 30
0.0
 11
25281.315270999981
 21
15472.23263000001
 31
0.0
  0
LINE
  5
4361
  8
2-0
  6
CONTINUOUS
 62
     6
 10
22865.099977999998
 20
13898.325032999979
 30
0.0
 11
22804.821658000001
 21
13747.729198000001
 31
0.0
  0
LINE
  5
4362
  8
2-0
  6
CONTINUOUS
 62
     6
 10
22804.821658000001
 20
13747.729198000001
 30
0.0
 11
22910.680372999959
 21
13870.637506999999
 31
0.0
  0
LINE
  5
4363
  8
2-0
  6
CONTINUOUS
 62
     6
 10
22865.099977999998
 20
13898.325032999979
 30
0.0
 11
22910.680372999959
 21
13870.637506999999
 31
0.0
  0
LINE
  5
4364
  8
2-0
  6
CONTINUOUS
 62
     6
 10
22910.680372999959
 20
13870.637506999999
 30
0.0
 11
22804.821658000001
 21
13747.729198000001
 31
0.0
  0
LINE
  5
4365
  8
2-0
  6
CONTINUOUS
 62
     6
 10
22804.821658000001
 20
13747.729198000001
 30
0.0
 11
22865.099977999998
 21
13898.325032999979
 31
0.0
  0
LINE
  5
4366
  8
2-0
  6
CONTINUOUS
 62
     6
 10
22865.099977999998
 20
13898.325032999979
 30
0.0
 11
22804.821658000001
 21
13747.729198000001
 31
0.0
  0
LINE
  5
4367
  8
2-0
  6
CONTINUOUS
 62
     6
 10
22910.680372999959
 20
13870.637506999999
 30
0.0
 11
22804.821658000001
 21
13747.729198000001
 31
0.0
  0
LINE
  5
4368
  8
2-0
  6
CONTINUOUS
 62
     6
 10
22910.680372999959
 20
13870.637506999999
 30
0.0
 11
22865.099977999998
 21
13898.325032999979
 31
0.0
  0
LINE
  5
4369
  8
2-0
  6
CONTINUOUS
 62
     6
 10
25189.734822999992
 20
19050.090315500001
 30
0.0
 11
25342.322053999971
 21
19105.1367675
 31
0.0
  0
LINE
  5
436A
  8
2-0
  6
CONTINUOUS
 62
     6
 10
25342.322053999971
 20
19105.1367675
 30
0.0
 11
25215.840713999991
 21
19003.57756749999
 31
0.0
  0
LINE
  5
436B
  8
2-0
  6
CONTINUOUS
 62
     6
 10
25189.734822999992
 20
19050.090315500001
 30
0.0
 11
25215.840713999991
 21
19003.57756749999
 31
0.0
  0
LINE
  5
436C
  8
2-0
  6
CONTINUOUS
 62
     6
 10
25215.840713999991
 20
19003.57756749999
 30
0.0
 11
25342.322053999971
 21
19105.1367675
 31
0.0
  0
LINE
  5
436D
  8
2-0
  6
CONTINUOUS
 62
     6
 10
25342.322053999971
 20
19105.1367675
 30
0.0
 11
25189.734822999992
 21
19050.090315500001
 31
0.0
  0
LINE
  5
436E
  8
2-0
  6
CONTINUOUS
 62
     6
 10
25189.734822999992
 20
19050.090315500001
 30
0.0
 11
25342.322053999971
 21
19105.1367675
 31
0.0
  0
LINE
  5
436F
  8
2-0
  6
CONTINUOUS
 62
     6
 10
25215.840713999991
 20
19003.57756749999
 30
0.0
 11
25342.322053999971
 21
19105.1367675
 31
0.0
  0
LINE
  5
4370
  8
2-0
  6
CONTINUOUS
 62
     6
 10
25215.840713999991
 20
19003.57756749999
 30
0.0
 11
25189.734822999992
 21
19050.090315500001
 31
0.0
  0
LINE
  5
4371
  8
2-0
  6
CONTINUOUS
 62
     6
 10
25543.977590999992
 20
20058.847812000022
 30
0.0
 11
25416.015570999989
 21
19959.165194000008
 31
0.0
  0
LINE
  5
4372
  8
2-0
  6
CONTINUOUS
 62
     6
 10
25416.015570999989
 20
19959.165194000008
 30
0.0
 11
25504.729675999992
 21
20094.962149000021
 31
0.0
  0
LINE
  5
4373
  8
2-0
  6
CONTINUOUS
 62
     6
 10
25543.977590999992
 20
20058.847812000022
 30
0.0
 11
25504.729675999992
 21
20094.962149000021
 31
0.0
  0
LINE
  5
4374
  8
2-0
  6
CONTINUOUS
 62
     6
 10
25504.729675999992
 20
20094.962149000021
 30
0.0
 11
25416.015570999989
 21
19959.165194000008
 31
0.0
  0
LINE
  5
4375
  8
2-0
  6
CONTINUOUS
 62
     6
 10
25416.015570999989
 20
19959.165194000008
 30
0.0
 11
25543.977590999992
 21
20058.847812000022
 31
0.0
  0
LINE
  5
4376
  8
2-0
  6
CONTINUOUS
 62
     6
 10
25543.977590999992
 20
20058.847812000022
 30
0.0
 11
25416.015570999989
 21
19959.165194000008
 31
0.0
  0
LINE
  5
4377
  8
2-0
  6
CONTINUOUS
 62
     6
 10
25504.729675999992
 20
20094.962149000021
 30
0.0
 11
25416.015570999989
 21
19959.165194000008
 31
0.0
  0
LINE
  5
4378
  8
2-0
  6
CONTINUOUS
 62
     6
 10
25504.729675999992
 20
20094.962149000021
 30
0.0
 11
25543.977590999992
 21
20058.847812000022
 31
0.0
  0
LINE
  5
4379
  8
2-0
  6
CONTINUOUS
 62
     6
 10
21386.25707299999
 20
19686.45681700002
 30
0.0
 11
21518.190006000012
 21
19217.110981999998
 31
0.0
  0
LINE
  5
437A
  8
2-0
  6
CONTINUOUS
 62
     6
 10
21518.190006000012
 20
19217.110981999998
 30
0.0
 11
22543.228276999991
 21
19217.110981999998
 31
0.0
  0
LINE
  5
437B
  8
2-0
  6
CONTINUOUS
 62
     6
 10
21342.963022
 20
19840.485137000011
 30
0.0
 11
21360.584696000002
 21
19679.239492000019
 31
0.0
  0
LINE
  5
437C
  8
2-0
  6
CONTINUOUS
 62
     6
 10
21411.929448999999
 20
19693.67810100002
 30
0.0
 11
21360.584696000002
 21
19679.239492000019
 31
0.0
  0
LINE
  5
437D
  8
2-0
  6
CONTINUOUS
 62
     6
 10
21360.584696000002
 20
19679.239492000019
 30
0.0
 11
21342.963022
 21
19840.485137000011
 31
0.0
  0
LINE
  5
437E
  8
2-0
  6
CONTINUOUS
 62
     6
 10
21342.963022
 20
19840.485137000011
 30
0.0
 11
21411.929448999999
 21
19693.67810100002
 31
0.0
  0
LINE
  5
437F
  8
2-0
  6
CONTINUOUS
 62
     6
 10
21411.929448999999
 20
19693.67810100002
 30
0.0
 11
21342.963022
 21
19840.485137000011
 31
0.0
  0
LINE
  5
4380
  8
2-0
  6
CONTINUOUS
 62
     6
 10
21360.584696000002
 20
19679.239492000019
 30
0.0
 11
21342.963022
 21
19840.485137000011
 31
0.0
  0
LINE
  5
4381
  8
2-0
  6
CONTINUOUS
 62
     6
 10
21360.584696000002
 20
19679.239492000019
 30
0.0
 11
21411.929448999999
 21
19693.67810100002
 31
0.0
  0
LINE
  5
4382
  8
2-0
  6
CONTINUOUS
 62
     6
 10
22803.7448
 20
19815.47787900002
 30
0.0
 11
22952.614495000002
 21
19285.855703000001
 31
0.0
  0
LINE
  5
4383
  8
2-0
  6
CONTINUOUS
 62
     6
 10
22952.614495000002
 20
19285.855703000001
 30
0.0
 11
23977.65870399999
 21
19285.855703000001
 31
0.0
  0
LINE
  5
4384
  8
2-0
  6
CONTINUOUS
 62
     6
 10
22821.36845399997
 20
19654.23223400001
 30
0.0
 11
22872.719144999999
 21
19668.66688400002
 31
0.0
  0
LINE
  5
4385
  8
2-0
  6
CONTINUOUS
 62
     6
 10
22872.719144999999
 20
19668.66688400002
 30
0.0
 11
22821.36845399997
 21
19654.23223400001
 31
0.0
  0
LINE
  5
4386
  8
2-0
  6
CONTINUOUS
 62
     6
 10
22821.36845399997
 20
19654.23223400001
 30
0.0
 11
22803.7448
 21
19815.47787900002
 31
0.0
  0
LINE
  5
4387
  8
2-0
  6
CONTINUOUS
 62
     6
 10
22803.7448
 20
19815.47787900002
 30
0.0
 11
22872.719144999999
 21
19668.66688400002
 31
0.0
  0
LINE
  5
4388
  8
2-0
  6
CONTINUOUS
 62
     6
 10
22872.719144999999
 20
19668.66688400002
 30
0.0
 11
22803.7448
 21
19815.47787900002
 31
0.0
  0
LINE
  5
4389
  8
2-0
  6
CONTINUOUS
 62
     6
 10
22821.36845399997
 20
19654.23223400001
 30
0.0
 11
22803.7448
 21
19815.47787900002
 31
0.0
  0
LINE
  5
438A
  8
2-0
  6
CONTINUOUS
 62
     6
 10
22872.719144999999
 20
19668.66688400002
 30
0.0
 11
22803.7448
 21
19815.47787900002
 31
0.0
  0
LINE
  5
438B
  8
2-0
  6
CONTINUOUS
 62
     6
 10
22803.7448
 20
19815.47787900002
 30
0.0
 11
22821.36845399997
 21
19654.23223400001
 31
0.0
  0
LINE
  5
438C
  8
2-0
  6
CONTINUOUS
 62
     4
 10
22762.321393999991
 20
20014.231442000018
 30
0.0
 11
22762.321393999991
 21
20744.228406999999
 31
0.0
  0
LINE
  5
438D
  8
2-0
  6
CONTINUOUS
 62
     6
 10
25125.996303999971
 20
15425.725820000011
 30
0.0
 11
25281.315270999981
 21
15472.473141
 31
0.0
  0
LINE
  5
438E
  8
2-0
  6
CONTINUOUS
 62
     6
 10
25281.315270999981
 20
15472.473141
 30
0.0
 11
25149.554554999981
 21
15377.880856000011
 31
0.0
  0
LINE
  5
438F
  8
2-0
  6
CONTINUOUS
 62
     6
 10
25125.996303999971
 20
15425.725820000011
 30
0.0
 11
25149.554554999981
 21
15377.880856000011
 31
0.0
  0
LINE
  5
4390
  8
2-0
  6
CONTINUOUS
 62
     6
 10
25149.554554999981
 20
15377.880856000011
 30
0.0
 11
25281.315270999981
 21
15472.473141
 31
0.0
  0
LINE
  5
4391
  8
2-0
  6
CONTINUOUS
 62
     6
 10
25281.315270999981
 20
15472.473141
 30
0.0
 11
25125.996303999971
 21
15425.725820000011
 31
0.0
  0
LINE
  5
4392
  8
2-0
  6
CONTINUOUS
 62
     6
 10
25125.996303999971
 20
15425.725820000011
 30
0.0
 11
25281.315270999981
 21
15472.473141
 31
0.0
  0
LINE
  5
4393
  8
2-0
  6
CONTINUOUS
 62
     6
 10
25149.554554999981
 20
15377.880856000011
 30
0.0
 11
25281.315270999981
 21
15472.473141
 31
0.0
  0
LINE
  5
4394
  8
2-0
  6
CONTINUOUS
 62
     6
 10
25149.554554999981
 20
15377.880856000011
 30
0.0
 11
25125.996303999971
 21
15425.725820000011
 31
0.0
  0
LINE
  5
4395
  8
2-0
  6
CONTINUOUS
 62
     6
 10
25095.68195699999
 20
13554.46088099999
 30
0.0
 11
25227.428815999981
 21
13649.087808
 31
0.0
  0
LINE
  5
4396
  8
2-0
  6
CONTINUOUS
 62
     6
 10
25227.428815999981
 20
13649.087808
 30
0.0
 11
25133.49867999999
 21
13516.84903799998
 31
0.0
  0
LINE
  5
4397
  8
2-0
  6
CONTINUOUS
 62
     6
 10
25095.68195699999
 20
13554.46088099999
 30
0.0
 11
25133.49867999999
 21
13516.84903799998
 31
0.0
  0
LINE
  5
4398
  8
2-0
  6
CONTINUOUS
 62
     6
 10
25133.49867999999
 20
13516.84903799998
 30
0.0
 11
25227.428815999981
 21
13649.087808
 31
0.0
  0
LINE
  5
4399
  8
2-0
  6
CONTINUOUS
 62
     6
 10
25227.428815999981
 20
13649.087808
 30
0.0
 11
25095.68195699999
 21
13554.46088099999
 31
0.0
  0
LINE
  5
439A
  8
2-0
  6
CONTINUOUS
 62
     6
 10
25095.68195699999
 20
13554.46088099999
 30
0.0
 11
25227.428815999981
 21
13649.087808
 31
0.0
  0
LINE
  5
439B
  8
2-0
  6
CONTINUOUS
 62
     6
 10
25133.49867999999
 20
13516.84903799998
 30
0.0
 11
25227.428815999981
 21
13649.087808
 31
0.0
  0
LINE
  5
439C
  8
2-0
  6
CONTINUOUS
 62
     6
 10
25133.49867999999
 20
13516.84903799998
 30
0.0
 11
25095.68195699999
 21
13554.46088099999
 31
0.0
  0
LINE
  5
439D
  8
2-0
  6
CONTINUOUS
 62
     6
 10
25158.717745999991
 20
13881.365507999981
 30
0.0
 11
25291.317777999971
 21
13787.937179999981
 31
0.0
  0
LINE
  5
439E
  8
2-0
  6
CONTINUOUS
 62
     6
 10
25291.317777999971
 20
13787.937179999981
 30
0.0
 11
25135.58509199999
 21
13833.312694
 31
0.0
  0
LINE
  5
439F
  8
2-0
  6
CONTINUOUS
 62
     6
 10
25158.717745999991
 20
13881.365507999981
 30
0.0
 11
25135.58509199999
 21
13833.312694
 31
0.0
  0
LINE
  5
43A0
  8
2-0
  6
CONTINUOUS
 62
     6
 10
25135.58509199999
 20
13833.312694
 30
0.0
 11
25291.317777999971
 21
13787.937179999981
 31
0.0
  0
LINE
  5
43A1
  8
2-0
  6
CONTINUOUS
 62
     6
 10
25291.317777999971
 20
13787.937179999981
 30
0.0
 11
25158.717745999991
 21
13881.365507999981
 31
0.0
  0
LINE
  5
43A2
  8
2-0
  6
CONTINUOUS
 62
     6
 10
25158.717745999991
 20
13881.365507999981
 30
0.0
 11
25291.317777999971
 21
13787.937179999981
 31
0.0
  0
LINE
  5
43A3
  8
2-0
  6
CONTINUOUS
 62
     6
 10
25135.58509199999
 20
13833.312694
 30
0.0
 11
25291.317777999971
 21
13787.937179999981
 31
0.0
  0
LINE
  5
43A4
  8
2-0
  6
CONTINUOUS
 62
     6
 10
25135.58509199999
 20
13833.312694
 30
0.0
 11
25158.717745999991
 21
13881.365507999981
 31
0.0
  0
LINE
  5
43A5
  8
2-0
  6
CONTINUOUS
 62
     6
 10
25218.481391999991
 20
16611.686441000009
 30
0.0
 11
25372.319677999989
 21
16663.120272000011
 31
0.0
  0
LINE
  5
43A6
  8
2-0
  6
CONTINUOUS
 62
     6
 10
25372.319677999989
 20
16663.120272000011
 30
0.0
 11
25243.48469099998
 21
16564.579837000008
 31
0.0
  0
LINE
  5
43A7
  8
2-0
  6
CONTINUOUS
 62
     6
 10
25218.481391999991
 20
16611.686441000009
 30
0.0
 11
25243.48469099998
 21
16564.579837000008
 31
0.0
  0
LINE
  5
43A8
  8
2-0
  6
CONTINUOUS
 62
     6
 10
25243.48469099998
 20
16564.579837000008
 30
0.0
 11
25372.319677999989
 21
16663.120272000011
 31
0.0
  0
LINE
  5
43A9
  8
2-0
  6
CONTINUOUS
 62
     6
 10
25372.319677999989
 20
16663.120272000011
 30
0.0
 11
25218.481391999991
 21
16611.686441000009
 31
0.0
  0
LINE
  5
43AA
  8
2-0
  6
CONTINUOUS
 62
     6
 10
25218.481391999991
 20
16611.686441000009
 30
0.0
 11
25372.319677999989
 21
16663.120272000011
 31
0.0
  0
LINE
  5
43AB
  8
2-0
  6
CONTINUOUS
 62
     6
 10
25243.48469099998
 20
16564.579837000008
 30
0.0
 11
25372.319677999989
 21
16663.120272000011
 31
0.0
  0
LINE
  5
43AC
  8
2-0
  6
CONTINUOUS
 62
     6
 10
25243.48469099998
 20
16564.579837000008
 30
0.0
 11
25218.481391999991
 21
16611.686441000009
 31
0.0
  0
LINE
  5
43AD
  8
2-0
  6
CONTINUOUS
 62
     6
 10
25084.545184999992
 20
17103.004933000011
 30
0.0
 11
25227.428815999981
 21
17026.229304000011
 31
0.0
  0
LINE
  5
43AE
  8
2-0
  6
CONTINUOUS
 62
     6
 10
25227.428815999981
 20
17026.229304000011
 30
0.0
 11
25067.36692299999
 21
17052.511373000019
 31
0.0
  0
LINE
  5
43AF
  8
2-0
  6
CONTINUOUS
 62
     6
 10
25084.545184999992
 20
17103.004933000011
 30
0.0
 11
25067.36692299999
 21
17052.511373000019
 31
0.0
  0
LINE
  5
43B0
  8
2-0
  6
CONTINUOUS
 62
     6
 10
25067.36692299999
 20
17052.511373000019
 30
0.0
 11
25227.428815999981
 21
17026.229304000011
 31
0.0
  0
LINE
  5
43B1
  8
2-0
  6
CONTINUOUS
 62
     6
 10
25227.428815999981
 20
17026.229304000011
 30
0.0
 11
25084.545184999992
 21
17103.004933000011
 31
0.0
  0
LINE
  5
43B2
  8
2-0
  6
CONTINUOUS
 62
     6
 10
25084.545184999992
 20
17103.004933000011
 30
0.0
 11
25227.428815999981
 21
17026.229304000011
 31
0.0
  0
LINE
  5
43B3
  8
2-0
  6
CONTINUOUS
 62
     6
 10
25067.36692299999
 20
17052.511373000019
 30
0.0
 11
25227.428815999981
 21
17026.229304000011
 31
0.0
  0
LINE
  5
43B4
  8
2-0
  6
CONTINUOUS
 62
     6
 10
25067.36692299999
 20
17052.511373000019
 30
0.0
 11
25084.545184999992
 21
17103.004933000011
 31
0.0
  0
LINE
  5
43B5
  8
2-0
  6
CONTINUOUS
 62
     6
 10
25125.996303999971
 20
18343.485307999988
 30
0.0
 11
25281.315270999981
 21
18390.22965999999
 31
0.0
  0
LINE
  5
43B6
  8
2-0
  6
CONTINUOUS
 62
     6
 10
25281.315270999981
 20
18390.22965999999
 30
0.0
 11
25149.554554999981
 21
18295.634406000008
 31
0.0
  0
LINE
  5
43B7
  8
2-0
  6
CONTINUOUS
 62
     6
 10
25125.996303999971
 20
18343.485307999988
 30
0.0
 11
25149.554554999981
 21
18295.634406000008
 31
0.0
  0
LINE
  5
43B8
  8
2-0
  6
CONTINUOUS
 62
     6
 10
25149.554554999981
 20
18295.634406000008
 30
0.0
 11
25281.315270999981
 21
18390.22965999999
 31
0.0
  0
LINE
  5
43B9
  8
2-0
  6
CONTINUOUS
 62
     6
 10
25281.315270999981
 20
18390.22965999999
 30
0.0
 11
25125.996303999971
 21
18343.485307999988
 31
0.0
  0
LINE
  5
43BA
  8
2-0
  6
CONTINUOUS
 62
     6
 10
25125.996303999971
 20
18343.485307999988
 30
0.0
 11
25281.315270999981
 21
18390.22965999999
 31
0.0
  0
LINE
  5
43BB
  8
2-0
  6
CONTINUOUS
 62
     6
 10
25149.554554999981
 20
18295.634406000008
 30
0.0
 11
25281.315270999981
 21
18390.22965999999
 31
0.0
  0
LINE
  5
43BC
  8
2-0
  6
CONTINUOUS
 62
     6
 10
25149.554554999981
 20
18295.634406000008
 30
0.0
 11
25125.996303999971
 21
18343.485307999988
 31
0.0
  0
LINE
  5
43BD
  8
2-0
  6
CONTINUOUS
 62
     3
 10
22022.82197499997
 20
19934.229199000009
 30
0.0
 11
21985.820812999991
 21
19934.229199000009
 31
0.0
  0
LINE
  5
43BE
  8
2-0
  6
CONTINUOUS
 62
     3
 10
22022.82197499997
 20
19904.22563600001
 30
0.0
 11
22022.82197499997
 21
19934.229199000009
 31
0.0
  0
LINE
  5
43BF
  8
2-0
  6
CONTINUOUS
 62
     3
 10
22016.82205399996
 20
19904.22563600001
 30
0.0
 11
22022.82197499997
 21
19904.22563600001
 31
0.0
  0
LINE
  5
43C0
  8
2-0
  6
CONTINUOUS
 62
     3
 10
22032.919498999981
 20
19904.22563600001
 30
0.0
 11
22032.919498999981
 21
19934.229199000009
 31
0.0
  0
LINE
  5
43C1
  8
2-0
  6
CONTINUOUS
 62
     3
 10
22014.915777999991
 20
19904.22563600001
 30
0.0
 11
22032.919498999981
 21
19904.22563600001
 31
0.0
  0
LINE
  5
43C2
  8
2-0
  6
CONTINUOUS
 62
     3
 10
22014.915777999991
 20
19929.234873000001
 30
0.0
 11
22014.915777999991
 21
19904.22563600001
 31
0.0
  0
LINE
  5
43C3
  8
2-0
  6
CONTINUOUS
 62
     3
 10
22019.916041999979
 20
19929.234873000001
 30
0.0
 11
22014.915777999991
 21
19929.234873000001
 31
0.0
  0
LINE
  5
43C4
  8
2-0
  6
CONTINUOUS
 62
     3
 10
22019.916041999979
 20
19922.229357000011
 30
0.0
 11
22019.916041999979
 21
19929.234873000001
 31
0.0
  0
LINE
  5
43C5
  8
2-0
  6
CONTINUOUS
 62
     3
 10
21988.726746999972
 20
19922.229357000011
 30
0.0
 11
21988.726746999972
 21
19929.234873000001
 31
0.0
  0
LINE
  5
43C6
  8
2-0
  6
CONTINUOUS
 62
     3
 10
21988.726746999972
 20
19929.234873000001
 30
0.0
 11
21993.727010999992
 21
19929.234873000001
 31
0.0
  0
LINE
  5
43C7
  8
2-0
  6
CONTINUOUS
 62
     3
 10
21993.727010999992
 20
19929.234873000001
 30
0.0
 11
21993.727010999992
 21
19904.22563600001
 31
0.0
  0
LINE
  5
43C8
  8
2-0
  6
CONTINUOUS
 62
     3
 10
21993.727010999992
 20
19904.22563600001
 30
0.0
 11
21975.727247999981
 21
19904.22563600001
 31
0.0
  0
LINE
  5
43C9
  8
2-0
  6
CONTINUOUS
 62
     3
 10
21975.727247999981
 20
19904.22563600001
 30
0.0
 11
21975.727247999981
 21
19934.229199000009
 31
0.0
  0
LINE
  5
43CA
  8
2-0
  6
CONTINUOUS
 62
     3
 10
21991.820733999979
 20
19904.22563600001
 30
0.0
 11
21985.820812999991
 21
19904.22563600001
 31
0.0
  0
LINE
  5
43CB
  8
2-0
  6
CONTINUOUS
 62
     3
 10
21985.820812999991
 20
19904.22563600001
 30
0.0
 11
21985.820812999991
 21
19934.229199000009
 31
0.0
  0
LINE
  5
43CC
  8
2-0
  6
CONTINUOUS
 62
     3
 10
20182.322714000002
 20
19825.228987999999
 30
0.0
 11
20182.322714000002
 21
19819.23302600002
 31
0.0
  0
LINE
  5
43CD
  8
2-0
  6
CONTINUOUS
 62
     3
 10
20182.322714000002
 20
19819.23302600002
 30
0.0
 11
20152.325089000002
 21
19819.23302600002
 31
0.0
  0
LINE
  5
43CE
  8
2-0
  6
CONTINUOUS
 62
     3
 10
20152.325089000002
 20
19819.23302600002
 30
0.0
 11
20152.325089000002
 21
19934.229199000009
 31
0.0
  0
LINE
  5
43CF
  8
2-0
  6
CONTINUOUS
 62
     3
 10
20152.325089000002
 20
19849.23263000001
 30
0.0
 11
20233.323029999981
 21
19849.23263000001
 31
0.0
  0
LINE
  5
43D0
  8
2-0
  6
CONTINUOUS
 62
     3
 10
20182.322714000002
 20
19808.935570000001
 30
0.0
 11
20152.325089000002
 21
19808.935570000001
 31
0.0
  0
LINE
  5
43D1
  8
2-0
  6
CONTINUOUS
 62
     3
 10
20182.322714000002
 20
19826.93731200002
 30
0.0
 11
20182.322714000002
 21
19808.935570000001
 31
0.0
  0
LINE
  5
43D2
  8
2-0
  6
CONTINUOUS
 62
     3
 10
20157.329312000002
 20
19826.93731200002
 30
0.0
 11
20182.322714000002
 21
19826.93731200002
 31
0.0
  0
LINE
  5
43D3
  8
2-0
  6
CONTINUOUS
 62
     3
 10
20157.329312000002
 20
19821.929130000019
 30
0.0
 11
20157.329312000002
 21
19826.93731200002
 31
0.0
  0
LINE
  5
43D4
  8
2-0
  6
CONTINUOUS
 62
     3
 10
20164.326909999982
 20
19821.929130000019
 30
0.0
 11
20157.329312000002
 21
19821.929130000019
 31
0.0
  0
LINE
  5
43D5
  8
2-0
  6
CONTINUOUS
 62
     3
 10
20264.621198999968
 20
19922.229357000011
 30
0.0
 11
20264.621198999968
 21
19929.234873000001
 31
0.0
  0
LINE
  5
43D6
  8
2-0
  6
CONTINUOUS
 62
     3
 10
20264.621198999968
 20
19929.234873000001
 30
0.0
 11
20259.618955000002
 21
19929.234873000001
 31
0.0
  0
LINE
  5
43D7
  8
2-0
  6
CONTINUOUS
 62
     3
 10
20259.618955000002
 20
19929.234873000001
 30
0.0
 11
20259.618955000002
 21
19904.22563600001
 31
0.0
  0
LINE
  5
43D8
  8
2-0
  6
CONTINUOUS
 62
     3
 10
20259.618955000002
 20
19904.22563600001
 30
0.0
 11
20277.62663599999
 21
19904.22563600001
 31
0.0
  0
LINE
  5
43D9
  8
2-0
  6
CONTINUOUS
 62
     3
 10
20277.62663599999
 20
19904.22563600001
 30
0.0
 11
20277.62663599999
 21
19934.229199000009
 31
0.0
  0
LINE
  5
43DA
  8
2-0
  6
CONTINUOUS
 62
     3
 10
20267.327199999989
 20
19934.229199000009
 30
0.0
 11
20152.325089000002
 21
19934.229199000009
 31
0.0
  0
LINE
  5
43DB
  8
2-0
  6
CONTINUOUS
 62
     3
 10
20267.327199999989
 20
19904.22563600001
 30
0.0
 11
20267.327199999989
 21
19934.229199000009
 31
0.0
  0
LINE
  5
43DC
  8
2-0
  6
CONTINUOUS
 62
     3
 10
20261.323320999989
 20
19904.22563600001
 30
0.0
 11
20267.327199999989
 21
19904.22563600001
 31
0.0
  0
LINE
  5
43DD
  8
2-0
  6
CONTINUOUS
 62
     3
 10
21287.720808499991
 20
19922.229357000011
 30
0.0
 11
21287.720808499991
 21
19929.234873000001
 31
0.0
  0
LINE
  5
43DE
  8
2-0
  6
CONTINUOUS
 62
     3
 10
21287.720808499991
 20
19929.234873000001
 30
0.0
 11
21292.721071499978
 21
19929.234873000001
 31
0.0
  0
LINE
  5
43DF
  8
2-0
  6
CONTINUOUS
 62
     3
 10
21292.721071499978
 20
19929.234873000001
 30
0.0
 11
21292.721071499978
 21
19904.22563600001
 31
0.0
  0
LINE
  5
43E0
  8
2-0
  6
CONTINUOUS
 62
     3
 10
21292.721071499978
 20
19904.22563600001
 30
0.0
 11
21274.727248499981
 21
19904.22563600001
 31
0.0
  0
LINE
  5
43E1
  8
2-0
  6
CONTINUOUS
 62
     3
 10
21274.727248499981
 20
19904.22563600001
 30
0.0
 11
21274.727248499981
 21
19934.229199000009
 31
0.0
  0
LINE
  5
43E2
  8
2-0
  6
CONTINUOUS
 62
     3
 10
21290.818754499971
 20
19904.22563600001
 30
0.0
 11
21284.820813499991
 21
19904.22563600001
 31
0.0
  0
LINE
  5
43E3
  8
2-0
  6
CONTINUOUS
 62
     3
 10
21284.820813499991
 20
19904.22563600001
 30
0.0
 11
21284.820813499991
 21
19934.229199000009
 31
0.0
  0
LINE
  5
43E4
  8
2-0
  6
CONTINUOUS
 62
     3
 10
21321.821974499991
 20
19934.229199000009
 30
0.0
 11
21284.820813499991
 21
19934.229199000009
 31
0.0
  0
LINE
  5
43E5
  8
2-0
  6
CONTINUOUS
 62
     3
 10
21321.821974499991
 20
19904.22563600001
 30
0.0
 11
21321.821974499991
 21
19934.229199000009
 31
0.0
  0
LINE
  5
43E6
  8
2-0
  6
CONTINUOUS
 62
     3
 10
21315.816115500002
 20
19904.22563600001
 30
0.0
 11
21321.821974499991
 21
19904.22563600001
 31
0.0
  0
LINE
  5
43E7
  8
2-0
  6
CONTINUOUS
 62
     3
 10
21331.915539500002
 20
19904.22563600001
 30
0.0
 11
21331.915539500002
 21
19934.229199000009
 31
0.0
  0
LINE
  5
43E8
  8
2-0
  6
CONTINUOUS
 62
     3
 10
21313.919736499989
 20
19904.22563600001
 30
0.0
 11
21331.915539500002
 21
19904.22563600001
 31
0.0
  0
LINE
  5
43E9
  8
2-0
  6
CONTINUOUS
 62
     3
 10
21313.919736499989
 20
19929.234873000001
 30
0.0
 11
21313.919736499989
 21
19904.22563600001
 31
0.0
  0
LINE
  5
43EA
  8
2-0
  6
CONTINUOUS
 62
     3
 10
21318.910102499991
 20
19929.234873000001
 30
0.0
 11
21313.919736499989
 21
19929.234873000001
 31
0.0
  0
LINE
  5
43EB
  8
2-0
  6
CONTINUOUS
 62
     3
 10
21318.910102499991
 20
19922.229357000011
 30
0.0
 11
21318.910102499991
 21
19929.234873000001
 31
0.0
  0
LINE
  5
43EC
  8
2-0
  6
CONTINUOUS
 62
     3
 10
20630.914550000001
 20
19934.22919900003
 30
0.0
 11
21274.727248499981
 21
19934.229199000009
 31
0.0
  0
LINE
  5
43ED
  8
2-0
  6
CONTINUOUS
 62
     3
 10
21975.727247999981
 20
19934.229199000009
 30
0.0
 11
21331.915539500002
 21
19934.229199000009
 31
0.0
  0
LINE
  5
43EE
  8
2-0
  6
CONTINUOUS
 62
     3
 10
20182.322714000002
 20
19825.228987999999
 30
0.0
 11
20182.322714000002
 21
19819.23302600002
 31
0.0
  0
LINE
  5
43EF
  8
2-0
  6
CONTINUOUS
 62
     3
 10
20182.322714000002
 20
19819.23302600002
 30
0.0
 11
20152.325089000002
 21
19819.23302600002
 31
0.0
  0
LINE
  5
43F0
  8
2-0
  6
CONTINUOUS
 62
     3
 10
20152.325089000002
 20
19819.23302600002
 30
0.0
 11
20152.325089000002
 21
19934.229199000009
 31
0.0
  0
LINE
  5
43F1
  8
2-0
  6
CONTINUOUS
 62
     3
 10
20152.325089000002
 20
19849.23263000001
 30
0.0
 11
20233.323029999981
 21
19849.23263000001
 31
0.0
  0
LINE
  5
43F2
  8
2-0
  6
CONTINUOUS
 62
     3
 10
20182.322714000002
 20
19808.935570000001
 30
0.0
 11
20152.325089000002
 21
19808.935570000001
 31
0.0
  0
LINE
  5
43F3
  8
2-0
  6
CONTINUOUS
 62
     3
 10
20182.322714000002
 20
19826.93731200002
 30
0.0
 11
20182.322714000002
 21
19808.935570000001
 31
0.0
  0
LINE
  5
43F4
  8
2-0
  6
CONTINUOUS
 62
     3
 10
20157.329312000002
 20
19826.93731200002
 30
0.0
 11
20182.322714000002
 21
19826.93731200002
 31
0.0
  0
LINE
  5
43F5
  8
2-0
  6
CONTINUOUS
 62
     3
 10
20157.329312000002
 20
19821.929130000019
 30
0.0
 11
20157.329312000002
 21
19826.93731200002
 31
0.0
  0
LINE
  5
43F6
  8
2-0
  6
CONTINUOUS
 62
     3
 10
20164.326909999982
 20
19821.929130000019
 30
0.0
 11
20157.329312000002
 21
19821.929130000019
 31
0.0
  0
LINE
  5
43F7
  8
2-0
  6
CONTINUOUS
 62
     3
 10
20164.326909999982
 20
19118.132307499989
 30
0.0
 11
20157.329312000002
 21
19118.132307499989
 31
0.0
  0
LINE
  5
43F8
  8
2-0
  6
CONTINUOUS
 62
     3
 10
20157.329312000002
 20
19118.132307499989
 30
0.0
 11
20157.329312000002
 21
19123.132571499991
 31
0.0
  0
LINE
  5
43F9
  8
2-0
  6
CONTINUOUS
 62
     3
 10
20157.329312000002
 20
19123.132571499991
 30
0.0
 11
20182.322714000002
 21
19123.132571499991
 31
0.0
  0
LINE
  5
43FA
  8
2-0
  6
CONTINUOUS
 62
     3
 10
20182.322714000002
 20
19123.132571499991
 30
0.0
 11
20182.322714000002
 21
19105.136767499989
 31
0.0
  0
LINE
  5
43FB
  8
2-0
  6
CONTINUOUS
 62
     3
 10
20182.322714000002
 20
19105.136767499989
 30
0.0
 11
20152.325089000002
 21
19105.136767499989
 31
0.0
  0
LINE
  5
43FC
  8
2-0
  6
CONTINUOUS
 62
     3
 10
20182.322714000002
 20
19121.22827449995
 30
0.0
 11
20182.322714000002
 21
19115.230333499989
 31
0.0
  0
LINE
  5
43FD
  8
2-0
  6
CONTINUOUS
 62
     3
 10
20182.322714000002
 20
19115.230333499989
 30
0.0
 11
20152.325089000002
 21
19115.230333499989
 31
0.0
  0
LINE
  5
43FE
  8
2-0
  6
CONTINUOUS
 62
     3
 10
20152.325089000002
 20
19115.230333499989
 30
0.0
 11
20152.325089000002
 21
19152.2314945
 31
0.0
  0
LINE
  5
43FF
  8
2-0
  6
CONTINUOUS
 62
     3
 10
20182.322714000002
 20
19152.2314945
 30
0.0
 11
20152.325089000002
 21
19152.2314945
 31
0.0
  0
LINE
  5
4400
  8
2-0
  6
CONTINUOUS
 62
     3
 10
20182.322714000002
 20
19146.227614499981
 30
0.0
 11
20182.322714000002
 21
19152.2314945
 31
0.0
  0
LINE
  5
4401
  8
2-0
  6
CONTINUOUS
 62
     3
 10
20182.322714000002
 20
19162.327039499982
 30
0.0
 11
20152.325089000002
 21
19162.327039499982
 31
0.0
  0
LINE
  5
4402
  8
2-0
  6
CONTINUOUS
 62
     3
 10
20182.322714000002
 20
19144.3252975
 30
0.0
 11
20182.322714000002
 21
19162.327039499982
 31
0.0
  0
LINE
  5
4403
  8
2-0
  6
CONTINUOUS
 62
     3
 10
20157.329312000002
 20
19144.3252975
 30
0.0
 11
20182.322714000002
 21
19144.3252975
 31
0.0
  0
LINE
  5
4404
  8
2-0
  6
CONTINUOUS
 62
     3
 10
20157.329312000002
 20
19149.325561500002
 30
0.0
 11
20157.329312000002
 21
19144.3252975
 31
0.0
  0
LINE
  5
4405
  8
2-0
  6
CONTINUOUS
 62
     3
 10
20164.326909999982
 20
19149.325561500002
 30
0.0
 11
20157.329312000002
 21
19149.325561500002
 31
0.0
  0
LINE
  5
4406
  8
2-0
  6
CONTINUOUS
 62
     3
 10
20164.326909999982
 20
18417.131317999989
 30
0.0
 11
20157.329312000002
 21
18417.131317999989
 31
0.0
  0
LINE
  5
4407
  8
2-0
  6
CONTINUOUS
 62
     3
 10
20157.329312000002
 20
18417.131317999989
 30
0.0
 11
20157.329312000002
 21
18422.13752
 31
0.0
  0
LINE
  5
4408
  8
2-0
  6
CONTINUOUS
 62
     3
 10
20157.329312000002
 20
18422.13752
 30
0.0
 11
20182.322714000002
 21
18422.13752
 31
0.0
  0
LINE
  5
4409
  8
2-0
  6
CONTINUOUS
 62
     3
 10
20182.322714000002
 20
18422.13752
 30
0.0
 11
20182.322714000002
 21
18404.135778
 31
0.0
  0
LINE
  5
440A
  8
2-0
  6
CONTINUOUS
 62
     3
 10
20182.322714000002
 20
18404.135778
 30
0.0
 11
20152.325089000002
 21
18404.135778
 31
0.0
  0
LINE
  5
440B
  8
2-0
  6
CONTINUOUS
 62
     3
 10
20182.322714000002
 20
18420.22728499999
 30
0.0
 11
20182.322714000002
 21
18414.231322999989
 31
0.0
  0
LINE
  5
440C
  8
2-0
  6
CONTINUOUS
 62
     3
 10
20182.322714000002
 20
18414.231322999989
 30
0.0
 11
20152.325089000002
 21
18414.231322999989
 31
0.0
  0
LINE
  5
440D
  8
2-0
  6
CONTINUOUS
 62
     3
 10
20152.325089000002
 20
18414.231322999989
 30
0.0
 11
20152.325089000002
 21
18451.230504999989
 31
0.0
  0
LINE
  5
440E
  8
2-0
  6
CONTINUOUS
 62
     3
 10
20182.322714000002
 20
18451.230504999989
 30
0.0
 11
20152.325089000002
 21
18451.230504999989
 31
0.0
  0
LINE
  5
440F
  8
2-0
  6
CONTINUOUS
 62
     3
 10
20182.322714000002
 20
18445.23454300001
 30
0.0
 11
20182.322714000002
 21
18451.230504999989
 31
0.0
  0
LINE
  5
4410
  8
2-0
  6
CONTINUOUS
 62
     3
 10
20182.322714000002
 20
18461.32605
 30
0.0
 11
20152.325089000002
 21
18461.32605
 31
0.0
  0
LINE
  5
4411
  8
2-0
  6
CONTINUOUS
 62
     3
 10
20182.322714000002
 20
18443.324307999988
 30
0.0
 11
20182.322714000002
 21
18461.32605
 31
0.0
  0
LINE
  5
4412
  8
2-0
  6
CONTINUOUS
 62
     3
 10
20157.329312000002
 20
18443.324307999988
 30
0.0
 11
20182.322714000002
 21
18443.324307999988
 31
0.0
  0
LINE
  5
4413
  8
2-0
  6
CONTINUOUS
 62
     3
 10
20157.329312000002
 20
18448.330509999989
 30
0.0
 11
20157.329312000002
 21
18443.324307999988
 31
0.0
  0
LINE
  5
4414
  8
2-0
  6
CONTINUOUS
 62
     3
 10
20164.326909999982
 20
18448.330509999989
 30
0.0
 11
20157.329312000002
 21
18448.330509999989
 31
0.0
  0
LINE
  5
4415
  8
2-0
  6
CONTINUOUS
 62
     3
 10
20164.326909999982
 20
17747.324572000001
 30
0.0
 11
20157.329312000002
 21
17747.324572000001
 31
0.0
  0
LINE
  5
4416
  8
2-0
  6
CONTINUOUS
 62
     3
 10
20157.329312000002
 20
17747.324572000001
 30
0.0
 11
20157.329312000002
 21
17742.336185
 31
0.0
  0
LINE
  5
4417
  8
2-0
  6
CONTINUOUS
 62
     3
 10
20157.329312000002
 20
17742.336185
 30
0.0
 11
20182.322714000002
 21
17742.336185
 31
0.0
  0
LINE
  5
4418
  8
2-0
  6
CONTINUOUS
 62
     3
 10
20182.322714000002
 20
17742.336185
 30
0.0
 11
20182.322714000002
 21
17760.331988000002
 31
0.0
  0
LINE
  5
4419
  8
2-0
  6
CONTINUOUS
 62
     3
 10
20182.322714000002
 20
17760.331988000002
 30
0.0
 11
20152.325089000002
 21
17760.331988000002
 31
0.0
  0
LINE
  5
441A
  8
2-0
  6
CONTINUOUS
 62
     3
 10
20182.322714000002
 20
17744.234542999991
 30
0.0
 11
20182.322714000002
 21
17750.230504999981
 31
0.0
  0
LINE
  5
441B
  8
2-0
  6
CONTINUOUS
 62
     3
 10
20182.322714000002
 20
17750.230504999981
 30
0.0
 11
20152.325089000002
 21
17750.230504999981
 31
0.0
  0
LINE
  5
441C
  8
2-0
  6
CONTINUOUS
 62
     3
 10
20152.325089000002
 20
17750.230504999981
 30
0.0
 11
20152.325089000002
 21
17713.231323
 31
0.0
  0
LINE
  5
441D
  8
2-0
  6
CONTINUOUS
 62
     3
 10
20182.322714000002
 20
17713.231323
 30
0.0
 11
20152.325089000002
 21
17713.231323
 31
0.0
  0
LINE
  5
441E
  8
2-0
  6
CONTINUOUS
 62
     3
 10
20182.322714000002
 20
17719.233223999989
 30
0.0
 11
20182.322714000002
 21
17713.231323
 31
0.0
  0
LINE
  5
441F
  8
2-0
  6
CONTINUOUS
 62
     3
 10
20182.322714000002
 20
17703.141716999991
 30
0.0
 11
20152.325089000002
 21
17703.141716999991
 31
0.0
  0
LINE
  5
4420
  8
2-0
  6
CONTINUOUS
 62
     3
 10
20182.322714000002
 20
17721.13752
 30
0.0
 11
20182.322714000002
 21
17703.141716999991
 31
0.0
  0
LINE
  5
4421
  8
2-0
  6
CONTINUOUS
 62
     3
 10
20157.329312000002
 20
17721.13752
 30
0.0
 11
20182.322714000002
 21
17721.13752
 31
0.0
  0
LINE
  5
4422
  8
2-0
  6
CONTINUOUS
 62
     3
 10
20157.329312000002
 20
17716.137256999991
 30
0.0
 11
20157.329312000002
 21
17721.13752
 31
0.0
  0
LINE
  5
4423
  8
2-0
  6
CONTINUOUS
 62
     3
 10
20164.326909999982
 20
17716.137256999991
 30
0.0
 11
20157.329312000002
 21
17716.137256999991
 31
0.0
  0
LINE
  5
4424
  8
2-0
  6
CONTINUOUS
 62
     3
 10
20155.211226999989
 20
16996.228143
 30
0.0
 11
20155.211226999989
 21
17016.229198000001
 31
0.0
  0
LINE
  5
4425
  8
2-0
  6
CONTINUOUS
 62
     3
 10
20155.211226999989
 20
17016.229198000001
 30
0.0
 11
20240.211754999978
 21
17016.229198000001
 31
0.0
  0
LINE
  5
4426
  8
2-0
  6
CONTINUOUS
 62
     3
 10
20164.326909999982
 20
17042.835908000001
 30
0.0
 11
20157.329312000002
 21
17042.835908000001
 31
0.0
  0
LINE
  5
4427
  8
2-0
  6
CONTINUOUS
 62
     3
 10
20157.329312000002
 20
17042.835908000001
 30
0.0
 11
20157.329312000002
 21
17037.841582000001
 31
0.0
  0
LINE
  5
4428
  8
2-0
  6
CONTINUOUS
 62
     3
 10
20157.329312000002
 20
17037.841582000001
 30
0.0
 11
20182.322714000002
 21
17037.841582000001
 31
0.0
  0
LINE
  5
4429
  8
2-0
  6
CONTINUOUS
 62
     3
 10
20182.322714000002
 20
17037.841582000001
 30
0.0
 11
20182.322714000002
 21
17055.83738600001
 31
0.0
  0
LINE
  5
442A
  8
2-0
  6
CONTINUOUS
 62
     3
 10
20182.322714000002
 20
17055.83738600001
 30
0.0
 11
20152.325089000002
 21
17055.83738600001
 31
0.0
  0
LINE
  5
442B
  8
2-0
  6
CONTINUOUS
 62
     3
 10
20182.322714000002
 20
17046.228802000001
 30
0.0
 11
20182.322714000002
 21
17040.226901999991
 31
0.0
  0
LINE
  5
442C
  8
2-0
  6
CONTINUOUS
 62
     3
 10
20152.325089000002
 20
17046.228802000001
 30
0.0
 11
20182.322714000002
 21
17046.228802000001
 31
0.0
  0
LINE
  5
442D
  8
2-0
  6
CONTINUOUS
 62
     3
 10
20152.325089000002
 20
17055.83738600001
 30
0.0
 11
20152.325089000002
 21
17703.141716999991
 31
0.0
  0
LINE
  5
442E
  8
2-0
  6
CONTINUOUS
 62
     3
 10
20152.325089000002
 20
17760.331988000002
 30
0.0
 11
20152.325089000002
 21
18404.135778
 31
0.0
  0
LINE
  5
442F
  8
2-0
  6
CONTINUOUS
 62
     3
 10
20152.325089000002
 20
16901.22708700001
 30
0.0
 11
20182.322714000002
 21
16901.22708700001
 31
0.0
  0
LINE
  5
4430
  8
2-0
  6
CONTINUOUS
 62
     3
 10
20182.322714000002
 20
16901.22708700001
 30
0.0
 11
20182.322714000002
 21
16907.22898700001
 31
0.0
  0
LINE
  5
4431
  8
2-0
  6
CONTINUOUS
 62
     3
 10
20240.211754999978
 20
16931.232629999991
 30
0.0
 11
20155.211226999989
 21
16931.232629999991
 31
0.0
  0
LINE
  5
4432
  8
2-0
  6
CONTINUOUS
 62
     3
 10
20155.211226999989
 20
16931.232629999991
 30
0.0
 11
20155.211226999989
 21
16951.227747000012
 31
0.0
  0
LINE
  5
4433
  8
2-0
  6
CONTINUOUS
 62
     3
 10
20182.322714000002
 20
16891.618503999998
 30
0.0
 11
20152.325089000002
 21
16891.618503999998
 31
0.0
  0
LINE
  5
4434
  8
2-0
  6
CONTINUOUS
 62
     3
 10
20182.322714000002
 20
16909.614306999982
 30
0.0
 11
20182.322714000002
 21
16891.618503999998
 31
0.0
  0
LINE
  5
4435
  8
2-0
  6
CONTINUOUS
 62
     3
 10
20157.329312000002
 20
16909.614306999982
 30
0.0
 11
20182.322714000002
 21
16909.614306999982
 31
0.0
  0
LINE
  5
4436
  8
2-0
  6
CONTINUOUS
 62
     3
 10
20157.329312000002
 20
16904.614043000009
 30
0.0
 11
20157.329312000002
 21
16909.614306999982
 31
0.0
  0
LINE
  5
4437
  8
2-0
  6
CONTINUOUS
 62
     3
 10
20164.326909999982
 20
16904.614043000009
 30
0.0
 11
20157.329312000002
 21
16904.614043000009
 31
0.0
  0
LINE
  5
4438
  8
2-0
  6
CONTINUOUS
 62
     3
 10
20164.326909999982
 20
16200.131812499991
 30
0.0
 11
20157.329312000002
 21
16200.131812499991
 31
0.0
  0
LINE
  5
4439
  8
2-0
  6
CONTINUOUS
 62
     3
 10
20157.329312000002
 20
16200.131812499991
 30
0.0
 11
20157.329312000002
 21
16205.13207649998
 31
0.0
  0
LINE
  5
443A
  8
2-0
  6
CONTINUOUS
 62
     3
 10
20157.329312000002
 20
16205.13207649998
 30
0.0
 11
20182.322714000002
 21
16205.13207649998
 31
0.0
  0
LINE
  5
443B
  8
2-0
  6
CONTINUOUS
 62
     3
 10
20182.322714000002
 20
16205.13207649998
 30
0.0
 11
20182.322714000002
 21
16187.130334499991
 31
0.0
  0
LINE
  5
443C
  8
2-0
  6
CONTINUOUS
 62
     3
 10
20182.322714000002
 20
16187.130334499991
 30
0.0
 11
20152.325089000002
 21
16187.130334499991
 31
0.0
  0
LINE
  5
443D
  8
2-0
  6
CONTINUOUS
 62
     3
 10
20182.322714000002
 20
16203.227779500001
 30
0.0
 11
20182.322714000002
 21
16197.2308285
 31
0.0
  0
LINE
  5
443E
  8
2-0
  6
CONTINUOUS
 62
     3
 10
20182.322714000002
 20
16197.2308285
 30
0.0
 11
20152.325089000002
 21
16197.2308285
 31
0.0
  0
LINE
  5
443F
  8
2-0
  6
CONTINUOUS
 62
     3
 10
20152.325089000002
 20
16197.2308285
 30
0.0
 11
20152.325089000002
 21
16234.2309995
 31
0.0
  0
LINE
  5
4440
  8
2-0
  6
CONTINUOUS
 62
     3
 10
20182.322714000002
 20
16234.2309995
 30
0.0
 11
20152.325089000002
 21
16234.2309995
 31
0.0
  0
LINE
  5
4441
  8
2-0
  6
CONTINUOUS
 62
     3
 10
20182.322714000002
 20
16228.228109499991
 30
0.0
 11
20182.322714000002
 21
16234.2309995
 31
0.0
  0
LINE
  5
4442
  8
2-0
  6
CONTINUOUS
 62
     3
 10
20182.322714000002
 20
16244.3265445
 30
0.0
 11
20152.325089000002
 21
16244.3265445
 31
0.0
  0
LINE
  5
4443
  8
2-0
  6
CONTINUOUS
 62
     3
 10
20182.322714000002
 20
16226.318863500001
 30
0.0
 11
20182.322714000002
 21
16244.3265445
 31
0.0
  0
LINE
  5
4444
  8
2-0
  6
CONTINUOUS
 62
     3
 10
20157.329312000002
 20
16226.318863500001
 30
0.0
 11
20182.322714000002
 21
16226.318863500001
 31
0.0
  0
LINE
  5
4445
  8
2-0
  6
CONTINUOUS
 62
     3
 10
20157.329312000002
 20
16231.3250665
 30
0.0
 11
20157.329312000002
 21
16226.318863500001
 31
0.0
  0
LINE
  5
4446
  8
2-0
  6
CONTINUOUS
 62
     3
 10
20164.326909999982
 20
16231.3250665
 30
0.0
 11
20157.329312000002
 21
16231.3250665
 31
0.0
  0
LINE
  5
4447
  8
2-0
  6
CONTINUOUS
 62
     3
 10
20164.326909999982
 20
15530.565083
 30
0.0
 11
20157.329312000002
 21
15530.565083
 31
0.0
  0
LINE
  5
4448
  8
2-0
  6
CONTINUOUS
 62
     3
 10
20157.329312000002
 20
15530.565083
 30
0.0
 11
20157.329312000002
 21
15525.570758000011
 31
0.0
  0
LINE
  5
4449
  8
2-0
  6
CONTINUOUS
 62
     3
 10
20157.329312000002
 20
15525.570758000011
 30
0.0
 11
20182.322714000002
 21
15525.570758000011
 31
0.0
  0
LINE
  5
444A
  8
2-0
  6
CONTINUOUS
 62
     3
 10
20182.322714000002
 20
15525.570758000011
 30
0.0
 11
20182.322714000002
 21
15543.566561000011
 31
0.0
  0
LINE
  5
444B
  8
2-0
  6
CONTINUOUS
 62
     3
 10
20182.322714000002
 20
15543.566561000011
 30
0.0
 11
20152.325089000002
 21
15543.566561000011
 31
0.0
  0
LINE
  5
444C
  8
2-0
  6
CONTINUOUS
 62
     3
 10
20182.322714000002
 20
15527.469116
 30
0.0
 11
20182.322714000002
 21
15533.47101600001
 31
0.0
  0
LINE
  5
444D
  8
2-0
  6
CONTINUOUS
 62
     3
 10
20182.322714000002
 20
15533.47101600001
 30
0.0
 11
20152.325089000002
 21
15533.47101600001
 31
0.0
  0
LINE
  5
444E
  8
2-0
  6
CONTINUOUS
 62
     3
 10
20152.325089000002
 20
15496.471835
 30
0.0
 11
20152.325089000002
 21
15533.47101600001
 31
0.0
  0
LINE
  5
444F
  8
2-0
  6
CONTINUOUS
 62
     3
 10
20182.322714000002
 20
15496.471835
 30
0.0
 11
20152.325089000002
 21
15496.471835
 31
0.0
  0
LINE
  5
4450
  8
2-0
  6
CONTINUOUS
 62
     3
 10
20182.322714000002
 20
15502.468785999999
 30
0.0
 11
20182.322714000002
 21
15496.471835
 31
0.0
  0
LINE
  5
4451
  8
2-0
  6
CONTINUOUS
 62
     3
 10
20182.322714000002
 20
15486.370351
 30
0.0
 11
20152.325089000002
 21
15486.370351
 31
0.0
  0
LINE
  5
4452
  8
2-0
  6
CONTINUOUS
 62
     3
 10
20182.322714000002
 20
15504.378032000001
 30
0.0
 11
20182.322714000002
 21
15486.370351
 31
0.0
  0
LINE
  5
4453
  8
2-0
  6
CONTINUOUS
 62
     3
 10
20157.329312000002
 20
15504.378032000001
 30
0.0
 11
20182.322714000002
 21
15504.378032000001
 31
0.0
  0
LINE
  5
4454
  8
2-0
  6
CONTINUOUS
 62
     3
 10
20157.329312000002
 20
15499.377768000009
 30
0.0
 11
20157.329312000002
 21
15504.378032000001
 31
0.0
  0
LINE
  5
4455
  8
2-0
  6
CONTINUOUS
 62
     3
 10
20164.326909999982
 20
15499.377768000009
 30
0.0
 11
20157.329312000002
 21
15499.377768000009
 31
0.0
  0
LINE
  5
4456
  8
2-0
  6
CONTINUOUS
 62
     3
 10
20152.325089000002
 20
16891.618503999998
 30
0.0
 11
20152.325089000002
 21
16244.3265445
 31
0.0
  0
LINE
  5
4457
  8
2-0
  6
CONTINUOUS
 62
     3
 10
20152.325089000002
 20
17046.228802000001
 30
0.0
 11
20152.325089000002
 21
16901.22708700001
 31
0.0
  0
LINE
  5
4458
  8
2-0
  6
CONTINUOUS
 62
     3
 10
20240.211754999978
 20
17016.229198000001
 30
0.0
 11
20240.211754999978
 21
16931.232629999991
 31
0.0
  0
LINE
  5
4459
  8
2-0
  6
CONTINUOUS
 62
     3
 10
20164.326909999982
 20
14798.136761
 30
0.0
 11
20157.329312000002
 21
14798.136761
 31
0.0
  0
LINE
  5
445A
  8
2-0
  6
CONTINUOUS
 62
     3
 10
20157.329312000002
 20
14798.136761
 30
0.0
 11
20157.329312000002
 21
14803.131087000011
 31
0.0
  0
LINE
  5
445B
  8
2-0
  6
CONTINUOUS
 62
     3
 10
20157.329312000002
 20
14803.131087000011
 30
0.0
 11
20182.322714000002
 21
14803.131087000011
 31
0.0
  0
LINE
  5
445C
  8
2-0
  6
CONTINUOUS
 62
     3
 10
20182.322714000002
 20
14803.131087000011
 30
0.0
 11
20182.322714000002
 21
14785.135283000011
 31
0.0
  0
LINE
  5
445D
  8
2-0
  6
CONTINUOUS
 62
     3
 10
20182.322714000002
 20
14785.135283000011
 30
0.0
 11
20152.325089000002
 21
14785.135283000011
 31
0.0
  0
LINE
  5
445E
  8
2-0
  6
CONTINUOUS
 62
     3
 10
20182.322714000002
 20
14801.23371800001
 30
0.0
 11
20182.322714000002
 21
14795.230828000011
 31
0.0
  0
LINE
  5
445F
  8
2-0
  6
CONTINUOUS
 62
     3
 10
20182.322714000002
 20
14795.230828000011
 30
0.0
 11
20152.325089000002
 21
14795.230828000011
 31
0.0
  0
LINE
  5
4460
  8
2-0
  6
CONTINUOUS
 62
     3
 10
20152.325089000002
 20
14795.230828000011
 30
0.0
 11
20152.325089000002
 21
14832.231
 31
0.0
  0
LINE
  5
4461
  8
2-0
  6
CONTINUOUS
 62
     3
 10
20182.322714000002
 20
14832.231
 30
0.0
 11
20152.325089000002
 21
14832.231
 31
0.0
  0
LINE
  5
4462
  8
2-0
  6
CONTINUOUS
 62
     3
 10
20182.322714000002
 20
14826.234047999989
 30
0.0
 11
20182.322714000002
 21
14832.231
 31
0.0
  0
LINE
  5
4463
  8
2-0
  6
CONTINUOUS
 62
     3
 10
20182.322714000002
 20
14842.331493000011
 30
0.0
 11
20152.325089000002
 21
14842.331493000011
 31
0.0
  0
LINE
  5
4464
  8
2-0
  6
CONTINUOUS
 62
     3
 10
20182.322714000002
 20
14824.32480200001
 30
0.0
 11
20182.322714000002
 21
14842.331493000011
 31
0.0
  0
LINE
  5
4465
  8
2-0
  6
CONTINUOUS
 62
     3
 10
20157.329312000002
 20
14824.32480200001
 30
0.0
 11
20182.322714000002
 21
14824.32480200001
 31
0.0
  0
LINE
  5
4466
  8
2-0
  6
CONTINUOUS
 62
     3
 10
20157.329312000002
 20
14829.33001500001
 30
0.0
 11
20157.329312000002
 21
14824.32480200001
 31
0.0
  0
LINE
  5
4467
  8
2-0
  6
CONTINUOUS
 62
     3
 10
20164.326909999982
 20
14829.33001500001
 30
0.0
 11
20157.329312000002
 21
14829.33001500001
 31
0.0
  0
LINE
  5
4468
  8
2-0
  6
CONTINUOUS
 62
     3
 10
20182.322714000002
 20
13771.73284099999
 30
0.0
 11
20182.322714000002
 21
13777.73770999999
 31
0.0
  0
LINE
  5
4469
  8
2-0
  6
CONTINUOUS
 62
     3
 10
20182.322714000002
 20
13777.73770999999
 30
0.0
 11
20152.325089000002
 21
13777.73770999999
 31
0.0
  0
LINE
  5
446A
  8
2-0
  6
CONTINUOUS
 62
     3
 10
20152.325089000002
 20
13777.73770999999
 30
0.0
 11
20152.325089000002
 21
13662.733619000001
 31
0.0
  0
LINE
  5
446B
  8
2-0
  6
CONTINUOUS
 62
     3
 10
20152.325089000002
 20
13662.733619000001
 30
0.0
 11
20237.32363699999
 21
13662.733619000001
 31
0.0
  0
LINE
  5
446C
  8
2-0
  6
CONTINUOUS
 62
     3
 10
20237.32363699999
 20
13662.733619000001
 30
0.0
 11
20237.32363699999
 21
13747.729198000001
 31
0.0
  0
LINE
  5
446D
  8
2-0
  6
CONTINUOUS
 62
     3
 10
20237.32363699999
 20
13747.729198000001
 30
0.0
 11
20205.326698999968
 21
13747.729198000001
 31
0.0
  0
LINE
  5
446E
  8
2-0
  6
CONTINUOUS
 62
     3
 10
20164.326909999982
 20
13774.767443000001
 30
0.0
 11
20157.329312000002
 21
13774.767443000001
 31
0.0
  0
LINE
  5
446F
  8
2-0
  6
CONTINUOUS
 62
     3
 10
20157.329312000002
 20
13774.767443000001
 30
0.0
 11
20157.329312000002
 21
13769.77014799998
 31
0.0
  0
LINE
  5
4470
  8
2-0
  6
CONTINUOUS
 62
     3
 10
20157.329312000002
 20
13769.77014799998
 30
0.0
 11
20182.322714000002
 21
13769.77014799998
 31
0.0
  0
LINE
  5
4471
  8
2-0
  6
CONTINUOUS
 62
     3
 10
20182.322714000002
 20
13769.77014799998
 30
0.0
 11
20182.322714000002
 21
13787.768921000001
 31
0.0
  0
LINE
  5
4472
  8
2-0
  6
CONTINUOUS
 62
     3
 10
20182.322714000002
 20
13787.768921000001
 30
0.0
 11
20152.325089000002
 21
13787.768921000001
 31
0.0
  0
LINE
  5
4473
  8
2-0
  6
CONTINUOUS
 62
     3
 10
20152.325089000002
 20
14842.331493000011
 30
0.0
 11
20152.325089000002
 21
15486.370351
 31
0.0
  0
LINE
  5
4474
  8
2-0
  6
CONTINUOUS
 62
     3
 10
20152.325089000002
 20
18461.32605
 30
0.0
 11
20152.325089000002
 21
19105.136767499989
 31
0.0
  0
LINE
  5
4475
  8
2-0
  6
CONTINUOUS
 62
     3
 10
20243.327516999991
 20
18390.22965999999
 30
0.0
 11
20196.323847999989
 21
18390.22965999999
 31
0.0
  0
LINE
  5
4476
  8
2-0
  6
CONTINUOUS
 62
     3
 10
20196.323847999989
 20
18475.230188000001
 30
0.0
 11
20243.327516999991
 21
18475.230188000001
 31
0.0
  0
LINE
  5
4477
  8
2-0
  6
CONTINUOUS
 62
     3
 10
20196.323847999989
 20
18390.22965999999
 30
0.0
 11
20196.323847999989
 21
18415.232959000001
 31
0.0
  0
LINE
  5
4478
  8
2-0
  6
CONTINUOUS
 62
     3
 10
20196.323847999989
 20
18450.228867999991
 30
0.0
 11
20196.323847999989
 21
18475.230188000001
 31
0.0
  0
LINE
  5
4479
  8
2-0
  6
CONTINUOUS
 62
     3
 10
20243.327516999991
 20
18475.230188000001
 30
0.0
 11
20243.327516999991
 21
18390.22965999999
 31
0.0
  0
LINE
  5
447A
  8
2-0
  6
CONTINUOUS
 62
     3
 10
20152.325089000002
 20
16187.130334499991
 30
0.0
 11
20152.325089000002
 21
15543.566561000011
 31
0.0
  0
LINE
  5
447B
  8
2-0
  6
CONTINUOUS
 62
     3
 10
20243.327516999991
 20
15472.23263
 30
0.0
 11
20196.323847999989
 21
15472.23263
 31
0.0
  0
LINE
  5
447C
  8
2-0
  6
CONTINUOUS
 62
     3
 10
20196.323847999989
 20
15557.22919799999
 30
0.0
 11
20243.327516999991
 21
15557.22919799999
 31
0.0
  0
LINE
  5
447D
  8
2-0
  6
CONTINUOUS
 62
     3
 10
20196.323847999989
 20
15472.23263
 30
0.0
 11
20196.323847999989
 21
15497.22801100001
 31
0.0
  0
LINE
  5
447E
  8
2-0
  6
CONTINUOUS
 62
     3
 10
20196.323847999989
 20
15532.227879
 30
0.0
 11
20196.323847999989
 21
15557.22919799999
 31
0.0
  0
LINE
  5
447F
  8
2-0
  6
CONTINUOUS
 62
     3
 10
20243.327516999991
 20
15557.22919799999
 30
0.0
 11
20243.327516999991
 21
15472.23263
 31
0.0
  0
LINE
  5
4480
  8
2-0
  6
CONTINUOUS
 62
     3
 10
25372.319677999989
 20
19819.23302600002
 30
0.0
 11
25372.319677999989
 21
19934.229199000009
 31
0.0
  0
LINE
  5
4481
  8
2-0
  6
CENTER2
 62
     6
 10
18865.366816999991
 20
19891.730914
 30
0.0
 11
26222.320997999988
 21
19891.730914
 31
0.0
  0
LINE
  5
4482
  8
2-0
  6
CENTER2
 62
     6
 10
18865.366816999991
 20
16973.730914
 30
0.0
 11
26222.320997999988
 21
16973.730914
 31
0.0
  0
LINE
  5
4483
  8
2-0
  6
CENTER2
 62
     6
 10
18865.366816999991
 20
13705.230913999991
 30
0.0
 11
26222.320997999988
 21
13705.230913999991
 31
0.0
  0
LINE
  5
4484
  8
2-0
  6
CONTINUOUS
 62
     3
 10
20617.913071999999
 20
19922.229357000011
 30
0.0
 11
20617.913071999999
 21
19929.234873000001
 31
0.0
  0
LINE
  5
4485
  8
2-0
  6
CONTINUOUS
 62
     3
 10
20617.913071999999
 20
19929.234873000001
 30
0.0
 11
20612.91280799999
 21
19929.234873000001
 31
0.0
  0
LINE
  5
4486
  8
2-0
  6
CONTINUOUS
 62
     3
 10
20612.91280799999
 20
19929.234873000001
 30
0.0
 11
20612.91280799999
 21
19904.22563600001
 31
0.0
  0
LINE
  5
4487
  8
2-0
  6
CONTINUOUS
 62
     3
 10
20612.91280799999
 20
19904.22563600001
 30
0.0
 11
20630.914550000001
 21
19904.22563600001
 31
0.0
  0
LINE
  5
4488
  8
2-0
  6
CONTINUOUS
 62
     3
 10
20630.914550000001
 20
19904.22563600001
 30
0.0
 11
20630.914550000001
 21
19934.229199000009
 31
0.0
  0
LINE
  5
4489
  8
2-0
  6
CONTINUOUS
 62
     3
 10
20614.815125000001
 20
19904.22563600001
 30
0.0
 11
20620.81900499999
 21
19904.22563600001
 31
0.0
  0
LINE
  5
448A
  8
2-0
  6
CONTINUOUS
 62
     3
 10
20620.81900499999
 20
19904.22563600001
 30
0.0
 11
20620.81900499999
 21
19934.229199000009
 31
0.0
  0
LINE
  5
448B
  8
2-0
  6
CONTINUOUS
 62
     3
 10
20583.823782999982
 20
19934.229199000009
 30
0.0
 11
20620.81900499999
 21
19934.229199000009
 31
0.0
  0
LINE
  5
448C
  8
2-0
  6
CONTINUOUS
 62
     3
 10
20583.823782999982
 20
19904.22563600001
 30
0.0
 11
20583.823782999982
 21
19934.229199000009
 31
0.0
  0
LINE
  5
448D
  8
2-0
  6
CONTINUOUS
 62
     3
 10
20589.817765
 20
19904.22563600001
 30
0.0
 11
20583.823782999982
 21
19904.22563600001
 31
0.0
  0
LINE
  5
448E
  8
2-0
  6
CONTINUOUS
 62
     3
 10
20573.728238
 20
19904.22563600001
 30
0.0
 11
20573.728238
 21
19934.229199000009
 31
0.0
  0
LINE
  5
448F
  8
2-0
  6
CONTINUOUS
 62
     3
 10
20591.724041000001
 20
19904.22563600001
 30
0.0
 11
20573.728238
 21
19904.22563600001
 31
0.0
  0
LINE
  5
4490
  8
2-0
  6
CONTINUOUS
 62
     3
 10
20591.724041000001
 20
19929.234873000001
 30
0.0
 11
20591.724041000001
 21
19904.22563600001
 31
0.0
  0
LINE
  5
4491
  8
2-0
  6
CONTINUOUS
 62
     3
 10
20586.725757
 20
19929.234873000001
 30
0.0
 11
20591.724041000001
 21
19929.234873000001
 31
0.0
  0
LINE
  5
4492
  8
2-0
  6
CONTINUOUS
 62
     3
 10
20586.725757
 20
19922.229357000011
 30
0.0
 11
20586.725757
 21
19929.234873000001
 31
0.0
  0
LINE
  5
4493
  8
2-0
  6
CONTINUOUS
 62
     3
 10
20277.62663599999
 20
19934.229199000009
 30
0.0
 11
20573.728238
 21
19934.229199000009
 31
0.0
  0
LINE
  5
4494
  8
2-0
  6
CONTINUOUS
 62
     3
 10
20152.325089000002
 20
19849.23263000001
 30
0.0
 11
25291.317777999971
 21
19849.23263000001
 31
0.0
  0
LINE
  5
4495
  8
2-0
  6
CONTINUOUS
 62
     3
 10
20152.325089000002
 20
14141.268644000011
 30
0.0
 11
20152.325089000002
 21
14785.135283000011
 31
0.0
  0
LINE
  5
4496
  8
2-0
  6
CENTER2
 62
     6
 10
20194.821393999991
 20
21134.229199000009
 30
0.0
 11
20194.821393999991
 21
13079.46747999999
 31
0.0
  0
LINE
  5
4497
  8
2-0
  6
CENTER2
 62
     6
 10
25329.821393999991
 20
21134.229199000009
 30
0.0
 11
25329.821393999991
 21
13079.46747999999
 31
0.0
  0
LINE
  5
4498
  8
2-0
  6
CONTINUOUS
 62
     3
 10
25372.319677999989
 20
19808.935570000001
 30
0.0
 11
25372.319677999989
 21
19162.327039499982
 31
0.0
  0
LINE
  5
4499
  8
2-0
  6
CONTINUOUS
 62
     3
 10
20152.325089000002
 20
19808.935570000001
 30
0.0
 11
20152.325089000002
 21
19162.327039499982
 31
0.0
  0
LINE
  5
449A
  8
2-0
  6
CENTER2
 62
     6
 10
22762.321393999991
 20
21134.229199000009
 30
0.0
 11
22762.321393999991
 21
13513.82631299999
 31
0.0
  0
LINE
  5
449B
  8
2-0
  6
CONTINUOUS
 62
     3
 10
20164.326909999982
 20
14097.13725600002
 30
0.0
 11
20157.329312000002
 21
14097.13725600002
 31
0.0
  0
LINE
  5
449C
  8
2-0
  6
CONTINUOUS
 62
     3
 10
20157.329312000002
 20
14097.13725600002
 30
0.0
 11
20157.329312000002
 21
14102.131582000011
 31
0.0
  0
LINE
  5
449D
  8
2-0
  6
CONTINUOUS
 62
     3
 10
20157.329312000002
 20
14102.131582000011
 30
0.0
 11
20182.322714000002
 21
14102.131582000011
 31
0.0
  0
LINE
  5
449E
  8
2-0
  6
CONTINUOUS
 62
     3
 10
20182.322714000002
 20
14102.131582000011
 30
0.0
 11
20182.322714000002
 21
14084.135778000011
 31
0.0
  0
LINE
  5
449F
  8
2-0
  6
CONTINUOUS
 62
     3
 10
20182.322714000002
 20
14084.135778000011
 30
0.0
 11
20152.325089000002
 21
14084.135778000011
 31
0.0
  0
LINE
  5
44A0
  8
2-0
  6
CONTINUOUS
 62
     3
 10
20182.322714000002
 20
14100.23322400002
 30
0.0
 11
20182.322714000002
 21
14094.231323000011
 31
0.0
  0
LINE
  5
44A1
  8
2-0
  6
CONTINUOUS
 62
     3
 10
20182.322714000002
 20
14094.231323000011
 30
0.0
 11
20152.325089000002
 21
14094.231323000011
 31
0.0
  0
LINE
  5
44A2
  8
2-0
  6
CONTINUOUS
 62
     3
 10
20152.325089000002
 20
14094.231323000011
 30
0.0
 11
20152.325089000002
 21
14131.230505
 31
0.0
  0
LINE
  5
44A3
  8
2-0
  6
CONTINUOUS
 62
     3
 10
20182.322714000002
 20
14131.230505
 30
0.0
 11
20152.325089000002
 21
14131.230505
 31
0.0
  0
LINE
  5
44A4
  8
2-0
  6
CONTINUOUS
 62
     3
 10
20182.322714000002
 20
14125.23454300002
 30
0.0
 11
20182.322714000002
 21
14131.230505
 31
0.0
  0
LINE
  5
44A5
  8
2-0
  6
CONTINUOUS
 62
     3
 10
20182.322714000002
 20
14141.331988
 30
0.0
 11
20152.325089000002
 21
14141.331988
 31
0.0
  0
LINE
  5
44A6
  8
2-0
  6
CONTINUOUS
 62
     3
 10
20182.322714000002
 20
14123.324307999999
 30
0.0
 11
20182.322714000002
 21
14141.331988
 31
0.0
  0
LINE
  5
44A7
  8
2-0
  6
CONTINUOUS
 62
     3
 10
20157.329312000002
 20
14123.324307999999
 30
0.0
 11
20182.322714000002
 21
14123.324307999999
 31
0.0
  0
LINE
  5
44A8
  8
2-0
  6
CONTINUOUS
 62
     3
 10
20157.329312000002
 20
14128.330510000011
 30
0.0
 11
20157.329312000002
 21
14123.324307999999
 31
0.0
  0
LINE
  5
44A9
  8
2-0
  6
CONTINUOUS
 62
     3
 10
20164.326909999982
 20
14128.330510000011
 30
0.0
 11
20157.329312000002
 21
14128.330510000011
 31
0.0
  0
LINE
  5
44AA
  8
2-0
  6
CONTINUOUS
 62
     3
 10
20152.325089000002
 20
13787.768921000001
 30
0.0
 11
20152.325089000002
 21
14084.135778000011
 31
0.0
  0
LINE
  5
44AB
  8
2-0
  6
CONTINUOUS
 62
     3
 10
20233.323029999981
 20
13747.729198000001
 30
0.0
 11
20233.323029999981
 21
19934.229199000009
 31
0.0
  0
LINE
  5
44AC
  8
2-0
  6
CONTINUOUS
 62
     3
 10
25360.317856999998
 20
14097.137256000011
 30
0.0
 11
25367.319414000001
 21
14097.137256000011
 31
0.0
  0
LINE
  5
44AD
  8
2-0
  6
CONTINUOUS
 62
     3
 10
25367.319414000001
 20
14097.137256000011
 30
0.0
 11
25367.319414000001
 21
14102.131582000011
 31
0.0
  0
LINE
  5
44AE
  8
2-0
  6
CONTINUOUS
 62
     3
 10
25367.319414000001
 20
14102.131582000011
 30
0.0
 11
25342.322053999971
 21
14102.131582000011
 31
0.0
  0
LINE
  5
44AF
  8
2-0
  6
CONTINUOUS
 62
     3
 10
25342.322053999971
 20
14102.131582000011
 30
0.0
 11
25342.322053999971
 21
14084.135778000011
 31
0.0
  0
LINE
  5
44B0
  8
2-0
  6
CONTINUOUS
 62
     3
 10
25342.322053999971
 20
14084.135778000011
 30
0.0
 11
25372.319677999989
 21
14084.135778000011
 31
0.0
  0
LINE
  5
44B1
  8
2-0
  6
CONTINUOUS
 62
     3
 10
25342.322053999971
 20
14100.233224000011
 30
0.0
 11
25342.322053999971
 21
14094.231322999991
 31
0.0
  0
LINE
  5
44B2
  8
2-0
  6
CONTINUOUS
 62
     3
 10
25342.322053999971
 20
14094.231322999991
 30
0.0
 11
25372.319677999989
 21
14094.231322999991
 31
0.0
  0
LINE
  5
44B3
  8
2-0
  6
CONTINUOUS
 62
     3
 10
25372.319677999989
 20
14094.231322999991
 30
0.0
 11
25372.319677999989
 21
14131.230505
 31
0.0
  0
LINE
  5
44B4
  8
2-0
  6
CONTINUOUS
 62
     3
 10
25342.322053999971
 20
14131.230505
 30
0.0
 11
25372.319677999989
 21
14131.230505
 31
0.0
  0
LINE
  5
44B5
  8
2-0
  6
CONTINUOUS
 62
     3
 10
25342.322053999971
 20
14125.23454300002
 30
0.0
 11
25342.322053999971
 21
14131.230505
 31
0.0
  0
LINE
  5
44B6
  8
2-0
  6
CONTINUOUS
 62
     3
 10
25342.322053999971
 20
14141.331988
 30
0.0
 11
25372.319677999989
 21
14141.331988
 31
0.0
  0
LINE
  5
44B7
  8
2-0
  6
CONTINUOUS
 62
     3
 10
25342.322053999971
 20
14123.32430799999
 30
0.0
 11
25342.322053999971
 21
14141.331988
 31
0.0
  0
LINE
  5
44B8
  8
2-0
  6
CONTINUOUS
 62
     3
 10
25367.319414000001
 20
14123.32430799999
 30
0.0
 11
25342.322053999971
 21
14123.32430799999
 31
0.0
  0
LINE
  5
44B9
  8
2-0
  6
CONTINUOUS
 62
     3
 10
25367.319414000001
 20
14128.330509999991
 30
0.0
 11
25367.319414000001
 21
14123.32430799999
 31
0.0
  0
LINE
  5
44BA
  8
2-0
  6
CONTINUOUS
 62
     3
 10
25360.317856999998
 20
14128.330509999991
 30
0.0
 11
25367.319414000001
 21
14128.330509999991
 31
0.0
  0
LINE
  5
44BB
  8
2-0
  6
CONTINUOUS
 62
     3
 10
25372.319677999989
 20
13787.768921000001
 30
0.0
 11
25372.319677999989
 21
14084.135778000011
 31
0.0
  0
LINE
  5
44BC
  8
2-0
  6
CONTINUOUS
 62
     3
 10
25291.317777999971
 20
13747.729198000001
 30
0.0
 11
25291.317777999971
 21
19934.229199000009
 31
0.0
  0
LINE
  5
44BD
  8
2-0
  6
CONTINUOUS
 62
     3
 10
22719.829047999981
 20
19091.233619499999
 30
0.0
 11
22804.821658000001
 21
19091.233619499999
 31
0.0
  0
LINE
  5
44BE
  8
2-0
  6
CONTINUOUS
 62
     3
 10
22804.821658000001
 20
19176.228208500001
 30
0.0
 11
22719.829047999981
 21
19176.228208500001
 31
0.0
  0
LINE
  5
44BF
  8
2-0
  6
CONTINUOUS
 62
     3
 10
22719.829047999981
 20
19176.228208500001
 30
0.0
 11
22719.829047999981
 21
19091.233619499999
 31
0.0
  0
LINE
  5
44C0
  8
2-0
  6
CONTINUOUS
 62
     3
 10
22804.821658000001
 20
19091.233619499999
 30
0.0
 11
22804.821658000001
 21
19176.228208500001
 31
0.0
  0
LINE
  5
44C1
  8
2-0
  6
CONTINUOUS
 62
     6
 10
22723.386243000001
 20
19082.092981000009
 30
0.0
 11
22272.088410713499
 21
18339.130770500011
 31
0.0
  0
LINE
  5
44C2
  8
2-0
  6
CONTINUOUS
 62
     6
 10
21241.739091713502
 20
18339.130770500011
 30
0.0
 11
22272.088410713499
 21
18339.130770500011
 31
0.0
  0
LINE
  5
44C3
  8
2-0
  6
CONTINUOUS
 62
     6
 10
22663.107922999981
 20
18931.497146000009
 30
0.0
 11
22723.386243000001
 21
19082.092981000009
 31
0.0
  0
LINE
  5
44C4
  8
2-0
  6
CONTINUOUS
 62
     6
 10
22723.386243000001
 20
19082.092981000009
 30
0.0
 11
22617.527527999991
 21
18959.184672999989
 31
0.0
  0
LINE
  5
44C5
  8
2-0
  6
CONTINUOUS
 62
     6
 10
22663.107922999981
 20
18931.497146000009
 30
0.0
 11
22617.527527999991
 21
18959.184672999989
 31
0.0
  0
LINE
  5
44C6
  8
2-0
  6
CONTINUOUS
 62
     6
 10
22617.527527999991
 20
18959.184672999989
 30
0.0
 11
22723.386243000001
 21
19082.092981000009
 31
0.0
  0
LINE
  5
44C7
  8
2-0
  6
CONTINUOUS
 62
     6
 10
22723.386243000001
 20
19082.092981000009
 30
0.0
 11
22663.107922999981
 21
18931.497146000009
 31
0.0
  0
LINE
  5
44C8
  8
2-0
  6
CONTINUOUS
 62
     6
 10
22663.107922999981
 20
18931.497146000009
 30
0.0
 11
22723.386243000001
 21
19082.092981000009
 31
0.0
  0
LINE
  5
44C9
  8
2-0
  6
CONTINUOUS
 62
     6
 10
22617.527527999991
 20
18959.184672999989
 30
0.0
 11
22723.386243000001
 21
19082.092981000009
 31
0.0
  0
LINE
  5
44CA
  8
2-0
  6
CONTINUOUS
 62
     6
 10
22617.527527999991
 20
18959.184672999989
 30
0.0
 11
22663.107922999981
 21
18931.497146000009
 31
0.0
  0
CIRCLE
  5
44CB
  8
2-0
  6
CONTINUOUS
 62
     4
 10
18665.369126999991
 20
19891.730914
 30
0.0
 40
200.00001
  0
CIRCLE
  5
44CC
  8
2-0
  6
CONTINUOUS
 62
     4
 10
18665.369126999991
 20
16973.730914
 30
0.0
 40
200.00001
  0
CIRCLE
  5
44CD
  8
2-0
  6
CONTINUOUS
 62
     4
 10
18665.369126999991
 20
13705.230913999991
 30
0.0
 40
200.00001
  0
CIRCLE
  5
44CE
  8
2-0
  6
CONTINUOUS
 62
     4
 10
22762.321393999991
 20
21334.233818000012
 30
0.0
 40
200.00001
  0
CIRCLE
  5
44CF
  8
2-0
  6
CONTINUOUS
 62
     4
 10
20194.821393999991
 20
21334.233818000012
 30
0.0
 40
200.00001
  0
TEXT
  5
44D0
  8
2-0
  6
CONTINUOUS
 62
     7
 10
23726.66670099998
 20
13145.232035999999
 30
0.0
 40
160.0
  1
前柱（右）
 50
0.000213
 72
     4
 11
24142.666403593001
 21
13225.23358250079
 31
0.0
  0
TEXT
  5
44D1
  8
2-0
  6
CONTINUOUS
 62
     7
 10
23743.365919999989
 20
18174.854080000001
 30
0.0
 40
160.0
  1
補強柱 後
 50
359.99984199999989
 72
     4
 11
24154.032807274711
 21
18254.852947536991
 31
0.0
  0
TEXT
  5
44D2
  8
2-0
  6
CONTINUOUS
 62
     7
 10
23931.261824000001
 20
16424.22405200002
 30
0.0
 40
160.0
  1
壁パネル
 50
359.99982299999999
 72
     4
 11
24293.928737803551
 21
16504.222931637891
 31
0.0
  0
TEXT
  5
44D3
  8
2-0
  6
CONTINUOUS
 62
     7
 10
23651.258919999989
 20
17261.411948000012
 30
0.0
 40
160.0
  1
中柱（左右）
 50
0.000354
 72
     4
 11
24168.591759046201
 21
17341.415144324659
 31
0.0
  0
TEXT
  5
44D4
  8
2-0
  6
CONTINUOUS
 62
     7
 10
24331.261163999989
 20
14118.273302
 30
0.0
 40
160.0
  1
下枠
 50
0.001063
 72
     4
 11
24501.926346409291
 21
14198.276468339291
 31
0.0
  0
TEXT
  5
44D5
  8
2-0
  6
CONTINUOUS
 62
     7
 10
23743.365919999971
 20
15257.09459100001
 30
0.0
 40
160.0
  1
補強柱 前
 50
359.99937
 72
     4
 11
24154.033466287761
 21
15337.09007547934
 31
0.0
  0
TEXT
  5
44D6
  8
2-0
  6
CONTINUOUS
 62
     7
 10
23826.226588000001
 20
18864.680686499989
 30
0.0
 40
160.0
  1
間柱（側）
 72
     4
 11
24247.55992133333
 21
18944.680686499989
 31
0.0
  0
TEXT
  5
44D7
  8
2-0
  6
CONTINUOUS
 62
     7
 10
26144.816906999979
 20
20744.228406999999
 30
0.0
 40
160.0
  1
後柱（左右）
 50
0.000354
 72
     4
 11
26656.81641271296
 21
20824.231570372842
 31
0.0
  0
TEXT
  5
44D8
  8
2-0
  6
CONTINUOUS
 62
     7
 10
23161.410156000002
 20
14283.069213999979
 30
0.0
 40
160.0
  1
前柱（中）
 72
     4
 11
23577.410156000002
 21
14363.069213999979
 31
0.0
  0
TEXT
  5
44D9
  8
2-0
  6
CONTINUOUS
 62
     7
 10
21598.190269999999
 20
19297.111246000011
 30
0.0
 40
160.0
  1
間柱（後）
 72
     4
 11
22019.523603333331
 21
19377.111246000011
 31
0.0
  0
TEXT
  5
44DA
  8
2-0
  6
CONTINUOUS
 62
     7
 10
23032.614759000011
 20
19365.855967000021
 30
0.0
 40
160.0
  1
後柱（中）
 72
     4
 11
23448.614759000011
 21
19445.855967000021
 31
0.0
  0
TEXT
  5
44DB
  8
2-0
  6
CONTINUOUS
 62
     7
 10
18617.36975999998
 20
19797.250472000022
 30
0.0
 40
160.0
  1
C
 72
     4
 11
18670.703093333312
 21
19877.250472000022
 31
0.0
  0
TEXT
  5
44DC
  8
2-0
  6
CONTINUOUS
 62
     7
 10
18617.590475999979
 20
16903.336832000019
 30
0.0
 40
160.0
  1
B
 72
     4
 11
18670.923809333319
 21
16983.336832000019
 31
0.0
  0
TEXT
  5
44DD
  8
2-0
  6
CONTINUOUS
 62
     7
 10
18617.633035999981
 20
13616.62370299999
 30
0.0
 40
160.0
  1
A
 72
     4
 11
18670.96636933331
 21
13696.62370299999
 31
0.0
  0
TEXT
  5
44DE
  8
2-0
  6
CONTINUOUS
 62
     7
 10
22710.689611000002
 20
21238.708189000012
 30
0.0
 40
160.0
  1
2
 72
     4
 11
22764.02294433333
 21
21318.708189000012
 31
0.0
  0
TEXT
  5
44DF
  8
2-0
  6
CONTINUOUS
 62
     7
 10
20150.61478499998
 20
21245.466266000029
 30
0.0
 40
160.0
  1
1
 72
     4
 11
20177.281451666651
 21
21325.466266000029
 31
0.0
  0
TEXT
  5
44E0
  8
2-0
  6
CONTINUOUS
 62
     7
 10
21363.720985713499
 20
18412.131457500011
 30
0.0
 40
160.0
  1
梁補助柱
 72
     4
 11
21726.38765238017
 21
18492.131457500011
 31
0.0
  0
LINE
  5
44E1
  8
2-0
  6
CONTINUOUS
 62
     3
 10
24590.321974999992
 20
19934.229199000009
 30
0.0
 11
24553.320812999991
 21
19934.229199000009
 31
0.0
  0
LINE
  5
44E2
  8
2-0
  6
CONTINUOUS
 62
     3
 10
24590.321974999992
 20
19904.22563600001
 30
0.0
 11
24590.321974999992
 21
19934.229199000009
 31
0.0
  0
LINE
  5
44E3
  8
2-0
  6
CONTINUOUS
 62
     3
 10
24584.322053999971
 20
19904.22563600001
 30
0.0
 11
24590.321974999992
 21
19904.22563600001
 31
0.0
  0
LINE
  5
44E4
  8
2-0
  6
CONTINUOUS
 62
     3
 10
24600.419498999989
 20
19904.22563600001
 30
0.0
 11
24600.419498999989
 21
19934.229199000009
 31
0.0
  0
LINE
  5
44E5
  8
2-0
  6
CONTINUOUS
 62
     3
 10
24582.415777999991
 20
19904.22563600001
 30
0.0
 11
24600.419498999989
 21
19904.22563600001
 31
0.0
  0
LINE
  5
44E6
  8
2-0
  6
CONTINUOUS
 62
     3
 10
24582.415777999991
 20
19929.234873000001
 30
0.0
 11
24582.415777999991
 21
19904.22563600001
 31
0.0
  0
LINE
  5
44E7
  8
2-0
  6
CONTINUOUS
 62
     3
 10
24587.41604199999
 20
19929.234873000001
 30
0.0
 11
24582.415777999991
 21
19929.234873000001
 31
0.0
  0
LINE
  5
44E8
  8
2-0
  6
CONTINUOUS
 62
     3
 10
24587.41604199999
 20
19922.229357000011
 30
0.0
 11
24587.41604199999
 21
19929.234873000001
 31
0.0
  0
LINE
  5
44E9
  8
2-0
  6
CONTINUOUS
 62
     3
 10
24556.226746999972
 20
19922.229357000011
 30
0.0
 11
24556.226746999972
 21
19929.234873000001
 31
0.0
  0
LINE
  5
44EA
  8
2-0
  6
CONTINUOUS
 62
     3
 10
24556.226746999972
 20
19929.234873000001
 30
0.0
 11
24561.227010999992
 21
19929.234873000001
 31
0.0
  0
LINE
  5
44EB
  8
2-0
  6
CONTINUOUS
 62
     3
 10
24561.227010999992
 20
19929.234873000001
 30
0.0
 11
24561.227010999992
 21
19904.22563600001
 31
0.0
  0
LINE
  5
44EC
  8
2-0
  6
CONTINUOUS
 62
     3
 10
24561.227010999992
 20
19904.22563600001
 30
0.0
 11
24543.227247999988
 21
19904.22563600001
 31
0.0
  0
LINE
  5
44ED
  8
2-0
  6
CONTINUOUS
 62
     3
 10
24543.227247999988
 20
19904.22563600001
 30
0.0
 11
24543.227247999988
 21
19934.229199000009
 31
0.0
  0
LINE
  5
44EE
  8
2-0
  6
CONTINUOUS
 62
     3
 10
24559.32073399999
 20
19904.22563600001
 30
0.0
 11
24553.320812999991
 21
19904.22563600001
 31
0.0
  0
LINE
  5
44EF
  8
2-0
  6
CONTINUOUS
 62
     3
 10
24553.320812999991
 20
19904.22563600001
 30
0.0
 11
24553.320812999991
 21
19934.229199000009
 31
0.0
  0
LINE
  5
44F0
  8
2-0
  6
CONTINUOUS
 62
     3
 10
23855.220808499991
 20
19922.229357000011
 30
0.0
 11
23855.220808499991
 21
19929.234873000001
 31
0.0
  0
LINE
  5
44F1
  8
2-0
  6
CONTINUOUS
 62
     3
 10
23855.220808499991
 20
19929.234873000001
 30
0.0
 11
23860.221071499989
 21
19929.234873000001
 31
0.0
  0
LINE
  5
44F2
  8
2-0
  6
CONTINUOUS
 62
     3
 10
23860.221071499989
 20
19929.234873000001
 30
0.0
 11
23860.221071499989
 21
19904.22563600001
 31
0.0
  0
LINE
  5
44F3
  8
2-0
  6
CONTINUOUS
 62
     3
 10
23860.221071499989
 20
19904.22563600001
 30
0.0
 11
23842.227248499981
 21
19904.22563600001
 31
0.0
  0
LINE
  5
44F4
  8
2-0
  6
CONTINUOUS
 62
     3
 10
23842.227248499981
 20
19904.22563600001
 30
0.0
 11
23842.227248499981
 21
19934.229199000009
 31
0.0
  0
LINE
  5
44F5
  8
2-0
  6
CONTINUOUS
 62
     3
 10
23858.31875449996
 20
19904.22563600001
 30
0.0
 11
23852.320813499991
 21
19904.22563600001
 31
0.0
  0
LINE
  5
44F6
  8
2-0
  6
CONTINUOUS
 62
     3
 10
23852.320813499991
 20
19904.22563600001
 30
0.0
 11
23852.320813499991
 21
19934.229199000009
 31
0.0
  0
LINE
  5
44F7
  8
2-0
  6
CONTINUOUS
 62
     3
 10
23889.321974499991
 20
19934.229199000009
 30
0.0
 11
23852.320813499991
 21
19934.229199000009
 31
0.0
  0
LINE
  5
44F8
  8
2-0
  6
CONTINUOUS
 62
     3
 10
23889.321974499991
 20
19904.22563600001
 30
0.0
 11
23889.321974499991
 21
19934.229199000009
 31
0.0
  0
LINE
  5
44F9
  8
2-0
  6
CONTINUOUS
 62
     3
 10
23883.316115499991
 20
19904.22563600001
 30
0.0
 11
23889.321974499991
 21
19904.22563600001
 31
0.0
  0
LINE
  5
44FA
  8
2-0
  6
CONTINUOUS
 62
     3
 10
23899.415539499991
 20
19904.22563600001
 30
0.0
 11
23899.415539499991
 21
19934.229199000009
 31
0.0
  0
LINE
  5
44FB
  8
2-0
  6
CONTINUOUS
 62
     3
 10
23881.419736499982
 20
19904.22563600001
 30
0.0
 11
23899.415539499991
 21
19904.22563600001
 31
0.0
  0
LINE
  5
44FC
  8
2-0
  6
CONTINUOUS
 62
     3
 10
23881.419736499982
 20
19929.234873000001
 30
0.0
 11
23881.419736499982
 21
19904.22563600001
 31
0.0
  0
LINE
  5
44FD
  8
2-0
  6
CONTINUOUS
 62
     3
 10
23886.410102499991
 20
19929.234873000001
 30
0.0
 11
23881.419736499982
 21
19929.234873000001
 31
0.0
  0
LINE
  5
44FE
  8
2-0
  6
CONTINUOUS
 62
     3
 10
23886.410102499991
 20
19922.229357000011
 30
0.0
 11
23886.410102499991
 21
19929.234873000001
 31
0.0
  0
LINE
  5
44FF
  8
2-0
  6
CONTINUOUS
 62
     3
 10
23198.414550000001
 20
19934.22919900003
 30
0.0
 11
23842.227248499981
 21
19934.229199000009
 31
0.0
  0
LINE
  5
4500
  8
2-0
  6
CONTINUOUS
 62
     3
 10
25247.705023999992
 20
19934.229199000009
 30
0.0
 11
24600.419498999989
 21
19934.229199000009
 31
0.0
  0
LINE
  5
4501
  8
2-0
  6
CONTINUOUS
 62
     3
 10
24543.227247999988
 20
19934.229199000009
 30
0.0
 11
23899.415539499991
 21
19934.229199000009
 31
0.0
  0
LINE
  5
4502
  8
2-0
  6
CONTINUOUS
 62
     3
 10
23185.413071999988
 20
19922.229357000011
 30
0.0
 11
23185.413071999988
 21
19929.234873000001
 31
0.0
  0
LINE
  5
4503
  8
2-0
  6
CONTINUOUS
 62
     3
 10
23185.413071999988
 20
19929.234873000001
 30
0.0
 11
23180.41280799999
 21
19929.234873000001
 31
0.0
  0
LINE
  5
4504
  8
2-0
  6
CONTINUOUS
 62
     3
 10
23180.41280799999
 20
19929.234873000001
 30
0.0
 11
23180.41280799999
 21
19904.22563600001
 31
0.0
  0
LINE
  5
4505
  8
2-0
  6
CONTINUOUS
 62
     3
 10
23180.41280799999
 20
19904.22563600001
 30
0.0
 11
23198.414550000001
 21
19904.22563600001
 31
0.0
  0
LINE
  5
4506
  8
2-0
  6
CONTINUOUS
 62
     3
 10
23198.414550000001
 20
19904.22563600001
 30
0.0
 11
23198.414550000001
 21
19934.229199000009
 31
0.0
  0
LINE
  5
4507
  8
2-0
  6
CONTINUOUS
 62
     3
 10
23182.315125000001
 20
19904.22563600001
 30
0.0
 11
23188.31900499999
 21
19904.22563600001
 31
0.0
  0
LINE
  5
4508
  8
2-0
  6
CONTINUOUS
 62
     3
 10
23188.31900499999
 20
19904.22563600001
 30
0.0
 11
23188.31900499999
 21
19934.229199000009
 31
0.0
  0
LINE
  5
4509
  8
2-0
  6
CONTINUOUS
 62
     3
 10
23151.323782999989
 20
19934.229199000009
 30
0.0
 11
23188.31900499999
 21
19934.229199000009
 31
0.0
  0
LINE
  5
450A
  8
2-0
  6
CONTINUOUS
 62
     3
 10
23151.323782999989
 20
19904.22563600001
 30
0.0
 11
23151.323782999989
 21
19934.229199000009
 31
0.0
  0
LINE
  5
450B
  8
2-0
  6
CONTINUOUS
 62
     3
 10
23157.317765
 20
19904.22563600001
 30
0.0
 11
23151.323782999989
 21
19904.22563600001
 31
0.0
  0
LINE
  5
450C
  8
2-0
  6
CONTINUOUS
 62
     3
 10
23141.228238
 20
19904.22563600001
 30
0.0
 11
23141.228238
 21
19934.229199000009
 31
0.0
  0
LINE
  5
450D
  8
2-0
  6
CONTINUOUS
 62
     3
 10
23159.224041000001
 20
19904.22563600001
 30
0.0
 11
23141.228238
 21
19904.22563600001
 31
0.0
  0
LINE
  5
450E
  8
2-0
  6
CONTINUOUS
 62
     3
 10
23159.224041000001
 20
19929.234873000001
 30
0.0
 11
23159.224041000001
 21
19904.22563600001
 31
0.0
  0
LINE
  5
450F
  8
2-0
  6
CONTINUOUS
 62
     3
 10
23154.225756999989
 20
19929.234873000001
 30
0.0
 11
23159.224041000001
 21
19929.234873000001
 31
0.0
  0
LINE
  5
4510
  8
2-0
  6
CONTINUOUS
 62
     3
 10
23154.225756999989
 20
19922.229357000011
 30
0.0
 11
23154.225756999989
 21
19929.234873000001
 31
0.0
  0
LINE
  5
4511
  8
2-0
  6
CONTINUOUS
 62
     3
 10
22845.12663599999
 20
19934.229199000009
 30
0.0
 11
23141.228238
 21
19934.229199000009
 31
0.0
  0
LINE
  5
4512
  8
2-0
  6
CONTINUOUS
 62
     3
 10
22680.893897000002
 20
19934.229199000009
 30
0.0
 11
22032.919498999981
 21
19934.229199000009
 31
0.0
  0
LINE
  5
4513
  8
2-0
  6
CONTINUOUS
 62
     3
 10
25372.319677999989
 20
15486.370351
 30
0.0
 11
25372.319677999989
 21
14842.331493000011
 31
0.0
  0
LINE
  5
4514
  8
2-0
  6
CONTINUOUS
 62
     3
 10
25372.319677999989
 20
14785.135283
 30
0.0
 11
25372.319677999989
 21
14141.331988
 31
0.0
  0
CIRCLE
  5
4515
  8
2-0
  6
CONTINUOUS
 62
     4
 10
25329.821393999991
 20
21334.233818000012
 30
0.0
 40
200.00001
  0
TEXT
  5
4516
  8
2-0
  6
CONTINUOUS
 62
     7
 10
25278.189611000002
 20
21238.708189000012
 30
0.0
 40
160.0
  1
3
 72
     4
 11
25331.52294433333
 21
21318.708189000012
 31
0.0
  0
LINE
  5
4517
  8
SUNPOU
  6
CONTINUOUS
 10
8969.8642839999866
 20
20114.226823000001
 30
0.0
 11
8969.8642839999866
 21
20911.19409077847
 31
0.0
  0
LINE
  5
4518
  8
SUNPOU
  6
CONTINUOUS
 10
8969.8642839999866
 20
13512.735599
 30
0.0
 11
8969.8642839999866
 21
12837.30948318962
 31
0.0
  0
LINE
  5
4519
  8
0-6
  6
CONTINUOUS
 62
     6
 10
11301.15148206636
 20
12712.730980000009
 30
0.0
 11
12101.152142066359
 21
12712.730980000009
 31
0.0
  0
LINE
  5
451A
  8
SUNPOU
  6
CONTINUOUS
 10
8882.5340609999967
 20
9424.5917609999997
 30
0.0
 11
8407.2449483597666
 21
9424.5917609999997
 31
0.0
  0
LINE
  5
451D
  8
WAKUSEN-01
 10
868.00000000000193
 20
22484.000000000011
 30
0.0
 11
32764.000000000011
 21
22484.000000000011
 31
0.0
  0
LINE
  5
4520
  8
WAKUSEN-01
 10
20560.0
 20
2484.0
 30
0.0
 11
32764.0
 21
2484.0
 31
0.0
  0
LINE
  5
4521
  8
WAKUSEN-02
 10
20560.0
 20
1655.9999999999991
 30
0.0
 11
26868.0
 21
1655.9999999999991
 31
0.0
  0
TEXT
  5
4522
  8
WAKUMOJI-01
 10
20670.260259962761
 20
2125.9030093393221
 30
0.0
 40
240.0
  1
名　称
  7
WAKUMOJI
  0
TEXT
  5
4523
  8
WAKUMOJI-01
 10
20656.505485091919
 20
1319.12897497982
 30
0.0
 40
240.0
  1
機種名
  7
WAKUMOJI
  0
LINE
  5
4526
  8
YODOROGO
 10
29977.604341291921
 20
1995.7494964292871
 30
0.0
 11
29829.604341291921
 21
1995.7494964292871
 31
0.0
1001
AUTOCAD_POSTSCRIPT_FIGURE
1002
{
1000
PSFILL
1000
Grayscale
1000
Grayscale
1070
    25
1002
}
  0
LINE
  5
4527
  8
YODOROGO
 10
29829.604341291921
 20
1947.749496429288
 30
0.0
 11
29977.604341291921
 21
1947.749496429288
 31
0.0
1001
AUTOCAD_POSTSCRIPT_FIGURE
1002
{
1000
PSFILL
1000
Grayscale
1000
Grayscale
1070
    25
1002
}
  0
LINE
  5
4528
  8
YODOROGO
 10
29977.604341291921
 20
1907.7494964292871
 30
0.0
 11
29829.604341291921
 21
1907.7494964292871
 31
0.0
1001
AUTOCAD_POSTSCRIPT_FIGURE
1002
{
1000
PSFILL
1000
Grayscale
1000
Grayscale
1070
    25
1002
}
  0
LINE
  5
4529
  8
YODOROGO
 10
29829.604341291921
 20
1859.749496429288
 30
0.0
 11
29977.604341291921
 21
1859.749496429288
 31
0.0
1001
AUTOCAD_POSTSCRIPT_FIGURE
1002
{
1000
PSFILL
1000
Grayscale
1000
Grayscale
1070
    25
1002
}
  0
LINE
  5
452A
  8
YODOROGO
 10
29977.604341291921
 20
1819.7494964292871
 30
0.0
 11
29829.604341291921
 21
1819.7494964292871
 31
0.0
1001
AUTOCAD_POSTSCRIPT_FIGURE
1002
{
1000
PSFILL
1000
Grayscale
1000
Grayscale
1070
    25
1002
}
  0
LINE
  5
452B
  8
YODOROGO
 10
29921.60434129191
 20
1707.749496429288
 30
0.0
 11
29977.604341291921
 21
1707.749496429288
 31
0.0
1001
AUTOCAD_POSTSCRIPT_FIGURE
1002
{
1000
PSFILL
1000
Grayscale
1000
Grayscale
1070
    25
1002
}
  0
LINE
  5
452C
  8
YODOROGO
 10
29737.604341291921
 20
1427.749496429288
 30
0.0
 11
29937.604341291932
 21
1481.3393349155101
 31
0.0
  0
LINE
  5
452D
  8
YODOROGO
 10
29949.60434129191
 20
1707.749496429288
 30
0.0
 11
29885.604341291921
 21
1707.749496429288
 31
0.0
  0
ARC
  5
452E
  8
YODOROGO
 10
30254.34774982791
 20
1807.864609233261
 30
0.0
 40
381.88686420564721
 50
213.96111677667841
 51
264.47872074317792
  0
ARC
  5
452F
  8
YODOROGO
 10
30254.347749827921
 20
1807.864609233302
 30
0.0
 40
381.8868642056816
 50
208.14114420486601
 51
212.9210361185994
  0
LINE
  5
4530
  8
YODOROGO
 10
29771.409872985321
 20
1556.807661346234
 30
0.0
 11
29933.78413250855
 21
1600.3157130570869
 31
0.0
  0
LINE
  5
4531
  8
YODOROGO
 10
29737.604341291921
 20
1427.749496429288
 30
0.0
 11
29937.604341291932
 21
1481.3393349155101
 31
0.0
  0
LINE
  5
4532
  8
YODOROGO
 10
29949.60434129191
 20
1707.749496429288
 30
0.0
 11
29885.604341291921
 21
1707.749496429288
 31
0.0
  0
ARC
  5
4533
  8
YODOROGO
 10
30254.34774982791
 20
1807.864609233261
 30
0.0
 40
381.88686420564721
 50
213.96111677667841
 51
264.47872074317792
  0
LINE
  5
4534
  8
YODOROGO
 10
28793.60434129191
 20
1819.7494964292871
 30
0.0
 11
28433.60434129191
 21
1819.7494964292871
 31
0.0
  0
LINE
  5
4535
  8
YODOROGO
 10
28513.60434129191
 20
1427.749496429288
 30
0.0
 11
28793.60434129191
 21
1427.749496429288
 31
0.0
  0
LINE
  5
4536
  8
YODOROGO
 10
28729.604341291921
 20
1923.7494964292871
 30
0.0
 11
28497.60434129191
 21
1923.7494964292871
 31
0.0
  0
LINE
  5
4537
  8
YODOROGO
 10
28585.604341291921
 20
2027.749496429288
 30
0.0
 11
28657.604341291921
 21
2027.749496429288
 31
0.0
  0
LINE
  5
4538
  8
YODOROGO
 10
28433.60434129191
 20
1707.749496429288
 30
0.0
 11
28433.60434129191
 21
1507.749496429288
 31
0.0
  0
LINE
  5
4539
  8
YODOROGO
 10
28497.60434129191
 20
1563.7494964292871
 30
0.0
 11
28497.60434129191
 21
1707.749496429288
 31
0.0
  0
LINE
  5
453A
  8
YODOROGO
 10
28585.604341291921
 20
1747.74949642929
 30
0.0
 11
28585.604341291921
 21
1547.749496429288
 31
0.0
  0
LINE
  5
453B
  8
YODOROGO
 10
27857.604341291921
 20
1683.749496429288
 30
0.0
 11
27777.604341291921
 21
1619.9724140445701
 31
0.0
  0
LINE
  5
453C
  8
YODOROGO
 10
27937.604341291921
 20
1619.9724140445701
 30
0.0
 11
27857.604341291921
 21
1683.749496429288
 31
0.0
  0
LINE
  5
453D
  8
YODOROGO
 10
27857.604341291921
 20
1707.749496429288
 30
0.0
 11
27937.604341291921
 21
1643.9724140445701
 31
0.0
  0
LINE
  5
453E
  8
YODOROGO
 10
27777.604341291921
 20
1643.9724140445701
 30
0.0
 11
27857.604341291921
 21
1707.749496429288
 31
0.0
  0
LINE
  5
453F
  8
YODOROGO
 10
28040.913204016892
 20
1659.749496429288
 30
0.0
 11
28040.913204016892
 21
1683.7494964292871
 31
0.0
  0
LINE
  5
4540
  8
YODOROGO
 10
27977.604341291921
 20
1683.7494964292871
 30
0.0
 11
27977.604341291921
 21
1667.749496429285
 31
0.0
  0
LINE
  5
4541
  8
YODOROGO
 10
28098.135520230931
 20
1707.749496429288
 30
0.0
 11
28098.135520230931
 21
1655.5036372746561
 31
0.0
1001
AUTOCAD_POSTSCRIPT_FIGURE
1002
{
1000
PSFILL
1000
Grayscale
1000
Grayscale
1070
   100
1002
}
  0
LINE
  5
4542
  8
YODOROGO
 10
28082.135520230921
 20
1655.5036372746561
 30
0.0
 11
28082.135520230921
 21
1707.749496429288
 31
0.0
1001
AUTOCAD_POSTSCRIPT_FIGURE
1002
{
1000
PSFILL
1000
Grayscale
1000
Grayscale
1070
   100
1002
}
  0
LINE
  5
4543
  8
YODOROGO
 10
27809.604341291921
 20
1608.771904043258
 30
0.0
 11
27809.604341291921
 21
1632.771904043258
 31
0.0
  0
LINE
  5
4544
  8
YODOROGO
 10
27905.604341291921
 20
1608.771904043258
 30
0.0
 11
27809.604341291921
 21
1608.771904043258
 31
0.0
  0
LINE
  5
4545
  8
YODOROGO
 10
27905.604341291921
 20
1632.771904043258
 30
0.0
 11
27905.604341291921
 21
1608.771904043258
 31
0.0
  0
LINE
  5
4546
  8
YODOROGO
 10
27809.604341291921
 20
1632.771904043258
 30
0.0
 11
27905.604341291921
 21
1632.771904043258
 31
0.0
  0
LINE
  5
4547
  8
YODOROGO
 10
27824.509588915738
 20
1568.5028573704751
 30
0.0
 11
27785.604341291921
 21
1475.7494964292871
 31
0.0
1001
AUTOCAD_POSTSCRIPT_FIGURE
1002
{
1000
PSFILL
1000
Grayscale
1000
Grayscale
1070
   100
1002
}
  0
LINE
  5
4548
  8
YODOROGO
 10
27777.604341291921
 20
1568.5028573704751
 30
0.0
 11
27824.509588915738
 21
1568.5028573704751
 31
0.0
1001
AUTOCAD_POSTSCRIPT_FIGURE
1002
{
1000
PSFILL
1000
Grayscale
1000
Grayscale
1070
   100
1002
}
  0
LINE
  5
4549
  8
YODOROGO
 10
27777.604341291921
 20
1588.5028573704751
 30
0.0
 11
27777.604341291921
 21
1568.5028573704751
 31
0.0
1001
AUTOCAD_POSTSCRIPT_FIGURE
1002
{
1000
PSFILL
1000
Grayscale
1000
Grayscale
1070
   100
1002
}
  0
LINE
  5
454A
  8
YODOROGO
 10
27937.604341291921
 20
1588.5028573704751
 30
0.0
 11
27777.604341291921
 21
1588.5028573704751
 31
0.0
1001
AUTOCAD_POSTSCRIPT_FIGURE
1002
{
1000
PSFILL
1000
Grayscale
1000
Grayscale
1070
   100
1002
}
  0
LINE
  5
454B
  8
YODOROGO
 10
27937.604341291921
 20
1568.5028573704751
 30
0.0
 11
27937.604341291921
 21
1588.5028573704751
 31
0.0
1001
AUTOCAD_POSTSCRIPT_FIGURE
1002
{
1000
PSFILL
1000
Grayscale
1000
Grayscale
1070
   100
1002
}
  0
LINE
  5
454C
  8
YODOROGO
 10
27844.509588915738
 20
1568.5028573704751
 30
0.0
 11
27937.604341291921
 21
1568.5028573704751
 31
0.0
1001
AUTOCAD_POSTSCRIPT_FIGURE
1002
{
1000
PSFILL
1000
Grayscale
1000
Grayscale
1070
   100
1002
}
  0
LINE
  5
454D
  8
YODOROGO
 10
27815.546718284771
 20
1495.7494964292871
 30
0.0
 11
27844.509588915738
 21
1568.5028573704751
 31
0.0
1001
AUTOCAD_POSTSCRIPT_FIGURE
1002
{
1000
PSFILL
1000
Grayscale
1000
Grayscale
1070
   100
1002
}
  0
LINE
  5
454E
  8
YODOROGO
 10
27902.054790808648
 20
1495.7494964292871
 30
0.0
 11
27815.546718284771
 21
1495.7494964292871
 31
0.0
1001
AUTOCAD_POSTSCRIPT_FIGURE
1002
{
1000
PSFILL
1000
Grayscale
1000
Grayscale
1070
   100
1002
}
  0
LINE
  5
454F
  8
YODOROGO
 10
27885.065004790951
 20
1536.2338106976929
 30
0.0
 11
27902.054790808648
 21
1495.7494964292871
 31
0.0
1001
AUTOCAD_POSTSCRIPT_FIGURE
1002
{
1000
PSFILL
1000
Grayscale
1000
Grayscale
1070
   100
1002
}
  0
LINE
  5
4550
  8
YODOROGO
 10
27901.065004790951
 20
1536.2338106976929
 30
0.0
 11
27885.065004790951
 21
1536.2338106976929
 31
0.0
1001
AUTOCAD_POSTSCRIPT_FIGURE
1002
{
1000
PSFILL
1000
Grayscale
1000
Grayscale
1070
   100
1002
}
  0
LINE
  5
4551
  8
YODOROGO
 10
27929.604341291921
 20
1475.7494964292871
 30
0.0
 11
27901.065004790951
 21
1536.2338106976929
 31
0.0
1001
AUTOCAD_POSTSCRIPT_FIGURE
1002
{
1000
PSFILL
1000
Grayscale
1000
Grayscale
1070
   100
1002
}
  0
LINE
  5
4552
  8
YODOROGO
 10
27785.604341291921
 20
1475.7494964292871
 30
0.0
 11
27929.604341291921
 21
1475.7494964292871
 31
0.0
1001
AUTOCAD_POSTSCRIPT_FIGURE
1002
{
1000
PSFILL
1000
Grayscale
1000
Grayscale
1070
   100
1002
}
  0
LINE
  5
4553
  8
YODOROGO
 10
27777.604341291921
 20
1619.9724140445701
 30
0.0
 11
27777.604341291921
 21
1643.9724140445701
 31
0.0
  0
LINE
  5
4554
  8
YODOROGO
 10
27937.604341291921
 20
1643.9724140445701
 30
0.0
 11
27937.604341291921
 21
1619.9724140445701
 31
0.0
  0
ARC
  5
4555
  8
YODOROGO
 10
28225.940442146959
 20
1600.877765325326
 30
0.0
 40
175.9999999999998
 50
280.3644312771313
 51
3.5414836592180561
  0
ARC
  5
4556
  8
YODOROGO
 10
28235.756030759301
 20
1633.5978069619041
 30
0.0
 40
111.9999999999982
 50
281.24905825041549
 51
348.75094174958321
  0
LINE
  5
4557
  8
YODOROGO
 10
28257.604341291921
 20
1523.7494964292871
 30
0.0
 11
28257.604341291921
 21
1427.749496429288
 31
0.0
  0
LINE
  5
4558
  8
YODOROGO
 10
28020.088903736909
 20
1610.650565061914
 30
0.0
 11
28040.913204016892
 21
1659.749496429288
 31
0.0
  0
LINE
  5
4559
  8
YODOROGO
 10
28041.604341291921
 20
1583.120489948401
 30
0.0
 11
28020.088903736909
 21
1610.650565061914
 31
0.0
  0
LINE
  5
455A
  8
YODOROGO
 10
28041.604341291921
 20
1563.120489948398
 30
0.0
 11
28041.604341291921
 21
1583.120489948401
 31
0.0
  0
LINE
  5
455B
  8
YODOROGO
 10
28017.604341291921
 20
1585.2370637495301
 30
0.0
 11
28041.604341291921
 21
1563.120489948398
 31
0.0
  0
LINE
  5
455C
  8
YODOROGO
 10
28017.604341291921
 20
1475.7494964292871
 30
0.0
 11
28017.604341291921
 21
1585.2370637495301
 31
0.0
  0
LINE
  5
455D
  8
YODOROGO
 10
28001.604341291921
 20
1475.7494964292871
 30
0.0
 11
28017.604341291921
 21
1475.7494964292871
 31
0.0
  0
LINE
  5
455E
  8
YODOROGO
 10
28001.604341291921
 20
1580.0053496897469
 30
0.0
 11
28001.604341291921
 21
1475.7494964292871
 31
0.0
  0
LINE
  5
455F
  8
YODOROGO
 10
27977.604341291921
 20
1532.7680790334291
 30
0.0
 11
28001.604341291921
 21
1580.0053496897469
 31
0.0
  0
LINE
  5
4560
  8
YODOROGO
 10
27977.604341291921
 20
1556.76807903343
 30
0.0
 11
27977.604341291921
 21
1532.7680790334291
 31
0.0
  0
LINE
  5
4561
  8
YODOROGO
 10
28025.828774291349
 20
1667.749496429285
 30
0.0
 11
27977.604341291921
 21
1556.76807903343
 31
0.0
  0
LINE
  5
4562
  8
YODOROGO
 10
27977.604341291921
 20
1667.749496429285
 30
0.0
 11
28025.828774291349
 21
1667.749496429285
 31
0.0
  0
LINE
  5
4563
  8
YODOROGO
 10
28050.135520230899
 20
1655.5036372746561
 30
0.0
 11
28082.135520230921
 21
1655.5036372746561
 31
0.0
1001
AUTOCAD_POSTSCRIPT_FIGURE
1002
{
1000
PSFILL
1000
Grayscale
1000
Grayscale
1070
   100
1002
}
  0
LINE
  5
4564
  8
YODOROGO
 10
28050.135520230899
 20
1631.5036372746561
 30
0.0
 11
28050.135520230899
 21
1655.5036372746561
 31
0.0
1001
AUTOCAD_POSTSCRIPT_FIGURE
1002
{
1000
PSFILL
1000
Grayscale
1000
Grayscale
1070
   100
1002
}
  0
LINE
  5
4565
  8
YODOROGO
 10
28082.135520230921
 20
1631.5036372746561
 30
0.0
 11
28050.135520230899
 21
1631.5036372746561
 31
0.0
1001
AUTOCAD_POSTSCRIPT_FIGURE
1002
{
1000
PSFILL
1000
Grayscale
1000
Grayscale
1070
   100
1002
}
  0
LINE
  5
4566
  8
YODOROGO
 10
28082.135520230921
 20
1499.749496429288
 30
0.0
 11
28082.135520230921
 21
1631.5036372746561
 31
0.0
1001
AUTOCAD_POSTSCRIPT_FIGURE
1002
{
1000
PSFILL
1000
Grayscale
1000
Grayscale
1070
   100
1002
}
  0
LINE
  5
4567
  8
YODOROGO
 10
28050.135520230921
 20
1499.749496429288
 30
0.0
 11
28082.135520230921
 21
1499.749496429288
 31
0.0
1001
AUTOCAD_POSTSCRIPT_FIGURE
1002
{
1000
PSFILL
1000
Grayscale
1000
Grayscale
1070
   100
1002
}
  0
LINE
  5
4568
  8
YODOROGO
 10
28050.135520230921
 20
1475.7494964292871
 30
0.0
 11
28050.135520230921
 21
1499.749496429288
 31
0.0
1001
AUTOCAD_POSTSCRIPT_FIGURE
1002
{
1000
PSFILL
1000
Grayscale
1000
Grayscale
1070
   100
1002
}
  0
LINE
  5
4569
  8
YODOROGO
 10
28137.604341291921
 20
1475.7494964292871
 30
0.0
 11
28050.135520230921
 21
1475.7494964292871
 31
0.0
1001
AUTOCAD_POSTSCRIPT_FIGURE
1002
{
1000
PSFILL
1000
Grayscale
1000
Grayscale
1070
   100
1002
}
  0
LINE
  5
456A
  8
YODOROGO
 10
28137.604341291921
 20
1499.749496429288
 30
0.0
 11
28137.604341291921
 21
1475.7494964292871
 31
0.0
1001
AUTOCAD_POSTSCRIPT_FIGURE
1002
{
1000
PSFILL
1000
Grayscale
1000
Grayscale
1070
   100
1002
}
  0
LINE
  5
456B
  8
YODOROGO
 10
28098.135520230931
 20
1499.749496429288
 30
0.0
 11
28137.604341291921
 21
1499.749496429288
 31
0.0
1001
AUTOCAD_POSTSCRIPT_FIGURE
1002
{
1000
PSFILL
1000
Grayscale
1000
Grayscale
1070
   100
1002
}
  0
LINE
  5
456C
  8
YODOROGO
 10
28098.135520230931
 20
1631.5036372746561
 30
0.0
 11
28098.135520230931
 21
1499.749496429288
 31
0.0
1001
AUTOCAD_POSTSCRIPT_FIGURE
1002
{
1000
PSFILL
1000
Grayscale
1000
Grayscale
1070
   100
1002
}
  0
LINE
  5
456D
  8
YODOROGO
 10
28137.604341291921
 20
1631.5036372746561
 30
0.0
 11
28098.135520230931
 21
1631.5036372746561
 31
0.0
1001
AUTOCAD_POSTSCRIPT_FIGURE
1002
{
1000
PSFILL
1000
Grayscale
1000
Grayscale
1070
   100
1002
}
  0
LINE
  5
456E
  8
YODOROGO
 10
28137.604341291921
 20
1655.5036372746561
 30
0.0
 11
28137.604341291921
 21
1631.5036372746561
 31
0.0
1001
AUTOCAD_POSTSCRIPT_FIGURE
1002
{
1000
PSFILL
1000
Grayscale
1000
Grayscale
1070
   100
1002
}
  0
LINE
  5
456F
  8
YODOROGO
 10
28098.135520230931
 20
1655.5036372746561
 30
0.0
 11
28137.604341291921
 21
1655.5036372746561
 31
0.0
1001
AUTOCAD_POSTSCRIPT_FIGURE
1002
{
1000
PSFILL
1000
Grayscale
1000
Grayscale
1070
   100
1002
}
  0
LINE
  5
4570
  8
YODOROGO
 10
28401.60434129191
 20
1667.749496429288
 30
0.0
 11
28345.604341291921
 21
1667.749496429288
 31
0.0
  0
LINE
  5
4571
  8
YODOROGO
 10
28401.60434129191
 20
1611.749496429288
 30
0.0
 11
28401.60434129191
 21
1667.749496429288
 31
0.0
  0
LINE
  5
4572
  8
YODOROGO
 10
28345.604341291921
 20
1667.749496429288
 30
0.0
 11
28345.604341291921
 21
1611.749496429288
 31
0.0
  0
ARC
  5
4573
  8
YODOROGO
 10
28513.60434129191
 20
1507.749496429288
 30
0.0
 40
80.0
 50
180.0
 51
270.0
  0
ARC
  5
4574
  8
YODOROGO
 10
28537.604341291921
 20
1563.7494964292871
 30
0.0
 40
40.0
 50
180.0
 51
270.0
  0
LINE
  5
4575
  8
YODOROGO
 10
28561.604341291932
 20
1523.7494964292871
 30
0.0
 11
28537.604341291921
 21
1523.7494964292871
 31
0.0
  0
ARC
  5
4576
  8
YODOROGO
 10
28561.604341291932
 20
1547.749496429285
 30
0.0
 40
23.999999999996358
 50
270.0
 51
0.0000000000054281
  0
LINE
  5
4577
  8
YODOROGO
 10
27801.604341291921
 20
1890.786580793706
 30
0.0
 11
27777.604341291921
 21
1843.776747951672
 31
0.0
1001
AUTOCAD_POSTSCRIPT_FIGURE
1002
{
1000
PSFILL
1000
Grayscale
1000
Grayscale
1070
   100
1002
}
  0
LINE
  5
4578
  8
YODOROGO
 10
27801.604341291921
 20
1747.749496429286
 30
0.0
 11
27801.604341291921
 21
1890.786580793706
 31
0.0
1001
AUTOCAD_POSTSCRIPT_FIGURE
1002
{
1000
PSFILL
1000
Grayscale
1000
Grayscale
1070
   100
1002
}
  0
LINE
  5
4579
  8
YODOROGO
 10
27817.604341291921
 20
1747.749496429286
 30
0.0
 11
27801.604341291921
 21
1747.749496429286
 31
0.0
1001
AUTOCAD_POSTSCRIPT_FIGURE
1002
{
1000
PSFILL
1000
Grayscale
1000
Grayscale
1070
   100
1002
}
  0
LINE
  5
457A
  8
YODOROGO
 10
27817.604341291921
 20
1893.7713320852661
 30
0.0
 11
27817.604341291921
 21
1747.749496429286
 31
0.0
1001
AUTOCAD_POSTSCRIPT_FIGURE
1002
{
1000
PSFILL
1000
Grayscale
1000
Grayscale
1070
   100
1002
}
  0
LINE
  5
457B
  8
YODOROGO
 10
27841.604341291921
 20
1867.6547582841361
 30
0.0
 11
27817.604341291921
 21
1893.7713320852661
 31
0.0
1001
AUTOCAD_POSTSCRIPT_FIGURE
1002
{
1000
PSFILL
1000
Grayscale
1000
Grayscale
1070
   100
1002
}
  0
LINE
  5
457C
  8
YODOROGO
 10
27841.604341291921
 20
1883.6547582841361
 30
0.0
 11
27841.604341291921
 21
1867.6547582841361
 31
0.0
1001
AUTOCAD_POSTSCRIPT_FIGURE
1002
{
1000
PSFILL
1000
Grayscale
1000
Grayscale
1070
   100
1002
}
  0
LINE
  5
457D
  8
YODOROGO
 10
27817.604341291921
 20
1917.7713320852649
 30
0.0
 11
27841.604341291921
 21
1883.6547582841361
 31
0.0
1001
AUTOCAD_POSTSCRIPT_FIGURE
1002
{
1000
PSFILL
1000
Grayscale
1000
Grayscale
1070
   100
1002
}
  0
LINE
  5
457E
  8
YODOROGO
 10
27817.604341291921
 20
1939.749496429288
 30
0.0
 11
27817.604341291921
 21
1917.7713320852649
 31
0.0
1001
AUTOCAD_POSTSCRIPT_FIGURE
1002
{
1000
PSFILL
1000
Grayscale
1000
Grayscale
1070
   100
1002
}
  0
LINE
  5
457F
  8
YODOROGO
 10
27889.604341291921
 20
1939.749496429288
 30
0.0
 11
27817.604341291921
 21
1939.749496429288
 31
0.0
1001
AUTOCAD_POSTSCRIPT_FIGURE
1002
{
1000
PSFILL
1000
Grayscale
1000
Grayscale
1070
   100
1002
}
  0
LINE
  5
4580
  8
YODOROGO
 10
27889.604341291921
 20
1900.5683489363
 30
0.0
 11
27889.604341291921
 21
1939.749496429288
 31
0.0
1001
AUTOCAD_POSTSCRIPT_FIGURE
1002
{
1000
PSFILL
1000
Grayscale
1000
Grayscale
1070
   100
1002
}
  0
LINE
  5
4581
  8
YODOROGO
 10
27857.604341291921
 20
1900.5683489363
 30
0.0
 11
27889.604341291921
 21
1900.5683489363
 31
0.0
1001
AUTOCAD_POSTSCRIPT_FIGURE
1002
{
1000
PSFILL
1000
Grayscale
1000
Grayscale
1070
   100
1002
}
  0
LINE
  5
4582
  8
YODOROGO
 10
27857.604341291921
 20
1884.568348936298
 30
0.0
 11
27857.604341291921
 21
1900.5683489363
 31
0.0
1001
AUTOCAD_POSTSCRIPT_FIGURE
1002
{
1000
PSFILL
1000
Grayscale
1000
Grayscale
1070
   100
1002
}
  0
LINE
  5
4583
  8
YODOROGO
 10
27889.604341291921
 20
1884.568348936298
 30
0.0
 11
27857.604341291921
 21
1884.568348936298
 31
0.0
1001
AUTOCAD_POSTSCRIPT_FIGURE
1002
{
1000
PSFILL
1000
Grayscale
1000
Grayscale
1070
   100
1002
}
  0
LINE
  5
4584
  8
YODOROGO
 10
27889.604341291921
 20
1879.6191779644371
 30
0.0
 11
27889.604341291921
 21
1884.568348936298
 31
0.0
1001
AUTOCAD_POSTSCRIPT_FIGURE
1002
{
1000
PSFILL
1000
Grayscale
1000
Grayscale
1070
   100
1002
}
  0
LINE
  5
4585
  8
YODOROGO
 10
27849.604341291921
 20
1812.974981161417
 30
0.0
 11
27889.604341291921
 21
1879.6191779644371
 31
0.0
1001
AUTOCAD_POSTSCRIPT_FIGURE
1002
{
1000
PSFILL
1000
Grayscale
1000
Grayscale
1070
   100
1002
}
  0
LINE
  5
4586
  8
YODOROGO
 10
27849.604341291921
 20
1796.9749811614161
 30
0.0
 11
27849.604341291921
 21
1812.974981161417
 31
0.0
1001
AUTOCAD_POSTSCRIPT_FIGURE
1002
{
1000
PSFILL
1000
Grayscale
1000
Grayscale
1070
   100
1002
}
  0
LINE
  5
4587
  8
YODOROGO
 10
27889.604341291921
 20
1847.6191779644359
 30
0.0
 11
27849.604341291921
 21
1796.9749811614161
 31
0.0
1001
AUTOCAD_POSTSCRIPT_FIGURE
1002
{
1000
PSFILL
1000
Grayscale
1000
Grayscale
1070
   100
1002
}
  0
LINE
  5
4588
  8
YODOROGO
 10
27889.604341291921
 20
1747.749496429286
 30
0.0
 11
27889.604341291921
 21
1847.6191779644359
 31
0.0
1001
AUTOCAD_POSTSCRIPT_FIGURE
1002
{
1000
PSFILL
1000
Grayscale
1000
Grayscale
1070
   100
1002
}
  0
LINE
  5
4589
  8
YODOROGO
 10
27905.604341291921
 20
1747.749496429286
 30
0.0
 11
27889.604341291921
 21
1747.749496429286
 31
0.0
1001
AUTOCAD_POSTSCRIPT_FIGURE
1002
{
1000
PSFILL
1000
Grayscale
1000
Grayscale
1070
   100
1002
}
  0
LINE
  5
458A
  8
YODOROGO
 10
27905.604341291921
 20
1849.409012158806
 30
0.0
 11
27905.604341291921
 21
1747.749496429286
 31
0.0
1001
AUTOCAD_POSTSCRIPT_FIGURE
1002
{
1000
PSFILL
1000
Grayscale
1000
Grayscale
1070
   100
1002
}
  0
LINE
  5
458B
  8
YODOROGO
 10
27937.604341291921
 20
1796.9749811614161
 30
0.0
 11
27905.604341291921
 21
1849.409012158806
 31
0.0
1001
AUTOCAD_POSTSCRIPT_FIGURE
1002
{
1000
PSFILL
1000
Grayscale
1000
Grayscale
1070
   100
1002
}
  0
LINE
  5
458C
  8
YODOROGO
 10
27937.604341291921
 20
1812.974981161417
 30
0.0
 11
27937.604341291921
 21
1796.9749811614161
 31
0.0
1001
AUTOCAD_POSTSCRIPT_FIGURE
1002
{
1000
PSFILL
1000
Grayscale
1000
Grayscale
1070
   100
1002
}
  0
LINE
  5
458D
  8
YODOROGO
 10
27905.604341291921
 20
1881.4090121588081
 30
0.0
 11
27937.604341291921
 21
1812.974981161417
 31
0.0
1001
AUTOCAD_POSTSCRIPT_FIGURE
1002
{
1000
PSFILL
1000
Grayscale
1000
Grayscale
1070
   100
1002
}
  0
LINE
  5
458E
  8
YODOROGO
 10
27905.604341291921
 20
1884.5683489363
 30
0.0
 11
27905.604341291921
 21
1881.4090121588081
 31
0.0
1001
AUTOCAD_POSTSCRIPT_FIGURE
1002
{
1000
PSFILL
1000
Grayscale
1000
Grayscale
1070
   100
1002
}
  0
LINE
  5
458F
  8
YODOROGO
 10
27937.604341291921
 20
1884.568348936298
 30
0.0
 11
27905.604341291921
 21
1884.5683489363
 31
0.0
1001
AUTOCAD_POSTSCRIPT_FIGURE
1002
{
1000
PSFILL
1000
Grayscale
1000
Grayscale
1070
   100
1002
}
  0
LINE
  5
4590
  8
YODOROGO
 10
27937.604341291921
 20
1900.5683489363
 30
0.0
 11
27937.604341291921
 21
1884.568348936298
 31
0.0
1001
AUTOCAD_POSTSCRIPT_FIGURE
1002
{
1000
PSFILL
1000
Grayscale
1000
Grayscale
1070
   100
1002
}
  0
LINE
  5
4591
  8
YODOROGO
 10
27905.604341291921
 20
1900.5683489363
 30
0.0
 11
27937.604341291921
 21
1900.5683489363
 31
0.0
1001
AUTOCAD_POSTSCRIPT_FIGURE
1002
{
1000
PSFILL
1000
Grayscale
1000
Grayscale
1070
   100
1002
}
  0
LINE
  5
4592
  8
YODOROGO
 10
27905.604341291921
 20
1939.749496429288
 30
0.0
 11
27905.604341291921
 21
1900.5683489363
 31
0.0
1001
AUTOCAD_POSTSCRIPT_FIGURE
1002
{
1000
PSFILL
1000
Grayscale
1000
Grayscale
1070
   100
1002
}
  0
LINE
  5
4593
  8
YODOROGO
 10
27937.604341291921
 20
1939.749496429288
 30
0.0
 11
27905.604341291921
 21
1939.749496429288
 31
0.0
1001
AUTOCAD_POSTSCRIPT_FIGURE
1002
{
1000
PSFILL
1000
Grayscale
1000
Grayscale
1070
   100
1002
}
  0
LINE
  5
4594
  8
YODOROGO
 10
27937.604341291921
 20
1955.7494964292871
 30
0.0
 11
27937.604341291921
 21
1939.749496429288
 31
0.0
1001
AUTOCAD_POSTSCRIPT_FIGURE
1002
{
1000
PSFILL
1000
Grayscale
1000
Grayscale
1070
   100
1002
}
  0
LINE
  5
4595
  8
YODOROGO
 10
27905.604341291921
 20
1955.7494964292871
 30
0.0
 11
27937.604341291921
 21
1955.7494964292871
 31
0.0
1001
AUTOCAD_POSTSCRIPT_FIGURE
1002
{
1000
PSFILL
1000
Grayscale
1000
Grayscale
1070
   100
1002
}
  0
LINE
  5
4596
  8
YODOROGO
 10
27905.604341291921
 20
1979.749496429288
 30
0.0
 11
27905.604341291921
 21
1955.7494964292871
 31
0.0
1001
AUTOCAD_POSTSCRIPT_FIGURE
1002
{
1000
PSFILL
1000
Grayscale
1000
Grayscale
1070
   100
1002
}
  0
LINE
  5
4597
  8
YODOROGO
 10
27889.604341291921
 20
1979.749496429288
 30
0.0
 11
27905.604341291921
 21
1979.749496429288
 31
0.0
1001
AUTOCAD_POSTSCRIPT_FIGURE
1002
{
1000
PSFILL
1000
Grayscale
1000
Grayscale
1070
   100
1002
}
  0
LINE
  5
4598
  8
YODOROGO
 10
27889.604341291921
 20
1955.7494964292871
 30
0.0
 11
27889.604341291921
 21
1979.749496429288
 31
0.0
1001
AUTOCAD_POSTSCRIPT_FIGURE
1002
{
1000
PSFILL
1000
Grayscale
1000
Grayscale
1070
   100
1002
}
  0
LINE
  5
4599
  8
YODOROGO
 10
27865.604341291921
 20
1955.7494964292871
 30
0.0
 11
27889.604341291921
 21
1955.7494964292871
 31
0.0
1001
AUTOCAD_POSTSCRIPT_FIGURE
1002
{
1000
PSFILL
1000
Grayscale
1000
Grayscale
1070
   100
1002
}
  0
LINE
  5
459A
  8
YODOROGO
 10
27865.604341291921
 20
1979.749496429288
 30
0.0
 11
27865.604341291921
 21
1955.7494964292871
 31
0.0
1001
AUTOCAD_POSTSCRIPT_FIGURE
1002
{
1000
PSFILL
1000
Grayscale
1000
Grayscale
1070
   100
1002
}
  0
LINE
  5
459B
  8
YODOROGO
 10
27849.604341291921
 20
1979.749496429288
 30
0.0
 11
27865.604341291921
 21
1979.749496429288
 31
0.0
1001
AUTOCAD_POSTSCRIPT_FIGURE
1002
{
1000
PSFILL
1000
Grayscale
1000
Grayscale
1070
   100
1002
}
  0
LINE
  5
459C
  8
YODOROGO
 10
27849.604341291921
 20
1955.7494964292871
 30
0.0
 11
27849.604341291921
 21
1979.749496429288
 31
0.0
1001
AUTOCAD_POSTSCRIPT_FIGURE
1002
{
1000
PSFILL
1000
Grayscale
1000
Grayscale
1070
   100
1002
}
  0
LINE
  5
459D
  8
YODOROGO
 10
27817.604341291921
 20
1955.7494964292871
 30
0.0
 11
27849.604341291921
 21
1955.7494964292871
 31
0.0
1001
AUTOCAD_POSTSCRIPT_FIGURE
1002
{
1000
PSFILL
1000
Grayscale
1000
Grayscale
1070
   100
1002
}
  0
LINE
  5
459E
  8
YODOROGO
 10
27817.604341291921
 20
1979.749496429288
 30
0.0
 11
27817.604341291921
 21
1955.7494964292871
 31
0.0
1001
AUTOCAD_POSTSCRIPT_FIGURE
1002
{
1000
PSFILL
1000
Grayscale
1000
Grayscale
1070
   100
1002
}
  0
LINE
  5
459F
  8
YODOROGO
 10
27801.604341291921
 20
1979.749496429288
 30
0.0
 11
27817.604341291921
 21
1979.749496429288
 31
0.0
1001
AUTOCAD_POSTSCRIPT_FIGURE
1002
{
1000
PSFILL
1000
Grayscale
1000
Grayscale
1070
   100
1002
}
  0
LINE
  5
45A0
  8
YODOROGO
 10
27801.604341291921
 20
1955.7494964292871
 30
0.0
 11
27801.604341291921
 21
1979.749496429288
 31
0.0
1001
AUTOCAD_POSTSCRIPT_FIGURE
1002
{
1000
PSFILL
1000
Grayscale
1000
Grayscale
1070
   100
1002
}
  0
LINE
  5
45A1
  8
YODOROGO
 10
27777.604341291921
 20
1955.7494964292871
 30
0.0
 11
27801.604341291921
 21
1955.7494964292871
 31
0.0
1001
AUTOCAD_POSTSCRIPT_FIGURE
1002
{
1000
PSFILL
1000
Grayscale
1000
Grayscale
1070
   100
1002
}
  0
LINE
  5
45A2
  8
YODOROGO
 10
27777.604341291921
 20
1939.749496429288
 30
0.0
 11
27777.604341291921
 21
1955.7494964292871
 31
0.0
1001
AUTOCAD_POSTSCRIPT_FIGURE
1002
{
1000
PSFILL
1000
Grayscale
1000
Grayscale
1070
   100
1002
}
  0
LINE
  5
45A3
  8
YODOROGO
 10
27801.604341291921
 20
1939.749496429288
 30
0.0
 11
27777.604341291921
 21
1939.749496429288
 31
0.0
1001
AUTOCAD_POSTSCRIPT_FIGURE
1002
{
1000
PSFILL
1000
Grayscale
1000
Grayscale
1070
   100
1002
}
  0
LINE
  5
45A4
  8
YODOROGO
 10
27801.604341291921
 20
1914.7865807937051
 30
0.0
 11
27801.604341291921
 21
1939.749496429288
 31
0.0
1001
AUTOCAD_POSTSCRIPT_FIGURE
1002
{
1000
PSFILL
1000
Grayscale
1000
Grayscale
1070
   100
1002
}
  0
LINE
  5
45A5
  8
YODOROGO
 10
27777.604341291921
 20
1859.776747951671
 30
0.0
 11
27801.604341291921
 21
1914.7865807937051
 31
0.0
1001
AUTOCAD_POSTSCRIPT_FIGURE
1002
{
1000
PSFILL
1000
Grayscale
1000
Grayscale
1070
   100
1002
}
  0
LINE
  5
45A6
  8
YODOROGO
 10
27777.604341291921
 20
1843.776747951672
 30
0.0
 11
27777.604341291921
 21
1859.776747951671
 31
0.0
1001
AUTOCAD_POSTSCRIPT_FIGURE
1002
{
1000
PSFILL
1000
Grayscale
1000
Grayscale
1070
   100
1002
}
  0
LINE
  5
45A7
  8
YODOROGO
 10
28257.604341291921
 20
1867.7494964292871
 30
0.0
 11
28401.60434129191
 21
1824.877625640306
 31
0.0
1001
AUTOCAD_POSTSCRIPT_FIGURE
1002
{
1000
PSFILL
1000
Grayscale
1000
Grayscale
1070
   100
1002
}
  0
LINE
  5
45A8
  8
YODOROGO
 10
28401.60434129191
 20
1752.877625640306
 30
0.0
 11
28257.604341291921
 21
1795.7494964292871
 31
0.0
1001
AUTOCAD_POSTSCRIPT_FIGURE
1002
{
1000
PSFILL
1000
Grayscale
1000
Grayscale
1070
   100
1002
}
  0
LINE
  5
45A9
  8
YODOROGO
 10
28401.60434129191
 20
1984.877625640306
 30
0.0
 11
28257.604341291921
 21
2027.749496429288
 31
0.0
1001
AUTOCAD_POSTSCRIPT_FIGURE
1002
{
1000
PSFILL
1000
Grayscale
1000
Grayscale
1070
   100
1002
}
  0
LINE
  5
45AA
  8
YODOROGO
 10
28257.604341291921
 20
1959.749496429288
 30
0.0
 11
28401.60434129191
 21
1916.8776256403071
 31
0.0
1001
AUTOCAD_POSTSCRIPT_FIGURE
1002
{
1000
PSFILL
1000
Grayscale
1000
Grayscale
1070
   100
1002
}
  0
LINE
  5
45AB
  8
YODOROGO
 10
28257.604341291921
 20
1795.7494964292871
 30
0.0
 11
28257.604341291921
 21
1867.7494964292871
 31
0.0
1001
AUTOCAD_POSTSCRIPT_FIGURE
1002
{
1000
PSFILL
1000
Grayscale
1000
Grayscale
1070
   100
1002
}
  0
LINE
  5
45AC
  8
YODOROGO
 10
28257.604341291921
 20
2027.749496429288
 30
0.0
 11
28257.604341291921
 21
1959.749496429288
 31
0.0
1001
AUTOCAD_POSTSCRIPT_FIGURE
1002
{
1000
PSFILL
1000
Grayscale
1000
Grayscale
1070
   100
1002
}
  0
LINE
  5
45AD
  8
YODOROGO
 10
28080.236320206739
 20
1939.749496429288
 30
0.0
 11
28129.60434129191
 21
1747.749496429286
 31
0.0
1001
AUTOCAD_POSTSCRIPT_FIGURE
1002
{
1000
PSFILL
1000
Grayscale
1000
Grayscale
1070
   100
1002
}
  0
LINE
  5
45AE
  8
YODOROGO
 10
27977.604341291921
 20
1939.749496429288
 30
0.0
 11
28080.236320206739
 21
1939.749496429288
 31
0.0
1001
AUTOCAD_POSTSCRIPT_FIGURE
1002
{
1000
PSFILL
1000
Grayscale
1000
Grayscale
1070
   100
1002
}
  0
LINE
  5
45AF
  8
YODOROGO
 10
27977.604341291921
 20
1955.7494964292871
 30
0.0
 11
27977.604341291921
 21
1939.749496429288
 31
0.0
1001
AUTOCAD_POSTSCRIPT_FIGURE
1002
{
1000
PSFILL
1000
Grayscale
1000
Grayscale
1070
   100
1002
}
  0
LINE
  5
45B0
  8
YODOROGO
 10
28076.60687851991
 20
1955.7494964292871
 30
0.0
 11
27977.604341291921
 21
1955.7494964292871
 31
0.0
1001
AUTOCAD_POSTSCRIPT_FIGURE
1002
{
1000
PSFILL
1000
Grayscale
1000
Grayscale
1070
   100
1002
}
  0
LINE
  5
45B1
  8
YODOROGO
 10
28071.162715989711
 20
1979.749496429288
 30
0.0
 11
28076.60687851991
 21
1955.7494964292871
 31
0.0
1001
AUTOCAD_POSTSCRIPT_FIGURE
1002
{
1000
PSFILL
1000
Grayscale
1000
Grayscale
1070
   100
1002
}
  0
LINE
  5
45B2
  8
YODOROGO
 10
28091.162715989711
 20
1979.749496429288
 30
0.0
 11
28071.162715989711
 21
1979.749496429288
 31
0.0
1001
AUTOCAD_POSTSCRIPT_FIGURE
1002
{
1000
PSFILL
1000
Grayscale
1000
Grayscale
1070
   100
1002
}
  0
LINE
  5
45B3
  8
YODOROGO
 10
28095.806878519939
 20
1955.7494964292871
 30
0.0
 11
28091.162715989711
 21
1979.749496429288
 31
0.0
1001
AUTOCAD_POSTSCRIPT_FIGURE
1002
{
1000
PSFILL
1000
Grayscale
1000
Grayscale
1070
   100
1002
}
  0
LINE
  5
45B4
  8
YODOROGO
 10
28121.604341291921
 20
1955.7494964292871
 30
0.0
 11
28095.806878519939
 21
1955.7494964292871
 31
0.0
1001
AUTOCAD_POSTSCRIPT_FIGURE
1002
{
1000
PSFILL
1000
Grayscale
1000
Grayscale
1070
   100
1002
}
  0
LINE
  5
45B5
  8
YODOROGO
 10
28121.604341291921
 20
1979.749496429288
 30
0.0
 11
28121.604341291921
 21
1955.7494964292871
 31
0.0
1001
AUTOCAD_POSTSCRIPT_FIGURE
1002
{
1000
PSFILL
1000
Grayscale
1000
Grayscale
1070
   100
1002
}
  0
LINE
  5
45B6
  8
YODOROGO
 10
28137.604341291921
 20
1979.749496429288
 30
0.0
 11
28121.604341291921
 21
1979.749496429288
 31
0.0
1001
AUTOCAD_POSTSCRIPT_FIGURE
1002
{
1000
PSFILL
1000
Grayscale
1000
Grayscale
1070
   100
1002
}
  0
LINE
  5
45B7
  8
YODOROGO
 10
28137.604341291921
 20
1955.7494964292871
 30
0.0
 11
28137.604341291921
 21
1979.749496429288
 31
0.0
1001
AUTOCAD_POSTSCRIPT_FIGURE
1002
{
1000
PSFILL
1000
Grayscale
1000
Grayscale
1070
   100
1002
}
  0
LINE
  5
45B8
  8
YODOROGO
 10
28137.604341291921
 20
1939.749496429288
 30
0.0
 11
28137.604341291921
 21
1955.7494964292871
 31
0.0
1001
AUTOCAD_POSTSCRIPT_FIGURE
1002
{
1000
PSFILL
1000
Grayscale
1000
Grayscale
1070
   100
1002
}
  0
LINE
  5
45B9
  8
YODOROGO
 10
28098.902986873411
 20
1939.749496429288
 30
0.0
 11
28137.604341291921
 21
1939.749496429288
 31
0.0
1001
AUTOCAD_POSTSCRIPT_FIGURE
1002
{
1000
PSFILL
1000
Grayscale
1000
Grayscale
1070
   100
1002
}
  0
LINE
  5
45BA
  8
YODOROGO
 10
28137.604341291921
 20
1747.749496429286
 30
0.0
 11
28098.902986873411
 21
1939.749496429288
 31
0.0
1001
AUTOCAD_POSTSCRIPT_FIGURE
1002
{
1000
PSFILL
1000
Grayscale
1000
Grayscale
1070
   100
1002
}
  0
LINE
  5
45BB
  8
YODOROGO
 10
28129.60434129191
 20
1747.749496429286
 30
0.0
 11
28137.604341291921
 21
1747.749496429286
 31
0.0
1001
AUTOCAD_POSTSCRIPT_FIGURE
1002
{
1000
PSFILL
1000
Grayscale
1000
Grayscale
1070
   100
1002
}
  0
LINE
  5
45BC
  8
YODOROGO
 10
28078.06921993379
 20
1775.7407762987939
 30
0.0
 11
27977.604341291921
 21
1747.749496429286
 31
0.0
  0
LINE
  5
45BD
  8
YODOROGO
 10
28078.06921993379
 20
1798.6689795290731
 30
0.0
 11
28078.06921993379
 21
1775.7407762987939
 31
0.0
  0
LINE
  5
45BE
  8
YODOROGO
 10
28033.83678061287
 20
1786.816933133767
 30
0.0
 11
28078.06921993379
 21
1798.6689795290731
 31
0.0
  0
LINE
  5
45BF
  8
YODOROGO
 10
28033.83678061287
 20
1872.5683489362989
 30
0.0
 11
28033.83678061287
 21
1786.816933133767
 31
0.0
  0
LINE
  5
45C0
  8
YODOROGO
 10
28078.06921993379
 20
1872.5683489362989
 30
0.0
 11
28033.83678061287
 21
1872.5683489362989
 31
0.0
  0
LINE
  5
45C1
  8
YODOROGO
 10
28078.06921993379
 20
1892.568348936298
 30
0.0
 11
28078.06921993379
 21
1872.5683489362989
 31
0.0
  0
LINE
  5
45C2
  8
YODOROGO
 10
27977.604341291921
 20
1892.568348936298
 30
0.0
 11
28078.06921993379
 21
1892.568348936298
 31
0.0
  0
LINE
  5
45C3
  8
YODOROGO
 10
27977.604341291921
 20
1872.5683489362989
 30
0.0
 11
27977.604341291921
 21
1892.568348936298
 31
0.0
  0
LINE
  5
45C4
  8
YODOROGO
 10
28021.836780612852
 20
1872.5683489362989
 30
0.0
 11
27977.604341291921
 21
1872.5683489362989
 31
0.0
  0
LINE
  5
45C5
  8
YODOROGO
 10
28021.836780612852
 20
1784.673339594317
 30
0.0
 11
28021.836780612852
 21
1872.5683489362989
 31
0.0
  0
LINE
  5
45C6
  8
YODOROGO
 10
27977.604341291921
 20
1771.749496429286
 30
0.0
 11
28021.836780612852
 21
1784.673339594317
 31
0.0
  0
LINE
  5
45C7
  8
YODOROGO
 10
27977.604341291921
 20
1747.749496429286
 30
0.0
 11
27977.604341291921
 21
1771.749496429286
 31
0.0
  0
LINE
  5
45C8
  8
YODOROGO
 10
28001.604341291921
 20
1707.749496429288
 30
0.0
 11
28001.604341291921
 21
1683.7494964292871
 31
0.0
  0
LINE
  5
45C9
  8
YODOROGO
 10
28017.604341291921
 20
1707.749496429288
 30
0.0
 11
28001.604341291921
 21
1707.749496429288
 31
0.0
  0
LINE
  5
45CA
  8
YODOROGO
 10
28017.604341291921
 20
1683.7494964292871
 30
0.0
 11
28017.604341291921
 21
1707.749496429288
 31
0.0
  0
LINE
  5
45CB
  8
YODOROGO
 10
28040.913204016892
 20
1683.7494964292871
 30
0.0
 11
28017.604341291921
 21
1683.7494964292871
 31
0.0
  0
LINE
  5
45CC
  8
YODOROGO
 10
28001.604341291921
 20
1683.7494964292871
 30
0.0
 11
27977.604341291921
 21
1683.7494964292871
 31
0.0
  0
LINE
  5
45CD
  8
YODOROGO
 10
28082.135520230921
 20
1707.749496429288
 30
0.0
 11
28098.135520230931
 21
1707.749496429288
 31
0.0
1001
AUTOCAD_POSTSCRIPT_FIGURE
1002
{
1000
PSFILL
1000
Grayscale
1000
Grayscale
1070
   100
1002
}
  0
LINE
  5
45CE
  8
YODOROGO
 10
28401.60434129191
 20
1824.877625640306
 30
0.0
 11
28401.60434129191
 21
1752.877625640306
 31
0.0
1001
AUTOCAD_POSTSCRIPT_FIGURE
1002
{
1000
PSFILL
1000
Grayscale
1000
Grayscale
1070
   100
1002
}
  0
LINE
  5
45CF
  8
YODOROGO
 10
28401.60434129191
 20
1916.8776256403071
 30
0.0
 11
28401.60434129191
 21
1984.877625640306
 31
0.0
1001
AUTOCAD_POSTSCRIPT_FIGURE
1002
{
1000
PSFILL
1000
Grayscale
1000
Grayscale
1070
   100
1002
}
  0
LINE
  5
45D0
  8
YODOROGO
 10
28433.60434129191
 20
1819.7494964292871
 30
0.0
 11
28433.60434129191
 21
1747.74949642929
 31
0.0
  0
LINE
  5
45D1
  8
YODOROGO
 10
28497.60434129191
 20
1707.749496429288
 30
0.0
 11
28433.60434129191
 21
1707.749496429288
 31
0.0
  0
LINE
  5
45D2
  8
YODOROGO
 10
28433.60434129191
 20
1747.74949642929
 30
0.0
 11
28585.604341291921
 21
1747.74949642929
 31
0.0
  0
LINE
  5
45D3
  8
YODOROGO
 10
28497.60434129191
 20
1867.7494964292871
 30
0.0
 11
28433.60434129191
 21
1867.7494964292871
 31
0.0
  0
LINE
  5
45D4
  8
YODOROGO
 10
28497.60434129191
 20
1923.7494964292871
 30
0.0
 11
28497.60434129191
 21
1867.7494964292871
 31
0.0
  0
LINE
  5
45D5
  8
YODOROGO
 10
28585.604341291921
 20
1987.7494964292871
 30
0.0
 11
28585.604341291921
 21
2027.749496429288
 31
0.0
  0
LINE
  5
45D6
  8
YODOROGO
 10
28433.60434129191
 20
1987.7494964292871
 30
0.0
 11
28585.604341291921
 21
1987.7494964292871
 31
0.0
  0
LINE
  5
45D7
  8
YODOROGO
 10
28433.60434129191
 20
1867.7494964292871
 30
0.0
 11
28433.60434129191
 21
1987.7494964292871
 31
0.0
  0
LINE
  5
45D8
  8
YODOROGO
 10
29001.60434129191
 20
2027.749496429288
 30
0.0
 11
29001.60434129191
 21
1619.749496429288
 31
0.0
  0
LINE
  5
45D9
  8
YODOROGO
 10
29073.604341291921
 20
1579.749496429288
 30
0.0
 11
29073.604341291921
 21
2027.749496429288
 31
0.0
  0
LINE
  5
45DA
  8
YODOROGO
 10
29261.604341291921
 20
1491.749496429286
 30
0.0
 11
29261.604341291921
 21
2007.749496429288
 31
0.0
  0
LINE
  5
45DB
  8
YODOROGO
 10
29197.604341291921
 20
2007.749496429288
 30
0.0
 11
29197.604341291921
 21
1491.749496429286
 31
0.0
  0
LINE
  5
45DC
  8
YODOROGO
 10
29385.604341291921
 20
2027.749496429288
 30
0.0
 11
29385.604341291921
 21
1427.749496429288
 31
0.0
  0
LINE
  5
45DD
  8
YODOROGO
 10
29457.604341291921
 20
1427.749496429288
 30
0.0
 11
29457.604341291921
 21
2027.749496429288
 31
0.0
  0
LINE
  5
45DE
  8
YODOROGO
 10
28657.604341291921
 20
1667.749496429288
 30
0.0
 11
28657.604341291921
 21
1747.74949642929
 31
0.0
  0
LINE
  5
45DF
  8
YODOROGO
 10
29885.604341291921
 20
1707.749496429288
 30
0.0
 11
29885.604341291921
 21
1667.749496429288
 31
0.0
  0
LINE
  5
45E0
  8
YODOROGO
 10
29885.604341291921
 20
1707.749496429288
 30
0.0
 11
29885.604341291921
 21
1667.749496429288
 31
0.0
  0
ARC
  5
45E1
  8
YODOROGO
 10
28906.911576186842
 20
1618.217864442272
 30
0.0
 40
94.705151178741644
 50
274.05244162907098
 51
0.9266642149310712
  0
ARC
  5
45E2
  8
YODOROGO
 10
28909.186170719819
 20
1592.61072861044
 30
0.0
 40
164.92042356085511
 50
271.5351210653775
 51
355.52727750585052
  0
LINE
  5
45E3
  8
YODOROGO
 10
28913.604341291921
 20
1523.7494964292871
 30
0.0
 11
28913.604341291921
 21
1427.749496429288
 31
0.0
  0
LINE
  5
45E4
  8
YODOROGO
 10
28793.60434129191
 20
1667.749496429288
 30
0.0
 11
28657.604341291921
 21
1667.749496429288
 31
0.0
  0
LINE
  5
45E5
  8
YODOROGO
 10
28793.60434129191
 20
1603.7494964292871
 30
0.0
 11
28793.60434129191
 21
1667.749496429288
 31
0.0
  0
LINE
  5
45E6
  8
YODOROGO
 10
28657.604341291921
 20
1603.7494964292871
 30
0.0
 11
28793.60434129191
 21
1603.7494964292871
 31
0.0
  0
LINE
  5
45E7
  8
YODOROGO
 10
28657.604341291921
 20
1523.7494964292871
 30
0.0
 11
28657.604341291921
 21
1603.7494964292871
 31
0.0
  0
LINE
  5
45E8
  8
YODOROGO
 10
28793.60434129191
 20
1523.7494964292871
 30
0.0
 11
28657.604341291921
 21
1523.7494964292871
 31
0.0
  0
LINE
  5
45E9
  8
YODOROGO
 10
28793.60434129191
 20
1427.749496429288
 30
0.0
 11
28793.60434129191
 21
1523.7494964292871
 31
0.0
  0
LINE
  5
45EA
  8
YODOROGO
 10
29197.604341291921
 20
1491.749496429286
 30
0.0
 11
29261.604341291921
 21
1491.749496429286
 31
0.0
  0
LINE
  5
45EB
  8
YODOROGO
 10
29385.604341291921
 20
1427.749496429288
 30
0.0
 11
29457.604341291921
 21
1427.749496429288
 31
0.0
  0
LINE
  5
45EC
  8
YODOROGO
 10
29737.604341291921
 20
1528.4414521705639
 30
0.0
 11
29737.604341291921
 21
1427.749496429288
 31
0.0
  0
LINE
  5
45ED
  8
YODOROGO
 10
29617.604341291921
 20
1427.749496429288
 30
0.0
 11
29737.604341291921
 21
1528.4414521705639
 31
0.0
  0
LINE
  5
45EE
  8
YODOROGO
 10
29617.604341291921
 20
1547.749496429288
 30
0.0
 11
29617.604341291921
 21
1427.749496429288
 31
0.0
  0
LINE
  5
45EF
  8
YODOROGO
 10
29712.94462869945
 20
1627.749496429288
 30
0.0
 11
29617.604341291921
 21
1547.749496429288
 31
0.0
  0
LINE
  5
45F0
  8
YODOROGO
 10
29617.604341291921
 20
1627.749496429288
 30
0.0
 11
29712.94462869945
 21
1627.749496429288
 31
0.0
  0
LINE
  5
45F1
  8
YODOROGO
 10
29617.604341291921
 20
1667.749496429288
 30
0.0
 11
29617.604341291921
 21
1627.749496429288
 31
0.0
  0
LINE
  5
45F2
  8
YODOROGO
 10
29885.604341291921
 20
1667.749496429288
 30
0.0
 11
29617.604341291921
 21
1667.749496429288
 31
0.0
  0
LINE
  5
45F3
  8
YODOROGO
 10
29917.604341291921
 20
1627.749496429288
 30
0.0
 11
29777.604341291921
 21
1627.749496429288
 31
0.0
  0
LINE
  5
45F4
  8
YODOROGO
 10
29777.604341291921
 20
1562.0054374176559
 30
0.0
 11
29771.409872985321
 21
1556.807661346234
 31
0.0
  0
LINE
  5
45F5
  8
YODOROGO
 10
29777.604341291921
 20
1627.749496429288
 30
0.0
 11
29777.604341291921
 21
1562.0054374176559
 31
0.0
  0
LINE
  5
45F6
  8
YODOROGO
 10
29737.604341291921
 20
1528.4414521705639
 30
0.0
 11
29737.604341291921
 21
1427.749496429288
 31
0.0
  0
LINE
  5
45F7
  8
YODOROGO
 10
29617.604341291921
 20
1427.749496429288
 30
0.0
 11
29737.604341291921
 21
1528.4414521705639
 31
0.0
  0
LINE
  5
45F8
  8
YODOROGO
 10
29617.604341291921
 20
1547.749496429288
 30
0.0
 11
29617.604341291921
 21
1427.749496429288
 31
0.0
  0
LINE
  5
45F9
  8
YODOROGO
 10
29712.94462869945
 20
1627.749496429288
 30
0.0
 11
29617.604341291921
 21
1547.749496429288
 31
0.0
  0
LINE
  5
45FA
  8
YODOROGO
 10
29617.604341291921
 20
1627.749496429288
 30
0.0
 11
29712.94462869945
 21
1627.749496429288
 31
0.0
  0
LINE
  5
45FB
  8
YODOROGO
 10
29617.604341291921
 20
1667.749496429288
 30
0.0
 11
29617.604341291921
 21
1627.749496429288
 31
0.0
  0
LINE
  5
45FC
  8
YODOROGO
 10
29885.604341291921
 20
1667.749496429288
 30
0.0
 11
29617.604341291921
 21
1667.749496429288
 31
0.0
  0
LINE
  5
45FD
  8
YODOROGO
 10
28793.60434129191
 20
1747.74949642929
 30
0.0
 11
28793.60434129191
 21
1819.7494964292871
 31
0.0
  0
LINE
  5
45FE
  8
YODOROGO
 10
28657.604341291921
 20
1747.74949642929
 30
0.0
 11
28793.60434129191
 21
1747.74949642929
 31
0.0
  0
LINE
  5
45FF
  8
YODOROGO
 10
28729.604341291921
 20
1867.7494964292871
 30
0.0
 11
28729.604341291921
 21
1923.7494964292871
 31
0.0
  0
LINE
  5
4600
  8
YODOROGO
 10
28793.60434129191
 20
1867.7494964292871
 30
0.0
 11
28729.604341291921
 21
1867.7494964292871
 31
0.0
  0
LINE
  5
4601
  8
YODOROGO
 10
28793.60434129191
 20
1947.749496429288
 30
0.0
 11
28793.60434129191
 21
1867.7494964292871
 31
0.0
  0
ARC
  5
4602
  8
YODOROGO
 10
28753.60434129191
 20
1947.749496429288
 30
0.0
 40
40.0
 50
0.0
 51
90.0
  0
LINE
  5
4603
  8
YODOROGO
 10
28657.604341291921
 20
1987.7494964292871
 30
0.0
 11
28753.60434129191
 21
1987.7494964292871
 31
0.0
  0
LINE
  5
4604
  8
YODOROGO
 10
28657.604341291921
 20
2027.749496429288
 30
0.0
 11
28657.604341291921
 21
1987.7494964292871
 31
0.0
  0
LINE
  5
4605
  8
YODOROGO
 10
29073.604341291921
 20
2027.749496429288
 30
0.0
 11
29001.60434129191
 21
2027.749496429288
 31
0.0
  0
LINE
  5
4606
  8
YODOROGO
 10
29261.604341291921
 20
2007.749496429288
 30
0.0
 11
29197.604341291921
 21
2007.749496429288
 31
0.0
  0
LINE
  5
4607
  8
YODOROGO
 10
29457.604341291921
 20
2027.749496429288
 30
0.0
 11
29385.604341291921
 21
2027.749496429288
 31
0.0
  0
LINE
  5
4608
  8
YODOROGO
 10
29673.604341291921
 20
1707.749496429288
 30
0.0
 11
29673.604341291921
 21
1771.7494964292871
 31
0.0
1001
AUTOCAD_POSTSCRIPT_FIGURE
1002
{
1000
PSFILL
1000
Grayscale
1000
Grayscale
1070
    25
1002
}
  0
LINE
  5
4609
  8
YODOROGO
 10
29617.604341291921
 20
1707.749496429288
 30
0.0
 11
29673.604341291921
 21
1707.749496429288
 31
0.0
1001
AUTOCAD_POSTSCRIPT_FIGURE
1002
{
1000
PSFILL
1000
Grayscale
1000
Grayscale
1070
    25
1002
}
  0
LINE
  5
460A
  8
YODOROGO
 10
29617.604341291921
 20
1819.7494964292871
 30
0.0
 11
29617.604341291921
 21
1707.749496429288
 31
0.0
1001
AUTOCAD_POSTSCRIPT_FIGURE
1002
{
1000
PSFILL
1000
Grayscale
1000
Grayscale
1070
    25
1002
}
  0
LINE
  5
460B
  8
YODOROGO
 10
29765.604341291921
 20
1819.7494964292871
 30
0.0
 11
29617.604341291921
 21
1819.7494964292871
 31
0.0
1001
AUTOCAD_POSTSCRIPT_FIGURE
1002
{
1000
PSFILL
1000
Grayscale
1000
Grayscale
1070
    25
1002
}
  0
LINE
  5
460C
  8
YODOROGO
 10
29765.604341291921
 20
1859.749496429288
 30
0.0
 11
29765.604341291921
 21
1819.7494964292871
 31
0.0
1001
AUTOCAD_POSTSCRIPT_FIGURE
1002
{
1000
PSFILL
1000
Grayscale
1000
Grayscale
1070
    25
1002
}
  0
LINE
  5
460D
  8
YODOROGO
 10
29617.604341291921
 20
1859.749496429288
 30
0.0
 11
29765.604341291921
 21
1859.749496429288
 31
0.0
1001
AUTOCAD_POSTSCRIPT_FIGURE
1002
{
1000
PSFILL
1000
Grayscale
1000
Grayscale
1070
    25
1002
}
  0
LINE
  5
460E
  8
YODOROGO
 10
29617.604341291921
 20
1907.7494964292871
 30
0.0
 11
29617.604341291921
 21
1859.749496429288
 31
0.0
1001
AUTOCAD_POSTSCRIPT_FIGURE
1002
{
1000
PSFILL
1000
Grayscale
1000
Grayscale
1070
    25
1002
}
  0
LINE
  5
460F
  8
YODOROGO
 10
29765.604341291921
 20
1907.7494964292871
 30
0.0
 11
29617.604341291921
 21
1907.7494964292871
 31
0.0
1001
AUTOCAD_POSTSCRIPT_FIGURE
1002
{
1000
PSFILL
1000
Grayscale
1000
Grayscale
1070
    25
1002
}
  0
LINE
  5
4610
  8
YODOROGO
 10
29765.604341291921
 20
1947.749496429288
 30
0.0
 11
29765.604341291921
 21
1907.7494964292871
 31
0.0
1001
AUTOCAD_POSTSCRIPT_FIGURE
1002
{
1000
PSFILL
1000
Grayscale
1000
Grayscale
1070
    25
1002
}
  0
LINE
  5
4611
  8
YODOROGO
 10
29617.604341291921
 20
1947.749496429288
 30
0.0
 11
29765.604341291921
 21
1947.749496429288
 31
0.0
1001
AUTOCAD_POSTSCRIPT_FIGURE
1002
{
1000
PSFILL
1000
Grayscale
1000
Grayscale
1070
    25
1002
}
  0
LINE
  5
4612
  8
YODOROGO
 10
29617.604341291921
 20
2027.749496429288
 30
0.0
 11
29617.604341291921
 21
1947.749496429288
 31
0.0
1001
AUTOCAD_POSTSCRIPT_FIGURE
1002
{
1000
PSFILL
1000
Grayscale
1000
Grayscale
1070
    25
1002
}
  0
LINE
  5
4613
  8
YODOROGO
 10
29665.604341291921
 20
2027.749496429288
 30
0.0
 11
29617.604341291921
 21
2027.749496429288
 31
0.0
1001
AUTOCAD_POSTSCRIPT_FIGURE
1002
{
1000
PSFILL
1000
Grayscale
1000
Grayscale
1070
    25
1002
}
  0
LINE
  5
4614
  8
YODOROGO
 10
29665.604341291921
 20
1995.7494964292871
 30
0.0
 11
29665.604341291921
 21
2027.749496429288
 31
0.0
1001
AUTOCAD_POSTSCRIPT_FIGURE
1002
{
1000
PSFILL
1000
Grayscale
1000
Grayscale
1070
    25
1002
}
  0
LINE
  5
4615
  8
YODOROGO
 10
29765.604341291921
 20
1995.7494964292871
 30
0.0
 11
29665.604341291921
 21
1995.7494964292871
 31
0.0
1001
AUTOCAD_POSTSCRIPT_FIGURE
1002
{
1000
PSFILL
1000
Grayscale
1000
Grayscale
1070
    25
1002
}
  0
LINE
  5
4616
  8
YODOROGO
 10
29765.604341291921
 20
2027.749496429288
 30
0.0
 11
29765.604341291921
 21
1995.7494964292871
 31
0.0
1001
AUTOCAD_POSTSCRIPT_FIGURE
1002
{
1000
PSFILL
1000
Grayscale
1000
Grayscale
1070
    25
1002
}
  0
LINE
  5
4617
  8
YODOROGO
 10
29829.604341291921
 20
2027.749496429288
 30
0.0
 11
29765.604341291921
 21
2027.749496429288
 31
0.0
1001
AUTOCAD_POSTSCRIPT_FIGURE
1002
{
1000
PSFILL
1000
Grayscale
1000
Grayscale
1070
    25
1002
}
  0
LINE
  5
4618
  8
YODOROGO
 10
29829.604341291921
 20
1995.7494964292871
 30
0.0
 11
29829.604341291921
 21
2027.749496429288
 31
0.0
1001
AUTOCAD_POSTSCRIPT_FIGURE
1002
{
1000
PSFILL
1000
Grayscale
1000
Grayscale
1070
    25
1002
}
  0
LINE
  5
4619
  8
YODOROGO
 10
29829.604341291921
 20
1907.7494964292871
 30
0.0
 11
29829.604341291921
 21
1947.749496429288
 31
0.0
1001
AUTOCAD_POSTSCRIPT_FIGURE
1002
{
1000
PSFILL
1000
Grayscale
1000
Grayscale
1070
    25
1002
}
  0
LINE
  5
461A
  8
YODOROGO
 10
29829.604341291921
 20
1819.7494964292871
 30
0.0
 11
29829.604341291921
 21
1859.749496429288
 31
0.0
1001
AUTOCAD_POSTSCRIPT_FIGURE
1002
{
1000
PSFILL
1000
Grayscale
1000
Grayscale
1070
    25
1002
}
  0
LINE
  5
461B
  8
YODOROGO
 10
29921.60434129191
 20
1771.7494964292871
 30
0.0
 11
29921.60434129191
 21
1707.749496429288
 31
0.0
1001
AUTOCAD_POSTSCRIPT_FIGURE
1002
{
1000
PSFILL
1000
Grayscale
1000
Grayscale
1070
    25
1002
}
  0
LINE
  5
461C
  8
YODOROGO
 10
29829.604341291921
 20
1771.7494964292871
 30
0.0
 11
29921.60434129191
 21
1771.7494964292871
 31
0.0
1001
AUTOCAD_POSTSCRIPT_FIGURE
1002
{
1000
PSFILL
1000
Grayscale
1000
Grayscale
1070
    25
1002
}
  0
LINE
  5
461D
  8
YODOROGO
 10
29829.604341291921
 20
1707.749496429288
 30
0.0
 11
29829.604341291921
 21
1771.7494964292871
 31
0.0
1001
AUTOCAD_POSTSCRIPT_FIGURE
1002
{
1000
PSFILL
1000
Grayscale
1000
Grayscale
1070
    25
1002
}
  0
LINE
  5
461E
  8
YODOROGO
 10
29765.604341291921
 20
1707.749496429288
 30
0.0
 11
29829.604341291921
 21
1707.749496429288
 31
0.0
1001
AUTOCAD_POSTSCRIPT_FIGURE
1002
{
1000
PSFILL
1000
Grayscale
1000
Grayscale
1070
    25
1002
}
  0
LINE
  5
461F
  8
YODOROGO
 10
29765.604341291921
 20
1771.7494964292871
 30
0.0
 11
29765.604341291921
 21
1707.749496429288
 31
0.0
1001
AUTOCAD_POSTSCRIPT_FIGURE
1002
{
1000
PSFILL
1000
Grayscale
1000
Grayscale
1070
    25
1002
}
  0
LINE
  5
4620
  8
YODOROGO
 10
29673.604341291921
 20
1771.7494964292871
 30
0.0
 11
29765.604341291921
 21
1771.7494964292871
 31
0.0
1001
AUTOCAD_POSTSCRIPT_FIGURE
1002
{
1000
PSFILL
1000
Grayscale
1000
Grayscale
1070
    25
1002
}
  0
ARC
  5
4621
  8
YODOROGO
 10
31059.517893357912
 20
1602.6807375155761
 30
0.0
 40
178.22128111072141
 50
281.02627495425338
 51
357.77113575573799
  0
LINE
  5
4622
  8
YODOROGO
 10
31413.604341291921
 20
1907.7494964292871
 30
0.0
 11
31165.604341291921
 21
1907.7494964292871
 31
0.0
  0
LINE
  5
4623
  8
YODOROGO
 10
31413.604341291921
 20
2027.749496429288
 30
0.0
 11
31165.604341291921
 21
2027.749496429288
 31
0.0
  0
LINE
  5
4624
  8
YODOROGO
 10
31165.604341291921
 20
1963.749496429286
 30
0.0
 11
31413.604341291921
 21
1963.749496429286
 31
0.0
  0
LINE
  5
4625
  8
YODOROGO
 10
30791.604341291921
 20
1563.7494964292871
 30
0.0
 11
30791.604341291921
 21
1755.7494964292871
 31
0.0
  0
LINE
  5
4626
  8
YODOROGO
 10
30763.604341291921
 20
1691.749496429288
 30
0.0
 11
30763.604341291921
 21
1563.7494964292871
 31
0.0
  0
LINE
  5
4627
  8
YODOROGO
 10
30723.604341291921
 20
1491.749496429288
 30
0.0
 11
30723.604341291921
 21
1691.749496429288
 31
0.0
  0
LINE
  5
4628
  8
YODOROGO
 10
30899.604341291932
 20
1691.749496429288
 30
0.0
 11
30899.604341291932
 21
1491.749496429288
 31
0.0
  0
LINE
  5
4629
  8
YODOROGO
 10
30859.604341291932
 20
1563.7494964292871
 30
0.0
 11
30859.604341291932
 21
1691.749496429288
 31
0.0
  0
LINE
  5
462A
  8
YODOROGO
 10
30831.604341291921
 20
1755.7494964292871
 30
0.0
 11
30831.604341291921
 21
1563.7494964292871
 31
0.0
  0
LINE
  5
462B
  8
YODOROGO
 10
30973.604341291921
 20
2027.749496429288
 30
0.0
 11
30973.604341291921
 21
1467.749496429288
 31
0.0
  0
LINE
  5
462C
  8
YODOROGO
 10
30645.604341291921
 20
1427.749496429288
 30
0.0
 11
30645.604341291921
 21
2027.749496429288
 31
0.0
  0
LINE
  5
462D
  8
YODOROGO
 10
30697.604341291932
 20
1963.749496429286
 30
0.0
 11
30697.604341291932
 21
1427.749496429288
 31
0.0
  0
LINE
  5
462E
  8
YODOROGO
 10
30925.604341291921
 20
1547.749496429288
 30
0.0
 11
30925.604341291921
 21
1963.749496429286
 31
0.0
  0
LINE
  5
462F
  8
YODOROGO
 10
30381.604341291932
 20
1627.749496429288
 30
0.0
 11
30381.604341291932
 21
1679.749496429288
 31
0.0
  0
LINE
  5
4630
  8
YODOROGO
 10
30617.604341291921
 20
1679.749496429288
 30
0.0
 11
30617.604341291921
 21
1627.749496429288
 31
0.0
  0
LINE
  5
4631
  8
YODOROGO
 10
31165.604341291921
 20
1907.7494964292871
 30
0.0
 11
31165.604341291921
 21
1635.7494964292871
 31
0.0
  0
LINE
  5
4632
  8
YODOROGO
 10
29949.60434129191
 20
1667.749496429288
 30
0.0
 11
29949.60434129191
 21
1707.749496429288
 31
0.0
  0
LINE
  5
4633
  8
YODOROGO
 10
29949.60434129191
 20
1667.749496429288
 30
0.0
 11
29949.60434129191
 21
1707.749496429288
 31
0.0
  0
ARC
  5
4634
  8
YODOROGO
 10
30537.604341291921
 20
1507.749496429288
 30
0.0
 40
80.0
 50
270.0
 51
0.0
  0
LINE
  5
4635
  8
YODOROGO
 10
30569.604341291921
 20
1599.7494964292871
 30
0.0
 11
30617.604341291921
 21
1599.7494964292871
 31
0.0
  0
LINE
  5
4636
  8
YODOROGO
 10
30617.604341291921
 20
1627.749496429288
 30
0.0
 11
30529.604341291939
 21
1627.749496429288
 31
0.0
  0
LINE
  5
4637
  8
YODOROGO
 10
30217.604341291921
 20
1667.749496429288
 30
0.0
 11
29949.60434129191
 21
1667.749496429288
 31
0.0
  0
LINE
  5
4638
  8
YODOROGO
 10
30217.604341291921
 20
1627.749496429288
 30
0.0
 11
30217.604341291921
 21
1667.749496429288
 31
0.0
  0
LINE
  5
4639
  8
YODOROGO
 10
30017.604341291921
 20
1627.749496429288
 30
0.0
 11
30217.604341291921
 21
1627.749496429288
 31
0.0
  0
ARC
  5
463A
  8
YODOROGO
 10
30230.05882870136
 20
1868.885714952901
 30
0.0
 40
321.37763628522822
 50
228.6181454618993
 51
245.660289248906
  0
LINE
  5
463B
  8
YODOROGO
 10
30105.604341291921
 20
1603.7494964292871
 30
0.0
 11
30097.60434129195
 21
1576.0728158699001
 31
0.0
  0
LINE
  5
463C
  8
YODOROGO
 10
30189.604341291921
 20
1603.7494964292871
 30
0.0
 11
30105.604341291921
 21
1603.7494964292871
 31
0.0
  0
LINE
  5
463D
  8
YODOROGO
 10
30177.604341291921
 20
1551.817722473427
 30
0.0
 11
30189.604341291921
 21
1603.7494964292871
 31
0.0
  0
ARC
  5
463E
  8
YODOROGO
 10
30230.05882870045
 20
1868.885714953002
 30
0.0
 40
321.37763628529081
 50
260.60629297969911
 51
267.77903556555862
  0
LINE
  5
463F
  8
YODOROGO
 10
30217.604341291921
 20
1427.749496429285
 30
0.0
 11
30217.604341291921
 21
1547.749496429288
 31
0.0
  0
LINE
  5
4640
  8
YODOROGO
 10
29937.604341291932
 20
1481.3393349155101
 30
0.0
 11
29937.604341291921
 21
1594.531090531141
 31
0.0
  0
LINE
  5
4641
  8
YODOROGO
 10
30217.604341291921
 20
1667.749496429288
 30
0.0
 11
29949.60434129191
 21
1667.749496429288
 31
0.0
  0
LINE
  5
4642
  8
YODOROGO
 10
30217.604341291921
 20
1627.749496429288
 30
0.0
 11
30217.604341291921
 21
1667.749496429288
 31
0.0
  0
LINE
  5
4643
  8
YODOROGO
 10
30017.604341291921
 20
1627.749496429288
 30
0.0
 11
30217.604341291921
 21
1627.749496429288
 31
0.0
  0
ARC
  5
4644
  8
YODOROGO
 10
30230.05882870136
 20
1868.885714952901
 30
0.0
 40
321.37763628522822
 50
228.6181454618993
 51
245.660289248906
  0
LINE
  5
4645
  8
YODOROGO
 10
30105.604341291921
 20
1603.7494964292871
 30
0.0
 11
30097.60434129195
 21
1576.0728158699001
 31
0.0
  0
LINE
  5
4646
  8
YODOROGO
 10
30189.604341291921
 20
1603.7494964292871
 30
0.0
 11
30105.604341291921
 21
1603.7494964292871
 31
0.0
  0
LINE
  5
4647
  8
YODOROGO
 10
30177.604341291921
 20
1551.817722473427
 30
0.0
 11
30189.604341291921
 21
1603.7494964292871
 31
0.0
  0
ARC
  5
4648
  8
YODOROGO
 10
30230.05882870045
 20
1868.885714953002
 30
0.0
 40
321.37763628529081
 50
260.60629297969911
 51
267.77903556555862
  0
LINE
  5
4649
  8
YODOROGO
 10
30217.604341291921
 20
1427.749496429285
 30
0.0
 11
30217.604341291921
 21
1547.749496429288
 31
0.0
  0
LINE
  5
464A
  8
YODOROGO
 10
29937.604341291932
 20
1481.3393349155101
 30
0.0
 11
29937.604341291921
 21
1594.531090531141
 31
0.0
  0
LINE
  5
464B
  8
YODOROGO
 10
30433.604341291921
 20
1573.749496429288
 30
0.0
 11
30381.604341291932
 21
1573.749496429288
 31
0.0
  0
LINE
  5
464C
  8
YODOROGO
 10
30433.604341291921
 20
1601.749496429285
 30
0.0
 11
30433.604341291921
 21
1573.749496429288
 31
0.0
  0
LINE
  5
464D
  8
YODOROGO
 10
30381.604341291932
 20
1601.749496429285
 30
0.0
 11
30433.604341291921
 21
1601.749496429285
 31
0.0
  0
LINE
  5
464E
  8
YODOROGO
 10
30381.604341291932
 20
1573.749496429288
 30
0.0
 11
30381.604341291932
 21
1601.749496429285
 31
0.0
  0
LINE
  5
464F
  8
YODOROGO
 10
30429.604341291921
 20
1577.7494964292871
 30
0.0
 11
30385.604341291921
 21
1577.7494964292871
 31
0.0
  0
LINE
  5
4650
  8
YODOROGO
 10
30429.604341291921
 20
1597.749496429288
 30
0.0
 11
30429.604341291921
 21
1577.7494964292871
 31
0.0
  0
LINE
  5
4651
  8
YODOROGO
 10
30385.604341291921
 20
1597.749496429288
 30
0.0
 11
30429.604341291921
 21
1597.749496429288
 31
0.0
  0
LINE
  5
4652
  8
YODOROGO
 10
30385.604341291921
 20
1577.7494964292871
 30
0.0
 11
30385.604341291921
 21
1597.749496429288
 31
0.0
  0
LINE
  5
4653
  8
YODOROGO
 10
30425.604341291921
 20
1581.749496429286
 30
0.0
 11
30389.604341291921
 21
1581.749496429286
 31
0.0
  0
LINE
  5
4654
  8
YODOROGO
 10
30425.604341291921
 20
1593.749496429288
 30
0.0
 11
30425.604341291921
 21
1581.749496429286
 31
0.0
  0
LINE
  5
4655
  8
YODOROGO
 10
30389.604341291921
 20
1593.749496429288
 30
0.0
 11
30425.604341291921
 21
1593.749496429288
 31
0.0
  0
LINE
  5
4656
  8
YODOROGO
 10
30389.604341291921
 20
1581.749496429286
 30
0.0
 11
30389.604341291921
 21
1593.749496429288
 31
0.0
  0
LINE
  5
4657
  8
YODOROGO
 10
30421.604341291932
 20
1585.7494964292871
 30
0.0
 11
30393.604341291921
 21
1585.7494964292871
 31
0.0
  0
LINE
  5
4658
  8
YODOROGO
 10
30421.604341291932
 20
1589.749496429288
 30
0.0
 11
30421.604341291932
 21
1585.7494964292871
 31
0.0
  0
LINE
  5
4659
  8
YODOROGO
 10
30393.604341291921
 20
1589.749496429288
 30
0.0
 11
30421.604341291932
 21
1589.749496429288
 31
0.0
  0
LINE
  5
465A
  8
YODOROGO
 10
30393.604341291921
 20
1585.7494964292871
 30
0.0
 11
30393.604341291921
 21
1589.749496429288
 31
0.0
  0
LINE
  5
465B
  8
YODOROGO
 10
30465.604341291921
 20
1627.749496429288
 30
0.0
 11
30381.604341291932
 21
1627.749496429288
 31
0.0
  0
LINE
  5
465C
  8
YODOROGO
 10
30465.604341291921
 20
1547.749496429288
 30
0.0
 11
30465.604341291921
 21
1627.749496429288
 31
0.0
  0
LINE
  5
465D
  8
YODOROGO
 10
30381.604341291932
 20
1547.749496429288
 30
0.0
 11
30465.604341291921
 21
1547.749496429288
 31
0.0
  0
LINE
  5
465E
  8
YODOROGO
 10
30381.604341291932
 20
1427.749496429288
 30
0.0
 11
30381.604341291932
 21
1547.749496429288
 31
0.0
  0
LINE
  5
465F
  8
YODOROGO
 10
30537.604341291921
 20
1427.749496429288
 30
0.0
 11
30381.604341291932
 21
1427.749496429288
 31
0.0
  0
LINE
  5
4660
  8
YODOROGO
 10
30569.604341291921
 20
1571.749496429285
 30
0.0
 11
30569.604341291921
 21
1599.7494964292871
 31
0.0
  0
ARC
  5
4661
  8
YODOROGO
 10
30545.604341291921
 20
1571.749496429291
 30
0.0
 40
24.000000000003752
 50
270.0
 51
359.99999999998772
  0
LINE
  5
4662
  8
YODOROGO
 10
30529.604341291939
 20
1547.749496429288
 30
0.0
 11
30545.604341291921
 21
1547.749496429288
 31
0.0
  0
LINE
  5
4663
  8
YODOROGO
 10
30529.604341291939
 20
1627.749496429288
 30
0.0
 11
30529.604341291939
 21
1547.749496429288
 31
0.0
  0
LINE
  5
4664
  8
YODOROGO
 10
30899.604341291932
 20
1547.749496429288
 30
0.0
 11
30925.604341291921
 21
1547.749496429288
 31
0.0
  0
LINE
  5
4665
  8
YODOROGO
 10
30933.604341291921
 20
1427.749496429288
 30
0.0
 11
30899.604341291932
 21
1427.749496429288
 31
0.0
  0
LINE
  5
4666
  8
YODOROGO
 10
30763.604341291921
 20
1563.7494964292871
 30
0.0
 11
30791.604341291921
 21
1563.7494964292871
 31
0.0
  0
LINE
  5
4667
  8
YODOROGO
 10
30899.604341291932
 20
1491.749496429288
 30
0.0
 11
30723.604341291921
 21
1491.749496429288
 31
0.0
  0
LINE
  5
4668
  8
YODOROGO
 10
30831.604341291921
 20
1563.7494964292871
 30
0.0
 11
30859.604341291932
 21
1563.7494964292871
 31
0.0
  0
LINE
  5
4669
  8
YODOROGO
 10
30899.604341291932
 20
1427.749496429288
 30
0.0
 11
30899.604341291932
 21
1547.749496429288
 31
0.0
  0
LINE
  5
466A
  8
YODOROGO
 10
30697.604341291932
 20
1427.749496429288
 30
0.0
 11
30645.604341291921
 21
1427.749496429288
 31
0.0
  0
LINE
  5
466B
  8
YODOROGO
 10
30617.604341291921
 20
1599.7494964292871
 30
0.0
 11
30617.604341291921
 21
1507.749496429288
 31
0.0
  0
ARC
  5
466C
  8
YODOROGO
 10
30933.604341291921
 20
1467.749496429288
 30
0.0
 40
40.0
 50
270.0
 51
0.0
  0
LINE
  5
466D
  8
YODOROGO
 10
31093.604341291921
 20
1523.7494964292871
 30
0.0
 11
31093.604341291921
 21
1427.749496429288
 31
0.0
  0
ARC
  5
466E
  8
YODOROGO
 10
31039.721395566768
 20
1637.5313901097329
 30
0.0
 40
125.8955565916754
 50
295.34052442160112
 51
359.18902303418679
  0
LINE
  5
466F
  8
YODOROGO
 10
30617.604341291921
 20
1859.749496429288
 30
0.0
 11
30497.604341291921
 21
1939.749496429288
 31
0.0
  0
LINE
  5
4670
  8
YODOROGO
 10
30497.604341291921
 20
2027.749496429288
 30
0.0
 11
30617.604341291921
 21
1947.749496429288
 31
0.0
  0
LINE
  5
4671
  8
YODOROGO
 10
30529.604341291939
 20
1679.749496429288
 30
0.0
 11
30617.604341291921
 21
1679.749496429288
 31
0.0
  0
LINE
  5
4672
  8
YODOROGO
 10
30617.604341291921
 20
1735.7494964292871
 30
0.0
 11
30529.604341291939
 21
1735.7494964292871
 31
0.0
  0
LINE
  5
4673
  8
YODOROGO
 10
30381.604341291932
 20
1795.7494964292871
 30
0.0
 11
30617.604341291921
 21
1795.7494964292871
 31
0.0
  0
LINE
  5
4674
  8
YODOROGO
 10
30081.604341291921
 20
2027.749496429288
 30
0.0
 11
30021.604341291921
 21
2027.749496429288
 31
0.0
  0
LINE
  5
4675
  8
YODOROGO
 10
30081.604341291921
 20
1827.7494964292871
 30
0.0
 11
30081.604341291921
 21
2027.749496429288
 31
0.0
  0
LINE
  5
4676
  8
YODOROGO
 10
30021.604341291921
 20
1827.7494964292871
 30
0.0
 11
30081.604341291921
 21
1827.7494964292871
 31
0.0
  0
LINE
  5
4677
  8
YODOROGO
 10
30021.604341291921
 20
2027.749496429288
 30
0.0
 11
30021.604341291921
 21
1827.7494964292871
 31
0.0
  0
LINE
  5
4678
  8
YODOROGO
 10
30161.604341291921
 20
2027.749496429288
 30
0.0
 11
30217.604341291921
 21
2027.749496429288
 31
0.0
  0
LINE
  5
4679
  8
YODOROGO
 10
30161.604341291921
 20
1811.749496429288
 30
0.0
 11
30161.604341291921
 21
2027.749496429288
 31
0.0
  0
ARC
  5
467A
  8
YODOROGO
 10
30121.604341291921
 20
1811.749496429288
 30
0.0
 40
40.0
 50
270.0
 51
0.0
  0
LINE
  5
467B
  8
YODOROGO
 10
30021.604341291921
 20
1771.7494964292871
 30
0.0
 11
30121.604341291921
 21
1771.7494964292871
 31
0.0
  0
LINE
  5
467C
  8
YODOROGO
 10
30021.604341291921
 20
1707.749496429288
 30
0.0
 11
30021.604341291921
 21
1771.7494964292871
 31
0.0
  0
LINE
  5
467D
  8
YODOROGO
 10
30137.604341291921
 20
1707.749496429288
 30
0.0
 11
30021.604341291921
 21
1707.749496429288
 31
0.0
  0
ARC
  5
467E
  8
YODOROGO
 10
30137.604341291921
 20
1787.7494964292871
 30
0.0
 40
80.0
 50
270.0
 51
0.0
  0
LINE
  5
467F
  8
YODOROGO
 10
30217.604341291921
 20
2027.749496429288
 30
0.0
 11
30217.604341291921
 21
1787.7494964292871
 31
0.0
  0
LINE
  5
4680
  8
YODOROGO
 10
29977.604341291921
 20
1947.749496429288
 30
0.0
 11
29977.604341291921
 21
1995.7494964292871
 31
0.0
1001
AUTOCAD_POSTSCRIPT_FIGURE
1002
{
1000
PSFILL
1000
Grayscale
1000
Grayscale
1070
    25
1002
}
  0
LINE
  5
4681
  8
YODOROGO
 10
29977.604341291921
 20
1859.749496429288
 30
0.0
 11
29977.604341291921
 21
1907.7494964292871
 31
0.0
1001
AUTOCAD_POSTSCRIPT_FIGURE
1002
{
1000
PSFILL
1000
Grayscale
1000
Grayscale
1070
    25
1002
}
  0
LINE
  5
4682
  8
YODOROGO
 10
29977.604341291921
 20
1707.749496429288
 30
0.0
 11
29977.604341291921
 21
1819.7494964292871
 31
0.0
1001
AUTOCAD_POSTSCRIPT_FIGURE
1002
{
1000
PSFILL
1000
Grayscale
1000
Grayscale
1070
    25
1002
}
  0
LINE
  5
4683
  8
YODOROGO
 10
30381.604341291932
 20
1907.7494964292871
 30
0.0
 11
30497.604341291921
 21
2027.749496429288
 31
0.0
  0
LINE
  5
4684
  8
YODOROGO
 10
30381.604341291932
 20
1819.7494964292871
 30
0.0
 11
30381.604341291932
 21
1907.7494964292871
 31
0.0
  0
LINE
  5
4685
  8
YODOROGO
 10
30497.604341291921
 20
1939.749496429288
 30
0.0
 11
30381.604341291932
 21
1819.7494964292871
 31
0.0
  0
LINE
  5
4686
  8
YODOROGO
 10
30465.604341291921
 20
1679.749496429288
 30
0.0
 11
30465.604341291921
 21
1735.7494964292871
 31
0.0
  0
LINE
  5
4687
  8
YODOROGO
 10
30381.604341291932
 20
1679.749496429288
 30
0.0
 11
30465.604341291921
 21
1679.749496429288
 31
0.0
  0
LINE
  5
4688
  8
YODOROGO
 10
30529.604341291939
 20
1735.7494964292871
 30
0.0
 11
30529.604341291939
 21
1679.749496429288
 31
0.0
  0
LINE
  5
4689
  8
YODOROGO
 10
30381.604341291932
 20
1735.7494964292871
 30
0.0
 11
30381.604341291932
 21
1795.7494964292871
 31
0.0
  0
LINE
  5
468A
  8
YODOROGO
 10
30465.604341291921
 20
1735.7494964292871
 30
0.0
 11
30381.604341291932
 21
1735.7494964292871
 31
0.0
  0
LINE
  5
468B
  8
YODOROGO
 10
30645.604341291921
 20
2027.749496429288
 30
0.0
 11
30973.604341291921
 21
2027.749496429288
 31
0.0
  0
LINE
  5
468C
  8
YODOROGO
 10
30925.604341291921
 20
1963.749496429286
 30
0.0
 11
30697.604341291932
 21
1963.749496429286
 31
0.0
  0
LINE
  5
468D
  8
YODOROGO
 10
30873.604341291921
 20
1819.7494964292871
 30
0.0
 11
30899.604341291932
 21
1819.7494964292871
 31
0.0
  0
LINE
  5
468E
  8
YODOROGO
 10
30899.604341291932
 20
1939.749496429288
 30
0.0
 11
30873.604341291921
 21
1819.7494964292871
 31
0.0
  0
LINE
  5
468F
  8
YODOROGO
 10
30851.604341291939
 20
1939.749496429288
 30
0.0
 11
30899.604341291932
 21
1939.749496429288
 31
0.0
  0
LINE
  5
4690
  8
YODOROGO
 10
30825.604341291921
 20
1819.7494964292871
 30
0.0
 11
30851.604341291939
 21
1939.749496429288
 31
0.0
  0
LINE
  5
4691
  8
YODOROGO
 10
30797.604341291921
 20
1819.7494964292871
 30
0.0
 11
30825.604341291921
 21
1819.7494964292871
 31
0.0
  0
LINE
  5
4692
  8
YODOROGO
 10
30771.604341291939
 20
1939.749496429288
 30
0.0
 11
30797.604341291921
 21
1819.7494964292871
 31
0.0
  0
LINE
  5
4693
  8
YODOROGO
 10
30723.604341291921
 20
1939.749496429288
 30
0.0
 11
30771.604341291939
 21
1939.749496429288
 31
0.0
  0
LINE
  5
4694
  8
YODOROGO
 10
30749.604341291921
 20
1819.7494964292871
 30
0.0
 11
30723.604341291921
 21
1939.749496429288
 31
0.0
  0
LINE
  5
4695
  8
YODOROGO
 10
30723.604341291921
 20
1819.7494964292871
 30
0.0
 11
30749.604341291921
 21
1819.7494964292871
 31
0.0
  0
LINE
  5
4696
  8
YODOROGO
 10
30723.604341291921
 20
1755.7494964292871
 30
0.0
 11
30723.604341291921
 21
1819.7494964292871
 31
0.0
  0
LINE
  5
4697
  8
YODOROGO
 10
30899.604341291932
 20
1755.7494964292871
 30
0.0
 11
30723.604341291921
 21
1755.7494964292871
 31
0.0
  0
LINE
  5
4698
  8
YODOROGO
 10
30899.604341291932
 20
1819.7494964292871
 30
0.0
 11
30899.604341291932
 21
1755.7494964292871
 31
0.0
  0
LINE
  5
4699
  8
YODOROGO
 10
30617.604341291921
 20
1947.749496429288
 30
0.0
 11
30617.604341291921
 21
1859.749496429288
 31
0.0
  0
LINE
  5
469A
  8
YODOROGO
 10
30791.604341291921
 20
1755.7494964292871
 30
0.0
 11
30831.604341291921
 21
1755.7494964292871
 31
0.0
  0
LINE
  5
469B
  8
YODOROGO
 10
30723.604341291921
 20
1691.749496429288
 30
0.0
 11
30763.604341291921
 21
1691.749496429288
 31
0.0
  0
LINE
  5
469C
  8
YODOROGO
 10
30859.604341291932
 20
1691.749496429288
 30
0.0
 11
30899.604341291932
 21
1691.749496429288
 31
0.0
  0
LINE
  5
469D
  8
YODOROGO
 10
30617.604341291921
 20
1795.7494964292871
 30
0.0
 11
30617.604341291921
 21
1735.7494964292871
 31
0.0
  0
LINE
  5
469E
  8
YODOROGO
 10
31165.604341291921
 20
2027.749496429288
 30
0.0
 11
31165.604341291921
 21
1963.749496429286
 31
0.0
  0
LINE
  5
469F
  8
YODOROGO
 10
31533.604341291921
 20
1595.7494964292871
 30
0.0
 11
31533.60434129191
 21
1811.749496429288
 31
0.0
  0
LINE
  5
46A0
  8
YODOROGO
 10
31461.60434129191
 20
1987.7494964292871
 30
0.0
 11
31461.60434129191
 21
1635.7494964292871
 31
0.0
  0
LINE
  5
46A1
  8
YODOROGO
 10
31653.604341291921
 20
1427.749496429288
 30
0.0
 11
31653.60434129191
 21
1811.749496429288
 31
0.0
  0
LINE
  5
46A2
  8
YODOROGO
 10
31589.604341291921
 20
1811.749496429288
 30
0.0
 11
31589.604341291921
 21
1427.749496429288
 31
0.0
  0
LINE
  5
46A3
  8
YODOROGO
 10
31237.604341291921
 20
1595.7494964292871
 30
0.0
 11
31237.604341291921
 21
1707.749496429288
 31
0.0
  0
ARC
  5
46A4
  8
YODOROGO
 10
31353.914865116069
 20
1607.790351288558
 30
0.0
 40
180.0924485759885
 50
268.62849102169793
 51
356.16638457330322
  0
LINE
  5
46A5
  8
YODOROGO
 10
31349.604341291939
 20
1527.749496429288
 30
0.0
 11
31349.604341291939
 21
1427.749496429288
 31
0.0
  0
ARC
  5
46A6
  8
YODOROGO
 10
31351.518075724562
 20
1637.838957017655
 30
0.0
 40
110.1060929836122
 50
269.00410209305932
 51
358.91264455492478
  0
LINE
  5
46A7
  8
YODOROGO
 10
31589.604341291921
 20
1427.749496429288
 30
0.0
 11
31653.604341291921
 21
1427.749496429288
 31
0.0
  0
LINE
  5
46A8
  8
YODOROGO
 10
31533.60434129191
 20
1811.749496429288
 30
0.0
 11
31589.604341291921
 21
1811.749496429288
 31
0.0
  0
LINE
  5
46A9
  8
YODOROGO
 10
31621.604341291939
 20
1987.7494964292871
 30
0.0
 11
31461.60434129191
 21
1987.7494964292871
 31
0.0
  0
LINE
  5
46AA
  8
YODOROGO
 10
31533.60434129191
 20
1915.7494964292871
 30
0.0
 11
31661.604341291939
 21
1915.7494964292871
 31
0.0
  0
LINE
  5
46AB
  8
YODOROGO
 10
31701.604341291939
 20
1875.7494964292871
 30
0.0
 11
31533.60434129191
 21
1875.7494964292871
 31
0.0
  0
LINE
  5
46AC
  8
YODOROGO
 10
31237.604341291921
 20
1779.749496429288
 30
0.0
 11
31349.604341291939
 21
1779.749496429288
 31
0.0
  0
LINE
  5
46AD
  8
YODOROGO
 10
31237.604341291921
 20
1835.7494964292871
 30
0.0
 11
31237.604341291921
 21
1779.749496429288
 31
0.0
  0
LINE
  5
46AE
  8
YODOROGO
 10
31349.604341291939
 20
1835.7494964292871
 30
0.0
 11
31237.604341291921
 21
1835.7494964292871
 31
0.0
  0
LINE
  5
46AF
  8
YODOROGO
 10
31349.604341291939
 20
1779.749496429288
 30
0.0
 11
31349.604341291939
 21
1835.7494964292871
 31
0.0
  0
LINE
  5
46B0
  8
YODOROGO
 10
31533.60434129191
 20
1875.7494964292871
 30
0.0
 11
31533.60434129191
 21
1915.7494964292871
 31
0.0
  0
LINE
  5
46B1
  8
YODOROGO
 10
31413.604341291921
 20
1707.749496429288
 30
0.0
 11
31413.604341291921
 21
1907.7494964292871
 31
0.0
  0
LINE
  5
46B2
  8
YODOROGO
 10
31237.604341291921
 20
1707.749496429288
 30
0.0
 11
31413.604341291921
 21
1707.749496429288
 31
0.0
  0
LINE
  5
46B3
  8
YODOROGO
 10
31413.604341291921
 20
1963.749496429286
 30
0.0
 11
31413.604341291921
 21
2027.749496429288
 31
0.0
  0
ARC
  5
46B4
  8
YODOROGO
 10
31621.604341291939
 20
2003.749496429285
 30
0.0
 40
15.999999999994539
 50
270.0
 51
0.0000000000081422
  0
LINE
  5
46B5
  8
YODOROGO
 10
31637.604341291921
 20
2027.749496429288
 30
0.0
 11
31637.604341291921
 21
2003.7494964292871
 31
0.0
  0
LINE
  5
46B6
  8
YODOROGO
 10
31701.604341291939
 20
2027.749496429288
 30
0.0
 11
31637.604341291921
 21
2027.749496429288
 31
0.0
  0
LINE
  5
46B7
  8
YODOROGO
 10
31701.604341291939
 20
1955.7494964292871
 30
0.0
 11
31701.604341291939
 21
2027.749496429288
 31
0.0
  0
ARC
  5
46B8
  8
YODOROGO
 10
31661.604341291939
 20
1955.7494964292871
 30
0.0
 40
40.0
 50
270.0
 51
0.0
  0
LINE
  5
46B9
  8
YODOROGO
 10
31701.604341291939
 20
1811.749496429288
 30
0.0
 11
31701.604341291939
 21
1875.7494964292871
 31
0.0
  0
LINE
  5
46BA
  8
YODOROGO
 10
31653.60434129191
 20
1811.749496429288
 30
0.0
 11
31701.604341291939
 21
1811.749496429288
 31
0.0
  0
LINE
  5
46BE
  8
SUNPOU
  6
CONTINUOUS
 62
     4
 10
9736.8597049999862
 20
13512.735599
 30
0.0
 11
8889.8642839999866
 21
13512.735599
 31
0.0
  0
LINE
  5
46BF
  8
SUNPOU
  6
CONTINUOUS
 62
     4
 10
8969.8642839999866
 20
13705.230913999991
 30
0.0
 11
8969.8642839999866
 21
13512.735599
 31
0.0
  0
LINE
  5
46C0
  8
SUNPOU
  6
CONTINUOUS
 62
     4
 10
9600.5649019999837
 20
15514.971425500011
 30
0.0
 11
8889.8642839999866
 21
15514.971425500011
 31
0.0
  0
LINE
  5
46C1
  8
SUNPOU
  6
CONTINUOUS
 62
     4
 10
8969.8642839999866
 20
15514.971425500011
 30
0.0
 11
8969.8642839999866
 21
13705.230913999991
 31
0.0
  0
LINE
  5
46C2
  8
SUNPOU
  6
CONTINUOUS
 62
     4
 10
9600.5649019999837
 20
15514.971425500011
 30
0.0
 11
8889.8642839999866
 21
15514.971425500011
 31
0.0
  0
LINE
  5
46C3
  8
SUNPOU
  6
CONTINUOUS
 62
     4
 10
8969.8642839999866
 20
16973.730914
 30
0.0
 11
8969.8642839999866
 21
15514.971425500011
 31
0.0
  0
LINE
  5
46C4
  8
SUNPOU
  6
CONTINUOUS
 62
     4
 10
9586.4252009999836
 20
18432.730914
 30
0.0
 11
8889.8642839999866
 21
18432.730914
 31
0.0
  0
LINE
  5
46C5
  8
SUNPOU
  6
CONTINUOUS
 62
     4
 10
8969.8642839999866
 20
18432.730914
 30
0.0
 11
8969.8642839999866
 21
16973.730914
 31
0.0
  0
LINE
  5
46C6
  8
SUNPOU
  6
CONTINUOUS
 62
     4
 10
9736.8597049999862
 20
20094.226823000001
 30
0.0
 11
9289.8642839999848
 21
20094.226823000001
 31
0.0
  0
LINE
  5
46C7
  8
SUNPOU
  6
CONTINUOUS
 62
     4
 10
9736.8640599999835
 20
20114.226823000001
 30
0.0
 11
9289.8642839999848
 21
20114.226823000001
 31
0.0
  0
LINE
  5
46C9
  8
SUNPOU
  6
CONTINUOUS
 62
     4
 10
9369.8642839999848
 20
20114.226823000001
 30
0.0
 11
9369.8642839999848
 21
20354.226823000012
 31
0.0
  0
LINE
  5
46CA
  8
SUNPOU
  6
CONTINUOUS
 62
     4
 10
9369.8642839999848
 20
20074.226823000001
 30
0.0
 11
9369.8642839999848
 21
20114.226823000001
 31
0.0
  0
LINE
  5
46CB
  8
SUNPOU
  6
CONTINUOUS
 62
     4
 10
9736.8640599999835
 20
20114.226823000001
 30
0.0
 11
8889.8642839999866
 21
20114.226823000001
 31
0.0
  0
LINE
  5
46CC
  8
SUNPOU
  6
CONTINUOUS
 62
     4
 10
8969.8642839999866
 20
19891.730914
 30
0.0
 11
8969.8642839999866
 21
20114.226823000001
 31
0.0
  0
LINE
  5
46CD
  8
SUNPOU
  6
CONTINUOUS
 62
     4
 10
9586.4252009999836
 20
18432.730914
 30
0.0
 11
8889.8642839999866
 21
18432.730914
 31
0.0
  0
LINE
  5
46CE
  8
SUNPOU
  6
CONTINUOUS
 62
     4
 10
8969.8642839999866
 20
18432.730914
 30
0.0
 11
8969.8642839999866
 21
19891.730914
 31
0.0
  0
LINE
  5
46CF
  8
SUNPOU
  6
CONTINUOUS
 62
     4
 10
9813.8640599999835
 20
20189.22458000002
 30
0.0
 11
9813.8640599999835
 21
20739.229859000021
 31
0.0
  0
LINE
  5
46D0
  8
SUNPOU
  6
CONTINUOUS
 62
     4
 10
9899.3640599999835
 20
20659.229859000021
 30
0.0
 11
10139.36405999998
 21
20659.229859000021
 31
0.0
  0
LINE
  5
46D1
  8
SUNPOU
  6
CONTINUOUS
 62
     4
 10
9816.8640599999835
 20
20659.229859000021
 30
0.0
 11
9576.8640599999835
 21
20659.229859000021
 31
0.0
  0
LINE
  5
46D2
  8
SUNPOU
  6
CONTINUOUS
 62
     4
 10
9899.3640599999835
 20
20659.229859000021
 30
0.0
 11
9816.8640599999835
 21
20659.229859000021
 31
0.0
  0
LINE
  5
46D3
  8
SUNPOU
  6
CONTINUOUS
 62
     4
 10
12466.86405999998
 20
20584.232102000031
 30
0.0
 11
12466.86405999998
 21
20579.229859000021
 31
0.0
  0
LINE
  5
46D4
  8
SUNPOU
  6
CONTINUOUS
 62
     4
 10
12466.86405999998
 20
20659.229859000021
 30
0.0
 11
9899.3640599999835
 21
20659.229859000021
 31
0.0
  0
LINE
  5
46D5
  8
SUNPOU
  6
CONTINUOUS
 62
     4
 10
15119.86405999998
 20
20189.22458000002
 30
0.0
 11
15119.86405999998
 21
20739.229859000021
 31
0.0
  0
LINE
  5
46D6
  8
SUNPOU
  6
CONTINUOUS
 62
     4
 10
15034.36405999998
 20
20659.229859000021
 30
0.0
 11
14794.364059999971
 21
20659.229859000021
 31
0.0
  0
LINE
  5
46D7
  8
SUNPOU
  6
CONTINUOUS
 62
     4
 10
15116.86405999998
 20
20659.229859000021
 30
0.0
 11
15356.864059999971
 21
20659.229859000021
 31
0.0
  0
LINE
  5
46D8
  8
SUNPOU
  6
CONTINUOUS
 62
     4
 10
15034.36405999998
 20
20659.229859000021
 30
0.0
 11
15116.86405999998
 21
20659.229859000021
 31
0.0
  0
LINE
  5
46D9
  8
SUNPOU
  6
CONTINUOUS
 62
     4
 10
12466.86405999998
 20
20584.232102000031
 30
0.0
 11
12466.86405999998
 21
20579.229859000021
 31
0.0
  0
LINE
  5
46DA
  8
SUNPOU
  6
CONTINUOUS
 62
     4
 10
12466.86405999998
 20
20659.229859000021
 30
0.0
 11
15034.36405999998
 21
20659.229859000021
 31
0.0
  0
LINE
  5
46DB
  8
SUNPOU
  6
CONTINUOUS
 62
     4
 10
20072.325089000002
 20
18432.730914
 30
0.0
 11
19185.366816999991
 21
18432.730914
 31
0.0
  0
LINE
  5
46DC
  8
SUNPOU
  6
CONTINUOUS
 62
     4
 10
19265.366816999991
 20
18432.730914
 30
0.0
 11
19265.366816999991
 21
19891.730914
 31
0.0
  0
LINE
  5
46DD
  8
SUNPOU
  6
CONTINUOUS
 62
     4
 10
20072.325089000002
 20
18432.730914
 30
0.0
 11
19185.366816999991
 21
18432.730914
 31
0.0
  0
LINE
  5
46DE
  8
SUNPOU
  6
CONTINUOUS
 62
     4
 10
19265.366816999991
 20
16973.730914
 30
0.0
 11
19265.366816999991
 21
18432.730914
 31
0.0
  0
LINE
  5
46DF
  8
SUNPOU
  6
CONTINUOUS
 62
     4
 10
20072.325089000002
 20
15514.971425500011
 30
0.0
 11
19185.366816999991
 21
15514.971425500011
 31
0.0
  0
LINE
  5
46E0
  8
SUNPOU
  6
CONTINUOUS
 62
     4
 10
19265.366816999991
 20
15514.971425500011
 30
0.0
 11
19265.366816999991
 21
16973.730914
 31
0.0
  0
LINE
  5
46E1
  8
SUNPOU
  6
CONTINUOUS
 62
     4
 10
20072.325089000002
 20
15514.971425500011
 30
0.0
 11
19185.366816999991
 21
15514.971425500011
 31
0.0
  0
LINE
  5
46E2
  8
SUNPOU
  6
CONTINUOUS
 62
     4
 10
19265.366816999991
 20
13705.230913999991
 30
0.0
 11
19265.366816999991
 21
15514.971425500011
 31
0.0
  0
LINE
  5
46E3
  8
SUNPOU
  6
CONTINUOUS
 62
     4
 10
20194.821393999991
 20
12999.46747999999
 30
0.0
 11
20194.821393999991
 21
12653.782829999989
 31
0.0
  0
LINE
  5
46E4
  8
SUNPOU
  6
CONTINUOUS
 62
     4
 10
20152.319151
 20
13582.733619000001
 30
0.0
 11
20152.319151
 21
12653.782829999989
 31
0.0
  0
LINE
  5
46E5
  8
SUNPOU
  6
CONTINUOUS
 62
     4
 10
20194.821393999991
 20
12733.782829999989
 30
0.0
 11
20434.821393999991
 21
12733.782829999989
 31
0.0
  0
LINE
  5
46E6
  8
SUNPOU
  6
CONTINUOUS
 62
     4
 10
20152.319151
 20
12733.782829999989
 30
0.0
 11
19912.319151
 21
12733.782829999989
 31
0.0
  0
LINE
  5
46E7
  8
SUNPOU
  6
CONTINUOUS
 62
     4
 10
20194.821393999991
 20
12733.782829999989
 30
0.0
 11
20152.319151
 21
12733.782829999989
 31
0.0
  0
LINE
  5
46E8
  8
SUNPOU
  6
CONTINUOUS
 62
     4
 10
25329.821393999991
 20
12999.46747999999
 30
0.0
 11
25329.821393999991
 21
12653.782829999989
 31
0.0
  0
LINE
  5
46E9
  8
SUNPOU
  6
CONTINUOUS
 62
     4
 10
25372.32363699999
 20
13582.733619000001
 30
0.0
 11
25372.32363699999
 21
12653.782829999989
 31
0.0
  0
LINE
  5
46EA
  8
SUNPOU
  6
CONTINUOUS
 62
     4
 10
25329.821393999991
 20
12733.782829999989
 30
0.0
 11
25089.821393999991
 21
12733.782829999989
 31
0.0
  0
LINE
  5
46EB
  8
SUNPOU
  6
CONTINUOUS
 62
     4
 10
25372.32363699999
 20
12733.782829999989
 30
0.0
 11
25612.323636999979
 21
12733.782829999989
 31
0.0
  0
LINE
  5
46EC
  8
SUNPOU
  6
CONTINUOUS
 62
     4
 10
25329.821393999991
 20
12733.782829999989
 30
0.0
 11
25372.32363699999
 21
12733.782829999989
 31
0.0
  0
LINE
  5
46ED
  8
2-0
  6
CONTINUOUS
 62
     3
 10
22719.821393999991
 20
13662.730913999991
 30
0.0
 11
22804.821393999991
 21
13662.730913999991
 31
0.0
  0
LINE
  5
46EE
  8
2-0
  6
CONTINUOUS
 62
     3
 10
22804.821393999991
 20
13662.730913999991
 30
0.0
 11
22804.821393999991
 21
13747.730913999991
 31
0.0
  0
LINE
  5
46EF
  8
2-0
  6
CONTINUOUS
 62
     3
 10
22804.821393999991
 20
13747.730913999991
 30
0.0
 11
22719.821393999991
 21
13747.730913999991
 31
0.0
  0
LINE
  5
46F0
  8
2-0
  6
CONTINUOUS
 62
     3
 10
22719.821393999991
 20
13747.730913999991
 30
0.0
 11
22719.821393999991
 21
13662.730913999991
 31
0.0
  0
LINE
  5
46F1
  8
SUNPOU
  6
CONTINUOUS
 62
     4
 10
25329.821393999991
 20
12999.46747999999
 30
0.0
 11
25329.821393999991
 21
12653.782829999989
 31
0.0
  0
LINE
  5
46F2
  8
SUNPOU
  6
CONTINUOUS
 62
     4
 10
25287.319150999982
 20
13582.733619000001
 30
0.0
 11
25287.319150999982
 21
12653.782829999989
 31
0.0
  0
LINE
  5
46F3
  8
SUNPOU
  6
CONTINUOUS
 62
     4
 10
25329.821393999991
 20
12733.782829999989
 30
0.0
 11
25569.821393999991
 21
12733.782829999989
 31
0.0
  0
LINE
  5
46F4
  8
SUNPOU
  6
CONTINUOUS
 62
     4
 10
25287.319150999982
 20
12733.782829999989
 30
0.0
 11
25047.319150999982
 21
12733.782829999989
 31
0.0
  0
LINE
  5
46F5
  8
SUNPOU
  6
CONTINUOUS
 62
     4
 10
25329.821393999991
 20
12733.782829999989
 30
0.0
 11
25287.319150999982
 21
12733.782829999989
 31
0.0
  0
LINE
  5
46F6
  8
SUNPOU
  6
CONTINUOUS
 62
     4
 10
20194.821393999991
 20
12999.46747999999
 30
0.0
 11
20194.821393999991
 21
12653.782829999989
 31
0.0
  0
LINE
  5
46F7
  8
SUNPOU
  6
CONTINUOUS
 62
     4
 10
20237.32363699999
 20
13582.733619000001
 30
0.0
 11
20237.32363699999
 21
12653.782829999989
 31
0.0
  0
LINE
  5
46F8
  8
SUNPOU
  6
CONTINUOUS
 62
     4
 10
20194.821393999991
 20
12733.782829999989
 30
0.0
 11
19954.821393999991
 21
12733.782829999989
 31
0.0
  0
LINE
  5
46F9
  8
SUNPOU
  6
CONTINUOUS
 62
     4
 10
20237.32363699999
 20
12733.782829999989
 30
0.0
 11
20477.32363699999
 21
12733.782829999989
 31
0.0
  0
LINE
  5
46FA
  8
SUNPOU
  6
CONTINUOUS
 62
     4
 10
20194.821393999991
 20
12733.782829999989
 30
0.0
 11
20237.32363699999
 21
12733.782829999989
 31
0.0
  0
LINE
  5
46FB
  8
SUNPOU
  6
CONTINUOUS
 62
     4
 10
20152.319151
 20
13582.733619000001
 30
0.0
 11
20152.319151
 21
12253.78283
 31
0.0
  0
LINE
  5
46FC
  8
SUNPOU
  6
CONTINUOUS
 62
     4
 10
25372.32363699999
 20
13582.733619000001
 30
0.0
 11
25372.32363699999
 21
12253.78283
 31
0.0
  0
LINE
  5
46FD
  8
SUNPOU
  6
CONTINUOUS
 62
     4
 10
20152.319151
 20
12333.782829999989
 30
0.0
 11
25372.32363699999
 21
12333.782829999989
 31
0.0
  0
LINE
  5
46FE
  8
SUNPOU
  6
CONTINUOUS
 62
     4
 10
25452.319677999989
 20
14112.730913999991
 30
0.0
 11
26502.320997999988
 21
14112.730913999991
 31
0.0
  0
LINE
  5
46FF
  8
SUNPOU
  6
CONTINUOUS
 62
     4
 10
26302.320997999988
 20
13705.230913999991
 30
0.0
 11
26502.320997999988
 21
13705.230913999991
 31
0.0
  0
LINE
  5
4700
  8
SUNPOU
  6
CONTINUOUS
 62
     4
 10
26422.320997999988
 20
14112.730913999991
 30
0.0
 11
26422.320997999988
 21
13705.230913999991
 31
0.0
  0
LINE
  5
4701
  8
SUNPOU
  6
CONTINUOUS
 62
     4
 10
25452.319677999989
 20
14813.730913999991
 30
0.0
 11
26502.320997999988
 21
14813.730913999991
 31
0.0
  0
LINE
  5
4702
  8
SUNPOU
  6
CONTINUOUS
 62
     4
 10
25452.319677999989
 20
14112.730913999991
 30
0.0
 11
26502.320997999988
 21
14112.730913999991
 31
0.0
  0
LINE
  5
4703
  8
SUNPOU
  6
CONTINUOUS
 62
     4
 10
26422.320997999988
 20
14813.730913999991
 30
0.0
 11
26422.320997999988
 21
14112.730913999991
 31
0.0
  0
LINE
  5
4704
  8
SUNPOU
  6
CONTINUOUS
 62
     4
 10
25452.319677999989
 20
15514.971425500011
 30
0.0
 11
26502.320997999988
 21
15514.971425500011
 31
0.0
  0
LINE
  5
4705
  8
SUNPOU
  6
CONTINUOUS
 62
     4
 10
25452.319677999989
 20
14813.730913999991
 30
0.0
 11
26502.320997999988
 21
14813.730913999991
 31
0.0
  0
LINE
  5
4706
  8
SUNPOU
  6
CONTINUOUS
 62
     4
 10
26422.320997999988
 20
15514.971425500011
 30
0.0
 11
26422.320997999988
 21
14813.730913999991
 31
0.0
  0
LINE
  5
4707
  8
SUNPOU
  6
CONTINUOUS
 62
     4
 10
25452.319677999989
 20
16215.730913999991
 30
0.0
 11
26502.320997999988
 21
16215.730913999991
 31
0.0
  0
LINE
  5
4708
  8
SUNPOU
  6
CONTINUOUS
 62
     4
 10
25452.319677999989
 20
15514.971425500011
 30
0.0
 11
26502.320997999988
 21
15514.971425500011
 31
0.0
  0
LINE
  5
4709
  8
SUNPOU
  6
CONTINUOUS
 62
     4
 10
26422.320997999988
 20
16215.730913999991
 30
0.0
 11
26422.320997999988
 21
15514.971425500011
 31
0.0
  0
LINE
  5
470A
  8
SUNPOU
  6
CONTINUOUS
 62
     4
 10
26302.320997999988
 20
16973.730914
 30
0.0
 11
26502.320997999988
 21
16973.730914
 31
0.0
  0
LINE
  5
470B
  8
SUNPOU
  6
CONTINUOUS
 62
     4
 10
25452.319677999989
 20
16215.730913999991
 30
0.0
 11
26502.320997999988
 21
16215.730913999991
 31
0.0
  0
LINE
  5
470C
  8
SUNPOU
  6
CONTINUOUS
 62
     4
 10
26422.320997999988
 20
16973.730914
 30
0.0
 11
26422.320997999988
 21
16215.730913999991
 31
0.0
  0
LINE
  5
470D
  8
SUNPOU
  6
CONTINUOUS
 62
     4
 10
25452.319677999989
 20
17731.730914
 30
0.0
 11
26502.320997999988
 21
17731.730914
 31
0.0
  0
LINE
  5
470E
  8
SUNPOU
  6
CONTINUOUS
 62
     4
 10
26302.320997999988
 20
16973.730914
 30
0.0
 11
26502.320997999988
 21
16973.730914
 31
0.0
  0
LINE
  5
470F
  8
SUNPOU
  6
CONTINUOUS
 62
     4
 10
26422.320997999988
 20
17731.730914
 30
0.0
 11
26422.320997999988
 21
16973.730914
 31
0.0
  0
LINE
  5
4710
  8
SUNPOU
  6
CONTINUOUS
 62
     4
 10
25452.319677999989
 20
18432.730914
 30
0.0
 11
26502.320997999988
 21
18432.730914
 31
0.0
  0
LINE
  5
4711
  8
SUNPOU
  6
CONTINUOUS
 62
     4
 10
25452.319677999989
 20
17731.730914
 30
0.0
 11
26502.320997999988
 21
17731.730914
 31
0.0
  0
LINE
  5
4712
  8
SUNPOU
  6
CONTINUOUS
 62
     4
 10
26422.320997999988
 20
18432.730914
 30
0.0
 11
26422.320997999988
 21
17731.730914
 31
0.0
  0
LINE
  5
4713
  8
SUNPOU
  6
CONTINUOUS
 62
     4
 10
25452.319677999989
 20
19133.730914
 30
0.0
 11
26502.320997999988
 21
19133.730914
 31
0.0
  0
LINE
  5
4714
  8
SUNPOU
  6
CONTINUOUS
 62
     4
 10
25452.319677999989
 20
18432.730914
 30
0.0
 11
26502.320997999988
 21
18432.730914
 31
0.0
  0
LINE
  5
4715
  8
SUNPOU
  6
CONTINUOUS
 62
     4
 10
26422.320997999988
 20
19133.730914
 30
0.0
 11
26422.320997999988
 21
18432.730914
 31
0.0
  0
LINE
  5
4716
  8
SUNPOU
  6
CONTINUOUS
 62
     4
 10
26302.320997999988
 20
19891.730914
 30
0.0
 11
26502.320997999988
 21
19891.730914
 31
0.0
  0
LINE
  5
4717
  8
SUNPOU
  6
CONTINUOUS
 62
     4
 10
25452.319677999989
 20
19133.730914
 30
0.0
 11
26502.320997999988
 21
19133.730914
 31
0.0
  0
LINE
  5
4718
  8
SUNPOU
  6
CONTINUOUS
 62
     4
 10
26422.320997999988
 20
19891.730914
 30
0.0
 11
26422.320997999988
 21
19133.730914
 31
0.0
  0
LINE
  5
4719
  8
SUNPOU
  6
CONTINUOUS
 62
     4
 10
26302.320997999988
 20
16973.730914
 30
0.0
 11
26902.320997999988
 21
16973.730914
 31
0.0
  0
LINE
  5
471A
  8
SUNPOU
  6
CONTINUOUS
 62
     4
 10
26302.320997999988
 20
19891.730914
 30
0.0
 11
26902.320997999988
 21
19891.730914
 31
0.0
  0
LINE
  5
471B
  8
SUNPOU
  6
CONTINUOUS
 62
     4
 10
26822.320997999988
 20
16973.730914
 30
0.0
 11
26822.320997999988
 21
19891.730914
 31
0.0
  0
LINE
  5
471C
  8
SUNPOU
  6
CONTINUOUS
 62
     4
 10
26302.320997999988
 20
13705.230913999991
 30
0.0
 11
26902.320997999988
 21
13705.230913999991
 31
0.0
  0
LINE
  5
471D
  8
SUNPOU
  6
CONTINUOUS
 62
     4
 10
26302.320997999988
 20
16973.730914
 30
0.0
 11
26902.320997999988
 21
16973.730914
 31
0.0
  0
LINE
  5
471E
  8
SUNPOU
  6
CONTINUOUS
 62
     4
 10
26822.320997999988
 20
13705.230913999991
 30
0.0
 11
26822.320997999988
 21
16973.730914
 31
0.0
  0
LINE
  5
471F
  8
SUNPOU
  6
CONTINUOUS
 62
     4
 10
25452.319677999989
 20
19934.228209000001
 30
0.0
 11
27302.320997999988
 21
19934.228209000001
 31
0.0
  0
LINE
  5
4720
  8
SUNPOU
  6
CONTINUOUS
 62
     4
 10
25452.319677999989
 20
13662.733619000001
 30
0.0
 11
27302.320997999988
 21
13662.733619000001
 31
0.0
  0
LINE
  5
4721
  8
SUNPOU
  6
CONTINUOUS
 62
     4
 10
27222.320997999988
 20
19934.228209000001
 30
0.0
 11
27222.320997999988
 21
13662.733619000001
 31
0.0
  0
LINE
  5
4722
  8
SUNPOU
  6
CONTINUOUS
 62
     4
 10
26302.320997999988
 20
19891.730914
 30
0.0
 11
26902.320997999988
 21
19891.730914
 31
0.0
  0
LINE
  5
4723
  8
SUNPOU
  6
CONTINUOUS
 62
     4
 10
25452.319677999989
 20
19934.228209000001
 30
0.0
 11
26902.320997999988
 21
19934.228209000001
 31
0.0
  0
LINE
  5
4724
  8
SUNPOU
  6
CONTINUOUS
 62
     4
 10
26822.320997999988
 20
19891.730914
 30
0.0
 11
26822.320997999988
 21
19651.730914
 31
0.0
  0
LINE
  5
4725
  8
SUNPOU
  6
CONTINUOUS
 62
     4
 10
26822.320997999988
 20
19934.228209000001
 30
0.0
 11
26822.320997999988
 21
20174.228209000001
 31
0.0
  0
LINE
  5
4726
  8
SUNPOU
  6
CONTINUOUS
 62
     4
 10
26822.320997999988
 20
19891.730914
 30
0.0
 11
26822.320997999988
 21
19934.228209000001
 31
0.0
  0
LINE
  5
4727
  8
SUNPOU
  6
CONTINUOUS
 62
     4
 10
26302.320997999988
 20
13705.230913999991
 30
0.0
 11
26902.320997999988
 21
13705.230913999991
 31
0.0
  0
LINE
  5
4728
  8
SUNPOU
  6
CONTINUOUS
 62
     4
 10
25452.319677999989
 20
13662.733619000001
 30
0.0
 11
26902.320997999988
 21
13662.733619000001
 31
0.0
  0
LINE
  5
4729
  8
SUNPOU
  6
CONTINUOUS
 62
     4
 10
26822.320997999988
 20
13705.230913999991
 30
0.0
 11
26822.320997999988
 21
13945.230913999991
 31
0.0
  0
LINE
  5
472A
  8
SUNPOU
  6
CONTINUOUS
 62
     4
 10
26822.320997999988
 20
13662.733619000001
 30
0.0
 11
26822.320997999988
 21
13422.733619000001
 31
0.0
  0
LINE
  5
472B
  8
SUNPOU
  6
CONTINUOUS
 62
     4
 10
26822.320997999988
 20
13705.230913999991
 30
0.0
 11
26822.320997999988
 21
13662.733619000001
 31
0.0
  0
LINE
  5
472C
  8
SUNPOU
  6
CONTINUOUS
 62
     4
 10
22762.321393999991
 20
20014.229199000009
 30
0.0
 11
22762.321393999991
 21
20744.232102000031
 31
0.0
  0
LINE
  5
472D
  8
SUNPOU
  6
CONTINUOUS
 62
     4
 10
23169.821393999991
 20
20014.229199000009
 30
0.0
 11
23169.821393999991
 21
20744.232102000031
 31
0.0
  0
LINE
  5
472E
  8
SUNPOU
  6
CONTINUOUS
 62
     4
 10
22762.321393999991
 20
20664.232102000031
 30
0.0
 11
23169.821393999991
 21
20664.232102000031
 31
0.0
  0
LINE
  5
472F
  8
SUNPOU
  6
CONTINUOUS
 62
     4
 10
24571.821393999991
 20
20014.229199000009
 30
0.0
 11
24571.821393999991
 21
20744.232102000031
 31
0.0
  0
LINE
  5
4730
  8
SUNPOU
  6
CONTINUOUS
 62
     4
 10
25329.822383499992
 20
20014.229199000009
 30
0.0
 11
25329.822383499992
 21
20744.232102000031
 31
0.0
  0
LINE
  5
4731
  8
SUNPOU
  6
CONTINUOUS
 62
     4
 10
24571.821393999991
 20
20664.232102000031
 30
0.0
 11
25329.822383499992
 21
20664.232102000031
 31
0.0
  0
LINE
  5
4732
  8
SUNPOU
  6
CONTINUOUS
 62
     4
 10
23870.821393999991
 20
20014.229199000009
 30
0.0
 11
23870.821393999991
 21
20744.232102000031
 31
0.0
  0
LINE
  5
4733
  8
SUNPOU
  6
CONTINUOUS
 62
     4
 10
24571.821393999991
 20
20014.229199000009
 30
0.0
 11
24571.821393999991
 21
20744.232102000031
 31
0.0
  0
LINE
  5
4734
  8
SUNPOU
  6
CONTINUOUS
 62
     4
 10
23870.821393999991
 20
20664.232102000031
 30
0.0
 11
24571.821393999991
 21
20664.232102000031
 31
0.0
  0
LINE
  5
4735
  8
SUNPOU
  6
CONTINUOUS
 62
     4
 10
23169.821393999991
 20
20014.229199000009
 30
0.0
 11
23169.821393999991
 21
20744.232102000031
 31
0.0
  0
LINE
  5
4736
  8
SUNPOU
  6
CONTINUOUS
 62
     4
 10
23870.821393999991
 20
20014.229199000009
 30
0.0
 11
23870.821393999991
 21
20744.232102000031
 31
0.0
  0
LINE
  5
4737
  8
SUNPOU
  6
CONTINUOUS
 62
     4
 10
23169.821393999991
 20
20664.232102000031
 30
0.0
 11
23870.821393999991
 21
20664.232102000031
 31
0.0
  0
LINE
  5
4738
  8
SUNPOU
  6
CONTINUOUS
 62
     4
 10
25329.821393999991
 20
20014.229199000009
 30
0.0
 11
25329.821393999991
 21
20744.232102000031
 31
0.0
  0
LINE
  5
4739
  8
SUNPOU
  6
CONTINUOUS
 62
     4
 10
25372.317698999988
 20
20014.229199000009
 30
0.0
 11
25372.317698999988
 21
20744.232102000031
 31
0.0
  0
LINE
  5
473A
  8
SUNPOU
  6
CONTINUOUS
 62
     4
 10
25329.821393999991
 20
20664.232102000031
 30
0.0
 11
25089.821393999991
 21
20664.232102000031
 31
0.0
  0
LINE
  5
473B
  8
SUNPOU
  6
CONTINUOUS
 62
     4
 10
25372.317698999988
 20
20664.232102000031
 30
0.0
 11
25612.317698999988
 21
20664.232102000031
 31
0.0
  0
LINE
  5
473C
  8
SUNPOU
  6
CONTINUOUS
 62
     4
 10
25329.821393999991
 20
20664.232102000031
 30
0.0
 11
25372.317698999988
 21
20664.232102000031
 31
0.0
  0
LINE
  5
473D
  8
SUNPOU
  6
CONTINUOUS
 62
     4
 10
20194.821393999991
 20
20014.229199000009
 30
0.0
 11
20194.821393999991
 21
20744.232102000031
 31
0.0
  0
LINE
  5
473E
  8
SUNPOU
  6
CONTINUOUS
 62
     4
 10
20602.321393999991
 20
20014.229199000009
 30
0.0
 11
20602.321393999991
 21
20744.232102000031
 31
0.0
  0
LINE
  5
473F
  8
SUNPOU
  6
CONTINUOUS
 62
     4
 10
20194.821393999991
 20
20664.232102000031
 30
0.0
 11
20602.321393999991
 21
20664.232102000031
 31
0.0
  0
LINE
  5
4740
  8
SUNPOU
  6
CONTINUOUS
 62
     4
 10
20194.821393999991
 20
20014.229199000009
 30
0.0
 11
20194.821393999991
 21
20744.232102000031
 31
0.0
  0
LINE
  5
4741
  8
SUNPOU
  6
CONTINUOUS
 62
     4
 10
20152.325089000002
 20
20014.229199000009
 30
0.0
 11
20152.325089000002
 21
20744.232102000031
 31
0.0
  0
LINE
  5
4742
  8
SUNPOU
  6
CONTINUOUS
 62
     4
 10
20194.821393999991
 20
20664.232102000031
 30
0.0
 11
20434.821393999991
 21
20664.232102000031
 31
0.0
  0
LINE
  5
4743
  8
SUNPOU
  6
CONTINUOUS
 62
     4
 10
20152.325089000002
 20
20664.232102000031
 30
0.0
 11
19912.325088999991
 21
20664.232102000031
 31
0.0
  0
LINE
  5
4744
  8
SUNPOU
  6
CONTINUOUS
 62
     4
 10
20194.821393999991
 20
20664.232102000031
 30
0.0
 11
20152.325089000002
 21
20664.232102000031
 31
0.0
  0
LINE
  5
4745
  8
SUNPOU
  6
CONTINUOUS
 62
     4
 10
22004.321393999991
 20
20014.229199000009
 30
0.0
 11
22004.321393999991
 21
20744.232102000031
 31
0.0
  0
LINE
  5
4746
  8
SUNPOU
  6
CONTINUOUS
 62
     4
 10
22762.322383499992
 20
20014.229199000009
 30
0.0
 11
22762.322383499992
 21
20744.232102000031
 31
0.0
  0
LINE
  5
4747
  8
SUNPOU
  6
CONTINUOUS
 62
     4
 10
22004.321393999991
 20
20664.232102000031
 30
0.0
 11
22762.322383499992
 21
20664.232102000031
 31
0.0
  0
LINE
  5
4748
  8
SUNPOU
  6
CONTINUOUS
 62
     4
 10
21303.321393999991
 20
20014.229199000009
 30
0.0
 11
21303.321393999991
 21
20744.232102000031
 31
0.0
  0
LINE
  5
4749
  8
SUNPOU
  6
CONTINUOUS
 62
     4
 10
22004.321393999991
 20
20014.229199000009
 30
0.0
 11
22004.321393999991
 21
20744.232102000031
 31
0.0
  0
LINE
  5
474A
  8
SUNPOU
  6
CONTINUOUS
 62
     4
 10
21303.321393999991
 20
20664.232102000031
 30
0.0
 11
22004.321393999991
 21
20664.232102000031
 31
0.0
  0
LINE
  5
474B
  8
SUNPOU
  6
CONTINUOUS
 62
     4
 10
20602.321393999991
 20
20014.229199000009
 30
0.0
 11
20602.321393999991
 21
20744.232102000031
 31
0.0
  0
LINE
  5
474C
  8
SUNPOU
  6
CONTINUOUS
 62
     4
 10
21303.321393999991
 20
20014.229199000009
 30
0.0
 11
21303.321393999991
 21
20744.232102000031
 31
0.0
  0
LINE
  5
474D
  8
SUNPOU
  6
CONTINUOUS
 62
     4
 10
20602.321393999991
 20
20664.232102000031
 30
0.0
 11
21303.321393999991
 21
20664.232102000031
 31
0.0
  0
LINE
  5
474E
  8
SUNPOU
  6
CONTINUOUS
 62
     4
 10
20064.820735000001
 20
6276.5900849999962
 30
0.0
 11
19264.822053999989
 21
6276.5900849999962
 31
0.0
  0
LINE
  5
474F
  8
SUNPOU
  6
CONTINUOUS
 62
     4
 10
20064.820735000001
 20
8168.0900849999953
 30
0.0
 11
19264.822053999989
 21
8168.0900849999953
 31
0.0
  0
LINE
  5
4750
  8
SUNPOU
  6
CONTINUOUS
 62
     4
 10
19344.822053999989
 20
6276.5900849999962
 30
0.0
 11
19344.822053999989
 21
8168.0900849999953
 31
0.0
  0
LINE
  5
4751
  8
SUNPOU
  6
CONTINUOUS
 62
     4
 10
20064.820735000001
 20
6276.5900849999962
 30
0.0
 11
18864.819744999979
 21
6276.5900849999962
 31
0.0
  0
LINE
  5
4752
  8
SUNPOU
  6
CONTINUOUS
 62
     4
 10
20032.320998999981
 20
8624.5900850000016
 30
0.0
 11
18864.819744999979
 21
8624.5900850000016
 31
0.0
  0
LINE
  5
4753
  8
SUNPOU
  6
CONTINUOUS
 62
     4
 10
18944.819744999979
 20
6276.5900849999962
 30
0.0
 11
18944.819744999979
 21
8624.5900850000016
 31
0.0
  0
LINE
  5
4764
  8
SUNPOU
  6
CONTINUOUS
 62
     4
 10
20288.821393999991
 20
6096.5902499999984
 30
0.0
 11
20288.821393999991
 21
5296.5902499999984
 31
0.0
  0
LINE
  5
4765
  8
SUNPOU
  6
CONTINUOUS
 62
     4
 10
22668.321393999991
 20
6096.5902499999984
 30
0.0
 11
22668.321393999991
 21
5296.5902499999984
 31
0.0
  0
LINE
  5
4766
  8
SUNPOU
  6
CONTINUOUS
 62
     4
 10
20288.821393999991
 20
5376.5902499999984
 30
0.0
 11
22668.321393999991
 21
5376.5902499999984
 31
0.0
  0
LINE
  5
4767
  8
SUNPOU
  6
CONTINUOUS
 62
     4
 10
22856.321393999991
 20
6096.5902499999984
 30
0.0
 11
22856.321393999991
 21
5296.5902499999984
 31
0.0
  0
LINE
  5
4768
  8
SUNPOU
  6
CONTINUOUS
 62
     4
 10
25235.821393999991
 20
6096.5902499999984
 30
0.0
 11
25235.821393999991
 21
5296.5902499999984
 31
0.0
  0
LINE
  5
4769
  8
SUNPOU
  6
CONTINUOUS
 62
     4
 10
22856.321393999991
 20
5376.5902499999984
 30
0.0
 11
25235.821393999991
 21
5376.5902499999984
 31
0.0
  0
LINE
  5
476A
  8
SUNPOU
  6
CONTINUOUS
 62
     4
 10
22762.321393999991
 20
5833.9378269999979
 30
0.0
 11
22762.321393999991
 21
4896.5902499999993
 31
0.0
  0
LINE
  5
476B
  8
SUNPOU
  6
CONTINUOUS
 62
     4
 10
25329.821393999991
 20
5833.9378269999979
 30
0.0
 11
25329.821393999991
 21
4896.5902499999993
 31
0.0
  0
LINE
  5
476C
  8
SUNPOU
  6
CONTINUOUS
 62
     4
 10
22762.321393999991
 20
4976.5902500000002
 30
0.0
 11
25329.821393999991
 21
4976.5902500000002
 31
0.0
  0
LINE
  5
476D
  8
SUNPOU
  6
CONTINUOUS
 62
     4
 10
20194.821393999991
 20
5833.9378269999979
 30
0.0
 11
20194.821393999991
 21
4896.5902499999993
 31
0.0
  0
LINE
  5
476E
  8
SUNPOU
  6
CONTINUOUS
 62
     4
 10
22762.321393999991
 20
5833.9378269999979
 30
0.0
 11
22762.321393999991
 21
4896.5902499999993
 31
0.0
  0
LINE
  5
476F
  8
SUNPOU
  6
CONTINUOUS
 62
     4
 10
20194.821393999991
 20
4976.5902500000002
 30
0.0
 11
22762.321393999991
 21
4976.5902500000002
 31
0.0
  0
LINE
  5
4770
  8
SUNPOU
  6
CONTINUOUS
 62
     4
 10
25329.825352999989
 20
5833.9378269999979
 30
0.0
 11
25329.825352999989
 21
4896.5902499999993
 31
0.0
  0
LINE
  5
4771
  8
SUNPOU
  6
CONTINUOUS
 62
     4
 10
25372.325353
 20
6096.5902499999984
 30
0.0
 11
25372.325353
 21
4896.5902499999993
 31
0.0
  0
LINE
  5
4772
  8
SUNPOU
  6
CONTINUOUS
 62
     4
 10
25329.825352999989
 20
4976.5902500000002
 30
0.0
 11
25089.825352999989
 21
4976.5902500000002
 31
0.0
  0
LINE
  5
4773
  8
SUNPOU
  6
CONTINUOUS
 62
     4
 10
25372.325353
 20
4976.5902500000002
 30
0.0
 11
25612.325353
 21
4976.5902500000002
 31
0.0
  0
LINE
  5
4774
  8
SUNPOU
  6
CONTINUOUS
 62
     4
 10
25329.825352999989
 20
4976.5902500000002
 30
0.0
 11
25372.325353
 21
4976.5902500000002
 31
0.0
  0
LINE
  5
4775
  8
SUNPOU
  6
CONTINUOUS
 62
     4
 10
20194.821393999991
 20
5833.9378269999979
 30
0.0
 11
20194.821393999991
 21
4896.5902499999993
 31
0.0
  0
LINE
  5
4776
  8
SUNPOU
  6
CONTINUOUS
 62
     4
 10
20152.321393999991
 20
6096.5902499999984
 30
0.0
 11
20152.321393999991
 21
4896.5902499999993
 31
0.0
  0
LINE
  5
4777
  8
SUNPOU
  6
CONTINUOUS
 62
     4
 10
20194.821393999991
 20
4976.5902500000002
 30
0.0
 11
20434.821393999991
 21
4976.5902500000002
 31
0.0
  0
LINE
  5
4778
  8
SUNPOU
  6
CONTINUOUS
 62
     4
 10
20152.321393999991
 20
4976.5902500000002
 30
0.0
 11
19912.321393999991
 21
4976.5902500000002
 31
0.0
  0
LINE
  5
4779
  8
SUNPOU
  6
CONTINUOUS
 62
     4
 10
20194.821393999991
 20
4976.5902500000002
 30
0.0
 11
20152.321393999991
 21
4976.5902500000002
 31
0.0
  0
LINE
  5
477A
  8
SUNPOU
  6
CONTINUOUS
 62
     4
 10
20152.321393999991
 20
6096.5902499999984
 30
0.0
 11
20152.321393999991
 21
4496.5904149999969
 31
0.0
  0
LINE
  5
477B
  8
SUNPOU
  6
CONTINUOUS
 62
     4
 10
25372.321393999991
 20
6096.5902499999984
 30
0.0
 11
25372.321393999991
 21
4496.5904149999969
 31
0.0
  0
LINE
  5
477C
  8
SUNPOU
  6
CONTINUOUS
 62
     4
 10
20152.321393999991
 20
4576.5904149999969
 30
0.0
 11
25372.321393999991
 21
4576.5904149999969
 31
0.0
  0
LINE
  5
477D
  8
SUNPOU
  6
CONTINUOUS
 62
     4
 10
8882.5340609999967
 20
8513.5900850000016
 30
0.0
 11
8882.5340609999967
 21
9904.5901109999977
 31
0.0
  0
LINE
  5
477E
  8
SUNPOU
  6
CONTINUOUS
 62
     4
 10
15484.034061
 20
8645.4799084124334
 30
0.0
 11
15484.034061
 21
9904.5901109999977
 31
0.0
  0
LINE
  5
477F
  8
SUNPOU
  6
CONTINUOUS
 62
     4
 10
8882.5340609999967
 20
9824.5901109999995
 30
0.0
 11
15484.034061
 21
9824.5901109999995
 31
0.0
  0
LINE
  5
4780
  8
SUNPOU
  6
CONTINUOUS
 62
     4
 10
15334.034061
 20
8571.5001490000031
 30
0.0
 11
15334.034061
 21
9504.5917609999997
 31
0.0
  0
LINE
  5
4781
  8
SUNPOU
  6
CONTINUOUS
 62
     4
 10
15484.034061
 20
8645.4799084124334
 30
0.0
 11
15484.034061
 21
9504.5917609999997
 31
0.0
  0
LINE
  5
4782
  8
SUNPOU
  6
CONTINUOUS
 62
     4
 10
15334.034061
 20
9424.5917609999997
 30
0.0
 11
15094.034061
 21
9424.5917609999997
 31
0.0
  0
LINE
  5
4783
  8
SUNPOU
  6
CONTINUOUS
 62
     4
 10
15484.034061
 20
9424.5917609999997
 30
0.0
 11
15724.034061
 21
9424.5917609999997
 31
0.0
  0
LINE
  5
4784
  8
SUNPOU
  6
CONTINUOUS
 62
     4
 10
15334.034061
 20
9424.5917609999997
 30
0.0
 11
15484.034061
 21
9424.5917609999997
 31
0.0
  0
LINE
  5
4785
  8
SUNPOU
  6
CONTINUOUS
 62
     4
 10
9062.5340609999967
 20
8383.7758606838106
 30
0.0
 11
9062.5340609999967
 21
9504.5917609999997
 31
0.0
  0
LINE
  5
4786
  8
SUNPOU
  6
CONTINUOUS
 62
     4
 10
15334.034061
 20
8571.5001490000031
 30
0.0
 11
15334.034061
 21
9504.5917609999997
 31
0.0
  0
LINE
  5
4787
  8
SUNPOU
  6
CONTINUOUS
 62
     4
 10
9062.5340609999967
 20
9424.5917609999997
 30
0.0
 11
15334.034061
 21
9424.5917609999997
 31
0.0
  0
LINE
  5
4788
  8
SUNPOU
  6
CONTINUOUS
 62
     4
 10
8882.5340609999967
 20
8513.5900850000016
 30
0.0
 11
8882.5340609999967
 21
9504.5917609999997
 31
0.0
  0
LINE
  5
4789
  8
SUNPOU
  6
CONTINUOUS
 62
     4
 10
9062.5340609999967
 20
8383.7758606838106
 30
0.0
 11
9062.5340609999967
 21
9504.5917609999997
 31
0.0
  0
LINE
  5
478A
  8
SUNPOU
  6
CONTINUOUS
 62
     4
 10
8882.5340609999967
 20
9424.5917609999997
 30
0.0
 11
9062.5340609999967
 21
9424.5917609999997
 31
0.0
  0
LINE
  5
478B
  8
SUNPOU
  6
CONTINUOUS
 62
     4
 10
15426.534061
 20
6276.5900850000025
 30
0.0
 11
16504.034456999991
 21
6276.5900850000025
 31
0.0
  0
LINE
  5
478C
  8
SUNPOU
  6
CONTINUOUS
 62
     4
 10
15518.84132059936
 20
8624.5900850000016
 30
0.0
 11
16504.034457000002
 21
8624.5900850000016
 31
0.0
  0
LINE
  5
478D
  8
SUNPOU
  6
CONTINUOUS
 62
     4
 10
16424.034456999991
 20
6276.5900850000025
 30
0.0
 11
16424.034457000002
 21
8624.5900850000016
 31
0.0
  0
LINE
  5
478E
  8
SUNPOU
  6
CONTINUOUS
 62
     4
 10
8975.0340609999967
 20
6276.5900850000025
 30
0.0
 11
7892.5336650000027
 21
6276.5900850000025
 31
0.0
  0
LINE
  5
478F
  8
SUNPOU
  6
CONTINUOUS
 62
     4
 10
8802.5340609999967
 20
8433.5900850000016
 30
0.0
 11
7892.5336650000027
 21
8433.5900850000016
 31
0.0
  0
LINE
  5
4790
  8
SUNPOU
  6
CONTINUOUS
 62
     4
 10
7972.5336650000027
 20
6276.5900850000025
 30
0.0
 11
7972.5336650000027
 21
8433.5900850000016
 31
0.0
  0
LINE
  5
4791
  8
SUNPOU
  6
CONTINUOUS
 62
     4
 10
9062.5340609999967
 20
6196.5900850000025
 30
0.0
 11
9062.5340609999967
 21
4496.5904150000006
 31
0.0
  0
LINE
  5
4792
  8
SUNPOU
  6
CONTINUOUS
 62
     4
 10
15334.034061
 20
6196.5900850000025
 30
0.0
 11
15334.034061
 21
4496.5904150000006
 31
0.0
  0
LINE
  5
4793
  8
SUNPOU
  6
CONTINUOUS
 62
     4
 10
9062.5340609999967
 20
4576.5904150000006
 30
0.0
 11
15334.034061
 21
4576.5904150000006
 31
0.0
  0
LINE
  5
4794
  8
SUNPOU
  6
CONTINUOUS
 62
     4
 10
15291.534061
 20
5833.9378270000034
 30
0.0
 11
15291.534061
 21
4896.5902500000011
 31
0.0
  0
LINE
  5
4795
  8
SUNPOU
  6
CONTINUOUS
 62
     4
 10
15334.034061
 20
6196.5900850000025
 30
0.0
 11
15334.034061
 21
4896.5902500000011
 31
0.0
  0
LINE
  5
4796
  8
SUNPOU
  6
CONTINUOUS
 62
     4
 10
15291.534061
 20
4976.5902500000002
 30
0.0
 11
15051.53406099998
 21
4976.5902500000002
 31
0.0
  0
LINE
  5
4797
  8
SUNPOU
  6
CONTINUOUS
 62
     4
 10
15334.034061
 20
4976.5902500000002
 30
0.0
 11
15574.034061
 21
4976.5902500000002
 31
0.0
  0
LINE
  5
4798
  8
SUNPOU
  6
CONTINUOUS
 62
     4
 10
15291.534061
 20
4976.5902500000002
 30
0.0
 11
15334.034061
 21
4976.5902500000002
 31
0.0
  0
LINE
  5
4799
  8
SUNPOU
  6
CONTINUOUS
 62
     4
 10
9105.0340609999967
 20
5833.9378270000034
 30
0.0
 11
9105.0340609999967
 21
4896.5902500000011
 31
0.0
  0
LINE
  5
479A
  8
SUNPOU
  6
CONTINUOUS
 62
     4
 10
9062.5340609999967
 20
6196.5900850000025
 30
0.0
 11
9062.5340609999967
 21
4896.5902500000011
 31
0.0
  0
LINE
  5
479B
  8
SUNPOU
  6
CONTINUOUS
 62
     4
 10
9105.0340609999967
 20
4976.5902500000002
 30
0.0
 11
9345.0340609999985
 21
4976.5902500000002
 31
0.0
  0
LINE
  5
479C
  8
SUNPOU
  6
CONTINUOUS
 62
     4
 10
9062.5340609999967
 20
4976.5902500000002
 30
0.0
 11
8822.5340609999967
 21
4976.5902500000002
 31
0.0
  0
LINE
  5
479D
  8
SUNPOU
  6
CONTINUOUS
 62
     4
 10
9105.0340609999967
 20
4976.5902500000002
 30
0.0
 11
9062.5340609999967
 21
4976.5902500000002
 31
0.0
  0
LINE
  5
479E
  8
SUNPOU
  6
CONTINUOUS
 62
     4
 10
12023.034061
 20
5833.9378270000034
 30
0.0
 11
12023.034061
 21
4896.5902500000011
 31
0.0
  0
LINE
  5
479F
  8
SUNPOU
  6
CONTINUOUS
 62
     4
 10
9105.0340609999967
 20
5833.9378270000034
 30
0.0
 11
9105.0340609999967
 21
4896.5902500000011
 31
0.0
  0
LINE
  5
47A0
  8
SUNPOU
  6
CONTINUOUS
 62
     4
 10
12023.034061
 20
4976.5902500000002
 30
0.0
 11
9105.0340609999967
 21
4976.5902500000002
 31
0.0
  0
LINE
  5
47A1
  8
SUNPOU
  6
CONTINUOUS
 62
     4
 10
12023.034061
 20
5833.9378270000034
 30
0.0
 11
12023.034061
 21
4896.590250000002
 31
0.0
  0
LINE
  5
47A2
  8
SUNPOU
  6
CONTINUOUS
 62
     4
 10
15291.534061
 20
5833.9378270000034
 30
0.0
 11
15291.534061
 21
4896.590250000002
 31
0.0
  0
LINE
  5
47A3
  8
SUNPOU
  6
CONTINUOUS
 62
     4
 10
12023.034061
 20
4976.590250000002
 30
0.0
 11
15291.534061
 21
4976.590250000002
 31
0.0
  0
TEXT
  5
47A4
  8
0
  6
CONTINUOUS
 62
     7
 10
13257.284061
 20
5056.590250000002
 30
0.0
 40
160.0
  1
3268.5
  0
TEXT
  5
47A5
  8
0
  6
CONTINUOUS
 62
     7
 10
10297.367394333331
 20
5056.5902500000011
 30
0.0
 40
160.0
  1
2918
  0
TEXT
  5
47A6
  8
0
  6
CONTINUOUS
 62
     7
 10
8465.3603519036915
 20
5056.5902500000011
 30
0.0
 40
160.0
  1
42.5
  0
TEXT
  5
47A7
  8
0
  6
CONTINUOUS
 62
     7
 10
15472.35269830982
 20
5056.5902500000011
 30
0.0
 40
160.0
  1
42.5
  0
TEXT
  5
47A8
  8
0
  6
CONTINUOUS
 62
     7
 10
11824.950727666661
 20
4656.5904150000006
 30
0.0
 40
160.0
  1
6271.5
  0
TEXT
  5
47A9
  8
0
  6
CONTINUOUS
 62
     7
 10
7892.5336650000008
 20
6576.4234183333374
 30
0.0
 40
160.0
  1
2157（2397）
 50
90.0
  0
TEXT
  5
47AA
  8
0
  6
CONTINUOUS
 62
     7
 10
16344.034456999991
 20
6645.2567516666686
 30
0.0
 40
160.0
  1
2348（2588）
 50
90.0
  0
TEXT
  5
47AB
  8
0
  6
CONTINUOUS
 62
     7
 10
8469.2007276666645
 20
9504.5917609999997
 30
0.0
 40
160.0
  1
180
  0
TEXT
  5
47AC
  8
0
  6
CONTINUOUS
 62
     7
 10
11824.950727666661
 20
9504.5917609999997
 30
0.0
 40
160.0
  1
6271.5
  0
TEXT
  5
47AD
  8
0
  6
CONTINUOUS
 62
     7
 10
15550.700727666661
 20
9504.5917609999997
 30
0.0
 40
160.0
  1
150
  0
TEXT
  5
47AE
  8
0
  6
CONTINUOUS
 62
     7
 10
11823.284061
 20
9904.5901109999977
 30
0.0
 40
160.0
  1
6601.5
  0
TEXT
  5
47AF
  8
0
  6
CONTINUOUS
 62
     7
 10
22482.321393999991
 20
4656.5904149999969
 30
0.0
 40
160.0
  1
5220
  0
TEXT
  5
47B0
  8
0
  6
CONTINUOUS
 62
     7
 10
19586.282403741141
 20
5056.5902499999993
 30
0.0
 40
160.0
  1
42.5
  0
TEXT
  5
47B1
  8
0
  6
CONTINUOUS
 62
     7
 10
25458.364343258851
 20
5056.5902499999993
 30
0.0
 40
160.0
  1
42.5
  0
TEXT
  5
47B2
  8
0
  6
CONTINUOUS
 62
     7
 10
21078.571393999991
 20
5056.5902499999993
 30
0.0
 40
160.0
  1
2567.5
  0
TEXT
  5
47B3
  8
0
  6
CONTINUOUS
 62
     7
 10
23646.071393999991
 20
5056.5902499999993
 30
0.0
 40
160.0
  1
2567.5
  0
TEXT
  5
47B4
  8
0
  6
CONTINUOUS
 62
     7
 10
23118.071393999991
 20
5456.5902499999984
 30
0.0
 40
160.0
  1
有効開口巾 2379.5
  0
TEXT
  5
47B5
  8
0
  6
CONTINUOUS
 62
     7
 10
20550.571393999991
 20
5456.5902499999984
 30
0.0
 40
160.0
  1
有効開口巾 2379.5
  0
TEXT
  5
47BA
  8
0
  6
CONTINUOUS
 62
     7
 10
18864.819744999979
 20
6645.2567516666686
 30
0.0
 40
160.0
  1
2348（2588）
 50
90.0
  0
TEXT
  5
47BB
  8
0
  6
CONTINUOUS
 62
     7
 10
19264.822053999989
 20
6340.5693232912718
 30
0.0
 40
160.0
  1
有効開口高サ 1891.5
 50
90.0
  0
TEXT
  5
47BC
  8
0
  6
CONTINUOUS
 62
     7
 10
20779.488060666648
 20
20424.232102000031
 30
0.0
 40
160.0
  1
701
  0
TEXT
  5
47BD
  8
0
  6
CONTINUOUS
 62
     7
 10
21480.488060666648
 20
20744.232102000031
 30
0.0
 40
160.0
  1
701
  0
TEXT
  5
47BE
  8
0
  6
CONTINUOUS
 62
     7
 10
22169.988555416669
 20
20744.232102000031
 30
0.0
 40
160.0
  1
758
  0
TEXT
  5
47BF
  8
0
  6
CONTINUOUS
 62
     7
 10
19592.009414471191
 20
20744.232102000031
 30
0.0
 40
160.0
  1
42.5
  0
TEXT
  5
47C0
  8
0
  6
CONTINUOUS
 62
     7
 10
20295.654727333309
 20
20744.232102000031
 30
0.0
 40
160.0
  1
407.5
  0
TEXT
  5
47C1
  8
0
  6
CONTINUOUS
 62
     7
 10
25452.633373528799
 20
20744.232102000031
 30
0.0
 40
160.0
  1
42.5
  0
TEXT
  5
47C2
  8
0
  6
CONTINUOUS
 62
     7
 10
23346.988060666648
 20
20424.232102000031
 30
0.0
 40
160.0
  1
701
  0
TEXT
  5
47C3
  8
0
  6
CONTINUOUS
 62
     7
 10
24047.988060666648
 20
20744.232102000031
 30
0.0
 40
160.0
  1
701
  0
TEXT
  5
47C4
  8
0
  6
CONTINUOUS
 62
     7
 10
24737.488555416661
 20
20744.232102000031
 30
0.0
 40
160.0
  1
758
  0
TEXT
  5
47C5
  8
0
  6
CONTINUOUS
 62
     7
 10
22863.154727333331
 20
20744.232102000031
 30
0.0
 40
160.0
  1
407.5
  0
TEXT
  5
47C6
  8
0
  6
CONTINUOUS
 62
     7
 10
26742.320997999988
 20
13089.1773826032
 30
0.0
 40
160.0
  1
42.5
 50
90.0
  0
TEXT
  5
47C7
  8
0
  6
CONTINUOUS
 62
     7
 10
26742.320997999988
 20
20027.784445396788
 30
0.0
 40
160.0
  1
42.5
 50
90.0
  0
TEXT
  5
47C8
  8
0
  6
CONTINUOUS
 62
     7
 10
27142.320997999981
 20
16425.147580666671
 30
0.0
 40
160.0
  1
6271.5
 50
90.0
  0
TEXT
  5
47C9
  8
0
  6
CONTINUOUS
 62
     7
 10
26742.320997999981
 20
14939.480913999991
 30
0.0
 40
160.0
  1
3268.5
 50
90.0
  0
TEXT
  5
47CA
  8
0
  6
CONTINUOUS
 62
     7
 10
26742.320997999981
 20
18166.064247333321
 30
0.0
 40
160.0
  1
2918
 50
90.0
  0
TEXT
  5
47CB
  8
0
  6
CONTINUOUS
 62
     7
 10
26342.320997999981
 20
19299.397580666671
 30
0.0
 40
160.0
  1
758
 50
90.0
  0
TEXT
  5
47CC
  8
0
  6
CONTINUOUS
 62
     7
 10
26342.320997999981
 20
18609.897580666671
 30
0.0
 40
160.0
  1
701
 50
90.0
  0
TEXT
  5
47CD
  8
0
  6
CONTINUOUS
 62
     7
 10
26342.320997999981
 20
17908.897580666671
 30
0.0
 40
160.0
  1
701
 50
90.0
  0
TEXT
  5
47CE
  8
0
  6
CONTINUOUS
 62
     7
 10
26342.320997999981
 20
17139.397580666671
 30
0.0
 40
160.0
  1
758
 50
90.0
  0
TEXT
  5
47CF
  8
0
  6
CONTINUOUS
 62
     7
 10
26342.320997999981
 20
16381.39758066666
 30
0.0
 40
160.0
  1
758
 50
90.0
  0
TEXT
  5
47D0
  8
0
  6
CONTINUOUS
 62
     7
 10
26342.320997999981
 20
15692.01783641668
 30
0.0
 40
160.0
  1
701
 50
90.0
  0
TEXT
  5
47D1
  8
0
  6
CONTINUOUS
 62
     7
 10
26342.320997999981
 20
14991.01783641668
 30
0.0
 40
160.0
  1
701
 50
90.0
  0
TEXT
  5
47D2
  8
0
  6
CONTINUOUS
 62
     7
 10
26342.320997999981
 20
14289.89758066666
 30
0.0
 40
160.0
  1
701
 50
90.0
  0
TEXT
  5
47D3
  8
0
  6
CONTINUOUS
 62
     7
 10
26702.320997999999
 20
13778.051328203541
 30
0.0
 40
160.0
  1
407.5
 50
90.0
  0
TEXT
  5
47D4
  8
0
  6
CONTINUOUS
 62
     7
 10
22482.321393999991
 20
12413.782829999989
 30
0.0
 40
160.0
  1
5220
  0
TEXT
  5
47D5
  8
0
  6
CONTINUOUS
 62
     7
 10
20312.87506638209
 20
12813.78283
 30
0.0
 40
160.0
  1
42.5
  0
TEXT
  5
47D6
  8
0
  6
CONTINUOUS
 62
     7
 10
24731.7677216179
 20
12813.78283
 30
0.0
 40
160.0
  1
42.5
  0
TEXT
  5
47D7
  8
0
  6
CONTINUOUS
 62
     7
 10
25447.87506638209
 20
12813.78283
 30
0.0
 40
160.0
  1
42.5
  0
TEXT
  5
47D8
  8
0
  6
CONTINUOUS
 62
     7
 10
19596.7677216179
 20
12813.78283
 30
0.0
 40
160.0
  1
42.5
  0
TEXT
  5
47D9
  8
0
  6
CONTINUOUS
 62
     7
 10
19185.366816999991
 20
14250.101169750011
 30
0.0
 40
160.0
  1
1809.5
 50
90.0
  0
TEXT
  5
47DA
  8
0
  6
CONTINUOUS
 62
     7
 10
19185.366816999991
 20
15977.684503083339
 30
0.0
 40
160.0
  1
1459
 50
90.0
  0
TEXT
  5
47DB
  8
0
  6
CONTINUOUS
 62
     7
 10
19185.366816999991
 20
17436.56424733331
 30
0.0
 40
160.0
  1
1459
 50
90.0
  0
TEXT
  5
47DC
  8
0
  6
CONTINUOUS
 62
     7
 10
19185.366816999991
 20
18895.564247333321
 30
0.0
 40
160.0
  1
1459
 50
90.0
  0
TEXT
  5
47DD
  8
0
  6
CONTINUOUS
 62
     7
 10
13350.61405999998
 20
20739.229859000021
 30
0.0
 40
160.0
  1
2567.5
  0
TEXT
  5
47DE
  8
0
  6
CONTINUOUS
 62
     7
 10
15170.86076602325
 20
20739.229859000021
 30
0.0
 40
160.0
  1
85.5
  0
TEXT
  5
47DF
  8
0
  6
CONTINUOUS
 62
     7
 10
10783.11405999998
 20
20739.229859000021
 30
0.0
 40
160.0
  1
2567.5
  0
TEXT
  5
47E0
  8
0
  6
CONTINUOUS
 62
     7
 10
9282.8673539767242
 20
20739.229859000021
 30
0.0
 40
160.0
  1
85.5
  0
TEXT
  5
47E1
  8
0
  6
CONTINUOUS
 62
     7
 10
8889.8642839999848
 20
18895.564247333321
 30
0.0
 40
160.0
  1
1459
 50
90.0
  0
TEXT
  5
47E2
  8
0
  6
CONTINUOUS
 62
     7
 10
8889.8642839999848
 20
20203.186098807681
 30
0.0
 40
160.0
  1
222.5
 50
90.0
  0
TEXT
  5
47E3
  8
0
  6
CONTINUOUS
 62
     7
 10
9289.8642839999848
 20
20234.226823000001
 30
0.0
 40
160.0
  1
20
 50
90.0
  0
TEXT
  5
47E4
  8
0
  6
CONTINUOUS
 62
     7
 10
8889.8642839999848
 20
17436.56424733331
 30
0.0
 40
160.0
  1
1459
 50
90.0
  0
TEXT
  5
47E5
  8
0
  6
CONTINUOUS
 62
     7
 10
8889.8642839999848
 20
15977.684503083339
 30
0.0
 40
160.0
  1
1459
 50
90.0
  0
TEXT
  5
47E6
  8
0
  6
CONTINUOUS
 62
     7
 10
8889.8642839999848
 20
14250.101169750011
 30
0.0
 40
160.0
  1
1809.5
 50
90.0
  0
TEXT
  5
47E7
  8
0
  6
CONTINUOUS
 62
     7
 10
8889.8642839999848
 20
12897.27790370263
 30
0.0
 40
160.0
  1
192.5
 50
90.0
  0
ARC
  5
47ED
  8
0
  6
BYBLOCK
 62
     0
 10
8969.8642839999866
 20
13705.230913999991
 30
0.0
 40
15.0
 50
270.0
 51
90.0
  0
ARC
  5
47EE
  8
0
  6
BYBLOCK
 62
     0
 10
8969.8642839999866
 20
13705.230913999991
 30
0.0
 40
15.0
 50
90.0
 51
270.0
  0
ARC
  5
47EF
  8
0
  6
BYBLOCK
 62
     0
 10
8969.8642839999866
 20
13512.735599
 30
0.0
 40
15.0
 50
90.0
 51
270.0
  0
ARC
  5
47F0
  8
0
  6
BYBLOCK
 62
     0
 10
8969.8642839999866
 20
13512.735599
 30
0.0
 40
15.0
 50
270.0
 51
90.0
  0
ARC
  5
47F1
  8
0
  6
BYBLOCK
 62
     0
 10
8969.8642839999866
 20
15514.971425500011
 30
0.0
 40
15.0
 50
270.0
 51
90.0
  0
ARC
  5
47F2
  8
0
  6
BYBLOCK
 62
     0
 10
8969.8642839999866
 20
15514.971425500011
 30
0.0
 40
15.0
 50
90.0
 51
270.0
  0
ARC
  5
47F3
  8
0
  6
BYBLOCK
 62
     0
 10
8969.8642839999866
 20
13705.230913999991
 30
0.0
 40
15.0
 50
90.0
 51
270.0
  0
ARC
  5
47F4
  8
0
  6
BYBLOCK
 62
     0
 10
8969.8642839999866
 20
13705.230913999991
 30
0.0
 40
15.0
 50
270.0
 51
90.0
  0
ARC
  5
47F5
  8
0
  6
BYBLOCK
 62
     0
 10
8969.8642839999866
 20
16973.730914
 30
0.0
 40
15.0
 50
270.0
 51
90.0
  0
ARC
  5
47F6
  8
0
  6
BYBLOCK
 62
     0
 10
8969.8642839999866
 20
16973.730914
 30
0.0
 40
15.0
 50
90.0
 51
270.0
  0
ARC
  5
47F7
  8
0
  6
BYBLOCK
 62
     0
 10
8969.8642839999866
 20
15514.971425500011
 30
0.0
 40
15.0
 50
90.0
 51
270.0
  0
ARC
  5
47F8
  8
0
  6
BYBLOCK
 62
     0
 10
8969.8642839999866
 20
15514.971425500011
 30
0.0
 40
15.0
 50
270.0
 51
90.0
  0
ARC
  5
47F9
  8
0
  6
BYBLOCK
 62
     0
 10
8969.8642839999866
 20
18432.730914
 30
0.0
 40
15.0
 50
270.0
 51
90.0
  0
ARC
  5
47FA
  8
0
  6
BYBLOCK
 62
     0
 10
8969.8642839999866
 20
18432.730914
 30
0.0
 40
15.0
 50
90.0
 51
270.0
  0
ARC
  5
47FB
  8
0
  6
BYBLOCK
 62
     0
 10
8969.8642839999866
 20
16973.730914
 30
0.0
 40
15.0
 50
90.0
 51
270.0
  0
ARC
  5
47FC
  8
0
  6
BYBLOCK
 62
     0
 10
8969.8642839999866
 20
16973.730914
 30
0.0
 40
15.0
 50
270.0
 51
90.0
  0
ARC
  5
47FD
  8
0
  6
BYBLOCK
 62
     0
 10
9369.8642839999848
 20
20094.226823000001
 30
0.0
 40
15.0
 50
270.0
 51
90.0
  0
ARC
  5
47FE
  8
0
  6
BYBLOCK
 62
     0
 10
9369.8642839999848
 20
20094.226823000001
 30
0.0
 40
15.0
 50
90.0
 51
270.0
  0
ARC
  5
47FF
  8
0
  6
BYBLOCK
 62
     0
 10
9369.8642839999848
 20
20114.226823000001
 30
0.0
 40
15.0
 50
90.0
 51
270.0
  0
ARC
  5
4800
  8
0
  6
BYBLOCK
 62
     0
 10
9369.8642839999848
 20
20114.226823000001
 30
0.0
 40
15.0
 50
270.0
 51
90.0
  0
ARC
  5
4801
  8
0
  6
BYBLOCK
 62
     0
 10
8969.8642839999866
 20
19891.730914
 30
0.0
 40
15.0
 50
90.0
 51
270.0
  0
ARC
  5
4802
  8
0
  6
BYBLOCK
 62
     0
 10
8969.8642839999866
 20
19891.730914
 30
0.0
 40
15.0
 50
270.0
 51
90.0
  0
ARC
  5
4803
  8
0
  6
BYBLOCK
 62
     0
 10
8969.8642839999866
 20
20114.226823000001
 30
0.0
 40
15.0
 50
270.0
 51
90.0
  0
ARC
  5
4804
  8
0
  6
BYBLOCK
 62
     0
 10
8969.8642839999866
 20
20114.226823000001
 30
0.0
 40
15.0
 50
90.0
 51
270.0
  0
ARC
  5
4805
  8
0
  6
BYBLOCK
 62
     0
 10
8969.8642839999866
 20
18432.730914
 30
0.0
 40
15.0
 50
90.0
 51
270.0
  0
ARC
  5
4806
  8
0
  6
BYBLOCK
 62
     0
 10
8969.8642839999866
 20
18432.730914
 30
0.0
 40
15.0
 50
270.0
 51
90.0
  0
ARC
  5
4807
  8
0
  6
BYBLOCK
 62
     0
 10
8969.8642839999866
 20
19891.730914
 30
0.0
 40
15.0
 50
270.0
 51
90.0
  0
ARC
  5
4808
  8
0
  6
BYBLOCK
 62
     0
 10
8969.8642839999866
 20
19891.730914
 30
0.0
 40
15.0
 50
90.0
 51
270.0
  0
ARC
  5
4809
  8
0
  6
BYBLOCK
 62
     0
 10
9899.3640599999835
 20
20659.229859000021
 30
0.0
 40
15.0
 50
0.0
 51
180.0
  0
ARC
  5
480A
  8
0
  6
BYBLOCK
 62
     0
 10
9899.3640599999835
 20
20659.229859000021
 30
0.0
 40
15.0
 50
180.0
 51
0.0
  0
ARC
  5
480B
  8
0
  6
BYBLOCK
 62
     0
 10
9813.8640599999835
 20
20659.229859000021
 30
0.0
 40
15.0
 50
180.0
 51
0.0
  0
ARC
  5
480C
  8
0
  6
BYBLOCK
 62
     0
 10
9813.8640599999835
 20
20659.229859000021
 30
0.0
 40
15.0
 50
0.0
 51
180.0
  0
ARC
  5
480D
  8
0
  6
BYBLOCK
 62
     0
 10
12466.86405999998
 20
20659.229859000021
 30
0.0
 40
15.0
 50
180.0
 51
0.0
  0
ARC
  5
480E
  8
0
  6
BYBLOCK
 62
     0
 10
12466.86405999998
 20
20659.229859000021
 30
0.0
 40
15.0
 50
0.0
 51
180.0
  0
ARC
  5
480F
  8
0
  6
BYBLOCK
 62
     0
 10
9899.3640599999835
 20
20659.229859000021
 30
0.0
 40
15.0
 50
0.0
 51
180.0
  0
ARC
  5
4810
  8
0
  6
BYBLOCK
 62
     0
 10
9899.3640599999835
 20
20659.229859000021
 30
0.0
 40
15.0
 50
180.0
 51
0.0
  0
ARC
  5
4811
  8
0
  6
BYBLOCK
 62
     0
 10
15034.36405999998
 20
20659.229859000021
 30
0.0
 40
15.0
 50
180.0
 51
0.0
  0
ARC
  5
4812
  8
0
  6
BYBLOCK
 62
     0
 10
15034.36405999998
 20
20659.229859000021
 30
0.0
 40
15.0
 50
0.0
 51
180.0
  0
ARC
  5
4813
  8
0
  6
BYBLOCK
 62
     0
 10
15119.86405999998
 20
20659.229859000021
 30
0.0
 40
15.0
 50
0.0
 51
180.0
  0
ARC
  5
4814
  8
0
  6
BYBLOCK
 62
     0
 10
15119.86405999998
 20
20659.229859000021
 30
0.0
 40
15.0
 50
180.0
 51
0.0
  0
ARC
  5
4815
  8
0
  6
BYBLOCK
 62
     0
 10
12466.86405999998
 20
20659.229859000021
 30
0.0
 40
15.0
 50
0.0
 51
180.0
  0
ARC
  5
4816
  8
0
  6
BYBLOCK
 62
     0
 10
12466.86405999998
 20
20659.229859000021
 30
0.0
 40
15.0
 50
180.0
 51
0.0
  0
ARC
  5
4817
  8
0
  6
BYBLOCK
 62
     0
 10
15034.36405999998
 20
20659.229859000021
 30
0.0
 40
15.0
 50
180.0
 51
0.0
  0
ARC
  5
4818
  8
0
  6
BYBLOCK
 62
     0
 10
15034.36405999998
 20
20659.229859000021
 30
0.0
 40
15.0
 50
0.0
 51
180.0
  0
ARC
  5
4819
  8
0
  6
BYBLOCK
 62
     0
 10
19265.366816999991
 20
18432.730914
 30
0.0
 40
15.0
 50
90.0
 51
270.0
  0
ARC
  5
481A
  8
0
  6
BYBLOCK
 62
     0
 10
19265.366816999991
 20
18432.730914
 30
0.0
 40
15.0
 50
270.0
 51
90.0
  0
ARC
  5
481B
  8
0
  6
BYBLOCK
 62
     0
 10
19265.366816999991
 20
19891.730914
 30
0.0
 40
15.0
 50
270.0
 51
90.0
  0
ARC
  5
481C
  8
0
  6
BYBLOCK
 62
     0
 10
19265.366816999991
 20
19891.730914
 30
0.0
 40
15.0
 50
90.0
 51
270.0
  0
ARC
  5
481D
  8
0
  6
BYBLOCK
 62
     0
 10
19265.366816999991
 20
16973.730914
 30
0.0
 40
15.0
 50
90.0
 51
270.0
  0
ARC
  5
481E
  8
0
  6
BYBLOCK
 62
     0
 10
19265.366816999991
 20
16973.730914
 30
0.0
 40
15.0
 50
270.0
 51
90.0
  0
ARC
  5
481F
  8
0
  6
BYBLOCK
 62
     0
 10
19265.366816999991
 20
18432.730914
 30
0.0
 40
15.0
 50
270.0
 51
90.0
  0
ARC
  5
4820
  8
0
  6
BYBLOCK
 62
     0
 10
19265.366816999991
 20
18432.730914
 30
0.0
 40
15.0
 50
90.0
 51
270.0
  0
ARC
  5
4821
  8
0
  6
BYBLOCK
 62
     0
 10
19265.366816999991
 20
15514.971425500011
 30
0.0
 40
15.0
 50
90.0
 51
270.0
  0
ARC
  5
4822
  8
0
  6
BYBLOCK
 62
     0
 10
19265.366816999991
 20
15514.971425500011
 30
0.0
 40
15.0
 50
270.0
 51
90.0
  0
ARC
  5
4823
  8
0
  6
BYBLOCK
 62
     0
 10
19265.366816999991
 20
16973.730914
 30
0.0
 40
15.0
 50
270.0
 51
90.0
  0
ARC
  5
4824
  8
0
  6
BYBLOCK
 62
     0
 10
19265.366816999991
 20
16973.730914
 30
0.0
 40
15.0
 50
90.0
 51
270.0
  0
ARC
  5
4825
  8
0
  6
BYBLOCK
 62
     0
 10
19265.366816999991
 20
13705.230913999991
 30
0.0
 40
15.0
 50
90.0
 51
270.0
  0
ARC
  5
4826
  8
0
  6
BYBLOCK
 62
     0
 10
19265.366816999991
 20
13705.230913999991
 30
0.0
 40
15.0
 50
270.0
 51
90.0
  0
ARC
  5
4827
  8
0
  6
BYBLOCK
 62
     0
 10
19265.366816999991
 20
15514.971425500011
 30
0.0
 40
15.0
 50
270.0
 51
90.0
  0
ARC
  5
4828
  8
0
  6
BYBLOCK
 62
     0
 10
19265.366816999991
 20
15514.971425500011
 30
0.0
 40
15.0
 50
90.0
 51
270.0
  0
ARC
  5
4829
  8
0
  6
BYBLOCK
 62
     0
 10
20194.821393999991
 20
12733.782829999989
 30
0.0
 40
15.0
 50
0.0
 51
180.0
  0
ARC
  5
482A
  8
0
  6
BYBLOCK
 62
     0
 10
20194.821393999991
 20
12733.782829999989
 30
0.0
 40
15.0
 50
180.0
 51
0.0
  0
ARC
  5
482B
  8
0
  6
BYBLOCK
 62
     0
 10
20152.319151
 20
12733.782829999989
 30
0.0
 40
15.0
 50
180.0
 51
0.0
  0
ARC
  5
482C
  8
0
  6
BYBLOCK
 62
     0
 10
20152.319151
 20
12733.782829999989
 30
0.0
 40
15.0
 50
0.0
 51
180.0
  0
ARC
  5
482D
  8
0
  6
BYBLOCK
 62
     0
 10
25329.821393999991
 20
12733.782829999989
 30
0.0
 40
15.0
 50
180.0
 51
0.0
  0
ARC
  5
482E
  8
0
  6
BYBLOCK
 62
     0
 10
25329.821393999991
 20
12733.782829999989
 30
0.0
 40
15.0
 50
0.0
 51
180.0
  0
ARC
  5
482F
  8
0
  6
BYBLOCK
 62
     0
 10
25372.32363699999
 20
12733.782829999989
 30
0.0
 40
15.0
 50
0.0
 51
180.0
  0
ARC
  5
4830
  8
0
  6
BYBLOCK
 62
     0
 10
25372.32363699999
 20
12733.782829999989
 30
0.0
 40
15.0
 50
180.0
 51
0.0
  0
ARC
  5
4831
  8
0
  6
BYBLOCK
 62
     0
 10
25329.821393999991
 20
12733.782829999989
 30
0.0
 40
15.0
 50
0.0
 51
180.0
  0
ARC
  5
4832
  8
0
  6
BYBLOCK
 62
     0
 10
25329.821393999991
 20
12733.782829999989
 30
0.0
 40
15.0
 50
180.0
 51
0.0
  0
ARC
  5
4833
  8
0
  6
BYBLOCK
 62
     0
 10
25287.319150999982
 20
12733.782829999989
 30
0.0
 40
15.0
 50
180.0
 51
0.0
  0
ARC
  5
4834
  8
0
  6
BYBLOCK
 62
     0
 10
25287.319150999982
 20
12733.782829999989
 30
0.0
 40
15.0
 50
0.0
 51
180.0
  0
ARC
  5
4835
  8
0
  6
BYBLOCK
 62
     0
 10
20194.821393999991
 20
12733.782829999989
 30
0.0
 40
15.0
 50
180.0
 51
0.0
  0
ARC
  5
4836
  8
0
  6
BYBLOCK
 62
     0
 10
20194.821393999991
 20
12733.782829999989
 30
0.0
 40
15.0
 50
0.0
 51
180.0
  0
ARC
  5
4837
  8
0
  6
BYBLOCK
 62
     0
 10
20237.32363699999
 20
12733.782829999989
 30
0.0
 40
15.0
 50
0.0
 51
180.0
  0
ARC
  5
4838
  8
0
  6
BYBLOCK
 62
     0
 10
20237.32363699999
 20
12733.782829999989
 30
0.0
 40
15.0
 50
180.0
 51
0.0
  0
ARC
  5
4839
  8
0
  6
BYBLOCK
 62
     0
 10
20152.319151
 20
12333.782829999989
 30
0.0
 40
15.0
 50
0.0
 51
180.0
  0
ARC
  5
483A
  8
0
  6
BYBLOCK
 62
     0
 10
20152.319151
 20
12333.782829999989
 30
0.0
 40
15.0
 50
180.0
 51
0.0
  0
ARC
  5
483B
  8
0
  6
BYBLOCK
 62
     0
 10
25372.32363699999
 20
12333.782829999989
 30
0.0
 40
15.0
 50
180.0
 51
0.0
  0
ARC
  5
483C
  8
0
  6
BYBLOCK
 62
     0
 10
25372.32363699999
 20
12333.782829999989
 30
0.0
 40
15.0
 50
0.0
 51
180.0
  0
ARC
  5
483D
  8
0
  6
BYBLOCK
 62
     0
 10
26422.320997999988
 20
14112.730913999991
 30
0.0
 40
15.0
 50
270.0
 51
90.0
  0
ARC
  5
483E
  8
0
  6
BYBLOCK
 62
     0
 10
26422.320997999988
 20
14112.730913999991
 30
0.0
 40
15.0
 50
90.0
 51
270.0
  0
ARC
  5
483F
  8
0
  6
BYBLOCK
 62
     0
 10
26422.320997999988
 20
13705.230913999991
 30
0.0
 40
15.0
 50
90.0
 51
270.0
  0
ARC
  5
4840
  8
0
  6
BYBLOCK
 62
     0
 10
26422.320997999988
 20
13705.230913999991
 30
0.0
 40
15.0
 50
270.0
 51
90.0
  0
ARC
  5
4841
  8
0
  6
BYBLOCK
 62
     0
 10
26422.320997999988
 20
14813.730913999991
 30
0.0
 40
15.0
 50
270.0
 51
90.0
  0
ARC
  5
4842
  8
0
  6
BYBLOCK
 62
     0
 10
26422.320997999988
 20
14813.730913999991
 30
0.0
 40
15.0
 50
90.0
 51
270.0
  0
ARC
  5
4843
  8
0
  6
BYBLOCK
 62
     0
 10
26422.320997999988
 20
14112.730913999991
 30
0.0
 40
15.0
 50
90.0
 51
270.0
  0
ARC
  5
4844
  8
0
  6
BYBLOCK
 62
     0
 10
26422.320997999988
 20
14112.730913999991
 30
0.0
 40
15.0
 50
270.0
 51
90.0
  0
ARC
  5
4845
  8
0
  6
BYBLOCK
 62
     0
 10
26422.320997999988
 20
15514.971425500011
 30
0.0
 40
15.0
 50
270.0
 51
90.0
  0
ARC
  5
4846
  8
0
  6
BYBLOCK
 62
     0
 10
26422.320997999988
 20
15514.971425500011
 30
0.0
 40
15.0
 50
90.0
 51
270.0
  0
ARC
  5
4847
  8
0
  6
BYBLOCK
 62
     0
 10
26422.320997999988
 20
14813.730913999991
 30
0.0
 40
15.0
 50
90.0
 51
270.0
  0
ARC
  5
4848
  8
0
  6
BYBLOCK
 62
     0
 10
26422.320997999988
 20
14813.730913999991
 30
0.0
 40
15.0
 50
270.0
 51
90.0
  0
ARC
  5
4849
  8
0
  6
BYBLOCK
 62
     0
 10
26422.320997999988
 20
16215.730913999991
 30
0.0
 40
15.0
 50
270.0
 51
90.0
  0
ARC
  5
484A
  8
0
  6
BYBLOCK
 62
     0
 10
26422.320997999988
 20
16215.730913999991
 30
0.0
 40
15.0
 50
90.0
 51
270.0
  0
ARC
  5
484B
  8
0
  6
BYBLOCK
 62
     0
 10
26422.320997999988
 20
15514.971425500011
 30
0.0
 40
15.0
 50
90.0
 51
270.0
  0
ARC
  5
484C
  8
0
  6
BYBLOCK
 62
     0
 10
26422.320997999988
 20
15514.971425500011
 30
0.0
 40
15.0
 50
270.0
 51
90.0
  0
ARC
  5
484D
  8
0
  6
BYBLOCK
 62
     0
 10
26422.320997999988
 20
16973.730914
 30
0.0
 40
15.0
 50
270.0
 51
90.0
  0
ARC
  5
484E
  8
0
  6
BYBLOCK
 62
     0
 10
26422.320997999988
 20
16973.730914
 30
0.0
 40
15.0
 50
90.0
 51
270.0
  0
ARC
  5
484F
  8
0
  6
BYBLOCK
 62
     0
 10
26422.320997999988
 20
16215.730913999991
 30
0.0
 40
15.0
 50
90.0
 51
270.0
  0
ARC
  5
4850
  8
0
  6
BYBLOCK
 62
     0
 10
26422.320997999988
 20
16215.730913999991
 30
0.0
 40
15.0
 50
270.0
 51
90.0
  0
ARC
  5
4851
  8
0
  6
BYBLOCK
 62
     0
 10
26422.320997999988
 20
17731.730914
 30
0.0
 40
15.0
 50
270.0
 51
90.0
  0
ARC
  5
4852
  8
0
  6
BYBLOCK
 62
     0
 10
26422.320997999988
 20
17731.730914
 30
0.0
 40
15.0
 50
90.0
 51
270.0
  0
ARC
  5
4853
  8
0
  6
BYBLOCK
 62
     0
 10
26422.320997999988
 20
16973.730914
 30
0.0
 40
15.0
 50
90.0
 51
270.0
  0
ARC
  5
4854
  8
0
  6
BYBLOCK
 62
     0
 10
26422.320997999988
 20
16973.730914
 30
0.0
 40
15.0
 50
270.0
 51
90.0
  0
ARC
  5
4855
  8
0
  6
BYBLOCK
 62
     0
 10
26422.320997999988
 20
18432.730914
 30
0.0
 40
15.0
 50
270.0
 51
90.0
  0
ARC
  5
4856
  8
0
  6
BYBLOCK
 62
     0
 10
26422.320997999988
 20
18432.730914
 30
0.0
 40
15.0
 50
90.0
 51
270.0
  0
ARC
  5
4857
  8
0
  6
BYBLOCK
 62
     0
 10
26422.320997999988
 20
17731.730914
 30
0.0
 40
15.0
 50
90.0
 51
270.0
  0
ARC
  5
4858
  8
0
  6
BYBLOCK
 62
     0
 10
26422.320997999988
 20
17731.730914
 30
0.0
 40
15.0
 50
270.0
 51
90.0
  0
ARC
  5
4859
  8
0
  6
BYBLOCK
 62
     0
 10
26422.320997999988
 20
19133.730914
 30
0.0
 40
15.0
 50
270.0
 51
90.0
  0
ARC
  5
485A
  8
0
  6
BYBLOCK
 62
     0
 10
26422.320997999988
 20
19133.730914
 30
0.0
 40
15.0
 50
90.0
 51
270.0
  0
ARC
  5
485B
  8
0
  6
BYBLOCK
 62
     0
 10
26422.320997999988
 20
18432.730914
 30
0.0
 40
15.0
 50
90.0
 51
270.0
  0
ARC
  5
485C
  8
0
  6
BYBLOCK
 62
     0
 10
26422.320997999988
 20
18432.730914
 30
0.0
 40
15.0
 50
270.0
 51
90.0
  0
ARC
  5
485D
  8
0
  6
BYBLOCK
 62
     0
 10
26422.320997999988
 20
19891.730914
 30
0.0
 40
15.0
 50
270.0
 51
90.0
  0
ARC
  5
485E
  8
0
  6
BYBLOCK
 62
     0
 10
26422.320997999988
 20
19891.730914
 30
0.0
 40
15.0
 50
90.0
 51
270.0
  0
ARC
  5
485F
  8
0
  6
BYBLOCK
 62
     0
 10
26422.320997999988
 20
19133.730914
 30
0.0
 40
15.0
 50
90.0
 51
270.0
  0
ARC
  5
4860
  8
0
  6
BYBLOCK
 62
     0
 10
26422.320997999988
 20
19133.730914
 30
0.0
 40
15.0
 50
270.0
 51
90.0
  0
ARC
  5
4861
  8
0
  6
BYBLOCK
 62
     0
 10
26822.320997999988
 20
16973.730914
 30
0.0
 40
15.0
 50
90.0
 51
270.0
  0
ARC
  5
4862
  8
0
  6
BYBLOCK
 62
     0
 10
26822.320997999988
 20
16973.730914
 30
0.0
 40
15.0
 50
270.0
 51
90.0
  0
ARC
  5
4863
  8
0
  6
BYBLOCK
 62
     0
 10
26822.320997999988
 20
19891.730914
 30
0.0
 40
15.0
 50
270.0
 51
90.0
  0
ARC
  5
4864
  8
0
  6
BYBLOCK
 62
     0
 10
26822.320997999988
 20
19891.730914
 30
0.0
 40
15.0
 50
90.0
 51
270.0
  0
ARC
  5
4865
  8
0
  6
BYBLOCK
 62
     0
 10
26822.320997999988
 20
13705.230913999991
 30
0.0
 40
15.0
 50
90.0
 51
270.0
  0
ARC
  5
4866
  8
0
  6
BYBLOCK
 62
     0
 10
26822.320997999988
 20
13705.230913999991
 30
0.0
 40
15.0
 50
270.0
 51
90.0
  0
ARC
  5
4867
  8
0
  6
BYBLOCK
 62
     0
 10
26822.320997999988
 20
16973.730914
 30
0.0
 40
15.0
 50
270.0
 51
90.0
  0
ARC
  5
4868
  8
0
  6
BYBLOCK
 62
     0
 10
26822.320997999988
 20
16973.730914
 30
0.0
 40
15.0
 50
90.0
 51
270.0
  0
ARC
  5
4869
  8
0
  6
BYBLOCK
 62
     0
 10
27222.320997999988
 20
19934.228209000001
 30
0.0
 40
15.0
 50
270.0
 51
90.0
  0
ARC
  5
486A
  8
0
  6
BYBLOCK
 62
     0
 10
27222.320997999988
 20
19934.228209000001
 30
0.0
 40
15.0
 50
90.0
 51
270.0
  0
ARC
  5
486B
  8
0
  6
BYBLOCK
 62
     0
 10
27222.320997999988
 20
13662.733619000001
 30
0.0
 40
15.0
 50
90.0
 51
270.0
  0
ARC
  5
486C
  8
0
  6
BYBLOCK
 62
     0
 10
27222.320997999988
 20
13662.733619000001
 30
0.0
 40
15.0
 50
270.0
 51
90.0
  0
ARC
  5
486D
  8
0
  6
BYBLOCK
 62
     0
 10
26822.320997999988
 20
19891.730914
 30
0.0
 40
15.0
 50
270.0
 51
90.0
  0
ARC
  5
486E
  8
0
  6
BYBLOCK
 62
     0
 10
26822.320997999988
 20
19891.730914
 30
0.0
 40
15.0
 50
90.0
 51
270.0
  0
ARC
  5
486F
  8
0
  6
BYBLOCK
 62
     0
 10
26822.320997999988
 20
19934.228209000001
 30
0.0
 40
15.0
 50
90.0
 51
270.0
  0
ARC
  5
4870
  8
0
  6
BYBLOCK
 62
     0
 10
26822.320997999988
 20
19934.228209000001
 30
0.0
 40
15.0
 50
270.0
 51
90.0
  0
ARC
  5
4871
  8
0
  6
BYBLOCK
 62
     0
 10
26822.320997999988
 20
13705.230913999991
 30
0.0
 40
15.0
 50
90.0
 51
270.0
  0
ARC
  5
4872
  8
0
  6
BYBLOCK
 62
     0
 10
26822.320997999988
 20
13705.230913999991
 30
0.0
 40
15.0
 50
270.0
 51
90.0
  0
ARC
  5
4873
  8
0
  6
BYBLOCK
 62
     0
 10
26822.320997999988
 20
13662.733619000001
 30
0.0
 40
15.0
 50
270.0
 51
90.0
  0
ARC
  5
4874
  8
0
  6
BYBLOCK
 62
     0
 10
26822.320997999988
 20
13662.733619000001
 30
0.0
 40
15.0
 50
90.0
 51
270.0
  0
ARC
  5
4875
  8
0
  6
BYBLOCK
 62
     0
 10
22762.321393999991
 20
20664.232102000031
 30
0.0
 40
15.0
 50
0.0
 51
180.0
  0
ARC
  5
4876
  8
0
  6
BYBLOCK
 62
     0
 10
22762.321393999991
 20
20664.232102000031
 30
0.0
 40
15.0
 50
180.0
 51
0.0
  0
ARC
  5
4877
  8
0
  6
BYBLOCK
 62
     0
 10
23169.821393999991
 20
20664.232102000031
 30
0.0
 40
15.0
 50
180.0
 51
0.0
  0
ARC
  5
4878
  8
0
  6
BYBLOCK
 62
     0
 10
23169.821393999991
 20
20664.232102000031
 30
0.0
 40
15.0
 50
0.0
 51
180.0
  0
ARC
  5
4879
  8
0
  6
BYBLOCK
 62
     0
 10
24571.821393999991
 20
20664.232102000031
 30
0.0
 40
15.0
 50
0.0
 51
180.0
  0
ARC
  5
487A
  8
0
  6
BYBLOCK
 62
     0
 10
24571.821393999991
 20
20664.232102000031
 30
0.0
 40
15.0
 50
180.0
 51
0.0
  0
ARC
  5
487B
  8
0
  6
BYBLOCK
 62
     0
 10
25329.822383499992
 20
20664.232102000031
 30
0.0
 40
15.0
 50
180.0
 51
0.0
  0
ARC
  5
487C
  8
0
  6
BYBLOCK
 62
     0
 10
25329.822383499992
 20
20664.232102000031
 30
0.0
 40
15.0
 50
0.0
 51
180.0
  0
ARC
  5
487D
  8
0
  6
BYBLOCK
 62
     0
 10
23870.821393999991
 20
20664.232102000031
 30
0.0
 40
15.0
 50
0.0
 51
180.0
  0
ARC
  5
487E
  8
0
  6
BYBLOCK
 62
     0
 10
23870.821393999991
 20
20664.232102000031
 30
0.0
 40
15.0
 50
180.0
 51
0.0
  0
ARC
  5
487F
  8
0
  6
BYBLOCK
 62
     0
 10
24571.821393999991
 20
20664.232102000031
 30
0.0
 40
15.0
 50
180.0
 51
0.0
  0
ARC
  5
4880
  8
0
  6
BYBLOCK
 62
     0
 10
24571.821393999991
 20
20664.232102000031
 30
0.0
 40
15.0
 50
0.0
 51
180.0
  0
ARC
  5
4881
  8
0
  6
BYBLOCK
 62
     0
 10
23169.821393999991
 20
20664.232102000031
 30
0.0
 40
15.0
 50
0.0
 51
180.0
  0
ARC
  5
4882
  8
0
  6
BYBLOCK
 62
     0
 10
23169.821393999991
 20
20664.232102000031
 30
0.0
 40
15.0
 50
180.0
 51
0.0
  0
ARC
  5
4883
  8
0
  6
BYBLOCK
 62
     0
 10
23870.821393999991
 20
20664.232102000031
 30
0.0
 40
15.0
 50
180.0
 51
0.0
  0
ARC
  5
4884
  8
0
  6
BYBLOCK
 62
     0
 10
23870.821393999991
 20
20664.232102000031
 30
0.0
 40
15.0
 50
0.0
 51
180.0
  0
ARC
  5
4885
  8
0
  6
BYBLOCK
 62
     0
 10
25329.821393999991
 20
20664.232102000031
 30
0.0
 40
15.0
 50
180.0
 51
0.0
  0
ARC
  5
4886
  8
0
  6
BYBLOCK
 62
     0
 10
25329.821393999991
 20
20664.232102000031
 30
0.0
 40
15.0
 50
0.0
 51
180.0
  0
ARC
  5
4887
  8
0
  6
BYBLOCK
 62
     0
 10
25372.317698999988
 20
20664.232102000031
 30
0.0
 40
15.0
 50
0.0
 51
180.0
  0
ARC
  5
4888
  8
0
  6
BYBLOCK
 62
     0
 10
25372.317698999988
 20
20664.232102000031
 30
0.0
 40
15.0
 50
180.0
 51
0.0
  0
ARC
  5
4889
  8
0
  6
BYBLOCK
 62
     0
 10
20194.821393999991
 20
20664.232102000031
 30
0.0
 40
15.0
 50
0.0
 51
180.0
  0
ARC
  5
488A
  8
0
  6
BYBLOCK
 62
     0
 10
20194.821393999991
 20
20664.232102000031
 30
0.0
 40
15.0
 50
180.0
 51
0.0
  0
ARC
  5
488B
  8
0
  6
BYBLOCK
 62
     0
 10
20602.321393999991
 20
20664.232102000031
 30
0.0
 40
15.0
 50
180.0
 51
0.0
  0
ARC
  5
488C
  8
0
  6
BYBLOCK
 62
     0
 10
20602.321393999991
 20
20664.232102000031
 30
0.0
 40
15.0
 50
0.0
 51
180.0
  0
ARC
  5
488D
  8
0
  6
BYBLOCK
 62
     0
 10
20194.821393999991
 20
20664.232102000031
 30
0.0
 40
15.0
 50
0.0
 51
180.0
  0
ARC
  5
488E
  8
0
  6
BYBLOCK
 62
     0
 10
20194.821393999991
 20
20664.232102000031
 30
0.0
 40
15.0
 50
180.0
 51
0.0
  0
ARC
  5
488F
  8
0
  6
BYBLOCK
 62
     0
 10
20152.325089000002
 20
20664.232102000031
 30
0.0
 40
15.0
 50
180.0
 51
0.0
  0
ARC
  5
4890
  8
0
  6
BYBLOCK
 62
     0
 10
20152.325089000002
 20
20664.232102000031
 30
0.0
 40
15.0
 50
0.0
 51
180.0
  0
ARC
  5
4891
  8
0
  6
BYBLOCK
 62
     0
 10
22004.321393999991
 20
20664.232102000031
 30
0.0
 40
15.0
 50
0.0
 51
180.0
  0
ARC
  5
4892
  8
0
  6
BYBLOCK
 62
     0
 10
22004.321393999991
 20
20664.232102000031
 30
0.0
 40
15.0
 50
180.0
 51
0.0
  0
ARC
  5
4893
  8
0
  6
BYBLOCK
 62
     0
 10
22762.322383499992
 20
20664.232102000031
 30
0.0
 40
15.0
 50
180.0
 51
0.0
  0
ARC
  5
4894
  8
0
  6
BYBLOCK
 62
     0
 10
22762.322383499992
 20
20664.232102000031
 30
0.0
 40
15.0
 50
0.0
 51
180.0
  0
ARC
  5
4895
  8
0
  6
BYBLOCK
 62
     0
 10
21303.321393999991
 20
20664.232102000031
 30
0.0
 40
15.0
 50
0.0
 51
180.0
  0
ARC
  5
4896
  8
0
  6
BYBLOCK
 62
     0
 10
21303.321393999991
 20
20664.232102000031
 30
0.0
 40
15.0
 50
180.0
 51
0.0
  0
ARC
  5
4897
  8
0
  6
BYBLOCK
 62
     0
 10
22004.321393999991
 20
20664.232102000031
 30
0.0
 40
15.0
 50
180.0
 51
0.0
  0
ARC
  5
4898
  8
0
  6
BYBLOCK
 62
     0
 10
22004.321393999991
 20
20664.232102000031
 30
0.0
 40
15.0
 50
0.0
 51
180.0
  0
ARC
  5
4899
  8
0
  6
BYBLOCK
 62
     0
 10
20602.321393999991
 20
20664.232102000031
 30
0.0
 40
15.0
 50
0.0
 51
180.0
  0
ARC
  5
489A
  8
0
  6
BYBLOCK
 62
     0
 10
20602.321393999991
 20
20664.232102000031
 30
0.0
 40
15.0
 50
180.0
 51
0.0
  0
ARC
  5
489B
  8
0
  6
BYBLOCK
 62
     0
 10
21303.321393999991
 20
20664.232102000031
 30
0.0
 40
15.0
 50
180.0
 51
0.0
  0
ARC
  5
489C
  8
0
  6
BYBLOCK
 62
     0
 10
21303.321393999991
 20
20664.232102000031
 30
0.0
 40
15.0
 50
0.0
 51
180.0
  0
ARC
  5
489D
  8
0
  6
BYBLOCK
 62
     0
 10
19344.822053999989
 20
6276.5900849999962
 30
0.0
 40
15.0
 50
90.0
 51
270.0
  0
ARC
  5
489E
  8
0
  6
BYBLOCK
 62
     0
 10
19344.822053999989
 20
6276.5900849999962
 30
0.0
 40
15.0
 50
270.0
 51
90.0
  0
ARC
  5
489F
  8
0
  6
BYBLOCK
 62
     0
 10
19344.822053999989
 20
8168.0900849999953
 30
0.0
 40
15.0
 50
270.0
 51
90.0
  0
ARC
  5
48A0
  8
0
  6
BYBLOCK
 62
     0
 10
19344.822053999989
 20
8168.0900849999953
 30
0.0
 40
15.0
 50
90.0
 51
270.0
  0
ARC
  5
48A1
  8
0
  6
BYBLOCK
 62
     0
 10
18944.819744999979
 20
6276.5900849999962
 30
0.0
 40
15.0
 50
90.0
 51
270.0
  0
ARC
  5
48A2
  8
0
  6
BYBLOCK
 62
     0
 10
18944.819744999979
 20
6276.5900849999962
 30
0.0
 40
15.0
 50
270.0
 51
90.0
  0
ARC
  5
48A3
  8
0
  6
BYBLOCK
 62
     0
 10
18944.819744999979
 20
8624.5900850000016
 30
0.0
 40
15.0
 50
270.0
 51
90.0
  0
ARC
  5
48A4
  8
0
  6
BYBLOCK
 62
     0
 10
18944.819744999979
 20
8624.5900850000016
 30
0.0
 40
15.0
 50
90.0
 51
270.0
  0
ARC
  5
48B5
  8
0
  6
BYBLOCK
 62
     0
 10
20288.821393999991
 20
5376.5902499999984
 30
0.0
 40
15.0
 50
0.0
 51
180.0
  0
ARC
  5
48B6
  8
0
  6
BYBLOCK
 62
     0
 10
20288.821393999991
 20
5376.5902499999984
 30
0.0
 40
15.0
 50
180.0
 51
0.0
  0
ARC
  5
48B7
  8
0
  6
BYBLOCK
 62
     0
 10
22668.321393999991
 20
5376.5902499999984
 30
0.0
 40
15.0
 50
180.0
 51
0.0
  0
ARC
  5
48B8
  8
0
  6
BYBLOCK
 62
     0
 10
22668.321393999991
 20
5376.5902499999984
 30
0.0
 40
15.0
 50
0.0
 51
180.0
  0
ARC
  5
48B9
  8
0
  6
BYBLOCK
 62
     0
 10
22856.321393999991
 20
5376.5902499999984
 30
0.0
 40
15.0
 50
0.0
 51
180.0
  0
ARC
  5
48BA
  8
0
  6
BYBLOCK
 62
     0
 10
22856.321393999991
 20
5376.5902499999984
 30
0.0
 40
15.0
 50
180.0
 51
0.0
  0
ARC
  5
48BB
  8
0
  6
BYBLOCK
 62
     0
 10
25235.821393999991
 20
5376.5902499999984
 30
0.0
 40
15.0
 50
180.0
 51
0.0
  0
ARC
  5
48BC
  8
0
  6
BYBLOCK
 62
     0
 10
25235.821393999991
 20
5376.5902499999984
 30
0.0
 40
15.0
 50
0.0
 51
180.0
  0
ARC
  5
48BD
  8
0
  6
BYBLOCK
 62
     0
 10
22762.321393999991
 20
4976.5902500000002
 30
0.0
 40
15.0
 50
0.0
 51
180.0
  0
ARC
  5
48BE
  8
0
  6
BYBLOCK
 62
     0
 10
22762.321393999991
 20
4976.5902500000002
 30
0.0
 40
15.0
 50
180.0
 51
0.0
  0
ARC
  5
48BF
  8
0
  6
BYBLOCK
 62
     0
 10
25329.821393999991
 20
4976.5902500000002
 30
0.0
 40
15.0
 50
180.0
 51
0.0
  0
ARC
  5
48C0
  8
0
  6
BYBLOCK
 62
     0
 10
25329.821393999991
 20
4976.5902500000002
 30
0.0
 40
15.0
 50
0.0
 51
180.0
  0
ARC
  5
48C1
  8
0
  6
BYBLOCK
 62
     0
 10
20194.821393999991
 20
4976.5902500000002
 30
0.0
 40
15.0
 50
0.0
 51
180.0
  0
ARC
  5
48C2
  8
0
  6
BYBLOCK
 62
     0
 10
20194.821393999991
 20
4976.5902500000002
 30
0.0
 40
15.0
 50
180.0
 51
0.0
  0
ARC
  5
48C3
  8
0
  6
BYBLOCK
 62
     0
 10
22762.321393999991
 20
4976.5902500000002
 30
0.0
 40
15.0
 50
180.0
 51
0.0
  0
ARC
  5
48C4
  8
0
  6
BYBLOCK
 62
     0
 10
22762.321393999991
 20
4976.5902500000002
 30
0.0
 40
15.0
 50
0.0
 51
180.0
  0
ARC
  5
48C5
  8
0
  6
BYBLOCK
 62
     0
 10
25329.825352999989
 20
4976.5902500000002
 30
0.0
 40
15.0
 50
180.0
 51
0.0
  0
ARC
  5
48C6
  8
0
  6
BYBLOCK
 62
     0
 10
25329.825352999989
 20
4976.5902500000002
 30
0.0
 40
15.0
 50
0.0
 51
180.0
  0
ARC
  5
48C7
  8
0
  6
BYBLOCK
 62
     0
 10
25372.325353
 20
4976.5902500000002
 30
0.0
 40
15.0
 50
0.0
 51
180.0
  0
ARC
  5
48C8
  8
0
  6
BYBLOCK
 62
     0
 10
25372.325353
 20
4976.5902500000002
 30
0.0
 40
15.0
 50
180.0
 51
0.0
  0
ARC
  5
48C9
  8
0
  6
BYBLOCK
 62
     0
 10
20194.821393999991
 20
4976.5902500000002
 30
0.0
 40
15.0
 50
0.0
 51
180.0
  0
ARC
  5
48CA
  8
0
  6
BYBLOCK
 62
     0
 10
20194.821393999991
 20
4976.5902500000002
 30
0.0
 40
15.0
 50
180.0
 51
0.0
  0
ARC
  5
48CB
  8
0
  6
BYBLOCK
 62
     0
 10
20152.321393999991
 20
4976.5902500000002
 30
0.0
 40
15.0
 50
180.0
 51
0.0
  0
ARC
  5
48CC
  8
0
  6
BYBLOCK
 62
     0
 10
20152.321393999991
 20
4976.5902500000002
 30
0.0
 40
15.0
 50
0.0
 51
180.0
  0
ARC
  5
48CD
  8
0
  6
BYBLOCK
 62
     0
 10
20152.321393999991
 20
4576.5904149999969
 30
0.0
 40
15.0
 50
0.0
 51
180.0
  0
ARC
  5
48CE
  8
0
  6
BYBLOCK
 62
     0
 10
20152.321393999991
 20
4576.5904149999969
 30
0.0
 40
15.0
 50
180.0
 51
0.0
  0
ARC
  5
48CF
  8
0
  6
BYBLOCK
 62
     0
 10
25372.321393999991
 20
4576.5904149999969
 30
0.0
 40
15.0
 50
180.0
 51
0.0
  0
ARC
  5
48D0
  8
0
  6
BYBLOCK
 62
     0
 10
25372.321393999991
 20
4576.5904149999969
 30
0.0
 40
15.0
 50
0.0
 51
180.0
  0
ARC
  5
48D1
  8
0
  6
BYBLOCK
 62
     0
 10
8882.5340609999967
 20
9824.5901109999995
 30
0.0
 40
15.0
 50
0.0
 51
180.0
  0
ARC
  5
48D2
  8
0
  6
BYBLOCK
 62
     0
 10
8882.5340609999967
 20
9824.5901109999995
 30
0.0
 40
15.0
 50
180.0
 51
0.0
  0
ARC
  5
48D3
  8
0
  6
BYBLOCK
 62
     0
 10
15484.034061
 20
9824.5901109999995
 30
0.0
 40
15.0
 50
180.0
 51
0.0
  0
ARC
  5
48D4
  8
0
  6
BYBLOCK
 62
     0
 10
15484.034061
 20
9824.5901109999995
 30
0.0
 40
15.0
 50
0.0
 51
180.0
  0
ARC
  5
48D5
  8
0
  6
BYBLOCK
 62
     0
 10
15334.034061
 20
9424.5917609999997
 30
0.0
 40
15.0
 50
180.0
 51
0.0
  0
ARC
  5
48D6
  8
0
  6
BYBLOCK
 62
     0
 10
15334.034061
 20
9424.5917609999997
 30
0.0
 40
15.0
 50
0.0
 51
180.0
  0
ARC
  5
48D7
  8
0
  6
BYBLOCK
 62
     0
 10
15484.034061
 20
9424.5917609999997
 30
0.0
 40
15.0
 50
0.0
 51
180.0
  0
ARC
  5
48D8
  8
0
  6
BYBLOCK
 62
     0
 10
15484.034061
 20
9424.5917609999997
 30
0.0
 40
15.0
 50
180.0
 51
0.0
  0
ARC
  5
48D9
  8
0
  6
BYBLOCK
 62
     0
 10
9062.5340609999967
 20
9424.5917609999997
 30
0.0
 40
15.0
 50
0.0
 51
180.0
  0
ARC
  5
48DA
  8
0
  6
BYBLOCK
 62
     0
 10
9062.5340609999967
 20
9424.5917609999997
 30
0.0
 40
15.0
 50
180.0
 51
0.0
  0
ARC
  5
48DB
  8
0
  6
BYBLOCK
 62
     0
 10
15334.034061
 20
9424.5917609999997
 30
0.0
 40
15.0
 50
180.0
 51
0.0
  0
ARC
  5
48DC
  8
0
  6
BYBLOCK
 62
     0
 10
15334.034061
 20
9424.5917609999997
 30
0.0
 40
15.0
 50
0.0
 51
180.0
  0
ARC
  5
48DD
  8
0
  6
BYBLOCK
 62
     0
 10
8882.5340609999967
 20
9424.5917609999997
 30
0.0
 40
15.0
 50
0.0
 51
180.0
  0
ARC
  5
48DE
  8
0
  6
BYBLOCK
 62
     0
 10
8882.5340609999967
 20
9424.5917609999997
 30
0.0
 40
15.0
 50
180.0
 51
0.0
  0
ARC
  5
48DF
  8
0
  6
BYBLOCK
 62
     0
 10
9062.5340609999967
 20
9424.5917609999997
 30
0.0
 40
15.0
 50
180.0
 51
0.0
  0
ARC
  5
48E0
  8
0
  6
BYBLOCK
 62
     0
 10
9062.5340609999967
 20
9424.5917609999997
 30
0.0
 40
15.0
 50
0.0
 51
180.0
  0
ARC
  5
48E1
  8
0
  6
BYBLOCK
 62
     0
 10
16424.034456999991
 20
6276.5900850000025
 30
0.0
 40
15.0
 50
90.0
 51
270.0
  0
ARC
  5
48E2
  8
0
  6
BYBLOCK
 62
     0
 10
16424.034456999991
 20
6276.5900850000025
 30
0.0
 40
15.0
 50
270.0
 51
90.0
  0
ARC
  5
48E3
  8
0
  6
BYBLOCK
 62
     0
 10
16424.034457000002
 20
8624.5900850000016
 30
0.0
 40
15.0
 50
270.0
 51
90.0
  0
ARC
  5
48E4
  8
0
  6
BYBLOCK
 62
     0
 10
16424.034457000002
 20
8624.5900850000016
 30
0.0
 40
15.0
 50
90.0
 51
270.0
  0
ARC
  5
48E5
  8
0
  6
BYBLOCK
 62
     0
 10
7972.5336650000027
 20
6276.5900850000025
 30
0.0
 40
15.0
 50
90.0
 51
270.0
  0
ARC
  5
48E6
  8
0
  6
BYBLOCK
 62
     0
 10
7972.5336650000027
 20
6276.5900850000025
 30
0.0
 40
15.0
 50
270.0
 51
90.0
  0
ARC
  5
48E7
  8
0
  6
BYBLOCK
 62
     0
 10
7972.5336650000027
 20
8433.5900850000016
 30
0.0
 40
15.0
 50
270.0
 51
90.0
  0
ARC
  5
48E8
  8
0
  6
BYBLOCK
 62
     0
 10
7972.5336650000027
 20
8433.5900850000016
 30
0.0
 40
15.0
 50
90.0
 51
270.0
  0
ARC
  5
48E9
  8
0
  6
BYBLOCK
 62
     0
 10
9062.5340609999967
 20
4576.5904150000006
 30
0.0
 40
15.0
 50
0.0
 51
180.0
  0
ARC
  5
48EA
  8
0
  6
BYBLOCK
 62
     0
 10
9062.5340609999967
 20
4576.5904150000006
 30
0.0
 40
15.0
 50
180.0
 51
0.0
  0
ARC
  5
48EB
  8
0
  6
BYBLOCK
 62
     0
 10
15334.034061
 20
4576.5904150000006
 30
0.0
 40
15.0
 50
180.0
 51
0.0
  0
ARC
  5
48EC
  8
0
  6
BYBLOCK
 62
     0
 10
15334.034061
 20
4576.5904150000006
 30
0.0
 40
15.0
 50
0.0
 51
180.0
  0
ARC
  5
48ED
  8
0
  6
BYBLOCK
 62
     0
 10
15291.534061
 20
4976.5902500000002
 30
0.0
 40
15.0
 50
180.0
 51
0.0
  0
ARC
  5
48EE
  8
0
  6
BYBLOCK
 62
     0
 10
15291.534061
 20
4976.5902500000002
 30
0.0
 40
15.0
 50
0.0
 51
180.0
  0
ARC
  5
48EF
  8
0
  6
BYBLOCK
 62
     0
 10
15334.034061
 20
4976.5902500000002
 30
0.0
 40
15.0
 50
0.0
 51
180.0
  0
ARC
  5
48F0
  8
0
  6
BYBLOCK
 62
     0
 10
15334.034061
 20
4976.5902500000002
 30
0.0
 40
15.0
 50
180.0
 51
0.0
  0
ARC
  5
48F1
  8
0
  6
BYBLOCK
 62
     0
 10
9105.0340609999967
 20
4976.5902500000002
 30
0.0
 40
15.0
 50
0.0
 51
180.0
  0
ARC
  5
48F2
  8
0
  6
BYBLOCK
 62
     0
 10
9105.0340609999967
 20
4976.5902500000002
 30
0.0
 40
15.0
 50
180.0
 51
0.0
  0
ARC
  5
48F3
  8
0
  6
BYBLOCK
 62
     0
 10
9062.5340609999967
 20
4976.5902500000002
 30
0.0
 40
15.0
 50
180.0
 51
0.0
  0
ARC
  5
48F4
  8
0
  6
BYBLOCK
 62
     0
 10
9062.5340609999967
 20
4976.5902500000002
 30
0.0
 40
15.0
 50
0.0
 51
180.0
  0
ARC
  5
48F5
  8
0
  6
BYBLOCK
 62
     0
 10
12023.034061
 20
4976.5902500000002
 30
0.0
 40
15.0
 50
180.0
 51
0.0
  0
ARC
  5
48F6
  8
0
  6
BYBLOCK
 62
     0
 10
12023.034061
 20
4976.5902500000002
 30
0.0
 40
15.0
 50
0.0
 51
180.0
  0
ARC
  5
48F7
  8
0
  6
BYBLOCK
 62
     0
 10
9105.0340609999967
 20
4976.5902500000002
 30
0.0
 40
15.0
 50
0.0
 51
180.0
  0
ARC
  5
48F8
  8
0
  6
BYBLOCK
 62
     0
 10
9105.0340609999967
 20
4976.5902500000002
 30
0.0
 40
15.0
 50
180.0
 51
0.0
  0
ARC
  5
48F9
  8
0
  6
BYBLOCK
 62
     0
 10
12023.034061
 20
4976.590250000002
 30
0.0
 40
15.0
 50
0.0
 51
180.0
  0
ARC
  5
48FA
  8
0
  6
BYBLOCK
 62
     0
 10
12023.034061
 20
4976.590250000002
 30
0.0
 40
15.0
 50
180.0
 51
0.0
  0
ARC
  5
48FB
  8
0
  6
BYBLOCK
 62
     0
 10
15291.534061
 20
4976.590250000002
 30
0.0
 40
15.0
 50
180.0
 51
0.0
  0
ARC
  5
48FC
  8
0
  6
BYBLOCK
 62
     0
 10
15291.534061
 20
4976.590250000002
 30
0.0
 40
15.0
 50
0.0
 51
180.0
  0
LINE
  5
4A30
  8
0-1
  6
CONTINUOUS
 62
     3
 10
25266.324376
 20
8375.0901049999975
 30
0.0
 11
25266.324376
 21
8407.0900120000006
 31
0.0
  0
LINE
  5
4A31
  8
0-1
  6
CONTINUOUS
 62
     3
 10
25415.323768999999
 20
8298.9033830000026
 30
0.0
 11
25372.321657999979
 21
8298.9033830000026
 31
0.0
  0
LINE
  5
4A32
  8
0-1
  6
CONTINUOUS
 62
     3
 10
25415.323768999999
 20
8625.0904340000034
 30
0.0
 11
25415.323768999999
 21
8298.9033830000026
 31
0.0
  0
LINE
  5
4A33
  8
0-1
  6
CONTINUOUS
 62
     3
 10
24980.357183000011
 20
8371.5546839999988
 30
0.0
 11
24948.358265999999
 21
8403.5545919999968
 31
0.0
  0
LINE
  5
4A34
  8
0-1
  6
CONTINUOUS
 62
     3
 10
25261.32411199998
 20
8412.0902760000008
 30
0.0
 11
24951.89368600001
 21
8412.0902760000008
 31
0.0
  0
LINE
  5
4A35
  8
0-1
  6
CONTINUOUS
 62
     3
 10
25266.324376
 20
8403.6911790000031
 30
0.0
 11
24948.227617
 21
8403.6911790000031
 31
0.0
  0
LINE
  5
4A36
  8
0-1
  6
CONTINUOUS
 62
     3
 10
25261.32411199998
 20
8370.0898410000009
 30
0.0
 11
24983.89458299999
 21
8370.0898410000009
 31
0.0
  0
LINE
  5
4A37
  8
0-1
  6
CONTINUOUS
 62
     3
 10
25266.324376
 20
8378.4899280000009
 30
0.0
 11
24973.42292999999
 21
8378.4899280000009
 31
0.0
  0
LINE
  5
4A38
  8
0-1
  6
CONTINUOUS
 62
     3
 10
25266.324376
 20
8386.8900149999954
 30
0.0
 11
24965.023831999999
 21
8386.8900149999954
 31
0.0
  0
LINE
  5
4A39
  8
0-1
  6
CONTINUOUS
 62
     3
 10
25266.324376
 20
8395.2910919999995
 30
0.0
 11
24956.62275599999
 21
8395.2910919999995
 31
0.0
  0
LINE
  5
4A3A
  8
0-1
  6
CONTINUOUS
 62
     3
 10
23111.78758400002
 20
8371.5546839999988
 30
0.0
 11
23143.78452200002
 21
8403.5545919999968
 31
0.0
  0
LINE
  5
4A3B
  8
0-1
  6
CONTINUOUS
 62
     3
 10
22825.82237000002
 20
8375.0901049999975
 30
0.0
 11
22825.82237000002
 21
8407.0900120000006
 31
0.0
  0
LINE
  5
4A3C
  8
0-1
  6
CONTINUOUS
 62
     3
 10
22825.82237000002
 20
8378.4899280000009
 30
0.0
 11
23118.719858
 21
8378.4899280000009
 31
0.0
  0
LINE
  5
4A3D
  8
0-1
  6
CONTINUOUS
 62
     3
 10
22825.82237000002
 20
8386.8900149999954
 30
0.0
 11
23127.12093500001
 21
8386.8900149999954
 31
0.0
  0
LINE
  5
4A3E
  8
0-1
  6
CONTINUOUS
 62
     3
 10
22830.822634
 20
8370.0898410000009
 30
0.0
 11
23108.250184000011
 21
8370.0898410000009
 31
0.0
  0
LINE
  5
4A3F
  8
0-1
  6
CONTINUOUS
 62
     3
 10
22825.82237000002
 20
8395.2910919999995
 30
0.0
 11
23135.520032000019
 21
8395.2910919999995
 31
0.0
  0
LINE
  5
4A40
  8
0-1
  6
CONTINUOUS
 62
     3
 10
22825.82237000002
 20
8403.6911790000031
 30
0.0
 11
23143.917150000019
 21
8403.6911790000031
 31
0.0
  0
LINE
  5
4A41
  8
0-1
  6
CONTINUOUS
 62
     3
 10
22830.822634
 20
8412.0902760000008
 30
0.0
 11
23140.251081000031
 21
8412.0902760000008
 31
0.0
  0
LINE
  5
4A42
  8
0-1
  6
CONTINUOUS
 62
     3
 10
25415.323768999999
 20
8495.0895109999983
 30
0.0
 11
22762.321393999999
 21
8495.0895109999983
 31
0.0
  0
LINE
  5
4A43
  8
0-1
  6
CONTINUOUS
 62
     3
 10
22804.819678000011
 20
8421.0901570000005
 30
0.0
 11
25287.32310899999
 21
8421.0901570000005
 31
0.0
  0
LINE
  5
4A44
  8
0-1
  6
CONTINUOUS
 62
     3
 10
22804.819678000011
 20
8361.0899589999972
 30
0.0
 11
25287.32310899999
 21
8361.0899589999972
 31
0.0
  0
LINE
  5
4A45
  8
0-1
  6
CONTINUOUS
 62
     3
 10
22762.321393999999
 20
8625.0904340000034
 30
0.0
 11
25415.323768999999
 21
8625.0904340000034
 31
0.0
  0
LINE
  5
4A46
  8
0-1
  6
CONTINUOUS
 62
     3
 10
22698.820417999999
 20
8375.0901049999975
 30
0.0
 11
22698.820417999999
 21
8407.0900120000006
 31
0.0
  0
LINE
  5
4A47
  8
0-1
  6
CONTINUOUS
 62
     3
 10
22412.85916299999
 20
8371.5546839999988
 30
0.0
 11
22380.858265999999
 21
8403.5545919999968
 31
0.0
  0
LINE
  5
4A48
  8
0-1
  6
CONTINUOUS
 62
     3
 10
22698.820417999999
 20
8403.6911790000031
 30
0.0
 11
22380.727617999979
 21
8403.6911790000031
 31
0.0
  0
LINE
  5
4A49
  8
0-1
  6
CONTINUOUS
 62
     3
 10
22698.820417999999
 20
8395.2910919999995
 30
0.0
 11
22389.12275599999
 21
8395.2910919999995
 31
0.0
  0
LINE
  5
4A4A
  8
0-1
  6
CONTINUOUS
 62
     3
 10
22698.820417999999
 20
8386.8900149999954
 30
0.0
 11
22397.521852999998
 21
8386.8900149999954
 31
0.0
  0
LINE
  5
4A4B
  8
0-1
  6
CONTINUOUS
 62
     3
 10
22698.820417999999
 20
8378.4899280000009
 30
0.0
 11
22405.920950999978
 21
8378.4899280000009
 31
0.0
  0
LINE
  5
4A4C
  8
0-1
  6
CONTINUOUS
 62
     3
 10
22693.822132999991
 20
8412.0902760000008
 30
0.0
 11
22384.391706999999
 21
8412.0902760000008
 31
0.0
  0
LINE
  5
4A4D
  8
0-1
  6
CONTINUOUS
 62
     3
 10
22693.822132999991
 20
8370.0898410000009
 30
0.0
 11
22416.394583999991
 21
8370.0898410000009
 31
0.0
  0
LINE
  5
4A4E
  8
0-1
  6
CONTINUOUS
 62
     3
 10
20263.32065500001
 20
8370.0898410000009
 30
0.0
 11
20540.750184999972
 21
8370.0898410000009
 31
0.0
  0
LINE
  5
4A4F
  8
0-1
  6
CONTINUOUS
 62
     3
 10
20258.322370999998
 20
8375.0901049999975
 30
0.0
 11
20258.322370999998
 21
8407.0900120000006
 31
0.0
  0
LINE
  5
4A50
  8
0-1
  6
CONTINUOUS
 62
     3
 10
20109.320998999981
 20
8298.9033830000026
 30
0.0
 11
20152.319151000011
 21
8298.9033830000026
 31
0.0
  0
LINE
  5
4A51
  8
0-1
  6
CONTINUOUS
 62
     3
 10
20109.320998999981
 20
8298.9033830000026
 30
0.0
 11
20109.320998999981
 21
8625.0904340000034
 31
0.0
  0
LINE
  5
4A52
  8
0-1
  6
CONTINUOUS
 62
     3
 10
20263.32065500001
 20
8412.0902760000008
 30
0.0
 11
20572.751081999999
 21
8412.0902760000008
 31
0.0
  0
LINE
  5
4A53
  8
0-1
  6
CONTINUOUS
 62
     3
 10
20544.283625
 20
8371.5546839999988
 30
0.0
 11
20576.284522999991
 21
8403.5545919999968
 31
0.0
  0
LINE
  5
4A54
  8
0-1
  6
CONTINUOUS
 62
     3
 10
20258.322370999998
 20
8403.6911790000031
 30
0.0
 11
20576.417150000001
 21
8403.6911790000031
 31
0.0
  0
LINE
  5
4A55
  8
0-1
  6
CONTINUOUS
 62
     3
 10
20258.322370999998
 20
8395.2910919999995
 30
0.0
 11
20568.020033000012
 21
8395.2910919999995
 31
0.0
  0
LINE
  5
4A56
  8
0-1
  6
CONTINUOUS
 62
     3
 10
20258.322370999998
 20
8386.8900149999954
 30
0.0
 11
20559.62093500001
 21
8386.8900149999954
 31
0.0
  0
LINE
  5
4A57
  8
0-1
  6
CONTINUOUS
 62
     3
 10
20258.322370999998
 20
8378.4899280000009
 30
0.0
 11
20551.221838000001
 21
8378.4899280000009
 31
0.0
  0
LINE
  5
4A58
  8
0-1
  6
CONTINUOUS
 62
     3
 10
20237.319679000011
 20
8361.0899589999972
 30
0.0
 11
22719.821129999989
 21
8361.0899589999972
 31
0.0
  0
LINE
  5
4A59
  8
0-1
  6
CONTINUOUS
 62
     3
 10
20237.319679000011
 20
8421.0901570000005
 30
0.0
 11
22719.821129999989
 21
8421.0901570000005
 31
0.0
  0
LINE
  5
4A5A
  8
0-1
  6
CONTINUOUS
 62
     3
 10
20109.320998999981
 20
8625.0904340000034
 30
0.0
 11
22762.321393999999
 21
8625.0904340000034
 31
0.0
  0
LINE
  5
4A5B
  8
0-1
  6
CONTINUOUS
 62
     3
 10
22762.321393999999
 20
8495.0895109999983
 30
0.0
 11
20109.320998999981
 21
8495.0895109999983
 31
0.0
  0
LINE
  5
4A5C
  8
0-1
  6
CONTINUOUS
 62
     3
 10
22762.321393999999
 20
8495.0895109999983
 30
0.0
 11
22762.321393999999
 21
8625.0904340000034
 31
0.0
  0
LINE
  5
4A5D
  8
0-1
  6
CONTINUOUS
 62
     3
 10
22762.321393999999
 20
8495.0895109999983
 30
0.0
 11
22762.321393999999
 21
8625.0904340000034
 31
0.0
  0
ARC
  5
4A5E
  8
0-1
  6
CONTINUOUS
 62
     3
 10
25261.32411199998
 20
8407.0900120000006
 30
0.0
 40
5.0
 50
0.0
 51
90.0
  0
ARC
  5
4A5F
  8
0-1
  6
CONTINUOUS
 62
     3
 10
25261.32411199998
 20
8375.0901049999975
 30
0.0
 40
5.0
 50
269.9999850001808
 51
0.0
  0
ARC
  5
4A60
  8
0-1
  6
CONTINUOUS
 62
     3
 10
24951.89368600001
 20
8407.0900120000006
 30
0.0
 40
5.0
 50
90.0
 51
224.99998499997989
  0
ARC
  5
4A61
  8
0-1
  6
CONTINUOUS
 62
     3
 10
24983.89458299999
 20
8375.0901049999975
 30
0.0
 40
5.0
 50
224.99998499997989
 51
269.9999850001808
  0
ARC
  5
4A62
  8
0-1
  6
CONTINUOUS
 62
     3
 10
23140.251081000031
 20
8407.0900120000006
 30
0.0
 40
5.0
 50
314.99998500027471
 51
90.0
  0
ARC
  5
4A63
  8
0-1
  6
CONTINUOUS
 62
     3
 10
23108.250184000011
 20
8375.0901049999975
 30
0.0
 40
5.0
 50
269.9999850001808
 51
314.99998500027471
  0
ARC
  5
4A64
  8
0-1
  6
CONTINUOUS
 62
     3
 10
22830.822634
 20
8375.0901049999975
 30
0.0
 40
5.0
 50
180.0
 51
269.9999850001808
  0
ARC
  5
4A65
  8
0-1
  6
CONTINUOUS
 62
     3
 10
22830.822634
 20
8407.0900120000006
 30
0.0
 40
5.0
 50
90.0
 51
180.0
  0
ARC
  5
4A66
  8
0-1
  6
CONTINUOUS
 62
     3
 10
22693.822132999991
 20
8375.0901049999975
 30
0.0
 40
5.0
 50
269.9999850001808
 51
0.0
  0
ARC
  5
4A67
  8
0-1
  6
CONTINUOUS
 62
     3
 10
22693.822132999991
 20
8407.0900120000006
 30
0.0
 40
5.0
 50
0.0
 51
90.0
  0
ARC
  5
4A68
  8
0-1
  6
CONTINUOUS
 62
     3
 10
22384.391706999999
 20
8407.0900120000006
 30
0.0
 40
5.0
 50
90.0
 51
224.99998499997989
  0
ARC
  5
4A69
  8
0-1
  6
CONTINUOUS
 62
     3
 10
22416.394583999991
 20
8375.0901049999975
 30
0.0
 40
5.0
 50
224.99998499997989
 51
269.9999850001808
  0
ARC
  5
4A6A
  8
0-1
  6
CONTINUOUS
 62
     3
 10
20572.751081999999
 20
8407.0900120000006
 30
0.0
 40
5.0
 50
314.99998500027471
 51
90.0
  0
ARC
  5
4A6B
  8
0-1
  6
CONTINUOUS
 62
     3
 10
20263.32065500001
 20
8407.0900120000006
 30
0.0
 40
5.0
 50
90.0
 51
180.0
  0
ARC
  5
4A6C
  8
0-1
  6
CONTINUOUS
 62
     3
 10
20263.32065500001
 20
8375.0901049999975
 30
0.0
 40
5.0
 50
180.0
 51
269.9999850001808
  0
ARC
  5
4A6D
  8
0-1
  6
CONTINUOUS
 62
     3
 10
20540.750184999972
 20
8375.0901049999975
 30
0.0
 40
5.0
 50
269.9999850001808
 51
314.99998500027471
  0
LINE
  5
4A6E
  8
SUNPOU
  6
CONTINUOUS
 62
     4
 10
20109.31901899998
 20
8705.0904340000034
 30
0.0
 11
20109.31901899998
 21
9904.5480460000017
 31
0.0
  0
LINE
  5
4A6F
  8
SUNPOU
  6
CONTINUOUS
 62
     4
 10
25415.323768999999
 20
8705.0904340000034
 30
0.0
 11
25415.323768999999
 21
9904.5480460000017
 31
0.0
  0
LINE
  5
4A70
  8
SUNPOU
  6
CONTINUOUS
 62
     4
 10
20112.31901899998
 20
9824.5480460000035
 30
0.0
 11
25412.323768999999
 21
9824.5480460000035
 31
0.0
  0
LINE
  5
4A71
  8
SUNPOU
  6
CONTINUOUS
 62
     4
 10
20152.321129999978
 20
8705.0904340000034
 30
0.0
 11
20152.321129999978
 21
9504.5902760000008
 31
0.0
  0
LINE
  5
4A72
  8
SUNPOU
  6
CONTINUOUS
 62
     4
 10
25372.321657999979
 20
8705.0904340000034
 30
0.0
 11
25372.321657999979
 21
9504.5902760000008
 31
0.0
  0
LINE
  5
4A73
  8
SUNPOU
  6
CONTINUOUS
 62
     4
 10
20152.321129999978
 20
9424.5902760000008
 30
0.0
 11
25372.321657999979
 21
9424.5902760000008
 31
0.0
  0
LINE
  5
4A74
  8
SUNPOU
  6
CONTINUOUS
 62
     4
 10
20152.321129999978
 20
8705.0904340000034
 30
0.0
 11
20152.321129999978
 21
9504.5902760000008
 31
0.0
  0
LINE
  5
4A75
  8
SUNPOU
  6
CONTINUOUS
 62
     4
 10
20109.31901899998
 20
8705.0904340000034
 30
0.0
 11
20109.31901899998
 21
9504.5902760000008
 31
0.0
  0
LINE
  5
4A76
  8
SUNPOU
  6
CONTINUOUS
 62
     4
 10
20152.321129999978
 20
9424.5902760000008
 30
0.0
 11
20392.321129999978
 21
9424.5902760000008
 31
0.0
  0
LINE
  5
4A77
  8
SUNPOU
  6
CONTINUOUS
 62
     4
 10
20112.31901899998
 20
9424.5902760000008
 30
0.0
 11
19872.319018999999
 21
9424.5902760000008
 31
0.0
  0
LINE
  5
4A78
  8
SUNPOU
  6
CONTINUOUS
 62
     4
 10
20152.321129999978
 20
9424.5902760000008
 30
0.0
 11
20112.31901899998
 21
9424.5902760000008
 31
0.0
  0
LINE
  5
4A79
  8
SUNPOU
  6
CONTINUOUS
 62
     4
 10
25372.321657999979
 20
8705.0904340000034
 30
0.0
 11
25372.321657999979
 21
9504.5902760000008
 31
0.0
  0
LINE
  5
4A7A
  8
SUNPOU
  6
CONTINUOUS
 62
     4
 10
25415.323768999999
 20
8705.0904340000034
 30
0.0
 11
25415.323768999999
 21
9504.5902760000008
 31
0.0
  0
LINE
  5
4A7B
  8
SUNPOU
  6
CONTINUOUS
 62
     4
 10
25372.321657999979
 20
9424.5902760000008
 30
0.0
 11
25132.321657999979
 21
9424.5902760000008
 31
0.0
  0
LINE
  5
4A7C
  8
SUNPOU
  6
CONTINUOUS
 62
     4
 10
25412.323768999999
 20
9424.5902760000008
 30
0.0
 11
25652.323768999999
 21
9424.5902760000008
 31
0.0
  0
LINE
  5
4A7D
  8
SUNPOU
  6
CONTINUOUS
 62
     4
 10
25372.321657999979
 20
9424.5902760000008
 30
0.0
 11
25412.323768999999
 21
9424.5902760000008
 31
0.0
  0
TEXT
  5
4A7E
  8
0
  6
CONTINUOUS
 62
     7
 10
25532.323768999999
 20
9504.5902760000008
 30
0.0
 40
160.0
  1
43
  0
TEXT
  5
4A7F
  8
0
  6
CONTINUOUS
 62
     7
 10
19752.319018999999
 20
9504.5902760000008
 30
0.0
 40
160.0
  1
43
  0
TEXT
  5
4A80
  8
0
  6
CONTINUOUS
 62
     7
 10
22482.321393999999
 20
9504.5902760000008
 30
0.0
 40
160.0
  1
5220
  0
TEXT
  5
4A81
  8
0
  6
CONTINUOUS
 62
     7
 10
22495.654727333331
 20
9904.5480460000017
 30
0.0
 40
160.0
  1
5306
  0
ARC
  5
4A82
  8
0
  6
BYBLOCK
 62
     0
 10
20109.31901899998
 20
9824.5480460000035
 30
0.0
 40
15.0
 50
0.0
 51
180.0
  0
ARC
  5
4A83
  8
0
  6
BYBLOCK
 62
     0
 10
20109.31901899998
 20
9824.5480460000035
 30
0.0
 40
15.0
 50
180.0
 51
0.0
  0
ARC
  5
4A84
  8
0
  6
BYBLOCK
 62
     0
 10
25415.323768999999
 20
9824.5480460000035
 30
0.0
 40
15.0
 50
180.0
 51
0.0
  0
ARC
  5
4A85
  8
0
  6
BYBLOCK
 62
     0
 10
25415.323768999999
 20
9824.5480460000035
 30
0.0
 40
15.0
 50
0.0
 51
180.0
  0
ARC
  5
4A86
  8
0
  6
BYBLOCK
 62
     0
 10
20152.321129999978
 20
9424.5902760000008
 30
0.0
 40
15.0
 50
0.0
 51
180.0
  0
ARC
  5
4A87
  8
0
  6
BYBLOCK
 62
     0
 10
20152.321129999978
 20
9424.5902760000008
 30
0.0
 40
15.0
 50
180.0
 51
0.0
  0
ARC
  5
4A88
  8
0
  6
BYBLOCK
 62
     0
 10
25372.321657999979
 20
9424.5902760000008
 30
0.0
 40
15.0
 50
180.0
 51
0.0
  0
ARC
  5
4A89
  8
0
  6
BYBLOCK
 62
     0
 10
25372.321657999979
 20
9424.5902760000008
 30
0.0
 40
15.0
 50
0.0
 51
180.0
  0
ARC
  5
4A8A
  8
0
  6
BYBLOCK
 62
     0
 10
20152.321129999978
 20
9424.5902760000008
 30
0.0
 40
15.0
 50
0.0
 51
180.0
  0
ARC
  5
4A8B
  8
0
  6
BYBLOCK
 62
     0
 10
20152.321129999978
 20
9424.5902760000008
 30
0.0
 40
15.0
 50
180.0
 51
0.0
  0
ARC
  5
4A8C
  8
0
  6
BYBLOCK
 62
     0
 10
20109.31901899998
 20
9424.5902760000008
 30
0.0
 40
15.0
 50
180.0
 51
0.0
  0
ARC
  5
4A8D
  8
0
  6
BYBLOCK
 62
     0
 10
20109.31901899998
 20
9424.5902760000008
 30
0.0
 40
15.0
 50
0.0
 51
180.0
  0
ARC
  5
4A8E
  8
0
  6
BYBLOCK
 62
     0
 10
25372.321657999979
 20
9424.5902760000008
 30
0.0
 40
15.0
 50
180.0
 51
0.0
  0
ARC
  5
4A8F
  8
0
  6
BYBLOCK
 62
     0
 10
25372.321657999979
 20
9424.5902760000008
 30
0.0
 40
15.0
 50
0.0
 51
180.0
  0
ARC
  5
4A90
  8
0
  6
BYBLOCK
 62
     0
 10
25415.323768999999
 20
9424.5902760000008
 30
0.0
 40
15.0
 50
0.0
 51
180.0
  0
ARC
  5
4A91
  8
0
  6
BYBLOCK
 62
     0
 10
25415.323768999999
 20
9424.5902760000008
 30
0.0
 40
15.0
 50
180.0
 51
0.0
  0
LINE
  5
4A9F
  8
SUNPOU
  6
CONTINUOUS
 62
     4
 10
9813.8621799999873
 20
13432.73064999998
 30
0.0
 11
9813.8621799999873
 21
12253.78282999998
 31
0.0
  0
LINE
  5
4AA0
  8
SUNPOU
  6
CONTINUOUS
 62
     4
 10
15119.86495099997
 20
13432.73064999998
 30
0.0
 11
15119.86495099997
 21
12253.78282999998
 31
0.0
  0
LINE
  5
4AA1
  8
SUNPOU
  6
CONTINUOUS
 62
     4
 10
9816.8621799999855
 20
12333.78282999998
 30
0.0
 11
15116.86495099997
 21
12333.78282999998
 31
0.0
  0
TEXT
  5
4AA2
  8
0
  6
CONTINUOUS
 62
     7
 10
11677.53023216665
 20
12413.78282999998
 30
0.0
 40
160.0
  1
ケラバ外寸 5306
  0
ARC
  5
4AA3
  8
0
  6
BYBLOCK
 62
     0
 10
9813.8621799999873
 20
12333.78282999998
 30
0.0
 40
15.0
 50
0.0
 51
180.0
  0
ARC
  5
4AA4
  8
0
  6
BYBLOCK
 62
     0
 10
9813.8621799999873
 20
12333.78282999998
 30
0.0
 40
15.0
 50
180.0
 51
0.0
  0
ARC
  5
4AA5
  8
0
  6
BYBLOCK
 62
     0
 10
15119.86495099997
 20
12333.78282999998
 30
0.0
 40
15.0
 50
180.0
 51
0.0
  0
ARC
  5
4AA6
  8
0
  6
BYBLOCK
 62
     0
 10
15119.86495099997
 20
12333.78282999998
 30
0.0
 40
15.0
 50
0.0
 51
180.0
  0
TEXT
  5
4B47
  8
NAME
 10
24033.05354655402
 20
1076.0
 30
0.0
 40
360.0
  1
H
 41
0.6700000000000002
  7
00
  0
TEXT
  5
4B48
  8
NAME
 10
23657.2215619737
 20
1076.0
 30
0.0
 40
360.0
  1
（ ）
  7
01
  0
TEXT
  5
4B49
  8
NAME
 10
21933.552716389018
 20
1876.0
 30
0.0
 40
360.0
  1
ヨドガレージ ラヴィージュ
 41
0.75
  7
01
  0
TEXT
  5
4B4A
  8
NAME
 10
21550.022791898398
 20
1076.6369801169251
 30
0.0
 40
360.0
  1
VGCU-2662
 41
0.6700000000000002
  0
LINE
  5
4B4B
  8
NAME
  6
CONTINUOUS
 10
26067.886878884321
 20
2236.0
 30
0.0
 11
26067.886878884321
 21
1876.0
 31
0.0
  0
LINE
  5
4B4C
  8
NAME
  6
CONTINUOUS
 10
26167.886878884321
 20
2236.0
 30
0.0
 11
26167.886878884321
 21
1876.0
 31
0.0
  0
LINE
  5
4B4D
  8
NAME
  6
CONTINUOUS
 10
26267.886878884328
 20
2236.0
 30
0.0
 11
26267.886878884328
 21
1876.0
 31
0.0
  0
LINE
  5
4B4E
  8
NAME
  6
CONTINUOUS
 10
26007.886878884321
 20
2236.0
 30
0.0
 11
26327.886878884321
 21
2236.0
 31
0.0
  0
LINE
  5
4B4F
  8
NAME
  6
CONTINUOUS
 10
26327.886878884321
 20
1876.0
 30
0.0
 11
26007.886878884321
 21
1876.0
 31
0.0
  0
TEXT
  5
4B50
  8
NAME
 10
25346.041792426691
 20
1076.0
 30
0.0
 40
360.0
  1
2
 41
0.6700000000000002
  7
00
  0
TEXT
  5
4B51
  8
NAME
 10
24557.214549256729
 20
1076.0
 30
0.0
 40
360.0
  1
型（ 連棟）
  7
01
  0
TEXT
  5
4BEB
  8
FILENAME
  6
CONTINUOUS
 10
28546.857142857141
 20
348.0
 30
0.0
 40
200.0
  1
＜VGCU-2662-2-A_0.DXF ＞
  7
FILENAME
 72
     2
 11
32764.0
 21
348.0
 31
0.0
  0
LINE
  5
4BF1
  8
WAKUSEN-01
 10
868.00000000000193
 20
827.99999999999955
 30
0.0
 11
32764.000000000011
 21
827.99999999999943
 31
0.0
  0
LINE
  5
4BF2
  8
WAKUSEN-01
 10
868.00000000000193
 20
827.99999999999955
 30
0.0
 11
868.00000000000193
 21
22484.000000000011
 31
0.0
  0
LINE
  5
4BF3
  8
WAKUSEN-01
 10
32764.000000000011
 20
827.99999999999943
 30
0.0
 11
32764.000000000011
 21
22484.000000000011
 31
0.0
  0
LINE
  5
4BF4
  8
WAKUSEN-01
 10
20560.0
 20
827.99999999999716
 30
0.0
 11
20560.0
 21
2484.0
 31
0.0
  0
LINE
  5
4BF5
  8
WAKUSEN-02
 10
26868.0
 20
827.99999999999261
 30
0.0
 11
26868.0
 21
2484.0
 31
0.0
  0
ENDSEC
  0
EOF
