  0
SECTION
  2
HEADER
  9
$ACADVER
  1
AC1009
  9
$INSBASE
 10
0.0
 20
0.0
 30
0.0
  9
$EXTMIN
 10
867.99324330406671
 20
327.38164749855792
 30
-0.000000000000013
  9
$EXTMAX
 10
32765.33210850941
 20
22484.553276491992
 30
0.0000000000000023
  9
$LIMMIN
 10
0.0
 20
0.0
  9
$LIMMAX
 10
33600.0
 20
23760.0
  9
$ORTHOMODE
 70
     1
  9
$REGENMODE
 70
     1
  9
$FILLMODE
 70
     1
  9
$QTEXTMODE
 70
     0
  9
$MIRRTEXT
 70
     1
  9
$DRAGMODE
 70
     2
  9
$LTSCALE
 40
80.0
  9
$OSMODE
 70
  3071
  9
$ATTMODE
 70
     1
  9
$TEXTSIZE
 40
0.2
  9
$TRACEWID
 40
0.05
  9
$TEXTSTYLE
  7
00
  9
$CLAYER
  8
0
  9
$CELTYPE
  6
BYLAYER
  9
$CECOLOR
 62
   256
  9
$DIMSCALE
 40
80.0
  9
$DIMASZ
 40
3.0
  9
$DIMEXO
 40
1.0
  9
$DIMDLI
 40
0.38
  9
$DIMRND
 40
0.5
  9
$DIMDLE
 40
0.0
  9
$DIMEXE
 40
1.0
  9
$DIMTP
 40
0.0
  9
$DIMTM
 40
0.0
  9
$DIMTXT
 40
2.0
  9
$DIMCEN
 40
0.09
  9
$DIMTSZ
 40
0.0
  9
$DIMTOL
 70
     0
  9
$DIMLIM
 70
     0
  9
$DIMTIH
 70
     0
  9
$DIMTOH
 70
     0
  9
$DIMSE1
 70
     0
  9
$DIMSE2
 70
     0
  9
$DIMTAD
 70
     1
  9
$DIMZIN
 70
     8
  9
$DIMBLK
  1
DOTSMALL
  9
$DIMASO
 70
     1
  9
$DIMSHO
 70
     1
  9
$DIMPOST
  1

  9
$DIMAPOST
  1

  9
$DIMALT
 70
     0
  9
$DIMALTD
 70
     2
  9
$DIMALTF
 40
25.399999999999999
  9
$DIMLFAC
 40
1.0
  9
$DIMTOFL
 70
     1
  9
$DIMTVP
 40
0.0
  9
$DIMTIX
 70
     0
  9
$DIMSOXD
 70
     0
  9
$DIMSAH
 70
     0
  9
$DIMBLK1
  1

  9
$DIMBLK2
  1

  9
$DIMSTYLE
  2
SUNPOU
  9
$DIMCLRD
 70
     4
  9
$DIMCLRE
 70
     4
  9
$DIMCLRT
 70
     7
  9
$DIMTFAC
 40
1.0
  9
$DIMGAP
 40
1.0
  9
$LUNITS
 70
     2
  9
$LUPREC
 70
     4
  9
$SKETCHINC
 40
0.1
  9
$FILLETRAD
 40
0.0
  9
$AUNITS
 70
     0
  9
$AUPREC
 70
     0
  9
$MENU
  1
acad
  9
$ELEVATION
 40
0.0
  9
$PELEVATION
 40
0.0
  9
$THICKNESS
 40
0.0
  9
$LIMCHECK
 70
     0
  9
$BLIPMODE
 70
     1
  9
$CHAMFERA
 40
0.0
  9
$CHAMFERB
 40
0.0
  9
$SKPOLY
 70
     0
  9
$TDCREATE
 40
2454570.8612302779
  9
$TDUPDATE
 40
2458942.4334029858
  9
$TDINDWG
 40
0.0480039931
  9
$TDUSRTIMER
 40
0.0480032755
  9
$USRTIMER
 70
     1
  9
$ANGBASE
 50
0.0
  9
$ANGDIR
 70
     0
  9
$PDMODE
 70
     0
  9
$PDSIZE
 40
0.0
  9
$PLINEWID
 40
0.0
  9
$COORDS
 70
     1
  9
$SPLFRAME
 70
     0
  9
$SPLINETYPE
 70
     6
  9
$SPLINESEGS
 70
     8
  9
$ATTDIA
 70
     1
  9
$ATTREQ
 70
     1
  9
$HANDLING
 70
     1
  9
$HANDSEED
  5
3F7D
  9
$SURFTAB1
 70
     6
  9
$SURFTAB2
 70
     6
  9
$SURFTYPE
 70
     6
  9
$SURFU
 70
     6
  9
$SURFV
 70
     6
  9
$UCSNAME
  2

  9
$UCSORG
 10
0.0
 20
0.0
 30
0.0
  9
$UCSXDIR
 10
1.0
 20
0.0
 30
0.0
  9
$UCSYDIR
 10
0.0
 20
1.0
 30
0.0
  9
$PUCSNAME
  2

  9
$PUCSORG
 10
0.0
 20
0.0
 30
0.0
  9
$PUCSXDIR
 10
1.0
 20
0.0
 30
0.0
  9
$PUCSYDIR
 10
0.0
 20
1.0
 30
0.0
  9
$USERI1
 70
     0
  9
$USERI2
 70
     0
  9
$USERI3
 70
     0
  9
$USERI4
 70
     0
  9
$USERI5
 70
     0
  9
$USERR1
 40
0.0
  9
$USERR2
 40
0.0
  9
$USERR3
 40
0.0
  9
$USERR4
 40
0.0
  9
$USERR5
 40
0.0
  9
$WORLDVIEW
 70
     1
  9
$SHADEDGE
 70
     3
  9
$SHADEDIF
 70
    70
  9
$TILEMODE
 70
     1
  9
$MAXACTVP
 70
    16
  9
$PLIMCHECK
 70
     0
  9
$PEXTMIN
 10
1.0000000000000000E+020
 20
1.0000000000000000E+020
 30
1.0000000000000000E+020
  9
$PEXTMAX
 10
-1.0000000000000000E+020
 20
-1.0000000000000000E+020
 30
-1.0000000000000000E+020
  9
$PLIMMIN
 10
0.0
 20
0.0
  9
$PLIMMAX
 10
12.0
 20
9.0
  9
$UNITMODE
 70
     0
  9
$VISRETAIN
 70
     0
  9
$PLINEGEN
 70
     1
  9
$PSLTSCALE
 70
     0
  0
ENDSEC
  0
SECTION
  2
TABLES
  0
TABLE
  2
VPORT
 70
     1
  0
VPORT
  2
*ACTIVE
 70
     0
 10
0.0
 20
0.0
 11
1.0
 21
1.0
 12
16800.0
 22
11880.0
 13
0.0
 23
0.0
 14
1.0
 24
1.0
 15
0.0
 25
0.0
 16
0.0
 26
0.0
 36
1.0
 17
0.0
 27
0.0
 37
0.0
 40
23981.023255813951
 41
2.195652173913043
 42
50.0
 43
0.0
 44
0.0
 50
0.0
 51
0.0
 71
     0
 72
 10000
 73
     1
 74
     1
 75
     0
 76
     0
 77
     0
 78
     0
  0
ENDTAB
  0
TABLE
  2
LTYPE
 70
     3
  0
LTYPE
  2
CONTINUOUS
 70
     0
  3
Solid line
 72
    65
 73
     0
 40
0.0
  0
LTYPE
  2
DASHED3
 70
     0
  3
------  ------  ------  ------  
 72
    65
 73
     2
 40
5.0
 49
3.75
 49
-1.25
  0
LTYPE
  2
CENTER2
 70
     0
  3
----------  --  ----------  --  
 72
    65
 73
     4
 40
20.0
 49
12.5
 49
-2.5
 49
2.5
 49
-2.5
  0
ENDTAB
  0
TABLE
  2
LAYER
 70
    17
  0
LAYER
  2
0
 70
     0
 62
     7
  6
CONTINUOUS
  0
LAYER
  2
SUNPOU
 70
     0
 62
     4
  6
CONTINUOUS
  0
LAYER
  2
0-1
 70
     0
 62
     7
  6
CONTINUOUS
  0
LAYER
  2
0-2
 70
     0
 62
     7
  6
CONTINUOUS
  0
LAYER
  2
0-5
 70
     0
 62
     7
  6
CONTINUOUS
  0
LAYER
  2
0-6
 70
     0
 62
     7
  6
CONTINUOUS
  0
LAYER
  2
0-8
 70
     0
 62
     7
  6
CONTINUOUS
  0
LAYER
  2
2-0
 70
     0
 62
     7
  6
CONTINUOUS
  0
LAYER
  2
YODOROGO
 70
     0
 62
   130
  6
CONTINUOUS
  0
LAYER
  2
WAKUSEN-01
 70
     0
 62
    50
  6
CONTINUOUS
  0
LAYER
  2
WAKUSEN-02
 70
     0
 62
   130
  6
CONTINUOUS
  0
LAYER
  2
WAKUMOJI-01
 70
     0
 62
   130
  6
CONTINUOUS
  0
LAYER
  2
FILENAME
 70
     0
 62
     7
  6
CONTINUOUS
  0
LAYER
  2
NAME
 70
     0
 62
    20
  6
CONTINUOUS
  0
LAYER
  2
0-4
 70
     0
 62
     7
  6
CONTINUOUS
  0
ENDTAB
  0
TABLE
  2
STYLE
 70
     5
  0
STYLE
  2
STANDARD
 70
     0
 40
0.0
 41
1.0
 50
0.0
 71
     0
 42
0.0
  3
txt
  4
BIGFONT
  0
STYLE
  2
00
 70
     0
 40
0.0
 41
0.6666666666666666
 50
0.0
 71
     0
 42
0.2
  3
ROMANS
  4
BIGFONT
  0
STYLE
  2
01
 70
     0
 40
3.0
 41
1.0
 50
0.0
 71
     0
 42
0.2
  3
ROMANS
  4
BIGFONT
  0
STYLE
  2
WAKUMOJI
 70
     0
 40
3.0
 41
1.0
 50
0.0
 71
     0
 42
3.0
  3
SIMPLEX
  4
BIGFONT
  0
STYLE
  2
FILENAME
 70
     0
 40
200.0
 41
1.0
 50
0.0
 71
     0
 42
200.0
  3
romans
  4
bigfont
  0
ENDTAB
  0
TABLE
  2
VIEW
 70
     0
  0
ENDTAB
  0
TABLE
  2
UCS
 70
     0
  0
ENDTAB
  0
TABLE
  2
APPID
 70
    13
  0
APPID
  2
ACAD
 70
     0
  0
APPID
  2
ACADANNOTATIVE
 70
     0
  0
APPID
  2
ACAD_PSEXT
 70
     0
  0
APPID
  2
DCO15
 70
     0
  0
APPID
  2
ACAD_MLEADERVER
 70
     0
  0
APPID
  2
AUTOCAD_POSTSCRIPT_FIGURE
 70
     0
  0
APPID
  2
ACAD_EXEMPT_FROM_CAD_STANDARDS
 70
     0
  0
APPID
  2
ACAD_DSTYLE_DIMJAG
 70
     0
  0
APPID
  2
ACAD_DSTYLE_DIMTALN
 70
     0
  0
APPID
  2
ACAD_DSTYLE_DIM_LINETYPE
 70
     0
  0
APPID
  2
ACAD_DSTYLE_DIM_EXT1_LINETYPE
 70
     0
  0
APPID
  2
ACAD_DSTYLE_DIM_EXT2_LINETYPE
 70
     0
  0
APPID
  2
ACAD_NAV_VCDISPLAY
 70
     0
  0
ENDTAB
  0
TABLE
  2
DIMSTYLE
 70
     2
  0
DIMSTYLE
  2
SUNPOU
 70
     0
  3

  4

  5

  6

  7

 40
80.0
 41
3.0
 42
1.0
 43
0.38
 44
1.0
 45
0.5
 46
0.0
 47
0.0
 48
0.0
140
2.0
141
0.09
142
0.0
143
25.399999999999999
144
1.0
145
0.0
146
1.0
147
1.0
 71
     0
 72
     0
 73
     0
 74
     0
 75
     0
 76
     0
 77
     1
 78
     8
170
     0
171
     2
172
     1
173
     0
174
     0
175
     0
176
     4
177
     4
178
     7
  0
ENDTAB
  0
ENDSEC
  0
SECTION
  2
BLOCKS
  0
BLOCK
  8
0
  2
$MODEL_SPACE
 70
     0
 10
0.0
 20
0.0
 30
0.0
  3
$MODEL_SPACE
  1

  0
ENDBLK
  5
34CE
  8
0
  0
BLOCK
 67
     1
  8
0
  2
$PAPER_SPACE
 70
     0
 10
0.0
 20
0.0
 30
0.0
  3
$PAPER_SPACE
  1

  0
ENDBLK
  5
34CA
 67
     1
  8
0
  0
BLOCK
  8
0
  2
_DOTSMALL
 70
     0
 10
0.0
 20
0.0
 30
0.0
  3
_DOTSMALL
  1

  0
POLYLINE
  5
34FD
  8
0
  6
BYBLOCK
 62
     0
 66
     1
 10
0.0
 20
0.0
 30
0.0
 70
     1
 40
0.5
 41
0.5
  0
VERTEX
  5
3F45
  8
0
  6
BYBLOCK
 62
     0
 10
-0.0625
 20
0.0
 30
0.0
 42
1.0
  0
VERTEX
  5
3F46
  8
0
  6
BYBLOCK
 62
     0
 10
0.0625
 20
0.0
 30
0.0
 42
1.0
  0
SEQEND
  5
3F47
  8
0
  6
BYBLOCK
 62
     0
  0
ENDBLK
  5
3501
  8
0
  0
ENDSEC
  0
SECTION
  2
ENTITIES
  0
LINE
  5
3502
  8
0-1
  6
CONTINUOUS
 62
     3
 10
12012.62887999998
 20
19017.670030000001
 30
0.0
 11
12012.62887999998
 21
19870.988495000001
 31
0.0
  0
LINE
  5
3503
  8
0-1
  6
CONTINUOUS
 62
     3
 10
11975.630687999979
 20
19048.667312000001
 30
0.0
 11
11975.630687999979
 21
19870.988495000001
 31
0.0
  0
LINE
  5
3504
  8
0-1
  6
CONTINUOUS
 62
     3
 10
11815.12934199998
 20
16705.487836000011
 30
0.0
 11
14382.62934199998
 21
16705.487836000011
 31
0.0
  0
LINE
  5
3505
  8
0-1
  6
CONTINUOUS
 62
     3
 10
14332.62971099998
 20
13321.48688499998
 30
0.0
 11
14332.62971099998
 21
19870.988495000001
 31
0.0
  0
LINE
  5
3506
  8
0-1
  6
CONTINUOUS
 62
     3
 10
11865.129961999981
 20
13321.48688499998
 30
0.0
 11
11865.129961999981
 21
19870.988495000001
 31
0.0
  0
LINE
  5
3507
  8
0-1
  6
CONTINUOUS
 62
     3
 10
11729.629934999981
 20
13289.48697799999
 30
0.0
 11
11729.629934999981
 21
19880.985592000001
 31
0.0
  0
LINE
  5
3508
  8
0-1
  6
CONTINUOUS
 62
     3
 10
14468.12973799998
 20
13289.48697799999
 30
0.0
 11
14468.12973799998
 21
19880.985592000001
 31
0.0
  0
LINE
  5
3509
  8
0-1
  6
CONTINUOUS
 62
     3
 10
12175.628377999979
 20
18881.110960999991
 30
0.0
 11
12175.628377999979
 21
19870.988495000001
 31
0.0
  0
LINE
  5
350A
  8
0-1
  6
CONTINUOUS
 62
     3
 10
12212.629539999991
 20
18850.113679999991
 30
0.0
 11
12212.629539999991
 21
19870.988495000001
 31
0.0
  0
LINE
  5
350B
  8
0-1
  6
CONTINUOUS
 62
     3
 10
12375.63002799997
 20
18713.55461100001
 30
0.0
 11
12375.63002799997
 21
19870.988495000001
 31
0.0
  0
LINE
  5
350C
  8
0-1
  6
CONTINUOUS
 62
     3
 10
12412.628219999981
 20
18682.557329999989
 30
0.0
 11
12412.628219999981
 21
19870.988495000001
 31
0.0
  0
LINE
  5
350D
  8
0-1
  6
CONTINUOUS
 62
     3
 10
12771.13981999998
 20
18382.204975000001
 30
0.0
 11
12933.37423399999
 21
18572.412957
 31
0.0
  0
LINE
  5
350E
  8
0-1
  6
CONTINUOUS
 62
     3
 10
13369.73337199999
 20
17538.045427000001
 30
0.0
 11
13537.70740099998
 21
17734.983770999988
 31
0.0
  0
LINE
  5
350F
  8
0-1
  6
CONTINUOUS
 62
     3
 10
13369.73337199999
 20
17538.045427000001
 30
0.0
 11
12933.37423399999
 21
18572.412957
 31
0.0
  0
LINE
  5
3510
  8
0-1
  6
CONTINUOUS
 62
     3
 10
11772.62808799999
 20
13445.486897999979
 30
0.0
 11
14425.12960599998
 21
13445.486897999979
 31
0.0
  0
LINE
  5
3511
  8
0-1
  6
CONTINUOUS
 62
     3
 10
11815.12934199998
 20
13524.48552599998
 30
0.0
 11
14382.62934199998
 21
13524.48552599998
 31
0.0
  0
LINE
  5
3512
  8
0-1
  6
CONTINUOUS
 62
     3
 10
11729.629934999981
 20
13289.48697799999
 30
0.0
 11
14468.129737999971
 21
13289.48697799999
 31
0.0
  0
LINE
  5
3513
  8
0-1
  6
CONTINUOUS
 62
     3
 10
11729.629934999981
 20
13321.48688499998
 30
0.0
 11
14468.129737999971
 21
13321.48688499998
 31
0.0
  0
LINE
  5
3514
  8
0-1
  6
CONTINUOUS
 62
     3
 10
14382.62934199998
 20
13445.486897999979
 30
0.0
 11
14382.62934199998
 21
17030.079395000012
 31
0.0
  0
LINE
  5
3515
  8
0-1
  6
CONTINUOUS
 62
     3
 10
14425.12960599998
 20
13445.486897999979
 30
0.0
 11
14425.12960599998
 21
16994.471815000012
 31
0.0
  0
LINE
  5
3516
  8
0-1
  6
CONTINUOUS
 62
     3
 10
14738.87340299998
 20
16731.623420000011
 30
0.0
 11
13537.70740099998
 21
17734.983770999988
 31
0.0
  0
LINE
  5
3517
  8
0-1
  6
CONTINUOUS
 62
     3
 10
11815.12934199998
 20
13445.486897999979
 30
0.0
 11
11815.12934199998
 21
19183.134029000001
 31
0.0
  0
LINE
  5
3518
  8
0-1
  6
CONTINUOUS
 62
     3
 10
11772.62808799999
 20
13445.486897999979
 30
0.0
 11
11772.62808799999
 21
19218.73765100001
 31
0.0
  0
LINE
  5
3519
  8
0-1
  6
CONTINUOUS
 62
     3
 10
12575.62870799996
 20
18545.998261000001
 30
0.0
 11
12575.62870799996
 21
19870.988495000001
 31
0.0
  0
LINE
  5
351A
  8
0-1
  6
CONTINUOUS
 62
     3
 10
12612.628879999949
 20
18515.000979
 30
0.0
 11
12612.628879999949
 21
19870.988495000001
 31
0.0
  0
LINE
  5
351B
  8
0-1
  6
CONTINUOUS
 62
     3
 10
12775.62837799999
 20
18387.470495000001
 30
0.0
 11
12775.62837799999
 21
19870.988495000001
 31
0.0
  0
LINE
  5
351C
  8
0-1
  6
CONTINUOUS
 62
     3
 10
13175.629697999981
 20
17995.937766999989
 30
0.0
 11
13175.629697999981
 21
19870.988495000001
 31
0.0
  0
LINE
  5
351D
  8
0-1
  6
CONTINUOUS
 62
     3
 10
13212.62887999996
 20
17908.652874999989
 30
0.0
 11
13212.62887999996
 21
19870.988495000001
 31
0.0
  0
LINE
  5
351E
  8
0-1
  6
CONTINUOUS
 62
     3
 10
13375.628377999979
 20
17544.957906
 30
0.0
 11
13375.628377999979
 21
19870.988495000001
 31
0.0
  0
LINE
  5
351F
  8
0-1
  6
CONTINUOUS
 62
     3
 10
13412.62953999998
 20
17588.339055
 30
0.0
 11
13412.62953999998
 21
19870.988495000001
 31
0.0
  0
LINE
  5
3520
  8
0-1
  6
CONTINUOUS
 62
     3
 10
13575.63002799998
 20
17703.212498000001
 30
0.0
 11
13575.63002799998
 21
19870.988495000001
 31
0.0
  0
LINE
  5
3521
  8
0-1
  6
CONTINUOUS
 62
     3
 10
13612.628219999981
 20
17672.21521699999
 30
0.0
 11
13612.628219999981
 21
19870.988495000001
 31
0.0
  0
LINE
  5
3522
  8
0-1
  6
CONTINUOUS
 62
     3
 10
13775.629697999981
 20
17535.656147999991
 30
0.0
 11
13775.629697999981
 21
19870.988495000001
 31
0.0
  0
LINE
  5
3523
  8
0-1
  6
CONTINUOUS
 62
     3
 10
13812.62887999996
 20
17504.658865999991
 30
0.0
 11
13812.62887999996
 21
19870.988495000001
 31
0.0
  0
LINE
  5
3524
  8
0-1
  6
CONTINUOUS
 62
     3
 10
13975.629367999971
 20
17368.099797999981
 30
0.0
 11
13975.629367999971
 21
19870.988495000001
 31
0.0
  0
LINE
  5
3525
  8
0-1
  6
CONTINUOUS
 62
     3
 10
14012.629539999991
 20
17337.102515999992
 30
0.0
 11
14012.629539999991
 21
19870.988495000001
 31
0.0
  0
LINE
  5
3526
  8
0-1
  6
CONTINUOUS
 62
     3
 10
14175.629037999959
 20
17200.543447
 30
0.0
 11
14175.629037999959
 21
19870.988495000001
 31
0.0
  0
LINE
  5
3527
  8
0-1
  6
CONTINUOUS
 62
     3
 10
14212.628219999981
 20
17169.542206999991
 30
0.0
 11
14212.628219999981
 21
19870.988495000001
 31
0.0
  0
LINE
  5
3528
  8
0-1
  6
CONTINUOUS
 62
     3
 10
12812.62953999998
 20
18430.847685000001
 30
0.0
 11
12812.62953999998
 21
19870.988495000001
 31
0.0
  0
LINE
  5
3529
  8
0-1
  6
CONTINUOUS
 62
     3
 10
12975.63002799998
 20
18472.734299
 30
0.0
 11
12975.63002799998
 21
19870.988495000001
 31
0.0
  0
LINE
  5
352A
  8
0-1
  6
CONTINUOUS
 62
     3
 10
13012.628219999981
 20
18385.453365000001
 30
0.0
 11
13012.628219999981
 21
19870.988495000001
 31
0.0
  0
LINE
  5
352B
  8
0-1
  6
CONTINUOUS
 62
     3
 10
11815.12934199998
 20
15336.72814950001
 30
0.0
 11
14382.62934199998
 21
15336.72814950001
 31
0.0
  0
LINE
  5
352C
  8
0-1
  6
CONTINUOUS
 62
     3
 10
11815.12934199998
 20
15246.727357500011
 30
0.0
 11
14382.62934199998
 21
15246.727357500011
 31
0.0
  0
LINE
  5
352D
  8
0-1
  6
CONTINUOUS
 62
     3
 10
11815.12934199998
 20
16795.486647999991
 30
0.0
 11
14382.62934199998
 21
16795.486647999991
 31
0.0
  0
LINE
  5
352E
  8
0-1
  6
CONTINUOUS
 62
     3
 10
11829.270032999981
 20
18254.486647999991
 30
0.0
 11
13066.02573399997
 21
18254.486647999991
 31
0.0
  0
LINE
  5
352F
  8
0-1
  6
CONTINUOUS
 62
     3
 10
11829.270032999981
 20
18164.487836
 30
0.0
 11
13104.17897499999
 21
18164.487836
 31
0.0
  0
LINE
  5
3530
  8
0-1
  6
CONTINUOUS
 62
     3
 10
12771.13981999998
 20
18382.204975000001
 30
0.0
 11
11491.55723399998
 21
19454.215241999998
 31
0.0
  0
LINE
  5
3531
  8
0-1
  6
CONTINUOUS
 62
     3
 10
11885.12709799999
 20
16750.486251999992
 30
0.0
 11
14312.62960599998
 21
15291.72676350001
 31
0.0
  0
LINE
  5
3532
  8
0-1
  6
CONTINUOUS
 62
     3
 10
14312.62960599998
 20
15291.72676350001
 30
0.0
 11
11885.12709799999
 21
13481.986252000001
 31
0.0
  0
LINE
  5
3533
  8
0-1
  6
CONTINUOUS
 62
     3
 10
14312.62960599998
 20
16750.486251999992
 30
0.0
 11
11885.12709799999
 21
15291.72676350001
 31
0.0
  0
LINE
  5
3534
  8
0-1
  6
CONTINUOUS
 62
     3
 10
11885.12709799999
 20
15291.72676350001
 30
0.0
 11
14312.62960599998
 21
13481.986252000001
 31
0.0
  0
LINE
  5
3535
  8
0-1
  6
CONTINUOUS
 62
     3
 10
11885.12709799999
 20
18209.486251999992
 30
0.0
 11
14312.62960599998
 21
16750.486251999992
 31
0.0
  0
LINE
  5
3536
  8
0-1
  6
CONTINUOUS
 62
     3
 10
12517.465502999979
 20
18594.72806999999
 30
0.0
 11
11885.12709799999
 21
18209.486251999992
 31
0.0
  0
LINE
  5
3537
  8
0-1
  6
CONTINUOUS
 62
     3
 10
11885.12709799999
 20
16750.486251999992
 30
0.0
 11
13332.519411999991
 21
17625.837076
 31
0.0
  0
LINE
  5
3538
  8
0-1
  6
CONTINUOUS
 62
     3
 10
11747.630687999979
 20
19237.168947999999
 30
0.0
 11
11747.630687999979
 21
19873.487174999991
 31
0.0
  0
LINE
  5
3539
  8
0-1
  6
CONTINUOUS
 62
     3
 10
14450.127995999979
 20
16976.040517000001
 30
0.0
 11
14450.127995999979
 21
19873.487174999991
 31
0.0
  0
LINE
  5
353A
  8
0-1
  6
CONTINUOUS
 62
     3
 10
11747.630687999979
 20
19850.987967000001
 30
0.0
 11
11798.129195999971
 21
19850.987967000001
 31
0.0
  0
LINE
  5
353B
  8
0-1
  6
CONTINUOUS
 62
     3
 10
11747.630687999979
 20
19873.487174999991
 30
0.0
 11
11729.629934999981
 21
19873.487174999991
 31
0.0
  0
LINE
  5
353C
  8
0-1
  6
CONTINUOUS
 62
     3
 10
11798.129195999971
 20
19890.986120000001
 30
0.0
 11
11734.629209999979
 21
19890.986120000001
 31
0.0
  0
LINE
  5
353D
  8
0-1
  6
CONTINUOUS
 62
     3
 10
11729.629934999981
 20
19885.98585600001
 30
0.0
 11
11729.629934999981
 21
19850.987967000001
 31
0.0
  0
LINE
  5
353E
  8
0-1
  6
CONTINUOUS
 62
     3
 10
11803.129459999949
 20
19855.98823100001
 30
0.0
 11
11803.129459999949
 21
19885.98585600001
 31
0.0
  0
LINE
  5
353F
  8
0-1
  6
CONTINUOUS
 62
     3
 10
11803.129459999949
 20
19870.988495000001
 30
0.0
 11
14394.628232999979
 21
19870.988495000001
 31
0.0
  0
LINE
  5
3540
  8
0-1
  6
CONTINUOUS
 62
     3
 10
14399.62849699998
 20
19890.986120000001
 30
0.0
 11
14463.12947399997
 21
19890.986120000001
 31
0.0
  0
LINE
  5
3541
  8
0-1
  6
CONTINUOUS
 62
     3
 10
14450.127995999979
 20
19850.987967000001
 30
0.0
 11
14399.62849699998
 21
19850.987967000001
 31
0.0
  0
LINE
  5
3542
  8
0-1
  6
CONTINUOUS
 62
     3
 10
14394.628232999979
 20
19855.98823100001
 30
0.0
 11
14394.628232999979
 21
19885.98585600001
 31
0.0
  0
LINE
  5
3543
  8
0-1
  6
CONTINUOUS
 62
     3
 10
14468.12973799998
 20
19885.98585600001
 30
0.0
 11
14468.12973799998
 21
19850.987967000001
 31
0.0
  0
LINE
  5
3544
  8
0-1
  6
CONTINUOUS
 62
     3
 10
14450.127995999979
 20
19873.487174999991
 30
0.0
 11
14468.12973799998
 21
19873.487174999991
 31
0.0
  0
LINE
  5
3545
  8
0-6
  6
CONTINUOUS
 62
     6
 10
13451.01636399999
 20
19608.71270900001
 30
0.0
 11
13594.91944699998
 21
20120.986384
 31
0.0
  0
LINE
  5
3546
  8
0-6
  6
CONTINUOUS
 62
     6
 10
13425.128219999981
 20
19615.108532999999
 30
0.0
 11
13412.62953999998
 21
19453.383845
 31
0.0
  0
LINE
  5
3547
  8
0-6
  6
CONTINUOUS
 62
     6
 10
13412.62953999998
 20
19453.383845
 30
0.0
 11
13476.90450799998
 21
19602.312924999991
 31
0.0
  0
LINE
  5
3548
  8
0-6
  6
CONTINUOUS
 62
     6
 10
13412.62953999998
 20
19453.383845
 30
0.0
 11
13425.128219999981
 21
19615.108532999999
 31
0.0
  0
LINE
  5
3549
  8
0-6
  6
CONTINUOUS
 62
     6
 10
13425.128219999981
 20
19615.108532999999
 30
0.0
 11
13476.90450799998
 21
19602.312924999991
 31
0.0
  0
LINE
  5
354A
  8
0-6
  6
CONTINUOUS
 62
     6
 10
13476.90450799998
 20
19602.312924999991
 30
0.0
 11
13412.62953999998
 21
19453.383845
 31
0.0
  0
LINE
  5
354B
  8
0-6
  6
CONTINUOUS
 62
     6
 10
13476.90450799998
 20
19602.312924999991
 30
0.0
 11
13425.128219999981
 21
19615.108532999999
 31
0.0
  0
LINE
  5
354C
  8
0-6
  6
CONTINUOUS
 62
     6
 10
13594.91944699998
 20
20120.986384
 30
0.0
 11
14112.607104999979
 21
20120.986384
 31
0.0
  0
LINE
  5
354D
  8
0-6
  6
CONTINUOUS
 62
     6
 10
11904.94504799997
 20
17561.716509999991
 30
0.0
 11
11815.12934199998
 21
17696.788960000002
 31
0.0
  0
LINE
  5
354E
  8
0-6
  6
CONTINUOUS
 62
     6
 10
11815.12934199998
 20
17696.788960000002
 30
0.0
 11
11856.28353299998
 21
17539.886379
 31
0.0
  0
LINE
  5
354F
  8
0-6
  6
CONTINUOUS
 62
     6
 10
11815.12934199998
 20
17696.788960000002
 30
0.0
 11
11904.94504799997
 21
17561.716509999991
 31
0.0
  0
LINE
  5
3550
  8
0-6
  6
CONTINUOUS
 62
     6
 10
11904.94504799997
 20
17561.716509999991
 30
0.0
 11
11856.28353299998
 21
17539.886379
 31
0.0
  0
LINE
  5
3551
  8
0-6
  6
CONTINUOUS
 62
     6
 10
11856.28353299998
 20
17539.886379
 30
0.0
 11
11815.12934199998
 21
17696.788960000002
 31
0.0
  0
LINE
  5
3552
  8
0-6
  6
CONTINUOUS
 62
     6
 10
11856.28353299998
 20
17539.886379
 30
0.0
 11
11904.94504799997
 21
17561.716509999991
 31
0.0
  0
LINE
  5
3553
  8
0-6
  6
CONTINUOUS
 62
     6
 10
14886.86617199998
 20
17249.578101999999
 30
0.0
 11
16881.309332999961
 21
17249.578101999999
 31
0.0
  0
LINE
  5
3554
  8
0-6
  6
CONTINUOUS
 62
     6
 10
14305.33408999998
 20
15473.06155250001
 30
0.0
 11
14168.33847099999
 21
15372.78112150002
 31
0.0
  0
LINE
  5
3555
  8
0-6
  6
CONTINUOUS
 62
     6
 10
14168.33847099999
 20
15372.78112150002
 30
0.0
 11
14330.963906999979
 21
15426.29047750001
 31
0.0
  0
LINE
  5
3556
  8
0-6
  6
CONTINUOUS
 62
     6
 10
14168.33847099999
 20
15372.78112150002
 30
0.0
 11
14305.33408999998
 21
15473.06155250001
 31
0.0
  0
LINE
  5
3557
  8
0-6
  6
CONTINUOUS
 62
     6
 10
14305.33408999998
 20
15473.06155250001
 30
0.0
 11
14330.963906999979
 21
15426.29047750001
 31
0.0
  0
LINE
  5
3558
  8
0-6
  6
CONTINUOUS
 62
     6
 10
14330.963906999979
 20
15426.29047750001
 30
0.0
 11
14168.33847099999
 21
15372.78112150002
 31
0.0
  0
LINE
  5
3559
  8
0-6
  6
CONTINUOUS
 62
     6
 10
14330.963906999979
 20
15426.29047750001
 30
0.0
 11
14305.33408999998
 21
15473.06155250001
 31
0.0
  0
LINE
  5
355A
  8
0-6
  6
CONTINUOUS
 62
     6
 10
14168.33847099999
 20
15372.78112150002
 30
0.0
 11
14886.86617199998
 21
15757.90911699999
 31
0.0
  0
LINE
  5
355B
  8
0-6
  6
CONTINUOUS
 62
     6
 10
14886.86617199998
 20
15757.90911699999
 30
0.0
 11
15766.86412599998
 21
15757.90911699999
 31
0.0
  0
LINE
  5
355C
  8
0-6
  6
CONTINUOUS
 62
     6
 10
11979.65603899999
 20
17330.009901000001
 30
0.0
 11
12499.655774999979
 21
17330.009901000001
 31
0.0
  0
LINE
  5
355D
  8
0-6
  6
CONTINUOUS
 62
     6
 10
12615.51105899998
 20
13676.376956
 30
0.0
 11
12698.39746099998
 21
13853.31523499998
 31
0.0
  0
LINE
  5
355E
  8
0-6
  6
CONTINUOUS
 62
     6
 10
12698.39746099998
 20
13853.31523499998
 30
0.0
 11
13498.39812099996
 21
13853.31523499998
 31
0.0
  0
LINE
  5
355F
  8
0-6
  6
CONTINUOUS
 62
     6
 10
13089.886850999979
 20
13166.939931000001
 30
0.0
 11
12983.61738499999
 21
13289.48697799999
 31
0.0
  0
LINE
  5
3560
  8
0-6
  6
CONTINUOUS
 62
     6
 10
12983.61738499999
 20
13289.48697799999
 30
0.0
 11
13044.39751399998
 21
13139.098002000001
 31
0.0
  0
LINE
  5
3561
  8
0-6
  6
CONTINUOUS
 62
     6
 10
12983.61738499999
 20
13289.48697799999
 30
0.0
 11
13089.886850999979
 21
13166.939931000001
 31
0.0
  0
LINE
  5
3562
  8
0-6
  6
CONTINUOUS
 62
     6
 10
13089.886850999979
 20
13166.939931000001
 30
0.0
 11
13044.39751399998
 21
13139.098002000001
 31
0.0
  0
LINE
  5
3563
  8
0-6
  6
CONTINUOUS
 62
     6
 10
13044.39751399998
 20
13139.098002000001
 30
0.0
 11
12983.61738499999
 21
13289.48697799999
 31
0.0
  0
LINE
  5
3564
  8
0-6
  6
CONTINUOUS
 62
     6
 10
13044.39751399998
 20
13139.098002000001
 30
0.0
 11
13089.886850999979
 21
13166.939931000001
 31
0.0
  0
LINE
  5
3565
  8
0-6
  6
CONTINUOUS
 62
     6
 10
12591.36291199998
 20
13687.688915000001
 30
0.0
 11
12547.63732599998
 21
13531.486093
 31
0.0
  0
LINE
  5
3566
  8
0-6
  6
CONTINUOUS
 62
     6
 10
12547.63732599998
 20
13531.486093
 30
0.0
 11
12639.65920599998
 21
13665.064996999999
 31
0.0
  0
LINE
  5
3567
  8
0-6
  6
CONTINUOUS
 62
     6
 10
12547.63732599998
 20
13531.486093
 30
0.0
 11
12591.36291199998
 21
13687.688915000001
 31
0.0
  0
LINE
  5
3568
  8
0-6
  6
CONTINUOUS
 62
     6
 10
12591.36291199998
 20
13687.688915000001
 30
0.0
 11
12639.65920599998
 21
13665.064996999999
 31
0.0
  0
LINE
  5
3569
  8
0-6
  6
CONTINUOUS
 62
     6
 10
12639.65920599998
 20
13665.064996999999
 30
0.0
 11
12547.63732599998
 21
13531.486093
 31
0.0
  0
LINE
  5
356A
  8
0-6
  6
CONTINUOUS
 62
     6
 10
12639.65920599998
 20
13665.064996999999
 30
0.0
 11
12591.36291199998
 21
13687.688915000001
 31
0.0
  0
LINE
  5
356B
  8
0-6
  6
CONTINUOUS
 62
     6
 10
13473.254275999971
 20
12489.487306999999
 30
0.0
 11
14345.333231999981
 21
12489.487306999999
 31
0.0
  0
LINE
  5
356C
  8
0-6
  6
CONTINUOUS
 62
     6
 10
13067.14218199997
 20
13153.018966999991
 30
0.0
 11
13473.254275999971
 21
12489.487306999999
 31
0.0
  0
LINE
  5
356D
  8
0-6
  6
CONTINUOUS
 62
     6
 10
11663.17951599996
 20
13861.776687
 30
0.0
 11
11685.627256999969
 21
14022.422538000001
 31
0.0
  0
LINE
  5
356E
  8
0-6
  6
CONTINUOUS
 62
     6
 10
11685.627256999969
 20
14022.422538000001
 30
0.0
 11
11612.291041999981
 21
13877.741504
 31
0.0
  0
LINE
  5
356F
  8
0-6
  6
CONTINUOUS
 62
     6
 10
11685.627256999969
 20
14022.422538000001
 30
0.0
 11
11663.17951599996
 21
13861.776687
 31
0.0
  0
LINE
  5
3570
  8
0-6
  6
CONTINUOUS
 62
     6
 10
11663.17951599996
 20
13861.776687
 30
0.0
 11
11612.291041999981
 21
13877.741504
 31
0.0
  0
LINE
  5
3571
  8
0-6
  6
CONTINUOUS
 62
     6
 10
11612.291041999981
 20
13877.741504
 30
0.0
 11
11685.627256999969
 21
14022.422538000001
 31
0.0
  0
LINE
  5
3572
  8
0-6
  6
CONTINUOUS
 62
     6
 10
11612.291041999981
 20
13877.741504
 30
0.0
 11
11663.17951599996
 21
13861.776687
 31
0.0
  0
LINE
  5
3573
  8
0-6
  6
CONTINUOUS
 62
     6
 10
9970.9959749999853
 20
11999.486186
 30
0.0
 11
11050.99458899998
 21
11999.486186
 31
0.0
  0
LINE
  5
3574
  8
0-6
  6
CONTINUOUS
 62
     6
 10
11637.736763999979
 20
13869.758105999999
 30
0.0
 11
11050.99458899998
 21
11999.486186
 31
0.0
  0
LINE
  5
3575
  8
0-6
  6
CONTINUOUS
 62
     6
 10
11880.61478599998
 20
17550.803423999991
 30
0.0
 11
11979.65603899999
 21
17330.009901000001
 31
0.0
  0
LINE
  5
3576
  8
0-6
  6
CONTINUOUS
 62
     6
 10
14080.19050899998
 20
18352.955609000001
 30
0.0
 11
13947.622148999981
 21
18254.486647999991
 31
0.0
  0
LINE
  5
3577
  8
0-6
  6
CONTINUOUS
 62
     6
 10
13947.622148999981
 20
18254.486647999991
 30
0.0
 11
14103.33899899998
 21
18299.910660999991
 31
0.0
  0
LINE
  5
3578
  8
0-6
  6
CONTINUOUS
 62
     6
 10
13947.622148999981
 20
18254.486647999991
 30
0.0
 11
14080.19050899998
 21
18352.955609000001
 31
0.0
  0
LINE
  5
3579
  8
0-6
  6
CONTINUOUS
 62
     6
 10
14080.19050899998
 20
18352.955609000001
 30
0.0
 11
14103.33899899998
 21
18299.910660999991
 31
0.0
  0
LINE
  5
357A
  8
0-6
  6
CONTINUOUS
 62
     6
 10
14103.33899899998
 20
18299.910660999991
 30
0.0
 11
13947.622148999981
 21
18254.486647999991
 31
0.0
  0
LINE
  5
357B
  8
0-6
  6
CONTINUOUS
 62
     6
 10
14103.33899899998
 20
18299.910660999991
 30
0.0
 11
14080.19050899998
 21
18352.955609000001
 31
0.0
  0
LINE
  5
357C
  8
0-6
  6
CONTINUOUS
 62
     6
 10
13947.622148999981
 20
18254.486647999991
 30
0.0
 11
14886.86617199998
 21
18708.57810100001
 31
0.0
  0
LINE
  5
357D
  8
0-6
  6
CONTINUOUS
 62
     6
 10
14080.19050899998
 20
16888.955557000001
 30
0.0
 11
13947.622148999981
 21
16795.486647999991
 31
0.0
  0
LINE
  5
357E
  8
0-6
  6
CONTINUOUS
 62
     6
 10
13947.622148999981
 20
16795.486647999991
 30
0.0
 11
14103.33899899998
 21
16840.908682000001
 31
0.0
  0
LINE
  5
357F
  8
0-6
  6
CONTINUOUS
 62
     6
 10
13947.622148999981
 20
16795.486647999991
 30
0.0
 11
14080.19050899998
 21
16888.955557000001
 31
0.0
  0
LINE
  5
3580
  8
0-6
  6
CONTINUOUS
 62
     6
 10
14080.19050899998
 20
16888.955557000001
 30
0.0
 11
14103.33899899998
 21
16840.908682000001
 31
0.0
  0
LINE
  5
3581
  8
0-6
  6
CONTINUOUS
 62
     6
 10
14103.33899899998
 20
16840.908682000001
 30
0.0
 11
13947.622148999981
 21
16795.486647999991
 31
0.0
  0
LINE
  5
3582
  8
0-6
  6
CONTINUOUS
 62
     6
 10
14103.33899899998
 20
16840.908682000001
 30
0.0
 11
14080.19050899998
 21
16888.955557000001
 31
0.0
  0
LINE
  5
3583
  8
0-6
  6
CONTINUOUS
 62
     6
 10
13947.622148999981
 20
16795.486647999991
 30
0.0
 11
14886.86617199998
 21
17249.578101999999
 31
0.0
  0
LINE
  5
3584
  8
0-6
  6
CONTINUOUS
 62
     6
 10
13946.802628999971
 20
15246.727357500011
 30
0.0
 11
14886.86617199998
 21
14730.796521500009
 31
0.0
  0
LINE
  5
3585
  8
0-6
  6
CONTINUOUS
 62
     6
 10
14099.88275999998
 20
15193.07844450001
 30
0.0
 11
13946.802628999971
 21
15246.727357500011
 31
0.0
  0
LINE
  5
3586
  8
0-6
  6
CONTINUOUS
 62
     6
 10
13946.802628999971
 20
15246.727357500011
 30
0.0
 11
14074.208403999981
 21
15146.33211350001
 31
0.0
  0
LINE
  5
3587
  8
0-6
  6
CONTINUOUS
 62
     6
 10
13946.802628999971
 20
15246.727357500011
 30
0.0
 11
14099.88275999998
 21
15193.07844450001
 31
0.0
  0
LINE
  5
3588
  8
0-6
  6
CONTINUOUS
 62
     6
 10
14099.88275999998
 20
15193.07844450001
 30
0.0
 11
14074.208403999981
 21
15146.33211350001
 31
0.0
  0
LINE
  5
3589
  8
0-6
  6
CONTINUOUS
 62
     6
 10
14074.208403999981
 20
15146.33211350001
 30
0.0
 11
13946.802628999971
 21
15246.727357500011
 31
0.0
  0
LINE
  5
358A
  8
0-6
  6
CONTINUOUS
 62
     6
 10
14074.208403999981
 20
15146.33211350001
 30
0.0
 11
14099.88275999998
 21
15193.07844450001
 31
0.0
  0
LINE
  5
358B
  8
0-6
  6
CONTINUOUS
 62
     6
 10
14886.86617199998
 20
18708.57810100001
 30
0.0
 11
16881.309332999961
 21
18708.57810100001
 31
0.0
  0
LINE
  5
358C
  8
0-6
  6
CONTINUOUS
 62
     6
 10
14886.86617199998
 20
14730.796521500009
 30
0.0
 11
16881.309332999961
 21
14730.796521500009
 31
0.0
  0
LINE
  5
358D
  8
0-6
  6
CONTINUOUS
 62
     6
 10
14556.81509999998
 20
20024.79563700001
 30
0.0
 11
14465.12973799998
 21
19890.986120000001
 31
0.0
  0
LINE
  5
358E
  8
0-6
  6
CONTINUOUS
 62
     6
 10
14465.12973799998
 20
19890.986120000001
 30
0.0
 11
14595.258340999981
 21
19987.828128000001
 31
0.0
  0
LINE
  5
358F
  8
0-6
  6
CONTINUOUS
 62
     6
 10
14465.12973799998
 20
19890.986120000001
 30
0.0
 11
14556.81509999998
 21
20024.79563700001
 31
0.0
  0
LINE
  5
3590
  8
0-6
  6
CONTINUOUS
 62
     6
 10
14556.81509999998
 20
20024.79563700001
 30
0.0
 11
14595.258340999981
 21
19987.828128000001
 31
0.0
  0
LINE
  5
3591
  8
0-6
  6
CONTINUOUS
 62
     6
 10
14595.258340999981
 20
19987.828128000001
 30
0.0
 11
14465.12973799998
 21
19890.986120000001
 31
0.0
  0
LINE
  5
3592
  8
0-6
  6
CONTINUOUS
 62
     6
 10
14595.258340999981
 20
19987.828128000001
 30
0.0
 11
14556.81509999998
 21
20024.79563700001
 31
0.0
  0
LINE
  5
3593
  8
0-6
  6
CONTINUOUS
 62
     6
 10
14576.036224999971
 20
20006.308913000012
 30
0.0
 11
15093.02511399998
 21
20440.987440000012
 31
0.0
  0
LINE
  5
3594
  8
0-6
  6
CONTINUOUS
 62
     6
 10
15093.02511399998
 20
20440.987440000012
 30
0.0
 11
16768.025443999981
 21
20440.987440000012
 31
0.0
  0
LINE
  5
3595
  8
0-8
  6
DASHED3
 62
     6
 10
11815.12934199998
 20
19629.48775600001
 30
0.0
 11
14382.62934199998
 21
19629.48775600001
 31
0.0
  0
LINE
  5
3596
  8
0-8
  6
DASHED3
 62
     6
 10
11772.62808799999
 20
19218.73765100001
 30
0.0
 11
11772.62808799999
 21
19714.486303999991
 31
0.0
  0
LINE
  5
3597
  8
0-8
  6
DASHED3
 62
     6
 10
11815.12934199998
 20
19183.134029000001
 30
0.0
 11
11815.12934199998
 21
19714.486303999991
 31
0.0
  0
LINE
  5
3598
  8
0-8
  6
DASHED3
 62
     6
 10
11772.62808799999
 20
19714.486303999991
 30
0.0
 11
14425.12960599998
 21
19714.486303999991
 31
0.0
  0
LINE
  5
3599
  8
0-8
  6
DASHED3
 62
     6
 10
14382.62934199998
 20
17030.079395000012
 30
0.0
 11
14382.62934199998
 21
19714.486303999991
 31
0.0
  0
LINE
  5
359A
  8
0-8
  6
DASHED3
 62
     6
 10
14425.12960599998
 20
16994.471815000012
 30
0.0
 11
14425.12960599998
 21
19714.486303999991
 31
0.0
  0
LINE
  5
359B
  8
0-8
  6
DASHED3
 62
     6
 10
13104.17897499999
 20
18164.487836
 30
0.0
 11
14396.77102299997
 21
18164.487836
 31
0.0
  0
LINE
  5
359C
  8
0-8
  6
DASHED3
 62
     6
 10
13066.02573399997
 20
18254.486647999991
 30
0.0
 11
14396.77102299997
 21
18254.486647999991
 31
0.0
  0
LINE
  5
359D
  8
0-8
  6
DASHED3
 62
     6
 10
11885.12709799999
 20
19668.486251999992
 30
0.0
 11
14312.62960599998
 21
18209.486251999992
 31
0.0
  0
LINE
  5
359E
  8
0-8
  6
DASHED3
 62
     6
 10
14312.62960599998
 20
19668.486251999992
 30
0.0
 11
12517.465502999979
 21
18594.72806999999
 31
0.0
  0
LINE
  5
359F
  8
0-8
  6
DASHED3
 62
     6
 10
13332.519411999991
 20
17625.837076
 30
0.0
 11
14312.62960599998
 21
18209.486251999992
 31
0.0
  0
LINE
  5
35A0
  8
0-8
  6
CENTER2
 62
     6
 10
14382.62934199998
 20
20910.988495000009
 30
0.0
 11
14382.62934199998
 21
19960.985855999999
 31
0.0
  0
LINE
  5
35A1
  8
2-0
  6
CENTER2
 62
     6
 10
10485.629235999981
 20
19668.486251999992
 30
0.0
 11
11957.12911699998
 21
19668.486251999992
 31
0.0
  0
LINE
  5
35A2
  8
0-8
  6
CENTER2
 62
     6
 10
11815.12934199998
 20
20910.988495000009
 30
0.0
 11
11815.12934199998
 21
19960.985855999999
 31
0.0
  0
LINE
  5
35A3
  8
0-8
  6
CENTER2
 62
     6
 10
10485.629235999981
 20
16750.486251999992
 30
0.0
 11
11957.12911699998
 21
16750.486251999992
 31
0.0
  0
LINE
  5
35A4
  8
0-8
  6
CENTER2
 62
     6
 10
10485.629235999981
 20
13481.986252000001
 30
0.0
 11
11957.12911699998
 21
13481.986252000001
 31
0.0
  0
LINE
  5
35A5
  8
0-8
  6
CENTER2
 62
     6
 10
11596.33315299998
 20
18209.486251999992
 30
0.0
 11
14554.425820999961
 21
18209.486251999992
 31
0.0
  0
LINE
  5
35A6
  8
0-8
  6
CENTER2
 62
     6
 10
11596.33315299998
 20
15291.72676350001
 30
0.0
 11
14554.425820999961
 21
15291.72676350001
 31
0.0
  0
ARC
  5
35A7
  8
0-1
  6
CONTINUOUS
 62
     3
 10
11734.629209999979
 20
19885.98585600001
 30
0.0
 40
5.0
 50
90.0
 51
180.0
  0
ARC
  5
35A8
  8
0-1
  6
CONTINUOUS
 62
     3
 10
11798.129195999971
 20
19885.98585600001
 30
0.0
 40
5.0
 50
0.0
 51
90.0
  0
ARC
  5
35A9
  8
0-1
  6
CONTINUOUS
 62
     3
 10
11798.129195999971
 20
19855.98823100001
 30
0.0
 40
5.0
 50
269.9999850001808
 51
0.0
  0
ARC
  5
35AA
  8
0-1
  6
CONTINUOUS
 62
     3
 10
14399.62849699998
 20
19855.98823100001
 30
0.0
 40
5.0
 50
180.0
 51
269.9999850001808
  0
ARC
  5
35AB
  8
0-1
  6
CONTINUOUS
 62
     3
 10
14399.62849699998
 20
19885.98585600001
 30
0.0
 40
5.0
 50
90.0
 51
180.0
  0
ARC
  5
35AC
  8
0-1
  6
CONTINUOUS
 62
     3
 10
14463.12947399997
 20
19885.98585600001
 30
0.0
 40
5.0
 50
0.0
 51
90.0
  0
CIRCLE
  5
35AD
  8
0-5
  6
CONTINUOUS
 62
     4
 10
14382.62934199998
 20
21110.98915500001
 30
0.0
 40
199.9999949999999
  0
CIRCLE
  5
35AE
  8
0-5
  6
CONTINUOUS
 62
     4
 10
11815.12934199998
 20
21110.98915500001
 30
0.0
 40
199.9999949999999
  0
CIRCLE
  5
35AF
  8
0-5
  6
CONTINUOUS
 62
     4
 10
10285.629565999991
 20
19668.486251999992
 30
0.0
 40
199.9999949999999
  0
CIRCLE
  5
35B0
  8
0-5
  6
CONTINUOUS
 62
     4
 10
10285.629565999991
 20
16750.486251999992
 30
0.0
 40
199.9999949999999
  0
CIRCLE
  5
35B1
  8
0-5
  6
CONTINUOUS
 62
     4
 10
10285.629565999991
 20
13481.986252000001
 30
0.0
 40
199.9999949999999
  0
CIRCLE
  5
35B2
  8
0-5
  6
CONTINUOUS
 62
     4
 10
15128.714697999991
 20
1375.999982
 30
0.0
 40
20.0
  0
ARC
  5
35B3
  8
0-5
  6
CONTINUOUS
 62
     4
 10
15128.714697999991
 20
1375.999982
 30
0.0
 40
20.0
 50
180.0
 51
0.0
  0
ARC
  5
35B4
  8
0-5
  6
CONTINUOUS
 62
     4
 10
15128.714697999991
 20
1375.999982
 30
0.0
 40
20.0
 50
0.0
 51
179.99998499999839
  0
CIRCLE
  5
35B5
  8
0-5
  6
CONTINUOUS
 62
     4
 10
15128.714697999991
 20
1775.999941
 30
0.0
 40
20.0
  0
ARC
  5
35B6
  8
0-5
  6
CONTINUOUS
 62
     4
 10
15128.714697999991
 20
1775.999941
 30
0.0
 40
20.0
 50
180.0
 51
0.0
  0
ARC
  5
35B7
  8
0-5
  6
CONTINUOUS
 62
     4
 10
15128.714697999991
 20
1775.999941
 30
0.0
 40
20.0
 50
0.0
 51
179.99998499999839
  0
TEXT
  5
35B8
  8
0-5
  6
CONTINUOUS
 62
     7
 10
14332.561378999961
 20
21024.078391999999
 30
0.0
 40
160.0
  1
2
 72
     4
 11
14385.8947123333
 21
21104.078391999999
 31
0.0
  0
TEXT
  5
35B9
  8
0-5
  6
CONTINUOUS
 62
     7
 10
11765.061377999969
 20
21024.078391999999
 30
0.0
 40
160.0
  1
1
 72
     4
 11
11791.728044666639
 21
21104.078391999999
 31
0.0
  0
TEXT
  5
35BA
  8
0-5
  6
CONTINUOUS
 62
     7
 10
10235.021193999981
 20
19584.23794100001
 30
0.0
 40
160.0
  1
C
 72
     4
 11
10288.35452733332
 21
19664.23794100001
 31
0.0
  0
TEXT
  5
35BB
  8
0-5
  6
CONTINUOUS
 62
     7
 10
10235.021193999981
 20
16666.23794100001
 30
0.0
 40
160.0
  1
B
 72
     4
 11
10288.35452733332
 21
16746.23794100001
 31
0.0
  0
TEXT
  5
35BC
  8
0-5
  6
CONTINUOUS
 62
     7
 10
10235.021193999981
 20
13397.73794099999
 30
0.0
 40
160.0
  1
A
 72
     4
 11
10288.35452733332
 21
13477.73794099999
 31
0.0
  0
TEXT
  5
35BD
  8
0-5
  6
CONTINUOUS
 62
     7
 10
16669.776841999981
 20
1655.999793
 30
0.0
 40
160.0
  1
H
  0
TEXT
  5
35BE
  8
0-5
  6
CONTINUOUS
 62
     7
 10
15176.145943
 20
1655.999793
 30
0.0
 40
160.0
  1
（ ）内寸法ハ、  タ イプヲ示ス。
  0
TEXT
  5
35BF
  8
0-5
  6
CONTINUOUS
 62
     7
 10
15288.712256999979
 20
1255.9999580000001
 30
0.0
 40
160.0
  1
有効高サハ、基礎高サヲ含ミマセン。
  0
TEXT
  5
35C0
  8
0-6
  6
CONTINUOUS
 62
     7
 10
13674.91773099997
 20
20200.98862700001
 30
0.0
 40
160.0
  1
屋根
 72
     4
 11
13845.58439766664
 21
20280.98862700001
 31
0.0
  0
TEXT
  5
35C1
  8
0-6
  6
CONTINUOUS
 62
     7
 10
14966.864455999979
 20
15837.90938099999
 30
0.0
 40
160.0
  1
ブレース
 72
     4
 11
15329.531122666651
 21
15923.24271433333
 31
0.0
  0
TEXT
  5
35C2
  8
0-6
  6
CONTINUOUS
 62
     7
 10
12778.39772499997
 20
13933.314509
 30
0.0
 40
160.0
  1
桁（前）
 72
     4
 11
13098.39772499997
 21
14013.314509
 31
0.0
  0
TEXT
  5
35C3
  8
0-6
  6
CONTINUOUS
 62
     7
 10
13553.255528999969
 20
12569.48559199999
 30
0.0
 40
160.0
  1
鼻隠し前
 72
     4
 11
13915.922195666641
 21
12649.48559199999
 31
0.0
  0
TEXT
  5
35C4
  8
0-6
  6
CONTINUOUS
 62
     7
 10
10050.99623899998
 20
12079.48645
 30
0.0
 40
160.0
  1
ケラバ 左
 72
     4
 11
10466.99623899998
 21
12159.48645
 31
0.0
  0
TEXT
  5
35C5
  8
0-6
  6
CONTINUOUS
 62
     7
 10
12059.656302999991
 20
17410.010165
 30
0.0
 40
160.0
  1
上枠
 72
     4
 11
12230.32296966666
 21
17490.010165
 31
0.0
  0
TEXT
  5
35C6
  8
0-6
  6
CONTINUOUS
 62
     7
 10
15173.02537799998
 20
20520.98374500002
 30
0.0
 40
160.0
  1
鼻隠しコーナー後
 72
     4
 11
15919.69204466665
 21
20600.98374500002
 31
0.0
  0
TEXT
  5
35C7
  8
2-0
  6
CONTINUOUS
 62
     7
 10
11914.164277696311
 20
11245.77110866666
 30
0.0
 40
160.0
  1
小 屋 伏 図
 72
     4
 11
12415.49761102965
 21
11325.77110866666
 31
0.0
  0
TEXT
  5
35C8
  8
2-0
  6
CONTINUOUS
 62
     7
 10
14941.35044099998
 20
18803.82659700001
 30
0.0
 40
160.0
  1
桁中B +  桁中補強B
 72
     4
 11
15874.683774333311
 21
18883.82659700001
 31
0.0
  0
TEXT
  5
35C9
  8
2-0
  6
CONTINUOUS
 62
     7
 10
14955.341677999981
 20
17315.796957999992
 30
0.0
 40
160.0
  1
桁中A +  桁中補強A
 72
     4
 11
15888.675011333309
 21
17395.796957999992
 31
0.0
  0
TEXT
  5
35CA
  8
2-0
  6
CONTINUOUS
 62
     7
 10
14969.333904999979
 20
14787.684916500009
 30
0.0
 40
160.0
  1
桁中B +  桁中補強B
 50
359.99988199999967
 72
     4
 11
15902.66740309042
 21
14867.682994310549
 31
0.0
  0
TEXT
  5
35D2
  8
2-0
  6
CONTINUOUS
 62
     7
 10
13766.98979616727
 20
11272.96647766667
 30
0.0
 40
160.0
  1
1
 72
     4
 11
13793.65646283394
 21
11352.96647766667
 31
0.0
  0
TEXT
  5
35D3
  8
2-0
  6
CONTINUOUS
 62
     7
 10
14010.078513417981
 20
11192.967945666671
 30
0.0
 40
160.0
  1
80
 72
     4
 11
14130.078513417981
 21
11272.967945666671
 31
0.0
  0
TEXT
  5
35D4
  8
2-0
  6
CONTINUOUS
 62
     7
 10
13267.99176216727
 20
11245.77110866666
 30
0.0
 40
160.0
  1
(S=  /   )
 72
     4
 11
13827.99176216727
 21
11325.77110866666
 31
0.0
  0
TEXT
  5
35D5
  8
0-6
  6
CONTINUOUS
 62
     7
 10
11931.9129701448
 20
20200.984667000001
 30
0.0
 40
160.0
  1
桁後+桁後補強
 72
     4
 11
12566.57963681147
 21
20280.984667000001
 31
0.0
  0
LINE
  5
35D6
  8
0-6
  6
CONTINUOUS
 62
     6
 10
13375.628377999979
 20
19714.486303999991
 30
0.0
 11
13242.23443011875
 21
20120.986382999989
 31
0.0
  0
LINE
  5
35D7
  8
0-6
  6
CONTINUOUS
 62
     6
 10
11892.492076549521
 20
20120.986382999989
 30
0.0
 11
13242.23443011875
 21
20120.986382999989
 31
0.0
  0
LINE
  5
35D8
  8
0-6
  6
CONTINUOUS
 62
     6
 10
13352.020922632701
 20
19874.96774242492
 30
0.0
 11
13301.24727885975
 21
19858.634226240149
 31
0.0
  0
LINE
  5
35D9
  8
0-6
  6
CONTINUOUS
 62
     6
 10
13352.020922632701
 20
19874.96774242492
 30
0.0
 11
13375.628377999979
 21
19714.486303999991
 31
0.0
  0
LINE
  5
35DA
  8
0-6
  6
CONTINUOUS
 62
     6
 10
13301.24727885975
 20
19858.634226240149
 30
0.0
 11
13352.020922632701
 21
19874.96774242492
 31
0.0
  0
LINE
  5
35DB
  8
0-6
  6
CONTINUOUS
 62
     6
 10
13375.628377999979
 20
19714.486303999991
 30
0.0
 11
13301.24727885975
 21
19858.634226240149
 31
0.0
  0
LINE
  5
35DC
  8
0-6
  6
CONTINUOUS
 62
     6
 10
13375.628377999979
 20
19714.486303999991
 30
0.0
 11
13352.020922632701
 21
19874.96774242492
 31
0.0
  0
LINE
  5
35DD
  8
0-6
  6
CONTINUOUS
 62
     6
 10
13301.24727885975
 20
19858.634226240149
 30
0.0
 11
13375.628377999979
 21
19714.486303999991
 31
0.0
  0
LINE
  5
35DE
  8
0-1
  6
CONTINUOUS
 62
     3
 10
21475.013169999998
 20
8149.1884330000021
 30
0.0
 11
23957.51660099997
 21
8149.1884330000021
 31
0.0
  0
LINE
  5
35E5
  8
0-1
  6
CONTINUOUS
 62
     3
 10
24050.015545999991
 20
6241.1883740000012
 30
0.0
 11
23950.016204999989
 21
6241.1883740000012
 31
0.0
  0
LINE
  5
35E6
  8
0-1
  6
CONTINUOUS
 62
     3
 10
23950.016204999989
 20
6241.1883740000012
 30
0.0
 11
23950.016204999989
 21
6141.1885390000007
 31
0.0
  0
LINE
  5
35E7
  8
0-1
  6
CONTINUOUS
 62
     3
 10
24050.015545999991
 20
6141.1885390000007
 30
0.0
 11
24050.015545999991
 21
6241.1883740000012
 31
0.0
  0
LINE
  5
35E8
  8
0-1
  6
CONTINUOUS
 62
     3
 10
23957.51660099997
 20
8459.1884659999978
 30
0.0
 11
23957.51660099997
 21
6241.1883740000012
 31
0.0
  0
LINE
  5
35E9
  8
0-1
  6
CONTINUOUS
 62
     3
 10
23912.518184999979
 20
8149.1884330000021
 30
0.0
 11
23912.518184999979
 21
6141.1885390000007
 31
0.0
  0
LINE
  5
35EA
  8
0-1
  6
CONTINUOUS
 62
     3
 10
24022.518052999982
 20
8589.1883999999973
 30
0.0
 11
24022.518052999982
 21
6241.1883740000012
 31
0.0
  0
LINE
  5
35EB
  8
0-1
  6
CONTINUOUS
 62
     3
 10
24042.515149999988
 20
8459.1884659999978
 30
0.0
 11
24042.515149999988
 21
6241.1883740000012
 31
0.0
  0
LINE
  5
35ED
  8
0-1
  6
CONTINUOUS
 62
     3
 10
21382.514225999999
 20
6241.1883740000012
 30
0.0
 11
21482.513565999991
 21
6241.1883740000012
 31
0.0
  0
LINE
  5
35EE
  8
0-1
  6
CONTINUOUS
 62
     3
 10
21482.513565999991
 20
6241.1883740000012
 30
0.0
 11
21482.513565999991
 21
6141.1885390000007
 31
0.0
  0
LINE
  5
35EF
  8
0-1
  6
CONTINUOUS
 62
     3
 10
21382.514225999999
 20
6141.1885390000007
 30
0.0
 11
21382.514225999999
 21
6241.1883740000012
 31
0.0
  0
LINE
  5
35F0
  8
0-1
  6
CONTINUOUS
 62
     3
 10
21520.015545999991
 20
8149.1884330000021
 30
0.0
 11
21520.015545999991
 21
6141.1885390000007
 31
0.0
  0
LINE
  5
35F1
  8
0-1
  6
CONTINUOUS
 62
     3
 10
21475.013169999998
 20
8459.1884659999978
 30
0.0
 11
21475.013169999998
 21
6241.1883740000012
 31
0.0
  0
LINE
  5
35F2
  8
0-1
  6
CONTINUOUS
 62
     3
 10
21410.013697999999
 20
8589.1883999999973
 30
0.0
 11
21410.013697999999
 21
6241.1883740000012
 31
0.0
  0
LINE
  5
35F3
  8
0-1
  6
CONTINUOUS
 62
     3
 10
21390.014621999992
 20
8459.1884659999978
 30
0.0
 11
21390.014621999992
 21
6241.1883740000012
 31
0.0
  0
LINE
  5
35F4
  8
0-1
  6
CONTINUOUS
 62
     3
 10
21520.015545999991
 20
6661.1892650000009
 30
0.0
 11
23912.518184999979
 21
6661.1892650000009
 31
0.0
  0
LINE
  5
35F5
  8
0-1
  6
CONTINUOUS
 62
     3
 10
21520.015545999991
 20
6596.1888030000027
 30
0.0
 11
23912.518184999979
 21
6596.1888030000027
 31
0.0
  0
LINE
  5
35F6
  8
0-1
  6
CONTINUOUS
 62
     3
 10
21520.015545999991
 20
6531.1888360000012
 30
0.0
 11
23912.518184999979
 21
6531.1888360000012
 31
0.0
  0
LINE
  5
35F7
  8
0-1
  6
CONTINUOUS
 62
     3
 10
21520.015545999991
 20
6466.1883740000012
 30
0.0
 11
23912.518184999979
 21
6466.1883740000012
 31
0.0
  0
LINE
  5
35F8
  8
0-1
  6
CONTINUOUS
 62
     3
 10
21520.015545999991
 20
6401.1889020000053
 30
0.0
 11
23912.518184999979
 21
6401.1889020000053
 31
0.0
  0
LINE
  5
35F9
  8
0-1
  6
CONTINUOUS
 62
     3
 10
21520.015545999991
 20
6336.1889350000019
 30
0.0
 11
23912.518184999979
 21
6336.1889350000019
 31
0.0
  0
LINE
  5
35FA
  8
0-1
  6
CONTINUOUS
 62
     3
 10
21520.015545999991
 20
6271.1889680000022
 30
0.0
 11
23912.518184999979
 21
6271.1889680000022
 31
0.0
  0
LINE
  5
35FB
  8
0-1
  6
CONTINUOUS
 62
     3
 10
21520.015545999991
 20
6206.1885060000022
 30
0.0
 11
23912.518184999979
 21
6206.1885060000022
 31
0.0
  0
LINE
  5
35FC
  8
0-1
  6
CONTINUOUS
 62
     3
 10
21520.015545999991
 20
8026.1885720000018
 30
0.0
 11
23912.518184999979
 21
8026.1885720000018
 31
0.0
  0
LINE
  5
35FD
  8
0-1
  6
CONTINUOUS
 62
     3
 10
21520.015545999991
 20
7961.1886050000021
 30
0.0
 11
23912.518184999979
 21
7961.1886050000021
 31
0.0
  0
LINE
  5
35FE
  8
0-1
  6
CONTINUOUS
 62
     3
 10
21520.015545999991
 20
7896.1891330000026
 30
0.0
 11
23912.518184999979
 21
7896.1891330000026
 31
0.0
  0
LINE
  5
35FF
  8
0-1
  6
CONTINUOUS
 62
     3
 10
21520.015545999991
 20
7831.1891659999974
 30
0.0
 11
23912.518184999979
 21
7831.1891659999974
 31
0.0
  0
LINE
  5
3600
  8
0-1
  6
CONTINUOUS
 62
     3
 10
21520.015545999991
 20
7766.189199000004
 30
0.0
 11
23912.518184999979
 21
7766.189199000004
 31
0.0
  0
LINE
  5
3601
  8
0-1
  6
CONTINUOUS
 62
     3
 10
21520.015545999991
 20
7701.1887369999977
 30
0.0
 11
23912.518184999979
 21
7701.1887369999977
 31
0.0
  0
LINE
  5
3602
  8
0-1
  6
CONTINUOUS
 62
     3
 10
21520.015545999991
 20
7636.1887699999979
 30
0.0
 11
23912.518184999979
 21
7636.1887699999979
 31
0.0
  0
LINE
  5
3603
  8
0-1
  6
CONTINUOUS
 62
     3
 10
21520.015545999991
 20
7571.1892980000011
 30
0.0
 11
23912.518184999979
 21
7571.1892980000011
 31
0.0
  0
LINE
  5
3604
  8
0-1
  6
CONTINUOUS
 62
     3
 10
21520.015545999991
 20
7506.1893309999978
 30
0.0
 11
23912.518184999979
 21
7506.1893309999978
 31
0.0
  0
LINE
  5
3605
  8
0-1
  6
CONTINUOUS
 62
     3
 10
21520.015545999991
 20
7441.1888690000023
 30
0.0
 11
23912.518184999979
 21
7441.1888690000023
 31
0.0
  0
LINE
  5
3606
  8
0-1
  6
CONTINUOUS
 62
     3
 10
21520.015545999991
 20
7376.188901999999
 30
0.0
 11
23912.518184999979
 21
7376.188901999999
 31
0.0
  0
LINE
  5
3607
  8
0-1
  6
CONTINUOUS
 62
     3
 10
21520.015545999991
 20
7311.1889350000029
 30
0.0
 11
23912.518184999979
 21
7311.1889350000029
 31
0.0
  0
LINE
  5
3608
  8
0-1
  6
CONTINUOUS
 62
     3
 10
21520.015545999991
 20
7246.1884730000029
 30
0.0
 11
23912.518184999979
 21
7246.1884730000029
 31
0.0
  0
LINE
  5
3609
  8
0-1
  6
CONTINUOUS
 62
     3
 10
21520.015545999991
 20
7181.1885060000013
 30
0.0
 11
23912.518184999979
 21
7181.1885060000013
 31
0.0
  0
LINE
  5
360A
  8
0-1
  6
CONTINUOUS
 62
     3
 10
21520.015545999991
 20
7116.1890340000009
 30
0.0
 11
23912.518184999979
 21
7116.1890340000009
 31
0.0
  0
LINE
  5
360B
  8
0-1
  6
CONTINUOUS
 62
     3
 10
21520.015545999991
 20
7051.1890670000012
 30
0.0
 11
23912.518184999979
 21
7051.1890670000012
 31
0.0
  0
LINE
  5
360C
  8
0-1
  6
CONTINUOUS
 62
     3
 10
21520.015545999991
 20
6986.1890999999996
 30
0.0
 11
23912.518184999979
 21
6986.1890999999996
 31
0.0
  0
LINE
  5
360D
  8
0-1
  6
CONTINUOUS
 62
     3
 10
21520.015545999991
 20
6921.1886380000024
 30
0.0
 11
23912.518184999979
 21
6921.1886380000024
 31
0.0
  0
LINE
  5
360E
  8
0-1
  6
CONTINUOUS
 62
     3
 10
21520.015545999991
 20
6856.1886710000017
 30
0.0
 11
23912.518184999979
 21
6856.1886710000017
 31
0.0
  0
LINE
  5
360F
  8
0-1
  6
CONTINUOUS
 62
     3
 10
21520.015545999991
 20
6791.1891990000031
 30
0.0
 11
23912.518184999979
 21
6791.1891990000031
 31
0.0
  0
LINE
  5
3610
  8
0-1
  6
CONTINUOUS
 62
     3
 10
21520.015545999991
 20
6726.1892319999997
 30
0.0
 11
23912.518184999979
 21
6726.1892319999997
 31
0.0
  0
LINE
  5
3611
  8
0-1
  6
CONTINUOUS
 62
     3
 10
21520.015545999991
 20
8080.6485920000023
 30
0.0
 11
23912.518184999979
 21
8080.6485920000023
 31
0.0
  0
LINE
  5
3612
  8
0-1
  6
CONTINUOUS
 62
     3
 10
21382.514225999999
 20
6141.1885390000007
 30
0.0
 11
24050.015545999991
 21
6141.1885390000007
 31
0.0
  0
LINE
  5
3624
  8
0-2
  6
CONTINUOUS
 62
     4
 10
23079.956884999981
 20
6888.4152330000024
 30
0.0
 11
22979.957544999968
 21
6888.4152330000024
 31
0.0
  0
LINE
  5
3625
  8
0-2
  6
CONTINUOUS
 62
     4
 10
22352.572884999969
 20
6888.4152330000024
 30
0.0
 11
22452.572224999982
 21
6888.4152330000024
 31
0.0
  0
LINE
  5
3626
  8
0-5
  6
CONTINUOUS
 62
     4
 10
24000.01686499998
 20
4461.1889350000001
 30
0.0
 11
24000.01686499998
 21
4301.1893970000001
 31
0.0
  0
LINE
  5
3627
  8
0-5
  6
CONTINUOUS
 62
     4
 10
18860.143844999991
 20
6349.0350210000024
 30
0.0
 11
18980.14226099999
 21
6141.1885390000007
 31
0.0
  0
LINE
  5
3628
  8
0-5
  6
CONTINUOUS
 62
     4
 10
16409.765163000011
 20
6141.1885390000007
 30
0.0
 11
21302.515941999969
 21
6141.1885390000007
 31
0.0
  0
LINE
  5
3629
  8
0-5
  6
CONTINUOUS
 62
     4
 10
18980.14226099999
 20
6141.1885390000007
 30
0.0
 11
19100.142656999989
 21
6349.0350210000024
 31
0.0
  0
LINE
  5
362A
  8
0-5
  6
CONTINUOUS
 62
     4
 10
19100.142656999989
 20
6349.0350210000024
 30
0.0
 11
18860.143844999991
 21
6349.0350210000024
 31
0.0
  0
LINE
  5
362B
  8
0-5
  6
CONTINUOUS
 62
     4
 10
21432.516864999969
 20
4461.1889350000001
 30
0.0
 11
21432.516864999969
 21
4301.1893970000001
 31
0.0
  0
LINE
  5
362C
  8
2-0
  6
CENTER2
 62
     6
 10
24000.01686499998
 20
5878.536116000002
 30
0.0
 11
24000.01686499998
 21
6915.6791430000021
 31
0.0
  0
LINE
  5
362D
  8
2-0
  6
CENTER2
 62
     6
 10
21432.516864999969
 20
5878.536116000002
 30
0.0
 11
21432.516864999969
 21
6915.6791430000021
 31
0.0
  0
CIRCLE
  5
3636
  8
0-5
  6
CONTINUOUS
 62
     4
 10
24000.01686499998
 20
4101.1882420000011
 30
0.0
 40
199.9999949999999
  0
CIRCLE
  5
3637
  8
0-5
  6
CONTINUOUS
 62
     4
 10
21432.516864999969
 20
4101.1882420000011
 30
0.0
 40
199.9999949999999
  0
TEXT
  5
3638
  8
0-5
  6
CONTINUOUS
 62
     7
 10
23948.103989999989
 20
4011.7132600000009
 30
0.0
 40
160.0
  1
2
 72
     4
 11
24001.437323333321
 21
4091.7132600000009
 31
0.0
  0
TEXT
  5
3639
  8
0-5
  6
CONTINUOUS
 62
     7
 10
18860.143844999991
 20
6429.0347900000006
 30
0.0
 40
160.0
  1
G.L
 72
     4
 11
19020.143844999991
 21
6509.0347900000006
 31
0.0
  0
TEXT
  5
363A
  8
0-5
  6
CONTINUOUS
 62
     7
 10
21380.603991
 20
4011.7132600000009
 30
0.0
 40
160.0
  1
1
 72
     4
 11
21407.270657666671
 21
4091.7132600000009
 31
0.0
  0
TEXT
  5
363B
  8
2-0
  6
CONTINUOUS
 62
     7
 10
21480.974978999999
 20
11251.104441999991
 30
0.0
 40
160.0
  1
平　面　図
 72
     4
 11
21934.308312333331
 21
11325.77110866666
 31
0.0
  0
TEXT
  5
363C
  8
2-0
  6
CONTINUOUS
 62
     7
 10
21373.172375999999
 20
3292.802588999999
 30
0.0
 40
160.0
  1
正 面 立 面 図
 72
     4
 11
22018.505709333331
 21
3372.802588999999
 31
0.0
  0
CIRCLE
  5
363D
  8
0-4
  6
CONTINUOUS
 62
     4
 10
22716.26686499998
 20
6627.2449749999987
 30
0.0
 40
18.487504999999981
  0
TEXT
  5
363E
  8
2-0
  6
CONTINUOUS
 62
     7
 10
23369.997894470969
 20
3319.9979579999999
 30
0.0
 40
160.0
  1
1
 72
     4
 11
23396.66456113763
 21
3399.9979579999999
 31
0.0
  0
TEXT
  5
363F
  8
2-0
  6
CONTINUOUS
 62
     7
 10
23613.08661172165
 20
3239.9994259999989
 30
0.0
 40
160.0
  1
80
 72
     4
 11
23733.08661172165
 21
3319.9994259999989
 31
0.0
  0
TEXT
  5
3640
  8
2-0
  6
CONTINUOUS
 62
     7
 10
22870.999860470962
 20
3292.802588999999
 30
0.0
 40
160.0
  1
(S=  /   )
 72
     4
 11
23430.999860470962
 21
3372.802588999999
 31
0.0
  0
TEXT
  5
3641
  8
2-0
  6
CONTINUOUS
 62
     7
 10
23285.800497470969
 20
11272.96647766667
 30
0.0
 40
160.0
  1
1
 72
     4
 11
23312.467164137641
 21
11352.96647766667
 31
0.0
  0
TEXT
  5
3642
  8
2-0
  6
CONTINUOUS
 62
     7
 10
23528.88921472165
 20
11192.967945666671
 30
0.0
 40
160.0
  1
80
 72
     4
 11
23648.88921472165
 21
11272.967945666671
 31
0.0
  0
TEXT
  5
3643
  8
2-0
  6
CONTINUOUS
 62
     7
 10
22786.802463470962
 20
11245.77110866666
 30
0.0
 40
160.0
  1
(S=  /   )
 72
     4
 11
23346.802463470962
 21
11325.77110866666
 31
0.0
  0
LINE
  5
3644
  8
2-0
  6
CONTINUOUS
 62
     6
 10
22316.857948999961
 20
12841.98512999999
 30
0.0
 11
23316.851350999939
 21
12841.98512999999
 31
0.0
  0
LINE
  5
3645
  8
2-0
  6
CONTINUOUS
 62
     6
 10
23784.79172799996
 20
13312.405844000001
 30
0.0
 11
23316.851350999939
 21
12841.98512999999
 31
0.0
  0
LINE
  5
3646
  8
2-0
  6
CONTINUOUS
 62
     6
 10
22333.56904499996
 20
17871.605194999989
 30
0.0
 11
23351.54439299996
 21
17871.605194999989
 31
0.0
  0
LINE
  5
3647
  8
2-0
  6
CONTINUOUS
 62
     6
 10
23807.969910999949
 20
18096.320144000001
 30
0.0
 11
23351.54439299996
 21
17871.605194999989
 31
0.0
  0
LINE
  5
3648
  8
2-0
  6
CONTINUOUS
 62
     6
 10
23746.151524999968
 20
16854.513491000002
 30
0.0
 11
23441.45610699998
 21
16958.16702200002
 31
0.0
  0
LINE
  5
3649
  8
2-0
  6
CONTINUOUS
 62
     6
 10
23901.173563999939
 20
16364.89144700002
 30
0.0
 11
23441.45610699998
 21
16120.978136000011
 31
0.0
  0
LINE
  5
364A
  8
2-0
  6
CONTINUOUS
 62
     6
 10
22521.453071999971
 20
16120.978136000011
 30
0.0
 11
23441.45610699998
 21
16120.978136000011
 31
0.0
  0
LINE
  5
364B
  8
2-0
  6
CONTINUOUS
 62
     6
 10
22241.462044999971
 20
16958.16702200002
 30
0.0
 11
23441.45610699998
 21
16958.16702200002
 31
0.0
  0
LINE
  5
364C
  8
2-0
  6
CONTINUOUS
 62
     6
 10
23817.35084899998
 20
13634.08948999998
 30
0.0
 11
23441.45610699998
 21
13815.033325
 31
0.0
  0
LINE
  5
364D
  8
2-0
  6
CONTINUOUS
 62
     6
 10
22333.56904499996
 20
14953.84273700001
 30
0.0
 11
23351.54439299996
 21
14953.84273700001
 31
0.0
  0
LINE
  5
364E
  8
2-0
  6
CONTINUOUS
 62
     6
 10
22921.454390999981
 20
13815.033325
 30
0.0
 11
23441.45610699998
 21
13815.033325
 31
0.0
  0
LINE
  5
364F
  8
2-0
  6
CONTINUOUS
 62
     6
 10
23807.969910999949
 20
15178.55570700001
 30
0.0
 11
23351.54439299996
 21
14953.84273700001
 31
0.0
  0
LINE
  5
3650
  8
2-0
  6
CONTINUOUS
 62
     4
 10
21432.516864999969
 20
19790.986780000021
 30
0.0
 11
21432.516864999969
 21
20520.983745000001
 31
0.0
  0
LINE
  5
3651
  8
2-0
  6
CONTINUOUS
 62
     3
 10
24012.517524999981
 20
19601.984326000009
 30
0.0
 11
24012.517524999981
 21
19595.988364000012
 31
0.0
  0
LINE
  5
3652
  8
2-0
  6
CONTINUOUS
 62
     3
 10
24012.517524999981
 20
19595.988364000012
 30
0.0
 11
24042.51514899997
 21
19595.988364000012
 31
0.0
  0
LINE
  5
3653
  8
2-0
  6
CONTINUOUS
 62
     3
 10
24042.51514899997
 20
19625.987968000001
 30
0.0
 11
23961.51324899996
 21
19625.987968000001
 31
0.0
  0
LINE
  5
3654
  8
2-0
  6
CONTINUOUS
 62
     3
 10
24012.517524999981
 20
19585.690908
 30
0.0
 11
24042.51514899997
 21
19585.690908
 31
0.0
  0
LINE
  5
3655
  8
2-0
  6
CONTINUOUS
 62
     3
 10
24012.517524999981
 20
19603.692650000001
 30
0.0
 11
24012.517524999981
 21
19585.690908
 31
0.0
  0
LINE
  5
3656
  8
2-0
  6
CONTINUOUS
 62
     3
 10
24037.51488499996
 20
19603.692650000001
 30
0.0
 11
24012.517524999981
 21
19603.692650000001
 31
0.0
  0
LINE
  5
3657
  8
2-0
  6
CONTINUOUS
 62
     3
 10
24037.51488499996
 20
19598.68446800001
 30
0.0
 11
24037.51488499996
 21
19603.692650000001
 31
0.0
  0
LINE
  5
3658
  8
2-0
  6
CONTINUOUS
 62
     3
 10
24030.51332799999
 20
19598.68446800001
 30
0.0
 11
24037.51488499996
 21
19598.68446800001
 31
0.0
  0
LINE
  5
3659
  8
2-0
  6
CONTINUOUS
 62
     3
 10
23930.217059999981
 20
19698.984695000021
 30
0.0
 11
23930.217059999981
 21
19705.990211000011
 31
0.0
  0
LINE
  5
365A
  8
2-0
  6
CONTINUOUS
 62
     3
 10
23930.217059999981
 20
19705.990211000011
 30
0.0
 11
23935.217323999961
 21
19705.990211000011
 31
0.0
  0
LINE
  5
365B
  8
2-0
  6
CONTINUOUS
 62
     3
 10
23935.217323999961
 20
19705.990211000011
 30
0.0
 11
23935.217323999961
 21
19680.980973999998
 31
0.0
  0
LINE
  5
365C
  8
2-0
  6
CONTINUOUS
 62
     3
 10
23935.217323999961
 20
19680.980973999998
 30
0.0
 11
23917.21558199995
 21
19680.980973999998
 31
0.0
  0
LINE
  5
365D
  8
2-0
  6
CONTINUOUS
 62
     3
 10
23917.21558199995
 20
19680.980973999998
 30
0.0
 11
23917.21558199995
 21
19710.984537000011
 31
0.0
  0
LINE
  5
365E
  8
2-0
  6
CONTINUOUS
 62
     3
 10
23927.513037999968
 20
19710.984537000011
 30
0.0
 11
24042.51514899997
 21
19710.984537000011
 31
0.0
  0
LINE
  5
365F
  8
2-0
  6
CONTINUOUS
 62
     3
 10
23927.513037999968
 20
19680.980973999998
 30
0.0
 11
23927.513037999968
 21
19710.984537000011
 31
0.0
  0
LINE
  5
3660
  8
2-0
  6
CONTINUOUS
 62
     3
 10
23933.514937999971
 20
19680.980973999998
 30
0.0
 11
23927.513037999968
 21
19680.980973999998
 31
0.0
  0
LINE
  5
3661
  8
2-0
  6
CONTINUOUS
 62
     3
 10
24030.51332799999
 20
18894.887645499992
 30
0.0
 11
24037.51488499996
 21
18894.887645499992
 31
0.0
  0
LINE
  5
3662
  8
2-0
  6
CONTINUOUS
 62
     3
 10
24037.51488499996
 20
18894.887645499992
 30
0.0
 11
24037.51488499996
 21
18899.887909500001
 31
0.0
  0
LINE
  5
3663
  8
2-0
  6
CONTINUOUS
 62
     3
 10
24037.51488499996
 20
18899.887909500001
 30
0.0
 11
24012.517524999981
 21
18899.887909500001
 31
0.0
  0
LINE
  5
3664
  8
2-0
  6
CONTINUOUS
 62
     3
 10
24012.517524999981
 20
18899.887909500001
 30
0.0
 11
24012.517524999981
 21
18881.892105499999
 31
0.0
  0
LINE
  5
3665
  8
2-0
  6
CONTINUOUS
 62
     3
 10
24012.517524999981
 20
18881.892105499999
 30
0.0
 11
24042.51514899997
 21
18881.892105499999
 31
0.0
  0
LINE
  5
3666
  8
2-0
  6
CONTINUOUS
 62
     3
 10
24012.517524999981
 20
18897.98361249996
 30
0.0
 11
24012.517524999981
 21
18891.985671499999
 31
0.0
  0
LINE
  5
3667
  8
2-0
  6
CONTINUOUS
 62
     3
 10
24012.517524999981
 20
18891.985671499999
 30
0.0
 11
24042.51514899997
 21
18891.985671499999
 31
0.0
  0
LINE
  5
3668
  8
2-0
  6
CONTINUOUS
 62
     3
 10
24042.51514899997
 20
18891.985671499999
 30
0.0
 11
24042.51514899997
 21
18928.986832499992
 31
0.0
  0
LINE
  5
3669
  8
2-0
  6
CONTINUOUS
 62
     3
 10
24012.517524999981
 20
18928.986832499992
 30
0.0
 11
24042.51514899997
 21
18928.986832499992
 31
0.0
  0
LINE
  5
366A
  8
2-0
  6
CONTINUOUS
 62
     3
 10
24012.517524999981
 20
18922.982952499991
 30
0.0
 11
24012.517524999981
 21
18928.986832499992
 31
0.0
  0
LINE
  5
366B
  8
2-0
  6
CONTINUOUS
 62
     3
 10
24012.517524999981
 20
18939.082377499992
 30
0.0
 11
24042.51514899997
 21
18939.082377499992
 31
0.0
  0
LINE
  5
366C
  8
2-0
  6
CONTINUOUS
 62
     3
 10
24012.517524999981
 20
18921.080635499999
 30
0.0
 11
24012.517524999981
 21
18939.082377499992
 31
0.0
  0
LINE
  5
366D
  8
2-0
  6
CONTINUOUS
 62
     3
 10
24037.51488499996
 20
18921.080635499999
 30
0.0
 11
24012.517524999981
 21
18921.080635499999
 31
0.0
  0
LINE
  5
366E
  8
2-0
  6
CONTINUOUS
 62
     3
 10
24037.51488499996
 20
18926.080899500001
 30
0.0
 11
24037.51488499996
 21
18921.080635499999
 31
0.0
  0
LINE
  5
366F
  8
2-0
  6
CONTINUOUS
 62
     3
 10
24030.51332799999
 20
18926.080899500001
 30
0.0
 11
24037.51488499996
 21
18926.080899500001
 31
0.0
  0
LINE
  5
3670
  8
2-0
  6
CONTINUOUS
 62
     3
 10
24030.51332799999
 20
18193.886655999999
 30
0.0
 11
24037.51488499996
 21
18193.886655999999
 31
0.0
  0
LINE
  5
3671
  8
2-0
  6
CONTINUOUS
 62
     3
 10
24037.51488499996
 20
18193.886655999999
 30
0.0
 11
24037.51488499996
 21
18198.892857999999
 31
0.0
  0
LINE
  5
3672
  8
2-0
  6
CONTINUOUS
 62
     3
 10
24037.51488499996
 20
18198.892857999999
 30
0.0
 11
24012.517524999981
 21
18198.892857999999
 31
0.0
  0
LINE
  5
3673
  8
2-0
  6
CONTINUOUS
 62
     3
 10
24012.517524999981
 20
18198.892857999999
 30
0.0
 11
24012.517524999981
 21
18180.89111600001
 31
0.0
  0
LINE
  5
3674
  8
2-0
  6
CONTINUOUS
 62
     3
 10
24012.517524999981
 20
18180.89111600001
 30
0.0
 11
24042.51514899997
 21
18180.89111600001
 31
0.0
  0
LINE
  5
3675
  8
2-0
  6
CONTINUOUS
 62
     3
 10
24012.517524999981
 20
18196.982622999989
 30
0.0
 11
24012.517524999981
 21
18190.986660999999
 31
0.0
  0
LINE
  5
3676
  8
2-0
  6
CONTINUOUS
 62
     3
 10
24012.517524999981
 20
18190.986660999999
 30
0.0
 11
24042.51514899997
 21
18190.986660999999
 31
0.0
  0
LINE
  5
3677
  8
2-0
  6
CONTINUOUS
 62
     3
 10
24042.51514899997
 20
18190.986660999999
 30
0.0
 11
24042.51514899997
 21
18227.985842999991
 31
0.0
  0
LINE
  5
3678
  8
2-0
  6
CONTINUOUS
 62
     3
 10
24012.517524999981
 20
18227.985842999991
 30
0.0
 11
24042.51514899997
 21
18227.985842999991
 31
0.0
  0
LINE
  5
3679
  8
2-0
  6
CONTINUOUS
 62
     3
 10
24012.517524999981
 20
18221.989881000001
 30
0.0
 11
24012.517524999981
 21
18227.985842999991
 31
0.0
  0
LINE
  5
367A
  8
2-0
  6
CONTINUOUS
 62
     3
 10
24012.517524999981
 20
18238.08138800001
 30
0.0
 11
24042.51514899997
 21
18238.08138800001
 31
0.0
  0
LINE
  5
367B
  8
2-0
  6
CONTINUOUS
 62
     3
 10
24012.517524999981
 20
18220.079645999998
 30
0.0
 11
24012.517524999981
 21
18238.08138800001
 31
0.0
  0
LINE
  5
367C
  8
2-0
  6
CONTINUOUS
 62
     3
 10
24037.51488499996
 20
18220.079645999998
 30
0.0
 11
24012.517524999981
 21
18220.079645999998
 31
0.0
  0
LINE
  5
367D
  8
2-0
  6
CONTINUOUS
 62
     3
 10
24037.51488499996
 20
18225.085847999992
 30
0.0
 11
24037.51488499996
 21
18220.079645999998
 31
0.0
  0
LINE
  5
367E
  8
2-0
  6
CONTINUOUS
 62
     3
 10
24030.51332799999
 20
18225.085847999992
 30
0.0
 11
24037.51488499996
 21
18225.085847999992
 31
0.0
  0
LINE
  5
367F
  8
2-0
  6
CONTINUOUS
 62
     3
 10
24030.51332799999
 20
17524.07991
 30
0.0
 11
24037.51488499996
 21
17524.07991
 31
0.0
  0
LINE
  5
3680
  8
2-0
  6
CONTINUOUS
 62
     3
 10
24037.51488499996
 20
17524.07991
 30
0.0
 11
24037.51488499996
 21
17519.091522999999
 31
0.0
  0
LINE
  5
3681
  8
2-0
  6
CONTINUOUS
 62
     3
 10
24037.51488499996
 20
17519.091522999999
 30
0.0
 11
24012.517524999981
 21
17519.091522999999
 31
0.0
  0
LINE
  5
3682
  8
2-0
  6
CONTINUOUS
 62
     3
 10
24012.517524999981
 20
17519.091522999999
 30
0.0
 11
24012.517524999981
 21
17537.087326000001
 31
0.0
  0
LINE
  5
3683
  8
2-0
  6
CONTINUOUS
 62
     3
 10
24012.517524999981
 20
17537.087326000001
 30
0.0
 11
24042.51514899997
 21
17537.087326000001
 31
0.0
  0
LINE
  5
3684
  8
2-0
  6
CONTINUOUS
 62
     3
 10
24012.517524999981
 20
17520.989881000001
 30
0.0
 11
24012.517524999981
 21
17526.985842999999
 31
0.0
  0
LINE
  5
3685
  8
2-0
  6
CONTINUOUS
 62
     3
 10
24012.517524999981
 20
17526.985842999999
 30
0.0
 11
24042.51514899997
 21
17526.985842999999
 31
0.0
  0
LINE
  5
3686
  8
2-0
  6
CONTINUOUS
 62
     3
 10
24042.51514899997
 20
17526.985842999999
 30
0.0
 11
24042.51514899997
 21
17489.98666100001
 31
0.0
  0
LINE
  5
3687
  8
2-0
  6
CONTINUOUS
 62
     3
 10
24012.517524999981
 20
17489.98666100001
 30
0.0
 11
24042.51514899997
 21
17489.98666100001
 31
0.0
  0
LINE
  5
3688
  8
2-0
  6
CONTINUOUS
 62
     3
 10
24012.517524999981
 20
17495.988561999991
 30
0.0
 11
24012.517524999981
 21
17489.98666100001
 31
0.0
  0
LINE
  5
3689
  8
2-0
  6
CONTINUOUS
 62
     3
 10
24012.517524999981
 20
17479.897055000001
 30
0.0
 11
24042.51514899997
 21
17479.897055000001
 31
0.0
  0
LINE
  5
368A
  8
2-0
  6
CONTINUOUS
 62
     3
 10
24012.517524999981
 20
17497.892857999988
 30
0.0
 11
24012.517524999981
 21
17479.897055000001
 31
0.0
  0
LINE
  5
368B
  8
2-0
  6
CONTINUOUS
 62
     3
 10
24037.51488499996
 20
17497.892857999988
 30
0.0
 11
24012.517524999981
 21
17497.892857999988
 31
0.0
  0
LINE
  5
368C
  8
2-0
  6
CONTINUOUS
 62
     3
 10
24037.51488499996
 20
17492.892595000001
 30
0.0
 11
24037.51488499996
 21
17497.892857999988
 31
0.0
  0
LINE
  5
368D
  8
2-0
  6
CONTINUOUS
 62
     3
 10
24030.51332799999
 20
17492.892595000001
 30
0.0
 11
24037.51488499996
 21
17492.892595000001
 31
0.0
  0
LINE
  5
368E
  8
2-0
  6
CONTINUOUS
 62
     3
 10
24039.629010999972
 20
16772.983480999999
 30
0.0
 11
24039.629010999972
 21
16792.984536
 31
0.0
  0
LINE
  5
368F
  8
2-0
  6
CONTINUOUS
 62
     3
 10
24039.629010999972
 20
16792.984536
 30
0.0
 11
23954.632441999958
 21
16792.984536
 31
0.0
  0
LINE
  5
3690
  8
2-0
  6
CONTINUOUS
 62
     3
 10
24030.51332799999
 20
16819.591246
 30
0.0
 11
24037.51488499996
 21
16819.591246
 31
0.0
  0
LINE
  5
3691
  8
2-0
  6
CONTINUOUS
 62
     3
 10
24037.51488499996
 20
16819.591246
 30
0.0
 11
24037.51488499996
 21
16814.596920000011
 31
0.0
  0
LINE
  5
3692
  8
2-0
  6
CONTINUOUS
 62
     3
 10
24037.51488499996
 20
16814.596920000011
 30
0.0
 11
24012.517524999981
 21
16814.596920000011
 31
0.0
  0
LINE
  5
3693
  8
2-0
  6
CONTINUOUS
 62
     3
 10
24012.517524999981
 20
16814.596920000011
 30
0.0
 11
24012.517524999981
 21
16832.592723999991
 31
0.0
  0
LINE
  5
3694
  8
2-0
  6
CONTINUOUS
 62
     3
 10
24012.517524999981
 20
16832.592723999991
 30
0.0
 11
24042.51514899997
 21
16832.592723999991
 31
0.0
  0
LINE
  5
3695
  8
2-0
  6
CONTINUOUS
 62
     3
 10
24012.517524999981
 20
16822.98413999999
 30
0.0
 11
24012.517524999981
 21
16816.982240000001
 31
0.0
  0
LINE
  5
3696
  8
2-0
  6
CONTINUOUS
 62
     3
 10
24042.51514899997
 20
16822.98413999999
 30
0.0
 11
24012.517524999981
 21
16822.98413999999
 31
0.0
  0
LINE
  5
3697
  8
2-0
  6
CONTINUOUS
 62
     3
 10
24042.51514899997
 20
16832.592723999991
 30
0.0
 11
24042.51514899997
 21
17479.897055000001
 31
0.0
  0
LINE
  5
3698
  8
2-0
  6
CONTINUOUS
 62
     3
 10
24042.51514899997
 20
17537.087326000001
 30
0.0
 11
24042.51514899997
 21
18180.89111600001
 31
0.0
  0
LINE
  5
3699
  8
2-0
  6
CONTINUOUS
 62
     3
 10
24042.51514899997
 20
16677.982424999991
 30
0.0
 11
24012.517524999981
 21
16677.982424999991
 31
0.0
  0
LINE
  5
369A
  8
2-0
  6
CONTINUOUS
 62
     3
 10
24012.517524999981
 20
16677.982424999991
 30
0.0
 11
24012.517524999981
 21
16683.984325000001
 31
0.0
  0
LINE
  5
369B
  8
2-0
  6
CONTINUOUS
 62
     3
 10
23954.632441999958
 20
16707.987968000001
 30
0.0
 11
24039.629010999972
 21
16707.987968000001
 31
0.0
  0
LINE
  5
369C
  8
2-0
  6
CONTINUOUS
 62
     3
 10
24039.629010999972
 20
16707.987968000001
 30
0.0
 11
24039.629010999972
 21
16727.983085000011
 31
0.0
  0
LINE
  5
369D
  8
2-0
  6
CONTINUOUS
 62
     3
 10
24012.517524999981
 20
16668.373842000012
 30
0.0
 11
24042.51514899997
 21
16668.373842000012
 31
0.0
  0
LINE
  5
369E
  8
2-0
  6
CONTINUOUS
 62
     3
 10
24012.517524999981
 20
16686.369644999992
 30
0.0
 11
24012.517524999981
 21
16668.373842000012
 31
0.0
  0
LINE
  5
369F
  8
2-0
  6
CONTINUOUS
 62
     3
 10
24037.51488499996
 20
16686.369644999992
 30
0.0
 11
24012.517524999981
 21
16686.369644999992
 31
0.0
  0
LINE
  5
36A0
  8
2-0
  6
CONTINUOUS
 62
     3
 10
24037.51488499996
 20
16681.369381000011
 30
0.0
 11
24037.51488499996
 21
16686.369644999992
 31
0.0
  0
LINE
  5
36A1
  8
2-0
  6
CONTINUOUS
 62
     3
 10
24030.51332799999
 20
16681.369381000011
 30
0.0
 11
24037.51488499996
 21
16681.369381000011
 31
0.0
  0
LINE
  5
36A2
  8
2-0
  6
CONTINUOUS
 62
     3
 10
24030.51332799999
 20
15976.887150499981
 30
0.0
 11
24037.51488499996
 21
15976.887150499981
 31
0.0
  0
LINE
  5
36A3
  8
2-0
  6
CONTINUOUS
 62
     3
 10
24037.51488499996
 20
15976.887150499981
 30
0.0
 11
24037.51488499996
 21
15981.88741449999
 31
0.0
  0
LINE
  5
36A4
  8
2-0
  6
CONTINUOUS
 62
     3
 10
24037.51488499996
 20
15981.88741449999
 30
0.0
 11
24012.517524999981
 21
15981.88741449999
 31
0.0
  0
LINE
  5
36A5
  8
2-0
  6
CONTINUOUS
 62
     3
 10
24012.517524999981
 20
15981.88741449999
 30
0.0
 11
24012.517524999981
 21
15963.885672500001
 31
0.0
  0
LINE
  5
36A6
  8
2-0
  6
CONTINUOUS
 62
     3
 10
24012.517524999981
 20
15963.885672500001
 30
0.0
 11
24042.51514899997
 21
15963.885672500001
 31
0.0
  0
LINE
  5
36A7
  8
2-0
  6
CONTINUOUS
 62
     3
 10
24012.517524999981
 20
15979.9831175
 30
0.0
 11
24012.517524999981
 21
15973.986166500001
 31
0.0
  0
LINE
  5
36A8
  8
2-0
  6
CONTINUOUS
 62
     3
 10
24012.517524999981
 20
15973.986166500001
 30
0.0
 11
24042.51514899997
 21
15973.986166500001
 31
0.0
  0
LINE
  5
36A9
  8
2-0
  6
CONTINUOUS
 62
     3
 10
24042.51514899997
 20
15973.986166500001
 30
0.0
 11
24042.51514899997
 21
16010.9863375
 31
0.0
  0
LINE
  5
36AA
  8
2-0
  6
CONTINUOUS
 62
     3
 10
24012.517524999981
 20
16010.9863375
 30
0.0
 11
24042.51514899997
 21
16010.9863375
 31
0.0
  0
LINE
  5
36AB
  8
2-0
  6
CONTINUOUS
 62
     3
 10
24012.517524999981
 20
16004.983447500001
 30
0.0
 11
24012.517524999981
 21
16010.9863375
 31
0.0
  0
LINE
  5
36AC
  8
2-0
  6
CONTINUOUS
 62
     3
 10
24012.517524999981
 20
16021.081882500001
 30
0.0
 11
24042.51514899997
 21
16021.081882500001
 31
0.0
  0
LINE
  5
36AD
  8
2-0
  6
CONTINUOUS
 62
     3
 10
24012.517524999981
 20
16003.074201499991
 30
0.0
 11
24012.517524999981
 21
16021.081882500001
 31
0.0
  0
LINE
  5
36AE
  8
2-0
  6
CONTINUOUS
 62
     3
 10
24037.51488499996
 20
16003.074201499991
 30
0.0
 11
24012.517524999981
 21
16003.074201499991
 31
0.0
  0
LINE
  5
36AF
  8
2-0
  6
CONTINUOUS
 62
     3
 10
24037.51488499996
 20
16008.0804045
 30
0.0
 11
24037.51488499996
 21
16003.074201499991
 31
0.0
  0
LINE
  5
36B0
  8
2-0
  6
CONTINUOUS
 62
     3
 10
24030.51332799999
 20
16008.0804045
 30
0.0
 11
24037.51488499996
 21
16008.0804045
 31
0.0
  0
LINE
  5
36B1
  8
2-0
  6
CONTINUOUS
 62
     3
 10
24030.51332799999
 20
15307.320421
 30
0.0
 11
24037.51488499996
 21
15307.320421
 31
0.0
  0
LINE
  5
36B2
  8
2-0
  6
CONTINUOUS
 62
     3
 10
24037.51488499996
 20
15307.320421
 30
0.0
 11
24037.51488499996
 21
15302.326096000001
 31
0.0
  0
LINE
  5
36B3
  8
2-0
  6
CONTINUOUS
 62
     3
 10
24037.51488499996
 20
15302.326096000001
 30
0.0
 11
24012.517524999981
 21
15302.326096000001
 31
0.0
  0
LINE
  5
36B4
  8
2-0
  6
CONTINUOUS
 62
     3
 10
24012.517524999981
 20
15302.326096000001
 30
0.0
 11
24012.517524999981
 21
15320.32189900001
 31
0.0
  0
LINE
  5
36B5
  8
2-0
  6
CONTINUOUS
 62
     3
 10
24012.517524999981
 20
15320.32189900001
 30
0.0
 11
24042.51514899997
 21
15320.32189900001
 31
0.0
  0
LINE
  5
36B6
  8
2-0
  6
CONTINUOUS
 62
     3
 10
24012.517524999981
 20
15304.22445400001
 30
0.0
 11
24012.517524999981
 21
15310.226354
 31
0.0
  0
LINE
  5
36B7
  8
2-0
  6
CONTINUOUS
 62
     3
 10
24012.517524999981
 20
15310.226354
 30
0.0
 11
24042.51514899997
 21
15310.226354
 31
0.0
  0
LINE
  5
36B8
  8
2-0
  6
CONTINUOUS
 62
     3
 10
24042.51514899997
 20
15273.22717300001
 30
0.0
 11
24042.51514899997
 21
15310.226354
 31
0.0
  0
LINE
  5
36B9
  8
2-0
  6
CONTINUOUS
 62
     3
 10
24012.517524999981
 20
15273.22717300001
 30
0.0
 11
24042.51514899997
 21
15273.22717300001
 31
0.0
  0
LINE
  5
36BA
  8
2-0
  6
CONTINUOUS
 62
     3
 10
24012.517524999981
 20
15279.224124
 30
0.0
 11
24012.517524999981
 21
15273.22717300001
 31
0.0
  0
LINE
  5
36BB
  8
2-0
  6
CONTINUOUS
 62
     3
 10
24012.517524999981
 20
15263.12568899999
 30
0.0
 11
24042.51514899997
 21
15263.12568899999
 31
0.0
  0
LINE
  5
36BC
  8
2-0
  6
CONTINUOUS
 62
     3
 10
24012.517524999981
 20
15281.13336999999
 30
0.0
 11
24012.517524999981
 21
15263.12568899999
 31
0.0
  0
LINE
  5
36BD
  8
2-0
  6
CONTINUOUS
 62
     3
 10
24037.51488499996
 20
15281.13336999999
 30
0.0
 11
24012.517524999981
 21
15281.13336999999
 31
0.0
  0
LINE
  5
36BE
  8
2-0
  6
CONTINUOUS
 62
     3
 10
24037.51488499996
 20
15276.133106000019
 30
0.0
 11
24037.51488499996
 21
15281.13336999999
 31
0.0
  0
LINE
  5
36BF
  8
2-0
  6
CONTINUOUS
 62
     3
 10
24030.51332799999
 20
15276.133106000019
 30
0.0
 11
24037.51488499996
 21
15276.133106000019
 31
0.0
  0
LINE
  5
36C0
  8
2-0
  6
CONTINUOUS
 62
     3
 10
24042.51514899997
 20
16668.373842000012
 30
0.0
 11
24042.51514899997
 21
16021.081882500001
 31
0.0
  0
LINE
  5
36C1
  8
2-0
  6
CONTINUOUS
 62
     3
 10
24042.51514899997
 20
16822.98413999999
 30
0.0
 11
24042.51514899997
 21
16677.982424999991
 31
0.0
  0
LINE
  5
36C2
  8
2-0
  6
CONTINUOUS
 62
     3
 10
23954.632441999958
 20
16792.984536
 30
0.0
 11
23954.632441999958
 21
16707.987968000001
 31
0.0
  0
LINE
  5
36C3
  8
2-0
  6
CONTINUOUS
 62
     6
 10
22416.423774999981
 20
18561.431801499992
 30
0.0
 11
23441.45610699998
 21
18561.431801499992
 31
0.0
  0
LINE
  5
36C4
  8
2-0
  6
CONTINUOUS
 62
     3
 10
24030.51332799999
 20
14574.892099000001
 30
0.0
 11
24037.51488499996
 21
14574.892099000001
 31
0.0
  0
LINE
  5
36C5
  8
2-0
  6
CONTINUOUS
 62
     3
 10
24037.51488499996
 20
14574.892099000001
 30
0.0
 11
24037.51488499996
 21
14579.886425000001
 31
0.0
  0
LINE
  5
36C6
  8
2-0
  6
CONTINUOUS
 62
     3
 10
24037.51488499996
 20
14579.886425000001
 30
0.0
 11
24012.517524999981
 21
14579.886425000001
 31
0.0
  0
LINE
  5
36C7
  8
2-0
  6
CONTINUOUS
 62
     3
 10
24012.517524999981
 20
14579.886425000001
 30
0.0
 11
24012.517524999981
 21
14561.890621
 31
0.0
  0
LINE
  5
36C8
  8
2-0
  6
CONTINUOUS
 62
     3
 10
24012.517524999981
 20
14561.890621
 30
0.0
 11
24042.51514899997
 21
14561.890621
 31
0.0
  0
LINE
  5
36C9
  8
2-0
  6
CONTINUOUS
 62
     3
 10
24012.517524999981
 20
14577.989056
 30
0.0
 11
24012.517524999981
 21
14571.98616600001
 31
0.0
  0
LINE
  5
36CA
  8
2-0
  6
CONTINUOUS
 62
     3
 10
24012.517524999981
 20
14571.98616600001
 30
0.0
 11
24042.51514899997
 21
14571.98616600001
 31
0.0
  0
LINE
  5
36CB
  8
2-0
  6
CONTINUOUS
 62
     3
 10
24042.51514899997
 20
14571.98616600001
 30
0.0
 11
24042.51514899997
 21
14608.986337999981
 31
0.0
  0
LINE
  5
36CC
  8
2-0
  6
CONTINUOUS
 62
     3
 10
24012.517524999981
 20
14608.986337999981
 30
0.0
 11
24042.51514899997
 21
14608.986337999981
 31
0.0
  0
LINE
  5
36CD
  8
2-0
  6
CONTINUOUS
 62
     3
 10
24012.517524999981
 20
14602.98938599999
 30
0.0
 11
24012.517524999981
 21
14608.986337999981
 31
0.0
  0
LINE
  5
36CE
  8
2-0
  6
CONTINUOUS
 62
     3
 10
24012.517524999981
 20
14619.086831000001
 30
0.0
 11
24042.51514899997
 21
14619.086831000001
 31
0.0
  0
LINE
  5
36CF
  8
2-0
  6
CONTINUOUS
 62
     3
 10
24012.517524999981
 20
14601.08014
 30
0.0
 11
24012.517524999981
 21
14619.086831000001
 31
0.0
  0
LINE
  5
36D0
  8
2-0
  6
CONTINUOUS
 62
     3
 10
24037.51488499996
 20
14601.08014
 30
0.0
 11
24012.517524999981
 21
14601.08014
 31
0.0
  0
LINE
  5
36D1
  8
2-0
  6
CONTINUOUS
 62
     3
 10
24037.51488499996
 20
14606.085353
 30
0.0
 11
24037.51488499996
 21
14601.08014
 31
0.0
  0
LINE
  5
36D2
  8
2-0
  6
CONTINUOUS
 62
     3
 10
24030.51332799999
 20
14606.085353
 30
0.0
 11
24037.51488499996
 21
14606.085353
 31
0.0
  0
LINE
  5
36D3
  8
2-0
  6
CONTINUOUS
 62
     3
 10
24012.517524999981
 20
13548.488179
 30
0.0
 11
24012.517524999981
 21
13554.493047999989
 31
0.0
  0
LINE
  5
36D4
  8
2-0
  6
CONTINUOUS
 62
     3
 10
24012.517524999981
 20
13554.493047999989
 30
0.0
 11
24042.51514899997
 21
13554.493047999989
 31
0.0
  0
LINE
  5
36D5
  8
2-0
  6
CONTINUOUS
 62
     3
 10
24042.51514899997
 20
13554.493047999989
 30
0.0
 11
24042.51514899997
 21
13439.488957
 31
0.0
  0
LINE
  5
36D6
  8
2-0
  6
CONTINUOUS
 62
     3
 10
24042.51514899997
 20
13439.488957
 30
0.0
 11
23957.516600999981
 21
13439.488957
 31
0.0
  0
LINE
  5
36D7
  8
2-0
  6
CONTINUOUS
 62
     3
 10
23957.516600999981
 20
13439.488957
 30
0.0
 11
23957.516600999981
 21
13524.484536
 31
0.0
  0
LINE
  5
36D8
  8
2-0
  6
CONTINUOUS
 62
     3
 10
23957.516600999981
 20
13524.484536
 30
0.0
 11
23989.51551899996
 21
13524.484536
 31
0.0
  0
LINE
  5
36D9
  8
2-0
  6
CONTINUOUS
 62
     3
 10
24030.51332799999
 20
13551.522781
 30
0.0
 11
24037.51488499996
 21
13551.522781
 31
0.0
  0
LINE
  5
36DA
  8
2-0
  6
CONTINUOUS
 62
     3
 10
24037.51488499996
 20
13551.522781
 30
0.0
 11
24037.51488499996
 21
13546.52548599998
 31
0.0
  0
LINE
  5
36DB
  8
2-0
  6
CONTINUOUS
 62
     3
 10
24037.51488499996
 20
13546.52548599998
 30
0.0
 11
24012.517524999981
 21
13546.52548599998
 31
0.0
  0
LINE
  5
36DC
  8
2-0
  6
CONTINUOUS
 62
     3
 10
24012.517524999981
 20
13546.52548599998
 30
0.0
 11
24012.517524999981
 21
13564.524259
 31
0.0
  0
LINE
  5
36DD
  8
2-0
  6
CONTINUOUS
 62
     3
 10
24012.517524999981
 20
13564.524259
 30
0.0
 11
24042.51514899997
 21
13564.524259
 31
0.0
  0
LINE
  5
36DE
  8
2-0
  6
CENTER2
 62
     6
 10
24000.01686499998
 20
13241.99139899999
 30
0.0
 11
24000.01686499998
 21
14748.360157000019
 31
0.0
  0
LINE
  5
36DF
  8
2-0
  6
CONTINUOUS
 62
     3
 10
24042.51514899997
 20
18238.08138800001
 30
0.0
 11
24042.51514899997
 21
18881.892105499999
 31
0.0
  0
LINE
  5
36E0
  8
2-0
  6
CONTINUOUS
 62
     6
 10
24735.020031999971
 20
20440.987440000012
 30
0.0
 11
25935.014093999951
 21
20440.987440000012
 31
0.0
  0
LINE
  5
36E1
  8
2-0
  6
CONTINUOUS
 62
     6
 10
23872.98719899997
 20
18803.586309499991
 30
0.0
 11
23441.45610699998
 21
18561.431801499992
 31
0.0
  0
LINE
  5
36E2
  8
2-0
  6
CONTINUOUS
 62
     6
 10
24194.556032999961
 20
19853.664277000022
 30
0.0
 11
24735.020031999971
 21
20440.987440000012
 31
0.0
  0
LINE
  5
36E3
  8
2-0
  6
CONTINUOUS
 62
     3
 10
23951.510741999969
 20
18166.984997999989
 30
0.0
 11
23998.51638999995
 21
18166.984997999989
 31
0.0
  0
LINE
  5
36E4
  8
2-0
  6
CONTINUOUS
 62
     3
 10
23998.51638999995
 20
18251.985526
 30
0.0
 11
23951.510741999969
 21
18251.985526
 31
0.0
  0
LINE
  5
36E5
  8
2-0
  6
CONTINUOUS
 62
     3
 10
23998.51638999995
 20
18166.984997999989
 30
0.0
 11
23998.51638999995
 21
18191.988297
 31
0.0
  0
LINE
  5
36E6
  8
2-0
  6
CONTINUOUS
 62
     3
 10
23998.51638999995
 20
18226.984206000001
 30
0.0
 11
23998.51638999995
 21
18251.985526
 31
0.0
  0
LINE
  5
36E7
  8
2-0
  6
CONTINUOUS
 62
     3
 10
23951.510741999969
 20
18251.985526
 30
0.0
 11
23951.510741999969
 21
18166.984997999989
 31
0.0
  0
LINE
  5
36E8
  8
2-0
  6
CONTINUOUS
 62
     3
 10
24042.51514899997
 20
15963.885672500001
 30
0.0
 11
24042.51514899997
 21
15320.32189900001
 31
0.0
  0
LINE
  5
36E9
  8
2-0
  6
CONTINUOUS
 62
     3
 10
23951.510741999969
 20
15248.987967999999
 30
0.0
 11
23998.51638999995
 21
15248.987967999999
 31
0.0
  0
LINE
  5
36EA
  8
2-0
  6
CONTINUOUS
 62
     3
 10
23998.51638999995
 20
15333.984535999991
 30
0.0
 11
23951.510741999969
 21
15333.984535999991
 31
0.0
  0
LINE
  5
36EB
  8
2-0
  6
CONTINUOUS
 62
     3
 10
23998.51638999995
 20
15248.987967999999
 30
0.0
 11
23998.51638999995
 21
15273.983349
 31
0.0
  0
LINE
  5
36EC
  8
2-0
  6
CONTINUOUS
 62
     3
 10
23998.51638999995
 20
15308.98321700001
 30
0.0
 11
23998.51638999995
 21
15333.984535999991
 31
0.0
  0
LINE
  5
36ED
  8
2-0
  6
CONTINUOUS
 62
     3
 10
23951.510741999969
 20
15333.984535999991
 30
0.0
 11
23951.510741999969
 21
15248.987967999999
 31
0.0
  0
LINE
  5
36EE
  8
2-0
  6
CONTINUOUS
 62
     6
 10
23859.93029399998
 20
18826.84565349999
 30
0.0
 11
24012.517524999981
 21
18881.892105499999
 31
0.0
  0
LINE
  5
36EF
  8
2-0
  6
CONTINUOUS
 62
     6
 10
24012.517524999981
 20
18881.892105499999
 30
0.0
 11
23886.036184999972
 21
18780.332905499981
 31
0.0
  0
LINE
  5
36F0
  8
2-0
  6
CONTINUOUS
 62
     6
 10
23859.93029399998
 20
18826.84565349999
 30
0.0
 11
23886.036184999972
 21
18780.332905499981
 31
0.0
  0
LINE
  5
36F1
  8
2-0
  6
CONTINUOUS
 62
     6
 10
23886.036184999972
 20
18780.332905499981
 30
0.0
 11
24012.517524999981
 21
18881.892105499999
 31
0.0
  0
LINE
  5
36F2
  8
2-0
  6
CONTINUOUS
 62
     6
 10
24012.517524999981
 20
18881.892105499999
 30
0.0
 11
23859.93029399998
 21
18826.84565349999
 31
0.0
  0
LINE
  5
36F3
  8
2-0
  6
CONTINUOUS
 62
     6
 10
23859.93029399998
 20
18826.84565349999
 30
0.0
 11
24012.517524999981
 21
18881.892105499999
 31
0.0
  0
LINE
  5
36F4
  8
2-0
  6
CONTINUOUS
 62
     6
 10
23886.036184999972
 20
18780.332905499981
 30
0.0
 11
24012.517524999981
 21
18881.892105499999
 31
0.0
  0
LINE
  5
36F5
  8
2-0
  6
CONTINUOUS
 62
     6
 10
23886.036184999972
 20
18780.332905499981
 30
0.0
 11
23859.93029399998
 21
18826.84565349999
 31
0.0
  0
LINE
  5
36F6
  8
2-0
  6
CONTINUOUS
 62
     6
 10
24214.173061999962
 20
19835.603150000021
 30
0.0
 11
24086.211041999981
 21
19735.920532000011
 31
0.0
  0
LINE
  5
36F7
  8
2-0
  6
CONTINUOUS
 62
     6
 10
24086.211041999981
 20
19735.920532000011
 30
0.0
 11
24174.925146999962
 21
19871.717487000009
 31
0.0
  0
LINE
  5
36F8
  8
2-0
  6
CONTINUOUS
 62
     6
 10
24214.173061999962
 20
19835.603150000021
 30
0.0
 11
24174.925146999962
 21
19871.717487000009
 31
0.0
  0
LINE
  5
36F9
  8
2-0
  6
CONTINUOUS
 62
     6
 10
24174.925146999962
 20
19871.717487000009
 30
0.0
 11
24086.211041999981
 21
19735.920532000011
 31
0.0
  0
LINE
  5
36FA
  8
2-0
  6
CONTINUOUS
 62
     6
 10
24086.211041999981
 20
19735.920532000011
 30
0.0
 11
24214.173061999962
 21
19835.603150000021
 31
0.0
  0
LINE
  5
36FB
  8
2-0
  6
CONTINUOUS
 62
     6
 10
24214.173061999962
 20
19835.603150000021
 30
0.0
 11
24086.211041999981
 21
19735.920532000011
 31
0.0
  0
LINE
  5
36FC
  8
2-0
  6
CONTINUOUS
 62
     6
 10
24174.925146999962
 20
19871.717487000009
 30
0.0
 11
24086.211041999981
 21
19735.920532000011
 31
0.0
  0
LINE
  5
36FD
  8
2-0
  6
CONTINUOUS
 62
     6
 10
24174.925146999962
 20
19871.717487000009
 30
0.0
 11
24214.173061999962
 21
19835.603150000021
 31
0.0
  0
LINE
  5
36FE
  8
2-0
  6
CONTINUOUS
 62
     4
 10
21432.516864999969
 20
19790.986780000021
 30
0.0
 11
21432.516864999969
 21
20520.983745000001
 31
0.0
  0
LINE
  5
36FF
  8
2-0
  6
CONTINUOUS
 62
     6
 10
23796.19177499997
 20
15202.48115800001
 30
0.0
 11
23951.510741999969
 21
15249.22847900001
 31
0.0
  0
LINE
  5
3700
  8
2-0
  6
CONTINUOUS
 62
     6
 10
23951.510741999969
 20
15249.22847900001
 30
0.0
 11
23819.750025999962
 21
15154.63619400001
 31
0.0
  0
LINE
  5
3701
  8
2-0
  6
CONTINUOUS
 62
     6
 10
23796.19177499997
 20
15202.48115800001
 30
0.0
 11
23819.750025999962
 21
15154.63619400001
 31
0.0
  0
LINE
  5
3702
  8
2-0
  6
CONTINUOUS
 62
     6
 10
23819.750025999962
 20
15154.63619400001
 30
0.0
 11
23951.510741999969
 21
15249.22847900001
 31
0.0
  0
LINE
  5
3703
  8
2-0
  6
CONTINUOUS
 62
     6
 10
23951.510741999969
 20
15249.22847900001
 30
0.0
 11
23796.19177499997
 21
15202.48115800001
 31
0.0
  0
LINE
  5
3704
  8
2-0
  6
CONTINUOUS
 62
     6
 10
23796.19177499997
 20
15202.48115800001
 30
0.0
 11
23951.510741999969
 21
15249.22847900001
 31
0.0
  0
LINE
  5
3705
  8
2-0
  6
CONTINUOUS
 62
     6
 10
23819.750025999962
 20
15154.63619400001
 30
0.0
 11
23951.510741999969
 21
15249.22847900001
 31
0.0
  0
LINE
  5
3706
  8
2-0
  6
CONTINUOUS
 62
     6
 10
23819.750025999962
 20
15154.63619400001
 30
0.0
 11
23796.19177499997
 21
15202.48115800001
 31
0.0
  0
LINE
  5
3707
  8
2-0
  6
CONTINUOUS
 62
     6
 10
23765.877427999989
 20
13331.216218999991
 30
0.0
 11
23897.624286999981
 21
13425.843145999999
 31
0.0
  0
LINE
  5
3708
  8
2-0
  6
CONTINUOUS
 62
     6
 10
23897.624286999981
 20
13425.843145999999
 30
0.0
 11
23803.69415099996
 21
13293.60437599999
 31
0.0
  0
LINE
  5
3709
  8
2-0
  6
CONTINUOUS
 62
     6
 10
23765.877427999989
 20
13331.216218999991
 30
0.0
 11
23803.69415099996
 21
13293.60437599999
 31
0.0
  0
LINE
  5
370A
  8
2-0
  6
CONTINUOUS
 62
     6
 10
23803.69415099996
 20
13293.60437599999
 30
0.0
 11
23897.624286999981
 21
13425.843145999999
 31
0.0
  0
LINE
  5
370B
  8
2-0
  6
CONTINUOUS
 62
     6
 10
23897.624286999981
 20
13425.843145999999
 30
0.0
 11
23765.877427999989
 21
13331.216218999991
 31
0.0
  0
LINE
  5
370C
  8
2-0
  6
CONTINUOUS
 62
     6
 10
23765.877427999989
 20
13331.216218999991
 30
0.0
 11
23897.624286999981
 21
13425.843145999999
 31
0.0
  0
LINE
  5
370D
  8
2-0
  6
CONTINUOUS
 62
     6
 10
23803.69415099996
 20
13293.60437599999
 30
0.0
 11
23897.624286999981
 21
13425.843145999999
 31
0.0
  0
LINE
  5
370E
  8
2-0
  6
CONTINUOUS
 62
     6
 10
23803.69415099996
 20
13293.60437599999
 30
0.0
 11
23765.877427999989
 21
13331.216218999991
 31
0.0
  0
LINE
  5
370F
  8
2-0
  6
CONTINUOUS
 62
     6
 10
23828.913216999968
 20
13658.120845999991
 30
0.0
 11
23961.51324899996
 21
13564.692517999991
 31
0.0
  0
LINE
  5
3710
  8
2-0
  6
CONTINUOUS
 62
     6
 10
23961.51324899996
 20
13564.692517999991
 30
0.0
 11
23805.78056299996
 21
13610.068031999999
 31
0.0
  0
LINE
  5
3711
  8
2-0
  6
CONTINUOUS
 62
     6
 10
23828.913216999968
 20
13658.120845999991
 30
0.0
 11
23805.78056299996
 21
13610.068031999999
 31
0.0
  0
LINE
  5
3712
  8
2-0
  6
CONTINUOUS
 62
     6
 10
23805.78056299996
 20
13610.068031999999
 30
0.0
 11
23961.51324899996
 21
13564.692517999991
 31
0.0
  0
LINE
  5
3713
  8
2-0
  6
CONTINUOUS
 62
     6
 10
23961.51324899996
 20
13564.692517999991
 30
0.0
 11
23828.913216999968
 21
13658.120845999991
 31
0.0
  0
LINE
  5
3714
  8
2-0
  6
CONTINUOUS
 62
     6
 10
23828.913216999968
 20
13658.120845999991
 30
0.0
 11
23961.51324899996
 21
13564.692517999991
 31
0.0
  0
LINE
  5
3715
  8
2-0
  6
CONTINUOUS
 62
     6
 10
23805.78056299996
 20
13610.068031999999
 30
0.0
 11
23961.51324899996
 21
13564.692517999991
 31
0.0
  0
LINE
  5
3716
  8
2-0
  6
CONTINUOUS
 62
     6
 10
23805.78056299996
 20
13610.068031999999
 30
0.0
 11
23828.913216999968
 21
13658.120845999991
 31
0.0
  0
LINE
  5
3717
  8
2-0
  6
CONTINUOUS
 62
     6
 10
23888.676862999961
 20
16388.441779000019
 30
0.0
 11
24042.51514899997
 21
16439.875610000021
 31
0.0
  0
LINE
  5
3718
  8
2-0
  6
CONTINUOUS
 62
     6
 10
24042.51514899997
 20
16439.875610000021
 30
0.0
 11
23913.68016199995
 21
16341.33517500002
 31
0.0
  0
LINE
  5
3719
  8
2-0
  6
CONTINUOUS
 62
     6
 10
23888.676862999961
 20
16388.441779000019
 30
0.0
 11
23913.68016199995
 21
16341.33517500002
 31
0.0
  0
LINE
  5
371A
  8
2-0
  6
CONTINUOUS
 62
     6
 10
23913.68016199995
 20
16341.33517500002
 30
0.0
 11
24042.51514899997
 21
16439.875610000021
 31
0.0
  0
LINE
  5
371B
  8
2-0
  6
CONTINUOUS
 62
     6
 10
24042.51514899997
 20
16439.875610000021
 30
0.0
 11
23888.676862999961
 21
16388.441779000019
 31
0.0
  0
LINE
  5
371C
  8
2-0
  6
CONTINUOUS
 62
     6
 10
23888.676862999961
 20
16388.441779000019
 30
0.0
 11
24042.51514899997
 21
16439.875610000021
 31
0.0
  0
LINE
  5
371D
  8
2-0
  6
CONTINUOUS
 62
     6
 10
23913.68016199995
 20
16341.33517500002
 30
0.0
 11
24042.51514899997
 21
16439.875610000021
 31
0.0
  0
LINE
  5
371E
  8
2-0
  6
CONTINUOUS
 62
     6
 10
23913.68016199995
 20
16341.33517500002
 30
0.0
 11
23888.676862999961
 21
16388.441779000019
 31
0.0
  0
LINE
  5
371F
  8
2-0
  6
CONTINUOUS
 62
     6
 10
23754.740655999969
 20
16879.76027100001
 30
0.0
 11
23897.624286999981
 21
16802.984641999999
 31
0.0
  0
LINE
  5
3720
  8
2-0
  6
CONTINUOUS
 62
     6
 10
23897.624286999981
 20
16802.984641999999
 30
0.0
 11
23737.562393999971
 21
16829.266711000011
 31
0.0
  0
LINE
  5
3721
  8
2-0
  6
CONTINUOUS
 62
     6
 10
23754.740655999969
 20
16879.76027100001
 30
0.0
 11
23737.562393999971
 21
16829.266711000011
 31
0.0
  0
LINE
  5
3722
  8
2-0
  6
CONTINUOUS
 62
     6
 10
23737.562393999971
 20
16829.266711000011
 30
0.0
 11
23897.624286999981
 21
16802.984641999999
 31
0.0
  0
LINE
  5
3723
  8
2-0
  6
CONTINUOUS
 62
     6
 10
23897.624286999981
 20
16802.984641999999
 30
0.0
 11
23754.740655999969
 21
16879.76027100001
 31
0.0
  0
LINE
  5
3724
  8
2-0
  6
CONTINUOUS
 62
     6
 10
23754.740655999969
 20
16879.76027100001
 30
0.0
 11
23897.624286999981
 21
16802.984641999999
 31
0.0
  0
LINE
  5
3725
  8
2-0
  6
CONTINUOUS
 62
     6
 10
23737.562393999971
 20
16829.266711000011
 30
0.0
 11
23897.624286999981
 21
16802.984641999999
 31
0.0
  0
LINE
  5
3726
  8
2-0
  6
CONTINUOUS
 62
     6
 10
23737.562393999971
 20
16829.266711000011
 30
0.0
 11
23754.740655999969
 21
16879.76027100001
 31
0.0
  0
LINE
  5
3727
  8
2-0
  6
CONTINUOUS
 62
     6
 10
23796.19177499997
 20
18120.240645999991
 30
0.0
 11
23951.510741999969
 21
18166.984997999989
 31
0.0
  0
LINE
  5
3728
  8
2-0
  6
CONTINUOUS
 62
     6
 10
23951.510741999969
 20
18166.984997999989
 30
0.0
 11
23819.750025999962
 21
18072.389744
 31
0.0
  0
LINE
  5
3729
  8
2-0
  6
CONTINUOUS
 62
     6
 10
23796.19177499997
 20
18120.240645999991
 30
0.0
 11
23819.750025999962
 21
18072.389744
 31
0.0
  0
LINE
  5
372A
  8
2-0
  6
CONTINUOUS
 62
     6
 10
23819.750025999962
 20
18072.389744
 30
0.0
 11
23951.510741999969
 21
18166.984997999989
 31
0.0
  0
LINE
  5
372B
  8
2-0
  6
CONTINUOUS
 62
     6
 10
23951.510741999969
 20
18166.984997999989
 30
0.0
 11
23796.19177499997
 21
18120.240645999991
 31
0.0
  0
LINE
  5
372C
  8
2-0
  6
CONTINUOUS
 62
     6
 10
23796.19177499997
 20
18120.240645999991
 30
0.0
 11
23951.510741999969
 21
18166.984997999989
 31
0.0
  0
LINE
  5
372D
  8
2-0
  6
CONTINUOUS
 62
     6
 10
23819.750025999962
 20
18072.389744
 30
0.0
 11
23951.510741999969
 21
18166.984997999989
 31
0.0
  0
LINE
  5
372E
  8
2-0
  6
CONTINUOUS
 62
     6
 10
23819.750025999962
 20
18072.389744
 30
0.0
 11
23796.19177499997
 21
18120.240645999991
 31
0.0
  0
LINE
  5
372F
  8
2-0
  6
CONTINUOUS
 62
     3
 10
21420.018184999972
 20
19601.984326000009
 30
0.0
 11
21420.018184999972
 21
19595.988364000012
 31
0.0
  0
LINE
  5
3730
  8
2-0
  6
CONTINUOUS
 62
     3
 10
21420.018184999972
 20
19595.988364000012
 30
0.0
 11
21390.020559999972
 21
19595.988364000012
 31
0.0
  0
LINE
  5
3731
  8
2-0
  6
CONTINUOUS
 62
     3
 10
21390.020559999972
 20
19595.988364000012
 30
0.0
 11
21390.020559999972
 21
19710.984537000011
 31
0.0
  0
LINE
  5
3732
  8
2-0
  6
CONTINUOUS
 62
     3
 10
21390.020559999972
 20
19625.987968000001
 30
0.0
 11
21471.01850099998
 21
19625.987968000001
 31
0.0
  0
LINE
  5
3733
  8
2-0
  6
CONTINUOUS
 62
     3
 10
21420.018184999972
 20
19585.690908
 30
0.0
 11
21390.020559999972
 21
19585.690908
 31
0.0
  0
LINE
  5
3734
  8
2-0
  6
CONTINUOUS
 62
     3
 10
21420.018184999972
 20
19603.692650000001
 30
0.0
 11
21420.018184999972
 21
19585.690908
 31
0.0
  0
LINE
  5
3735
  8
2-0
  6
CONTINUOUS
 62
     3
 10
21395.024782999972
 20
19603.692650000001
 30
0.0
 11
21420.018184999972
 21
19603.692650000001
 31
0.0
  0
LINE
  5
3736
  8
2-0
  6
CONTINUOUS
 62
     3
 10
21395.024782999972
 20
19598.68446800001
 30
0.0
 11
21395.024782999972
 21
19603.692650000001
 31
0.0
  0
LINE
  5
3737
  8
2-0
  6
CONTINUOUS
 62
     3
 10
21402.022380999959
 20
19598.68446800001
 30
0.0
 11
21395.024782999972
 21
19598.68446800001
 31
0.0
  0
LINE
  5
3738
  8
2-0
  6
CONTINUOUS
 62
     3
 10
21502.31666999996
 20
19698.984695000021
 30
0.0
 11
21502.31666999996
 21
19705.990211000011
 31
0.0
  0
LINE
  5
3739
  8
2-0
  6
CONTINUOUS
 62
     3
 10
21502.31666999996
 20
19705.990211000011
 30
0.0
 11
21497.314425999972
 21
19705.990211000011
 31
0.0
  0
LINE
  5
373A
  8
2-0
  6
CONTINUOUS
 62
     3
 10
21497.314425999972
 20
19705.990211000011
 30
0.0
 11
21497.314425999972
 21
19680.980973999998
 31
0.0
  0
LINE
  5
373B
  8
2-0
  6
CONTINUOUS
 62
     3
 10
21497.314425999972
 20
19680.980973999998
 30
0.0
 11
21515.322106999971
 21
19680.980973999998
 31
0.0
  0
LINE
  5
373C
  8
2-0
  6
CONTINUOUS
 62
     3
 10
21515.322106999971
 20
19680.980973999998
 30
0.0
 11
21515.322106999971
 21
19710.984537000011
 31
0.0
  0
LINE
  5
373D
  8
2-0
  6
CONTINUOUS
 62
     3
 10
21505.022670999981
 20
19710.984537000011
 30
0.0
 11
21390.020559999972
 21
19710.984537000011
 31
0.0
  0
LINE
  5
373E
  8
2-0
  6
CONTINUOUS
 62
     3
 10
21505.022670999981
 20
19680.980973999998
 30
0.0
 11
21505.022670999981
 21
19710.984537000011
 31
0.0
  0
LINE
  5
373F
  8
2-0
  6
CONTINUOUS
 62
     3
 10
21499.01879199997
 20
19680.980973999998
 30
0.0
 11
21505.022670999981
 21
19680.980973999998
 31
0.0
  0
LINE
  5
3740
  8
2-0
  6
CONTINUOUS
 62
     3
 10
21420.018184999972
 20
19601.984326000009
 30
0.0
 11
21420.018184999972
 21
19595.988364000012
 31
0.0
  0
LINE
  5
3741
  8
2-0
  6
CONTINUOUS
 62
     3
 10
21420.018184999972
 20
19595.988364000012
 30
0.0
 11
21390.020559999972
 21
19595.988364000012
 31
0.0
  0
LINE
  5
3742
  8
2-0
  6
CONTINUOUS
 62
     3
 10
21390.020559999972
 20
19595.988364000012
 30
0.0
 11
21390.020559999972
 21
19710.984537000011
 31
0.0
  0
LINE
  5
3743
  8
2-0
  6
CONTINUOUS
 62
     3
 10
21390.020559999972
 20
19625.987968000001
 30
0.0
 11
21471.01850099998
 21
19625.987968000001
 31
0.0
  0
LINE
  5
3744
  8
2-0
  6
CONTINUOUS
 62
     3
 10
21420.018184999972
 20
19585.690908
 30
0.0
 11
21390.020559999972
 21
19585.690908
 31
0.0
  0
LINE
  5
3745
  8
2-0
  6
CONTINUOUS
 62
     3
 10
21420.018184999972
 20
19603.692650000001
 30
0.0
 11
21420.018184999972
 21
19585.690908
 31
0.0
  0
LINE
  5
3746
  8
2-0
  6
CONTINUOUS
 62
     3
 10
21395.024782999972
 20
19603.692650000001
 30
0.0
 11
21420.018184999972
 21
19603.692650000001
 31
0.0
  0
LINE
  5
3747
  8
2-0
  6
CONTINUOUS
 62
     3
 10
21395.024782999972
 20
19598.68446800001
 30
0.0
 11
21395.024782999972
 21
19603.692650000001
 31
0.0
  0
LINE
  5
3748
  8
2-0
  6
CONTINUOUS
 62
     3
 10
21402.022380999959
 20
19598.68446800001
 30
0.0
 11
21395.024782999972
 21
19598.68446800001
 31
0.0
  0
LINE
  5
3749
  8
2-0
  6
CONTINUOUS
 62
     3
 10
21402.022380999959
 20
18894.887645499992
 30
0.0
 11
21395.024782999972
 21
18894.887645499992
 31
0.0
  0
LINE
  5
374A
  8
2-0
  6
CONTINUOUS
 62
     3
 10
21395.024782999972
 20
18894.887645499992
 30
0.0
 11
21395.024782999972
 21
18899.887909500001
 31
0.0
  0
LINE
  5
374B
  8
2-0
  6
CONTINUOUS
 62
     3
 10
21395.024782999972
 20
18899.887909500001
 30
0.0
 11
21420.018184999972
 21
18899.887909500001
 31
0.0
  0
LINE
  5
374C
  8
2-0
  6
CONTINUOUS
 62
     3
 10
21420.018184999972
 20
18899.887909500001
 30
0.0
 11
21420.018184999972
 21
18881.892105499981
 31
0.0
  0
LINE
  5
374D
  8
2-0
  6
CONTINUOUS
 62
     3
 10
21420.018184999972
 20
18881.892105499981
 30
0.0
 11
21390.020559999972
 21
18881.892105499981
 31
0.0
  0
LINE
  5
374E
  8
2-0
  6
CONTINUOUS
 62
     3
 10
21420.018184999972
 20
18897.98361249996
 30
0.0
 11
21420.018184999972
 21
18891.985671499991
 31
0.0
  0
LINE
  5
374F
  8
2-0
  6
CONTINUOUS
 62
     3
 10
21420.018184999972
 20
18891.985671499991
 30
0.0
 11
21390.020559999972
 21
18891.985671499991
 31
0.0
  0
LINE
  5
3750
  8
2-0
  6
CONTINUOUS
 62
     3
 10
21390.020559999972
 20
18891.985671499991
 30
0.0
 11
21390.020559999972
 21
18928.986832499992
 31
0.0
  0
LINE
  5
3751
  8
2-0
  6
CONTINUOUS
 62
     3
 10
21420.018184999972
 20
18928.986832499992
 30
0.0
 11
21390.020559999972
 21
18928.986832499992
 31
0.0
  0
LINE
  5
3752
  8
2-0
  6
CONTINUOUS
 62
     3
 10
21420.018184999972
 20
18922.982952499991
 30
0.0
 11
21420.018184999972
 21
18928.986832499992
 31
0.0
  0
LINE
  5
3753
  8
2-0
  6
CONTINUOUS
 62
     3
 10
21420.018184999972
 20
18939.082377499981
 30
0.0
 11
21390.020559999972
 21
18939.082377499981
 31
0.0
  0
LINE
  5
3754
  8
2-0
  6
CONTINUOUS
 62
     3
 10
21420.018184999972
 20
18921.080635499999
 30
0.0
 11
21420.018184999972
 21
18939.082377499981
 31
0.0
  0
LINE
  5
3755
  8
2-0
  6
CONTINUOUS
 62
     3
 10
21395.024782999972
 20
18921.080635499999
 30
0.0
 11
21420.018184999972
 21
18921.080635499999
 31
0.0
  0
LINE
  5
3756
  8
2-0
  6
CONTINUOUS
 62
     3
 10
21395.024782999972
 20
18926.080899499979
 30
0.0
 11
21395.024782999972
 21
18921.080635499999
 31
0.0
  0
LINE
  5
3757
  8
2-0
  6
CONTINUOUS
 62
     3
 10
21402.022380999959
 20
18926.080899499979
 30
0.0
 11
21395.024782999972
 21
18926.080899499979
 31
0.0
  0
LINE
  5
3758
  8
2-0
  6
CONTINUOUS
 62
     3
 10
21402.022380999959
 20
18193.886655999999
 30
0.0
 11
21395.024782999972
 21
18193.886655999999
 31
0.0
  0
LINE
  5
3759
  8
2-0
  6
CONTINUOUS
 62
     3
 10
21395.024782999972
 20
18193.886655999999
 30
0.0
 11
21395.024782999972
 21
18198.892857999999
 31
0.0
  0
LINE
  5
375A
  8
2-0
  6
CONTINUOUS
 62
     3
 10
21395.024782999972
 20
18198.892857999999
 30
0.0
 11
21420.018184999972
 21
18198.892857999999
 31
0.0
  0
LINE
  5
375B
  8
2-0
  6
CONTINUOUS
 62
     3
 10
21420.018184999972
 20
18198.892857999999
 30
0.0
 11
21420.018184999972
 21
18180.891115999992
 31
0.0
  0
LINE
  5
375C
  8
2-0
  6
CONTINUOUS
 62
     3
 10
21420.018184999972
 20
18180.891115999992
 30
0.0
 11
21390.020559999972
 21
18180.891115999992
 31
0.0
  0
LINE
  5
375D
  8
2-0
  6
CONTINUOUS
 62
     3
 10
21420.018184999972
 20
18196.982622999982
 30
0.0
 11
21420.018184999972
 21
18190.986660999992
 31
0.0
  0
LINE
  5
375E
  8
2-0
  6
CONTINUOUS
 62
     3
 10
21420.018184999972
 20
18190.986660999992
 30
0.0
 11
21390.020559999972
 21
18190.986660999992
 31
0.0
  0
LINE
  5
375F
  8
2-0
  6
CONTINUOUS
 62
     3
 10
21390.020559999972
 20
18190.986660999992
 30
0.0
 11
21390.020559999972
 21
18227.985842999991
 31
0.0
  0
LINE
  5
3760
  8
2-0
  6
CONTINUOUS
 62
     3
 10
21420.018184999972
 20
18227.985842999991
 30
0.0
 11
21390.020559999972
 21
18227.985842999991
 31
0.0
  0
LINE
  5
3761
  8
2-0
  6
CONTINUOUS
 62
     3
 10
21420.018184999972
 20
18221.989881000001
 30
0.0
 11
21420.018184999972
 21
18227.985842999991
 31
0.0
  0
LINE
  5
3762
  8
2-0
  6
CONTINUOUS
 62
     3
 10
21420.018184999972
 20
18238.081387999999
 30
0.0
 11
21390.020559999972
 21
18238.081387999999
 31
0.0
  0
LINE
  5
3763
  8
2-0
  6
CONTINUOUS
 62
     3
 10
21420.018184999972
 20
18220.079645999991
 30
0.0
 11
21420.018184999972
 21
18238.081387999999
 31
0.0
  0
LINE
  5
3764
  8
2-0
  6
CONTINUOUS
 62
     3
 10
21395.024782999972
 20
18220.079645999991
 30
0.0
 11
21420.018184999972
 21
18220.079645999991
 31
0.0
  0
LINE
  5
3765
  8
2-0
  6
CONTINUOUS
 62
     3
 10
21395.024782999972
 20
18225.085847999992
 30
0.0
 11
21395.024782999972
 21
18220.079645999991
 31
0.0
  0
LINE
  5
3766
  8
2-0
  6
CONTINUOUS
 62
     3
 10
21402.022380999959
 20
18225.085847999992
 30
0.0
 11
21395.024782999972
 21
18225.085847999992
 31
0.0
  0
LINE
  5
3767
  8
2-0
  6
CONTINUOUS
 62
     3
 10
21402.022380999959
 20
17524.079909999989
 30
0.0
 11
21395.024782999972
 21
17524.079909999989
 31
0.0
  0
LINE
  5
3768
  8
2-0
  6
CONTINUOUS
 62
     3
 10
21395.024782999972
 20
17524.079909999989
 30
0.0
 11
21395.024782999972
 21
17519.091522999999
 31
0.0
  0
LINE
  5
3769
  8
2-0
  6
CONTINUOUS
 62
     3
 10
21395.024782999972
 20
17519.091522999999
 30
0.0
 11
21420.018184999972
 21
17519.091522999999
 31
0.0
  0
LINE
  5
376A
  8
2-0
  6
CONTINUOUS
 62
     3
 10
21420.018184999972
 20
17519.091522999999
 30
0.0
 11
21420.018184999972
 21
17537.08732599999
 31
0.0
  0
LINE
  5
376B
  8
2-0
  6
CONTINUOUS
 62
     3
 10
21420.018184999972
 20
17537.08732599999
 30
0.0
 11
21390.020559999972
 21
17537.08732599999
 31
0.0
  0
LINE
  5
376C
  8
2-0
  6
CONTINUOUS
 62
     3
 10
21420.018184999972
 20
17520.989881000001
 30
0.0
 11
21420.018184999972
 21
17526.985842999991
 31
0.0
  0
LINE
  5
376D
  8
2-0
  6
CONTINUOUS
 62
     3
 10
21420.018184999972
 20
17526.985842999991
 30
0.0
 11
21390.020559999972
 21
17526.985842999991
 31
0.0
  0
LINE
  5
376E
  8
2-0
  6
CONTINUOUS
 62
     3
 10
21390.020559999972
 20
17526.985842999991
 30
0.0
 11
21390.020559999972
 21
17489.986660999992
 31
0.0
  0
LINE
  5
376F
  8
2-0
  6
CONTINUOUS
 62
     3
 10
21420.018184999972
 20
17489.986660999992
 30
0.0
 11
21390.020559999972
 21
17489.986660999992
 31
0.0
  0
LINE
  5
3770
  8
2-0
  6
CONTINUOUS
 62
     3
 10
21420.018184999972
 20
17495.988561999991
 30
0.0
 11
21420.018184999972
 21
17489.986660999992
 31
0.0
  0
LINE
  5
3771
  8
2-0
  6
CONTINUOUS
 62
     3
 10
21420.018184999972
 20
17479.897055000001
 30
0.0
 11
21390.020559999972
 21
17479.897055000001
 31
0.0
  0
LINE
  5
3772
  8
2-0
  6
CONTINUOUS
 62
     3
 10
21420.018184999972
 20
17497.892857999981
 30
0.0
 11
21420.018184999972
 21
17479.897055000001
 31
0.0
  0
LINE
  5
3773
  8
2-0
  6
CONTINUOUS
 62
     3
 10
21395.024782999972
 20
17497.892857999981
 30
0.0
 11
21420.018184999972
 21
17497.892857999981
 31
0.0
  0
LINE
  5
3774
  8
2-0
  6
CONTINUOUS
 62
     3
 10
21395.024782999972
 20
17492.892595000001
 30
0.0
 11
21395.024782999972
 21
17497.892857999981
 31
0.0
  0
LINE
  5
3775
  8
2-0
  6
CONTINUOUS
 62
     3
 10
21402.022380999959
 20
17492.892595000001
 30
0.0
 11
21395.024782999972
 21
17492.892595000001
 31
0.0
  0
LINE
  5
3776
  8
2-0
  6
CONTINUOUS
 62
     3
 10
21392.906697999981
 20
16772.983480999999
 30
0.0
 11
21392.906697999981
 21
16792.984536
 31
0.0
  0
LINE
  5
3777
  8
2-0
  6
CONTINUOUS
 62
     3
 10
21392.906697999981
 20
16792.984536
 30
0.0
 11
21477.907225999981
 21
16792.984536
 31
0.0
  0
LINE
  5
3778
  8
2-0
  6
CONTINUOUS
 62
     3
 10
21402.022380999959
 20
16819.591246
 30
0.0
 11
21395.024782999972
 21
16819.591246
 31
0.0
  0
LINE
  5
3779
  8
2-0
  6
CONTINUOUS
 62
     3
 10
21395.024782999972
 20
16819.591246
 30
0.0
 11
21395.024782999972
 21
16814.596920000011
 31
0.0
  0
LINE
  5
377A
  8
2-0
  6
CONTINUOUS
 62
     3
 10
21395.024782999972
 20
16814.596920000011
 30
0.0
 11
21420.018184999972
 21
16814.596920000011
 31
0.0
  0
LINE
  5
377B
  8
2-0
  6
CONTINUOUS
 62
     3
 10
21420.018184999972
 20
16814.596920000011
 30
0.0
 11
21420.018184999972
 21
16832.592723999991
 31
0.0
  0
LINE
  5
377C
  8
2-0
  6
CONTINUOUS
 62
     3
 10
21420.018184999972
 20
16832.592723999991
 30
0.0
 11
21390.020559999972
 21
16832.592723999991
 31
0.0
  0
LINE
  5
377D
  8
2-0
  6
CONTINUOUS
 62
     3
 10
21420.018184999972
 20
16822.98413999999
 30
0.0
 11
21420.018184999972
 21
16816.982240000001
 31
0.0
  0
LINE
  5
377E
  8
2-0
  6
CONTINUOUS
 62
     3
 10
21390.020559999972
 20
16822.98413999999
 30
0.0
 11
21420.018184999972
 21
16822.98413999999
 31
0.0
  0
LINE
  5
377F
  8
2-0
  6
CONTINUOUS
 62
     3
 10
21390.020559999972
 20
16832.592723999991
 30
0.0
 11
21390.020559999972
 21
17479.897055000001
 31
0.0
  0
LINE
  5
3780
  8
2-0
  6
CONTINUOUS
 62
     3
 10
21390.020559999972
 20
17537.08732599999
 30
0.0
 11
21390.020559999972
 21
18180.891115999992
 31
0.0
  0
LINE
  5
3781
  8
2-0
  6
CONTINUOUS
 62
     3
 10
21390.020559999972
 20
16677.982424999991
 30
0.0
 11
21420.018184999972
 21
16677.982424999991
 31
0.0
  0
LINE
  5
3782
  8
2-0
  6
CONTINUOUS
 62
     3
 10
21420.018184999972
 20
16677.982424999991
 30
0.0
 11
21420.018184999972
 21
16683.984325000001
 31
0.0
  0
LINE
  5
3783
  8
2-0
  6
CONTINUOUS
 62
     3
 10
21477.907225999981
 20
16707.987968000001
 30
0.0
 11
21392.906697999981
 21
16707.987968000001
 31
0.0
  0
LINE
  5
3784
  8
2-0
  6
CONTINUOUS
 62
     3
 10
21392.906697999981
 20
16707.987968000001
 30
0.0
 11
21392.906697999981
 21
16727.983085000011
 31
0.0
  0
LINE
  5
3785
  8
2-0
  6
CONTINUOUS
 62
     3
 10
21420.018184999972
 20
16668.373842000012
 30
0.0
 11
21390.020559999972
 21
16668.373842000012
 31
0.0
  0
LINE
  5
3786
  8
2-0
  6
CONTINUOUS
 62
     3
 10
21420.018184999972
 20
16686.369644999992
 30
0.0
 11
21420.018184999972
 21
16668.373842000012
 31
0.0
  0
LINE
  5
3787
  8
2-0
  6
CONTINUOUS
 62
     3
 10
21395.024782999972
 20
16686.369644999992
 30
0.0
 11
21420.018184999972
 21
16686.369644999992
 31
0.0
  0
LINE
  5
3788
  8
2-0
  6
CONTINUOUS
 62
     3
 10
21395.024782999972
 20
16681.369381000011
 30
0.0
 11
21395.024782999972
 21
16686.369644999992
 31
0.0
  0
LINE
  5
3789
  8
2-0
  6
CONTINUOUS
 62
     3
 10
21402.022380999959
 20
16681.369381000011
 30
0.0
 11
21395.024782999972
 21
16681.369381000011
 31
0.0
  0
LINE
  5
378A
  8
2-0
  6
CONTINUOUS
 62
     3
 10
21402.022380999959
 20
15976.887150499981
 30
0.0
 11
21395.024782999972
 21
15976.887150499981
 31
0.0
  0
LINE
  5
378B
  8
2-0
  6
CONTINUOUS
 62
     3
 10
21395.024782999972
 20
15976.887150499981
 30
0.0
 11
21395.024782999972
 21
15981.88741449999
 31
0.0
  0
LINE
  5
378C
  8
2-0
  6
CONTINUOUS
 62
     3
 10
21395.024782999972
 20
15981.88741449999
 30
0.0
 11
21420.018184999972
 21
15981.88741449999
 31
0.0
  0
LINE
  5
378D
  8
2-0
  6
CONTINUOUS
 62
     3
 10
21420.018184999972
 20
15981.88741449999
 30
0.0
 11
21420.018184999972
 21
15963.88567249999
 31
0.0
  0
LINE
  5
378E
  8
2-0
  6
CONTINUOUS
 62
     3
 10
21420.018184999972
 20
15963.88567249999
 30
0.0
 11
21390.020559999972
 21
15963.88567249999
 31
0.0
  0
LINE
  5
378F
  8
2-0
  6
CONTINUOUS
 62
     3
 10
21420.018184999972
 20
15979.9831175
 30
0.0
 11
21420.018184999972
 21
15973.986166500001
 31
0.0
  0
LINE
  5
3790
  8
2-0
  6
CONTINUOUS
 62
     3
 10
21420.018184999972
 20
15973.986166500001
 30
0.0
 11
21390.020559999972
 21
15973.986166500001
 31
0.0
  0
LINE
  5
3791
  8
2-0
  6
CONTINUOUS
 62
     3
 10
21390.020559999972
 20
15973.986166500001
 30
0.0
 11
21390.020559999972
 21
16010.9863375
 31
0.0
  0
LINE
  5
3792
  8
2-0
  6
CONTINUOUS
 62
     3
 10
21420.018184999972
 20
16010.9863375
 30
0.0
 11
21390.020559999972
 21
16010.9863375
 31
0.0
  0
LINE
  5
3793
  8
2-0
  6
CONTINUOUS
 62
     3
 10
21420.018184999972
 20
16004.983447500001
 30
0.0
 11
21420.018184999972
 21
16010.9863375
 31
0.0
  0
LINE
  5
3794
  8
2-0
  6
CONTINUOUS
 62
     3
 10
21420.018184999972
 20
16021.08188249999
 30
0.0
 11
21390.020559999972
 21
16021.08188249999
 31
0.0
  0
LINE
  5
3795
  8
2-0
  6
CONTINUOUS
 62
     3
 10
21420.018184999972
 20
16003.074201499991
 30
0.0
 11
21420.018184999972
 21
16021.08188249999
 31
0.0
  0
LINE
  5
3796
  8
2-0
  6
CONTINUOUS
 62
     3
 10
21395.024782999972
 20
16003.074201499991
 30
0.0
 11
21420.018184999972
 21
16003.074201499991
 31
0.0
  0
LINE
  5
3797
  8
2-0
  6
CONTINUOUS
 62
     3
 10
21395.024782999972
 20
16008.0804045
 30
0.0
 11
21395.024782999972
 21
16003.074201499991
 31
0.0
  0
LINE
  5
3798
  8
2-0
  6
CONTINUOUS
 62
     3
 10
21402.022380999959
 20
16008.0804045
 30
0.0
 11
21395.024782999972
 21
16008.0804045
 31
0.0
  0
LINE
  5
3799
  8
2-0
  6
CONTINUOUS
 62
     3
 10
21402.022380999959
 20
15307.320421
 30
0.0
 11
21395.024782999972
 21
15307.320421
 31
0.0
  0
LINE
  5
379A
  8
2-0
  6
CONTINUOUS
 62
     3
 10
21395.024782999972
 20
15307.320421
 30
0.0
 11
21395.024782999972
 21
15302.326096000001
 31
0.0
  0
LINE
  5
379B
  8
2-0
  6
CONTINUOUS
 62
     3
 10
21395.024782999972
 20
15302.326096000001
 30
0.0
 11
21420.018184999972
 21
15302.326096000001
 31
0.0
  0
LINE
  5
379C
  8
2-0
  6
CONTINUOUS
 62
     3
 10
21420.018184999972
 20
15302.326096000001
 30
0.0
 11
21420.018184999972
 21
15320.32189900001
 31
0.0
  0
LINE
  5
379D
  8
2-0
  6
CONTINUOUS
 62
     3
 10
21420.018184999972
 20
15320.32189900001
 30
0.0
 11
21390.020559999972
 21
15320.32189900001
 31
0.0
  0
LINE
  5
379E
  8
2-0
  6
CONTINUOUS
 62
     3
 10
21420.018184999972
 20
15304.22445399999
 30
0.0
 11
21420.018184999972
 21
15310.226354
 31
0.0
  0
LINE
  5
379F
  8
2-0
  6
CONTINUOUS
 62
     3
 10
21420.018184999972
 20
15310.226354
 30
0.0
 11
21390.020559999972
 21
15310.226354
 31
0.0
  0
LINE
  5
37A0
  8
2-0
  6
CONTINUOUS
 62
     3
 10
21390.020559999972
 20
15273.22717300001
 30
0.0
 11
21390.020559999972
 21
15310.226354
 31
0.0
  0
LINE
  5
37A1
  8
2-0
  6
CONTINUOUS
 62
     3
 10
21420.018184999972
 20
15273.22717300001
 30
0.0
 11
21390.020559999972
 21
15273.22717300001
 31
0.0
  0
LINE
  5
37A2
  8
2-0
  6
CONTINUOUS
 62
     3
 10
21420.018184999972
 20
15279.224124
 30
0.0
 11
21420.018184999972
 21
15273.22717300001
 31
0.0
  0
LINE
  5
37A3
  8
2-0
  6
CONTINUOUS
 62
     3
 10
21420.018184999972
 20
15263.12568899999
 30
0.0
 11
21390.020559999972
 21
15263.12568899999
 31
0.0
  0
LINE
  5
37A4
  8
2-0
  6
CONTINUOUS
 62
     3
 10
21420.018184999972
 20
15281.13336999999
 30
0.0
 11
21420.018184999972
 21
15263.12568899999
 31
0.0
  0
LINE
  5
37A5
  8
2-0
  6
CONTINUOUS
 62
     3
 10
21395.024782999972
 20
15281.13336999999
 30
0.0
 11
21420.018184999972
 21
15281.13336999999
 31
0.0
  0
LINE
  5
37A6
  8
2-0
  6
CONTINUOUS
 62
     3
 10
21395.024782999972
 20
15276.133106000019
 30
0.0
 11
21395.024782999972
 21
15281.13336999999
 31
0.0
  0
LINE
  5
37A7
  8
2-0
  6
CONTINUOUS
 62
     3
 10
21402.022380999959
 20
15276.133106000019
 30
0.0
 11
21395.024782999972
 21
15276.133106000019
 31
0.0
  0
LINE
  5
37A8
  8
2-0
  6
CONTINUOUS
 62
     3
 10
21390.020559999972
 20
16668.373842000012
 30
0.0
 11
21390.020559999972
 21
16021.08188249999
 31
0.0
  0
LINE
  5
37A9
  8
2-0
  6
CONTINUOUS
 62
     3
 10
21390.020559999972
 20
16822.98413999999
 30
0.0
 11
21390.020559999972
 21
16677.982424999991
 31
0.0
  0
LINE
  5
37AA
  8
2-0
  6
CONTINUOUS
 62
     3
 10
21477.907225999981
 20
16792.984536
 30
0.0
 11
21477.907225999981
 21
16707.987968000001
 31
0.0
  0
LINE
  5
37AB
  8
2-0
  6
CONTINUOUS
 62
     3
 10
21402.022380999959
 20
14574.892099000001
 30
0.0
 11
21395.024782999972
 21
14574.892099000001
 31
0.0
  0
LINE
  5
37AC
  8
2-0
  6
CONTINUOUS
 62
     3
 10
21395.024782999972
 20
14574.892099000001
 30
0.0
 11
21395.024782999972
 21
14579.88642500001
 31
0.0
  0
LINE
  5
37AD
  8
2-0
  6
CONTINUOUS
 62
     3
 10
21395.024782999972
 20
14579.88642500001
 30
0.0
 11
21420.018184999972
 21
14579.88642500001
 31
0.0
  0
LINE
  5
37AE
  8
2-0
  6
CONTINUOUS
 62
     3
 10
21420.018184999972
 20
14579.88642500001
 30
0.0
 11
21420.018184999972
 21
14561.890621
 31
0.0
  0
LINE
  5
37AF
  8
2-0
  6
CONTINUOUS
 62
     3
 10
21420.018184999972
 20
14561.890621
 30
0.0
 11
21390.020559999972
 21
14561.890621
 31
0.0
  0
LINE
  5
37B0
  8
2-0
  6
CONTINUOUS
 62
     3
 10
21420.018184999972
 20
14577.989056
 30
0.0
 11
21420.018184999972
 21
14571.98616600001
 31
0.0
  0
LINE
  5
37B1
  8
2-0
  6
CONTINUOUS
 62
     3
 10
21420.018184999972
 20
14571.98616600001
 30
0.0
 11
21390.020559999972
 21
14571.98616600001
 31
0.0
  0
LINE
  5
37B2
  8
2-0
  6
CONTINUOUS
 62
     3
 10
21390.020559999972
 20
14571.98616600001
 30
0.0
 11
21390.020559999972
 21
14608.986337999981
 31
0.0
  0
LINE
  5
37B3
  8
2-0
  6
CONTINUOUS
 62
     3
 10
21420.018184999972
 20
14608.986337999981
 30
0.0
 11
21390.020559999972
 21
14608.986337999981
 31
0.0
  0
LINE
  5
37B4
  8
2-0
  6
CONTINUOUS
 62
     3
 10
21420.018184999972
 20
14602.989385999999
 30
0.0
 11
21420.018184999972
 21
14608.986337999981
 31
0.0
  0
LINE
  5
37B5
  8
2-0
  6
CONTINUOUS
 62
     3
 10
21420.018184999972
 20
14619.086831000001
 30
0.0
 11
21390.020559999972
 21
14619.086831000001
 31
0.0
  0
LINE
  5
37B6
  8
2-0
  6
CONTINUOUS
 62
     3
 10
21420.018184999972
 20
14601.08014
 30
0.0
 11
21420.018184999972
 21
14619.086831000001
 31
0.0
  0
LINE
  5
37B7
  8
2-0
  6
CONTINUOUS
 62
     3
 10
21395.024782999972
 20
14601.08014
 30
0.0
 11
21420.018184999972
 21
14601.08014
 31
0.0
  0
LINE
  5
37B8
  8
2-0
  6
CONTINUOUS
 62
     3
 10
21395.024782999972
 20
14606.085353
 30
0.0
 11
21395.024782999972
 21
14601.08014
 31
0.0
  0
LINE
  5
37B9
  8
2-0
  6
CONTINUOUS
 62
     3
 10
21402.022380999959
 20
14606.085353
 30
0.0
 11
21395.024782999972
 21
14606.085353
 31
0.0
  0
LINE
  5
37BA
  8
2-0
  6
CONTINUOUS
 62
     3
 10
21420.018184999972
 20
13548.488179
 30
0.0
 11
21420.018184999972
 21
13554.493047999989
 31
0.0
  0
LINE
  5
37BB
  8
2-0
  6
CONTINUOUS
 62
     3
 10
21420.018184999972
 20
13554.493047999989
 30
0.0
 11
21390.020559999972
 21
13554.493047999989
 31
0.0
  0
LINE
  5
37BC
  8
2-0
  6
CONTINUOUS
 62
     3
 10
21390.020559999972
 20
13554.493047999989
 30
0.0
 11
21390.020559999972
 21
13439.488957
 31
0.0
  0
LINE
  5
37BD
  8
2-0
  6
CONTINUOUS
 62
     3
 10
21390.020559999972
 20
13439.488957
 30
0.0
 11
21475.019107999971
 21
13439.488957
 31
0.0
  0
LINE
  5
37BE
  8
2-0
  6
CONTINUOUS
 62
     3
 10
21475.019107999971
 20
13439.488957
 30
0.0
 11
21475.019107999971
 21
13524.484536
 31
0.0
  0
LINE
  5
37BF
  8
2-0
  6
CONTINUOUS
 62
     3
 10
21475.019107999971
 20
13524.484536
 30
0.0
 11
21443.02216999996
 21
13524.484536
 31
0.0
  0
LINE
  5
37C0
  8
2-0
  6
CONTINUOUS
 62
     3
 10
21402.022380999959
 20
13551.522781
 30
0.0
 11
21395.024782999972
 21
13551.522781
 31
0.0
  0
LINE
  5
37C1
  8
2-0
  6
CONTINUOUS
 62
     3
 10
21395.024782999972
 20
13551.522781
 30
0.0
 11
21395.024782999972
 21
13546.52548599998
 31
0.0
  0
LINE
  5
37C2
  8
2-0
  6
CONTINUOUS
 62
     3
 10
21395.024782999972
 20
13546.52548599998
 30
0.0
 11
21420.018184999972
 21
13546.52548599998
 31
0.0
  0
LINE
  5
37C3
  8
2-0
  6
CONTINUOUS
 62
     3
 10
21420.018184999972
 20
13546.52548599998
 30
0.0
 11
21420.018184999972
 21
13564.524259
 31
0.0
  0
LINE
  5
37C4
  8
2-0
  6
CONTINUOUS
 62
     3
 10
21420.018184999972
 20
13564.524259
 30
0.0
 11
21390.020559999972
 21
13564.524259
 31
0.0
  0
LINE
  5
37C5
  8
2-0
  6
CONTINUOUS
 62
     3
 10
21390.020559999972
 20
14619.086831000001
 30
0.0
 11
21390.020559999972
 21
15263.12568899999
 31
0.0
  0
LINE
  5
37C6
  8
2-0
  6
CONTINUOUS
 62
     3
 10
21390.020559999972
 20
18238.081387999999
 30
0.0
 11
21390.020559999972
 21
18881.892105499981
 31
0.0
  0
LINE
  5
37C7
  8
2-0
  6
CONTINUOUS
 62
     3
 10
21481.022987999972
 20
18166.984997999982
 30
0.0
 11
21434.019318999981
 21
18166.984997999982
 31
0.0
  0
LINE
  5
37C8
  8
2-0
  6
CONTINUOUS
 62
     3
 10
21434.019318999981
 20
18251.985526
 30
0.0
 11
21481.022987999972
 21
18251.985526
 31
0.0
  0
LINE
  5
37C9
  8
2-0
  6
CONTINUOUS
 62
     3
 10
21434.019318999981
 20
18166.984997999982
 30
0.0
 11
21434.019318999981
 21
18191.988297
 31
0.0
  0
LINE
  5
37CA
  8
2-0
  6
CONTINUOUS
 62
     3
 10
21434.019318999981
 20
18226.984206000001
 30
0.0
 11
21434.019318999981
 21
18251.985526
 31
0.0
  0
LINE
  5
37CB
  8
2-0
  6
CONTINUOUS
 62
     3
 10
21481.022987999972
 20
18251.985526
 30
0.0
 11
21481.022987999972
 21
18166.984997999982
 31
0.0
  0
LINE
  5
37CC
  8
2-0
  6
CONTINUOUS
 62
     3
 10
21390.020559999972
 20
15963.88567249999
 30
0.0
 11
21390.020559999972
 21
15320.32189900001
 31
0.0
  0
LINE
  5
37CD
  8
2-0
  6
CONTINUOUS
 62
     3
 10
21481.022987999972
 20
15248.987967999999
 30
0.0
 11
21434.019318999981
 21
15248.987967999999
 31
0.0
  0
LINE
  5
37CE
  8
2-0
  6
CONTINUOUS
 62
     3
 10
21434.019318999981
 20
15333.984535999991
 30
0.0
 11
21481.022987999972
 21
15333.984535999991
 31
0.0
  0
LINE
  5
37CF
  8
2-0
  6
CONTINUOUS
 62
     3
 10
21434.019318999981
 20
15248.987967999999
 30
0.0
 11
21434.019318999981
 21
15273.983349
 31
0.0
  0
LINE
  5
37D0
  8
2-0
  6
CONTINUOUS
 62
     3
 10
21434.019318999981
 20
15308.98321700001
 30
0.0
 11
21434.019318999981
 21
15333.984535999991
 31
0.0
  0
LINE
  5
37D1
  8
2-0
  6
CONTINUOUS
 62
     3
 10
21481.022987999972
 20
15333.984535999991
 30
0.0
 11
21481.022987999972
 21
15248.987967999999
 31
0.0
  0
LINE
  5
37D2
  8
2-0
  6
CONTINUOUS
 62
     3
 10
24042.51514899997
 20
19595.988364000012
 30
0.0
 11
24042.51514899997
 21
19710.984537000011
 31
0.0
  0
LINE
  5
37D3
  8
2-0
  6
CENTER2
 62
     6
 10
20103.062287999968
 20
19668.486251999992
 30
0.0
 11
24892.51646899998
 21
19668.486251999992
 31
0.0
  0
LINE
  5
37D4
  8
2-0
  6
CENTER2
 62
     6
 10
20103.062287999968
 20
16750.486251999992
 30
0.0
 11
24892.51646899998
 21
16750.486251999992
 31
0.0
  0
LINE
  5
37D5
  8
2-0
  6
CENTER2
 62
     6
 10
20103.062287999968
 20
13481.986252000001
 30
0.0
 11
24892.51646899998
 21
13481.986252000001
 31
0.0
  0
LINE
  5
37D6
  8
2-0
  6
CONTINUOUS
 62
     3
 10
21390.020559999972
 20
19625.987968000001
 30
0.0
 11
23961.51324899996
 21
19625.987968000001
 31
0.0
  0
LINE
  5
37D7
  8
2-0
  6
CONTINUOUS
 62
     3
 10
21390.020559999972
 20
13918.02398200001
 30
0.0
 11
21390.020559999972
 21
14561.890621
 31
0.0
  0
LINE
  5
37D8
  8
2-0
  6
CENTER2
 62
     6
 10
21432.516864999969
 20
20910.984537000018
 30
0.0
 11
21432.516864999969
 21
12856.222818
 31
0.0
  0
LINE
  5
37D9
  8
2-0
  6
CENTER2
 62
     6
 10
24000.01686499998
 20
20910.984537000018
 30
0.0
 11
24000.01686499998
 21
12856.222818
 31
0.0
  0
LINE
  5
37DA
  8
2-0
  6
CONTINUOUS
 62
     3
 10
24042.51514899997
 20
19585.690908
 30
0.0
 11
24042.51514899997
 21
18939.082377499992
 31
0.0
  0
LINE
  5
37DB
  8
2-0
  6
CONTINUOUS
 62
     3
 10
21390.020559999972
 20
19585.690908
 30
0.0
 11
21390.020559999972
 21
18939.082377499981
 31
0.0
  0
LINE
  5
37DC
  8
2-0
  6
CONTINUOUS
 62
     3
 10
21402.022380999959
 20
13873.89259400001
 30
0.0
 11
21395.024782999972
 21
13873.89259400001
 31
0.0
  0
LINE
  5
37DD
  8
2-0
  6
CONTINUOUS
 62
     3
 10
21395.024782999972
 20
13873.89259400001
 30
0.0
 11
21395.024782999972
 21
13878.886920000001
 31
0.0
  0
LINE
  5
37DE
  8
2-0
  6
CONTINUOUS
 62
     3
 10
21395.024782999972
 20
13878.886920000001
 30
0.0
 11
21420.018184999972
 21
13878.886920000001
 31
0.0
  0
LINE
  5
37DF
  8
2-0
  6
CONTINUOUS
 62
     3
 10
21420.018184999972
 20
13878.886920000001
 30
0.0
 11
21420.018184999972
 21
13860.89111600001
 31
0.0
  0
LINE
  5
37E0
  8
2-0
  6
CONTINUOUS
 62
     3
 10
21420.018184999972
 20
13860.89111600001
 30
0.0
 11
21390.020559999972
 21
13860.89111600001
 31
0.0
  0
LINE
  5
37E1
  8
2-0
  6
CONTINUOUS
 62
     3
 10
21420.018184999972
 20
13876.988562
 30
0.0
 11
21420.018184999972
 21
13870.986661000001
 31
0.0
  0
LINE
  5
37E2
  8
2-0
  6
CONTINUOUS
 62
     3
 10
21420.018184999972
 20
13870.986661000001
 30
0.0
 11
21390.020559999972
 21
13870.986661000001
 31
0.0
  0
LINE
  5
37E3
  8
2-0
  6
CONTINUOUS
 62
     3
 10
21390.020559999972
 20
13870.986661000001
 30
0.0
 11
21390.020559999972
 21
13907.98584299998
 31
0.0
  0
LINE
  5
37E4
  8
2-0
  6
CONTINUOUS
 62
     3
 10
21420.018184999972
 20
13907.98584299998
 30
0.0
 11
21390.020559999972
 21
13907.98584299998
 31
0.0
  0
LINE
  5
37E5
  8
2-0
  6
CONTINUOUS
 62
     3
 10
21420.018184999972
 20
13901.98988100001
 30
0.0
 11
21420.018184999972
 21
13907.98584299998
 31
0.0
  0
LINE
  5
37E6
  8
2-0
  6
CONTINUOUS
 62
     3
 10
21420.018184999972
 20
13918.087326000001
 30
0.0
 11
21390.020559999972
 21
13918.087326000001
 31
0.0
  0
LINE
  5
37E7
  8
2-0
  6
CONTINUOUS
 62
     3
 10
21420.018184999972
 20
13900.07964599998
 30
0.0
 11
21420.018184999972
 21
13918.087326000001
 31
0.0
  0
LINE
  5
37E8
  8
2-0
  6
CONTINUOUS
 62
     3
 10
21395.024782999972
 20
13900.07964599998
 30
0.0
 11
21420.018184999972
 21
13900.07964599998
 31
0.0
  0
LINE
  5
37E9
  8
2-0
  6
CONTINUOUS
 62
     3
 10
21395.024782999972
 20
13905.085848000001
 30
0.0
 11
21395.024782999972
 21
13900.07964599998
 31
0.0
  0
LINE
  5
37EA
  8
2-0
  6
CONTINUOUS
 62
     3
 10
21402.022380999959
 20
13905.085848000001
 30
0.0
 11
21395.024782999972
 21
13905.085848000001
 31
0.0
  0
LINE
  5
37EB
  8
2-0
  6
CONTINUOUS
 62
     3
 10
21390.020559999972
 20
13564.524259
 30
0.0
 11
21390.020559999972
 21
13860.89111600001
 31
0.0
  0
LINE
  5
37EC
  8
2-0
  6
CONTINUOUS
 62
     3
 10
21471.01850099998
 20
13524.484536
 30
0.0
 11
21471.01850099998
 21
19710.984537000011
 31
0.0
  0
LINE
  5
37ED
  8
2-0
  6
CONTINUOUS
 62
     3
 10
24030.51332799999
 20
13873.89259400001
 30
0.0
 11
24037.51488499996
 21
13873.89259400001
 31
0.0
  0
LINE
  5
37EE
  8
2-0
  6
CONTINUOUS
 62
     3
 10
24037.51488499996
 20
13873.89259400001
 30
0.0
 11
24037.51488499996
 21
13878.886920000001
 31
0.0
  0
LINE
  5
37EF
  8
2-0
  6
CONTINUOUS
 62
     3
 10
24037.51488499996
 20
13878.886920000001
 30
0.0
 11
24012.517524999981
 21
13878.886920000001
 31
0.0
  0
LINE
  5
37F0
  8
2-0
  6
CONTINUOUS
 62
     3
 10
24012.517524999981
 20
13878.886920000001
 30
0.0
 11
24012.517524999981
 21
13860.89111600001
 31
0.0
  0
LINE
  5
37F1
  8
2-0
  6
CONTINUOUS
 62
     3
 10
24012.517524999981
 20
13860.89111600001
 30
0.0
 11
24042.51514899997
 21
13860.89111600001
 31
0.0
  0
LINE
  5
37F2
  8
2-0
  6
CONTINUOUS
 62
     3
 10
24012.517524999981
 20
13876.988562
 30
0.0
 11
24012.517524999981
 21
13870.986661000001
 31
0.0
  0
LINE
  5
37F3
  8
2-0
  6
CONTINUOUS
 62
     3
 10
24012.517524999981
 20
13870.986661000001
 30
0.0
 11
24042.51514899997
 21
13870.986661000001
 31
0.0
  0
LINE
  5
37F4
  8
2-0
  6
CONTINUOUS
 62
     3
 10
24042.51514899997
 20
13870.986661000001
 30
0.0
 11
24042.51514899997
 21
13907.98584299998
 31
0.0
  0
LINE
  5
37F5
  8
2-0
  6
CONTINUOUS
 62
     3
 10
24012.517524999981
 20
13907.98584299998
 30
0.0
 11
24042.51514899997
 21
13907.98584299998
 31
0.0
  0
LINE
  5
37F6
  8
2-0
  6
CONTINUOUS
 62
     3
 10
24012.517524999981
 20
13901.98988100002
 30
0.0
 11
24012.517524999981
 21
13907.98584299998
 31
0.0
  0
LINE
  5
37F7
  8
2-0
  6
CONTINUOUS
 62
     3
 10
24012.517524999981
 20
13918.087326000001
 30
0.0
 11
24042.51514899997
 21
13918.087326000001
 31
0.0
  0
LINE
  5
37F8
  8
2-0
  6
CONTINUOUS
 62
     3
 10
24012.517524999981
 20
13900.07964599998
 30
0.0
 11
24012.517524999981
 21
13918.087326000001
 31
0.0
  0
LINE
  5
37F9
  8
2-0
  6
CONTINUOUS
 62
     3
 10
24037.51488499996
 20
13900.07964599998
 30
0.0
 11
24012.517524999981
 21
13900.07964599998
 31
0.0
  0
LINE
  5
37FA
  8
2-0
  6
CONTINUOUS
 62
     3
 10
24037.51488499996
 20
13905.085848000001
 30
0.0
 11
24037.51488499996
 21
13900.07964599998
 31
0.0
  0
LINE
  5
37FB
  8
2-0
  6
CONTINUOUS
 62
     3
 10
24030.51332799999
 20
13905.085848000001
 30
0.0
 11
24037.51488499996
 21
13905.085848000001
 31
0.0
  0
LINE
  5
37FC
  8
2-0
  6
CONTINUOUS
 62
     3
 10
24042.51514899997
 20
13564.524259
 30
0.0
 11
24042.51514899997
 21
13860.89111600001
 31
0.0
  0
LINE
  5
37FD
  8
2-0
  6
CONTINUOUS
 62
     3
 10
23961.51324899996
 20
13524.484536
 30
0.0
 11
23961.51324899996
 21
19710.984537000011
 31
0.0
  0
CIRCLE
  5
37FE
  8
2-0
  6
CONTINUOUS
 62
     4
 10
19903.06459799995
 20
19668.486251999992
 30
0.0
 40
200.00001
  0
CIRCLE
  5
37FF
  8
2-0
  6
CONTINUOUS
 62
     4
 10
19903.06459799995
 20
16750.486251999992
 30
0.0
 40
200.00001
  0
CIRCLE
  5
3800
  8
2-0
  6
CONTINUOUS
 62
     4
 10
19903.06459799995
 20
13481.986252000001
 30
0.0
 40
200.00001
  0
CIRCLE
  5
3801
  8
2-0
  6
CONTINUOUS
 62
     4
 10
21432.516864999969
 20
21110.989156000011
 30
0.0
 40
200.00001
  0
TEXT
  5
3802
  8
2-0
  6
CONTINUOUS
 62
     7
 10
22396.862171999979
 20
12921.987374
 30
0.0
 40
160.0
  1
前柱（右）
 50
0.000213
 72
     4
 11
22812.861874593
 21
13001.988920500789
 31
0.0
  0
TEXT
  5
3803
  8
2-0
  6
CONTINUOUS
 62
     7
 10
22413.561390999981
 20
17951.609418000011
 30
0.0
 40
160.0
  1
補強柱 後
 50
359.99984199999989
 72
     4
 11
22824.228278274699
 21
18031.608285537
 31
0.0
  0
TEXT
  5
3804
  8
2-0
  6
CONTINUOUS
 62
     7
 10
22601.457294999978
 20
16200.97939000001
 30
0.0
 40
160.0
  1
壁パネル
 50
359.99982299999999
 72
     4
 11
22964.12420880354
 21
16280.978269637881
 31
0.0
  0
TEXT
  5
3805
  8
2-0
  6
CONTINUOUS
 62
     7
 10
22321.454390999981
 20
17038.167286000022
 30
0.0
 40
160.0
  1
中柱（左右）
 50
0.000354
 72
     4
 11
22838.78723004619
 21
17118.170482324669
 31
0.0
  0
TEXT
  5
3806
  8
2-0
  6
CONTINUOUS
 62
     7
 10
23001.456634999951
 20
13895.02863999999
 30
0.0
 40
160.0
  1
下枠
 50
0.001063
 72
     4
 11
23172.12181740925
 21
13975.031806339281
 31
0.0
  0
TEXT
  5
3807
  8
2-0
  6
CONTINUOUS
 62
     7
 10
22413.56139099997
 20
15033.84992900002
 30
0.0
 40
160.0
  1
補強柱 前
 50
359.99937
 72
     4
 11
22824.22893728776
 21
15113.845413479339
 31
0.0
  0
TEXT
  5
3808
  8
2-0
  6
CONTINUOUS
 62
     7
 10
22496.42205899999
 20
18641.436024499992
 30
0.0
 40
160.0
  1
間柱（側）
 72
     4
 11
22917.755392333322
 21
18721.436024499992
 31
0.0
  0
TEXT
  5
3809
  8
2-0
  6
CONTINUOUS
 62
     7
 10
24815.012377999981
 20
20520.983745000009
 30
0.0
 40
160.0
  1
後柱（左右）
 50
0.000354
 72
     4
 11
25327.011883712959
 21
20600.986908372841
 31
0.0
  0
TEXT
  5
380A
  8
2-0
  6
CONTINUOUS
 62
     7
 10
19855.065230999971
 20
19574.005810000021
 30
0.0
 40
160.0
  1
C
 72
     4
 11
19908.3985643333
 21
19654.005810000021
 31
0.0
  0
TEXT
  5
380B
  8
2-0
  6
CONTINUOUS
 62
     7
 10
19855.285946999971
 20
16680.092170000022
 30
0.0
 40
160.0
  1
B
 72
     4
 11
19908.6192803333
 21
16760.092170000022
 31
0.0
  0
TEXT
  5
380C
  8
2-0
  6
CONTINUOUS
 62
     7
 10
19855.32850699998
 20
13393.379040999989
 30
0.0
 40
160.0
  1
A
 72
     4
 11
19908.661840333309
 21
13473.379040999989
 31
0.0
  0
TEXT
  5
380D
  8
2-0
  6
CONTINUOUS
 62
     7
 10
21388.310255999972
 20
21022.221604000009
 30
0.0
 40
160.0
  1
1
 72
     4
 11
21414.976922666639
 21
21102.221604000009
 31
0.0
  0
LINE
  5
380E
  8
2-0
  6
CONTINUOUS
 62
     3
 10
23260.517445999962
 20
19710.984537000011
 30
0.0
 11
23223.516283999968
 21
19710.984537000011
 31
0.0
  0
LINE
  5
380F
  8
2-0
  6
CONTINUOUS
 62
     3
 10
23260.517445999962
 20
19680.980973999998
 30
0.0
 11
23260.517445999962
 21
19710.984537000011
 31
0.0
  0
LINE
  5
3810
  8
2-0
  6
CONTINUOUS
 62
     3
 10
23254.517524999959
 20
19680.980973999998
 30
0.0
 11
23260.517445999962
 21
19680.980973999998
 31
0.0
  0
LINE
  5
3811
  8
2-0
  6
CONTINUOUS
 62
     3
 10
23270.614969999981
 20
19680.980973999998
 30
0.0
 11
23270.614969999981
 21
19710.984537000011
 31
0.0
  0
LINE
  5
3812
  8
2-0
  6
CONTINUOUS
 62
     3
 10
23252.61124899998
 20
19680.980973999998
 30
0.0
 11
23270.614969999981
 21
19680.980973999998
 31
0.0
  0
LINE
  5
3813
  8
2-0
  6
CONTINUOUS
 62
     3
 10
23252.61124899998
 20
19705.990211000011
 30
0.0
 11
23252.61124899998
 21
19680.980973999998
 31
0.0
  0
LINE
  5
3814
  8
2-0
  6
CONTINUOUS
 62
     3
 10
23257.611512999989
 20
19705.990211000011
 30
0.0
 11
23252.61124899998
 21
19705.990211000011
 31
0.0
  0
LINE
  5
3815
  8
2-0
  6
CONTINUOUS
 62
     3
 10
23257.611512999989
 20
19698.984695000021
 30
0.0
 11
23257.611512999989
 21
19705.990211000011
 31
0.0
  0
LINE
  5
3816
  8
2-0
  6
CONTINUOUS
 62
     3
 10
23226.42221799996
 20
19698.984695000021
 30
0.0
 11
23226.42221799996
 21
19705.990211000011
 31
0.0
  0
LINE
  5
3817
  8
2-0
  6
CONTINUOUS
 62
     3
 10
23226.42221799996
 20
19705.990211000011
 30
0.0
 11
23231.42248199998
 21
19705.990211000011
 31
0.0
  0
LINE
  5
3818
  8
2-0
  6
CONTINUOUS
 62
     3
 10
23231.42248199998
 20
19705.990211000011
 30
0.0
 11
23231.42248199998
 21
19680.980973999998
 31
0.0
  0
LINE
  5
3819
  8
2-0
  6
CONTINUOUS
 62
     3
 10
23231.42248199998
 20
19680.980973999998
 30
0.0
 11
23213.42271899998
 21
19680.980973999998
 31
0.0
  0
LINE
  5
381A
  8
2-0
  6
CONTINUOUS
 62
     3
 10
23213.42271899998
 20
19680.980973999998
 30
0.0
 11
23213.42271899998
 21
19710.984537000011
 31
0.0
  0
LINE
  5
381B
  8
2-0
  6
CONTINUOUS
 62
     3
 10
23229.516204999989
 20
19680.980973999998
 30
0.0
 11
23223.516283999968
 21
19680.980973999998
 31
0.0
  0
LINE
  5
381C
  8
2-0
  6
CONTINUOUS
 62
     3
 10
23223.516283999968
 20
19680.980973999998
 30
0.0
 11
23223.516283999968
 21
19710.984537000011
 31
0.0
  0
LINE
  5
381D
  8
2-0
  6
CONTINUOUS
 62
     3
 10
22525.416279499961
 20
19698.984695000021
 30
0.0
 11
22525.416279499961
 21
19705.990211000011
 31
0.0
  0
LINE
  5
381E
  8
2-0
  6
CONTINUOUS
 62
     3
 10
22525.416279499961
 20
19705.990211000011
 30
0.0
 11
22530.416542499981
 21
19705.990211000011
 31
0.0
  0
LINE
  5
381F
  8
2-0
  6
CONTINUOUS
 62
     3
 10
22530.416542499981
 20
19705.990211000011
 30
0.0
 11
22530.416542499981
 21
19680.980973999998
 31
0.0
  0
LINE
  5
3820
  8
2-0
  6
CONTINUOUS
 62
     3
 10
22530.416542499981
 20
19680.980973999998
 30
0.0
 11
22512.422719499958
 21
19680.980973999998
 31
0.0
  0
LINE
  5
3821
  8
2-0
  6
CONTINUOUS
 62
     3
 10
22512.422719499958
 20
19680.980973999998
 30
0.0
 11
22512.422719499958
 21
19710.984537000011
 31
0.0
  0
LINE
  5
3822
  8
2-0
  6
CONTINUOUS
 62
     3
 10
22528.514225499959
 20
19680.980973999998
 30
0.0
 11
22522.516284499961
 21
19680.980973999998
 31
0.0
  0
LINE
  5
3823
  8
2-0
  6
CONTINUOUS
 62
     3
 10
22522.516284499961
 20
19680.980973999998
 30
0.0
 11
22522.516284499961
 21
19710.984537000011
 31
0.0
  0
LINE
  5
3824
  8
2-0
  6
CONTINUOUS
 62
     3
 10
22559.51744549998
 20
19710.984537000011
 30
0.0
 11
22522.516284499961
 21
19710.984537000011
 31
0.0
  0
LINE
  5
3825
  8
2-0
  6
CONTINUOUS
 62
     3
 10
22559.51744549998
 20
19680.980973999998
 30
0.0
 11
22559.51744549998
 21
19710.984537000011
 31
0.0
  0
LINE
  5
3826
  8
2-0
  6
CONTINUOUS
 62
     3
 10
22553.51158649999
 20
19680.980973999998
 30
0.0
 11
22559.51744549998
 21
19680.980973999998
 31
0.0
  0
LINE
  5
3827
  8
2-0
  6
CONTINUOUS
 62
     3
 10
22569.611010499972
 20
19680.980973999998
 30
0.0
 11
22569.611010499972
 21
19710.984537000011
 31
0.0
  0
LINE
  5
3828
  8
2-0
  6
CONTINUOUS
 62
     3
 10
22551.61520749997
 20
19680.980973999998
 30
0.0
 11
22569.611010499972
 21
19680.980973999998
 31
0.0
  0
LINE
  5
3829
  8
2-0
  6
CONTINUOUS
 62
     3
 10
22551.61520749997
 20
19705.990211000011
 30
0.0
 11
22551.61520749997
 21
19680.980973999998
 31
0.0
  0
LINE
  5
382A
  8
2-0
  6
CONTINUOUS
 62
     3
 10
22556.605573499961
 20
19705.990211000011
 30
0.0
 11
22551.61520749997
 21
19705.990211000011
 31
0.0
  0
LINE
  5
382B
  8
2-0
  6
CONTINUOUS
 62
     3
 10
22556.605573499961
 20
19698.984695000021
 30
0.0
 11
22556.605573499961
 21
19705.990211000011
 31
0.0
  0
LINE
  5
382C
  8
2-0
  6
CONTINUOUS
 62
     3
 10
21868.61002099999
 20
19710.984537000011
 30
0.0
 11
22512.422719499958
 21
19710.984537000011
 31
0.0
  0
LINE
  5
382D
  8
2-0
  6
CONTINUOUS
 62
     3
 10
23917.90049499998
 20
19710.984537000011
 30
0.0
 11
23270.614969999981
 21
19710.984537000011
 31
0.0
  0
LINE
  5
382E
  8
2-0
  6
CONTINUOUS
 62
     3
 10
23213.42271899998
 20
19710.984537000011
 30
0.0
 11
22569.611010499972
 21
19710.984537000011
 31
0.0
  0
LINE
  5
382F
  8
2-0
  6
CONTINUOUS
 62
     3
 10
21855.60854299998
 20
19698.984695000021
 30
0.0
 11
21855.60854299998
 21
19705.990211000011
 31
0.0
  0
LINE
  5
3830
  8
2-0
  6
CONTINUOUS
 62
     3
 10
21855.60854299998
 20
19705.990211000011
 30
0.0
 11
21850.608278999971
 21
19705.990211000011
 31
0.0
  0
LINE
  5
3831
  8
2-0
  6
CONTINUOUS
 62
     3
 10
21850.608278999971
 20
19705.990211000011
 30
0.0
 11
21850.608278999971
 21
19680.980973999998
 31
0.0
  0
LINE
  5
3832
  8
2-0
  6
CONTINUOUS
 62
     3
 10
21850.608278999971
 20
19680.980973999998
 30
0.0
 11
21868.61002099999
 21
19680.980973999998
 31
0.0
  0
LINE
  5
3833
  8
2-0
  6
CONTINUOUS
 62
     3
 10
21868.61002099999
 20
19680.980973999998
 30
0.0
 11
21868.61002099999
 21
19710.984537000011
 31
0.0
  0
LINE
  5
3834
  8
2-0
  6
CONTINUOUS
 62
     3
 10
21852.510595999989
 20
19680.980973999998
 30
0.0
 11
21858.514475999971
 21
19680.980973999998
 31
0.0
  0
LINE
  5
3835
  8
2-0
  6
CONTINUOUS
 62
     3
 10
21858.514475999971
 20
19680.980973999998
 30
0.0
 11
21858.514475999971
 21
19710.984537000011
 31
0.0
  0
LINE
  5
3836
  8
2-0
  6
CONTINUOUS
 62
     3
 10
21821.51925399997
 20
19710.984537000011
 30
0.0
 11
21858.514475999971
 21
19710.984537000011
 31
0.0
  0
LINE
  5
3837
  8
2-0
  6
CONTINUOUS
 62
     3
 10
21821.51925399997
 20
19680.980973999998
 30
0.0
 11
21821.51925399997
 21
19710.984537000011
 31
0.0
  0
LINE
  5
3838
  8
2-0
  6
CONTINUOUS
 62
     3
 10
21827.513235999981
 20
19680.980973999998
 30
0.0
 11
21821.51925399997
 21
19680.980973999998
 31
0.0
  0
LINE
  5
3839
  8
2-0
  6
CONTINUOUS
 62
     3
 10
21811.423708999981
 20
19680.980973999998
 30
0.0
 11
21811.423708999981
 21
19710.984537000011
 31
0.0
  0
LINE
  5
383A
  8
2-0
  6
CONTINUOUS
 62
     3
 10
21829.419511999989
 20
19680.980973999998
 30
0.0
 11
21811.423708999981
 21
19680.980973999998
 31
0.0
  0
LINE
  5
383B
  8
2-0
  6
CONTINUOUS
 62
     3
 10
21829.419511999989
 20
19705.990211000011
 30
0.0
 11
21829.419511999989
 21
19680.980973999998
 31
0.0
  0
LINE
  5
383C
  8
2-0
  6
CONTINUOUS
 62
     3
 10
21824.421227999988
 20
19705.990211000011
 30
0.0
 11
21829.419511999989
 21
19705.990211000011
 31
0.0
  0
LINE
  5
383D
  8
2-0
  6
CONTINUOUS
 62
     3
 10
21824.421227999988
 20
19698.984695000021
 30
0.0
 11
21824.421227999988
 21
19705.990211000011
 31
0.0
  0
LINE
  5
383E
  8
2-0
  6
CONTINUOUS
 62
     3
 10
21515.322106999971
 20
19710.984537000011
 30
0.0
 11
21811.423708999981
 21
19710.984537000011
 31
0.0
  0
LINE
  5
383F
  8
2-0
  6
CONTINUOUS
 62
     3
 10
24042.51514899997
 20
15263.12568899999
 30
0.0
 11
24042.51514899997
 21
14619.086831000001
 31
0.0
  0
LINE
  5
3840
  8
2-0
  6
CONTINUOUS
 62
     3
 10
24042.51514899997
 20
14561.890621
 30
0.0
 11
24042.51514899997
 21
13918.087326000001
 31
0.0
  0
CIRCLE
  5
3841
  8
2-0
  6
CONTINUOUS
 62
     4
 10
24000.01686499998
 20
21110.989156000011
 30
0.0
 40
200.00001
  0
TEXT
  5
3842
  8
2-0
  6
CONTINUOUS
 62
     7
 10
23948.38508199999
 20
21015.463527000022
 30
0.0
 40
160.0
  1
2
 72
     4
 11
24001.718415333318
 21
21095.463527000022
 31
0.0
  0
LINE
  5
3843
  8
0-1
  6
CONTINUOUS
 62
     3
 10
10492.267393
 20
6291.1885389999989
 30
0.0
 11
10492.267393
 21
8152.234418
 31
0.0
  0
LINE
  5
3844
  8
0-1
  6
CONTINUOUS
 62
     3
 10
10512.26844899999
 20
6291.1885389999989
 30
0.0
 11
10512.26844899999
 21
8152.234418
 31
0.0
  0
LINE
  5
3845
  8
0-1
  6
CONTINUOUS
 62
     3
 10
10442.267723000001
 20
6291.1885389999989
 30
0.0
 11
10442.267723000001
 21
8152.234418
 31
0.0
  0
LINE
  5
3846
  8
0-1
  6
CONTINUOUS
 62
     3
 10
10562.267129
 20
6291.1885389999989
 30
0.0
 11
10562.267129
 21
8152.234418
 31
0.0
  0
LINE
  5
3847
  8
0-1
  6
CONTINUOUS
 62
     3
 10
10695.268012999981
 20
6291.1885389999989
 30
0.0
 11
10695.268012999981
 21
8152.234418
 31
0.0
  0
LINE
  5
3848
  8
0-1
  6
CONTINUOUS
 62
     3
 10
10710.267814999999
 20
6291.1885389999989
 30
0.0
 11
10710.267814999999
 21
8152.234418
 31
0.0
  0
LINE
  5
3849
  8
0-1
  6
CONTINUOUS
 62
     3
 10
10309.267828000009
 20
6291.1885389999989
 30
0.0
 11
10309.267828000009
 21
8152.234418
 31
0.0
  0
LINE
  5
384A
  8
0-1
  6
CONTINUOUS
 62
     3
 10
10294.268026000011
 20
6291.1885389999989
 30
0.0
 11
10294.268026000011
 21
8152.234418
 31
0.0
  0
LINE
  5
384B
  8
0-1
  6
CONTINUOUS
 62
     3
 10
11570.767512
 20
8152.234418
 30
0.0
 11
11570.767512
 21
6291.1885389999989
 31
0.0
  0
LINE
  5
384C
  8
0-1
  6
CONTINUOUS
 62
     3
 10
11533.769319999999
 20
8152.234418
 30
0.0
 11
11533.769319999999
 21
6291.1885389999989
 31
0.0
  0
LINE
  5
384D
  8
0-1
  6
CONTINUOUS
 62
     3
 10
10870.768171
 20
8152.234418
 30
0.0
 11
10870.768171
 21
6291.1885389999989
 31
0.0
  0
LINE
  5
384E
  8
0-1
  6
CONTINUOUS
 62
     3
 10
10833.76799999998
 20
8152.234418
 30
0.0
 11
10833.76799999998
 21
6291.1885389999989
 31
0.0
  0
LINE
  5
384F
  8
0-1
  6
CONTINUOUS
 62
     3
 10
12270.76685199999
 20
8152.234418
 30
0.0
 11
12270.76685199999
 21
6291.1885389999989
 31
0.0
  0
LINE
  5
3850
  8
0-1
  6
CONTINUOUS
 62
     3
 10
12233.768659999991
 20
8152.234418
 30
0.0
 11
12233.768659999991
 21
6291.1885389999989
 31
0.0
  0
LINE
  5
3851
  8
0-1
  6
CONTINUOUS
 62
     3
 10
11892.26706299999
 20
6291.1885389999989
 30
0.0
 11
11892.26706299999
 21
8152.234418
 31
0.0
  0
LINE
  5
3852
  8
0-1
  6
CONTINUOUS
 62
     3
 10
11912.268119
 20
6291.1885389999989
 30
0.0
 11
11912.268119
 21
8152.234418
 31
0.0
  0
LINE
  5
3853
  8
0-1
  6
CONTINUOUS
 62
     3
 10
11842.268383000001
 20
6291.1885389999989
 30
0.0
 11
11842.268383000001
 21
8152.234418
 31
0.0
  0
LINE
  5
3854
  8
0-1
  6
CONTINUOUS
 62
     3
 10
11962.26778900001
 20
6291.1885389999989
 30
0.0
 11
11962.26778900001
 21
8152.234418
 31
0.0
  0
LINE
  5
3855
  8
0-1
  6
CONTINUOUS
 62
     3
 10
12095.26768299998
 20
6291.1885389999989
 30
0.0
 11
12095.26768299998
 21
8152.234418
 31
0.0
  0
LINE
  5
3856
  8
0-1
  6
CONTINUOUS
 62
     3
 10
12110.267485
 20
6291.1885389999989
 30
0.0
 11
12110.267485
 21
8152.234418
 31
0.0
  0
LINE
  5
3857
  8
0-1
  6
CONTINUOUS
 62
     3
 10
11709.26749799999
 20
6291.1885389999989
 30
0.0
 11
11709.26749799999
 21
8152.234418
 31
0.0
  0
LINE
  5
3858
  8
0-1
  6
CONTINUOUS
 62
     3
 10
11694.268685999999
 20
6291.1885389999989
 30
0.0
 11
11694.268685999999
 21
8152.234418
 31
0.0
  0
LINE
  5
3859
  8
0-1
  6
CONTINUOUS
 62
     3
 10
10994.267366
 20
6291.1885389999989
 30
0.0
 11
10994.267366
 21
8152.234418
 31
0.0
  0
LINE
  5
385A
  8
0-1
  6
CONTINUOUS
 62
     3
 10
11009.268157999981
 20
6291.1885389999989
 30
0.0
 11
11009.268157999981
 21
8152.234418
 31
0.0
  0
LINE
  5
385B
  8
0-1
  6
CONTINUOUS
 62
     3
 10
11410.268144999991
 20
6291.1885389999989
 30
0.0
 11
11410.268144999991
 21
8152.234418
 31
0.0
  0
LINE
  5
385C
  8
0-1
  6
CONTINUOUS
 62
     3
 10
11395.267352999999
 20
6291.1885389999989
 30
0.0
 11
11395.267352999999
 21
8152.234418
 31
0.0
  0
LINE
  5
385D
  8
0-1
  6
CONTINUOUS
 62
     3
 10
11262.26844899999
 20
6291.1885389999989
 30
0.0
 11
11262.26844899999
 21
8152.234418
 31
0.0
  0
LINE
  5
385E
  8
0-1
  6
CONTINUOUS
 62
     3
 10
11142.26706299999
 20
6291.1885389999989
 30
0.0
 11
11142.26706299999
 21
8152.234418
 31
0.0
  0
LINE
  5
385F
  8
0-1
  6
CONTINUOUS
 62
     3
 10
11212.269768
 20
6291.1885389999989
 30
0.0
 11
11212.269768
 21
8152.234418
 31
0.0
  0
LINE
  5
3860
  8
0-1
  6
CONTINUOUS
 62
     3
 10
11192.26871300001
 20
6291.1885389999989
 30
0.0
 11
11192.26871300001
 21
8152.234418
 31
0.0
  0
LINE
  5
3861
  8
0-1
  6
CONTINUOUS
 62
     3
 10
12394.267036999991
 20
6291.1885389999989
 30
0.0
 11
12394.267036999991
 21
8152.234418
 31
0.0
  0
LINE
  5
3862
  8
0-1
  6
CONTINUOUS
 62
     3
 10
12409.267828
 20
6291.1885389999989
 30
0.0
 11
12409.267828
 21
8152.234418
 31
0.0
  0
LINE
  5
3863
  8
0-1
  6
CONTINUOUS
 62
     3
 10
12542.26871300001
 20
6291.1885389999989
 30
0.0
 11
12542.26871300001
 21
8152.234418
 31
0.0
  0
LINE
  5
3864
  8
0-1
  6
CONTINUOUS
 62
     3
 10
12810.267814999999
 20
6291.1885389999989
 30
0.0
 11
12810.267814999999
 21
8152.234418
 31
0.0
  0
LINE
  5
3865
  8
0-1
  6
CONTINUOUS
 62
     3
 10
12795.269002999999
 20
6291.1885389999989
 30
0.0
 11
12795.269002999999
 21
8152.234418
 31
0.0
  0
LINE
  5
3866
  8
0-1
  6
CONTINUOUS
 62
     3
 10
12662.26811899998
 20
6291.1885389999989
 30
0.0
 11
12662.26811899998
 21
8152.234418
 31
0.0
  0
LINE
  5
3867
  8
0-1
  6
CONTINUOUS
 62
     3
 10
12612.26844899999
 20
6291.1885389999989
 30
0.0
 11
12612.26844899999
 21
8152.234418
 31
0.0
  0
LINE
  5
3868
  8
0-1
  6
CONTINUOUS
 62
     3
 10
12592.269372000001
 20
6291.1885389999989
 30
0.0
 11
12592.269372000001
 21
8152.234418
 31
0.0
  0
LINE
  5
3869
  8
0-1
  6
CONTINUOUS
 62
     3
 10
13420.268343
 20
6291.1885389999989
 30
0.0
 11
13420.268343
 21
8152.234418
 31
0.0
  0
LINE
  5
386A
  8
0-1
  6
CONTINUOUS
 62
     3
 10
13400.269267
 20
6291.1885389999989
 30
0.0
 11
13400.269267
 21
8152.234418
 31
0.0
  0
LINE
  5
386B
  8
0-1
  6
CONTINUOUS
 62
     3
 10
13470.26900299999
 20
6291.1885389999989
 30
0.0
 11
13470.26900299999
 21
8152.234418
 31
0.0
  0
LINE
  5
386C
  8
0-1
  6
CONTINUOUS
 62
     3
 10
13350.268607000011
 20
6291.1885389999989
 30
0.0
 11
13350.268607000011
 21
8152.234418
 31
0.0
  0
LINE
  5
386D
  8
0-1
  6
CONTINUOUS
 62
     3
 10
13217.268712999999
 20
6291.1885389999989
 30
0.0
 11
13217.268712999999
 21
8152.234418
 31
0.0
  0
LINE
  5
386E
  8
0-1
  6
CONTINUOUS
 62
     3
 10
13202.26693099998
 20
6291.1885389999989
 30
0.0
 11
13202.26693099998
 21
8152.234418
 31
0.0
  0
LINE
  5
386F
  8
0-1
  6
CONTINUOUS
 62
     3
 10
13603.268897
 20
6291.1885389999989
 30
0.0
 11
13603.268897
 21
8152.234418
 31
0.0
  0
LINE
  5
3870
  8
0-1
  6
CONTINUOUS
 62
     3
 10
13618.26771
 20
6291.1885389999989
 30
0.0
 11
13618.26771
 21
8152.234418
 31
0.0
  0
LINE
  5
3871
  8
0-1
  6
CONTINUOUS
 62
     3
 10
15718.26771
 20
6291.1885389999989
 30
0.0
 11
15718.26771
 21
8152.234418
 31
0.0
  0
LINE
  5
3872
  8
0-1
  6
CONTINUOUS
 62
     3
 10
15703.268897000011
 20
6291.1885389999989
 30
0.0
 11
15703.268897000011
 21
8152.234418
 31
0.0
  0
LINE
  5
3873
  8
0-1
  6
CONTINUOUS
 62
     3
 10
15302.267920999981
 20
6291.1885389999989
 30
0.0
 11
15302.267920999981
 21
8152.234418
 31
0.0
  0
LINE
  5
3874
  8
0-1
  6
CONTINUOUS
 62
     3
 10
15317.267723000001
 20
6291.1885389999989
 30
0.0
 11
15317.267723000001
 21
8152.234418
 31
0.0
  0
LINE
  5
3875
  8
0-1
  6
CONTINUOUS
 62
     3
 10
15450.268607000011
 20
6291.1885389999989
 30
0.0
 11
15450.268607000011
 21
8152.234418
 31
0.0
  0
LINE
  5
3876
  8
0-1
  6
CONTINUOUS
 62
     3
 10
15570.26801300001
 20
6291.1885389999989
 30
0.0
 11
15570.26801300001
 21
8152.234418
 31
0.0
  0
LINE
  5
3877
  8
0-1
  6
CONTINUOUS
 62
     3
 10
15500.269267000011
 20
6291.1885389999989
 30
0.0
 11
15500.269267000011
 21
8152.234418
 31
0.0
  0
LINE
  5
3878
  8
0-1
  6
CONTINUOUS
 62
     3
 10
15520.268343000011
 20
6291.1885389999989
 30
0.0
 11
15520.268343000011
 21
8152.234418
 31
0.0
  0
LINE
  5
3879
  8
0-1
  6
CONTINUOUS
 62
     3
 10
14820.26900299999
 20
6291.1885389999989
 30
0.0
 11
14820.26900299999
 21
8152.234418
 31
0.0
  0
LINE
  5
387A
  8
0-1
  6
CONTINUOUS
 62
     3
 10
14800.267947
 20
6291.1885389999989
 30
0.0
 11
14800.267947
 21
8152.234418
 31
0.0
  0
LINE
  5
387B
  8
0-1
  6
CONTINUOUS
 62
     3
 10
14870.267683
 20
6291.1885389999989
 30
0.0
 11
14870.267683
 21
8152.234418
 31
0.0
  0
LINE
  5
387C
  8
0-1
  6
CONTINUOUS
 62
     3
 10
14750.269266999991
 20
6291.1885389999989
 30
0.0
 11
14750.269266999991
 21
8152.234418
 31
0.0
  0
LINE
  5
387D
  8
0-1
  6
CONTINUOUS
 62
     3
 10
14617.268383000001
 20
6291.1885389999989
 30
0.0
 11
14617.268383000001
 21
8152.234418
 31
0.0
  0
LINE
  5
387E
  8
0-1
  6
CONTINUOUS
 62
     3
 10
14602.26858099998
 20
6291.1885389999989
 30
0.0
 11
14602.26858099998
 21
8152.234418
 31
0.0
  0
LINE
  5
387F
  8
0-1
  6
CONTINUOUS
 62
     3
 10
15003.26658800001
 20
6291.1885389999989
 30
0.0
 11
15003.26658800001
 21
8152.234418
 31
0.0
  0
LINE
  5
3880
  8
0-1
  6
CONTINUOUS
 62
     3
 10
15018.26836900001
 20
6291.1885389999989
 30
0.0
 11
15018.26836900001
 21
8152.234418
 31
0.0
  0
LINE
  5
3881
  8
0-1
  6
CONTINUOUS
 62
     3
 10
14318.26902900001
 20
6291.1885389999989
 30
0.0
 11
14318.26902900001
 21
8152.234418
 31
0.0
  0
LINE
  5
3882
  8
0-1
  6
CONTINUOUS
 62
     3
 10
14303.267248
 20
6291.1885389999989
 30
0.0
 11
14303.267248
 21
8152.234418
 31
0.0
  0
LINE
  5
3883
  8
0-1
  6
CONTINUOUS
 62
     3
 10
13902.26924
 20
6291.1885389999989
 30
0.0
 11
13902.26924
 21
8152.234418
 31
0.0
  0
LINE
  5
3884
  8
0-1
  6
CONTINUOUS
 62
     3
 10
13917.268053
 20
6291.1885389999989
 30
0.0
 11
13917.268053
 21
8152.234418
 31
0.0
  0
LINE
  5
3885
  8
0-1
  6
CONTINUOUS
 62
     3
 10
14050.266957000011
 20
6291.1885389999989
 30
0.0
 11
14050.266957000011
 21
8152.234418
 31
0.0
  0
LINE
  5
3886
  8
0-1
  6
CONTINUOUS
 62
     3
 10
14170.268343
 20
6291.1885389999989
 30
0.0
 11
14170.268343
 21
8152.234418
 31
0.0
  0
LINE
  5
3887
  8
0-1
  6
CONTINUOUS
 62
     3
 10
14100.268606999991
 20
6291.1885389999989
 30
0.0
 11
14100.268606999991
 21
8152.234418
 31
0.0
  0
LINE
  5
3888
  8
0-1
  6
CONTINUOUS
 62
     3
 10
14120.267683
 20
6291.1885389999989
 30
0.0
 11
14120.267683
 21
8152.234418
 31
0.0
  0
LINE
  5
3889
  8
0-1
  6
CONTINUOUS
 62
     3
 10
13778.76905600001
 20
8152.234418
 30
0.0
 11
13778.76905600001
 21
6291.1885389999989
 31
0.0
  0
LINE
  5
388A
  8
0-1
  6
CONTINUOUS
 62
     3
 10
13741.767894000001
 20
8152.234418
 30
0.0
 11
13741.767894000001
 21
6291.1885389999989
 31
0.0
  0
LINE
  5
388B
  8
0-1
  6
CONTINUOUS
 62
     3
 10
15178.766745999999
 20
8152.234418
 30
0.0
 11
15178.766745999999
 21
6291.1885389999989
 31
0.0
  0
LINE
  5
388C
  8
0-1
  6
CONTINUOUS
 62
     3
 10
15141.767563999991
 20
8152.234418
 30
0.0
 11
15141.767563999991
 21
6291.1885389999989
 31
0.0
  0
LINE
  5
388D
  8
0-1
  6
CONTINUOUS
 62
     3
 10
14478.76839599999
 20
8152.234418
 30
0.0
 11
14478.76839599999
 21
6291.1885389999989
 31
0.0
  0
LINE
  5
388E
  8
0-1
  6
CONTINUOUS
 62
     3
 10
14441.768223999999
 20
8152.234418
 30
0.0
 11
14441.768223999999
 21
6291.1885389999989
 31
0.0
  0
LINE
  5
388F
  8
0-1
  6
CONTINUOUS
 62
     3
 10
15878.76905599999
 20
8152.234418
 30
0.0
 11
15878.76905599999
 21
6291.1885389999989
 31
0.0
  0
LINE
  5
3890
  8
0-1
  6
CONTINUOUS
 62
     3
 10
15841.767894000001
 20
8152.234418
 30
0.0
 11
15841.767894000001
 21
6291.1885389999989
 31
0.0
  0
LINE
  5
3891
  8
0-1
  6
CONTINUOUS
 62
     3
 10
16329.767868000001
 20
6241.1883740000003
 30
0.0
 11
16329.767868000001
 21
6141.1885389999979
 31
0.0
  0
LINE
  5
3892
  8
0-1
  6
CONTINUOUS
 62
     3
 10
16297.267077
 20
8455.5174490000027
 30
0.0
 11
16297.267077
 21
6241.1883740000012
 31
0.0
  0
LINE
  5
3893
  8
0-1
  6
CONTINUOUS
 62
     3
 10
16317.267868000001
 20
8456.0984380000027
 30
0.0
 11
16317.267868000001
 21
6241.1883740000012
 31
0.0
  0
LINE
  5
3894
  8
0-1
  6
CONTINUOUS
 62
     3
 10
16202.26799999998
 20
8152.234418
 30
0.0
 11
16202.26799999998
 21
6241.1883740000012
 31
0.0
  0
LINE
  5
3895
  8
0-1
  6
CONTINUOUS
 62
     3
 10
13006.267868000001
 20
8356.9898809999977
 30
0.0
 11
13006.267868000001
 21
8152.234418
 31
0.0
  0
LINE
  5
3896
  8
0-1
  6
CONTINUOUS
 62
     3
 10
12933.768
 20
8152.234418
 30
0.0
 11
12933.768
 21
6241.1883740000012
 31
0.0
  0
LINE
  5
3897
  8
0-1
  6
CONTINUOUS
 62
     3
 10
13078.76674599999
 20
8152.234418
 30
0.0
 11
13078.76674599999
 21
6241.1883740000012
 31
0.0
  0
LINE
  5
3898
  8
0-1
  6
CONTINUOUS
 62
     3
 10
13078.76674599999
 20
6291.1885389999989
 30
0.0
 11
16202.26799999998
 21
6291.1885389999989
 31
0.0
  0
LINE
  5
3899
  8
0-1
  6
CONTINUOUS
 62
     3
 10
10038.267868000001
 20
6141.1885389999979
 30
0.0
 11
10038.267868000001
 21
6241.1883740000003
 31
0.0
  0
LINE
  5
389A
  8
0-1
  6
CONTINUOUS
 62
     3
 10
10065.76766999999
 20
8268.9908770000002
 30
0.0
 11
10065.76766999999
 21
6241.1883740000012
 31
0.0
  0
LINE
  5
389B
  8
0-1
  6
CONTINUOUS
 62
     3
 10
10045.767868000001
 20
8268.3741496838065
 30
0.0
 11
10045.767868000001
 21
6241.1883740000012
 31
0.0
  0
LINE
  5
389C
  8
0-1
  6
CONTINUOUS
 62
     3
 10
10160.766747
 20
8152.234418
 30
0.0
 11
10160.766747
 21
6241.1883740000012
 31
0.0
  0
LINE
  5
389D
  8
0-1
  6
CONTINUOUS
 62
     3
 10
10038.267868000001
 20
6241.1883740000003
 30
0.0
 11
16329.767868000001
 21
6241.1883740000003
 31
0.0
  0
LINE
  5
389E
  8
0-1
  6
CONTINUOUS
 62
     3
 10
10160.766747
 20
6291.1885389999989
 30
0.0
 11
12933.768
 21
6291.1885389999989
 31
0.0
  0
LINE
  5
389F
  8
0-1
  6
CONTINUOUS
 62
     3
 10
9355.7668129999984
 20
6141.1885389999979
 30
0.0
 11
16329.767868000001
 21
6141.1885389999979
 31
0.0
  0
LINE
  5
38A0
  8
0-1
  6
CONTINUOUS
 62
     3
 10
10065.76766999999
 20
8152.234418
 30
0.0
 11
16297.267077
 21
8152.234418
 31
0.0
  0
LINE
  5
38A1
  8
0-1
  6
CONTINUOUS
 62
     3
 10
9871.4660440000007
 20
8303.1736990000027
 30
0.0
 11
16402.957533000001
 21
8498.6897600000029
 31
0.0
  0
LINE
  5
38A2
  8
0-1
  6
CONTINUOUS
 62
     3
 10
16401.457058
 20
8548.6686450000016
 30
0.0
 11
9869.9665589999986
 21
8353.1515949999957
 31
0.0
  0
LINE
  5
38A3
  8
0-1
  6
CONTINUOUS
 62
     3
 10
9866.8765310000035
 20
8356.0604969999968
 30
0.0
 11
9865.9164640000017
 21
8388.0460529999982
 31
0.0
  0
LINE
  5
38A4
  8
0-1
  6
CONTINUOUS
 62
     3
 10
9870.7652949999992
 20
8393.1932959999976
 30
0.0
 11
16421.22651
 21
8589.2804479999977
 31
0.0
  0
LINE
  5
38A5
  8
0-1
  6
CONTINUOUS
 62
     3
 10
16425.131109999991
 20
8459.3389099999968
 30
0.0
 11
9874.6659359999994
 21
8263.2522529999969
 31
0.0
  0
LINE
  5
38A6
  8
0-1
  6
CONTINUOUS
 62
     3
 10
9869.5181980000016
 20
8268.099599000001
 30
0.0
 11
9868.5591210000039
 21
8300.0856499999973
 31
0.0
  0
LINE
  5
38A7
  8
0-1
  6
CONTINUOUS
 62
     3
 10
9868.2275520000003
 20
8311.0803909999977
 30
0.0
 11
9867.2071099999994
 21
8345.0647660000031
 31
0.0
  0
LINE
  5
38A8
  8
0-1
  6
CONTINUOUS
 62
     3
 10
9870.1160130000044
 20
8348.1538049999981
 30
0.0
 11
16401.608490999992
 21
8543.6713500000023
 31
0.0
  0
LINE
  5
38A9
  8
0-1
  6
CONTINUOUS
 62
     3
 10
16402.808078999991
 20
8503.6880439999986
 30
0.0
 11
9871.3175809999993
 21
8308.1719840000005
 31
0.0
  0
LINE
  5
38AA
  8
0-1
  6
CONTINUOUS
 62
     3
 10
13006.267868000001
 20
8356.9898809999977
 30
0.0
 11
13002.365247
 21
8486.9314190000005
 31
0.0
  0
LINE
  5
38AB
  8
0-1
  6
CONTINUOUS
 62
     3
 10
16392.164207999991
 20
8458.3481609999981
 30
0.0
 11
16388.262577000001
 21
8588.2896989999972
 31
0.0
  0
LINE
  5
38AC
  8
0-1
  6
CONTINUOUS
 62
     3
 10
9883.2580369999996
 20
8393.5684149999979
 30
0.0
 11
9887.1606580000007
 21
8263.6273720000008
 31
0.0
  0
LINE
  5
38AD
  8
0-5
  6
CONTINUOUS
 62
     4
 10
18034.852856000001
 20
6241.1883740000012
 30
0.0
 11
18154.85325199999
 21
6449.0353509999986
 31
0.0
  0
LINE
  5
38AE
  8
0-5
  6
CONTINUOUS
 62
     4
 10
17914.854438999992
 20
6449.0353509999986
 30
0.0
 11
18034.852856000001
 21
6241.1883740000012
 31
0.0
  0
LINE
  5
38AF
  8
0-5
  6
CONTINUOUS
 62
     4
 10
18154.85325199999
 20
6449.0353509999986
 30
0.0
 11
17914.854438999992
 21
6449.0353509999986
 31
0.0
  0
LINE
  5
38B0
  8
0-5
  6
CONTINUOUS
 62
     4
 10
16409.765163000011
 20
6241.1883740000003
 30
0.0
 11
18127.231048999991
 21
6241.1883740000012
 31
0.0
  0
LINE
  5
38B1
  8
0-5
  6
CONTINUOUS
 62
     4
 10
16274.767868000001
 20
4461.1889349999992
 30
0.0
 11
16274.767868000001
 21
4301.1893969999992
 31
0.0
  0
LINE
  5
38B2
  8
0-5
  6
CONTINUOUS
 62
     4
 10
13006.267868000001
 20
4461.1889349999992
 30
0.0
 11
13006.267868000001
 21
4301.1893969999992
 31
0.0
  0
LINE
  5
38B3
  8
0-5
  6
CONTINUOUS
 62
     4
 10
10088.267868000001
 20
4461.1889349999992
 30
0.0
 11
10088.267868000001
 21
4301.1893969999992
 31
0.0
  0
LINE
  5
38B4
  8
2-0
  6
CENTER2
 62
     6
 10
16274.767868000001
 20
5878.5361159999993
 30
0.0
 11
16274.767868000001
 21
6935.6787139999979
 31
0.0
  0
LINE
  5
38B5
  8
2-0
  6
CENTER2
 62
     6
 10
13006.267868000001
 20
5878.5361159999993
 30
0.0
 11
13006.267868000001
 21
6935.6787139999979
 31
0.0
  0
LINE
  5
38B6
  8
2-0
  6
CENTER2
 62
     6
 10
10088.267868000001
 20
5878.5361159999993
 30
0.0
 11
10088.267868000001
 21
6935.6787139999979
 31
0.0
  0
ARC
  5
38B7
  8
0-1
  6
CONTINUOUS
 62
     3
 10
16402.207294999989
 20
8523.6801919999998
 30
0.0
 40
24.999998999999999
 50
271.71998600002598
 51
91.719986000025997
  0
ARC
  5
38B8
  8
0-1
  6
CONTINUOUS
 62
     3
 10
9869.8764910000027
 20
8356.1505649999999
 30
0.0
 40
3.0
 50
181.71998600002601
 51
271.71998600002598
  0
ARC
  5
38B9
  8
0-1
  6
CONTINUOUS
 62
     3
 10
9870.9137590000046
 20
8388.1955069999967
 30
0.0
 40
5.0
 50
91.719986000025997
 51
181.71998600002601
  0
ARC
  5
38BA
  8
0-1
  6
CONTINUOUS
 62
     3
 10
16397.210000999981
 20
8523.529749000003
 30
0.0
 40
69.999999000000003
 50
293.50677499975183
 51
69.933196999864222
  0
ARC
  5
38BB
  8
0-1
  6
CONTINUOUS
 62
     3
 10
9874.5174720000032
 20
8268.250043
 30
0.0
 40
5.0
 50
181.71998600002601
 51
271.71998600002598
  0
ARC
  5
38BC
  8
0-1
  6
CONTINUOUS
 62
     3
 10
9871.5561130000042
 20
8300.1752229999984
 30
0.0
 40
3.0
 50
91.719986000025997
 51
181.71998600002601
  0
ARC
  5
38BD
  8
0-1
  6
CONTINUOUS
 62
     3
 10
9871.5402760000015
 20
8350.6979809999975
 30
0.0
 40
2.5
 50
271.71998600002598
 51
91.719986000025997
  0
ARC
  5
38BE
  8
0-1
  6
CONTINUOUS
 62
     3
 10
9872.8903079999982
 20
8305.7178749999985
 30
0.0
 40
2.5
 50
271.71998600002598
 51
91.719986000025997
  0
ARC
  5
38BF
  8
0-1
  6
CONTINUOUS
 62
     3
 10
9870.2060810000003
 20
8345.1553289999974
 30
0.0
 40
3.0
 50
91.719986000025997
 51
181.71998600002601
  0
ARC
  5
38C0
  8
0-1
  6
CONTINUOUS
 62
     3
 10
16402.207294999989
 20
8523.6801919999998
 30
0.0
 40
20.0
 50
271.71998600002598
 51
91.719986000025997
  0
ARC
  5
38C1
  8
0-1
  6
CONTINUOUS
 62
     3
 10
9871.2265229999975
 20
8311.1699640000006
 30
0.0
 40
3.0
 50
181.71998600002601
 51
271.71998600002598
  0
CIRCLE
  5
38C2
  8
0-5
  6
CONTINUOUS
 62
     4
 10
13006.267868000001
 20
4101.1882420000002
 30
0.0
 40
199.9999949999999
  0
CIRCLE
  5
38C3
  8
0-5
  6
CONTINUOUS
 62
     4
 10
16274.767868000001
 20
4101.1882420000002
 30
0.0
 40
199.9999949999999
  0
CIRCLE
  5
38C4
  8
0-5
  6
CONTINUOUS
 62
     4
 10
10088.267868000001
 20
4101.1882420000002
 30
0.0
 40
199.9999949999999
  0
TEXT
  5
38C5
  8
0-5
  6
CONTINUOUS
 62
     7
 10
17575.760926999999
 20
6529.0346250000011
 30
0.0
 40
160.0
  1
布基礎天端
 72
     4
 11
18034.427593666671
 21
6609.0346250000011
 31
0.0
  0
TEXT
  5
38C6
  8
0-5
  6
CONTINUOUS
 62
     7
 10
16227.81170799999
 20
4017.977445999999
 30
0.0
 40
160.0
  1
A
 72
     4
 11
16281.14504133333
 21
4097.9774459999999
 31
0.0
  0
TEXT
  5
38C7
  8
0-5
  6
CONTINUOUS
 62
     7
 10
12959.31170799999
 20
4017.977445999999
 30
0.0
 40
160.0
  1
B
 72
     4
 11
13012.64504133333
 21
4097.9774459999999
 31
0.0
  0
TEXT
  5
38C8
  8
0-5
  6
CONTINUOUS
 62
     7
 10
10041.311707999979
 20
4017.977445999999
 30
0.0
 40
160.0
  1
C
 72
     4
 11
10094.64504133332
 21
4097.9774459999999
 31
0.0
  0
TEXT
  5
38C9
  8
2-0
  6
CONTINUOUS
 62
     7
 10
11688.234123999981
 20
3264.0669070000022
 30
0.0
 40
160.0
  1
側 面 立 面 図
 50
0.000139
 72
     4
 11
12333.56726325081
 21
3344.0684725833762
 31
0.0
  0
TEXT
  5
38CA
  8
2-0
  6
CONTINUOUS
 62
     7
 10
13685.059448388431
 20
3291.2638415833758
 30
0.0
 40
160.0
  1
1
 72
     4
 11
13711.7261150551
 21
3371.2638415833749
 31
0.0
  0
TEXT
  5
38CB
  8
2-0
  6
CONTINUOUS
 62
     7
 10
13928.148165639141
 20
3211.265309583373
 30
0.0
 40
160.0
  1
80
 72
     4
 11
14048.148165639141
 21
3291.265309583373
 31
0.0
  0
TEXT
  5
38CC
  8
2-0
  6
CONTINUOUS
 62
     7
 10
13186.06141438843
 20
3264.0684725833762
 30
0.0
 40
160.0
  1
(S=  /   )
 72
     4
 11
13746.06141438843
 21
3344.0684725833762
 31
0.0
  0
LINE
  5
38CD
  8
0-1
  6
CONTINUOUS
 62
     3
 10
16002.27023099999
 20
6291.1885389999989
 30
0.0
 11
16002.27023099999
 21
8152.234418
 31
0.0
  0
LINE
  5
38CE
  8
0-1
  6
CONTINUOUS
 62
     3
 10
16017.270033000001
 20
6291.1885389999989
 30
0.0
 11
16017.270033000001
 21
8152.234418
 31
0.0
  0
LINE
  5
38CF
  8
SUNPOU
  6
CONTINUOUS
 10
21150.01686499998
 20
4941.1885390000061
 30
0.0
 11
20792.061858278881
 21
4941.1885390000061
 31
0.0
  0
LINE
  5
38D0
  8
SUNPOU
  6
CONTINUOUS
 10
24282.516864999991
 20
4941.1885390000061
 30
0.0
 11
24640.471871721082
 21
4941.1885390000061
 31
0.0
  0
TEXT
  5
38D1
  8
0-5
  6
CONTINUOUS
 62
     7
 10
20814.338945999989
 20
6870.5487857420012
 30
0.0
 40
160.0
  1
(2131.5)
 50
90.0
 72
     4
 11
20734.338945999989
 21
7323.8821190753342
 31
0.0
  0
LINE
  5
38D2
  8
0-6
  6
CONTINUOUS
 62
     6
 10
22273.15235649997
 20
18999.666309
 30
0.0
 11
23298.19260649999
 21
18999.666309
 31
0.0
  0
LINE
  5
38D3
  8
0-6
  6
CONTINUOUS
 62
     6
 10
21973.227578499969
 20
19557.019561000008
 30
0.0
 11
21868.612000499968
 21
19680.980973999998
 31
0.0
  0
LINE
  5
38D4
  8
0-6
  6
CONTINUOUS
 62
     6
 10
21868.612000499968
 20
19680.980973999998
 30
0.0
 11
21927.370050500002
 21
19529.78930400002
 31
0.0
  0
LINE
  5
38D5
  8
0-6
  6
CONTINUOUS
 62
     6
 10
21868.612000499968
 20
19680.980973999998
 30
0.0
 11
21973.227578499969
 21
19557.019561000008
 31
0.0
  0
LINE
  5
38D6
  8
0-6
  6
CONTINUOUS
 62
     6
 10
21973.227578499969
 20
19557.019561000008
 30
0.0
 11
21927.370050500002
 21
19529.78930400002
 31
0.0
  0
LINE
  5
38D7
  8
0-6
  6
CONTINUOUS
 62
     6
 10
21927.370050500002
 20
19529.78930400002
 30
0.0
 11
21868.612000499968
 21
19680.980973999998
 31
0.0
  0
LINE
  5
38D8
  8
0-6
  6
CONTINUOUS
 62
     6
 10
21927.370050500002
 20
19529.78930400002
 30
0.0
 11
21973.227578499969
 21
19557.019561000008
 31
0.0
  0
LINE
  5
38D9
  8
0-6
  6
CONTINUOUS
 62
     6
 10
21950.298814499991
 20
19543.406412000011
 30
0.0
 11
22273.15235649997
 21
18999.666309
 31
0.0
  0
TEXT
  5
38DA
  8
0-6
  6
CONTINUOUS
 62
     7
 10
22353.152620499979
 20
19079.668553000021
 30
0.0
 40
160.0
  1
間柱（後）
 72
     4
 11
22774.485953833311
 21
19159.668553000021
 31
0.0
  0
LINE
  5
38DB
  8
SUNPOU
  6
CONTINUOUS
 10
10885.631049999971
 20
19890.982161000022
 30
0.0
 11
10885.631049999971
 21
20687.949428778458
 31
0.0
  0
LINE
  5
38DC
  8
SUNPOU
  6
CONTINUOUS
 10
10885.631049999971
 20
13289.490937
 30
0.0
 11
10885.631049999971
 21
12614.06482118961
 31
0.0
  0
LINE
  5
38DD
  8
SUNPOU
  6
CONTINUOUS
 10
9865.7678679999972
 20
9389.1900499999956
 30
0.0
 11
9390.4787553597725
 21
9389.1900499999956
 31
0.0
  0
LINE
  5
38E0
  8
WAKUSEN-01
 10
868.00000000000193
 20
22484.000000000011
 30
0.0
 11
32764.000000000011
 21
22484.000000000011
 31
0.0
  0
LINE
  5
38E3
  8
WAKUSEN-01
 10
20560.0
 20
2484.0
 30
0.0
 11
32764.0
 21
2484.0
 31
0.0
  0
LINE
  5
38E4
  8
WAKUSEN-02
 10
20560.0
 20
1655.9999999999991
 30
0.0
 11
26868.0
 21
1655.9999999999991
 31
0.0
  0
TEXT
  5
38E5
  8
WAKUMOJI-01
 10
20670.260259962761
 20
2125.9030093393221
 30
0.0
 40
240.0
  1
名　称
  7
WAKUMOJI
  0
TEXT
  5
38E6
  8
WAKUMOJI-01
 10
20656.505485091919
 20
1319.12897497982
 30
0.0
 40
240.0
  1
機種名
  7
WAKUMOJI
  0
LINE
  5
38E9
  8
YODOROGO
 10
29977.604341291921
 20
1995.7494964292871
 30
0.0
 11
29829.604341291921
 21
1995.7494964292871
 31
0.0
1001
AUTOCAD_POSTSCRIPT_FIGURE
1002
{
1000
PSFILL
1000
Grayscale
1000
Grayscale
1070
    25
1002
}
  0
LINE
  5
38EA
  8
YODOROGO
 10
29829.604341291921
 20
1947.749496429288
 30
0.0
 11
29977.604341291921
 21
1947.749496429288
 31
0.0
1001
AUTOCAD_POSTSCRIPT_FIGURE
1002
{
1000
PSFILL
1000
Grayscale
1000
Grayscale
1070
    25
1002
}
  0
LINE
  5
38EB
  8
YODOROGO
 10
29977.604341291921
 20
1907.7494964292871
 30
0.0
 11
29829.604341291921
 21
1907.7494964292871
 31
0.0
1001
AUTOCAD_POSTSCRIPT_FIGURE
1002
{
1000
PSFILL
1000
Grayscale
1000
Grayscale
1070
    25
1002
}
  0
LINE
  5
38EC
  8
YODOROGO
 10
29829.604341291921
 20
1859.749496429288
 30
0.0
 11
29977.604341291921
 21
1859.749496429288
 31
0.0
1001
AUTOCAD_POSTSCRIPT_FIGURE
1002
{
1000
PSFILL
1000
Grayscale
1000
Grayscale
1070
    25
1002
}
  0
LINE
  5
38ED
  8
YODOROGO
 10
29977.604341291921
 20
1819.7494964292871
 30
0.0
 11
29829.604341291921
 21
1819.7494964292871
 31
0.0
1001
AUTOCAD_POSTSCRIPT_FIGURE
1002
{
1000
PSFILL
1000
Grayscale
1000
Grayscale
1070
    25
1002
}
  0
LINE
  5
38EE
  8
YODOROGO
 10
29921.60434129191
 20
1707.749496429288
 30
0.0
 11
29977.604341291921
 21
1707.749496429288
 31
0.0
1001
AUTOCAD_POSTSCRIPT_FIGURE
1002
{
1000
PSFILL
1000
Grayscale
1000
Grayscale
1070
    25
1002
}
  0
LINE
  5
38EF
  8
YODOROGO
 10
29737.604341291921
 20
1427.749496429288
 30
0.0
 11
29937.604341291932
 21
1481.3393349155101
 31
0.0
  0
LINE
  5
38F0
  8
YODOROGO
 10
29949.60434129191
 20
1707.749496429288
 30
0.0
 11
29885.604341291921
 21
1707.749496429288
 31
0.0
  0
ARC
  5
38F1
  8
YODOROGO
 10
30254.34774982791
 20
1807.864609233261
 30
0.0
 40
381.88686420564721
 50
213.96111677667841
 51
264.47872074317792
  0
ARC
  5
38F2
  8
YODOROGO
 10
30254.347749827921
 20
1807.864609233302
 30
0.0
 40
381.8868642056816
 50
208.14114420486601
 51
212.9210361185994
  0
LINE
  5
38F3
  8
YODOROGO
 10
29771.409872985321
 20
1556.807661346234
 30
0.0
 11
29933.78413250855
 21
1600.3157130570869
 31
0.0
  0
LINE
  5
38F4
  8
YODOROGO
 10
29737.604341291921
 20
1427.749496429288
 30
0.0
 11
29937.604341291932
 21
1481.3393349155101
 31
0.0
  0
LINE
  5
38F5
  8
YODOROGO
 10
29949.60434129191
 20
1707.749496429288
 30
0.0
 11
29885.604341291921
 21
1707.749496429288
 31
0.0
  0
ARC
  5
38F6
  8
YODOROGO
 10
30254.34774982791
 20
1807.864609233261
 30
0.0
 40
381.88686420564721
 50
213.96111677667841
 51
264.47872074317792
  0
LINE
  5
38F7
  8
YODOROGO
 10
28793.60434129191
 20
1819.7494964292871
 30
0.0
 11
28433.60434129191
 21
1819.7494964292871
 31
0.0
  0
LINE
  5
38F8
  8
YODOROGO
 10
28513.60434129191
 20
1427.749496429288
 30
0.0
 11
28793.60434129191
 21
1427.749496429288
 31
0.0
  0
LINE
  5
38F9
  8
YODOROGO
 10
28729.604341291921
 20
1923.7494964292871
 30
0.0
 11
28497.60434129191
 21
1923.7494964292871
 31
0.0
  0
LINE
  5
38FA
  8
YODOROGO
 10
28585.604341291921
 20
2027.749496429288
 30
0.0
 11
28657.604341291921
 21
2027.749496429288
 31
0.0
  0
LINE
  5
38FB
  8
YODOROGO
 10
28433.60434129191
 20
1707.749496429288
 30
0.0
 11
28433.60434129191
 21
1507.749496429288
 31
0.0
  0
LINE
  5
38FC
  8
YODOROGO
 10
28497.60434129191
 20
1563.7494964292871
 30
0.0
 11
28497.60434129191
 21
1707.749496429288
 31
0.0
  0
LINE
  5
38FD
  8
YODOROGO
 10
28585.604341291921
 20
1747.74949642929
 30
0.0
 11
28585.604341291921
 21
1547.749496429288
 31
0.0
  0
LINE
  5
38FE
  8
YODOROGO
 10
27857.604341291921
 20
1683.749496429288
 30
0.0
 11
27777.604341291921
 21
1619.9724140445701
 31
0.0
  0
LINE
  5
38FF
  8
YODOROGO
 10
27937.604341291921
 20
1619.9724140445701
 30
0.0
 11
27857.604341291921
 21
1683.749496429288
 31
0.0
  0
LINE
  5
3900
  8
YODOROGO
 10
27857.604341291921
 20
1707.749496429288
 30
0.0
 11
27937.604341291921
 21
1643.9724140445701
 31
0.0
  0
LINE
  5
3901
  8
YODOROGO
 10
27777.604341291921
 20
1643.9724140445701
 30
0.0
 11
27857.604341291921
 21
1707.749496429288
 31
0.0
  0
LINE
  5
3902
  8
YODOROGO
 10
28040.913204016892
 20
1659.749496429288
 30
0.0
 11
28040.913204016892
 21
1683.7494964292871
 31
0.0
  0
LINE
  5
3903
  8
YODOROGO
 10
27977.604341291921
 20
1683.7494964292871
 30
0.0
 11
27977.604341291921
 21
1667.749496429285
 31
0.0
  0
LINE
  5
3904
  8
YODOROGO
 10
28098.135520230931
 20
1707.749496429288
 30
0.0
 11
28098.135520230931
 21
1655.5036372746561
 31
0.0
1001
AUTOCAD_POSTSCRIPT_FIGURE
1002
{
1000
PSFILL
1000
Grayscale
1000
Grayscale
1070
   100
1002
}
  0
LINE
  5
3905
  8
YODOROGO
 10
28082.135520230921
 20
1655.5036372746561
 30
0.0
 11
28082.135520230921
 21
1707.749496429288
 31
0.0
1001
AUTOCAD_POSTSCRIPT_FIGURE
1002
{
1000
PSFILL
1000
Grayscale
1000
Grayscale
1070
   100
1002
}
  0
LINE
  5
3906
  8
YODOROGO
 10
27809.604341291921
 20
1608.771904043258
 30
0.0
 11
27809.604341291921
 21
1632.771904043258
 31
0.0
  0
LINE
  5
3907
  8
YODOROGO
 10
27905.604341291921
 20
1608.771904043258
 30
0.0
 11
27809.604341291921
 21
1608.771904043258
 31
0.0
  0
LINE
  5
3908
  8
YODOROGO
 10
27905.604341291921
 20
1632.771904043258
 30
0.0
 11
27905.604341291921
 21
1608.771904043258
 31
0.0
  0
LINE
  5
3909
  8
YODOROGO
 10
27809.604341291921
 20
1632.771904043258
 30
0.0
 11
27905.604341291921
 21
1632.771904043258
 31
0.0
  0
LINE
  5
390A
  8
YODOROGO
 10
27824.509588915738
 20
1568.5028573704751
 30
0.0
 11
27785.604341291921
 21
1475.7494964292871
 31
0.0
1001
AUTOCAD_POSTSCRIPT_FIGURE
1002
{
1000
PSFILL
1000
Grayscale
1000
Grayscale
1070
   100
1002
}
  0
LINE
  5
390B
  8
YODOROGO
 10
27777.604341291921
 20
1568.5028573704751
 30
0.0
 11
27824.509588915738
 21
1568.5028573704751
 31
0.0
1001
AUTOCAD_POSTSCRIPT_FIGURE
1002
{
1000
PSFILL
1000
Grayscale
1000
Grayscale
1070
   100
1002
}
  0
LINE
  5
390C
  8
YODOROGO
 10
27777.604341291921
 20
1588.5028573704751
 30
0.0
 11
27777.604341291921
 21
1568.5028573704751
 31
0.0
1001
AUTOCAD_POSTSCRIPT_FIGURE
1002
{
1000
PSFILL
1000
Grayscale
1000
Grayscale
1070
   100
1002
}
  0
LINE
  5
390D
  8
YODOROGO
 10
27937.604341291921
 20
1588.5028573704751
 30
0.0
 11
27777.604341291921
 21
1588.5028573704751
 31
0.0
1001
AUTOCAD_POSTSCRIPT_FIGURE
1002
{
1000
PSFILL
1000
Grayscale
1000
Grayscale
1070
   100
1002
}
  0
LINE
  5
390E
  8
YODOROGO
 10
27937.604341291921
 20
1568.5028573704751
 30
0.0
 11
27937.604341291921
 21
1588.5028573704751
 31
0.0
1001
AUTOCAD_POSTSCRIPT_FIGURE
1002
{
1000
PSFILL
1000
Grayscale
1000
Grayscale
1070
   100
1002
}
  0
LINE
  5
390F
  8
YODOROGO
 10
27844.509588915738
 20
1568.5028573704751
 30
0.0
 11
27937.604341291921
 21
1568.5028573704751
 31
0.0
1001
AUTOCAD_POSTSCRIPT_FIGURE
1002
{
1000
PSFILL
1000
Grayscale
1000
Grayscale
1070
   100
1002
}
  0
LINE
  5
3910
  8
YODOROGO
 10
27815.546718284771
 20
1495.7494964292871
 30
0.0
 11
27844.509588915738
 21
1568.5028573704751
 31
0.0
1001
AUTOCAD_POSTSCRIPT_FIGURE
1002
{
1000
PSFILL
1000
Grayscale
1000
Grayscale
1070
   100
1002
}
  0
LINE
  5
3911
  8
YODOROGO
 10
27902.054790808648
 20
1495.7494964292871
 30
0.0
 11
27815.546718284771
 21
1495.7494964292871
 31
0.0
1001
AUTOCAD_POSTSCRIPT_FIGURE
1002
{
1000
PSFILL
1000
Grayscale
1000
Grayscale
1070
   100
1002
}
  0
LINE
  5
3912
  8
YODOROGO
 10
27885.065004790951
 20
1536.2338106976929
 30
0.0
 11
27902.054790808648
 21
1495.7494964292871
 31
0.0
1001
AUTOCAD_POSTSCRIPT_FIGURE
1002
{
1000
PSFILL
1000
Grayscale
1000
Grayscale
1070
   100
1002
}
  0
LINE
  5
3913
  8
YODOROGO
 10
27901.065004790951
 20
1536.2338106976929
 30
0.0
 11
27885.065004790951
 21
1536.2338106976929
 31
0.0
1001
AUTOCAD_POSTSCRIPT_FIGURE
1002
{
1000
PSFILL
1000
Grayscale
1000
Grayscale
1070
   100
1002
}
  0
LINE
  5
3914
  8
YODOROGO
 10
27929.604341291921
 20
1475.7494964292871
 30
0.0
 11
27901.065004790951
 21
1536.2338106976929
 31
0.0
1001
AUTOCAD_POSTSCRIPT_FIGURE
1002
{
1000
PSFILL
1000
Grayscale
1000
Grayscale
1070
   100
1002
}
  0
LINE
  5
3915
  8
YODOROGO
 10
27785.604341291921
 20
1475.7494964292871
 30
0.0
 11
27929.604341291921
 21
1475.7494964292871
 31
0.0
1001
AUTOCAD_POSTSCRIPT_FIGURE
1002
{
1000
PSFILL
1000
Grayscale
1000
Grayscale
1070
   100
1002
}
  0
LINE
  5
3916
  8
YODOROGO
 10
27777.604341291921
 20
1619.9724140445701
 30
0.0
 11
27777.604341291921
 21
1643.9724140445701
 31
0.0
  0
LINE
  5
3917
  8
YODOROGO
 10
27937.604341291921
 20
1643.9724140445701
 30
0.0
 11
27937.604341291921
 21
1619.9724140445701
 31
0.0
  0
ARC
  5
3918
  8
YODOROGO
 10
28225.940442146959
 20
1600.877765325326
 30
0.0
 40
175.9999999999998
 50
280.3644312771313
 51
3.5414836592180561
  0
ARC
  5
3919
  8
YODOROGO
 10
28235.756030759301
 20
1633.5978069619041
 30
0.0
 40
111.9999999999982
 50
281.24905825041549
 51
348.75094174958321
  0
LINE
  5
391A
  8
YODOROGO
 10
28257.604341291921
 20
1523.7494964292871
 30
0.0
 11
28257.604341291921
 21
1427.749496429288
 31
0.0
  0
LINE
  5
391B
  8
YODOROGO
 10
28020.088903736909
 20
1610.650565061914
 30
0.0
 11
28040.913204016892
 21
1659.749496429288
 31
0.0
  0
LINE
  5
391C
  8
YODOROGO
 10
28041.604341291921
 20
1583.120489948401
 30
0.0
 11
28020.088903736909
 21
1610.650565061914
 31
0.0
  0
LINE
  5
391D
  8
YODOROGO
 10
28041.604341291921
 20
1563.120489948398
 30
0.0
 11
28041.604341291921
 21
1583.120489948401
 31
0.0
  0
LINE
  5
391E
  8
YODOROGO
 10
28017.604341291921
 20
1585.2370637495301
 30
0.0
 11
28041.604341291921
 21
1563.120489948398
 31
0.0
  0
LINE
  5
391F
  8
YODOROGO
 10
28017.604341291921
 20
1475.7494964292871
 30
0.0
 11
28017.604341291921
 21
1585.2370637495301
 31
0.0
  0
LINE
  5
3920
  8
YODOROGO
 10
28001.604341291921
 20
1475.7494964292871
 30
0.0
 11
28017.604341291921
 21
1475.7494964292871
 31
0.0
  0
LINE
  5
3921
  8
YODOROGO
 10
28001.604341291921
 20
1580.0053496897469
 30
0.0
 11
28001.604341291921
 21
1475.7494964292871
 31
0.0
  0
LINE
  5
3922
  8
YODOROGO
 10
27977.604341291921
 20
1532.7680790334291
 30
0.0
 11
28001.604341291921
 21
1580.0053496897469
 31
0.0
  0
LINE
  5
3923
  8
YODOROGO
 10
27977.604341291921
 20
1556.76807903343
 30
0.0
 11
27977.604341291921
 21
1532.7680790334291
 31
0.0
  0
LINE
  5
3924
  8
YODOROGO
 10
28025.828774291349
 20
1667.749496429285
 30
0.0
 11
27977.604341291921
 21
1556.76807903343
 31
0.0
  0
LINE
  5
3925
  8
YODOROGO
 10
27977.604341291921
 20
1667.749496429285
 30
0.0
 11
28025.828774291349
 21
1667.749496429285
 31
0.0
  0
LINE
  5
3926
  8
YODOROGO
 10
28050.135520230899
 20
1655.5036372746561
 30
0.0
 11
28082.135520230921
 21
1655.5036372746561
 31
0.0
1001
AUTOCAD_POSTSCRIPT_FIGURE
1002
{
1000
PSFILL
1000
Grayscale
1000
Grayscale
1070
   100
1002
}
  0
LINE
  5
3927
  8
YODOROGO
 10
28050.135520230899
 20
1631.5036372746561
 30
0.0
 11
28050.135520230899
 21
1655.5036372746561
 31
0.0
1001
AUTOCAD_POSTSCRIPT_FIGURE
1002
{
1000
PSFILL
1000
Grayscale
1000
Grayscale
1070
   100
1002
}
  0
LINE
  5
3928
  8
YODOROGO
 10
28082.135520230921
 20
1631.5036372746561
 30
0.0
 11
28050.135520230899
 21
1631.5036372746561
 31
0.0
1001
AUTOCAD_POSTSCRIPT_FIGURE
1002
{
1000
PSFILL
1000
Grayscale
1000
Grayscale
1070
   100
1002
}
  0
LINE
  5
3929
  8
YODOROGO
 10
28082.135520230921
 20
1499.749496429288
 30
0.0
 11
28082.135520230921
 21
1631.5036372746561
 31
0.0
1001
AUTOCAD_POSTSCRIPT_FIGURE
1002
{
1000
PSFILL
1000
Grayscale
1000
Grayscale
1070
   100
1002
}
  0
LINE
  5
392A
  8
YODOROGO
 10
28050.135520230921
 20
1499.749496429288
 30
0.0
 11
28082.135520230921
 21
1499.749496429288
 31
0.0
1001
AUTOCAD_POSTSCRIPT_FIGURE
1002
{
1000
PSFILL
1000
Grayscale
1000
Grayscale
1070
   100
1002
}
  0
LINE
  5
392B
  8
YODOROGO
 10
28050.135520230921
 20
1475.7494964292871
 30
0.0
 11
28050.135520230921
 21
1499.749496429288
 31
0.0
1001
AUTOCAD_POSTSCRIPT_FIGURE
1002
{
1000
PSFILL
1000
Grayscale
1000
Grayscale
1070
   100
1002
}
  0
LINE
  5
392C
  8
YODOROGO
 10
28137.604341291921
 20
1475.7494964292871
 30
0.0
 11
28050.135520230921
 21
1475.7494964292871
 31
0.0
1001
AUTOCAD_POSTSCRIPT_FIGURE
1002
{
1000
PSFILL
1000
Grayscale
1000
Grayscale
1070
   100
1002
}
  0
LINE
  5
392D
  8
YODOROGO
 10
28137.604341291921
 20
1499.749496429288
 30
0.0
 11
28137.604341291921
 21
1475.7494964292871
 31
0.0
1001
AUTOCAD_POSTSCRIPT_FIGURE
1002
{
1000
PSFILL
1000
Grayscale
1000
Grayscale
1070
   100
1002
}
  0
LINE
  5
392E
  8
YODOROGO
 10
28098.135520230931
 20
1499.749496429288
 30
0.0
 11
28137.604341291921
 21
1499.749496429288
 31
0.0
1001
AUTOCAD_POSTSCRIPT_FIGURE
1002
{
1000
PSFILL
1000
Grayscale
1000
Grayscale
1070
   100
1002
}
  0
LINE
  5
392F
  8
YODOROGO
 10
28098.135520230931
 20
1631.5036372746561
 30
0.0
 11
28098.135520230931
 21
1499.749496429288
 31
0.0
1001
AUTOCAD_POSTSCRIPT_FIGURE
1002
{
1000
PSFILL
1000
Grayscale
1000
Grayscale
1070
   100
1002
}
  0
LINE
  5
3930
  8
YODOROGO
 10
28137.604341291921
 20
1631.5036372746561
 30
0.0
 11
28098.135520230931
 21
1631.5036372746561
 31
0.0
1001
AUTOCAD_POSTSCRIPT_FIGURE
1002
{
1000
PSFILL
1000
Grayscale
1000
Grayscale
1070
   100
1002
}
  0
LINE
  5
3931
  8
YODOROGO
 10
28137.604341291921
 20
1655.5036372746561
 30
0.0
 11
28137.604341291921
 21
1631.5036372746561
 31
0.0
1001
AUTOCAD_POSTSCRIPT_FIGURE
1002
{
1000
PSFILL
1000
Grayscale
1000
Grayscale
1070
   100
1002
}
  0
LINE
  5
3932
  8
YODOROGO
 10
28098.135520230931
 20
1655.5036372746561
 30
0.0
 11
28137.604341291921
 21
1655.5036372746561
 31
0.0
1001
AUTOCAD_POSTSCRIPT_FIGURE
1002
{
1000
PSFILL
1000
Grayscale
1000
Grayscale
1070
   100
1002
}
  0
LINE
  5
3933
  8
YODOROGO
 10
28401.60434129191
 20
1667.749496429288
 30
0.0
 11
28345.604341291921
 21
1667.749496429288
 31
0.0
  0
LINE
  5
3934
  8
YODOROGO
 10
28401.60434129191
 20
1611.749496429288
 30
0.0
 11
28401.60434129191
 21
1667.749496429288
 31
0.0
  0
LINE
  5
3935
  8
YODOROGO
 10
28345.604341291921
 20
1667.749496429288
 30
0.0
 11
28345.604341291921
 21
1611.749496429288
 31
0.0
  0
ARC
  5
3936
  8
YODOROGO
 10
28513.60434129191
 20
1507.749496429288
 30
0.0
 40
80.0
 50
180.0
 51
270.0
  0
ARC
  5
3937
  8
YODOROGO
 10
28537.604341291921
 20
1563.7494964292871
 30
0.0
 40
40.0
 50
180.0
 51
270.0
  0
LINE
  5
3938
  8
YODOROGO
 10
28561.604341291932
 20
1523.7494964292871
 30
0.0
 11
28537.604341291921
 21
1523.7494964292871
 31
0.0
  0
ARC
  5
3939
  8
YODOROGO
 10
28561.604341291932
 20
1547.749496429285
 30
0.0
 40
23.999999999996358
 50
270.0
 51
0.0000000000054281
  0
LINE
  5
393A
  8
YODOROGO
 10
27801.604341291921
 20
1890.786580793706
 30
0.0
 11
27777.604341291921
 21
1843.776747951672
 31
0.0
1001
AUTOCAD_POSTSCRIPT_FIGURE
1002
{
1000
PSFILL
1000
Grayscale
1000
Grayscale
1070
   100
1002
}
  0
LINE
  5
393B
  8
YODOROGO
 10
27801.604341291921
 20
1747.749496429286
 30
0.0
 11
27801.604341291921
 21
1890.786580793706
 31
0.0
1001
AUTOCAD_POSTSCRIPT_FIGURE
1002
{
1000
PSFILL
1000
Grayscale
1000
Grayscale
1070
   100
1002
}
  0
LINE
  5
393C
  8
YODOROGO
 10
27817.604341291921
 20
1747.749496429286
 30
0.0
 11
27801.604341291921
 21
1747.749496429286
 31
0.0
1001
AUTOCAD_POSTSCRIPT_FIGURE
1002
{
1000
PSFILL
1000
Grayscale
1000
Grayscale
1070
   100
1002
}
  0
LINE
  5
393D
  8
YODOROGO
 10
27817.604341291921
 20
1893.7713320852661
 30
0.0
 11
27817.604341291921
 21
1747.749496429286
 31
0.0
1001
AUTOCAD_POSTSCRIPT_FIGURE
1002
{
1000
PSFILL
1000
Grayscale
1000
Grayscale
1070
   100
1002
}
  0
LINE
  5
393E
  8
YODOROGO
 10
27841.604341291921
 20
1867.6547582841361
 30
0.0
 11
27817.604341291921
 21
1893.7713320852661
 31
0.0
1001
AUTOCAD_POSTSCRIPT_FIGURE
1002
{
1000
PSFILL
1000
Grayscale
1000
Grayscale
1070
   100
1002
}
  0
LINE
  5
393F
  8
YODOROGO
 10
27841.604341291921
 20
1883.6547582841361
 30
0.0
 11
27841.604341291921
 21
1867.6547582841361
 31
0.0
1001
AUTOCAD_POSTSCRIPT_FIGURE
1002
{
1000
PSFILL
1000
Grayscale
1000
Grayscale
1070
   100
1002
}
  0
LINE
  5
3940
  8
YODOROGO
 10
27817.604341291921
 20
1917.7713320852649
 30
0.0
 11
27841.604341291921
 21
1883.6547582841361
 31
0.0
1001
AUTOCAD_POSTSCRIPT_FIGURE
1002
{
1000
PSFILL
1000
Grayscale
1000
Grayscale
1070
   100
1002
}
  0
LINE
  5
3941
  8
YODOROGO
 10
27817.604341291921
 20
1939.749496429288
 30
0.0
 11
27817.604341291921
 21
1917.7713320852649
 31
0.0
1001
AUTOCAD_POSTSCRIPT_FIGURE
1002
{
1000
PSFILL
1000
Grayscale
1000
Grayscale
1070
   100
1002
}
  0
LINE
  5
3942
  8
YODOROGO
 10
27889.604341291921
 20
1939.749496429288
 30
0.0
 11
27817.604341291921
 21
1939.749496429288
 31
0.0
1001
AUTOCAD_POSTSCRIPT_FIGURE
1002
{
1000
PSFILL
1000
Grayscale
1000
Grayscale
1070
   100
1002
}
  0
LINE
  5
3943
  8
YODOROGO
 10
27889.604341291921
 20
1900.5683489363
 30
0.0
 11
27889.604341291921
 21
1939.749496429288
 31
0.0
1001
AUTOCAD_POSTSCRIPT_FIGURE
1002
{
1000
PSFILL
1000
Grayscale
1000
Grayscale
1070
   100
1002
}
  0
LINE
  5
3944
  8
YODOROGO
 10
27857.604341291921
 20
1900.5683489363
 30
0.0
 11
27889.604341291921
 21
1900.5683489363
 31
0.0
1001
AUTOCAD_POSTSCRIPT_FIGURE
1002
{
1000
PSFILL
1000
Grayscale
1000
Grayscale
1070
   100
1002
}
  0
LINE
  5
3945
  8
YODOROGO
 10
27857.604341291921
 20
1884.568348936298
 30
0.0
 11
27857.604341291921
 21
1900.5683489363
 31
0.0
1001
AUTOCAD_POSTSCRIPT_FIGURE
1002
{
1000
PSFILL
1000
Grayscale
1000
Grayscale
1070
   100
1002
}
  0
LINE
  5
3946
  8
YODOROGO
 10
27889.604341291921
 20
1884.568348936298
 30
0.0
 11
27857.604341291921
 21
1884.568348936298
 31
0.0
1001
AUTOCAD_POSTSCRIPT_FIGURE
1002
{
1000
PSFILL
1000
Grayscale
1000
Grayscale
1070
   100
1002
}
  0
LINE
  5
3947
  8
YODOROGO
 10
27889.604341291921
 20
1879.6191779644371
 30
0.0
 11
27889.604341291921
 21
1884.568348936298
 31
0.0
1001
AUTOCAD_POSTSCRIPT_FIGURE
1002
{
1000
PSFILL
1000
Grayscale
1000
Grayscale
1070
   100
1002
}
  0
LINE
  5
3948
  8
YODOROGO
 10
27849.604341291921
 20
1812.974981161417
 30
0.0
 11
27889.604341291921
 21
1879.6191779644371
 31
0.0
1001
AUTOCAD_POSTSCRIPT_FIGURE
1002
{
1000
PSFILL
1000
Grayscale
1000
Grayscale
1070
   100
1002
}
  0
LINE
  5
3949
  8
YODOROGO
 10
27849.604341291921
 20
1796.9749811614161
 30
0.0
 11
27849.604341291921
 21
1812.974981161417
 31
0.0
1001
AUTOCAD_POSTSCRIPT_FIGURE
1002
{
1000
PSFILL
1000
Grayscale
1000
Grayscale
1070
   100
1002
}
  0
LINE
  5
394A
  8
YODOROGO
 10
27889.604341291921
 20
1847.6191779644359
 30
0.0
 11
27849.604341291921
 21
1796.9749811614161
 31
0.0
1001
AUTOCAD_POSTSCRIPT_FIGURE
1002
{
1000
PSFILL
1000
Grayscale
1000
Grayscale
1070
   100
1002
}
  0
LINE
  5
394B
  8
YODOROGO
 10
27889.604341291921
 20
1747.749496429286
 30
0.0
 11
27889.604341291921
 21
1847.6191779644359
 31
0.0
1001
AUTOCAD_POSTSCRIPT_FIGURE
1002
{
1000
PSFILL
1000
Grayscale
1000
Grayscale
1070
   100
1002
}
  0
LINE
  5
394C
  8
YODOROGO
 10
27905.604341291921
 20
1747.749496429286
 30
0.0
 11
27889.604341291921
 21
1747.749496429286
 31
0.0
1001
AUTOCAD_POSTSCRIPT_FIGURE
1002
{
1000
PSFILL
1000
Grayscale
1000
Grayscale
1070
   100
1002
}
  0
LINE
  5
394D
  8
YODOROGO
 10
27905.604341291921
 20
1849.409012158806
 30
0.0
 11
27905.604341291921
 21
1747.749496429286
 31
0.0
1001
AUTOCAD_POSTSCRIPT_FIGURE
1002
{
1000
PSFILL
1000
Grayscale
1000
Grayscale
1070
   100
1002
}
  0
LINE
  5
394E
  8
YODOROGO
 10
27937.604341291921
 20
1796.9749811614161
 30
0.0
 11
27905.604341291921
 21
1849.409012158806
 31
0.0
1001
AUTOCAD_POSTSCRIPT_FIGURE
1002
{
1000
PSFILL
1000
Grayscale
1000
Grayscale
1070
   100
1002
}
  0
LINE
  5
394F
  8
YODOROGO
 10
27937.604341291921
 20
1812.974981161417
 30
0.0
 11
27937.604341291921
 21
1796.9749811614161
 31
0.0
1001
AUTOCAD_POSTSCRIPT_FIGURE
1002
{
1000
PSFILL
1000
Grayscale
1000
Grayscale
1070
   100
1002
}
  0
LINE
  5
3950
  8
YODOROGO
 10
27905.604341291921
 20
1881.4090121588081
 30
0.0
 11
27937.604341291921
 21
1812.974981161417
 31
0.0
1001
AUTOCAD_POSTSCRIPT_FIGURE
1002
{
1000
PSFILL
1000
Grayscale
1000
Grayscale
1070
   100
1002
}
  0
LINE
  5
3951
  8
YODOROGO
 10
27905.604341291921
 20
1884.5683489363
 30
0.0
 11
27905.604341291921
 21
1881.4090121588081
 31
0.0
1001
AUTOCAD_POSTSCRIPT_FIGURE
1002
{
1000
PSFILL
1000
Grayscale
1000
Grayscale
1070
   100
1002
}
  0
LINE
  5
3952
  8
YODOROGO
 10
27937.604341291921
 20
1884.568348936298
 30
0.0
 11
27905.604341291921
 21
1884.5683489363
 31
0.0
1001
AUTOCAD_POSTSCRIPT_FIGURE
1002
{
1000
PSFILL
1000
Grayscale
1000
Grayscale
1070
   100
1002
}
  0
LINE
  5
3953
  8
YODOROGO
 10
27937.604341291921
 20
1900.5683489363
 30
0.0
 11
27937.604341291921
 21
1884.568348936298
 31
0.0
1001
AUTOCAD_POSTSCRIPT_FIGURE
1002
{
1000
PSFILL
1000
Grayscale
1000
Grayscale
1070
   100
1002
}
  0
LINE
  5
3954
  8
YODOROGO
 10
27905.604341291921
 20
1900.5683489363
 30
0.0
 11
27937.604341291921
 21
1900.5683489363
 31
0.0
1001
AUTOCAD_POSTSCRIPT_FIGURE
1002
{
1000
PSFILL
1000
Grayscale
1000
Grayscale
1070
   100
1002
}
  0
LINE
  5
3955
  8
YODOROGO
 10
27905.604341291921
 20
1939.749496429288
 30
0.0
 11
27905.604341291921
 21
1900.5683489363
 31
0.0
1001
AUTOCAD_POSTSCRIPT_FIGURE
1002
{
1000
PSFILL
1000
Grayscale
1000
Grayscale
1070
   100
1002
}
  0
LINE
  5
3956
  8
YODOROGO
 10
27937.604341291921
 20
1939.749496429288
 30
0.0
 11
27905.604341291921
 21
1939.749496429288
 31
0.0
1001
AUTOCAD_POSTSCRIPT_FIGURE
1002
{
1000
PSFILL
1000
Grayscale
1000
Grayscale
1070
   100
1002
}
  0
LINE
  5
3957
  8
YODOROGO
 10
27937.604341291921
 20
1955.7494964292871
 30
0.0
 11
27937.604341291921
 21
1939.749496429288
 31
0.0
1001
AUTOCAD_POSTSCRIPT_FIGURE
1002
{
1000
PSFILL
1000
Grayscale
1000
Grayscale
1070
   100
1002
}
  0
LINE
  5
3958
  8
YODOROGO
 10
27905.604341291921
 20
1955.7494964292871
 30
0.0
 11
27937.604341291921
 21
1955.7494964292871
 31
0.0
1001
AUTOCAD_POSTSCRIPT_FIGURE
1002
{
1000
PSFILL
1000
Grayscale
1000
Grayscale
1070
   100
1002
}
  0
LINE
  5
3959
  8
YODOROGO
 10
27905.604341291921
 20
1979.749496429288
 30
0.0
 11
27905.604341291921
 21
1955.7494964292871
 31
0.0
1001
AUTOCAD_POSTSCRIPT_FIGURE
1002
{
1000
PSFILL
1000
Grayscale
1000
Grayscale
1070
   100
1002
}
  0
LINE
  5
395A
  8
YODOROGO
 10
27889.604341291921
 20
1979.749496429288
 30
0.0
 11
27905.604341291921
 21
1979.749496429288
 31
0.0
1001
AUTOCAD_POSTSCRIPT_FIGURE
1002
{
1000
PSFILL
1000
Grayscale
1000
Grayscale
1070
   100
1002
}
  0
LINE
  5
395B
  8
YODOROGO
 10
27889.604341291921
 20
1955.7494964292871
 30
0.0
 11
27889.604341291921
 21
1979.749496429288
 31
0.0
1001
AUTOCAD_POSTSCRIPT_FIGURE
1002
{
1000
PSFILL
1000
Grayscale
1000
Grayscale
1070
   100
1002
}
  0
LINE
  5
395C
  8
YODOROGO
 10
27865.604341291921
 20
1955.7494964292871
 30
0.0
 11
27889.604341291921
 21
1955.7494964292871
 31
0.0
1001
AUTOCAD_POSTSCRIPT_FIGURE
1002
{
1000
PSFILL
1000
Grayscale
1000
Grayscale
1070
   100
1002
}
  0
LINE
  5
395D
  8
YODOROGO
 10
27865.604341291921
 20
1979.749496429288
 30
0.0
 11
27865.604341291921
 21
1955.7494964292871
 31
0.0
1001
AUTOCAD_POSTSCRIPT_FIGURE
1002
{
1000
PSFILL
1000
Grayscale
1000
Grayscale
1070
   100
1002
}
  0
LINE
  5
395E
  8
YODOROGO
 10
27849.604341291921
 20
1979.749496429288
 30
0.0
 11
27865.604341291921
 21
1979.749496429288
 31
0.0
1001
AUTOCAD_POSTSCRIPT_FIGURE
1002
{
1000
PSFILL
1000
Grayscale
1000
Grayscale
1070
   100
1002
}
  0
LINE
  5
395F
  8
YODOROGO
 10
27849.604341291921
 20
1955.7494964292871
 30
0.0
 11
27849.604341291921
 21
1979.749496429288
 31
0.0
1001
AUTOCAD_POSTSCRIPT_FIGURE
1002
{
1000
PSFILL
1000
Grayscale
1000
Grayscale
1070
   100
1002
}
  0
LINE
  5
3960
  8
YODOROGO
 10
27817.604341291921
 20
1955.7494964292871
 30
0.0
 11
27849.604341291921
 21
1955.7494964292871
 31
0.0
1001
AUTOCAD_POSTSCRIPT_FIGURE
1002
{
1000
PSFILL
1000
Grayscale
1000
Grayscale
1070
   100
1002
}
  0
LINE
  5
3961
  8
YODOROGO
 10
27817.604341291921
 20
1979.749496429288
 30
0.0
 11
27817.604341291921
 21
1955.7494964292871
 31
0.0
1001
AUTOCAD_POSTSCRIPT_FIGURE
1002
{
1000
PSFILL
1000
Grayscale
1000
Grayscale
1070
   100
1002
}
  0
LINE
  5
3962
  8
YODOROGO
 10
27801.604341291921
 20
1979.749496429288
 30
0.0
 11
27817.604341291921
 21
1979.749496429288
 31
0.0
1001
AUTOCAD_POSTSCRIPT_FIGURE
1002
{
1000
PSFILL
1000
Grayscale
1000
Grayscale
1070
   100
1002
}
  0
LINE
  5
3963
  8
YODOROGO
 10
27801.604341291921
 20
1955.7494964292871
 30
0.0
 11
27801.604341291921
 21
1979.749496429288
 31
0.0
1001
AUTOCAD_POSTSCRIPT_FIGURE
1002
{
1000
PSFILL
1000
Grayscale
1000
Grayscale
1070
   100
1002
}
  0
LINE
  5
3964
  8
YODOROGO
 10
27777.604341291921
 20
1955.7494964292871
 30
0.0
 11
27801.604341291921
 21
1955.7494964292871
 31
0.0
1001
AUTOCAD_POSTSCRIPT_FIGURE
1002
{
1000
PSFILL
1000
Grayscale
1000
Grayscale
1070
   100
1002
}
  0
LINE
  5
3965
  8
YODOROGO
 10
27777.604341291921
 20
1939.749496429288
 30
0.0
 11
27777.604341291921
 21
1955.7494964292871
 31
0.0
1001
AUTOCAD_POSTSCRIPT_FIGURE
1002
{
1000
PSFILL
1000
Grayscale
1000
Grayscale
1070
   100
1002
}
  0
LINE
  5
3966
  8
YODOROGO
 10
27801.604341291921
 20
1939.749496429288
 30
0.0
 11
27777.604341291921
 21
1939.749496429288
 31
0.0
1001
AUTOCAD_POSTSCRIPT_FIGURE
1002
{
1000
PSFILL
1000
Grayscale
1000
Grayscale
1070
   100
1002
}
  0
LINE
  5
3967
  8
YODOROGO
 10
27801.604341291921
 20
1914.7865807937051
 30
0.0
 11
27801.604341291921
 21
1939.749496429288
 31
0.0
1001
AUTOCAD_POSTSCRIPT_FIGURE
1002
{
1000
PSFILL
1000
Grayscale
1000
Grayscale
1070
   100
1002
}
  0
LINE
  5
3968
  8
YODOROGO
 10
27777.604341291921
 20
1859.776747951671
 30
0.0
 11
27801.604341291921
 21
1914.7865807937051
 31
0.0
1001
AUTOCAD_POSTSCRIPT_FIGURE
1002
{
1000
PSFILL
1000
Grayscale
1000
Grayscale
1070
   100
1002
}
  0
LINE
  5
3969
  8
YODOROGO
 10
27777.604341291921
 20
1843.776747951672
 30
0.0
 11
27777.604341291921
 21
1859.776747951671
 31
0.0
1001
AUTOCAD_POSTSCRIPT_FIGURE
1002
{
1000
PSFILL
1000
Grayscale
1000
Grayscale
1070
   100
1002
}
  0
LINE
  5
396A
  8
YODOROGO
 10
28257.604341291921
 20
1867.7494964292871
 30
0.0
 11
28401.60434129191
 21
1824.877625640306
 31
0.0
1001
AUTOCAD_POSTSCRIPT_FIGURE
1002
{
1000
PSFILL
1000
Grayscale
1000
Grayscale
1070
   100
1002
}
  0
LINE
  5
396B
  8
YODOROGO
 10
28401.60434129191
 20
1752.877625640306
 30
0.0
 11
28257.604341291921
 21
1795.7494964292871
 31
0.0
1001
AUTOCAD_POSTSCRIPT_FIGURE
1002
{
1000
PSFILL
1000
Grayscale
1000
Grayscale
1070
   100
1002
}
  0
LINE
  5
396C
  8
YODOROGO
 10
28401.60434129191
 20
1984.877625640306
 30
0.0
 11
28257.604341291921
 21
2027.749496429288
 31
0.0
1001
AUTOCAD_POSTSCRIPT_FIGURE
1002
{
1000
PSFILL
1000
Grayscale
1000
Grayscale
1070
   100
1002
}
  0
LINE
  5
396D
  8
YODOROGO
 10
28257.604341291921
 20
1959.749496429288
 30
0.0
 11
28401.60434129191
 21
1916.8776256403071
 31
0.0
1001
AUTOCAD_POSTSCRIPT_FIGURE
1002
{
1000
PSFILL
1000
Grayscale
1000
Grayscale
1070
   100
1002
}
  0
LINE
  5
396E
  8
YODOROGO
 10
28257.604341291921
 20
1795.7494964292871
 30
0.0
 11
28257.604341291921
 21
1867.7494964292871
 31
0.0
1001
AUTOCAD_POSTSCRIPT_FIGURE
1002
{
1000
PSFILL
1000
Grayscale
1000
Grayscale
1070
   100
1002
}
  0
LINE
  5
396F
  8
YODOROGO
 10
28257.604341291921
 20
2027.749496429288
 30
0.0
 11
28257.604341291921
 21
1959.749496429288
 31
0.0
1001
AUTOCAD_POSTSCRIPT_FIGURE
1002
{
1000
PSFILL
1000
Grayscale
1000
Grayscale
1070
   100
1002
}
  0
LINE
  5
3970
  8
YODOROGO
 10
28080.236320206739
 20
1939.749496429288
 30
0.0
 11
28129.60434129191
 21
1747.749496429286
 31
0.0
1001
AUTOCAD_POSTSCRIPT_FIGURE
1002
{
1000
PSFILL
1000
Grayscale
1000
Grayscale
1070
   100
1002
}
  0
LINE
  5
3971
  8
YODOROGO
 10
27977.604341291921
 20
1939.749496429288
 30
0.0
 11
28080.236320206739
 21
1939.749496429288
 31
0.0
1001
AUTOCAD_POSTSCRIPT_FIGURE
1002
{
1000
PSFILL
1000
Grayscale
1000
Grayscale
1070
   100
1002
}
  0
LINE
  5
3972
  8
YODOROGO
 10
27977.604341291921
 20
1955.7494964292871
 30
0.0
 11
27977.604341291921
 21
1939.749496429288
 31
0.0
1001
AUTOCAD_POSTSCRIPT_FIGURE
1002
{
1000
PSFILL
1000
Grayscale
1000
Grayscale
1070
   100
1002
}
  0
LINE
  5
3973
  8
YODOROGO
 10
28076.60687851991
 20
1955.7494964292871
 30
0.0
 11
27977.604341291921
 21
1955.7494964292871
 31
0.0
1001
AUTOCAD_POSTSCRIPT_FIGURE
1002
{
1000
PSFILL
1000
Grayscale
1000
Grayscale
1070
   100
1002
}
  0
LINE
  5
3974
  8
YODOROGO
 10
28071.162715989711
 20
1979.749496429288
 30
0.0
 11
28076.60687851991
 21
1955.7494964292871
 31
0.0
1001
AUTOCAD_POSTSCRIPT_FIGURE
1002
{
1000
PSFILL
1000
Grayscale
1000
Grayscale
1070
   100
1002
}
  0
LINE
  5
3975
  8
YODOROGO
 10
28091.162715989711
 20
1979.749496429288
 30
0.0
 11
28071.162715989711
 21
1979.749496429288
 31
0.0
1001
AUTOCAD_POSTSCRIPT_FIGURE
1002
{
1000
PSFILL
1000
Grayscale
1000
Grayscale
1070
   100
1002
}
  0
LINE
  5
3976
  8
YODOROGO
 10
28095.806878519939
 20
1955.7494964292871
 30
0.0
 11
28091.162715989711
 21
1979.749496429288
 31
0.0
1001
AUTOCAD_POSTSCRIPT_FIGURE
1002
{
1000
PSFILL
1000
Grayscale
1000
Grayscale
1070
   100
1002
}
  0
LINE
  5
3977
  8
YODOROGO
 10
28121.604341291921
 20
1955.7494964292871
 30
0.0
 11
28095.806878519939
 21
1955.7494964292871
 31
0.0
1001
AUTOCAD_POSTSCRIPT_FIGURE
1002
{
1000
PSFILL
1000
Grayscale
1000
Grayscale
1070
   100
1002
}
  0
LINE
  5
3978
  8
YODOROGO
 10
28121.604341291921
 20
1979.749496429288
 30
0.0
 11
28121.604341291921
 21
1955.7494964292871
 31
0.0
1001
AUTOCAD_POSTSCRIPT_FIGURE
1002
{
1000
PSFILL
1000
Grayscale
1000
Grayscale
1070
   100
1002
}
  0
LINE
  5
3979
  8
YODOROGO
 10
28137.604341291921
 20
1979.749496429288
 30
0.0
 11
28121.604341291921
 21
1979.749496429288
 31
0.0
1001
AUTOCAD_POSTSCRIPT_FIGURE
1002
{
1000
PSFILL
1000
Grayscale
1000
Grayscale
1070
   100
1002
}
  0
LINE
  5
397A
  8
YODOROGO
 10
28137.604341291921
 20
1955.7494964292871
 30
0.0
 11
28137.604341291921
 21
1979.749496429288
 31
0.0
1001
AUTOCAD_POSTSCRIPT_FIGURE
1002
{
1000
PSFILL
1000
Grayscale
1000
Grayscale
1070
   100
1002
}
  0
LINE
  5
397B
  8
YODOROGO
 10
28137.604341291921
 20
1939.749496429288
 30
0.0
 11
28137.604341291921
 21
1955.7494964292871
 31
0.0
1001
AUTOCAD_POSTSCRIPT_FIGURE
1002
{
1000
PSFILL
1000
Grayscale
1000
Grayscale
1070
   100
1002
}
  0
LINE
  5
397C
  8
YODOROGO
 10
28098.902986873411
 20
1939.749496429288
 30
0.0
 11
28137.604341291921
 21
1939.749496429288
 31
0.0
1001
AUTOCAD_POSTSCRIPT_FIGURE
1002
{
1000
PSFILL
1000
Grayscale
1000
Grayscale
1070
   100
1002
}
  0
LINE
  5
397D
  8
YODOROGO
 10
28137.604341291921
 20
1747.749496429286
 30
0.0
 11
28098.902986873411
 21
1939.749496429288
 31
0.0
1001
AUTOCAD_POSTSCRIPT_FIGURE
1002
{
1000
PSFILL
1000
Grayscale
1000
Grayscale
1070
   100
1002
}
  0
LINE
  5
397E
  8
YODOROGO
 10
28129.60434129191
 20
1747.749496429286
 30
0.0
 11
28137.604341291921
 21
1747.749496429286
 31
0.0
1001
AUTOCAD_POSTSCRIPT_FIGURE
1002
{
1000
PSFILL
1000
Grayscale
1000
Grayscale
1070
   100
1002
}
  0
LINE
  5
397F
  8
YODOROGO
 10
28078.06921993379
 20
1775.7407762987939
 30
0.0
 11
27977.604341291921
 21
1747.749496429286
 31
0.0
  0
LINE
  5
3980
  8
YODOROGO
 10
28078.06921993379
 20
1798.6689795290731
 30
0.0
 11
28078.06921993379
 21
1775.7407762987939
 31
0.0
  0
LINE
  5
3981
  8
YODOROGO
 10
28033.83678061287
 20
1786.816933133767
 30
0.0
 11
28078.06921993379
 21
1798.6689795290731
 31
0.0
  0
LINE
  5
3982
  8
YODOROGO
 10
28033.83678061287
 20
1872.5683489362989
 30
0.0
 11
28033.83678061287
 21
1786.816933133767
 31
0.0
  0
LINE
  5
3983
  8
YODOROGO
 10
28078.06921993379
 20
1872.5683489362989
 30
0.0
 11
28033.83678061287
 21
1872.5683489362989
 31
0.0
  0
LINE
  5
3984
  8
YODOROGO
 10
28078.06921993379
 20
1892.568348936298
 30
0.0
 11
28078.06921993379
 21
1872.5683489362989
 31
0.0
  0
LINE
  5
3985
  8
YODOROGO
 10
27977.604341291921
 20
1892.568348936298
 30
0.0
 11
28078.06921993379
 21
1892.568348936298
 31
0.0
  0
LINE
  5
3986
  8
YODOROGO
 10
27977.604341291921
 20
1872.5683489362989
 30
0.0
 11
27977.604341291921
 21
1892.568348936298
 31
0.0
  0
LINE
  5
3987
  8
YODOROGO
 10
28021.836780612852
 20
1872.5683489362989
 30
0.0
 11
27977.604341291921
 21
1872.5683489362989
 31
0.0
  0
LINE
  5
3988
  8
YODOROGO
 10
28021.836780612852
 20
1784.673339594317
 30
0.0
 11
28021.836780612852
 21
1872.5683489362989
 31
0.0
  0
LINE
  5
3989
  8
YODOROGO
 10
27977.604341291921
 20
1771.749496429286
 30
0.0
 11
28021.836780612852
 21
1784.673339594317
 31
0.0
  0
LINE
  5
398A
  8
YODOROGO
 10
27977.604341291921
 20
1747.749496429286
 30
0.0
 11
27977.604341291921
 21
1771.749496429286
 31
0.0
  0
LINE
  5
398B
  8
YODOROGO
 10
28001.604341291921
 20
1707.749496429288
 30
0.0
 11
28001.604341291921
 21
1683.7494964292871
 31
0.0
  0
LINE
  5
398C
  8
YODOROGO
 10
28017.604341291921
 20
1707.749496429288
 30
0.0
 11
28001.604341291921
 21
1707.749496429288
 31
0.0
  0
LINE
  5
398D
  8
YODOROGO
 10
28017.604341291921
 20
1683.7494964292871
 30
0.0
 11
28017.604341291921
 21
1707.749496429288
 31
0.0
  0
LINE
  5
398E
  8
YODOROGO
 10
28040.913204016892
 20
1683.7494964292871
 30
0.0
 11
28017.604341291921
 21
1683.7494964292871
 31
0.0
  0
LINE
  5
398F
  8
YODOROGO
 10
28001.604341291921
 20
1683.7494964292871
 30
0.0
 11
27977.604341291921
 21
1683.7494964292871
 31
0.0
  0
LINE
  5
3990
  8
YODOROGO
 10
28082.135520230921
 20
1707.749496429288
 30
0.0
 11
28098.135520230931
 21
1707.749496429288
 31
0.0
1001
AUTOCAD_POSTSCRIPT_FIGURE
1002
{
1000
PSFILL
1000
Grayscale
1000
Grayscale
1070
   100
1002
}
  0
LINE
  5
3991
  8
YODOROGO
 10
28401.60434129191
 20
1824.877625640306
 30
0.0
 11
28401.60434129191
 21
1752.877625640306
 31
0.0
1001
AUTOCAD_POSTSCRIPT_FIGURE
1002
{
1000
PSFILL
1000
Grayscale
1000
Grayscale
1070
   100
1002
}
  0
LINE
  5
3992
  8
YODOROGO
 10
28401.60434129191
 20
1916.8776256403071
 30
0.0
 11
28401.60434129191
 21
1984.877625640306
 31
0.0
1001
AUTOCAD_POSTSCRIPT_FIGURE
1002
{
1000
PSFILL
1000
Grayscale
1000
Grayscale
1070
   100
1002
}
  0
LINE
  5
3993
  8
YODOROGO
 10
28433.60434129191
 20
1819.7494964292871
 30
0.0
 11
28433.60434129191
 21
1747.74949642929
 31
0.0
  0
LINE
  5
3994
  8
YODOROGO
 10
28497.60434129191
 20
1707.749496429288
 30
0.0
 11
28433.60434129191
 21
1707.749496429288
 31
0.0
  0
LINE
  5
3995
  8
YODOROGO
 10
28433.60434129191
 20
1747.74949642929
 30
0.0
 11
28585.604341291921
 21
1747.74949642929
 31
0.0
  0
LINE
  5
3996
  8
YODOROGO
 10
28497.60434129191
 20
1867.7494964292871
 30
0.0
 11
28433.60434129191
 21
1867.7494964292871
 31
0.0
  0
LINE
  5
3997
  8
YODOROGO
 10
28497.60434129191
 20
1923.7494964292871
 30
0.0
 11
28497.60434129191
 21
1867.7494964292871
 31
0.0
  0
LINE
  5
3998
  8
YODOROGO
 10
28585.604341291921
 20
1987.7494964292871
 30
0.0
 11
28585.604341291921
 21
2027.749496429288
 31
0.0
  0
LINE
  5
3999
  8
YODOROGO
 10
28433.60434129191
 20
1987.7494964292871
 30
0.0
 11
28585.604341291921
 21
1987.7494964292871
 31
0.0
  0
LINE
  5
399A
  8
YODOROGO
 10
28433.60434129191
 20
1867.7494964292871
 30
0.0
 11
28433.60434129191
 21
1987.7494964292871
 31
0.0
  0
LINE
  5
399B
  8
YODOROGO
 10
29001.60434129191
 20
2027.749496429288
 30
0.0
 11
29001.60434129191
 21
1619.749496429288
 31
0.0
  0
LINE
  5
399C
  8
YODOROGO
 10
29073.604341291921
 20
1579.749496429288
 30
0.0
 11
29073.604341291921
 21
2027.749496429288
 31
0.0
  0
LINE
  5
399D
  8
YODOROGO
 10
29261.604341291921
 20
1491.749496429286
 30
0.0
 11
29261.604341291921
 21
2007.749496429288
 31
0.0
  0
LINE
  5
399E
  8
YODOROGO
 10
29197.604341291921
 20
2007.749496429288
 30
0.0
 11
29197.604341291921
 21
1491.749496429286
 31
0.0
  0
LINE
  5
399F
  8
YODOROGO
 10
29385.604341291921
 20
2027.749496429288
 30
0.0
 11
29385.604341291921
 21
1427.749496429288
 31
0.0
  0
LINE
  5
39A0
  8
YODOROGO
 10
29457.604341291921
 20
1427.749496429288
 30
0.0
 11
29457.604341291921
 21
2027.749496429288
 31
0.0
  0
LINE
  5
39A1
  8
YODOROGO
 10
28657.604341291921
 20
1667.749496429288
 30
0.0
 11
28657.604341291921
 21
1747.74949642929
 31
0.0
  0
LINE
  5
39A2
  8
YODOROGO
 10
29885.604341291921
 20
1707.749496429288
 30
0.0
 11
29885.604341291921
 21
1667.749496429288
 31
0.0
  0
LINE
  5
39A3
  8
YODOROGO
 10
29885.604341291921
 20
1707.749496429288
 30
0.0
 11
29885.604341291921
 21
1667.749496429288
 31
0.0
  0
ARC
  5
39A4
  8
YODOROGO
 10
28906.911576186842
 20
1618.217864442272
 30
0.0
 40
94.705151178741644
 50
274.05244162907098
 51
0.9266642149310712
  0
ARC
  5
39A5
  8
YODOROGO
 10
28909.186170719819
 20
1592.61072861044
 30
0.0
 40
164.92042356085511
 50
271.5351210653775
 51
355.52727750585052
  0
LINE
  5
39A6
  8
YODOROGO
 10
28913.604341291921
 20
1523.7494964292871
 30
0.0
 11
28913.604341291921
 21
1427.749496429288
 31
0.0
  0
LINE
  5
39A7
  8
YODOROGO
 10
28793.60434129191
 20
1667.749496429288
 30
0.0
 11
28657.604341291921
 21
1667.749496429288
 31
0.0
  0
LINE
  5
39A8
  8
YODOROGO
 10
28793.60434129191
 20
1603.7494964292871
 30
0.0
 11
28793.60434129191
 21
1667.749496429288
 31
0.0
  0
LINE
  5
39A9
  8
YODOROGO
 10
28657.604341291921
 20
1603.7494964292871
 30
0.0
 11
28793.60434129191
 21
1603.7494964292871
 31
0.0
  0
LINE
  5
39AA
  8
YODOROGO
 10
28657.604341291921
 20
1523.7494964292871
 30
0.0
 11
28657.604341291921
 21
1603.7494964292871
 31
0.0
  0
LINE
  5
39AB
  8
YODOROGO
 10
28793.60434129191
 20
1523.7494964292871
 30
0.0
 11
28657.604341291921
 21
1523.7494964292871
 31
0.0
  0
LINE
  5
39AC
  8
YODOROGO
 10
28793.60434129191
 20
1427.749496429288
 30
0.0
 11
28793.60434129191
 21
1523.7494964292871
 31
0.0
  0
LINE
  5
39AD
  8
YODOROGO
 10
29197.604341291921
 20
1491.749496429286
 30
0.0
 11
29261.604341291921
 21
1491.749496429286
 31
0.0
  0
LINE
  5
39AE
  8
YODOROGO
 10
29385.604341291921
 20
1427.749496429288
 30
0.0
 11
29457.604341291921
 21
1427.749496429288
 31
0.0
  0
LINE
  5
39AF
  8
YODOROGO
 10
29737.604341291921
 20
1528.4414521705639
 30
0.0
 11
29737.604341291921
 21
1427.749496429288
 31
0.0
  0
LINE
  5
39B0
  8
YODOROGO
 10
29617.604341291921
 20
1427.749496429288
 30
0.0
 11
29737.604341291921
 21
1528.4414521705639
 31
0.0
  0
LINE
  5
39B1
  8
YODOROGO
 10
29617.604341291921
 20
1547.749496429288
 30
0.0
 11
29617.604341291921
 21
1427.749496429288
 31
0.0
  0
LINE
  5
39B2
  8
YODOROGO
 10
29712.94462869945
 20
1627.749496429288
 30
0.0
 11
29617.604341291921
 21
1547.749496429288
 31
0.0
  0
LINE
  5
39B3
  8
YODOROGO
 10
29617.604341291921
 20
1627.749496429288
 30
0.0
 11
29712.94462869945
 21
1627.749496429288
 31
0.0
  0
LINE
  5
39B4
  8
YODOROGO
 10
29617.604341291921
 20
1667.749496429288
 30
0.0
 11
29617.604341291921
 21
1627.749496429288
 31
0.0
  0
LINE
  5
39B5
  8
YODOROGO
 10
29885.604341291921
 20
1667.749496429288
 30
0.0
 11
29617.604341291921
 21
1667.749496429288
 31
0.0
  0
LINE
  5
39B6
  8
YODOROGO
 10
29917.604341291921
 20
1627.749496429288
 30
0.0
 11
29777.604341291921
 21
1627.749496429288
 31
0.0
  0
LINE
  5
39B7
  8
YODOROGO
 10
29777.604341291921
 20
1562.0054374176559
 30
0.0
 11
29771.409872985321
 21
1556.807661346234
 31
0.0
  0
LINE
  5
39B8
  8
YODOROGO
 10
29777.604341291921
 20
1627.749496429288
 30
0.0
 11
29777.604341291921
 21
1562.0054374176559
 31
0.0
  0
LINE
  5
39B9
  8
YODOROGO
 10
29737.604341291921
 20
1528.4414521705639
 30
0.0
 11
29737.604341291921
 21
1427.749496429288
 31
0.0
  0
LINE
  5
39BA
  8
YODOROGO
 10
29617.604341291921
 20
1427.749496429288
 30
0.0
 11
29737.604341291921
 21
1528.4414521705639
 31
0.0
  0
LINE
  5
39BB
  8
YODOROGO
 10
29617.604341291921
 20
1547.749496429288
 30
0.0
 11
29617.604341291921
 21
1427.749496429288
 31
0.0
  0
LINE
  5
39BC
  8
YODOROGO
 10
29712.94462869945
 20
1627.749496429288
 30
0.0
 11
29617.604341291921
 21
1547.749496429288
 31
0.0
  0
LINE
  5
39BD
  8
YODOROGO
 10
29617.604341291921
 20
1627.749496429288
 30
0.0
 11
29712.94462869945
 21
1627.749496429288
 31
0.0
  0
LINE
  5
39BE
  8
YODOROGO
 10
29617.604341291921
 20
1667.749496429288
 30
0.0
 11
29617.604341291921
 21
1627.749496429288
 31
0.0
  0
LINE
  5
39BF
  8
YODOROGO
 10
29885.604341291921
 20
1667.749496429288
 30
0.0
 11
29617.604341291921
 21
1667.749496429288
 31
0.0
  0
LINE
  5
39C0
  8
YODOROGO
 10
28793.60434129191
 20
1747.74949642929
 30
0.0
 11
28793.60434129191
 21
1819.7494964292871
 31
0.0
  0
LINE
  5
39C1
  8
YODOROGO
 10
28657.604341291921
 20
1747.74949642929
 30
0.0
 11
28793.60434129191
 21
1747.74949642929
 31
0.0
  0
LINE
  5
39C2
  8
YODOROGO
 10
28729.604341291921
 20
1867.7494964292871
 30
0.0
 11
28729.604341291921
 21
1923.7494964292871
 31
0.0
  0
LINE
  5
39C3
  8
YODOROGO
 10
28793.60434129191
 20
1867.7494964292871
 30
0.0
 11
28729.604341291921
 21
1867.7494964292871
 31
0.0
  0
LINE
  5
39C4
  8
YODOROGO
 10
28793.60434129191
 20
1947.749496429288
 30
0.0
 11
28793.60434129191
 21
1867.7494964292871
 31
0.0
  0
ARC
  5
39C5
  8
YODOROGO
 10
28753.60434129191
 20
1947.749496429288
 30
0.0
 40
40.0
 50
0.0
 51
90.0
  0
LINE
  5
39C6
  8
YODOROGO
 10
28657.604341291921
 20
1987.7494964292871
 30
0.0
 11
28753.60434129191
 21
1987.7494964292871
 31
0.0
  0
LINE
  5
39C7
  8
YODOROGO
 10
28657.604341291921
 20
2027.749496429288
 30
0.0
 11
28657.604341291921
 21
1987.7494964292871
 31
0.0
  0
LINE
  5
39C8
  8
YODOROGO
 10
29073.604341291921
 20
2027.749496429288
 30
0.0
 11
29001.60434129191
 21
2027.749496429288
 31
0.0
  0
LINE
  5
39C9
  8
YODOROGO
 10
29261.604341291921
 20
2007.749496429288
 30
0.0
 11
29197.604341291921
 21
2007.749496429288
 31
0.0
  0
LINE
  5
39CA
  8
YODOROGO
 10
29457.604341291921
 20
2027.749496429288
 30
0.0
 11
29385.604341291921
 21
2027.749496429288
 31
0.0
  0
LINE
  5
39CB
  8
YODOROGO
 10
29673.604341291921
 20
1707.749496429288
 30
0.0
 11
29673.604341291921
 21
1771.7494964292871
 31
0.0
1001
AUTOCAD_POSTSCRIPT_FIGURE
1002
{
1000
PSFILL
1000
Grayscale
1000
Grayscale
1070
    25
1002
}
  0
LINE
  5
39CC
  8
YODOROGO
 10
29617.604341291921
 20
1707.749496429288
 30
0.0
 11
29673.604341291921
 21
1707.749496429288
 31
0.0
1001
AUTOCAD_POSTSCRIPT_FIGURE
1002
{
1000
PSFILL
1000
Grayscale
1000
Grayscale
1070
    25
1002
}
  0
LINE
  5
39CD
  8
YODOROGO
 10
29617.604341291921
 20
1819.7494964292871
 30
0.0
 11
29617.604341291921
 21
1707.749496429288
 31
0.0
1001
AUTOCAD_POSTSCRIPT_FIGURE
1002
{
1000
PSFILL
1000
Grayscale
1000
Grayscale
1070
    25
1002
}
  0
LINE
  5
39CE
  8
YODOROGO
 10
29765.604341291921
 20
1819.7494964292871
 30
0.0
 11
29617.604341291921
 21
1819.7494964292871
 31
0.0
1001
AUTOCAD_POSTSCRIPT_FIGURE
1002
{
1000
PSFILL
1000
Grayscale
1000
Grayscale
1070
    25
1002
}
  0
LINE
  5
39CF
  8
YODOROGO
 10
29765.604341291921
 20
1859.749496429288
 30
0.0
 11
29765.604341291921
 21
1819.7494964292871
 31
0.0
1001
AUTOCAD_POSTSCRIPT_FIGURE
1002
{
1000
PSFILL
1000
Grayscale
1000
Grayscale
1070
    25
1002
}
  0
LINE
  5
39D0
  8
YODOROGO
 10
29617.604341291921
 20
1859.749496429288
 30
0.0
 11
29765.604341291921
 21
1859.749496429288
 31
0.0
1001
AUTOCAD_POSTSCRIPT_FIGURE
1002
{
1000
PSFILL
1000
Grayscale
1000
Grayscale
1070
    25
1002
}
  0
LINE
  5
39D1
  8
YODOROGO
 10
29617.604341291921
 20
1907.7494964292871
 30
0.0
 11
29617.604341291921
 21
1859.749496429288
 31
0.0
1001
AUTOCAD_POSTSCRIPT_FIGURE
1002
{
1000
PSFILL
1000
Grayscale
1000
Grayscale
1070
    25
1002
}
  0
LINE
  5
39D2
  8
YODOROGO
 10
29765.604341291921
 20
1907.7494964292871
 30
0.0
 11
29617.604341291921
 21
1907.7494964292871
 31
0.0
1001
AUTOCAD_POSTSCRIPT_FIGURE
1002
{
1000
PSFILL
1000
Grayscale
1000
Grayscale
1070
    25
1002
}
  0
LINE
  5
39D3
  8
YODOROGO
 10
29765.604341291921
 20
1947.749496429288
 30
0.0
 11
29765.604341291921
 21
1907.7494964292871
 31
0.0
1001
AUTOCAD_POSTSCRIPT_FIGURE
1002
{
1000
PSFILL
1000
Grayscale
1000
Grayscale
1070
    25
1002
}
  0
LINE
  5
39D4
  8
YODOROGO
 10
29617.604341291921
 20
1947.749496429288
 30
0.0
 11
29765.604341291921
 21
1947.749496429288
 31
0.0
1001
AUTOCAD_POSTSCRIPT_FIGURE
1002
{
1000
PSFILL
1000
Grayscale
1000
Grayscale
1070
    25
1002
}
  0
LINE
  5
39D5
  8
YODOROGO
 10
29617.604341291921
 20
2027.749496429288
 30
0.0
 11
29617.604341291921
 21
1947.749496429288
 31
0.0
1001
AUTOCAD_POSTSCRIPT_FIGURE
1002
{
1000
PSFILL
1000
Grayscale
1000
Grayscale
1070
    25
1002
}
  0
LINE
  5
39D6
  8
YODOROGO
 10
29665.604341291921
 20
2027.749496429288
 30
0.0
 11
29617.604341291921
 21
2027.749496429288
 31
0.0
1001
AUTOCAD_POSTSCRIPT_FIGURE
1002
{
1000
PSFILL
1000
Grayscale
1000
Grayscale
1070
    25
1002
}
  0
LINE
  5
39D7
  8
YODOROGO
 10
29665.604341291921
 20
1995.7494964292871
 30
0.0
 11
29665.604341291921
 21
2027.749496429288
 31
0.0
1001
AUTOCAD_POSTSCRIPT_FIGURE
1002
{
1000
PSFILL
1000
Grayscale
1000
Grayscale
1070
    25
1002
}
  0
LINE
  5
39D8
  8
YODOROGO
 10
29765.604341291921
 20
1995.7494964292871
 30
0.0
 11
29665.604341291921
 21
1995.7494964292871
 31
0.0
1001
AUTOCAD_POSTSCRIPT_FIGURE
1002
{
1000
PSFILL
1000
Grayscale
1000
Grayscale
1070
    25
1002
}
  0
LINE
  5
39D9
  8
YODOROGO
 10
29765.604341291921
 20
2027.749496429288
 30
0.0
 11
29765.604341291921
 21
1995.7494964292871
 31
0.0
1001
AUTOCAD_POSTSCRIPT_FIGURE
1002
{
1000
PSFILL
1000
Grayscale
1000
Grayscale
1070
    25
1002
}
  0
LINE
  5
39DA
  8
YODOROGO
 10
29829.604341291921
 20
2027.749496429288
 30
0.0
 11
29765.604341291921
 21
2027.749496429288
 31
0.0
1001
AUTOCAD_POSTSCRIPT_FIGURE
1002
{
1000
PSFILL
1000
Grayscale
1000
Grayscale
1070
    25
1002
}
  0
LINE
  5
39DB
  8
YODOROGO
 10
29829.604341291921
 20
1995.7494964292871
 30
0.0
 11
29829.604341291921
 21
2027.749496429288
 31
0.0
1001
AUTOCAD_POSTSCRIPT_FIGURE
1002
{
1000
PSFILL
1000
Grayscale
1000
Grayscale
1070
    25
1002
}
  0
LINE
  5
39DC
  8
YODOROGO
 10
29829.604341291921
 20
1907.7494964292871
 30
0.0
 11
29829.604341291921
 21
1947.749496429288
 31
0.0
1001
AUTOCAD_POSTSCRIPT_FIGURE
1002
{
1000
PSFILL
1000
Grayscale
1000
Grayscale
1070
    25
1002
}
  0
LINE
  5
39DD
  8
YODOROGO
 10
29829.604341291921
 20
1819.7494964292871
 30
0.0
 11
29829.604341291921
 21
1859.749496429288
 31
0.0
1001
AUTOCAD_POSTSCRIPT_FIGURE
1002
{
1000
PSFILL
1000
Grayscale
1000
Grayscale
1070
    25
1002
}
  0
LINE
  5
39DE
  8
YODOROGO
 10
29921.60434129191
 20
1771.7494964292871
 30
0.0
 11
29921.60434129191
 21
1707.749496429288
 31
0.0
1001
AUTOCAD_POSTSCRIPT_FIGURE
1002
{
1000
PSFILL
1000
Grayscale
1000
Grayscale
1070
    25
1002
}
  0
LINE
  5
39DF
  8
YODOROGO
 10
29829.604341291921
 20
1771.7494964292871
 30
0.0
 11
29921.60434129191
 21
1771.7494964292871
 31
0.0
1001
AUTOCAD_POSTSCRIPT_FIGURE
1002
{
1000
PSFILL
1000
Grayscale
1000
Grayscale
1070
    25
1002
}
  0
LINE
  5
39E0
  8
YODOROGO
 10
29829.604341291921
 20
1707.749496429288
 30
0.0
 11
29829.604341291921
 21
1771.7494964292871
 31
0.0
1001
AUTOCAD_POSTSCRIPT_FIGURE
1002
{
1000
PSFILL
1000
Grayscale
1000
Grayscale
1070
    25
1002
}
  0
LINE
  5
39E1
  8
YODOROGO
 10
29765.604341291921
 20
1707.749496429288
 30
0.0
 11
29829.604341291921
 21
1707.749496429288
 31
0.0
1001
AUTOCAD_POSTSCRIPT_FIGURE
1002
{
1000
PSFILL
1000
Grayscale
1000
Grayscale
1070
    25
1002
}
  0
LINE
  5
39E2
  8
YODOROGO
 10
29765.604341291921
 20
1771.7494964292871
 30
0.0
 11
29765.604341291921
 21
1707.749496429288
 31
0.0
1001
AUTOCAD_POSTSCRIPT_FIGURE
1002
{
1000
PSFILL
1000
Grayscale
1000
Grayscale
1070
    25
1002
}
  0
LINE
  5
39E3
  8
YODOROGO
 10
29673.604341291921
 20
1771.7494964292871
 30
0.0
 11
29765.604341291921
 21
1771.7494964292871
 31
0.0
1001
AUTOCAD_POSTSCRIPT_FIGURE
1002
{
1000
PSFILL
1000
Grayscale
1000
Grayscale
1070
    25
1002
}
  0
ARC
  5
39E4
  8
YODOROGO
 10
31059.517893357912
 20
1602.6807375155761
 30
0.0
 40
178.22128111072141
 50
281.02627495425338
 51
357.77113575573799
  0
LINE
  5
39E5
  8
YODOROGO
 10
31413.604341291921
 20
1907.7494964292871
 30
0.0
 11
31165.604341291921
 21
1907.7494964292871
 31
0.0
  0
LINE
  5
39E6
  8
YODOROGO
 10
31413.604341291921
 20
2027.749496429288
 30
0.0
 11
31165.604341291921
 21
2027.749496429288
 31
0.0
  0
LINE
  5
39E7
  8
YODOROGO
 10
31165.604341291921
 20
1963.749496429286
 30
0.0
 11
31413.604341291921
 21
1963.749496429286
 31
0.0
  0
LINE
  5
39E8
  8
YODOROGO
 10
30791.604341291921
 20
1563.7494964292871
 30
0.0
 11
30791.604341291921
 21
1755.7494964292871
 31
0.0
  0
LINE
  5
39E9
  8
YODOROGO
 10
30763.604341291921
 20
1691.749496429288
 30
0.0
 11
30763.604341291921
 21
1563.7494964292871
 31
0.0
  0
LINE
  5
39EA
  8
YODOROGO
 10
30723.604341291921
 20
1491.749496429288
 30
0.0
 11
30723.604341291921
 21
1691.749496429288
 31
0.0
  0
LINE
  5
39EB
  8
YODOROGO
 10
30899.604341291932
 20
1691.749496429288
 30
0.0
 11
30899.604341291932
 21
1491.749496429288
 31
0.0
  0
LINE
  5
39EC
  8
YODOROGO
 10
30859.604341291932
 20
1563.7494964292871
 30
0.0
 11
30859.604341291932
 21
1691.749496429288
 31
0.0
  0
LINE
  5
39ED
  8
YODOROGO
 10
30831.604341291921
 20
1755.7494964292871
 30
0.0
 11
30831.604341291921
 21
1563.7494964292871
 31
0.0
  0
LINE
  5
39EE
  8
YODOROGO
 10
30973.604341291921
 20
2027.749496429288
 30
0.0
 11
30973.604341291921
 21
1467.749496429288
 31
0.0
  0
LINE
  5
39EF
  8
YODOROGO
 10
30645.604341291921
 20
1427.749496429288
 30
0.0
 11
30645.604341291921
 21
2027.749496429288
 31
0.0
  0
LINE
  5
39F0
  8
YODOROGO
 10
30697.604341291932
 20
1963.749496429286
 30
0.0
 11
30697.604341291932
 21
1427.749496429288
 31
0.0
  0
LINE
  5
39F1
  8
YODOROGO
 10
30925.604341291921
 20
1547.749496429288
 30
0.0
 11
30925.604341291921
 21
1963.749496429286
 31
0.0
  0
LINE
  5
39F2
  8
YODOROGO
 10
30381.604341291932
 20
1627.749496429288
 30
0.0
 11
30381.604341291932
 21
1679.749496429288
 31
0.0
  0
LINE
  5
39F3
  8
YODOROGO
 10
30617.604341291921
 20
1679.749496429288
 30
0.0
 11
30617.604341291921
 21
1627.749496429288
 31
0.0
  0
LINE
  5
39F4
  8
YODOROGO
 10
31165.604341291921
 20
1907.7494964292871
 30
0.0
 11
31165.604341291921
 21
1635.7494964292871
 31
0.0
  0
LINE
  5
39F5
  8
YODOROGO
 10
29949.60434129191
 20
1667.749496429288
 30
0.0
 11
29949.60434129191
 21
1707.749496429288
 31
0.0
  0
LINE
  5
39F6
  8
YODOROGO
 10
29949.60434129191
 20
1667.749496429288
 30
0.0
 11
29949.60434129191
 21
1707.749496429288
 31
0.0
  0
ARC
  5
39F7
  8
YODOROGO
 10
30537.604341291921
 20
1507.749496429288
 30
0.0
 40
80.0
 50
270.0
 51
0.0
  0
LINE
  5
39F8
  8
YODOROGO
 10
30569.604341291921
 20
1599.7494964292871
 30
0.0
 11
30617.604341291921
 21
1599.7494964292871
 31
0.0
  0
LINE
  5
39F9
  8
YODOROGO
 10
30617.604341291921
 20
1627.749496429288
 30
0.0
 11
30529.604341291939
 21
1627.749496429288
 31
0.0
  0
LINE
  5
39FA
  8
YODOROGO
 10
30217.604341291921
 20
1667.749496429288
 30
0.0
 11
29949.60434129191
 21
1667.749496429288
 31
0.0
  0
LINE
  5
39FB
  8
YODOROGO
 10
30217.604341291921
 20
1627.749496429288
 30
0.0
 11
30217.604341291921
 21
1667.749496429288
 31
0.0
  0
LINE
  5
39FC
  8
YODOROGO
 10
30017.604341291921
 20
1627.749496429288
 30
0.0
 11
30217.604341291921
 21
1627.749496429288
 31
0.0
  0
ARC
  5
39FD
  8
YODOROGO
 10
30230.05882870136
 20
1868.885714952901
 30
0.0
 40
321.37763628522822
 50
228.6181454618993
 51
245.660289248906
  0
LINE
  5
39FE
  8
YODOROGO
 10
30105.604341291921
 20
1603.7494964292871
 30
0.0
 11
30097.60434129195
 21
1576.0728158699001
 31
0.0
  0
LINE
  5
39FF
  8
YODOROGO
 10
30189.604341291921
 20
1603.7494964292871
 30
0.0
 11
30105.604341291921
 21
1603.7494964292871
 31
0.0
  0
LINE
  5
3A00
  8
YODOROGO
 10
30177.604341291921
 20
1551.817722473427
 30
0.0
 11
30189.604341291921
 21
1603.7494964292871
 31
0.0
  0
ARC
  5
3A01
  8
YODOROGO
 10
30230.05882870045
 20
1868.885714953002
 30
0.0
 40
321.37763628529081
 50
260.60629297969911
 51
267.77903556555862
  0
LINE
  5
3A02
  8
YODOROGO
 10
30217.604341291921
 20
1427.749496429285
 30
0.0
 11
30217.604341291921
 21
1547.749496429288
 31
0.0
  0
LINE
  5
3A03
  8
YODOROGO
 10
29937.604341291932
 20
1481.3393349155101
 30
0.0
 11
29937.604341291921
 21
1594.531090531141
 31
0.0
  0
LINE
  5
3A04
  8
YODOROGO
 10
30217.604341291921
 20
1667.749496429288
 30
0.0
 11
29949.60434129191
 21
1667.749496429288
 31
0.0
  0
LINE
  5
3A05
  8
YODOROGO
 10
30217.604341291921
 20
1627.749496429288
 30
0.0
 11
30217.604341291921
 21
1667.749496429288
 31
0.0
  0
LINE
  5
3A06
  8
YODOROGO
 10
30017.604341291921
 20
1627.749496429288
 30
0.0
 11
30217.604341291921
 21
1627.749496429288
 31
0.0
  0
ARC
  5
3A07
  8
YODOROGO
 10
30230.05882870136
 20
1868.885714952901
 30
0.0
 40
321.37763628522822
 50
228.6181454618993
 51
245.660289248906
  0
LINE
  5
3A08
  8
YODOROGO
 10
30105.604341291921
 20
1603.7494964292871
 30
0.0
 11
30097.60434129195
 21
1576.0728158699001
 31
0.0
  0
LINE
  5
3A09
  8
YODOROGO
 10
30189.604341291921
 20
1603.7494964292871
 30
0.0
 11
30105.604341291921
 21
1603.7494964292871
 31
0.0
  0
LINE
  5
3A0A
  8
YODOROGO
 10
30177.604341291921
 20
1551.817722473427
 30
0.0
 11
30189.604341291921
 21
1603.7494964292871
 31
0.0
  0
ARC
  5
3A0B
  8
YODOROGO
 10
30230.05882870045
 20
1868.885714953002
 30
0.0
 40
321.37763628529081
 50
260.60629297969911
 51
267.77903556555862
  0
LINE
  5
3A0C
  8
YODOROGO
 10
30217.604341291921
 20
1427.749496429285
 30
0.0
 11
30217.604341291921
 21
1547.749496429288
 31
0.0
  0
LINE
  5
3A0D
  8
YODOROGO
 10
29937.604341291932
 20
1481.3393349155101
 30
0.0
 11
29937.604341291921
 21
1594.531090531141
 31
0.0
  0
LINE
  5
3A0E
  8
YODOROGO
 10
30433.604341291921
 20
1573.749496429288
 30
0.0
 11
30381.604341291932
 21
1573.749496429288
 31
0.0
  0
LINE
  5
3A0F
  8
YODOROGO
 10
30433.604341291921
 20
1601.749496429285
 30
0.0
 11
30433.604341291921
 21
1573.749496429288
 31
0.0
  0
LINE
  5
3A10
  8
YODOROGO
 10
30381.604341291932
 20
1601.749496429285
 30
0.0
 11
30433.604341291921
 21
1601.749496429285
 31
0.0
  0
LINE
  5
3A11
  8
YODOROGO
 10
30381.604341291932
 20
1573.749496429288
 30
0.0
 11
30381.604341291932
 21
1601.749496429285
 31
0.0
  0
LINE
  5
3A12
  8
YODOROGO
 10
30429.604341291921
 20
1577.7494964292871
 30
0.0
 11
30385.604341291921
 21
1577.7494964292871
 31
0.0
  0
LINE
  5
3A13
  8
YODOROGO
 10
30429.604341291921
 20
1597.749496429288
 30
0.0
 11
30429.604341291921
 21
1577.7494964292871
 31
0.0
  0
LINE
  5
3A14
  8
YODOROGO
 10
30385.604341291921
 20
1597.749496429288
 30
0.0
 11
30429.604341291921
 21
1597.749496429288
 31
0.0
  0
LINE
  5
3A15
  8
YODOROGO
 10
30385.604341291921
 20
1577.7494964292871
 30
0.0
 11
30385.604341291921
 21
1597.749496429288
 31
0.0
  0
LINE
  5
3A16
  8
YODOROGO
 10
30425.604341291921
 20
1581.749496429286
 30
0.0
 11
30389.604341291921
 21
1581.749496429286
 31
0.0
  0
LINE
  5
3A17
  8
YODOROGO
 10
30425.604341291921
 20
1593.749496429288
 30
0.0
 11
30425.604341291921
 21
1581.749496429286
 31
0.0
  0
LINE
  5
3A18
  8
YODOROGO
 10
30389.604341291921
 20
1593.749496429288
 30
0.0
 11
30425.604341291921
 21
1593.749496429288
 31
0.0
  0
LINE
  5
3A19
  8
YODOROGO
 10
30389.604341291921
 20
1581.749496429286
 30
0.0
 11
30389.604341291921
 21
1593.749496429288
 31
0.0
  0
LINE
  5
3A1A
  8
YODOROGO
 10
30421.604341291932
 20
1585.7494964292871
 30
0.0
 11
30393.604341291921
 21
1585.7494964292871
 31
0.0
  0
LINE
  5
3A1B
  8
YODOROGO
 10
30421.604341291932
 20
1589.749496429288
 30
0.0
 11
30421.604341291932
 21
1585.7494964292871
 31
0.0
  0
LINE
  5
3A1C
  8
YODOROGO
 10
30393.604341291921
 20
1589.749496429288
 30
0.0
 11
30421.604341291932
 21
1589.749496429288
 31
0.0
  0
LINE
  5
3A1D
  8
YODOROGO
 10
30393.604341291921
 20
1585.7494964292871
 30
0.0
 11
30393.604341291921
 21
1589.749496429288
 31
0.0
  0
LINE
  5
3A1E
  8
YODOROGO
 10
30465.604341291921
 20
1627.749496429288
 30
0.0
 11
30381.604341291932
 21
1627.749496429288
 31
0.0
  0
LINE
  5
3A1F
  8
YODOROGO
 10
30465.604341291921
 20
1547.749496429288
 30
0.0
 11
30465.604341291921
 21
1627.749496429288
 31
0.0
  0
LINE
  5
3A20
  8
YODOROGO
 10
30381.604341291932
 20
1547.749496429288
 30
0.0
 11
30465.604341291921
 21
1547.749496429288
 31
0.0
  0
LINE
  5
3A21
  8
YODOROGO
 10
30381.604341291932
 20
1427.749496429288
 30
0.0
 11
30381.604341291932
 21
1547.749496429288
 31
0.0
  0
LINE
  5
3A22
  8
YODOROGO
 10
30537.604341291921
 20
1427.749496429288
 30
0.0
 11
30381.604341291932
 21
1427.749496429288
 31
0.0
  0
LINE
  5
3A23
  8
YODOROGO
 10
30569.604341291921
 20
1571.749496429285
 30
0.0
 11
30569.604341291921
 21
1599.7494964292871
 31
0.0
  0
ARC
  5
3A24
  8
YODOROGO
 10
30545.604341291921
 20
1571.749496429291
 30
0.0
 40
24.000000000003752
 50
270.0
 51
359.99999999998772
  0
LINE
  5
3A25
  8
YODOROGO
 10
30529.604341291939
 20
1547.749496429288
 30
0.0
 11
30545.604341291921
 21
1547.749496429288
 31
0.0
  0
LINE
  5
3A26
  8
YODOROGO
 10
30529.604341291939
 20
1627.749496429288
 30
0.0
 11
30529.604341291939
 21
1547.749496429288
 31
0.0
  0
LINE
  5
3A27
  8
YODOROGO
 10
30899.604341291932
 20
1547.749496429288
 30
0.0
 11
30925.604341291921
 21
1547.749496429288
 31
0.0
  0
LINE
  5
3A28
  8
YODOROGO
 10
30933.604341291921
 20
1427.749496429288
 30
0.0
 11
30899.604341291932
 21
1427.749496429288
 31
0.0
  0
LINE
  5
3A29
  8
YODOROGO
 10
30763.604341291921
 20
1563.7494964292871
 30
0.0
 11
30791.604341291921
 21
1563.7494964292871
 31
0.0
  0
LINE
  5
3A2A
  8
YODOROGO
 10
30899.604341291932
 20
1491.749496429288
 30
0.0
 11
30723.604341291921
 21
1491.749496429288
 31
0.0
  0
LINE
  5
3A2B
  8
YODOROGO
 10
30831.604341291921
 20
1563.7494964292871
 30
0.0
 11
30859.604341291932
 21
1563.7494964292871
 31
0.0
  0
LINE
  5
3A2C
  8
YODOROGO
 10
30899.604341291932
 20
1427.749496429288
 30
0.0
 11
30899.604341291932
 21
1547.749496429288
 31
0.0
  0
LINE
  5
3A2D
  8
YODOROGO
 10
30697.604341291932
 20
1427.749496429288
 30
0.0
 11
30645.604341291921
 21
1427.749496429288
 31
0.0
  0
LINE
  5
3A2E
  8
YODOROGO
 10
30617.604341291921
 20
1599.7494964292871
 30
0.0
 11
30617.604341291921
 21
1507.749496429288
 31
0.0
  0
ARC
  5
3A2F
  8
YODOROGO
 10
30933.604341291921
 20
1467.749496429288
 30
0.0
 40
40.0
 50
270.0
 51
0.0
  0
LINE
  5
3A30
  8
YODOROGO
 10
31093.604341291921
 20
1523.7494964292871
 30
0.0
 11
31093.604341291921
 21
1427.749496429288
 31
0.0
  0
ARC
  5
3A31
  8
YODOROGO
 10
31039.721395566768
 20
1637.5313901097329
 30
0.0
 40
125.8955565916754
 50
295.34052442160112
 51
359.18902303418679
  0
LINE
  5
3A32
  8
YODOROGO
 10
30617.604341291921
 20
1859.749496429288
 30
0.0
 11
30497.604341291921
 21
1939.749496429288
 31
0.0
  0
LINE
  5
3A33
  8
YODOROGO
 10
30497.604341291921
 20
2027.749496429288
 30
0.0
 11
30617.604341291921
 21
1947.749496429288
 31
0.0
  0
LINE
  5
3A34
  8
YODOROGO
 10
30529.604341291939
 20
1679.749496429288
 30
0.0
 11
30617.604341291921
 21
1679.749496429288
 31
0.0
  0
LINE
  5
3A35
  8
YODOROGO
 10
30617.604341291921
 20
1735.7494964292871
 30
0.0
 11
30529.604341291939
 21
1735.7494964292871
 31
0.0
  0
LINE
  5
3A36
  8
YODOROGO
 10
30381.604341291932
 20
1795.7494964292871
 30
0.0
 11
30617.604341291921
 21
1795.7494964292871
 31
0.0
  0
LINE
  5
3A37
  8
YODOROGO
 10
30081.604341291921
 20
2027.749496429288
 30
0.0
 11
30021.604341291921
 21
2027.749496429288
 31
0.0
  0
LINE
  5
3A38
  8
YODOROGO
 10
30081.604341291921
 20
1827.7494964292871
 30
0.0
 11
30081.604341291921
 21
2027.749496429288
 31
0.0
  0
LINE
  5
3A39
  8
YODOROGO
 10
30021.604341291921
 20
1827.7494964292871
 30
0.0
 11
30081.604341291921
 21
1827.7494964292871
 31
0.0
  0
LINE
  5
3A3A
  8
YODOROGO
 10
30021.604341291921
 20
2027.749496429288
 30
0.0
 11
30021.604341291921
 21
1827.7494964292871
 31
0.0
  0
LINE
  5
3A3B
  8
YODOROGO
 10
30161.604341291921
 20
2027.749496429288
 30
0.0
 11
30217.604341291921
 21
2027.749496429288
 31
0.0
  0
LINE
  5
3A3C
  8
YODOROGO
 10
30161.604341291921
 20
1811.749496429288
 30
0.0
 11
30161.604341291921
 21
2027.749496429288
 31
0.0
  0
ARC
  5
3A3D
  8
YODOROGO
 10
30121.604341291921
 20
1811.749496429288
 30
0.0
 40
40.0
 50
270.0
 51
0.0
  0
LINE
  5
3A3E
  8
YODOROGO
 10
30021.604341291921
 20
1771.7494964292871
 30
0.0
 11
30121.604341291921
 21
1771.7494964292871
 31
0.0
  0
LINE
  5
3A3F
  8
YODOROGO
 10
30021.604341291921
 20
1707.749496429288
 30
0.0
 11
30021.604341291921
 21
1771.7494964292871
 31
0.0
  0
LINE
  5
3A40
  8
YODOROGO
 10
30137.604341291921
 20
1707.749496429288
 30
0.0
 11
30021.604341291921
 21
1707.749496429288
 31
0.0
  0
ARC
  5
3A41
  8
YODOROGO
 10
30137.604341291921
 20
1787.7494964292871
 30
0.0
 40
80.0
 50
270.0
 51
0.0
  0
LINE
  5
3A42
  8
YODOROGO
 10
30217.604341291921
 20
2027.749496429288
 30
0.0
 11
30217.604341291921
 21
1787.7494964292871
 31
0.0
  0
LINE
  5
3A43
  8
YODOROGO
 10
29977.604341291921
 20
1947.749496429288
 30
0.0
 11
29977.604341291921
 21
1995.7494964292871
 31
0.0
1001
AUTOCAD_POSTSCRIPT_FIGURE
1002
{
1000
PSFILL
1000
Grayscale
1000
Grayscale
1070
    25
1002
}
  0
LINE
  5
3A44
  8
YODOROGO
 10
29977.604341291921
 20
1859.749496429288
 30
0.0
 11
29977.604341291921
 21
1907.7494964292871
 31
0.0
1001
AUTOCAD_POSTSCRIPT_FIGURE
1002
{
1000
PSFILL
1000
Grayscale
1000
Grayscale
1070
    25
1002
}
  0
LINE
  5
3A45
  8
YODOROGO
 10
29977.604341291921
 20
1707.749496429288
 30
0.0
 11
29977.604341291921
 21
1819.7494964292871
 31
0.0
1001
AUTOCAD_POSTSCRIPT_FIGURE
1002
{
1000
PSFILL
1000
Grayscale
1000
Grayscale
1070
    25
1002
}
  0
LINE
  5
3A46
  8
YODOROGO
 10
30381.604341291932
 20
1907.7494964292871
 30
0.0
 11
30497.604341291921
 21
2027.749496429288
 31
0.0
  0
LINE
  5
3A47
  8
YODOROGO
 10
30381.604341291932
 20
1819.7494964292871
 30
0.0
 11
30381.604341291932
 21
1907.7494964292871
 31
0.0
  0
LINE
  5
3A48
  8
YODOROGO
 10
30497.604341291921
 20
1939.749496429288
 30
0.0
 11
30381.604341291932
 21
1819.7494964292871
 31
0.0
  0
LINE
  5
3A49
  8
YODOROGO
 10
30465.604341291921
 20
1679.749496429288
 30
0.0
 11
30465.604341291921
 21
1735.7494964292871
 31
0.0
  0
LINE
  5
3A4A
  8
YODOROGO
 10
30381.604341291932
 20
1679.749496429288
 30
0.0
 11
30465.604341291921
 21
1679.749496429288
 31
0.0
  0
LINE
  5
3A4B
  8
YODOROGO
 10
30529.604341291939
 20
1735.7494964292871
 30
0.0
 11
30529.604341291939
 21
1679.749496429288
 31
0.0
  0
LINE
  5
3A4C
  8
YODOROGO
 10
30381.604341291932
 20
1735.7494964292871
 30
0.0
 11
30381.604341291932
 21
1795.7494964292871
 31
0.0
  0
LINE
  5
3A4D
  8
YODOROGO
 10
30465.604341291921
 20
1735.7494964292871
 30
0.0
 11
30381.604341291932
 21
1735.7494964292871
 31
0.0
  0
LINE
  5
3A4E
  8
YODOROGO
 10
30645.604341291921
 20
2027.749496429288
 30
0.0
 11
30973.604341291921
 21
2027.749496429288
 31
0.0
  0
LINE
  5
3A4F
  8
YODOROGO
 10
30925.604341291921
 20
1963.749496429286
 30
0.0
 11
30697.604341291932
 21
1963.749496429286
 31
0.0
  0
LINE
  5
3A50
  8
YODOROGO
 10
30873.604341291921
 20
1819.7494964292871
 30
0.0
 11
30899.604341291932
 21
1819.7494964292871
 31
0.0
  0
LINE
  5
3A51
  8
YODOROGO
 10
30899.604341291932
 20
1939.749496429288
 30
0.0
 11
30873.604341291921
 21
1819.7494964292871
 31
0.0
  0
LINE
  5
3A52
  8
YODOROGO
 10
30851.604341291939
 20
1939.749496429288
 30
0.0
 11
30899.604341291932
 21
1939.749496429288
 31
0.0
  0
LINE
  5
3A53
  8
YODOROGO
 10
30825.604341291921
 20
1819.7494964292871
 30
0.0
 11
30851.604341291939
 21
1939.749496429288
 31
0.0
  0
LINE
  5
3A54
  8
YODOROGO
 10
30797.604341291921
 20
1819.7494964292871
 30
0.0
 11
30825.604341291921
 21
1819.7494964292871
 31
0.0
  0
LINE
  5
3A55
  8
YODOROGO
 10
30771.604341291939
 20
1939.749496429288
 30
0.0
 11
30797.604341291921
 21
1819.7494964292871
 31
0.0
  0
LINE
  5
3A56
  8
YODOROGO
 10
30723.604341291921
 20
1939.749496429288
 30
0.0
 11
30771.604341291939
 21
1939.749496429288
 31
0.0
  0
LINE
  5
3A57
  8
YODOROGO
 10
30749.604341291921
 20
1819.7494964292871
 30
0.0
 11
30723.604341291921
 21
1939.749496429288
 31
0.0
  0
LINE
  5
3A58
  8
YODOROGO
 10
30723.604341291921
 20
1819.7494964292871
 30
0.0
 11
30749.604341291921
 21
1819.7494964292871
 31
0.0
  0
LINE
  5
3A59
  8
YODOROGO
 10
30723.604341291921
 20
1755.7494964292871
 30
0.0
 11
30723.604341291921
 21
1819.7494964292871
 31
0.0
  0
LINE
  5
3A5A
  8
YODOROGO
 10
30899.604341291932
 20
1755.7494964292871
 30
0.0
 11
30723.604341291921
 21
1755.7494964292871
 31
0.0
  0
LINE
  5
3A5B
  8
YODOROGO
 10
30899.604341291932
 20
1819.7494964292871
 30
0.0
 11
30899.604341291932
 21
1755.7494964292871
 31
0.0
  0
LINE
  5
3A5C
  8
YODOROGO
 10
30617.604341291921
 20
1947.749496429288
 30
0.0
 11
30617.604341291921
 21
1859.749496429288
 31
0.0
  0
LINE
  5
3A5D
  8
YODOROGO
 10
30791.604341291921
 20
1755.7494964292871
 30
0.0
 11
30831.604341291921
 21
1755.7494964292871
 31
0.0
  0
LINE
  5
3A5E
  8
YODOROGO
 10
30723.604341291921
 20
1691.749496429288
 30
0.0
 11
30763.604341291921
 21
1691.749496429288
 31
0.0
  0
LINE
  5
3A5F
  8
YODOROGO
 10
30859.604341291932
 20
1691.749496429288
 30
0.0
 11
30899.604341291932
 21
1691.749496429288
 31
0.0
  0
LINE
  5
3A60
  8
YODOROGO
 10
30617.604341291921
 20
1795.7494964292871
 30
0.0
 11
30617.604341291921
 21
1735.7494964292871
 31
0.0
  0
LINE
  5
3A61
  8
YODOROGO
 10
31165.604341291921
 20
2027.749496429288
 30
0.0
 11
31165.604341291921
 21
1963.749496429286
 31
0.0
  0
LINE
  5
3A62
  8
YODOROGO
 10
31533.604341291921
 20
1595.7494964292871
 30
0.0
 11
31533.60434129191
 21
1811.749496429288
 31
0.0
  0
LINE
  5
3A63
  8
YODOROGO
 10
31461.60434129191
 20
1987.7494964292871
 30
0.0
 11
31461.60434129191
 21
1635.7494964292871
 31
0.0
  0
LINE
  5
3A64
  8
YODOROGO
 10
31653.604341291921
 20
1427.749496429288
 30
0.0
 11
31653.60434129191
 21
1811.749496429288
 31
0.0
  0
LINE
  5
3A65
  8
YODOROGO
 10
31589.604341291921
 20
1811.749496429288
 30
0.0
 11
31589.604341291921
 21
1427.749496429288
 31
0.0
  0
LINE
  5
3A66
  8
YODOROGO
 10
31237.604341291921
 20
1595.7494964292871
 30
0.0
 11
31237.604341291921
 21
1707.749496429288
 31
0.0
  0
ARC
  5
3A67
  8
YODOROGO
 10
31353.914865116069
 20
1607.790351288558
 30
0.0
 40
180.0924485759885
 50
268.62849102169793
 51
356.16638457330322
  0
LINE
  5
3A68
  8
YODOROGO
 10
31349.604341291939
 20
1527.749496429288
 30
0.0
 11
31349.604341291939
 21
1427.749496429288
 31
0.0
  0
ARC
  5
3A69
  8
YODOROGO
 10
31351.518075724562
 20
1637.838957017655
 30
0.0
 40
110.1060929836122
 50
269.00410209305932
 51
358.91264455492478
  0
LINE
  5
3A6A
  8
YODOROGO
 10
31589.604341291921
 20
1427.749496429288
 30
0.0
 11
31653.604341291921
 21
1427.749496429288
 31
0.0
  0
LINE
  5
3A6B
  8
YODOROGO
 10
31533.60434129191
 20
1811.749496429288
 30
0.0
 11
31589.604341291921
 21
1811.749496429288
 31
0.0
  0
LINE
  5
3A6C
  8
YODOROGO
 10
31621.604341291939
 20
1987.7494964292871
 30
0.0
 11
31461.60434129191
 21
1987.7494964292871
 31
0.0
  0
LINE
  5
3A6D
  8
YODOROGO
 10
31533.60434129191
 20
1915.7494964292871
 30
0.0
 11
31661.604341291939
 21
1915.7494964292871
 31
0.0
  0
LINE
  5
3A6E
  8
YODOROGO
 10
31701.604341291939
 20
1875.7494964292871
 30
0.0
 11
31533.60434129191
 21
1875.7494964292871
 31
0.0
  0
LINE
  5
3A6F
  8
YODOROGO
 10
31237.604341291921
 20
1779.749496429288
 30
0.0
 11
31349.604341291939
 21
1779.749496429288
 31
0.0
  0
LINE
  5
3A70
  8
YODOROGO
 10
31237.604341291921
 20
1835.7494964292871
 30
0.0
 11
31237.604341291921
 21
1779.749496429288
 31
0.0
  0
LINE
  5
3A71
  8
YODOROGO
 10
31349.604341291939
 20
1835.7494964292871
 30
0.0
 11
31237.604341291921
 21
1835.7494964292871
 31
0.0
  0
LINE
  5
3A72
  8
YODOROGO
 10
31349.604341291939
 20
1779.749496429288
 30
0.0
 11
31349.604341291939
 21
1835.7494964292871
 31
0.0
  0
LINE
  5
3A73
  8
YODOROGO
 10
31533.60434129191
 20
1875.7494964292871
 30
0.0
 11
31533.60434129191
 21
1915.7494964292871
 31
0.0
  0
LINE
  5
3A74
  8
YODOROGO
 10
31413.604341291921
 20
1707.749496429288
 30
0.0
 11
31413.604341291921
 21
1907.7494964292871
 31
0.0
  0
LINE
  5
3A75
  8
YODOROGO
 10
31237.604341291921
 20
1707.749496429288
 30
0.0
 11
31413.604341291921
 21
1707.749496429288
 31
0.0
  0
LINE
  5
3A76
  8
YODOROGO
 10
31413.604341291921
 20
1963.749496429286
 30
0.0
 11
31413.604341291921
 21
2027.749496429288
 31
0.0
  0
ARC
  5
3A77
  8
YODOROGO
 10
31621.604341291939
 20
2003.749496429285
 30
0.0
 40
15.999999999994539
 50
270.0
 51
0.0000000000081422
  0
LINE
  5
3A78
  8
YODOROGO
 10
31637.604341291921
 20
2027.749496429288
 30
0.0
 11
31637.604341291921
 21
2003.7494964292871
 31
0.0
  0
LINE
  5
3A79
  8
YODOROGO
 10
31701.604341291939
 20
2027.749496429288
 30
0.0
 11
31637.604341291921
 21
2027.749496429288
 31
0.0
  0
LINE
  5
3A7A
  8
YODOROGO
 10
31701.604341291939
 20
1955.7494964292871
 30
0.0
 11
31701.604341291939
 21
2027.749496429288
 31
0.0
  0
ARC
  5
3A7B
  8
YODOROGO
 10
31661.604341291939
 20
1955.7494964292871
 30
0.0
 40
40.0
 50
270.0
 51
0.0
  0
LINE
  5
3A7C
  8
YODOROGO
 10
31701.604341291939
 20
1811.749496429288
 30
0.0
 11
31701.604341291939
 21
1875.7494964292871
 31
0.0
  0
LINE
  5
3A7D
  8
YODOROGO
 10
31653.60434129191
 20
1811.749496429288
 30
0.0
 11
31701.604341291939
 21
1811.749496429288
 31
0.0
  0
LINE
  5
3A81
  8
SUNPOU
  6
CONTINUOUS
 62
     4
 10
11729.62934199998
 20
19970.982161000022
 30
0.0
 11
11729.62934199998
 21
20520.987440000012
 31
0.0
  0
LINE
  5
3A82
  8
SUNPOU
  6
CONTINUOUS
 62
     4
 10
11815.12934199998
 20
20440.987440000012
 30
0.0
 11
12055.12934199998
 21
20440.987440000012
 31
0.0
  0
LINE
  5
3A83
  8
SUNPOU
  6
CONTINUOUS
 62
     4
 10
11732.62934199998
 20
20440.987440000012
 30
0.0
 11
11492.62934199998
 21
20440.987440000012
 31
0.0
  0
LINE
  5
3A84
  8
SUNPOU
  6
CONTINUOUS
 62
     4
 10
11815.12934199998
 20
20440.987440000012
 30
0.0
 11
11732.62934199998
 21
20440.987440000012
 31
0.0
  0
LINE
  5
3A85
  8
SUNPOU
  6
CONTINUOUS
 62
     4
 10
14468.12934199998
 20
19970.982161000022
 30
0.0
 11
14468.12934199998
 21
20520.987440000012
 31
0.0
  0
LINE
  5
3A86
  8
SUNPOU
  6
CONTINUOUS
 62
     4
 10
14382.62934199998
 20
20440.987440000012
 30
0.0
 11
14142.62934199998
 21
20440.987440000012
 31
0.0
  0
LINE
  5
3A87
  8
SUNPOU
  6
CONTINUOUS
 62
     4
 10
14465.12934199998
 20
20440.987440000012
 30
0.0
 11
14705.12934199998
 21
20440.987440000012
 31
0.0
  0
LINE
  5
3A88
  8
SUNPOU
  6
CONTINUOUS
 62
     4
 10
14382.62934199998
 20
20440.987440000012
 30
0.0
 11
14465.12934199998
 21
20440.987440000012
 31
0.0
  0
LINE
  5
3A89
  8
SUNPOU
  6
CONTINUOUS
 62
     4
 10
14382.62934199998
 20
20515.987175499999
 30
0.0
 11
14382.62934199998
 21
20520.987440000012
 31
0.0
  0
LINE
  5
3A8A
  8
SUNPOU
  6
CONTINUOUS
 62
     4
 10
11815.12934199998
 20
20440.987440000012
 30
0.0
 11
14382.62934199998
 21
20440.987440000012
 31
0.0
  0
LINE
  5
3A8B
  8
SUNPOU
  6
CONTINUOUS
 62
     4
 10
11652.62647099998
 20
13289.490937
 30
0.0
 11
10805.631049999971
 21
13289.490937
 31
0.0
  0
LINE
  5
3A8C
  8
SUNPOU
  6
CONTINUOUS
 62
     4
 10
10885.631049999971
 20
13481.986252000001
 30
0.0
 11
10885.631049999971
 21
13721.986252000001
 31
0.0
  0
LINE
  5
3A8D
  8
SUNPOU
  6
CONTINUOUS
 62
     4
 10
10885.631049999971
 20
13289.490937
 30
0.0
 11
10885.631049999971
 21
13049.490937
 31
0.0
  0
LINE
  5
3A8E
  8
SUNPOU
  6
CONTINUOUS
 62
     4
 10
10885.631049999971
 20
13481.986252000001
 30
0.0
 11
10885.631049999971
 21
13289.490937
 31
0.0
  0
LINE
  5
3A8F
  8
SUNPOU
  6
CONTINUOUS
 62
     4
 10
11516.33315299998
 20
15291.72676350001
 30
0.0
 11
10805.631049999971
 21
15291.72676350001
 31
0.0
  0
LINE
  5
3A90
  8
SUNPOU
  6
CONTINUOUS
 62
     4
 10
10885.631049999971
 20
15291.72676350001
 30
0.0
 11
10885.631049999971
 21
13481.986252000001
 31
0.0
  0
LINE
  5
3A91
  8
SUNPOU
  6
CONTINUOUS
 62
     4
 10
11516.33315299998
 20
15291.72676350001
 30
0.0
 11
10805.631049999971
 21
15291.72676350001
 31
0.0
  0
LINE
  5
3A92
  8
SUNPOU
  6
CONTINUOUS
 62
     4
 10
10885.631049999971
 20
16750.486251999992
 30
0.0
 11
10885.631049999971
 21
15291.72676350001
 31
0.0
  0
LINE
  5
3A93
  8
SUNPOU
  6
CONTINUOUS
 62
     4
 10
11516.33315299998
 20
18209.486251999992
 30
0.0
 11
10805.631049999971
 21
18209.486251999992
 31
0.0
  0
LINE
  5
3A94
  8
SUNPOU
  6
CONTINUOUS
 62
     4
 10
10885.631049999971
 20
18209.486251999992
 30
0.0
 11
10885.631049999971
 21
16750.486251999992
 31
0.0
  0
LINE
  5
3A95
  8
SUNPOU
  6
CONTINUOUS
 62
     4
 10
11652.62647099998
 20
19870.982161000022
 30
0.0
 11
11205.63104999998
 21
19870.982161000022
 31
0.0
  0
LINE
  5
3A96
  8
SUNPOU
  6
CONTINUOUS
 62
     4
 10
11652.630825999981
 20
19890.982161000022
 30
0.0
 11
11205.63104999998
 21
19890.982161000022
 31
0.0
  0
LINE
  5
3A98
  8
SUNPOU
  6
CONTINUOUS
 62
     4
 10
11285.63104999998
 20
19890.982161000022
 30
0.0
 11
11285.63104999998
 21
20130.982161000022
 31
0.0
  0
LINE
  5
3A99
  8
SUNPOU
  6
CONTINUOUS
 62
     4
 10
11285.63104999998
 20
19850.982161000022
 30
0.0
 11
11285.63104999998
 21
19890.982161000022
 31
0.0
  0
LINE
  5
3A9A
  8
SUNPOU
  6
CONTINUOUS
 62
     4
 10
11652.630825999981
 20
19890.982161000022
 30
0.0
 11
10805.631049999971
 21
19890.982161000022
 31
0.0
  0
LINE
  5
3A9B
  8
SUNPOU
  6
CONTINUOUS
 62
     4
 10
10885.631049999971
 20
19668.486251999992
 30
0.0
 11
10885.631049999971
 21
19428.486251999992
 31
0.0
  0
LINE
  5
3A9C
  8
SUNPOU
  6
CONTINUOUS
 62
     4
 10
10885.631049999971
 20
19890.982161000022
 30
0.0
 11
10885.631049999971
 21
20130.982161000022
 31
0.0
  0
LINE
  5
3A9D
  8
SUNPOU
  6
CONTINUOUS
 62
     4
 10
10885.631049999971
 20
19668.486251999992
 30
0.0
 11
10885.631049999971
 21
19890.982161000022
 31
0.0
  0
LINE
  5
3A9E
  8
SUNPOU
  6
CONTINUOUS
 62
     4
 10
11516.33315299998
 20
18209.486251999992
 30
0.0
 11
10805.631049999971
 21
18209.486251999992
 31
0.0
  0
LINE
  5
3A9F
  8
SUNPOU
  6
CONTINUOUS
 62
     4
 10
10885.631049999971
 20
18209.486251999992
 30
0.0
 11
10885.631049999971
 21
19668.486251999992
 31
0.0
  0
LINE
  5
3AA0
  8
SUNPOU
  6
CONTINUOUS
 62
     4
 10
21310.020559999972
 20
18209.486251999992
 30
0.0
 11
20423.062287999979
 21
18209.486251999992
 31
0.0
  0
LINE
  5
3AA1
  8
SUNPOU
  6
CONTINUOUS
 62
     4
 10
20503.062287999979
 20
18209.486251999992
 30
0.0
 11
20503.062287999979
 21
19668.486251999992
 31
0.0
  0
LINE
  5
3AA2
  8
SUNPOU
  6
CONTINUOUS
 62
     4
 10
21310.020559999972
 20
18209.486251999992
 30
0.0
 11
20423.062287999979
 21
18209.486251999992
 31
0.0
  0
LINE
  5
3AA3
  8
SUNPOU
  6
CONTINUOUS
 62
     4
 10
20503.062287999979
 20
16750.486251999992
 30
0.0
 11
20503.062287999979
 21
18209.486251999992
 31
0.0
  0
LINE
  5
3AA4
  8
SUNPOU
  6
CONTINUOUS
 62
     4
 10
21310.020559999972
 20
15291.72676350001
 30
0.0
 11
20423.062287999979
 21
15291.72676350001
 31
0.0
  0
LINE
  5
3AA5
  8
SUNPOU
  6
CONTINUOUS
 62
     4
 10
20503.062287999979
 20
15291.72676350001
 30
0.0
 11
20503.062287999979
 21
16750.486251999992
 31
0.0
  0
LINE
  5
3AA6
  8
SUNPOU
  6
CONTINUOUS
 62
     4
 10
21310.020559999972
 20
15291.72676350001
 30
0.0
 11
20423.062287999979
 21
15291.72676350001
 31
0.0
  0
LINE
  5
3AA7
  8
SUNPOU
  6
CONTINUOUS
 62
     4
 10
20503.062287999979
 20
13481.986252000001
 30
0.0
 11
20503.062287999979
 21
15291.72676350001
 31
0.0
  0
LINE
  5
3AA8
  8
SUNPOU
  6
CONTINUOUS
 62
     4
 10
21302.514225999999
 20
6241.1883740000012
 30
0.0
 11
20502.515544999991
 21
6241.1883740000012
 31
0.0
  0
LINE
  5
3AA9
  8
SUNPOU
  6
CONTINUOUS
 62
     4
 10
21302.514225999999
 20
8132.6883740000021
 30
0.0
 11
20502.515544999991
 21
8132.6883740000021
 31
0.0
  0
LINE
  5
3AAA
  8
SUNPOU
  6
CONTINUOUS
 62
     4
 10
20582.515544999991
 20
6241.1883740000012
 30
0.0
 11
20582.515544999991
 21
8132.6883740000021
 31
0.0
  0
LINE
  5
3AAB
  8
SUNPOU
  6
CONTINUOUS
 62
     4
 10
21302.514225999999
 20
6241.1883740000012
 30
0.0
 11
20102.513235999981
 21
6241.1883740000012
 31
0.0
  0
LINE
  5
3AAC
  8
SUNPOU
  6
CONTINUOUS
 62
     4
 10
21270.016469999999
 20
8589.1883999999973
 30
0.0
 11
20102.513235999992
 21
8589.1883999999973
 31
0.0
  0
LINE
  5
3AAD
  8
SUNPOU
  6
CONTINUOUS
 62
     4
 10
20182.513235999981
 20
6241.1883740000012
 30
0.0
 11
20182.513235999992
 21
8589.1883999999973
 31
0.0
  0
LINE
  5
3ABE
  8
SUNPOU
  6
CONTINUOUS
 62
     4
 10
24000.01686499998
 20
5798.536116000002
 30
0.0
 11
24000.01686499998
 21
4861.1885390000061
 31
0.0
  0
LINE
  5
3ABF
  8
SUNPOU
  6
CONTINUOUS
 62
     4
 10
24042.51686499998
 20
6061.1885390000061
 30
0.0
 11
24042.51686499998
 21
4861.1885390000061
 31
0.0
  0
LINE
  5
3AC0
  8
SUNPOU
  6
CONTINUOUS
 62
     4
 10
24000.01686499998
 20
4941.1885390000061
 30
0.0
 11
23760.016864999991
 21
4941.1885390000061
 31
0.0
  0
LINE
  5
3AC1
  8
SUNPOU
  6
CONTINUOUS
 62
     4
 10
24042.51686499998
 20
4941.1885390000061
 30
0.0
 11
24282.516864999991
 21
4941.1885390000061
 31
0.0
  0
LINE
  5
3AC2
  8
SUNPOU
  6
CONTINUOUS
 62
     4
 10
24000.01686499998
 20
4941.1885390000061
 30
0.0
 11
24042.51686499998
 21
4941.1885390000061
 31
0.0
  0
LINE
  5
3AC3
  8
SUNPOU
  6
CONTINUOUS
 62
     4
 10
21526.51686499998
 20
6061.1885390000061
 30
0.0
 11
21526.51686499998
 21
5261.1885390000061
 31
0.0
  0
LINE
  5
3AC4
  8
SUNPOU
  6
CONTINUOUS
 62
     4
 10
23906.016864999969
 20
6061.1885390000061
 30
0.0
 11
23906.016864999969
 21
5261.1885390000061
 31
0.0
  0
LINE
  5
3AC5
  8
SUNPOU
  6
CONTINUOUS
 62
     4
 10
21526.51686499998
 20
5341.1885390000079
 30
0.0
 11
23906.016864999969
 21
5341.1885390000079
 31
0.0
  0
LINE
  5
3AC6
  8
SUNPOU
  6
CONTINUOUS
 62
     4
 10
21432.516864999969
 20
5798.536116000002
 30
0.0
 11
21432.516864999969
 21
4861.1885390000061
 31
0.0
  0
LINE
  5
3AC7
  8
SUNPOU
  6
CONTINUOUS
 62
     4
 10
24000.01686499998
 20
5798.536116000002
 30
0.0
 11
24000.01686499998
 21
4861.1885390000061
 31
0.0
  0
LINE
  5
3AC8
  8
SUNPOU
  6
CONTINUOUS
 62
     4
 10
21432.516864999969
 20
4941.1885390000061
 30
0.0
 11
24000.01686499998
 21
4941.1885390000061
 31
0.0
  0
LINE
  5
3AC9
  8
SUNPOU
  6
CONTINUOUS
 62
     4
 10
21432.516864999969
 20
5798.536116000002
 30
0.0
 11
21432.516864999969
 21
4861.1885390000061
 31
0.0
  0
LINE
  5
3ACA
  8
SUNPOU
  6
CONTINUOUS
 62
     4
 10
21390.01686499998
 20
6061.1885390000061
 30
0.0
 11
21390.01686499998
 21
4861.1885390000061
 31
0.0
  0
LINE
  5
3ACB
  8
SUNPOU
  6
CONTINUOUS
 62
     4
 10
21432.516864999969
 20
4941.1885390000061
 30
0.0
 11
21672.516864999969
 21
4941.1885390000061
 31
0.0
  0
LINE
  5
3ACC
  8
SUNPOU
  6
CONTINUOUS
 62
     4
 10
21390.01686499998
 20
4941.1885390000061
 30
0.0
 11
21150.01686499998
 21
4941.1885390000061
 31
0.0
  0
LINE
  5
3ACD
  8
SUNPOU
  6
CONTINUOUS
 62
     4
 10
21432.516864999969
 20
4941.1885390000061
 30
0.0
 11
21390.01686499998
 21
4941.1885390000061
 31
0.0
  0
LINE
  5
3ACE
  8
SUNPOU
  6
CONTINUOUS
 62
     4
 10
21390.01686499998
 20
6061.1885390000061
 30
0.0
 11
21390.01686499998
 21
4461.1887040000038
 31
0.0
  0
LINE
  5
3ACF
  8
SUNPOU
  6
CONTINUOUS
 62
     4
 10
24042.51686499998
 20
6061.1885390000061
 30
0.0
 11
24042.51686499998
 21
4461.1887040000038
 31
0.0
  0
LINE
  5
3AD0
  8
SUNPOU
  6
CONTINUOUS
 62
     4
 10
21390.01686499998
 20
4541.1887040000038
 30
0.0
 11
24042.51686499998
 21
4541.1887040000038
 31
0.0
  0
LINE
  5
3AD1
  8
SUNPOU
  6
CONTINUOUS
 62
     4
 10
9865.7678679999972
 20
8478.188374000003
 30
0.0
 11
9865.7678679999972
 21
9869.1883999999955
 31
0.0
  0
LINE
  5
3AD2
  8
SUNPOU
  6
CONTINUOUS
 62
     4
 10
16467.267867999992
 20
8610.0781974124311
 30
0.0
 11
16467.267867999992
 21
9869.1883999999955
 31
0.0
  0
LINE
  5
3AD3
  8
SUNPOU
  6
CONTINUOUS
 62
     4
 10
9865.7678679999972
 20
9789.1883999999955
 30
0.0
 11
16467.267867999992
 21
9789.1883999999955
 31
0.0
  0
LINE
  5
3AD4
  8
SUNPOU
  6
CONTINUOUS
 62
     4
 10
16317.267868000001
 20
8536.0984380000027
 30
0.0
 11
16317.267868000001
 21
9469.1900499999992
 31
0.0
  0
LINE
  5
3AD5
  8
SUNPOU
  6
CONTINUOUS
 62
     4
 10
16467.267867999992
 20
8610.0781974124311
 30
0.0
 11
16467.267867999992
 21
9469.1900499999992
 31
0.0
  0
LINE
  5
3AD6
  8
SUNPOU
  6
CONTINUOUS
 62
     4
 10
16317.267868000001
 20
9389.1900499999992
 30
0.0
 11
16077.267868000001
 21
9389.1900499999992
 31
0.0
  0
LINE
  5
3AD7
  8
SUNPOU
  6
CONTINUOUS
 62
     4
 10
16467.267867999992
 20
9389.1900499999992
 30
0.0
 11
16707.267867999992
 21
9389.1900499999992
 31
0.0
  0
LINE
  5
3AD8
  8
SUNPOU
  6
CONTINUOUS
 62
     4
 10
16317.267868000001
 20
9389.1900499999992
 30
0.0
 11
16467.267867999992
 21
9389.1900499999992
 31
0.0
  0
LINE
  5
3AD9
  8
SUNPOU
  6
CONTINUOUS
 62
     4
 10
10045.767868000001
 20
8348.3741496838065
 30
0.0
 11
10045.767868000001
 21
9469.1900499999992
 31
0.0
  0
LINE
  5
3ADA
  8
SUNPOU
  6
CONTINUOUS
 62
     4
 10
16317.267868000001
 20
8536.0984380000027
 30
0.0
 11
16317.267868000001
 21
9469.1900499999992
 31
0.0
  0
LINE
  5
3ADB
  8
SUNPOU
  6
CONTINUOUS
 62
     4
 10
10045.767868000001
 20
9389.1900499999992
 30
0.0
 11
16317.267868000001
 21
9389.1900499999992
 31
0.0
  0
LINE
  5
3ADC
  8
SUNPOU
  6
CONTINUOUS
 62
     4
 10
9865.7678679999972
 20
8478.188374000003
 30
0.0
 11
9865.7678679999972
 21
9469.1900499999956
 31
0.0
  0
LINE
  5
3ADD
  8
SUNPOU
  6
CONTINUOUS
 62
     4
 10
10045.767868000001
 20
8348.3741496838065
 30
0.0
 11
10045.767868000001
 21
9469.1900499999956
 31
0.0
  0
LINE
  5
3ADE
  8
SUNPOU
  6
CONTINUOUS
 62
     4
 10
9865.7678679999972
 20
9389.1900499999956
 30
0.0
 11
9625.7678680000045
 21
9389.1900499999956
 31
0.0
  0
LINE
  5
3ADF
  8
SUNPOU
  6
CONTINUOUS
 62
     4
 10
10045.767868000001
 20
9389.1900499999956
 30
0.0
 11
10285.767868000001
 21
9389.1900499999956
 31
0.0
  0
LINE
  5
3AE0
  8
SUNPOU
  6
CONTINUOUS
 62
     4
 10
9865.7678679999972
 20
9389.1900499999956
 30
0.0
 11
10045.767868000001
 21
9389.1900499999956
 31
0.0
  0
LINE
  5
3AE1
  8
SUNPOU
  6
CONTINUOUS
 62
     4
 10
16409.767867999992
 20
6241.1883740000003
 30
0.0
 11
17487.268263999991
 21
6241.1883740000012
 31
0.0
  0
LINE
  5
3AE2
  8
SUNPOU
  6
CONTINUOUS
 62
     4
 10
16502.075127599379
 20
8589.1883739999994
 30
0.0
 11
17487.268263999991
 21
8589.1883739999994
 31
0.0
  0
LINE
  5
3AE3
  8
SUNPOU
  6
CONTINUOUS
 62
     4
 10
17407.268263999991
 20
6241.1883740000012
 30
0.0
 11
17407.268263999991
 21
8589.1883739999994
 31
0.0
  0
LINE
  5
3AE4
  8
SUNPOU
  6
CONTINUOUS
 62
     4
 10
9958.2678680000008
 20
6241.1883740000003
 30
0.0
 11
8875.767472000005
 21
6241.1883740000012
 31
0.0
  0
LINE
  5
3AE5
  8
SUNPOU
  6
CONTINUOUS
 62
     4
 10
9785.7678680000008
 20
8398.188374000003
 30
0.0
 11
8875.767472000005
 21
8398.188374000003
 31
0.0
  0
LINE
  5
3AE6
  8
SUNPOU
  6
CONTINUOUS
 62
     4
 10
8955.7674720000032
 20
6241.1883740000012
 30
0.0
 11
8955.7674720000032
 21
8398.188374000003
 31
0.0
  0
LINE
  5
3AE7
  8
SUNPOU
  6
CONTINUOUS
 62
     4
 10
10045.767868000001
 20
6161.1883740000012
 30
0.0
 11
10045.767868000001
 21
4461.1887040000001
 31
0.0
  0
LINE
  5
3AE8
  8
SUNPOU
  6
CONTINUOUS
 62
     4
 10
16317.267868000001
 20
6161.1883740000012
 30
0.0
 11
16317.267868000001
 21
4461.1887040000001
 31
0.0
  0
LINE
  5
3AE9
  8
SUNPOU
  6
CONTINUOUS
 62
     4
 10
10045.767868000001
 20
4541.1887040000001
 30
0.0
 11
16317.267868000001
 21
4541.1887040000001
 31
0.0
  0
LINE
  5
3AEA
  8
SUNPOU
  6
CONTINUOUS
 62
     4
 10
16274.767868000001
 20
5798.5361160000011
 30
0.0
 11
16274.767868000001
 21
4861.1885389999989
 31
0.0
  0
LINE
  5
3AEB
  8
SUNPOU
  6
CONTINUOUS
 62
     4
 10
16317.267868000001
 20
6161.1883740000012
 30
0.0
 11
16317.267868000001
 21
4861.1885389999989
 31
0.0
  0
LINE
  5
3AEC
  8
SUNPOU
  6
CONTINUOUS
 62
     4
 10
16274.767868000001
 20
4941.1885389999979
 30
0.0
 11
16034.767868000001
 21
4941.1885389999979
 31
0.0
  0
LINE
  5
3AED
  8
SUNPOU
  6
CONTINUOUS
 62
     4
 10
16317.267868000001
 20
4941.1885389999979
 30
0.0
 11
16557.267867999999
 21
4941.1885389999979
 31
0.0
  0
LINE
  5
3AEE
  8
SUNPOU
  6
CONTINUOUS
 62
     4
 10
16274.767868000001
 20
4941.1885389999979
 30
0.0
 11
16317.267868000001
 21
4941.1885389999979
 31
0.0
  0
LINE
  5
3AEF
  8
SUNPOU
  6
CONTINUOUS
 62
     4
 10
10088.267868000001
 20
5798.5361160000011
 30
0.0
 11
10088.267868000001
 21
4861.1885389999989
 31
0.0
  0
LINE
  5
3AF0
  8
SUNPOU
  6
CONTINUOUS
 62
     4
 10
10045.767868000001
 20
6161.1883740000012
 30
0.0
 11
10045.767868000001
 21
4861.1885389999989
 31
0.0
  0
LINE
  5
3AF1
  8
SUNPOU
  6
CONTINUOUS
 62
     4
 10
10088.267868000001
 20
4941.1885389999979
 30
0.0
 11
10328.267868000001
 21
4941.1885389999979
 31
0.0
  0
LINE
  5
3AF2
  8
SUNPOU
  6
CONTINUOUS
 62
     4
 10
10045.767868000001
 20
4941.1885389999979
 30
0.0
 11
9805.7678680000008
 21
4941.1885389999979
 31
0.0
  0
LINE
  5
3AF3
  8
SUNPOU
  6
CONTINUOUS
 62
     4
 10
10088.267868000001
 20
4941.1885389999979
 30
0.0
 11
10045.767868000001
 21
4941.1885389999979
 31
0.0
  0
LINE
  5
3AF4
  8
SUNPOU
  6
CONTINUOUS
 62
     4
 10
13006.267868000001
 20
5798.5361160000011
 30
0.0
 11
13006.267868000001
 21
4861.1885389999989
 31
0.0
  0
LINE
  5
3AF5
  8
SUNPOU
  6
CONTINUOUS
 62
     4
 10
10088.267868000001
 20
5798.5361160000011
 30
0.0
 11
10088.267868000001
 21
4861.1885389999989
 31
0.0
  0
LINE
  5
3AF6
  8
SUNPOU
  6
CONTINUOUS
 62
     4
 10
13006.267868000001
 20
4941.1885389999979
 30
0.0
 11
10088.267868000001
 21
4941.1885389999979
 31
0.0
  0
LINE
  5
3AF7
  8
SUNPOU
  6
CONTINUOUS
 62
     4
 10
13006.267868000001
 20
5798.5361160000011
 30
0.0
 11
13006.267868000001
 21
4861.1885389999989
 31
0.0
  0
LINE
  5
3AF8
  8
SUNPOU
  6
CONTINUOUS
 62
     4
 10
16274.767868000001
 20
5798.5361160000011
 30
0.0
 11
16274.767868000001
 21
4861.1885389999989
 31
0.0
  0
LINE
  5
3AF9
  8
SUNPOU
  6
CONTINUOUS
 62
     4
 10
13006.267868000001
 20
4941.1885389999979
 30
0.0
 11
16274.767868000001
 21
4941.1885389999979
 31
0.0
  0
LINE
  5
3AFA
  8
SUNPOU
  6
CONTINUOUS
 62
     4
 10
21432.516864999969
 20
12776.222818
 30
0.0
 11
21432.516864999969
 21
12430.538167999999
 31
0.0
  0
LINE
  5
3AFB
  8
SUNPOU
  6
CONTINUOUS
 62
     4
 10
21390.014621999992
 20
13359.488957
 30
0.0
 11
21390.014621999992
 21
12430.538167999999
 31
0.0
  0
LINE
  5
3AFC
  8
SUNPOU
  6
CONTINUOUS
 62
     4
 10
21432.516864999969
 20
12510.538167999999
 30
0.0
 11
21672.516864999969
 21
12510.538167999999
 31
0.0
  0
LINE
  5
3AFD
  8
SUNPOU
  6
CONTINUOUS
 62
     4
 10
21390.014621999992
 20
12510.538167999999
 30
0.0
 11
21150.014621999992
 21
12510.538167999999
 31
0.0
  0
LINE
  5
3AFE
  8
SUNPOU
  6
CONTINUOUS
 62
     4
 10
21432.516864999969
 20
12510.538167999999
 30
0.0
 11
21390.014621999992
 21
12510.538167999999
 31
0.0
  0
LINE
  5
3AFF
  8
SUNPOU
  6
CONTINUOUS
 62
     4
 10
24000.01686499998
 20
12776.222818
 30
0.0
 11
24000.01686499998
 21
12430.538167999999
 31
0.0
  0
LINE
  5
3B00
  8
SUNPOU
  6
CONTINUOUS
 62
     4
 10
24042.519107999971
 20
13359.488957
 30
0.0
 11
24042.519107999971
 21
12430.538167999999
 31
0.0
  0
LINE
  5
3B01
  8
SUNPOU
  6
CONTINUOUS
 62
     4
 10
24000.01686499998
 20
12510.538167999999
 30
0.0
 11
23760.016864999991
 21
12510.538167999999
 31
0.0
  0
LINE
  5
3B02
  8
SUNPOU
  6
CONTINUOUS
 62
     4
 10
24042.519107999971
 20
12510.538167999999
 30
0.0
 11
24282.519107999971
 21
12510.538167999999
 31
0.0
  0
LINE
  5
3B03
  8
SUNPOU
  6
CONTINUOUS
 62
     4
 10
24000.01686499998
 20
12510.538167999999
 30
0.0
 11
24042.519107999971
 21
12510.538167999999
 31
0.0
  0
LINE
  5
3B04
  8
SUNPOU
  6
CONTINUOUS
 62
     4
 10
24000.01686499998
 20
12776.222818
 30
0.0
 11
24000.01686499998
 21
12430.538167999999
 31
0.0
  0
LINE
  5
3B05
  8
SUNPOU
  6
CONTINUOUS
 62
     4
 10
23957.514621999981
 20
13359.488957
 30
0.0
 11
23957.514621999981
 21
12430.538167999999
 31
0.0
  0
LINE
  5
3B06
  8
SUNPOU
  6
CONTINUOUS
 62
     4
 10
24000.01686499998
 20
12510.538167999999
 30
0.0
 11
24240.01686499998
 21
12510.538167999999
 31
0.0
  0
LINE
  5
3B07
  8
SUNPOU
  6
CONTINUOUS
 62
     4
 10
23957.514621999981
 20
12510.538167999999
 30
0.0
 11
23717.51462199997
 21
12510.538167999999
 31
0.0
  0
LINE
  5
3B08
  8
SUNPOU
  6
CONTINUOUS
 62
     4
 10
24000.01686499998
 20
12510.538167999999
 30
0.0
 11
23957.514621999981
 21
12510.538167999999
 31
0.0
  0
LINE
  5
3B09
  8
SUNPOU
  6
CONTINUOUS
 62
     4
 10
21432.516864999969
 20
12776.222818
 30
0.0
 11
21432.516864999969
 21
12430.538167999999
 31
0.0
  0
LINE
  5
3B0A
  8
SUNPOU
  6
CONTINUOUS
 62
     4
 10
21475.019107999971
 20
13359.488957
 30
0.0
 11
21475.019107999971
 21
12430.538167999999
 31
0.0
  0
LINE
  5
3B0B
  8
SUNPOU
  6
CONTINUOUS
 62
     4
 10
21432.516864999969
 20
12510.538167999999
 30
0.0
 11
21192.516864999969
 21
12510.538167999999
 31
0.0
  0
LINE
  5
3B0C
  8
SUNPOU
  6
CONTINUOUS
 62
     4
 10
21475.019107999971
 20
12510.538167999999
 30
0.0
 11
21715.019107999971
 21
12510.538167999999
 31
0.0
  0
LINE
  5
3B0D
  8
SUNPOU
  6
CONTINUOUS
 62
     4
 10
21432.516864999969
 20
12510.538167999999
 30
0.0
 11
21475.019107999971
 21
12510.538167999999
 31
0.0
  0
LINE
  5
3B0E
  8
SUNPOU
  6
CONTINUOUS
 62
     4
 10
21390.014621999992
 20
13359.488957
 30
0.0
 11
21390.014621999992
 21
12030.538167999999
 31
0.0
  0
LINE
  5
3B0F
  8
SUNPOU
  6
CONTINUOUS
 62
     4
 10
24042.519107999971
 20
13359.488957
 30
0.0
 11
24042.519107999971
 21
12030.538167999999
 31
0.0
  0
LINE
  5
3B10
  8
SUNPOU
  6
CONTINUOUS
 62
     4
 10
21390.014621999992
 20
12110.538167999999
 30
0.0
 11
24042.519107999971
 21
12110.538167999999
 31
0.0
  0
LINE
  5
3B11
  8
SUNPOU
  6
CONTINUOUS
 62
     4
 10
24122.51514899997
 20
13889.486252000001
 30
0.0
 11
25172.516468999969
 21
13889.486252000001
 31
0.0
  0
LINE
  5
3B12
  8
SUNPOU
  6
CONTINUOUS
 62
     4
 10
24972.51646899998
 20
13481.986252000001
 30
0.0
 11
25172.516468999969
 21
13481.986252000001
 31
0.0
  0
LINE
  5
3B13
  8
SUNPOU
  6
CONTINUOUS
 62
     4
 10
25092.516468999969
 20
13889.486252000001
 30
0.0
 11
25092.516468999969
 21
13481.986252000001
 31
0.0
  0
LINE
  5
3B14
  8
SUNPOU
  6
CONTINUOUS
 62
     4
 10
24122.51514899997
 20
14590.486252000001
 30
0.0
 11
25172.516468999969
 21
14590.486252000001
 31
0.0
  0
LINE
  5
3B15
  8
SUNPOU
  6
CONTINUOUS
 62
     4
 10
24122.51514899997
 20
13889.486252000001
 30
0.0
 11
25172.516468999969
 21
13889.486252000001
 31
0.0
  0
LINE
  5
3B16
  8
SUNPOU
  6
CONTINUOUS
 62
     4
 10
25092.516468999969
 20
14590.486252000001
 30
0.0
 11
25092.516468999969
 21
13889.486252000001
 31
0.0
  0
LINE
  5
3B17
  8
SUNPOU
  6
CONTINUOUS
 62
     4
 10
24122.51514899997
 20
15291.72676350001
 30
0.0
 11
25172.516468999969
 21
15291.72676350001
 31
0.0
  0
LINE
  5
3B18
  8
SUNPOU
  6
CONTINUOUS
 62
     4
 10
24122.51514899997
 20
14590.486252000001
 30
0.0
 11
25172.516468999969
 21
14590.486252000001
 31
0.0
  0
LINE
  5
3B19
  8
SUNPOU
  6
CONTINUOUS
 62
     4
 10
25092.516468999969
 20
15291.72676350001
 30
0.0
 11
25092.516468999969
 21
14590.486252000001
 31
0.0
  0
LINE
  5
3B1A
  8
SUNPOU
  6
CONTINUOUS
 62
     4
 10
24122.51514899997
 20
15992.486252000001
 30
0.0
 11
25172.516468999969
 21
15992.486252000001
 31
0.0
  0
LINE
  5
3B1B
  8
SUNPOU
  6
CONTINUOUS
 62
     4
 10
24122.51514899997
 20
15291.72676350001
 30
0.0
 11
25172.516468999969
 21
15291.72676350001
 31
0.0
  0
LINE
  5
3B1C
  8
SUNPOU
  6
CONTINUOUS
 62
     4
 10
25092.516468999969
 20
15992.486252000001
 30
0.0
 11
25092.516468999969
 21
15291.72676350001
 31
0.0
  0
LINE
  5
3B1D
  8
SUNPOU
  6
CONTINUOUS
 62
     4
 10
24972.51646899998
 20
16750.486251999992
 30
0.0
 11
25172.516468999969
 21
16750.486251999992
 31
0.0
  0
LINE
  5
3B1E
  8
SUNPOU
  6
CONTINUOUS
 62
     4
 10
24122.51514899997
 20
15992.486252000001
 30
0.0
 11
25172.516468999969
 21
15992.486252000001
 31
0.0
  0
LINE
  5
3B1F
  8
SUNPOU
  6
CONTINUOUS
 62
     4
 10
25092.516468999969
 20
16750.486251999992
 30
0.0
 11
25092.516468999969
 21
15992.486252000001
 31
0.0
  0
LINE
  5
3B20
  8
SUNPOU
  6
CONTINUOUS
 62
     4
 10
24122.51514899997
 20
17508.486251999992
 30
0.0
 11
25172.516468999969
 21
17508.486251999992
 31
0.0
  0
LINE
  5
3B21
  8
SUNPOU
  6
CONTINUOUS
 62
     4
 10
24972.51646899998
 20
16750.486251999992
 30
0.0
 11
25172.516468999969
 21
16750.486251999992
 31
0.0
  0
LINE
  5
3B22
  8
SUNPOU
  6
CONTINUOUS
 62
     4
 10
25092.516468999969
 20
17508.486251999992
 30
0.0
 11
25092.516468999969
 21
16750.486251999992
 31
0.0
  0
LINE
  5
3B23
  8
SUNPOU
  6
CONTINUOUS
 62
     4
 10
24122.51514899997
 20
18209.486251999992
 30
0.0
 11
25172.516468999969
 21
18209.486251999992
 31
0.0
  0
LINE
  5
3B24
  8
SUNPOU
  6
CONTINUOUS
 62
     4
 10
24122.51514899997
 20
17508.486251999992
 30
0.0
 11
25172.516468999969
 21
17508.486251999992
 31
0.0
  0
LINE
  5
3B25
  8
SUNPOU
  6
CONTINUOUS
 62
     4
 10
25092.516468999969
 20
18209.486251999992
 30
0.0
 11
25092.516468999969
 21
17508.486251999992
 31
0.0
  0
LINE
  5
3B26
  8
SUNPOU
  6
CONTINUOUS
 62
     4
 10
24122.51514899997
 20
18910.486251999999
 30
0.0
 11
25172.516468999969
 21
18910.486251999992
 31
0.0
  0
LINE
  5
3B27
  8
SUNPOU
  6
CONTINUOUS
 62
     4
 10
24122.51514899997
 20
18209.486251999992
 30
0.0
 11
25172.516468999969
 21
18209.486251999992
 31
0.0
  0
LINE
  5
3B28
  8
SUNPOU
  6
CONTINUOUS
 62
     4
 10
25092.516468999969
 20
18910.486251999992
 30
0.0
 11
25092.516468999969
 21
18209.486251999992
 31
0.0
  0
LINE
  5
3B29
  8
SUNPOU
  6
CONTINUOUS
 62
     4
 10
24972.51646899998
 20
19668.486251999992
 30
0.0
 11
25172.516468999969
 21
19668.486251999992
 31
0.0
  0
LINE
  5
3B2A
  8
SUNPOU
  6
CONTINUOUS
 62
     4
 10
24122.51514899997
 20
18910.486251999999
 30
0.0
 11
25172.516468999969
 21
18910.486251999992
 31
0.0
  0
LINE
  5
3B2B
  8
SUNPOU
  6
CONTINUOUS
 62
     4
 10
25092.516468999969
 20
19668.486251999992
 30
0.0
 11
25092.516468999969
 21
18910.486251999992
 31
0.0
  0
LINE
  5
3B2C
  8
SUNPOU
  6
CONTINUOUS
 62
     4
 10
24972.51646899998
 20
16750.486251999992
 30
0.0
 11
25572.516468999969
 21
16750.486251999992
 31
0.0
  0
LINE
  5
3B2D
  8
SUNPOU
  6
CONTINUOUS
 62
     4
 10
24972.51646899998
 20
19668.486251999992
 30
0.0
 11
25572.516468999969
 21
19668.486251999992
 31
0.0
  0
LINE
  5
3B2E
  8
SUNPOU
  6
CONTINUOUS
 62
     4
 10
25492.516468999969
 20
16750.486251999992
 30
0.0
 11
25492.516468999969
 21
19668.486251999992
 31
0.0
  0
LINE
  5
3B2F
  8
SUNPOU
  6
CONTINUOUS
 62
     4
 10
24972.51646899998
 20
13481.986252000001
 30
0.0
 11
25572.516468999969
 21
13481.986252000001
 31
0.0
  0
LINE
  5
3B30
  8
SUNPOU
  6
CONTINUOUS
 62
     4
 10
24972.51646899998
 20
16750.486251999992
 30
0.0
 11
25572.516468999969
 21
16750.486251999992
 31
0.0
  0
LINE
  5
3B31
  8
SUNPOU
  6
CONTINUOUS
 62
     4
 10
25492.516468999969
 20
13481.986252000001
 30
0.0
 11
25492.516468999969
 21
16750.486251999992
 31
0.0
  0
LINE
  5
3B32
  8
SUNPOU
  6
CONTINUOUS
 62
     4
 10
24122.51514899997
 20
19710.983547
 30
0.0
 11
25972.516468999969
 21
19710.983546999982
 31
0.0
  0
LINE
  5
3B33
  8
SUNPOU
  6
CONTINUOUS
 62
     4
 10
24122.51514899997
 20
13439.488957
 30
0.0
 11
25972.516468999969
 21
13439.488957
 31
0.0
  0
LINE
  5
3B34
  8
SUNPOU
  6
CONTINUOUS
 62
     4
 10
25892.516468999969
 20
19710.983546999982
 30
0.0
 11
25892.516468999969
 21
13439.488957
 31
0.0
  0
LINE
  5
3B35
  8
SUNPOU
  6
CONTINUOUS
 62
     4
 10
24972.51646899998
 20
19668.486251999992
 30
0.0
 11
25572.516468999969
 21
19668.486251999992
 31
0.0
  0
LINE
  5
3B36
  8
SUNPOU
  6
CONTINUOUS
 62
     4
 10
24122.51514899997
 20
19710.983547
 30
0.0
 11
25572.516468999969
 21
19710.983546999982
 31
0.0
  0
LINE
  5
3B37
  8
SUNPOU
  6
CONTINUOUS
 62
     4
 10
25492.516468999969
 20
19668.486251999992
 30
0.0
 11
25492.516468999969
 21
19428.486251999992
 31
0.0
  0
LINE
  5
3B38
  8
SUNPOU
  6
CONTINUOUS
 62
     4
 10
25492.516468999969
 20
19710.983546999982
 30
0.0
 11
25492.516468999969
 21
19950.983546999982
 31
0.0
  0
LINE
  5
3B39
  8
SUNPOU
  6
CONTINUOUS
 62
     4
 10
25492.516468999969
 20
19668.486251999992
 30
0.0
 11
25492.516468999969
 21
19710.983546999982
 31
0.0
  0
LINE
  5
3B3A
  8
SUNPOU
  6
CONTINUOUS
 62
     4
 10
24972.51646899998
 20
13481.986252000001
 30
0.0
 11
25572.516468999969
 21
13481.986252000001
 31
0.0
  0
LINE
  5
3B3B
  8
SUNPOU
  6
CONTINUOUS
 62
     4
 10
24122.51514899997
 20
13439.488957
 30
0.0
 11
25572.516468999969
 21
13439.488957
 31
0.0
  0
LINE
  5
3B3C
  8
SUNPOU
  6
CONTINUOUS
 62
     4
 10
25492.516468999969
 20
13481.986252000001
 30
0.0
 11
25492.516468999969
 21
13721.986252000001
 31
0.0
  0
LINE
  5
3B3D
  8
SUNPOU
  6
CONTINUOUS
 62
     4
 10
25492.516468999969
 20
13439.488957
 30
0.0
 11
25492.516468999969
 21
13199.488957
 31
0.0
  0
LINE
  5
3B3E
  8
SUNPOU
  6
CONTINUOUS
 62
     4
 10
25492.516468999969
 20
13481.986252000001
 30
0.0
 11
25492.516468999969
 21
13439.488957
 31
0.0
  0
LINE
  5
3B3F
  8
SUNPOU
  6
CONTINUOUS
 62
     4
 10
21432.516864999969
 20
19790.984537000018
 30
0.0
 11
21432.516864999969
 21
20520.987440000012
 31
0.0
  0
LINE
  5
3B40
  8
SUNPOU
  6
CONTINUOUS
 62
     4
 10
21840.01686499998
 20
19790.984537000018
 30
0.0
 11
21840.01686499998
 21
20520.987440000012
 31
0.0
  0
LINE
  5
3B41
  8
SUNPOU
  6
CONTINUOUS
 62
     4
 10
21432.516864999969
 20
20440.987440000012
 30
0.0
 11
21192.516864999969
 21
20440.987440000012
 31
0.0
  0
LINE
  5
3B42
  8
SUNPOU
  6
CONTINUOUS
 62
     4
 10
21840.01686499998
 20
20440.987440000012
 30
0.0
 11
22080.01686499998
 21
20440.987440000012
 31
0.0
  0
LINE
  5
3B43
  8
SUNPOU
  6
CONTINUOUS
 62
     4
 10
21432.516864999969
 20
20440.987440000012
 30
0.0
 11
21840.01686499998
 21
20440.987440000012
 31
0.0
  0
LINE
  5
3B44
  8
SUNPOU
  6
CONTINUOUS
 62
     4
 10
23242.016864999991
 20
19790.984537000018
 30
0.0
 11
23242.016864999991
 21
20520.987440000012
 31
0.0
  0
LINE
  5
3B45
  8
SUNPOU
  6
CONTINUOUS
 62
     4
 10
24000.017854500002
 20
19790.984537000018
 30
0.0
 11
24000.017854500002
 21
20520.987440000012
 31
0.0
  0
LINE
  5
3B46
  8
SUNPOU
  6
CONTINUOUS
 62
     4
 10
23242.016864999991
 20
20440.987440000012
 30
0.0
 11
24000.017854500002
 21
20440.987440000012
 31
0.0
  0
LINE
  5
3B47
  8
SUNPOU
  6
CONTINUOUS
 62
     4
 10
22541.01686499998
 20
19790.984537000018
 30
0.0
 11
22541.01686499998
 21
20520.987440000012
 31
0.0
  0
LINE
  5
3B48
  8
SUNPOU
  6
CONTINUOUS
 62
     4
 10
23242.016864999991
 20
19790.984537000018
 30
0.0
 11
23242.016864999991
 21
20520.987440000012
 31
0.0
  0
LINE
  5
3B49
  8
SUNPOU
  6
CONTINUOUS
 62
     4
 10
22541.01686499998
 20
20440.987440000012
 30
0.0
 11
23242.016864999991
 21
20440.987440000012
 31
0.0
  0
LINE
  5
3B4A
  8
SUNPOU
  6
CONTINUOUS
 62
     4
 10
21840.01686499998
 20
19790.984537000018
 30
0.0
 11
21840.01686499998
 21
20520.987440000012
 31
0.0
  0
LINE
  5
3B4B
  8
SUNPOU
  6
CONTINUOUS
 62
     4
 10
22541.01686499998
 20
19790.984537000018
 30
0.0
 11
22541.01686499998
 21
20520.987440000012
 31
0.0
  0
LINE
  5
3B4C
  8
SUNPOU
  6
CONTINUOUS
 62
     4
 10
21840.01686499998
 20
20440.987440000012
 30
0.0
 11
22541.01686499998
 21
20440.987440000012
 31
0.0
  0
LINE
  5
3B4D
  8
SUNPOU
  6
CONTINUOUS
 62
     4
 10
24000.01686499998
 20
19790.984537000018
 30
0.0
 11
24000.01686499998
 21
20520.987440000012
 31
0.0
  0
LINE
  5
3B4E
  8
SUNPOU
  6
CONTINUOUS
 62
     4
 10
24042.51316999998
 20
19790.984537000018
 30
0.0
 11
24042.51316999998
 21
20520.987440000012
 31
0.0
  0
LINE
  5
3B4F
  8
SUNPOU
  6
CONTINUOUS
 62
     4
 10
24000.01686499998
 20
20440.987440000012
 30
0.0
 11
23760.016864999991
 21
20440.987440000012
 31
0.0
  0
LINE
  5
3B50
  8
SUNPOU
  6
CONTINUOUS
 62
     4
 10
24042.51316999998
 20
20440.987440000012
 30
0.0
 11
24282.51316999998
 21
20440.987440000012
 31
0.0
  0
LINE
  5
3B51
  8
SUNPOU
  6
CONTINUOUS
 62
     4
 10
24000.01686499998
 20
20440.987440000012
 30
0.0
 11
24042.51316999998
 21
20440.987440000012
 31
0.0
  0
LINE
  5
3B52
  8
SUNPOU
  6
CONTINUOUS
 62
     4
 10
21432.516864999969
 20
19790.984537000018
 30
0.0
 11
21432.516864999969
 21
20520.987440000012
 31
0.0
  0
LINE
  5
3B53
  8
SUNPOU
  6
CONTINUOUS
 62
     4
 10
21390.020559999972
 20
19790.984537000018
 30
0.0
 11
21390.020559999972
 21
20520.987440000012
 31
0.0
  0
LINE
  5
3B54
  8
SUNPOU
  6
CONTINUOUS
 62
     4
 10
21432.516864999969
 20
20440.987440000012
 30
0.0
 11
21672.516864999969
 21
20440.987440000012
 31
0.0
  0
LINE
  5
3B55
  8
SUNPOU
  6
CONTINUOUS
 62
     4
 10
21390.020559999972
 20
20440.987440000012
 30
0.0
 11
21150.020559999972
 21
20440.987440000012
 31
0.0
  0
LINE
  5
3B56
  8
SUNPOU
  6
CONTINUOUS
 62
     4
 10
21432.516864999969
 20
20440.987440000012
 30
0.0
 11
21390.020559999972
 21
20440.987440000012
 31
0.0
  0
TEXT
  5
3B57
  8
0
  6
CONTINUOUS
 62
     7
 10
20829.704885471168
 20
20520.987440000012
 30
0.0
 40
160.0
  1
42.5
  0
TEXT
  5
3B58
  8
0
  6
CONTINUOUS
 62
     7
 10
24122.82884452878
 20
20520.987440000012
 30
0.0
 40
160.0
  1
42.5
  0
TEXT
  5
3B59
  8
0
  6
CONTINUOUS
 62
     7
 10
22017.183531666651
 20
20200.987440000012
 30
0.0
 40
160.0
  1
701
  0
TEXT
  5
3B5A
  8
0
  6
CONTINUOUS
 62
     7
 10
22718.183531666651
 20
20520.987440000012
 30
0.0
 40
160.0
  1
701
  0
TEXT
  5
3B5B
  8
0
  6
CONTINUOUS
 62
     7
 10
23407.684026416649
 20
20520.987440000012
 30
0.0
 40
160.0
  1
758
  0
TEXT
  5
3B5C
  8
0
  6
CONTINUOUS
 62
     7
 10
21533.350198333319
 20
20520.987440000012
 30
0.0
 40
160.0
  1
407.5
  0
TEXT
  5
3B5D
  8
0
  6
CONTINUOUS
 62
     7
 10
25412.516468999969
 20
12865.93272060321
 30
0.0
 40
160.0
  1
42.5
 50
90.0
  0
TEXT
  5
3B5E
  8
0
  6
CONTINUOUS
 62
     7
 10
25412.516468999969
 20
19804.539783396791
 30
0.0
 40
160.0
  1
42.5
 50
90.0
  0
TEXT
  5
3B5F
  8
0
  6
CONTINUOUS
 62
     7
 10
25812.516468999969
 20
16201.90291866667
 30
0.0
 40
160.0
  1
6271.5
 50
90.0
  0
TEXT
  5
3B60
  8
0
  6
CONTINUOUS
 62
     7
 10
25412.516468999969
 20
14716.236252000001
 30
0.0
 40
160.0
  1
3268.5
 50
90.0
  0
TEXT
  5
3B61
  8
0
  6
CONTINUOUS
 62
     7
 10
25412.516468999969
 20
17942.819585333331
 30
0.0
 40
160.0
  1
2918
 50
90.0
  0
TEXT
  5
3B62
  8
0
  6
CONTINUOUS
 62
     7
 10
25012.51646899998
 20
19076.15291866667
 30
0.0
 40
160.0
  1
758
 50
90.0
  0
TEXT
  5
3B63
  8
0
  6
CONTINUOUS
 62
     7
 10
25012.51646899998
 20
18386.652918666659
 30
0.0
 40
160.0
  1
701
 50
90.0
  0
TEXT
  5
3B64
  8
0
  6
CONTINUOUS
 62
     7
 10
25012.51646899998
 20
17685.65291866667
 30
0.0
 40
160.0
  1
701
 50
90.0
  0
TEXT
  5
3B65
  8
0
  6
CONTINUOUS
 62
     7
 10
25012.51646899998
 20
16916.15291866667
 30
0.0
 40
160.0
  1
758
 50
90.0
  0
TEXT
  5
3B66
  8
0
  6
CONTINUOUS
 62
     7
 10
25012.51646899998
 20
16158.15291866667
 30
0.0
 40
160.0
  1
758
 50
90.0
  0
TEXT
  5
3B67
  8
0
  6
CONTINUOUS
 62
     7
 10
25012.51646899998
 20
15468.773174416679
 30
0.0
 40
160.0
  1
701
 50
90.0
  0
TEXT
  5
3B68
  8
0
  6
CONTINUOUS
 62
     7
 10
25012.51646899998
 20
14767.773174416679
 30
0.0
 40
160.0
  1
701
 50
90.0
  0
TEXT
  5
3B69
  8
0
  6
CONTINUOUS
 62
     7
 10
25012.51646899998
 20
14066.65291866667
 30
0.0
 40
160.0
  1
701
 50
90.0
  0
TEXT
  5
3B6A
  8
0
  6
CONTINUOUS
 62
     7
 10
25372.516468999969
 20
13554.80666620354
 30
0.0
 40
160.0
  1
407.5
 50
90.0
  0
TEXT
  5
3B6B
  8
0
  6
CONTINUOUS
 62
     7
 10
22316.26686499998
 20
12190.538167999999
 30
0.0
 40
160.0
  1
2652.5
  0
TEXT
  5
3B6C
  8
0
  6
CONTINUOUS
 62
     7
 10
21550.57053738206
 20
12590.538167999999
 30
0.0
 40
160.0
  1
42.5
  0
TEXT
  5
3B6D
  8
0
  6
CONTINUOUS
 62
     7
 10
23401.963192617881
 20
12590.538167999999
 30
0.0
 40
160.0
  1
42.5
  0
TEXT
  5
3B6E
  8
0
  6
CONTINUOUS
 62
     7
 10
24118.070537382071
 20
12590.538167999999
 30
0.0
 40
160.0
  1
42.5
  0
TEXT
  5
3B6F
  8
0
  6
CONTINUOUS
 62
     7
 10
20834.463192617881
 20
12590.538167999999
 30
0.0
 40
160.0
  1
42.5
  0
TEXT
  5
3B70
  8
0
  6
CONTINUOUS
 62
     7
 10
14240.517868000001
 20
5021.1885389999989
 30
0.0
 40
160.0
  1
3268.5
  0
TEXT
  5
3B71
  8
0
  6
CONTINUOUS
 62
     7
 10
11280.60120133332
 20
5021.1885389999989
 30
0.0
 40
160.0
  1
2918
  0
TEXT
  5
3B72
  8
0
  6
CONTINUOUS
 62
     7
 10
9448.5941589036938
 20
5021.1885389999989
 30
0.0
 40
160.0
  1
42.5
  0
TEXT
  5
3B73
  8
0
  6
CONTINUOUS
 62
     7
 10
16455.58650530982
 20
5021.1885389999989
 30
0.0
 40
160.0
  1
42.5
  0
TEXT
  5
3B74
  8
0
  6
CONTINUOUS
 62
     7
 10
12808.18453466666
 20
4621.1887040000001
 30
0.0
 40
160.0
  1
6271.5
  0
TEXT
  5
3B75
  8
0
  6
CONTINUOUS
 62
     7
 10
8875.767472000005
 20
6541.0217073333351
 30
0.0
 40
160.0
  1
2157（2397）
 50
90.0
  0
TEXT
  5
3B76
  8
0
  6
CONTINUOUS
 62
     7
 10
17327.268263999991
 20
6609.8550406666691
 30
0.0
 40
160.0
  1
2348（2588）
 50
90.0
  0
TEXT
  5
3B77
  8
0
  6
CONTINUOUS
 62
     7
 10
9452.4345346666632
 20
9469.1900499999956
 30
0.0
 40
160.0
  1
180
  0
TEXT
  5
3B78
  8
0
  6
CONTINUOUS
 62
     7
 10
12808.18453466666
 20
9469.1900499999992
 30
0.0
 40
160.0
  1
6271.5
  0
TEXT
  5
3B79
  8
0
  6
CONTINUOUS
 62
     7
 10
16533.934534666671
 20
9469.1900499999992
 30
0.0
 40
160.0
  1
150
  0
TEXT
  5
3B7A
  8
0
  6
CONTINUOUS
 62
     7
 10
12806.517868000001
 20
9869.1883999999955
 30
0.0
 40
160.0
  1
6601.5
  0
TEXT
  5
3B7B
  8
0
  6
CONTINUOUS
 62
     7
 10
22316.26686499998
 20
4621.1887040000047
 30
0.0
 40
160.0
  1
2652.5
  0
TEXT
  5
3B7C
  8
0
  6
CONTINUOUS
 62
     7
 10
20823.97787474114
 20
5021.1885390000061
 30
0.0
 40
160.0
  1
42.5
  0
TEXT
  5
3B7D
  8
0
  6
CONTINUOUS
 62
     7
 10
22316.26686499998
 20
5021.1885390000061
 30
0.0
 40
160.0
  1
2567.5
  0
TEXT
  5
3B7E
  8
0
  6
CONTINUOUS
 62
     7
 10
21788.26686499998
 20
5421.1885390000061
 30
0.0
 40
160.0
  1
有効開口巾 2379.5
  0
TEXT
  5
3B7F
  8
0
  6
CONTINUOUS
 62
     7
 10
24128.55585525883
 20
5021.1885390000061
 30
0.0
 40
160.0
  1
42.5
  0
TEXT
  5
3B84
  8
0
  6
CONTINUOUS
 62
     7
 10
20102.513235999981
 20
6647.1883870000029
 30
0.0
 40
160.0
  1
2348 (2588)
 50
90.0
  0
TEXT
  5
3B85
  8
0
  6
CONTINUOUS
 62
     7
 10
20502.51554499998
 20
6305.1676122912768
 30
0.0
 40
160.0
  1
有効開口高サ 1891.5
 50
90.0
  0
TEXT
  5
3B86
  8
0
  6
CONTINUOUS
 62
     7
 10
20423.062287999968
 20
14026.856507750001
 30
0.0
 40
160.0
  1
1809.5
 50
90.0
  0
TEXT
  5
3B87
  8
0
  6
CONTINUOUS
 62
     7
 10
20423.062287999968
 20
15754.43984108334
 30
0.0
 40
160.0
  1
1459
 50
90.0
  0
TEXT
  5
3B88
  8
0
  6
CONTINUOUS
 62
     7
 10
20423.062287999968
 20
17213.319585333331
 30
0.0
 40
160.0
  1
1459
 50
90.0
  0
TEXT
  5
3B89
  8
0
  6
CONTINUOUS
 62
     7
 10
20423.062287999968
 20
18672.319585333309
 30
0.0
 40
160.0
  1
1459
 50
90.0
  0
TEXT
  5
3B8A
  8
0
  6
CONTINUOUS
 62
     7
 10
10805.631049999971
 20
18672.319585333309
 30
0.0
 40
160.0
  1
1459
 50
90.0
  0
TEXT
  5
3B8B
  8
0
  6
CONTINUOUS
 62
     7
 10
10805.631049999971
 20
19979.941436807669
 30
0.0
 40
160.0
  1
222.5
 50
90.0
  0
TEXT
  5
3B8C
  8
0
  6
CONTINUOUS
 62
     7
 10
11205.63104999998
 20
20010.982161000022
 30
0.0
 40
160.0
  1
20
 50
90.0
  0
TEXT
  5
3B8D
  8
0
  6
CONTINUOUS
 62
     7
 10
10805.631049999971
 20
17213.319585333331
 30
0.0
 40
160.0
  1
1459
 50
90.0
  0
TEXT
  5
3B8E
  8
0
  6
CONTINUOUS
 62
     7
 10
10805.631049999971
 20
15754.43984108334
 30
0.0
 40
160.0
  1
1459
 50
90.0
  0
TEXT
  5
3B8F
  8
0
  6
CONTINUOUS
 62
     7
 10
10805.631049999971
 20
14026.856507750001
 30
0.0
 40
160.0
  1
1809.5
 50
90.0
  0
TEXT
  5
3B90
  8
0
  6
CONTINUOUS
 62
     7
 10
10805.631049999971
 20
12674.03324170262
 30
0.0
 40
160.0
  1
192.5
 50
90.0
  0
TEXT
  5
3B91
  8
0
  6
CONTINUOUS
 62
     7
 10
12698.87934199998
 20
20520.987440000012
 30
0.0
 40
160.0
  1
2567.5
  0
TEXT
  5
3B92
  8
0
  6
CONTINUOUS
 62
     7
 10
14519.12604802325
 20
20520.987440000012
 30
0.0
 40
160.0
  1
85.5
  0
TEXT
  5
3B93
  8
0
  6
CONTINUOUS
 62
     7
 10
11198.632635976721
 20
20520.987440000012
 30
0.0
 40
160.0
  1
85.5
  0
ARC
  5
3B99
  8
0
  6
BYBLOCK
 62
     0
 10
11815.12934199998
 20
20440.987440000012
 30
0.0
 40
15.0
 50
0.0
 51
180.0
  0
ARC
  5
3B9A
  8
0
  6
BYBLOCK
 62
     0
 10
11815.12934199998
 20
20440.987440000012
 30
0.0
 40
15.0
 50
180.0
 51
0.0
  0
ARC
  5
3B9B
  8
0
  6
BYBLOCK
 62
     0
 10
11729.62934199998
 20
20440.987440000012
 30
0.0
 40
15.0
 50
180.0
 51
0.0
  0
ARC
  5
3B9C
  8
0
  6
BYBLOCK
 62
     0
 10
11729.62934199998
 20
20440.987440000012
 30
0.0
 40
15.0
 50
0.0
 51
180.0
  0
ARC
  5
3B9D
  8
0
  6
BYBLOCK
 62
     0
 10
14382.62934199998
 20
20440.987440000012
 30
0.0
 40
15.0
 50
180.0
 51
0.0
  0
ARC
  5
3B9E
  8
0
  6
BYBLOCK
 62
     0
 10
14382.62934199998
 20
20440.987440000012
 30
0.0
 40
15.0
 50
0.0
 51
180.0
  0
ARC
  5
3B9F
  8
0
  6
BYBLOCK
 62
     0
 10
14468.12934199998
 20
20440.987440000012
 30
0.0
 40
15.0
 50
0.0
 51
180.0
  0
ARC
  5
3BA0
  8
0
  6
BYBLOCK
 62
     0
 10
14468.12934199998
 20
20440.987440000012
 30
0.0
 40
15.0
 50
180.0
 51
0.0
  0
ARC
  5
3BA1
  8
0
  6
BYBLOCK
 62
     0
 10
11815.12934199998
 20
20440.987440000012
 30
0.0
 40
15.0
 50
0.0
 51
180.0
  0
ARC
  5
3BA2
  8
0
  6
BYBLOCK
 62
     0
 10
11815.12934199998
 20
20440.987440000012
 30
0.0
 40
15.0
 50
180.0
 51
0.0
  0
ARC
  5
3BA3
  8
0
  6
BYBLOCK
 62
     0
 10
14382.62934199998
 20
20440.987440000012
 30
0.0
 40
15.0
 50
180.0
 51
0.0
  0
ARC
  5
3BA4
  8
0
  6
BYBLOCK
 62
     0
 10
14382.62934199998
 20
20440.987440000012
 30
0.0
 40
15.0
 50
0.0
 51
180.0
  0
ARC
  5
3BA5
  8
0
  6
BYBLOCK
 62
     0
 10
10885.631049999971
 20
13481.986252000001
 30
0.0
 40
15.0
 50
90.0
 51
270.0
  0
ARC
  5
3BA6
  8
0
  6
BYBLOCK
 62
     0
 10
10885.631049999971
 20
13481.986252000001
 30
0.0
 40
15.0
 50
270.0
 51
90.0
  0
ARC
  5
3BA7
  8
0
  6
BYBLOCK
 62
     0
 10
10885.631049999971
 20
13289.490937
 30
0.0
 40
15.0
 50
270.0
 51
90.0
  0
ARC
  5
3BA8
  8
0
  6
BYBLOCK
 62
     0
 10
10885.631049999971
 20
13289.490937
 30
0.0
 40
15.0
 50
90.0
 51
270.0
  0
ARC
  5
3BA9
  8
0
  6
BYBLOCK
 62
     0
 10
10885.631049999971
 20
15291.72676350001
 30
0.0
 40
15.0
 50
270.0
 51
90.0
  0
ARC
  5
3BAA
  8
0
  6
BYBLOCK
 62
     0
 10
10885.631049999971
 20
15291.72676350001
 30
0.0
 40
15.0
 50
90.0
 51
270.0
  0
ARC
  5
3BAB
  8
0
  6
BYBLOCK
 62
     0
 10
10885.631049999971
 20
13481.986252000001
 30
0.0
 40
15.0
 50
90.0
 51
270.0
  0
ARC
  5
3BAC
  8
0
  6
BYBLOCK
 62
     0
 10
10885.631049999971
 20
13481.986252000001
 30
0.0
 40
15.0
 50
270.0
 51
90.0
  0
ARC
  5
3BAD
  8
0
  6
BYBLOCK
 62
     0
 10
10885.631049999971
 20
16750.486251999992
 30
0.0
 40
15.0
 50
270.0
 51
90.0
  0
ARC
  5
3BAE
  8
0
  6
BYBLOCK
 62
     0
 10
10885.631049999971
 20
16750.486251999992
 30
0.0
 40
15.0
 50
90.0
 51
270.0
  0
ARC
  5
3BAF
  8
0
  6
BYBLOCK
 62
     0
 10
10885.631049999971
 20
15291.72676350001
 30
0.0
 40
15.0
 50
90.0
 51
270.0
  0
ARC
  5
3BB0
  8
0
  6
BYBLOCK
 62
     0
 10
10885.631049999971
 20
15291.72676350001
 30
0.0
 40
15.0
 50
270.0
 51
90.0
  0
ARC
  5
3BB1
  8
0
  6
BYBLOCK
 62
     0
 10
10885.631049999971
 20
18209.486251999992
 30
0.0
 40
15.0
 50
270.0
 51
90.0
  0
ARC
  5
3BB2
  8
0
  6
BYBLOCK
 62
     0
 10
10885.631049999971
 20
18209.486251999992
 30
0.0
 40
15.0
 50
90.0
 51
270.0
  0
ARC
  5
3BB3
  8
0
  6
BYBLOCK
 62
     0
 10
10885.631049999971
 20
16750.486251999992
 30
0.0
 40
15.0
 50
90.0
 51
270.0
  0
ARC
  5
3BB4
  8
0
  6
BYBLOCK
 62
     0
 10
10885.631049999971
 20
16750.486251999992
 30
0.0
 40
15.0
 50
270.0
 51
90.0
  0
ARC
  5
3BB5
  8
0
  6
BYBLOCK
 62
     0
 10
11285.63104999998
 20
19870.982161000022
 30
0.0
 40
15.0
 50
270.0
 51
90.0
  0
ARC
  5
3BB6
  8
0
  6
BYBLOCK
 62
     0
 10
11285.63104999998
 20
19870.982161000022
 30
0.0
 40
15.0
 50
90.0
 51
270.0
  0
ARC
  5
3BB7
  8
0
  6
BYBLOCK
 62
     0
 10
11285.63104999998
 20
19890.982161000022
 30
0.0
 40
15.0
 50
90.0
 51
270.0
  0
ARC
  5
3BB8
  8
0
  6
BYBLOCK
 62
     0
 10
11285.63104999998
 20
19890.982161000022
 30
0.0
 40
15.0
 50
270.0
 51
90.0
  0
ARC
  5
3BB9
  8
0
  6
BYBLOCK
 62
     0
 10
10885.631049999971
 20
19668.486251999992
 30
0.0
 40
15.0
 50
270.0
 51
90.0
  0
ARC
  5
3BBA
  8
0
  6
BYBLOCK
 62
     0
 10
10885.631049999971
 20
19668.486251999992
 30
0.0
 40
15.0
 50
90.0
 51
270.0
  0
ARC
  5
3BBB
  8
0
  6
BYBLOCK
 62
     0
 10
10885.631049999971
 20
19890.982161000022
 30
0.0
 40
15.0
 50
90.0
 51
270.0
  0
ARC
  5
3BBC
  8
0
  6
BYBLOCK
 62
     0
 10
10885.631049999971
 20
19890.982161000022
 30
0.0
 40
15.0
 50
270.0
 51
90.0
  0
ARC
  5
3BBD
  8
0
  6
BYBLOCK
 62
     0
 10
10885.631049999971
 20
18209.486251999992
 30
0.0
 40
15.0
 50
90.0
 51
270.0
  0
ARC
  5
3BBE
  8
0
  6
BYBLOCK
 62
     0
 10
10885.631049999971
 20
18209.486251999992
 30
0.0
 40
15.0
 50
270.0
 51
90.0
  0
ARC
  5
3BBF
  8
0
  6
BYBLOCK
 62
     0
 10
10885.631049999971
 20
19668.486251999992
 30
0.0
 40
15.0
 50
270.0
 51
90.0
  0
ARC
  5
3BC0
  8
0
  6
BYBLOCK
 62
     0
 10
10885.631049999971
 20
19668.486251999992
 30
0.0
 40
15.0
 50
90.0
 51
270.0
  0
ARC
  5
3BC1
  8
0
  6
BYBLOCK
 62
     0
 10
20503.062287999979
 20
18209.486251999992
 30
0.0
 40
15.0
 50
90.0
 51
270.0
  0
ARC
  5
3BC2
  8
0
  6
BYBLOCK
 62
     0
 10
20503.062287999979
 20
18209.486251999992
 30
0.0
 40
15.0
 50
270.0
 51
90.0
  0
ARC
  5
3BC3
  8
0
  6
BYBLOCK
 62
     0
 10
20503.062287999979
 20
19668.486251999992
 30
0.0
 40
15.0
 50
270.0
 51
90.0
  0
ARC
  5
3BC4
  8
0
  6
BYBLOCK
 62
     0
 10
20503.062287999979
 20
19668.486251999992
 30
0.0
 40
15.0
 50
90.0
 51
270.0
  0
ARC
  5
3BC5
  8
0
  6
BYBLOCK
 62
     0
 10
20503.062287999979
 20
16750.486251999992
 30
0.0
 40
15.0
 50
90.0
 51
270.0
  0
ARC
  5
3BC6
  8
0
  6
BYBLOCK
 62
     0
 10
20503.062287999979
 20
16750.486251999992
 30
0.0
 40
15.0
 50
270.0
 51
90.0
  0
ARC
  5
3BC7
  8
0
  6
BYBLOCK
 62
     0
 10
20503.062287999979
 20
18209.486251999992
 30
0.0
 40
15.0
 50
270.0
 51
90.0
  0
ARC
  5
3BC8
  8
0
  6
BYBLOCK
 62
     0
 10
20503.062287999979
 20
18209.486251999992
 30
0.0
 40
15.0
 50
90.0
 51
270.0
  0
ARC
  5
3BC9
  8
0
  6
BYBLOCK
 62
     0
 10
20503.062287999979
 20
15291.72676350001
 30
0.0
 40
15.0
 50
90.0
 51
270.0
  0
ARC
  5
3BCA
  8
0
  6
BYBLOCK
 62
     0
 10
20503.062287999979
 20
15291.72676350001
 30
0.0
 40
15.0
 50
270.0
 51
90.0
  0
ARC
  5
3BCB
  8
0
  6
BYBLOCK
 62
     0
 10
20503.062287999979
 20
16750.486251999992
 30
0.0
 40
15.0
 50
270.0
 51
90.0
  0
ARC
  5
3BCC
  8
0
  6
BYBLOCK
 62
     0
 10
20503.062287999979
 20
16750.486251999992
 30
0.0
 40
15.0
 50
90.0
 51
270.0
  0
ARC
  5
3BCD
  8
0
  6
BYBLOCK
 62
     0
 10
20503.062287999979
 20
13481.986252000001
 30
0.0
 40
15.0
 50
90.0
 51
270.0
  0
ARC
  5
3BCE
  8
0
  6
BYBLOCK
 62
     0
 10
20503.062287999979
 20
13481.986252000001
 30
0.0
 40
15.0
 50
270.0
 51
90.0
  0
ARC
  5
3BCF
  8
0
  6
BYBLOCK
 62
     0
 10
20503.062287999979
 20
15291.72676350001
 30
0.0
 40
15.0
 50
270.0
 51
90.0
  0
ARC
  5
3BD0
  8
0
  6
BYBLOCK
 62
     0
 10
20503.062287999979
 20
15291.72676350001
 30
0.0
 40
15.0
 50
90.0
 51
270.0
  0
ARC
  5
3BD1
  8
0
  6
BYBLOCK
 62
     0
 10
20582.515544999991
 20
6241.1883740000012
 30
0.0
 40
15.0
 50
90.0
 51
270.0
  0
ARC
  5
3BD2
  8
0
  6
BYBLOCK
 62
     0
 10
20582.515544999991
 20
6241.1883740000012
 30
0.0
 40
15.0
 50
270.0
 51
90.0
  0
ARC
  5
3BD3
  8
0
  6
BYBLOCK
 62
     0
 10
20582.515544999991
 20
8132.6883740000021
 30
0.0
 40
15.0
 50
270.0
 51
90.0
  0
ARC
  5
3BD4
  8
0
  6
BYBLOCK
 62
     0
 10
20582.515544999991
 20
8132.6883740000021
 30
0.0
 40
15.0
 50
90.0
 51
270.0
  0
ARC
  5
3BD5
  8
0
  6
BYBLOCK
 62
     0
 10
20182.513235999981
 20
6241.1883740000012
 30
0.0
 40
15.0
 50
90.0
 51
270.0
  0
ARC
  5
3BD6
  8
0
  6
BYBLOCK
 62
     0
 10
20182.513235999981
 20
6241.1883740000012
 30
0.0
 40
15.0
 50
270.0
 51
90.0
  0
ARC
  5
3BD7
  8
0
  6
BYBLOCK
 62
     0
 10
20182.513235999992
 20
8589.1883999999973
 30
0.0
 40
15.0
 50
270.0
 51
90.0
  0
ARC
  5
3BD8
  8
0
  6
BYBLOCK
 62
     0
 10
20182.513235999992
 20
8589.1883999999973
 30
0.0
 40
15.0
 50
90.0
 51
270.0
  0
ARC
  5
3BE9
  8
0
  6
BYBLOCK
 62
     0
 10
24000.01686499998
 20
4941.1885390000061
 30
0.0
 40
15.0
 50
180.0
 51
0.0
  0
ARC
  5
3BEA
  8
0
  6
BYBLOCK
 62
     0
 10
24000.01686499998
 20
4941.1885390000061
 30
0.0
 40
15.0
 50
0.0
 51
180.0
  0
ARC
  5
3BEB
  8
0
  6
BYBLOCK
 62
     0
 10
24042.51686499998
 20
4941.1885390000061
 30
0.0
 40
15.0
 50
0.0
 51
180.0
  0
ARC
  5
3BEC
  8
0
  6
BYBLOCK
 62
     0
 10
24042.51686499998
 20
4941.1885390000061
 30
0.0
 40
15.0
 50
180.0
 51
0.0
  0
ARC
  5
3BED
  8
0
  6
BYBLOCK
 62
     0
 10
21526.51686499998
 20
5341.1885390000079
 30
0.0
 40
15.0
 50
0.0
 51
180.0
  0
ARC
  5
3BEE
  8
0
  6
BYBLOCK
 62
     0
 10
21526.51686499998
 20
5341.1885390000079
 30
0.0
 40
15.0
 50
180.0
 51
0.0
  0
ARC
  5
3BEF
  8
0
  6
BYBLOCK
 62
     0
 10
23906.016864999969
 20
5341.1885390000079
 30
0.0
 40
15.0
 50
180.0
 51
0.0
  0
ARC
  5
3BF0
  8
0
  6
BYBLOCK
 62
     0
 10
23906.016864999969
 20
5341.1885390000079
 30
0.0
 40
15.0
 50
0.0
 51
180.0
  0
ARC
  5
3BF1
  8
0
  6
BYBLOCK
 62
     0
 10
21432.516864999969
 20
4941.1885390000061
 30
0.0
 40
15.0
 50
0.0
 51
180.0
  0
ARC
  5
3BF2
  8
0
  6
BYBLOCK
 62
     0
 10
21432.516864999969
 20
4941.1885390000061
 30
0.0
 40
15.0
 50
180.0
 51
0.0
  0
ARC
  5
3BF3
  8
0
  6
BYBLOCK
 62
     0
 10
24000.01686499998
 20
4941.1885390000061
 30
0.0
 40
15.0
 50
180.0
 51
0.0
  0
ARC
  5
3BF4
  8
0
  6
BYBLOCK
 62
     0
 10
24000.01686499998
 20
4941.1885390000061
 30
0.0
 40
15.0
 50
0.0
 51
180.0
  0
ARC
  5
3BF5
  8
0
  6
BYBLOCK
 62
     0
 10
21432.516864999969
 20
4941.1885390000061
 30
0.0
 40
15.0
 50
0.0
 51
180.0
  0
ARC
  5
3BF6
  8
0
  6
BYBLOCK
 62
     0
 10
21432.516864999969
 20
4941.1885390000061
 30
0.0
 40
15.0
 50
180.0
 51
0.0
  0
ARC
  5
3BF7
  8
0
  6
BYBLOCK
 62
     0
 10
21390.01686499998
 20
4941.1885390000061
 30
0.0
 40
15.0
 50
180.0
 51
0.0
  0
ARC
  5
3BF8
  8
0
  6
BYBLOCK
 62
     0
 10
21390.01686499998
 20
4941.1885390000061
 30
0.0
 40
15.0
 50
0.0
 51
180.0
  0
ARC
  5
3BF9
  8
0
  6
BYBLOCK
 62
     0
 10
21390.01686499998
 20
4541.1887040000038
 30
0.0
 40
15.0
 50
0.0
 51
180.0
  0
ARC
  5
3BFA
  8
0
  6
BYBLOCK
 62
     0
 10
21390.01686499998
 20
4541.1887040000038
 30
0.0
 40
15.0
 50
180.0
 51
0.0
  0
ARC
  5
3BFB
  8
0
  6
BYBLOCK
 62
     0
 10
24042.51686499998
 20
4541.1887040000038
 30
0.0
 40
15.0
 50
180.0
 51
0.0
  0
ARC
  5
3BFC
  8
0
  6
BYBLOCK
 62
     0
 10
24042.51686499998
 20
4541.1887040000038
 30
0.0
 40
15.0
 50
0.0
 51
180.0
  0
ARC
  5
3BFD
  8
0
  6
BYBLOCK
 62
     0
 10
9865.7678679999972
 20
9789.1883999999955
 30
0.0
 40
15.0
 50
0.0
 51
180.0
  0
ARC
  5
3BFE
  8
0
  6
BYBLOCK
 62
     0
 10
9865.7678679999972
 20
9789.1883999999955
 30
0.0
 40
15.0
 50
180.0
 51
0.0
  0
ARC
  5
3BFF
  8
0
  6
BYBLOCK
 62
     0
 10
16467.267867999992
 20
9789.1883999999955
 30
0.0
 40
15.0
 50
180.0
 51
0.0
  0
ARC
  5
3C00
  8
0
  6
BYBLOCK
 62
     0
 10
16467.267867999992
 20
9789.1883999999955
 30
0.0
 40
15.0
 50
0.0
 51
180.0
  0
ARC
  5
3C01
  8
0
  6
BYBLOCK
 62
     0
 10
16317.267868000001
 20
9389.1900499999992
 30
0.0
 40
15.0
 50
180.0
 51
0.0
  0
ARC
  5
3C02
  8
0
  6
BYBLOCK
 62
     0
 10
16317.267868000001
 20
9389.1900499999992
 30
0.0
 40
15.0
 50
0.0
 51
180.0
  0
ARC
  5
3C03
  8
0
  6
BYBLOCK
 62
     0
 10
16467.267867999992
 20
9389.1900499999992
 30
0.0
 40
15.0
 50
0.0
 51
180.0
  0
ARC
  5
3C04
  8
0
  6
BYBLOCK
 62
     0
 10
16467.267867999992
 20
9389.1900499999992
 30
0.0
 40
15.0
 50
180.0
 51
0.0
  0
ARC
  5
3C05
  8
0
  6
BYBLOCK
 62
     0
 10
10045.767868000001
 20
9389.1900499999992
 30
0.0
 40
15.0
 50
0.0
 51
180.0
  0
ARC
  5
3C06
  8
0
  6
BYBLOCK
 62
     0
 10
10045.767868000001
 20
9389.1900499999992
 30
0.0
 40
15.0
 50
180.0
 51
0.0
  0
ARC
  5
3C07
  8
0
  6
BYBLOCK
 62
     0
 10
16317.267868000001
 20
9389.1900499999992
 30
0.0
 40
15.0
 50
180.0
 51
0.0
  0
ARC
  5
3C08
  8
0
  6
BYBLOCK
 62
     0
 10
16317.267868000001
 20
9389.1900499999992
 30
0.0
 40
15.0
 50
0.0
 51
180.0
  0
ARC
  5
3C09
  8
0
  6
BYBLOCK
 62
     0
 10
9865.7678679999972
 20
9389.1900499999956
 30
0.0
 40
15.0
 50
180.0
 51
0.0
  0
ARC
  5
3C0A
  8
0
  6
BYBLOCK
 62
     0
 10
9865.7678679999972
 20
9389.1900499999956
 30
0.0
 40
15.0
 50
0.0
 51
180.0
  0
ARC
  5
3C0B
  8
0
  6
BYBLOCK
 62
     0
 10
10045.767868000001
 20
9389.1900499999956
 30
0.0
 40
15.0
 50
0.0
 51
180.0
  0
ARC
  5
3C0C
  8
0
  6
BYBLOCK
 62
     0
 10
10045.767868000001
 20
9389.1900499999956
 30
0.0
 40
15.0
 50
180.0
 51
0.0
  0
ARC
  5
3C0D
  8
0
  6
BYBLOCK
 62
     0
 10
17407.268263999991
 20
6241.1883740000012
 30
0.0
 40
15.0
 50
90.0
 51
270.0
  0
ARC
  5
3C0E
  8
0
  6
BYBLOCK
 62
     0
 10
17407.268263999991
 20
6241.1883740000012
 30
0.0
 40
15.0
 50
270.0
 51
90.0
  0
ARC
  5
3C0F
  8
0
  6
BYBLOCK
 62
     0
 10
17407.268263999991
 20
8589.1883739999994
 30
0.0
 40
15.0
 50
270.0
 51
90.0
  0
ARC
  5
3C10
  8
0
  6
BYBLOCK
 62
     0
 10
17407.268263999991
 20
8589.1883739999994
 30
0.0
 40
15.0
 50
90.0
 51
270.0
  0
ARC
  5
3C11
  8
0
  6
BYBLOCK
 62
     0
 10
8955.7674720000032
 20
6241.1883740000012
 30
0.0
 40
15.0
 50
90.0
 51
270.0
  0
ARC
  5
3C12
  8
0
  6
BYBLOCK
 62
     0
 10
8955.7674720000032
 20
6241.1883740000012
 30
0.0
 40
15.0
 50
270.0
 51
90.0
  0
ARC
  5
3C13
  8
0
  6
BYBLOCK
 62
     0
 10
8955.7674720000032
 20
8398.188374000003
 30
0.0
 40
15.0
 50
270.0
 51
90.0
  0
ARC
  5
3C14
  8
0
  6
BYBLOCK
 62
     0
 10
8955.7674720000032
 20
8398.188374000003
 30
0.0
 40
15.0
 50
90.0
 51
270.0
  0
ARC
  5
3C15
  8
0
  6
BYBLOCK
 62
     0
 10
10045.767868000001
 20
4541.1887040000001
 30
0.0
 40
15.0
 50
0.0
 51
180.0
  0
ARC
  5
3C16
  8
0
  6
BYBLOCK
 62
     0
 10
10045.767868000001
 20
4541.1887040000001
 30
0.0
 40
15.0
 50
180.0
 51
0.0
  0
ARC
  5
3C17
  8
0
  6
BYBLOCK
 62
     0
 10
16317.267868000001
 20
4541.1887040000001
 30
0.0
 40
15.0
 50
180.0
 51
0.0
  0
ARC
  5
3C18
  8
0
  6
BYBLOCK
 62
     0
 10
16317.267868000001
 20
4541.1887040000001
 30
0.0
 40
15.0
 50
0.0
 51
180.0
  0
ARC
  5
3C19
  8
0
  6
BYBLOCK
 62
     0
 10
16274.767868000001
 20
4941.1885389999979
 30
0.0
 40
15.0
 50
180.0
 51
0.0
  0
ARC
  5
3C1A
  8
0
  6
BYBLOCK
 62
     0
 10
16274.767868000001
 20
4941.1885389999979
 30
0.0
 40
15.0
 50
0.0
 51
180.0
  0
ARC
  5
3C1B
  8
0
  6
BYBLOCK
 62
     0
 10
16317.267868000001
 20
4941.1885389999979
 30
0.0
 40
15.0
 50
0.0
 51
180.0
  0
ARC
  5
3C1C
  8
0
  6
BYBLOCK
 62
     0
 10
16317.267868000001
 20
4941.1885389999979
 30
0.0
 40
15.0
 50
180.0
 51
0.0
  0
ARC
  5
3C1D
  8
0
  6
BYBLOCK
 62
     0
 10
10088.267868000001
 20
4941.1885389999979
 30
0.0
 40
15.0
 50
0.0
 51
180.0
  0
ARC
  5
3C1E
  8
0
  6
BYBLOCK
 62
     0
 10
10088.267868000001
 20
4941.1885389999979
 30
0.0
 40
15.0
 50
180.0
 51
0.0
  0
ARC
  5
3C1F
  8
0
  6
BYBLOCK
 62
     0
 10
10045.767868000001
 20
4941.1885389999979
 30
0.0
 40
15.0
 50
180.0
 51
0.0
  0
ARC
  5
3C20
  8
0
  6
BYBLOCK
 62
     0
 10
10045.767868000001
 20
4941.1885389999979
 30
0.0
 40
15.0
 50
0.0
 51
180.0
  0
ARC
  5
3C21
  8
0
  6
BYBLOCK
 62
     0
 10
13006.267868000001
 20
4941.1885389999979
 30
0.0
 40
15.0
 50
180.0
 51
0.0
  0
ARC
  5
3C22
  8
0
  6
BYBLOCK
 62
     0
 10
13006.267868000001
 20
4941.1885389999979
 30
0.0
 40
15.0
 50
0.0
 51
180.0
  0
ARC
  5
3C23
  8
0
  6
BYBLOCK
 62
     0
 10
10088.267868000001
 20
4941.1885389999979
 30
0.0
 40
15.0
 50
0.0
 51
180.0
  0
ARC
  5
3C24
  8
0
  6
BYBLOCK
 62
     0
 10
10088.267868000001
 20
4941.1885389999979
 30
0.0
 40
15.0
 50
180.0
 51
0.0
  0
ARC
  5
3C25
  8
0
  6
BYBLOCK
 62
     0
 10
13006.267868000001
 20
4941.1885389999979
 30
0.0
 40
15.0
 50
0.0
 51
180.0
  0
ARC
  5
3C26
  8
0
  6
BYBLOCK
 62
     0
 10
13006.267868000001
 20
4941.1885389999979
 30
0.0
 40
15.0
 50
180.0
 51
0.0
  0
ARC
  5
3C27
  8
0
  6
BYBLOCK
 62
     0
 10
16274.767868000001
 20
4941.1885389999979
 30
0.0
 40
15.0
 50
180.0
 51
0.0
  0
ARC
  5
3C28
  8
0
  6
BYBLOCK
 62
     0
 10
16274.767868000001
 20
4941.1885389999979
 30
0.0
 40
15.0
 50
0.0
 51
180.0
  0
ARC
  5
3C29
  8
0
  6
BYBLOCK
 62
     0
 10
21432.516864999969
 20
12510.538167999999
 30
0.0
 40
15.0
 50
0.0
 51
180.0
  0
ARC
  5
3C2A
  8
0
  6
BYBLOCK
 62
     0
 10
21432.516864999969
 20
12510.538167999999
 30
0.0
 40
15.0
 50
180.0
 51
0.0
  0
ARC
  5
3C2B
  8
0
  6
BYBLOCK
 62
     0
 10
21390.014621999992
 20
12510.538167999999
 30
0.0
 40
15.0
 50
180.0
 51
0.0
  0
ARC
  5
3C2C
  8
0
  6
BYBLOCK
 62
     0
 10
21390.014621999992
 20
12510.538167999999
 30
0.0
 40
15.0
 50
0.0
 51
180.0
  0
ARC
  5
3C2D
  8
0
  6
BYBLOCK
 62
     0
 10
24000.01686499998
 20
12510.538167999999
 30
0.0
 40
15.0
 50
180.0
 51
0.0
  0
ARC
  5
3C2E
  8
0
  6
BYBLOCK
 62
     0
 10
24000.01686499998
 20
12510.538167999999
 30
0.0
 40
15.0
 50
0.0
 51
180.0
  0
ARC
  5
3C2F
  8
0
  6
BYBLOCK
 62
     0
 10
24042.519107999971
 20
12510.538167999999
 30
0.0
 40
15.0
 50
0.0
 51
180.0
  0
ARC
  5
3C30
  8
0
  6
BYBLOCK
 62
     0
 10
24042.519107999971
 20
12510.538167999999
 30
0.0
 40
15.0
 50
180.0
 51
0.0
  0
ARC
  5
3C31
  8
0
  6
BYBLOCK
 62
     0
 10
24000.01686499998
 20
12510.538167999999
 30
0.0
 40
15.0
 50
0.0
 51
180.0
  0
ARC
  5
3C32
  8
0
  6
BYBLOCK
 62
     0
 10
24000.01686499998
 20
12510.538167999999
 30
0.0
 40
15.0
 50
180.0
 51
0.0
  0
ARC
  5
3C33
  8
0
  6
BYBLOCK
 62
     0
 10
23957.514621999981
 20
12510.538167999999
 30
0.0
 40
15.0
 50
180.0
 51
0.0
  0
ARC
  5
3C34
  8
0
  6
BYBLOCK
 62
     0
 10
23957.514621999981
 20
12510.538167999999
 30
0.0
 40
15.0
 50
0.0
 51
180.0
  0
ARC
  5
3C35
  8
0
  6
BYBLOCK
 62
     0
 10
21432.516864999969
 20
12510.538167999999
 30
0.0
 40
15.0
 50
180.0
 51
0.0
  0
ARC
  5
3C36
  8
0
  6
BYBLOCK
 62
     0
 10
21432.516864999969
 20
12510.538167999999
 30
0.0
 40
15.0
 50
0.0
 51
180.0
  0
ARC
  5
3C37
  8
0
  6
BYBLOCK
 62
     0
 10
21475.019107999971
 20
12510.538167999999
 30
0.0
 40
15.0
 50
0.0
 51
180.0
  0
ARC
  5
3C38
  8
0
  6
BYBLOCK
 62
     0
 10
21475.019107999971
 20
12510.538167999999
 30
0.0
 40
15.0
 50
180.0
 51
0.0
  0
ARC
  5
3C39
  8
0
  6
BYBLOCK
 62
     0
 10
21390.014621999992
 20
12110.538167999999
 30
0.0
 40
15.0
 50
0.0
 51
180.0
  0
ARC
  5
3C3A
  8
0
  6
BYBLOCK
 62
     0
 10
21390.014621999992
 20
12110.538167999999
 30
0.0
 40
15.0
 50
180.0
 51
0.0
  0
ARC
  5
3C3B
  8
0
  6
BYBLOCK
 62
     0
 10
24042.519107999971
 20
12110.538167999999
 30
0.0
 40
15.0
 50
180.0
 51
0.0
  0
ARC
  5
3C3C
  8
0
  6
BYBLOCK
 62
     0
 10
24042.519107999971
 20
12110.538167999999
 30
0.0
 40
15.0
 50
0.0
 51
180.0
  0
ARC
  5
3C3D
  8
0
  6
BYBLOCK
 62
     0
 10
25092.516468999969
 20
13889.486252000001
 30
0.0
 40
15.0
 50
270.0
 51
90.0
  0
ARC
  5
3C3E
  8
0
  6
BYBLOCK
 62
     0
 10
25092.516468999969
 20
13889.486252000001
 30
0.0
 40
15.0
 50
90.0
 51
270.0
  0
ARC
  5
3C3F
  8
0
  6
BYBLOCK
 62
     0
 10
25092.516468999969
 20
13481.986252000001
 30
0.0
 40
15.0
 50
90.0
 51
270.0
  0
ARC
  5
3C40
  8
0
  6
BYBLOCK
 62
     0
 10
25092.516468999969
 20
13481.986252000001
 30
0.0
 40
15.0
 50
270.0
 51
90.0
  0
ARC
  5
3C41
  8
0
  6
BYBLOCK
 62
     0
 10
25092.516468999969
 20
14590.486252000001
 30
0.0
 40
15.0
 50
270.0
 51
90.0
  0
ARC
  5
3C42
  8
0
  6
BYBLOCK
 62
     0
 10
25092.516468999969
 20
14590.486252000001
 30
0.0
 40
15.0
 50
90.0
 51
270.0
  0
ARC
  5
3C43
  8
0
  6
BYBLOCK
 62
     0
 10
25092.516468999969
 20
13889.486252000001
 30
0.0
 40
15.0
 50
90.0
 51
270.0
  0
ARC
  5
3C44
  8
0
  6
BYBLOCK
 62
     0
 10
25092.516468999969
 20
13889.486252000001
 30
0.0
 40
15.0
 50
270.0
 51
90.0
  0
ARC
  5
3C45
  8
0
  6
BYBLOCK
 62
     0
 10
25092.516468999969
 20
15291.72676350001
 30
0.0
 40
15.0
 50
270.0
 51
90.0
  0
ARC
  5
3C46
  8
0
  6
BYBLOCK
 62
     0
 10
25092.516468999969
 20
15291.72676350001
 30
0.0
 40
15.0
 50
90.0
 51
270.0
  0
ARC
  5
3C47
  8
0
  6
BYBLOCK
 62
     0
 10
25092.516468999969
 20
14590.486252000001
 30
0.0
 40
15.0
 50
90.0
 51
270.0
  0
ARC
  5
3C48
  8
0
  6
BYBLOCK
 62
     0
 10
25092.516468999969
 20
14590.486252000001
 30
0.0
 40
15.0
 50
270.0
 51
90.0
  0
ARC
  5
3C49
  8
0
  6
BYBLOCK
 62
     0
 10
25092.516468999969
 20
15992.486252000001
 30
0.0
 40
15.0
 50
270.0
 51
90.0
  0
ARC
  5
3C4A
  8
0
  6
BYBLOCK
 62
     0
 10
25092.516468999969
 20
15992.486252000001
 30
0.0
 40
15.0
 50
90.0
 51
270.0
  0
ARC
  5
3C4B
  8
0
  6
BYBLOCK
 62
     0
 10
25092.516468999969
 20
15291.72676350001
 30
0.0
 40
15.0
 50
90.0
 51
270.0
  0
ARC
  5
3C4C
  8
0
  6
BYBLOCK
 62
     0
 10
25092.516468999969
 20
15291.72676350001
 30
0.0
 40
15.0
 50
270.0
 51
90.0
  0
ARC
  5
3C4D
  8
0
  6
BYBLOCK
 62
     0
 10
25092.516468999969
 20
16750.486251999992
 30
0.0
 40
15.0
 50
270.0
 51
90.0
  0
ARC
  5
3C4E
  8
0
  6
BYBLOCK
 62
     0
 10
25092.516468999969
 20
16750.486251999992
 30
0.0
 40
15.0
 50
90.0
 51
270.0
  0
ARC
  5
3C4F
  8
0
  6
BYBLOCK
 62
     0
 10
25092.516468999969
 20
15992.486252000001
 30
0.0
 40
15.0
 50
90.0
 51
270.0
  0
ARC
  5
3C50
  8
0
  6
BYBLOCK
 62
     0
 10
25092.516468999969
 20
15992.486252000001
 30
0.0
 40
15.0
 50
270.0
 51
90.0
  0
ARC
  5
3C51
  8
0
  6
BYBLOCK
 62
     0
 10
25092.516468999969
 20
17508.486251999992
 30
0.0
 40
15.0
 50
270.0
 51
90.0
  0
ARC
  5
3C52
  8
0
  6
BYBLOCK
 62
     0
 10
25092.516468999969
 20
17508.486251999992
 30
0.0
 40
15.0
 50
90.0
 51
270.0
  0
ARC
  5
3C53
  8
0
  6
BYBLOCK
 62
     0
 10
25092.516468999969
 20
16750.486251999992
 30
0.0
 40
15.0
 50
90.0
 51
270.0
  0
ARC
  5
3C54
  8
0
  6
BYBLOCK
 62
     0
 10
25092.516468999969
 20
16750.486251999992
 30
0.0
 40
15.0
 50
270.0
 51
90.0
  0
ARC
  5
3C55
  8
0
  6
BYBLOCK
 62
     0
 10
25092.516468999969
 20
18209.486251999992
 30
0.0
 40
15.0
 50
270.0
 51
90.0
  0
ARC
  5
3C56
  8
0
  6
BYBLOCK
 62
     0
 10
25092.516468999969
 20
18209.486251999992
 30
0.0
 40
15.0
 50
90.0
 51
270.0
  0
ARC
  5
3C57
  8
0
  6
BYBLOCK
 62
     0
 10
25092.516468999969
 20
17508.486251999992
 30
0.0
 40
15.0
 50
90.0
 51
270.0
  0
ARC
  5
3C58
  8
0
  6
BYBLOCK
 62
     0
 10
25092.516468999969
 20
17508.486251999992
 30
0.0
 40
15.0
 50
270.0
 51
90.0
  0
ARC
  5
3C59
  8
0
  6
BYBLOCK
 62
     0
 10
25092.516468999969
 20
18910.486251999992
 30
0.0
 40
15.0
 50
270.0
 51
90.0
  0
ARC
  5
3C5A
  8
0
  6
BYBLOCK
 62
     0
 10
25092.516468999969
 20
18910.486251999992
 30
0.0
 40
15.0
 50
90.0
 51
270.0
  0
ARC
  5
3C5B
  8
0
  6
BYBLOCK
 62
     0
 10
25092.516468999969
 20
18209.486251999992
 30
0.0
 40
15.0
 50
90.0
 51
270.0
  0
ARC
  5
3C5C
  8
0
  6
BYBLOCK
 62
     0
 10
25092.516468999969
 20
18209.486251999992
 30
0.0
 40
15.0
 50
270.0
 51
90.0
  0
ARC
  5
3C5D
  8
0
  6
BYBLOCK
 62
     0
 10
25092.516468999969
 20
19668.486251999992
 30
0.0
 40
15.0
 50
270.0
 51
90.0
  0
ARC
  5
3C5E
  8
0
  6
BYBLOCK
 62
     0
 10
25092.516468999969
 20
19668.486251999992
 30
0.0
 40
15.0
 50
90.0
 51
270.0
  0
ARC
  5
3C5F
  8
0
  6
BYBLOCK
 62
     0
 10
25092.516468999969
 20
18910.486251999992
 30
0.0
 40
15.0
 50
90.0
 51
270.0
  0
ARC
  5
3C60
  8
0
  6
BYBLOCK
 62
     0
 10
25092.516468999969
 20
18910.486251999992
 30
0.0
 40
15.0
 50
270.0
 51
90.0
  0
ARC
  5
3C61
  8
0
  6
BYBLOCK
 62
     0
 10
25492.516468999969
 20
16750.486251999992
 30
0.0
 40
15.0
 50
90.0
 51
270.0
  0
ARC
  5
3C62
  8
0
  6
BYBLOCK
 62
     0
 10
25492.516468999969
 20
16750.486251999992
 30
0.0
 40
15.0
 50
270.0
 51
90.0
  0
ARC
  5
3C63
  8
0
  6
BYBLOCK
 62
     0
 10
25492.516468999969
 20
19668.486251999992
 30
0.0
 40
15.0
 50
270.0
 51
90.0
  0
ARC
  5
3C64
  8
0
  6
BYBLOCK
 62
     0
 10
25492.516468999969
 20
19668.486251999992
 30
0.0
 40
15.0
 50
90.0
 51
270.0
  0
ARC
  5
3C65
  8
0
  6
BYBLOCK
 62
     0
 10
25492.516468999969
 20
13481.986252000001
 30
0.0
 40
15.0
 50
90.0
 51
270.0
  0
ARC
  5
3C66
  8
0
  6
BYBLOCK
 62
     0
 10
25492.516468999969
 20
13481.986252000001
 30
0.0
 40
15.0
 50
270.0
 51
90.0
  0
ARC
  5
3C67
  8
0
  6
BYBLOCK
 62
     0
 10
25492.516468999969
 20
16750.486251999992
 30
0.0
 40
15.0
 50
270.0
 51
90.0
  0
ARC
  5
3C68
  8
0
  6
BYBLOCK
 62
     0
 10
25492.516468999969
 20
16750.486251999992
 30
0.0
 40
15.0
 50
90.0
 51
270.0
  0
ARC
  5
3C69
  8
0
  6
BYBLOCK
 62
     0
 10
25892.516468999969
 20
19710.983546999982
 30
0.0
 40
15.0
 50
270.0
 51
90.0
  0
ARC
  5
3C6A
  8
0
  6
BYBLOCK
 62
     0
 10
25892.516468999969
 20
19710.983546999982
 30
0.0
 40
15.0
 50
90.0
 51
270.0
  0
ARC
  5
3C6B
  8
0
  6
BYBLOCK
 62
     0
 10
25892.516468999969
 20
13439.488957
 30
0.0
 40
15.0
 50
90.0
 51
270.0
  0
ARC
  5
3C6C
  8
0
  6
BYBLOCK
 62
     0
 10
25892.516468999969
 20
13439.488957
 30
0.0
 40
15.0
 50
270.0
 51
90.0
  0
ARC
  5
3C6D
  8
0
  6
BYBLOCK
 62
     0
 10
25492.516468999969
 20
19668.486251999992
 30
0.0
 40
15.0
 50
270.0
 51
90.0
  0
ARC
  5
3C6E
  8
0
  6
BYBLOCK
 62
     0
 10
25492.516468999969
 20
19668.486251999992
 30
0.0
 40
15.0
 50
90.0
 51
270.0
  0
ARC
  5
3C6F
  8
0
  6
BYBLOCK
 62
     0
 10
25492.516468999969
 20
19710.983546999982
 30
0.0
 40
15.0
 50
90.0
 51
270.0
  0
ARC
  5
3C70
  8
0
  6
BYBLOCK
 62
     0
 10
25492.516468999969
 20
19710.983546999982
 30
0.0
 40
15.0
 50
270.0
 51
90.0
  0
ARC
  5
3C71
  8
0
  6
BYBLOCK
 62
     0
 10
25492.516468999969
 20
13481.986252000001
 30
0.0
 40
15.0
 50
90.0
 51
270.0
  0
ARC
  5
3C72
  8
0
  6
BYBLOCK
 62
     0
 10
25492.516468999969
 20
13481.986252000001
 30
0.0
 40
15.0
 50
270.0
 51
90.0
  0
ARC
  5
3C73
  8
0
  6
BYBLOCK
 62
     0
 10
25492.516468999969
 20
13439.488957
 30
0.0
 40
15.0
 50
270.0
 51
90.0
  0
ARC
  5
3C74
  8
0
  6
BYBLOCK
 62
     0
 10
25492.516468999969
 20
13439.488957
 30
0.0
 40
15.0
 50
90.0
 51
270.0
  0
ARC
  5
3C75
  8
0
  6
BYBLOCK
 62
     0
 10
21432.516864999969
 20
20440.987440000012
 30
0.0
 40
15.0
 50
180.0
 51
0.0
  0
ARC
  5
3C76
  8
0
  6
BYBLOCK
 62
     0
 10
21432.516864999969
 20
20440.987440000012
 30
0.0
 40
15.0
 50
0.0
 51
180.0
  0
ARC
  5
3C77
  8
0
  6
BYBLOCK
 62
     0
 10
21840.01686499998
 20
20440.987440000012
 30
0.0
 40
15.0
 50
0.0
 51
180.0
  0
ARC
  5
3C78
  8
0
  6
BYBLOCK
 62
     0
 10
21840.01686499998
 20
20440.987440000012
 30
0.0
 40
15.0
 50
180.0
 51
0.0
  0
ARC
  5
3C79
  8
0
  6
BYBLOCK
 62
     0
 10
23242.016864999991
 20
20440.987440000012
 30
0.0
 40
15.0
 50
0.0
 51
180.0
  0
ARC
  5
3C7A
  8
0
  6
BYBLOCK
 62
     0
 10
23242.016864999991
 20
20440.987440000012
 30
0.0
 40
15.0
 50
180.0
 51
0.0
  0
ARC
  5
3C7B
  8
0
  6
BYBLOCK
 62
     0
 10
24000.017854500002
 20
20440.987440000012
 30
0.0
 40
15.0
 50
180.0
 51
0.0
  0
ARC
  5
3C7C
  8
0
  6
BYBLOCK
 62
     0
 10
24000.017854500002
 20
20440.987440000012
 30
0.0
 40
15.0
 50
0.0
 51
180.0
  0
ARC
  5
3C7D
  8
0
  6
BYBLOCK
 62
     0
 10
22541.01686499998
 20
20440.987440000012
 30
0.0
 40
15.0
 50
0.0
 51
180.0
  0
ARC
  5
3C7E
  8
0
  6
BYBLOCK
 62
     0
 10
22541.01686499998
 20
20440.987440000012
 30
0.0
 40
15.0
 50
180.0
 51
0.0
  0
ARC
  5
3C7F
  8
0
  6
BYBLOCK
 62
     0
 10
23242.016864999991
 20
20440.987440000012
 30
0.0
 40
15.0
 50
180.0
 51
0.0
  0
ARC
  5
3C80
  8
0
  6
BYBLOCK
 62
     0
 10
23242.016864999991
 20
20440.987440000012
 30
0.0
 40
15.0
 50
0.0
 51
180.0
  0
ARC
  5
3C81
  8
0
  6
BYBLOCK
 62
     0
 10
21840.01686499998
 20
20440.987440000012
 30
0.0
 40
15.0
 50
0.0
 51
180.0
  0
ARC
  5
3C82
  8
0
  6
BYBLOCK
 62
     0
 10
21840.01686499998
 20
20440.987440000012
 30
0.0
 40
15.0
 50
180.0
 51
0.0
  0
ARC
  5
3C83
  8
0
  6
BYBLOCK
 62
     0
 10
22541.01686499998
 20
20440.987440000012
 30
0.0
 40
15.0
 50
180.0
 51
0.0
  0
ARC
  5
3C84
  8
0
  6
BYBLOCK
 62
     0
 10
22541.01686499998
 20
20440.987440000012
 30
0.0
 40
15.0
 50
0.0
 51
180.0
  0
ARC
  5
3C85
  8
0
  6
BYBLOCK
 62
     0
 10
24000.01686499998
 20
20440.987440000012
 30
0.0
 40
15.0
 50
180.0
 51
0.0
  0
ARC
  5
3C86
  8
0
  6
BYBLOCK
 62
     0
 10
24000.01686499998
 20
20440.987440000012
 30
0.0
 40
15.0
 50
0.0
 51
180.0
  0
ARC
  5
3C87
  8
0
  6
BYBLOCK
 62
     0
 10
24042.51316999998
 20
20440.987440000012
 30
0.0
 40
15.0
 50
0.0
 51
180.0
  0
ARC
  5
3C88
  8
0
  6
BYBLOCK
 62
     0
 10
24042.51316999998
 20
20440.987440000012
 30
0.0
 40
15.0
 50
180.0
 51
0.0
  0
ARC
  5
3C89
  8
0
  6
BYBLOCK
 62
     0
 10
21432.516864999969
 20
20440.987440000012
 30
0.0
 40
15.0
 50
0.0
 51
180.0
  0
ARC
  5
3C8A
  8
0
  6
BYBLOCK
 62
     0
 10
21432.516864999969
 20
20440.987440000012
 30
0.0
 40
15.0
 50
180.0
 51
0.0
  0
ARC
  5
3C8B
  8
0
  6
BYBLOCK
 62
     0
 10
21390.020559999972
 20
20440.987440000012
 30
0.0
 40
15.0
 50
180.0
 51
0.0
  0
ARC
  5
3C8C
  8
0
  6
BYBLOCK
 62
     0
 10
21390.020559999972
 20
20440.987440000012
 30
0.0
 40
15.0
 50
0.0
 51
180.0
  0
LINE
  5
3D95
  8
0-1
  6
CONTINUOUS
 62
     3
 10
21475.013169999991
 20
8325.6887430000024
 30
0.0
 11
23957.516600999981
 21
8325.6887430000024
 31
0.0
  0
LINE
  5
3D96
  8
0-1
  6
CONTINUOUS
 62
     3
 10
21347.016469999999
 20
8263.5026620000008
 30
0.0
 11
21347.016469999999
 21
8589.1883999999955
 31
0.0
  0
LINE
  5
3D97
  8
0-1
  6
CONTINUOUS
 62
     3
 10
24085.515281999978
 20
8459.188465999996
 30
0.0
 11
21347.016469999999
 21
8459.188465999996
 31
0.0
  0
LINE
  5
3D98
  8
0-1
  6
CONTINUOUS
 62
     3
 10
24085.515281999978
 20
8589.1883999999955
 30
0.0
 11
24085.515281999978
 21
8263.5026620000008
 31
0.0
  0
LINE
  5
3D99
  8
0-1
  6
CONTINUOUS
 62
     3
 10
21347.016469999999
 20
8589.1883999999955
 30
0.0
 11
24085.515281999978
 21
8589.1883999999955
 31
0.0
  0
LINE
  5
3D9A
  8
0-1
  6
CONTINUOUS
 62
     3
 10
24085.515281999978
 20
8263.5026620000008
 30
0.0
 11
24042.515149999988
 21
8263.5026620000008
 31
0.0
  0
LINE
  5
3D9B
  8
0-1
  6
CONTINUOUS
 62
     3
 10
21347.016469999999
 20
8263.5026620000008
 30
0.0
 11
21390.014621999999
 21
8263.5026620000008
 31
0.0
  0
LINE
  5
3D9C
  8
0-1
  6
CONTINUOUS
 62
     3
 10
21501.016125999999
 20
8334.6891200000046
 30
0.0
 11
21778.445656
 21
8334.6891200000046
 31
0.0
  0
LINE
  5
3D9D
  8
0-1
  6
CONTINUOUS
 62
     3
 10
21501.016125999999
 20
8376.6885650000004
 30
0.0
 11
21810.442594
 21
8376.6885650000004
 31
0.0
  0
LINE
  5
3D9E
  8
0-1
  6
CONTINUOUS
 62
     3
 10
21496.01586299999
 20
8339.6888890000009
 30
0.0
 11
21496.01586299999
 21
8371.6892910000024
 31
0.0
  0
LINE
  5
3D9F
  8
0-1
  6
CONTINUOUS
 62
     3
 10
21475.013169999991
 20
8385.6884470000005
 30
0.0
 11
23957.516600999981
 21
8385.6884470000005
 31
0.0
  0
LINE
  5
3DA0
  8
0-1
  6
CONTINUOUS
 62
     3
 10
21781.979095999999
 20
8336.1529739999987
 30
0.0
 11
21813.979993999979
 21
8368.153376000002
 31
0.0
  0
LINE
  5
3DA1
  8
0-1
  6
CONTINUOUS
 62
     3
 10
21496.01586299999
 20
8368.2889730000024
 30
0.0
 11
21814.108661999981
 21
8368.2889730000024
 31
0.0
  0
LINE
  5
3DA2
  8
0-1
  6
CONTINUOUS
 62
     3
 10
21496.01586299999
 20
8359.8888860000006
 30
0.0
 11
21805.715503999989
 21
8359.8888860000006
 31
0.0
  0
LINE
  5
3DA3
  8
0-1
  6
CONTINUOUS
 62
     3
 10
21496.01586299999
 20
8351.4892940000027
 30
0.0
 11
21797.316406000002
 21
8351.4892940000027
 31
0.0
  0
LINE
  5
3DA4
  8
0-1
  6
CONTINUOUS
 62
     3
 10
21496.01586299999
 20
8343.0892070000027
 30
0.0
 11
21788.913349999999
 21
8343.0892070000027
 31
0.0
  0
LINE
  5
3DA5
  8
0-1
  6
CONTINUOUS
 62
     3
 10
23936.515888999969
 20
8368.2889730000024
 30
0.0
 11
23618.423089
 21
8368.2889730000024
 31
0.0
  0
LINE
  5
3DA6
  8
0-1
  6
CONTINUOUS
 62
     3
 10
23936.515888999969
 20
8359.8888860000006
 30
0.0
 11
23626.818226999989
 21
8359.8888860000006
 31
0.0
  0
LINE
  5
3DA7
  8
0-1
  6
CONTINUOUS
 62
     3
 10
23936.515888999969
 20
8351.4892940000027
 30
0.0
 11
23635.217323999979
 21
8351.4892940000027
 31
0.0
  0
LINE
  5
3DA8
  8
0-1
  6
CONTINUOUS
 62
     3
 10
23936.515888999969
 20
8343.0892070000027
 30
0.0
 11
23643.616421999981
 21
8343.0892070000027
 31
0.0
  0
LINE
  5
3DA9
  8
0-1
  6
CONTINUOUS
 62
     3
 10
23931.515624999989
 20
8376.6885650000004
 30
0.0
 11
23622.089156999969
 21
8376.6885650000004
 31
0.0
  0
LINE
  5
3DAA
  8
0-1
  6
CONTINUOUS
 62
     3
 10
23931.515624999989
 20
8334.6891200000046
 30
0.0
 11
23654.086095999981
 21
8334.6891200000046
 31
0.0
  0
LINE
  5
3DAB
  8
0-1
  6
CONTINUOUS
 62
     3
 10
23936.515888999969
 20
8339.6888890000009
 30
0.0
 11
23936.515888999969
 21
8371.6892910000024
 31
0.0
  0
LINE
  5
3DAC
  8
0-1
  6
CONTINUOUS
 62
     3
 10
23650.550674999991
 20
8336.1529739999987
 30
0.0
 11
23618.553736999991
 21
8368.153376000002
 31
0.0
  0
ARC
  5
3DAD
  8
0-1
  6
CONTINUOUS
 62
     3
 10
21501.016125999999
 20
8371.6892910000024
 30
0.0
 40
5.0
 50
90.0
 51
180.0
  0
ARC
  5
3DAE
  8
0-1
  6
CONTINUOUS
 62
     3
 10
21501.016125999999
 20
8339.6888890000009
 30
0.0
 40
5.0
 50
180.0
 51
269.9999850001808
  0
ARC
  5
3DAF
  8
0-1
  6
CONTINUOUS
 62
     3
 10
21778.445656
 20
8339.6888890000009
 30
0.0
 40
5.0
 50
269.9999850001808
 51
314.99998500027471
  0
ARC
  5
3DB0
  8
0-1
  6
CONTINUOUS
 62
     3
 10
21810.442594
 20
8371.6892910000024
 30
0.0
 40
5.0
 50
314.99998500027471
 51
90.0
  0
ARC
  5
3DB1
  8
0-1
  6
CONTINUOUS
 62
     3
 10
23931.515624999989
 20
8339.6888890000009
 30
0.0
 40
5.0
 50
269.9999850001808
 51
0.0
  0
ARC
  5
3DB2
  8
0-1
  6
CONTINUOUS
 62
     3
 10
23931.515624999989
 20
8371.6892910000024
 30
0.0
 40
5.0
 50
0.0
 51
90.0
  0
ARC
  5
3DB3
  8
0-1
  6
CONTINUOUS
 62
     3
 10
23622.089156999969
 20
8371.6892910000024
 30
0.0
 40
5.0
 50
90.0
 51
224.99998499997989
  0
ARC
  5
3DB4
  8
0-1
  6
CONTINUOUS
 62
     3
 10
23654.086095999981
 20
8339.6888890000009
 30
0.0
 40
5.0
 50
224.99998499997989
 51
269.9999850001808
  0
LINE
  5
3DB5
  8
SUNPOU
  6
CONTINUOUS
 62
     4
 10
24042.517128999971
 20
8669.1883999999955
 30
0.0
 11
24042.517128999971
 21
9468.6882419999965
 31
0.0
  0
LINE
  5
3DB6
  8
SUNPOU
  6
CONTINUOUS
 62
     4
 10
24085.519239999961
 20
8669.1883999999955
 30
0.0
 11
24085.519239999961
 21
9468.6882419999965
 31
0.0
  0
LINE
  5
3DB7
  8
SUNPOU
  6
CONTINUOUS
 62
     4
 10
24042.517128999971
 20
9388.6882419999965
 30
0.0
 11
23802.517128999971
 21
9388.6882419999965
 31
0.0
  0
LINE
  5
3DB8
  8
SUNPOU
  6
CONTINUOUS
 62
     4
 10
24082.519239999961
 20
9388.6882419999965
 30
0.0
 11
24322.519239999961
 21
9388.6882419999965
 31
0.0
  0
LINE
  5
3DB9
  8
SUNPOU
  6
CONTINUOUS
 62
     4
 10
24042.517128999971
 20
9388.6882419999965
 30
0.0
 11
24082.519239999961
 21
9388.6882419999965
 31
0.0
  0
LINE
  5
3DBA
  8
SUNPOU
  6
CONTINUOUS
 62
     4
 10
21347.014490000009
 20
8669.1883999999955
 30
0.0
 11
21347.014490000009
 21
9868.6460119999992
 31
0.0
  0
LINE
  5
3DBB
  8
SUNPOU
  6
CONTINUOUS
 62
     4
 10
24085.519239999961
 20
8669.1883999999955
 30
0.0
 11
24085.519239999961
 21
9868.6460119999992
 31
0.0
  0
LINE
  5
3DBC
  8
SUNPOU
  6
CONTINUOUS
 62
     4
 10
21350.014490000009
 20
9788.6460119999992
 30
0.0
 11
24082.519239999961
 21
9788.6460119999992
 31
0.0
  0
LINE
  5
3DBD
  8
SUNPOU
  6
CONTINUOUS
 62
     4
 10
21390.016600999999
 20
8669.1883999999955
 30
0.0
 11
21390.016600999999
 21
9468.6882419999965
 31
0.0
  0
LINE
  5
3DBE
  8
SUNPOU
  6
CONTINUOUS
 62
     4
 10
24042.517128999971
 20
8669.1883999999955
 30
0.0
 11
24042.517128999971
 21
9468.6882419999965
 31
0.0
  0
LINE
  5
3DBF
  8
SUNPOU
  6
CONTINUOUS
 62
     4
 10
21390.016600999999
 20
9388.6882419999965
 30
0.0
 11
24042.517128999971
 21
9388.6882419999965
 31
0.0
  0
LINE
  5
3DC0
  8
SUNPOU
  6
CONTINUOUS
 62
     4
 10
21390.016600999999
 20
8669.1883999999955
 30
0.0
 11
21390.016600999999
 21
9468.6882419999965
 31
0.0
  0
LINE
  5
3DC1
  8
SUNPOU
  6
CONTINUOUS
 62
     4
 10
21347.014490000009
 20
8669.1883999999955
 30
0.0
 11
21347.014490000009
 21
9468.6882419999965
 31
0.0
  0
LINE
  5
3DC2
  8
SUNPOU
  6
CONTINUOUS
 62
     4
 10
21390.016600999999
 20
9388.6882419999965
 30
0.0
 11
21630.016600999999
 21
9388.6882419999965
 31
0.0
  0
LINE
  5
3DC3
  8
SUNPOU
  6
CONTINUOUS
 62
     4
 10
21350.014490000009
 20
9388.6882419999965
 30
0.0
 11
21110.014490000009
 21
9388.6882419999965
 31
0.0
  0
LINE
  5
3DC4
  8
SUNPOU
  6
CONTINUOUS
 62
     4
 10
21390.016600999999
 20
9388.6882419999965
 30
0.0
 11
21350.014490000009
 21
9388.6882419999965
 31
0.0
  0
TEXT
  5
3DC5
  8
0
  6
CONTINUOUS
 62
     7
 10
20990.014490000009
 20
9468.6882419999965
 30
0.0
 40
160.0
  1
43
  0
TEXT
  5
3DC6
  8
0
  6
CONTINUOUS
 62
     7
 10
22316.26686499998
 20
9468.6882419999965
 30
0.0
 40
160.0
  1
2652.5
  0
TEXT
  5
3DC7
  8
0
  6
CONTINUOUS
 62
     7
 10
22316.26686499998
 20
9868.6460119999992
 30
0.0
 40
160.0
  1
2738.5
  0
TEXT
  5
3DC8
  8
0
  6
CONTINUOUS
 62
     7
 10
24202.519239999961
 20
9468.6882419999965
 30
0.0
 40
160.0
  1
43
  0
ARC
  5
3DC9
  8
0
  6
BYBLOCK
 62
     0
 10
24042.517128999971
 20
9388.6882419999965
 30
0.0
 40
15.0
 50
180.0
 51
0.0
  0
ARC
  5
3DCA
  8
0
  6
BYBLOCK
 62
     0
 10
24042.517128999971
 20
9388.6882419999965
 30
0.0
 40
15.0
 50
0.0
 51
180.0
  0
ARC
  5
3DCB
  8
0
  6
BYBLOCK
 62
     0
 10
24085.519239999961
 20
9388.6882419999965
 30
0.0
 40
15.0
 50
0.0
 51
180.0
  0
ARC
  5
3DCC
  8
0
  6
BYBLOCK
 62
     0
 10
24085.519239999961
 20
9388.6882419999965
 30
0.0
 40
15.0
 50
180.0
 51
0.0
  0
ARC
  5
3DCD
  8
0
  6
BYBLOCK
 62
     0
 10
21347.014490000009
 20
9788.6460119999992
 30
0.0
 40
15.0
 50
0.0
 51
180.0
  0
ARC
  5
3DCE
  8
0
  6
BYBLOCK
 62
     0
 10
21347.014490000009
 20
9788.6460119999992
 30
0.0
 40
15.0
 50
180.0
 51
0.0
  0
ARC
  5
3DCF
  8
0
  6
BYBLOCK
 62
     0
 10
24085.519239999961
 20
9788.6460119999992
 30
0.0
 40
15.0
 50
180.0
 51
0.0
  0
ARC
  5
3DD0
  8
0
  6
BYBLOCK
 62
     0
 10
24085.519239999961
 20
9788.6460119999992
 30
0.0
 40
15.0
 50
0.0
 51
180.0
  0
ARC
  5
3DD1
  8
0
  6
BYBLOCK
 62
     0
 10
21390.016600999999
 20
9388.6882419999965
 30
0.0
 40
15.0
 50
0.0
 51
180.0
  0
ARC
  5
3DD2
  8
0
  6
BYBLOCK
 62
     0
 10
21390.016600999999
 20
9388.6882419999965
 30
0.0
 40
15.0
 50
180.0
 51
0.0
  0
ARC
  5
3DD3
  8
0
  6
BYBLOCK
 62
     0
 10
24042.517128999971
 20
9388.6882419999965
 30
0.0
 40
15.0
 50
180.0
 51
0.0
  0
ARC
  5
3DD4
  8
0
  6
BYBLOCK
 62
     0
 10
24042.517128999971
 20
9388.6882419999965
 30
0.0
 40
15.0
 50
0.0
 51
180.0
  0
ARC
  5
3DD5
  8
0
  6
BYBLOCK
 62
     0
 10
21390.016600999999
 20
9388.6882419999965
 30
0.0
 40
15.0
 50
0.0
 51
180.0
  0
ARC
  5
3DD6
  8
0
  6
BYBLOCK
 62
     0
 10
21390.016600999999
 20
9388.6882419999965
 30
0.0
 40
15.0
 50
180.0
 51
0.0
  0
ARC
  5
3DD7
  8
0
  6
BYBLOCK
 62
     0
 10
21347.014490000009
 20
9388.6882419999965
 30
0.0
 40
15.0
 50
180.0
 51
0.0
  0
ARC
  5
3DD8
  8
0
  6
BYBLOCK
 62
     0
 10
21347.014490000009
 20
9388.6882419999965
 30
0.0
 40
15.0
 50
0.0
 51
180.0
  0
LINE
  5
3DE9
  8
SUNPOU
  6
CONTINUOUS
 62
     4
 10
11729.62894549997
 20
13209.486978000001
 30
0.0
 11
11729.62894549997
 21
12030.538167999999
 31
0.0
  0
LINE
  5
3DEA
  8
SUNPOU
  6
CONTINUOUS
 62
     4
 10
14468.13072749998
 20
13209.486978000001
 30
0.0
 11
14468.13072749998
 21
12030.538167999999
 31
0.0
  0
LINE
  5
3DEB
  8
SUNPOU
  6
CONTINUOUS
 62
     4
 10
11732.62894549997
 20
12110.538167999999
 30
0.0
 11
14465.13072749998
 21
12110.538167999999
 31
0.0
  0
TEXT
  5
3DEC
  8
0
  6
CONTINUOUS
 62
     7
 10
12176.213169833311
 20
12190.538167999999
 30
0.0
 40
160.0
  1
ケラバ外寸 2738.5
  0
ARC
  5
3DED
  8
0
  6
BYBLOCK
 62
     0
 10
11729.62894549997
 20
12110.538167999999
 30
0.0
 40
15.0
 50
0.0
 51
180.0
  0
ARC
  5
3DEE
  8
0
  6
BYBLOCK
 62
     0
 10
11729.62894549997
 20
12110.538167999999
 30
0.0
 40
15.0
 50
180.0
 51
0.0
  0
ARC
  5
3DEF
  8
0
  6
BYBLOCK
 62
     0
 10
14468.13072749998
 20
12110.538167999999
 30
0.0
 40
15.0
 50
180.0
 51
0.0
  0
ARC
  5
3DF0
  8
0
  6
BYBLOCK
 62
     0
 10
14468.13072749998
 20
12110.538167999999
 30
0.0
 40
15.0
 50
0.0
 51
180.0
  0
TEXT
  5
3E8A
  8
NAME
 10
24189.8234220308
 20
1076.0
 30
0.0
 40
360.0
  1
H
 41
0.6700000000000002
  7
00
  0
TEXT
  5
3E8B
  8
NAME
 10
23813.99143745047
 20
1076.0
 30
0.0
 40
360.0
  1
（ ）
  7
01
  0
TEXT
  5
3E8C
  8
NAME
 10
24713.98442473351
 20
1076.0
 30
0.0
 40
360.0
  1
型（単棟）
  7
01
  0
TEXT
  5
3E8D
  8
NAME
 10
21686.3487663915
 20
1076.6369801169251
 30
0.0
 40
360.0
  1
VGCU-2662
 41
0.6700000000000002
  0
TEXT
  5
3E8F
  8
NAME
 10
21933.552716389011
 20
1876.0
 30
0.0
 40
360.0
  1
ヨドガレージ ラヴィージュ
 41
0.75
  7
01
  0
LINE
  5
3E90
  8
NAME
  6
CONTINUOUS
 10
26067.886878884299
 20
2236.0
 30
0.0
 11
26067.886878884299
 21
1876.0
 31
0.0
  0
LINE
  5
3E91
  8
NAME
  6
CONTINUOUS
 10
26167.886878884299
 20
2236.0
 30
0.0
 11
26167.886878884299
 21
1876.0
 31
0.0
  0
LINE
  5
3E92
  8
NAME
  6
CONTINUOUS
 10
26267.88687888431
 20
2236.0
 30
0.0
 11
26267.88687888431
 21
1876.0
 31
0.0
  0
LINE
  5
3E93
  8
NAME
  6
CONTINUOUS
 10
26007.886878884299
 20
2236.0
 30
0.0
 11
26327.886878884299
 21
2236.0
 31
0.0
  0
LINE
  5
3E94
  8
NAME
  6
CONTINUOUS
 10
26327.886878884299
 20
1876.0
 30
0.0
 11
26007.886878884299
 21
1876.0
 31
0.0
  0
TEXT
  5
3F2E
  8
FILENAME
  6
CONTINUOUS
 10
28546.857142857141
 20
348.0
 30
0.0
 40
200.0
  1
＜VGCU-2662-1-A_0.DXF ＞
  7
FILENAME
 72
     2
 11
32764.0
 21
348.0
 31
0.0
  0
LINE
  5
3F34
  8
WAKUSEN-01
 10
868.00000000000193
 20
827.99999999999955
 30
0.0
 11
32764.000000000011
 21
827.99999999999943
 31
0.0
  0
LINE
  5
3F35
  8
WAKUSEN-01
 10
868.00000000000193
 20
827.99999999999955
 30
0.0
 11
868.00000000000193
 21
22484.000000000011
 31
0.0
  0
LINE
  5
3F36
  8
WAKUSEN-01
 10
32764.000000000011
 20
827.99999999999943
 30
0.0
 11
32764.000000000011
 21
22484.000000000011
 31
0.0
  0
LINE
  5
3F37
  8
WAKUSEN-01
 10
20560.0
 20
827.99999999999716
 30
0.0
 11
20560.0
 21
2484.0
 31
0.0
  0
LINE
  5
3F38
  8
WAKUSEN-02
 10
26868.0
 20
827.99999999999261
 30
0.0
 11
26868.0
 21
2484.0
 31
0.0
  0
ENDSEC
  0
EOF
