  0
SECTION
  2
HEADER
  9
$ACADVER
  1
AC1009
  9
$INSBASE
 10
0.0
 20
0.0
 30
0.0
  9
$EXTMIN
 10
867.99324330406671
 20
327.38164749855792
 30
-0.0000000000000053
  9
$EXTMAX
 10
32765.33210850941
 20
22484.553276491992
 30
0.0000000000000099
  9
$LIMMIN
 10
0.0
 20
0.0
  9
$LIMMAX
 10
33600.0
 20
23760.0
  9
$ORTHOMODE
 70
     1
  9
$REGENMODE
 70
     1
  9
$FILLMODE
 70
     1
  9
$QTEXTMODE
 70
     0
  9
$MIRRTEXT
 70
     1
  9
$DRAGMODE
 70
     2
  9
$LTSCALE
 40
80.0
  9
$OSMODE
 70
  3071
  9
$ATTMODE
 70
     1
  9
$TEXTSIZE
 40
0.2
  9
$TRACEWID
 40
0.05
  9
$TEXTSTYLE
  7
00
  9
$CLAYER
  8
0
  9
$CELTYPE
  6
BYLAYER
  9
$CECOLOR
 62
   256
  9
$DIMSCALE
 40
80.0
  9
$DIMASZ
 40
3.0
  9
$DIMEXO
 40
1.0
  9
$DIMDLI
 40
0.38
  9
$DIMRND
 40
0.5
  9
$DIMDLE
 40
0.0
  9
$DIMEXE
 40
1.0
  9
$DIMTP
 40
0.0
  9
$DIMTM
 40
0.0
  9
$DIMTXT
 40
2.0
  9
$DIMCEN
 40
0.09
  9
$DIMTSZ
 40
0.0
  9
$DIMTOL
 70
     0
  9
$DIMLIM
 70
     0
  9
$DIMTIH
 70
     0
  9
$DIMTOH
 70
     0
  9
$DIMSE1
 70
     0
  9
$DIMSE2
 70
     0
  9
$DIMTAD
 70
     1
  9
$DIMZIN
 70
     8
  9
$DIMBLK
  1
DOTSMALL
  9
$DIMASO
 70
     1
  9
$DIMSHO
 70
     1
  9
$DIMPOST
  1

  9
$DIMAPOST
  1

  9
$DIMALT
 70
     0
  9
$DIMALTD
 70
     2
  9
$DIMALTF
 40
25.399999999999999
  9
$DIMLFAC
 40
1.0
  9
$DIMTOFL
 70
     1
  9
$DIMTVP
 40
0.0
  9
$DIMTIX
 70
     0
  9
$DIMSOXD
 70
     0
  9
$DIMSAH
 70
     0
  9
$DIMBLK1
  1

  9
$DIMBLK2
  1

  9
$DIMSTYLE
  2
SUNPOU
  9
$DIMCLRD
 70
     4
  9
$DIMCLRE
 70
     4
  9
$DIMCLRT
 70
     7
  9
$DIMTFAC
 40
1.0
  9
$DIMGAP
 40
1.0
  9
$LUNITS
 70
     2
  9
$LUPREC
 70
     4
  9
$SKETCHINC
 40
0.1
  9
$FILLETRAD
 40
0.0
  9
$AUNITS
 70
     0
  9
$AUPREC
 70
     0
  9
$MENU
  1
acad
  9
$ELEVATION
 40
0.0
  9
$PELEVATION
 40
0.0
  9
$THICKNESS
 40
0.0
  9
$LIMCHECK
 70
     0
  9
$BLIPMODE
 70
     1
  9
$CHAMFERA
 40
0.0
  9
$CHAMFERB
 40
0.0
  9
$SKPOLY
 70
     0
  9
$TDCREATE
 40
2454573.3412955678
  9
$TDUPDATE
 40
2458942.4446717128
  9
$TDINDWG
 40
0.0527083912
  9
$TDUSRTIMER
 40
0.0527080208
  9
$USRTIMER
 70
     1
  9
$ANGBASE
 50
0.0
  9
$ANGDIR
 70
     0
  9
$PDMODE
 70
     0
  9
$PDSIZE
 40
0.0
  9
$PLINEWID
 40
0.0
  9
$COORDS
 70
     1
  9
$SPLFRAME
 70
     0
  9
$SPLINETYPE
 70
     6
  9
$SPLINESEGS
 70
     8
  9
$ATTDIA
 70
     1
  9
$ATTREQ
 70
     1
  9
$HANDLING
 70
     1
  9
$HANDSEED
  5
4416
  9
$SURFTAB1
 70
     6
  9
$SURFTAB2
 70
     6
  9
$SURFTYPE
 70
     6
  9
$SURFU
 70
     6
  9
$SURFV
 70
     6
  9
$UCSNAME
  2

  9
$UCSORG
 10
0.0
 20
0.0
 30
0.0
  9
$UCSXDIR
 10
1.0
 20
0.0
 30
0.0
  9
$UCSYDIR
 10
0.0
 20
1.0
 30
0.0
  9
$PUCSNAME
  2

  9
$PUCSORG
 10
0.0
 20
0.0
 30
0.0
  9
$PUCSXDIR
 10
1.0
 20
0.0
 30
0.0
  9
$PUCSYDIR
 10
0.0
 20
1.0
 30
0.0
  9
$USERI1
 70
     0
  9
$USERI2
 70
     0
  9
$USERI3
 70
     0
  9
$USERI4
 70
     0
  9
$USERI5
 70
     0
  9
$USERR1
 40
0.0
  9
$USERR2
 40
0.0
  9
$USERR3
 40
0.0
  9
$USERR4
 40
0.0
  9
$USERR5
 40
0.0
  9
$WORLDVIEW
 70
     1
  9
$SHADEDGE
 70
     3
  9
$SHADEDIF
 70
    70
  9
$TILEMODE
 70
     1
  9
$MAXACTVP
 70
    16
  9
$PLIMCHECK
 70
     0
  9
$PEXTMIN
 10
1.0000000000000000E+020
 20
1.0000000000000000E+020
 30
1.0000000000000000E+020
  9
$PEXTMAX
 10
-1.0000000000000000E+020
 20
-1.0000000000000000E+020
 30
-1.0000000000000000E+020
  9
$PLIMMIN
 10
0.0
 20
0.0
  9
$PLIMMAX
 10
12.0
 20
9.0
  9
$UNITMODE
 70
     0
  9
$VISRETAIN
 70
     0
  9
$PLINEGEN
 70
     1
  9
$PSLTSCALE
 70
     0
  0
ENDSEC
  0
SECTION
  2
TABLES
  0
TABLE
  2
VPORT
 70
     1
  0
VPORT
  2
*ACTIVE
 70
     0
 10
0.0
 20
0.0
 11
1.0
 21
1.0
 12
16800.0
 22
11880.0
 13
0.0
 23
0.0
 14
1.0
 24
1.0
 15
0.0
 25
0.0
 16
0.0
 26
0.0
 36
1.0
 17
0.0
 27
0.0
 37
0.0
 40
23981.023255813951
 41
2.195652173913043
 42
50.0
 43
0.0
 44
0.0
 50
0.0
 51
0.0
 71
     0
 72
 10000
 73
     1
 74
     1
 75
     0
 76
     0
 77
     0
 78
     0
  0
ENDTAB
  0
TABLE
  2
LTYPE
 70
     3
  0
LTYPE
  2
CONTINUOUS
 70
     0
  3
Solid line
 72
    65
 73
     0
 40
0.0
  0
LTYPE
  2
DASHED3
 70
     0
  3
------  ------  ------  ------  
 72
    65
 73
     2
 40
5.0
 49
3.75
 49
-1.25
  0
LTYPE
  2
CENTER2
 70
     0
  3
----------  --  ----------  --  
 72
    65
 73
     4
 40
20.0
 49
12.5
 49
-2.5
 49
2.5
 49
-2.5
  0
ENDTAB
  0
TABLE
  2
LAYER
 70
    19
  0
LAYER
  2
0
 70
     0
 62
     7
  6
CONTINUOUS
  0
LAYER
  2
SUNPOU
 70
     0
 62
     4
  6
CONTINUOUS
  0
LAYER
  2
0-1
 70
     0
 62
     7
  6
CONTINUOUS
  0
LAYER
  2
0-2
 70
     0
 62
     7
  6
CONTINUOUS
  0
LAYER
  2
0-6
 70
     0
 62
     7
  6
CONTINUOUS
  0
LAYER
  2
0-0
 70
     0
 62
     7
  6
CONTINUOUS
  0
LAYER
  2
0-7
 70
     0
 62
     7
  6
CONTINUOUS
  0
LAYER
  2
1-4
 70
     0
 62
     7
  6
CONTINUOUS
  0
LAYER
  2
YODOROGO
 70
     0
 62
   130
  6
CONTINUOUS
  0
LAYER
  2
WAKUSEN-01
 70
     0
 62
    50
  6
CONTINUOUS
  0
LAYER
  2
WAKUSEN-02
 70
     0
 62
   130
  6
CONTINUOUS
  0
LAYER
  2
WAKUMOJI-01
 70
     0
 62
   130
  6
CONTINUOUS
  0
LAYER
  2
FILENAME
 70
     0
 62
     7
  6
CONTINUOUS
  0
LAYER
  2
NAME
 70
     0
 62
    20
  6
CONTINUOUS
  0
LAYER
  2
2-0
 70
     0
 62
     7
  6
CONTINUOUS
  0
LAYER
  2
0-4
 70
     0
 62
     7
  6
CONTINUOUS
  0
LAYER
  2
0-5
 70
     0
 62
     7
  6
CONTINUOUS
  0
ENDTAB
  0
TABLE
  2
STYLE
 70
     5
  0
STYLE
  2
STANDARD
 70
     0
 40
0.0
 41
1.0
 50
0.0
 71
     0
 42
0.0
  3
txt
  4
BIGFONT
  0
STYLE
  2
00
 70
     0
 40
0.0
 41
0.6666666666666666
 50
0.0
 71
     0
 42
0.2
  3
ROMANS
  4
BIGFONT
  0
STYLE
  2
01
 70
     0
 40
3.0
 41
1.0
 50
0.0
 71
     0
 42
0.2
  3
ROMANS
  4
BIGFONT
  0
STYLE
  2
WAKUMOJI
 70
     0
 40
3.0
 41
1.0
 50
0.0
 71
     0
 42
3.0
  3
SIMPLEX
  4
BIGFONT
  0
STYLE
  2
FILENAME
 70
     0
 40
200.0
 41
1.0
 50
0.0
 71
     0
 42
200.0
  3
romans
  4
bigfont
  0
ENDTAB
  0
TABLE
  2
VIEW
 70
     0
  0
ENDTAB
  0
TABLE
  2
UCS
 70
     0
  0
ENDTAB
  0
TABLE
  2
APPID
 70
    13
  0
APPID
  2
ACAD
 70
     0
  0
APPID
  2
ACADANNOTATIVE
 70
     0
  0
APPID
  2
ACAD_PSEXT
 70
     0
  0
APPID
  2
DCO15
 70
     0
  0
APPID
  2
ACAD_MLEADERVER
 70
     0
  0
APPID
  2
AUTOCAD_POSTSCRIPT_FIGURE
 70
     0
  0
APPID
  2
ACAD_EXEMPT_FROM_CAD_STANDARDS
 70
     0
  0
APPID
  2
ACAD_DSTYLE_DIMJAG
 70
     0
  0
APPID
  2
ACAD_DSTYLE_DIMTALN
 70
     0
  0
APPID
  2
ACAD_DSTYLE_DIM_LINETYPE
 70
     0
  0
APPID
  2
ACAD_DSTYLE_DIM_EXT1_LINETYPE
 70
     0
  0
APPID
  2
ACAD_DSTYLE_DIM_EXT2_LINETYPE
 70
     0
  0
APPID
  2
ACAD_NAV_VCDISPLAY
 70
     0
  0
ENDTAB
  0
TABLE
  2
DIMSTYLE
 70
     2
  0
DIMSTYLE
  2
SUNPOU
 70
     0
  3

  4

  5

  6

  7

 40
80.0
 41
3.0
 42
1.0
 43
0.38
 44
1.0
 45
0.5
 46
0.0
 47
0.0
 48
0.0
140
2.0
141
0.09
142
0.0
143
25.399999999999999
144
1.0
145
0.0
146
1.0
147
1.0
 71
     0
 72
     0
 73
     0
 74
     0
 75
     0
 76
     0
 77
     1
 78
     8
170
     0
171
     2
172
     1
173
     0
174
     0
175
     0
176
     4
177
     4
178
     7
  0
ENDTAB
  0
ENDSEC
  0
SECTION
  2
BLOCKS
  0
BLOCK
  8
0
  2
$MODEL_SPACE
 70
     0
 10
0.0
 20
0.0
 30
0.0
  3
$MODEL_SPACE
  1

  0
ENDBLK
  5
384E
  8
0
  0
BLOCK
 67
     1
  8
0
  2
$PAPER_SPACE
 70
     0
 10
0.0
 20
0.0
 30
0.0
  3
$PAPER_SPACE
  1

  0
ENDBLK
  5
384A
 67
     1
  8
0
  0
BLOCK
  8
0
  2
_DOTSMALL
 70
     0
 10
0.0
 20
0.0
 30
0.0
  3
_DOTSMALL
  1

  0
POLYLINE
  5
387F
  8
0
  6
BYBLOCK
 62
     0
 66
     1
 10
0.0
 20
0.0
 30
0.0
 70
     1
 40
0.5
 41
0.5
  0
VERTEX
  5
43DE
  8
0
  6
BYBLOCK
 62
     0
 10
-0.0625
 20
0.0
 30
0.0
 42
1.0
  0
VERTEX
  5
43DF
  8
0
  6
BYBLOCK
 62
     0
 10
0.0625
 20
0.0
 30
0.0
 42
1.0
  0
SEQEND
  5
43E0
  8
0
  6
BYBLOCK
 62
     0
  0
ENDBLK
  5
3883
  8
0
  0
ENDSEC
  0
SECTION
  2
ENTITIES
  0
LINE
  5
3884
  8
0-2
  6
CONTINUOUS
 62
     3
 10
9856.8633009999812
 20
13668.73057099998
 30
0.0
 11
9856.8633009999812
 21
19680.045156
 31
0.0
  0
LINE
  5
3885
  8
0-2
  6
CONTINUOUS
 62
     3
 10
9899.3640599999835
 20
13668.73057099998
 30
0.0
 11
9899.3640599999835
 21
19655.772299
 31
0.0
  0
LINE
  5
3886
  8
0-2
  6
CONTINUOUS
 62
     3
 10
9813.8651489999884
 20
13512.73064999999
 30
0.0
 11
9813.8651489999884
 21
20104.230253999991
 31
0.0
  0
LINE
  5
3887
  8
0-2
  6
CONTINUOUS
 62
     3
 10
9949.3631959999875
 20
13544.73055799999
 30
0.0
 11
9949.3631959999875
 21
20094.231177999991
 31
0.0
  0
LINE
  5
3888
  8
0-2
  6
CONTINUOUS
 62
     3
 10
9899.3640599999835
 20
15469.97201850001
 30
0.0
 11
14333.364059999971
 21
15469.97201850001
 31
0.0
  0
LINE
  5
3889
  8
0-2
  6
CONTINUOUS
 62
     3
 10
9899.3640599999835
 20
15559.971820500021
 30
0.0
 11
14333.364059999971
 21
15559.971820500021
 31
0.0
  0
LINE
  5
388A
  8
0-2
  6
CONTINUOUS
 62
     3
 10
9813.8651489999884
 20
13544.73055799999
 30
0.0
 11
14418.86544599998
 21
13544.73055799999
 31
0.0
  0
LINE
  5
388B
  8
0-2
  6
CONTINUOUS
 62
     3
 10
9813.8651489999884
 20
13512.73064999999
 30
0.0
 11
14418.86544599998
 21
13512.73064999999
 31
0.0
  0
LINE
  5
388C
  8
0-2
  6
CONTINUOUS
 62
     3
 10
9899.3640599999835
 20
13747.731177999991
 30
0.0
 11
14333.364059999971
 21
13747.731177999991
 31
0.0
  0
LINE
  5
388D
  8
0-2
  6
CONTINUOUS
 62
     3
 10
9856.8633009999812
 20
13668.73057099998
 30
0.0
 11
14375.86729299999
 21
13668.73057099998
 31
0.0
  0
LINE
  5
388E
  8
0-2
  6
CONTINUOUS
 62
     3
 10
12396.862343999979
 20
13705.230913999991
 30
0.0
 11
9969.3623109999862
 21
15514.971425500011
 31
0.0
  0
LINE
  5
388F
  8
0-2
  6
CONTINUOUS
 62
     3
 10
9969.3623109999862
 20
13705.230913999991
 30
0.0
 11
12396.862343999979
 21
15514.971425500011
 31
0.0
  0
LINE
  5
3890
  8
0-2
  6
CONTINUOUS
 62
     3
 10
12396.862343999979
 20
16973.730914
 30
0.0
 11
9969.3623109999862
 21
18432.730914
 31
0.0
  0
LINE
  5
3891
  8
0-2
  6
CONTINUOUS
 62
     3
 10
12396.862343999979
 20
16973.730914
 30
0.0
 11
9969.3623109999862
 21
15514.971425500011
 31
0.0
  0
LINE
  5
3892
  8
0-2
  6
CONTINUOUS
 62
     3
 10
12396.862343999979
 20
15514.971425500011
 30
0.0
 11
9969.3623109999862
 21
16973.730914
 31
0.0
  0
LINE
  5
3893
  8
0-2
  6
CONTINUOUS
 62
     3
 10
9899.3640599999835
 20
18387.730518
 30
0.0
 11
11810.113241999979
 21
18387.730518
 31
0.0
  0
LINE
  5
3894
  8
0-2
  6
CONTINUOUS
 62
     3
 10
9899.3640599999835
 20
16928.730518
 30
0.0
 11
14087.97303899999
 21
16928.730518
 31
0.0
  0
LINE
  5
3895
  8
0-2
  6
CONTINUOUS
 62
     3
 10
9899.3640599999835
 20
17007.731124999991
 30
0.0
 11
13923.613557999961
 21
17007.731124999991
 31
0.0
  0
LINE
  5
3896
  8
0-2
  6
CONTINUOUS
 62
     3
 10
9899.3640599999835
 20
18477.731309999981
 30
0.0
 11
11672.526802999981
 21
18477.731309999981
 31
0.0
  0
LINE
  5
3897
  8
0-2
  6
CONTINUOUS
 62
     3
 10
9890.3631889999833
 20
20094.231177999991
 30
0.0
 11
14342.364931
 21
20094.231177999991
 31
0.0
  0
LINE
  5
3898
  8
0-2
  6
CONTINUOUS
 62
     3
 10
9831.8639209999856
 20
19692.611140000001
 30
0.0
 11
9831.8639209999856
 21
20096.729857999992
 31
0.0
  0
LINE
  5
3899
  8
0-2
  6
CONTINUOUS
 62
     3
 10
9887.3631889999833
 20
20079.230913999989
 30
0.0
 11
9887.3631889999833
 21
20109.230518
 31
0.0
  0
LINE
  5
389A
  8
0-2
  6
CONTINUOUS
 62
     3
 10
9813.8651489999884
 20
20109.230518
 30
0.0
 11
9813.8651489999884
 21
20074.23064999999
 31
0.0
  0
LINE
  5
389B
  8
0-2
  6
CONTINUOUS
 62
     3
 10
9882.3629249999885
 20
20114.230781999991
 30
0.0
 11
9818.8624429999873
 21
20114.230781999991
 31
0.0
  0
LINE
  5
389C
  8
0-2
  6
CONTINUOUS
 62
     3
 10
9831.8639209999856
 20
20096.729857999992
 30
0.0
 11
9813.8651489999884
 21
20096.729857999992
 31
0.0
  0
LINE
  5
389D
  8
0-2
  6
CONTINUOUS
 62
     3
 10
9831.8639209999856
 20
20074.23064999999
 30
0.0
 11
9882.3629249999885
 21
20074.23064999999
 31
0.0
  0
LINE
  5
389E
  8
0-2
  6
CONTINUOUS
 62
     3
 10
14400.864693999991
 20
16771.655717999991
 30
0.0
 11
14400.864693999991
 21
20096.729857999992
 31
0.0
  0
LINE
  5
389F
  8
0-2
  6
CONTINUOUS
 62
     3
 10
14418.86544599998
 20
13512.73064999999
 30
0.0
 11
14418.86544599998
 21
20104.230253999991
 31
0.0
  0
LINE
  5
38A0
  8
0-2
  6
CONTINUOUS
 62
     3
 10
12536.862805999979
 20
16973.730914
 30
0.0
 11
14263.365313999981
 21
15514.971425500011
 31
0.0
  0
LINE
  5
38A1
  8
0-2
  6
CONTINUOUS
 62
     3
 10
12536.862805999979
 20
13705.230913999991
 30
0.0
 11
14263.365313999981
 21
15514.971425500011
 31
0.0
  0
LINE
  5
38A2
  8
0-2
  6
CONTINUOUS
 62
     3
 10
12466.86405999998
 20
13668.73057099998
 30
0.0
 11
12466.86405999998
 21
15469.97201850001
 31
0.0
  0
LINE
  5
38A3
  8
0-2
  6
CONTINUOUS
 62
     3
 10
12409.863821999979
 20
13747.731177999991
 30
0.0
 11
12409.863821999979
 21
15469.97201850001
 31
0.0
  0
LINE
  5
38A4
  8
0-2
  6
CONTINUOUS
 62
     3
 10
12523.86429699996
 20
13747.731177999991
 30
0.0
 11
12523.86429699996
 21
15469.97201850001
 31
0.0
  0
LINE
  5
38A5
  8
0-2
  6
CONTINUOUS
 62
     3
 10
12466.86405999998
 20
13747.731177999991
 30
0.0
 11
12466.86405999998
 21
15119.970369500021
 31
0.0
  0
LINE
  5
38A6
  8
0-2
  6
CONTINUOUS
 62
     3
 10
12523.86429699996
 20
17007.731124999991
 30
0.0
 11
12523.86429699996
 21
17744.992711999999
 31
0.0
  0
LINE
  5
38A7
  8
0-2
  6
CONTINUOUS
 62
     3
 10
12409.863821999979
 20
17007.731124999991
 30
0.0
 11
12409.863821999979
 21
18013.918228999992
 31
0.0
  0
LINE
  5
38A8
  8
0-2
  6
CONTINUOUS
 62
     3
 10
12466.86405999998
 20
17007.731124999991
 30
0.0
 11
12466.86405999998
 21
17879.455469999979
 31
0.0
  0
LINE
  5
38A9
  8
0-2
  6
CONTINUOUS
 62
     3
 10
12466.86405999998
 20
17007.731124999991
 30
0.0
 11
12466.86405999998
 21
17529.45679
 31
0.0
  0
LINE
  5
38AA
  8
0-2
  6
CONTINUOUS
 62
     3
 10
12523.86429699996
 20
15559.971820500021
 30
0.0
 11
12523.86429699996
 21
16928.730518
 31
0.0
  0
LINE
  5
38AB
  8
0-2
  6
CONTINUOUS
 62
     3
 10
12409.863821999979
 20
15559.971820500021
 30
0.0
 11
12409.863821999979
 21
16928.730518
 31
0.0
  0
LINE
  5
38AC
  8
0-2
  6
CONTINUOUS
 62
     3
 10
12466.86405999998
 20
15559.971820500021
 30
0.0
 11
12466.86405999998
 21
16928.730518
 31
0.0
  0
LINE
  5
38AD
  8
0-2
  6
CONTINUOUS
 62
     3
 10
12466.86405999998
 20
15559.971820500021
 30
0.0
 11
12466.86405999998
 21
15469.97201850001
 31
0.0
  0
LINE
  5
38AE
  8
0-2
  6
CONTINUOUS
 62
     3
 10
12466.86405999998
 20
17007.731124999991
 30
0.0
 11
12466.86405999998
 21
16928.730518
 31
0.0
  0
LINE
  5
38AF
  8
0-2
  6
CONTINUOUS
 62
     3
 10
14333.364059999971
 20
13668.73057099998
 30
0.0
 11
14333.364059999971
 21
16804.349447000001
 31
0.0
  0
LINE
  5
38B0
  8
0-2
  6
CONTINUOUS
 62
     3
 10
14375.86729299999
 20
13668.73057099998
 30
0.0
 11
14375.86729299999
 21
16782.806346000001
 31
0.0
  0
LINE
  5
38B1
  8
0-2
  6
CONTINUOUS
 62
     3
 10
14400.864693999991
 20
20096.729857999992
 30
0.0
 11
14418.86544599998
 21
20096.729857999992
 31
0.0
  0
LINE
  5
38B2
  8
0-2
  6
CONTINUOUS
 62
     3
 10
14418.86544599998
 20
20109.230518
 30
0.0
 11
14418.86544599998
 21
20074.23064999999
 31
0.0
  0
LINE
  5
38B3
  8
0-2
  6
CONTINUOUS
 62
     3
 10
14345.364931
 20
20079.230913999989
 30
0.0
 11
14345.364931
 21
20109.230518
 31
0.0
  0
LINE
  5
38B4
  8
0-2
  6
CONTINUOUS
 62
     3
 10
14400.864693999991
 20
20074.23064999999
 30
0.0
 11
14350.365194999989
 21
20074.23064999999
 31
0.0
  0
LINE
  5
38B5
  8
0-2
  6
CONTINUOUS
 62
     3
 10
14350.365194999989
 20
20114.230781999991
 30
0.0
 11
14413.865182
 21
20114.230781999991
 31
0.0
  0
LINE
  5
38B6
  8
0-2
  6
CONTINUOUS
 62
     3
 10
11919.361881999979
 20
18316.269896999991
 30
0.0
 11
11919.361881999979
 21
20094.231177999991
 31
0.0
  0
LINE
  5
38B7
  8
0-2
  6
CONTINUOUS
 62
     3
 10
11956.362053999979
 20
18292.066322999999
 30
0.0
 11
11956.362053999979
 21
20094.231177999991
 31
0.0
  0
LINE
  5
38B8
  8
0-2
  6
CONTINUOUS
 62
     3
 10
12119.363531999979
 20
18248.829678999991
 30
0.0
 11
12119.363531999979
 21
20094.231177999991
 31
0.0
  0
LINE
  5
38B9
  8
0-2
  6
CONTINUOUS
 62
     3
 10
12156.35974499998
 20
18292.208848999991
 30
0.0
 11
12156.35974499998
 21
20094.231177999991
 31
0.0
  0
LINE
  5
38BA
  8
0-2
  6
CONTINUOUS
 62
     3
 10
12319.364191999981
 20
18227.407328000001
 30
0.0
 11
12319.364191999981
 21
20094.231177999991
 31
0.0
  0
LINE
  5
38BB
  8
0-2
  6
CONTINUOUS
 62
     3
 10
12356.36337399998
 20
18140.124415999991
 30
0.0
 11
12356.36337399998
 21
20094.231177999991
 31
0.0
  0
LINE
  5
38BC
  8
0-2
  6
CONTINUOUS
 62
     3
 10
13556.364362999981
 20
17193.877133999991
 30
0.0
 11
13556.364362999981
 21
20094.231177999991
 31
0.0
  0
LINE
  5
38BD
  8
0-2
  6
CONTINUOUS
 62
     3
 10
13519.364191999961
 20
17212.631093
 30
0.0
 11
13519.364191999961
 21
20094.231177999991
 31
0.0
  0
LINE
  5
38BE
  8
0-2
  6
CONTINUOUS
 62
     3
 10
13356.359744999971
 20
17300.250313
 30
0.0
 11
13356.359744999971
 21
20094.231177999991
 31
0.0
  0
LINE
  5
38BF
  8
0-2
  6
CONTINUOUS
 62
     3
 10
13319.363531999979
 20
17319.006251999988
 30
0.0
 11
13319.363531999979
 21
20094.231177999991
 31
0.0
  0
LINE
  5
38C0
  8
0-2
  6
CONTINUOUS
 62
     3
 10
13156.362053999979
 20
17401.625419
 30
0.0
 11
13156.362053999979
 21
20094.231177999991
 31
0.0
  0
LINE
  5
38C1
  8
0-2
  6
CONTINUOUS
 62
     3
 10
13119.362871999971
 20
17420.379378000001
 30
0.0
 11
13119.362871999971
 21
20094.231177999991
 31
0.0
  0
LINE
  5
38C2
  8
0-2
  6
CONTINUOUS
 62
     3
 10
12956.36337399998
 20
17502.998544999991
 30
0.0
 11
12956.36337399998
 21
20094.231177999991
 31
0.0
  0
LINE
  5
38C3
  8
0-2
  6
CONTINUOUS
 62
     3
 10
12919.364191999981
 20
17521.752504
 30
0.0
 11
12919.364191999981
 21
20094.231177999991
 31
0.0
  0
LINE
  5
38C4
  8
0-2
  6
CONTINUOUS
 62
     3
 10
12756.35974499998
 20
17454.698291000001
 30
0.0
 11
12756.35974499998
 21
20094.231177999991
 31
0.0
  0
LINE
  5
38C5
  8
0-2
  6
CONTINUOUS
 62
     3
 10
12719.363531999959
 20
17411.319121
 30
0.0
 11
12719.363531999959
 21
20094.231177999991
 31
0.0
  0
LINE
  5
38C6
  8
0-2
  6
CONTINUOUS
 62
     3
 10
12556.362053999959
 20
17668.32595699999
 30
0.0
 11
12556.362053999959
 21
20094.231177999991
 31
0.0
  0
LINE
  5
38C7
  8
0-2
  6
CONTINUOUS
 62
     3
 10
12519.361881999979
 20
17755.608869999989
 30
0.0
 11
12519.361881999979
 21
20094.231177999991
 31
0.0
  0
LINE
  5
38C8
  8
0-2
  6
CONTINUOUS
 62
     3
 10
13756.362053999979
 20
17092.504008
 30
0.0
 11
13756.362053999979
 21
20094.231177999991
 31
0.0
  0
LINE
  5
38C9
  8
0-2
  6
CONTINUOUS
 62
     3
 10
13793.361235999981
 20
17073.750048999991
 30
0.0
 11
13793.361235999981
 21
20094.231177999991
 31
0.0
  0
LINE
  5
38CA
  8
0-2
  6
CONTINUOUS
 62
     3
 10
13956.360733999971
 20
16991.13088199999
 30
0.0
 11
13956.360733999971
 21
20094.231177999991
 31
0.0
  0
LINE
  5
38CB
  8
0-2
  6
CONTINUOUS
 62
     3
 10
13993.36288499998
 20
16972.374942999992
 30
0.0
 11
13993.36288499998
 21
20094.231177999991
 31
0.0
  0
LINE
  5
38CC
  8
0-2
  6
CONTINUOUS
 62
     3
 10
14164.864469
 20
16889.755776000002
 30
0.0
 11
14164.864469
 21
20094.231177999991
 31
0.0
  0
LINE
  5
38CD
  8
0-2
  6
CONTINUOUS
 62
     3
 10
14201.863651
 20
16871.001817
 30
0.0
 11
14201.863651
 21
20094.231177999991
 31
0.0
  0
LINE
  5
38CE
  8
0-2
  6
CONTINUOUS
 62
     3
 10
12084.65960199998
 20
18208.144632999989
 30
0.0
 11
9665.6670449999874
 21
19789.249256999999
 31
0.0
  0
LINE
  5
38CF
  8
0-2
  6
CONTINUOUS
 62
     3
 10
12084.65960199998
 20
18208.144632999989
 30
0.0
 11
12246.895995999979
 21
18398.352615
 31
0.0
  0
LINE
  5
38D0
  8
0-2
  6
CONTINUOUS
 62
     3
 10
12683.257112999971
 20
17368.987116
 30
0.0
 11
12246.895995999979
 21
18398.352615
 31
0.0
  0
LINE
  5
38D1
  8
0-2
  6
CONTINUOUS
 62
     3
 10
14567.061075
 20
16685.895055000001
 30
0.0
 11
12845.49152799998
 21
17559.195098
 31
0.0
  0
LINE
  5
38D2
  8
0-2
  6
CONTINUOUS
 62
     3
 10
12683.257112999971
 20
17368.987116
 30
0.0
 11
12845.49152799998
 21
17559.195098
 31
0.0
  0
LINE
  5
38D3
  8
0-2
  6
CONTINUOUS
 62
     3
 10
12536.862805999979
 20
16973.730914
 30
0.0
 11
13081.42242899998
 21
17439.610400999991
 31
0.0
  0
LINE
  5
38D4
  8
0-2
  6
CONTINUOUS
 62
     3
 10
12536.862805999979
 20
15514.971425500011
 30
0.0
 11
14263.365313999981
 21
13705.230913999991
 31
0.0
  0
LINE
  5
38D5
  8
0-2
  6
CONTINUOUS
 62
     3
 10
12536.862805999979
 20
15514.971425500011
 30
0.0
 11
14164.413138999989
 21
16889.985400000001
 31
0.0
  0
LINE
  5
38D6
  8
0-2
  6
CONTINUOUS
 62
     3
 10
11756.36337399998
 20
18422.890727000002
 30
0.0
 11
11756.36337399998
 21
20094.231177999991
 31
0.0
  0
LINE
  5
38D7
  8
0-2
  6
CONTINUOUS
 62
     3
 10
11719.364191999981
 20
18447.09430099999
 30
0.0
 11
11719.364191999981
 21
20094.231177999991
 31
0.0
  0
LINE
  5
38D8
  8
0-2
  6
CONTINUOUS
 62
     3
 10
11556.359744999971
 20
18553.71513
 30
0.0
 11
11556.359744999971
 21
20094.231177999991
 31
0.0
  0
LINE
  5
38D9
  8
0-2
  6
CONTINUOUS
 62
     3
 10
11519.362541999981
 20
18577.918704
 30
0.0
 11
11519.362541999981
 21
20094.231177999991
 31
0.0
  0
LINE
  5
38DA
  8
0-2
  6
CONTINUOUS
 62
     3
 10
11356.362053999979
 20
18689.539586999988
 30
0.0
 11
11356.362053999979
 21
20094.231177999991
 31
0.0
  0
LINE
  5
38DB
  8
0-2
  6
CONTINUOUS
 62
     3
 10
11319.361881999979
 20
18713.743160999999
 30
0.0
 11
11319.361881999979
 21
20094.231177999991
 31
0.0
  0
LINE
  5
38DC
  8
0-2
  6
CONTINUOUS
 62
     3
 10
10719.361881999979
 20
19106.216370999991
 30
0.0
 11
10719.361881999979
 21
20094.231177999991
 31
0.0
  0
LINE
  5
38DD
  8
0-2
  6
CONTINUOUS
 62
     3
 10
10756.361063999981
 20
19082.014777
 30
0.0
 11
10756.361063999981
 21
20094.231177999991
 31
0.0
  0
LINE
  5
38DE
  8
0-2
  6
CONTINUOUS
 62
     3
 10
10919.362541999981
 20
18975.391968
 30
0.0
 11
10919.362541999981
 21
20094.231177999991
 31
0.0
  0
LINE
  5
38DF
  8
0-2
  6
CONTINUOUS
 62
     3
 10
10956.362713999981
 20
18951.188394000001
 30
0.0
 11
10956.362713999981
 21
20094.231177999991
 31
0.0
  0
LINE
  5
38E0
  8
0-2
  6
CONTINUOUS
 62
     3
 10
11119.364191999981
 20
18844.567564000001
 30
0.0
 11
11119.364191999981
 21
20094.231177999991
 31
0.0
  0
LINE
  5
38E1
  8
0-2
  6
CONTINUOUS
 62
     3
 10
11156.36337399998
 20
18820.363989999991
 30
0.0
 11
11156.36337399998
 21
20094.231177999991
 31
0.0
  0
LINE
  5
38E2
  8
0-2
  6
CONTINUOUS
 62
     3
 10
10556.36337399997
 20
19212.839179999992
 30
0.0
 11
10556.36337399997
 21
20094.231177999991
 31
0.0
  0
LINE
  5
38E3
  8
0-2
  6
CONTINUOUS
 62
     3
 10
10519.363696999981
 20
19237.040775000001
 30
0.0
 11
10519.363696999981
 21
20094.231177999991
 31
0.0
  0
LINE
  5
38E4
  8
0-2
  6
CONTINUOUS
 62
     3
 10
10356.362218999981
 20
19343.663583999991
 30
0.0
 11
10356.362218999981
 21
20094.231177999991
 31
0.0
  0
LINE
  5
38E5
  8
0-2
  6
CONTINUOUS
 62
     3
 10
10319.362541999981
 20
19367.865178
 30
0.0
 11
10319.362541999981
 21
20094.231177999991
 31
0.0
  0
LINE
  5
38E6
  8
0-2
  6
CONTINUOUS
 62
     3
 10
10146.862772999981
 20
19474.487987
 30
0.0
 11
10146.862772999981
 21
20094.231177999991
 31
0.0
  0
LINE
  5
38E7
  8
0-2
  6
CONTINUOUS
 62
     3
 10
10109.86359099999
 20
19498.689581999992
 30
0.0
 11
10109.86359099999
 21
20094.231177999991
 31
0.0
  0
LINE
  5
38E8
  8
0-2
  6
CONTINUOUS
 62
     3
 10
9969.3623109999862
 20
18432.730914
 30
0.0
 11
10897.153333999981
 21
18989.91965399999
 31
0.0
  0
LINE
  5
38E9
  8
0-2
  6
CONTINUOUS
 62
     3
 10
9969.3623109999862
 20
16973.730914
 30
0.0
 11
12055.30532099998
 21
18227.343983999988
 31
0.0
  0
LINE
  5
38EA
  8
0-2
  6
CONTINUOUS
 62
     3
 10
12149.189927999971
 20
18283.79985399999
 30
0.0
 11
12265.745961999981
 21
18353.886688999992
 31
0.0
  0
LINE
  5
38EB
  8
0-2
  6
CONTINUOUS
 62
     3
 10
12466.86405999998
 20
13668.73057099998
 30
0.0
 11
12466.86405999998
 21
13512.73064999999
 31
0.0
  0
LINE
  5
38EC
  8
0-6
  6
CONTINUOUS
 62
     6
 10
14679.95499899998
 20
15904.951220999999
 30
0.0
 11
15559.951963999991
 21
15904.951220999999
 31
0.0
  0
LINE
  5
38ED
  8
0-6
  6
CONTINUOUS
 62
     6
 10
14617.630846
 20
17379.144025999991
 30
0.0
 11
16612.074997999978
 21
17379.144025999991
 31
0.0
  0
LINE
  5
38EE
  8
0-6
  6
CONTINUOUS
 62
     6
 10
14617.630846
 20
18838.144026000002
 30
0.0
 11
16612.074997999978
 21
18838.144026000002
 31
0.0
  0
LINE
  5
38EF
  8
0-6
  6
CONTINUOUS
 62
     6
 10
14617.630846
 20
15061.65870050002
 30
0.0
 11
16612.074997999978
 21
15061.65870050002
 31
0.0
  0
LINE
  5
38F0
  8
0-6
  6
CONTINUOUS
 62
     6
 10
13709.650363999979
 20
15411.9147185
 30
0.0
 11
14617.630846
 21
15061.65870050002
 31
0.0
  0
LINE
  5
38F1
  8
0-6
  6
CONTINUOUS
 62
     6
 10
14047.163284
 20
15702.708756
 30
0.0
 11
14679.95499899998
 21
15904.951220999999
 31
0.0
  0
LINE
  5
38F2
  8
0-6
  6
CONTINUOUS
 62
     6
 10
13712.08616199998
 20
17070.091898999988
 30
0.0
 11
14617.630846
 21
17379.144025999991
 31
0.0
  0
LINE
  5
38F3
  8
0-6
  6
CONTINUOUS
 62
     6
 10
13712.08616199998
 20
18529.091898999999
 30
0.0
 11
14617.630846
 21
18838.144026000002
 31
0.0
  0
LINE
  5
38F4
  8
0-6
  6
CONTINUOUS
 62
     6
 10
9768.9697069999893
 20
14008.742869500011
 30
0.0
 11
9210.4648699999834
 21
12222.730847999979
 31
0.0
  0
LINE
  5
38F5
  8
0-6
  6
CONTINUOUS
 62
     6
 10
8130.464275999987
 20
12222.730847999979
 30
0.0
 11
9210.4648699999834
 21
12222.730847999979
 31
0.0
  0
LINE
  5
38F6
  8
0-6
  6
CONTINUOUS
 62
     6
 10
10063.89125199999
 20
18923.50680599999
 30
0.0
 11
10593.387793999969
 21
18923.50680599999
 31
0.0
  0
LINE
  5
38F7
  8
0-6
  6
CONTINUOUS
 62
     6
 10
9964.8495039999871
 20
19144.298350000001
 30
0.0
 11
10063.89125199999
 21
18923.50680599999
 31
0.0
  0
LINE
  5
38F8
  8
0-6
  6
CONTINUOUS
 62
     6
 10
10184.769563999969
 20
20720.953227000002
 30
0.0
 11
10360.099549999981
 21
21065.672531
 31
0.0
  0
LINE
  5
38F9
  8
0-6
  6
CONTINUOUS
 62
     6
 10
9961.5852779999841
 20
20257.009497999999
 30
0.0
 11
10123.10558099998
 21
20592.769500999992
 31
0.0
  0
LINE
  5
38FA
  8
0-6
  6
CONTINUOUS
 62
     6
 10
10360.099549999981
 20
21065.672531
 30
0.0
 11
12012.94461299998
 21
21065.672531
 31
0.0
  0
LINE
  5
38FB
  8
0-6
  6
CONTINUOUS
 62
     6
 10
11699.65511499998
 20
12712.730979999989
 30
0.0
 11
12562.235285999959
 21
12712.730979999989
 31
0.0
  0
LINE
  5
38FC
  8
0-6
  6
CONTINUOUS
 62
     6
 10
11293.54401099998
 20
13376.262639
 30
0.0
 11
11699.65511499998
 21
12712.730979999989
 31
0.0
  0
LINE
  5
38FD
  8
0-6
  6
CONTINUOUS
 62
     6
 10
10803.343947999971
 20
14082.29980050001
 30
0.0
 11
11603.34262799998
 21
14082.29980050001
 31
0.0
  0
LINE
  5
38FE
  8
0-6
  6
CONTINUOUS
 62
     6
 10
10720.456555999979
 20
13899.620628999999
 30
0.0
 11
10803.343947999971
 21
14082.29980050001
 31
0.0
  0
LINE
  5
38FF
  8
0-6
  6
CONTINUOUS
 62
     6
 10
11381.21886899998
 20
16103.759221
 30
0.0
 11
12249.20312499998
 21
16103.759221
 31
0.0
  0
LINE
  5
3900
  8
0-6
  6
CONTINUOUS
 62
     6
 10
12409.863821999979
 20
15678.735796000001
 30
0.0
 11
12249.20312499998
 21
16103.759221
 31
0.0
  0
LINE
  5
3901
  8
0-6
  6
CONTINUOUS
 62
     6
 10
11778.731933999979
 20
20344.231046000001
 30
0.0
 11
12296.421571999979
 21
20344.231046000001
 31
0.0
  0
LINE
  5
3902
  8
0-6
  6
CONTINUOUS
 62
     6
 10
11634.826870999979
 20
19831.955391
 30
0.0
 11
11778.731933999979
 21
20344.231046000001
 31
0.0
  0
LINE
  5
3903
  8
0-6
  6
CONTINUOUS
 62
     6
 10
13719.32625099998
 20
15436.7636155
 30
0.0
 11
13560.55500399998
 21
15469.97201850001
 31
0.0
  0
LINE
  5
3904
  8
0-6
  6
CONTINUOUS
 62
     6
 10
13560.55500399998
 20
15469.97201850001
 30
0.0
 11
13699.975466999949
 21
15387.063842500011
 31
0.0
  0
LINE
  5
3905
  8
0-6
  6
CONTINUOUS
 62
     6
 10
13560.55500399998
 20
15469.97201850001
 30
0.0
 11
13719.32625099998
 21
15436.7636155
 31
0.0
  0
LINE
  5
3906
  8
0-6
  6
CONTINUOUS
 62
     6
 10
13719.32625099998
 20
15436.7636155
 30
0.0
 11
13699.975466999949
 21
15387.063842500011
 31
0.0
  0
LINE
  5
3907
  8
0-6
  6
CONTINUOUS
 62
     6
 10
13699.975466999949
 20
15387.063842500011
 30
0.0
 11
13560.55500399998
 21
15469.97201850001
 31
0.0
  0
LINE
  5
3908
  8
0-6
  6
CONTINUOUS
 62
     6
 10
13699.975466999949
 20
15387.063842500011
 30
0.0
 11
13719.32625099998
 21
15436.7636155
 31
0.0
  0
LINE
  5
3909
  8
0-6
  6
CONTINUOUS
 62
     6
 10
11316.287689999979
 20
13390.183604
 30
0.0
 11
11210.01822499998
 21
13512.73064999999
 31
0.0
  0
LINE
  5
390A
  8
0-6
  6
CONTINUOUS
 62
     6
 10
11210.01822499998
 20
13512.73064999999
 30
0.0
 11
11270.79736299998
 21
13362.341674999991
 31
0.0
  0
LINE
  5
390B
  8
0-6
  6
CONTINUOUS
 62
     6
 10
11210.01822499998
 20
13512.73064999999
 30
0.0
 11
11316.287689999979
 21
13390.183604
 31
0.0
  0
LINE
  5
390C
  8
0-6
  6
CONTINUOUS
 62
     6
 10
11316.287689999979
 20
13390.183604
 30
0.0
 11
11270.79736299998
 21
13362.341674999991
 31
0.0
  0
LINE
  5
390D
  8
0-6
  6
CONTINUOUS
 62
     6
 10
11270.79736299998
 20
13362.341674999991
 30
0.0
 11
11210.01822499998
 21
13512.73064999999
 31
0.0
  0
LINE
  5
390E
  8
0-6
  6
CONTINUOUS
 62
     6
 10
11270.79736299998
 20
13362.341674999991
 30
0.0
 11
11316.287689999979
 21
13390.183604
 31
0.0
  0
LINE
  5
390F
  8
0-6
  6
CONTINUOUS
 62
     6
 10
9794.414933999984
 20
13995.020556999991
 30
0.0
 11
9816.8651489999884
 21
14161.408291500011
 31
0.0
  0
LINE
  5
3910
  8
0-6
  6
CONTINUOUS
 62
     6
 10
9816.8651489999884
 20
14161.408291500011
 30
0.0
 11
9743.5239849999889
 21
14016.72626850001
 31
0.0
  0
LINE
  5
3911
  8
0-6
  6
CONTINUOUS
 62
     6
 10
9816.8651489999884
 20
14161.408291500011
 30
0.0
 11
9794.414933999984
 21
13995.020556999991
 31
0.0
  0
LINE
  5
3912
  8
0-6
  6
CONTINUOUS
 62
     6
 10
9794.414933999984
 20
13995.020556999991
 30
0.0
 11
9743.5239849999889
 21
14016.72626850001
 31
0.0
  0
LINE
  5
3913
  8
0-6
  6
CONTINUOUS
 62
     6
 10
9743.5239849999889
 20
14016.72626850001
 30
0.0
 11
9816.8651489999884
 21
14161.408291500011
 31
0.0
  0
LINE
  5
3914
  8
0-6
  6
CONTINUOUS
 62
     6
 10
9743.5239849999889
 20
14016.72626850001
 30
0.0
 11
9794.414933999984
 21
13995.020556999991
 31
0.0
  0
LINE
  5
3915
  8
0-6
  6
CONTINUOUS
 62
     6
 10
10696.307418999981
 20
13910.932588
 30
0.0
 11
10652.582822999981
 21
13754.72976599998
 31
0.0
  0
LINE
  5
3916
  8
0-6
  6
CONTINUOUS
 62
     6
 10
10652.582822999981
 20
13754.72976599998
 30
0.0
 11
10744.602723999969
 21
13888.307679999991
 31
0.0
  0
LINE
  5
3917
  8
0-6
  6
CONTINUOUS
 62
     6
 10
10652.582822999981
 20
13754.72976599998
 30
0.0
 11
10696.307418999981
 21
13910.932588
 31
0.0
  0
LINE
  5
3918
  8
0-6
  6
CONTINUOUS
 62
     6
 10
10696.307418999981
 20
13910.932588
 30
0.0
 11
10744.602723999969
 21
13888.307679999991
 31
0.0
  0
LINE
  5
3919
  8
0-6
  6
CONTINUOUS
 62
     6
 10
10744.602723999969
 20
13888.307679999991
 30
0.0
 11
10652.582822999981
 21
13754.72976599998
 31
0.0
  0
LINE
  5
391A
  8
0-6
  6
CONTINUOUS
 62
     6
 10
10744.602723999969
 20
13888.307679999991
 30
0.0
 11
10696.307418999981
 21
13910.932588
 31
0.0
  0
LINE
  5
391B
  8
0-6
  6
CONTINUOUS
 62
     6
 10
12377.520467999981
 20
15837.68619
 30
0.0
 11
12409.863821999979
 21
15678.735796000001
 31
0.0
  0
LINE
  5
391C
  8
0-6
  6
CONTINUOUS
 62
     6
 10
12409.863821999979
 20
15678.735796000001
 30
0.0
 11
12327.71775999998
 21
15818.60461999998
 31
0.0
  0
LINE
  5
391D
  8
0-6
  6
CONTINUOUS
 62
     6
 10
12409.863821999979
 20
15678.735796000001
 30
0.0
 11
12377.520467999981
 21
15837.68619
 31
0.0
  0
LINE
  5
391E
  8
0-6
  6
CONTINUOUS
 62
     6
 10
12377.520467999981
 20
15837.68619
 30
0.0
 11
12327.71775999998
 21
15818.60461999998
 31
0.0
  0
LINE
  5
391F
  8
0-6
  6
CONTINUOUS
 62
     6
 10
12327.71775999998
 20
15818.60461999998
 30
0.0
 11
12409.863821999979
 21
15678.735796000001
 31
0.0
  0
LINE
  5
3920
  8
0-6
  6
CONTINUOUS
 62
     6
 10
12327.71775999998
 20
15818.60461999998
 30
0.0
 11
12377.520467999981
 21
15837.68619
 31
0.0
  0
LINE
  5
3921
  8
0-6
  6
CONTINUOUS
 62
     6
 10
14191.449404000001
 20
15776.819952
 30
0.0
 11
14047.163284
 21
15702.708756
 31
0.0
  0
LINE
  5
3922
  8
0-6
  6
CONTINUOUS
 62
     6
 10
14047.163284
 20
15702.708756
 30
0.0
 11
14207.687394999981
 21
15726.01659799998
 31
0.0
  0
LINE
  5
3923
  8
0-6
  6
CONTINUOUS
 62
     6
 10
14047.163284
 20
15702.708756
 30
0.0
 11
14191.449404000001
 21
15776.819952
 31
0.0
  0
LINE
  5
3924
  8
0-6
  6
CONTINUOUS
 62
     6
 10
14191.449404000001
 20
15776.819952
 30
0.0
 11
14207.687394999981
 21
15726.01659799998
 31
0.0
  0
LINE
  5
3925
  8
0-6
  6
CONTINUOUS
 62
     6
 10
14207.687394999981
 20
15726.01659799998
 30
0.0
 11
14047.163284
 21
15702.708756
 31
0.0
  0
LINE
  5
3926
  8
0-6
  6
CONTINUOUS
 62
     6
 10
14207.687394999981
 20
15726.01659799998
 30
0.0
 11
14191.449404000001
 21
15776.819952
 31
0.0
  0
LINE
  5
3927
  8
0-6
  6
CONTINUOUS
 62
     6
 10
13703.527712999979
 20
17095.346597
 30
0.0
 11
13560.55500399998
 21
17018.729329999991
 31
0.0
  0
LINE
  5
3928
  8
0-6
  6
CONTINUOUS
 62
     6
 10
13560.55500399998
 20
17018.729329999991
 30
0.0
 11
13720.647579999961
 21
17044.837199999991
 31
0.0
  0
LINE
  5
3929
  8
0-6
  6
CONTINUOUS
 62
     6
 10
13560.55500399998
 20
17018.729329999991
 30
0.0
 11
13703.527712999979
 21
17095.346597
 31
0.0
  0
LINE
  5
392A
  8
0-6
  6
CONTINUOUS
 62
     6
 10
13703.527712999979
 20
17095.346597
 30
0.0
 11
13720.647579999961
 21
17044.837199999991
 31
0.0
  0
LINE
  5
392B
  8
0-6
  6
CONTINUOUS
 62
     6
 10
13720.647579999961
 20
17044.837199999991
 30
0.0
 11
13560.55500399998
 21
17018.729329999991
 31
0.0
  0
LINE
  5
392C
  8
0-6
  6
CONTINUOUS
 62
     6
 10
13720.647579999961
 20
17044.837199999991
 30
0.0
 11
13703.527712999979
 21
17095.346597
 31
0.0
  0
LINE
  5
392D
  8
0-6
  6
CONTINUOUS
 62
     6
 10
13703.527712999979
 20
18554.346597
 30
0.0
 11
13560.55500399998
 21
18477.731309999981
 31
0.0
  0
LINE
  5
392E
  8
0-6
  6
CONTINUOUS
 62
     6
 10
13560.55500399998
 20
18477.731309999981
 30
0.0
 11
13720.647579999961
 21
18503.837200999991
 31
0.0
  0
LINE
  5
392F
  8
0-6
  6
CONTINUOUS
 62
     6
 10
13560.55500399998
 20
18477.731309999981
 30
0.0
 11
13703.527712999979
 21
18554.346597
 31
0.0
  0
LINE
  5
3930
  8
0-6
  6
CONTINUOUS
 62
     6
 10
13703.527712999979
 20
18554.346597
 30
0.0
 11
13720.647579999961
 21
18503.837200999991
 31
0.0
  0
LINE
  5
3931
  8
0-6
  6
CONTINUOUS
 62
     6
 10
13720.647579999961
 20
18503.837200999991
 30
0.0
 11
13560.55500399998
 21
18477.731309999981
 31
0.0
  0
LINE
  5
3932
  8
0-6
  6
CONTINUOUS
 62
     6
 10
13720.647579999961
 20
18503.837200999991
 30
0.0
 11
13703.527712999979
 21
18554.346597
 31
0.0
  0
LINE
  5
3933
  8
0-6
  6
CONTINUOUS
 62
     6
 10
9989.1807569999855
 20
19155.213414999991
 30
0.0
 11
9899.3640599999835
 21
19290.283886000001
 31
0.0
  0
LINE
  5
3934
  8
0-6
  6
CONTINUOUS
 62
     6
 10
9899.3640599999835
 20
19290.283886000001
 30
0.0
 11
9940.5182509999886
 21
19133.383284
 31
0.0
  0
LINE
  5
3935
  8
0-6
  6
CONTINUOUS
 62
     6
 10
9899.3640599999835
 20
19290.283886000001
 30
0.0
 11
9989.1807569999855
 21
19155.213414999991
 31
0.0
  0
LINE
  5
3936
  8
0-6
  6
CONTINUOUS
 62
     6
 10
9989.1807569999855
 20
19155.213414999991
 30
0.0
 11
9940.5182509999886
 21
19133.383284
 31
0.0
  0
LINE
  5
3937
  8
0-6
  6
CONTINUOUS
 62
     6
 10
9940.5182509999886
 20
19133.383284
 30
0.0
 11
9899.3640599999835
 21
19290.283886000001
 31
0.0
  0
LINE
  5
3938
  8
0-6
  6
CONTINUOUS
 62
     6
 10
9940.5182509999886
 20
19133.383284
 30
0.0
 11
9989.1807569999855
 21
19155.213414999991
 31
0.0
  0
LINE
  5
3939
  8
0-6
  6
CONTINUOUS
 62
     6
 10
9937.2005779999836
 20
20267.805792999989
 30
0.0
 11
9896.8080069999887
 21
20110.707238999999
 31
0.0
  0
LINE
  5
393A
  8
0-6
  6
CONTINUOUS
 62
     6
 10
9896.8080069999887
 20
20110.707238999999
 30
0.0
 11
9985.9670079999887
 21
20246.213204
 31
0.0
  0
LINE
  5
393B
  8
0-6
  6
CONTINUOUS
 62
     6
 10
9896.8080069999887
 20
20110.707238999999
 30
0.0
 11
9937.2005779999836
 21
20267.805792999989
 31
0.0
  0
LINE
  5
393C
  8
0-6
  6
CONTINUOUS
 62
     6
 10
9937.2005779999836
 20
20267.805792999989
 30
0.0
 11
9985.9670079999887
 21
20246.213204
 31
0.0
  0
LINE
  5
393D
  8
0-6
  6
CONTINUOUS
 62
     6
 10
9985.9670079999887
 20
20246.213204
 30
0.0
 11
9896.8080069999887
 21
20110.707238999999
 31
0.0
  0
LINE
  5
393E
  8
0-6
  6
CONTINUOUS
 62
     6
 10
9985.9670079999887
 20
20246.213204
 30
0.0
 11
9937.2005779999836
 21
20267.805792999989
 31
0.0
  0
LINE
  5
393F
  8
0-6
  6
CONTINUOUS
 62
     6
 10
11608.94169699998
 20
19838.353194999981
 30
0.0
 11
11596.442026999979
 21
19676.628507000001
 31
0.0
  0
LINE
  5
3940
  8
0-6
  6
CONTINUOUS
 62
     6
 10
11596.442026999979
 20
19676.628507000001
 30
0.0
 11
11660.71501499998
 21
19825.557586999981
 31
0.0
  0
LINE
  5
3941
  8
0-6
  6
CONTINUOUS
 62
     6
 10
11596.442026999979
 20
19676.628507000001
 30
0.0
 11
11608.94169699998
 21
19838.353194999981
 31
0.0
  0
LINE
  5
3942
  8
0-6
  6
CONTINUOUS
 62
     6
 10
11608.94169699998
 20
19838.353194999981
 30
0.0
 11
11660.71501499998
 21
19825.557586999981
 31
0.0
  0
LINE
  5
3943
  8
0-6
  6
CONTINUOUS
 62
     6
 10
11660.71501499998
 20
19825.557586999981
 30
0.0
 11
11596.442026999979
 21
19676.628507000001
 31
0.0
  0
LINE
  5
3944
  8
0-6
  6
CONTINUOUS
 62
     6
 10
11660.71501499998
 20
19825.557586999981
 30
0.0
 11
11608.94169699998
 21
19838.353194999981
 31
0.0
  0
LINE
  5
3945
  8
0-0
  6
DASHED3
 62
     6
 10
12396.862343999979
 20
18432.730914
 30
0.0
 11
9969.3623109999862
 21
19891.730914
 31
0.0
  0
LINE
  5
3946
  8
0-0
  6
DASHED3
 62
     6
 10
9856.8633009999812
 20
19937.730967
 30
0.0
 11
14375.86729299999
 21
19937.730967
 31
0.0
  0
LINE
  5
3947
  8
0-0
  6
DASHED3
 62
     6
 10
9899.3640599999835
 20
19852.730438999992
 30
0.0
 11
14333.364059999971
 21
19852.730438999992
 31
0.0
  0
LINE
  5
3948
  8
0-0
  6
DASHED3
 62
     6
 10
9899.3640599999835
 20
19655.772299
 30
0.0
 11
9899.3640599999835
 21
19937.730967
 31
0.0
  0
LINE
  5
3949
  8
0-0
  6
DASHED3
 62
     6
 10
9856.8633009999812
 20
19680.045156
 30
0.0
 11
9856.8633009999812
 21
19937.730967
 31
0.0
  0
LINE
  5
394A
  8
0-0
  6
DASHED3
 62
     6
 10
14375.86729299999
 20
16782.806346000001
 30
0.0
 11
14375.86729299999
 21
19937.730967
 31
0.0
  0
LINE
  5
394B
  8
0-0
  6
DASHED3
 62
     6
 10
14333.364059999971
 20
16804.349447000001
 30
0.0
 11
14333.364059999971
 21
19937.730967
 31
0.0
  0
LINE
  5
394C
  8
0-0
  6
DASHED3
 62
     6
 10
11672.526802999981
 20
18477.731309999981
 30
0.0
 11
14333.364059999971
 21
18477.731309999981
 31
0.0
  0
LINE
  5
394D
  8
0-0
  6
DASHED3
 62
     6
 10
11810.113241999979
 20
18387.730518
 30
0.0
 11
14333.364059999971
 21
18387.730518
 31
0.0
  0
LINE
  5
394E
  8
0-0
  6
DASHED3
 62
     6
 10
13923.613557999961
 20
17007.731124999991
 30
0.0
 11
14333.364059999971
 21
17007.731124999991
 31
0.0
  0
LINE
  5
394F
  8
0-0
  6
DASHED3
 62
     6
 10
14087.97303899999
 20
16928.730518
 30
0.0
 11
14333.364059999971
 21
16928.730518
 31
0.0
  0
LINE
  5
3950
  8
0-0
  6
DASHED3
 62
     6
 10
12466.86405999998
 20
17879.455469999979
 30
0.0
 11
12466.86405999998
 21
18387.730518
 31
0.0
  0
LINE
  5
3951
  8
0-0
  6
DASHED3
 62
     6
 10
12523.86429699996
 20
18127.730650000001
 30
0.0
 11
12523.86429699996
 21
18387.730518
 31
0.0
  0
LINE
  5
3952
  8
0-0
  6
DASHED3
 62
     6
 10
12409.863821999979
 20
18127.730650000001
 30
0.0
 11
12409.863821999979
 21
18387.730518
 31
0.0
  0
LINE
  5
3953
  8
0-7
  6
CONTINUOUS
 62
     6
 10
12409.863821999979
 20
18013.918228999992
 30
0.0
 11
12409.863821999979
 21
18037.729857999999
 31
0.0
  0
LINE
  5
3954
  8
0-7
  6
CONTINUOUS
 62
     6
 10
12523.86429699996
 20
17744.992711999999
 30
0.0
 11
12523.86429699996
 21
18037.729857999999
 31
0.0
  0
LINE
  5
3955
  8
0-0
  6
DASHED3
 62
     6
 10
12466.86405999998
 20
18477.731309999981
 30
0.0
 11
12466.86405999998
 21
18387.730518
 31
0.0
  0
LINE
  5
3956
  8
0-0
  6
DASHED3
 62
     6
 10
12556.362053999959
 20
18432.730914
 30
0.0
 11
14263.365313999981
 21
19891.730914
 31
0.0
  0
LINE
  5
3957
  8
0-0
  6
DASHED3
 62
     6
 10
12536.862805999979
 20
19891.730914
 30
0.0
 11
14263.365313999981
 21
18432.730914
 31
0.0
  0
LINE
  5
3958
  8
0-0
  6
DASHED3
 62
     6
 10
12556.362053999959
 20
18432.730914
 30
0.0
 11
14263.365313999981
 21
16973.730914
 31
0.0
  0
LINE
  5
3959
  8
0-7
  6
CONTINUOUS
 62
     6
 10
13081.42242899998
 20
17439.610400999991
 30
0.0
 11
14263.365313999981
 21
18432.730914
 31
0.0
  0
LINE
  5
395A
  8
0-0
  6
DASHED3
 62
     6
 10
10897.153333999981
 20
18989.91965399999
 30
0.0
 11
12396.862343999979
 21
19891.730914
 31
0.0
  0
LINE
  5
395B
  8
0-0
  6
CENTER2
 62
     6
 10
8569.8642799999889
 20
13705.230913999991
 30
0.0
 11
10216.363175999981
 21
13705.230913999991
 31
0.0
  0
LINE
  5
395C
  8
0-0
  6
CENTER2
 62
     6
 10
8569.8642799999889
 20
16973.730914
 30
0.0
 11
10216.363175999981
 21
16973.730914
 31
0.0
  0
LINE
  5
395D
  8
0-0
  6
CENTER2
 62
     6
 10
8569.8642799999889
 20
19891.730914
 30
0.0
 11
10216.363175999981
 21
19891.730914
 31
0.0
  0
LINE
  5
395E
  8
0-0
  6
CENTER2
 62
     6
 10
9680.5663869999844
 20
18432.730914
 30
0.0
 11
14632.13279999999
 21
18432.730914
 31
0.0
  0
LINE
  5
395F
  8
0-0
  6
CENTER2
 62
     6
 10
9680.5663869999844
 20
15514.971425500011
 30
0.0
 11
14632.13279999999
 21
15514.971425500011
 31
0.0
  0
LINE
  5
3960
  8
0-0
  6
CENTER2
 62
     6
 10
9899.3640599999835
 20
21134.229199000009
 30
0.0
 11
9899.3640599999835
 21
20184.230518
 31
0.0
  0
LINE
  5
3961
  8
0-0
  6
CENTER2
 62
     6
 10
14007.86186899996
 20
13705.230913999991
 30
0.0
 11
14632.13279999999
 21
13705.230913999991
 31
0.0
  0
LINE
  5
3962
  8
0-0
  6
CENTER2
 62
     6
 10
14007.86186899996
 20
16973.730914
 30
0.0
 11
14632.13279999999
 21
16973.730914
 31
0.0
  0
LINE
  5
3963
  8
0-0
  6
CENTER2
 62
     6
 10
12466.86405999998
 20
21134.229199000009
 30
0.0
 11
12466.86405999998
 21
20184.230518
 31
0.0
  0
LINE
  5
3964
  8
0-0
  6
CENTER2
 62
     6
 10
14333.364059999971
 20
21134.229199000009
 30
0.0
 11
14333.364059999971
 21
20184.230518
 31
0.0
  0
LINE
  5
3965
  8
0-0
  6
DASHED3
 62
     6
 10
14164.413138999989
 20
16889.985400000001
 30
0.0
 11
14263.365313999981
 21
16973.730914
 31
0.0
  0
LINE
  5
3966
  8
0-0
  6
DASHED3
 62
     6
 10
12265.745961999981
 20
18353.886688999992
 30
0.0
 11
12396.862343999979
 21
18432.730914
 31
0.0
  0
LINE
  5
3967
  8
1-4
  6
CONTINUOUS
 62
     6
 10
12055.30532099998
 20
18227.343983999988
 30
0.0
 11
12149.189927999971
 21
18283.79985399999
 31
0.0
  0
LINE
  5
3968
  8
0-0
  6
DASHED3
 62
     6
 10
12409.863821999979
 20
18477.731309999981
 30
0.0
 11
12409.863821999979
 21
19852.730438999992
 31
0.0
  0
LINE
  5
3969
  8
0-0
  6
DASHED3
 62
     6
 10
12466.86405999998
 20
18477.731309999981
 30
0.0
 11
12466.86405999998
 21
19852.730438999992
 31
0.0
  0
LINE
  5
396A
  8
0-0
  6
DASHED3
 62
     6
 10
12523.86429699996
 20
18477.731309999981
 30
0.0
 11
12523.86429699996
 21
19852.730438999992
 31
0.0
  0
CIRCLE
  5
396B
  8
0-1
  6
CONTINUOUS
 62
     4
 10
8369.8660949999903
 20
13705.230913999991
 30
0.0
 40
199.9999949999999
  0
CIRCLE
  5
396C
  8
0-1
  6
CONTINUOUS
 62
     4
 10
8369.8660949999903
 20
16973.730914
 30
0.0
 40
199.9999949999999
  0
CIRCLE
  5
396D
  8
0-1
  6
CONTINUOUS
 62
     4
 10
8369.8660949999903
 20
19891.730914
 30
0.0
 40
199.9999949999999
  0
CIRCLE
  5
396E
  8
0-1
  6
CONTINUOUS
 62
     4
 10
9899.3640599999835
 20
21334.229859000021
 30
0.0
 40
199.9999949999999
  0
CIRCLE
  5
396F
  8
0-1
  6
CONTINUOUS
 62
     4
 10
12466.86405999998
 20
21334.229859000021
 30
0.0
 40
199.9999949999999
  0
CIRCLE
  5
3970
  8
0-1
  6
CONTINUOUS
 62
     4
 10
14333.364059999971
 20
21334.229859000021
 30
0.0
 40
199.9999949999999
  0
ARC
  5
3971
  8
0-2
  6
CONTINUOUS
 62
     3
 10
9882.3629249999885
 20
20079.230913999989
 30
0.0
 40
5.0
 50
269.9999850001808
 51
0.0
  0
ARC
  5
3972
  8
0-2
  6
CONTINUOUS
 62
     3
 10
9882.3629249999885
 20
20109.230518
 30
0.0
 40
5.0
 50
0.0
 51
90.0
  0
ARC
  5
3973
  8
0-2
  6
CONTINUOUS
 62
     3
 10
9818.8624429999873
 20
20109.230518
 30
0.0
 40
5.0
 50
90.0
 51
180.0
  0
ARC
  5
3974
  8
0-2
  6
CONTINUOUS
 62
     3
 10
14413.865182
 20
20109.230518
 30
0.0
 40
5.0
 50
0.0
 51
90.0
  0
ARC
  5
3975
  8
0-2
  6
CONTINUOUS
 62
     3
 10
14350.365194999989
 20
20109.230518
 30
0.0
 40
5.0
 50
90.0
 51
180.0
  0
ARC
  5
3976
  8
0-2
  6
CONTINUOUS
 62
     3
 10
14350.365194999989
 20
20079.230913999989
 30
0.0
 40
5.0
 50
180.0
 51
269.9999850001808
  0
TEXT
  5
3977
  8
0-1
  6
CONTINUOUS
 62
     7
 10
8315.6267909999897
 20
13619.23765799998
 30
0.0
 40
160.0
  1
A
 72
     4
 11
8368.9601243333218
 21
13699.23765799998
 31
0.0
  0
TEXT
  5
3978
  8
0-1
  6
CONTINUOUS
 62
     7
 10
8315.6267909999897
 20
16887.73666699999
 30
0.0
 40
160.0
  1
B
 72
     4
 11
8368.9601243333218
 21
16967.73666699999
 31
0.0
  0
TEXT
  5
3979
  8
0-1
  6
CONTINUOUS
 62
     7
 10
8315.6267909999897
 20
19805.73666799999
 30
0.0
 40
160.0
  1
C
 72
     4
 11
8368.9601243333218
 21
19885.73666799999
 31
0.0
  0
TEXT
  5
397A
  8
0-1
  6
CONTINUOUS
 62
     7
 10
9848.8368479999826
 20
21238.35781500001
 30
0.0
 40
160.0
  1
1
 72
     4
 11
9875.5035146666487
 21
21318.35781500001
 31
0.0
  0
TEXT
  5
397B
  8
0-1
  6
CONTINUOUS
 62
     7
 10
12416.336847999961
 20
21238.35781500001
 30
0.0
 40
160.0
  1
2
 72
     4
 11
12469.6701813333
 21
21318.35781500001
 31
0.0
  0
TEXT
  5
397C
  8
0-1
  6
CONTINUOUS
 62
     7
 10
14282.839817999989
 20
21238.35781500001
 30
0.0
 40
160.0
  1
3
 72
     4
 11
14336.173151333331
 21
21318.35781500001
 31
0.0
  0
TEXT
  5
397D
  8
0-6
  6
CONTINUOUS
 62
     7
 10
14759.951303999989
 20
15984.95148499999
 30
0.0
 40
160.0
  1
ブレース
 72
     4
 11
15122.617970666661
 21
16070.28481833333
 31
0.0
  0
TEXT
  5
397E
  8
0-6
  6
CONTINUOUS
 62
     7
 10
8210.4660249999852
 20
12302.730122000001
 30
0.0
 40
160.0
  1
ケラバ 左
 72
     4
 11
8626.4660249999888
 21
12382.730122000001
 31
0.0
  0
TEXT
  5
397F
  8
0-6
  6
CONTINUOUS
 62
     7
 10
10153.388321999981
 20
19003.50707
 30
0.0
 40
160.0
  1
上枠
 72
     4
 11
10324.05498866665
 21
19083.50707
 31
0.0
  0
TEXT
  5
3980
  8
0-6
  6
CONTINUOUS
 62
     7
 10
11779.65636899998
 20
12792.731244000001
 30
0.0
 40
160.0
  1
鼻隠し前
 72
     4
 11
12142.32303566665
 21
12872.731244000001
 31
0.0
  0
TEXT
  5
3981
  8
0-6
  6
CONTINUOUS
 62
     7
 10
10883.34322199998
 20
14162.30006450001
 30
0.0
 40
160.0
  1
桁（前）
 72
     4
 11
11203.34322199998
 21
14242.30006450001
 31
0.0
  0
TEXT
  5
3982
  8
0-6
  6
CONTINUOUS
 62
     7
 10
11569.333508999969
 20
16186.13193799999
 30
0.0
 40
160.0
  1
+
 72
     4
 11
11622.66684233331
 21
16266.13193799999
 31
0.0
  0
TEXT
  5
3983
  8
0-6
  6
CONTINUOUS
 62
     7
 10
11394.79440699997
 20
16183.75948499999
 30
0.0
 40
160.0
  1
梁　梁補強
 72
     4
 11
11853.46107366664
 21
16263.75948499999
 31
0.0
  0
TEXT
  5
3984
  8
0-6
  6
CONTINUOUS
 62
     7
 10
11858.731207999979
 20
20424.231309999999
 30
0.0
 40
160.0
  1
屋根
 72
     4
 11
12029.397874666651
 21
20504.231309999999
 31
0.0
  0
TEXT
  5
3985
  8
0-6
  6
CONTINUOUS
 62
     7
 10
10440.10129899998
 20
21145.670816000002
 30
0.0
 40
160.0
  1
鼻隠しコーナー後
 72
     4
 11
11186.76796566665
 21
21225.670816000002
 31
0.0
  0
TEXT
  5
3986
  8
0-0
  6
CONTINUOUS
 62
     7
 10
10906.05621799998
 20
11447.90618911071
 30
0.0
 40
160.0
  1
小 屋 伏 図
 50
359.99980699999981
 72
     4
 11
11407.389820809311
 21
11527.90450037622
 31
0.0
  0
TEXT
  5
3987
  8
0-0
  6
CONTINUOUS
 62
     7
 10
14705.49870699999
 20
18986.966213
 30
0.0
 40
160.0
  1
桁中B +  桁中補強B
 50
359.99992099999997
 72
     4
 11
15638.83215063725
 21
19066.96492611049
 31
0.0
  0
TEXT
  5
3988
  8
0-0
  6
CONTINUOUS
 62
     7
 10
14705.498706999981
 20
17527.954334999991
 30
0.0
 40
160.0
  1
桁中A +  桁中補強A
 72
     4
 11
15638.83204033332
 21
17607.954334999991
 31
0.0
  0
TEXT
  5
3989
  8
0-0
  6
CONTINUOUS
 62
     7
 10
14705.498706999981
 20
15210.47296950001
 30
0.0
 40
160.0
  1
桁中B +  桁中補強B
 72
     4
 11
15638.83204033332
 21
15290.47296950001
 31
0.0
  0
TEXT
  5
3991
  8
2-0
  6
CONTINUOUS
 62
     7
 10
12758.882005946931
 20
11475.09986937623
 30
0.0
 40
160.0
  1
1
 72
     4
 11
12785.548672613601
 21
11555.09986937623
 31
0.0
  0
TEXT
  5
3992
  8
2-0
  6
CONTINUOUS
 62
     7
 10
13001.97072319763
 20
11395.101337376231
 30
0.0
 40
160.0
  1
80
 72
     4
 11
13121.97072319763
 21
11475.101337376231
 31
0.0
  0
TEXT
  5
3993
  8
2-0
  6
CONTINUOUS
 62
     7
 10
12259.883971946931
 20
11447.90450037622
 30
0.0
 40
160.0
  1
(S=  /   )
 72
     4
 11
12819.883971946931
 21
11527.90450037622
 31
0.0
  0
TEXT
  5
3994
  8
0-6
  6
CONTINUOUS
 62
     7
 10
10156.834804921969
 20
20424.229329999998
 30
0.0
 40
160.0
  1
桁後+桁後補強
 72
     4
 11
10791.501471588639
 21
20504.229329999998
 31
0.0
  0
LINE
  5
3995
  8
0-6
  6
CONTINUOUS
 62
     6
 10
11600.550212777151
 20
19937.730967
 30
0.0
 11
11467.156264895901
 21
20344.231046000001
 31
0.0
  0
LINE
  5
3996
  8
0-6
  6
CONTINUOUS
 62
     6
 10
10107.91562032669
 20
20344.231046000001
 30
0.0
 11
11467.156264895901
 21
20344.231046000001
 31
0.0
  0
LINE
  5
3997
  8
0-6
  6
CONTINUOUS
 62
     6
 10
11576.942757409861
 20
20098.21240542494
 30
0.0
 11
11526.16911363691
 21
20081.878889240161
 31
0.0
  0
LINE
  5
3998
  8
0-6
  6
CONTINUOUS
 62
     6
 10
11576.942757409861
 20
20098.21240542494
 30
0.0
 11
11600.550212777151
 21
19937.730967
 31
0.0
  0
LINE
  5
3999
  8
0-6
  6
CONTINUOUS
 62
     6
 10
11526.16911363691
 20
20081.878889240161
 30
0.0
 11
11576.942757409861
 21
20098.21240542494
 31
0.0
  0
LINE
  5
399A
  8
0-6
  6
CONTINUOUS
 62
     6
 10
11600.550212777151
 20
19937.730967
 30
0.0
 11
11526.16911363691
 21
20081.878889240161
 31
0.0
  0
LINE
  5
399B
  8
0-6
  6
CONTINUOUS
 62
     6
 10
11600.550212777151
 20
19937.730967
 30
0.0
 11
11576.942757409861
 21
20098.21240542494
 31
0.0
  0
LINE
  5
399C
  8
0-6
  6
CONTINUOUS
 62
     6
 10
11526.16911363691
 20
20081.878889240161
 30
0.0
 11
11600.550212777151
 21
19937.730967
 31
0.0
  0
LINE
  5
399D
  8
0-4
  6
CONTINUOUS
 62
     4
 10
17611.93860899999
 20
6384.4362370000017
 30
0.0
 11
17731.940983999979
 21
6176.5902500000011
 31
0.0
  0
LINE
  5
399E
  8
0-4
  6
CONTINUOUS
 62
     4
 10
15426.53135600001
 20
6176.5902500000002
 30
0.0
 11
20064.820470999992
 21
6176.5902500000011
 31
0.0
  0
LINE
  5
399F
  8
0-4
  6
CONTINUOUS
 62
     4
 10
17731.940983999979
 20
6176.5902500000011
 30
0.0
 11
17851.939400999989
 21
6384.4362370000017
 31
0.0
  0
LINE
  5
39A0
  8
0-4
  6
CONTINUOUS
 62
     4
 10
17851.939400999989
 20
6384.4362370000017
 30
0.0
 11
17611.93860899999
 21
6384.4362370000017
 31
0.0
  0
TEXT
  5
39A1
  8
0-4
  6
CONTINUOUS
 62
     7
 10
17611.93860899999
 20
6464.4365009999983
 30
0.0
 40
160.0
  1
G.L
 72
     4
 11
17771.93860899999
 21
6544.4365009999992
 31
0.0
  0
TEXT
  5
39A2
  8
2-0
  6
CONTINUOUS
 62
     7
 10
21681.395296999988
 20
11453.23951899999
 30
0.0
 40
160.0
  1
平　面　図
 50
359.99978700000008
 72
     4
 11
22134.72890790736
 21
11527.90450037622
 31
0.0
  0
TEXT
  5
39A3
  8
2-0
  6
CONTINUOUS
 62
     7
 10
23486.22109304498
 20
11475.09986937623
 30
0.0
 40
160.0
  1
1
 72
     4
 11
23512.887759711652
 21
11555.09986937623
 31
0.0
  0
TEXT
  5
39A4
  8
2-0
  6
CONTINUOUS
 62
     7
 10
23729.309810295679
 20
11395.101337376231
 30
0.0
 40
160.0
  1
80
 72
     4
 11
23849.309810295679
 21
11475.101337376231
 31
0.0
  0
TEXT
  5
39A5
  8
2-0
  6
CONTINUOUS
 62
     7
 10
22987.223059044991
 20
11447.90450037622
 30
0.0
 40
160.0
  1
(S=  /   )
 72
     4
 11
23547.223059044991
 21
11527.90450037622
 31
0.0
  0
LINE
  5
39A6
  8
0-1
  6
CONTINUOUS
 62
     3
 10
9509.0335860000068
 20
6326.5902500000011
 30
0.0
 11
9509.0335860000068
 21
8187.6361290000032
 31
0.0
  0
LINE
  5
39A7
  8
0-1
  6
CONTINUOUS
 62
     3
 10
9529.0346419999969
 20
6326.5902500000011
 30
0.0
 11
9529.0346419999969
 21
8187.6361290000032
 31
0.0
  0
LINE
  5
39A8
  8
0-1
  6
CONTINUOUS
 62
     3
 10
9459.0339160000131
 20
6326.5902500000011
 30
0.0
 11
9459.0339160000131
 21
8187.6361290000032
 31
0.0
  0
LINE
  5
39A9
  8
0-1
  6
CONTINUOUS
 62
     3
 10
9579.0333220000066
 20
6326.5902500000011
 30
0.0
 11
9579.0333220000066
 21
8187.6361290000032
 31
0.0
  0
LINE
  5
39AA
  8
0-1
  6
CONTINUOUS
 62
     3
 10
9712.0342059999984
 20
6326.5902500000011
 30
0.0
 11
9712.0342059999984
 21
8187.6361290000032
 31
0.0
  0
LINE
  5
39AB
  8
0-1
  6
CONTINUOUS
 62
     3
 10
9727.0340080000115
 20
6326.5902500000011
 30
0.0
 11
9727.0340080000115
 21
8187.6361290000032
 31
0.0
  0
LINE
  5
39AC
  8
0-1
  6
CONTINUOUS
 62
     3
 10
9326.0340210000086
 20
6326.5902500000011
 30
0.0
 11
9326.0340210000086
 21
8187.6361290000032
 31
0.0
  0
LINE
  5
39AD
  8
0-1
  6
CONTINUOUS
 62
     3
 10
9311.0342190000083
 20
6326.5902500000011
 30
0.0
 11
9311.0342190000083
 21
8187.6361290000032
 31
0.0
  0
LINE
  5
39AE
  8
0-1
  6
CONTINUOUS
 62
     3
 10
10587.533705000011
 20
8187.6361290000032
 30
0.0
 11
10587.533705000011
 21
6326.5902500000011
 31
0.0
  0
LINE
  5
39AF
  8
0-1
  6
CONTINUOUS
 62
     3
 10
10550.535513000001
 20
8187.6361290000032
 30
0.0
 11
10550.535513000001
 21
6326.5902500000011
 31
0.0
  0
LINE
  5
39B0
  8
0-1
  6
CONTINUOUS
 62
     3
 10
9887.5343640000083
 20
8187.6361290000032
 30
0.0
 11
9887.5343640000083
 21
6326.5902500000011
 31
0.0
  0
LINE
  5
39B1
  8
0-1
  6
CONTINUOUS
 62
     3
 10
9850.534192999994
 20
8187.6361290000032
 30
0.0
 11
9850.534192999994
 21
6326.5902500000011
 31
0.0
  0
LINE
  5
39B2
  8
0-1
  6
CONTINUOUS
 62
     3
 10
11287.53304499998
 20
8187.6361290000032
 30
0.0
 11
11287.53304499998
 21
6326.5902500000011
 31
0.0
  0
LINE
  5
39B3
  8
0-1
  6
CONTINUOUS
 62
     3
 10
11250.534852999999
 20
8187.6361290000032
 30
0.0
 11
11250.534852999999
 21
6326.5902500000011
 31
0.0
  0
LINE
  5
39B4
  8
0-1
  6
CONTINUOUS
 62
     3
 10
10909.033255999981
 20
6326.5902500000011
 30
0.0
 11
10909.033255999981
 21
8187.6361290000032
 31
0.0
  0
LINE
  5
39B5
  8
0-1
  6
CONTINUOUS
 62
     3
 10
10929.034312
 20
6326.5902500000011
 30
0.0
 11
10929.034312
 21
8187.6361290000032
 31
0.0
  0
LINE
  5
39B6
  8
0-1
  6
CONTINUOUS
 62
     3
 10
10859.034575999989
 20
6326.5902500000011
 30
0.0
 11
10859.034575999989
 21
8187.6361290000032
 31
0.0
  0
LINE
  5
39B7
  8
0-1
  6
CONTINUOUS
 62
     3
 10
10979.03398200001
 20
6326.5902500000011
 30
0.0
 11
10979.03398200001
 21
8187.6361290000032
 31
0.0
  0
LINE
  5
39B8
  8
0-1
  6
CONTINUOUS
 62
     3
 10
11112.03387599999
 20
6326.5902500000011
 30
0.0
 11
11112.03387599999
 21
8187.6361290000032
 31
0.0
  0
LINE
  5
39B9
  8
0-1
  6
CONTINUOUS
 62
     3
 10
11127.033678
 20
6326.5902500000011
 30
0.0
 11
11127.033678
 21
8187.6361290000032
 31
0.0
  0
LINE
  5
39BA
  8
0-1
  6
CONTINUOUS
 62
     3
 10
10726.033691000001
 20
6326.5902500000011
 30
0.0
 11
10726.033691000001
 21
8187.6361290000032
 31
0.0
  0
LINE
  5
39BB
  8
0-1
  6
CONTINUOUS
 62
     3
 10
10711.034879000001
 20
6326.5902500000011
 30
0.0
 11
10711.034879000001
 21
8187.6361290000032
 31
0.0
  0
LINE
  5
39BC
  8
0-1
  6
CONTINUOUS
 62
     3
 10
10011.03355899999
 20
6326.5902500000011
 30
0.0
 11
10011.03355899999
 21
8187.6361290000032
 31
0.0
  0
LINE
  5
39BD
  8
0-1
  6
CONTINUOUS
 62
     3
 10
10026.03435099998
 20
6326.5902500000011
 30
0.0
 11
10026.03435099998
 21
8187.6361290000032
 31
0.0
  0
LINE
  5
39BE
  8
0-1
  6
CONTINUOUS
 62
     3
 10
10427.034337999999
 20
6326.5902500000011
 30
0.0
 11
10427.034337999999
 21
8187.6361290000032
 31
0.0
  0
LINE
  5
39BF
  8
0-1
  6
CONTINUOUS
 62
     3
 10
10412.033546000001
 20
6326.5902500000011
 30
0.0
 11
10412.033546000001
 21
8187.6361290000032
 31
0.0
  0
LINE
  5
39C0
  8
0-1
  6
CONTINUOUS
 62
     3
 10
10279.034642000001
 20
6326.5902500000011
 30
0.0
 11
10279.034642000001
 21
8187.6361290000032
 31
0.0
  0
LINE
  5
39C1
  8
0-1
  6
CONTINUOUS
 62
     3
 10
10159.033256000001
 20
6326.5902500000011
 30
0.0
 11
10159.033256000001
 21
8187.6361290000032
 31
0.0
  0
LINE
  5
39C2
  8
0-1
  6
CONTINUOUS
 62
     3
 10
10229.035961000011
 20
6326.5902500000011
 30
0.0
 11
10229.035961000011
 21
8187.6361290000032
 31
0.0
  0
LINE
  5
39C3
  8
0-1
  6
CONTINUOUS
 62
     3
 10
10209.034906000001
 20
6326.5902500000011
 30
0.0
 11
10209.034906000001
 21
8187.6361290000032
 31
0.0
  0
LINE
  5
39C4
  8
0-1
  6
CONTINUOUS
 62
     3
 10
11411.033229999999
 20
6326.5902500000011
 30
0.0
 11
11411.033229999999
 21
8187.6361290000032
 31
0.0
  0
LINE
  5
39C5
  8
0-1
  6
CONTINUOUS
 62
     3
 10
11426.03402099999
 20
6326.5902500000011
 30
0.0
 11
11426.03402099999
 21
8187.6361290000032
 31
0.0
  0
LINE
  5
39C6
  8
0-1
  6
CONTINUOUS
 62
     3
 10
11559.034906000001
 20
6326.5902500000011
 30
0.0
 11
11559.034906000001
 21
8187.6361290000032
 31
0.0
  0
LINE
  5
39C7
  8
0-1
  6
CONTINUOUS
 62
     3
 10
11827.034008000001
 20
6326.5902500000011
 30
0.0
 11
11827.034008000001
 21
8187.6361290000032
 31
0.0
  0
LINE
  5
39C8
  8
0-1
  6
CONTINUOUS
 62
     3
 10
11812.035196000001
 20
6326.5902500000011
 30
0.0
 11
11812.035196000001
 21
8187.6361290000032
 31
0.0
  0
LINE
  5
39C9
  8
0-1
  6
CONTINUOUS
 62
     3
 10
11679.034311999991
 20
6326.5902500000011
 30
0.0
 11
11679.034311999991
 21
8187.6361290000032
 31
0.0
  0
LINE
  5
39CA
  8
0-1
  6
CONTINUOUS
 62
     3
 10
11629.034642000001
 20
6326.5902500000011
 30
0.0
 11
11629.034642000001
 21
8187.6361290000032
 31
0.0
  0
LINE
  5
39CB
  8
0-1
  6
CONTINUOUS
 62
     3
 10
11609.035565
 20
6326.5902500000011
 30
0.0
 11
11609.035565
 21
8187.6361290000032
 31
0.0
  0
LINE
  5
39CC
  8
0-1
  6
CONTINUOUS
 62
     3
 10
12437.034535999999
 20
6326.5902500000011
 30
0.0
 11
12437.034535999999
 21
8187.6361290000032
 31
0.0
  0
LINE
  5
39CD
  8
0-1
  6
CONTINUOUS
 62
     3
 10
12417.03545999999
 20
6326.5902500000011
 30
0.0
 11
12417.03545999999
 21
8187.6361290000032
 31
0.0
  0
LINE
  5
39CE
  8
0-1
  6
CONTINUOUS
 62
     3
 10
12487.035196000001
 20
6326.5902500000011
 30
0.0
 11
12487.035196000001
 21
8187.6361290000032
 31
0.0
  0
LINE
  5
39CF
  8
0-1
  6
CONTINUOUS
 62
     3
 10
12367.03480000001
 20
6326.5902500000011
 30
0.0
 11
12367.03480000001
 21
8187.6361290000032
 31
0.0
  0
LINE
  5
39D0
  8
0-1
  6
CONTINUOUS
 62
     3
 10
12234.03490599999
 20
6326.5902500000011
 30
0.0
 11
12234.03490599999
 21
8187.6361290000032
 31
0.0
  0
LINE
  5
39D1
  8
0-1
  6
CONTINUOUS
 62
     3
 10
12219.03312399999
 20
6326.5902500000011
 30
0.0
 11
12219.03312399999
 21
8187.6361290000032
 31
0.0
  0
LINE
  5
39D2
  8
0-1
  6
CONTINUOUS
 62
     3
 10
12620.03508999999
 20
6326.5902500000011
 30
0.0
 11
12620.03508999999
 21
8187.6361290000032
 31
0.0
  0
LINE
  5
39D3
  8
0-1
  6
CONTINUOUS
 62
     3
 10
12635.03390300001
 20
6326.5902500000011
 30
0.0
 11
12635.03390300001
 21
8187.6361290000032
 31
0.0
  0
LINE
  5
39D4
  8
0-1
  6
CONTINUOUS
 62
     3
 10
14735.03390300001
 20
6326.5902500000011
 30
0.0
 11
14735.03390300001
 21
8187.6361290000032
 31
0.0
  0
LINE
  5
39D5
  8
0-1
  6
CONTINUOUS
 62
     3
 10
14720.03509000001
 20
6326.5902500000011
 30
0.0
 11
14720.03509000001
 21
8187.6361290000032
 31
0.0
  0
LINE
  5
39D6
  8
0-1
  6
CONTINUOUS
 62
     3
 10
14319.03411399998
 20
6326.5902500000011
 30
0.0
 11
14319.03411399998
 21
8187.6361290000032
 31
0.0
  0
LINE
  5
39D7
  8
0-1
  6
CONTINUOUS
 62
     3
 10
14334.033916
 20
6326.5902500000011
 30
0.0
 11
14334.033916
 21
8187.6361290000032
 31
0.0
  0
LINE
  5
39D8
  8
0-1
  6
CONTINUOUS
 62
     3
 10
14467.03480000001
 20
6326.5902500000011
 30
0.0
 11
14467.03480000001
 21
8187.6361290000032
 31
0.0
  0
LINE
  5
39D9
  8
0-1
  6
CONTINUOUS
 62
     3
 10
14587.034206
 20
6326.5902500000011
 30
0.0
 11
14587.034206
 21
8187.6361290000032
 31
0.0
  0
LINE
  5
39DA
  8
0-1
  6
CONTINUOUS
 62
     3
 10
14517.035459999999
 20
6326.5902500000011
 30
0.0
 11
14517.035459999999
 21
8187.6361290000032
 31
0.0
  0
LINE
  5
39DB
  8
0-1
  6
CONTINUOUS
 62
     3
 10
14537.034535999999
 20
6326.5902500000011
 30
0.0
 11
14537.034535999999
 21
8187.6361290000032
 31
0.0
  0
LINE
  5
39DC
  8
0-1
  6
CONTINUOUS
 62
     3
 10
13837.035196000001
 20
6326.5902500000011
 30
0.0
 11
13837.035196000001
 21
8187.6361290000032
 31
0.0
  0
LINE
  5
39DD
  8
0-1
  6
CONTINUOUS
 62
     3
 10
13817.034140000011
 20
6326.5902500000011
 30
0.0
 11
13817.034140000011
 21
8187.6361290000032
 31
0.0
  0
LINE
  5
39DE
  8
0-1
  6
CONTINUOUS
 62
     3
 10
13887.03387600001
 20
6326.5902500000011
 30
0.0
 11
13887.03387600001
 21
8187.6361290000032
 31
0.0
  0
LINE
  5
39DF
  8
0-1
  6
CONTINUOUS
 62
     3
 10
13767.03545999999
 20
6326.5902500000011
 30
0.0
 11
13767.03545999999
 21
8187.6361290000032
 31
0.0
  0
LINE
  5
39E0
  8
0-1
  6
CONTINUOUS
 62
     3
 10
13634.034575999989
 20
6326.5902500000011
 30
0.0
 11
13634.034575999989
 21
8187.6361290000032
 31
0.0
  0
LINE
  5
39E1
  8
0-1
  6
CONTINUOUS
 62
     3
 10
13619.034773999991
 20
6326.5902500000011
 30
0.0
 11
13619.034773999991
 21
8187.6361290000032
 31
0.0
  0
LINE
  5
39E2
  8
0-1
  6
CONTINUOUS
 62
     3
 10
14020.032781000011
 20
6326.5902500000011
 30
0.0
 11
14020.032781000011
 21
8187.6361290000032
 31
0.0
  0
LINE
  5
39E3
  8
0-1
  6
CONTINUOUS
 62
     3
 10
14035.03456200001
 20
6326.5902500000011
 30
0.0
 11
14035.03456200001
 21
8187.6361290000032
 31
0.0
  0
LINE
  5
39E4
  8
0-1
  6
CONTINUOUS
 62
     3
 10
13335.035222
 20
6326.5902500000011
 30
0.0
 11
13335.035222
 21
8187.6361290000032
 31
0.0
  0
LINE
  5
39E5
  8
0-1
  6
CONTINUOUS
 62
     3
 10
13320.033441
 20
6326.5902500000011
 30
0.0
 11
13320.033441
 21
8187.6361290000032
 31
0.0
  0
LINE
  5
39E6
  8
0-1
  6
CONTINUOUS
 62
     3
 10
12919.03543299999
 20
6326.5902500000011
 30
0.0
 11
12919.03543299999
 21
8187.6361290000032
 31
0.0
  0
LINE
  5
39E7
  8
0-1
  6
CONTINUOUS
 62
     3
 10
12934.03424599999
 20
6326.5902500000011
 30
0.0
 11
12934.03424599999
 21
8187.6361290000032
 31
0.0
  0
LINE
  5
39E8
  8
0-1
  6
CONTINUOUS
 62
     3
 10
13067.03315000001
 20
6326.5902500000011
 30
0.0
 11
13067.03315000001
 21
8187.6361290000032
 31
0.0
  0
LINE
  5
39E9
  8
0-1
  6
CONTINUOUS
 62
     3
 10
13187.03453599999
 20
6326.5902500000011
 30
0.0
 11
13187.03453599999
 21
8187.6361290000032
 31
0.0
  0
LINE
  5
39EA
  8
0-1
  6
CONTINUOUS
 62
     3
 10
13117.03479999999
 20
6326.5902500000011
 30
0.0
 11
13117.03479999999
 21
8187.6361290000032
 31
0.0
  0
LINE
  5
39EB
  8
0-1
  6
CONTINUOUS
 62
     3
 10
13137.03387600001
 20
6326.5902500000011
 30
0.0
 11
13137.03387600001
 21
8187.6361290000032
 31
0.0
  0
LINE
  5
39EC
  8
0-1
  6
CONTINUOUS
 62
     3
 10
12795.53524899999
 20
8187.6361290000032
 30
0.0
 11
12795.53524899999
 21
6326.5902500000011
 31
0.0
  0
LINE
  5
39ED
  8
0-1
  6
CONTINUOUS
 62
     3
 10
12758.534087
 20
8187.6361290000032
 30
0.0
 11
12758.534087
 21
6326.5902500000011
 31
0.0
  0
LINE
  5
39EE
  8
0-1
  6
CONTINUOUS
 62
     3
 10
14195.532939000001
 20
8187.6361290000032
 30
0.0
 11
14195.532939000001
 21
6326.5902500000011
 31
0.0
  0
LINE
  5
39EF
  8
0-1
  6
CONTINUOUS
 62
     3
 10
14158.533756999999
 20
8187.6361290000032
 30
0.0
 11
14158.533756999999
 21
6326.5902500000011
 31
0.0
  0
LINE
  5
39F0
  8
0-1
  6
CONTINUOUS
 62
     3
 10
13495.53458899999
 20
8187.6361290000032
 30
0.0
 11
13495.53458899999
 21
6326.5902500000011
 31
0.0
  0
LINE
  5
39F1
  8
0-1
  6
CONTINUOUS
 62
     3
 10
13458.534417000001
 20
8187.6361290000032
 30
0.0
 11
13458.534417000001
 21
6326.5902500000011
 31
0.0
  0
LINE
  5
39F2
  8
0-1
  6
CONTINUOUS
 62
     3
 10
14895.53524899998
 20
8187.6361290000032
 30
0.0
 11
14895.53524899998
 21
6326.5902500000011
 31
0.0
  0
LINE
  5
39F3
  8
0-1
  6
CONTINUOUS
 62
     3
 10
14858.534087
 20
8187.6361290000032
 30
0.0
 11
14858.534087
 21
6326.5902500000011
 31
0.0
  0
LINE
  5
39F4
  8
0-1
  6
CONTINUOUS
 62
     3
 10
15346.534061
 20
6276.5900850000025
 30
0.0
 11
15346.534061
 21
6176.5902500000002
 31
0.0
  0
LINE
  5
39F5
  8
0-1
  6
CONTINUOUS
 62
     3
 10
15314.033269999991
 20
8490.9191600000013
 30
0.0
 11
15314.033269999991
 21
6276.5900850000025
 31
0.0
  0
LINE
  5
39F6
  8
0-1
  6
CONTINUOUS
 62
     3
 10
15334.034061
 20
8491.5001490000031
 30
0.0
 11
15334.034061
 21
6276.5900850000025
 31
0.0
  0
LINE
  5
39F7
  8
0-1
  6
CONTINUOUS
 62
     3
 10
15219.03419299999
 20
8187.6361290000032
 30
0.0
 11
15219.03419299999
 21
6276.5900850000025
 31
0.0
  0
LINE
  5
39F8
  8
0-1
  6
CONTINUOUS
 62
     3
 10
12023.034061
 20
8392.3915919999999
 30
0.0
 11
12023.034061
 21
8187.6361290000032
 31
0.0
  0
LINE
  5
39F9
  8
0-1
  6
CONTINUOUS
 62
     3
 10
11950.534193
 20
8187.6361290000032
 30
0.0
 11
11950.534193
 21
6276.5900850000025
 31
0.0
  0
LINE
  5
39FA
  8
0-1
  6
CONTINUOUS
 62
     3
 10
12095.53293899999
 20
8187.6361290000032
 30
0.0
 11
12095.53293899999
 21
6276.5900850000025
 31
0.0
  0
LINE
  5
39FB
  8
0-1
  6
CONTINUOUS
 62
     3
 10
12095.53293899999
 20
6326.5902500000011
 30
0.0
 11
15219.03419299999
 21
6326.5902500000011
 31
0.0
  0
LINE
  5
39FC
  8
0-1
  6
CONTINUOUS
 62
     3
 10
9055.0340609999967
 20
6176.5902500000002
 30
0.0
 11
9055.0340609999967
 21
6276.5900850000025
 31
0.0
  0
LINE
  5
39FD
  8
0-1
  6
CONTINUOUS
 62
     3
 10
9082.5338630000006
 20
8304.3925880000043
 30
0.0
 11
9082.5338630000006
 21
6276.5900850000025
 31
0.0
  0
LINE
  5
39FE
  8
0-1
  6
CONTINUOUS
 62
     3
 10
9062.5340609999967
 20
8303.7758606838124
 30
0.0
 11
9062.5340609999967
 21
6276.5900850000025
 31
0.0
  0
LINE
  5
39FF
  8
0-1
  6
CONTINUOUS
 62
     3
 10
9177.5329400000046
 20
8187.6361290000032
 30
0.0
 11
9177.5329400000046
 21
6276.5900850000025
 31
0.0
  0
LINE
  5
3A00
  8
0-1
  6
CONTINUOUS
 62
     3
 10
9055.0340609999967
 20
6276.5900850000025
 30
0.0
 11
15346.534061
 21
6276.5900850000025
 31
0.0
  0
LINE
  5
3A01
  8
0-1
  6
CONTINUOUS
 62
     3
 10
9177.5329400000046
 20
6326.5902500000011
 30
0.0
 11
11950.534193
 21
6326.5902500000011
 31
0.0
  0
LINE
  5
3A02
  8
0-1
  6
CONTINUOUS
 62
     3
 10
8372.5330059999978
 20
6176.5902500000011
 30
0.0
 11
15346.534061
 21
6176.5902500000002
 31
0.0
  0
LINE
  5
3A03
  8
0-1
  6
CONTINUOUS
 62
     3
 10
9082.5338630000006
 20
8187.6361290000032
 30
0.0
 11
15314.033269999991
 21
8187.6361290000032
 31
0.0
  0
LINE
  5
3A04
  8
0-1
  6
CONTINUOUS
 62
     3
 10
8888.2322370000002
 20
8338.5754100000013
 30
0.0
 11
15419.723725999989
 21
8534.0914710000015
 31
0.0
  0
LINE
  5
3A05
  8
0-1
  6
CONTINUOUS
 62
     3
 10
15418.223250999999
 20
8584.0703560000038
 30
0.0
 11
8886.7327519999981
 21
8388.553305999998
 31
0.0
  0
LINE
  5
3A06
  8
0-1
  6
CONTINUOUS
 62
     3
 10
8883.642724000003
 20
8391.4622080000008
 30
0.0
 11
8882.6826569999976
 21
8423.4477640000005
 31
0.0
  0
LINE
  5
3A07
  8
0-1
  6
CONTINUOUS
 62
     3
 10
8887.5314879999987
 20
8428.5950069999999
 30
0.0
 11
15437.992703
 21
8624.682159
 31
0.0
  0
LINE
  5
3A08
  8
0-1
  6
CONTINUOUS
 62
     3
 10
15441.897303
 20
8494.7406210000008
 30
0.0
 11
8891.4321290000007
 21
8298.6539639999974
 31
0.0
  0
LINE
  5
3A09
  8
0-1
  6
CONTINUOUS
 62
     3
 10
8886.2843910000029
 20
8303.5013100000033
 30
0.0
 11
8885.3253140000033
 21
8335.4873609999977
 31
0.0
  0
LINE
  5
3A0A
  8
0-1
  6
CONTINUOUS
 62
     3
 10
8884.9937449999998
 20
8346.4821019999981
 30
0.0
 11
8883.9733030000007
 21
8380.4664770000054
 31
0.0
  0
LINE
  5
3A0B
  8
0-1
  6
CONTINUOUS
 62
     3
 10
8886.882206000002
 20
8383.5555159999967
 30
0.0
 11
15418.374683999989
 21
8579.0730610000028
 31
0.0
  0
LINE
  5
3A0C
  8
0-1
  6
CONTINUOUS
 62
     3
 10
15419.574272
 20
8539.0897550000045
 30
0.0
 11
8888.0837740000006
 21
8343.5736950000028
 31
0.0
  0
LINE
  5
3A0D
  8
0-1
  6
CONTINUOUS
 62
     3
 10
12023.034061
 20
8392.3915919999999
 30
0.0
 11
12019.13143999999
 21
8522.3331300000027
 31
0.0
  0
LINE
  5
3A0E
  8
0-1
  6
CONTINUOUS
 62
     3
 10
15408.930401
 20
8493.7498720000003
 30
0.0
 11
15405.02876999999
 21
8623.6914100000049
 31
0.0
  0
LINE
  5
3A0F
  8
0-1
  6
CONTINUOUS
 62
     3
 10
8900.0242299999973
 20
8428.9701260000002
 30
0.0
 11
8903.9268509999984
 21
8299.0290830000049
 31
0.0
  0
LINE
  5
3A10
  8
0-5
  6
CONTINUOUS
 62
     4
 10
17051.61904899999
 20
6276.5900850000025
 30
0.0
 11
17171.619444999989
 21
6484.4370620000009
 31
0.0
  0
LINE
  5
3A11
  8
0-5
  6
CONTINUOUS
 62
     4
 10
16931.620631999991
 20
6484.4370620000009
 30
0.0
 11
17051.61904899999
 21
6276.5900850000025
 31
0.0
  0
LINE
  5
3A12
  8
0-5
  6
CONTINUOUS
 62
     4
 10
17171.619444999989
 20
6484.4370620000009
 30
0.0
 11
16931.620631999991
 21
6484.4370620000009
 31
0.0
  0
LINE
  5
3A13
  8
0-5
  6
CONTINUOUS
 62
     4
 10
15426.53135600001
 20
6276.5900850000025
 30
0.0
 11
17143.99724199999
 21
6276.5900850000025
 31
0.0
  0
LINE
  5
3A14
  8
0-5
  6
CONTINUOUS
 62
     4
 10
15291.534061
 20
4496.5906459999997
 30
0.0
 11
15291.534061
 21
4336.5911079999987
 31
0.0
  0
LINE
  5
3A15
  8
0-5
  6
CONTINUOUS
 62
     4
 10
12023.034061
 20
4496.5906459999997
 30
0.0
 11
12023.034061
 21
4336.5911079999987
 31
0.0
  0
LINE
  5
3A16
  8
0-5
  6
CONTINUOUS
 62
     4
 10
9105.0340609999967
 20
4496.5906459999997
 30
0.0
 11
9105.0340609999967
 21
4336.5911079999987
 31
0.0
  0
LINE
  5
3A17
  8
2-0
  6
CENTER2
 62
     6
 10
15291.534061
 20
5913.9378270000043
 30
0.0
 11
15291.534061
 21
6971.0804250000019
 31
0.0
  0
LINE
  5
3A18
  8
2-0
  6
CENTER2
 62
     6
 10
12023.034061
 20
5913.9378270000043
 30
0.0
 11
12023.034061
 21
6971.0804250000019
 31
0.0
  0
LINE
  5
3A19
  8
2-0
  6
CENTER2
 62
     6
 10
9105.0340609999967
 20
5913.9378270000043
 30
0.0
 11
9105.0340609999967
 21
6971.0804250000019
 31
0.0
  0
ARC
  5
3A1A
  8
0-1
  6
CONTINUOUS
 62
     3
 10
15418.973487999991
 20
8559.0819030000021
 30
0.0
 40
24.999998999999999
 50
271.71998600002598
 51
91.719986000025997
  0
ARC
  5
3A1B
  8
0-1
  6
CONTINUOUS
 62
     3
 10
8886.6426839999986
 20
8391.552276000004
 30
0.0
 40
3.0
 50
181.7199859999738
 51
271.71998600002598
  0
ARC
  5
3A1C
  8
0-1
  6
CONTINUOUS
 62
     3
 10
8887.6799519999968
 20
8423.5972180000026
 30
0.0
 40
5.0
 50
91.719986000025997
 51
181.7199859999738
  0
ARC
  5
3A1D
  8
0-1
  6
CONTINUOUS
 62
     3
 10
15413.976193999981
 20
8558.9314600000016
 30
0.0
 40
69.999999000000003
 50
293.50677499977832
 51
69.933196999913747
  0
ARC
  5
3A1E
  8
0-1
  6
CONTINUOUS
 62
     3
 10
8891.2836650000027
 20
8303.6517540000023
 30
0.0
 40
5.0
 50
181.7199859999738
 51
271.71998600002598
  0
ARC
  5
3A1F
  8
0-1
  6
CONTINUOUS
 62
     3
 10
8888.3223060000018
 20
8335.5769340000006
 30
0.0
 40
3.0
 50
91.719986000025997
 51
181.7199859999738
  0
ARC
  5
3A20
  8
0-1
  6
CONTINUOUS
 62
     3
 10
8888.3064689999974
 20
8386.0996919999998
 30
0.0
 40
2.5
 50
271.71998600002598
 51
91.719986000025997
  0
ARC
  5
3A21
  8
0-1
  6
CONTINUOUS
 62
     3
 10
8889.6565009999977
 20
8341.1195860000007
 30
0.0
 40
2.5
 50
271.71998600002598
 51
91.719986000025997
  0
ARC
  5
3A22
  8
0-1
  6
CONTINUOUS
 62
     3
 10
8886.9722739999997
 20
8380.5570399999979
 30
0.0
 40
3.0
 50
91.719986000025997
 51
181.7199859999738
  0
ARC
  5
3A23
  8
0-1
  6
CONTINUOUS
 62
     3
 10
15418.973487999991
 20
8559.0819030000021
 30
0.0
 40
20.0
 50
271.71998600002598
 51
91.719986000025997
  0
ARC
  5
3A24
  8
0-1
  6
CONTINUOUS
 62
     3
 10
8887.992715999997
 20
8346.5716750000029
 30
0.0
 40
3.0
 50
181.7199859999738
 51
271.71998600002598
  0
CIRCLE
  5
3A25
  8
0-5
  6
CONTINUOUS
 62
     4
 10
12023.034061
 20
4136.5899530000006
 30
0.0
 40
199.9999949999999
  0
CIRCLE
  5
3A26
  8
0-5
  6
CONTINUOUS
 62
     4
 10
15291.534061
 20
4136.5899530000006
 30
0.0
 40
199.9999949999999
  0
CIRCLE
  5
3A27
  8
0-5
  6
CONTINUOUS
 62
     4
 10
9105.0340609999967
 20
4136.5899530000006
 30
0.0
 40
199.9999949999999
  0
TEXT
  5
3A28
  8
0-5
  6
CONTINUOUS
 62
     7
 10
16592.527119999992
 20
6564.4363360000034
 30
0.0
 40
160.0
  1
布基礎天端
 72
     4
 11
17051.193786666659
 21
6644.4363360000016
 31
0.0
  0
TEXT
  5
3A29
  8
0-5
  6
CONTINUOUS
 62
     7
 10
15244.577901000001
 20
4053.3791570000012
 30
0.0
 40
160.0
  1
A
 72
     4
 11
15297.911234333331
 21
4133.3791570000012
 31
0.0
  0
TEXT
  5
3A2A
  8
0-5
  6
CONTINUOUS
 62
     7
 10
11976.07790099999
 20
4053.3791570000012
 30
0.0
 40
160.0
  1
B
 72
     4
 11
12029.411234333331
 21
4133.3791570000012
 31
0.0
  0
TEXT
  5
3A2B
  8
0-5
  6
CONTINUOUS
 62
     7
 10
9058.0779010000024
 20
4053.3791570000012
 30
0.0
 40
160.0
  1
C
 72
     4
 11
9111.4112343333363
 21
4133.3791570000012
 31
0.0
  0
TEXT
  5
3A2C
  8
2-0
  6
CONTINUOUS
 62
     7
 10
10705.000317
 20
3299.4686180000022
 30
0.0
 40
160.0
  1
側 面 立 面 図
 50
0.000139
 72
     4
 11
11350.333456250821
 21
3379.4701835833762
 31
0.0
  0
TEXT
  5
3A2D
  8
2-0
  6
CONTINUOUS
 62
     7
 10
12701.825641388439
 20
3326.6655525833762
 30
0.0
 40
160.0
  1
1
 72
     4
 11
12728.492308055111
 21
3406.6655525833762
 31
0.0
  0
TEXT
  5
3A2E
  8
2-0
  6
CONTINUOUS
 62
     7
 10
12944.91435863914
 20
3246.6670205833748
 30
0.0
 40
160.0
  1
80
 72
     4
 11
13064.91435863914
 21
3326.6670205833748
 31
0.0
  0
TEXT
  5
3A2F
  8
2-0
  6
CONTINUOUS
 62
     7
 10
12202.827607388441
 20
3299.4701835833762
 30
0.0
 40
160.0
  1
(S=  /   )
 72
     4
 11
12762.827607388441
 21
3379.4701835833762
 31
0.0
  0
LINE
  5
3A30
  8
0-1
  6
CONTINUOUS
 62
     3
 10
15019.03642399998
 20
6326.5902500000011
 30
0.0
 11
15019.03642399998
 21
8187.6361290000032
 31
0.0
  0
LINE
  5
3A31
  8
0-1
  6
CONTINUOUS
 62
     3
 10
15034.036225999989
 20
6326.5902500000011
 30
0.0
 11
15034.036225999989
 21
8187.6361290000032
 31
0.0
  0
LINE
  5
3A3C
  8
0-1
  6
CONTINUOUS
 62
     3
 10
24678.822053999989
 20
6276.5900849999962
 30
0.0
 11
24578.82271299999
 21
6276.5900849999962
 31
0.0
  0
LINE
  5
3A3D
  8
0-1
  6
CONTINUOUS
 62
     3
 10
24578.82271299999
 20
6276.5900849999962
 30
0.0
 11
24578.82271299999
 21
6176.5902500000002
 31
0.0
  0
LINE
  5
3A3E
  8
0-1
  6
CONTINUOUS
 62
     3
 10
24678.822053999989
 20
6176.5902500000002
 30
0.0
 11
24678.822053999989
 21
6276.5900849999962
 31
0.0
  0
LINE
  5
3A3F
  8
0-1
  6
CONTINUOUS
 62
     3
 10
24651.322580999989
 20
8625.0904339999979
 30
0.0
 11
24651.322580999989
 21
6276.5900849999962
 31
0.0
  0
LINE
  5
3A40
  8
0-1
  6
CONTINUOUS
 62
     3
 10
24671.321657999979
 20
8495.0895109999983
 30
0.0
 11
24671.321657999979
 21
6276.5900849999962
 31
0.0
  0
LINE
  5
3A41
  8
0-1
  6
CONTINUOUS
 62
     3
 10
24541.32271299998
 20
8184.5901439999952
 30
0.0
 11
24541.32271299998
 21
6176.5902500000002
 31
0.0
  0
LINE
  5
3A42
  8
0-1
  6
CONTINUOUS
 62
     3
 10
24586.32310899999
 20
8495.0895109999983
 30
0.0
 11
24586.32310899999
 21
6276.5900849999962
 31
0.0
  0
LINE
  5
3A4B
  8
0-1
  6
CONTINUOUS
 62
     3
 10
22804.819678000011
 20
8495.0895109999983
 30
0.0
 11
22804.819678000011
 21
6176.5902500000002
 31
0.0
  0
LINE
  5
3A4C
  8
0-1
  6
CONTINUOUS
 62
     3
 10
22849.820074000021
 20
8184.5901439999952
 30
0.0
 11
22849.820074000021
 21
6176.5902500000002
 31
0.0
  0
LINE
  5
3A4F
  8
0-1
  6
CONTINUOUS
 62
     3
 10
22849.820074000021
 20
8116.049807999997
 30
0.0
 11
24541.32271299998
 21
8116.049807999997
 31
0.0
  0
LINE
  5
3A50
  8
0-1
  6
CONTINUOUS
 62
     3
 10
22849.820074000021
 20
6761.5909429999983
 30
0.0
 11
24541.32271299998
 21
6761.5909429999983
 31
0.0
  0
LINE
  5
3A51
  8
0-1
  6
CONTINUOUS
 62
     3
 10
22849.820074000021
 20
6826.5899200000003
 30
0.0
 11
24541.32271299998
 21
6826.5899200000003
 31
0.0
  0
LINE
  5
3A52
  8
0-1
  6
CONTINUOUS
 62
     3
 10
22849.820074000021
 20
6891.5903819999958
 30
0.0
 11
24541.32271299998
 21
6891.5903819999958
 31
0.0
  0
LINE
  5
3A53
  8
0-1
  6
CONTINUOUS
 62
     3
 10
22849.820074000021
 20
6956.5903489999973
 30
0.0
 11
24541.32271299998
 21
6956.5903489999973
 31
0.0
  0
LINE
  5
3A54
  8
0-1
  6
CONTINUOUS
 62
     3
 10
22849.820074000021
 20
7021.590315999998
 30
0.0
 11
24541.32271299998
 21
7021.590315999998
 31
0.0
  0
LINE
  5
3A55
  8
0-1
  6
CONTINUOUS
 62
     3
 10
22849.820074000021
 20
7086.5902829999959
 30
0.0
 11
24541.32271299998
 21
7086.5902829999959
 31
0.0
  0
LINE
  5
3A56
  8
0-1
  6
CONTINUOUS
 62
     3
 10
22849.820074000021
 20
7151.5907450000004
 30
0.0
 11
24541.32271299998
 21
7151.5907450000004
 31
0.0
  0
LINE
  5
3A57
  8
0-1
  6
CONTINUOUS
 62
     3
 10
22849.820074000021
 20
7216.5897219999979
 30
0.0
 11
24541.32271299998
 21
7216.5897219999979
 31
0.0
  0
LINE
  5
3A58
  8
0-1
  6
CONTINUOUS
 62
     3
 10
22849.820074000021
 20
7281.5901839999979
 30
0.0
 11
24541.32271299998
 21
7281.5901839999979
 31
0.0
  0
LINE
  5
3A59
  8
0-1
  6
CONTINUOUS
 62
     3
 10
22849.820074000021
 20
7346.5901509999949
 30
0.0
 11
24541.32271299998
 21
7346.5901509999949
 31
0.0
  0
LINE
  5
3A5A
  8
0-1
  6
CONTINUOUS
 62
     3
 10
22849.820074000021
 20
7411.5906129999948
 30
0.0
 11
24541.32271299998
 21
7411.5906129999948
 31
0.0
  0
LINE
  5
3A5B
  8
0-1
  6
CONTINUOUS
 62
     3
 10
22849.820074000021
 20
7476.5895899999969
 30
0.0
 11
24541.32271299998
 21
7476.5895899999969
 31
0.0
  0
LINE
  5
3A5C
  8
0-1
  6
CONTINUOUS
 62
     3
 10
22849.820074000021
 20
7541.5900519999977
 30
0.0
 11
24541.32271299998
 21
7541.5900519999977
 31
0.0
  0
LINE
  5
3A5D
  8
0-1
  6
CONTINUOUS
 62
     3
 10
22849.820074000021
 20
7606.5900189999984
 30
0.0
 11
24541.32271299998
 21
7606.5900189999984
 31
0.0
  0
LINE
  5
3A5E
  8
0-1
  6
CONTINUOUS
 62
     3
 10
22849.820074000021
 20
7671.589985999999
 30
0.0
 11
24541.32271299998
 21
7671.589985999999
 31
0.0
  0
LINE
  5
3A5F
  8
0-1
  6
CONTINUOUS
 62
     3
 10
22849.820074000021
 20
7736.5904480000008
 30
0.0
 11
24541.32271299998
 21
7736.5904480000008
 31
0.0
  0
LINE
  5
3A60
  8
0-1
  6
CONTINUOUS
 62
     3
 10
22849.820074000021
 20
7801.5904149999978
 30
0.0
 11
24541.32271299998
 21
7801.5904149999978
 31
0.0
  0
LINE
  5
3A61
  8
0-1
  6
CONTINUOUS
 62
     3
 10
22849.820074000021
 20
7866.5908769999969
 30
0.0
 11
24541.32271299998
 21
7866.5908769999969
 31
0.0
  0
LINE
  5
3A62
  8
0-1
  6
CONTINUOUS
 62
     3
 10
22849.820074000021
 20
7931.5898539999944
 30
0.0
 11
24541.32271299998
 21
7931.5898539999944
 31
0.0
  0
LINE
  5
3A63
  8
0-1
  6
CONTINUOUS
 62
     3
 10
22849.820074000021
 20
7996.5903159999989
 30
0.0
 11
24541.32271299998
 21
7996.5903159999989
 31
0.0
  0
LINE
  5
3A64
  8
0-1
  6
CONTINUOUS
 62
     3
 10
22849.820074000021
 20
8061.5902829999986
 30
0.0
 11
24541.32271299998
 21
8061.5902829999986
 31
0.0
  0
LINE
  5
3A65
  8
0-1
  6
CONTINUOUS
 62
     3
 10
22849.820074000021
 20
6241.5897219999961
 30
0.0
 11
24541.32271299998
 21
6241.5897219999961
 31
0.0
  0
LINE
  5
3A66
  8
0-1
  6
CONTINUOUS
 62
     3
 10
22849.820074000021
 20
6306.5906789999972
 30
0.0
 11
24541.32271299998
 21
6306.5906789999972
 31
0.0
  0
LINE
  5
3A67
  8
0-1
  6
CONTINUOUS
 62
     3
 10
22849.820074000021
 20
6371.5896559999974
 30
0.0
 11
24541.32271299998
 21
6371.5896559999974
 31
0.0
  0
LINE
  5
3A68
  8
0-1
  6
CONTINUOUS
 62
     3
 10
22849.820074000021
 20
6436.5906129999967
 30
0.0
 11
24541.32271299998
 21
6436.5906129999967
 31
0.0
  0
LINE
  5
3A69
  8
0-1
  6
CONTINUOUS
 62
     3
 10
22849.820074000021
 20
6501.590084999998
 30
0.0
 11
24541.32271299998
 21
6501.590084999998
 31
0.0
  0
LINE
  5
3A6A
  8
0-1
  6
CONTINUOUS
 62
     3
 10
22849.820074000021
 20
6566.5900519999977
 30
0.0
 11
24541.32271299998
 21
6566.5900519999977
 31
0.0
  0
LINE
  5
3A6B
  8
0-1
  6
CONTINUOUS
 62
     3
 10
22849.820074000021
 20
6631.5900189999984
 30
0.0
 11
24541.32271299998
 21
6631.5900189999984
 31
0.0
  0
LINE
  5
3A6C
  8
0-1
  6
CONTINUOUS
 62
     3
 10
22849.820074000021
 20
6696.589490999997
 30
0.0
 11
24541.32271299998
 21
6696.589490999997
 31
0.0
  0
LINE
  5
3A6E
  8
0-1
  6
CONTINUOUS
 62
     3
 10
22804.819678000011
 20
8184.5901439999952
 30
0.0
 11
24586.32310899999
 21
8184.5901439999952
 31
0.0
  0
LINE
  5
3A6F
  8
0-1
  6
CONTINUOUS
 62
     3
 10
20144.820735000001
 20
6176.5902500000002
 30
0.0
 11
24678.822053999989
 21
6176.5902500000002
 31
0.0
  0
LINE
  5
3A79
  8
0-1
  6
CONTINUOUS
 62
     3
 10
22719.821129999989
 20
8495.0895109999983
 30
0.0
 11
22719.821129999989
 21
6176.5902500000002
 31
0.0
  0
LINE
  5
3A7A
  8
0-1
  6
CONTINUOUS
 62
     3
 10
22674.822713999962
 20
8184.5901439999952
 30
0.0
 11
22674.822713999962
 21
6176.5902500000002
 31
0.0
  0
LINE
  5
3A85
  8
0-1
  6
CONTINUOUS
 62
     3
 10
20244.822054
 20
6276.5900849999962
 30
0.0
 11
20244.822054
 21
6176.5902500000002
 31
0.0
  0
LINE
  5
3A86
  8
0-1
  6
CONTINUOUS
 62
     3
 10
20144.820735000001
 20
6176.5902500000002
 30
0.0
 11
20144.820735000001
 21
6276.5900849999962
 31
0.0
  0
LINE
  5
3A87
  8
0-1
  6
CONTINUOUS
 62
     3
 10
20144.820735000001
 20
6276.5900849999962
 30
0.0
 11
20244.822054
 21
6276.5900849999962
 31
0.0
  0
LINE
  5
3A88
  8
0-1
  6
CONTINUOUS
 62
     3
 10
20282.322054
 20
8184.5901439999952
 30
0.0
 11
20282.322054
 21
6176.5902500000002
 31
0.0
  0
LINE
  5
3A89
  8
0-1
  6
CONTINUOUS
 62
     3
 10
20237.319679
 20
8495.0895109999983
 30
0.0
 11
20237.319679
 21
6276.5900849999962
 31
0.0
  0
LINE
  5
3A8A
  8
0-1
  6
CONTINUOUS
 62
     3
 10
20172.32218599999
 20
8625.0904339999979
 30
0.0
 11
20172.32218599999
 21
6276.5900849999962
 31
0.0
  0
LINE
  5
3A8B
  8
0-1
  6
CONTINUOUS
 62
     3
 10
20152.319151
 20
8495.0895109999983
 30
0.0
 11
20152.319151
 21
6276.5900849999962
 31
0.0
  0
LINE
  5
3A8C
  8
0-1
  6
CONTINUOUS
 62
     3
 10
20237.319679
 20
8184.5901439999952
 30
0.0
 11
22719.821129999989
 21
8184.5901439999952
 31
0.0
  0
LINE
  5
3A8E
  8
0-1
  6
CONTINUOUS
 62
     3
 10
20282.322054
 20
6696.589490999997
 30
0.0
 11
22674.822713999962
 21
6696.589490999997
 31
0.0
  0
LINE
  5
3A8F
  8
0-1
  6
CONTINUOUS
 62
     3
 10
20282.322054
 20
6631.5900189999984
 30
0.0
 11
22674.822713999962
 21
6631.5900189999984
 31
0.0
  0
LINE
  5
3A90
  8
0-1
  6
CONTINUOUS
 62
     3
 10
20282.322054
 20
6566.5900519999977
 30
0.0
 11
22674.822713999962
 21
6566.5900519999977
 31
0.0
  0
LINE
  5
3A91
  8
0-1
  6
CONTINUOUS
 62
     3
 10
20282.322054
 20
6501.590084999998
 30
0.0
 11
22674.822713999962
 21
6501.590084999998
 31
0.0
  0
LINE
  5
3A92
  8
0-1
  6
CONTINUOUS
 62
     3
 10
20282.322054
 20
6436.5906129999967
 30
0.0
 11
22674.822713999962
 21
6436.5906129999967
 31
0.0
  0
LINE
  5
3A93
  8
0-1
  6
CONTINUOUS
 62
     3
 10
20282.322054
 20
6371.5896559999974
 30
0.0
 11
22674.822713999962
 21
6371.5896559999974
 31
0.0
  0
LINE
  5
3A94
  8
0-1
  6
CONTINUOUS
 62
     3
 10
20282.322054
 20
6306.5906789999972
 30
0.0
 11
22674.822713999962
 21
6306.5906789999972
 31
0.0
  0
LINE
  5
3A95
  8
0-1
  6
CONTINUOUS
 62
     3
 10
20282.322054
 20
6241.5897219999961
 30
0.0
 11
22674.822713999962
 21
6241.5897219999961
 31
0.0
  0
LINE
  5
3A96
  8
0-1
  6
CONTINUOUS
 62
     3
 10
20282.322054
 20
8061.5902829999986
 30
0.0
 11
22674.822713999962
 21
8061.5902829999986
 31
0.0
  0
LINE
  5
3A97
  8
0-1
  6
CONTINUOUS
 62
     3
 10
20282.322054
 20
7996.5903159999989
 30
0.0
 11
22674.822713999962
 21
7996.5903159999989
 31
0.0
  0
LINE
  5
3A98
  8
0-1
  6
CONTINUOUS
 62
     3
 10
20282.322054
 20
7931.5898539999944
 30
0.0
 11
22674.822713999962
 21
7931.5898539999944
 31
0.0
  0
LINE
  5
3A99
  8
0-1
  6
CONTINUOUS
 62
     3
 10
20282.322054
 20
7866.5908769999969
 30
0.0
 11
22674.822713999962
 21
7866.5908769999969
 31
0.0
  0
LINE
  5
3A9A
  8
0-1
  6
CONTINUOUS
 62
     3
 10
20282.322054
 20
7801.5904149999978
 30
0.0
 11
22674.822713999962
 21
7801.5904149999978
 31
0.0
  0
LINE
  5
3A9B
  8
0-1
  6
CONTINUOUS
 62
     3
 10
20282.322054
 20
7736.5904480000008
 30
0.0
 11
22674.822713999962
 21
7736.5904480000008
 31
0.0
  0
LINE
  5
3A9C
  8
0-1
  6
CONTINUOUS
 62
     3
 10
20282.322054
 20
7671.589985999999
 30
0.0
 11
22674.822713999962
 21
7671.589985999999
 31
0.0
  0
LINE
  5
3A9D
  8
0-1
  6
CONTINUOUS
 62
     3
 10
20282.322054
 20
7606.5900189999984
 30
0.0
 11
22674.822713999962
 21
7606.5900189999984
 31
0.0
  0
LINE
  5
3A9E
  8
0-1
  6
CONTINUOUS
 62
     3
 10
20282.322054
 20
7541.5900519999977
 30
0.0
 11
22674.822713999962
 21
7541.5900519999977
 31
0.0
  0
LINE
  5
3A9F
  8
0-1
  6
CONTINUOUS
 62
     3
 10
20282.322054
 20
7476.5895899999969
 30
0.0
 11
22674.822713999962
 21
7476.5895899999969
 31
0.0
  0
LINE
  5
3AA0
  8
0-1
  6
CONTINUOUS
 62
     3
 10
20282.322054
 20
7411.5906129999948
 30
0.0
 11
22674.822713999962
 21
7411.5906129999948
 31
0.0
  0
LINE
  5
3AA1
  8
0-1
  6
CONTINUOUS
 62
     3
 10
20282.322054
 20
7346.5901509999949
 30
0.0
 11
22674.822713999962
 21
7346.5901509999949
 31
0.0
  0
LINE
  5
3AA2
  8
0-1
  6
CONTINUOUS
 62
     3
 10
20282.322054
 20
7281.5901839999979
 30
0.0
 11
22674.822713999962
 21
7281.5901839999979
 31
0.0
  0
LINE
  5
3AA3
  8
0-1
  6
CONTINUOUS
 62
     3
 10
20282.322054
 20
7216.5897219999979
 30
0.0
 11
22674.822713999962
 21
7216.5897219999979
 31
0.0
  0
LINE
  5
3AA4
  8
0-1
  6
CONTINUOUS
 62
     3
 10
20282.322054
 20
7151.5907450000004
 30
0.0
 11
22674.822713999962
 21
7151.5907450000004
 31
0.0
  0
LINE
  5
3AA5
  8
0-1
  6
CONTINUOUS
 62
     3
 10
20282.322054
 20
7086.5902829999959
 30
0.0
 11
22674.822713999962
 21
7086.5902829999959
 31
0.0
  0
LINE
  5
3AA6
  8
0-1
  6
CONTINUOUS
 62
     3
 10
20282.322054
 20
7021.590315999998
 30
0.0
 11
22674.822713999962
 21
7021.590315999998
 31
0.0
  0
LINE
  5
3AA7
  8
0-1
  6
CONTINUOUS
 62
     3
 10
20282.322054
 20
6956.5903489999973
 30
0.0
 11
22674.822713999962
 21
6956.5903489999973
 31
0.0
  0
LINE
  5
3AA8
  8
0-1
  6
CONTINUOUS
 62
     3
 10
20282.322054
 20
6891.5903819999958
 30
0.0
 11
22674.822713999962
 21
6891.5903819999958
 31
0.0
  0
LINE
  5
3AA9
  8
0-1
  6
CONTINUOUS
 62
     3
 10
20282.322054
 20
6826.5899200000003
 30
0.0
 11
22674.822713999962
 21
6826.5899200000003
 31
0.0
  0
LINE
  5
3AAA
  8
0-1
  6
CONTINUOUS
 62
     3
 10
20282.322054
 20
6761.5909429999983
 30
0.0
 11
22674.822713999962
 21
6761.5909429999983
 31
0.0
  0
LINE
  5
3AAB
  8
0-1
  6
CONTINUOUS
 62
     3
 10
20282.322054
 20
8116.049807999997
 30
0.0
 11
22674.822713999962
 21
8116.049807999997
 31
0.0
  0
LINE
  5
3AB1
  8
0-2
  6
CONTINUOUS
 62
     4
 10
21842.262404500008
 20
6923.8159539999951
 30
0.0
 11
21742.263064499999
 21
6923.8159539999951
 31
0.0
  0
LINE
  5
3AB2
  8
0-2
  6
CONTINUOUS
 62
     4
 10
21114.878403499999
 20
6923.8159539999951
 30
0.0
 11
21214.875764500001
 21
6923.8159539999951
 31
0.0
  0
LINE
  5
3AB3
  8
0-5
  6
CONTINUOUS
 62
     4
 10
22762.321393999991
 20
4496.5901509999949
 30
0.0
 11
22762.321393999991
 21
4336.5901179999992
 31
0.0
  0
LINE
  5
3AB4
  8
0-5
  6
CONTINUOUS
 62
     4
 10
20194.821393999991
 20
4496.5901509999949
 30
0.0
 11
20194.821393999991
 21
4336.5901179999992
 31
0.0
  0
LINE
  5
3AB5
  8
2-0
  6
CENTER2
 62
     6
 10
24628.821393999991
 20
5913.9378269999979
 30
0.0
 11
24628.821393999991
 21
6951.0798639999966
 31
0.0
  0
LINE
  5
3AB6
  8
2-0
  6
CENTER2
 62
     6
 10
22762.321393999991
 20
5913.9378269999979
 30
0.0
 11
22762.321393999991
 21
6951.0798639999966
 31
0.0
  0
LINE
  5
3AB7
  8
2-0
  6
CENTER2
 62
     6
 10
20194.821393999991
 20
5913.9378269999979
 30
0.0
 11
20194.821393999991
 21
6951.0798639999966
 31
0.0
  0
CIRCLE
  5
3AC8
  8
0-5
  6
CONTINUOUS
 62
     4
 10
22762.321393999991
 20
4136.5904479999972
 30
0.0
 40
199.9999949999999
  0
CIRCLE
  5
3AC9
  8
0-5
  6
CONTINUOUS
 62
     4
 10
20194.821393999991
 20
4136.5904479999972
 30
0.0
 40
199.9999949999999
  0
TEXT
  5
3ACA
  8
0-5
  6
CONTINUOUS
 62
     7
 10
19576.645455000002
 20
6905.9504967419953
 30
0.0
 40
160.0
  1
(2131.5)
 50
90.0
 72
     4
 11
19496.645455000002
 21
7359.2838300753283
 31
0.0
  0
TEXT
  5
3ACB
  8
0-5
  6
CONTINUOUS
 62
     7
 10
22715.392946999989
 20
4050.0604939999939
 30
0.0
 40
160.0
  1
2
 72
     4
 11
22768.726280333321
 21
4130.0604939999939
 31
0.0
  0
TEXT
  5
3ACC
  8
0-5
  6
CONTINUOUS
 62
     7
 10
20147.888987999992
 20
4050.0604939999939
 30
0.0
 40
160.0
  1
1
 72
     4
 11
20174.555654666648
 21
4130.0604939999939
 31
0.0
  0
CIRCLE
  5
3ACD
  8
0-4
  6
CONTINUOUS
 62
     4
 10
21478.571393999991
 20
6662.6461909999962
 30
0.0
 40
18.487504999999981
  0
LINE
  5
3ACE
  8
SUNPOU
  6
CONTINUOUS
 10
19912.321393999991
 20
4976.5902500000002
 30
0.0
 11
19554.366387278878
 21
4976.5902500000002
 31
0.0
  0
LINE
  5
3ACF
  8
SUNPOU
  6
CONTINUOUS
 10
24911.325353
 20
4976.5902500000002
 30
0.0
 11
25269.280359721091
 21
4976.5902500000002
 31
0.0
  0
LINE
  5
3AD0
  8
0-5
  6
CONTINUOUS
 62
     4
 10
24671.321393999991
 20
4496.5901509999949
 30
0.0
 11
24671.321393999991
 21
4336.5901179999992
 31
0.0
  0
CIRCLE
  5
3AD1
  8
0-5
  6
CONTINUOUS
 62
     4
 10
24671.321393999991
 20
4136.5904479999972
 30
0.0
 40
199.9999949999999
  0
TEXT
  5
3AD2
  8
0-5
  6
CONTINUOUS
 62
     7
 10
24624.392946999989
 20
4050.0604939999939
 30
0.0
 40
160.0
  1
3
 72
     4
 11
24677.726280333321
 21
4130.0604939999939
 31
0.0
  0
TEXT
  5
3AD3
  8
2-0
  6
CONTINUOUS
 62
     7
 10
21093.787649999998
 20
3299.4686180000022
 30
0.0
 40
160.0
  1
正 面 立 面 図
 50
0.000139
 72
     4
 11
21739.120789250821
 21
3379.4701835833762
 31
0.0
  0
TEXT
  5
3AD4
  8
2-0
  6
CONTINUOUS
 62
     7
 10
23090.61297438843
 20
3326.6655525833762
 30
0.0
 40
160.0
  1
1
 72
     4
 11
23117.279641055098
 21
3406.6655525833762
 31
0.0
  0
TEXT
  5
3AD5
  8
2-0
  6
CONTINUOUS
 62
     7
 10
23333.701691639129
 20
3246.6670205833748
 30
0.0
 40
160.0
  1
80
 72
     4
 11
23453.701691639129
 21
3326.6670205833748
 31
0.0
  0
TEXT
  5
3AD6
  8
2-0
  6
CONTINUOUS
 62
     7
 10
22591.614940388441
 20
3299.4701835833762
 30
0.0
 40
160.0
  1
(S=  /   )
 72
     4
 11
23151.614940388441
 21
3379.4701835833762
 31
0.0
  0
LINE
  5
3AD7
  8
2-0
  6
CONTINUOUS
 62
     6
 10
22945.662477999991
 20
13065.229792
 30
0.0
 11
23945.655879999958
 21
13065.229792
 31
0.0
  0
LINE
  5
3AD8
  8
2-0
  6
CONTINUOUS
 62
     6
 10
24413.59625699999
 20
13535.650506
 30
0.0
 11
23945.655879999958
 21
13065.229792
 31
0.0
  0
LINE
  5
3AD9
  8
2-0
  6
CONTINUOUS
 62
     6
 10
22962.373573999968
 20
18094.849857000001
 30
0.0
 11
23980.34892199999
 21
18094.849857000001
 31
0.0
  0
LINE
  5
3ADA
  8
2-0
  6
CONTINUOUS
 62
     6
 10
24436.774439999968
 20
18319.564805999991
 30
0.0
 11
23980.34892199999
 21
18094.849857000001
 31
0.0
  0
LINE
  5
3ADB
  8
2-0
  6
CONTINUOUS
 62
     6
 10
24374.956053999991
 20
17077.75815300001
 30
0.0
 11
24070.260635999992
 21
17181.411684000021
 31
0.0
  0
LINE
  5
3ADC
  8
2-0
  6
CONTINUOUS
 62
     6
 10
24529.978092999962
 20
16588.136109000021
 30
0.0
 11
24070.260635999992
 21
16344.222798000001
 31
0.0
  0
LINE
  5
3ADD
  8
2-0
  6
CONTINUOUS
 62
     6
 10
23150.25760099999
 20
16344.222798000001
 30
0.0
 11
24070.260635999992
 21
16344.222798000001
 31
0.0
  0
LINE
  5
3ADE
  8
2-0
  6
CONTINUOUS
 62
     6
 10
22870.26657399999
 20
17181.411684000021
 30
0.0
 11
24070.260635999992
 21
17181.411684000021
 31
0.0
  0
LINE
  5
3ADF
  8
2-0
  6
CONTINUOUS
 62
     6
 10
24446.155377999981
 20
13857.334151999979
 30
0.0
 11
24070.260635999992
 21
14038.277986999999
 31
0.0
  0
LINE
  5
3AE0
  8
2-0
  6
CONTINUOUS
 62
     6
 10
22962.373573999968
 20
15177.087399
 30
0.0
 11
23980.34892199999
 21
15177.087399
 31
0.0
  0
LINE
  5
3AE1
  8
2-0
  6
CONTINUOUS
 62
     6
 10
23550.258919999989
 20
14038.277986999999
 30
0.0
 11
24070.260635999992
 21
14038.277986999999
 31
0.0
  0
LINE
  5
3AE2
  8
2-0
  6
CONTINUOUS
 62
     6
 10
24436.774439999968
 20
15401.800369000021
 30
0.0
 11
23980.34892199999
 21
15177.087399
 31
0.0
  0
LINE
  5
3AE3
  8
2-0
  6
CONTINUOUS
 62
     4
 10
22762.321393999991
 20
20014.231442000018
 30
0.0
 11
22762.321393999991
 21
20744.228406999999
 31
0.0
  0
LINE
  5
3AE4
  8
2-0
  6
CONTINUOUS
 62
     3
 10
24641.322053999971
 20
19825.228987999999
 30
0.0
 11
24641.322053999971
 21
19819.23302600002
 31
0.0
  0
LINE
  5
3AE5
  8
2-0
  6
CONTINUOUS
 62
     3
 10
24641.322053999971
 20
19819.23302600002
 30
0.0
 11
24671.319677999982
 21
19819.23302600002
 31
0.0
  0
LINE
  5
3AE6
  8
2-0
  6
CONTINUOUS
 62
     3
 10
24671.319677999982
 20
19849.23263000001
 30
0.0
 11
24590.317777999971
 21
19849.23263000001
 31
0.0
  0
LINE
  5
3AE7
  8
2-0
  6
CONTINUOUS
 62
     3
 10
24641.322053999971
 20
19808.935570000001
 30
0.0
 11
24671.319677999982
 21
19808.935570000001
 31
0.0
  0
LINE
  5
3AE8
  8
2-0
  6
CONTINUOUS
 62
     3
 10
24641.322053999971
 20
19826.93731200002
 30
0.0
 11
24641.322053999971
 21
19808.935570000001
 31
0.0
  0
LINE
  5
3AE9
  8
2-0
  6
CONTINUOUS
 62
     3
 10
24666.319414000001
 20
19826.93731200002
 30
0.0
 11
24641.322053999971
 21
19826.93731200002
 31
0.0
  0
LINE
  5
3AEA
  8
2-0
  6
CONTINUOUS
 62
     3
 10
24666.319414000001
 20
19821.929130000019
 30
0.0
 11
24666.319414000001
 21
19826.93731200002
 31
0.0
  0
LINE
  5
3AEB
  8
2-0
  6
CONTINUOUS
 62
     3
 10
24659.317856999998
 20
19821.929130000019
 30
0.0
 11
24666.319414000001
 21
19821.929130000019
 31
0.0
  0
LINE
  5
3AEC
  8
2-0
  6
CONTINUOUS
 62
     3
 10
24559.021588999982
 20
19922.229357000011
 30
0.0
 11
24559.021588999982
 21
19929.234873000001
 31
0.0
  0
LINE
  5
3AED
  8
2-0
  6
CONTINUOUS
 62
     3
 10
24559.021588999982
 20
19929.234873000001
 30
0.0
 11
24564.02185299998
 21
19929.234873000001
 31
0.0
  0
LINE
  5
3AEE
  8
2-0
  6
CONTINUOUS
 62
     3
 10
24564.02185299998
 20
19929.234873000001
 30
0.0
 11
24564.02185299998
 21
19904.22563600001
 31
0.0
  0
LINE
  5
3AEF
  8
2-0
  6
CONTINUOUS
 62
     3
 10
24564.02185299998
 20
19904.22563600001
 30
0.0
 11
24546.02011099998
 21
19904.22563600001
 31
0.0
  0
LINE
  5
3AF0
  8
2-0
  6
CONTINUOUS
 62
     3
 10
24546.02011099998
 20
19904.22563600001
 30
0.0
 11
24546.02011099998
 21
19934.229199000009
 31
0.0
  0
LINE
  5
3AF1
  8
2-0
  6
CONTINUOUS
 62
     3
 10
24556.317566999991
 20
19934.229199000009
 30
0.0
 11
24671.319677999982
 21
19934.229199000009
 31
0.0
  0
LINE
  5
3AF2
  8
2-0
  6
CONTINUOUS
 62
     3
 10
24556.317566999991
 20
19904.22563600001
 30
0.0
 11
24556.317566999991
 21
19934.229199000009
 31
0.0
  0
LINE
  5
3AF3
  8
2-0
  6
CONTINUOUS
 62
     3
 10
24562.31946699999
 20
19904.22563600001
 30
0.0
 11
24556.317566999991
 21
19904.22563600001
 31
0.0
  0
LINE
  5
3AF4
  8
2-0
  6
CONTINUOUS
 62
     3
 10
24659.317856999998
 20
19118.132307499989
 30
0.0
 11
24666.319414000001
 21
19118.132307499989
 31
0.0
  0
LINE
  5
3AF5
  8
2-0
  6
CONTINUOUS
 62
     3
 10
24666.319414000001
 20
19118.132307499989
 30
0.0
 11
24666.319414000001
 21
19123.132571499991
 31
0.0
  0
LINE
  5
3AF6
  8
2-0
  6
CONTINUOUS
 62
     3
 10
24666.319414000001
 20
19123.132571499991
 30
0.0
 11
24641.322053999971
 21
19123.132571499991
 31
0.0
  0
LINE
  5
3AF7
  8
2-0
  6
CONTINUOUS
 62
     3
 10
24641.322053999971
 20
19123.132571499991
 30
0.0
 11
24641.322053999971
 21
19105.1367675
 31
0.0
  0
LINE
  5
3AF8
  8
2-0
  6
CONTINUOUS
 62
     3
 10
24641.322053999971
 20
19105.1367675
 30
0.0
 11
24671.319677999982
 21
19105.1367675
 31
0.0
  0
LINE
  5
3AF9
  8
2-0
  6
CONTINUOUS
 62
     3
 10
24641.322053999971
 20
19121.22827449995
 30
0.0
 11
24641.322053999971
 21
19115.230333499989
 31
0.0
  0
LINE
  5
3AFA
  8
2-0
  6
CONTINUOUS
 62
     3
 10
24641.322053999971
 20
19115.230333499989
 30
0.0
 11
24671.319677999982
 21
19115.230333499989
 31
0.0
  0
LINE
  5
3AFB
  8
2-0
  6
CONTINUOUS
 62
     3
 10
24671.319677999982
 20
19115.230333499989
 30
0.0
 11
24671.319677999982
 21
19152.2314945
 31
0.0
  0
LINE
  5
3AFC
  8
2-0
  6
CONTINUOUS
 62
     3
 10
24641.322053999971
 20
19152.2314945
 30
0.0
 11
24671.319677999982
 21
19152.2314945
 31
0.0
  0
LINE
  5
3AFD
  8
2-0
  6
CONTINUOUS
 62
     3
 10
24641.322053999971
 20
19146.227614499981
 30
0.0
 11
24641.322053999971
 21
19152.2314945
 31
0.0
  0
LINE
  5
3AFE
  8
2-0
  6
CONTINUOUS
 62
     3
 10
24641.322053999971
 20
19162.327039499982
 30
0.0
 11
24671.319677999982
 21
19162.327039499982
 31
0.0
  0
LINE
  5
3AFF
  8
2-0
  6
CONTINUOUS
 62
     3
 10
24641.322053999971
 20
19144.3252975
 30
0.0
 11
24641.322053999971
 21
19162.327039499982
 31
0.0
  0
LINE
  5
3B00
  8
2-0
  6
CONTINUOUS
 62
     3
 10
24666.319414000001
 20
19144.3252975
 30
0.0
 11
24641.322053999971
 21
19144.3252975
 31
0.0
  0
LINE
  5
3B01
  8
2-0
  6
CONTINUOUS
 62
     3
 10
24666.319414000001
 20
19149.325561500002
 30
0.0
 11
24666.319414000001
 21
19144.3252975
 31
0.0
  0
LINE
  5
3B02
  8
2-0
  6
CONTINUOUS
 62
     3
 10
24659.317856999998
 20
19149.325561500002
 30
0.0
 11
24666.319414000001
 21
19149.325561500002
 31
0.0
  0
LINE
  5
3B03
  8
2-0
  6
CONTINUOUS
 62
     3
 10
24659.317856999998
 20
18417.131317999989
 30
0.0
 11
24666.319414000001
 21
18417.131317999989
 31
0.0
  0
LINE
  5
3B04
  8
2-0
  6
CONTINUOUS
 62
     3
 10
24666.319414000001
 20
18417.131317999989
 30
0.0
 11
24666.319414000001
 21
18422.13752
 31
0.0
  0
LINE
  5
3B05
  8
2-0
  6
CONTINUOUS
 62
     3
 10
24666.319414000001
 20
18422.13752
 30
0.0
 11
24641.322053999971
 21
18422.13752
 31
0.0
  0
LINE
  5
3B06
  8
2-0
  6
CONTINUOUS
 62
     3
 10
24641.322053999971
 20
18422.13752
 30
0.0
 11
24641.322053999971
 21
18404.135778
 31
0.0
  0
LINE
  5
3B07
  8
2-0
  6
CONTINUOUS
 62
     3
 10
24641.322053999971
 20
18404.135778
 30
0.0
 11
24671.319677999982
 21
18404.135778
 31
0.0
  0
LINE
  5
3B08
  8
2-0
  6
CONTINUOUS
 62
     3
 10
24641.322053999971
 20
18420.22728499999
 30
0.0
 11
24641.322053999971
 21
18414.231323
 31
0.0
  0
LINE
  5
3B09
  8
2-0
  6
CONTINUOUS
 62
     3
 10
24641.322053999971
 20
18414.231323
 30
0.0
 11
24671.319677999982
 21
18414.231323
 31
0.0
  0
LINE
  5
3B0A
  8
2-0
  6
CONTINUOUS
 62
     3
 10
24671.319677999982
 20
18414.231323
 30
0.0
 11
24671.319677999982
 21
18451.230504999989
 31
0.0
  0
LINE
  5
3B0B
  8
2-0
  6
CONTINUOUS
 62
     3
 10
24641.322053999971
 20
18451.230504999989
 30
0.0
 11
24671.319677999982
 21
18451.230504999989
 31
0.0
  0
LINE
  5
3B0C
  8
2-0
  6
CONTINUOUS
 62
     3
 10
24641.322053999971
 20
18445.23454300001
 30
0.0
 11
24641.322053999971
 21
18451.230504999989
 31
0.0
  0
LINE
  5
3B0D
  8
2-0
  6
CONTINUOUS
 62
     3
 10
24641.322053999971
 20
18461.32605
 30
0.0
 11
24671.319677999982
 21
18461.32605
 31
0.0
  0
LINE
  5
3B0E
  8
2-0
  6
CONTINUOUS
 62
     3
 10
24641.322053999971
 20
18443.324307999988
 30
0.0
 11
24641.322053999971
 21
18461.32605
 31
0.0
  0
LINE
  5
3B0F
  8
2-0
  6
CONTINUOUS
 62
     3
 10
24666.319414000001
 20
18443.324307999988
 30
0.0
 11
24641.322053999971
 21
18443.324307999988
 31
0.0
  0
LINE
  5
3B10
  8
2-0
  6
CONTINUOUS
 62
     3
 10
24666.319414000001
 20
18448.33051
 30
0.0
 11
24666.319414000001
 21
18443.324307999988
 31
0.0
  0
LINE
  5
3B11
  8
2-0
  6
CONTINUOUS
 62
     3
 10
24659.317856999998
 20
18448.33051
 30
0.0
 11
24666.319414000001
 21
18448.33051
 31
0.0
  0
LINE
  5
3B12
  8
2-0
  6
CONTINUOUS
 62
     3
 10
24659.317856999998
 20
17747.324572000001
 30
0.0
 11
24666.319414000001
 21
17747.324572000001
 31
0.0
  0
LINE
  5
3B13
  8
2-0
  6
CONTINUOUS
 62
     3
 10
24666.319414000001
 20
17747.324572000001
 30
0.0
 11
24666.319414000001
 21
17742.336185
 31
0.0
  0
LINE
  5
3B14
  8
2-0
  6
CONTINUOUS
 62
     3
 10
24666.319414000001
 20
17742.336185
 30
0.0
 11
24641.322053999971
 21
17742.336185
 31
0.0
  0
LINE
  5
3B15
  8
2-0
  6
CONTINUOUS
 62
     3
 10
24641.322053999971
 20
17742.336185
 30
0.0
 11
24641.322053999971
 21
17760.331988000002
 31
0.0
  0
LINE
  5
3B16
  8
2-0
  6
CONTINUOUS
 62
     3
 10
24641.322053999971
 20
17760.331988000002
 30
0.0
 11
24671.319677999982
 21
17760.331988000002
 31
0.0
  0
LINE
  5
3B17
  8
2-0
  6
CONTINUOUS
 62
     3
 10
24641.322053999971
 20
17744.234542999991
 30
0.0
 11
24641.322053999971
 21
17750.230504999989
 31
0.0
  0
LINE
  5
3B18
  8
2-0
  6
CONTINUOUS
 62
     3
 10
24641.322053999971
 20
17750.230504999989
 30
0.0
 11
24671.319677999982
 21
17750.230504999989
 31
0.0
  0
LINE
  5
3B19
  8
2-0
  6
CONTINUOUS
 62
     3
 10
24671.319677999982
 20
17750.230504999989
 30
0.0
 11
24671.319677999982
 21
17713.231323
 31
0.0
  0
LINE
  5
3B1A
  8
2-0
  6
CONTINUOUS
 62
     3
 10
24641.322053999971
 20
17713.231323
 30
0.0
 11
24671.319677999982
 21
17713.231323
 31
0.0
  0
LINE
  5
3B1B
  8
2-0
  6
CONTINUOUS
 62
     3
 10
24641.322053999971
 20
17719.233223999989
 30
0.0
 11
24641.322053999971
 21
17713.231323
 31
0.0
  0
LINE
  5
3B1C
  8
2-0
  6
CONTINUOUS
 62
     3
 10
24641.322053999971
 20
17703.141716999991
 30
0.0
 11
24671.319677999982
 21
17703.141716999991
 31
0.0
  0
LINE
  5
3B1D
  8
2-0
  6
CONTINUOUS
 62
     3
 10
24641.322053999971
 20
17721.13752
 30
0.0
 11
24641.322053999971
 21
17703.141716999991
 31
0.0
  0
LINE
  5
3B1E
  8
2-0
  6
CONTINUOUS
 62
     3
 10
24666.319414000001
 20
17721.13752
 30
0.0
 11
24641.322053999971
 21
17721.13752
 31
0.0
  0
LINE
  5
3B1F
  8
2-0
  6
CONTINUOUS
 62
     3
 10
24666.319414000001
 20
17716.137256999991
 30
0.0
 11
24666.319414000001
 21
17721.13752
 31
0.0
  0
LINE
  5
3B20
  8
2-0
  6
CONTINUOUS
 62
     3
 10
24659.317856999998
 20
17716.137256999991
 30
0.0
 11
24666.319414000001
 21
17716.137256999991
 31
0.0
  0
LINE
  5
3B21
  8
2-0
  6
CONTINUOUS
 62
     3
 10
24668.43353999998
 20
16996.228143
 30
0.0
 11
24668.43353999998
 21
17016.229198000001
 31
0.0
  0
LINE
  5
3B22
  8
2-0
  6
CONTINUOUS
 62
     3
 10
24668.43353999998
 20
17016.229198000001
 30
0.0
 11
24583.436970999988
 21
17016.229198000001
 31
0.0
  0
LINE
  5
3B23
  8
2-0
  6
CONTINUOUS
 62
     3
 10
24659.317856999998
 20
17042.835908000001
 30
0.0
 11
24666.319414000001
 21
17042.835908000001
 31
0.0
  0
LINE
  5
3B24
  8
2-0
  6
CONTINUOUS
 62
     3
 10
24666.319414000001
 20
17042.835908000001
 30
0.0
 11
24666.319414000001
 21
17037.841582000001
 31
0.0
  0
LINE
  5
3B25
  8
2-0
  6
CONTINUOUS
 62
     3
 10
24666.319414000001
 20
17037.841582000001
 30
0.0
 11
24641.322053999971
 21
17037.841582000001
 31
0.0
  0
LINE
  5
3B26
  8
2-0
  6
CONTINUOUS
 62
     3
 10
24641.322053999971
 20
17037.841582000001
 30
0.0
 11
24641.322053999971
 21
17055.83738600001
 31
0.0
  0
LINE
  5
3B27
  8
2-0
  6
CONTINUOUS
 62
     3
 10
24641.322053999971
 20
17055.83738600001
 30
0.0
 11
24671.319677999982
 21
17055.83738600001
 31
0.0
  0
LINE
  5
3B28
  8
2-0
  6
CONTINUOUS
 62
     3
 10
24641.322053999971
 20
17046.228802000001
 30
0.0
 11
24641.322053999971
 21
17040.226901999991
 31
0.0
  0
LINE
  5
3B29
  8
2-0
  6
CONTINUOUS
 62
     3
 10
24671.319677999982
 20
17046.228802000001
 30
0.0
 11
24641.322053999971
 21
17046.228802000001
 31
0.0
  0
LINE
  5
3B2A
  8
2-0
  6
CONTINUOUS
 62
     3
 10
24671.319677999982
 20
17055.83738600001
 30
0.0
 11
24671.319677999982
 21
17703.141716999991
 31
0.0
  0
LINE
  5
3B2B
  8
2-0
  6
CONTINUOUS
 62
     3
 10
24671.319677999982
 20
17760.331988000002
 30
0.0
 11
24671.319677999982
 21
18404.135778
 31
0.0
  0
LINE
  5
3B2C
  8
2-0
  6
CONTINUOUS
 62
     3
 10
24671.319677999982
 20
16901.22708700001
 30
0.0
 11
24641.322053999971
 21
16901.22708700001
 31
0.0
  0
LINE
  5
3B2D
  8
2-0
  6
CONTINUOUS
 62
     3
 10
24641.322053999971
 20
16901.22708700001
 30
0.0
 11
24641.322053999971
 21
16907.22898700001
 31
0.0
  0
LINE
  5
3B2E
  8
2-0
  6
CONTINUOUS
 62
     3
 10
24583.436970999988
 20
16931.232629999991
 30
0.0
 11
24668.43353999998
 21
16931.232629999991
 31
0.0
  0
LINE
  5
3B2F
  8
2-0
  6
CONTINUOUS
 62
     3
 10
24668.43353999998
 20
16931.232629999991
 30
0.0
 11
24668.43353999998
 21
16951.227747000012
 31
0.0
  0
LINE
  5
3B30
  8
2-0
  6
CONTINUOUS
 62
     3
 10
24641.322053999971
 20
16891.618503999998
 30
0.0
 11
24671.319677999982
 21
16891.618503999998
 31
0.0
  0
LINE
  5
3B31
  8
2-0
  6
CONTINUOUS
 62
     3
 10
24641.322053999971
 20
16909.614306999982
 30
0.0
 11
24641.322053999971
 21
16891.618503999998
 31
0.0
  0
LINE
  5
3B32
  8
2-0
  6
CONTINUOUS
 62
     3
 10
24666.319414000001
 20
16909.614306999982
 30
0.0
 11
24641.322053999971
 21
16909.614306999982
 31
0.0
  0
LINE
  5
3B33
  8
2-0
  6
CONTINUOUS
 62
     3
 10
24666.319414000001
 20
16904.614043000009
 30
0.0
 11
24666.319414000001
 21
16909.614306999982
 31
0.0
  0
LINE
  5
3B34
  8
2-0
  6
CONTINUOUS
 62
     3
 10
24659.317856999998
 20
16904.614043000009
 30
0.0
 11
24666.319414000001
 21
16904.614043000009
 31
0.0
  0
LINE
  5
3B35
  8
2-0
  6
CONTINUOUS
 62
     3
 10
24659.317856999998
 20
16200.131812499991
 30
0.0
 11
24666.319414000001
 21
16200.131812499991
 31
0.0
  0
LINE
  5
3B36
  8
2-0
  6
CONTINUOUS
 62
     3
 10
24666.319414000001
 20
16200.131812499991
 30
0.0
 11
24666.319414000001
 21
16205.13207649998
 31
0.0
  0
LINE
  5
3B37
  8
2-0
  6
CONTINUOUS
 62
     3
 10
24666.319414000001
 20
16205.13207649998
 30
0.0
 11
24641.322053999971
 21
16205.13207649998
 31
0.0
  0
LINE
  5
3B38
  8
2-0
  6
CONTINUOUS
 62
     3
 10
24641.322053999971
 20
16205.13207649998
 30
0.0
 11
24641.322053999971
 21
16187.130334499991
 31
0.0
  0
LINE
  5
3B39
  8
2-0
  6
CONTINUOUS
 62
     3
 10
24641.322053999971
 20
16187.130334499991
 30
0.0
 11
24671.319677999982
 21
16187.130334499991
 31
0.0
  0
LINE
  5
3B3A
  8
2-0
  6
CONTINUOUS
 62
     3
 10
24641.322053999971
 20
16203.227779500001
 30
0.0
 11
24641.322053999971
 21
16197.2308285
 31
0.0
  0
LINE
  5
3B3B
  8
2-0
  6
CONTINUOUS
 62
     3
 10
24641.322053999971
 20
16197.2308285
 30
0.0
 11
24671.319677999982
 21
16197.2308285
 31
0.0
  0
LINE
  5
3B3C
  8
2-0
  6
CONTINUOUS
 62
     3
 10
24671.319677999982
 20
16197.2308285
 30
0.0
 11
24671.319677999982
 21
16234.2309995
 31
0.0
  0
LINE
  5
3B3D
  8
2-0
  6
CONTINUOUS
 62
     3
 10
24641.322053999971
 20
16234.2309995
 30
0.0
 11
24671.319677999982
 21
16234.2309995
 31
0.0
  0
LINE
  5
3B3E
  8
2-0
  6
CONTINUOUS
 62
     3
 10
24641.322053999971
 20
16228.228109499991
 30
0.0
 11
24641.322053999971
 21
16234.2309995
 31
0.0
  0
LINE
  5
3B3F
  8
2-0
  6
CONTINUOUS
 62
     3
 10
24641.322053999971
 20
16244.3265445
 30
0.0
 11
24671.319677999982
 21
16244.3265445
 31
0.0
  0
LINE
  5
3B40
  8
2-0
  6
CONTINUOUS
 62
     3
 10
24641.322053999971
 20
16226.318863500001
 30
0.0
 11
24641.322053999971
 21
16244.3265445
 31
0.0
  0
LINE
  5
3B41
  8
2-0
  6
CONTINUOUS
 62
     3
 10
24666.319414000001
 20
16226.318863500001
 30
0.0
 11
24641.322053999971
 21
16226.318863500001
 31
0.0
  0
LINE
  5
3B42
  8
2-0
  6
CONTINUOUS
 62
     3
 10
24666.319414000001
 20
16231.3250665
 30
0.0
 11
24666.319414000001
 21
16226.318863500001
 31
0.0
  0
LINE
  5
3B43
  8
2-0
  6
CONTINUOUS
 62
     3
 10
24659.317856999998
 20
16231.3250665
 30
0.0
 11
24666.319414000001
 21
16231.3250665
 31
0.0
  0
LINE
  5
3B44
  8
2-0
  6
CONTINUOUS
 62
     3
 10
24659.317856999998
 20
15530.565083
 30
0.0
 11
24666.319414000001
 21
15530.565083
 31
0.0
  0
LINE
  5
3B45
  8
2-0
  6
CONTINUOUS
 62
     3
 10
24666.319414000001
 20
15530.565083
 30
0.0
 11
24666.319414000001
 21
15525.570758000011
 31
0.0
  0
LINE
  5
3B46
  8
2-0
  6
CONTINUOUS
 62
     3
 10
24666.319414000001
 20
15525.570758000011
 30
0.0
 11
24641.322053999971
 21
15525.570758000011
 31
0.0
  0
LINE
  5
3B47
  8
2-0
  6
CONTINUOUS
 62
     3
 10
24641.322053999971
 20
15525.570758000011
 30
0.0
 11
24641.322053999971
 21
15543.566561000011
 31
0.0
  0
LINE
  5
3B48
  8
2-0
  6
CONTINUOUS
 62
     3
 10
24641.322053999971
 20
15543.566561000011
 30
0.0
 11
24671.319677999982
 21
15543.566561000011
 31
0.0
  0
LINE
  5
3B49
  8
2-0
  6
CONTINUOUS
 62
     3
 10
24641.322053999971
 20
15527.469116
 30
0.0
 11
24641.322053999971
 21
15533.47101600001
 31
0.0
  0
LINE
  5
3B4A
  8
2-0
  6
CONTINUOUS
 62
     3
 10
24641.322053999971
 20
15533.47101600001
 30
0.0
 11
24671.319677999982
 21
15533.47101600001
 31
0.0
  0
LINE
  5
3B4B
  8
2-0
  6
CONTINUOUS
 62
     3
 10
24671.319677999982
 20
15496.471835
 30
0.0
 11
24671.319677999982
 21
15533.47101600001
 31
0.0
  0
LINE
  5
3B4C
  8
2-0
  6
CONTINUOUS
 62
     3
 10
24641.322053999971
 20
15496.471835
 30
0.0
 11
24671.319677999982
 21
15496.471835
 31
0.0
  0
LINE
  5
3B4D
  8
2-0
  6
CONTINUOUS
 62
     3
 10
24641.322053999971
 20
15502.46878600001
 30
0.0
 11
24641.322053999971
 21
15496.471835
 31
0.0
  0
LINE
  5
3B4E
  8
2-0
  6
CONTINUOUS
 62
     3
 10
24641.322053999971
 20
15486.370351
 30
0.0
 11
24671.319677999982
 21
15486.370351
 31
0.0
  0
LINE
  5
3B4F
  8
2-0
  6
CONTINUOUS
 62
     3
 10
24641.322053999971
 20
15504.378032000001
 30
0.0
 11
24641.322053999971
 21
15486.370351
 31
0.0
  0
LINE
  5
3B50
  8
2-0
  6
CONTINUOUS
 62
     3
 10
24666.319414000001
 20
15504.378032000001
 30
0.0
 11
24641.322053999971
 21
15504.378032000001
 31
0.0
  0
LINE
  5
3B51
  8
2-0
  6
CONTINUOUS
 62
     3
 10
24666.319414000001
 20
15499.377768000009
 30
0.0
 11
24666.319414000001
 21
15504.378032000001
 31
0.0
  0
LINE
  5
3B52
  8
2-0
  6
CONTINUOUS
 62
     3
 10
24659.317856999998
 20
15499.377768000009
 30
0.0
 11
24666.319414000001
 21
15499.377768000009
 31
0.0
  0
LINE
  5
3B53
  8
2-0
  6
CONTINUOUS
 62
     3
 10
24671.319677999982
 20
16891.618503999998
 30
0.0
 11
24671.319677999982
 21
16244.3265445
 31
0.0
  0
LINE
  5
3B54
  8
2-0
  6
CONTINUOUS
 62
     3
 10
24671.319677999982
 20
17046.228802000001
 30
0.0
 11
24671.319677999982
 21
16901.22708700001
 31
0.0
  0
LINE
  5
3B55
  8
2-0
  6
CONTINUOUS
 62
     3
 10
24583.436970999988
 20
17016.229198000001
 30
0.0
 11
24583.436970999988
 21
16931.232629999991
 31
0.0
  0
LINE
  5
3B56
  8
2-0
  6
CONTINUOUS
 62
     6
 10
23045.228303999971
 20
18784.676463499982
 30
0.0
 11
24070.260635999992
 21
18784.676463499982
 31
0.0
  0
LINE
  5
3B57
  8
2-0
  6
CONTINUOUS
 62
     3
 10
24659.317856999998
 20
14798.136761
 30
0.0
 11
24666.319414000001
 21
14798.136761
 31
0.0
  0
LINE
  5
3B58
  8
2-0
  6
CONTINUOUS
 62
     3
 10
24666.319414000001
 20
14798.136761
 30
0.0
 11
24666.319414000001
 21
14803.131087
 31
0.0
  0
LINE
  5
3B59
  8
2-0
  6
CONTINUOUS
 62
     3
 10
24666.319414000001
 20
14803.131087
 30
0.0
 11
24641.322053999971
 21
14803.131087
 31
0.0
  0
LINE
  5
3B5A
  8
2-0
  6
CONTINUOUS
 62
     3
 10
24641.322053999971
 20
14803.131087
 30
0.0
 11
24641.322053999971
 21
14785.135283
 31
0.0
  0
LINE
  5
3B5B
  8
2-0
  6
CONTINUOUS
 62
     3
 10
24641.322053999971
 20
14785.135283
 30
0.0
 11
24671.319677999982
 21
14785.135283
 31
0.0
  0
LINE
  5
3B5C
  8
2-0
  6
CONTINUOUS
 62
     3
 10
24641.322053999971
 20
14801.23371800001
 30
0.0
 11
24641.322053999971
 21
14795.230828000011
 31
0.0
  0
LINE
  5
3B5D
  8
2-0
  6
CONTINUOUS
 62
     3
 10
24641.322053999971
 20
14795.230828000011
 30
0.0
 11
24671.319677999982
 21
14795.230828000011
 31
0.0
  0
LINE
  5
3B5E
  8
2-0
  6
CONTINUOUS
 62
     3
 10
24671.319677999982
 20
14795.230828000011
 30
0.0
 11
24671.319677999982
 21
14832.230999999991
 31
0.0
  0
LINE
  5
3B5F
  8
2-0
  6
CONTINUOUS
 62
     3
 10
24641.322053999971
 20
14832.230999999991
 30
0.0
 11
24671.319677999982
 21
14832.230999999991
 31
0.0
  0
LINE
  5
3B60
  8
2-0
  6
CONTINUOUS
 62
     3
 10
24641.322053999971
 20
14826.23404799998
 30
0.0
 11
24641.322053999971
 21
14832.230999999991
 31
0.0
  0
LINE
  5
3B61
  8
2-0
  6
CONTINUOUS
 62
     3
 10
24641.322053999971
 20
14842.331493000011
 30
0.0
 11
24671.319677999982
 21
14842.331493000011
 31
0.0
  0
LINE
  5
3B62
  8
2-0
  6
CONTINUOUS
 62
     3
 10
24641.322053999971
 20
14824.32480200001
 30
0.0
 11
24641.322053999971
 21
14842.331493000011
 31
0.0
  0
LINE
  5
3B63
  8
2-0
  6
CONTINUOUS
 62
     3
 10
24666.319414000001
 20
14824.32480200001
 30
0.0
 11
24641.322053999971
 21
14824.32480200001
 31
0.0
  0
LINE
  5
3B64
  8
2-0
  6
CONTINUOUS
 62
     3
 10
24666.319414000001
 20
14829.33001500001
 30
0.0
 11
24666.319414000001
 21
14824.32480200001
 31
0.0
  0
LINE
  5
3B65
  8
2-0
  6
CONTINUOUS
 62
     3
 10
24659.317856999998
 20
14829.33001500001
 30
0.0
 11
24666.319414000001
 21
14829.33001500001
 31
0.0
  0
LINE
  5
3B66
  8
2-0
  6
CONTINUOUS
 62
     3
 10
24641.322053999971
 20
13771.73284099999
 30
0.0
 11
24641.322053999971
 21
13777.73770999999
 31
0.0
  0
LINE
  5
3B67
  8
2-0
  6
CONTINUOUS
 62
     3
 10
24641.322053999971
 20
13777.73770999999
 30
0.0
 11
24671.319677999982
 21
13777.73770999999
 31
0.0
  0
LINE
  5
3B68
  8
2-0
  6
CONTINUOUS
 62
     3
 10
24671.319677999982
 20
13777.73770999999
 30
0.0
 11
24671.319677999982
 21
13662.733619000001
 31
0.0
  0
LINE
  5
3B69
  8
2-0
  6
CONTINUOUS
 62
     3
 10
24671.319677999982
 20
13662.733619000001
 30
0.0
 11
24586.321129999978
 21
13662.733619000001
 31
0.0
  0
LINE
  5
3B6A
  8
2-0
  6
CONTINUOUS
 62
     3
 10
24586.321129999978
 20
13662.733619000001
 30
0.0
 11
24586.321129999978
 21
13747.729198000001
 31
0.0
  0
LINE
  5
3B6B
  8
2-0
  6
CONTINUOUS
 62
     3
 10
24586.321129999978
 20
13747.729198000001
 30
0.0
 11
24618.32004799999
 21
13747.729198000001
 31
0.0
  0
LINE
  5
3B6C
  8
2-0
  6
CONTINUOUS
 62
     3
 10
24659.317856999998
 20
13774.767443000001
 30
0.0
 11
24666.319414000001
 21
13774.767443000001
 31
0.0
  0
LINE
  5
3B6D
  8
2-0
  6
CONTINUOUS
 62
     3
 10
24666.319414000001
 20
13774.767443000001
 30
0.0
 11
24666.319414000001
 21
13769.77014799998
 31
0.0
  0
LINE
  5
3B6E
  8
2-0
  6
CONTINUOUS
 62
     3
 10
24666.319414000001
 20
13769.77014799998
 30
0.0
 11
24641.322053999971
 21
13769.77014799998
 31
0.0
  0
LINE
  5
3B6F
  8
2-0
  6
CONTINUOUS
 62
     3
 10
24641.322053999971
 20
13769.77014799998
 30
0.0
 11
24641.322053999971
 21
13787.768921000001
 31
0.0
  0
LINE
  5
3B70
  8
2-0
  6
CONTINUOUS
 62
     3
 10
24641.322053999971
 20
13787.768921000001
 30
0.0
 11
24671.319677999982
 21
13787.768921000001
 31
0.0
  0
LINE
  5
3B71
  8
2-0
  6
CENTER2
 62
     6
 10
24628.821393999991
 20
13465.236060999991
 30
0.0
 11
24628.821393999991
 21
14971.60481900002
 31
0.0
  0
LINE
  5
3B72
  8
2-0
  6
CONTINUOUS
 62
     3
 10
24671.319677999982
 20
18461.32605
 30
0.0
 11
24671.319677999982
 21
19105.1367675
 31
0.0
  0
LINE
  5
3B73
  8
2-0
  6
CONTINUOUS
 62
     6
 10
25363.82456099999
 20
20664.232102000031
 30
0.0
 11
26563.81862299997
 21
20664.232102000031
 31
0.0
  0
LINE
  5
3B74
  8
2-0
  6
CONTINUOUS
 62
     3
 10
22834.823241999991
 20
19934.229199000009
 30
0.0
 11
22834.823241999991
 21
19904.22563600001
 31
0.0
  0
LINE
  5
3B75
  8
2-0
  6
CONTINUOUS
 62
     3
 10
22834.823241999991
 20
19904.22563600001
 30
0.0
 11
22828.82529999996
 21
19904.22563600001
 31
0.0
  0
LINE
  5
3B76
  8
2-0
  6
CONTINUOUS
 62
     3
 10
22844.439742999992
 20
19904.22563600001
 30
0.0
 11
22844.439742999992
 21
19934.229199000009
 31
0.0
  0
LINE
  5
3B77
  8
2-0
  6
CONTINUOUS
 62
     3
 10
22826.438000999991
 20
19904.22563600001
 30
0.0
 11
22844.439742999992
 21
19904.22563600001
 31
0.0
  0
LINE
  5
3B78
  8
2-0
  6
CONTINUOUS
 62
     3
 10
22826.438000999991
 20
19929.234873000001
 30
0.0
 11
22826.438000999991
 21
19904.22563600001
 31
0.0
  0
LINE
  5
3B79
  8
2-0
  6
CONTINUOUS
 62
     3
 10
22831.438265000001
 20
19929.234873000001
 30
0.0
 11
22826.438000999991
 21
19929.234873000001
 31
0.0
  0
LINE
  5
3B7A
  8
2-0
  6
CONTINUOUS
 62
     3
 10
22831.438265000001
 20
19922.229357000011
 30
0.0
 11
22831.438265000001
 21
19929.234873000001
 31
0.0
  0
LINE
  5
3B7B
  8
2-0
  6
CONTINUOUS
 62
     3
 10
22804.821658000001
 20
19931.337122000001
 30
0.0
 11
22804.821658000001
 21
19846.338574000009
 31
0.0
  0
LINE
  5
3B7C
  8
2-0
  6
CONTINUOUS
 62
     3
 10
22784.824561000001
 20
19931.337122000001
 30
0.0
 11
22804.821658000001
 21
19931.337122000001
 31
0.0
  0
LINE
  5
3B7D
  8
2-0
  6
CONTINUOUS
 62
     3
 10
22693.210461999988
 20
19922.229357000011
 30
0.0
 11
22693.210461999988
 21
19929.234873000001
 31
0.0
  0
LINE
  5
3B7E
  8
2-0
  6
CONTINUOUS
 62
     3
 10
22693.210461999988
 20
19929.234873000001
 30
0.0
 11
22698.21072599999
 21
19929.234873000001
 31
0.0
  0
LINE
  5
3B7F
  8
2-0
  6
CONTINUOUS
 62
     3
 10
22698.21072599999
 20
19929.234873000001
 30
0.0
 11
22698.21072599999
 21
19904.22563600001
 31
0.0
  0
LINE
  5
3B80
  8
2-0
  6
CONTINUOUS
 62
     3
 10
22698.21072599999
 20
19904.22563600001
 30
0.0
 11
22680.20898399999
 21
19904.22563600001
 31
0.0
  0
LINE
  5
3B81
  8
2-0
  6
CONTINUOUS
 62
     3
 10
22680.20898399999
 20
19904.22563600001
 30
0.0
 11
22680.20898399999
 21
19934.229199000009
 31
0.0
  0
LINE
  5
3B82
  8
2-0
  6
CONTINUOUS
 62
     3
 10
22719.829047999981
 20
19931.337122000001
 30
0.0
 11
22739.824165000002
 21
19931.337122000001
 31
0.0
  0
LINE
  5
3B83
  8
2-0
  6
CONTINUOUS
 62
     3
 10
22719.829047999981
 20
19846.338574000009
 30
0.0
 11
22719.829047999981
 21
19931.337122000001
 31
0.0
  0
LINE
  5
3B84
  8
2-0
  6
CONTINUOUS
 62
     3
 10
22689.831424000011
 20
19904.22563600001
 30
0.0
 11
22695.82738499999
 21
19904.22563600001
 31
0.0
  0
LINE
  5
3B85
  8
2-0
  6
CONTINUOUS
 62
     3
 10
22689.831424000011
 20
19934.229199000009
 30
0.0
 11
22689.831424000011
 21
19904.22563600001
 31
0.0
  0
LINE
  5
3B86
  8
2-0
  6
CONTINUOUS
 62
     3
 10
22804.821658000001
 20
19846.338574000009
 30
0.0
 11
22719.829047999981
 21
19846.338574000009
 31
0.0
  0
LINE
  5
3B87
  8
2-0
  6
CONTINUOUS
 62
     3
 10
22834.823241999991
 20
19934.229199000009
 30
0.0
 11
22689.831424000011
 21
19934.229199000009
 31
0.0
  0
LINE
  5
3B88
  8
2-0
  6
CONTINUOUS
 62
     6
 10
24501.791727999971
 20
19026.830971499989
 30
0.0
 11
24070.260635999992
 21
18784.676463499982
 31
0.0
  0
LINE
  5
3B89
  8
2-0
  6
CONTINUOUS
 62
     6
 10
24823.360561999962
 20
20076.908939000012
 30
0.0
 11
25363.82456099999
 21
20664.232102000031
 31
0.0
  0
LINE
  5
3B8A
  8
2-0
  6
CONTINUOUS
 62
     3
 10
24580.315270999981
 20
18390.22965999999
 30
0.0
 11
24627.32091899998
 21
18390.22965999999
 31
0.0
  0
LINE
  5
3B8B
  8
2-0
  6
CONTINUOUS
 62
     3
 10
24627.32091899998
 20
18475.230188000001
 30
0.0
 11
24580.315270999981
 21
18475.230188000001
 31
0.0
  0
LINE
  5
3B8C
  8
2-0
  6
CONTINUOUS
 62
     3
 10
24627.32091899998
 20
18390.22965999999
 30
0.0
 11
24627.32091899998
 21
18415.232959000001
 31
0.0
  0
LINE
  5
3B8D
  8
2-0
  6
CONTINUOUS
 62
     3
 10
24627.32091899998
 20
18450.228867999991
 30
0.0
 11
24627.32091899998
 21
18475.230188000001
 31
0.0
  0
LINE
  5
3B8E
  8
2-0
  6
CONTINUOUS
 62
     3
 10
24580.315270999981
 20
18475.230188000001
 30
0.0
 11
24580.315270999981
 21
18390.22965999999
 31
0.0
  0
LINE
  5
3B8F
  8
2-0
  6
CONTINUOUS
 62
     3
 10
24671.319677999982
 20
16187.130334499991
 30
0.0
 11
24671.319677999982
 21
15543.566561000011
 31
0.0
  0
LINE
  5
3B90
  8
2-0
  6
CONTINUOUS
 62
     3
 10
24580.315270999981
 20
15472.23263000001
 30
0.0
 11
24627.32091899998
 21
15472.23263000001
 31
0.0
  0
LINE
  5
3B91
  8
2-0
  6
CONTINUOUS
 62
     3
 10
24627.32091899998
 20
15557.22919799999
 30
0.0
 11
24580.315270999981
 21
15557.22919799999
 31
0.0
  0
LINE
  5
3B92
  8
2-0
  6
CONTINUOUS
 62
     3
 10
24627.32091899998
 20
15472.23263000001
 30
0.0
 11
24627.32091899998
 21
15497.22801100001
 31
0.0
  0
LINE
  5
3B93
  8
2-0
  6
CONTINUOUS
 62
     3
 10
24627.32091899998
 20
15532.227879
 30
0.0
 11
24627.32091899998
 21
15557.22919799999
 31
0.0
  0
LINE
  5
3B94
  8
2-0
  6
CONTINUOUS
 62
     3
 10
24580.315270999981
 20
15557.22919799999
 30
0.0
 11
24580.315270999981
 21
15472.23263000001
 31
0.0
  0
LINE
  5
3B95
  8
2-0
  6
CONTINUOUS
 62
     6
 10
24488.734822999992
 20
19050.090315500001
 30
0.0
 11
24641.322053999971
 21
19105.1367675
 31
0.0
  0
LINE
  5
3B96
  8
2-0
  6
CONTINUOUS
 62
     6
 10
24641.322053999971
 20
19105.1367675
 30
0.0
 11
24514.840713999991
 21
19003.57756749999
 31
0.0
  0
LINE
  5
3B97
  8
2-0
  6
CONTINUOUS
 62
     6
 10
24488.734822999992
 20
19050.090315500001
 30
0.0
 11
24514.840713999991
 21
19003.57756749999
 31
0.0
  0
LINE
  5
3B98
  8
2-0
  6
CONTINUOUS
 62
     6
 10
24514.840713999991
 20
19003.57756749999
 30
0.0
 11
24641.322053999971
 21
19105.1367675
 31
0.0
  0
LINE
  5
3B99
  8
2-0
  6
CONTINUOUS
 62
     6
 10
24641.322053999971
 20
19105.1367675
 30
0.0
 11
24488.734822999992
 21
19050.090315500001
 31
0.0
  0
LINE
  5
3B9A
  8
2-0
  6
CONTINUOUS
 62
     6
 10
24488.734822999992
 20
19050.090315500001
 30
0.0
 11
24641.322053999971
 21
19105.1367675
 31
0.0
  0
LINE
  5
3B9B
  8
2-0
  6
CONTINUOUS
 62
     6
 10
24514.840713999991
 20
19003.57756749999
 30
0.0
 11
24641.322053999971
 21
19105.1367675
 31
0.0
  0
LINE
  5
3B9C
  8
2-0
  6
CONTINUOUS
 62
     6
 10
24514.840713999991
 20
19003.57756749999
 30
0.0
 11
24488.734822999992
 21
19050.090315500001
 31
0.0
  0
LINE
  5
3B9D
  8
2-0
  6
CONTINUOUS
 62
     6
 10
24842.977590999992
 20
20058.847812000022
 30
0.0
 11
24715.015570999982
 21
19959.165194000008
 31
0.0
  0
LINE
  5
3B9E
  8
2-0
  6
CONTINUOUS
 62
     6
 10
24715.015570999982
 20
19959.165194000008
 30
0.0
 11
24803.729675999992
 21
20094.962149000021
 31
0.0
  0
LINE
  5
3B9F
  8
2-0
  6
CONTINUOUS
 62
     6
 10
24842.977590999992
 20
20058.847812000022
 30
0.0
 11
24803.729675999992
 21
20094.962149000021
 31
0.0
  0
LINE
  5
3BA0
  8
2-0
  6
CONTINUOUS
 62
     6
 10
24803.729675999992
 20
20094.962149000021
 30
0.0
 11
24715.015570999982
 21
19959.165194000008
 31
0.0
  0
LINE
  5
3BA1
  8
2-0
  6
CONTINUOUS
 62
     6
 10
24715.015570999982
 20
19959.165194000008
 30
0.0
 11
24842.977590999992
 21
20058.847812000022
 31
0.0
  0
LINE
  5
3BA2
  8
2-0
  6
CONTINUOUS
 62
     6
 10
24842.977590999992
 20
20058.847812000022
 30
0.0
 11
24715.015570999982
 21
19959.165194000008
 31
0.0
  0
LINE
  5
3BA3
  8
2-0
  6
CONTINUOUS
 62
     6
 10
24803.729675999992
 20
20094.962149000021
 30
0.0
 11
24715.015570999982
 21
19959.165194000008
 31
0.0
  0
LINE
  5
3BA4
  8
2-0
  6
CONTINUOUS
 62
     6
 10
24803.729675999992
 20
20094.962149000021
 30
0.0
 11
24842.977590999992
 21
20058.847812000022
 31
0.0
  0
LINE
  5
3BA5
  8
2-0
  6
CONTINUOUS
 62
     4
 10
22762.321393999991
 20
20014.231442000018
 30
0.0
 11
22762.321393999991
 21
20744.228406999999
 31
0.0
  0
LINE
  5
3BA6
  8
2-0
  6
CONTINUOUS
 62
     6
 10
24424.996303999971
 20
15425.725820000011
 30
0.0
 11
24580.315270999981
 21
15472.473141
 31
0.0
  0
LINE
  5
3BA7
  8
2-0
  6
CONTINUOUS
 62
     6
 10
24580.315270999981
 20
15472.473141
 30
0.0
 11
24448.554554999981
 21
15377.880856000011
 31
0.0
  0
LINE
  5
3BA8
  8
2-0
  6
CONTINUOUS
 62
     6
 10
24424.996303999971
 20
15425.725820000011
 30
0.0
 11
24448.554554999981
 21
15377.880856000011
 31
0.0
  0
LINE
  5
3BA9
  8
2-0
  6
CONTINUOUS
 62
     6
 10
24448.554554999981
 20
15377.880856000011
 30
0.0
 11
24580.315270999981
 21
15472.473141
 31
0.0
  0
LINE
  5
3BAA
  8
2-0
  6
CONTINUOUS
 62
     6
 10
24580.315270999981
 20
15472.473141
 30
0.0
 11
24424.996303999971
 21
15425.725820000011
 31
0.0
  0
LINE
  5
3BAB
  8
2-0
  6
CONTINUOUS
 62
     6
 10
24424.996303999971
 20
15425.725820000011
 30
0.0
 11
24580.315270999981
 21
15472.473141
 31
0.0
  0
LINE
  5
3BAC
  8
2-0
  6
CONTINUOUS
 62
     6
 10
24448.554554999981
 20
15377.880856000011
 30
0.0
 11
24580.315270999981
 21
15472.473141
 31
0.0
  0
LINE
  5
3BAD
  8
2-0
  6
CONTINUOUS
 62
     6
 10
24448.554554999981
 20
15377.880856000011
 30
0.0
 11
24424.996303999971
 21
15425.725820000011
 31
0.0
  0
LINE
  5
3BAE
  8
2-0
  6
CONTINUOUS
 62
     6
 10
24394.68195699999
 20
13554.46088099999
 30
0.0
 11
24526.428815999981
 21
13649.087808
 31
0.0
  0
LINE
  5
3BAF
  8
2-0
  6
CONTINUOUS
 62
     6
 10
24526.428815999981
 20
13649.087808
 30
0.0
 11
24432.49867999999
 21
13516.84903799998
 31
0.0
  0
LINE
  5
3BB0
  8
2-0
  6
CONTINUOUS
 62
     6
 10
24394.68195699999
 20
13554.46088099999
 30
0.0
 11
24432.49867999999
 21
13516.84903799998
 31
0.0
  0
LINE
  5
3BB1
  8
2-0
  6
CONTINUOUS
 62
     6
 10
24432.49867999999
 20
13516.84903799998
 30
0.0
 11
24526.428815999981
 21
13649.087808
 31
0.0
  0
LINE
  5
3BB2
  8
2-0
  6
CONTINUOUS
 62
     6
 10
24526.428815999981
 20
13649.087808
 30
0.0
 11
24394.68195699999
 21
13554.46088099999
 31
0.0
  0
LINE
  5
3BB3
  8
2-0
  6
CONTINUOUS
 62
     6
 10
24394.68195699999
 20
13554.46088099999
 30
0.0
 11
24526.428815999981
 21
13649.087808
 31
0.0
  0
LINE
  5
3BB4
  8
2-0
  6
CONTINUOUS
 62
     6
 10
24432.49867999999
 20
13516.84903799998
 30
0.0
 11
24526.428815999981
 21
13649.087808
 31
0.0
  0
LINE
  5
3BB5
  8
2-0
  6
CONTINUOUS
 62
     6
 10
24432.49867999999
 20
13516.84903799998
 30
0.0
 11
24394.68195699999
 21
13554.46088099999
 31
0.0
  0
LINE
  5
3BB6
  8
2-0
  6
CONTINUOUS
 62
     6
 10
24457.717745999991
 20
13881.365507999981
 30
0.0
 11
24590.317777999971
 21
13787.937179999981
 31
0.0
  0
LINE
  5
3BB7
  8
2-0
  6
CONTINUOUS
 62
     6
 10
24590.317777999971
 20
13787.937179999981
 30
0.0
 11
24434.58509199999
 21
13833.312694
 31
0.0
  0
LINE
  5
3BB8
  8
2-0
  6
CONTINUOUS
 62
     6
 10
24457.717745999991
 20
13881.365507999981
 30
0.0
 11
24434.58509199999
 21
13833.312694
 31
0.0
  0
LINE
  5
3BB9
  8
2-0
  6
CONTINUOUS
 62
     6
 10
24434.58509199999
 20
13833.312694
 30
0.0
 11
24590.317777999971
 21
13787.937179999981
 31
0.0
  0
LINE
  5
3BBA
  8
2-0
  6
CONTINUOUS
 62
     6
 10
24590.317777999971
 20
13787.937179999981
 30
0.0
 11
24457.717745999991
 21
13881.365507999981
 31
0.0
  0
LINE
  5
3BBB
  8
2-0
  6
CONTINUOUS
 62
     6
 10
24457.717745999991
 20
13881.365507999981
 30
0.0
 11
24590.317777999971
 21
13787.937179999981
 31
0.0
  0
LINE
  5
3BBC
  8
2-0
  6
CONTINUOUS
 62
     6
 10
24434.58509199999
 20
13833.312694
 30
0.0
 11
24590.317777999971
 21
13787.937179999981
 31
0.0
  0
LINE
  5
3BBD
  8
2-0
  6
CONTINUOUS
 62
     6
 10
24434.58509199999
 20
13833.312694
 30
0.0
 11
24457.717745999991
 21
13881.365507999981
 31
0.0
  0
LINE
  5
3BBE
  8
2-0
  6
CONTINUOUS
 62
     6
 10
24517.481391999991
 20
16611.686441000009
 30
0.0
 11
24671.319677999982
 21
16663.120272000011
 31
0.0
  0
LINE
  5
3BBF
  8
2-0
  6
CONTINUOUS
 62
     6
 10
24671.319677999982
 20
16663.120272000011
 30
0.0
 11
24542.48469099998
 21
16564.579837000008
 31
0.0
  0
LINE
  5
3BC0
  8
2-0
  6
CONTINUOUS
 62
     6
 10
24517.481391999991
 20
16611.686441000009
 30
0.0
 11
24542.48469099998
 21
16564.579837000008
 31
0.0
  0
LINE
  5
3BC1
  8
2-0
  6
CONTINUOUS
 62
     6
 10
24542.48469099998
 20
16564.579837000008
 30
0.0
 11
24671.319677999982
 21
16663.120272000011
 31
0.0
  0
LINE
  5
3BC2
  8
2-0
  6
CONTINUOUS
 62
     6
 10
24671.319677999982
 20
16663.120272000011
 30
0.0
 11
24517.481391999991
 21
16611.686441000009
 31
0.0
  0
LINE
  5
3BC3
  8
2-0
  6
CONTINUOUS
 62
     6
 10
24517.481391999991
 20
16611.686441000009
 30
0.0
 11
24671.319677999982
 21
16663.120272000011
 31
0.0
  0
LINE
  5
3BC4
  8
2-0
  6
CONTINUOUS
 62
     6
 10
24542.48469099998
 20
16564.579837000008
 30
0.0
 11
24671.319677999982
 21
16663.120272000011
 31
0.0
  0
LINE
  5
3BC5
  8
2-0
  6
CONTINUOUS
 62
     6
 10
24542.48469099998
 20
16564.579837000008
 30
0.0
 11
24517.481391999991
 21
16611.686441000009
 31
0.0
  0
LINE
  5
3BC6
  8
2-0
  6
CONTINUOUS
 62
     6
 10
24383.545184999992
 20
17103.004933000011
 30
0.0
 11
24526.428815999981
 21
17026.229304000011
 31
0.0
  0
LINE
  5
3BC7
  8
2-0
  6
CONTINUOUS
 62
     6
 10
24526.428815999981
 20
17026.229304000011
 30
0.0
 11
24366.36692299999
 21
17052.511373000019
 31
0.0
  0
LINE
  5
3BC8
  8
2-0
  6
CONTINUOUS
 62
     6
 10
24383.545184999992
 20
17103.004933000011
 30
0.0
 11
24366.36692299999
 21
17052.511373000019
 31
0.0
  0
LINE
  5
3BC9
  8
2-0
  6
CONTINUOUS
 62
     6
 10
24366.36692299999
 20
17052.511373000019
 30
0.0
 11
24526.428815999981
 21
17026.229304000011
 31
0.0
  0
LINE
  5
3BCA
  8
2-0
  6
CONTINUOUS
 62
     6
 10
24526.428815999981
 20
17026.229304000011
 30
0.0
 11
24383.545184999992
 21
17103.004933000011
 31
0.0
  0
LINE
  5
3BCB
  8
2-0
  6
CONTINUOUS
 62
     6
 10
24383.545184999992
 20
17103.004933000011
 30
0.0
 11
24526.428815999981
 21
17026.229304000011
 31
0.0
  0
LINE
  5
3BCC
  8
2-0
  6
CONTINUOUS
 62
     6
 10
24366.36692299999
 20
17052.511373000019
 30
0.0
 11
24526.428815999981
 21
17026.229304000011
 31
0.0
  0
LINE
  5
3BCD
  8
2-0
  6
CONTINUOUS
 62
     6
 10
24366.36692299999
 20
17052.511373000019
 30
0.0
 11
24383.545184999992
 21
17103.004933000011
 31
0.0
  0
LINE
  5
3BCE
  8
2-0
  6
CONTINUOUS
 62
     6
 10
24424.996303999971
 20
18343.485307999988
 30
0.0
 11
24580.315270999981
 21
18390.22965999999
 31
0.0
  0
LINE
  5
3BCF
  8
2-0
  6
CONTINUOUS
 62
     6
 10
24580.315270999981
 20
18390.22965999999
 30
0.0
 11
24448.554554999981
 21
18295.634406000008
 31
0.0
  0
LINE
  5
3BD0
  8
2-0
  6
CONTINUOUS
 62
     6
 10
24424.996303999971
 20
18343.485307999988
 30
0.0
 11
24448.554554999981
 21
18295.634406000008
 31
0.0
  0
LINE
  5
3BD1
  8
2-0
  6
CONTINUOUS
 62
     6
 10
24448.554554999981
 20
18295.634406000008
 30
0.0
 11
24580.315270999981
 21
18390.22965999999
 31
0.0
  0
LINE
  5
3BD2
  8
2-0
  6
CONTINUOUS
 62
     6
 10
24580.315270999981
 20
18390.22965999999
 30
0.0
 11
24424.996303999971
 21
18343.485307999988
 31
0.0
  0
LINE
  5
3BD3
  8
2-0
  6
CONTINUOUS
 62
     6
 10
24424.996303999971
 20
18343.485307999988
 30
0.0
 11
24580.315270999981
 21
18390.22965999999
 31
0.0
  0
LINE
  5
3BD4
  8
2-0
  6
CONTINUOUS
 62
     6
 10
24448.554554999981
 20
18295.634406000008
 30
0.0
 11
24580.315270999981
 21
18390.22965999999
 31
0.0
  0
LINE
  5
3BD5
  8
2-0
  6
CONTINUOUS
 62
     6
 10
24448.554554999981
 20
18295.634406000008
 30
0.0
 11
24424.996303999971
 21
18343.485307999988
 31
0.0
  0
LINE
  5
3BD6
  8
2-0
  6
CONTINUOUS
 62
     3
 10
22022.82197499997
 20
19934.229199000009
 30
0.0
 11
21985.820812999991
 21
19934.229199000009
 31
0.0
  0
LINE
  5
3BD7
  8
2-0
  6
CONTINUOUS
 62
     3
 10
22022.82197499997
 20
19904.22563600001
 30
0.0
 11
22022.82197499997
 21
19934.229199000009
 31
0.0
  0
LINE
  5
3BD8
  8
2-0
  6
CONTINUOUS
 62
     3
 10
22016.82205399996
 20
19904.22563600001
 30
0.0
 11
22022.82197499997
 21
19904.22563600001
 31
0.0
  0
LINE
  5
3BD9
  8
2-0
  6
CONTINUOUS
 62
     3
 10
22032.919498999981
 20
19904.22563600001
 30
0.0
 11
22032.919498999981
 21
19934.229199000009
 31
0.0
  0
LINE
  5
3BDA
  8
2-0
  6
CONTINUOUS
 62
     3
 10
22014.915777999991
 20
19904.22563600001
 30
0.0
 11
22032.919498999981
 21
19904.22563600001
 31
0.0
  0
LINE
  5
3BDB
  8
2-0
  6
CONTINUOUS
 62
     3
 10
22014.915777999991
 20
19929.234873000001
 30
0.0
 11
22014.915777999991
 21
19904.22563600001
 31
0.0
  0
LINE
  5
3BDC
  8
2-0
  6
CONTINUOUS
 62
     3
 10
22019.916041999979
 20
19929.234873000001
 30
0.0
 11
22014.915777999991
 21
19929.234873000001
 31
0.0
  0
LINE
  5
3BDD
  8
2-0
  6
CONTINUOUS
 62
     3
 10
22019.916041999979
 20
19922.229357000011
 30
0.0
 11
22019.916041999979
 21
19929.234873000001
 31
0.0
  0
LINE
  5
3BDE
  8
2-0
  6
CONTINUOUS
 62
     3
 10
21988.726746999972
 20
19922.229357000011
 30
0.0
 11
21988.726746999972
 21
19929.234873000001
 31
0.0
  0
LINE
  5
3BDF
  8
2-0
  6
CONTINUOUS
 62
     3
 10
21988.726746999972
 20
19929.234873000001
 30
0.0
 11
21993.727010999992
 21
19929.234873000001
 31
0.0
  0
LINE
  5
3BE0
  8
2-0
  6
CONTINUOUS
 62
     3
 10
21993.727010999992
 20
19929.234873000001
 30
0.0
 11
21993.727010999992
 21
19904.22563600001
 31
0.0
  0
LINE
  5
3BE1
  8
2-0
  6
CONTINUOUS
 62
     3
 10
21993.727010999992
 20
19904.22563600001
 30
0.0
 11
21975.727247999981
 21
19904.22563600001
 31
0.0
  0
LINE
  5
3BE2
  8
2-0
  6
CONTINUOUS
 62
     3
 10
21975.727247999981
 20
19904.22563600001
 30
0.0
 11
21975.727247999981
 21
19934.229199000009
 31
0.0
  0
LINE
  5
3BE3
  8
2-0
  6
CONTINUOUS
 62
     3
 10
21991.820733999979
 20
19904.22563600001
 30
0.0
 11
21985.820812999991
 21
19904.22563600001
 31
0.0
  0
LINE
  5
3BE4
  8
2-0
  6
CONTINUOUS
 62
     3
 10
21985.820812999991
 20
19904.22563600001
 30
0.0
 11
21985.820812999991
 21
19934.229199000009
 31
0.0
  0
LINE
  5
3BE5
  8
2-0
  6
CONTINUOUS
 62
     3
 10
20182.322714000002
 20
19825.228987999999
 30
0.0
 11
20182.322714000002
 21
19819.23302600002
 31
0.0
  0
LINE
  5
3BE6
  8
2-0
  6
CONTINUOUS
 62
     3
 10
20182.322714000002
 20
19819.23302600002
 30
0.0
 11
20152.325089000002
 21
19819.23302600002
 31
0.0
  0
LINE
  5
3BE7
  8
2-0
  6
CONTINUOUS
 62
     3
 10
20152.325089000002
 20
19819.23302600002
 30
0.0
 11
20152.325089000002
 21
19934.229199000009
 31
0.0
  0
LINE
  5
3BE8
  8
2-0
  6
CONTINUOUS
 62
     3
 10
20152.325089000002
 20
19849.23263000001
 30
0.0
 11
20233.323029999981
 21
19849.23263000001
 31
0.0
  0
LINE
  5
3BE9
  8
2-0
  6
CONTINUOUS
 62
     3
 10
20182.322714000002
 20
19808.935570000001
 30
0.0
 11
20152.325089000002
 21
19808.935570000001
 31
0.0
  0
LINE
  5
3BEA
  8
2-0
  6
CONTINUOUS
 62
     3
 10
20182.322714000002
 20
19826.93731200002
 30
0.0
 11
20182.322714000002
 21
19808.935570000001
 31
0.0
  0
LINE
  5
3BEB
  8
2-0
  6
CONTINUOUS
 62
     3
 10
20157.329312000002
 20
19826.93731200002
 30
0.0
 11
20182.322714000002
 21
19826.93731200002
 31
0.0
  0
LINE
  5
3BEC
  8
2-0
  6
CONTINUOUS
 62
     3
 10
20157.329312000002
 20
19821.929130000019
 30
0.0
 11
20157.329312000002
 21
19826.93731200002
 31
0.0
  0
LINE
  5
3BED
  8
2-0
  6
CONTINUOUS
 62
     3
 10
20164.326909999982
 20
19821.929130000019
 30
0.0
 11
20157.329312000002
 21
19821.929130000019
 31
0.0
  0
LINE
  5
3BEE
  8
2-0
  6
CONTINUOUS
 62
     3
 10
20264.621198999968
 20
19922.229357000011
 30
0.0
 11
20264.621198999968
 21
19929.234873000001
 31
0.0
  0
LINE
  5
3BEF
  8
2-0
  6
CONTINUOUS
 62
     3
 10
20264.621198999968
 20
19929.234873000001
 30
0.0
 11
20259.618955000002
 21
19929.234873000001
 31
0.0
  0
LINE
  5
3BF0
  8
2-0
  6
CONTINUOUS
 62
     3
 10
20259.618955000002
 20
19929.234873000001
 30
0.0
 11
20259.618955000002
 21
19904.22563600001
 31
0.0
  0
LINE
  5
3BF1
  8
2-0
  6
CONTINUOUS
 62
     3
 10
20259.618955000002
 20
19904.22563600001
 30
0.0
 11
20277.62663599999
 21
19904.22563600001
 31
0.0
  0
LINE
  5
3BF2
  8
2-0
  6
CONTINUOUS
 62
     3
 10
20277.62663599999
 20
19904.22563600001
 30
0.0
 11
20277.62663599999
 21
19934.229199000009
 31
0.0
  0
LINE
  5
3BF3
  8
2-0
  6
CONTINUOUS
 62
     3
 10
20267.327199999989
 20
19934.229199000009
 30
0.0
 11
20152.325089000002
 21
19934.229199000009
 31
0.0
  0
LINE
  5
3BF4
  8
2-0
  6
CONTINUOUS
 62
     3
 10
20267.327199999989
 20
19904.22563600001
 30
0.0
 11
20267.327199999989
 21
19934.229199000009
 31
0.0
  0
LINE
  5
3BF5
  8
2-0
  6
CONTINUOUS
 62
     3
 10
20261.323320999989
 20
19904.22563600001
 30
0.0
 11
20267.327199999989
 21
19904.22563600001
 31
0.0
  0
LINE
  5
3BF6
  8
2-0
  6
CONTINUOUS
 62
     3
 10
21287.720808499991
 20
19922.229357000011
 30
0.0
 11
21287.720808499991
 21
19929.234873000001
 31
0.0
  0
LINE
  5
3BF7
  8
2-0
  6
CONTINUOUS
 62
     3
 10
21287.720808499991
 20
19929.234873000001
 30
0.0
 11
21292.721071499978
 21
19929.234873000001
 31
0.0
  0
LINE
  5
3BF8
  8
2-0
  6
CONTINUOUS
 62
     3
 10
21292.721071499978
 20
19929.234873000001
 30
0.0
 11
21292.721071499978
 21
19904.22563600001
 31
0.0
  0
LINE
  5
3BF9
  8
2-0
  6
CONTINUOUS
 62
     3
 10
21292.721071499978
 20
19904.22563600001
 30
0.0
 11
21274.727248499981
 21
19904.22563600001
 31
0.0
  0
LINE
  5
3BFA
  8
2-0
  6
CONTINUOUS
 62
     3
 10
21274.727248499981
 20
19904.22563600001
 30
0.0
 11
21274.727248499981
 21
19934.229199000009
 31
0.0
  0
LINE
  5
3BFB
  8
2-0
  6
CONTINUOUS
 62
     3
 10
21290.818754499971
 20
19904.22563600001
 30
0.0
 11
21284.820813499991
 21
19904.22563600001
 31
0.0
  0
LINE
  5
3BFC
  8
2-0
  6
CONTINUOUS
 62
     3
 10
21284.820813499991
 20
19904.22563600001
 30
0.0
 11
21284.820813499991
 21
19934.229199000009
 31
0.0
  0
LINE
  5
3BFD
  8
2-0
  6
CONTINUOUS
 62
     3
 10
21321.821974499991
 20
19934.229199000009
 30
0.0
 11
21284.820813499991
 21
19934.229199000009
 31
0.0
  0
LINE
  5
3BFE
  8
2-0
  6
CONTINUOUS
 62
     3
 10
21321.821974499991
 20
19904.22563600001
 30
0.0
 11
21321.821974499991
 21
19934.229199000009
 31
0.0
  0
LINE
  5
3BFF
  8
2-0
  6
CONTINUOUS
 62
     3
 10
21315.816115500002
 20
19904.22563600001
 30
0.0
 11
21321.821974499991
 21
19904.22563600001
 31
0.0
  0
LINE
  5
3C00
  8
2-0
  6
CONTINUOUS
 62
     3
 10
21331.915539500002
 20
19904.22563600001
 30
0.0
 11
21331.915539500002
 21
19934.229199000009
 31
0.0
  0
LINE
  5
3C01
  8
2-0
  6
CONTINUOUS
 62
     3
 10
21313.919736499989
 20
19904.22563600001
 30
0.0
 11
21331.915539500002
 21
19904.22563600001
 31
0.0
  0
LINE
  5
3C02
  8
2-0
  6
CONTINUOUS
 62
     3
 10
21313.919736499989
 20
19929.234873000001
 30
0.0
 11
21313.919736499989
 21
19904.22563600001
 31
0.0
  0
LINE
  5
3C03
  8
2-0
  6
CONTINUOUS
 62
     3
 10
21318.910102499991
 20
19929.234873000001
 30
0.0
 11
21313.919736499989
 21
19929.234873000001
 31
0.0
  0
LINE
  5
3C04
  8
2-0
  6
CONTINUOUS
 62
     3
 10
21318.910102499991
 20
19922.229357000011
 30
0.0
 11
21318.910102499991
 21
19929.234873000001
 31
0.0
  0
LINE
  5
3C05
  8
2-0
  6
CONTINUOUS
 62
     3
 10
20630.914550000001
 20
19934.22919900003
 30
0.0
 11
21274.727248499981
 21
19934.229199000009
 31
0.0
  0
LINE
  5
3C06
  8
2-0
  6
CONTINUOUS
 62
     3
 10
21975.727247999981
 20
19934.229199000009
 30
0.0
 11
21331.915539500002
 21
19934.229199000009
 31
0.0
  0
LINE
  5
3C07
  8
2-0
  6
CONTINUOUS
 62
     3
 10
20182.322714000002
 20
19825.228987999999
 30
0.0
 11
20182.322714000002
 21
19819.23302600002
 31
0.0
  0
LINE
  5
3C08
  8
2-0
  6
CONTINUOUS
 62
     3
 10
20182.322714000002
 20
19819.23302600002
 30
0.0
 11
20152.325089000002
 21
19819.23302600002
 31
0.0
  0
LINE
  5
3C09
  8
2-0
  6
CONTINUOUS
 62
     3
 10
20152.325089000002
 20
19819.23302600002
 30
0.0
 11
20152.325089000002
 21
19934.229199000009
 31
0.0
  0
LINE
  5
3C0A
  8
2-0
  6
CONTINUOUS
 62
     3
 10
20152.325089000002
 20
19849.23263000001
 30
0.0
 11
20233.323029999981
 21
19849.23263000001
 31
0.0
  0
LINE
  5
3C0B
  8
2-0
  6
CONTINUOUS
 62
     3
 10
20182.322714000002
 20
19808.935570000001
 30
0.0
 11
20152.325089000002
 21
19808.935570000001
 31
0.0
  0
LINE
  5
3C0C
  8
2-0
  6
CONTINUOUS
 62
     3
 10
20182.322714000002
 20
19826.93731200002
 30
0.0
 11
20182.322714000002
 21
19808.935570000001
 31
0.0
  0
LINE
  5
3C0D
  8
2-0
  6
CONTINUOUS
 62
     3
 10
20157.329312000002
 20
19826.93731200002
 30
0.0
 11
20182.322714000002
 21
19826.93731200002
 31
0.0
  0
LINE
  5
3C0E
  8
2-0
  6
CONTINUOUS
 62
     3
 10
20157.329312000002
 20
19821.929130000019
 30
0.0
 11
20157.329312000002
 21
19826.93731200002
 31
0.0
  0
LINE
  5
3C0F
  8
2-0
  6
CONTINUOUS
 62
     3
 10
20164.326909999982
 20
19821.929130000019
 30
0.0
 11
20157.329312000002
 21
19821.929130000019
 31
0.0
  0
LINE
  5
3C10
  8
2-0
  6
CONTINUOUS
 62
     3
 10
20164.326909999982
 20
19118.132307499989
 30
0.0
 11
20157.329312000002
 21
19118.132307499989
 31
0.0
  0
LINE
  5
3C11
  8
2-0
  6
CONTINUOUS
 62
     3
 10
20157.329312000002
 20
19118.132307499989
 30
0.0
 11
20157.329312000002
 21
19123.132571499991
 31
0.0
  0
LINE
  5
3C12
  8
2-0
  6
CONTINUOUS
 62
     3
 10
20157.329312000002
 20
19123.132571499991
 30
0.0
 11
20182.322714000002
 21
19123.132571499991
 31
0.0
  0
LINE
  5
3C13
  8
2-0
  6
CONTINUOUS
 62
     3
 10
20182.322714000002
 20
19123.132571499991
 30
0.0
 11
20182.322714000002
 21
19105.136767499989
 31
0.0
  0
LINE
  5
3C14
  8
2-0
  6
CONTINUOUS
 62
     3
 10
20182.322714000002
 20
19105.136767499989
 30
0.0
 11
20152.325089000002
 21
19105.136767499989
 31
0.0
  0
LINE
  5
3C15
  8
2-0
  6
CONTINUOUS
 62
     3
 10
20182.322714000002
 20
19121.22827449995
 30
0.0
 11
20182.322714000002
 21
19115.230333499989
 31
0.0
  0
LINE
  5
3C16
  8
2-0
  6
CONTINUOUS
 62
     3
 10
20182.322714000002
 20
19115.230333499989
 30
0.0
 11
20152.325089000002
 21
19115.230333499989
 31
0.0
  0
LINE
  5
3C17
  8
2-0
  6
CONTINUOUS
 62
     3
 10
20152.325089000002
 20
19115.230333499989
 30
0.0
 11
20152.325089000002
 21
19152.2314945
 31
0.0
  0
LINE
  5
3C18
  8
2-0
  6
CONTINUOUS
 62
     3
 10
20182.322714000002
 20
19152.2314945
 30
0.0
 11
20152.325089000002
 21
19152.2314945
 31
0.0
  0
LINE
  5
3C19
  8
2-0
  6
CONTINUOUS
 62
     3
 10
20182.322714000002
 20
19146.227614499981
 30
0.0
 11
20182.322714000002
 21
19152.2314945
 31
0.0
  0
LINE
  5
3C1A
  8
2-0
  6
CONTINUOUS
 62
     3
 10
20182.322714000002
 20
19162.327039499982
 30
0.0
 11
20152.325089000002
 21
19162.327039499982
 31
0.0
  0
LINE
  5
3C1B
  8
2-0
  6
CONTINUOUS
 62
     3
 10
20182.322714000002
 20
19144.3252975
 30
0.0
 11
20182.322714000002
 21
19162.327039499982
 31
0.0
  0
LINE
  5
3C1C
  8
2-0
  6
CONTINUOUS
 62
     3
 10
20157.329312000002
 20
19144.3252975
 30
0.0
 11
20182.322714000002
 21
19144.3252975
 31
0.0
  0
LINE
  5
3C1D
  8
2-0
  6
CONTINUOUS
 62
     3
 10
20157.329312000002
 20
19149.325561500002
 30
0.0
 11
20157.329312000002
 21
19144.3252975
 31
0.0
  0
LINE
  5
3C1E
  8
2-0
  6
CONTINUOUS
 62
     3
 10
20164.326909999982
 20
19149.325561500002
 30
0.0
 11
20157.329312000002
 21
19149.325561500002
 31
0.0
  0
LINE
  5
3C1F
  8
2-0
  6
CONTINUOUS
 62
     3
 10
20164.326909999982
 20
18417.131317999989
 30
0.0
 11
20157.329312000002
 21
18417.131317999989
 31
0.0
  0
LINE
  5
3C20
  8
2-0
  6
CONTINUOUS
 62
     3
 10
20157.329312000002
 20
18417.131317999989
 30
0.0
 11
20157.329312000002
 21
18422.13752
 31
0.0
  0
LINE
  5
3C21
  8
2-0
  6
CONTINUOUS
 62
     3
 10
20157.329312000002
 20
18422.13752
 30
0.0
 11
20182.322714000002
 21
18422.13752
 31
0.0
  0
LINE
  5
3C22
  8
2-0
  6
CONTINUOUS
 62
     3
 10
20182.322714000002
 20
18422.13752
 30
0.0
 11
20182.322714000002
 21
18404.135778
 31
0.0
  0
LINE
  5
3C23
  8
2-0
  6
CONTINUOUS
 62
     3
 10
20182.322714000002
 20
18404.135778
 30
0.0
 11
20152.325089000002
 21
18404.135778
 31
0.0
  0
LINE
  5
3C24
  8
2-0
  6
CONTINUOUS
 62
     3
 10
20182.322714000002
 20
18420.22728499999
 30
0.0
 11
20182.322714000002
 21
18414.231322999989
 31
0.0
  0
LINE
  5
3C25
  8
2-0
  6
CONTINUOUS
 62
     3
 10
20182.322714000002
 20
18414.231322999989
 30
0.0
 11
20152.325089000002
 21
18414.231322999989
 31
0.0
  0
LINE
  5
3C26
  8
2-0
  6
CONTINUOUS
 62
     3
 10
20152.325089000002
 20
18414.231322999989
 30
0.0
 11
20152.325089000002
 21
18451.230504999989
 31
0.0
  0
LINE
  5
3C27
  8
2-0
  6
CONTINUOUS
 62
     3
 10
20182.322714000002
 20
18451.230504999989
 30
0.0
 11
20152.325089000002
 21
18451.230504999989
 31
0.0
  0
LINE
  5
3C28
  8
2-0
  6
CONTINUOUS
 62
     3
 10
20182.322714000002
 20
18445.23454300001
 30
0.0
 11
20182.322714000002
 21
18451.230504999989
 31
0.0
  0
LINE
  5
3C29
  8
2-0
  6
CONTINUOUS
 62
     3
 10
20182.322714000002
 20
18461.32605
 30
0.0
 11
20152.325089000002
 21
18461.32605
 31
0.0
  0
LINE
  5
3C2A
  8
2-0
  6
CONTINUOUS
 62
     3
 10
20182.322714000002
 20
18443.324307999988
 30
0.0
 11
20182.322714000002
 21
18461.32605
 31
0.0
  0
LINE
  5
3C2B
  8
2-0
  6
CONTINUOUS
 62
     3
 10
20157.329312000002
 20
18443.324307999988
 30
0.0
 11
20182.322714000002
 21
18443.324307999988
 31
0.0
  0
LINE
  5
3C2C
  8
2-0
  6
CONTINUOUS
 62
     3
 10
20157.329312000002
 20
18448.330509999989
 30
0.0
 11
20157.329312000002
 21
18443.324307999988
 31
0.0
  0
LINE
  5
3C2D
  8
2-0
  6
CONTINUOUS
 62
     3
 10
20164.326909999982
 20
18448.330509999989
 30
0.0
 11
20157.329312000002
 21
18448.330509999989
 31
0.0
  0
LINE
  5
3C2E
  8
2-0
  6
CONTINUOUS
 62
     3
 10
20164.326909999982
 20
17747.324572000001
 30
0.0
 11
20157.329312000002
 21
17747.324572000001
 31
0.0
  0
LINE
  5
3C2F
  8
2-0
  6
CONTINUOUS
 62
     3
 10
20157.329312000002
 20
17747.324572000001
 30
0.0
 11
20157.329312000002
 21
17742.336185
 31
0.0
  0
LINE
  5
3C30
  8
2-0
  6
CONTINUOUS
 62
     3
 10
20157.329312000002
 20
17742.336185
 30
0.0
 11
20182.322714000002
 21
17742.336185
 31
0.0
  0
LINE
  5
3C31
  8
2-0
  6
CONTINUOUS
 62
     3
 10
20182.322714000002
 20
17742.336185
 30
0.0
 11
20182.322714000002
 21
17760.331988000002
 31
0.0
  0
LINE
  5
3C32
  8
2-0
  6
CONTINUOUS
 62
     3
 10
20182.322714000002
 20
17760.331988000002
 30
0.0
 11
20152.325089000002
 21
17760.331988000002
 31
0.0
  0
LINE
  5
3C33
  8
2-0
  6
CONTINUOUS
 62
     3
 10
20182.322714000002
 20
17744.234542999991
 30
0.0
 11
20182.322714000002
 21
17750.230504999981
 31
0.0
  0
LINE
  5
3C34
  8
2-0
  6
CONTINUOUS
 62
     3
 10
20182.322714000002
 20
17750.230504999981
 30
0.0
 11
20152.325089000002
 21
17750.230504999981
 31
0.0
  0
LINE
  5
3C35
  8
2-0
  6
CONTINUOUS
 62
     3
 10
20152.325089000002
 20
17750.230504999981
 30
0.0
 11
20152.325089000002
 21
17713.231323
 31
0.0
  0
LINE
  5
3C36
  8
2-0
  6
CONTINUOUS
 62
     3
 10
20182.322714000002
 20
17713.231323
 30
0.0
 11
20152.325089000002
 21
17713.231323
 31
0.0
  0
LINE
  5
3C37
  8
2-0
  6
CONTINUOUS
 62
     3
 10
20182.322714000002
 20
17719.233223999989
 30
0.0
 11
20182.322714000002
 21
17713.231323
 31
0.0
  0
LINE
  5
3C38
  8
2-0
  6
CONTINUOUS
 62
     3
 10
20182.322714000002
 20
17703.141716999991
 30
0.0
 11
20152.325089000002
 21
17703.141716999991
 31
0.0
  0
LINE
  5
3C39
  8
2-0
  6
CONTINUOUS
 62
     3
 10
20182.322714000002
 20
17721.13752
 30
0.0
 11
20182.322714000002
 21
17703.141716999991
 31
0.0
  0
LINE
  5
3C3A
  8
2-0
  6
CONTINUOUS
 62
     3
 10
20157.329312000002
 20
17721.13752
 30
0.0
 11
20182.322714000002
 21
17721.13752
 31
0.0
  0
LINE
  5
3C3B
  8
2-0
  6
CONTINUOUS
 62
     3
 10
20157.329312000002
 20
17716.137256999991
 30
0.0
 11
20157.329312000002
 21
17721.13752
 31
0.0
  0
LINE
  5
3C3C
  8
2-0
  6
CONTINUOUS
 62
     3
 10
20164.326909999982
 20
17716.137256999991
 30
0.0
 11
20157.329312000002
 21
17716.137256999991
 31
0.0
  0
LINE
  5
3C3D
  8
2-0
  6
CONTINUOUS
 62
     3
 10
20155.211226999989
 20
16996.228143
 30
0.0
 11
20155.211226999989
 21
17016.229198000001
 31
0.0
  0
LINE
  5
3C3E
  8
2-0
  6
CONTINUOUS
 62
     3
 10
20155.211226999989
 20
17016.229198000001
 30
0.0
 11
20240.211754999978
 21
17016.229198000001
 31
0.0
  0
LINE
  5
3C3F
  8
2-0
  6
CONTINUOUS
 62
     3
 10
20164.326909999982
 20
17042.835908000001
 30
0.0
 11
20157.329312000002
 21
17042.835908000001
 31
0.0
  0
LINE
  5
3C40
  8
2-0
  6
CONTINUOUS
 62
     3
 10
20157.329312000002
 20
17042.835908000001
 30
0.0
 11
20157.329312000002
 21
17037.841582000001
 31
0.0
  0
LINE
  5
3C41
  8
2-0
  6
CONTINUOUS
 62
     3
 10
20157.329312000002
 20
17037.841582000001
 30
0.0
 11
20182.322714000002
 21
17037.841582000001
 31
0.0
  0
LINE
  5
3C42
  8
2-0
  6
CONTINUOUS
 62
     3
 10
20182.322714000002
 20
17037.841582000001
 30
0.0
 11
20182.322714000002
 21
17055.83738600001
 31
0.0
  0
LINE
  5
3C43
  8
2-0
  6
CONTINUOUS
 62
     3
 10
20182.322714000002
 20
17055.83738600001
 30
0.0
 11
20152.325089000002
 21
17055.83738600001
 31
0.0
  0
LINE
  5
3C44
  8
2-0
  6
CONTINUOUS
 62
     3
 10
20182.322714000002
 20
17046.228802000001
 30
0.0
 11
20182.322714000002
 21
17040.226901999991
 31
0.0
  0
LINE
  5
3C45
  8
2-0
  6
CONTINUOUS
 62
     3
 10
20152.325089000002
 20
17046.228802000001
 30
0.0
 11
20182.322714000002
 21
17046.228802000001
 31
0.0
  0
LINE
  5
3C46
  8
2-0
  6
CONTINUOUS
 62
     3
 10
20152.325089000002
 20
17055.83738600001
 30
0.0
 11
20152.325089000002
 21
17703.141716999991
 31
0.0
  0
LINE
  5
3C47
  8
2-0
  6
CONTINUOUS
 62
     3
 10
20152.325089000002
 20
17760.331988000002
 30
0.0
 11
20152.325089000002
 21
18404.135778
 31
0.0
  0
LINE
  5
3C48
  8
2-0
  6
CONTINUOUS
 62
     3
 10
20152.325089000002
 20
16901.22708700001
 30
0.0
 11
20182.322714000002
 21
16901.22708700001
 31
0.0
  0
LINE
  5
3C49
  8
2-0
  6
CONTINUOUS
 62
     3
 10
20182.322714000002
 20
16901.22708700001
 30
0.0
 11
20182.322714000002
 21
16907.22898700001
 31
0.0
  0
LINE
  5
3C4A
  8
2-0
  6
CONTINUOUS
 62
     3
 10
20240.211754999978
 20
16931.232629999991
 30
0.0
 11
20155.211226999989
 21
16931.232629999991
 31
0.0
  0
LINE
  5
3C4B
  8
2-0
  6
CONTINUOUS
 62
     3
 10
20155.211226999989
 20
16931.232629999991
 30
0.0
 11
20155.211226999989
 21
16951.227747000012
 31
0.0
  0
LINE
  5
3C4C
  8
2-0
  6
CONTINUOUS
 62
     3
 10
20182.322714000002
 20
16891.618503999998
 30
0.0
 11
20152.325089000002
 21
16891.618503999998
 31
0.0
  0
LINE
  5
3C4D
  8
2-0
  6
CONTINUOUS
 62
     3
 10
20182.322714000002
 20
16909.614306999982
 30
0.0
 11
20182.322714000002
 21
16891.618503999998
 31
0.0
  0
LINE
  5
3C4E
  8
2-0
  6
CONTINUOUS
 62
     3
 10
20157.329312000002
 20
16909.614306999982
 30
0.0
 11
20182.322714000002
 21
16909.614306999982
 31
0.0
  0
LINE
  5
3C4F
  8
2-0
  6
CONTINUOUS
 62
     3
 10
20157.329312000002
 20
16904.614043000009
 30
0.0
 11
20157.329312000002
 21
16909.614306999982
 31
0.0
  0
LINE
  5
3C50
  8
2-0
  6
CONTINUOUS
 62
     3
 10
20164.326909999982
 20
16904.614043000009
 30
0.0
 11
20157.329312000002
 21
16904.614043000009
 31
0.0
  0
LINE
  5
3C51
  8
2-0
  6
CONTINUOUS
 62
     3
 10
20164.326909999982
 20
16200.131812499991
 30
0.0
 11
20157.329312000002
 21
16200.131812499991
 31
0.0
  0
LINE
  5
3C52
  8
2-0
  6
CONTINUOUS
 62
     3
 10
20157.329312000002
 20
16200.131812499991
 30
0.0
 11
20157.329312000002
 21
16205.13207649998
 31
0.0
  0
LINE
  5
3C53
  8
2-0
  6
CONTINUOUS
 62
     3
 10
20157.329312000002
 20
16205.13207649998
 30
0.0
 11
20182.322714000002
 21
16205.13207649998
 31
0.0
  0
LINE
  5
3C54
  8
2-0
  6
CONTINUOUS
 62
     3
 10
20182.322714000002
 20
16205.13207649998
 30
0.0
 11
20182.322714000002
 21
16187.130334499991
 31
0.0
  0
LINE
  5
3C55
  8
2-0
  6
CONTINUOUS
 62
     3
 10
20182.322714000002
 20
16187.130334499991
 30
0.0
 11
20152.325089000002
 21
16187.130334499991
 31
0.0
  0
LINE
  5
3C56
  8
2-0
  6
CONTINUOUS
 62
     3
 10
20182.322714000002
 20
16203.227779500001
 30
0.0
 11
20182.322714000002
 21
16197.2308285
 31
0.0
  0
LINE
  5
3C57
  8
2-0
  6
CONTINUOUS
 62
     3
 10
20182.322714000002
 20
16197.2308285
 30
0.0
 11
20152.325089000002
 21
16197.2308285
 31
0.0
  0
LINE
  5
3C58
  8
2-0
  6
CONTINUOUS
 62
     3
 10
20152.325089000002
 20
16197.2308285
 30
0.0
 11
20152.325089000002
 21
16234.2309995
 31
0.0
  0
LINE
  5
3C59
  8
2-0
  6
CONTINUOUS
 62
     3
 10
20182.322714000002
 20
16234.2309995
 30
0.0
 11
20152.325089000002
 21
16234.2309995
 31
0.0
  0
LINE
  5
3C5A
  8
2-0
  6
CONTINUOUS
 62
     3
 10
20182.322714000002
 20
16228.228109499991
 30
0.0
 11
20182.322714000002
 21
16234.2309995
 31
0.0
  0
LINE
  5
3C5B
  8
2-0
  6
CONTINUOUS
 62
     3
 10
20182.322714000002
 20
16244.3265445
 30
0.0
 11
20152.325089000002
 21
16244.3265445
 31
0.0
  0
LINE
  5
3C5C
  8
2-0
  6
CONTINUOUS
 62
     3
 10
20182.322714000002
 20
16226.318863500001
 30
0.0
 11
20182.322714000002
 21
16244.3265445
 31
0.0
  0
LINE
  5
3C5D
  8
2-0
  6
CONTINUOUS
 62
     3
 10
20157.329312000002
 20
16226.318863500001
 30
0.0
 11
20182.322714000002
 21
16226.318863500001
 31
0.0
  0
LINE
  5
3C5E
  8
2-0
  6
CONTINUOUS
 62
     3
 10
20157.329312000002
 20
16231.3250665
 30
0.0
 11
20157.329312000002
 21
16226.318863500001
 31
0.0
  0
LINE
  5
3C5F
  8
2-0
  6
CONTINUOUS
 62
     3
 10
20164.326909999982
 20
16231.3250665
 30
0.0
 11
20157.329312000002
 21
16231.3250665
 31
0.0
  0
LINE
  5
3C60
  8
2-0
  6
CONTINUOUS
 62
     3
 10
20164.326909999982
 20
15530.565083
 30
0.0
 11
20157.329312000002
 21
15530.565083
 31
0.0
  0
LINE
  5
3C61
  8
2-0
  6
CONTINUOUS
 62
     3
 10
20157.329312000002
 20
15530.565083
 30
0.0
 11
20157.329312000002
 21
15525.570758000011
 31
0.0
  0
LINE
  5
3C62
  8
2-0
  6
CONTINUOUS
 62
     3
 10
20157.329312000002
 20
15525.570758000011
 30
0.0
 11
20182.322714000002
 21
15525.570758000011
 31
0.0
  0
LINE
  5
3C63
  8
2-0
  6
CONTINUOUS
 62
     3
 10
20182.322714000002
 20
15525.570758000011
 30
0.0
 11
20182.322714000002
 21
15543.566561000011
 31
0.0
  0
LINE
  5
3C64
  8
2-0
  6
CONTINUOUS
 62
     3
 10
20182.322714000002
 20
15543.566561000011
 30
0.0
 11
20152.325089000002
 21
15543.566561000011
 31
0.0
  0
LINE
  5
3C65
  8
2-0
  6
CONTINUOUS
 62
     3
 10
20182.322714000002
 20
15527.469116
 30
0.0
 11
20182.322714000002
 21
15533.47101600001
 31
0.0
  0
LINE
  5
3C66
  8
2-0
  6
CONTINUOUS
 62
     3
 10
20182.322714000002
 20
15533.47101600001
 30
0.0
 11
20152.325089000002
 21
15533.47101600001
 31
0.0
  0
LINE
  5
3C67
  8
2-0
  6
CONTINUOUS
 62
     3
 10
20152.325089000002
 20
15496.471835
 30
0.0
 11
20152.325089000002
 21
15533.47101600001
 31
0.0
  0
LINE
  5
3C68
  8
2-0
  6
CONTINUOUS
 62
     3
 10
20182.322714000002
 20
15496.471835
 30
0.0
 11
20152.325089000002
 21
15496.471835
 31
0.0
  0
LINE
  5
3C69
  8
2-0
  6
CONTINUOUS
 62
     3
 10
20182.322714000002
 20
15502.468785999999
 30
0.0
 11
20182.322714000002
 21
15496.471835
 31
0.0
  0
LINE
  5
3C6A
  8
2-0
  6
CONTINUOUS
 62
     3
 10
20182.322714000002
 20
15486.370351
 30
0.0
 11
20152.325089000002
 21
15486.370351
 31
0.0
  0
LINE
  5
3C6B
  8
2-0
  6
CONTINUOUS
 62
     3
 10
20182.322714000002
 20
15504.378032000001
 30
0.0
 11
20182.322714000002
 21
15486.370351
 31
0.0
  0
LINE
  5
3C6C
  8
2-0
  6
CONTINUOUS
 62
     3
 10
20157.329312000002
 20
15504.378032000001
 30
0.0
 11
20182.322714000002
 21
15504.378032000001
 31
0.0
  0
LINE
  5
3C6D
  8
2-0
  6
CONTINUOUS
 62
     3
 10
20157.329312000002
 20
15499.377768000009
 30
0.0
 11
20157.329312000002
 21
15504.378032000001
 31
0.0
  0
LINE
  5
3C6E
  8
2-0
  6
CONTINUOUS
 62
     3
 10
20164.326909999982
 20
15499.377768000009
 30
0.0
 11
20157.329312000002
 21
15499.377768000009
 31
0.0
  0
LINE
  5
3C6F
  8
2-0
  6
CONTINUOUS
 62
     3
 10
20152.325089000002
 20
16891.618503999998
 30
0.0
 11
20152.325089000002
 21
16244.3265445
 31
0.0
  0
LINE
  5
3C70
  8
2-0
  6
CONTINUOUS
 62
     3
 10
20152.325089000002
 20
17046.228802000001
 30
0.0
 11
20152.325089000002
 21
16901.22708700001
 31
0.0
  0
LINE
  5
3C71
  8
2-0
  6
CONTINUOUS
 62
     3
 10
20240.211754999978
 20
17016.229198000001
 30
0.0
 11
20240.211754999978
 21
16931.232629999991
 31
0.0
  0
LINE
  5
3C72
  8
2-0
  6
CONTINUOUS
 62
     3
 10
20164.326909999982
 20
14798.136761
 30
0.0
 11
20157.329312000002
 21
14798.136761
 31
0.0
  0
LINE
  5
3C73
  8
2-0
  6
CONTINUOUS
 62
     3
 10
20157.329312000002
 20
14798.136761
 30
0.0
 11
20157.329312000002
 21
14803.131087000011
 31
0.0
  0
LINE
  5
3C74
  8
2-0
  6
CONTINUOUS
 62
     3
 10
20157.329312000002
 20
14803.131087000011
 30
0.0
 11
20182.322714000002
 21
14803.131087000011
 31
0.0
  0
LINE
  5
3C75
  8
2-0
  6
CONTINUOUS
 62
     3
 10
20182.322714000002
 20
14803.131087000011
 30
0.0
 11
20182.322714000002
 21
14785.135283000011
 31
0.0
  0
LINE
  5
3C76
  8
2-0
  6
CONTINUOUS
 62
     3
 10
20182.322714000002
 20
14785.135283000011
 30
0.0
 11
20152.325089000002
 21
14785.135283000011
 31
0.0
  0
LINE
  5
3C77
  8
2-0
  6
CONTINUOUS
 62
     3
 10
20182.322714000002
 20
14801.23371800001
 30
0.0
 11
20182.322714000002
 21
14795.230828000011
 31
0.0
  0
LINE
  5
3C78
  8
2-0
  6
CONTINUOUS
 62
     3
 10
20182.322714000002
 20
14795.230828000011
 30
0.0
 11
20152.325089000002
 21
14795.230828000011
 31
0.0
  0
LINE
  5
3C79
  8
2-0
  6
CONTINUOUS
 62
     3
 10
20152.325089000002
 20
14795.230828000011
 30
0.0
 11
20152.325089000002
 21
14832.231
 31
0.0
  0
LINE
  5
3C7A
  8
2-0
  6
CONTINUOUS
 62
     3
 10
20182.322714000002
 20
14832.231
 30
0.0
 11
20152.325089000002
 21
14832.231
 31
0.0
  0
LINE
  5
3C7B
  8
2-0
  6
CONTINUOUS
 62
     3
 10
20182.322714000002
 20
14826.234047999989
 30
0.0
 11
20182.322714000002
 21
14832.231
 31
0.0
  0
LINE
  5
3C7C
  8
2-0
  6
CONTINUOUS
 62
     3
 10
20182.322714000002
 20
14842.331493000011
 30
0.0
 11
20152.325089000002
 21
14842.331493000011
 31
0.0
  0
LINE
  5
3C7D
  8
2-0
  6
CONTINUOUS
 62
     3
 10
20182.322714000002
 20
14824.32480200001
 30
0.0
 11
20182.322714000002
 21
14842.331493000011
 31
0.0
  0
LINE
  5
3C7E
  8
2-0
  6
CONTINUOUS
 62
     3
 10
20157.329312000002
 20
14824.32480200001
 30
0.0
 11
20182.322714000002
 21
14824.32480200001
 31
0.0
  0
LINE
  5
3C7F
  8
2-0
  6
CONTINUOUS
 62
     3
 10
20157.329312000002
 20
14829.33001500001
 30
0.0
 11
20157.329312000002
 21
14824.32480200001
 31
0.0
  0
LINE
  5
3C80
  8
2-0
  6
CONTINUOUS
 62
     3
 10
20164.326909999982
 20
14829.33001500001
 30
0.0
 11
20157.329312000002
 21
14829.33001500001
 31
0.0
  0
LINE
  5
3C81
  8
2-0
  6
CONTINUOUS
 62
     3
 10
20182.322714000002
 20
13771.73284099999
 30
0.0
 11
20182.322714000002
 21
13777.73770999999
 31
0.0
  0
LINE
  5
3C82
  8
2-0
  6
CONTINUOUS
 62
     3
 10
20182.322714000002
 20
13777.73770999999
 30
0.0
 11
20152.325089000002
 21
13777.73770999999
 31
0.0
  0
LINE
  5
3C83
  8
2-0
  6
CONTINUOUS
 62
     3
 10
20152.325089000002
 20
13777.73770999999
 30
0.0
 11
20152.325089000002
 21
13662.733619000001
 31
0.0
  0
LINE
  5
3C84
  8
2-0
  6
CONTINUOUS
 62
     3
 10
20152.325089000002
 20
13662.733619000001
 30
0.0
 11
20237.32363699999
 21
13662.733619000001
 31
0.0
  0
LINE
  5
3C85
  8
2-0
  6
CONTINUOUS
 62
     3
 10
20237.32363699999
 20
13662.733619000001
 30
0.0
 11
20237.32363699999
 21
13747.729198000001
 31
0.0
  0
LINE
  5
3C86
  8
2-0
  6
CONTINUOUS
 62
     3
 10
20237.32363699999
 20
13747.729198000001
 30
0.0
 11
20205.326698999968
 21
13747.729198000001
 31
0.0
  0
LINE
  5
3C87
  8
2-0
  6
CONTINUOUS
 62
     3
 10
20164.326909999982
 20
13774.767443000001
 30
0.0
 11
20157.329312000002
 21
13774.767443000001
 31
0.0
  0
LINE
  5
3C88
  8
2-0
  6
CONTINUOUS
 62
     3
 10
20157.329312000002
 20
13774.767443000001
 30
0.0
 11
20157.329312000002
 21
13769.77014799998
 31
0.0
  0
LINE
  5
3C89
  8
2-0
  6
CONTINUOUS
 62
     3
 10
20157.329312000002
 20
13769.77014799998
 30
0.0
 11
20182.322714000002
 21
13769.77014799998
 31
0.0
  0
LINE
  5
3C8A
  8
2-0
  6
CONTINUOUS
 62
     3
 10
20182.322714000002
 20
13769.77014799998
 30
0.0
 11
20182.322714000002
 21
13787.768921000001
 31
0.0
  0
LINE
  5
3C8B
  8
2-0
  6
CONTINUOUS
 62
     3
 10
20182.322714000002
 20
13787.768921000001
 30
0.0
 11
20152.325089000002
 21
13787.768921000001
 31
0.0
  0
LINE
  5
3C8C
  8
2-0
  6
CONTINUOUS
 62
     3
 10
20152.325089000002
 20
14842.331493000011
 30
0.0
 11
20152.325089000002
 21
15486.370351
 31
0.0
  0
LINE
  5
3C8D
  8
2-0
  6
CONTINUOUS
 62
     3
 10
20152.325089000002
 20
18461.32605
 30
0.0
 11
20152.325089000002
 21
19105.136767499989
 31
0.0
  0
LINE
  5
3C8E
  8
2-0
  6
CONTINUOUS
 62
     3
 10
20243.327516999991
 20
18390.22965999999
 30
0.0
 11
20196.323847999989
 21
18390.22965999999
 31
0.0
  0
LINE
  5
3C8F
  8
2-0
  6
CONTINUOUS
 62
     3
 10
20196.323847999989
 20
18475.230188000001
 30
0.0
 11
20243.327516999991
 21
18475.230188000001
 31
0.0
  0
LINE
  5
3C90
  8
2-0
  6
CONTINUOUS
 62
     3
 10
20196.323847999989
 20
18390.22965999999
 30
0.0
 11
20196.323847999989
 21
18415.232959000001
 31
0.0
  0
LINE
  5
3C91
  8
2-0
  6
CONTINUOUS
 62
     3
 10
20196.323847999989
 20
18450.228867999991
 30
0.0
 11
20196.323847999989
 21
18475.230188000001
 31
0.0
  0
LINE
  5
3C92
  8
2-0
  6
CONTINUOUS
 62
     3
 10
20243.327516999991
 20
18475.230188000001
 30
0.0
 11
20243.327516999991
 21
18390.22965999999
 31
0.0
  0
LINE
  5
3C93
  8
2-0
  6
CONTINUOUS
 62
     3
 10
20152.325089000002
 20
16187.130334499991
 30
0.0
 11
20152.325089000002
 21
15543.566561000011
 31
0.0
  0
LINE
  5
3C94
  8
2-0
  6
CONTINUOUS
 62
     3
 10
20243.327516999991
 20
15472.23263
 30
0.0
 11
20196.323847999989
 21
15472.23263
 31
0.0
  0
LINE
  5
3C95
  8
2-0
  6
CONTINUOUS
 62
     3
 10
20196.323847999989
 20
15557.22919799999
 30
0.0
 11
20243.327516999991
 21
15557.22919799999
 31
0.0
  0
LINE
  5
3C96
  8
2-0
  6
CONTINUOUS
 62
     3
 10
20196.323847999989
 20
15472.23263
 30
0.0
 11
20196.323847999989
 21
15497.22801100001
 31
0.0
  0
LINE
  5
3C97
  8
2-0
  6
CONTINUOUS
 62
     3
 10
20196.323847999989
 20
15532.227879
 30
0.0
 11
20196.323847999989
 21
15557.22919799999
 31
0.0
  0
LINE
  5
3C98
  8
2-0
  6
CONTINUOUS
 62
     3
 10
20243.327516999991
 20
15557.22919799999
 30
0.0
 11
20243.327516999991
 21
15472.23263
 31
0.0
  0
LINE
  5
3C99
  8
2-0
  6
CONTINUOUS
 62
     3
 10
24671.319677999982
 20
19819.23302600002
 30
0.0
 11
24671.319677999982
 21
19934.229199000009
 31
0.0
  0
LINE
  5
3C9A
  8
2-0
  6
CENTER2
 62
     6
 10
18865.366816999991
 20
19891.730914
 30
0.0
 11
25521.320997999988
 21
19891.730914
 31
0.0
  0
LINE
  5
3C9B
  8
2-0
  6
CENTER2
 62
     6
 10
18865.366816999991
 20
16973.730914
 30
0.0
 11
25521.320997999988
 21
16973.730914
 31
0.0
  0
LINE
  5
3C9C
  8
2-0
  6
CENTER2
 62
     6
 10
18865.366816999991
 20
13705.230913999991
 30
0.0
 11
25521.320997999988
 21
13705.230913999991
 31
0.0
  0
LINE
  5
3C9D
  8
2-0
  6
CONTINUOUS
 62
     3
 10
20617.913071999999
 20
19922.229357000011
 30
0.0
 11
20617.913071999999
 21
19929.234873000001
 31
0.0
  0
LINE
  5
3C9E
  8
2-0
  6
CONTINUOUS
 62
     3
 10
20617.913071999999
 20
19929.234873000001
 30
0.0
 11
20612.91280799999
 21
19929.234873000001
 31
0.0
  0
LINE
  5
3C9F
  8
2-0
  6
CONTINUOUS
 62
     3
 10
20612.91280799999
 20
19929.234873000001
 30
0.0
 11
20612.91280799999
 21
19904.22563600001
 31
0.0
  0
LINE
  5
3CA0
  8
2-0
  6
CONTINUOUS
 62
     3
 10
20612.91280799999
 20
19904.22563600001
 30
0.0
 11
20630.914550000001
 21
19904.22563600001
 31
0.0
  0
LINE
  5
3CA1
  8
2-0
  6
CONTINUOUS
 62
     3
 10
20630.914550000001
 20
19904.22563600001
 30
0.0
 11
20630.914550000001
 21
19934.229199000009
 31
0.0
  0
LINE
  5
3CA2
  8
2-0
  6
CONTINUOUS
 62
     3
 10
20614.815125000001
 20
19904.22563600001
 30
0.0
 11
20620.81900499999
 21
19904.22563600001
 31
0.0
  0
LINE
  5
3CA3
  8
2-0
  6
CONTINUOUS
 62
     3
 10
20620.81900499999
 20
19904.22563600001
 30
0.0
 11
20620.81900499999
 21
19934.229199000009
 31
0.0
  0
LINE
  5
3CA4
  8
2-0
  6
CONTINUOUS
 62
     3
 10
20583.823782999982
 20
19934.229199000009
 30
0.0
 11
20620.81900499999
 21
19934.229199000009
 31
0.0
  0
LINE
  5
3CA5
  8
2-0
  6
CONTINUOUS
 62
     3
 10
20583.823782999982
 20
19904.22563600001
 30
0.0
 11
20583.823782999982
 21
19934.229199000009
 31
0.0
  0
LINE
  5
3CA6
  8
2-0
  6
CONTINUOUS
 62
     3
 10
20589.817765
 20
19904.22563600001
 30
0.0
 11
20583.823782999982
 21
19904.22563600001
 31
0.0
  0
LINE
  5
3CA7
  8
2-0
  6
CONTINUOUS
 62
     3
 10
20573.728238
 20
19904.22563600001
 30
0.0
 11
20573.728238
 21
19934.229199000009
 31
0.0
  0
LINE
  5
3CA8
  8
2-0
  6
CONTINUOUS
 62
     3
 10
20591.724041000001
 20
19904.22563600001
 30
0.0
 11
20573.728238
 21
19904.22563600001
 31
0.0
  0
LINE
  5
3CA9
  8
2-0
  6
CONTINUOUS
 62
     3
 10
20591.724041000001
 20
19929.234873000001
 30
0.0
 11
20591.724041000001
 21
19904.22563600001
 31
0.0
  0
LINE
  5
3CAA
  8
2-0
  6
CONTINUOUS
 62
     3
 10
20586.725757
 20
19929.234873000001
 30
0.0
 11
20591.724041000001
 21
19929.234873000001
 31
0.0
  0
LINE
  5
3CAB
  8
2-0
  6
CONTINUOUS
 62
     3
 10
20586.725757
 20
19922.229357000011
 30
0.0
 11
20586.725757
 21
19929.234873000001
 31
0.0
  0
LINE
  5
3CAC
  8
2-0
  6
CONTINUOUS
 62
     3
 10
20277.62663599999
 20
19934.229199000009
 30
0.0
 11
20573.728238
 21
19934.229199000009
 31
0.0
  0
LINE
  5
3CAD
  8
2-0
  6
CONTINUOUS
 62
     3
 10
20152.325089000002
 20
19849.23263000001
 30
0.0
 11
24590.317777999971
 21
19849.23263000001
 31
0.0
  0
LINE
  5
3CAE
  8
2-0
  6
CONTINUOUS
 62
     3
 10
20152.325089000002
 20
14141.268644000011
 30
0.0
 11
20152.325089000002
 21
14785.135283000011
 31
0.0
  0
LINE
  5
3CAF
  8
2-0
  6
CENTER2
 62
     6
 10
20194.821393999991
 20
21134.229199000009
 30
0.0
 11
20194.821393999991
 21
13079.46747999999
 31
0.0
  0
LINE
  5
3CB0
  8
2-0
  6
CENTER2
 62
     6
 10
24628.821393999991
 20
21134.229199000009
 30
0.0
 11
24628.821393999991
 21
13079.46747999999
 31
0.0
  0
LINE
  5
3CB1
  8
2-0
  6
CONTINUOUS
 62
     3
 10
24671.319677999982
 20
19808.935570000001
 30
0.0
 11
24671.319677999982
 21
19162.327039499982
 31
0.0
  0
LINE
  5
3CB2
  8
2-0
  6
CONTINUOUS
 62
     3
 10
20152.325089000002
 20
19808.935570000001
 30
0.0
 11
20152.325089000002
 21
19162.327039499982
 31
0.0
  0
LINE
  5
3CB3
  8
2-0
  6
CENTER2
 62
     6
 10
22762.321393999991
 20
21134.229199000009
 30
0.0
 11
22762.321393999991
 21
13513.82631299999
 31
0.0
  0
LINE
  5
3CB4
  8
2-0
  6
CONTINUOUS
 62
     3
 10
20164.326909999982
 20
14097.13725600002
 30
0.0
 11
20157.329312000002
 21
14097.13725600002
 31
0.0
  0
LINE
  5
3CB5
  8
2-0
  6
CONTINUOUS
 62
     3
 10
20157.329312000002
 20
14097.13725600002
 30
0.0
 11
20157.329312000002
 21
14102.131582000011
 31
0.0
  0
LINE
  5
3CB6
  8
2-0
  6
CONTINUOUS
 62
     3
 10
20157.329312000002
 20
14102.131582000011
 30
0.0
 11
20182.322714000002
 21
14102.131582000011
 31
0.0
  0
LINE
  5
3CB7
  8
2-0
  6
CONTINUOUS
 62
     3
 10
20182.322714000002
 20
14102.131582000011
 30
0.0
 11
20182.322714000002
 21
14084.135778000011
 31
0.0
  0
LINE
  5
3CB8
  8
2-0
  6
CONTINUOUS
 62
     3
 10
20182.322714000002
 20
14084.135778000011
 30
0.0
 11
20152.325089000002
 21
14084.135778000011
 31
0.0
  0
LINE
  5
3CB9
  8
2-0
  6
CONTINUOUS
 62
     3
 10
20182.322714000002
 20
14100.23322400002
 30
0.0
 11
20182.322714000002
 21
14094.231323000011
 31
0.0
  0
LINE
  5
3CBA
  8
2-0
  6
CONTINUOUS
 62
     3
 10
20182.322714000002
 20
14094.231323000011
 30
0.0
 11
20152.325089000002
 21
14094.231323000011
 31
0.0
  0
LINE
  5
3CBB
  8
2-0
  6
CONTINUOUS
 62
     3
 10
20152.325089000002
 20
14094.231323000011
 30
0.0
 11
20152.325089000002
 21
14131.230505
 31
0.0
  0
LINE
  5
3CBC
  8
2-0
  6
CONTINUOUS
 62
     3
 10
20182.322714000002
 20
14131.230505
 30
0.0
 11
20152.325089000002
 21
14131.230505
 31
0.0
  0
LINE
  5
3CBD
  8
2-0
  6
CONTINUOUS
 62
     3
 10
20182.322714000002
 20
14125.23454300002
 30
0.0
 11
20182.322714000002
 21
14131.230505
 31
0.0
  0
LINE
  5
3CBE
  8
2-0
  6
CONTINUOUS
 62
     3
 10
20182.322714000002
 20
14141.331988
 30
0.0
 11
20152.325089000002
 21
14141.331988
 31
0.0
  0
LINE
  5
3CBF
  8
2-0
  6
CONTINUOUS
 62
     3
 10
20182.322714000002
 20
14123.324307999999
 30
0.0
 11
20182.322714000002
 21
14141.331988
 31
0.0
  0
LINE
  5
3CC0
  8
2-0
  6
CONTINUOUS
 62
     3
 10
20157.329312000002
 20
14123.324307999999
 30
0.0
 11
20182.322714000002
 21
14123.324307999999
 31
0.0
  0
LINE
  5
3CC1
  8
2-0
  6
CONTINUOUS
 62
     3
 10
20157.329312000002
 20
14128.330510000011
 30
0.0
 11
20157.329312000002
 21
14123.324307999999
 31
0.0
  0
LINE
  5
3CC2
  8
2-0
  6
CONTINUOUS
 62
     3
 10
20164.326909999982
 20
14128.330510000011
 30
0.0
 11
20157.329312000002
 21
14128.330510000011
 31
0.0
  0
LINE
  5
3CC3
  8
2-0
  6
CONTINUOUS
 62
     3
 10
20152.325089000002
 20
13787.768921000001
 30
0.0
 11
20152.325089000002
 21
14084.135778000011
 31
0.0
  0
LINE
  5
3CC4
  8
2-0
  6
CONTINUOUS
 62
     3
 10
20233.323029999981
 20
13747.729198000001
 30
0.0
 11
20233.323029999981
 21
19934.229199000009
 31
0.0
  0
LINE
  5
3CC5
  8
2-0
  6
CONTINUOUS
 62
     3
 10
24659.317856999998
 20
14097.137256000011
 30
0.0
 11
24666.319414000001
 21
14097.137256000011
 31
0.0
  0
LINE
  5
3CC6
  8
2-0
  6
CONTINUOUS
 62
     3
 10
24666.319414000001
 20
14097.137256000011
 30
0.0
 11
24666.319414000001
 21
14102.131582000011
 31
0.0
  0
LINE
  5
3CC7
  8
2-0
  6
CONTINUOUS
 62
     3
 10
24666.319414000001
 20
14102.131582000011
 30
0.0
 11
24641.322053999971
 21
14102.131582000011
 31
0.0
  0
LINE
  5
3CC8
  8
2-0
  6
CONTINUOUS
 62
     3
 10
24641.322053999971
 20
14102.131582000011
 30
0.0
 11
24641.322053999971
 21
14084.135778000011
 31
0.0
  0
LINE
  5
3CC9
  8
2-0
  6
CONTINUOUS
 62
     3
 10
24641.322053999971
 20
14084.135778000011
 30
0.0
 11
24671.319677999982
 21
14084.135778000011
 31
0.0
  0
LINE
  5
3CCA
  8
2-0
  6
CONTINUOUS
 62
     3
 10
24641.322053999971
 20
14100.233224000011
 30
0.0
 11
24641.322053999971
 21
14094.231322999991
 31
0.0
  0
LINE
  5
3CCB
  8
2-0
  6
CONTINUOUS
 62
     3
 10
24641.322053999971
 20
14094.231322999991
 30
0.0
 11
24671.319677999982
 21
14094.231322999991
 31
0.0
  0
LINE
  5
3CCC
  8
2-0
  6
CONTINUOUS
 62
     3
 10
24671.319677999982
 20
14094.231322999991
 30
0.0
 11
24671.319677999982
 21
14131.230505
 31
0.0
  0
LINE
  5
3CCD
  8
2-0
  6
CONTINUOUS
 62
     3
 10
24641.322053999971
 20
14131.230505
 30
0.0
 11
24671.319677999982
 21
14131.230505
 31
0.0
  0
LINE
  5
3CCE
  8
2-0
  6
CONTINUOUS
 62
     3
 10
24641.322053999971
 20
14125.23454300002
 30
0.0
 11
24641.322053999971
 21
14131.230505
 31
0.0
  0
LINE
  5
3CCF
  8
2-0
  6
CONTINUOUS
 62
     3
 10
24641.322053999971
 20
14141.331988
 30
0.0
 11
24671.319677999982
 21
14141.331988
 31
0.0
  0
LINE
  5
3CD0
  8
2-0
  6
CONTINUOUS
 62
     3
 10
24641.322053999971
 20
14123.32430799999
 30
0.0
 11
24641.322053999971
 21
14141.331988
 31
0.0
  0
LINE
  5
3CD1
  8
2-0
  6
CONTINUOUS
 62
     3
 10
24666.319414000001
 20
14123.32430799999
 30
0.0
 11
24641.322053999971
 21
14123.32430799999
 31
0.0
  0
LINE
  5
3CD2
  8
2-0
  6
CONTINUOUS
 62
     3
 10
24666.319414000001
 20
14128.330509999991
 30
0.0
 11
24666.319414000001
 21
14123.32430799999
 31
0.0
  0
LINE
  5
3CD3
  8
2-0
  6
CONTINUOUS
 62
     3
 10
24659.317856999998
 20
14128.330509999991
 30
0.0
 11
24666.319414000001
 21
14128.330509999991
 31
0.0
  0
LINE
  5
3CD4
  8
2-0
  6
CONTINUOUS
 62
     3
 10
24671.319677999982
 20
13787.768921000001
 30
0.0
 11
24671.319677999982
 21
14084.135778000011
 31
0.0
  0
LINE
  5
3CD5
  8
2-0
  6
CONTINUOUS
 62
     3
 10
24590.317777999971
 20
13747.729198000001
 30
0.0
 11
24590.317777999971
 21
19934.229199000009
 31
0.0
  0
LINE
  5
3CD6
  8
2-0
  6
CONTINUOUS
 62
     3
 10
22719.829047999981
 20
19091.233619499999
 30
0.0
 11
22804.821658000001
 21
19091.233619499999
 31
0.0
  0
LINE
  5
3CD7
  8
2-0
  6
CONTINUOUS
 62
     3
 10
22804.821658000001
 20
19176.228208500001
 30
0.0
 11
22719.829047999981
 21
19176.228208500001
 31
0.0
  0
LINE
  5
3CD8
  8
2-0
  6
CONTINUOUS
 62
     3
 10
22719.829047999981
 20
19176.228208500001
 30
0.0
 11
22719.829047999981
 21
19091.233619499999
 31
0.0
  0
LINE
  5
3CD9
  8
2-0
  6
CONTINUOUS
 62
     3
 10
22804.821658000001
 20
19091.233619499999
 30
0.0
 11
22804.821658000001
 21
19176.228208500001
 31
0.0
  0
CIRCLE
  5
3CDA
  8
2-0
  6
CONTINUOUS
 62
     4
 10
18665.369126999991
 20
19891.730914
 30
0.0
 40
200.00001
  0
CIRCLE
  5
3CDB
  8
2-0
  6
CONTINUOUS
 62
     4
 10
18665.369126999991
 20
16973.730914
 30
0.0
 40
200.00001
  0
CIRCLE
  5
3CDC
  8
2-0
  6
CONTINUOUS
 62
     4
 10
18665.369126999991
 20
13705.230913999991
 30
0.0
 40
200.00001
  0
CIRCLE
  5
3CDD
  8
2-0
  6
CONTINUOUS
 62
     4
 10
22762.321393999991
 20
21334.233818000012
 30
0.0
 40
200.00001
  0
CIRCLE
  5
3CDE
  8
2-0
  6
CONTINUOUS
 62
     4
 10
20194.821393999991
 20
21334.233818000012
 30
0.0
 40
200.00001
  0
TEXT
  5
3CDF
  8
2-0
  6
CONTINUOUS
 62
     7
 10
23025.666700999991
 20
13145.232035999999
 30
0.0
 40
160.0
  1
前柱（右）
 50
0.000213
 72
     4
 11
23441.666403593012
 21
13225.23358250079
 31
0.0
  0
TEXT
  5
3CE0
  8
2-0
  6
CONTINUOUS
 62
     7
 10
23042.365919999978
 20
18174.854080000001
 30
0.0
 40
160.0
  1
補強柱 後
 50
359.99984199999989
 72
     4
 11
23453.0328072747
 21
18254.852947536991
 31
0.0
  0
TEXT
  5
3CE1
  8
2-0
  6
CONTINUOUS
 62
     7
 10
23230.261824000001
 20
16424.22405200002
 30
0.0
 40
160.0
  1
壁パネル
 50
359.99982299999999
 72
     4
 11
23592.928737803551
 21
16504.222931637891
 31
0.0
  0
TEXT
  5
3CE2
  8
2-0
  6
CONTINUOUS
 62
     7
 10
22950.258919999989
 20
17261.411948000012
 30
0.0
 40
160.0
  1
中柱（左右）
 50
0.000354
 72
     4
 11
23467.591759046201
 21
17341.415144324659
 31
0.0
  0
TEXT
  5
3CE3
  8
2-0
  6
CONTINUOUS
 62
     7
 10
23630.261163999989
 20
14118.273302
 30
0.0
 40
160.0
  1
下枠
 50
0.001063
 72
     4
 11
23800.926346409291
 21
14198.276468339291
 31
0.0
  0
TEXT
  5
3CE4
  8
2-0
  6
CONTINUOUS
 62
     7
 10
23042.365919999978
 20
15257.09459100001
 30
0.0
 40
160.0
  1
補強柱 前
 50
359.99937
 72
     4
 11
23453.033466287769
 21
15337.09007547934
 31
0.0
  0
TEXT
  5
3CE5
  8
2-0
  6
CONTINUOUS
 62
     7
 10
23125.22658799999
 20
18864.680686499989
 30
0.0
 40
160.0
  1
間柱（側）
 72
     4
 11
23546.559921333319
 21
18944.680686499989
 31
0.0
  0
TEXT
  5
3CE6
  8
2-0
  6
CONTINUOUS
 62
     7
 10
25443.816906999979
 20
20744.228406999999
 30
0.0
 40
160.0
  1
後柱（左右）
 50
0.000354
 72
     4
 11
25955.816412712971
 21
20824.231570372842
 31
0.0
  0
TEXT
  5
3CE7
  8
2-0
  6
CONTINUOUS
 62
     7
 10
18617.36975999998
 20
19797.250472000022
 30
0.0
 40
160.0
  1
C
 72
     4
 11
18670.703093333312
 21
19877.250472000022
 31
0.0
  0
TEXT
  5
3CE8
  8
2-0
  6
CONTINUOUS
 62
     7
 10
18617.590475999979
 20
16903.336832000019
 30
0.0
 40
160.0
  1
B
 72
     4
 11
18670.923809333319
 21
16983.336832000019
 31
0.0
  0
TEXT
  5
3CE9
  8
2-0
  6
CONTINUOUS
 62
     7
 10
18617.633035999981
 20
13616.62370299999
 30
0.0
 40
160.0
  1
A
 72
     4
 11
18670.96636933331
 21
13696.62370299999
 31
0.0
  0
TEXT
  5
3CEA
  8
2-0
  6
CONTINUOUS
 62
     7
 10
22710.689611000002
 20
21238.708189000012
 30
0.0
 40
160.0
  1
2
 72
     4
 11
22764.02294433333
 21
21318.708189000012
 31
0.0
  0
TEXT
  5
3CEB
  8
2-0
  6
CONTINUOUS
 62
     7
 10
20150.61478499998
 20
21245.466266000029
 30
0.0
 40
160.0
  1
1
 72
     4
 11
20177.281451666651
 21
21325.466266000029
 31
0.0
  0
LINE
  5
3CEC
  8
2-0
  6
CONTINUOUS
 62
     3
 10
23889.321974999992
 20
19934.229199000009
 30
0.0
 11
23852.320812999991
 21
19934.229199000009
 31
0.0
  0
LINE
  5
3CED
  8
2-0
  6
CONTINUOUS
 62
     3
 10
23889.321974999992
 20
19904.22563600001
 30
0.0
 11
23889.321974999992
 21
19934.229199000009
 31
0.0
  0
LINE
  5
3CEE
  8
2-0
  6
CONTINUOUS
 62
     3
 10
23883.322053999971
 20
19904.22563600001
 30
0.0
 11
23889.321974999992
 21
19904.22563600001
 31
0.0
  0
LINE
  5
3CEF
  8
2-0
  6
CONTINUOUS
 62
     3
 10
23899.419498999981
 20
19904.22563600001
 30
0.0
 11
23899.419498999981
 21
19934.229199000009
 31
0.0
  0
LINE
  5
3CF0
  8
2-0
  6
CONTINUOUS
 62
     3
 10
23881.415777999991
 20
19904.22563600001
 30
0.0
 11
23899.419498999981
 21
19904.22563600001
 31
0.0
  0
LINE
  5
3CF1
  8
2-0
  6
CONTINUOUS
 62
     3
 10
23881.415777999991
 20
19929.234873000001
 30
0.0
 11
23881.415777999991
 21
19904.22563600001
 31
0.0
  0
LINE
  5
3CF2
  8
2-0
  6
CONTINUOUS
 62
     3
 10
23886.41604199999
 20
19929.234873000001
 30
0.0
 11
23881.415777999991
 21
19929.234873000001
 31
0.0
  0
LINE
  5
3CF3
  8
2-0
  6
CONTINUOUS
 62
     3
 10
23886.41604199999
 20
19922.229357000011
 30
0.0
 11
23886.41604199999
 21
19929.234873000001
 31
0.0
  0
LINE
  5
3CF4
  8
2-0
  6
CONTINUOUS
 62
     3
 10
23855.226746999972
 20
19922.229357000011
 30
0.0
 11
23855.226746999972
 21
19929.234873000001
 31
0.0
  0
LINE
  5
3CF5
  8
2-0
  6
CONTINUOUS
 62
     3
 10
23855.226746999972
 20
19929.234873000001
 30
0.0
 11
23860.227010999992
 21
19929.234873000001
 31
0.0
  0
LINE
  5
3CF6
  8
2-0
  6
CONTINUOUS
 62
     3
 10
23860.227010999992
 20
19929.234873000001
 30
0.0
 11
23860.227010999992
 21
19904.22563600001
 31
0.0
  0
LINE
  5
3CF7
  8
2-0
  6
CONTINUOUS
 62
     3
 10
23860.227010999992
 20
19904.22563600001
 30
0.0
 11
23842.227247999988
 21
19904.22563600001
 31
0.0
  0
LINE
  5
3CF8
  8
2-0
  6
CONTINUOUS
 62
     3
 10
23842.227247999988
 20
19904.22563600001
 30
0.0
 11
23842.227247999988
 21
19934.229199000009
 31
0.0
  0
LINE
  5
3CF9
  8
2-0
  6
CONTINUOUS
 62
     3
 10
23858.32073399999
 20
19904.22563600001
 30
0.0
 11
23852.320812999991
 21
19904.22563600001
 31
0.0
  0
LINE
  5
3CFA
  8
2-0
  6
CONTINUOUS
 62
     3
 10
23852.320812999991
 20
19904.22563600001
 30
0.0
 11
23852.320812999991
 21
19934.229199000009
 31
0.0
  0
LINE
  5
3CFB
  8
2-0
  6
CONTINUOUS
 62
     3
 10
24546.705023999992
 20
19934.229199000009
 30
0.0
 11
23899.419498999981
 21
19934.229199000009
 31
0.0
  0
LINE
  5
3CFC
  8
2-0
  6
CONTINUOUS
 62
     3
 10
23842.227247999988
 20
19934.229199000009
 30
0.0
 11
23198.414550000009
 21
19934.22919900003
 31
0.0
  0
LINE
  5
3CFD
  8
2-0
  6
CONTINUOUS
 62
     3
 10
23185.413071999988
 20
19922.229357000011
 30
0.0
 11
23185.413071999988
 21
19929.234873000001
 31
0.0
  0
LINE
  5
3CFE
  8
2-0
  6
CONTINUOUS
 62
     3
 10
23185.413071999988
 20
19929.234873000001
 30
0.0
 11
23180.41280799999
 21
19929.234873000001
 31
0.0
  0
LINE
  5
3CFF
  8
2-0
  6
CONTINUOUS
 62
     3
 10
23180.41280799999
 20
19929.234873000001
 30
0.0
 11
23180.41280799999
 21
19904.22563600001
 31
0.0
  0
LINE
  5
3D00
  8
2-0
  6
CONTINUOUS
 62
     3
 10
23180.41280799999
 20
19904.22563600001
 30
0.0
 11
23198.414550000001
 21
19904.22563600001
 31
0.0
  0
LINE
  5
3D01
  8
2-0
  6
CONTINUOUS
 62
     3
 10
23198.414550000001
 20
19904.22563600001
 30
0.0
 11
23198.414550000001
 21
19934.229199000009
 31
0.0
  0
LINE
  5
3D02
  8
2-0
  6
CONTINUOUS
 62
     3
 10
23182.315125000001
 20
19904.22563600001
 30
0.0
 11
23188.31900499999
 21
19904.22563600001
 31
0.0
  0
LINE
  5
3D03
  8
2-0
  6
CONTINUOUS
 62
     3
 10
23188.31900499999
 20
19904.22563600001
 30
0.0
 11
23188.31900499999
 21
19934.229199000009
 31
0.0
  0
LINE
  5
3D04
  8
2-0
  6
CONTINUOUS
 62
     3
 10
23151.323782999989
 20
19934.229199000009
 30
0.0
 11
23188.31900499999
 21
19934.229199000009
 31
0.0
  0
LINE
  5
3D05
  8
2-0
  6
CONTINUOUS
 62
     3
 10
23151.323782999989
 20
19904.22563600001
 30
0.0
 11
23151.323782999989
 21
19934.229199000009
 31
0.0
  0
LINE
  5
3D06
  8
2-0
  6
CONTINUOUS
 62
     3
 10
23157.317765
 20
19904.22563600001
 30
0.0
 11
23151.323782999989
 21
19904.22563600001
 31
0.0
  0
LINE
  5
3D07
  8
2-0
  6
CONTINUOUS
 62
     3
 10
23141.228238
 20
19904.22563600001
 30
0.0
 11
23141.228238
 21
19934.229199000009
 31
0.0
  0
LINE
  5
3D08
  8
2-0
  6
CONTINUOUS
 62
     3
 10
23159.224041000001
 20
19904.22563600001
 30
0.0
 11
23141.228238
 21
19904.22563600001
 31
0.0
  0
LINE
  5
3D09
  8
2-0
  6
CONTINUOUS
 62
     3
 10
23159.224041000001
 20
19929.234873000001
 30
0.0
 11
23159.224041000001
 21
19904.22563600001
 31
0.0
  0
LINE
  5
3D0A
  8
2-0
  6
CONTINUOUS
 62
     3
 10
23154.225756999989
 20
19929.234873000001
 30
0.0
 11
23159.224041000001
 21
19929.234873000001
 31
0.0
  0
LINE
  5
3D0B
  8
2-0
  6
CONTINUOUS
 62
     3
 10
23154.225756999989
 20
19922.229357000011
 30
0.0
 11
23154.225756999989
 21
19929.234873000001
 31
0.0
  0
LINE
  5
3D0C
  8
2-0
  6
CONTINUOUS
 62
     3
 10
22845.12663599999
 20
19934.229199000009
 30
0.0
 11
23141.228238
 21
19934.229199000009
 31
0.0
  0
LINE
  5
3D0D
  8
2-0
  6
CONTINUOUS
 62
     3
 10
22680.893897000002
 20
19934.229199000009
 30
0.0
 11
22032.919498999981
 21
19934.229199000009
 31
0.0
  0
LINE
  5
3D0E
  8
2-0
  6
CONTINUOUS
 62
     3
 10
24671.319677999982
 20
15486.370351
 30
0.0
 11
24671.319677999982
 21
14842.331493000011
 31
0.0
  0
LINE
  5
3D0F
  8
2-0
  6
CONTINUOUS
 62
     3
 10
24671.319677999982
 20
14785.135283
 30
0.0
 11
24671.319677999982
 21
14141.331988
 31
0.0
  0
CIRCLE
  5
3D10
  8
2-0
  6
CONTINUOUS
 62
     4
 10
24628.821393999991
 20
21334.233818000012
 30
0.0
 40
200.00001
  0
TEXT
  5
3D11
  8
2-0
  6
CONTINUOUS
 62
     7
 10
24577.189611000002
 20
21238.708189000012
 30
0.0
 40
160.0
  1
3
 72
     4
 11
24630.52294433333
 21
21318.708189000012
 31
0.0
  0
LINE
  5
3D12
  8
SUNPOU
  6
CONTINUOUS
 10
8882.5340609999967
 20
9424.5917609999997
 30
0.0
 11
8407.2449483597666
 21
9424.5917609999997
 31
0.0
  0
LINE
  5
3D13
  8
0-2
  6
CONTINUOUS
 62
     4
 10
24059.261414000011
 20
6923.8159539999951
 30
0.0
 11
23959.262073999998
 21
6923.8159539999951
 31
0.0
  0
LINE
  5
3D14
  8
0-2
  6
CONTINUOUS
 62
     4
 10
23331.877413000009
 20
6923.8159539999951
 30
0.0
 11
23431.874774000011
 21
6923.8159539999951
 31
0.0
  0
CIRCLE
  5
3D15
  8
0-4
  6
CONTINUOUS
 62
     4
 10
23695.570403500002
 20
6662.6461909999962
 30
0.0
 40
18.487504999999981
  0
LINE
  5
3D16
  8
0-6
  6
CONTINUOUS
 62
     6
 10
21399.937525999969
 20
18934.07743600001
 30
0.0
 11
22424.977775999982
 21
18934.07743600001
 31
0.0
  0
LINE
  5
3D17
  8
0-6
  6
CONTINUOUS
 62
     6
 10
20599.92102999999
 20
19904.227615000022
 30
0.0
 11
21011.563898999979
 21
18516.963178000002
 31
0.0
  0
LINE
  5
3D18
  8
0-6
  6
CONTINUOUS
 62
     6
 10
21011.563898999979
 20
18516.963178000002
 30
0.0
 11
22036.604148999992
 21
18516.963178000002
 31
0.0
  0
LINE
  5
3D19
  8
0-6
  6
CONTINUOUS
 62
     6
 10
22688.73872999999
 20
19822.972337000021
 30
0.0
 11
22424.977775999982
 21
18934.07743600001
 31
0.0
  0
LINE
  5
3D1A
  8
0-6
  6
CONTINUOUS
 62
     6
 10
21078.029142452138
 20
17854.47967400002
 30
0.0
 11
21965.54431845215
 21
17854.47967400002
 31
0.0
  0
LINE
  5
3D1B
  8
0-6
  6
CONTINUOUS
 62
     6
 10
22719.82508899998
 20
19096.22872400003
 30
0.0
 11
21965.54431845215
 21
17854.47967400002
 31
0.0
  0
LINE
  5
3D1C
  8
0-6
  6
CONTINUOUS
 62
     6
 10
20668.889436999991
 20
19757.414640000021
 30
0.0
 11
20599.92102999999
 21
19904.227615000022
 31
0.0
  0
LINE
  5
3D1D
  8
0-6
  6
CONTINUOUS
 62
     6
 10
20599.92102999999
 20
19904.227615000022
 30
0.0
 11
20617.544683999979
 21
19742.98196999999
 31
0.0
  0
LINE
  5
3D1E
  8
0-6
  6
CONTINUOUS
 62
     6
 10
20599.92102999999
 20
19904.227615000022
 30
0.0
 11
20668.889436999991
 21
19757.414640000021
 31
0.0
  0
LINE
  5
3D1F
  8
0-6
  6
CONTINUOUS
 62
     6
 10
20668.889436999991
 20
19757.414640000021
 30
0.0
 11
20617.544683999979
 21
19742.98196999999
 31
0.0
  0
LINE
  5
3D20
  8
0-6
  6
CONTINUOUS
 62
     6
 10
20617.544683999979
 20
19742.98196999999
 30
0.0
 11
20599.92102999999
 21
19904.227615000022
 31
0.0
  0
LINE
  5
3D21
  8
0-6
  6
CONTINUOUS
 62
     6
 10
20617.544683999979
 20
19742.98196999999
 30
0.0
 11
20668.889436999991
 21
19757.414640000021
 31
0.0
  0
LINE
  5
3D22
  8
0-6
  6
CONTINUOUS
 62
     6
 10
22659.55270800001
 20
18945.634868000001
 30
0.0
 11
22719.82508899998
 21
19096.22872400003
 31
0.0
  0
LINE
  5
3D23
  8
0-6
  6
CONTINUOUS
 62
     6
 10
22719.82508899998
 20
19096.22872400003
 30
0.0
 11
22613.968353999979
 21
18973.324374000022
 31
0.0
  0
LINE
  5
3D24
  8
0-6
  6
CONTINUOUS
 62
     6
 10
22719.82508899998
 20
19096.22872400003
 30
0.0
 11
22659.55270800001
 21
18945.634868000001
 31
0.0
  0
LINE
  5
3D25
  8
0-6
  6
CONTINUOUS
 62
     6
 10
22659.55270800001
 20
18945.634868000001
 30
0.0
 11
22613.968353999979
 21
18973.324374000022
 31
0.0
  0
LINE
  5
3D26
  8
0-6
  6
CONTINUOUS
 62
     6
 10
22613.968353999979
 20
18973.324374000022
 30
0.0
 11
22719.82508899998
 21
19096.22872400003
 31
0.0
  0
LINE
  5
3D27
  8
0-6
  6
CONTINUOUS
 62
     6
 10
22613.968353999979
 20
18973.324374000022
 30
0.0
 11
22659.55270800001
 21
18945.634868000001
 31
0.0
  0
LINE
  5
3D28
  8
0-6
  6
CONTINUOUS
 62
     6
 10
22619.77032299999
 20
19676.157382000009
 30
0.0
 11
22688.73872999999
 21
19822.972337000021
 31
0.0
  0
LINE
  5
3D29
  8
0-6
  6
CONTINUOUS
 62
     6
 10
22688.73872999999
 20
19822.972337000021
 30
0.0
 11
22671.11309599999
 21
19661.724712000021
 31
0.0
  0
LINE
  5
3D2A
  8
0-6
  6
CONTINUOUS
 62
     6
 10
22688.73872999999
 20
19822.972337000021
 30
0.0
 11
22619.77032299999
 21
19676.157382000009
 31
0.0
  0
LINE
  5
3D2B
  8
0-6
  6
CONTINUOUS
 62
     6
 10
22619.77032299999
 20
19676.157382000009
 30
0.0
 11
22671.11309599999
 21
19661.724712000021
 31
0.0
  0
LINE
  5
3D2C
  8
0-6
  6
CONTINUOUS
 62
     6
 10
22671.11309599999
 20
19661.724712000021
 30
0.0
 11
22688.73872999999
 21
19822.972337000021
 31
0.0
  0
LINE
  5
3D2D
  8
0-6
  6
CONTINUOUS
 62
     6
 10
22671.11309599999
 20
19661.724712000021
 30
0.0
 11
22619.77032299999
 21
19676.157382000009
 31
0.0
  0
TEXT
  5
3D2E
  8
0-6
  6
CONTINUOUS
 62
     7
 10
21479.937789999989
 20
19014.077700000009
 30
0.0
 40
160.0
  1
後柱（中）
 72
     4
 11
21895.937789999989
 21
19094.077700000009
 31
0.0
  0
TEXT
  5
3D2F
  8
0-6
  6
CONTINUOUS
 62
     7
 10
21091.564162999981
 20
18596.963442000018
 30
0.0
 40
160.0
  1
間柱（後）
 72
     4
 11
21512.89749633332
 21
18676.963442000018
 31
0.0
  0
TEXT
  5
3D30
  8
0-6
  6
CONTINUOUS
 62
     7
 10
21158.029406452129
 20
17934.479938000011
 30
0.0
 40
160.0
  1
梁補助柱
 72
     4
 11
21520.696073118801
 21
18014.479938000011
 31
0.0
  0
LINE
  5
3D31
  8
SUNPOU
  6
CONTINUOUS
 10
8969.8679039999897
 20
20114.226823000001
 30
0.0
 11
8969.8679039999897
 21
20911.19409077847
 31
0.0
  0
LINE
  5
3D32
  8
SUNPOU
  6
CONTINUOUS
 10
8969.8679039999897
 20
13512.735599
 30
0.0
 11
8969.8679039999897
 21
12837.30948318962
 31
0.0
  0
CIRCLE
  5
3D33
  8
0-5
  6
CONTINUOUS
 62
     4
 10
15128.714697999991
 20
1375.999982
 30
0.0
 40
20.0
  0
ARC
  5
3D34
  8
0-5
  6
CONTINUOUS
 62
     4
 10
15128.714697999991
 20
1375.999982
 30
0.0
 40
20.0
 50
180.0
 51
0.0
  0
ARC
  5
3D35
  8
0-5
  6
CONTINUOUS
 62
     4
 10
15128.714697999991
 20
1375.999982
 30
0.0
 40
20.0
 50
0.0
 51
179.99998499999839
  0
CIRCLE
  5
3D36
  8
0-5
  6
CONTINUOUS
 62
     4
 10
15128.714697999991
 20
1775.999941
 30
0.0
 40
20.0
  0
ARC
  5
3D37
  8
0-5
  6
CONTINUOUS
 62
     4
 10
15128.714697999991
 20
1775.999941
 30
0.0
 40
20.0
 50
180.0
 51
0.0
  0
ARC
  5
3D38
  8
0-5
  6
CONTINUOUS
 62
     4
 10
15128.714697999991
 20
1775.999941
 30
0.0
 40
20.0
 50
0.0
 51
179.99998499999839
  0
TEXT
  5
3D39
  8
0-5
  6
CONTINUOUS
 62
     7
 10
16669.776841999981
 20
1655.999793
 30
0.0
 40
160.0
  1
H
  0
TEXT
  5
3D3A
  8
0-5
  6
CONTINUOUS
 62
     7
 10
15176.145943
 20
1655.999793
 30
0.0
 40
160.0
  1
（ ）内寸法ハ、  タ イプヲ示ス。
  0
TEXT
  5
3D3B
  8
0-5
  6
CONTINUOUS
 62
     7
 10
15288.712256999979
 20
1255.9999580000001
 30
0.0
 40
160.0
  1
有効高サハ、基礎高サヲ含ミマセン。
  0
LINE
  5
3D3E
  8
WAKUSEN-01
 10
868.00000000000193
 20
22484.000000000011
 30
0.0
 11
32764.000000000011
 21
22484.000000000011
 31
0.0
  0
LINE
  5
3D41
  8
WAKUSEN-01
 10
20560.0
 20
2484.0
 30
0.0
 11
32764.0
 21
2484.0
 31
0.0
  0
LINE
  5
3D42
  8
WAKUSEN-02
 10
20560.0
 20
1655.9999999999991
 30
0.0
 11
26868.0
 21
1655.9999999999991
 31
0.0
  0
TEXT
  5
3D43
  8
WAKUMOJI-01
 10
20670.260259962761
 20
2125.9030093393221
 30
0.0
 40
240.0
  1
名　称
  7
WAKUMOJI
  0
TEXT
  5
3D44
  8
WAKUMOJI-01
 10
20656.505485091919
 20
1319.12897497982
 30
0.0
 40
240.0
  1
機種名
  7
WAKUMOJI
  0
LINE
  5
3D47
  8
YODOROGO
 10
29977.604341291921
 20
1995.7494964292871
 30
0.0
 11
29829.604341291921
 21
1995.7494964292871
 31
0.0
1001
AUTOCAD_POSTSCRIPT_FIGURE
1002
{
1000
PSFILL
1000
Grayscale
1000
Grayscale
1070
    25
1002
}
  0
LINE
  5
3D48
  8
YODOROGO
 10
29829.604341291921
 20
1947.749496429288
 30
0.0
 11
29977.604341291921
 21
1947.749496429288
 31
0.0
1001
AUTOCAD_POSTSCRIPT_FIGURE
1002
{
1000
PSFILL
1000
Grayscale
1000
Grayscale
1070
    25
1002
}
  0
LINE
  5
3D49
  8
YODOROGO
 10
29977.604341291921
 20
1907.7494964292871
 30
0.0
 11
29829.604341291921
 21
1907.7494964292871
 31
0.0
1001
AUTOCAD_POSTSCRIPT_FIGURE
1002
{
1000
PSFILL
1000
Grayscale
1000
Grayscale
1070
    25
1002
}
  0
LINE
  5
3D4A
  8
YODOROGO
 10
29829.604341291921
 20
1859.749496429288
 30
0.0
 11
29977.604341291921
 21
1859.749496429288
 31
0.0
1001
AUTOCAD_POSTSCRIPT_FIGURE
1002
{
1000
PSFILL
1000
Grayscale
1000
Grayscale
1070
    25
1002
}
  0
LINE
  5
3D4B
  8
YODOROGO
 10
29977.604341291921
 20
1819.7494964292871
 30
0.0
 11
29829.604341291921
 21
1819.7494964292871
 31
0.0
1001
AUTOCAD_POSTSCRIPT_FIGURE
1002
{
1000
PSFILL
1000
Grayscale
1000
Grayscale
1070
    25
1002
}
  0
LINE
  5
3D4C
  8
YODOROGO
 10
29921.60434129191
 20
1707.749496429288
 30
0.0
 11
29977.604341291921
 21
1707.749496429288
 31
0.0
1001
AUTOCAD_POSTSCRIPT_FIGURE
1002
{
1000
PSFILL
1000
Grayscale
1000
Grayscale
1070
    25
1002
}
  0
LINE
  5
3D4D
  8
YODOROGO
 10
29737.604341291921
 20
1427.749496429288
 30
0.0
 11
29937.604341291932
 21
1481.3393349155101
 31
0.0
  0
LINE
  5
3D4E
  8
YODOROGO
 10
29949.60434129191
 20
1707.749496429288
 30
0.0
 11
29885.604341291921
 21
1707.749496429288
 31
0.0
  0
ARC
  5
3D4F
  8
YODOROGO
 10
30254.34774982791
 20
1807.864609233261
 30
0.0
 40
381.88686420564721
 50
213.96111677667841
 51
264.47872074317792
  0
ARC
  5
3D50
  8
YODOROGO
 10
30254.347749827921
 20
1807.864609233302
 30
0.0
 40
381.8868642056816
 50
208.14114420486601
 51
212.9210361185994
  0
LINE
  5
3D51
  8
YODOROGO
 10
29771.409872985321
 20
1556.807661346234
 30
0.0
 11
29933.78413250855
 21
1600.3157130570869
 31
0.0
  0
LINE
  5
3D52
  8
YODOROGO
 10
29737.604341291921
 20
1427.749496429288
 30
0.0
 11
29937.604341291932
 21
1481.3393349155101
 31
0.0
  0
LINE
  5
3D53
  8
YODOROGO
 10
29949.60434129191
 20
1707.749496429288
 30
0.0
 11
29885.604341291921
 21
1707.749496429288
 31
0.0
  0
ARC
  5
3D54
  8
YODOROGO
 10
30254.34774982791
 20
1807.864609233261
 30
0.0
 40
381.88686420564721
 50
213.96111677667841
 51
264.47872074317792
  0
LINE
  5
3D55
  8
YODOROGO
 10
28793.60434129191
 20
1819.7494964292871
 30
0.0
 11
28433.60434129191
 21
1819.7494964292871
 31
0.0
  0
LINE
  5
3D56
  8
YODOROGO
 10
28513.60434129191
 20
1427.749496429288
 30
0.0
 11
28793.60434129191
 21
1427.749496429288
 31
0.0
  0
LINE
  5
3D57
  8
YODOROGO
 10
28729.604341291921
 20
1923.7494964292871
 30
0.0
 11
28497.60434129191
 21
1923.7494964292871
 31
0.0
  0
LINE
  5
3D58
  8
YODOROGO
 10
28585.604341291921
 20
2027.749496429288
 30
0.0
 11
28657.604341291921
 21
2027.749496429288
 31
0.0
  0
LINE
  5
3D59
  8
YODOROGO
 10
28433.60434129191
 20
1707.749496429288
 30
0.0
 11
28433.60434129191
 21
1507.749496429288
 31
0.0
  0
LINE
  5
3D5A
  8
YODOROGO
 10
28497.60434129191
 20
1563.7494964292871
 30
0.0
 11
28497.60434129191
 21
1707.749496429288
 31
0.0
  0
LINE
  5
3D5B
  8
YODOROGO
 10
28585.604341291921
 20
1747.74949642929
 30
0.0
 11
28585.604341291921
 21
1547.749496429288
 31
0.0
  0
LINE
  5
3D5C
  8
YODOROGO
 10
27857.604341291921
 20
1683.749496429288
 30
0.0
 11
27777.604341291921
 21
1619.9724140445701
 31
0.0
  0
LINE
  5
3D5D
  8
YODOROGO
 10
27937.604341291921
 20
1619.9724140445701
 30
0.0
 11
27857.604341291921
 21
1683.749496429288
 31
0.0
  0
LINE
  5
3D5E
  8
YODOROGO
 10
27857.604341291921
 20
1707.749496429288
 30
0.0
 11
27937.604341291921
 21
1643.9724140445701
 31
0.0
  0
LINE
  5
3D5F
  8
YODOROGO
 10
27777.604341291921
 20
1643.9724140445701
 30
0.0
 11
27857.604341291921
 21
1707.749496429288
 31
0.0
  0
LINE
  5
3D60
  8
YODOROGO
 10
28040.913204016892
 20
1659.749496429288
 30
0.0
 11
28040.913204016892
 21
1683.7494964292871
 31
0.0
  0
LINE
  5
3D61
  8
YODOROGO
 10
27977.604341291921
 20
1683.7494964292871
 30
0.0
 11
27977.604341291921
 21
1667.749496429285
 31
0.0
  0
LINE
  5
3D62
  8
YODOROGO
 10
28098.135520230931
 20
1707.749496429288
 30
0.0
 11
28098.135520230931
 21
1655.5036372746561
 31
0.0
1001
AUTOCAD_POSTSCRIPT_FIGURE
1002
{
1000
PSFILL
1000
Grayscale
1000
Grayscale
1070
   100
1002
}
  0
LINE
  5
3D63
  8
YODOROGO
 10
28082.135520230921
 20
1655.5036372746561
 30
0.0
 11
28082.135520230921
 21
1707.749496429288
 31
0.0
1001
AUTOCAD_POSTSCRIPT_FIGURE
1002
{
1000
PSFILL
1000
Grayscale
1000
Grayscale
1070
   100
1002
}
  0
LINE
  5
3D64
  8
YODOROGO
 10
27809.604341291921
 20
1608.771904043258
 30
0.0
 11
27809.604341291921
 21
1632.771904043258
 31
0.0
  0
LINE
  5
3D65
  8
YODOROGO
 10
27905.604341291921
 20
1608.771904043258
 30
0.0
 11
27809.604341291921
 21
1608.771904043258
 31
0.0
  0
LINE
  5
3D66
  8
YODOROGO
 10
27905.604341291921
 20
1632.771904043258
 30
0.0
 11
27905.604341291921
 21
1608.771904043258
 31
0.0
  0
LINE
  5
3D67
  8
YODOROGO
 10
27809.604341291921
 20
1632.771904043258
 30
0.0
 11
27905.604341291921
 21
1632.771904043258
 31
0.0
  0
LINE
  5
3D68
  8
YODOROGO
 10
27824.509588915738
 20
1568.5028573704751
 30
0.0
 11
27785.604341291921
 21
1475.7494964292871
 31
0.0
1001
AUTOCAD_POSTSCRIPT_FIGURE
1002
{
1000
PSFILL
1000
Grayscale
1000
Grayscale
1070
   100
1002
}
  0
LINE
  5
3D69
  8
YODOROGO
 10
27777.604341291921
 20
1568.5028573704751
 30
0.0
 11
27824.509588915738
 21
1568.5028573704751
 31
0.0
1001
AUTOCAD_POSTSCRIPT_FIGURE
1002
{
1000
PSFILL
1000
Grayscale
1000
Grayscale
1070
   100
1002
}
  0
LINE
  5
3D6A
  8
YODOROGO
 10
27777.604341291921
 20
1588.5028573704751
 30
0.0
 11
27777.604341291921
 21
1568.5028573704751
 31
0.0
1001
AUTOCAD_POSTSCRIPT_FIGURE
1002
{
1000
PSFILL
1000
Grayscale
1000
Grayscale
1070
   100
1002
}
  0
LINE
  5
3D6B
  8
YODOROGO
 10
27937.604341291921
 20
1588.5028573704751
 30
0.0
 11
27777.604341291921
 21
1588.5028573704751
 31
0.0
1001
AUTOCAD_POSTSCRIPT_FIGURE
1002
{
1000
PSFILL
1000
Grayscale
1000
Grayscale
1070
   100
1002
}
  0
LINE
  5
3D6C
  8
YODOROGO
 10
27937.604341291921
 20
1568.5028573704751
 30
0.0
 11
27937.604341291921
 21
1588.5028573704751
 31
0.0
1001
AUTOCAD_POSTSCRIPT_FIGURE
1002
{
1000
PSFILL
1000
Grayscale
1000
Grayscale
1070
   100
1002
}
  0
LINE
  5
3D6D
  8
YODOROGO
 10
27844.509588915738
 20
1568.5028573704751
 30
0.0
 11
27937.604341291921
 21
1568.5028573704751
 31
0.0
1001
AUTOCAD_POSTSCRIPT_FIGURE
1002
{
1000
PSFILL
1000
Grayscale
1000
Grayscale
1070
   100
1002
}
  0
LINE
  5
3D6E
  8
YODOROGO
 10
27815.546718284771
 20
1495.7494964292871
 30
0.0
 11
27844.509588915738
 21
1568.5028573704751
 31
0.0
1001
AUTOCAD_POSTSCRIPT_FIGURE
1002
{
1000
PSFILL
1000
Grayscale
1000
Grayscale
1070
   100
1002
}
  0
LINE
  5
3D6F
  8
YODOROGO
 10
27902.054790808648
 20
1495.7494964292871
 30
0.0
 11
27815.546718284771
 21
1495.7494964292871
 31
0.0
1001
AUTOCAD_POSTSCRIPT_FIGURE
1002
{
1000
PSFILL
1000
Grayscale
1000
Grayscale
1070
   100
1002
}
  0
LINE
  5
3D70
  8
YODOROGO
 10
27885.065004790951
 20
1536.2338106976929
 30
0.0
 11
27902.054790808648
 21
1495.7494964292871
 31
0.0
1001
AUTOCAD_POSTSCRIPT_FIGURE
1002
{
1000
PSFILL
1000
Grayscale
1000
Grayscale
1070
   100
1002
}
  0
LINE
  5
3D71
  8
YODOROGO
 10
27901.065004790951
 20
1536.2338106976929
 30
0.0
 11
27885.065004790951
 21
1536.2338106976929
 31
0.0
1001
AUTOCAD_POSTSCRIPT_FIGURE
1002
{
1000
PSFILL
1000
Grayscale
1000
Grayscale
1070
   100
1002
}
  0
LINE
  5
3D72
  8
YODOROGO
 10
27929.604341291921
 20
1475.7494964292871
 30
0.0
 11
27901.065004790951
 21
1536.2338106976929
 31
0.0
1001
AUTOCAD_POSTSCRIPT_FIGURE
1002
{
1000
PSFILL
1000
Grayscale
1000
Grayscale
1070
   100
1002
}
  0
LINE
  5
3D73
  8
YODOROGO
 10
27785.604341291921
 20
1475.7494964292871
 30
0.0
 11
27929.604341291921
 21
1475.7494964292871
 31
0.0
1001
AUTOCAD_POSTSCRIPT_FIGURE
1002
{
1000
PSFILL
1000
Grayscale
1000
Grayscale
1070
   100
1002
}
  0
LINE
  5
3D74
  8
YODOROGO
 10
27777.604341291921
 20
1619.9724140445701
 30
0.0
 11
27777.604341291921
 21
1643.9724140445701
 31
0.0
  0
LINE
  5
3D75
  8
YODOROGO
 10
27937.604341291921
 20
1643.9724140445701
 30
0.0
 11
27937.604341291921
 21
1619.9724140445701
 31
0.0
  0
ARC
  5
3D76
  8
YODOROGO
 10
28225.940442146959
 20
1600.877765325326
 30
0.0
 40
175.9999999999998
 50
280.3644312771313
 51
3.5414836592180561
  0
ARC
  5
3D77
  8
YODOROGO
 10
28235.756030759301
 20
1633.5978069619041
 30
0.0
 40
111.9999999999982
 50
281.24905825041549
 51
348.75094174958321
  0
LINE
  5
3D78
  8
YODOROGO
 10
28257.604341291921
 20
1523.7494964292871
 30
0.0
 11
28257.604341291921
 21
1427.749496429288
 31
0.0
  0
LINE
  5
3D79
  8
YODOROGO
 10
28020.088903736909
 20
1610.650565061914
 30
0.0
 11
28040.913204016892
 21
1659.749496429288
 31
0.0
  0
LINE
  5
3D7A
  8
YODOROGO
 10
28041.604341291921
 20
1583.120489948401
 30
0.0
 11
28020.088903736909
 21
1610.650565061914
 31
0.0
  0
LINE
  5
3D7B
  8
YODOROGO
 10
28041.604341291921
 20
1563.120489948398
 30
0.0
 11
28041.604341291921
 21
1583.120489948401
 31
0.0
  0
LINE
  5
3D7C
  8
YODOROGO
 10
28017.604341291921
 20
1585.2370637495301
 30
0.0
 11
28041.604341291921
 21
1563.120489948398
 31
0.0
  0
LINE
  5
3D7D
  8
YODOROGO
 10
28017.604341291921
 20
1475.7494964292871
 30
0.0
 11
28017.604341291921
 21
1585.2370637495301
 31
0.0
  0
LINE
  5
3D7E
  8
YODOROGO
 10
28001.604341291921
 20
1475.7494964292871
 30
0.0
 11
28017.604341291921
 21
1475.7494964292871
 31
0.0
  0
LINE
  5
3D7F
  8
YODOROGO
 10
28001.604341291921
 20
1580.0053496897469
 30
0.0
 11
28001.604341291921
 21
1475.7494964292871
 31
0.0
  0
LINE
  5
3D80
  8
YODOROGO
 10
27977.604341291921
 20
1532.7680790334291
 30
0.0
 11
28001.604341291921
 21
1580.0053496897469
 31
0.0
  0
LINE
  5
3D81
  8
YODOROGO
 10
27977.604341291921
 20
1556.76807903343
 30
0.0
 11
27977.604341291921
 21
1532.7680790334291
 31
0.0
  0
LINE
  5
3D82
  8
YODOROGO
 10
28025.828774291349
 20
1667.749496429285
 30
0.0
 11
27977.604341291921
 21
1556.76807903343
 31
0.0
  0
LINE
  5
3D83
  8
YODOROGO
 10
27977.604341291921
 20
1667.749496429285
 30
0.0
 11
28025.828774291349
 21
1667.749496429285
 31
0.0
  0
LINE
  5
3D84
  8
YODOROGO
 10
28050.135520230899
 20
1655.5036372746561
 30
0.0
 11
28082.135520230921
 21
1655.5036372746561
 31
0.0
1001
AUTOCAD_POSTSCRIPT_FIGURE
1002
{
1000
PSFILL
1000
Grayscale
1000
Grayscale
1070
   100
1002
}
  0
LINE
  5
3D85
  8
YODOROGO
 10
28050.135520230899
 20
1631.5036372746561
 30
0.0
 11
28050.135520230899
 21
1655.5036372746561
 31
0.0
1001
AUTOCAD_POSTSCRIPT_FIGURE
1002
{
1000
PSFILL
1000
Grayscale
1000
Grayscale
1070
   100
1002
}
  0
LINE
  5
3D86
  8
YODOROGO
 10
28082.135520230921
 20
1631.5036372746561
 30
0.0
 11
28050.135520230899
 21
1631.5036372746561
 31
0.0
1001
AUTOCAD_POSTSCRIPT_FIGURE
1002
{
1000
PSFILL
1000
Grayscale
1000
Grayscale
1070
   100
1002
}
  0
LINE
  5
3D87
  8
YODOROGO
 10
28082.135520230921
 20
1499.749496429288
 30
0.0
 11
28082.135520230921
 21
1631.5036372746561
 31
0.0
1001
AUTOCAD_POSTSCRIPT_FIGURE
1002
{
1000
PSFILL
1000
Grayscale
1000
Grayscale
1070
   100
1002
}
  0
LINE
  5
3D88
  8
YODOROGO
 10
28050.135520230921
 20
1499.749496429288
 30
0.0
 11
28082.135520230921
 21
1499.749496429288
 31
0.0
1001
AUTOCAD_POSTSCRIPT_FIGURE
1002
{
1000
PSFILL
1000
Grayscale
1000
Grayscale
1070
   100
1002
}
  0
LINE
  5
3D89
  8
YODOROGO
 10
28050.135520230921
 20
1475.7494964292871
 30
0.0
 11
28050.135520230921
 21
1499.749496429288
 31
0.0
1001
AUTOCAD_POSTSCRIPT_FIGURE
1002
{
1000
PSFILL
1000
Grayscale
1000
Grayscale
1070
   100
1002
}
  0
LINE
  5
3D8A
  8
YODOROGO
 10
28137.604341291921
 20
1475.7494964292871
 30
0.0
 11
28050.135520230921
 21
1475.7494964292871
 31
0.0
1001
AUTOCAD_POSTSCRIPT_FIGURE
1002
{
1000
PSFILL
1000
Grayscale
1000
Grayscale
1070
   100
1002
}
  0
LINE
  5
3D8B
  8
YODOROGO
 10
28137.604341291921
 20
1499.749496429288
 30
0.0
 11
28137.604341291921
 21
1475.7494964292871
 31
0.0
1001
AUTOCAD_POSTSCRIPT_FIGURE
1002
{
1000
PSFILL
1000
Grayscale
1000
Grayscale
1070
   100
1002
}
  0
LINE
  5
3D8C
  8
YODOROGO
 10
28098.135520230931
 20
1499.749496429288
 30
0.0
 11
28137.604341291921
 21
1499.749496429288
 31
0.0
1001
AUTOCAD_POSTSCRIPT_FIGURE
1002
{
1000
PSFILL
1000
Grayscale
1000
Grayscale
1070
   100
1002
}
  0
LINE
  5
3D8D
  8
YODOROGO
 10
28098.135520230931
 20
1631.5036372746561
 30
0.0
 11
28098.135520230931
 21
1499.749496429288
 31
0.0
1001
AUTOCAD_POSTSCRIPT_FIGURE
1002
{
1000
PSFILL
1000
Grayscale
1000
Grayscale
1070
   100
1002
}
  0
LINE
  5
3D8E
  8
YODOROGO
 10
28137.604341291921
 20
1631.5036372746561
 30
0.0
 11
28098.135520230931
 21
1631.5036372746561
 31
0.0
1001
AUTOCAD_POSTSCRIPT_FIGURE
1002
{
1000
PSFILL
1000
Grayscale
1000
Grayscale
1070
   100
1002
}
  0
LINE
  5
3D8F
  8
YODOROGO
 10
28137.604341291921
 20
1655.5036372746561
 30
0.0
 11
28137.604341291921
 21
1631.5036372746561
 31
0.0
1001
AUTOCAD_POSTSCRIPT_FIGURE
1002
{
1000
PSFILL
1000
Grayscale
1000
Grayscale
1070
   100
1002
}
  0
LINE
  5
3D90
  8
YODOROGO
 10
28098.135520230931
 20
1655.5036372746561
 30
0.0
 11
28137.604341291921
 21
1655.5036372746561
 31
0.0
1001
AUTOCAD_POSTSCRIPT_FIGURE
1002
{
1000
PSFILL
1000
Grayscale
1000
Grayscale
1070
   100
1002
}
  0
LINE
  5
3D91
  8
YODOROGO
 10
28401.60434129191
 20
1667.749496429288
 30
0.0
 11
28345.604341291921
 21
1667.749496429288
 31
0.0
  0
LINE
  5
3D92
  8
YODOROGO
 10
28401.60434129191
 20
1611.749496429288
 30
0.0
 11
28401.60434129191
 21
1667.749496429288
 31
0.0
  0
LINE
  5
3D93
  8
YODOROGO
 10
28345.604341291921
 20
1667.749496429288
 30
0.0
 11
28345.604341291921
 21
1611.749496429288
 31
0.0
  0
ARC
  5
3D94
  8
YODOROGO
 10
28513.60434129191
 20
1507.749496429288
 30
0.0
 40
80.0
 50
180.0
 51
270.0
  0
ARC
  5
3D95
  8
YODOROGO
 10
28537.604341291921
 20
1563.7494964292871
 30
0.0
 40
40.0
 50
180.0
 51
270.0
  0
LINE
  5
3D96
  8
YODOROGO
 10
28561.604341291932
 20
1523.7494964292871
 30
0.0
 11
28537.604341291921
 21
1523.7494964292871
 31
0.0
  0
ARC
  5
3D97
  8
YODOROGO
 10
28561.604341291932
 20
1547.749496429285
 30
0.0
 40
23.999999999996358
 50
270.0
 51
0.0000000000054281
  0
LINE
  5
3D98
  8
YODOROGO
 10
27801.604341291921
 20
1890.786580793706
 30
0.0
 11
27777.604341291921
 21
1843.776747951672
 31
0.0
1001
AUTOCAD_POSTSCRIPT_FIGURE
1002
{
1000
PSFILL
1000
Grayscale
1000
Grayscale
1070
   100
1002
}
  0
LINE
  5
3D99
  8
YODOROGO
 10
27801.604341291921
 20
1747.749496429286
 30
0.0
 11
27801.604341291921
 21
1890.786580793706
 31
0.0
1001
AUTOCAD_POSTSCRIPT_FIGURE
1002
{
1000
PSFILL
1000
Grayscale
1000
Grayscale
1070
   100
1002
}
  0
LINE
  5
3D9A
  8
YODOROGO
 10
27817.604341291921
 20
1747.749496429286
 30
0.0
 11
27801.604341291921
 21
1747.749496429286
 31
0.0
1001
AUTOCAD_POSTSCRIPT_FIGURE
1002
{
1000
PSFILL
1000
Grayscale
1000
Grayscale
1070
   100
1002
}
  0
LINE
  5
3D9B
  8
YODOROGO
 10
27817.604341291921
 20
1893.7713320852661
 30
0.0
 11
27817.604341291921
 21
1747.749496429286
 31
0.0
1001
AUTOCAD_POSTSCRIPT_FIGURE
1002
{
1000
PSFILL
1000
Grayscale
1000
Grayscale
1070
   100
1002
}
  0
LINE
  5
3D9C
  8
YODOROGO
 10
27841.604341291921
 20
1867.6547582841361
 30
0.0
 11
27817.604341291921
 21
1893.7713320852661
 31
0.0
1001
AUTOCAD_POSTSCRIPT_FIGURE
1002
{
1000
PSFILL
1000
Grayscale
1000
Grayscale
1070
   100
1002
}
  0
LINE
  5
3D9D
  8
YODOROGO
 10
27841.604341291921
 20
1883.6547582841361
 30
0.0
 11
27841.604341291921
 21
1867.6547582841361
 31
0.0
1001
AUTOCAD_POSTSCRIPT_FIGURE
1002
{
1000
PSFILL
1000
Grayscale
1000
Grayscale
1070
   100
1002
}
  0
LINE
  5
3D9E
  8
YODOROGO
 10
27817.604341291921
 20
1917.7713320852649
 30
0.0
 11
27841.604341291921
 21
1883.6547582841361
 31
0.0
1001
AUTOCAD_POSTSCRIPT_FIGURE
1002
{
1000
PSFILL
1000
Grayscale
1000
Grayscale
1070
   100
1002
}
  0
LINE
  5
3D9F
  8
YODOROGO
 10
27817.604341291921
 20
1939.749496429288
 30
0.0
 11
27817.604341291921
 21
1917.7713320852649
 31
0.0
1001
AUTOCAD_POSTSCRIPT_FIGURE
1002
{
1000
PSFILL
1000
Grayscale
1000
Grayscale
1070
   100
1002
}
  0
LINE
  5
3DA0
  8
YODOROGO
 10
27889.604341291921
 20
1939.749496429288
 30
0.0
 11
27817.604341291921
 21
1939.749496429288
 31
0.0
1001
AUTOCAD_POSTSCRIPT_FIGURE
1002
{
1000
PSFILL
1000
Grayscale
1000
Grayscale
1070
   100
1002
}
  0
LINE
  5
3DA1
  8
YODOROGO
 10
27889.604341291921
 20
1900.5683489363
 30
0.0
 11
27889.604341291921
 21
1939.749496429288
 31
0.0
1001
AUTOCAD_POSTSCRIPT_FIGURE
1002
{
1000
PSFILL
1000
Grayscale
1000
Grayscale
1070
   100
1002
}
  0
LINE
  5
3DA2
  8
YODOROGO
 10
27857.604341291921
 20
1900.5683489363
 30
0.0
 11
27889.604341291921
 21
1900.5683489363
 31
0.0
1001
AUTOCAD_POSTSCRIPT_FIGURE
1002
{
1000
PSFILL
1000
Grayscale
1000
Grayscale
1070
   100
1002
}
  0
LINE
  5
3DA3
  8
YODOROGO
 10
27857.604341291921
 20
1884.568348936298
 30
0.0
 11
27857.604341291921
 21
1900.5683489363
 31
0.0
1001
AUTOCAD_POSTSCRIPT_FIGURE
1002
{
1000
PSFILL
1000
Grayscale
1000
Grayscale
1070
   100
1002
}
  0
LINE
  5
3DA4
  8
YODOROGO
 10
27889.604341291921
 20
1884.568348936298
 30
0.0
 11
27857.604341291921
 21
1884.568348936298
 31
0.0
1001
AUTOCAD_POSTSCRIPT_FIGURE
1002
{
1000
PSFILL
1000
Grayscale
1000
Grayscale
1070
   100
1002
}
  0
LINE
  5
3DA5
  8
YODOROGO
 10
27889.604341291921
 20
1879.6191779644371
 30
0.0
 11
27889.604341291921
 21
1884.568348936298
 31
0.0
1001
AUTOCAD_POSTSCRIPT_FIGURE
1002
{
1000
PSFILL
1000
Grayscale
1000
Grayscale
1070
   100
1002
}
  0
LINE
  5
3DA6
  8
YODOROGO
 10
27849.604341291921
 20
1812.974981161417
 30
0.0
 11
27889.604341291921
 21
1879.6191779644371
 31
0.0
1001
AUTOCAD_POSTSCRIPT_FIGURE
1002
{
1000
PSFILL
1000
Grayscale
1000
Grayscale
1070
   100
1002
}
  0
LINE
  5
3DA7
  8
YODOROGO
 10
27849.604341291921
 20
1796.9749811614161
 30
0.0
 11
27849.604341291921
 21
1812.974981161417
 31
0.0
1001
AUTOCAD_POSTSCRIPT_FIGURE
1002
{
1000
PSFILL
1000
Grayscale
1000
Grayscale
1070
   100
1002
}
  0
LINE
  5
3DA8
  8
YODOROGO
 10
27889.604341291921
 20
1847.6191779644359
 30
0.0
 11
27849.604341291921
 21
1796.9749811614161
 31
0.0
1001
AUTOCAD_POSTSCRIPT_FIGURE
1002
{
1000
PSFILL
1000
Grayscale
1000
Grayscale
1070
   100
1002
}
  0
LINE
  5
3DA9
  8
YODOROGO
 10
27889.604341291921
 20
1747.749496429286
 30
0.0
 11
27889.604341291921
 21
1847.6191779644359
 31
0.0
1001
AUTOCAD_POSTSCRIPT_FIGURE
1002
{
1000
PSFILL
1000
Grayscale
1000
Grayscale
1070
   100
1002
}
  0
LINE
  5
3DAA
  8
YODOROGO
 10
27905.604341291921
 20
1747.749496429286
 30
0.0
 11
27889.604341291921
 21
1747.749496429286
 31
0.0
1001
AUTOCAD_POSTSCRIPT_FIGURE
1002
{
1000
PSFILL
1000
Grayscale
1000
Grayscale
1070
   100
1002
}
  0
LINE
  5
3DAB
  8
YODOROGO
 10
27905.604341291921
 20
1849.409012158806
 30
0.0
 11
27905.604341291921
 21
1747.749496429286
 31
0.0
1001
AUTOCAD_POSTSCRIPT_FIGURE
1002
{
1000
PSFILL
1000
Grayscale
1000
Grayscale
1070
   100
1002
}
  0
LINE
  5
3DAC
  8
YODOROGO
 10
27937.604341291921
 20
1796.9749811614161
 30
0.0
 11
27905.604341291921
 21
1849.409012158806
 31
0.0
1001
AUTOCAD_POSTSCRIPT_FIGURE
1002
{
1000
PSFILL
1000
Grayscale
1000
Grayscale
1070
   100
1002
}
  0
LINE
  5
3DAD
  8
YODOROGO
 10
27937.604341291921
 20
1812.974981161417
 30
0.0
 11
27937.604341291921
 21
1796.9749811614161
 31
0.0
1001
AUTOCAD_POSTSCRIPT_FIGURE
1002
{
1000
PSFILL
1000
Grayscale
1000
Grayscale
1070
   100
1002
}
  0
LINE
  5
3DAE
  8
YODOROGO
 10
27905.604341291921
 20
1881.4090121588081
 30
0.0
 11
27937.604341291921
 21
1812.974981161417
 31
0.0
1001
AUTOCAD_POSTSCRIPT_FIGURE
1002
{
1000
PSFILL
1000
Grayscale
1000
Grayscale
1070
   100
1002
}
  0
LINE
  5
3DAF
  8
YODOROGO
 10
27905.604341291921
 20
1884.5683489363
 30
0.0
 11
27905.604341291921
 21
1881.4090121588081
 31
0.0
1001
AUTOCAD_POSTSCRIPT_FIGURE
1002
{
1000
PSFILL
1000
Grayscale
1000
Grayscale
1070
   100
1002
}
  0
LINE
  5
3DB0
  8
YODOROGO
 10
27937.604341291921
 20
1884.568348936298
 30
0.0
 11
27905.604341291921
 21
1884.5683489363
 31
0.0
1001
AUTOCAD_POSTSCRIPT_FIGURE
1002
{
1000
PSFILL
1000
Grayscale
1000
Grayscale
1070
   100
1002
}
  0
LINE
  5
3DB1
  8
YODOROGO
 10
27937.604341291921
 20
1900.5683489363
 30
0.0
 11
27937.604341291921
 21
1884.568348936298
 31
0.0
1001
AUTOCAD_POSTSCRIPT_FIGURE
1002
{
1000
PSFILL
1000
Grayscale
1000
Grayscale
1070
   100
1002
}
  0
LINE
  5
3DB2
  8
YODOROGO
 10
27905.604341291921
 20
1900.5683489363
 30
0.0
 11
27937.604341291921
 21
1900.5683489363
 31
0.0
1001
AUTOCAD_POSTSCRIPT_FIGURE
1002
{
1000
PSFILL
1000
Grayscale
1000
Grayscale
1070
   100
1002
}
  0
LINE
  5
3DB3
  8
YODOROGO
 10
27905.604341291921
 20
1939.749496429288
 30
0.0
 11
27905.604341291921
 21
1900.5683489363
 31
0.0
1001
AUTOCAD_POSTSCRIPT_FIGURE
1002
{
1000
PSFILL
1000
Grayscale
1000
Grayscale
1070
   100
1002
}
  0
LINE
  5
3DB4
  8
YODOROGO
 10
27937.604341291921
 20
1939.749496429288
 30
0.0
 11
27905.604341291921
 21
1939.749496429288
 31
0.0
1001
AUTOCAD_POSTSCRIPT_FIGURE
1002
{
1000
PSFILL
1000
Grayscale
1000
Grayscale
1070
   100
1002
}
  0
LINE
  5
3DB5
  8
YODOROGO
 10
27937.604341291921
 20
1955.7494964292871
 30
0.0
 11
27937.604341291921
 21
1939.749496429288
 31
0.0
1001
AUTOCAD_POSTSCRIPT_FIGURE
1002
{
1000
PSFILL
1000
Grayscale
1000
Grayscale
1070
   100
1002
}
  0
LINE
  5
3DB6
  8
YODOROGO
 10
27905.604341291921
 20
1955.7494964292871
 30
0.0
 11
27937.604341291921
 21
1955.7494964292871
 31
0.0
1001
AUTOCAD_POSTSCRIPT_FIGURE
1002
{
1000
PSFILL
1000
Grayscale
1000
Grayscale
1070
   100
1002
}
  0
LINE
  5
3DB7
  8
YODOROGO
 10
27905.604341291921
 20
1979.749496429288
 30
0.0
 11
27905.604341291921
 21
1955.7494964292871
 31
0.0
1001
AUTOCAD_POSTSCRIPT_FIGURE
1002
{
1000
PSFILL
1000
Grayscale
1000
Grayscale
1070
   100
1002
}
  0
LINE
  5
3DB8
  8
YODOROGO
 10
27889.604341291921
 20
1979.749496429288
 30
0.0
 11
27905.604341291921
 21
1979.749496429288
 31
0.0
1001
AUTOCAD_POSTSCRIPT_FIGURE
1002
{
1000
PSFILL
1000
Grayscale
1000
Grayscale
1070
   100
1002
}
  0
LINE
  5
3DB9
  8
YODOROGO
 10
27889.604341291921
 20
1955.7494964292871
 30
0.0
 11
27889.604341291921
 21
1979.749496429288
 31
0.0
1001
AUTOCAD_POSTSCRIPT_FIGURE
1002
{
1000
PSFILL
1000
Grayscale
1000
Grayscale
1070
   100
1002
}
  0
LINE
  5
3DBA
  8
YODOROGO
 10
27865.604341291921
 20
1955.7494964292871
 30
0.0
 11
27889.604341291921
 21
1955.7494964292871
 31
0.0
1001
AUTOCAD_POSTSCRIPT_FIGURE
1002
{
1000
PSFILL
1000
Grayscale
1000
Grayscale
1070
   100
1002
}
  0
LINE
  5
3DBB
  8
YODOROGO
 10
27865.604341291921
 20
1979.749496429288
 30
0.0
 11
27865.604341291921
 21
1955.7494964292871
 31
0.0
1001
AUTOCAD_POSTSCRIPT_FIGURE
1002
{
1000
PSFILL
1000
Grayscale
1000
Grayscale
1070
   100
1002
}
  0
LINE
  5
3DBC
  8
YODOROGO
 10
27849.604341291921
 20
1979.749496429288
 30
0.0
 11
27865.604341291921
 21
1979.749496429288
 31
0.0
1001
AUTOCAD_POSTSCRIPT_FIGURE
1002
{
1000
PSFILL
1000
Grayscale
1000
Grayscale
1070
   100
1002
}
  0
LINE
  5
3DBD
  8
YODOROGO
 10
27849.604341291921
 20
1955.7494964292871
 30
0.0
 11
27849.604341291921
 21
1979.749496429288
 31
0.0
1001
AUTOCAD_POSTSCRIPT_FIGURE
1002
{
1000
PSFILL
1000
Grayscale
1000
Grayscale
1070
   100
1002
}
  0
LINE
  5
3DBE
  8
YODOROGO
 10
27817.604341291921
 20
1955.7494964292871
 30
0.0
 11
27849.604341291921
 21
1955.7494964292871
 31
0.0
1001
AUTOCAD_POSTSCRIPT_FIGURE
1002
{
1000
PSFILL
1000
Grayscale
1000
Grayscale
1070
   100
1002
}
  0
LINE
  5
3DBF
  8
YODOROGO
 10
27817.604341291921
 20
1979.749496429288
 30
0.0
 11
27817.604341291921
 21
1955.7494964292871
 31
0.0
1001
AUTOCAD_POSTSCRIPT_FIGURE
1002
{
1000
PSFILL
1000
Grayscale
1000
Grayscale
1070
   100
1002
}
  0
LINE
  5
3DC0
  8
YODOROGO
 10
27801.604341291921
 20
1979.749496429288
 30
0.0
 11
27817.604341291921
 21
1979.749496429288
 31
0.0
1001
AUTOCAD_POSTSCRIPT_FIGURE
1002
{
1000
PSFILL
1000
Grayscale
1000
Grayscale
1070
   100
1002
}
  0
LINE
  5
3DC1
  8
YODOROGO
 10
27801.604341291921
 20
1955.7494964292871
 30
0.0
 11
27801.604341291921
 21
1979.749496429288
 31
0.0
1001
AUTOCAD_POSTSCRIPT_FIGURE
1002
{
1000
PSFILL
1000
Grayscale
1000
Grayscale
1070
   100
1002
}
  0
LINE
  5
3DC2
  8
YODOROGO
 10
27777.604341291921
 20
1955.7494964292871
 30
0.0
 11
27801.604341291921
 21
1955.7494964292871
 31
0.0
1001
AUTOCAD_POSTSCRIPT_FIGURE
1002
{
1000
PSFILL
1000
Grayscale
1000
Grayscale
1070
   100
1002
}
  0
LINE
  5
3DC3
  8
YODOROGO
 10
27777.604341291921
 20
1939.749496429288
 30
0.0
 11
27777.604341291921
 21
1955.7494964292871
 31
0.0
1001
AUTOCAD_POSTSCRIPT_FIGURE
1002
{
1000
PSFILL
1000
Grayscale
1000
Grayscale
1070
   100
1002
}
  0
LINE
  5
3DC4
  8
YODOROGO
 10
27801.604341291921
 20
1939.749496429288
 30
0.0
 11
27777.604341291921
 21
1939.749496429288
 31
0.0
1001
AUTOCAD_POSTSCRIPT_FIGURE
1002
{
1000
PSFILL
1000
Grayscale
1000
Grayscale
1070
   100
1002
}
  0
LINE
  5
3DC5
  8
YODOROGO
 10
27801.604341291921
 20
1914.7865807937051
 30
0.0
 11
27801.604341291921
 21
1939.749496429288
 31
0.0
1001
AUTOCAD_POSTSCRIPT_FIGURE
1002
{
1000
PSFILL
1000
Grayscale
1000
Grayscale
1070
   100
1002
}
  0
LINE
  5
3DC6
  8
YODOROGO
 10
27777.604341291921
 20
1859.776747951671
 30
0.0
 11
27801.604341291921
 21
1914.7865807937051
 31
0.0
1001
AUTOCAD_POSTSCRIPT_FIGURE
1002
{
1000
PSFILL
1000
Grayscale
1000
Grayscale
1070
   100
1002
}
  0
LINE
  5
3DC7
  8
YODOROGO
 10
27777.604341291921
 20
1843.776747951672
 30
0.0
 11
27777.604341291921
 21
1859.776747951671
 31
0.0
1001
AUTOCAD_POSTSCRIPT_FIGURE
1002
{
1000
PSFILL
1000
Grayscale
1000
Grayscale
1070
   100
1002
}
  0
LINE
  5
3DC8
  8
YODOROGO
 10
28257.604341291921
 20
1867.7494964292871
 30
0.0
 11
28401.60434129191
 21
1824.877625640306
 31
0.0
1001
AUTOCAD_POSTSCRIPT_FIGURE
1002
{
1000
PSFILL
1000
Grayscale
1000
Grayscale
1070
   100
1002
}
  0
LINE
  5
3DC9
  8
YODOROGO
 10
28401.60434129191
 20
1752.877625640306
 30
0.0
 11
28257.604341291921
 21
1795.7494964292871
 31
0.0
1001
AUTOCAD_POSTSCRIPT_FIGURE
1002
{
1000
PSFILL
1000
Grayscale
1000
Grayscale
1070
   100
1002
}
  0
LINE
  5
3DCA
  8
YODOROGO
 10
28401.60434129191
 20
1984.877625640306
 30
0.0
 11
28257.604341291921
 21
2027.749496429288
 31
0.0
1001
AUTOCAD_POSTSCRIPT_FIGURE
1002
{
1000
PSFILL
1000
Grayscale
1000
Grayscale
1070
   100
1002
}
  0
LINE
  5
3DCB
  8
YODOROGO
 10
28257.604341291921
 20
1959.749496429288
 30
0.0
 11
28401.60434129191
 21
1916.8776256403071
 31
0.0
1001
AUTOCAD_POSTSCRIPT_FIGURE
1002
{
1000
PSFILL
1000
Grayscale
1000
Grayscale
1070
   100
1002
}
  0
LINE
  5
3DCC
  8
YODOROGO
 10
28257.604341291921
 20
1795.7494964292871
 30
0.0
 11
28257.604341291921
 21
1867.7494964292871
 31
0.0
1001
AUTOCAD_POSTSCRIPT_FIGURE
1002
{
1000
PSFILL
1000
Grayscale
1000
Grayscale
1070
   100
1002
}
  0
LINE
  5
3DCD
  8
YODOROGO
 10
28257.604341291921
 20
2027.749496429288
 30
0.0
 11
28257.604341291921
 21
1959.749496429288
 31
0.0
1001
AUTOCAD_POSTSCRIPT_FIGURE
1002
{
1000
PSFILL
1000
Grayscale
1000
Grayscale
1070
   100
1002
}
  0
LINE
  5
3DCE
  8
YODOROGO
 10
28080.236320206739
 20
1939.749496429288
 30
0.0
 11
28129.60434129191
 21
1747.749496429286
 31
0.0
1001
AUTOCAD_POSTSCRIPT_FIGURE
1002
{
1000
PSFILL
1000
Grayscale
1000
Grayscale
1070
   100
1002
}
  0
LINE
  5
3DCF
  8
YODOROGO
 10
27977.604341291921
 20
1939.749496429288
 30
0.0
 11
28080.236320206739
 21
1939.749496429288
 31
0.0
1001
AUTOCAD_POSTSCRIPT_FIGURE
1002
{
1000
PSFILL
1000
Grayscale
1000
Grayscale
1070
   100
1002
}
  0
LINE
  5
3DD0
  8
YODOROGO
 10
27977.604341291921
 20
1955.7494964292871
 30
0.0
 11
27977.604341291921
 21
1939.749496429288
 31
0.0
1001
AUTOCAD_POSTSCRIPT_FIGURE
1002
{
1000
PSFILL
1000
Grayscale
1000
Grayscale
1070
   100
1002
}
  0
LINE
  5
3DD1
  8
YODOROGO
 10
28076.60687851991
 20
1955.7494964292871
 30
0.0
 11
27977.604341291921
 21
1955.7494964292871
 31
0.0
1001
AUTOCAD_POSTSCRIPT_FIGURE
1002
{
1000
PSFILL
1000
Grayscale
1000
Grayscale
1070
   100
1002
}
  0
LINE
  5
3DD2
  8
YODOROGO
 10
28071.162715989711
 20
1979.749496429288
 30
0.0
 11
28076.60687851991
 21
1955.7494964292871
 31
0.0
1001
AUTOCAD_POSTSCRIPT_FIGURE
1002
{
1000
PSFILL
1000
Grayscale
1000
Grayscale
1070
   100
1002
}
  0
LINE
  5
3DD3
  8
YODOROGO
 10
28091.162715989711
 20
1979.749496429288
 30
0.0
 11
28071.162715989711
 21
1979.749496429288
 31
0.0
1001
AUTOCAD_POSTSCRIPT_FIGURE
1002
{
1000
PSFILL
1000
Grayscale
1000
Grayscale
1070
   100
1002
}
  0
LINE
  5
3DD4
  8
YODOROGO
 10
28095.806878519939
 20
1955.7494964292871
 30
0.0
 11
28091.162715989711
 21
1979.749496429288
 31
0.0
1001
AUTOCAD_POSTSCRIPT_FIGURE
1002
{
1000
PSFILL
1000
Grayscale
1000
Grayscale
1070
   100
1002
}
  0
LINE
  5
3DD5
  8
YODOROGO
 10
28121.604341291921
 20
1955.7494964292871
 30
0.0
 11
28095.806878519939
 21
1955.7494964292871
 31
0.0
1001
AUTOCAD_POSTSCRIPT_FIGURE
1002
{
1000
PSFILL
1000
Grayscale
1000
Grayscale
1070
   100
1002
}
  0
LINE
  5
3DD6
  8
YODOROGO
 10
28121.604341291921
 20
1979.749496429288
 30
0.0
 11
28121.604341291921
 21
1955.7494964292871
 31
0.0
1001
AUTOCAD_POSTSCRIPT_FIGURE
1002
{
1000
PSFILL
1000
Grayscale
1000
Grayscale
1070
   100
1002
}
  0
LINE
  5
3DD7
  8
YODOROGO
 10
28137.604341291921
 20
1979.749496429288
 30
0.0
 11
28121.604341291921
 21
1979.749496429288
 31
0.0
1001
AUTOCAD_POSTSCRIPT_FIGURE
1002
{
1000
PSFILL
1000
Grayscale
1000
Grayscale
1070
   100
1002
}
  0
LINE
  5
3DD8
  8
YODOROGO
 10
28137.604341291921
 20
1955.7494964292871
 30
0.0
 11
28137.604341291921
 21
1979.749496429288
 31
0.0
1001
AUTOCAD_POSTSCRIPT_FIGURE
1002
{
1000
PSFILL
1000
Grayscale
1000
Grayscale
1070
   100
1002
}
  0
LINE
  5
3DD9
  8
YODOROGO
 10
28137.604341291921
 20
1939.749496429288
 30
0.0
 11
28137.604341291921
 21
1955.7494964292871
 31
0.0
1001
AUTOCAD_POSTSCRIPT_FIGURE
1002
{
1000
PSFILL
1000
Grayscale
1000
Grayscale
1070
   100
1002
}
  0
LINE
  5
3DDA
  8
YODOROGO
 10
28098.902986873411
 20
1939.749496429288
 30
0.0
 11
28137.604341291921
 21
1939.749496429288
 31
0.0
1001
AUTOCAD_POSTSCRIPT_FIGURE
1002
{
1000
PSFILL
1000
Grayscale
1000
Grayscale
1070
   100
1002
}
  0
LINE
  5
3DDB
  8
YODOROGO
 10
28137.604341291921
 20
1747.749496429286
 30
0.0
 11
28098.902986873411
 21
1939.749496429288
 31
0.0
1001
AUTOCAD_POSTSCRIPT_FIGURE
1002
{
1000
PSFILL
1000
Grayscale
1000
Grayscale
1070
   100
1002
}
  0
LINE
  5
3DDC
  8
YODOROGO
 10
28129.60434129191
 20
1747.749496429286
 30
0.0
 11
28137.604341291921
 21
1747.749496429286
 31
0.0
1001
AUTOCAD_POSTSCRIPT_FIGURE
1002
{
1000
PSFILL
1000
Grayscale
1000
Grayscale
1070
   100
1002
}
  0
LINE
  5
3DDD
  8
YODOROGO
 10
28078.06921993379
 20
1775.7407762987939
 30
0.0
 11
27977.604341291921
 21
1747.749496429286
 31
0.0
  0
LINE
  5
3DDE
  8
YODOROGO
 10
28078.06921993379
 20
1798.6689795290731
 30
0.0
 11
28078.06921993379
 21
1775.7407762987939
 31
0.0
  0
LINE
  5
3DDF
  8
YODOROGO
 10
28033.83678061287
 20
1786.816933133767
 30
0.0
 11
28078.06921993379
 21
1798.6689795290731
 31
0.0
  0
LINE
  5
3DE0
  8
YODOROGO
 10
28033.83678061287
 20
1872.5683489362989
 30
0.0
 11
28033.83678061287
 21
1786.816933133767
 31
0.0
  0
LINE
  5
3DE1
  8
YODOROGO
 10
28078.06921993379
 20
1872.5683489362989
 30
0.0
 11
28033.83678061287
 21
1872.5683489362989
 31
0.0
  0
LINE
  5
3DE2
  8
YODOROGO
 10
28078.06921993379
 20
1892.568348936298
 30
0.0
 11
28078.06921993379
 21
1872.5683489362989
 31
0.0
  0
LINE
  5
3DE3
  8
YODOROGO
 10
27977.604341291921
 20
1892.568348936298
 30
0.0
 11
28078.06921993379
 21
1892.568348936298
 31
0.0
  0
LINE
  5
3DE4
  8
YODOROGO
 10
27977.604341291921
 20
1872.5683489362989
 30
0.0
 11
27977.604341291921
 21
1892.568348936298
 31
0.0
  0
LINE
  5
3DE5
  8
YODOROGO
 10
28021.836780612852
 20
1872.5683489362989
 30
0.0
 11
27977.604341291921
 21
1872.5683489362989
 31
0.0
  0
LINE
  5
3DE6
  8
YODOROGO
 10
28021.836780612852
 20
1784.673339594317
 30
0.0
 11
28021.836780612852
 21
1872.5683489362989
 31
0.0
  0
LINE
  5
3DE7
  8
YODOROGO
 10
27977.604341291921
 20
1771.749496429286
 30
0.0
 11
28021.836780612852
 21
1784.673339594317
 31
0.0
  0
LINE
  5
3DE8
  8
YODOROGO
 10
27977.604341291921
 20
1747.749496429286
 30
0.0
 11
27977.604341291921
 21
1771.749496429286
 31
0.0
  0
LINE
  5
3DE9
  8
YODOROGO
 10
28001.604341291921
 20
1707.749496429288
 30
0.0
 11
28001.604341291921
 21
1683.7494964292871
 31
0.0
  0
LINE
  5
3DEA
  8
YODOROGO
 10
28017.604341291921
 20
1707.749496429288
 30
0.0
 11
28001.604341291921
 21
1707.749496429288
 31
0.0
  0
LINE
  5
3DEB
  8
YODOROGO
 10
28017.604341291921
 20
1683.7494964292871
 30
0.0
 11
28017.604341291921
 21
1707.749496429288
 31
0.0
  0
LINE
  5
3DEC
  8
YODOROGO
 10
28040.913204016892
 20
1683.7494964292871
 30
0.0
 11
28017.604341291921
 21
1683.7494964292871
 31
0.0
  0
LINE
  5
3DED
  8
YODOROGO
 10
28001.604341291921
 20
1683.7494964292871
 30
0.0
 11
27977.604341291921
 21
1683.7494964292871
 31
0.0
  0
LINE
  5
3DEE
  8
YODOROGO
 10
28082.135520230921
 20
1707.749496429288
 30
0.0
 11
28098.135520230931
 21
1707.749496429288
 31
0.0
1001
AUTOCAD_POSTSCRIPT_FIGURE
1002
{
1000
PSFILL
1000
Grayscale
1000
Grayscale
1070
   100
1002
}
  0
LINE
  5
3DEF
  8
YODOROGO
 10
28401.60434129191
 20
1824.877625640306
 30
0.0
 11
28401.60434129191
 21
1752.877625640306
 31
0.0
1001
AUTOCAD_POSTSCRIPT_FIGURE
1002
{
1000
PSFILL
1000
Grayscale
1000
Grayscale
1070
   100
1002
}
  0
LINE
  5
3DF0
  8
YODOROGO
 10
28401.60434129191
 20
1916.8776256403071
 30
0.0
 11
28401.60434129191
 21
1984.877625640306
 31
0.0
1001
AUTOCAD_POSTSCRIPT_FIGURE
1002
{
1000
PSFILL
1000
Grayscale
1000
Grayscale
1070
   100
1002
}
  0
LINE
  5
3DF1
  8
YODOROGO
 10
28433.60434129191
 20
1819.7494964292871
 30
0.0
 11
28433.60434129191
 21
1747.74949642929
 31
0.0
  0
LINE
  5
3DF2
  8
YODOROGO
 10
28497.60434129191
 20
1707.749496429288
 30
0.0
 11
28433.60434129191
 21
1707.749496429288
 31
0.0
  0
LINE
  5
3DF3
  8
YODOROGO
 10
28433.60434129191
 20
1747.74949642929
 30
0.0
 11
28585.604341291921
 21
1747.74949642929
 31
0.0
  0
LINE
  5
3DF4
  8
YODOROGO
 10
28497.60434129191
 20
1867.7494964292871
 30
0.0
 11
28433.60434129191
 21
1867.7494964292871
 31
0.0
  0
LINE
  5
3DF5
  8
YODOROGO
 10
28497.60434129191
 20
1923.7494964292871
 30
0.0
 11
28497.60434129191
 21
1867.7494964292871
 31
0.0
  0
LINE
  5
3DF6
  8
YODOROGO
 10
28585.604341291921
 20
1987.7494964292871
 30
0.0
 11
28585.604341291921
 21
2027.749496429288
 31
0.0
  0
LINE
  5
3DF7
  8
YODOROGO
 10
28433.60434129191
 20
1987.7494964292871
 30
0.0
 11
28585.604341291921
 21
1987.7494964292871
 31
0.0
  0
LINE
  5
3DF8
  8
YODOROGO
 10
28433.60434129191
 20
1867.7494964292871
 30
0.0
 11
28433.60434129191
 21
1987.7494964292871
 31
0.0
  0
LINE
  5
3DF9
  8
YODOROGO
 10
29001.60434129191
 20
2027.749496429288
 30
0.0
 11
29001.60434129191
 21
1619.749496429288
 31
0.0
  0
LINE
  5
3DFA
  8
YODOROGO
 10
29073.604341291921
 20
1579.749496429288
 30
0.0
 11
29073.604341291921
 21
2027.749496429288
 31
0.0
  0
LINE
  5
3DFB
  8
YODOROGO
 10
29261.604341291921
 20
1491.749496429286
 30
0.0
 11
29261.604341291921
 21
2007.749496429288
 31
0.0
  0
LINE
  5
3DFC
  8
YODOROGO
 10
29197.604341291921
 20
2007.749496429288
 30
0.0
 11
29197.604341291921
 21
1491.749496429286
 31
0.0
  0
LINE
  5
3DFD
  8
YODOROGO
 10
29385.604341291921
 20
2027.749496429288
 30
0.0
 11
29385.604341291921
 21
1427.749496429288
 31
0.0
  0
LINE
  5
3DFE
  8
YODOROGO
 10
29457.604341291921
 20
1427.749496429288
 30
0.0
 11
29457.604341291921
 21
2027.749496429288
 31
0.0
  0
LINE
  5
3DFF
  8
YODOROGO
 10
28657.604341291921
 20
1667.749496429288
 30
0.0
 11
28657.604341291921
 21
1747.74949642929
 31
0.0
  0
LINE
  5
3E00
  8
YODOROGO
 10
29885.604341291921
 20
1707.749496429288
 30
0.0
 11
29885.604341291921
 21
1667.749496429288
 31
0.0
  0
LINE
  5
3E01
  8
YODOROGO
 10
29885.604341291921
 20
1707.749496429288
 30
0.0
 11
29885.604341291921
 21
1667.749496429288
 31
0.0
  0
ARC
  5
3E02
  8
YODOROGO
 10
28906.911576186842
 20
1618.217864442272
 30
0.0
 40
94.705151178741644
 50
274.05244162907098
 51
0.9266642149310712
  0
ARC
  5
3E03
  8
YODOROGO
 10
28909.186170719819
 20
1592.61072861044
 30
0.0
 40
164.92042356085511
 50
271.5351210653775
 51
355.52727750585052
  0
LINE
  5
3E04
  8
YODOROGO
 10
28913.604341291921
 20
1523.7494964292871
 30
0.0
 11
28913.604341291921
 21
1427.749496429288
 31
0.0
  0
LINE
  5
3E05
  8
YODOROGO
 10
28793.60434129191
 20
1667.749496429288
 30
0.0
 11
28657.604341291921
 21
1667.749496429288
 31
0.0
  0
LINE
  5
3E06
  8
YODOROGO
 10
28793.60434129191
 20
1603.7494964292871
 30
0.0
 11
28793.60434129191
 21
1667.749496429288
 31
0.0
  0
LINE
  5
3E07
  8
YODOROGO
 10
28657.604341291921
 20
1603.7494964292871
 30
0.0
 11
28793.60434129191
 21
1603.7494964292871
 31
0.0
  0
LINE
  5
3E08
  8
YODOROGO
 10
28657.604341291921
 20
1523.7494964292871
 30
0.0
 11
28657.604341291921
 21
1603.7494964292871
 31
0.0
  0
LINE
  5
3E09
  8
YODOROGO
 10
28793.60434129191
 20
1523.7494964292871
 30
0.0
 11
28657.604341291921
 21
1523.7494964292871
 31
0.0
  0
LINE
  5
3E0A
  8
YODOROGO
 10
28793.60434129191
 20
1427.749496429288
 30
0.0
 11
28793.60434129191
 21
1523.7494964292871
 31
0.0
  0
LINE
  5
3E0B
  8
YODOROGO
 10
29197.604341291921
 20
1491.749496429286
 30
0.0
 11
29261.604341291921
 21
1491.749496429286
 31
0.0
  0
LINE
  5
3E0C
  8
YODOROGO
 10
29385.604341291921
 20
1427.749496429288
 30
0.0
 11
29457.604341291921
 21
1427.749496429288
 31
0.0
  0
LINE
  5
3E0D
  8
YODOROGO
 10
29737.604341291921
 20
1528.4414521705639
 30
0.0
 11
29737.604341291921
 21
1427.749496429288
 31
0.0
  0
LINE
  5
3E0E
  8
YODOROGO
 10
29617.604341291921
 20
1427.749496429288
 30
0.0
 11
29737.604341291921
 21
1528.4414521705639
 31
0.0
  0
LINE
  5
3E0F
  8
YODOROGO
 10
29617.604341291921
 20
1547.749496429288
 30
0.0
 11
29617.604341291921
 21
1427.749496429288
 31
0.0
  0
LINE
  5
3E10
  8
YODOROGO
 10
29712.94462869945
 20
1627.749496429288
 30
0.0
 11
29617.604341291921
 21
1547.749496429288
 31
0.0
  0
LINE
  5
3E11
  8
YODOROGO
 10
29617.604341291921
 20
1627.749496429288
 30
0.0
 11
29712.94462869945
 21
1627.749496429288
 31
0.0
  0
LINE
  5
3E12
  8
YODOROGO
 10
29617.604341291921
 20
1667.749496429288
 30
0.0
 11
29617.604341291921
 21
1627.749496429288
 31
0.0
  0
LINE
  5
3E13
  8
YODOROGO
 10
29885.604341291921
 20
1667.749496429288
 30
0.0
 11
29617.604341291921
 21
1667.749496429288
 31
0.0
  0
LINE
  5
3E14
  8
YODOROGO
 10
29917.604341291921
 20
1627.749496429288
 30
0.0
 11
29777.604341291921
 21
1627.749496429288
 31
0.0
  0
LINE
  5
3E15
  8
YODOROGO
 10
29777.604341291921
 20
1562.0054374176559
 30
0.0
 11
29771.409872985321
 21
1556.807661346234
 31
0.0
  0
LINE
  5
3E16
  8
YODOROGO
 10
29777.604341291921
 20
1627.749496429288
 30
0.0
 11
29777.604341291921
 21
1562.0054374176559
 31
0.0
  0
LINE
  5
3E17
  8
YODOROGO
 10
29737.604341291921
 20
1528.4414521705639
 30
0.0
 11
29737.604341291921
 21
1427.749496429288
 31
0.0
  0
LINE
  5
3E18
  8
YODOROGO
 10
29617.604341291921
 20
1427.749496429288
 30
0.0
 11
29737.604341291921
 21
1528.4414521705639
 31
0.0
  0
LINE
  5
3E19
  8
YODOROGO
 10
29617.604341291921
 20
1547.749496429288
 30
0.0
 11
29617.604341291921
 21
1427.749496429288
 31
0.0
  0
LINE
  5
3E1A
  8
YODOROGO
 10
29712.94462869945
 20
1627.749496429288
 30
0.0
 11
29617.604341291921
 21
1547.749496429288
 31
0.0
  0
LINE
  5
3E1B
  8
YODOROGO
 10
29617.604341291921
 20
1627.749496429288
 30
0.0
 11
29712.94462869945
 21
1627.749496429288
 31
0.0
  0
LINE
  5
3E1C
  8
YODOROGO
 10
29617.604341291921
 20
1667.749496429288
 30
0.0
 11
29617.604341291921
 21
1627.749496429288
 31
0.0
  0
LINE
  5
3E1D
  8
YODOROGO
 10
29885.604341291921
 20
1667.749496429288
 30
0.0
 11
29617.604341291921
 21
1667.749496429288
 31
0.0
  0
LINE
  5
3E1E
  8
YODOROGO
 10
28793.60434129191
 20
1747.74949642929
 30
0.0
 11
28793.60434129191
 21
1819.7494964292871
 31
0.0
  0
LINE
  5
3E1F
  8
YODOROGO
 10
28657.604341291921
 20
1747.74949642929
 30
0.0
 11
28793.60434129191
 21
1747.74949642929
 31
0.0
  0
LINE
  5
3E20
  8
YODOROGO
 10
28729.604341291921
 20
1867.7494964292871
 30
0.0
 11
28729.604341291921
 21
1923.7494964292871
 31
0.0
  0
LINE
  5
3E21
  8
YODOROGO
 10
28793.60434129191
 20
1867.7494964292871
 30
0.0
 11
28729.604341291921
 21
1867.7494964292871
 31
0.0
  0
LINE
  5
3E22
  8
YODOROGO
 10
28793.60434129191
 20
1947.749496429288
 30
0.0
 11
28793.60434129191
 21
1867.7494964292871
 31
0.0
  0
ARC
  5
3E23
  8
YODOROGO
 10
28753.60434129191
 20
1947.749496429288
 30
0.0
 40
40.0
 50
0.0
 51
90.0
  0
LINE
  5
3E24
  8
YODOROGO
 10
28657.604341291921
 20
1987.7494964292871
 30
0.0
 11
28753.60434129191
 21
1987.7494964292871
 31
0.0
  0
LINE
  5
3E25
  8
YODOROGO
 10
28657.604341291921
 20
2027.749496429288
 30
0.0
 11
28657.604341291921
 21
1987.7494964292871
 31
0.0
  0
LINE
  5
3E26
  8
YODOROGO
 10
29073.604341291921
 20
2027.749496429288
 30
0.0
 11
29001.60434129191
 21
2027.749496429288
 31
0.0
  0
LINE
  5
3E27
  8
YODOROGO
 10
29261.604341291921
 20
2007.749496429288
 30
0.0
 11
29197.604341291921
 21
2007.749496429288
 31
0.0
  0
LINE
  5
3E28
  8
YODOROGO
 10
29457.604341291921
 20
2027.749496429288
 30
0.0
 11
29385.604341291921
 21
2027.749496429288
 31
0.0
  0
LINE
  5
3E29
  8
YODOROGO
 10
29673.604341291921
 20
1707.749496429288
 30
0.0
 11
29673.604341291921
 21
1771.7494964292871
 31
0.0
1001
AUTOCAD_POSTSCRIPT_FIGURE
1002
{
1000
PSFILL
1000
Grayscale
1000
Grayscale
1070
    25
1002
}
  0
LINE
  5
3E2A
  8
YODOROGO
 10
29617.604341291921
 20
1707.749496429288
 30
0.0
 11
29673.604341291921
 21
1707.749496429288
 31
0.0
1001
AUTOCAD_POSTSCRIPT_FIGURE
1002
{
1000
PSFILL
1000
Grayscale
1000
Grayscale
1070
    25
1002
}
  0
LINE
  5
3E2B
  8
YODOROGO
 10
29617.604341291921
 20
1819.7494964292871
 30
0.0
 11
29617.604341291921
 21
1707.749496429288
 31
0.0
1001
AUTOCAD_POSTSCRIPT_FIGURE
1002
{
1000
PSFILL
1000
Grayscale
1000
Grayscale
1070
    25
1002
}
  0
LINE
  5
3E2C
  8
YODOROGO
 10
29765.604341291921
 20
1819.7494964292871
 30
0.0
 11
29617.604341291921
 21
1819.7494964292871
 31
0.0
1001
AUTOCAD_POSTSCRIPT_FIGURE
1002
{
1000
PSFILL
1000
Grayscale
1000
Grayscale
1070
    25
1002
}
  0
LINE
  5
3E2D
  8
YODOROGO
 10
29765.604341291921
 20
1859.749496429288
 30
0.0
 11
29765.604341291921
 21
1819.7494964292871
 31
0.0
1001
AUTOCAD_POSTSCRIPT_FIGURE
1002
{
1000
PSFILL
1000
Grayscale
1000
Grayscale
1070
    25
1002
}
  0
LINE
  5
3E2E
  8
YODOROGO
 10
29617.604341291921
 20
1859.749496429288
 30
0.0
 11
29765.604341291921
 21
1859.749496429288
 31
0.0
1001
AUTOCAD_POSTSCRIPT_FIGURE
1002
{
1000
PSFILL
1000
Grayscale
1000
Grayscale
1070
    25
1002
}
  0
LINE
  5
3E2F
  8
YODOROGO
 10
29617.604341291921
 20
1907.7494964292871
 30
0.0
 11
29617.604341291921
 21
1859.749496429288
 31
0.0
1001
AUTOCAD_POSTSCRIPT_FIGURE
1002
{
1000
PSFILL
1000
Grayscale
1000
Grayscale
1070
    25
1002
}
  0
LINE
  5
3E30
  8
YODOROGO
 10
29765.604341291921
 20
1907.7494964292871
 30
0.0
 11
29617.604341291921
 21
1907.7494964292871
 31
0.0
1001
AUTOCAD_POSTSCRIPT_FIGURE
1002
{
1000
PSFILL
1000
Grayscale
1000
Grayscale
1070
    25
1002
}
  0
LINE
  5
3E31
  8
YODOROGO
 10
29765.604341291921
 20
1947.749496429288
 30
0.0
 11
29765.604341291921
 21
1907.7494964292871
 31
0.0
1001
AUTOCAD_POSTSCRIPT_FIGURE
1002
{
1000
PSFILL
1000
Grayscale
1000
Grayscale
1070
    25
1002
}
  0
LINE
  5
3E32
  8
YODOROGO
 10
29617.604341291921
 20
1947.749496429288
 30
0.0
 11
29765.604341291921
 21
1947.749496429288
 31
0.0
1001
AUTOCAD_POSTSCRIPT_FIGURE
1002
{
1000
PSFILL
1000
Grayscale
1000
Grayscale
1070
    25
1002
}
  0
LINE
  5
3E33
  8
YODOROGO
 10
29617.604341291921
 20
2027.749496429288
 30
0.0
 11
29617.604341291921
 21
1947.749496429288
 31
0.0
1001
AUTOCAD_POSTSCRIPT_FIGURE
1002
{
1000
PSFILL
1000
Grayscale
1000
Grayscale
1070
    25
1002
}
  0
LINE
  5
3E34
  8
YODOROGO
 10
29665.604341291921
 20
2027.749496429288
 30
0.0
 11
29617.604341291921
 21
2027.749496429288
 31
0.0
1001
AUTOCAD_POSTSCRIPT_FIGURE
1002
{
1000
PSFILL
1000
Grayscale
1000
Grayscale
1070
    25
1002
}
  0
LINE
  5
3E35
  8
YODOROGO
 10
29665.604341291921
 20
1995.7494964292871
 30
0.0
 11
29665.604341291921
 21
2027.749496429288
 31
0.0
1001
AUTOCAD_POSTSCRIPT_FIGURE
1002
{
1000
PSFILL
1000
Grayscale
1000
Grayscale
1070
    25
1002
}
  0
LINE
  5
3E36
  8
YODOROGO
 10
29765.604341291921
 20
1995.7494964292871
 30
0.0
 11
29665.604341291921
 21
1995.7494964292871
 31
0.0
1001
AUTOCAD_POSTSCRIPT_FIGURE
1002
{
1000
PSFILL
1000
Grayscale
1000
Grayscale
1070
    25
1002
}
  0
LINE
  5
3E37
  8
YODOROGO
 10
29765.604341291921
 20
2027.749496429288
 30
0.0
 11
29765.604341291921
 21
1995.7494964292871
 31
0.0
1001
AUTOCAD_POSTSCRIPT_FIGURE
1002
{
1000
PSFILL
1000
Grayscale
1000
Grayscale
1070
    25
1002
}
  0
LINE
  5
3E38
  8
YODOROGO
 10
29829.604341291921
 20
2027.749496429288
 30
0.0
 11
29765.604341291921
 21
2027.749496429288
 31
0.0
1001
AUTOCAD_POSTSCRIPT_FIGURE
1002
{
1000
PSFILL
1000
Grayscale
1000
Grayscale
1070
    25
1002
}
  0
LINE
  5
3E39
  8
YODOROGO
 10
29829.604341291921
 20
1995.7494964292871
 30
0.0
 11
29829.604341291921
 21
2027.749496429288
 31
0.0
1001
AUTOCAD_POSTSCRIPT_FIGURE
1002
{
1000
PSFILL
1000
Grayscale
1000
Grayscale
1070
    25
1002
}
  0
LINE
  5
3E3A
  8
YODOROGO
 10
29829.604341291921
 20
1907.7494964292871
 30
0.0
 11
29829.604341291921
 21
1947.749496429288
 31
0.0
1001
AUTOCAD_POSTSCRIPT_FIGURE
1002
{
1000
PSFILL
1000
Grayscale
1000
Grayscale
1070
    25
1002
}
  0
LINE
  5
3E3B
  8
YODOROGO
 10
29829.604341291921
 20
1819.7494964292871
 30
0.0
 11
29829.604341291921
 21
1859.749496429288
 31
0.0
1001
AUTOCAD_POSTSCRIPT_FIGURE
1002
{
1000
PSFILL
1000
Grayscale
1000
Grayscale
1070
    25
1002
}
  0
LINE
  5
3E3C
  8
YODOROGO
 10
29921.60434129191
 20
1771.7494964292871
 30
0.0
 11
29921.60434129191
 21
1707.749496429288
 31
0.0
1001
AUTOCAD_POSTSCRIPT_FIGURE
1002
{
1000
PSFILL
1000
Grayscale
1000
Grayscale
1070
    25
1002
}
  0
LINE
  5
3E3D
  8
YODOROGO
 10
29829.604341291921
 20
1771.7494964292871
 30
0.0
 11
29921.60434129191
 21
1771.7494964292871
 31
0.0
1001
AUTOCAD_POSTSCRIPT_FIGURE
1002
{
1000
PSFILL
1000
Grayscale
1000
Grayscale
1070
    25
1002
}
  0
LINE
  5
3E3E
  8
YODOROGO
 10
29829.604341291921
 20
1707.749496429288
 30
0.0
 11
29829.604341291921
 21
1771.7494964292871
 31
0.0
1001
AUTOCAD_POSTSCRIPT_FIGURE
1002
{
1000
PSFILL
1000
Grayscale
1000
Grayscale
1070
    25
1002
}
  0
LINE
  5
3E3F
  8
YODOROGO
 10
29765.604341291921
 20
1707.749496429288
 30
0.0
 11
29829.604341291921
 21
1707.749496429288
 31
0.0
1001
AUTOCAD_POSTSCRIPT_FIGURE
1002
{
1000
PSFILL
1000
Grayscale
1000
Grayscale
1070
    25
1002
}
  0
LINE
  5
3E40
  8
YODOROGO
 10
29765.604341291921
 20
1771.7494964292871
 30
0.0
 11
29765.604341291921
 21
1707.749496429288
 31
0.0
1001
AUTOCAD_POSTSCRIPT_FIGURE
1002
{
1000
PSFILL
1000
Grayscale
1000
Grayscale
1070
    25
1002
}
  0
LINE
  5
3E41
  8
YODOROGO
 10
29673.604341291921
 20
1771.7494964292871
 30
0.0
 11
29765.604341291921
 21
1771.7494964292871
 31
0.0
1001
AUTOCAD_POSTSCRIPT_FIGURE
1002
{
1000
PSFILL
1000
Grayscale
1000
Grayscale
1070
    25
1002
}
  0
ARC
  5
3E42
  8
YODOROGO
 10
31059.517893357912
 20
1602.6807375155761
 30
0.0
 40
178.22128111072141
 50
281.02627495425338
 51
357.77113575573799
  0
LINE
  5
3E43
  8
YODOROGO
 10
31413.604341291921
 20
1907.7494964292871
 30
0.0
 11
31165.604341291921
 21
1907.7494964292871
 31
0.0
  0
LINE
  5
3E44
  8
YODOROGO
 10
31413.604341291921
 20
2027.749496429288
 30
0.0
 11
31165.604341291921
 21
2027.749496429288
 31
0.0
  0
LINE
  5
3E45
  8
YODOROGO
 10
31165.604341291921
 20
1963.749496429286
 30
0.0
 11
31413.604341291921
 21
1963.749496429286
 31
0.0
  0
LINE
  5
3E46
  8
YODOROGO
 10
30791.604341291921
 20
1563.7494964292871
 30
0.0
 11
30791.604341291921
 21
1755.7494964292871
 31
0.0
  0
LINE
  5
3E47
  8
YODOROGO
 10
30763.604341291921
 20
1691.749496429288
 30
0.0
 11
30763.604341291921
 21
1563.7494964292871
 31
0.0
  0
LINE
  5
3E48
  8
YODOROGO
 10
30723.604341291921
 20
1491.749496429288
 30
0.0
 11
30723.604341291921
 21
1691.749496429288
 31
0.0
  0
LINE
  5
3E49
  8
YODOROGO
 10
30899.604341291932
 20
1691.749496429288
 30
0.0
 11
30899.604341291932
 21
1491.749496429288
 31
0.0
  0
LINE
  5
3E4A
  8
YODOROGO
 10
30859.604341291932
 20
1563.7494964292871
 30
0.0
 11
30859.604341291932
 21
1691.749496429288
 31
0.0
  0
LINE
  5
3E4B
  8
YODOROGO
 10
30831.604341291921
 20
1755.7494964292871
 30
0.0
 11
30831.604341291921
 21
1563.7494964292871
 31
0.0
  0
LINE
  5
3E4C
  8
YODOROGO
 10
30973.604341291921
 20
2027.749496429288
 30
0.0
 11
30973.604341291921
 21
1467.749496429288
 31
0.0
  0
LINE
  5
3E4D
  8
YODOROGO
 10
30645.604341291921
 20
1427.749496429288
 30
0.0
 11
30645.604341291921
 21
2027.749496429288
 31
0.0
  0
LINE
  5
3E4E
  8
YODOROGO
 10
30697.604341291932
 20
1963.749496429286
 30
0.0
 11
30697.604341291932
 21
1427.749496429288
 31
0.0
  0
LINE
  5
3E4F
  8
YODOROGO
 10
30925.604341291921
 20
1547.749496429288
 30
0.0
 11
30925.604341291921
 21
1963.749496429286
 31
0.0
  0
LINE
  5
3E50
  8
YODOROGO
 10
30381.604341291932
 20
1627.749496429288
 30
0.0
 11
30381.604341291932
 21
1679.749496429288
 31
0.0
  0
LINE
  5
3E51
  8
YODOROGO
 10
30617.604341291921
 20
1679.749496429288
 30
0.0
 11
30617.604341291921
 21
1627.749496429288
 31
0.0
  0
LINE
  5
3E52
  8
YODOROGO
 10
31165.604341291921
 20
1907.7494964292871
 30
0.0
 11
31165.604341291921
 21
1635.7494964292871
 31
0.0
  0
LINE
  5
3E53
  8
YODOROGO
 10
29949.60434129191
 20
1667.749496429288
 30
0.0
 11
29949.60434129191
 21
1707.749496429288
 31
0.0
  0
LINE
  5
3E54
  8
YODOROGO
 10
29949.60434129191
 20
1667.749496429288
 30
0.0
 11
29949.60434129191
 21
1707.749496429288
 31
0.0
  0
ARC
  5
3E55
  8
YODOROGO
 10
30537.604341291921
 20
1507.749496429288
 30
0.0
 40
80.0
 50
270.0
 51
0.0
  0
LINE
  5
3E56
  8
YODOROGO
 10
30569.604341291921
 20
1599.7494964292871
 30
0.0
 11
30617.604341291921
 21
1599.7494964292871
 31
0.0
  0
LINE
  5
3E57
  8
YODOROGO
 10
30617.604341291921
 20
1627.749496429288
 30
0.0
 11
30529.604341291939
 21
1627.749496429288
 31
0.0
  0
LINE
  5
3E58
  8
YODOROGO
 10
30217.604341291921
 20
1667.749496429288
 30
0.0
 11
29949.60434129191
 21
1667.749496429288
 31
0.0
  0
LINE
  5
3E59
  8
YODOROGO
 10
30217.604341291921
 20
1627.749496429288
 30
0.0
 11
30217.604341291921
 21
1667.749496429288
 31
0.0
  0
LINE
  5
3E5A
  8
YODOROGO
 10
30017.604341291921
 20
1627.749496429288
 30
0.0
 11
30217.604341291921
 21
1627.749496429288
 31
0.0
  0
ARC
  5
3E5B
  8
YODOROGO
 10
30230.05882870136
 20
1868.885714952901
 30
0.0
 40
321.37763628522822
 50
228.6181454618993
 51
245.660289248906
  0
LINE
  5
3E5C
  8
YODOROGO
 10
30105.604341291921
 20
1603.7494964292871
 30
0.0
 11
30097.60434129195
 21
1576.0728158699001
 31
0.0
  0
LINE
  5
3E5D
  8
YODOROGO
 10
30189.604341291921
 20
1603.7494964292871
 30
0.0
 11
30105.604341291921
 21
1603.7494964292871
 31
0.0
  0
LINE
  5
3E5E
  8
YODOROGO
 10
30177.604341291921
 20
1551.817722473427
 30
0.0
 11
30189.604341291921
 21
1603.7494964292871
 31
0.0
  0
ARC
  5
3E5F
  8
YODOROGO
 10
30230.05882870045
 20
1868.885714953002
 30
0.0
 40
321.37763628529081
 50
260.60629297969911
 51
267.77903556555862
  0
LINE
  5
3E60
  8
YODOROGO
 10
30217.604341291921
 20
1427.749496429285
 30
0.0
 11
30217.604341291921
 21
1547.749496429288
 31
0.0
  0
LINE
  5
3E61
  8
YODOROGO
 10
29937.604341291932
 20
1481.3393349155101
 30
0.0
 11
29937.604341291921
 21
1594.531090531141
 31
0.0
  0
LINE
  5
3E62
  8
YODOROGO
 10
30217.604341291921
 20
1667.749496429288
 30
0.0
 11
29949.60434129191
 21
1667.749496429288
 31
0.0
  0
LINE
  5
3E63
  8
YODOROGO
 10
30217.604341291921
 20
1627.749496429288
 30
0.0
 11
30217.604341291921
 21
1667.749496429288
 31
0.0
  0
LINE
  5
3E64
  8
YODOROGO
 10
30017.604341291921
 20
1627.749496429288
 30
0.0
 11
30217.604341291921
 21
1627.749496429288
 31
0.0
  0
ARC
  5
3E65
  8
YODOROGO
 10
30230.05882870136
 20
1868.885714952901
 30
0.0
 40
321.37763628522822
 50
228.6181454618993
 51
245.660289248906
  0
LINE
  5
3E66
  8
YODOROGO
 10
30105.604341291921
 20
1603.7494964292871
 30
0.0
 11
30097.60434129195
 21
1576.0728158699001
 31
0.0
  0
LINE
  5
3E67
  8
YODOROGO
 10
30189.604341291921
 20
1603.7494964292871
 30
0.0
 11
30105.604341291921
 21
1603.7494964292871
 31
0.0
  0
LINE
  5
3E68
  8
YODOROGO
 10
30177.604341291921
 20
1551.817722473427
 30
0.0
 11
30189.604341291921
 21
1603.7494964292871
 31
0.0
  0
ARC
  5
3E69
  8
YODOROGO
 10
30230.05882870045
 20
1868.885714953002
 30
0.0
 40
321.37763628529081
 50
260.60629297969911
 51
267.77903556555862
  0
LINE
  5
3E6A
  8
YODOROGO
 10
30217.604341291921
 20
1427.749496429285
 30
0.0
 11
30217.604341291921
 21
1547.749496429288
 31
0.0
  0
LINE
  5
3E6B
  8
YODOROGO
 10
29937.604341291932
 20
1481.3393349155101
 30
0.0
 11
29937.604341291921
 21
1594.531090531141
 31
0.0
  0
LINE
  5
3E6C
  8
YODOROGO
 10
30433.604341291921
 20
1573.749496429288
 30
0.0
 11
30381.604341291932
 21
1573.749496429288
 31
0.0
  0
LINE
  5
3E6D
  8
YODOROGO
 10
30433.604341291921
 20
1601.749496429285
 30
0.0
 11
30433.604341291921
 21
1573.749496429288
 31
0.0
  0
LINE
  5
3E6E
  8
YODOROGO
 10
30381.604341291932
 20
1601.749496429285
 30
0.0
 11
30433.604341291921
 21
1601.749496429285
 31
0.0
  0
LINE
  5
3E6F
  8
YODOROGO
 10
30381.604341291932
 20
1573.749496429288
 30
0.0
 11
30381.604341291932
 21
1601.749496429285
 31
0.0
  0
LINE
  5
3E70
  8
YODOROGO
 10
30429.604341291921
 20
1577.7494964292871
 30
0.0
 11
30385.604341291921
 21
1577.7494964292871
 31
0.0
  0
LINE
  5
3E71
  8
YODOROGO
 10
30429.604341291921
 20
1597.749496429288
 30
0.0
 11
30429.604341291921
 21
1577.7494964292871
 31
0.0
  0
LINE
  5
3E72
  8
YODOROGO
 10
30385.604341291921
 20
1597.749496429288
 30
0.0
 11
30429.604341291921
 21
1597.749496429288
 31
0.0
  0
LINE
  5
3E73
  8
YODOROGO
 10
30385.604341291921
 20
1577.7494964292871
 30
0.0
 11
30385.604341291921
 21
1597.749496429288
 31
0.0
  0
LINE
  5
3E74
  8
YODOROGO
 10
30425.604341291921
 20
1581.749496429286
 30
0.0
 11
30389.604341291921
 21
1581.749496429286
 31
0.0
  0
LINE
  5
3E75
  8
YODOROGO
 10
30425.604341291921
 20
1593.749496429288
 30
0.0
 11
30425.604341291921
 21
1581.749496429286
 31
0.0
  0
LINE
  5
3E76
  8
YODOROGO
 10
30389.604341291921
 20
1593.749496429288
 30
0.0
 11
30425.604341291921
 21
1593.749496429288
 31
0.0
  0
LINE
  5
3E77
  8
YODOROGO
 10
30389.604341291921
 20
1581.749496429286
 30
0.0
 11
30389.604341291921
 21
1593.749496429288
 31
0.0
  0
LINE
  5
3E78
  8
YODOROGO
 10
30421.604341291932
 20
1585.7494964292871
 30
0.0
 11
30393.604341291921
 21
1585.7494964292871
 31
0.0
  0
LINE
  5
3E79
  8
YODOROGO
 10
30421.604341291932
 20
1589.749496429288
 30
0.0
 11
30421.604341291932
 21
1585.7494964292871
 31
0.0
  0
LINE
  5
3E7A
  8
YODOROGO
 10
30393.604341291921
 20
1589.749496429288
 30
0.0
 11
30421.604341291932
 21
1589.749496429288
 31
0.0
  0
LINE
  5
3E7B
  8
YODOROGO
 10
30393.604341291921
 20
1585.7494964292871
 30
0.0
 11
30393.604341291921
 21
1589.749496429288
 31
0.0
  0
LINE
  5
3E7C
  8
YODOROGO
 10
30465.604341291921
 20
1627.749496429288
 30
0.0
 11
30381.604341291932
 21
1627.749496429288
 31
0.0
  0
LINE
  5
3E7D
  8
YODOROGO
 10
30465.604341291921
 20
1547.749496429288
 30
0.0
 11
30465.604341291921
 21
1627.749496429288
 31
0.0
  0
LINE
  5
3E7E
  8
YODOROGO
 10
30381.604341291932
 20
1547.749496429288
 30
0.0
 11
30465.604341291921
 21
1547.749496429288
 31
0.0
  0
LINE
  5
3E7F
  8
YODOROGO
 10
30381.604341291932
 20
1427.749496429288
 30
0.0
 11
30381.604341291932
 21
1547.749496429288
 31
0.0
  0
LINE
  5
3E80
  8
YODOROGO
 10
30537.604341291921
 20
1427.749496429288
 30
0.0
 11
30381.604341291932
 21
1427.749496429288
 31
0.0
  0
LINE
  5
3E81
  8
YODOROGO
 10
30569.604341291921
 20
1571.749496429285
 30
0.0
 11
30569.604341291921
 21
1599.7494964292871
 31
0.0
  0
ARC
  5
3E82
  8
YODOROGO
 10
30545.604341291921
 20
1571.749496429291
 30
0.0
 40
24.000000000003752
 50
270.0
 51
359.99999999998772
  0
LINE
  5
3E83
  8
YODOROGO
 10
30529.604341291939
 20
1547.749496429288
 30
0.0
 11
30545.604341291921
 21
1547.749496429288
 31
0.0
  0
LINE
  5
3E84
  8
YODOROGO
 10
30529.604341291939
 20
1627.749496429288
 30
0.0
 11
30529.604341291939
 21
1547.749496429288
 31
0.0
  0
LINE
  5
3E85
  8
YODOROGO
 10
30899.604341291932
 20
1547.749496429288
 30
0.0
 11
30925.604341291921
 21
1547.749496429288
 31
0.0
  0
LINE
  5
3E86
  8
YODOROGO
 10
30933.604341291921
 20
1427.749496429288
 30
0.0
 11
30899.604341291932
 21
1427.749496429288
 31
0.0
  0
LINE
  5
3E87
  8
YODOROGO
 10
30763.604341291921
 20
1563.7494964292871
 30
0.0
 11
30791.604341291921
 21
1563.7494964292871
 31
0.0
  0
LINE
  5
3E88
  8
YODOROGO
 10
30899.604341291932
 20
1491.749496429288
 30
0.0
 11
30723.604341291921
 21
1491.749496429288
 31
0.0
  0
LINE
  5
3E89
  8
YODOROGO
 10
30831.604341291921
 20
1563.7494964292871
 30
0.0
 11
30859.604341291932
 21
1563.7494964292871
 31
0.0
  0
LINE
  5
3E8A
  8
YODOROGO
 10
30899.604341291932
 20
1427.749496429288
 30
0.0
 11
30899.604341291932
 21
1547.749496429288
 31
0.0
  0
LINE
  5
3E8B
  8
YODOROGO
 10
30697.604341291932
 20
1427.749496429288
 30
0.0
 11
30645.604341291921
 21
1427.749496429288
 31
0.0
  0
LINE
  5
3E8C
  8
YODOROGO
 10
30617.604341291921
 20
1599.7494964292871
 30
0.0
 11
30617.604341291921
 21
1507.749496429288
 31
0.0
  0
ARC
  5
3E8D
  8
YODOROGO
 10
30933.604341291921
 20
1467.749496429288
 30
0.0
 40
40.0
 50
270.0
 51
0.0
  0
LINE
  5
3E8E
  8
YODOROGO
 10
31093.604341291921
 20
1523.7494964292871
 30
0.0
 11
31093.604341291921
 21
1427.749496429288
 31
0.0
  0
ARC
  5
3E8F
  8
YODOROGO
 10
31039.721395566768
 20
1637.5313901097329
 30
0.0
 40
125.8955565916754
 50
295.34052442160112
 51
359.18902303418679
  0
LINE
  5
3E90
  8
YODOROGO
 10
30617.604341291921
 20
1859.749496429288
 30
0.0
 11
30497.604341291921
 21
1939.749496429288
 31
0.0
  0
LINE
  5
3E91
  8
YODOROGO
 10
30497.604341291921
 20
2027.749496429288
 30
0.0
 11
30617.604341291921
 21
1947.749496429288
 31
0.0
  0
LINE
  5
3E92
  8
YODOROGO
 10
30529.604341291939
 20
1679.749496429288
 30
0.0
 11
30617.604341291921
 21
1679.749496429288
 31
0.0
  0
LINE
  5
3E93
  8
YODOROGO
 10
30617.604341291921
 20
1735.7494964292871
 30
0.0
 11
30529.604341291939
 21
1735.7494964292871
 31
0.0
  0
LINE
  5
3E94
  8
YODOROGO
 10
30381.604341291932
 20
1795.7494964292871
 30
0.0
 11
30617.604341291921
 21
1795.7494964292871
 31
0.0
  0
LINE
  5
3E95
  8
YODOROGO
 10
30081.604341291921
 20
2027.749496429288
 30
0.0
 11
30021.604341291921
 21
2027.749496429288
 31
0.0
  0
LINE
  5
3E96
  8
YODOROGO
 10
30081.604341291921
 20
1827.7494964292871
 30
0.0
 11
30081.604341291921
 21
2027.749496429288
 31
0.0
  0
LINE
  5
3E97
  8
YODOROGO
 10
30021.604341291921
 20
1827.7494964292871
 30
0.0
 11
30081.604341291921
 21
1827.7494964292871
 31
0.0
  0
LINE
  5
3E98
  8
YODOROGO
 10
30021.604341291921
 20
2027.749496429288
 30
0.0
 11
30021.604341291921
 21
1827.7494964292871
 31
0.0
  0
LINE
  5
3E99
  8
YODOROGO
 10
30161.604341291921
 20
2027.749496429288
 30
0.0
 11
30217.604341291921
 21
2027.749496429288
 31
0.0
  0
LINE
  5
3E9A
  8
YODOROGO
 10
30161.604341291921
 20
1811.749496429288
 30
0.0
 11
30161.604341291921
 21
2027.749496429288
 31
0.0
  0
ARC
  5
3E9B
  8
YODOROGO
 10
30121.604341291921
 20
1811.749496429288
 30
0.0
 40
40.0
 50
270.0
 51
0.0
  0
LINE
  5
3E9C
  8
YODOROGO
 10
30021.604341291921
 20
1771.7494964292871
 30
0.0
 11
30121.604341291921
 21
1771.7494964292871
 31
0.0
  0
LINE
  5
3E9D
  8
YODOROGO
 10
30021.604341291921
 20
1707.749496429288
 30
0.0
 11
30021.604341291921
 21
1771.7494964292871
 31
0.0
  0
LINE
  5
3E9E
  8
YODOROGO
 10
30137.604341291921
 20
1707.749496429288
 30
0.0
 11
30021.604341291921
 21
1707.749496429288
 31
0.0
  0
ARC
  5
3E9F
  8
YODOROGO
 10
30137.604341291921
 20
1787.7494964292871
 30
0.0
 40
80.0
 50
270.0
 51
0.0
  0
LINE
  5
3EA0
  8
YODOROGO
 10
30217.604341291921
 20
2027.749496429288
 30
0.0
 11
30217.604341291921
 21
1787.7494964292871
 31
0.0
  0
LINE
  5
3EA1
  8
YODOROGO
 10
29977.604341291921
 20
1947.749496429288
 30
0.0
 11
29977.604341291921
 21
1995.7494964292871
 31
0.0
1001
AUTOCAD_POSTSCRIPT_FIGURE
1002
{
1000
PSFILL
1000
Grayscale
1000
Grayscale
1070
    25
1002
}
  0
LINE
  5
3EA2
  8
YODOROGO
 10
29977.604341291921
 20
1859.749496429288
 30
0.0
 11
29977.604341291921
 21
1907.7494964292871
 31
0.0
1001
AUTOCAD_POSTSCRIPT_FIGURE
1002
{
1000
PSFILL
1000
Grayscale
1000
Grayscale
1070
    25
1002
}
  0
LINE
  5
3EA3
  8
YODOROGO
 10
29977.604341291921
 20
1707.749496429288
 30
0.0
 11
29977.604341291921
 21
1819.7494964292871
 31
0.0
1001
AUTOCAD_POSTSCRIPT_FIGURE
1002
{
1000
PSFILL
1000
Grayscale
1000
Grayscale
1070
    25
1002
}
  0
LINE
  5
3EA4
  8
YODOROGO
 10
30381.604341291932
 20
1907.7494964292871
 30
0.0
 11
30497.604341291921
 21
2027.749496429288
 31
0.0
  0
LINE
  5
3EA5
  8
YODOROGO
 10
30381.604341291932
 20
1819.7494964292871
 30
0.0
 11
30381.604341291932
 21
1907.7494964292871
 31
0.0
  0
LINE
  5
3EA6
  8
YODOROGO
 10
30497.604341291921
 20
1939.749496429288
 30
0.0
 11
30381.604341291932
 21
1819.7494964292871
 31
0.0
  0
LINE
  5
3EA7
  8
YODOROGO
 10
30465.604341291921
 20
1679.749496429288
 30
0.0
 11
30465.604341291921
 21
1735.7494964292871
 31
0.0
  0
LINE
  5
3EA8
  8
YODOROGO
 10
30381.604341291932
 20
1679.749496429288
 30
0.0
 11
30465.604341291921
 21
1679.749496429288
 31
0.0
  0
LINE
  5
3EA9
  8
YODOROGO
 10
30529.604341291939
 20
1735.7494964292871
 30
0.0
 11
30529.604341291939
 21
1679.749496429288
 31
0.0
  0
LINE
  5
3EAA
  8
YODOROGO
 10
30381.604341291932
 20
1735.7494964292871
 30
0.0
 11
30381.604341291932
 21
1795.7494964292871
 31
0.0
  0
LINE
  5
3EAB
  8
YODOROGO
 10
30465.604341291921
 20
1735.7494964292871
 30
0.0
 11
30381.604341291932
 21
1735.7494964292871
 31
0.0
  0
LINE
  5
3EAC
  8
YODOROGO
 10
30645.604341291921
 20
2027.749496429288
 30
0.0
 11
30973.604341291921
 21
2027.749496429288
 31
0.0
  0
LINE
  5
3EAD
  8
YODOROGO
 10
30925.604341291921
 20
1963.749496429286
 30
0.0
 11
30697.604341291932
 21
1963.749496429286
 31
0.0
  0
LINE
  5
3EAE
  8
YODOROGO
 10
30873.604341291921
 20
1819.7494964292871
 30
0.0
 11
30899.604341291932
 21
1819.7494964292871
 31
0.0
  0
LINE
  5
3EAF
  8
YODOROGO
 10
30899.604341291932
 20
1939.749496429288
 30
0.0
 11
30873.604341291921
 21
1819.7494964292871
 31
0.0
  0
LINE
  5
3EB0
  8
YODOROGO
 10
30851.604341291939
 20
1939.749496429288
 30
0.0
 11
30899.604341291932
 21
1939.749496429288
 31
0.0
  0
LINE
  5
3EB1
  8
YODOROGO
 10
30825.604341291921
 20
1819.7494964292871
 30
0.0
 11
30851.604341291939
 21
1939.749496429288
 31
0.0
  0
LINE
  5
3EB2
  8
YODOROGO
 10
30797.604341291921
 20
1819.7494964292871
 30
0.0
 11
30825.604341291921
 21
1819.7494964292871
 31
0.0
  0
LINE
  5
3EB3
  8
YODOROGO
 10
30771.604341291939
 20
1939.749496429288
 30
0.0
 11
30797.604341291921
 21
1819.7494964292871
 31
0.0
  0
LINE
  5
3EB4
  8
YODOROGO
 10
30723.604341291921
 20
1939.749496429288
 30
0.0
 11
30771.604341291939
 21
1939.749496429288
 31
0.0
  0
LINE
  5
3EB5
  8
YODOROGO
 10
30749.604341291921
 20
1819.7494964292871
 30
0.0
 11
30723.604341291921
 21
1939.749496429288
 31
0.0
  0
LINE
  5
3EB6
  8
YODOROGO
 10
30723.604341291921
 20
1819.7494964292871
 30
0.0
 11
30749.604341291921
 21
1819.7494964292871
 31
0.0
  0
LINE
  5
3EB7
  8
YODOROGO
 10
30723.604341291921
 20
1755.7494964292871
 30
0.0
 11
30723.604341291921
 21
1819.7494964292871
 31
0.0
  0
LINE
  5
3EB8
  8
YODOROGO
 10
30899.604341291932
 20
1755.7494964292871
 30
0.0
 11
30723.604341291921
 21
1755.7494964292871
 31
0.0
  0
LINE
  5
3EB9
  8
YODOROGO
 10
30899.604341291932
 20
1819.7494964292871
 30
0.0
 11
30899.604341291932
 21
1755.7494964292871
 31
0.0
  0
LINE
  5
3EBA
  8
YODOROGO
 10
30617.604341291921
 20
1947.749496429288
 30
0.0
 11
30617.604341291921
 21
1859.749496429288
 31
0.0
  0
LINE
  5
3EBB
  8
YODOROGO
 10
30791.604341291921
 20
1755.7494964292871
 30
0.0
 11
30831.604341291921
 21
1755.7494964292871
 31
0.0
  0
LINE
  5
3EBC
  8
YODOROGO
 10
30723.604341291921
 20
1691.749496429288
 30
0.0
 11
30763.604341291921
 21
1691.749496429288
 31
0.0
  0
LINE
  5
3EBD
  8
YODOROGO
 10
30859.604341291932
 20
1691.749496429288
 30
0.0
 11
30899.604341291932
 21
1691.749496429288
 31
0.0
  0
LINE
  5
3EBE
  8
YODOROGO
 10
30617.604341291921
 20
1795.7494964292871
 30
0.0
 11
30617.604341291921
 21
1735.7494964292871
 31
0.0
  0
LINE
  5
3EBF
  8
YODOROGO
 10
31165.604341291921
 20
2027.749496429288
 30
0.0
 11
31165.604341291921
 21
1963.749496429286
 31
0.0
  0
LINE
  5
3EC0
  8
YODOROGO
 10
31533.604341291921
 20
1595.7494964292871
 30
0.0
 11
31533.60434129191
 21
1811.749496429288
 31
0.0
  0
LINE
  5
3EC1
  8
YODOROGO
 10
31461.60434129191
 20
1987.7494964292871
 30
0.0
 11
31461.60434129191
 21
1635.7494964292871
 31
0.0
  0
LINE
  5
3EC2
  8
YODOROGO
 10
31653.604341291921
 20
1427.749496429288
 30
0.0
 11
31653.60434129191
 21
1811.749496429288
 31
0.0
  0
LINE
  5
3EC3
  8
YODOROGO
 10
31589.604341291921
 20
1811.749496429288
 30
0.0
 11
31589.604341291921
 21
1427.749496429288
 31
0.0
  0
LINE
  5
3EC4
  8
YODOROGO
 10
31237.604341291921
 20
1595.7494964292871
 30
0.0
 11
31237.604341291921
 21
1707.749496429288
 31
0.0
  0
ARC
  5
3EC5
  8
YODOROGO
 10
31353.914865116069
 20
1607.790351288558
 30
0.0
 40
180.0924485759885
 50
268.62849102169793
 51
356.16638457330322
  0
LINE
  5
3EC6
  8
YODOROGO
 10
31349.604341291939
 20
1527.749496429288
 30
0.0
 11
31349.604341291939
 21
1427.749496429288
 31
0.0
  0
ARC
  5
3EC7
  8
YODOROGO
 10
31351.518075724562
 20
1637.838957017655
 30
0.0
 40
110.1060929836122
 50
269.00410209305932
 51
358.91264455492478
  0
LINE
  5
3EC8
  8
YODOROGO
 10
31589.604341291921
 20
1427.749496429288
 30
0.0
 11
31653.604341291921
 21
1427.749496429288
 31
0.0
  0
LINE
  5
3EC9
  8
YODOROGO
 10
31533.60434129191
 20
1811.749496429288
 30
0.0
 11
31589.604341291921
 21
1811.749496429288
 31
0.0
  0
LINE
  5
3ECA
  8
YODOROGO
 10
31621.604341291939
 20
1987.7494964292871
 30
0.0
 11
31461.60434129191
 21
1987.7494964292871
 31
0.0
  0
LINE
  5
3ECB
  8
YODOROGO
 10
31533.60434129191
 20
1915.7494964292871
 30
0.0
 11
31661.604341291939
 21
1915.7494964292871
 31
0.0
  0
LINE
  5
3ECC
  8
YODOROGO
 10
31701.604341291939
 20
1875.7494964292871
 30
0.0
 11
31533.60434129191
 21
1875.7494964292871
 31
0.0
  0
LINE
  5
3ECD
  8
YODOROGO
 10
31237.604341291921
 20
1779.749496429288
 30
0.0
 11
31349.604341291939
 21
1779.749496429288
 31
0.0
  0
LINE
  5
3ECE
  8
YODOROGO
 10
31237.604341291921
 20
1835.7494964292871
 30
0.0
 11
31237.604341291921
 21
1779.749496429288
 31
0.0
  0
LINE
  5
3ECF
  8
YODOROGO
 10
31349.604341291939
 20
1835.7494964292871
 30
0.0
 11
31237.604341291921
 21
1835.7494964292871
 31
0.0
  0
LINE
  5
3ED0
  8
YODOROGO
 10
31349.604341291939
 20
1779.749496429288
 30
0.0
 11
31349.604341291939
 21
1835.7494964292871
 31
0.0
  0
LINE
  5
3ED1
  8
YODOROGO
 10
31533.60434129191
 20
1875.7494964292871
 30
0.0
 11
31533.60434129191
 21
1915.7494964292871
 31
0.0
  0
LINE
  5
3ED2
  8
YODOROGO
 10
31413.604341291921
 20
1707.749496429288
 30
0.0
 11
31413.604341291921
 21
1907.7494964292871
 31
0.0
  0
LINE
  5
3ED3
  8
YODOROGO
 10
31237.604341291921
 20
1707.749496429288
 30
0.0
 11
31413.604341291921
 21
1707.749496429288
 31
0.0
  0
LINE
  5
3ED4
  8
YODOROGO
 10
31413.604341291921
 20
1963.749496429286
 30
0.0
 11
31413.604341291921
 21
2027.749496429288
 31
0.0
  0
ARC
  5
3ED5
  8
YODOROGO
 10
31621.604341291939
 20
2003.749496429285
 30
0.0
 40
15.999999999994539
 50
270.0
 51
0.0000000000081422
  0
LINE
  5
3ED6
  8
YODOROGO
 10
31637.604341291921
 20
2027.749496429288
 30
0.0
 11
31637.604341291921
 21
2003.7494964292871
 31
0.0
  0
LINE
  5
3ED7
  8
YODOROGO
 10
31701.604341291939
 20
2027.749496429288
 30
0.0
 11
31637.604341291921
 21
2027.749496429288
 31
0.0
  0
LINE
  5
3ED8
  8
YODOROGO
 10
31701.604341291939
 20
1955.7494964292871
 30
0.0
 11
31701.604341291939
 21
2027.749496429288
 31
0.0
  0
ARC
  5
3ED9
  8
YODOROGO
 10
31661.604341291939
 20
1955.7494964292871
 30
0.0
 40
40.0
 50
270.0
 51
0.0
  0
LINE
  5
3EDA
  8
YODOROGO
 10
31701.604341291939
 20
1811.749496429288
 30
0.0
 11
31701.604341291939
 21
1875.7494964292871
 31
0.0
  0
LINE
  5
3EDB
  8
YODOROGO
 10
31653.60434129191
 20
1811.749496429288
 30
0.0
 11
31701.604341291939
 21
1811.749496429288
 31
0.0
  0
LINE
  5
3EDF
  8
SUNPOU
  6
CONTINUOUS
 62
     4
 10
14418.86405999998
 20
20194.226823000001
 30
0.0
 11
14418.86405999998
 21
20744.232102000031
 31
0.0
  0
LINE
  5
3EE0
  8
SUNPOU
  6
CONTINUOUS
 62
     4
 10
14333.364059999971
 20
20664.232102000031
 30
0.0
 11
14093.364059999971
 21
20664.232102000031
 31
0.0
  0
LINE
  5
3EE1
  8
SUNPOU
  6
CONTINUOUS
 62
     4
 10
14415.86405999998
 20
20664.232102000031
 30
0.0
 11
14655.86405999998
 21
20664.232102000031
 31
0.0
  0
LINE
  5
3EE2
  8
SUNPOU
  6
CONTINUOUS
 62
     4
 10
14333.364059999971
 20
20664.232102000031
 30
0.0
 11
14415.86405999998
 21
20664.232102000031
 31
0.0
  0
LINE
  5
3EE3
  8
SUNPOU
  6
CONTINUOUS
 62
     4
 10
12466.86405999998
 20
20589.234345000041
 30
0.0
 11
12466.86405999998
 21
20584.232102000031
 31
0.0
  0
LINE
  5
3EE4
  8
SUNPOU
  6
CONTINUOUS
 62
     4
 10
12466.86405999998
 20
20664.232102000031
 30
0.0
 11
14333.364059999971
 21
20664.232102000031
 31
0.0
  0
LINE
  5
3EE5
  8
SUNPOU
  6
CONTINUOUS
 62
     4
 10
9813.8640599999835
 20
20194.226823000001
 30
0.0
 11
9813.8640599999835
 21
20744.232102000031
 31
0.0
  0
LINE
  5
3EE6
  8
SUNPOU
  6
CONTINUOUS
 62
     4
 10
9899.3640599999835
 20
20664.232102000031
 30
0.0
 11
10139.36405999998
 21
20664.232102000031
 31
0.0
  0
LINE
  5
3EE7
  8
SUNPOU
  6
CONTINUOUS
 62
     4
 10
9816.8640599999835
 20
20664.232102000031
 30
0.0
 11
9576.8640599999835
 21
20664.232102000031
 31
0.0
  0
LINE
  5
3EE8
  8
SUNPOU
  6
CONTINUOUS
 62
     4
 10
9899.3640599999835
 20
20664.232102000031
 30
0.0
 11
9816.8640599999835
 21
20664.232102000031
 31
0.0
  0
LINE
  5
3EE9
  8
SUNPOU
  6
CONTINUOUS
 62
     4
 10
12466.86405999998
 20
20589.234345000041
 30
0.0
 11
12466.86405999998
 21
20584.232102000031
 31
0.0
  0
LINE
  5
3EEA
  8
SUNPOU
  6
CONTINUOUS
 62
     4
 10
12466.86405999998
 20
20664.232102000031
 30
0.0
 11
9899.3640599999835
 21
20664.232102000031
 31
0.0
  0
LINE
  5
3EEB
  8
SUNPOU
  6
CONTINUOUS
 62
     4
 10
9736.8633249999875
 20
13512.735599
 30
0.0
 11
8889.8679039999897
 21
13512.735599
 31
0.0
  0
LINE
  5
3EEC
  8
SUNPOU
  6
CONTINUOUS
 62
     4
 10
8969.8679039999897
 20
13705.230913999991
 30
0.0
 11
8969.8679039999897
 21
13512.735599
 31
0.0
  0
LINE
  5
3EED
  8
SUNPOU
  6
CONTINUOUS
 62
     4
 10
9600.5685219999887
 20
15514.971425500011
 30
0.0
 11
8889.8679039999897
 21
15514.971425500011
 31
0.0
  0
LINE
  5
3EEE
  8
SUNPOU
  6
CONTINUOUS
 62
     4
 10
8969.8679039999897
 20
15514.971425500011
 30
0.0
 11
8969.8679039999897
 21
13705.230913999991
 31
0.0
  0
LINE
  5
3EEF
  8
SUNPOU
  6
CONTINUOUS
 62
     4
 10
9600.5685219999887
 20
15514.971425500011
 30
0.0
 11
8889.8679039999897
 21
15514.971425500011
 31
0.0
  0
LINE
  5
3EF0
  8
SUNPOU
  6
CONTINUOUS
 62
     4
 10
8969.8679039999897
 20
16973.730914
 30
0.0
 11
8969.8679039999897
 21
15514.971425500011
 31
0.0
  0
LINE
  5
3EF1
  8
SUNPOU
  6
CONTINUOUS
 62
     4
 10
9586.4288209999886
 20
18432.730914
 30
0.0
 11
8889.8679039999897
 21
18432.730914
 31
0.0
  0
LINE
  5
3EF2
  8
SUNPOU
  6
CONTINUOUS
 62
     4
 10
8969.8679039999897
 20
18432.730914
 30
0.0
 11
8969.8679039999897
 21
16973.730914
 31
0.0
  0
LINE
  5
3EF3
  8
SUNPOU
  6
CONTINUOUS
 62
     4
 10
9736.8633249999875
 20
20094.226823000001
 30
0.0
 11
9289.8679039999879
 21
20094.226823000001
 31
0.0
  0
LINE
  5
3EF4
  8
SUNPOU
  6
CONTINUOUS
 62
     4
 10
9736.8676799999885
 20
20114.226823000001
 30
0.0
 11
9289.8679039999879
 21
20114.226823000001
 31
0.0
  0
LINE
  5
3EF6
  8
SUNPOU
  6
CONTINUOUS
 62
     4
 10
9369.8679039999879
 20
20114.226823000001
 30
0.0
 11
9369.8679039999879
 21
20354.226823000012
 31
0.0
  0
LINE
  5
3EF7
  8
SUNPOU
  6
CONTINUOUS
 62
     4
 10
9369.8679039999879
 20
20074.226823000001
 30
0.0
 11
9369.8679039999879
 21
20114.226823000001
 31
0.0
  0
LINE
  5
3EF8
  8
SUNPOU
  6
CONTINUOUS
 62
     4
 10
9736.8676799999885
 20
20114.226823000001
 30
0.0
 11
8889.8679039999897
 21
20114.226823000001
 31
0.0
  0
LINE
  5
3EF9
  8
SUNPOU
  6
CONTINUOUS
 62
     4
 10
8969.8679039999897
 20
19891.730914
 30
0.0
 11
8969.8679039999897
 21
20114.226823000001
 31
0.0
  0
LINE
  5
3EFA
  8
SUNPOU
  6
CONTINUOUS
 62
     4
 10
9586.4288209999886
 20
18432.730914
 30
0.0
 11
8889.8679039999897
 21
18432.730914
 31
0.0
  0
LINE
  5
3EFB
  8
SUNPOU
  6
CONTINUOUS
 62
     4
 10
8969.8679039999897
 20
18432.730914
 30
0.0
 11
8969.8679039999897
 21
19891.730914
 31
0.0
  0
LINE
  5
3EFC
  8
SUNPOU
  6
CONTINUOUS
 62
     4
 10
20072.325089000002
 20
18432.730914
 30
0.0
 11
19185.366816999991
 21
18432.730914
 31
0.0
  0
LINE
  5
3EFD
  8
SUNPOU
  6
CONTINUOUS
 62
     4
 10
19265.366816999991
 20
18432.730914
 30
0.0
 11
19265.366816999991
 21
19891.730914
 31
0.0
  0
LINE
  5
3EFE
  8
SUNPOU
  6
CONTINUOUS
 62
     4
 10
20072.325089000002
 20
18432.730914
 30
0.0
 11
19185.366816999991
 21
18432.730914
 31
0.0
  0
LINE
  5
3EFF
  8
SUNPOU
  6
CONTINUOUS
 62
     4
 10
19265.366816999991
 20
16973.730914
 30
0.0
 11
19265.366816999991
 21
18432.730914
 31
0.0
  0
LINE
  5
3F00
  8
SUNPOU
  6
CONTINUOUS
 62
     4
 10
20072.325089000002
 20
15514.971425500011
 30
0.0
 11
19185.366816999991
 21
15514.971425500011
 31
0.0
  0
LINE
  5
3F01
  8
SUNPOU
  6
CONTINUOUS
 62
     4
 10
19265.366816999991
 20
15514.971425500011
 30
0.0
 11
19265.366816999991
 21
16973.730914
 31
0.0
  0
LINE
  5
3F02
  8
SUNPOU
  6
CONTINUOUS
 62
     4
 10
20072.325089000002
 20
15514.971425500011
 30
0.0
 11
19185.366816999991
 21
15514.971425500011
 31
0.0
  0
LINE
  5
3F03
  8
SUNPOU
  6
CONTINUOUS
 62
     4
 10
19265.366816999991
 20
13705.230913999991
 30
0.0
 11
19265.366816999991
 21
15514.971425500011
 31
0.0
  0
LINE
  5
3F04
  8
SUNPOU
  6
CONTINUOUS
 62
     4
 10
20194.821393999991
 20
12999.46747999999
 30
0.0
 11
20194.821393999991
 21
12653.782829999989
 31
0.0
  0
LINE
  5
3F05
  8
SUNPOU
  6
CONTINUOUS
 62
     4
 10
20152.319151
 20
13582.733619000001
 30
0.0
 11
20152.319151
 21
12653.782829999989
 31
0.0
  0
LINE
  5
3F06
  8
SUNPOU
  6
CONTINUOUS
 62
     4
 10
20194.821393999991
 20
12733.782829999989
 30
0.0
 11
20434.821393999991
 21
12733.782829999989
 31
0.0
  0
LINE
  5
3F07
  8
SUNPOU
  6
CONTINUOUS
 62
     4
 10
20152.319151
 20
12733.782829999989
 30
0.0
 11
19912.319151
 21
12733.782829999989
 31
0.0
  0
LINE
  5
3F08
  8
SUNPOU
  6
CONTINUOUS
 62
     4
 10
20194.821393999991
 20
12733.782829999989
 30
0.0
 11
20152.319151
 21
12733.782829999989
 31
0.0
  0
LINE
  5
3F09
  8
SUNPOU
  6
CONTINUOUS
 62
     4
 10
24628.821393999991
 20
12999.46747999999
 30
0.0
 11
24628.821393999991
 21
12653.782829999989
 31
0.0
  0
LINE
  5
3F0A
  8
SUNPOU
  6
CONTINUOUS
 62
     4
 10
24671.32363699999
 20
13582.733619000001
 30
0.0
 11
24671.32363699999
 21
12653.782829999989
 31
0.0
  0
LINE
  5
3F0B
  8
SUNPOU
  6
CONTINUOUS
 62
     4
 10
24628.821393999991
 20
12733.782829999989
 30
0.0
 11
24388.821393999991
 21
12733.782829999989
 31
0.0
  0
LINE
  5
3F0C
  8
SUNPOU
  6
CONTINUOUS
 62
     4
 10
24671.32363699999
 20
12733.782829999989
 30
0.0
 11
24911.32363699999
 21
12733.782829999989
 31
0.0
  0
LINE
  5
3F0D
  8
SUNPOU
  6
CONTINUOUS
 62
     4
 10
24628.821393999991
 20
12733.782829999989
 30
0.0
 11
24671.32363699999
 21
12733.782829999989
 31
0.0
  0
LINE
  5
3F0E
  8
2-0
  6
CONTINUOUS
 62
     3
 10
22719.821393999991
 20
13662.730913999991
 30
0.0
 11
22804.821393999991
 21
13662.730913999991
 31
0.0
  0
LINE
  5
3F0F
  8
2-0
  6
CONTINUOUS
 62
     3
 10
22804.821393999991
 20
13662.730913999991
 30
0.0
 11
22804.821393999991
 21
13747.730913999991
 31
0.0
  0
LINE
  5
3F10
  8
2-0
  6
CONTINUOUS
 62
     3
 10
22804.821393999991
 20
13747.730913999991
 30
0.0
 11
22719.821393999991
 21
13747.730913999991
 31
0.0
  0
LINE
  5
3F11
  8
2-0
  6
CONTINUOUS
 62
     3
 10
22719.821393999991
 20
13747.730913999991
 30
0.0
 11
22719.821393999991
 21
13662.730913999991
 31
0.0
  0
LINE
  5
3F12
  8
SUNPOU
  6
CONTINUOUS
 62
     4
 10
24628.821393999991
 20
12999.46747999999
 30
0.0
 11
24628.821393999991
 21
12653.782829999989
 31
0.0
  0
LINE
  5
3F13
  8
SUNPOU
  6
CONTINUOUS
 62
     4
 10
24586.319150999982
 20
13582.733619000001
 30
0.0
 11
24586.319150999982
 21
12653.782829999989
 31
0.0
  0
LINE
  5
3F14
  8
SUNPOU
  6
CONTINUOUS
 62
     4
 10
24628.821393999991
 20
12733.782829999989
 30
0.0
 11
24868.821393999991
 21
12733.782829999989
 31
0.0
  0
LINE
  5
3F15
  8
SUNPOU
  6
CONTINUOUS
 62
     4
 10
24586.319150999982
 20
12733.782829999989
 30
0.0
 11
24346.319150999982
 21
12733.782829999989
 31
0.0
  0
LINE
  5
3F16
  8
SUNPOU
  6
CONTINUOUS
 62
     4
 10
24628.821393999991
 20
12733.782829999989
 30
0.0
 11
24586.319150999982
 21
12733.782829999989
 31
0.0
  0
LINE
  5
3F17
  8
SUNPOU
  6
CONTINUOUS
 62
     4
 10
20194.821393999991
 20
12999.46747999999
 30
0.0
 11
20194.821393999991
 21
12653.782829999989
 31
0.0
  0
LINE
  5
3F18
  8
SUNPOU
  6
CONTINUOUS
 62
     4
 10
20237.32363699999
 20
13582.733619000001
 30
0.0
 11
20237.32363699999
 21
12653.782829999989
 31
0.0
  0
LINE
  5
3F19
  8
SUNPOU
  6
CONTINUOUS
 62
     4
 10
20194.821393999991
 20
12733.782829999989
 30
0.0
 11
19954.821393999991
 21
12733.782829999989
 31
0.0
  0
LINE
  5
3F1A
  8
SUNPOU
  6
CONTINUOUS
 62
     4
 10
20237.32363699999
 20
12733.782829999989
 30
0.0
 11
20477.32363699999
 21
12733.782829999989
 31
0.0
  0
LINE
  5
3F1B
  8
SUNPOU
  6
CONTINUOUS
 62
     4
 10
20194.821393999991
 20
12733.782829999989
 30
0.0
 11
20237.32363699999
 21
12733.782829999989
 31
0.0
  0
LINE
  5
3F1C
  8
SUNPOU
  6
CONTINUOUS
 62
     4
 10
20152.319151
 20
13582.733619000001
 30
0.0
 11
20152.319151
 21
12253.78283
 31
0.0
  0
LINE
  5
3F1D
  8
SUNPOU
  6
CONTINUOUS
 62
     4
 10
24671.32363699999
 20
13582.733619000001
 30
0.0
 11
24671.32363699999
 21
12253.78283
 31
0.0
  0
LINE
  5
3F1E
  8
SUNPOU
  6
CONTINUOUS
 62
     4
 10
20152.319151
 20
12333.782829999989
 30
0.0
 11
24671.32363699999
 21
12333.782829999989
 31
0.0
  0
LINE
  5
3F1F
  8
SUNPOU
  6
CONTINUOUS
 62
     4
 10
24751.319677999982
 20
14112.730913999991
 30
0.0
 11
25801.320997999988
 21
14112.730913999991
 31
0.0
  0
LINE
  5
3F20
  8
SUNPOU
  6
CONTINUOUS
 62
     4
 10
25601.320997999988
 20
13705.230913999991
 30
0.0
 11
25801.320997999988
 21
13705.230913999991
 31
0.0
  0
LINE
  5
3F21
  8
SUNPOU
  6
CONTINUOUS
 62
     4
 10
25721.320997999988
 20
14112.730913999991
 30
0.0
 11
25721.320997999988
 21
13705.230913999991
 31
0.0
  0
LINE
  5
3F22
  8
SUNPOU
  6
CONTINUOUS
 62
     4
 10
24751.319677999982
 20
14813.730913999991
 30
0.0
 11
25801.320997999988
 21
14813.730913999991
 31
0.0
  0
LINE
  5
3F23
  8
SUNPOU
  6
CONTINUOUS
 62
     4
 10
24751.319677999982
 20
14112.730913999991
 30
0.0
 11
25801.320997999988
 21
14112.730913999991
 31
0.0
  0
LINE
  5
3F24
  8
SUNPOU
  6
CONTINUOUS
 62
     4
 10
25721.320997999988
 20
14813.730913999991
 30
0.0
 11
25721.320997999988
 21
14112.730913999991
 31
0.0
  0
LINE
  5
3F25
  8
SUNPOU
  6
CONTINUOUS
 62
     4
 10
24751.319677999982
 20
15514.971425500011
 30
0.0
 11
25801.320997999988
 21
15514.971425500011
 31
0.0
  0
LINE
  5
3F26
  8
SUNPOU
  6
CONTINUOUS
 62
     4
 10
24751.319677999982
 20
14813.730913999991
 30
0.0
 11
25801.320997999988
 21
14813.730913999991
 31
0.0
  0
LINE
  5
3F27
  8
SUNPOU
  6
CONTINUOUS
 62
     4
 10
25721.320997999988
 20
15514.971425500011
 30
0.0
 11
25721.320997999988
 21
14813.730913999991
 31
0.0
  0
LINE
  5
3F28
  8
SUNPOU
  6
CONTINUOUS
 62
     4
 10
24751.319677999982
 20
16215.730913999991
 30
0.0
 11
25801.320997999988
 21
16215.730913999991
 31
0.0
  0
LINE
  5
3F29
  8
SUNPOU
  6
CONTINUOUS
 62
     4
 10
24751.319677999982
 20
15514.971425500011
 30
0.0
 11
25801.320997999988
 21
15514.971425500011
 31
0.0
  0
LINE
  5
3F2A
  8
SUNPOU
  6
CONTINUOUS
 62
     4
 10
25721.320997999988
 20
16215.730913999991
 30
0.0
 11
25721.320997999988
 21
15514.971425500011
 31
0.0
  0
LINE
  5
3F2B
  8
SUNPOU
  6
CONTINUOUS
 62
     4
 10
25601.320997999988
 20
16973.730914
 30
0.0
 11
25801.320997999988
 21
16973.730914
 31
0.0
  0
LINE
  5
3F2C
  8
SUNPOU
  6
CONTINUOUS
 62
     4
 10
24751.319677999982
 20
16215.730913999991
 30
0.0
 11
25801.320997999988
 21
16215.730913999991
 31
0.0
  0
LINE
  5
3F2D
  8
SUNPOU
  6
CONTINUOUS
 62
     4
 10
25721.320997999988
 20
16973.730914
 30
0.0
 11
25721.320997999988
 21
16215.730913999991
 31
0.0
  0
LINE
  5
3F2E
  8
SUNPOU
  6
CONTINUOUS
 62
     4
 10
24751.319677999982
 20
17731.730914
 30
0.0
 11
25801.320997999988
 21
17731.730914
 31
0.0
  0
LINE
  5
3F2F
  8
SUNPOU
  6
CONTINUOUS
 62
     4
 10
25601.320997999988
 20
16973.730914
 30
0.0
 11
25801.320997999988
 21
16973.730914
 31
0.0
  0
LINE
  5
3F30
  8
SUNPOU
  6
CONTINUOUS
 62
     4
 10
25721.320997999988
 20
17731.730914
 30
0.0
 11
25721.320997999988
 21
16973.730914
 31
0.0
  0
LINE
  5
3F31
  8
SUNPOU
  6
CONTINUOUS
 62
     4
 10
24751.319677999982
 20
18432.730914
 30
0.0
 11
25801.320997999988
 21
18432.730914
 31
0.0
  0
LINE
  5
3F32
  8
SUNPOU
  6
CONTINUOUS
 62
     4
 10
24751.319677999982
 20
17731.730914
 30
0.0
 11
25801.320997999988
 21
17731.730914
 31
0.0
  0
LINE
  5
3F33
  8
SUNPOU
  6
CONTINUOUS
 62
     4
 10
25721.320997999988
 20
18432.730914
 30
0.0
 11
25721.320997999988
 21
17731.730914
 31
0.0
  0
LINE
  5
3F34
  8
SUNPOU
  6
CONTINUOUS
 62
     4
 10
24751.319677999982
 20
19133.730914
 30
0.0
 11
25801.320997999988
 21
19133.730914
 31
0.0
  0
LINE
  5
3F35
  8
SUNPOU
  6
CONTINUOUS
 62
     4
 10
24751.319677999982
 20
18432.730914
 30
0.0
 11
25801.320997999988
 21
18432.730914
 31
0.0
  0
LINE
  5
3F36
  8
SUNPOU
  6
CONTINUOUS
 62
     4
 10
25721.320997999988
 20
19133.730914
 30
0.0
 11
25721.320997999988
 21
18432.730914
 31
0.0
  0
LINE
  5
3F37
  8
SUNPOU
  6
CONTINUOUS
 62
     4
 10
25601.320997999988
 20
19891.730914
 30
0.0
 11
25801.320997999988
 21
19891.730914
 31
0.0
  0
LINE
  5
3F38
  8
SUNPOU
  6
CONTINUOUS
 62
     4
 10
24751.319677999982
 20
19133.730914
 30
0.0
 11
25801.320997999988
 21
19133.730914
 31
0.0
  0
LINE
  5
3F39
  8
SUNPOU
  6
CONTINUOUS
 62
     4
 10
25721.320997999988
 20
19891.730914
 30
0.0
 11
25721.320997999988
 21
19133.730914
 31
0.0
  0
LINE
  5
3F3A
  8
SUNPOU
  6
CONTINUOUS
 62
     4
 10
25601.320997999988
 20
16973.730914
 30
0.0
 11
26201.320997999988
 21
16973.730914
 31
0.0
  0
LINE
  5
3F3B
  8
SUNPOU
  6
CONTINUOUS
 62
     4
 10
25601.320997999988
 20
19891.730914
 30
0.0
 11
26201.320997999988
 21
19891.730914
 31
0.0
  0
LINE
  5
3F3C
  8
SUNPOU
  6
CONTINUOUS
 62
     4
 10
26121.320997999988
 20
16973.730914
 30
0.0
 11
26121.320997999988
 21
19891.730914
 31
0.0
  0
LINE
  5
3F3D
  8
SUNPOU
  6
CONTINUOUS
 62
     4
 10
25601.320997999988
 20
13705.230913999991
 30
0.0
 11
26201.320997999988
 21
13705.230913999991
 31
0.0
  0
LINE
  5
3F3E
  8
SUNPOU
  6
CONTINUOUS
 62
     4
 10
25601.320997999988
 20
16973.730914
 30
0.0
 11
26201.320997999988
 21
16973.730914
 31
0.0
  0
LINE
  5
3F3F
  8
SUNPOU
  6
CONTINUOUS
 62
     4
 10
26121.320997999988
 20
13705.230913999991
 30
0.0
 11
26121.320997999988
 21
16973.730914
 31
0.0
  0
LINE
  5
3F40
  8
SUNPOU
  6
CONTINUOUS
 62
     4
 10
24751.319677999982
 20
19934.228209000001
 30
0.0
 11
26601.320997999988
 21
19934.228209000001
 31
0.0
  0
LINE
  5
3F41
  8
SUNPOU
  6
CONTINUOUS
 62
     4
 10
24751.319677999982
 20
13662.733619000001
 30
0.0
 11
26601.320997999988
 21
13662.733619000001
 31
0.0
  0
LINE
  5
3F42
  8
SUNPOU
  6
CONTINUOUS
 62
     4
 10
26521.320997999988
 20
19934.228209000001
 30
0.0
 11
26521.320997999988
 21
13662.733619000001
 31
0.0
  0
LINE
  5
3F43
  8
SUNPOU
  6
CONTINUOUS
 62
     4
 10
25601.320997999988
 20
19891.730914
 30
0.0
 11
26201.320997999988
 21
19891.730914
 31
0.0
  0
LINE
  5
3F44
  8
SUNPOU
  6
CONTINUOUS
 62
     4
 10
24751.319677999982
 20
19934.228209000001
 30
0.0
 11
26201.320997999988
 21
19934.228209000001
 31
0.0
  0
LINE
  5
3F45
  8
SUNPOU
  6
CONTINUOUS
 62
     4
 10
26121.320997999988
 20
19891.730914
 30
0.0
 11
26121.320997999988
 21
19651.730914
 31
0.0
  0
LINE
  5
3F46
  8
SUNPOU
  6
CONTINUOUS
 62
     4
 10
26121.320997999988
 20
19934.228209000001
 30
0.0
 11
26121.320997999988
 21
20174.228209000001
 31
0.0
  0
LINE
  5
3F47
  8
SUNPOU
  6
CONTINUOUS
 62
     4
 10
26121.320997999988
 20
19891.730914
 30
0.0
 11
26121.320997999988
 21
19934.228209000001
 31
0.0
  0
LINE
  5
3F48
  8
SUNPOU
  6
CONTINUOUS
 62
     4
 10
25601.320997999988
 20
13705.230913999991
 30
0.0
 11
26201.320997999988
 21
13705.230913999991
 31
0.0
  0
LINE
  5
3F49
  8
SUNPOU
  6
CONTINUOUS
 62
     4
 10
24751.319677999982
 20
13662.733619000001
 30
0.0
 11
26201.320997999988
 21
13662.733619000001
 31
0.0
  0
LINE
  5
3F4A
  8
SUNPOU
  6
CONTINUOUS
 62
     4
 10
26121.320997999988
 20
13705.230913999991
 30
0.0
 11
26121.320997999988
 21
13945.230913999991
 31
0.0
  0
LINE
  5
3F4B
  8
SUNPOU
  6
CONTINUOUS
 62
     4
 10
26121.320997999988
 20
13662.733619000001
 30
0.0
 11
26121.320997999988
 21
13422.733619000001
 31
0.0
  0
LINE
  5
3F4C
  8
SUNPOU
  6
CONTINUOUS
 62
     4
 10
26121.320997999988
 20
13705.230913999991
 30
0.0
 11
26121.320997999988
 21
13662.733619000001
 31
0.0
  0
LINE
  5
3F4D
  8
SUNPOU
  6
CONTINUOUS
 62
     4
 10
22762.321393999991
 20
20014.229199000009
 30
0.0
 11
22762.321393999991
 21
20744.232102000031
 31
0.0
  0
LINE
  5
3F4E
  8
SUNPOU
  6
CONTINUOUS
 62
     4
 10
23169.821393999991
 20
20014.229199000009
 30
0.0
 11
23169.821393999991
 21
20744.232102000031
 31
0.0
  0
LINE
  5
3F4F
  8
SUNPOU
  6
CONTINUOUS
 62
     4
 10
22762.321393999991
 20
20664.232102000031
 30
0.0
 11
23169.821393999991
 21
20664.232102000031
 31
0.0
  0
LINE
  5
3F50
  8
SUNPOU
  6
CONTINUOUS
 62
     4
 10
23870.821393999991
 20
20014.229199000009
 30
0.0
 11
23870.821393999991
 21
20744.232102000031
 31
0.0
  0
LINE
  5
3F51
  8
SUNPOU
  6
CONTINUOUS
 62
     4
 10
24628.822383499999
 20
20014.229199000009
 30
0.0
 11
24628.822383499999
 21
20744.232102000031
 31
0.0
  0
LINE
  5
3F52
  8
SUNPOU
  6
CONTINUOUS
 62
     4
 10
23870.821393999991
 20
20664.232102000031
 30
0.0
 11
24628.822383499999
 21
20664.232102000031
 31
0.0
  0
LINE
  5
3F53
  8
SUNPOU
  6
CONTINUOUS
 62
     4
 10
23169.821393999991
 20
20014.229199000009
 30
0.0
 11
23169.821393999991
 21
20744.232102000031
 31
0.0
  0
LINE
  5
3F54
  8
SUNPOU
  6
CONTINUOUS
 62
     4
 10
23870.821393999991
 20
20014.229199000009
 30
0.0
 11
23870.821393999991
 21
20744.232102000031
 31
0.0
  0
LINE
  5
3F55
  8
SUNPOU
  6
CONTINUOUS
 62
     4
 10
23169.821393999991
 20
20664.232102000031
 30
0.0
 11
23870.821393999991
 21
20664.232102000031
 31
0.0
  0
LINE
  5
3F56
  8
SUNPOU
  6
CONTINUOUS
 62
     4
 10
24628.821393999991
 20
20014.229199000009
 30
0.0
 11
24628.821393999991
 21
20744.232102000031
 31
0.0
  0
LINE
  5
3F57
  8
SUNPOU
  6
CONTINUOUS
 62
     4
 10
24671.317698999988
 20
20014.229199000009
 30
0.0
 11
24671.317698999988
 21
20744.232102000031
 31
0.0
  0
LINE
  5
3F58
  8
SUNPOU
  6
CONTINUOUS
 62
     4
 10
24628.821393999991
 20
20664.232102000031
 30
0.0
 11
24388.821393999991
 21
20664.232102000031
 31
0.0
  0
LINE
  5
3F59
  8
SUNPOU
  6
CONTINUOUS
 62
     4
 10
24671.317698999988
 20
20664.232102000031
 30
0.0
 11
24911.317698999988
 21
20664.232102000031
 31
0.0
  0
LINE
  5
3F5A
  8
SUNPOU
  6
CONTINUOUS
 62
     4
 10
24628.821393999991
 20
20664.232102000031
 30
0.0
 11
24671.317698999988
 21
20664.232102000031
 31
0.0
  0
LINE
  5
3F5B
  8
SUNPOU
  6
CONTINUOUS
 62
     4
 10
20194.821393999991
 20
20014.229199000009
 30
0.0
 11
20194.821393999991
 21
20744.232102000031
 31
0.0
  0
LINE
  5
3F5C
  8
SUNPOU
  6
CONTINUOUS
 62
     4
 10
20602.321393999991
 20
20014.229199000009
 30
0.0
 11
20602.321393999991
 21
20744.232102000031
 31
0.0
  0
LINE
  5
3F5D
  8
SUNPOU
  6
CONTINUOUS
 62
     4
 10
20194.821393999991
 20
20664.232102000031
 30
0.0
 11
20602.321393999991
 21
20664.232102000031
 31
0.0
  0
LINE
  5
3F5E
  8
SUNPOU
  6
CONTINUOUS
 62
     4
 10
20194.821393999991
 20
20014.229199000009
 30
0.0
 11
20194.821393999991
 21
20744.232102000031
 31
0.0
  0
LINE
  5
3F5F
  8
SUNPOU
  6
CONTINUOUS
 62
     4
 10
20152.325089000002
 20
20014.229199000009
 30
0.0
 11
20152.325089000002
 21
20744.232102000031
 31
0.0
  0
LINE
  5
3F60
  8
SUNPOU
  6
CONTINUOUS
 62
     4
 10
20194.821393999991
 20
20664.232102000031
 30
0.0
 11
20434.821393999991
 21
20664.232102000031
 31
0.0
  0
LINE
  5
3F61
  8
SUNPOU
  6
CONTINUOUS
 62
     4
 10
20152.325089000002
 20
20664.232102000031
 30
0.0
 11
19912.325088999991
 21
20664.232102000031
 31
0.0
  0
LINE
  5
3F62
  8
SUNPOU
  6
CONTINUOUS
 62
     4
 10
20194.821393999991
 20
20664.232102000031
 30
0.0
 11
20152.325089000002
 21
20664.232102000031
 31
0.0
  0
LINE
  5
3F63
  8
SUNPOU
  6
CONTINUOUS
 62
     4
 10
22004.321393999991
 20
20014.229199000009
 30
0.0
 11
22004.321393999991
 21
20744.232102000031
 31
0.0
  0
LINE
  5
3F64
  8
SUNPOU
  6
CONTINUOUS
 62
     4
 10
22762.322383499992
 20
20014.229199000009
 30
0.0
 11
22762.322383499992
 21
20744.232102000031
 31
0.0
  0
LINE
  5
3F65
  8
SUNPOU
  6
CONTINUOUS
 62
     4
 10
22004.321393999991
 20
20664.232102000031
 30
0.0
 11
22762.322383499992
 21
20664.232102000031
 31
0.0
  0
LINE
  5
3F66
  8
SUNPOU
  6
CONTINUOUS
 62
     4
 10
21303.321393999991
 20
20014.229199000009
 30
0.0
 11
21303.321393999991
 21
20744.232102000031
 31
0.0
  0
LINE
  5
3F67
  8
SUNPOU
  6
CONTINUOUS
 62
     4
 10
22004.321393999991
 20
20014.229199000009
 30
0.0
 11
22004.321393999991
 21
20744.232102000031
 31
0.0
  0
LINE
  5
3F68
  8
SUNPOU
  6
CONTINUOUS
 62
     4
 10
21303.321393999991
 20
20664.232102000031
 30
0.0
 11
22004.321393999991
 21
20664.232102000031
 31
0.0
  0
LINE
  5
3F69
  8
SUNPOU
  6
CONTINUOUS
 62
     4
 10
20602.321393999991
 20
20014.229199000009
 30
0.0
 11
20602.321393999991
 21
20744.232102000031
 31
0.0
  0
LINE
  5
3F6A
  8
SUNPOU
  6
CONTINUOUS
 62
     4
 10
21303.321393999991
 20
20014.229199000009
 30
0.0
 11
21303.321393999991
 21
20744.232102000031
 31
0.0
  0
LINE
  5
3F6B
  8
SUNPOU
  6
CONTINUOUS
 62
     4
 10
20602.321393999991
 20
20664.232102000031
 30
0.0
 11
21303.321393999991
 21
20664.232102000031
 31
0.0
  0
LINE
  5
3F6C
  8
SUNPOU
  6
CONTINUOUS
 62
     4
 10
20064.820735000001
 20
6276.5900849999962
 30
0.0
 11
19264.822053999989
 21
6276.5900849999962
 31
0.0
  0
LINE
  5
3F6D
  8
SUNPOU
  6
CONTINUOUS
 62
     4
 10
20064.820735000001
 20
8168.0900849999953
 30
0.0
 11
19264.822053999989
 21
8168.0900849999953
 31
0.0
  0
LINE
  5
3F6E
  8
SUNPOU
  6
CONTINUOUS
 62
     4
 10
19344.822053999989
 20
6276.5900849999962
 30
0.0
 11
19344.822053999989
 21
8168.0900849999953
 31
0.0
  0
LINE
  5
3F6F
  8
SUNPOU
  6
CONTINUOUS
 62
     4
 10
20064.820735000001
 20
6276.5900849999962
 30
0.0
 11
18864.819744999979
 21
6276.5900849999962
 31
0.0
  0
LINE
  5
3F70
  8
SUNPOU
  6
CONTINUOUS
 62
     4
 10
20032.320998999981
 20
8624.5900850000016
 30
0.0
 11
18864.819744999979
 21
8624.5900850000016
 31
0.0
  0
LINE
  5
3F71
  8
SUNPOU
  6
CONTINUOUS
 62
     4
 10
18944.819744999979
 20
6276.5900849999962
 30
0.0
 11
18944.819744999979
 21
8624.5900850000016
 31
0.0
  0
LINE
  5
3F82
  8
SUNPOU
  6
CONTINUOUS
 62
     4
 10
20288.821393999991
 20
6096.5902499999984
 30
0.0
 11
20288.821393999991
 21
5296.5902499999984
 31
0.0
  0
LINE
  5
3F83
  8
SUNPOU
  6
CONTINUOUS
 62
     4
 10
22668.321393999991
 20
6096.5902499999984
 30
0.0
 11
22668.321393999991
 21
5296.5902499999984
 31
0.0
  0
LINE
  5
3F84
  8
SUNPOU
  6
CONTINUOUS
 62
     4
 10
20288.821393999991
 20
5376.5902499999984
 30
0.0
 11
22668.321393999991
 21
5376.5902499999984
 31
0.0
  0
LINE
  5
3F85
  8
SUNPOU
  6
CONTINUOUS
 62
     4
 10
22856.321393999991
 20
6096.5902499999984
 30
0.0
 11
22856.321393999991
 21
5296.5902499999984
 31
0.0
  0
LINE
  5
3F86
  8
SUNPOU
  6
CONTINUOUS
 62
     4
 10
24534.821393999991
 20
6096.5902499999984
 30
0.0
 11
24534.821393999991
 21
5296.5902499999984
 31
0.0
  0
LINE
  5
3F87
  8
SUNPOU
  6
CONTINUOUS
 62
     4
 10
22856.321393999991
 20
5376.5902499999984
 30
0.0
 11
24534.821393999991
 21
5376.5902499999984
 31
0.0
  0
LINE
  5
3F88
  8
SUNPOU
  6
CONTINUOUS
 62
     4
 10
22762.321393999991
 20
5833.9378269999979
 30
0.0
 11
22762.321393999991
 21
4896.5902499999993
 31
0.0
  0
LINE
  5
3F89
  8
SUNPOU
  6
CONTINUOUS
 62
     4
 10
24628.821393999991
 20
5833.9378269999979
 30
0.0
 11
24628.821393999991
 21
4896.5902499999993
 31
0.0
  0
LINE
  5
3F8A
  8
SUNPOU
  6
CONTINUOUS
 62
     4
 10
22762.321393999991
 20
4976.5902500000002
 30
0.0
 11
24628.821393999991
 21
4976.5902500000002
 31
0.0
  0
LINE
  5
3F8B
  8
SUNPOU
  6
CONTINUOUS
 62
     4
 10
20194.821393999991
 20
5833.9378269999979
 30
0.0
 11
20194.821393999991
 21
4896.5902499999993
 31
0.0
  0
LINE
  5
3F8C
  8
SUNPOU
  6
CONTINUOUS
 62
     4
 10
22762.321393999991
 20
5833.9378269999979
 30
0.0
 11
22762.321393999991
 21
4896.5902499999993
 31
0.0
  0
LINE
  5
3F8D
  8
SUNPOU
  6
CONTINUOUS
 62
     4
 10
20194.821393999991
 20
4976.5902500000002
 30
0.0
 11
22762.321393999991
 21
4976.5902500000002
 31
0.0
  0
LINE
  5
3F8E
  8
SUNPOU
  6
CONTINUOUS
 62
     4
 10
24628.825353
 20
5833.9378269999979
 30
0.0
 11
24628.825353
 21
4896.5902499999993
 31
0.0
  0
LINE
  5
3F8F
  8
SUNPOU
  6
CONTINUOUS
 62
     4
 10
24671.325353
 20
6096.5902499999984
 30
0.0
 11
24671.325353
 21
4896.5902499999993
 31
0.0
  0
LINE
  5
3F90
  8
SUNPOU
  6
CONTINUOUS
 62
     4
 10
24628.825353
 20
4976.5902500000002
 30
0.0
 11
24388.825353
 21
4976.5902500000002
 31
0.0
  0
LINE
  5
3F91
  8
SUNPOU
  6
CONTINUOUS
 62
     4
 10
24671.325353
 20
4976.5902500000002
 30
0.0
 11
24911.325353
 21
4976.5902500000002
 31
0.0
  0
LINE
  5
3F92
  8
SUNPOU
  6
CONTINUOUS
 62
     4
 10
24628.825353
 20
4976.5902500000002
 30
0.0
 11
24671.325353
 21
4976.5902500000002
 31
0.0
  0
LINE
  5
3F93
  8
SUNPOU
  6
CONTINUOUS
 62
     4
 10
20194.821393999991
 20
5833.9378269999979
 30
0.0
 11
20194.821393999991
 21
4896.5902499999993
 31
0.0
  0
LINE
  5
3F94
  8
SUNPOU
  6
CONTINUOUS
 62
     4
 10
20152.321393999991
 20
6096.5902499999984
 30
0.0
 11
20152.321393999991
 21
4896.5902499999993
 31
0.0
  0
LINE
  5
3F95
  8
SUNPOU
  6
CONTINUOUS
 62
     4
 10
20194.821393999991
 20
4976.5902500000002
 30
0.0
 11
20434.821393999991
 21
4976.5902500000002
 31
0.0
  0
LINE
  5
3F96
  8
SUNPOU
  6
CONTINUOUS
 62
     4
 10
20152.321393999991
 20
4976.5902500000002
 30
0.0
 11
19912.321393999991
 21
4976.5902500000002
 31
0.0
  0
LINE
  5
3F97
  8
SUNPOU
  6
CONTINUOUS
 62
     4
 10
20194.821393999991
 20
4976.5902500000002
 30
0.0
 11
20152.321393999991
 21
4976.5902500000002
 31
0.0
  0
LINE
  5
3F98
  8
SUNPOU
  6
CONTINUOUS
 62
     4
 10
20152.321393999991
 20
6096.5902499999984
 30
0.0
 11
20152.321393999991
 21
4496.5904149999969
 31
0.0
  0
LINE
  5
3F99
  8
SUNPOU
  6
CONTINUOUS
 62
     4
 10
24671.321393999991
 20
6096.5902499999984
 30
0.0
 11
24671.321393999991
 21
4496.5904149999969
 31
0.0
  0
LINE
  5
3F9A
  8
SUNPOU
  6
CONTINUOUS
 62
     4
 10
20152.321393999991
 20
4576.5904149999969
 30
0.0
 11
24671.321393999991
 21
4576.5904149999969
 31
0.0
  0
LINE
  5
3F9B
  8
SUNPOU
  6
CONTINUOUS
 62
     4
 10
8882.5340609999967
 20
8513.5900850000016
 30
0.0
 11
8882.5340609999967
 21
9904.5901109999977
 31
0.0
  0
LINE
  5
3F9C
  8
SUNPOU
  6
CONTINUOUS
 62
     4
 10
15484.034061
 20
8645.4799084124334
 30
0.0
 11
15484.034061
 21
9904.5901109999977
 31
0.0
  0
LINE
  5
3F9D
  8
SUNPOU
  6
CONTINUOUS
 62
     4
 10
8882.5340609999967
 20
9824.5901109999995
 30
0.0
 11
15484.034061
 21
9824.5901109999995
 31
0.0
  0
LINE
  5
3F9E
  8
SUNPOU
  6
CONTINUOUS
 62
     4
 10
15334.034061
 20
8571.5001490000031
 30
0.0
 11
15334.034061
 21
9504.5917609999997
 31
0.0
  0
LINE
  5
3F9F
  8
SUNPOU
  6
CONTINUOUS
 62
     4
 10
15484.034061
 20
8645.4799084124334
 30
0.0
 11
15484.034061
 21
9504.5917609999997
 31
0.0
  0
LINE
  5
3FA0
  8
SUNPOU
  6
CONTINUOUS
 62
     4
 10
15334.034061
 20
9424.5917609999997
 30
0.0
 11
15094.034061
 21
9424.5917609999997
 31
0.0
  0
LINE
  5
3FA1
  8
SUNPOU
  6
CONTINUOUS
 62
     4
 10
15484.034061
 20
9424.5917609999997
 30
0.0
 11
15724.034061
 21
9424.5917609999997
 31
0.0
  0
LINE
  5
3FA2
  8
SUNPOU
  6
CONTINUOUS
 62
     4
 10
15334.034061
 20
9424.5917609999997
 30
0.0
 11
15484.034061
 21
9424.5917609999997
 31
0.0
  0
LINE
  5
3FA3
  8
SUNPOU
  6
CONTINUOUS
 62
     4
 10
9062.5340609999967
 20
8383.7758606838106
 30
0.0
 11
9062.5340609999967
 21
9504.5917609999997
 31
0.0
  0
LINE
  5
3FA4
  8
SUNPOU
  6
CONTINUOUS
 62
     4
 10
15334.034061
 20
8571.5001490000031
 30
0.0
 11
15334.034061
 21
9504.5917609999997
 31
0.0
  0
LINE
  5
3FA5
  8
SUNPOU
  6
CONTINUOUS
 62
     4
 10
9062.5340609999967
 20
9424.5917609999997
 30
0.0
 11
15334.034061
 21
9424.5917609999997
 31
0.0
  0
LINE
  5
3FA6
  8
SUNPOU
  6
CONTINUOUS
 62
     4
 10
8882.5340609999967
 20
8513.5900850000016
 30
0.0
 11
8882.5340609999967
 21
9504.5917609999997
 31
0.0
  0
LINE
  5
3FA7
  8
SUNPOU
  6
CONTINUOUS
 62
     4
 10
9062.5340609999967
 20
8383.7758606838106
 30
0.0
 11
9062.5340609999967
 21
9504.5917609999997
 31
0.0
  0
LINE
  5
3FA8
  8
SUNPOU
  6
CONTINUOUS
 62
     4
 10
8882.5340609999967
 20
9424.5917609999997
 30
0.0
 11
9062.5340609999967
 21
9424.5917609999997
 31
0.0
  0
LINE
  5
3FA9
  8
SUNPOU
  6
CONTINUOUS
 62
     4
 10
15426.534061
 20
6276.5900850000025
 30
0.0
 11
16504.034456999991
 21
6276.5900850000025
 31
0.0
  0
LINE
  5
3FAA
  8
SUNPOU
  6
CONTINUOUS
 62
     4
 10
15518.84132059936
 20
8624.5900850000016
 30
0.0
 11
16504.034457000002
 21
8624.5900850000016
 31
0.0
  0
LINE
  5
3FAB
  8
SUNPOU
  6
CONTINUOUS
 62
     4
 10
16424.034456999991
 20
6276.5900850000025
 30
0.0
 11
16424.034457000002
 21
8624.5900850000016
 31
0.0
  0
LINE
  5
3FAC
  8
SUNPOU
  6
CONTINUOUS
 62
     4
 10
8975.0340609999967
 20
6276.5900850000025
 30
0.0
 11
7892.5336650000027
 21
6276.5900850000025
 31
0.0
  0
LINE
  5
3FAD
  8
SUNPOU
  6
CONTINUOUS
 62
     4
 10
8802.5340609999967
 20
8433.5900850000016
 30
0.0
 11
7892.5336650000027
 21
8433.5900850000016
 31
0.0
  0
LINE
  5
3FAE
  8
SUNPOU
  6
CONTINUOUS
 62
     4
 10
7972.5336650000027
 20
6276.5900850000025
 30
0.0
 11
7972.5336650000027
 21
8433.5900850000016
 31
0.0
  0
LINE
  5
3FAF
  8
SUNPOU
  6
CONTINUOUS
 62
     4
 10
9062.5340609999967
 20
6196.5900850000025
 30
0.0
 11
9062.5340609999967
 21
4496.5904150000006
 31
0.0
  0
LINE
  5
3FB0
  8
SUNPOU
  6
CONTINUOUS
 62
     4
 10
15334.034061
 20
6196.5900850000025
 30
0.0
 11
15334.034061
 21
4496.5904150000006
 31
0.0
  0
LINE
  5
3FB1
  8
SUNPOU
  6
CONTINUOUS
 62
     4
 10
9062.5340609999967
 20
4576.5904150000006
 30
0.0
 11
15334.034061
 21
4576.5904150000006
 31
0.0
  0
LINE
  5
3FB2
  8
SUNPOU
  6
CONTINUOUS
 62
     4
 10
15291.534061
 20
5833.9378270000034
 30
0.0
 11
15291.534061
 21
4896.5902500000011
 31
0.0
  0
LINE
  5
3FB3
  8
SUNPOU
  6
CONTINUOUS
 62
     4
 10
15334.034061
 20
6196.5900850000025
 30
0.0
 11
15334.034061
 21
4896.5902500000011
 31
0.0
  0
LINE
  5
3FB4
  8
SUNPOU
  6
CONTINUOUS
 62
     4
 10
15291.534061
 20
4976.5902500000002
 30
0.0
 11
15051.53406099998
 21
4976.5902500000002
 31
0.0
  0
LINE
  5
3FB5
  8
SUNPOU
  6
CONTINUOUS
 62
     4
 10
15334.034061
 20
4976.5902500000002
 30
0.0
 11
15574.034061
 21
4976.5902500000002
 31
0.0
  0
LINE
  5
3FB6
  8
SUNPOU
  6
CONTINUOUS
 62
     4
 10
15291.534061
 20
4976.5902500000002
 30
0.0
 11
15334.034061
 21
4976.5902500000002
 31
0.0
  0
LINE
  5
3FB7
  8
SUNPOU
  6
CONTINUOUS
 62
     4
 10
9105.0340609999967
 20
5833.9378270000034
 30
0.0
 11
9105.0340609999967
 21
4896.5902500000011
 31
0.0
  0
LINE
  5
3FB8
  8
SUNPOU
  6
CONTINUOUS
 62
     4
 10
9062.5340609999967
 20
6196.5900850000025
 30
0.0
 11
9062.5340609999967
 21
4896.5902500000011
 31
0.0
  0
LINE
  5
3FB9
  8
SUNPOU
  6
CONTINUOUS
 62
     4
 10
9105.0340609999967
 20
4976.5902500000002
 30
0.0
 11
9345.0340609999985
 21
4976.5902500000002
 31
0.0
  0
LINE
  5
3FBA
  8
SUNPOU
  6
CONTINUOUS
 62
     4
 10
9062.5340609999967
 20
4976.5902500000002
 30
0.0
 11
8822.5340609999967
 21
4976.5902500000002
 31
0.0
  0
LINE
  5
3FBB
  8
SUNPOU
  6
CONTINUOUS
 62
     4
 10
9105.0340609999967
 20
4976.5902500000002
 30
0.0
 11
9062.5340609999967
 21
4976.5902500000002
 31
0.0
  0
LINE
  5
3FBC
  8
SUNPOU
  6
CONTINUOUS
 62
     4
 10
12023.034061
 20
5833.9378270000034
 30
0.0
 11
12023.034061
 21
4896.5902500000011
 31
0.0
  0
LINE
  5
3FBD
  8
SUNPOU
  6
CONTINUOUS
 62
     4
 10
9105.0340609999967
 20
5833.9378270000034
 30
0.0
 11
9105.0340609999967
 21
4896.5902500000011
 31
0.0
  0
LINE
  5
3FBE
  8
SUNPOU
  6
CONTINUOUS
 62
     4
 10
12023.034061
 20
4976.5902500000002
 30
0.0
 11
9105.0340609999967
 21
4976.5902500000002
 31
0.0
  0
LINE
  5
3FBF
  8
SUNPOU
  6
CONTINUOUS
 62
     4
 10
12023.034061
 20
5833.9378270000034
 30
0.0
 11
12023.034061
 21
4896.590250000002
 31
0.0
  0
LINE
  5
3FC0
  8
SUNPOU
  6
CONTINUOUS
 62
     4
 10
15291.534061
 20
5833.9378270000034
 30
0.0
 11
15291.534061
 21
4896.590250000002
 31
0.0
  0
LINE
  5
3FC1
  8
SUNPOU
  6
CONTINUOUS
 62
     4
 10
12023.034061
 20
4976.590250000002
 30
0.0
 11
15291.534061
 21
4976.590250000002
 31
0.0
  0
TEXT
  5
3FC2
  8
0
  6
CONTINUOUS
 62
     7
 10
13257.284061
 20
5056.590250000002
 30
0.0
 40
160.0
  1
3268.5
  0
TEXT
  5
3FC3
  8
0
  6
CONTINUOUS
 62
     7
 10
10297.367394333331
 20
5056.5902500000011
 30
0.0
 40
160.0
  1
2918
  0
TEXT
  5
3FC4
  8
0
  6
CONTINUOUS
 62
     7
 10
8465.3603519036915
 20
5056.5902500000011
 30
0.0
 40
160.0
  1
42.5
  0
TEXT
  5
3FC5
  8
0
  6
CONTINUOUS
 62
     7
 10
15472.35269830982
 20
5056.5902500000011
 30
0.0
 40
160.0
  1
42.5
  0
TEXT
  5
3FC6
  8
0
  6
CONTINUOUS
 62
     7
 10
11824.950727666661
 20
4656.5904150000006
 30
0.0
 40
160.0
  1
6271.5
  0
TEXT
  5
3FC7
  8
0
  6
CONTINUOUS
 62
     7
 10
7892.5336650000008
 20
6576.4234183333374
 30
0.0
 40
160.0
  1
2157（2397）
 50
90.0
  0
TEXT
  5
3FC8
  8
0
  6
CONTINUOUS
 62
     7
 10
16344.034456999991
 20
6645.2567516666686
 30
0.0
 40
160.0
  1
2348（2588）
 50
90.0
  0
TEXT
  5
3FC9
  8
0
  6
CONTINUOUS
 62
     7
 10
8469.2007276666645
 20
9504.5917609999997
 30
0.0
 40
160.0
  1
180
  0
TEXT
  5
3FCA
  8
0
  6
CONTINUOUS
 62
     7
 10
11824.950727666661
 20
9504.5917609999997
 30
0.0
 40
160.0
  1
6271.5
  0
TEXT
  5
3FCB
  8
0
  6
CONTINUOUS
 62
     7
 10
15550.700727666661
 20
9504.5917609999997
 30
0.0
 40
160.0
  1
150
  0
TEXT
  5
3FCC
  8
0
  6
CONTINUOUS
 62
     7
 10
11823.284061
 20
9904.5901109999977
 30
0.0
 40
160.0
  1
6601.5
  0
TEXT
  5
3FCD
  8
0
  6
CONTINUOUS
 62
     7
 10
22145.15472733332
 20
4656.5904149999969
 30
0.0
 40
160.0
  1
4519
  0
TEXT
  5
3FCE
  8
0
  6
CONTINUOUS
 62
     7
 10
19586.282403741141
 20
5056.5902499999993
 30
0.0
 40
160.0
  1
42.5
  0
TEXT
  5
3FCF
  8
0
  6
CONTINUOUS
 62
     7
 10
24757.36434325884
 20
5056.5902499999993
 30
0.0
 40
160.0
  1
42.5
  0
TEXT
  5
3FD0
  8
0
  6
CONTINUOUS
 62
     7
 10
21078.571393999991
 20
5056.5902499999993
 30
0.0
 40
160.0
  1
2567.5
  0
TEXT
  5
3FD1
  8
0
  6
CONTINUOUS
 62
     7
 10
23322.238060666648
 20
5056.5902499999993
 30
0.0
 40
160.0
  1
1866.5
  0
TEXT
  5
3FD2
  8
0
  6
CONTINUOUS
 62
     7
 10
23231.571393999991
 20
5723.2569166666672
 30
0.0
 40
160.0
  1
有効開口巾
  0
TEXT
  5
3FD3
  8
0
  6
CONTINUOUS
 62
     7
 10
23322.238060666648
 20
5456.5902499999984
 30
0.0
 40
160.0
  1
1678.5
  0
TEXT
  5
3FD4
  8
0
  6
CONTINUOUS
 62
     7
 10
20550.571393999991
 20
5456.5902499999984
 30
0.0
 40
160.0
  1
有効開口巾 2379.5
  0
TEXT
  5
3FD9
  8
0
  6
CONTINUOUS
 62
     7
 10
18864.819744999979
 20
6645.2567516666686
 30
0.0
 40
160.0
  1
2348（2588）
 50
90.0
  0
TEXT
  5
3FDA
  8
0
  6
CONTINUOUS
 62
     7
 10
19264.822053999989
 20
6340.5693232912718
 30
0.0
 40
160.0
  1
有効開口高サ 1891.5
 50
90.0
  0
TEXT
  5
3FDB
  8
0
  6
CONTINUOUS
 62
     7
 10
20779.488060666648
 20
20424.232102000031
 30
0.0
 40
160.0
  1
701
  0
TEXT
  5
3FDC
  8
0
  6
CONTINUOUS
 62
     7
 10
21480.488060666648
 20
20744.232102000031
 30
0.0
 40
160.0
  1
701
  0
TEXT
  5
3FDD
  8
0
  6
CONTINUOUS
 62
     7
 10
22169.988555416669
 20
20744.232102000031
 30
0.0
 40
160.0
  1
758
  0
TEXT
  5
3FDE
  8
0
  6
CONTINUOUS
 62
     7
 10
19592.009414471191
 20
20744.232102000031
 30
0.0
 40
160.0
  1
42.5
  0
TEXT
  5
3FDF
  8
0
  6
CONTINUOUS
 62
     7
 10
20295.654727333309
 20
20744.232102000031
 30
0.0
 40
160.0
  1
407.5
  0
TEXT
  5
3FE0
  8
0
  6
CONTINUOUS
 62
     7
 10
24751.633373528799
 20
20744.232102000031
 30
0.0
 40
160.0
  1
42.5
  0
TEXT
  5
3FE1
  8
0
  6
CONTINUOUS
 62
     7
 10
23346.988060666648
 20
20424.232102000031
 30
0.0
 40
160.0
  1
701
  0
TEXT
  5
3FE2
  8
0
  6
CONTINUOUS
 62
     7
 10
24036.488555416661
 20
20744.232102000031
 30
0.0
 40
160.0
  1
758
  0
TEXT
  5
3FE3
  8
0
  6
CONTINUOUS
 62
     7
 10
22863.154727333331
 20
20744.232102000031
 30
0.0
 40
160.0
  1
407.5
  0
TEXT
  5
3FE4
  8
0
  6
CONTINUOUS
 62
     7
 10
26041.320997999988
 20
13089.1773826032
 30
0.0
 40
160.0
  1
42.5
 50
90.0
  0
TEXT
  5
3FE5
  8
0
  6
CONTINUOUS
 62
     7
 10
26041.320997999988
 20
20027.784445396788
 30
0.0
 40
160.0
  1
42.5
 50
90.0
  0
TEXT
  5
3FE6
  8
0
  6
CONTINUOUS
 62
     7
 10
26441.320997999981
 20
16425.147580666671
 30
0.0
 40
160.0
  1
6271.5
 50
90.0
  0
TEXT
  5
3FE7
  8
0
  6
CONTINUOUS
 62
     7
 10
26041.320997999981
 20
14939.480913999991
 30
0.0
 40
160.0
  1
3268.5
 50
90.0
  0
TEXT
  5
3FE8
  8
0
  6
CONTINUOUS
 62
     7
 10
26041.320997999981
 20
18166.064247333321
 30
0.0
 40
160.0
  1
2918
 50
90.0
  0
TEXT
  5
3FE9
  8
0
  6
CONTINUOUS
 62
     7
 10
25641.320997999988
 20
19299.397580666671
 30
0.0
 40
160.0
  1
758
 50
90.0
  0
TEXT
  5
3FEA
  8
0
  6
CONTINUOUS
 62
     7
 10
25641.320997999988
 20
18609.897580666671
 30
0.0
 40
160.0
  1
701
 50
90.0
  0
TEXT
  5
3FEB
  8
0
  6
CONTINUOUS
 62
     7
 10
25641.320997999988
 20
17908.897580666671
 30
0.0
 40
160.0
  1
701
 50
90.0
  0
TEXT
  5
3FEC
  8
0
  6
CONTINUOUS
 62
     7
 10
25641.320997999988
 20
17139.397580666671
 30
0.0
 40
160.0
  1
758
 50
90.0
  0
TEXT
  5
3FED
  8
0
  6
CONTINUOUS
 62
     7
 10
25641.320997999988
 20
16381.39758066666
 30
0.0
 40
160.0
  1
758
 50
90.0
  0
TEXT
  5
3FEE
  8
0
  6
CONTINUOUS
 62
     7
 10
25641.320997999988
 20
15692.01783641668
 30
0.0
 40
160.0
  1
701
 50
90.0
  0
TEXT
  5
3FEF
  8
0
  6
CONTINUOUS
 62
     7
 10
25641.320997999988
 20
14991.01783641668
 30
0.0
 40
160.0
  1
701
 50
90.0
  0
TEXT
  5
3FF0
  8
0
  6
CONTINUOUS
 62
     7
 10
25641.320997999988
 20
14289.89758066666
 30
0.0
 40
160.0
  1
701
 50
90.0
  0
TEXT
  5
3FF1
  8
0
  6
CONTINUOUS
 62
     7
 10
26001.320997999999
 20
13778.051328203541
 30
0.0
 40
160.0
  1
407.5
 50
90.0
  0
TEXT
  5
3FF2
  8
0
  6
CONTINUOUS
 62
     7
 10
22145.154727333331
 20
12413.782829999989
 30
0.0
 40
160.0
  1
4519
  0
TEXT
  5
3FF3
  8
0
  6
CONTINUOUS
 62
     7
 10
20312.87506638209
 20
12813.78283
 30
0.0
 40
160.0
  1
42.5
  0
TEXT
  5
3FF4
  8
0
  6
CONTINUOUS
 62
     7
 10
24030.7677216179
 20
12813.78283
 30
0.0
 40
160.0
  1
42.5
  0
TEXT
  5
3FF5
  8
0
  6
CONTINUOUS
 62
     7
 10
24746.87506638209
 20
12813.78283
 30
0.0
 40
160.0
  1
42.5
  0
TEXT
  5
3FF6
  8
0
  6
CONTINUOUS
 62
     7
 10
19596.7677216179
 20
12813.78283
 30
0.0
 40
160.0
  1
42.5
  0
TEXT
  5
3FF7
  8
0
  6
CONTINUOUS
 62
     7
 10
19185.366816999991
 20
14250.101169750011
 30
0.0
 40
160.0
  1
1809.5
 50
90.0
  0
TEXT
  5
3FF8
  8
0
  6
CONTINUOUS
 62
     7
 10
19185.366816999991
 20
15977.684503083339
 30
0.0
 40
160.0
  1
1459
 50
90.0
  0
TEXT
  5
3FF9
  8
0
  6
CONTINUOUS
 62
     7
 10
19185.366816999991
 20
17436.56424733331
 30
0.0
 40
160.0
  1
1459
 50
90.0
  0
TEXT
  5
3FFA
  8
0
  6
CONTINUOUS
 62
     7
 10
19185.366816999991
 20
18895.564247333321
 30
0.0
 40
160.0
  1
1459
 50
90.0
  0
TEXT
  5
3FFB
  8
0
  6
CONTINUOUS
 62
     7
 10
8889.8679039999897
 20
18895.564247333321
 30
0.0
 40
160.0
  1
1459
 50
90.0
  0
TEXT
  5
3FFC
  8
0
  6
CONTINUOUS
 62
     7
 10
8889.8679039999861
 20
20203.186098807681
 30
0.0
 40
160.0
  1
222.5
 50
90.0
  0
TEXT
  5
3FFD
  8
0
  6
CONTINUOUS
 62
     7
 10
9289.8679039999879
 20
20234.226823000001
 30
0.0
 40
160.0
  1
20
 50
90.0
  0
TEXT
  5
3FFE
  8
0
  6
CONTINUOUS
 62
     7
 10
8889.8679039999897
 20
17436.56424733331
 30
0.0
 40
160.0
  1
1459
 50
90.0
  0
TEXT
  5
3FFF
  8
0
  6
CONTINUOUS
 62
     7
 10
8889.8679039999897
 20
15977.684503083339
 30
0.0
 40
160.0
  1
1459
 50
90.0
  0
TEXT
  5
4000
  8
0
  6
CONTINUOUS
 62
     7
 10
8889.8679039999861
 20
14250.101169750011
 30
0.0
 40
160.0
  1
1809.5
 50
90.0
  0
TEXT
  5
4001
  8
0
  6
CONTINUOUS
 62
     7
 10
8889.8679039999897
 20
12897.27790370263
 30
0.0
 40
160.0
  1
192.5
 50
90.0
  0
TEXT
  5
4002
  8
0
  6
CONTINUOUS
 62
     7
 10
10783.11405999998
 20
20744.232102000031
 30
0.0
 40
160.0
  1
2567.5
  0
TEXT
  5
4003
  8
0
  6
CONTINUOUS
 62
     7
 10
9282.8673539767242
 20
20744.232102000031
 30
0.0
 40
160.0
  1
85.5
  0
TEXT
  5
4004
  8
0
  6
CONTINUOUS
 62
     7
 10
13026.78072666664
 20
20744.232102000031
 30
0.0
 40
160.0
  1
1866.5
  0
TEXT
  5
4005
  8
0
  6
CONTINUOUS
 62
     7
 10
14469.86076602325
 20
20744.232102000031
 30
0.0
 40
160.0
  1
85.5
  0
ARC
  5
400B
  8
0
  6
BYBLOCK
 62
     0
 10
14333.364059999971
 20
20664.232102000031
 30
0.0
 40
15.0
 50
180.0
 51
0.0
  0
ARC
  5
400C
  8
0
  6
BYBLOCK
 62
     0
 10
14333.364059999971
 20
20664.232102000031
 30
0.0
 40
15.0
 50
0.0
 51
180.0
  0
ARC
  5
400D
  8
0
  6
BYBLOCK
 62
     0
 10
14418.86405999998
 20
20664.232102000031
 30
0.0
 40
15.0
 50
0.0
 51
180.0
  0
ARC
  5
400E
  8
0
  6
BYBLOCK
 62
     0
 10
14418.86405999998
 20
20664.232102000031
 30
0.0
 40
15.0
 50
180.0
 51
0.0
  0
ARC
  5
400F
  8
0
  6
BYBLOCK
 62
     0
 10
12466.86405999998
 20
20664.232102000031
 30
0.0
 40
15.0
 50
0.0
 51
180.0
  0
ARC
  5
4010
  8
0
  6
BYBLOCK
 62
     0
 10
12466.86405999998
 20
20664.232102000031
 30
0.0
 40
15.0
 50
180.0
 51
0.0
  0
ARC
  5
4011
  8
0
  6
BYBLOCK
 62
     0
 10
14333.364059999971
 20
20664.232102000031
 30
0.0
 40
15.0
 50
180.0
 51
0.0
  0
ARC
  5
4012
  8
0
  6
BYBLOCK
 62
     0
 10
14333.364059999971
 20
20664.232102000031
 30
0.0
 40
15.0
 50
0.0
 51
180.0
  0
ARC
  5
4013
  8
0
  6
BYBLOCK
 62
     0
 10
9899.3640599999835
 20
20664.232102000031
 30
0.0
 40
15.0
 50
0.0
 51
180.0
  0
ARC
  5
4014
  8
0
  6
BYBLOCK
 62
     0
 10
9899.3640599999835
 20
20664.232102000031
 30
0.0
 40
15.0
 50
180.0
 51
0.0
  0
ARC
  5
4015
  8
0
  6
BYBLOCK
 62
     0
 10
9813.8640599999835
 20
20664.232102000031
 30
0.0
 40
15.0
 50
180.0
 51
0.0
  0
ARC
  5
4016
  8
0
  6
BYBLOCK
 62
     0
 10
9813.8640599999835
 20
20664.232102000031
 30
0.0
 40
15.0
 50
0.0
 51
180.0
  0
ARC
  5
4017
  8
0
  6
BYBLOCK
 62
     0
 10
12466.86405999998
 20
20664.232102000031
 30
0.0
 40
15.0
 50
180.0
 51
0.0
  0
ARC
  5
4018
  8
0
  6
BYBLOCK
 62
     0
 10
12466.86405999998
 20
20664.232102000031
 30
0.0
 40
15.0
 50
0.0
 51
180.0
  0
ARC
  5
4019
  8
0
  6
BYBLOCK
 62
     0
 10
9899.3640599999835
 20
20664.232102000031
 30
0.0
 40
15.0
 50
0.0
 51
180.0
  0
ARC
  5
401A
  8
0
  6
BYBLOCK
 62
     0
 10
9899.3640599999835
 20
20664.232102000031
 30
0.0
 40
15.0
 50
180.0
 51
0.0
  0
ARC
  5
401B
  8
0
  6
BYBLOCK
 62
     0
 10
8969.8679039999897
 20
13705.230913999991
 30
0.0
 40
15.0
 50
270.0
 51
90.0
  0
ARC
  5
401C
  8
0
  6
BYBLOCK
 62
     0
 10
8969.8679039999897
 20
13705.230913999991
 30
0.0
 40
15.0
 50
90.0
 51
270.0
  0
ARC
  5
401D
  8
0
  6
BYBLOCK
 62
     0
 10
8969.8679039999897
 20
13512.735599
 30
0.0
 40
15.0
 50
90.0
 51
270.0
  0
ARC
  5
401E
  8
0
  6
BYBLOCK
 62
     0
 10
8969.8679039999897
 20
13512.735599
 30
0.0
 40
15.0
 50
270.0
 51
90.0
  0
ARC
  5
401F
  8
0
  6
BYBLOCK
 62
     0
 10
8969.8679039999897
 20
15514.971425500011
 30
0.0
 40
15.0
 50
270.0
 51
90.0
  0
ARC
  5
4020
  8
0
  6
BYBLOCK
 62
     0
 10
8969.8679039999897
 20
15514.971425500011
 30
0.0
 40
15.0
 50
90.0
 51
270.0
  0
ARC
  5
4021
  8
0
  6
BYBLOCK
 62
     0
 10
8969.8679039999897
 20
13705.230913999991
 30
0.0
 40
15.0
 50
90.0
 51
270.0
  0
ARC
  5
4022
  8
0
  6
BYBLOCK
 62
     0
 10
8969.8679039999897
 20
13705.230913999991
 30
0.0
 40
15.0
 50
270.0
 51
90.0
  0
ARC
  5
4023
  8
0
  6
BYBLOCK
 62
     0
 10
8969.8679039999897
 20
16973.730914
 30
0.0
 40
15.0
 50
270.0
 51
90.0
  0
ARC
  5
4024
  8
0
  6
BYBLOCK
 62
     0
 10
8969.8679039999897
 20
16973.730914
 30
0.0
 40
15.0
 50
90.0
 51
270.0
  0
ARC
  5
4025
  8
0
  6
BYBLOCK
 62
     0
 10
8969.8679039999897
 20
15514.971425500011
 30
0.0
 40
15.0
 50
90.0
 51
270.0
  0
ARC
  5
4026
  8
0
  6
BYBLOCK
 62
     0
 10
8969.8679039999897
 20
15514.971425500011
 30
0.0
 40
15.0
 50
270.0
 51
90.0
  0
ARC
  5
4027
  8
0
  6
BYBLOCK
 62
     0
 10
8969.8679039999897
 20
18432.730914
 30
0.0
 40
15.0
 50
270.0
 51
90.0
  0
ARC
  5
4028
  8
0
  6
BYBLOCK
 62
     0
 10
8969.8679039999897
 20
18432.730914
 30
0.0
 40
15.0
 50
90.0
 51
270.0
  0
ARC
  5
4029
  8
0
  6
BYBLOCK
 62
     0
 10
8969.8679039999897
 20
16973.730914
 30
0.0
 40
15.0
 50
90.0
 51
270.0
  0
ARC
  5
402A
  8
0
  6
BYBLOCK
 62
     0
 10
8969.8679039999897
 20
16973.730914
 30
0.0
 40
15.0
 50
270.0
 51
90.0
  0
ARC
  5
402B
  8
0
  6
BYBLOCK
 62
     0
 10
9369.8679039999879
 20
20094.226823000001
 30
0.0
 40
15.0
 50
270.0
 51
90.0
  0
ARC
  5
402C
  8
0
  6
BYBLOCK
 62
     0
 10
9369.8679039999879
 20
20094.226823000001
 30
0.0
 40
15.0
 50
90.0
 51
270.0
  0
ARC
  5
402D
  8
0
  6
BYBLOCK
 62
     0
 10
9369.8679039999879
 20
20114.226823000001
 30
0.0
 40
15.0
 50
90.0
 51
270.0
  0
ARC
  5
402E
  8
0
  6
BYBLOCK
 62
     0
 10
9369.8679039999879
 20
20114.226823000001
 30
0.0
 40
15.0
 50
270.0
 51
90.0
  0
ARC
  5
402F
  8
0
  6
BYBLOCK
 62
     0
 10
8969.8679039999897
 20
19891.730914
 30
0.0
 40
15.0
 50
90.0
 51
270.0
  0
ARC
  5
4030
  8
0
  6
BYBLOCK
 62
     0
 10
8969.8679039999897
 20
19891.730914
 30
0.0
 40
15.0
 50
270.0
 51
90.0
  0
ARC
  5
4031
  8
0
  6
BYBLOCK
 62
     0
 10
8969.8679039999897
 20
20114.226823000001
 30
0.0
 40
15.0
 50
270.0
 51
90.0
  0
ARC
  5
4032
  8
0
  6
BYBLOCK
 62
     0
 10
8969.8679039999897
 20
20114.226823000001
 30
0.0
 40
15.0
 50
90.0
 51
270.0
  0
ARC
  5
4033
  8
0
  6
BYBLOCK
 62
     0
 10
8969.8679039999897
 20
18432.730914
 30
0.0
 40
15.0
 50
90.0
 51
270.0
  0
ARC
  5
4034
  8
0
  6
BYBLOCK
 62
     0
 10
8969.8679039999897
 20
18432.730914
 30
0.0
 40
15.0
 50
270.0
 51
90.0
  0
ARC
  5
4035
  8
0
  6
BYBLOCK
 62
     0
 10
8969.8679039999897
 20
19891.730914
 30
0.0
 40
15.0
 50
270.0
 51
90.0
  0
ARC
  5
4036
  8
0
  6
BYBLOCK
 62
     0
 10
8969.8679039999897
 20
19891.730914
 30
0.0
 40
15.0
 50
90.0
 51
270.0
  0
ARC
  5
4037
  8
0
  6
BYBLOCK
 62
     0
 10
19265.366816999991
 20
18432.730914
 30
0.0
 40
15.0
 50
90.0
 51
270.0
  0
ARC
  5
4038
  8
0
  6
BYBLOCK
 62
     0
 10
19265.366816999991
 20
18432.730914
 30
0.0
 40
15.0
 50
270.0
 51
90.0
  0
ARC
  5
4039
  8
0
  6
BYBLOCK
 62
     0
 10
19265.366816999991
 20
19891.730914
 30
0.0
 40
15.0
 50
270.0
 51
90.0
  0
ARC
  5
403A
  8
0
  6
BYBLOCK
 62
     0
 10
19265.366816999991
 20
19891.730914
 30
0.0
 40
15.0
 50
90.0
 51
270.0
  0
ARC
  5
403B
  8
0
  6
BYBLOCK
 62
     0
 10
19265.366816999991
 20
16973.730914
 30
0.0
 40
15.0
 50
90.0
 51
270.0
  0
ARC
  5
403C
  8
0
  6
BYBLOCK
 62
     0
 10
19265.366816999991
 20
16973.730914
 30
0.0
 40
15.0
 50
270.0
 51
90.0
  0
ARC
  5
403D
  8
0
  6
BYBLOCK
 62
     0
 10
19265.366816999991
 20
18432.730914
 30
0.0
 40
15.0
 50
270.0
 51
90.0
  0
ARC
  5
403E
  8
0
  6
BYBLOCK
 62
     0
 10
19265.366816999991
 20
18432.730914
 30
0.0
 40
15.0
 50
90.0
 51
270.0
  0
ARC
  5
403F
  8
0
  6
BYBLOCK
 62
     0
 10
19265.366816999991
 20
15514.971425500011
 30
0.0
 40
15.0
 50
90.0
 51
270.0
  0
ARC
  5
4040
  8
0
  6
BYBLOCK
 62
     0
 10
19265.366816999991
 20
15514.971425500011
 30
0.0
 40
15.0
 50
270.0
 51
90.0
  0
ARC
  5
4041
  8
0
  6
BYBLOCK
 62
     0
 10
19265.366816999991
 20
16973.730914
 30
0.0
 40
15.0
 50
270.0
 51
90.0
  0
ARC
  5
4042
  8
0
  6
BYBLOCK
 62
     0
 10
19265.366816999991
 20
16973.730914
 30
0.0
 40
15.0
 50
90.0
 51
270.0
  0
ARC
  5
4043
  8
0
  6
BYBLOCK
 62
     0
 10
19265.366816999991
 20
13705.230913999991
 30
0.0
 40
15.0
 50
90.0
 51
270.0
  0
ARC
  5
4044
  8
0
  6
BYBLOCK
 62
     0
 10
19265.366816999991
 20
13705.230913999991
 30
0.0
 40
15.0
 50
270.0
 51
90.0
  0
ARC
  5
4045
  8
0
  6
BYBLOCK
 62
     0
 10
19265.366816999991
 20
15514.971425500011
 30
0.0
 40
15.0
 50
270.0
 51
90.0
  0
ARC
  5
4046
  8
0
  6
BYBLOCK
 62
     0
 10
19265.366816999991
 20
15514.971425500011
 30
0.0
 40
15.0
 50
90.0
 51
270.0
  0
ARC
  5
4047
  8
0
  6
BYBLOCK
 62
     0
 10
20194.821393999991
 20
12733.782829999989
 30
0.0
 40
15.0
 50
0.0
 51
180.0
  0
ARC
  5
4048
  8
0
  6
BYBLOCK
 62
     0
 10
20194.821393999991
 20
12733.782829999989
 30
0.0
 40
15.0
 50
180.0
 51
0.0
  0
ARC
  5
4049
  8
0
  6
BYBLOCK
 62
     0
 10
20152.319151
 20
12733.782829999989
 30
0.0
 40
15.0
 50
180.0
 51
0.0
  0
ARC
  5
404A
  8
0
  6
BYBLOCK
 62
     0
 10
20152.319151
 20
12733.782829999989
 30
0.0
 40
15.0
 50
0.0
 51
180.0
  0
ARC
  5
404B
  8
0
  6
BYBLOCK
 62
     0
 10
24628.821393999991
 20
12733.782829999989
 30
0.0
 40
15.0
 50
180.0
 51
0.0
  0
ARC
  5
404C
  8
0
  6
BYBLOCK
 62
     0
 10
24628.821393999991
 20
12733.782829999989
 30
0.0
 40
15.0
 50
0.0
 51
180.0
  0
ARC
  5
404D
  8
0
  6
BYBLOCK
 62
     0
 10
24671.32363699999
 20
12733.782829999989
 30
0.0
 40
15.0
 50
0.0
 51
180.0
  0
ARC
  5
404E
  8
0
  6
BYBLOCK
 62
     0
 10
24671.32363699999
 20
12733.782829999989
 30
0.0
 40
15.0
 50
180.0
 51
0.0
  0
ARC
  5
404F
  8
0
  6
BYBLOCK
 62
     0
 10
24628.821393999991
 20
12733.782829999989
 30
0.0
 40
15.0
 50
0.0
 51
180.0
  0
ARC
  5
4050
  8
0
  6
BYBLOCK
 62
     0
 10
24628.821393999991
 20
12733.782829999989
 30
0.0
 40
15.0
 50
180.0
 51
0.0
  0
ARC
  5
4051
  8
0
  6
BYBLOCK
 62
     0
 10
24586.319150999982
 20
12733.782829999989
 30
0.0
 40
15.0
 50
180.0
 51
0.0
  0
ARC
  5
4052
  8
0
  6
BYBLOCK
 62
     0
 10
24586.319150999982
 20
12733.782829999989
 30
0.0
 40
15.0
 50
0.0
 51
180.0
  0
ARC
  5
4053
  8
0
  6
BYBLOCK
 62
     0
 10
20194.821393999991
 20
12733.782829999989
 30
0.0
 40
15.0
 50
180.0
 51
0.0
  0
ARC
  5
4054
  8
0
  6
BYBLOCK
 62
     0
 10
20194.821393999991
 20
12733.782829999989
 30
0.0
 40
15.0
 50
0.0
 51
180.0
  0
ARC
  5
4055
  8
0
  6
BYBLOCK
 62
     0
 10
20237.32363699999
 20
12733.782829999989
 30
0.0
 40
15.0
 50
0.0
 51
180.0
  0
ARC
  5
4056
  8
0
  6
BYBLOCK
 62
     0
 10
20237.32363699999
 20
12733.782829999989
 30
0.0
 40
15.0
 50
180.0
 51
0.0
  0
ARC
  5
4057
  8
0
  6
BYBLOCK
 62
     0
 10
20152.319151
 20
12333.782829999989
 30
0.0
 40
15.0
 50
0.0
 51
180.0
  0
ARC
  5
4058
  8
0
  6
BYBLOCK
 62
     0
 10
20152.319151
 20
12333.782829999989
 30
0.0
 40
15.0
 50
180.0
 51
0.0
  0
ARC
  5
4059
  8
0
  6
BYBLOCK
 62
     0
 10
24671.32363699999
 20
12333.782829999989
 30
0.0
 40
15.0
 50
180.0
 51
0.0
  0
ARC
  5
405A
  8
0
  6
BYBLOCK
 62
     0
 10
24671.32363699999
 20
12333.782829999989
 30
0.0
 40
15.0
 50
0.0
 51
180.0
  0
ARC
  5
405B
  8
0
  6
BYBLOCK
 62
     0
 10
25721.320997999988
 20
14112.730913999991
 30
0.0
 40
15.0
 50
270.0
 51
90.0
  0
ARC
  5
405C
  8
0
  6
BYBLOCK
 62
     0
 10
25721.320997999988
 20
14112.730913999991
 30
0.0
 40
15.0
 50
90.0
 51
270.0
  0
ARC
  5
405D
  8
0
  6
BYBLOCK
 62
     0
 10
25721.320997999988
 20
13705.230913999991
 30
0.0
 40
15.0
 50
90.0
 51
270.0
  0
ARC
  5
405E
  8
0
  6
BYBLOCK
 62
     0
 10
25721.320997999988
 20
13705.230913999991
 30
0.0
 40
15.0
 50
270.0
 51
90.0
  0
ARC
  5
405F
  8
0
  6
BYBLOCK
 62
     0
 10
25721.320997999988
 20
14813.730913999991
 30
0.0
 40
15.0
 50
270.0
 51
90.0
  0
ARC
  5
4060
  8
0
  6
BYBLOCK
 62
     0
 10
25721.320997999988
 20
14813.730913999991
 30
0.0
 40
15.0
 50
90.0
 51
270.0
  0
ARC
  5
4061
  8
0
  6
BYBLOCK
 62
     0
 10
25721.320997999988
 20
14112.730913999991
 30
0.0
 40
15.0
 50
90.0
 51
270.0
  0
ARC
  5
4062
  8
0
  6
BYBLOCK
 62
     0
 10
25721.320997999988
 20
14112.730913999991
 30
0.0
 40
15.0
 50
270.0
 51
90.0
  0
ARC
  5
4063
  8
0
  6
BYBLOCK
 62
     0
 10
25721.320997999988
 20
15514.971425500011
 30
0.0
 40
15.0
 50
270.0
 51
90.0
  0
ARC
  5
4064
  8
0
  6
BYBLOCK
 62
     0
 10
25721.320997999988
 20
15514.971425500011
 30
0.0
 40
15.0
 50
90.0
 51
270.0
  0
ARC
  5
4065
  8
0
  6
BYBLOCK
 62
     0
 10
25721.320997999988
 20
14813.730913999991
 30
0.0
 40
15.0
 50
90.0
 51
270.0
  0
ARC
  5
4066
  8
0
  6
BYBLOCK
 62
     0
 10
25721.320997999988
 20
14813.730913999991
 30
0.0
 40
15.0
 50
270.0
 51
90.0
  0
ARC
  5
4067
  8
0
  6
BYBLOCK
 62
     0
 10
25721.320997999988
 20
16215.730913999991
 30
0.0
 40
15.0
 50
270.0
 51
90.0
  0
ARC
  5
4068
  8
0
  6
BYBLOCK
 62
     0
 10
25721.320997999988
 20
16215.730913999991
 30
0.0
 40
15.0
 50
90.0
 51
270.0
  0
ARC
  5
4069
  8
0
  6
BYBLOCK
 62
     0
 10
25721.320997999988
 20
15514.971425500011
 30
0.0
 40
15.0
 50
90.0
 51
270.0
  0
ARC
  5
406A
  8
0
  6
BYBLOCK
 62
     0
 10
25721.320997999988
 20
15514.971425500011
 30
0.0
 40
15.0
 50
270.0
 51
90.0
  0
ARC
  5
406B
  8
0
  6
BYBLOCK
 62
     0
 10
25721.320997999988
 20
16973.730914
 30
0.0
 40
15.0
 50
270.0
 51
90.0
  0
ARC
  5
406C
  8
0
  6
BYBLOCK
 62
     0
 10
25721.320997999988
 20
16973.730914
 30
0.0
 40
15.0
 50
90.0
 51
270.0
  0
ARC
  5
406D
  8
0
  6
BYBLOCK
 62
     0
 10
25721.320997999988
 20
16215.730913999991
 30
0.0
 40
15.0
 50
90.0
 51
270.0
  0
ARC
  5
406E
  8
0
  6
BYBLOCK
 62
     0
 10
25721.320997999988
 20
16215.730913999991
 30
0.0
 40
15.0
 50
270.0
 51
90.0
  0
ARC
  5
406F
  8
0
  6
BYBLOCK
 62
     0
 10
25721.320997999988
 20
17731.730914
 30
0.0
 40
15.0
 50
270.0
 51
90.0
  0
ARC
  5
4070
  8
0
  6
BYBLOCK
 62
     0
 10
25721.320997999988
 20
17731.730914
 30
0.0
 40
15.0
 50
90.0
 51
270.0
  0
ARC
  5
4071
  8
0
  6
BYBLOCK
 62
     0
 10
25721.320997999988
 20
16973.730914
 30
0.0
 40
15.0
 50
90.0
 51
270.0
  0
ARC
  5
4072
  8
0
  6
BYBLOCK
 62
     0
 10
25721.320997999988
 20
16973.730914
 30
0.0
 40
15.0
 50
270.0
 51
90.0
  0
ARC
  5
4073
  8
0
  6
BYBLOCK
 62
     0
 10
25721.320997999988
 20
18432.730914
 30
0.0
 40
15.0
 50
270.0
 51
90.0
  0
ARC
  5
4074
  8
0
  6
BYBLOCK
 62
     0
 10
25721.320997999988
 20
18432.730914
 30
0.0
 40
15.0
 50
90.0
 51
270.0
  0
ARC
  5
4075
  8
0
  6
BYBLOCK
 62
     0
 10
25721.320997999988
 20
17731.730914
 30
0.0
 40
15.0
 50
90.0
 51
270.0
  0
ARC
  5
4076
  8
0
  6
BYBLOCK
 62
     0
 10
25721.320997999988
 20
17731.730914
 30
0.0
 40
15.0
 50
270.0
 51
90.0
  0
ARC
  5
4077
  8
0
  6
BYBLOCK
 62
     0
 10
25721.320997999988
 20
19133.730914
 30
0.0
 40
15.0
 50
270.0
 51
90.0
  0
ARC
  5
4078
  8
0
  6
BYBLOCK
 62
     0
 10
25721.320997999988
 20
19133.730914
 30
0.0
 40
15.0
 50
90.0
 51
270.0
  0
ARC
  5
4079
  8
0
  6
BYBLOCK
 62
     0
 10
25721.320997999988
 20
18432.730914
 30
0.0
 40
15.0
 50
90.0
 51
270.0
  0
ARC
  5
407A
  8
0
  6
BYBLOCK
 62
     0
 10
25721.320997999988
 20
18432.730914
 30
0.0
 40
15.0
 50
270.0
 51
90.0
  0
ARC
  5
407B
  8
0
  6
BYBLOCK
 62
     0
 10
25721.320997999988
 20
19891.730914
 30
0.0
 40
15.0
 50
270.0
 51
90.0
  0
ARC
  5
407C
  8
0
  6
BYBLOCK
 62
     0
 10
25721.320997999988
 20
19891.730914
 30
0.0
 40
15.0
 50
90.0
 51
270.0
  0
ARC
  5
407D
  8
0
  6
BYBLOCK
 62
     0
 10
25721.320997999988
 20
19133.730914
 30
0.0
 40
15.0
 50
90.0
 51
270.0
  0
ARC
  5
407E
  8
0
  6
BYBLOCK
 62
     0
 10
25721.320997999988
 20
19133.730914
 30
0.0
 40
15.0
 50
270.0
 51
90.0
  0
ARC
  5
407F
  8
0
  6
BYBLOCK
 62
     0
 10
26121.320997999988
 20
16973.730914
 30
0.0
 40
15.0
 50
90.0
 51
270.0
  0
ARC
  5
4080
  8
0
  6
BYBLOCK
 62
     0
 10
26121.320997999988
 20
16973.730914
 30
0.0
 40
15.0
 50
270.0
 51
90.0
  0
ARC
  5
4081
  8
0
  6
BYBLOCK
 62
     0
 10
26121.320997999988
 20
19891.730914
 30
0.0
 40
15.0
 50
270.0
 51
90.0
  0
ARC
  5
4082
  8
0
  6
BYBLOCK
 62
     0
 10
26121.320997999988
 20
19891.730914
 30
0.0
 40
15.0
 50
90.0
 51
270.0
  0
ARC
  5
4083
  8
0
  6
BYBLOCK
 62
     0
 10
26121.320997999988
 20
13705.230913999991
 30
0.0
 40
15.0
 50
90.0
 51
270.0
  0
ARC
  5
4084
  8
0
  6
BYBLOCK
 62
     0
 10
26121.320997999988
 20
13705.230913999991
 30
0.0
 40
15.0
 50
270.0
 51
90.0
  0
ARC
  5
4085
  8
0
  6
BYBLOCK
 62
     0
 10
26121.320997999988
 20
16973.730914
 30
0.0
 40
15.0
 50
270.0
 51
90.0
  0
ARC
  5
4086
  8
0
  6
BYBLOCK
 62
     0
 10
26121.320997999988
 20
16973.730914
 30
0.0
 40
15.0
 50
90.0
 51
270.0
  0
ARC
  5
4087
  8
0
  6
BYBLOCK
 62
     0
 10
26521.320997999988
 20
19934.228209000001
 30
0.0
 40
15.0
 50
270.0
 51
90.0
  0
ARC
  5
4088
  8
0
  6
BYBLOCK
 62
     0
 10
26521.320997999988
 20
19934.228209000001
 30
0.0
 40
15.0
 50
90.0
 51
270.0
  0
ARC
  5
4089
  8
0
  6
BYBLOCK
 62
     0
 10
26521.320997999988
 20
13662.733619000001
 30
0.0
 40
15.0
 50
90.0
 51
270.0
  0
ARC
  5
408A
  8
0
  6
BYBLOCK
 62
     0
 10
26521.320997999988
 20
13662.733619000001
 30
0.0
 40
15.0
 50
270.0
 51
90.0
  0
ARC
  5
408B
  8
0
  6
BYBLOCK
 62
     0
 10
26121.320997999988
 20
19891.730914
 30
0.0
 40
15.0
 50
270.0
 51
90.0
  0
ARC
  5
408C
  8
0
  6
BYBLOCK
 62
     0
 10
26121.320997999988
 20
19891.730914
 30
0.0
 40
15.0
 50
90.0
 51
270.0
  0
ARC
  5
408D
  8
0
  6
BYBLOCK
 62
     0
 10
26121.320997999988
 20
19934.228209000001
 30
0.0
 40
15.0
 50
90.0
 51
270.0
  0
ARC
  5
408E
  8
0
  6
BYBLOCK
 62
     0
 10
26121.320997999988
 20
19934.228209000001
 30
0.0
 40
15.0
 50
270.0
 51
90.0
  0
ARC
  5
408F
  8
0
  6
BYBLOCK
 62
     0
 10
26121.320997999988
 20
13705.230913999991
 30
0.0
 40
15.0
 50
90.0
 51
270.0
  0
ARC
  5
4090
  8
0
  6
BYBLOCK
 62
     0
 10
26121.320997999988
 20
13705.230913999991
 30
0.0
 40
15.0
 50
270.0
 51
90.0
  0
ARC
  5
4091
  8
0
  6
BYBLOCK
 62
     0
 10
26121.320997999988
 20
13662.733619000001
 30
0.0
 40
15.0
 50
270.0
 51
90.0
  0
ARC
  5
4092
  8
0
  6
BYBLOCK
 62
     0
 10
26121.320997999988
 20
13662.733619000001
 30
0.0
 40
15.0
 50
90.0
 51
270.0
  0
ARC
  5
4093
  8
0
  6
BYBLOCK
 62
     0
 10
22762.321393999991
 20
20664.232102000031
 30
0.0
 40
15.0
 50
0.0
 51
180.0
  0
ARC
  5
4094
  8
0
  6
BYBLOCK
 62
     0
 10
22762.321393999991
 20
20664.232102000031
 30
0.0
 40
15.0
 50
180.0
 51
0.0
  0
ARC
  5
4095
  8
0
  6
BYBLOCK
 62
     0
 10
23169.821393999991
 20
20664.232102000031
 30
0.0
 40
15.0
 50
180.0
 51
0.0
  0
ARC
  5
4096
  8
0
  6
BYBLOCK
 62
     0
 10
23169.821393999991
 20
20664.232102000031
 30
0.0
 40
15.0
 50
0.0
 51
180.0
  0
ARC
  5
4097
  8
0
  6
BYBLOCK
 62
     0
 10
23870.821393999991
 20
20664.232102000031
 30
0.0
 40
15.0
 50
0.0
 51
180.0
  0
ARC
  5
4098
  8
0
  6
BYBLOCK
 62
     0
 10
23870.821393999991
 20
20664.232102000031
 30
0.0
 40
15.0
 50
180.0
 51
0.0
  0
ARC
  5
4099
  8
0
  6
BYBLOCK
 62
     0
 10
24628.822383499999
 20
20664.232102000031
 30
0.0
 40
15.0
 50
180.0
 51
0.0
  0
ARC
  5
409A
  8
0
  6
BYBLOCK
 62
     0
 10
24628.822383499999
 20
20664.232102000031
 30
0.0
 40
15.0
 50
0.0
 51
180.0
  0
ARC
  5
409B
  8
0
  6
BYBLOCK
 62
     0
 10
23169.821393999991
 20
20664.232102000031
 30
0.0
 40
15.0
 50
0.0
 51
180.0
  0
ARC
  5
409C
  8
0
  6
BYBLOCK
 62
     0
 10
23169.821393999991
 20
20664.232102000031
 30
0.0
 40
15.0
 50
180.0
 51
0.0
  0
ARC
  5
409D
  8
0
  6
BYBLOCK
 62
     0
 10
23870.821393999991
 20
20664.232102000031
 30
0.0
 40
15.0
 50
180.0
 51
0.0
  0
ARC
  5
409E
  8
0
  6
BYBLOCK
 62
     0
 10
23870.821393999991
 20
20664.232102000031
 30
0.0
 40
15.0
 50
0.0
 51
180.0
  0
ARC
  5
409F
  8
0
  6
BYBLOCK
 62
     0
 10
24628.821393999991
 20
20664.232102000031
 30
0.0
 40
15.0
 50
180.0
 51
0.0
  0
ARC
  5
40A0
  8
0
  6
BYBLOCK
 62
     0
 10
24628.821393999991
 20
20664.232102000031
 30
0.0
 40
15.0
 50
0.0
 51
180.0
  0
ARC
  5
40A1
  8
0
  6
BYBLOCK
 62
     0
 10
24671.317698999988
 20
20664.232102000031
 30
0.0
 40
15.0
 50
0.0
 51
180.0
  0
ARC
  5
40A2
  8
0
  6
BYBLOCK
 62
     0
 10
24671.317698999988
 20
20664.232102000031
 30
0.0
 40
15.0
 50
180.0
 51
0.0
  0
ARC
  5
40A3
  8
0
  6
BYBLOCK
 62
     0
 10
20194.821393999991
 20
20664.232102000031
 30
0.0
 40
15.0
 50
0.0
 51
180.0
  0
ARC
  5
40A4
  8
0
  6
BYBLOCK
 62
     0
 10
20194.821393999991
 20
20664.232102000031
 30
0.0
 40
15.0
 50
180.0
 51
0.0
  0
ARC
  5
40A5
  8
0
  6
BYBLOCK
 62
     0
 10
20602.321393999991
 20
20664.232102000031
 30
0.0
 40
15.0
 50
180.0
 51
0.0
  0
ARC
  5
40A6
  8
0
  6
BYBLOCK
 62
     0
 10
20602.321393999991
 20
20664.232102000031
 30
0.0
 40
15.0
 50
0.0
 51
180.0
  0
ARC
  5
40A7
  8
0
  6
BYBLOCK
 62
     0
 10
20194.821393999991
 20
20664.232102000031
 30
0.0
 40
15.0
 50
0.0
 51
180.0
  0
ARC
  5
40A8
  8
0
  6
BYBLOCK
 62
     0
 10
20194.821393999991
 20
20664.232102000031
 30
0.0
 40
15.0
 50
180.0
 51
0.0
  0
ARC
  5
40A9
  8
0
  6
BYBLOCK
 62
     0
 10
20152.325089000002
 20
20664.232102000031
 30
0.0
 40
15.0
 50
180.0
 51
0.0
  0
ARC
  5
40AA
  8
0
  6
BYBLOCK
 62
     0
 10
20152.325089000002
 20
20664.232102000031
 30
0.0
 40
15.0
 50
0.0
 51
180.0
  0
ARC
  5
40AB
  8
0
  6
BYBLOCK
 62
     0
 10
22004.321393999991
 20
20664.232102000031
 30
0.0
 40
15.0
 50
0.0
 51
180.0
  0
ARC
  5
40AC
  8
0
  6
BYBLOCK
 62
     0
 10
22004.321393999991
 20
20664.232102000031
 30
0.0
 40
15.0
 50
180.0
 51
0.0
  0
ARC
  5
40AD
  8
0
  6
BYBLOCK
 62
     0
 10
22762.322383499992
 20
20664.232102000031
 30
0.0
 40
15.0
 50
180.0
 51
0.0
  0
ARC
  5
40AE
  8
0
  6
BYBLOCK
 62
     0
 10
22762.322383499992
 20
20664.232102000031
 30
0.0
 40
15.0
 50
0.0
 51
180.0
  0
ARC
  5
40AF
  8
0
  6
BYBLOCK
 62
     0
 10
21303.321393999991
 20
20664.232102000031
 30
0.0
 40
15.0
 50
0.0
 51
180.0
  0
ARC
  5
40B0
  8
0
  6
BYBLOCK
 62
     0
 10
21303.321393999991
 20
20664.232102000031
 30
0.0
 40
15.0
 50
180.0
 51
0.0
  0
ARC
  5
40B1
  8
0
  6
BYBLOCK
 62
     0
 10
22004.321393999991
 20
20664.232102000031
 30
0.0
 40
15.0
 50
180.0
 51
0.0
  0
ARC
  5
40B2
  8
0
  6
BYBLOCK
 62
     0
 10
22004.321393999991
 20
20664.232102000031
 30
0.0
 40
15.0
 50
0.0
 51
180.0
  0
ARC
  5
40B3
  8
0
  6
BYBLOCK
 62
     0
 10
20602.321393999991
 20
20664.232102000031
 30
0.0
 40
15.0
 50
0.0
 51
180.0
  0
ARC
  5
40B4
  8
0
  6
BYBLOCK
 62
     0
 10
20602.321393999991
 20
20664.232102000031
 30
0.0
 40
15.0
 50
180.0
 51
0.0
  0
ARC
  5
40B5
  8
0
  6
BYBLOCK
 62
     0
 10
21303.321393999991
 20
20664.232102000031
 30
0.0
 40
15.0
 50
180.0
 51
0.0
  0
ARC
  5
40B6
  8
0
  6
BYBLOCK
 62
     0
 10
21303.321393999991
 20
20664.232102000031
 30
0.0
 40
15.0
 50
0.0
 51
180.0
  0
ARC
  5
40B7
  8
0
  6
BYBLOCK
 62
     0
 10
19344.822053999989
 20
6276.5900849999962
 30
0.0
 40
15.0
 50
90.0
 51
270.0
  0
ARC
  5
40B8
  8
0
  6
BYBLOCK
 62
     0
 10
19344.822053999989
 20
6276.5900849999962
 30
0.0
 40
15.0
 50
270.0
 51
90.0
  0
ARC
  5
40B9
  8
0
  6
BYBLOCK
 62
     0
 10
19344.822053999989
 20
8168.0900849999953
 30
0.0
 40
15.0
 50
270.0
 51
90.0
  0
ARC
  5
40BA
  8
0
  6
BYBLOCK
 62
     0
 10
19344.822053999989
 20
8168.0900849999953
 30
0.0
 40
15.0
 50
90.0
 51
270.0
  0
ARC
  5
40BB
  8
0
  6
BYBLOCK
 62
     0
 10
18944.819744999979
 20
6276.5900849999962
 30
0.0
 40
15.0
 50
90.0
 51
270.0
  0
ARC
  5
40BC
  8
0
  6
BYBLOCK
 62
     0
 10
18944.819744999979
 20
6276.5900849999962
 30
0.0
 40
15.0
 50
270.0
 51
90.0
  0
ARC
  5
40BD
  8
0
  6
BYBLOCK
 62
     0
 10
18944.819744999979
 20
8624.5900850000016
 30
0.0
 40
15.0
 50
270.0
 51
90.0
  0
ARC
  5
40BE
  8
0
  6
BYBLOCK
 62
     0
 10
18944.819744999979
 20
8624.5900850000016
 30
0.0
 40
15.0
 50
90.0
 51
270.0
  0
ARC
  5
40CF
  8
0
  6
BYBLOCK
 62
     0
 10
20288.821393999991
 20
5376.5902499999984
 30
0.0
 40
15.0
 50
0.0
 51
180.0
  0
ARC
  5
40D0
  8
0
  6
BYBLOCK
 62
     0
 10
20288.821393999991
 20
5376.5902499999984
 30
0.0
 40
15.0
 50
180.0
 51
0.0
  0
ARC
  5
40D1
  8
0
  6
BYBLOCK
 62
     0
 10
22668.321393999991
 20
5376.5902499999984
 30
0.0
 40
15.0
 50
180.0
 51
0.0
  0
ARC
  5
40D2
  8
0
  6
BYBLOCK
 62
     0
 10
22668.321393999991
 20
5376.5902499999984
 30
0.0
 40
15.0
 50
0.0
 51
180.0
  0
ARC
  5
40D3
  8
0
  6
BYBLOCK
 62
     0
 10
22856.321393999991
 20
5376.5902499999984
 30
0.0
 40
15.0
 50
0.0
 51
180.0
  0
ARC
  5
40D4
  8
0
  6
BYBLOCK
 62
     0
 10
22856.321393999991
 20
5376.5902499999984
 30
0.0
 40
15.0
 50
180.0
 51
0.0
  0
ARC
  5
40D5
  8
0
  6
BYBLOCK
 62
     0
 10
24534.821393999991
 20
5376.5902499999984
 30
0.0
 40
15.0
 50
180.0
 51
0.0
  0
ARC
  5
40D6
  8
0
  6
BYBLOCK
 62
     0
 10
24534.821393999991
 20
5376.5902499999984
 30
0.0
 40
15.0
 50
0.0
 51
180.0
  0
ARC
  5
40D7
  8
0
  6
BYBLOCK
 62
     0
 10
22762.321393999991
 20
4976.5902500000002
 30
0.0
 40
15.0
 50
0.0
 51
180.0
  0
ARC
  5
40D8
  8
0
  6
BYBLOCK
 62
     0
 10
22762.321393999991
 20
4976.5902500000002
 30
0.0
 40
15.0
 50
180.0
 51
0.0
  0
ARC
  5
40D9
  8
0
  6
BYBLOCK
 62
     0
 10
24628.821393999991
 20
4976.5902500000002
 30
0.0
 40
15.0
 50
180.0
 51
0.0
  0
ARC
  5
40DA
  8
0
  6
BYBLOCK
 62
     0
 10
24628.821393999991
 20
4976.5902500000002
 30
0.0
 40
15.0
 50
0.0
 51
180.0
  0
ARC
  5
40DB
  8
0
  6
BYBLOCK
 62
     0
 10
20194.821393999991
 20
4976.5902500000002
 30
0.0
 40
15.0
 50
0.0
 51
180.0
  0
ARC
  5
40DC
  8
0
  6
BYBLOCK
 62
     0
 10
20194.821393999991
 20
4976.5902500000002
 30
0.0
 40
15.0
 50
180.0
 51
0.0
  0
ARC
  5
40DD
  8
0
  6
BYBLOCK
 62
     0
 10
22762.321393999991
 20
4976.5902500000002
 30
0.0
 40
15.0
 50
180.0
 51
0.0
  0
ARC
  5
40DE
  8
0
  6
BYBLOCK
 62
     0
 10
22762.321393999991
 20
4976.5902500000002
 30
0.0
 40
15.0
 50
0.0
 51
180.0
  0
ARC
  5
40DF
  8
0
  6
BYBLOCK
 62
     0
 10
24628.825353
 20
4976.5902500000002
 30
0.0
 40
15.0
 50
180.0
 51
0.0
  0
ARC
  5
40E0
  8
0
  6
BYBLOCK
 62
     0
 10
24628.825353
 20
4976.5902500000002
 30
0.0
 40
15.0
 50
0.0
 51
180.0
  0
ARC
  5
40E1
  8
0
  6
BYBLOCK
 62
     0
 10
24671.325353
 20
4976.5902500000002
 30
0.0
 40
15.0
 50
0.0
 51
180.0
  0
ARC
  5
40E2
  8
0
  6
BYBLOCK
 62
     0
 10
24671.325353
 20
4976.5902500000002
 30
0.0
 40
15.0
 50
180.0
 51
0.0
  0
ARC
  5
40E3
  8
0
  6
BYBLOCK
 62
     0
 10
20194.821393999991
 20
4976.5902500000002
 30
0.0
 40
15.0
 50
0.0
 51
180.0
  0
ARC
  5
40E4
  8
0
  6
BYBLOCK
 62
     0
 10
20194.821393999991
 20
4976.5902500000002
 30
0.0
 40
15.0
 50
180.0
 51
0.0
  0
ARC
  5
40E5
  8
0
  6
BYBLOCK
 62
     0
 10
20152.321393999991
 20
4976.5902500000002
 30
0.0
 40
15.0
 50
180.0
 51
0.0
  0
ARC
  5
40E6
  8
0
  6
BYBLOCK
 62
     0
 10
20152.321393999991
 20
4976.5902500000002
 30
0.0
 40
15.0
 50
0.0
 51
180.0
  0
ARC
  5
40E7
  8
0
  6
BYBLOCK
 62
     0
 10
20152.321393999991
 20
4576.5904149999969
 30
0.0
 40
15.0
 50
0.0
 51
180.0
  0
ARC
  5
40E8
  8
0
  6
BYBLOCK
 62
     0
 10
20152.321393999991
 20
4576.5904149999969
 30
0.0
 40
15.0
 50
180.0
 51
0.0
  0
ARC
  5
40E9
  8
0
  6
BYBLOCK
 62
     0
 10
24671.321393999991
 20
4576.5904149999969
 30
0.0
 40
15.0
 50
180.0
 51
0.0
  0
ARC
  5
40EA
  8
0
  6
BYBLOCK
 62
     0
 10
24671.321393999991
 20
4576.5904149999969
 30
0.0
 40
15.0
 50
0.0
 51
180.0
  0
ARC
  5
40EB
  8
0
  6
BYBLOCK
 62
     0
 10
8882.5340609999967
 20
9824.5901109999995
 30
0.0
 40
15.0
 50
0.0
 51
180.0
  0
ARC
  5
40EC
  8
0
  6
BYBLOCK
 62
     0
 10
8882.5340609999967
 20
9824.5901109999995
 30
0.0
 40
15.0
 50
180.0
 51
0.0
  0
ARC
  5
40ED
  8
0
  6
BYBLOCK
 62
     0
 10
15484.034061
 20
9824.5901109999995
 30
0.0
 40
15.0
 50
180.0
 51
0.0
  0
ARC
  5
40EE
  8
0
  6
BYBLOCK
 62
     0
 10
15484.034061
 20
9824.5901109999995
 30
0.0
 40
15.0
 50
0.0
 51
180.0
  0
ARC
  5
40EF
  8
0
  6
BYBLOCK
 62
     0
 10
15334.034061
 20
9424.5917609999997
 30
0.0
 40
15.0
 50
180.0
 51
0.0
  0
ARC
  5
40F0
  8
0
  6
BYBLOCK
 62
     0
 10
15334.034061
 20
9424.5917609999997
 30
0.0
 40
15.0
 50
0.0
 51
180.0
  0
ARC
  5
40F1
  8
0
  6
BYBLOCK
 62
     0
 10
15484.034061
 20
9424.5917609999997
 30
0.0
 40
15.0
 50
0.0
 51
180.0
  0
ARC
  5
40F2
  8
0
  6
BYBLOCK
 62
     0
 10
15484.034061
 20
9424.5917609999997
 30
0.0
 40
15.0
 50
180.0
 51
0.0
  0
ARC
  5
40F3
  8
0
  6
BYBLOCK
 62
     0
 10
9062.5340609999967
 20
9424.5917609999997
 30
0.0
 40
15.0
 50
0.0
 51
180.0
  0
ARC
  5
40F4
  8
0
  6
BYBLOCK
 62
     0
 10
9062.5340609999967
 20
9424.5917609999997
 30
0.0
 40
15.0
 50
180.0
 51
0.0
  0
ARC
  5
40F5
  8
0
  6
BYBLOCK
 62
     0
 10
15334.034061
 20
9424.5917609999997
 30
0.0
 40
15.0
 50
180.0
 51
0.0
  0
ARC
  5
40F6
  8
0
  6
BYBLOCK
 62
     0
 10
15334.034061
 20
9424.5917609999997
 30
0.0
 40
15.0
 50
0.0
 51
180.0
  0
ARC
  5
40F7
  8
0
  6
BYBLOCK
 62
     0
 10
8882.5340609999967
 20
9424.5917609999997
 30
0.0
 40
15.0
 50
0.0
 51
180.0
  0
ARC
  5
40F8
  8
0
  6
BYBLOCK
 62
     0
 10
8882.5340609999967
 20
9424.5917609999997
 30
0.0
 40
15.0
 50
180.0
 51
0.0
  0
ARC
  5
40F9
  8
0
  6
BYBLOCK
 62
     0
 10
9062.5340609999967
 20
9424.5917609999997
 30
0.0
 40
15.0
 50
180.0
 51
0.0
  0
ARC
  5
40FA
  8
0
  6
BYBLOCK
 62
     0
 10
9062.5340609999967
 20
9424.5917609999997
 30
0.0
 40
15.0
 50
0.0
 51
180.0
  0
ARC
  5
40FB
  8
0
  6
BYBLOCK
 62
     0
 10
16424.034456999991
 20
6276.5900850000025
 30
0.0
 40
15.0
 50
90.0
 51
270.0
  0
ARC
  5
40FC
  8
0
  6
BYBLOCK
 62
     0
 10
16424.034456999991
 20
6276.5900850000025
 30
0.0
 40
15.0
 50
270.0
 51
90.0
  0
ARC
  5
40FD
  8
0
  6
BYBLOCK
 62
     0
 10
16424.034457000002
 20
8624.5900850000016
 30
0.0
 40
15.0
 50
270.0
 51
90.0
  0
ARC
  5
40FE
  8
0
  6
BYBLOCK
 62
     0
 10
16424.034457000002
 20
8624.5900850000016
 30
0.0
 40
15.0
 50
90.0
 51
270.0
  0
ARC
  5
40FF
  8
0
  6
BYBLOCK
 62
     0
 10
7972.5336650000027
 20
6276.5900850000025
 30
0.0
 40
15.0
 50
90.0
 51
270.0
  0
ARC
  5
4100
  8
0
  6
BYBLOCK
 62
     0
 10
7972.5336650000027
 20
6276.5900850000025
 30
0.0
 40
15.0
 50
270.0
 51
90.0
  0
ARC
  5
4101
  8
0
  6
BYBLOCK
 62
     0
 10
7972.5336650000027
 20
8433.5900850000016
 30
0.0
 40
15.0
 50
270.0
 51
90.0
  0
ARC
  5
4102
  8
0
  6
BYBLOCK
 62
     0
 10
7972.5336650000027
 20
8433.5900850000016
 30
0.0
 40
15.0
 50
90.0
 51
270.0
  0
ARC
  5
4103
  8
0
  6
BYBLOCK
 62
     0
 10
9062.5340609999967
 20
4576.5904150000006
 30
0.0
 40
15.0
 50
0.0
 51
180.0
  0
ARC
  5
4104
  8
0
  6
BYBLOCK
 62
     0
 10
9062.5340609999967
 20
4576.5904150000006
 30
0.0
 40
15.0
 50
180.0
 51
0.0
  0
ARC
  5
4105
  8
0
  6
BYBLOCK
 62
     0
 10
15334.034061
 20
4576.5904150000006
 30
0.0
 40
15.0
 50
180.0
 51
0.0
  0
ARC
  5
4106
  8
0
  6
BYBLOCK
 62
     0
 10
15334.034061
 20
4576.5904150000006
 30
0.0
 40
15.0
 50
0.0
 51
180.0
  0
ARC
  5
4107
  8
0
  6
BYBLOCK
 62
     0
 10
15291.534061
 20
4976.5902500000002
 30
0.0
 40
15.0
 50
180.0
 51
0.0
  0
ARC
  5
4108
  8
0
  6
BYBLOCK
 62
     0
 10
15291.534061
 20
4976.5902500000002
 30
0.0
 40
15.0
 50
0.0
 51
180.0
  0
ARC
  5
4109
  8
0
  6
BYBLOCK
 62
     0
 10
15334.034061
 20
4976.5902500000002
 30
0.0
 40
15.0
 50
0.0
 51
180.0
  0
ARC
  5
410A
  8
0
  6
BYBLOCK
 62
     0
 10
15334.034061
 20
4976.5902500000002
 30
0.0
 40
15.0
 50
180.0
 51
0.0
  0
ARC
  5
410B
  8
0
  6
BYBLOCK
 62
     0
 10
9105.0340609999967
 20
4976.5902500000002
 30
0.0
 40
15.0
 50
0.0
 51
180.0
  0
ARC
  5
410C
  8
0
  6
BYBLOCK
 62
     0
 10
9105.0340609999967
 20
4976.5902500000002
 30
0.0
 40
15.0
 50
180.0
 51
0.0
  0
ARC
  5
410D
  8
0
  6
BYBLOCK
 62
     0
 10
9062.5340609999967
 20
4976.5902500000002
 30
0.0
 40
15.0
 50
180.0
 51
0.0
  0
ARC
  5
410E
  8
0
  6
BYBLOCK
 62
     0
 10
9062.5340609999967
 20
4976.5902500000002
 30
0.0
 40
15.0
 50
0.0
 51
180.0
  0
ARC
  5
410F
  8
0
  6
BYBLOCK
 62
     0
 10
12023.034061
 20
4976.5902500000002
 30
0.0
 40
15.0
 50
180.0
 51
0.0
  0
ARC
  5
4110
  8
0
  6
BYBLOCK
 62
     0
 10
12023.034061
 20
4976.5902500000002
 30
0.0
 40
15.0
 50
0.0
 51
180.0
  0
ARC
  5
4111
  8
0
  6
BYBLOCK
 62
     0
 10
9105.0340609999967
 20
4976.5902500000002
 30
0.0
 40
15.0
 50
0.0
 51
180.0
  0
ARC
  5
4112
  8
0
  6
BYBLOCK
 62
     0
 10
9105.0340609999967
 20
4976.5902500000002
 30
0.0
 40
15.0
 50
180.0
 51
0.0
  0
ARC
  5
4113
  8
0
  6
BYBLOCK
 62
     0
 10
12023.034061
 20
4976.590250000002
 30
0.0
 40
15.0
 50
0.0
 51
180.0
  0
ARC
  5
4114
  8
0
  6
BYBLOCK
 62
     0
 10
12023.034061
 20
4976.590250000002
 30
0.0
 40
15.0
 50
180.0
 51
0.0
  0
ARC
  5
4115
  8
0
  6
BYBLOCK
 62
     0
 10
15291.534061
 20
4976.590250000002
 30
0.0
 40
15.0
 50
180.0
 51
0.0
  0
ARC
  5
4116
  8
0
  6
BYBLOCK
 62
     0
 10
15291.534061
 20
4976.590250000002
 30
0.0
 40
15.0
 50
0.0
 51
180.0
  0
LINE
  5
423F
  8
0-1
  6
CONTINUOUS
 62
     3
 10
24565.32437599999
 20
8375.0901049999975
 30
0.0
 11
24565.32437599999
 21
8407.0900120000006
 31
0.0
  0
LINE
  5
4240
  8
0-1
  6
CONTINUOUS
 62
     3
 10
24714.323768999999
 20
8298.9033830000008
 30
0.0
 11
24671.321657999979
 21
8298.9033830000008
 31
0.0
  0
LINE
  5
4241
  8
0-1
  6
CONTINUOUS
 62
     3
 10
24714.323768999999
 20
8625.0904340000034
 30
0.0
 11
24714.323768999999
 21
8298.9033830000008
 31
0.0
  0
LINE
  5
4242
  8
0-1
  6
CONTINUOUS
 62
     3
 10
24279.357183000011
 20
8371.554683999997
 30
0.0
 11
24247.358265999999
 21
8403.5545919999968
 31
0.0
  0
LINE
  5
4243
  8
0-1
  6
CONTINUOUS
 62
     3
 10
24560.32411199998
 20
8412.0902760000008
 30
0.0
 11
24250.89368600001
 21
8412.0902760000008
 31
0.0
  0
LINE
  5
4244
  8
0-1
  6
CONTINUOUS
 62
     3
 10
24565.32437599999
 20
8403.6911790000031
 30
0.0
 11
24247.227617
 21
8403.6911790000031
 31
0.0
  0
LINE
  5
4245
  8
0-1
  6
CONTINUOUS
 62
     3
 10
24560.32411199998
 20
8370.0898410000009
 30
0.0
 11
24282.894583000001
 21
8370.0898410000009
 31
0.0
  0
LINE
  5
4246
  8
0-1
  6
CONTINUOUS
 62
     3
 10
24565.32437599999
 20
8378.4899280000009
 30
0.0
 11
24272.42292999999
 21
8378.4899280000009
 31
0.0
  0
LINE
  5
4247
  8
0-1
  6
CONTINUOUS
 62
     3
 10
24565.32437599999
 20
8386.8900149999954
 30
0.0
 11
24264.02383200001
 21
8386.8900149999954
 31
0.0
  0
LINE
  5
4248
  8
0-1
  6
CONTINUOUS
 62
     3
 10
24565.32437599999
 20
8395.2910919999995
 30
0.0
 11
24255.62275599999
 21
8395.2910919999995
 31
0.0
  0
LINE
  5
4249
  8
0-1
  6
CONTINUOUS
 62
     3
 10
23111.78758400002
 20
8371.554683999997
 30
0.0
 11
23143.78452200002
 21
8403.5545919999968
 31
0.0
  0
LINE
  5
424A
  8
0-1
  6
CONTINUOUS
 62
     3
 10
22825.82237000002
 20
8375.0901049999975
 30
0.0
 11
22825.82237000002
 21
8407.0900120000006
 31
0.0
  0
LINE
  5
424B
  8
0-1
  6
CONTINUOUS
 62
     3
 10
22825.82237000002
 20
8378.4899280000009
 30
0.0
 11
23118.719858
 21
8378.4899280000009
 31
0.0
  0
LINE
  5
424C
  8
0-1
  6
CONTINUOUS
 62
     3
 10
22825.82237000002
 20
8386.8900149999954
 30
0.0
 11
23127.12093500001
 21
8386.8900149999954
 31
0.0
  0
LINE
  5
424D
  8
0-1
  6
CONTINUOUS
 62
     3
 10
22830.822634
 20
8370.0898410000009
 30
0.0
 11
23108.250184000011
 21
8370.0898410000009
 31
0.0
  0
LINE
  5
424E
  8
0-1
  6
CONTINUOUS
 62
     3
 10
22825.82237000002
 20
8395.2910919999995
 30
0.0
 11
23135.520032000019
 21
8395.2910919999995
 31
0.0
  0
LINE
  5
424F
  8
0-1
  6
CONTINUOUS
 62
     3
 10
22825.82237000002
 20
8403.6911790000031
 30
0.0
 11
23143.917150000019
 21
8403.6911790000031
 31
0.0
  0
LINE
  5
4250
  8
0-1
  6
CONTINUOUS
 62
     3
 10
22830.822634
 20
8412.0902760000008
 30
0.0
 11
23140.251081000031
 21
8412.0902760000008
 31
0.0
  0
LINE
  5
4251
  8
0-1
  6
CONTINUOUS
 62
     3
 10
24714.32376900001
 20
8495.0895109999983
 30
0.0
 11
22762.321393999999
 21
8495.0895109999983
 31
0.0
  0
LINE
  5
4252
  8
0-1
  6
CONTINUOUS
 62
     3
 10
22804.819678000011
 20
8421.0901570000005
 30
0.0
 11
24586.323109000001
 21
8421.0901570000005
 31
0.0
  0
LINE
  5
4253
  8
0-1
  6
CONTINUOUS
 62
     3
 10
22804.819678000011
 20
8361.089958999999
 30
0.0
 11
24586.323109000001
 21
8361.089958999999
 31
0.0
  0
LINE
  5
4254
  8
0-1
  6
CONTINUOUS
 62
     3
 10
22762.321393999999
 20
8625.0904340000034
 30
0.0
 11
24714.32376900001
 21
8625.0904340000034
 31
0.0
  0
LINE
  5
4255
  8
0-1
  6
CONTINUOUS
 62
     3
 10
22698.820417999999
 20
8375.0901049999975
 30
0.0
 11
22698.820417999999
 21
8407.0900120000006
 31
0.0
  0
LINE
  5
4256
  8
0-1
  6
CONTINUOUS
 62
     3
 10
22412.85916299999
 20
8371.554683999997
 30
0.0
 11
22380.858265999999
 21
8403.5545919999968
 31
0.0
  0
LINE
  5
4257
  8
0-1
  6
CONTINUOUS
 62
     3
 10
22698.820417999999
 20
8403.6911790000031
 30
0.0
 11
22380.727617999979
 21
8403.6911790000031
 31
0.0
  0
LINE
  5
4258
  8
0-1
  6
CONTINUOUS
 62
     3
 10
22698.820417999999
 20
8395.2910919999995
 30
0.0
 11
22389.12275599999
 21
8395.2910919999995
 31
0.0
  0
LINE
  5
4259
  8
0-1
  6
CONTINUOUS
 62
     3
 10
22698.820417999999
 20
8386.8900149999954
 30
0.0
 11
22397.521852999998
 21
8386.8900149999954
 31
0.0
  0
LINE
  5
425A
  8
0-1
  6
CONTINUOUS
 62
     3
 10
22698.820417999999
 20
8378.4899280000009
 30
0.0
 11
22405.920950999978
 21
8378.4899280000009
 31
0.0
  0
LINE
  5
425B
  8
0-1
  6
CONTINUOUS
 62
     3
 10
22693.822133000001
 20
8412.0902760000008
 30
0.0
 11
22384.391706999999
 21
8412.0902760000008
 31
0.0
  0
LINE
  5
425C
  8
0-1
  6
CONTINUOUS
 62
     3
 10
22693.822133000001
 20
8370.0898410000009
 30
0.0
 11
22416.394583999991
 21
8370.0898410000009
 31
0.0
  0
LINE
  5
425D
  8
0-1
  6
CONTINUOUS
 62
     3
 10
20263.32065500001
 20
8370.0898410000009
 30
0.0
 11
20540.750184999972
 21
8370.0898410000009
 31
0.0
  0
LINE
  5
425E
  8
0-1
  6
CONTINUOUS
 62
     3
 10
20258.322370999998
 20
8375.0901049999975
 30
0.0
 11
20258.322370999998
 21
8407.0900120000006
 31
0.0
  0
LINE
  5
425F
  8
0-1
  6
CONTINUOUS
 62
     3
 10
20109.320998999981
 20
8298.9033830000008
 30
0.0
 11
20152.319151000011
 21
8298.9033830000008
 31
0.0
  0
LINE
  5
4260
  8
0-1
  6
CONTINUOUS
 62
     3
 10
20109.320998999981
 20
8298.9033830000008
 30
0.0
 11
20109.320998999981
 21
8625.0904340000034
 31
0.0
  0
LINE
  5
4261
  8
0-1
  6
CONTINUOUS
 62
     3
 10
20263.32065500001
 20
8412.0902760000008
 30
0.0
 11
20572.751081999999
 21
8412.0902760000008
 31
0.0
  0
LINE
  5
4262
  8
0-1
  6
CONTINUOUS
 62
     3
 10
20544.283625
 20
8371.554683999997
 30
0.0
 11
20576.284522999991
 21
8403.5545919999968
 31
0.0
  0
LINE
  5
4263
  8
0-1
  6
CONTINUOUS
 62
     3
 10
20258.322370999998
 20
8403.6911790000031
 30
0.0
 11
20576.417150000001
 21
8403.6911790000031
 31
0.0
  0
LINE
  5
4264
  8
0-1
  6
CONTINUOUS
 62
     3
 10
20258.322370999998
 20
8395.2910919999995
 30
0.0
 11
20568.020033000012
 21
8395.2910919999995
 31
0.0
  0
LINE
  5
4265
  8
0-1
  6
CONTINUOUS
 62
     3
 10
20258.322370999998
 20
8386.8900149999954
 30
0.0
 11
20559.620935000021
 21
8386.8900149999954
 31
0.0
  0
LINE
  5
4266
  8
0-1
  6
CONTINUOUS
 62
     3
 10
20258.322370999998
 20
8378.4899280000009
 30
0.0
 11
20551.221838000001
 21
8378.4899280000009
 31
0.0
  0
LINE
  5
4267
  8
0-1
  6
CONTINUOUS
 62
     3
 10
20237.319679000011
 20
8361.089958999999
 30
0.0
 11
22719.821129999989
 21
8361.089958999999
 31
0.0
  0
LINE
  5
4268
  8
0-1
  6
CONTINUOUS
 62
     3
 10
20237.319679000011
 20
8421.0901570000005
 30
0.0
 11
22719.821129999989
 21
8421.0901570000005
 31
0.0
  0
LINE
  5
4269
  8
0-1
  6
CONTINUOUS
 62
     3
 10
20109.320998999981
 20
8625.0904340000034
 30
0.0
 11
22762.321393999999
 21
8625.0904340000034
 31
0.0
  0
LINE
  5
426A
  8
0-1
  6
CONTINUOUS
 62
     3
 10
22762.321393999999
 20
8495.0895109999983
 30
0.0
 11
20109.320998999981
 21
8495.0895109999983
 31
0.0
  0
LINE
  5
426B
  8
0-1
  6
CONTINUOUS
 62
     3
 10
22762.321393999999
 20
8495.0895109999983
 30
0.0
 11
22762.321393999999
 21
8625.0904340000034
 31
0.0
  0
LINE
  5
426C
  8
0-1
  6
CONTINUOUS
 62
     3
 10
22762.321393999999
 20
8495.0895109999983
 30
0.0
 11
22762.321393999999
 21
8625.0904340000034
 31
0.0
  0
ARC
  5
426D
  8
0-1
  6
CONTINUOUS
 62
     3
 10
24560.32411199998
 20
8407.0900120000006
 30
0.0
 40
5.0
 50
0.0
 51
90.0
  0
ARC
  5
426E
  8
0-1
  6
CONTINUOUS
 62
     3
 10
24560.32411199998
 20
8375.0901049999975
 30
0.0
 40
5.0
 50
269.9999850001808
 51
0.0
  0
ARC
  5
426F
  8
0-1
  6
CONTINUOUS
 62
     3
 10
24250.89368600001
 20
8407.0900120000006
 30
0.0
 40
5.0
 50
90.0
 51
224.99998499997989
  0
ARC
  5
4270
  8
0-1
  6
CONTINUOUS
 62
     3
 10
24282.894583000001
 20
8375.0901049999975
 30
0.0
 40
5.0
 50
224.99998499997989
 51
269.9999850001808
  0
ARC
  5
4271
  8
0-1
  6
CONTINUOUS
 62
     3
 10
23140.251081000031
 20
8407.0900120000006
 30
0.0
 40
5.0
 50
314.99998500027471
 51
90.0
  0
ARC
  5
4272
  8
0-1
  6
CONTINUOUS
 62
     3
 10
23108.250184000011
 20
8375.0901049999975
 30
0.0
 40
5.0
 50
269.9999850001808
 51
314.99998500027471
  0
ARC
  5
4273
  8
0-1
  6
CONTINUOUS
 62
     3
 10
22830.822634
 20
8375.0901049999975
 30
0.0
 40
5.0
 50
180.0
 51
269.9999850001808
  0
ARC
  5
4274
  8
0-1
  6
CONTINUOUS
 62
     3
 10
22830.822634
 20
8407.0900120000006
 30
0.0
 40
5.0
 50
90.0
 51
180.0
  0
ARC
  5
4275
  8
0-1
  6
CONTINUOUS
 62
     3
 10
22693.822133000001
 20
8375.0901049999975
 30
0.0
 40
5.0
 50
269.9999850001808
 51
0.0
  0
ARC
  5
4276
  8
0-1
  6
CONTINUOUS
 62
     3
 10
22693.822133000001
 20
8407.0900120000006
 30
0.0
 40
5.0
 50
0.0
 51
90.0
  0
ARC
  5
4277
  8
0-1
  6
CONTINUOUS
 62
     3
 10
22384.391706999999
 20
8407.0900120000006
 30
0.0
 40
5.0
 50
90.0
 51
224.99998499997989
  0
ARC
  5
4278
  8
0-1
  6
CONTINUOUS
 62
     3
 10
22416.394583999991
 20
8375.0901049999975
 30
0.0
 40
5.0
 50
224.99998499997989
 51
269.9999850001808
  0
ARC
  5
4279
  8
0-1
  6
CONTINUOUS
 62
     3
 10
20572.751081999999
 20
8407.0900120000006
 30
0.0
 40
5.0
 50
314.99998500027471
 51
90.0
  0
ARC
  5
427A
  8
0-1
  6
CONTINUOUS
 62
     3
 10
20263.32065500001
 20
8407.0900120000006
 30
0.0
 40
5.0
 50
90.0
 51
180.0
  0
ARC
  5
427B
  8
0-1
  6
CONTINUOUS
 62
     3
 10
20263.32065500001
 20
8375.0901049999975
 30
0.0
 40
5.0
 50
180.0
 51
269.9999850001808
  0
ARC
  5
427C
  8
0-1
  6
CONTINUOUS
 62
     3
 10
20540.750184999972
 20
8375.0901049999975
 30
0.0
 40
5.0
 50
269.9999850001808
 51
314.99998500027471
  0
LINE
  5
427D
  8
SUNPOU
  6
CONTINUOUS
 62
     4
 10
20109.31901899998
 20
8705.0904340000034
 30
0.0
 11
20109.31901899998
 21
9904.5480460000017
 31
0.0
  0
LINE
  5
427E
  8
SUNPOU
  6
CONTINUOUS
 62
     4
 10
24714.323768999999
 20
8705.0904340000034
 30
0.0
 11
24714.323768999999
 21
9904.5480460000017
 31
0.0
  0
LINE
  5
427F
  8
SUNPOU
  6
CONTINUOUS
 62
     4
 10
20112.31901899998
 20
9824.5480459999999
 30
0.0
 11
24711.323768999999
 21
9824.5480459999999
 31
0.0
  0
LINE
  5
4280
  8
SUNPOU
  6
CONTINUOUS
 62
     4
 10
20152.321129999978
 20
8705.0904340000034
 30
0.0
 11
20152.321129999978
 21
9504.5902760000008
 31
0.0
  0
LINE
  5
4281
  8
SUNPOU
  6
CONTINUOUS
 62
     4
 10
24671.321657999979
 20
8705.0904340000034
 30
0.0
 11
24671.321657999979
 21
9504.5902760000008
 31
0.0
  0
LINE
  5
4282
  8
SUNPOU
  6
CONTINUOUS
 62
     4
 10
20152.321129999978
 20
9424.5902760000008
 30
0.0
 11
24671.321657999979
 21
9424.5902760000008
 31
0.0
  0
LINE
  5
4283
  8
SUNPOU
  6
CONTINUOUS
 62
     4
 10
20152.321129999978
 20
8705.0904340000034
 30
0.0
 11
20152.321129999978
 21
9504.5902760000008
 31
0.0
  0
LINE
  5
4284
  8
SUNPOU
  6
CONTINUOUS
 62
     4
 10
20109.31901899998
 20
8705.0904340000034
 30
0.0
 11
20109.31901899998
 21
9504.5902760000008
 31
0.0
  0
LINE
  5
4285
  8
SUNPOU
  6
CONTINUOUS
 62
     4
 10
20152.321129999978
 20
9424.5902760000008
 30
0.0
 11
20392.321129999978
 21
9424.5902760000008
 31
0.0
  0
LINE
  5
4286
  8
SUNPOU
  6
CONTINUOUS
 62
     4
 10
20112.31901899998
 20
9424.5902760000008
 30
0.0
 11
19872.319018999999
 21
9424.5902760000008
 31
0.0
  0
LINE
  5
4287
  8
SUNPOU
  6
CONTINUOUS
 62
     4
 10
20152.321129999978
 20
9424.5902760000008
 30
0.0
 11
20112.31901899998
 21
9424.5902760000008
 31
0.0
  0
LINE
  5
4288
  8
SUNPOU
  6
CONTINUOUS
 62
     4
 10
24671.321657999979
 20
8705.0904340000034
 30
0.0
 11
24671.321657999979
 21
9504.5902760000008
 31
0.0
  0
LINE
  5
4289
  8
SUNPOU
  6
CONTINUOUS
 62
     4
 10
24714.323768999999
 20
8705.0904340000034
 30
0.0
 11
24714.323768999999
 21
9504.5902760000008
 31
0.0
  0
LINE
  5
428A
  8
SUNPOU
  6
CONTINUOUS
 62
     4
 10
24671.321657999979
 20
9424.5902760000008
 30
0.0
 11
24431.321657999979
 21
9424.5902760000008
 31
0.0
  0
LINE
  5
428B
  8
SUNPOU
  6
CONTINUOUS
 62
     4
 10
24711.323768999999
 20
9424.5902760000008
 30
0.0
 11
24951.323768999999
 21
9424.5902760000008
 31
0.0
  0
LINE
  5
428C
  8
SUNPOU
  6
CONTINUOUS
 62
     4
 10
24671.321657999979
 20
9424.5902760000008
 30
0.0
 11
24711.323768999999
 21
9424.5902760000008
 31
0.0
  0
TEXT
  5
428D
  8
0
  6
CONTINUOUS
 62
     7
 10
24831.323768999999
 20
9504.5902760000008
 30
0.0
 40
160.0
  1
43
  0
TEXT
  5
428E
  8
0
  6
CONTINUOUS
 62
     7
 10
19752.319018999999
 20
9504.5902760000008
 30
0.0
 40
160.0
  1
43
  0
TEXT
  5
428F
  8
0
  6
CONTINUOUS
 62
     7
 10
22145.154727333331
 20
9504.5902760000008
 30
0.0
 40
160.0
  1
4519
  0
TEXT
  5
4290
  8
0
  6
CONTINUOUS
 62
     7
 10
22118.48806066667
 20
9904.5480460000017
 30
0.0
 40
160.0
  1
4605
  0
ARC
  5
4291
  8
0
  6
BYBLOCK
 62
     0
 10
20109.31901899998
 20
9824.5480459999999
 30
0.0
 40
15.0
 50
0.0
 51
180.0
  0
ARC
  5
4292
  8
0
  6
BYBLOCK
 62
     0
 10
20109.31901899998
 20
9824.5480459999999
 30
0.0
 40
15.0
 50
180.0
 51
0.0
  0
ARC
  5
4293
  8
0
  6
BYBLOCK
 62
     0
 10
24714.323768999999
 20
9824.5480459999999
 30
0.0
 40
15.0
 50
180.0
 51
0.0
  0
ARC
  5
4294
  8
0
  6
BYBLOCK
 62
     0
 10
24714.323768999999
 20
9824.5480459999999
 30
0.0
 40
15.0
 50
0.0
 51
180.0
  0
ARC
  5
4295
  8
0
  6
BYBLOCK
 62
     0
 10
20152.321129999978
 20
9424.5902760000008
 30
0.0
 40
15.0
 50
0.0
 51
180.0
  0
ARC
  5
4296
  8
0
  6
BYBLOCK
 62
     0
 10
20152.321129999978
 20
9424.5902760000008
 30
0.0
 40
15.0
 50
180.0
 51
0.0
  0
ARC
  5
4297
  8
0
  6
BYBLOCK
 62
     0
 10
24671.321657999979
 20
9424.5902760000008
 30
0.0
 40
15.0
 50
180.0
 51
0.0
  0
ARC
  5
4298
  8
0
  6
BYBLOCK
 62
     0
 10
24671.321657999979
 20
9424.5902760000008
 30
0.0
 40
15.0
 50
0.0
 51
180.0
  0
ARC
  5
4299
  8
0
  6
BYBLOCK
 62
     0
 10
20152.321129999978
 20
9424.5902760000008
 30
0.0
 40
15.0
 50
0.0
 51
180.0
  0
ARC
  5
429A
  8
0
  6
BYBLOCK
 62
     0
 10
20152.321129999978
 20
9424.5902760000008
 30
0.0
 40
15.0
 50
180.0
 51
0.0
  0
ARC
  5
429B
  8
0
  6
BYBLOCK
 62
     0
 10
20109.31901899998
 20
9424.5902760000008
 30
0.0
 40
15.0
 50
180.0
 51
0.0
  0
ARC
  5
429C
  8
0
  6
BYBLOCK
 62
     0
 10
20109.31901899998
 20
9424.5902760000008
 30
0.0
 40
15.0
 50
0.0
 51
180.0
  0
ARC
  5
429D
  8
0
  6
BYBLOCK
 62
     0
 10
24671.321657999979
 20
9424.5902760000008
 30
0.0
 40
15.0
 50
180.0
 51
0.0
  0
ARC
  5
429E
  8
0
  6
BYBLOCK
 62
     0
 10
24671.321657999979
 20
9424.5902760000008
 30
0.0
 40
15.0
 50
0.0
 51
180.0
  0
ARC
  5
429F
  8
0
  6
BYBLOCK
 62
     0
 10
24714.323768999999
 20
9424.5902760000008
 30
0.0
 40
15.0
 50
0.0
 51
180.0
  0
ARC
  5
42A0
  8
0
  6
BYBLOCK
 62
     0
 10
24714.323768999999
 20
9424.5902760000008
 30
0.0
 40
15.0
 50
180.0
 51
0.0
  0
LINE
  5
42CB
  8
SUNPOU
  6
CONTINUOUS
 62
     4
 10
9813.86663399998
 20
13435.73064999999
 30
0.0
 11
9813.86663399998
 21
12256.783818999989
 31
0.0
  0
LINE
  5
42CC
  8
SUNPOU
  6
CONTINUOUS
 62
     4
 10
14418.86544599998
 20
13432.73064999999
 30
0.0
 11
14418.86544599998
 21
12253.783818999989
 31
0.0
  0
LINE
  5
42CD
  8
SUNPOU
  6
CONTINUOUS
 62
     4
 10
9816.86663399998
 20
12333.783818999989
 30
0.0
 11
14415.86544599998
 21
12333.783818999989
 31
0.0
  0
TEXT
  5
42CE
  8
0
  6
CONTINUOUS
 62
     7
 10
11300.36603999997
 20
12413.783818999989
 30
0.0
 40
160.0
  1
ケラバ外寸 4605
  0
ARC
  5
42CF
  8
0
  6
BYBLOCK
 62
     0
 10
9813.86663399998
 20
12336.783818999989
 30
0.0
 40
15.0
 50
0.0
 51
180.0
  0
ARC
  5
42D0
  8
0
  6
BYBLOCK
 62
     0
 10
9813.86663399998
 20
12336.783818999989
 30
0.0
 40
15.0
 50
180.0
 51
0.0
  0
ARC
  5
42D1
  8
0
  6
BYBLOCK
 62
     0
 10
14418.86544599998
 20
12333.783818999989
 30
0.0
 40
15.0
 50
180.0
 51
0.0
  0
ARC
  5
42D2
  8
0
  6
BYBLOCK
 62
     0
 10
14418.86544599998
 20
12333.783818999989
 30
0.0
 40
15.0
 50
0.0
 51
180.0
  0
TEXT
  5
4325
  8
NAME
 10
25530.092913773471
 20
1076.0
 30
0.0
 40
360.0
  1
型（単棟）
 41
0.6
  7
01
  0
TEXT
  5
4326
  8
NAME
 10
21583.54782960087
 20
1076.6369801169251
 30
0.0
 40
360.0
  1
VGCU-2662（H）+1962（H）
 41
0.5200000000000001
  0
TEXT
  5
4328
  8
NAME
 10
21933.552716388978
 20
1876.0
 30
0.0
 40
360.0
  1
ヨドガレージ ラヴィージュ
 41
0.75
  7
01
  0
LINE
  5
4329
  8
NAME
  6
CONTINUOUS
 10
26067.88687888427
 20
2236.0
 30
0.0
 11
26067.88687888427
 21
1876.0
 31
0.0
  0
LINE
  5
432A
  8
NAME
  6
CONTINUOUS
 10
26167.886878884281
 20
2236.0
 30
0.0
 11
26167.886878884281
 21
1876.0
 31
0.0
  0
LINE
  5
432B
  8
NAME
  6
CONTINUOUS
 10
26267.886878884281
 20
2236.0
 30
0.0
 11
26267.886878884281
 21
1876.0
 31
0.0
  0
LINE
  5
432C
  8
NAME
  6
CONTINUOUS
 10
26007.886878884281
 20
2236.0
 30
0.0
 11
26327.886878884281
 21
2236.0
 31
0.0
  0
LINE
  5
432D
  8
NAME
  6
CONTINUOUS
 10
26327.886878884281
 20
1876.0
 30
0.0
 11
26007.886878884281
 21
1876.0
 31
0.0
  0
TEXT
  5
43C7
  8
FILENAME
  6
CONTINUOUS
 10
27537.333333333328
 20
348.0
 30
0.0
 40
200.0
  1
＜VGCU-2662+1962-1-A_0.DXF ＞
  7
FILENAME
 72
     2
 11
32764.0
 21
348.0
 31
0.0
  0
LINE
  5
43CD
  8
WAKUSEN-01
 10
868.00000000000193
 20
827.99999999999955
 30
0.0
 11
32764.000000000011
 21
827.99999999999943
 31
0.0
  0
LINE
  5
43CE
  8
WAKUSEN-01
 10
868.00000000000193
 20
827.99999999999955
 30
0.0
 11
868.00000000000193
 21
22484.000000000011
 31
0.0
  0
LINE
  5
43CF
  8
WAKUSEN-01
 10
32764.000000000011
 20
827.99999999999943
 30
0.0
 11
32764.000000000011
 21
22484.000000000011
 31
0.0
  0
LINE
  5
43D0
  8
WAKUSEN-01
 10
20560.0
 20
827.99999999999716
 30
0.0
 11
20560.0
 21
2484.0
 31
0.0
  0
LINE
  5
43D1
  8
WAKUSEN-02
 10
26868.0
 20
827.99999999999261
 30
0.0
 11
26868.0
 21
2484.0
 31
0.0
  0
ENDSEC
  0
EOF
