  0
SECTION
  2
HEADER
  9
$ACADVER
  1
AC1009
  9
$INSBASE
 10
0.0
 20
0.0
 30
0.0
  9
$EXTMIN
 10
867.99324330406671
 20
327.38164749855792
 30
-0.000000000000013
  9
$EXTMAX
 10
32765.33210850941
 20
22484.553276491992
 30
0.0000000000000023
  9
$LIMMIN
 10
0.0
 20
0.0
  9
$LIMMAX
 10
33600.0
 20
23760.0
  9
$ORTHOMODE
 70
     1
  9
$REGENMODE
 70
     1
  9
$FILLMODE
 70
     1
  9
$QTEXTMODE
 70
     0
  9
$MIRRTEXT
 70
     1
  9
$DRAGMODE
 70
     2
  9
$LTSCALE
 40
80.0
  9
$OSMODE
 70
  3071
  9
$ATTMODE
 70
     1
  9
$TEXTSIZE
 40
0.2
  9
$TRACEWID
 40
0.05
  9
$TEXTSTYLE
  7
00
  9
$CLAYER
  8
0
  9
$CELTYPE
  6
BYLAYER
  9
$CECOLOR
 62
   256
  9
$DIMSCALE
 40
80.0
  9
$DIMASZ
 40
3.0
  9
$DIMEXO
 40
1.0
  9
$DIMDLI
 40
0.38
  9
$DIMRND
 40
0.5
  9
$DIMDLE
 40
0.0
  9
$DIMEXE
 40
1.0
  9
$DIMTP
 40
0.0
  9
$DIMTM
 40
0.0
  9
$DIMTXT
 40
2.0
  9
$DIMCEN
 40
0.09
  9
$DIMTSZ
 40
0.0
  9
$DIMTOL
 70
     0
  9
$DIMLIM
 70
     0
  9
$DIMTIH
 70
     0
  9
$DIMTOH
 70
     0
  9
$DIMSE1
 70
     0
  9
$DIMSE2
 70
     0
  9
$DIMTAD
 70
     1
  9
$DIMZIN
 70
     8
  9
$DIMBLK
  1
DOTSMALL
  9
$DIMASO
 70
     1
  9
$DIMSHO
 70
     1
  9
$DIMPOST
  1

  9
$DIMAPOST
  1

  9
$DIMALT
 70
     0
  9
$DIMALTD
 70
     2
  9
$DIMALTF
 40
25.399999999999999
  9
$DIMLFAC
 40
1.0
  9
$DIMTOFL
 70
     1
  9
$DIMTVP
 40
0.0
  9
$DIMTIX
 70
     0
  9
$DIMSOXD
 70
     0
  9
$DIMSAH
 70
     0
  9
$DIMBLK1
  1

  9
$DIMBLK2
  1

  9
$DIMSTYLE
  2
SUNPOU
  9
$DIMCLRD
 70
     4
  9
$DIMCLRE
 70
     4
  9
$DIMCLRT
 70
     7
  9
$DIMTFAC
 40
1.0
  9
$DIMGAP
 40
1.0
  9
$LUNITS
 70
     2
  9
$LUPREC
 70
     4
  9
$SKETCHINC
 40
0.1
  9
$FILLETRAD
 40
0.0
  9
$AUNITS
 70
     0
  9
$AUPREC
 70
     0
  9
$MENU
  1
acad
  9
$ELEVATION
 40
0.0
  9
$PELEVATION
 40
0.0
  9
$THICKNESS
 40
0.0
  9
$LIMCHECK
 70
     0
  9
$BLIPMODE
 70
     1
  9
$CHAMFERA
 40
0.0
  9
$CHAMFERB
 40
0.0
  9
$SKPOLY
 70
     0
  9
$TDCREATE
 40
2311940.074984699
  9
$TDUPDATE
 40
2458942.44482625
  9
$TDINDWG
 40
0.0966299306
  9
$TDUSRTIMER
 40
0.0966292014
  9
$USRTIMER
 70
     1
  9
$ANGBASE
 50
0.0
  9
$ANGDIR
 70
     0
  9
$PDMODE
 70
     0
  9
$PDSIZE
 40
0.0
  9
$PLINEWID
 40
0.0
  9
$COORDS
 70
     1
  9
$SPLFRAME
 70
     0
  9
$SPLINETYPE
 70
     6
  9
$SPLINESEGS
 70
     8
  9
$ATTDIA
 70
     1
  9
$ATTREQ
 70
     1
  9
$HANDLING
 70
     1
  9
$HANDSEED
  5
40BE
  9
$SURFTAB1
 70
     6
  9
$SURFTAB2
 70
     6
  9
$SURFTYPE
 70
     6
  9
$SURFU
 70
     6
  9
$SURFV
 70
     6
  9
$UCSNAME
  2

  9
$UCSORG
 10
0.0
 20
0.0
 30
0.0
  9
$UCSXDIR
 10
1.0
 20
0.0
 30
0.0
  9
$UCSYDIR
 10
0.0
 20
1.0
 30
0.0
  9
$PUCSNAME
  2

  9
$PUCSORG
 10
0.0
 20
0.0
 30
0.0
  9
$PUCSXDIR
 10
1.0
 20
0.0
 30
0.0
  9
$PUCSYDIR
 10
0.0
 20
1.0
 30
0.0
  9
$USERI1
 70
     0
  9
$USERI2
 70
     0
  9
$USERI3
 70
     0
  9
$USERI4
 70
     0
  9
$USERI5
 70
     0
  9
$USERR1
 40
0.0
  9
$USERR2
 40
0.0
  9
$USERR3
 40
0.0
  9
$USERR4
 40
0.0
  9
$USERR5
 40
0.0
  9
$WORLDVIEW
 70
     1
  9
$SHADEDGE
 70
     3
  9
$SHADEDIF
 70
    70
  9
$TILEMODE
 70
     1
  9
$MAXACTVP
 70
    16
  9
$PLIMCHECK
 70
     0
  9
$PEXTMIN
 10
1.0000000000000000E+020
 20
1.0000000000000000E+020
 30
1.0000000000000000E+020
  9
$PEXTMAX
 10
-1.0000000000000000E+020
 20
-1.0000000000000000E+020
 30
-1.0000000000000000E+020
  9
$PLIMMIN
 10
0.0
 20
0.0
  9
$PLIMMAX
 10
12.0
 20
9.0
  9
$UNITMODE
 70
     0
  9
$VISRETAIN
 70
     0
  9
$PLINEGEN
 70
     1
  9
$PSLTSCALE
 70
     0
  0
ENDSEC
  0
SECTION
  2
TABLES
  0
TABLE
  2
VPORT
 70
     1
  0
VPORT
  2
*ACTIVE
 70
     0
 10
0.0
 20
0.0
 11
1.0
 21
1.0
 12
16800.0
 22
11880.0
 13
0.0
 23
0.0
 14
1.0
 24
1.0
 15
0.0
 25
0.0
 16
0.0
 26
0.0
 36
1.0
 17
0.0
 27
0.0
 37
0.0
 40
23981.023255813951
 41
2.195652173913043
 42
50.0
 43
0.0
 44
0.0
 50
0.0
 51
0.0
 71
     0
 72
 10000
 73
     1
 74
     1
 75
     0
 76
     0
 77
     0
 78
     0
  0
ENDTAB
  0
TABLE
  2
LTYPE
 70
     3
  0
LTYPE
  2
CONTINUOUS
 70
     0
  3
Solid line
 72
    65
 73
     0
 40
0.0
  0
LTYPE
  2
DASHED3
 70
     0
  3
------  ------  ------  ------  
 72
    65
 73
     2
 40
5.0
 49
3.75
 49
-1.25
  0
LTYPE
  2
CENTER2
 70
     0
  3
----------  --  ----------  --  
 72
    65
 73
     4
 40
20.0
 49
12.5
 49
-2.5
 49
2.5
 49
-2.5
  0
ENDTAB
  0
TABLE
  2
LAYER
 70
    18
  0
LAYER
  2
0
 70
     0
 62
     7
  6
CONTINUOUS
  0
LAYER
  2
SUNPOU
 70
     0
 62
     4
  6
CONTINUOUS
  0
LAYER
  2
0-1
 70
     0
 62
     7
  6
CONTINUOUS
  0
LAYER
  2
0-2
 70
     0
 62
     7
  6
CONTINUOUS
  0
LAYER
  2
0-5
 70
     0
 62
     7
  6
CONTINUOUS
  0
LAYER
  2
2-0
 70
     0
 62
     7
  6
CONTINUOUS
  0
LAYER
  2
0-6
 70
     0
 62
     7
  6
CONTINUOUS
  0
LAYER
  2
0-7
 70
     0
 62
     7
  6
CONTINUOUS
  0
LAYER
  2
0-8
 70
     0
 62
     7
  6
CONTINUOUS
  0
LAYER
  2
YODOROGO
 70
     0
 62
   130
  6
CONTINUOUS
  0
LAYER
  2
WAKUSEN-01
 70
     0
 62
    50
  6
CONTINUOUS
  0
LAYER
  2
WAKUSEN-02
 70
     0
 62
   130
  6
CONTINUOUS
  0
LAYER
  2
WAKUMOJI-01
 70
     0
 62
   130
  6
CONTINUOUS
  0
LAYER
  2
FILENAME
 70
     0
 62
     7
  6
CONTINUOUS
  0
LAYER
  2
NAME
 70
     0
 62
    20
  6
CONTINUOUS
  0
LAYER
  2
0-4
 70
     0
 62
     7
  6
CONTINUOUS
  0
ENDTAB
  0
TABLE
  2
STYLE
 70
     5
  0
STYLE
  2
STANDARD
 70
     0
 40
0.0
 41
1.0
 50
0.0
 71
     0
 42
0.0
  3
txt
  4
BIGFONT
  0
STYLE
  2
00
 70
     0
 40
0.0
 41
0.6666666666666666
 50
0.0
 71
     0
 42
0.2
  3
ROMANS
  4
BIGFONT
  0
STYLE
  2
01
 70
     0
 40
3.0
 41
1.0
 50
0.0
 71
     0
 42
0.2
  3
ROMANS
  4
BIGFONT
  0
STYLE
  2
WAKUMOJI
 70
     0
 40
3.0
 41
1.0
 50
0.0
 71
     0
 42
3.0
  3
SIMPLEX
  4
BIGFONT
  0
STYLE
  2
FILENAME
 70
     0
 40
200.0
 41
1.0
 50
0.0
 71
     0
 42
200.0
  3
romans
  4
bigfont
  0
ENDTAB
  0
TABLE
  2
VIEW
 70
     0
  0
ENDTAB
  0
TABLE
  2
UCS
 70
     0
  0
ENDTAB
  0
TABLE
  2
APPID
 70
    13
  0
APPID
  2
ACAD
 70
     0
  0
APPID
  2
ACADANNOTATIVE
 70
     0
  0
APPID
  2
ACAD_PSEXT
 70
     0
  0
APPID
  2
DCO15
 70
     0
  0
APPID
  2
ACAD_MLEADERVER
 70
     0
  0
APPID
  2
AUTOCAD_POSTSCRIPT_FIGURE
 70
     0
  0
APPID
  2
ACAD_EXEMPT_FROM_CAD_STANDARDS
 70
     0
  0
APPID
  2
ACAD_DSTYLE_DIMJAG
 70
     0
  0
APPID
  2
ACAD_DSTYLE_DIMTALN
 70
     0
  0
APPID
  2
ACAD_DSTYLE_DIM_LINETYPE
 70
     0
  0
APPID
  2
ACAD_DSTYLE_DIM_EXT1_LINETYPE
 70
     0
  0
APPID
  2
ACAD_DSTYLE_DIM_EXT2_LINETYPE
 70
     0
  0
APPID
  2
ACAD_NAV_VCDISPLAY
 70
     0
  0
ENDTAB
  0
TABLE
  2
DIMSTYLE
 70
     2
  0
DIMSTYLE
  2
SUNPOU
 70
     0
  3

  4

  5

  6

  7

 40
80.0
 41
3.0
 42
1.0
 43
0.38
 44
1.0
 45
0.5
 46
0.0
 47
0.0
 48
0.0
140
2.0
141
0.09
142
0.0
143
25.399999999999999
144
1.0
145
0.0
146
1.0
147
1.0
 71
     0
 72
     0
 73
     0
 74
     0
 75
     0
 76
     0
 77
     1
 78
     8
170
     0
171
     2
172
     1
173
     0
174
     0
175
     0
176
     4
177
     4
178
     7
  0
ENDTAB
  0
ENDSEC
  0
SECTION
  2
BLOCKS
  0
BLOCK
  8
0
  2
$MODEL_SPACE
 70
     0
 10
0.0
 20
0.0
 30
0.0
  3
$MODEL_SPACE
  1

  0
ENDBLK
  5
351B
  8
0
  0
BLOCK
 67
     1
  8
0
  2
$PAPER_SPACE
 70
     0
 10
0.0
 20
0.0
 30
0.0
  3
$PAPER_SPACE
  1

  0
ENDBLK
  5
3517
 67
     1
  8
0
  0
BLOCK
  8
0
  2
_DOTSMALL
 70
     0
 10
0.0
 20
0.0
 30
0.0
  3
_DOTSMALL
  1

  0
POLYLINE
  5
354B
  8
0
  6
BYBLOCK
 62
     0
 66
     1
 10
0.0
 20
0.0
 30
0.0
 70
     1
 40
0.5
 41
0.5
  0
VERTEX
  5
4086
  8
0
  6
BYBLOCK
 62
     0
 10
-0.0625
 20
0.0
 30
0.0
 42
1.0
  0
VERTEX
  5
4087
  8
0
  6
BYBLOCK
 62
     0
 10
0.0625
 20
0.0
 30
0.0
 42
1.0
  0
SEQEND
  5
4088
  8
0
  6
BYBLOCK
 62
     0
  0
ENDBLK
  5
354F
  8
0
  0
ENDSEC
  0
SECTION
  2
ENTITIES
  0
LINE
  5
3550
  8
0-1
  6
CONTINUOUS
 62
     3
 10
10051.45443199999
 20
14019.229582
 30
0.0
 11
10051.45443199999
 21
19680.043176999989
 31
0.0
  0
LINE
  5
3551
  8
0-1
  6
CONTINUOUS
 62
     3
 10
10093.95568599999
 20
14019.229582
 30
0.0
 11
10093.95568599999
 21
19655.77032
 31
0.0
  0
LINE
  5
3552
  8
0-1
  6
CONTINUOUS
 62
     3
 10
10008.456278999991
 20
13863.230651
 30
0.0
 11
10008.456278999991
 21
20104.228275000001
 31
0.0
  0
LINE
  5
3553
  8
0-1
  6
CONTINUOUS
 62
     3
 10
10143.95432599999
 20
13895.229568000001
 30
0.0
 11
10143.95432599999
 21
20094.231178000002
 31
0.0
  0
LINE
  5
3554
  8
0-1
  6
CONTINUOUS
 62
     3
 10
10093.95568599999
 20
15469.97102950003
 30
0.0
 11
14527.95568599999
 21
15469.97102950003
 31
0.0
  0
LINE
  5
3555
  8
0-1
  6
CONTINUOUS
 62
     3
 10
10093.95568599999
 20
15559.96984150002
 30
0.0
 11
14527.95568599999
 21
15559.96984150002
 31
0.0
  0
LINE
  5
3556
  8
0-1
  6
CONTINUOUS
 62
     3
 10
10008.456278999991
 20
13895.229568000001
 30
0.0
 11
14613.456082000001
 21
13895.229568000001
 31
0.0
  0
LINE
  5
3557
  8
0-1
  6
CONTINUOUS
 62
     3
 10
10008.456278999991
 20
13863.230651
 30
0.0
 11
14613.456082000001
 21
13863.230651
 31
0.0
  0
LINE
  5
3558
  8
0-1
  6
CONTINUOUS
 62
     3
 10
10093.95568599999
 20
14098.229198999999
 30
0.0
 11
14527.95568599999
 21
14098.229198999999
 31
0.0
  0
LINE
  5
3559
  8
0-1
  6
CONTINUOUS
 62
     3
 10
10051.45443199999
 20
14019.229582
 30
0.0
 11
14570.45495999999
 21
14019.229582
 31
0.0
  0
LINE
  5
355A
  8
0-1
  6
CONTINUOUS
 62
     3
 10
12591.45595
 20
14055.730913999991
 30
0.0
 11
10163.95641099999
 21
15514.971425500011
 31
0.0
  0
LINE
  5
355B
  8
0-1
  6
CONTINUOUS
 62
     3
 10
10163.95641099999
 20
14055.730913999991
 30
0.0
 11
12591.45595
 21
15514.971425500011
 31
0.0
  0
LINE
  5
355C
  8
0-1
  6
CONTINUOUS
 62
     3
 10
12591.45595
 20
16973.730914
 30
0.0
 11
10163.95641099999
 21
18432.730914
 31
0.0
  0
LINE
  5
355D
  8
0-1
  6
CONTINUOUS
 62
     3
 10
12591.45595
 20
16973.730914
 30
0.0
 11
10163.95641099999
 21
15514.971425500011
 31
0.0
  0
LINE
  5
355E
  8
0-1
  6
CONTINUOUS
 62
     3
 10
12591.45595
 20
15514.971425500011
 30
0.0
 11
10163.95641099999
 21
16973.730914
 31
0.0
  0
LINE
  5
355F
  8
0-1
  6
CONTINUOUS
 62
     3
 10
10093.95568599999
 20
18387.728537999999
 30
0.0
 11
12004.70684699999
 21
18387.728537999999
 31
0.0
  0
LINE
  5
3560
  8
0-1
  6
CONTINUOUS
 62
     3
 10
10093.95568599999
 20
16928.728537999988
 30
0.0
 11
14274.062579999991
 21
16928.728537999988
 31
0.0
  0
LINE
  5
3561
  8
0-1
  6
CONTINUOUS
 62
     3
 10
10093.95568599999
 20
17007.731124999991
 30
0.0
 11
14118.20518399998
 21
17007.731124999991
 31
0.0
  0
LINE
  5
3562
  8
0-1
  6
CONTINUOUS
 62
     3
 10
10093.95568599999
 20
18477.731309999999
 30
0.0
 11
11867.118428
 21
18477.731309999999
 31
0.0
  0
LINE
  5
3563
  8
0-1
  6
CONTINUOUS
 62
     3
 10
10084.95778399998
 20
20094.231178000002
 30
0.0
 11
14536.953588
 21
20094.231178000002
 31
0.0
  0
LINE
  5
3564
  8
0-1
  6
CONTINUOUS
 62
     3
 10
10026.45802099998
 20
19692.611140000001
 30
0.0
 11
10026.45802099998
 21
20096.727878999998
 31
0.0
  0
LINE
  5
3565
  8
0-1
  6
CONTINUOUS
 62
     3
 10
10081.95778399998
 20
20079.230913999989
 30
0.0
 11
10081.95778399998
 21
20109.228538999989
 31
0.0
  0
LINE
  5
3566
  8
0-1
  6
CONTINUOUS
 62
     3
 10
10008.456278999991
 20
20109.228538999989
 30
0.0
 11
10008.456278999991
 21
20074.230650000001
 31
0.0
  0
LINE
  5
3567
  8
0-1
  6
CONTINUOUS
 62
     3
 10
10076.957519999991
 20
20114.228803000002
 30
0.0
 11
10013.456542999969
 21
20114.228803000002
 31
0.0
  0
LINE
  5
3568
  8
0-1
  6
CONTINUOUS
 62
     3
 10
10026.45802099998
 20
20096.727878999998
 30
0.0
 11
10008.456278999991
 21
20096.727878999998
 31
0.0
  0
LINE
  5
3569
  8
0-1
  6
CONTINUOUS
 62
     3
 10
10026.45802099998
 20
20074.230650000001
 30
0.0
 11
10076.957519999991
 21
20074.230650000001
 31
0.0
  0
LINE
  5
356A
  8
0-1
  6
CONTINUOUS
 62
     3
 10
14595.45434
 20
16771.653739000001
 30
0.0
 11
14595.45434
 21
20096.727878999998
 31
0.0
  0
LINE
  5
356B
  8
0-1
  6
CONTINUOUS
 62
     3
 10
14613.456082000001
 20
13863.230651
 30
0.0
 11
14613.456082000001
 21
20104.228275000001
 31
0.0
  0
LINE
  5
356C
  8
0-1
  6
CONTINUOUS
 62
     3
 10
12731.45641099999
 20
16973.730914
 30
0.0
 11
14457.95595
 21
15514.971425500011
 31
0.0
  0
LINE
  5
356D
  8
0-1
  6
CONTINUOUS
 62
     3
 10
12731.45641099999
 20
14055.730913999991
 30
0.0
 11
14457.95595
 21
15514.971425500011
 31
0.0
  0
LINE
  5
356E
  8
0-1
  6
CONTINUOUS
 62
     3
 10
12661.45568599999
 20
14019.229582
 30
0.0
 11
12661.45568599999
 21
15469.97102950003
 31
0.0
  0
LINE
  5
356F
  8
0-1
  6
CONTINUOUS
 62
     3
 10
12604.45445799998
 20
14098.229198999999
 30
0.0
 11
12604.45445799998
 21
15469.97102950003
 31
0.0
  0
LINE
  5
3570
  8
0-1
  6
CONTINUOUS
 62
     3
 10
12718.45592299999
 20
14098.229198999999
 30
0.0
 11
12718.45592299999
 21
15469.97102950003
 31
0.0
  0
LINE
  5
3571
  8
0-1
  6
CONTINUOUS
 62
     3
 10
12661.45568599999
 20
14098.229198999999
 30
0.0
 11
12661.45568599999
 21
15119.96937950002
 31
0.0
  0
LINE
  5
3572
  8
0-1
  6
CONTINUOUS
 62
     3
 10
12718.45592299999
 20
17007.731124999991
 30
0.0
 11
12718.45592299999
 21
17744.992711999981
 31
0.0
  0
LINE
  5
3573
  8
0-1
  6
CONTINUOUS
 62
     3
 10
12604.45445799998
 20
17007.731124999991
 30
0.0
 11
12604.45445799998
 21
18013.918228999992
 31
0.0
  0
LINE
  5
3574
  8
0-1
  6
CONTINUOUS
 62
     3
 10
12661.45568599999
 20
17007.731124999991
 30
0.0
 11
12661.45568599999
 21
17879.455470000001
 31
0.0
  0
LINE
  5
3575
  8
0-1
  6
CONTINUOUS
 62
     3
 10
12661.45568599999
 20
17007.731124999991
 30
0.0
 11
12661.45568599999
 21
17529.45679
 31
0.0
  0
LINE
  5
3576
  8
0-1
  6
CONTINUOUS
 62
     3
 10
12718.45592299999
 20
15559.96984150002
 30
0.0
 11
12718.45592299999
 21
16928.728537999988
 31
0.0
  0
LINE
  5
3577
  8
0-1
  6
CONTINUOUS
 62
     3
 10
12604.45445799998
 20
15559.96984150002
 30
0.0
 11
12604.45445799998
 21
16928.728537999988
 31
0.0
  0
LINE
  5
3578
  8
0-1
  6
CONTINUOUS
 62
     3
 10
12661.45568599999
 20
15559.96984150002
 30
0.0
 11
12661.45568599999
 21
16928.728537999988
 31
0.0
  0
LINE
  5
3579
  8
0-1
  6
CONTINUOUS
 62
     3
 10
12661.45568599999
 20
15559.96984150002
 30
0.0
 11
12661.45568599999
 21
15469.97102950003
 31
0.0
  0
LINE
  5
357A
  8
0-1
  6
CONTINUOUS
 62
     3
 10
12661.45568599999
 20
17007.731124999991
 30
0.0
 11
12661.45568599999
 21
16928.728537999988
 31
0.0
  0
LINE
  5
357B
  8
0-1
  6
CONTINUOUS
 62
     3
 10
14527.95568599999
 20
14019.229582
 30
0.0
 11
14527.95568599999
 21
16804.349447000001
 31
0.0
  0
LINE
  5
357C
  8
0-1
  6
CONTINUOUS
 62
     3
 10
14570.45495999999
 20
14019.229582
 30
0.0
 11
14570.45495999999
 21
16782.80634599999
 31
0.0
  0
LINE
  5
357D
  8
0-1
  6
CONTINUOUS
 62
     3
 10
14595.45434
 20
20096.727878999998
 30
0.0
 11
14613.456082000001
 21
20096.727878999998
 31
0.0
  0
LINE
  5
357E
  8
0-1
  6
CONTINUOUS
 62
     3
 10
14613.456082000001
 20
20109.228538999989
 30
0.0
 11
14613.456082000001
 21
20074.230650000001
 31
0.0
  0
LINE
  5
357F
  8
0-1
  6
CONTINUOUS
 62
     3
 10
14539.953588
 20
20079.230913999989
 30
0.0
 11
14539.953588
 21
20109.228538999989
 31
0.0
  0
LINE
  5
3580
  8
0-1
  6
CONTINUOUS
 62
     3
 10
14595.45434
 20
20074.230650000001
 30
0.0
 11
14544.95583099999
 21
20074.230650000001
 31
0.0
  0
LINE
  5
3581
  8
0-1
  6
CONTINUOUS
 62
     3
 10
14544.95583099999
 20
20114.228803000002
 30
0.0
 11
14608.455818
 21
20114.228803000002
 31
0.0
  0
LINE
  5
3582
  8
0-1
  6
CONTINUOUS
 62
     3
 10
12113.95449799999
 20
18316.269896999991
 30
0.0
 11
12113.95449799999
 21
20094.231178000002
 31
0.0
  0
LINE
  5
3583
  8
0-1
  6
CONTINUOUS
 62
     3
 10
12150.956648999991
 20
18292.066322999981
 30
0.0
 11
12150.956648999991
 21
20094.231178000002
 31
0.0
  0
LINE
  5
3584
  8
0-1
  6
CONTINUOUS
 62
     3
 10
12313.955157999981
 20
18248.829678999991
 30
0.0
 11
12313.955157999981
 21
20094.231178000002
 31
0.0
  0
LINE
  5
3585
  8
0-1
  6
CONTINUOUS
 62
     3
 10
12350.954339999989
 20
18292.206869000001
 30
0.0
 11
12350.954339999989
 21
20094.231178000002
 31
0.0
  0
LINE
  5
3586
  8
0-1
  6
CONTINUOUS
 62
     3
 10
12513.955817999989
 20
18227.407329000001
 30
0.0
 11
12513.955817999989
 21
20094.231178000002
 31
0.0
  0
LINE
  5
3587
  8
0-1
  6
CONTINUOUS
 62
     3
 10
12550.95400999999
 20
18140.124415999991
 30
0.0
 11
12550.95400999999
 21
20094.231178000002
 31
0.0
  0
LINE
  5
3588
  8
0-1
  6
CONTINUOUS
 62
     3
 10
13750.954999
 20
17193.877133999991
 30
0.0
 11
13750.954999
 21
20094.231178000002
 31
0.0
  0
LINE
  5
3589
  8
0-1
  6
CONTINUOUS
 62
     3
 10
13713.95680699998
 20
17212.631093
 30
0.0
 11
13713.95680699998
 21
20094.231178000002
 31
0.0
  0
LINE
  5
358A
  8
0-1
  6
CONTINUOUS
 62
     3
 10
13550.95532899998
 20
17300.250313
 30
0.0
 11
13550.95532899998
 21
20094.231178000002
 31
0.0
  0
LINE
  5
358B
  8
0-1
  6
CONTINUOUS
 62
     3
 10
13513.95515799999
 20
17319.006251999988
 30
0.0
 11
13513.95515799999
 21
20094.231178000002
 31
0.0
  0
LINE
  5
358C
  8
0-1
  6
CONTINUOUS
 62
     3
 10
13350.95565899999
 20
17401.625419
 30
0.0
 11
13350.95565899999
 21
20094.231178000002
 31
0.0
  0
LINE
  5
358D
  8
0-1
  6
CONTINUOUS
 62
     3
 10
13313.95449799999
 20
17420.379378000001
 30
0.0
 11
13313.95449799999
 21
20094.231178000002
 31
0.0
  0
LINE
  5
358E
  8
0-1
  6
CONTINUOUS
 62
     3
 10
13150.95400999999
 20
17502.998544999991
 30
0.0
 11
13150.95400999999
 21
20094.231178000002
 31
0.0
  0
LINE
  5
358F
  8
0-1
  6
CONTINUOUS
 62
     3
 10
13113.955818
 20
17521.752503999978
 30
0.0
 11
13113.955818
 21
20094.231178000002
 31
0.0
  0
LINE
  5
3590
  8
0-1
  6
CONTINUOUS
 62
     3
 10
12950.95434
 20
17454.696311999989
 30
0.0
 11
12950.95434
 21
20094.231178000002
 31
0.0
  0
LINE
  5
3591
  8
0-1
  6
CONTINUOUS
 62
     3
 10
12913.955157999981
 20
17411.31912099999
 30
0.0
 11
12913.955157999981
 21
20094.231178000002
 31
0.0
  0
LINE
  5
3592
  8
0-1
  6
CONTINUOUS
 62
     3
 10
12750.955658999999
 20
17668.325957000001
 30
0.0
 11
12750.955658999999
 21
20094.231178000002
 31
0.0
  0
LINE
  5
3593
  8
0-1
  6
CONTINUOUS
 62
     3
 10
12713.95449799999
 20
17755.60887
 30
0.0
 11
12713.95449799999
 21
20094.231178000002
 31
0.0
  0
LINE
  5
3594
  8
0-1
  6
CONTINUOUS
 62
     3
 10
13950.95565899999
 20
17092.504008
 30
0.0
 11
13950.95565899999
 21
20094.231178000002
 31
0.0
  0
LINE
  5
3595
  8
0-1
  6
CONTINUOUS
 62
     3
 10
13987.954840999981
 20
17073.748069000001
 30
0.0
 11
13987.954840999981
 21
20094.231178000002
 31
0.0
  0
LINE
  5
3596
  8
0-1
  6
CONTINUOUS
 62
     3
 10
14150.953349999991
 20
16991.128902
 30
0.0
 11
14150.953349999991
 21
20094.231178000002
 31
0.0
  0
LINE
  5
3597
  8
0-1
  6
CONTINUOUS
 62
     3
 10
14187.956491000001
 20
16972.374942999992
 30
0.0
 11
14187.956491000001
 21
20094.231178000002
 31
0.0
  0
LINE
  5
3598
  8
0-1
  6
CONTINUOUS
 62
     3
 10
14350.954999
 20
16889.755775999991
 30
0.0
 11
14350.954999
 21
20094.231178000002
 31
0.0
  0
LINE
  5
3599
  8
0-1
  6
CONTINUOUS
 62
     3
 10
14387.95418099999
 20
16871.001817
 30
0.0
 11
14387.95418099999
 21
20094.231178000002
 31
0.0
  0
LINE
  5
359A
  8
0-1
  6
CONTINUOUS
 62
     3
 10
12279.25122799999
 20
18208.142653999988
 30
0.0
 11
9860.2616399999861
 21
19789.247277999992
 31
0.0
  0
LINE
  5
359B
  8
0-1
  6
CONTINUOUS
 62
     3
 10
12279.25122799999
 20
18208.142653999988
 30
0.0
 11
12441.48960099999
 21
18398.350634999992
 31
0.0
  0
LINE
  5
359C
  8
0-1
  6
CONTINUOUS
 62
     3
 10
12877.84873899999
 20
17368.987116
 30
0.0
 11
12441.48960099999
 21
18398.350634999992
 31
0.0
  0
LINE
  5
359D
  8
0-1
  6
CONTINUOUS
 62
     3
 10
14761.651711
 20
16685.895055000001
 30
0.0
 11
13040.084143
 21
17559.195098
 31
0.0
  0
LINE
  5
359E
  8
0-1
  6
CONTINUOUS
 62
     3
 10
12877.84873899999
 20
17368.987116
 30
0.0
 11
13040.084143
 21
17559.195098
 31
0.0
  0
LINE
  5
359F
  8
0-1
  6
CONTINUOUS
 62
     3
 10
12731.45641099999
 20
16973.730914
 30
0.0
 11
13276.016035000001
 21
17439.610401000002
 31
0.0
  0
LINE
  5
35A0
  8
0-1
  6
CONTINUOUS
 62
     3
 10
12731.45641099999
 20
15514.971425500011
 30
0.0
 11
14457.95595
 21
14055.730913999991
 31
0.0
  0
LINE
  5
35A1
  8
0-1
  6
CONTINUOUS
 62
     3
 10
12731.45641099999
 20
15514.971425500011
 30
0.0
 11
14350.503669
 21
16889.985401000002
 31
0.0
  0
LINE
  5
35A2
  8
0-1
  6
CONTINUOUS
 62
     3
 10
11950.95598899998
 20
18422.888747000001
 30
0.0
 11
11950.95598899998
 21
20094.231178000002
 31
0.0
  0
LINE
  5
35A3
  8
0-1
  6
CONTINUOUS
 62
     3
 10
11913.955818
 20
18447.092320999989
 30
0.0
 11
11913.955818
 21
20094.231178000002
 31
0.0
  0
LINE
  5
35A4
  8
0-1
  6
CONTINUOUS
 62
     3
 10
11750.95434
 20
18553.71513
 30
0.0
 11
11750.95434
 21
20094.231178000002
 31
0.0
  0
LINE
  5
35A5
  8
0-1
  6
CONTINUOUS
 62
     3
 10
11713.955158000001
 20
18577.918704
 30
0.0
 11
11713.955158000001
 21
20094.231178000002
 31
0.0
  0
LINE
  5
35A6
  8
0-1
  6
CONTINUOUS
 62
     3
 10
11550.956648999991
 20
18689.537606999991
 30
0.0
 11
11550.956648999991
 21
20094.231178000002
 31
0.0
  0
LINE
  5
35A7
  8
0-1
  6
CONTINUOUS
 62
     3
 10
11513.953508000001
 20
18713.743160999991
 30
0.0
 11
11513.953508000001
 21
20094.231178000002
 31
0.0
  0
LINE
  5
35A8
  8
0-1
  6
CONTINUOUS
 62
     3
 10
10913.953507999981
 20
19106.214391999991
 30
0.0
 11
10913.953507999981
 21
20094.231178000002
 31
0.0
  0
LINE
  5
35A9
  8
0-1
  6
CONTINUOUS
 62
     3
 10
10950.956649
 20
19082.014776999978
 30
0.0
 11
10950.956649
 21
20094.231178000002
 31
0.0
  0
LINE
  5
35AA
  8
0-1
  6
CONTINUOUS
 62
     3
 10
11113.955158000001
 20
18975.391968
 30
0.0
 11
11113.955158000001
 21
20094.231178000002
 31
0.0
  0
LINE
  5
35AB
  8
0-1
  6
CONTINUOUS
 62
     3
 10
11150.95434
 20
18951.186414
 30
0.0
 11
11150.95434
 21
20094.231178000002
 31
0.0
  0
LINE
  5
35AC
  8
0-1
  6
CONTINUOUS
 62
     3
 10
11313.955818
 20
18844.565585
 30
0.0
 11
11313.955818
 21
20094.231178000002
 31
0.0
  0
LINE
  5
35AD
  8
0-1
  6
CONTINUOUS
 62
     3
 10
11350.95499899999
 20
18820.363990000002
 30
0.0
 11
11350.95499899999
 21
20094.231178000002
 31
0.0
  0
LINE
  5
35AE
  8
0-1
  6
CONTINUOUS
 62
     3
 10
10750.95499899999
 20
19212.837200999991
 30
0.0
 11
10750.95499899999
 21
20094.231178000002
 31
0.0
  0
LINE
  5
35AF
  8
0-1
  6
CONTINUOUS
 62
     3
 10
10713.955817999969
 20
19237.040775000001
 30
0.0
 11
10713.955817999969
 21
20094.231178000002
 31
0.0
  0
LINE
  5
35B0
  8
0-1
  6
CONTINUOUS
 62
     3
 10
10550.954339999969
 20
19343.663584000002
 30
0.0
 11
10550.954339999969
 21
20094.231178000002
 31
0.0
  0
LINE
  5
35B1
  8
0-1
  6
CONTINUOUS
 62
     3
 10
10513.955158000001
 20
19367.865178
 30
0.0
 11
10513.955158000001
 21
20094.231178000002
 31
0.0
  0
LINE
  5
35B2
  8
0-1
  6
CONTINUOUS
 62
     3
 10
10341.45687299999
 20
19474.487988000001
 30
0.0
 11
10341.45687299999
 21
20094.231178000002
 31
0.0
  0
LINE
  5
35B3
  8
0-1
  6
CONTINUOUS
 62
     3
 10
10304.454721999969
 20
19498.687602000002
 30
0.0
 11
10304.454721999969
 21
20094.231178000002
 31
0.0
  0
LINE
  5
35B4
  8
0-1
  6
CONTINUOUS
 62
     3
 10
10163.95641099999
 20
18432.730914
 30
0.0
 11
11091.745949
 21
18989.919654999991
 31
0.0
  0
LINE
  5
35B5
  8
0-1
  6
CONTINUOUS
 62
     3
 10
10163.95641099999
 20
16973.730914
 30
0.0
 11
12249.899915999989
 21
18227.342003999991
 31
0.0
  0
LINE
  5
35B6
  8
0-1
  6
CONTINUOUS
 62
     3
 10
12343.782543999991
 20
18283.799854000001
 30
0.0
 11
12460.337588
 21
18353.884709000002
 31
0.0
  0
LINE
  5
35B7
  8
0-1
  6
CONTINUOUS
 62
     3
 10
12661.45568599999
 20
14019.229582
 30
0.0
 11
12661.45568599999
 21
13863.230651
 31
0.0
  0
LINE
  5
35B8
  8
0-6
  6
CONTINUOUS
 62
     6
 10
14874.544646
 20
15904.95023099999
 30
0.0
 11
15754.542600000001
 21
15904.95023099999
 31
0.0
  0
LINE
  5
35B9
  8
0-6
  6
CONTINUOUS
 62
     6
 10
14812.220493000001
 20
17379.144025999991
 30
0.0
 11
16806.664643999989
 21
17379.144025999991
 31
0.0
  0
LINE
  5
35BA
  8
0-6
  6
CONTINUOUS
 62
     6
 10
14812.220493000001
 20
18838.144025999991
 30
0.0
 11
16806.664643999989
 21
18838.144025999991
 31
0.0
  0
LINE
  5
35BB
  8
0-6
  6
CONTINUOUS
 62
     6
 10
14812.220493000001
 20
15061.65672150002
 30
0.0
 11
16806.664643999989
 21
15061.65672150002
 31
0.0
  0
LINE
  5
35BC
  8
0-6
  6
CONTINUOUS
 62
     6
 10
13904.242980000001
 20
15411.912739500011
 30
0.0
 11
14812.220493000001
 21
15061.65672150002
 31
0.0
  0
LINE
  5
35BD
  8
0-6
  6
CONTINUOUS
 62
     6
 10
14233.251834999999
 20
15702.70974599998
 30
0.0
 11
14874.544646
 21
15904.95023099999
 31
0.0
  0
LINE
  5
35BE
  8
0-6
  6
CONTINUOUS
 62
     6
 10
13906.679766999991
 20
17070.089918999991
 30
0.0
 11
14812.220493000001
 21
17379.144025999991
 31
0.0
  0
LINE
  5
35BF
  8
0-6
  6
CONTINUOUS
 62
     6
 10
13906.679766999991
 20
18529.089918999991
 30
0.0
 11
14812.220493000001
 21
18838.144025999991
 31
0.0
  0
LINE
  5
35C0
  8
0-6
  6
CONTINUOUS
 62
     6
 10
9963.5608379999867
 20
14358.74352950001
 30
0.0
 11
9405.0564959999938
 21
12573.23084799999
 31
0.0
  0
LINE
  5
35C1
  8
0-6
  6
CONTINUOUS
 62
     6
 10
8325.0588709999975
 20
12573.23084799999
 30
0.0
 11
9405.0564959999938
 21
12573.23084799999
 31
0.0
  0
LINE
  5
35C2
  8
0-6
  6
CONTINUOUS
 62
     6
 10
10258.48238299998
 20
18923.506806000001
 30
0.0
 11
10787.979915
 21
18923.506806000001
 31
0.0
  0
LINE
  5
35C3
  8
0-6
  6
CONTINUOUS
 62
     6
 10
10159.441128999981
 20
19144.298350000001
 30
0.0
 11
10258.48238299998
 21
18923.506806000001
 31
0.0
  0
LINE
  5
35C4
  8
0-6
  6
CONTINUOUS
 62
     6
 10
10379.36366399997
 20
20720.953227000002
 30
0.0
 11
10554.694639999991
 21
21065.672531
 31
0.0
  0
LINE
  5
35C5
  8
0-6
  6
CONTINUOUS
 62
     6
 10
10156.17987299999
 20
20257.009497999999
 30
0.0
 11
10317.69968099998
 21
20592.767521999991
 31
0.0
  0
LINE
  5
35C6
  8
0-6
  6
CONTINUOUS
 62
     6
 10
10554.694639999991
 20
21065.672531
 30
0.0
 11
12207.538217999991
 21
21065.672531
 31
0.0
  0
LINE
  5
35C7
  8
0-6
  6
CONTINUOUS
 62
     6
 10
11894.246741000001
 20
13063.229001
 30
0.0
 11
12756.827901000001
 21
13063.229001
 31
0.0
  0
LINE
  5
35C8
  8
0-6
  6
CONTINUOUS
 62
     6
 10
11488.135636999999
 20
13726.76066
 30
0.0
 11
11894.246741000001
 21
13063.229001
 31
0.0
  0
LINE
  5
35C9
  8
0-6
  6
CONTINUOUS
 62
     6
 10
11846.611606
 20
14432.30046050003
 30
0.0
 11
12646.611275999991
 21
14432.30046050003
 31
0.0
  0
LINE
  5
35CA
  8
0-6
  6
CONTINUOUS
 62
     6
 10
11763.72322399999
 20
14250.12161899999
 30
0.0
 11
11846.611606
 21
14432.30046050003
 31
0.0
  0
LINE
  5
35CB
  8
0-6
  6
CONTINUOUS
 62
     6
 10
11575.811484
 20
16103.758231
 30
0.0
 11
12443.79475099999
 21
16103.758231
 31
0.0
  0
LINE
  5
35CC
  8
0-6
  6
CONTINUOUS
 62
     6
 10
12604.45445799998
 20
15678.733816999989
 30
0.0
 11
12443.79475099999
 21
16103.758231
 31
0.0
  0
LINE
  5
35CD
  8
0-6
  6
CONTINUOUS
 62
     6
 10
11973.324549000001
 20
20344.231046000001
 30
0.0
 11
12491.01319699998
 21
20344.231046000001
 31
0.0
  0
LINE
  5
35CE
  8
0-6
  6
CONTINUOUS
 62
     6
 10
11829.421466
 20
19831.955390999981
 30
0.0
 11
11973.324549000001
 21
20344.231046000001
 31
0.0
  0
LINE
  5
35CF
  8
0-6
  6
CONTINUOUS
 62
     6
 10
13913.919856
 20
15436.76163550003
 30
0.0
 11
13755.14662999999
 21
15469.97102950003
 31
0.0
  0
LINE
  5
35D0
  8
0-6
  6
CONTINUOUS
 62
     6
 10
13755.14662999999
 20
15469.97102950003
 30
0.0
 11
13894.567093
 21
15387.06285250001
 31
0.0
  0
LINE
  5
35D1
  8
0-6
  6
CONTINUOUS
 62
     6
 10
13755.14662999999
 20
15469.97102950003
 30
0.0
 11
13913.919856
 21
15436.76163550003
 31
0.0
  0
LINE
  5
35D2
  8
0-6
  6
CONTINUOUS
 62
     6
 10
13913.919856
 20
15436.76163550003
 30
0.0
 11
13894.567093
 21
15387.06285250001
 31
0.0
  0
LINE
  5
35D3
  8
0-6
  6
CONTINUOUS
 62
     6
 10
13894.567093
 20
15387.06285250001
 30
0.0
 11
13755.14662999999
 21
15469.97102950003
 31
0.0
  0
LINE
  5
35D4
  8
0-6
  6
CONTINUOUS
 62
     6
 10
13894.567093
 20
15387.06285250001
 30
0.0
 11
13913.919856
 21
15436.76163550003
 31
0.0
  0
LINE
  5
35D5
  8
0-6
  6
CONTINUOUS
 62
     6
 10
11739.57705699999
 20
14261.431597999999
 30
0.0
 11
11695.849491000001
 21
14105.23075599999
 31
0.0
  0
LINE
  5
35D6
  8
0-6
  6
CONTINUOUS
 62
     6
 10
11695.849491000001
 20
14105.23075599999
 30
0.0
 11
11787.873350999989
 21
14238.808669999989
 31
0.0
  0
LINE
  5
35D7
  8
0-6
  6
CONTINUOUS
 62
     6
 10
11695.849491000001
 20
14105.23075599999
 30
0.0
 11
11739.57705699999
 21
14261.431597999999
 31
0.0
  0
LINE
  5
35D8
  8
0-6
  6
CONTINUOUS
 62
     6
 10
11739.57705699999
 20
14261.431597999999
 30
0.0
 11
11787.873350999989
 21
14238.808669999989
 31
0.0
  0
LINE
  5
35D9
  8
0-6
  6
CONTINUOUS
 62
     6
 10
11787.873350999989
 20
14238.808669999989
 30
0.0
 11
11695.849491000001
 21
14105.23075599999
 31
0.0
  0
LINE
  5
35DA
  8
0-6
  6
CONTINUOUS
 62
     6
 10
11787.873350999989
 20
14238.808669999989
 30
0.0
 11
11739.57705699999
 21
14261.431597999999
 31
0.0
  0
LINE
  5
35DB
  8
0-6
  6
CONTINUOUS
 62
     6
 10
9989.0065589999958
 20
14350.761121500031
 30
0.0
 11
10011.456278999991
 21
14511.40796150003
 31
0.0
  0
LINE
  5
35DC
  8
0-6
  6
CONTINUOUS
 62
     6
 10
10011.456278999991
 20
14511.40796150003
 30
0.0
 11
9938.1180849999855
 21
14366.724948500019
 31
0.0
  0
LINE
  5
35DD
  8
0-6
  6
CONTINUOUS
 62
     6
 10
10011.456278999991
 20
14511.40796150003
 30
0.0
 11
9989.0065589999958
 21
14350.761121500031
 31
0.0
  0
LINE
  5
35DE
  8
0-6
  6
CONTINUOUS
 62
     6
 10
9989.0065589999958
 20
14350.761121500031
 30
0.0
 11
9938.1180849999855
 21
14366.724948500019
 31
0.0
  0
LINE
  5
35DF
  8
0-6
  6
CONTINUOUS
 62
     6
 10
9938.1180849999855
 20
14366.724948500019
 30
0.0
 11
10011.456278999991
 21
14511.40796150003
 31
0.0
  0
LINE
  5
35E0
  8
0-6
  6
CONTINUOUS
 62
     6
 10
9938.1180849999855
 20
14366.724948500019
 30
0.0
 11
9989.0065589999958
 21
14350.761121500031
 31
0.0
  0
LINE
  5
35E1
  8
0-6
  6
CONTINUOUS
 62
     6
 10
11510.88030599999
 20
13740.68261399999
 30
0.0
 11
11404.60985099999
 21
13863.230651
 31
0.0
  0
LINE
  5
35E2
  8
0-6
  6
CONTINUOUS
 62
     6
 10
11404.60985099999
 20
13863.230651
 30
0.0
 11
11465.388988999999
 21
13712.840684999999
 31
0.0
  0
LINE
  5
35E3
  8
0-6
  6
CONTINUOUS
 62
     6
 10
11404.60985099999
 20
13863.230651
 30
0.0
 11
11510.88030599999
 21
13740.68261399999
 31
0.0
  0
LINE
  5
35E4
  8
0-6
  6
CONTINUOUS
 62
     6
 10
11510.88030599999
 20
13740.68261399999
 30
0.0
 11
11465.388988999999
 21
13712.840684999999
 31
0.0
  0
LINE
  5
35E5
  8
0-6
  6
CONTINUOUS
 62
     6
 10
11465.388988999999
 20
13712.840684999999
 30
0.0
 11
11404.60985099999
 21
13863.230651
 31
0.0
  0
LINE
  5
35E6
  8
0-6
  6
CONTINUOUS
 62
     6
 10
11465.388988999999
 20
13712.840684999999
 30
0.0
 11
11510.88030599999
 21
13740.68261399999
 31
0.0
  0
LINE
  5
35E7
  8
0-6
  6
CONTINUOUS
 62
     6
 10
12572.114073999999
 20
15837.684209999999
 30
0.0
 11
12604.45445799998
 21
15678.733816999989
 31
0.0
  0
LINE
  5
35E8
  8
0-6
  6
CONTINUOUS
 62
     6
 10
12604.45445799998
 20
15678.733816999989
 30
0.0
 11
12522.311365999991
 21
15818.60461999998
 31
0.0
  0
LINE
  5
35E9
  8
0-6
  6
CONTINUOUS
 62
     6
 10
12604.45445799998
 20
15678.733816999989
 30
0.0
 11
12572.114073999999
 21
15837.684209999999
 31
0.0
  0
LINE
  5
35EA
  8
0-6
  6
CONTINUOUS
 62
     6
 10
12572.114073999999
 20
15837.684209999999
 30
0.0
 11
12522.311365999991
 21
15818.60461999998
 31
0.0
  0
LINE
  5
35EB
  8
0-6
  6
CONTINUOUS
 62
     6
 10
12522.311365999991
 20
15818.60461999998
 30
0.0
 11
12604.45445799998
 21
15678.733816999989
 31
0.0
  0
LINE
  5
35EC
  8
0-6
  6
CONTINUOUS
 62
     6
 10
12522.311365999991
 20
15818.60461999998
 30
0.0
 11
12572.114073999999
 21
15837.684209999999
 31
0.0
  0
LINE
  5
35ED
  8
0-6
  6
CONTINUOUS
 62
     6
 10
14377.539934
 20
15776.81797299999
 30
0.0
 11
14233.251834999999
 21
15702.70974599998
 31
0.0
  0
LINE
  5
35EE
  8
0-6
  6
CONTINUOUS
 62
     6
 10
14233.251834999999
 20
15702.70974599998
 30
0.0
 11
14393.77594499999
 21
15726.01659799998
 31
0.0
  0
LINE
  5
35EF
  8
0-6
  6
CONTINUOUS
 62
     6
 10
14233.251834999999
 20
15702.70974599998
 30
0.0
 11
14377.539934
 21
15776.81797299999
 31
0.0
  0
LINE
  5
35F0
  8
0-6
  6
CONTINUOUS
 62
     6
 10
14377.539934
 20
15776.81797299999
 30
0.0
 11
14393.77594499999
 21
15726.01659799998
 31
0.0
  0
LINE
  5
35F1
  8
0-6
  6
CONTINUOUS
 62
     6
 10
14393.77594499999
 20
15726.01659799998
 30
0.0
 11
14233.251834999999
 21
15702.70974599998
 31
0.0
  0
LINE
  5
35F2
  8
0-6
  6
CONTINUOUS
 62
     6
 10
14393.77594499999
 20
15726.01659799998
 30
0.0
 11
14377.539934
 21
15776.81797299999
 31
0.0
  0
LINE
  5
35F3
  8
0-6
  6
CONTINUOUS
 62
     6
 10
13898.120328999999
 20
17095.344616999992
 30
0.0
 11
13755.14662999999
 21
17018.727350000001
 31
0.0
  0
LINE
  5
35F4
  8
0-6
  6
CONTINUOUS
 62
     6
 10
13755.14662999999
 20
17018.727350000001
 30
0.0
 11
13915.241185000001
 21
17044.837200999991
 31
0.0
  0
LINE
  5
35F5
  8
0-6
  6
CONTINUOUS
 62
     6
 10
13755.14662999999
 20
17018.727350000001
 30
0.0
 11
13898.120328999999
 21
17095.344616999992
 31
0.0
  0
LINE
  5
35F6
  8
0-6
  6
CONTINUOUS
 62
     6
 10
13898.120328999999
 20
17095.344616999992
 30
0.0
 11
13915.241185000001
 21
17044.837200999991
 31
0.0
  0
LINE
  5
35F7
  8
0-6
  6
CONTINUOUS
 62
     6
 10
13915.241185000001
 20
17044.837200999991
 30
0.0
 11
13755.14662999999
 21
17018.727350000001
 31
0.0
  0
LINE
  5
35F8
  8
0-6
  6
CONTINUOUS
 62
     6
 10
13915.241185000001
 20
17044.837200999991
 30
0.0
 11
13898.120328999999
 21
17095.344616999992
 31
0.0
  0
LINE
  5
35F9
  8
0-6
  6
CONTINUOUS
 62
     6
 10
13898.120328999999
 20
18554.344616999992
 30
0.0
 11
13755.14662999999
 21
18477.731309999999
 31
0.0
  0
LINE
  5
35FA
  8
0-6
  6
CONTINUOUS
 62
     6
 10
13755.14662999999
 20
18477.731309999999
 30
0.0
 11
13915.241185000001
 21
18503.837200999991
 31
0.0
  0
LINE
  5
35FB
  8
0-6
  6
CONTINUOUS
 62
     6
 10
13755.14662999999
 20
18477.731309999999
 30
0.0
 11
13898.120328999999
 21
18554.344616999992
 31
0.0
  0
LINE
  5
35FC
  8
0-6
  6
CONTINUOUS
 62
     6
 10
13898.120328999999
 20
18554.344616999992
 30
0.0
 11
13915.241185000001
 21
18503.837200999991
 31
0.0
  0
LINE
  5
35FD
  8
0-6
  6
CONTINUOUS
 62
     6
 10
13915.241185000001
 20
18503.837200999991
 30
0.0
 11
13755.14662999999
 21
18477.731309999999
 31
0.0
  0
LINE
  5
35FE
  8
0-6
  6
CONTINUOUS
 62
     6
 10
13915.241185000001
 20
18503.837200999991
 30
0.0
 11
13898.120328999999
 21
18554.344616999992
 31
0.0
  0
LINE
  5
35FF
  8
0-6
  6
CONTINUOUS
 62
     6
 10
10183.772381999979
 20
19155.213414999991
 30
0.0
 11
10093.95568599999
 21
19290.281906
 31
0.0
  0
LINE
  5
3600
  8
0-6
  6
CONTINUOUS
 62
     6
 10
10093.95568599999
 20
19290.281906
 30
0.0
 11
10135.10987699999
 21
19133.381304999992
 31
0.0
  0
LINE
  5
3601
  8
0-6
  6
CONTINUOUS
 62
     6
 10
10093.95568599999
 20
19290.281906
 30
0.0
 11
10183.772381999979
 21
19155.213414999991
 31
0.0
  0
LINE
  5
3602
  8
0-6
  6
CONTINUOUS
 62
     6
 10
10183.772381999979
 20
19155.213414999991
 30
0.0
 11
10135.10987699999
 21
19133.381304999992
 31
0.0
  0
LINE
  5
3603
  8
0-6
  6
CONTINUOUS
 62
     6
 10
10135.10987699999
 20
19133.381304999992
 30
0.0
 11
10093.95568599999
 21
19290.281906
 31
0.0
  0
LINE
  5
3604
  8
0-6
  6
CONTINUOUS
 62
     6
 10
10135.10987699999
 20
19133.381304999992
 30
0.0
 11
10183.772381999979
 21
19155.213414999991
 31
0.0
  0
LINE
  5
3605
  8
0-6
  6
CONTINUOUS
 62
     6
 10
10131.79517299999
 20
20267.803812999999
 30
0.0
 11
10091.399136999969
 21
20110.707238999999
 31
0.0
  0
LINE
  5
3606
  8
0-6
  6
CONTINUOUS
 62
     6
 10
10091.399136999969
 20
20110.707238999999
 30
0.0
 11
10180.558634000001
 21
20246.213204
 31
0.0
  0
LINE
  5
3607
  8
0-6
  6
CONTINUOUS
 62
     6
 10
10091.399136999969
 20
20110.707238999999
 30
0.0
 11
10131.79517299999
 21
20267.803812999999
 31
0.0
  0
LINE
  5
3608
  8
0-6
  6
CONTINUOUS
 62
     6
 10
10131.79517299999
 20
20267.803812999999
 30
0.0
 11
10180.558634000001
 21
20246.213204
 31
0.0
  0
LINE
  5
3609
  8
0-6
  6
CONTINUOUS
 62
     6
 10
10180.558634000001
 20
20246.213204
 30
0.0
 11
10091.399136999969
 21
20110.707238999999
 31
0.0
  0
LINE
  5
360A
  8
0-6
  6
CONTINUOUS
 62
     6
 10
10180.558634000001
 20
20246.213204
 30
0.0
 11
10131.79517299999
 21
20267.803812999999
 31
0.0
  0
LINE
  5
360B
  8
0-6
  6
CONTINUOUS
 62
     6
 10
11803.534312
 20
19838.353195999989
 30
0.0
 11
11791.03365199998
 21
19676.628507000001
 31
0.0
  0
LINE
  5
360C
  8
0-6
  6
CONTINUOUS
 62
     6
 10
11791.03365199998
 20
19676.628507000001
 30
0.0
 11
11855.306640999999
 21
19825.555607999991
 31
0.0
  0
LINE
  5
360D
  8
0-6
  6
CONTINUOUS
 62
     6
 10
11791.03365199998
 20
19676.628507000001
 30
0.0
 11
11803.534312
 21
19838.353195999989
 31
0.0
  0
LINE
  5
360E
  8
0-6
  6
CONTINUOUS
 62
     6
 10
11803.534312
 20
19838.353195999989
 30
0.0
 11
11855.306640999999
 21
19825.555607999991
 31
0.0
  0
LINE
  5
360F
  8
0-6
  6
CONTINUOUS
 62
     6
 10
11855.306640999999
 20
19825.555607999991
 30
0.0
 11
11791.03365199998
 21
19676.628507000001
 31
0.0
  0
LINE
  5
3610
  8
0-6
  6
CONTINUOUS
 62
     6
 10
11855.306640999999
 20
19825.555607999991
 30
0.0
 11
11803.534312
 21
19838.353195999989
 31
0.0
  0
LINE
  5
3611
  8
2-0
  6
DASHED3
 62
     6
 10
12591.45595
 20
18432.730914
 30
0.0
 11
10163.95641099999
 21
19891.730914
 31
0.0
  0
LINE
  5
3612
  8
2-0
  6
DASHED3
 62
     6
 10
10051.45443199999
 20
19937.730967
 30
0.0
 11
14570.45495999999
 21
19937.730967
 31
0.0
  0
LINE
  5
3613
  8
2-0
  6
DASHED3
 62
     6
 10
10093.95568599999
 20
19852.728459000002
 30
0.0
 11
14527.95568599999
 21
19852.728459000002
 31
0.0
  0
LINE
  5
3614
  8
2-0
  6
DASHED3
 62
     6
 10
10093.95568599999
 20
19655.77032
 30
0.0
 11
10093.95568599999
 21
19937.730967
 31
0.0
  0
LINE
  5
3615
  8
2-0
  6
DASHED3
 62
     6
 10
10051.45443199999
 20
19680.043176999989
 30
0.0
 11
10051.45443199999
 21
19937.730967
 31
0.0
  0
LINE
  5
3616
  8
2-0
  6
DASHED3
 62
     6
 10
14570.45495999999
 20
16782.80634599999
 30
0.0
 11
14570.45495999999
 21
19937.730967
 31
0.0
  0
LINE
  5
3617
  8
2-0
  6
DASHED3
 62
     6
 10
14527.95568599999
 20
16804.349447000001
 30
0.0
 11
14527.95568599999
 21
19937.730967
 31
0.0
  0
LINE
  5
3618
  8
2-0
  6
DASHED3
 62
     6
 10
11867.118428
 20
18477.731309999999
 30
0.0
 11
14527.95568599999
 21
18477.731309999999
 31
0.0
  0
LINE
  5
3619
  8
2-0
  6
DASHED3
 62
     6
 10
12004.70684699999
 20
18387.728537999999
 30
0.0
 11
14527.95568599999
 21
18387.728537999999
 31
0.0
  0
LINE
  5
361A
  8
2-0
  6
DASHED3
 62
     6
 10
14118.20518399998
 20
17007.731124999991
 30
0.0
 11
14527.95568599999
 21
17007.731124999991
 31
0.0
  0
LINE
  5
361B
  8
2-0
  6
DASHED3
 62
     6
 10
14274.062579999991
 20
16928.728537999988
 30
0.0
 11
14527.95568599999
 21
16928.728537999988
 31
0.0
  0
LINE
  5
361C
  8
2-0
  6
DASHED3
 62
     6
 10
12661.45568599999
 20
17879.455470000001
 30
0.0
 11
12661.45568599999
 21
18387.728537999999
 31
0.0
  0
LINE
  5
361D
  8
0-7
  6
CONTINUOUS
 62
     6
 10
12661.45568599999
 20
18477.731309999999
 30
0.0
 11
12661.45568599999
 21
18387.728537999999
 31
0.0
  0
LINE
  5
361E
  8
2-0
  6
DASHED3
 62
     6
 10
12750.955658999999
 20
18432.730914
 30
0.0
 11
14457.95595
 21
19891.730914
 31
0.0
  0
LINE
  5
361F
  8
2-0
  6
DASHED3
 62
     6
 10
12731.45641099999
 20
19891.730914
 30
0.0
 11
14457.95595
 21
18432.730914
 31
0.0
  0
LINE
  5
3620
  8
2-0
  6
DASHED3
 62
     6
 10
12750.955658999999
 20
18432.730914
 30
0.0
 11
14457.95595
 21
16973.730914
 31
0.0
  0
LINE
  5
3621
  8
2-0
  6
DASHED3
 62
     6
 10
13276.016035000001
 20
17439.610401000002
 30
0.0
 11
14457.95595
 21
18432.730914
 31
0.0
  0
LINE
  5
3622
  8
2-0
  6
DASHED3
 62
     6
 10
11091.745949
 20
18989.919654999991
 30
0.0
 11
12591.45595
 21
19891.730914
 31
0.0
  0
LINE
  5
3623
  8
2-0
  6
CENTER2
 62
     6
 10
8764.4544209999967
 20
14055.730913999991
 30
0.0
 11
10410.954800999991
 21
14055.730913999991
 31
0.0
  0
LINE
  5
3624
  8
2-0
  6
CENTER2
 62
     6
 10
8764.4544209999967
 20
16973.730914
 30
0.0
 11
10410.954800999991
 21
16973.730914
 31
0.0
  0
LINE
  5
3625
  8
2-0
  6
CENTER2
 62
     6
 10
8764.4544209999967
 20
19891.730914
 30
0.0
 11
10410.954800999991
 21
19891.730914
 31
0.0
  0
LINE
  5
3626
  8
2-0
  6
CENTER2
 62
     6
 10
9875.1604869999883
 20
18432.730914
 30
0.0
 11
14826.720465999981
 21
18432.730914
 31
0.0
  0
LINE
  5
3627
  8
2-0
  6
CENTER2
 62
     6
 10
9875.1604869999883
 20
15514.971425500011
 30
0.0
 11
14826.720465999981
 21
15514.971425500011
 31
0.0
  0
LINE
  5
3628
  8
2-0
  6
CENTER2
 62
     6
 10
10093.95568599999
 20
21134.229199000009
 30
0.0
 11
10093.95568599999
 21
20184.230518
 31
0.0
  0
LINE
  5
3629
  8
2-0
  6
CENTER2
 62
     6
 10
14202.455474
 20
14055.730913999991
 30
0.0
 11
14826.720465999981
 21
14055.730913999991
 31
0.0
  0
LINE
  5
362A
  8
2-0
  6
CENTER2
 62
     6
 10
14202.455474
 20
16973.730914
 30
0.0
 11
14826.720465999981
 21
16973.730914
 31
0.0
  0
LINE
  5
362B
  8
0-8
  6
CONTINUOUS
 62
     6
 10
12661.45568599999
 20
21134.229199000009
 30
0.0
 11
12661.45568599999
 21
20184.230518
 31
0.0
  0
LINE
  5
362C
  8
0-8
  6
CONTINUOUS
 62
     6
 10
14527.95568599999
 20
21134.229199000009
 30
0.0
 11
14527.95568599999
 21
20184.230518
 31
0.0
  0
LINE
  5
362D
  8
2-0
  6
DASHED3
 62
     6
 10
14350.503669
 20
16889.985401000002
 30
0.0
 11
14457.95595
 21
16973.730914
 31
0.0
  0
LINE
  5
362E
  8
2-0
  6
DASHED3
 62
     6
 10
12460.337588
 20
18353.884709000002
 30
0.0
 11
12591.45595
 21
18432.730914
 31
0.0
  0
LINE
  5
362F
  8
2-0
  6
DASHED3
 62
     6
 10
12249.899915999989
 20
18227.342003999991
 30
0.0
 11
12343.782543999991
 21
18283.799854000001
 31
0.0
  0
LINE
  5
3630
  8
2-0
  6
DASHED3
 62
     6
 10
12604.45445799998
 20
18477.731309999999
 30
0.0
 11
12604.45445799998
 21
19852.728459000002
 31
0.0
  0
LINE
  5
3631
  8
2-0
  6
DASHED3
 62
     6
 10
12661.45568599999
 20
18477.731309999999
 30
0.0
 11
12661.45568599999
 21
19852.728459000002
 31
0.0
  0
LINE
  5
3632
  8
2-0
  6
DASHED3
 62
     6
 10
12718.45592299999
 20
18477.731309999999
 30
0.0
 11
12718.45592299999
 21
19852.728459000002
 31
0.0
  0
LINE
  5
3633
  8
2-0
  6
DASHED3
 62
     6
 10
12604.45445799998
 20
18013.920209
 30
0.0
 11
12604.45445799998
 21
18387.728537999999
 31
0.0
  0
LINE
  5
3634
  8
2-0
  6
DASHED3
 62
     6
 10
12718.45592299999
 20
17744.990731999991
 30
0.0
 11
12718.45592299999
 21
18387.728537999999
 31
0.0
  0
ARC
  5
3635
  8
0-1
  6
CONTINUOUS
 62
     3
 10
10076.957519999991
 20
20079.230913999989
 30
0.0
 40
5.0
 50
269.9999850001808
 51
0.0
  0
ARC
  5
3636
  8
0-1
  6
CONTINUOUS
 62
     3
 10
10076.957519999991
 20
20109.228538999989
 30
0.0
 40
5.0
 50
0.0
 51
90.0
  0
ARC
  5
3637
  8
0-1
  6
CONTINUOUS
 62
     3
 10
10013.456542999969
 20
20109.228538999989
 30
0.0
 40
5.0
 50
90.0
 51
180.0
  0
ARC
  5
3638
  8
0-1
  6
CONTINUOUS
 62
     3
 10
14608.455818
 20
20109.228538999989
 30
0.0
 40
5.0
 50
0.0
 51
90.0
  0
ARC
  5
3639
  8
0-1
  6
CONTINUOUS
 62
     3
 10
14544.95583099999
 20
20109.228538999989
 30
0.0
 40
5.0
 50
90.0
 51
180.0
  0
ARC
  5
363A
  8
0-1
  6
CONTINUOUS
 62
     3
 10
14544.95583099999
 20
20079.230913999989
 30
0.0
 40
5.0
 50
180.0
 51
269.9999850001808
  0
CIRCLE
  5
363B
  8
0-5
  6
CONTINUOUS
 62
     4
 10
8564.4537619999955
 20
14055.730913999991
 30
0.0
 40
199.9999949999999
  0
CIRCLE
  5
363C
  8
0-5
  6
CONTINUOUS
 62
     4
 10
8564.4537619999955
 20
16973.730914
 30
0.0
 40
199.9999949999999
  0
CIRCLE
  5
363D
  8
0-5
  6
CONTINUOUS
 62
     4
 10
8564.4537619999955
 20
19891.730914
 30
0.0
 40
199.9999949999999
  0
CIRCLE
  5
363E
  8
0-5
  6
CONTINUOUS
 62
     4
 10
10093.95568599999
 20
21334.227880000031
 30
0.0
 40
199.9999949999999
  0
CIRCLE
  5
363F
  8
0-5
  6
CONTINUOUS
 62
     4
 10
12661.45568599999
 20
21334.227880000031
 30
0.0
 40
199.9999949999999
  0
CIRCLE
  5
3640
  8
0-5
  6
CONTINUOUS
 62
     4
 10
14527.95568599999
 20
21334.227880000031
 30
0.0
 40
199.9999949999999
  0
TEXT
  5
3641
  8
0-5
  6
CONTINUOUS
 62
     7
 10
8504.8811399999922
 20
13965.813261999991
 30
0.0
 40
160.0
  1
A
 72
     4
 11
8558.2144733333262
 21
14045.813261999991
 31
0.0
  0
TEXT
  5
3642
  8
0-5
  6
CONTINUOUS
 62
     7
 10
8504.8811399999922
 20
16883.813262
 30
0.0
 40
160.0
  1
B
 72
     4
 11
8558.2144733333262
 21
16963.813262
 31
0.0
  0
TEXT
  5
3643
  8
0-5
  6
CONTINUOUS
 62
     7
 10
8504.8811399999922
 20
19801.813262
 30
0.0
 40
160.0
  1
C
 72
     4
 11
8558.2144733333262
 21
19881.813262
 31
0.0
  0
TEXT
  5
3644
  8
0-5
  6
CONTINUOUS
 62
     7
 10
10048.282252999979
 20
21242.443542000012
 30
0.0
 40
160.0
  1
1
 72
     4
 11
10074.948919666651
 21
21322.443542000012
 31
0.0
  0
TEXT
  5
3645
  8
0-5
  6
CONTINUOUS
 62
     7
 10
12615.78027399999
 20
21242.443542000012
 30
0.0
 40
160.0
  1
2
 72
     4
 11
12669.113607333329
 21
21322.443542000012
 31
0.0
  0
TEXT
  5
3646
  8
0-5
  6
CONTINUOUS
 62
     7
 10
14472.564796999981
 20
21247.78428300003
 30
0.0
 40
160.0
  1
3
 72
     4
 11
14525.898130333309
 21
21327.78428300003
 31
0.0
  0
TEXT
  5
3647
  8
0-6
  6
CONTINUOUS
 62
     7
 10
14954.541939999999
 20
15984.95148499998
 30
0.0
 40
160.0
  1
ブレース
 72
     4
 11
15317.208606666671
 21
16070.284818333321
 31
0.0
  0
TEXT
  5
3648
  8
0-6
  6
CONTINUOUS
 62
     7
 10
8405.0571559999935
 20
12653.23012299999
 30
0.0
 40
160.0
  1
ケラバ 左
 72
     4
 11
8821.0571559999935
 21
12733.23012299999
 31
0.0
  0
TEXT
  5
3649
  8
0-6
  6
CONTINUOUS
 62
     7
 10
10347.982421999999
 20
19003.505090999992
 30
0.0
 40
160.0
  1
上枠
 72
     4
 11
10518.649088666671
 21
19083.505090999992
 31
0.0
  0
TEXT
  5
364A
  8
0-6
  6
CONTINUOUS
 62
     7
 10
11974.247994999991
 20
13143.23025499998
 30
0.0
 40
160.0
  1
鼻隠し前
 72
     4
 11
12336.91466166666
 21
13223.23025499998
 31
0.0
  0
TEXT
  5
364B
  8
0-6
  6
CONTINUOUS
 62
     7
 10
11926.609889999991
 20
14512.29874550002
 30
0.0
 40
160.0
  1
桁（前）
 72
     4
 11
12246.609889999991
 21
14592.29874550002
 31
0.0
  0
TEXT
  5
364C
  8
0-6
  6
CONTINUOUS
 62
     7
 10
11763.925134999979
 20
16186.130947999991
 30
0.0
 40
160.0
  1
+
 72
     4
 11
11817.258468333321
 21
16266.130947999991
 31
0.0
  0
TEXT
  5
364D
  8
0-6
  6
CONTINUOUS
 62
     7
 10
11589.389002
 20
16183.75750499999
 30
0.0
 40
160.0
  1
梁　梁補強
 72
     4
 11
12048.05566866667
 21
16263.75750499999
 31
0.0
  0
TEXT
  5
364E
  8
0-6
  6
CONTINUOUS
 62
     7
 10
12053.32283399999
 20
20424.231309999999
 30
0.0
 40
160.0
  1
屋根
 72
     4
 11
12223.989500666659
 21
20504.231309999999
 31
0.0
  0
TEXT
  5
364F
  8
0-6
  6
CONTINUOUS
 62
     7
 10
10634.692924000001
 20
21145.670816000002
 30
0.0
 40
160.0
  1
鼻隠しコーナー後
 72
     4
 11
11381.359590666671
 21
21225.670816000002
 31
0.0
  0
TEXT
  5
3650
  8
2-0
  6
CONTINUOUS
 62
     7
 10
10750.599675999991
 20
11798.40618911071
 30
0.0
 40
160.0
  1
小 屋 伏 図
 50
359.99980699999981
 72
     4
 11
11251.93327880932
 21
11878.40450037622
 31
0.0
  0
TEXT
  5
3651
  8
2-0
  6
CONTINUOUS
 62
     7
 10
14936.69756228181
 20
18923.128717999971
 30
0.0
 40
160.0
  1
桁中B +  桁中補強B
 50
359.99976400000008
 72
     4
 11
15870.031225125391
 21
19003.124873620731
 31
0.0
  0
TEXT
  5
3652
  8
2-0
  6
CONTINUOUS
 62
     7
 10
14936.69756228181
 20
17464.116840999988
 30
0.0
 40
160.0
  1
桁中A +  桁中補強A
 72
     4
 11
15870.03089561514
 21
17544.116840999988
 31
0.0
  0
TEXT
  5
3653
  8
2-0
  6
CONTINUOUS
 62
     7
 10
14936.69756228181
 20
15146.636464500019
 30
0.0
 40
160.0
  1
桁中B +  桁中補強B
 50
0.000118
 72
     4
 11
15870.03073085408
 21
15226.638386689139
 31
0.0
  0
TEXT
  5
365B
  8
2-0
  6
CONTINUOUS
 62
     7
 10
12603.425463946949
 20
11825.59986937623
 30
0.0
 40
160.0
  1
1
 72
     4
 11
12630.092130613621
 21
11905.59986937623
 31
0.0
  0
TEXT
  5
365C
  8
2-0
  6
CONTINUOUS
 62
     7
 10
12846.514181197639
 20
11745.601337376231
 30
0.0
 40
160.0
  1
80
 72
     4
 11
12966.514181197639
 21
11825.601337376231
 31
0.0
  0
TEXT
  5
365D
  8
2-0
  6
CONTINUOUS
 62
     7
 10
12104.427429946951
 20
11798.40450037622
 30
0.0
 40
160.0
  1
(S=  /   )
 72
     4
 11
12664.427429946951
 21
11878.40450037622
 31
0.0
  0
TEXT
  5
365E
  8
0-6
  6
CONTINUOUS
 62
     7
 10
10307.238932144821
 20
20424.229329999998
 30
0.0
 40
160.0
  1
桁後+桁後補強
 72
     4
 11
10941.905598811491
 21
20504.229329999998
 31
0.0
  0
LINE
  5
365F
  8
0-6
  6
CONTINUOUS
 62
     6
 10
11750.95434
 20
19937.730967
 30
0.0
 11
11617.56039211875
 21
20344.231046000001
 31
0.0
  0
LINE
  5
3660
  8
0-6
  6
CONTINUOUS
 62
     6
 10
10258.319252549531
 20
20344.231046000001
 30
0.0
 11
11617.56039211875
 21
20344.231046000001
 31
0.0
  0
LINE
  5
3661
  8
0-6
  6
CONTINUOUS
 62
     6
 10
11727.34688463271
 20
20098.21240542494
 30
0.0
 11
11676.573240859771
 21
20081.878889240161
 31
0.0
  0
LINE
  5
3662
  8
0-6
  6
CONTINUOUS
 62
     6
 10
11727.34688463271
 20
20098.21240542494
 30
0.0
 11
11750.95434
 21
19937.730967
 31
0.0
  0
LINE
  5
3663
  8
0-6
  6
CONTINUOUS
 62
     6
 10
11676.573240859771
 20
20081.878889240161
 30
0.0
 11
11727.34688463271
 21
20098.21240542494
 31
0.0
  0
LINE
  5
3664
  8
0-6
  6
CONTINUOUS
 62
     6
 10
11750.95434
 20
19937.730967
 30
0.0
 11
11676.573240859771
 21
20081.878889240161
 31
0.0
  0
LINE
  5
3665
  8
0-6
  6
CONTINUOUS
 62
     6
 10
11750.95434
 20
19937.730967
 30
0.0
 11
11727.34688463271
 21
20098.21240542494
 31
0.0
  0
LINE
  5
3666
  8
0-6
  6
CONTINUOUS
 62
     6
 10
11676.573240859771
 20
20081.878889240161
 30
0.0
 11
11750.95434
 21
19937.730967
 31
0.0
  0
LINE
  5
3667
  8
0-1
  6
CONTINUOUS
 62
     4
 10
15006.15782100001
 20
6256.3200620000034
 30
0.0
 11
20259.413085999979
 21
6256.3200620000034
 31
0.0
  0
LINE
  5
3668
  8
0-1
  6
CONTINUOUS
 62
     3
 10
9012.6593379999977
 20
8267.3654449999976
 30
0.0
 11
14893.65874399998
 21
8267.3654449999976
 31
0.0
  0
LINE
  5
3669
  8
0-1
  6
CONTINUOUS
 62
     3
 10
8302.6594689999984
 20
6256.3200620000034
 30
0.0
 11
14926.158546000001
 21
6256.3200620000034
 31
0.0
  0
LINE
  5
366A
  8
0-1
  6
CONTINUOUS
 62
     3
 10
9107.6594040000018
 20
6406.320061999998
 30
0.0
 11
11880.658677999991
 21
6406.320061999998
 31
0.0
  0
LINE
  5
366B
  8
0-1
  6
CONTINUOUS
 62
     3
 10
8985.1585459999988
 20
6356.319402000001
 30
0.0
 11
14926.158546000001
 21
6356.319402000001
 31
0.0
  0
LINE
  5
366C
  8
0-1
  6
CONTINUOUS
 62
     3
 10
9107.6594040000018
 20
8267.3654449999976
 30
0.0
 11
9107.6594040000018
 21
6356.319402000001
 31
0.0
  0
LINE
  5
366D
  8
0-1
  6
CONTINUOUS
 62
     3
 10
8992.6572919999981
 20
8389.4007859999983
 30
0.0
 11
8992.6572919999981
 21
6356.319402000001
 31
0.0
  0
LINE
  5
366E
  8
0-1
  6
CONTINUOUS
 62
     3
 10
9012.6593379999977
 20
8390.0183960000031
 30
0.0
 11
9012.6593379999977
 21
6356.319402000001
 31
0.0
  0
LINE
  5
366F
  8
0-1
  6
CONTINUOUS
 62
     3
 10
9231.1585979999982
 20
6406.320061999998
 30
0.0
 11
9231.1585979999982
 21
8267.3654449999976
 31
0.0
  0
LINE
  5
3670
  8
0-1
  6
CONTINUOUS
 62
     3
 10
9246.158400999997
 20
6406.320061999998
 30
0.0
 11
9246.158400999997
 21
8267.3654449999976
 31
0.0
  0
LINE
  5
3671
  8
0-1
  6
CONTINUOUS
 62
     3
 10
9647.1573979999903
 20
6406.320061999998
 30
0.0
 11
9647.1573979999903
 21
8267.3654449999976
 31
0.0
  0
LINE
  5
3672
  8
0-1
  6
CONTINUOUS
 62
     3
 10
9632.1575959999864
 20
6406.320061999998
 30
0.0
 11
9632.1575959999864
 21
8267.3654449999976
 31
0.0
  0
LINE
  5
3673
  8
0-1
  6
CONTINUOUS
 62
     3
 10
9499.1577009999983
 20
6406.320061999998
 30
0.0
 11
9499.1577009999983
 21
8267.3654449999976
 31
0.0
  0
LINE
  5
3674
  8
0-1
  6
CONTINUOUS
 62
     3
 10
9379.1592849999979
 20
6406.320061999998
 30
0.0
 11
9379.1592849999979
 21
8267.3654449999976
 31
0.0
  0
LINE
  5
3675
  8
0-1
  6
CONTINUOUS
 62
     3
 10
9449.1580310000045
 20
6406.320061999998
 30
0.0
 11
9449.1580310000045
 21
8267.3654449999976
 31
0.0
  0
LINE
  5
3676
  8
0-1
  6
CONTINUOUS
 62
     3
 10
9429.1579649999985
 20
6406.320061999998
 30
0.0
 11
9429.1579649999985
 21
8267.3654449999976
 31
0.0
  0
LINE
  5
3677
  8
0-1
  6
CONTINUOUS
 62
     3
 10
8985.1585459999988
 20
6256.3200620000034
 30
0.0
 11
8985.1585459999988
 21
6356.319402000001
 31
0.0
  0
LINE
  5
3678
  8
0-1
  6
CONTINUOUS
 62
     3
 10
14988.669696999979
 20
8573.8642049999962
 30
0.0
 11
14984.656222999991
 21
8703.8027740000016
 31
0.0
  0
LINE
  5
3679
  8
0-1
  6
CONTINUOUS
 62
     3
 10
12025.65841400001
 20
6406.320061999998
 30
0.0
 11
14798.658678
 21
6406.320061999998
 31
0.0
  0
LINE
  5
367A
  8
0-1
  6
CONTINUOUS
 62
     3
 10
12025.65841400001
 20
8267.3654449999976
 30
0.0
 11
12025.65841400001
 21
6356.319402000001
 31
0.0
  0
LINE
  5
367B
  8
0-1
  6
CONTINUOUS
 62
     3
 10
11880.658677999991
 20
8267.3654449999976
 30
0.0
 11
11880.658677999991
 21
6356.319402000001
 31
0.0
  0
LINE
  5
367C
  8
0-1
  6
CONTINUOUS
 62
     3
 10
12149.158599
 20
6406.320061999998
 30
0.0
 11
12149.158599
 21
8267.3654449999976
 31
0.0
  0
LINE
  5
367D
  8
0-1
  6
CONTINUOUS
 62
     3
 10
12164.15939100001
 20
6406.320061999998
 30
0.0
 11
12164.15939100001
 21
8267.3654449999976
 31
0.0
  0
LINE
  5
367E
  8
0-1
  6
CONTINUOUS
 62
     3
 10
12297.15829500001
 20
6406.320061999998
 30
0.0
 11
12297.15829500001
 21
8267.3654449999976
 31
0.0
  0
LINE
  5
367F
  8
0-1
  6
CONTINUOUS
 62
     3
 10
12347.15994500001
 20
6406.320061999998
 30
0.0
 11
12347.15994500001
 21
8267.3654449999976
 31
0.0
  0
LINE
  5
3680
  8
0-1
  6
CONTINUOUS
 62
     3
 10
12367.158031000001
 20
6406.320061999998
 30
0.0
 11
12367.158031000001
 21
8267.3654449999976
 31
0.0
  0
LINE
  5
3681
  8
0-1
  6
CONTINUOUS
 62
     3
 10
11539.16005100001
 20
6406.320061999998
 30
0.0
 11
11539.16005100001
 21
8267.3654449999976
 31
0.0
  0
LINE
  5
3682
  8
0-1
  6
CONTINUOUS
 62
     3
 10
11559.159127000001
 20
6406.320061999998
 30
0.0
 11
11559.159127000001
 21
8267.3654449999976
 31
0.0
  0
LINE
  5
3683
  8
0-1
  6
CONTINUOUS
 62
     3
 10
11609.159787000001
 20
6406.320061999998
 30
0.0
 11
11609.159787000001
 21
8267.3654449999976
 31
0.0
  0
LINE
  5
3684
  8
0-1
  6
CONTINUOUS
 62
     3
 10
11742.15968100001
 20
6406.320061999998
 30
0.0
 11
11742.15968100001
 21
8267.3654449999976
 31
0.0
  0
LINE
  5
3685
  8
0-1
  6
CONTINUOUS
 62
     3
 10
11757.15849300001
 20
6406.320061999998
 30
0.0
 11
11757.15849300001
 21
8267.3654449999976
 31
0.0
  0
LINE
  5
3686
  8
0-1
  6
CONTINUOUS
 62
     3
 10
11489.15939100001
 20
6406.320061999998
 30
0.0
 11
11489.15939100001
 21
8267.3654449999976
 31
0.0
  0
LINE
  5
3687
  8
0-1
  6
CONTINUOUS
 62
     3
 10
11356.159496
 20
6406.320061999998
 30
0.0
 11
11356.159496
 21
8267.3654449999976
 31
0.0
  0
LINE
  5
3688
  8
0-1
  6
CONTINUOUS
 62
     3
 10
11341.15870399999
 20
6406.320061999998
 30
0.0
 11
11341.15870399999
 21
8267.3654449999976
 31
0.0
  0
LINE
  5
3689
  8
0-1
  6
CONTINUOUS
 62
     3
 10
10139.15840100001
 20
6406.320061999998
 30
0.0
 11
10139.15840100001
 21
8267.3654449999976
 31
0.0
  0
LINE
  5
368A
  8
0-1
  6
CONTINUOUS
 62
     3
 10
10159.160445999991
 20
6406.320061999998
 30
0.0
 11
10159.160445999991
 21
8267.3654449999976
 31
0.0
  0
LINE
  5
368B
  8
0-1
  6
CONTINUOUS
 62
     3
 10
10089.15873100001
 20
6406.320061999998
 30
0.0
 11
10089.15873100001
 21
8267.3654449999976
 31
0.0
  0
LINE
  5
368C
  8
0-1
  6
CONTINUOUS
 62
     3
 10
10209.158137
 20
6406.320061999998
 30
0.0
 11
10209.158137
 21
8267.3654449999976
 31
0.0
  0
LINE
  5
368D
  8
0-1
  6
CONTINUOUS
 62
     3
 10
10342.15902100001
 20
6406.320061999998
 30
0.0
 11
10342.15902100001
 21
8267.3654449999976
 31
0.0
  0
LINE
  5
368E
  8
0-1
  6
CONTINUOUS
 62
     3
 10
10357.159813
 20
6406.320061999998
 30
0.0
 11
10357.159813
 21
8267.3654449999976
 31
0.0
  0
LINE
  5
368F
  8
0-1
  6
CONTINUOUS
 62
     3
 10
9956.1578470000004
 20
6406.320061999998
 30
0.0
 11
9956.1578470000004
 21
8267.3654449999976
 31
0.0
  0
LINE
  5
3690
  8
0-1
  6
CONTINUOUS
 62
     3
 10
9941.1590340000075
 20
6406.320061999998
 30
0.0
 11
9941.1590340000075
 21
8267.3654449999976
 31
0.0
  0
LINE
  5
3691
  8
0-1
  6
CONTINUOUS
 62
     3
 10
10641.158375000001
 20
6406.320061999998
 30
0.0
 11
10641.158375000001
 21
8267.3654449999976
 31
0.0
  0
LINE
  5
3692
  8
0-1
  6
CONTINUOUS
 62
     3
 10
10656.15718700001
 20
6406.320061999998
 30
0.0
 11
10656.15718700001
 21
8267.3654449999976
 31
0.0
  0
LINE
  5
3693
  8
0-1
  6
CONTINUOUS
 62
     3
 10
11057.159153000001
 20
6406.320061999998
 30
0.0
 11
11057.159153000001
 21
8267.3654449999976
 31
0.0
  0
LINE
  5
3694
  8
0-1
  6
CONTINUOUS
 62
     3
 10
11042.158361
 20
6406.320061999998
 30
0.0
 11
11042.158361
 21
8267.3654449999976
 31
0.0
  0
LINE
  5
3695
  8
0-1
  6
CONTINUOUS
 62
     3
 10
10909.157477000001
 20
6406.320061999998
 30
0.0
 11
10909.157477000001
 21
8267.3654449999976
 31
0.0
  0
LINE
  5
3696
  8
0-1
  6
CONTINUOUS
 62
     3
 10
10789.16005100001
 20
6406.320061999998
 30
0.0
 11
10789.16005100001
 21
8267.3654449999976
 31
0.0
  0
LINE
  5
3697
  8
0-1
  6
CONTINUOUS
 62
     3
 10
10859.15978700001
 20
6406.320061999998
 30
0.0
 11
10859.15978700001
 21
8267.3654449999976
 31
0.0
  0
LINE
  5
3698
  8
0-1
  6
CONTINUOUS
 62
     3
 10
10839.159721
 20
6406.320061999998
 30
0.0
 11
10839.159721
 21
8267.3654449999976
 31
0.0
  0
LINE
  5
3699
  8
0-1
  6
CONTINUOUS
 62
     3
 10
11180.65933800001
 20
8267.3654449999976
 30
0.0
 11
11180.65933800001
 21
6406.320061999998
 31
0.0
  0
LINE
  5
369A
  8
0-1
  6
CONTINUOUS
 62
     3
 10
11217.658520000001
 20
8267.3654449999976
 30
0.0
 11
11217.658520000001
 21
6406.320061999998
 31
0.0
  0
LINE
  5
369B
  8
0-1
  6
CONTINUOUS
 62
     3
 10
9770.6575819999907
 20
8267.3654449999976
 30
0.0
 11
9770.6575819999907
 21
6406.320061999998
 31
0.0
  0
LINE
  5
369C
  8
0-1
  6
CONTINUOUS
 62
     3
 10
9807.6577539999962
 20
8267.3654449999976
 30
0.0
 11
9807.6577539999962
 21
6406.320061999998
 31
0.0
  0
LINE
  5
369D
  8
0-1
  6
CONTINUOUS
 62
     3
 10
10480.65999800001
 20
8267.3654449999976
 30
0.0
 11
10480.65999800001
 21
6406.320061999998
 31
0.0
  0
LINE
  5
369E
  8
0-1
  6
CONTINUOUS
 62
     3
 10
10517.659180000001
 20
8267.3654449999976
 30
0.0
 11
10517.659180000001
 21
6406.320061999998
 31
0.0
  0
LINE
  5
369F
  8
0-1
  6
CONTINUOUS
 62
     3
 10
11953.10707899999
 20
8480.4734869999957
 30
0.0
 11
11949.094594
 21
8610.4120559999974
 31
0.0
  0
LINE
  5
36A0
  8
0-1
  6
CONTINUOUS
 62
     3
 10
11953.158546000001
 20
8480.4754670000038
 30
0.0
 11
11953.158546000001
 21
8267.3654449999976
 31
0.0
  0
LINE
  5
36A1
  8
0-1
  6
CONTINUOUS
 62
     3
 10
14798.658678
 20
8267.3654449999976
 30
0.0
 11
14798.658678
 21
6356.319402000001
 31
0.0
  0
LINE
  5
36A2
  8
0-1
  6
CONTINUOUS
 62
     3
 10
14913.659798999999
 20
8571.549157999998
 30
0.0
 11
14913.659798999999
 21
6356.319402000001
 31
0.0
  0
LINE
  5
36A3
  8
0-1
  6
CONTINUOUS
 62
     3
 10
14893.65874399998
 20
8570.9315480000005
 30
0.0
 11
14893.65874399998
 21
6356.319402000001
 31
0.0
  0
LINE
  5
36A4
  8
0-1
  6
CONTINUOUS
 62
     3
 10
13388.659892
 20
8267.3654449999976
 30
0.0
 11
13388.659892
 21
6406.320061999998
 31
0.0
  0
LINE
  5
36A5
  8
0-1
  6
CONTINUOUS
 62
     3
 10
13425.660063999991
 20
8267.3654449999976
 30
0.0
 11
13425.660063999991
 21
6406.320061999998
 31
0.0
  0
LINE
  5
36A6
  8
0-1
  6
CONTINUOUS
 62
     3
 10
14088.659232
 20
8267.3654449999976
 30
0.0
 11
14088.659232
 21
6406.320061999998
 31
0.0
  0
LINE
  5
36A7
  8
0-1
  6
CONTINUOUS
 62
     3
 10
14125.65841399999
 20
8267.3654449999976
 30
0.0
 11
14125.65841399999
 21
6406.320061999998
 31
0.0
  0
LINE
  5
36A8
  8
0-1
  6
CONTINUOUS
 62
     3
 10
12688.657583
 20
8267.3654449999976
 30
0.0
 11
12688.657583
 21
6406.320061999998
 31
0.0
  0
LINE
  5
36A9
  8
0-1
  6
CONTINUOUS
 62
     3
 10
12725.658744
 20
8267.3654449999976
 30
0.0
 11
12725.658744
 21
6406.320061999998
 31
0.0
  0
LINE
  5
36AA
  8
0-1
  6
CONTINUOUS
 62
     3
 10
13067.157372000011
 20
6406.320061999998
 30
0.0
 11
13067.157372000011
 21
8267.3654449999976
 31
0.0
  0
LINE
  5
36AB
  8
0-1
  6
CONTINUOUS
 62
     3
 10
13047.158294999999
 20
6406.320061999998
 30
0.0
 11
13047.158294999999
 21
8267.3654449999976
 31
0.0
  0
LINE
  5
36AC
  8
0-1
  6
CONTINUOUS
 62
     3
 10
13117.15902099999
 20
6406.320061999998
 30
0.0
 11
13117.15902099999
 21
8267.3654449999976
 31
0.0
  0
LINE
  5
36AD
  8
0-1
  6
CONTINUOUS
 62
     3
 10
12997.15961500001
 20
6406.320061999998
 30
0.0
 11
12997.15961500001
 21
8267.3654449999976
 31
0.0
  0
LINE
  5
36AE
  8
0-1
  6
CONTINUOUS
 62
     3
 10
12864.15873100001
 20
6406.320061999998
 30
0.0
 11
12864.15873100001
 21
8267.3654449999976
 31
0.0
  0
LINE
  5
36AF
  8
0-1
  6
CONTINUOUS
 62
     3
 10
12849.15892900001
 20
6406.320061999998
 30
0.0
 11
12849.15892900001
 21
8267.3654449999976
 31
0.0
  0
LINE
  5
36B0
  8
0-1
  6
CONTINUOUS
 62
     3
 10
13250.159905
 20
6406.320061999998
 30
0.0
 11
13250.159905
 21
8267.3654449999976
 31
0.0
  0
LINE
  5
36B1
  8
0-1
  6
CONTINUOUS
 62
     3
 10
13265.159707000001
 20
6406.320061999998
 30
0.0
 11
13265.159707000001
 21
8267.3654449999976
 31
0.0
  0
LINE
  5
36B2
  8
0-1
  6
CONTINUOUS
 62
     3
 10
13965.15904799999
 20
6406.320061999998
 30
0.0
 11
13965.15904799999
 21
8267.3654449999976
 31
0.0
  0
LINE
  5
36B3
  8
0-1
  6
CONTINUOUS
 62
     3
 10
13950.158256000001
 20
6406.320061999998
 30
0.0
 11
13950.158256000001
 21
8267.3654449999976
 31
0.0
  0
LINE
  5
36B4
  8
0-1
  6
CONTINUOUS
 62
     3
 10
13549.15826900001
 20
6406.320061999998
 30
0.0
 11
13549.15826900001
 21
8267.3654449999976
 31
0.0
  0
LINE
  5
36B5
  8
0-1
  6
CONTINUOUS
 62
     3
 10
13564.160051000001
 20
6406.320061999998
 30
0.0
 11
13564.160051000001
 21
8267.3654449999976
 31
0.0
  0
LINE
  5
36B6
  8
0-1
  6
CONTINUOUS
 62
     3
 10
13697.15994499999
 20
6406.320061999998
 30
0.0
 11
13697.15994499999
 21
8267.3654449999976
 31
0.0
  0
LINE
  5
36B7
  8
0-1
  6
CONTINUOUS
 62
     3
 10
13817.157372000011
 20
6406.320061999998
 30
0.0
 11
13817.157372000011
 21
8267.3654449999976
 31
0.0
  0
LINE
  5
36B8
  8
0-1
  6
CONTINUOUS
 62
     3
 10
13747.157635999991
 20
6406.320061999998
 30
0.0
 11
13747.157635999991
 21
8267.3654449999976
 31
0.0
  0
LINE
  5
36B9
  8
0-1
  6
CONTINUOUS
 62
     3
 10
13767.15968100001
 20
6406.320061999998
 30
0.0
 11
13767.15968100001
 21
8267.3654449999976
 31
0.0
  0
LINE
  5
36BA
  8
0-1
  6
CONTINUOUS
 62
     3
 10
14467.159020999999
 20
6406.320061999998
 30
0.0
 11
14467.159020999999
 21
8267.3654449999976
 31
0.0
  0
LINE
  5
36BB
  8
0-1
  6
CONTINUOUS
 62
     3
 10
14447.15994499999
 20
6406.320061999998
 30
0.0
 11
14447.15994499999
 21
8267.3654449999976
 31
0.0
  0
LINE
  5
36BC
  8
0-1
  6
CONTINUOUS
 62
     3
 10
14517.159680999999
 20
6406.320061999998
 30
0.0
 11
14517.159680999999
 21
8267.3654449999976
 31
0.0
  0
LINE
  5
36BD
  8
0-1
  6
CONTINUOUS
 62
     3
 10
14397.159285000011
 20
6406.320061999998
 30
0.0
 11
14397.159285000011
 21
8267.3654449999976
 31
0.0
  0
LINE
  5
36BE
  8
0-1
  6
CONTINUOUS
 62
     3
 10
14264.15939100001
 20
6406.320061999998
 30
0.0
 11
14264.15939100001
 21
8267.3654449999976
 31
0.0
  0
LINE
  5
36BF
  8
0-1
  6
CONTINUOUS
 62
     3
 10
14249.157609000011
 20
6406.320061999998
 30
0.0
 11
14249.157609000011
 21
8267.3654449999976
 31
0.0
  0
LINE
  5
36C0
  8
0-1
  6
CONTINUOUS
 62
     3
 10
14660.159680000001
 20
6406.320061999998
 30
0.0
 11
14660.159680000001
 21
8267.3654449999976
 31
0.0
  0
LINE
  5
36C1
  8
0-1
  6
CONTINUOUS
 62
     3
 10
14675.158493000001
 20
6406.320061999998
 30
0.0
 11
14675.158493000001
 21
8267.3654449999976
 31
0.0
  0
LINE
  5
36C2
  8
0-1
  6
CONTINUOUS
 62
     3
 10
12565.15739800001
 20
6406.320061999998
 30
0.0
 11
12565.15739800001
 21
8267.3654449999976
 31
0.0
  0
LINE
  5
36C3
  8
0-1
  6
CONTINUOUS
 62
     3
 10
12550.15858600001
 20
6406.320061999998
 30
0.0
 11
12550.15858600001
 21
8267.3654449999976
 31
0.0
  0
LINE
  5
36C4
  8
0-1
  6
CONTINUOUS
 62
     3
 10
12417.159680999999
 20
6406.320061999998
 30
0.0
 11
12417.159680999999
 21
8267.3654449999976
 31
0.0
  0
LINE
  5
36C5
  8
0-1
  6
CONTINUOUS
 62
     3
 10
14926.158546000001
 20
6356.319402000001
 30
0.0
 11
14926.158546000001
 21
6256.3200620000034
 31
0.0
  0
LINE
  5
36C6
  8
0-1
  6
CONTINUOUS
 62
     3
 10
8815.1875129999971
 20
8431.945588999999
 30
0.0
 11
8814.1403469999968
 21
8465.9309539999995
 31
0.0
  0
LINE
  5
36C7
  8
0-1
  6
CONTINUOUS
 62
     3
 10
8817.046280999999
 20
8469.0209829999985
 30
0.0
 11
14998.039747999999
 21
8659.1943229999943
 31
0.0
  0
LINE
  5
36C8
  8
0-1
  6
CONTINUOUS
 62
     3
 10
14999.272988000001
 20
8619.2129959999984
 30
0.0
 11
8818.2795209999986
 21
8429.0396560000008
 31
0.0
  0
LINE
  5
36C9
  8
0-1
  6
CONTINUOUS
 62
     3
 10
8816.8928680000008
 20
8474.0192669999924
 30
0.0
 11
14997.88534599999
 21
8664.1916170000004
 31
0.0
  0
LINE
  5
36CA
  8
0-1
  6
CONTINUOUS
 62
     3
 10
14999.426401000001
 20
8614.2147119999972
 30
0.0
 11
8818.4319439999908
 21
8424.0423619999983
 31
0.0
  0
LINE
  5
36CB
  8
0-1
  6
CONTINUOUS
 62
     3
 10
8815.5260099999978
 20
8420.9513430000006
 30
0.0
 11
8815.5260099999978
 21
8421.0166670000017
 31
0.0
  0
LINE
  5
36CC
  8
0-1
  6
CONTINUOUS
 62
     3
 10
8815.5260099999978
 20
8421.0166670000017
 30
0.0
 11
8816.5157699999982
 21
8388.9672720000017
 31
0.0
  0
LINE
  5
36CD
  8
0-1
  6
CONTINUOUS
 62
     3
 10
8821.6674670000011
 20
8384.1243800000011
 30
0.0
 11
15021.63363
 21
8574.8816770000049
 31
0.0
  0
LINE
  5
36CE
  8
0-1
  6
CONTINUOUS
 62
     3
 10
15017.623125
 20
8704.8212359999998
 30
0.0
 11
8817.6569619999991
 21
8514.0619590000006
 31
0.0
  0
LINE
  5
36CF
  8
0-1
  6
CONTINUOUS
 62
     3
 10
8812.8120899999994
 20
8508.9092720000026
 30
0.0
 11
8813.8008599999976
 21
8476.9251999999979
 31
0.0
  0
LINE
  5
36D0
  8
0-1
  6
CONTINUOUS
 62
     3
 10
8830.1516829999946
 20
8514.4469749999953
 30
0.0
 11
8834.1621879999984
 21
8384.5084060000008
 31
0.0
  0
LINE
  5
36D1
  8
2-0
  6
CENTER2
 62
     6
 10
9035.1585460000006
 20
5993.6666490000034
 30
0.0
 11
9035.1585460000006
 21
7050.8092470000011
 31
0.0
  0
LINE
  5
36D2
  8
2-0
  6
CENTER2
 62
     6
 10
11953.158546000001
 20
5993.6666490000034
 30
0.0
 11
11953.158546000001
 21
7050.8092470000011
 31
0.0
  0
LINE
  5
36D3
  8
2-0
  6
CENTER2
 62
     6
 10
14871.158546000001
 20
5993.6666490000034
 30
0.0
 11
14871.158546000001
 21
7050.8092470000011
 31
0.0
  0
ARC
  5
36D4
  8
0-1
  6
CONTINUOUS
 62
     3
 10
8819.8562069999989
 20
8426.5880219999981
 30
0.0
 40
2.5
 50
271.76798999988182
 51
91.767989999881877
  0
ARC
  5
36D5
  8
0-1
  6
CONTINUOUS
 62
     3
 10
8818.4685649999974
 20
8471.5656540000018
 30
0.0
 40
2.5
 50
271.76798999988182
 51
91.767989999881877
  0
ARC
  5
36D6
  8
0-1
  6
CONTINUOUS
 62
     3
 10
8817.1373379999968
 20
8466.0230019999981
 30
0.0
 40
3.0
 50
91.767989999881877
 51
181.7679899999863
  0
ARC
  5
36D7
  8
0-1
  6
CONTINUOUS
 62
     3
 10
14998.656368
 20
8639.2031639999968
 30
0.0
 40
20.0
 50
271.76798999988182
 51
91.767989999881877
  0
ARC
  5
36D8
  8
0-1
  6
CONTINUOUS
 62
     3
 10
8818.187473
 20
8432.0396169999949
 30
0.0
 40
3.0
 50
181.7679899999863
 51
271.76798999988182
  0
ARC
  5
36D9
  8
0-1
  6
CONTINUOUS
 62
     3
 10
14998.656368
 20
8639.2031639999968
 30
0.0
 40
24.999998999999999
 50
271.76798999988182
 51
91.767989999881877
  0
ARC
  5
36DA
  8
0-1
  6
CONTINUOUS
 62
     3
 10
8818.5279499999979
 20
8421.0443809999997
 30
0.0
 40
3.0
 50
91.767989999881877
 51
181.7679899999863
  0
ARC
  5
36DB
  8
0-1
  6
CONTINUOUS
 62
     3
 10
8821.5130640000025
 20
8389.121674
 30
0.0
 40
5.0
 50
181.7679899999863
 51
271.76798999988182
  0
ARC
  5
36DC
  8
0-1
  6
CONTINUOUS
 62
     3
 10
14993.659073000001
 20
8639.0487619999985
 30
0.0
 40
69.999999000000003
 50
293.55477900013489
 51
69.981200999902924
  0
ARC
  5
36DD
  8
0-1
  6
CONTINUOUS
 62
     3
 10
8817.8113649999977
 20
8509.0636740000009
 30
0.0
 40
5.0
 50
91.767989999881877
 51
181.7679899999863
  0
ARC
  5
36DE
  8
0-1
  6
CONTINUOUS
 62
     3
 10
8816.7978509999975
 20
8477.0172480000019
 30
0.0
 40
3.0
 50
181.7679899999863
 51
271.76798999988182
  0
TEXT
  5
36DF
  8
2-0
  6
CONTINUOUS
 62
     7
 10
10633.83514600001
 20
3295.169351
 30
0.0
 40
160.0
  1
側 面 立 面 図
 72
     4
 11
11279.168479333341
 21
3375.169351
 31
0.0
  0
TEXT
  5
36E0
  8
2-0
  6
CONTINUOUS
 62
     7
 10
12630.660664470959
 20
3322.3647200000019
 30
0.0
 40
160.0
  1
1
 72
     4
 11
12657.327331137631
 21
3402.3647200000009
 31
0.0
  0
TEXT
  5
36E1
  8
2-0
  6
CONTINUOUS
 62
     7
 10
12873.749381721649
 20
3242.366188
 30
0.0
 40
160.0
  1
80
 72
     4
 11
12993.749381721649
 21
3322.366188
 31
0.0
  0
TEXT
  5
36E2
  8
2-0
  6
CONTINUOUS
 62
     7
 10
12131.66263047095
 20
3295.169351
 30
0.0
 40
160.0
  1
(S=  /   )
 72
     4
 11
12691.66263047095
 21
3375.169351
 31
0.0
  0
LINE
  5
36E3
  8
0-5
  6
CONTINUOUS
 62
     4
 10
14871.158546000001
 20
4576.3194679999997
 30
0.0
 11
14871.158546000001
 21
4416.3199300000024
 31
0.0
  0
LINE
  5
36E4
  8
0-5
  6
CONTINUOUS
 62
     4
 10
11953.158546000001
 20
4576.3194679999997
 30
0.0
 11
11953.158546000001
 21
4416.3199300000024
 31
0.0
  0
LINE
  5
36E5
  8
0-5
  6
CONTINUOUS
 62
     4
 10
9035.1585460000006
 20
4576.3194679999997
 30
0.0
 11
9035.1585460000006
 21
4416.3199300000024
 31
0.0
  0
CIRCLE
  5
36E6
  8
0-5
  6
CONTINUOUS
 62
     4
 10
11953.158546000001
 20
4216.3187750000034
 30
0.0
 40
199.9999949999999
  0
CIRCLE
  5
36E7
  8
0-5
  6
CONTINUOUS
 62
     4
 10
14871.158546000001
 20
4216.3187750000034
 30
0.0
 40
199.9999949999999
  0
CIRCLE
  5
36E8
  8
0-5
  6
CONTINUOUS
 62
     4
 10
9035.1585460000006
 20
4216.3187750000034
 30
0.0
 40
199.9999949999999
  0
TEXT
  5
36E9
  8
0-5
  6
CONTINUOUS
 62
     7
 10
14824.202385999981
 20
4133.1079790000003
 30
0.0
 40
160.0
  1
A
 72
     4
 11
14877.53571933332
 21
4213.1079790000013
 31
0.0
  0
TEXT
  5
36EA
  8
0-5
  6
CONTINUOUS
 62
     7
 10
11906.202385999981
 20
4133.1079790000003
 30
0.0
 40
160.0
  1
B
 72
     4
 11
11959.53571933332
 21
4213.1079790000013
 31
0.0
  0
TEXT
  5
36EB
  8
0-5
  6
CONTINUOUS
 62
     7
 10
8988.2023860000027
 20
4133.1079790000003
 30
0.0
 40
160.0
  1
C
 72
     4
 11
9041.5357193333366
 21
4213.1079790000013
 31
0.0
  0
LINE
  5
36EC
  8
0-5
  6
CONTINUOUS
 62
     4
 10
16631.242542999989
 20
6356.319402000001
 30
0.0
 11
16751.242938999989
 21
6564.1663789999984
 31
0.0
  0
LINE
  5
36ED
  8
0-5
  6
CONTINUOUS
 62
     4
 10
16511.244125999991
 20
6564.1663789999984
 30
0.0
 11
16631.242542999989
 21
6356.319402000001
 31
0.0
  0
LINE
  5
36EE
  8
0-5
  6
CONTINUOUS
 62
     4
 10
16751.242938999989
 20
6564.1663789999984
 30
0.0
 11
16511.244125999991
 21
6564.1663789999984
 31
0.0
  0
LINE
  5
36EF
  8
0-5
  6
CONTINUOUS
 62
     4
 10
15006.155840999991
 20
6356.319402000001
 30
0.0
 11
16723.62073599999
 21
6356.319402000001
 31
0.0
  0
TEXT
  5
36F0
  8
0-5
  6
CONTINUOUS
 62
     7
 10
16172.15061399998
 20
6644.165653
 30
0.0
 40
160.0
  1
布基礎天端
 72
     4
 11
16630.817280666652
 21
6724.165653
 31
0.0
  0
TEXT
  5
36F1
  8
2-0
  6
CONTINUOUS
 62
     7
 10
21525.487913000012
 20
11803.73951899999
 30
0.0
 40
160.0
  1
平　面　図
 50
359.99978700000008
 72
     4
 11
21978.82152390738
 21
11878.40450037622
 31
0.0
  0
TEXT
  5
36F2
  8
2-0
  6
CONTINUOUS
 62
     7
 10
23330.313709045
 20
11825.59986937623
 30
0.0
 40
160.0
  1
1
 72
     4
 11
23356.980375711672
 21
11905.59986937623
 31
0.0
  0
TEXT
  5
36F3
  8
2-0
  6
CONTINUOUS
 62
     7
 10
23573.402426295688
 20
11745.601337376231
 30
0.0
 40
160.0
  1
80
 72
     4
 11
23693.402426295688
 21
11825.601337376231
 31
0.0
  0
TEXT
  5
36F4
  8
2-0
  6
CONTINUOUS
 62
     7
 10
22831.315675044989
 20
11798.40450037622
 30
0.0
 40
160.0
  1
(S=  /   )
 72
     4
 11
23391.315675044989
 21
11878.40450037622
 31
0.0
  0
LINE
  5
36F5
  8
2-0
  6
CONTINUOUS
 62
     6
 10
23140.255093999989
 20
13415.729792
 30
0.0
 11
24140.24849599996
 21
13415.729792
 31
0.0
  0
LINE
  5
36F6
  8
2-0
  6
CONTINUOUS
 62
     6
 10
24608.188872999988
 20
13886.150506
 30
0.0
 11
24140.24849599996
 21
13415.729792
 31
0.0
  0
LINE
  5
36F7
  8
2-0
  6
CONTINUOUS
 62
     6
 10
23156.966189999988
 20
18094.849857000001
 30
0.0
 11
24174.941537999988
 21
18094.849857000001
 31
0.0
  0
LINE
  5
36F8
  8
2-0
  6
CONTINUOUS
 62
     6
 10
24631.367055999988
 20
18319.564805999991
 30
0.0
 11
24174.941537999988
 21
18094.849857000001
 31
0.0
  0
LINE
  5
36F9
  8
2-0
  6
CONTINUOUS
 62
     6
 10
24569.54867
 20
17077.75815300001
 30
0.0
 11
24264.853252000001
 21
17181.411684000021
 31
0.0
  0
LINE
  5
36FA
  8
2-0
  6
CONTINUOUS
 62
     6
 10
24724.57070899996
 20
16588.136109000021
 30
0.0
 11
24264.853252000001
 21
16344.222798000001
 31
0.0
  0
LINE
  5
36FB
  8
2-0
  6
CONTINUOUS
 62
     6
 10
23344.850216999988
 20
16344.222798000001
 30
0.0
 11
24264.853252000001
 21
16344.222798000001
 31
0.0
  0
LINE
  5
36FC
  8
2-0
  6
CONTINUOUS
 62
     6
 10
23064.859189999988
 20
17181.411684000021
 30
0.0
 11
24264.853252000001
 21
17181.411684000021
 31
0.0
  0
LINE
  5
36FD
  8
2-0
  6
CONTINUOUS
 62
     6
 10
24640.747994000001
 20
14207.834151999979
 30
0.0
 11
24264.853252000001
 21
14388.777986999999
 31
0.0
  0
LINE
  5
36FE
  8
2-0
  6
CONTINUOUS
 62
     6
 10
23156.966189999988
 20
15177.087399
 30
0.0
 11
24174.941537999988
 21
15177.087399
 31
0.0
  0
LINE
  5
36FF
  8
2-0
  6
CONTINUOUS
 62
     6
 10
23744.851535999991
 20
14388.777986999999
 30
0.0
 11
24264.853252000001
 21
14388.777986999999
 31
0.0
  0
LINE
  5
3700
  8
2-0
  6
CONTINUOUS
 62
     6
 10
24631.367055999988
 20
15401.800369000021
 30
0.0
 11
24174.941537999988
 21
15177.087399
 31
0.0
  0
LINE
  5
3701
  8
2-0
  6
CONTINUOUS
 62
     4
 10
22956.91401
 20
20014.231442000018
 30
0.0
 11
22956.91401
 21
20744.228406999999
 31
0.0
  0
LINE
  5
3702
  8
2-0
  6
CONTINUOUS
 62
     3
 10
24835.914669999991
 20
19825.228987999999
 30
0.0
 11
24835.914669999991
 21
19819.23302600002
 31
0.0
  0
LINE
  5
3703
  8
2-0
  6
CONTINUOUS
 62
     3
 10
24835.914669999991
 20
19819.23302600002
 30
0.0
 11
24865.912294000002
 21
19819.23302600002
 31
0.0
  0
LINE
  5
3704
  8
2-0
  6
CONTINUOUS
 62
     3
 10
24865.912294000002
 20
19849.23263000001
 30
0.0
 11
24784.910393999991
 21
19849.23263000001
 31
0.0
  0
LINE
  5
3705
  8
2-0
  6
CONTINUOUS
 62
     3
 10
24835.914669999991
 20
19808.935570000001
 30
0.0
 11
24865.912294000002
 21
19808.935570000001
 31
0.0
  0
LINE
  5
3706
  8
2-0
  6
CONTINUOUS
 62
     3
 10
24835.914669999991
 20
19826.93731200002
 30
0.0
 11
24835.914669999991
 21
19808.935570000001
 31
0.0
  0
LINE
  5
3707
  8
2-0
  6
CONTINUOUS
 62
     3
 10
24860.91203000001
 20
19826.93731200002
 30
0.0
 11
24835.914669999991
 21
19826.93731200002
 31
0.0
  0
LINE
  5
3708
  8
2-0
  6
CONTINUOUS
 62
     3
 10
24860.91203000001
 20
19821.929130000019
 30
0.0
 11
24860.91203000001
 21
19826.93731200002
 31
0.0
  0
LINE
  5
3709
  8
2-0
  6
CONTINUOUS
 62
     3
 10
24853.910473
 20
19821.929130000019
 30
0.0
 11
24860.91203000001
 21
19821.929130000019
 31
0.0
  0
LINE
  5
370A
  8
2-0
  6
CONTINUOUS
 62
     3
 10
24753.614205000002
 20
19922.229357000011
 30
0.0
 11
24753.614205000002
 21
19929.234873000001
 31
0.0
  0
LINE
  5
370B
  8
2-0
  6
CONTINUOUS
 62
     3
 10
24753.614205000002
 20
19929.234873000001
 30
0.0
 11
24758.614468999978
 21
19929.234873000001
 31
0.0
  0
LINE
  5
370C
  8
2-0
  6
CONTINUOUS
 62
     3
 10
24758.614468999978
 20
19929.234873000001
 30
0.0
 11
24758.614468999978
 21
19904.22563600001
 31
0.0
  0
LINE
  5
370D
  8
2-0
  6
CONTINUOUS
 62
     3
 10
24758.614468999978
 20
19904.22563600001
 30
0.0
 11
24740.612726999982
 21
19904.22563600001
 31
0.0
  0
LINE
  5
370E
  8
2-0
  6
CONTINUOUS
 62
     3
 10
24740.612726999982
 20
19904.22563600001
 30
0.0
 11
24740.612726999982
 21
19934.229199000009
 31
0.0
  0
LINE
  5
370F
  8
2-0
  6
CONTINUOUS
 62
     3
 10
24750.910183
 20
19934.229199000009
 30
0.0
 11
24865.912294000002
 21
19934.229199000009
 31
0.0
  0
LINE
  5
3710
  8
2-0
  6
CONTINUOUS
 62
     3
 10
24750.910183
 20
19904.22563600001
 30
0.0
 11
24750.910183
 21
19934.229199000009
 31
0.0
  0
LINE
  5
3711
  8
2-0
  6
CONTINUOUS
 62
     3
 10
24756.912082999999
 20
19904.22563600001
 30
0.0
 11
24750.910183
 21
19904.22563600001
 31
0.0
  0
LINE
  5
3712
  8
2-0
  6
CONTINUOUS
 62
     3
 10
24853.910473
 20
19118.132307499989
 30
0.0
 11
24860.91203000001
 21
19118.132307499989
 31
0.0
  0
LINE
  5
3713
  8
2-0
  6
CONTINUOUS
 62
     3
 10
24860.91203000001
 20
19118.132307499989
 30
0.0
 11
24860.91203000001
 21
19123.132571499991
 31
0.0
  0
LINE
  5
3714
  8
2-0
  6
CONTINUOUS
 62
     3
 10
24860.91203000001
 20
19123.132571499991
 30
0.0
 11
24835.914669999991
 21
19123.132571499991
 31
0.0
  0
LINE
  5
3715
  8
2-0
  6
CONTINUOUS
 62
     3
 10
24835.914669999991
 20
19123.132571499991
 30
0.0
 11
24835.914669999991
 21
19105.1367675
 31
0.0
  0
LINE
  5
3716
  8
2-0
  6
CONTINUOUS
 62
     3
 10
24835.914669999991
 20
19105.1367675
 30
0.0
 11
24865.912294000002
 21
19105.1367675
 31
0.0
  0
LINE
  5
3717
  8
2-0
  6
CONTINUOUS
 62
     3
 10
24835.914669999991
 20
19121.22827449995
 30
0.0
 11
24835.914669999991
 21
19115.230333499989
 31
0.0
  0
LINE
  5
3718
  8
2-0
  6
CONTINUOUS
 62
     3
 10
24835.914669999991
 20
19115.230333499989
 30
0.0
 11
24865.912294000002
 21
19115.230333499989
 31
0.0
  0
LINE
  5
3719
  8
2-0
  6
CONTINUOUS
 62
     3
 10
24865.912294000002
 20
19115.230333499989
 30
0.0
 11
24865.912294000002
 21
19152.2314945
 31
0.0
  0
LINE
  5
371A
  8
2-0
  6
CONTINUOUS
 62
     3
 10
24835.914669999991
 20
19152.2314945
 30
0.0
 11
24865.912294000002
 21
19152.2314945
 31
0.0
  0
LINE
  5
371B
  8
2-0
  6
CONTINUOUS
 62
     3
 10
24835.914669999991
 20
19146.227614499981
 30
0.0
 11
24835.914669999991
 21
19152.2314945
 31
0.0
  0
LINE
  5
371C
  8
2-0
  6
CONTINUOUS
 62
     3
 10
24835.914669999991
 20
19162.327039499982
 30
0.0
 11
24865.912294000002
 21
19162.327039499982
 31
0.0
  0
LINE
  5
371D
  8
2-0
  6
CONTINUOUS
 62
     3
 10
24835.914669999991
 20
19144.3252975
 30
0.0
 11
24835.914669999991
 21
19162.327039499982
 31
0.0
  0
LINE
  5
371E
  8
2-0
  6
CONTINUOUS
 62
     3
 10
24860.91203000001
 20
19144.3252975
 30
0.0
 11
24835.914669999991
 21
19144.3252975
 31
0.0
  0
LINE
  5
371F
  8
2-0
  6
CONTINUOUS
 62
     3
 10
24860.91203000001
 20
19149.325561500002
 30
0.0
 11
24860.91203000001
 21
19144.3252975
 31
0.0
  0
LINE
  5
3720
  8
2-0
  6
CONTINUOUS
 62
     3
 10
24853.910473
 20
19149.325561500002
 30
0.0
 11
24860.91203000001
 21
19149.325561500002
 31
0.0
  0
LINE
  5
3721
  8
2-0
  6
CONTINUOUS
 62
     3
 10
24853.910473
 20
18417.131317999989
 30
0.0
 11
24860.91203000001
 21
18417.131317999989
 31
0.0
  0
LINE
  5
3722
  8
2-0
  6
CONTINUOUS
 62
     3
 10
24860.91203000001
 20
18417.131317999989
 30
0.0
 11
24860.91203000001
 21
18422.13752
 31
0.0
  0
LINE
  5
3723
  8
2-0
  6
CONTINUOUS
 62
     3
 10
24860.91203000001
 20
18422.13752
 30
0.0
 11
24835.914669999991
 21
18422.13752
 31
0.0
  0
LINE
  5
3724
  8
2-0
  6
CONTINUOUS
 62
     3
 10
24835.914669999991
 20
18422.13752
 30
0.0
 11
24835.914669999991
 21
18404.135778
 31
0.0
  0
LINE
  5
3725
  8
2-0
  6
CONTINUOUS
 62
     3
 10
24835.914669999991
 20
18404.135778
 30
0.0
 11
24865.912294000002
 21
18404.135778
 31
0.0
  0
LINE
  5
3726
  8
2-0
  6
CONTINUOUS
 62
     3
 10
24835.914669999991
 20
18420.22728499999
 30
0.0
 11
24835.914669999991
 21
18414.231323
 31
0.0
  0
LINE
  5
3727
  8
2-0
  6
CONTINUOUS
 62
     3
 10
24835.914669999991
 20
18414.231323
 30
0.0
 11
24865.912294000002
 21
18414.231323
 31
0.0
  0
LINE
  5
3728
  8
2-0
  6
CONTINUOUS
 62
     3
 10
24865.912294000002
 20
18414.231323
 30
0.0
 11
24865.912294000002
 21
18451.230504999989
 31
0.0
  0
LINE
  5
3729
  8
2-0
  6
CONTINUOUS
 62
     3
 10
24835.914669999991
 20
18451.230504999989
 30
0.0
 11
24865.912294000002
 21
18451.230504999989
 31
0.0
  0
LINE
  5
372A
  8
2-0
  6
CONTINUOUS
 62
     3
 10
24835.914669999991
 20
18445.23454300001
 30
0.0
 11
24835.914669999991
 21
18451.230504999989
 31
0.0
  0
LINE
  5
372B
  8
2-0
  6
CONTINUOUS
 62
     3
 10
24835.914669999991
 20
18461.32605
 30
0.0
 11
24865.912294000002
 21
18461.32605
 31
0.0
  0
LINE
  5
372C
  8
2-0
  6
CONTINUOUS
 62
     3
 10
24835.914669999991
 20
18443.324307999988
 30
0.0
 11
24835.914669999991
 21
18461.32605
 31
0.0
  0
LINE
  5
372D
  8
2-0
  6
CONTINUOUS
 62
     3
 10
24860.91203000001
 20
18443.324307999988
 30
0.0
 11
24835.914669999991
 21
18443.324307999988
 31
0.0
  0
LINE
  5
372E
  8
2-0
  6
CONTINUOUS
 62
     3
 10
24860.91203000001
 20
18448.33051
 30
0.0
 11
24860.91203000001
 21
18443.324307999988
 31
0.0
  0
LINE
  5
372F
  8
2-0
  6
CONTINUOUS
 62
     3
 10
24853.910473
 20
18448.33051
 30
0.0
 11
24860.91203000001
 21
18448.33051
 31
0.0
  0
LINE
  5
3730
  8
2-0
  6
CONTINUOUS
 62
     3
 10
24853.910473
 20
17747.324572000001
 30
0.0
 11
24860.91203000001
 21
17747.324572000001
 31
0.0
  0
LINE
  5
3731
  8
2-0
  6
CONTINUOUS
 62
     3
 10
24860.91203000001
 20
17747.324572000001
 30
0.0
 11
24860.91203000001
 21
17742.336185
 31
0.0
  0
LINE
  5
3732
  8
2-0
  6
CONTINUOUS
 62
     3
 10
24860.91203000001
 20
17742.336185
 30
0.0
 11
24835.914669999991
 21
17742.336185
 31
0.0
  0
LINE
  5
3733
  8
2-0
  6
CONTINUOUS
 62
     3
 10
24835.914669999991
 20
17742.336185
 30
0.0
 11
24835.914669999991
 21
17760.331988000002
 31
0.0
  0
LINE
  5
3734
  8
2-0
  6
CONTINUOUS
 62
     3
 10
24835.914669999991
 20
17760.331988000002
 30
0.0
 11
24865.912294000002
 21
17760.331988000002
 31
0.0
  0
LINE
  5
3735
  8
2-0
  6
CONTINUOUS
 62
     3
 10
24835.914669999991
 20
17744.234542999991
 30
0.0
 11
24835.914669999991
 21
17750.230504999989
 31
0.0
  0
LINE
  5
3736
  8
2-0
  6
CONTINUOUS
 62
     3
 10
24835.914669999991
 20
17750.230504999989
 30
0.0
 11
24865.912294000002
 21
17750.230504999989
 31
0.0
  0
LINE
  5
3737
  8
2-0
  6
CONTINUOUS
 62
     3
 10
24865.912294000002
 20
17750.230504999989
 30
0.0
 11
24865.912294000002
 21
17713.231323
 31
0.0
  0
LINE
  5
3738
  8
2-0
  6
CONTINUOUS
 62
     3
 10
24835.914669999991
 20
17713.231323
 30
0.0
 11
24865.912294000002
 21
17713.231323
 31
0.0
  0
LINE
  5
3739
  8
2-0
  6
CONTINUOUS
 62
     3
 10
24835.914669999991
 20
17719.233223999989
 30
0.0
 11
24835.914669999991
 21
17713.231323
 31
0.0
  0
LINE
  5
373A
  8
2-0
  6
CONTINUOUS
 62
     3
 10
24835.914669999991
 20
17703.141716999991
 30
0.0
 11
24865.912294000002
 21
17703.141716999991
 31
0.0
  0
LINE
  5
373B
  8
2-0
  6
CONTINUOUS
 62
     3
 10
24835.914669999991
 20
17721.13752
 30
0.0
 11
24835.914669999991
 21
17703.141716999991
 31
0.0
  0
LINE
  5
373C
  8
2-0
  6
CONTINUOUS
 62
     3
 10
24860.91203000001
 20
17721.13752
 30
0.0
 11
24835.914669999991
 21
17721.13752
 31
0.0
  0
LINE
  5
373D
  8
2-0
  6
CONTINUOUS
 62
     3
 10
24860.91203000001
 20
17716.137256999991
 30
0.0
 11
24860.91203000001
 21
17721.13752
 31
0.0
  0
LINE
  5
373E
  8
2-0
  6
CONTINUOUS
 62
     3
 10
24853.910473
 20
17716.137256999991
 30
0.0
 11
24860.91203000001
 21
17716.137256999991
 31
0.0
  0
LINE
  5
373F
  8
2-0
  6
CONTINUOUS
 62
     3
 10
24863.026156
 20
16996.228143
 30
0.0
 11
24863.026156
 21
17016.229198000001
 31
0.0
  0
LINE
  5
3740
  8
2-0
  6
CONTINUOUS
 62
     3
 10
24863.026156
 20
17016.229198000001
 30
0.0
 11
24778.029587000001
 21
17016.229198000001
 31
0.0
  0
LINE
  5
3741
  8
2-0
  6
CONTINUOUS
 62
     3
 10
24853.910473
 20
17042.835908000001
 30
0.0
 11
24860.91203000001
 21
17042.835908000001
 31
0.0
  0
LINE
  5
3742
  8
2-0
  6
CONTINUOUS
 62
     3
 10
24860.91203000001
 20
17042.835908000001
 30
0.0
 11
24860.91203000001
 21
17037.841582000001
 31
0.0
  0
LINE
  5
3743
  8
2-0
  6
CONTINUOUS
 62
     3
 10
24860.91203000001
 20
17037.841582000001
 30
0.0
 11
24835.914669999991
 21
17037.841582000001
 31
0.0
  0
LINE
  5
3744
  8
2-0
  6
CONTINUOUS
 62
     3
 10
24835.914669999991
 20
17037.841582000001
 30
0.0
 11
24835.914669999991
 21
17055.83738600001
 31
0.0
  0
LINE
  5
3745
  8
2-0
  6
CONTINUOUS
 62
     3
 10
24835.914669999991
 20
17055.83738600001
 30
0.0
 11
24865.912294000002
 21
17055.83738600001
 31
0.0
  0
LINE
  5
3746
  8
2-0
  6
CONTINUOUS
 62
     3
 10
24835.914669999991
 20
17046.228802000001
 30
0.0
 11
24835.914669999991
 21
17040.226901999991
 31
0.0
  0
LINE
  5
3747
  8
2-0
  6
CONTINUOUS
 62
     3
 10
24865.912294000002
 20
17046.228802000001
 30
0.0
 11
24835.914669999991
 21
17046.228802000001
 31
0.0
  0
LINE
  5
3748
  8
2-0
  6
CONTINUOUS
 62
     3
 10
24865.912294000002
 20
17055.83738600001
 30
0.0
 11
24865.912294000002
 21
17703.141716999991
 31
0.0
  0
LINE
  5
3749
  8
2-0
  6
CONTINUOUS
 62
     3
 10
24865.912294000002
 20
17760.331988000002
 30
0.0
 11
24865.912294000002
 21
18404.135778
 31
0.0
  0
LINE
  5
374A
  8
2-0
  6
CONTINUOUS
 62
     3
 10
24865.912294000002
 20
16901.22708700001
 30
0.0
 11
24835.914669999991
 21
16901.22708700001
 31
0.0
  0
LINE
  5
374B
  8
2-0
  6
CONTINUOUS
 62
     3
 10
24835.914669999991
 20
16901.22708700001
 30
0.0
 11
24835.914669999991
 21
16907.22898700001
 31
0.0
  0
LINE
  5
374C
  8
2-0
  6
CONTINUOUS
 62
     3
 10
24778.029587000001
 20
16931.232629999991
 30
0.0
 11
24863.026156
 21
16931.232629999991
 31
0.0
  0
LINE
  5
374D
  8
2-0
  6
CONTINUOUS
 62
     3
 10
24863.026156
 20
16931.232629999991
 30
0.0
 11
24863.026156
 21
16951.227747000012
 31
0.0
  0
LINE
  5
374E
  8
2-0
  6
CONTINUOUS
 62
     3
 10
24835.914669999991
 20
16891.618503999998
 30
0.0
 11
24865.912294000002
 21
16891.618503999998
 31
0.0
  0
LINE
  5
374F
  8
2-0
  6
CONTINUOUS
 62
     3
 10
24835.914669999991
 20
16909.614306999982
 30
0.0
 11
24835.914669999991
 21
16891.618503999998
 31
0.0
  0
LINE
  5
3750
  8
2-0
  6
CONTINUOUS
 62
     3
 10
24860.91203000001
 20
16909.614306999982
 30
0.0
 11
24835.914669999991
 21
16909.614306999982
 31
0.0
  0
LINE
  5
3751
  8
2-0
  6
CONTINUOUS
 62
     3
 10
24860.91203000001
 20
16904.614043000009
 30
0.0
 11
24860.91203000001
 21
16909.614306999982
 31
0.0
  0
LINE
  5
3752
  8
2-0
  6
CONTINUOUS
 62
     3
 10
24853.910473
 20
16904.614043000009
 30
0.0
 11
24860.91203000001
 21
16904.614043000009
 31
0.0
  0
LINE
  5
3753
  8
2-0
  6
CONTINUOUS
 62
     3
 10
24853.910473
 20
16200.131812499991
 30
0.0
 11
24860.91203000001
 21
16200.131812499991
 31
0.0
  0
LINE
  5
3754
  8
2-0
  6
CONTINUOUS
 62
     3
 10
24860.91203000001
 20
16200.131812499991
 30
0.0
 11
24860.91203000001
 21
16205.13207649998
 31
0.0
  0
LINE
  5
3755
  8
2-0
  6
CONTINUOUS
 62
     3
 10
24860.91203000001
 20
16205.13207649998
 30
0.0
 11
24835.914669999991
 21
16205.13207649998
 31
0.0
  0
LINE
  5
3756
  8
2-0
  6
CONTINUOUS
 62
     3
 10
24835.914669999991
 20
16205.13207649998
 30
0.0
 11
24835.914669999991
 21
16187.130334499991
 31
0.0
  0
LINE
  5
3757
  8
2-0
  6
CONTINUOUS
 62
     3
 10
24835.914669999991
 20
16187.130334499991
 30
0.0
 11
24865.912294000002
 21
16187.130334499991
 31
0.0
  0
LINE
  5
3758
  8
2-0
  6
CONTINUOUS
 62
     3
 10
24835.914669999991
 20
16203.227779500001
 30
0.0
 11
24835.914669999991
 21
16197.2308285
 31
0.0
  0
LINE
  5
3759
  8
2-0
  6
CONTINUOUS
 62
     3
 10
24835.914669999991
 20
16197.2308285
 30
0.0
 11
24865.912294000002
 21
16197.2308285
 31
0.0
  0
LINE
  5
375A
  8
2-0
  6
CONTINUOUS
 62
     3
 10
24865.912294000002
 20
16197.2308285
 30
0.0
 11
24865.912294000002
 21
16234.2309995
 31
0.0
  0
LINE
  5
375B
  8
2-0
  6
CONTINUOUS
 62
     3
 10
24835.914669999991
 20
16234.2309995
 30
0.0
 11
24865.912294000002
 21
16234.2309995
 31
0.0
  0
LINE
  5
375C
  8
2-0
  6
CONTINUOUS
 62
     3
 10
24835.914669999991
 20
16228.228109499991
 30
0.0
 11
24835.914669999991
 21
16234.2309995
 31
0.0
  0
LINE
  5
375D
  8
2-0
  6
CONTINUOUS
 62
     3
 10
24835.914669999991
 20
16244.3265445
 30
0.0
 11
24865.912294000002
 21
16244.3265445
 31
0.0
  0
LINE
  5
375E
  8
2-0
  6
CONTINUOUS
 62
     3
 10
24835.914669999991
 20
16226.318863500001
 30
0.0
 11
24835.914669999991
 21
16244.3265445
 31
0.0
  0
LINE
  5
375F
  8
2-0
  6
CONTINUOUS
 62
     3
 10
24860.91203000001
 20
16226.318863500001
 30
0.0
 11
24835.914669999991
 21
16226.318863500001
 31
0.0
  0
LINE
  5
3760
  8
2-0
  6
CONTINUOUS
 62
     3
 10
24860.91203000001
 20
16231.3250665
 30
0.0
 11
24860.91203000001
 21
16226.318863500001
 31
0.0
  0
LINE
  5
3761
  8
2-0
  6
CONTINUOUS
 62
     3
 10
24853.910473
 20
16231.3250665
 30
0.0
 11
24860.91203000001
 21
16231.3250665
 31
0.0
  0
LINE
  5
3762
  8
2-0
  6
CONTINUOUS
 62
     3
 10
24853.910473
 20
15530.565083
 30
0.0
 11
24860.91203000001
 21
15530.565083
 31
0.0
  0
LINE
  5
3763
  8
2-0
  6
CONTINUOUS
 62
     3
 10
24860.91203000001
 20
15530.565083
 30
0.0
 11
24860.91203000001
 21
15525.570758000011
 31
0.0
  0
LINE
  5
3764
  8
2-0
  6
CONTINUOUS
 62
     3
 10
24860.91203000001
 20
15525.570758000011
 30
0.0
 11
24835.914669999991
 21
15525.570758000011
 31
0.0
  0
LINE
  5
3765
  8
2-0
  6
CONTINUOUS
 62
     3
 10
24835.914669999991
 20
15525.570758000011
 30
0.0
 11
24835.914669999991
 21
15543.566561000011
 31
0.0
  0
LINE
  5
3766
  8
2-0
  6
CONTINUOUS
 62
     3
 10
24835.914669999991
 20
15543.566561000011
 30
0.0
 11
24865.912294000002
 21
15543.566561000011
 31
0.0
  0
LINE
  5
3767
  8
2-0
  6
CONTINUOUS
 62
     3
 10
24835.914669999991
 20
15527.469116
 30
0.0
 11
24835.914669999991
 21
15533.47101600001
 31
0.0
  0
LINE
  5
3768
  8
2-0
  6
CONTINUOUS
 62
     3
 10
24835.914669999991
 20
15533.47101600001
 30
0.0
 11
24865.912294000002
 21
15533.47101600001
 31
0.0
  0
LINE
  5
3769
  8
2-0
  6
CONTINUOUS
 62
     3
 10
24865.912294000002
 20
15496.471835
 30
0.0
 11
24865.912294000002
 21
15533.47101600001
 31
0.0
  0
LINE
  5
376A
  8
2-0
  6
CONTINUOUS
 62
     3
 10
24835.914669999991
 20
15496.471835
 30
0.0
 11
24865.912294000002
 21
15496.471835
 31
0.0
  0
LINE
  5
376B
  8
2-0
  6
CONTINUOUS
 62
     3
 10
24835.914669999991
 20
15502.46878600001
 30
0.0
 11
24835.914669999991
 21
15496.471835
 31
0.0
  0
LINE
  5
376C
  8
2-0
  6
CONTINUOUS
 62
     3
 10
24835.914669999991
 20
15486.370351
 30
0.0
 11
24865.912294000002
 21
15486.370351
 31
0.0
  0
LINE
  5
376D
  8
2-0
  6
CONTINUOUS
 62
     3
 10
24835.914669999991
 20
15504.378032000001
 30
0.0
 11
24835.914669999991
 21
15486.370351
 31
0.0
  0
LINE
  5
376E
  8
2-0
  6
CONTINUOUS
 62
     3
 10
24860.91203000001
 20
15504.378032000001
 30
0.0
 11
24835.914669999991
 21
15504.378032000001
 31
0.0
  0
LINE
  5
376F
  8
2-0
  6
CONTINUOUS
 62
     3
 10
24860.91203000001
 20
15499.377768000009
 30
0.0
 11
24860.91203000001
 21
15504.378032000001
 31
0.0
  0
LINE
  5
3770
  8
2-0
  6
CONTINUOUS
 62
     3
 10
24853.910473
 20
15499.377768000009
 30
0.0
 11
24860.91203000001
 21
15499.377768000009
 31
0.0
  0
LINE
  5
3771
  8
2-0
  6
CONTINUOUS
 62
     3
 10
24865.912294000002
 20
16891.618503999998
 30
0.0
 11
24865.912294000002
 21
16244.3265445
 31
0.0
  0
LINE
  5
3772
  8
2-0
  6
CONTINUOUS
 62
     3
 10
24865.912294000002
 20
17046.228802000001
 30
0.0
 11
24865.912294000002
 21
16901.22708700001
 31
0.0
  0
LINE
  5
3773
  8
2-0
  6
CONTINUOUS
 62
     3
 10
24778.029587000001
 20
17016.229198000001
 30
0.0
 11
24778.029587000001
 21
16931.232629999991
 31
0.0
  0
LINE
  5
3774
  8
2-0
  6
CONTINUOUS
 62
     6
 10
23239.820919999991
 20
18784.676463499982
 30
0.0
 11
24264.853252000001
 21
18784.676463499982
 31
0.0
  0
LINE
  5
3775
  8
2-0
  6
CONTINUOUS
 62
     3
 10
24853.910473
 20
14798.136761
 30
0.0
 11
24860.91203000001
 21
14798.136761
 31
0.0
  0
LINE
  5
3776
  8
2-0
  6
CONTINUOUS
 62
     3
 10
24860.91203000001
 20
14798.136761
 30
0.0
 11
24860.91203000001
 21
14803.131087
 31
0.0
  0
LINE
  5
3777
  8
2-0
  6
CONTINUOUS
 62
     3
 10
24860.91203000001
 20
14803.131087
 30
0.0
 11
24835.914669999991
 21
14803.131087
 31
0.0
  0
LINE
  5
3778
  8
2-0
  6
CONTINUOUS
 62
     3
 10
24835.914669999991
 20
14803.131087
 30
0.0
 11
24835.914669999991
 21
14785.135283
 31
0.0
  0
LINE
  5
3779
  8
2-0
  6
CONTINUOUS
 62
     3
 10
24835.914669999991
 20
14785.135283
 30
0.0
 11
24865.912294000002
 21
14785.135283
 31
0.0
  0
LINE
  5
377A
  8
2-0
  6
CONTINUOUS
 62
     3
 10
24835.914669999991
 20
14801.23371800001
 30
0.0
 11
24835.914669999991
 21
14795.230828000011
 31
0.0
  0
LINE
  5
377B
  8
2-0
  6
CONTINUOUS
 62
     3
 10
24835.914669999991
 20
14795.230828000011
 30
0.0
 11
24865.912294000002
 21
14795.230828000011
 31
0.0
  0
LINE
  5
377C
  8
2-0
  6
CONTINUOUS
 62
     3
 10
24865.912294000002
 20
14795.230828000011
 30
0.0
 11
24865.912294000002
 21
14832.230999999991
 31
0.0
  0
LINE
  5
377D
  8
2-0
  6
CONTINUOUS
 62
     3
 10
24835.914669999991
 20
14832.230999999991
 30
0.0
 11
24865.912294000002
 21
14832.230999999991
 31
0.0
  0
LINE
  5
377E
  8
2-0
  6
CONTINUOUS
 62
     3
 10
24835.914669999991
 20
14826.23404799998
 30
0.0
 11
24835.914669999991
 21
14832.230999999991
 31
0.0
  0
LINE
  5
377F
  8
2-0
  6
CONTINUOUS
 62
     3
 10
24835.914669999991
 20
14842.331493000011
 30
0.0
 11
24865.912294000002
 21
14842.331493000011
 31
0.0
  0
LINE
  5
3780
  8
2-0
  6
CONTINUOUS
 62
     3
 10
24835.914669999991
 20
14824.32480200001
 30
0.0
 11
24835.914669999991
 21
14842.331493000011
 31
0.0
  0
LINE
  5
3781
  8
2-0
  6
CONTINUOUS
 62
     3
 10
24860.91203000001
 20
14824.32480200001
 30
0.0
 11
24835.914669999991
 21
14824.32480200001
 31
0.0
  0
LINE
  5
3782
  8
2-0
  6
CONTINUOUS
 62
     3
 10
24860.91203000001
 20
14829.33001500001
 30
0.0
 11
24860.91203000001
 21
14824.32480200001
 31
0.0
  0
LINE
  5
3783
  8
2-0
  6
CONTINUOUS
 62
     3
 10
24853.910473
 20
14829.33001500001
 30
0.0
 11
24860.91203000001
 21
14829.33001500001
 31
0.0
  0
LINE
  5
3784
  8
2-0
  6
CONTINUOUS
 62
     3
 10
24835.914669999991
 20
14122.23284099999
 30
0.0
 11
24835.914669999991
 21
14128.237709999999
 31
0.0
  0
LINE
  5
3785
  8
2-0
  6
CONTINUOUS
 62
     3
 10
24835.914669999991
 20
14128.237709999999
 30
0.0
 11
24865.912294000002
 21
14128.237709999999
 31
0.0
  0
LINE
  5
3786
  8
2-0
  6
CONTINUOUS
 62
     3
 10
24865.912294000002
 20
14128.237709999999
 30
0.0
 11
24865.912294000002
 21
14013.233619000001
 31
0.0
  0
LINE
  5
3787
  8
2-0
  6
CONTINUOUS
 62
     3
 10
24865.912294000002
 20
14013.233619000001
 30
0.0
 11
24780.913745999991
 21
14013.233619000001
 31
0.0
  0
LINE
  5
3788
  8
2-0
  6
CONTINUOUS
 62
     3
 10
24780.913745999991
 20
14013.233619000001
 30
0.0
 11
24780.913745999991
 21
14098.229198000001
 31
0.0
  0
LINE
  5
3789
  8
2-0
  6
CONTINUOUS
 62
     3
 10
24780.913745999991
 20
14098.229198000001
 30
0.0
 11
24812.912663999989
 21
14098.229198000001
 31
0.0
  0
LINE
  5
378A
  8
2-0
  6
CONTINUOUS
 62
     3
 10
24853.910473
 20
14125.267443000001
 30
0.0
 11
24860.91203000001
 21
14125.267443000001
 31
0.0
  0
LINE
  5
378B
  8
2-0
  6
CONTINUOUS
 62
     3
 10
24860.91203000001
 20
14125.267443000001
 30
0.0
 11
24860.91203000001
 21
14120.270147999971
 31
0.0
  0
LINE
  5
378C
  8
2-0
  6
CONTINUOUS
 62
     3
 10
24860.91203000001
 20
14120.270147999971
 30
0.0
 11
24835.914669999991
 21
14120.270147999971
 31
0.0
  0
LINE
  5
378D
  8
2-0
  6
CONTINUOUS
 62
     3
 10
24835.914669999991
 20
14120.270147999971
 30
0.0
 11
24835.914669999991
 21
14138.268921000001
 31
0.0
  0
LINE
  5
378E
  8
2-0
  6
CONTINUOUS
 62
     3
 10
24835.914669999991
 20
14138.268921000001
 30
0.0
 11
24865.912294000002
 21
14138.268921000001
 31
0.0
  0
LINE
  5
378F
  8
2-0
  6
CENTER2
 62
     6
 10
24823.41401
 20
13815.736060999991
 30
0.0
 11
24823.41401
 21
14971.60481900002
 31
0.0
  0
LINE
  5
3790
  8
2-0
  6
CONTINUOUS
 62
     3
 10
24865.912294000002
 20
18461.32605
 30
0.0
 11
24865.912294000002
 21
19105.1367675
 31
0.0
  0
LINE
  5
3791
  8
2-0
  6
CONTINUOUS
 62
     6
 10
25558.417176999988
 20
20664.232102000031
 30
0.0
 11
26758.411238999961
 21
20664.232102000031
 31
0.0
  0
LINE
  5
3792
  8
2-0
  6
CONTINUOUS
 62
     3
 10
23029.415858000011
 20
19934.229199000009
 30
0.0
 11
23029.415858000011
 21
19904.22563600001
 31
0.0
  0
LINE
  5
3793
  8
2-0
  6
CONTINUOUS
 62
     3
 10
23029.415858000011
 20
19904.22563600001
 30
0.0
 11
23023.417915999991
 21
19904.22563600001
 31
0.0
  0
LINE
  5
3794
  8
2-0
  6
CONTINUOUS
 62
     3
 10
23039.032359000001
 20
19904.22563600001
 30
0.0
 11
23039.032359000001
 21
19934.229199000009
 31
0.0
  0
LINE
  5
3795
  8
2-0
  6
CONTINUOUS
 62
     3
 10
23021.030617
 20
19904.22563600001
 30
0.0
 11
23039.032359000001
 21
19904.22563600001
 31
0.0
  0
LINE
  5
3796
  8
2-0
  6
CONTINUOUS
 62
     3
 10
23021.030617
 20
19929.234873000001
 30
0.0
 11
23021.030617
 21
19904.22563600001
 31
0.0
  0
LINE
  5
3797
  8
2-0
  6
CONTINUOUS
 62
     3
 10
23026.03088100001
 20
19929.234873000001
 30
0.0
 11
23021.030617
 21
19929.234873000001
 31
0.0
  0
LINE
  5
3798
  8
2-0
  6
CONTINUOUS
 62
     3
 10
23026.03088100001
 20
19922.229357000011
 30
0.0
 11
23026.03088100001
 21
19929.234873000001
 31
0.0
  0
LINE
  5
3799
  8
2-0
  6
CONTINUOUS
 62
     3
 10
22999.41427400001
 20
19931.337122000001
 30
0.0
 11
22999.41427400001
 21
19846.338574000009
 31
0.0
  0
LINE
  5
379A
  8
2-0
  6
CONTINUOUS
 62
     3
 10
22979.417176999999
 20
19931.337122000001
 30
0.0
 11
22999.41427400001
 21
19931.337122000001
 31
0.0
  0
LINE
  5
379B
  8
2-0
  6
CONTINUOUS
 62
     3
 10
22887.803078000012
 20
19922.229357000011
 30
0.0
 11
22887.803078000012
 21
19929.234873000001
 31
0.0
  0
LINE
  5
379C
  8
2-0
  6
CONTINUOUS
 62
     3
 10
22887.803078000012
 20
19929.234873000001
 30
0.0
 11
22892.803341999988
 21
19929.234873000001
 31
0.0
  0
LINE
  5
379D
  8
2-0
  6
CONTINUOUS
 62
     3
 10
22892.803341999988
 20
19929.234873000001
 30
0.0
 11
22892.803341999988
 21
19904.22563600001
 31
0.0
  0
LINE
  5
379E
  8
2-0
  6
CONTINUOUS
 62
     3
 10
22892.803341999988
 20
19904.22563600001
 30
0.0
 11
22874.801599999992
 21
19904.22563600001
 31
0.0
  0
LINE
  5
379F
  8
2-0
  6
CONTINUOUS
 62
     3
 10
22874.801599999992
 20
19904.22563600001
 30
0.0
 11
22874.801599999992
 21
19934.229199000009
 31
0.0
  0
LINE
  5
37A0
  8
2-0
  6
CONTINUOUS
 62
     3
 10
22914.421664000001
 20
19931.337122000001
 30
0.0
 11
22934.416781000011
 21
19931.337122000001
 31
0.0
  0
LINE
  5
37A1
  8
2-0
  6
CONTINUOUS
 62
     3
 10
22914.421664000001
 20
19846.338574000009
 30
0.0
 11
22914.421664000001
 21
19931.337122000001
 31
0.0
  0
LINE
  5
37A2
  8
2-0
  6
CONTINUOUS
 62
     3
 10
22884.424040000002
 20
19904.22563600001
 30
0.0
 11
22890.420000999991
 21
19904.22563600001
 31
0.0
  0
LINE
  5
37A3
  8
2-0
  6
CONTINUOUS
 62
     3
 10
22884.424040000002
 20
19934.229199000009
 30
0.0
 11
22884.424040000002
 21
19904.22563600001
 31
0.0
  0
LINE
  5
37A4
  8
2-0
  6
CONTINUOUS
 62
     3
 10
22999.41427400001
 20
19846.338574000009
 30
0.0
 11
22914.421664000001
 21
19846.338574000009
 31
0.0
  0
LINE
  5
37A5
  8
2-0
  6
CONTINUOUS
 62
     3
 10
23029.415858000011
 20
19934.229199000009
 30
0.0
 11
22884.424040000002
 21
19934.229199000009
 31
0.0
  0
LINE
  5
37A6
  8
2-0
  6
CONTINUOUS
 62
     6
 10
24696.384343999991
 20
19026.830971499989
 30
0.0
 11
24264.853252000001
 21
18784.676463499982
 31
0.0
  0
LINE
  5
37A7
  8
2-0
  6
CONTINUOUS
 62
     6
 10
25017.95317799996
 20
20076.908939000012
 30
0.0
 11
25558.417176999988
 21
20664.232102000031
 31
0.0
  0
LINE
  5
37A8
  8
2-0
  6
CONTINUOUS
 62
     3
 10
24774.907887000001
 20
18390.22965999999
 30
0.0
 11
24821.913534999981
 21
18390.22965999999
 31
0.0
  0
LINE
  5
37A9
  8
2-0
  6
CONTINUOUS
 62
     3
 10
24821.913534999981
 20
18475.230188000001
 30
0.0
 11
24774.907887000001
 21
18475.230188000001
 31
0.0
  0
LINE
  5
37AA
  8
2-0
  6
CONTINUOUS
 62
     3
 10
24821.913534999981
 20
18390.22965999999
 30
0.0
 11
24821.913534999981
 21
18415.232959000001
 31
0.0
  0
LINE
  5
37AB
  8
2-0
  6
CONTINUOUS
 62
     3
 10
24821.913534999981
 20
18450.228867999991
 30
0.0
 11
24821.913534999981
 21
18475.230188000001
 31
0.0
  0
LINE
  5
37AC
  8
2-0
  6
CONTINUOUS
 62
     3
 10
24774.907887000001
 20
18475.230188000001
 30
0.0
 11
24774.907887000001
 21
18390.22965999999
 31
0.0
  0
LINE
  5
37AD
  8
2-0
  6
CONTINUOUS
 62
     3
 10
24865.912294000002
 20
16187.130334499991
 30
0.0
 11
24865.912294000002
 21
15543.566561000011
 31
0.0
  0
LINE
  5
37AE
  8
2-0
  6
CONTINUOUS
 62
     3
 10
24774.907887000001
 20
15472.23263000001
 30
0.0
 11
24821.913534999981
 21
15472.23263000001
 31
0.0
  0
LINE
  5
37AF
  8
2-0
  6
CONTINUOUS
 62
     3
 10
24821.913534999981
 20
15557.22919799999
 30
0.0
 11
24774.907887000001
 21
15557.22919799999
 31
0.0
  0
LINE
  5
37B0
  8
2-0
  6
CONTINUOUS
 62
     3
 10
24821.913534999981
 20
15472.23263000001
 30
0.0
 11
24821.913534999981
 21
15497.22801100001
 31
0.0
  0
LINE
  5
37B1
  8
2-0
  6
CONTINUOUS
 62
     3
 10
24821.913534999981
 20
15532.227879
 30
0.0
 11
24821.913534999981
 21
15557.22919799999
 31
0.0
  0
LINE
  5
37B2
  8
2-0
  6
CONTINUOUS
 62
     3
 10
24774.907887000001
 20
15557.22919799999
 30
0.0
 11
24774.907887000001
 21
15472.23263000001
 31
0.0
  0
LINE
  5
37B3
  8
2-0
  6
CONTINUOUS
 62
     6
 10
24683.327439000001
 20
19050.090315500001
 30
0.0
 11
24835.914669999991
 21
19105.1367675
 31
0.0
  0
LINE
  5
37B4
  8
2-0
  6
CONTINUOUS
 62
     6
 10
24835.914669999991
 20
19105.1367675
 30
0.0
 11
24709.43333
 21
19003.57756749999
 31
0.0
  0
LINE
  5
37B5
  8
2-0
  6
CONTINUOUS
 62
     6
 10
24683.327439000001
 20
19050.090315500001
 30
0.0
 11
24709.43333
 21
19003.57756749999
 31
0.0
  0
LINE
  5
37B6
  8
2-0
  6
CONTINUOUS
 62
     6
 10
24709.43333
 20
19003.57756749999
 30
0.0
 11
24835.914669999991
 21
19105.1367675
 31
0.0
  0
LINE
  5
37B7
  8
2-0
  6
CONTINUOUS
 62
     6
 10
24835.914669999991
 20
19105.1367675
 30
0.0
 11
24683.327439000001
 21
19050.090315500001
 31
0.0
  0
LINE
  5
37B8
  8
2-0
  6
CONTINUOUS
 62
     6
 10
24683.327439000001
 20
19050.090315500001
 30
0.0
 11
24835.914669999991
 21
19105.1367675
 31
0.0
  0
LINE
  5
37B9
  8
2-0
  6
CONTINUOUS
 62
     6
 10
24709.43333
 20
19003.57756749999
 30
0.0
 11
24835.914669999991
 21
19105.1367675
 31
0.0
  0
LINE
  5
37BA
  8
2-0
  6
CONTINUOUS
 62
     6
 10
24709.43333
 20
19003.57756749999
 30
0.0
 11
24683.327439000001
 21
19050.090315500001
 31
0.0
  0
LINE
  5
37BB
  8
2-0
  6
CONTINUOUS
 62
     6
 10
25037.570207000001
 20
20058.847812000022
 30
0.0
 11
24909.608187000002
 21
19959.165194000008
 31
0.0
  0
LINE
  5
37BC
  8
2-0
  6
CONTINUOUS
 62
     6
 10
24909.608187000002
 20
19959.165194000008
 30
0.0
 11
24998.322292000001
 21
20094.962149000021
 31
0.0
  0
LINE
  5
37BD
  8
2-0
  6
CONTINUOUS
 62
     6
 10
25037.570207000001
 20
20058.847812000022
 30
0.0
 11
24998.322292000001
 21
20094.962149000021
 31
0.0
  0
LINE
  5
37BE
  8
2-0
  6
CONTINUOUS
 62
     6
 10
24998.322292000001
 20
20094.962149000021
 30
0.0
 11
24909.608187000002
 21
19959.165194000008
 31
0.0
  0
LINE
  5
37BF
  8
2-0
  6
CONTINUOUS
 62
     6
 10
24909.608187000002
 20
19959.165194000008
 30
0.0
 11
25037.570207000001
 21
20058.847812000022
 31
0.0
  0
LINE
  5
37C0
  8
2-0
  6
CONTINUOUS
 62
     6
 10
25037.570207000001
 20
20058.847812000022
 30
0.0
 11
24909.608187000002
 21
19959.165194000008
 31
0.0
  0
LINE
  5
37C1
  8
2-0
  6
CONTINUOUS
 62
     6
 10
24998.322292000001
 20
20094.962149000021
 30
0.0
 11
24909.608187000002
 21
19959.165194000008
 31
0.0
  0
LINE
  5
37C2
  8
2-0
  6
CONTINUOUS
 62
     6
 10
24998.322292000001
 20
20094.962149000021
 30
0.0
 11
25037.570207000001
 21
20058.847812000022
 31
0.0
  0
LINE
  5
37C3
  8
2-0
  6
CONTINUOUS
 62
     4
 10
22956.91401
 20
20014.231442000018
 30
0.0
 11
22956.91401
 21
20744.228406999999
 31
0.0
  0
LINE
  5
37C4
  8
2-0
  6
CONTINUOUS
 62
     6
 10
24619.588919999991
 20
15425.725820000011
 30
0.0
 11
24774.907887000001
 21
15472.473141
 31
0.0
  0
LINE
  5
37C5
  8
2-0
  6
CONTINUOUS
 62
     6
 10
24774.907887000001
 20
15472.473141
 30
0.0
 11
24643.14717099999
 21
15377.880856000011
 31
0.0
  0
LINE
  5
37C6
  8
2-0
  6
CONTINUOUS
 62
     6
 10
24619.588919999991
 20
15425.725820000011
 30
0.0
 11
24643.14717099999
 21
15377.880856000011
 31
0.0
  0
LINE
  5
37C7
  8
2-0
  6
CONTINUOUS
 62
     6
 10
24643.14717099999
 20
15377.880856000011
 30
0.0
 11
24774.907887000001
 21
15472.473141
 31
0.0
  0
LINE
  5
37C8
  8
2-0
  6
CONTINUOUS
 62
     6
 10
24774.907887000001
 20
15472.473141
 30
0.0
 11
24619.588919999991
 21
15425.725820000011
 31
0.0
  0
LINE
  5
37C9
  8
2-0
  6
CONTINUOUS
 62
     6
 10
24619.588919999991
 20
15425.725820000011
 30
0.0
 11
24774.907887000001
 21
15472.473141
 31
0.0
  0
LINE
  5
37CA
  8
2-0
  6
CONTINUOUS
 62
     6
 10
24643.14717099999
 20
15377.880856000011
 30
0.0
 11
24774.907887000001
 21
15472.473141
 31
0.0
  0
LINE
  5
37CB
  8
2-0
  6
CONTINUOUS
 62
     6
 10
24643.14717099999
 20
15377.880856000011
 30
0.0
 11
24619.588919999991
 21
15425.725820000011
 31
0.0
  0
LINE
  5
37CC
  8
2-0
  6
CONTINUOUS
 62
     6
 10
24589.274572999999
 20
13904.96088099999
 30
0.0
 11
24721.021432000001
 21
13999.587808
 31
0.0
  0
LINE
  5
37CD
  8
2-0
  6
CONTINUOUS
 62
     6
 10
24721.021432000001
 20
13999.587808
 30
0.0
 11
24627.091295999991
 21
13867.34903799998
 31
0.0
  0
LINE
  5
37CE
  8
2-0
  6
CONTINUOUS
 62
     6
 10
24589.274572999999
 20
13904.96088099999
 30
0.0
 11
24627.091295999991
 21
13867.34903799998
 31
0.0
  0
LINE
  5
37CF
  8
2-0
  6
CONTINUOUS
 62
     6
 10
24627.091295999991
 20
13867.34903799998
 30
0.0
 11
24721.021432000001
 21
13999.587808
 31
0.0
  0
LINE
  5
37D0
  8
2-0
  6
CONTINUOUS
 62
     6
 10
24721.021432000001
 20
13999.587808
 30
0.0
 11
24589.274572999999
 21
13904.96088099999
 31
0.0
  0
LINE
  5
37D1
  8
2-0
  6
CONTINUOUS
 62
     6
 10
24589.274572999999
 20
13904.96088099999
 30
0.0
 11
24721.021432000001
 21
13999.587808
 31
0.0
  0
LINE
  5
37D2
  8
2-0
  6
CONTINUOUS
 62
     6
 10
24627.091295999991
 20
13867.34903799998
 30
0.0
 11
24721.021432000001
 21
13999.587808
 31
0.0
  0
LINE
  5
37D3
  8
2-0
  6
CONTINUOUS
 62
     6
 10
24627.091295999991
 20
13867.34903799998
 30
0.0
 11
24589.274572999999
 21
13904.96088099999
 31
0.0
  0
LINE
  5
37D4
  8
2-0
  6
CONTINUOUS
 62
     6
 10
24652.310362
 20
14231.865507999981
 30
0.0
 11
24784.910393999991
 21
14138.437179999981
 31
0.0
  0
LINE
  5
37D5
  8
2-0
  6
CONTINUOUS
 62
     6
 10
24784.910393999991
 20
14138.437179999981
 30
0.0
 11
24629.177707999988
 21
14183.812694
 31
0.0
  0
LINE
  5
37D6
  8
2-0
  6
CONTINUOUS
 62
     6
 10
24652.310362
 20
14231.865507999981
 30
0.0
 11
24629.177707999988
 21
14183.812694
 31
0.0
  0
LINE
  5
37D7
  8
2-0
  6
CONTINUOUS
 62
     6
 10
24629.177707999988
 20
14183.812694
 30
0.0
 11
24784.910393999991
 21
14138.437179999981
 31
0.0
  0
LINE
  5
37D8
  8
2-0
  6
CONTINUOUS
 62
     6
 10
24784.910393999991
 20
14138.437179999981
 30
0.0
 11
24652.310362
 21
14231.865507999981
 31
0.0
  0
LINE
  5
37D9
  8
2-0
  6
CONTINUOUS
 62
     6
 10
24652.310362
 20
14231.865507999981
 30
0.0
 11
24784.910393999991
 21
14138.437179999981
 31
0.0
  0
LINE
  5
37DA
  8
2-0
  6
CONTINUOUS
 62
     6
 10
24629.177707999988
 20
14183.812694
 30
0.0
 11
24784.910393999991
 21
14138.437179999981
 31
0.0
  0
LINE
  5
37DB
  8
2-0
  6
CONTINUOUS
 62
     6
 10
24629.177707999988
 20
14183.812694
 30
0.0
 11
24652.310362
 21
14231.865507999981
 31
0.0
  0
LINE
  5
37DC
  8
2-0
  6
CONTINUOUS
 62
     6
 10
24712.074008
 20
16611.686441000009
 30
0.0
 11
24865.912294000002
 21
16663.120272000011
 31
0.0
  0
LINE
  5
37DD
  8
2-0
  6
CONTINUOUS
 62
     6
 10
24865.912294000002
 20
16663.120272000011
 30
0.0
 11
24737.077306999981
 21
16564.579837000008
 31
0.0
  0
LINE
  5
37DE
  8
2-0
  6
CONTINUOUS
 62
     6
 10
24712.074008
 20
16611.686441000009
 30
0.0
 11
24737.077306999981
 21
16564.579837000008
 31
0.0
  0
LINE
  5
37DF
  8
2-0
  6
CONTINUOUS
 62
     6
 10
24737.077306999981
 20
16564.579837000008
 30
0.0
 11
24865.912294000002
 21
16663.120272000011
 31
0.0
  0
LINE
  5
37E0
  8
2-0
  6
CONTINUOUS
 62
     6
 10
24865.912294000002
 20
16663.120272000011
 30
0.0
 11
24712.074008
 21
16611.686441000009
 31
0.0
  0
LINE
  5
37E1
  8
2-0
  6
CONTINUOUS
 62
     6
 10
24712.074008
 20
16611.686441000009
 30
0.0
 11
24865.912294000002
 21
16663.120272000011
 31
0.0
  0
LINE
  5
37E2
  8
2-0
  6
CONTINUOUS
 62
     6
 10
24737.077306999981
 20
16564.579837000008
 30
0.0
 11
24865.912294000002
 21
16663.120272000011
 31
0.0
  0
LINE
  5
37E3
  8
2-0
  6
CONTINUOUS
 62
     6
 10
24737.077306999981
 20
16564.579837000008
 30
0.0
 11
24712.074008
 21
16611.686441000009
 31
0.0
  0
LINE
  5
37E4
  8
2-0
  6
CONTINUOUS
 62
     6
 10
24578.137801000001
 20
17103.004933000011
 30
0.0
 11
24721.021432000001
 21
17026.229304000011
 31
0.0
  0
LINE
  5
37E5
  8
2-0
  6
CONTINUOUS
 62
     6
 10
24721.021432000001
 20
17026.229304000011
 30
0.0
 11
24560.959538999999
 21
17052.511373000019
 31
0.0
  0
LINE
  5
37E6
  8
2-0
  6
CONTINUOUS
 62
     6
 10
24578.137801000001
 20
17103.004933000011
 30
0.0
 11
24560.959538999999
 21
17052.511373000019
 31
0.0
  0
LINE
  5
37E7
  8
2-0
  6
CONTINUOUS
 62
     6
 10
24560.959538999999
 20
17052.511373000019
 30
0.0
 11
24721.021432000001
 21
17026.229304000011
 31
0.0
  0
LINE
  5
37E8
  8
2-0
  6
CONTINUOUS
 62
     6
 10
24721.021432000001
 20
17026.229304000011
 30
0.0
 11
24578.137801000001
 21
17103.004933000011
 31
0.0
  0
LINE
  5
37E9
  8
2-0
  6
CONTINUOUS
 62
     6
 10
24578.137801000001
 20
17103.004933000011
 30
0.0
 11
24721.021432000001
 21
17026.229304000011
 31
0.0
  0
LINE
  5
37EA
  8
2-0
  6
CONTINUOUS
 62
     6
 10
24560.959538999999
 20
17052.511373000019
 30
0.0
 11
24721.021432000001
 21
17026.229304000011
 31
0.0
  0
LINE
  5
37EB
  8
2-0
  6
CONTINUOUS
 62
     6
 10
24560.959538999999
 20
17052.511373000019
 30
0.0
 11
24578.137801000001
 21
17103.004933000011
 31
0.0
  0
LINE
  5
37EC
  8
2-0
  6
CONTINUOUS
 62
     6
 10
24619.588919999991
 20
18343.485307999988
 30
0.0
 11
24774.907887000001
 21
18390.22965999999
 31
0.0
  0
LINE
  5
37ED
  8
2-0
  6
CONTINUOUS
 62
     6
 10
24774.907887000001
 20
18390.22965999999
 30
0.0
 11
24643.14717099999
 21
18295.634406000008
 31
0.0
  0
LINE
  5
37EE
  8
2-0
  6
CONTINUOUS
 62
     6
 10
24619.588919999991
 20
18343.485307999988
 30
0.0
 11
24643.14717099999
 21
18295.634406000008
 31
0.0
  0
LINE
  5
37EF
  8
2-0
  6
CONTINUOUS
 62
     6
 10
24643.14717099999
 20
18295.634406000008
 30
0.0
 11
24774.907887000001
 21
18390.22965999999
 31
0.0
  0
LINE
  5
37F0
  8
2-0
  6
CONTINUOUS
 62
     6
 10
24774.907887000001
 20
18390.22965999999
 30
0.0
 11
24619.588919999991
 21
18343.485307999988
 31
0.0
  0
LINE
  5
37F1
  8
2-0
  6
CONTINUOUS
 62
     6
 10
24619.588919999991
 20
18343.485307999988
 30
0.0
 11
24774.907887000001
 21
18390.22965999999
 31
0.0
  0
LINE
  5
37F2
  8
2-0
  6
CONTINUOUS
 62
     6
 10
24643.14717099999
 20
18295.634406000008
 30
0.0
 11
24774.907887000001
 21
18390.22965999999
 31
0.0
  0
LINE
  5
37F3
  8
2-0
  6
CONTINUOUS
 62
     6
 10
24643.14717099999
 20
18295.634406000008
 30
0.0
 11
24619.588919999991
 21
18343.485307999988
 31
0.0
  0
LINE
  5
37F4
  8
2-0
  6
CONTINUOUS
 62
     3
 10
22217.41459099999
 20
19934.229199000009
 30
0.0
 11
22180.413429
 21
19934.229199000009
 31
0.0
  0
LINE
  5
37F5
  8
2-0
  6
CONTINUOUS
 62
     3
 10
22217.41459099999
 20
19904.22563600001
 30
0.0
 11
22217.41459099999
 21
19934.229199000009
 31
0.0
  0
LINE
  5
37F6
  8
2-0
  6
CONTINUOUS
 62
     3
 10
22211.41466999998
 20
19904.22563600001
 30
0.0
 11
22217.41459099999
 21
19904.22563600001
 31
0.0
  0
LINE
  5
37F7
  8
2-0
  6
CONTINUOUS
 62
     3
 10
22227.512115000001
 20
19904.22563600001
 30
0.0
 11
22227.512115000001
 21
19934.229199000009
 31
0.0
  0
LINE
  5
37F8
  8
2-0
  6
CONTINUOUS
 62
     3
 10
22209.508393999989
 20
19904.22563600001
 30
0.0
 11
22227.512115000001
 21
19904.22563600001
 31
0.0
  0
LINE
  5
37F9
  8
2-0
  6
CONTINUOUS
 62
     3
 10
22209.508393999989
 20
19929.234873000001
 30
0.0
 11
22209.508393999989
 21
19904.22563600001
 31
0.0
  0
LINE
  5
37FA
  8
2-0
  6
CONTINUOUS
 62
     3
 10
22214.508657999999
 20
19929.234873000001
 30
0.0
 11
22209.508393999989
 21
19929.234873000001
 31
0.0
  0
LINE
  5
37FB
  8
2-0
  6
CONTINUOUS
 62
     3
 10
22214.508657999999
 20
19922.229357000011
 30
0.0
 11
22214.508657999999
 21
19929.234873000001
 31
0.0
  0
LINE
  5
37FC
  8
2-0
  6
CONTINUOUS
 62
     3
 10
22183.319362999991
 20
19922.229357000011
 30
0.0
 11
22183.319362999991
 21
19929.234873000001
 31
0.0
  0
LINE
  5
37FD
  8
2-0
  6
CONTINUOUS
 62
     3
 10
22183.319362999991
 20
19929.234873000001
 30
0.0
 11
22188.319627000001
 21
19929.234873000001
 31
0.0
  0
LINE
  5
37FE
  8
2-0
  6
CONTINUOUS
 62
     3
 10
22188.319627000001
 20
19929.234873000001
 30
0.0
 11
22188.319627000001
 21
19904.22563600001
 31
0.0
  0
LINE
  5
37FF
  8
2-0
  6
CONTINUOUS
 62
     3
 10
22188.319627000001
 20
19904.22563600001
 30
0.0
 11
22170.319864000001
 21
19904.22563600001
 31
0.0
  0
LINE
  5
3800
  8
2-0
  6
CONTINUOUS
 62
     3
 10
22170.319864000001
 20
19904.22563600001
 30
0.0
 11
22170.319864000001
 21
19934.229199000009
 31
0.0
  0
LINE
  5
3801
  8
2-0
  6
CONTINUOUS
 62
     3
 10
22186.413349999999
 20
19904.22563600001
 30
0.0
 11
22180.413429
 21
19904.22563600001
 31
0.0
  0
LINE
  5
3802
  8
2-0
  6
CONTINUOUS
 62
     3
 10
22180.413429
 20
19904.22563600001
 30
0.0
 11
22180.413429
 21
19934.229199000009
 31
0.0
  0
LINE
  5
3803
  8
2-0
  6
CONTINUOUS
 62
     3
 10
20376.91533
 20
19825.228987999999
 30
0.0
 11
20376.91533
 21
19819.23302600002
 31
0.0
  0
LINE
  5
3804
  8
2-0
  6
CONTINUOUS
 62
     3
 10
20376.91533
 20
19819.23302600002
 30
0.0
 11
20346.917705
 21
19819.23302600002
 31
0.0
  0
LINE
  5
3805
  8
2-0
  6
CONTINUOUS
 62
     3
 10
20346.917705
 20
19819.23302600002
 30
0.0
 11
20346.917705
 21
19934.229199000009
 31
0.0
  0
LINE
  5
3806
  8
2-0
  6
CONTINUOUS
 62
     3
 10
20346.917705
 20
19849.23263000001
 30
0.0
 11
20427.915646000001
 21
19849.23263000001
 31
0.0
  0
LINE
  5
3807
  8
2-0
  6
CONTINUOUS
 62
     3
 10
20376.91533
 20
19808.935570000001
 30
0.0
 11
20346.917705
 21
19808.935570000001
 31
0.0
  0
LINE
  5
3808
  8
2-0
  6
CONTINUOUS
 62
     3
 10
20376.91533
 20
19826.93731200002
 30
0.0
 11
20376.91533
 21
19808.935570000001
 31
0.0
  0
LINE
  5
3809
  8
2-0
  6
CONTINUOUS
 62
     3
 10
20351.921927999989
 20
19826.93731200002
 30
0.0
 11
20376.91533
 21
19826.93731200002
 31
0.0
  0
LINE
  5
380A
  8
2-0
  6
CONTINUOUS
 62
     3
 10
20351.921927999989
 20
19821.929130000019
 30
0.0
 11
20351.921927999989
 21
19826.93731200002
 31
0.0
  0
LINE
  5
380B
  8
2-0
  6
CONTINUOUS
 62
     3
 10
20358.919525999969
 20
19821.929130000019
 30
0.0
 11
20351.921927999989
 21
19821.929130000019
 31
0.0
  0
LINE
  5
380C
  8
2-0
  6
CONTINUOUS
 62
     3
 10
20459.213814999988
 20
19922.229357000011
 30
0.0
 11
20459.213814999988
 21
19929.234873000001
 31
0.0
  0
LINE
  5
380D
  8
2-0
  6
CONTINUOUS
 62
     3
 10
20459.213814999988
 20
19929.234873000001
 30
0.0
 11
20454.211571
 21
19929.234873000001
 31
0.0
  0
LINE
  5
380E
  8
2-0
  6
CONTINUOUS
 62
     3
 10
20454.211571
 20
19929.234873000001
 30
0.0
 11
20454.211571
 21
19904.22563600001
 31
0.0
  0
LINE
  5
380F
  8
2-0
  6
CONTINUOUS
 62
     3
 10
20454.211571
 20
19904.22563600001
 30
0.0
 11
20472.21925200001
 21
19904.22563600001
 31
0.0
  0
LINE
  5
3810
  8
2-0
  6
CONTINUOUS
 62
     3
 10
20472.21925200001
 20
19904.22563600001
 30
0.0
 11
20472.21925200001
 21
19934.229199000009
 31
0.0
  0
LINE
  5
3811
  8
2-0
  6
CONTINUOUS
 62
     3
 10
20461.919816000001
 20
19934.229199000009
 30
0.0
 11
20346.917705
 21
19934.229199000009
 31
0.0
  0
LINE
  5
3812
  8
2-0
  6
CONTINUOUS
 62
     3
 10
20461.919816000001
 20
19904.22563600001
 30
0.0
 11
20461.919816000001
 21
19934.229199000009
 31
0.0
  0
LINE
  5
3813
  8
2-0
  6
CONTINUOUS
 62
     3
 10
20455.915937000002
 20
19904.22563600001
 30
0.0
 11
20461.919816000001
 21
19904.22563600001
 31
0.0
  0
LINE
  5
3814
  8
2-0
  6
CONTINUOUS
 62
     3
 10
21513.5037085
 20
19922.229357000011
 30
0.0
 11
21513.5037085
 21
19929.234873000001
 31
0.0
  0
LINE
  5
3815
  8
2-0
  6
CONTINUOUS
 62
     3
 10
21513.5037085
 20
19929.234873000001
 30
0.0
 11
21508.503444499991
 21
19929.234873000001
 31
0.0
  0
LINE
  5
3816
  8
2-0
  6
CONTINUOUS
 62
     3
 10
21508.503444499991
 20
19929.234873000001
 30
0.0
 11
21508.503444499991
 21
19904.22563600001
 31
0.0
  0
LINE
  5
3817
  8
2-0
  6
CONTINUOUS
 62
     3
 10
21508.503444499991
 20
19904.22563600001
 30
0.0
 11
21526.5091455
 21
19904.22563600001
 31
0.0
  0
LINE
  5
3818
  8
2-0
  6
CONTINUOUS
 62
     3
 10
21526.5091455
 20
19904.22563600001
 30
0.0
 11
21526.5091455
 21
19934.229199000009
 31
0.0
  0
LINE
  5
3819
  8
2-0
  6
CONTINUOUS
 62
     3
 10
21510.411700500001
 20
19904.22563600001
 30
0.0
 11
21516.4136005
 21
19904.22563600001
 31
0.0
  0
LINE
  5
381A
  8
2-0
  6
CONTINUOUS
 62
     3
 10
21516.4136005
 20
19904.22563600001
 30
0.0
 11
21516.4136005
 21
19934.229199000009
 31
0.0
  0
LINE
  5
381B
  8
2-0
  6
CONTINUOUS
 62
     3
 10
21479.41441949999
 20
19934.229199000009
 30
0.0
 11
21516.4136005
 21
19934.229199000009
 31
0.0
  0
LINE
  5
381C
  8
2-0
  6
CONTINUOUS
 62
     3
 10
21479.41441949999
 20
19904.22563600001
 30
0.0
 11
21479.41441949999
 21
19934.229199000009
 31
0.0
  0
LINE
  5
381D
  8
2-0
  6
CONTINUOUS
 62
     3
 10
21485.408401500001
 20
19904.22563600001
 30
0.0
 11
21479.41441949999
 21
19904.22563600001
 31
0.0
  0
LINE
  5
381E
  8
2-0
  6
CONTINUOUS
 62
     3
 10
21469.318874500001
 20
19904.22563600001
 30
0.0
 11
21469.318874500001
 21
19934.229199000009
 31
0.0
  0
LINE
  5
381F
  8
2-0
  6
CONTINUOUS
 62
     3
 10
21487.314677499991
 20
19904.22563600001
 30
0.0
 11
21469.318874500001
 21
19904.22563600001
 31
0.0
  0
LINE
  5
3820
  8
2-0
  6
CONTINUOUS
 62
     3
 10
21487.314677499991
 20
19929.234873000001
 30
0.0
 11
21487.314677499991
 21
19904.22563600001
 31
0.0
  0
LINE
  5
3821
  8
2-0
  6
CONTINUOUS
 62
     3
 10
21482.3144135
 20
19929.234873000001
 30
0.0
 11
21487.314677499991
 21
19929.234873000001
 31
0.0
  0
LINE
  5
3822
  8
2-0
  6
CONTINUOUS
 62
     3
 10
21482.3144135
 20
19922.229357000011
 30
0.0
 11
21482.3144135
 21
19929.234873000001
 31
0.0
  0
LINE
  5
3823
  8
2-0
  6
CONTINUOUS
 62
     3
 10
20825.713036000001
 20
19934.229199000009
 30
0.0
 11
21469.318874500001
 21
19934.229199000009
 31
0.0
  0
LINE
  5
3824
  8
2-0
  6
CONTINUOUS
 62
     3
 10
22170.319864000001
 20
19934.229199000009
 30
0.0
 11
21526.5091455
 21
19934.22919900003
 31
0.0
  0
LINE
  5
3825
  8
2-0
  6
CONTINUOUS
 62
     3
 10
20376.91533
 20
19825.228987999999
 30
0.0
 11
20376.91533
 21
19819.23302600002
 31
0.0
  0
LINE
  5
3826
  8
2-0
  6
CONTINUOUS
 62
     3
 10
20376.91533
 20
19819.23302600002
 30
0.0
 11
20346.917705
 21
19819.23302600002
 31
0.0
  0
LINE
  5
3827
  8
2-0
  6
CONTINUOUS
 62
     3
 10
20346.917705
 20
19819.23302600002
 30
0.0
 11
20346.917705
 21
19934.229199000009
 31
0.0
  0
LINE
  5
3828
  8
2-0
  6
CONTINUOUS
 62
     3
 10
20346.917705
 20
19849.23263000001
 30
0.0
 11
20427.915646000001
 21
19849.23263000001
 31
0.0
  0
LINE
  5
3829
  8
2-0
  6
CONTINUOUS
 62
     3
 10
20376.91533
 20
19808.935570000001
 30
0.0
 11
20346.917705
 21
19808.935570000001
 31
0.0
  0
LINE
  5
382A
  8
2-0
  6
CONTINUOUS
 62
     3
 10
20376.91533
 20
19826.93731200002
 30
0.0
 11
20376.91533
 21
19808.935570000001
 31
0.0
  0
LINE
  5
382B
  8
2-0
  6
CONTINUOUS
 62
     3
 10
20351.921927999989
 20
19826.93731200002
 30
0.0
 11
20376.91533
 21
19826.93731200002
 31
0.0
  0
LINE
  5
382C
  8
2-0
  6
CONTINUOUS
 62
     3
 10
20351.921927999989
 20
19821.929130000019
 30
0.0
 11
20351.921927999989
 21
19826.93731200002
 31
0.0
  0
LINE
  5
382D
  8
2-0
  6
CONTINUOUS
 62
     3
 10
20358.919525999969
 20
19821.929130000019
 30
0.0
 11
20351.921927999989
 21
19821.929130000019
 31
0.0
  0
LINE
  5
382E
  8
2-0
  6
CONTINUOUS
 62
     3
 10
20358.919525999969
 20
19118.132307499989
 30
0.0
 11
20351.921927999989
 21
19118.132307499989
 31
0.0
  0
LINE
  5
382F
  8
2-0
  6
CONTINUOUS
 62
     3
 10
20351.921927999989
 20
19118.132307499989
 30
0.0
 11
20351.921927999989
 21
19123.132571499991
 31
0.0
  0
LINE
  5
3830
  8
2-0
  6
CONTINUOUS
 62
     3
 10
20351.921927999989
 20
19123.132571499991
 30
0.0
 11
20376.91533
 21
19123.132571499991
 31
0.0
  0
LINE
  5
3831
  8
2-0
  6
CONTINUOUS
 62
     3
 10
20376.91533
 20
19123.132571499991
 30
0.0
 11
20376.91533
 21
19105.136767499989
 31
0.0
  0
LINE
  5
3832
  8
2-0
  6
CONTINUOUS
 62
     3
 10
20376.91533
 20
19105.136767499989
 30
0.0
 11
20346.917705
 21
19105.136767499989
 31
0.0
  0
LINE
  5
3833
  8
2-0
  6
CONTINUOUS
 62
     3
 10
20376.91533
 20
19121.22827449995
 30
0.0
 11
20376.91533
 21
19115.230333499989
 31
0.0
  0
LINE
  5
3834
  8
2-0
  6
CONTINUOUS
 62
     3
 10
20376.91533
 20
19115.230333499989
 30
0.0
 11
20346.917705
 21
19115.230333499989
 31
0.0
  0
LINE
  5
3835
  8
2-0
  6
CONTINUOUS
 62
     3
 10
20346.917705
 20
19115.230333499989
 30
0.0
 11
20346.917705
 21
19152.2314945
 31
0.0
  0
LINE
  5
3836
  8
2-0
  6
CONTINUOUS
 62
     3
 10
20376.91533
 20
19152.2314945
 30
0.0
 11
20346.917705
 21
19152.2314945
 31
0.0
  0
LINE
  5
3837
  8
2-0
  6
CONTINUOUS
 62
     3
 10
20376.91533
 20
19146.227614499981
 30
0.0
 11
20376.91533
 21
19152.2314945
 31
0.0
  0
LINE
  5
3838
  8
2-0
  6
CONTINUOUS
 62
     3
 10
20376.91533
 20
19162.327039499982
 30
0.0
 11
20346.917705
 21
19162.327039499982
 31
0.0
  0
LINE
  5
3839
  8
2-0
  6
CONTINUOUS
 62
     3
 10
20376.91533
 20
19144.3252975
 30
0.0
 11
20376.91533
 21
19162.327039499982
 31
0.0
  0
LINE
  5
383A
  8
2-0
  6
CONTINUOUS
 62
     3
 10
20351.921927999989
 20
19144.3252975
 30
0.0
 11
20376.91533
 21
19144.3252975
 31
0.0
  0
LINE
  5
383B
  8
2-0
  6
CONTINUOUS
 62
     3
 10
20351.921927999989
 20
19149.325561500002
 30
0.0
 11
20351.921927999989
 21
19144.3252975
 31
0.0
  0
LINE
  5
383C
  8
2-0
  6
CONTINUOUS
 62
     3
 10
20358.919525999969
 20
19149.325561500002
 30
0.0
 11
20351.921927999989
 21
19149.325561500002
 31
0.0
  0
LINE
  5
383D
  8
2-0
  6
CONTINUOUS
 62
     3
 10
20358.919525999969
 20
18417.131317999989
 30
0.0
 11
20351.921927999989
 21
18417.131317999989
 31
0.0
  0
LINE
  5
383E
  8
2-0
  6
CONTINUOUS
 62
     3
 10
20351.921927999989
 20
18417.131317999989
 30
0.0
 11
20351.921927999989
 21
18422.13752
 31
0.0
  0
LINE
  5
383F
  8
2-0
  6
CONTINUOUS
 62
     3
 10
20351.921927999989
 20
18422.13752
 30
0.0
 11
20376.91533
 21
18422.13752
 31
0.0
  0
LINE
  5
3840
  8
2-0
  6
CONTINUOUS
 62
     3
 10
20376.91533
 20
18422.13752
 30
0.0
 11
20376.91533
 21
18404.135778
 31
0.0
  0
LINE
  5
3841
  8
2-0
  6
CONTINUOUS
 62
     3
 10
20376.91533
 20
18404.135778
 30
0.0
 11
20346.917705
 21
18404.135778
 31
0.0
  0
LINE
  5
3842
  8
2-0
  6
CONTINUOUS
 62
     3
 10
20376.91533
 20
18420.22728499999
 30
0.0
 11
20376.91533
 21
18414.231322999989
 31
0.0
  0
LINE
  5
3843
  8
2-0
  6
CONTINUOUS
 62
     3
 10
20376.91533
 20
18414.231322999989
 30
0.0
 11
20346.917705
 21
18414.231322999989
 31
0.0
  0
LINE
  5
3844
  8
2-0
  6
CONTINUOUS
 62
     3
 10
20346.917705
 20
18414.231322999989
 30
0.0
 11
20346.917705
 21
18451.230504999989
 31
0.0
  0
LINE
  5
3845
  8
2-0
  6
CONTINUOUS
 62
     3
 10
20376.91533
 20
18451.230504999989
 30
0.0
 11
20346.917705
 21
18451.230504999989
 31
0.0
  0
LINE
  5
3846
  8
2-0
  6
CONTINUOUS
 62
     3
 10
20376.91533
 20
18445.23454300001
 30
0.0
 11
20376.91533
 21
18451.230504999989
 31
0.0
  0
LINE
  5
3847
  8
2-0
  6
CONTINUOUS
 62
     3
 10
20376.91533
 20
18461.32605
 30
0.0
 11
20346.917705
 21
18461.32605
 31
0.0
  0
LINE
  5
3848
  8
2-0
  6
CONTINUOUS
 62
     3
 10
20376.91533
 20
18443.324307999988
 30
0.0
 11
20376.91533
 21
18461.32605
 31
0.0
  0
LINE
  5
3849
  8
2-0
  6
CONTINUOUS
 62
     3
 10
20351.921927999989
 20
18443.324307999988
 30
0.0
 11
20376.91533
 21
18443.324307999988
 31
0.0
  0
LINE
  5
384A
  8
2-0
  6
CONTINUOUS
 62
     3
 10
20351.921927999989
 20
18448.330509999989
 30
0.0
 11
20351.921927999989
 21
18443.324307999988
 31
0.0
  0
LINE
  5
384B
  8
2-0
  6
CONTINUOUS
 62
     3
 10
20358.919525999969
 20
18448.330509999989
 30
0.0
 11
20351.921927999989
 21
18448.330509999989
 31
0.0
  0
LINE
  5
384C
  8
2-0
  6
CONTINUOUS
 62
     3
 10
20358.919525999969
 20
17747.324572000001
 30
0.0
 11
20351.921927999989
 21
17747.324572000001
 31
0.0
  0
LINE
  5
384D
  8
2-0
  6
CONTINUOUS
 62
     3
 10
20351.921927999989
 20
17747.324572000001
 30
0.0
 11
20351.921927999989
 21
17742.336185
 31
0.0
  0
LINE
  5
384E
  8
2-0
  6
CONTINUOUS
 62
     3
 10
20351.921927999989
 20
17742.336185
 30
0.0
 11
20376.91533
 21
17742.336185
 31
0.0
  0
LINE
  5
384F
  8
2-0
  6
CONTINUOUS
 62
     3
 10
20376.91533
 20
17742.336185
 30
0.0
 11
20376.91533
 21
17760.331988000002
 31
0.0
  0
LINE
  5
3850
  8
2-0
  6
CONTINUOUS
 62
     3
 10
20376.91533
 20
17760.331988000002
 30
0.0
 11
20346.917705
 21
17760.331988000002
 31
0.0
  0
LINE
  5
3851
  8
2-0
  6
CONTINUOUS
 62
     3
 10
20376.91533
 20
17744.234542999991
 30
0.0
 11
20376.91533
 21
17750.230504999981
 31
0.0
  0
LINE
  5
3852
  8
2-0
  6
CONTINUOUS
 62
     3
 10
20376.91533
 20
17750.230504999981
 30
0.0
 11
20346.917705
 21
17750.230504999981
 31
0.0
  0
LINE
  5
3853
  8
2-0
  6
CONTINUOUS
 62
     3
 10
20346.917705
 20
17750.230504999981
 30
0.0
 11
20346.917705
 21
17713.231323
 31
0.0
  0
LINE
  5
3854
  8
2-0
  6
CONTINUOUS
 62
     3
 10
20376.91533
 20
17713.231323
 30
0.0
 11
20346.917705
 21
17713.231323
 31
0.0
  0
LINE
  5
3855
  8
2-0
  6
CONTINUOUS
 62
     3
 10
20376.91533
 20
17719.233223999989
 30
0.0
 11
20376.91533
 21
17713.231323
 31
0.0
  0
LINE
  5
3856
  8
2-0
  6
CONTINUOUS
 62
     3
 10
20376.91533
 20
17703.141716999991
 30
0.0
 11
20346.917705
 21
17703.141716999991
 31
0.0
  0
LINE
  5
3857
  8
2-0
  6
CONTINUOUS
 62
     3
 10
20376.91533
 20
17721.13752
 30
0.0
 11
20376.91533
 21
17703.141716999991
 31
0.0
  0
LINE
  5
3858
  8
2-0
  6
CONTINUOUS
 62
     3
 10
20351.921927999989
 20
17721.13752
 30
0.0
 11
20376.91533
 21
17721.13752
 31
0.0
  0
LINE
  5
3859
  8
2-0
  6
CONTINUOUS
 62
     3
 10
20351.921927999989
 20
17716.137256999991
 30
0.0
 11
20351.921927999989
 21
17721.13752
 31
0.0
  0
LINE
  5
385A
  8
2-0
  6
CONTINUOUS
 62
     3
 10
20358.919525999969
 20
17716.137256999991
 30
0.0
 11
20351.921927999989
 21
17716.137256999991
 31
0.0
  0
LINE
  5
385B
  8
2-0
  6
CONTINUOUS
 62
     3
 10
20349.803843000002
 20
16996.228143
 30
0.0
 11
20349.803843000002
 21
17016.229198000001
 31
0.0
  0
LINE
  5
385C
  8
2-0
  6
CONTINUOUS
 62
     3
 10
20349.803843000002
 20
17016.229198000001
 30
0.0
 11
20434.804370999991
 21
17016.229198000001
 31
0.0
  0
LINE
  5
385D
  8
2-0
  6
CONTINUOUS
 62
     3
 10
20358.919525999969
 20
17042.835908000001
 30
0.0
 11
20351.921927999989
 21
17042.835908000001
 31
0.0
  0
LINE
  5
385E
  8
2-0
  6
CONTINUOUS
 62
     3
 10
20351.921927999989
 20
17042.835908000001
 30
0.0
 11
20351.921927999989
 21
17037.841582000001
 31
0.0
  0
LINE
  5
385F
  8
2-0
  6
CONTINUOUS
 62
     3
 10
20351.921927999989
 20
17037.841582000001
 30
0.0
 11
20376.91533
 21
17037.841582000001
 31
0.0
  0
LINE
  5
3860
  8
2-0
  6
CONTINUOUS
 62
     3
 10
20376.91533
 20
17037.841582000001
 30
0.0
 11
20376.91533
 21
17055.83738600001
 31
0.0
  0
LINE
  5
3861
  8
2-0
  6
CONTINUOUS
 62
     3
 10
20376.91533
 20
17055.83738600001
 30
0.0
 11
20346.917705
 21
17055.83738600001
 31
0.0
  0
LINE
  5
3862
  8
2-0
  6
CONTINUOUS
 62
     3
 10
20376.91533
 20
17046.228802000001
 30
0.0
 11
20376.91533
 21
17040.226901999991
 31
0.0
  0
LINE
  5
3863
  8
2-0
  6
CONTINUOUS
 62
     3
 10
20346.917705
 20
17046.228802000001
 30
0.0
 11
20376.91533
 21
17046.228802000001
 31
0.0
  0
LINE
  5
3864
  8
2-0
  6
CONTINUOUS
 62
     3
 10
20346.917705
 20
17055.83738600001
 30
0.0
 11
20346.917705
 21
17703.141716999991
 31
0.0
  0
LINE
  5
3865
  8
2-0
  6
CONTINUOUS
 62
     3
 10
20346.917705
 20
17760.331988000002
 30
0.0
 11
20346.917705
 21
18404.135778
 31
0.0
  0
LINE
  5
3866
  8
2-0
  6
CONTINUOUS
 62
     3
 10
20346.917705
 20
16901.22708700001
 30
0.0
 11
20376.91533
 21
16901.22708700001
 31
0.0
  0
LINE
  5
3867
  8
2-0
  6
CONTINUOUS
 62
     3
 10
20376.91533
 20
16901.22708700001
 30
0.0
 11
20376.91533
 21
16907.22898700001
 31
0.0
  0
LINE
  5
3868
  8
2-0
  6
CONTINUOUS
 62
     3
 10
20434.804370999991
 20
16931.232629999991
 30
0.0
 11
20349.803843000002
 21
16931.232629999991
 31
0.0
  0
LINE
  5
3869
  8
2-0
  6
CONTINUOUS
 62
     3
 10
20349.803843000002
 20
16931.232629999991
 30
0.0
 11
20349.803843000002
 21
16951.227747000012
 31
0.0
  0
LINE
  5
386A
  8
2-0
  6
CONTINUOUS
 62
     3
 10
20376.91533
 20
16891.618503999998
 30
0.0
 11
20346.917705
 21
16891.618503999998
 31
0.0
  0
LINE
  5
386B
  8
2-0
  6
CONTINUOUS
 62
     3
 10
20376.91533
 20
16909.614306999982
 30
0.0
 11
20376.91533
 21
16891.618503999998
 31
0.0
  0
LINE
  5
386C
  8
2-0
  6
CONTINUOUS
 62
     3
 10
20351.921927999989
 20
16909.614306999982
 30
0.0
 11
20376.91533
 21
16909.614306999982
 31
0.0
  0
LINE
  5
386D
  8
2-0
  6
CONTINUOUS
 62
     3
 10
20351.921927999989
 20
16904.614043000009
 30
0.0
 11
20351.921927999989
 21
16909.614306999982
 31
0.0
  0
LINE
  5
386E
  8
2-0
  6
CONTINUOUS
 62
     3
 10
20358.919525999969
 20
16904.614043000009
 30
0.0
 11
20351.921927999989
 21
16904.614043000009
 31
0.0
  0
LINE
  5
386F
  8
2-0
  6
CONTINUOUS
 62
     3
 10
20358.919525999969
 20
16200.131812499991
 30
0.0
 11
20351.921927999989
 21
16200.131812499991
 31
0.0
  0
LINE
  5
3870
  8
2-0
  6
CONTINUOUS
 62
     3
 10
20351.921927999989
 20
16200.131812499991
 30
0.0
 11
20351.921927999989
 21
16205.13207649998
 31
0.0
  0
LINE
  5
3871
  8
2-0
  6
CONTINUOUS
 62
     3
 10
20351.921927999989
 20
16205.13207649998
 30
0.0
 11
20376.91533
 21
16205.13207649998
 31
0.0
  0
LINE
  5
3872
  8
2-0
  6
CONTINUOUS
 62
     3
 10
20376.91533
 20
16205.13207649998
 30
0.0
 11
20376.91533
 21
16187.130334499991
 31
0.0
  0
LINE
  5
3873
  8
2-0
  6
CONTINUOUS
 62
     3
 10
20376.91533
 20
16187.130334499991
 30
0.0
 11
20346.917705
 21
16187.130334499991
 31
0.0
  0
LINE
  5
3874
  8
2-0
  6
CONTINUOUS
 62
     3
 10
20376.91533
 20
16203.227779500001
 30
0.0
 11
20376.91533
 21
16197.2308285
 31
0.0
  0
LINE
  5
3875
  8
2-0
  6
CONTINUOUS
 62
     3
 10
20376.91533
 20
16197.2308285
 30
0.0
 11
20346.917705
 21
16197.2308285
 31
0.0
  0
LINE
  5
3876
  8
2-0
  6
CONTINUOUS
 62
     3
 10
20346.917705
 20
16197.2308285
 30
0.0
 11
20346.917705
 21
16234.2309995
 31
0.0
  0
LINE
  5
3877
  8
2-0
  6
CONTINUOUS
 62
     3
 10
20376.91533
 20
16234.2309995
 30
0.0
 11
20346.917705
 21
16234.2309995
 31
0.0
  0
LINE
  5
3878
  8
2-0
  6
CONTINUOUS
 62
     3
 10
20376.91533
 20
16228.228109499991
 30
0.0
 11
20376.91533
 21
16234.2309995
 31
0.0
  0
LINE
  5
3879
  8
2-0
  6
CONTINUOUS
 62
     3
 10
20376.91533
 20
16244.3265445
 30
0.0
 11
20346.917705
 21
16244.3265445
 31
0.0
  0
LINE
  5
387A
  8
2-0
  6
CONTINUOUS
 62
     3
 10
20376.91533
 20
16226.318863500001
 30
0.0
 11
20376.91533
 21
16244.3265445
 31
0.0
  0
LINE
  5
387B
  8
2-0
  6
CONTINUOUS
 62
     3
 10
20351.921927999989
 20
16226.318863500001
 30
0.0
 11
20376.91533
 21
16226.318863500001
 31
0.0
  0
LINE
  5
387C
  8
2-0
  6
CONTINUOUS
 62
     3
 10
20351.921927999989
 20
16231.3250665
 30
0.0
 11
20351.921927999989
 21
16226.318863500001
 31
0.0
  0
LINE
  5
387D
  8
2-0
  6
CONTINUOUS
 62
     3
 10
20358.919525999969
 20
16231.3250665
 30
0.0
 11
20351.921927999989
 21
16231.3250665
 31
0.0
  0
LINE
  5
387E
  8
2-0
  6
CONTINUOUS
 62
     3
 10
20358.919525999969
 20
15530.565083
 30
0.0
 11
20351.921927999989
 21
15530.565083
 31
0.0
  0
LINE
  5
387F
  8
2-0
  6
CONTINUOUS
 62
     3
 10
20351.921927999989
 20
15530.565083
 30
0.0
 11
20351.921927999989
 21
15525.570758000011
 31
0.0
  0
LINE
  5
3880
  8
2-0
  6
CONTINUOUS
 62
     3
 10
20351.921927999989
 20
15525.570758000011
 30
0.0
 11
20376.91533
 21
15525.570758000011
 31
0.0
  0
LINE
  5
3881
  8
2-0
  6
CONTINUOUS
 62
     3
 10
20376.91533
 20
15525.570758000011
 30
0.0
 11
20376.91533
 21
15543.566561000011
 31
0.0
  0
LINE
  5
3882
  8
2-0
  6
CONTINUOUS
 62
     3
 10
20376.91533
 20
15543.566561000011
 30
0.0
 11
20346.917705
 21
15543.566561000011
 31
0.0
  0
LINE
  5
3883
  8
2-0
  6
CONTINUOUS
 62
     3
 10
20376.91533
 20
15527.469116
 30
0.0
 11
20376.91533
 21
15533.47101600001
 31
0.0
  0
LINE
  5
3884
  8
2-0
  6
CONTINUOUS
 62
     3
 10
20376.91533
 20
15533.47101600001
 30
0.0
 11
20346.917705
 21
15533.47101600001
 31
0.0
  0
LINE
  5
3885
  8
2-0
  6
CONTINUOUS
 62
     3
 10
20346.917705
 20
15496.471835
 30
0.0
 11
20346.917705
 21
15533.47101600001
 31
0.0
  0
LINE
  5
3886
  8
2-0
  6
CONTINUOUS
 62
     3
 10
20376.91533
 20
15496.471835
 30
0.0
 11
20346.917705
 21
15496.471835
 31
0.0
  0
LINE
  5
3887
  8
2-0
  6
CONTINUOUS
 62
     3
 10
20376.91533
 20
15502.468785999999
 30
0.0
 11
20376.91533
 21
15496.471835
 31
0.0
  0
LINE
  5
3888
  8
2-0
  6
CONTINUOUS
 62
     3
 10
20376.91533
 20
15486.370351
 30
0.0
 11
20346.917705
 21
15486.370351
 31
0.0
  0
LINE
  5
3889
  8
2-0
  6
CONTINUOUS
 62
     3
 10
20376.91533
 20
15504.378032000001
 30
0.0
 11
20376.91533
 21
15486.370351
 31
0.0
  0
LINE
  5
388A
  8
2-0
  6
CONTINUOUS
 62
     3
 10
20351.921927999989
 20
15504.378032000001
 30
0.0
 11
20376.91533
 21
15504.378032000001
 31
0.0
  0
LINE
  5
388B
  8
2-0
  6
CONTINUOUS
 62
     3
 10
20351.921927999989
 20
15499.377768000009
 30
0.0
 11
20351.921927999989
 21
15504.378032000001
 31
0.0
  0
LINE
  5
388C
  8
2-0
  6
CONTINUOUS
 62
     3
 10
20358.919525999969
 20
15499.377768000009
 30
0.0
 11
20351.921927999989
 21
15499.377768000009
 31
0.0
  0
LINE
  5
388D
  8
2-0
  6
CONTINUOUS
 62
     3
 10
20346.917705
 20
16891.618503999998
 30
0.0
 11
20346.917705
 21
16244.3265445
 31
0.0
  0
LINE
  5
388E
  8
2-0
  6
CONTINUOUS
 62
     3
 10
20346.917705
 20
17046.228802000001
 30
0.0
 11
20346.917705
 21
16901.22708700001
 31
0.0
  0
LINE
  5
388F
  8
2-0
  6
CONTINUOUS
 62
     3
 10
20434.804370999991
 20
17016.229198000001
 30
0.0
 11
20434.804370999991
 21
16931.232629999991
 31
0.0
  0
LINE
  5
3890
  8
2-0
  6
CONTINUOUS
 62
     3
 10
20358.919525999969
 20
14798.136761
 30
0.0
 11
20351.921927999989
 21
14798.136761
 31
0.0
  0
LINE
  5
3891
  8
2-0
  6
CONTINUOUS
 62
     3
 10
20351.921927999989
 20
14798.136761
 30
0.0
 11
20351.921927999989
 21
14803.131087000011
 31
0.0
  0
LINE
  5
3892
  8
2-0
  6
CONTINUOUS
 62
     3
 10
20351.921927999989
 20
14803.131087000011
 30
0.0
 11
20376.91533
 21
14803.131087000011
 31
0.0
  0
LINE
  5
3893
  8
2-0
  6
CONTINUOUS
 62
     3
 10
20376.91533
 20
14803.131087000011
 30
0.0
 11
20376.91533
 21
14785.135283000011
 31
0.0
  0
LINE
  5
3894
  8
2-0
  6
CONTINUOUS
 62
     3
 10
20376.91533
 20
14785.135283000011
 30
0.0
 11
20346.917705
 21
14785.135283000011
 31
0.0
  0
LINE
  5
3895
  8
2-0
  6
CONTINUOUS
 62
     3
 10
20376.91533
 20
14801.23371800001
 30
0.0
 11
20376.91533
 21
14795.230828000011
 31
0.0
  0
LINE
  5
3896
  8
2-0
  6
CONTINUOUS
 62
     3
 10
20376.91533
 20
14795.230828000011
 30
0.0
 11
20346.917705
 21
14795.230828000011
 31
0.0
  0
LINE
  5
3897
  8
2-0
  6
CONTINUOUS
 62
     3
 10
20346.917705
 20
14795.230828000011
 30
0.0
 11
20346.917705
 21
14832.231
 31
0.0
  0
LINE
  5
3898
  8
2-0
  6
CONTINUOUS
 62
     3
 10
20376.91533
 20
14832.231
 30
0.0
 11
20346.917705
 21
14832.231
 31
0.0
  0
LINE
  5
3899
  8
2-0
  6
CONTINUOUS
 62
     3
 10
20376.91533
 20
14826.234047999989
 30
0.0
 11
20376.91533
 21
14832.231
 31
0.0
  0
LINE
  5
389A
  8
2-0
  6
CONTINUOUS
 62
     3
 10
20376.91533
 20
14842.331493000011
 30
0.0
 11
20346.917705
 21
14842.331493000011
 31
0.0
  0
LINE
  5
389B
  8
2-0
  6
CONTINUOUS
 62
     3
 10
20376.91533
 20
14824.32480200001
 30
0.0
 11
20376.91533
 21
14842.331493000011
 31
0.0
  0
LINE
  5
389C
  8
2-0
  6
CONTINUOUS
 62
     3
 10
20351.921927999989
 20
14824.32480200001
 30
0.0
 11
20376.91533
 21
14824.32480200001
 31
0.0
  0
LINE
  5
389D
  8
2-0
  6
CONTINUOUS
 62
     3
 10
20351.921927999989
 20
14829.33001500001
 30
0.0
 11
20351.921927999989
 21
14824.32480200001
 31
0.0
  0
LINE
  5
389E
  8
2-0
  6
CONTINUOUS
 62
     3
 10
20358.919525999969
 20
14829.33001500001
 30
0.0
 11
20351.921927999989
 21
14829.33001500001
 31
0.0
  0
LINE
  5
389F
  8
2-0
  6
CONTINUOUS
 62
     3
 10
20376.91533
 20
14122.23284099999
 30
0.0
 11
20376.91533
 21
14128.237709999999
 31
0.0
  0
LINE
  5
38A0
  8
2-0
  6
CONTINUOUS
 62
     3
 10
20376.91533
 20
14128.237709999999
 30
0.0
 11
20346.917705
 21
14128.237709999999
 31
0.0
  0
LINE
  5
38A1
  8
2-0
  6
CONTINUOUS
 62
     3
 10
20346.917705
 20
14128.237709999999
 30
0.0
 11
20346.917705
 21
14013.233619000001
 31
0.0
  0
LINE
  5
38A2
  8
2-0
  6
CONTINUOUS
 62
     3
 10
20346.917705
 20
14013.233619000001
 30
0.0
 11
20431.916252999989
 21
14013.233619000001
 31
0.0
  0
LINE
  5
38A3
  8
2-0
  6
CONTINUOUS
 62
     3
 10
20431.916252999989
 20
14013.233619000001
 30
0.0
 11
20431.916252999989
 21
14098.229198000001
 31
0.0
  0
LINE
  5
38A4
  8
2-0
  6
CONTINUOUS
 62
     3
 10
20431.916252999989
 20
14098.229198000001
 30
0.0
 11
20399.919314999988
 21
14098.229198000001
 31
0.0
  0
LINE
  5
38A5
  8
2-0
  6
CONTINUOUS
 62
     3
 10
20358.919525999969
 20
14125.267443000001
 30
0.0
 11
20351.921927999989
 21
14125.267443000001
 31
0.0
  0
LINE
  5
38A6
  8
2-0
  6
CONTINUOUS
 62
     3
 10
20351.921927999989
 20
14125.267443000001
 30
0.0
 11
20351.921927999989
 21
14120.270147999971
 31
0.0
  0
LINE
  5
38A7
  8
2-0
  6
CONTINUOUS
 62
     3
 10
20351.921927999989
 20
14120.270147999971
 30
0.0
 11
20376.91533
 21
14120.270147999971
 31
0.0
  0
LINE
  5
38A8
  8
2-0
  6
CONTINUOUS
 62
     3
 10
20376.91533
 20
14120.270147999971
 30
0.0
 11
20376.91533
 21
14138.268921000001
 31
0.0
  0
LINE
  5
38A9
  8
2-0
  6
CONTINUOUS
 62
     3
 10
20376.91533
 20
14138.268921000001
 30
0.0
 11
20346.917705
 21
14138.268921000001
 31
0.0
  0
LINE
  5
38AA
  8
2-0
  6
CONTINUOUS
 62
     3
 10
20346.917705
 20
14842.331493000011
 30
0.0
 11
20346.917705
 21
15486.370351
 31
0.0
  0
LINE
  5
38AB
  8
2-0
  6
CONTINUOUS
 62
     3
 10
20346.917705
 20
18461.32605
 30
0.0
 11
20346.917705
 21
19105.136767499989
 31
0.0
  0
LINE
  5
38AC
  8
2-0
  6
CONTINUOUS
 62
     3
 10
20437.920133
 20
18390.22965999999
 30
0.0
 11
20390.916464000002
 21
18390.22965999999
 31
0.0
  0
LINE
  5
38AD
  8
2-0
  6
CONTINUOUS
 62
     3
 10
20390.916464000002
 20
18475.230188000001
 30
0.0
 11
20437.920133
 21
18475.230188000001
 31
0.0
  0
LINE
  5
38AE
  8
2-0
  6
CONTINUOUS
 62
     3
 10
20390.916464000002
 20
18390.22965999999
 30
0.0
 11
20390.916464000002
 21
18415.232959000001
 31
0.0
  0
LINE
  5
38AF
  8
2-0
  6
CONTINUOUS
 62
     3
 10
20390.916464000002
 20
18450.228867999991
 30
0.0
 11
20390.916464000002
 21
18475.230188000001
 31
0.0
  0
LINE
  5
38B0
  8
2-0
  6
CONTINUOUS
 62
     3
 10
20437.920133
 20
18475.230188000001
 30
0.0
 11
20437.920133
 21
18390.22965999999
 31
0.0
  0
LINE
  5
38B1
  8
2-0
  6
CONTINUOUS
 62
     3
 10
20346.917705
 20
16187.130334499991
 30
0.0
 11
20346.917705
 21
15543.566561000011
 31
0.0
  0
LINE
  5
38B2
  8
2-0
  6
CONTINUOUS
 62
     3
 10
20437.920133
 20
15472.23263
 30
0.0
 11
20390.916464000002
 21
15472.23263
 31
0.0
  0
LINE
  5
38B3
  8
2-0
  6
CONTINUOUS
 62
     3
 10
20390.916464000002
 20
15557.22919799999
 30
0.0
 11
20437.920133
 21
15557.22919799999
 31
0.0
  0
LINE
  5
38B4
  8
2-0
  6
CONTINUOUS
 62
     3
 10
20390.916464000002
 20
15472.23263
 30
0.0
 11
20390.916464000002
 21
15497.22801100001
 31
0.0
  0
LINE
  5
38B5
  8
2-0
  6
CONTINUOUS
 62
     3
 10
20390.916464000002
 20
15532.227879
 30
0.0
 11
20390.916464000002
 21
15557.22919799999
 31
0.0
  0
LINE
  5
38B6
  8
2-0
  6
CONTINUOUS
 62
     3
 10
20437.920133
 20
15557.22919799999
 30
0.0
 11
20437.920133
 21
15472.23263
 31
0.0
  0
LINE
  5
38B7
  8
2-0
  6
CONTINUOUS
 62
     3
 10
24865.912294000002
 20
19819.23302600002
 30
0.0
 11
24865.912294000002
 21
19934.229199000009
 31
0.0
  0
LINE
  5
38B8
  8
2-0
  6
CENTER2
 62
     6
 10
19059.959432999989
 20
19891.730914
 30
0.0
 11
25715.913614000001
 21
19891.730914
 31
0.0
  0
LINE
  5
38B9
  8
2-0
  6
CENTER2
 62
     6
 10
19059.959432999989
 20
16973.730914
 30
0.0
 11
25715.913614000001
 21
16973.730914
 31
0.0
  0
LINE
  5
38BA
  8
2-0
  6
CENTER2
 62
     6
 10
19059.959432999989
 20
14055.730913999991
 30
0.0
 11
25715.913614000001
 21
14055.730913999991
 31
0.0
  0
LINE
  5
38BB
  8
2-0
  6
CONTINUOUS
 62
     3
 10
20812.505688000008
 20
19922.229357000011
 30
0.0
 11
20812.505688000008
 21
19929.234873000001
 31
0.0
  0
LINE
  5
38BC
  8
2-0
  6
CONTINUOUS
 62
     3
 10
20812.505688000008
 20
19929.234873000001
 30
0.0
 11
20807.50542400001
 21
19929.234873000001
 31
0.0
  0
LINE
  5
38BD
  8
2-0
  6
CONTINUOUS
 62
     3
 10
20807.50542400001
 20
19929.234873000001
 30
0.0
 11
20807.50542400001
 21
19904.22563600001
 31
0.0
  0
LINE
  5
38BE
  8
2-0
  6
CONTINUOUS
 62
     3
 10
20807.50542400001
 20
19904.22563600001
 30
0.0
 11
20825.50716600001
 21
19904.22563600001
 31
0.0
  0
LINE
  5
38BF
  8
2-0
  6
CONTINUOUS
 62
     3
 10
20825.50716600001
 20
19904.22563600001
 30
0.0
 11
20825.50716600001
 21
19934.229199000009
 31
0.0
  0
LINE
  5
38C0
  8
2-0
  6
CONTINUOUS
 62
     3
 10
20809.40774100001
 20
19904.22563600001
 30
0.0
 11
20815.411620999999
 21
19904.22563600001
 31
0.0
  0
LINE
  5
38C1
  8
2-0
  6
CONTINUOUS
 62
     3
 10
20815.411620999999
 20
19904.22563600001
 30
0.0
 11
20815.411620999999
 21
19934.229199000009
 31
0.0
  0
LINE
  5
38C2
  8
2-0
  6
CONTINUOUS
 62
     3
 10
20778.416398999991
 20
19934.229199000009
 30
0.0
 11
20815.411620999999
 21
19934.229199000009
 31
0.0
  0
LINE
  5
38C3
  8
2-0
  6
CONTINUOUS
 62
     3
 10
20778.416398999991
 20
19904.22563600001
 30
0.0
 11
20778.416398999991
 21
19934.229199000009
 31
0.0
  0
LINE
  5
38C4
  8
2-0
  6
CONTINUOUS
 62
     3
 10
20784.410381000009
 20
19904.22563600001
 30
0.0
 11
20778.416398999991
 21
19904.22563600001
 31
0.0
  0
LINE
  5
38C5
  8
2-0
  6
CONTINUOUS
 62
     3
 10
20768.320854000001
 20
19904.22563600001
 30
0.0
 11
20768.320854000001
 21
19934.229199000009
 31
0.0
  0
LINE
  5
38C6
  8
2-0
  6
CONTINUOUS
 62
     3
 10
20786.31665700001
 20
19904.22563600001
 30
0.0
 11
20768.320854000001
 21
19904.22563600001
 31
0.0
  0
LINE
  5
38C7
  8
2-0
  6
CONTINUOUS
 62
     3
 10
20786.31665700001
 20
19929.234873000001
 30
0.0
 11
20786.31665700001
 21
19904.22563600001
 31
0.0
  0
LINE
  5
38C8
  8
2-0
  6
CONTINUOUS
 62
     3
 10
20781.318372999998
 20
19929.234873000001
 30
0.0
 11
20786.31665700001
 21
19929.234873000001
 31
0.0
  0
LINE
  5
38C9
  8
2-0
  6
CONTINUOUS
 62
     3
 10
20781.318372999998
 20
19922.229357000011
 30
0.0
 11
20781.318372999998
 21
19929.234873000001
 31
0.0
  0
LINE
  5
38CA
  8
2-0
  6
CONTINUOUS
 62
     3
 10
20472.21925200001
 20
19934.229199000009
 30
0.0
 11
20768.320854000001
 21
19934.229199000009
 31
0.0
  0
LINE
  5
38CB
  8
2-0
  6
CONTINUOUS
 62
     3
 10
20346.917705
 20
19849.23263000001
 30
0.0
 11
24784.910393999991
 21
19849.23263000001
 31
0.0
  0
LINE
  5
38CC
  8
2-0
  6
CONTINUOUS
 62
     3
 10
20346.917705
 20
14138.268921000001
 30
0.0
 11
20346.917705
 21
14785.135283000011
 31
0.0
  0
LINE
  5
38CD
  8
2-0
  6
CENTER2
 62
     6
 10
20389.41401
 20
21134.229199000009
 30
0.0
 11
20389.41401
 21
13429.967479999999
 31
0.0
  0
LINE
  5
38CE
  8
2-0
  6
CENTER2
 62
     6
 10
24823.41401
 20
21134.229199000009
 30
0.0
 11
24823.41401
 21
13429.967479999999
 31
0.0
  0
LINE
  5
38CF
  8
2-0
  6
CONTINUOUS
 62
     3
 10
24865.912294000002
 20
19808.935570000001
 30
0.0
 11
24865.912294000002
 21
19162.327039499982
 31
0.0
  0
LINE
  5
38D0
  8
2-0
  6
CONTINUOUS
 62
     3
 10
20346.917705
 20
19808.935570000001
 30
0.0
 11
20346.917705
 21
19162.327039499982
 31
0.0
  0
LINE
  5
38D1
  8
2-0
  6
CENTER2
 62
     6
 10
22956.91401
 20
21134.229199000009
 30
0.0
 11
22956.91401
 21
13864.32631299999
 31
0.0
  0
LINE
  5
38D2
  8
2-0
  6
CONTINUOUS
 62
     3
 10
20427.915646000001
 20
14098.229198000001
 30
0.0
 11
20427.915646000001
 21
19934.229199000009
 31
0.0
  0
LINE
  5
38D3
  8
2-0
  6
CONTINUOUS
 62
     3
 10
24784.910393999991
 20
14098.229198000001
 30
0.0
 11
24784.910393999991
 21
19934.229199000009
 31
0.0
  0
CIRCLE
  5
38D4
  8
2-0
  6
CONTINUOUS
 62
     4
 10
18859.961742999989
 20
19891.730914
 30
0.0
 40
200.00001
  0
CIRCLE
  5
38D5
  8
2-0
  6
CONTINUOUS
 62
     4
 10
18859.961742999989
 20
16973.730914
 30
0.0
 40
200.00001
  0
CIRCLE
  5
38D6
  8
2-0
  6
CONTINUOUS
 62
     4
 10
18859.961742999989
 20
14055.730913999991
 30
0.0
 40
200.00001
  0
CIRCLE
  5
38D7
  8
2-0
  6
CONTINUOUS
 62
     4
 10
22956.91401
 20
21334.233818000012
 30
0.0
 40
200.00001
  0
CIRCLE
  5
38D8
  8
2-0
  6
CONTINUOUS
 62
     4
 10
20389.41401
 20
21334.233818000012
 30
0.0
 40
200.00001
  0
TEXT
  5
38D9
  8
2-0
  6
CONTINUOUS
 62
     7
 10
23220.259316999978
 20
13495.732035999999
 30
0.0
 40
160.0
  1
前柱（右）
 50
0.000213
 72
     4
 11
23636.25901959301
 21
13575.73358250079
 31
0.0
  0
TEXT
  5
38DA
  8
2-0
  6
CONTINUOUS
 62
     7
 10
23236.958535999991
 20
18174.854080000001
 30
0.0
 40
160.0
  1
補強柱 後
 50
359.99984199999989
 72
     4
 11
23647.625423274709
 21
18254.852947536991
 31
0.0
  0
TEXT
  5
38DB
  8
2-0
  6
CONTINUOUS
 62
     7
 10
23424.854439999981
 20
16424.22405200002
 30
0.0
 40
160.0
  1
壁パネル
 50
359.99982299999999
 72
     4
 11
23787.521353803539
 21
16504.222931637891
 31
0.0
  0
TEXT
  5
38DC
  8
2-0
  6
CONTINUOUS
 62
     7
 10
23144.851535999998
 20
17261.411948000012
 30
0.0
 40
160.0
  1
中柱（左右）
 50
0.000354
 72
     4
 11
23662.18437504621
 21
17341.415144324659
 31
0.0
  0
TEXT
  5
38DD
  8
2-0
  6
CONTINUOUS
 62
     7
 10
23824.853779999979
 20
14468.773302
 30
0.0
 40
160.0
  1
下枠
 50
0.001063
 72
     4
 11
23995.518962409282
 21
14548.776468339291
 31
0.0
  0
TEXT
  5
38DE
  8
2-0
  6
CONTINUOUS
 62
     7
 10
23236.95853599998
 20
15257.09459100001
 30
0.0
 40
160.0
  1
補強柱 前
 50
359.99937
 72
     4
 11
23647.62608228777
 21
15337.09007547934
 31
0.0
  0
TEXT
  5
38DF
  8
2-0
  6
CONTINUOUS
 62
     7
 10
23319.819203999999
 20
18864.680686499989
 30
0.0
 40
160.0
  1
間柱（側）
 72
     4
 11
23741.152537333332
 21
18944.680686499989
 31
0.0
  0
TEXT
  5
38E0
  8
2-0
  6
CONTINUOUS
 62
     7
 10
25638.409522999998
 20
20744.228406999999
 30
0.0
 40
160.0
  1
後柱（左右）
 50
0.000354
 72
     4
 11
26150.409028712991
 21
20824.231570372842
 31
0.0
  0
TEXT
  5
38E1
  8
2-0
  6
CONTINUOUS
 62
     7
 10
18811.962375999981
 20
19797.250472000022
 30
0.0
 40
160.0
  1
C
 72
     4
 11
18865.295709333321
 21
19877.250472000022
 31
0.0
  0
TEXT
  5
38E2
  8
2-0
  6
CONTINUOUS
 62
     7
 10
18812.183091999981
 20
16903.336832000019
 30
0.0
 40
160.0
  1
B
 72
     4
 11
18865.516425333321
 21
16983.336832000019
 31
0.0
  0
TEXT
  5
38E3
  8
2-0
  6
CONTINUOUS
 62
     7
 10
18812.225652000008
 20
13967.12370299999
 30
0.0
 40
160.0
  1
A
 72
     4
 11
18865.55898533334
 21
14047.12370299999
 31
0.0
  0
TEXT
  5
38E4
  8
2-0
  6
CONTINUOUS
 62
     7
 10
22905.282227
 20
21238.708189000012
 30
0.0
 40
160.0
  1
2
 72
     4
 11
22958.615560333332
 21
21318.708189000012
 31
0.0
  0
TEXT
  5
38E5
  8
2-0
  6
CONTINUOUS
 62
     7
 10
20345.207400999981
 20
21245.466266000029
 30
0.0
 40
160.0
  1
1
 72
     4
 11
20371.874067666649
 21
21325.466266000029
 31
0.0
  0
LINE
  5
38E6
  8
2-0
  6
CONTINUOUS
 62
     3
 10
24083.91459099999
 20
19934.229199000009
 30
0.0
 11
24046.913429
 21
19934.229199000009
 31
0.0
  0
LINE
  5
38E7
  8
2-0
  6
CONTINUOUS
 62
     3
 10
24083.91459099999
 20
19904.22563600001
 30
0.0
 11
24083.91459099999
 21
19934.229199000009
 31
0.0
  0
LINE
  5
38E8
  8
2-0
  6
CONTINUOUS
 62
     3
 10
24077.914669999991
 20
19904.22563600001
 30
0.0
 11
24083.91459099999
 21
19904.22563600001
 31
0.0
  0
LINE
  5
38E9
  8
2-0
  6
CONTINUOUS
 62
     3
 10
24094.012115000001
 20
19904.22563600001
 30
0.0
 11
24094.012115000001
 21
19934.229199000009
 31
0.0
  0
LINE
  5
38EA
  8
2-0
  6
CONTINUOUS
 62
     3
 10
24076.008394
 20
19904.22563600001
 30
0.0
 11
24094.012115000001
 21
19904.22563600001
 31
0.0
  0
LINE
  5
38EB
  8
2-0
  6
CONTINUOUS
 62
     3
 10
24076.008394
 20
19929.234873000001
 30
0.0
 11
24076.008394
 21
19904.22563600001
 31
0.0
  0
LINE
  5
38EC
  8
2-0
  6
CONTINUOUS
 62
     3
 10
24081.008657999992
 20
19929.234873000001
 30
0.0
 11
24076.008394
 21
19929.234873000001
 31
0.0
  0
LINE
  5
38ED
  8
2-0
  6
CONTINUOUS
 62
     3
 10
24081.008657999992
 20
19922.229357000011
 30
0.0
 11
24081.008657999992
 21
19929.234873000001
 31
0.0
  0
LINE
  5
38EE
  8
2-0
  6
CONTINUOUS
 62
     3
 10
24049.819362999991
 20
19922.229357000011
 30
0.0
 11
24049.819362999991
 21
19929.234873000001
 31
0.0
  0
LINE
  5
38EF
  8
2-0
  6
CONTINUOUS
 62
     3
 10
24049.819362999991
 20
19929.234873000001
 30
0.0
 11
24054.819627000001
 21
19929.234873000001
 31
0.0
  0
LINE
  5
38F0
  8
2-0
  6
CONTINUOUS
 62
     3
 10
24054.819627000001
 20
19929.234873000001
 30
0.0
 11
24054.819627000001
 21
19904.22563600001
 31
0.0
  0
LINE
  5
38F1
  8
2-0
  6
CONTINUOUS
 62
     3
 10
24054.819627000001
 20
19904.22563600001
 30
0.0
 11
24036.819864000001
 21
19904.22563600001
 31
0.0
  0
LINE
  5
38F2
  8
2-0
  6
CONTINUOUS
 62
     3
 10
24036.819864000001
 20
19904.22563600001
 30
0.0
 11
24036.819864000001
 21
19934.229199000009
 31
0.0
  0
LINE
  5
38F3
  8
2-0
  6
CONTINUOUS
 62
     3
 10
24052.913349999992
 20
19904.22563600001
 30
0.0
 11
24046.913429
 21
19904.22563600001
 31
0.0
  0
LINE
  5
38F4
  8
2-0
  6
CONTINUOUS
 62
     3
 10
24046.913429
 20
19904.22563600001
 30
0.0
 11
24046.913429
 21
19934.229199000009
 31
0.0
  0
LINE
  5
38F5
  8
2-0
  6
CONTINUOUS
 62
     3
 10
24741.297640000001
 20
19934.229199000009
 30
0.0
 11
24094.012115000001
 21
19934.229199000009
 31
0.0
  0
LINE
  5
38F6
  8
2-0
  6
CONTINUOUS
 62
     3
 10
24036.819864000001
 20
19934.229199000009
 30
0.0
 11
23393.00716600001
 21
19934.22919900003
 31
0.0
  0
LINE
  5
38F7
  8
2-0
  6
CONTINUOUS
 62
     3
 10
23380.005688000001
 20
19922.229357000011
 30
0.0
 11
23380.005688000001
 21
19929.234873000001
 31
0.0
  0
LINE
  5
38F8
  8
2-0
  6
CONTINUOUS
 62
     3
 10
23380.005688000001
 20
19929.234873000001
 30
0.0
 11
23375.005423999992
 21
19929.234873000001
 31
0.0
  0
LINE
  5
38F9
  8
2-0
  6
CONTINUOUS
 62
     3
 10
23375.005423999992
 20
19929.234873000001
 30
0.0
 11
23375.005423999992
 21
19904.22563600001
 31
0.0
  0
LINE
  5
38FA
  8
2-0
  6
CONTINUOUS
 62
     3
 10
23375.005423999992
 20
19904.22563600001
 30
0.0
 11
23393.00716600001
 21
19904.22563600001
 31
0.0
  0
LINE
  5
38FB
  8
2-0
  6
CONTINUOUS
 62
     3
 10
23393.00716600001
 20
19904.22563600001
 30
0.0
 11
23393.00716600001
 21
19934.229199000009
 31
0.0
  0
LINE
  5
38FC
  8
2-0
  6
CONTINUOUS
 62
     3
 10
23376.90774100001
 20
19904.22563600001
 30
0.0
 11
23382.911620999988
 21
19904.22563600001
 31
0.0
  0
LINE
  5
38FD
  8
2-0
  6
CONTINUOUS
 62
     3
 10
23382.911620999988
 20
19904.22563600001
 30
0.0
 11
23382.911620999988
 21
19934.229199000009
 31
0.0
  0
LINE
  5
38FE
  8
2-0
  6
CONTINUOUS
 62
     3
 10
23345.916399000002
 20
19934.229199000009
 30
0.0
 11
23382.911620999988
 21
19934.229199000009
 31
0.0
  0
LINE
  5
38FF
  8
2-0
  6
CONTINUOUS
 62
     3
 10
23345.916399000002
 20
19904.22563600001
 30
0.0
 11
23345.916399000002
 21
19934.229199000009
 31
0.0
  0
LINE
  5
3900
  8
2-0
  6
CONTINUOUS
 62
     3
 10
23351.910381000002
 20
19904.22563600001
 30
0.0
 11
23345.916399000002
 21
19904.22563600001
 31
0.0
  0
LINE
  5
3901
  8
2-0
  6
CONTINUOUS
 62
     3
 10
23335.820854000009
 20
19904.22563600001
 30
0.0
 11
23335.820854000009
 21
19934.229199000009
 31
0.0
  0
LINE
  5
3902
  8
2-0
  6
CONTINUOUS
 62
     3
 10
23353.81665700001
 20
19904.22563600001
 30
0.0
 11
23335.820854000009
 21
19904.22563600001
 31
0.0
  0
LINE
  5
3903
  8
2-0
  6
CONTINUOUS
 62
     3
 10
23353.81665700001
 20
19929.234873000001
 30
0.0
 11
23353.81665700001
 21
19904.22563600001
 31
0.0
  0
LINE
  5
3904
  8
2-0
  6
CONTINUOUS
 62
     3
 10
23348.818373000009
 20
19929.234873000001
 30
0.0
 11
23353.81665700001
 21
19929.234873000001
 31
0.0
  0
LINE
  5
3905
  8
2-0
  6
CONTINUOUS
 62
     3
 10
23348.818373000009
 20
19922.229357000011
 30
0.0
 11
23348.818373000009
 21
19929.234873000001
 31
0.0
  0
LINE
  5
3906
  8
2-0
  6
CONTINUOUS
 62
     3
 10
23039.719251999992
 20
19934.229199000009
 30
0.0
 11
23335.820854000009
 21
19934.229199000009
 31
0.0
  0
LINE
  5
3907
  8
2-0
  6
CONTINUOUS
 62
     3
 10
22875.486513000011
 20
19934.229199000009
 30
0.0
 11
22227.512115000001
 21
19934.229199000009
 31
0.0
  0
LINE
  5
3908
  8
2-0
  6
CONTINUOUS
 62
     3
 10
24865.912294000002
 20
15486.370351
 30
0.0
 11
24865.912294000002
 21
14842.331493000011
 31
0.0
  0
LINE
  5
3909
  8
2-0
  6
CONTINUOUS
 62
     3
 10
24865.912294000002
 20
14785.135283
 30
0.0
 11
24865.912294000002
 21
14138.268921000001
 31
0.0
  0
CIRCLE
  5
390A
  8
2-0
  6
CONTINUOUS
 62
     4
 10
24823.41401
 20
21334.233818000012
 30
0.0
 40
200.00001
  0
TEXT
  5
390B
  8
2-0
  6
CONTINUOUS
 62
     7
 10
24771.782227
 20
21238.708189000012
 30
0.0
 40
160.0
  1
3
 72
     4
 11
24825.115560333332
 21
21318.708189000012
 31
0.0
  0
LINE
  5
3916
  8
0-1
  6
CONTINUOUS
 62
     3
 10
24873.41466899998
 20
6356.3198969999958
 30
0.0
 11
24773.415327999988
 21
6356.3198969999958
 31
0.0
  0
LINE
  5
3917
  8
0-1
  6
CONTINUOUS
 62
     3
 10
24773.415327999988
 20
6356.3198969999958
 30
0.0
 11
24773.415327999988
 21
6256.3200619999989
 31
0.0
  0
LINE
  5
3918
  8
0-1
  6
CONTINUOUS
 62
     3
 10
24873.41466899998
 20
6256.3200619999989
 30
0.0
 11
24873.41466899998
 21
6356.3198969999958
 31
0.0
  0
LINE
  5
3919
  8
0-1
  6
CONTINUOUS
 62
     3
 10
24845.915195999991
 20
8704.8202459999975
 30
0.0
 11
24845.915195999991
 21
6356.3198969999958
 31
0.0
  0
LINE
  5
391A
  8
0-1
  6
CONTINUOUS
 62
     3
 10
24865.914272999991
 20
8574.8193229999979
 30
0.0
 11
24865.914272999991
 21
6356.3198969999958
 31
0.0
  0
LINE
  5
391B
  8
0-1
  6
CONTINUOUS
 62
     3
 10
24735.91532799997
 20
8264.3199559999957
 30
0.0
 11
24735.91532799997
 21
6256.3200619999989
 31
0.0
  0
LINE
  5
391C
  8
0-1
  6
CONTINUOUS
 62
     3
 10
24780.91572399998
 20
8574.8193229999979
 30
0.0
 11
24780.91572399998
 21
6356.3198969999958
 31
0.0
  0
LINE
  5
3925
  8
0-1
  6
CONTINUOUS
 62
     3
 10
22999.412293000001
 20
8574.8193229999979
 30
0.0
 11
22999.412293000001
 21
6256.3200619999989
 31
0.0
  0
LINE
  5
3926
  8
0-1
  6
CONTINUOUS
 62
     3
 10
23044.412689000012
 20
8264.3199559999957
 30
0.0
 11
23044.412689000012
 21
6256.3200619999989
 31
0.0
  0
LINE
  5
3929
  8
0-1
  6
CONTINUOUS
 62
     3
 10
23044.412689000012
 20
8195.7796199999975
 30
0.0
 11
24735.91532799997
 21
8195.7796199999975
 31
0.0
  0
LINE
  5
392A
  8
0-1
  6
CONTINUOUS
 62
     3
 10
23044.412689000012
 20
6841.3207549999979
 30
0.0
 11
24735.91532799997
 21
6841.3207549999979
 31
0.0
  0
LINE
  5
392B
  8
0-1
  6
CONTINUOUS
 62
     3
 10
23044.412689000012
 20
6906.319731999999
 30
0.0
 11
24735.91532799997
 21
6906.319731999999
 31
0.0
  0
LINE
  5
392C
  8
0-1
  6
CONTINUOUS
 62
     3
 10
23044.412689000012
 20
6971.3201939999963
 30
0.0
 11
24735.91532799997
 21
6971.3201939999963
 31
0.0
  0
LINE
  5
392D
  8
0-1
  6
CONTINUOUS
 62
     3
 10
23044.412689000012
 20
7036.3201609999978
 30
0.0
 11
24735.91532799997
 21
7036.3201609999978
 31
0.0
  0
LINE
  5
392E
  8
0-1
  6
CONTINUOUS
 62
     3
 10
23044.412689000012
 20
7101.3201279999967
 30
0.0
 11
24735.91532799997
 21
7101.3201279999967
 31
0.0
  0
LINE
  5
392F
  8
0-1
  6
CONTINUOUS
 62
     3
 10
23044.412689000012
 20
7166.3200949999973
 30
0.0
 11
24735.91532799997
 21
7166.3200949999973
 31
0.0
  0
LINE
  5
3930
  8
0-1
  6
CONTINUOUS
 62
     3
 10
23044.412689000012
 20
7231.320557
 30
0.0
 11
24735.91532799997
 21
7231.320557
 31
0.0
  0
LINE
  5
3931
  8
0-1
  6
CONTINUOUS
 62
     3
 10
23044.412689000012
 20
7296.3195339999966
 30
0.0
 11
24735.91532799997
 21
7296.3195339999966
 31
0.0
  0
LINE
  5
3932
  8
0-1
  6
CONTINUOUS
 62
     3
 10
23044.412689000012
 20
7361.3199959999947
 30
0.0
 11
24735.91532799997
 21
7361.3199959999947
 31
0.0
  0
LINE
  5
3933
  8
0-1
  6
CONTINUOUS
 62
     3
 10
23044.412689000012
 20
7426.3199629999917
 30
0.0
 11
24735.91532799997
 21
7426.3199629999917
 31
0.0
  0
LINE
  5
3934
  8
0-1
  6
CONTINUOUS
 62
     3
 10
23044.412689000012
 20
7491.3204249999953
 30
0.0
 11
24735.91532799997
 21
7491.3204249999953
 31
0.0
  0
LINE
  5
3935
  8
0-1
  6
CONTINUOUS
 62
     3
 10
23044.412689000012
 20
7556.3194019999974
 30
0.0
 11
24735.91532799997
 21
7556.3194019999974
 31
0.0
  0
LINE
  5
3936
  8
0-1
  6
CONTINUOUS
 62
     3
 10
23044.412689000012
 20
7621.3198639999973
 30
0.0
 11
24735.91532799997
 21
7621.3198639999973
 31
0.0
  0
LINE
  5
3937
  8
0-1
  6
CONTINUOUS
 62
     3
 10
23044.412689000012
 20
7686.319830999998
 30
0.0
 11
24735.91532799997
 21
7686.319830999998
 31
0.0
  0
LINE
  5
3938
  8
0-1
  6
CONTINUOUS
 62
     3
 10
23044.412689000012
 20
7751.3197979999968
 30
0.0
 11
24735.91532799997
 21
7751.3197979999968
 31
0.0
  0
LINE
  5
3939
  8
0-1
  6
CONTINUOUS
 62
     3
 10
23044.412689000012
 20
7816.3202600000022
 30
0.0
 11
24735.91532799997
 21
7816.3202600000022
 31
0.0
  0
LINE
  5
393A
  8
0-1
  6
CONTINUOUS
 62
     3
 10
23044.412689000012
 20
7881.3202269999929
 30
0.0
 11
24735.91532799997
 21
7881.3202269999929
 31
0.0
  0
LINE
  5
393B
  8
0-1
  6
CONTINUOUS
 62
     3
 10
23044.412689000012
 20
7946.3206889999929
 30
0.0
 11
24735.91532799997
 21
7946.3206889999929
 31
0.0
  0
LINE
  5
393C
  8
0-1
  6
CONTINUOUS
 62
     3
 10
23044.412689000012
 20
8011.3196659999958
 30
0.0
 11
24735.91532799997
 21
8011.3196659999958
 31
0.0
  0
LINE
  5
393D
  8
0-1
  6
CONTINUOUS
 62
     3
 10
23044.412689000012
 20
8076.3201279999967
 30
0.0
 11
24735.91532799997
 21
8076.3201279999967
 31
0.0
  0
LINE
  5
393E
  8
0-1
  6
CONTINUOUS
 62
     3
 10
23044.412689000012
 20
8141.3200949999973
 30
0.0
 11
24735.91532799997
 21
8141.3200949999973
 31
0.0
  0
LINE
  5
393F
  8
0-1
  6
CONTINUOUS
 62
     3
 10
23044.412689000012
 20
6321.3195339999966
 30
0.0
 11
24735.91532799997
 21
6321.3195339999966
 31
0.0
  0
LINE
  5
3940
  8
0-1
  6
CONTINUOUS
 62
     3
 10
23044.412689000012
 20
6386.3204909999977
 30
0.0
 11
24735.91532799997
 21
6386.3204909999977
 31
0.0
  0
LINE
  5
3941
  8
0-1
  6
CONTINUOUS
 62
     3
 10
23044.412689000012
 20
6451.3194679999979
 30
0.0
 11
24735.91532799997
 21
6451.3194679999979
 31
0.0
  0
LINE
  5
3942
  8
0-1
  6
CONTINUOUS
 62
     3
 10
23044.412689000012
 20
6516.3204249999962
 30
0.0
 11
24735.91532799997
 21
6516.3204249999962
 31
0.0
  0
LINE
  5
3943
  8
0-1
  6
CONTINUOUS
 62
     3
 10
23044.412689000012
 20
6581.3198969999967
 30
0.0
 11
24735.91532799997
 21
6581.3198969999967
 31
0.0
  0
LINE
  5
3944
  8
0-1
  6
CONTINUOUS
 62
     3
 10
23044.412689000012
 20
6646.3198639999973
 30
0.0
 11
24735.91532799997
 21
6646.3198639999973
 31
0.0
  0
LINE
  5
3945
  8
0-1
  6
CONTINUOUS
 62
     3
 10
23044.412689000012
 20
6711.3198309999989
 30
0.0
 11
24735.91532799997
 21
6711.3198309999989
 31
0.0
  0
LINE
  5
3946
  8
0-1
  6
CONTINUOUS
 62
     3
 10
23044.412689000012
 20
6776.3193029999984
 30
0.0
 11
24735.91532799997
 21
6776.3193029999984
 31
0.0
  0
LINE
  5
3948
  8
0-1
  6
CONTINUOUS
 62
     3
 10
22999.412293000001
 20
8264.3199559999957
 30
0.0
 11
24780.91572399998
 21
8264.3199559999957
 31
0.0
  0
LINE
  5
3949
  8
0-1
  6
CONTINUOUS
 62
     3
 10
20339.413349999999
 20
6256.3200619999989
 30
0.0
 11
24873.41466899998
 21
6256.3200619999989
 31
0.0
  0
LINE
  5
3953
  8
0-1
  6
CONTINUOUS
 62
     3
 10
22914.413744999969
 20
8574.8193229999979
 30
0.0
 11
22914.413744999969
 21
6256.3200619999989
 31
0.0
  0
LINE
  5
3954
  8
0-1
  6
CONTINUOUS
 62
     3
 10
22869.41532899997
 20
8264.3199559999957
 30
0.0
 11
22869.41532899997
 21
6256.3200619999989
 31
0.0
  0
LINE
  5
395F
  8
0-1
  6
CONTINUOUS
 62
     3
 10
20439.414668999991
 20
6356.3198969999958
 30
0.0
 11
20439.414668999991
 21
6256.3200619999989
 31
0.0
  0
LINE
  5
3960
  8
0-1
  6
CONTINUOUS
 62
     3
 10
20339.413349999999
 20
6256.3200619999989
 30
0.0
 11
20339.413349999999
 21
6356.3198969999958
 31
0.0
  0
LINE
  5
3961
  8
0-1
  6
CONTINUOUS
 62
     3
 10
20339.413349999999
 20
6356.3198969999958
 30
0.0
 11
20439.414668999991
 21
6356.3198969999958
 31
0.0
  0
LINE
  5
3962
  8
0-1
  6
CONTINUOUS
 62
     3
 10
20476.914668999991
 20
8264.3199559999957
 30
0.0
 11
20476.914668999991
 21
6256.3200619999989
 31
0.0
  0
LINE
  5
3963
  8
0-1
  6
CONTINUOUS
 62
     3
 10
20431.912294000002
 20
8574.8193229999979
 30
0.0
 11
20431.912294000002
 21
6356.3198969999958
 31
0.0
  0
LINE
  5
3964
  8
0-1
  6
CONTINUOUS
 62
     3
 10
20366.914800999992
 20
8704.8202459999975
 30
0.0
 11
20366.914800999992
 21
6356.3198969999958
 31
0.0
  0
LINE
  5
3965
  8
0-1
  6
CONTINUOUS
 62
     3
 10
20346.91176599999
 20
8574.8193229999979
 30
0.0
 11
20346.91176599999
 21
6356.3198969999958
 31
0.0
  0
LINE
  5
3966
  8
0-1
  6
CONTINUOUS
 62
     3
 10
20431.912294000002
 20
8264.3199559999957
 30
0.0
 11
22914.413744999969
 21
8264.3199559999957
 31
0.0
  0
LINE
  5
3968
  8
0-1
  6
CONTINUOUS
 62
     3
 10
20476.914668999991
 20
6776.3193029999984
 30
0.0
 11
22869.41532899997
 21
6776.3193029999984
 31
0.0
  0
LINE
  5
3969
  8
0-1
  6
CONTINUOUS
 62
     3
 10
20476.914668999991
 20
6711.3198309999989
 30
0.0
 11
22869.41532899997
 21
6711.3198309999989
 31
0.0
  0
LINE
  5
396A
  8
0-1
  6
CONTINUOUS
 62
     3
 10
20476.914668999991
 20
6646.3198639999973
 30
0.0
 11
22869.41532899997
 21
6646.3198639999973
 31
0.0
  0
LINE
  5
396B
  8
0-1
  6
CONTINUOUS
 62
     3
 10
20476.914668999991
 20
6581.3198969999967
 30
0.0
 11
22869.41532899997
 21
6581.3198969999967
 31
0.0
  0
LINE
  5
396C
  8
0-1
  6
CONTINUOUS
 62
     3
 10
20476.914668999991
 20
6516.3204249999962
 30
0.0
 11
22869.41532899997
 21
6516.3204249999962
 31
0.0
  0
LINE
  5
396D
  8
0-1
  6
CONTINUOUS
 62
     3
 10
20476.914668999991
 20
6451.3194679999979
 30
0.0
 11
22869.41532899997
 21
6451.3194679999979
 31
0.0
  0
LINE
  5
396E
  8
0-1
  6
CONTINUOUS
 62
     3
 10
20476.914668999991
 20
6386.3204909999977
 30
0.0
 11
22869.41532899997
 21
6386.3204909999977
 31
0.0
  0
LINE
  5
396F
  8
0-1
  6
CONTINUOUS
 62
     3
 10
20476.914668999991
 20
6321.3195339999966
 30
0.0
 11
22869.41532899997
 21
6321.3195339999966
 31
0.0
  0
LINE
  5
3970
  8
0-1
  6
CONTINUOUS
 62
     3
 10
20476.914668999991
 20
8141.3200949999973
 30
0.0
 11
22869.41532899997
 21
8141.3200949999973
 31
0.0
  0
LINE
  5
3971
  8
0-1
  6
CONTINUOUS
 62
     3
 10
20476.914668999991
 20
8076.3201279999967
 30
0.0
 11
22869.41532899997
 21
8076.3201279999967
 31
0.0
  0
LINE
  5
3972
  8
0-1
  6
CONTINUOUS
 62
     3
 10
20476.914668999991
 20
8011.3196659999958
 30
0.0
 11
22869.41532899997
 21
8011.3196659999958
 31
0.0
  0
LINE
  5
3973
  8
0-1
  6
CONTINUOUS
 62
     3
 10
20476.914668999991
 20
7946.3206889999929
 30
0.0
 11
22869.41532899997
 21
7946.3206889999929
 31
0.0
  0
LINE
  5
3974
  8
0-1
  6
CONTINUOUS
 62
     3
 10
20476.914668999991
 20
7881.3202269999929
 30
0.0
 11
22869.41532899997
 21
7881.3202269999929
 31
0.0
  0
LINE
  5
3975
  8
0-1
  6
CONTINUOUS
 62
     3
 10
20476.914668999991
 20
7816.3202600000022
 30
0.0
 11
22869.41532899997
 21
7816.3202600000022
 31
0.0
  0
LINE
  5
3976
  8
0-1
  6
CONTINUOUS
 62
     3
 10
20476.914668999991
 20
7751.3197979999968
 30
0.0
 11
22869.41532899997
 21
7751.3197979999968
 31
0.0
  0
LINE
  5
3977
  8
0-1
  6
CONTINUOUS
 62
     3
 10
20476.914668999991
 20
7686.319830999998
 30
0.0
 11
22869.41532899997
 21
7686.319830999998
 31
0.0
  0
LINE
  5
3978
  8
0-1
  6
CONTINUOUS
 62
     3
 10
20476.914668999991
 20
7621.3198639999973
 30
0.0
 11
22869.41532899997
 21
7621.3198639999973
 31
0.0
  0
LINE
  5
3979
  8
0-1
  6
CONTINUOUS
 62
     3
 10
20476.914668999991
 20
7556.3194019999974
 30
0.0
 11
22869.41532899997
 21
7556.3194019999974
 31
0.0
  0
LINE
  5
397A
  8
0-1
  6
CONTINUOUS
 62
     3
 10
20476.914668999991
 20
7491.3204249999953
 30
0.0
 11
22869.41532899997
 21
7491.3204249999953
 31
0.0
  0
LINE
  5
397B
  8
0-1
  6
CONTINUOUS
 62
     3
 10
20476.914668999991
 20
7426.3199629999917
 30
0.0
 11
22869.41532899997
 21
7426.3199629999917
 31
0.0
  0
LINE
  5
397C
  8
0-1
  6
CONTINUOUS
 62
     3
 10
20476.914668999991
 20
7361.3199959999947
 30
0.0
 11
22869.41532899997
 21
7361.3199959999947
 31
0.0
  0
LINE
  5
397D
  8
0-1
  6
CONTINUOUS
 62
     3
 10
20476.914668999991
 20
7296.3195339999966
 30
0.0
 11
22869.41532899997
 21
7296.3195339999966
 31
0.0
  0
LINE
  5
397E
  8
0-1
  6
CONTINUOUS
 62
     3
 10
20476.914668999991
 20
7231.320557
 30
0.0
 11
22869.41532899997
 21
7231.320557
 31
0.0
  0
LINE
  5
397F
  8
0-1
  6
CONTINUOUS
 62
     3
 10
20476.914668999991
 20
7166.3200949999973
 30
0.0
 11
22869.41532899997
 21
7166.3200949999973
 31
0.0
  0
LINE
  5
3980
  8
0-1
  6
CONTINUOUS
 62
     3
 10
20476.914668999991
 20
7101.3201279999967
 30
0.0
 11
22869.41532899997
 21
7101.3201279999967
 31
0.0
  0
LINE
  5
3981
  8
0-1
  6
CONTINUOUS
 62
     3
 10
20476.914668999991
 20
7036.3201609999978
 30
0.0
 11
22869.41532899997
 21
7036.3201609999978
 31
0.0
  0
LINE
  5
3982
  8
0-1
  6
CONTINUOUS
 62
     3
 10
20476.914668999991
 20
6971.3201939999963
 30
0.0
 11
22869.41532899997
 21
6971.3201939999963
 31
0.0
  0
LINE
  5
3983
  8
0-1
  6
CONTINUOUS
 62
     3
 10
20476.914668999991
 20
6906.319731999999
 30
0.0
 11
22869.41532899997
 21
6906.319731999999
 31
0.0
  0
LINE
  5
3984
  8
0-1
  6
CONTINUOUS
 62
     3
 10
20476.914668999991
 20
6841.3207549999979
 30
0.0
 11
22869.41532899997
 21
6841.3207549999979
 31
0.0
  0
LINE
  5
3985
  8
0-1
  6
CONTINUOUS
 62
     3
 10
20476.914668999991
 20
8195.7796199999975
 30
0.0
 11
22869.41532899997
 21
8195.7796199999975
 31
0.0
  0
LINE
  5
398B
  8
0-2
  6
CONTINUOUS
 62
     4
 10
22036.855019499992
 20
7003.5457659999956
 30
0.0
 11
21936.855679499979
 21
7003.5457659999956
 31
0.0
  0
LINE
  5
398C
  8
0-2
  6
CONTINUOUS
 62
     4
 10
21309.471018499989
 20
7003.5457659999956
 30
0.0
 11
21409.468379499998
 21
7003.5457659999956
 31
0.0
  0
LINE
  5
398D
  8
0-5
  6
CONTINUOUS
 62
     4
 10
22956.914008999989
 20
4576.3199629999954
 30
0.0
 11
22956.914008999989
 21
4416.3199299999978
 31
0.0
  0
LINE
  5
398E
  8
0-5
  6
CONTINUOUS
 62
     4
 10
20389.414008999978
 20
4576.3199629999954
 30
0.0
 11
20389.414008999978
 21
4416.3199299999978
 31
0.0
  0
LINE
  5
398F
  8
2-0
  6
CENTER2
 62
     6
 10
24823.414008999978
 20
5993.6676389999984
 30
0.0
 11
24823.414008999978
 21
7030.8096759999962
 31
0.0
  0
LINE
  5
3990
  8
2-0
  6
CENTER2
 62
     6
 10
22956.914008999989
 20
5993.6676389999984
 30
0.0
 11
22956.914008999989
 21
7030.8096759999962
 31
0.0
  0
LINE
  5
3991
  8
2-0
  6
CENTER2
 62
     6
 10
20389.414008999978
 20
5993.6676389999984
 30
0.0
 11
20389.414008999978
 21
7030.8096759999962
 31
0.0
  0
CIRCLE
  5
39A2
  8
0-5
  6
CONTINUOUS
 62
     4
 10
22956.914008999989
 20
4216.3202599999968
 30
0.0
 40
199.9999949999999
  0
CIRCLE
  5
39A3
  8
0-5
  6
CONTINUOUS
 62
     4
 10
20389.414008999978
 20
4216.3202599999968
 30
0.0
 40
199.9999949999999
  0
TEXT
  5
39A4
  8
0-5
  6
CONTINUOUS
 62
     7
 10
19771.238069999989
 20
6985.6803087419958
 30
0.0
 40
160.0
  1
(2131.5)
 50
90.0
 72
     4
 11
19691.238069999989
 21
7439.0136420753288
 31
0.0
  0
TEXT
  5
39A5
  8
0-5
  6
CONTINUOUS
 62
     7
 10
22909.985561999991
 20
4129.7903059999971
 30
0.0
 40
160.0
  1
2
 72
     4
 11
22963.318895333319
 21
4209.7903059999971
 31
0.0
  0
TEXT
  5
39A6
  8
0-5
  6
CONTINUOUS
 62
     7
 10
20342.481602999989
 20
4129.7903059999971
 30
0.0
 40
160.0
  1
1
 72
     4
 11
20369.148269666661
 21
4209.7903059999971
 31
0.0
  0
CIRCLE
  5
39A7
  8
0-4
  6
CONTINUOUS
 62
     4
 10
21673.164008999971
 20
6742.3760029999939
 30
0.0
 40
18.487504999999981
  0
LINE
  5
39A8
  8
SUNPOU
  6
CONTINUOUS
 10
20106.914008999971
 20
5056.3200619999989
 30
0.0
 11
19748.95900227888
 21
5056.3200619999989
 31
0.0
  0
LINE
  5
39A9
  8
SUNPOU
  6
CONTINUOUS
 10
25105.917967999991
 20
5056.3200619999989
 30
0.0
 11
25463.8729747211
 21
5056.3200619999989
 31
0.0
  0
LINE
  5
39AA
  8
0-5
  6
CONTINUOUS
 62
     4
 10
24865.914008999989
 20
4576.3199629999954
 30
0.0
 11
24865.914008999989
 21
4416.3199299999978
 31
0.0
  0
CIRCLE
  5
39AB
  8
0-5
  6
CONTINUOUS
 62
     4
 10
24865.914008999989
 20
4216.3202599999968
 30
0.0
 40
199.9999949999999
  0
TEXT
  5
39AC
  8
0-5
  6
CONTINUOUS
 62
     7
 10
24818.98556199998
 20
4129.7903059999971
 30
0.0
 40
160.0
  1
3
 72
     4
 11
24872.318895333308
 21
4209.7903059999971
 31
0.0
  0
TEXT
  5
39AD
  8
2-0
  6
CONTINUOUS
 62
     7
 10
21288.380264999982
 20
3379.1984300000008
 30
0.0
 40
160.0
  1
正 面 立 面 図
 50
0.000139
 72
     4
 11
21933.713404250801
 21
3459.1999955833762
 31
0.0
  0
TEXT
  5
39AE
  8
2-0
  6
CONTINUOUS
 62
     7
 10
23285.205589388421
 20
3406.3953645833758
 30
0.0
 40
160.0
  1
1
 72
     4
 11
23311.872256055089
 21
3486.3953645833749
 31
0.0
  0
TEXT
  5
39AF
  8
2-0
  6
CONTINUOUS
 62
     7
 10
23528.294306639109
 20
3326.3968325833748
 30
0.0
 40
160.0
  1
80
 72
     4
 11
23648.294306639109
 21
3406.3968325833748
 31
0.0
  0
TEXT
  5
39B0
  8
2-0
  6
CONTINUOUS
 62
     7
 10
22786.207555388432
 20
3379.1999955833762
 30
0.0
 40
160.0
  1
(S=  /   )
 72
     4
 11
23346.207555388432
 21
3459.1999955833762
 31
0.0
  0
LINE
  5
39B1
  8
0-5
  6
CONTINUOUS
 62
     4
 10
17466.54494899997
 20
6464.1655539999992
 30
0.0
 11
17586.541385999979
 21
6256.3200620000034
 31
0.0
  0
LINE
  5
39B2
  8
0-5
  6
CONTINUOUS
 62
     4
 10
17586.541385999979
 20
6256.3200620000034
 30
0.0
 11
17706.541781999971
 21
6464.1655539999992
 31
0.0
  0
LINE
  5
39B3
  8
0-5
  6
CONTINUOUS
 62
     4
 10
17706.541781999971
 20
6464.1655539999992
 30
0.0
 11
17466.54494899997
 21
6464.1655539999992
 31
0.0
  0
TEXT
  5
39B4
  8
0-5
  6
CONTINUOUS
 62
     7
 10
17466.54494899997
 20
6544.1663119999967
 30
0.0
 40
160.0
  1
G.L
 72
     4
 11
17626.54494899997
 21
6624.1663119999967
 31
0.0
  0
LINE
  5
39B5
  8
SUNPOU
  6
CONTINUOUS
 10
8812.6572919999944
 20
9504.3200880000004
 30
0.0
 11
8337.3681793597625
 21
9504.3200880000004
 31
0.0
  0
LINE
  5
39B6
  8
0-6
  6
CONTINUOUS
 62
     6
 10
21594.52915250001
 20
18934.07545600002
 30
0.0
 11
22619.569402500001
 21
18934.07545600002
 31
0.0
  0
LINE
  5
39B7
  8
0-6
  6
CONTINUOUS
 62
     6
 10
20794.51265650001
 20
19904.225636000021
 30
0.0
 11
21206.155524500009
 21
18516.963178000002
 31
0.0
  0
LINE
  5
39B8
  8
0-6
  6
CONTINUOUS
 62
     6
 10
21206.155524500009
 20
18516.963178000002
 30
0.0
 11
22231.195774500011
 21
18516.963178000002
 31
0.0
  0
LINE
  5
39B9
  8
0-6
  6
CONTINUOUS
 62
     6
 10
22883.330355499998
 20
19822.972337000021
 30
0.0
 11
22619.569402500001
 21
18934.07545600002
 31
0.0
  0
LINE
  5
39BA
  8
0-6
  6
CONTINUOUS
 62
     6
 10
20863.4830425
 20
19757.414640000021
 30
0.0
 11
20794.51265650001
 21
19904.225636000021
 31
0.0
  0
LINE
  5
39BB
  8
0-6
  6
CONTINUOUS
 62
     6
 10
20794.51265650001
 20
19904.225636000021
 30
0.0
 11
20812.138289499999
 21
19742.98196999999
 31
0.0
  0
LINE
  5
39BC
  8
0-6
  6
CONTINUOUS
 62
     6
 10
20794.51265650001
 20
19904.225636000021
 30
0.0
 11
20863.4830425
 21
19757.414640000021
 31
0.0
  0
LINE
  5
39BD
  8
0-6
  6
CONTINUOUS
 62
     6
 10
20863.4830425
 20
19757.414640000021
 30
0.0
 11
20812.138289499999
 21
19742.98196999999
 31
0.0
  0
LINE
  5
39BE
  8
0-6
  6
CONTINUOUS
 62
     6
 10
20812.138289499999
 20
19742.98196999999
 30
0.0
 11
20794.51265650001
 21
19904.225636000021
 31
0.0
  0
LINE
  5
39BF
  8
0-6
  6
CONTINUOUS
 62
     6
 10
20812.138289499999
 20
19742.98196999999
 30
0.0
 11
20863.4830425
 21
19757.414640000021
 31
0.0
  0
LINE
  5
39C0
  8
0-6
  6
CONTINUOUS
 62
     6
 10
22814.36194850002
 20
19676.155403000019
 30
0.0
 11
22883.330355499998
 21
19822.972337000021
 31
0.0
  0
LINE
  5
39C1
  8
0-6
  6
CONTINUOUS
 62
     6
 10
22883.330355499998
 20
19822.972337000021
 30
0.0
 11
22865.704722499991
 21
19661.724712000021
 31
0.0
  0
LINE
  5
39C2
  8
0-6
  6
CONTINUOUS
 62
     6
 10
22883.330355499998
 20
19822.972337000021
 30
0.0
 11
22814.36194850002
 21
19676.155403000019
 31
0.0
  0
LINE
  5
39C3
  8
0-6
  6
CONTINUOUS
 62
     6
 10
22814.36194850002
 20
19676.155403000019
 30
0.0
 11
22865.704722499991
 21
19661.724712000021
 31
0.0
  0
LINE
  5
39C4
  8
0-6
  6
CONTINUOUS
 62
     6
 10
22865.704722499991
 20
19661.724712000021
 30
0.0
 11
22883.330355499998
 21
19822.972337000021
 31
0.0
  0
LINE
  5
39C5
  8
0-6
  6
CONTINUOUS
 62
     6
 10
22865.704722499991
 20
19661.724712000021
 30
0.0
 11
22814.36194850002
 21
19676.155403000019
 31
0.0
  0
TEXT
  5
39C6
  8
0-6
  6
CONTINUOUS
 62
     7
 10
21674.529416500001
 20
19014.077700000009
 30
0.0
 40
160.0
  1
後柱（中）
 72
     4
 11
22090.529416500001
 21
19094.077700000009
 31
0.0
  0
TEXT
  5
39C7
  8
0-6
  6
CONTINUOUS
 62
     7
 10
21286.1557885
 20
18596.961463000011
 30
0.0
 40
160.0
  1
間柱（後）
 72
     4
 11
21707.489121833329
 21
18676.961463000011
 31
0.0
  0
LINE
  5
39C8
  8
0-2
  6
CONTINUOUS
 62
     4
 10
24253.854028999998
 20
7003.5457659999956
 30
0.0
 11
24153.854689
 21
7003.5457659999956
 31
0.0
  0
LINE
  5
39C9
  8
0-2
  6
CONTINUOUS
 62
     4
 10
23526.470027999989
 20
7003.5457659999956
 30
0.0
 11
23626.467389000001
 21
7003.5457659999956
 31
0.0
  0
CIRCLE
  5
39CA
  8
0-4
  6
CONTINUOUS
 62
     4
 10
23890.163018499989
 20
6742.3760029999939
 30
0.0
 40
18.487504999999981
  0
LINE
  5
39CB
  8
SUNPOU
  6
CONTINUOUS
 10
9164.4559099999969
 20
13863.235599
 30
0.0
 11
9164.4559099999969
 21
13187.80948318962
 31
0.0
  0
CIRCLE
  5
39CC
  8
0-5
  6
CONTINUOUS
 62
     4
 10
15128.714697999991
 20
1375.999982
 30
0.0
 40
20.0
  0
ARC
  5
39CD
  8
0-5
  6
CONTINUOUS
 62
     4
 10
15128.714697999991
 20
1375.999982
 30
0.0
 40
20.0
 50
180.0
 51
0.0
  0
ARC
  5
39CE
  8
0-5
  6
CONTINUOUS
 62
     4
 10
15128.714697999991
 20
1375.999982
 30
0.0
 40
20.0
 50
0.0
 51
179.99998499999839
  0
CIRCLE
  5
39CF
  8
0-5
  6
CONTINUOUS
 62
     4
 10
15128.714697999991
 20
1775.999941
 30
0.0
 40
20.0
  0
ARC
  5
39D0
  8
0-5
  6
CONTINUOUS
 62
     4
 10
15128.714697999991
 20
1775.999941
 30
0.0
 40
20.0
 50
180.0
 51
0.0
  0
ARC
  5
39D1
  8
0-5
  6
CONTINUOUS
 62
     4
 10
15128.714697999991
 20
1775.999941
 30
0.0
 40
20.0
 50
0.0
 51
179.99998499999839
  0
TEXT
  5
39D2
  8
0-5
  6
CONTINUOUS
 62
     7
 10
16669.776841999981
 20
1655.999793
 30
0.0
 40
160.0
  1
H
  0
TEXT
  5
39D3
  8
0-5
  6
CONTINUOUS
 62
     7
 10
15176.145943
 20
1655.999793
 30
0.0
 40
160.0
  1
（ ）内寸法ハ、  タ イプヲ示ス。
  0
TEXT
  5
39D4
  8
0-5
  6
CONTINUOUS
 62
     7
 10
15288.712256999979
 20
1255.9999580000001
 30
0.0
 40
160.0
  1
有効高サハ、基礎高サヲ含ミマセン。
  0
LINE
  5
39D7
  8
WAKUSEN-01
 10
868.00000000000193
 20
22484.000000000011
 30
0.0
 11
32764.000000000011
 21
22484.000000000011
 31
0.0
  0
LINE
  5
39DA
  8
WAKUSEN-01
 10
20560.0
 20
2484.0
 30
0.0
 11
32764.0
 21
2484.0
 31
0.0
  0
LINE
  5
39DB
  8
WAKUSEN-02
 10
20560.0
 20
1655.9999999999991
 30
0.0
 11
26868.0
 21
1655.9999999999991
 31
0.0
  0
TEXT
  5
39DC
  8
WAKUMOJI-01
 10
20670.260259962761
 20
2125.9030093393221
 30
0.0
 40
240.0
  1
名　称
  7
WAKUMOJI
  0
TEXT
  5
39DD
  8
WAKUMOJI-01
 10
20656.505485091919
 20
1319.12897497982
 30
0.0
 40
240.0
  1
機種名
  7
WAKUMOJI
  0
LINE
  5
39E0
  8
YODOROGO
 10
29977.604341291921
 20
1995.7494964292871
 30
0.0
 11
29829.604341291921
 21
1995.7494964292871
 31
0.0
1001
AUTOCAD_POSTSCRIPT_FIGURE
1002
{
1000
PSFILL
1000
Grayscale
1000
Grayscale
1070
    25
1002
}
  0
LINE
  5
39E1
  8
YODOROGO
 10
29829.604341291921
 20
1947.749496429288
 30
0.0
 11
29977.604341291921
 21
1947.749496429288
 31
0.0
1001
AUTOCAD_POSTSCRIPT_FIGURE
1002
{
1000
PSFILL
1000
Grayscale
1000
Grayscale
1070
    25
1002
}
  0
LINE
  5
39E2
  8
YODOROGO
 10
29977.604341291921
 20
1907.7494964292871
 30
0.0
 11
29829.604341291921
 21
1907.7494964292871
 31
0.0
1001
AUTOCAD_POSTSCRIPT_FIGURE
1002
{
1000
PSFILL
1000
Grayscale
1000
Grayscale
1070
    25
1002
}
  0
LINE
  5
39E3
  8
YODOROGO
 10
29829.604341291921
 20
1859.749496429288
 30
0.0
 11
29977.604341291921
 21
1859.749496429288
 31
0.0
1001
AUTOCAD_POSTSCRIPT_FIGURE
1002
{
1000
PSFILL
1000
Grayscale
1000
Grayscale
1070
    25
1002
}
  0
LINE
  5
39E4
  8
YODOROGO
 10
29977.604341291921
 20
1819.7494964292871
 30
0.0
 11
29829.604341291921
 21
1819.7494964292871
 31
0.0
1001
AUTOCAD_POSTSCRIPT_FIGURE
1002
{
1000
PSFILL
1000
Grayscale
1000
Grayscale
1070
    25
1002
}
  0
LINE
  5
39E5
  8
YODOROGO
 10
29921.60434129191
 20
1707.749496429288
 30
0.0
 11
29977.604341291921
 21
1707.749496429288
 31
0.0
1001
AUTOCAD_POSTSCRIPT_FIGURE
1002
{
1000
PSFILL
1000
Grayscale
1000
Grayscale
1070
    25
1002
}
  0
LINE
  5
39E6
  8
YODOROGO
 10
29737.604341291921
 20
1427.749496429288
 30
0.0
 11
29937.604341291932
 21
1481.3393349155101
 31
0.0
  0
LINE
  5
39E7
  8
YODOROGO
 10
29949.60434129191
 20
1707.749496429288
 30
0.0
 11
29885.604341291921
 21
1707.749496429288
 31
0.0
  0
ARC
  5
39E8
  8
YODOROGO
 10
30254.34774982791
 20
1807.864609233261
 30
0.0
 40
381.88686420564721
 50
213.96111677667841
 51
264.47872074317792
  0
ARC
  5
39E9
  8
YODOROGO
 10
30254.347749827921
 20
1807.864609233302
 30
0.0
 40
381.8868642056816
 50
208.14114420486601
 51
212.9210361185994
  0
LINE
  5
39EA
  8
YODOROGO
 10
29771.409872985321
 20
1556.807661346234
 30
0.0
 11
29933.78413250855
 21
1600.3157130570869
 31
0.0
  0
LINE
  5
39EB
  8
YODOROGO
 10
29737.604341291921
 20
1427.749496429288
 30
0.0
 11
29937.604341291932
 21
1481.3393349155101
 31
0.0
  0
LINE
  5
39EC
  8
YODOROGO
 10
29949.60434129191
 20
1707.749496429288
 30
0.0
 11
29885.604341291921
 21
1707.749496429288
 31
0.0
  0
ARC
  5
39ED
  8
YODOROGO
 10
30254.34774982791
 20
1807.864609233261
 30
0.0
 40
381.88686420564721
 50
213.96111677667841
 51
264.47872074317792
  0
LINE
  5
39EE
  8
YODOROGO
 10
28793.60434129191
 20
1819.7494964292871
 30
0.0
 11
28433.60434129191
 21
1819.7494964292871
 31
0.0
  0
LINE
  5
39EF
  8
YODOROGO
 10
28513.60434129191
 20
1427.749496429288
 30
0.0
 11
28793.60434129191
 21
1427.749496429288
 31
0.0
  0
LINE
  5
39F0
  8
YODOROGO
 10
28729.604341291921
 20
1923.7494964292871
 30
0.0
 11
28497.60434129191
 21
1923.7494964292871
 31
0.0
  0
LINE
  5
39F1
  8
YODOROGO
 10
28585.604341291921
 20
2027.749496429288
 30
0.0
 11
28657.604341291921
 21
2027.749496429288
 31
0.0
  0
LINE
  5
39F2
  8
YODOROGO
 10
28433.60434129191
 20
1707.749496429288
 30
0.0
 11
28433.60434129191
 21
1507.749496429288
 31
0.0
  0
LINE
  5
39F3
  8
YODOROGO
 10
28497.60434129191
 20
1563.7494964292871
 30
0.0
 11
28497.60434129191
 21
1707.749496429288
 31
0.0
  0
LINE
  5
39F4
  8
YODOROGO
 10
28585.604341291921
 20
1747.74949642929
 30
0.0
 11
28585.604341291921
 21
1547.749496429288
 31
0.0
  0
LINE
  5
39F5
  8
YODOROGO
 10
27857.604341291921
 20
1683.749496429288
 30
0.0
 11
27777.604341291921
 21
1619.9724140445701
 31
0.0
  0
LINE
  5
39F6
  8
YODOROGO
 10
27937.604341291921
 20
1619.9724140445701
 30
0.0
 11
27857.604341291921
 21
1683.749496429288
 31
0.0
  0
LINE
  5
39F7
  8
YODOROGO
 10
27857.604341291921
 20
1707.749496429288
 30
0.0
 11
27937.604341291921
 21
1643.9724140445701
 31
0.0
  0
LINE
  5
39F8
  8
YODOROGO
 10
27777.604341291921
 20
1643.9724140445701
 30
0.0
 11
27857.604341291921
 21
1707.749496429288
 31
0.0
  0
LINE
  5
39F9
  8
YODOROGO
 10
28040.913204016892
 20
1659.749496429288
 30
0.0
 11
28040.913204016892
 21
1683.7494964292871
 31
0.0
  0
LINE
  5
39FA
  8
YODOROGO
 10
27977.604341291921
 20
1683.7494964292871
 30
0.0
 11
27977.604341291921
 21
1667.749496429285
 31
0.0
  0
LINE
  5
39FB
  8
YODOROGO
 10
28098.135520230931
 20
1707.749496429288
 30
0.0
 11
28098.135520230931
 21
1655.5036372746561
 31
0.0
1001
AUTOCAD_POSTSCRIPT_FIGURE
1002
{
1000
PSFILL
1000
Grayscale
1000
Grayscale
1070
   100
1002
}
  0
LINE
  5
39FC
  8
YODOROGO
 10
28082.135520230921
 20
1655.5036372746561
 30
0.0
 11
28082.135520230921
 21
1707.749496429288
 31
0.0
1001
AUTOCAD_POSTSCRIPT_FIGURE
1002
{
1000
PSFILL
1000
Grayscale
1000
Grayscale
1070
   100
1002
}
  0
LINE
  5
39FD
  8
YODOROGO
 10
27809.604341291921
 20
1608.771904043258
 30
0.0
 11
27809.604341291921
 21
1632.771904043258
 31
0.0
  0
LINE
  5
39FE
  8
YODOROGO
 10
27905.604341291921
 20
1608.771904043258
 30
0.0
 11
27809.604341291921
 21
1608.771904043258
 31
0.0
  0
LINE
  5
39FF
  8
YODOROGO
 10
27905.604341291921
 20
1632.771904043258
 30
0.0
 11
27905.604341291921
 21
1608.771904043258
 31
0.0
  0
LINE
  5
3A00
  8
YODOROGO
 10
27809.604341291921
 20
1632.771904043258
 30
0.0
 11
27905.604341291921
 21
1632.771904043258
 31
0.0
  0
LINE
  5
3A01
  8
YODOROGO
 10
27824.509588915738
 20
1568.5028573704751
 30
0.0
 11
27785.604341291921
 21
1475.7494964292871
 31
0.0
1001
AUTOCAD_POSTSCRIPT_FIGURE
1002
{
1000
PSFILL
1000
Grayscale
1000
Grayscale
1070
   100
1002
}
  0
LINE
  5
3A02
  8
YODOROGO
 10
27777.604341291921
 20
1568.5028573704751
 30
0.0
 11
27824.509588915738
 21
1568.5028573704751
 31
0.0
1001
AUTOCAD_POSTSCRIPT_FIGURE
1002
{
1000
PSFILL
1000
Grayscale
1000
Grayscale
1070
   100
1002
}
  0
LINE
  5
3A03
  8
YODOROGO
 10
27777.604341291921
 20
1588.5028573704751
 30
0.0
 11
27777.604341291921
 21
1568.5028573704751
 31
0.0
1001
AUTOCAD_POSTSCRIPT_FIGURE
1002
{
1000
PSFILL
1000
Grayscale
1000
Grayscale
1070
   100
1002
}
  0
LINE
  5
3A04
  8
YODOROGO
 10
27937.604341291921
 20
1588.5028573704751
 30
0.0
 11
27777.604341291921
 21
1588.5028573704751
 31
0.0
1001
AUTOCAD_POSTSCRIPT_FIGURE
1002
{
1000
PSFILL
1000
Grayscale
1000
Grayscale
1070
   100
1002
}
  0
LINE
  5
3A05
  8
YODOROGO
 10
27937.604341291921
 20
1568.5028573704751
 30
0.0
 11
27937.604341291921
 21
1588.5028573704751
 31
0.0
1001
AUTOCAD_POSTSCRIPT_FIGURE
1002
{
1000
PSFILL
1000
Grayscale
1000
Grayscale
1070
   100
1002
}
  0
LINE
  5
3A06
  8
YODOROGO
 10
27844.509588915738
 20
1568.5028573704751
 30
0.0
 11
27937.604341291921
 21
1568.5028573704751
 31
0.0
1001
AUTOCAD_POSTSCRIPT_FIGURE
1002
{
1000
PSFILL
1000
Grayscale
1000
Grayscale
1070
   100
1002
}
  0
LINE
  5
3A07
  8
YODOROGO
 10
27815.546718284771
 20
1495.7494964292871
 30
0.0
 11
27844.509588915738
 21
1568.5028573704751
 31
0.0
1001
AUTOCAD_POSTSCRIPT_FIGURE
1002
{
1000
PSFILL
1000
Grayscale
1000
Grayscale
1070
   100
1002
}
  0
LINE
  5
3A08
  8
YODOROGO
 10
27902.054790808648
 20
1495.7494964292871
 30
0.0
 11
27815.546718284771
 21
1495.7494964292871
 31
0.0
1001
AUTOCAD_POSTSCRIPT_FIGURE
1002
{
1000
PSFILL
1000
Grayscale
1000
Grayscale
1070
   100
1002
}
  0
LINE
  5
3A09
  8
YODOROGO
 10
27885.065004790951
 20
1536.2338106976929
 30
0.0
 11
27902.054790808648
 21
1495.7494964292871
 31
0.0
1001
AUTOCAD_POSTSCRIPT_FIGURE
1002
{
1000
PSFILL
1000
Grayscale
1000
Grayscale
1070
   100
1002
}
  0
LINE
  5
3A0A
  8
YODOROGO
 10
27901.065004790951
 20
1536.2338106976929
 30
0.0
 11
27885.065004790951
 21
1536.2338106976929
 31
0.0
1001
AUTOCAD_POSTSCRIPT_FIGURE
1002
{
1000
PSFILL
1000
Grayscale
1000
Grayscale
1070
   100
1002
}
  0
LINE
  5
3A0B
  8
YODOROGO
 10
27929.604341291921
 20
1475.7494964292871
 30
0.0
 11
27901.065004790951
 21
1536.2338106976929
 31
0.0
1001
AUTOCAD_POSTSCRIPT_FIGURE
1002
{
1000
PSFILL
1000
Grayscale
1000
Grayscale
1070
   100
1002
}
  0
LINE
  5
3A0C
  8
YODOROGO
 10
27785.604341291921
 20
1475.7494964292871
 30
0.0
 11
27929.604341291921
 21
1475.7494964292871
 31
0.0
1001
AUTOCAD_POSTSCRIPT_FIGURE
1002
{
1000
PSFILL
1000
Grayscale
1000
Grayscale
1070
   100
1002
}
  0
LINE
  5
3A0D
  8
YODOROGO
 10
27777.604341291921
 20
1619.9724140445701
 30
0.0
 11
27777.604341291921
 21
1643.9724140445701
 31
0.0
  0
LINE
  5
3A0E
  8
YODOROGO
 10
27937.604341291921
 20
1643.9724140445701
 30
0.0
 11
27937.604341291921
 21
1619.9724140445701
 31
0.0
  0
ARC
  5
3A0F
  8
YODOROGO
 10
28225.940442146959
 20
1600.877765325326
 30
0.0
 40
175.9999999999998
 50
280.3644312771313
 51
3.5414836592180561
  0
ARC
  5
3A10
  8
YODOROGO
 10
28235.756030759301
 20
1633.5978069619041
 30
0.0
 40
111.9999999999982
 50
281.24905825041549
 51
348.75094174958321
  0
LINE
  5
3A11
  8
YODOROGO
 10
28257.604341291921
 20
1523.7494964292871
 30
0.0
 11
28257.604341291921
 21
1427.749496429288
 31
0.0
  0
LINE
  5
3A12
  8
YODOROGO
 10
28020.088903736909
 20
1610.650565061914
 30
0.0
 11
28040.913204016892
 21
1659.749496429288
 31
0.0
  0
LINE
  5
3A13
  8
YODOROGO
 10
28041.604341291921
 20
1583.120489948401
 30
0.0
 11
28020.088903736909
 21
1610.650565061914
 31
0.0
  0
LINE
  5
3A14
  8
YODOROGO
 10
28041.604341291921
 20
1563.120489948398
 30
0.0
 11
28041.604341291921
 21
1583.120489948401
 31
0.0
  0
LINE
  5
3A15
  8
YODOROGO
 10
28017.604341291921
 20
1585.2370637495301
 30
0.0
 11
28041.604341291921
 21
1563.120489948398
 31
0.0
  0
LINE
  5
3A16
  8
YODOROGO
 10
28017.604341291921
 20
1475.7494964292871
 30
0.0
 11
28017.604341291921
 21
1585.2370637495301
 31
0.0
  0
LINE
  5
3A17
  8
YODOROGO
 10
28001.604341291921
 20
1475.7494964292871
 30
0.0
 11
28017.604341291921
 21
1475.7494964292871
 31
0.0
  0
LINE
  5
3A18
  8
YODOROGO
 10
28001.604341291921
 20
1580.0053496897469
 30
0.0
 11
28001.604341291921
 21
1475.7494964292871
 31
0.0
  0
LINE
  5
3A19
  8
YODOROGO
 10
27977.604341291921
 20
1532.7680790334291
 30
0.0
 11
28001.604341291921
 21
1580.0053496897469
 31
0.0
  0
LINE
  5
3A1A
  8
YODOROGO
 10
27977.604341291921
 20
1556.76807903343
 30
0.0
 11
27977.604341291921
 21
1532.7680790334291
 31
0.0
  0
LINE
  5
3A1B
  8
YODOROGO
 10
28025.828774291349
 20
1667.749496429285
 30
0.0
 11
27977.604341291921
 21
1556.76807903343
 31
0.0
  0
LINE
  5
3A1C
  8
YODOROGO
 10
27977.604341291921
 20
1667.749496429285
 30
0.0
 11
28025.828774291349
 21
1667.749496429285
 31
0.0
  0
LINE
  5
3A1D
  8
YODOROGO
 10
28050.135520230899
 20
1655.5036372746561
 30
0.0
 11
28082.135520230921
 21
1655.5036372746561
 31
0.0
1001
AUTOCAD_POSTSCRIPT_FIGURE
1002
{
1000
PSFILL
1000
Grayscale
1000
Grayscale
1070
   100
1002
}
  0
LINE
  5
3A1E
  8
YODOROGO
 10
28050.135520230899
 20
1631.5036372746561
 30
0.0
 11
28050.135520230899
 21
1655.5036372746561
 31
0.0
1001
AUTOCAD_POSTSCRIPT_FIGURE
1002
{
1000
PSFILL
1000
Grayscale
1000
Grayscale
1070
   100
1002
}
  0
LINE
  5
3A1F
  8
YODOROGO
 10
28082.135520230921
 20
1631.5036372746561
 30
0.0
 11
28050.135520230899
 21
1631.5036372746561
 31
0.0
1001
AUTOCAD_POSTSCRIPT_FIGURE
1002
{
1000
PSFILL
1000
Grayscale
1000
Grayscale
1070
   100
1002
}
  0
LINE
  5
3A20
  8
YODOROGO
 10
28082.135520230921
 20
1499.749496429288
 30
0.0
 11
28082.135520230921
 21
1631.5036372746561
 31
0.0
1001
AUTOCAD_POSTSCRIPT_FIGURE
1002
{
1000
PSFILL
1000
Grayscale
1000
Grayscale
1070
   100
1002
}
  0
LINE
  5
3A21
  8
YODOROGO
 10
28050.135520230921
 20
1499.749496429288
 30
0.0
 11
28082.135520230921
 21
1499.749496429288
 31
0.0
1001
AUTOCAD_POSTSCRIPT_FIGURE
1002
{
1000
PSFILL
1000
Grayscale
1000
Grayscale
1070
   100
1002
}
  0
LINE
  5
3A22
  8
YODOROGO
 10
28050.135520230921
 20
1475.7494964292871
 30
0.0
 11
28050.135520230921
 21
1499.749496429288
 31
0.0
1001
AUTOCAD_POSTSCRIPT_FIGURE
1002
{
1000
PSFILL
1000
Grayscale
1000
Grayscale
1070
   100
1002
}
  0
LINE
  5
3A23
  8
YODOROGO
 10
28137.604341291921
 20
1475.7494964292871
 30
0.0
 11
28050.135520230921
 21
1475.7494964292871
 31
0.0
1001
AUTOCAD_POSTSCRIPT_FIGURE
1002
{
1000
PSFILL
1000
Grayscale
1000
Grayscale
1070
   100
1002
}
  0
LINE
  5
3A24
  8
YODOROGO
 10
28137.604341291921
 20
1499.749496429288
 30
0.0
 11
28137.604341291921
 21
1475.7494964292871
 31
0.0
1001
AUTOCAD_POSTSCRIPT_FIGURE
1002
{
1000
PSFILL
1000
Grayscale
1000
Grayscale
1070
   100
1002
}
  0
LINE
  5
3A25
  8
YODOROGO
 10
28098.135520230931
 20
1499.749496429288
 30
0.0
 11
28137.604341291921
 21
1499.749496429288
 31
0.0
1001
AUTOCAD_POSTSCRIPT_FIGURE
1002
{
1000
PSFILL
1000
Grayscale
1000
Grayscale
1070
   100
1002
}
  0
LINE
  5
3A26
  8
YODOROGO
 10
28098.135520230931
 20
1631.5036372746561
 30
0.0
 11
28098.135520230931
 21
1499.749496429288
 31
0.0
1001
AUTOCAD_POSTSCRIPT_FIGURE
1002
{
1000
PSFILL
1000
Grayscale
1000
Grayscale
1070
   100
1002
}
  0
LINE
  5
3A27
  8
YODOROGO
 10
28137.604341291921
 20
1631.5036372746561
 30
0.0
 11
28098.135520230931
 21
1631.5036372746561
 31
0.0
1001
AUTOCAD_POSTSCRIPT_FIGURE
1002
{
1000
PSFILL
1000
Grayscale
1000
Grayscale
1070
   100
1002
}
  0
LINE
  5
3A28
  8
YODOROGO
 10
28137.604341291921
 20
1655.5036372746561
 30
0.0
 11
28137.604341291921
 21
1631.5036372746561
 31
0.0
1001
AUTOCAD_POSTSCRIPT_FIGURE
1002
{
1000
PSFILL
1000
Grayscale
1000
Grayscale
1070
   100
1002
}
  0
LINE
  5
3A29
  8
YODOROGO
 10
28098.135520230931
 20
1655.5036372746561
 30
0.0
 11
28137.604341291921
 21
1655.5036372746561
 31
0.0
1001
AUTOCAD_POSTSCRIPT_FIGURE
1002
{
1000
PSFILL
1000
Grayscale
1000
Grayscale
1070
   100
1002
}
  0
LINE
  5
3A2A
  8
YODOROGO
 10
28401.60434129191
 20
1667.749496429288
 30
0.0
 11
28345.604341291921
 21
1667.749496429288
 31
0.0
  0
LINE
  5
3A2B
  8
YODOROGO
 10
28401.60434129191
 20
1611.749496429288
 30
0.0
 11
28401.60434129191
 21
1667.749496429288
 31
0.0
  0
LINE
  5
3A2C
  8
YODOROGO
 10
28345.604341291921
 20
1667.749496429288
 30
0.0
 11
28345.604341291921
 21
1611.749496429288
 31
0.0
  0
ARC
  5
3A2D
  8
YODOROGO
 10
28513.60434129191
 20
1507.749496429288
 30
0.0
 40
80.0
 50
180.0
 51
270.0
  0
ARC
  5
3A2E
  8
YODOROGO
 10
28537.604341291921
 20
1563.7494964292871
 30
0.0
 40
40.0
 50
180.0
 51
270.0
  0
LINE
  5
3A2F
  8
YODOROGO
 10
28561.604341291932
 20
1523.7494964292871
 30
0.0
 11
28537.604341291921
 21
1523.7494964292871
 31
0.0
  0
ARC
  5
3A30
  8
YODOROGO
 10
28561.604341291932
 20
1547.749496429285
 30
0.0
 40
23.999999999996358
 50
270.0
 51
0.0000000000054281
  0
LINE
  5
3A31
  8
YODOROGO
 10
27801.604341291921
 20
1890.786580793706
 30
0.0
 11
27777.604341291921
 21
1843.776747951672
 31
0.0
1001
AUTOCAD_POSTSCRIPT_FIGURE
1002
{
1000
PSFILL
1000
Grayscale
1000
Grayscale
1070
   100
1002
}
  0
LINE
  5
3A32
  8
YODOROGO
 10
27801.604341291921
 20
1747.749496429286
 30
0.0
 11
27801.604341291921
 21
1890.786580793706
 31
0.0
1001
AUTOCAD_POSTSCRIPT_FIGURE
1002
{
1000
PSFILL
1000
Grayscale
1000
Grayscale
1070
   100
1002
}
  0
LINE
  5
3A33
  8
YODOROGO
 10
27817.604341291921
 20
1747.749496429286
 30
0.0
 11
27801.604341291921
 21
1747.749496429286
 31
0.0
1001
AUTOCAD_POSTSCRIPT_FIGURE
1002
{
1000
PSFILL
1000
Grayscale
1000
Grayscale
1070
   100
1002
}
  0
LINE
  5
3A34
  8
YODOROGO
 10
27817.604341291921
 20
1893.7713320852661
 30
0.0
 11
27817.604341291921
 21
1747.749496429286
 31
0.0
1001
AUTOCAD_POSTSCRIPT_FIGURE
1002
{
1000
PSFILL
1000
Grayscale
1000
Grayscale
1070
   100
1002
}
  0
LINE
  5
3A35
  8
YODOROGO
 10
27841.604341291921
 20
1867.6547582841361
 30
0.0
 11
27817.604341291921
 21
1893.7713320852661
 31
0.0
1001
AUTOCAD_POSTSCRIPT_FIGURE
1002
{
1000
PSFILL
1000
Grayscale
1000
Grayscale
1070
   100
1002
}
  0
LINE
  5
3A36
  8
YODOROGO
 10
27841.604341291921
 20
1883.6547582841361
 30
0.0
 11
27841.604341291921
 21
1867.6547582841361
 31
0.0
1001
AUTOCAD_POSTSCRIPT_FIGURE
1002
{
1000
PSFILL
1000
Grayscale
1000
Grayscale
1070
   100
1002
}
  0
LINE
  5
3A37
  8
YODOROGO
 10
27817.604341291921
 20
1917.7713320852649
 30
0.0
 11
27841.604341291921
 21
1883.6547582841361
 31
0.0
1001
AUTOCAD_POSTSCRIPT_FIGURE
1002
{
1000
PSFILL
1000
Grayscale
1000
Grayscale
1070
   100
1002
}
  0
LINE
  5
3A38
  8
YODOROGO
 10
27817.604341291921
 20
1939.749496429288
 30
0.0
 11
27817.604341291921
 21
1917.7713320852649
 31
0.0
1001
AUTOCAD_POSTSCRIPT_FIGURE
1002
{
1000
PSFILL
1000
Grayscale
1000
Grayscale
1070
   100
1002
}
  0
LINE
  5
3A39
  8
YODOROGO
 10
27889.604341291921
 20
1939.749496429288
 30
0.0
 11
27817.604341291921
 21
1939.749496429288
 31
0.0
1001
AUTOCAD_POSTSCRIPT_FIGURE
1002
{
1000
PSFILL
1000
Grayscale
1000
Grayscale
1070
   100
1002
}
  0
LINE
  5
3A3A
  8
YODOROGO
 10
27889.604341291921
 20
1900.5683489363
 30
0.0
 11
27889.604341291921
 21
1939.749496429288
 31
0.0
1001
AUTOCAD_POSTSCRIPT_FIGURE
1002
{
1000
PSFILL
1000
Grayscale
1000
Grayscale
1070
   100
1002
}
  0
LINE
  5
3A3B
  8
YODOROGO
 10
27857.604341291921
 20
1900.5683489363
 30
0.0
 11
27889.604341291921
 21
1900.5683489363
 31
0.0
1001
AUTOCAD_POSTSCRIPT_FIGURE
1002
{
1000
PSFILL
1000
Grayscale
1000
Grayscale
1070
   100
1002
}
  0
LINE
  5
3A3C
  8
YODOROGO
 10
27857.604341291921
 20
1884.568348936298
 30
0.0
 11
27857.604341291921
 21
1900.5683489363
 31
0.0
1001
AUTOCAD_POSTSCRIPT_FIGURE
1002
{
1000
PSFILL
1000
Grayscale
1000
Grayscale
1070
   100
1002
}
  0
LINE
  5
3A3D
  8
YODOROGO
 10
27889.604341291921
 20
1884.568348936298
 30
0.0
 11
27857.604341291921
 21
1884.568348936298
 31
0.0
1001
AUTOCAD_POSTSCRIPT_FIGURE
1002
{
1000
PSFILL
1000
Grayscale
1000
Grayscale
1070
   100
1002
}
  0
LINE
  5
3A3E
  8
YODOROGO
 10
27889.604341291921
 20
1879.6191779644371
 30
0.0
 11
27889.604341291921
 21
1884.568348936298
 31
0.0
1001
AUTOCAD_POSTSCRIPT_FIGURE
1002
{
1000
PSFILL
1000
Grayscale
1000
Grayscale
1070
   100
1002
}
  0
LINE
  5
3A3F
  8
YODOROGO
 10
27849.604341291921
 20
1812.974981161417
 30
0.0
 11
27889.604341291921
 21
1879.6191779644371
 31
0.0
1001
AUTOCAD_POSTSCRIPT_FIGURE
1002
{
1000
PSFILL
1000
Grayscale
1000
Grayscale
1070
   100
1002
}
  0
LINE
  5
3A40
  8
YODOROGO
 10
27849.604341291921
 20
1796.9749811614161
 30
0.0
 11
27849.604341291921
 21
1812.974981161417
 31
0.0
1001
AUTOCAD_POSTSCRIPT_FIGURE
1002
{
1000
PSFILL
1000
Grayscale
1000
Grayscale
1070
   100
1002
}
  0
LINE
  5
3A41
  8
YODOROGO
 10
27889.604341291921
 20
1847.6191779644359
 30
0.0
 11
27849.604341291921
 21
1796.9749811614161
 31
0.0
1001
AUTOCAD_POSTSCRIPT_FIGURE
1002
{
1000
PSFILL
1000
Grayscale
1000
Grayscale
1070
   100
1002
}
  0
LINE
  5
3A42
  8
YODOROGO
 10
27889.604341291921
 20
1747.749496429286
 30
0.0
 11
27889.604341291921
 21
1847.6191779644359
 31
0.0
1001
AUTOCAD_POSTSCRIPT_FIGURE
1002
{
1000
PSFILL
1000
Grayscale
1000
Grayscale
1070
   100
1002
}
  0
LINE
  5
3A43
  8
YODOROGO
 10
27905.604341291921
 20
1747.749496429286
 30
0.0
 11
27889.604341291921
 21
1747.749496429286
 31
0.0
1001
AUTOCAD_POSTSCRIPT_FIGURE
1002
{
1000
PSFILL
1000
Grayscale
1000
Grayscale
1070
   100
1002
}
  0
LINE
  5
3A44
  8
YODOROGO
 10
27905.604341291921
 20
1849.409012158806
 30
0.0
 11
27905.604341291921
 21
1747.749496429286
 31
0.0
1001
AUTOCAD_POSTSCRIPT_FIGURE
1002
{
1000
PSFILL
1000
Grayscale
1000
Grayscale
1070
   100
1002
}
  0
LINE
  5
3A45
  8
YODOROGO
 10
27937.604341291921
 20
1796.9749811614161
 30
0.0
 11
27905.604341291921
 21
1849.409012158806
 31
0.0
1001
AUTOCAD_POSTSCRIPT_FIGURE
1002
{
1000
PSFILL
1000
Grayscale
1000
Grayscale
1070
   100
1002
}
  0
LINE
  5
3A46
  8
YODOROGO
 10
27937.604341291921
 20
1812.974981161417
 30
0.0
 11
27937.604341291921
 21
1796.9749811614161
 31
0.0
1001
AUTOCAD_POSTSCRIPT_FIGURE
1002
{
1000
PSFILL
1000
Grayscale
1000
Grayscale
1070
   100
1002
}
  0
LINE
  5
3A47
  8
YODOROGO
 10
27905.604341291921
 20
1881.4090121588081
 30
0.0
 11
27937.604341291921
 21
1812.974981161417
 31
0.0
1001
AUTOCAD_POSTSCRIPT_FIGURE
1002
{
1000
PSFILL
1000
Grayscale
1000
Grayscale
1070
   100
1002
}
  0
LINE
  5
3A48
  8
YODOROGO
 10
27905.604341291921
 20
1884.5683489363
 30
0.0
 11
27905.604341291921
 21
1881.4090121588081
 31
0.0
1001
AUTOCAD_POSTSCRIPT_FIGURE
1002
{
1000
PSFILL
1000
Grayscale
1000
Grayscale
1070
   100
1002
}
  0
LINE
  5
3A49
  8
YODOROGO
 10
27937.604341291921
 20
1884.568348936298
 30
0.0
 11
27905.604341291921
 21
1884.5683489363
 31
0.0
1001
AUTOCAD_POSTSCRIPT_FIGURE
1002
{
1000
PSFILL
1000
Grayscale
1000
Grayscale
1070
   100
1002
}
  0
LINE
  5
3A4A
  8
YODOROGO
 10
27937.604341291921
 20
1900.5683489363
 30
0.0
 11
27937.604341291921
 21
1884.568348936298
 31
0.0
1001
AUTOCAD_POSTSCRIPT_FIGURE
1002
{
1000
PSFILL
1000
Grayscale
1000
Grayscale
1070
   100
1002
}
  0
LINE
  5
3A4B
  8
YODOROGO
 10
27905.604341291921
 20
1900.5683489363
 30
0.0
 11
27937.604341291921
 21
1900.5683489363
 31
0.0
1001
AUTOCAD_POSTSCRIPT_FIGURE
1002
{
1000
PSFILL
1000
Grayscale
1000
Grayscale
1070
   100
1002
}
  0
LINE
  5
3A4C
  8
YODOROGO
 10
27905.604341291921
 20
1939.749496429288
 30
0.0
 11
27905.604341291921
 21
1900.5683489363
 31
0.0
1001
AUTOCAD_POSTSCRIPT_FIGURE
1002
{
1000
PSFILL
1000
Grayscale
1000
Grayscale
1070
   100
1002
}
  0
LINE
  5
3A4D
  8
YODOROGO
 10
27937.604341291921
 20
1939.749496429288
 30
0.0
 11
27905.604341291921
 21
1939.749496429288
 31
0.0
1001
AUTOCAD_POSTSCRIPT_FIGURE
1002
{
1000
PSFILL
1000
Grayscale
1000
Grayscale
1070
   100
1002
}
  0
LINE
  5
3A4E
  8
YODOROGO
 10
27937.604341291921
 20
1955.7494964292871
 30
0.0
 11
27937.604341291921
 21
1939.749496429288
 31
0.0
1001
AUTOCAD_POSTSCRIPT_FIGURE
1002
{
1000
PSFILL
1000
Grayscale
1000
Grayscale
1070
   100
1002
}
  0
LINE
  5
3A4F
  8
YODOROGO
 10
27905.604341291921
 20
1955.7494964292871
 30
0.0
 11
27937.604341291921
 21
1955.7494964292871
 31
0.0
1001
AUTOCAD_POSTSCRIPT_FIGURE
1002
{
1000
PSFILL
1000
Grayscale
1000
Grayscale
1070
   100
1002
}
  0
LINE
  5
3A50
  8
YODOROGO
 10
27905.604341291921
 20
1979.749496429288
 30
0.0
 11
27905.604341291921
 21
1955.7494964292871
 31
0.0
1001
AUTOCAD_POSTSCRIPT_FIGURE
1002
{
1000
PSFILL
1000
Grayscale
1000
Grayscale
1070
   100
1002
}
  0
LINE
  5
3A51
  8
YODOROGO
 10
27889.604341291921
 20
1979.749496429288
 30
0.0
 11
27905.604341291921
 21
1979.749496429288
 31
0.0
1001
AUTOCAD_POSTSCRIPT_FIGURE
1002
{
1000
PSFILL
1000
Grayscale
1000
Grayscale
1070
   100
1002
}
  0
LINE
  5
3A52
  8
YODOROGO
 10
27889.604341291921
 20
1955.7494964292871
 30
0.0
 11
27889.604341291921
 21
1979.749496429288
 31
0.0
1001
AUTOCAD_POSTSCRIPT_FIGURE
1002
{
1000
PSFILL
1000
Grayscale
1000
Grayscale
1070
   100
1002
}
  0
LINE
  5
3A53
  8
YODOROGO
 10
27865.604341291921
 20
1955.7494964292871
 30
0.0
 11
27889.604341291921
 21
1955.7494964292871
 31
0.0
1001
AUTOCAD_POSTSCRIPT_FIGURE
1002
{
1000
PSFILL
1000
Grayscale
1000
Grayscale
1070
   100
1002
}
  0
LINE
  5
3A54
  8
YODOROGO
 10
27865.604341291921
 20
1979.749496429288
 30
0.0
 11
27865.604341291921
 21
1955.7494964292871
 31
0.0
1001
AUTOCAD_POSTSCRIPT_FIGURE
1002
{
1000
PSFILL
1000
Grayscale
1000
Grayscale
1070
   100
1002
}
  0
LINE
  5
3A55
  8
YODOROGO
 10
27849.604341291921
 20
1979.749496429288
 30
0.0
 11
27865.604341291921
 21
1979.749496429288
 31
0.0
1001
AUTOCAD_POSTSCRIPT_FIGURE
1002
{
1000
PSFILL
1000
Grayscale
1000
Grayscale
1070
   100
1002
}
  0
LINE
  5
3A56
  8
YODOROGO
 10
27849.604341291921
 20
1955.7494964292871
 30
0.0
 11
27849.604341291921
 21
1979.749496429288
 31
0.0
1001
AUTOCAD_POSTSCRIPT_FIGURE
1002
{
1000
PSFILL
1000
Grayscale
1000
Grayscale
1070
   100
1002
}
  0
LINE
  5
3A57
  8
YODOROGO
 10
27817.604341291921
 20
1955.7494964292871
 30
0.0
 11
27849.604341291921
 21
1955.7494964292871
 31
0.0
1001
AUTOCAD_POSTSCRIPT_FIGURE
1002
{
1000
PSFILL
1000
Grayscale
1000
Grayscale
1070
   100
1002
}
  0
LINE
  5
3A58
  8
YODOROGO
 10
27817.604341291921
 20
1979.749496429288
 30
0.0
 11
27817.604341291921
 21
1955.7494964292871
 31
0.0
1001
AUTOCAD_POSTSCRIPT_FIGURE
1002
{
1000
PSFILL
1000
Grayscale
1000
Grayscale
1070
   100
1002
}
  0
LINE
  5
3A59
  8
YODOROGO
 10
27801.604341291921
 20
1979.749496429288
 30
0.0
 11
27817.604341291921
 21
1979.749496429288
 31
0.0
1001
AUTOCAD_POSTSCRIPT_FIGURE
1002
{
1000
PSFILL
1000
Grayscale
1000
Grayscale
1070
   100
1002
}
  0
LINE
  5
3A5A
  8
YODOROGO
 10
27801.604341291921
 20
1955.7494964292871
 30
0.0
 11
27801.604341291921
 21
1979.749496429288
 31
0.0
1001
AUTOCAD_POSTSCRIPT_FIGURE
1002
{
1000
PSFILL
1000
Grayscale
1000
Grayscale
1070
   100
1002
}
  0
LINE
  5
3A5B
  8
YODOROGO
 10
27777.604341291921
 20
1955.7494964292871
 30
0.0
 11
27801.604341291921
 21
1955.7494964292871
 31
0.0
1001
AUTOCAD_POSTSCRIPT_FIGURE
1002
{
1000
PSFILL
1000
Grayscale
1000
Grayscale
1070
   100
1002
}
  0
LINE
  5
3A5C
  8
YODOROGO
 10
27777.604341291921
 20
1939.749496429288
 30
0.0
 11
27777.604341291921
 21
1955.7494964292871
 31
0.0
1001
AUTOCAD_POSTSCRIPT_FIGURE
1002
{
1000
PSFILL
1000
Grayscale
1000
Grayscale
1070
   100
1002
}
  0
LINE
  5
3A5D
  8
YODOROGO
 10
27801.604341291921
 20
1939.749496429288
 30
0.0
 11
27777.604341291921
 21
1939.749496429288
 31
0.0
1001
AUTOCAD_POSTSCRIPT_FIGURE
1002
{
1000
PSFILL
1000
Grayscale
1000
Grayscale
1070
   100
1002
}
  0
LINE
  5
3A5E
  8
YODOROGO
 10
27801.604341291921
 20
1914.7865807937051
 30
0.0
 11
27801.604341291921
 21
1939.749496429288
 31
0.0
1001
AUTOCAD_POSTSCRIPT_FIGURE
1002
{
1000
PSFILL
1000
Grayscale
1000
Grayscale
1070
   100
1002
}
  0
LINE
  5
3A5F
  8
YODOROGO
 10
27777.604341291921
 20
1859.776747951671
 30
0.0
 11
27801.604341291921
 21
1914.7865807937051
 31
0.0
1001
AUTOCAD_POSTSCRIPT_FIGURE
1002
{
1000
PSFILL
1000
Grayscale
1000
Grayscale
1070
   100
1002
}
  0
LINE
  5
3A60
  8
YODOROGO
 10
27777.604341291921
 20
1843.776747951672
 30
0.0
 11
27777.604341291921
 21
1859.776747951671
 31
0.0
1001
AUTOCAD_POSTSCRIPT_FIGURE
1002
{
1000
PSFILL
1000
Grayscale
1000
Grayscale
1070
   100
1002
}
  0
LINE
  5
3A61
  8
YODOROGO
 10
28257.604341291921
 20
1867.7494964292871
 30
0.0
 11
28401.60434129191
 21
1824.877625640306
 31
0.0
1001
AUTOCAD_POSTSCRIPT_FIGURE
1002
{
1000
PSFILL
1000
Grayscale
1000
Grayscale
1070
   100
1002
}
  0
LINE
  5
3A62
  8
YODOROGO
 10
28401.60434129191
 20
1752.877625640306
 30
0.0
 11
28257.604341291921
 21
1795.7494964292871
 31
0.0
1001
AUTOCAD_POSTSCRIPT_FIGURE
1002
{
1000
PSFILL
1000
Grayscale
1000
Grayscale
1070
   100
1002
}
  0
LINE
  5
3A63
  8
YODOROGO
 10
28401.60434129191
 20
1984.877625640306
 30
0.0
 11
28257.604341291921
 21
2027.749496429288
 31
0.0
1001
AUTOCAD_POSTSCRIPT_FIGURE
1002
{
1000
PSFILL
1000
Grayscale
1000
Grayscale
1070
   100
1002
}
  0
LINE
  5
3A64
  8
YODOROGO
 10
28257.604341291921
 20
1959.749496429288
 30
0.0
 11
28401.60434129191
 21
1916.8776256403071
 31
0.0
1001
AUTOCAD_POSTSCRIPT_FIGURE
1002
{
1000
PSFILL
1000
Grayscale
1000
Grayscale
1070
   100
1002
}
  0
LINE
  5
3A65
  8
YODOROGO
 10
28257.604341291921
 20
1795.7494964292871
 30
0.0
 11
28257.604341291921
 21
1867.7494964292871
 31
0.0
1001
AUTOCAD_POSTSCRIPT_FIGURE
1002
{
1000
PSFILL
1000
Grayscale
1000
Grayscale
1070
   100
1002
}
  0
LINE
  5
3A66
  8
YODOROGO
 10
28257.604341291921
 20
2027.749496429288
 30
0.0
 11
28257.604341291921
 21
1959.749496429288
 31
0.0
1001
AUTOCAD_POSTSCRIPT_FIGURE
1002
{
1000
PSFILL
1000
Grayscale
1000
Grayscale
1070
   100
1002
}
  0
LINE
  5
3A67
  8
YODOROGO
 10
28080.236320206739
 20
1939.749496429288
 30
0.0
 11
28129.60434129191
 21
1747.749496429286
 31
0.0
1001
AUTOCAD_POSTSCRIPT_FIGURE
1002
{
1000
PSFILL
1000
Grayscale
1000
Grayscale
1070
   100
1002
}
  0
LINE
  5
3A68
  8
YODOROGO
 10
27977.604341291921
 20
1939.749496429288
 30
0.0
 11
28080.236320206739
 21
1939.749496429288
 31
0.0
1001
AUTOCAD_POSTSCRIPT_FIGURE
1002
{
1000
PSFILL
1000
Grayscale
1000
Grayscale
1070
   100
1002
}
  0
LINE
  5
3A69
  8
YODOROGO
 10
27977.604341291921
 20
1955.7494964292871
 30
0.0
 11
27977.604341291921
 21
1939.749496429288
 31
0.0
1001
AUTOCAD_POSTSCRIPT_FIGURE
1002
{
1000
PSFILL
1000
Grayscale
1000
Grayscale
1070
   100
1002
}
  0
LINE
  5
3A6A
  8
YODOROGO
 10
28076.60687851991
 20
1955.7494964292871
 30
0.0
 11
27977.604341291921
 21
1955.7494964292871
 31
0.0
1001
AUTOCAD_POSTSCRIPT_FIGURE
1002
{
1000
PSFILL
1000
Grayscale
1000
Grayscale
1070
   100
1002
}
  0
LINE
  5
3A6B
  8
YODOROGO
 10
28071.162715989711
 20
1979.749496429288
 30
0.0
 11
28076.60687851991
 21
1955.7494964292871
 31
0.0
1001
AUTOCAD_POSTSCRIPT_FIGURE
1002
{
1000
PSFILL
1000
Grayscale
1000
Grayscale
1070
   100
1002
}
  0
LINE
  5
3A6C
  8
YODOROGO
 10
28091.162715989711
 20
1979.749496429288
 30
0.0
 11
28071.162715989711
 21
1979.749496429288
 31
0.0
1001
AUTOCAD_POSTSCRIPT_FIGURE
1002
{
1000
PSFILL
1000
Grayscale
1000
Grayscale
1070
   100
1002
}
  0
LINE
  5
3A6D
  8
YODOROGO
 10
28095.806878519939
 20
1955.7494964292871
 30
0.0
 11
28091.162715989711
 21
1979.749496429288
 31
0.0
1001
AUTOCAD_POSTSCRIPT_FIGURE
1002
{
1000
PSFILL
1000
Grayscale
1000
Grayscale
1070
   100
1002
}
  0
LINE
  5
3A6E
  8
YODOROGO
 10
28121.604341291921
 20
1955.7494964292871
 30
0.0
 11
28095.806878519939
 21
1955.7494964292871
 31
0.0
1001
AUTOCAD_POSTSCRIPT_FIGURE
1002
{
1000
PSFILL
1000
Grayscale
1000
Grayscale
1070
   100
1002
}
  0
LINE
  5
3A6F
  8
YODOROGO
 10
28121.604341291921
 20
1979.749496429288
 30
0.0
 11
28121.604341291921
 21
1955.7494964292871
 31
0.0
1001
AUTOCAD_POSTSCRIPT_FIGURE
1002
{
1000
PSFILL
1000
Grayscale
1000
Grayscale
1070
   100
1002
}
  0
LINE
  5
3A70
  8
YODOROGO
 10
28137.604341291921
 20
1979.749496429288
 30
0.0
 11
28121.604341291921
 21
1979.749496429288
 31
0.0
1001
AUTOCAD_POSTSCRIPT_FIGURE
1002
{
1000
PSFILL
1000
Grayscale
1000
Grayscale
1070
   100
1002
}
  0
LINE
  5
3A71
  8
YODOROGO
 10
28137.604341291921
 20
1955.7494964292871
 30
0.0
 11
28137.604341291921
 21
1979.749496429288
 31
0.0
1001
AUTOCAD_POSTSCRIPT_FIGURE
1002
{
1000
PSFILL
1000
Grayscale
1000
Grayscale
1070
   100
1002
}
  0
LINE
  5
3A72
  8
YODOROGO
 10
28137.604341291921
 20
1939.749496429288
 30
0.0
 11
28137.604341291921
 21
1955.7494964292871
 31
0.0
1001
AUTOCAD_POSTSCRIPT_FIGURE
1002
{
1000
PSFILL
1000
Grayscale
1000
Grayscale
1070
   100
1002
}
  0
LINE
  5
3A73
  8
YODOROGO
 10
28098.902986873411
 20
1939.749496429288
 30
0.0
 11
28137.604341291921
 21
1939.749496429288
 31
0.0
1001
AUTOCAD_POSTSCRIPT_FIGURE
1002
{
1000
PSFILL
1000
Grayscale
1000
Grayscale
1070
   100
1002
}
  0
LINE
  5
3A74
  8
YODOROGO
 10
28137.604341291921
 20
1747.749496429286
 30
0.0
 11
28098.902986873411
 21
1939.749496429288
 31
0.0
1001
AUTOCAD_POSTSCRIPT_FIGURE
1002
{
1000
PSFILL
1000
Grayscale
1000
Grayscale
1070
   100
1002
}
  0
LINE
  5
3A75
  8
YODOROGO
 10
28129.60434129191
 20
1747.749496429286
 30
0.0
 11
28137.604341291921
 21
1747.749496429286
 31
0.0
1001
AUTOCAD_POSTSCRIPT_FIGURE
1002
{
1000
PSFILL
1000
Grayscale
1000
Grayscale
1070
   100
1002
}
  0
LINE
  5
3A76
  8
YODOROGO
 10
28078.06921993379
 20
1775.7407762987939
 30
0.0
 11
27977.604341291921
 21
1747.749496429286
 31
0.0
  0
LINE
  5
3A77
  8
YODOROGO
 10
28078.06921993379
 20
1798.6689795290731
 30
0.0
 11
28078.06921993379
 21
1775.7407762987939
 31
0.0
  0
LINE
  5
3A78
  8
YODOROGO
 10
28033.83678061287
 20
1786.816933133767
 30
0.0
 11
28078.06921993379
 21
1798.6689795290731
 31
0.0
  0
LINE
  5
3A79
  8
YODOROGO
 10
28033.83678061287
 20
1872.5683489362989
 30
0.0
 11
28033.83678061287
 21
1786.816933133767
 31
0.0
  0
LINE
  5
3A7A
  8
YODOROGO
 10
28078.06921993379
 20
1872.5683489362989
 30
0.0
 11
28033.83678061287
 21
1872.5683489362989
 31
0.0
  0
LINE
  5
3A7B
  8
YODOROGO
 10
28078.06921993379
 20
1892.568348936298
 30
0.0
 11
28078.06921993379
 21
1872.5683489362989
 31
0.0
  0
LINE
  5
3A7C
  8
YODOROGO
 10
27977.604341291921
 20
1892.568348936298
 30
0.0
 11
28078.06921993379
 21
1892.568348936298
 31
0.0
  0
LINE
  5
3A7D
  8
YODOROGO
 10
27977.604341291921
 20
1872.5683489362989
 30
0.0
 11
27977.604341291921
 21
1892.568348936298
 31
0.0
  0
LINE
  5
3A7E
  8
YODOROGO
 10
28021.836780612852
 20
1872.5683489362989
 30
0.0
 11
27977.604341291921
 21
1872.5683489362989
 31
0.0
  0
LINE
  5
3A7F
  8
YODOROGO
 10
28021.836780612852
 20
1784.673339594317
 30
0.0
 11
28021.836780612852
 21
1872.5683489362989
 31
0.0
  0
LINE
  5
3A80
  8
YODOROGO
 10
27977.604341291921
 20
1771.749496429286
 30
0.0
 11
28021.836780612852
 21
1784.673339594317
 31
0.0
  0
LINE
  5
3A81
  8
YODOROGO
 10
27977.604341291921
 20
1747.749496429286
 30
0.0
 11
27977.604341291921
 21
1771.749496429286
 31
0.0
  0
LINE
  5
3A82
  8
YODOROGO
 10
28001.604341291921
 20
1707.749496429288
 30
0.0
 11
28001.604341291921
 21
1683.7494964292871
 31
0.0
  0
LINE
  5
3A83
  8
YODOROGO
 10
28017.604341291921
 20
1707.749496429288
 30
0.0
 11
28001.604341291921
 21
1707.749496429288
 31
0.0
  0
LINE
  5
3A84
  8
YODOROGO
 10
28017.604341291921
 20
1683.7494964292871
 30
0.0
 11
28017.604341291921
 21
1707.749496429288
 31
0.0
  0
LINE
  5
3A85
  8
YODOROGO
 10
28040.913204016892
 20
1683.7494964292871
 30
0.0
 11
28017.604341291921
 21
1683.7494964292871
 31
0.0
  0
LINE
  5
3A86
  8
YODOROGO
 10
28001.604341291921
 20
1683.7494964292871
 30
0.0
 11
27977.604341291921
 21
1683.7494964292871
 31
0.0
  0
LINE
  5
3A87
  8
YODOROGO
 10
28082.135520230921
 20
1707.749496429288
 30
0.0
 11
28098.135520230931
 21
1707.749496429288
 31
0.0
1001
AUTOCAD_POSTSCRIPT_FIGURE
1002
{
1000
PSFILL
1000
Grayscale
1000
Grayscale
1070
   100
1002
}
  0
LINE
  5
3A88
  8
YODOROGO
 10
28401.60434129191
 20
1824.877625640306
 30
0.0
 11
28401.60434129191
 21
1752.877625640306
 31
0.0
1001
AUTOCAD_POSTSCRIPT_FIGURE
1002
{
1000
PSFILL
1000
Grayscale
1000
Grayscale
1070
   100
1002
}
  0
LINE
  5
3A89
  8
YODOROGO
 10
28401.60434129191
 20
1916.8776256403071
 30
0.0
 11
28401.60434129191
 21
1984.877625640306
 31
0.0
1001
AUTOCAD_POSTSCRIPT_FIGURE
1002
{
1000
PSFILL
1000
Grayscale
1000
Grayscale
1070
   100
1002
}
  0
LINE
  5
3A8A
  8
YODOROGO
 10
28433.60434129191
 20
1819.7494964292871
 30
0.0
 11
28433.60434129191
 21
1747.74949642929
 31
0.0
  0
LINE
  5
3A8B
  8
YODOROGO
 10
28497.60434129191
 20
1707.749496429288
 30
0.0
 11
28433.60434129191
 21
1707.749496429288
 31
0.0
  0
LINE
  5
3A8C
  8
YODOROGO
 10
28433.60434129191
 20
1747.74949642929
 30
0.0
 11
28585.604341291921
 21
1747.74949642929
 31
0.0
  0
LINE
  5
3A8D
  8
YODOROGO
 10
28497.60434129191
 20
1867.7494964292871
 30
0.0
 11
28433.60434129191
 21
1867.7494964292871
 31
0.0
  0
LINE
  5
3A8E
  8
YODOROGO
 10
28497.60434129191
 20
1923.7494964292871
 30
0.0
 11
28497.60434129191
 21
1867.7494964292871
 31
0.0
  0
LINE
  5
3A8F
  8
YODOROGO
 10
28585.604341291921
 20
1987.7494964292871
 30
0.0
 11
28585.604341291921
 21
2027.749496429288
 31
0.0
  0
LINE
  5
3A90
  8
YODOROGO
 10
28433.60434129191
 20
1987.7494964292871
 30
0.0
 11
28585.604341291921
 21
1987.7494964292871
 31
0.0
  0
LINE
  5
3A91
  8
YODOROGO
 10
28433.60434129191
 20
1867.7494964292871
 30
0.0
 11
28433.60434129191
 21
1987.7494964292871
 31
0.0
  0
LINE
  5
3A92
  8
YODOROGO
 10
29001.60434129191
 20
2027.749496429288
 30
0.0
 11
29001.60434129191
 21
1619.749496429288
 31
0.0
  0
LINE
  5
3A93
  8
YODOROGO
 10
29073.604341291921
 20
1579.749496429288
 30
0.0
 11
29073.604341291921
 21
2027.749496429288
 31
0.0
  0
LINE
  5
3A94
  8
YODOROGO
 10
29261.604341291921
 20
1491.749496429286
 30
0.0
 11
29261.604341291921
 21
2007.749496429288
 31
0.0
  0
LINE
  5
3A95
  8
YODOROGO
 10
29197.604341291921
 20
2007.749496429288
 30
0.0
 11
29197.604341291921
 21
1491.749496429286
 31
0.0
  0
LINE
  5
3A96
  8
YODOROGO
 10
29385.604341291921
 20
2027.749496429288
 30
0.0
 11
29385.604341291921
 21
1427.749496429288
 31
0.0
  0
LINE
  5
3A97
  8
YODOROGO
 10
29457.604341291921
 20
1427.749496429288
 30
0.0
 11
29457.604341291921
 21
2027.749496429288
 31
0.0
  0
LINE
  5
3A98
  8
YODOROGO
 10
28657.604341291921
 20
1667.749496429288
 30
0.0
 11
28657.604341291921
 21
1747.74949642929
 31
0.0
  0
LINE
  5
3A99
  8
YODOROGO
 10
29885.604341291921
 20
1707.749496429288
 30
0.0
 11
29885.604341291921
 21
1667.749496429288
 31
0.0
  0
LINE
  5
3A9A
  8
YODOROGO
 10
29885.604341291921
 20
1707.749496429288
 30
0.0
 11
29885.604341291921
 21
1667.749496429288
 31
0.0
  0
ARC
  5
3A9B
  8
YODOROGO
 10
28906.911576186842
 20
1618.217864442272
 30
0.0
 40
94.705151178741644
 50
274.05244162907098
 51
0.9266642149310712
  0
ARC
  5
3A9C
  8
YODOROGO
 10
28909.186170719819
 20
1592.61072861044
 30
0.0
 40
164.92042356085511
 50
271.5351210653775
 51
355.52727750585052
  0
LINE
  5
3A9D
  8
YODOROGO
 10
28913.604341291921
 20
1523.7494964292871
 30
0.0
 11
28913.604341291921
 21
1427.749496429288
 31
0.0
  0
LINE
  5
3A9E
  8
YODOROGO
 10
28793.60434129191
 20
1667.749496429288
 30
0.0
 11
28657.604341291921
 21
1667.749496429288
 31
0.0
  0
LINE
  5
3A9F
  8
YODOROGO
 10
28793.60434129191
 20
1603.7494964292871
 30
0.0
 11
28793.60434129191
 21
1667.749496429288
 31
0.0
  0
LINE
  5
3AA0
  8
YODOROGO
 10
28657.604341291921
 20
1603.7494964292871
 30
0.0
 11
28793.60434129191
 21
1603.7494964292871
 31
0.0
  0
LINE
  5
3AA1
  8
YODOROGO
 10
28657.604341291921
 20
1523.7494964292871
 30
0.0
 11
28657.604341291921
 21
1603.7494964292871
 31
0.0
  0
LINE
  5
3AA2
  8
YODOROGO
 10
28793.60434129191
 20
1523.7494964292871
 30
0.0
 11
28657.604341291921
 21
1523.7494964292871
 31
0.0
  0
LINE
  5
3AA3
  8
YODOROGO
 10
28793.60434129191
 20
1427.749496429288
 30
0.0
 11
28793.60434129191
 21
1523.7494964292871
 31
0.0
  0
LINE
  5
3AA4
  8
YODOROGO
 10
29197.604341291921
 20
1491.749496429286
 30
0.0
 11
29261.604341291921
 21
1491.749496429286
 31
0.0
  0
LINE
  5
3AA5
  8
YODOROGO
 10
29385.604341291921
 20
1427.749496429288
 30
0.0
 11
29457.604341291921
 21
1427.749496429288
 31
0.0
  0
LINE
  5
3AA6
  8
YODOROGO
 10
29737.604341291921
 20
1528.4414521705639
 30
0.0
 11
29737.604341291921
 21
1427.749496429288
 31
0.0
  0
LINE
  5
3AA7
  8
YODOROGO
 10
29617.604341291921
 20
1427.749496429288
 30
0.0
 11
29737.604341291921
 21
1528.4414521705639
 31
0.0
  0
LINE
  5
3AA8
  8
YODOROGO
 10
29617.604341291921
 20
1547.749496429288
 30
0.0
 11
29617.604341291921
 21
1427.749496429288
 31
0.0
  0
LINE
  5
3AA9
  8
YODOROGO
 10
29712.94462869945
 20
1627.749496429288
 30
0.0
 11
29617.604341291921
 21
1547.749496429288
 31
0.0
  0
LINE
  5
3AAA
  8
YODOROGO
 10
29617.604341291921
 20
1627.749496429288
 30
0.0
 11
29712.94462869945
 21
1627.749496429288
 31
0.0
  0
LINE
  5
3AAB
  8
YODOROGO
 10
29617.604341291921
 20
1667.749496429288
 30
0.0
 11
29617.604341291921
 21
1627.749496429288
 31
0.0
  0
LINE
  5
3AAC
  8
YODOROGO
 10
29885.604341291921
 20
1667.749496429288
 30
0.0
 11
29617.604341291921
 21
1667.749496429288
 31
0.0
  0
LINE
  5
3AAD
  8
YODOROGO
 10
29917.604341291921
 20
1627.749496429288
 30
0.0
 11
29777.604341291921
 21
1627.749496429288
 31
0.0
  0
LINE
  5
3AAE
  8
YODOROGO
 10
29777.604341291921
 20
1562.0054374176559
 30
0.0
 11
29771.409872985321
 21
1556.807661346234
 31
0.0
  0
LINE
  5
3AAF
  8
YODOROGO
 10
29777.604341291921
 20
1627.749496429288
 30
0.0
 11
29777.604341291921
 21
1562.0054374176559
 31
0.0
  0
LINE
  5
3AB0
  8
YODOROGO
 10
29737.604341291921
 20
1528.4414521705639
 30
0.0
 11
29737.604341291921
 21
1427.749496429288
 31
0.0
  0
LINE
  5
3AB1
  8
YODOROGO
 10
29617.604341291921
 20
1427.749496429288
 30
0.0
 11
29737.604341291921
 21
1528.4414521705639
 31
0.0
  0
LINE
  5
3AB2
  8
YODOROGO
 10
29617.604341291921
 20
1547.749496429288
 30
0.0
 11
29617.604341291921
 21
1427.749496429288
 31
0.0
  0
LINE
  5
3AB3
  8
YODOROGO
 10
29712.94462869945
 20
1627.749496429288
 30
0.0
 11
29617.604341291921
 21
1547.749496429288
 31
0.0
  0
LINE
  5
3AB4
  8
YODOROGO
 10
29617.604341291921
 20
1627.749496429288
 30
0.0
 11
29712.94462869945
 21
1627.749496429288
 31
0.0
  0
LINE
  5
3AB5
  8
YODOROGO
 10
29617.604341291921
 20
1667.749496429288
 30
0.0
 11
29617.604341291921
 21
1627.749496429288
 31
0.0
  0
LINE
  5
3AB6
  8
YODOROGO
 10
29885.604341291921
 20
1667.749496429288
 30
0.0
 11
29617.604341291921
 21
1667.749496429288
 31
0.0
  0
LINE
  5
3AB7
  8
YODOROGO
 10
28793.60434129191
 20
1747.74949642929
 30
0.0
 11
28793.60434129191
 21
1819.7494964292871
 31
0.0
  0
LINE
  5
3AB8
  8
YODOROGO
 10
28657.604341291921
 20
1747.74949642929
 30
0.0
 11
28793.60434129191
 21
1747.74949642929
 31
0.0
  0
LINE
  5
3AB9
  8
YODOROGO
 10
28729.604341291921
 20
1867.7494964292871
 30
0.0
 11
28729.604341291921
 21
1923.7494964292871
 31
0.0
  0
LINE
  5
3ABA
  8
YODOROGO
 10
28793.60434129191
 20
1867.7494964292871
 30
0.0
 11
28729.604341291921
 21
1867.7494964292871
 31
0.0
  0
LINE
  5
3ABB
  8
YODOROGO
 10
28793.60434129191
 20
1947.749496429288
 30
0.0
 11
28793.60434129191
 21
1867.7494964292871
 31
0.0
  0
ARC
  5
3ABC
  8
YODOROGO
 10
28753.60434129191
 20
1947.749496429288
 30
0.0
 40
40.0
 50
0.0
 51
90.0
  0
LINE
  5
3ABD
  8
YODOROGO
 10
28657.604341291921
 20
1987.7494964292871
 30
0.0
 11
28753.60434129191
 21
1987.7494964292871
 31
0.0
  0
LINE
  5
3ABE
  8
YODOROGO
 10
28657.604341291921
 20
2027.749496429288
 30
0.0
 11
28657.604341291921
 21
1987.7494964292871
 31
0.0
  0
LINE
  5
3ABF
  8
YODOROGO
 10
29073.604341291921
 20
2027.749496429288
 30
0.0
 11
29001.60434129191
 21
2027.749496429288
 31
0.0
  0
LINE
  5
3AC0
  8
YODOROGO
 10
29261.604341291921
 20
2007.749496429288
 30
0.0
 11
29197.604341291921
 21
2007.749496429288
 31
0.0
  0
LINE
  5
3AC1
  8
YODOROGO
 10
29457.604341291921
 20
2027.749496429288
 30
0.0
 11
29385.604341291921
 21
2027.749496429288
 31
0.0
  0
LINE
  5
3AC2
  8
YODOROGO
 10
29673.604341291921
 20
1707.749496429288
 30
0.0
 11
29673.604341291921
 21
1771.7494964292871
 31
0.0
1001
AUTOCAD_POSTSCRIPT_FIGURE
1002
{
1000
PSFILL
1000
Grayscale
1000
Grayscale
1070
    25
1002
}
  0
LINE
  5
3AC3
  8
YODOROGO
 10
29617.604341291921
 20
1707.749496429288
 30
0.0
 11
29673.604341291921
 21
1707.749496429288
 31
0.0
1001
AUTOCAD_POSTSCRIPT_FIGURE
1002
{
1000
PSFILL
1000
Grayscale
1000
Grayscale
1070
    25
1002
}
  0
LINE
  5
3AC4
  8
YODOROGO
 10
29617.604341291921
 20
1819.7494964292871
 30
0.0
 11
29617.604341291921
 21
1707.749496429288
 31
0.0
1001
AUTOCAD_POSTSCRIPT_FIGURE
1002
{
1000
PSFILL
1000
Grayscale
1000
Grayscale
1070
    25
1002
}
  0
LINE
  5
3AC5
  8
YODOROGO
 10
29765.604341291921
 20
1819.7494964292871
 30
0.0
 11
29617.604341291921
 21
1819.7494964292871
 31
0.0
1001
AUTOCAD_POSTSCRIPT_FIGURE
1002
{
1000
PSFILL
1000
Grayscale
1000
Grayscale
1070
    25
1002
}
  0
LINE
  5
3AC6
  8
YODOROGO
 10
29765.604341291921
 20
1859.749496429288
 30
0.0
 11
29765.604341291921
 21
1819.7494964292871
 31
0.0
1001
AUTOCAD_POSTSCRIPT_FIGURE
1002
{
1000
PSFILL
1000
Grayscale
1000
Grayscale
1070
    25
1002
}
  0
LINE
  5
3AC7
  8
YODOROGO
 10
29617.604341291921
 20
1859.749496429288
 30
0.0
 11
29765.604341291921
 21
1859.749496429288
 31
0.0
1001
AUTOCAD_POSTSCRIPT_FIGURE
1002
{
1000
PSFILL
1000
Grayscale
1000
Grayscale
1070
    25
1002
}
  0
LINE
  5
3AC8
  8
YODOROGO
 10
29617.604341291921
 20
1907.7494964292871
 30
0.0
 11
29617.604341291921
 21
1859.749496429288
 31
0.0
1001
AUTOCAD_POSTSCRIPT_FIGURE
1002
{
1000
PSFILL
1000
Grayscale
1000
Grayscale
1070
    25
1002
}
  0
LINE
  5
3AC9
  8
YODOROGO
 10
29765.604341291921
 20
1907.7494964292871
 30
0.0
 11
29617.604341291921
 21
1907.7494964292871
 31
0.0
1001
AUTOCAD_POSTSCRIPT_FIGURE
1002
{
1000
PSFILL
1000
Grayscale
1000
Grayscale
1070
    25
1002
}
  0
LINE
  5
3ACA
  8
YODOROGO
 10
29765.604341291921
 20
1947.749496429288
 30
0.0
 11
29765.604341291921
 21
1907.7494964292871
 31
0.0
1001
AUTOCAD_POSTSCRIPT_FIGURE
1002
{
1000
PSFILL
1000
Grayscale
1000
Grayscale
1070
    25
1002
}
  0
LINE
  5
3ACB
  8
YODOROGO
 10
29617.604341291921
 20
1947.749496429288
 30
0.0
 11
29765.604341291921
 21
1947.749496429288
 31
0.0
1001
AUTOCAD_POSTSCRIPT_FIGURE
1002
{
1000
PSFILL
1000
Grayscale
1000
Grayscale
1070
    25
1002
}
  0
LINE
  5
3ACC
  8
YODOROGO
 10
29617.604341291921
 20
2027.749496429288
 30
0.0
 11
29617.604341291921
 21
1947.749496429288
 31
0.0
1001
AUTOCAD_POSTSCRIPT_FIGURE
1002
{
1000
PSFILL
1000
Grayscale
1000
Grayscale
1070
    25
1002
}
  0
LINE
  5
3ACD
  8
YODOROGO
 10
29665.604341291921
 20
2027.749496429288
 30
0.0
 11
29617.604341291921
 21
2027.749496429288
 31
0.0
1001
AUTOCAD_POSTSCRIPT_FIGURE
1002
{
1000
PSFILL
1000
Grayscale
1000
Grayscale
1070
    25
1002
}
  0
LINE
  5
3ACE
  8
YODOROGO
 10
29665.604341291921
 20
1995.7494964292871
 30
0.0
 11
29665.604341291921
 21
2027.749496429288
 31
0.0
1001
AUTOCAD_POSTSCRIPT_FIGURE
1002
{
1000
PSFILL
1000
Grayscale
1000
Grayscale
1070
    25
1002
}
  0
LINE
  5
3ACF
  8
YODOROGO
 10
29765.604341291921
 20
1995.7494964292871
 30
0.0
 11
29665.604341291921
 21
1995.7494964292871
 31
0.0
1001
AUTOCAD_POSTSCRIPT_FIGURE
1002
{
1000
PSFILL
1000
Grayscale
1000
Grayscale
1070
    25
1002
}
  0
LINE
  5
3AD0
  8
YODOROGO
 10
29765.604341291921
 20
2027.749496429288
 30
0.0
 11
29765.604341291921
 21
1995.7494964292871
 31
0.0
1001
AUTOCAD_POSTSCRIPT_FIGURE
1002
{
1000
PSFILL
1000
Grayscale
1000
Grayscale
1070
    25
1002
}
  0
LINE
  5
3AD1
  8
YODOROGO
 10
29829.604341291921
 20
2027.749496429288
 30
0.0
 11
29765.604341291921
 21
2027.749496429288
 31
0.0
1001
AUTOCAD_POSTSCRIPT_FIGURE
1002
{
1000
PSFILL
1000
Grayscale
1000
Grayscale
1070
    25
1002
}
  0
LINE
  5
3AD2
  8
YODOROGO
 10
29829.604341291921
 20
1995.7494964292871
 30
0.0
 11
29829.604341291921
 21
2027.749496429288
 31
0.0
1001
AUTOCAD_POSTSCRIPT_FIGURE
1002
{
1000
PSFILL
1000
Grayscale
1000
Grayscale
1070
    25
1002
}
  0
LINE
  5
3AD3
  8
YODOROGO
 10
29829.604341291921
 20
1907.7494964292871
 30
0.0
 11
29829.604341291921
 21
1947.749496429288
 31
0.0
1001
AUTOCAD_POSTSCRIPT_FIGURE
1002
{
1000
PSFILL
1000
Grayscale
1000
Grayscale
1070
    25
1002
}
  0
LINE
  5
3AD4
  8
YODOROGO
 10
29829.604341291921
 20
1819.7494964292871
 30
0.0
 11
29829.604341291921
 21
1859.749496429288
 31
0.0
1001
AUTOCAD_POSTSCRIPT_FIGURE
1002
{
1000
PSFILL
1000
Grayscale
1000
Grayscale
1070
    25
1002
}
  0
LINE
  5
3AD5
  8
YODOROGO
 10
29921.60434129191
 20
1771.7494964292871
 30
0.0
 11
29921.60434129191
 21
1707.749496429288
 31
0.0
1001
AUTOCAD_POSTSCRIPT_FIGURE
1002
{
1000
PSFILL
1000
Grayscale
1000
Grayscale
1070
    25
1002
}
  0
LINE
  5
3AD6
  8
YODOROGO
 10
29829.604341291921
 20
1771.7494964292871
 30
0.0
 11
29921.60434129191
 21
1771.7494964292871
 31
0.0
1001
AUTOCAD_POSTSCRIPT_FIGURE
1002
{
1000
PSFILL
1000
Grayscale
1000
Grayscale
1070
    25
1002
}
  0
LINE
  5
3AD7
  8
YODOROGO
 10
29829.604341291921
 20
1707.749496429288
 30
0.0
 11
29829.604341291921
 21
1771.7494964292871
 31
0.0
1001
AUTOCAD_POSTSCRIPT_FIGURE
1002
{
1000
PSFILL
1000
Grayscale
1000
Grayscale
1070
    25
1002
}
  0
LINE
  5
3AD8
  8
YODOROGO
 10
29765.604341291921
 20
1707.749496429288
 30
0.0
 11
29829.604341291921
 21
1707.749496429288
 31
0.0
1001
AUTOCAD_POSTSCRIPT_FIGURE
1002
{
1000
PSFILL
1000
Grayscale
1000
Grayscale
1070
    25
1002
}
  0
LINE
  5
3AD9
  8
YODOROGO
 10
29765.604341291921
 20
1771.7494964292871
 30
0.0
 11
29765.604341291921
 21
1707.749496429288
 31
0.0
1001
AUTOCAD_POSTSCRIPT_FIGURE
1002
{
1000
PSFILL
1000
Grayscale
1000
Grayscale
1070
    25
1002
}
  0
LINE
  5
3ADA
  8
YODOROGO
 10
29673.604341291921
 20
1771.7494964292871
 30
0.0
 11
29765.604341291921
 21
1771.7494964292871
 31
0.0
1001
AUTOCAD_POSTSCRIPT_FIGURE
1002
{
1000
PSFILL
1000
Grayscale
1000
Grayscale
1070
    25
1002
}
  0
ARC
  5
3ADB
  8
YODOROGO
 10
31059.517893357912
 20
1602.6807375155761
 30
0.0
 40
178.22128111072141
 50
281.02627495425338
 51
357.77113575573799
  0
LINE
  5
3ADC
  8
YODOROGO
 10
31413.604341291921
 20
1907.7494964292871
 30
0.0
 11
31165.604341291921
 21
1907.7494964292871
 31
0.0
  0
LINE
  5
3ADD
  8
YODOROGO
 10
31413.604341291921
 20
2027.749496429288
 30
0.0
 11
31165.604341291921
 21
2027.749496429288
 31
0.0
  0
LINE
  5
3ADE
  8
YODOROGO
 10
31165.604341291921
 20
1963.749496429286
 30
0.0
 11
31413.604341291921
 21
1963.749496429286
 31
0.0
  0
LINE
  5
3ADF
  8
YODOROGO
 10
30791.604341291921
 20
1563.7494964292871
 30
0.0
 11
30791.604341291921
 21
1755.7494964292871
 31
0.0
  0
LINE
  5
3AE0
  8
YODOROGO
 10
30763.604341291921
 20
1691.749496429288
 30
0.0
 11
30763.604341291921
 21
1563.7494964292871
 31
0.0
  0
LINE
  5
3AE1
  8
YODOROGO
 10
30723.604341291921
 20
1491.749496429288
 30
0.0
 11
30723.604341291921
 21
1691.749496429288
 31
0.0
  0
LINE
  5
3AE2
  8
YODOROGO
 10
30899.604341291932
 20
1691.749496429288
 30
0.0
 11
30899.604341291932
 21
1491.749496429288
 31
0.0
  0
LINE
  5
3AE3
  8
YODOROGO
 10
30859.604341291932
 20
1563.7494964292871
 30
0.0
 11
30859.604341291932
 21
1691.749496429288
 31
0.0
  0
LINE
  5
3AE4
  8
YODOROGO
 10
30831.604341291921
 20
1755.7494964292871
 30
0.0
 11
30831.604341291921
 21
1563.7494964292871
 31
0.0
  0
LINE
  5
3AE5
  8
YODOROGO
 10
30973.604341291921
 20
2027.749496429288
 30
0.0
 11
30973.604341291921
 21
1467.749496429288
 31
0.0
  0
LINE
  5
3AE6
  8
YODOROGO
 10
30645.604341291921
 20
1427.749496429288
 30
0.0
 11
30645.604341291921
 21
2027.749496429288
 31
0.0
  0
LINE
  5
3AE7
  8
YODOROGO
 10
30697.604341291932
 20
1963.749496429286
 30
0.0
 11
30697.604341291932
 21
1427.749496429288
 31
0.0
  0
LINE
  5
3AE8
  8
YODOROGO
 10
30925.604341291921
 20
1547.749496429288
 30
0.0
 11
30925.604341291921
 21
1963.749496429286
 31
0.0
  0
LINE
  5
3AE9
  8
YODOROGO
 10
30381.604341291932
 20
1627.749496429288
 30
0.0
 11
30381.604341291932
 21
1679.749496429288
 31
0.0
  0
LINE
  5
3AEA
  8
YODOROGO
 10
30617.604341291921
 20
1679.749496429288
 30
0.0
 11
30617.604341291921
 21
1627.749496429288
 31
0.0
  0
LINE
  5
3AEB
  8
YODOROGO
 10
31165.604341291921
 20
1907.7494964292871
 30
0.0
 11
31165.604341291921
 21
1635.7494964292871
 31
0.0
  0
LINE
  5
3AEC
  8
YODOROGO
 10
29949.60434129191
 20
1667.749496429288
 30
0.0
 11
29949.60434129191
 21
1707.749496429288
 31
0.0
  0
LINE
  5
3AED
  8
YODOROGO
 10
29949.60434129191
 20
1667.749496429288
 30
0.0
 11
29949.60434129191
 21
1707.749496429288
 31
0.0
  0
ARC
  5
3AEE
  8
YODOROGO
 10
30537.604341291921
 20
1507.749496429288
 30
0.0
 40
80.0
 50
270.0
 51
0.0
  0
LINE
  5
3AEF
  8
YODOROGO
 10
30569.604341291921
 20
1599.7494964292871
 30
0.0
 11
30617.604341291921
 21
1599.7494964292871
 31
0.0
  0
LINE
  5
3AF0
  8
YODOROGO
 10
30617.604341291921
 20
1627.749496429288
 30
0.0
 11
30529.604341291939
 21
1627.749496429288
 31
0.0
  0
LINE
  5
3AF1
  8
YODOROGO
 10
30217.604341291921
 20
1667.749496429288
 30
0.0
 11
29949.60434129191
 21
1667.749496429288
 31
0.0
  0
LINE
  5
3AF2
  8
YODOROGO
 10
30217.604341291921
 20
1627.749496429288
 30
0.0
 11
30217.604341291921
 21
1667.749496429288
 31
0.0
  0
LINE
  5
3AF3
  8
YODOROGO
 10
30017.604341291921
 20
1627.749496429288
 30
0.0
 11
30217.604341291921
 21
1627.749496429288
 31
0.0
  0
ARC
  5
3AF4
  8
YODOROGO
 10
30230.05882870136
 20
1868.885714952901
 30
0.0
 40
321.37763628522822
 50
228.6181454618993
 51
245.660289248906
  0
LINE
  5
3AF5
  8
YODOROGO
 10
30105.604341291921
 20
1603.7494964292871
 30
0.0
 11
30097.60434129195
 21
1576.0728158699001
 31
0.0
  0
LINE
  5
3AF6
  8
YODOROGO
 10
30189.604341291921
 20
1603.7494964292871
 30
0.0
 11
30105.604341291921
 21
1603.7494964292871
 31
0.0
  0
LINE
  5
3AF7
  8
YODOROGO
 10
30177.604341291921
 20
1551.817722473427
 30
0.0
 11
30189.604341291921
 21
1603.7494964292871
 31
0.0
  0
ARC
  5
3AF8
  8
YODOROGO
 10
30230.05882870045
 20
1868.885714953002
 30
0.0
 40
321.37763628529081
 50
260.60629297969911
 51
267.77903556555862
  0
LINE
  5
3AF9
  8
YODOROGO
 10
30217.604341291921
 20
1427.749496429285
 30
0.0
 11
30217.604341291921
 21
1547.749496429288
 31
0.0
  0
LINE
  5
3AFA
  8
YODOROGO
 10
29937.604341291932
 20
1481.3393349155101
 30
0.0
 11
29937.604341291921
 21
1594.531090531141
 31
0.0
  0
LINE
  5
3AFB
  8
YODOROGO
 10
30217.604341291921
 20
1667.749496429288
 30
0.0
 11
29949.60434129191
 21
1667.749496429288
 31
0.0
  0
LINE
  5
3AFC
  8
YODOROGO
 10
30217.604341291921
 20
1627.749496429288
 30
0.0
 11
30217.604341291921
 21
1667.749496429288
 31
0.0
  0
LINE
  5
3AFD
  8
YODOROGO
 10
30017.604341291921
 20
1627.749496429288
 30
0.0
 11
30217.604341291921
 21
1627.749496429288
 31
0.0
  0
ARC
  5
3AFE
  8
YODOROGO
 10
30230.05882870136
 20
1868.885714952901
 30
0.0
 40
321.37763628522822
 50
228.6181454618993
 51
245.660289248906
  0
LINE
  5
3AFF
  8
YODOROGO
 10
30105.604341291921
 20
1603.7494964292871
 30
0.0
 11
30097.60434129195
 21
1576.0728158699001
 31
0.0
  0
LINE
  5
3B00
  8
YODOROGO
 10
30189.604341291921
 20
1603.7494964292871
 30
0.0
 11
30105.604341291921
 21
1603.7494964292871
 31
0.0
  0
LINE
  5
3B01
  8
YODOROGO
 10
30177.604341291921
 20
1551.817722473427
 30
0.0
 11
30189.604341291921
 21
1603.7494964292871
 31
0.0
  0
ARC
  5
3B02
  8
YODOROGO
 10
30230.05882870045
 20
1868.885714953002
 30
0.0
 40
321.37763628529081
 50
260.60629297969911
 51
267.77903556555862
  0
LINE
  5
3B03
  8
YODOROGO
 10
30217.604341291921
 20
1427.749496429285
 30
0.0
 11
30217.604341291921
 21
1547.749496429288
 31
0.0
  0
LINE
  5
3B04
  8
YODOROGO
 10
29937.604341291932
 20
1481.3393349155101
 30
0.0
 11
29937.604341291921
 21
1594.531090531141
 31
0.0
  0
LINE
  5
3B05
  8
YODOROGO
 10
30433.604341291921
 20
1573.749496429288
 30
0.0
 11
30381.604341291932
 21
1573.749496429288
 31
0.0
  0
LINE
  5
3B06
  8
YODOROGO
 10
30433.604341291921
 20
1601.749496429285
 30
0.0
 11
30433.604341291921
 21
1573.749496429288
 31
0.0
  0
LINE
  5
3B07
  8
YODOROGO
 10
30381.604341291932
 20
1601.749496429285
 30
0.0
 11
30433.604341291921
 21
1601.749496429285
 31
0.0
  0
LINE
  5
3B08
  8
YODOROGO
 10
30381.604341291932
 20
1573.749496429288
 30
0.0
 11
30381.604341291932
 21
1601.749496429285
 31
0.0
  0
LINE
  5
3B09
  8
YODOROGO
 10
30429.604341291921
 20
1577.7494964292871
 30
0.0
 11
30385.604341291921
 21
1577.7494964292871
 31
0.0
  0
LINE
  5
3B0A
  8
YODOROGO
 10
30429.604341291921
 20
1597.749496429288
 30
0.0
 11
30429.604341291921
 21
1577.7494964292871
 31
0.0
  0
LINE
  5
3B0B
  8
YODOROGO
 10
30385.604341291921
 20
1597.749496429288
 30
0.0
 11
30429.604341291921
 21
1597.749496429288
 31
0.0
  0
LINE
  5
3B0C
  8
YODOROGO
 10
30385.604341291921
 20
1577.7494964292871
 30
0.0
 11
30385.604341291921
 21
1597.749496429288
 31
0.0
  0
LINE
  5
3B0D
  8
YODOROGO
 10
30425.604341291921
 20
1581.749496429286
 30
0.0
 11
30389.604341291921
 21
1581.749496429286
 31
0.0
  0
LINE
  5
3B0E
  8
YODOROGO
 10
30425.604341291921
 20
1593.749496429288
 30
0.0
 11
30425.604341291921
 21
1581.749496429286
 31
0.0
  0
LINE
  5
3B0F
  8
YODOROGO
 10
30389.604341291921
 20
1593.749496429288
 30
0.0
 11
30425.604341291921
 21
1593.749496429288
 31
0.0
  0
LINE
  5
3B10
  8
YODOROGO
 10
30389.604341291921
 20
1581.749496429286
 30
0.0
 11
30389.604341291921
 21
1593.749496429288
 31
0.0
  0
LINE
  5
3B11
  8
YODOROGO
 10
30421.604341291932
 20
1585.7494964292871
 30
0.0
 11
30393.604341291921
 21
1585.7494964292871
 31
0.0
  0
LINE
  5
3B12
  8
YODOROGO
 10
30421.604341291932
 20
1589.749496429288
 30
0.0
 11
30421.604341291932
 21
1585.7494964292871
 31
0.0
  0
LINE
  5
3B13
  8
YODOROGO
 10
30393.604341291921
 20
1589.749496429288
 30
0.0
 11
30421.604341291932
 21
1589.749496429288
 31
0.0
  0
LINE
  5
3B14
  8
YODOROGO
 10
30393.604341291921
 20
1585.7494964292871
 30
0.0
 11
30393.604341291921
 21
1589.749496429288
 31
0.0
  0
LINE
  5
3B15
  8
YODOROGO
 10
30465.604341291921
 20
1627.749496429288
 30
0.0
 11
30381.604341291932
 21
1627.749496429288
 31
0.0
  0
LINE
  5
3B16
  8
YODOROGO
 10
30465.604341291921
 20
1547.749496429288
 30
0.0
 11
30465.604341291921
 21
1627.749496429288
 31
0.0
  0
LINE
  5
3B17
  8
YODOROGO
 10
30381.604341291932
 20
1547.749496429288
 30
0.0
 11
30465.604341291921
 21
1547.749496429288
 31
0.0
  0
LINE
  5
3B18
  8
YODOROGO
 10
30381.604341291932
 20
1427.749496429288
 30
0.0
 11
30381.604341291932
 21
1547.749496429288
 31
0.0
  0
LINE
  5
3B19
  8
YODOROGO
 10
30537.604341291921
 20
1427.749496429288
 30
0.0
 11
30381.604341291932
 21
1427.749496429288
 31
0.0
  0
LINE
  5
3B1A
  8
YODOROGO
 10
30569.604341291921
 20
1571.749496429285
 30
0.0
 11
30569.604341291921
 21
1599.7494964292871
 31
0.0
  0
ARC
  5
3B1B
  8
YODOROGO
 10
30545.604341291921
 20
1571.749496429291
 30
0.0
 40
24.000000000003752
 50
270.0
 51
359.99999999998772
  0
LINE
  5
3B1C
  8
YODOROGO
 10
30529.604341291939
 20
1547.749496429288
 30
0.0
 11
30545.604341291921
 21
1547.749496429288
 31
0.0
  0
LINE
  5
3B1D
  8
YODOROGO
 10
30529.604341291939
 20
1627.749496429288
 30
0.0
 11
30529.604341291939
 21
1547.749496429288
 31
0.0
  0
LINE
  5
3B1E
  8
YODOROGO
 10
30899.604341291932
 20
1547.749496429288
 30
0.0
 11
30925.604341291921
 21
1547.749496429288
 31
0.0
  0
LINE
  5
3B1F
  8
YODOROGO
 10
30933.604341291921
 20
1427.749496429288
 30
0.0
 11
30899.604341291932
 21
1427.749496429288
 31
0.0
  0
LINE
  5
3B20
  8
YODOROGO
 10
30763.604341291921
 20
1563.7494964292871
 30
0.0
 11
30791.604341291921
 21
1563.7494964292871
 31
0.0
  0
LINE
  5
3B21
  8
YODOROGO
 10
30899.604341291932
 20
1491.749496429288
 30
0.0
 11
30723.604341291921
 21
1491.749496429288
 31
0.0
  0
LINE
  5
3B22
  8
YODOROGO
 10
30831.604341291921
 20
1563.7494964292871
 30
0.0
 11
30859.604341291932
 21
1563.7494964292871
 31
0.0
  0
LINE
  5
3B23
  8
YODOROGO
 10
30899.604341291932
 20
1427.749496429288
 30
0.0
 11
30899.604341291932
 21
1547.749496429288
 31
0.0
  0
LINE
  5
3B24
  8
YODOROGO
 10
30697.604341291932
 20
1427.749496429288
 30
0.0
 11
30645.604341291921
 21
1427.749496429288
 31
0.0
  0
LINE
  5
3B25
  8
YODOROGO
 10
30617.604341291921
 20
1599.7494964292871
 30
0.0
 11
30617.604341291921
 21
1507.749496429288
 31
0.0
  0
ARC
  5
3B26
  8
YODOROGO
 10
30933.604341291921
 20
1467.749496429288
 30
0.0
 40
40.0
 50
270.0
 51
0.0
  0
LINE
  5
3B27
  8
YODOROGO
 10
31093.604341291921
 20
1523.7494964292871
 30
0.0
 11
31093.604341291921
 21
1427.749496429288
 31
0.0
  0
ARC
  5
3B28
  8
YODOROGO
 10
31039.721395566768
 20
1637.5313901097329
 30
0.0
 40
125.8955565916754
 50
295.34052442160112
 51
359.18902303418679
  0
LINE
  5
3B29
  8
YODOROGO
 10
30617.604341291921
 20
1859.749496429288
 30
0.0
 11
30497.604341291921
 21
1939.749496429288
 31
0.0
  0
LINE
  5
3B2A
  8
YODOROGO
 10
30497.604341291921
 20
2027.749496429288
 30
0.0
 11
30617.604341291921
 21
1947.749496429288
 31
0.0
  0
LINE
  5
3B2B
  8
YODOROGO
 10
30529.604341291939
 20
1679.749496429288
 30
0.0
 11
30617.604341291921
 21
1679.749496429288
 31
0.0
  0
LINE
  5
3B2C
  8
YODOROGO
 10
30617.604341291921
 20
1735.7494964292871
 30
0.0
 11
30529.604341291939
 21
1735.7494964292871
 31
0.0
  0
LINE
  5
3B2D
  8
YODOROGO
 10
30381.604341291932
 20
1795.7494964292871
 30
0.0
 11
30617.604341291921
 21
1795.7494964292871
 31
0.0
  0
LINE
  5
3B2E
  8
YODOROGO
 10
30081.604341291921
 20
2027.749496429288
 30
0.0
 11
30021.604341291921
 21
2027.749496429288
 31
0.0
  0
LINE
  5
3B2F
  8
YODOROGO
 10
30081.604341291921
 20
1827.7494964292871
 30
0.0
 11
30081.604341291921
 21
2027.749496429288
 31
0.0
  0
LINE
  5
3B30
  8
YODOROGO
 10
30021.604341291921
 20
1827.7494964292871
 30
0.0
 11
30081.604341291921
 21
1827.7494964292871
 31
0.0
  0
LINE
  5
3B31
  8
YODOROGO
 10
30021.604341291921
 20
2027.749496429288
 30
0.0
 11
30021.604341291921
 21
1827.7494964292871
 31
0.0
  0
LINE
  5
3B32
  8
YODOROGO
 10
30161.604341291921
 20
2027.749496429288
 30
0.0
 11
30217.604341291921
 21
2027.749496429288
 31
0.0
  0
LINE
  5
3B33
  8
YODOROGO
 10
30161.604341291921
 20
1811.749496429288
 30
0.0
 11
30161.604341291921
 21
2027.749496429288
 31
0.0
  0
ARC
  5
3B34
  8
YODOROGO
 10
30121.604341291921
 20
1811.749496429288
 30
0.0
 40
40.0
 50
270.0
 51
0.0
  0
LINE
  5
3B35
  8
YODOROGO
 10
30021.604341291921
 20
1771.7494964292871
 30
0.0
 11
30121.604341291921
 21
1771.7494964292871
 31
0.0
  0
LINE
  5
3B36
  8
YODOROGO
 10
30021.604341291921
 20
1707.749496429288
 30
0.0
 11
30021.604341291921
 21
1771.7494964292871
 31
0.0
  0
LINE
  5
3B37
  8
YODOROGO
 10
30137.604341291921
 20
1707.749496429288
 30
0.0
 11
30021.604341291921
 21
1707.749496429288
 31
0.0
  0
ARC
  5
3B38
  8
YODOROGO
 10
30137.604341291921
 20
1787.7494964292871
 30
0.0
 40
80.0
 50
270.0
 51
0.0
  0
LINE
  5
3B39
  8
YODOROGO
 10
30217.604341291921
 20
2027.749496429288
 30
0.0
 11
30217.604341291921
 21
1787.7494964292871
 31
0.0
  0
LINE
  5
3B3A
  8
YODOROGO
 10
29977.604341291921
 20
1947.749496429288
 30
0.0
 11
29977.604341291921
 21
1995.7494964292871
 31
0.0
1001
AUTOCAD_POSTSCRIPT_FIGURE
1002
{
1000
PSFILL
1000
Grayscale
1000
Grayscale
1070
    25
1002
}
  0
LINE
  5
3B3B
  8
YODOROGO
 10
29977.604341291921
 20
1859.749496429288
 30
0.0
 11
29977.604341291921
 21
1907.7494964292871
 31
0.0
1001
AUTOCAD_POSTSCRIPT_FIGURE
1002
{
1000
PSFILL
1000
Grayscale
1000
Grayscale
1070
    25
1002
}
  0
LINE
  5
3B3C
  8
YODOROGO
 10
29977.604341291921
 20
1707.749496429288
 30
0.0
 11
29977.604341291921
 21
1819.7494964292871
 31
0.0
1001
AUTOCAD_POSTSCRIPT_FIGURE
1002
{
1000
PSFILL
1000
Grayscale
1000
Grayscale
1070
    25
1002
}
  0
LINE
  5
3B3D
  8
YODOROGO
 10
30381.604341291932
 20
1907.7494964292871
 30
0.0
 11
30497.604341291921
 21
2027.749496429288
 31
0.0
  0
LINE
  5
3B3E
  8
YODOROGO
 10
30381.604341291932
 20
1819.7494964292871
 30
0.0
 11
30381.604341291932
 21
1907.7494964292871
 31
0.0
  0
LINE
  5
3B3F
  8
YODOROGO
 10
30497.604341291921
 20
1939.749496429288
 30
0.0
 11
30381.604341291932
 21
1819.7494964292871
 31
0.0
  0
LINE
  5
3B40
  8
YODOROGO
 10
30465.604341291921
 20
1679.749496429288
 30
0.0
 11
30465.604341291921
 21
1735.7494964292871
 31
0.0
  0
LINE
  5
3B41
  8
YODOROGO
 10
30381.604341291932
 20
1679.749496429288
 30
0.0
 11
30465.604341291921
 21
1679.749496429288
 31
0.0
  0
LINE
  5
3B42
  8
YODOROGO
 10
30529.604341291939
 20
1735.7494964292871
 30
0.0
 11
30529.604341291939
 21
1679.749496429288
 31
0.0
  0
LINE
  5
3B43
  8
YODOROGO
 10
30381.604341291932
 20
1735.7494964292871
 30
0.0
 11
30381.604341291932
 21
1795.7494964292871
 31
0.0
  0
LINE
  5
3B44
  8
YODOROGO
 10
30465.604341291921
 20
1735.7494964292871
 30
0.0
 11
30381.604341291932
 21
1735.7494964292871
 31
0.0
  0
LINE
  5
3B45
  8
YODOROGO
 10
30645.604341291921
 20
2027.749496429288
 30
0.0
 11
30973.604341291921
 21
2027.749496429288
 31
0.0
  0
LINE
  5
3B46
  8
YODOROGO
 10
30925.604341291921
 20
1963.749496429286
 30
0.0
 11
30697.604341291932
 21
1963.749496429286
 31
0.0
  0
LINE
  5
3B47
  8
YODOROGO
 10
30873.604341291921
 20
1819.7494964292871
 30
0.0
 11
30899.604341291932
 21
1819.7494964292871
 31
0.0
  0
LINE
  5
3B48
  8
YODOROGO
 10
30899.604341291932
 20
1939.749496429288
 30
0.0
 11
30873.604341291921
 21
1819.7494964292871
 31
0.0
  0
LINE
  5
3B49
  8
YODOROGO
 10
30851.604341291939
 20
1939.749496429288
 30
0.0
 11
30899.604341291932
 21
1939.749496429288
 31
0.0
  0
LINE
  5
3B4A
  8
YODOROGO
 10
30825.604341291921
 20
1819.7494964292871
 30
0.0
 11
30851.604341291939
 21
1939.749496429288
 31
0.0
  0
LINE
  5
3B4B
  8
YODOROGO
 10
30797.604341291921
 20
1819.7494964292871
 30
0.0
 11
30825.604341291921
 21
1819.7494964292871
 31
0.0
  0
LINE
  5
3B4C
  8
YODOROGO
 10
30771.604341291939
 20
1939.749496429288
 30
0.0
 11
30797.604341291921
 21
1819.7494964292871
 31
0.0
  0
LINE
  5
3B4D
  8
YODOROGO
 10
30723.604341291921
 20
1939.749496429288
 30
0.0
 11
30771.604341291939
 21
1939.749496429288
 31
0.0
  0
LINE
  5
3B4E
  8
YODOROGO
 10
30749.604341291921
 20
1819.7494964292871
 30
0.0
 11
30723.604341291921
 21
1939.749496429288
 31
0.0
  0
LINE
  5
3B4F
  8
YODOROGO
 10
30723.604341291921
 20
1819.7494964292871
 30
0.0
 11
30749.604341291921
 21
1819.7494964292871
 31
0.0
  0
LINE
  5
3B50
  8
YODOROGO
 10
30723.604341291921
 20
1755.7494964292871
 30
0.0
 11
30723.604341291921
 21
1819.7494964292871
 31
0.0
  0
LINE
  5
3B51
  8
YODOROGO
 10
30899.604341291932
 20
1755.7494964292871
 30
0.0
 11
30723.604341291921
 21
1755.7494964292871
 31
0.0
  0
LINE
  5
3B52
  8
YODOROGO
 10
30899.604341291932
 20
1819.7494964292871
 30
0.0
 11
30899.604341291932
 21
1755.7494964292871
 31
0.0
  0
LINE
  5
3B53
  8
YODOROGO
 10
30617.604341291921
 20
1947.749496429288
 30
0.0
 11
30617.604341291921
 21
1859.749496429288
 31
0.0
  0
LINE
  5
3B54
  8
YODOROGO
 10
30791.604341291921
 20
1755.7494964292871
 30
0.0
 11
30831.604341291921
 21
1755.7494964292871
 31
0.0
  0
LINE
  5
3B55
  8
YODOROGO
 10
30723.604341291921
 20
1691.749496429288
 30
0.0
 11
30763.604341291921
 21
1691.749496429288
 31
0.0
  0
LINE
  5
3B56
  8
YODOROGO
 10
30859.604341291932
 20
1691.749496429288
 30
0.0
 11
30899.604341291932
 21
1691.749496429288
 31
0.0
  0
LINE
  5
3B57
  8
YODOROGO
 10
30617.604341291921
 20
1795.7494964292871
 30
0.0
 11
30617.604341291921
 21
1735.7494964292871
 31
0.0
  0
LINE
  5
3B58
  8
YODOROGO
 10
31165.604341291921
 20
2027.749496429288
 30
0.0
 11
31165.604341291921
 21
1963.749496429286
 31
0.0
  0
LINE
  5
3B59
  8
YODOROGO
 10
31533.604341291921
 20
1595.7494964292871
 30
0.0
 11
31533.60434129191
 21
1811.749496429288
 31
0.0
  0
LINE
  5
3B5A
  8
YODOROGO
 10
31461.60434129191
 20
1987.7494964292871
 30
0.0
 11
31461.60434129191
 21
1635.7494964292871
 31
0.0
  0
LINE
  5
3B5B
  8
YODOROGO
 10
31653.604341291921
 20
1427.749496429288
 30
0.0
 11
31653.60434129191
 21
1811.749496429288
 31
0.0
  0
LINE
  5
3B5C
  8
YODOROGO
 10
31589.604341291921
 20
1811.749496429288
 30
0.0
 11
31589.604341291921
 21
1427.749496429288
 31
0.0
  0
LINE
  5
3B5D
  8
YODOROGO
 10
31237.604341291921
 20
1595.7494964292871
 30
0.0
 11
31237.604341291921
 21
1707.749496429288
 31
0.0
  0
ARC
  5
3B5E
  8
YODOROGO
 10
31353.914865116069
 20
1607.790351288558
 30
0.0
 40
180.0924485759885
 50
268.62849102169793
 51
356.16638457330322
  0
LINE
  5
3B5F
  8
YODOROGO
 10
31349.604341291939
 20
1527.749496429288
 30
0.0
 11
31349.604341291939
 21
1427.749496429288
 31
0.0
  0
ARC
  5
3B60
  8
YODOROGO
 10
31351.518075724562
 20
1637.838957017655
 30
0.0
 40
110.1060929836122
 50
269.00410209305932
 51
358.91264455492478
  0
LINE
  5
3B61
  8
YODOROGO
 10
31589.604341291921
 20
1427.749496429288
 30
0.0
 11
31653.604341291921
 21
1427.749496429288
 31
0.0
  0
LINE
  5
3B62
  8
YODOROGO
 10
31533.60434129191
 20
1811.749496429288
 30
0.0
 11
31589.604341291921
 21
1811.749496429288
 31
0.0
  0
LINE
  5
3B63
  8
YODOROGO
 10
31621.604341291939
 20
1987.7494964292871
 30
0.0
 11
31461.60434129191
 21
1987.7494964292871
 31
0.0
  0
LINE
  5
3B64
  8
YODOROGO
 10
31533.60434129191
 20
1915.7494964292871
 30
0.0
 11
31661.604341291939
 21
1915.7494964292871
 31
0.0
  0
LINE
  5
3B65
  8
YODOROGO
 10
31701.604341291939
 20
1875.7494964292871
 30
0.0
 11
31533.60434129191
 21
1875.7494964292871
 31
0.0
  0
LINE
  5
3B66
  8
YODOROGO
 10
31237.604341291921
 20
1779.749496429288
 30
0.0
 11
31349.604341291939
 21
1779.749496429288
 31
0.0
  0
LINE
  5
3B67
  8
YODOROGO
 10
31237.604341291921
 20
1835.7494964292871
 30
0.0
 11
31237.604341291921
 21
1779.749496429288
 31
0.0
  0
LINE
  5
3B68
  8
YODOROGO
 10
31349.604341291939
 20
1835.7494964292871
 30
0.0
 11
31237.604341291921
 21
1835.7494964292871
 31
0.0
  0
LINE
  5
3B69
  8
YODOROGO
 10
31349.604341291939
 20
1779.749496429288
 30
0.0
 11
31349.604341291939
 21
1835.7494964292871
 31
0.0
  0
LINE
  5
3B6A
  8
YODOROGO
 10
31533.60434129191
 20
1875.7494964292871
 30
0.0
 11
31533.60434129191
 21
1915.7494964292871
 31
0.0
  0
LINE
  5
3B6B
  8
YODOROGO
 10
31413.604341291921
 20
1707.749496429288
 30
0.0
 11
31413.604341291921
 21
1907.7494964292871
 31
0.0
  0
LINE
  5
3B6C
  8
YODOROGO
 10
31237.604341291921
 20
1707.749496429288
 30
0.0
 11
31413.604341291921
 21
1707.749496429288
 31
0.0
  0
LINE
  5
3B6D
  8
YODOROGO
 10
31413.604341291921
 20
1963.749496429286
 30
0.0
 11
31413.604341291921
 21
2027.749496429288
 31
0.0
  0
ARC
  5
3B6E
  8
YODOROGO
 10
31621.604341291939
 20
2003.749496429285
 30
0.0
 40
15.999999999994539
 50
270.0
 51
0.0000000000081422
  0
LINE
  5
3B6F
  8
YODOROGO
 10
31637.604341291921
 20
2027.749496429288
 30
0.0
 11
31637.604341291921
 21
2003.7494964292871
 31
0.0
  0
LINE
  5
3B70
  8
YODOROGO
 10
31701.604341291939
 20
2027.749496429288
 30
0.0
 11
31637.604341291921
 21
2027.749496429288
 31
0.0
  0
LINE
  5
3B71
  8
YODOROGO
 10
31701.604341291939
 20
1955.7494964292871
 30
0.0
 11
31701.604341291939
 21
2027.749496429288
 31
0.0
  0
ARC
  5
3B72
  8
YODOROGO
 10
31661.604341291939
 20
1955.7494964292871
 30
0.0
 40
40.0
 50
270.0
 51
0.0
  0
LINE
  5
3B73
  8
YODOROGO
 10
31701.604341291939
 20
1811.749496429288
 30
0.0
 11
31701.604341291939
 21
1875.7494964292871
 31
0.0
  0
LINE
  5
3B74
  8
YODOROGO
 10
31653.60434129191
 20
1811.749496429288
 30
0.0
 11
31701.604341291939
 21
1811.749496429288
 31
0.0
  0
LINE
  5
3B78
  8
SUNPOU
  6
CONTINUOUS
 62
     4
 10
14613.45568599999
 20
20194.226823000001
 30
0.0
 11
14613.45568599999
 21
20744.232102000031
 31
0.0
  0
LINE
  5
3B79
  8
SUNPOU
  6
CONTINUOUS
 62
     4
 10
14527.95568599999
 20
20664.232102000031
 30
0.0
 11
14287.95568599999
 21
20664.232102000031
 31
0.0
  0
LINE
  5
3B7A
  8
SUNPOU
  6
CONTINUOUS
 62
     4
 10
14610.45568599999
 20
20664.232102000031
 30
0.0
 11
14850.45568599999
 21
20664.232102000031
 31
0.0
  0
LINE
  5
3B7B
  8
SUNPOU
  6
CONTINUOUS
 62
     4
 10
14527.95568599999
 20
20664.232102000031
 30
0.0
 11
14610.45568599999
 21
20664.232102000031
 31
0.0
  0
LINE
  5
3B7C
  8
SUNPOU
  6
CONTINUOUS
 62
     4
 10
12661.45568599999
 20
20664.232102000031
 30
0.0
 11
14527.95568599999
 21
20664.232102000031
 31
0.0
  0
LINE
  5
3B7D
  8
SUNPOU
  6
CONTINUOUS
 62
     4
 10
10008.45568599999
 20
20194.226823000001
 30
0.0
 11
10008.45568599999
 21
20744.232102000031
 31
0.0
  0
LINE
  5
3B7E
  8
SUNPOU
  6
CONTINUOUS
 62
     4
 10
10093.95568599999
 20
20664.232102000031
 30
0.0
 11
10333.95568599999
 21
20664.232102000031
 31
0.0
  0
LINE
  5
3B7F
  8
SUNPOU
  6
CONTINUOUS
 62
     4
 10
10011.45568599999
 20
20664.232102000031
 30
0.0
 11
9771.4556859999957
 21
20664.232102000031
 31
0.0
  0
LINE
  5
3B80
  8
SUNPOU
  6
CONTINUOUS
 62
     4
 10
10093.95568599999
 20
20664.232102000031
 30
0.0
 11
10011.45568599999
 21
20664.232102000031
 31
0.0
  0
LINE
  5
3B81
  8
SUNPOU
  6
CONTINUOUS
 62
     4
 10
12661.45568599999
 20
20664.232102000031
 30
0.0
 11
10093.95568599999
 21
20664.232102000031
 31
0.0
  0
LINE
  5
3B82
  8
SUNPOU
  6
CONTINUOUS
 62
     4
 10
9931.4513309999984
 20
13863.235599
 30
0.0
 11
9084.4559099999969
 21
13863.235599
 31
0.0
  0
LINE
  5
3B83
  8
SUNPOU
  6
CONTINUOUS
 62
     4
 10
9164.4559099999969
 20
14055.730913999991
 30
0.0
 11
9164.4559099999969
 21
13863.235599
 31
0.0
  0
LINE
  5
3B84
  8
SUNPOU
  6
CONTINUOUS
 62
     4
 10
9795.1585069999965
 20
15514.971425500011
 30
0.0
 11
9084.4562350000015
 21
15514.971425500011
 31
0.0
  0
LINE
  5
3B85
  8
SUNPOU
  6
CONTINUOUS
 62
     4
 10
9164.4562350000015
 20
15514.971425500011
 30
0.0
 11
9164.4562350000015
 21
14055.730913999991
 31
0.0
  0
LINE
  5
3B86
  8
SUNPOU
  6
CONTINUOUS
 62
     4
 10
9795.1585069999965
 20
15514.971425500011
 30
0.0
 11
9084.4562350000015
 21
15514.971425500011
 31
0.0
  0
LINE
  5
3B87
  8
SUNPOU
  6
CONTINUOUS
 62
     4
 10
9164.4562350000015
 20
16973.730914
 30
0.0
 11
9164.4562350000015
 21
15514.971425500011
 31
0.0
  0
LINE
  5
3B88
  8
SUNPOU
  6
CONTINUOUS
 62
     4
 10
9931.4516560000011
 20
20094.226823000001
 30
0.0
 11
9484.4562350000015
 21
20094.226823000001
 31
0.0
  0
LINE
  5
3B89
  8
SUNPOU
  6
CONTINUOUS
 62
     4
 10
9931.4560110000002
 20
20114.226823000001
 30
0.0
 11
9484.4562350000015
 21
20114.226823000001
 31
0.0
  0
LINE
  5
3B8B
  8
SUNPOU
  6
CONTINUOUS
 62
     4
 10
9564.4562349999997
 20
20114.226823000001
 30
0.0
 11
9564.4562349999997
 21
20354.226823000012
 31
0.0
  0
LINE
  5
3B8C
  8
SUNPOU
  6
CONTINUOUS
 62
     4
 10
9564.4562349999997
 20
20074.226823000001
 30
0.0
 11
9564.4562349999997
 21
20114.226823000001
 31
0.0
  0
LINE
  5
3B8D
  8
SUNPOU
  6
CONTINUOUS
 62
     4
 10
9931.4560110000002
 20
20114.226823000001
 30
0.0
 11
9084.4562350000015
 21
20114.226823000001
 31
0.0
  0
LINE
  5
3B8E
  8
SUNPOU
  6
CONTINUOUS
 62
     4
 10
9164.4562350000015
 20
19891.730914
 30
0.0
 11
9164.4562350000015
 21
20114.226823000001
 31
0.0
  0
LINE
  5
3B8F
  8
SUNPOU
  6
CONTINUOUS
 62
     4
 10
9795.1553680000034
 20
18432.730914
 30
0.0
 11
9084.4562350000015
 21
18432.730914
 31
0.0
  0
LINE
  5
3B90
  8
SUNPOU
  6
CONTINUOUS
 62
     4
 10
9164.4562350000015
 20
18432.730914
 30
0.0
 11
9164.4562350000015
 21
19891.730914
 31
0.0
  0
LINE
  5
3B91
  8
SUNPOU
  6
CONTINUOUS
 62
     4
 10
9795.1553680000034
 20
18432.730914
 30
0.0
 11
9084.4562350000015
 21
18432.730914
 31
0.0
  0
LINE
  5
3B92
  8
SUNPOU
  6
CONTINUOUS
 62
     4
 10
9164.4562350000015
 20
16973.730914
 30
0.0
 11
9164.4562350000015
 21
18432.730914
 31
0.0
  0
LINE
  5
3B93
  8
SUNPOU
  6
CONTINUOUS
 62
     4
 10
20259.413349999999
 20
6356.3198969999958
 30
0.0
 11
19459.41466899998
 21
6356.3198969999958
 31
0.0
  0
LINE
  5
3B94
  8
SUNPOU
  6
CONTINUOUS
 62
     4
 10
20259.413349999999
 20
8247.8198969999976
 30
0.0
 11
19459.41466899998
 21
8247.8198969999976
 31
0.0
  0
LINE
  5
3B95
  8
SUNPOU
  6
CONTINUOUS
 62
     4
 10
19539.41466899998
 20
6356.3198969999958
 30
0.0
 11
19539.41466899998
 21
8247.8198969999976
 31
0.0
  0
LINE
  5
3B96
  8
SUNPOU
  6
CONTINUOUS
 62
     4
 10
20259.413349999999
 20
6356.3198969999958
 30
0.0
 11
19059.412359999958
 21
6356.3198969999958
 31
0.0
  0
LINE
  5
3B97
  8
SUNPOU
  6
CONTINUOUS
 62
     4
 10
20226.913613999968
 20
8704.8194019999955
 30
0.0
 11
19059.41235999998
 21
8704.8194019999955
 31
0.0
  0
LINE
  5
3B98
  8
SUNPOU
  6
CONTINUOUS
 62
     4
 10
19139.412359999958
 20
6356.3198969999958
 30
0.0
 11
19139.41235999998
 21
8704.8194019999955
 31
0.0
  0
LINE
  5
3BA9
  8
SUNPOU
  6
CONTINUOUS
 62
     4
 10
20483.414008999989
 20
6176.3200619999989
 30
0.0
 11
20483.414008999989
 21
5376.3200619999989
 31
0.0
  0
LINE
  5
3BAA
  8
SUNPOU
  6
CONTINUOUS
 62
     4
 10
22862.914008999978
 20
6176.3200619999989
 30
0.0
 11
22862.914008999978
 21
5376.3200619999989
 31
0.0
  0
LINE
  5
3BAB
  8
SUNPOU
  6
CONTINUOUS
 62
     4
 10
20483.414008999989
 20
5456.3200619999989
 30
0.0
 11
22862.914008999978
 21
5456.3200619999989
 31
0.0
  0
LINE
  5
3BAC
  8
SUNPOU
  6
CONTINUOUS
 62
     4
 10
23050.914008999971
 20
6176.3200619999989
 30
0.0
 11
23050.914008999971
 21
5376.3200619999989
 31
0.0
  0
LINE
  5
3BAD
  8
SUNPOU
  6
CONTINUOUS
 62
     4
 10
24729.414008999989
 20
6176.3200619999989
 30
0.0
 11
24729.414008999989
 21
5376.3200619999989
 31
0.0
  0
LINE
  5
3BAE
  8
SUNPOU
  6
CONTINUOUS
 62
     4
 10
23050.914008999971
 20
5456.3200619999989
 30
0.0
 11
24729.414008999989
 21
5456.3200619999989
 31
0.0
  0
LINE
  5
3BAF
  8
SUNPOU
  6
CONTINUOUS
 62
     4
 10
22956.914008999989
 20
5913.6676389999984
 30
0.0
 11
22956.914008999989
 21
4976.3200619999989
 31
0.0
  0
LINE
  5
3BB0
  8
SUNPOU
  6
CONTINUOUS
 62
     4
 10
24823.414008999978
 20
5913.6676389999984
 30
0.0
 11
24823.414008999978
 21
4976.3200619999989
 31
0.0
  0
LINE
  5
3BB1
  8
SUNPOU
  6
CONTINUOUS
 62
     4
 10
22956.914008999989
 20
5056.3200619999989
 30
0.0
 11
24823.414008999978
 21
5056.3200619999989
 31
0.0
  0
LINE
  5
3BB2
  8
SUNPOU
  6
CONTINUOUS
 62
     4
 10
20389.414008999978
 20
5913.6676389999984
 30
0.0
 11
20389.414008999978
 21
4976.3200619999989
 31
0.0
  0
LINE
  5
3BB3
  8
SUNPOU
  6
CONTINUOUS
 62
     4
 10
22956.914008999989
 20
5913.6676389999984
 30
0.0
 11
22956.914008999989
 21
4976.3200619999989
 31
0.0
  0
LINE
  5
3BB4
  8
SUNPOU
  6
CONTINUOUS
 62
     4
 10
20389.414008999978
 20
5056.3200619999989
 30
0.0
 11
22956.914008999989
 21
5056.3200619999989
 31
0.0
  0
LINE
  5
3BB5
  8
SUNPOU
  6
CONTINUOUS
 62
     4
 10
24823.417968000002
 20
5913.6676389999984
 30
0.0
 11
24823.417968000002
 21
4976.3200619999989
 31
0.0
  0
LINE
  5
3BB6
  8
SUNPOU
  6
CONTINUOUS
 62
     4
 10
24865.917967999991
 20
6176.3200619999989
 30
0.0
 11
24865.917967999991
 21
4976.3200619999989
 31
0.0
  0
LINE
  5
3BB7
  8
SUNPOU
  6
CONTINUOUS
 62
     4
 10
24823.417968000002
 20
5056.3200619999989
 30
0.0
 11
24583.417968000002
 21
5056.3200619999989
 31
0.0
  0
LINE
  5
3BB8
  8
SUNPOU
  6
CONTINUOUS
 62
     4
 10
24865.917967999991
 20
5056.3200619999989
 30
0.0
 11
25105.917967999991
 21
5056.3200619999989
 31
0.0
  0
LINE
  5
3BB9
  8
SUNPOU
  6
CONTINUOUS
 62
     4
 10
24823.417968000002
 20
5056.3200619999989
 30
0.0
 11
24865.917967999991
 21
5056.3200619999989
 31
0.0
  0
LINE
  5
3BBA
  8
SUNPOU
  6
CONTINUOUS
 62
     4
 10
20389.414008999978
 20
5913.6676389999984
 30
0.0
 11
20389.414008999978
 21
4976.3200619999989
 31
0.0
  0
LINE
  5
3BBB
  8
SUNPOU
  6
CONTINUOUS
 62
     4
 10
20346.914008999989
 20
6176.3200619999989
 30
0.0
 11
20346.914008999989
 21
4976.3200619999989
 31
0.0
  0
LINE
  5
3BBC
  8
SUNPOU
  6
CONTINUOUS
 62
     4
 10
20389.414008999978
 20
5056.3200619999989
 30
0.0
 11
20629.414008999971
 21
5056.3200619999989
 31
0.0
  0
LINE
  5
3BBD
  8
SUNPOU
  6
CONTINUOUS
 62
     4
 10
20346.914008999989
 20
5056.3200619999989
 30
0.0
 11
20106.914008999971
 21
5056.3200619999989
 31
0.0
  0
LINE
  5
3BBE
  8
SUNPOU
  6
CONTINUOUS
 62
     4
 10
20389.414008999978
 20
5056.3200619999989
 30
0.0
 11
20346.914008999989
 21
5056.3200619999989
 31
0.0
  0
LINE
  5
3BBF
  8
SUNPOU
  6
CONTINUOUS
 62
     4
 10
20346.914008999989
 20
6176.3200619999989
 30
0.0
 11
20346.914008999989
 21
4576.320226999992
 31
0.0
  0
LINE
  5
3BC0
  8
SUNPOU
  6
CONTINUOUS
 62
     4
 10
24865.914008999989
 20
6176.3200619999989
 30
0.0
 11
24865.914008999989
 21
4576.320226999992
 31
0.0
  0
LINE
  5
3BC1
  8
SUNPOU
  6
CONTINUOUS
 62
     4
 10
20346.914008999989
 20
4656.3202269999974
 30
0.0
 11
24865.914008999989
 21
4656.3202269999974
 31
0.0
  0
LINE
  5
3BC2
  8
SUNPOU
  6
CONTINUOUS
 62
     4
 10
20266.917705
 20
18432.730914
 30
0.0
 11
19379.959432999989
 21
18432.730914
 31
0.0
  0
LINE
  5
3BC3
  8
SUNPOU
  6
CONTINUOUS
 62
     4
 10
19459.959432999989
 20
18432.730914
 30
0.0
 11
19459.959432999989
 21
19891.730914
 31
0.0
  0
LINE
  5
3BC4
  8
SUNPOU
  6
CONTINUOUS
 62
     4
 10
20266.917705
 20
18432.730914
 30
0.0
 11
19379.959432999989
 21
18432.730914
 31
0.0
  0
LINE
  5
3BC5
  8
SUNPOU
  6
CONTINUOUS
 62
     4
 10
19459.959432999989
 20
16973.730914
 30
0.0
 11
19459.959432999989
 21
18432.730914
 31
0.0
  0
LINE
  5
3BC6
  8
SUNPOU
  6
CONTINUOUS
 62
     4
 10
20266.917705
 20
15514.971425500011
 30
0.0
 11
19379.959432999989
 21
15514.971425500011
 31
0.0
  0
LINE
  5
3BC7
  8
SUNPOU
  6
CONTINUOUS
 62
     4
 10
19459.959432999989
 20
15514.971425500011
 30
0.0
 11
19459.959432999989
 21
16973.730914
 31
0.0
  0
LINE
  5
3BC8
  8
SUNPOU
  6
CONTINUOUS
 62
     4
 10
20266.917705
 20
15514.971425500011
 30
0.0
 11
19379.959432999989
 21
15514.971425500011
 31
0.0
  0
LINE
  5
3BC9
  8
SUNPOU
  6
CONTINUOUS
 62
     4
 10
19459.959432999989
 20
14055.730913999991
 30
0.0
 11
19459.959432999989
 21
15514.971425500011
 31
0.0
  0
LINE
  5
3BCA
  8
SUNPOU
  6
CONTINUOUS
 62
     4
 10
20389.41401
 20
13349.967479999999
 30
0.0
 11
20389.41401
 21
13004.28283
 31
0.0
  0
LINE
  5
3BCB
  8
SUNPOU
  6
CONTINUOUS
 62
     4
 10
20346.911767000001
 20
13933.233619000001
 30
0.0
 11
20346.911767000001
 21
13004.28283
 31
0.0
  0
LINE
  5
3BCC
  8
SUNPOU
  6
CONTINUOUS
 62
     4
 10
20389.41401
 20
13084.28283
 30
0.0
 11
20629.41401
 21
13084.28283
 31
0.0
  0
LINE
  5
3BCD
  8
SUNPOU
  6
CONTINUOUS
 62
     4
 10
20346.911767000001
 20
13084.28283
 30
0.0
 11
20106.911767000001
 21
13084.28283
 31
0.0
  0
LINE
  5
3BCE
  8
SUNPOU
  6
CONTINUOUS
 62
     4
 10
20389.41401
 20
13084.28283
 30
0.0
 11
20346.911767000001
 21
13084.28283
 31
0.0
  0
LINE
  5
3BCF
  8
SUNPOU
  6
CONTINUOUS
 62
     4
 10
24823.41401
 20
13349.967479999999
 30
0.0
 11
24823.41401
 21
13004.28283
 31
0.0
  0
LINE
  5
3BD0
  8
SUNPOU
  6
CONTINUOUS
 62
     4
 10
24865.916252999989
 20
13933.233619000001
 30
0.0
 11
24865.916252999989
 21
13004.28283
 31
0.0
  0
LINE
  5
3BD1
  8
SUNPOU
  6
CONTINUOUS
 62
     4
 10
24823.41401
 20
13084.28283
 30
0.0
 11
24583.41401
 21
13084.28283
 31
0.0
  0
LINE
  5
3BD2
  8
SUNPOU
  6
CONTINUOUS
 62
     4
 10
24865.916252999989
 20
13084.28283
 30
0.0
 11
25105.916252999999
 21
13084.28283
 31
0.0
  0
LINE
  5
3BD3
  8
SUNPOU
  6
CONTINUOUS
 62
     4
 10
24823.41401
 20
13084.28283
 30
0.0
 11
24865.916252999989
 21
13084.28283
 31
0.0
  0
LINE
  5
3BD4
  8
2-0
  6
CONTINUOUS
 62
     3
 10
22914.41401
 20
14013.230913999991
 30
0.0
 11
22999.41401
 21
14013.230913999991
 31
0.0
  0
LINE
  5
3BD5
  8
2-0
  6
CONTINUOUS
 62
     3
 10
22999.41401
 20
14013.230913999991
 30
0.0
 11
22999.41401
 21
14098.230913999991
 31
0.0
  0
LINE
  5
3BD6
  8
2-0
  6
CONTINUOUS
 62
     3
 10
22999.41401
 20
14098.230913999991
 30
0.0
 11
22914.41401
 21
14098.230913999991
 31
0.0
  0
LINE
  5
3BD7
  8
2-0
  6
CONTINUOUS
 62
     3
 10
22914.41401
 20
14098.230913999991
 30
0.0
 11
22914.41401
 21
14013.230913999991
 31
0.0
  0
LINE
  5
3BD8
  8
SUNPOU
  6
CONTINUOUS
 62
     4
 10
24823.41401
 20
13349.967479999999
 30
0.0
 11
24823.41401
 21
13004.28283
 31
0.0
  0
LINE
  5
3BD9
  8
SUNPOU
  6
CONTINUOUS
 62
     4
 10
24780.911767000001
 20
13933.233619000001
 30
0.0
 11
24780.911767000001
 21
13004.28283
 31
0.0
  0
LINE
  5
3BDA
  8
SUNPOU
  6
CONTINUOUS
 62
     4
 10
24823.41401
 20
13084.28283
 30
0.0
 11
25063.41401
 21
13084.28283
 31
0.0
  0
LINE
  5
3BDB
  8
SUNPOU
  6
CONTINUOUS
 62
     4
 10
24780.911767000001
 20
13084.28283
 30
0.0
 11
24540.911767000001
 21
13084.28283
 31
0.0
  0
LINE
  5
3BDC
  8
SUNPOU
  6
CONTINUOUS
 62
     4
 10
24823.41401
 20
13084.28283
 30
0.0
 11
24780.911767000001
 21
13084.28283
 31
0.0
  0
LINE
  5
3BDD
  8
SUNPOU
  6
CONTINUOUS
 62
     4
 10
20389.41401
 20
13349.967479999999
 30
0.0
 11
20389.41401
 21
13004.28283
 31
0.0
  0
LINE
  5
3BDE
  8
SUNPOU
  6
CONTINUOUS
 62
     4
 10
20431.916252999989
 20
13933.233619000001
 30
0.0
 11
20431.916252999989
 21
13004.28283
 31
0.0
  0
LINE
  5
3BDF
  8
SUNPOU
  6
CONTINUOUS
 62
     4
 10
20389.41401
 20
13084.28283
 30
0.0
 11
20149.41401
 21
13084.28283
 31
0.0
  0
LINE
  5
3BE0
  8
SUNPOU
  6
CONTINUOUS
 62
     4
 10
20431.916252999989
 20
13084.28283
 30
0.0
 11
20671.916252999999
 21
13084.28283
 31
0.0
  0
LINE
  5
3BE1
  8
SUNPOU
  6
CONTINUOUS
 62
     4
 10
20389.41401
 20
13084.28283
 30
0.0
 11
20431.916252999989
 21
13084.28283
 31
0.0
  0
LINE
  5
3BE2
  8
SUNPOU
  6
CONTINUOUS
 62
     4
 10
20346.911767000001
 20
13933.233619000001
 30
0.0
 11
20346.911767000001
 21
12604.282829999989
 31
0.0
  0
LINE
  5
3BE3
  8
SUNPOU
  6
CONTINUOUS
 62
     4
 10
24865.916252999989
 20
13933.233619000001
 30
0.0
 11
24865.916252999989
 21
12604.282829999989
 31
0.0
  0
LINE
  5
3BE4
  8
SUNPOU
  6
CONTINUOUS
 62
     4
 10
20346.911767000001
 20
12684.282829999989
 30
0.0
 11
24865.916252999989
 21
12684.282829999989
 31
0.0
  0
LINE
  5
3BE5
  8
SUNPOU
  6
CONTINUOUS
 62
     4
 10
24945.912294000002
 20
14813.730913999991
 30
0.0
 11
25995.913614000001
 21
14813.730913999991
 31
0.0
  0
LINE
  5
3BE6
  8
SUNPOU
  6
CONTINUOUS
 62
     4
 10
25795.913614000001
 20
14055.730913999991
 30
0.0
 11
25995.913614000001
 21
14055.730913999991
 31
0.0
  0
LINE
  5
3BE7
  8
SUNPOU
  6
CONTINUOUS
 62
     4
 10
25915.913614000001
 20
14813.730913999991
 30
0.0
 11
25915.913614000001
 21
14055.730913999991
 31
0.0
  0
LINE
  5
3BE8
  8
SUNPOU
  6
CONTINUOUS
 62
     4
 10
24945.912294000002
 20
15514.971425500011
 30
0.0
 11
25995.913614000001
 21
15514.971425500011
 31
0.0
  0
LINE
  5
3BE9
  8
SUNPOU
  6
CONTINUOUS
 62
     4
 10
24945.912294000002
 20
14813.730913999991
 30
0.0
 11
25995.913614000001
 21
14813.730913999991
 31
0.0
  0
LINE
  5
3BEA
  8
SUNPOU
  6
CONTINUOUS
 62
     4
 10
25915.913614000001
 20
15514.971425500011
 30
0.0
 11
25915.913614000001
 21
14813.730913999991
 31
0.0
  0
LINE
  5
3BEB
  8
SUNPOU
  6
CONTINUOUS
 62
     4
 10
24945.912294000002
 20
16215.730913999991
 30
0.0
 11
25995.913614000001
 21
16215.730913999991
 31
0.0
  0
LINE
  5
3BEC
  8
SUNPOU
  6
CONTINUOUS
 62
     4
 10
24945.912294000002
 20
15514.971425500011
 30
0.0
 11
25995.913614000001
 21
15514.971425500011
 31
0.0
  0
LINE
  5
3BED
  8
SUNPOU
  6
CONTINUOUS
 62
     4
 10
25915.913614000001
 20
16215.730913999991
 30
0.0
 11
25915.913614000001
 21
15514.971425500011
 31
0.0
  0
LINE
  5
3BEE
  8
SUNPOU
  6
CONTINUOUS
 62
     4
 10
25795.913614000001
 20
16973.730914
 30
0.0
 11
25995.913614000001
 21
16973.730914
 31
0.0
  0
LINE
  5
3BEF
  8
SUNPOU
  6
CONTINUOUS
 62
     4
 10
24945.912294000002
 20
16215.730913999991
 30
0.0
 11
25995.913614000001
 21
16215.730913999991
 31
0.0
  0
LINE
  5
3BF0
  8
SUNPOU
  6
CONTINUOUS
 62
     4
 10
25915.913614000001
 20
16973.730914
 30
0.0
 11
25915.913614000001
 21
16215.730913999991
 31
0.0
  0
LINE
  5
3BF1
  8
SUNPOU
  6
CONTINUOUS
 62
     4
 10
24945.912294000002
 20
17731.730914
 30
0.0
 11
25995.913614000001
 21
17731.730914
 31
0.0
  0
LINE
  5
3BF2
  8
SUNPOU
  6
CONTINUOUS
 62
     4
 10
25795.913614000001
 20
16973.730914
 30
0.0
 11
25995.913614000001
 21
16973.730914
 31
0.0
  0
LINE
  5
3BF3
  8
SUNPOU
  6
CONTINUOUS
 62
     4
 10
25915.913614000001
 20
17731.730914
 30
0.0
 11
25915.913614000001
 21
16973.730914
 31
0.0
  0
LINE
  5
3BF4
  8
SUNPOU
  6
CONTINUOUS
 62
     4
 10
24945.912294000002
 20
18432.730914
 30
0.0
 11
25995.913614000001
 21
18432.730914
 31
0.0
  0
LINE
  5
3BF5
  8
SUNPOU
  6
CONTINUOUS
 62
     4
 10
24945.912294000002
 20
17731.730914
 30
0.0
 11
25995.913614000001
 21
17731.730914
 31
0.0
  0
LINE
  5
3BF6
  8
SUNPOU
  6
CONTINUOUS
 62
     4
 10
25915.913614000001
 20
18432.730914
 30
0.0
 11
25915.913614000001
 21
17731.730914
 31
0.0
  0
LINE
  5
3BF7
  8
SUNPOU
  6
CONTINUOUS
 62
     4
 10
24945.912294000002
 20
19133.730914
 30
0.0
 11
25995.913614000001
 21
19133.730914
 31
0.0
  0
LINE
  5
3BF8
  8
SUNPOU
  6
CONTINUOUS
 62
     4
 10
24945.912294000002
 20
18432.730914
 30
0.0
 11
25995.913614000001
 21
18432.730914
 31
0.0
  0
LINE
  5
3BF9
  8
SUNPOU
  6
CONTINUOUS
 62
     4
 10
25915.913614000001
 20
19133.730914
 30
0.0
 11
25915.913614000001
 21
18432.730914
 31
0.0
  0
LINE
  5
3BFA
  8
SUNPOU
  6
CONTINUOUS
 62
     4
 10
25795.913614000001
 20
19891.730914
 30
0.0
 11
25995.913614000001
 21
19891.730914
 31
0.0
  0
LINE
  5
3BFB
  8
SUNPOU
  6
CONTINUOUS
 62
     4
 10
24945.912294000002
 20
19133.730914
 30
0.0
 11
25995.913614000001
 21
19133.730914
 31
0.0
  0
LINE
  5
3BFC
  8
SUNPOU
  6
CONTINUOUS
 62
     4
 10
25915.913614000001
 20
19891.730914
 30
0.0
 11
25915.913614000001
 21
19133.730914
 31
0.0
  0
LINE
  5
3BFD
  8
SUNPOU
  6
CONTINUOUS
 62
     4
 10
25795.913614000001
 20
16973.730914
 30
0.0
 11
26395.913614000001
 21
16973.730914
 31
0.0
  0
LINE
  5
3BFE
  8
SUNPOU
  6
CONTINUOUS
 62
     4
 10
25795.913614000001
 20
19891.730914
 30
0.0
 11
26395.913614000001
 21
19891.730914
 31
0.0
  0
LINE
  5
3BFF
  8
SUNPOU
  6
CONTINUOUS
 62
     4
 10
26315.913614000001
 20
16973.730914
 30
0.0
 11
26315.913614000001
 21
19891.730914
 31
0.0
  0
LINE
  5
3C00
  8
SUNPOU
  6
CONTINUOUS
 62
     4
 10
25795.913614000001
 20
14055.730913999991
 30
0.0
 11
26395.913614000001
 21
14055.730913999991
 31
0.0
  0
LINE
  5
3C01
  8
SUNPOU
  6
CONTINUOUS
 62
     4
 10
25795.913614000001
 20
16973.730914
 30
0.0
 11
26395.913614000001
 21
16973.730914
 31
0.0
  0
LINE
  5
3C02
  8
SUNPOU
  6
CONTINUOUS
 62
     4
 10
26315.913614000001
 20
14055.730913999991
 30
0.0
 11
26315.913614000001
 21
16973.730914
 31
0.0
  0
LINE
  5
3C03
  8
SUNPOU
  6
CONTINUOUS
 62
     4
 10
24945.912294000002
 20
19934.228209000001
 30
0.0
 11
26795.913614000001
 21
19934.228209000001
 31
0.0
  0
LINE
  5
3C04
  8
SUNPOU
  6
CONTINUOUS
 62
     4
 10
24945.912294000002
 20
14013.233619000001
 30
0.0
 11
26795.913614000001
 21
14013.233619000001
 31
0.0
  0
LINE
  5
3C05
  8
SUNPOU
  6
CONTINUOUS
 62
     4
 10
26715.913614000001
 20
19934.228209000001
 30
0.0
 11
26715.913614000001
 21
14013.233619000001
 31
0.0
  0
LINE
  5
3C06
  8
SUNPOU
  6
CONTINUOUS
 62
     4
 10
25795.913614000001
 20
19891.730914
 30
0.0
 11
26395.913614000001
 21
19891.730914
 31
0.0
  0
LINE
  5
3C07
  8
SUNPOU
  6
CONTINUOUS
 62
     4
 10
24945.912294000002
 20
19934.228209000001
 30
0.0
 11
26395.913614000001
 21
19934.228209000001
 31
0.0
  0
LINE
  5
3C08
  8
SUNPOU
  6
CONTINUOUS
 62
     4
 10
26315.913614000001
 20
19891.730914
 30
0.0
 11
26315.913614000001
 21
19651.730914
 31
0.0
  0
LINE
  5
3C09
  8
SUNPOU
  6
CONTINUOUS
 62
     4
 10
26315.913614000001
 20
19934.228209000001
 30
0.0
 11
26315.913614000001
 21
20174.228209000001
 31
0.0
  0
LINE
  5
3C0A
  8
SUNPOU
  6
CONTINUOUS
 62
     4
 10
26315.913614000001
 20
19891.730914
 30
0.0
 11
26315.913614000001
 21
19934.228209000001
 31
0.0
  0
LINE
  5
3C0B
  8
SUNPOU
  6
CONTINUOUS
 62
     4
 10
25795.913614000001
 20
14055.730913999991
 30
0.0
 11
26395.913614000001
 21
14055.730913999991
 31
0.0
  0
LINE
  5
3C0C
  8
SUNPOU
  6
CONTINUOUS
 62
     4
 10
24945.912294000002
 20
14013.233619000001
 30
0.0
 11
26395.913614000001
 21
14013.233619000001
 31
0.0
  0
LINE
  5
3C0D
  8
SUNPOU
  6
CONTINUOUS
 62
     4
 10
26315.913614000001
 20
14055.730913999991
 30
0.0
 11
26315.913614000001
 21
14295.730913999991
 31
0.0
  0
LINE
  5
3C0E
  8
SUNPOU
  6
CONTINUOUS
 62
     4
 10
26315.913614000001
 20
14013.233619000001
 30
0.0
 11
26315.913614000001
 21
13773.233619000001
 31
0.0
  0
LINE
  5
3C0F
  8
SUNPOU
  6
CONTINUOUS
 62
     4
 10
26315.913614000001
 20
14055.730913999991
 30
0.0
 11
26315.913614000001
 21
14013.233619000001
 31
0.0
  0
LINE
  5
3C10
  8
SUNPOU
  6
CONTINUOUS
 62
     4
 10
22956.91401
 20
20014.229199000009
 30
0.0
 11
22956.91401
 21
20744.232102000031
 31
0.0
  0
LINE
  5
3C11
  8
SUNPOU
  6
CONTINUOUS
 62
     4
 10
23364.41401
 20
20014.229199000009
 30
0.0
 11
23364.41401
 21
20744.232102000031
 31
0.0
  0
LINE
  5
3C12
  8
SUNPOU
  6
CONTINUOUS
 62
     4
 10
22956.91401
 20
20664.232102000031
 30
0.0
 11
23364.41401
 21
20664.232102000031
 31
0.0
  0
LINE
  5
3C13
  8
SUNPOU
  6
CONTINUOUS
 62
     4
 10
24065.41401
 20
20014.229199000009
 30
0.0
 11
24065.41401
 21
20744.232102000031
 31
0.0
  0
LINE
  5
3C14
  8
SUNPOU
  6
CONTINUOUS
 62
     4
 10
24823.414999500001
 20
20014.229199000009
 30
0.0
 11
24823.414999500001
 21
20744.232102000031
 31
0.0
  0
LINE
  5
3C15
  8
SUNPOU
  6
CONTINUOUS
 62
     4
 10
24065.41401
 20
20664.232102000031
 30
0.0
 11
24823.414999500001
 21
20664.232102000031
 31
0.0
  0
LINE
  5
3C16
  8
SUNPOU
  6
CONTINUOUS
 62
     4
 10
23364.41401
 20
20014.229199000009
 30
0.0
 11
23364.41401
 21
20744.232102000031
 31
0.0
  0
LINE
  5
3C17
  8
SUNPOU
  6
CONTINUOUS
 62
     4
 10
24065.41401
 20
20014.229199000009
 30
0.0
 11
24065.41401
 21
20744.232102000031
 31
0.0
  0
LINE
  5
3C18
  8
SUNPOU
  6
CONTINUOUS
 62
     4
 10
23364.41401
 20
20664.232102000031
 30
0.0
 11
24065.41401
 21
20664.232102000031
 31
0.0
  0
LINE
  5
3C19
  8
SUNPOU
  6
CONTINUOUS
 62
     4
 10
24823.41401
 20
20014.229199000009
 30
0.0
 11
24823.41401
 21
20744.232102000031
 31
0.0
  0
LINE
  5
3C1A
  8
SUNPOU
  6
CONTINUOUS
 62
     4
 10
24865.910315000001
 20
20014.229199000009
 30
0.0
 11
24865.910315000001
 21
20744.232102000031
 31
0.0
  0
LINE
  5
3C1B
  8
SUNPOU
  6
CONTINUOUS
 62
     4
 10
24823.41401
 20
20664.232102000031
 30
0.0
 11
24583.41401
 21
20664.232102000031
 31
0.0
  0
LINE
  5
3C1C
  8
SUNPOU
  6
CONTINUOUS
 62
     4
 10
24865.910315000001
 20
20664.232102000031
 30
0.0
 11
25105.910315000001
 21
20664.232102000031
 31
0.0
  0
LINE
  5
3C1D
  8
SUNPOU
  6
CONTINUOUS
 62
     4
 10
24823.41401
 20
20664.232102000031
 30
0.0
 11
24865.910315000001
 21
20664.232102000031
 31
0.0
  0
LINE
  5
3C1E
  8
SUNPOU
  6
CONTINUOUS
 62
     4
 10
20389.41401
 20
20014.229199000009
 30
0.0
 11
20389.41401
 21
20744.232102000031
 31
0.0
  0
LINE
  5
3C1F
  8
SUNPOU
  6
CONTINUOUS
 62
     4
 10
20796.91401
 20
20014.229199000009
 30
0.0
 11
20796.91401
 21
20744.232102000031
 31
0.0
  0
LINE
  5
3C20
  8
SUNPOU
  6
CONTINUOUS
 62
     4
 10
20389.41401
 20
20664.232102000031
 30
0.0
 11
20796.91401
 21
20664.232102000031
 31
0.0
  0
LINE
  5
3C21
  8
SUNPOU
  6
CONTINUOUS
 62
     4
 10
20389.41401
 20
20014.229199000009
 30
0.0
 11
20389.41401
 21
20744.232102000031
 31
0.0
  0
LINE
  5
3C22
  8
SUNPOU
  6
CONTINUOUS
 62
     4
 10
20346.917705
 20
20014.229199000009
 30
0.0
 11
20346.917705
 21
20744.232102000031
 31
0.0
  0
LINE
  5
3C23
  8
SUNPOU
  6
CONTINUOUS
 62
     4
 10
20389.41401
 20
20664.232102000031
 30
0.0
 11
20629.41401
 21
20664.232102000031
 31
0.0
  0
LINE
  5
3C24
  8
SUNPOU
  6
CONTINUOUS
 62
     4
 10
20346.917705
 20
20664.232102000031
 30
0.0
 11
20106.917705
 21
20664.232102000031
 31
0.0
  0
LINE
  5
3C25
  8
SUNPOU
  6
CONTINUOUS
 62
     4
 10
20389.41401
 20
20664.232102000031
 30
0.0
 11
20346.917705
 21
20664.232102000031
 31
0.0
  0
LINE
  5
3C26
  8
SUNPOU
  6
CONTINUOUS
 62
     4
 10
22198.91400999999
 20
20014.229199000009
 30
0.0
 11
22198.91400999999
 21
20744.232102000031
 31
0.0
  0
LINE
  5
3C27
  8
SUNPOU
  6
CONTINUOUS
 62
     4
 10
22956.914999500012
 20
20014.229199000009
 30
0.0
 11
22956.914999500012
 21
20744.232102000031
 31
0.0
  0
LINE
  5
3C28
  8
SUNPOU
  6
CONTINUOUS
 62
     4
 10
22198.91400999999
 20
20664.232102000031
 30
0.0
 11
22956.914999500012
 21
20664.232102000031
 31
0.0
  0
LINE
  5
3C29
  8
SUNPOU
  6
CONTINUOUS
 62
     4
 10
21497.91401
 20
20014.229199000009
 30
0.0
 11
21497.91401
 21
20744.232102000031
 31
0.0
  0
LINE
  5
3C2A
  8
SUNPOU
  6
CONTINUOUS
 62
     4
 10
22198.91400999999
 20
20014.229199000009
 30
0.0
 11
22198.91400999999
 21
20744.232102000031
 31
0.0
  0
LINE
  5
3C2B
  8
SUNPOU
  6
CONTINUOUS
 62
     4
 10
21497.91401
 20
20664.232102000031
 30
0.0
 11
22198.91400999999
 21
20664.232102000031
 31
0.0
  0
LINE
  5
3C2C
  8
SUNPOU
  6
CONTINUOUS
 62
     4
 10
20796.91401
 20
20014.229199000009
 30
0.0
 11
20796.91401
 21
20744.232102000031
 31
0.0
  0
LINE
  5
3C2D
  8
SUNPOU
  6
CONTINUOUS
 62
     4
 10
21497.91401
 20
20014.229199000009
 30
0.0
 11
21497.91401
 21
20744.232102000031
 31
0.0
  0
LINE
  5
3C2E
  8
SUNPOU
  6
CONTINUOUS
 62
     4
 10
20796.91401
 20
20664.232102000031
 30
0.0
 11
21497.91401
 21
20664.232102000031
 31
0.0
  0
LINE
  5
3C2F
  8
SUNPOU
  6
CONTINUOUS
 62
     4
 10
8812.6585459999988
 20
8593.3184120000024
 30
0.0
 11
8812.6585459999988
 21
9984.3184379999984
 31
0.0
  0
LINE
  5
3C30
  8
SUNPOU
  6
CONTINUOUS
 62
     4
 10
15063.658546000001
 20
8725.2082354124323
 30
0.0
 11
15063.658546000001
 21
9984.3184379999984
 31
0.0
  0
LINE
  5
3C31
  8
SUNPOU
  6
CONTINUOUS
 62
     4
 10
8812.6585459999988
 20
9904.3184379999984
 30
0.0
 11
15063.658546000001
 21
9904.3184379999984
 31
0.0
  0
LINE
  5
3C32
  8
SUNPOU
  6
CONTINUOUS
 62
     4
 10
14913.659798999999
 20
8651.5491579999998
 30
0.0
 11
14913.659798999999
 21
9584.3200880000004
 31
0.0
  0
LINE
  5
3C33
  8
SUNPOU
  6
CONTINUOUS
 62
     4
 10
15063.658546000001
 20
8725.2082354124323
 30
0.0
 11
15063.658546000001
 21
9584.3200880000004
 31
0.0
  0
LINE
  5
3C34
  8
SUNPOU
  6
CONTINUOUS
 62
     4
 10
14913.659798999999
 20
9504.3200880000004
 30
0.0
 11
14673.659798999999
 21
9504.3200880000004
 31
0.0
  0
LINE
  5
3C35
  8
SUNPOU
  6
CONTINUOUS
 62
     4
 10
15063.658546000001
 20
9504.3200880000004
 30
0.0
 11
15303.658546000001
 21
9504.3200880000004
 31
0.0
  0
LINE
  5
3C36
  8
SUNPOU
  6
CONTINUOUS
 62
     4
 10
14913.659798999999
 20
9504.3200880000004
 30
0.0
 11
15063.658546000001
 21
9504.3200880000004
 31
0.0
  0
LINE
  5
3C37
  8
SUNPOU
  6
CONTINUOUS
 62
     4
 10
8992.6572919999981
 20
8469.4007859999983
 30
0.0
 11
8992.6572919999981
 21
9584.3200880000004
 31
0.0
  0
LINE
  5
3C38
  8
SUNPOU
  6
CONTINUOUS
 62
     4
 10
14913.659798999999
 20
8651.5491579999998
 30
0.0
 11
14913.659798999999
 21
9584.3200880000004
 31
0.0
  0
LINE
  5
3C39
  8
SUNPOU
  6
CONTINUOUS
 62
     4
 10
8992.6572919999981
 20
9504.3200880000004
 30
0.0
 11
14913.659798999999
 21
9504.3200880000004
 31
0.0
  0
LINE
  5
3C3A
  8
SUNPOU
  6
CONTINUOUS
 62
     4
 10
8812.6585459999988
 20
8593.3184120000024
 30
0.0
 11
8812.6585459999988
 21
9584.3200880000004
 31
0.0
  0
LINE
  5
3C3B
  8
SUNPOU
  6
CONTINUOUS
 62
     4
 10
8992.6572919999981
 20
8469.4007859999983
 30
0.0
 11
8992.6572919999981
 21
9584.3200880000004
 31
0.0
  0
LINE
  5
3C3C
  8
SUNPOU
  6
CONTINUOUS
 62
     4
 10
8812.6585459999988
 20
9504.3200880000004
 30
0.0
 11
8992.6572919999981
 21
9504.3200880000004
 31
0.0
  0
LINE
  5
3C3D
  8
SUNPOU
  6
CONTINUOUS
 62
     4
 10
8905.1585459999988
 20
6356.319402000001
 30
0.0
 11
7822.660127999995
 21
6356.319402000001
 31
0.0
  0
LINE
  5
3C3E
  8
SUNPOU
  6
CONTINUOUS
 62
     4
 10
8732.6605239999917
 20
8512.819402000001
 30
0.0
 11
7822.660127999995
 21
8512.819402000001
 31
0.0
  0
LINE
  5
3C3F
  8
SUNPOU
  6
CONTINUOUS
 62
     4
 10
7902.6601279999977
 20
6356.319402000001
 30
0.0
 11
7902.6601279999977
 21
8512.819402000001
 31
0.0
  0
LINE
  5
3C40
  8
SUNPOU
  6
CONTINUOUS
 62
     4
 10
15006.158546000001
 20
6356.319402000001
 30
0.0
 11
16083.65795099999
 21
6356.319402000001
 31
0.0
  0
LINE
  5
3C41
  8
SUNPOU
  6
CONTINUOUS
 62
     4
 10
15098.464814599371
 20
8704.8194019999955
 30
0.0
 11
16083.65795099999
 21
8704.8194019999955
 31
0.0
  0
LINE
  5
3C42
  8
SUNPOU
  6
CONTINUOUS
 62
     4
 10
16003.65795099999
 20
6356.319402000001
 30
0.0
 11
16003.65795099999
 21
8704.8194019999955
 31
0.0
  0
LINE
  5
3C43
  8
SUNPOU
  6
CONTINUOUS
 62
     4
 10
8992.6585460000006
 20
6276.3189070000053
 30
0.0
 11
8992.6585460000006
 21
4576.3192370000006
 31
0.0
  0
LINE
  5
3C44
  8
SUNPOU
  6
CONTINUOUS
 62
     4
 10
14913.658546000001
 20
6276.3189070000053
 30
0.0
 11
14913.658546000001
 21
4576.3192370000006
 31
0.0
  0
LINE
  5
3C45
  8
SUNPOU
  6
CONTINUOUS
 62
     4
 10
8992.6585460000006
 20
4656.3192370000006
 30
0.0
 11
14913.658546000001
 21
4656.3192370000006
 31
0.0
  0
LINE
  5
3C46
  8
SUNPOU
  6
CONTINUOUS
 62
     4
 10
14871.158546000001
 20
5913.6666490000034
 30
0.0
 11
14871.158546000001
 21
4976.3190720000021
 31
0.0
  0
LINE
  5
3C47
  8
SUNPOU
  6
CONTINUOUS
 62
     4
 10
14913.658546000001
 20
6276.3189070000053
 30
0.0
 11
14913.658546000001
 21
4976.3190720000021
 31
0.0
  0
LINE
  5
3C48
  8
SUNPOU
  6
CONTINUOUS
 62
     4
 10
14871.158546000001
 20
5056.3190720000021
 30
0.0
 11
14631.15854599999
 21
5056.3190720000021
 31
0.0
  0
LINE
  5
3C49
  8
SUNPOU
  6
CONTINUOUS
 62
     4
 10
14913.658546000001
 20
5056.3190720000021
 30
0.0
 11
15153.658546000001
 21
5056.3190720000021
 31
0.0
  0
LINE
  5
3C4A
  8
SUNPOU
  6
CONTINUOUS
 62
     4
 10
14871.158546000001
 20
5056.3190720000021
 30
0.0
 11
14913.658546000001
 21
5056.3190720000021
 31
0.0
  0
LINE
  5
3C4B
  8
SUNPOU
  6
CONTINUOUS
 62
     4
 10
9035.1585460000006
 20
5913.6666490000034
 30
0.0
 11
9035.1585460000006
 21
4976.3190720000021
 31
0.0
  0
LINE
  5
3C4C
  8
SUNPOU
  6
CONTINUOUS
 62
     4
 10
8992.6585460000006
 20
6276.3189070000053
 30
0.0
 11
8992.6585460000006
 21
4976.3190720000021
 31
0.0
  0
LINE
  5
3C4D
  8
SUNPOU
  6
CONTINUOUS
 62
     4
 10
9035.1585460000006
 20
5056.3190720000021
 30
0.0
 11
9275.1585459999988
 21
5056.3190720000021
 31
0.0
  0
LINE
  5
3C4E
  8
SUNPOU
  6
CONTINUOUS
 62
     4
 10
8992.6585460000006
 20
5056.3190720000021
 30
0.0
 11
8752.6585460000006
 21
5056.3190720000021
 31
0.0
  0
LINE
  5
3C4F
  8
SUNPOU
  6
CONTINUOUS
 62
     4
 10
9035.1585460000006
 20
5056.3190720000021
 30
0.0
 11
8992.6585460000006
 21
5056.3190720000021
 31
0.0
  0
LINE
  5
3C50
  8
SUNPOU
  6
CONTINUOUS
 62
     4
 10
11953.158546000001
 20
5913.6666490000034
 30
0.0
 11
11953.158546000001
 21
4976.3190720000021
 31
0.0
  0
LINE
  5
3C51
  8
SUNPOU
  6
CONTINUOUS
 62
     4
 10
9035.1585460000006
 20
5913.6666490000034
 30
0.0
 11
9035.1585460000006
 21
4976.3190720000021
 31
0.0
  0
LINE
  5
3C52
  8
SUNPOU
  6
CONTINUOUS
 62
     4
 10
11953.158546000001
 20
5056.3190720000021
 30
0.0
 11
9035.1585460000006
 21
5056.3190720000021
 31
0.0
  0
LINE
  5
3C53
  8
SUNPOU
  6
CONTINUOUS
 62
     4
 10
11953.158546000001
 20
5913.6666490000034
 30
0.0
 11
11953.158546000001
 21
4976.3190720000021
 31
0.0
  0
LINE
  5
3C54
  8
SUNPOU
  6
CONTINUOUS
 62
     4
 10
14871.158546000001
 20
5913.6666490000034
 30
0.0
 11
14871.158546000001
 21
4976.3190720000021
 31
0.0
  0
LINE
  5
3C55
  8
SUNPOU
  6
CONTINUOUS
 62
     4
 10
11953.158546000001
 20
5056.3190720000021
 30
0.0
 11
14871.158546000001
 21
5056.3190720000021
 31
0.0
  0
TEXT
  5
3C56
  8
0
  6
CONTINUOUS
 62
     7
 10
13145.491879333331
 20
5136.3190720000021
 30
0.0
 40
160.0
  1
2918
  0
TEXT
  5
3C57
  8
0
  6
CONTINUOUS
 62
     7
 10
10227.491879333331
 20
5136.3190720000021
 30
0.0
 40
160.0
  1
2918
  0
TEXT
  5
3C58
  8
0
  6
CONTINUOUS
 62
     7
 10
8395.4848369036918
 20
5136.3190720000021
 30
0.0
 40
160.0
  1
42.5
  0
TEXT
  5
3C59
  8
0
  6
CONTINUOUS
 62
     7
 10
15051.977183309809
 20
5136.3190720000021
 30
0.0
 40
160.0
  1
42.5
  0
TEXT
  5
3C5A
  8
0
  6
CONTINUOUS
 62
     7
 10
11686.491879333331
 20
4736.3192370000006
 30
0.0
 40
160.0
  1
5921
  0
TEXT
  5
3C5B
  8
0
  6
CONTINUOUS
 62
     7
 10
15923.65795099999
 20
6511.9027353333349
 30
0.0
 40
160.0
  1
2348.5（2588.5）
 50
90.0
  0
TEXT
  5
3C5C
  8
0
  6
CONTINUOUS
 62
     7
 10
7822.660127999995
 20
6442.5694020000019
 30
0.0
 40
160.0
  1
2156.5（2396.5）
 50
90.0
  0
TEXT
  5
3C5D
  8
0
  6
CONTINUOUS
 62
     7
 10
8399.3252126666648
 20
9584.3200880000004
 30
0.0
 40
160.0
  1
180
  0
TEXT
  5
3C5E
  8
0
  6
CONTINUOUS
 62
     7
 10
11686.491878833331
 20
9584.3200880000004
 30
0.0
 40
160.0
  1
5921
  0
TEXT
  5
3C5F
  8
0
  6
CONTINUOUS
 62
     7
 10
15130.325212666659
 20
9584.3200880000004
 30
0.0
 40
160.0
  1
150
  0
TEXT
  5
3C60
  8
0
  6
CONTINUOUS
 62
     7
 10
11671.491879333331
 20
9984.3184379999984
 30
0.0
 40
160.0
  1
6251
  0
TEXT
  5
3C61
  8
0
  6
CONTINUOUS
 62
     7
 10
20974.080676666668
 20
20424.232102000031
 30
0.0
 40
160.0
  1
701
  0
TEXT
  5
3C62
  8
0
  6
CONTINUOUS
 62
     7
 10
21675.080676666668
 20
20744.232102000031
 30
0.0
 40
160.0
  1
701
  0
TEXT
  5
3C63
  8
0
  6
CONTINUOUS
 62
     7
 10
22364.58117141667
 20
20744.232102000031
 30
0.0
 40
160.0
  1
758
  0
TEXT
  5
3C64
  8
0
  6
CONTINUOUS
 62
     7
 10
19786.6020304712
 20
20744.232102000031
 30
0.0
 40
160.0
  1
42.5
  0
TEXT
  5
3C65
  8
0
  6
CONTINUOUS
 62
     7
 10
20490.247343333322
 20
20744.232102000031
 30
0.0
 40
160.0
  1
407.5
  0
TEXT
  5
3C66
  8
0
  6
CONTINUOUS
 62
     7
 10
24946.22598952879
 20
20744.232102000031
 30
0.0
 40
160.0
  1
42.5
  0
TEXT
  5
3C67
  8
0
  6
CONTINUOUS
 62
     7
 10
23541.580676666661
 20
20424.232102000031
 30
0.0
 40
160.0
  1
701
  0
TEXT
  5
3C68
  8
0
  6
CONTINUOUS
 62
     7
 10
24231.08117141667
 20
20744.232102000031
 30
0.0
 40
160.0
  1
758
  0
TEXT
  5
3C69
  8
0
  6
CONTINUOUS
 62
     7
 10
23057.747343333322
 20
20744.232102000031
 30
0.0
 40
160.0
  1
407.5
  0
TEXT
  5
3C6A
  8
0
  6
CONTINUOUS
 62
     7
 10
26235.913614000001
 20
13439.6773826032
 30
0.0
 40
160.0
  1
42.5
 50
90.0
  0
TEXT
  5
3C6B
  8
0
  6
CONTINUOUS
 62
     7
 10
26235.913614000001
 20
20027.784445396788
 30
0.0
 40
160.0
  1
42.5
 50
90.0
  0
TEXT
  5
3C6C
  8
0
  6
CONTINUOUS
 62
     7
 10
26635.91361399999
 20
16707.064247333339
 30
0.0
 40
160.0
  1
5921
 50
90.0
  0
TEXT
  5
3C6D
  8
0
  6
CONTINUOUS
 62
     7
 10
26235.91361399999
 20
15248.06424733333
 30
0.0
 40
160.0
  1
2918
 50
90.0
  0
TEXT
  5
3C6E
  8
0
  6
CONTINUOUS
 62
     7
 10
26235.91361399999
 20
18166.064247333321
 30
0.0
 40
160.0
  1
2918
 50
90.0
  0
TEXT
  5
3C6F
  8
0
  6
CONTINUOUS
 62
     7
 10
25835.91361399999
 20
19299.397580666671
 30
0.0
 40
160.0
  1
758
 50
90.0
  0
TEXT
  5
3C70
  8
0
  6
CONTINUOUS
 62
     7
 10
25835.91361399999
 20
18609.897580666671
 30
0.0
 40
160.0
  1
701
 50
90.0
  0
TEXT
  5
3C71
  8
0
  6
CONTINUOUS
 62
     7
 10
25835.91361399999
 20
17908.897580666671
 30
0.0
 40
160.0
  1
701
 50
90.0
  0
TEXT
  5
3C72
  8
0
  6
CONTINUOUS
 62
     7
 10
25835.91361399999
 20
17139.397580666671
 30
0.0
 40
160.0
  1
758
 50
90.0
  0
TEXT
  5
3C73
  8
0
  6
CONTINUOUS
 62
     7
 10
25835.91361399999
 20
16381.39758066666
 30
0.0
 40
160.0
  1
758
 50
90.0
  0
TEXT
  5
3C74
  8
0
  6
CONTINUOUS
 62
     7
 10
25835.91361399999
 20
15692.01783641668
 30
0.0
 40
160.0
  1
701
 50
90.0
  0
TEXT
  5
3C75
  8
0
  6
CONTINUOUS
 62
     7
 10
25835.91361399999
 20
14991.01783641668
 30
0.0
 40
160.0
  1
701
 50
90.0
  0
TEXT
  5
3C76
  8
0
  6
CONTINUOUS
 62
     7
 10
25835.91361399999
 20
14221.39758066666
 30
0.0
 40
160.0
  1
758
 50
90.0
  0
TEXT
  5
3C77
  8
0
  6
CONTINUOUS
 62
     7
 10
22339.74734333334
 20
12764.282829999989
 30
0.0
 40
160.0
  1
4519
  0
TEXT
  5
3C78
  8
0
  6
CONTINUOUS
 62
     7
 10
20507.467682382081
 20
13164.28283
 30
0.0
 40
160.0
  1
42.5
  0
TEXT
  5
3C79
  8
0
  6
CONTINUOUS
 62
     7
 10
24225.360337617909
 20
13164.28283
 30
0.0
 40
160.0
  1
42.5
  0
TEXT
  5
3C7A
  8
0
  6
CONTINUOUS
 62
     7
 10
24941.467682382081
 20
13164.28283
 30
0.0
 40
160.0
  1
42.5
  0
TEXT
  5
3C7B
  8
0
  6
CONTINUOUS
 62
     7
 10
19791.360337617902
 20
13164.28283
 30
0.0
 40
160.0
  1
42.5
  0
TEXT
  5
3C7C
  8
0
  6
CONTINUOUS
 62
     7
 10
19379.959432999989
 20
14518.68450308333
 30
0.0
 40
160.0
  1
1459
 50
90.0
  0
TEXT
  5
3C7D
  8
0
  6
CONTINUOUS
 62
     7
 10
19379.959432999989
 20
15977.684503083339
 30
0.0
 40
160.0
  1
1459
 50
90.0
  0
TEXT
  5
3C7E
  8
0
  6
CONTINUOUS
 62
     7
 10
19379.959432999989
 20
17436.56424733331
 30
0.0
 40
160.0
  1
1459
 50
90.0
  0
TEXT
  5
3C7F
  8
0
  6
CONTINUOUS
 62
     7
 10
19379.959432999989
 20
18895.564247333321
 30
0.0
 40
160.0
  1
1459
 50
90.0
  0
TEXT
  5
3C80
  8
0
  6
CONTINUOUS
 62
     7
 10
22339.747342333321
 20
4736.3202269999929
 30
0.0
 40
160.0
  1
4519
  0
TEXT
  5
3C81
  8
0
  6
CONTINUOUS
 62
     7
 10
19780.875018741121
 20
5136.3200619999989
 30
0.0
 40
160.0
  1
42.5
  0
TEXT
  5
3C82
  8
0
  6
CONTINUOUS
 62
     7
 10
24951.95695825883
 20
5136.3200619999989
 30
0.0
 40
160.0
  1
42.5
  0
TEXT
  5
3C83
  8
0
  6
CONTINUOUS
 62
     7
 10
21273.164008999971
 20
5136.3200619999989
 30
0.0
 40
160.0
  1
2567.5
  0
TEXT
  5
3C84
  8
0
  6
CONTINUOUS
 62
     7
 10
23516.830675666661
 20
5136.3200619999989
 30
0.0
 40
160.0
  1
1866.5
  0
TEXT
  5
3C85
  8
0
  6
CONTINUOUS
 62
     7
 10
23426.164008999989
 20
5802.9867286666649
 30
0.0
 40
160.0
  1
有効開口巾
  0
TEXT
  5
3C86
  8
0
  6
CONTINUOUS
 62
     7
 10
23516.830675666661
 20
5536.3200619999971
 30
0.0
 40
160.0
  1
1678.5
  0
TEXT
  5
3C87
  8
0
  6
CONTINUOUS
 62
     7
 10
20745.164008999989
 20
5536.3200619999971
 30
0.0
 40
160.0
  1
有効開口巾 2379.5
  0
TEXT
  5
3C8C
  8
0
  6
CONTINUOUS
 62
     7
 10
19059.412359999958
 20
6511.9029828333332
 30
0.0
 40
160.0
  1
2348.5（2588.5）
 50
90.0
  0
TEXT
  5
3C8D
  8
0
  6
CONTINUOUS
 62
     7
 10
19459.414668999969
 20
6420.2991352912723
 30
0.0
 40
160.0
  1
有効開口高サ 1891.5
 50
90.0
  0
TEXT
  5
3C8E
  8
0
  6
CONTINUOUS
 62
     7
 10
9084.4562349999942
 20
17436.56424733331
 30
0.0
 40
160.0
  1
1459
 50
90.0
  0
TEXT
  5
3C8F
  8
0
  6
CONTINUOUS
 62
     7
 10
9084.4562349999942
 20
18895.564247333321
 30
0.0
 40
160.0
  1
1459
 50
90.0
  0
TEXT
  5
3C90
  8
0
  6
CONTINUOUS
 62
     7
 10
9084.4562349999906
 20
20203.186098807681
 30
0.0
 40
160.0
  1
222.5
 50
90.0
  0
TEXT
  5
3C91
  8
0
  6
CONTINUOUS
 62
     7
 10
9484.4562350000015
 20
20234.226823000001
 30
0.0
 40
160.0
  1
20
 50
90.0
  0
TEXT
  5
3C92
  8
0
  6
CONTINUOUS
 62
     7
 10
9084.4562350000015
 20
15977.684503083339
 30
0.0
 40
160.0
  1
1459
 50
90.0
  0
TEXT
  5
3C93
  8
0
  6
CONTINUOUS
 62
     7
 10
9084.4562349999942
 20
14518.68450308333
 30
0.0
 40
160.0
  1
1459
 50
90.0
  0
TEXT
  5
3C94
  8
0
  6
CONTINUOUS
 62
     7
 10
9084.4559099999879
 20
13247.77790370263
 30
0.0
 40
160.0
  1
192.5
 50
90.0
  0
TEXT
  5
3C95
  8
0
  6
CONTINUOUS
 62
     7
 10
10977.705685999979
 20
20744.232102000031
 30
0.0
 40
160.0
  1
2567.5
  0
TEXT
  5
3C96
  8
0
  6
CONTINUOUS
 62
     7
 10
9477.4589799767291
 20
20744.232102000031
 30
0.0
 40
160.0
  1
85.5
  0
TEXT
  5
3C97
  8
0
  6
CONTINUOUS
 62
     7
 10
13221.37235266666
 20
20744.232102000031
 30
0.0
 40
160.0
  1
1866.5
  0
TEXT
  5
3C98
  8
0
  6
CONTINUOUS
 62
     7
 10
14664.45239202325
 20
20744.232102000031
 30
0.0
 40
160.0
  1
85.5
  0
ARC
  5
3C9E
  8
0
  6
BYBLOCK
 62
     0
 10
14527.95568599999
 20
20664.232102000031
 30
0.0
 40
15.0
 50
180.0
 51
0.0
  0
ARC
  5
3C9F
  8
0
  6
BYBLOCK
 62
     0
 10
14527.95568599999
 20
20664.232102000031
 30
0.0
 40
15.0
 50
0.0
 51
180.0
  0
ARC
  5
3CA0
  8
0
  6
BYBLOCK
 62
     0
 10
14613.45568599999
 20
20664.232102000031
 30
0.0
 40
15.0
 50
0.0
 51
180.0
  0
ARC
  5
3CA1
  8
0
  6
BYBLOCK
 62
     0
 10
14613.45568599999
 20
20664.232102000031
 30
0.0
 40
15.0
 50
180.0
 51
0.0
  0
ARC
  5
3CA2
  8
0
  6
BYBLOCK
 62
     0
 10
12661.45568599999
 20
20664.232102000031
 30
0.0
 40
15.0
 50
0.0
 51
180.0
  0
ARC
  5
3CA3
  8
0
  6
BYBLOCK
 62
     0
 10
12661.45568599999
 20
20664.232102000031
 30
0.0
 40
15.0
 50
180.0
 51
0.0
  0
ARC
  5
3CA4
  8
0
  6
BYBLOCK
 62
     0
 10
14527.95568599999
 20
20664.232102000031
 30
0.0
 40
15.0
 50
180.0
 51
0.0
  0
ARC
  5
3CA5
  8
0
  6
BYBLOCK
 62
     0
 10
14527.95568599999
 20
20664.232102000031
 30
0.0
 40
15.0
 50
0.0
 51
180.0
  0
ARC
  5
3CA6
  8
0
  6
BYBLOCK
 62
     0
 10
10093.95568599999
 20
20664.232102000031
 30
0.0
 40
15.0
 50
0.0
 51
180.0
  0
ARC
  5
3CA7
  8
0
  6
BYBLOCK
 62
     0
 10
10093.95568599999
 20
20664.232102000031
 30
0.0
 40
15.0
 50
180.0
 51
0.0
  0
ARC
  5
3CA8
  8
0
  6
BYBLOCK
 62
     0
 10
10008.45568599999
 20
20664.232102000031
 30
0.0
 40
15.0
 50
180.0
 51
0.0
  0
ARC
  5
3CA9
  8
0
  6
BYBLOCK
 62
     0
 10
10008.45568599999
 20
20664.232102000031
 30
0.0
 40
15.0
 50
0.0
 51
180.0
  0
ARC
  5
3CAA
  8
0
  6
BYBLOCK
 62
     0
 10
12661.45568599999
 20
20664.232102000031
 30
0.0
 40
15.0
 50
180.0
 51
0.0
  0
ARC
  5
3CAB
  8
0
  6
BYBLOCK
 62
     0
 10
12661.45568599999
 20
20664.232102000031
 30
0.0
 40
15.0
 50
0.0
 51
180.0
  0
ARC
  5
3CAC
  8
0
  6
BYBLOCK
 62
     0
 10
10093.95568599999
 20
20664.232102000031
 30
0.0
 40
15.0
 50
0.0
 51
180.0
  0
ARC
  5
3CAD
  8
0
  6
BYBLOCK
 62
     0
 10
10093.95568599999
 20
20664.232102000031
 30
0.0
 40
15.0
 50
180.0
 51
0.0
  0
ARC
  5
3CAE
  8
0
  6
BYBLOCK
 62
     0
 10
9164.4559099999969
 20
14055.730913999991
 30
0.0
 40
15.0
 50
270.0
 51
90.0
  0
ARC
  5
3CAF
  8
0
  6
BYBLOCK
 62
     0
 10
9164.4559099999969
 20
14055.730913999991
 30
0.0
 40
15.0
 50
90.0
 51
270.0
  0
ARC
  5
3CB0
  8
0
  6
BYBLOCK
 62
     0
 10
9164.4559099999969
 20
13863.235599
 30
0.0
 40
15.0
 50
90.0
 51
270.0
  0
ARC
  5
3CB1
  8
0
  6
BYBLOCK
 62
     0
 10
9164.4559099999969
 20
13863.235599
 30
0.0
 40
15.0
 50
270.0
 51
90.0
  0
ARC
  5
3CB2
  8
0
  6
BYBLOCK
 62
     0
 10
9164.4562350000015
 20
15514.971425500011
 30
0.0
 40
15.0
 50
270.0
 51
90.0
  0
ARC
  5
3CB3
  8
0
  6
BYBLOCK
 62
     0
 10
9164.4562350000015
 20
15514.971425500011
 30
0.0
 40
15.0
 50
90.0
 51
270.0
  0
ARC
  5
3CB4
  8
0
  6
BYBLOCK
 62
     0
 10
9164.4562350000015
 20
14055.730913999991
 30
0.0
 40
15.0
 50
90.0
 51
270.0
  0
ARC
  5
3CB5
  8
0
  6
BYBLOCK
 62
     0
 10
9164.4562350000015
 20
14055.730913999991
 30
0.0
 40
15.0
 50
270.0
 51
90.0
  0
ARC
  5
3CB6
  8
0
  6
BYBLOCK
 62
     0
 10
9164.4562350000015
 20
16973.730914
 30
0.0
 40
15.0
 50
270.0
 51
90.0
  0
ARC
  5
3CB7
  8
0
  6
BYBLOCK
 62
     0
 10
9164.4562350000015
 20
16973.730914
 30
0.0
 40
15.0
 50
90.0
 51
270.0
  0
ARC
  5
3CB8
  8
0
  6
BYBLOCK
 62
     0
 10
9164.4562350000015
 20
15514.971425500011
 30
0.0
 40
15.0
 50
90.0
 51
270.0
  0
ARC
  5
3CB9
  8
0
  6
BYBLOCK
 62
     0
 10
9164.4562350000015
 20
15514.971425500011
 30
0.0
 40
15.0
 50
270.0
 51
90.0
  0
ARC
  5
3CBA
  8
0
  6
BYBLOCK
 62
     0
 10
9564.4562349999997
 20
20094.226823000001
 30
0.0
 40
15.0
 50
270.0
 51
90.0
  0
ARC
  5
3CBB
  8
0
  6
BYBLOCK
 62
     0
 10
9564.4562349999997
 20
20094.226823000001
 30
0.0
 40
15.0
 50
90.0
 51
270.0
  0
ARC
  5
3CBC
  8
0
  6
BYBLOCK
 62
     0
 10
9564.4562349999997
 20
20114.226823000001
 30
0.0
 40
15.0
 50
90.0
 51
270.0
  0
ARC
  5
3CBD
  8
0
  6
BYBLOCK
 62
     0
 10
9564.4562349999997
 20
20114.226823000001
 30
0.0
 40
15.0
 50
270.0
 51
90.0
  0
ARC
  5
3CBE
  8
0
  6
BYBLOCK
 62
     0
 10
9164.4562350000015
 20
19891.730914
 30
0.0
 40
15.0
 50
90.0
 51
270.0
  0
ARC
  5
3CBF
  8
0
  6
BYBLOCK
 62
     0
 10
9164.4562350000015
 20
19891.730914
 30
0.0
 40
15.0
 50
270.0
 51
90.0
  0
ARC
  5
3CC0
  8
0
  6
BYBLOCK
 62
     0
 10
9164.4562350000015
 20
20114.226823000001
 30
0.0
 40
15.0
 50
270.0
 51
90.0
  0
ARC
  5
3CC1
  8
0
  6
BYBLOCK
 62
     0
 10
9164.4562350000015
 20
20114.226823000001
 30
0.0
 40
15.0
 50
90.0
 51
270.0
  0
ARC
  5
3CC2
  8
0
  6
BYBLOCK
 62
     0
 10
9164.4562350000015
 20
18432.730914
 30
0.0
 40
15.0
 50
90.0
 51
270.0
  0
ARC
  5
3CC3
  8
0
  6
BYBLOCK
 62
     0
 10
9164.4562350000015
 20
18432.730914
 30
0.0
 40
15.0
 50
270.0
 51
90.0
  0
ARC
  5
3CC4
  8
0
  6
BYBLOCK
 62
     0
 10
9164.4562350000015
 20
19891.730914
 30
0.0
 40
15.0
 50
270.0
 51
90.0
  0
ARC
  5
3CC5
  8
0
  6
BYBLOCK
 62
     0
 10
9164.4562350000015
 20
19891.730914
 30
0.0
 40
15.0
 50
90.0
 51
270.0
  0
ARC
  5
3CC6
  8
0
  6
BYBLOCK
 62
     0
 10
9164.4562350000015
 20
16973.730914
 30
0.0
 40
15.0
 50
90.0
 51
270.0
  0
ARC
  5
3CC7
  8
0
  6
BYBLOCK
 62
     0
 10
9164.4562350000015
 20
16973.730914
 30
0.0
 40
15.0
 50
270.0
 51
90.0
  0
ARC
  5
3CC8
  8
0
  6
BYBLOCK
 62
     0
 10
9164.4562350000015
 20
18432.730914
 30
0.0
 40
15.0
 50
270.0
 51
90.0
  0
ARC
  5
3CC9
  8
0
  6
BYBLOCK
 62
     0
 10
9164.4562350000015
 20
18432.730914
 30
0.0
 40
15.0
 50
90.0
 51
270.0
  0
ARC
  5
3CCA
  8
0
  6
BYBLOCK
 62
     0
 10
19539.41466899998
 20
6356.3198969999958
 30
0.0
 40
15.0
 50
90.0
 51
270.0
  0
ARC
  5
3CCB
  8
0
  6
BYBLOCK
 62
     0
 10
19539.41466899998
 20
6356.3198969999958
 30
0.0
 40
15.0
 50
270.0
 51
90.0
  0
ARC
  5
3CCC
  8
0
  6
BYBLOCK
 62
     0
 10
19539.41466899998
 20
8247.8198969999976
 30
0.0
 40
15.0
 50
270.0
 51
90.0
  0
ARC
  5
3CCD
  8
0
  6
BYBLOCK
 62
     0
 10
19539.41466899998
 20
8247.8198969999976
 30
0.0
 40
15.0
 50
90.0
 51
270.0
  0
ARC
  5
3CCE
  8
0
  6
BYBLOCK
 62
     0
 10
19139.412359999958
 20
6356.3198969999958
 30
0.0
 40
15.0
 50
90.0
 51
270.0
  0
ARC
  5
3CCF
  8
0
  6
BYBLOCK
 62
     0
 10
19139.412359999958
 20
6356.3198969999958
 30
0.0
 40
15.0
 50
270.0
 51
90.0
  0
ARC
  5
3CD0
  8
0
  6
BYBLOCK
 62
     0
 10
19139.41235999998
 20
8704.8194019999955
 30
0.0
 40
15.0
 50
270.0
 51
90.0
  0
ARC
  5
3CD1
  8
0
  6
BYBLOCK
 62
     0
 10
19139.41235999998
 20
8704.8194019999955
 30
0.0
 40
15.0
 50
90.0
 51
270.0
  0
ARC
  5
3CE2
  8
0
  6
BYBLOCK
 62
     0
 10
20483.414008999989
 20
5456.3200619999989
 30
0.0
 40
15.0
 50
0.0
 51
180.0
  0
ARC
  5
3CE3
  8
0
  6
BYBLOCK
 62
     0
 10
20483.414008999989
 20
5456.3200619999989
 30
0.0
 40
15.0
 50
180.0
 51
0.0
  0
ARC
  5
3CE4
  8
0
  6
BYBLOCK
 62
     0
 10
22862.914008999978
 20
5456.3200619999989
 30
0.0
 40
15.0
 50
180.0
 51
0.0
  0
ARC
  5
3CE5
  8
0
  6
BYBLOCK
 62
     0
 10
22862.914008999978
 20
5456.3200619999989
 30
0.0
 40
15.0
 50
0.0
 51
180.0
  0
ARC
  5
3CE6
  8
0
  6
BYBLOCK
 62
     0
 10
23050.914008999971
 20
5456.3200619999989
 30
0.0
 40
15.0
 50
0.0
 51
180.0
  0
ARC
  5
3CE7
  8
0
  6
BYBLOCK
 62
     0
 10
23050.914008999971
 20
5456.3200619999989
 30
0.0
 40
15.0
 50
180.0
 51
0.0
  0
ARC
  5
3CE8
  8
0
  6
BYBLOCK
 62
     0
 10
24729.414008999989
 20
5456.3200619999989
 30
0.0
 40
15.0
 50
180.0
 51
0.0
  0
ARC
  5
3CE9
  8
0
  6
BYBLOCK
 62
     0
 10
24729.414008999989
 20
5456.3200619999989
 30
0.0
 40
15.0
 50
0.0
 51
180.0
  0
ARC
  5
3CEA
  8
0
  6
BYBLOCK
 62
     0
 10
22956.914008999989
 20
5056.3200619999989
 30
0.0
 40
15.0
 50
0.0
 51
180.0
  0
ARC
  5
3CEB
  8
0
  6
BYBLOCK
 62
     0
 10
22956.914008999989
 20
5056.3200619999989
 30
0.0
 40
15.0
 50
180.0
 51
0.0
  0
ARC
  5
3CEC
  8
0
  6
BYBLOCK
 62
     0
 10
24823.414008999978
 20
5056.3200619999989
 30
0.0
 40
15.0
 50
180.0
 51
0.0
  0
ARC
  5
3CED
  8
0
  6
BYBLOCK
 62
     0
 10
24823.414008999978
 20
5056.3200619999989
 30
0.0
 40
15.0
 50
0.0
 51
180.0
  0
ARC
  5
3CEE
  8
0
  6
BYBLOCK
 62
     0
 10
20389.414008999978
 20
5056.3200619999989
 30
0.0
 40
15.0
 50
0.0
 51
180.0
  0
ARC
  5
3CEF
  8
0
  6
BYBLOCK
 62
     0
 10
20389.414008999978
 20
5056.3200619999989
 30
0.0
 40
15.0
 50
180.0
 51
0.0
  0
ARC
  5
3CF0
  8
0
  6
BYBLOCK
 62
     0
 10
22956.914008999989
 20
5056.3200619999989
 30
0.0
 40
15.0
 50
180.0
 51
0.0
  0
ARC
  5
3CF1
  8
0
  6
BYBLOCK
 62
     0
 10
22956.914008999989
 20
5056.3200619999989
 30
0.0
 40
15.0
 50
0.0
 51
180.0
  0
ARC
  5
3CF2
  8
0
  6
BYBLOCK
 62
     0
 10
24823.417968000002
 20
5056.3200619999989
 30
0.0
 40
15.0
 50
180.0
 51
0.0
  0
ARC
  5
3CF3
  8
0
  6
BYBLOCK
 62
     0
 10
24823.417968000002
 20
5056.3200619999989
 30
0.0
 40
15.0
 50
0.0
 51
180.0
  0
ARC
  5
3CF4
  8
0
  6
BYBLOCK
 62
     0
 10
24865.917967999991
 20
5056.3200619999989
 30
0.0
 40
15.0
 50
0.0
 51
180.0
  0
ARC
  5
3CF5
  8
0
  6
BYBLOCK
 62
     0
 10
24865.917967999991
 20
5056.3200619999989
 30
0.0
 40
15.0
 50
180.0
 51
0.0
  0
ARC
  5
3CF6
  8
0
  6
BYBLOCK
 62
     0
 10
20389.414008999978
 20
5056.3200619999989
 30
0.0
 40
15.0
 50
0.0
 51
180.0
  0
ARC
  5
3CF7
  8
0
  6
BYBLOCK
 62
     0
 10
20389.414008999978
 20
5056.3200619999989
 30
0.0
 40
15.0
 50
180.0
 51
0.0
  0
ARC
  5
3CF8
  8
0
  6
BYBLOCK
 62
     0
 10
20346.914008999989
 20
5056.3200619999989
 30
0.0
 40
15.0
 50
180.0
 51
0.0
  0
ARC
  5
3CF9
  8
0
  6
BYBLOCK
 62
     0
 10
20346.914008999989
 20
5056.3200619999989
 30
0.0
 40
15.0
 50
0.0
 51
180.0
  0
ARC
  5
3CFA
  8
0
  6
BYBLOCK
 62
     0
 10
20346.914008999989
 20
4656.3202269999974
 30
0.0
 40
15.0
 50
0.0
 51
180.0
  0
ARC
  5
3CFB
  8
0
  6
BYBLOCK
 62
     0
 10
20346.914008999989
 20
4656.3202269999974
 30
0.0
 40
15.0
 50
180.0
 51
0.0
  0
ARC
  5
3CFC
  8
0
  6
BYBLOCK
 62
     0
 10
24865.914008999989
 20
4656.3202269999974
 30
0.0
 40
15.0
 50
180.0
 51
0.0
  0
ARC
  5
3CFD
  8
0
  6
BYBLOCK
 62
     0
 10
24865.914008999989
 20
4656.3202269999974
 30
0.0
 40
15.0
 50
0.0
 51
180.0
  0
ARC
  5
3CFE
  8
0
  6
BYBLOCK
 62
     0
 10
19459.959432999989
 20
18432.730914
 30
0.0
 40
15.0
 50
90.0
 51
270.0
  0
ARC
  5
3CFF
  8
0
  6
BYBLOCK
 62
     0
 10
19459.959432999989
 20
18432.730914
 30
0.0
 40
15.0
 50
270.0
 51
90.0
  0
ARC
  5
3D00
  8
0
  6
BYBLOCK
 62
     0
 10
19459.959432999989
 20
19891.730914
 30
0.0
 40
15.0
 50
270.0
 51
90.0
  0
ARC
  5
3D01
  8
0
  6
BYBLOCK
 62
     0
 10
19459.959432999989
 20
19891.730914
 30
0.0
 40
15.0
 50
90.0
 51
270.0
  0
ARC
  5
3D02
  8
0
  6
BYBLOCK
 62
     0
 10
19459.959432999989
 20
16973.730914
 30
0.0
 40
15.0
 50
90.0
 51
270.0
  0
ARC
  5
3D03
  8
0
  6
BYBLOCK
 62
     0
 10
19459.959432999989
 20
16973.730914
 30
0.0
 40
15.0
 50
270.0
 51
90.0
  0
ARC
  5
3D04
  8
0
  6
BYBLOCK
 62
     0
 10
19459.959432999989
 20
18432.730914
 30
0.0
 40
15.0
 50
270.0
 51
90.0
  0
ARC
  5
3D05
  8
0
  6
BYBLOCK
 62
     0
 10
19459.959432999989
 20
18432.730914
 30
0.0
 40
15.0
 50
90.0
 51
270.0
  0
ARC
  5
3D06
  8
0
  6
BYBLOCK
 62
     0
 10
19459.959432999989
 20
15514.971425500011
 30
0.0
 40
15.0
 50
90.0
 51
270.0
  0
ARC
  5
3D07
  8
0
  6
BYBLOCK
 62
     0
 10
19459.959432999989
 20
15514.971425500011
 30
0.0
 40
15.0
 50
270.0
 51
90.0
  0
ARC
  5
3D08
  8
0
  6
BYBLOCK
 62
     0
 10
19459.959432999989
 20
16973.730914
 30
0.0
 40
15.0
 50
270.0
 51
90.0
  0
ARC
  5
3D09
  8
0
  6
BYBLOCK
 62
     0
 10
19459.959432999989
 20
16973.730914
 30
0.0
 40
15.0
 50
90.0
 51
270.0
  0
ARC
  5
3D0A
  8
0
  6
BYBLOCK
 62
     0
 10
19459.959432999989
 20
14055.730913999991
 30
0.0
 40
15.0
 50
90.0
 51
270.0
  0
ARC
  5
3D0B
  8
0
  6
BYBLOCK
 62
     0
 10
19459.959432999989
 20
14055.730913999991
 30
0.0
 40
15.0
 50
270.0
 51
90.0
  0
ARC
  5
3D0C
  8
0
  6
BYBLOCK
 62
     0
 10
19459.959432999989
 20
15514.971425500011
 30
0.0
 40
15.0
 50
270.0
 51
90.0
  0
ARC
  5
3D0D
  8
0
  6
BYBLOCK
 62
     0
 10
19459.959432999989
 20
15514.971425500011
 30
0.0
 40
15.0
 50
90.0
 51
270.0
  0
ARC
  5
3D0E
  8
0
  6
BYBLOCK
 62
     0
 10
20389.41401
 20
13084.28283
 30
0.0
 40
15.0
 50
0.0
 51
180.0
  0
ARC
  5
3D0F
  8
0
  6
BYBLOCK
 62
     0
 10
20389.41401
 20
13084.28283
 30
0.0
 40
15.0
 50
180.0
 51
0.0
  0
ARC
  5
3D10
  8
0
  6
BYBLOCK
 62
     0
 10
20346.911767000001
 20
13084.28283
 30
0.0
 40
15.0
 50
180.0
 51
0.0
  0
ARC
  5
3D11
  8
0
  6
BYBLOCK
 62
     0
 10
20346.911767000001
 20
13084.28283
 30
0.0
 40
15.0
 50
0.0
 51
180.0
  0
ARC
  5
3D12
  8
0
  6
BYBLOCK
 62
     0
 10
24823.41401
 20
13084.28283
 30
0.0
 40
15.0
 50
180.0
 51
0.0
  0
ARC
  5
3D13
  8
0
  6
BYBLOCK
 62
     0
 10
24823.41401
 20
13084.28283
 30
0.0
 40
15.0
 50
0.0
 51
180.0
  0
ARC
  5
3D14
  8
0
  6
BYBLOCK
 62
     0
 10
24865.916252999989
 20
13084.28283
 30
0.0
 40
15.0
 50
0.0
 51
180.0
  0
ARC
  5
3D15
  8
0
  6
BYBLOCK
 62
     0
 10
24865.916252999989
 20
13084.28283
 30
0.0
 40
15.0
 50
180.0
 51
0.0
  0
ARC
  5
3D16
  8
0
  6
BYBLOCK
 62
     0
 10
24823.41401
 20
13084.28283
 30
0.0
 40
15.0
 50
0.0
 51
180.0
  0
ARC
  5
3D17
  8
0
  6
BYBLOCK
 62
     0
 10
24823.41401
 20
13084.28283
 30
0.0
 40
15.0
 50
180.0
 51
0.0
  0
ARC
  5
3D18
  8
0
  6
BYBLOCK
 62
     0
 10
24780.911767000001
 20
13084.28283
 30
0.0
 40
15.0
 50
180.0
 51
0.0
  0
ARC
  5
3D19
  8
0
  6
BYBLOCK
 62
     0
 10
24780.911767000001
 20
13084.28283
 30
0.0
 40
15.0
 50
0.0
 51
180.0
  0
ARC
  5
3D1A
  8
0
  6
BYBLOCK
 62
     0
 10
20389.41401
 20
13084.28283
 30
0.0
 40
15.0
 50
180.0
 51
0.0
  0
ARC
  5
3D1B
  8
0
  6
BYBLOCK
 62
     0
 10
20389.41401
 20
13084.28283
 30
0.0
 40
15.0
 50
0.0
 51
180.0
  0
ARC
  5
3D1C
  8
0
  6
BYBLOCK
 62
     0
 10
20431.916252999989
 20
13084.28283
 30
0.0
 40
15.0
 50
0.0
 51
180.0
  0
ARC
  5
3D1D
  8
0
  6
BYBLOCK
 62
     0
 10
20431.916252999989
 20
13084.28283
 30
0.0
 40
15.0
 50
180.0
 51
0.0
  0
ARC
  5
3D1E
  8
0
  6
BYBLOCK
 62
     0
 10
20346.911767000001
 20
12684.282829999989
 30
0.0
 40
15.0
 50
0.0
 51
180.0
  0
ARC
  5
3D1F
  8
0
  6
BYBLOCK
 62
     0
 10
20346.911767000001
 20
12684.282829999989
 30
0.0
 40
15.0
 50
180.0
 51
0.0
  0
ARC
  5
3D20
  8
0
  6
BYBLOCK
 62
     0
 10
24865.916252999989
 20
12684.282829999989
 30
0.0
 40
15.0
 50
180.0
 51
0.0
  0
ARC
  5
3D21
  8
0
  6
BYBLOCK
 62
     0
 10
24865.916252999989
 20
12684.282829999989
 30
0.0
 40
15.0
 50
0.0
 51
180.0
  0
ARC
  5
3D22
  8
0
  6
BYBLOCK
 62
     0
 10
25915.913614000001
 20
14813.730913999991
 30
0.0
 40
15.0
 50
270.0
 51
90.0
  0
ARC
  5
3D23
  8
0
  6
BYBLOCK
 62
     0
 10
25915.913614000001
 20
14813.730913999991
 30
0.0
 40
15.0
 50
90.0
 51
270.0
  0
ARC
  5
3D24
  8
0
  6
BYBLOCK
 62
     0
 10
25915.913614000001
 20
14055.730913999991
 30
0.0
 40
15.0
 50
90.0
 51
270.0
  0
ARC
  5
3D25
  8
0
  6
BYBLOCK
 62
     0
 10
25915.913614000001
 20
14055.730913999991
 30
0.0
 40
15.0
 50
270.0
 51
90.0
  0
ARC
  5
3D26
  8
0
  6
BYBLOCK
 62
     0
 10
25915.913614000001
 20
15514.971425500011
 30
0.0
 40
15.0
 50
270.0
 51
90.0
  0
ARC
  5
3D27
  8
0
  6
BYBLOCK
 62
     0
 10
25915.913614000001
 20
15514.971425500011
 30
0.0
 40
15.0
 50
90.0
 51
270.0
  0
ARC
  5
3D28
  8
0
  6
BYBLOCK
 62
     0
 10
25915.913614000001
 20
14813.730913999991
 30
0.0
 40
15.0
 50
90.0
 51
270.0
  0
ARC
  5
3D29
  8
0
  6
BYBLOCK
 62
     0
 10
25915.913614000001
 20
14813.730913999991
 30
0.0
 40
15.0
 50
270.0
 51
90.0
  0
ARC
  5
3D2A
  8
0
  6
BYBLOCK
 62
     0
 10
25915.913614000001
 20
16215.730913999991
 30
0.0
 40
15.0
 50
270.0
 51
90.0
  0
ARC
  5
3D2B
  8
0
  6
BYBLOCK
 62
     0
 10
25915.913614000001
 20
16215.730913999991
 30
0.0
 40
15.0
 50
90.0
 51
270.0
  0
ARC
  5
3D2C
  8
0
  6
BYBLOCK
 62
     0
 10
25915.913614000001
 20
15514.971425500011
 30
0.0
 40
15.0
 50
90.0
 51
270.0
  0
ARC
  5
3D2D
  8
0
  6
BYBLOCK
 62
     0
 10
25915.913614000001
 20
15514.971425500011
 30
0.0
 40
15.0
 50
270.0
 51
90.0
  0
ARC
  5
3D2E
  8
0
  6
BYBLOCK
 62
     0
 10
25915.913614000001
 20
16973.730914
 30
0.0
 40
15.0
 50
270.0
 51
90.0
  0
ARC
  5
3D2F
  8
0
  6
BYBLOCK
 62
     0
 10
25915.913614000001
 20
16973.730914
 30
0.0
 40
15.0
 50
90.0
 51
270.0
  0
ARC
  5
3D30
  8
0
  6
BYBLOCK
 62
     0
 10
25915.913614000001
 20
16215.730913999991
 30
0.0
 40
15.0
 50
90.0
 51
270.0
  0
ARC
  5
3D31
  8
0
  6
BYBLOCK
 62
     0
 10
25915.913614000001
 20
16215.730913999991
 30
0.0
 40
15.0
 50
270.0
 51
90.0
  0
ARC
  5
3D32
  8
0
  6
BYBLOCK
 62
     0
 10
25915.913614000001
 20
17731.730914
 30
0.0
 40
15.0
 50
270.0
 51
90.0
  0
ARC
  5
3D33
  8
0
  6
BYBLOCK
 62
     0
 10
25915.913614000001
 20
17731.730914
 30
0.0
 40
15.0
 50
90.0
 51
270.0
  0
ARC
  5
3D34
  8
0
  6
BYBLOCK
 62
     0
 10
25915.913614000001
 20
16973.730914
 30
0.0
 40
15.0
 50
90.0
 51
270.0
  0
ARC
  5
3D35
  8
0
  6
BYBLOCK
 62
     0
 10
25915.913614000001
 20
16973.730914
 30
0.0
 40
15.0
 50
270.0
 51
90.0
  0
ARC
  5
3D36
  8
0
  6
BYBLOCK
 62
     0
 10
25915.913614000001
 20
18432.730914
 30
0.0
 40
15.0
 50
270.0
 51
90.0
  0
ARC
  5
3D37
  8
0
  6
BYBLOCK
 62
     0
 10
25915.913614000001
 20
18432.730914
 30
0.0
 40
15.0
 50
90.0
 51
270.0
  0
ARC
  5
3D38
  8
0
  6
BYBLOCK
 62
     0
 10
25915.913614000001
 20
17731.730914
 30
0.0
 40
15.0
 50
90.0
 51
270.0
  0
ARC
  5
3D39
  8
0
  6
BYBLOCK
 62
     0
 10
25915.913614000001
 20
17731.730914
 30
0.0
 40
15.0
 50
270.0
 51
90.0
  0
ARC
  5
3D3A
  8
0
  6
BYBLOCK
 62
     0
 10
25915.913614000001
 20
19133.730914
 30
0.0
 40
15.0
 50
270.0
 51
90.0
  0
ARC
  5
3D3B
  8
0
  6
BYBLOCK
 62
     0
 10
25915.913614000001
 20
19133.730914
 30
0.0
 40
15.0
 50
90.0
 51
270.0
  0
ARC
  5
3D3C
  8
0
  6
BYBLOCK
 62
     0
 10
25915.913614000001
 20
18432.730914
 30
0.0
 40
15.0
 50
90.0
 51
270.0
  0
ARC
  5
3D3D
  8
0
  6
BYBLOCK
 62
     0
 10
25915.913614000001
 20
18432.730914
 30
0.0
 40
15.0
 50
270.0
 51
90.0
  0
ARC
  5
3D3E
  8
0
  6
BYBLOCK
 62
     0
 10
25915.913614000001
 20
19891.730914
 30
0.0
 40
15.0
 50
270.0
 51
90.0
  0
ARC
  5
3D3F
  8
0
  6
BYBLOCK
 62
     0
 10
25915.913614000001
 20
19891.730914
 30
0.0
 40
15.0
 50
90.0
 51
270.0
  0
ARC
  5
3D40
  8
0
  6
BYBLOCK
 62
     0
 10
25915.913614000001
 20
19133.730914
 30
0.0
 40
15.0
 50
90.0
 51
270.0
  0
ARC
  5
3D41
  8
0
  6
BYBLOCK
 62
     0
 10
25915.913614000001
 20
19133.730914
 30
0.0
 40
15.0
 50
270.0
 51
90.0
  0
ARC
  5
3D42
  8
0
  6
BYBLOCK
 62
     0
 10
26315.913614000001
 20
16973.730914
 30
0.0
 40
15.0
 50
90.0
 51
270.0
  0
ARC
  5
3D43
  8
0
  6
BYBLOCK
 62
     0
 10
26315.913614000001
 20
16973.730914
 30
0.0
 40
15.0
 50
270.0
 51
90.0
  0
ARC
  5
3D44
  8
0
  6
BYBLOCK
 62
     0
 10
26315.913614000001
 20
19891.730914
 30
0.0
 40
15.0
 50
270.0
 51
90.0
  0
ARC
  5
3D45
  8
0
  6
BYBLOCK
 62
     0
 10
26315.913614000001
 20
19891.730914
 30
0.0
 40
15.0
 50
90.0
 51
270.0
  0
ARC
  5
3D46
  8
0
  6
BYBLOCK
 62
     0
 10
26315.913614000001
 20
14055.730913999991
 30
0.0
 40
15.0
 50
90.0
 51
270.0
  0
ARC
  5
3D47
  8
0
  6
BYBLOCK
 62
     0
 10
26315.913614000001
 20
14055.730913999991
 30
0.0
 40
15.0
 50
270.0
 51
90.0
  0
ARC
  5
3D48
  8
0
  6
BYBLOCK
 62
     0
 10
26315.913614000001
 20
16973.730914
 30
0.0
 40
15.0
 50
270.0
 51
90.0
  0
ARC
  5
3D49
  8
0
  6
BYBLOCK
 62
     0
 10
26315.913614000001
 20
16973.730914
 30
0.0
 40
15.0
 50
90.0
 51
270.0
  0
ARC
  5
3D4A
  8
0
  6
BYBLOCK
 62
     0
 10
26715.913614000001
 20
19934.228209000001
 30
0.0
 40
15.0
 50
270.0
 51
90.0
  0
ARC
  5
3D4B
  8
0
  6
BYBLOCK
 62
     0
 10
26715.913614000001
 20
19934.228209000001
 30
0.0
 40
15.0
 50
90.0
 51
270.0
  0
ARC
  5
3D4C
  8
0
  6
BYBLOCK
 62
     0
 10
26715.913614000001
 20
14013.233619000001
 30
0.0
 40
15.0
 50
90.0
 51
270.0
  0
ARC
  5
3D4D
  8
0
  6
BYBLOCK
 62
     0
 10
26715.913614000001
 20
14013.233619000001
 30
0.0
 40
15.0
 50
270.0
 51
90.0
  0
ARC
  5
3D4E
  8
0
  6
BYBLOCK
 62
     0
 10
26315.913614000001
 20
19891.730914
 30
0.0
 40
15.0
 50
270.0
 51
90.0
  0
ARC
  5
3D4F
  8
0
  6
BYBLOCK
 62
     0
 10
26315.913614000001
 20
19891.730914
 30
0.0
 40
15.0
 50
90.0
 51
270.0
  0
ARC
  5
3D50
  8
0
  6
BYBLOCK
 62
     0
 10
26315.913614000001
 20
19934.228209000001
 30
0.0
 40
15.0
 50
90.0
 51
270.0
  0
ARC
  5
3D51
  8
0
  6
BYBLOCK
 62
     0
 10
26315.913614000001
 20
19934.228209000001
 30
0.0
 40
15.0
 50
270.0
 51
90.0
  0
ARC
  5
3D52
  8
0
  6
BYBLOCK
 62
     0
 10
26315.913614000001
 20
14055.730913999991
 30
0.0
 40
15.0
 50
90.0
 51
270.0
  0
ARC
  5
3D53
  8
0
  6
BYBLOCK
 62
     0
 10
26315.913614000001
 20
14055.730913999991
 30
0.0
 40
15.0
 50
270.0
 51
90.0
  0
ARC
  5
3D54
  8
0
  6
BYBLOCK
 62
     0
 10
26315.913614000001
 20
14013.233619000001
 30
0.0
 40
15.0
 50
270.0
 51
90.0
  0
ARC
  5
3D55
  8
0
  6
BYBLOCK
 62
     0
 10
26315.913614000001
 20
14013.233619000001
 30
0.0
 40
15.0
 50
90.0
 51
270.0
  0
ARC
  5
3D56
  8
0
  6
BYBLOCK
 62
     0
 10
22956.91401
 20
20664.232102000031
 30
0.0
 40
15.0
 50
0.0
 51
180.0
  0
ARC
  5
3D57
  8
0
  6
BYBLOCK
 62
     0
 10
22956.91401
 20
20664.232102000031
 30
0.0
 40
15.0
 50
180.0
 51
0.0
  0
ARC
  5
3D58
  8
0
  6
BYBLOCK
 62
     0
 10
23364.41401
 20
20664.232102000031
 30
0.0
 40
15.0
 50
180.0
 51
0.0
  0
ARC
  5
3D59
  8
0
  6
BYBLOCK
 62
     0
 10
23364.41401
 20
20664.232102000031
 30
0.0
 40
15.0
 50
0.0
 51
180.0
  0
ARC
  5
3D5A
  8
0
  6
BYBLOCK
 62
     0
 10
24065.41401
 20
20664.232102000031
 30
0.0
 40
15.0
 50
0.0
 51
180.0
  0
ARC
  5
3D5B
  8
0
  6
BYBLOCK
 62
     0
 10
24065.41401
 20
20664.232102000031
 30
0.0
 40
15.0
 50
180.0
 51
0.0
  0
ARC
  5
3D5C
  8
0
  6
BYBLOCK
 62
     0
 10
24823.414999500001
 20
20664.232102000031
 30
0.0
 40
15.0
 50
180.0
 51
0.0
  0
ARC
  5
3D5D
  8
0
  6
BYBLOCK
 62
     0
 10
24823.414999500001
 20
20664.232102000031
 30
0.0
 40
15.0
 50
0.0
 51
180.0
  0
ARC
  5
3D5E
  8
0
  6
BYBLOCK
 62
     0
 10
23364.41401
 20
20664.232102000031
 30
0.0
 40
15.0
 50
0.0
 51
180.0
  0
ARC
  5
3D5F
  8
0
  6
BYBLOCK
 62
     0
 10
23364.41401
 20
20664.232102000031
 30
0.0
 40
15.0
 50
180.0
 51
0.0
  0
ARC
  5
3D60
  8
0
  6
BYBLOCK
 62
     0
 10
24065.41401
 20
20664.232102000031
 30
0.0
 40
15.0
 50
180.0
 51
0.0
  0
ARC
  5
3D61
  8
0
  6
BYBLOCK
 62
     0
 10
24065.41401
 20
20664.232102000031
 30
0.0
 40
15.0
 50
0.0
 51
180.0
  0
ARC
  5
3D62
  8
0
  6
BYBLOCK
 62
     0
 10
24823.41401
 20
20664.232102000031
 30
0.0
 40
15.0
 50
180.0
 51
0.0
  0
ARC
  5
3D63
  8
0
  6
BYBLOCK
 62
     0
 10
24823.41401
 20
20664.232102000031
 30
0.0
 40
15.0
 50
0.0
 51
180.0
  0
ARC
  5
3D64
  8
0
  6
BYBLOCK
 62
     0
 10
24865.910315000001
 20
20664.232102000031
 30
0.0
 40
15.0
 50
0.0
 51
180.0
  0
ARC
  5
3D65
  8
0
  6
BYBLOCK
 62
     0
 10
24865.910315000001
 20
20664.232102000031
 30
0.0
 40
15.0
 50
180.0
 51
0.0
  0
ARC
  5
3D66
  8
0
  6
BYBLOCK
 62
     0
 10
20389.41401
 20
20664.232102000031
 30
0.0
 40
15.0
 50
0.0
 51
180.0
  0
ARC
  5
3D67
  8
0
  6
BYBLOCK
 62
     0
 10
20389.41401
 20
20664.232102000031
 30
0.0
 40
15.0
 50
180.0
 51
0.0
  0
ARC
  5
3D68
  8
0
  6
BYBLOCK
 62
     0
 10
20796.91401
 20
20664.232102000031
 30
0.0
 40
15.0
 50
180.0
 51
0.0
  0
ARC
  5
3D69
  8
0
  6
BYBLOCK
 62
     0
 10
20796.91401
 20
20664.232102000031
 30
0.0
 40
15.0
 50
0.0
 51
180.0
  0
ARC
  5
3D6A
  8
0
  6
BYBLOCK
 62
     0
 10
20389.41401
 20
20664.232102000031
 30
0.0
 40
15.0
 50
0.0
 51
180.0
  0
ARC
  5
3D6B
  8
0
  6
BYBLOCK
 62
     0
 10
20389.41401
 20
20664.232102000031
 30
0.0
 40
15.0
 50
180.0
 51
0.0
  0
ARC
  5
3D6C
  8
0
  6
BYBLOCK
 62
     0
 10
20346.917705
 20
20664.232102000031
 30
0.0
 40
15.0
 50
180.0
 51
0.0
  0
ARC
  5
3D6D
  8
0
  6
BYBLOCK
 62
     0
 10
20346.917705
 20
20664.232102000031
 30
0.0
 40
15.0
 50
0.0
 51
180.0
  0
ARC
  5
3D6E
  8
0
  6
BYBLOCK
 62
     0
 10
22198.91400999999
 20
20664.232102000031
 30
0.0
 40
15.0
 50
0.0
 51
180.0
  0
ARC
  5
3D6F
  8
0
  6
BYBLOCK
 62
     0
 10
22198.91400999999
 20
20664.232102000031
 30
0.0
 40
15.0
 50
180.0
 51
0.0
  0
ARC
  5
3D70
  8
0
  6
BYBLOCK
 62
     0
 10
22956.914999500012
 20
20664.232102000031
 30
0.0
 40
15.0
 50
180.0
 51
0.0
  0
ARC
  5
3D71
  8
0
  6
BYBLOCK
 62
     0
 10
22956.914999500012
 20
20664.232102000031
 30
0.0
 40
15.0
 50
0.0
 51
180.0
  0
ARC
  5
3D72
  8
0
  6
BYBLOCK
 62
     0
 10
21497.91401
 20
20664.232102000031
 30
0.0
 40
15.0
 50
0.0
 51
180.0
  0
ARC
  5
3D73
  8
0
  6
BYBLOCK
 62
     0
 10
21497.91401
 20
20664.232102000031
 30
0.0
 40
15.0
 50
180.0
 51
0.0
  0
ARC
  5
3D74
  8
0
  6
BYBLOCK
 62
     0
 10
22198.91400999999
 20
20664.232102000031
 30
0.0
 40
15.0
 50
180.0
 51
0.0
  0
ARC
  5
3D75
  8
0
  6
BYBLOCK
 62
     0
 10
22198.91400999999
 20
20664.232102000031
 30
0.0
 40
15.0
 50
0.0
 51
180.0
  0
ARC
  5
3D76
  8
0
  6
BYBLOCK
 62
     0
 10
20796.91401
 20
20664.232102000031
 30
0.0
 40
15.0
 50
0.0
 51
180.0
  0
ARC
  5
3D77
  8
0
  6
BYBLOCK
 62
     0
 10
20796.91401
 20
20664.232102000031
 30
0.0
 40
15.0
 50
180.0
 51
0.0
  0
ARC
  5
3D78
  8
0
  6
BYBLOCK
 62
     0
 10
21497.91401
 20
20664.232102000031
 30
0.0
 40
15.0
 50
180.0
 51
0.0
  0
ARC
  5
3D79
  8
0
  6
BYBLOCK
 62
     0
 10
21497.91401
 20
20664.232102000031
 30
0.0
 40
15.0
 50
0.0
 51
180.0
  0
ARC
  5
3D7A
  8
0
  6
BYBLOCK
 62
     0
 10
8812.6585459999988
 20
9904.3184379999984
 30
0.0
 40
15.0
 50
0.0
 51
180.0
  0
ARC
  5
3D7B
  8
0
  6
BYBLOCK
 62
     0
 10
8812.6585459999988
 20
9904.3184379999984
 30
0.0
 40
15.0
 50
180.0
 51
0.0
  0
ARC
  5
3D7C
  8
0
  6
BYBLOCK
 62
     0
 10
15063.658546000001
 20
9904.3184379999984
 30
0.0
 40
15.0
 50
180.0
 51
0.0
  0
ARC
  5
3D7D
  8
0
  6
BYBLOCK
 62
     0
 10
15063.658546000001
 20
9904.3184379999984
 30
0.0
 40
15.0
 50
0.0
 51
180.0
  0
ARC
  5
3D7E
  8
0
  6
BYBLOCK
 62
     0
 10
14913.659798999999
 20
9504.3200880000004
 30
0.0
 40
15.0
 50
180.0
 51
0.0
  0
ARC
  5
3D7F
  8
0
  6
BYBLOCK
 62
     0
 10
14913.659798999999
 20
9504.3200880000004
 30
0.0
 40
15.0
 50
0.0
 51
180.0
  0
ARC
  5
3D80
  8
0
  6
BYBLOCK
 62
     0
 10
15063.658546000001
 20
9504.3200880000004
 30
0.0
 40
15.0
 50
0.0
 51
180.0
  0
ARC
  5
3D81
  8
0
  6
BYBLOCK
 62
     0
 10
15063.658546000001
 20
9504.3200880000004
 30
0.0
 40
15.0
 50
180.0
 51
0.0
  0
ARC
  5
3D82
  8
0
  6
BYBLOCK
 62
     0
 10
8992.6572919999981
 20
9504.3200880000004
 30
0.0
 40
15.0
 50
0.0
 51
180.0
  0
ARC
  5
3D83
  8
0
  6
BYBLOCK
 62
     0
 10
8992.6572919999981
 20
9504.3200880000004
 30
0.0
 40
15.0
 50
180.0
 51
0.0
  0
ARC
  5
3D84
  8
0
  6
BYBLOCK
 62
     0
 10
14913.659798999999
 20
9504.3200880000004
 30
0.0
 40
15.0
 50
180.0
 51
0.0
  0
ARC
  5
3D85
  8
0
  6
BYBLOCK
 62
     0
 10
14913.659798999999
 20
9504.3200880000004
 30
0.0
 40
15.0
 50
0.0
 51
180.0
  0
ARC
  5
3D86
  8
0
  6
BYBLOCK
 62
     0
 10
8812.6585459999988
 20
9504.3200880000004
 30
0.0
 40
15.0
 50
0.0
 51
180.0
  0
ARC
  5
3D87
  8
0
  6
BYBLOCK
 62
     0
 10
8812.6585459999988
 20
9504.3200880000004
 30
0.0
 40
15.0
 50
180.0
 51
0.0
  0
ARC
  5
3D88
  8
0
  6
BYBLOCK
 62
     0
 10
8992.6572919999981
 20
9504.3200880000004
 30
0.0
 40
15.0
 50
180.0
 51
0.0
  0
ARC
  5
3D89
  8
0
  6
BYBLOCK
 62
     0
 10
8992.6572919999981
 20
9504.3200880000004
 30
0.0
 40
15.0
 50
0.0
 51
180.0
  0
ARC
  5
3D8A
  8
0
  6
BYBLOCK
 62
     0
 10
7902.6601279999977
 20
6356.319402000001
 30
0.0
 40
15.0
 50
90.0
 51
270.0
  0
ARC
  5
3D8B
  8
0
  6
BYBLOCK
 62
     0
 10
7902.6601279999977
 20
6356.319402000001
 30
0.0
 40
15.0
 50
270.0
 51
90.0
  0
ARC
  5
3D8C
  8
0
  6
BYBLOCK
 62
     0
 10
7902.6601279999977
 20
8512.819402000001
 30
0.0
 40
15.0
 50
270.0
 51
90.0
  0
ARC
  5
3D8D
  8
0
  6
BYBLOCK
 62
     0
 10
7902.6601279999977
 20
8512.819402000001
 30
0.0
 40
15.0
 50
90.0
 51
270.0
  0
ARC
  5
3D8E
  8
0
  6
BYBLOCK
 62
     0
 10
16003.65795099999
 20
6356.319402000001
 30
0.0
 40
15.0
 50
90.0
 51
270.0
  0
ARC
  5
3D8F
  8
0
  6
BYBLOCK
 62
     0
 10
16003.65795099999
 20
6356.319402000001
 30
0.0
 40
15.0
 50
270.0
 51
90.0
  0
ARC
  5
3D90
  8
0
  6
BYBLOCK
 62
     0
 10
16003.65795099999
 20
8704.8194019999955
 30
0.0
 40
15.0
 50
270.0
 51
90.0
  0
ARC
  5
3D91
  8
0
  6
BYBLOCK
 62
     0
 10
16003.65795099999
 20
8704.8194019999955
 30
0.0
 40
15.0
 50
90.0
 51
270.0
  0
ARC
  5
3D92
  8
0
  6
BYBLOCK
 62
     0
 10
8992.6585460000006
 20
4656.3192370000006
 30
0.0
 40
15.0
 50
0.0
 51
180.0
  0
ARC
  5
3D93
  8
0
  6
BYBLOCK
 62
     0
 10
8992.6585460000006
 20
4656.3192370000006
 30
0.0
 40
15.0
 50
180.0
 51
0.0
  0
ARC
  5
3D94
  8
0
  6
BYBLOCK
 62
     0
 10
14913.658546000001
 20
4656.3192370000006
 30
0.0
 40
15.0
 50
180.0
 51
0.0
  0
ARC
  5
3D95
  8
0
  6
BYBLOCK
 62
     0
 10
14913.658546000001
 20
4656.3192370000006
 30
0.0
 40
15.0
 50
0.0
 51
180.0
  0
ARC
  5
3D96
  8
0
  6
BYBLOCK
 62
     0
 10
14871.158546000001
 20
5056.3190720000021
 30
0.0
 40
15.0
 50
180.0
 51
0.0
  0
ARC
  5
3D97
  8
0
  6
BYBLOCK
 62
     0
 10
14871.158546000001
 20
5056.3190720000021
 30
0.0
 40
15.0
 50
0.0
 51
180.0
  0
ARC
  5
3D98
  8
0
  6
BYBLOCK
 62
     0
 10
14913.658546000001
 20
5056.3190720000021
 30
0.0
 40
15.0
 50
0.0
 51
180.0
  0
ARC
  5
3D99
  8
0
  6
BYBLOCK
 62
     0
 10
14913.658546000001
 20
5056.3190720000021
 30
0.0
 40
15.0
 50
180.0
 51
0.0
  0
ARC
  5
3D9A
  8
0
  6
BYBLOCK
 62
     0
 10
9035.1585460000006
 20
5056.3190720000021
 30
0.0
 40
15.0
 50
0.0
 51
180.0
  0
ARC
  5
3D9B
  8
0
  6
BYBLOCK
 62
     0
 10
9035.1585460000006
 20
5056.3190720000021
 30
0.0
 40
15.0
 50
180.0
 51
0.0
  0
ARC
  5
3D9C
  8
0
  6
BYBLOCK
 62
     0
 10
8992.6585460000006
 20
5056.3190720000021
 30
0.0
 40
15.0
 50
180.0
 51
0.0
  0
ARC
  5
3D9D
  8
0
  6
BYBLOCK
 62
     0
 10
8992.6585460000006
 20
5056.3190720000021
 30
0.0
 40
15.0
 50
0.0
 51
180.0
  0
ARC
  5
3D9E
  8
0
  6
BYBLOCK
 62
     0
 10
11953.158546000001
 20
5056.3190720000021
 30
0.0
 40
15.0
 50
180.0
 51
0.0
  0
ARC
  5
3D9F
  8
0
  6
BYBLOCK
 62
     0
 10
11953.158546000001
 20
5056.3190720000021
 30
0.0
 40
15.0
 50
0.0
 51
180.0
  0
ARC
  5
3DA0
  8
0
  6
BYBLOCK
 62
     0
 10
9035.1585460000006
 20
5056.3190720000021
 30
0.0
 40
15.0
 50
0.0
 51
180.0
  0
ARC
  5
3DA1
  8
0
  6
BYBLOCK
 62
     0
 10
9035.1585460000006
 20
5056.3190720000021
 30
0.0
 40
15.0
 50
180.0
 51
0.0
  0
ARC
  5
3DA2
  8
0
  6
BYBLOCK
 62
     0
 10
11953.158546000001
 20
5056.3190720000021
 30
0.0
 40
15.0
 50
0.0
 51
180.0
  0
ARC
  5
3DA3
  8
0
  6
BYBLOCK
 62
     0
 10
11953.158546000001
 20
5056.3190720000021
 30
0.0
 40
15.0
 50
180.0
 51
0.0
  0
ARC
  5
3DA4
  8
0
  6
BYBLOCK
 62
     0
 10
14871.158546000001
 20
5056.3190720000021
 30
0.0
 40
15.0
 50
180.0
 51
0.0
  0
ARC
  5
3DA5
  8
0
  6
BYBLOCK
 62
     0
 10
14871.158546000001
 20
5056.3190720000021
 30
0.0
 40
15.0
 50
0.0
 51
180.0
  0
LINE
  5
3ECC
  8
0-1
  6
CONTINUOUS
 62
     3
 10
24759.91699099998
 20
8454.8199169999989
 30
0.0
 11
24759.91699099998
 21
8486.8198239999983
 31
0.0
  0
LINE
  5
3ECD
  8
0-1
  6
CONTINUOUS
 62
     3
 10
24908.916383999989
 20
8378.6331950000003
 30
0.0
 11
24865.914272999969
 21
8378.6331950000003
 31
0.0
  0
LINE
  5
3ECE
  8
0-1
  6
CONTINUOUS
 62
     3
 10
24908.916383999989
 20
8704.8202460000011
 30
0.0
 11
24908.916383999989
 21
8378.6331950000003
 31
0.0
  0
LINE
  5
3ECF
  8
0-1
  6
CONTINUOUS
 62
     3
 10
24473.949798000001
 20
8451.2844959999966
 30
0.0
 11
24441.95088099999
 21
8483.2844039999982
 31
0.0
  0
LINE
  5
3ED0
  8
0-1
  6
CONTINUOUS
 62
     3
 10
24754.916726999971
 20
8491.8200880000004
 30
0.0
 11
24445.48630099999
 21
8491.8200880000004
 31
0.0
  0
LINE
  5
3ED1
  8
0-1
  6
CONTINUOUS
 62
     3
 10
24759.91699099998
 20
8483.4209910000027
 30
0.0
 11
24441.82023199998
 21
8483.4209910000027
 31
0.0
  0
LINE
  5
3ED2
  8
0-1
  6
CONTINUOUS
 62
     3
 10
24754.916726999971
 20
8449.8196530000005
 30
0.0
 11
24477.487197999981
 21
8449.8196530000005
 31
0.0
  0
LINE
  5
3ED3
  8
0-1
  6
CONTINUOUS
 62
     3
 10
24759.91699099998
 20
8458.2197400000023
 30
0.0
 11
24467.01554499998
 21
8458.2197400000023
 31
0.0
  0
LINE
  5
3ED4
  8
0-1
  6
CONTINUOUS
 62
     3
 10
24759.91699099998
 20
8466.6198269999968
 30
0.0
 11
24458.616446999989
 21
8466.6198269999968
 31
0.0
  0
LINE
  5
3ED5
  8
0-1
  6
CONTINUOUS
 62
     3
 10
24759.91699099998
 20
8475.0209039999972
 30
0.0
 11
24450.21537099998
 21
8475.0209039999972
 31
0.0
  0
LINE
  5
3ED6
  8
0-1
  6
CONTINUOUS
 62
     3
 10
23306.380199000021
 20
8451.2844959999966
 30
0.0
 11
23338.377137000021
 21
8483.2844039999982
 31
0.0
  0
LINE
  5
3ED7
  8
0-1
  6
CONTINUOUS
 62
     3
 10
23020.414985000021
 20
8454.8199169999989
 30
0.0
 11
23020.414985000021
 21
8486.8198239999983
 31
0.0
  0
LINE
  5
3ED8
  8
0-1
  6
CONTINUOUS
 62
     3
 10
23020.414985000021
 20
8458.2197400000023
 30
0.0
 11
23313.312473000002
 21
8458.2197400000023
 31
0.0
  0
LINE
  5
3ED9
  8
0-1
  6
CONTINUOUS
 62
     3
 10
23020.414985000021
 20
8466.6198269999968
 30
0.0
 11
23321.713550000011
 21
8466.6198269999968
 31
0.0
  0
LINE
  5
3EDA
  8
0-1
  6
CONTINUOUS
 62
     3
 10
23025.415249000001
 20
8449.8196530000005
 30
0.0
 11
23302.842798999998
 21
8449.8196530000005
 31
0.0
  0
LINE
  5
3EDB
  8
0-1
  6
CONTINUOUS
 62
     3
 10
23020.414985000021
 20
8475.0209039999972
 30
0.0
 11
23330.112647000009
 21
8475.0209039999972
 31
0.0
  0
LINE
  5
3EDC
  8
0-1
  6
CONTINUOUS
 62
     3
 10
23020.414985000021
 20
8483.4209910000027
 30
0.0
 11
23338.50976500001
 21
8483.4209910000027
 31
0.0
  0
LINE
  5
3EDD
  8
0-1
  6
CONTINUOUS
 62
     3
 10
23025.415249000001
 20
8491.8200880000004
 30
0.0
 11
23334.843696000022
 21
8491.8200880000004
 31
0.0
  0
LINE
  5
3EDE
  8
0-1
  6
CONTINUOUS
 62
     3
 10
24908.916384
 20
8574.8193229999979
 30
0.0
 11
22956.914009
 21
8574.8193229999979
 31
0.0
  0
LINE
  5
3EDF
  8
0-1
  6
CONTINUOUS
 62
     3
 10
22999.412293000001
 20
8500.8199690000038
 30
0.0
 11
24780.91572399998
 21
8500.8199690000038
 31
0.0
  0
LINE
  5
3EE0
  8
0-1
  6
CONTINUOUS
 62
     3
 10
22999.412293000001
 20
8440.8197709999986
 30
0.0
 11
24780.91572399998
 21
8440.8197709999986
 31
0.0
  0
LINE
  5
3EE1
  8
0-1
  6
CONTINUOUS
 62
     3
 10
22956.914009
 20
8704.8202460000011
 30
0.0
 11
24908.916384
 21
8704.8202460000011
 31
0.0
  0
LINE
  5
3EE2
  8
0-1
  6
CONTINUOUS
 62
     3
 10
22893.413033000001
 20
8454.8199169999989
 30
0.0
 11
22893.413033000001
 21
8486.8198239999983
 31
0.0
  0
LINE
  5
3EE3
  8
0-1
  6
CONTINUOUS
 62
     3
 10
22607.451777999981
 20
8451.2844959999966
 30
0.0
 11
22575.450881000001
 21
8483.2844039999982
 31
0.0
  0
LINE
  5
3EE4
  8
0-1
  6
CONTINUOUS
 62
     3
 10
22893.413033000001
 20
8483.4209910000027
 30
0.0
 11
22575.320232999969
 21
8483.4209910000027
 31
0.0
  0
LINE
  5
3EE5
  8
0-1
  6
CONTINUOUS
 62
     3
 10
22893.413033000001
 20
8475.0209039999972
 30
0.0
 11
22583.71537099998
 21
8475.0209039999972
 31
0.0
  0
LINE
  5
3EE6
  8
0-1
  6
CONTINUOUS
 62
     3
 10
22893.413033000001
 20
8466.6198269999968
 30
0.0
 11
22592.114467999989
 21
8466.6198269999968
 31
0.0
  0
LINE
  5
3EE7
  8
0-1
  6
CONTINUOUS
 62
     3
 10
22893.413033000001
 20
8458.2197400000023
 30
0.0
 11
22600.513565999969
 21
8458.2197400000023
 31
0.0
  0
LINE
  5
3EE8
  8
0-1
  6
CONTINUOUS
 62
     3
 10
22888.414747999981
 20
8491.8200880000004
 30
0.0
 11
22578.984321999989
 21
8491.8200880000004
 31
0.0
  0
LINE
  5
3EE9
  8
0-1
  6
CONTINUOUS
 62
     3
 10
22888.414747999981
 20
8449.8196530000005
 30
0.0
 11
22610.987198999981
 21
8449.8196530000005
 31
0.0
  0
LINE
  5
3EEA
  8
0-1
  6
CONTINUOUS
 62
     3
 10
20457.91326999999
 20
8449.8196530000005
 30
0.0
 11
20735.342799999959
 21
8449.8196530000005
 31
0.0
  0
LINE
  5
3EEB
  8
0-1
  6
CONTINUOUS
 62
     3
 10
20452.914985999989
 20
8454.8199169999989
 30
0.0
 11
20452.914985999989
 21
8486.8198239999983
 31
0.0
  0
LINE
  5
3EEC
  8
0-1
  6
CONTINUOUS
 62
     3
 10
20303.913613999968
 20
8378.6331950000003
 30
0.0
 11
20346.911766000001
 21
8378.6331950000003
 31
0.0
  0
LINE
  5
3EED
  8
0-1
  6
CONTINUOUS
 62
     3
 10
20303.913613999968
 20
8378.6331950000003
 30
0.0
 11
20303.913613999968
 21
8704.8202460000011
 31
0.0
  0
LINE
  5
3EEE
  8
0-1
  6
CONTINUOUS
 62
     3
 10
20457.91326999999
 20
8491.8200880000004
 30
0.0
 11
20767.343697
 21
8491.8200880000004
 31
0.0
  0
LINE
  5
3EEF
  8
0-1
  6
CONTINUOUS
 62
     3
 10
20738.876240000001
 20
8451.2844959999966
 30
0.0
 11
20770.877137999982
 21
8483.2844039999982
 31
0.0
  0
LINE
  5
3EF0
  8
0-1
  6
CONTINUOUS
 62
     3
 10
20452.914985999989
 20
8483.4209910000027
 30
0.0
 11
20771.009764999992
 21
8483.4209910000027
 31
0.0
  0
LINE
  5
3EF1
  8
0-1
  6
CONTINUOUS
 62
     3
 10
20452.914985999989
 20
8475.0209039999972
 30
0.0
 11
20762.612647999998
 21
8475.0209039999972
 31
0.0
  0
LINE
  5
3EF2
  8
0-1
  6
CONTINUOUS
 62
     3
 10
20452.914985999989
 20
8466.6198269999968
 30
0.0
 11
20754.21355
 21
8466.6198269999968
 31
0.0
  0
LINE
  5
3EF3
  8
0-1
  6
CONTINUOUS
 62
     3
 10
20452.914985999989
 20
8458.2197400000023
 30
0.0
 11
20745.814452999992
 21
8458.2197400000023
 31
0.0
  0
LINE
  5
3EF4
  8
0-1
  6
CONTINUOUS
 62
     3
 10
20431.912294000002
 20
8440.8197709999986
 30
0.0
 11
22914.41374499998
 21
8440.8197709999986
 31
0.0
  0
LINE
  5
3EF5
  8
0-1
  6
CONTINUOUS
 62
     3
 10
20431.912294000002
 20
8500.8199690000038
 30
0.0
 11
22914.41374499998
 21
8500.8199690000038
 31
0.0
  0
LINE
  5
3EF6
  8
0-1
  6
CONTINUOUS
 62
     3
 10
20303.913613999968
 20
8704.8202460000011
 30
0.0
 11
22956.914009
 21
8704.8202460000011
 31
0.0
  0
LINE
  5
3EF7
  8
0-1
  6
CONTINUOUS
 62
     3
 10
22956.914009
 20
8574.8193229999979
 30
0.0
 11
20303.913613999968
 21
8574.8193229999979
 31
0.0
  0
LINE
  5
3EF8
  8
0-1
  6
CONTINUOUS
 62
     3
 10
22956.914009
 20
8574.8193229999979
 30
0.0
 11
22956.914009
 21
8704.8202460000011
 31
0.0
  0
LINE
  5
3EF9
  8
0-1
  6
CONTINUOUS
 62
     3
 10
22956.914009
 20
8574.8193229999979
 30
0.0
 11
22956.914009
 21
8704.8202460000011
 31
0.0
  0
ARC
  5
3EFA
  8
0-1
  6
CONTINUOUS
 62
     3
 10
24754.916726999971
 20
8486.8198239999983
 30
0.0
 40
5.0
 50
0.0
 51
90.0
  0
ARC
  5
3EFB
  8
0-1
  6
CONTINUOUS
 62
     3
 10
24754.916726999971
 20
8454.8199169999989
 30
0.0
 40
5.0
 50
269.9999850001808
 51
0.0
  0
ARC
  5
3EFC
  8
0-1
  6
CONTINUOUS
 62
     3
 10
24445.48630099999
 20
8486.8198239999983
 30
0.0
 40
5.0
 50
90.0
 51
224.99998499997989
  0
ARC
  5
3EFD
  8
0-1
  6
CONTINUOUS
 62
     3
 10
24477.487197999981
 20
8454.8199169999989
 30
0.0
 40
5.0
 50
224.99998499997989
 51
269.9999850001808
  0
ARC
  5
3EFE
  8
0-1
  6
CONTINUOUS
 62
     3
 10
23334.843696000022
 20
8486.8198239999983
 30
0.0
 40
5.0
 50
314.99998500027471
 51
90.0
  0
ARC
  5
3EFF
  8
0-1
  6
CONTINUOUS
 62
     3
 10
23302.842798999998
 20
8454.8199169999989
 30
0.0
 40
5.0
 50
269.9999850001808
 51
314.99998500027471
  0
ARC
  5
3F00
  8
0-1
  6
CONTINUOUS
 62
     3
 10
23025.415249000001
 20
8454.8199169999989
 30
0.0
 40
5.0
 50
180.0
 51
269.9999850001808
  0
ARC
  5
3F01
  8
0-1
  6
CONTINUOUS
 62
     3
 10
23025.415249000001
 20
8486.8198239999983
 30
0.0
 40
5.0
 50
90.0
 51
180.0
  0
ARC
  5
3F02
  8
0-1
  6
CONTINUOUS
 62
     3
 10
22888.414747999981
 20
8454.8199169999989
 30
0.0
 40
5.0
 50
269.9999850001808
 51
0.0
  0
ARC
  5
3F03
  8
0-1
  6
CONTINUOUS
 62
     3
 10
22888.414747999981
 20
8486.8198239999983
 30
0.0
 40
5.0
 50
0.0
 51
90.0
  0
ARC
  5
3F04
  8
0-1
  6
CONTINUOUS
 62
     3
 10
22578.984321999989
 20
8486.8198239999983
 30
0.0
 40
5.0
 50
90.0
 51
224.99998499997989
  0
ARC
  5
3F05
  8
0-1
  6
CONTINUOUS
 62
     3
 10
22610.987198999981
 20
8454.8199169999989
 30
0.0
 40
5.0
 50
224.99998499997989
 51
269.9999850001808
  0
ARC
  5
3F06
  8
0-1
  6
CONTINUOUS
 62
     3
 10
20767.343697
 20
8486.8198239999983
 30
0.0
 40
5.0
 50
314.99998500027471
 51
90.0
  0
ARC
  5
3F07
  8
0-1
  6
CONTINUOUS
 62
     3
 10
20457.91326999999
 20
8486.8198239999983
 30
0.0
 40
5.0
 50
90.0
 51
180.0
  0
ARC
  5
3F08
  8
0-1
  6
CONTINUOUS
 62
     3
 10
20457.91326999999
 20
8454.8199169999989
 30
0.0
 40
5.0
 50
180.0
 51
269.9999850001808
  0
ARC
  5
3F09
  8
0-1
  6
CONTINUOUS
 62
     3
 10
20735.342799999959
 20
8454.8199169999989
 30
0.0
 40
5.0
 50
269.9999850001808
 51
314.99998500027471
  0
LINE
  5
3F0A
  8
SUNPOU
  6
CONTINUOUS
 62
     4
 10
20303.911633999971
 20
8784.8202460000011
 30
0.0
 11
20303.911633999971
 21
9984.2778579999995
 31
0.0
  0
LINE
  5
3F0B
  8
SUNPOU
  6
CONTINUOUS
 62
     4
 10
24908.916383999989
 20
8784.8202460000011
 30
0.0
 11
24908.916383999989
 21
9984.2778579999995
 31
0.0
  0
LINE
  5
3F0C
  8
SUNPOU
  6
CONTINUOUS
 62
     4
 10
20306.911633999971
 20
9904.2778579999995
 30
0.0
 11
24905.916383999989
 21
9904.2778579999995
 31
0.0
  0
LINE
  5
3F0D
  8
SUNPOU
  6
CONTINUOUS
 62
     4
 10
20346.913744999969
 20
8784.8202460000011
 30
0.0
 11
20346.913744999969
 21
9584.3200880000004
 31
0.0
  0
LINE
  5
3F0E
  8
SUNPOU
  6
CONTINUOUS
 62
     4
 10
24865.914272999969
 20
8784.8202460000011
 30
0.0
 11
24865.914272999969
 21
9584.3200880000004
 31
0.0
  0
LINE
  5
3F0F
  8
SUNPOU
  6
CONTINUOUS
 62
     4
 10
20346.913744999969
 20
9504.3200880000004
 30
0.0
 11
24865.914272999969
 21
9504.3200880000004
 31
0.0
  0
LINE
  5
3F10
  8
SUNPOU
  6
CONTINUOUS
 62
     4
 10
20346.913744999969
 20
8784.8202460000011
 30
0.0
 11
20346.913744999969
 21
9584.3200880000004
 31
0.0
  0
LINE
  5
3F11
  8
SUNPOU
  6
CONTINUOUS
 62
     4
 10
20303.911633999971
 20
8784.8202460000011
 30
0.0
 11
20303.911633999971
 21
9584.3200880000004
 31
0.0
  0
LINE
  5
3F12
  8
SUNPOU
  6
CONTINUOUS
 62
     4
 10
20346.913744999969
 20
9504.3200880000004
 30
0.0
 11
20586.913744999969
 21
9504.3200880000004
 31
0.0
  0
LINE
  5
3F13
  8
SUNPOU
  6
CONTINUOUS
 62
     4
 10
20306.911633999971
 20
9504.3200880000004
 30
0.0
 11
20066.911633999989
 21
9504.3200880000004
 31
0.0
  0
LINE
  5
3F14
  8
SUNPOU
  6
CONTINUOUS
 62
     4
 10
20346.913744999969
 20
9504.3200880000004
 30
0.0
 11
20306.911633999971
 21
9504.3200880000004
 31
0.0
  0
LINE
  5
3F15
  8
SUNPOU
  6
CONTINUOUS
 62
     4
 10
24865.914272999969
 20
8784.8202460000011
 30
0.0
 11
24865.914272999969
 21
9584.3200880000004
 31
0.0
  0
LINE
  5
3F16
  8
SUNPOU
  6
CONTINUOUS
 62
     4
 10
24908.916383999989
 20
8784.8202460000011
 30
0.0
 11
24908.916383999989
 21
9584.3200880000004
 31
0.0
  0
LINE
  5
3F17
  8
SUNPOU
  6
CONTINUOUS
 62
     4
 10
24865.914272999969
 20
9504.3200880000004
 30
0.0
 11
24625.914272999969
 21
9504.3200880000004
 31
0.0
  0
LINE
  5
3F18
  8
SUNPOU
  6
CONTINUOUS
 62
     4
 10
24905.916383999989
 20
9504.3200880000004
 30
0.0
 11
25145.916383999989
 21
9504.3200880000004
 31
0.0
  0
LINE
  5
3F19
  8
SUNPOU
  6
CONTINUOUS
 62
     4
 10
24865.914272999969
 20
9504.3200880000004
 30
0.0
 11
24905.916383999989
 21
9504.3200880000004
 31
0.0
  0
TEXT
  5
3F1A
  8
0
  6
CONTINUOUS
 62
     7
 10
25025.916383999989
 20
9584.3200880000004
 30
0.0
 40
160.0
  1
43
  0
TEXT
  5
3F1B
  8
0
  6
CONTINUOUS
 62
     7
 10
19946.911633999989
 20
9584.3200880000004
 30
0.0
 40
160.0
  1
43
  0
TEXT
  5
3F1C
  8
0
  6
CONTINUOUS
 62
     7
 10
22339.747342333321
 20
9584.3200880000004
 30
0.0
 40
160.0
  1
4519
  0
TEXT
  5
3F1D
  8
0
  6
CONTINUOUS
 62
     7
 10
22313.080675666661
 20
9984.2778579999995
 30
0.0
 40
160.0
  1
4605
  0
ARC
  5
3F1E
  8
0
  6
BYBLOCK
 62
     0
 10
20303.911633999971
 20
9904.2778579999995
 30
0.0
 40
15.0
 50
0.0
 51
180.0
  0
ARC
  5
3F1F
  8
0
  6
BYBLOCK
 62
     0
 10
20303.911633999971
 20
9904.2778579999995
 30
0.0
 40
15.0
 50
180.0
 51
0.0
  0
ARC
  5
3F20
  8
0
  6
BYBLOCK
 62
     0
 10
24908.916383999989
 20
9904.2778579999995
 30
0.0
 40
15.0
 50
180.0
 51
0.0
  0
ARC
  5
3F21
  8
0
  6
BYBLOCK
 62
     0
 10
24908.916383999989
 20
9904.2778579999995
 30
0.0
 40
15.0
 50
0.0
 51
180.0
  0
ARC
  5
3F22
  8
0
  6
BYBLOCK
 62
     0
 10
20346.913744999969
 20
9504.3200880000004
 30
0.0
 40
15.0
 50
0.0
 51
180.0
  0
ARC
  5
3F23
  8
0
  6
BYBLOCK
 62
     0
 10
20346.913744999969
 20
9504.3200880000004
 30
0.0
 40
15.0
 50
180.0
 51
0.0
  0
ARC
  5
3F24
  8
0
  6
BYBLOCK
 62
     0
 10
24865.914272999969
 20
9504.3200880000004
 30
0.0
 40
15.0
 50
180.0
 51
0.0
  0
ARC
  5
3F25
  8
0
  6
BYBLOCK
 62
     0
 10
24865.914272999969
 20
9504.3200880000004
 30
0.0
 40
15.0
 50
0.0
 51
180.0
  0
ARC
  5
3F26
  8
0
  6
BYBLOCK
 62
     0
 10
20346.913744999969
 20
9504.3200880000004
 30
0.0
 40
15.0
 50
0.0
 51
180.0
  0
ARC
  5
3F27
  8
0
  6
BYBLOCK
 62
     0
 10
20346.913744999969
 20
9504.3200880000004
 30
0.0
 40
15.0
 50
180.0
 51
0.0
  0
ARC
  5
3F28
  8
0
  6
BYBLOCK
 62
     0
 10
20303.911633999971
 20
9504.3200880000004
 30
0.0
 40
15.0
 50
180.0
 51
0.0
  0
ARC
  5
3F29
  8
0
  6
BYBLOCK
 62
     0
 10
20303.911633999971
 20
9504.3200880000004
 30
0.0
 40
15.0
 50
0.0
 51
180.0
  0
ARC
  5
3F2A
  8
0
  6
BYBLOCK
 62
     0
 10
24865.914272999969
 20
9504.3200880000004
 30
0.0
 40
15.0
 50
180.0
 51
0.0
  0
ARC
  5
3F2B
  8
0
  6
BYBLOCK
 62
     0
 10
24865.914272999969
 20
9504.3200880000004
 30
0.0
 40
15.0
 50
0.0
 51
180.0
  0
ARC
  5
3F2C
  8
0
  6
BYBLOCK
 62
     0
 10
24908.916383999989
 20
9504.3200880000004
 30
0.0
 40
15.0
 50
0.0
 51
180.0
  0
ARC
  5
3F2D
  8
0
  6
BYBLOCK
 62
     0
 10
24908.916383999989
 20
9504.3200880000004
 30
0.0
 40
15.0
 50
180.0
 51
0.0
  0
LINE
  5
3F73
  8
SUNPOU
  6
CONTINUOUS
 62
     4
 10
10008.457270000001
 20
13786.230651
 30
0.0
 11
10008.457270000001
 21
12607.283820000001
 31
0.0
  0
LINE
  5
3F74
  8
SUNPOU
  6
CONTINUOUS
 62
     4
 10
14613.456082000001
 20
13783.230651
 30
0.0
 11
14613.456082000001
 21
12604.283820000001
 31
0.0
  0
LINE
  5
3F75
  8
SUNPOU
  6
CONTINUOUS
 62
     4
 10
10011.457270000001
 20
12684.283820000001
 30
0.0
 11
14610.456082000001
 21
12684.283820000001
 31
0.0
  0
TEXT
  5
3F76
  8
0
  6
CONTINUOUS
 62
     7
 10
11494.956675999991
 20
12764.283820000001
 30
0.0
 40
160.0
  1
ケラバ外寸 4605
  0
ARC
  5
3F77
  8
0
  6
BYBLOCK
 62
     0
 10
10008.457270000001
 20
12687.283820000001
 30
0.0
 40
15.0
 50
0.0
 51
180.0
  0
ARC
  5
3F78
  8
0
  6
BYBLOCK
 62
     0
 10
10008.457270000001
 20
12687.283820000001
 30
0.0
 40
15.0
 50
180.0
 51
0.0
  0
ARC
  5
3F79
  8
0
  6
BYBLOCK
 62
     0
 10
14613.456082000001
 20
12684.283820000001
 30
0.0
 40
15.0
 50
180.0
 51
0.0
  0
ARC
  5
3F7A
  8
0
  6
BYBLOCK
 62
     0
 10
14613.456082000001
 20
12684.283820000001
 30
0.0
 40
15.0
 50
0.0
 51
180.0
  0
TEXT
  5
3FCD
  8
NAME
 10
25530.092913773478
 20
1076.0
 30
0.0
 40
360.0
  1
型（単棟）
 41
0.6
  7
01
  0
TEXT
  5
3FCE
  8
NAME
 10
21583.547829600891
 20
1076.6369801169251
 30
0.0
 40
360.0
  1
VGCU-2659（H）+1959（H）
 41
0.5200000000000001
  0
TEXT
  5
3FD0
  8
NAME
 10
21933.552716388989
 20
1876.0
 30
0.0
 40
360.0
  1
ヨドガレージ ラヴィージュ
 41
0.75
  7
01
  0
LINE
  5
3FD1
  8
NAME
  6
CONTINUOUS
 10
26067.886878884288
 20
2236.0
 30
0.0
 11
26067.886878884288
 21
1876.0
 31
0.0
  0
LINE
  5
3FD2
  8
NAME
  6
CONTINUOUS
 10
26167.886878884288
 20
2236.0
 30
0.0
 11
26167.886878884288
 21
1876.0
 31
0.0
  0
LINE
  5
3FD3
  8
NAME
  6
CONTINUOUS
 10
26267.88687888431
 20
2236.0
 30
0.0
 11
26267.88687888431
 21
1876.0
 31
0.0
  0
LINE
  5
3FD4
  8
NAME
  6
CONTINUOUS
 10
26007.886878884288
 20
2236.0
 30
0.0
 11
26327.886878884288
 21
2236.0
 31
0.0
  0
LINE
  5
3FD5
  8
NAME
  6
CONTINUOUS
 10
26327.886878884288
 20
1876.0
 30
0.0
 11
26007.886878884288
 21
1876.0
 31
0.0
  0
TEXT
  5
406F
  8
FILENAME
  6
CONTINUOUS
 10
27537.333333333339
 20
348.0
 30
0.0
 40
200.0
  1
＜VGCU-2659+1959-1-A_0.DXF ＞
  7
FILENAME
 72
     2
 11
32764.0
 21
348.0
 31
0.0
  0
LINE
  5
4075
  8
WAKUSEN-01
 10
868.00000000000193
 20
827.99999999999955
 30
0.0
 11
32764.000000000011
 21
827.99999999999943
 31
0.0
  0
LINE
  5
4076
  8
WAKUSEN-01
 10
868.00000000000193
 20
827.99999999999955
 30
0.0
 11
868.00000000000193
 21
22484.000000000011
 31
0.0
  0
LINE
  5
4077
  8
WAKUSEN-01
 10
32764.000000000011
 20
827.99999999999943
 30
0.0
 11
32764.000000000011
 21
22484.000000000011
 31
0.0
  0
LINE
  5
4078
  8
WAKUSEN-01
 10
20560.0
 20
827.99999999999716
 30
0.0
 11
20560.0
 21
2484.0
 31
0.0
  0
LINE
  5
4079
  8
WAKUSEN-02
 10
26868.0
 20
827.99999999999261
 30
0.0
 11
26868.0
 21
2484.0
 31
0.0
  0
ENDSEC
  0
EOF
