  0
SECTION
  2
HEADER
  9
$ACADVER
  1
AC1009
  9
$INSBASE
 10
0.0
 20
0.0
 30
0.0
  9
$EXTMIN
 10
867.99324330406671
 20
327.38164749855792
 30
-0.000000000000013
  9
$EXTMAX
 10
32765.33210850941
 20
22484.553276491992
 30
0.0000000000000023
  9
$LIMMIN
 10
0.0
 20
0.0
  9
$LIMMAX
 10
33600.0
 20
23760.0
  9
$ORTHOMODE
 70
     1
  9
$REGENMODE
 70
     1
  9
$FILLMODE
 70
     1
  9
$QTEXTMODE
 70
     0
  9
$MIRRTEXT
 70
     1
  9
$DRAGMODE
 70
     2
  9
$LTSCALE
 40
80.0
  9
$OSMODE
 70
  3071
  9
$ATTMODE
 70
     1
  9
$TEXTSIZE
 40
0.2
  9
$TRACEWID
 40
0.05
  9
$TEXTSTYLE
  7
00
  9
$CLAYER
  8
0
  9
$CELTYPE
  6
BYLAYER
  9
$CECOLOR
 62
   256
  9
$DIMSCALE
 40
80.0
  9
$DIMASZ
 40
3.0
  9
$DIMEXO
 40
1.0
  9
$DIMDLI
 40
0.38
  9
$DIMRND
 40
0.5
  9
$DIMDLE
 40
0.0
  9
$DIMEXE
 40
1.0
  9
$DIMTP
 40
0.0
  9
$DIMTM
 40
0.0
  9
$DIMTXT
 40
2.0
  9
$DIMCEN
 40
0.09
  9
$DIMTSZ
 40
0.0
  9
$DIMTOL
 70
     0
  9
$DIMLIM
 70
     0
  9
$DIMTIH
 70
     0
  9
$DIMTOH
 70
     0
  9
$DIMSE1
 70
     0
  9
$DIMSE2
 70
     0
  9
$DIMTAD
 70
     1
  9
$DIMZIN
 70
     8
  9
$DIMBLK
  1
DOTSMALL
  9
$DIMASO
 70
     1
  9
$DIMSHO
 70
     1
  9
$DIMPOST
  1

  9
$DIMAPOST
  1

  9
$DIMALT
 70
     0
  9
$DIMALTD
 70
     2
  9
$DIMALTF
 40
25.399999999999999
  9
$DIMLFAC
 40
1.0
  9
$DIMTOFL
 70
     1
  9
$DIMTVP
 40
0.0
  9
$DIMTIX
 70
     0
  9
$DIMSOXD
 70
     0
  9
$DIMSAH
 70
     0
  9
$DIMBLK1
  1

  9
$DIMBLK2
  1

  9
$DIMSTYLE
  2
SUNPOU
  9
$DIMCLRD
 70
     4
  9
$DIMCLRE
 70
     4
  9
$DIMCLRT
 70
     7
  9
$DIMTFAC
 40
1.0
  9
$DIMGAP
 40
1.0
  9
$LUNITS
 70
     2
  9
$LUPREC
 70
     4
  9
$SKETCHINC
 40
0.1
  9
$FILLETRAD
 40
0.0
  9
$AUNITS
 70
     0
  9
$AUPREC
 70
     0
  9
$MENU
  1
acad
  9
$ELEVATION
 40
0.0
  9
$PELEVATION
 40
0.0
  9
$THICKNESS
 40
0.0
  9
$LIMCHECK
 70
     0
  9
$BLIPMODE
 70
     1
  9
$CHAMFERA
 40
0.0
  9
$CHAMFERB
 40
0.0
  9
$SKPOLY
 70
     0
  9
$TDCREATE
 40
2311940.0750523382
  9
$TDUPDATE
 40
2458942.4347626618
  9
$TDINDWG
 40
0.057236713
  9
$TDUSRTIMER
 40
0.0572357986
  9
$USRTIMER
 70
     1
  9
$ANGBASE
 50
0.0
  9
$ANGDIR
 70
     0
  9
$PDMODE
 70
     0
  9
$PDSIZE
 40
0.0
  9
$PLINEWID
 40
0.0
  9
$COORDS
 70
     1
  9
$SPLFRAME
 70
     0
  9
$SPLINETYPE
 70
     6
  9
$SPLINESEGS
 70
     8
  9
$ATTDIA
 70
     1
  9
$ATTREQ
 70
     1
  9
$HANDLING
 70
     1
  9
$HANDSEED
  5
6963
  9
$SURFTAB1
 70
     6
  9
$SURFTAB2
 70
     6
  9
$SURFTYPE
 70
     6
  9
$SURFU
 70
     6
  9
$SURFV
 70
     6
  9
$UCSNAME
  2

  9
$UCSORG
 10
0.0
 20
0.0
 30
0.0
  9
$UCSXDIR
 10
1.0
 20
0.0
 30
0.0
  9
$UCSYDIR
 10
0.0
 20
1.0
 30
0.0
  9
$PUCSNAME
  2

  9
$PUCSORG
 10
0.0
 20
0.0
 30
0.0
  9
$PUCSXDIR
 10
1.0
 20
0.0
 30
0.0
  9
$PUCSYDIR
 10
0.0
 20
1.0
 30
0.0
  9
$USERI1
 70
     0
  9
$USERI2
 70
     0
  9
$USERI3
 70
     0
  9
$USERI4
 70
     0
  9
$USERI5
 70
     0
  9
$USERR1
 40
0.0
  9
$USERR2
 40
0.0
  9
$USERR3
 40
0.0
  9
$USERR4
 40
0.0
  9
$USERR5
 40
0.0
  9
$WORLDVIEW
 70
     1
  9
$SHADEDGE
 70
     3
  9
$SHADEDIF
 70
    70
  9
$TILEMODE
 70
     1
  9
$MAXACTVP
 70
    16
  9
$PLIMCHECK
 70
     0
  9
$PEXTMIN
 10
1.0000000000000000E+020
 20
1.0000000000000000E+020
 30
1.0000000000000000E+020
  9
$PEXTMAX
 10
-1.0000000000000000E+020
 20
-1.0000000000000000E+020
 30
-1.0000000000000000E+020
  9
$PLIMMIN
 10
0.0
 20
0.0
  9
$PLIMMAX
 10
12.0
 20
9.0
  9
$UNITMODE
 70
     0
  9
$VISRETAIN
 70
     0
  9
$PLINEGEN
 70
     1
  9
$PSLTSCALE
 70
     0
  0
ENDSEC
  0
SECTION
  2
TABLES
  0
TABLE
  2
VPORT
 70
     1
  0
VPORT
  2
*ACTIVE
 70
     0
 10
0.0
 20
0.0
 11
1.0
 21
1.0
 12
16800.0
 22
11880.0
 13
0.0
 23
0.0
 14
1.0
 24
1.0
 15
0.0
 25
0.0
 16
0.0
 26
0.0
 36
1.0
 17
0.0
 27
0.0
 37
0.0
 40
23981.023255813951
 41
2.195652173913043
 42
50.0
 43
0.0
 44
0.0
 50
0.0
 51
0.0
 71
     0
 72
 10000
 73
     1
 74
     1
 75
     0
 76
     0
 77
     0
 78
     0
  0
ENDTAB
  0
TABLE
  2
LTYPE
 70
     3
  0
LTYPE
  2
CONTINUOUS
 70
     0
  3
Solid line
 72
    65
 73
     0
 40
0.0
  0
LTYPE
  2
DASHED3
 70
     0
  3
------  ------  ------  ------  
 72
    65
 73
     2
 40
5.0
 49
3.75
 49
-1.25
  0
LTYPE
  2
CENTER2
 70
     0
  3
----------  --  ----------  --  
 72
    65
 73
     4
 40
20.0
 49
12.5
 49
-2.5
 49
2.5
 49
-2.5
  0
ENDTAB
  0
TABLE
  2
LAYER
 70
    18
  0
LAYER
  2
0
 70
     0
 62
     7
  6
CONTINUOUS
  0
LAYER
  2
SUNPOU
 70
     0
 62
     4
  6
CONTINUOUS
  0
LAYER
  2
0-1
 70
     0
 62
     7
  6
CONTINUOUS
  0
LAYER
  2
0-2
 70
     0
 62
     7
  6
CONTINUOUS
  0
LAYER
  2
0-5
 70
     0
 62
     7
  6
CONTINUOUS
  0
LAYER
  2
0-0
 70
     0
 62
     7
  6
CONTINUOUS
  0
LAYER
  2
2-0
 70
     0
 62
     7
  6
CONTINUOUS
  0
LAYER
  2
0-3
 70
     0
 62
     7
  6
CONTINUOUS
  0
LAYER
  2
YODOROGO
 70
     0
 62
   130
  6
CONTINUOUS
  0
LAYER
  2
WAKUSEN-01
 70
     0
 62
    50
  6
CONTINUOUS
  0
LAYER
  2
WAKUSEN-02
 70
     0
 62
   130
  6
CONTINUOUS
  0
LAYER
  2
WAKUMOJI-01
 70
     0
 62
   130
  6
CONTINUOUS
  0
LAYER
  2
FILENAME
 70
     0
 62
     7
  6
CONTINUOUS
  0
LAYER
  2
NAME
 70
     0
 62
    20
  6
CONTINUOUS
  0
LAYER
  2
0-4
 70
     0
 62
     7
  6
CONTINUOUS
  0
LAYER
  2
0-6
 70
     0
 62
     7
  6
CONTINUOUS
  0
ENDTAB
  0
TABLE
  2
STYLE
 70
     5
  0
STYLE
  2
STANDARD
 70
     0
 40
0.0
 41
1.0
 50
0.0
 71
     0
 42
0.0
  3
txt
  4
BIGFONT
  0
STYLE
  2
00
 70
     0
 40
0.0
 41
0.6666666666666666
 50
0.0
 71
     0
 42
0.2
  3
ROMANS
  4
BIGFONT
  0
STYLE
  2
01
 70
     0
 40
3.0
 41
1.0
 50
0.0
 71
     0
 42
0.2
  3
ROMANS
  4
BIGFONT
  0
STYLE
  2
WAKUMOJI
 70
     0
 40
3.0
 41
1.0
 50
0.0
 71
     0
 42
3.0
  3
SIMPLEX
  4
BIGFONT
  0
STYLE
  2
FILENAME
 70
     0
 40
200.0
 41
1.0
 50
0.0
 71
     0
 42
200.0
  3
romans
  4
bigfont
  0
ENDTAB
  0
TABLE
  2
VIEW
 70
     0
  0
ENDTAB
  0
TABLE
  2
UCS
 70
     0
  0
ENDTAB
  0
TABLE
  2
APPID
 70
    13
  0
APPID
  2
ACAD
 70
     0
  0
APPID
  2
ACADANNOTATIVE
 70
     0
  0
APPID
  2
ACAD_PSEXT
 70
     0
  0
APPID
  2
DCO15
 70
     0
  0
APPID
  2
ACAD_MLEADERVER
 70
     0
  0
APPID
  2
AUTOCAD_POSTSCRIPT_FIGURE
 70
     0
  0
APPID
  2
ACAD_EXEMPT_FROM_CAD_STANDARDS
 70
     0
  0
APPID
  2
ACAD_DSTYLE_DIMJAG
 70
     0
  0
APPID
  2
ACAD_DSTYLE_DIMTALN
 70
     0
  0
APPID
  2
ACAD_DSTYLE_DIM_LINETYPE
 70
     0
  0
APPID
  2
ACAD_DSTYLE_DIM_EXT1_LINETYPE
 70
     0
  0
APPID
  2
ACAD_DSTYLE_DIM_EXT2_LINETYPE
 70
     0
  0
APPID
  2
ACAD_NAV_VCDISPLAY
 70
     0
  0
ENDTAB
  0
TABLE
  2
DIMSTYLE
 70
     2
  0
DIMSTYLE
  2
SUNPOU
 70
     0
  3

  4

  5

  6

  7

 40
80.0
 41
3.0
 42
1.0
 43
0.38
 44
1.0
 45
0.5
 46
0.0
 47
0.0
 48
0.0
140
2.0
141
0.09
142
0.0
143
25.399999999999999
144
1.0
145
0.0
146
1.0
147
1.0
 71
     0
 72
     0
 73
     0
 74
     0
 75
     0
 76
     0
 77
     1
 78
     8
170
     0
171
     2
172
     1
173
     0
174
     0
175
     0
176
     4
177
     4
178
     7
  0
ENDTAB
  0
ENDSEC
  0
SECTION
  2
BLOCKS
  0
BLOCK
  8
0
  2
$MODEL_SPACE
 70
     0
 10
0.0
 20
0.0
 30
0.0
  3
$MODEL_SPACE
  1

  0
ENDBLK
  5
5B9C
  8
0
  0
BLOCK
 67
     1
  8
0
  2
$PAPER_SPACE
 70
     0
 10
0.0
 20
0.0
 30
0.0
  3
$PAPER_SPACE
  1

  0
ENDBLK
  5
5B98
 67
     1
  8
0
  0
BLOCK
  8
0
  2
_DOTSMALL
 70
     0
 10
0.0
 20
0.0
 30
0.0
  3
_DOTSMALL
  1

  0
POLYLINE
  5
5BCC
  8
0
  6
BYBLOCK
 62
     0
 66
     1
 10
0.0
 20
0.0
 30
0.0
 70
     1
 40
0.5
 41
0.5
  0
VERTEX
  5
692B
  8
0
  6
BYBLOCK
 62
     0
 10
-0.0625
 20
0.0
 30
0.0
 42
1.0
  0
VERTEX
  5
692C
  8
0
  6
BYBLOCK
 62
     0
 10
0.0625
 20
0.0
 30
0.0
 42
1.0
  0
SEQEND
  5
692D
  8
0
  6
BYBLOCK
 62
     0
  0
ENDBLK
  5
5BD0
  8
0
  0
ENDSEC
  0
SECTION
  2
ENTITIES
  0
LINE
  5
5BD1
  8
2-0
  6
DASHED3
 62
     6
 10
8528.3357986495103
 20
18327.931088999991
 30
0.0
 11
8528.3357986495103
 21
18417.935839999991
 31
0.0
  0
LINE
  5
5BD2
  8
2-0
  6
CONTINUOUS
 62
     3
 10
8528.3357986495103
 20
15410.174569499981
 30
0.0
 11
8528.3357986495103
 21
15500.173381500001
 31
0.0
  0
LINE
  5
5BD3
  8
2-0
  6
CONTINUOUS
 62
     3
 10
8528.3357986495103
 20
16868.934057999992
 30
0.0
 11
8528.3357986495103
 21
16958.935839999958
 31
0.0
  0
LINE
  5
5BD4
  8
2-0
  6
CONTINUOUS
 62
     6
 10
8493.9852126495134
 20
15720.19765099998
 30
0.0
 11
8333.3165966495108
 21
16145.22206499998
 31
0.0
  0
LINE
  5
5BD5
  8
2-0
  6
CONTINUOUS
 62
     6
 10
7385.3746366495143
 20
16145.22206499998
 30
0.0
 11
8333.3165966495108
 21
16145.22206499998
 31
0.0
  0
LINE
  5
5BD6
  8
2-0
  6
CONTINUOUS
 62
     6
 10
7345.0172016495162
 20
13666.974097
 30
0.0
 11
7670.0328726495163
 21
13135.93656599998
 31
0.0
  0
LINE
  5
5BD7
  8
2-0
  6
CONTINUOUS
 62
     6
 10
7670.0328726495163
 20
13135.93656599998
 30
0.0
 11
8532.6135376495113
 21
13135.93656599998
 31
0.0
  0
LINE
  5
5BD8
  8
2-0
  6
CONTINUOUS
 62
     6
 10
4223.5088416495091
 20
12735.93722499998
 30
0.0
 11
5303.5064656495078
 21
12735.93722499998
 31
0.0
  0
LINE
  5
5BD9
  8
2-0
  6
CONTINUOUS
 62
     6
 10
5820.4424016495104
 20
14388.94687249999
 30
0.0
 11
5303.5064656495078
 21
12735.93722499998
 31
0.0
  0
LINE
  5
5BDA
  8
2-0
  6
CONTINUOUS
 62
     6
 10
11941.490029649511
 20
14160.824393000001
 30
0.0
 11
12067.3458416495
 21
14315.51959949999
 31
0.0
  0
LINE
  5
5BDB
  8
2-0
  6
CONTINUOUS
 62
     6
 10
12067.3458416495
 20
14315.51959949999
 30
0.0
 11
12867.34749064949
 21
14315.51959949999
 31
0.0
  0
LINE
  5
5BDC
  8
2-0
  6
CONTINUOUS
 62
     6
 10
8036.302700649514
 20
19421.657941999991
 30
0.0
 11
8180.2038036495151
 21
19933.935575999989
 31
0.0
  0
LINE
  5
5BDD
  8
2-0
  6
CONTINUOUS
 62
     6
 10
8180.2038036495151
 20
19933.935575999989
 30
0.0
 11
8697.8964116495135
 21
19933.935575999989
 31
0.0
  0
LINE
  5
5BDE
  8
2-0
  6
CONTINUOUS
 62
     6
 10
6013.0554986495081
 20
19846.714027999991
 30
0.0
 11
6211.3656168318339
 21
20258.938348000022
 31
0.0
  0
LINE
  5
5BDF
  8
2-0
  6
CONTINUOUS
 62
     6
 10
6411.5757096495163
 20
20655.377061999981
 30
0.0
 11
8064.4232466495114
 21
20655.377061999981
 31
0.0
  0
LINE
  5
5BE0
  8
2-0
  6
CONTINUOUS
 62
     6
 10
6276.057872829474
 20
20388.938348000022
 30
0.0
 11
6411.5757096495163
 21
20655.377061999981
 31
0.0
  0
LINE
  5
5BE1
  8
2-0
  6
CONTINUOUS
 62
     6
 10
6016.3251686495087
 20
18931.923065999959
 30
0.0
 11
6115.3654316495058
 21
18711.135480999961
 31
0.0
  0
LINE
  5
5BE2
  8
2-0
  6
CONTINUOUS
 62
     6
 10
6115.3654316495058
 20
18711.135480999961
 30
0.0
 11
6644.8609846495128
 21
18711.135480999961
 31
0.0
  0
LINE
  5
5BE3
  8
2-0
  6
DASHED3
 62
     6
 10
5908.3389656495119
 20
19240.597315999981
 30
0.0
 11
5908.3389656495119
 21
19527.429557999982
 31
0.0
  0
LINE
  5
5BE4
  8
2-0
  6
DASHED3
 62
     6
 10
5950.8412086495118
 20
19219.05619499995
 30
0.0
 11
5950.8412086495118
 21
19527.429557999982
 31
0.0
  0
LINE
  5
5BE5
  8
2-0
  6
CENTER2
 62
     6
 10
4621.3411036495081
 20
19481.435443999981
 30
0.0
 11
6277.3386156495108
 21
19481.435443999981
 31
0.0
  0
LINE
  5
5BE6
  8
2-0
  6
CENTER2
 62
     6
 10
4621.3411036495081
 20
16913.935443999992
 30
0.0
 11
6277.3386156495108
 21
16913.935443999992
 31
0.0
  0
LINE
  5
5BE7
  8
2-0
  6
CENTER2
 62
     6
 10
4621.3411036495081
 20
13995.935443999981
 30
0.0
 11
6277.3386156495108
 21
13995.935443999981
 31
0.0
  0
LINE
  5
5BE8
  8
2-0
  6
CONTINUOUS
 62
     3
 10
5883.3410706495097
 20
19663.937159999961
 30
0.0
 11
5933.839084649504
 21
19663.937159999961
 31
0.0
  0
LINE
  5
5BE9
  8
2-0
  6
CONTINUOUS
 62
     3
 10
5883.3410706495097
 20
19686.428449999981
 30
0.0
 11
5865.338338649507
 21
19686.428449999981
 31
0.0
  0
LINE
  5
5BEA
  8
2-0
  6
CONTINUOUS
 62
     3
 10
5933.839084649504
 20
19703.931352999989
 30
0.0
 11
5870.3381076495098
 21
19703.931352999989
 31
0.0
  0
LINE
  5
5BEB
  8
2-0
  6
CONTINUOUS
 62
     3
 10
5865.338338649507
 20
19698.937027999978
 30
0.0
 11
5865.338338649507
 21
19663.937159999961
 31
0.0
  0
LINE
  5
5BEC
  8
2-0
  6
CONTINUOUS
 62
     3
 10
5938.8388536495077
 20
19668.931484999961
 30
0.0
 11
5938.8388536495077
 21
19698.937027999978
 31
0.0
  0
LINE
  5
5BED
  8
2-0
  6
CONTINUOUS
 62
     3
 10
5883.3410706495097
 20
19251.749923999982
 30
0.0
 11
5883.3410706495097
 21
19686.428449999981
 31
0.0
  0
LINE
  5
5BEE
  8
2-0
  6
CONTINUOUS
 62
     3
 10
5865.338338649507
 20
19698.937027999978
 30
0.0
 11
5865.338338649507
 21
19663.937159999961
 31
0.0
  0
LINE
  5
5BEF
  8
2-0
  6
CONTINUOUS
 62
     3
 10
5950.8412086495118
 20
18417.935839999991
 30
0.0
 11
7726.315039649513
 21
18417.935839999991
 31
0.0
  0
LINE
  5
5BF0
  8
2-0
  6
CONTINUOUS
 62
     3
 10
5950.8412086495118
 20
18327.931088999991
 30
0.0
 11
7925.254677649511
 21
18327.931088999991
 31
0.0
  0
LINE
  5
5BF1
  8
2-0
  6
CONTINUOUS
 62
     3
 10
8471.3405096495153
 20
15500.173381500001
 30
0.0
 11
8471.3405096495153
 21
16868.934057999992
 31
0.0
  0
LINE
  5
5BF2
  8
2-0
  6
CONTINUOUS
 62
     3
 10
8585.3320766495126
 20
15500.173381500001
 30
0.0
 11
8585.3320766495126
 21
16868.934057999992
 31
0.0
  0
LINE
  5
5BF3
  8
2-0
  6
CONTINUOUS
 62
     3
 10
8528.3357986495103
 20
15500.173381500001
 30
0.0
 11
8528.3357986495103
 21
16868.934057999992
 31
0.0
  0
LINE
  5
5BF4
  8
2-0
  6
DASHED3
 62
     6
 10
8585.3320766495126
 20
18417.935839999991
 30
0.0
 11
8585.3320766495126
 21
19683.931748999981
 31
0.0
  0
LINE
  5
5BF5
  8
2-0
  6
DASHED3
 62
     6
 10
8471.3405096495153
 20
18417.935839999991
 30
0.0
 11
8471.3405096495153
 21
19683.931748999981
 31
0.0
  0
LINE
  5
5BF6
  8
2-0
  6
CONTINUOUS
 62
     3
 10
7167.8384116495154
 20
18675.09438599999
 30
0.0
 11
7167.8384116495154
 21
19683.931748999981
 31
0.0
  0
LINE
  5
5BF7
  8
2-0
  6
CONTINUOUS
 62
     3
 10
7130.8332906495116
 20
18691.835174999989
 30
0.0
 11
7130.8332906495116
 21
19683.931748999981
 31
0.0
  0
LINE
  5
5BF8
  8
2-0
  6
CONTINUOUS
 62
     3
 10
6967.8288436495131
 20
18765.576200999982
 30
0.0
 11
6967.8288436495131
 21
19683.931748999981
 31
0.0
  0
LINE
  5
5BF9
  8
2-0
  6
CONTINUOUS
 62
     3
 10
8567.8380816495064
 20
18231.324644
 30
0.0
 11
8567.8380816495064
 21
19683.931748999981
 31
0.0
  0
LINE
  5
5BFA
  8
2-0
  6
CONTINUOUS
 62
     3
 10
8530.8349406495108
 20
18288.358532999999
 30
0.0
 11
8530.8349406495108
 21
19683.931748999981
 31
0.0
  0
LINE
  5
5BFB
  8
2-0
  6
CONTINUOUS
 62
     3
 10
8367.8384116495181
 20
18127.661215
 30
0.0
 11
8367.8384116495181
 21
19683.931748999981
 31
0.0
  0
LINE
  5
5BFC
  8
2-0
  6
CONTINUOUS
 62
     3
 10
8330.8402196495135
 20
18144.447532999999
 30
0.0
 11
8330.8402196495135
 21
19683.931748999981
 31
0.0
  0
LINE
  5
5BFD
  8
2-0
  6
CONTINUOUS
 62
     3
 10
8167.8347826495119
 20
18218.18657899999
 30
0.0
 11
8167.8347826495119
 21
19683.931748999981
 31
0.0
  0
LINE
  5
5BFE
  8
2-0
  6
CONTINUOUS
 62
     3
 10
8130.8365906495128
 20
18234.925388
 30
0.0
 11
8130.8365906495128
 21
19683.931748999981
 31
0.0
  0
LINE
  5
5BFF
  8
2-0
  6
CONTINUOUS
 62
     3
 10
7967.836596649513
 20
18308.672352999991
 30
0.0
 11
7967.836596649513
 21
19683.931748999981
 31
0.0
  0
LINE
  5
5C00
  8
2-0
  6
CONTINUOUS
 62
     3
 10
7930.8374146495153
 20
18325.403244000001
 30
0.0
 11
7930.8374146495153
 21
19683.931748999981
 31
0.0
  0
LINE
  5
5C01
  8
2-0
  6
CONTINUOUS
 62
     3
 10
7767.8384116495154
 20
18399.156147000002
 30
0.0
 11
7767.8384116495154
 21
19683.931748999981
 31
0.0
  0
LINE
  5
5C02
  8
2-0
  6
CONTINUOUS
 62
     3
 10
7730.8392296495103
 20
18415.887038000001
 30
0.0
 11
7730.8392296495103
 21
19683.931748999981
 31
0.0
  0
LINE
  5
5C03
  8
2-0
  6
CONTINUOUS
 62
     3
 10
7567.8347826495119
 20
18489.632023999991
 30
0.0
 11
7567.8347826495119
 21
19683.931748999981
 31
0.0
  0
LINE
  5
5C04
  8
2-0
  6
CONTINUOUS
 62
     3
 10
7530.8365906495137
 20
18510.869565999968
 30
0.0
 11
7530.8365906495137
 21
19683.931748999981
 31
0.0
  0
LINE
  5
5C05
  8
2-0
  6
CONTINUOUS
 62
     3
 10
7367.8365966495157
 20
18584.610591999979
 30
0.0
 11
7367.8365966495157
 21
19683.931748999981
 31
0.0
  0
LINE
  5
5C06
  8
2-0
  6
CONTINUOUS
 62
     3
 10
7330.8369206495108
 20
18601.345441999991
 30
0.0
 11
7330.8369206495108
 21
19683.931748999981
 31
0.0
  0
LINE
  5
5C07
  8
2-0
  6
CONTINUOUS
 62
     3
 10
6930.8365906495119
 20
18782.307091999981
 30
0.0
 11
6930.8365906495119
 21
19683.931748999981
 31
0.0
  0
LINE
  5
5C08
  8
2-0
  6
CONTINUOUS
 62
     3
 10
6767.8435246495101
 20
18856.054056999961
 30
0.0
 11
6767.8435246495101
 21
19683.931748999981
 31
0.0
  0
LINE
  5
5C09
  8
2-0
  6
CONTINUOUS
 62
     3
 10
6730.8369206495117
 20
18872.790886999981
 30
0.0
 11
6730.8369206495117
 21
19683.931748999981
 31
0.0
  0
LINE
  5
5C0A
  8
2-0
  6
CONTINUOUS
 62
     3
 10
6567.8384116495099
 20
18946.537850999968
 30
0.0
 11
6567.8384116495099
 21
19683.931748999981
 31
0.0
  0
LINE
  5
5C0B
  8
2-0
  6
CONTINUOUS
 62
     3
 10
6530.8387346495101
 20
18963.278639999979
 30
0.0
 11
6530.8387346495101
 21
19683.931748999981
 31
0.0
  0
LINE
  5
5C0C
  8
2-0
  6
CONTINUOUS
 62
     3
 10
8368.8014476495155
 20
18127.27520900001
 30
0.0
 11
5594.2972506495098
 21
19382.66934399998
 31
0.0
  0
LINE
  5
5C0D
  8
2-0
  6
CONTINUOUS
 62
     3
 10
6367.8387416495143
 20
19037.015706999991
 30
0.0
 11
6367.8387416495143
 21
19683.931748999981
 31
0.0
  0
LINE
  5
5C0E
  8
2-0
  6
CONTINUOUS
 62
     3
 10
6330.8351056495121
 20
19053.754515999961
 30
0.0
 11
6330.8351056495121
 21
19683.931748999981
 31
0.0
  0
LINE
  5
5C0F
  8
2-0
  6
CONTINUOUS
 62
     3
 10
6121.33862964951
 20
19144.236330999989
 30
0.0
 11
6121.33862964951
 21
19683.931748999981
 31
0.0
  0
LINE
  5
5C10
  8
2-0
  6
CONTINUOUS
 62
     3
 10
6158.3378106495074
 20
19127.49752199998
 30
0.0
 11
6158.3378106495074
 21
19683.931748999981
 31
0.0
  0
LINE
  5
5C11
  8
2-0
  6
CONTINUOUS
 62
     3
 10
8368.8014476495155
 20
18127.27520900001
 30
0.0
 11
8495.5480426495087
 21
18342.761643000002
 31
0.0
  0
LINE
  5
5C12
  8
2-0
  6
CONTINUOUS
 62
     3
 10
9104.0213716495145
 20
17404.815260999989
 30
0.0
 11
8495.5480426495087
 21
18342.761643000002
 31
0.0
  0
LINE
  5
5C13
  8
2-0
  6
CONTINUOUS
 62
     3
 10
9104.0213716495145
 20
17404.815260999989
 30
0.0
 11
9230.7620286495112
 21
17620.300705000001
 31
0.0
  0
LINE
  5
5C14
  8
2-0
  6
CONTINUOUS
 62
     3
 10
8528.3357986495103
 20
13959.43708
 30
0.0
 11
8528.3357986495103
 21
13803.43715899999
 31
0.0
  0
LINE
  5
5C15
  8
2-0
  6
CONTINUOUS
 62
     3
 10
8528.3357986495103
 20
14038.439667000001
 30
0.0
 11
8528.3357986495103
 21
13959.43708
 31
0.0
  0
LINE
  5
5C16
  8
2-0
  6
CONTINUOUS
 62
     6
 10
6040.6564206495113
 20
18942.84208999998
 30
0.0
 11
5950.8412086495118
 21
19077.908601999981
 31
0.0
  0
LINE
  5
5C17
  8
2-0
  6
CONTINUOUS
 62
     6
 10
5950.8412086495118
 20
19077.908601999981
 30
0.0
 11
5991.9968846495103
 21
18921.00799999998
 31
0.0
  0
LINE
  5
5C18
  8
2-0
  6
CONTINUOUS
 62
     6
 10
6040.6564206495113
 20
18942.84208999998
 30
0.0
 11
5991.9968846495103
 21
18921.00799999998
 31
0.0
  0
LINE
  5
5C19
  8
2-0
  6
CONTINUOUS
 62
     6
 10
5991.9968846495103
 20
18921.00799999998
 30
0.0
 11
5950.8412086495118
 21
19077.908601999981
 31
0.0
  0
LINE
  5
5C1A
  8
2-0
  6
CONTINUOUS
 62
     6
 10
5950.8412086495118
 20
19077.908601999981
 30
0.0
 11
6040.6564206495113
 21
18942.84208999998
 31
0.0
  0
LINE
  5
5C1B
  8
2-0
  6
CONTINUOUS
 62
     6
 10
6040.6564206495113
 20
18942.84208999998
 30
0.0
 11
5950.8412086495118
 21
19077.908601999981
 31
0.0
  0
LINE
  5
5C1C
  8
2-0
  6
CONTINUOUS
 62
     6
 10
5991.9968846495103
 20
18921.00799999998
 30
0.0
 11
5950.8412086495118
 21
19077.908601999981
 31
0.0
  0
LINE
  5
5C1D
  8
2-0
  6
CONTINUOUS
 62
     6
 10
5991.9968846495103
 20
18921.00799999998
 30
0.0
 11
6040.6564206495113
 21
18942.84208999998
 31
0.0
  0
LINE
  5
5C1E
  8
2-0
  6
CONTINUOUS
 62
     6
 10
5845.8910926495091
 20
14380.962484499991
 30
0.0
 11
5868.3383386495079
 21
14541.60932449999
 31
0.0
  0
LINE
  5
5C1F
  8
2-0
  6
CONTINUOUS
 62
     6
 10
5868.3383386495079
 20
14541.60932449999
 30
0.0
 11
5794.9981656495074
 21
14396.92631149999
 31
0.0
  0
LINE
  5
5C20
  8
2-0
  6
CONTINUOUS
 62
     6
 10
5845.8910926495091
 20
14380.962484499991
 30
0.0
 11
5794.9981656495074
 21
14396.92631149999
 31
0.0
  0
LINE
  5
5C21
  8
2-0
  6
CONTINUOUS
 62
     6
 10
5794.9981656495074
 20
14396.92631149999
 30
0.0
 11
5868.3383386495079
 21
14541.60932449999
 31
0.0
  0
LINE
  5
5C22
  8
2-0
  6
CONTINUOUS
 62
     6
 10
5868.3383386495079
 20
14541.60932449999
 30
0.0
 11
5845.8910926495091
 21
14380.962484499991
 31
0.0
  0
LINE
  5
5C23
  8
2-0
  6
CONTINUOUS
 62
     6
 10
5845.8910926495091
 20
14380.962484499991
 30
0.0
 11
5868.3383386495079
 21
14541.60932449999
 31
0.0
  0
LINE
  5
5C24
  8
2-0
  6
CONTINUOUS
 62
     6
 10
5794.9981656495074
 20
14396.92631149999
 30
0.0
 11
5868.3383386495079
 21
14541.60932449999
 31
0.0
  0
LINE
  5
5C25
  8
2-0
  6
CONTINUOUS
 62
     6
 10
5794.9981656495074
 20
14396.92631149999
 30
0.0
 11
5845.8910926495091
 21
14380.962484499991
 31
0.0
  0
LINE
  5
5C26
  8
2-0
  6
CONTINUOUS
 62
     6
 10
7367.7608806495173
 20
13680.89011299999
 30
0.0
 11
7261.4933946495166
 21
13803.43715899999
 31
0.0
  0
LINE
  5
5C27
  8
2-0
  6
CONTINUOUS
 62
     6
 10
7261.4933946495166
 20
13803.43715899999
 30
0.0
 11
7322.2700586495121
 21
13653.048183999999
 31
0.0
  0
LINE
  5
5C28
  8
2-0
  6
CONTINUOUS
 62
     6
 10
7367.7608806495173
 20
13680.89011299999
 30
0.0
 11
7322.2700586495121
 21
13653.048183999999
 31
0.0
  0
LINE
  5
5C29
  8
2-0
  6
CONTINUOUS
 62
     6
 10
7322.2700586495121
 20
13653.048183999999
 30
0.0
 11
7261.4933946495166
 21
13803.43715899999
 31
0.0
  0
LINE
  5
5C2A
  8
2-0
  6
CONTINUOUS
 62
     6
 10
7261.4933946495166
 20
13803.43715899999
 30
0.0
 11
7367.7608806495173
 21
13680.89011299999
 31
0.0
  0
LINE
  5
5C2B
  8
2-0
  6
CONTINUOUS
 62
     6
 10
7367.7608806495173
 20
13680.89011299999
 30
0.0
 11
7261.4933946495166
 21
13803.43715899999
 31
0.0
  0
LINE
  5
5C2C
  8
2-0
  6
CONTINUOUS
 62
     6
 10
7322.2700586495121
 20
13653.048183999999
 30
0.0
 11
7261.4933946495166
 21
13803.43715899999
 31
0.0
  0
LINE
  5
5C2D
  8
2-0
  6
CONTINUOUS
 62
     6
 10
7322.2700586495121
 20
13653.048183999999
 30
0.0
 11
7367.7608806495173
 21
13680.89011299999
 31
0.0
  0
LINE
  5
5C2E
  8
2-0
  6
CONTINUOUS
 62
     6
 10
11921.0891106495
 20
14177.99968599999
 30
0.0
 11
11838.42540464951
 21
14038.439667000001
 31
0.0
  0
LINE
  5
5C2F
  8
2-0
  6
CONTINUOUS
 62
     6
 10
11838.42540464951
 20
14038.439667000001
 30
0.0
 11
11961.882039649499
 21
14143.64810999998
 31
0.0
  0
LINE
  5
5C30
  8
2-0
  6
CONTINUOUS
 62
     6
 10
11921.0891106495
 20
14177.99968599999
 30
0.0
 11
11961.882039649499
 21
14143.64810999998
 31
0.0
  0
LINE
  5
5C31
  8
2-0
  6
CONTINUOUS
 62
     6
 10
11961.882039649499
 20
14143.64810999998
 30
0.0
 11
11838.42540464951
 21
14038.439667000001
 31
0.0
  0
LINE
  5
5C32
  8
2-0
  6
CONTINUOUS
 62
     6
 10
11838.42540464951
 20
14038.439667000001
 30
0.0
 11
11921.0891106495
 21
14177.99968599999
 31
0.0
  0
LINE
  5
5C33
  8
2-0
  6
CONTINUOUS
 62
     6
 10
11921.0891106495
 20
14177.99968599999
 30
0.0
 11
11838.42540464951
 21
14038.439667000001
 31
0.0
  0
LINE
  5
5C34
  8
2-0
  6
CONTINUOUS
 62
     6
 10
11961.882039649499
 20
14143.64810999998
 30
0.0
 11
11838.42540464951
 21
14038.439667000001
 31
0.0
  0
LINE
  5
5C35
  8
2-0
  6
CONTINUOUS
 62
     6
 10
11961.882039649499
 20
14143.64810999998
 30
0.0
 11
11921.0891106495
 21
14177.99968599999
 31
0.0
  0
LINE
  5
5C36
  8
2-0
  6
CONTINUOUS
 62
     6
 10
8461.637899649515
 20
15879.14804399999
 30
0.0
 11
8493.9852126495134
 21
15720.19765099998
 31
0.0
  0
LINE
  5
5C37
  8
2-0
  6
CONTINUOUS
 62
     6
 10
8493.9852126495134
 20
15720.19765099998
 30
0.0
 11
8411.8342016495099
 21
15860.06548499999
 31
0.0
  0
LINE
  5
5C38
  8
2-0
  6
CONTINUOUS
 62
     6
 10
8461.637899649515
 20
15879.14804399999
 30
0.0
 11
8411.8342016495099
 21
15860.06548499999
 31
0.0
  0
LINE
  5
5C39
  8
2-0
  6
CONTINUOUS
 62
     6
 10
8411.8342016495099
 20
15860.06548499999
 30
0.0
 11
8493.9852126495134
 21
15720.19765099998
 31
0.0
  0
LINE
  5
5C3A
  8
2-0
  6
CONTINUOUS
 62
     6
 10
8493.9852126495134
 20
15720.19765099998
 30
0.0
 11
8461.637899649515
 21
15879.14804399999
 31
0.0
  0
LINE
  5
5C3B
  8
2-0
  6
CONTINUOUS
 62
     6
 10
8461.637899649515
 20
15879.14804399999
 30
0.0
 11
8493.9852126495134
 21
15720.19765099998
 31
0.0
  0
LINE
  5
5C3C
  8
2-0
  6
CONTINUOUS
 62
     6
 10
8411.8342016495099
 20
15860.06548499999
 30
0.0
 11
8493.9852126495134
 21
15720.19765099998
 31
0.0
  0
LINE
  5
5C3D
  8
2-0
  6
CONTINUOUS
 62
     6
 10
8411.8342016495099
 20
15860.06548499999
 30
0.0
 11
8461.637899649515
 21
15879.14804399999
 31
0.0
  0
LINE
  5
5C3E
  8
2-0
  6
CONTINUOUS
 62
     6
 10
5988.6722836495101
 20
19857.50636399999
 30
0.0
 11
5948.2836706495073
 21
19700.41176899998
 31
0.0
  0
LINE
  5
5C3F
  8
2-0
  6
CONTINUOUS
 62
     6
 10
5948.2836706495073
 20
19700.41176899998
 30
0.0
 11
6037.4456416495077
 21
19835.921692999978
 31
0.0
  0
LINE
  5
5C40
  8
2-0
  6
CONTINUOUS
 62
     6
 10
5988.6722836495101
 20
19857.50636399999
 30
0.0
 11
6037.4456416495077
 21
19835.921692999978
 31
0.0
  0
LINE
  5
5C41
  8
2-0
  6
CONTINUOUS
 62
     6
 10
6037.4456416495077
 20
19835.921692999978
 30
0.0
 11
5948.2836706495073
 21
19700.41176899998
 31
0.0
  0
LINE
  5
5C42
  8
2-0
  6
CONTINUOUS
 62
     6
 10
5948.2836706495073
 20
19700.41176899998
 30
0.0
 11
5988.6722836495101
 21
19857.50636399999
 31
0.0
  0
LINE
  5
5C43
  8
2-0
  6
CONTINUOUS
 62
     6
 10
5988.6722836495101
 20
19857.50636399999
 30
0.0
 11
5948.2836706495073
 21
19700.41176899998
 31
0.0
  0
LINE
  5
5C44
  8
2-0
  6
CONTINUOUS
 62
     6
 10
6037.4456416495077
 20
19835.921692999978
 30
0.0
 11
5948.2836706495073
 21
19700.41176899998
 31
0.0
  0
LINE
  5
5C45
  8
2-0
  6
CONTINUOUS
 62
     6
 10
6037.4456416495077
 20
19835.921692999978
 30
0.0
 11
5988.6722836495101
 21
19857.50636399999
 31
0.0
  0
LINE
  5
5C46
  8
2-0
  6
CONTINUOUS
 62
     6
 10
8010.4185156495123
 20
19428.05376699999
 30
0.0
 11
7997.9114226495121
 21
19266.331057999982
 31
0.0
  0
LINE
  5
5C47
  8
2-0
  6
CONTINUOUS
 62
     6
 10
7997.9114226495121
 20
19266.331057999982
 30
0.0
 11
8062.1903496495097
 21
19415.258157999979
 31
0.0
  0
LINE
  5
5C48
  8
2-0
  6
CONTINUOUS
 62
     6
 10
8010.4185156495123
 20
19428.05376699999
 30
0.0
 11
8062.1903496495097
 21
19415.258157999979
 31
0.0
  0
LINE
  5
5C49
  8
2-0
  6
CONTINUOUS
 62
     6
 10
8062.1903496495097
 20
19415.258157999979
 30
0.0
 11
7997.9114226495121
 21
19266.331057999982
 31
0.0
  0
LINE
  5
5C4A
  8
2-0
  6
CONTINUOUS
 62
     6
 10
7997.9114226495121
 20
19266.331057999982
 30
0.0
 11
8010.4185156495123
 21
19428.05376699999
 31
0.0
  0
LINE
  5
5C4B
  8
2-0
  6
CONTINUOUS
 62
     6
 10
8010.4185156495123
 20
19428.05376699999
 30
0.0
 11
7997.9114226495121
 21
19266.331057999982
 31
0.0
  0
LINE
  5
5C4C
  8
2-0
  6
CONTINUOUS
 62
     6
 10
8062.1903496495097
 20
19415.258157999979
 30
0.0
 11
7997.9114226495121
 21
19266.331057999982
 31
0.0
  0
LINE
  5
5C4D
  8
2-0
  6
CONTINUOUS
 62
     6
 10
8062.1903496495097
 20
19415.258157999979
 30
0.0
 11
8010.4185156495123
 21
19428.05376699999
 31
0.0
  0
LINE
  5
5C4E
  8
2-0
  6
DASHED3
 62
     6
 10
11086.338991649511
 20
18327.931088999991
 30
0.0
 11
11086.338991649511
 21
18417.935839999991
 31
0.0
  0
LINE
  5
5C4F
  8
2-0
  6
CONTINUOUS
 62
     3
 10
11086.338991649511
 20
15410.174569499981
 30
0.0
 11
11086.338991649511
 21
15500.173381500001
 31
0.0
  0
LINE
  5
5C50
  8
2-0
  6
DASHED3
 62
     6
 10
11046.33984964951
 20
17840.561738000011
 30
0.0
 11
11046.33984964951
 21
18327.931088999991
 31
0.0
  0
LINE
  5
5C51
  8
2-0
  6
DASHED3
 62
     6
 10
11126.338134649501
 20
17664.831955000001
 30
0.0
 11
11126.338134649501
 21
18327.931088999991
 31
0.0
  0
LINE
  5
5C52
  8
2-0
  6
DASHED3
 62
     6
 10
11086.338991649511
 20
17752.694866999991
 30
0.0
 11
11086.338991649511
 21
18327.931088999991
 31
0.0
  0
LINE
  5
5C53
  8
2-0
  6
DASHED3
 62
     6
 10
11126.338134649501
 20
16958.935839999958
 30
0.0
 11
11126.338134649501
 21
17664.831955000001
 31
0.0
  0
LINE
  5
5C54
  8
2-0
  6
DASHED3
 62
     6
 10
11046.33984964951
 20
16958.935839999958
 30
0.0
 11
11046.33984964951
 21
17840.561738000011
 31
0.0
  0
LINE
  5
5C55
  8
2-0
  6
DASHED3
 62
     6
 10
11086.338991649511
 20
16958.935839999958
 30
0.0
 11
11086.338991649511
 21
17752.694866999991
 31
0.0
  0
LINE
  5
5C56
  8
2-0
  6
DASHED3
 62
     6
 10
11046.33984964951
 20
18417.935839999991
 30
0.0
 11
11046.33984964951
 21
19683.931748999981
 31
0.0
  0
LINE
  5
5C57
  8
2-0
  6
DASHED3
 62
     6
 10
11086.338991649511
 20
18417.935839999991
 30
0.0
 11
11086.338991649511
 21
19683.931748999981
 31
0.0
  0
LINE
  5
5C58
  8
2-0
  6
CONTINUOUS
 62
     3
 10
11086.338991649511
 20
13959.43708
 30
0.0
 11
11086.338991649511
 21
13803.43715899999
 31
0.0
  0
LINE
  5
5C59
  8
2-0
  6
CONTINUOUS
 62
     3
 10
11086.338991649511
 20
14038.439667000001
 30
0.0
 11
11086.338991649511
 21
13959.43708
 31
0.0
  0
LINE
  5
5C5A
  8
2-0
  6
CONTINUOUS
 62
     3
 10
13711.33909864952
 20
19663.937159999961
 30
0.0
 11
13660.83366164952
 21
19663.937159999961
 31
0.0
  0
LINE
  5
5C5B
  8
2-0
  6
CONTINUOUS
 62
     3
 10
13711.33909864952
 20
19686.428449999981
 30
0.0
 11
13729.33787164949
 21
19686.428449999981
 31
0.0
  0
LINE
  5
5C5C
  8
2-0
  6
CONTINUOUS
 62
     3
 10
13660.83366164952
 20
19703.931352999989
 30
0.0
 11
13724.33859664951
 21
19703.931352999989
 31
0.0
  0
LINE
  5
5C5D
  8
2-0
  6
CONTINUOUS
 62
     3
 10
13729.33787164949
 20
19698.937027999978
 30
0.0
 11
13729.33787164949
 21
19663.937159999961
 31
0.0
  0
LINE
  5
5C5E
  8
2-0
  6
CONTINUOUS
 62
     3
 10
13655.83834664952
 20
19668.931484999961
 30
0.0
 11
13655.83834664952
 21
19698.937027999978
 31
0.0
  0
LINE
  5
5C5F
  8
2-0
  6
CONTINUOUS
 62
     3
 10
13729.33787164949
 20
19698.937027999978
 30
0.0
 11
13729.33787164949
 21
19663.937159999961
 31
0.0
  0
LINE
  5
5C60
  8
2-0
  6
DASHED3
 62
     6
 10
11126.33417564951
 20
18417.935839999991
 30
0.0
 11
11126.33417564951
 21
19683.931748999981
 31
0.0
  0
LINE
  5
5C61
  8
2-0
  6
CENTER2
 62
     6
 10
11076.338464649511
 20
20723.933729000011
 30
0.0
 11
11076.338464649511
 21
18914.43401899996
 31
0.0
  0
LINE
  5
5C62
  8
2-0
  6
CONTINUOUS
 62
     6
 10
6176.508801649511
 20
18174.179902
 30
0.0
 11
6143.3028726495104
 21
18332.951148
 31
0.0
  0
LINE
  5
5C63
  8
2-0
  6
CONTINUOUS
 62
     6
 10
6143.3028726495104
 20
18332.951148
 30
0.0
 11
6226.2061006495087
 21
18193.531674999991
 31
0.0
  0
LINE
  5
5C64
  8
2-0
  6
CONTINUOUS
 62
     6
 10
6176.508801649511
 20
18174.179902
 30
0.0
 11
6226.2061006495087
 21
18193.531674999991
 31
0.0
  0
LINE
  5
5C65
  8
2-0
  6
CONTINUOUS
 62
     6
 10
6226.2061006495087
 20
18193.531674999991
 30
0.0
 11
6143.3028726495104
 21
18332.951148
 31
0.0
  0
LINE
  5
5C66
  8
2-0
  6
CONTINUOUS
 62
     6
 10
6143.3028726495104
 20
18332.951148
 30
0.0
 11
6176.508801649511
 21
18174.179902
 31
0.0
  0
LINE
  5
5C67
  8
2-0
  6
CONTINUOUS
 62
     6
 10
6176.508801649511
 20
18174.179902
 30
0.0
 11
6143.3028726495104
 21
18332.951148
 31
0.0
  0
LINE
  5
5C68
  8
2-0
  6
CONTINUOUS
 62
     6
 10
6226.2061006495087
 20
18193.531674999991
 30
0.0
 11
6143.3028726495104
 21
18332.951148
 31
0.0
  0
LINE
  5
5C69
  8
2-0
  6
CONTINUOUS
 62
     6
 10
6226.2061006495087
 20
18193.531674999991
 30
0.0
 11
6176.508801649511
 21
18174.179902
 31
0.0
  0
LINE
  5
5C6A
  8
2-0
  6
CONTINUOUS
 62
     6
 10
6201.3581936495102
 20
18183.855788000001
 30
0.0
 11
6360.902508649513
 21
17798.528640000011
 31
0.0
  0
LINE
  5
5C6B
  8
2-0
  6
CONTINUOUS
 62
     6
 10
6176.508801649511
 20
15291.549939500001
 30
0.0
 11
6143.3028726495104
 21
15450.326134499999
 31
0.0
  0
LINE
  5
5C6C
  8
2-0
  6
CONTINUOUS
 62
     6
 10
6143.3028726495104
 20
15450.326134499999
 30
0.0
 11
6226.2061006495087
 21
15310.90666149999
 31
0.0
  0
LINE
  5
5C6D
  8
2-0
  6
CONTINUOUS
 62
     6
 10
6176.508801649511
 20
15291.549939500001
 30
0.0
 11
6226.2061006495087
 21
15310.90666149999
 31
0.0
  0
LINE
  5
5C6E
  8
2-0
  6
CONTINUOUS
 62
     6
 10
6226.2061006495087
 20
15310.90666149999
 30
0.0
 11
6143.3028726495104
 21
15450.326134499999
 31
0.0
  0
LINE
  5
5C6F
  8
2-0
  6
CONTINUOUS
 62
     6
 10
6143.3028726495104
 20
15450.326134499999
 30
0.0
 11
6176.508801649511
 21
15291.549939500001
 31
0.0
  0
LINE
  5
5C70
  8
2-0
  6
CONTINUOUS
 62
     6
 10
6176.508801649511
 20
15291.549939500001
 30
0.0
 11
6143.3028726495104
 21
15450.326134499999
 31
0.0
  0
LINE
  5
5C71
  8
2-0
  6
CONTINUOUS
 62
     6
 10
6226.2061006495087
 20
15310.90666149999
 30
0.0
 11
6143.3028726495104
 21
15450.326134499999
 31
0.0
  0
LINE
  5
5C72
  8
2-0
  6
CONTINUOUS
 62
     6
 10
6226.2061006495087
 20
15310.90666149999
 30
0.0
 11
6176.508801649511
 21
15291.549939500001
 31
0.0
  0
LINE
  5
5C73
  8
2-0
  6
CONTINUOUS
 62
     6
 10
6201.3581936495102
 20
15301.2307745
 30
0.0
 11
6360.902508649513
 21
14915.90758549999
 31
0.0
  0
LINE
  5
5C74
  8
2-0
  6
CONTINUOUS
 62
     6
 10
6363.391752649517
 20
16748.76441299999
 30
0.0
 11
6330.1882976495144
 21
16907.540608999981
 31
0.0
  0
LINE
  5
5C75
  8
2-0
  6
CONTINUOUS
 62
     6
 10
6330.1882976495144
 20
16907.540608999981
 30
0.0
 11
6413.0930106495143
 21
16768.120145999979
 31
0.0
  0
LINE
  5
5C76
  8
2-0
  6
CONTINUOUS
 62
     6
 10
6363.391752649517
 20
16748.76441299999
 30
0.0
 11
6413.0930106495143
 21
16768.120145999979
 31
0.0
  0
LINE
  5
5C77
  8
2-0
  6
CONTINUOUS
 62
     6
 10
6413.0930106495143
 20
16768.120145999979
 30
0.0
 11
6330.1882976495144
 21
16907.540608999981
 31
0.0
  0
LINE
  5
5C78
  8
2-0
  6
CONTINUOUS
 62
     6
 10
6330.1882976495144
 20
16907.540608999981
 30
0.0
 11
6363.391752649517
 21
16748.76441299999
 31
0.0
  0
LINE
  5
5C79
  8
2-0
  6
CONTINUOUS
 62
     6
 10
6363.391752649517
 20
16748.76441299999
 30
0.0
 11
6330.1882976495144
 21
16907.540608999981
 31
0.0
  0
LINE
  5
5C7A
  8
2-0
  6
CONTINUOUS
 62
     6
 10
6413.0930106495143
 20
16768.120145999979
 30
0.0
 11
6330.1882976495144
 21
16907.540608999981
 31
0.0
  0
LINE
  5
5C7B
  8
2-0
  6
CONTINUOUS
 62
     6
 10
6413.0930106495143
 20
16768.120145999979
 30
0.0
 11
6363.391752649517
 21
16748.76441299999
 31
0.0
  0
LINE
  5
5C7C
  8
2-0
  6
CONTINUOUS
 62
     6
 10
6388.2505476495116
 20
16758.445248999979
 30
0.0
 11
6486.9760666495113
 21
16504.91246799997
 31
0.0
  0
LINE
  5
5C7D
  8
2-0
  6
CENTER2
 62
     6
 10
5950.8412086495127
 20
20723.933729000011
 30
0.0
 11
5950.8412086495118
 21
19773.927129999978
 31
0.0
  0
LINE
  5
5C7E
  8
2-0
  6
CENTER2
 62
     6
 10
13643.838464649511
 20
20723.933729000011
 30
0.0
 11
13643.838464649511
 21
19773.927129999978
 31
0.0
  0
LINE
  5
5C7F
  8
2-0
  6
CONTINUOUS
 62
     6
 10
6360.902508649513
 20
17798.528640000011
 30
0.0
 11
8132.2994546495102
 21
17798.528640000011
 31
0.0
  0
LINE
  5
5C80
  8
2-0
  6
CONTINUOUS
 62
     6
 10
6360.902508649513
 20
14915.90758549999
 30
0.0
 11
8132.2994546495102
 21
14915.90758549999
 31
0.0
  0
LINE
  5
5C81
  8
2-0
  6
DASHED3
 62
     6
 10
8471.3405096495153
 20
18301.607451
 30
0.0
 11
8471.3405096495153
 21
18327.931088999991
 31
0.0
  0
LINE
  5
5C82
  8
2-0
  6
DASHED3
 62
     6
 10
8585.3320766495126
 20
18204.34776500001
 30
0.0
 11
8585.3320766495126
 21
18327.931088999991
 31
0.0
  0
LINE
  5
5C83
  8
2-0
  6
CONTINUOUS
 62
     3
 10
8585.3320766495126
 20
16958.935839999958
 30
0.0
 11
8585.3320766495126
 21
18204.34776500001
 31
0.0
  0
LINE
  5
5C84
  8
2-0
  6
CONTINUOUS
 62
     3
 10
8471.3405096495153
 20
16958.935839999958
 30
0.0
 11
8471.3405096495153
 21
18301.607451
 31
0.0
  0
LINE
  5
5C85
  8
2-0
  6
DASHED3
 62
     6
 10
8528.3357986495103
 20
18292.216615000001
 30
0.0
 11
8528.3357986495103
 21
19683.931748999981
 31
0.0
  0
LINE
  5
5C86
  8
2-0
  6
CONTINUOUS
 62
     3
 10
8528.3357986495103
 20
16958.935839999958
 30
0.0
 11
8528.3357986495103
 21
18292.216615000001
 31
0.0
  0
LINE
  5
5C87
  8
2-0
  6
CONTINUOUS
 62
     3
 10
11126.338134649501
 20
15500.173381500001
 30
0.0
 11
11126.338134649501
 21
16854.09063799998
 31
0.0
  0
LINE
  5
5C88
  8
2-0
  6
DASHED3
 62
     6
 10
11086.338991649511
 20
16870.152451999969
 30
0.0
 11
11086.338991649511
 21
16958.935839999958
 31
0.0
  0
LINE
  5
5C89
  8
2-0
  6
CONTINUOUS
 62
     3
 10
11086.338991649511
 20
15500.173381500001
 30
0.0
 11
11086.338991649511
 21
16870.152451999969
 31
0.0
  0
LINE
  5
5C8A
  8
2-0
  6
CONTINUOUS
 62
     3
 10
11046.33984964951
 20
15500.173381500001
 30
0.0
 11
11046.33984964951
 21
16868.934057999992
 31
0.0
  0
LINE
  5
5C8B
  8
2-0
  6
DASHED3
 62
     6
 10
10865.24557164951
 20
16958.935839999958
 30
0.0
 11
13643.838464649511
 21
16958.935839999958
 31
0.0
  0
LINE
  5
5C8C
  8
2-0
  6
DASHED3
 62
     6
 10
11089.369634649511
 20
16868.934057999992
 30
0.0
 11
13643.838464649511
 21
16868.934057999992
 31
0.0
  0
LINE
  5
5C8D
  8
2-0
  6
CENTER2
 62
     6
 10
5732.0435356495072
 20
18372.935443999992
 30
0.0
 11
14015.98597864952
 21
18372.935443999992
 31
0.0
  0
LINE
  5
5C8E
  8
2-0
  6
DASHED3
 62
     6
 10
13643.838464649511
 20
15846.93830799999
 30
0.0
 11
13643.838464649511
 21
19527.429557999982
 31
0.0
  0
LINE
  5
5C8F
  8
2-0
  6
DASHED3
 62
     6
 10
13686.33971864952
 20
15829.87188799998
 30
0.0
 11
13686.33971864952
 21
19527.429557999982
 31
0.0
  0
LINE
  5
5C90
  8
2-0
  6
CONTINUOUS
 62
     3
 10
13711.33909864952
 20
15821.03927599999
 30
0.0
 11
13711.33909864952
 21
19686.428449999981
 31
0.0
  0
LINE
  5
5C91
  8
2-0
  6
CONTINUOUS
 62
     3
 10
8767.8337926495096
 20
17923.03244100001
 30
0.0
 11
8767.8337926495096
 21
19683.931748999981
 31
0.0
  0
LINE
  5
5C92
  8
2-0
  6
CONTINUOUS
 62
     3
 10
8730.8326316495095
 20
17980.07028900001
 30
0.0
 11
8730.8326316495095
 21
19683.931748999981
 31
0.0
  0
LINE
  5
5C93
  8
2-0
  6
CONTINUOUS
 62
     3
 10
8967.8314826495152
 20
17614.746176000011
 30
0.0
 11
8967.8314826495152
 21
19683.931748999981
 31
0.0
  0
LINE
  5
5C94
  8
2-0
  6
CONTINUOUS
 62
     3
 10
8930.8332906495089
 20
17671.78006500001
 30
0.0
 11
8930.8332906495089
 21
19683.931748999981
 31
0.0
  0
LINE
  5
5C95
  8
2-0
  6
CONTINUOUS
 62
     3
 10
9130.8329606495117
 20
17450.398625000002
 30
0.0
 11
9130.8329606495117
 21
19683.931748999981
 31
0.0
  0
LINE
  5
5C96
  8
2-0
  6
CONTINUOUS
 62
     3
 10
9167.8281836495116
 20
17513.301787000011
 30
0.0
 11
9167.8281836495116
 21
19683.931748999981
 31
0.0
  0
LINE
  5
5C97
  8
2-0
  6
CONTINUOUS
 62
     3
 10
9367.8238946495112
 20
17565.260191000001
 30
0.0
 11
9367.8238946495112
 21
19683.931748999981
 31
0.0
  0
LINE
  5
5C98
  8
2-0
  6
CONTINUOUS
 62
     3
 10
9330.8257026495157
 20
17580.120437000001
 30
0.0
 11
9330.8257026495157
 21
19683.931748999981
 31
0.0
  0
LINE
  5
5C99
  8
2-0
  6
CONTINUOUS
 62
     3
 10
9567.8225756495121
 20
17484.947163000001
 30
0.0
 11
9567.8225756495121
 21
19683.931748999981
 31
0.0
  0
LINE
  5
5C9A
  8
2-0
  6
CONTINUOUS
 62
     3
 10
9530.8243836495167
 20
17499.805429999989
 30
0.0
 11
9530.8243836495167
 21
19683.931748999981
 31
0.0
  0
LINE
  5
5C9B
  8
2-0
  6
CONTINUOUS
 62
     3
 10
10167.8205956495
 20
17244.00610000001
 30
0.0
 11
10167.8205956495
 21
19683.931748999981
 31
0.0
  0
LINE
  5
5C9C
  8
2-0
  6
CONTINUOUS
 62
     3
 10
10130.818444649511
 20
17258.860407000011
 30
0.0
 11
10130.818444649511
 21
19683.931748999981
 31
0.0
  0
LINE
  5
5C9D
  8
2-0
  6
CONTINUOUS
 62
     3
 10
11167.808058649511
 20
16837.435957999991
 30
0.0
 11
11167.808058649511
 21
19683.931748999981
 31
0.0
  0
LINE
  5
5C9E
  8
2-0
  6
CONTINUOUS
 62
     3
 10
11130.809866649501
 20
16852.293234999968
 30
0.0
 11
11130.809866649501
 21
19683.931748999981
 31
0.0
  0
LINE
  5
5C9F
  8
2-0
  6
CONTINUOUS
 62
     3
 10
11367.811687649501
 20
16757.12391999998
 30
0.0
 11
11367.811687649501
 21
19683.931748999981
 31
0.0
  0
LINE
  5
5CA0
  8
2-0
  6
CONTINUOUS
 62
     3
 10
11330.807557649499
 20
16771.978227999989
 30
0.0
 11
11330.807557649499
 21
19683.931748999981
 31
0.0
  0
LINE
  5
5CA1
  8
2-0
  6
CONTINUOUS
 62
     3
 10
11567.8064096495
 20
16676.808912999979
 30
0.0
 11
11567.8064096495
 21
19683.931748999981
 31
0.0
  0
LINE
  5
5CA2
  8
2-0
  6
CONTINUOUS
 62
     3
 10
11530.804257649501
 20
16691.666189999982
 30
0.0
 11
11530.804257649501
 21
19683.931748999981
 31
0.0
  0
LINE
  5
5CA3
  8
2-0
  6
CONTINUOUS
 62
     3
 10
11767.8021206495
 20
16596.493905999982
 30
0.0
 11
11767.8021206495
 21
19683.931748999981
 31
0.0
  0
LINE
  5
5CA4
  8
2-0
  6
CONTINUOUS
 62
     3
 10
11730.802938649511
 20
16611.351181999991
 30
0.0
 11
11730.802938649511
 21
19683.931748999981
 31
0.0
  0
LINE
  5
5CA5
  8
2-0
  6
CONTINUOUS
 62
     3
 10
11967.79882064949
 20
16516.178897999991
 30
0.0
 11
11967.79882064949
 21
19683.931748999981
 31
0.0
  0
LINE
  5
5CA6
  8
2-0
  6
CONTINUOUS
 62
     3
 10
11930.8006286495
 20
16531.039143999991
 30
0.0
 11
11930.8006286495
 21
19683.931748999981
 31
0.0
  0
LINE
  5
5CA7
  8
2-0
  6
CONTINUOUS
 62
     3
 10
12167.79948064949
 20
16435.86389099999
 30
0.0
 11
12167.79948064949
 21
19683.931748999981
 31
0.0
  0
LINE
  5
5CA8
  8
2-0
  6
CONTINUOUS
 62
     3
 10
12130.801288649511
 20
16450.729085999981
 30
0.0
 11
12130.801288649511
 21
19683.931748999981
 31
0.0
  0
LINE
  5
5CA9
  8
2-0
  6
CONTINUOUS
 62
     3
 10
12367.794201649511
 20
16355.55383199998
 30
0.0
 11
12367.794201649511
 21
19683.931748999981
 31
0.0
  0
LINE
  5
5CAA
  8
2-0
  6
CONTINUOUS
 62
     3
 10
12330.796009649501
 20
16370.414077999991
 30
0.0
 11
12330.796009649501
 21
19683.931748999981
 31
0.0
  0
LINE
  5
5CAB
  8
2-0
  6
CONTINUOUS
 62
     3
 10
12567.793872649499
 20
16275.23882499998
 30
0.0
 11
12567.793872649499
 21
19683.931748999981
 31
0.0
  0
LINE
  5
5CAC
  8
2-0
  6
CONTINUOUS
 62
     3
 10
12530.793700649499
 20
16290.09610199998
 30
0.0
 11
12530.793700649499
 21
19683.931748999981
 31
0.0
  0
LINE
  5
5CAD
  8
2-0
  6
CONTINUOUS
 62
     3
 10
12767.79354264949
 20
16194.923816999961
 30
0.0
 11
12767.79354264949
 21
19683.931748999981
 31
0.0
  0
LINE
  5
5CAE
  8
2-0
  6
CONTINUOUS
 62
     3
 10
12730.790401649499
 20
16209.781093999971
 30
0.0
 11
12730.790401649499
 21
19683.931748999981
 31
0.0
  0
LINE
  5
5CAF
  8
2-0
  6
CONTINUOUS
 62
     3
 10
12967.7902426495
 20
16114.611778999981
 30
0.0
 11
12967.7902426495
 21
19683.931748999981
 31
0.0
  0
LINE
  5
5CB0
  8
2-0
  6
CONTINUOUS
 62
     3
 10
12930.792050649499
 20
16129.46608699999
 30
0.0
 11
12930.792050649499
 21
19683.931748999981
 31
0.0
  0
LINE
  5
5CB1
  8
2-0
  6
CONTINUOUS
 62
     3
 10
13167.7899136495
 20
16034.29974099999
 30
0.0
 11
13167.7899136495
 21
19683.931748999981
 31
0.0
  0
LINE
  5
5CB2
  8
2-0
  6
CONTINUOUS
 62
     3
 10
13130.78875164949
 20
16049.15404899997
 30
0.0
 11
13130.78875164949
 21
19683.931748999981
 31
0.0
  0
LINE
  5
5CB3
  8
2-0
  6
CONTINUOUS
 62
     3
 10
13377.278472649519
 20
15953.984733999991
 30
0.0
 11
13377.278472649519
 21
19683.931748999981
 31
0.0
  0
LINE
  5
5CB4
  8
2-0
  6
CONTINUOUS
 62
     3
 10
13340.27731164951
 20
15968.839040999979
 30
0.0
 11
13340.27731164951
 21
19683.931748999981
 31
0.0
  0
LINE
  5
5CB5
  8
2-0
  6
CONTINUOUS
 62
     3
 10
13577.28012164951
 20
15873.66675699999
 30
0.0
 11
13577.28012164951
 21
19683.931748999981
 31
0.0
  0
LINE
  5
5CB6
  8
2-0
  6
CONTINUOUS
 62
     3
 10
13540.27698164952
 20
15888.52700299999
 30
0.0
 11
13540.27698164952
 21
19683.931748999981
 31
0.0
  0
LINE
  5
5CB7
  8
2-0
  6
DASHED3
 62
     6
 10
6020.838470649509
 20
19481.435443999981
 30
0.0
 11
8448.3325656495108
 21
18372.935443999992
 31
0.0
  0
LINE
  5
5CB8
  8
2-0
  6
CONTINUOUS
 62
     3
 10
6020.838470649509
 20
16913.935443999992
 30
0.0
 11
8448.3325656495108
 21
15455.175955500001
 31
0.0
  0
LINE
  5
5CB9
  8
2-0
  6
DASHED3
 62
     6
 10
11146.3401796495
 20
19481.435443999981
 30
0.0
 11
13573.8337806495
 21
18372.935443999992
 31
0.0
  0
LINE
  5
5CBA
  8
2-0
  6
DASHED3
 62
     6
 10
13573.8337806495
 20
19481.435443999981
 30
0.0
 11
11146.3401796495
 21
18372.935443999992
 31
0.0
  0
LINE
  5
5CBB
  8
2-0
  6
DASHED3
 62
     6
 10
11146.3401796495
 20
18372.935443999992
 30
0.0
 11
13573.8337806495
 21
16913.935443999992
 31
0.0
  0
LINE
  5
5CBC
  8
2-0
  6
DASHED3
 62
     6
 10
13573.8337806495
 20
18372.935443999992
 30
0.0
 11
11146.3401796495
 21
16913.935443999992
 31
0.0
  0
LINE
  5
5CBD
  8
2-0
  6
CONTINUOUS
 62
     3
 10
6923.9439066495106
 20
18785.430772999978
 30
0.0
 11
6020.838470649509
 21
18372.935443999992
 31
0.0
  0
LINE
  5
5CBE
  8
2-0
  6
DASHED3
 62
     6
 10
8448.3325656495108
 20
19481.435443999981
 30
0.0
 11
6923.9439066495106
 21
18785.430772999978
 31
0.0
  0
LINE
  5
5CBF
  8
2-0
  6
DASHED3
 62
     6
 10
8448.3325656495108
 20
18372.935443999992
 30
0.0
 11
8181.0559866495141
 21
18212.210413000001
 31
0.0
  0
LINE
  5
5CC0
  8
2-0
  6
CONTINUOUS
 62
     3
 10
9544.9155866495148
 20
17494.149945000001
 30
0.0
 11
8588.3359966495063
 21
16913.935443999992
 31
0.0
  0
LINE
  5
5CC1
  8
2-0
  6
CONTINUOUS
 62
     3
 10
12528.45885864951
 20
16291.04033199999
 30
0.0
 11
11146.3401796495
 21
15455.175955500001
 31
0.0
  0
LINE
  5
5CC2
  8
2-0
  6
DASHED3
 62
     6
 10
13573.8337806495
 20
16913.935443999992
 30
0.0
 11
12528.45885864951
 21
16291.04033199999
 31
0.0
  0
LINE
  5
5CC3
  8
2-0
  6
CONTINUOUS
 62
     3
 10
11486.16215464951
 20
16709.594688999969
 30
0.0
 11
13573.8337806495
 21
15455.175955500001
 31
0.0
  0
LINE
  5
5CC4
  8
2-0
  6
DASHED3
 62
     6
 10
11146.3401796495
 20
16913.935443999992
 30
0.0
 11
11486.16215464951
 21
16709.594688999969
 31
0.0
  0
LINE
  5
5CC5
  8
2-0
  6
CONTINUOUS
 62
     3
 10
6020.838470649509
 20
18372.935443999992
 30
0.0
 11
6534.5537966495149
 21
18069.738522
 31
0.0
  0
LINE
  5
5CC6
  8
2-0
  6
CONTINUOUS
 62
     3
 10
6882.2057576495108
 20
17860.685523000011
 30
0.0
 11
8448.3325656495108
 21
16913.935443999992
 31
0.0
  0
LINE
  5
5CC7
  8
2-0
  6
CONTINUOUS
 62
     3
 10
8181.0559866495141
 20
18212.210413000001
 30
0.0
 11
7921.8296156495162
 21
18056.333222000001
 31
0.0
  0
LINE
  5
5CC8
  8
2-0
  6
CONTINUOUS
 62
     3
 10
7563.729260649513
 20
17840.999210999991
 30
0.0
 11
6020.838470649509
 21
16913.935443999992
 31
0.0
  0
LINE
  5
5CC9
  8
2-0
  6
CONTINUOUS
 62
     6
 10
6486.9760666495113
 20
16504.91246799997
 30
0.0
 11
8132.2994546495102
 21
16504.91246799997
 31
0.0
  0
LINE
  5
5CCA
  8
2-0
  6
CONTINUOUS
 62
     3
 10
7678.3760486495121
 20
16450.93891499997
 30
0.0
 11
6020.838470649509
 21
15455.175955500001
 31
0.0
  0
LINE
  5
5CCB
  8
2-0
  6
CONTINUOUS
 62
     3
 10
8448.3325656495108
 20
16913.935443999992
 30
0.0
 11
8092.2874456495119
 21
16699.838631999981
 31
0.0
  0
LINE
  5
5CCC
  8
2-0
  6
CENTER2
 62
     6
 10
8518.3412086495136
 20
20723.933729000011
 30
0.0
 11
8518.3412086495136
 21
18914.43401899996
 31
0.0
  0
LINE
  5
5CCD
  8
2-0
  6
CENTER2
 62
     6
 10
5732.0435356495072
 20
15455.175955500001
 30
0.0
 11
13980.87228864952
 21
15455.175955500001
 31
0.0
  0
LINE
  5
5CCE
  8
2-0
  6
CONTINUOUS
 62
     3
 10
9625.7660536495168
 20
16446.653256999991
 30
0.0
 11
10231.7145066495
 21
17059.464700999979
 31
0.0
  0
LINE
  5
5CCF
  8
2-0
  6
CONTINUOUS
 62
     3
 10
10231.7145066495
 20
17059.464700999979
 30
0.0
 11
9985.8721556495111
 21
17249.90407600001
 31
0.0
  0
LINE
  5
5CD0
  8
2-0
  6
CONTINUOUS
 62
     3
 10
9843.7516296495123
 20
16976.33283899997
 30
0.0
 11
9237.8002066495173
 21
16363.521393999979
 31
0.0
  0
LINE
  5
5CD1
  8
2-0
  6
CONTINUOUS
 62
     3
 10
9685.8721556495111
 20
16025.53641199999
 30
0.0
 11
9237.8002066495173
 21
16363.521393999979
 31
0.0
  0
LINE
  5
5CD2
  8
2-0
  6
CONTINUOUS
 62
     3
 10
9985.8721556495111
 20
16175.02470699998
 30
0.0
 11
9625.7660536495168
 21
16446.653256999991
 31
0.0
  0
LINE
  5
5CD3
  8
2-0
  6
CONTINUOUS
 62
     3
 10
9843.7516296495123
 20
16976.33283899997
 30
0.0
 11
9685.8721556495111
 21
17095.422655999981
 31
0.0
  0
LINE
  5
5CD4
  8
2-0
  6
CONTINUOUS
 62
     3
 10
9685.8721556495111
 20
17095.422655999981
 30
0.0
 11
9685.8721556495111
 21
19892.910053999989
 31
0.0
  0
LINE
  5
5CD5
  8
2-0
  6
CONTINUOUS
 62
     3
 10
9985.8721556495111
 20
17249.90407600001
 30
0.0
 11
9985.8721556495111
 21
19892.910053999989
 31
0.0
  0
LINE
  5
5CD6
  8
2-0
  6
DASHED3
 62
     6
 10
9985.8721556495111
 20
19527.429557999982
 30
0.0
 11
13686.33971864952
 21
19527.429557999982
 31
0.0
  0
LINE
  5
5CD7
  8
2-0
  6
DASHED3
 62
     6
 10
9985.8721556495111
 20
19442.43100999996
 30
0.0
 11
13643.838464649511
 21
19442.43100999996
 31
0.0
  0
LINE
  5
5CD8
  8
2-0
  6
CONTINUOUS
 62
     3
 10
9985.8721556495111
 20
19683.931748999981
 30
0.0
 11
13655.83834664952
 21
19683.931748999981
 31
0.0
  0
LINE
  5
5CD9
  8
2-0
  6
CONTINUOUS
 62
     3
 10
5938.8388536495077
 20
19683.931748999981
 30
0.0
 11
9685.8721556495111
 21
19683.931748999981
 31
0.0
  0
LINE
  5
5CDA
  8
2-0
  6
DASHED3
 62
     6
 10
5908.3389656495119
 20
19527.429557999982
 30
0.0
 11
9685.8721556495111
 21
19527.429557999982
 31
0.0
  0
LINE
  5
5CDB
  8
2-0
  6
DASHED3
 62
     6
 10
5950.8412086495118
 20
19442.43100999996
 30
0.0
 11
9685.8721556495111
 21
19442.43100999996
 31
0.0
  0
LINE
  5
5CDC
  8
2-0
  6
DASHED3
 62
     6
 10
8588.3359966495063
 20
19481.435443999981
 30
0.0
 11
9685.8721556495111
 21
18980.328232999989
 31
0.0
  0
LINE
  5
5CDD
  8
2-0
  6
DASHED3
 62
     6
 10
9685.8721556495111
 20
18878.54138799998
 30
0.0
 11
8588.3359966495063
 21
18372.935443999992
 31
0.0
  0
LINE
  5
5CDE
  8
2-0
  6
DASHED3
 62
     6
 10
11006.337738649499
 20
19481.435443999981
 30
0.0
 11
9985.8721556495111
 21
19015.514175999979
 31
0.0
  0
LINE
  5
5CDF
  8
2-0
  6
DASHED3
 62
     6
 10
9985.8721556495111
 20
18843.355444999968
 30
0.0
 11
11006.337738649499
 21
18372.935443999992
 31
0.0
  0
LINE
  5
5CE0
  8
2-0
  6
DASHED3
 62
     6
 10
9985.8721556495111
 20
18417.935839999991
 30
0.0
 11
13643.838464649511
 21
18417.935839999991
 31
0.0
  0
LINE
  5
5CE1
  8
2-0
  6
DASHED3
 62
     6
 10
9985.8721556495111
 20
18327.931088999991
 30
0.0
 11
13643.838464649511
 21
18327.931088999991
 31
0.0
  0
LINE
  5
5CE2
  8
2-0
  6
DASHED3
 62
     6
 10
7726.315039649513
 20
18417.935839999991
 30
0.0
 11
9685.8721556495111
 21
18417.935839999991
 31
0.0
  0
LINE
  5
5CE3
  8
2-0
  6
DASHED3
 62
     6
 10
7925.254677649511
 20
18327.931088999991
 30
0.0
 11
9685.8721556495111
 21
18327.931088999991
 31
0.0
  0
LINE
  5
5CE4
  8
2-0
  6
DASHED3
 62
     6
 10
8588.3359966495063
 20
18372.935443999992
 30
0.0
 11
9685.8721556495111
 21
17712.96197
 31
0.0
  0
LINE
  5
5CE5
  8
2-0
  6
DASHED3
 62
     6
 10
9685.8721556495111
 20
17578.910951000002
 30
0.0
 11
9544.9155866495148
 21
17494.149945000001
 31
0.0
  0
LINE
  5
5CE6
  8
2-0
  6
DASHED3
 62
     6
 10
11006.337738649499
 20
18372.935443999992
 30
0.0
 11
9985.8721556495111
 21
17759.30645900001
 31
0.0
  0
LINE
  5
5CE7
  8
2-0
  6
DASHED3
 62
     6
 10
9985.8721556495111
 20
17532.564482999991
 30
0.0
 11
11006.337738649499
 21
16913.935443999992
 31
0.0
  0
LINE
  5
5CE8
  8
2-0
  6
CONTINUOUS
 62
     3
 10
9685.8721556495111
 20
17437.53967300001
 30
0.0
 11
9230.7620286495112
 21
17620.300705000001
 31
0.0
  0
LINE
  5
5CE9
  8
2-0
  6
CONTINUOUS
 62
     3
 10
13977.102295649511
 20
15713.10899499999
 30
0.0
 11
9985.8721556495111
 21
17317.06716100001
 31
0.0
  0
LINE
  5
5CEA
  8
2-0
  6
CONTINUOUS
 62
     3
 10
5950.8412086495118
 20
16868.934057999992
 30
0.0
 11
9737.5554066495115
 21
16868.934057999992
 31
0.0
  0
LINE
  5
5CEB
  8
2-0
  6
CONTINUOUS
 62
     3
 10
5950.8412086495118
 20
16958.935839999958
 30
0.0
 11
9826.5486226495123
 21
16958.935839999958
 31
0.0
  0
LINE
  5
5CEC
  8
2-0
  6
CONTINUOUS
 62
     3
 10
10132.3119916495
 20
16958.935839999958
 30
0.0
 11
10865.24557164951
 21
16958.935839999958
 31
0.0
  0
LINE
  5
5CED
  8
2-0
  6
CONTINUOUS
 62
     3
 10
10043.31877464949
 20
16868.934057999992
 30
0.0
 11
11089.366665649501
 21
16868.934057999992
 31
0.0
  0
LINE
  5
5CEE
  8
2-0
  6
CONTINUOUS
 62
     3
 10
11006.337738649499
 20
16913.935443999992
 30
0.0
 11
9893.4573406495165
 21
16244.73444299999
 31
0.0
  0
LINE
  5
5CEF
  8
2-0
  6
CONTINUOUS
 62
     3
 10
9616.2594156495161
 20
16078.046111999991
 30
0.0
 11
8588.3359966495063
 21
15455.175955500001
 31
0.0
  0
LINE
  5
5CF0
  8
2-0
  6
CONTINUOUS
 62
     3
 10
8588.3359966495063
 20
16913.935443999992
 30
0.0
 11
9336.9404356495124
 21
16463.78697999995
 31
0.0
  0
LINE
  5
5CF1
  8
2-0
  6
CONTINUOUS
 62
     3
 10
9985.8721556495111
 20
16073.563491999979
 30
0.0
 11
11006.337738649499
 21
15455.175955500001
 31
0.0
  0
LINE
  5
5CF2
  8
2-0
  6
CONTINUOUS
 62
     3
 10
9985.8721556495111
 20
16175.02470699998
 30
0.0
 11
9985.8721556495111
 21
14956.8905485
 31
0.0
  0
LINE
  5
5CF3
  8
2-0
  6
CONTINUOUS
 62
     3
 10
9985.8721556495111
 20
14956.8905485
 30
0.0
 11
9985.8721556495111
 21
14897.586151499991
 31
0.0
  0
LINE
  5
5CF4
  8
2-0
  6
CONTINUOUS
 62
     3
 10
11006.337738649499
 20
15455.175955500001
 30
0.0
 11
9985.8721556495111
 21
14989.2536975
 31
0.0
  0
LINE
  5
5CF5
  8
2-0
  6
CONTINUOUS
 62
     3
 10
9985.8721556495111
 20
14467.0923275
 30
0.0
 11
11006.337738649499
 21
13995.935443999981
 31
0.0
  0
LINE
  5
5CF6
  8
2-0
  6
CONTINUOUS
 62
     3
 10
9685.8721556495111
 20
14502.2812395
 30
0.0
 11
8588.3359966495063
 21
13995.935443999981
 31
0.0
  0
LINE
  5
5CF7
  8
2-0
  6
CONTINUOUS
 62
     3
 10
8588.3359966495063
 20
15455.175955500001
 30
0.0
 11
9685.8721556495111
 21
14954.0628065
 31
0.0
  0
LINE
  5
5CF8
  8
2-0
  6
CONTINUOUS
 62
     3
 10
5950.8412086495118
 20
15410.174569499981
 30
0.0
 11
9685.8721556495111
 21
15410.174569499981
 31
0.0
  0
LINE
  5
5CF9
  8
2-0
  6
CONTINUOUS
 62
     3
 10
5950.8412086495118
 20
15500.173381500001
 30
0.0
 11
9685.8721556495111
 21
15500.173381500001
 31
0.0
  0
LINE
  5
5CFA
  8
2-0
  6
CONTINUOUS
 62
     3
 10
9985.8721556495111
 20
15500.173381500001
 30
0.0
 11
13590.83784464951
 21
15500.173381500001
 31
0.0
  0
LINE
  5
5CFB
  8
2-0
  6
CONTINUOUS
 62
     3
 10
9985.8721556495111
 20
15410.174569499981
 30
0.0
 11
13590.83784464951
 21
15410.174569499981
 31
0.0
  0
LINE
  5
5CFC
  8
2-0
  6
CONTINUOUS
 62
     3
 10
9985.8721556495111
 20
13835.440036
 30
0.0
 11
13729.33787164949
 21
13835.440036
 31
0.0
  0
LINE
  5
5CFD
  8
2-0
  6
CONTINUOUS
 62
     3
 10
9985.8721556495111
 20
13803.43715899999
 30
0.0
 11
13729.33787164949
 21
13803.43715899999
 31
0.0
  0
LINE
  5
5CFE
  8
2-0
  6
CONTINUOUS
 62
     3
 10
9985.8721556495111
 20
13959.43708
 30
0.0
 11
13686.33971864952
 21
13959.43708
 31
0.0
  0
LINE
  5
5CFF
  8
2-0
  6
CONTINUOUS
 62
     3
 10
9985.8721556495111
 20
14038.439667000001
 30
0.0
 11
13643.838464649511
 21
14038.439667000001
 31
0.0
  0
LINE
  5
5D00
  8
2-0
  6
CONTINUOUS
 62
     3
 10
5950.8412086495118
 20
14038.439667000001
 30
0.0
 11
9685.8721556495111
 21
14038.439667000001
 31
0.0
  0
LINE
  5
5D01
  8
2-0
  6
CONTINUOUS
 62
     3
 10
5908.3389656495119
 20
13959.43708
 30
0.0
 11
9685.8721556495111
 21
13959.43708
 31
0.0
  0
LINE
  5
5D02
  8
2-0
  6
CONTINUOUS
 62
     3
 10
5865.338338649507
 20
13835.440036
 30
0.0
 11
9685.8721556495111
 21
13835.440036
 31
0.0
  0
LINE
  5
5D03
  8
2-0
  6
CONTINUOUS
 62
     3
 10
5865.338338649507
 20
13803.43715899999
 30
0.0
 11
9685.8721556495111
 21
13803.43715899999
 31
0.0
  0
LINE
  5
5D04
  8
2-0
  6
CONTINUOUS
 62
     3
 10
10330.8171246495
 20
17178.548369
 30
0.0
 11
10330.8171246495
 21
19683.931748999981
 31
0.0
  0
LINE
  5
5D05
  8
2-0
  6
CONTINUOUS
 62
     3
 10
10367.816306649511
 20
17163.688123
 30
0.0
 11
10367.816306649511
 21
19683.931748999981
 31
0.0
  0
LINE
  5
5D06
  8
2-0
  6
CONTINUOUS
 62
     3
 10
10530.814815649501
 20
17093.236277999989
 30
0.0
 11
10530.814815649501
 21
19683.931748999981
 31
0.0
  0
LINE
  5
5D07
  8
2-0
  6
CONTINUOUS
 62
     3
 10
10567.81498664951
 20
17078.378010999972
 30
0.0
 11
10567.81498664951
 21
19683.931748999981
 31
0.0
  0
LINE
  5
5D08
  8
2-0
  6
CONTINUOUS
 62
     3
 10
10730.81547564951
 20
17012.921269999981
 30
0.0
 11
10730.81547564951
 21
19683.931748999981
 31
0.0
  0
LINE
  5
5D09
  8
2-0
  6
CONTINUOUS
 62
     3
 10
10767.81168764951
 20
16998.063003999981
 30
0.0
 11
10767.81168764951
 21
19683.931748999981
 31
0.0
  0
LINE
  5
5D0A
  8
2-0
  6
CONTINUOUS
 62
     3
 10
10930.81316564951
 20
16932.608242999991
 30
0.0
 11
10930.81316564951
 21
19683.931748999981
 31
0.0
  0
LINE
  5
5D0B
  8
2-0
  6
CONTINUOUS
 62
     3
 10
10967.80937864951
 20
16917.747996999991
 30
0.0
 11
10967.80937864951
 21
19683.931748999981
 31
0.0
  0
LINE
  5
5D0C
  8
2-0
  6
CONTINUOUS
 62
     3
 10
5865.338338649507
 20
13803.43715899999
 30
0.0
 11
5865.338338649507
 21
19693.936763999991
 31
0.0
  0
LINE
  5
5D0D
  8
2-0
  6
CONTINUOUS
 62
     3
 10
5908.3389656495119
 20
13835.440036
 30
0.0
 11
5908.3389656495119
 21
19240.597315999981
 31
0.0
  0
LINE
  5
5D0E
  8
2-0
  6
CONTINUOUS
 62
     3
 10
5950.8412086495118
 20
13959.43708
 30
0.0
 11
5950.8412086495118
 21
19219.05619499995
 31
0.0
  0
LINE
  5
5D0F
  8
2-0
  6
CONTINUOUS
 62
     3
 10
6000.8388596495088
 20
14038.439667000001
 30
0.0
 11
6000.8388596495088
 21
19683.931748999981
 31
0.0
  0
LINE
  5
5D10
  8
2-0
  6
CONTINUOUS
 62
     3
 10
8471.3405096495153
 20
14038.439667000001
 30
0.0
 11
8471.3405096495153
 21
15410.174569499981
 31
0.0
  0
LINE
  5
5D11
  8
2-0
  6
CONTINUOUS
 62
     3
 10
8528.3357986495103
 20
14038.439667000001
 30
0.0
 11
8528.3357986495103
 21
15410.174569499981
 31
0.0
  0
LINE
  5
5D12
  8
2-0
  6
CONTINUOUS
 62
     3
 10
8585.3320766495126
 20
14038.439667000001
 30
0.0
 11
8585.3320766495126
 21
15410.174569499981
 31
0.0
  0
LINE
  5
5D13
  8
2-0
  6
CONTINUOUS
 62
     3
 10
11046.33984964951
 20
14038.439667000001
 30
0.0
 11
11046.33984964951
 21
15410.174569499981
 31
0.0
  0
LINE
  5
5D14
  8
2-0
  6
CONTINUOUS
 62
     3
 10
11086.338991649511
 20
14038.439667000001
 30
0.0
 11
11086.338991649511
 21
15410.174569499981
 31
0.0
  0
LINE
  5
5D15
  8
2-0
  6
CONTINUOUS
 62
     3
 10
11126.338134649501
 20
14038.439667000001
 30
0.0
 11
11126.338134649501
 21
15410.174569499981
 31
0.0
  0
LINE
  5
5D16
  8
2-0
  6
CONTINUOUS
 62
     3
 10
13729.33787164949
 20
13803.43715899999
 30
0.0
 11
13729.33787164949
 21
19693.936763999991
 31
0.0
  0
LINE
  5
5D17
  8
2-0
  6
CONTINUOUS
 62
     3
 10
13686.33971864952
 20
13835.440036
 30
0.0
 11
13686.33971864952
 21
15829.87188799998
 31
0.0
  0
LINE
  5
5D18
  8
2-0
  6
CONTINUOUS
 62
     3
 10
13643.838464649511
 20
13959.43708
 30
0.0
 11
13643.838464649511
 21
15846.93830799999
 31
0.0
  0
LINE
  5
5D19
  8
2-0
  6
CONTINUOUS
 62
     3
 10
13593.83784464951
 20
13835.440036
 30
0.0
 11
13593.83784464951
 21
19683.931748999981
 31
0.0
  0
LINE
  5
5D1A
  8
2-0
  6
CONTINUOUS
 62
     3
 10
9685.8721556495111
 20
16025.53641199999
 30
0.0
 11
9685.8721556495111
 21
13664.23147399998
 31
0.0
  0
LINE
  5
5D1B
  8
2-0
  6
CONTINUOUS
 62
     3
 10
9985.8721556495111
 20
14897.586151499991
 30
0.0
 11
9985.8721556495111
 21
13664.23147399998
 31
0.0
  0
LINE
  5
5D1C
  8
0-1
  6
CONTINUOUS
 62
     3
 10
8448.3394936495133
 20
15455.171006499981
 30
0.0
 11
6020.8424296495104
 21
13995.935443999981
 31
0.0
  0
LINE
  5
5D1D
  8
0-1
  6
CONTINUOUS
 62
     3
 10
6020.8424296495104
 20
15455.171006499981
 30
0.0
 11
8448.3394936495133
 21
13995.935443999981
 31
0.0
  0
LINE
  5
5D1E
  8
0-1
  6
CONTINUOUS
 62
     3
 10
13583.83331864952
 20
15455.171006499981
 30
0.0
 11
11156.34070764949
 21
13995.935443999981
 31
0.0
  0
LINE
  5
5D1F
  8
0-1
  6
CONTINUOUS
 62
     3
 10
11156.34070764949
 20
15455.171006499981
 30
0.0
 11
13583.83331864952
 21
13995.935443999981
 31
0.0
  0
CIRCLE
  5
5D20
  8
0-5
  6
CONTINUOUS
 62
     4
 10
15128.715689000001
 20
1375.999982
 30
0.0
 40
20.0
  0
ARC
  5
5D21
  8
0-5
  6
CONTINUOUS
 62
     4
 10
15128.715689000001
 20
1375.999982
 30
0.0
 40
20.0
 50
180.0
 51
0.0
  0
ARC
  5
5D22
  8
0-5
  6
CONTINUOUS
 62
     4
 10
15128.715689000001
 20
1375.999982
 30
0.0
 40
20.0
 50
0.0
 51
179.99998500000001
  0
CIRCLE
  5
5D23
  8
0-5
  6
CONTINUOUS
 62
     4
 10
15128.715689000001
 20
1776.0000639999971
 30
0.0
 40
20.0
  0
ARC
  5
5D24
  8
0-5
  6
CONTINUOUS
 62
     4
 10
15128.715689000001
 20
1776.0000639999971
 30
0.0
 40
20.0
 50
180.0
 51
0.0
  0
ARC
  5
5D25
  8
0-5
  6
CONTINUOUS
 62
     4
 10
15128.715689000001
 20
1776.0000639999971
 30
0.0
 40
20.0
 50
0.0
 51
179.99998500000001
  0
CIRCLE
  5
5D26
  8
2-0
  6
CONTINUOUS
 62
     4
 10
4421.3399486495073
 20
19481.435443999981
 30
0.0
 40
200.00001
  0
CIRCLE
  5
5D27
  8
2-0
  6
CONTINUOUS
 62
     4
 10
4421.3399486495073
 20
16913.935443999992
 30
0.0
 40
200.00001
  0
CIRCLE
  5
5D28
  8
2-0
  6
CONTINUOUS
 62
     4
 10
4421.3399486495073
 20
13995.935443999981
 30
0.0
 40
200.00001
  0
ARC
  5
5D29
  8
2-0
  6
CONTINUOUS
 62
     3
 10
5870.3381076495098
 20
19698.937027999978
 30
0.0
 40
5.0000019999999941
 50
90.0
 51
180.0
  0
ARC
  5
5D2A
  8
2-0
  6
CONTINUOUS
 62
     3
 10
5933.839084649504
 20
19698.937027999978
 30
0.0
 40
5.0000019999999941
 50
0.0
 51
90.0
  0
ARC
  5
5D2B
  8
2-0
  6
CONTINUOUS
 62
     3
 10
5933.839084649504
 20
19668.931484999961
 30
0.0
 40
5.0000019999999941
 50
270.0
 51
0.0
  0
ARC
  5
5D2C
  8
2-0
  6
CONTINUOUS
 62
     3
 10
13724.33859664951
 20
19698.937027999978
 30
0.0
 40
5.0000019999999941
 50
0.0
 51
90.0
  0
ARC
  5
5D2D
  8
2-0
  6
CONTINUOUS
 62
     3
 10
13660.83366164952
 20
19698.937027999978
 30
0.0
 40
5.0000019999999941
 50
90.0
 51
180.0
  0
ARC
  5
5D2E
  8
2-0
  6
CONTINUOUS
 62
     3
 10
13660.83366164952
 20
19668.931484999961
 30
0.0
 40
5.0000019999999941
 50
180.0
 51
270.0
  0
CIRCLE
  5
5D2F
  8
2-0
  6
CONTINUOUS
 62
     4
 10
8518.3451676495133
 20
20923.933738960812
 30
0.0
 40
200.00001
  0
CIRCLE
  5
5D30
  8
2-0
  6
CONTINUOUS
 62
     4
 10
5950.8481376495083
 20
20923.933738879969
 30
0.0
 40
200.00001
  0
CIRCLE
  5
5D31
  8
2-0
  6
CONTINUOUS
 62
     4
 10
11076.344402649511
 20
20923.933738911848
 30
0.0
 40
200.00001
  0
CIRCLE
  5
5D32
  8
2-0
  6
CONTINUOUS
 62
     4
 10
13643.838464649511
 20
20923.932410000001
 30
0.0
 40
200.00001
  0
TEXT
  5
5D33
  8
0-5
  6
CONTINUOUS
 62
     7
 10
16664.359801342911
 20
1655.299117905151
 30
0.0
 40
160.0
  1
H
  0
TEXT
  5
5D34
  8
0-5
  6
CONTINUOUS
 62
     7
 10
15176.146933
 20
1655.999916
 30
0.0
 40
160.0
  1
（ ）内寸法ハ、  タ イプヲ示ス。
  0
TEXT
  5
5D35
  8
0-5
  6
CONTINUOUS
 62
     7
 10
15288.715227000001
 20
1255.999957
 30
0.0
 40
160.0
  1
有効高サハ、基礎高サヲ含ミマセン。
  0
TEXT
  5
5D36
  8
2-0
  6
CONTINUOUS
 62
     7
 10
7750.0301676495101
 20
13215.940789
 30
0.0
 40
160.0
  1
鼻隠し前
 50
359.99973399999988
 72
     4
 11
8112.697205718333
 21
13295.93910529164
 31
0.0
  0
TEXT
  5
5D37
  8
2-0
  6
CONTINUOUS
 62
     7
 10
4303.5061356495089
 20
12815.938479
 30
0.0
 40
160.0
  1
ケラバ 左
 72
     4
 11
4719.5061356495089
 21
12895.938479
 31
0.0
  0
TEXT
  5
5D38
  8
2-0
  6
CONTINUOUS
 62
     7
 10
12147.34610464949
 20
14395.517884499999
 30
0.0
 40
160.0
  1
桁（前）
 72
     4
 11
12467.34610464949
 21
14475.517884499999
 31
0.0
  0
TEXT
  5
5D39
  8
2-0
  6
CONTINUOUS
 62
     7
 10
8260.2035736495127
 20
20013.937819999988
 30
0.0
 40
160.0
  1
屋根
 50
0.000354
 72
     4
 11
8430.869746035678
 21
20093.93887445658
 31
0.0
  0
TEXT
  5
5D3A
  8
2-0
  6
CONTINUOUS
 62
     7
 10
6491.5769636495133
 20
20735.375345999979
 30
0.0
 40
160.0
  1
鼻隠しコーナー後
 72
     4
 11
7238.2436303161812
 21
20815.375345999979
 31
0.0
  0
TEXT
  5
5D3B
  8
2-0
  6
CONTINUOUS
 62
     7
 10
6204.8669556495133
 20
18791.139703999979
 30
0.0
 40
160.0
  1
上枠
 50
359.99964599999993
 72
     4
 11
6375.5341165901664
 21
18871.138649540331
 31
0.0
  0
TEXT
  5
5D3C
  8
2-0
  6
CONTINUOUS
 62
     7
 10
4365.4051876495096
 20
19395.07102799998
 30
0.0
 40
160.0
  1
C
 50
0.004253
 72
     4
 11
4418.7325825276712
 21
19475.074986651751
 31
0.0
  0
TEXT
  5
5D3D
  8
2-0
  6
CONTINUOUS
 62
     7
 10
4361.5807576495117
 20
16827.578945999951
 30
0.0
 40
160.0
  1
B
 72
     4
 11
4414.9140909828457
 21
16907.578945999951
 31
0.0
  0
TEXT
  5
5D3E
  8
2-0
  6
CONTINUOUS
 62
     7
 10
4376.8878796495064
 20
13909.581915000001
 30
0.0
 40
160.0
  1
A
 50
359.99787299999991
 72
     4
 11
4430.2241827983444
 21
13989.57993504337
 31
0.0
  0
TEXT
  5
5D3F
  8
2-0
  6
CONTINUOUS
 62
     7
 10
7447.8551716495122
 20
16178.84319799997
 30
0.0
 40
160.0
  1
梁＋梁補強
 50
359.99978700000008
 72
     4
 11
7906.522135717114
 21
16258.84149288255
 31
0.0
  0
TEXT
  5
5D40
  8
2-0
  6
CONTINUOUS
 62
     7
 10
6391.7873351967919
 20
17864.090295000009
 30
0.0
 40
160.0
  1
桁中B + 桁中補強B
 72
     4
 11
7277.1206685301267
 21
17944.090295000009
 31
0.0
  0
TEXT
  5
5D41
  8
2-0
  6
CONTINUOUS
 62
     7
 10
6396.5456021967948
 20
14977.8091105
 30
0.0
 40
160.0
  1
桁中B + 桁中補強B
 50
359.99987499999992
 72
     4
 11
7281.8791100609469
 21
15057.8071790021
 31
0.0
  0
TEXT
  5
5D42
  8
2-0
  6
CONTINUOUS
 62
     7
 10
6455.2630721967917
 20
16550.863032999991
 30
0.0
 40
160.0
  1
桁中A + 桁中補強A
 72
     4
 11
7340.5964055301247
 21
16630.863032999991
 31
0.0
  0
TEXT
  5
5D43
  8
2-0
  6
CONTINUOUS
 62
     7
 10
8466.7163546495103
 20
20828.416027960811
 30
0.0
 40
160.0
  1
2
 72
     4
 11
8520.0496879828461
 21
20908.416027960811
 31
0.0
  0
TEXT
  5
5D44
  8
2-0
  6
CONTINUOUS
 62
     7
 10
5906.6365796495083
 20
20835.174104879989
 30
0.0
 40
160.0
  1
1
 50
359.998582
 72
     4
 11
5933.3052262095116
 21
20915.173444888322
 31
0.0
  0
TEXT
  5
5D45
  8
2-0
  6
CONTINUOUS
 62
     7
 10
8312.2109696495136
 20
11883.731237347451
 30
0.0
 40
160.0
  1
小 屋 伏 図
 50
359.99980699999981
 72
     4
 11
8813.544572458839
 21
11963.729548612961
 31
0.0
  0
TEXT
  5
5D46
  8
2-0
  6
CONTINUOUS
 62
     7
 10
10911.229405106809
 20
20865.023261211129
 30
0.0
 40
140.0
  1
n-1
 50
359.99952699999972
 72
     4
 11
11074.56331631309
 21
20935.02191282553
 31
0.0
  0
TEXT
  5
5D47
  8
2-0
  6
CONTINUOUS
 62
     7
 10
13593.571559649519
 20
20838.112361
 30
0.0
 40
160.0
  1
n
 50
0.001418
 72
     4
 11
13646.90357303219
 21
20891.447014251331
 31
0.0
  0
TEXT
  5
5D50
  8
0-3
  6
CONTINUOUS
 62
     7
 10
27544.4346805186
 20
3658.1200421350532
 30
0.0
 40
160.0
  1
連結する場合は強度上、下記間口寸法に一ヶ所
  0
TEXT
  5
5D51
  8
0-3
  6
CONTINUOUS
 62
     7
 10
27544.4346805186
 20
3451.291530856121
 30
0.0
 40
160.0
  1
中間ブレース、もしくは間仕切りが必要になります。
  0
TEXT
  5
5D52
  8
0-3
  6
CONTINUOUS
 62
     7
 10
27544.4346805186
 20
3124.142197938243
 30
0.0
 40
160.0
  1
標準タイプ：間口寸法 7.00ｍ以内に一箇所
  0
TEXT
  5
5D53
  8
0-3
  6
CONTINUOUS
 62
     7
 10
27571.745290429761
 20
2873.074148021421
 30
0.0
 40
160.0
  1
Hタイプ　：間口寸法 6.65ｍ以内に一箇所
  0
TEXT
  5
5D54
  8
2-0
  6
CONTINUOUS
 62
     7
 10
10165.036757596459
 20
11910.924917612951
 30
0.0
 40
160.0
  1
1
 72
     4
 11
10191.703424263131
 21
11990.924917612951
 31
0.0
  0
TEXT
  5
5D55
  8
2-0
  6
CONTINUOUS
 62
     7
 10
10408.12547484716
 20
11830.92638561294
 30
0.0
 40
160.0
  1
80
 72
     4
 11
10528.12547484716
 21
11910.92638561294
 31
0.0
  0
TEXT
  5
5D56
  8
2-0
  6
CONTINUOUS
 62
     7
 10
9666.0387235964608
 20
11883.729548612961
 30
0.0
 40
160.0
  1
(S=  /   )
 72
     4
 11
10226.038723596461
 21
11963.729548612961
 31
0.0
  0
TEXT
  5
5D57
  8
0-6
  6
CONTINUOUS
 62
     7
 10
6249.582511016868
 20
20013.927920999991
 30
0.0
 40
160.0
  1
桁後+桁後補強
 72
     4
 11
6884.249177683535
 21
20093.927920999991
 31
0.0
  0
LINE
  5
5D58
  8
0-6
  6
CONTINUOUS
 62
     6
 10
7693.2979188720446
 20
19527.429557999982
 30
0.0
 11
7559.9039709908056
 21
19933.92963699999
 31
0.0
  0
LINE
  5
5D59
  8
0-6
  6
CONTINUOUS
 62
     6
 10
6200.6633264215798
 20
19933.92963699999
 30
0.0
 11
7559.9039709908056
 21
19933.92963699999
 31
0.0
  0
LINE
  5
5D5A
  8
0-6
  6
CONTINUOUS
 62
     6
 10
7669.6904635047531
 20
19687.910996424911
 30
0.0
 11
7618.9168197318113
 21
19671.57748024015
 31
0.0
  0
LINE
  5
5D5B
  8
0-6
  6
CONTINUOUS
 62
     6
 10
7669.6904635047531
 20
19687.910996424911
 30
0.0
 11
7693.2979188720446
 21
19527.429557999982
 31
0.0
  0
LINE
  5
5D5C
  8
0-6
  6
CONTINUOUS
 62
     6
 10
7618.9168197318113
 20
19671.57748024015
 30
0.0
 11
7669.6904635047531
 21
19687.910996424911
 31
0.0
  0
LINE
  5
5D5D
  8
0-6
  6
CONTINUOUS
 62
     6
 10
7693.2979188720446
 20
19527.429557999982
 30
0.0
 11
7618.9168197318113
 21
19671.57748024015
 31
0.0
  0
LINE
  5
5D5E
  8
0-6
  6
CONTINUOUS
 62
     6
 10
7693.2979188720446
 20
19527.429557999982
 30
0.0
 11
7669.6904635047531
 21
19687.910996424911
 31
0.0
  0
LINE
  5
5D5F
  8
0-6
  6
CONTINUOUS
 62
     6
 10
7618.9168197318113
 20
19671.57748024015
 30
0.0
 11
7693.2979188720446
 21
19527.429557999982
 31
0.0
  0
LINE
  5
5D60
  8
0-1
  6
CONTINUOUS
 62
     3
 10
6676.1499280000071
 20
7795.5489240000006
 30
0.0
 11
12206.648344999991
 21
7795.5489240000006
 31
0.0
  0
LINE
  5
5D61
  8
0-1
  6
CONTINUOUS
 62
     3
 10
5966.1490700000022
 20
5784.5030450000013
 30
0.0
 11
12239.148147
 21
5784.5030450000013
 31
0.0
  0
LINE
  5
5D62
  8
0-1
  6
CONTINUOUS
 62
     3
 10
6771.1490040000053
 20
5934.5030449999986
 30
0.0
 11
9193.6482790000045
 21
5934.5030449999986
 31
0.0
  0
LINE
  5
5D63
  8
0-1
  6
CONTINUOUS
 62
     3
 10
6648.6481469999999
 20
5884.5028800000018
 30
0.0
 11
12239.148147
 21
5884.5028800000018
 31
0.0
  0
LINE
  5
5D64
  8
0-1
  6
CONTINUOUS
 62
     3
 10
6771.1490040000053
 20
7795.5489240000006
 30
0.0
 11
6771.1490040000053
 21
5884.5028800000018
 31
0.0
  0
LINE
  5
5D65
  8
0-1
  6
CONTINUOUS
 62
     3
 10
6656.1488720000061
 20
7917.5169609999957
 30
0.0
 11
6656.1488720000061
 21
5884.5028800000018
 31
0.0
  0
LINE
  5
5D66
  8
0-1
  6
CONTINUOUS
 62
     3
 10
6676.1499280000071
 20
7918.1721820000021
 30
0.0
 11
6676.1499280000071
 21
5884.5028800000018
 31
0.0
  0
LINE
  5
5D67
  8
0-1
  6
CONTINUOUS
 62
     3
 10
6648.6481469999999
 20
5784.5030450000013
 30
0.0
 11
6648.6481469999999
 21
5884.5028800000018
 31
0.0
  0
LINE
  5
5D68
  8
0-1
  6
CONTINUOUS
 62
     3
 10
12301.782029
 20
8101.992256999999
 30
0.0
 11
12297.522105
 21
8231.9219180000018
 31
0.0
  0
LINE
  5
5D69
  8
0-1
  6
CONTINUOUS
 62
     3
 10
9338.6480150000025
 20
5934.5030449999986
 30
0.0
 11
12111.648278999999
 21
5934.5030449999986
 31
0.0
  0
LINE
  5
5D6A
  8
0-1
  6
CONTINUOUS
 62
     3
 10
8802.1480009999905
 20
5934.5030449999986
 30
0.0
 11
8802.1480009999905
 21
7795.5489240000006
 31
0.0
  0
LINE
  5
5D6B
  8
0-1
  6
CONTINUOUS
 62
     3
 10
8669.1490970000032
 20
5934.5030449999986
 30
0.0
 11
8669.1490970000032
 21
7795.5489240000006
 31
0.0
  0
LINE
  5
5D6C
  8
0-1
  6
CONTINUOUS
 62
     3
 10
8654.1473150000002
 20
5934.5030449999986
 30
0.0
 11
8654.1473150000002
 21
7795.5489240000006
 31
0.0
  0
LINE
  5
5D6D
  8
0-1
  6
CONTINUOUS
 62
     3
 10
8852.1496509999888
 20
5934.5030449999986
 30
0.0
 11
8852.1496509999888
 21
7795.5489240000006
 31
0.0
  0
LINE
  5
5D6E
  8
0-1
  6
CONTINUOUS
 62
     3
 10
8872.1487269999998
 20
5934.5030449999986
 30
0.0
 11
8872.1487269999998
 21
7795.5489240000006
 31
0.0
  0
LINE
  5
5D6F
  8
0-1
  6
CONTINUOUS
 62
     3
 10
8922.1493870000013
 20
5934.5030449999986
 30
0.0
 11
8922.1493870000013
 21
7795.5489240000006
 31
0.0
  0
LINE
  5
5D70
  8
0-1
  6
CONTINUOUS
 62
     3
 10
9055.1482919999999
 20
5934.5030449999986
 30
0.0
 11
9055.1482919999999
 21
7795.5489240000006
 31
0.0
  0
LINE
  5
5D71
  8
0-1
  6
CONTINUOUS
 62
     3
 10
9070.1471040000033
 20
5934.5030449999986
 30
0.0
 11
9070.1471040000033
 21
7795.5489240000006
 31
0.0
  0
LINE
  5
5D72
  8
0-1
  6
CONTINUOUS
 62
     3
 10
9338.6480150000025
 20
7795.5489240000006
 30
0.0
 11
9338.6480150000025
 21
5884.5028800000018
 31
0.0
  0
LINE
  5
5D73
  8
0-1
  6
CONTINUOUS
 62
     3
 10
9193.6482790000045
 20
7795.5489240000006
 30
0.0
 11
9193.6482790000045
 21
5884.5028800000018
 31
0.0
  0
LINE
  5
5D74
  8
0-1
  6
CONTINUOUS
 62
     3
 10
9462.1472099999955
 20
5934.5030449999986
 30
0.0
 11
9462.1472099999955
 21
7795.5489240000006
 31
0.0
  0
LINE
  5
5D75
  8
0-1
  6
CONTINUOUS
 62
     3
 10
9477.1489909999982
 20
5934.5030449999986
 30
0.0
 11
9477.1489909999982
 21
7795.5489240000006
 31
0.0
  0
LINE
  5
5D76
  8
0-1
  6
CONTINUOUS
 62
     3
 10
9610.1478960000022
 20
5934.5030449999986
 30
0.0
 11
9610.1478960000022
 21
7795.5489240000006
 31
0.0
  0
LINE
  5
5D77
  8
0-1
  6
CONTINUOUS
 62
     3
 10
9660.1485559999965
 20
5934.5030449999986
 30
0.0
 11
9660.1485559999965
 21
7795.5489240000006
 31
0.0
  0
LINE
  5
5D78
  8
0-1
  6
CONTINUOUS
 62
     3
 10
9680.1476320000002
 20
5934.5030449999986
 30
0.0
 11
9680.1476320000002
 21
7795.5489240000006
 31
0.0
  0
LINE
  5
5D79
  8
0-1
  6
CONTINUOUS
 62
     3
 10
7452.1480009999868
 20
5934.5030449999986
 30
0.0
 11
7452.1480009999868
 21
7795.5489240000006
 31
0.0
  0
LINE
  5
5D7A
  8
0-1
  6
CONTINUOUS
 62
     3
 10
7472.1500470000028
 20
5934.5030449999986
 30
0.0
 11
7472.1500470000028
 21
7795.5489240000006
 31
0.0
  0
LINE
  5
5D7B
  8
0-1
  6
CONTINUOUS
 62
     3
 10
7402.1473419999893
 20
5934.5030449999986
 30
0.0
 11
7402.1473419999893
 21
7795.5489240000006
 31
0.0
  0
LINE
  5
5D7C
  8
0-1
  6
CONTINUOUS
 62
     3
 10
7522.1477379999978
 20
5934.5030449999986
 30
0.0
 11
7522.1477379999978
 21
7795.5489240000006
 31
0.0
  0
LINE
  5
5D7D
  8
0-1
  6
CONTINUOUS
 62
     3
 10
7655.1476320000029
 20
5934.5030449999986
 30
0.0
 11
7655.1476320000029
 21
7795.5489240000006
 31
0.0
  0
LINE
  5
5D7E
  8
0-1
  6
CONTINUOUS
 62
     3
 10
7670.1494139999977
 20
5934.5030449999986
 30
0.0
 11
7670.1494139999977
 21
7795.5489240000006
 31
0.0
  0
LINE
  5
5D7F
  8
0-1
  6
CONTINUOUS
 62
     3
 10
7259.6486610000075
 20
5934.5030449999986
 30
0.0
 11
7259.6486610000075
 21
7795.5489240000006
 31
0.0
  0
LINE
  5
5D80
  8
0-1
  6
CONTINUOUS
 62
     3
 10
7244.6498490000049
 20
5934.5030449999986
 30
0.0
 11
7244.6498490000049
 21
7795.5489240000006
 31
0.0
  0
LINE
  5
5D81
  8
0-1
  6
CONTINUOUS
 62
     3
 10
7954.1479749999889
 20
5934.5030449999986
 30
0.0
 11
7954.1479749999889
 21
7795.5489240000006
 31
0.0
  0
LINE
  5
5D82
  8
0-1
  6
CONTINUOUS
 62
     3
 10
7969.1467869999906
 20
5934.5030449999986
 30
0.0
 11
7969.1467869999906
 21
7795.5489240000006
 31
0.0
  0
LINE
  5
5D83
  8
0-1
  6
CONTINUOUS
 62
     3
 10
8370.1487540000016
 20
5934.5030449999986
 30
0.0
 11
8370.1487540000016
 21
7795.5489240000006
 31
0.0
  0
LINE
  5
5D84
  8
0-1
  6
CONTINUOUS
 62
     3
 10
8355.1469720000023
 20
5934.5030449999986
 30
0.0
 11
8355.1469720000023
 21
7795.5489240000006
 31
0.0
  0
LINE
  5
5D85
  8
0-1
  6
CONTINUOUS
 62
     3
 10
8222.1470779999909
 20
5934.5030449999986
 30
0.0
 11
8222.1470779999909
 21
7795.5489240000006
 31
0.0
  0
LINE
  5
5D86
  8
0-1
  6
CONTINUOUS
 62
     3
 10
8102.148661000002
 20
5934.5030449999986
 30
0.0
 11
8102.148661000002
 21
7795.5489240000006
 31
0.0
  0
LINE
  5
5D87
  8
0-1
  6
CONTINUOUS
 62
     3
 10
8172.1493869999904
 20
5934.5030449999986
 30
0.0
 11
8172.1493869999904
 21
7795.5489240000006
 31
0.0
  0
LINE
  5
5D88
  8
0-1
  6
CONTINUOUS
 62
     3
 10
8152.1473419999902
 20
5934.5030449999986
 30
0.0
 11
8152.1473419999902
 21
7795.5489240000006
 31
0.0
  0
LINE
  5
5D89
  8
0-1
  6
CONTINUOUS
 62
     3
 10
8493.6489380000057
 20
7795.5489240000006
 30
0.0
 11
8493.6489380000057
 21
5934.5030449999986
 31
0.0
  0
LINE
  5
5D8A
  8
0-1
  6
CONTINUOUS
 62
     3
 10
8530.6471310000015
 20
7795.5489240000006
 30
0.0
 11
8530.6471310000015
 21
5934.5030449999986
 31
0.0
  0
LINE
  5
5D8B
  8
0-1
  6
CONTINUOUS
 62
     3
 10
7084.1485030000067
 20
7795.5489240000006
 30
0.0
 11
7084.1485030000067
 21
5934.5030449999986
 31
0.0
  0
LINE
  5
5D8C
  8
0-1
  6
CONTINUOUS
 62
     3
 10
7121.1486740000073
 20
7795.5489240000006
 30
0.0
 11
7121.1486740000073
 21
5934.5030449999986
 31
0.0
  0
LINE
  5
5D8D
  8
0-1
  6
CONTINUOUS
 62
     3
 10
7793.6495980000027
 20
7795.5489240000006
 30
0.0
 11
7793.6495980000027
 21
5934.5030449999986
 31
0.0
  0
LINE
  5
5D8E
  8
0-1
  6
CONTINUOUS
 62
     3
 10
7830.64778999999
 20
7795.5489240000006
 30
0.0
 11
7830.64778999999
 21
5934.5030449999986
 31
0.0
  0
LINE
  5
5D8F
  8
0-1
  6
CONTINUOUS
 62
     3
 10
9266.1481469999999
 20
8002.7847239999974
 30
0.0
 11
9261.8872330000013
 21
8132.7143850000029
 31
0.0
  0
LINE
  5
5D90
  8
0-1
  6
CONTINUOUS
 62
     3
 10
9266.1481469999999
 20
8002.7847239999974
 30
0.0
 11
9266.1481469999999
 21
7795.5489240000006
 31
0.0
  0
LINE
  5
5D91
  8
0-1
  6
CONTINUOUS
 62
     3
 10
12111.648278999999
 20
7795.5489240000006
 30
0.0
 11
12111.648278999999
 21
5884.5028800000018
 31
0.0
  0
LINE
  5
5D92
  8
0-1
  6
CONTINUOUS
 62
     3
 10
12226.647421
 20
8099.5287460000018
 30
0.0
 11
12226.647421
 21
5884.5028800000018
 31
0.0
  0
LINE
  5
5D93
  8
0-1
  6
CONTINUOUS
 62
     3
 10
12206.648344999991
 20
8098.8725359999999
 30
0.0
 11
12206.648344999991
 21
5884.5028800000018
 31
0.0
  0
LINE
  5
5D94
  8
0-1
  6
CONTINUOUS
 62
     3
 10
10701.648502999969
 20
7795.5489240000006
 30
0.0
 11
10701.648502999969
 21
5934.5030449999986
 31
0.0
  0
LINE
  5
5D95
  8
0-1
  6
CONTINUOUS
 62
     3
 10
10738.647684999991
 20
7795.5489240000006
 30
0.0
 11
10738.647684999991
 21
5934.5030449999986
 31
0.0
  0
LINE
  5
5D96
  8
0-1
  6
CONTINUOUS
 62
     3
 10
11411.648939000001
 20
7795.5489240000006
 30
0.0
 11
11411.648939000001
 21
5934.5030449999986
 31
0.0
  0
LINE
  5
5D97
  8
0-1
  6
CONTINUOUS
 62
     3
 10
11448.647131
 20
7795.5489240000006
 30
0.0
 11
11448.647131
 21
5934.5030449999986
 31
0.0
  0
LINE
  5
5D98
  8
0-1
  6
CONTINUOUS
 62
     3
 10
10001.64718299999
 20
7795.5489240000006
 30
0.0
 11
10001.64718299999
 21
5934.5030449999986
 31
0.0
  0
LINE
  5
5D99
  8
0-1
  6
CONTINUOUS
 62
     3
 10
10038.64834499998
 20
7795.5489240000006
 30
0.0
 11
10038.64834499998
 21
5934.5030449999986
 31
0.0
  0
LINE
  5
5D9A
  8
0-1
  6
CONTINUOUS
 62
     3
 10
10380.146972
 20
5934.5030449999986
 30
0.0
 11
10380.146972
 21
7795.5489240000006
 31
0.0
  0
LINE
  5
5D9B
  8
0-1
  6
CONTINUOUS
 62
     3
 10
10360.147895999989
 20
5934.5030449999986
 30
0.0
 11
10360.147895999989
 21
7795.5489240000006
 31
0.0
  0
LINE
  5
5D9C
  8
0-1
  6
CONTINUOUS
 62
     3
 10
10430.147631999989
 20
5934.5030449999986
 30
0.0
 11
10430.147631999989
 21
7795.5489240000006
 31
0.0
  0
LINE
  5
5D9D
  8
0-1
  6
CONTINUOUS
 62
     3
 10
10310.147236000001
 20
5934.5030449999986
 30
0.0
 11
10310.147236000001
 21
7795.5489240000006
 31
0.0
  0
LINE
  5
5D9E
  8
0-1
  6
CONTINUOUS
 62
     3
 10
10177.147342
 20
5934.5030449999986
 30
0.0
 11
10177.147342
 21
7795.5489240000006
 31
0.0
  0
LINE
  5
5D9F
  8
0-1
  6
CONTINUOUS
 62
     3
 10
10162.148529
 20
5934.5030449999986
 30
0.0
 11
10162.148529
 21
7795.5489240000006
 31
0.0
  0
LINE
  5
5DA0
  8
0-1
  6
CONTINUOUS
 62
     3
 10
10563.147525999981
 20
5934.5030449999986
 30
0.0
 11
10563.147525999981
 21
7795.5489240000006
 31
0.0
  0
LINE
  5
5DA1
  8
0-1
  6
CONTINUOUS
 62
     3
 10
10578.149307999989
 20
5934.5030449999986
 30
0.0
 11
10578.149307999989
 21
7795.5489240000006
 31
0.0
  0
LINE
  5
5DA2
  8
0-1
  6
CONTINUOUS
 62
     3
 10
11278.14864799998
 20
5934.5030449999986
 30
0.0
 11
11278.14864799998
 21
7795.5489240000006
 31
0.0
  0
LINE
  5
5DA3
  8
0-1
  6
CONTINUOUS
 62
     3
 10
11263.146866999999
 20
5934.5030449999986
 30
0.0
 11
11263.146866999999
 21
7795.5489240000006
 31
0.0
  0
LINE
  5
5DA4
  8
0-1
  6
CONTINUOUS
 62
     3
 10
10862.147870000001
 20
5934.5030449999986
 30
0.0
 11
10862.147870000001
 21
7795.5489240000006
 31
0.0
  0
LINE
  5
5DA5
  8
0-1
  6
CONTINUOUS
 62
     3
 10
10877.148660999999
 20
5934.5030449999986
 30
0.0
 11
10877.148660999999
 21
7795.5489240000006
 31
0.0
  0
LINE
  5
5DA6
  8
0-1
  6
CONTINUOUS
 62
     3
 10
11010.149546000001
 20
5934.5030449999986
 30
0.0
 11
11010.149546000001
 21
7795.5489240000006
 31
0.0
  0
LINE
  5
5DA7
  8
0-1
  6
CONTINUOUS
 62
     3
 10
11130.146972
 20
5934.5030449999986
 30
0.0
 11
11130.146972
 21
7795.5489240000006
 31
0.0
  0
LINE
  5
5DA8
  8
0-1
  6
CONTINUOUS
 62
     3
 10
11060.147236000001
 20
5934.5030449999986
 30
0.0
 11
11060.147236000001
 21
7795.5489240000006
 31
0.0
  0
LINE
  5
5DA9
  8
0-1
  6
CONTINUOUS
 62
     3
 10
11080.14928199998
 20
5934.5030449999986
 30
0.0
 11
11080.14928199998
 21
7795.5489240000006
 31
0.0
  0
LINE
  5
5DAA
  8
0-1
  6
CONTINUOUS
 62
     3
 10
11790.148728
 20
5934.5030449999986
 30
0.0
 11
11790.148728
 21
7795.5489240000006
 31
0.0
  0
LINE
  5
5DAB
  8
0-1
  6
CONTINUOUS
 62
     3
 10
11770.149652
 20
5934.5030449999986
 30
0.0
 11
11770.149652
 21
7795.5489240000006
 31
0.0
  0
LINE
  5
5DAC
  8
0-1
  6
CONTINUOUS
 62
     3
 10
11840.149387999991
 20
5934.5030449999986
 30
0.0
 11
11840.149387999991
 21
7795.5489240000006
 31
0.0
  0
LINE
  5
5DAD
  8
0-1
  6
CONTINUOUS
 62
     3
 10
11720.148992
 20
5934.5030449999986
 30
0.0
 11
11720.148992
 21
7795.5489240000006
 31
0.0
  0
LINE
  5
5DAE
  8
0-1
  6
CONTINUOUS
 62
     3
 10
11587.149097
 20
5934.5030449999986
 30
0.0
 11
11587.149097
 21
7795.5489240000006
 31
0.0
  0
LINE
  5
5DAF
  8
0-1
  6
CONTINUOUS
 62
     3
 10
11572.14731599998
 20
5934.5030449999986
 30
0.0
 11
11572.14731599998
 21
7795.5489240000006
 31
0.0
  0
LINE
  5
5DB0
  8
0-1
  6
CONTINUOUS
 62
     3
 10
11973.149281999989
 20
5934.5030449999986
 30
0.0
 11
11973.149281999989
 21
7795.5489240000006
 31
0.0
  0
LINE
  5
5DB1
  8
0-1
  6
CONTINUOUS
 62
     3
 10
11988.14809399998
 20
5934.5030449999986
 30
0.0
 11
11988.14809399998
 21
7795.5489240000006
 31
0.0
  0
LINE
  5
5DB2
  8
0-1
  6
CONTINUOUS
 62
     3
 10
9878.1469990000005
 20
5934.5030449999986
 30
0.0
 11
9878.1469990000005
 21
7795.5489240000006
 31
0.0
  0
LINE
  5
5DB3
  8
0-1
  6
CONTINUOUS
 62
     3
 10
9863.1481860000022
 20
5934.5030449999986
 30
0.0
 11
9863.1481860000022
 21
7795.5489240000006
 31
0.0
  0
LINE
  5
5DB4
  8
0-1
  6
CONTINUOUS
 62
     3
 10
9730.1492820000021
 20
5934.5030449999986
 30
0.0
 11
9730.1492820000021
 21
7795.5489240000006
 31
0.0
  0
LINE
  5
5DB5
  8
0-1
  6
CONTINUOUS
 62
     3
 10
12239.148147
 20
5884.5028800000018
 30
0.0
 11
12239.148147
 21
5784.5030450000013
 31
0.0
  0
LINE
  5
5DB6
  8
0-1
  6
CONTINUOUS
 62
     3
 10
6478.8364650000067
 20
7959.728215000001
 30
0.0
 11
6477.7219960000084
 21
7993.7106109999968
 31
0.0
  0
LINE
  5
5DB7
  8
0-1
  6
CONTINUOUS
 62
     3
 10
6480.6219910000063
 20
7996.8065780000006
 30
0.0
 11
12310.989759
 21
8187.3392000000022
 31
0.0
  0
LINE
  5
5DB8
  8
0-1
  6
CONTINUOUS
 62
     3
 10
12312.30118999998
 20
8147.3608429999986
 30
0.0
 11
6481.9344110000056
 21
7956.8282210000016
 31
0.0
  0
LINE
  5
5DB9
  8
0-1
  6
CONTINUOUS
 62
     3
 10
6479.1977269999979
 20
7948.7339690000017
 30
0.0
 11
6479.1947580000051
 21
7948.7992930000028
 31
0.0
  0
LINE
  5
5DBA
  8
0-1
  6
CONTINUOUS
 62
     3
 10
6479.1947580000051
 20
7948.7992930000028
 30
0.0
 11
6480.245882000002
 21
7916.7518770000024
 31
0.0
  0
LINE
  5
5DBB
  8
0-1
  6
CONTINUOUS
 62
     3
 10
6485.4064869999966
 20
7911.9188830000021
 30
0.0
 11
12334.74596199999
 21
8103.0730740000017
 31
0.0
  0
LINE
  5
5DBC
  8
0-1
  6
CONTINUOUS
 62
     3
 10
12330.485048
 20
8233.0027350000037
 30
0.0
 11
6481.1475530000034
 21
8041.8485440000022
 31
0.0
  0
LINE
  5
5DBD
  8
0-1
  6
CONTINUOUS
 62
     3
 10
6476.3125790000049
 20
8036.6869489999981
 30
0.0
 11
6477.3627130000023
 21
8004.7048569999979
 31
0.0
  0
LINE
  5
5DBE
  8
0-1
  6
CONTINUOUS
 62
     3
 10
6480.4586800000043
 20
8001.8048619999981
 30
0.0
 11
12310.827439000001
 21
8192.3374850000018
 31
0.0
  0
LINE
  5
5DBF
  8
0-1
  6
CONTINUOUS
 62
     3
 10
12312.463511
 20
8142.3645380000016
 30
0.0
 11
6482.0967320000054
 21
7951.8309260000033
 31
0.0
  0
LINE
  5
5DC0
  8
0-1
  6
CONTINUOUS
 62
     3
 10
6493.6393050000052
 20
8042.258304
 30
0.0
 11
6497.9002180000016
 21
7912.3276530000021
 31
0.0
  0
LINE
  5
5DC1
  8
0-5
  6
CONTINUOUS
 62
     4
 10
12319.148411
 20
5884.5028800000018
 30
0.0
 11
14036.608359
 21
5884.5028800000018
 31
0.0
  0
LINE
  5
5DC2
  8
0-5
  6
CONTINUOUS
 62
     4
 10
14064.234519999991
 20
6092.3488670000024
 30
0.0
 11
13824.23273899999
 21
6092.3488670000024
 31
0.0
  0
LINE
  5
5DC3
  8
0-5
  6
CONTINUOUS
 62
     4
 10
13944.232144999991
 20
5884.5028800000018
 30
0.0
 11
14064.234519999991
 21
6092.3488670000024
 31
0.0
  0
LINE
  5
5DC4
  8
0-5
  6
CONTINUOUS
 62
     4
 10
13824.23273899999
 20
6092.3488670000024
 30
0.0
 11
13944.232144999991
 21
5884.5028800000018
 31
0.0
  0
LINE
  5
5DC5
  8
2-0
  6
CENTER2
 62
     6
 10
6698.6481469999999
 20
5521.8496330000035
 30
0.0
 11
6698.6481469999999
 21
6578.9927249999982
 31
0.0
  0
LINE
  5
5DC6
  8
2-0
  6
CENTER2
 62
     6
 10
9266.1481469999999
 20
5521.8496330000035
 30
0.0
 11
9266.1481469999999
 21
6578.9927249999982
 31
0.0
  0
LINE
  5
5DC7
  8
2-0
  6
CENTER2
 62
     6
 10
12184.148147
 20
5521.8496330000035
 30
0.0
 11
12184.148147
 21
6578.9927249999982
 31
0.0
  0
ARC
  5
5DC8
  8
0-1
  6
CONTINUOUS
 62
     3
 10
6482.0393260000046
 20
7999.3542180000022
 30
0.0
 40
2.5
 50
271.87799100002047
 51
91.877991000020657
  0
ARC
  5
5DC9
  8
0-1
  6
CONTINUOUS
 62
     3
 10
6483.5140670000046
 20
7954.3795560000017
 30
0.0
 40
2.5
 50
271.87799100002047
 51
91.877991000020657
  0
ARC
  5
5DCA
  8
0-1
  6
CONTINUOUS
 62
     3
 10
6480.7199770000043
 20
7993.8085970000011
 30
0.0
 40
3.0
 50
91.877991000020657
 51
181.87799100002039
  0
ARC
  5
5DCB
  8
0-1
  6
CONTINUOUS
 62
     3
 10
12311.64597
 20
8167.3500219999987
 30
0.0
 40
20.0
 50
271.87799100002047
 51
91.877991000020657
  0
ARC
  5
5DCC
  8
0-1
  6
CONTINUOUS
 62
     3
 10
6481.8344460000053
 20
7959.8271909999976
 30
0.0
 40
3.0
 50
181.87799100002039
 51
271.87799100002047
  0
ARC
  5
5DCD
  8
0-1
  6
CONTINUOUS
 62
     3
 10
6482.1947180000061
 20
7948.8329450000028
 30
0.0
 40
3.0
 50
91.877991000020657
 51
181.87799100002039
  0
ARC
  5
5DCE
  8
0-1
  6
CONTINUOUS
 62
     3
 10
6485.2431770000039
 20
7916.9151880000027
 30
0.0
 40
5.0
 50
181.87799100002039
 51
271.87799100002047
  0
ARC
  5
5DCF
  8
0-1
  6
CONTINUOUS
 62
     3
 10
12306.647685
 20
8167.1867120000006
 30
0.0
 40
69.999999000000003
 50
293.66478000014621
 51
70.09120200017675
  0
ARC
  5
5DD0
  8
0-1
  6
CONTINUOUS
 62
     3
 10
6481.3098730000056
 20
8036.851249000003
 30
0.0
 40
5.0
 50
91.877991000020657
 51
181.87799100002039
  0
ARC
  5
5DD1
  8
0-1
  6
CONTINUOUS
 62
     3
 10
6480.3597040000031
 20
8004.8028430000031
 30
0.0
 40
3.0
 50
181.87799100002039
 51
271.87799100002047
  0
ARC
  5
5DD2
  8
0-1
  6
CONTINUOUS
 62
     3
 10
12311.64597
 20
8167.3500219999987
 30
0.0
 40
24.999998999999999
 50
271.87799100002047
 51
91.877991000020657
  0
TEXT
  5
5DD3
  8
0-0
  6
CONTINUOUS
 62
     7
 10
13485.141205999989
 20
6172.3491309999972
 30
0.0
 40
160.0
  1
布基礎天端
 72
     4
 11
13943.807872666661
 21
6252.3491309999981
 31
0.0
  0
TEXT
  5
5DD4
  8
2-0
  6
CONTINUOUS
 62
     7
 10
7785.557326000001
 20
2907.3829785833759
 30
0.0
 40
160.0
  1
側 面 立 面 図
 72
     4
 11
8430.890659333334
 21
2987.3829785833759
 31
0.0
  0
TEXT
  5
5DD5
  8
2-0
  6
CONTINUOUS
 62
     7
 10
9782.3828444709598
 20
2934.5783475833759
 30
0.0
 40
160.0
  1
1
 72
     4
 11
9809.0495111376258
 21
3014.5783475833759
 31
0.0
  0
TEXT
  5
5DD6
  8
2-0
  6
CONTINUOUS
 62
     7
 10
10025.47156172165
 20
2854.5798155833741
 30
0.0
 40
160.0
  1
80
 72
     4
 11
10145.47156172165
 21
2934.5798155833741
 31
0.0
  0
TEXT
  5
5DD7
  8
2-0
  6
CONTINUOUS
 62
     7
 10
9283.3848104709577
 20
2907.3829785833759
 30
0.0
 40
160.0
  1
(S=  /   )
 72
     4
 11
9843.3848104709577
 21
2987.3829785833759
 31
0.0
  0
LINE
  5
5DD8
  8
0-1
  6
CONTINUOUS
 62
     3
 10
6951.1486080000213
 20
5934.5030449999986
 30
0.0
 11
6951.1486080000213
 21
7795.5489240000006
 31
0.0
  0
LINE
  5
5DD9
  8
0-1
  6
CONTINUOUS
 62
     3
 10
6936.1497960000197
 20
5934.5030449999986
 30
0.0
 11
6936.1497960000197
 21
7795.5489240000006
 31
0.0
  0
LINE
  5
5DDA
  8
0-5
  6
CONTINUOUS
 62
     4
 10
12184.148147
 20
4104.5034410000017
 30
0.0
 11
12184.148147
 21
3944.503903000003
 31
0.0
  0
LINE
  5
5DDB
  8
0-5
  6
CONTINUOUS
 62
     4
 10
9266.1481469999999
 20
4104.5034410000017
 30
0.0
 11
9266.1481469999999
 21
3944.503903000003
 31
0.0
  0
LINE
  5
5DDC
  8
0-5
  6
CONTINUOUS
 62
     4
 10
6698.6481469999999
 20
4104.5034410000017
 30
0.0
 11
6698.6481469999999
 21
3944.503903000003
 31
0.0
  0
CIRCLE
  5
5DDD
  8
0-5
  6
CONTINUOUS
 62
     4
 10
9266.1481469999999
 20
3744.502748000004
 30
0.0
 40
199.9999949999999
  0
CIRCLE
  5
5DDE
  8
0-5
  6
CONTINUOUS
 62
     4
 10
12184.148147
 20
3744.502748000004
 30
0.0
 40
199.9999949999999
  0
CIRCLE
  5
5DDF
  8
0-5
  6
CONTINUOUS
 62
     4
 10
6698.6481469999999
 20
3744.502748000004
 30
0.0
 40
199.9999949999999
  0
TEXT
  5
5DE0
  8
0-5
  6
CONTINUOUS
 62
     7
 10
12137.191987
 20
3661.291952000005
 30
0.0
 40
160.0
  1
A
 72
     4
 11
12190.52532033333
 21
3741.291952000005
 31
0.0
  0
TEXT
  5
5DE1
  8
0-5
  6
CONTINUOUS
 62
     7
 10
9219.1919869999983
 20
3661.291952000005
 30
0.0
 40
160.0
  1
B
 72
     4
 11
9272.5253203333323
 21
3741.291952000005
 31
0.0
  0
TEXT
  5
5DE2
  8
0-5
  6
CONTINUOUS
 62
     7
 10
6651.6919870000047
 20
3661.291952000005
 30
0.0
 40
160.0
  1
C
 72
     4
 11
6705.0253203333377
 21
3741.291952000005
 31
0.0
  0
LINE
  5
5DE3
  8
SUNPOU
  6
CONTINUOUS
 10
6476.1481469999999
 20
9032.5045560000017
 30
0.0
 11
5940.0225054121402
 21
9032.5045560000017
 31
0.0
  0
LINE
  5
5DE4
  8
0-5
  6
CONTINUOUS
 62
     4
 10
12319.14890700001
 20
5784.5025500000047
 30
0.0
 11
17935.043068999999
 21
5784.5025500000047
 31
0.0
  0
LINE
  5
5DEF
  8
0-1
  6
CONTINUOUS
 62
     3
 10
25750.049930999961
 20
5884.5023850000016
 30
0.0
 11
25650.05058999997
 21
5884.5023850000016
 31
0.0
  0
LINE
  5
5DF0
  8
0-1
  6
CONTINUOUS
 62
     3
 10
25650.05058999997
 20
5884.5023850000016
 30
0.0
 11
25650.05058999997
 21
5784.5025500000047
 31
0.0
  0
LINE
  5
5DF1
  8
0-1
  6
CONTINUOUS
 62
     3
 10
25750.049930999961
 20
5784.5025500000047
 30
0.0
 11
25750.049930999961
 21
5884.5023850000016
 31
0.0
  0
LINE
  5
5DF2
  8
0-1
  6
CONTINUOUS
 62
     3
 10
25722.550457999962
 20
8233.0027340000088
 30
0.0
 11
25722.550457999962
 21
5884.5023850000016
 31
0.0
  0
LINE
  5
5DF3
  8
0-1
  6
CONTINUOUS
 62
     3
 10
25742.549534999958
 20
8103.0018110000028
 30
0.0
 11
25742.549534999958
 21
5884.5023850000016
 31
0.0
  0
LINE
  5
5DF4
  8
0-1
  6
CONTINUOUS
 62
     3
 10
25612.550589999952
 20
7792.5024439999988
 30
0.0
 11
25612.550589999952
 21
5784.5025500000047
 31
0.0
  0
LINE
  5
5DF5
  8
0-1
  6
CONTINUOUS
 62
     3
 10
25657.550985999958
 20
8103.0018110000028
 30
0.0
 11
25657.550985999958
 21
5884.5023850000016
 31
0.0
  0
LINE
  5
5E00
  8
0-1
  6
CONTINUOUS
 62
     3
 10
22287.500706999988
 20
7218.2188650000007
 30
0.0
 11
22041.656375999992
 21
7403.6596710000031
 31
0.0
  0
LINE
  5
5E01
  8
0-1
  6
CONTINUOUS
 62
     3
 10
21899.532880999988
 20
7135.086508000004
 30
0.0
 11
21741.656375999992
 21
7254.175830000002
 31
0.0
  0
LINE
  5
5E02
  8
0-1
  6
CONTINUOUS
 62
     3
 10
21681.55027399999
 20
6605.406431000004
 30
0.0
 11
22287.500706999988
 21
7218.2188650000007
 31
0.0
  0
LINE
  5
5E09
  8
0-1
  6
CONTINUOUS
 62
     3
 10
21735.777205999992
 20
6564.5026490000037
 30
0.0
 11
23045.050590999988
 21
6564.5026490000037
 31
0.0
  0
LINE
  5
5E0A
  8
0-1
  6
CONTINUOUS
 62
     3
 10
21705.375759999999
 20
6629.5026160000052
 30
0.0
 11
23045.050590999988
 21
6629.5026160000052
 31
0.0
  0
LINE
  5
5E0B
  8
0-1
  6
CONTINUOUS
 62
     3
 10
21769.648747999989
 20
6694.5025830000022
 30
0.0
 11
23045.050590999988
 21
6694.5025830000022
 31
0.0
  0
LINE
  5
5E0C
  8
0-1
  6
CONTINUOUS
 62
     3
 10
21833.921736999971
 20
6759.5030450000049
 30
0.0
 11
23045.050590999988
 21
6759.5030450000049
 31
0.0
  0
LINE
  5
5E0D
  8
0-1
  6
CONTINUOUS
 62
     3
 10
21898.19274599999
 20
6824.5020220000033
 30
0.0
 11
23045.050590999988
 21
6824.5020220000033
 31
0.0
  0
LINE
  5
5E0E
  8
0-1
  6
CONTINUOUS
 62
     3
 10
21962.465734999991
 20
6889.5024840000024
 30
0.0
 11
23045.050590999988
 21
6889.5024840000024
 31
0.0
  0
LINE
  5
5E0F
  8
0-1
  6
CONTINUOUS
 62
     3
 10
22026.736744999969
 20
6954.5024510000021
 30
0.0
 11
23045.050590999988
 21
6954.5024510000021
 31
0.0
  0
LINE
  5
5E10
  8
0-1
  6
CONTINUOUS
 62
     3
 10
22091.009732999992
 20
7019.5029130000021
 30
0.0
 11
23045.050590999988
 21
7019.5029130000021
 31
0.0
  0
LINE
  5
5E11
  8
0-1
  6
CONTINUOUS
 62
     3
 10
22155.280742999988
 20
7084.5018900000023
 30
0.0
 11
23045.050590999988
 21
7084.5018900000023
 31
0.0
  0
LINE
  5
5E12
  8
0-1
  6
CONTINUOUS
 62
     3
 10
22219.553730999982
 20
7149.5023520000068
 30
0.0
 11
23045.050590999988
 21
7149.5023520000068
 31
0.0
  0
LINE
  5
5E13
  8
0-1
  6
CONTINUOUS
 62
     3
 10
22283.824741
 20
7214.5023190000011
 30
0.0
 11
23045.050590999988
 21
7214.5023190000011
 31
0.0
  0
LINE
  5
5E14
  8
0-1
  6
CONTINUOUS
 62
     3
 10
22206.25532599997
 20
7279.5022860000063
 30
0.0
 11
23045.050590999988
 21
7279.5022860000063
 31
0.0
  0
LINE
  5
5E15
  8
0-1
  6
CONTINUOUS
 62
     3
 10
22120.080942999979
 20
7344.502748000009
 30
0.0
 11
23045.050590999988
 21
7344.502748000009
 31
0.0
  0
LINE
  5
5E16
  8
0-1
  6
CONTINUOUS
 62
     3
 10
22041.656375999992
 20
7409.5027150000051
 30
0.0
 11
23045.050590999988
 21
7409.5027150000051
 31
0.0
  0
LINE
  5
5E17
  8
0-1
  6
CONTINUOUS
 62
     3
 10
22041.656375999992
 20
7474.5031770000023
 30
0.0
 11
23045.050590999988
 21
7474.5031770000023
 31
0.0
  0
LINE
  5
5E18
  8
0-1
  6
CONTINUOUS
 62
     3
 10
22041.656375999992
 20
7539.5021539999998
 30
0.0
 11
23045.050590999988
 21
7539.5021539999998
 31
0.0
  0
LINE
  5
5E19
  8
0-1
  6
CONTINUOUS
 62
     3
 10
22041.656375999992
 20
7604.5026160000107
 30
0.0
 11
23045.050590999988
 21
7604.5026160000107
 31
0.0
  0
LINE
  5
5E1A
  8
0-1
  6
CONTINUOUS
 62
     3
 10
22041.656375999992
 20
7669.5025830000022
 30
0.0
 11
23045.050590999988
 21
7669.5025830000022
 31
0.0
  0
LINE
  5
5E1B
  8
0-1
  6
CONTINUOUS
 62
     3
 10
22041.656375999992
 20
7723.9621080000024
 30
0.0
 11
23045.050590999988
 21
7723.9621080000024
 31
0.0
  0
LINE
  5
5E1C
  8
0-1
  6
CONTINUOUS
 62
     3
 10
22041.656375999992
 20
7792.5024439999988
 30
0.0
 11
23848.044282999988
 21
7792.5024439999988
 31
0.0
  0
LINE
  5
5E1F
  8
0-1
  6
CONTINUOUS
 62
     3
 10
22041.656375999992
 20
6333.7768910000023
 30
0.0
 11
22041.656375999992
 21
5367.1433260000031
 31
0.0
  0
LINE
  5
5E20
  8
0-1
  6
CONTINUOUS
 62
     3
 10
21741.656375999992
 20
6184.2910710000042
 30
0.0
 11
21741.656375999992
 21
5367.1433260000031
 31
0.0
  0
LINE
  5
5E21
  8
0-1
  6
CONTINUOUS
 62
     3
 10
22041.656375999992
 20
5849.5020220000024
 30
0.0
 11
23045.050590999988
 21
5849.5020220000024
 31
0.0
  0
LINE
  5
5E22
  8
0-1
  6
CONTINUOUS
 62
     3
 10
22041.656375999992
 20
5914.5029790000053
 30
0.0
 11
23045.050590999988
 21
5914.5029790000053
 31
0.0
  0
LINE
  5
5E23
  8
0-1
  6
CONTINUOUS
 62
     3
 10
22041.656375999992
 20
5979.5019560000028
 30
0.0
 11
23045.050590999988
 21
5979.5019560000028
 31
0.0
  0
LINE
  5
5E24
  8
0-1
  6
CONTINUOUS
 62
     3
 10
22041.656375999992
 20
6109.5023850000061
 30
0.0
 11
23045.050590999988
 21
6109.5023850000061
 31
0.0
  0
LINE
  5
5E25
  8
0-1
  6
CONTINUOUS
 62
     3
 10
22041.656375999992
 20
6044.5029130000039
 30
0.0
 11
23045.050590999988
 21
6044.5029130000039
 31
0.0
  0
LINE
  5
5E26
  8
0-1
  6
CONTINUOUS
 62
     3
 10
22041.656375999992
 20
6174.5023520000022
 30
0.0
 11
23045.050590999988
 21
6174.5023520000022
 31
0.0
  0
LINE
  5
5E27
  8
0-1
  6
CONTINUOUS
 62
     3
 10
22041.656375999992
 20
6239.5023190000038
 30
0.0
 11
23045.050590999988
 21
6239.5023190000038
 31
0.0
  0
LINE
  5
5E28
  8
0-1
  6
CONTINUOUS
 62
     3
 10
22041.656375999992
 20
6304.5017910000033
 30
0.0
 11
23045.050590999988
 21
6304.5017910000033
 31
0.0
  0
LINE
  5
5E29
  8
0-1
  6
CONTINUOUS
 62
     3
 10
21994.294414999989
 20
6369.5032430000037
 30
0.0
 11
23045.050590999988
 21
6369.5032430000037
 31
0.0
  0
LINE
  5
5E2A
  8
0-1
  6
CONTINUOUS
 62
     3
 10
21908.120031999992
 20
6434.5022200000049
 30
0.0
 11
23045.050590999988
 21
6434.5022200000049
 31
0.0
  0
LINE
  5
5E2B
  8
0-1
  6
CONTINUOUS
 62
     3
 10
21821.947628999998
 20
6499.5026820000021
 30
0.0
 11
23045.050590999988
 21
6499.5026820000021
 31
0.0
  0
LINE
  5
5E2C
  8
0-1
  6
CONTINUOUS
 62
     3
 10
23090.050986999981
 20
8103.0018110000028
 30
0.0
 11
23090.050986999981
 21
5784.5025500000047
 31
0.0
  0
LINE
  5
5E2D
  8
0-1
  6
CONTINUOUS
 62
     3
 10
23175.04755499999
 20
8103.0018110000028
 30
0.0
 11
23175.04755499999
 21
5784.5025500000047
 31
0.0
  0
LINE
  5
5E2E
  8
0-1
  6
CONTINUOUS
 62
     3
 10
23220.047950999979
 20
7792.5024439999988
 30
0.0
 11
23220.047950999979
 21
5784.5025500000047
 31
0.0
  0
LINE
  5
5E2F
  8
0-1
  6
CONTINUOUS
 62
     3
 10
23045.050590999988
 20
7792.5024439999988
 30
0.0
 11
23045.050590999988
 21
5784.5025500000047
 31
0.0
  0
LINE
  5
5E30
  8
0-1
  6
CONTINUOUS
 62
     3
 10
22041.656375999992
 20
6333.7768910000023
 30
0.0
 11
21681.55027399999
 21
6605.406431000004
 31
0.0
  0
LINE
  5
5E33
  8
0-1
  6
CONTINUOUS
 62
     3
 10
23220.047950999979
 20
7723.9621080000024
 30
0.0
 11
25612.550589999952
 21
7723.9621080000024
 31
0.0
  0
LINE
  5
5E34
  8
0-1
  6
CONTINUOUS
 62
     3
 10
23220.047950999979
 20
6369.5032430000037
 30
0.0
 11
25612.550589999952
 21
6369.5032430000037
 31
0.0
  0
LINE
  5
5E35
  8
0-1
  6
CONTINUOUS
 62
     3
 10
23220.047950999979
 20
6434.5022200000049
 30
0.0
 11
25612.550589999952
 21
6434.5022200000049
 31
0.0
  0
LINE
  5
5E36
  8
0-1
  6
CONTINUOUS
 62
     3
 10
23220.047950999979
 20
6499.5026820000021
 30
0.0
 11
25612.550589999952
 21
6499.5026820000021
 31
0.0
  0
LINE
  5
5E37
  8
0-1
  6
CONTINUOUS
 62
     3
 10
23220.047950999979
 20
6564.5026490000037
 30
0.0
 11
25612.550589999952
 21
6564.5026490000037
 31
0.0
  0
LINE
  5
5E38
  8
0-1
  6
CONTINUOUS
 62
     3
 10
23220.047950999979
 20
6629.5026160000052
 30
0.0
 11
25612.550589999952
 21
6629.5026160000052
 31
0.0
  0
LINE
  5
5E39
  8
0-1
  6
CONTINUOUS
 62
     3
 10
23220.047950999979
 20
6694.5025830000022
 30
0.0
 11
25612.550589999952
 21
6694.5025830000022
 31
0.0
  0
LINE
  5
5E3A
  8
0-1
  6
CONTINUOUS
 62
     3
 10
23220.047950999979
 20
6759.5030450000049
 30
0.0
 11
25612.550589999952
 21
6759.5030450000049
 31
0.0
  0
LINE
  5
5E3B
  8
0-1
  6
CONTINUOUS
 62
     3
 10
23220.047950999979
 20
6824.5020220000033
 30
0.0
 11
25612.550589999952
 21
6824.5020220000033
 31
0.0
  0
LINE
  5
5E3C
  8
0-1
  6
CONTINUOUS
 62
     3
 10
23220.047950999979
 20
6889.5024840000024
 30
0.0
 11
25612.550589999952
 21
6889.5024840000024
 31
0.0
  0
LINE
  5
5E3D
  8
0-1
  6
CONTINUOUS
 62
     3
 10
23220.047950999979
 20
6954.5024510000021
 30
0.0
 11
25612.550589999952
 21
6954.5024510000021
 31
0.0
  0
LINE
  5
5E3E
  8
0-1
  6
CONTINUOUS
 62
     3
 10
23220.047950999979
 20
7019.5029130000021
 30
0.0
 11
25612.550589999952
 21
7019.5029130000021
 31
0.0
  0
LINE
  5
5E3F
  8
0-1
  6
CONTINUOUS
 62
     3
 10
23220.047950999979
 20
7084.5018900000023
 30
0.0
 11
25612.550589999952
 21
7084.5018900000023
 31
0.0
  0
LINE
  5
5E40
  8
0-1
  6
CONTINUOUS
 62
     3
 10
23220.047950999979
 20
7149.5023520000068
 30
0.0
 11
25612.550589999952
 21
7149.5023520000068
 31
0.0
  0
LINE
  5
5E41
  8
0-1
  6
CONTINUOUS
 62
     3
 10
23220.047950999979
 20
7214.5023190000011
 30
0.0
 11
25612.550589999952
 21
7214.5023190000011
 31
0.0
  0
LINE
  5
5E42
  8
0-1
  6
CONTINUOUS
 62
     3
 10
23220.047950999979
 20
7279.5022860000063
 30
0.0
 11
25612.550589999952
 21
7279.5022860000063
 31
0.0
  0
LINE
  5
5E43
  8
0-1
  6
CONTINUOUS
 62
     3
 10
23220.047950999979
 20
7344.502748000009
 30
0.0
 11
25612.550589999952
 21
7344.502748000009
 31
0.0
  0
LINE
  5
5E44
  8
0-1
  6
CONTINUOUS
 62
     3
 10
23220.047950999979
 20
7409.5027150000051
 30
0.0
 11
25612.550589999952
 21
7409.5027150000051
 31
0.0
  0
LINE
  5
5E45
  8
0-1
  6
CONTINUOUS
 62
     3
 10
23220.047950999979
 20
7474.5031770000023
 30
0.0
 11
25612.550589999952
 21
7474.5031770000023
 31
0.0
  0
LINE
  5
5E46
  8
0-1
  6
CONTINUOUS
 62
     3
 10
23220.047950999979
 20
7539.5021539999998
 30
0.0
 11
25612.550589999952
 21
7539.5021539999998
 31
0.0
  0
LINE
  5
5E47
  8
0-1
  6
CONTINUOUS
 62
     3
 10
23220.047950999979
 20
7604.5026160000107
 30
0.0
 11
25612.550589999952
 21
7604.5026160000107
 31
0.0
  0
LINE
  5
5E48
  8
0-1
  6
CONTINUOUS
 62
     3
 10
23220.047950999979
 20
7669.5025830000022
 30
0.0
 11
25612.550589999952
 21
7669.5025830000022
 31
0.0
  0
LINE
  5
5E49
  8
0-1
  6
CONTINUOUS
 62
     3
 10
23220.047950999979
 20
5849.5020220000024
 30
0.0
 11
25612.550589999952
 21
5849.5020220000024
 31
0.0
  0
LINE
  5
5E4A
  8
0-1
  6
CONTINUOUS
 62
     3
 10
23220.047950999979
 20
5914.5029790000053
 30
0.0
 11
25612.550589999952
 21
5914.5029790000053
 31
0.0
  0
LINE
  5
5E4B
  8
0-1
  6
CONTINUOUS
 62
     3
 10
23220.047950999979
 20
5979.5019560000028
 30
0.0
 11
25612.550589999952
 21
5979.5019560000028
 31
0.0
  0
LINE
  5
5E4C
  8
0-1
  6
CONTINUOUS
 62
     3
 10
23220.047950999979
 20
6044.5029130000039
 30
0.0
 11
25612.550589999952
 21
6044.5029130000039
 31
0.0
  0
LINE
  5
5E4D
  8
0-1
  6
CONTINUOUS
 62
     3
 10
23220.047950999979
 20
6109.5023850000061
 30
0.0
 11
25612.550589999952
 21
6109.5023850000061
 31
0.0
  0
LINE
  5
5E4E
  8
0-1
  6
CONTINUOUS
 62
     3
 10
23220.047950999979
 20
6174.5023520000022
 30
0.0
 11
25612.550589999952
 21
6174.5023520000022
 31
0.0
  0
LINE
  5
5E4F
  8
0-1
  6
CONTINUOUS
 62
     3
 10
23220.047950999979
 20
6239.5023190000038
 30
0.0
 11
25612.550589999952
 21
6239.5023190000038
 31
0.0
  0
LINE
  5
5E50
  8
0-1
  6
CONTINUOUS
 62
     3
 10
23220.047950999979
 20
6304.5017910000033
 30
0.0
 11
25612.550589999952
 21
6304.5017910000033
 31
0.0
  0
LINE
  5
5E52
  8
0-1
  6
CONTINUOUS
 62
     3
 10
23175.04755499999
 20
7792.5024439999988
 30
0.0
 11
25657.550985999958
 21
7792.5024439999988
 31
0.0
  0
LINE
  5
5E53
  8
0-1
  6
CONTINUOUS
 62
     3
 10
22041.656375999992
 20
5784.5025500000047
 30
0.0
 11
25750.049930999961
 21
5784.5025500000047
 31
0.0
  0
LINE
  5
5E55
  8
0-1
  6
CONTINUOUS
 62
     3
 10
22041.656375999992
 20
7403.6596710000031
 30
0.0
 11
22041.656375999992
 21
8607.6820520000038
 31
0.0
  0
LINE
  5
5E56
  8
0-1
  6
CONTINUOUS
 62
     3
 10
21741.656375999992
 20
7254.175830000002
 30
0.0
 11
21741.656375999992
 21
8607.6820520000038
 31
0.0
  0
LINE
  5
5E60
  8
0-1
  6
CONTINUOUS
 62
     3
 10
20720.042673
 20
6564.5026490000037
 30
0.0
 11
21335.340391999969
 21
6564.5026490000037
 31
0.0
  0
LINE
  5
5E61
  8
0-1
  6
CONTINUOUS
 62
     3
 10
20720.042673
 20
6629.5026160000052
 30
0.0
 11
21399.611400999958
 21
6629.5026160000052
 31
0.0
  0
LINE
  5
5E62
  8
0-1
  6
CONTINUOUS
 62
     3
 10
20720.042673
 20
6694.5025830000022
 30
0.0
 11
21463.884389999981
 21
6694.5025830000022
 31
0.0
  0
LINE
  5
5E63
  8
0-1
  6
CONTINUOUS
 62
     3
 10
20720.042673
 20
6759.5030450000049
 30
0.0
 11
21528.155399999981
 21
6759.5030450000049
 31
0.0
  0
LINE
  5
5E64
  8
0-1
  6
CONTINUOUS
 62
     3
 10
20720.042673
 20
6824.5020220000033
 30
0.0
 11
21592.428388
 21
6824.5020220000033
 31
0.0
  0
LINE
  5
5E65
  8
0-1
  6
CONTINUOUS
 62
     3
 10
20720.042673
 20
6889.5024840000024
 30
0.0
 11
21656.699397999979
 21
6889.5024840000024
 31
0.0
  0
LINE
  5
5E6D
  8
0-1
  6
CONTINUOUS
 62
     3
 10
20720.042673
 20
6369.5032430000037
 30
0.0
 11
21496.118870999991
 21
6369.5032430000037
 31
0.0
  0
LINE
  5
5E6E
  8
0-1
  6
CONTINUOUS
 62
     3
 10
20720.042673
 20
6434.5022200000049
 30
0.0
 11
21409.946467999991
 21
6434.5022200000049
 31
0.0
  0
LINE
  5
5E6F
  8
0-1
  6
CONTINUOUS
 62
     3
 10
20720.042673
 20
6499.5026820000021
 30
0.0
 11
21323.77208599999
 21
6499.5026820000021
 31
0.0
  0
LINE
  5
5E70
  8
0-1
  6
CONTINUOUS
 62
     3
 10
20720.042673
 20
6304.5017910000033
 30
0.0
 11
21582.28731499999
 21
6304.5017910000033
 31
0.0
  0
LINE
  5
5E71
  8
0-1
  6
CONTINUOUS
 62
     3
 10
20590.04372799999
 20
8103.0018110000028
 30
0.0
 11
20590.04372799999
 21
5784.5025500000047
 31
0.0
  0
LINE
  5
5E72
  8
0-1
  6
CONTINUOUS
 62
     3
 10
20545.045311999958
 20
7792.5024439999988
 30
0.0
 11
20545.045311999958
 21
5784.5025500000047
 31
0.0
  0
LINE
  5
5E73
  8
0-1
  6
CONTINUOUS
 62
     3
 10
20675.046235999958
 20
8103.0018110000028
 30
0.0
 11
20675.046235999958
 21
5784.5025500000047
 31
0.0
  0
LINE
  5
5E74
  8
0-1
  6
CONTINUOUS
 62
     3
 10
20720.042673
 20
7792.5024439999988
 30
0.0
 11
20720.042673
 21
5784.5025500000047
 31
0.0
  0
LINE
  5
5E75
  8
0-1
  6
CONTINUOUS
 62
     3
 10
20720.042673
 20
7792.5024439999988
 30
0.0
 11
20720.042673
 21
5784.5025500000047
 31
0.0
  0
LINE
  5
5E80
  8
0-1
  6
CONTINUOUS
 62
     3
 10
18115.044652
 20
5884.5023850000016
 30
0.0
 11
18115.044652
 21
5784.5025500000047
 31
0.0
  0
LINE
  5
5E81
  8
0-1
  6
CONTINUOUS
 62
     3
 10
18015.043333000001
 20
5784.5025500000047
 30
0.0
 11
18015.043333000001
 21
5884.5023850000016
 31
0.0
  0
LINE
  5
5E82
  8
0-1
  6
CONTINUOUS
 62
     3
 10
18015.043333000001
 20
5884.5023850000016
 30
0.0
 11
18115.044652
 21
5884.5023850000016
 31
0.0
  0
LINE
  5
5E83
  8
0-1
  6
CONTINUOUS
 62
     3
 10
18152.544652
 20
7792.5024439999988
 30
0.0
 11
18152.544652
 21
5784.5025500000047
 31
0.0
  0
LINE
  5
5E84
  8
0-1
  6
CONTINUOUS
 62
     3
 10
18107.542277
 20
8103.0018110000028
 30
0.0
 11
18107.542277
 21
5884.5023850000016
 31
0.0
  0
LINE
  5
5E85
  8
0-1
  6
CONTINUOUS
 62
     3
 10
18042.544783999991
 20
8233.0027340000088
 30
0.0
 11
18042.544783999991
 21
5884.5023850000016
 31
0.0
  0
LINE
  5
5E86
  8
0-1
  6
CONTINUOUS
 62
     3
 10
18022.541749
 20
8103.0018110000028
 30
0.0
 11
18022.541749
 21
5884.5023850000016
 31
0.0
  0
LINE
  5
5E87
  8
0-1
  6
CONTINUOUS
 62
     3
 10
18107.542277
 20
7792.5024439999988
 30
0.0
 11
20590.04372799999
 21
7792.5024439999988
 31
0.0
  0
LINE
  5
5E89
  8
0-1
  6
CONTINUOUS
 62
     3
 10
18152.544652
 20
6304.5017910000033
 30
0.0
 11
20545.045311999958
 21
6304.5017910000033
 31
0.0
  0
LINE
  5
5E8A
  8
0-1
  6
CONTINUOUS
 62
     3
 10
18152.544652
 20
6239.5023190000038
 30
0.0
 11
20545.045311999958
 21
6239.5023190000038
 31
0.0
  0
LINE
  5
5E8B
  8
0-1
  6
CONTINUOUS
 62
     3
 10
18152.544652
 20
6174.5023520000022
 30
0.0
 11
20545.045311999958
 21
6174.5023520000022
 31
0.0
  0
LINE
  5
5E8C
  8
0-1
  6
CONTINUOUS
 62
     3
 10
18152.544652
 20
6109.5023850000061
 30
0.0
 11
20545.045311999958
 21
6109.5023850000061
 31
0.0
  0
LINE
  5
5E8D
  8
0-1
  6
CONTINUOUS
 62
     3
 10
18152.544652
 20
6044.5029130000039
 30
0.0
 11
20545.045311999958
 21
6044.5029130000039
 31
0.0
  0
LINE
  5
5E8E
  8
0-1
  6
CONTINUOUS
 62
     3
 10
18152.544652
 20
5979.5019560000028
 30
0.0
 11
20545.045311999958
 21
5979.5019560000028
 31
0.0
  0
LINE
  5
5E8F
  8
0-1
  6
CONTINUOUS
 62
     3
 10
18152.544652
 20
5914.5029790000053
 30
0.0
 11
20545.045311999958
 21
5914.5029790000053
 31
0.0
  0
LINE
  5
5E90
  8
0-1
  6
CONTINUOUS
 62
     3
 10
18152.544652
 20
5849.5020220000024
 30
0.0
 11
20545.045311999958
 21
5849.5020220000024
 31
0.0
  0
LINE
  5
5E91
  8
0-1
  6
CONTINUOUS
 62
     3
 10
18152.544652
 20
7669.5025830000022
 30
0.0
 11
20545.045311999958
 21
7669.5025830000022
 31
0.0
  0
LINE
  5
5E92
  8
0-1
  6
CONTINUOUS
 62
     3
 10
18152.544652
 20
7604.5026160000107
 30
0.0
 11
20545.045311999958
 21
7604.5026160000107
 31
0.0
  0
LINE
  5
5E93
  8
0-1
  6
CONTINUOUS
 62
     3
 10
18152.544652
 20
7539.5021539999998
 30
0.0
 11
20545.045311999958
 21
7539.5021539999998
 31
0.0
  0
LINE
  5
5E94
  8
0-1
  6
CONTINUOUS
 62
     3
 10
18152.544652
 20
7474.5031770000023
 30
0.0
 11
20545.045311999958
 21
7474.5031770000023
 31
0.0
  0
LINE
  5
5E95
  8
0-1
  6
CONTINUOUS
 62
     3
 10
18152.544652
 20
7409.5027150000051
 30
0.0
 11
20545.045311999958
 21
7409.5027150000051
 31
0.0
  0
LINE
  5
5E96
  8
0-1
  6
CONTINUOUS
 62
     3
 10
18152.544652
 20
7344.502748000009
 30
0.0
 11
20545.045311999958
 21
7344.502748000009
 31
0.0
  0
LINE
  5
5E97
  8
0-1
  6
CONTINUOUS
 62
     3
 10
18152.544652
 20
7279.5022860000063
 30
0.0
 11
20545.045311999958
 21
7279.5022860000063
 31
0.0
  0
LINE
  5
5E98
  8
0-1
  6
CONTINUOUS
 62
     3
 10
18152.544652
 20
7214.5023190000011
 30
0.0
 11
20545.045311999958
 21
7214.5023190000011
 31
0.0
  0
LINE
  5
5E99
  8
0-1
  6
CONTINUOUS
 62
     3
 10
18152.544652
 20
7149.5023520000068
 30
0.0
 11
20545.045311999958
 21
7149.5023520000068
 31
0.0
  0
LINE
  5
5E9A
  8
0-1
  6
CONTINUOUS
 62
     3
 10
18152.544652
 20
7084.5018900000023
 30
0.0
 11
20545.045311999958
 21
7084.5018900000023
 31
0.0
  0
LINE
  5
5E9B
  8
0-1
  6
CONTINUOUS
 62
     3
 10
18152.544652
 20
7019.5029130000021
 30
0.0
 11
20545.045311999958
 21
7019.5029130000021
 31
0.0
  0
LINE
  5
5E9C
  8
0-1
  6
CONTINUOUS
 62
     3
 10
18152.544652
 20
6954.5024510000021
 30
0.0
 11
20545.045311999958
 21
6954.5024510000021
 31
0.0
  0
LINE
  5
5E9D
  8
0-1
  6
CONTINUOUS
 62
     3
 10
18152.544652
 20
6889.5024840000024
 30
0.0
 11
20545.045311999958
 21
6889.5024840000024
 31
0.0
  0
LINE
  5
5E9E
  8
0-1
  6
CONTINUOUS
 62
     3
 10
18152.544652
 20
6824.5020220000033
 30
0.0
 11
20545.045311999958
 21
6824.5020220000033
 31
0.0
  0
LINE
  5
5E9F
  8
0-1
  6
CONTINUOUS
 62
     3
 10
18152.544652
 20
6759.5030450000049
 30
0.0
 11
20545.045311999958
 21
6759.5030450000049
 31
0.0
  0
LINE
  5
5EA0
  8
0-1
  6
CONTINUOUS
 62
     3
 10
18152.544652
 20
6694.5025830000022
 30
0.0
 11
20545.045311999958
 21
6694.5025830000022
 31
0.0
  0
LINE
  5
5EA1
  8
0-1
  6
CONTINUOUS
 62
     3
 10
18152.544652
 20
6629.5026160000052
 30
0.0
 11
20545.045311999958
 21
6629.5026160000052
 31
0.0
  0
LINE
  5
5EA2
  8
0-1
  6
CONTINUOUS
 62
     3
 10
18152.544652
 20
6564.5026490000037
 30
0.0
 11
20545.045311999958
 21
6564.5026490000037
 31
0.0
  0
LINE
  5
5EA3
  8
0-1
  6
CONTINUOUS
 62
     3
 10
18152.544652
 20
6499.5026820000021
 30
0.0
 11
20545.045311999958
 21
6499.5026820000021
 31
0.0
  0
LINE
  5
5EA4
  8
0-1
  6
CONTINUOUS
 62
     3
 10
18152.544652
 20
6434.5022200000049
 30
0.0
 11
20545.045311999958
 21
6434.5022200000049
 31
0.0
  0
LINE
  5
5EA5
  8
0-1
  6
CONTINUOUS
 62
     3
 10
18152.544652
 20
6369.5032430000037
 30
0.0
 11
20545.045311999958
 21
6369.5032430000037
 31
0.0
  0
LINE
  5
5EA6
  8
0-1
  6
CONTINUOUS
 62
     3
 10
18152.544652
 20
7723.9621080000024
 30
0.0
 11
20545.045311999958
 21
7723.9621080000024
 31
0.0
  0
LINE
  5
5EA9
  8
0-1
  6
CONTINUOUS
 62
     3
 10
18015.043333000001
 20
5784.5025500000047
 30
0.0
 11
21741.656375999992
 21
5784.5025500000047
 31
0.0
  0
LINE
  5
5EAC
  8
0-1
  6
CONTINUOUS
 62
     3
 10
20720.042673
 20
7723.9621080000024
 30
0.0
 11
21741.656375999992
 21
7723.9621080000024
 31
0.0
  0
LINE
  5
5EAD
  8
0-1
  6
CONTINUOUS
 62
     3
 10
20720.042673
 20
6954.5024510000021
 30
0.0
 11
21720.97238599999
 21
6954.5024510000021
 31
0.0
  0
LINE
  5
5EAE
  8
0-1
  6
CONTINUOUS
 62
     3
 10
20720.042673
 20
7019.5029130000021
 30
0.0
 11
21785.24339599998
 21
7019.5029130000021
 31
0.0
  0
LINE
  5
5EAF
  8
0-1
  6
CONTINUOUS
 62
     3
 10
20720.042673
 20
7084.5018900000023
 30
0.0
 11
21849.516384999992
 21
7084.5018900000023
 31
0.0
  0
LINE
  5
5EB0
  8
0-1
  6
CONTINUOUS
 62
     3
 10
20720.042673
 20
7149.5023520000068
 30
0.0
 11
21880.420628999989
 21
7149.5023520000068
 31
0.0
  0
LINE
  5
5EB1
  8
0-1
  6
CONTINUOUS
 62
     3
 10
20720.042673
 20
7214.5023190000011
 30
0.0
 11
21794.252184999968
 21
7214.5023190000011
 31
0.0
  0
LINE
  5
5EB2
  8
0-1
  6
CONTINUOUS
 62
     3
 10
20720.042673
 20
7279.5022860000063
 30
0.0
 11
21741.656375999992
 21
7279.5022860000063
 31
0.0
  0
LINE
  5
5EB3
  8
0-1
  6
CONTINUOUS
 62
     3
 10
20720.042673
 20
7344.502748000009
 30
0.0
 11
21741.656375999992
 21
7344.502748000009
 31
0.0
  0
LINE
  5
5EB4
  8
0-1
  6
CONTINUOUS
 62
     3
 10
20720.042673
 20
7409.5027150000051
 30
0.0
 11
21741.656375999992
 21
7409.5027150000051
 31
0.0
  0
LINE
  5
5EB5
  8
0-1
  6
CONTINUOUS
 62
     3
 10
20720.042673
 20
7474.5031770000023
 30
0.0
 11
21741.656375999992
 21
7474.5031770000023
 31
0.0
  0
LINE
  5
5EB6
  8
0-1
  6
CONTINUOUS
 62
     3
 10
20720.042673
 20
7539.5021539999998
 30
0.0
 11
21741.656375999992
 21
7539.5021539999998
 31
0.0
  0
LINE
  5
5EB7
  8
0-1
  6
CONTINUOUS
 62
     3
 10
20720.042673
 20
7604.5026160000107
 30
0.0
 11
21741.656375999992
 21
7604.5026160000107
 31
0.0
  0
LINE
  5
5EB8
  8
0-1
  6
CONTINUOUS
 62
     3
 10
20720.042673
 20
7669.5025830000022
 30
0.0
 11
21741.656375999992
 21
7669.5025830000022
 31
0.0
  0
LINE
  5
5EB9
  8
0-1
  6
CONTINUOUS
 62
     3
 10
20720.042673
 20
5849.5020220000024
 30
0.0
 11
21741.656375999992
 21
5849.5020220000024
 31
0.0
  0
LINE
  5
5EBA
  8
0-1
  6
CONTINUOUS
 62
     3
 10
20720.042673
 20
5914.5029790000053
 30
0.0
 11
21741.656375999992
 21
5914.5029790000053
 31
0.0
  0
LINE
  5
5EBB
  8
0-1
  6
CONTINUOUS
 62
     3
 10
20720.042673
 20
5979.5019560000028
 30
0.0
 11
21741.656375999992
 21
5979.5019560000028
 31
0.0
  0
LINE
  5
5EBC
  8
0-1
  6
CONTINUOUS
 62
     3
 10
20720.042673
 20
6044.5029130000039
 30
0.0
 11
21741.656375999992
 21
6044.5029130000039
 31
0.0
  0
LINE
  5
5EBD
  8
0-1
  6
CONTINUOUS
 62
     3
 10
20720.042673
 20
6109.5023850000061
 30
0.0
 11
21741.656375999992
 21
6109.5023850000061
 31
0.0
  0
LINE
  5
5EBE
  8
0-1
  6
CONTINUOUS
 62
     3
 10
20720.042673
 20
6174.5023520000022
 30
0.0
 11
21741.656375999992
 21
6174.5023520000022
 31
0.0
  0
LINE
  5
5EBF
  8
0-1
  6
CONTINUOUS
 62
     3
 10
20720.042673
 20
6239.5023190000038
 30
0.0
 11
21668.459717999991
 21
6239.5023190000038
 31
0.0
  0
LINE
  5
5EC0
  8
0-1
  6
CONTINUOUS
 62
     3
 10
20675.046235999958
 20
7792.5024439999988
 30
0.0
 11
21741.656375999992
 21
7792.5024439999988
 31
0.0
  0
LINE
  5
5EC1
  8
0-1
  6
CONTINUOUS
 62
     3
 10
21741.656375999992
 20
6184.2910710000042
 30
0.0
 11
21293.58442699998
 21
6522.2740740000008
 31
0.0
  0
LINE
  5
5EC2
  8
0-1
  6
CONTINUOUS
 62
     3
 10
21899.532880999988
 20
7135.086508000004
 30
0.0
 11
21293.58442699998
 21
6522.2740740000008
 31
0.0
  0
LINE
  5
5EC6
  8
0-2
  6
CONTINUOUS
 62
     4
 10
24779.991270999981
 20
6531.7282540000042
 30
0.0
 11
24679.991930999971
 21
6531.7282540000042
 31
0.0
  0
LINE
  5
5EC7
  8
0-2
  6
CONTINUOUS
 62
     4
 10
24052.605290999989
 20
6531.7282540000042
 30
0.0
 11
24152.604631999959
 21
6531.7282540000042
 31
0.0
  0
LINE
  5
5EC8
  8
0-2
  6
CONTINUOUS
 62
     4
 10
19712.485002500001
 20
6531.7282540000042
 30
0.0
 11
19612.485662499988
 21
6531.7282540000042
 31
0.0
  0
LINE
  5
5EC9
  8
0-2
  6
CONTINUOUS
 62
     4
 10
18985.101001499999
 20
6531.7282540000042
 30
0.0
 11
19085.098362500001
 21
6531.7282540000042
 31
0.0
  0
LINE
  5
5ECA
  8
0-5
  6
CONTINUOUS
 62
     4
 10
25700.04927099996
 20
4104.5024510000003
 30
0.0
 11
25700.04927099996
 21
3944.5024180000041
 31
0.0
  0
LINE
  5
5ECB
  8
0-5
  6
CONTINUOUS
 62
     4
 10
23132.54927099996
 20
4104.5024510000003
 30
0.0
 11
23132.54927099996
 21
3944.5024180000041
 31
0.0
  0
LINE
  5
5ECC
  8
0-5
  6
CONTINUOUS
 62
     4
 10
20632.543991999992
 20
4104.5024510000003
 30
0.0
 11
20632.543991999992
 21
3944.5024180000041
 31
0.0
  0
LINE
  5
5ECD
  8
0-5
  6
CONTINUOUS
 62
     4
 10
18065.043991999992
 20
4104.5024510000003
 30
0.0
 11
18065.043991999992
 21
3944.5024180000041
 31
0.0
  0
LINE
  5
5ECE
  8
2-0
  6
CENTER2
 62
     6
 10
25700.04927099996
 20
5521.8501270000033
 30
0.0
 11
25700.04927099996
 21
6558.992164000002
 31
0.0
  0
LINE
  5
5ECF
  8
2-0
  6
CENTER2
 62
     6
 10
23132.54927099996
 20
5521.8501270000033
 30
0.0
 11
23132.54927099996
 21
6558.992164000002
 31
0.0
  0
LINE
  5
5ED0
  8
2-0
  6
CENTER2
 62
     6
 10
20632.543991999992
 20
5521.8501270000033
 30
0.0
 11
20632.543991999992
 21
6558.992164000002
 31
0.0
  0
LINE
  5
5ED1
  8
2-0
  6
CENTER2
 62
     6
 10
18065.043991999992
 20
5521.8501270000033
 30
0.0
 11
18065.043991999992
 21
6558.992164000002
 31
0.0
  0
CIRCLE
  5
5EEA
  8
0-5
  6
CONTINUOUS
 62
     4
 10
25700.04927099996
 20
3744.502748000004
 30
0.0
 40
199.9999949999999
  0
CIRCLE
  5
5EEB
  8
0-5
  6
CONTINUOUS
 62
     4
 10
23132.54927099996
 20
3744.502748000004
 30
0.0
 40
199.9999949999999
  0
CIRCLE
  5
5EEC
  8
0-5
  6
CONTINUOUS
 62
     4
 10
20632.543991999992
 20
3744.502748000004
 30
0.0
 40
199.9999949999999
  0
CIRCLE
  5
5EED
  8
0-5
  6
CONTINUOUS
 62
     4
 10
18065.043991999992
 20
3744.502748000004
 30
0.0
 40
199.9999949999999
  0
TEXT
  5
5EEE
  8
0-5
  6
CONTINUOUS
 62
     7
 10
25648.114620999972
 20
3660.001801000004
 30
0.0
 40
160.0
  1
n
 72
     4
 11
25701.4479543333
 21
3713.3351343333379
 31
0.0
  0
TEXT
  5
5EEF
  8
0-5
  6
CONTINUOUS
 62
     7
 10
22966.424157175232
 20
3674.5189094394018
 30
0.0
 40
140.0
  1
n-1
 72
     4
 11
23129.75749050856
 21
3744.5189094394018
 31
0.0
  0
TEXT
  5
5EF0
  8
0-5
  6
CONTINUOUS
 62
     7
 10
17446.868052999991
 20
6513.8627967420016
 30
0.0
 40
160.0
  1
(2131.5)
 50
90.0
 72
     4
 11
17366.868052999991
 21
6967.1961300753346
 31
0.0
  0
TEXT
  5
5EF1
  8
0-5
  6
CONTINUOUS
 62
     7
 10
20585.61554499999
 20
3657.9727940000048
 30
0.0
 40
160.0
  1
2
 72
     4
 11
20638.948878333322
 21
3737.9727940000039
 31
0.0
  0
TEXT
  5
5EF2
  8
0-5
  6
CONTINUOUS
 62
     7
 10
18018.111585999992
 20
3657.9727940000048
 30
0.0
 40
160.0
  1
1
 72
     4
 11
18044.77825266666
 21
3737.9727940000039
 31
0.0
  0
TEXT
  5
5EF3
  8
2-0
  6
CONTINUOUS
 62
     7
 10
20257.241046999989
 20
2926.063367000002
 30
0.0
 40
160.0
  1
正 面 立 面 図
 72
     4
 11
20902.574380333321
 21
3006.063367000002
 31
0.0
  0
CIRCLE
  5
5EF4
  8
0-4
  6
CONTINUOUS
 62
     4
 10
19348.793991999992
 20
6270.5584910000016
 30
0.0
 40
18.487504999999981
  0
CIRCLE
  5
5EF5
  8
0-4
  6
CONTINUOUS
 62
     4
 10
24416.299270999971
 20
6270.5584910000016
 30
0.0
 40
18.487504999999981
  0
TEXT
  5
5EF6
  8
2-0
  6
CONTINUOUS
 62
     7
 10
22254.066565470959
 20
2953.258736000002
 30
0.0
 40
160.0
  1
1
 72
     4
 11
22280.733232137631
 21
3033.258736000002
 31
0.0
  0
TEXT
  5
5EF7
  8
2-0
  6
CONTINUOUS
 62
     7
 10
22497.155282721651
 20
2873.260204000002
 30
0.0
 40
160.0
  1
80
 72
     4
 11
22617.155282721651
 21
2953.260204000002
 31
0.0
  0
TEXT
  5
5EF8
  8
2-0
  6
CONTINUOUS
 62
     7
 10
21755.068531470959
 20
2926.063367000002
 30
0.0
 40
160.0
  1
(S=  /   )
 72
     4
 11
22315.068531470959
 21
3006.063367000002
 31
0.0
  0
LINE
  5
5EF9
  8
SUNPOU
  6
CONTINUOUS
 10
17782.543991999992
 20
4584.5025500000056
 30
0.0
 11
17424.58898527889
 21
4584.5025500000056
 31
0.0
  0
LINE
  5
5EFA
  8
SUNPOU
  6
CONTINUOUS
 10
25982.55322999998
 20
4584.5025500000056
 30
0.0
 11
26340.508236721082
 21
4584.5025500000056
 31
0.0
  0
LINE
  5
5EFB
  8
0-5
  6
CONTINUOUS
 62
     4
 10
15142.17493199998
 20
5992.3480420000051
 30
0.0
 11
15262.171368999991
 21
5784.5025500000083
 31
0.0
  0
LINE
  5
5EFC
  8
0-5
  6
CONTINUOUS
 62
     4
 10
15262.171368999991
 20
5784.5025500000083
 30
0.0
 11
15382.17176499999
 21
5992.3480420000051
 31
0.0
  0
LINE
  5
5EFD
  8
0-5
  6
CONTINUOUS
 62
     4
 10
15382.17176499999
 20
5992.3480420000051
 30
0.0
 11
15142.17493199998
 21
5992.3480420000051
 31
0.0
  0
TEXT
  5
5EFE
  8
0-5
  6
CONTINUOUS
 62
     7
 10
15142.17493199998
 20
6072.3488000000016
 30
0.0
 40
160.0
  1
G.L
 72
     4
 11
15302.17493199998
 21
6152.3488000000034
 31
0.0
  0
LINE
  5
5EFF
  8
2-0
  6
CONTINUOUS
 62
     6
 10
24016.89035499997
 20
13355.934321999979
 30
0.0
 11
25016.883756999941
 21
13355.934321999979
 31
0.0
  0
LINE
  5
5F00
  8
2-0
  6
CONTINUOUS
 62
     6
 10
25484.824133999959
 20
13826.355035999981
 30
0.0
 11
25016.883756999941
 21
13355.934321999979
 31
0.0
  0
LINE
  5
5F01
  8
2-0
  6
CONTINUOUS
 62
     6
 10
24033.601450999951
 20
18035.05438699996
 30
0.0
 11
25051.576798999959
 21
18035.05438699996
 31
0.0
  0
LINE
  5
5F02
  8
2-0
  6
CONTINUOUS
 62
     6
 10
25508.002316999959
 20
18259.76933599999
 30
0.0
 11
25051.576798999959
 21
18035.05438699996
 31
0.0
  0
LINE
  5
5F03
  8
2-0
  6
CONTINUOUS
 62
     6
 10
25446.183930999949
 20
17017.962683000002
 30
0.0
 11
25141.48851299996
 21
17121.616214000001
 31
0.0
  0
LINE
  5
5F04
  8
2-0
  6
CONTINUOUS
 62
     6
 10
25601.205969999941
 20
16528.340638999991
 30
0.0
 11
25141.48851299996
 21
16284.427327999991
 31
0.0
  0
LINE
  5
5F05
  8
2-0
  6
CONTINUOUS
 62
     6
 10
24221.485477999959
 20
16284.427327999991
 30
0.0
 11
25141.48851299996
 21
16284.427327999991
 31
0.0
  0
LINE
  5
5F06
  8
2-0
  6
CONTINUOUS
 62
     6
 10
23941.494450999959
 20
17121.616214000001
 30
0.0
 11
25141.48851299996
 21
17121.616214000001
 31
0.0
  0
LINE
  5
5F07
  8
2-0
  6
CONTINUOUS
 62
     6
 10
25517.383254999961
 20
14148.03868199996
 30
0.0
 11
25141.48851299996
 21
14328.98251699998
 31
0.0
  0
LINE
  5
5F08
  8
2-0
  6
CONTINUOUS
 62
     6
 10
24033.601450999951
 20
15117.291929000001
 30
0.0
 11
25051.576798999959
 21
15117.291929000001
 31
0.0
  0
LINE
  5
5F09
  8
2-0
  6
CONTINUOUS
 62
     6
 10
24621.486796999961
 20
14328.98251699998
 30
0.0
 11
25141.48851299996
 21
14328.98251699998
 31
0.0
  0
LINE
  5
5F0A
  8
2-0
  6
CONTINUOUS
 62
     6
 10
25508.002316999959
 20
15342.004899
 30
0.0
 11
25051.576798999959
 21
15117.291929000001
 31
0.0
  0
LINE
  5
5F0B
  8
2-0
  6
CONTINUOUS
 62
     4
 10
23132.54927099996
 20
19603.93597200001
 30
0.0
 11
23132.54927099996
 21
20333.932937000001
 31
0.0
  0
LINE
  5
5F0C
  8
2-0
  6
CONTINUOUS
 62
     3
 10
25712.549930999961
 20
19414.933518000002
 30
0.0
 11
25712.549930999961
 21
19408.937556000012
 31
0.0
  0
LINE
  5
5F0D
  8
2-0
  6
CONTINUOUS
 62
     3
 10
25712.549930999961
 20
19408.937556000012
 30
0.0
 11
25742.547554999961
 21
19408.937556000012
 31
0.0
  0
LINE
  5
5F0E
  8
2-0
  6
CONTINUOUS
 62
     3
 10
25742.547554999961
 20
19438.937160000001
 30
0.0
 11
25661.545654999962
 21
19438.937160000001
 31
0.0
  0
LINE
  5
5F0F
  8
2-0
  6
CONTINUOUS
 62
     3
 10
25712.549930999961
 20
19398.64009999999
 30
0.0
 11
25742.547554999961
 21
19398.64009999999
 31
0.0
  0
LINE
  5
5F10
  8
2-0
  6
CONTINUOUS
 62
     3
 10
25712.549930999961
 20
19416.641842000001
 30
0.0
 11
25712.549930999961
 21
19398.64009999999
 31
0.0
  0
LINE
  5
5F11
  8
2-0
  6
CONTINUOUS
 62
     3
 10
25737.547290999959
 20
19416.641842000001
 30
0.0
 11
25712.549930999961
 21
19416.641842000001
 31
0.0
  0
LINE
  5
5F12
  8
2-0
  6
CONTINUOUS
 62
     3
 10
25737.547290999959
 20
19411.63366000001
 30
0.0
 11
25737.547290999959
 21
19416.641842000001
 31
0.0
  0
LINE
  5
5F13
  8
2-0
  6
CONTINUOUS
 62
     3
 10
25730.54573399997
 20
19411.63366000001
 30
0.0
 11
25737.547290999959
 21
19411.63366000001
 31
0.0
  0
LINE
  5
5F14
  8
2-0
  6
CONTINUOUS
 62
     3
 10
25630.249465999961
 20
19511.93388700001
 30
0.0
 11
25630.249465999961
 21
19518.939403
 31
0.0
  0
LINE
  5
5F15
  8
2-0
  6
CONTINUOUS
 62
     3
 10
25630.249465999961
 20
19518.939403
 30
0.0
 11
25635.249729999941
 21
19518.939403
 31
0.0
  0
LINE
  5
5F16
  8
2-0
  6
CONTINUOUS
 62
     3
 10
25635.249729999941
 20
19518.939403
 30
0.0
 11
25635.249729999941
 21
19493.930165999998
 31
0.0
  0
LINE
  5
5F17
  8
2-0
  6
CONTINUOUS
 62
     3
 10
25635.249729999941
 20
19493.930165999998
 30
0.0
 11
25617.247987999941
 21
19493.930165999998
 31
0.0
  0
LINE
  5
5F18
  8
2-0
  6
CONTINUOUS
 62
     3
 10
25617.247987999941
 20
19493.930165999998
 30
0.0
 11
25617.247987999941
 21
19523.933729000011
 31
0.0
  0
LINE
  5
5F19
  8
2-0
  6
CONTINUOUS
 62
     3
 10
25627.54544399997
 20
19523.933729000011
 30
0.0
 11
25742.547554999961
 21
19523.933729000011
 31
0.0
  0
LINE
  5
5F1A
  8
2-0
  6
CONTINUOUS
 62
     3
 10
25627.54544399997
 20
19493.930165999998
 30
0.0
 11
25627.54544399997
 21
19523.933729000011
 31
0.0
  0
LINE
  5
5F1B
  8
2-0
  6
CONTINUOUS
 62
     3
 10
25633.547343999959
 20
19493.930165999998
 30
0.0
 11
25627.54544399997
 21
19493.930165999998
 31
0.0
  0
LINE
  5
5F1C
  8
2-0
  6
CONTINUOUS
 62
     3
 10
25730.54573399997
 20
19058.336837499981
 30
0.0
 11
25737.547290999959
 21
19058.336837499981
 31
0.0
  0
LINE
  5
5F1D
  8
2-0
  6
CONTINUOUS
 62
     3
 10
25737.547290999959
 20
19058.336837499981
 30
0.0
 11
25737.547290999959
 21
19063.33710149999
 31
0.0
  0
LINE
  5
5F1E
  8
2-0
  6
CONTINUOUS
 62
     3
 10
25737.547290999959
 20
19063.33710149999
 30
0.0
 11
25712.549930999961
 21
19063.33710149999
 31
0.0
  0
LINE
  5
5F1F
  8
2-0
  6
CONTINUOUS
 62
     3
 10
25712.549930999961
 20
19063.33710149999
 30
0.0
 11
25712.549930999961
 21
19045.341297499981
 31
0.0
  0
LINE
  5
5F20
  8
2-0
  6
CONTINUOUS
 62
     3
 10
25712.549930999961
 20
19045.341297499981
 30
0.0
 11
25742.547554999961
 21
19045.341297499981
 31
0.0
  0
LINE
  5
5F21
  8
2-0
  6
CONTINUOUS
 62
     3
 10
25712.549930999961
 20
19061.43280449996
 30
0.0
 11
25712.549930999961
 21
19055.434863499991
 31
0.0
  0
LINE
  5
5F22
  8
2-0
  6
CONTINUOUS
 62
     3
 10
25712.549930999961
 20
19055.434863499991
 30
0.0
 11
25742.547554999961
 21
19055.434863499991
 31
0.0
  0
LINE
  5
5F23
  8
2-0
  6
CONTINUOUS
 62
     3
 10
25742.547554999961
 20
19055.434863499991
 30
0.0
 11
25742.547554999961
 21
19092.436024499992
 31
0.0
  0
LINE
  5
5F24
  8
2-0
  6
CONTINUOUS
 62
     3
 10
25712.549930999961
 20
19092.436024499992
 30
0.0
 11
25742.547554999961
 21
19092.436024499992
 31
0.0
  0
LINE
  5
5F25
  8
2-0
  6
CONTINUOUS
 62
     3
 10
25712.549930999961
 20
19086.43214449998
 30
0.0
 11
25712.549930999961
 21
19092.436024499992
 31
0.0
  0
LINE
  5
5F26
  8
2-0
  6
CONTINUOUS
 62
     3
 10
25712.549930999961
 20
19102.531569499981
 30
0.0
 11
25742.547554999961
 21
19102.531569499981
 31
0.0
  0
LINE
  5
5F27
  8
2-0
  6
CONTINUOUS
 62
     3
 10
25712.549930999961
 20
19084.529827499991
 30
0.0
 11
25712.549930999961
 21
19102.531569499981
 31
0.0
  0
LINE
  5
5F28
  8
2-0
  6
CONTINUOUS
 62
     3
 10
25737.547290999959
 20
19084.529827499991
 30
0.0
 11
25712.549930999961
 21
19084.529827499991
 31
0.0
  0
LINE
  5
5F29
  8
2-0
  6
CONTINUOUS
 62
     3
 10
25737.547290999959
 20
19089.53009149995
 30
0.0
 11
25737.547290999959
 21
19084.529827499991
 31
0.0
  0
LINE
  5
5F2A
  8
2-0
  6
CONTINUOUS
 62
     3
 10
25730.54573399997
 20
19089.53009149995
 30
0.0
 11
25737.547290999959
 21
19089.53009149995
 31
0.0
  0
LINE
  5
5F2B
  8
2-0
  6
CONTINUOUS
 62
     3
 10
25730.54573399997
 20
18357.335847999992
 30
0.0
 11
25737.547290999959
 21
18357.335847999992
 31
0.0
  0
LINE
  5
5F2C
  8
2-0
  6
CONTINUOUS
 62
     3
 10
25737.547290999959
 20
18357.335847999992
 30
0.0
 11
25737.547290999959
 21
18362.342049999981
 31
0.0
  0
LINE
  5
5F2D
  8
2-0
  6
CONTINUOUS
 62
     3
 10
25737.547290999959
 20
18362.342049999981
 30
0.0
 11
25712.549930999961
 21
18362.342049999981
 31
0.0
  0
LINE
  5
5F2E
  8
2-0
  6
CONTINUOUS
 62
     3
 10
25712.549930999961
 20
18362.342049999981
 30
0.0
 11
25712.549930999961
 21
18344.340307999992
 31
0.0
  0
LINE
  5
5F2F
  8
2-0
  6
CONTINUOUS
 62
     3
 10
25712.549930999961
 20
18344.340307999992
 30
0.0
 11
25742.547554999961
 21
18344.340307999992
 31
0.0
  0
LINE
  5
5F30
  8
2-0
  6
CONTINUOUS
 62
     3
 10
25712.549930999961
 20
18360.431814999982
 30
0.0
 11
25712.549930999961
 21
18354.435852999992
 31
0.0
  0
LINE
  5
5F31
  8
2-0
  6
CONTINUOUS
 62
     3
 10
25712.549930999961
 20
18354.435852999992
 30
0.0
 11
25742.547554999961
 21
18354.435852999992
 31
0.0
  0
LINE
  5
5F32
  8
2-0
  6
CONTINUOUS
 62
     3
 10
25742.547554999961
 20
18354.435852999992
 30
0.0
 11
25742.547554999961
 21
18391.435034999991
 31
0.0
  0
LINE
  5
5F33
  8
2-0
  6
CONTINUOUS
 62
     3
 10
25712.549930999961
 20
18391.435034999991
 30
0.0
 11
25742.547554999961
 21
18391.435034999991
 31
0.0
  0
LINE
  5
5F34
  8
2-0
  6
CONTINUOUS
 62
     3
 10
25712.549930999961
 20
18385.439073000001
 30
0.0
 11
25712.549930999961
 21
18391.435034999991
 31
0.0
  0
LINE
  5
5F35
  8
2-0
  6
CONTINUOUS
 62
     3
 10
25712.549930999961
 20
18401.530579999991
 30
0.0
 11
25742.547554999961
 21
18401.530579999991
 31
0.0
  0
LINE
  5
5F36
  8
2-0
  6
CONTINUOUS
 62
     3
 10
25712.549930999961
 20
18383.528837999991
 30
0.0
 11
25712.549930999961
 21
18401.530579999991
 31
0.0
  0
LINE
  5
5F37
  8
2-0
  6
CONTINUOUS
 62
     3
 10
25737.547290999959
 20
18383.528837999991
 30
0.0
 11
25712.549930999961
 21
18383.528837999991
 31
0.0
  0
LINE
  5
5F38
  8
2-0
  6
CONTINUOUS
 62
     3
 10
25737.547290999959
 20
18388.535039999992
 30
0.0
 11
25737.547290999959
 21
18383.528837999991
 31
0.0
  0
LINE
  5
5F39
  8
2-0
  6
CONTINUOUS
 62
     3
 10
25730.54573399997
 20
18388.535039999992
 30
0.0
 11
25737.547290999959
 21
18388.535039999992
 31
0.0
  0
LINE
  5
5F3A
  8
2-0
  6
CONTINUOUS
 62
     3
 10
25730.54573399997
 20
17687.52910199999
 30
0.0
 11
25737.547290999959
 21
17687.52910199999
 31
0.0
  0
LINE
  5
5F3B
  8
2-0
  6
CONTINUOUS
 62
     3
 10
25737.547290999959
 20
17687.52910199999
 30
0.0
 11
25737.547290999959
 21
17682.540714999981
 31
0.0
  0
LINE
  5
5F3C
  8
2-0
  6
CONTINUOUS
 62
     3
 10
25737.547290999959
 20
17682.540714999981
 30
0.0
 11
25712.549930999961
 21
17682.540714999981
 31
0.0
  0
LINE
  5
5F3D
  8
2-0
  6
CONTINUOUS
 62
     3
 10
25712.549930999961
 20
17682.540714999981
 30
0.0
 11
25712.549930999961
 21
17700.53651799999
 31
0.0
  0
LINE
  5
5F3E
  8
2-0
  6
CONTINUOUS
 62
     3
 10
25712.549930999961
 20
17700.53651799999
 30
0.0
 11
25742.547554999961
 21
17700.53651799999
 31
0.0
  0
LINE
  5
5F3F
  8
2-0
  6
CONTINUOUS
 62
     3
 10
25712.549930999961
 20
17684.43907299999
 30
0.0
 11
25712.549930999961
 21
17690.43503499998
 31
0.0
  0
LINE
  5
5F40
  8
2-0
  6
CONTINUOUS
 62
     3
 10
25712.549930999961
 20
17690.43503499998
 30
0.0
 11
25742.547554999961
 21
17690.43503499998
 31
0.0
  0
LINE
  5
5F41
  8
2-0
  6
CONTINUOUS
 62
     3
 10
25742.547554999961
 20
17690.43503499998
 30
0.0
 11
25742.547554999961
 21
17653.435852999992
 31
0.0
  0
LINE
  5
5F42
  8
2-0
  6
CONTINUOUS
 62
     3
 10
25712.549930999961
 20
17653.435852999992
 30
0.0
 11
25742.547554999961
 21
17653.435852999992
 31
0.0
  0
LINE
  5
5F43
  8
2-0
  6
CONTINUOUS
 62
     3
 10
25712.549930999961
 20
17659.43775399998
 30
0.0
 11
25712.549930999961
 21
17653.435852999992
 31
0.0
  0
LINE
  5
5F44
  8
2-0
  6
CONTINUOUS
 62
     3
 10
25712.549930999961
 20
17643.34624699999
 30
0.0
 11
25742.547554999961
 21
17643.34624699999
 31
0.0
  0
LINE
  5
5F45
  8
2-0
  6
CONTINUOUS
 62
     3
 10
25712.549930999961
 20
17661.342049999981
 30
0.0
 11
25712.549930999961
 21
17643.34624699999
 31
0.0
  0
LINE
  5
5F46
  8
2-0
  6
CONTINUOUS
 62
     3
 10
25737.547290999959
 20
17661.342049999981
 30
0.0
 11
25712.549930999961
 21
17661.342049999981
 31
0.0
  0
LINE
  5
5F47
  8
2-0
  6
CONTINUOUS
 62
     3
 10
25737.547290999959
 20
17656.34178699999
 30
0.0
 11
25737.547290999959
 21
17661.342049999981
 31
0.0
  0
LINE
  5
5F48
  8
2-0
  6
CONTINUOUS
 62
     3
 10
25730.54573399997
 20
17656.34178699999
 30
0.0
 11
25737.547290999959
 21
17656.34178699999
 31
0.0
  0
LINE
  5
5F49
  8
2-0
  6
CONTINUOUS
 62
     3
 10
25739.66141699997
 20
16936.432672999981
 30
0.0
 11
25739.66141699997
 21
16956.433727999982
 31
0.0
  0
LINE
  5
5F4A
  8
2-0
  6
CONTINUOUS
 62
     3
 10
25739.66141699997
 20
16956.433727999982
 30
0.0
 11
25654.664847999949
 21
16956.433727999982
 31
0.0
  0
LINE
  5
5F4B
  8
2-0
  6
CONTINUOUS
 62
     3
 10
25730.54573399997
 20
16983.040437999982
 30
0.0
 11
25737.547290999959
 21
16983.040437999982
 31
0.0
  0
LINE
  5
5F4C
  8
2-0
  6
CONTINUOUS
 62
     3
 10
25737.547290999959
 20
16983.040437999982
 30
0.0
 11
25737.547290999959
 21
16978.046112
 31
0.0
  0
LINE
  5
5F4D
  8
2-0
  6
CONTINUOUS
 62
     3
 10
25737.547290999959
 20
16978.046112
 30
0.0
 11
25712.549930999961
 21
16978.046112
 31
0.0
  0
LINE
  5
5F4E
  8
2-0
  6
CONTINUOUS
 62
     3
 10
25712.549930999961
 20
16978.046112
 30
0.0
 11
25712.549930999961
 21
16996.041915999991
 31
0.0
  0
LINE
  5
5F4F
  8
2-0
  6
CONTINUOUS
 62
     3
 10
25712.549930999961
 20
16996.041915999991
 30
0.0
 11
25742.547554999961
 21
16996.041915999991
 31
0.0
  0
LINE
  5
5F50
  8
2-0
  6
CONTINUOUS
 62
     3
 10
25712.549930999961
 20
16986.433331999971
 30
0.0
 11
25712.549930999961
 21
16980.43143199999
 31
0.0
  0
LINE
  5
5F51
  8
2-0
  6
CONTINUOUS
 62
     3
 10
25742.547554999961
 20
16986.433331999971
 30
0.0
 11
25712.549930999961
 21
16986.433331999971
 31
0.0
  0
LINE
  5
5F52
  8
2-0
  6
CONTINUOUS
 62
     3
 10
25742.547554999961
 20
16996.041915999991
 30
0.0
 11
25742.547554999961
 21
17643.34624699999
 31
0.0
  0
LINE
  5
5F53
  8
2-0
  6
CONTINUOUS
 62
     3
 10
25742.547554999961
 20
17700.53651799999
 30
0.0
 11
25742.547554999961
 21
18344.340307999992
 31
0.0
  0
LINE
  5
5F54
  8
2-0
  6
CONTINUOUS
 62
     3
 10
25742.547554999961
 20
16841.431616999991
 30
0.0
 11
25712.549930999961
 21
16841.431616999991
 31
0.0
  0
LINE
  5
5F55
  8
2-0
  6
CONTINUOUS
 62
     3
 10
25712.549930999961
 20
16841.431616999991
 30
0.0
 11
25712.549930999961
 21
16847.433517000001
 31
0.0
  0
LINE
  5
5F56
  8
2-0
  6
CONTINUOUS
 62
     3
 10
25654.664847999949
 20
16871.43715999999
 30
0.0
 11
25739.66141699997
 21
16871.43715999999
 31
0.0
  0
LINE
  5
5F57
  8
2-0
  6
CONTINUOUS
 62
     3
 10
25739.66141699997
 20
16871.43715999999
 30
0.0
 11
25739.66141699997
 21
16891.432276999982
 31
0.0
  0
LINE
  5
5F58
  8
2-0
  6
CONTINUOUS
 62
     3
 10
25712.549930999961
 20
16831.82303399999
 30
0.0
 11
25742.547554999961
 21
16831.82303399999
 31
0.0
  0
LINE
  5
5F59
  8
2-0
  6
CONTINUOUS
 62
     3
 10
25712.549930999961
 20
16849.818836999981
 30
0.0
 11
25712.549930999961
 21
16831.82303399999
 31
0.0
  0
LINE
  5
5F5A
  8
2-0
  6
CONTINUOUS
 62
     3
 10
25737.547290999959
 20
16849.818836999981
 30
0.0
 11
25712.549930999961
 21
16849.818836999981
 31
0.0
  0
LINE
  5
5F5B
  8
2-0
  6
CONTINUOUS
 62
     3
 10
25737.547290999959
 20
16844.81857299999
 30
0.0
 11
25737.547290999959
 21
16849.818836999981
 31
0.0
  0
LINE
  5
5F5C
  8
2-0
  6
CONTINUOUS
 62
     3
 10
25730.54573399997
 20
16844.81857299999
 30
0.0
 11
25737.547290999959
 21
16844.81857299999
 31
0.0
  0
LINE
  5
5F5D
  8
2-0
  6
CONTINUOUS
 62
     3
 10
25730.54573399997
 20
16140.336342499961
 30
0.0
 11
25737.547290999959
 21
16140.336342499961
 31
0.0
  0
LINE
  5
5F5E
  8
2-0
  6
CONTINUOUS
 62
     3
 10
25737.547290999959
 20
16140.336342499961
 30
0.0
 11
25737.547290999959
 21
16145.336606499979
 31
0.0
  0
LINE
  5
5F5F
  8
2-0
  6
CONTINUOUS
 62
     3
 10
25737.547290999959
 20
16145.336606499979
 30
0.0
 11
25712.549930999961
 21
16145.336606499979
 31
0.0
  0
LINE
  5
5F60
  8
2-0
  6
CONTINUOUS
 62
     3
 10
25712.549930999961
 20
16145.336606499979
 30
0.0
 11
25712.549930999961
 21
16127.334864499981
 31
0.0
  0
LINE
  5
5F61
  8
2-0
  6
CONTINUOUS
 62
     3
 10
25712.549930999961
 20
16127.334864499981
 30
0.0
 11
25742.547554999961
 21
16127.334864499981
 31
0.0
  0
LINE
  5
5F62
  8
2-0
  6
CONTINUOUS
 62
     3
 10
25712.549930999961
 20
16143.432309499991
 30
0.0
 11
25712.549930999961
 21
16137.435358499981
 31
0.0
  0
LINE
  5
5F63
  8
2-0
  6
CONTINUOUS
 62
     3
 10
25712.549930999961
 20
16137.435358499981
 30
0.0
 11
25742.547554999961
 21
16137.435358499981
 31
0.0
  0
LINE
  5
5F64
  8
2-0
  6
CONTINUOUS
 62
     3
 10
25742.547554999961
 20
16137.435358499981
 30
0.0
 11
25742.547554999961
 21
16174.43552949999
 31
0.0
  0
LINE
  5
5F65
  8
2-0
  6
CONTINUOUS
 62
     3
 10
25712.549930999961
 20
16174.43552949999
 30
0.0
 11
25742.547554999961
 21
16174.43552949999
 31
0.0
  0
LINE
  5
5F66
  8
2-0
  6
CONTINUOUS
 62
     3
 10
25712.549930999961
 20
16168.432639499981
 30
0.0
 11
25712.549930999961
 21
16174.43552949999
 31
0.0
  0
LINE
  5
5F67
  8
2-0
  6
CONTINUOUS
 62
     3
 10
25712.549930999961
 20
16184.531074499981
 30
0.0
 11
25742.547554999961
 21
16184.531074499981
 31
0.0
  0
LINE
  5
5F68
  8
2-0
  6
CONTINUOUS
 62
     3
 10
25712.549930999961
 20
16166.523393499991
 30
0.0
 11
25712.549930999961
 21
16184.531074499981
 31
0.0
  0
LINE
  5
5F69
  8
2-0
  6
CONTINUOUS
 62
     3
 10
25737.547290999959
 20
16166.523393499991
 30
0.0
 11
25712.549930999961
 21
16166.523393499991
 31
0.0
  0
LINE
  5
5F6A
  8
2-0
  6
CONTINUOUS
 62
     3
 10
25737.547290999959
 20
16171.52959649998
 30
0.0
 11
25737.547290999959
 21
16166.523393499991
 31
0.0
  0
LINE
  5
5F6B
  8
2-0
  6
CONTINUOUS
 62
     3
 10
25730.54573399997
 20
16171.52959649998
 30
0.0
 11
25737.547290999959
 21
16171.52959649998
 31
0.0
  0
LINE
  5
5F6C
  8
2-0
  6
CONTINUOUS
 62
     3
 10
25730.54573399997
 20
15470.76961299998
 30
0.0
 11
25737.547290999959
 21
15470.76961299998
 31
0.0
  0
LINE
  5
5F6D
  8
2-0
  6
CONTINUOUS
 62
     3
 10
25737.547290999959
 20
15470.76961299998
 30
0.0
 11
25737.547290999959
 21
15465.775288000001
 31
0.0
  0
LINE
  5
5F6E
  8
2-0
  6
CONTINUOUS
 62
     3
 10
25737.547290999959
 20
15465.775288000001
 30
0.0
 11
25712.549930999961
 21
15465.775288000001
 31
0.0
  0
LINE
  5
5F6F
  8
2-0
  6
CONTINUOUS
 62
     3
 10
25712.549930999961
 20
15465.775288000001
 30
0.0
 11
25712.549930999961
 21
15483.771091000001
 31
0.0
  0
LINE
  5
5F70
  8
2-0
  6
CONTINUOUS
 62
     3
 10
25712.549930999961
 20
15483.771091000001
 30
0.0
 11
25742.547554999961
 21
15483.771091000001
 31
0.0
  0
LINE
  5
5F71
  8
2-0
  6
CONTINUOUS
 62
     3
 10
25712.549930999961
 20
15467.67364599999
 30
0.0
 11
25712.549930999961
 21
15473.675546
 31
0.0
  0
LINE
  5
5F72
  8
2-0
  6
CONTINUOUS
 62
     3
 10
25712.549930999961
 20
15473.675546
 30
0.0
 11
25742.547554999961
 21
15473.675546
 31
0.0
  0
LINE
  5
5F73
  8
2-0
  6
CONTINUOUS
 62
     3
 10
25742.547554999961
 20
15436.67636499999
 30
0.0
 11
25742.547554999961
 21
15473.675546
 31
0.0
  0
LINE
  5
5F74
  8
2-0
  6
CONTINUOUS
 62
     3
 10
25712.549930999961
 20
15436.67636499999
 30
0.0
 11
25742.547554999961
 21
15436.67636499999
 31
0.0
  0
LINE
  5
5F75
  8
2-0
  6
CONTINUOUS
 62
     3
 10
25712.549930999961
 20
15442.67331599998
 30
0.0
 11
25712.549930999961
 21
15436.67636499999
 31
0.0
  0
LINE
  5
5F76
  8
2-0
  6
CONTINUOUS
 62
     3
 10
25712.549930999961
 20
15426.57488099998
 30
0.0
 11
25742.547554999961
 21
15426.57488099998
 31
0.0
  0
LINE
  5
5F77
  8
2-0
  6
CONTINUOUS
 62
     3
 10
25712.549930999961
 20
15444.582561999991
 30
0.0
 11
25712.549930999961
 21
15426.57488099998
 31
0.0
  0
LINE
  5
5F78
  8
2-0
  6
CONTINUOUS
 62
     3
 10
25737.547290999959
 20
15444.582561999991
 30
0.0
 11
25712.549930999961
 21
15444.582561999991
 31
0.0
  0
LINE
  5
5F79
  8
2-0
  6
CONTINUOUS
 62
     3
 10
25737.547290999959
 20
15439.582297999999
 30
0.0
 11
25737.547290999959
 21
15444.582561999991
 31
0.0
  0
LINE
  5
5F7A
  8
2-0
  6
CONTINUOUS
 62
     3
 10
25730.54573399997
 20
15439.582297999999
 30
0.0
 11
25737.547290999959
 21
15439.582297999999
 31
0.0
  0
LINE
  5
5F7B
  8
2-0
  6
CONTINUOUS
 62
     3
 10
25742.547554999961
 20
16831.82303399999
 30
0.0
 11
25742.547554999961
 21
16184.531074499981
 31
0.0
  0
LINE
  5
5F7C
  8
2-0
  6
CONTINUOUS
 62
     3
 10
25742.547554999961
 20
16986.433331999971
 30
0.0
 11
25742.547554999961
 21
16841.431616999991
 31
0.0
  0
LINE
  5
5F7D
  8
2-0
  6
CONTINUOUS
 62
     3
 10
25654.664847999949
 20
16956.433727999982
 30
0.0
 11
25654.664847999949
 21
16871.43715999999
 31
0.0
  0
LINE
  5
5F7E
  8
2-0
  6
CONTINUOUS
 62
     6
 10
24037.121765591652
 20
18475.068807940381
 30
0.0
 11
25062.154097591661
 21
18475.068807940381
 31
0.0
  0
LINE
  5
5F7F
  8
2-0
  6
CONTINUOUS
 62
     3
 10
25730.54573399997
 20
14738.34129099999
 30
0.0
 11
25737.547290999959
 21
14738.34129099999
 31
0.0
  0
LINE
  5
5F80
  8
2-0
  6
CONTINUOUS
 62
     3
 10
25737.547290999959
 20
14738.34129099999
 30
0.0
 11
25737.547290999959
 21
14743.33561699999
 31
0.0
  0
LINE
  5
5F81
  8
2-0
  6
CONTINUOUS
 62
     3
 10
25737.547290999959
 20
14743.33561699999
 30
0.0
 11
25712.549930999961
 21
14743.33561699999
 31
0.0
  0
LINE
  5
5F82
  8
2-0
  6
CONTINUOUS
 62
     3
 10
25712.549930999961
 20
14743.33561699999
 30
0.0
 11
25712.549930999961
 21
14725.33981299999
 31
0.0
  0
LINE
  5
5F83
  8
2-0
  6
CONTINUOUS
 62
     3
 10
25712.549930999961
 20
14725.33981299999
 30
0.0
 11
25742.547554999961
 21
14725.33981299999
 31
0.0
  0
LINE
  5
5F84
  8
2-0
  6
CONTINUOUS
 62
     3
 10
25712.549930999961
 20
14741.43824799998
 30
0.0
 11
25712.549930999961
 21
14735.43535799999
 31
0.0
  0
LINE
  5
5F85
  8
2-0
  6
CONTINUOUS
 62
     3
 10
25712.549930999961
 20
14735.43535799999
 30
0.0
 11
25742.547554999961
 21
14735.43535799999
 31
0.0
  0
LINE
  5
5F86
  8
2-0
  6
CONTINUOUS
 62
     3
 10
25742.547554999961
 20
14735.43535799999
 30
0.0
 11
25742.547554999961
 21
14772.435529999981
 31
0.0
  0
LINE
  5
5F87
  8
2-0
  6
CONTINUOUS
 62
     3
 10
25712.549930999961
 20
14772.435529999981
 30
0.0
 11
25742.547554999961
 21
14772.435529999981
 31
0.0
  0
LINE
  5
5F88
  8
2-0
  6
CONTINUOUS
 62
     3
 10
25712.549930999961
 20
14766.438577999979
 30
0.0
 11
25712.549930999961
 21
14772.435529999981
 31
0.0
  0
LINE
  5
5F89
  8
2-0
  6
CONTINUOUS
 62
     3
 10
25712.549930999961
 20
14782.536022999981
 30
0.0
 11
25742.547554999961
 21
14782.536022999981
 31
0.0
  0
LINE
  5
5F8A
  8
2-0
  6
CONTINUOUS
 62
     3
 10
25712.549930999961
 20
14764.52933199998
 30
0.0
 11
25712.549930999961
 21
14782.536022999981
 31
0.0
  0
LINE
  5
5F8B
  8
2-0
  6
CONTINUOUS
 62
     3
 10
25737.547290999959
 20
14764.52933199998
 30
0.0
 11
25712.549930999961
 21
14764.52933199998
 31
0.0
  0
LINE
  5
5F8C
  8
2-0
  6
CONTINUOUS
 62
     3
 10
25737.547290999959
 20
14769.53454499998
 30
0.0
 11
25737.547290999959
 21
14764.52933199998
 31
0.0
  0
LINE
  5
5F8D
  8
2-0
  6
CONTINUOUS
 62
     3
 10
25730.54573399997
 20
14769.53454499998
 30
0.0
 11
25737.547290999959
 21
14769.53454499998
 31
0.0
  0
LINE
  5
5F8E
  8
2-0
  6
CONTINUOUS
 62
     3
 10
25712.549930999961
 20
14062.43737099998
 30
0.0
 11
25712.549930999961
 21
14068.44223999998
 31
0.0
  0
LINE
  5
5F8F
  8
2-0
  6
CONTINUOUS
 62
     3
 10
25712.549930999961
 20
14068.44223999998
 30
0.0
 11
25742.547554999961
 21
14068.44223999998
 31
0.0
  0
LINE
  5
5F90
  8
2-0
  6
CONTINUOUS
 62
     3
 10
25742.547554999961
 20
14068.44223999998
 30
0.0
 11
25742.547554999961
 21
13953.438148999991
 31
0.0
  0
LINE
  5
5F91
  8
2-0
  6
CONTINUOUS
 62
     3
 10
25742.547554999961
 20
13953.438148999991
 30
0.0
 11
25657.549006999961
 21
13953.438148999991
 31
0.0
  0
LINE
  5
5F92
  8
2-0
  6
CONTINUOUS
 62
     3
 10
25657.549006999961
 20
13953.438148999991
 30
0.0
 11
25657.549006999961
 21
14038.43372799998
 31
0.0
  0
LINE
  5
5F93
  8
2-0
  6
CONTINUOUS
 62
     3
 10
25657.549006999961
 20
14038.43372799998
 30
0.0
 11
25689.547924999959
 21
14038.43372799998
 31
0.0
  0
LINE
  5
5F94
  8
2-0
  6
CONTINUOUS
 62
     3
 10
25730.54573399997
 20
14065.471972999991
 30
0.0
 11
25737.547290999959
 21
14065.471972999991
 31
0.0
  0
LINE
  5
5F95
  8
2-0
  6
CONTINUOUS
 62
     3
 10
25737.547290999959
 20
14065.471972999991
 30
0.0
 11
25737.547290999959
 21
14060.47467799995
 31
0.0
  0
LINE
  5
5F96
  8
2-0
  6
CONTINUOUS
 62
     3
 10
25737.547290999959
 20
14060.47467799995
 30
0.0
 11
25712.549930999961
 21
14060.47467799995
 31
0.0
  0
LINE
  5
5F97
  8
2-0
  6
CONTINUOUS
 62
     3
 10
25712.549930999961
 20
14060.47467799995
 30
0.0
 11
25712.549930999961
 21
14078.473450999991
 31
0.0
  0
LINE
  5
5F98
  8
2-0
  6
CONTINUOUS
 62
     3
 10
25712.549930999961
 20
14078.473450999991
 30
0.0
 11
25742.547554999961
 21
14078.473450999991
 31
0.0
  0
LINE
  5
5F99
  8
2-0
  6
CENTER2
 62
     6
 10
25700.04927099996
 20
13755.94059099997
 30
0.0
 11
25700.04927099996
 21
14911.809348999999
 31
0.0
  0
LINE
  5
5F9A
  8
2-0
  6
CONTINUOUS
 62
     3
 10
25742.547554999961
 20
18401.530579999991
 30
0.0
 11
25742.547554999961
 21
19045.341297499981
 31
0.0
  0
LINE
  5
5F9B
  8
2-0
  6
CONTINUOUS
 62
     6
 10
26435.052437999959
 20
20253.936632000001
 30
0.0
 11
27635.046499999939
 21
20253.936632000001
 31
0.0
  0
LINE
  5
5F9C
  8
2-0
  6
CONTINUOUS
 62
     3
 10
23205.05111899996
 20
19523.933729000011
 30
0.0
 11
23205.05111899996
 21
19493.930165999998
 31
0.0
  0
LINE
  5
5F9D
  8
2-0
  6
CONTINUOUS
 62
     3
 10
23205.05111899996
 20
19493.930165999998
 30
0.0
 11
23199.053176999962
 21
19493.930165999998
 31
0.0
  0
LINE
  5
5F9E
  8
2-0
  6
CONTINUOUS
 62
     3
 10
23214.667619999971
 20
19493.930165999998
 30
0.0
 11
23214.667619999971
 21
19523.933729000011
 31
0.0
  0
LINE
  5
5F9F
  8
2-0
  6
CONTINUOUS
 62
     3
 10
23196.66587799996
 20
19493.930165999998
 30
0.0
 11
23214.667619999971
 21
19493.930165999998
 31
0.0
  0
LINE
  5
5FA0
  8
2-0
  6
CONTINUOUS
 62
     3
 10
23196.66587799996
 20
19518.939403
 30
0.0
 11
23196.66587799996
 21
19493.930165999998
 31
0.0
  0
LINE
  5
5FA1
  8
2-0
  6
CONTINUOUS
 62
     3
 10
23201.666141999958
 20
19518.939403
 30
0.0
 11
23196.66587799996
 21
19518.939403
 31
0.0
  0
LINE
  5
5FA2
  8
2-0
  6
CONTINUOUS
 62
     3
 10
23201.666141999958
 20
19511.93388700001
 30
0.0
 11
23201.666141999958
 21
19518.939403
 31
0.0
  0
LINE
  5
5FA3
  8
2-0
  6
CONTINUOUS
 62
     3
 10
23175.04953499998
 20
19521.041652
 30
0.0
 11
23175.04953499998
 21
19436.043104000011
 31
0.0
  0
LINE
  5
5FA4
  8
2-0
  6
CONTINUOUS
 62
     3
 10
23155.052437999981
 20
19521.041652
 30
0.0
 11
23175.04953499998
 21
19521.041652
 31
0.0
  0
LINE
  5
5FA5
  8
2-0
  6
CONTINUOUS
 62
     3
 10
23063.43833899996
 20
19511.93388700001
 30
0.0
 11
23063.43833899996
 21
19518.939403
 31
0.0
  0
LINE
  5
5FA6
  8
2-0
  6
CONTINUOUS
 62
     3
 10
23063.43833899996
 20
19518.939403
 30
0.0
 11
23068.43860299997
 21
19518.939403
 31
0.0
  0
LINE
  5
5FA7
  8
2-0
  6
CONTINUOUS
 62
     3
 10
23068.43860299997
 20
19518.939403
 30
0.0
 11
23068.43860299997
 21
19493.930165999998
 31
0.0
  0
LINE
  5
5FA8
  8
2-0
  6
CONTINUOUS
 62
     3
 10
23068.43860299997
 20
19493.930165999998
 30
0.0
 11
23050.436860999958
 21
19493.930165999998
 31
0.0
  0
LINE
  5
5FA9
  8
2-0
  6
CONTINUOUS
 62
     3
 10
23050.436860999958
 20
19493.930165999998
 30
0.0
 11
23050.436860999958
 21
19523.933729000011
 31
0.0
  0
LINE
  5
5FAA
  8
2-0
  6
CONTINUOUS
 62
     3
 10
23090.05692499995
 20
19521.041652
 30
0.0
 11
23110.05204199997
 21
19521.041652
 31
0.0
  0
LINE
  5
5FAB
  8
2-0
  6
CONTINUOUS
 62
     3
 10
23090.05692499995
 20
19436.043104000011
 30
0.0
 11
23090.05692499995
 21
19521.041652
 31
0.0
  0
LINE
  5
5FAC
  8
2-0
  6
CONTINUOUS
 62
     3
 10
23060.059300999968
 20
19493.930165999998
 30
0.0
 11
23066.055261999962
 21
19493.930165999998
 31
0.0
  0
LINE
  5
5FAD
  8
2-0
  6
CONTINUOUS
 62
     3
 10
23060.059300999968
 20
19523.933729000011
 30
0.0
 11
23060.059300999968
 21
19493.930165999998
 31
0.0
  0
LINE
  5
5FAE
  8
2-0
  6
CONTINUOUS
 62
     3
 10
23175.04953499998
 20
19436.043104000011
 30
0.0
 11
23090.05692499995
 21
19436.043104000011
 31
0.0
  0
LINE
  5
5FAF
  8
2-0
  6
CONTINUOUS
 62
     3
 10
23205.05111899996
 20
19523.933729000011
 30
0.0
 11
23060.059300999968
 21
19523.933729000011
 31
0.0
  0
LINE
  5
5FB0
  8
2-0
  6
CONTINUOUS
 62
     6
 10
25592.24785039575
 20
18939.852345646432
 30
0.0
 11
25062.154097591661
 21
18475.068807940381
 31
0.0
  0
LINE
  5
5FB1
  8
2-0
  6
CONTINUOUS
 62
     6
 10
25894.588438999941
 20
19666.613469
 30
0.0
 11
26435.052437999959
 21
20253.936632000001
 31
0.0
  0
LINE
  5
5FB2
  8
2-0
  6
CONTINUOUS
 62
     6
 10
23175.04953499998
 20
14038.43372799998
 30
0.0
 11
23451.639747999969
 21
14493.778427999971
 31
0.0
  0
LINE
  5
5FB3
  8
2-0
  6
CONTINUOUS
 62
     6
 10
23451.639747999969
 20
14493.778427999971
 30
0.0
 11
24481.989066999959
 21
14493.778427999971
 31
0.0
  0
LINE
  5
5FB4
  8
2-0
  6
CONTINUOUS
 62
     3
 10
25651.543147999961
 20
18330.434189999982
 30
0.0
 11
25698.548795999941
 21
18330.434189999982
 31
0.0
  0
LINE
  5
5FB5
  8
2-0
  6
CONTINUOUS
 62
     3
 10
25698.548795999941
 20
18415.434717999979
 30
0.0
 11
25651.543147999961
 21
18415.434717999979
 31
0.0
  0
LINE
  5
5FB6
  8
2-0
  6
CONTINUOUS
 62
     3
 10
25698.548795999941
 20
18330.434189999982
 30
0.0
 11
25698.548795999941
 21
18355.437488999989
 31
0.0
  0
LINE
  5
5FB7
  8
2-0
  6
CONTINUOUS
 62
     3
 10
25698.548795999941
 20
18390.433398000001
 30
0.0
 11
25698.548795999941
 21
18415.434717999979
 31
0.0
  0
LINE
  5
5FB8
  8
2-0
  6
CONTINUOUS
 62
     3
 10
25651.543147999961
 20
18415.434717999979
 30
0.0
 11
25651.543147999961
 21
18330.434189999982
 31
0.0
  0
LINE
  5
5FB9
  8
2-0
  6
CONTINUOUS
 62
     3
 10
25742.547554999961
 20
16127.334864499981
 30
0.0
 11
25742.547554999961
 21
15483.771091000001
 31
0.0
  0
LINE
  5
5FBA
  8
2-0
  6
CONTINUOUS
 62
     3
 10
25651.543147999961
 20
15412.43715999999
 30
0.0
 11
25698.548795999941
 21
15412.43715999999
 31
0.0
  0
LINE
  5
5FBB
  8
2-0
  6
CONTINUOUS
 62
     3
 10
25698.548795999941
 20
15497.43372799998
 30
0.0
 11
25651.543147999961
 21
15497.43372799998
 31
0.0
  0
LINE
  5
5FBC
  8
2-0
  6
CONTINUOUS
 62
     3
 10
25698.548795999941
 20
15412.43715999999
 30
0.0
 11
25698.548795999941
 21
15437.432540999989
 31
0.0
  0
LINE
  5
5FBD
  8
2-0
  6
CONTINUOUS
 62
     3
 10
25698.548795999941
 20
15472.432408999999
 30
0.0
 11
25698.548795999941
 21
15497.43372799998
 31
0.0
  0
LINE
  5
5FBE
  8
2-0
  6
CONTINUOUS
 62
     3
 10
25651.543147999961
 20
15497.43372799998
 30
0.0
 11
25651.543147999961
 21
15412.43715999999
 31
0.0
  0
LINE
  5
5FBF
  8
2-0
  6
CONTINUOUS
 62
     6
 10
23235.327854999981
 20
14189.029562999969
 30
0.0
 11
23175.04953499998
 21
14038.43372799998
 31
0.0
  0
LINE
  5
5FC0
  8
2-0
  6
CONTINUOUS
 62
     6
 10
23175.04953499998
 20
14038.43372799998
 30
0.0
 11
23280.908249999931
 21
14161.34203699998
 31
0.0
  0
LINE
  5
5FC1
  8
2-0
  6
CONTINUOUS
 62
     6
 10
23235.327854999981
 20
14189.029562999969
 30
0.0
 11
23280.908249999931
 21
14161.34203699998
 31
0.0
  0
LINE
  5
5FC2
  8
2-0
  6
CONTINUOUS
 62
     6
 10
23280.908249999931
 20
14161.34203699998
 30
0.0
 11
23175.04953499998
 21
14038.43372799998
 31
0.0
  0
LINE
  5
5FC3
  8
2-0
  6
CONTINUOUS
 62
     6
 10
23175.04953499998
 20
14038.43372799998
 30
0.0
 11
23235.327854999981
 21
14189.029562999969
 31
0.0
  0
LINE
  5
5FC4
  8
2-0
  6
CONTINUOUS
 62
     6
 10
23235.327854999981
 20
14189.029562999969
 30
0.0
 11
23175.04953499998
 21
14038.43372799998
 31
0.0
  0
LINE
  5
5FC5
  8
2-0
  6
CONTINUOUS
 62
     6
 10
23280.908249999931
 20
14161.34203699998
 30
0.0
 11
23175.04953499998
 21
14038.43372799998
 31
0.0
  0
LINE
  5
5FC6
  8
2-0
  6
CONTINUOUS
 62
     6
 10
23280.908249999931
 20
14161.34203699998
 30
0.0
 11
23235.327854999981
 21
14189.029562999969
 31
0.0
  0
LINE
  5
5FC7
  8
2-0
  6
CONTINUOUS
 62
     6
 10
25914.20546799996
 20
19648.552341999999
 30
0.0
 11
25786.243447999961
 21
19548.869724
 31
0.0
  0
LINE
  5
5FC8
  8
2-0
  6
CONTINUOUS
 62
     6
 10
25786.243447999961
 20
19548.869724
 30
0.0
 11
25874.957552999949
 21
19684.666678999991
 31
0.0
  0
LINE
  5
5FC9
  8
2-0
  6
CONTINUOUS
 62
     6
 10
25914.20546799996
 20
19648.552341999999
 30
0.0
 11
25874.957552999949
 21
19684.666678999991
 31
0.0
  0
LINE
  5
5FCA
  8
2-0
  6
CONTINUOUS
 62
     6
 10
25874.957552999949
 20
19684.666678999991
 30
0.0
 11
25786.243447999961
 21
19548.869724
 31
0.0
  0
LINE
  5
5FCB
  8
2-0
  6
CONTINUOUS
 62
     6
 10
25786.243447999961
 20
19548.869724
 30
0.0
 11
25914.20546799996
 21
19648.552341999999
 31
0.0
  0
LINE
  5
5FCC
  8
2-0
  6
CONTINUOUS
 62
     6
 10
25914.20546799996
 20
19648.552341999999
 30
0.0
 11
25786.243447999961
 21
19548.869724
 31
0.0
  0
LINE
  5
5FCD
  8
2-0
  6
CONTINUOUS
 62
     6
 10
25874.957552999949
 20
19684.666678999991
 30
0.0
 11
25786.243447999961
 21
19548.869724
 31
0.0
  0
LINE
  5
5FCE
  8
2-0
  6
CONTINUOUS
 62
     6
 10
25874.957552999949
 20
19684.666678999991
 30
0.0
 11
25914.20546799996
 21
19648.552341999999
 31
0.0
  0
LINE
  5
5FCF
  8
2-0
  6
CONTINUOUS
 62
     6
 10
19256.47967099999
 20
19276.161347000001
 30
0.0
 11
19388.412604000001
 21
18806.815512000001
 31
0.0
  0
LINE
  5
5FD0
  8
2-0
  6
CONTINUOUS
 62
     6
 10
19388.412604000001
 20
18806.815512000001
 30
0.0
 11
20413.450874999991
 21
18806.815512000001
 31
0.0
  0
LINE
  5
5FD1
  8
2-0
  6
CONTINUOUS
 62
     6
 10
19213.18562
 20
19430.189666999999
 30
0.0
 11
19230.807293999991
 21
19268.944022
 31
0.0
  0
LINE
  5
5FD2
  8
2-0
  6
CONTINUOUS
 62
     6
 10
19282.152047
 20
19283.382631
 30
0.0
 11
19230.807293999991
 21
19268.944022
 31
0.0
  0
LINE
  5
5FD3
  8
2-0
  6
CONTINUOUS
 62
     6
 10
19230.807293999991
 20
19268.944022
 30
0.0
 11
19213.18562
 21
19430.189666999999
 31
0.0
  0
LINE
  5
5FD4
  8
2-0
  6
CONTINUOUS
 62
     6
 10
19213.18562
 20
19430.189666999999
 30
0.0
 11
19282.152047
 21
19283.382631
 31
0.0
  0
LINE
  5
5FD5
  8
2-0
  6
CONTINUOUS
 62
     6
 10
19282.152047
 20
19283.382631
 30
0.0
 11
19213.18562
 21
19430.189666999999
 31
0.0
  0
LINE
  5
5FD6
  8
2-0
  6
CONTINUOUS
 62
     6
 10
19230.807293999991
 20
19268.944022
 30
0.0
 11
19213.18562
 21
19430.189666999999
 31
0.0
  0
LINE
  5
5FD7
  8
2-0
  6
CONTINUOUS
 62
     6
 10
19230.807293999991
 20
19268.944022
 30
0.0
 11
19282.152047
 21
19283.382631
 31
0.0
  0
LINE
  5
5FD8
  8
2-0
  6
CONTINUOUS
 62
     6
 10
23173.972676999969
 20
19405.182409000001
 30
0.0
 11
23322.842371999981
 21
18875.560233
 31
0.0
  0
LINE
  5
5FD9
  8
2-0
  6
CONTINUOUS
 62
     6
 10
23322.842371999981
 20
18875.560233
 30
0.0
 11
24347.886580999959
 21
18875.560233
 31
0.0
  0
LINE
  5
5FDA
  8
2-0
  6
CONTINUOUS
 62
     6
 10
23191.59633099995
 20
19243.936763999991
 30
0.0
 11
23242.947021999971
 21
19258.37141399999
 31
0.0
  0
LINE
  5
5FDB
  8
2-0
  6
CONTINUOUS
 62
     6
 10
23242.947021999971
 20
19258.37141399999
 30
0.0
 11
23191.59633099995
 21
19243.936763999991
 31
0.0
  0
LINE
  5
5FDC
  8
2-0
  6
CONTINUOUS
 62
     6
 10
23191.59633099995
 20
19243.936763999991
 30
0.0
 11
23173.972676999969
 21
19405.182409000001
 31
0.0
  0
LINE
  5
5FDD
  8
2-0
  6
CONTINUOUS
 62
     6
 10
23173.972676999969
 20
19405.182409000001
 30
0.0
 11
23242.947021999971
 21
19258.37141399999
 31
0.0
  0
LINE
  5
5FDE
  8
2-0
  6
CONTINUOUS
 62
     6
 10
23242.947021999971
 20
19258.37141399999
 30
0.0
 11
23173.972676999969
 21
19405.182409000001
 31
0.0
  0
LINE
  5
5FDF
  8
2-0
  6
CONTINUOUS
 62
     6
 10
23191.59633099995
 20
19243.936763999991
 30
0.0
 11
23173.972676999969
 21
19405.182409000001
 31
0.0
  0
LINE
  5
5FE0
  8
2-0
  6
CONTINUOUS
 62
     6
 10
23242.947021999971
 20
19258.37141399999
 30
0.0
 11
23173.972676999969
 21
19405.182409000001
 31
0.0
  0
LINE
  5
5FE1
  8
2-0
  6
CONTINUOUS
 62
     6
 10
23173.972676999969
 20
19405.182409000001
 30
0.0
 11
23191.59633099995
 21
19243.936763999991
 31
0.0
  0
LINE
  5
5FE2
  8
2-0
  6
CONTINUOUS
 62
     4
 10
23132.54927099996
 20
19603.93597200001
 30
0.0
 11
23132.54927099996
 21
20333.932937000001
 31
0.0
  0
LINE
  5
5FE3
  8
2-0
  6
CONTINUOUS
 62
     6
 10
25496.22418099995
 20
15365.930350000001
 30
0.0
 11
25651.543147999961
 21
15412.677670999999
 31
0.0
  0
LINE
  5
5FE4
  8
2-0
  6
CONTINUOUS
 62
     6
 10
25651.543147999961
 20
15412.677670999999
 30
0.0
 11
25519.78243199996
 21
15318.085386000001
 31
0.0
  0
LINE
  5
5FE5
  8
2-0
  6
CONTINUOUS
 62
     6
 10
25496.22418099995
 20
15365.930350000001
 30
0.0
 11
25519.78243199996
 21
15318.085386000001
 31
0.0
  0
LINE
  5
5FE6
  8
2-0
  6
CONTINUOUS
 62
     6
 10
25519.78243199996
 20
15318.085386000001
 30
0.0
 11
25651.543147999961
 21
15412.677670999999
 31
0.0
  0
LINE
  5
5FE7
  8
2-0
  6
CONTINUOUS
 62
     6
 10
25651.543147999961
 20
15412.677670999999
 30
0.0
 11
25496.22418099995
 21
15365.930350000001
 31
0.0
  0
LINE
  5
5FE8
  8
2-0
  6
CONTINUOUS
 62
     6
 10
25496.22418099995
 20
15365.930350000001
 30
0.0
 11
25651.543147999961
 21
15412.677670999999
 31
0.0
  0
LINE
  5
5FE9
  8
2-0
  6
CONTINUOUS
 62
     6
 10
25519.78243199996
 20
15318.085386000001
 30
0.0
 11
25651.543147999961
 21
15412.677670999999
 31
0.0
  0
LINE
  5
5FEA
  8
2-0
  6
CONTINUOUS
 62
     6
 10
25519.78243199996
 20
15318.085386000001
 30
0.0
 11
25496.22418099995
 21
15365.930350000001
 31
0.0
  0
LINE
  5
5FEB
  8
2-0
  6
CONTINUOUS
 62
     6
 10
25465.909833999958
 20
13845.16541099998
 30
0.0
 11
25597.656692999961
 21
13939.792337999979
 31
0.0
  0
LINE
  5
5FEC
  8
2-0
  6
CONTINUOUS
 62
     6
 10
25597.656692999961
 20
13939.792337999979
 30
0.0
 11
25503.726556999962
 21
13807.55356799997
 31
0.0
  0
LINE
  5
5FED
  8
2-0
  6
CONTINUOUS
 62
     6
 10
25465.909833999958
 20
13845.16541099998
 30
0.0
 11
25503.726556999962
 21
13807.55356799997
 31
0.0
  0
LINE
  5
5FEE
  8
2-0
  6
CONTINUOUS
 62
     6
 10
25503.726556999962
 20
13807.55356799997
 30
0.0
 11
25597.656692999961
 21
13939.792337999979
 31
0.0
  0
LINE
  5
5FEF
  8
2-0
  6
CONTINUOUS
 62
     6
 10
25597.656692999961
 20
13939.792337999979
 30
0.0
 11
25465.909833999958
 21
13845.16541099998
 31
0.0
  0
LINE
  5
5FF0
  8
2-0
  6
CONTINUOUS
 62
     6
 10
25465.909833999958
 20
13845.16541099998
 30
0.0
 11
25597.656692999961
 21
13939.792337999979
 31
0.0
  0
LINE
  5
5FF1
  8
2-0
  6
CONTINUOUS
 62
     6
 10
25503.726556999962
 20
13807.55356799997
 30
0.0
 11
25597.656692999961
 21
13939.792337999979
 31
0.0
  0
LINE
  5
5FF2
  8
2-0
  6
CONTINUOUS
 62
     6
 10
25503.726556999962
 20
13807.55356799997
 30
0.0
 11
25465.909833999958
 21
13845.16541099998
 31
0.0
  0
LINE
  5
5FF3
  8
2-0
  6
CONTINUOUS
 62
     6
 10
25528.945622999971
 20
14172.070037999971
 30
0.0
 11
25661.545654999962
 21
14078.641709999971
 31
0.0
  0
LINE
  5
5FF4
  8
2-0
  6
CONTINUOUS
 62
     6
 10
25661.545654999962
 20
14078.641709999971
 30
0.0
 11
25505.812968999959
 21
14124.017223999979
 31
0.0
  0
LINE
  5
5FF5
  8
2-0
  6
CONTINUOUS
 62
     6
 10
25528.945622999971
 20
14172.070037999971
 30
0.0
 11
25505.812968999959
 21
14124.017223999979
 31
0.0
  0
LINE
  5
5FF6
  8
2-0
  6
CONTINUOUS
 62
     6
 10
25505.812968999959
 20
14124.017223999979
 30
0.0
 11
25661.545654999962
 21
14078.641709999971
 31
0.0
  0
LINE
  5
5FF7
  8
2-0
  6
CONTINUOUS
 62
     6
 10
25661.545654999962
 20
14078.641709999971
 30
0.0
 11
25528.945622999971
 21
14172.070037999971
 31
0.0
  0
LINE
  5
5FF8
  8
2-0
  6
CONTINUOUS
 62
     6
 10
25528.945622999971
 20
14172.070037999971
 30
0.0
 11
25661.545654999962
 21
14078.641709999971
 31
0.0
  0
LINE
  5
5FF9
  8
2-0
  6
CONTINUOUS
 62
     6
 10
25505.812968999959
 20
14124.017223999979
 30
0.0
 11
25661.545654999962
 21
14078.641709999971
 31
0.0
  0
LINE
  5
5FFA
  8
2-0
  6
CONTINUOUS
 62
     6
 10
25505.812968999959
 20
14124.017223999979
 30
0.0
 11
25528.945622999971
 21
14172.070037999971
 31
0.0
  0
LINE
  5
5FFB
  8
2-0
  6
CONTINUOUS
 62
     6
 10
25588.709268999959
 20
16551.890971000012
 30
0.0
 11
25742.547554999961
 21
16603.32480200001
 31
0.0
  0
LINE
  5
5FFC
  8
2-0
  6
CONTINUOUS
 62
     6
 10
25742.547554999961
 20
16603.32480200001
 30
0.0
 11
25613.712567999952
 21
16504.784367
 31
0.0
  0
LINE
  5
5FFD
  8
2-0
  6
CONTINUOUS
 62
     6
 10
25588.709268999959
 20
16551.890971000012
 30
0.0
 11
25613.712567999952
 21
16504.784367
 31
0.0
  0
LINE
  5
5FFE
  8
2-0
  6
CONTINUOUS
 62
     6
 10
25613.712567999952
 20
16504.784367
 30
0.0
 11
25742.547554999961
 21
16603.32480200001
 31
0.0
  0
LINE
  5
5FFF
  8
2-0
  6
CONTINUOUS
 62
     6
 10
25742.547554999961
 20
16603.32480200001
 30
0.0
 11
25588.709268999959
 21
16551.890971000012
 31
0.0
  0
LINE
  5
6000
  8
2-0
  6
CONTINUOUS
 62
     6
 10
25588.709268999959
 20
16551.890971000012
 30
0.0
 11
25742.547554999961
 21
16603.32480200001
 31
0.0
  0
LINE
  5
6001
  8
2-0
  6
CONTINUOUS
 62
     6
 10
25613.712567999952
 20
16504.784367
 30
0.0
 11
25742.547554999961
 21
16603.32480200001
 31
0.0
  0
LINE
  5
6002
  8
2-0
  6
CONTINUOUS
 62
     6
 10
25613.712567999952
 20
16504.784367
 30
0.0
 11
25588.709268999959
 21
16551.890971000012
 31
0.0
  0
LINE
  5
6003
  8
2-0
  6
CONTINUOUS
 62
     6
 10
25454.77306199996
 20
17043.209462999999
 30
0.0
 11
25597.656692999961
 21
16966.433833999981
 31
0.0
  0
LINE
  5
6004
  8
2-0
  6
CONTINUOUS
 62
     6
 10
25597.656692999961
 20
16966.433833999981
 30
0.0
 11
25437.594799999959
 21
16992.715903000011
 31
0.0
  0
LINE
  5
6005
  8
2-0
  6
CONTINUOUS
 62
     6
 10
25454.77306199996
 20
17043.209462999999
 30
0.0
 11
25437.594799999959
 21
16992.715903000011
 31
0.0
  0
LINE
  5
6006
  8
2-0
  6
CONTINUOUS
 62
     6
 10
25437.594799999959
 20
16992.715903000011
 30
0.0
 11
25597.656692999961
 21
16966.433833999981
 31
0.0
  0
LINE
  5
6007
  8
2-0
  6
CONTINUOUS
 62
     6
 10
25597.656692999961
 20
16966.433833999981
 30
0.0
 11
25454.77306199996
 21
17043.209462999999
 31
0.0
  0
LINE
  5
6008
  8
2-0
  6
CONTINUOUS
 62
     6
 10
25454.77306199996
 20
17043.209462999999
 30
0.0
 11
25597.656692999961
 21
16966.433833999981
 31
0.0
  0
LINE
  5
6009
  8
2-0
  6
CONTINUOUS
 62
     6
 10
25437.594799999959
 20
16992.715903000011
 30
0.0
 11
25597.656692999961
 21
16966.433833999981
 31
0.0
  0
LINE
  5
600A
  8
2-0
  6
CONTINUOUS
 62
     6
 10
25437.594799999959
 20
16992.715903000011
 30
0.0
 11
25454.77306199996
 21
17043.209462999999
 31
0.0
  0
LINE
  5
600B
  8
2-0
  6
CONTINUOUS
 62
     6
 10
25496.22418099995
 20
18283.689837999991
 30
0.0
 11
25651.543147999961
 21
18330.434189999982
 31
0.0
  0
LINE
  5
600C
  8
2-0
  6
CONTINUOUS
 62
     6
 10
25651.543147999961
 20
18330.434189999982
 30
0.0
 11
25519.78243199996
 21
18235.838936
 31
0.0
  0
LINE
  5
600D
  8
2-0
  6
CONTINUOUS
 62
     6
 10
25496.22418099995
 20
18283.689837999991
 30
0.0
 11
25519.78243199996
 21
18235.838936
 31
0.0
  0
LINE
  5
600E
  8
2-0
  6
CONTINUOUS
 62
     6
 10
25519.78243199996
 20
18235.838936
 30
0.0
 11
25651.543147999961
 21
18330.434189999982
 31
0.0
  0
LINE
  5
600F
  8
2-0
  6
CONTINUOUS
 62
     6
 10
25651.543147999961
 20
18330.434189999982
 30
0.0
 11
25496.22418099995
 21
18283.689837999991
 31
0.0
  0
LINE
  5
6010
  8
2-0
  6
CONTINUOUS
 62
     6
 10
25496.22418099995
 20
18283.689837999991
 30
0.0
 11
25651.543147999961
 21
18330.434189999982
 31
0.0
  0
LINE
  5
6011
  8
2-0
  6
CONTINUOUS
 62
     6
 10
25519.78243199996
 20
18235.838936
 30
0.0
 11
25651.543147999961
 21
18330.434189999982
 31
0.0
  0
LINE
  5
6012
  8
2-0
  6
CONTINUOUS
 62
     6
 10
25519.78243199996
 20
18235.838936
 30
0.0
 11
25496.22418099995
 21
18283.689837999991
 31
0.0
  0
LINE
  5
6013
  8
2-0
  6
CONTINUOUS
 62
     3
 10
19893.044572999981
 20
19523.933729000011
 30
0.0
 11
19856.043410999991
 21
19523.933729000011
 31
0.0
  0
LINE
  5
6014
  8
2-0
  6
CONTINUOUS
 62
     3
 10
19893.044572999981
 20
19493.930165999998
 30
0.0
 11
19893.044572999981
 21
19523.933729000011
 31
0.0
  0
LINE
  5
6015
  8
2-0
  6
CONTINUOUS
 62
     3
 10
19887.04465199995
 20
19493.930165999998
 30
0.0
 11
19893.044572999981
 21
19493.930165999998
 31
0.0
  0
LINE
  5
6016
  8
2-0
  6
CONTINUOUS
 62
     3
 10
19903.142096999989
 20
19493.930165999998
 30
0.0
 11
19903.142096999989
 21
19523.933729000011
 31
0.0
  0
LINE
  5
6017
  8
2-0
  6
CONTINUOUS
 62
     3
 10
19885.138375999992
 20
19493.930165999998
 30
0.0
 11
19903.142096999989
 21
19493.930165999998
 31
0.0
  0
LINE
  5
6018
  8
2-0
  6
CONTINUOUS
 62
     3
 10
19885.138375999992
 20
19518.939403
 30
0.0
 11
19885.138375999992
 21
19493.930165999998
 31
0.0
  0
LINE
  5
6019
  8
2-0
  6
CONTINUOUS
 62
     3
 10
19890.138639999979
 20
19518.939403
 30
0.0
 11
19885.138375999992
 21
19518.939403
 31
0.0
  0
LINE
  5
601A
  8
2-0
  6
CONTINUOUS
 62
     3
 10
19890.138639999979
 20
19511.93388700001
 30
0.0
 11
19890.138639999979
 21
19518.939403
 31
0.0
  0
LINE
  5
601B
  8
2-0
  6
CONTINUOUS
 62
     3
 10
19858.949344999972
 20
19511.93388700001
 30
0.0
 11
19858.949344999972
 21
19518.939403
 31
0.0
  0
LINE
  5
601C
  8
2-0
  6
CONTINUOUS
 62
     3
 10
19858.949344999972
 20
19518.939403
 30
0.0
 11
19863.949608999981
 21
19518.939403
 31
0.0
  0
LINE
  5
601D
  8
2-0
  6
CONTINUOUS
 62
     3
 10
19863.949608999981
 20
19518.939403
 30
0.0
 11
19863.949608999981
 21
19493.930165999998
 31
0.0
  0
LINE
  5
601E
  8
2-0
  6
CONTINUOUS
 62
     3
 10
19863.949608999981
 20
19493.930165999998
 30
0.0
 11
19845.949845999989
 21
19493.930165999998
 31
0.0
  0
LINE
  5
601F
  8
2-0
  6
CONTINUOUS
 62
     3
 10
19845.949845999989
 20
19493.930165999998
 30
0.0
 11
19845.949845999989
 21
19523.933729000011
 31
0.0
  0
LINE
  5
6020
  8
2-0
  6
CONTINUOUS
 62
     3
 10
19862.04333199999
 20
19493.930165999998
 30
0.0
 11
19856.043410999991
 21
19493.930165999998
 31
0.0
  0
LINE
  5
6021
  8
2-0
  6
CONTINUOUS
 62
     3
 10
19856.043410999991
 20
19493.930165999998
 30
0.0
 11
19856.043410999991
 21
19523.933729000011
 31
0.0
  0
LINE
  5
6022
  8
2-0
  6
CONTINUOUS
 62
     3
 10
18052.545311999991
 20
19414.933518000002
 30
0.0
 11
18052.545311999991
 21
19408.937556000012
 31
0.0
  0
LINE
  5
6023
  8
2-0
  6
CONTINUOUS
 62
     3
 10
18052.545311999991
 20
19408.937556000012
 30
0.0
 11
18022.547686999991
 21
19408.937556000012
 31
0.0
  0
LINE
  5
6024
  8
2-0
  6
CONTINUOUS
 62
     3
 10
18022.547686999991
 20
19408.937556000012
 30
0.0
 11
18022.547686999991
 21
19523.933729000011
 31
0.0
  0
LINE
  5
6025
  8
2-0
  6
CONTINUOUS
 62
     3
 10
18022.547686999991
 20
19438.937160000001
 30
0.0
 11
18103.545627999989
 21
19438.937160000001
 31
0.0
  0
LINE
  5
6026
  8
2-0
  6
CONTINUOUS
 62
     3
 10
18052.545311999991
 20
19398.64009999999
 30
0.0
 11
18022.547686999991
 21
19398.64009999999
 31
0.0
  0
LINE
  5
6027
  8
2-0
  6
CONTINUOUS
 62
     3
 10
18052.545311999991
 20
19416.641842000001
 30
0.0
 11
18052.545311999991
 21
19398.64009999999
 31
0.0
  0
LINE
  5
6028
  8
2-0
  6
CONTINUOUS
 62
     3
 10
18027.551909999991
 20
19416.641842000001
 30
0.0
 11
18052.545311999991
 21
19416.641842000001
 31
0.0
  0
LINE
  5
6029
  8
2-0
  6
CONTINUOUS
 62
     3
 10
18027.551909999991
 20
19411.63366000001
 30
0.0
 11
18027.551909999991
 21
19416.641842000001
 31
0.0
  0
LINE
  5
602A
  8
2-0
  6
CONTINUOUS
 62
     3
 10
18034.54950799996
 20
19411.63366000001
 30
0.0
 11
18027.551909999991
 21
19411.63366000001
 31
0.0
  0
LINE
  5
602B
  8
2-0
  6
CONTINUOUS
 62
     3
 10
18134.84379699998
 20
19511.93388700001
 30
0.0
 11
18134.84379699998
 21
19518.939403
 31
0.0
  0
LINE
  5
602C
  8
2-0
  6
CONTINUOUS
 62
     3
 10
18134.84379699998
 20
19518.939403
 30
0.0
 11
18129.841552999991
 21
19518.939403
 31
0.0
  0
LINE
  5
602D
  8
2-0
  6
CONTINUOUS
 62
     3
 10
18129.841552999991
 20
19518.939403
 30
0.0
 11
18129.841552999991
 21
19493.930165999998
 31
0.0
  0
LINE
  5
602E
  8
2-0
  6
CONTINUOUS
 62
     3
 10
18129.841552999991
 20
19493.930165999998
 30
0.0
 11
18147.84923399995
 21
19493.930165999998
 31
0.0
  0
LINE
  5
602F
  8
2-0
  6
CONTINUOUS
 62
     3
 10
18147.84923399995
 20
19493.930165999998
 30
0.0
 11
18147.84923399995
 21
19523.933729000011
 31
0.0
  0
LINE
  5
6030
  8
2-0
  6
CONTINUOUS
 62
     3
 10
18137.549797999978
 20
19523.933729000011
 30
0.0
 11
18022.547686999991
 21
19523.933729000011
 31
0.0
  0
LINE
  5
6031
  8
2-0
  6
CONTINUOUS
 62
     3
 10
18137.549797999978
 20
19493.930165999998
 30
0.0
 11
18137.549797999978
 21
19523.933729000011
 31
0.0
  0
LINE
  5
6032
  8
2-0
  6
CONTINUOUS
 62
     3
 10
18131.545918999978
 20
19493.930165999998
 30
0.0
 11
18137.549797999978
 21
19493.930165999998
 31
0.0
  0
LINE
  5
6033
  8
2-0
  6
CONTINUOUS
 62
     3
 10
19157.943406499991
 20
19511.93388700001
 30
0.0
 11
19157.943406499991
 21
19518.939403
 31
0.0
  0
LINE
  5
6034
  8
2-0
  6
CONTINUOUS
 62
     3
 10
19157.943406499991
 20
19518.939403
 30
0.0
 11
19162.943669499979
 21
19518.939403
 31
0.0
  0
LINE
  5
6035
  8
2-0
  6
CONTINUOUS
 62
     3
 10
19162.943669499979
 20
19518.939403
 30
0.0
 11
19162.943669499979
 21
19493.930165999998
 31
0.0
  0
LINE
  5
6036
  8
2-0
  6
CONTINUOUS
 62
     3
 10
19162.943669499979
 20
19493.930165999998
 30
0.0
 11
19144.949846499982
 21
19493.930165999998
 31
0.0
  0
LINE
  5
6037
  8
2-0
  6
CONTINUOUS
 62
     3
 10
19144.949846499982
 20
19493.930165999998
 30
0.0
 11
19144.949846499982
 21
19523.933729000011
 31
0.0
  0
LINE
  5
6038
  8
2-0
  6
CONTINUOUS
 62
     3
 10
19161.041352499949
 20
19493.930165999998
 30
0.0
 11
19155.043411499992
 21
19493.930165999998
 31
0.0
  0
LINE
  5
6039
  8
2-0
  6
CONTINUOUS
 62
     3
 10
19155.043411499992
 20
19493.930165999998
 30
0.0
 11
19155.043411499992
 21
19523.933729000011
 31
0.0
  0
LINE
  5
603A
  8
2-0
  6
CONTINUOUS
 62
     3
 10
19192.044572499992
 20
19523.933729000011
 30
0.0
 11
19155.043411499992
 21
19523.933729000011
 31
0.0
  0
LINE
  5
603B
  8
2-0
  6
CONTINUOUS
 62
     3
 10
19192.044572499992
 20
19493.930165999998
 30
0.0
 11
19192.044572499992
 21
19523.933729000011
 31
0.0
  0
LINE
  5
603C
  8
2-0
  6
CONTINUOUS
 62
     3
 10
19186.038713499991
 20
19493.930165999998
 30
0.0
 11
19192.044572499992
 21
19493.930165999998
 31
0.0
  0
LINE
  5
603D
  8
2-0
  6
CONTINUOUS
 62
     3
 10
19202.138137499991
 20
19493.930165999998
 30
0.0
 11
19202.138137499991
 21
19523.933729000011
 31
0.0
  0
LINE
  5
603E
  8
2-0
  6
CONTINUOUS
 62
     3
 10
19184.142334499971
 20
19493.930165999998
 30
0.0
 11
19202.138137499991
 21
19493.930165999998
 31
0.0
  0
LINE
  5
603F
  8
2-0
  6
CONTINUOUS
 62
     3
 10
19184.142334499971
 20
19518.939403
 30
0.0
 11
19184.142334499971
 21
19493.930165999998
 31
0.0
  0
LINE
  5
6040
  8
2-0
  6
CONTINUOUS
 62
     3
 10
19189.132700499991
 20
19518.939403
 30
0.0
 11
19184.142334499971
 21
19518.939403
 31
0.0
  0
LINE
  5
6041
  8
2-0
  6
CONTINUOUS
 62
     3
 10
19189.132700499991
 20
19511.93388700001
 30
0.0
 11
19189.132700499991
 21
19518.939403
 31
0.0
  0
LINE
  5
6042
  8
2-0
  6
CONTINUOUS
 62
     3
 10
18501.137148000002
 20
19523.933729000011
 30
0.0
 11
19144.949846499982
 21
19523.933729000011
 31
0.0
  0
LINE
  5
6043
  8
2-0
  6
CONTINUOUS
 62
     3
 10
20560.044124
 20
19523.933729000011
 30
0.0
 11
20560.044124
 21
19493.930165999998
 31
0.0
  0
LINE
  5
6044
  8
2-0
  6
CONTINUOUS
 62
     3
 10
20560.044124
 20
19493.930165999998
 30
0.0
 11
20566.048003000011
 21
19493.930165999998
 31
0.0
  0
LINE
  5
6045
  8
2-0
  6
CONTINUOUS
 62
     3
 10
20550.427621999981
 20
19493.930165999998
 30
0.0
 11
20550.427621999981
 21
19523.933729000011
 31
0.0
  0
LINE
  5
6046
  8
2-0
  6
CONTINUOUS
 62
     3
 10
20568.435302999998
 20
19493.930165999998
 30
0.0
 11
20550.427621999981
 21
19493.930165999998
 31
0.0
  0
LINE
  5
6047
  8
2-0
  6
CONTINUOUS
 62
     3
 10
20568.435302999998
 20
19518.939403
 30
0.0
 11
20568.435302999998
 21
19493.930165999998
 31
0.0
  0
LINE
  5
6048
  8
2-0
  6
CONTINUOUS
 62
     3
 10
20563.429100000001
 20
19518.939403
 30
0.0
 11
20568.435302999998
 21
19518.939403
 31
0.0
  0
LINE
  5
6049
  8
2-0
  6
CONTINUOUS
 62
     3
 10
20563.429100000001
 20
19511.93388700001
 30
0.0
 11
20563.429100000001
 21
19518.939403
 31
0.0
  0
LINE
  5
604A
  8
2-0
  6
CONTINUOUS
 62
     3
 10
20590.047686999991
 20
19521.041652
 30
0.0
 11
20590.047686999991
 21
19436.043104000011
 31
0.0
  0
LINE
  5
604B
  8
2-0
  6
CONTINUOUS
 62
     3
 10
20610.046762999998
 20
19521.041652
 30
0.0
 11
20590.047686999991
 21
19521.041652
 31
0.0
  0
LINE
  5
604C
  8
2-0
  6
CONTINUOUS
 62
     3
 10
20701.66086199999
 20
19511.93388700001
 30
0.0
 11
20701.66086199999
 21
19518.939403
 31
0.0
  0
LINE
  5
604D
  8
2-0
  6
CONTINUOUS
 62
     3
 10
20701.66086199999
 20
19518.939403
 30
0.0
 11
20696.658619000002
 21
19518.939403
 31
0.0
  0
LINE
  5
604E
  8
2-0
  6
CONTINUOUS
 62
     3
 10
20696.658619000002
 20
19518.939403
 30
0.0
 11
20696.658619000002
 21
19493.930165999998
 31
0.0
  0
LINE
  5
604F
  8
2-0
  6
CONTINUOUS
 62
     3
 10
20696.658619000002
 20
19493.930165999998
 30
0.0
 11
20714.662339999992
 21
19493.930165999998
 31
0.0
  0
LINE
  5
6050
  8
2-0
  6
CONTINUOUS
 62
     3
 10
20714.662339999992
 20
19493.930165999998
 30
0.0
 11
20714.662339999992
 21
19523.933729000011
 31
0.0
  0
LINE
  5
6051
  8
2-0
  6
CONTINUOUS
 62
     3
 10
20675.046235000002
 20
19521.041652
 30
0.0
 11
20655.0432
 21
19521.041652
 31
0.0
  0
LINE
  5
6052
  8
2-0
  6
CONTINUOUS
 62
     3
 10
20675.046235000002
 20
19436.043104000011
 30
0.0
 11
20675.046235000002
 21
19521.041652
 31
0.0
  0
LINE
  5
6053
  8
2-0
  6
CONTINUOUS
 62
     3
 10
20705.045838999999
 20
19493.930165999998
 30
0.0
 11
20699.045917999982
 21
19493.930165999998
 31
0.0
  0
LINE
  5
6054
  8
2-0
  6
CONTINUOUS
 62
     3
 10
20705.045838999999
 20
19523.933729000011
 30
0.0
 11
20705.045838999999
 21
19493.930165999998
 31
0.0
  0
LINE
  5
6055
  8
2-0
  6
CONTINUOUS
 62
     3
 10
20590.047686999991
 20
19436.043104000011
 30
0.0
 11
20675.046235000002
 21
19436.043104000011
 31
0.0
  0
LINE
  5
6056
  8
2-0
  6
CONTINUOUS
 62
     3
 10
20560.044124
 20
19523.933729000011
 30
0.0
 11
20705.045838999999
 21
19523.933729000011
 31
0.0
  0
LINE
  5
6057
  8
2-0
  6
CONTINUOUS
 62
     3
 10
20550.427621999981
 20
19523.933729000011
 30
0.0
 11
19903.142096999989
 21
19523.933729000011
 31
0.0
  0
LINE
  5
6058
  8
2-0
  6
CONTINUOUS
 62
     3
 10
19845.949845999989
 20
19523.933729000011
 30
0.0
 11
19202.138137499991
 21
19523.933729000011
 31
0.0
  0
LINE
  5
6059
  8
2-0
  6
CONTINUOUS
 62
     3
 10
18052.545311999991
 20
19414.933518000002
 30
0.0
 11
18052.545311999991
 21
19408.937556000012
 31
0.0
  0
LINE
  5
605A
  8
2-0
  6
CONTINUOUS
 62
     3
 10
18052.545311999991
 20
19408.937556000012
 30
0.0
 11
18022.547686999991
 21
19408.937556000012
 31
0.0
  0
LINE
  5
605B
  8
2-0
  6
CONTINUOUS
 62
     3
 10
18022.547686999991
 20
19408.937556000012
 30
0.0
 11
18022.547686999991
 21
19523.933729000011
 31
0.0
  0
LINE
  5
605C
  8
2-0
  6
CONTINUOUS
 62
     3
 10
18022.547686999991
 20
19438.937160000001
 30
0.0
 11
18103.545627999989
 21
19438.937160000001
 31
0.0
  0
LINE
  5
605D
  8
2-0
  6
CONTINUOUS
 62
     3
 10
18052.545311999991
 20
19398.64009999999
 30
0.0
 11
18022.547686999991
 21
19398.64009999999
 31
0.0
  0
LINE
  5
605E
  8
2-0
  6
CONTINUOUS
 62
     3
 10
18052.545311999991
 20
19416.641842000001
 30
0.0
 11
18052.545311999991
 21
19398.64009999999
 31
0.0
  0
LINE
  5
605F
  8
2-0
  6
CONTINUOUS
 62
     3
 10
18027.551909999991
 20
19416.641842000001
 30
0.0
 11
18052.545311999991
 21
19416.641842000001
 31
0.0
  0
LINE
  5
6060
  8
2-0
  6
CONTINUOUS
 62
     3
 10
18027.551909999991
 20
19411.63366000001
 30
0.0
 11
18027.551909999991
 21
19416.641842000001
 31
0.0
  0
LINE
  5
6061
  8
2-0
  6
CONTINUOUS
 62
     3
 10
18034.54950799996
 20
19411.63366000001
 30
0.0
 11
18027.551909999991
 21
19411.63366000001
 31
0.0
  0
LINE
  5
6062
  8
2-0
  6
CONTINUOUS
 62
     3
 10
18034.54950799996
 20
19058.336837499981
 30
0.0
 11
18027.551909999991
 21
19058.336837499981
 31
0.0
  0
LINE
  5
6063
  8
2-0
  6
CONTINUOUS
 62
     3
 10
18027.551909999991
 20
19058.336837499981
 30
0.0
 11
18027.551909999991
 21
19063.33710149999
 31
0.0
  0
LINE
  5
6064
  8
2-0
  6
CONTINUOUS
 62
     3
 10
18027.551909999991
 20
19063.33710149999
 30
0.0
 11
18052.545311999991
 21
19063.33710149999
 31
0.0
  0
LINE
  5
6065
  8
2-0
  6
CONTINUOUS
 62
     3
 10
18052.545311999991
 20
19063.33710149999
 30
0.0
 11
18052.545311999991
 21
19045.341297499981
 31
0.0
  0
LINE
  5
6066
  8
2-0
  6
CONTINUOUS
 62
     3
 10
18052.545311999991
 20
19045.341297499981
 30
0.0
 11
18022.547686999991
 21
19045.341297499981
 31
0.0
  0
LINE
  5
6067
  8
2-0
  6
CONTINUOUS
 62
     3
 10
18052.545311999991
 20
19061.43280449996
 30
0.0
 11
18052.545311999991
 21
19055.434863499991
 31
0.0
  0
LINE
  5
6068
  8
2-0
  6
CONTINUOUS
 62
     3
 10
18052.545311999991
 20
19055.434863499991
 30
0.0
 11
18022.547686999991
 21
19055.434863499991
 31
0.0
  0
LINE
  5
6069
  8
2-0
  6
CONTINUOUS
 62
     3
 10
18022.547686999991
 20
19055.434863499991
 30
0.0
 11
18022.547686999991
 21
19092.436024499992
 31
0.0
  0
LINE
  5
606A
  8
2-0
  6
CONTINUOUS
 62
     3
 10
18052.545311999991
 20
19092.436024499992
 30
0.0
 11
18022.547686999991
 21
19092.436024499992
 31
0.0
  0
LINE
  5
606B
  8
2-0
  6
CONTINUOUS
 62
     3
 10
18052.545311999991
 20
19086.43214449998
 30
0.0
 11
18052.545311999991
 21
19092.436024499992
 31
0.0
  0
LINE
  5
606C
  8
2-0
  6
CONTINUOUS
 62
     3
 10
18052.545311999991
 20
19102.531569499981
 30
0.0
 11
18022.547686999991
 21
19102.531569499981
 31
0.0
  0
LINE
  5
606D
  8
2-0
  6
CONTINUOUS
 62
     3
 10
18052.545311999991
 20
19084.529827499991
 30
0.0
 11
18052.545311999991
 21
19102.531569499981
 31
0.0
  0
LINE
  5
606E
  8
2-0
  6
CONTINUOUS
 62
     3
 10
18027.551909999991
 20
19084.529827499991
 30
0.0
 11
18052.545311999991
 21
19084.529827499991
 31
0.0
  0
LINE
  5
606F
  8
2-0
  6
CONTINUOUS
 62
     3
 10
18027.551909999991
 20
19089.53009149995
 30
0.0
 11
18027.551909999991
 21
19084.529827499991
 31
0.0
  0
LINE
  5
6070
  8
2-0
  6
CONTINUOUS
 62
     3
 10
18034.54950799996
 20
19089.53009149995
 30
0.0
 11
18027.551909999991
 21
19089.53009149995
 31
0.0
  0
LINE
  5
6071
  8
2-0
  6
CONTINUOUS
 62
     3
 10
18034.54950799996
 20
18357.336837999981
 30
0.0
 11
18027.551909999991
 21
18357.336837999981
 31
0.0
  0
LINE
  5
6072
  8
2-0
  6
CONTINUOUS
 62
     3
 10
18027.551909999991
 20
18357.336837999981
 30
0.0
 11
18027.551909999991
 21
18362.343039999982
 31
0.0
  0
LINE
  5
6073
  8
2-0
  6
CONTINUOUS
 62
     3
 10
18027.551909999991
 20
18362.343039999982
 30
0.0
 11
18052.545311999991
 21
18362.343039999982
 31
0.0
  0
LINE
  5
6074
  8
2-0
  6
CONTINUOUS
 62
     3
 10
18052.545311999991
 20
18362.343039999982
 30
0.0
 11
18052.545311999991
 21
18344.341297999981
 31
0.0
  0
LINE
  5
6075
  8
2-0
  6
CONTINUOUS
 62
     3
 10
18052.545311999991
 20
18344.341297999981
 30
0.0
 11
18022.547686999991
 21
18344.341297999981
 31
0.0
  0
LINE
  5
6076
  8
2-0
  6
CONTINUOUS
 62
     3
 10
18052.545311999991
 20
18360.432804999949
 30
0.0
 11
18052.545311999991
 21
18354.436842999989
 31
0.0
  0
LINE
  5
6077
  8
2-0
  6
CONTINUOUS
 62
     3
 10
18052.545311999991
 20
18354.436842999989
 30
0.0
 11
18022.547686999991
 21
18354.436842999989
 31
0.0
  0
LINE
  5
6078
  8
2-0
  6
CONTINUOUS
 62
     3
 10
18022.547686999991
 20
18354.436842999989
 30
0.0
 11
18022.547686999991
 21
18391.436024999992
 31
0.0
  0
LINE
  5
6079
  8
2-0
  6
CONTINUOUS
 62
     3
 10
18052.545311999991
 20
18391.436024999992
 30
0.0
 11
18022.547686999991
 21
18391.436024999992
 31
0.0
  0
LINE
  5
607A
  8
2-0
  6
CONTINUOUS
 62
     3
 10
18052.545311999991
 20
18385.440062999991
 30
0.0
 11
18052.545311999991
 21
18391.436024999992
 31
0.0
  0
LINE
  5
607B
  8
2-0
  6
CONTINUOUS
 62
     3
 10
18052.545311999991
 20
18401.531569999981
 30
0.0
 11
18022.547686999991
 21
18401.531569999981
 31
0.0
  0
LINE
  5
607C
  8
2-0
  6
CONTINUOUS
 62
     3
 10
18052.545311999991
 20
18383.529827999992
 30
0.0
 11
18052.545311999991
 21
18401.531569999981
 31
0.0
  0
LINE
  5
607D
  8
2-0
  6
CONTINUOUS
 62
     3
 10
18027.551909999991
 20
18383.529827999992
 30
0.0
 11
18052.545311999991
 21
18383.529827999992
 31
0.0
  0
LINE
  5
607E
  8
2-0
  6
CONTINUOUS
 62
     3
 10
18027.551909999991
 20
18388.536029999981
 30
0.0
 11
18027.551909999991
 21
18383.529827999992
 31
0.0
  0
LINE
  5
607F
  8
2-0
  6
CONTINUOUS
 62
     3
 10
18034.54950799996
 20
18388.536029999981
 30
0.0
 11
18027.551909999991
 21
18388.536029999981
 31
0.0
  0
LINE
  5
6080
  8
2-0
  6
CONTINUOUS
 62
     3
 10
18034.54950799996
 20
17687.52910199999
 30
0.0
 11
18027.551909999991
 21
17687.52910199999
 31
0.0
  0
LINE
  5
6081
  8
2-0
  6
CONTINUOUS
 62
     3
 10
18027.551909999991
 20
17687.52910199999
 30
0.0
 11
18027.551909999991
 21
17682.540714999981
 31
0.0
  0
LINE
  5
6082
  8
2-0
  6
CONTINUOUS
 62
     3
 10
18027.551909999991
 20
17682.540714999981
 30
0.0
 11
18052.545311999991
 21
17682.540714999981
 31
0.0
  0
LINE
  5
6083
  8
2-0
  6
CONTINUOUS
 62
     3
 10
18052.545311999991
 20
17682.540714999981
 30
0.0
 11
18052.545311999991
 21
17700.53651799999
 31
0.0
  0
LINE
  5
6084
  8
2-0
  6
CONTINUOUS
 62
     3
 10
18052.545311999991
 20
17700.53651799999
 30
0.0
 11
18022.547686999991
 21
17700.53651799999
 31
0.0
  0
LINE
  5
6085
  8
2-0
  6
CONTINUOUS
 62
     3
 10
18052.545311999991
 20
17684.43907299999
 30
0.0
 11
18052.545311999991
 21
17690.43503499998
 31
0.0
  0
LINE
  5
6086
  8
2-0
  6
CONTINUOUS
 62
     3
 10
18052.545311999991
 20
17690.43503499998
 30
0.0
 11
18022.547686999991
 21
17690.43503499998
 31
0.0
  0
LINE
  5
6087
  8
2-0
  6
CONTINUOUS
 62
     3
 10
18022.547686999991
 20
17690.43503499998
 30
0.0
 11
18022.547686999991
 21
17653.435852999992
 31
0.0
  0
LINE
  5
6088
  8
2-0
  6
CONTINUOUS
 62
     3
 10
18052.545311999991
 20
17653.435852999992
 30
0.0
 11
18022.547686999991
 21
17653.435852999992
 31
0.0
  0
LINE
  5
6089
  8
2-0
  6
CONTINUOUS
 62
     3
 10
18052.545311999991
 20
17659.43775399998
 30
0.0
 11
18052.545311999991
 21
17653.435852999992
 31
0.0
  0
LINE
  5
608A
  8
2-0
  6
CONTINUOUS
 62
     3
 10
18052.545311999991
 20
17643.34624699999
 30
0.0
 11
18022.547686999991
 21
17643.34624699999
 31
0.0
  0
LINE
  5
608B
  8
2-0
  6
CONTINUOUS
 62
     3
 10
18052.545311999991
 20
17661.342049999981
 30
0.0
 11
18052.545311999991
 21
17643.34624699999
 31
0.0
  0
LINE
  5
608C
  8
2-0
  6
CONTINUOUS
 62
     3
 10
18027.551909999991
 20
17661.342049999981
 30
0.0
 11
18052.545311999991
 21
17661.342049999981
 31
0.0
  0
LINE
  5
608D
  8
2-0
  6
CONTINUOUS
 62
     3
 10
18027.551909999991
 20
17656.34178699999
 30
0.0
 11
18027.551909999991
 21
17661.342049999981
 31
0.0
  0
LINE
  5
608E
  8
2-0
  6
CONTINUOUS
 62
     3
 10
18034.54950799996
 20
17656.34178699999
 30
0.0
 11
18027.551909999991
 21
17656.34178699999
 31
0.0
  0
LINE
  5
608F
  8
2-0
  6
CONTINUOUS
 62
     3
 10
18025.433824999978
 20
16936.432672999981
 30
0.0
 11
18025.433824999978
 21
16956.433727999982
 31
0.0
  0
LINE
  5
6090
  8
2-0
  6
CONTINUOUS
 62
     3
 10
18025.433824999978
 20
16956.433727999982
 30
0.0
 11
18110.43435299999
 21
16956.433727999982
 31
0.0
  0
LINE
  5
6091
  8
2-0
  6
CONTINUOUS
 62
     3
 10
18034.54950799996
 20
16983.040437999982
 30
0.0
 11
18027.551909999991
 21
16983.040437999982
 31
0.0
  0
LINE
  5
6092
  8
2-0
  6
CONTINUOUS
 62
     3
 10
18027.551909999991
 20
16983.040437999982
 30
0.0
 11
18027.551909999991
 21
16978.046112
 31
0.0
  0
LINE
  5
6093
  8
2-0
  6
CONTINUOUS
 62
     3
 10
18027.551909999991
 20
16978.046112
 30
0.0
 11
18052.545311999991
 21
16978.046112
 31
0.0
  0
LINE
  5
6094
  8
2-0
  6
CONTINUOUS
 62
     3
 10
18052.545311999991
 20
16978.046112
 30
0.0
 11
18052.545311999991
 21
16996.041915999991
 31
0.0
  0
LINE
  5
6095
  8
2-0
  6
CONTINUOUS
 62
     3
 10
18052.545311999991
 20
16996.041915999991
 30
0.0
 11
18022.547686999991
 21
16996.041915999991
 31
0.0
  0
LINE
  5
6096
  8
2-0
  6
CONTINUOUS
 62
     3
 10
18052.545311999991
 20
16986.433331999971
 30
0.0
 11
18052.545311999991
 21
16980.43143199999
 31
0.0
  0
LINE
  5
6097
  8
2-0
  6
CONTINUOUS
 62
     3
 10
18022.547686999991
 20
16986.433331999971
 30
0.0
 11
18052.545311999991
 21
16986.433331999971
 31
0.0
  0
LINE
  5
6098
  8
2-0
  6
CONTINUOUS
 62
     3
 10
18022.547686999991
 20
16996.041915999991
 30
0.0
 11
18022.547686999991
 21
17643.34624699999
 31
0.0
  0
LINE
  5
6099
  8
2-0
  6
CONTINUOUS
 62
     3
 10
18022.547686999991
 20
17700.53651799999
 30
0.0
 11
18022.547686999991
 21
18344.341297999981
 31
0.0
  0
LINE
  5
609A
  8
2-0
  6
CONTINUOUS
 62
     3
 10
18022.547686999991
 20
16841.431616999991
 30
0.0
 11
18052.545311999991
 21
16841.431616999991
 31
0.0
  0
LINE
  5
609B
  8
2-0
  6
CONTINUOUS
 62
     3
 10
18052.545311999991
 20
16841.431616999991
 30
0.0
 11
18052.545311999991
 21
16847.433517000001
 31
0.0
  0
LINE
  5
609C
  8
2-0
  6
CONTINUOUS
 62
     3
 10
18110.43435299999
 20
16871.43715999999
 30
0.0
 11
18025.433824999978
 21
16871.43715999999
 31
0.0
  0
LINE
  5
609D
  8
2-0
  6
CONTINUOUS
 62
     3
 10
18025.433824999978
 20
16871.43715999999
 30
0.0
 11
18025.433824999978
 21
16891.432276999982
 31
0.0
  0
LINE
  5
609E
  8
2-0
  6
CONTINUOUS
 62
     3
 10
18052.545311999991
 20
16831.82303399999
 30
0.0
 11
18022.547686999991
 21
16831.82303399999
 31
0.0
  0
LINE
  5
609F
  8
2-0
  6
CONTINUOUS
 62
     3
 10
18052.545311999991
 20
16849.818836999981
 30
0.0
 11
18052.545311999991
 21
16831.82303399999
 31
0.0
  0
LINE
  5
60A0
  8
2-0
  6
CONTINUOUS
 62
     3
 10
18027.551909999991
 20
16849.818836999981
 30
0.0
 11
18052.545311999991
 21
16849.818836999981
 31
0.0
  0
LINE
  5
60A1
  8
2-0
  6
CONTINUOUS
 62
     3
 10
18027.551909999991
 20
16844.81857299999
 30
0.0
 11
18027.551909999991
 21
16849.818836999981
 31
0.0
  0
LINE
  5
60A2
  8
2-0
  6
CONTINUOUS
 62
     3
 10
18034.54950799996
 20
16844.81857299999
 30
0.0
 11
18027.551909999991
 21
16844.81857299999
 31
0.0
  0
LINE
  5
60A3
  8
2-0
  6
CONTINUOUS
 62
     3
 10
18034.54950799996
 20
16140.336342499961
 30
0.0
 11
18027.551909999991
 21
16140.336342499961
 31
0.0
  0
LINE
  5
60A4
  8
2-0
  6
CONTINUOUS
 62
     3
 10
18027.551909999991
 20
16140.336342499961
 30
0.0
 11
18027.551909999991
 21
16145.336606499979
 31
0.0
  0
LINE
  5
60A5
  8
2-0
  6
CONTINUOUS
 62
     3
 10
18027.551909999991
 20
16145.336606499979
 30
0.0
 11
18052.545311999991
 21
16145.336606499979
 31
0.0
  0
LINE
  5
60A6
  8
2-0
  6
CONTINUOUS
 62
     3
 10
18052.545311999991
 20
16145.336606499979
 30
0.0
 11
18052.545311999991
 21
16127.334864499981
 31
0.0
  0
LINE
  5
60A7
  8
2-0
  6
CONTINUOUS
 62
     3
 10
18052.545311999991
 20
16127.334864499981
 30
0.0
 11
18022.547686999991
 21
16127.334864499981
 31
0.0
  0
LINE
  5
60A8
  8
2-0
  6
CONTINUOUS
 62
     3
 10
18052.545311999991
 20
16143.432309499991
 30
0.0
 11
18052.545311999991
 21
16137.435358499981
 31
0.0
  0
LINE
  5
60A9
  8
2-0
  6
CONTINUOUS
 62
     3
 10
18052.545311999991
 20
16137.435358499981
 30
0.0
 11
18022.547686999991
 21
16137.435358499981
 31
0.0
  0
LINE
  5
60AA
  8
2-0
  6
CONTINUOUS
 62
     3
 10
18022.547686999991
 20
16137.435358499981
 30
0.0
 11
18022.547686999991
 21
16174.43552949999
 31
0.0
  0
LINE
  5
60AB
  8
2-0
  6
CONTINUOUS
 62
     3
 10
18052.545311999991
 20
16174.43552949999
 30
0.0
 11
18022.547686999991
 21
16174.43552949999
 31
0.0
  0
LINE
  5
60AC
  8
2-0
  6
CONTINUOUS
 62
     3
 10
18052.545311999991
 20
16168.432639499981
 30
0.0
 11
18052.545311999991
 21
16174.43552949999
 31
0.0
  0
LINE
  5
60AD
  8
2-0
  6
CONTINUOUS
 62
     3
 10
18052.545311999991
 20
16184.531074499981
 30
0.0
 11
18022.547686999991
 21
16184.531074499981
 31
0.0
  0
LINE
  5
60AE
  8
2-0
  6
CONTINUOUS
 62
     3
 10
18052.545311999991
 20
16166.523393499991
 30
0.0
 11
18052.545311999991
 21
16184.531074499981
 31
0.0
  0
LINE
  5
60AF
  8
2-0
  6
CONTINUOUS
 62
     3
 10
18027.551909999991
 20
16166.523393499991
 30
0.0
 11
18052.545311999991
 21
16166.523393499991
 31
0.0
  0
LINE
  5
60B0
  8
2-0
  6
CONTINUOUS
 62
     3
 10
18027.551909999991
 20
16171.52959649998
 30
0.0
 11
18027.551909999991
 21
16166.523393499991
 31
0.0
  0
LINE
  5
60B1
  8
2-0
  6
CONTINUOUS
 62
     3
 10
18034.54950799996
 20
16171.52959649998
 30
0.0
 11
18027.551909999991
 21
16171.52959649998
 31
0.0
  0
LINE
  5
60B2
  8
2-0
  6
CONTINUOUS
 62
     3
 10
18034.54950799996
 20
15470.76961299998
 30
0.0
 11
18027.551909999991
 21
15470.76961299998
 31
0.0
  0
LINE
  5
60B3
  8
2-0
  6
CONTINUOUS
 62
     3
 10
18027.551909999991
 20
15470.76961299998
 30
0.0
 11
18027.551909999991
 21
15465.775288000001
 31
0.0
  0
LINE
  5
60B4
  8
2-0
  6
CONTINUOUS
 62
     3
 10
18027.551909999991
 20
15465.775288000001
 30
0.0
 11
18052.545311999991
 21
15465.775288000001
 31
0.0
  0
LINE
  5
60B5
  8
2-0
  6
CONTINUOUS
 62
     3
 10
18052.545311999991
 20
15465.775288000001
 30
0.0
 11
18052.545311999991
 21
15483.771091000001
 31
0.0
  0
LINE
  5
60B6
  8
2-0
  6
CONTINUOUS
 62
     3
 10
18052.545311999991
 20
15483.771091000001
 30
0.0
 11
18022.547686999991
 21
15483.771091000001
 31
0.0
  0
LINE
  5
60B7
  8
2-0
  6
CONTINUOUS
 62
     3
 10
18052.545311999991
 20
15467.67364599999
 30
0.0
 11
18052.545311999991
 21
15473.675546
 31
0.0
  0
LINE
  5
60B8
  8
2-0
  6
CONTINUOUS
 62
     3
 10
18052.545311999991
 20
15473.675546
 30
0.0
 11
18022.547686999991
 21
15473.675546
 31
0.0
  0
LINE
  5
60B9
  8
2-0
  6
CONTINUOUS
 62
     3
 10
18022.547686999991
 20
15436.67636499999
 30
0.0
 11
18022.547686999991
 21
15473.675546
 31
0.0
  0
LINE
  5
60BA
  8
2-0
  6
CONTINUOUS
 62
     3
 10
18052.545311999991
 20
15436.67636499999
 30
0.0
 11
18022.547686999991
 21
15436.67636499999
 31
0.0
  0
LINE
  5
60BB
  8
2-0
  6
CONTINUOUS
 62
     3
 10
18052.545311999991
 20
15442.67331599998
 30
0.0
 11
18052.545311999991
 21
15436.67636499999
 31
0.0
  0
LINE
  5
60BC
  8
2-0
  6
CONTINUOUS
 62
     3
 10
18052.545311999991
 20
15426.57488099998
 30
0.0
 11
18022.547686999991
 21
15426.57488099998
 31
0.0
  0
LINE
  5
60BD
  8
2-0
  6
CONTINUOUS
 62
     3
 10
18052.545311999991
 20
15444.582561999991
 30
0.0
 11
18052.545311999991
 21
15426.57488099998
 31
0.0
  0
LINE
  5
60BE
  8
2-0
  6
CONTINUOUS
 62
     3
 10
18027.551909999991
 20
15444.582561999991
 30
0.0
 11
18052.545311999991
 21
15444.582561999991
 31
0.0
  0
LINE
  5
60BF
  8
2-0
  6
CONTINUOUS
 62
     3
 10
18027.551909999991
 20
15439.58229800001
 30
0.0
 11
18027.551909999991
 21
15444.582561999991
 31
0.0
  0
LINE
  5
60C0
  8
2-0
  6
CONTINUOUS
 62
     3
 10
18034.54950799996
 20
15439.58229800001
 30
0.0
 11
18027.551909999991
 21
15439.58229800001
 31
0.0
  0
LINE
  5
60C1
  8
2-0
  6
CONTINUOUS
 62
     3
 10
18022.547686999991
 20
16831.82303399999
 30
0.0
 11
18022.547686999991
 21
16184.531074499981
 31
0.0
  0
LINE
  5
60C2
  8
2-0
  6
CONTINUOUS
 62
     3
 10
18022.547686999991
 20
16986.433331999971
 30
0.0
 11
18022.547686999991
 21
16841.431616999991
 31
0.0
  0
LINE
  5
60C3
  8
2-0
  6
CONTINUOUS
 62
     3
 10
18110.43435299999
 20
16956.433727999982
 30
0.0
 11
18110.43435299999
 21
16871.43715999999
 31
0.0
  0
LINE
  5
60C4
  8
2-0
  6
CONTINUOUS
 62
     3
 10
18034.54950799996
 20
14738.34129099999
 30
0.0
 11
18027.551909999991
 21
14738.34129099999
 31
0.0
  0
LINE
  5
60C5
  8
2-0
  6
CONTINUOUS
 62
     3
 10
18027.551909999991
 20
14738.34129099999
 30
0.0
 11
18027.551909999991
 21
14743.33561699999
 31
0.0
  0
LINE
  5
60C6
  8
2-0
  6
CONTINUOUS
 62
     3
 10
18027.551909999991
 20
14743.33561699999
 30
0.0
 11
18052.545311999991
 21
14743.33561699999
 31
0.0
  0
LINE
  5
60C7
  8
2-0
  6
CONTINUOUS
 62
     3
 10
18052.545311999991
 20
14743.33561699999
 30
0.0
 11
18052.545311999991
 21
14725.33981299999
 31
0.0
  0
LINE
  5
60C8
  8
2-0
  6
CONTINUOUS
 62
     3
 10
18052.545311999991
 20
14725.33981299999
 30
0.0
 11
18022.547686999991
 21
14725.33981299999
 31
0.0
  0
LINE
  5
60C9
  8
2-0
  6
CONTINUOUS
 62
     3
 10
18052.545311999991
 20
14741.43824799998
 30
0.0
 11
18052.545311999991
 21
14735.43535799999
 31
0.0
  0
LINE
  5
60CA
  8
2-0
  6
CONTINUOUS
 62
     3
 10
18052.545311999991
 20
14735.43535799999
 30
0.0
 11
18022.547686999991
 21
14735.43535799999
 31
0.0
  0
LINE
  5
60CB
  8
2-0
  6
CONTINUOUS
 62
     3
 10
18022.547686999991
 20
14735.43535799999
 30
0.0
 11
18022.547686999991
 21
14772.435529999981
 31
0.0
  0
LINE
  5
60CC
  8
2-0
  6
CONTINUOUS
 62
     3
 10
18052.545311999991
 20
14772.435529999981
 30
0.0
 11
18022.547686999991
 21
14772.435529999981
 31
0.0
  0
LINE
  5
60CD
  8
2-0
  6
CONTINUOUS
 62
     3
 10
18052.545311999991
 20
14766.438577999979
 30
0.0
 11
18052.545311999991
 21
14772.435529999981
 31
0.0
  0
LINE
  5
60CE
  8
2-0
  6
CONTINUOUS
 62
     3
 10
18052.545311999991
 20
14782.536022999981
 30
0.0
 11
18022.547686999991
 21
14782.536022999981
 31
0.0
  0
LINE
  5
60CF
  8
2-0
  6
CONTINUOUS
 62
     3
 10
18052.545311999991
 20
14764.52933199998
 30
0.0
 11
18052.545311999991
 21
14782.536022999981
 31
0.0
  0
LINE
  5
60D0
  8
2-0
  6
CONTINUOUS
 62
     3
 10
18027.551909999991
 20
14764.52933199998
 30
0.0
 11
18052.545311999991
 21
14764.52933199998
 31
0.0
  0
LINE
  5
60D1
  8
2-0
  6
CONTINUOUS
 62
     3
 10
18027.551909999991
 20
14769.53454499998
 30
0.0
 11
18027.551909999991
 21
14764.52933199998
 31
0.0
  0
LINE
  5
60D2
  8
2-0
  6
CONTINUOUS
 62
     3
 10
18034.54950799996
 20
14769.53454499998
 30
0.0
 11
18027.551909999991
 21
14769.53454499998
 31
0.0
  0
LINE
  5
60D3
  8
2-0
  6
CONTINUOUS
 62
     3
 10
18052.545311999991
 20
14062.43737099998
 30
0.0
 11
18052.545311999991
 21
14068.44223999998
 31
0.0
  0
LINE
  5
60D4
  8
2-0
  6
CONTINUOUS
 62
     3
 10
18052.545311999991
 20
14068.44223999998
 30
0.0
 11
18022.547686999991
 21
14068.44223999998
 31
0.0
  0
LINE
  5
60D5
  8
2-0
  6
CONTINUOUS
 62
     3
 10
18022.547686999991
 20
14068.44223999998
 30
0.0
 11
18022.547686999991
 21
13953.438148999991
 31
0.0
  0
LINE
  5
60D6
  8
2-0
  6
CONTINUOUS
 62
     3
 10
18022.547686999991
 20
13953.438148999991
 30
0.0
 11
18107.546234999991
 21
13953.438148999991
 31
0.0
  0
LINE
  5
60D7
  8
2-0
  6
CONTINUOUS
 62
     3
 10
18107.546234999991
 20
13953.438148999991
 30
0.0
 11
18107.546234999991
 21
14038.43372799998
 31
0.0
  0
LINE
  5
60D8
  8
2-0
  6
CONTINUOUS
 62
     3
 10
18107.546234999991
 20
14038.43372799998
 30
0.0
 11
18075.54929699998
 21
14038.43372799998
 31
0.0
  0
LINE
  5
60D9
  8
2-0
  6
CONTINUOUS
 62
     3
 10
18034.54950799996
 20
14065.471972999991
 30
0.0
 11
18027.551909999991
 21
14065.471972999991
 31
0.0
  0
LINE
  5
60DA
  8
2-0
  6
CONTINUOUS
 62
     3
 10
18027.551909999991
 20
14065.471972999991
 30
0.0
 11
18027.551909999991
 21
14060.47467799995
 31
0.0
  0
LINE
  5
60DB
  8
2-0
  6
CONTINUOUS
 62
     3
 10
18027.551909999991
 20
14060.47467799995
 30
0.0
 11
18052.545311999991
 21
14060.47467799995
 31
0.0
  0
LINE
  5
60DC
  8
2-0
  6
CONTINUOUS
 62
     3
 10
18052.545311999991
 20
14060.47467799995
 30
0.0
 11
18052.545311999991
 21
14078.473450999991
 31
0.0
  0
LINE
  5
60DD
  8
2-0
  6
CONTINUOUS
 62
     3
 10
18052.545311999991
 20
14078.473450999991
 30
0.0
 11
18022.547686999991
 21
14078.473450999991
 31
0.0
  0
LINE
  5
60DE
  8
2-0
  6
CONTINUOUS
 62
     3
 10
18022.547686999991
 20
14782.536022999981
 30
0.0
 11
18022.547686999991
 21
15426.57488099998
 31
0.0
  0
LINE
  5
60DF
  8
2-0
  6
CONTINUOUS
 62
     3
 10
18022.547686999991
 20
18401.531569999981
 30
0.0
 11
18022.547686999991
 21
19045.341297499981
 31
0.0
  0
LINE
  5
60E0
  8
2-0
  6
CONTINUOUS
 62
     3
 10
18113.550114999991
 20
18330.435179999949
 30
0.0
 11
18066.546445999978
 21
18330.435179999949
 31
0.0
  0
LINE
  5
60E1
  8
2-0
  6
CONTINUOUS
 62
     3
 10
18066.546445999978
 20
18415.435708000001
 30
0.0
 11
18113.550114999991
 21
18415.435708000001
 31
0.0
  0
LINE
  5
60E2
  8
2-0
  6
CONTINUOUS
 62
     3
 10
18066.546445999978
 20
18330.435179999949
 30
0.0
 11
18066.546445999978
 21
18355.438479
 31
0.0
  0
LINE
  5
60E3
  8
2-0
  6
CONTINUOUS
 62
     3
 10
18066.546445999978
 20
18390.434388000001
 30
0.0
 11
18066.546445999978
 21
18415.435708000001
 31
0.0
  0
LINE
  5
60E4
  8
2-0
  6
CONTINUOUS
 62
     3
 10
18113.550114999991
 20
18415.435708000001
 30
0.0
 11
18113.550114999991
 21
18330.435179999949
 31
0.0
  0
LINE
  5
60E5
  8
2-0
  6
CONTINUOUS
 62
     3
 10
18022.547686999991
 20
16127.334864499981
 30
0.0
 11
18022.547686999991
 21
15483.771091000001
 31
0.0
  0
LINE
  5
60E6
  8
2-0
  6
CONTINUOUS
 62
     3
 10
18113.550114999991
 20
15412.677671500011
 30
0.0
 11
18066.546445999978
 21
15412.677671500011
 31
0.0
  0
LINE
  5
60E7
  8
2-0
  6
CONTINUOUS
 62
     3
 10
18066.546445999978
 20
15497.6742395
 30
0.0
 11
18113.550114999991
 21
15497.6742395
 31
0.0
  0
LINE
  5
60E8
  8
2-0
  6
CONTINUOUS
 62
     3
 10
18066.546445999978
 20
15412.677671500011
 30
0.0
 11
18066.546445999978
 21
15437.67305250002
 31
0.0
  0
LINE
  5
60E9
  8
2-0
  6
CONTINUOUS
 62
     3
 10
18066.546445999978
 20
15472.67292050001
 30
0.0
 11
18066.546445999978
 21
15497.6742395
 31
0.0
  0
LINE
  5
60EA
  8
2-0
  6
CONTINUOUS
 62
     3
 10
18113.550114999991
 20
15497.6742395
 30
0.0
 11
18113.550114999991
 21
15412.677671500011
 31
0.0
  0
LINE
  5
60EB
  8
2-0
  6
CONTINUOUS
 62
     3
 10
25742.547554999961
 20
19408.937556000012
 30
0.0
 11
25742.547554999961
 21
19523.933729000011
 31
0.0
  0
LINE
  5
60EC
  8
2-0
  6
CONTINUOUS
 62
     3
 10
22112.509284
 20
17177.646487000002
 30
0.0
 11
21954.628820999991
 21
17296.730366000011
 31
0.0
  0
LINE
  5
60ED
  8
2-0
  6
CONTINUOUS
 62
     3
 10
22500.471172000001
 20
17260.77834999999
 30
0.0
 11
22254.628820999991
 21
17446.213712000012
 31
0.0
  0
LINE
  5
60EE
  8
2-0
  6
CONTINUOUS
 62
     3
 10
22254.628820999991
 20
16376.333407
 30
0.0
 11
21894.520739
 21
16647.960966999992
 31
0.0
  0
LINE
  5
60EF
  8
2-0
  6
CONTINUOUS
 62
     3
 10
21894.520739
 20
16647.960966999992
 30
0.0
 11
22500.471172000001
 21
17260.77834999999
 31
0.0
  0
LINE
  5
60F0
  8
2-0
  6
CONTINUOUS
 62
     3
 10
21954.628820999991
 20
16226.851050999991
 30
0.0
 11
21506.55687199999
 21
16564.83108399999
 31
0.0
  0
LINE
  5
60F1
  8
2-0
  6
CONTINUOUS
 62
     3
 10
22112.509284
 20
17177.646487000002
 30
0.0
 11
21506.55687199999
 21
16564.83108399999
 31
0.0
  0
LINE
  5
60F2
  8
2-0
  6
CONTINUOUS
 62
     3
 10
22254.628820999991
 20
19630.655513999991
 30
0.0
 11
22254.628820999991
 21
19825.14123500001
 31
0.0
  0
LINE
  5
60F3
  8
2-0
  6
CENTER2
 62
     6
 10
16735.589414999991
 20
19481.435443999981
 30
0.0
 11
26592.548874999949
 21
19481.435443999981
 31
0.0
  0
LINE
  5
60F4
  8
2-0
  6
CENTER2
 62
     6
 10
16735.589414999991
 20
16913.935443999992
 30
0.0
 11
26592.548874999949
 21
16913.935443999992
 31
0.0
  0
LINE
  5
60F5
  8
2-0
  6
CENTER2
 62
     6
 10
16735.589414999991
 20
13995.935443999981
 30
0.0
 11
26592.548874999949
 21
13995.935443999981
 31
0.0
  0
LINE
  5
60F6
  8
2-0
  6
CONTINUOUS
 62
     3
 10
18488.135669999981
 20
19511.93388700001
 30
0.0
 11
18488.135669999981
 21
19518.939403
 31
0.0
  0
LINE
  5
60F7
  8
2-0
  6
CONTINUOUS
 62
     3
 10
18488.135669999981
 20
19518.939403
 30
0.0
 11
18483.13540599999
 21
19518.939403
 31
0.0
  0
LINE
  5
60F8
  8
2-0
  6
CONTINUOUS
 62
     3
 10
18483.13540599999
 20
19518.939403
 30
0.0
 11
18483.13540599999
 21
19493.930165999998
 31
0.0
  0
LINE
  5
60F9
  8
2-0
  6
CONTINUOUS
 62
     3
 10
18483.13540599999
 20
19493.930165999998
 30
0.0
 11
18501.137148000002
 21
19493.930165999998
 31
0.0
  0
LINE
  5
60FA
  8
2-0
  6
CONTINUOUS
 62
     3
 10
18501.137148000002
 20
19493.930165999998
 30
0.0
 11
18501.137148000002
 21
19523.933729000011
 31
0.0
  0
LINE
  5
60FB
  8
2-0
  6
CONTINUOUS
 62
     3
 10
18485.037723000001
 20
19493.930165999998
 30
0.0
 11
18491.041602999991
 21
19493.930165999998
 31
0.0
  0
LINE
  5
60FC
  8
2-0
  6
CONTINUOUS
 62
     3
 10
18491.041602999991
 20
19493.930165999998
 30
0.0
 11
18491.041602999991
 21
19523.933729000011
 31
0.0
  0
LINE
  5
60FD
  8
2-0
  6
CONTINUOUS
 62
     3
 10
18454.04638099996
 20
19523.933729000011
 30
0.0
 11
18491.041602999991
 21
19523.933729000011
 31
0.0
  0
LINE
  5
60FE
  8
2-0
  6
CONTINUOUS
 62
     3
 10
18454.04638099996
 20
19493.930165999998
 30
0.0
 11
18454.04638099996
 21
19523.933729000011
 31
0.0
  0
LINE
  5
60FF
  8
2-0
  6
CONTINUOUS
 62
     3
 10
18460.040363
 20
19493.930165999998
 30
0.0
 11
18454.04638099996
 21
19493.930165999998
 31
0.0
  0
LINE
  5
6100
  8
2-0
  6
CONTINUOUS
 62
     3
 10
18443.950836
 20
19493.930165999998
 30
0.0
 11
18443.950836
 21
19523.933729000011
 31
0.0
  0
LINE
  5
6101
  8
2-0
  6
CONTINUOUS
 62
     3
 10
18461.946639000002
 20
19493.930165999998
 30
0.0
 11
18443.950836
 21
19493.930165999998
 31
0.0
  0
LINE
  5
6102
  8
2-0
  6
CONTINUOUS
 62
     3
 10
18461.946639000002
 20
19518.939403
 30
0.0
 11
18461.946639000002
 21
19493.930165999998
 31
0.0
  0
LINE
  5
6103
  8
2-0
  6
CONTINUOUS
 62
     3
 10
18456.948355
 20
19518.939403
 30
0.0
 11
18461.946639000002
 21
19518.939403
 31
0.0
  0
LINE
  5
6104
  8
2-0
  6
CONTINUOUS
 62
     3
 10
18456.948355
 20
19511.93388700001
 30
0.0
 11
18456.948355
 21
19518.939403
 31
0.0
  0
LINE
  5
6105
  8
2-0
  6
CONTINUOUS
 62
     3
 10
18147.84923399995
 20
19523.933729000011
 30
0.0
 11
18443.950836
 21
19523.933729000011
 31
0.0
  0
LINE
  5
6106
  8
2-0
  6
CONTINUOUS
 62
     3
 10
21954.628820999991
 20
19438.937160000001
 30
0.0
 11
18022.547686999991
 21
19438.937160000001
 31
0.0
  0
LINE
  5
6107
  8
2-0
  6
CONTINUOUS
 62
     3
 10
22254.628820999991
 20
19438.937160000001
 30
0.0
 11
25661.545654999962
 21
19438.937160000001
 31
0.0
  0
LINE
  5
6108
  8
2-0
  6
CONTINUOUS
 62
     3
 10
18022.547686999991
 20
14078.473450999991
 30
0.0
 11
18022.547686999991
 21
14725.33981299999
 31
0.0
  0
LINE
  5
6109
  8
2-0
  6
CENTER2
 62
     6
 10
18065.043991999992
 20
20723.933729000011
 30
0.0
 11
18065.043991999992
 21
13370.17200999998
 31
0.0
  0
LINE
  5
610A
  8
2-0
  6
CENTER2
 62
     6
 10
25700.04927099996
 20
20723.933729000011
 30
0.0
 11
25700.04927099996
 21
13370.17200999998
 31
0.0
  0
LINE
  5
610B
  8
2-0
  6
CONTINUOUS
 62
     3
 10
25742.547554999961
 20
19398.64009999999
 30
0.0
 11
25742.547554999961
 21
19102.531569499981
 31
0.0
  0
LINE
  5
610C
  8
2-0
  6
CONTINUOUS
 62
     3
 10
21954.628820999991
 20
17296.730366000011
 30
0.0
 11
21954.628820999991
 21
19825.14123500001
 31
0.0
  0
LINE
  5
610D
  8
2-0
  6
CONTINUOUS
 62
     3
 10
22254.628820999991
 20
17446.213712000012
 30
0.0
 11
22254.628820999991
 21
19630.655513999991
 31
0.0
  0
LINE
  5
610E
  8
2-0
  6
CONTINUOUS
 62
     3
 10
18022.547686999991
 20
19398.64009999999
 30
0.0
 11
18022.547686999991
 21
19102.531569499981
 31
0.0
  0
LINE
  5
610F
  8
2-0
  6
CONTINUOUS
 62
     3
 10
21954.628820999991
 20
16226.851050999991
 30
0.0
 11
21954.628820999991
 21
13804.53084299998
 31
0.0
  0
LINE
  5
6110
  8
2-0
  6
CONTINUOUS
 62
     3
 10
22254.628820999991
 20
16376.333407
 30
0.0
 11
22254.628820999991
 21
13804.53084299998
 31
0.0
  0
LINE
  5
6111
  8
2-0
  6
CENTER2
 62
     6
 10
23132.54927099996
 20
20723.933729000011
 30
0.0
 11
23132.54927099996
 21
13804.53084299998
 31
0.0
  0
LINE
  5
6112
  8
2-0
  6
CENTER2
 62
     6
 10
20632.543991999992
 20
20723.933729000011
 30
0.0
 11
20632.543991999992
 21
13804.53084299998
 31
0.0
  0
LINE
  5
6113
  8
2-0
  6
CONTINUOUS
 62
     3
 10
18103.545627999989
 20
14038.43372799998
 30
0.0
 11
18103.545627999989
 21
19523.933729000011
 31
0.0
  0
LINE
  5
6114
  8
2-0
  6
CONTINUOUS
 62
     3
 10
25661.545654999962
 20
14038.43372799998
 30
0.0
 11
25661.545654999962
 21
19523.933729000011
 31
0.0
  0
CIRCLE
  5
6115
  8
2-0
  6
CONTINUOUS
 62
     4
 10
16535.591724999991
 20
19481.435443999981
 30
0.0
 40
200.00001
  0
CIRCLE
  5
6116
  8
2-0
  6
CONTINUOUS
 62
     4
 10
16535.591724999991
 20
16913.935443999992
 30
0.0
 40
200.00001
  0
CIRCLE
  5
6117
  8
2-0
  6
CONTINUOUS
 62
     4
 10
16535.591724999991
 20
13995.935443999981
 30
0.0
 40
200.00001
  0
CIRCLE
  5
6118
  8
2-0
  6
CONTINUOUS
 62
     4
 10
20632.543991999992
 20
20923.938348
 30
0.0
 40
200.00001
  0
CIRCLE
  5
6119
  8
2-0
  6
CONTINUOUS
 62
     4
 10
18065.043991999992
 20
20923.938348
 30
0.0
 40
200.00001
  0
CIRCLE
  5
611A
  8
2-0
  6
CONTINUOUS
 62
     4
 10
23132.54927099996
 20
20923.938348
 30
0.0
 40
200.00001
  0
CIRCLE
  5
611B
  8
2-0
  6
CONTINUOUS
 62
     4
 10
25700.04927099996
 20
20923.938348
 30
0.0
 40
200.00001
  0
TEXT
  5
611C
  8
2-0
  6
CONTINUOUS
 62
     7
 10
24096.894577999959
 20
13435.93656599998
 30
0.0
 40
160.0
  1
前柱（右）
 50
0.000213
 72
     4
 11
24512.89428059298
 21
13515.938112500769
 31
0.0
  0
TEXT
  5
611D
  8
2-0
  6
CONTINUOUS
 62
     7
 10
24113.593796999969
 20
18115.05861
 30
0.0
 40
160.0
  1
補強柱 後
 50
359.99984199999989
 72
     4
 11
24524.26068427469
 21
18195.05747753699
 31
0.0
  0
TEXT
  5
611E
  8
2-0
  6
CONTINUOUS
 62
     7
 10
24301.489700999959
 20
16364.428582
 30
0.0
 40
160.0
  1
壁パネル
 50
359.99982299999999
 72
     4
 11
24664.15661480352
 21
16444.427461637872
 31
0.0
  0
TEXT
  5
611F
  8
2-0
  6
CONTINUOUS
 62
     7
 10
24021.48679699994
 20
17201.616478
 30
0.0
 40
160.0
  1
中柱（左右）
 50
0.000354
 72
     4
 11
24538.819636046159
 21
17281.619674324651
 31
0.0
  0
TEXT
  5
6120
  8
2-0
  6
CONTINUOUS
 62
     7
 10
24701.489040999961
 20
14408.97783199997
 30
0.0
 40
160.0
  1
下枠
 50
0.001063
 72
     4
 11
24872.154223409259
 21
14488.980998339261
 31
0.0
  0
TEXT
  5
6121
  8
2-0
  6
CONTINUOUS
 62
     7
 10
24113.593796999969
 20
15197.299121000009
 30
0.0
 40
160.0
  1
補強柱 前
 50
359.99937
 72
     4
 11
24524.261343287759
 21
15277.29460547933
 31
0.0
  0
TEXT
  5
6122
  8
2-0
  6
CONTINUOUS
 62
     7
 10
24117.12004959166
 20
18555.073030940392
 30
0.0
 40
160.0
  1
間柱（側）
 72
     4
 11
24538.453382924989
 21
18635.073030940392
 31
0.0
  0
TEXT
  5
6123
  8
2-0
  6
CONTINUOUS
 62
     7
 10
26515.044783999969
 20
20333.932937000001
 30
0.0
 40
160.0
  1
後柱（左右）
 50
0.000354
 72
     4
 11
27027.044289712961
 21
20413.936100372841
 31
0.0
  0
TEXT
  5
6124
  8
2-0
  6
CONTINUOUS
 62
     7
 10
23531.638032999959
 20
14573.77374399996
 30
0.0
 40
160.0
  1
前柱（中）
 72
     4
 11
23947.638032999959
 21
14653.77374399996
 31
0.0
  0
TEXT
  5
6125
  8
2-0
  6
CONTINUOUS
 62
     7
 10
19468.412867999981
 20
18886.815775999999
 30
0.0
 40
160.0
  1
間柱（後）
 72
     4
 11
19889.746201333321
 21
18966.815775999999
 31
0.0
  0
TEXT
  5
6126
  8
2-0
  6
CONTINUOUS
 62
     7
 10
23402.842635999968
 20
18955.560496999991
 30
0.0
 40
160.0
  1
後柱（中）
 72
     4
 11
23818.842635999968
 21
19035.560496999991
 31
0.0
  0
TEXT
  5
6127
  8
2-0
  6
CONTINUOUS
 62
     7
 10
16487.592357999969
 20
19386.955001999992
 30
0.0
 40
160.0
  1
C
 72
     4
 11
16540.925691333301
 21
19466.955001999992
 31
0.0
  0
TEXT
  5
6128
  8
2-0
  6
CONTINUOUS
 62
     7
 10
16487.813073999991
 20
16843.541362
 30
0.0
 40
160.0
  1
B
 72
     4
 11
16541.146407333319
 21
16923.541362
 31
0.0
  0
TEXT
  5
6129
  8
2-0
  6
CONTINUOUS
 62
     7
 10
16487.855634
 20
13907.32823299998
 30
0.0
 40
160.0
  1
A
 72
     4
 11
16541.188967333332
 21
13987.32823299998
 31
0.0
  0
TEXT
  5
612A
  8
2-0
  6
CONTINUOUS
 62
     7
 10
20580.912208999991
 20
20828.412719
 30
0.0
 40
160.0
  1
2
 72
     4
 11
20634.245542333319
 21
20908.412719
 31
0.0
  0
TEXT
  5
612B
  8
2-0
  6
CONTINUOUS
 62
     7
 10
18020.837382999969
 20
20835.170795999999
 30
0.0
 40
160.0
  1
1
 72
     4
 11
18047.504049666641
 21
20915.170795999999
 31
0.0
  0
TEXT
  5
612C
  8
2-0
  6
CONTINUOUS
 62
     7
 10
25648.643152999972
 20
20843.550098
 30
0.0
 40
160.0
  1
n
 72
     4
 11
25701.9764863333
 21
20896.883431333328
 31
0.0
  0
TEXT
  5
612D
  8
2-0
  6
CONTINUOUS
 62
     7
 10
22972.594271999969
 20
20856.046799
 30
0.0
 40
140.0
  1
n-1
 72
     4
 11
23135.927605333301
 21
20926.046799
 31
0.0
  0
TEXT
  5
612E
  8
2-0
  6
CONTINUOUS
 62
     7
 10
21060.80286
 20
11889.06122300001
 30
0.0
 40
160.0
  1
平 面 図
 50
0.000266
 72
     4
 11
21418.135846683821
 21
11963.729548612961
 31
0.0
  0
TEXT
  5
612F
  8
2-0
  6
CONTINUOUS
 62
     7
 10
22769.628031821441
 20
11910.924917612951
 30
0.0
 40
160.0
  1
1
 72
     4
 11
22796.294698488098
 21
11990.924917612951
 31
0.0
  0
TEXT
  5
6130
  8
2-0
  6
CONTINUOUS
 62
     7
 10
23012.716749072129
 20
11830.92638561294
 30
0.0
 40
160.0
  1
80
 72
     4
 11
23132.716749072129
 21
11910.92638561294
 31
0.0
  0
TEXT
  5
6131
  8
2-0
  6
CONTINUOUS
 62
     7
 10
22270.629997821441
 20
11883.729548612961
 30
0.0
 40
160.0
  1
(S=  /   )
 72
     4
 11
22830.629997821441
 21
11963.729548612961
 31
0.0
  0
LINE
  5
6132
  8
2-0
  6
CONTINUOUS
 62
     3
 10
24960.54985199996
 20
19523.933729000011
 30
0.0
 11
24923.54868999996
 21
19523.933729000011
 31
0.0
  0
LINE
  5
6133
  8
2-0
  6
CONTINUOUS
 62
     3
 10
24960.54985199996
 20
19493.930165999998
 30
0.0
 11
24960.54985199996
 21
19523.933729000011
 31
0.0
  0
LINE
  5
6134
  8
2-0
  6
CONTINUOUS
 62
     3
 10
24954.54993099995
 20
19493.930165999998
 30
0.0
 11
24960.54985199996
 21
19493.930165999998
 31
0.0
  0
LINE
  5
6135
  8
2-0
  6
CONTINUOUS
 62
     3
 10
24970.647375999961
 20
19493.930165999998
 30
0.0
 11
24970.647375999961
 21
19523.933729000011
 31
0.0
  0
LINE
  5
6136
  8
2-0
  6
CONTINUOUS
 62
     3
 10
24952.64365499996
 20
19493.930165999998
 30
0.0
 11
24970.647375999961
 21
19493.930165999998
 31
0.0
  0
LINE
  5
6137
  8
2-0
  6
CONTINUOUS
 62
     3
 10
24952.64365499996
 20
19518.939403
 30
0.0
 11
24952.64365499996
 21
19493.930165999998
 31
0.0
  0
LINE
  5
6138
  8
2-0
  6
CONTINUOUS
 62
     3
 10
24957.643918999958
 20
19518.939403
 30
0.0
 11
24952.64365499996
 21
19518.939403
 31
0.0
  0
LINE
  5
6139
  8
2-0
  6
CONTINUOUS
 62
     3
 10
24957.643918999958
 20
19511.93388700001
 30
0.0
 11
24957.643918999958
 21
19518.939403
 31
0.0
  0
LINE
  5
613A
  8
2-0
  6
CONTINUOUS
 62
     3
 10
24926.454623999962
 20
19511.93388700001
 30
0.0
 11
24926.454623999962
 21
19518.939403
 31
0.0
  0
LINE
  5
613B
  8
2-0
  6
CONTINUOUS
 62
     3
 10
24926.454623999962
 20
19518.939403
 30
0.0
 11
24931.45488799996
 21
19518.939403
 31
0.0
  0
LINE
  5
613C
  8
2-0
  6
CONTINUOUS
 62
     3
 10
24931.45488799996
 20
19518.939403
 30
0.0
 11
24931.45488799996
 21
19493.930165999998
 31
0.0
  0
LINE
  5
613D
  8
2-0
  6
CONTINUOUS
 62
     3
 10
24931.45488799996
 20
19493.930165999998
 30
0.0
 11
24913.45512499996
 21
19493.930165999998
 31
0.0
  0
LINE
  5
613E
  8
2-0
  6
CONTINUOUS
 62
     3
 10
24913.45512499996
 20
19493.930165999998
 30
0.0
 11
24913.45512499996
 21
19523.933729000011
 31
0.0
  0
LINE
  5
613F
  8
2-0
  6
CONTINUOUS
 62
     3
 10
24929.548610999958
 20
19493.930165999998
 30
0.0
 11
24923.54868999996
 21
19493.930165999998
 31
0.0
  0
LINE
  5
6140
  8
2-0
  6
CONTINUOUS
 62
     3
 10
24923.54868999996
 20
19493.930165999998
 30
0.0
 11
24923.54868999996
 21
19523.933729000011
 31
0.0
  0
LINE
  5
6141
  8
2-0
  6
CONTINUOUS
 62
     3
 10
24225.44868549997
 20
19511.93388700001
 30
0.0
 11
24225.44868549997
 21
19518.939403
 31
0.0
  0
LINE
  5
6142
  8
2-0
  6
CONTINUOUS
 62
     3
 10
24225.44868549997
 20
19518.939403
 30
0.0
 11
24230.448948499961
 21
19518.939403
 31
0.0
  0
LINE
  5
6143
  8
2-0
  6
CONTINUOUS
 62
     3
 10
24230.448948499961
 20
19518.939403
 30
0.0
 11
24230.448948499961
 21
19493.930165999998
 31
0.0
  0
LINE
  5
6144
  8
2-0
  6
CONTINUOUS
 62
     3
 10
24230.448948499961
 20
19493.930165999998
 30
0.0
 11
24212.455125499961
 21
19493.930165999998
 31
0.0
  0
LINE
  5
6145
  8
2-0
  6
CONTINUOUS
 62
     3
 10
24212.455125499961
 20
19493.930165999998
 30
0.0
 11
24212.455125499961
 21
19523.933729000011
 31
0.0
  0
LINE
  5
6146
  8
2-0
  6
CONTINUOUS
 62
     3
 10
24228.546631499961
 20
19493.930165999998
 30
0.0
 11
24222.54869049996
 21
19493.930165999998
 31
0.0
  0
LINE
  5
6147
  8
2-0
  6
CONTINUOUS
 62
     3
 10
24222.54869049996
 20
19493.930165999998
 30
0.0
 11
24222.54869049996
 21
19523.933729000011
 31
0.0
  0
LINE
  5
6148
  8
2-0
  6
CONTINUOUS
 62
     3
 10
24259.54985149996
 20
19523.933729000011
 30
0.0
 11
24222.54869049996
 21
19523.933729000011
 31
0.0
  0
LINE
  5
6149
  8
2-0
  6
CONTINUOUS
 62
     3
 10
24259.54985149996
 20
19493.930165999998
 30
0.0
 11
24259.54985149996
 21
19523.933729000011
 31
0.0
  0
LINE
  5
614A
  8
2-0
  6
CONTINUOUS
 62
     3
 10
24253.54399249997
 20
19493.930165999998
 30
0.0
 11
24259.54985149996
 21
19493.930165999998
 31
0.0
  0
LINE
  5
614B
  8
2-0
  6
CONTINUOUS
 62
     3
 10
24269.64341649997
 20
19493.930165999998
 30
0.0
 11
24269.64341649997
 21
19523.933729000011
 31
0.0
  0
LINE
  5
614C
  8
2-0
  6
CONTINUOUS
 62
     3
 10
24251.647613499961
 20
19493.930165999998
 30
0.0
 11
24269.64341649997
 21
19493.930165999998
 31
0.0
  0
LINE
  5
614D
  8
2-0
  6
CONTINUOUS
 62
     3
 10
24251.647613499961
 20
19518.939403
 30
0.0
 11
24251.647613499961
 21
19493.930165999998
 31
0.0
  0
LINE
  5
614E
  8
2-0
  6
CONTINUOUS
 62
     3
 10
24256.63797949997
 20
19518.939403
 30
0.0
 11
24251.647613499961
 21
19518.939403
 31
0.0
  0
LINE
  5
614F
  8
2-0
  6
CONTINUOUS
 62
     3
 10
24256.63797949997
 20
19511.93388700001
 30
0.0
 11
24256.63797949997
 21
19518.939403
 31
0.0
  0
LINE
  5
6150
  8
2-0
  6
CONTINUOUS
 62
     3
 10
23568.642426999981
 20
19523.933729000011
 30
0.0
 11
24212.455125499961
 21
19523.933729000011
 31
0.0
  0
LINE
  5
6151
  8
2-0
  6
CONTINUOUS
 62
     3
 10
25617.93290099996
 20
19523.933729000011
 30
0.0
 11
24970.647375999961
 21
19523.933729000011
 31
0.0
  0
LINE
  5
6152
  8
2-0
  6
CONTINUOUS
 62
     3
 10
24913.45512499996
 20
19523.933729000011
 30
0.0
 11
24269.64341649997
 21
19523.933729000011
 31
0.0
  0
LINE
  5
6153
  8
2-0
  6
CONTINUOUS
 62
     3
 10
23555.640948999961
 20
19511.93388700001
 30
0.0
 11
23555.640948999961
 21
19518.939403
 31
0.0
  0
LINE
  5
6154
  8
2-0
  6
CONTINUOUS
 62
     3
 10
23555.640948999961
 20
19518.939403
 30
0.0
 11
23550.640684999958
 21
19518.939403
 31
0.0
  0
LINE
  5
6155
  8
2-0
  6
CONTINUOUS
 62
     3
 10
23550.640684999958
 20
19518.939403
 30
0.0
 11
23550.640684999958
 21
19493.930165999998
 31
0.0
  0
LINE
  5
6156
  8
2-0
  6
CONTINUOUS
 62
     3
 10
23550.640684999958
 20
19493.930165999998
 30
0.0
 11
23568.642426999981
 21
19493.930165999998
 31
0.0
  0
LINE
  5
6157
  8
2-0
  6
CONTINUOUS
 62
     3
 10
23568.642426999981
 20
19493.930165999998
 30
0.0
 11
23568.642426999981
 21
19523.933729000011
 31
0.0
  0
LINE
  5
6158
  8
2-0
  6
CONTINUOUS
 62
     3
 10
23552.54300199998
 20
19493.930165999998
 30
0.0
 11
23558.546881999959
 21
19493.930165999998
 31
0.0
  0
LINE
  5
6159
  8
2-0
  6
CONTINUOUS
 62
     3
 10
23558.546881999959
 20
19493.930165999998
 30
0.0
 11
23558.546881999959
 21
19523.933729000011
 31
0.0
  0
LINE
  5
615A
  8
2-0
  6
CONTINUOUS
 62
     3
 10
23521.551659999961
 20
19523.933729000011
 30
0.0
 11
23558.546881999959
 21
19523.933729000011
 31
0.0
  0
LINE
  5
615B
  8
2-0
  6
CONTINUOUS
 62
     3
 10
23521.551659999961
 20
19493.930165999998
 30
0.0
 11
23521.551659999961
 21
19523.933729000011
 31
0.0
  0
LINE
  5
615C
  8
2-0
  6
CONTINUOUS
 62
     3
 10
23527.545641999968
 20
19493.930165999998
 30
0.0
 11
23521.551659999961
 21
19493.930165999998
 31
0.0
  0
LINE
  5
615D
  8
2-0
  6
CONTINUOUS
 62
     3
 10
23511.456114999961
 20
19493.930165999998
 30
0.0
 11
23511.456114999961
 21
19523.933729000011
 31
0.0
  0
LINE
  5
615E
  8
2-0
  6
CONTINUOUS
 62
     3
 10
23529.451917999981
 20
19493.930165999998
 30
0.0
 11
23511.456114999961
 21
19493.930165999998
 31
0.0
  0
LINE
  5
615F
  8
2-0
  6
CONTINUOUS
 62
     3
 10
23529.451917999981
 20
19518.939403
 30
0.0
 11
23529.451917999981
 21
19493.930165999998
 31
0.0
  0
LINE
  5
6160
  8
2-0
  6
CONTINUOUS
 62
     3
 10
23524.453633999961
 20
19518.939403
 30
0.0
 11
23529.451917999981
 21
19518.939403
 31
0.0
  0
LINE
  5
6161
  8
2-0
  6
CONTINUOUS
 62
     3
 10
23524.453633999961
 20
19511.93388700001
 30
0.0
 11
23524.453633999961
 21
19518.939403
 31
0.0
  0
LINE
  5
6162
  8
2-0
  6
CONTINUOUS
 62
     3
 10
23215.354512999958
 20
19523.933729000011
 30
0.0
 11
23511.456114999961
 21
19523.933729000011
 31
0.0
  0
LINE
  5
6163
  8
2-0
  6
CONTINUOUS
 62
     3
 10
22393.738724999981
 20
19523.933729000011
 30
0.0
 11
22356.73756299997
 21
19523.933729000011
 31
0.0
  0
LINE
  5
6164
  8
2-0
  6
CONTINUOUS
 62
     3
 10
22393.738724999981
 20
19493.930165999998
 30
0.0
 11
22393.738724999981
 21
19523.933729000011
 31
0.0
  0
LINE
  5
6165
  8
2-0
  6
CONTINUOUS
 62
     3
 10
22387.738803999961
 20
19493.930165999998
 30
0.0
 11
22393.738724999981
 21
19493.930165999998
 31
0.0
  0
LINE
  5
6166
  8
2-0
  6
CONTINUOUS
 62
     3
 10
22403.836248999982
 20
19493.930165999998
 30
0.0
 11
22403.836248999982
 21
19523.933729000011
 31
0.0
  0
LINE
  5
6167
  8
2-0
  6
CONTINUOUS
 62
     3
 10
22385.832527999981
 20
19493.930165999998
 30
0.0
 11
22403.836248999982
 21
19493.930165999998
 31
0.0
  0
LINE
  5
6168
  8
2-0
  6
CONTINUOUS
 62
     3
 10
22385.832527999981
 20
19518.939403
 30
0.0
 11
22385.832527999981
 21
19493.930165999998
 31
0.0
  0
LINE
  5
6169
  8
2-0
  6
CONTINUOUS
 62
     3
 10
22390.832791999968
 20
19518.939403
 30
0.0
 11
22385.832527999981
 21
19518.939403
 31
0.0
  0
LINE
  5
616A
  8
2-0
  6
CONTINUOUS
 62
     3
 10
22390.832791999968
 20
19511.93388700001
 30
0.0
 11
22390.832791999968
 21
19518.939403
 31
0.0
  0
LINE
  5
616B
  8
2-0
  6
CONTINUOUS
 62
     3
 10
22359.643496999961
 20
19511.93388700001
 30
0.0
 11
22359.643496999961
 21
19518.939403
 31
0.0
  0
LINE
  5
616C
  8
2-0
  6
CONTINUOUS
 62
     3
 10
22359.643496999961
 20
19518.939403
 30
0.0
 11
22364.643760999981
 21
19518.939403
 31
0.0
  0
LINE
  5
616D
  8
2-0
  6
CONTINUOUS
 62
     3
 10
22364.643760999981
 20
19518.939403
 30
0.0
 11
22364.643760999981
 21
19493.930165999998
 31
0.0
  0
LINE
  5
616E
  8
2-0
  6
CONTINUOUS
 62
     3
 10
22364.643760999981
 20
19493.930165999998
 30
0.0
 11
22346.643997999981
 21
19493.930165999998
 31
0.0
  0
LINE
  5
616F
  8
2-0
  6
CONTINUOUS
 62
     3
 10
22346.643997999981
 20
19493.930165999998
 30
0.0
 11
22346.643997999981
 21
19523.933729000011
 31
0.0
  0
LINE
  5
6170
  8
2-0
  6
CONTINUOUS
 62
     3
 10
22362.737483999968
 20
19493.930165999998
 30
0.0
 11
22356.73756299997
 21
19493.930165999998
 31
0.0
  0
LINE
  5
6171
  8
2-0
  6
CONTINUOUS
 62
     3
 10
22356.73756299997
 20
19493.930165999998
 30
0.0
 11
22356.73756299997
 21
19523.933729000011
 31
0.0
  0
LINE
  5
6172
  8
2-0
  6
CONTINUOUS
 62
     3
 10
23051.121773999981
 20
19523.933729000011
 30
0.0
 11
22403.836248999982
 21
19523.933729000011
 31
0.0
  0
LINE
  5
6173
  8
2-0
  6
CONTINUOUS
 62
     3
 10
22346.643997999981
 20
19523.933729000011
 30
0.0
 11
22254.628820999991
 21
19523.933729000011
 31
0.0
  0
LINE
  5
6174
  8
2-0
  6
CONTINUOUS
 62
     3
 10
21755.946796499989
 20
19511.93388700001
 30
0.0
 11
21755.946796499989
 21
19518.939403
 31
0.0
  0
LINE
  5
6175
  8
2-0
  6
CONTINUOUS
 62
     3
 10
21755.946796499989
 20
19518.939403
 30
0.0
 11
21750.946532499991
 21
19518.939403
 31
0.0
  0
LINE
  5
6176
  8
2-0
  6
CONTINUOUS
 62
     3
 10
21750.946532499991
 20
19518.939403
 30
0.0
 11
21750.946532499991
 21
19493.930165999998
 31
0.0
  0
LINE
  5
6177
  8
2-0
  6
CONTINUOUS
 62
     3
 10
21750.946532499991
 20
19493.930165999998
 30
0.0
 11
21768.952233499978
 21
19493.930165999998
 31
0.0
  0
LINE
  5
6178
  8
2-0
  6
CONTINUOUS
 62
     3
 10
21768.952233499978
 20
19493.930165999998
 30
0.0
 11
21768.952233499978
 21
19523.933729000011
 31
0.0
  0
LINE
  5
6179
  8
2-0
  6
CONTINUOUS
 62
     3
 10
21752.854788499979
 20
19493.930165999998
 30
0.0
 11
21758.856688499989
 21
19493.930165999998
 31
0.0
  0
LINE
  5
617A
  8
2-0
  6
CONTINUOUS
 62
     3
 10
21758.856688499989
 20
19493.930165999998
 30
0.0
 11
21758.856688499989
 21
19523.933729000011
 31
0.0
  0
LINE
  5
617B
  8
2-0
  6
CONTINUOUS
 62
     3
 10
21721.857507499972
 20
19523.933729000011
 30
0.0
 11
21758.856688499989
 21
19523.933729000011
 31
0.0
  0
LINE
  5
617C
  8
2-0
  6
CONTINUOUS
 62
     3
 10
21721.857507499972
 20
19493.930165999998
 30
0.0
 11
21721.857507499972
 21
19523.933729000011
 31
0.0
  0
LINE
  5
617D
  8
2-0
  6
CONTINUOUS
 62
     3
 10
21727.85148949999
 20
19493.930165999998
 30
0.0
 11
21721.857507499972
 21
19493.930165999998
 31
0.0
  0
LINE
  5
617E
  8
2-0
  6
CONTINUOUS
 62
     3
 10
21711.761962499979
 20
19493.930165999998
 30
0.0
 11
21711.761962499979
 21
19523.933729000011
 31
0.0
  0
LINE
  5
617F
  8
2-0
  6
CONTINUOUS
 62
     3
 10
21729.757765499991
 20
19493.930165999998
 30
0.0
 11
21711.761962499979
 21
19493.930165999998
 31
0.0
  0
LINE
  5
6180
  8
2-0
  6
CONTINUOUS
 62
     3
 10
21729.757765499991
 20
19518.939403
 30
0.0
 11
21729.757765499991
 21
19493.930165999998
 31
0.0
  0
LINE
  5
6181
  8
2-0
  6
CONTINUOUS
 62
     3
 10
21724.757501499978
 20
19518.939403
 30
0.0
 11
21729.757765499991
 21
19518.939403
 31
0.0
  0
LINE
  5
6182
  8
2-0
  6
CONTINUOUS
 62
     3
 10
21724.757501499978
 20
19511.93388700001
 30
0.0
 11
21724.757501499978
 21
19518.939403
 31
0.0
  0
LINE
  5
6183
  8
2-0
  6
CONTINUOUS
 62
     3
 10
21068.156124000001
 20
19523.933729000011
 30
0.0
 11
21711.761962499979
 21
19523.933729000011
 31
0.0
  0
LINE
  5
6184
  8
2-0
  6
CONTINUOUS
 62
     3
 10
21054.948776000001
 20
19511.93388700001
 30
0.0
 11
21054.948776000001
 21
19518.939403
 31
0.0
  0
LINE
  5
6185
  8
2-0
  6
CONTINUOUS
 62
     3
 10
21054.948776000001
 20
19518.939403
 30
0.0
 11
21049.948511999992
 21
19518.939403
 31
0.0
  0
LINE
  5
6186
  8
2-0
  6
CONTINUOUS
 62
     3
 10
21049.948511999992
 20
19518.939403
 30
0.0
 11
21049.948511999992
 21
19493.930165999998
 31
0.0
  0
LINE
  5
6187
  8
2-0
  6
CONTINUOUS
 62
     3
 10
21049.948511999992
 20
19493.930165999998
 30
0.0
 11
21067.950253999988
 21
19493.930165999998
 31
0.0
  0
LINE
  5
6188
  8
2-0
  6
CONTINUOUS
 62
     3
 10
21067.950253999988
 20
19493.930165999998
 30
0.0
 11
21067.950253999988
 21
19523.933729000011
 31
0.0
  0
LINE
  5
6189
  8
2-0
  6
CONTINUOUS
 62
     3
 10
21051.850828999992
 20
19493.930165999998
 30
0.0
 11
21057.854708999988
 21
19493.930165999998
 31
0.0
  0
LINE
  5
618A
  8
2-0
  6
CONTINUOUS
 62
     3
 10
21057.854708999988
 20
19493.930165999998
 30
0.0
 11
21057.854708999988
 21
19523.933729000011
 31
0.0
  0
LINE
  5
618B
  8
2-0
  6
CONTINUOUS
 62
     3
 10
21020.859487000002
 20
19523.933729000011
 30
0.0
 11
21057.854708999988
 21
19523.933729000011
 31
0.0
  0
LINE
  5
618C
  8
2-0
  6
CONTINUOUS
 62
     3
 10
21020.859487000002
 20
19493.930165999998
 30
0.0
 11
21020.859487000002
 21
19523.933729000011
 31
0.0
  0
LINE
  5
618D
  8
2-0
  6
CONTINUOUS
 62
     3
 10
21026.853469000001
 20
19493.930165999998
 30
0.0
 11
21020.859487000002
 21
19493.930165999998
 31
0.0
  0
LINE
  5
618E
  8
2-0
  6
CONTINUOUS
 62
     3
 10
21010.763942000001
 20
19493.930165999998
 30
0.0
 11
21010.763942000001
 21
19523.933729000011
 31
0.0
  0
LINE
  5
618F
  8
2-0
  6
CONTINUOUS
 62
     3
 10
21028.759744999988
 20
19493.930165999998
 30
0.0
 11
21010.763942000001
 21
19493.930165999998
 31
0.0
  0
LINE
  5
6190
  8
2-0
  6
CONTINUOUS
 62
     3
 10
21028.759744999988
 20
19518.939403
 30
0.0
 11
21028.759744999988
 21
19493.930165999998
 31
0.0
  0
LINE
  5
6191
  8
2-0
  6
CONTINUOUS
 62
     3
 10
21023.761460999998
 20
19518.939403
 30
0.0
 11
21028.759744999988
 21
19518.939403
 31
0.0
  0
LINE
  5
6192
  8
2-0
  6
CONTINUOUS
 62
     3
 10
21023.761460999998
 20
19511.93388700001
 30
0.0
 11
21023.761460999998
 21
19518.939403
 31
0.0
  0
LINE
  5
6193
  8
2-0
  6
CONTINUOUS
 62
     3
 10
20714.662339999992
 20
19523.933729000011
 30
0.0
 11
21010.763942000001
 21
19523.933729000011
 31
0.0
  0
LINE
  5
6194
  8
2-0
  6
CONTINUOUS
 62
     3
 10
21954.628820999991
 20
19523.933729000011
 30
0.0
 11
21768.952233499978
 21
19523.933729000011
 31
0.0
  0
LINE
  5
6195
  8
2-0
  6
CONTINUOUS
 62
     3
 10
25742.547554999961
 20
15426.57488099998
 30
0.0
 11
25742.547554999961
 21
14782.536022999981
 31
0.0
  0
LINE
  5
6196
  8
2-0
  6
CONTINUOUS
 62
     3
 10
25742.547554999961
 20
14725.33981299999
 30
0.0
 11
25742.547554999961
 21
14078.473450999991
 31
0.0
  0
LINE
  5
6197
  8
SUNPOU
  6
CONTINUOUS
 10
5021.3429176495101
 20
19703.931353
 30
0.0
 11
5021.3429176495101
 21
20500.898620778451
 31
0.0
  0
LINE
  5
6198
  8
SUNPOU
  6
CONTINUOUS
 10
5021.3429176495092
 20
13803.44012899999
 30
0.0
 11
5021.3429176495092
 21
13128.01401318961
 31
0.0
  0
LINE
  5
6199
  8
2-0
  6
CONTINUOUS
 62
     6
 10
25609.82706367326
 20
18919.803203675761
 30
0.0
 11
25712.549930999961
 21
19045.341297499981
 31
0.0
  0
LINE
  5
619A
  8
2-0
  6
CONTINUOUS
 62
     6
 10
25712.549930999961
 20
19045.341297499981
 30
0.0
 11
25574.659660180911
 21
18959.90565999733
 31
0.0
  0
LINE
  5
619B
  8
2-0
  6
CONTINUOUS
 62
     6
 10
25574.659660180911
 20
18959.90565999733
 30
0.0
 11
25609.82706367326
 21
18919.803203675761
 31
0.0
  0
LINE
  5
619E
  8
WAKUSEN-01
 10
868.00000000000193
 20
22484.000000000011
 30
0.0
 11
32764.000000000011
 21
22484.000000000011
 31
0.0
  0
LINE
  5
61A1
  8
WAKUSEN-01
 10
20560.0
 20
2484.0
 30
0.0
 11
32764.0
 21
2484.0
 31
0.0
  0
LINE
  5
61A2
  8
WAKUSEN-02
 10
20560.0
 20
1655.9999999999991
 30
0.0
 11
26868.0
 21
1655.9999999999991
 31
0.0
  0
TEXT
  5
61A3
  8
WAKUMOJI-01
 10
20670.260259962761
 20
2125.9030093393221
 30
0.0
 40
240.0
  1
名　称
  7
WAKUMOJI
  0
TEXT
  5
61A4
  8
WAKUMOJI-01
 10
20656.505485091919
 20
1319.12897497982
 30
0.0
 40
240.0
  1
機種名
  7
WAKUMOJI
  0
LINE
  5
61A7
  8
YODOROGO
 10
29977.604341291921
 20
1995.7494964292871
 30
0.0
 11
29829.604341291921
 21
1995.7494964292871
 31
0.0
1001
AUTOCAD_POSTSCRIPT_FIGURE
1002
{
1000
PSFILL
1000
Grayscale
1000
Grayscale
1070
    25
1002
}
  0
LINE
  5
61A8
  8
YODOROGO
 10
29829.604341291921
 20
1947.749496429288
 30
0.0
 11
29977.604341291921
 21
1947.749496429288
 31
0.0
1001
AUTOCAD_POSTSCRIPT_FIGURE
1002
{
1000
PSFILL
1000
Grayscale
1000
Grayscale
1070
    25
1002
}
  0
LINE
  5
61A9
  8
YODOROGO
 10
29977.604341291921
 20
1907.7494964292871
 30
0.0
 11
29829.604341291921
 21
1907.7494964292871
 31
0.0
1001
AUTOCAD_POSTSCRIPT_FIGURE
1002
{
1000
PSFILL
1000
Grayscale
1000
Grayscale
1070
    25
1002
}
  0
LINE
  5
61AA
  8
YODOROGO
 10
29829.604341291921
 20
1859.749496429288
 30
0.0
 11
29977.604341291921
 21
1859.749496429288
 31
0.0
1001
AUTOCAD_POSTSCRIPT_FIGURE
1002
{
1000
PSFILL
1000
Grayscale
1000
Grayscale
1070
    25
1002
}
  0
LINE
  5
61AB
  8
YODOROGO
 10
29977.604341291921
 20
1819.7494964292871
 30
0.0
 11
29829.604341291921
 21
1819.7494964292871
 31
0.0
1001
AUTOCAD_POSTSCRIPT_FIGURE
1002
{
1000
PSFILL
1000
Grayscale
1000
Grayscale
1070
    25
1002
}
  0
LINE
  5
61AC
  8
YODOROGO
 10
29921.60434129191
 20
1707.749496429288
 30
0.0
 11
29977.604341291921
 21
1707.749496429288
 31
0.0
1001
AUTOCAD_POSTSCRIPT_FIGURE
1002
{
1000
PSFILL
1000
Grayscale
1000
Grayscale
1070
    25
1002
}
  0
LINE
  5
61AD
  8
YODOROGO
 10
29737.604341291921
 20
1427.749496429288
 30
0.0
 11
29937.604341291932
 21
1481.3393349155101
 31
0.0
  0
LINE
  5
61AE
  8
YODOROGO
 10
29949.60434129191
 20
1707.749496429288
 30
0.0
 11
29885.604341291921
 21
1707.749496429288
 31
0.0
  0
ARC
  5
61AF
  8
YODOROGO
 10
30254.34774982791
 20
1807.864609233261
 30
0.0
 40
381.88686420564721
 50
213.96111677667841
 51
264.47872074317792
  0
ARC
  5
61B0
  8
YODOROGO
 10
30254.347749827921
 20
1807.864609233302
 30
0.0
 40
381.8868642056816
 50
208.14114420486601
 51
212.9210361185994
  0
LINE
  5
61B1
  8
YODOROGO
 10
29771.409872985321
 20
1556.807661346234
 30
0.0
 11
29933.78413250855
 21
1600.3157130570869
 31
0.0
  0
LINE
  5
61B2
  8
YODOROGO
 10
29737.604341291921
 20
1427.749496429288
 30
0.0
 11
29937.604341291932
 21
1481.3393349155101
 31
0.0
  0
LINE
  5
61B3
  8
YODOROGO
 10
29949.60434129191
 20
1707.749496429288
 30
0.0
 11
29885.604341291921
 21
1707.749496429288
 31
0.0
  0
ARC
  5
61B4
  8
YODOROGO
 10
30254.34774982791
 20
1807.864609233261
 30
0.0
 40
381.88686420564721
 50
213.96111677667841
 51
264.47872074317792
  0
LINE
  5
61B5
  8
YODOROGO
 10
28793.60434129191
 20
1819.7494964292871
 30
0.0
 11
28433.60434129191
 21
1819.7494964292871
 31
0.0
  0
LINE
  5
61B6
  8
YODOROGO
 10
28513.60434129191
 20
1427.749496429288
 30
0.0
 11
28793.60434129191
 21
1427.749496429288
 31
0.0
  0
LINE
  5
61B7
  8
YODOROGO
 10
28729.604341291921
 20
1923.7494964292871
 30
0.0
 11
28497.60434129191
 21
1923.7494964292871
 31
0.0
  0
LINE
  5
61B8
  8
YODOROGO
 10
28585.604341291921
 20
2027.749496429288
 30
0.0
 11
28657.604341291921
 21
2027.749496429288
 31
0.0
  0
LINE
  5
61B9
  8
YODOROGO
 10
28433.60434129191
 20
1707.749496429288
 30
0.0
 11
28433.60434129191
 21
1507.749496429288
 31
0.0
  0
LINE
  5
61BA
  8
YODOROGO
 10
28497.60434129191
 20
1563.7494964292871
 30
0.0
 11
28497.60434129191
 21
1707.749496429288
 31
0.0
  0
LINE
  5
61BB
  8
YODOROGO
 10
28585.604341291921
 20
1747.74949642929
 30
0.0
 11
28585.604341291921
 21
1547.749496429288
 31
0.0
  0
LINE
  5
61BC
  8
YODOROGO
 10
27857.604341291921
 20
1683.749496429288
 30
0.0
 11
27777.604341291921
 21
1619.9724140445701
 31
0.0
  0
LINE
  5
61BD
  8
YODOROGO
 10
27937.604341291921
 20
1619.9724140445701
 30
0.0
 11
27857.604341291921
 21
1683.749496429288
 31
0.0
  0
LINE
  5
61BE
  8
YODOROGO
 10
27857.604341291921
 20
1707.749496429288
 30
0.0
 11
27937.604341291921
 21
1643.9724140445701
 31
0.0
  0
LINE
  5
61BF
  8
YODOROGO
 10
27777.604341291921
 20
1643.9724140445701
 30
0.0
 11
27857.604341291921
 21
1707.749496429288
 31
0.0
  0
LINE
  5
61C0
  8
YODOROGO
 10
28040.913204016892
 20
1659.749496429288
 30
0.0
 11
28040.913204016892
 21
1683.7494964292871
 31
0.0
  0
LINE
  5
61C1
  8
YODOROGO
 10
27977.604341291921
 20
1683.7494964292871
 30
0.0
 11
27977.604341291921
 21
1667.749496429285
 31
0.0
  0
LINE
  5
61C2
  8
YODOROGO
 10
28098.135520230931
 20
1707.749496429288
 30
0.0
 11
28098.135520230931
 21
1655.5036372746561
 31
0.0
1001
AUTOCAD_POSTSCRIPT_FIGURE
1002
{
1000
PSFILL
1000
Grayscale
1000
Grayscale
1070
   100
1002
}
  0
LINE
  5
61C3
  8
YODOROGO
 10
28082.135520230921
 20
1655.5036372746561
 30
0.0
 11
28082.135520230921
 21
1707.749496429288
 31
0.0
1001
AUTOCAD_POSTSCRIPT_FIGURE
1002
{
1000
PSFILL
1000
Grayscale
1000
Grayscale
1070
   100
1002
}
  0
LINE
  5
61C4
  8
YODOROGO
 10
27809.604341291921
 20
1608.771904043258
 30
0.0
 11
27809.604341291921
 21
1632.771904043258
 31
0.0
  0
LINE
  5
61C5
  8
YODOROGO
 10
27905.604341291921
 20
1608.771904043258
 30
0.0
 11
27809.604341291921
 21
1608.771904043258
 31
0.0
  0
LINE
  5
61C6
  8
YODOROGO
 10
27905.604341291921
 20
1632.771904043258
 30
0.0
 11
27905.604341291921
 21
1608.771904043258
 31
0.0
  0
LINE
  5
61C7
  8
YODOROGO
 10
27809.604341291921
 20
1632.771904043258
 30
0.0
 11
27905.604341291921
 21
1632.771904043258
 31
0.0
  0
LINE
  5
61C8
  8
YODOROGO
 10
27824.509588915738
 20
1568.5028573704751
 30
0.0
 11
27785.604341291921
 21
1475.7494964292871
 31
0.0
1001
AUTOCAD_POSTSCRIPT_FIGURE
1002
{
1000
PSFILL
1000
Grayscale
1000
Grayscale
1070
   100
1002
}
  0
LINE
  5
61C9
  8
YODOROGO
 10
27777.604341291921
 20
1568.5028573704751
 30
0.0
 11
27824.509588915738
 21
1568.5028573704751
 31
0.0
1001
AUTOCAD_POSTSCRIPT_FIGURE
1002
{
1000
PSFILL
1000
Grayscale
1000
Grayscale
1070
   100
1002
}
  0
LINE
  5
61CA
  8
YODOROGO
 10
27777.604341291921
 20
1588.5028573704751
 30
0.0
 11
27777.604341291921
 21
1568.5028573704751
 31
0.0
1001
AUTOCAD_POSTSCRIPT_FIGURE
1002
{
1000
PSFILL
1000
Grayscale
1000
Grayscale
1070
   100
1002
}
  0
LINE
  5
61CB
  8
YODOROGO
 10
27937.604341291921
 20
1588.5028573704751
 30
0.0
 11
27777.604341291921
 21
1588.5028573704751
 31
0.0
1001
AUTOCAD_POSTSCRIPT_FIGURE
1002
{
1000
PSFILL
1000
Grayscale
1000
Grayscale
1070
   100
1002
}
  0
LINE
  5
61CC
  8
YODOROGO
 10
27937.604341291921
 20
1568.5028573704751
 30
0.0
 11
27937.604341291921
 21
1588.5028573704751
 31
0.0
1001
AUTOCAD_POSTSCRIPT_FIGURE
1002
{
1000
PSFILL
1000
Grayscale
1000
Grayscale
1070
   100
1002
}
  0
LINE
  5
61CD
  8
YODOROGO
 10
27844.509588915738
 20
1568.5028573704751
 30
0.0
 11
27937.604341291921
 21
1568.5028573704751
 31
0.0
1001
AUTOCAD_POSTSCRIPT_FIGURE
1002
{
1000
PSFILL
1000
Grayscale
1000
Grayscale
1070
   100
1002
}
  0
LINE
  5
61CE
  8
YODOROGO
 10
27815.546718284771
 20
1495.7494964292871
 30
0.0
 11
27844.509588915738
 21
1568.5028573704751
 31
0.0
1001
AUTOCAD_POSTSCRIPT_FIGURE
1002
{
1000
PSFILL
1000
Grayscale
1000
Grayscale
1070
   100
1002
}
  0
LINE
  5
61CF
  8
YODOROGO
 10
27902.054790808648
 20
1495.7494964292871
 30
0.0
 11
27815.546718284771
 21
1495.7494964292871
 31
0.0
1001
AUTOCAD_POSTSCRIPT_FIGURE
1002
{
1000
PSFILL
1000
Grayscale
1000
Grayscale
1070
   100
1002
}
  0
LINE
  5
61D0
  8
YODOROGO
 10
27885.065004790951
 20
1536.2338106976929
 30
0.0
 11
27902.054790808648
 21
1495.7494964292871
 31
0.0
1001
AUTOCAD_POSTSCRIPT_FIGURE
1002
{
1000
PSFILL
1000
Grayscale
1000
Grayscale
1070
   100
1002
}
  0
LINE
  5
61D1
  8
YODOROGO
 10
27901.065004790951
 20
1536.2338106976929
 30
0.0
 11
27885.065004790951
 21
1536.2338106976929
 31
0.0
1001
AUTOCAD_POSTSCRIPT_FIGURE
1002
{
1000
PSFILL
1000
Grayscale
1000
Grayscale
1070
   100
1002
}
  0
LINE
  5
61D2
  8
YODOROGO
 10
27929.604341291921
 20
1475.7494964292871
 30
0.0
 11
27901.065004790951
 21
1536.2338106976929
 31
0.0
1001
AUTOCAD_POSTSCRIPT_FIGURE
1002
{
1000
PSFILL
1000
Grayscale
1000
Grayscale
1070
   100
1002
}
  0
LINE
  5
61D3
  8
YODOROGO
 10
27785.604341291921
 20
1475.7494964292871
 30
0.0
 11
27929.604341291921
 21
1475.7494964292871
 31
0.0
1001
AUTOCAD_POSTSCRIPT_FIGURE
1002
{
1000
PSFILL
1000
Grayscale
1000
Grayscale
1070
   100
1002
}
  0
LINE
  5
61D4
  8
YODOROGO
 10
27777.604341291921
 20
1619.9724140445701
 30
0.0
 11
27777.604341291921
 21
1643.9724140445701
 31
0.0
  0
LINE
  5
61D5
  8
YODOROGO
 10
27937.604341291921
 20
1643.9724140445701
 30
0.0
 11
27937.604341291921
 21
1619.9724140445701
 31
0.0
  0
ARC
  5
61D6
  8
YODOROGO
 10
28225.940442146959
 20
1600.877765325326
 30
0.0
 40
175.9999999999998
 50
280.3644312771313
 51
3.5414836592180561
  0
ARC
  5
61D7
  8
YODOROGO
 10
28235.756030759301
 20
1633.5978069619041
 30
0.0
 40
111.9999999999982
 50
281.24905825041549
 51
348.75094174958321
  0
LINE
  5
61D8
  8
YODOROGO
 10
28257.604341291921
 20
1523.7494964292871
 30
0.0
 11
28257.604341291921
 21
1427.749496429288
 31
0.0
  0
LINE
  5
61D9
  8
YODOROGO
 10
28020.088903736909
 20
1610.650565061914
 30
0.0
 11
28040.913204016892
 21
1659.749496429288
 31
0.0
  0
LINE
  5
61DA
  8
YODOROGO
 10
28041.604341291921
 20
1583.120489948401
 30
0.0
 11
28020.088903736909
 21
1610.650565061914
 31
0.0
  0
LINE
  5
61DB
  8
YODOROGO
 10
28041.604341291921
 20
1563.120489948398
 30
0.0
 11
28041.604341291921
 21
1583.120489948401
 31
0.0
  0
LINE
  5
61DC
  8
YODOROGO
 10
28017.604341291921
 20
1585.2370637495301
 30
0.0
 11
28041.604341291921
 21
1563.120489948398
 31
0.0
  0
LINE
  5
61DD
  8
YODOROGO
 10
28017.604341291921
 20
1475.7494964292871
 30
0.0
 11
28017.604341291921
 21
1585.2370637495301
 31
0.0
  0
LINE
  5
61DE
  8
YODOROGO
 10
28001.604341291921
 20
1475.7494964292871
 30
0.0
 11
28017.604341291921
 21
1475.7494964292871
 31
0.0
  0
LINE
  5
61DF
  8
YODOROGO
 10
28001.604341291921
 20
1580.0053496897469
 30
0.0
 11
28001.604341291921
 21
1475.7494964292871
 31
0.0
  0
LINE
  5
61E0
  8
YODOROGO
 10
27977.604341291921
 20
1532.7680790334291
 30
0.0
 11
28001.604341291921
 21
1580.0053496897469
 31
0.0
  0
LINE
  5
61E1
  8
YODOROGO
 10
27977.604341291921
 20
1556.76807903343
 30
0.0
 11
27977.604341291921
 21
1532.7680790334291
 31
0.0
  0
LINE
  5
61E2
  8
YODOROGO
 10
28025.828774291349
 20
1667.749496429285
 30
0.0
 11
27977.604341291921
 21
1556.76807903343
 31
0.0
  0
LINE
  5
61E3
  8
YODOROGO
 10
27977.604341291921
 20
1667.749496429285
 30
0.0
 11
28025.828774291349
 21
1667.749496429285
 31
0.0
  0
LINE
  5
61E4
  8
YODOROGO
 10
28050.135520230899
 20
1655.5036372746561
 30
0.0
 11
28082.135520230921
 21
1655.5036372746561
 31
0.0
1001
AUTOCAD_POSTSCRIPT_FIGURE
1002
{
1000
PSFILL
1000
Grayscale
1000
Grayscale
1070
   100
1002
}
  0
LINE
  5
61E5
  8
YODOROGO
 10
28050.135520230899
 20
1631.5036372746561
 30
0.0
 11
28050.135520230899
 21
1655.5036372746561
 31
0.0
1001
AUTOCAD_POSTSCRIPT_FIGURE
1002
{
1000
PSFILL
1000
Grayscale
1000
Grayscale
1070
   100
1002
}
  0
LINE
  5
61E6
  8
YODOROGO
 10
28082.135520230921
 20
1631.5036372746561
 30
0.0
 11
28050.135520230899
 21
1631.5036372746561
 31
0.0
1001
AUTOCAD_POSTSCRIPT_FIGURE
1002
{
1000
PSFILL
1000
Grayscale
1000
Grayscale
1070
   100
1002
}
  0
LINE
  5
61E7
  8
YODOROGO
 10
28082.135520230921
 20
1499.749496429288
 30
0.0
 11
28082.135520230921
 21
1631.5036372746561
 31
0.0
1001
AUTOCAD_POSTSCRIPT_FIGURE
1002
{
1000
PSFILL
1000
Grayscale
1000
Grayscale
1070
   100
1002
}
  0
LINE
  5
61E8
  8
YODOROGO
 10
28050.135520230921
 20
1499.749496429288
 30
0.0
 11
28082.135520230921
 21
1499.749496429288
 31
0.0
1001
AUTOCAD_POSTSCRIPT_FIGURE
1002
{
1000
PSFILL
1000
Grayscale
1000
Grayscale
1070
   100
1002
}
  0
LINE
  5
61E9
  8
YODOROGO
 10
28050.135520230921
 20
1475.7494964292871
 30
0.0
 11
28050.135520230921
 21
1499.749496429288
 31
0.0
1001
AUTOCAD_POSTSCRIPT_FIGURE
1002
{
1000
PSFILL
1000
Grayscale
1000
Grayscale
1070
   100
1002
}
  0
LINE
  5
61EA
  8
YODOROGO
 10
28137.604341291921
 20
1475.7494964292871
 30
0.0
 11
28050.135520230921
 21
1475.7494964292871
 31
0.0
1001
AUTOCAD_POSTSCRIPT_FIGURE
1002
{
1000
PSFILL
1000
Grayscale
1000
Grayscale
1070
   100
1002
}
  0
LINE
  5
61EB
  8
YODOROGO
 10
28137.604341291921
 20
1499.749496429288
 30
0.0
 11
28137.604341291921
 21
1475.7494964292871
 31
0.0
1001
AUTOCAD_POSTSCRIPT_FIGURE
1002
{
1000
PSFILL
1000
Grayscale
1000
Grayscale
1070
   100
1002
}
  0
LINE
  5
61EC
  8
YODOROGO
 10
28098.135520230931
 20
1499.749496429288
 30
0.0
 11
28137.604341291921
 21
1499.749496429288
 31
0.0
1001
AUTOCAD_POSTSCRIPT_FIGURE
1002
{
1000
PSFILL
1000
Grayscale
1000
Grayscale
1070
   100
1002
}
  0
LINE
  5
61ED
  8
YODOROGO
 10
28098.135520230931
 20
1631.5036372746561
 30
0.0
 11
28098.135520230931
 21
1499.749496429288
 31
0.0
1001
AUTOCAD_POSTSCRIPT_FIGURE
1002
{
1000
PSFILL
1000
Grayscale
1000
Grayscale
1070
   100
1002
}
  0
LINE
  5
61EE
  8
YODOROGO
 10
28137.604341291921
 20
1631.5036372746561
 30
0.0
 11
28098.135520230931
 21
1631.5036372746561
 31
0.0
1001
AUTOCAD_POSTSCRIPT_FIGURE
1002
{
1000
PSFILL
1000
Grayscale
1000
Grayscale
1070
   100
1002
}
  0
LINE
  5
61EF
  8
YODOROGO
 10
28137.604341291921
 20
1655.5036372746561
 30
0.0
 11
28137.604341291921
 21
1631.5036372746561
 31
0.0
1001
AUTOCAD_POSTSCRIPT_FIGURE
1002
{
1000
PSFILL
1000
Grayscale
1000
Grayscale
1070
   100
1002
}
  0
LINE
  5
61F0
  8
YODOROGO
 10
28098.135520230931
 20
1655.5036372746561
 30
0.0
 11
28137.604341291921
 21
1655.5036372746561
 31
0.0
1001
AUTOCAD_POSTSCRIPT_FIGURE
1002
{
1000
PSFILL
1000
Grayscale
1000
Grayscale
1070
   100
1002
}
  0
LINE
  5
61F1
  8
YODOROGO
 10
28401.60434129191
 20
1667.749496429288
 30
0.0
 11
28345.604341291921
 21
1667.749496429288
 31
0.0
  0
LINE
  5
61F2
  8
YODOROGO
 10
28401.60434129191
 20
1611.749496429288
 30
0.0
 11
28401.60434129191
 21
1667.749496429288
 31
0.0
  0
LINE
  5
61F3
  8
YODOROGO
 10
28345.604341291921
 20
1667.749496429288
 30
0.0
 11
28345.604341291921
 21
1611.749496429288
 31
0.0
  0
ARC
  5
61F4
  8
YODOROGO
 10
28513.60434129191
 20
1507.749496429288
 30
0.0
 40
80.0
 50
180.0
 51
270.0
  0
ARC
  5
61F5
  8
YODOROGO
 10
28537.604341291921
 20
1563.7494964292871
 30
0.0
 40
40.0
 50
180.0
 51
270.0
  0
LINE
  5
61F6
  8
YODOROGO
 10
28561.604341291932
 20
1523.7494964292871
 30
0.0
 11
28537.604341291921
 21
1523.7494964292871
 31
0.0
  0
ARC
  5
61F7
  8
YODOROGO
 10
28561.604341291932
 20
1547.749496429285
 30
0.0
 40
23.999999999996358
 50
270.0
 51
0.0000000000054281
  0
LINE
  5
61F8
  8
YODOROGO
 10
27801.604341291921
 20
1890.786580793706
 30
0.0
 11
27777.604341291921
 21
1843.776747951672
 31
0.0
1001
AUTOCAD_POSTSCRIPT_FIGURE
1002
{
1000
PSFILL
1000
Grayscale
1000
Grayscale
1070
   100
1002
}
  0
LINE
  5
61F9
  8
YODOROGO
 10
27801.604341291921
 20
1747.749496429286
 30
0.0
 11
27801.604341291921
 21
1890.786580793706
 31
0.0
1001
AUTOCAD_POSTSCRIPT_FIGURE
1002
{
1000
PSFILL
1000
Grayscale
1000
Grayscale
1070
   100
1002
}
  0
LINE
  5
61FA
  8
YODOROGO
 10
27817.604341291921
 20
1747.749496429286
 30
0.0
 11
27801.604341291921
 21
1747.749496429286
 31
0.0
1001
AUTOCAD_POSTSCRIPT_FIGURE
1002
{
1000
PSFILL
1000
Grayscale
1000
Grayscale
1070
   100
1002
}
  0
LINE
  5
61FB
  8
YODOROGO
 10
27817.604341291921
 20
1893.7713320852661
 30
0.0
 11
27817.604341291921
 21
1747.749496429286
 31
0.0
1001
AUTOCAD_POSTSCRIPT_FIGURE
1002
{
1000
PSFILL
1000
Grayscale
1000
Grayscale
1070
   100
1002
}
  0
LINE
  5
61FC
  8
YODOROGO
 10
27841.604341291921
 20
1867.6547582841361
 30
0.0
 11
27817.604341291921
 21
1893.7713320852661
 31
0.0
1001
AUTOCAD_POSTSCRIPT_FIGURE
1002
{
1000
PSFILL
1000
Grayscale
1000
Grayscale
1070
   100
1002
}
  0
LINE
  5
61FD
  8
YODOROGO
 10
27841.604341291921
 20
1883.6547582841361
 30
0.0
 11
27841.604341291921
 21
1867.6547582841361
 31
0.0
1001
AUTOCAD_POSTSCRIPT_FIGURE
1002
{
1000
PSFILL
1000
Grayscale
1000
Grayscale
1070
   100
1002
}
  0
LINE
  5
61FE
  8
YODOROGO
 10
27817.604341291921
 20
1917.7713320852649
 30
0.0
 11
27841.604341291921
 21
1883.6547582841361
 31
0.0
1001
AUTOCAD_POSTSCRIPT_FIGURE
1002
{
1000
PSFILL
1000
Grayscale
1000
Grayscale
1070
   100
1002
}
  0
LINE
  5
61FF
  8
YODOROGO
 10
27817.604341291921
 20
1939.749496429288
 30
0.0
 11
27817.604341291921
 21
1917.7713320852649
 31
0.0
1001
AUTOCAD_POSTSCRIPT_FIGURE
1002
{
1000
PSFILL
1000
Grayscale
1000
Grayscale
1070
   100
1002
}
  0
LINE
  5
6200
  8
YODOROGO
 10
27889.604341291921
 20
1939.749496429288
 30
0.0
 11
27817.604341291921
 21
1939.749496429288
 31
0.0
1001
AUTOCAD_POSTSCRIPT_FIGURE
1002
{
1000
PSFILL
1000
Grayscale
1000
Grayscale
1070
   100
1002
}
  0
LINE
  5
6201
  8
YODOROGO
 10
27889.604341291921
 20
1900.5683489363
 30
0.0
 11
27889.604341291921
 21
1939.749496429288
 31
0.0
1001
AUTOCAD_POSTSCRIPT_FIGURE
1002
{
1000
PSFILL
1000
Grayscale
1000
Grayscale
1070
   100
1002
}
  0
LINE
  5
6202
  8
YODOROGO
 10
27857.604341291921
 20
1900.5683489363
 30
0.0
 11
27889.604341291921
 21
1900.5683489363
 31
0.0
1001
AUTOCAD_POSTSCRIPT_FIGURE
1002
{
1000
PSFILL
1000
Grayscale
1000
Grayscale
1070
   100
1002
}
  0
LINE
  5
6203
  8
YODOROGO
 10
27857.604341291921
 20
1884.568348936298
 30
0.0
 11
27857.604341291921
 21
1900.5683489363
 31
0.0
1001
AUTOCAD_POSTSCRIPT_FIGURE
1002
{
1000
PSFILL
1000
Grayscale
1000
Grayscale
1070
   100
1002
}
  0
LINE
  5
6204
  8
YODOROGO
 10
27889.604341291921
 20
1884.568348936298
 30
0.0
 11
27857.604341291921
 21
1884.568348936298
 31
0.0
1001
AUTOCAD_POSTSCRIPT_FIGURE
1002
{
1000
PSFILL
1000
Grayscale
1000
Grayscale
1070
   100
1002
}
  0
LINE
  5
6205
  8
YODOROGO
 10
27889.604341291921
 20
1879.6191779644371
 30
0.0
 11
27889.604341291921
 21
1884.568348936298
 31
0.0
1001
AUTOCAD_POSTSCRIPT_FIGURE
1002
{
1000
PSFILL
1000
Grayscale
1000
Grayscale
1070
   100
1002
}
  0
LINE
  5
6206
  8
YODOROGO
 10
27849.604341291921
 20
1812.974981161417
 30
0.0
 11
27889.604341291921
 21
1879.6191779644371
 31
0.0
1001
AUTOCAD_POSTSCRIPT_FIGURE
1002
{
1000
PSFILL
1000
Grayscale
1000
Grayscale
1070
   100
1002
}
  0
LINE
  5
6207
  8
YODOROGO
 10
27849.604341291921
 20
1796.9749811614161
 30
0.0
 11
27849.604341291921
 21
1812.974981161417
 31
0.0
1001
AUTOCAD_POSTSCRIPT_FIGURE
1002
{
1000
PSFILL
1000
Grayscale
1000
Grayscale
1070
   100
1002
}
  0
LINE
  5
6208
  8
YODOROGO
 10
27889.604341291921
 20
1847.6191779644359
 30
0.0
 11
27849.604341291921
 21
1796.9749811614161
 31
0.0
1001
AUTOCAD_POSTSCRIPT_FIGURE
1002
{
1000
PSFILL
1000
Grayscale
1000
Grayscale
1070
   100
1002
}
  0
LINE
  5
6209
  8
YODOROGO
 10
27889.604341291921
 20
1747.749496429286
 30
0.0
 11
27889.604341291921
 21
1847.6191779644359
 31
0.0
1001
AUTOCAD_POSTSCRIPT_FIGURE
1002
{
1000
PSFILL
1000
Grayscale
1000
Grayscale
1070
   100
1002
}
  0
LINE
  5
620A
  8
YODOROGO
 10
27905.604341291921
 20
1747.749496429286
 30
0.0
 11
27889.604341291921
 21
1747.749496429286
 31
0.0
1001
AUTOCAD_POSTSCRIPT_FIGURE
1002
{
1000
PSFILL
1000
Grayscale
1000
Grayscale
1070
   100
1002
}
  0
LINE
  5
620B
  8
YODOROGO
 10
27905.604341291921
 20
1849.409012158806
 30
0.0
 11
27905.604341291921
 21
1747.749496429286
 31
0.0
1001
AUTOCAD_POSTSCRIPT_FIGURE
1002
{
1000
PSFILL
1000
Grayscale
1000
Grayscale
1070
   100
1002
}
  0
LINE
  5
620C
  8
YODOROGO
 10
27937.604341291921
 20
1796.9749811614161
 30
0.0
 11
27905.604341291921
 21
1849.409012158806
 31
0.0
1001
AUTOCAD_POSTSCRIPT_FIGURE
1002
{
1000
PSFILL
1000
Grayscale
1000
Grayscale
1070
   100
1002
}
  0
LINE
  5
620D
  8
YODOROGO
 10
27937.604341291921
 20
1812.974981161417
 30
0.0
 11
27937.604341291921
 21
1796.9749811614161
 31
0.0
1001
AUTOCAD_POSTSCRIPT_FIGURE
1002
{
1000
PSFILL
1000
Grayscale
1000
Grayscale
1070
   100
1002
}
  0
LINE
  5
620E
  8
YODOROGO
 10
27905.604341291921
 20
1881.4090121588081
 30
0.0
 11
27937.604341291921
 21
1812.974981161417
 31
0.0
1001
AUTOCAD_POSTSCRIPT_FIGURE
1002
{
1000
PSFILL
1000
Grayscale
1000
Grayscale
1070
   100
1002
}
  0
LINE
  5
620F
  8
YODOROGO
 10
27905.604341291921
 20
1884.5683489363
 30
0.0
 11
27905.604341291921
 21
1881.4090121588081
 31
0.0
1001
AUTOCAD_POSTSCRIPT_FIGURE
1002
{
1000
PSFILL
1000
Grayscale
1000
Grayscale
1070
   100
1002
}
  0
LINE
  5
6210
  8
YODOROGO
 10
27937.604341291921
 20
1884.568348936298
 30
0.0
 11
27905.604341291921
 21
1884.5683489363
 31
0.0
1001
AUTOCAD_POSTSCRIPT_FIGURE
1002
{
1000
PSFILL
1000
Grayscale
1000
Grayscale
1070
   100
1002
}
  0
LINE
  5
6211
  8
YODOROGO
 10
27937.604341291921
 20
1900.5683489363
 30
0.0
 11
27937.604341291921
 21
1884.568348936298
 31
0.0
1001
AUTOCAD_POSTSCRIPT_FIGURE
1002
{
1000
PSFILL
1000
Grayscale
1000
Grayscale
1070
   100
1002
}
  0
LINE
  5
6212
  8
YODOROGO
 10
27905.604341291921
 20
1900.5683489363
 30
0.0
 11
27937.604341291921
 21
1900.5683489363
 31
0.0
1001
AUTOCAD_POSTSCRIPT_FIGURE
1002
{
1000
PSFILL
1000
Grayscale
1000
Grayscale
1070
   100
1002
}
  0
LINE
  5
6213
  8
YODOROGO
 10
27905.604341291921
 20
1939.749496429288
 30
0.0
 11
27905.604341291921
 21
1900.5683489363
 31
0.0
1001
AUTOCAD_POSTSCRIPT_FIGURE
1002
{
1000
PSFILL
1000
Grayscale
1000
Grayscale
1070
   100
1002
}
  0
LINE
  5
6214
  8
YODOROGO
 10
27937.604341291921
 20
1939.749496429288
 30
0.0
 11
27905.604341291921
 21
1939.749496429288
 31
0.0
1001
AUTOCAD_POSTSCRIPT_FIGURE
1002
{
1000
PSFILL
1000
Grayscale
1000
Grayscale
1070
   100
1002
}
  0
LINE
  5
6215
  8
YODOROGO
 10
27937.604341291921
 20
1955.7494964292871
 30
0.0
 11
27937.604341291921
 21
1939.749496429288
 31
0.0
1001
AUTOCAD_POSTSCRIPT_FIGURE
1002
{
1000
PSFILL
1000
Grayscale
1000
Grayscale
1070
   100
1002
}
  0
LINE
  5
6216
  8
YODOROGO
 10
27905.604341291921
 20
1955.7494964292871
 30
0.0
 11
27937.604341291921
 21
1955.7494964292871
 31
0.0
1001
AUTOCAD_POSTSCRIPT_FIGURE
1002
{
1000
PSFILL
1000
Grayscale
1000
Grayscale
1070
   100
1002
}
  0
LINE
  5
6217
  8
YODOROGO
 10
27905.604341291921
 20
1979.749496429288
 30
0.0
 11
27905.604341291921
 21
1955.7494964292871
 31
0.0
1001
AUTOCAD_POSTSCRIPT_FIGURE
1002
{
1000
PSFILL
1000
Grayscale
1000
Grayscale
1070
   100
1002
}
  0
LINE
  5
6218
  8
YODOROGO
 10
27889.604341291921
 20
1979.749496429288
 30
0.0
 11
27905.604341291921
 21
1979.749496429288
 31
0.0
1001
AUTOCAD_POSTSCRIPT_FIGURE
1002
{
1000
PSFILL
1000
Grayscale
1000
Grayscale
1070
   100
1002
}
  0
LINE
  5
6219
  8
YODOROGO
 10
27889.604341291921
 20
1955.7494964292871
 30
0.0
 11
27889.604341291921
 21
1979.749496429288
 31
0.0
1001
AUTOCAD_POSTSCRIPT_FIGURE
1002
{
1000
PSFILL
1000
Grayscale
1000
Grayscale
1070
   100
1002
}
  0
LINE
  5
621A
  8
YODOROGO
 10
27865.604341291921
 20
1955.7494964292871
 30
0.0
 11
27889.604341291921
 21
1955.7494964292871
 31
0.0
1001
AUTOCAD_POSTSCRIPT_FIGURE
1002
{
1000
PSFILL
1000
Grayscale
1000
Grayscale
1070
   100
1002
}
  0
LINE
  5
621B
  8
YODOROGO
 10
27865.604341291921
 20
1979.749496429288
 30
0.0
 11
27865.604341291921
 21
1955.7494964292871
 31
0.0
1001
AUTOCAD_POSTSCRIPT_FIGURE
1002
{
1000
PSFILL
1000
Grayscale
1000
Grayscale
1070
   100
1002
}
  0
LINE
  5
621C
  8
YODOROGO
 10
27849.604341291921
 20
1979.749496429288
 30
0.0
 11
27865.604341291921
 21
1979.749496429288
 31
0.0
1001
AUTOCAD_POSTSCRIPT_FIGURE
1002
{
1000
PSFILL
1000
Grayscale
1000
Grayscale
1070
   100
1002
}
  0
LINE
  5
621D
  8
YODOROGO
 10
27849.604341291921
 20
1955.7494964292871
 30
0.0
 11
27849.604341291921
 21
1979.749496429288
 31
0.0
1001
AUTOCAD_POSTSCRIPT_FIGURE
1002
{
1000
PSFILL
1000
Grayscale
1000
Grayscale
1070
   100
1002
}
  0
LINE
  5
621E
  8
YODOROGO
 10
27817.604341291921
 20
1955.7494964292871
 30
0.0
 11
27849.604341291921
 21
1955.7494964292871
 31
0.0
1001
AUTOCAD_POSTSCRIPT_FIGURE
1002
{
1000
PSFILL
1000
Grayscale
1000
Grayscale
1070
   100
1002
}
  0
LINE
  5
621F
  8
YODOROGO
 10
27817.604341291921
 20
1979.749496429288
 30
0.0
 11
27817.604341291921
 21
1955.7494964292871
 31
0.0
1001
AUTOCAD_POSTSCRIPT_FIGURE
1002
{
1000
PSFILL
1000
Grayscale
1000
Grayscale
1070
   100
1002
}
  0
LINE
  5
6220
  8
YODOROGO
 10
27801.604341291921
 20
1979.749496429288
 30
0.0
 11
27817.604341291921
 21
1979.749496429288
 31
0.0
1001
AUTOCAD_POSTSCRIPT_FIGURE
1002
{
1000
PSFILL
1000
Grayscale
1000
Grayscale
1070
   100
1002
}
  0
LINE
  5
6221
  8
YODOROGO
 10
27801.604341291921
 20
1955.7494964292871
 30
0.0
 11
27801.604341291921
 21
1979.749496429288
 31
0.0
1001
AUTOCAD_POSTSCRIPT_FIGURE
1002
{
1000
PSFILL
1000
Grayscale
1000
Grayscale
1070
   100
1002
}
  0
LINE
  5
6222
  8
YODOROGO
 10
27777.604341291921
 20
1955.7494964292871
 30
0.0
 11
27801.604341291921
 21
1955.7494964292871
 31
0.0
1001
AUTOCAD_POSTSCRIPT_FIGURE
1002
{
1000
PSFILL
1000
Grayscale
1000
Grayscale
1070
   100
1002
}
  0
LINE
  5
6223
  8
YODOROGO
 10
27777.604341291921
 20
1939.749496429288
 30
0.0
 11
27777.604341291921
 21
1955.7494964292871
 31
0.0
1001
AUTOCAD_POSTSCRIPT_FIGURE
1002
{
1000
PSFILL
1000
Grayscale
1000
Grayscale
1070
   100
1002
}
  0
LINE
  5
6224
  8
YODOROGO
 10
27801.604341291921
 20
1939.749496429288
 30
0.0
 11
27777.604341291921
 21
1939.749496429288
 31
0.0
1001
AUTOCAD_POSTSCRIPT_FIGURE
1002
{
1000
PSFILL
1000
Grayscale
1000
Grayscale
1070
   100
1002
}
  0
LINE
  5
6225
  8
YODOROGO
 10
27801.604341291921
 20
1914.7865807937051
 30
0.0
 11
27801.604341291921
 21
1939.749496429288
 31
0.0
1001
AUTOCAD_POSTSCRIPT_FIGURE
1002
{
1000
PSFILL
1000
Grayscale
1000
Grayscale
1070
   100
1002
}
  0
LINE
  5
6226
  8
YODOROGO
 10
27777.604341291921
 20
1859.776747951671
 30
0.0
 11
27801.604341291921
 21
1914.7865807937051
 31
0.0
1001
AUTOCAD_POSTSCRIPT_FIGURE
1002
{
1000
PSFILL
1000
Grayscale
1000
Grayscale
1070
   100
1002
}
  0
LINE
  5
6227
  8
YODOROGO
 10
27777.604341291921
 20
1843.776747951672
 30
0.0
 11
27777.604341291921
 21
1859.776747951671
 31
0.0
1001
AUTOCAD_POSTSCRIPT_FIGURE
1002
{
1000
PSFILL
1000
Grayscale
1000
Grayscale
1070
   100
1002
}
  0
LINE
  5
6228
  8
YODOROGO
 10
28257.604341291921
 20
1867.7494964292871
 30
0.0
 11
28401.60434129191
 21
1824.877625640306
 31
0.0
1001
AUTOCAD_POSTSCRIPT_FIGURE
1002
{
1000
PSFILL
1000
Grayscale
1000
Grayscale
1070
   100
1002
}
  0
LINE
  5
6229
  8
YODOROGO
 10
28401.60434129191
 20
1752.877625640306
 30
0.0
 11
28257.604341291921
 21
1795.7494964292871
 31
0.0
1001
AUTOCAD_POSTSCRIPT_FIGURE
1002
{
1000
PSFILL
1000
Grayscale
1000
Grayscale
1070
   100
1002
}
  0
LINE
  5
622A
  8
YODOROGO
 10
28401.60434129191
 20
1984.877625640306
 30
0.0
 11
28257.604341291921
 21
2027.749496429288
 31
0.0
1001
AUTOCAD_POSTSCRIPT_FIGURE
1002
{
1000
PSFILL
1000
Grayscale
1000
Grayscale
1070
   100
1002
}
  0
LINE
  5
622B
  8
YODOROGO
 10
28257.604341291921
 20
1959.749496429288
 30
0.0
 11
28401.60434129191
 21
1916.8776256403071
 31
0.0
1001
AUTOCAD_POSTSCRIPT_FIGURE
1002
{
1000
PSFILL
1000
Grayscale
1000
Grayscale
1070
   100
1002
}
  0
LINE
  5
622C
  8
YODOROGO
 10
28257.604341291921
 20
1795.7494964292871
 30
0.0
 11
28257.604341291921
 21
1867.7494964292871
 31
0.0
1001
AUTOCAD_POSTSCRIPT_FIGURE
1002
{
1000
PSFILL
1000
Grayscale
1000
Grayscale
1070
   100
1002
}
  0
LINE
  5
622D
  8
YODOROGO
 10
28257.604341291921
 20
2027.749496429288
 30
0.0
 11
28257.604341291921
 21
1959.749496429288
 31
0.0
1001
AUTOCAD_POSTSCRIPT_FIGURE
1002
{
1000
PSFILL
1000
Grayscale
1000
Grayscale
1070
   100
1002
}
  0
LINE
  5
622E
  8
YODOROGO
 10
28080.236320206739
 20
1939.749496429288
 30
0.0
 11
28129.60434129191
 21
1747.749496429286
 31
0.0
1001
AUTOCAD_POSTSCRIPT_FIGURE
1002
{
1000
PSFILL
1000
Grayscale
1000
Grayscale
1070
   100
1002
}
  0
LINE
  5
622F
  8
YODOROGO
 10
27977.604341291921
 20
1939.749496429288
 30
0.0
 11
28080.236320206739
 21
1939.749496429288
 31
0.0
1001
AUTOCAD_POSTSCRIPT_FIGURE
1002
{
1000
PSFILL
1000
Grayscale
1000
Grayscale
1070
   100
1002
}
  0
LINE
  5
6230
  8
YODOROGO
 10
27977.604341291921
 20
1955.7494964292871
 30
0.0
 11
27977.604341291921
 21
1939.749496429288
 31
0.0
1001
AUTOCAD_POSTSCRIPT_FIGURE
1002
{
1000
PSFILL
1000
Grayscale
1000
Grayscale
1070
   100
1002
}
  0
LINE
  5
6231
  8
YODOROGO
 10
28076.60687851991
 20
1955.7494964292871
 30
0.0
 11
27977.604341291921
 21
1955.7494964292871
 31
0.0
1001
AUTOCAD_POSTSCRIPT_FIGURE
1002
{
1000
PSFILL
1000
Grayscale
1000
Grayscale
1070
   100
1002
}
  0
LINE
  5
6232
  8
YODOROGO
 10
28071.162715989711
 20
1979.749496429288
 30
0.0
 11
28076.60687851991
 21
1955.7494964292871
 31
0.0
1001
AUTOCAD_POSTSCRIPT_FIGURE
1002
{
1000
PSFILL
1000
Grayscale
1000
Grayscale
1070
   100
1002
}
  0
LINE
  5
6233
  8
YODOROGO
 10
28091.162715989711
 20
1979.749496429288
 30
0.0
 11
28071.162715989711
 21
1979.749496429288
 31
0.0
1001
AUTOCAD_POSTSCRIPT_FIGURE
1002
{
1000
PSFILL
1000
Grayscale
1000
Grayscale
1070
   100
1002
}
  0
LINE
  5
6234
  8
YODOROGO
 10
28095.806878519939
 20
1955.7494964292871
 30
0.0
 11
28091.162715989711
 21
1979.749496429288
 31
0.0
1001
AUTOCAD_POSTSCRIPT_FIGURE
1002
{
1000
PSFILL
1000
Grayscale
1000
Grayscale
1070
   100
1002
}
  0
LINE
  5
6235
  8
YODOROGO
 10
28121.604341291921
 20
1955.7494964292871
 30
0.0
 11
28095.806878519939
 21
1955.7494964292871
 31
0.0
1001
AUTOCAD_POSTSCRIPT_FIGURE
1002
{
1000
PSFILL
1000
Grayscale
1000
Grayscale
1070
   100
1002
}
  0
LINE
  5
6236
  8
YODOROGO
 10
28121.604341291921
 20
1979.749496429288
 30
0.0
 11
28121.604341291921
 21
1955.7494964292871
 31
0.0
1001
AUTOCAD_POSTSCRIPT_FIGURE
1002
{
1000
PSFILL
1000
Grayscale
1000
Grayscale
1070
   100
1002
}
  0
LINE
  5
6237
  8
YODOROGO
 10
28137.604341291921
 20
1979.749496429288
 30
0.0
 11
28121.604341291921
 21
1979.749496429288
 31
0.0
1001
AUTOCAD_POSTSCRIPT_FIGURE
1002
{
1000
PSFILL
1000
Grayscale
1000
Grayscale
1070
   100
1002
}
  0
LINE
  5
6238
  8
YODOROGO
 10
28137.604341291921
 20
1955.7494964292871
 30
0.0
 11
28137.604341291921
 21
1979.749496429288
 31
0.0
1001
AUTOCAD_POSTSCRIPT_FIGURE
1002
{
1000
PSFILL
1000
Grayscale
1000
Grayscale
1070
   100
1002
}
  0
LINE
  5
6239
  8
YODOROGO
 10
28137.604341291921
 20
1939.749496429288
 30
0.0
 11
28137.604341291921
 21
1955.7494964292871
 31
0.0
1001
AUTOCAD_POSTSCRIPT_FIGURE
1002
{
1000
PSFILL
1000
Grayscale
1000
Grayscale
1070
   100
1002
}
  0
LINE
  5
623A
  8
YODOROGO
 10
28098.902986873411
 20
1939.749496429288
 30
0.0
 11
28137.604341291921
 21
1939.749496429288
 31
0.0
1001
AUTOCAD_POSTSCRIPT_FIGURE
1002
{
1000
PSFILL
1000
Grayscale
1000
Grayscale
1070
   100
1002
}
  0
LINE
  5
623B
  8
YODOROGO
 10
28137.604341291921
 20
1747.749496429286
 30
0.0
 11
28098.902986873411
 21
1939.749496429288
 31
0.0
1001
AUTOCAD_POSTSCRIPT_FIGURE
1002
{
1000
PSFILL
1000
Grayscale
1000
Grayscale
1070
   100
1002
}
  0
LINE
  5
623C
  8
YODOROGO
 10
28129.60434129191
 20
1747.749496429286
 30
0.0
 11
28137.604341291921
 21
1747.749496429286
 31
0.0
1001
AUTOCAD_POSTSCRIPT_FIGURE
1002
{
1000
PSFILL
1000
Grayscale
1000
Grayscale
1070
   100
1002
}
  0
LINE
  5
623D
  8
YODOROGO
 10
28078.06921993379
 20
1775.7407762987939
 30
0.0
 11
27977.604341291921
 21
1747.749496429286
 31
0.0
  0
LINE
  5
623E
  8
YODOROGO
 10
28078.06921993379
 20
1798.6689795290731
 30
0.0
 11
28078.06921993379
 21
1775.7407762987939
 31
0.0
  0
LINE
  5
623F
  8
YODOROGO
 10
28033.83678061287
 20
1786.816933133767
 30
0.0
 11
28078.06921993379
 21
1798.6689795290731
 31
0.0
  0
LINE
  5
6240
  8
YODOROGO
 10
28033.83678061287
 20
1872.5683489362989
 30
0.0
 11
28033.83678061287
 21
1786.816933133767
 31
0.0
  0
LINE
  5
6241
  8
YODOROGO
 10
28078.06921993379
 20
1872.5683489362989
 30
0.0
 11
28033.83678061287
 21
1872.5683489362989
 31
0.0
  0
LINE
  5
6242
  8
YODOROGO
 10
28078.06921993379
 20
1892.568348936298
 30
0.0
 11
28078.06921993379
 21
1872.5683489362989
 31
0.0
  0
LINE
  5
6243
  8
YODOROGO
 10
27977.604341291921
 20
1892.568348936298
 30
0.0
 11
28078.06921993379
 21
1892.568348936298
 31
0.0
  0
LINE
  5
6244
  8
YODOROGO
 10
27977.604341291921
 20
1872.5683489362989
 30
0.0
 11
27977.604341291921
 21
1892.568348936298
 31
0.0
  0
LINE
  5
6245
  8
YODOROGO
 10
28021.836780612852
 20
1872.5683489362989
 30
0.0
 11
27977.604341291921
 21
1872.5683489362989
 31
0.0
  0
LINE
  5
6246
  8
YODOROGO
 10
28021.836780612852
 20
1784.673339594317
 30
0.0
 11
28021.836780612852
 21
1872.5683489362989
 31
0.0
  0
LINE
  5
6247
  8
YODOROGO
 10
27977.604341291921
 20
1771.749496429286
 30
0.0
 11
28021.836780612852
 21
1784.673339594317
 31
0.0
  0
LINE
  5
6248
  8
YODOROGO
 10
27977.604341291921
 20
1747.749496429286
 30
0.0
 11
27977.604341291921
 21
1771.749496429286
 31
0.0
  0
LINE
  5
6249
  8
YODOROGO
 10
28001.604341291921
 20
1707.749496429288
 30
0.0
 11
28001.604341291921
 21
1683.7494964292871
 31
0.0
  0
LINE
  5
624A
  8
YODOROGO
 10
28017.604341291921
 20
1707.749496429288
 30
0.0
 11
28001.604341291921
 21
1707.749496429288
 31
0.0
  0
LINE
  5
624B
  8
YODOROGO
 10
28017.604341291921
 20
1683.7494964292871
 30
0.0
 11
28017.604341291921
 21
1707.749496429288
 31
0.0
  0
LINE
  5
624C
  8
YODOROGO
 10
28040.913204016892
 20
1683.7494964292871
 30
0.0
 11
28017.604341291921
 21
1683.7494964292871
 31
0.0
  0
LINE
  5
624D
  8
YODOROGO
 10
28001.604341291921
 20
1683.7494964292871
 30
0.0
 11
27977.604341291921
 21
1683.7494964292871
 31
0.0
  0
LINE
  5
624E
  8
YODOROGO
 10
28082.135520230921
 20
1707.749496429288
 30
0.0
 11
28098.135520230931
 21
1707.749496429288
 31
0.0
1001
AUTOCAD_POSTSCRIPT_FIGURE
1002
{
1000
PSFILL
1000
Grayscale
1000
Grayscale
1070
   100
1002
}
  0
LINE
  5
624F
  8
YODOROGO
 10
28401.60434129191
 20
1824.877625640306
 30
0.0
 11
28401.60434129191
 21
1752.877625640306
 31
0.0
1001
AUTOCAD_POSTSCRIPT_FIGURE
1002
{
1000
PSFILL
1000
Grayscale
1000
Grayscale
1070
   100
1002
}
  0
LINE
  5
6250
  8
YODOROGO
 10
28401.60434129191
 20
1916.8776256403071
 30
0.0
 11
28401.60434129191
 21
1984.877625640306
 31
0.0
1001
AUTOCAD_POSTSCRIPT_FIGURE
1002
{
1000
PSFILL
1000
Grayscale
1000
Grayscale
1070
   100
1002
}
  0
LINE
  5
6251
  8
YODOROGO
 10
28433.60434129191
 20
1819.7494964292871
 30
0.0
 11
28433.60434129191
 21
1747.74949642929
 31
0.0
  0
LINE
  5
6252
  8
YODOROGO
 10
28497.60434129191
 20
1707.749496429288
 30
0.0
 11
28433.60434129191
 21
1707.749496429288
 31
0.0
  0
LINE
  5
6253
  8
YODOROGO
 10
28433.60434129191
 20
1747.74949642929
 30
0.0
 11
28585.604341291921
 21
1747.74949642929
 31
0.0
  0
LINE
  5
6254
  8
YODOROGO
 10
28497.60434129191
 20
1867.7494964292871
 30
0.0
 11
28433.60434129191
 21
1867.7494964292871
 31
0.0
  0
LINE
  5
6255
  8
YODOROGO
 10
28497.60434129191
 20
1923.7494964292871
 30
0.0
 11
28497.60434129191
 21
1867.7494964292871
 31
0.0
  0
LINE
  5
6256
  8
YODOROGO
 10
28585.604341291921
 20
1987.7494964292871
 30
0.0
 11
28585.604341291921
 21
2027.749496429288
 31
0.0
  0
LINE
  5
6257
  8
YODOROGO
 10
28433.60434129191
 20
1987.7494964292871
 30
0.0
 11
28585.604341291921
 21
1987.7494964292871
 31
0.0
  0
LINE
  5
6258
  8
YODOROGO
 10
28433.60434129191
 20
1867.7494964292871
 30
0.0
 11
28433.60434129191
 21
1987.7494964292871
 31
0.0
  0
LINE
  5
6259
  8
YODOROGO
 10
29001.60434129191
 20
2027.749496429288
 30
0.0
 11
29001.60434129191
 21
1619.749496429288
 31
0.0
  0
LINE
  5
625A
  8
YODOROGO
 10
29073.604341291921
 20
1579.749496429288
 30
0.0
 11
29073.604341291921
 21
2027.749496429288
 31
0.0
  0
LINE
  5
625B
  8
YODOROGO
 10
29261.604341291921
 20
1491.749496429286
 30
0.0
 11
29261.604341291921
 21
2007.749496429288
 31
0.0
  0
LINE
  5
625C
  8
YODOROGO
 10
29197.604341291921
 20
2007.749496429288
 30
0.0
 11
29197.604341291921
 21
1491.749496429286
 31
0.0
  0
LINE
  5
625D
  8
YODOROGO
 10
29385.604341291921
 20
2027.749496429288
 30
0.0
 11
29385.604341291921
 21
1427.749496429288
 31
0.0
  0
LINE
  5
625E
  8
YODOROGO
 10
29457.604341291921
 20
1427.749496429288
 30
0.0
 11
29457.604341291921
 21
2027.749496429288
 31
0.0
  0
LINE
  5
625F
  8
YODOROGO
 10
28657.604341291921
 20
1667.749496429288
 30
0.0
 11
28657.604341291921
 21
1747.74949642929
 31
0.0
  0
LINE
  5
6260
  8
YODOROGO
 10
29885.604341291921
 20
1707.749496429288
 30
0.0
 11
29885.604341291921
 21
1667.749496429288
 31
0.0
  0
LINE
  5
6261
  8
YODOROGO
 10
29885.604341291921
 20
1707.749496429288
 30
0.0
 11
29885.604341291921
 21
1667.749496429288
 31
0.0
  0
ARC
  5
6262
  8
YODOROGO
 10
28906.911576186842
 20
1618.217864442272
 30
0.0
 40
94.705151178741644
 50
274.05244162907098
 51
0.9266642149310712
  0
ARC
  5
6263
  8
YODOROGO
 10
28909.186170719819
 20
1592.61072861044
 30
0.0
 40
164.92042356085511
 50
271.5351210653775
 51
355.52727750585052
  0
LINE
  5
6264
  8
YODOROGO
 10
28913.604341291921
 20
1523.7494964292871
 30
0.0
 11
28913.604341291921
 21
1427.749496429288
 31
0.0
  0
LINE
  5
6265
  8
YODOROGO
 10
28793.60434129191
 20
1667.749496429288
 30
0.0
 11
28657.604341291921
 21
1667.749496429288
 31
0.0
  0
LINE
  5
6266
  8
YODOROGO
 10
28793.60434129191
 20
1603.7494964292871
 30
0.0
 11
28793.60434129191
 21
1667.749496429288
 31
0.0
  0
LINE
  5
6267
  8
YODOROGO
 10
28657.604341291921
 20
1603.7494964292871
 30
0.0
 11
28793.60434129191
 21
1603.7494964292871
 31
0.0
  0
LINE
  5
6268
  8
YODOROGO
 10
28657.604341291921
 20
1523.7494964292871
 30
0.0
 11
28657.604341291921
 21
1603.7494964292871
 31
0.0
  0
LINE
  5
6269
  8
YODOROGO
 10
28793.60434129191
 20
1523.7494964292871
 30
0.0
 11
28657.604341291921
 21
1523.7494964292871
 31
0.0
  0
LINE
  5
626A
  8
YODOROGO
 10
28793.60434129191
 20
1427.749496429288
 30
0.0
 11
28793.60434129191
 21
1523.7494964292871
 31
0.0
  0
LINE
  5
626B
  8
YODOROGO
 10
29197.604341291921
 20
1491.749496429286
 30
0.0
 11
29261.604341291921
 21
1491.749496429286
 31
0.0
  0
LINE
  5
626C
  8
YODOROGO
 10
29385.604341291921
 20
1427.749496429288
 30
0.0
 11
29457.604341291921
 21
1427.749496429288
 31
0.0
  0
LINE
  5
626D
  8
YODOROGO
 10
29737.604341291921
 20
1528.4414521705639
 30
0.0
 11
29737.604341291921
 21
1427.749496429288
 31
0.0
  0
LINE
  5
626E
  8
YODOROGO
 10
29617.604341291921
 20
1427.749496429288
 30
0.0
 11
29737.604341291921
 21
1528.4414521705639
 31
0.0
  0
LINE
  5
626F
  8
YODOROGO
 10
29617.604341291921
 20
1547.749496429288
 30
0.0
 11
29617.604341291921
 21
1427.749496429288
 31
0.0
  0
LINE
  5
6270
  8
YODOROGO
 10
29712.94462869945
 20
1627.749496429288
 30
0.0
 11
29617.604341291921
 21
1547.749496429288
 31
0.0
  0
LINE
  5
6271
  8
YODOROGO
 10
29617.604341291921
 20
1627.749496429288
 30
0.0
 11
29712.94462869945
 21
1627.749496429288
 31
0.0
  0
LINE
  5
6272
  8
YODOROGO
 10
29617.604341291921
 20
1667.749496429288
 30
0.0
 11
29617.604341291921
 21
1627.749496429288
 31
0.0
  0
LINE
  5
6273
  8
YODOROGO
 10
29885.604341291921
 20
1667.749496429288
 30
0.0
 11
29617.604341291921
 21
1667.749496429288
 31
0.0
  0
LINE
  5
6274
  8
YODOROGO
 10
29917.604341291921
 20
1627.749496429288
 30
0.0
 11
29777.604341291921
 21
1627.749496429288
 31
0.0
  0
LINE
  5
6275
  8
YODOROGO
 10
29777.604341291921
 20
1562.0054374176559
 30
0.0
 11
29771.409872985321
 21
1556.807661346234
 31
0.0
  0
LINE
  5
6276
  8
YODOROGO
 10
29777.604341291921
 20
1627.749496429288
 30
0.0
 11
29777.604341291921
 21
1562.0054374176559
 31
0.0
  0
LINE
  5
6277
  8
YODOROGO
 10
29737.604341291921
 20
1528.4414521705639
 30
0.0
 11
29737.604341291921
 21
1427.749496429288
 31
0.0
  0
LINE
  5
6278
  8
YODOROGO
 10
29617.604341291921
 20
1427.749496429288
 30
0.0
 11
29737.604341291921
 21
1528.4414521705639
 31
0.0
  0
LINE
  5
6279
  8
YODOROGO
 10
29617.604341291921
 20
1547.749496429288
 30
0.0
 11
29617.604341291921
 21
1427.749496429288
 31
0.0
  0
LINE
  5
627A
  8
YODOROGO
 10
29712.94462869945
 20
1627.749496429288
 30
0.0
 11
29617.604341291921
 21
1547.749496429288
 31
0.0
  0
LINE
  5
627B
  8
YODOROGO
 10
29617.604341291921
 20
1627.749496429288
 30
0.0
 11
29712.94462869945
 21
1627.749496429288
 31
0.0
  0
LINE
  5
627C
  8
YODOROGO
 10
29617.604341291921
 20
1667.749496429288
 30
0.0
 11
29617.604341291921
 21
1627.749496429288
 31
0.0
  0
LINE
  5
627D
  8
YODOROGO
 10
29885.604341291921
 20
1667.749496429288
 30
0.0
 11
29617.604341291921
 21
1667.749496429288
 31
0.0
  0
LINE
  5
627E
  8
YODOROGO
 10
28793.60434129191
 20
1747.74949642929
 30
0.0
 11
28793.60434129191
 21
1819.7494964292871
 31
0.0
  0
LINE
  5
627F
  8
YODOROGO
 10
28657.604341291921
 20
1747.74949642929
 30
0.0
 11
28793.60434129191
 21
1747.74949642929
 31
0.0
  0
LINE
  5
6280
  8
YODOROGO
 10
28729.604341291921
 20
1867.7494964292871
 30
0.0
 11
28729.604341291921
 21
1923.7494964292871
 31
0.0
  0
LINE
  5
6281
  8
YODOROGO
 10
28793.60434129191
 20
1867.7494964292871
 30
0.0
 11
28729.604341291921
 21
1867.7494964292871
 31
0.0
  0
LINE
  5
6282
  8
YODOROGO
 10
28793.60434129191
 20
1947.749496429288
 30
0.0
 11
28793.60434129191
 21
1867.7494964292871
 31
0.0
  0
ARC
  5
6283
  8
YODOROGO
 10
28753.60434129191
 20
1947.749496429288
 30
0.0
 40
40.0
 50
0.0
 51
90.0
  0
LINE
  5
6284
  8
YODOROGO
 10
28657.604341291921
 20
1987.7494964292871
 30
0.0
 11
28753.60434129191
 21
1987.7494964292871
 31
0.0
  0
LINE
  5
6285
  8
YODOROGO
 10
28657.604341291921
 20
2027.749496429288
 30
0.0
 11
28657.604341291921
 21
1987.7494964292871
 31
0.0
  0
LINE
  5
6286
  8
YODOROGO
 10
29073.604341291921
 20
2027.749496429288
 30
0.0
 11
29001.60434129191
 21
2027.749496429288
 31
0.0
  0
LINE
  5
6287
  8
YODOROGO
 10
29261.604341291921
 20
2007.749496429288
 30
0.0
 11
29197.604341291921
 21
2007.749496429288
 31
0.0
  0
LINE
  5
6288
  8
YODOROGO
 10
29457.604341291921
 20
2027.749496429288
 30
0.0
 11
29385.604341291921
 21
2027.749496429288
 31
0.0
  0
LINE
  5
6289
  8
YODOROGO
 10
29673.604341291921
 20
1707.749496429288
 30
0.0
 11
29673.604341291921
 21
1771.7494964292871
 31
0.0
1001
AUTOCAD_POSTSCRIPT_FIGURE
1002
{
1000
PSFILL
1000
Grayscale
1000
Grayscale
1070
    25
1002
}
  0
LINE
  5
628A
  8
YODOROGO
 10
29617.604341291921
 20
1707.749496429288
 30
0.0
 11
29673.604341291921
 21
1707.749496429288
 31
0.0
1001
AUTOCAD_POSTSCRIPT_FIGURE
1002
{
1000
PSFILL
1000
Grayscale
1000
Grayscale
1070
    25
1002
}
  0
LINE
  5
628B
  8
YODOROGO
 10
29617.604341291921
 20
1819.7494964292871
 30
0.0
 11
29617.604341291921
 21
1707.749496429288
 31
0.0
1001
AUTOCAD_POSTSCRIPT_FIGURE
1002
{
1000
PSFILL
1000
Grayscale
1000
Grayscale
1070
    25
1002
}
  0
LINE
  5
628C
  8
YODOROGO
 10
29765.604341291921
 20
1819.7494964292871
 30
0.0
 11
29617.604341291921
 21
1819.7494964292871
 31
0.0
1001
AUTOCAD_POSTSCRIPT_FIGURE
1002
{
1000
PSFILL
1000
Grayscale
1000
Grayscale
1070
    25
1002
}
  0
LINE
  5
628D
  8
YODOROGO
 10
29765.604341291921
 20
1859.749496429288
 30
0.0
 11
29765.604341291921
 21
1819.7494964292871
 31
0.0
1001
AUTOCAD_POSTSCRIPT_FIGURE
1002
{
1000
PSFILL
1000
Grayscale
1000
Grayscale
1070
    25
1002
}
  0
LINE
  5
628E
  8
YODOROGO
 10
29617.604341291921
 20
1859.749496429288
 30
0.0
 11
29765.604341291921
 21
1859.749496429288
 31
0.0
1001
AUTOCAD_POSTSCRIPT_FIGURE
1002
{
1000
PSFILL
1000
Grayscale
1000
Grayscale
1070
    25
1002
}
  0
LINE
  5
628F
  8
YODOROGO
 10
29617.604341291921
 20
1907.7494964292871
 30
0.0
 11
29617.604341291921
 21
1859.749496429288
 31
0.0
1001
AUTOCAD_POSTSCRIPT_FIGURE
1002
{
1000
PSFILL
1000
Grayscale
1000
Grayscale
1070
    25
1002
}
  0
LINE
  5
6290
  8
YODOROGO
 10
29765.604341291921
 20
1907.7494964292871
 30
0.0
 11
29617.604341291921
 21
1907.7494964292871
 31
0.0
1001
AUTOCAD_POSTSCRIPT_FIGURE
1002
{
1000
PSFILL
1000
Grayscale
1000
Grayscale
1070
    25
1002
}
  0
LINE
  5
6291
  8
YODOROGO
 10
29765.604341291921
 20
1947.749496429288
 30
0.0
 11
29765.604341291921
 21
1907.7494964292871
 31
0.0
1001
AUTOCAD_POSTSCRIPT_FIGURE
1002
{
1000
PSFILL
1000
Grayscale
1000
Grayscale
1070
    25
1002
}
  0
LINE
  5
6292
  8
YODOROGO
 10
29617.604341291921
 20
1947.749496429288
 30
0.0
 11
29765.604341291921
 21
1947.749496429288
 31
0.0
1001
AUTOCAD_POSTSCRIPT_FIGURE
1002
{
1000
PSFILL
1000
Grayscale
1000
Grayscale
1070
    25
1002
}
  0
LINE
  5
6293
  8
YODOROGO
 10
29617.604341291921
 20
2027.749496429288
 30
0.0
 11
29617.604341291921
 21
1947.749496429288
 31
0.0
1001
AUTOCAD_POSTSCRIPT_FIGURE
1002
{
1000
PSFILL
1000
Grayscale
1000
Grayscale
1070
    25
1002
}
  0
LINE
  5
6294
  8
YODOROGO
 10
29665.604341291921
 20
2027.749496429288
 30
0.0
 11
29617.604341291921
 21
2027.749496429288
 31
0.0
1001
AUTOCAD_POSTSCRIPT_FIGURE
1002
{
1000
PSFILL
1000
Grayscale
1000
Grayscale
1070
    25
1002
}
  0
LINE
  5
6295
  8
YODOROGO
 10
29665.604341291921
 20
1995.7494964292871
 30
0.0
 11
29665.604341291921
 21
2027.749496429288
 31
0.0
1001
AUTOCAD_POSTSCRIPT_FIGURE
1002
{
1000
PSFILL
1000
Grayscale
1000
Grayscale
1070
    25
1002
}
  0
LINE
  5
6296
  8
YODOROGO
 10
29765.604341291921
 20
1995.7494964292871
 30
0.0
 11
29665.604341291921
 21
1995.7494964292871
 31
0.0
1001
AUTOCAD_POSTSCRIPT_FIGURE
1002
{
1000
PSFILL
1000
Grayscale
1000
Grayscale
1070
    25
1002
}
  0
LINE
  5
6297
  8
YODOROGO
 10
29765.604341291921
 20
2027.749496429288
 30
0.0
 11
29765.604341291921
 21
1995.7494964292871
 31
0.0
1001
AUTOCAD_POSTSCRIPT_FIGURE
1002
{
1000
PSFILL
1000
Grayscale
1000
Grayscale
1070
    25
1002
}
  0
LINE
  5
6298
  8
YODOROGO
 10
29829.604341291921
 20
2027.749496429288
 30
0.0
 11
29765.604341291921
 21
2027.749496429288
 31
0.0
1001
AUTOCAD_POSTSCRIPT_FIGURE
1002
{
1000
PSFILL
1000
Grayscale
1000
Grayscale
1070
    25
1002
}
  0
LINE
  5
6299
  8
YODOROGO
 10
29829.604341291921
 20
1995.7494964292871
 30
0.0
 11
29829.604341291921
 21
2027.749496429288
 31
0.0
1001
AUTOCAD_POSTSCRIPT_FIGURE
1002
{
1000
PSFILL
1000
Grayscale
1000
Grayscale
1070
    25
1002
}
  0
LINE
  5
629A
  8
YODOROGO
 10
29829.604341291921
 20
1907.7494964292871
 30
0.0
 11
29829.604341291921
 21
1947.749496429288
 31
0.0
1001
AUTOCAD_POSTSCRIPT_FIGURE
1002
{
1000
PSFILL
1000
Grayscale
1000
Grayscale
1070
    25
1002
}
  0
LINE
  5
629B
  8
YODOROGO
 10
29829.604341291921
 20
1819.7494964292871
 30
0.0
 11
29829.604341291921
 21
1859.749496429288
 31
0.0
1001
AUTOCAD_POSTSCRIPT_FIGURE
1002
{
1000
PSFILL
1000
Grayscale
1000
Grayscale
1070
    25
1002
}
  0
LINE
  5
629C
  8
YODOROGO
 10
29921.60434129191
 20
1771.7494964292871
 30
0.0
 11
29921.60434129191
 21
1707.749496429288
 31
0.0
1001
AUTOCAD_POSTSCRIPT_FIGURE
1002
{
1000
PSFILL
1000
Grayscale
1000
Grayscale
1070
    25
1002
}
  0
LINE
  5
629D
  8
YODOROGO
 10
29829.604341291921
 20
1771.7494964292871
 30
0.0
 11
29921.60434129191
 21
1771.7494964292871
 31
0.0
1001
AUTOCAD_POSTSCRIPT_FIGURE
1002
{
1000
PSFILL
1000
Grayscale
1000
Grayscale
1070
    25
1002
}
  0
LINE
  5
629E
  8
YODOROGO
 10
29829.604341291921
 20
1707.749496429288
 30
0.0
 11
29829.604341291921
 21
1771.7494964292871
 31
0.0
1001
AUTOCAD_POSTSCRIPT_FIGURE
1002
{
1000
PSFILL
1000
Grayscale
1000
Grayscale
1070
    25
1002
}
  0
LINE
  5
629F
  8
YODOROGO
 10
29765.604341291921
 20
1707.749496429288
 30
0.0
 11
29829.604341291921
 21
1707.749496429288
 31
0.0
1001
AUTOCAD_POSTSCRIPT_FIGURE
1002
{
1000
PSFILL
1000
Grayscale
1000
Grayscale
1070
    25
1002
}
  0
LINE
  5
62A0
  8
YODOROGO
 10
29765.604341291921
 20
1771.7494964292871
 30
0.0
 11
29765.604341291921
 21
1707.749496429288
 31
0.0
1001
AUTOCAD_POSTSCRIPT_FIGURE
1002
{
1000
PSFILL
1000
Grayscale
1000
Grayscale
1070
    25
1002
}
  0
LINE
  5
62A1
  8
YODOROGO
 10
29673.604341291921
 20
1771.7494964292871
 30
0.0
 11
29765.604341291921
 21
1771.7494964292871
 31
0.0
1001
AUTOCAD_POSTSCRIPT_FIGURE
1002
{
1000
PSFILL
1000
Grayscale
1000
Grayscale
1070
    25
1002
}
  0
ARC
  5
62A2
  8
YODOROGO
 10
31059.517893357912
 20
1602.6807375155761
 30
0.0
 40
178.22128111072141
 50
281.02627495425338
 51
357.77113575573799
  0
LINE
  5
62A3
  8
YODOROGO
 10
31413.604341291921
 20
1907.7494964292871
 30
0.0
 11
31165.604341291921
 21
1907.7494964292871
 31
0.0
  0
LINE
  5
62A4
  8
YODOROGO
 10
31413.604341291921
 20
2027.749496429288
 30
0.0
 11
31165.604341291921
 21
2027.749496429288
 31
0.0
  0
LINE
  5
62A5
  8
YODOROGO
 10
31165.604341291921
 20
1963.749496429286
 30
0.0
 11
31413.604341291921
 21
1963.749496429286
 31
0.0
  0
LINE
  5
62A6
  8
YODOROGO
 10
30791.604341291921
 20
1563.7494964292871
 30
0.0
 11
30791.604341291921
 21
1755.7494964292871
 31
0.0
  0
LINE
  5
62A7
  8
YODOROGO
 10
30763.604341291921
 20
1691.749496429288
 30
0.0
 11
30763.604341291921
 21
1563.7494964292871
 31
0.0
  0
LINE
  5
62A8
  8
YODOROGO
 10
30723.604341291921
 20
1491.749496429288
 30
0.0
 11
30723.604341291921
 21
1691.749496429288
 31
0.0
  0
LINE
  5
62A9
  8
YODOROGO
 10
30899.604341291932
 20
1691.749496429288
 30
0.0
 11
30899.604341291932
 21
1491.749496429288
 31
0.0
  0
LINE
  5
62AA
  8
YODOROGO
 10
30859.604341291932
 20
1563.7494964292871
 30
0.0
 11
30859.604341291932
 21
1691.749496429288
 31
0.0
  0
LINE
  5
62AB
  8
YODOROGO
 10
30831.604341291921
 20
1755.7494964292871
 30
0.0
 11
30831.604341291921
 21
1563.7494964292871
 31
0.0
  0
LINE
  5
62AC
  8
YODOROGO
 10
30973.604341291921
 20
2027.749496429288
 30
0.0
 11
30973.604341291921
 21
1467.749496429288
 31
0.0
  0
LINE
  5
62AD
  8
YODOROGO
 10
30645.604341291921
 20
1427.749496429288
 30
0.0
 11
30645.604341291921
 21
2027.749496429288
 31
0.0
  0
LINE
  5
62AE
  8
YODOROGO
 10
30697.604341291932
 20
1963.749496429286
 30
0.0
 11
30697.604341291932
 21
1427.749496429288
 31
0.0
  0
LINE
  5
62AF
  8
YODOROGO
 10
30925.604341291921
 20
1547.749496429288
 30
0.0
 11
30925.604341291921
 21
1963.749496429286
 31
0.0
  0
LINE
  5
62B0
  8
YODOROGO
 10
30381.604341291932
 20
1627.749496429288
 30
0.0
 11
30381.604341291932
 21
1679.749496429288
 31
0.0
  0
LINE
  5
62B1
  8
YODOROGO
 10
30617.604341291921
 20
1679.749496429288
 30
0.0
 11
30617.604341291921
 21
1627.749496429288
 31
0.0
  0
LINE
  5
62B2
  8
YODOROGO
 10
31165.604341291921
 20
1907.7494964292871
 30
0.0
 11
31165.604341291921
 21
1635.7494964292871
 31
0.0
  0
LINE
  5
62B3
  8
YODOROGO
 10
29949.60434129191
 20
1667.749496429288
 30
0.0
 11
29949.60434129191
 21
1707.749496429288
 31
0.0
  0
LINE
  5
62B4
  8
YODOROGO
 10
29949.60434129191
 20
1667.749496429288
 30
0.0
 11
29949.60434129191
 21
1707.749496429288
 31
0.0
  0
ARC
  5
62B5
  8
YODOROGO
 10
30537.604341291921
 20
1507.749496429288
 30
0.0
 40
80.0
 50
270.0
 51
0.0
  0
LINE
  5
62B6
  8
YODOROGO
 10
30569.604341291921
 20
1599.7494964292871
 30
0.0
 11
30617.604341291921
 21
1599.7494964292871
 31
0.0
  0
LINE
  5
62B7
  8
YODOROGO
 10
30617.604341291921
 20
1627.749496429288
 30
0.0
 11
30529.604341291939
 21
1627.749496429288
 31
0.0
  0
LINE
  5
62B8
  8
YODOROGO
 10
30217.604341291921
 20
1667.749496429288
 30
0.0
 11
29949.60434129191
 21
1667.749496429288
 31
0.0
  0
LINE
  5
62B9
  8
YODOROGO
 10
30217.604341291921
 20
1627.749496429288
 30
0.0
 11
30217.604341291921
 21
1667.749496429288
 31
0.0
  0
LINE
  5
62BA
  8
YODOROGO
 10
30017.604341291921
 20
1627.749496429288
 30
0.0
 11
30217.604341291921
 21
1627.749496429288
 31
0.0
  0
ARC
  5
62BB
  8
YODOROGO
 10
30230.05882870136
 20
1868.885714952901
 30
0.0
 40
321.37763628522822
 50
228.6181454618993
 51
245.660289248906
  0
LINE
  5
62BC
  8
YODOROGO
 10
30105.604341291921
 20
1603.7494964292871
 30
0.0
 11
30097.60434129195
 21
1576.0728158699001
 31
0.0
  0
LINE
  5
62BD
  8
YODOROGO
 10
30189.604341291921
 20
1603.7494964292871
 30
0.0
 11
30105.604341291921
 21
1603.7494964292871
 31
0.0
  0
LINE
  5
62BE
  8
YODOROGO
 10
30177.604341291921
 20
1551.817722473427
 30
0.0
 11
30189.604341291921
 21
1603.7494964292871
 31
0.0
  0
ARC
  5
62BF
  8
YODOROGO
 10
30230.05882870045
 20
1868.885714953002
 30
0.0
 40
321.37763628529081
 50
260.60629297969911
 51
267.77903556555862
  0
LINE
  5
62C0
  8
YODOROGO
 10
30217.604341291921
 20
1427.749496429285
 30
0.0
 11
30217.604341291921
 21
1547.749496429288
 31
0.0
  0
LINE
  5
62C1
  8
YODOROGO
 10
29937.604341291932
 20
1481.3393349155101
 30
0.0
 11
29937.604341291921
 21
1594.531090531141
 31
0.0
  0
LINE
  5
62C2
  8
YODOROGO
 10
30217.604341291921
 20
1667.749496429288
 30
0.0
 11
29949.60434129191
 21
1667.749496429288
 31
0.0
  0
LINE
  5
62C3
  8
YODOROGO
 10
30217.604341291921
 20
1627.749496429288
 30
0.0
 11
30217.604341291921
 21
1667.749496429288
 31
0.0
  0
LINE
  5
62C4
  8
YODOROGO
 10
30017.604341291921
 20
1627.749496429288
 30
0.0
 11
30217.604341291921
 21
1627.749496429288
 31
0.0
  0
ARC
  5
62C5
  8
YODOROGO
 10
30230.05882870136
 20
1868.885714952901
 30
0.0
 40
321.37763628522822
 50
228.6181454618993
 51
245.660289248906
  0
LINE
  5
62C6
  8
YODOROGO
 10
30105.604341291921
 20
1603.7494964292871
 30
0.0
 11
30097.60434129195
 21
1576.0728158699001
 31
0.0
  0
LINE
  5
62C7
  8
YODOROGO
 10
30189.604341291921
 20
1603.7494964292871
 30
0.0
 11
30105.604341291921
 21
1603.7494964292871
 31
0.0
  0
LINE
  5
62C8
  8
YODOROGO
 10
30177.604341291921
 20
1551.817722473427
 30
0.0
 11
30189.604341291921
 21
1603.7494964292871
 31
0.0
  0
ARC
  5
62C9
  8
YODOROGO
 10
30230.05882870045
 20
1868.885714953002
 30
0.0
 40
321.37763628529081
 50
260.60629297969911
 51
267.77903556555862
  0
LINE
  5
62CA
  8
YODOROGO
 10
30217.604341291921
 20
1427.749496429285
 30
0.0
 11
30217.604341291921
 21
1547.749496429288
 31
0.0
  0
LINE
  5
62CB
  8
YODOROGO
 10
29937.604341291932
 20
1481.3393349155101
 30
0.0
 11
29937.604341291921
 21
1594.531090531141
 31
0.0
  0
LINE
  5
62CC
  8
YODOROGO
 10
30433.604341291921
 20
1573.749496429288
 30
0.0
 11
30381.604341291932
 21
1573.749496429288
 31
0.0
  0
LINE
  5
62CD
  8
YODOROGO
 10
30433.604341291921
 20
1601.749496429285
 30
0.0
 11
30433.604341291921
 21
1573.749496429288
 31
0.0
  0
LINE
  5
62CE
  8
YODOROGO
 10
30381.604341291932
 20
1601.749496429285
 30
0.0
 11
30433.604341291921
 21
1601.749496429285
 31
0.0
  0
LINE
  5
62CF
  8
YODOROGO
 10
30381.604341291932
 20
1573.749496429288
 30
0.0
 11
30381.604341291932
 21
1601.749496429285
 31
0.0
  0
LINE
  5
62D0
  8
YODOROGO
 10
30429.604341291921
 20
1577.7494964292871
 30
0.0
 11
30385.604341291921
 21
1577.7494964292871
 31
0.0
  0
LINE
  5
62D1
  8
YODOROGO
 10
30429.604341291921
 20
1597.749496429288
 30
0.0
 11
30429.604341291921
 21
1577.7494964292871
 31
0.0
  0
LINE
  5
62D2
  8
YODOROGO
 10
30385.604341291921
 20
1597.749496429288
 30
0.0
 11
30429.604341291921
 21
1597.749496429288
 31
0.0
  0
LINE
  5
62D3
  8
YODOROGO
 10
30385.604341291921
 20
1577.7494964292871
 30
0.0
 11
30385.604341291921
 21
1597.749496429288
 31
0.0
  0
LINE
  5
62D4
  8
YODOROGO
 10
30425.604341291921
 20
1581.749496429286
 30
0.0
 11
30389.604341291921
 21
1581.749496429286
 31
0.0
  0
LINE
  5
62D5
  8
YODOROGO
 10
30425.604341291921
 20
1593.749496429288
 30
0.0
 11
30425.604341291921
 21
1581.749496429286
 31
0.0
  0
LINE
  5
62D6
  8
YODOROGO
 10
30389.604341291921
 20
1593.749496429288
 30
0.0
 11
30425.604341291921
 21
1593.749496429288
 31
0.0
  0
LINE
  5
62D7
  8
YODOROGO
 10
30389.604341291921
 20
1581.749496429286
 30
0.0
 11
30389.604341291921
 21
1593.749496429288
 31
0.0
  0
LINE
  5
62D8
  8
YODOROGO
 10
30421.604341291932
 20
1585.7494964292871
 30
0.0
 11
30393.604341291921
 21
1585.7494964292871
 31
0.0
  0
LINE
  5
62D9
  8
YODOROGO
 10
30421.604341291932
 20
1589.749496429288
 30
0.0
 11
30421.604341291932
 21
1585.7494964292871
 31
0.0
  0
LINE
  5
62DA
  8
YODOROGO
 10
30393.604341291921
 20
1589.749496429288
 30
0.0
 11
30421.604341291932
 21
1589.749496429288
 31
0.0
  0
LINE
  5
62DB
  8
YODOROGO
 10
30393.604341291921
 20
1585.7494964292871
 30
0.0
 11
30393.604341291921
 21
1589.749496429288
 31
0.0
  0
LINE
  5
62DC
  8
YODOROGO
 10
30465.604341291921
 20
1627.749496429288
 30
0.0
 11
30381.604341291932
 21
1627.749496429288
 31
0.0
  0
LINE
  5
62DD
  8
YODOROGO
 10
30465.604341291921
 20
1547.749496429288
 30
0.0
 11
30465.604341291921
 21
1627.749496429288
 31
0.0
  0
LINE
  5
62DE
  8
YODOROGO
 10
30381.604341291932
 20
1547.749496429288
 30
0.0
 11
30465.604341291921
 21
1547.749496429288
 31
0.0
  0
LINE
  5
62DF
  8
YODOROGO
 10
30381.604341291932
 20
1427.749496429288
 30
0.0
 11
30381.604341291932
 21
1547.749496429288
 31
0.0
  0
LINE
  5
62E0
  8
YODOROGO
 10
30537.604341291921
 20
1427.749496429288
 30
0.0
 11
30381.604341291932
 21
1427.749496429288
 31
0.0
  0
LINE
  5
62E1
  8
YODOROGO
 10
30569.604341291921
 20
1571.749496429285
 30
0.0
 11
30569.604341291921
 21
1599.7494964292871
 31
0.0
  0
ARC
  5
62E2
  8
YODOROGO
 10
30545.604341291921
 20
1571.749496429291
 30
0.0
 40
24.000000000003752
 50
270.0
 51
359.99999999998772
  0
LINE
  5
62E3
  8
YODOROGO
 10
30529.604341291939
 20
1547.749496429288
 30
0.0
 11
30545.604341291921
 21
1547.749496429288
 31
0.0
  0
LINE
  5
62E4
  8
YODOROGO
 10
30529.604341291939
 20
1627.749496429288
 30
0.0
 11
30529.604341291939
 21
1547.749496429288
 31
0.0
  0
LINE
  5
62E5
  8
YODOROGO
 10
30899.604341291932
 20
1547.749496429288
 30
0.0
 11
30925.604341291921
 21
1547.749496429288
 31
0.0
  0
LINE
  5
62E6
  8
YODOROGO
 10
30933.604341291921
 20
1427.749496429288
 30
0.0
 11
30899.604341291932
 21
1427.749496429288
 31
0.0
  0
LINE
  5
62E7
  8
YODOROGO
 10
30763.604341291921
 20
1563.7494964292871
 30
0.0
 11
30791.604341291921
 21
1563.7494964292871
 31
0.0
  0
LINE
  5
62E8
  8
YODOROGO
 10
30899.604341291932
 20
1491.749496429288
 30
0.0
 11
30723.604341291921
 21
1491.749496429288
 31
0.0
  0
LINE
  5
62E9
  8
YODOROGO
 10
30831.604341291921
 20
1563.7494964292871
 30
0.0
 11
30859.604341291932
 21
1563.7494964292871
 31
0.0
  0
LINE
  5
62EA
  8
YODOROGO
 10
30899.604341291932
 20
1427.749496429288
 30
0.0
 11
30899.604341291932
 21
1547.749496429288
 31
0.0
  0
LINE
  5
62EB
  8
YODOROGO
 10
30697.604341291932
 20
1427.749496429288
 30
0.0
 11
30645.604341291921
 21
1427.749496429288
 31
0.0
  0
LINE
  5
62EC
  8
YODOROGO
 10
30617.604341291921
 20
1599.7494964292871
 30
0.0
 11
30617.604341291921
 21
1507.749496429288
 31
0.0
  0
ARC
  5
62ED
  8
YODOROGO
 10
30933.604341291921
 20
1467.749496429288
 30
0.0
 40
40.0
 50
270.0
 51
0.0
  0
LINE
  5
62EE
  8
YODOROGO
 10
31093.604341291921
 20
1523.7494964292871
 30
0.0
 11
31093.604341291921
 21
1427.749496429288
 31
0.0
  0
ARC
  5
62EF
  8
YODOROGO
 10
31039.721395566768
 20
1637.5313901097329
 30
0.0
 40
125.8955565916754
 50
295.34052442160112
 51
359.18902303418679
  0
LINE
  5
62F0
  8
YODOROGO
 10
30617.604341291921
 20
1859.749496429288
 30
0.0
 11
30497.604341291921
 21
1939.749496429288
 31
0.0
  0
LINE
  5
62F1
  8
YODOROGO
 10
30497.604341291921
 20
2027.749496429288
 30
0.0
 11
30617.604341291921
 21
1947.749496429288
 31
0.0
  0
LINE
  5
62F2
  8
YODOROGO
 10
30529.604341291939
 20
1679.749496429288
 30
0.0
 11
30617.604341291921
 21
1679.749496429288
 31
0.0
  0
LINE
  5
62F3
  8
YODOROGO
 10
30617.604341291921
 20
1735.7494964292871
 30
0.0
 11
30529.604341291939
 21
1735.7494964292871
 31
0.0
  0
LINE
  5
62F4
  8
YODOROGO
 10
30381.604341291932
 20
1795.7494964292871
 30
0.0
 11
30617.604341291921
 21
1795.7494964292871
 31
0.0
  0
LINE
  5
62F5
  8
YODOROGO
 10
30081.604341291921
 20
2027.749496429288
 30
0.0
 11
30021.604341291921
 21
2027.749496429288
 31
0.0
  0
LINE
  5
62F6
  8
YODOROGO
 10
30081.604341291921
 20
1827.7494964292871
 30
0.0
 11
30081.604341291921
 21
2027.749496429288
 31
0.0
  0
LINE
  5
62F7
  8
YODOROGO
 10
30021.604341291921
 20
1827.7494964292871
 30
0.0
 11
30081.604341291921
 21
1827.7494964292871
 31
0.0
  0
LINE
  5
62F8
  8
YODOROGO
 10
30021.604341291921
 20
2027.749496429288
 30
0.0
 11
30021.604341291921
 21
1827.7494964292871
 31
0.0
  0
LINE
  5
62F9
  8
YODOROGO
 10
30161.604341291921
 20
2027.749496429288
 30
0.0
 11
30217.604341291921
 21
2027.749496429288
 31
0.0
  0
LINE
  5
62FA
  8
YODOROGO
 10
30161.604341291921
 20
1811.749496429288
 30
0.0
 11
30161.604341291921
 21
2027.749496429288
 31
0.0
  0
ARC
  5
62FB
  8
YODOROGO
 10
30121.604341291921
 20
1811.749496429288
 30
0.0
 40
40.0
 50
270.0
 51
0.0
  0
LINE
  5
62FC
  8
YODOROGO
 10
30021.604341291921
 20
1771.7494964292871
 30
0.0
 11
30121.604341291921
 21
1771.7494964292871
 31
0.0
  0
LINE
  5
62FD
  8
YODOROGO
 10
30021.604341291921
 20
1707.749496429288
 30
0.0
 11
30021.604341291921
 21
1771.7494964292871
 31
0.0
  0
LINE
  5
62FE
  8
YODOROGO
 10
30137.604341291921
 20
1707.749496429288
 30
0.0
 11
30021.604341291921
 21
1707.749496429288
 31
0.0
  0
ARC
  5
62FF
  8
YODOROGO
 10
30137.604341291921
 20
1787.7494964292871
 30
0.0
 40
80.0
 50
270.0
 51
0.0
  0
LINE
  5
6300
  8
YODOROGO
 10
30217.604341291921
 20
2027.749496429288
 30
0.0
 11
30217.604341291921
 21
1787.7494964292871
 31
0.0
  0
LINE
  5
6301
  8
YODOROGO
 10
29977.604341291921
 20
1947.749496429288
 30
0.0
 11
29977.604341291921
 21
1995.7494964292871
 31
0.0
1001
AUTOCAD_POSTSCRIPT_FIGURE
1002
{
1000
PSFILL
1000
Grayscale
1000
Grayscale
1070
    25
1002
}
  0
LINE
  5
6302
  8
YODOROGO
 10
29977.604341291921
 20
1859.749496429288
 30
0.0
 11
29977.604341291921
 21
1907.7494964292871
 31
0.0
1001
AUTOCAD_POSTSCRIPT_FIGURE
1002
{
1000
PSFILL
1000
Grayscale
1000
Grayscale
1070
    25
1002
}
  0
LINE
  5
6303
  8
YODOROGO
 10
29977.604341291921
 20
1707.749496429288
 30
0.0
 11
29977.604341291921
 21
1819.7494964292871
 31
0.0
1001
AUTOCAD_POSTSCRIPT_FIGURE
1002
{
1000
PSFILL
1000
Grayscale
1000
Grayscale
1070
    25
1002
}
  0
LINE
  5
6304
  8
YODOROGO
 10
30381.604341291932
 20
1907.7494964292871
 30
0.0
 11
30497.604341291921
 21
2027.749496429288
 31
0.0
  0
LINE
  5
6305
  8
YODOROGO
 10
30381.604341291932
 20
1819.7494964292871
 30
0.0
 11
30381.604341291932
 21
1907.7494964292871
 31
0.0
  0
LINE
  5
6306
  8
YODOROGO
 10
30497.604341291921
 20
1939.749496429288
 30
0.0
 11
30381.604341291932
 21
1819.7494964292871
 31
0.0
  0
LINE
  5
6307
  8
YODOROGO
 10
30465.604341291921
 20
1679.749496429288
 30
0.0
 11
30465.604341291921
 21
1735.7494964292871
 31
0.0
  0
LINE
  5
6308
  8
YODOROGO
 10
30381.604341291932
 20
1679.749496429288
 30
0.0
 11
30465.604341291921
 21
1679.749496429288
 31
0.0
  0
LINE
  5
6309
  8
YODOROGO
 10
30529.604341291939
 20
1735.7494964292871
 30
0.0
 11
30529.604341291939
 21
1679.749496429288
 31
0.0
  0
LINE
  5
630A
  8
YODOROGO
 10
30381.604341291932
 20
1735.7494964292871
 30
0.0
 11
30381.604341291932
 21
1795.7494964292871
 31
0.0
  0
LINE
  5
630B
  8
YODOROGO
 10
30465.604341291921
 20
1735.7494964292871
 30
0.0
 11
30381.604341291932
 21
1735.7494964292871
 31
0.0
  0
LINE
  5
630C
  8
YODOROGO
 10
30645.604341291921
 20
2027.749496429288
 30
0.0
 11
30973.604341291921
 21
2027.749496429288
 31
0.0
  0
LINE
  5
630D
  8
YODOROGO
 10
30925.604341291921
 20
1963.749496429286
 30
0.0
 11
30697.604341291932
 21
1963.749496429286
 31
0.0
  0
LINE
  5
630E
  8
YODOROGO
 10
30873.604341291921
 20
1819.7494964292871
 30
0.0
 11
30899.604341291932
 21
1819.7494964292871
 31
0.0
  0
LINE
  5
630F
  8
YODOROGO
 10
30899.604341291932
 20
1939.749496429288
 30
0.0
 11
30873.604341291921
 21
1819.7494964292871
 31
0.0
  0
LINE
  5
6310
  8
YODOROGO
 10
30851.604341291939
 20
1939.749496429288
 30
0.0
 11
30899.604341291932
 21
1939.749496429288
 31
0.0
  0
LINE
  5
6311
  8
YODOROGO
 10
30825.604341291921
 20
1819.7494964292871
 30
0.0
 11
30851.604341291939
 21
1939.749496429288
 31
0.0
  0
LINE
  5
6312
  8
YODOROGO
 10
30797.604341291921
 20
1819.7494964292871
 30
0.0
 11
30825.604341291921
 21
1819.7494964292871
 31
0.0
  0
LINE
  5
6313
  8
YODOROGO
 10
30771.604341291939
 20
1939.749496429288
 30
0.0
 11
30797.604341291921
 21
1819.7494964292871
 31
0.0
  0
LINE
  5
6314
  8
YODOROGO
 10
30723.604341291921
 20
1939.749496429288
 30
0.0
 11
30771.604341291939
 21
1939.749496429288
 31
0.0
  0
LINE
  5
6315
  8
YODOROGO
 10
30749.604341291921
 20
1819.7494964292871
 30
0.0
 11
30723.604341291921
 21
1939.749496429288
 31
0.0
  0
LINE
  5
6316
  8
YODOROGO
 10
30723.604341291921
 20
1819.7494964292871
 30
0.0
 11
30749.604341291921
 21
1819.7494964292871
 31
0.0
  0
LINE
  5
6317
  8
YODOROGO
 10
30723.604341291921
 20
1755.7494964292871
 30
0.0
 11
30723.604341291921
 21
1819.7494964292871
 31
0.0
  0
LINE
  5
6318
  8
YODOROGO
 10
30899.604341291932
 20
1755.7494964292871
 30
0.0
 11
30723.604341291921
 21
1755.7494964292871
 31
0.0
  0
LINE
  5
6319
  8
YODOROGO
 10
30899.604341291932
 20
1819.7494964292871
 30
0.0
 11
30899.604341291932
 21
1755.7494964292871
 31
0.0
  0
LINE
  5
631A
  8
YODOROGO
 10
30617.604341291921
 20
1947.749496429288
 30
0.0
 11
30617.604341291921
 21
1859.749496429288
 31
0.0
  0
LINE
  5
631B
  8
YODOROGO
 10
30791.604341291921
 20
1755.7494964292871
 30
0.0
 11
30831.604341291921
 21
1755.7494964292871
 31
0.0
  0
LINE
  5
631C
  8
YODOROGO
 10
30723.604341291921
 20
1691.749496429288
 30
0.0
 11
30763.604341291921
 21
1691.749496429288
 31
0.0
  0
LINE
  5
631D
  8
YODOROGO
 10
30859.604341291932
 20
1691.749496429288
 30
0.0
 11
30899.604341291932
 21
1691.749496429288
 31
0.0
  0
LINE
  5
631E
  8
YODOROGO
 10
30617.604341291921
 20
1795.7494964292871
 30
0.0
 11
30617.604341291921
 21
1735.7494964292871
 31
0.0
  0
LINE
  5
631F
  8
YODOROGO
 10
31165.604341291921
 20
2027.749496429288
 30
0.0
 11
31165.604341291921
 21
1963.749496429286
 31
0.0
  0
LINE
  5
6320
  8
YODOROGO
 10
31533.604341291921
 20
1595.7494964292871
 30
0.0
 11
31533.60434129191
 21
1811.749496429288
 31
0.0
  0
LINE
  5
6321
  8
YODOROGO
 10
31461.60434129191
 20
1987.7494964292871
 30
0.0
 11
31461.60434129191
 21
1635.7494964292871
 31
0.0
  0
LINE
  5
6322
  8
YODOROGO
 10
31653.604341291921
 20
1427.749496429288
 30
0.0
 11
31653.60434129191
 21
1811.749496429288
 31
0.0
  0
LINE
  5
6323
  8
YODOROGO
 10
31589.604341291921
 20
1811.749496429288
 30
0.0
 11
31589.604341291921
 21
1427.749496429288
 31
0.0
  0
LINE
  5
6324
  8
YODOROGO
 10
31237.604341291921
 20
1595.7494964292871
 30
0.0
 11
31237.604341291921
 21
1707.749496429288
 31
0.0
  0
ARC
  5
6325
  8
YODOROGO
 10
31353.914865116069
 20
1607.790351288558
 30
0.0
 40
180.0924485759885
 50
268.62849102169793
 51
356.16638457330322
  0
LINE
  5
6326
  8
YODOROGO
 10
31349.604341291939
 20
1527.749496429288
 30
0.0
 11
31349.604341291939
 21
1427.749496429288
 31
0.0
  0
ARC
  5
6327
  8
YODOROGO
 10
31351.518075724562
 20
1637.838957017655
 30
0.0
 40
110.1060929836122
 50
269.00410209305932
 51
358.91264455492478
  0
LINE
  5
6328
  8
YODOROGO
 10
31589.604341291921
 20
1427.749496429288
 30
0.0
 11
31653.604341291921
 21
1427.749496429288
 31
0.0
  0
LINE
  5
6329
  8
YODOROGO
 10
31533.60434129191
 20
1811.749496429288
 30
0.0
 11
31589.604341291921
 21
1811.749496429288
 31
0.0
  0
LINE
  5
632A
  8
YODOROGO
 10
31621.604341291939
 20
1987.7494964292871
 30
0.0
 11
31461.60434129191
 21
1987.7494964292871
 31
0.0
  0
LINE
  5
632B
  8
YODOROGO
 10
31533.60434129191
 20
1915.7494964292871
 30
0.0
 11
31661.604341291939
 21
1915.7494964292871
 31
0.0
  0
LINE
  5
632C
  8
YODOROGO
 10
31701.604341291939
 20
1875.7494964292871
 30
0.0
 11
31533.60434129191
 21
1875.7494964292871
 31
0.0
  0
LINE
  5
632D
  8
YODOROGO
 10
31237.604341291921
 20
1779.749496429288
 30
0.0
 11
31349.604341291939
 21
1779.749496429288
 31
0.0
  0
LINE
  5
632E
  8
YODOROGO
 10
31237.604341291921
 20
1835.7494964292871
 30
0.0
 11
31237.604341291921
 21
1779.749496429288
 31
0.0
  0
LINE
  5
632F
  8
YODOROGO
 10
31349.604341291939
 20
1835.7494964292871
 30
0.0
 11
31237.604341291921
 21
1835.7494964292871
 31
0.0
  0
LINE
  5
6330
  8
YODOROGO
 10
31349.604341291939
 20
1779.749496429288
 30
0.0
 11
31349.604341291939
 21
1835.7494964292871
 31
0.0
  0
LINE
  5
6331
  8
YODOROGO
 10
31533.60434129191
 20
1875.7494964292871
 30
0.0
 11
31533.60434129191
 21
1915.7494964292871
 31
0.0
  0
LINE
  5
6332
  8
YODOROGO
 10
31413.604341291921
 20
1707.749496429288
 30
0.0
 11
31413.604341291921
 21
1907.7494964292871
 31
0.0
  0
LINE
  5
6333
  8
YODOROGO
 10
31237.604341291921
 20
1707.749496429288
 30
0.0
 11
31413.604341291921
 21
1707.749496429288
 31
0.0
  0
LINE
  5
6334
  8
YODOROGO
 10
31413.604341291921
 20
1963.749496429286
 30
0.0
 11
31413.604341291921
 21
2027.749496429288
 31
0.0
  0
ARC
  5
6335
  8
YODOROGO
 10
31621.604341291939
 20
2003.749496429285
 30
0.0
 40
15.999999999994539
 50
270.0
 51
0.0000000000081422
  0
LINE
  5
6336
  8
YODOROGO
 10
31637.604341291921
 20
2027.749496429288
 30
0.0
 11
31637.604341291921
 21
2003.7494964292871
 31
0.0
  0
LINE
  5
6337
  8
YODOROGO
 10
31701.604341291939
 20
2027.749496429288
 30
0.0
 11
31637.604341291921
 21
2027.749496429288
 31
0.0
  0
LINE
  5
6338
  8
YODOROGO
 10
31701.604341291939
 20
1955.7494964292871
 30
0.0
 11
31701.604341291939
 21
2027.749496429288
 31
0.0
  0
ARC
  5
6339
  8
YODOROGO
 10
31661.604341291939
 20
1955.7494964292871
 30
0.0
 40
40.0
 50
270.0
 51
0.0
  0
LINE
  5
633A
  8
YODOROGO
 10
31701.604341291939
 20
1811.749496429288
 30
0.0
 11
31701.604341291939
 21
1875.7494964292871
 31
0.0
  0
LINE
  5
633B
  8
YODOROGO
 10
31653.60434129191
 20
1811.749496429288
 30
0.0
 11
31701.604341291939
 21
1811.749496429288
 31
0.0
  0
LINE
  5
633C
  8
SUNPOU
  6
CONTINUOUS
 62
     4
 10
5950.8412086495127
 20
13723.43715899999
 30
0.0
 11
5950.8412086495127
 21
12544.487359999979
 31
0.0
  0
LINE
  5
633D
  8
SUNPOU
  6
CONTINUOUS
 62
     4
 10
13643.838464649511
 20
13723.43715899999
 30
0.0
 11
13643.838464649511
 21
12544.487359999979
 31
0.0
  0
LINE
  5
633E
  8
SUNPOU
  6
CONTINUOUS
 62
     4
 10
5950.8412086495127
 20
12624.487359999979
 30
0.0
 11
13643.838464649511
 21
12624.487359999979
 31
0.0
  0
LINE
  5
633F
  8
SUNPOU
  6
CONTINUOUS
 62
     4
 10
5865.34120864951
 20
19853.933069000021
 30
0.0
 11
5865.34120864951
 21
20403.938348000022
 31
0.0
  0
LINE
  5
6340
  8
SUNPOU
  6
CONTINUOUS
 62
     4
 10
5950.8412086495118
 20
20323.938348000022
 30
0.0
 11
6190.8412086495118
 21
20323.938348000022
 31
0.0
  0
LINE
  5
6341
  8
SUNPOU
  6
CONTINUOUS
 62
     4
 10
5868.3412086495109
 20
20323.938348000022
 30
0.0
 11
5628.3412086495118
 21
20323.938348000022
 31
0.0
  0
LINE
  5
6342
  8
SUNPOU
  6
CONTINUOUS
 62
     4
 10
5950.8412086495118
 20
20323.938348000022
 30
0.0
 11
5868.3412086495109
 21
20323.938348000022
 31
0.0
  0
LINE
  5
6343
  8
SUNPOU
  6
CONTINUOUS
 62
     4
 10
8518.3412086495136
 20
20323.938348000022
 30
0.0
 11
5950.8412086495118
 21
20323.938348000022
 31
0.0
  0
LINE
  5
6344
  8
SUNPOU
  6
CONTINUOUS
 62
     4
 10
8518.3412086495136
 20
20323.938348000022
 30
0.0
 11
11076.338464649511
 21
20323.938348000022
 31
0.0
  0
LINE
  5
6345
  8
SUNPOU
  6
CONTINUOUS
 62
     4
 10
13729.338464649511
 20
19853.933069000021
 30
0.0
 11
13729.338464649511
 21
20403.938348000022
 31
0.0
  0
LINE
  5
6346
  8
SUNPOU
  6
CONTINUOUS
 62
     4
 10
13643.838464649511
 20
20323.938348000022
 30
0.0
 11
13403.838464649511
 21
20323.938348000022
 31
0.0
  0
LINE
  5
6347
  8
SUNPOU
  6
CONTINUOUS
 62
     4
 10
13726.338464649511
 20
20323.938348000022
 30
0.0
 11
13966.338464649511
 21
20323.938348000022
 31
0.0
  0
LINE
  5
6348
  8
SUNPOU
  6
CONTINUOUS
 62
     4
 10
13643.838464649511
 20
20323.938348000022
 30
0.0
 11
13726.338464649511
 21
20323.938348000022
 31
0.0
  0
LINE
  5
6349
  8
SUNPOU
  6
CONTINUOUS
 62
     4
 10
11076.338464649511
 20
20323.938348000022
 30
0.0
 11
13643.838464649511
 21
20323.938348000022
 31
0.0
  0
LINE
  5
634A
  8
SUNPOU
  6
CONTINUOUS
 62
     4
 10
5788.3383386495079
 20
13803.44012899999
 30
0.0
 11
4941.3429176495083
 21
13803.44012899999
 31
0.0
  0
LINE
  5
634B
  8
SUNPOU
  6
CONTINUOUS
 62
     4
 10
5021.3429176495092
 20
13995.935443999981
 30
0.0
 11
5021.3429176495092
 21
13803.44012899999
 31
0.0
  0
LINE
  5
634C
  8
SUNPOU
  6
CONTINUOUS
 62
     4
 10
5652.0435356495072
 20
15455.175955500001
 30
0.0
 11
4941.3429176495092
 21
15455.175955500001
 31
0.0
  0
LINE
  5
634D
  8
SUNPOU
  6
CONTINUOUS
 62
     4
 10
5021.3429176495092
 20
15455.175955500001
 30
0.0
 11
5021.3429176495092
 21
13995.935443999981
 31
0.0
  0
LINE
  5
634E
  8
SUNPOU
  6
CONTINUOUS
 62
     4
 10
5652.0435356495072
 20
15455.175955500001
 30
0.0
 11
4941.3429176495092
 21
15455.175955500001
 31
0.0
  0
LINE
  5
634F
  8
SUNPOU
  6
CONTINUOUS
 62
     4
 10
5021.3429176495092
 20
16913.935443999992
 30
0.0
 11
5021.3429176495092
 21
15455.175955500001
 31
0.0
  0
LINE
  5
6350
  8
SUNPOU
  6
CONTINUOUS
 62
     4
 10
5788.3383386495079
 20
19683.931353
 30
0.0
 11
5341.3429176495092
 21
19683.931353
 31
0.0
  0
LINE
  5
6351
  8
SUNPOU
  6
CONTINUOUS
 62
     4
 10
5788.3426936495089
 20
19703.931353
 30
0.0
 11
5341.3429176495092
 21
19703.931353
 31
0.0
  0
LINE
  5
6353
  8
SUNPOU
  6
CONTINUOUS
 62
     4
 10
5421.3429176495083
 20
19703.931353
 30
0.0
 11
5421.3429176495083
 21
19943.931353
 31
0.0
  0
LINE
  5
6354
  8
SUNPOU
  6
CONTINUOUS
 62
     4
 10
5421.3429176495083
 20
19663.931353
 30
0.0
 11
5421.3429176495083
 21
19703.931353
 31
0.0
  0
LINE
  5
6355
  8
SUNPOU
  6
CONTINUOUS
 62
     4
 10
5788.3426936495089
 20
19703.931353
 30
0.0
 11
4941.3429176495101
 21
19703.931353
 31
0.0
  0
LINE
  5
6356
  8
SUNPOU
  6
CONTINUOUS
 62
     4
 10
5021.3429176495101
 20
19481.435443999981
 30
0.0
 11
5021.3429176495101
 21
19703.931353
 31
0.0
  0
LINE
  5
6357
  8
SUNPOU
  6
CONTINUOUS
 62
     4
 10
5652.0420506495102
 20
18372.935443999992
 30
0.0
 11
4941.3429176495092
 21
18372.935443999992
 31
0.0
  0
LINE
  5
6358
  8
SUNPOU
  6
CONTINUOUS
 62
     4
 10
5021.3429176495092
 20
18372.935443999992
 30
0.0
 11
5021.3429176495101
 21
19481.435443999981
 31
0.0
  0
LINE
  5
6359
  8
SUNPOU
  6
CONTINUOUS
 62
     4
 10
5652.0420506495102
 20
18372.935443999992
 30
0.0
 11
4941.3429176495083
 21
18372.935443999992
 31
0.0
  0
LINE
  5
635A
  8
SUNPOU
  6
CONTINUOUS
 62
     4
 10
5021.3429176495092
 20
16913.935443999992
 30
0.0
 11
5021.3429176495092
 21
18372.935443999992
 31
0.0
  0
LINE
  5
635B
  8
SUNPOU
  6
CONTINUOUS
 62
     4
 10
25822.54755499995
 20
19073.935443999992
 30
0.0
 11
26872.548874999949
 21
19073.935443999992
 31
0.0
  0
LINE
  5
635C
  8
SUNPOU
  6
CONTINUOUS
 62
     4
 10
26672.548874999949
 20
19481.435443999992
 30
0.0
 11
26872.548874999949
 21
19481.435443999992
 31
0.0
  0
LINE
  5
635D
  8
SUNPOU
  6
CONTINUOUS
 62
     4
 10
26792.548874999949
 20
19073.935443999992
 30
0.0
 11
26792.548874999949
 21
19481.435443999992
 31
0.0
  0
LINE
  5
635E
  8
SUNPOU
  6
CONTINUOUS
 62
     4
 10
17942.547686999991
 20
18372.935443999992
 30
0.0
 11
17055.589414999991
 21
18372.935443999992
 31
0.0
  0
LINE
  5
635F
  8
SUNPOU
  6
CONTINUOUS
 62
     4
 10
17135.589414999991
 20
18372.935443999992
 30
0.0
 11
17135.589414999991
 21
19481.435443999981
 31
0.0
  0
LINE
  5
6360
  8
SUNPOU
  6
CONTINUOUS
 62
     4
 10
17942.547686999991
 20
18372.935443999992
 30
0.0
 11
17055.589414999991
 21
18372.935443999992
 31
0.0
  0
LINE
  5
6361
  8
SUNPOU
  6
CONTINUOUS
 62
     4
 10
17135.589414999991
 20
16913.935443999992
 30
0.0
 11
17135.589414999991
 21
18372.935443999992
 31
0.0
  0
LINE
  5
6362
  8
SUNPOU
  6
CONTINUOUS
 62
     4
 10
17942.547686999991
 20
15455.175955500001
 30
0.0
 11
17055.589414999991
 21
15455.175955500001
 31
0.0
  0
LINE
  5
6363
  8
SUNPOU
  6
CONTINUOUS
 62
     4
 10
17135.589414999991
 20
15455.175955500001
 30
0.0
 11
17135.589414999991
 21
16913.935443999992
 31
0.0
  0
LINE
  5
6364
  8
SUNPOU
  6
CONTINUOUS
 62
     4
 10
17942.547686999991
 20
15455.175955500001
 30
0.0
 11
17055.589414999991
 21
15455.175955500001
 31
0.0
  0
LINE
  5
6365
  8
SUNPOU
  6
CONTINUOUS
 62
     4
 10
17135.589414999991
 20
13995.935443999981
 30
0.0
 11
17135.589414999991
 21
15455.175955500001
 31
0.0
  0
LINE
  5
6366
  8
2-0
  6
CONTINUOUS
 62
     3
 10
23090.04927099996
 20
13953.43544399999
 30
0.0
 11
23175.04927099996
 21
13953.43544399999
 31
0.0
  0
LINE
  5
6367
  8
2-0
  6
CONTINUOUS
 62
     3
 10
23175.04927099996
 20
13953.43544399999
 30
0.0
 11
23175.04927099996
 21
14038.43544399999
 31
0.0
  0
LINE
  5
6368
  8
2-0
  6
CONTINUOUS
 62
     3
 10
23175.04927099996
 20
14038.43544399999
 30
0.0
 11
23090.04927099996
 21
14038.43544399999
 31
0.0
  0
LINE
  5
6369
  8
2-0
  6
CONTINUOUS
 62
     3
 10
23090.04927099996
 20
14038.43544399999
 30
0.0
 11
23090.04927099996
 21
13953.43544399999
 31
0.0
  0
LINE
  5
636A
  8
2-0
  6
CONTINUOUS
 62
     3
 10
20590.043991999992
 20
13953.43544399999
 30
0.0
 11
20675.043991999992
 21
13953.43544399999
 31
0.0
  0
LINE
  5
636B
  8
2-0
  6
CONTINUOUS
 62
     3
 10
20675.043991999992
 20
13953.43544399999
 30
0.0
 11
20675.043991999992
 21
14038.43544399999
 31
0.0
  0
LINE
  5
636C
  8
2-0
  6
CONTINUOUS
 62
     3
 10
20675.043991999992
 20
14038.43544399999
 30
0.0
 11
20590.043991999992
 21
14038.43544399999
 31
0.0
  0
LINE
  5
636D
  8
2-0
  6
CONTINUOUS
 62
     3
 10
20590.043991999992
 20
14038.43544399999
 30
0.0
 11
20590.043991999992
 21
13953.43544399999
 31
0.0
  0
LINE
  5
636E
  8
SUNPOU
  6
CONTINUOUS
 62
     4
 10
25700.04927099996
 20
13290.17200999998
 30
0.0
 11
25700.04927099996
 21
12944.487359999979
 31
0.0
  0
LINE
  5
636F
  8
SUNPOU
  6
CONTINUOUS
 62
     4
 10
25657.547027999961
 20
13873.438148999991
 30
0.0
 11
25657.547027999961
 21
12944.487359999979
 31
0.0
  0
LINE
  5
6370
  8
SUNPOU
  6
CONTINUOUS
 62
     4
 10
25700.04927099996
 20
13024.487359999979
 30
0.0
 11
25940.04927099996
 21
13024.487359999979
 31
0.0
  0
LINE
  5
6371
  8
SUNPOU
  6
CONTINUOUS
 62
     4
 10
25657.547027999961
 20
13024.487359999979
 30
0.0
 11
25417.547027999961
 21
13024.487359999979
 31
0.0
  0
LINE
  5
6372
  8
SUNPOU
  6
CONTINUOUS
 62
     4
 10
25700.04927099996
 20
13024.487359999979
 30
0.0
 11
25657.547027999961
 21
13024.487359999979
 31
0.0
  0
LINE
  5
6373
  8
SUNPOU
  6
CONTINUOUS
 62
     4
 10
18065.043991999992
 20
13290.17200999998
 30
0.0
 11
18065.043991999992
 21
12944.487359999979
 31
0.0
  0
LINE
  5
6374
  8
SUNPOU
  6
CONTINUOUS
 62
     4
 10
18107.546234999991
 20
13873.438148999991
 30
0.0
 11
18107.546234999991
 21
12944.487359999979
 31
0.0
  0
LINE
  5
6375
  8
SUNPOU
  6
CONTINUOUS
 62
     4
 10
18065.043991999992
 20
13024.487359999979
 30
0.0
 11
17825.043991999992
 21
13024.487359999979
 31
0.0
  0
LINE
  5
6376
  8
SUNPOU
  6
CONTINUOUS
 62
     4
 10
18107.546234999991
 20
13024.487359999979
 30
0.0
 11
18347.54623499998
 21
13024.487359999979
 31
0.0
  0
LINE
  5
6377
  8
SUNPOU
  6
CONTINUOUS
 62
     4
 10
18065.043991999992
 20
13024.487359999979
 30
0.0
 11
18107.546234999991
 21
13024.487359999979
 31
0.0
  0
LINE
  5
6378
  8
SUNPOU
  6
CONTINUOUS
 62
     4
 10
18065.043991999992
 20
13290.17200999998
 30
0.0
 11
18065.043991999992
 21
12544.487359999979
 31
0.0
  0
LINE
  5
6379
  8
SUNPOU
  6
CONTINUOUS
 62
     4
 10
25700.04927099996
 20
13290.17200999998
 30
0.0
 11
25700.04927099996
 21
12544.487359999979
 31
0.0
  0
LINE
  5
637A
  8
SUNPOU
  6
CONTINUOUS
 62
     4
 10
18065.043991999992
 20
12624.487359999979
 30
0.0
 11
25700.04927099996
 21
12624.487359999979
 31
0.0
  0
LINE
  5
637B
  8
SUNPOU
  6
CONTINUOUS
 62
     4
 10
25822.547554999961
 20
14753.93544399999
 30
0.0
 11
26872.548874999949
 21
14753.93544399999
 31
0.0
  0
LINE
  5
637C
  8
SUNPOU
  6
CONTINUOUS
 62
     4
 10
26672.548874999949
 20
13995.935443999981
 30
0.0
 11
26872.548874999949
 21
13995.935443999981
 31
0.0
  0
LINE
  5
637D
  8
SUNPOU
  6
CONTINUOUS
 62
     4
 10
26792.548874999949
 20
14753.93544399999
 30
0.0
 11
26792.548874999949
 21
13995.935443999981
 31
0.0
  0
LINE
  5
637E
  8
SUNPOU
  6
CONTINUOUS
 62
     4
 10
25822.547554999961
 20
15455.175955500001
 30
0.0
 11
26872.548874999949
 21
15455.175955500001
 31
0.0
  0
LINE
  5
637F
  8
SUNPOU
  6
CONTINUOUS
 62
     4
 10
25822.547554999961
 20
14753.93544399999
 30
0.0
 11
26872.548874999949
 21
14753.93544399999
 31
0.0
  0
LINE
  5
6380
  8
SUNPOU
  6
CONTINUOUS
 62
     4
 10
26792.548874999949
 20
15455.175955500001
 30
0.0
 11
26792.548874999949
 21
14753.93544399999
 31
0.0
  0
LINE
  5
6381
  8
SUNPOU
  6
CONTINUOUS
 62
     4
 10
25822.547554999961
 20
16155.93544399999
 30
0.0
 11
26872.548874999949
 21
16155.93544399999
 31
0.0
  0
LINE
  5
6382
  8
SUNPOU
  6
CONTINUOUS
 62
     4
 10
25822.547554999961
 20
15455.175955500001
 30
0.0
 11
26872.548874999949
 21
15455.175955500001
 31
0.0
  0
LINE
  5
6383
  8
SUNPOU
  6
CONTINUOUS
 62
     4
 10
26792.548874999949
 20
16155.93544399999
 30
0.0
 11
26792.548874999949
 21
15455.175955500001
 31
0.0
  0
LINE
  5
6384
  8
SUNPOU
  6
CONTINUOUS
 62
     4
 10
26672.548874999949
 20
16913.935443999992
 30
0.0
 11
26872.548874999949
 21
16913.935443999992
 31
0.0
  0
LINE
  5
6385
  8
SUNPOU
  6
CONTINUOUS
 62
     4
 10
25822.547554999961
 20
16155.93544399999
 30
0.0
 11
26872.548874999949
 21
16155.93544399999
 31
0.0
  0
LINE
  5
6386
  8
SUNPOU
  6
CONTINUOUS
 62
     4
 10
26792.548874999949
 20
16913.935443999992
 30
0.0
 11
26792.548874999949
 21
16155.93544399999
 31
0.0
  0
LINE
  5
6387
  8
SUNPOU
  6
CONTINUOUS
 62
     4
 10
25822.547554999961
 20
17671.935443999992
 30
0.0
 11
26872.548874999949
 21
17671.935443999992
 31
0.0
  0
LINE
  5
6388
  8
SUNPOU
  6
CONTINUOUS
 62
     4
 10
26672.548874999949
 20
16913.935443999992
 30
0.0
 11
26872.548874999949
 21
16913.935443999992
 31
0.0
  0
LINE
  5
6389
  8
SUNPOU
  6
CONTINUOUS
 62
     4
 10
26792.548874999949
 20
17671.935443999992
 30
0.0
 11
26792.548874999949
 21
16913.935443999992
 31
0.0
  0
LINE
  5
638A
  8
SUNPOU
  6
CONTINUOUS
 62
     4
 10
25822.547554999961
 20
18372.935443999992
 30
0.0
 11
26872.548874999949
 21
18372.935443999992
 31
0.0
  0
LINE
  5
638B
  8
SUNPOU
  6
CONTINUOUS
 62
     4
 10
25822.547554999961
 20
17671.935443999992
 30
0.0
 11
26872.548874999949
 21
17671.935443999992
 31
0.0
  0
LINE
  5
638C
  8
SUNPOU
  6
CONTINUOUS
 62
     4
 10
26792.548874999949
 20
18372.935443999992
 30
0.0
 11
26792.548874999949
 21
17671.935443999992
 31
0.0
  0
LINE
  5
638D
  8
SUNPOU
  6
CONTINUOUS
 62
     4
 10
25822.547554999961
 20
19073.935443999992
 30
0.0
 11
26872.548874999949
 21
19073.935443999992
 31
0.0
  0
LINE
  5
638E
  8
SUNPOU
  6
CONTINUOUS
 62
     4
 10
25822.547554999961
 20
18372.935443999992
 30
0.0
 11
26872.548874999949
 21
18372.935443999992
 31
0.0
  0
LINE
  5
638F
  8
SUNPOU
  6
CONTINUOUS
 62
     4
 10
26792.548874999949
 20
19073.935443999992
 30
0.0
 11
26792.548874999949
 21
18372.935443999992
 31
0.0
  0
LINE
  5
6390
  8
SUNPOU
  6
CONTINUOUS
 62
     4
 10
26672.548874999949
 20
16913.935443999992
 30
0.0
 11
27272.54887499996
 21
16913.935443999992
 31
0.0
  0
LINE
  5
6391
  8
SUNPOU
  6
CONTINUOUS
 62
     4
 10
26672.548874999949
 20
19481.435443999981
 30
0.0
 11
27272.54887499996
 21
19481.435443999981
 31
0.0
  0
LINE
  5
6392
  8
SUNPOU
  6
CONTINUOUS
 62
     4
 10
27192.548874999949
 20
16913.935443999992
 30
0.0
 11
27192.548874999949
 21
19481.435443999981
 31
0.0
  0
LINE
  5
6393
  8
SUNPOU
  6
CONTINUOUS
 62
     4
 10
26672.548874999949
 20
13995.935443999981
 30
0.0
 11
27272.54887499996
 21
13995.935443999981
 31
0.0
  0
LINE
  5
6394
  8
SUNPOU
  6
CONTINUOUS
 62
     4
 10
26672.548874999949
 20
16913.935443999992
 30
0.0
 11
27272.54887499996
 21
16913.935443999992
 31
0.0
  0
LINE
  5
6395
  8
SUNPOU
  6
CONTINUOUS
 62
     4
 10
27192.548874999949
 20
13995.935443999981
 30
0.0
 11
27192.548874999949
 21
16913.935443999992
 31
0.0
  0
LINE
  5
6396
  8
SUNPOU
  6
CONTINUOUS
 62
     4
 10
25822.547554999961
 20
19523.932738999982
 30
0.0
 11
27672.54887499996
 21
19523.932738999982
 31
0.0
  0
LINE
  5
6397
  8
SUNPOU
  6
CONTINUOUS
 62
     4
 10
25822.547554999961
 20
13953.438148999991
 30
0.0
 11
27672.54887499996
 21
13953.438148999991
 31
0.0
  0
LINE
  5
6398
  8
SUNPOU
  6
CONTINUOUS
 62
     4
 10
27592.54887499996
 20
19523.932738999982
 30
0.0
 11
27592.54887499996
 21
13953.438148999991
 31
0.0
  0
LINE
  5
6399
  8
SUNPOU
  6
CONTINUOUS
 62
     4
 10
26672.548874999949
 20
19481.435443999981
 30
0.0
 11
27272.54887499996
 21
19481.435443999981
 31
0.0
  0
LINE
  5
639A
  8
SUNPOU
  6
CONTINUOUS
 62
     4
 10
25822.547554999961
 20
19523.932738999982
 30
0.0
 11
27272.54887499996
 21
19523.932738999982
 31
0.0
  0
LINE
  5
639B
  8
SUNPOU
  6
CONTINUOUS
 62
     4
 10
27192.548874999949
 20
19481.435443999981
 30
0.0
 11
27192.548874999949
 21
19241.435443999981
 31
0.0
  0
LINE
  5
639C
  8
SUNPOU
  6
CONTINUOUS
 62
     4
 10
27192.548874999949
 20
19523.932738999982
 30
0.0
 11
27192.548874999949
 21
19763.932738999989
 31
0.0
  0
LINE
  5
639D
  8
SUNPOU
  6
CONTINUOUS
 62
     4
 10
27192.548874999949
 20
19481.435443999981
 30
0.0
 11
27192.548874999949
 21
19523.932738999982
 31
0.0
  0
LINE
  5
639E
  8
SUNPOU
  6
CONTINUOUS
 62
     4
 10
26672.548874999949
 20
13995.935443999981
 30
0.0
 11
27272.54887499996
 21
13995.935443999981
 31
0.0
  0
LINE
  5
639F
  8
SUNPOU
  6
CONTINUOUS
 62
     4
 10
25822.547554999961
 20
13953.438148999991
 30
0.0
 11
27272.54887499996
 21
13953.438148999991
 31
0.0
  0
LINE
  5
63A0
  8
SUNPOU
  6
CONTINUOUS
 62
     4
 10
27192.548874999949
 20
13995.935443999981
 30
0.0
 11
27192.548874999949
 21
14235.93544399999
 31
0.0
  0
LINE
  5
63A1
  8
SUNPOU
  6
CONTINUOUS
 62
     4
 10
27192.548874999949
 20
13953.438148999991
 30
0.0
 11
27192.548874999949
 21
13713.438148999991
 31
0.0
  0
LINE
  5
63A2
  8
SUNPOU
  6
CONTINUOUS
 62
     4
 10
27192.548874999949
 20
13995.935443999981
 30
0.0
 11
27192.548874999949
 21
13953.438148999991
 31
0.0
  0
LINE
  5
63A3
  8
SUNPOU
  6
CONTINUOUS
 62
     4
 10
20632.544981499999
 20
19603.933729
 30
0.0
 11
20632.544981499999
 21
20333.936632000001
 31
0.0
  0
LINE
  5
63A4
  8
SUNPOU
  6
CONTINUOUS
 62
     4
 10
23132.54927099996
 20
19603.933729
 30
0.0
 11
23132.54927099996
 21
20333.936632000001
 31
0.0
  0
LINE
  5
63A5
  8
SUNPOU
  6
CONTINUOUS
 62
     4
 10
20632.544981499999
 20
20253.936632000001
 30
0.0
 11
23132.54927099996
 21
20253.936632000001
 31
0.0
  0
LINE
  5
63A6
  8
SUNPOU
  6
CONTINUOUS
 62
     4
 10
23132.54927099996
 20
19603.933729
 30
0.0
 11
23132.54927099996
 21
20333.936632000001
 31
0.0
  0
LINE
  5
63A7
  8
SUNPOU
  6
CONTINUOUS
 62
     4
 10
23540.04927099996
 20
19603.933729
 30
0.0
 11
23540.04927099996
 21
20333.936632000001
 31
0.0
  0
LINE
  5
63A8
  8
SUNPOU
  6
CONTINUOUS
 62
     4
 10
23132.54927099996
 20
20253.936632000001
 30
0.0
 11
23540.04927099996
 21
20253.936632000001
 31
0.0
  0
LINE
  5
63A9
  8
SUNPOU
  6
CONTINUOUS
 62
     4
 10
24942.04927099996
 20
19603.933729
 30
0.0
 11
24942.04927099996
 21
20333.936632000001
 31
0.0
  0
LINE
  5
63AA
  8
SUNPOU
  6
CONTINUOUS
 62
     4
 10
25700.050260499971
 20
19603.933729
 30
0.0
 11
25700.050260499971
 21
20333.936632000001
 31
0.0
  0
LINE
  5
63AB
  8
SUNPOU
  6
CONTINUOUS
 62
     4
 10
24942.04927099996
 20
20253.936632000001
 30
0.0
 11
25700.050260499971
 21
20253.936632000001
 31
0.0
  0
LINE
  5
63AC
  8
SUNPOU
  6
CONTINUOUS
 62
     4
 10
24241.049270999971
 20
19603.933729
 30
0.0
 11
24241.049270999971
 21
20333.936632000001
 31
0.0
  0
LINE
  5
63AD
  8
SUNPOU
  6
CONTINUOUS
 62
     4
 10
24942.04927099996
 20
19603.933729
 30
0.0
 11
24942.04927099996
 21
20333.936632000001
 31
0.0
  0
LINE
  5
63AE
  8
SUNPOU
  6
CONTINUOUS
 62
     4
 10
24241.049270999971
 20
20253.936632000001
 30
0.0
 11
24942.04927099996
 21
20253.936632000001
 31
0.0
  0
LINE
  5
63AF
  8
SUNPOU
  6
CONTINUOUS
 62
     4
 10
23540.04927099996
 20
19603.933729
 30
0.0
 11
23540.04927099996
 21
20333.936632000001
 31
0.0
  0
LINE
  5
63B0
  8
SUNPOU
  6
CONTINUOUS
 62
     4
 10
24241.049270999971
 20
19603.933729
 30
0.0
 11
24241.049270999971
 21
20333.936632000001
 31
0.0
  0
LINE
  5
63B1
  8
SUNPOU
  6
CONTINUOUS
 62
     4
 10
23540.04927099996
 20
20253.936632000001
 30
0.0
 11
24241.049270999971
 21
20253.936632000001
 31
0.0
  0
LINE
  5
63B2
  8
SUNPOU
  6
CONTINUOUS
 62
     4
 10
25700.04927099996
 20
19603.933729
 30
0.0
 11
25700.04927099996
 21
20333.936632000001
 31
0.0
  0
LINE
  5
63B3
  8
SUNPOU
  6
CONTINUOUS
 62
     4
 10
25742.54557599996
 20
19603.933729
 30
0.0
 11
25742.54557599996
 21
20333.936632000001
 31
0.0
  0
LINE
  5
63B4
  8
SUNPOU
  6
CONTINUOUS
 62
     4
 10
25700.04927099996
 20
20253.936632000001
 30
0.0
 11
25460.04927099996
 21
20253.936632000001
 31
0.0
  0
LINE
  5
63B5
  8
SUNPOU
  6
CONTINUOUS
 62
     4
 10
25742.54557599996
 20
20253.936632000001
 30
0.0
 11
25982.54557599996
 21
20253.936632000001
 31
0.0
  0
LINE
  5
63B6
  8
SUNPOU
  6
CONTINUOUS
 62
     4
 10
25700.04927099996
 20
20253.936632000001
 30
0.0
 11
25742.54557599996
 21
20253.936632000001
 31
0.0
  0
LINE
  5
63B7
  8
SUNPOU
  6
CONTINUOUS
 62
     4
 10
18065.043991999992
 20
19603.933729
 30
0.0
 11
18065.043991999992
 21
20333.936632000001
 31
0.0
  0
LINE
  5
63B8
  8
SUNPOU
  6
CONTINUOUS
 62
     4
 10
18472.543991999992
 20
19603.933729
 30
0.0
 11
18472.543991999992
 21
20333.936632000001
 31
0.0
  0
LINE
  5
63B9
  8
SUNPOU
  6
CONTINUOUS
 62
     4
 10
18065.043991999992
 20
20253.936632000001
 30
0.0
 11
18472.543991999992
 21
20253.936632000001
 31
0.0
  0
LINE
  5
63BA
  8
SUNPOU
  6
CONTINUOUS
 62
     4
 10
18065.043991999992
 20
19603.933729
 30
0.0
 11
18065.043991999992
 21
20333.936632000001
 31
0.0
  0
LINE
  5
63BB
  8
SUNPOU
  6
CONTINUOUS
 62
     4
 10
18022.547686999991
 20
19603.933729
 30
0.0
 11
18022.547686999991
 21
20333.936632000001
 31
0.0
  0
LINE
  5
63BC
  8
SUNPOU
  6
CONTINUOUS
 62
     4
 10
18065.043991999992
 20
20253.936632000001
 30
0.0
 11
18305.043991999992
 21
20253.936632000001
 31
0.0
  0
LINE
  5
63BD
  8
SUNPOU
  6
CONTINUOUS
 62
     4
 10
18022.547686999991
 20
20253.936632000001
 30
0.0
 11
17782.547686999991
 21
20253.936632000001
 31
0.0
  0
LINE
  5
63BE
  8
SUNPOU
  6
CONTINUOUS
 62
     4
 10
18065.043991999992
 20
20253.936632000001
 30
0.0
 11
18022.547686999991
 21
20253.936632000001
 31
0.0
  0
LINE
  5
63BF
  8
SUNPOU
  6
CONTINUOUS
 62
     4
 10
19874.543991999992
 20
19603.933729
 30
0.0
 11
19874.543991999992
 21
20333.936632000001
 31
0.0
  0
LINE
  5
63C0
  8
SUNPOU
  6
CONTINUOUS
 62
     4
 10
20632.544981499999
 20
19603.933729
 30
0.0
 11
20632.544981499999
 21
20333.936632000001
 31
0.0
  0
LINE
  5
63C1
  8
SUNPOU
  6
CONTINUOUS
 62
     4
 10
19874.543991999992
 20
20253.936632000001
 30
0.0
 11
20632.544981499999
 21
20253.936632000001
 31
0.0
  0
LINE
  5
63C2
  8
SUNPOU
  6
CONTINUOUS
 62
     4
 10
19173.543991999992
 20
19603.933729
 30
0.0
 11
19173.543991999992
 21
20333.936632000001
 31
0.0
  0
LINE
  5
63C3
  8
SUNPOU
  6
CONTINUOUS
 62
     4
 10
19874.543991999992
 20
19603.933729
 30
0.0
 11
19874.543991999992
 21
20333.936632000001
 31
0.0
  0
LINE
  5
63C4
  8
SUNPOU
  6
CONTINUOUS
 62
     4
 10
19173.543991999992
 20
20253.936632000001
 30
0.0
 11
19874.543991999992
 21
20253.936632000001
 31
0.0
  0
LINE
  5
63C5
  8
SUNPOU
  6
CONTINUOUS
 62
     4
 10
18472.543991999992
 20
19603.933729
 30
0.0
 11
18472.543991999992
 21
20333.936632000001
 31
0.0
  0
LINE
  5
63C6
  8
SUNPOU
  6
CONTINUOUS
 62
     4
 10
19173.543991999992
 20
19603.933729
 30
0.0
 11
19173.543991999992
 21
20333.936632000001
 31
0.0
  0
LINE
  5
63C7
  8
SUNPOU
  6
CONTINUOUS
 62
     4
 10
18472.543991999992
 20
20253.936632000001
 30
0.0
 11
19173.543991999992
 21
20253.936632000001
 31
0.0
  0
LINE
  5
63C8
  8
SUNPOU
  6
CONTINUOUS
 62
     4
 10
17935.043333000001
 20
5884.5023850000016
 30
0.0
 11
17135.04465199999
 21
5884.5023850000016
 31
0.0
  0
LINE
  5
63C9
  8
SUNPOU
  6
CONTINUOUS
 62
     4
 10
17935.043333000001
 20
7776.0023850000016
 30
0.0
 11
17135.04465199999
 21
7776.0023850000016
 31
0.0
  0
LINE
  5
63CA
  8
SUNPOU
  6
CONTINUOUS
 62
     4
 10
17215.04465199999
 20
5884.5023850000016
 30
0.0
 11
17215.04465199999
 21
7776.0023850000016
 31
0.0
  0
LINE
  5
63CB
  8
SUNPOU
  6
CONTINUOUS
 62
     4
 10
17935.043333000001
 20
5884.5023850000016
 30
0.0
 11
16735.04234299999
 21
5884.5023850000016
 31
0.0
  0
LINE
  5
63CC
  8
SUNPOU
  6
CONTINUOUS
 62
     4
 10
17902.543596999982
 20
8233.0018899999941
 30
0.0
 11
16735.04234299999
 21
8233.0018899999941
 31
0.0
  0
LINE
  5
63CD
  8
SUNPOU
  6
CONTINUOUS
 62
     4
 10
16815.04234299999
 20
5884.5023850000016
 30
0.0
 11
16815.04234299999
 21
8233.0018899999941
 31
0.0
  0
LINE
  5
63DE
  8
SUNPOU
  6
CONTINUOUS
 62
     4
 10
18159.043991999992
 20
5704.5025500000083
 30
0.0
 11
18159.043991999992
 21
4904.5025500000093
 31
0.0
  0
LINE
  5
63DF
  8
SUNPOU
  6
CONTINUOUS
 62
     4
 10
20538.543991999992
 20
5704.5025500000083
 30
0.0
 11
20538.543991999992
 21
4904.5025500000093
 31
0.0
  0
LINE
  5
63E0
  8
SUNPOU
  6
CONTINUOUS
 62
     4
 10
18159.043991999992
 20
4984.5025500000093
 30
0.0
 11
20538.543991999992
 21
4984.5025500000093
 31
0.0
  0
LINE
  5
63E1
  8
SUNPOU
  6
CONTINUOUS
 62
     4
 10
23226.54927099996
 20
5704.5025500000083
 30
0.0
 11
23226.54927099996
 21
4904.5025500000093
 31
0.0
  0
LINE
  5
63E2
  8
SUNPOU
  6
CONTINUOUS
 62
     4
 10
25606.04927099996
 20
5704.5025500000083
 30
0.0
 11
25606.04927099996
 21
4904.5025500000093
 31
0.0
  0
LINE
  5
63E3
  8
SUNPOU
  6
CONTINUOUS
 62
     4
 10
23226.54927099996
 20
4984.5025500000093
 30
0.0
 11
25606.04927099996
 21
4984.5025500000093
 31
0.0
  0
LINE
  5
63E4
  8
SUNPOU
  6
CONTINUOUS
 62
     4
 10
23132.54927099996
 20
5441.8501270000033
 30
0.0
 11
23132.54927099996
 21
4504.5025500000047
 31
0.0
  0
LINE
  5
63E5
  8
SUNPOU
  6
CONTINUOUS
 62
     4
 10
25700.04927099996
 20
5441.8501270000033
 30
0.0
 11
25700.04927099996
 21
4504.5025500000047
 31
0.0
  0
LINE
  5
63E6
  8
SUNPOU
  6
CONTINUOUS
 62
     4
 10
23132.54927099996
 20
4584.5025500000056
 30
0.0
 11
25700.04927099996
 21
4584.5025500000056
 31
0.0
  0
LINE
  5
63E7
  8
SUNPOU
  6
CONTINUOUS
 62
     4
 10
20632.543991999992
 20
5441.8501270000033
 30
0.0
 11
20632.543991999992
 21
4504.5025500000047
 31
0.0
  0
LINE
  5
63E8
  8
SUNPOU
  6
CONTINUOUS
 62
     4
 10
23132.54927099996
 20
5441.8501270000033
 30
0.0
 11
23132.54927099996
 21
4504.5025500000047
 31
0.0
  0
LINE
  5
63E9
  8
SUNPOU
  6
CONTINUOUS
 62
     4
 10
20632.543991999992
 20
4584.5025500000056
 30
0.0
 11
23132.54927099996
 21
4584.5025500000056
 31
0.0
  0
LINE
  5
63EA
  8
SUNPOU
  6
CONTINUOUS
 62
     4
 10
18065.043991999992
 20
5441.8501270000033
 30
0.0
 11
18065.043991999992
 21
4504.5025500000047
 31
0.0
  0
LINE
  5
63EB
  8
SUNPOU
  6
CONTINUOUS
 62
     4
 10
20632.543991999992
 20
5441.8501270000033
 30
0.0
 11
20632.543991999992
 21
4504.5025500000047
 31
0.0
  0
LINE
  5
63EC
  8
SUNPOU
  6
CONTINUOUS
 62
     4
 10
18065.043991999992
 20
4584.5025500000056
 30
0.0
 11
20632.543991999992
 21
4584.5025500000056
 31
0.0
  0
LINE
  5
63ED
  8
SUNPOU
  6
CONTINUOUS
 62
     4
 10
25700.053229999961
 20
5441.8501270000033
 30
0.0
 11
25700.053229999961
 21
4504.5025500000047
 31
0.0
  0
LINE
  5
63EE
  8
SUNPOU
  6
CONTINUOUS
 62
     4
 10
25742.55322999998
 20
5704.5025500000083
 30
0.0
 11
25742.55322999998
 21
4504.5025500000047
 31
0.0
  0
LINE
  5
63EF
  8
SUNPOU
  6
CONTINUOUS
 62
     4
 10
25700.053229999961
 20
4584.5025500000056
 30
0.0
 11
25460.053229999961
 21
4584.5025500000056
 31
0.0
  0
LINE
  5
63F0
  8
SUNPOU
  6
CONTINUOUS
 62
     4
 10
25742.55322999998
 20
4584.5025500000056
 30
0.0
 11
25982.55322999998
 21
4584.5025500000056
 31
0.0
  0
LINE
  5
63F1
  8
SUNPOU
  6
CONTINUOUS
 62
     4
 10
25700.053229999961
 20
4584.5025500000056
 30
0.0
 11
25742.55322999998
 21
4584.5025500000056
 31
0.0
  0
LINE
  5
63F2
  8
SUNPOU
  6
CONTINUOUS
 62
     4
 10
18065.043991999992
 20
5441.8501270000033
 30
0.0
 11
18065.043991999992
 21
4504.5025500000047
 31
0.0
  0
LINE
  5
63F3
  8
SUNPOU
  6
CONTINUOUS
 62
     4
 10
18022.543991999992
 20
5704.5025500000083
 30
0.0
 11
18022.543991999992
 21
4504.5025500000047
 31
0.0
  0
LINE
  5
63F4
  8
SUNPOU
  6
CONTINUOUS
 62
     4
 10
18065.043991999992
 20
4584.5025500000056
 30
0.0
 11
18305.043991999992
 21
4584.5025500000056
 31
0.0
  0
LINE
  5
63F5
  8
SUNPOU
  6
CONTINUOUS
 62
     4
 10
18022.543991999992
 20
4584.5025500000056
 30
0.0
 11
17782.543991999992
 21
4584.5025500000056
 31
0.0
  0
LINE
  5
63F6
  8
SUNPOU
  6
CONTINUOUS
 62
     4
 10
18065.043991999992
 20
4584.5025500000056
 30
0.0
 11
18022.543991999992
 21
4584.5025500000056
 31
0.0
  0
LINE
  5
63F7
  8
SUNPOU
  6
CONTINUOUS
 62
     4
 10
18022.543991999992
 20
5704.5025500000083
 30
0.0
 11
18022.543991999992
 21
4104.5027150000033
 31
0.0
  0
LINE
  5
63F8
  8
SUNPOU
  6
CONTINUOUS
 62
     4
 10
25742.549270999971
 20
5704.5025500000083
 30
0.0
 11
25742.549270999971
 21
4104.5027150000033
 31
0.0
  0
LINE
  5
63F9
  8
SUNPOU
  6
CONTINUOUS
 62
     4
 10
18022.543991999992
 20
4184.5027150000033
 30
0.0
 11
25742.549270999971
 21
4184.5027150000033
 31
0.0
  0
LINE
  5
63FA
  8
SUNPOU
  6
CONTINUOUS
 62
     4
 10
6656.1481469999999
 20
7991.688655683809
 30
0.0
 11
6656.1481469999999
 21
9112.5045560000017
 31
0.0
  0
LINE
  5
63FB
  8
SUNPOU
  6
CONTINUOUS
 62
     4
 10
6476.1481469999999
 20
8121.5028800000064
 30
0.0
 11
6476.1481469999999
 21
9112.5045560000017
 31
0.0
  0
LINE
  5
63FC
  8
SUNPOU
  6
CONTINUOUS
 62
     4
 10
6656.1481469999999
 20
9032.5045560000017
 30
0.0
 11
6476.1481469999999
 21
9032.5045560000017
 31
0.0
  0
LINE
  5
63FD
  8
SUNPOU
  6
CONTINUOUS
 62
     4
 10
12319.148147
 20
5884.5028800000018
 30
0.0
 11
13396.64656299998
 21
5884.5028800000018
 31
0.0
  0
LINE
  5
63FE
  8
SUNPOU
  6
CONTINUOUS
 62
     4
 10
12411.45342659937
 20
8233.0028800000018
 30
0.0
 11
13396.64656299998
 21
8233.0028800000018
 31
0.0
  0
LINE
  5
63FF
  8
SUNPOU
  6
CONTINUOUS
 62
     4
 10
13316.64656299998
 20
5884.5028800000018
 30
0.0
 11
13316.64656299998
 21
8233.0028800000018
 31
0.0
  0
LINE
  5
6400
  8
SUNPOU
  6
CONTINUOUS
 62
     4
 10
6526.1492020000087
 20
5884.5028800000018
 30
0.0
 11
5486.1497290000079
 21
5884.5028800000018
 31
0.0
  0
LINE
  5
6401
  8
SUNPOU
  6
CONTINUOUS
 62
     4
 10
6396.1501250000038
 20
8040.5028800000027
 30
0.0
 11
5486.1497290000079
 21
8040.5028800000073
 31
0.0
  0
LINE
  5
6402
  8
SUNPOU
  6
CONTINUOUS
 62
     4
 10
5566.149729000007
 20
5884.5028800000018
 30
0.0
 11
5566.1497290000088
 21
8040.5028800000073
 31
0.0
  0
LINE
  5
6403
  8
SUNPOU
  6
CONTINUOUS
 62
     4
 10
6476.1481469999999
 20
8121.5028800000064
 30
0.0
 11
6476.1481469999999
 21
9512.5029059999997
 31
0.0
  0
LINE
  5
6404
  8
SUNPOU
  6
CONTINUOUS
 62
     4
 10
12376.648147
 20
8253.3927034124335
 30
0.0
 11
12376.648147
 21
9512.5029059999997
 31
0.0
  0
LINE
  5
6405
  8
SUNPOU
  6
CONTINUOUS
 62
     4
 10
6476.1481469999999
 20
9432.5029060000015
 30
0.0
 11
12376.648147
 21
9432.5029060000015
 31
0.0
  0
LINE
  5
6406
  8
SUNPOU
  6
CONTINUOUS
 62
     4
 10
12226.648147
 20
8179.4129440000024
 30
0.0
 11
12226.648147
 21
9112.5045560000017
 31
0.0
  0
LINE
  5
6407
  8
SUNPOU
  6
CONTINUOUS
 62
     4
 10
12376.648147
 20
8253.3927034124335
 30
0.0
 11
12376.648147
 21
9112.5045560000017
 31
0.0
  0
LINE
  5
6408
  8
SUNPOU
  6
CONTINUOUS
 62
     4
 10
12226.648147
 20
9032.5045560000017
 30
0.0
 11
11986.648147
 21
9032.5045560000017
 31
0.0
  0
LINE
  5
6409
  8
SUNPOU
  6
CONTINUOUS
 62
     4
 10
12376.648147
 20
9032.5045560000017
 30
0.0
 11
12616.648147
 21
9032.5045560000017
 31
0.0
  0
LINE
  5
640A
  8
SUNPOU
  6
CONTINUOUS
 62
     4
 10
12226.648147
 20
9032.5045560000017
 30
0.0
 11
12376.648147
 21
9032.5045560000017
 31
0.0
  0
LINE
  5
640B
  8
SUNPOU
  6
CONTINUOUS
 62
     4
 10
6656.1481469999999
 20
7991.688655683809
 30
0.0
 11
6656.1481469999999
 21
9112.5045560000017
 31
0.0
  0
LINE
  5
640C
  8
SUNPOU
  6
CONTINUOUS
 62
     4
 10
12226.648147
 20
8179.4129440000024
 30
0.0
 11
12226.648147
 21
9112.5045560000017
 31
0.0
  0
LINE
  5
640D
  8
SUNPOU
  6
CONTINUOUS
 62
     4
 10
6656.1481469999999
 20
9032.5045560000017
 30
0.0
 11
12226.648147
 21
9032.5045560000017
 31
0.0
  0
LINE
  5
640E
  8
SUNPOU
  6
CONTINUOUS
 62
     4
 10
6656.1481469999999
 20
5804.5028800000036
 30
0.0
 11
6656.1481469999999
 21
4104.5032100000062
 31
0.0
  0
LINE
  5
640F
  8
SUNPOU
  6
CONTINUOUS
 62
     4
 10
12226.648147
 20
5804.5028800000036
 30
0.0
 11
12226.648147
 21
4104.5032100000062
 31
0.0
  0
LINE
  5
6410
  8
SUNPOU
  6
CONTINUOUS
 62
     4
 10
6656.1481469999999
 20
4184.5032100000053
 30
0.0
 11
12226.648147
 21
4184.5032100000053
 31
0.0
  0
LINE
  5
6411
  8
SUNPOU
  6
CONTINUOUS
 62
     4
 10
12184.148147
 20
5441.8506220000036
 30
0.0
 11
12184.148147
 21
4504.5030450000031
 31
0.0
  0
LINE
  5
6412
  8
SUNPOU
  6
CONTINUOUS
 62
     4
 10
12226.648147
 20
5804.5028800000036
 30
0.0
 11
12226.648147
 21
4504.5030450000031
 31
0.0
  0
LINE
  5
6413
  8
SUNPOU
  6
CONTINUOUS
 62
     4
 10
12184.148147
 20
4584.5030450000031
 30
0.0
 11
11944.148146999991
 21
4584.5030450000031
 31
0.0
  0
LINE
  5
6414
  8
SUNPOU
  6
CONTINUOUS
 62
     4
 10
12226.648147
 20
4584.5030450000031
 30
0.0
 11
12466.648147
 21
4584.5030450000031
 31
0.0
  0
LINE
  5
6415
  8
SUNPOU
  6
CONTINUOUS
 62
     4
 10
12184.148147
 20
4584.5030450000031
 30
0.0
 11
12226.648147
 21
4584.5030450000031
 31
0.0
  0
LINE
  5
6416
  8
SUNPOU
  6
CONTINUOUS
 62
     4
 10
6698.6481469999999
 20
5441.8506220000036
 30
0.0
 11
6698.6481469999999
 21
4504.5030450000031
 31
0.0
  0
LINE
  5
6417
  8
SUNPOU
  6
CONTINUOUS
 62
     4
 10
6656.1481469999999
 20
5804.5028800000036
 30
0.0
 11
6656.1481469999999
 21
4504.5030450000031
 31
0.0
  0
LINE
  5
6418
  8
SUNPOU
  6
CONTINUOUS
 62
     4
 10
6698.6481469999999
 20
4584.5030450000031
 30
0.0
 11
6938.6481470000008
 21
4584.5030450000031
 31
0.0
  0
LINE
  5
6419
  8
SUNPOU
  6
CONTINUOUS
 62
     4
 10
6656.1481469999999
 20
4584.5030450000031
 30
0.0
 11
6416.1481469999999
 21
4584.5030450000031
 31
0.0
  0
LINE
  5
641A
  8
SUNPOU
  6
CONTINUOUS
 62
     4
 10
6698.6481469999999
 20
4584.5030450000031
 30
0.0
 11
6656.1481469999999
 21
4584.5030450000031
 31
0.0
  0
LINE
  5
641B
  8
SUNPOU
  6
CONTINUOUS
 62
     4
 10
9266.1481469999999
 20
5441.8506220000036
 30
0.0
 11
9266.1481469999999
 21
4504.5030450000031
 31
0.0
  0
LINE
  5
641C
  8
SUNPOU
  6
CONTINUOUS
 62
     4
 10
6698.6481469999999
 20
5441.8506220000036
 30
0.0
 11
6698.6481469999999
 21
4504.5030450000031
 31
0.0
  0
LINE
  5
641D
  8
SUNPOU
  6
CONTINUOUS
 62
     4
 10
9266.1481469999999
 20
4584.5030450000031
 30
0.0
 11
6698.6481469999999
 21
4584.5030450000031
 31
0.0
  0
LINE
  5
641E
  8
SUNPOU
  6
CONTINUOUS
 62
     4
 10
9266.1481469999999
 20
5441.8506220000036
 30
0.0
 11
9266.1481469999999
 21
4504.5030450000031
 31
0.0
  0
LINE
  5
641F
  8
SUNPOU
  6
CONTINUOUS
 62
     4
 10
12184.148147
 20
5441.8506220000036
 30
0.0
 11
12184.148147
 21
4504.5030450000031
 31
0.0
  0
LINE
  5
6420
  8
SUNPOU
  6
CONTINUOUS
 62
     4
 10
9266.1481469999999
 20
4584.5030450000031
 30
0.0
 11
12184.148147
 21
4584.5030450000031
 31
0.0
  0
LINE
  5
6421
  8
0
  6
CONTINUOUS
 10
27320.61169951249
 20
4013.2342825977748
 30
0.0
 11
32662.906701964599
 21
4013.2342825977748
 31
0.0
  0
LINE
  5
6422
  8
0
  6
CONTINUOUS
 10
32662.906701964599
 20
4013.2342825977748
 30
0.0
 11
32662.906701964599
 21
2658.9883116968108
 31
0.0
  0
LINE
  5
6423
  8
0
  6
CONTINUOUS
 10
32662.906701964599
 20
2658.9883116968108
 30
0.0
 11
27320.61169951249
 21
2658.9883116968108
 31
0.0
  0
LINE
  5
6424
  8
0
  6
CONTINUOUS
 10
27320.61169951249
 20
2658.9883116968108
 30
0.0
 11
27320.61169951249
 21
4013.2342825977748
 31
0.0
  0
TEXT
  5
6425
  8
0
  6
CONTINUOUS
 62
     7
 10
10458.48148033333
 20
4664.5030450000022
 30
0.0
 40
160.0
  1
2918
  0
TEXT
  5
6426
  8
0
  6
CONTINUOUS
 62
     7
 10
7582.3981470000008
 20
4664.5030450000022
 30
0.0
 40
160.0
  1
2567.5
  0
TEXT
  5
6427
  8
0
  6
CONTINUOUS
 62
     7
 10
6058.974437903692
 20
4664.5030450000022
 30
0.0
 40
160.0
  1
42.5
  0
TEXT
  5
6428
  8
0
  6
CONTINUOUS
 62
     7
 10
12364.96678430982
 20
4664.5030450000022
 30
0.0
 40
160.0
  1
42.5
  0
TEXT
  5
6429
  8
0
  6
CONTINUOUS
 62
     7
 10
9054.731480333332
 20
4264.5032100000053
 30
0.0
 40
160.0
  1
5570.5
  0
TEXT
  5
642A
  8
0
  6
CONTINUOUS
 62
     7
 10
9054.731480333332
 20
9112.5045560000017
 30
0.0
 40
160.0
  1
5570.5
  0
TEXT
  5
642B
  8
0
  6
CONTINUOUS
 62
     7
 10
12443.31481366666
 20
9112.5045560000017
 30
0.0
 40
160.0
  1
150
  0
TEXT
  5
642C
  8
0
  6
CONTINUOUS
 62
     7
 10
9053.0648136666623
 20
9512.5029059999997
 30
0.0
 40
160.0
  1
5900.5
  0
TEXT
  5
642D
  8
0
  6
CONTINUOUS
 62
     7
 10
5486.1497290000061
 20
6183.8362133333367
 30
0.0
 40
160.0
  1
2156（2396）
 50
90.0
  0
TEXT
  5
642E
  8
0
  6
CONTINUOUS
 62
     7
 10
13236.64656299998
 20
6040.0862133333376
 30
0.0
 40
160.0
  1
2348.5（2588.5）
 50
90.0
  0
TEXT
  5
642F
  8
0
  6
CONTINUOUS
 62
     7
 10
6015.1947763486342
 20
9112.5045560000017
 30
0.0
 40
160.0
  1
180
  0
TEXT
  5
6430
  8
0
  6
CONTINUOUS
 62
     7
 10
20842.546631499968
 20
4264.5027150000033
 30
0.0
 40
160.0
  1
2567.5 \U+00D7 ｎ ＋ 85
  0
TEXT
  5
6431
  8
0
  6
CONTINUOUS
 62
     7
 10
17456.505001741141
 20
4664.5025500000074
 30
0.0
 40
160.0
  1
42.5
  0
TEXT
  5
6432
  8
0
  6
CONTINUOUS
 62
     7
 10
25828.592220258819
 20
4664.5025500000074
 30
0.0
 40
160.0
  1
42.5
  0
TEXT
  5
6433
  8
0
  6
CONTINUOUS
 62
     7
 10
18948.793991999992
 20
4664.5025500000074
 30
0.0
 40
160.0
  1
2567.5
  0
TEXT
  5
6434
  8
0
  6
CONTINUOUS
 62
     7
 10
20778.546631499968
 20
4664.5025500000074
 30
0.0
 40
160.0
  1
2567.5 \U+00D7（ｎ － 2）
  0
TEXT
  5
6435
  8
0
  6
CONTINUOUS
 62
     7
 10
24016.299270999971
 20
4664.5025500000074
 30
0.0
 40
160.0
  1
2567.5
  0
TEXT
  5
6436
  8
0
  6
CONTINUOUS
 62
     7
 10
23488.29927099996
 20
5064.5025500000102
 30
0.0
 40
160.0
  1
有効開口巾 2379.5
  0
TEXT
  5
6437
  8
0
  6
CONTINUOUS
 62
     7
 10
18420.793991999992
 20
5064.5025500000102
 30
0.0
 40
160.0
  1
有効開口巾 2379.5
  0
TEXT
  5
643C
  8
0
  6
CONTINUOUS
 62
     7
 10
16735.04234299999
 20
6040.0854708333363
 30
0.0
 40
160.0
  1
2348.5（2588.5）
 50
90.0
  0
TEXT
  5
643D
  8
0
  6
CONTINUOUS
 62
     7
 10
17135.04465199999
 20
5948.4816232912772
 30
0.0
 40
160.0
  1
有効開口高サ 1891.5
 50
90.0
  0
TEXT
  5
643E
  8
0
  6
CONTINUOUS
 62
     7
 10
18649.710658666649
 20
20013.936632000001
 30
0.0
 40
160.0
  1
701
  0
TEXT
  5
643F
  8
0
  6
CONTINUOUS
 62
     7
 10
19350.71065866666
 20
20333.936632000001
 30
0.0
 40
160.0
  1
701
  0
TEXT
  5
6440
  8
0
  6
CONTINUOUS
 62
     7
 10
20040.211153416669
 20
20333.936632000001
 30
0.0
 40
160.0
  1
758
  0
TEXT
  5
6441
  8
0
  6
CONTINUOUS
 62
     7
 10
17462.232012471191
 20
20333.936632000001
 30
0.0
 40
160.0
  1
42.5
  0
TEXT
  5
6442
  8
0
  6
CONTINUOUS
 62
     7
 10
18165.877325333309
 20
20333.936632000001
 30
0.0
 40
160.0
  1
407.5
  0
TEXT
  5
6443
  8
0
  6
CONTINUOUS
 62
     7
 10
25822.861250528771
 20
20333.936632000001
 30
0.0
 40
160.0
  1
42.5
  0
TEXT
  5
6444
  8
0
  6
CONTINUOUS
 62
     7
 10
23717.215937666639
 20
20013.936632000001
 30
0.0
 40
160.0
  1
701
  0
TEXT
  5
6445
  8
0
  6
CONTINUOUS
 62
     7
 10
24418.215937666631
 20
20333.936632000001
 30
0.0
 40
160.0
  1
701
  0
TEXT
  5
6446
  8
0
  6
CONTINUOUS
 62
     7
 10
25107.716432416641
 20
20333.936632000001
 30
0.0
 40
160.0
  1
758
  0
TEXT
  5
6447
  8
0
  6
CONTINUOUS
 62
     7
 10
23233.382604333288
 20
20333.936632000001
 30
0.0
 40
160.0
  1
407.5
  0
TEXT
  5
6448
  8
0
  6
CONTINUOUS
 62
     7
 10
20778.547126249981
 20
20333.936632000001
 30
0.0
 40
160.0
  1
2567.5 \U+00D7（ｎ － 2）
  0
TEXT
  5
6449
  8
0
  6
CONTINUOUS
 62
     7
 10
27112.548874999949
 20
13379.88191260319
 30
0.0
 40
160.0
  1
42.5
 50
90.0
  0
TEXT
  5
644A
  8
0
  6
CONTINUOUS
 62
     7
 10
27112.548874999949
 20
19617.48897539678
 30
0.0
 40
160.0
  1
42.5
 50
90.0
  0
TEXT
  5
644B
  8
0
  6
CONTINUOUS
 62
     7
 10
27512.54887499996
 20
16352.01877733332
 30
0.0
 40
160.0
  1
5570.5
 50
90.0
  0
TEXT
  5
644C
  8
0
  6
CONTINUOUS
 62
     7
 10
27112.548874999949
 20
15188.26877733332
 30
0.0
 40
160.0
  1
2918
 50
90.0
  0
TEXT
  5
644D
  8
0
  6
CONTINUOUS
 62
     7
 10
27112.548874999949
 20
17797.685443999992
 30
0.0
 40
160.0
  1
2567.5
 50
90.0
  0
TEXT
  5
644E
  8
0
  6
CONTINUOUS
 62
     7
 10
26712.548874999949
 20
18550.102110666649
 30
0.0
 40
160.0
  1
701
 50
90.0
  0
TEXT
  5
644F
  8
0
  6
CONTINUOUS
 62
     7
 10
26712.548874999949
 20
17849.102110666649
 30
0.0
 40
160.0
  1
701
 50
90.0
  0
TEXT
  5
6450
  8
0
  6
CONTINUOUS
 62
     7
 10
26712.548874999949
 20
17079.602110666659
 30
0.0
 40
160.0
  1
758
 50
90.0
  0
TEXT
  5
6451
  8
0
  6
CONTINUOUS
 62
     7
 10
26712.548874999949
 20
16321.602110666659
 30
0.0
 40
160.0
  1
758
 50
90.0
  0
TEXT
  5
6452
  8
0
  6
CONTINUOUS
 62
     7
 10
26712.548874999949
 20
15632.22236641665
 30
0.0
 40
160.0
  1
701
 50
90.0
  0
TEXT
  5
6453
  8
0
  6
CONTINUOUS
 62
     7
 10
26712.548874999949
 20
14931.222366416659
 30
0.0
 40
160.0
  1
701
 50
90.0
  0
TEXT
  5
6454
  8
0
  6
CONTINUOUS
 62
     7
 10
26712.548874999949
 20
14161.602110666659
 30
0.0
 40
160.0
  1
758
 50
90.0
  0
TEXT
  5
6455
  8
0
  6
CONTINUOUS
 62
     7
 10
21226.546631499968
 20
12704.487359999979
 30
0.0
 40
160.0
  1
2567.5 x n
  0
TEXT
  5
6456
  8
0
  6
CONTINUOUS
 62
     7
 10
18183.09766438208
 20
13104.487359999979
 30
0.0
 40
160.0
  1
42.5
  0
TEXT
  5
6457
  8
0
  6
CONTINUOUS
 62
     7
 10
25101.995598617879
 20
13104.487359999979
 30
0.0
 40
160.0
  1
42.5
  0
TEXT
  5
6458
  8
0
  6
CONTINUOUS
 62
     7
 10
17055.589414999991
 20
14458.88903308332
 30
0.0
 40
160.0
  1
1459
 50
90.0
  0
TEXT
  5
6459
  8
0
  6
CONTINUOUS
 62
     7
 10
17055.589414999991
 20
15917.88903308332
 30
0.0
 40
160.0
  1
1459
 50
90.0
  0
TEXT
  5
645A
  8
0
  6
CONTINUOUS
 62
     7
 10
17055.589414999991
 20
17376.768777333298
 30
0.0
 40
160.0
  1
1459
 50
90.0
  0
TEXT
  5
645B
  8
0
  6
CONTINUOUS
 62
     7
 10
17055.589414999991
 20
18593.852110666641
 30
0.0
 40
160.0
  1
1108.5
 50
90.0
  0
TEXT
  5
645C
  8
0
  6
CONTINUOUS
 62
     7
 10
27072.548874999949
 20
18783.313411643201
 30
0.0
 40
160.0
  1
407.5
 50
90.0
  0
TEXT
  5
645D
  8
0
  6
CONTINUOUS
 62
     7
 10
4941.3429176495074
 20
17376.768777333298
 30
0.0
 40
160.0
  1
1459
 50
90.0
  0
TEXT
  5
645E
  8
0
  6
CONTINUOUS
 62
     7
 10
4941.3429176495074
 20
18593.852110666641
 30
0.0
 40
160.0
  1
1108.5
 50
90.0
  0
TEXT
  5
645F
  8
0
  6
CONTINUOUS
 62
     7
 10
4941.3429176495074
 20
19792.890628807661
 30
0.0
 40
160.0
  1
222.5
 50
90.0
  0
TEXT
  5
6460
  8
0
  6
CONTINUOUS
 62
     7
 10
5341.3429176495092
 20
19823.931353
 30
0.0
 40
160.0
  1
20
 50
90.0
  0
TEXT
  5
6461
  8
0
  6
CONTINUOUS
 62
     7
 10
4941.3429176495074
 20
15917.88903308332
 30
0.0
 40
160.0
  1
1459
 50
90.0
  0
TEXT
  5
6462
  8
0
  6
CONTINUOUS
 62
     7
 10
4941.3429176495074
 20
14458.88903308332
 30
0.0
 40
160.0
  1
1459
 50
90.0
  0
TEXT
  5
6463
  8
0
  6
CONTINUOUS
 62
     7
 10
4941.3429176495047
 20
13187.9824337026
 30
0.0
 40
160.0
  1
192.5
 50
90.0
  0
TEXT
  5
6464
  8
0
  6
CONTINUOUS
 62
     7
 10
11960.088464649511
 20
20403.938348000022
 30
0.0
 40
160.0
  1
2567.5
  0
TEXT
  5
6465
  8
0
  6
CONTINUOUS
 62
     7
 10
13780.33517067277
 20
20403.938348000022
 30
0.0
 40
160.0
  1
85.5
  0
TEXT
  5
6466
  8
0
  6
CONTINUOUS
 62
     7
 10
8693.3398366495112
 20
20403.938348000022
 30
0.0
 40
160.0
  1
2567.5 \U+00D7（ｎ － 2）
  0
TEXT
  5
6467
  8
0
  6
CONTINUOUS
 62
     7
 10
6834.5912086495118
 20
20403.938348000022
 30
0.0
 40
160.0
  1
2567.5
  0
TEXT
  5
6468
  8
0
  6
CONTINUOUS
 62
     7
 10
5334.344502626247
 20
20403.938348000022
 30
0.0
 40
160.0
  1
85.5
  0
TEXT
  5
6469
  8
0
  6
CONTINUOUS
 62
     7
 10
8986.6731699828488
 20
12704.487359999979
 30
0.0
 40
160.0
  1
2567.5  \U+00D7　ｎ
  0
ARC
  5
646A
  8
0
  6
BYBLOCK
 62
     0
 10
5950.8412086495127
 20
12624.487359999979
 30
0.0
 40
15.0
 50
0.0
 51
180.0
  0
ARC
  5
646B
  8
0
  6
BYBLOCK
 62
     0
 10
5950.8412086495127
 20
12624.487359999979
 30
0.0
 40
15.0
 50
180.0
 51
0.0
  0
ARC
  5
646C
  8
0
  6
BYBLOCK
 62
     0
 10
13643.838464649511
 20
12624.487359999979
 30
0.0
 40
15.0
 50
180.0
 51
0.0
  0
ARC
  5
646D
  8
0
  6
BYBLOCK
 62
     0
 10
13643.838464649511
 20
12624.487359999979
 30
0.0
 40
15.0
 50
0.0
 51
180.0
  0
ARC
  5
646E
  8
0
  6
BYBLOCK
 62
     0
 10
5950.8412086495118
 20
20323.938348000022
 30
0.0
 40
15.0
 50
0.0
 51
180.0
  0
ARC
  5
646F
  8
0
  6
BYBLOCK
 62
     0
 10
5950.8412086495118
 20
20323.938348000022
 30
0.0
 40
15.0
 50
180.0
 51
0.0
  0
ARC
  5
6470
  8
0
  6
BYBLOCK
 62
     0
 10
5865.34120864951
 20
20323.938348000022
 30
0.0
 40
15.0
 50
180.0
 51
0.0
  0
ARC
  5
6471
  8
0
  6
BYBLOCK
 62
     0
 10
5865.34120864951
 20
20323.938348000022
 30
0.0
 40
15.0
 50
0.0
 51
180.0
  0
ARC
  5
6472
  8
0
  6
BYBLOCK
 62
     0
 10
8518.3412086495136
 20
20323.938348000022
 30
0.0
 40
15.0
 50
180.0
 51
0.0
  0
ARC
  5
6473
  8
0
  6
BYBLOCK
 62
     0
 10
8518.3412086495136
 20
20323.938348000022
 30
0.0
 40
15.0
 50
0.0
 51
180.0
  0
ARC
  5
6474
  8
0
  6
BYBLOCK
 62
     0
 10
5950.8412086495118
 20
20323.938348000022
 30
0.0
 40
15.0
 50
0.0
 51
180.0
  0
ARC
  5
6475
  8
0
  6
BYBLOCK
 62
     0
 10
5950.8412086495118
 20
20323.938348000022
 30
0.0
 40
15.0
 50
180.0
 51
0.0
  0
ARC
  5
6476
  8
0
  6
BYBLOCK
 62
     0
 10
8518.3412086495136
 20
20323.938348000022
 30
0.0
 40
15.0
 50
0.0
 51
180.0
  0
ARC
  5
6477
  8
0
  6
BYBLOCK
 62
     0
 10
8518.3412086495136
 20
20323.938348000022
 30
0.0
 40
15.0
 50
180.0
 51
0.0
  0
ARC
  5
6478
  8
0
  6
BYBLOCK
 62
     0
 10
11076.338464649511
 20
20323.938348000022
 30
0.0
 40
15.0
 50
180.0
 51
0.0
  0
ARC
  5
6479
  8
0
  6
BYBLOCK
 62
     0
 10
11076.338464649511
 20
20323.938348000022
 30
0.0
 40
15.0
 50
0.0
 51
180.0
  0
ARC
  5
647A
  8
0
  6
BYBLOCK
 62
     0
 10
13643.838464649511
 20
20323.938348000022
 30
0.0
 40
15.0
 50
180.0
 51
0.0
  0
ARC
  5
647B
  8
0
  6
BYBLOCK
 62
     0
 10
13643.838464649511
 20
20323.938348000022
 30
0.0
 40
15.0
 50
0.0
 51
180.0
  0
ARC
  5
647C
  8
0
  6
BYBLOCK
 62
     0
 10
13729.338464649511
 20
20323.938348000022
 30
0.0
 40
15.0
 50
0.0
 51
180.0
  0
ARC
  5
647D
  8
0
  6
BYBLOCK
 62
     0
 10
13729.338464649511
 20
20323.938348000022
 30
0.0
 40
15.0
 50
180.0
 51
0.0
  0
ARC
  5
647E
  8
0
  6
BYBLOCK
 62
     0
 10
11076.338464649511
 20
20323.938348000022
 30
0.0
 40
15.0
 50
0.0
 51
180.0
  0
ARC
  5
647F
  8
0
  6
BYBLOCK
 62
     0
 10
11076.338464649511
 20
20323.938348000022
 30
0.0
 40
15.0
 50
180.0
 51
0.0
  0
ARC
  5
6480
  8
0
  6
BYBLOCK
 62
     0
 10
13643.838464649511
 20
20323.938348000022
 30
0.0
 40
15.0
 50
180.0
 51
0.0
  0
ARC
  5
6481
  8
0
  6
BYBLOCK
 62
     0
 10
13643.838464649511
 20
20323.938348000022
 30
0.0
 40
15.0
 50
0.0
 51
180.0
  0
ARC
  5
6482
  8
0
  6
BYBLOCK
 62
     0
 10
5021.3429176495092
 20
13995.935443999981
 30
0.0
 40
15.0
 50
270.0
 51
90.0
  0
ARC
  5
6483
  8
0
  6
BYBLOCK
 62
     0
 10
5021.3429176495092
 20
13995.935443999981
 30
0.0
 40
15.0
 50
90.0
 51
270.0
  0
ARC
  5
6484
  8
0
  6
BYBLOCK
 62
     0
 10
5021.3429176495092
 20
13803.44012899999
 30
0.0
 40
15.0
 50
90.0
 51
270.0
  0
ARC
  5
6485
  8
0
  6
BYBLOCK
 62
     0
 10
5021.3429176495092
 20
13803.44012899999
 30
0.0
 40
15.0
 50
270.0
 51
90.0
  0
ARC
  5
6486
  8
0
  6
BYBLOCK
 62
     0
 10
5021.3429176495092
 20
15455.175955500001
 30
0.0
 40
15.0
 50
270.0
 51
90.0
  0
ARC
  5
6487
  8
0
  6
BYBLOCK
 62
     0
 10
5021.3429176495092
 20
15455.175955500001
 30
0.0
 40
15.0
 50
90.0
 51
270.0
  0
ARC
  5
6488
  8
0
  6
BYBLOCK
 62
     0
 10
5021.3429176495092
 20
13995.935443999981
 30
0.0
 40
15.0
 50
90.0
 51
270.0
  0
ARC
  5
6489
  8
0
  6
BYBLOCK
 62
     0
 10
5021.3429176495092
 20
13995.935443999981
 30
0.0
 40
15.0
 50
270.0
 51
90.0
  0
ARC
  5
648A
  8
0
  6
BYBLOCK
 62
     0
 10
5021.3429176495092
 20
16913.935443999992
 30
0.0
 40
15.0
 50
270.0
 51
90.0
  0
ARC
  5
648B
  8
0
  6
BYBLOCK
 62
     0
 10
5021.3429176495092
 20
16913.935443999992
 30
0.0
 40
15.0
 50
90.0
 51
270.0
  0
ARC
  5
648C
  8
0
  6
BYBLOCK
 62
     0
 10
5021.3429176495092
 20
15455.175955500001
 30
0.0
 40
15.0
 50
90.0
 51
270.0
  0
ARC
  5
648D
  8
0
  6
BYBLOCK
 62
     0
 10
5021.3429176495092
 20
15455.175955500001
 30
0.0
 40
15.0
 50
270.0
 51
90.0
  0
ARC
  5
648E
  8
0
  6
BYBLOCK
 62
     0
 10
5421.3429176495083
 20
19683.931353
 30
0.0
 40
15.0
 50
270.0
 51
90.0
  0
ARC
  5
648F
  8
0
  6
BYBLOCK
 62
     0
 10
5421.3429176495083
 20
19683.931353
 30
0.0
 40
15.0
 50
90.0
 51
270.0
  0
ARC
  5
6490
  8
0
  6
BYBLOCK
 62
     0
 10
5421.3429176495083
 20
19703.931353
 30
0.0
 40
15.0
 50
90.0
 51
270.0
  0
ARC
  5
6491
  8
0
  6
BYBLOCK
 62
     0
 10
5421.3429176495083
 20
19703.931353
 30
0.0
 40
15.0
 50
270.0
 51
90.0
  0
ARC
  5
6492
  8
0
  6
BYBLOCK
 62
     0
 10
5021.3429176495101
 20
19481.435443999981
 30
0.0
 40
15.0
 50
90.0
 51
270.0
  0
ARC
  5
6493
  8
0
  6
BYBLOCK
 62
     0
 10
5021.3429176495101
 20
19481.435443999981
 30
0.0
 40
15.0
 50
270.0
 51
90.0
  0
ARC
  5
6494
  8
0
  6
BYBLOCK
 62
     0
 10
5021.3429176495101
 20
19703.931353
 30
0.0
 40
15.0
 50
270.0
 51
90.0
  0
ARC
  5
6495
  8
0
  6
BYBLOCK
 62
     0
 10
5021.3429176495101
 20
19703.931353
 30
0.0
 40
15.0
 50
90.0
 51
270.0
  0
ARC
  5
6496
  8
0
  6
BYBLOCK
 62
     0
 10
5021.3429176495092
 20
18372.935443999992
 30
0.0
 40
15.0
 50
90.0
 51
270.0
  0
ARC
  5
6497
  8
0
  6
BYBLOCK
 62
     0
 10
5021.3429176495092
 20
18372.935443999992
 30
0.0
 40
15.0
 50
270.0
 51
90.0
  0
ARC
  5
6498
  8
0
  6
BYBLOCK
 62
     0
 10
5021.3429176495101
 20
19481.435443999981
 30
0.0
 40
15.0
 50
270.0
 51
90.0
  0
ARC
  5
6499
  8
0
  6
BYBLOCK
 62
     0
 10
5021.3429176495101
 20
19481.435443999981
 30
0.0
 40
15.0
 50
90.0
 51
270.0
  0
ARC
  5
649A
  8
0
  6
BYBLOCK
 62
     0
 10
5021.3429176495092
 20
16913.935443999992
 30
0.0
 40
15.0
 50
90.0
 51
270.0
  0
ARC
  5
649B
  8
0
  6
BYBLOCK
 62
     0
 10
5021.3429176495092
 20
16913.935443999992
 30
0.0
 40
15.0
 50
270.0
 51
90.0
  0
ARC
  5
649C
  8
0
  6
BYBLOCK
 62
     0
 10
5021.3429176495092
 20
18372.935443999992
 30
0.0
 40
15.0
 50
270.0
 51
90.0
  0
ARC
  5
649D
  8
0
  6
BYBLOCK
 62
     0
 10
5021.3429176495092
 20
18372.935443999992
 30
0.0
 40
15.0
 50
90.0
 51
270.0
  0
ARC
  5
649E
  8
0
  6
BYBLOCK
 62
     0
 10
26792.548874999949
 20
19073.935443999992
 30
0.0
 40
15.0
 50
90.0
 51
270.0
  0
ARC
  5
649F
  8
0
  6
BYBLOCK
 62
     0
 10
26792.548874999949
 20
19073.935443999992
 30
0.0
 40
15.0
 50
270.0
 51
90.0
  0
ARC
  5
64A0
  8
0
  6
BYBLOCK
 62
     0
 10
26792.548874999949
 20
19481.435443999992
 30
0.0
 40
15.0
 50
270.0
 51
90.0
  0
ARC
  5
64A1
  8
0
  6
BYBLOCK
 62
     0
 10
26792.548874999949
 20
19481.435443999992
 30
0.0
 40
15.0
 50
90.0
 51
270.0
  0
ARC
  5
64A2
  8
0
  6
BYBLOCK
 62
     0
 10
17135.589414999991
 20
18372.935443999992
 30
0.0
 40
15.0
 50
90.0
 51
270.0
  0
ARC
  5
64A3
  8
0
  6
BYBLOCK
 62
     0
 10
17135.589414999991
 20
18372.935443999992
 30
0.0
 40
15.0
 50
270.0
 51
90.0
  0
ARC
  5
64A4
  8
0
  6
BYBLOCK
 62
     0
 10
17135.589414999991
 20
19481.435443999981
 30
0.0
 40
15.0
 50
270.0
 51
90.0
  0
ARC
  5
64A5
  8
0
  6
BYBLOCK
 62
     0
 10
17135.589414999991
 20
19481.435443999981
 30
0.0
 40
15.0
 50
90.0
 51
270.0
  0
ARC
  5
64A6
  8
0
  6
BYBLOCK
 62
     0
 10
17135.589414999991
 20
16913.935443999992
 30
0.0
 40
15.0
 50
90.0
 51
270.0
  0
ARC
  5
64A7
  8
0
  6
BYBLOCK
 62
     0
 10
17135.589414999991
 20
16913.935443999992
 30
0.0
 40
15.0
 50
270.0
 51
90.0
  0
ARC
  5
64A8
  8
0
  6
BYBLOCK
 62
     0
 10
17135.589414999991
 20
18372.935443999992
 30
0.0
 40
15.0
 50
270.0
 51
90.0
  0
ARC
  5
64A9
  8
0
  6
BYBLOCK
 62
     0
 10
17135.589414999991
 20
18372.935443999992
 30
0.0
 40
15.0
 50
90.0
 51
270.0
  0
ARC
  5
64AA
  8
0
  6
BYBLOCK
 62
     0
 10
17135.589414999991
 20
15455.175955500001
 30
0.0
 40
15.0
 50
90.0
 51
270.0
  0
ARC
  5
64AB
  8
0
  6
BYBLOCK
 62
     0
 10
17135.589414999991
 20
15455.175955500001
 30
0.0
 40
15.0
 50
270.0
 51
90.0
  0
ARC
  5
64AC
  8
0
  6
BYBLOCK
 62
     0
 10
17135.589414999991
 20
16913.935443999992
 30
0.0
 40
15.0
 50
270.0
 51
90.0
  0
ARC
  5
64AD
  8
0
  6
BYBLOCK
 62
     0
 10
17135.589414999991
 20
16913.935443999992
 30
0.0
 40
15.0
 50
90.0
 51
270.0
  0
ARC
  5
64AE
  8
0
  6
BYBLOCK
 62
     0
 10
17135.589414999991
 20
13995.935443999981
 30
0.0
 40
15.0
 50
90.0
 51
270.0
  0
ARC
  5
64AF
  8
0
  6
BYBLOCK
 62
     0
 10
17135.589414999991
 20
13995.935443999981
 30
0.0
 40
15.0
 50
270.0
 51
90.0
  0
ARC
  5
64B0
  8
0
  6
BYBLOCK
 62
     0
 10
17135.589414999991
 20
15455.175955500001
 30
0.0
 40
15.0
 50
270.0
 51
90.0
  0
ARC
  5
64B1
  8
0
  6
BYBLOCK
 62
     0
 10
17135.589414999991
 20
15455.175955500001
 30
0.0
 40
15.0
 50
90.0
 51
270.0
  0
ARC
  5
64B2
  8
0
  6
BYBLOCK
 62
     0
 10
25700.04927099996
 20
13024.487359999979
 30
0.0
 40
15.0
 50
0.0
 51
180.0
  0
ARC
  5
64B3
  8
0
  6
BYBLOCK
 62
     0
 10
25700.04927099996
 20
13024.487359999979
 30
0.0
 40
15.0
 50
180.0
 51
0.0
  0
ARC
  5
64B4
  8
0
  6
BYBLOCK
 62
     0
 10
25657.547027999961
 20
13024.487359999979
 30
0.0
 40
15.0
 50
180.0
 51
0.0
  0
ARC
  5
64B5
  8
0
  6
BYBLOCK
 62
     0
 10
25657.547027999961
 20
13024.487359999979
 30
0.0
 40
15.0
 50
0.0
 51
180.0
  0
ARC
  5
64B6
  8
0
  6
BYBLOCK
 62
     0
 10
18065.043991999992
 20
13024.487359999979
 30
0.0
 40
15.0
 50
180.0
 51
0.0
  0
ARC
  5
64B7
  8
0
  6
BYBLOCK
 62
     0
 10
18065.043991999992
 20
13024.487359999979
 30
0.0
 40
15.0
 50
0.0
 51
180.0
  0
ARC
  5
64B8
  8
0
  6
BYBLOCK
 62
     0
 10
18107.546234999991
 20
13024.487359999979
 30
0.0
 40
15.0
 50
0.0
 51
180.0
  0
ARC
  5
64B9
  8
0
  6
BYBLOCK
 62
     0
 10
18107.546234999991
 20
13024.487359999979
 30
0.0
 40
15.0
 50
180.0
 51
0.0
  0
ARC
  5
64BA
  8
0
  6
BYBLOCK
 62
     0
 10
18065.043991999992
 20
12624.487359999979
 30
0.0
 40
15.0
 50
0.0
 51
180.0
  0
ARC
  5
64BB
  8
0
  6
BYBLOCK
 62
     0
 10
18065.043991999992
 20
12624.487359999979
 30
0.0
 40
15.0
 50
180.0
 51
0.0
  0
ARC
  5
64BC
  8
0
  6
BYBLOCK
 62
     0
 10
25700.04927099996
 20
12624.487359999979
 30
0.0
 40
15.0
 50
180.0
 51
0.0
  0
ARC
  5
64BD
  8
0
  6
BYBLOCK
 62
     0
 10
25700.04927099996
 20
12624.487359999979
 30
0.0
 40
15.0
 50
0.0
 51
180.0
  0
ARC
  5
64BE
  8
0
  6
BYBLOCK
 62
     0
 10
26792.548874999949
 20
14753.93544399999
 30
0.0
 40
15.0
 50
270.0
 51
90.0
  0
ARC
  5
64BF
  8
0
  6
BYBLOCK
 62
     0
 10
26792.548874999949
 20
14753.93544399999
 30
0.0
 40
15.0
 50
90.0
 51
270.0
  0
ARC
  5
64C0
  8
0
  6
BYBLOCK
 62
     0
 10
26792.548874999949
 20
13995.935443999981
 30
0.0
 40
15.0
 50
90.0
 51
270.0
  0
ARC
  5
64C1
  8
0
  6
BYBLOCK
 62
     0
 10
26792.548874999949
 20
13995.935443999981
 30
0.0
 40
15.0
 50
270.0
 51
90.0
  0
ARC
  5
64C2
  8
0
  6
BYBLOCK
 62
     0
 10
26792.548874999949
 20
15455.175955500001
 30
0.0
 40
15.0
 50
270.0
 51
90.0
  0
ARC
  5
64C3
  8
0
  6
BYBLOCK
 62
     0
 10
26792.548874999949
 20
15455.175955500001
 30
0.0
 40
15.0
 50
90.0
 51
270.0
  0
ARC
  5
64C4
  8
0
  6
BYBLOCK
 62
     0
 10
26792.548874999949
 20
14753.93544399999
 30
0.0
 40
15.0
 50
90.0
 51
270.0
  0
ARC
  5
64C5
  8
0
  6
BYBLOCK
 62
     0
 10
26792.548874999949
 20
14753.93544399999
 30
0.0
 40
15.0
 50
270.0
 51
90.0
  0
ARC
  5
64C6
  8
0
  6
BYBLOCK
 62
     0
 10
26792.548874999949
 20
16155.93544399999
 30
0.0
 40
15.0
 50
270.0
 51
90.0
  0
ARC
  5
64C7
  8
0
  6
BYBLOCK
 62
     0
 10
26792.548874999949
 20
16155.93544399999
 30
0.0
 40
15.0
 50
90.0
 51
270.0
  0
ARC
  5
64C8
  8
0
  6
BYBLOCK
 62
     0
 10
26792.548874999949
 20
15455.175955500001
 30
0.0
 40
15.0
 50
90.0
 51
270.0
  0
ARC
  5
64C9
  8
0
  6
BYBLOCK
 62
     0
 10
26792.548874999949
 20
15455.175955500001
 30
0.0
 40
15.0
 50
270.0
 51
90.0
  0
ARC
  5
64CA
  8
0
  6
BYBLOCK
 62
     0
 10
26792.548874999949
 20
16913.935443999992
 30
0.0
 40
15.0
 50
270.0
 51
90.0
  0
ARC
  5
64CB
  8
0
  6
BYBLOCK
 62
     0
 10
26792.548874999949
 20
16913.935443999992
 30
0.0
 40
15.0
 50
90.0
 51
270.0
  0
ARC
  5
64CC
  8
0
  6
BYBLOCK
 62
     0
 10
26792.548874999949
 20
16155.93544399999
 30
0.0
 40
15.0
 50
90.0
 51
270.0
  0
ARC
  5
64CD
  8
0
  6
BYBLOCK
 62
     0
 10
26792.548874999949
 20
16155.93544399999
 30
0.0
 40
15.0
 50
270.0
 51
90.0
  0
ARC
  5
64CE
  8
0
  6
BYBLOCK
 62
     0
 10
26792.548874999949
 20
17671.935443999992
 30
0.0
 40
15.0
 50
270.0
 51
90.0
  0
ARC
  5
64CF
  8
0
  6
BYBLOCK
 62
     0
 10
26792.548874999949
 20
17671.935443999992
 30
0.0
 40
15.0
 50
90.0
 51
270.0
  0
ARC
  5
64D0
  8
0
  6
BYBLOCK
 62
     0
 10
26792.548874999949
 20
16913.935443999992
 30
0.0
 40
15.0
 50
90.0
 51
270.0
  0
ARC
  5
64D1
  8
0
  6
BYBLOCK
 62
     0
 10
26792.548874999949
 20
16913.935443999992
 30
0.0
 40
15.0
 50
270.0
 51
90.0
  0
ARC
  5
64D2
  8
0
  6
BYBLOCK
 62
     0
 10
26792.548874999949
 20
18372.935443999992
 30
0.0
 40
15.0
 50
270.0
 51
90.0
  0
ARC
  5
64D3
  8
0
  6
BYBLOCK
 62
     0
 10
26792.548874999949
 20
18372.935443999992
 30
0.0
 40
15.0
 50
90.0
 51
270.0
  0
ARC
  5
64D4
  8
0
  6
BYBLOCK
 62
     0
 10
26792.548874999949
 20
17671.935443999992
 30
0.0
 40
15.0
 50
90.0
 51
270.0
  0
ARC
  5
64D5
  8
0
  6
BYBLOCK
 62
     0
 10
26792.548874999949
 20
17671.935443999992
 30
0.0
 40
15.0
 50
270.0
 51
90.0
  0
ARC
  5
64D6
  8
0
  6
BYBLOCK
 62
     0
 10
26792.548874999949
 20
19073.935443999992
 30
0.0
 40
15.0
 50
270.0
 51
90.0
  0
ARC
  5
64D7
  8
0
  6
BYBLOCK
 62
     0
 10
26792.548874999949
 20
19073.935443999992
 30
0.0
 40
15.0
 50
90.0
 51
270.0
  0
ARC
  5
64D8
  8
0
  6
BYBLOCK
 62
     0
 10
26792.548874999949
 20
18372.935443999992
 30
0.0
 40
15.0
 50
90.0
 51
270.0
  0
ARC
  5
64D9
  8
0
  6
BYBLOCK
 62
     0
 10
26792.548874999949
 20
18372.935443999992
 30
0.0
 40
15.0
 50
270.0
 51
90.0
  0
ARC
  5
64DA
  8
0
  6
BYBLOCK
 62
     0
 10
27192.548874999949
 20
16913.935443999992
 30
0.0
 40
15.0
 50
90.0
 51
270.0
  0
ARC
  5
64DB
  8
0
  6
BYBLOCK
 62
     0
 10
27192.548874999949
 20
16913.935443999992
 30
0.0
 40
15.0
 50
270.0
 51
90.0
  0
ARC
  5
64DC
  8
0
  6
BYBLOCK
 62
     0
 10
27192.548874999949
 20
19481.435443999981
 30
0.0
 40
15.0
 50
270.0
 51
90.0
  0
ARC
  5
64DD
  8
0
  6
BYBLOCK
 62
     0
 10
27192.548874999949
 20
19481.435443999981
 30
0.0
 40
15.0
 50
90.0
 51
270.0
  0
ARC
  5
64DE
  8
0
  6
BYBLOCK
 62
     0
 10
27192.548874999949
 20
13995.935443999981
 30
0.0
 40
15.0
 50
90.0
 51
270.0
  0
ARC
  5
64DF
  8
0
  6
BYBLOCK
 62
     0
 10
27192.548874999949
 20
13995.935443999981
 30
0.0
 40
15.0
 50
270.0
 51
90.0
  0
ARC
  5
64E0
  8
0
  6
BYBLOCK
 62
     0
 10
27192.548874999949
 20
16913.935443999992
 30
0.0
 40
15.0
 50
270.0
 51
90.0
  0
ARC
  5
64E1
  8
0
  6
BYBLOCK
 62
     0
 10
27192.548874999949
 20
16913.935443999992
 30
0.0
 40
15.0
 50
90.0
 51
270.0
  0
ARC
  5
64E2
  8
0
  6
BYBLOCK
 62
     0
 10
27592.54887499996
 20
19523.932738999982
 30
0.0
 40
15.0
 50
270.0
 51
90.0
  0
ARC
  5
64E3
  8
0
  6
BYBLOCK
 62
     0
 10
27592.54887499996
 20
19523.932738999982
 30
0.0
 40
15.0
 50
90.0
 51
270.0
  0
ARC
  5
64E4
  8
0
  6
BYBLOCK
 62
     0
 10
27592.54887499996
 20
13953.438148999991
 30
0.0
 40
15.0
 50
90.0
 51
270.0
  0
ARC
  5
64E5
  8
0
  6
BYBLOCK
 62
     0
 10
27592.54887499996
 20
13953.438148999991
 30
0.0
 40
15.0
 50
270.0
 51
90.0
  0
ARC
  5
64E6
  8
0
  6
BYBLOCK
 62
     0
 10
27192.548874999949
 20
19481.435443999981
 30
0.0
 40
15.0
 50
270.0
 51
90.0
  0
ARC
  5
64E7
  8
0
  6
BYBLOCK
 62
     0
 10
27192.548874999949
 20
19481.435443999981
 30
0.0
 40
15.0
 50
90.0
 51
270.0
  0
ARC
  5
64E8
  8
0
  6
BYBLOCK
 62
     0
 10
27192.548874999949
 20
19523.932738999982
 30
0.0
 40
15.0
 50
90.0
 51
270.0
  0
ARC
  5
64E9
  8
0
  6
BYBLOCK
 62
     0
 10
27192.548874999949
 20
19523.932738999982
 30
0.0
 40
15.0
 50
270.0
 51
90.0
  0
ARC
  5
64EA
  8
0
  6
BYBLOCK
 62
     0
 10
27192.548874999949
 20
13995.935443999981
 30
0.0
 40
15.0
 50
90.0
 51
270.0
  0
ARC
  5
64EB
  8
0
  6
BYBLOCK
 62
     0
 10
27192.548874999949
 20
13995.935443999981
 30
0.0
 40
15.0
 50
270.0
 51
90.0
  0
ARC
  5
64EC
  8
0
  6
BYBLOCK
 62
     0
 10
27192.548874999949
 20
13953.438148999991
 30
0.0
 40
15.0
 50
270.0
 51
90.0
  0
ARC
  5
64ED
  8
0
  6
BYBLOCK
 62
     0
 10
27192.548874999949
 20
13953.438148999991
 30
0.0
 40
15.0
 50
90.0
 51
270.0
  0
ARC
  5
64EE
  8
0
  6
BYBLOCK
 62
     0
 10
20632.544981499999
 20
20253.936632000001
 30
0.0
 40
15.0
 50
0.0
 51
180.0
  0
ARC
  5
64EF
  8
0
  6
BYBLOCK
 62
     0
 10
20632.544981499999
 20
20253.936632000001
 30
0.0
 40
15.0
 50
180.0
 51
0.0
  0
ARC
  5
64F0
  8
0
  6
BYBLOCK
 62
     0
 10
23132.54927099996
 20
20253.936632000001
 30
0.0
 40
15.0
 50
180.0
 51
0.0
  0
ARC
  5
64F1
  8
0
  6
BYBLOCK
 62
     0
 10
23132.54927099996
 20
20253.936632000001
 30
0.0
 40
15.0
 50
0.0
 51
180.0
  0
ARC
  5
64F2
  8
0
  6
BYBLOCK
 62
     0
 10
23132.54927099996
 20
20253.936632000001
 30
0.0
 40
15.0
 50
0.0
 51
180.0
  0
ARC
  5
64F3
  8
0
  6
BYBLOCK
 62
     0
 10
23132.54927099996
 20
20253.936632000001
 30
0.0
 40
15.0
 50
180.0
 51
0.0
  0
ARC
  5
64F4
  8
0
  6
BYBLOCK
 62
     0
 10
23540.04927099996
 20
20253.936632000001
 30
0.0
 40
15.0
 50
180.0
 51
0.0
  0
ARC
  5
64F5
  8
0
  6
BYBLOCK
 62
     0
 10
23540.04927099996
 20
20253.936632000001
 30
0.0
 40
15.0
 50
0.0
 51
180.0
  0
ARC
  5
64F6
  8
0
  6
BYBLOCK
 62
     0
 10
24942.04927099996
 20
20253.936632000001
 30
0.0
 40
15.0
 50
0.0
 51
180.0
  0
ARC
  5
64F7
  8
0
  6
BYBLOCK
 62
     0
 10
24942.04927099996
 20
20253.936632000001
 30
0.0
 40
15.0
 50
180.0
 51
0.0
  0
ARC
  5
64F8
  8
0
  6
BYBLOCK
 62
     0
 10
25700.050260499971
 20
20253.936632000001
 30
0.0
 40
15.0
 50
180.0
 51
0.0
  0
ARC
  5
64F9
  8
0
  6
BYBLOCK
 62
     0
 10
25700.050260499971
 20
20253.936632000001
 30
0.0
 40
15.0
 50
0.0
 51
180.0
  0
ARC
  5
64FA
  8
0
  6
BYBLOCK
 62
     0
 10
24241.049270999971
 20
20253.936632000001
 30
0.0
 40
15.0
 50
0.0
 51
180.0
  0
ARC
  5
64FB
  8
0
  6
BYBLOCK
 62
     0
 10
24241.049270999971
 20
20253.936632000001
 30
0.0
 40
15.0
 50
180.0
 51
0.0
  0
ARC
  5
64FC
  8
0
  6
BYBLOCK
 62
     0
 10
24942.04927099996
 20
20253.936632000001
 30
0.0
 40
15.0
 50
180.0
 51
0.0
  0
ARC
  5
64FD
  8
0
  6
BYBLOCK
 62
     0
 10
24942.04927099996
 20
20253.936632000001
 30
0.0
 40
15.0
 50
0.0
 51
180.0
  0
ARC
  5
64FE
  8
0
  6
BYBLOCK
 62
     0
 10
23540.04927099996
 20
20253.936632000001
 30
0.0
 40
15.0
 50
0.0
 51
180.0
  0
ARC
  5
64FF
  8
0
  6
BYBLOCK
 62
     0
 10
23540.04927099996
 20
20253.936632000001
 30
0.0
 40
15.0
 50
180.0
 51
0.0
  0
ARC
  5
6500
  8
0
  6
BYBLOCK
 62
     0
 10
24241.049270999971
 20
20253.936632000001
 30
0.0
 40
15.0
 50
180.0
 51
0.0
  0
ARC
  5
6501
  8
0
  6
BYBLOCK
 62
     0
 10
24241.049270999971
 20
20253.936632000001
 30
0.0
 40
15.0
 50
0.0
 51
180.0
  0
ARC
  5
6502
  8
0
  6
BYBLOCK
 62
     0
 10
25700.04927099996
 20
20253.936632000001
 30
0.0
 40
15.0
 50
180.0
 51
0.0
  0
ARC
  5
6503
  8
0
  6
BYBLOCK
 62
     0
 10
25700.04927099996
 20
20253.936632000001
 30
0.0
 40
15.0
 50
0.0
 51
180.0
  0
ARC
  5
6504
  8
0
  6
BYBLOCK
 62
     0
 10
25742.54557599996
 20
20253.936632000001
 30
0.0
 40
15.0
 50
0.0
 51
180.0
  0
ARC
  5
6505
  8
0
  6
BYBLOCK
 62
     0
 10
25742.54557599996
 20
20253.936632000001
 30
0.0
 40
15.0
 50
180.0
 51
0.0
  0
ARC
  5
6506
  8
0
  6
BYBLOCK
 62
     0
 10
18065.043991999992
 20
20253.936632000001
 30
0.0
 40
15.0
 50
0.0
 51
180.0
  0
ARC
  5
6507
  8
0
  6
BYBLOCK
 62
     0
 10
18065.043991999992
 20
20253.936632000001
 30
0.0
 40
15.0
 50
180.0
 51
0.0
  0
ARC
  5
6508
  8
0
  6
BYBLOCK
 62
     0
 10
18472.543991999992
 20
20253.936632000001
 30
0.0
 40
15.0
 50
180.0
 51
0.0
  0
ARC
  5
6509
  8
0
  6
BYBLOCK
 62
     0
 10
18472.543991999992
 20
20253.936632000001
 30
0.0
 40
15.0
 50
0.0
 51
180.0
  0
ARC
  5
650A
  8
0
  6
BYBLOCK
 62
     0
 10
18065.043991999992
 20
20253.936632000001
 30
0.0
 40
15.0
 50
0.0
 51
180.0
  0
ARC
  5
650B
  8
0
  6
BYBLOCK
 62
     0
 10
18065.043991999992
 20
20253.936632000001
 30
0.0
 40
15.0
 50
180.0
 51
0.0
  0
ARC
  5
650C
  8
0
  6
BYBLOCK
 62
     0
 10
18022.547686999991
 20
20253.936632000001
 30
0.0
 40
15.0
 50
180.0
 51
0.0
  0
ARC
  5
650D
  8
0
  6
BYBLOCK
 62
     0
 10
18022.547686999991
 20
20253.936632000001
 30
0.0
 40
15.0
 50
0.0
 51
180.0
  0
ARC
  5
650E
  8
0
  6
BYBLOCK
 62
     0
 10
19874.543991999992
 20
20253.936632000001
 30
0.0
 40
15.0
 50
0.0
 51
180.0
  0
ARC
  5
650F
  8
0
  6
BYBLOCK
 62
     0
 10
19874.543991999992
 20
20253.936632000001
 30
0.0
 40
15.0
 50
180.0
 51
0.0
  0
ARC
  5
6510
  8
0
  6
BYBLOCK
 62
     0
 10
20632.544981499999
 20
20253.936632000001
 30
0.0
 40
15.0
 50
180.0
 51
0.0
  0
ARC
  5
6511
  8
0
  6
BYBLOCK
 62
     0
 10
20632.544981499999
 20
20253.936632000001
 30
0.0
 40
15.0
 50
0.0
 51
180.0
  0
ARC
  5
6512
  8
0
  6
BYBLOCK
 62
     0
 10
19173.543991999992
 20
20253.936632000001
 30
0.0
 40
15.0
 50
0.0
 51
180.0
  0
ARC
  5
6513
  8
0
  6
BYBLOCK
 62
     0
 10
19173.543991999992
 20
20253.936632000001
 30
0.0
 40
15.0
 50
180.0
 51
0.0
  0
ARC
  5
6514
  8
0
  6
BYBLOCK
 62
     0
 10
19874.543991999992
 20
20253.936632000001
 30
0.0
 40
15.0
 50
180.0
 51
0.0
  0
ARC
  5
6515
  8
0
  6
BYBLOCK
 62
     0
 10
19874.543991999992
 20
20253.936632000001
 30
0.0
 40
15.0
 50
0.0
 51
180.0
  0
ARC
  5
6516
  8
0
  6
BYBLOCK
 62
     0
 10
18472.543991999992
 20
20253.936632000001
 30
0.0
 40
15.0
 50
0.0
 51
180.0
  0
ARC
  5
6517
  8
0
  6
BYBLOCK
 62
     0
 10
18472.543991999992
 20
20253.936632000001
 30
0.0
 40
15.0
 50
180.0
 51
0.0
  0
ARC
  5
6518
  8
0
  6
BYBLOCK
 62
     0
 10
19173.543991999992
 20
20253.936632000001
 30
0.0
 40
15.0
 50
180.0
 51
0.0
  0
ARC
  5
6519
  8
0
  6
BYBLOCK
 62
     0
 10
19173.543991999992
 20
20253.936632000001
 30
0.0
 40
15.0
 50
0.0
 51
180.0
  0
ARC
  5
651A
  8
0
  6
BYBLOCK
 62
     0
 10
17215.04465199999
 20
5884.5023850000016
 30
0.0
 40
15.0
 50
90.0
 51
270.0
  0
ARC
  5
651B
  8
0
  6
BYBLOCK
 62
     0
 10
17215.04465199999
 20
5884.5023850000016
 30
0.0
 40
15.0
 50
270.0
 51
90.0
  0
ARC
  5
651C
  8
0
  6
BYBLOCK
 62
     0
 10
17215.04465199999
 20
7776.0023850000016
 30
0.0
 40
15.0
 50
270.0
 51
90.0
  0
ARC
  5
651D
  8
0
  6
BYBLOCK
 62
     0
 10
17215.04465199999
 20
7776.0023850000016
 30
0.0
 40
15.0
 50
90.0
 51
270.0
  0
ARC
  5
651E
  8
0
  6
BYBLOCK
 62
     0
 10
16815.04234299999
 20
5884.5023850000016
 30
0.0
 40
15.0
 50
90.0
 51
270.0
  0
ARC
  5
651F
  8
0
  6
BYBLOCK
 62
     0
 10
16815.04234299999
 20
5884.5023850000016
 30
0.0
 40
15.0
 50
270.0
 51
90.0
  0
ARC
  5
6520
  8
0
  6
BYBLOCK
 62
     0
 10
16815.04234299999
 20
8233.0018899999941
 30
0.0
 40
15.0
 50
270.0
 51
90.0
  0
ARC
  5
6521
  8
0
  6
BYBLOCK
 62
     0
 10
16815.04234299999
 20
8233.0018899999941
 30
0.0
 40
15.0
 50
90.0
 51
270.0
  0
ARC
  5
6532
  8
0
  6
BYBLOCK
 62
     0
 10
18159.043991999992
 20
4984.5025500000093
 30
0.0
 40
15.0
 50
0.0
 51
180.0
  0
ARC
  5
6533
  8
0
  6
BYBLOCK
 62
     0
 10
18159.043991999992
 20
4984.5025500000093
 30
0.0
 40
15.0
 50
180.0
 51
0.0
  0
ARC
  5
6534
  8
0
  6
BYBLOCK
 62
     0
 10
20538.543991999992
 20
4984.5025500000093
 30
0.0
 40
15.0
 50
180.0
 51
0.0
  0
ARC
  5
6535
  8
0
  6
BYBLOCK
 62
     0
 10
20538.543991999992
 20
4984.5025500000093
 30
0.0
 40
15.0
 50
0.0
 51
180.0
  0
ARC
  5
6536
  8
0
  6
BYBLOCK
 62
     0
 10
23226.54927099996
 20
4984.5025500000093
 30
0.0
 40
15.0
 50
0.0
 51
180.0
  0
ARC
  5
6537
  8
0
  6
BYBLOCK
 62
     0
 10
23226.54927099996
 20
4984.5025500000093
 30
0.0
 40
15.0
 50
180.0
 51
0.0
  0
ARC
  5
6538
  8
0
  6
BYBLOCK
 62
     0
 10
25606.04927099996
 20
4984.5025500000093
 30
0.0
 40
15.0
 50
180.0
 51
0.0
  0
ARC
  5
6539
  8
0
  6
BYBLOCK
 62
     0
 10
25606.04927099996
 20
4984.5025500000093
 30
0.0
 40
15.0
 50
0.0
 51
180.0
  0
ARC
  5
653A
  8
0
  6
BYBLOCK
 62
     0
 10
23132.54927099996
 20
4584.5025500000056
 30
0.0
 40
15.0
 50
0.0
 51
180.0
  0
ARC
  5
653B
  8
0
  6
BYBLOCK
 62
     0
 10
23132.54927099996
 20
4584.5025500000056
 30
0.0
 40
15.0
 50
180.0
 51
0.0
  0
ARC
  5
653C
  8
0
  6
BYBLOCK
 62
     0
 10
25700.04927099996
 20
4584.5025500000056
 30
0.0
 40
15.0
 50
180.0
 51
0.0
  0
ARC
  5
653D
  8
0
  6
BYBLOCK
 62
     0
 10
25700.04927099996
 20
4584.5025500000056
 30
0.0
 40
15.0
 50
0.0
 51
180.0
  0
ARC
  5
653E
  8
0
  6
BYBLOCK
 62
     0
 10
20632.543991999992
 20
4584.5025500000056
 30
0.0
 40
15.0
 50
0.0
 51
180.0
  0
ARC
  5
653F
  8
0
  6
BYBLOCK
 62
     0
 10
20632.543991999992
 20
4584.5025500000056
 30
0.0
 40
15.0
 50
180.0
 51
0.0
  0
ARC
  5
6540
  8
0
  6
BYBLOCK
 62
     0
 10
23132.54927099996
 20
4584.5025500000056
 30
0.0
 40
15.0
 50
180.0
 51
0.0
  0
ARC
  5
6541
  8
0
  6
BYBLOCK
 62
     0
 10
23132.54927099996
 20
4584.5025500000056
 30
0.0
 40
15.0
 50
0.0
 51
180.0
  0
ARC
  5
6542
  8
0
  6
BYBLOCK
 62
     0
 10
18065.043991999992
 20
4584.5025500000056
 30
0.0
 40
15.0
 50
0.0
 51
180.0
  0
ARC
  5
6543
  8
0
  6
BYBLOCK
 62
     0
 10
18065.043991999992
 20
4584.5025500000056
 30
0.0
 40
15.0
 50
180.0
 51
0.0
  0
ARC
  5
6544
  8
0
  6
BYBLOCK
 62
     0
 10
20632.543991999992
 20
4584.5025500000056
 30
0.0
 40
15.0
 50
180.0
 51
0.0
  0
ARC
  5
6545
  8
0
  6
BYBLOCK
 62
     0
 10
20632.543991999992
 20
4584.5025500000056
 30
0.0
 40
15.0
 50
0.0
 51
180.0
  0
ARC
  5
6546
  8
0
  6
BYBLOCK
 62
     0
 10
25700.053229999961
 20
4584.5025500000056
 30
0.0
 40
15.0
 50
180.0
 51
0.0
  0
ARC
  5
6547
  8
0
  6
BYBLOCK
 62
     0
 10
25700.053229999961
 20
4584.5025500000056
 30
0.0
 40
15.0
 50
0.0
 51
180.0
  0
ARC
  5
6548
  8
0
  6
BYBLOCK
 62
     0
 10
25742.55322999998
 20
4584.5025500000056
 30
0.0
 40
15.0
 50
0.0
 51
180.0
  0
ARC
  5
6549
  8
0
  6
BYBLOCK
 62
     0
 10
25742.55322999998
 20
4584.5025500000056
 30
0.0
 40
15.0
 50
180.0
 51
0.0
  0
ARC
  5
654A
  8
0
  6
BYBLOCK
 62
     0
 10
18065.043991999992
 20
4584.5025500000056
 30
0.0
 40
15.0
 50
0.0
 51
180.0
  0
ARC
  5
654B
  8
0
  6
BYBLOCK
 62
     0
 10
18065.043991999992
 20
4584.5025500000056
 30
0.0
 40
15.0
 50
180.0
 51
0.0
  0
ARC
  5
654C
  8
0
  6
BYBLOCK
 62
     0
 10
18022.543991999992
 20
4584.5025500000056
 30
0.0
 40
15.0
 50
180.0
 51
0.0
  0
ARC
  5
654D
  8
0
  6
BYBLOCK
 62
     0
 10
18022.543991999992
 20
4584.5025500000056
 30
0.0
 40
15.0
 50
0.0
 51
180.0
  0
ARC
  5
654E
  8
0
  6
BYBLOCK
 62
     0
 10
18022.543991999992
 20
4184.5027150000033
 30
0.0
 40
15.0
 50
0.0
 51
180.0
  0
ARC
  5
654F
  8
0
  6
BYBLOCK
 62
     0
 10
18022.543991999992
 20
4184.5027150000033
 30
0.0
 40
15.0
 50
180.0
 51
0.0
  0
ARC
  5
6550
  8
0
  6
BYBLOCK
 62
     0
 10
25742.549270999971
 20
4184.5027150000033
 30
0.0
 40
15.0
 50
180.0
 51
0.0
  0
ARC
  5
6551
  8
0
  6
BYBLOCK
 62
     0
 10
25742.549270999971
 20
4184.5027150000033
 30
0.0
 40
15.0
 50
0.0
 51
180.0
  0
ARC
  5
6552
  8
0
  6
BYBLOCK
 62
     0
 10
6656.1481469999999
 20
9032.5045560000017
 30
0.0
 40
15.0
 50
180.0
 51
0.0
  0
ARC
  5
6553
  8
0
  6
BYBLOCK
 62
     0
 10
6656.1481469999999
 20
9032.5045560000017
 30
0.0
 40
15.0
 50
0.0
 51
180.0
  0
ARC
  5
6554
  8
0
  6
BYBLOCK
 62
     0
 10
6476.1481469999999
 20
9032.5045560000017
 30
0.0
 40
15.0
 50
0.0
 51
180.0
  0
ARC
  5
6555
  8
0
  6
BYBLOCK
 62
     0
 10
6476.1481469999999
 20
9032.5045560000017
 30
0.0
 40
15.0
 50
180.0
 51
0.0
  0
ARC
  5
6556
  8
0
  6
BYBLOCK
 62
     0
 10
13316.64656299998
 20
5884.5028800000018
 30
0.0
 40
15.0
 50
90.0
 51
270.0
  0
ARC
  5
6557
  8
0
  6
BYBLOCK
 62
     0
 10
13316.64656299998
 20
5884.5028800000018
 30
0.0
 40
15.0
 50
270.0
 51
90.0
  0
ARC
  5
6558
  8
0
  6
BYBLOCK
 62
     0
 10
13316.64656299998
 20
8233.0028800000018
 30
0.0
 40
15.0
 50
270.0
 51
90.0
  0
ARC
  5
6559
  8
0
  6
BYBLOCK
 62
     0
 10
13316.64656299998
 20
8233.0028800000018
 30
0.0
 40
15.0
 50
90.0
 51
270.0
  0
ARC
  5
655A
  8
0
  6
BYBLOCK
 62
     0
 10
5566.149729000007
 20
5884.5028800000018
 30
0.0
 40
15.0
 50
90.0
 51
270.0
  0
ARC
  5
655B
  8
0
  6
BYBLOCK
 62
     0
 10
5566.149729000007
 20
5884.5028800000018
 30
0.0
 40
15.0
 50
270.0
 51
90.0
  0
ARC
  5
655C
  8
0
  6
BYBLOCK
 62
     0
 10
5566.1497290000088
 20
8040.5028800000073
 30
0.0
 40
15.0
 50
270.0
 51
90.0
  0
ARC
  5
655D
  8
0
  6
BYBLOCK
 62
     0
 10
5566.1497290000088
 20
8040.5028800000073
 30
0.0
 40
15.0
 50
90.0
 51
270.0
  0
ARC
  5
655E
  8
0
  6
BYBLOCK
 62
     0
 10
6476.1481469999999
 20
9432.5029060000015
 30
0.0
 40
15.0
 50
0.0
 51
180.0
  0
ARC
  5
655F
  8
0
  6
BYBLOCK
 62
     0
 10
6476.1481469999999
 20
9432.5029060000015
 30
0.0
 40
15.0
 50
180.0
 51
0.0
  0
ARC
  5
6560
  8
0
  6
BYBLOCK
 62
     0
 10
12376.648147
 20
9432.5029060000015
 30
0.0
 40
15.0
 50
180.0
 51
0.0
  0
ARC
  5
6561
  8
0
  6
BYBLOCK
 62
     0
 10
12376.648147
 20
9432.5029060000015
 30
0.0
 40
15.0
 50
0.0
 51
180.0
  0
ARC
  5
6562
  8
0
  6
BYBLOCK
 62
     0
 10
12226.648147
 20
9032.5045560000017
 30
0.0
 40
15.0
 50
180.0
 51
0.0
  0
ARC
  5
6563
  8
0
  6
BYBLOCK
 62
     0
 10
12226.648147
 20
9032.5045560000017
 30
0.0
 40
15.0
 50
0.0
 51
180.0
  0
ARC
  5
6564
  8
0
  6
BYBLOCK
 62
     0
 10
12376.648147
 20
9032.5045560000017
 30
0.0
 40
15.0
 50
0.0
 51
180.0
  0
ARC
  5
6565
  8
0
  6
BYBLOCK
 62
     0
 10
12376.648147
 20
9032.5045560000017
 30
0.0
 40
15.0
 50
180.0
 51
0.0
  0
ARC
  5
6566
  8
0
  6
BYBLOCK
 62
     0
 10
6656.1481469999999
 20
9032.5045560000017
 30
0.0
 40
15.0
 50
0.0
 51
180.0
  0
ARC
  5
6567
  8
0
  6
BYBLOCK
 62
     0
 10
6656.1481469999999
 20
9032.5045560000017
 30
0.0
 40
15.0
 50
180.0
 51
0.0
  0
ARC
  5
6568
  8
0
  6
BYBLOCK
 62
     0
 10
12226.648147
 20
9032.5045560000017
 30
0.0
 40
15.0
 50
180.0
 51
0.0
  0
ARC
  5
6569
  8
0
  6
BYBLOCK
 62
     0
 10
12226.648147
 20
9032.5045560000017
 30
0.0
 40
15.0
 50
0.0
 51
180.0
  0
ARC
  5
656A
  8
0
  6
BYBLOCK
 62
     0
 10
6656.1481469999999
 20
4184.5032100000053
 30
0.0
 40
15.0
 50
0.0
 51
180.0
  0
ARC
  5
656B
  8
0
  6
BYBLOCK
 62
     0
 10
6656.1481469999999
 20
4184.5032100000053
 30
0.0
 40
15.0
 50
180.0
 51
0.0
  0
ARC
  5
656C
  8
0
  6
BYBLOCK
 62
     0
 10
12226.648147
 20
4184.5032100000053
 30
0.0
 40
15.0
 50
180.0
 51
0.0
  0
ARC
  5
656D
  8
0
  6
BYBLOCK
 62
     0
 10
12226.648147
 20
4184.5032100000053
 30
0.0
 40
15.0
 50
0.0
 51
180.0
  0
ARC
  5
656E
  8
0
  6
BYBLOCK
 62
     0
 10
12184.148147
 20
4584.5030450000031
 30
0.0
 40
15.0
 50
180.0
 51
0.0
  0
ARC
  5
656F
  8
0
  6
BYBLOCK
 62
     0
 10
12184.148147
 20
4584.5030450000031
 30
0.0
 40
15.0
 50
0.0
 51
180.0
  0
ARC
  5
6570
  8
0
  6
BYBLOCK
 62
     0
 10
12226.648147
 20
4584.5030450000031
 30
0.0
 40
15.0
 50
0.0
 51
180.0
  0
ARC
  5
6571
  8
0
  6
BYBLOCK
 62
     0
 10
12226.648147
 20
4584.5030450000031
 30
0.0
 40
15.0
 50
180.0
 51
0.0
  0
ARC
  5
6572
  8
0
  6
BYBLOCK
 62
     0
 10
6698.6481469999999
 20
4584.5030450000031
 30
0.0
 40
15.0
 50
0.0
 51
180.0
  0
ARC
  5
6573
  8
0
  6
BYBLOCK
 62
     0
 10
6698.6481469999999
 20
4584.5030450000031
 30
0.0
 40
15.0
 50
180.0
 51
0.0
  0
ARC
  5
6574
  8
0
  6
BYBLOCK
 62
     0
 10
6656.1481469999999
 20
4584.5030450000031
 30
0.0
 40
15.0
 50
180.0
 51
0.0
  0
ARC
  5
6575
  8
0
  6
BYBLOCK
 62
     0
 10
6656.1481469999999
 20
4584.5030450000031
 30
0.0
 40
15.0
 50
0.0
 51
180.0
  0
ARC
  5
6576
  8
0
  6
BYBLOCK
 62
     0
 10
9266.1481469999999
 20
4584.5030450000031
 30
0.0
 40
15.0
 50
180.0
 51
0.0
  0
ARC
  5
6577
  8
0
  6
BYBLOCK
 62
     0
 10
9266.1481469999999
 20
4584.5030450000031
 30
0.0
 40
15.0
 50
0.0
 51
180.0
  0
ARC
  5
6578
  8
0
  6
BYBLOCK
 62
     0
 10
6698.6481469999999
 20
4584.5030450000031
 30
0.0
 40
15.0
 50
0.0
 51
180.0
  0
ARC
  5
6579
  8
0
  6
BYBLOCK
 62
     0
 10
6698.6481469999999
 20
4584.5030450000031
 30
0.0
 40
15.0
 50
180.0
 51
0.0
  0
ARC
  5
657A
  8
0
  6
BYBLOCK
 62
     0
 10
9266.1481469999999
 20
4584.5030450000031
 30
0.0
 40
15.0
 50
0.0
 51
180.0
  0
ARC
  5
657B
  8
0
  6
BYBLOCK
 62
     0
 10
9266.1481469999999
 20
4584.5030450000031
 30
0.0
 40
15.0
 50
180.0
 51
0.0
  0
ARC
  5
657C
  8
0
  6
BYBLOCK
 62
     0
 10
12184.148147
 20
4584.5030450000031
 30
0.0
 40
15.0
 50
180.0
 51
0.0
  0
ARC
  5
657D
  8
0
  6
BYBLOCK
 62
     0
 10
12184.148147
 20
4584.5030450000031
 30
0.0
 40
15.0
 50
0.0
 51
180.0
  0
LINE
  5
66CD
  8
0-1
  6
CONTINUOUS
 62
     3
 10
25636.552252999962
 20
7983.0024050000065
 30
0.0
 11
25636.552252999962
 21
8015.0023120000051
 31
0.0
  0
LINE
  5
66CE
  8
0-1
  6
CONTINUOUS
 62
     3
 10
25785.551645999971
 20
7906.8156830000089
 30
0.0
 11
25742.549534999958
 21
7906.8156830000089
 31
0.0
  0
LINE
  5
66CF
  8
0-1
  6
CONTINUOUS
 62
     3
 10
25785.55164599996
 20
8233.0027340000088
 30
0.0
 11
25785.55164599996
 21
7906.8156830000089
 31
0.0
  0
LINE
  5
66D0
  8
0-1
  6
CONTINUOUS
 62
     3
 10
25350.585059999969
 20
7979.4669840000051
 30
0.0
 11
25318.58614299996
 21
8011.4668920000013
 31
0.0
  0
LINE
  5
66D1
  8
0-1
  6
CONTINUOUS
 62
     3
 10
25631.55198899996
 20
8020.002576000008
 30
0.0
 11
25322.121562999961
 21
8020.002576000008
 31
0.0
  0
LINE
  5
66D2
  8
0-1
  6
CONTINUOUS
 62
     3
 10
25636.552252999962
 20
8011.6034790000058
 30
0.0
 11
25318.455493999969
 21
8011.6034790000058
 31
0.0
  0
LINE
  5
66D3
  8
0-1
  6
CONTINUOUS
 62
     3
 10
25631.55198899996
 20
7978.002141000009
 30
0.0
 11
25354.12245999997
 21
7978.002141000009
 31
0.0
  0
LINE
  5
66D4
  8
0-1
  6
CONTINUOUS
 62
     3
 10
25636.552252999962
 20
7986.4022280000008
 30
0.0
 11
25343.650806999962
 21
7986.4022280000008
 31
0.0
  0
LINE
  5
66D5
  8
0-1
  6
CONTINUOUS
 62
     3
 10
25636.552252999962
 20
7994.8023150000035
 30
0.0
 11
25335.25170899996
 21
7994.8023150000035
 31
0.0
  0
LINE
  5
66D6
  8
0-1
  6
CONTINUOUS
 62
     3
 10
25636.552252999962
 20
8003.2033920000076
 30
0.0
 11
25326.850632999962
 21
8003.2033920000076
 31
0.0
  0
LINE
  5
66D7
  8
0-1
  6
CONTINUOUS
 62
     3
 10
23482.015460999992
 20
7979.4669840000051
 30
0.0
 11
23514.012398999988
 21
8011.4668920000013
 31
0.0
  0
LINE
  5
66D8
  8
0-1
  6
CONTINUOUS
 62
     3
 10
23196.050246999981
 20
7983.0024050000065
 30
0.0
 11
23196.050246999981
 21
8015.0023120000051
 31
0.0
  0
LINE
  5
66D9
  8
0-1
  6
CONTINUOUS
 62
     3
 10
23069.048293999989
 20
7983.0024050000065
 30
0.0
 11
23069.048293999989
 21
8015.0023120000051
 31
0.0
  0
LINE
  5
66DA
  8
0-1
  6
CONTINUOUS
 62
     3
 10
23196.050246999981
 20
7986.4022280000008
 30
0.0
 11
23488.94773499998
 21
7986.4022280000008
 31
0.0
  0
LINE
  5
66DB
  8
0-1
  6
CONTINUOUS
 62
     3
 10
23196.050246999981
 20
7994.8023150000035
 30
0.0
 11
23497.348811999989
 21
7994.8023150000035
 31
0.0
  0
LINE
  5
66DC
  8
0-1
  6
CONTINUOUS
 62
     3
 10
23201.050510999979
 20
7978.002141000009
 30
0.0
 11
23478.47806099998
 21
7978.002141000009
 31
0.0
  0
LINE
  5
66DD
  8
0-1
  6
CONTINUOUS
 62
     3
 10
23196.050246999981
 20
8003.2033920000076
 30
0.0
 11
23505.747908999991
 21
8003.2033920000076
 31
0.0
  0
LINE
  5
66DE
  8
0-1
  6
CONTINUOUS
 62
     3
 10
23196.050246999981
 20
8011.6034790000058
 30
0.0
 11
23514.14502699998
 21
8011.6034790000058
 31
0.0
  0
LINE
  5
66DF
  8
0-1
  6
CONTINUOUS
 62
     3
 10
23201.050510999979
 20
8020.002576000008
 30
0.0
 11
23510.478958
 21
8020.002576000008
 31
0.0
  0
LINE
  5
66E0
  8
0-1
  6
CONTINUOUS
 62
     3
 10
22783.08308099999
 20
7979.4669840000051
 30
0.0
 11
22751.086142999979
 21
8011.4668920000013
 31
0.0
  0
LINE
  5
66E1
  8
0-1
  6
CONTINUOUS
 62
     3
 10
23064.050009999992
 20
7978.002141000009
 30
0.0
 11
22786.61850099999
 21
7978.002141000009
 31
0.0
  0
LINE
  5
66E2
  8
0-1
  6
CONTINUOUS
 62
     3
 10
23064.050009999992
 20
8020.002576000008
 30
0.0
 11
22754.619582999971
 21
8020.002576000008
 31
0.0
  0
LINE
  5
66E3
  8
0-1
  6
CONTINUOUS
 62
     3
 10
23069.048293999989
 20
7986.4022280000008
 30
0.0
 11
22776.15080699998
 21
7986.4022280000008
 31
0.0
  0
LINE
  5
66E4
  8
0-1
  6
CONTINUOUS
 62
     3
 10
23069.048293999989
 20
7994.8023150000035
 30
0.0
 11
22767.74972999997
 21
7994.8023150000035
 31
0.0
  0
LINE
  5
66E5
  8
0-1
  6
CONTINUOUS
 62
     3
 10
23069.048293999989
 20
8003.2033920000076
 30
0.0
 11
22759.35063299998
 21
8003.2033920000076
 31
0.0
  0
LINE
  5
66E6
  8
0-1
  6
CONTINUOUS
 62
     3
 10
23069.048293999989
 20
8011.6034790000058
 30
0.0
 11
22750.95549499998
 21
8011.6034790000058
 31
0.0
  0
LINE
  5
66E7
  8
0-1
  6
CONTINUOUS
 62
     3
 10
22041.656375999992
 20
7969.0022590000062
 30
0.0
 11
23090.05098699997
 21
7969.0022590000062
 31
0.0
  0
LINE
  5
66E8
  8
0-1
  6
CONTINUOUS
 62
     3
 10
22041.656375999992
 20
8029.0024570000069
 30
0.0
 11
23090.05098699997
 21
8029.0024570000069
 31
0.0
  0
LINE
  5
66E9
  8
0-1
  6
CONTINUOUS
 62
     3
 10
25785.55164599996
 20
8103.0018110000028
 30
0.0
 11
22041.656375999992
 21
8103.0018110000028
 31
0.0
  0
LINE
  5
66EA
  8
0-1
  6
CONTINUOUS
 62
     3
 10
23175.04755499999
 20
8029.0024570000069
 30
0.0
 11
25657.550985999958
 21
8029.0024570000069
 31
0.0
  0
LINE
  5
66EB
  8
0-1
  6
CONTINUOUS
 62
     3
 10
23175.04755499999
 20
7969.0022590000062
 30
0.0
 11
25657.550985999958
 21
7969.0022590000062
 31
0.0
  0
LINE
  5
66EC
  8
0-1
  6
CONTINUOUS
 62
     3
 10
22041.656375999992
 20
8233.0027340000088
 30
0.0
 11
25785.55164599996
 21
8233.0027340000088
 31
0.0
  0
LINE
  5
66ED
  8
0-1
  6
CONTINUOUS
 62
     3
 10
20696.044968999991
 20
7986.4022280000008
 30
0.0
 11
20988.946414999991
 21
7986.4022280000008
 31
0.0
  0
LINE
  5
66EE
  8
0-1
  6
CONTINUOUS
 62
     3
 10
20696.044968999991
 20
7994.8023150000035
 30
0.0
 11
20997.343532999988
 21
7994.8023150000035
 31
0.0
  0
LINE
  5
66EF
  8
0-1
  6
CONTINUOUS
 62
     3
 10
20701.045232999972
 20
7978.002141000009
 30
0.0
 11
20978.47476199998
 21
7978.002141000009
 31
0.0
  0
LINE
  5
66F0
  8
0-1
  6
CONTINUOUS
 62
     3
 10
20696.044968999991
 20
8003.2033920000076
 30
0.0
 11
21005.746588999991
 21
8003.2033920000076
 31
0.0
  0
LINE
  5
66F1
  8
0-1
  6
CONTINUOUS
 62
     3
 10
20701.045232999972
 20
8020.002576000008
 30
0.0
 11
21010.47367999997
 21
8020.002576000008
 31
0.0
  0
LINE
  5
66F2
  8
0-1
  6
CONTINUOUS
 62
     3
 10
20696.044968999991
 20
7983.0024050000065
 30
0.0
 11
20696.044968999991
 21
8015.0023120000051
 31
0.0
  0
LINE
  5
66F3
  8
0-1
  6
CONTINUOUS
 62
     3
 10
20569.043015999989
 20
7983.0024050000065
 30
0.0
 11
20569.043015999989
 21
8015.0023120000051
 31
0.0
  0
LINE
  5
66F4
  8
0-1
  6
CONTINUOUS
 62
     3
 10
20696.044968999991
 20
8011.6034790000058
 30
0.0
 11
21014.13974799998
 21
8011.6034790000058
 31
0.0
  0
LINE
  5
66F5
  8
0-1
  6
CONTINUOUS
 62
     3
 10
20982.01018199998
 20
7979.4669840000051
 30
0.0
 11
21014.007119999991
 21
8011.4668920000013
 31
0.0
  0
LINE
  5
66F6
  8
0-1
  6
CONTINUOUS
 62
     3
 10
20283.081760999979
 20
7979.4669840000051
 30
0.0
 11
20251.080863999989
 21
8011.4668920000013
 31
0.0
  0
LINE
  5
66F7
  8
0-1
  6
CONTINUOUS
 62
     3
 10
20569.043015999989
 20
8011.6034790000058
 30
0.0
 11
20250.95021599999
 21
8011.6034790000058
 31
0.0
  0
LINE
  5
66F8
  8
0-1
  6
CONTINUOUS
 62
     3
 10
20569.043015999989
 20
8003.2033920000076
 30
0.0
 11
20259.34535399999
 21
8003.2033920000076
 31
0.0
  0
LINE
  5
66F9
  8
0-1
  6
CONTINUOUS
 62
     3
 10
20569.043015999989
 20
7994.8023150000035
 30
0.0
 11
20267.74445099998
 21
7994.8023150000035
 31
0.0
  0
LINE
  5
66FA
  8
0-1
  6
CONTINUOUS
 62
     3
 10
20569.043015999989
 20
7986.4022280000008
 30
0.0
 11
20276.143548999989
 21
7986.4022280000008
 31
0.0
  0
LINE
  5
66FB
  8
0-1
  6
CONTINUOUS
 62
     3
 10
20564.044730999991
 20
8020.002576000008
 30
0.0
 11
20254.614304999981
 21
8020.002576000008
 31
0.0
  0
LINE
  5
66FC
  8
0-1
  6
CONTINUOUS
 62
     3
 10
20564.044730999991
 20
7978.002141000009
 30
0.0
 11
20286.61718199998
 21
7978.002141000009
 31
0.0
  0
LINE
  5
66FD
  8
0-1
  6
CONTINUOUS
 62
     3
 10
18133.543252999989
 20
7978.002141000009
 30
0.0
 11
18410.972783000001
 21
7978.002141000009
 31
0.0
  0
LINE
  5
66FE
  8
0-1
  6
CONTINUOUS
 62
     3
 10
18128.544968999999
 20
7983.0024050000065
 30
0.0
 11
18128.544968999999
 21
8015.0023120000051
 31
0.0
  0
LINE
  5
66FF
  8
0-1
  6
CONTINUOUS
 62
     3
 10
17979.543596999982
 20
7906.8156830000044
 30
0.0
 11
18022.541749
 21
7906.8156830000089
 31
0.0
  0
LINE
  5
6700
  8
0-1
  6
CONTINUOUS
 62
     3
 10
17979.543596999982
 20
7906.8156830000089
 30
0.0
 11
17979.543596999982
 21
8233.0027340000088
 31
0.0
  0
LINE
  5
6701
  8
0-1
  6
CONTINUOUS
 62
     3
 10
18133.543252999989
 20
8020.002576000008
 30
0.0
 11
18442.973679999988
 21
8020.002576000008
 31
0.0
  0
LINE
  5
6702
  8
0-1
  6
CONTINUOUS
 62
     3
 10
18414.506222999989
 20
7979.4669840000051
 30
0.0
 11
18446.507120999981
 21
8011.4668920000013
 31
0.0
  0
LINE
  5
6703
  8
0-1
  6
CONTINUOUS
 62
     3
 10
18128.544968999999
 20
8011.6034790000058
 30
0.0
 11
18446.639747999991
 21
8011.6034790000058
 31
0.0
  0
LINE
  5
6704
  8
0-1
  6
CONTINUOUS
 62
     3
 10
18128.544968999999
 20
8003.2033920000076
 30
0.0
 11
18438.24263099999
 21
8003.2033920000076
 31
0.0
  0
LINE
  5
6705
  8
0-1
  6
CONTINUOUS
 62
     3
 10
18128.544968999999
 20
7994.8023150000035
 30
0.0
 11
18429.843532999999
 21
7994.8023150000035
 31
0.0
  0
LINE
  5
6706
  8
0-1
  6
CONTINUOUS
 62
     3
 10
18128.544968999999
 20
7986.4022280000008
 30
0.0
 11
18421.444436000002
 21
7986.4022280000008
 31
0.0
  0
LINE
  5
6707
  8
0-1
  6
CONTINUOUS
 62
     3
 10
18107.542277
 20
7969.0022590000062
 30
0.0
 11
20590.04372799999
 21
7969.0022590000062
 31
0.0
  0
LINE
  5
6708
  8
0-1
  6
CONTINUOUS
 62
     3
 10
18107.542277
 20
8029.0024570000069
 30
0.0
 11
20590.04372799999
 21
8029.0024570000069
 31
0.0
  0
LINE
  5
6709
  8
0-1
  6
CONTINUOUS
 62
     3
 10
17979.543596999982
 20
8233.0027340000088
 30
0.0
 11
21741.656375999999
 21
8233.0027340000088
 31
0.0
  0
LINE
  5
670A
  8
0-1
  6
CONTINUOUS
 62
     3
 10
20675.04623599998
 20
8029.0024570000069
 30
0.0
 11
21741.656375999999
 21
8029.0024570000069
 31
0.0
  0
LINE
  5
670B
  8
0-1
  6
CONTINUOUS
 62
     3
 10
20675.04623599998
 20
7969.0022590000062
 30
0.0
 11
21741.656375999999
 21
7969.0022590000062
 31
0.0
  0
LINE
  5
670C
  8
0-1
  6
CONTINUOUS
 62
     3
 10
21741.656375999999
 20
8103.0018110000028
 30
0.0
 11
17979.543596999982
 21
8103.0018110000028
 31
0.0
  0
LINE
  5
670D
  8
0-1
  6
CONTINUOUS
 62
     3
 10
20632.543991999992
 20
8103.0018110000028
 30
0.0
 11
20632.543991999992
 21
8233.0027340000088
 31
0.0
  0
LINE
  5
670E
  8
0-1
  6
CONTINUOUS
 62
     3
 10
23132.54927099996
 20
8103.0018110000028
 30
0.0
 11
23132.54927099996
 21
8233.0027340000088
 31
0.0
  0
ARC
  5
670F
  8
0-1
  6
CONTINUOUS
 62
     3
 10
25631.55198899996
 20
8015.0023120000051
 30
0.0
 40
5.0
 50
0.0
 51
90.0
  0
ARC
  5
6710
  8
0-1
  6
CONTINUOUS
 62
     3
 10
25631.55198899996
 20
7983.0024050000065
 30
0.0
 40
5.0
 50
269.9999850001808
 51
0.0
  0
ARC
  5
6711
  8
0-1
  6
CONTINUOUS
 62
     3
 10
25322.121562999961
 20
8015.0023120000051
 30
0.0
 40
5.0
 50
90.0
 51
224.99998499997989
  0
ARC
  5
6712
  8
0-1
  6
CONTINUOUS
 62
     3
 10
25354.12245999997
 20
7983.0024050000065
 30
0.0
 40
5.0
 50
224.99998499997989
 51
269.9999850001808
  0
ARC
  5
6713
  8
0-1
  6
CONTINUOUS
 62
     3
 10
23510.478958
 20
8015.0023120000051
 30
0.0
 40
5.0
 50
314.99998500027471
 51
90.0
  0
ARC
  5
6714
  8
0-1
  6
CONTINUOUS
 62
     3
 10
23478.47806099998
 20
7983.0024050000065
 30
0.0
 40
5.0
 50
269.9999850001808
 51
314.99998500027471
  0
ARC
  5
6715
  8
0-1
  6
CONTINUOUS
 62
     3
 10
23201.050510999979
 20
7983.0024050000065
 30
0.0
 40
5.0
 50
180.0
 51
269.9999850001808
  0
ARC
  5
6716
  8
0-1
  6
CONTINUOUS
 62
     3
 10
23201.050510999979
 20
8015.0023120000051
 30
0.0
 40
5.0
 50
90.0
 51
180.0
  0
ARC
  5
6717
  8
0-1
  6
CONTINUOUS
 62
     3
 10
23064.050009999992
 20
8015.0023120000051
 30
0.0
 40
5.0
 50
0.0
 51
90.0
  0
ARC
  5
6718
  8
0-1
  6
CONTINUOUS
 62
     3
 10
23064.050009999992
 20
7983.0024050000065
 30
0.0
 40
5.0
 50
269.9999850001808
 51
0.0
  0
ARC
  5
6719
  8
0-1
  6
CONTINUOUS
 62
     3
 10
22786.61850099999
 20
7983.0024050000065
 30
0.0
 40
5.0
 50
224.99998499997989
 51
269.9999850001808
  0
ARC
  5
671A
  8
0-1
  6
CONTINUOUS
 62
     3
 10
22754.619582999971
 20
8015.0023120000051
 30
0.0
 40
5.0
 50
90.0
 51
224.99998499997989
  0
ARC
  5
671B
  8
0-1
  6
CONTINUOUS
 62
     3
 10
20701.045232999972
 20
7983.0024050000065
 30
0.0
 40
5.0
 50
180.0
 51
269.9999850001808
  0
ARC
  5
671C
  8
0-1
  6
CONTINUOUS
 62
     3
 10
20701.045232999972
 20
8015.0023120000051
 30
0.0
 40
5.0
 50
90.0
 51
180.0
  0
ARC
  5
671D
  8
0-1
  6
CONTINUOUS
 62
     3
 10
20978.47476199998
 20
7983.0024050000065
 30
0.0
 40
5.0
 50
269.9999850001808
 51
314.99998500027471
  0
ARC
  5
671E
  8
0-1
  6
CONTINUOUS
 62
     3
 10
20564.044730999991
 20
7983.0024050000065
 30
0.0
 40
5.0
 50
269.9999850001808
 51
0.0
  0
ARC
  5
671F
  8
0-1
  6
CONTINUOUS
 62
     3
 10
20564.044730999991
 20
8015.0023120000051
 30
0.0
 40
5.0
 50
0.0
 51
90.0
  0
ARC
  5
6720
  8
0-1
  6
CONTINUOUS
 62
     3
 10
21010.47367999997
 20
8015.0023120000051
 30
0.0
 40
5.0
 50
314.99998500027471
 51
90.0
  0
ARC
  5
6721
  8
0-1
  6
CONTINUOUS
 62
     3
 10
20254.614304999981
 20
8015.0023120000051
 30
0.0
 40
5.0
 50
90.0
 51
224.99998499997989
  0
ARC
  5
6722
  8
0-1
  6
CONTINUOUS
 62
     3
 10
20286.61718199998
 20
7983.0024050000065
 30
0.0
 40
5.0
 50
224.99998499997989
 51
269.9999850001808
  0
ARC
  5
6723
  8
0-1
  6
CONTINUOUS
 62
     3
 10
18442.973679999988
 20
8015.0023120000051
 30
0.0
 40
5.0
 50
314.99998500027471
 51
90.0
  0
ARC
  5
6724
  8
0-1
  6
CONTINUOUS
 62
     3
 10
18133.543252999989
 20
8015.0023120000051
 30
0.0
 40
5.0
 50
90.0
 51
180.0
  0
ARC
  5
6725
  8
0-1
  6
CONTINUOUS
 62
     3
 10
18133.543252999989
 20
7983.0024050000065
 30
0.0
 40
5.0
 50
180.0
 51
269.9999850001808
  0
ARC
  5
6726
  8
0-1
  6
CONTINUOUS
 62
     3
 10
18410.972783000001
 20
7983.0024050000065
 30
0.0
 40
5.0
 50
269.9999850001808
 51
314.99998500027471
  0
LINE
  5
6727
  8
SUNPOU
  6
CONTINUOUS
 62
     4
 10
17979.541616999992
 20
8313.0027340000051
 30
0.0
 11
17979.541616999992
 21
9512.4603460000017
 31
0.0
  0
LINE
  5
6728
  8
SUNPOU
  6
CONTINUOUS
 62
     4
 10
25785.55164599996
 20
8313.0027340000051
 30
0.0
 11
25785.55164599996
 21
9512.4603460000017
 31
0.0
  0
LINE
  5
6729
  8
SUNPOU
  6
CONTINUOUS
 62
     4
 10
17982.541616999992
 20
9432.4603460000035
 30
0.0
 11
25782.55164599996
 21
9432.4603460000035
 31
0.0
  0
LINE
  5
672A
  8
SUNPOU
  6
CONTINUOUS
 62
     4
 10
18022.54372799999
 20
8313.0027340000051
 30
0.0
 11
18022.54372799999
 21
9112.5025760000099
 31
0.0
  0
LINE
  5
672B
  8
SUNPOU
  6
CONTINUOUS
 62
     4
 10
25742.549534999958
 20
8313.0027340000051
 30
0.0
 11
25742.549534999958
 21
9112.5025760000099
 31
0.0
  0
LINE
  5
672C
  8
SUNPOU
  6
CONTINUOUS
 62
     4
 10
18022.54372799999
 20
9032.5025759999971
 30
0.0
 11
25742.549534999958
 21
9032.5025759999971
 31
0.0
  0
LINE
  5
672D
  8
SUNPOU
  6
CONTINUOUS
 62
     4
 10
18022.54372799999
 20
8313.0027340000051
 30
0.0
 11
18022.54372799999
 21
9112.5025760000099
 31
0.0
  0
LINE
  5
672E
  8
SUNPOU
  6
CONTINUOUS
 62
     4
 10
17979.541616999992
 20
8313.0027340000051
 30
0.0
 11
17979.541616999992
 21
9112.5025760000099
 31
0.0
  0
LINE
  5
672F
  8
SUNPOU
  6
CONTINUOUS
 62
     4
 10
18022.54372799999
 20
9032.5025759999971
 30
0.0
 11
18262.54372799999
 21
9032.5025759999971
 31
0.0
  0
LINE
  5
6730
  8
SUNPOU
  6
CONTINUOUS
 62
     4
 10
17982.541616999992
 20
9032.5025759999971
 30
0.0
 11
17742.541616999981
 21
9032.5025759999971
 31
0.0
  0
LINE
  5
6731
  8
SUNPOU
  6
CONTINUOUS
 62
     4
 10
18022.54372799999
 20
9032.5025759999971
 30
0.0
 11
17982.541616999992
 21
9032.5025759999971
 31
0.0
  0
LINE
  5
6732
  8
SUNPOU
  6
CONTINUOUS
 62
     4
 10
25742.549534999958
 20
8313.0027340000051
 30
0.0
 11
25742.549534999958
 21
9112.5025760000099
 31
0.0
  0
LINE
  5
6733
  8
SUNPOU
  6
CONTINUOUS
 62
     4
 10
25742.549534999958
 20
9032.5025759999971
 30
0.0
 11
25502.549534999958
 21
9032.5025759999971
 31
0.0
  0
LINE
  5
6734
  8
SUNPOU
  6
CONTINUOUS
 62
     4
 10
25782.55164599996
 20
9032.5025759999971
 30
0.0
 11
26022.55164599996
 21
9032.5025759999971
 31
0.0
  0
LINE
  5
6735
  8
SUNPOU
  6
CONTINUOUS
 62
     4
 10
25742.549534999958
 20
9032.5025759999971
 30
0.0
 11
25782.55164599996
 21
9032.5025759999971
 31
0.0
  0
TEXT
  5
6736
  8
0
 62
     7
 10
25905.55164599996
 20
9112.5025760000099
 30
0.0
 40
160.0
  1
43
  0
TEXT
  5
6737
  8
0
 62
     7
 10
17622.541616999981
 20
9112.5025760000099
 30
0.0
 40
160.0
  1
43
  0
TEXT
  5
6738
  8
0
 62
     7
 10
20842.546631499979
 20
9112.5025760000099
 30
0.0
 40
160.0
  1
2567.5 \U+00D7 ｎ ＋ 85
  0
TEXT
  5
6739
  8
0
 62
     7
 10
20789.213298166651
 20
9512.4603460000017
 30
0.0
 40
160.0
  1
2567.5 \U+00D7 ｎ ＋ 171
  0
ARC
  5
673A
  8
0
  6
BYBLOCK
 62
     0
 10
17979.541616999992
 20
9432.4603460000035
 30
0.0
 40
15.0
 50
0.0
 51
180.0
  0
ARC
  5
673B
  8
0
  6
BYBLOCK
 62
     0
 10
17979.541616999992
 20
9432.4603460000035
 30
0.0
 40
15.0
 50
180.0
 51
0.0
  0
ARC
  5
673C
  8
0
  6
BYBLOCK
 62
     0
 10
25785.55164599996
 20
9432.4603460000035
 30
0.0
 40
15.0
 50
180.0
 51
0.0
  0
ARC
  5
673D
  8
0
  6
BYBLOCK
 62
     0
 10
25785.55164599996
 20
9432.4603460000035
 30
0.0
 40
15.0
 50
0.0
 51
180.0
  0
ARC
  5
673E
  8
0
  6
BYBLOCK
 62
     0
 10
18022.54372799999
 20
9032.5025759999971
 30
0.0
 40
15.0
 50
0.0
 51
180.0
  0
ARC
  5
673F
  8
0
  6
BYBLOCK
 62
     0
 10
18022.54372799999
 20
9032.5025759999971
 30
0.0
 40
15.0
 50
180.0
 51
0.0
  0
ARC
  5
6740
  8
0
  6
BYBLOCK
 62
     0
 10
25742.549534999958
 20
9032.5025759999971
 30
0.0
 40
15.0
 50
180.0
 51
0.0
  0
ARC
  5
6741
  8
0
  6
BYBLOCK
 62
     0
 10
25742.549534999958
 20
9032.5025759999971
 30
0.0
 40
15.0
 50
0.0
 51
180.0
  0
ARC
  5
6742
  8
0
  6
BYBLOCK
 62
     0
 10
18022.54372799999
 20
9032.5025759999971
 30
0.0
 40
15.0
 50
0.0
 51
180.0
  0
ARC
  5
6743
  8
0
  6
BYBLOCK
 62
     0
 10
18022.54372799999
 20
9032.5025759999971
 30
0.0
 40
15.0
 50
180.0
 51
0.0
  0
ARC
  5
6744
  8
0
  6
BYBLOCK
 62
     0
 10
17979.541616999992
 20
9032.5025759999971
 30
0.0
 40
15.0
 50
180.0
 51
0.0
  0
ARC
  5
6745
  8
0
  6
BYBLOCK
 62
     0
 10
17979.541616999992
 20
9032.5025759999971
 30
0.0
 40
15.0
 50
0.0
 51
180.0
  0
ARC
  5
6746
  8
0
  6
BYBLOCK
 62
     0
 10
25742.549534999958
 20
9032.5025759999971
 30
0.0
 40
15.0
 50
180.0
 51
0.0
  0
ARC
  5
6747
  8
0
  6
BYBLOCK
 62
     0
 10
25742.549534999958
 20
9032.5025759999971
 30
0.0
 40
15.0
 50
0.0
 51
180.0
  0
ARC
  5
6748
  8
0
  6
BYBLOCK
 62
     0
 10
25785.55164599996
 20
9032.5025759999971
 30
0.0
 40
15.0
 50
0.0
 51
180.0
  0
ARC
  5
6749
  8
0
  6
BYBLOCK
 62
     0
 10
25785.55164599996
 20
9032.5025759999971
 30
0.0
 40
15.0
 50
180.0
 51
0.0
  0
TEXT
  5
67EC
  8
NAME
 10
24033.05354655402
 20
1076.0
 30
0.0
 40
360.0
  1
H
 41
0.6700000000000002
  7
00
  0
TEXT
  5
67ED
  8
NAME
 10
23657.2215619737
 20
1076.0
 30
0.0
 40
360.0
  1
（ ）
  7
01
  0
TEXT
  5
67EE
  8
NAME
 10
21933.552716389018
 20
1876.0
 30
0.0
 40
360.0
  1
ヨドガレージ ラヴィージュ
 41
0.75
  7
01
  0
TEXT
  5
67EF
  8
NAME
 10
21550.022791898398
 20
1076.6369801169251
 30
0.0
 40
360.0
  1
VGCU-2655
 41
0.6700000000000002
  0
LINE
  5
67F0
  8
NAME
  6
CONTINUOUS
 10
26067.886878884321
 20
2236.0
 30
0.0
 11
26067.886878884321
 21
1876.0
 31
0.0
  0
LINE
  5
67F1
  8
NAME
  6
CONTINUOUS
 10
26167.886878884321
 20
2236.0
 30
0.0
 11
26167.886878884321
 21
1876.0
 31
0.0
  0
LINE
  5
67F2
  8
NAME
  6
CONTINUOUS
 10
26267.886878884328
 20
2236.0
 30
0.0
 11
26267.886878884328
 21
1876.0
 31
0.0
  0
LINE
  5
67F3
  8
NAME
  6
CONTINUOUS
 10
26007.886878884321
 20
2236.0
 30
0.0
 11
26327.886878884321
 21
2236.0
 31
0.0
  0
LINE
  5
67F4
  8
NAME
  6
CONTINUOUS
 10
26327.886878884321
 20
1876.0
 30
0.0
 11
26007.886878884321
 21
1876.0
 31
0.0
  0
TEXT
  5
67F5
  8
NAME
 10
25346.041792426691
 20
1076.0
 30
0.0
 40
360.0
  1
n
 41
0.6700000000000002
  7
00
  0
TEXT
  5
67F6
  8
NAME
 10
24557.214549256729
 20
1076.0
 30
0.0
 40
360.0
  1
型（ 連棟）
  7
01
  0
LINE
  5
6850
  8
2-0
  6
CONTINUOUS
 62
     3
 10
23090.049006999961
 20
16871.438149500002
 30
0.0
 11
23175.049534999958
 21
16871.438149500002
 31
0.0
  0
LINE
  5
6851
  8
2-0
  6
CONTINUOUS
 62
     3
 10
23175.049534999958
 20
16956.432738499981
 30
0.0
 11
23090.049006999961
 21
16956.432738499981
 31
0.0
  0
LINE
  5
6852
  8
2-0
  6
CONTINUOUS
 62
     3
 10
23090.049006999961
 20
16956.432738499981
 30
0.0
 11
23090.049006999961
 21
16871.438149500002
 31
0.0
  0
LINE
  5
6853
  8
2-0
  6
CONTINUOUS
 62
     3
 10
23175.049534999958
 20
16871.438149500002
 30
0.0
 11
23175.049534999958
 21
16956.432738499981
 31
0.0
  0
LINE
  5
6854
  8
2-0
  6
CONTINUOUS
 62
     6
 10
24834.466920762479
 20
15820.80343965509
 30
0.0
 11
23804.1176017625
 21
15820.80343965509
 31
0.0
  0
LINE
  5
6855
  8
2-0
  6
CONTINUOUS
 62
     6
 10
23171.482442
 20
16862.297511000012
 30
0.0
 11
23804.1176017625
 21
15820.80343965509
 31
0.0
  0
LINE
  5
6856
  8
2-0
  6
CONTINUOUS
 62
     6
 10
23231.76076199998
 20
16711.701676000019
 30
0.0
 11
23171.482442
 21
16862.297511000012
 31
0.0
  0
LINE
  5
6857
  8
2-0
  6
CONTINUOUS
 62
     6
 10
23171.482442
 20
16862.297511000012
 30
0.0
 11
23277.341156999999
 21
16739.389202999981
 31
0.0
  0
LINE
  5
6858
  8
2-0
  6
CONTINUOUS
 62
     6
 10
23231.76076199998
 20
16711.701676000019
 30
0.0
 11
23277.341156999999
 21
16739.389202999981
 31
0.0
  0
LINE
  5
6859
  8
2-0
  6
CONTINUOUS
 62
     6
 10
23277.341156999999
 20
16739.389202999981
 30
0.0
 11
23171.482442
 21
16862.297511000012
 31
0.0
  0
LINE
  5
685A
  8
2-0
  6
CONTINUOUS
 62
     6
 10
23171.482442
 20
16862.297511000012
 30
0.0
 11
23231.76076199998
 21
16711.701676000019
 31
0.0
  0
LINE
  5
685B
  8
2-0
  6
CONTINUOUS
 62
     6
 10
23231.76076199998
 20
16711.701676000019
 30
0.0
 11
23171.482442
 21
16862.297511000012
 31
0.0
  0
LINE
  5
685C
  8
2-0
  6
CONTINUOUS
 62
     6
 10
23277.341156999999
 20
16739.389202999981
 30
0.0
 11
23171.482442
 21
16862.297511000012
 31
0.0
  0
LINE
  5
685D
  8
2-0
  6
CONTINUOUS
 62
     6
 10
23277.341156999999
 20
16739.389202999981
 30
0.0
 11
23231.76076199998
 21
16711.701676000019
 31
0.0
  0
TEXT
  5
685E
  8
2-0
  6
CONTINUOUS
 62
     7
 10
23867.43282909584
 20
15893.804126655081
 30
0.0
 40
160.0
  1
中柱（中）
 72
     4
 11
24288.766162429169
 21
15973.804126655081
 31
0.0
  0
TEXT
  5
68D1
  8
FILENAME
  6
CONTINUOUS
 10
28527.809523809519
 20
348.0
 30
0.0
 40
200.0
  1
＜VGCU-2655-N-A_0.DXF ＞
  7
FILENAME
 72
     2
 11
32764.0
 21
348.0
 31
0.0
  0
LINE
  5
68D7
  8
WAKUSEN-01
 10
868.00000000000193
 20
827.99999999999955
 30
0.0
 11
32764.000000000011
 21
827.99999999999943
 31
0.0
  0
LINE
  5
68D8
  8
WAKUSEN-01
 10
868.00000000000193
 20
827.99999999999955
 30
0.0
 11
868.00000000000193
 21
22484.000000000011
 31
0.0
  0
LINE
  5
68D9
  8
WAKUSEN-01
 10
32764.000000000011
 20
827.99999999999943
 30
0.0
 11
32764.000000000011
 21
22484.000000000011
 31
0.0
  0
LINE
  5
68DA
  8
WAKUSEN-01
 10
20560.0
 20
827.99999999999716
 30
0.0
 11
20560.0
 21
2484.0
 31
0.0
  0
LINE
  5
68DB
  8
WAKUSEN-02
 10
26868.0
 20
827.99999999999261
 30
0.0
 11
26868.0
 21
2484.0
 31
0.0
  0
ENDSEC
  0
EOF
