  0
SECTION
  2
HEADER
  9
$ACADVER
  1
AC1009
  9
$INSBASE
 10
0.0
 20
0.0
 30
0.0
  9
$EXTMIN
 10
867.99324330406671
 20
327.38164749855792
 30
-0.000000000000013
  9
$EXTMAX
 10
32765.33210850941
 20
22484.553276491992
 30
0.0000000000000023
  9
$LIMMIN
 10
0.0
 20
0.0
  9
$LIMMAX
 10
33600.0
 20
23760.0
  9
$ORTHOMODE
 70
     1
  9
$REGENMODE
 70
     1
  9
$FILLMODE
 70
     1
  9
$QTEXTMODE
 70
     0
  9
$MIRRTEXT
 70
     1
  9
$DRAGMODE
 70
     2
  9
$LTSCALE
 40
80.0
  9
$OSMODE
 70
  3071
  9
$ATTMODE
 70
     1
  9
$TEXTSIZE
 40
0.2
  9
$TRACEWID
 40
0.05
  9
$TEXTSTYLE
  7
00
  9
$CLAYER
  8
0
  9
$CELTYPE
  6
BYLAYER
  9
$CECOLOR
 62
   256
  9
$DIMSCALE
 40
80.0
  9
$DIMASZ
 40
3.0
  9
$DIMEXO
 40
1.0
  9
$DIMDLI
 40
0.38
  9
$DIMRND
 40
0.5
  9
$DIMDLE
 40
0.0
  9
$DIMEXE
 40
1.0
  9
$DIMTP
 40
0.0
  9
$DIMTM
 40
0.0
  9
$DIMTXT
 40
2.0
  9
$DIMCEN
 40
0.09
  9
$DIMTSZ
 40
0.0
  9
$DIMTOL
 70
     0
  9
$DIMLIM
 70
     0
  9
$DIMTIH
 70
     0
  9
$DIMTOH
 70
     0
  9
$DIMSE1
 70
     0
  9
$DIMSE2
 70
     0
  9
$DIMTAD
 70
     1
  9
$DIMZIN
 70
     8
  9
$DIMBLK
  1
DOTSMALL
  9
$DIMASO
 70
     1
  9
$DIMSHO
 70
     1
  9
$DIMPOST
  1

  9
$DIMAPOST
  1

  9
$DIMALT
 70
     0
  9
$DIMALTD
 70
     2
  9
$DIMALTF
 40
25.399999999999999
  9
$DIMLFAC
 40
1.0
  9
$DIMTOFL
 70
     1
  9
$DIMTVP
 40
0.0
  9
$DIMTIX
 70
     0
  9
$DIMSOXD
 70
     0
  9
$DIMSAH
 70
     0
  9
$DIMBLK1
  1

  9
$DIMBLK2
  1

  9
$DIMSTYLE
  2
SUNPOU
  9
$DIMCLRD
 70
     4
  9
$DIMCLRE
 70
     4
  9
$DIMCLRT
 70
     7
  9
$DIMTFAC
 40
1.0
  9
$DIMGAP
 40
1.0
  9
$LUNITS
 70
     2
  9
$LUPREC
 70
     4
  9
$SKETCHINC
 40
0.1
  9
$FILLETRAD
 40
0.0
  9
$AUNITS
 70
     0
  9
$AUPREC
 70
     0
  9
$MENU
  1
acad
  9
$ELEVATION
 40
0.0
  9
$PELEVATION
 40
0.0
  9
$THICKNESS
 40
0.0
  9
$LIMCHECK
 70
     0
  9
$BLIPMODE
 70
     1
  9
$CHAMFERA
 40
0.0
  9
$CHAMFERB
 40
0.0
  9
$SKPOLY
 70
     0
  9
$TDCREATE
 40
2311940.0750524192
  9
$TDUPDATE
 40
2458942.434964722
  9
$TDINDWG
 40
0.0716375463
  9
$TDUSRTIMER
 40
0.0716368171
  9
$USRTIMER
 70
     1
  9
$ANGBASE
 50
0.0
  9
$ANGDIR
 70
     0
  9
$PDMODE
 70
     0
  9
$PDSIZE
 40
0.0
  9
$PLINEWID
 40
0.0
  9
$COORDS
 70
     1
  9
$SPLFRAME
 70
     0
  9
$SPLINETYPE
 70
     6
  9
$SPLINESEGS
 70
     8
  9
$ATTDIA
 70
     1
  9
$ATTREQ
 70
     1
  9
$HANDLING
 70
     1
  9
$HANDSEED
  5
4672
  9
$SURFTAB1
 70
     6
  9
$SURFTAB2
 70
     6
  9
$SURFTYPE
 70
     6
  9
$SURFU
 70
     6
  9
$SURFV
 70
     6
  9
$UCSNAME
  2

  9
$UCSORG
 10
0.0
 20
0.0
 30
0.0
  9
$UCSXDIR
 10
1.0
 20
0.0
 30
0.0
  9
$UCSYDIR
 10
0.0
 20
1.0
 30
0.0
  9
$PUCSNAME
  2

  9
$PUCSORG
 10
0.0
 20
0.0
 30
0.0
  9
$PUCSXDIR
 10
1.0
 20
0.0
 30
0.0
  9
$PUCSYDIR
 10
0.0
 20
1.0
 30
0.0
  9
$USERI1
 70
     0
  9
$USERI2
 70
     0
  9
$USERI3
 70
     0
  9
$USERI4
 70
     0
  9
$USERI5
 70
     0
  9
$USERR1
 40
0.0
  9
$USERR2
 40
0.0
  9
$USERR3
 40
0.0
  9
$USERR4
 40
0.0
  9
$USERR5
 40
0.0
  9
$WORLDVIEW
 70
     1
  9
$SHADEDGE
 70
     3
  9
$SHADEDIF
 70
    70
  9
$TILEMODE
 70
     1
  9
$MAXACTVP
 70
    16
  9
$PLIMCHECK
 70
     0
  9
$PEXTMIN
 10
1.0000000000000000E+020
 20
1.0000000000000000E+020
 30
1.0000000000000000E+020
  9
$PEXTMAX
 10
-1.0000000000000000E+020
 20
-1.0000000000000000E+020
 30
-1.0000000000000000E+020
  9
$PLIMMIN
 10
0.0
 20
0.0
  9
$PLIMMAX
 10
12.0
 20
9.0
  9
$UNITMODE
 70
     0
  9
$VISRETAIN
 70
     0
  9
$PLINEGEN
 70
     1
  9
$PSLTSCALE
 70
     0
  0
ENDSEC
  0
SECTION
  2
TABLES
  0
TABLE
  2
VPORT
 70
     1
  0
VPORT
  2
*ACTIVE
 70
     0
 10
0.0
 20
0.0
 11
1.0
 21
1.0
 12
16800.0
 22
11880.0
 13
0.0
 23
0.0
 14
1.0
 24
1.0
 15
0.0
 25
0.0
 16
0.0
 26
0.0
 36
1.0
 17
0.0
 27
0.0
 37
0.0
 40
23981.023255813951
 41
2.195652173913043
 42
50.0
 43
0.0
 44
0.0
 50
0.0
 51
0.0
 71
     0
 72
 10000
 73
     1
 74
     1
 75
     0
 76
     0
 77
     0
 78
     0
  0
ENDTAB
  0
TABLE
  2
LTYPE
 70
     3
  0
LTYPE
  2
CONTINUOUS
 70
     0
  3
Solid line
 72
    65
 73
     0
 40
0.0
  0
LTYPE
  2
DASHED3
 70
     0
  3
------  ------  ------  ------  
 72
    65
 73
     2
 40
5.0
 49
3.75
 49
-1.25
  0
LTYPE
  2
CENTER2
 70
     0
  3
----------  --  ----------  --  
 72
    65
 73
     4
 40
20.0
 49
12.5
 49
-2.5
 49
2.5
 49
-2.5
  0
ENDTAB
  0
TABLE
  2
LAYER
 70
    18
  0
LAYER
  2
0
 70
     0
 62
     7
  6
CONTINUOUS
  0
LAYER
  2
SUNPOU
 70
     0
 62
     4
  6
CONTINUOUS
  0
LAYER
  2
0-1
 70
     0
 62
     7
  6
CONTINUOUS
  0
LAYER
  2
2-0
 70
     0
 62
     7
  6
CONTINUOUS
  0
LAYER
  2
0-2
 70
     0
 62
     7
  6
CONTINUOUS
  0
LAYER
  2
0-6
 70
     0
 62
     7
  6
CONTINUOUS
  0
LAYER
  2
0-8
 70
     0
 62
     7
  6
CONTINUOUS
  0
LAYER
  2
0-5
 70
     0
 62
     7
  6
CONTINUOUS
  0
LAYER
  2
YODOROGO
 70
     0
 62
   130
  6
CONTINUOUS
  0
LAYER
  2
WAKUSEN-01
 70
     0
 62
    50
  6
CONTINUOUS
  0
LAYER
  2
WAKUSEN-02
 70
     0
 62
   130
  6
CONTINUOUS
  0
LAYER
  2
WAKUMOJI-01
 70
     0
 62
   130
  6
CONTINUOUS
  0
LAYER
  2
FILENAME
 70
     0
 62
     7
  6
CONTINUOUS
  0
LAYER
  2
NAME
 70
     0
 62
    20
  6
CONTINUOUS
  0
LAYER
  2
0-4
 70
     0
 62
     7
  6
CONTINUOUS
  0
LAYER
  2
0-0
 70
     0
 62
     7
  6
CONTINUOUS
  0
ENDTAB
  0
TABLE
  2
STYLE
 70
     5
  0
STYLE
  2
STANDARD
 70
     0
 40
0.0
 41
1.0
 50
0.0
 71
     0
 42
0.0
  3
txt
  4
BIGFONT
  0
STYLE
  2
00
 70
     0
 40
0.0
 41
0.6666666666666666
 50
0.0
 71
     0
 42
0.2
  3
ROMANS
  4
BIGFONT
  0
STYLE
  2
01
 70
     0
 40
3.0
 41
1.0
 50
0.0
 71
     0
 42
0.2
  3
ROMANS
  4
BIGFONT
  0
STYLE
  2
WAKUMOJI
 70
     0
 40
3.0
 41
1.0
 50
0.0
 71
     0
 42
3.0
  3
SIMPLEX
  4
BIGFONT
  0
STYLE
  2
FILENAME
 70
     0
 40
200.0
 41
1.0
 50
0.0
 71
     0
 42
200.0
  3
romans
  4
bigfont
  0
ENDTAB
  0
TABLE
  2
VIEW
 70
     0
  0
ENDTAB
  0
TABLE
  2
UCS
 70
     0
  0
ENDTAB
  0
TABLE
  2
APPID
 70
    13
  0
APPID
  2
ACAD
 70
     0
  0
APPID
  2
ACADANNOTATIVE
 70
     0
  0
APPID
  2
ACAD_PSEXT
 70
     0
  0
APPID
  2
DCO15
 70
     0
  0
APPID
  2
ACAD_MLEADERVER
 70
     0
  0
APPID
  2
AUTOCAD_POSTSCRIPT_FIGURE
 70
     0
  0
APPID
  2
ACAD_EXEMPT_FROM_CAD_STANDARDS
 70
     0
  0
APPID
  2
ACAD_DSTYLE_DIMJAG
 70
     0
  0
APPID
  2
ACAD_DSTYLE_DIMTALN
 70
     0
  0
APPID
  2
ACAD_DSTYLE_DIM_LINETYPE
 70
     0
  0
APPID
  2
ACAD_DSTYLE_DIM_EXT1_LINETYPE
 70
     0
  0
APPID
  2
ACAD_DSTYLE_DIM_EXT2_LINETYPE
 70
     0
  0
APPID
  2
ACAD_NAV_VCDISPLAY
 70
     0
  0
ENDTAB
  0
TABLE
  2
DIMSTYLE
 70
     2
  0
DIMSTYLE
  2
SUNPOU
 70
     0
  3

  4

  5

  6

  7

 40
80.0
 41
3.0
 42
1.0
 43
0.38
 44
1.0
 45
0.5
 46
0.0
 47
0.0
 48
0.0
140
2.0
141
0.09
142
0.0
143
25.399999999999999
144
1.0
145
0.0
146
1.0
147
1.0
 71
     0
 72
     0
 73
     0
 74
     0
 75
     0
 76
     0
 77
     1
 78
     8
170
     0
171
     2
172
     1
173
     0
174
     0
175
     0
176
     4
177
     4
178
     7
  0
ENDTAB
  0
ENDSEC
  0
SECTION
  2
BLOCKS
  0
BLOCK
  8
0
  2
$MODEL_SPACE
 70
     0
 10
0.0
 20
0.0
 30
0.0
  3
$MODEL_SPACE
  1

  0
ENDBLK
  5
3A67
  8
0
  0
BLOCK
 67
     1
  8
0
  2
$PAPER_SPACE
 70
     0
 10
0.0
 20
0.0
 30
0.0
  3
$PAPER_SPACE
  1

  0
ENDBLK
  5
3A63
 67
     1
  8
0
  0
BLOCK
  8
0
  2
_DOTSMALL
 70
     0
 10
0.0
 20
0.0
 30
0.0
  3
_DOTSMALL
  1

  0
POLYLINE
  5
3A97
  8
0
  6
BYBLOCK
 62
     0
 66
     1
 10
0.0
 20
0.0
 30
0.0
 70
     1
 40
0.5
 41
0.5
  0
VERTEX
  5
463A
  8
0
  6
BYBLOCK
 62
     0
 10
-0.0625
 20
0.0
 30
0.0
 42
1.0
  0
VERTEX
  5
463B
  8
0
  6
BYBLOCK
 62
     0
 10
0.0625
 20
0.0
 30
0.0
 42
1.0
  0
SEQEND
  5
463C
  8
0
  6
BYBLOCK
 62
     0
  0
ENDBLK
  5
3A9B
  8
0
  0
ENDSEC
  0
SECTION
  2
ENTITIES
  0
LINE
  5
3A9C
  8
0-2
  6
CONTINUOUS
 62
     3
 10
9900.1592914999874
 20
14245.73055699999
 30
0.0
 11
9900.1592914999874
 21
20094.229199000001
 31
0.0
  0
LINE
  5
3A9D
  8
0-2
  6
CONTINUOUS
 62
     3
 10
9764.6612444999864
 20
14213.731638999991
 30
0.0
 11
9764.6612444999864
 21
20104.22827499999
 31
0.0
  0
LINE
  5
3A9E
  8
0-2
  6
CONTINUOUS
 62
     3
 10
9807.6623654999876
 20
14369.73155999998
 30
0.0
 11
15027.66140949998
 21
14369.73155999998
 31
0.0
  0
LINE
  5
3A9F
  8
0-2
  6
CONTINUOUS
 62
     3
 10
9850.1601554999925
 20
14448.73018799998
 30
0.0
 11
14985.160155499991
 21
14448.73018799998
 31
0.0
  0
LINE
  5
3AA0
  8
0-2
  6
CONTINUOUS
 62
     3
 10
9764.6612444999864
 20
14213.731638999991
 30
0.0
 11
15070.660551499979
 21
14213.731638999991
 31
0.0
  0
LINE
  5
3AA1
  8
0-2
  6
CONTINUOUS
 62
     3
 10
9764.6612444999864
 20
14245.73055699999
 30
0.0
 11
15070.660551499979
 21
14245.73055699999
 31
0.0
  0
LINE
  5
3AA2
  8
0-2
  6
CONTINUOUS
 62
     3
 10
9850.1601554999925
 20
14369.73155999998
 30
0.0
 11
9850.1601554999925
 21
19644.70679
 31
0.0
  0
LINE
  5
3AA3
  8
0-2
  6
CONTINUOUS
 62
     3
 10
9807.6623654999876
 20
14369.73155999998
 30
0.0
 11
9807.6623654999876
 21
19670.990838000002
 31
0.0
  0
LINE
  5
3AA4
  8
0-2
  6
CONTINUOUS
 62
     3
 10
12417.66015549998
 20
14369.73155999998
 30
0.0
 11
12417.66015549998
 21
15820.47201950001
 31
0.0
  0
LINE
  5
3AA5
  8
0-2
  6
CONTINUOUS
 62
     3
 10
15027.66140949998
 20
14369.73155999998
 30
0.0
 11
15027.66140949998
 21
16444.636781000001
 31
0.0
  0
LINE
  5
3AA6
  8
0-2
  6
CONTINUOUS
 62
     3
 10
14985.160155499991
 20
14369.73155999998
 30
0.0
 11
14985.160155499991
 21
16470.923798
 31
0.0
  0
LINE
  5
3AA7
  8
0-2
  6
CONTINUOUS
 62
     3
 10
15070.660551499979
 20
14213.731638999991
 30
0.0
 11
15070.660551499979
 21
20104.22827499999
 31
0.0
  0
LINE
  5
3AA8
  8
0-2
  6
CONTINUOUS
 62
     3
 10
14935.160524499979
 20
14245.73055699999
 30
0.0
 11
14935.160524499979
 21
20094.229199000001
 31
0.0
  0
LINE
  5
3AA9
  8
0-2
  6
CONTINUOUS
 62
     3
 10
15002.162280499981
 20
20114.230781999991
 30
0.0
 11
15065.660287499981
 21
20114.230781999991
 31
0.0
  0
LINE
  5
3AAA
  8
0-2
  6
CONTINUOUS
 62
     3
 10
15070.660551499979
 20
20109.228538999989
 30
0.0
 11
15070.660551499979
 21
20074.228670999979
 31
0.0
  0
LINE
  5
3AAB
  8
0-2
  6
CONTINUOUS
 62
     3
 10
15052.66177849998
 20
20074.228670999979
 30
0.0
 11
15002.162280499981
 21
20074.228670999979
 31
0.0
  0
LINE
  5
3AAC
  8
0-2
  6
CONTINUOUS
 62
     3
 10
14997.16102649998
 20
20079.228934999988
 30
0.0
 11
14997.16102649998
 21
20109.228538999989
 31
0.0
  0
LINE
  5
3AAD
  8
0-2
  6
CONTINUOUS
 62
     3
 10
15052.66177849998
 20
20096.731837999989
 30
0.0
 11
15070.660551499979
 21
20096.731837999989
 31
0.0
  0
LINE
  5
3AAE
  8
0-2
  6
CONTINUOUS
 62
     3
 10
15052.66177849998
 20
16431.029570999988
 30
0.0
 11
15052.66177849998
 21
20096.731837999989
 31
0.0
  0
LINE
  5
3AAF
  8
0-2
  6
CONTINUOUS
 62
     3
 10
12347.660419499971
 20
15865.47142550002
 30
0.0
 11
9920.1613764999875
 21
14406.230913999991
 31
0.0
  0
LINE
  5
3AB0
  8
0-2
  6
CONTINUOUS
 62
     3
 10
9920.1613764999875
 20
15865.47142550002
 30
0.0
 11
12347.660419499971
 21
14406.230913999991
 31
0.0
  0
LINE
  5
3AB1
  8
0-2
  6
CONTINUOUS
 62
     3
 10
9850.1601554999925
 20
17279.232498000001
 30
0.0
 11
13668.79409049998
 21
17279.232498000001
 31
0.0
  0
LINE
  5
3AB2
  8
0-2
  6
CONTINUOUS
 62
     3
 10
9850.1601554999925
 20
15910.47083150001
 30
0.0
 11
14932.160524499979
 21
15910.47083150001
 31
0.0
  0
LINE
  5
3AB3
  8
0-2
  6
CONTINUOUS
 62
     3
 10
9850.1601554999925
 20
15820.47201950001
 30
0.0
 11
14932.160524499979
 21
15820.47201950001
 31
0.0
  0
LINE
  5
3AB4
  8
0-2
  6
CONTINUOUS
 62
     3
 10
9850.1601554999925
 20
17369.231309999988
 30
0.0
 11
13523.28165849998
 21
17369.231309999988
 31
0.0
  0
LINE
  5
3AB5
  8
0-2
  6
CONTINUOUS
 62
     3
 10
9920.1613764999875
 20
17324.230914
 30
0.0
 11
12347.660419499971
 21
15865.47142550002
 31
0.0
  0
LINE
  5
3AB6
  8
0-2
  6
CONTINUOUS
 62
     3
 10
12347.660419499971
 20
17324.230914
 30
0.0
 11
9920.1613764999875
 21
15865.47142550002
 31
0.0
  0
LINE
  5
3AB7
  8
0-2
  6
CONTINUOUS
 62
     3
 10
9920.1613764999875
 20
18783.230914
 30
0.0
 11
12347.660419499971
 21
17324.230914
 31
0.0
  0
LINE
  5
3AB8
  8
0-2
  6
CONTINUOUS
 62
     3
 10
9850.1601554999925
 20
18828.23131000001
 30
0.0
 11
11172.45883849999
 21
18828.23131000001
 31
0.0
  0
LINE
  5
3AB9
  8
0-2
  6
CONTINUOUS
 62
     3
 10
9850.1601554999925
 20
18738.232498000001
 30
0.0
 11
11317.97127049998
 21
18738.232498000001
 31
0.0
  0
LINE
  5
3ABA
  8
0-2
  6
CONTINUOUS
 62
     3
 10
9782.6600164999873
 20
20074.228670999979
 30
0.0
 11
9833.1595154999923
 21
20074.228670999979
 31
0.0
  0
LINE
  5
3ABB
  8
0-2
  6
CONTINUOUS
 62
     3
 10
9782.6600164999873
 20
20096.731837999989
 30
0.0
 11
9764.6612444999864
 21
20096.731837999989
 31
0.0
  0
LINE
  5
3ABC
  8
0-2
  6
CONTINUOUS
 62
     3
 10
9833.1595154999923
 20
20114.230781999991
 30
0.0
 11
9769.6585384999908
 21
20114.230781999991
 31
0.0
  0
LINE
  5
3ABD
  8
0-2
  6
CONTINUOUS
 62
     3
 10
9764.6612444999864
 20
20109.228538999989
 30
0.0
 11
9764.6612444999864
 21
20074.228670999979
 31
0.0
  0
LINE
  5
3ABE
  8
0-2
  6
CONTINUOUS
 62
     3
 10
9838.1592844999886
 20
20079.228934999988
 30
0.0
 11
9838.1592844999886
 21
20109.228538999989
 31
0.0
  0
LINE
  5
3ABF
  8
0-2
  6
CONTINUOUS
 62
     3
 10
9838.1592844999886
 20
20094.229199000001
 30
0.0
 11
14997.16102649998
 21
20094.229199000001
 31
0.0
  0
LINE
  5
3AC0
  8
0-2
  6
CONTINUOUS
 62
     3
 10
9782.6600164999873
 20
19684.598049
 30
0.0
 11
9782.6600164999873
 21
20096.731837999989
 31
0.0
  0
LINE
  5
3AC1
  8
0-2
  6
CONTINUOUS
 62
     3
 10
12487.659891499979
 20
17324.230914
 30
0.0
 11
14915.160419499971
 21
15865.47142550002
 31
0.0
  0
LINE
  5
3AC2
  8
0-2
  6
CONTINUOUS
 62
     3
 10
14915.160419499971
 20
15865.47142550002
 30
0.0
 11
12487.659891499979
 21
14406.230913999991
 31
0.0
  0
LINE
  5
3AC3
  8
0-2
  6
CONTINUOUS
 62
     3
 10
12487.659891499979
 20
15865.47142550002
 30
0.0
 11
14915.160419499971
 21
14406.230913999991
 31
0.0
  0
LINE
  5
3AC4
  8
0-2
  6
CONTINUOUS
 62
     3
 10
12417.66015549998
 20
14448.73018799998
 30
0.0
 11
12417.66015549998
 21
15820.47201950001
 31
0.0
  0
LINE
  5
3AC5
  8
0-2
  6
CONTINUOUS
 62
     3
 10
12360.66090849998
 20
14448.73018799998
 30
0.0
 11
12360.66090849998
 21
15820.47201950001
 31
0.0
  0
LINE
  5
3AC6
  8
0-2
  6
CONTINUOUS
 62
     3
 10
12474.661383499981
 20
14448.73018799998
 30
0.0
 11
12474.661383499981
 21
15820.47201950001
 31
0.0
  0
LINE
  5
3AC7
  8
0-2
  6
CONTINUOUS
 62
     3
 10
12474.661383499981
 20
17369.231309999988
 30
0.0
 11
12474.661383499981
 21
17950.740416000011
 31
0.0
  0
LINE
  5
3AC8
  8
0-2
  6
CONTINUOUS
 62
     3
 10
12360.66090849998
 20
17369.231309999988
 30
0.0
 11
12360.66090849998
 21
18165.39149300001
 31
0.0
  0
LINE
  5
3AC9
  8
0-2
  6
CONTINUOUS
 62
     3
 10
12360.66090849998
 20
15910.47083150001
 30
0.0
 11
12360.66090849998
 21
17279.232498000001
 31
0.0
  0
LINE
  5
3ACA
  8
0-2
  6
CONTINUOUS
 62
     3
 10
12474.661383499981
 20
15910.47083150001
 30
0.0
 11
12474.661383499981
 21
17279.232498000001
 31
0.0
  0
LINE
  5
3ACB
  8
0-2
  6
CONTINUOUS
 62
     3
 10
12417.66015549998
 20
17369.231309999988
 30
0.0
 11
12417.66015549998
 21
18058.063975000008
 31
0.0
  0
LINE
  5
3ACC
  8
0-2
  6
CONTINUOUS
 62
     3
 10
12417.66015549998
 20
17369.231309999988
 30
0.0
 11
12417.66015549998
 21
18058.063975000008
 31
0.0
  0
LINE
  5
3ACD
  8
0-2
  6
CONTINUOUS
 62
     3
 10
12417.66015549998
 20
15910.47083150001
 30
0.0
 11
12417.66015549998
 21
17279.232498000001
 31
0.0
  0
LINE
  5
3ACE
  8
0-2
  6
CONTINUOUS
 62
     3
 10
12417.66015549998
 20
15910.47083150001
 30
0.0
 11
12417.66015549998
 21
17279.232498000001
 31
0.0
  0
LINE
  5
3ACF
  8
0-2
  6
CONTINUOUS
 62
     3
 10
9989.6617784999871
 20
19558.425513999991
 30
0.0
 11
9989.6617784999871
 21
20094.229199000001
 31
0.0
  0
LINE
  5
3AD0
  8
0-2
  6
CONTINUOUS
 62
     3
 10
10226.65964049998
 20
19411.838203999981
 30
0.0
 11
10226.65964049998
 21
20094.229199000001
 31
0.0
  0
LINE
  5
3AD1
  8
0-2
  6
CONTINUOUS
 62
     3
 10
10189.659964499981
 20
19434.723418000001
 30
0.0
 11
10189.659964499981
 21
20094.229199000001
 31
0.0
  0
LINE
  5
3AD2
  8
0-2
  6
CONTINUOUS
 62
     3
 10
10026.66145549998
 20
19535.54029999999
 30
0.0
 11
10026.66145549998
 21
20094.229199000001
 31
0.0
  0
LINE
  5
3AD3
  8
0-2
  6
CONTINUOUS
 62
     3
 10
11036.16007649998
 20
18912.533068000001
 30
0.0
 11
11036.16007649998
 21
20094.229199000001
 31
0.0
  0
LINE
  5
3AD4
  8
0-2
  6
CONTINUOUS
 62
     3
 10
10999.160894499981
 20
18935.41828200001
 30
0.0
 11
10999.160894499981
 21
20094.229199000001
 31
0.0
  0
LINE
  5
3AD5
  8
0-2
  6
CONTINUOUS
 62
     3
 10
10836.15941649999
 20
19040.733896999991
 30
0.0
 11
10836.15941649999
 21
20094.229199000001
 31
0.0
  0
LINE
  5
3AD6
  8
0-2
  6
CONTINUOUS
 62
     3
 10
10799.160234499979
 20
19063.619111
 30
0.0
 11
10799.160234499979
 21
20094.229199000001
 31
0.0
  0
LINE
  5
3AD7
  8
0-2
  6
CONTINUOUS
 62
     3
 10
10636.160736499991
 20
19164.435991999992
 30
0.0
 11
10636.160736499991
 21
20094.229199000001
 31
0.0
  0
LINE
  5
3AD8
  8
0-2
  6
CONTINUOUS
 62
     3
 10
11199.158585499979
 20
18811.718165999999
 30
0.0
 11
11199.158585499979
 21
20094.229199000001
 31
0.0
  0
LINE
  5
3AD9
  8
0-2
  6
CONTINUOUS
 62
     3
 10
11236.16172649998
 20
18788.830972
 30
0.0
 11
11236.16172649998
 21
20094.229199000001
 31
0.0
  0
LINE
  5
3ADA
  8
0-2
  6
CONTINUOUS
 62
     3
 10
10399.16089449999
 20
19311.02132299999
 30
0.0
 11
10399.16089449999
 21
20094.229199000001
 31
0.0
  0
LINE
  5
3ADB
  8
0-2
  6
CONTINUOUS
 62
     3
 10
10436.160076499969
 20
19288.136107999992
 30
0.0
 11
10436.160076499969
 21
20094.229199000001
 31
0.0
  0
LINE
  5
3ADC
  8
0-2
  6
CONTINUOUS
 62
     3
 10
10599.161554499969
 20
19187.321207000001
 30
0.0
 11
10599.161554499969
 21
20094.229199000001
 31
0.0
  0
LINE
  5
3ADD
  8
0-2
  6
CONTINUOUS
 62
     3
 10
11399.160234499979
 20
18688.016070000001
 30
0.0
 11
11399.160234499979
 21
20094.229199000001
 31
0.0
  0
LINE
  5
3ADE
  8
0-2
  6
CONTINUOUS
 62
     3
 10
11436.159416499981
 20
18665.130856
 30
0.0
 11
11436.159416499981
 21
20094.229199000001
 31
0.0
  0
LINE
  5
3ADF
  8
0-2
  6
CONTINUOUS
 62
     3
 10
11599.16089449999
 20
18564.313975000001
 30
0.0
 11
11599.16089449999
 21
20094.229199000001
 31
0.0
  0
LINE
  5
3AE0
  8
0-2
  6
CONTINUOUS
 62
     3
 10
11636.16007649998
 20
18541.428760999999
 30
0.0
 11
11636.16007649998
 21
20094.229199000001
 31
0.0
  0
LINE
  5
3AE1
  8
0-2
  6
CONTINUOUS
 62
     3
 10
11799.15858549999
 20
18440.611879
 30
0.0
 11
11799.15858549999
 21
20094.229199000001
 31
0.0
  0
LINE
  5
3AE2
  8
0-2
  6
CONTINUOUS
 62
     3
 10
11836.16172649998
 20
18417.726664999991
 30
0.0
 11
11836.16172649998
 21
20094.229199000001
 31
0.0
  0
LINE
  5
3AE3
  8
0-2
  6
CONTINUOUS
 62
     3
 10
11999.16023449999
 20
18339.40899199999
 30
0.0
 11
11999.16023449999
 21
20094.229199000001
 31
0.0
  0
LINE
  5
3AE4
  8
0-2
  6
CONTINUOUS
 62
     3
 10
12036.159416499981
 20
18391.351558999999
 30
0.0
 11
12036.159416499981
 21
20094.229199000001
 31
0.0
  0
LINE
  5
3AE5
  8
0-2
  6
CONTINUOUS
 62
     3
 10
12236.16106649999
 20
18399.812021999991
 30
0.0
 11
12236.16106649999
 21
20094.229199000001
 31
0.0
  0
LINE
  5
3AE6
  8
0-2
  6
CONTINUOUS
 62
     3
 10
12199.160894499981
 20
18469.479199000001
 30
0.0
 11
12199.160894499981
 21
20094.229199000001
 31
0.0
  0
LINE
  5
3AE7
  8
0-2
  6
CONTINUOUS
 62
     3
 10
11988.035340499981
 20
18323.790590000001
 30
0.0
 11
12153.30732649998
 21
18555.815901999991
 31
0.0
  0
LINE
  5
3AE8
  8
0-2
  6
CONTINUOUS
 62
     3
 10
12599.16023449997
 20
17716.317907000011
 30
0.0
 11
12599.16023449997
 21
20094.229199000001
 31
0.0
  0
LINE
  5
3AE9
  8
0-2
  6
CONTINUOUS
 62
     3
 10
12799.16089449999
 20
17738.888377999989
 30
0.0
 11
12799.16089449999
 21
20094.229199000001
 31
0.0
  0
LINE
  5
3AEA
  8
0-2
  6
CONTINUOUS
 62
     3
 10
12836.16106649999
 20
17790.834905000011
 30
0.0
 11
12836.16106649999
 21
20094.229199000001
 31
0.0
  0
LINE
  5
3AEB
  8
0-2
  6
CONTINUOUS
 62
     3
 10
13036.16172649999
 20
17675.518049999991
 30
0.0
 11
13036.16172649999
 21
20094.229199000001
 31
0.0
  0
LINE
  5
3AEC
  8
0-2
  6
CONTINUOUS
 62
     3
 10
12999.15957549998
 20
17698.403264000011
 30
0.0
 11
12999.15957549998
 21
20094.229199000001
 31
0.0
  0
LINE
  5
3AED
  8
0-2
  6
CONTINUOUS
 62
     3
 10
13199.16023449999
 20
17574.701168999989
 30
0.0
 11
13199.16023449999
 21
20094.229199000001
 31
0.0
  0
LINE
  5
3AEE
  8
0-2
  6
CONTINUOUS
 62
     3
 10
13236.15941649999
 20
17546.815901000009
 30
0.0
 11
13236.15941649999
 21
20094.229199000001
 31
0.0
  0
LINE
  5
3AEF
  8
0-2
  6
CONTINUOUS
 62
     3
 10
13436.161066499981
 20
17423.115785000002
 30
0.0
 11
13436.161066499981
 21
20094.229199000001
 31
0.0
  0
LINE
  5
3AF0
  8
0-2
  6
CONTINUOUS
 62
     3
 10
13399.16089449999
 20
17446.001000000011
 30
0.0
 11
13399.16089449999
 21
20094.229199000001
 31
0.0
  0
LINE
  5
3AF1
  8
0-2
  6
CONTINUOUS
 62
     3
 10
13636.16172649997
 20
17299.413690000001
 30
0.0
 11
13636.16172649997
 21
20094.229199000001
 31
0.0
  0
LINE
  5
3AF2
  8
0-2
  6
CONTINUOUS
 62
     3
 10
13599.159575499971
 20
17322.298903999999
 30
0.0
 11
13599.159575499971
 21
20094.229199000001
 31
0.0
  0
LINE
  5
3AF3
  8
0-2
  6
CONTINUOUS
 62
     3
 10
13836.16040649997
 20
17175.711594
 30
0.0
 11
13836.16040649997
 21
20094.229199000001
 31
0.0
  0
LINE
  5
3AF4
  8
0-2
  6
CONTINUOUS
 62
     3
 10
13799.160234499979
 20
17198.596807999991
 30
0.0
 11
13799.160234499979
 21
20094.229199000001
 31
0.0
  0
LINE
  5
3AF5
  8
0-2
  6
CONTINUOUS
 62
     3
 10
14036.16106649999
 20
17052.01345699999
 30
0.0
 11
14036.16106649999
 21
20094.229199000001
 31
0.0
  0
LINE
  5
3AF6
  8
0-2
  6
CONTINUOUS
 62
     3
 10
13999.16188449997
 20
17074.896691999991
 30
0.0
 11
13999.16188449997
 21
20094.229199000001
 31
0.0
  0
LINE
  5
3AF7
  8
0-2
  6
CONTINUOUS
 62
     3
 10
14236.16172649999
 20
16928.30938200001
 30
0.0
 11
14236.16172649999
 21
20094.229199000001
 31
0.0
  0
LINE
  5
3AF8
  8
0-2
  6
CONTINUOUS
 62
     3
 10
14199.159575499971
 20
16951.194596000001
 30
0.0
 11
14199.159575499971
 21
20094.229199000001
 31
0.0
  0
LINE
  5
3AF9
  8
0-2
  6
CONTINUOUS
 62
     3
 10
14399.160234499979
 20
16827.494480000001
 30
0.0
 11
14399.160234499979
 21
20094.229199000001
 31
0.0
  0
LINE
  5
3AFA
  8
0-2
  6
CONTINUOUS
 62
     3
 10
14436.16040649999
 20
16804.60926600001
 30
0.0
 11
14436.16040649999
 21
20094.229199000001
 31
0.0
  0
LINE
  5
3AFB
  8
0-2
  6
CONTINUOUS
 62
     3
 10
14636.16106649999
 20
16680.909149999999
 30
0.0
 11
14636.16106649999
 21
20094.229199000001
 31
0.0
  0
LINE
  5
3AFC
  8
0-2
  6
CONTINUOUS
 62
     3
 10
14599.161884499979
 20
16703.792385000012
 30
0.0
 11
14599.161884499979
 21
20094.229199000001
 31
0.0
  0
LINE
  5
3AFD
  8
0-2
  6
CONTINUOUS
 62
     3
 10
14799.15957549998
 20
16580.090289
 30
0.0
 11
14799.15957549998
 21
20094.229199000001
 31
0.0
  0
LINE
  5
3AFE
  8
0-2
  6
CONTINUOUS
 62
     3
 10
14845.662491499979
 20
16557.207053999999
 30
0.0
 11
14845.662491499979
 21
20094.229199000001
 31
0.0
  0
LINE
  5
3AFF
  8
0-2
  6
CONTINUOUS
 62
     3
 10
12636.15941649999
 20
17646.652709999991
 30
0.0
 11
12636.15941649999
 21
20094.229199000001
 31
0.0
  0
LINE
  5
3B00
  8
0-2
  6
CONTINUOUS
 62
     3
 10
12399.15957549998
 20
18092.89954300001
 30
0.0
 11
12399.15957549998
 21
20094.229199000001
 31
0.0
  0
LINE
  5
3B01
  8
0-2
  6
CONTINUOUS
 62
     3
 10
12436.16172649999
 20
18023.230385999988
 30
0.0
 11
12436.16172649999
 21
20094.229199000001
 31
0.0
  0
LINE
  5
3B02
  8
0-2
  6
CONTINUOUS
 62
     3
 10
12677.71940949998
 20
17568.39838200001
 30
0.0
 11
12153.30732649998
 21
18555.815901999991
 31
0.0
  0
LINE
  5
3B03
  8
0-2
  6
CONTINUOUS
 62
     3
 10
12677.71940949998
 20
17568.39838200001
 30
0.0
 11
12840.30716849999
 21
17796.656669000011
 31
0.0
  0
LINE
  5
3B04
  8
0-2
  6
CONTINUOUS
 62
     3
 10
13110.82124949999
 20
17703.951854999988
 30
0.0
 11
12487.659891499979
 21
17324.230914
 31
0.0
  0
LINE
  5
3B05
  8
0-2
  6
CONTINUOUS
 62
     3
 10
14268.977195499991
 20
16941.378164000002
 30
0.0
 11
12487.659891499979
 21
15865.47142550002
 31
0.0
  0
LINE
  5
3B06
  8
0-2
  6
CONTINUOUS
 62
     3
 10
11788.67208549998
 20
18447.098762000009
 30
0.0
 11
9920.1613764999875
 21
17324.230914
 31
0.0
  0
LINE
  5
3B07
  8
0-2
  6
CONTINUOUS
 62
     3
 10
12417.66015549998
 20
17369.231309999988
 30
0.0
 11
12417.66015549998
 21
17279.232498000001
 31
0.0
  0
LINE
  5
3B08
  8
0-2
  6
CONTINUOUS
 62
     3
 10
12417.66015549998
 20
15910.47083150001
 30
0.0
 11
12417.66015549998
 21
15820.47201950001
 31
0.0
  0
LINE
  5
3B09
  8
0-2
  6
CONTINUOUS
 62
     3
 10
9616.4631404999873
 20
19789.247277999992
 30
0.0
 11
11988.035340499981
 21
18323.790590000001
 31
0.0
  0
LINE
  5
3B0A
  8
0-2
  6
CONTINUOUS
 62
     3
 10
12840.30716849999
 20
17796.656669000011
 30
0.0
 11
15215.28512849998
 21
16328.590474000001
 31
0.0
  0
LINE
  5
3B0B
  8
0-2
  6
CONTINUOUS
 62
     3
 10
9920.1613764999875
 20
18783.230914
 30
0.0
 11
10686.51474049999
 21
19133.290247000001
 31
0.0
  0
LINE
  5
3B0C
  8
0-2
  6
CONTINUOUS
 62
     3
 10
12417.66015549998
 20
14369.73155999998
 30
0.0
 11
12417.66015549998
 21
14213.731638999991
 31
0.0
  0
LINE
  5
3B0D
  8
0-6
  6
CONTINUOUS
 62
     6
 10
11721.24753366921
 20
19831.955391999982
 30
0.0
 11
11865.151606669189
 21
20344.231046000001
 31
0.0
  0
LINE
  5
3B0E
  8
0-6
  6
CONTINUOUS
 62
     6
 10
11865.151606669189
 20
20344.231046000001
 30
0.0
 11
12382.8402546692
 21
20344.231046000001
 31
0.0
  0
LINE
  5
3B0F
  8
0-6
  6
CONTINUOUS
 62
     6
 10
10014.687347499979
 20
17956.918493000001
 30
0.0
 11
10544.18537449999
 21
17956.918493000001
 31
0.0
  0
LINE
  5
3B10
  8
0-6
  6
CONTINUOUS
 62
     6
 10
11505.59993849999
 20
14600.62161799999
 30
0.0
 11
11588.486340499971
 21
14782.7994715
 31
0.0
  0
LINE
  5
3B11
  8
0-6
  6
CONTINUOUS
 62
     6
 10
11588.486340499971
 20
14782.7994715
 30
0.0
 11
12388.48700049997
 21
14782.7994715
 31
0.0
  0
LINE
  5
3B12
  8
0-6
  6
CONTINUOUS
 62
     6
 10
10894.340437499981
 20
14077.261649
 30
0.0
 11
11251.94979103191
 21
13413.729989999991
 31
0.0
  0
LINE
  5
3B13
  8
0-6
  6
CONTINUOUS
 62
     6
 10
8034.260662499988
 20
13013.731639
 30
0.0
 11
9114.2617504999907
 21
13013.731639
 31
0.0
  0
LINE
  5
3B14
  8
0-6
  6
CONTINUOUS
 62
     6
 10
9672.7660924999891
 20
15149.24399150002
 30
0.0
 11
9114.2617504999907
 21
13013.731639
 31
0.0
  0
LINE
  5
3B15
  8
0-6
  6
CONTINUOUS
 62
     6
 10
9915.6455994999887
 20
18177.708057
 30
0.0
 11
10014.687347499979
 21
17956.918493000001
 31
0.0
  0
LINE
  5
3B16
  8
0-6
  6
CONTINUOUS
 62
     6
 10
12760.943319499969
 20
21064.229461999988
 30
0.0
 11
14435.94463949998
 21
21064.229461999988
 31
0.0
  0
LINE
  5
3B17
  8
0-6
  6
CONTINUOUS
 62
     6
 10
14626.22784249998
 20
20734.64753699999
 30
0.0
 11
14435.94463949998
 21
21064.229461999988
 31
0.0
  0
LINE
  5
3B18
  8
0-6
  6
CONTINUOUS
 62
     6
 10
14918.928432499981
 20
20244.132730000001
 30
0.0
 11
14700.23313449998
 21
20606.465790999999
 31
0.0
  0
LINE
  5
3B19
  8
0-6
  6
CONTINUOUS
 62
     6
 10
15269.42793149998
 20
16218.77866
 30
0.0
 11
16149.425885499981
 21
16218.77866
 31
0.0
  0
LINE
  5
3B1A
  8
0-6
  6
CONTINUOUS
 62
     6
 10
15269.42793149998
 20
17729.644026999991
 30
0.0
 11
17263.87208249998
 21
17729.644026999991
 31
0.0
  0
LINE
  5
3B1B
  8
0-6
  6
CONTINUOUS
 62
     6
 10
15269.42793149998
 20
19188.142706999999
 30
0.0
 11
17263.87208249998
 21
19188.142706999999
 31
0.0
  0
LINE
  5
3B1C
  8
0-6
  6
CONTINUOUS
 62
     6
 10
15269.42793149998
 20
15412.1577115
 30
0.0
 11
17263.87208249998
 21
15412.1577115
 31
0.0
  0
LINE
  5
3B1D
  8
0-6
  6
CONTINUOUS
 62
     6
 10
14360.448769499981
 20
15762.413728500011
 30
0.0
 11
15269.42793149998
 21
15412.1577115
 31
0.0
  0
LINE
  5
3B1E
  8
0-6
  6
CONTINUOUS
 62
     6
 10
14627.13545149998
 20
16016.53718499999
 30
0.0
 11
15269.42793149998
 21
16218.77866
 31
0.0
  0
LINE
  5
3B1F
  8
0-6
  6
CONTINUOUS
 62
     6
 10
14362.886546499971
 20
17420.591898999988
 30
0.0
 11
15269.42793149998
 21
17729.644026999991
 31
0.0
  0
LINE
  5
3B20
  8
0-6
  6
CONTINUOUS
 62
     6
 10
14362.886546499971
 20
18879.59189900001
 30
0.0
 11
15269.42793149998
 21
19188.142706999999
 31
0.0
  0
LINE
  5
3B21
  8
0-6
  6
CONTINUOUS
 62
     6
 10
12360.66090849998
 20
16074.06892300001
 30
0.0
 11
12200.00120049997
 21
16499.092347999991
 31
0.0
  0
LINE
  5
3B22
  8
0-6
  6
CONTINUOUS
 62
     6
 10
11252.057260499991
 20
16499.092347999991
 30
0.0
 11
12200.00120049997
 21
16499.092347999991
 31
0.0
  0
LINE
  5
3B23
  8
0-6
  6
CONTINUOUS
 62
     6
 10
14370.125646499981
 20
15787.26361550002
 30
0.0
 11
14211.354399499971
 21
15820.47201950001
 31
0.0
  0
LINE
  5
3B24
  8
0-6
  6
CONTINUOUS
 62
     6
 10
14211.354399499971
 20
15820.47201950001
 30
0.0
 11
14350.77387249998
 21
15737.56483250002
 31
0.0
  0
LINE
  5
3B25
  8
0-6
  6
CONTINUOUS
 62
     6
 10
14211.354399499971
 20
15820.47201950001
 30
0.0
 11
14370.125646499981
 21
15787.26361550002
 31
0.0
  0
LINE
  5
3B26
  8
0-6
  6
CONTINUOUS
 62
     6
 10
14370.125646499981
 20
15787.26361550002
 30
0.0
 11
14350.77387249998
 21
15737.56483250002
 31
0.0
  0
LINE
  5
3B27
  8
0-6
  6
CONTINUOUS
 62
     6
 10
14350.77387249998
 20
15737.56483250002
 30
0.0
 11
14211.354399499971
 21
15820.47201950001
 31
0.0
  0
LINE
  5
3B28
  8
0-6
  6
CONTINUOUS
 62
     6
 10
14350.77387249998
 20
15737.56483250002
 30
0.0
 11
14370.125646499981
 21
15787.26361550002
 31
0.0
  0
LINE
  5
3B29
  8
0-6
  6
CONTINUOUS
 62
     6
 10
9698.2118144999913
 20
15141.2615835
 30
0.0
 11
9720.6590604999838
 21
15301.9064445
 31
0.0
  0
LINE
  5
3B2A
  8
0-6
  6
CONTINUOUS
 62
     6
 10
9720.6590604999838
 20
15301.9064445
 30
0.0
 11
9647.3233404999883
 21
15157.22640050002
 31
0.0
  0
LINE
  5
3B2B
  8
0-6
  6
CONTINUOUS
 62
     6
 10
9720.6590604999838
 20
15301.9064445
 30
0.0
 11
9698.2118144999913
 21
15141.2615835
 31
0.0
  0
LINE
  5
3B2C
  8
0-6
  6
CONTINUOUS
 62
     6
 10
9698.2118144999913
 20
15141.2615835
 30
0.0
 11
9647.3233404999883
 21
15157.22640050002
 31
0.0
  0
LINE
  5
3B2D
  8
0-6
  6
CONTINUOUS
 62
     6
 10
9647.3233404999883
 20
15157.22640050002
 30
0.0
 11
9720.6590604999838
 21
15301.9064445
 31
0.0
  0
LINE
  5
3B2E
  8
0-6
  6
CONTINUOUS
 62
     6
 10
9647.3233404999883
 20
15157.22640050002
 30
0.0
 11
9698.2118144999913
 21
15141.2615835
 31
0.0
  0
LINE
  5
3B2F
  8
0-6
  6
CONTINUOUS
 62
     6
 10
10917.08510549998
 20
14091.18261299999
 30
0.0
 11
10810.817619499991
 21
14213.731638999991
 31
0.0
  0
LINE
  5
3B30
  8
0-6
  6
CONTINUOUS
 62
     6
 10
10810.817619499991
 20
14213.731638999991
 30
0.0
 11
10871.596758499991
 21
14063.340684999979
 31
0.0
  0
LINE
  5
3B31
  8
0-6
  6
CONTINUOUS
 62
     6
 10
10810.817619499991
 20
14213.731638999991
 30
0.0
 11
10917.08510549998
 21
14091.18261299999
 31
0.0
  0
LINE
  5
3B32
  8
0-6
  6
CONTINUOUS
 62
     6
 10
10917.08510549998
 20
14091.18261299999
 30
0.0
 11
10871.596758499991
 21
14063.340684999979
 31
0.0
  0
LINE
  5
3B33
  8
0-6
  6
CONTINUOUS
 62
     6
 10
10871.596758499991
 20
14063.340684999979
 30
0.0
 11
10810.817619499991
 21
14213.731638999991
 31
0.0
  0
LINE
  5
3B34
  8
0-6
  6
CONTINUOUS
 62
     6
 10
10871.596758499991
 20
14063.340684999979
 30
0.0
 11
10917.08510549998
 21
14091.18261299999
 31
0.0
  0
LINE
  5
3B35
  8
0-6
  6
CONTINUOUS
 62
     6
 10
11481.451791499991
 20
14611.933577
 30
0.0
 11
11437.72620549999
 21
14455.730755
 31
0.0
  0
LINE
  5
3B36
  8
0-6
  6
CONTINUOUS
 62
     6
 10
11437.72620549999
 20
14455.730755
 30
0.0
 11
11529.74709649999
 21
14589.308669
 31
0.0
  0
LINE
  5
3B37
  8
0-6
  6
CONTINUOUS
 62
     6
 10
11437.72620549999
 20
14455.730755
 30
0.0
 11
11481.451791499991
 21
14611.933577
 31
0.0
  0
LINE
  5
3B38
  8
0-6
  6
CONTINUOUS
 62
     6
 10
11481.451791499991
 20
14611.933577
 30
0.0
 11
11529.74709649999
 21
14589.308669
 31
0.0
  0
LINE
  5
3B39
  8
0-6
  6
CONTINUOUS
 62
     6
 10
11529.74709649999
 20
14589.308669
 30
0.0
 11
11437.72620549999
 21
14455.730755
 31
0.0
  0
LINE
  5
3B3A
  8
0-6
  6
CONTINUOUS
 62
     6
 10
11529.74709649999
 20
14589.308669
 30
0.0
 11
11481.451791499991
 21
14611.933577
 31
0.0
  0
LINE
  5
3B3B
  8
0-6
  6
CONTINUOUS
 62
     6
 10
9939.9768524999872
 20
18188.625102000002
 30
0.0
 11
9850.1601554999925
 21
18323.693594
 31
0.0
  0
LINE
  5
3B3C
  8
0-6
  6
CONTINUOUS
 62
     6
 10
9850.1601554999925
 20
18323.693594
 30
0.0
 11
9891.3173164999862
 21
18166.796951
 31
0.0
  0
LINE
  5
3B3D
  8
0-6
  6
CONTINUOUS
 62
     6
 10
9850.1601554999925
 20
18323.693594
 30
0.0
 11
9939.9768524999872
 21
18188.625102000002
 31
0.0
  0
LINE
  5
3B3E
  8
0-6
  6
CONTINUOUS
 62
     6
 10
9939.9768524999872
 20
18188.625102000002
 30
0.0
 11
9891.3173164999862
 21
18166.796951
 31
0.0
  0
LINE
  5
3B3F
  8
0-6
  6
CONTINUOUS
 62
     6
 10
9891.3173164999862
 20
18166.796951
 30
0.0
 11
9850.1601554999925
 21
18323.693594
 31
0.0
  0
LINE
  5
3B40
  8
0-6
  6
CONTINUOUS
 62
     6
 10
9891.3173164999862
 20
18166.796951
 30
0.0
 11
9939.9768524999872
 21
18188.625102000002
 31
0.0
  0
LINE
  5
3B41
  8
0-6
  6
CONTINUOUS
 62
     6
 10
12328.31755349997
 20
16233.019316999989
 30
0.0
 11
12360.66090849998
 21
16074.06892300001
 31
0.0
  0
LINE
  5
3B42
  8
0-6
  6
CONTINUOUS
 62
     6
 10
12360.66090849998
 20
16074.06892300001
 30
0.0
 11
12278.51583549998
 21
16213.938737
 31
0.0
  0
LINE
  5
3B43
  8
0-6
  6
CONTINUOUS
 62
     6
 10
12360.66090849998
 20
16074.06892300001
 30
0.0
 11
12328.31755349997
 21
16233.019316999989
 31
0.0
  0
LINE
  5
3B44
  8
0-6
  6
CONTINUOUS
 62
     6
 10
12328.31755349997
 20
16233.019316999989
 30
0.0
 11
12278.51583549998
 21
16213.938737
 31
0.0
  0
LINE
  5
3B45
  8
0-6
  6
CONTINUOUS
 62
     6
 10
12278.51583549998
 20
16213.938737
 30
0.0
 11
12360.66090849998
 21
16074.06892300001
 31
0.0
  0
LINE
  5
3B46
  8
0-6
  6
CONTINUOUS
 62
     6
 10
12278.51583549998
 20
16213.938737
 30
0.0
 11
12328.31755349997
 21
16233.019316999989
 31
0.0
  0
LINE
  5
3B47
  8
0-6
  6
CONTINUOUS
 62
     6
 10
14354.326118499979
 20
17445.846597
 30
0.0
 11
14211.354399499971
 21
17369.231309999988
 31
0.0
  0
LINE
  5
3B48
  8
0-6
  6
CONTINUOUS
 62
     6
 10
14211.354399499971
 20
17369.231309999988
 30
0.0
 11
14371.444995499971
 21
17395.339180999999
 31
0.0
  0
LINE
  5
3B49
  8
0-6
  6
CONTINUOUS
 62
     6
 10
14211.354399499971
 20
17369.231309999988
 30
0.0
 11
14354.326118499979
 21
17445.846597
 31
0.0
  0
LINE
  5
3B4A
  8
0-6
  6
CONTINUOUS
 62
     6
 10
14354.326118499979
 20
17445.846597
 30
0.0
 11
14371.444995499971
 21
17395.339180999999
 31
0.0
  0
LINE
  5
3B4B
  8
0-6
  6
CONTINUOUS
 62
     6
 10
14371.444995499971
 20
17395.339180999999
 30
0.0
 11
14211.354399499971
 21
17369.231309999988
 31
0.0
  0
LINE
  5
3B4C
  8
0-6
  6
CONTINUOUS
 62
     6
 10
14371.444995499971
 20
17395.339180999999
 30
0.0
 11
14354.326118499979
 21
17445.846597
 31
0.0
  0
LINE
  5
3B4D
  8
0-6
  6
CONTINUOUS
 62
     6
 10
14354.326118499979
 20
18904.846597
 30
0.0
 11
14211.354399499971
 21
18828.23131000001
 31
0.0
  0
LINE
  5
3B4E
  8
0-6
  6
CONTINUOUS
 62
     6
 10
14211.354399499971
 20
18828.23131000001
 30
0.0
 11
14371.444995499971
 21
18854.339180999999
 31
0.0
  0
LINE
  5
3B4F
  8
0-6
  6
CONTINUOUS
 62
     6
 10
14211.354399499971
 20
18828.23131000001
 30
0.0
 11
14354.326118499979
 21
18904.846597
 31
0.0
  0
LINE
  5
3B50
  8
0-6
  6
CONTINUOUS
 62
     6
 10
14354.326118499979
 20
18904.846597
 30
0.0
 11
14371.444995499971
 21
18854.339180999999
 31
0.0
  0
LINE
  5
3B51
  8
0-6
  6
CONTINUOUS
 62
     6
 10
14371.444995499971
 20
18854.339180999999
 30
0.0
 11
14211.354399499971
 21
18828.23131000001
 31
0.0
  0
LINE
  5
3B52
  8
0-6
  6
CONTINUOUS
 62
     6
 10
14371.444995499971
 20
18854.339180999999
 30
0.0
 11
14354.326118499979
 21
18904.846597
 31
0.0
  0
LINE
  5
3B53
  8
0-6
  6
CONTINUOUS
 62
     6
 10
14771.42256049999
 20
16090.646402
 30
0.0
 11
14627.13545149998
 21
16016.53718499999
 31
0.0
  0
LINE
  5
3B54
  8
0-6
  6
CONTINUOUS
 62
     6
 10
14627.13545149998
 20
16016.53718499999
 30
0.0
 11
14787.66154149998
 21
16039.84502700001
 31
0.0
  0
LINE
  5
3B55
  8
0-6
  6
CONTINUOUS
 62
     6
 10
14627.13545149998
 20
16016.53718499999
 30
0.0
 11
14771.42256049999
 21
16090.646402
 31
0.0
  0
LINE
  5
3B56
  8
0-6
  6
CONTINUOUS
 62
     6
 10
14771.42256049999
 20
16090.646402
 30
0.0
 11
14787.66154149998
 21
16039.84502700001
 31
0.0
  0
LINE
  5
3B57
  8
0-6
  6
CONTINUOUS
 62
     6
 10
14787.66154149998
 20
16039.84502700001
 30
0.0
 11
14627.13545149998
 21
16016.53718499999
 31
0.0
  0
LINE
  5
3B58
  8
0-6
  6
CONTINUOUS
 62
     6
 10
14787.66154149998
 20
16039.84502700001
 30
0.0
 11
14771.42256049999
 21
16090.646402
 31
0.0
  0
LINE
  5
3B59
  8
0-6
  6
CONTINUOUS
 62
     6
 10
11695.36136966919
 20
19838.351215999999
 30
0.0
 11
11682.860709669199
 21
19676.62652799999
 31
0.0
  0
LINE
  5
3B5A
  8
0-6
  6
CONTINUOUS
 62
     6
 10
11682.860709669199
 20
19676.62652799999
 30
0.0
 11
11747.135677669199
 21
19825.555607999991
 31
0.0
  0
LINE
  5
3B5B
  8
0-6
  6
CONTINUOUS
 62
     6
 10
11682.860709669199
 20
19676.62652799999
 30
0.0
 11
11695.36136966919
 21
19838.351215999999
 31
0.0
  0
LINE
  5
3B5C
  8
0-6
  6
CONTINUOUS
 62
     6
 10
11695.36136966919
 20
19838.351215999999
 30
0.0
 11
11747.135677669199
 21
19825.555607999991
 31
0.0
  0
LINE
  5
3B5D
  8
0-6
  6
CONTINUOUS
 62
     6
 10
11747.135677669199
 20
19825.555607999991
 30
0.0
 11
11682.860709669199
 21
19676.62652799999
 31
0.0
  0
LINE
  5
3B5E
  8
0-6
  6
CONTINUOUS
 62
     6
 10
11747.135677669199
 20
19825.555607999991
 30
0.0
 11
11695.36136966919
 21
19838.351215999999
 31
0.0
  0
LINE
  5
3B5F
  8
0-6
  6
CONTINUOUS
 62
     6
 10
14897.27645849998
 20
20231.634050000001
 30
0.0
 11
14993.928432499961
 21
20114.230781999991
 31
0.0
  0
LINE
  5
3B60
  8
0-6
  6
CONTINUOUS
 62
     6
 10
14993.928432499961
 20
20114.230781999991
 30
0.0
 11
14940.57743749998
 21
20256.633389999992
 31
0.0
  0
LINE
  5
3B61
  8
0-6
  6
CONTINUOUS
 62
     6
 10
14993.928432499961
 20
20114.230781999991
 30
0.0
 11
14897.27645849998
 21
20231.634050000001
 31
0.0
  0
LINE
  5
3B62
  8
0-6
  6
CONTINUOUS
 62
     6
 10
14897.27645849998
 20
20231.634050000001
 30
0.0
 11
14940.57743749998
 21
20256.633389999992
 31
0.0
  0
LINE
  5
3B63
  8
0-6
  6
CONTINUOUS
 62
     6
 10
14940.57743749998
 20
20256.633389999992
 30
0.0
 11
14993.928432499961
 21
20114.230781999991
 31
0.0
  0
LINE
  5
3B64
  8
0-6
  6
CONTINUOUS
 62
     6
 10
14940.57743749998
 20
20256.633389999992
 30
0.0
 11
14897.27645849998
 21
20231.634050000001
 31
0.0
  0
LINE
  5
3B65
  8
2-0
  6
DASHED3
 62
     6
 10
9850.1601554999925
 20
19852.728459999991
 30
0.0
 11
14985.160155499991
 21
19852.728459999991
 31
0.0
  0
LINE
  5
3B66
  8
2-0
  6
DASHED3
 62
     6
 10
9807.6623654999876
 20
19670.990838000002
 30
0.0
 11
9807.6623654999876
 21
19937.728986999991
 31
0.0
  0
LINE
  5
3B67
  8
2-0
  6
DASHED3
 62
     6
 10
9850.1601554999925
 20
19644.70679
 30
0.0
 11
9850.1601554999925
 21
19937.728986999991
 31
0.0
  0
LINE
  5
3B68
  8
2-0
  6
DASHED3
 62
     6
 10
9807.6623654999876
 20
19937.728986999991
 30
0.0
 11
15027.66140949998
 21
19937.728986999991
 31
0.0
  0
LINE
  5
3B69
  8
2-0
  6
DASHED3
 62
     6
 10
14985.160155499991
 20
16470.923798
 30
0.0
 11
14985.160155499991
 21
19937.728986999991
 31
0.0
  0
LINE
  5
3B6A
  8
2-0
  6
DASHED3
 62
     6
 10
15027.66140949998
 20
16444.636781000001
 30
0.0
 11
15027.66140949998
 21
19937.728986999991
 31
0.0
  0
LINE
  5
3B6B
  8
2-0
  6
DASHED3
 62
     6
 10
9920.1613764999875
 20
19891.730914
 30
0.0
 11
12347.660419499971
 21
18783.230914
 31
0.0
  0
LINE
  5
3B6C
  8
2-0
  6
DASHED3
 62
     6
 10
11172.45883849999
 20
18828.23131000001
 30
0.0
 11
14985.160155499991
 21
18828.23131000001
 31
0.0
  0
LINE
  5
3B6D
  8
2-0
  6
DASHED3
 62
     6
 10
11317.97127049998
 20
18738.232498000001
 30
0.0
 11
14985.160155499991
 21
18738.232498000001
 31
0.0
  0
LINE
  5
3B6E
  8
2-0
  6
DASHED3
 62
     6
 10
13668.79409049998
 20
17279.232498000001
 30
0.0
 11
14985.160155499991
 21
17279.232498000001
 31
0.0
  0
LINE
  5
3B6F
  8
2-0
  6
DASHED3
 62
     6
 10
13523.28165849998
 20
17369.231309999988
 30
0.0
 11
14985.160155499991
 21
17369.231309999988
 31
0.0
  0
LINE
  5
3B70
  8
2-0
  6
DASHED3
 62
     6
 10
12487.659891499979
 20
18783.230914
 30
0.0
 11
14915.160419499971
 21
17324.230914
 31
0.0
  0
LINE
  5
3B71
  8
2-0
  6
DASHED3
 62
     6
 10
14915.160419499971
 20
17324.230914
 30
0.0
 11
14268.977195499991
 21
16941.378164000002
 31
0.0
  0
LINE
  5
3B72
  8
2-0
  6
DASHED3
 62
     6
 10
12487.659891499979
 20
19891.730914
 30
0.0
 11
14915.160419499971
 21
18783.230914
 31
0.0
  0
LINE
  5
3B73
  8
2-0
  6
DASHED3
 62
     6
 10
14915.160419499971
 20
19891.730914
 30
0.0
 11
12487.659891499979
 21
18783.230914
 31
0.0
  0
LINE
  5
3B74
  8
2-0
  6
DASHED3
 62
     6
 10
12360.66090849998
 20
18165.39149300001
 30
0.0
 11
12360.66090849998
 21
18738.232498000001
 31
0.0
  0
LINE
  5
3B75
  8
2-0
  6
DASHED3
 62
     6
 10
12417.66015549998
 20
18414.181347000002
 30
0.0
 11
12417.66015549998
 21
18738.232498000001
 31
0.0
  0
LINE
  5
3B76
  8
2-0
  6
DASHED3
 62
     6
 10
12474.661383499981
 20
17950.740416000011
 30
0.0
 11
12474.661383499981
 21
18738.232498000001
 31
0.0
  0
LINE
  5
3B77
  8
2-0
  6
DASHED3
 62
     6
 10
14915.160419499971
 20
18783.230914
 30
0.0
 11
13110.82124949999
 21
17703.951854999988
 31
0.0
  0
LINE
  5
3B78
  8
2-0
  6
DASHED3
 62
     6
 10
12347.660419499971
 20
18783.230914
 30
0.0
 11
11788.67208549998
 21
18447.098762000009
 31
0.0
  0
LINE
  5
3B79
  8
2-0
  6
DASHED3
 62
     6
 10
12417.66015549998
 20
18828.23131000001
 30
0.0
 11
12417.66015549998
 21
18738.232498000001
 31
0.0
  0
LINE
  5
3B7A
  8
2-0
  6
DASHED3
 62
     6
 10
10686.51474049999
 20
19133.290247000001
 30
0.0
 11
12347.660419499971
 21
19891.730914
 31
0.0
  0
LINE
  5
3B7B
  8
0-8
  6
CONTINUOUS
 62
     6
 10
14985.160155499991
 20
21134.229199000009
 30
0.0
 11
14985.160155499991
 21
20184.228538999982
 31
0.0
  0
LINE
  5
3B7C
  8
2-0
  6
CENTER2
 62
     6
 10
12417.66015549998
 20
21134.229199000009
 30
0.0
 11
12417.66015549998
 21
20184.228538999982
 31
0.0
  0
LINE
  5
3B7D
  8
2-0
  6
CENTER2
 62
     6
 10
8520.6588904999917
 20
19891.730914
 30
0.0
 11
10167.15927149999
 21
19891.730914
 31
0.0
  0
LINE
  5
3B7E
  8
2-0
  6
CENTER2
 62
     6
 10
9850.1601554999852
 20
21134.229199000009
 30
0.0
 11
9850.1601554999925
 21
20184.228538999982
 31
0.0
  0
LINE
  5
3B7F
  8
2-0
  6
CENTER2
 62
     6
 10
8520.6588904999917
 20
17324.230914
 30
0.0
 11
10167.15927149999
 21
17324.230914
 31
0.0
  0
LINE
  5
3B80
  8
2-0
  6
CENTER2
 62
     6
 10
8520.6570804999938
 20
14406.230913999991
 30
0.0
 11
10167.15927149999
 21
14406.230913999991
 31
0.0
  0
LINE
  5
3B81
  8
2-0
  6
CENTER2
 62
     6
 10
14658.66126449999
 20
17324.230914
 30
0.0
 11
15218.10000449998
 21
17324.230914
 31
0.0
  0
LINE
  5
3B82
  8
2-0
  6
CENTER2
 62
     6
 10
14658.66126449999
 20
14406.230913999991
 30
0.0
 11
15283.92592549998
 21
14406.230913999991
 31
0.0
  0
LINE
  5
3B83
  8
2-0
  6
CENTER2
 62
     6
 10
9631.3624824999933
 20
15865.47142550002
 30
0.0
 11
15218.10000449998
 21
15865.47142550002
 31
0.0
  0
LINE
  5
3B84
  8
2-0
  6
CENTER2
 62
     6
 10
9617.2217914999874
 20
18783.230914
 30
0.0
 11
15218.10000449998
 21
18783.230914
 31
0.0
  0
LINE
  5
3B85
  8
2-0
  6
DASHED3
 62
     6
 10
12360.66090849998
 20
18828.23131000001
 30
0.0
 11
12360.66090849998
 21
19852.728459999991
 31
0.0
  0
LINE
  5
3B86
  8
2-0
  6
DASHED3
 62
     6
 10
12417.66015549998
 20
18828.23131000001
 30
0.0
 11
12417.66015549998
 21
19852.728459999991
 31
0.0
  0
LINE
  5
3B87
  8
2-0
  6
DASHED3
 62
     6
 10
12474.661383499981
 20
18828.23131000001
 30
0.0
 11
12474.661383499981
 21
19852.728459999991
 31
0.0
  0
CIRCLE
  5
3B88
  8
0-1
  6
CONTINUOUS
 62
     4
 10
12417.66015549998
 20
21334.229859000021
 30
0.0
 40
199.9999949999999
  0
CIRCLE
  5
3B89
  8
0-1
  6
CONTINUOUS
 62
     4
 10
9850.1601554999852
 20
21334.229859000021
 30
0.0
 40
199.9999949999999
  0
CIRCLE
  5
3B8A
  8
0-1
  6
CONTINUOUS
 62
     4
 10
8320.6607054999877
 20
19891.730914
 30
0.0
 40
199.9999949999999
  0
CIRCLE
  5
3B8B
  8
0-1
  6
CONTINUOUS
 62
     4
 10
8320.6607054999877
 20
17324.230914
 30
0.0
 40
199.9999949999999
  0
CIRCLE
  5
3B8C
  8
0-1
  6
CONTINUOUS
 62
     4
 10
8320.6588954999897
 20
14406.230913999991
 30
0.0
 40
199.9999949999999
  0
CIRCLE
  5
3B8D
  8
0-1
  6
CONTINUOUS
 62
     4
 10
14985.160155499991
 20
21334.231838
 30
0.0
 40
199.9999949999999
  0
CIRCLE
  5
3B8E
  8
0-1
  6
CONTINUOUS
 62
     4
 10
15128.714698
 20
1375.999859
 30
0.0
 40
20.0
  0
ARC
  5
3B8F
  8
0-1
  6
CONTINUOUS
 62
     4
 10
15128.714698
 20
1375.999859
 30
0.0
 40
20.0
 50
180.0
 51
0.0
  0
ARC
  5
3B90
  8
0-1
  6
CONTINUOUS
 62
     4
 10
15128.714698
 20
1375.999859
 30
0.0
 40
20.0
 50
0.0
 51
179.99998499999839
  0
CIRCLE
  5
3B91
  8
0-1
  6
CONTINUOUS
 62
     4
 10
15128.714698
 20
1776.000188
 30
0.0
 40
20.0
  0
ARC
  5
3B92
  8
0-1
  6
CONTINUOUS
 62
     4
 10
15128.714698
 20
1776.000188
 30
0.0
 40
20.0
 50
180.0
 51
0.0
  0
ARC
  5
3B93
  8
0-1
  6
CONTINUOUS
 62
     4
 10
15128.714698
 20
1776.000188
 30
0.0
 40
20.0
 50
0.0
 51
179.99998499999839
  0
ARC
  5
3B94
  8
0-2
  6
CONTINUOUS
 62
     3
 10
15002.162280499981
 20
20079.228934999988
 30
0.0
 40
5.0
 50
180.0
 51
269.9999850001808
  0
ARC
  5
3B95
  8
0-2
  6
CONTINUOUS
 62
     3
 10
15002.162280499981
 20
20109.228538999989
 30
0.0
 40
5.0
 50
90.0
 51
180.0
  0
ARC
  5
3B96
  8
0-2
  6
CONTINUOUS
 62
     3
 10
15065.660287499981
 20
20109.228538999989
 30
0.0
 40
5.0
 50
0.0
 51
90.0
  0
ARC
  5
3B97
  8
0-2
  6
CONTINUOUS
 62
     3
 10
9769.6585384999908
 20
20109.228538999989
 30
0.0
 40
5.0
 50
90.0
 51
180.0
  0
ARC
  5
3B98
  8
0-2
  6
CONTINUOUS
 62
     3
 10
9833.1595154999923
 20
20109.228538999989
 30
0.0
 40
5.0
 50
0.0
 51
90.0
  0
ARC
  5
3B99
  8
0-2
  6
CONTINUOUS
 62
     3
 10
9833.1595154999923
 20
20079.228934999988
 30
0.0
 40
5.0
 50
269.9999850001808
 51
0.0
  0
TEXT
  5
3B9A
  8
0-1
  6
CONTINUOUS
 62
     7
 10
14928.673602499961
 20
21250.983184000012
 30
0.0
 40
160.0
  1
3
 72
     4
 11
14982.0069358333
 21
21330.983184000012
 31
0.0
  0
TEXT
  5
3B9B
  8
0-1
  6
CONTINUOUS
 62
     7
 10
12363.850902499969
 20
21242.534600000021
 30
0.0
 40
160.0
  1
2
 72
     4
 11
12417.1842358333
 21
21322.534600000021
 31
0.0
  0
TEXT
  5
3B9C
  8
0-1
  6
CONTINUOUS
 62
     7
 10
9795.5091114999905
 20
21244.244904000028
 30
0.0
 40
160.0
  1
1
 72
     4
 11
9822.1757781666565
 21
21324.244904000028
 31
0.0
  0
TEXT
  5
3B9D
  8
0-1
  6
CONTINUOUS
 62
     7
 10
8273.9020024999845
 20
19796.961461999999
 30
0.0
 40
160.0
  1
C
 72
     4
 11
8327.2353358333203
 21
19876.961461999999
 31
0.0
  0
TEXT
  5
3B9E
  8
0-1
  6
CONTINUOUS
 62
     7
 10
8273.9020024999845
 20
17229.463441000011
 30
0.0
 40
160.0
  1
B
 72
     4
 11
8327.2353358333203
 21
17309.463441000011
 31
0.0
  0
TEXT
  5
3B9F
  8
0-1
  6
CONTINUOUS
 62
     7
 10
8273.900192499992
 20
14311.462450999999
 30
0.0
 40
160.0
  1
A
 72
     4
 11
8327.233525833326
 21
14391.462450999999
 31
0.0
  0
TEXT
  5
3BA0
  8
0-1
  6
CONTINUOUS
 62
     7
 10
16666.024857015182
 20
1655.999916
 30
0.0
 40
160.0
  1
H
  0
TEXT
  5
3BA1
  8
0-1
  6
CONTINUOUS
 62
     7
 10
15176.14594299999
 20
1655.999916
 30
0.0
 40
160.0
  1
（ ）内寸法ハ、  タ イプヲ示ス。
  0
TEXT
  5
3BA2
  8
0-1
  6
CONTINUOUS
 62
     7
 10
15288.714236
 20
1256.000081000001
 30
0.0
 40
160.0
  1
有効高サハ、基礎高サヲ含ミマセン。
  0
TEXT
  5
3BA3
  8
0-6
  6
CONTINUOUS
 62
     7
 10
11945.150880669191
 20
20424.231309999981
 30
0.0
 40
160.0
  1
屋根
 72
     4
 11
12115.817547335861
 21
20504.231309999981
 31
0.0
  0
TEXT
  5
3BA4
  8
0-6
  6
CONTINUOUS
 62
     7
 10
11668.485615499991
 20
14862.79973550001
 30
0.0
 40
160.0
  1
桁（前）
 72
     4
 11
11988.485615499991
 21
14942.79973550001
 31
0.0
  0
TEXT
  5
3BA5
  8
0-6
  6
CONTINUOUS
 62
     7
 10
11289.282399365269
 20
13493.730254
 30
0.0
 40
160.0
  1
鼻隠し前
 72
     4
 11
11651.949066031941
 21
13573.730254
 31
0.0
  0
TEXT
  5
3BA6
  8
0-6
  6
CONTINUOUS
 62
     7
 10
8114.2624104999932
 20
13093.72992399999
 30
0.0
 40
160.0
  1
ケラバ 左
 72
     4
 11
8530.2624104999904
 21
13173.72992399999
 31
0.0
  0
TEXT
  5
3BA7
  8
0-6
  6
CONTINUOUS
 62
     7
 10
10094.686126499981
 20
18036.91875700001
 30
0.0
 40
160.0
  1
上枠
 72
     4
 11
10265.35279316665
 21
18116.91875700001
 31
0.0
  0
TEXT
  5
3BA8
  8
0-6
  6
CONTINUOUS
 62
     7
 10
12840.94556249997
 20
21144.229726000001
 30
0.0
 40
160.0
  1
鼻隠しコーナー後
 72
     4
 11
13587.61222916664
 21
21224.229726000001
 31
0.0
  0
TEXT
  5
3BA9
  8
0-6
  6
CONTINUOUS
 62
     7
 10
15349.42819549997
 20
16298.778924000009
 30
0.0
 40
160.0
  1
ブレース
 72
     4
 11
15712.094862166639
 21
16384.112257333341
 31
0.0
  0
TEXT
  5
3BAA
  8
0-6
  6
CONTINUOUS
 62
     7
 10
11268.295251499971
 20
16579.092612000011
 30
0.0
 40
160.0
  1
梁　梁補強
 72
     4
 11
11726.96191816664
 21
16659.092612000011
 31
0.0
  0
TEXT
  5
3BAB
  8
0-6
  6
CONTINUOUS
 62
     7
 10
11488.145533499979
 20
16581.465065
 30
0.0
 40
160.0
  1
+
 72
     4
 11
11541.47886683332
 21
16661.465065
 31
0.0
  0
TEXT
  5
3BAC
  8
2-0
  6
CONTINUOUS
 62
     7
 10
11100.55381649998
 20
12160.585921
 30
0.0
 40
160.0
  1
小 屋 伏 図
 72
     4
 11
11601.887149833319
 21
12240.585921
 31
0.0
  0
TEXT
  5
3BAD
  8
2-0
  6
CONTINUOUS
 62
     7
 10
15349.999286499969
 20
19268.140990999989
 30
0.0
 40
160.0
  1
桁中B +  桁中補強B
 72
     4
 11
16283.332619833311
 21
19348.140990999989
 31
0.0
  0
TEXT
  5
3BAE
  8
2-0
  6
CONTINUOUS
 62
     7
 10
15349.999286499969
 20
17809.638352000009
 30
0.0
 40
160.0
  1
桁中A +  桁中補強A
 72
     4
 11
16283.332619833311
 21
17889.638352000009
 31
0.0
  0
TEXT
  5
3BAF
  8
2-0
  6
CONTINUOUS
 62
     7
 10
15349.999286499969
 20
15492.15401650001
 30
0.0
 40
160.0
  1
桁中B +  桁中補強B
 72
     4
 11
16283.332619833311
 21
15572.15401650001
 31
0.0
  0
TEXT
  5
3BB8
  8
2-0
  6
CONTINUOUS
 62
     7
 10
12953.37933497093
 20
12187.78128999999
 30
0.0
 40
160.0
  1
1
 72
     4
 11
12980.0460016376
 21
12267.78128999999
 31
0.0
  0
TEXT
  5
3BB9
  8
2-0
  6
CONTINUOUS
 62
     7
 10
13196.46805222164
 20
12107.782757999979
 30
0.0
 40
160.0
  1
80
 72
     4
 11
13316.46805222164
 21
12187.782757999979
 31
0.0
  0
TEXT
  5
3BBA
  8
2-0
  6
CONTINUOUS
 62
     7
 10
12454.381300970939
 20
12160.585921
 30
0.0
 40
160.0
  1
(S=  /   )
 72
     4
 11
13014.381300970939
 21
12240.585921
 31
0.0
  0
TEXT
  5
3BBB
  8
0-6
  6
CONTINUOUS
 62
     7
 10
9955.4448266448035
 20
20424.227350000008
 30
0.0
 40
160.0
  1
桁後+桁後補強
 72
     4
 11
10590.11149331147
 21
20504.227350000008
 31
0.0
  0
LINE
  5
3BBC
  8
0-6
  6
CONTINUOUS
 62
     6
 10
11399.160234499979
 20
19937.728986999991
 30
0.0
 11
11265.76628661874
 21
20344.229066000011
 31
0.0
  0
LINE
  5
3BBD
  8
0-6
  6
CONTINUOUS
 62
     6
 10
9906.5241570495327
 20
20344.229066000011
 30
0.0
 11
11265.76628661874
 21
20344.229066000011
 31
0.0
  0
LINE
  5
3BBE
  8
0-6
  6
CONTINUOUS
 62
     6
 10
11375.5527791327
 20
20098.210425424921
 30
0.0
 11
11324.77913535974
 21
20081.87690924016
 31
0.0
  0
LINE
  5
3BBF
  8
0-6
  6
CONTINUOUS
 62
     6
 10
11375.5527791327
 20
20098.210425424921
 30
0.0
 11
11399.160234499979
 21
19937.728986999991
 31
0.0
  0
LINE
  5
3BC0
  8
0-6
  6
CONTINUOUS
 62
     6
 10
11324.77913535974
 20
20081.87690924016
 30
0.0
 11
11375.5527791327
 21
20098.210425424921
 31
0.0
  0
LINE
  5
3BC1
  8
0-6
  6
CONTINUOUS
 62
     6
 10
11399.160234499979
 20
19937.728986999991
 30
0.0
 11
11324.77913535974
 21
20081.87690924016
 31
0.0
  0
LINE
  5
3BC2
  8
0-6
  6
CONTINUOUS
 62
     6
 10
11399.160234499979
 20
19937.728986999991
 30
0.0
 11
11375.5527791327
 21
20098.210425424921
 31
0.0
  0
LINE
  5
3BC3
  8
0-6
  6
CONTINUOUS
 62
     6
 10
11324.77913535974
 20
20081.87690924016
 30
0.0
 11
11399.160234499979
 21
19937.728986999991
 31
0.0
  0
LINE
  5
3BC4
  8
0-1
  6
CONTINUOUS
 62
     3
 10
8789.3756595000086
 20
8526.8256480000018
 30
0.0
 11
14319.874076499989
 21
8526.8256480000018
 31
0.0
  0
LINE
  5
3BC5
  8
0-1
  6
CONTINUOUS
 62
     3
 10
8079.3748015000074
 20
6515.7797690000016
 30
0.0
 11
14352.373878500001
 21
6515.7797690000016
 31
0.0
  0
LINE
  5
3BC6
  8
0-1
  6
CONTINUOUS
 62
     3
 10
8884.3747355000087
 20
6665.7797690000016
 30
0.0
 11
11306.8740105
 21
6665.7797690000016
 31
0.0
  0
LINE
  5
3BC7
  8
0-1
  6
CONTINUOUS
 62
     3
 10
8761.8738785000005
 20
6615.7796040000021
 30
0.0
 11
14352.373878500001
 21
6615.7796040000021
 31
0.0
  0
LINE
  5
3BC8
  8
0-1
  6
CONTINUOUS
 62
     3
 10
8884.3747355000087
 20
8526.8256480000018
 30
0.0
 11
8884.3747355000087
 21
6615.7796040000021
 31
0.0
  0
LINE
  5
3BC9
  8
0-1
  6
CONTINUOUS
 62
     3
 10
8769.3746035000058
 20
8648.7936849999969
 30
0.0
 11
8769.3746035000058
 21
6615.7796040000021
 31
0.0
  0
LINE
  5
3BCA
  8
0-1
  6
CONTINUOUS
 62
     3
 10
8789.3756595000086
 20
8649.4489060000051
 30
0.0
 11
8789.3756595000086
 21
6615.7796040000021
 31
0.0
  0
LINE
  5
3BCB
  8
0-1
  6
CONTINUOUS
 62
     3
 10
8761.8738785000005
 20
6515.7797690000016
 30
0.0
 11
8761.8738785000005
 21
6615.7796040000021
 31
0.0
  0
LINE
  5
3BCC
  8
0-1
  6
CONTINUOUS
 62
     3
 10
14415.00776049999
 20
8833.2689810000029
 30
0.0
 11
14410.747836500001
 21
8963.198642000003
 31
0.0
  0
LINE
  5
3BCD
  8
0-1
  6
CONTINUOUS
 62
     3
 10
11451.873746499999
 20
6665.7797690000016
 30
0.0
 11
14224.874010499991
 21
6665.7797690000016
 31
0.0
  0
LINE
  5
3BCE
  8
0-1
  6
CONTINUOUS
 62
     3
 10
10915.373732499969
 20
6665.7797690000016
 30
0.0
 11
10915.373732499969
 21
8526.8256480000018
 31
0.0
  0
LINE
  5
3BCF
  8
0-1
  6
CONTINUOUS
 62
     3
 10
10782.3748285
 20
6665.7797690000016
 30
0.0
 11
10782.3748285
 21
8526.8256480000018
 31
0.0
  0
LINE
  5
3BD0
  8
0-1
  6
CONTINUOUS
 62
     3
 10
10767.373046500001
 20
6665.7797690000016
 30
0.0
 11
10767.373046500001
 21
8526.8256480000018
 31
0.0
  0
LINE
  5
3BD1
  8
0-1
  6
CONTINUOUS
 62
     3
 10
10965.37538249998
 20
6665.7797690000016
 30
0.0
 11
10965.37538249998
 21
8526.8256480000018
 31
0.0
  0
LINE
  5
3BD2
  8
0-1
  6
CONTINUOUS
 62
     3
 10
10985.374458499989
 20
6665.7797690000016
 30
0.0
 11
10985.374458499989
 21
8526.8256480000018
 31
0.0
  0
LINE
  5
3BD3
  8
0-1
  6
CONTINUOUS
 62
     3
 10
11035.3751185
 20
6665.7797690000016
 30
0.0
 11
11035.3751185
 21
8526.8256480000018
 31
0.0
  0
LINE
  5
3BD4
  8
0-1
  6
CONTINUOUS
 62
     3
 10
11168.3740235
 20
6665.7797690000016
 30
0.0
 11
11168.3740235
 21
8526.8256480000018
 31
0.0
  0
LINE
  5
3BD5
  8
0-1
  6
CONTINUOUS
 62
     3
 10
11183.3728355
 20
6665.7797690000016
 30
0.0
 11
11183.3728355
 21
8526.8256480000018
 31
0.0
  0
LINE
  5
3BD6
  8
0-1
  6
CONTINUOUS
 62
     3
 10
11451.873746499999
 20
8526.8256480000018
 30
0.0
 11
11451.873746499999
 21
6615.7796040000021
 31
0.0
  0
LINE
  5
3BD7
  8
0-1
  6
CONTINUOUS
 62
     3
 10
11306.8740105
 20
8526.8256480000018
 30
0.0
 11
11306.8740105
 21
6615.7796040000021
 31
0.0
  0
LINE
  5
3BD8
  8
0-1
  6
CONTINUOUS
 62
     3
 10
11575.372941499991
 20
6665.7797690000016
 30
0.0
 11
11575.372941499991
 21
8526.8256480000018
 31
0.0
  0
LINE
  5
3BD9
  8
0-1
  6
CONTINUOUS
 62
     3
 10
11590.374722500001
 20
6665.7797690000016
 30
0.0
 11
11590.374722500001
 21
8526.8256480000018
 31
0.0
  0
LINE
  5
3BDA
  8
0-1
  6
CONTINUOUS
 62
     3
 10
11723.373627499999
 20
6665.7797690000016
 30
0.0
 11
11723.373627499999
 21
8526.8256480000018
 31
0.0
  0
LINE
  5
3BDB
  8
0-1
  6
CONTINUOUS
 62
     3
 10
11773.37428749999
 20
6665.7797690000016
 30
0.0
 11
11773.37428749999
 21
8526.8256480000018
 31
0.0
  0
LINE
  5
3BDC
  8
0-1
  6
CONTINUOUS
 62
     3
 10
11793.373363500001
 20
6665.7797690000016
 30
0.0
 11
11793.373363500001
 21
8526.8256480000018
 31
0.0
  0
LINE
  5
3BDD
  8
0-1
  6
CONTINUOUS
 62
     3
 10
9565.3737324999875
 20
6665.7797690000016
 30
0.0
 11
9565.3737324999875
 21
8526.8256480000018
 31
0.0
  0
LINE
  5
3BDE
  8
0-1
  6
CONTINUOUS
 62
     3
 10
9585.3757785000034
 20
6665.7797690000016
 30
0.0
 11
9585.3757785000034
 21
8526.8256480000018
 31
0.0
  0
LINE
  5
3BDF
  8
0-1
  6
CONTINUOUS
 62
     3
 10
9515.3730734999917
 20
6665.7797690000016
 30
0.0
 11
9515.3730734999917
 21
8526.8256480000018
 31
0.0
  0
LINE
  5
3BE0
  8
0-1
  6
CONTINUOUS
 62
     3
 10
9635.3734695000021
 20
6665.7797690000016
 30
0.0
 11
9635.3734695000021
 21
8526.8256480000018
 31
0.0
  0
LINE
  5
3BE1
  8
0-1
  6
CONTINUOUS
 62
     3
 10
9768.3733635000044
 20
6665.7797690000016
 30
0.0
 11
9768.3733635000044
 21
8526.8256480000018
 31
0.0
  0
LINE
  5
3BE2
  8
0-1
  6
CONTINUOUS
 62
     3
 10
9783.375145500002
 20
6665.7797690000016
 30
0.0
 11
9783.375145500002
 21
8526.8256480000018
 31
0.0
  0
LINE
  5
3BE3
  8
0-1
  6
CONTINUOUS
 62
     3
 10
9372.8743925000072
 20
6665.7797690000016
 30
0.0
 11
9372.8743925000072
 21
8526.8256480000018
 31
0.0
  0
LINE
  5
3BE4
  8
0-1
  6
CONTINUOUS
 62
     3
 10
9357.8755805000092
 20
6665.7797690000016
 30
0.0
 11
9357.8755805000092
 21
8526.8256480000018
 31
0.0
  0
LINE
  5
3BE5
  8
0-1
  6
CONTINUOUS
 62
     3
 10
10067.37370649998
 20
6665.7797690000016
 30
0.0
 11
10067.37370649998
 21
8526.8256480000018
 31
0.0
  0
LINE
  5
3BE6
  8
0-1
  6
CONTINUOUS
 62
     3
 10
10082.37251849998
 20
6665.7797690000016
 30
0.0
 11
10082.37251849998
 21
8526.8256480000018
 31
0.0
  0
LINE
  5
3BE7
  8
0-1
  6
CONTINUOUS
 62
     3
 10
10483.3744855
 20
6665.7797690000016
 30
0.0
 11
10483.3744855
 21
8526.8256480000018
 31
0.0
  0
LINE
  5
3BE8
  8
0-1
  6
CONTINUOUS
 62
     3
 10
10468.37270349999
 20
6665.7797690000016
 30
0.0
 11
10468.37270349999
 21
8526.8256480000018
 31
0.0
  0
LINE
  5
3BE9
  8
0-1
  6
CONTINUOUS
 62
     3
 10
10335.372809499981
 20
6665.7797690000016
 30
0.0
 11
10335.372809499981
 21
8526.8256480000018
 31
0.0
  0
LINE
  5
3BEA
  8
0-1
  6
CONTINUOUS
 62
     3
 10
10215.3743925
 20
6665.7797690000016
 30
0.0
 11
10215.3743925
 21
8526.8256480000018
 31
0.0
  0
LINE
  5
3BEB
  8
0-1
  6
CONTINUOUS
 62
     3
 10
10285.37511849998
 20
6665.7797690000016
 30
0.0
 11
10285.37511849998
 21
8526.8256480000018
 31
0.0
  0
LINE
  5
3BEC
  8
0-1
  6
CONTINUOUS
 62
     3
 10
10265.37307349999
 20
6665.7797690000016
 30
0.0
 11
10265.37307349999
 21
8526.8256480000018
 31
0.0
  0
LINE
  5
3BED
  8
0-1
  6
CONTINUOUS
 62
     3
 10
10606.874669500001
 20
8526.8256480000018
 30
0.0
 11
10606.874669500001
 21
6665.7797690000016
 31
0.0
  0
LINE
  5
3BEE
  8
0-1
  6
CONTINUOUS
 62
     3
 10
10643.8728625
 20
8526.8256480000018
 30
0.0
 11
10643.8728625
 21
6665.7797690000016
 31
0.0
  0
LINE
  5
3BEF
  8
0-1
  6
CONTINUOUS
 62
     3
 10
9197.3742345000101
 20
8526.8256480000018
 30
0.0
 11
9197.3742345000101
 21
6665.7797690000016
 31
0.0
  0
LINE
  5
3BF0
  8
0-1
  6
CONTINUOUS
 62
     3
 10
9234.3744055000116
 20
8526.8256480000018
 30
0.0
 11
9234.3744055000116
 21
6665.7797690000016
 31
0.0
  0
LINE
  5
3BF1
  8
0-1
  6
CONTINUOUS
 62
     3
 10
9906.8753295000079
 20
8526.8256480000018
 30
0.0
 11
9906.8753295000079
 21
6665.7797690000016
 31
0.0
  0
LINE
  5
3BF2
  8
0-1
  6
CONTINUOUS
 62
     3
 10
9943.8735214999961
 20
8526.8256480000018
 30
0.0
 11
9943.8735214999961
 21
6665.7797690000016
 31
0.0
  0
LINE
  5
3BF3
  8
0-1
  6
CONTINUOUS
 62
     3
 10
11379.373878500001
 20
8734.0614480000004
 30
0.0
 11
11375.1129645
 21
8863.9911090000023
 31
0.0
  0
LINE
  5
3BF4
  8
0-1
  6
CONTINUOUS
 62
     3
 10
11379.373878500001
 20
8734.0614480000004
 30
0.0
 11
11379.373878500001
 21
8526.8256480000018
 31
0.0
  0
LINE
  5
3BF5
  8
0-1
  6
CONTINUOUS
 62
     3
 10
14224.874010499991
 20
8526.8256480000018
 30
0.0
 11
14224.874010499991
 21
6615.7796040000021
 31
0.0
  0
LINE
  5
3BF6
  8
0-1
  6
CONTINUOUS
 62
     3
 10
14339.8731525
 20
8830.805470000003
 30
0.0
 11
14339.8731525
 21
6615.7796040000021
 31
0.0
  0
LINE
  5
3BF7
  8
0-1
  6
CONTINUOUS
 62
     3
 10
14319.874076499989
 20
8830.149260000002
 30
0.0
 11
14319.874076499989
 21
6615.7796040000021
 31
0.0
  0
LINE
  5
3BF8
  8
0-1
  6
CONTINUOUS
 62
     3
 10
12814.87423449999
 20
8526.8256480000018
 30
0.0
 11
12814.87423449999
 21
6665.7797690000016
 31
0.0
  0
LINE
  5
3BF9
  8
0-1
  6
CONTINUOUS
 62
     3
 10
12851.87341649999
 20
8526.8256480000018
 30
0.0
 11
12851.87341649999
 21
6665.7797690000016
 31
0.0
  0
LINE
  5
3BFA
  8
0-1
  6
CONTINUOUS
 62
     3
 10
13524.874670499999
 20
8526.8256480000018
 30
0.0
 11
13524.874670499999
 21
6665.7797690000016
 31
0.0
  0
LINE
  5
3BFB
  8
0-1
  6
CONTINUOUS
 62
     3
 10
13561.8728625
 20
8526.8256480000018
 30
0.0
 11
13561.8728625
 21
6665.7797690000016
 31
0.0
  0
LINE
  5
3BFC
  8
0-1
  6
CONTINUOUS
 62
     3
 10
12114.8729145
 20
8526.8256480000018
 30
0.0
 11
12114.8729145
 21
6665.7797690000016
 31
0.0
  0
LINE
  5
3BFD
  8
0-1
  6
CONTINUOUS
 62
     3
 10
12151.87407649998
 20
8526.8256480000018
 30
0.0
 11
12151.87407649998
 21
6665.7797690000016
 31
0.0
  0
LINE
  5
3BFE
  8
0-1
  6
CONTINUOUS
 62
     3
 10
12493.372703499999
 20
6665.7797690000016
 30
0.0
 11
12493.372703499999
 21
8526.8256480000018
 31
0.0
  0
LINE
  5
3BFF
  8
0-1
  6
CONTINUOUS
 62
     3
 10
12473.37362749999
 20
6665.7797690000016
 30
0.0
 11
12473.37362749999
 21
8526.8256480000018
 31
0.0
  0
LINE
  5
3C00
  8
0-1
  6
CONTINUOUS
 62
     3
 10
12543.373363500001
 20
6665.7797690000016
 30
0.0
 11
12543.373363500001
 21
8526.8256480000018
 31
0.0
  0
LINE
  5
3C01
  8
0-1
  6
CONTINUOUS
 62
     3
 10
12423.37296749999
 20
6665.7797690000016
 30
0.0
 11
12423.37296749999
 21
8526.8256480000018
 31
0.0
  0
LINE
  5
3C02
  8
0-1
  6
CONTINUOUS
 62
     3
 10
12290.373073500001
 20
6665.7797690000016
 30
0.0
 11
12290.373073500001
 21
8526.8256480000018
 31
0.0
  0
LINE
  5
3C03
  8
0-1
  6
CONTINUOUS
 62
     3
 10
12275.374260500001
 20
6665.7797690000016
 30
0.0
 11
12275.374260500001
 21
8526.8256480000018
 31
0.0
  0
LINE
  5
3C04
  8
0-1
  6
CONTINUOUS
 62
     3
 10
12676.37325749999
 20
6665.7797690000016
 30
0.0
 11
12676.37325749999
 21
8526.8256480000018
 31
0.0
  0
LINE
  5
3C05
  8
0-1
  6
CONTINUOUS
 62
     3
 10
12691.375039500001
 20
6665.7797690000016
 30
0.0
 11
12691.375039500001
 21
8526.8256480000018
 31
0.0
  0
LINE
  5
3C06
  8
0-1
  6
CONTINUOUS
 62
     3
 10
13391.37437949999
 20
6665.7797690000016
 30
0.0
 11
13391.37437949999
 21
8526.8256480000018
 31
0.0
  0
LINE
  5
3C07
  8
0-1
  6
CONTINUOUS
 62
     3
 10
13376.3725985
 20
6665.7797690000016
 30
0.0
 11
13376.3725985
 21
8526.8256480000018
 31
0.0
  0
LINE
  5
3C08
  8
0-1
  6
CONTINUOUS
 62
     3
 10
12975.37360149999
 20
6665.7797690000016
 30
0.0
 11
12975.37360149999
 21
8526.8256480000018
 31
0.0
  0
LINE
  5
3C09
  8
0-1
  6
CONTINUOUS
 62
     3
 10
12990.3743925
 20
6665.7797690000016
 30
0.0
 11
12990.3743925
 21
8526.8256480000018
 31
0.0
  0
LINE
  5
3C0A
  8
0-1
  6
CONTINUOUS
 62
     3
 10
13123.375277499999
 20
6665.7797690000016
 30
0.0
 11
13123.375277499999
 21
8526.8256480000018
 31
0.0
  0
LINE
  5
3C0B
  8
0-1
  6
CONTINUOUS
 62
     3
 10
13243.372703499999
 20
6665.7797690000016
 30
0.0
 11
13243.372703499999
 21
8526.8256480000018
 31
0.0
  0
LINE
  5
3C0C
  8
0-1
  6
CONTINUOUS
 62
     3
 10
13173.3729675
 20
6665.7797690000016
 30
0.0
 11
13173.3729675
 21
8526.8256480000018
 31
0.0
  0
LINE
  5
3C0D
  8
0-1
  6
CONTINUOUS
 62
     3
 10
13193.37501349999
 20
6665.7797690000016
 30
0.0
 11
13193.37501349999
 21
8526.8256480000018
 31
0.0
  0
LINE
  5
3C0E
  8
0-1
  6
CONTINUOUS
 62
     3
 10
13903.374459500001
 20
6665.7797690000016
 30
0.0
 11
13903.374459500001
 21
8526.8256480000018
 31
0.0
  0
LINE
  5
3C0F
  8
0-1
  6
CONTINUOUS
 62
     3
 10
13883.375383500001
 20
6665.7797690000016
 30
0.0
 11
13883.375383500001
 21
8526.8256480000018
 31
0.0
  0
LINE
  5
3C10
  8
0-1
  6
CONTINUOUS
 62
     3
 10
13953.37511949999
 20
6665.7797690000016
 30
0.0
 11
13953.37511949999
 21
8526.8256480000018
 31
0.0
  0
LINE
  5
3C11
  8
0-1
  6
CONTINUOUS
 62
     3
 10
13833.374723499999
 20
6665.7797690000016
 30
0.0
 11
13833.374723499999
 21
8526.8256480000018
 31
0.0
  0
LINE
  5
3C12
  8
0-1
  6
CONTINUOUS
 62
     3
 10
13700.3748285
 20
6665.7797690000016
 30
0.0
 11
13700.3748285
 21
8526.8256480000018
 31
0.0
  0
LINE
  5
3C13
  8
0-1
  6
CONTINUOUS
 62
     3
 10
13685.373047499999
 20
6665.7797690000016
 30
0.0
 11
13685.373047499999
 21
8526.8256480000018
 31
0.0
  0
LINE
  5
3C14
  8
0-1
  6
CONTINUOUS
 62
     3
 10
14086.37501349999
 20
6665.7797690000016
 30
0.0
 11
14086.37501349999
 21
8526.8256480000018
 31
0.0
  0
LINE
  5
3C15
  8
0-1
  6
CONTINUOUS
 62
     3
 10
14101.373825499981
 20
6665.7797690000016
 30
0.0
 11
14101.373825499981
 21
8526.8256480000018
 31
0.0
  0
LINE
  5
3C16
  8
0-1
  6
CONTINUOUS
 62
     3
 10
11991.372730499999
 20
6665.7797690000016
 30
0.0
 11
11991.372730499999
 21
8526.8256480000018
 31
0.0
  0
LINE
  5
3C17
  8
0-1
  6
CONTINUOUS
 62
     3
 10
11976.373917499999
 20
6665.7797690000016
 30
0.0
 11
11976.373917499999
 21
8526.8256480000018
 31
0.0
  0
LINE
  5
3C18
  8
0-1
  6
CONTINUOUS
 62
     3
 10
11843.37501349999
 20
6665.7797690000016
 30
0.0
 11
11843.37501349999
 21
8526.8256480000018
 31
0.0
  0
LINE
  5
3C19
  8
0-1
  6
CONTINUOUS
 62
     3
 10
14352.373878500001
 20
6615.7796040000021
 30
0.0
 11
14352.373878500001
 21
6515.7797690000016
 31
0.0
  0
LINE
  5
3C1A
  8
0-1
  6
CONTINUOUS
 62
     3
 10
8592.0621965000137
 20
8691.0049390000022
 30
0.0
 11
8590.9477275000136
 21
8724.9873349999998
 31
0.0
  0
LINE
  5
3C1B
  8
0-1
  6
CONTINUOUS
 62
     3
 10
8593.8477225000097
 20
8728.0833020000027
 30
0.0
 11
14424.215490500001
 21
8918.6159240000015
 31
0.0
  0
LINE
  5
3C1C
  8
0-1
  6
CONTINUOUS
 62
     3
 10
14425.52692149999
 20
8878.6375670000016
 30
0.0
 11
8595.1601425000081
 21
8688.1049450000046
 31
0.0
  0
LINE
  5
3C1D
  8
0-1
  6
CONTINUOUS
 62
     3
 10
8592.4234584999995
 20
8680.0106930000056
 30
0.0
 11
8592.4204895000057
 21
8680.0760170000012
 31
0.0
  0
LINE
  5
3C1E
  8
0-1
  6
CONTINUOUS
 62
     3
 10
8592.4204895000057
 20
8680.0760170000012
 30
0.0
 11
8593.4716135000053
 21
8648.0286010000054
 31
0.0
  0
LINE
  5
3C1F
  8
0-1
  6
CONTINUOUS
 62
     3
 10
8598.6322185000045
 20
8643.1956070000069
 30
0.0
 11
14447.971693499991
 21
8834.3497980000029
 31
0.0
  0
LINE
  5
3C20
  8
0-1
  6
CONTINUOUS
 62
     3
 10
14443.710779499999
 20
8964.2794590000049
 30
0.0
 11
8594.3732845000068
 21
8773.1252680000016
 31
0.0
  0
LINE
  5
3C21
  8
0-1
  6
CONTINUOUS
 62
     3
 10
8589.5383105000055
 20
8767.963673000002
 30
0.0
 11
8590.5884445000029
 21
8735.981581
 31
0.0
  0
LINE
  5
3C22
  8
0-1
  6
CONTINUOUS
 62
     3
 10
8593.6844115000058
 20
8733.0815860000002
 30
0.0
 11
14424.05317049999
 21
8923.614209000003
 31
0.0
  0
LINE
  5
3C23
  8
0-1
  6
CONTINUOUS
 62
     3
 10
14425.689242500001
 20
8873.6412620000028
 30
0.0
 11
8595.3224635000097
 21
8683.1076500000017
 31
0.0
  0
LINE
  5
3C24
  8
0-1
  6
CONTINUOUS
 62
     3
 10
8606.8650365000067
 20
8773.5350280000057
 30
0.0
 11
8611.1259495000049
 21
8643.6043770000033
 31
0.0
  0
LINE
  5
3C25
  8
0-5
  6
CONTINUOUS
 62
     4
 10
17222.747439499992
 20
6723.6262510000033
 30
0.0
 11
17342.745856499991
 21
6515.7797690000016
 31
0.0
  0
LINE
  5
3C26
  8
0-5
  6
CONTINUOUS
 62
     4
 10
14432.374142500001
 20
6515.7797690000016
 30
0.0
 11
20015.619536499999
 21
6515.7797690000016
 31
0.0
  0
LINE
  5
3C27
  8
0-5
  6
CONTINUOUS
 62
     4
 10
17342.745856499991
 20
6515.7797690000016
 30
0.0
 11
17462.748231499991
 21
6723.6262510000033
 31
0.0
  0
LINE
  5
3C28
  8
0-5
  6
CONTINUOUS
 62
     4
 10
17462.748231499991
 20
6723.6262510000033
 30
0.0
 11
17222.747439499992
 21
6723.6262510000033
 31
0.0
  0
LINE
  5
3C29
  8
0-5
  6
CONTINUOUS
 62
     4
 10
14432.374142500001
 20
6615.7796040000021
 30
0.0
 11
16149.8340905
 21
6615.7796040000021
 31
0.0
  0
LINE
  5
3C2A
  8
0-5
  6
CONTINUOUS
 62
     4
 10
16177.460251500001
 20
6823.6255910000036
 30
0.0
 11
15937.4584705
 21
6823.6255910000036
 31
0.0
  0
LINE
  5
3C2B
  8
0-5
  6
CONTINUOUS
 62
     4
 10
16057.457876500001
 20
6615.7796040000021
 30
0.0
 11
16177.460251500001
 21
6823.6255910000036
 31
0.0
  0
LINE
  5
3C2C
  8
0-5
  6
CONTINUOUS
 62
     4
 10
15937.4584705
 20
6823.6255910000036
 30
0.0
 11
16057.457876500001
 21
6615.7796040000021
 31
0.0
  0
LINE
  5
3C2D
  8
2-0
  6
CENTER2
 62
     6
 10
8811.8738785000005
 20
6253.1263570000046
 30
0.0
 11
8811.8738785000005
 21
7310.2694489999967
 31
0.0
  0
LINE
  5
3C2E
  8
2-0
  6
CENTER2
 62
     6
 10
11379.373878500001
 20
6253.1263570000046
 30
0.0
 11
11379.373878500001
 21
7310.2694489999967
 31
0.0
  0
LINE
  5
3C2F
  8
2-0
  6
CENTER2
 62
     6
 10
14297.373878500001
 20
6253.1263570000046
 30
0.0
 11
14297.373878500001
 21
7310.2694489999967
 31
0.0
  0
ARC
  5
3C30
  8
0-1
  6
CONTINUOUS
 62
     3
 10
8595.2650575000062
 20
8730.6309420000034
 30
0.0
 40
2.5
 50
271.87799100002047
 51
91.877991000020657
  0
ARC
  5
3C31
  8
0-1
  6
CONTINUOUS
 62
     3
 10
8596.7397985000061
 20
8685.6562800000029
 30
0.0
 40
2.5
 50
271.87799100002047
 51
91.877991000020657
  0
ARC
  5
3C32
  8
0-1
  6
CONTINUOUS
 62
     3
 10
8593.9457085000067
 20
8725.0853210000023
 30
0.0
 40
3.0
 50
91.877991000020657
 51
181.87799100002039
  0
ARC
  5
3C33
  8
0-1
  6
CONTINUOUS
 62
     3
 10
14424.871701499989
 20
8898.6267460000035
 30
0.0
 40
20.0
 50
271.87799100002047
 51
91.877991000020657
  0
ARC
  5
3C34
  8
0-1
  6
CONTINUOUS
 62
     3
 10
8595.0601775000068
 20
8691.1039149999979
 30
0.0
 40
3.0
 50
181.87799100002039
 51
271.87799100002047
  0
ARC
  5
3C35
  8
0-1
  6
CONTINUOUS
 62
     3
 10
8595.4204495000085
 20
8680.1096690000049
 30
0.0
 40
3.0
 50
91.877991000020657
 51
181.87799100002039
  0
ARC
  5
3C36
  8
0-1
  6
CONTINUOUS
 62
     3
 10
8598.4689085000082
 20
8648.1919120000057
 30
0.0
 40
5.0
 50
181.87799100002039
 51
271.87799100002047
  0
ARC
  5
3C37
  8
0-1
  6
CONTINUOUS
 62
     3
 10
14419.873416500001
 20
8898.4634360000018
 30
0.0
 40
69.999999000000003
 50
293.66478000018742
 51
70.091202000197327
  0
ARC
  5
3C38
  8
0-1
  6
CONTINUOUS
 62
     3
 10
8594.5356045000062
 20
8768.1279730000024
 30
0.0
 40
5.0
 50
91.877991000020657
 51
181.87799100002039
  0
ARC
  5
3C39
  8
0-1
  6
CONTINUOUS
 62
     3
 10
8593.5854355000029
 20
8736.0795670000025
 30
0.0
 40
3.0
 50
181.87799100002039
 51
271.87799100002047
  0
ARC
  5
3C3A
  8
0-1
  6
CONTINUOUS
 62
     3
 10
14424.871701499989
 20
8898.6267460000035
 30
0.0
 40
24.999998999999999
 50
271.87799100002047
 51
91.877991000020657
  0
TEXT
  5
3C3B
  8
0-0
  6
CONTINUOUS
 62
     7
 10
17222.747439499992
 20
6803.6260200000024
 30
0.0
 40
160.0
  1
G.L
 72
     4
 11
17382.747439499992
 21
6883.6260200000042
 31
0.0
  0
TEXT
  5
3C3C
  8
0-0
  6
CONTINUOUS
 62
     7
 10
15598.366937499981
 20
6903.6258549999966
 30
0.0
 40
160.0
  1
布基礎天端
 72
     4
 11
16057.033604166651
 21
6983.6258549999984
 31
0.0
  0
TEXT
  5
3C3D
  8
2-0
  6
CONTINUOUS
 62
     7
 10
9898.7830575000098
 20
3638.6597025833762
 30
0.0
 40
160.0
  1
側 面 立 面 図
 72
     4
 11
10544.11639083334
 21
3718.6597025833762
 31
0.0
  0
TEXT
  5
3C3E
  8
2-0
  6
CONTINUOUS
 62
     7
 10
11895.60857597094
 20
3665.855071583379
 30
0.0
 40
160.0
  1
1
 72
     4
 11
11922.27524263761
 21
3745.855071583379
 31
0.0
  0
TEXT
  5
3C3F
  8
2-0
  6
CONTINUOUS
 62
     7
 10
12138.69729322165
 20
3585.8565395833748
 30
0.0
 40
160.0
  1
80
 72
     4
 11
12258.69729322165
 21
3665.8565395833748
 31
0.0
  0
TEXT
  5
3C40
  8
2-0
  6
CONTINUOUS
 62
     7
 10
11396.61054197096
 20
3638.6597025833762
 30
0.0
 40
160.0
  1
(S=  /   )
 72
     4
 11
11956.61054197096
 21
3718.6597025833762
 31
0.0
  0
LINE
  5
3C41
  8
0-1
  6
CONTINUOUS
 62
     3
 10
9064.3743395000256
 20
6665.7797690000016
 30
0.0
 11
9064.3743395000256
 21
8526.8256480000018
 31
0.0
  0
LINE
  5
3C42
  8
0-1
  6
CONTINUOUS
 62
     3
 10
9049.3755275000221
 20
6665.7797690000016
 30
0.0
 11
9049.3755275000221
 21
8526.8256480000018
 31
0.0
  0
LINE
  5
3C43
  8
0-5
  6
CONTINUOUS
 62
     4
 10
14297.373878500001
 20
4835.7801650000047
 30
0.0
 11
14297.373878500001
 21
4675.7806270000037
 31
0.0
  0
LINE
  5
3C44
  8
0-5
  6
CONTINUOUS
 62
     4
 10
11379.373878500001
 20
4835.7801650000047
 30
0.0
 11
11379.373878500001
 21
4675.7806270000037
 31
0.0
  0
LINE
  5
3C45
  8
0-5
  6
CONTINUOUS
 62
     4
 10
8811.8738785000005
 20
4835.7801650000047
 30
0.0
 11
8811.8738785000005
 21
4675.7806270000037
 31
0.0
  0
CIRCLE
  5
3C46
  8
0-5
  6
CONTINUOUS
 62
     4
 10
11379.373878500001
 20
4475.7794720000047
 30
0.0
 40
199.9999949999999
  0
CIRCLE
  5
3C47
  8
0-5
  6
CONTINUOUS
 62
     4
 10
14297.373878500001
 20
4475.7794720000047
 30
0.0
 40
199.9999949999999
  0
CIRCLE
  5
3C48
  8
0-5
  6
CONTINUOUS
 62
     4
 10
8811.8738785000005
 20
4475.7794720000047
 30
0.0
 40
199.9999949999999
  0
TEXT
  5
3C49
  8
0-5
  6
CONTINUOUS
 62
     7
 10
14250.417718499981
 20
4392.5686760000062
 30
0.0
 40
160.0
  1
A
 72
     4
 11
14303.75105183332
 21
4472.5686760000071
 31
0.0
  0
TEXT
  5
3C4A
  8
0-5
  6
CONTINUOUS
 62
     7
 10
11332.417718499981
 20
4392.5686760000062
 30
0.0
 40
160.0
  1
B
 72
     4
 11
11385.75105183332
 21
4472.5686760000071
 31
0.0
  0
TEXT
  5
3C4B
  8
0-5
  6
CONTINUOUS
 62
     7
 10
8764.9177185000062
 20
4392.5686760000062
 30
0.0
 40
160.0
  1
C
 72
     4
 11
8818.2510518333402
 21
4472.5686760000071
 31
0.0
  0
LINE
  5
3C56
  8
0-1
  6
CONTINUOUS
 62
     3
 10
25330.619139499991
 20
6615.7796039999957
 30
0.0
 11
25230.6197985
 21
6615.7796039999957
 31
0.0
  0
LINE
  5
3C57
  8
0-1
  6
CONTINUOUS
 62
     3
 10
25230.6197985
 20
6615.7796039999957
 30
0.0
 11
25230.6197985
 21
6515.7797690000016
 31
0.0
  0
LINE
  5
3C58
  8
0-1
  6
CONTINUOUS
 62
     3
 10
25330.619139499991
 20
6515.7797690000016
 30
0.0
 11
25330.619139499991
 21
6615.7796039999957
 31
0.0
  0
LINE
  5
3C59
  8
0-1
  6
CONTINUOUS
 62
     3
 10
25303.119666499992
 20
8964.2799530000029
 30
0.0
 11
25303.119666499992
 21
6615.7796039999957
 31
0.0
  0
LINE
  5
3C5A
  8
0-1
  6
CONTINUOUS
 62
     3
 10
25323.118743499988
 20
8834.2790299999979
 30
0.0
 11
25323.118743499988
 21
6615.7796039999957
 31
0.0
  0
LINE
  5
3C5B
  8
0-1
  6
CONTINUOUS
 62
     3
 10
25193.119798499982
 20
8523.7796629999975
 30
0.0
 11
25193.119798499982
 21
6515.7797690000016
 31
0.0
  0
LINE
  5
3C5C
  8
0-1
  6
CONTINUOUS
 62
     3
 10
25238.120194499981
 20
8834.2790299999979
 30
0.0
 11
25238.120194499981
 21
6615.7796039999957
 31
0.0
  0
LINE
  5
3C65
  8
0-1
  6
CONTINUOUS
 62
     3
 10
22755.616763500009
 20
8834.2790299999979
 30
0.0
 11
22755.616763500009
 21
6515.7797690000016
 31
0.0
  0
LINE
  5
3C66
  8
0-1
  6
CONTINUOUS
 62
     3
 10
22800.61715950002
 20
8523.7796629999975
 30
0.0
 11
22800.61715950002
 21
6515.7797690000016
 31
0.0
  0
LINE
  5
3C69
  8
0-1
  6
CONTINUOUS
 62
     3
 10
22800.61715950002
 20
8455.2393269999993
 30
0.0
 11
25193.119798499982
 21
8455.2393269999993
 31
0.0
  0
LINE
  5
3C6A
  8
0-1
  6
CONTINUOUS
 62
     3
 10
22800.61715950002
 20
7100.7804619999988
 30
0.0
 11
25193.119798499982
 21
7100.7804619999988
 31
0.0
  0
LINE
  5
3C6B
  8
0-1
  6
CONTINUOUS
 62
     3
 10
22800.61715950002
 20
7165.7794390000035
 30
0.0
 11
25193.119798499982
 21
7165.7794390000035
 31
0.0
  0
LINE
  5
3C6C
  8
0-1
  6
CONTINUOUS
 62
     3
 10
22800.61715950002
 20
7230.7799009999972
 30
0.0
 11
25193.119798499982
 21
7230.7799009999972
 31
0.0
  0
LINE
  5
3C6D
  8
0-1
  6
CONTINUOUS
 62
     3
 10
22800.61715950002
 20
7295.7798679999978
 30
0.0
 11
25193.119798499982
 21
7295.7798679999978
 31
0.0
  0
LINE
  5
3C6E
  8
0-1
  6
CONTINUOUS
 62
     3
 10
22800.61715950002
 20
7360.7798349999975
 30
0.0
 11
25193.119798499982
 21
7360.7798349999975
 31
0.0
  0
LINE
  5
3C6F
  8
0-1
  6
CONTINUOUS
 62
     3
 10
22800.61715950002
 20
7425.7798019999982
 30
0.0
 11
25193.119798499982
 21
7425.7798019999982
 31
0.0
  0
LINE
  5
3C70
  8
0-1
  6
CONTINUOUS
 62
     3
 10
22800.61715950002
 20
7490.7802640000027
 30
0.0
 11
25193.119798499982
 21
7490.7802640000027
 31
0.0
  0
LINE
  5
3C71
  8
0-1
  6
CONTINUOUS
 62
     3
 10
22800.61715950002
 20
7555.7792409999929
 30
0.0
 11
25193.119798499982
 21
7555.7792409999929
 31
0.0
  0
LINE
  5
3C72
  8
0-1
  6
CONTINUOUS
 62
     3
 10
22800.61715950002
 20
7620.7797029999929
 30
0.0
 11
25193.119798499982
 21
7620.7797029999929
 31
0.0
  0
LINE
  5
3C73
  8
0-1
  6
CONTINUOUS
 62
     3
 10
22800.61715950002
 20
7685.7796699999981
 30
0.0
 11
25193.119798499982
 21
7685.7796699999981
 31
0.0
  0
LINE
  5
3C74
  8
0-1
  6
CONTINUOUS
 62
     3
 10
22800.61715950002
 20
7750.7801319999971
 30
0.0
 11
25193.119798499982
 21
7750.7801319999971
 31
0.0
  0
LINE
  5
3C75
  8
0-1
  6
CONTINUOUS
 62
     3
 10
22800.61715950002
 20
7815.7791089999973
 30
0.0
 11
25193.119798499982
 21
7815.7791089999973
 31
0.0
  0
LINE
  5
3C76
  8
0-1
  6
CONTINUOUS
 62
     3
 10
22800.61715950002
 20
7880.7795709999973
 30
0.0
 11
25193.119798499982
 21
7880.7795709999973
 31
0.0
  0
LINE
  5
3C77
  8
0-1
  6
CONTINUOUS
 62
     3
 10
22800.61715950002
 20
7945.7795379999998
 30
0.0
 11
25193.119798499982
 21
7945.7795379999998
 31
0.0
  0
LINE
  5
3C78
  8
0-1
  6
CONTINUOUS
 62
     3
 10
22800.61715950002
 20
8010.7795050000004
 30
0.0
 11
25193.119798499982
 21
8010.7795050000004
 31
0.0
  0
LINE
  5
3C79
  8
0-1
  6
CONTINUOUS
 62
     3
 10
22800.61715950002
 20
8075.7799670000022
 30
0.0
 11
25193.119798499982
 21
8075.7799670000022
 31
0.0
  0
LINE
  5
3C7A
  8
0-1
  6
CONTINUOUS
 62
     3
 10
22800.61715950002
 20
8140.7799339999992
 30
0.0
 11
25193.119798499982
 21
8140.7799339999992
 31
0.0
  0
LINE
  5
3C7B
  8
0-1
  6
CONTINUOUS
 62
     3
 10
22800.61715950002
 20
8205.7803959999983
 30
0.0
 11
25193.119798499982
 21
8205.7803959999983
 31
0.0
  0
LINE
  5
3C7C
  8
0-1
  6
CONTINUOUS
 62
     3
 10
22800.61715950002
 20
8270.7793729999976
 30
0.0
 11
25193.119798499982
 21
8270.7793729999976
 31
0.0
  0
LINE
  5
3C7D
  8
0-1
  6
CONTINUOUS
 62
     3
 10
22800.61715950002
 20
8335.779835000003
 30
0.0
 11
25193.119798499982
 21
8335.779835000003
 31
0.0
  0
LINE
  5
3C7E
  8
0-1
  6
CONTINUOUS
 62
     3
 10
22800.61715950002
 20
8400.7798019999973
 30
0.0
 11
25193.119798499982
 21
8400.7798019999973
 31
0.0
  0
LINE
  5
3C7F
  8
0-1
  6
CONTINUOUS
 62
     3
 10
22800.61715950002
 20
6580.7792409999956
 30
0.0
 11
25193.119798499982
 21
6580.7792409999956
 31
0.0
  0
LINE
  5
3C80
  8
0-1
  6
CONTINUOUS
 62
     3
 10
22800.61715950002
 20
6645.7801979999967
 30
0.0
 11
25193.119798499982
 21
6645.7801979999967
 31
0.0
  0
LINE
  5
3C81
  8
0-1
  6
CONTINUOUS
 62
     3
 10
22800.61715950002
 20
6710.7791749999997
 30
0.0
 11
25193.119798499982
 21
6710.7791749999997
 31
0.0
  0
LINE
  5
3C82
  8
0-1
  6
CONTINUOUS
 62
     3
 10
22800.61715950002
 20
6775.7801319999971
 30
0.0
 11
25193.119798499982
 21
6775.7801319999971
 31
0.0
  0
LINE
  5
3C83
  8
0-1
  6
CONTINUOUS
 62
     3
 10
22800.61715950002
 20
6840.7796040000012
 30
0.0
 11
25193.119798499982
 21
6840.7796040000012
 31
0.0
  0
LINE
  5
3C84
  8
0-1
  6
CONTINUOUS
 62
     3
 10
22800.61715950002
 20
6905.779571
 30
0.0
 11
25193.119798499982
 21
6905.779571
 31
0.0
  0
LINE
  5
3C85
  8
0-1
  6
CONTINUOUS
 62
     3
 10
22800.61715950002
 20
6970.7795379999989
 30
0.0
 11
25193.119798499982
 21
6970.7795379999989
 31
0.0
  0
LINE
  5
3C86
  8
0-1
  6
CONTINUOUS
 62
     3
 10
22800.61715950002
 20
7035.7790099999966
 30
0.0
 11
25193.119798499982
 21
7035.7790099999966
 31
0.0
  0
LINE
  5
3C88
  8
0-1
  6
CONTINUOUS
 62
     3
 10
22755.616763500009
 20
8523.7796629999975
 30
0.0
 11
25238.120194499981
 21
8523.7796629999975
 31
0.0
  0
LINE
  5
3C89
  8
0-1
  6
CONTINUOUS
 62
     3
 10
20095.6178205
 20
6515.7797690000016
 30
0.0
 11
25330.619139499991
 21
6515.7797690000016
 31
0.0
  0
LINE
  5
3C93
  8
0-1
  6
CONTINUOUS
 62
     3
 10
22670.618215499991
 20
8834.2790299999979
 30
0.0
 11
22670.618215499991
 21
6515.7797690000016
 31
0.0
  0
LINE
  5
3C94
  8
0-1
  6
CONTINUOUS
 62
     3
 10
22625.61979949996
 20
8523.7796629999975
 30
0.0
 11
22625.61979949996
 21
6515.7797690000016
 31
0.0
  0
LINE
  5
3C9F
  8
0-1
  6
CONTINUOUS
 62
     3
 10
20195.619139499999
 20
6615.7796039999957
 30
0.0
 11
20195.619139499999
 21
6515.7797690000016
 31
0.0
  0
LINE
  5
3CA0
  8
0-1
  6
CONTINUOUS
 62
     3
 10
20095.6178205
 20
6515.7797690000016
 30
0.0
 11
20095.6178205
 21
6615.7796039999957
 31
0.0
  0
LINE
  5
3CA1
  8
0-1
  6
CONTINUOUS
 62
     3
 10
20095.6178205
 20
6615.7796039999957
 30
0.0
 11
20195.619139499999
 21
6615.7796039999957
 31
0.0
  0
LINE
  5
3CA2
  8
0-1
  6
CONTINUOUS
 62
     3
 10
20233.119139499991
 20
8523.7796629999975
 30
0.0
 11
20233.119139499991
 21
6515.7797690000016
 31
0.0
  0
LINE
  5
3CA3
  8
0-1
  6
CONTINUOUS
 62
     3
 10
20188.116764499991
 20
8834.2790299999979
 30
0.0
 11
20188.116764499991
 21
6615.7796039999957
 31
0.0
  0
LINE
  5
3CA4
  8
0-1
  6
CONTINUOUS
 62
     3
 10
20123.119271499982
 20
8964.2799530000029
 30
0.0
 11
20123.119271499982
 21
6615.7796039999957
 31
0.0
  0
LINE
  5
3CA5
  8
0-1
  6
CONTINUOUS
 62
     3
 10
20103.116236500009
 20
8834.2790299999979
 30
0.0
 11
20103.116236500009
 21
6615.7796039999957
 31
0.0
  0
LINE
  5
3CA6
  8
0-1
  6
CONTINUOUS
 62
     3
 10
20188.116764499991
 20
8523.7796629999975
 30
0.0
 11
22670.618215499991
 21
8523.7796629999975
 31
0.0
  0
LINE
  5
3CA8
  8
0-1
  6
CONTINUOUS
 62
     3
 10
20233.119139499991
 20
7035.7790099999966
 30
0.0
 11
22625.61979949996
 21
7035.7790099999966
 31
0.0
  0
LINE
  5
3CA9
  8
0-1
  6
CONTINUOUS
 62
     3
 10
20233.119139499991
 20
6970.7795379999989
 30
0.0
 11
22625.61979949996
 21
6970.7795379999989
 31
0.0
  0
LINE
  5
3CAA
  8
0-1
  6
CONTINUOUS
 62
     3
 10
20233.119139499991
 20
6905.779571
 30
0.0
 11
22625.61979949996
 21
6905.779571
 31
0.0
  0
LINE
  5
3CAB
  8
0-1
  6
CONTINUOUS
 62
     3
 10
20233.119139499991
 20
6840.7796040000012
 30
0.0
 11
22625.61979949996
 21
6840.7796040000012
 31
0.0
  0
LINE
  5
3CAC
  8
0-1
  6
CONTINUOUS
 62
     3
 10
20233.119139499991
 20
6775.7801319999971
 30
0.0
 11
22625.61979949996
 21
6775.7801319999971
 31
0.0
  0
LINE
  5
3CAD
  8
0-1
  6
CONTINUOUS
 62
     3
 10
20233.119139499991
 20
6710.7791749999997
 30
0.0
 11
22625.61979949996
 21
6710.7791749999997
 31
0.0
  0
LINE
  5
3CAE
  8
0-1
  6
CONTINUOUS
 62
     3
 10
20233.119139499991
 20
6645.7801979999967
 30
0.0
 11
22625.61979949996
 21
6645.7801979999967
 31
0.0
  0
LINE
  5
3CAF
  8
0-1
  6
CONTINUOUS
 62
     3
 10
20233.119139499991
 20
6580.7792409999956
 30
0.0
 11
22625.61979949996
 21
6580.7792409999956
 31
0.0
  0
LINE
  5
3CB0
  8
0-1
  6
CONTINUOUS
 62
     3
 10
20233.119139499991
 20
8400.7798019999973
 30
0.0
 11
22625.61979949996
 21
8400.7798019999973
 31
0.0
  0
LINE
  5
3CB1
  8
0-1
  6
CONTINUOUS
 62
     3
 10
20233.119139499991
 20
8335.779835000003
 30
0.0
 11
22625.61979949996
 21
8335.779835000003
 31
0.0
  0
LINE
  5
3CB2
  8
0-1
  6
CONTINUOUS
 62
     3
 10
20233.119139499991
 20
8270.7793729999976
 30
0.0
 11
22625.61979949996
 21
8270.7793729999976
 31
0.0
  0
LINE
  5
3CB3
  8
0-1
  6
CONTINUOUS
 62
     3
 10
20233.119139499991
 20
8205.7803959999983
 30
0.0
 11
22625.61979949996
 21
8205.7803959999983
 31
0.0
  0
LINE
  5
3CB4
  8
0-1
  6
CONTINUOUS
 62
     3
 10
20233.119139499991
 20
8140.7799339999992
 30
0.0
 11
22625.61979949996
 21
8140.7799339999992
 31
0.0
  0
LINE
  5
3CB5
  8
0-1
  6
CONTINUOUS
 62
     3
 10
20233.119139499991
 20
8075.7799670000022
 30
0.0
 11
22625.61979949996
 21
8075.7799670000022
 31
0.0
  0
LINE
  5
3CB6
  8
0-1
  6
CONTINUOUS
 62
     3
 10
20233.119139499991
 20
8010.7795050000004
 30
0.0
 11
22625.61979949996
 21
8010.7795050000004
 31
0.0
  0
LINE
  5
3CB7
  8
0-1
  6
CONTINUOUS
 62
     3
 10
20233.119139499991
 20
7945.7795379999998
 30
0.0
 11
22625.61979949996
 21
7945.7795379999998
 31
0.0
  0
LINE
  5
3CB8
  8
0-1
  6
CONTINUOUS
 62
     3
 10
20233.119139499991
 20
7880.7795709999973
 30
0.0
 11
22625.61979949996
 21
7880.7795709999973
 31
0.0
  0
LINE
  5
3CB9
  8
0-1
  6
CONTINUOUS
 62
     3
 10
20233.119139499991
 20
7815.7791089999973
 30
0.0
 11
22625.61979949996
 21
7815.7791089999973
 31
0.0
  0
LINE
  5
3CBA
  8
0-1
  6
CONTINUOUS
 62
     3
 10
20233.119139499991
 20
7750.7801319999971
 30
0.0
 11
22625.61979949996
 21
7750.7801319999971
 31
0.0
  0
LINE
  5
3CBB
  8
0-1
  6
CONTINUOUS
 62
     3
 10
20233.119139499991
 20
7685.7796699999981
 30
0.0
 11
22625.61979949996
 21
7685.7796699999981
 31
0.0
  0
LINE
  5
3CBC
  8
0-1
  6
CONTINUOUS
 62
     3
 10
20233.119139499991
 20
7620.7797029999929
 30
0.0
 11
22625.61979949996
 21
7620.7797029999929
 31
0.0
  0
LINE
  5
3CBD
  8
0-1
  6
CONTINUOUS
 62
     3
 10
20233.119139499991
 20
7555.7792409999929
 30
0.0
 11
22625.61979949996
 21
7555.7792409999929
 31
0.0
  0
LINE
  5
3CBE
  8
0-1
  6
CONTINUOUS
 62
     3
 10
20233.119139499991
 20
7490.7802640000027
 30
0.0
 11
22625.61979949996
 21
7490.7802640000027
 31
0.0
  0
LINE
  5
3CBF
  8
0-1
  6
CONTINUOUS
 62
     3
 10
20233.119139499991
 20
7425.7798019999982
 30
0.0
 11
22625.61979949996
 21
7425.7798019999982
 31
0.0
  0
LINE
  5
3CC0
  8
0-1
  6
CONTINUOUS
 62
     3
 10
20233.119139499991
 20
7360.7798349999975
 30
0.0
 11
22625.61979949996
 21
7360.7798349999975
 31
0.0
  0
LINE
  5
3CC1
  8
0-1
  6
CONTINUOUS
 62
     3
 10
20233.119139499991
 20
7295.7798679999978
 30
0.0
 11
22625.61979949996
 21
7295.7798679999978
 31
0.0
  0
LINE
  5
3CC2
  8
0-1
  6
CONTINUOUS
 62
     3
 10
20233.119139499991
 20
7230.7799009999972
 30
0.0
 11
22625.61979949996
 21
7230.7799009999972
 31
0.0
  0
LINE
  5
3CC3
  8
0-1
  6
CONTINUOUS
 62
     3
 10
20233.119139499991
 20
7165.7794390000035
 30
0.0
 11
22625.61979949996
 21
7165.7794390000035
 31
0.0
  0
LINE
  5
3CC4
  8
0-1
  6
CONTINUOUS
 62
     3
 10
20233.119139499991
 20
7100.7804619999988
 30
0.0
 11
22625.61979949996
 21
7100.7804619999988
 31
0.0
  0
LINE
  5
3CC5
  8
0-1
  6
CONTINUOUS
 62
     3
 10
20233.119139499991
 20
8455.2393269999993
 30
0.0
 11
22625.61979949996
 21
8455.2393269999993
 31
0.0
  0
LINE
  5
3CCB
  8
0-2
  6
CONTINUOUS
 62
     4
 10
24360.560479500011
 20
7263.0054729999974
 30
0.0
 11
24260.561139500001
 21
7263.0054729999974
 31
0.0
  0
LINE
  5
3CCC
  8
0-2
  6
CONTINUOUS
 62
     4
 10
23633.174499500001
 20
7263.0054729999974
 30
0.0
 11
23733.173840499989
 21
7263.0054729999974
 31
0.0
  0
LINE
  5
3CCD
  8
0-2
  6
CONTINUOUS
 62
     4
 10
21793.05949
 20
7263.0054729999974
 30
0.0
 11
21693.060150000001
 21
7263.0054729999974
 31
0.0
  0
LINE
  5
3CCE
  8
0-2
  6
CONTINUOUS
 62
     4
 10
21065.675489000001
 20
7263.0054729999974
 30
0.0
 11
21165.672849999992
 21
7263.0054729999974
 31
0.0
  0
LINE
  5
3CCF
  8
0-5
  6
CONTINUOUS
 62
     4
 10
22713.118479499979
 20
4835.7796699999972
 30
0.0
 11
22713.118479499979
 21
4675.7796369999969
 31
0.0
  0
LINE
  5
3CD0
  8
0-5
  6
CONTINUOUS
 62
     4
 10
20145.618479500001
 20
4835.7796699999972
 30
0.0
 11
20145.618479500001
 21
4675.7796369999969
 31
0.0
  0
LINE
  5
3CD1
  8
2-0
  6
CENTER2
 62
     6
 10
25280.618479500001
 20
6253.1273459999966
 30
0.0
 11
25280.618479500001
 21
7290.2693829999998
 31
0.0
  0
LINE
  5
3CD2
  8
2-0
  6
CENTER2
 62
     6
 10
22713.118479499979
 20
6253.1273459999966
 30
0.0
 11
22713.118479499979
 21
7290.2693829999998
 31
0.0
  0
LINE
  5
3CD3
  8
2-0
  6
CENTER2
 62
     6
 10
20145.618479500001
 20
6253.1273459999966
 30
0.0
 11
20145.618479500001
 21
7290.2693829999998
 31
0.0
  0
CIRCLE
  5
3CE4
  8
0-5
  6
CONTINUOUS
 62
     4
 10
22713.118479499979
 20
4475.7799669999986
 30
0.0
 40
199.9999949999999
  0
CIRCLE
  5
3CE5
  8
0-5
  6
CONTINUOUS
 62
     4
 10
20145.618479500001
 20
4475.7799669999986
 30
0.0
 40
199.9999949999999
  0
TEXT
  5
3CE6
  8
0-5
  6
CONTINUOUS
 62
     7
 10
19527.4425405
 20
7245.1400157419948
 30
0.0
 40
160.0
  1
(2131.5)
 50
90.0
 72
     4
 11
19447.4425405
 21
7698.4733490753279
 31
0.0
  0
TEXT
  5
3CE7
  8
0-5
  6
CONTINUOUS
 62
     7
 10
22666.190032499992
 20
4389.2500129999971
 30
0.0
 40
160.0
  1
2
 72
     4
 11
22719.52336583332
 21
4469.2500129999971
 31
0.0
  0
TEXT
  5
3CE8
  8
0-5
  6
CONTINUOUS
 62
     7
 10
20098.686073500001
 20
4389.2500129999971
 30
0.0
 40
160.0
  1
1
 72
     4
 11
20125.352740166662
 21
4469.2500129999971
 31
0.0
  0
CIRCLE
  5
3CE9
  8
0-4
  6
CONTINUOUS
 62
     4
 10
21429.36847949999
 20
7001.8357099999976
 30
0.0
 40
18.487504999999981
  0
CIRCLE
  5
3CEA
  8
0-4
  6
CONTINUOUS
 62
     4
 10
23996.86847949999
 20
7001.8357099999976
 30
0.0
 40
18.487504999999981
  0
LINE
  5
3CEB
  8
SUNPOU
  6
CONTINUOUS
 10
19863.118479499979
 20
5315.7797690000016
 30
0.0
 11
19505.163472778881
 21
5315.7797690000016
 31
0.0
  0
LINE
  5
3CEC
  8
SUNPOU
  6
CONTINUOUS
 10
25563.122438499991
 20
5315.7797690000016
 30
0.0
 11
25921.077445221112
 21
5315.7797690000016
 31
0.0
  0
LINE
  5
3CED
  8
0-5
  6
CONTINUOUS
 62
     4
 10
25323.11847949999
 20
4835.7796699999972
 30
0.0
 11
25323.11847949999
 21
4675.7796369999969
 31
0.0
  0
CIRCLE
  5
3CEE
  8
0-5
  6
CONTINUOUS
 62
     4
 10
25323.11847949999
 20
4475.7799669999986
 30
0.0
 40
199.9999949999999
  0
TEXT
  5
3CEF
  8
0-5
  6
CONTINUOUS
 62
     7
 10
25276.190032499999
 20
4389.2500129999971
 30
0.0
 40
160.0
  1
3
 72
     4
 11
25329.523365833331
 21
4469.2500129999971
 31
0.0
  0
TEXT
  5
3CF0
  8
2-0
  6
CONTINUOUS
 62
     7
 10
21395.084735499979
 20
3638.6581370000022
 30
0.0
 40
160.0
  1
正 面 立 面 図
 50
0.000139
 72
     4
 11
22040.417874750801
 21
3718.6597025833762
 31
0.0
  0
TEXT
  5
3CF1
  8
2-0
  6
CONTINUOUS
 62
     7
 10
23391.91005988844
 20
3665.855071583379
 30
0.0
 40
160.0
  1
1
 72
     4
 11
23418.576726555111
 21
3745.855071583379
 31
0.0
  0
TEXT
  5
3CF2
  8
2-0
  6
CONTINUOUS
 62
     7
 10
23634.998777139121
 20
3585.8565395833748
 30
0.0
 40
160.0
  1
80
 72
     4
 11
23754.998777139121
 21
3665.8565395833748
 31
0.0
  0
TEXT
  5
3CF3
  8
2-0
  6
CONTINUOUS
 62
     7
 10
22892.912025888429
 20
3638.6597025833762
 30
0.0
 40
160.0
  1
(S=  /   )
 72
     4
 11
23452.912025888429
 21
3718.6597025833762
 31
0.0
  0
LINE
  5
3CF4
  8
0-5
  6
CONTINUOUS
 62
     4
 10
17222.749419499982
 20
6723.625261000001
 30
0.0
 11
17342.745856499991
 21
6515.7797690000016
 31
0.0
  0
LINE
  5
3CF5
  8
0-5
  6
CONTINUOUS
 62
     4
 10
17342.745856499991
 20
6515.7797690000016
 30
0.0
 11
17462.746252499979
 21
6723.625261000001
 31
0.0
  0
LINE
  5
3CF6
  8
0-5
  6
CONTINUOUS
 62
     4
 10
17462.746252499979
 20
6723.625261000001
 30
0.0
 11
17222.749419499982
 21
6723.625261000001
 31
0.0
  0
TEXT
  5
3CF7
  8
0-5
  6
CONTINUOUS
 62
     7
 10
17222.749419499982
 20
6803.6260190000021
 30
0.0
 40
160.0
  1
G.L
 72
     4
 11
17382.749419499982
 21
6883.6260190000021
 31
0.0
  0
LINE
  5
3CF8
  8
SUNPOU
  6
CONTINUOUS
 10
8589.3738785000023
 20
9763.7812800000029
 30
0.0
 11
8053.2482369121444
 21
9763.7812800000029
 31
0.0
  0
TEXT
  5
3CF9
  8
2-0
  6
CONTINUOUS
 62
     7
 10
21632.192382500001
 20
12154.23951899999
 30
0.0
 40
160.0
  1
平　面　図
 50
359.99978700000008
 72
     4
 11
22085.525993407369
 21
12228.90450037622
 31
0.0
  0
TEXT
  5
3CFA
  8
2-0
  6
CONTINUOUS
 62
     7
 10
23437.018178544989
 20
12176.09986937623
 30
0.0
 40
160.0
  1
1
 72
     4
 11
23463.684845211661
 21
12256.09986937623
 31
0.0
  0
TEXT
  5
3CFB
  8
2-0
  6
CONTINUOUS
 62
     7
 10
23680.106895795681
 20
12096.101337376231
 30
0.0
 40
160.0
  1
80
 72
     4
 11
23800.106895795681
 21
12176.101337376231
 31
0.0
  0
TEXT
  5
3CFC
  8
2-0
  6
CONTINUOUS
 62
     7
 10
22938.020144544978
 20
12148.90450037622
 30
0.0
 40
160.0
  1
(S=  /   )
 72
     4
 11
23498.020144544978
 21
12228.90450037622
 31
0.0
  0
LINE
  5
3CFD
  8
2-0
  6
CONTINUOUS
 62
     6
 10
23597.459563499979
 20
13766.229791999989
 30
0.0
 11
24597.45296549995
 21
13766.229791999989
 31
0.0
  0
LINE
  5
3CFE
  8
2-0
  6
CONTINUOUS
 62
     6
 10
25065.393342499981
 20
14236.650506
 30
0.0
 11
24597.45296549995
 21
13766.229791999989
 31
0.0
  0
LINE
  5
3CFF
  8
2-0
  6
CONTINUOUS
 62
     6
 10
23614.170659499981
 20
18445.349857000001
 30
0.0
 11
24632.146007499981
 21
18445.349857000001
 31
0.0
  0
LINE
  5
3D00
  8
2-0
  6
CONTINUOUS
 62
     6
 10
25088.571525499981
 20
18670.064805999991
 30
0.0
 11
24632.146007499981
 21
18445.349857000001
 31
0.0
  0
LINE
  5
3D01
  8
2-0
  6
CONTINUOUS
 62
     6
 10
25026.753139499979
 20
17428.25815300001
 30
0.0
 11
24722.057721500001
 21
17531.911684000021
 31
0.0
  0
LINE
  5
3D02
  8
2-0
  6
CONTINUOUS
 62
     6
 10
25181.77517849996
 20
16938.636109000021
 30
0.0
 11
24722.057721500001
 21
16694.722797999999
 31
0.0
  0
LINE
  5
3D03
  8
2-0
  6
CONTINUOUS
 62
     6
 10
23802.054686499981
 20
16694.722797999999
 30
0.0
 11
24722.057721500001
 21
16694.722797999999
 31
0.0
  0
LINE
  5
3D04
  8
2-0
  6
CONTINUOUS
 62
     6
 10
23522.063659499981
 20
17531.911684000021
 30
0.0
 11
24722.057721500001
 21
17531.911684000021
 31
0.0
  0
LINE
  5
3D05
  8
2-0
  6
CONTINUOUS
 62
     6
 10
25097.952463499991
 20
14558.334151999979
 30
0.0
 11
24722.057721500001
 21
14739.277986999999
 31
0.0
  0
LINE
  5
3D06
  8
2-0
  6
CONTINUOUS
 62
     6
 10
23614.170659499981
 20
15527.58739900002
 30
0.0
 11
24632.146007499981
 21
15527.58739900002
 31
0.0
  0
LINE
  5
3D07
  8
2-0
  6
CONTINUOUS
 62
     6
 10
24202.056005499991
 20
14739.277986999999
 30
0.0
 11
24722.057721500001
 21
14739.277986999999
 31
0.0
  0
LINE
  5
3D08
  8
2-0
  6
CONTINUOUS
 62
     6
 10
25088.571525499981
 20
15752.30036900001
 30
0.0
 11
24632.146007499981
 21
15527.58739900002
 31
0.0
  0
LINE
  5
3D09
  8
2-0
  6
CONTINUOUS
 62
     4
 10
22713.118479499979
 20
20014.231442000018
 30
0.0
 11
22713.118479499979
 21
20744.228406999999
 31
0.0
  0
LINE
  5
3D0A
  8
2-0
  6
CONTINUOUS
 62
     3
 10
25293.119139499991
 20
19825.228987999999
 30
0.0
 11
25293.119139499991
 21
19819.23302600002
 31
0.0
  0
LINE
  5
3D0B
  8
2-0
  6
CONTINUOUS
 62
     3
 10
25293.119139499991
 20
19819.23302600002
 30
0.0
 11
25323.116763499991
 21
19819.23302600002
 31
0.0
  0
LINE
  5
3D0C
  8
2-0
  6
CONTINUOUS
 62
     3
 10
25323.116763499991
 20
19849.23263000001
 30
0.0
 11
25242.114863499992
 21
19849.23263000001
 31
0.0
  0
LINE
  5
3D0D
  8
2-0
  6
CONTINUOUS
 62
     3
 10
25293.119139499991
 20
19808.935570000001
 30
0.0
 11
25323.116763499991
 21
19808.935570000001
 31
0.0
  0
LINE
  5
3D0E
  8
2-0
  6
CONTINUOUS
 62
     3
 10
25293.119139499991
 20
19826.93731200002
 30
0.0
 11
25293.119139499991
 21
19808.935570000001
 31
0.0
  0
LINE
  5
3D0F
  8
2-0
  6
CONTINUOUS
 62
     3
 10
25318.1164995
 20
19826.93731200002
 30
0.0
 11
25293.119139499991
 21
19826.93731200002
 31
0.0
  0
LINE
  5
3D10
  8
2-0
  6
CONTINUOUS
 62
     3
 10
25318.1164995
 20
19821.929130000019
 30
0.0
 11
25318.1164995
 21
19826.93731200002
 31
0.0
  0
LINE
  5
3D11
  8
2-0
  6
CONTINUOUS
 62
     3
 10
25311.1149425
 20
19821.929130000019
 30
0.0
 11
25318.1164995
 21
19821.929130000019
 31
0.0
  0
LINE
  5
3D12
  8
2-0
  6
CONTINUOUS
 62
     3
 10
25210.818674499991
 20
19922.229357000011
 30
0.0
 11
25210.818674499991
 21
19929.234873000001
 31
0.0
  0
LINE
  5
3D13
  8
2-0
  6
CONTINUOUS
 62
     3
 10
25210.818674499991
 20
19929.234873000001
 30
0.0
 11
25215.81893849996
 21
19929.234873000001
 31
0.0
  0
LINE
  5
3D14
  8
2-0
  6
CONTINUOUS
 62
     3
 10
25215.81893849996
 20
19929.234873000001
 30
0.0
 11
25215.81893849996
 21
19904.22563600001
 31
0.0
  0
LINE
  5
3D15
  8
2-0
  6
CONTINUOUS
 62
     3
 10
25215.81893849996
 20
19904.22563600001
 30
0.0
 11
25197.81719649996
 21
19904.22563600001
 31
0.0
  0
LINE
  5
3D16
  8
2-0
  6
CONTINUOUS
 62
     3
 10
25197.81719649996
 20
19904.22563600001
 30
0.0
 11
25197.81719649996
 21
19934.229199000009
 31
0.0
  0
LINE
  5
3D17
  8
2-0
  6
CONTINUOUS
 62
     3
 10
25208.114652499989
 20
19934.229199000009
 30
0.0
 11
25323.116763499991
 21
19934.229199000009
 31
0.0
  0
LINE
  5
3D18
  8
2-0
  6
CONTINUOUS
 62
     3
 10
25208.114652499989
 20
19904.22563600001
 30
0.0
 11
25208.114652499989
 21
19934.229199000009
 31
0.0
  0
LINE
  5
3D19
  8
2-0
  6
CONTINUOUS
 62
     3
 10
25214.116552499989
 20
19904.22563600001
 30
0.0
 11
25208.114652499989
 21
19904.22563600001
 31
0.0
  0
LINE
  5
3D1A
  8
2-0
  6
CONTINUOUS
 62
     3
 10
25311.1149425
 20
19468.632307499978
 30
0.0
 11
25318.1164995
 21
19468.632307499978
 31
0.0
  0
LINE
  5
3D1B
  8
2-0
  6
CONTINUOUS
 62
     3
 10
25318.1164995
 20
19468.632307499978
 30
0.0
 11
25318.1164995
 21
19473.632571499991
 31
0.0
  0
LINE
  5
3D1C
  8
2-0
  6
CONTINUOUS
 62
     3
 10
25318.1164995
 20
19473.632571499991
 30
0.0
 11
25293.119139499991
 21
19473.632571499991
 31
0.0
  0
LINE
  5
3D1D
  8
2-0
  6
CONTINUOUS
 62
     3
 10
25293.119139499991
 20
19473.632571499991
 30
0.0
 11
25293.119139499991
 21
19455.6367675
 31
0.0
  0
LINE
  5
3D1E
  8
2-0
  6
CONTINUOUS
 62
     3
 10
25293.119139499991
 20
19455.6367675
 30
0.0
 11
25323.116763499991
 21
19455.6367675
 31
0.0
  0
LINE
  5
3D1F
  8
2-0
  6
CONTINUOUS
 62
     3
 10
25293.119139499991
 20
19471.728274499968
 30
0.0
 11
25293.119139499991
 21
19465.730333499989
 31
0.0
  0
LINE
  5
3D20
  8
2-0
  6
CONTINUOUS
 62
     3
 10
25293.119139499991
 20
19465.730333499989
 30
0.0
 11
25323.116763499991
 21
19465.730333499989
 31
0.0
  0
LINE
  5
3D21
  8
2-0
  6
CONTINUOUS
 62
     3
 10
25323.116763499991
 20
19465.730333499989
 30
0.0
 11
25323.116763499991
 21
19502.7314945
 31
0.0
  0
LINE
  5
3D22
  8
2-0
  6
CONTINUOUS
 62
     3
 10
25293.119139499991
 20
19502.7314945
 30
0.0
 11
25323.116763499991
 21
19502.7314945
 31
0.0
  0
LINE
  5
3D23
  8
2-0
  6
CONTINUOUS
 62
     3
 10
25293.119139499991
 20
19496.727614499981
 30
0.0
 11
25293.119139499991
 21
19502.7314945
 31
0.0
  0
LINE
  5
3D24
  8
2-0
  6
CONTINUOUS
 62
     3
 10
25293.119139499991
 20
19512.827039499982
 30
0.0
 11
25323.116763499991
 21
19512.827039499982
 31
0.0
  0
LINE
  5
3D25
  8
2-0
  6
CONTINUOUS
 62
     3
 10
25293.119139499991
 20
19494.8252975
 30
0.0
 11
25293.119139499991
 21
19512.827039499982
 31
0.0
  0
LINE
  5
3D26
  8
2-0
  6
CONTINUOUS
 62
     3
 10
25318.1164995
 20
19494.8252975
 30
0.0
 11
25293.119139499991
 21
19494.8252975
 31
0.0
  0
LINE
  5
3D27
  8
2-0
  6
CONTINUOUS
 62
     3
 10
25318.1164995
 20
19499.825561500002
 30
0.0
 11
25318.1164995
 21
19494.8252975
 31
0.0
  0
LINE
  5
3D28
  8
2-0
  6
CONTINUOUS
 62
     3
 10
25311.1149425
 20
19499.825561500002
 30
0.0
 11
25318.1164995
 21
19499.825561500002
 31
0.0
  0
LINE
  5
3D29
  8
2-0
  6
CONTINUOUS
 62
     3
 10
25311.1149425
 20
18767.631318
 30
0.0
 11
25318.1164995
 21
18767.631318
 31
0.0
  0
LINE
  5
3D2A
  8
2-0
  6
CONTINUOUS
 62
     3
 10
25318.1164995
 20
18767.631318
 30
0.0
 11
25318.1164995
 21
18772.63752
 31
0.0
  0
LINE
  5
3D2B
  8
2-0
  6
CONTINUOUS
 62
     3
 10
25318.1164995
 20
18772.63752
 30
0.0
 11
25293.119139499991
 21
18772.63752
 31
0.0
  0
LINE
  5
3D2C
  8
2-0
  6
CONTINUOUS
 62
     3
 10
25293.119139499991
 20
18772.63752
 30
0.0
 11
25293.119139499991
 21
18754.635778
 31
0.0
  0
LINE
  5
3D2D
  8
2-0
  6
CONTINUOUS
 62
     3
 10
25293.119139499991
 20
18754.635778
 30
0.0
 11
25323.116763499991
 21
18754.635778
 31
0.0
  0
LINE
  5
3D2E
  8
2-0
  6
CONTINUOUS
 62
     3
 10
25293.119139499991
 20
18770.72728499999
 30
0.0
 11
25293.119139499991
 21
18764.731323
 31
0.0
  0
LINE
  5
3D2F
  8
2-0
  6
CONTINUOUS
 62
     3
 10
25293.119139499991
 20
18764.731323
 30
0.0
 11
25323.116763499991
 21
18764.731323
 31
0.0
  0
LINE
  5
3D30
  8
2-0
  6
CONTINUOUS
 62
     3
 10
25323.116763499991
 20
18764.731323
 30
0.0
 11
25323.116763499991
 21
18801.730505
 31
0.0
  0
LINE
  5
3D31
  8
2-0
  6
CONTINUOUS
 62
     3
 10
25293.119139499991
 20
18801.730505
 30
0.0
 11
25323.116763499991
 21
18801.730505
 31
0.0
  0
LINE
  5
3D32
  8
2-0
  6
CONTINUOUS
 62
     3
 10
25293.119139499991
 20
18795.73454300001
 30
0.0
 11
25293.119139499991
 21
18801.730505
 31
0.0
  0
LINE
  5
3D33
  8
2-0
  6
CONTINUOUS
 62
     3
 10
25293.119139499991
 20
18811.82605
 30
0.0
 11
25323.116763499991
 21
18811.82605
 31
0.0
  0
LINE
  5
3D34
  8
2-0
  6
CONTINUOUS
 62
     3
 10
25293.119139499991
 20
18793.824307999988
 30
0.0
 11
25293.119139499991
 21
18811.82605
 31
0.0
  0
LINE
  5
3D35
  8
2-0
  6
CONTINUOUS
 62
     3
 10
25318.1164995
 20
18793.824307999988
 30
0.0
 11
25293.119139499991
 21
18793.824307999988
 31
0.0
  0
LINE
  5
3D36
  8
2-0
  6
CONTINUOUS
 62
     3
 10
25318.1164995
 20
18798.83051
 30
0.0
 11
25318.1164995
 21
18793.824307999988
 31
0.0
  0
LINE
  5
3D37
  8
2-0
  6
CONTINUOUS
 62
     3
 10
25311.1149425
 20
18798.83051
 30
0.0
 11
25318.1164995
 21
18798.83051
 31
0.0
  0
LINE
  5
3D38
  8
2-0
  6
CONTINUOUS
 62
     3
 10
25311.1149425
 20
18097.824572000001
 30
0.0
 11
25318.1164995
 21
18097.824572000001
 31
0.0
  0
LINE
  5
3D39
  8
2-0
  6
CONTINUOUS
 62
     3
 10
25318.1164995
 20
18097.824572000001
 30
0.0
 11
25318.1164995
 21
18092.836185
 31
0.0
  0
LINE
  5
3D3A
  8
2-0
  6
CONTINUOUS
 62
     3
 10
25318.1164995
 20
18092.836185
 30
0.0
 11
25293.119139499991
 21
18092.836185
 31
0.0
  0
LINE
  5
3D3B
  8
2-0
  6
CONTINUOUS
 62
     3
 10
25293.119139499991
 20
18092.836185
 30
0.0
 11
25293.119139499991
 21
18110.831988000002
 31
0.0
  0
LINE
  5
3D3C
  8
2-0
  6
CONTINUOUS
 62
     3
 10
25293.119139499991
 20
18110.831988000002
 30
0.0
 11
25323.116763499991
 21
18110.831988000002
 31
0.0
  0
LINE
  5
3D3D
  8
2-0
  6
CONTINUOUS
 62
     3
 10
25293.119139499991
 20
18094.734542999991
 30
0.0
 11
25293.119139499991
 21
18100.730504999989
 31
0.0
  0
LINE
  5
3D3E
  8
2-0
  6
CONTINUOUS
 62
     3
 10
25293.119139499991
 20
18100.730504999989
 30
0.0
 11
25323.116763499991
 21
18100.730504999989
 31
0.0
  0
LINE
  5
3D3F
  8
2-0
  6
CONTINUOUS
 62
     3
 10
25323.116763499991
 20
18100.730504999989
 30
0.0
 11
25323.116763499991
 21
18063.731323
 31
0.0
  0
LINE
  5
3D40
  8
2-0
  6
CONTINUOUS
 62
     3
 10
25293.119139499991
 20
18063.731323
 30
0.0
 11
25323.116763499991
 21
18063.731323
 31
0.0
  0
LINE
  5
3D41
  8
2-0
  6
CONTINUOUS
 62
     3
 10
25293.119139499991
 20
18069.733224
 30
0.0
 11
25293.119139499991
 21
18063.731323
 31
0.0
  0
LINE
  5
3D42
  8
2-0
  6
CONTINUOUS
 62
     3
 10
25293.119139499991
 20
18053.641716999991
 30
0.0
 11
25323.116763499991
 21
18053.641716999991
 31
0.0
  0
LINE
  5
3D43
  8
2-0
  6
CONTINUOUS
 62
     3
 10
25293.119139499991
 20
18071.63752
 30
0.0
 11
25293.119139499991
 21
18053.641716999991
 31
0.0
  0
LINE
  5
3D44
  8
2-0
  6
CONTINUOUS
 62
     3
 10
25318.1164995
 20
18071.63752
 30
0.0
 11
25293.119139499991
 21
18071.63752
 31
0.0
  0
LINE
  5
3D45
  8
2-0
  6
CONTINUOUS
 62
     3
 10
25318.1164995
 20
18066.637256999998
 30
0.0
 11
25318.1164995
 21
18071.63752
 31
0.0
  0
LINE
  5
3D46
  8
2-0
  6
CONTINUOUS
 62
     3
 10
25311.1149425
 20
18066.637256999998
 30
0.0
 11
25318.1164995
 21
18066.637256999998
 31
0.0
  0
LINE
  5
3D47
  8
2-0
  6
CONTINUOUS
 62
     3
 10
25320.230625499989
 20
17346.728143
 30
0.0
 11
25320.230625499989
 21
17366.72919799999
 31
0.0
  0
LINE
  5
3D48
  8
2-0
  6
CONTINUOUS
 62
     3
 10
25320.230625499989
 20
17366.72919799999
 30
0.0
 11
25235.23405649999
 21
17366.72919799999
 31
0.0
  0
LINE
  5
3D49
  8
2-0
  6
CONTINUOUS
 62
     3
 10
25311.1149425
 20
17393.335908000001
 30
0.0
 11
25318.1164995
 21
17393.335908000001
 31
0.0
  0
LINE
  5
3D4A
  8
2-0
  6
CONTINUOUS
 62
     3
 10
25318.1164995
 20
17393.335908000001
 30
0.0
 11
25318.1164995
 21
17388.341582000001
 31
0.0
  0
LINE
  5
3D4B
  8
2-0
  6
CONTINUOUS
 62
     3
 10
25318.1164995
 20
17388.341582000001
 30
0.0
 11
25293.119139499991
 21
17388.341582000001
 31
0.0
  0
LINE
  5
3D4C
  8
2-0
  6
CONTINUOUS
 62
     3
 10
25293.119139499991
 20
17388.341582000001
 30
0.0
 11
25293.119139499991
 21
17406.33738600001
 31
0.0
  0
LINE
  5
3D4D
  8
2-0
  6
CONTINUOUS
 62
     3
 10
25293.119139499991
 20
17406.33738600001
 30
0.0
 11
25323.116763499991
 21
17406.33738600001
 31
0.0
  0
LINE
  5
3D4E
  8
2-0
  6
CONTINUOUS
 62
     3
 10
25293.119139499991
 20
17396.728802000001
 30
0.0
 11
25293.119139499991
 21
17390.726901999991
 31
0.0
  0
LINE
  5
3D4F
  8
2-0
  6
CONTINUOUS
 62
     3
 10
25323.116763499991
 20
17396.728802000001
 30
0.0
 11
25293.119139499991
 21
17396.728802000001
 31
0.0
  0
LINE
  5
3D50
  8
2-0
  6
CONTINUOUS
 62
     3
 10
25323.116763499991
 20
17406.33738600001
 30
0.0
 11
25323.116763499991
 21
18053.641716999991
 31
0.0
  0
LINE
  5
3D51
  8
2-0
  6
CONTINUOUS
 62
     3
 10
25323.116763499991
 20
18110.831988000002
 30
0.0
 11
25323.116763499991
 21
18754.635778
 31
0.0
  0
LINE
  5
3D52
  8
2-0
  6
CONTINUOUS
 62
     3
 10
25323.116763499991
 20
17251.72708700001
 30
0.0
 11
25293.119139499991
 21
17251.72708700001
 31
0.0
  0
LINE
  5
3D53
  8
2-0
  6
CONTINUOUS
 62
     3
 10
25293.119139499991
 20
17251.72708700001
 30
0.0
 11
25293.119139499991
 21
17257.728986999999
 31
0.0
  0
LINE
  5
3D54
  8
2-0
  6
CONTINUOUS
 62
     3
 10
25235.23405649999
 20
17281.732629999991
 30
0.0
 11
25320.230625499989
 21
17281.732629999991
 31
0.0
  0
LINE
  5
3D55
  8
2-0
  6
CONTINUOUS
 62
     3
 10
25320.230625499989
 20
17281.732629999991
 30
0.0
 11
25320.230625499989
 21
17301.727747000012
 31
0.0
  0
LINE
  5
3D56
  8
2-0
  6
CONTINUOUS
 62
     3
 10
25293.119139499991
 20
17242.118504000009
 30
0.0
 11
25323.116763499991
 21
17242.118504000009
 31
0.0
  0
LINE
  5
3D57
  8
2-0
  6
CONTINUOUS
 62
     3
 10
25293.119139499991
 20
17260.114306999982
 30
0.0
 11
25293.119139499991
 21
17242.118504000009
 31
0.0
  0
LINE
  5
3D58
  8
2-0
  6
CONTINUOUS
 62
     3
 10
25318.1164995
 20
17260.114306999982
 30
0.0
 11
25293.119139499991
 21
17260.114306999982
 31
0.0
  0
LINE
  5
3D59
  8
2-0
  6
CONTINUOUS
 62
     3
 10
25318.1164995
 20
17255.114043000009
 30
0.0
 11
25318.1164995
 21
17260.114306999982
 31
0.0
  0
LINE
  5
3D5A
  8
2-0
  6
CONTINUOUS
 62
     3
 10
25311.1149425
 20
17255.114043000009
 30
0.0
 11
25318.1164995
 21
17255.114043000009
 31
0.0
  0
LINE
  5
3D5B
  8
2-0
  6
CONTINUOUS
 62
     3
 10
25311.1149425
 20
16550.631812499989
 30
0.0
 11
25318.1164995
 21
16550.631812499989
 31
0.0
  0
LINE
  5
3D5C
  8
2-0
  6
CONTINUOUS
 62
     3
 10
25318.1164995
 20
16550.631812499989
 30
0.0
 11
25318.1164995
 21
16555.632076499991
 31
0.0
  0
LINE
  5
3D5D
  8
2-0
  6
CONTINUOUS
 62
     3
 10
25318.1164995
 20
16555.632076499991
 30
0.0
 11
25293.119139499991
 21
16555.632076499991
 31
0.0
  0
LINE
  5
3D5E
  8
2-0
  6
CONTINUOUS
 62
     3
 10
25293.119139499991
 20
16555.632076499991
 30
0.0
 11
25293.119139499991
 21
16537.630334499991
 31
0.0
  0
LINE
  5
3D5F
  8
2-0
  6
CONTINUOUS
 62
     3
 10
25293.119139499991
 20
16537.630334499991
 30
0.0
 11
25323.116763499991
 21
16537.630334499991
 31
0.0
  0
LINE
  5
3D60
  8
2-0
  6
CONTINUOUS
 62
     3
 10
25293.119139499991
 20
16553.727779500001
 30
0.0
 11
25293.119139499991
 21
16547.7308285
 31
0.0
  0
LINE
  5
3D61
  8
2-0
  6
CONTINUOUS
 62
     3
 10
25293.119139499991
 20
16547.7308285
 30
0.0
 11
25323.116763499991
 21
16547.7308285
 31
0.0
  0
LINE
  5
3D62
  8
2-0
  6
CONTINUOUS
 62
     3
 10
25323.116763499991
 20
16547.7308285
 30
0.0
 11
25323.116763499991
 21
16584.7309995
 31
0.0
  0
LINE
  5
3D63
  8
2-0
  6
CONTINUOUS
 62
     3
 10
25293.119139499991
 20
16584.7309995
 30
0.0
 11
25323.116763499991
 21
16584.7309995
 31
0.0
  0
LINE
  5
3D64
  8
2-0
  6
CONTINUOUS
 62
     3
 10
25293.119139499991
 20
16578.7281095
 30
0.0
 11
25293.119139499991
 21
16584.7309995
 31
0.0
  0
LINE
  5
3D65
  8
2-0
  6
CONTINUOUS
 62
     3
 10
25293.119139499991
 20
16594.8265445
 30
0.0
 11
25323.116763499991
 21
16594.8265445
 31
0.0
  0
LINE
  5
3D66
  8
2-0
  6
CONTINUOUS
 62
     3
 10
25293.119139499991
 20
16576.818863500001
 30
0.0
 11
25293.119139499991
 21
16594.8265445
 31
0.0
  0
LINE
  5
3D67
  8
2-0
  6
CONTINUOUS
 62
     3
 10
25318.1164995
 20
16576.818863500001
 30
0.0
 11
25293.119139499991
 21
16576.818863500001
 31
0.0
  0
LINE
  5
3D68
  8
2-0
  6
CONTINUOUS
 62
     3
 10
25318.1164995
 20
16581.825066500001
 30
0.0
 11
25318.1164995
 21
16576.818863500001
 31
0.0
  0
LINE
  5
3D69
  8
2-0
  6
CONTINUOUS
 62
     3
 10
25311.1149425
 20
16581.825066500001
 30
0.0
 11
25318.1164995
 21
16581.825066500001
 31
0.0
  0
LINE
  5
3D6A
  8
2-0
  6
CONTINUOUS
 62
     3
 10
25311.1149425
 20
15881.065083
 30
0.0
 11
25318.1164995
 21
15881.065083
 31
0.0
  0
LINE
  5
3D6B
  8
2-0
  6
CONTINUOUS
 62
     3
 10
25318.1164995
 20
15881.065083
 30
0.0
 11
25318.1164995
 21
15876.070758000011
 31
0.0
  0
LINE
  5
3D6C
  8
2-0
  6
CONTINUOUS
 62
     3
 10
25318.1164995
 20
15876.070758000011
 30
0.0
 11
25293.119139499991
 21
15876.070758000011
 31
0.0
  0
LINE
  5
3D6D
  8
2-0
  6
CONTINUOUS
 62
     3
 10
25293.119139499991
 20
15876.070758000011
 30
0.0
 11
25293.119139499991
 21
15894.06656100002
 31
0.0
  0
LINE
  5
3D6E
  8
2-0
  6
CONTINUOUS
 62
     3
 10
25293.119139499991
 20
15894.06656100002
 30
0.0
 11
25323.116763499991
 21
15894.06656100002
 31
0.0
  0
LINE
  5
3D6F
  8
2-0
  6
CONTINUOUS
 62
     3
 10
25293.119139499991
 20
15877.969116
 30
0.0
 11
25293.119139499991
 21
15883.97101600001
 31
0.0
  0
LINE
  5
3D70
  8
2-0
  6
CONTINUOUS
 62
     3
 10
25293.119139499991
 20
15883.97101600001
 30
0.0
 11
25323.116763499991
 21
15883.97101600001
 31
0.0
  0
LINE
  5
3D71
  8
2-0
  6
CONTINUOUS
 62
     3
 10
25323.116763499991
 20
15846.971835
 30
0.0
 11
25323.116763499991
 21
15883.97101600001
 31
0.0
  0
LINE
  5
3D72
  8
2-0
  6
CONTINUOUS
 62
     3
 10
25293.119139499991
 20
15846.971835
 30
0.0
 11
25323.116763499991
 21
15846.971835
 31
0.0
  0
LINE
  5
3D73
  8
2-0
  6
CONTINUOUS
 62
     3
 10
25293.119139499991
 20
15852.96878600001
 30
0.0
 11
25293.119139499991
 21
15846.971835
 31
0.0
  0
LINE
  5
3D74
  8
2-0
  6
CONTINUOUS
 62
     3
 10
25293.119139499991
 20
15836.870351
 30
0.0
 11
25323.116763499991
 21
15836.870351
 31
0.0
  0
LINE
  5
3D75
  8
2-0
  6
CONTINUOUS
 62
     3
 10
25293.119139499991
 20
15854.878032000001
 30
0.0
 11
25293.119139499991
 21
15836.870351
 31
0.0
  0
LINE
  5
3D76
  8
2-0
  6
CONTINUOUS
 62
     3
 10
25318.1164995
 20
15854.878032000001
 30
0.0
 11
25293.119139499991
 21
15854.878032000001
 31
0.0
  0
LINE
  5
3D77
  8
2-0
  6
CONTINUOUS
 62
     3
 10
25318.1164995
 20
15849.87776800002
 30
0.0
 11
25318.1164995
 21
15854.878032000001
 31
0.0
  0
LINE
  5
3D78
  8
2-0
  6
CONTINUOUS
 62
     3
 10
25311.1149425
 20
15849.87776800002
 30
0.0
 11
25318.1164995
 21
15849.87776800002
 31
0.0
  0
LINE
  5
3D79
  8
2-0
  6
CONTINUOUS
 62
     3
 10
25323.116763499991
 20
17242.118504000009
 30
0.0
 11
25323.116763499991
 21
16594.8265445
 31
0.0
  0
LINE
  5
3D7A
  8
2-0
  6
CONTINUOUS
 62
     3
 10
25323.116763499991
 20
17396.728802000001
 30
0.0
 11
25323.116763499991
 21
17251.72708700001
 31
0.0
  0
LINE
  5
3D7B
  8
2-0
  6
CONTINUOUS
 62
     3
 10
25235.23405649999
 20
17366.72919799999
 30
0.0
 11
25235.23405649999
 21
17281.732629999991
 31
0.0
  0
LINE
  5
3D7C
  8
2-0
  6
CONTINUOUS
 62
     3
 10
25311.1149425
 20
15148.636761
 30
0.0
 11
25318.1164995
 21
15148.636761
 31
0.0
  0
LINE
  5
3D7D
  8
2-0
  6
CONTINUOUS
 62
     3
 10
25318.1164995
 20
15148.636761
 30
0.0
 11
25318.1164995
 21
15153.631087
 31
0.0
  0
LINE
  5
3D7E
  8
2-0
  6
CONTINUOUS
 62
     3
 10
25318.1164995
 20
15153.631087
 30
0.0
 11
25293.119139499991
 21
15153.631087
 31
0.0
  0
LINE
  5
3D7F
  8
2-0
  6
CONTINUOUS
 62
     3
 10
25293.119139499991
 20
15153.631087
 30
0.0
 11
25293.119139499991
 21
15135.635283
 31
0.0
  0
LINE
  5
3D80
  8
2-0
  6
CONTINUOUS
 62
     3
 10
25293.119139499991
 20
15135.635283
 30
0.0
 11
25323.116763499991
 21
15135.635283
 31
0.0
  0
LINE
  5
3D81
  8
2-0
  6
CONTINUOUS
 62
     3
 10
25293.119139499991
 20
15151.73371800001
 30
0.0
 11
25293.119139499991
 21
15145.730828000011
 31
0.0
  0
LINE
  5
3D82
  8
2-0
  6
CONTINUOUS
 62
     3
 10
25293.119139499991
 20
15145.730828000011
 30
0.0
 11
25323.116763499991
 21
15145.730828000011
 31
0.0
  0
LINE
  5
3D83
  8
2-0
  6
CONTINUOUS
 62
     3
 10
25323.116763499991
 20
15145.730828000011
 30
0.0
 11
25323.116763499991
 21
15182.730999999991
 31
0.0
  0
LINE
  5
3D84
  8
2-0
  6
CONTINUOUS
 62
     3
 10
25293.119139499991
 20
15182.730999999991
 30
0.0
 11
25323.116763499991
 21
15182.730999999991
 31
0.0
  0
LINE
  5
3D85
  8
2-0
  6
CONTINUOUS
 62
     3
 10
25293.119139499991
 20
15176.734048
 30
0.0
 11
25293.119139499991
 21
15182.730999999991
 31
0.0
  0
LINE
  5
3D86
  8
2-0
  6
CONTINUOUS
 62
     3
 10
25293.119139499991
 20
15192.831493000011
 30
0.0
 11
25323.116763499991
 21
15192.831493000011
 31
0.0
  0
LINE
  5
3D87
  8
2-0
  6
CONTINUOUS
 62
     3
 10
25293.119139499991
 20
15174.82480200001
 30
0.0
 11
25293.119139499991
 21
15192.831493000011
 31
0.0
  0
LINE
  5
3D88
  8
2-0
  6
CONTINUOUS
 62
     3
 10
25318.1164995
 20
15174.82480200001
 30
0.0
 11
25293.119139499991
 21
15174.82480200001
 31
0.0
  0
LINE
  5
3D89
  8
2-0
  6
CONTINUOUS
 62
     3
 10
25318.1164995
 20
15179.83001500001
 30
0.0
 11
25318.1164995
 21
15174.82480200001
 31
0.0
  0
LINE
  5
3D8A
  8
2-0
  6
CONTINUOUS
 62
     3
 10
25311.1149425
 20
15179.83001500001
 30
0.0
 11
25318.1164995
 21
15179.83001500001
 31
0.0
  0
LINE
  5
3D8B
  8
2-0
  6
CONTINUOUS
 62
     3
 10
25293.119139499991
 20
14472.732840999999
 30
0.0
 11
25293.119139499991
 21
14478.737709999999
 31
0.0
  0
LINE
  5
3D8C
  8
2-0
  6
CONTINUOUS
 62
     3
 10
25293.119139499991
 20
14478.737709999999
 30
0.0
 11
25323.116763499991
 21
14478.737709999999
 31
0.0
  0
LINE
  5
3D8D
  8
2-0
  6
CONTINUOUS
 62
     3
 10
25323.116763499991
 20
14478.737709999999
 30
0.0
 11
25323.116763499991
 21
14363.733619000001
 31
0.0
  0
LINE
  5
3D8E
  8
2-0
  6
CONTINUOUS
 62
     3
 10
25323.116763499991
 20
14363.733619000001
 30
0.0
 11
25238.118215499991
 21
14363.733619000001
 31
0.0
  0
LINE
  5
3D8F
  8
2-0
  6
CONTINUOUS
 62
     3
 10
25238.118215499991
 20
14363.733619000001
 30
0.0
 11
25238.118215499991
 21
14448.729198000001
 31
0.0
  0
LINE
  5
3D90
  8
2-0
  6
CONTINUOUS
 62
     3
 10
25238.118215499991
 20
14448.729198000001
 30
0.0
 11
25270.117133499982
 21
14448.729198000001
 31
0.0
  0
LINE
  5
3D91
  8
2-0
  6
CONTINUOUS
 62
     3
 10
25311.1149425
 20
14475.767443000001
 30
0.0
 11
25318.1164995
 21
14475.767443000001
 31
0.0
  0
LINE
  5
3D92
  8
2-0
  6
CONTINUOUS
 62
     3
 10
25318.1164995
 20
14475.767443000001
 30
0.0
 11
25318.1164995
 21
14470.77014799998
 31
0.0
  0
LINE
  5
3D93
  8
2-0
  6
CONTINUOUS
 62
     3
 10
25318.1164995
 20
14470.77014799998
 30
0.0
 11
25293.119139499991
 21
14470.77014799998
 31
0.0
  0
LINE
  5
3D94
  8
2-0
  6
CONTINUOUS
 62
     3
 10
25293.119139499991
 20
14470.77014799998
 30
0.0
 11
25293.119139499991
 21
14488.768921000001
 31
0.0
  0
LINE
  5
3D95
  8
2-0
  6
CONTINUOUS
 62
     3
 10
25293.119139499991
 20
14488.768921000001
 30
0.0
 11
25323.116763499991
 21
14488.768921000001
 31
0.0
  0
LINE
  5
3D96
  8
2-0
  6
CENTER2
 62
     6
 10
25280.618479500001
 20
14166.236060999991
 30
0.0
 11
25280.618479500001
 21
15322.10481900002
 31
0.0
  0
LINE
  5
3D97
  8
2-0
  6
CONTINUOUS
 62
     3
 10
25323.116763499991
 20
18811.82605
 30
0.0
 11
25323.116763499991
 21
19455.6367675
 31
0.0
  0
LINE
  5
3D98
  8
2-0
  6
CONTINUOUS
 62
     6
 10
26015.621646499982
 20
20664.232102000031
 30
0.0
 11
27215.615708499961
 21
20664.232102000031
 31
0.0
  0
LINE
  5
3D99
  8
2-0
  6
CONTINUOUS
 62
     3
 10
22785.620327500001
 20
19934.229199000009
 30
0.0
 11
22785.620327500001
 21
19904.22563600001
 31
0.0
  0
LINE
  5
3D9A
  8
2-0
  6
CONTINUOUS
 62
     3
 10
22785.620327500001
 20
19904.22563600001
 30
0.0
 11
22779.622385499981
 21
19904.22563600001
 31
0.0
  0
LINE
  5
3D9B
  8
2-0
  6
CONTINUOUS
 62
     3
 10
22795.236828500001
 20
19904.22563600001
 30
0.0
 11
22795.236828500001
 21
19934.229199000009
 31
0.0
  0
LINE
  5
3D9C
  8
2-0
  6
CONTINUOUS
 62
     3
 10
22777.235086499979
 20
19904.22563600001
 30
0.0
 11
22795.236828500001
 21
19904.22563600001
 31
0.0
  0
LINE
  5
3D9D
  8
2-0
  6
CONTINUOUS
 62
     3
 10
22777.235086499979
 20
19929.234873000001
 30
0.0
 11
22777.235086499979
 21
19904.22563600001
 31
0.0
  0
LINE
  5
3D9E
  8
2-0
  6
CONTINUOUS
 62
     3
 10
22782.235350499988
 20
19929.234873000001
 30
0.0
 11
22777.235086499979
 21
19929.234873000001
 31
0.0
  0
LINE
  5
3D9F
  8
2-0
  6
CONTINUOUS
 62
     3
 10
22782.235350499988
 20
19922.229357000011
 30
0.0
 11
22782.235350499988
 21
19929.234873000001
 31
0.0
  0
LINE
  5
3DA0
  8
2-0
  6
CONTINUOUS
 62
     3
 10
22755.61874350001
 20
19931.337122000001
 30
0.0
 11
22755.61874350001
 21
19846.338574000009
 31
0.0
  0
LINE
  5
3DA1
  8
2-0
  6
CONTINUOUS
 62
     3
 10
22735.621646499989
 20
19931.337122000001
 30
0.0
 11
22755.61874350001
 21
19931.337122000001
 31
0.0
  0
LINE
  5
3DA2
  8
2-0
  6
CONTINUOUS
 62
     3
 10
22644.007547500001
 20
19922.229357000011
 30
0.0
 11
22644.007547500001
 21
19929.234873000001
 31
0.0
  0
LINE
  5
3DA3
  8
2-0
  6
CONTINUOUS
 62
     3
 10
22644.007547500001
 20
19929.234873000001
 30
0.0
 11
22649.007811499981
 21
19929.234873000001
 31
0.0
  0
LINE
  5
3DA4
  8
2-0
  6
CONTINUOUS
 62
     3
 10
22649.007811499981
 20
19929.234873000001
 30
0.0
 11
22649.007811499981
 21
19904.22563600001
 31
0.0
  0
LINE
  5
3DA5
  8
2-0
  6
CONTINUOUS
 62
     3
 10
22649.007811499981
 20
19904.22563600001
 30
0.0
 11
22631.006069499988
 21
19904.22563600001
 31
0.0
  0
LINE
  5
3DA6
  8
2-0
  6
CONTINUOUS
 62
     3
 10
22631.006069499988
 20
19904.22563600001
 30
0.0
 11
22631.006069499988
 21
19934.229199000009
 31
0.0
  0
LINE
  5
3DA7
  8
2-0
  6
CONTINUOUS
 62
     3
 10
22670.626133499991
 20
19931.337122000001
 30
0.0
 11
22690.6212505
 21
19931.337122000001
 31
0.0
  0
LINE
  5
3DA8
  8
2-0
  6
CONTINUOUS
 62
     3
 10
22670.626133499991
 20
19846.338574000009
 30
0.0
 11
22670.626133499991
 21
19931.337122000001
 31
0.0
  0
LINE
  5
3DA9
  8
2-0
  6
CONTINUOUS
 62
     3
 10
22640.628509500009
 20
19904.22563600001
 30
0.0
 11
22646.624470499992
 21
19904.22563600001
 31
0.0
  0
LINE
  5
3DAA
  8
2-0
  6
CONTINUOUS
 62
     3
 10
22640.628509500009
 20
19934.229199000009
 30
0.0
 11
22640.628509500009
 21
19904.22563600001
 31
0.0
  0
LINE
  5
3DAB
  8
2-0
  6
CONTINUOUS
 62
     3
 10
22755.61874350001
 20
19846.338574000009
 30
0.0
 11
22670.626133499991
 21
19846.338574000009
 31
0.0
  0
LINE
  5
3DAC
  8
2-0
  6
CONTINUOUS
 62
     3
 10
22785.620327500001
 20
19934.229199000009
 30
0.0
 11
22640.628509500009
 21
19934.229199000009
 31
0.0
  0
LINE
  5
3DAD
  8
2-0
  6
CONTINUOUS
 62
     6
 10
25475.15764749996
 20
20076.908939000012
 30
0.0
 11
26015.621646499982
 21
20664.232102000031
 31
0.0
  0
LINE
  5
3DAE
  8
2-0
  6
CONTINUOUS
 62
     6
 10
22755.61874350001
 20
14448.729198000001
 30
0.0
 11
23032.208956499999
 21
14904.073898000001
 31
0.0
  0
LINE
  5
3DAF
  8
2-0
  6
CONTINUOUS
 62
     6
 10
23032.208956499999
 20
14904.073898000001
 30
0.0
 11
24062.558275499989
 21
14904.073898000001
 31
0.0
  0
LINE
  5
3DB0
  8
2-0
  6
CONTINUOUS
 62
     3
 10
25232.112356499991
 20
18740.72965999999
 30
0.0
 11
25279.11800449996
 21
18740.72965999999
 31
0.0
  0
LINE
  5
3DB1
  8
2-0
  6
CONTINUOUS
 62
     3
 10
25279.11800449996
 20
18825.730188000001
 30
0.0
 11
25232.112356499991
 21
18825.730188000001
 31
0.0
  0
LINE
  5
3DB2
  8
2-0
  6
CONTINUOUS
 62
     3
 10
25279.11800449996
 20
18740.72965999999
 30
0.0
 11
25279.11800449996
 21
18765.732959000001
 31
0.0
  0
LINE
  5
3DB3
  8
2-0
  6
CONTINUOUS
 62
     3
 10
25279.11800449996
 20
18800.728867999991
 30
0.0
 11
25279.11800449996
 21
18825.730188000001
 31
0.0
  0
LINE
  5
3DB4
  8
2-0
  6
CONTINUOUS
 62
     3
 10
25232.112356499991
 20
18825.730188000001
 30
0.0
 11
25232.112356499991
 21
18740.72965999999
 31
0.0
  0
LINE
  5
3DB5
  8
2-0
  6
CONTINUOUS
 62
     3
 10
25323.116763499991
 20
16537.630334499991
 30
0.0
 11
25323.116763499991
 21
15894.06656100002
 31
0.0
  0
LINE
  5
3DB6
  8
2-0
  6
CONTINUOUS
 62
     3
 10
25232.112356499991
 20
15822.73263
 30
0.0
 11
25279.11800449996
 21
15822.73263
 31
0.0
  0
LINE
  5
3DB7
  8
2-0
  6
CONTINUOUS
 62
     3
 10
25279.11800449996
 20
15907.72919799999
 30
0.0
 11
25232.112356499991
 21
15907.72919799999
 31
0.0
  0
LINE
  5
3DB8
  8
2-0
  6
CONTINUOUS
 62
     3
 10
25279.11800449996
 20
15822.73263
 30
0.0
 11
25279.11800449996
 21
15847.72801100001
 31
0.0
  0
LINE
  5
3DB9
  8
2-0
  6
CONTINUOUS
 62
     3
 10
25279.11800449996
 20
15882.727879
 30
0.0
 11
25279.11800449996
 21
15907.72919799999
 31
0.0
  0
LINE
  5
3DBA
  8
2-0
  6
CONTINUOUS
 62
     3
 10
25232.112356499991
 20
15907.72919799999
 30
0.0
 11
25232.112356499991
 21
15822.73263
 31
0.0
  0
LINE
  5
3DBB
  8
2-0
  6
CONTINUOUS
 62
     6
 10
22815.897063500001
 20
14599.32503299999
 30
0.0
 11
22755.61874350001
 21
14448.729198000001
 31
0.0
  0
LINE
  5
3DBC
  8
2-0
  6
CONTINUOUS
 62
     6
 10
22755.61874350001
 20
14448.729198000001
 30
0.0
 11
22861.477458499961
 21
14571.63750699999
 31
0.0
  0
LINE
  5
3DBD
  8
2-0
  6
CONTINUOUS
 62
     6
 10
22815.897063500001
 20
14599.32503299999
 30
0.0
 11
22861.477458499961
 21
14571.63750699999
 31
0.0
  0
LINE
  5
3DBE
  8
2-0
  6
CONTINUOUS
 62
     6
 10
22861.477458499961
 20
14571.63750699999
 30
0.0
 11
22755.61874350001
 21
14448.729198000001
 31
0.0
  0
LINE
  5
3DBF
  8
2-0
  6
CONTINUOUS
 62
     6
 10
22755.61874350001
 20
14448.729198000001
 30
0.0
 11
22815.897063500001
 21
14599.32503299999
 31
0.0
  0
LINE
  5
3DC0
  8
2-0
  6
CONTINUOUS
 62
     6
 10
22815.897063500001
 20
14599.32503299999
 30
0.0
 11
22755.61874350001
 21
14448.729198000001
 31
0.0
  0
LINE
  5
3DC1
  8
2-0
  6
CONTINUOUS
 62
     6
 10
22861.477458499961
 20
14571.63750699999
 30
0.0
 11
22755.61874350001
 21
14448.729198000001
 31
0.0
  0
LINE
  5
3DC2
  8
2-0
  6
CONTINUOUS
 62
     6
 10
22861.477458499961
 20
14571.63750699999
 30
0.0
 11
22815.897063500001
 21
14599.32503299999
 31
0.0
  0
LINE
  5
3DC3
  8
2-0
  6
CONTINUOUS
 62
     6
 10
25494.77467649999
 20
20058.847812000022
 30
0.0
 11
25366.812656499991
 21
19959.165194000008
 31
0.0
  0
LINE
  5
3DC4
  8
2-0
  6
CONTINUOUS
 62
     6
 10
25366.812656499991
 20
19959.165194000008
 30
0.0
 11
25455.52676149999
 21
20094.962149000021
 31
0.0
  0
LINE
  5
3DC5
  8
2-0
  6
CONTINUOUS
 62
     6
 10
25494.77467649999
 20
20058.847812000022
 30
0.0
 11
25455.52676149999
 21
20094.962149000021
 31
0.0
  0
LINE
  5
3DC6
  8
2-0
  6
CONTINUOUS
 62
     6
 10
25455.52676149999
 20
20094.962149000021
 30
0.0
 11
25366.812656499991
 21
19959.165194000008
 31
0.0
  0
LINE
  5
3DC7
  8
2-0
  6
CONTINUOUS
 62
     6
 10
25366.812656499991
 20
19959.165194000008
 30
0.0
 11
25494.77467649999
 21
20058.847812000022
 31
0.0
  0
LINE
  5
3DC8
  8
2-0
  6
CONTINUOUS
 62
     6
 10
25494.77467649999
 20
20058.847812000022
 30
0.0
 11
25366.812656499991
 21
19959.165194000008
 31
0.0
  0
LINE
  5
3DC9
  8
2-0
  6
CONTINUOUS
 62
     6
 10
25455.52676149999
 20
20094.962149000021
 30
0.0
 11
25366.812656499991
 21
19959.165194000008
 31
0.0
  0
LINE
  5
3DCA
  8
2-0
  6
CONTINUOUS
 62
     6
 10
25455.52676149999
 20
20094.962149000021
 30
0.0
 11
25494.77467649999
 21
20058.847812000022
 31
0.0
  0
LINE
  5
3DCB
  8
2-0
  6
CONTINUOUS
 62
     6
 10
21337.054158499999
 20
19686.45681700002
 30
0.0
 11
21468.98709150001
 21
19217.110981999998
 31
0.0
  0
LINE
  5
3DCC
  8
2-0
  6
CONTINUOUS
 62
     6
 10
21468.98709150001
 20
19217.110981999998
 30
0.0
 11
22494.025362499979
 21
19217.110981999998
 31
0.0
  0
LINE
  5
3DCD
  8
2-0
  6
CONTINUOUS
 62
     6
 10
21293.760107499998
 20
19840.485137000011
 30
0.0
 11
21311.3817815
 21
19679.239492000019
 31
0.0
  0
LINE
  5
3DCE
  8
2-0
  6
CONTINUOUS
 62
     6
 10
21362.726534500009
 20
19693.67810100002
 30
0.0
 11
21311.3817815
 21
19679.239492000019
 31
0.0
  0
LINE
  5
3DCF
  8
2-0
  6
CONTINUOUS
 62
     6
 10
21311.3817815
 20
19679.239492000019
 30
0.0
 11
21293.760107499998
 21
19840.485137000011
 31
0.0
  0
LINE
  5
3DD0
  8
2-0
  6
CONTINUOUS
 62
     6
 10
21293.760107499998
 20
19840.485137000011
 30
0.0
 11
21362.726534500009
 21
19693.67810100002
 31
0.0
  0
LINE
  5
3DD1
  8
2-0
  6
CONTINUOUS
 62
     6
 10
21362.726534500009
 20
19693.67810100002
 30
0.0
 11
21293.760107499998
 21
19840.485137000011
 31
0.0
  0
LINE
  5
3DD2
  8
2-0
  6
CONTINUOUS
 62
     6
 10
21311.3817815
 20
19679.239492000019
 30
0.0
 11
21293.760107499998
 21
19840.485137000011
 31
0.0
  0
LINE
  5
3DD3
  8
2-0
  6
CONTINUOUS
 62
     6
 10
21311.3817815
 20
19679.239492000019
 30
0.0
 11
21362.726534500009
 21
19693.67810100002
 31
0.0
  0
LINE
  5
3DD4
  8
2-0
  6
CONTINUOUS
 62
     6
 10
22754.541885499992
 20
19815.47787900002
 30
0.0
 11
22903.411580499989
 21
19285.855703000001
 31
0.0
  0
LINE
  5
3DD5
  8
2-0
  6
CONTINUOUS
 62
     6
 10
22903.411580499989
 20
19285.855703000001
 30
0.0
 11
23928.4557895
 21
19285.855703000001
 31
0.0
  0
LINE
  5
3DD6
  8
2-0
  6
CONTINUOUS
 62
     6
 10
22772.16553949998
 20
19654.23223400001
 30
0.0
 11
22823.516230500009
 21
19668.66688400002
 31
0.0
  0
LINE
  5
3DD7
  8
2-0
  6
CONTINUOUS
 62
     6
 10
22823.516230500009
 20
19668.66688400002
 30
0.0
 11
22772.16553949998
 21
19654.23223400001
 31
0.0
  0
LINE
  5
3DD8
  8
2-0
  6
CONTINUOUS
 62
     6
 10
22772.16553949998
 20
19654.23223400001
 30
0.0
 11
22754.541885499992
 21
19815.47787900002
 31
0.0
  0
LINE
  5
3DD9
  8
2-0
  6
CONTINUOUS
 62
     6
 10
22754.541885499992
 20
19815.47787900002
 30
0.0
 11
22823.516230500009
 21
19668.66688400002
 31
0.0
  0
LINE
  5
3DDA
  8
2-0
  6
CONTINUOUS
 62
     6
 10
22823.516230500009
 20
19668.66688400002
 30
0.0
 11
22754.541885499992
 21
19815.47787900002
 31
0.0
  0
LINE
  5
3DDB
  8
2-0
  6
CONTINUOUS
 62
     6
 10
22772.16553949998
 20
19654.23223400001
 30
0.0
 11
22754.541885499992
 21
19815.47787900002
 31
0.0
  0
LINE
  5
3DDC
  8
2-0
  6
CONTINUOUS
 62
     6
 10
22823.516230500009
 20
19668.66688400002
 30
0.0
 11
22754.541885499992
 21
19815.47787900002
 31
0.0
  0
LINE
  5
3DDD
  8
2-0
  6
CONTINUOUS
 62
     6
 10
22754.541885499992
 20
19815.47787900002
 30
0.0
 11
22772.16553949998
 21
19654.23223400001
 31
0.0
  0
LINE
  5
3DDE
  8
2-0
  6
CONTINUOUS
 62
     4
 10
22713.118479499979
 20
20014.231442000018
 30
0.0
 11
22713.118479499979
 21
20744.228406999999
 31
0.0
  0
LINE
  5
3DDF
  8
2-0
  6
CONTINUOUS
 62
     6
 10
25076.793389499981
 20
15776.225820000011
 30
0.0
 11
25232.112356499991
 21
15822.973141
 31
0.0
  0
LINE
  5
3DE0
  8
2-0
  6
CONTINUOUS
 62
     6
 10
25232.112356499991
 20
15822.973141
 30
0.0
 11
25100.351640499968
 21
15728.380856000011
 31
0.0
  0
LINE
  5
3DE1
  8
2-0
  6
CONTINUOUS
 62
     6
 10
25076.793389499981
 20
15776.225820000011
 30
0.0
 11
25100.351640499968
 21
15728.380856000011
 31
0.0
  0
LINE
  5
3DE2
  8
2-0
  6
CONTINUOUS
 62
     6
 10
25100.351640499968
 20
15728.380856000011
 30
0.0
 11
25232.112356499991
 21
15822.973141
 31
0.0
  0
LINE
  5
3DE3
  8
2-0
  6
CONTINUOUS
 62
     6
 10
25232.112356499991
 20
15822.973141
 30
0.0
 11
25076.793389499981
 21
15776.225820000011
 31
0.0
  0
LINE
  5
3DE4
  8
2-0
  6
CONTINUOUS
 62
     6
 10
25076.793389499981
 20
15776.225820000011
 30
0.0
 11
25232.112356499991
 21
15822.973141
 31
0.0
  0
LINE
  5
3DE5
  8
2-0
  6
CONTINUOUS
 62
     6
 10
25100.351640499968
 20
15728.380856000011
 30
0.0
 11
25232.112356499991
 21
15822.973141
 31
0.0
  0
LINE
  5
3DE6
  8
2-0
  6
CONTINUOUS
 62
     6
 10
25100.351640499968
 20
15728.380856000011
 30
0.0
 11
25076.793389499981
 21
15776.225820000011
 31
0.0
  0
LINE
  5
3DE7
  8
2-0
  6
CONTINUOUS
 62
     6
 10
25046.479042499988
 20
14255.46088099999
 30
0.0
 11
25178.225901500002
 21
14350.087808
 31
0.0
  0
LINE
  5
3DE8
  8
2-0
  6
CONTINUOUS
 62
     6
 10
25178.225901500002
 20
14350.087808
 30
0.0
 11
25084.295765499988
 21
14217.84903799998
 31
0.0
  0
LINE
  5
3DE9
  8
2-0
  6
CONTINUOUS
 62
     6
 10
25046.479042499988
 20
14255.46088099999
 30
0.0
 11
25084.295765499988
 21
14217.84903799998
 31
0.0
  0
LINE
  5
3DEA
  8
2-0
  6
CONTINUOUS
 62
     6
 10
25084.295765499988
 20
14217.84903799998
 30
0.0
 11
25178.225901500002
 21
14350.087808
 31
0.0
  0
LINE
  5
3DEB
  8
2-0
  6
CONTINUOUS
 62
     6
 10
25178.225901500002
 20
14350.087808
 30
0.0
 11
25046.479042499988
 21
14255.46088099999
 31
0.0
  0
LINE
  5
3DEC
  8
2-0
  6
CONTINUOUS
 62
     6
 10
25046.479042499988
 20
14255.46088099999
 30
0.0
 11
25178.225901500002
 21
14350.087808
 31
0.0
  0
LINE
  5
3DED
  8
2-0
  6
CONTINUOUS
 62
     6
 10
25084.295765499988
 20
14217.84903799998
 30
0.0
 11
25178.225901500002
 21
14350.087808
 31
0.0
  0
LINE
  5
3DEE
  8
2-0
  6
CONTINUOUS
 62
     6
 10
25084.295765499988
 20
14217.84903799998
 30
0.0
 11
25046.479042499988
 21
14255.46088099999
 31
0.0
  0
LINE
  5
3DEF
  8
2-0
  6
CONTINUOUS
 62
     6
 10
25109.51483149999
 20
14582.365507999981
 30
0.0
 11
25242.114863499992
 21
14488.937179999981
 31
0.0
  0
LINE
  5
3DF0
  8
2-0
  6
CONTINUOUS
 62
     6
 10
25242.114863499992
 20
14488.937179999981
 30
0.0
 11
25086.382177499981
 21
14534.312694
 31
0.0
  0
LINE
  5
3DF1
  8
2-0
  6
CONTINUOUS
 62
     6
 10
25109.51483149999
 20
14582.365507999981
 30
0.0
 11
25086.382177499981
 21
14534.312694
 31
0.0
  0
LINE
  5
3DF2
  8
2-0
  6
CONTINUOUS
 62
     6
 10
25086.382177499981
 20
14534.312694
 30
0.0
 11
25242.114863499992
 21
14488.937179999981
 31
0.0
  0
LINE
  5
3DF3
  8
2-0
  6
CONTINUOUS
 62
     6
 10
25242.114863499992
 20
14488.937179999981
 30
0.0
 11
25109.51483149999
 21
14582.365507999981
 31
0.0
  0
LINE
  5
3DF4
  8
2-0
  6
CONTINUOUS
 62
     6
 10
25109.51483149999
 20
14582.365507999981
 30
0.0
 11
25242.114863499992
 21
14488.937179999981
 31
0.0
  0
LINE
  5
3DF5
  8
2-0
  6
CONTINUOUS
 62
     6
 10
25086.382177499981
 20
14534.312694
 30
0.0
 11
25242.114863499992
 21
14488.937179999981
 31
0.0
  0
LINE
  5
3DF6
  8
2-0
  6
CONTINUOUS
 62
     6
 10
25086.382177499981
 20
14534.312694
 30
0.0
 11
25109.51483149999
 21
14582.365507999981
 31
0.0
  0
LINE
  5
3DF7
  8
2-0
  6
CONTINUOUS
 62
     6
 10
25169.278477499989
 20
16962.186441000009
 30
0.0
 11
25323.116763499991
 21
17013.620272000011
 31
0.0
  0
LINE
  5
3DF8
  8
2-0
  6
CONTINUOUS
 62
     6
 10
25323.116763499991
 20
17013.620272000011
 30
0.0
 11
25194.281776499989
 21
16915.079837000008
 31
0.0
  0
LINE
  5
3DF9
  8
2-0
  6
CONTINUOUS
 62
     6
 10
25169.278477499989
 20
16962.186441000009
 30
0.0
 11
25194.281776499989
 21
16915.079837000008
 31
0.0
  0
LINE
  5
3DFA
  8
2-0
  6
CONTINUOUS
 62
     6
 10
25194.281776499989
 20
16915.079837000008
 30
0.0
 11
25323.116763499991
 21
17013.620272000011
 31
0.0
  0
LINE
  5
3DFB
  8
2-0
  6
CONTINUOUS
 62
     6
 10
25323.116763499991
 20
17013.620272000011
 30
0.0
 11
25169.278477499989
 21
16962.186441000009
 31
0.0
  0
LINE
  5
3DFC
  8
2-0
  6
CONTINUOUS
 62
     6
 10
25169.278477499989
 20
16962.186441000009
 30
0.0
 11
25323.116763499991
 21
17013.620272000011
 31
0.0
  0
LINE
  5
3DFD
  8
2-0
  6
CONTINUOUS
 62
     6
 10
25194.281776499989
 20
16915.079837000008
 30
0.0
 11
25323.116763499991
 21
17013.620272000011
 31
0.0
  0
LINE
  5
3DFE
  8
2-0
  6
CONTINUOUS
 62
     6
 10
25194.281776499989
 20
16915.079837000008
 30
0.0
 11
25169.278477499989
 21
16962.186441000009
 31
0.0
  0
LINE
  5
3DFF
  8
2-0
  6
CONTINUOUS
 62
     6
 10
25035.342270499979
 20
17453.504933000011
 30
0.0
 11
25178.225901500002
 21
17376.729304000011
 31
0.0
  0
LINE
  5
3E00
  8
2-0
  6
CONTINUOUS
 62
     6
 10
25178.225901500002
 20
17376.729304000011
 30
0.0
 11
25018.164008499989
 21
17403.011373000008
 31
0.0
  0
LINE
  5
3E01
  8
2-0
  6
CONTINUOUS
 62
     6
 10
25035.342270499979
 20
17453.504933000011
 30
0.0
 11
25018.164008499989
 21
17403.011373000008
 31
0.0
  0
LINE
  5
3E02
  8
2-0
  6
CONTINUOUS
 62
     6
 10
25018.164008499989
 20
17403.011373000008
 30
0.0
 11
25178.225901500002
 21
17376.729304000011
 31
0.0
  0
LINE
  5
3E03
  8
2-0
  6
CONTINUOUS
 62
     6
 10
25178.225901500002
 20
17376.729304000011
 30
0.0
 11
25035.342270499979
 21
17453.504933000011
 31
0.0
  0
LINE
  5
3E04
  8
2-0
  6
CONTINUOUS
 62
     6
 10
25035.342270499979
 20
17453.504933000011
 30
0.0
 11
25178.225901500002
 21
17376.729304000011
 31
0.0
  0
LINE
  5
3E05
  8
2-0
  6
CONTINUOUS
 62
     6
 10
25018.164008499989
 20
17403.011373000008
 30
0.0
 11
25178.225901500002
 21
17376.729304000011
 31
0.0
  0
LINE
  5
3E06
  8
2-0
  6
CONTINUOUS
 62
     6
 10
25018.164008499989
 20
17403.011373000008
 30
0.0
 11
25035.342270499979
 21
17453.504933000011
 31
0.0
  0
LINE
  5
3E07
  8
2-0
  6
CONTINUOUS
 62
     6
 10
25076.793389499981
 20
18693.985307999999
 30
0.0
 11
25232.112356499991
 21
18740.72965999999
 31
0.0
  0
LINE
  5
3E08
  8
2-0
  6
CONTINUOUS
 62
     6
 10
25232.112356499991
 20
18740.72965999999
 30
0.0
 11
25100.351640499968
 21
18646.134406000008
 31
0.0
  0
LINE
  5
3E09
  8
2-0
  6
CONTINUOUS
 62
     6
 10
25076.793389499981
 20
18693.985307999999
 30
0.0
 11
25100.351640499968
 21
18646.134406000008
 31
0.0
  0
LINE
  5
3E0A
  8
2-0
  6
CONTINUOUS
 62
     6
 10
25100.351640499968
 20
18646.134406000008
 30
0.0
 11
25232.112356499991
 21
18740.72965999999
 31
0.0
  0
LINE
  5
3E0B
  8
2-0
  6
CONTINUOUS
 62
     6
 10
25232.112356499991
 20
18740.72965999999
 30
0.0
 11
25076.793389499981
 21
18693.985307999999
 31
0.0
  0
LINE
  5
3E0C
  8
2-0
  6
CONTINUOUS
 62
     6
 10
25076.793389499981
 20
18693.985307999999
 30
0.0
 11
25232.112356499991
 21
18740.72965999999
 31
0.0
  0
LINE
  5
3E0D
  8
2-0
  6
CONTINUOUS
 62
     6
 10
25100.351640499968
 20
18646.134406000008
 30
0.0
 11
25232.112356499991
 21
18740.72965999999
 31
0.0
  0
LINE
  5
3E0E
  8
2-0
  6
CONTINUOUS
 62
     6
 10
25100.351640499968
 20
18646.134406000008
 30
0.0
 11
25076.793389499981
 21
18693.985307999999
 31
0.0
  0
LINE
  5
3E0F
  8
2-0
  6
CONTINUOUS
 62
     3
 10
21973.619060499979
 20
19934.229199000009
 30
0.0
 11
21936.61789849999
 21
19934.229199000009
 31
0.0
  0
LINE
  5
3E10
  8
2-0
  6
CONTINUOUS
 62
     3
 10
21973.619060499979
 20
19904.22563600001
 30
0.0
 11
21973.619060499979
 21
19934.229199000009
 31
0.0
  0
LINE
  5
3E11
  8
2-0
  6
CONTINUOUS
 62
     3
 10
21967.619139499981
 20
19904.22563600001
 30
0.0
 11
21973.619060499979
 21
19904.22563600001
 31
0.0
  0
LINE
  5
3E12
  8
2-0
  6
CONTINUOUS
 62
     3
 10
21983.716584499991
 20
19904.22563600001
 30
0.0
 11
21983.716584499991
 21
19934.229199000009
 31
0.0
  0
LINE
  5
3E13
  8
2-0
  6
CONTINUOUS
 62
     3
 10
21965.712863499979
 20
19904.22563600001
 30
0.0
 11
21983.716584499991
 21
19904.22563600001
 31
0.0
  0
LINE
  5
3E14
  8
2-0
  6
CONTINUOUS
 62
     3
 10
21965.712863499979
 20
19929.234873000001
 30
0.0
 11
21965.712863499979
 21
19904.22563600001
 31
0.0
  0
LINE
  5
3E15
  8
2-0
  6
CONTINUOUS
 62
     3
 10
21970.713127499988
 20
19929.234873000001
 30
0.0
 11
21965.712863499979
 21
19929.234873000001
 31
0.0
  0
LINE
  5
3E16
  8
2-0
  6
CONTINUOUS
 62
     3
 10
21970.713127499988
 20
19922.229357000011
 30
0.0
 11
21970.713127499988
 21
19929.234873000001
 31
0.0
  0
LINE
  5
3E17
  8
2-0
  6
CONTINUOUS
 62
     3
 10
21939.523832499981
 20
19922.229357000011
 30
0.0
 11
21939.523832499981
 21
19929.234873000001
 31
0.0
  0
LINE
  5
3E18
  8
2-0
  6
CONTINUOUS
 62
     3
 10
21939.523832499981
 20
19929.234873000001
 30
0.0
 11
21944.52409649999
 21
19929.234873000001
 31
0.0
  0
LINE
  5
3E19
  8
2-0
  6
CONTINUOUS
 62
     3
 10
21944.52409649999
 20
19929.234873000001
 30
0.0
 11
21944.52409649999
 21
19904.22563600001
 31
0.0
  0
LINE
  5
3E1A
  8
2-0
  6
CONTINUOUS
 62
     3
 10
21944.52409649999
 20
19904.22563600001
 30
0.0
 11
21926.52433349999
 21
19904.22563600001
 31
0.0
  0
LINE
  5
3E1B
  8
2-0
  6
CONTINUOUS
 62
     3
 10
21926.52433349999
 20
19904.22563600001
 30
0.0
 11
21926.52433349999
 21
19934.229199000009
 31
0.0
  0
LINE
  5
3E1C
  8
2-0
  6
CONTINUOUS
 62
     3
 10
21942.617819499981
 20
19904.22563600001
 30
0.0
 11
21936.61789849999
 21
19904.22563600001
 31
0.0
  0
LINE
  5
3E1D
  8
2-0
  6
CONTINUOUS
 62
     3
 10
21936.61789849999
 20
19904.22563600001
 30
0.0
 11
21936.61789849999
 21
19934.229199000009
 31
0.0
  0
LINE
  5
3E1E
  8
2-0
  6
CONTINUOUS
 62
     3
 10
20133.1197995
 20
19825.228987999999
 30
0.0
 11
20133.1197995
 21
19819.23302600002
 31
0.0
  0
LINE
  5
3E1F
  8
2-0
  6
CONTINUOUS
 62
     3
 10
20133.1197995
 20
19819.23302600002
 30
0.0
 11
20103.122174499989
 21
19819.23302600002
 31
0.0
  0
LINE
  5
3E20
  8
2-0
  6
CONTINUOUS
 62
     3
 10
20103.122174499989
 20
19819.23302600002
 30
0.0
 11
20103.122174499989
 21
19934.229199000009
 31
0.0
  0
LINE
  5
3E21
  8
2-0
  6
CONTINUOUS
 62
     3
 10
20103.122174499989
 20
19849.23263000001
 30
0.0
 11
20184.120115500002
 21
19849.23263000001
 31
0.0
  0
LINE
  5
3E22
  8
2-0
  6
CONTINUOUS
 62
     3
 10
20133.1197995
 20
19808.935570000001
 30
0.0
 11
20103.122174499989
 21
19808.935570000001
 31
0.0
  0
LINE
  5
3E23
  8
2-0
  6
CONTINUOUS
 62
     3
 10
20133.1197995
 20
19826.93731200002
 30
0.0
 11
20133.1197995
 21
19808.935570000001
 31
0.0
  0
LINE
  5
3E24
  8
2-0
  6
CONTINUOUS
 62
     3
 10
20108.1263975
 20
19826.93731200002
 30
0.0
 11
20133.1197995
 21
19826.93731200002
 31
0.0
  0
LINE
  5
3E25
  8
2-0
  6
CONTINUOUS
 62
     3
 10
20108.1263975
 20
19821.929130000019
 30
0.0
 11
20108.1263975
 21
19826.93731200002
 31
0.0
  0
LINE
  5
3E26
  8
2-0
  6
CONTINUOUS
 62
     3
 10
20115.12399549998
 20
19821.929130000019
 30
0.0
 11
20108.1263975
 21
19821.929130000019
 31
0.0
  0
LINE
  5
3E27
  8
2-0
  6
CONTINUOUS
 62
     3
 10
20215.418284499981
 20
19922.229357000011
 30
0.0
 11
20215.418284499981
 21
19929.234873000001
 31
0.0
  0
LINE
  5
3E28
  8
2-0
  6
CONTINUOUS
 62
     3
 10
20215.418284499981
 20
19929.234873000001
 30
0.0
 11
20210.416040499989
 21
19929.234873000001
 31
0.0
  0
LINE
  5
3E29
  8
2-0
  6
CONTINUOUS
 62
     3
 10
20210.416040499989
 20
19929.234873000001
 30
0.0
 11
20210.416040499989
 21
19904.22563600001
 31
0.0
  0
LINE
  5
3E2A
  8
2-0
  6
CONTINUOUS
 62
     3
 10
20210.416040499989
 20
19904.22563600001
 30
0.0
 11
20228.423721499988
 21
19904.22563600001
 31
0.0
  0
LINE
  5
3E2B
  8
2-0
  6
CONTINUOUS
 62
     3
 10
20228.423721499988
 20
19904.22563600001
 30
0.0
 11
20228.423721499988
 21
19934.229199000009
 31
0.0
  0
LINE
  5
3E2C
  8
2-0
  6
CONTINUOUS
 62
     3
 10
20218.124285499998
 20
19934.229199000009
 30
0.0
 11
20103.122174499989
 21
19934.229199000009
 31
0.0
  0
LINE
  5
3E2D
  8
2-0
  6
CONTINUOUS
 62
     3
 10
20218.124285499998
 20
19904.22563600001
 30
0.0
 11
20218.124285499998
 21
19934.229199000009
 31
0.0
  0
LINE
  5
3E2E
  8
2-0
  6
CONTINUOUS
 62
     3
 10
20212.120406499991
 20
19904.22563600001
 30
0.0
 11
20218.124285499998
 21
19904.22563600001
 31
0.0
  0
LINE
  5
3E2F
  8
2-0
  6
CONTINUOUS
 62
     3
 10
21238.517893999979
 20
19922.229357000011
 30
0.0
 11
21238.517893999979
 21
19929.234873000001
 31
0.0
  0
LINE
  5
3E30
  8
2-0
  6
CONTINUOUS
 62
     3
 10
21238.517893999979
 20
19929.234873000001
 30
0.0
 11
21243.518156999991
 21
19929.234873000001
 31
0.0
  0
LINE
  5
3E31
  8
2-0
  6
CONTINUOUS
 62
     3
 10
21243.518156999991
 20
19929.234873000001
 30
0.0
 11
21243.518156999991
 21
19904.22563600001
 31
0.0
  0
LINE
  5
3E32
  8
2-0
  6
CONTINUOUS
 62
     3
 10
21243.518156999991
 20
19904.22563600001
 30
0.0
 11
21225.524333999969
 21
19904.22563600001
 31
0.0
  0
LINE
  5
3E33
  8
2-0
  6
CONTINUOUS
 62
     3
 10
21225.524333999969
 20
19904.22563600001
 30
0.0
 11
21225.524333999969
 21
19934.229199000009
 31
0.0
  0
LINE
  5
3E34
  8
2-0
  6
CONTINUOUS
 62
     3
 10
21241.61583999998
 20
19904.22563600001
 30
0.0
 11
21235.61789899999
 21
19904.22563600001
 31
0.0
  0
LINE
  5
3E35
  8
2-0
  6
CONTINUOUS
 62
     3
 10
21235.61789899999
 20
19904.22563600001
 30
0.0
 11
21235.61789899999
 21
19934.229199000009
 31
0.0
  0
LINE
  5
3E36
  8
2-0
  6
CONTINUOUS
 62
     3
 10
21272.61905999999
 20
19934.229199000009
 30
0.0
 11
21235.61789899999
 21
19934.229199000009
 31
0.0
  0
LINE
  5
3E37
  8
2-0
  6
CONTINUOUS
 62
     3
 10
21272.61905999999
 20
19904.22563600001
 30
0.0
 11
21272.61905999999
 21
19934.229199000009
 31
0.0
  0
LINE
  5
3E38
  8
2-0
  6
CONTINUOUS
 62
     3
 10
21266.613200999978
 20
19904.22563600001
 30
0.0
 11
21272.61905999999
 21
19904.22563600001
 31
0.0
  0
LINE
  5
3E39
  8
2-0
  6
CONTINUOUS
 62
     3
 10
21282.712624999978
 20
19904.22563600001
 30
0.0
 11
21282.712624999978
 21
19934.229199000009
 31
0.0
  0
LINE
  5
3E3A
  8
2-0
  6
CONTINUOUS
 62
     3
 10
21264.716821999991
 20
19904.22563600001
 30
0.0
 11
21282.712624999978
 21
19904.22563600001
 31
0.0
  0
LINE
  5
3E3B
  8
2-0
  6
CONTINUOUS
 62
     3
 10
21264.716821999991
 20
19929.234873000001
 30
0.0
 11
21264.716821999991
 21
19904.22563600001
 31
0.0
  0
LINE
  5
3E3C
  8
2-0
  6
CONTINUOUS
 62
     3
 10
21269.707187999989
 20
19929.234873000001
 30
0.0
 11
21264.716821999991
 21
19929.234873000001
 31
0.0
  0
LINE
  5
3E3D
  8
2-0
  6
CONTINUOUS
 62
     3
 10
21269.707187999989
 20
19922.229357000011
 30
0.0
 11
21269.707187999989
 21
19929.234873000001
 31
0.0
  0
LINE
  5
3E3E
  8
2-0
  6
CONTINUOUS
 62
     3
 10
20581.711635499989
 20
19934.22919900003
 30
0.0
 11
21225.524333999969
 21
19934.229199000009
 31
0.0
  0
LINE
  5
3E3F
  8
2-0
  6
CONTINUOUS
 62
     3
 10
21926.52433349999
 20
19934.229199000009
 30
0.0
 11
21282.712624999978
 21
19934.229199000009
 31
0.0
  0
LINE
  5
3E40
  8
2-0
  6
CONTINUOUS
 62
     3
 10
20133.1197995
 20
19825.228987999999
 30
0.0
 11
20133.1197995
 21
19819.23302600002
 31
0.0
  0
LINE
  5
3E41
  8
2-0
  6
CONTINUOUS
 62
     3
 10
20133.1197995
 20
19819.23302600002
 30
0.0
 11
20103.122174499989
 21
19819.23302600002
 31
0.0
  0
LINE
  5
3E42
  8
2-0
  6
CONTINUOUS
 62
     3
 10
20103.122174499989
 20
19819.23302600002
 30
0.0
 11
20103.122174499989
 21
19934.229199000009
 31
0.0
  0
LINE
  5
3E43
  8
2-0
  6
CONTINUOUS
 62
     3
 10
20103.122174499989
 20
19849.23263000001
 30
0.0
 11
20184.120115500002
 21
19849.23263000001
 31
0.0
  0
LINE
  5
3E44
  8
2-0
  6
CONTINUOUS
 62
     3
 10
20133.1197995
 20
19808.935570000001
 30
0.0
 11
20103.122174499989
 21
19808.935570000001
 31
0.0
  0
LINE
  5
3E45
  8
2-0
  6
CONTINUOUS
 62
     3
 10
20133.1197995
 20
19826.93731200002
 30
0.0
 11
20133.1197995
 21
19808.935570000001
 31
0.0
  0
LINE
  5
3E46
  8
2-0
  6
CONTINUOUS
 62
     3
 10
20108.1263975
 20
19826.93731200002
 30
0.0
 11
20133.1197995
 21
19826.93731200002
 31
0.0
  0
LINE
  5
3E47
  8
2-0
  6
CONTINUOUS
 62
     3
 10
20108.1263975
 20
19821.929130000019
 30
0.0
 11
20108.1263975
 21
19826.93731200002
 31
0.0
  0
LINE
  5
3E48
  8
2-0
  6
CONTINUOUS
 62
     3
 10
20115.12399549998
 20
19821.929130000019
 30
0.0
 11
20108.1263975
 21
19821.929130000019
 31
0.0
  0
LINE
  5
3E49
  8
2-0
  6
CONTINUOUS
 62
     3
 10
20115.12399549998
 20
19468.632307499978
 30
0.0
 11
20108.1263975
 21
19468.632307499978
 31
0.0
  0
LINE
  5
3E4A
  8
2-0
  6
CONTINUOUS
 62
     3
 10
20108.1263975
 20
19468.632307499978
 30
0.0
 11
20108.1263975
 21
19473.632571499991
 31
0.0
  0
LINE
  5
3E4B
  8
2-0
  6
CONTINUOUS
 62
     3
 10
20108.1263975
 20
19473.632571499991
 30
0.0
 11
20133.1197995
 21
19473.632571499991
 31
0.0
  0
LINE
  5
3E4C
  8
2-0
  6
CONTINUOUS
 62
     3
 10
20133.1197995
 20
19473.632571499991
 30
0.0
 11
20133.1197995
 21
19455.636767499989
 31
0.0
  0
LINE
  5
3E4D
  8
2-0
  6
CONTINUOUS
 62
     3
 10
20133.1197995
 20
19455.636767499989
 30
0.0
 11
20103.122174499989
 21
19455.636767499989
 31
0.0
  0
LINE
  5
3E4E
  8
2-0
  6
CONTINUOUS
 62
     3
 10
20133.1197995
 20
19471.728274499968
 30
0.0
 11
20133.1197995
 21
19465.730333499989
 31
0.0
  0
LINE
  5
3E4F
  8
2-0
  6
CONTINUOUS
 62
     3
 10
20133.1197995
 20
19465.730333499989
 30
0.0
 11
20103.122174499989
 21
19465.730333499989
 31
0.0
  0
LINE
  5
3E50
  8
2-0
  6
CONTINUOUS
 62
     3
 10
20103.122174499989
 20
19465.730333499989
 30
0.0
 11
20103.122174499989
 21
19502.7314945
 31
0.0
  0
LINE
  5
3E51
  8
2-0
  6
CONTINUOUS
 62
     3
 10
20133.1197995
 20
19502.7314945
 30
0.0
 11
20103.122174499989
 21
19502.7314945
 31
0.0
  0
LINE
  5
3E52
  8
2-0
  6
CONTINUOUS
 62
     3
 10
20133.1197995
 20
19496.727614499981
 30
0.0
 11
20133.1197995
 21
19502.7314945
 31
0.0
  0
LINE
  5
3E53
  8
2-0
  6
CONTINUOUS
 62
     3
 10
20133.1197995
 20
19512.827039499982
 30
0.0
 11
20103.122174499989
 21
19512.827039499982
 31
0.0
  0
LINE
  5
3E54
  8
2-0
  6
CONTINUOUS
 62
     3
 10
20133.1197995
 20
19494.8252975
 30
0.0
 11
20133.1197995
 21
19512.827039499982
 31
0.0
  0
LINE
  5
3E55
  8
2-0
  6
CONTINUOUS
 62
     3
 10
20108.1263975
 20
19494.8252975
 30
0.0
 11
20133.1197995
 21
19494.8252975
 31
0.0
  0
LINE
  5
3E56
  8
2-0
  6
CONTINUOUS
 62
     3
 10
20108.1263975
 20
19499.825561500002
 30
0.0
 11
20108.1263975
 21
19494.8252975
 31
0.0
  0
LINE
  5
3E57
  8
2-0
  6
CONTINUOUS
 62
     3
 10
20115.12399549998
 20
19499.825561500002
 30
0.0
 11
20108.1263975
 21
19499.825561500002
 31
0.0
  0
LINE
  5
3E58
  8
2-0
  6
CONTINUOUS
 62
     3
 10
20115.12399549998
 20
18767.631317999989
 30
0.0
 11
20108.1263975
 21
18767.631317999989
 31
0.0
  0
LINE
  5
3E59
  8
2-0
  6
CONTINUOUS
 62
     3
 10
20108.1263975
 20
18767.631317999989
 30
0.0
 11
20108.1263975
 21
18772.63752
 31
0.0
  0
LINE
  5
3E5A
  8
2-0
  6
CONTINUOUS
 62
     3
 10
20108.1263975
 20
18772.63752
 30
0.0
 11
20133.1197995
 21
18772.63752
 31
0.0
  0
LINE
  5
3E5B
  8
2-0
  6
CONTINUOUS
 62
     3
 10
20133.1197995
 20
18772.63752
 30
0.0
 11
20133.1197995
 21
18754.635778
 31
0.0
  0
LINE
  5
3E5C
  8
2-0
  6
CONTINUOUS
 62
     3
 10
20133.1197995
 20
18754.635778
 30
0.0
 11
20103.122174499989
 21
18754.635778
 31
0.0
  0
LINE
  5
3E5D
  8
2-0
  6
CONTINUOUS
 62
     3
 10
20133.1197995
 20
18770.72728499999
 30
0.0
 11
20133.1197995
 21
18764.731322999989
 31
0.0
  0
LINE
  5
3E5E
  8
2-0
  6
CONTINUOUS
 62
     3
 10
20133.1197995
 20
18764.731322999989
 30
0.0
 11
20103.122174499989
 21
18764.731322999989
 31
0.0
  0
LINE
  5
3E5F
  8
2-0
  6
CONTINUOUS
 62
     3
 10
20103.122174499989
 20
18764.731322999989
 30
0.0
 11
20103.122174499989
 21
18801.730505
 31
0.0
  0
LINE
  5
3E60
  8
2-0
  6
CONTINUOUS
 62
     3
 10
20133.1197995
 20
18801.730505
 30
0.0
 11
20103.122174499989
 21
18801.730505
 31
0.0
  0
LINE
  5
3E61
  8
2-0
  6
CONTINUOUS
 62
     3
 10
20133.1197995
 20
18795.73454300001
 30
0.0
 11
20133.1197995
 21
18801.730505
 31
0.0
  0
LINE
  5
3E62
  8
2-0
  6
CONTINUOUS
 62
     3
 10
20133.1197995
 20
18811.82605
 30
0.0
 11
20103.122174499989
 21
18811.82605
 31
0.0
  0
LINE
  5
3E63
  8
2-0
  6
CONTINUOUS
 62
     3
 10
20133.1197995
 20
18793.824307999988
 30
0.0
 11
20133.1197995
 21
18811.82605
 31
0.0
  0
LINE
  5
3E64
  8
2-0
  6
CONTINUOUS
 62
     3
 10
20108.1263975
 20
18793.824307999988
 30
0.0
 11
20133.1197995
 21
18793.824307999988
 31
0.0
  0
LINE
  5
3E65
  8
2-0
  6
CONTINUOUS
 62
     3
 10
20108.1263975
 20
18798.83051
 30
0.0
 11
20108.1263975
 21
18793.824307999988
 31
0.0
  0
LINE
  5
3E66
  8
2-0
  6
CONTINUOUS
 62
     3
 10
20115.12399549998
 20
18798.83051
 30
0.0
 11
20108.1263975
 21
18798.83051
 31
0.0
  0
LINE
  5
3E67
  8
2-0
  6
CONTINUOUS
 62
     3
 10
20115.12399549998
 20
18097.824572000001
 30
0.0
 11
20108.1263975
 21
18097.824572000001
 31
0.0
  0
LINE
  5
3E68
  8
2-0
  6
CONTINUOUS
 62
     3
 10
20108.1263975
 20
18097.824572000001
 30
0.0
 11
20108.1263975
 21
18092.836185
 31
0.0
  0
LINE
  5
3E69
  8
2-0
  6
CONTINUOUS
 62
     3
 10
20108.1263975
 20
18092.836185
 30
0.0
 11
20133.1197995
 21
18092.836185
 31
0.0
  0
LINE
  5
3E6A
  8
2-0
  6
CONTINUOUS
 62
     3
 10
20133.1197995
 20
18092.836185
 30
0.0
 11
20133.1197995
 21
18110.831988000002
 31
0.0
  0
LINE
  5
3E6B
  8
2-0
  6
CONTINUOUS
 62
     3
 10
20133.1197995
 20
18110.831988000002
 30
0.0
 11
20103.122174499989
 21
18110.831988000002
 31
0.0
  0
LINE
  5
3E6C
  8
2-0
  6
CONTINUOUS
 62
     3
 10
20133.1197995
 20
18094.734542999991
 30
0.0
 11
20133.1197995
 21
18100.730504999981
 31
0.0
  0
LINE
  5
3E6D
  8
2-0
  6
CONTINUOUS
 62
     3
 10
20133.1197995
 20
18100.730504999981
 30
0.0
 11
20103.122174499989
 21
18100.730504999981
 31
0.0
  0
LINE
  5
3E6E
  8
2-0
  6
CONTINUOUS
 62
     3
 10
20103.122174499989
 20
18100.730504999981
 30
0.0
 11
20103.122174499989
 21
18063.731323
 31
0.0
  0
LINE
  5
3E6F
  8
2-0
  6
CONTINUOUS
 62
     3
 10
20133.1197995
 20
18063.731323
 30
0.0
 11
20103.122174499989
 21
18063.731323
 31
0.0
  0
LINE
  5
3E70
  8
2-0
  6
CONTINUOUS
 62
     3
 10
20133.1197995
 20
18069.733223999981
 30
0.0
 11
20133.1197995
 21
18063.731323
 31
0.0
  0
LINE
  5
3E71
  8
2-0
  6
CONTINUOUS
 62
     3
 10
20133.1197995
 20
18053.641716999991
 30
0.0
 11
20103.122174499989
 21
18053.641716999991
 31
0.0
  0
LINE
  5
3E72
  8
2-0
  6
CONTINUOUS
 62
     3
 10
20133.1197995
 20
18071.63752
 30
0.0
 11
20133.1197995
 21
18053.641716999991
 31
0.0
  0
LINE
  5
3E73
  8
2-0
  6
CONTINUOUS
 62
     3
 10
20108.1263975
 20
18071.63752
 30
0.0
 11
20133.1197995
 21
18071.63752
 31
0.0
  0
LINE
  5
3E74
  8
2-0
  6
CONTINUOUS
 62
     3
 10
20108.1263975
 20
18066.637256999998
 30
0.0
 11
20108.1263975
 21
18071.63752
 31
0.0
  0
LINE
  5
3E75
  8
2-0
  6
CONTINUOUS
 62
     3
 10
20115.12399549998
 20
18066.637256999998
 30
0.0
 11
20108.1263975
 21
18066.637256999998
 31
0.0
  0
LINE
  5
3E76
  8
2-0
  6
CONTINUOUS
 62
     3
 10
20106.008312499998
 20
17346.728143
 30
0.0
 11
20106.008312499998
 21
17366.72919799999
 31
0.0
  0
LINE
  5
3E77
  8
2-0
  6
CONTINUOUS
 62
     3
 10
20106.008312499998
 20
17366.72919799999
 30
0.0
 11
20191.008840499991
 21
17366.72919799999
 31
0.0
  0
LINE
  5
3E78
  8
2-0
  6
CONTINUOUS
 62
     3
 10
20115.12399549998
 20
17393.335908000001
 30
0.0
 11
20108.1263975
 21
17393.335908000001
 31
0.0
  0
LINE
  5
3E79
  8
2-0
  6
CONTINUOUS
 62
     3
 10
20108.1263975
 20
17393.335908000001
 30
0.0
 11
20108.1263975
 21
17388.341582000001
 31
0.0
  0
LINE
  5
3E7A
  8
2-0
  6
CONTINUOUS
 62
     3
 10
20108.1263975
 20
17388.341582000001
 30
0.0
 11
20133.1197995
 21
17388.341582000001
 31
0.0
  0
LINE
  5
3E7B
  8
2-0
  6
CONTINUOUS
 62
     3
 10
20133.1197995
 20
17388.341582000001
 30
0.0
 11
20133.1197995
 21
17406.33738600001
 31
0.0
  0
LINE
  5
3E7C
  8
2-0
  6
CONTINUOUS
 62
     3
 10
20133.1197995
 20
17406.33738600001
 30
0.0
 11
20103.122174499989
 21
17406.33738600001
 31
0.0
  0
LINE
  5
3E7D
  8
2-0
  6
CONTINUOUS
 62
     3
 10
20133.1197995
 20
17396.728802000001
 30
0.0
 11
20133.1197995
 21
17390.726901999991
 31
0.0
  0
LINE
  5
3E7E
  8
2-0
  6
CONTINUOUS
 62
     3
 10
20103.122174499989
 20
17396.728802000001
 30
0.0
 11
20133.1197995
 21
17396.728802000001
 31
0.0
  0
LINE
  5
3E7F
  8
2-0
  6
CONTINUOUS
 62
     3
 10
20103.122174499989
 20
17406.33738600001
 30
0.0
 11
20103.122174499989
 21
18053.641716999991
 31
0.0
  0
LINE
  5
3E80
  8
2-0
  6
CONTINUOUS
 62
     3
 10
20103.122174499989
 20
18110.831988000002
 30
0.0
 11
20103.122174499989
 21
18754.635778
 31
0.0
  0
LINE
  5
3E81
  8
2-0
  6
CONTINUOUS
 62
     3
 10
20103.122174499989
 20
17251.72708700001
 30
0.0
 11
20133.1197995
 21
17251.72708700001
 31
0.0
  0
LINE
  5
3E82
  8
2-0
  6
CONTINUOUS
 62
     3
 10
20133.1197995
 20
17251.72708700001
 30
0.0
 11
20133.1197995
 21
17257.728986999999
 31
0.0
  0
LINE
  5
3E83
  8
2-0
  6
CONTINUOUS
 62
     3
 10
20191.008840499991
 20
17281.732629999991
 30
0.0
 11
20106.008312499998
 21
17281.732629999991
 31
0.0
  0
LINE
  5
3E84
  8
2-0
  6
CONTINUOUS
 62
     3
 10
20106.008312499998
 20
17281.732629999991
 30
0.0
 11
20106.008312499998
 21
17301.727747000012
 31
0.0
  0
LINE
  5
3E85
  8
2-0
  6
CONTINUOUS
 62
     3
 10
20133.1197995
 20
17242.118504000009
 30
0.0
 11
20103.122174499989
 21
17242.118504000009
 31
0.0
  0
LINE
  5
3E86
  8
2-0
  6
CONTINUOUS
 62
     3
 10
20133.1197995
 20
17260.114306999982
 30
0.0
 11
20133.1197995
 21
17242.118504000009
 31
0.0
  0
LINE
  5
3E87
  8
2-0
  6
CONTINUOUS
 62
     3
 10
20108.1263975
 20
17260.114306999982
 30
0.0
 11
20133.1197995
 21
17260.114306999982
 31
0.0
  0
LINE
  5
3E88
  8
2-0
  6
CONTINUOUS
 62
     3
 10
20108.1263975
 20
17255.114043000009
 30
0.0
 11
20108.1263975
 21
17260.114306999982
 31
0.0
  0
LINE
  5
3E89
  8
2-0
  6
CONTINUOUS
 62
     3
 10
20115.12399549998
 20
17255.114043000009
 30
0.0
 11
20108.1263975
 21
17255.114043000009
 31
0.0
  0
LINE
  5
3E8A
  8
2-0
  6
CONTINUOUS
 62
     3
 10
20115.12399549998
 20
16550.631812499989
 30
0.0
 11
20108.1263975
 21
16550.631812499989
 31
0.0
  0
LINE
  5
3E8B
  8
2-0
  6
CONTINUOUS
 62
     3
 10
20108.1263975
 20
16550.631812499989
 30
0.0
 11
20108.1263975
 21
16555.632076499991
 31
0.0
  0
LINE
  5
3E8C
  8
2-0
  6
CONTINUOUS
 62
     3
 10
20108.1263975
 20
16555.632076499991
 30
0.0
 11
20133.1197995
 21
16555.632076499991
 31
0.0
  0
LINE
  5
3E8D
  8
2-0
  6
CONTINUOUS
 62
     3
 10
20133.1197995
 20
16555.632076499991
 30
0.0
 11
20133.1197995
 21
16537.630334499991
 31
0.0
  0
LINE
  5
3E8E
  8
2-0
  6
CONTINUOUS
 62
     3
 10
20133.1197995
 20
16537.630334499991
 30
0.0
 11
20103.122174499989
 21
16537.630334499991
 31
0.0
  0
LINE
  5
3E8F
  8
2-0
  6
CONTINUOUS
 62
     3
 10
20133.1197995
 20
16553.727779500001
 30
0.0
 11
20133.1197995
 21
16547.7308285
 31
0.0
  0
LINE
  5
3E90
  8
2-0
  6
CONTINUOUS
 62
     3
 10
20133.1197995
 20
16547.7308285
 30
0.0
 11
20103.122174499989
 21
16547.7308285
 31
0.0
  0
LINE
  5
3E91
  8
2-0
  6
CONTINUOUS
 62
     3
 10
20103.122174499989
 20
16547.7308285
 30
0.0
 11
20103.122174499989
 21
16584.7309995
 31
0.0
  0
LINE
  5
3E92
  8
2-0
  6
CONTINUOUS
 62
     3
 10
20133.1197995
 20
16584.7309995
 30
0.0
 11
20103.122174499989
 21
16584.7309995
 31
0.0
  0
LINE
  5
3E93
  8
2-0
  6
CONTINUOUS
 62
     3
 10
20133.1197995
 20
16578.7281095
 30
0.0
 11
20133.1197995
 21
16584.7309995
 31
0.0
  0
LINE
  5
3E94
  8
2-0
  6
CONTINUOUS
 62
     3
 10
20133.1197995
 20
16594.8265445
 30
0.0
 11
20103.122174499989
 21
16594.8265445
 31
0.0
  0
LINE
  5
3E95
  8
2-0
  6
CONTINUOUS
 62
     3
 10
20133.1197995
 20
16576.818863500001
 30
0.0
 11
20133.1197995
 21
16594.8265445
 31
0.0
  0
LINE
  5
3E96
  8
2-0
  6
CONTINUOUS
 62
     3
 10
20108.1263975
 20
16576.818863500001
 30
0.0
 11
20133.1197995
 21
16576.818863500001
 31
0.0
  0
LINE
  5
3E97
  8
2-0
  6
CONTINUOUS
 62
     3
 10
20108.1263975
 20
16581.825066500001
 30
0.0
 11
20108.1263975
 21
16576.818863500001
 31
0.0
  0
LINE
  5
3E98
  8
2-0
  6
CONTINUOUS
 62
     3
 10
20115.12399549998
 20
16581.825066500001
 30
0.0
 11
20108.1263975
 21
16581.825066500001
 31
0.0
  0
LINE
  5
3E99
  8
2-0
  6
CONTINUOUS
 62
     3
 10
20115.12399549998
 20
15881.065083
 30
0.0
 11
20108.1263975
 21
15881.065083
 31
0.0
  0
LINE
  5
3E9A
  8
2-0
  6
CONTINUOUS
 62
     3
 10
20108.1263975
 20
15881.065083
 30
0.0
 11
20108.1263975
 21
15876.070758000011
 31
0.0
  0
LINE
  5
3E9B
  8
2-0
  6
CONTINUOUS
 62
     3
 10
20108.1263975
 20
15876.070758000011
 30
0.0
 11
20133.1197995
 21
15876.070758000011
 31
0.0
  0
LINE
  5
3E9C
  8
2-0
  6
CONTINUOUS
 62
     3
 10
20133.1197995
 20
15876.070758000011
 30
0.0
 11
20133.1197995
 21
15894.066561000011
 31
0.0
  0
LINE
  5
3E9D
  8
2-0
  6
CONTINUOUS
 62
     3
 10
20133.1197995
 20
15894.066561000011
 30
0.0
 11
20103.122174499989
 21
15894.066561000011
 31
0.0
  0
LINE
  5
3E9E
  8
2-0
  6
CONTINUOUS
 62
     3
 10
20133.1197995
 20
15877.969116
 30
0.0
 11
20133.1197995
 21
15883.97101600001
 31
0.0
  0
LINE
  5
3E9F
  8
2-0
  6
CONTINUOUS
 62
     3
 10
20133.1197995
 20
15883.97101600001
 30
0.0
 11
20103.122174499989
 21
15883.97101600001
 31
0.0
  0
LINE
  5
3EA0
  8
2-0
  6
CONTINUOUS
 62
     3
 10
20103.122174499989
 20
15846.971835
 30
0.0
 11
20103.122174499989
 21
15883.97101600001
 31
0.0
  0
LINE
  5
3EA1
  8
2-0
  6
CONTINUOUS
 62
     3
 10
20133.1197995
 20
15846.971835
 30
0.0
 11
20103.122174499989
 21
15846.971835
 31
0.0
  0
LINE
  5
3EA2
  8
2-0
  6
CONTINUOUS
 62
     3
 10
20133.1197995
 20
15852.968785999999
 30
0.0
 11
20133.1197995
 21
15846.971835
 31
0.0
  0
LINE
  5
3EA3
  8
2-0
  6
CONTINUOUS
 62
     3
 10
20133.1197995
 20
15836.870351
 30
0.0
 11
20103.122174499989
 21
15836.870351
 31
0.0
  0
LINE
  5
3EA4
  8
2-0
  6
CONTINUOUS
 62
     3
 10
20133.1197995
 20
15854.878032000001
 30
0.0
 11
20133.1197995
 21
15836.870351
 31
0.0
  0
LINE
  5
3EA5
  8
2-0
  6
CONTINUOUS
 62
     3
 10
20108.1263975
 20
15854.878032000001
 30
0.0
 11
20133.1197995
 21
15854.878032000001
 31
0.0
  0
LINE
  5
3EA6
  8
2-0
  6
CONTINUOUS
 62
     3
 10
20108.1263975
 20
15849.87776800002
 30
0.0
 11
20108.1263975
 21
15854.878032000001
 31
0.0
  0
LINE
  5
3EA7
  8
2-0
  6
CONTINUOUS
 62
     3
 10
20115.12399549998
 20
15849.87776800002
 30
0.0
 11
20108.1263975
 21
15849.87776800002
 31
0.0
  0
LINE
  5
3EA8
  8
2-0
  6
CONTINUOUS
 62
     3
 10
20103.122174499989
 20
17242.118504000009
 30
0.0
 11
20103.122174499989
 21
16594.8265445
 31
0.0
  0
LINE
  5
3EA9
  8
2-0
  6
CONTINUOUS
 62
     3
 10
20103.122174499989
 20
17396.728802000001
 30
0.0
 11
20103.122174499989
 21
17251.72708700001
 31
0.0
  0
LINE
  5
3EAA
  8
2-0
  6
CONTINUOUS
 62
     3
 10
20191.008840499991
 20
17366.72919799999
 30
0.0
 11
20191.008840499991
 21
17281.732629999991
 31
0.0
  0
LINE
  5
3EAB
  8
2-0
  6
CONTINUOUS
 62
     3
 10
20115.12399549998
 20
15148.636761
 30
0.0
 11
20108.1263975
 21
15148.636761
 31
0.0
  0
LINE
  5
3EAC
  8
2-0
  6
CONTINUOUS
 62
     3
 10
20108.1263975
 20
15148.636761
 30
0.0
 11
20108.1263975
 21
15153.631087000011
 31
0.0
  0
LINE
  5
3EAD
  8
2-0
  6
CONTINUOUS
 62
     3
 10
20108.1263975
 20
15153.631087000011
 30
0.0
 11
20133.1197995
 21
15153.631087000011
 31
0.0
  0
LINE
  5
3EAE
  8
2-0
  6
CONTINUOUS
 62
     3
 10
20133.1197995
 20
15153.631087000011
 30
0.0
 11
20133.1197995
 21
15135.635283000011
 31
0.0
  0
LINE
  5
3EAF
  8
2-0
  6
CONTINUOUS
 62
     3
 10
20133.1197995
 20
15135.635283000011
 30
0.0
 11
20103.122174499989
 21
15135.635283000011
 31
0.0
  0
LINE
  5
3EB0
  8
2-0
  6
CONTINUOUS
 62
     3
 10
20133.1197995
 20
15151.73371800001
 30
0.0
 11
20133.1197995
 21
15145.730828000011
 31
0.0
  0
LINE
  5
3EB1
  8
2-0
  6
CONTINUOUS
 62
     3
 10
20133.1197995
 20
15145.730828000011
 30
0.0
 11
20103.122174499989
 21
15145.730828000011
 31
0.0
  0
LINE
  5
3EB2
  8
2-0
  6
CONTINUOUS
 62
     3
 10
20103.122174499989
 20
15145.730828000011
 30
0.0
 11
20103.122174499989
 21
15182.730999999991
 31
0.0
  0
LINE
  5
3EB3
  8
2-0
  6
CONTINUOUS
 62
     3
 10
20133.1197995
 20
15182.730999999991
 30
0.0
 11
20103.122174499989
 21
15182.730999999991
 31
0.0
  0
LINE
  5
3EB4
  8
2-0
  6
CONTINUOUS
 62
     3
 10
20133.1197995
 20
15176.734048
 30
0.0
 11
20133.1197995
 21
15182.730999999991
 31
0.0
  0
LINE
  5
3EB5
  8
2-0
  6
CONTINUOUS
 62
     3
 10
20133.1197995
 20
15192.831493000011
 30
0.0
 11
20103.122174499989
 21
15192.831493000011
 31
0.0
  0
LINE
  5
3EB6
  8
2-0
  6
CONTINUOUS
 62
     3
 10
20133.1197995
 20
15174.82480200001
 30
0.0
 11
20133.1197995
 21
15192.831493000011
 31
0.0
  0
LINE
  5
3EB7
  8
2-0
  6
CONTINUOUS
 62
     3
 10
20108.1263975
 20
15174.82480200001
 30
0.0
 11
20133.1197995
 21
15174.82480200001
 31
0.0
  0
LINE
  5
3EB8
  8
2-0
  6
CONTINUOUS
 62
     3
 10
20108.1263975
 20
15179.83001500001
 30
0.0
 11
20108.1263975
 21
15174.82480200001
 31
0.0
  0
LINE
  5
3EB9
  8
2-0
  6
CONTINUOUS
 62
     3
 10
20115.12399549998
 20
15179.83001500001
 30
0.0
 11
20108.1263975
 21
15179.83001500001
 31
0.0
  0
LINE
  5
3EBA
  8
2-0
  6
CONTINUOUS
 62
     3
 10
20133.1197995
 20
14472.732840999999
 30
0.0
 11
20133.1197995
 21
14478.737709999999
 31
0.0
  0
LINE
  5
3EBB
  8
2-0
  6
CONTINUOUS
 62
     3
 10
20133.1197995
 20
14478.737709999999
 30
0.0
 11
20103.122174499989
 21
14478.737709999999
 31
0.0
  0
LINE
  5
3EBC
  8
2-0
  6
CONTINUOUS
 62
     3
 10
20103.122174499989
 20
14478.737709999999
 30
0.0
 11
20103.122174499989
 21
14363.733619000001
 31
0.0
  0
LINE
  5
3EBD
  8
2-0
  6
CONTINUOUS
 62
     3
 10
20103.122174499989
 20
14363.733619000001
 30
0.0
 11
20188.120722499982
 21
14363.733619000001
 31
0.0
  0
LINE
  5
3EBE
  8
2-0
  6
CONTINUOUS
 62
     3
 10
20188.120722499982
 20
14363.733619000001
 30
0.0
 11
20188.120722499982
 21
14448.729198000001
 31
0.0
  0
LINE
  5
3EBF
  8
2-0
  6
CONTINUOUS
 62
     3
 10
20188.120722499982
 20
14448.729198000001
 30
0.0
 11
20156.123784499981
 21
14448.729198000001
 31
0.0
  0
LINE
  5
3EC0
  8
2-0
  6
CONTINUOUS
 62
     3
 10
20115.12399549998
 20
14475.767443000001
 30
0.0
 11
20108.1263975
 21
14475.767443000001
 31
0.0
  0
LINE
  5
3EC1
  8
2-0
  6
CONTINUOUS
 62
     3
 10
20108.1263975
 20
14475.767443000001
 30
0.0
 11
20108.1263975
 21
14470.77014799998
 31
0.0
  0
LINE
  5
3EC2
  8
2-0
  6
CONTINUOUS
 62
     3
 10
20108.1263975
 20
14470.77014799998
 30
0.0
 11
20133.1197995
 21
14470.77014799998
 31
0.0
  0
LINE
  5
3EC3
  8
2-0
  6
CONTINUOUS
 62
     3
 10
20133.1197995
 20
14470.77014799998
 30
0.0
 11
20133.1197995
 21
14488.768921000001
 31
0.0
  0
LINE
  5
3EC4
  8
2-0
  6
CONTINUOUS
 62
     3
 10
20133.1197995
 20
14488.768921000001
 30
0.0
 11
20103.122174499989
 21
14488.768921000001
 31
0.0
  0
LINE
  5
3EC5
  8
2-0
  6
CONTINUOUS
 62
     3
 10
20103.122174499989
 20
15192.831493000011
 30
0.0
 11
20103.122174499989
 21
15836.870351
 31
0.0
  0
LINE
  5
3EC6
  8
2-0
  6
CONTINUOUS
 62
     3
 10
20103.122174499989
 20
18811.82605
 30
0.0
 11
20103.122174499989
 21
19455.636767499989
 31
0.0
  0
LINE
  5
3EC7
  8
2-0
  6
CONTINUOUS
 62
     3
 10
20194.124602499978
 20
18740.729659999961
 30
0.0
 11
20147.120933499999
 21
18740.729659999961
 31
0.0
  0
LINE
  5
3EC8
  8
2-0
  6
CONTINUOUS
 62
     3
 10
20147.120933499999
 20
18825.730188000001
 30
0.0
 11
20194.124602499978
 21
18825.730188000001
 31
0.0
  0
LINE
  5
3EC9
  8
2-0
  6
CONTINUOUS
 62
     3
 10
20147.120933499999
 20
18740.729659999961
 30
0.0
 11
20147.120933499999
 21
18765.732959000001
 31
0.0
  0
LINE
  5
3ECA
  8
2-0
  6
CONTINUOUS
 62
     3
 10
20147.120933499999
 20
18800.728867999991
 30
0.0
 11
20147.120933499999
 21
18825.730188000001
 31
0.0
  0
LINE
  5
3ECB
  8
2-0
  6
CONTINUOUS
 62
     3
 10
20194.124602499978
 20
18825.730188000001
 30
0.0
 11
20194.124602499978
 21
18740.729659999961
 31
0.0
  0
LINE
  5
3ECC
  8
2-0
  6
CONTINUOUS
 62
     3
 10
20103.122174499989
 20
16537.630334499991
 30
0.0
 11
20103.122174499989
 21
15894.066561000011
 31
0.0
  0
LINE
  5
3ECD
  8
2-0
  6
CONTINUOUS
 62
     3
 10
20194.124602499978
 20
15822.73263
 30
0.0
 11
20147.120933499999
 21
15822.73263
 31
0.0
  0
LINE
  5
3ECE
  8
2-0
  6
CONTINUOUS
 62
     3
 10
20147.120933499999
 20
15907.72919799999
 30
0.0
 11
20194.124602499978
 21
15907.72919799999
 31
0.0
  0
LINE
  5
3ECF
  8
2-0
  6
CONTINUOUS
 62
     3
 10
20147.120933499999
 20
15822.73263
 30
0.0
 11
20147.120933499999
 21
15847.72801100001
 31
0.0
  0
LINE
  5
3ED0
  8
2-0
  6
CONTINUOUS
 62
     3
 10
20147.120933499999
 20
15882.727879
 30
0.0
 11
20147.120933499999
 21
15907.72919799999
 31
0.0
  0
LINE
  5
3ED1
  8
2-0
  6
CONTINUOUS
 62
     3
 10
20194.124602499978
 20
15907.72919799999
 30
0.0
 11
20194.124602499978
 21
15822.73263
 31
0.0
  0
LINE
  5
3ED2
  8
2-0
  6
CONTINUOUS
 62
     3
 10
25323.116763499991
 20
19819.23302600002
 30
0.0
 11
25323.116763499991
 21
19934.229199000009
 31
0.0
  0
LINE
  5
3ED3
  8
2-0
  6
CENTER2
 62
     6
 10
18816.1639025
 20
19891.730914
 30
0.0
 11
26173.11808349999
 21
19891.730914
 31
0.0
  0
LINE
  5
3ED4
  8
2-0
  6
CENTER2
 62
     6
 10
18816.1639025
 20
17324.230914
 30
0.0
 11
26173.11808349999
 21
17324.230914
 31
0.0
  0
LINE
  5
3ED5
  8
2-0
  6
CENTER2
 62
     6
 10
18816.1639025
 20
14406.230913999991
 30
0.0
 11
26173.11808349999
 21
14406.230913999991
 31
0.0
  0
LINE
  5
3ED6
  8
2-0
  6
CONTINUOUS
 62
     3
 10
20568.710157500002
 20
19922.229357000011
 30
0.0
 11
20568.710157500002
 21
19929.234873000001
 31
0.0
  0
LINE
  5
3ED7
  8
2-0
  6
CONTINUOUS
 62
     3
 10
20568.710157500002
 20
19929.234873000001
 30
0.0
 11
20563.709893499989
 21
19929.234873000001
 31
0.0
  0
LINE
  5
3ED8
  8
2-0
  6
CONTINUOUS
 62
     3
 10
20563.709893499989
 20
19929.234873000001
 30
0.0
 11
20563.709893499989
 21
19904.22563600001
 31
0.0
  0
LINE
  5
3ED9
  8
2-0
  6
CONTINUOUS
 62
     3
 10
20563.709893499989
 20
19904.22563600001
 30
0.0
 11
20581.711635499989
 21
19904.22563600001
 31
0.0
  0
LINE
  5
3EDA
  8
2-0
  6
CONTINUOUS
 62
     3
 10
20581.711635499989
 20
19904.22563600001
 30
0.0
 11
20581.711635499989
 21
19934.229199000009
 31
0.0
  0
LINE
  5
3EDB
  8
2-0
  6
CONTINUOUS
 62
     3
 10
20565.612210499989
 20
19904.22563600001
 30
0.0
 11
20571.6160905
 21
19904.22563600001
 31
0.0
  0
LINE
  5
3EDC
  8
2-0
  6
CONTINUOUS
 62
     3
 10
20571.6160905
 20
19904.22563600001
 30
0.0
 11
20571.6160905
 21
19934.229199000009
 31
0.0
  0
LINE
  5
3EDD
  8
2-0
  6
CONTINUOUS
 62
     3
 10
20534.620868499991
 20
19934.229199000009
 30
0.0
 11
20571.6160905
 21
19934.229199000009
 31
0.0
  0
LINE
  5
3EDE
  8
2-0
  6
CONTINUOUS
 62
     3
 10
20534.620868499991
 20
19904.22563600001
 30
0.0
 11
20534.620868499991
 21
19934.229199000009
 31
0.0
  0
LINE
  5
3EDF
  8
2-0
  6
CONTINUOUS
 62
     3
 10
20540.614850499998
 20
19904.22563600001
 30
0.0
 11
20534.620868499991
 21
19904.22563600001
 31
0.0
  0
LINE
  5
3EE0
  8
2-0
  6
CONTINUOUS
 62
     3
 10
20524.525323499991
 20
19904.22563600001
 30
0.0
 11
20524.525323499991
 21
19934.229199000009
 31
0.0
  0
LINE
  5
3EE1
  8
2-0
  6
CONTINUOUS
 62
     3
 10
20542.521126499989
 20
19904.22563600001
 30
0.0
 11
20524.525323499991
 21
19904.22563600001
 31
0.0
  0
LINE
  5
3EE2
  8
2-0
  6
CONTINUOUS
 62
     3
 10
20542.521126499989
 20
19929.234873000001
 30
0.0
 11
20542.521126499989
 21
19904.22563600001
 31
0.0
  0
LINE
  5
3EE3
  8
2-0
  6
CONTINUOUS
 62
     3
 10
20537.522842499991
 20
19929.234873000001
 30
0.0
 11
20542.521126499989
 21
19929.234873000001
 31
0.0
  0
LINE
  5
3EE4
  8
2-0
  6
CONTINUOUS
 62
     3
 10
20537.522842499991
 20
19922.229357000011
 30
0.0
 11
20537.522842499991
 21
19929.234873000001
 31
0.0
  0
LINE
  5
3EE5
  8
2-0
  6
CONTINUOUS
 62
     3
 10
20228.423721499988
 20
19934.229199000009
 30
0.0
 11
20524.525323499991
 21
19934.229199000009
 31
0.0
  0
LINE
  5
3EE6
  8
2-0
  6
CONTINUOUS
 62
     3
 10
20103.122174499989
 20
19849.23263000001
 30
0.0
 11
25242.114863499992
 21
19849.23263000001
 31
0.0
  0
LINE
  5
3EE7
  8
2-0
  6
CONTINUOUS
 62
     3
 10
20103.122174499989
 20
14488.768921000001
 30
0.0
 11
20103.122174499989
 21
15135.635283000011
 31
0.0
  0
LINE
  5
3EE8
  8
2-0
  6
CENTER2
 62
     6
 10
20145.618479500001
 20
21134.229199000009
 30
0.0
 11
20145.618479500001
 21
13780.467479999999
 31
0.0
  0
LINE
  5
3EE9
  8
2-0
  6
CENTER2
 62
     6
 10
25280.618479500001
 20
21134.229199000009
 30
0.0
 11
25280.618479500001
 21
13780.467479999999
 31
0.0
  0
LINE
  5
3EEA
  8
2-0
  6
CONTINUOUS
 62
     3
 10
25323.116763499991
 20
19808.935570000001
 30
0.0
 11
25323.116763499991
 21
19512.827039499982
 31
0.0
  0
LINE
  5
3EEB
  8
2-0
  6
CONTINUOUS
 62
     3
 10
20103.122174499989
 20
19808.935570000001
 30
0.0
 11
20103.122174499989
 21
19512.827039499982
 31
0.0
  0
LINE
  5
3EEC
  8
2-0
  6
CENTER2
 62
     6
 10
22713.118479499979
 20
21134.229199000009
 30
0.0
 11
22713.118479499979
 21
14214.82631299999
 31
0.0
  0
LINE
  5
3EED
  8
2-0
  6
CONTINUOUS
 62
     3
 10
20184.120115500002
 20
14448.729198000001
 30
0.0
 11
20184.120115500002
 21
19934.229199000009
 31
0.0
  0
LINE
  5
3EEE
  8
2-0
  6
CONTINUOUS
 62
     3
 10
25242.114863499992
 20
14448.729198000001
 30
0.0
 11
25242.114863499992
 21
19934.229199000009
 31
0.0
  0
CIRCLE
  5
3EEF
  8
2-0
  6
CONTINUOUS
 62
     4
 10
18616.166212499978
 20
19891.730914
 30
0.0
 40
200.00001
  0
CIRCLE
  5
3EF0
  8
2-0
  6
CONTINUOUS
 62
     4
 10
18616.166212499978
 20
17324.230914
 30
0.0
 40
200.00001
  0
CIRCLE
  5
3EF1
  8
2-0
  6
CONTINUOUS
 62
     4
 10
18616.166212499978
 20
14406.230913999991
 30
0.0
 40
200.00001
  0
CIRCLE
  5
3EF2
  8
2-0
  6
CONTINUOUS
 62
     4
 10
22713.118479499979
 20
21334.233818000012
 30
0.0
 40
200.00001
  0
CIRCLE
  5
3EF3
  8
2-0
  6
CONTINUOUS
 62
     4
 10
20145.618479500001
 20
21334.233818000012
 30
0.0
 40
200.00001
  0
TEXT
  5
3EF4
  8
2-0
  6
CONTINUOUS
 62
     7
 10
23677.463786499979
 20
13846.232035999999
 30
0.0
 40
160.0
  1
前柱（右）
 50
0.000213
 72
     4
 11
24093.463489092999
 21
13926.23358250079
 31
0.0
  0
TEXT
  5
3EF5
  8
2-0
  6
CONTINUOUS
 62
     7
 10
23694.16300549998
 20
18525.354080000001
 30
0.0
 40
160.0
  1
補強柱 後
 50
359.99984199999989
 72
     4
 11
24104.829892774709
 21
18605.352947536991
 31
0.0
  0
TEXT
  5
3EF6
  8
2-0
  6
CONTINUOUS
 62
     7
 10
23882.058909499989
 20
16774.72405200003
 30
0.0
 40
160.0
  1
壁パネル
 50
359.99982299999999
 72
     4
 11
24244.72582330355
 21
16854.722931637891
 31
0.0
  0
TEXT
  5
3EF7
  8
2-0
  6
CONTINUOUS
 62
     7
 10
23602.056005499981
 20
17611.911948000012
 30
0.0
 40
160.0
  1
中柱（左右）
 50
0.000354
 72
     4
 11
24119.388844546189
 21
17691.915144324659
 31
0.0
  0
TEXT
  5
3EF8
  8
2-0
  6
CONTINUOUS
 62
     7
 10
24282.05824949998
 20
14819.273302
 30
0.0
 40
160.0
  1
下枠
 50
0.001063
 72
     4
 11
24452.723431909279
 21
14899.276468339291
 31
0.0
  0
TEXT
  5
3EF9
  8
2-0
  6
CONTINUOUS
 62
     7
 10
23694.163005499999
 20
15607.594591000019
 30
0.0
 40
160.0
  1
補強柱 前
 50
359.99937
 72
     4
 11
24104.830551787782
 21
15687.59007547934
 31
0.0
  0
TEXT
  5
3EFA
  8
2-0
  6
CONTINUOUS
 62
     7
 10
26095.613992499992
 20
20744.228406999999
 30
0.0
 40
160.0
  1
後柱（左右）
 50
0.000354
 72
     4
 11
26607.61349821297
 21
20824.231570372842
 31
0.0
  0
TEXT
  5
3EFB
  8
2-0
  6
CONTINUOUS
 62
     7
 10
23112.2072415
 20
14984.069213999979
 30
0.0
 40
160.0
  1
前柱（中）
 72
     4
 11
23528.2072415
 21
15064.069213999979
 31
0.0
  0
TEXT
  5
3EFC
  8
2-0
  6
CONTINUOUS
 62
     7
 10
21548.987355500009
 20
19297.111246000011
 30
0.0
 40
160.0
  1
間柱（後）
 72
     4
 11
21970.320688833341
 21
19377.111246000011
 31
0.0
  0
TEXT
  5
3EFD
  8
2-0
  6
CONTINUOUS
 62
     7
 10
22983.411844500009
 20
19365.855967000021
 30
0.0
 40
160.0
  1
後柱（中）
 72
     4
 11
23399.411844500009
 21
19445.855967000021
 31
0.0
  0
TEXT
  5
3EFE
  8
2-0
  6
CONTINUOUS
 62
     7
 10
18568.166845499982
 20
19797.250472000022
 30
0.0
 40
160.0
  1
C
 72
     4
 11
18621.500178833321
 21
19877.250472000022
 31
0.0
  0
TEXT
  5
3EFF
  8
2-0
  6
CONTINUOUS
 62
     7
 10
18568.387561499982
 20
17253.836832000019
 30
0.0
 40
160.0
  1
B
 72
     4
 11
18621.720894833321
 21
17333.836832000019
 31
0.0
  0
TEXT
  5
3F00
  8
2-0
  6
CONTINUOUS
 62
     7
 10
18568.430121500001
 20
14317.62370299999
 30
0.0
 40
160.0
  1
A
 72
     4
 11
18621.76345483333
 21
14397.62370299999
 31
0.0
  0
TEXT
  5
3F01
  8
2-0
  6
CONTINUOUS
 62
     7
 10
22661.486696499989
 20
21238.708189000012
 30
0.0
 40
160.0
  1
2
 72
     4
 11
22714.820029833321
 21
21318.708189000012
 31
0.0
  0
TEXT
  5
3F02
  8
2-0
  6
CONTINUOUS
 62
     7
 10
20101.411870499989
 20
21245.466266000029
 30
0.0
 40
160.0
  1
1
 72
     4
 11
20128.078537166661
 21
21325.466266000029
 31
0.0
  0
LINE
  5
3F03
  8
2-0
  6
CONTINUOUS
 62
     3
 10
24541.11906049999
 20
19934.229199000009
 30
0.0
 11
24504.11789849999
 21
19934.229199000009
 31
0.0
  0
LINE
  5
3F04
  8
2-0
  6
CONTINUOUS
 62
     3
 10
24541.11906049999
 20
19904.22563600001
 30
0.0
 11
24541.11906049999
 21
19934.229199000009
 31
0.0
  0
LINE
  5
3F05
  8
2-0
  6
CONTINUOUS
 62
     3
 10
24535.119139499981
 20
19904.22563600001
 30
0.0
 11
24541.11906049999
 21
19904.22563600001
 31
0.0
  0
LINE
  5
3F06
  8
2-0
  6
CONTINUOUS
 62
     3
 10
24551.216584499991
 20
19904.22563600001
 30
0.0
 11
24551.216584499991
 21
19934.229199000009
 31
0.0
  0
LINE
  5
3F07
  8
2-0
  6
CONTINUOUS
 62
     3
 10
24533.21286349999
 20
19904.22563600001
 30
0.0
 11
24551.216584499991
 21
19904.22563600001
 31
0.0
  0
LINE
  5
3F08
  8
2-0
  6
CONTINUOUS
 62
     3
 10
24533.21286349999
 20
19929.234873000001
 30
0.0
 11
24533.21286349999
 21
19904.22563600001
 31
0.0
  0
LINE
  5
3F09
  8
2-0
  6
CONTINUOUS
 62
     3
 10
24538.213127499988
 20
19929.234873000001
 30
0.0
 11
24533.21286349999
 21
19929.234873000001
 31
0.0
  0
LINE
  5
3F0A
  8
2-0
  6
CONTINUOUS
 62
     3
 10
24538.213127499988
 20
19922.229357000011
 30
0.0
 11
24538.213127499988
 21
19929.234873000001
 31
0.0
  0
LINE
  5
3F0B
  8
2-0
  6
CONTINUOUS
 62
     3
 10
24507.023832499981
 20
19922.229357000011
 30
0.0
 11
24507.023832499981
 21
19929.234873000001
 31
0.0
  0
LINE
  5
3F0C
  8
2-0
  6
CONTINUOUS
 62
     3
 10
24507.023832499981
 20
19929.234873000001
 30
0.0
 11
24512.02409649999
 21
19929.234873000001
 31
0.0
  0
LINE
  5
3F0D
  8
2-0
  6
CONTINUOUS
 62
     3
 10
24512.02409649999
 20
19929.234873000001
 30
0.0
 11
24512.02409649999
 21
19904.22563600001
 31
0.0
  0
LINE
  5
3F0E
  8
2-0
  6
CONTINUOUS
 62
     3
 10
24512.02409649999
 20
19904.22563600001
 30
0.0
 11
24494.02433349999
 21
19904.22563600001
 31
0.0
  0
LINE
  5
3F0F
  8
2-0
  6
CONTINUOUS
 62
     3
 10
24494.02433349999
 20
19904.22563600001
 30
0.0
 11
24494.02433349999
 21
19934.229199000009
 31
0.0
  0
LINE
  5
3F10
  8
2-0
  6
CONTINUOUS
 62
     3
 10
24510.117819499988
 20
19904.22563600001
 30
0.0
 11
24504.11789849999
 21
19904.22563600001
 31
0.0
  0
LINE
  5
3F11
  8
2-0
  6
CONTINUOUS
 62
     3
 10
24504.11789849999
 20
19904.22563600001
 30
0.0
 11
24504.11789849999
 21
19934.229199000009
 31
0.0
  0
LINE
  5
3F12
  8
2-0
  6
CONTINUOUS
 62
     3
 10
23806.01789399999
 20
19922.229357000011
 30
0.0
 11
23806.01789399999
 21
19929.234873000001
 31
0.0
  0
LINE
  5
3F13
  8
2-0
  6
CONTINUOUS
 62
     3
 10
23806.01789399999
 20
19929.234873000001
 30
0.0
 11
23811.018156999991
 21
19929.234873000001
 31
0.0
  0
LINE
  5
3F14
  8
2-0
  6
CONTINUOUS
 62
     3
 10
23811.018156999991
 20
19929.234873000001
 30
0.0
 11
23811.018156999991
 21
19904.22563600001
 31
0.0
  0
LINE
  5
3F15
  8
2-0
  6
CONTINUOUS
 62
     3
 10
23811.018156999991
 20
19904.22563600001
 30
0.0
 11
23793.02433399998
 21
19904.22563600001
 31
0.0
  0
LINE
  5
3F16
  8
2-0
  6
CONTINUOUS
 62
     3
 10
23793.02433399998
 20
19904.22563600001
 30
0.0
 11
23793.02433399998
 21
19934.229199000009
 31
0.0
  0
LINE
  5
3F17
  8
2-0
  6
CONTINUOUS
 62
     3
 10
23809.11583999998
 20
19904.22563600001
 30
0.0
 11
23803.11789899999
 21
19904.22563600001
 31
0.0
  0
LINE
  5
3F18
  8
2-0
  6
CONTINUOUS
 62
     3
 10
23803.11789899999
 20
19904.22563600001
 30
0.0
 11
23803.11789899999
 21
19934.229199000009
 31
0.0
  0
LINE
  5
3F19
  8
2-0
  6
CONTINUOUS
 62
     3
 10
23840.11905999999
 20
19934.229199000009
 30
0.0
 11
23803.11789899999
 21
19934.229199000009
 31
0.0
  0
LINE
  5
3F1A
  8
2-0
  6
CONTINUOUS
 62
     3
 10
23840.11905999999
 20
19904.22563600001
 30
0.0
 11
23840.11905999999
 21
19934.229199000009
 31
0.0
  0
LINE
  5
3F1B
  8
2-0
  6
CONTINUOUS
 62
     3
 10
23834.113201
 20
19904.22563600001
 30
0.0
 11
23840.11905999999
 21
19904.22563600001
 31
0.0
  0
LINE
  5
3F1C
  8
2-0
  6
CONTINUOUS
 62
     3
 10
23850.212625
 20
19904.22563600001
 30
0.0
 11
23850.212625
 21
19934.229199000009
 31
0.0
  0
LINE
  5
3F1D
  8
2-0
  6
CONTINUOUS
 62
     3
 10
23832.216821999991
 20
19904.22563600001
 30
0.0
 11
23850.212625
 21
19904.22563600001
 31
0.0
  0
LINE
  5
3F1E
  8
2-0
  6
CONTINUOUS
 62
     3
 10
23832.216821999991
 20
19929.234873000001
 30
0.0
 11
23832.216821999991
 21
19904.22563600001
 31
0.0
  0
LINE
  5
3F1F
  8
2-0
  6
CONTINUOUS
 62
     3
 10
23837.207187999978
 20
19929.234873000001
 30
0.0
 11
23832.216821999991
 21
19929.234873000001
 31
0.0
  0
LINE
  5
3F20
  8
2-0
  6
CONTINUOUS
 62
     3
 10
23837.207187999978
 20
19922.229357000011
 30
0.0
 11
23837.207187999978
 21
19929.234873000001
 31
0.0
  0
LINE
  5
3F21
  8
2-0
  6
CONTINUOUS
 62
     3
 10
23149.211635500011
 20
19934.22919900003
 30
0.0
 11
23793.02433399998
 21
19934.229199000009
 31
0.0
  0
LINE
  5
3F22
  8
2-0
  6
CONTINUOUS
 62
     3
 10
25198.50210949999
 20
19934.229199000009
 30
0.0
 11
24551.216584499991
 21
19934.229199000009
 31
0.0
  0
LINE
  5
3F23
  8
2-0
  6
CONTINUOUS
 62
     3
 10
24494.02433349999
 20
19934.229199000009
 30
0.0
 11
23850.212625
 21
19934.229199000009
 31
0.0
  0
LINE
  5
3F24
  8
2-0
  6
CONTINUOUS
 62
     3
 10
23136.210157500002
 20
19922.229357000011
 30
0.0
 11
23136.210157500002
 21
19929.234873000001
 31
0.0
  0
LINE
  5
3F25
  8
2-0
  6
CONTINUOUS
 62
     3
 10
23136.210157500002
 20
19929.234873000001
 30
0.0
 11
23131.209893499981
 21
19929.234873000001
 31
0.0
  0
LINE
  5
3F26
  8
2-0
  6
CONTINUOUS
 62
     3
 10
23131.209893499981
 20
19929.234873000001
 30
0.0
 11
23131.209893499981
 21
19904.22563600001
 31
0.0
  0
LINE
  5
3F27
  8
2-0
  6
CONTINUOUS
 62
     3
 10
23131.209893499981
 20
19904.22563600001
 30
0.0
 11
23149.211635500011
 21
19904.22563600001
 31
0.0
  0
LINE
  5
3F28
  8
2-0
  6
CONTINUOUS
 62
     3
 10
23149.211635500011
 20
19904.22563600001
 30
0.0
 11
23149.211635500011
 21
19934.229199000009
 31
0.0
  0
LINE
  5
3F29
  8
2-0
  6
CONTINUOUS
 62
     3
 10
23133.11221050001
 20
19904.22563600001
 30
0.0
 11
23139.116090499982
 21
19904.22563600001
 31
0.0
  0
LINE
  5
3F2A
  8
2-0
  6
CONTINUOUS
 62
     3
 10
23139.116090499982
 20
19904.22563600001
 30
0.0
 11
23139.116090499982
 21
19934.229199000009
 31
0.0
  0
LINE
  5
3F2B
  8
2-0
  6
CONTINUOUS
 62
     3
 10
23102.120868499991
 20
19934.229199000009
 30
0.0
 11
23139.116090499982
 21
19934.229199000009
 31
0.0
  0
LINE
  5
3F2C
  8
2-0
  6
CONTINUOUS
 62
     3
 10
23102.120868499991
 20
19904.22563600001
 30
0.0
 11
23102.120868499991
 21
19934.229199000009
 31
0.0
  0
LINE
  5
3F2D
  8
2-0
  6
CONTINUOUS
 62
     3
 10
23108.114850499991
 20
19904.22563600001
 30
0.0
 11
23102.120868499991
 21
19904.22563600001
 31
0.0
  0
LINE
  5
3F2E
  8
2-0
  6
CONTINUOUS
 62
     3
 10
23092.025323499998
 20
19904.22563600001
 30
0.0
 11
23092.025323499998
 21
19934.229199000009
 31
0.0
  0
LINE
  5
3F2F
  8
2-0
  6
CONTINUOUS
 62
     3
 10
23110.021126500011
 20
19904.22563600001
 30
0.0
 11
23092.025323499998
 21
19904.22563600001
 31
0.0
  0
LINE
  5
3F30
  8
2-0
  6
CONTINUOUS
 62
     3
 10
23110.021126500011
 20
19929.234873000001
 30
0.0
 11
23110.021126500011
 21
19904.22563600001
 31
0.0
  0
LINE
  5
3F31
  8
2-0
  6
CONTINUOUS
 62
     3
 10
23105.022842499999
 20
19929.234873000001
 30
0.0
 11
23110.021126500011
 21
19929.234873000001
 31
0.0
  0
LINE
  5
3F32
  8
2-0
  6
CONTINUOUS
 62
     3
 10
23105.022842499999
 20
19922.229357000011
 30
0.0
 11
23105.022842499999
 21
19929.234873000001
 31
0.0
  0
LINE
  5
3F33
  8
2-0
  6
CONTINUOUS
 62
     3
 10
22795.923721499981
 20
19934.229199000009
 30
0.0
 11
23092.025323499998
 21
19934.229199000009
 31
0.0
  0
LINE
  5
3F34
  8
2-0
  6
CONTINUOUS
 62
     3
 10
22631.690982500011
 20
19934.229199000009
 30
0.0
 11
21983.716584499991
 21
19934.229199000009
 31
0.0
  0
LINE
  5
3F35
  8
2-0
  6
CONTINUOUS
 62
     3
 10
25323.116763499991
 20
15836.870351
 30
0.0
 11
25323.116763499991
 21
15192.831493000011
 31
0.0
  0
LINE
  5
3F36
  8
2-0
  6
CONTINUOUS
 62
     3
 10
25323.116763499991
 20
15135.635283
 30
0.0
 11
25323.116763499991
 21
14488.768921000001
 31
0.0
  0
CIRCLE
  5
3F37
  8
2-0
  6
CONTINUOUS
 62
     4
 10
25280.618479500001
 20
21334.233818000012
 30
0.0
 40
200.00001
  0
TEXT
  5
3F38
  8
2-0
  6
CONTINUOUS
 62
     7
 10
25228.9866965
 20
21238.708189000012
 30
0.0
 40
160.0
  1
3
 72
     4
 11
25282.320029833329
 21
21318.708189000012
 31
0.0
  0
LINE
  5
3F39
  8
SUNPOU
  6
CONTINUOUS
 10
8920.6607044999946
 20
20114.226823000001
 30
0.0
 11
8920.6607044999946
 21
20911.19409077847
 31
0.0
  0
LINE
  5
3F3A
  8
SUNPOU
  6
CONTINUOUS
 10
8920.6588944999967
 20
14213.735599
 30
0.0
 11
8920.6588944999967
 21
13538.30948318962
 31
0.0
  0
LINE
  5
3F3B
  8
0-6
  6
CONTINUOUS
 62
     6
 10
11251.94979103191
 20
13413.729989999991
 30
0.0
 11
12051.95045103192
 21
13413.729989999991
 31
0.0
  0
LINE
  5
3F3C
  8
2-0
  6
CONTINUOUS
 62
     6
 10
23617.690974091682
 20
18885.3642779404
 30
0.0
 11
24642.723306091681
 21
18885.3642779404
 31
0.0
  0
LINE
  5
3F3D
  8
2-0
  6
CONTINUOUS
 62
     6
 10
25172.81705889578
 20
19350.14781564644
 30
0.0
 11
24642.723306091681
 21
18885.3642779404
 31
0.0
  0
TEXT
  5
3F3E
  8
2-0
  6
CONTINUOUS
 62
     7
 10
23697.689258091679
 20
18965.3685009404
 30
0.0
 40
160.0
  1
間柱（側）
 72
     4
 11
24119.022591425011
 21
19045.3685009404
 31
0.0
  0
LINE
  5
3F3F
  8
2-0
  6
CONTINUOUS
 62
     6
 10
25190.396272173279
 20
19330.098673675791
 30
0.0
 11
25293.119139499991
 21
19455.6367675
 31
0.0
  0
LINE
  5
3F40
  8
2-0
  6
CONTINUOUS
 62
     6
 10
25293.119139499991
 20
19455.6367675
 30
0.0
 11
25155.228868680941
 21
19370.201129997349
 31
0.0
  0
LINE
  5
3F41
  8
2-0
  6
CONTINUOUS
 62
     6
 10
25155.228868680941
 20
19370.201129997349
 30
0.0
 11
25190.396272173279
 21
19330.098673675791
 31
0.0
  0
LINE
  5
3F44
  8
WAKUSEN-01
 10
868.00000000000193
 20
22484.000000000011
 30
0.0
 11
32764.000000000011
 21
22484.000000000011
 31
0.0
  0
LINE
  5
3F47
  8
WAKUSEN-01
 10
20560.0
 20
2484.0
 30
0.0
 11
32764.0
 21
2484.0
 31
0.0
  0
LINE
  5
3F48
  8
WAKUSEN-02
 10
20560.0
 20
1655.9999999999991
 30
0.0
 11
26868.0
 21
1655.9999999999991
 31
0.0
  0
TEXT
  5
3F49
  8
WAKUMOJI-01
 10
20670.260259962761
 20
2125.9030093393221
 30
0.0
 40
240.0
  1
名　称
  7
WAKUMOJI
  0
TEXT
  5
3F4A
  8
WAKUMOJI-01
 10
20656.505485091919
 20
1319.12897497982
 30
0.0
 40
240.0
  1
機種名
  7
WAKUMOJI
  0
LINE
  5
3F4D
  8
YODOROGO
 10
29977.604341291921
 20
1995.7494964292871
 30
0.0
 11
29829.604341291921
 21
1995.7494964292871
 31
0.0
1001
AUTOCAD_POSTSCRIPT_FIGURE
1002
{
1000
PSFILL
1000
Grayscale
1000
Grayscale
1070
    25
1002
}
  0
LINE
  5
3F4E
  8
YODOROGO
 10
29829.604341291921
 20
1947.749496429288
 30
0.0
 11
29977.604341291921
 21
1947.749496429288
 31
0.0
1001
AUTOCAD_POSTSCRIPT_FIGURE
1002
{
1000
PSFILL
1000
Grayscale
1000
Grayscale
1070
    25
1002
}
  0
LINE
  5
3F4F
  8
YODOROGO
 10
29977.604341291921
 20
1907.7494964292871
 30
0.0
 11
29829.604341291921
 21
1907.7494964292871
 31
0.0
1001
AUTOCAD_POSTSCRIPT_FIGURE
1002
{
1000
PSFILL
1000
Grayscale
1000
Grayscale
1070
    25
1002
}
  0
LINE
  5
3F50
  8
YODOROGO
 10
29829.604341291921
 20
1859.749496429288
 30
0.0
 11
29977.604341291921
 21
1859.749496429288
 31
0.0
1001
AUTOCAD_POSTSCRIPT_FIGURE
1002
{
1000
PSFILL
1000
Grayscale
1000
Grayscale
1070
    25
1002
}
  0
LINE
  5
3F51
  8
YODOROGO
 10
29977.604341291921
 20
1819.7494964292871
 30
0.0
 11
29829.604341291921
 21
1819.7494964292871
 31
0.0
1001
AUTOCAD_POSTSCRIPT_FIGURE
1002
{
1000
PSFILL
1000
Grayscale
1000
Grayscale
1070
    25
1002
}
  0
LINE
  5
3F52
  8
YODOROGO
 10
29921.60434129191
 20
1707.749496429288
 30
0.0
 11
29977.604341291921
 21
1707.749496429288
 31
0.0
1001
AUTOCAD_POSTSCRIPT_FIGURE
1002
{
1000
PSFILL
1000
Grayscale
1000
Grayscale
1070
    25
1002
}
  0
LINE
  5
3F53
  8
YODOROGO
 10
29737.604341291921
 20
1427.749496429288
 30
0.0
 11
29937.604341291932
 21
1481.3393349155101
 31
0.0
  0
LINE
  5
3F54
  8
YODOROGO
 10
29949.60434129191
 20
1707.749496429288
 30
0.0
 11
29885.604341291921
 21
1707.749496429288
 31
0.0
  0
ARC
  5
3F55
  8
YODOROGO
 10
30254.34774982791
 20
1807.864609233261
 30
0.0
 40
381.88686420564721
 50
213.96111677667841
 51
264.47872074317792
  0
ARC
  5
3F56
  8
YODOROGO
 10
30254.347749827921
 20
1807.864609233302
 30
0.0
 40
381.8868642056816
 50
208.14114420486601
 51
212.9210361185994
  0
LINE
  5
3F57
  8
YODOROGO
 10
29771.409872985321
 20
1556.807661346234
 30
0.0
 11
29933.78413250855
 21
1600.3157130570869
 31
0.0
  0
LINE
  5
3F58
  8
YODOROGO
 10
29737.604341291921
 20
1427.749496429288
 30
0.0
 11
29937.604341291932
 21
1481.3393349155101
 31
0.0
  0
LINE
  5
3F59
  8
YODOROGO
 10
29949.60434129191
 20
1707.749496429288
 30
0.0
 11
29885.604341291921
 21
1707.749496429288
 31
0.0
  0
ARC
  5
3F5A
  8
YODOROGO
 10
30254.34774982791
 20
1807.864609233261
 30
0.0
 40
381.88686420564721
 50
213.96111677667841
 51
264.47872074317792
  0
LINE
  5
3F5B
  8
YODOROGO
 10
28793.60434129191
 20
1819.7494964292871
 30
0.0
 11
28433.60434129191
 21
1819.7494964292871
 31
0.0
  0
LINE
  5
3F5C
  8
YODOROGO
 10
28513.60434129191
 20
1427.749496429288
 30
0.0
 11
28793.60434129191
 21
1427.749496429288
 31
0.0
  0
LINE
  5
3F5D
  8
YODOROGO
 10
28729.604341291921
 20
1923.7494964292871
 30
0.0
 11
28497.60434129191
 21
1923.7494964292871
 31
0.0
  0
LINE
  5
3F5E
  8
YODOROGO
 10
28585.604341291921
 20
2027.749496429288
 30
0.0
 11
28657.604341291921
 21
2027.749496429288
 31
0.0
  0
LINE
  5
3F5F
  8
YODOROGO
 10
28433.60434129191
 20
1707.749496429288
 30
0.0
 11
28433.60434129191
 21
1507.749496429288
 31
0.0
  0
LINE
  5
3F60
  8
YODOROGO
 10
28497.60434129191
 20
1563.7494964292871
 30
0.0
 11
28497.60434129191
 21
1707.749496429288
 31
0.0
  0
LINE
  5
3F61
  8
YODOROGO
 10
28585.604341291921
 20
1747.74949642929
 30
0.0
 11
28585.604341291921
 21
1547.749496429288
 31
0.0
  0
LINE
  5
3F62
  8
YODOROGO
 10
27857.604341291921
 20
1683.749496429288
 30
0.0
 11
27777.604341291921
 21
1619.9724140445701
 31
0.0
  0
LINE
  5
3F63
  8
YODOROGO
 10
27937.604341291921
 20
1619.9724140445701
 30
0.0
 11
27857.604341291921
 21
1683.749496429288
 31
0.0
  0
LINE
  5
3F64
  8
YODOROGO
 10
27857.604341291921
 20
1707.749496429288
 30
0.0
 11
27937.604341291921
 21
1643.9724140445701
 31
0.0
  0
LINE
  5
3F65
  8
YODOROGO
 10
27777.604341291921
 20
1643.9724140445701
 30
0.0
 11
27857.604341291921
 21
1707.749496429288
 31
0.0
  0
LINE
  5
3F66
  8
YODOROGO
 10
28040.913204016892
 20
1659.749496429288
 30
0.0
 11
28040.913204016892
 21
1683.7494964292871
 31
0.0
  0
LINE
  5
3F67
  8
YODOROGO
 10
27977.604341291921
 20
1683.7494964292871
 30
0.0
 11
27977.604341291921
 21
1667.749496429285
 31
0.0
  0
LINE
  5
3F68
  8
YODOROGO
 10
28098.135520230931
 20
1707.749496429288
 30
0.0
 11
28098.135520230931
 21
1655.5036372746561
 31
0.0
1001
AUTOCAD_POSTSCRIPT_FIGURE
1002
{
1000
PSFILL
1000
Grayscale
1000
Grayscale
1070
   100
1002
}
  0
LINE
  5
3F69
  8
YODOROGO
 10
28082.135520230921
 20
1655.5036372746561
 30
0.0
 11
28082.135520230921
 21
1707.749496429288
 31
0.0
1001
AUTOCAD_POSTSCRIPT_FIGURE
1002
{
1000
PSFILL
1000
Grayscale
1000
Grayscale
1070
   100
1002
}
  0
LINE
  5
3F6A
  8
YODOROGO
 10
27809.604341291921
 20
1608.771904043258
 30
0.0
 11
27809.604341291921
 21
1632.771904043258
 31
0.0
  0
LINE
  5
3F6B
  8
YODOROGO
 10
27905.604341291921
 20
1608.771904043258
 30
0.0
 11
27809.604341291921
 21
1608.771904043258
 31
0.0
  0
LINE
  5
3F6C
  8
YODOROGO
 10
27905.604341291921
 20
1632.771904043258
 30
0.0
 11
27905.604341291921
 21
1608.771904043258
 31
0.0
  0
LINE
  5
3F6D
  8
YODOROGO
 10
27809.604341291921
 20
1632.771904043258
 30
0.0
 11
27905.604341291921
 21
1632.771904043258
 31
0.0
  0
LINE
  5
3F6E
  8
YODOROGO
 10
27824.509588915738
 20
1568.5028573704751
 30
0.0
 11
27785.604341291921
 21
1475.7494964292871
 31
0.0
1001
AUTOCAD_POSTSCRIPT_FIGURE
1002
{
1000
PSFILL
1000
Grayscale
1000
Grayscale
1070
   100
1002
}
  0
LINE
  5
3F6F
  8
YODOROGO
 10
27777.604341291921
 20
1568.5028573704751
 30
0.0
 11
27824.509588915738
 21
1568.5028573704751
 31
0.0
1001
AUTOCAD_POSTSCRIPT_FIGURE
1002
{
1000
PSFILL
1000
Grayscale
1000
Grayscale
1070
   100
1002
}
  0
LINE
  5
3F70
  8
YODOROGO
 10
27777.604341291921
 20
1588.5028573704751
 30
0.0
 11
27777.604341291921
 21
1568.5028573704751
 31
0.0
1001
AUTOCAD_POSTSCRIPT_FIGURE
1002
{
1000
PSFILL
1000
Grayscale
1000
Grayscale
1070
   100
1002
}
  0
LINE
  5
3F71
  8
YODOROGO
 10
27937.604341291921
 20
1588.5028573704751
 30
0.0
 11
27777.604341291921
 21
1588.5028573704751
 31
0.0
1001
AUTOCAD_POSTSCRIPT_FIGURE
1002
{
1000
PSFILL
1000
Grayscale
1000
Grayscale
1070
   100
1002
}
  0
LINE
  5
3F72
  8
YODOROGO
 10
27937.604341291921
 20
1568.5028573704751
 30
0.0
 11
27937.604341291921
 21
1588.5028573704751
 31
0.0
1001
AUTOCAD_POSTSCRIPT_FIGURE
1002
{
1000
PSFILL
1000
Grayscale
1000
Grayscale
1070
   100
1002
}
  0
LINE
  5
3F73
  8
YODOROGO
 10
27844.509588915738
 20
1568.5028573704751
 30
0.0
 11
27937.604341291921
 21
1568.5028573704751
 31
0.0
1001
AUTOCAD_POSTSCRIPT_FIGURE
1002
{
1000
PSFILL
1000
Grayscale
1000
Grayscale
1070
   100
1002
}
  0
LINE
  5
3F74
  8
YODOROGO
 10
27815.546718284771
 20
1495.7494964292871
 30
0.0
 11
27844.509588915738
 21
1568.5028573704751
 31
0.0
1001
AUTOCAD_POSTSCRIPT_FIGURE
1002
{
1000
PSFILL
1000
Grayscale
1000
Grayscale
1070
   100
1002
}
  0
LINE
  5
3F75
  8
YODOROGO
 10
27902.054790808648
 20
1495.7494964292871
 30
0.0
 11
27815.546718284771
 21
1495.7494964292871
 31
0.0
1001
AUTOCAD_POSTSCRIPT_FIGURE
1002
{
1000
PSFILL
1000
Grayscale
1000
Grayscale
1070
   100
1002
}
  0
LINE
  5
3F76
  8
YODOROGO
 10
27885.065004790951
 20
1536.2338106976929
 30
0.0
 11
27902.054790808648
 21
1495.7494964292871
 31
0.0
1001
AUTOCAD_POSTSCRIPT_FIGURE
1002
{
1000
PSFILL
1000
Grayscale
1000
Grayscale
1070
   100
1002
}
  0
LINE
  5
3F77
  8
YODOROGO
 10
27901.065004790951
 20
1536.2338106976929
 30
0.0
 11
27885.065004790951
 21
1536.2338106976929
 31
0.0
1001
AUTOCAD_POSTSCRIPT_FIGURE
1002
{
1000
PSFILL
1000
Grayscale
1000
Grayscale
1070
   100
1002
}
  0
LINE
  5
3F78
  8
YODOROGO
 10
27929.604341291921
 20
1475.7494964292871
 30
0.0
 11
27901.065004790951
 21
1536.2338106976929
 31
0.0
1001
AUTOCAD_POSTSCRIPT_FIGURE
1002
{
1000
PSFILL
1000
Grayscale
1000
Grayscale
1070
   100
1002
}
  0
LINE
  5
3F79
  8
YODOROGO
 10
27785.604341291921
 20
1475.7494964292871
 30
0.0
 11
27929.604341291921
 21
1475.7494964292871
 31
0.0
1001
AUTOCAD_POSTSCRIPT_FIGURE
1002
{
1000
PSFILL
1000
Grayscale
1000
Grayscale
1070
   100
1002
}
  0
LINE
  5
3F7A
  8
YODOROGO
 10
27777.604341291921
 20
1619.9724140445701
 30
0.0
 11
27777.604341291921
 21
1643.9724140445701
 31
0.0
  0
LINE
  5
3F7B
  8
YODOROGO
 10
27937.604341291921
 20
1643.9724140445701
 30
0.0
 11
27937.604341291921
 21
1619.9724140445701
 31
0.0
  0
ARC
  5
3F7C
  8
YODOROGO
 10
28225.940442146959
 20
1600.877765325326
 30
0.0
 40
175.9999999999998
 50
280.3644312771313
 51
3.5414836592180561
  0
ARC
  5
3F7D
  8
YODOROGO
 10
28235.756030759301
 20
1633.5978069619041
 30
0.0
 40
111.9999999999982
 50
281.24905825041549
 51
348.75094174958321
  0
LINE
  5
3F7E
  8
YODOROGO
 10
28257.604341291921
 20
1523.7494964292871
 30
0.0
 11
28257.604341291921
 21
1427.749496429288
 31
0.0
  0
LINE
  5
3F7F
  8
YODOROGO
 10
28020.088903736909
 20
1610.650565061914
 30
0.0
 11
28040.913204016892
 21
1659.749496429288
 31
0.0
  0
LINE
  5
3F80
  8
YODOROGO
 10
28041.604341291921
 20
1583.120489948401
 30
0.0
 11
28020.088903736909
 21
1610.650565061914
 31
0.0
  0
LINE
  5
3F81
  8
YODOROGO
 10
28041.604341291921
 20
1563.120489948398
 30
0.0
 11
28041.604341291921
 21
1583.120489948401
 31
0.0
  0
LINE
  5
3F82
  8
YODOROGO
 10
28017.604341291921
 20
1585.2370637495301
 30
0.0
 11
28041.604341291921
 21
1563.120489948398
 31
0.0
  0
LINE
  5
3F83
  8
YODOROGO
 10
28017.604341291921
 20
1475.7494964292871
 30
0.0
 11
28017.604341291921
 21
1585.2370637495301
 31
0.0
  0
LINE
  5
3F84
  8
YODOROGO
 10
28001.604341291921
 20
1475.7494964292871
 30
0.0
 11
28017.604341291921
 21
1475.7494964292871
 31
0.0
  0
LINE
  5
3F85
  8
YODOROGO
 10
28001.604341291921
 20
1580.0053496897469
 30
0.0
 11
28001.604341291921
 21
1475.7494964292871
 31
0.0
  0
LINE
  5
3F86
  8
YODOROGO
 10
27977.604341291921
 20
1532.7680790334291
 30
0.0
 11
28001.604341291921
 21
1580.0053496897469
 31
0.0
  0
LINE
  5
3F87
  8
YODOROGO
 10
27977.604341291921
 20
1556.76807903343
 30
0.0
 11
27977.604341291921
 21
1532.7680790334291
 31
0.0
  0
LINE
  5
3F88
  8
YODOROGO
 10
28025.828774291349
 20
1667.749496429285
 30
0.0
 11
27977.604341291921
 21
1556.76807903343
 31
0.0
  0
LINE
  5
3F89
  8
YODOROGO
 10
27977.604341291921
 20
1667.749496429285
 30
0.0
 11
28025.828774291349
 21
1667.749496429285
 31
0.0
  0
LINE
  5
3F8A
  8
YODOROGO
 10
28050.135520230899
 20
1655.5036372746561
 30
0.0
 11
28082.135520230921
 21
1655.5036372746561
 31
0.0
1001
AUTOCAD_POSTSCRIPT_FIGURE
1002
{
1000
PSFILL
1000
Grayscale
1000
Grayscale
1070
   100
1002
}
  0
LINE
  5
3F8B
  8
YODOROGO
 10
28050.135520230899
 20
1631.5036372746561
 30
0.0
 11
28050.135520230899
 21
1655.5036372746561
 31
0.0
1001
AUTOCAD_POSTSCRIPT_FIGURE
1002
{
1000
PSFILL
1000
Grayscale
1000
Grayscale
1070
   100
1002
}
  0
LINE
  5
3F8C
  8
YODOROGO
 10
28082.135520230921
 20
1631.5036372746561
 30
0.0
 11
28050.135520230899
 21
1631.5036372746561
 31
0.0
1001
AUTOCAD_POSTSCRIPT_FIGURE
1002
{
1000
PSFILL
1000
Grayscale
1000
Grayscale
1070
   100
1002
}
  0
LINE
  5
3F8D
  8
YODOROGO
 10
28082.135520230921
 20
1499.749496429288
 30
0.0
 11
28082.135520230921
 21
1631.5036372746561
 31
0.0
1001
AUTOCAD_POSTSCRIPT_FIGURE
1002
{
1000
PSFILL
1000
Grayscale
1000
Grayscale
1070
   100
1002
}
  0
LINE
  5
3F8E
  8
YODOROGO
 10
28050.135520230921
 20
1499.749496429288
 30
0.0
 11
28082.135520230921
 21
1499.749496429288
 31
0.0
1001
AUTOCAD_POSTSCRIPT_FIGURE
1002
{
1000
PSFILL
1000
Grayscale
1000
Grayscale
1070
   100
1002
}
  0
LINE
  5
3F8F
  8
YODOROGO
 10
28050.135520230921
 20
1475.7494964292871
 30
0.0
 11
28050.135520230921
 21
1499.749496429288
 31
0.0
1001
AUTOCAD_POSTSCRIPT_FIGURE
1002
{
1000
PSFILL
1000
Grayscale
1000
Grayscale
1070
   100
1002
}
  0
LINE
  5
3F90
  8
YODOROGO
 10
28137.604341291921
 20
1475.7494964292871
 30
0.0
 11
28050.135520230921
 21
1475.7494964292871
 31
0.0
1001
AUTOCAD_POSTSCRIPT_FIGURE
1002
{
1000
PSFILL
1000
Grayscale
1000
Grayscale
1070
   100
1002
}
  0
LINE
  5
3F91
  8
YODOROGO
 10
28137.604341291921
 20
1499.749496429288
 30
0.0
 11
28137.604341291921
 21
1475.7494964292871
 31
0.0
1001
AUTOCAD_POSTSCRIPT_FIGURE
1002
{
1000
PSFILL
1000
Grayscale
1000
Grayscale
1070
   100
1002
}
  0
LINE
  5
3F92
  8
YODOROGO
 10
28098.135520230931
 20
1499.749496429288
 30
0.0
 11
28137.604341291921
 21
1499.749496429288
 31
0.0
1001
AUTOCAD_POSTSCRIPT_FIGURE
1002
{
1000
PSFILL
1000
Grayscale
1000
Grayscale
1070
   100
1002
}
  0
LINE
  5
3F93
  8
YODOROGO
 10
28098.135520230931
 20
1631.5036372746561
 30
0.0
 11
28098.135520230931
 21
1499.749496429288
 31
0.0
1001
AUTOCAD_POSTSCRIPT_FIGURE
1002
{
1000
PSFILL
1000
Grayscale
1000
Grayscale
1070
   100
1002
}
  0
LINE
  5
3F94
  8
YODOROGO
 10
28137.604341291921
 20
1631.5036372746561
 30
0.0
 11
28098.135520230931
 21
1631.5036372746561
 31
0.0
1001
AUTOCAD_POSTSCRIPT_FIGURE
1002
{
1000
PSFILL
1000
Grayscale
1000
Grayscale
1070
   100
1002
}
  0
LINE
  5
3F95
  8
YODOROGO
 10
28137.604341291921
 20
1655.5036372746561
 30
0.0
 11
28137.604341291921
 21
1631.5036372746561
 31
0.0
1001
AUTOCAD_POSTSCRIPT_FIGURE
1002
{
1000
PSFILL
1000
Grayscale
1000
Grayscale
1070
   100
1002
}
  0
LINE
  5
3F96
  8
YODOROGO
 10
28098.135520230931
 20
1655.5036372746561
 30
0.0
 11
28137.604341291921
 21
1655.5036372746561
 31
0.0
1001
AUTOCAD_POSTSCRIPT_FIGURE
1002
{
1000
PSFILL
1000
Grayscale
1000
Grayscale
1070
   100
1002
}
  0
LINE
  5
3F97
  8
YODOROGO
 10
28401.60434129191
 20
1667.749496429288
 30
0.0
 11
28345.604341291921
 21
1667.749496429288
 31
0.0
  0
LINE
  5
3F98
  8
YODOROGO
 10
28401.60434129191
 20
1611.749496429288
 30
0.0
 11
28401.60434129191
 21
1667.749496429288
 31
0.0
  0
LINE
  5
3F99
  8
YODOROGO
 10
28345.604341291921
 20
1667.749496429288
 30
0.0
 11
28345.604341291921
 21
1611.749496429288
 31
0.0
  0
ARC
  5
3F9A
  8
YODOROGO
 10
28513.60434129191
 20
1507.749496429288
 30
0.0
 40
80.0
 50
180.0
 51
270.0
  0
ARC
  5
3F9B
  8
YODOROGO
 10
28537.604341291921
 20
1563.7494964292871
 30
0.0
 40
40.0
 50
180.0
 51
270.0
  0
LINE
  5
3F9C
  8
YODOROGO
 10
28561.604341291932
 20
1523.7494964292871
 30
0.0
 11
28537.604341291921
 21
1523.7494964292871
 31
0.0
  0
ARC
  5
3F9D
  8
YODOROGO
 10
28561.604341291932
 20
1547.749496429285
 30
0.0
 40
23.999999999996358
 50
270.0
 51
0.0000000000054281
  0
LINE
  5
3F9E
  8
YODOROGO
 10
27801.604341291921
 20
1890.786580793706
 30
0.0
 11
27777.604341291921
 21
1843.776747951672
 31
0.0
1001
AUTOCAD_POSTSCRIPT_FIGURE
1002
{
1000
PSFILL
1000
Grayscale
1000
Grayscale
1070
   100
1002
}
  0
LINE
  5
3F9F
  8
YODOROGO
 10
27801.604341291921
 20
1747.749496429286
 30
0.0
 11
27801.604341291921
 21
1890.786580793706
 31
0.0
1001
AUTOCAD_POSTSCRIPT_FIGURE
1002
{
1000
PSFILL
1000
Grayscale
1000
Grayscale
1070
   100
1002
}
  0
LINE
  5
3FA0
  8
YODOROGO
 10
27817.604341291921
 20
1747.749496429286
 30
0.0
 11
27801.604341291921
 21
1747.749496429286
 31
0.0
1001
AUTOCAD_POSTSCRIPT_FIGURE
1002
{
1000
PSFILL
1000
Grayscale
1000
Grayscale
1070
   100
1002
}
  0
LINE
  5
3FA1
  8
YODOROGO
 10
27817.604341291921
 20
1893.7713320852661
 30
0.0
 11
27817.604341291921
 21
1747.749496429286
 31
0.0
1001
AUTOCAD_POSTSCRIPT_FIGURE
1002
{
1000
PSFILL
1000
Grayscale
1000
Grayscale
1070
   100
1002
}
  0
LINE
  5
3FA2
  8
YODOROGO
 10
27841.604341291921
 20
1867.6547582841361
 30
0.0
 11
27817.604341291921
 21
1893.7713320852661
 31
0.0
1001
AUTOCAD_POSTSCRIPT_FIGURE
1002
{
1000
PSFILL
1000
Grayscale
1000
Grayscale
1070
   100
1002
}
  0
LINE
  5
3FA3
  8
YODOROGO
 10
27841.604341291921
 20
1883.6547582841361
 30
0.0
 11
27841.604341291921
 21
1867.6547582841361
 31
0.0
1001
AUTOCAD_POSTSCRIPT_FIGURE
1002
{
1000
PSFILL
1000
Grayscale
1000
Grayscale
1070
   100
1002
}
  0
LINE
  5
3FA4
  8
YODOROGO
 10
27817.604341291921
 20
1917.7713320852649
 30
0.0
 11
27841.604341291921
 21
1883.6547582841361
 31
0.0
1001
AUTOCAD_POSTSCRIPT_FIGURE
1002
{
1000
PSFILL
1000
Grayscale
1000
Grayscale
1070
   100
1002
}
  0
LINE
  5
3FA5
  8
YODOROGO
 10
27817.604341291921
 20
1939.749496429288
 30
0.0
 11
27817.604341291921
 21
1917.7713320852649
 31
0.0
1001
AUTOCAD_POSTSCRIPT_FIGURE
1002
{
1000
PSFILL
1000
Grayscale
1000
Grayscale
1070
   100
1002
}
  0
LINE
  5
3FA6
  8
YODOROGO
 10
27889.604341291921
 20
1939.749496429288
 30
0.0
 11
27817.604341291921
 21
1939.749496429288
 31
0.0
1001
AUTOCAD_POSTSCRIPT_FIGURE
1002
{
1000
PSFILL
1000
Grayscale
1000
Grayscale
1070
   100
1002
}
  0
LINE
  5
3FA7
  8
YODOROGO
 10
27889.604341291921
 20
1900.5683489363
 30
0.0
 11
27889.604341291921
 21
1939.749496429288
 31
0.0
1001
AUTOCAD_POSTSCRIPT_FIGURE
1002
{
1000
PSFILL
1000
Grayscale
1000
Grayscale
1070
   100
1002
}
  0
LINE
  5
3FA8
  8
YODOROGO
 10
27857.604341291921
 20
1900.5683489363
 30
0.0
 11
27889.604341291921
 21
1900.5683489363
 31
0.0
1001
AUTOCAD_POSTSCRIPT_FIGURE
1002
{
1000
PSFILL
1000
Grayscale
1000
Grayscale
1070
   100
1002
}
  0
LINE
  5
3FA9
  8
YODOROGO
 10
27857.604341291921
 20
1884.568348936298
 30
0.0
 11
27857.604341291921
 21
1900.5683489363
 31
0.0
1001
AUTOCAD_POSTSCRIPT_FIGURE
1002
{
1000
PSFILL
1000
Grayscale
1000
Grayscale
1070
   100
1002
}
  0
LINE
  5
3FAA
  8
YODOROGO
 10
27889.604341291921
 20
1884.568348936298
 30
0.0
 11
27857.604341291921
 21
1884.568348936298
 31
0.0
1001
AUTOCAD_POSTSCRIPT_FIGURE
1002
{
1000
PSFILL
1000
Grayscale
1000
Grayscale
1070
   100
1002
}
  0
LINE
  5
3FAB
  8
YODOROGO
 10
27889.604341291921
 20
1879.6191779644371
 30
0.0
 11
27889.604341291921
 21
1884.568348936298
 31
0.0
1001
AUTOCAD_POSTSCRIPT_FIGURE
1002
{
1000
PSFILL
1000
Grayscale
1000
Grayscale
1070
   100
1002
}
  0
LINE
  5
3FAC
  8
YODOROGO
 10
27849.604341291921
 20
1812.974981161417
 30
0.0
 11
27889.604341291921
 21
1879.6191779644371
 31
0.0
1001
AUTOCAD_POSTSCRIPT_FIGURE
1002
{
1000
PSFILL
1000
Grayscale
1000
Grayscale
1070
   100
1002
}
  0
LINE
  5
3FAD
  8
YODOROGO
 10
27849.604341291921
 20
1796.9749811614161
 30
0.0
 11
27849.604341291921
 21
1812.974981161417
 31
0.0
1001
AUTOCAD_POSTSCRIPT_FIGURE
1002
{
1000
PSFILL
1000
Grayscale
1000
Grayscale
1070
   100
1002
}
  0
LINE
  5
3FAE
  8
YODOROGO
 10
27889.604341291921
 20
1847.6191779644359
 30
0.0
 11
27849.604341291921
 21
1796.9749811614161
 31
0.0
1001
AUTOCAD_POSTSCRIPT_FIGURE
1002
{
1000
PSFILL
1000
Grayscale
1000
Grayscale
1070
   100
1002
}
  0
LINE
  5
3FAF
  8
YODOROGO
 10
27889.604341291921
 20
1747.749496429286
 30
0.0
 11
27889.604341291921
 21
1847.6191779644359
 31
0.0
1001
AUTOCAD_POSTSCRIPT_FIGURE
1002
{
1000
PSFILL
1000
Grayscale
1000
Grayscale
1070
   100
1002
}
  0
LINE
  5
3FB0
  8
YODOROGO
 10
27905.604341291921
 20
1747.749496429286
 30
0.0
 11
27889.604341291921
 21
1747.749496429286
 31
0.0
1001
AUTOCAD_POSTSCRIPT_FIGURE
1002
{
1000
PSFILL
1000
Grayscale
1000
Grayscale
1070
   100
1002
}
  0
LINE
  5
3FB1
  8
YODOROGO
 10
27905.604341291921
 20
1849.409012158806
 30
0.0
 11
27905.604341291921
 21
1747.749496429286
 31
0.0
1001
AUTOCAD_POSTSCRIPT_FIGURE
1002
{
1000
PSFILL
1000
Grayscale
1000
Grayscale
1070
   100
1002
}
  0
LINE
  5
3FB2
  8
YODOROGO
 10
27937.604341291921
 20
1796.9749811614161
 30
0.0
 11
27905.604341291921
 21
1849.409012158806
 31
0.0
1001
AUTOCAD_POSTSCRIPT_FIGURE
1002
{
1000
PSFILL
1000
Grayscale
1000
Grayscale
1070
   100
1002
}
  0
LINE
  5
3FB3
  8
YODOROGO
 10
27937.604341291921
 20
1812.974981161417
 30
0.0
 11
27937.604341291921
 21
1796.9749811614161
 31
0.0
1001
AUTOCAD_POSTSCRIPT_FIGURE
1002
{
1000
PSFILL
1000
Grayscale
1000
Grayscale
1070
   100
1002
}
  0
LINE
  5
3FB4
  8
YODOROGO
 10
27905.604341291921
 20
1881.4090121588081
 30
0.0
 11
27937.604341291921
 21
1812.974981161417
 31
0.0
1001
AUTOCAD_POSTSCRIPT_FIGURE
1002
{
1000
PSFILL
1000
Grayscale
1000
Grayscale
1070
   100
1002
}
  0
LINE
  5
3FB5
  8
YODOROGO
 10
27905.604341291921
 20
1884.5683489363
 30
0.0
 11
27905.604341291921
 21
1881.4090121588081
 31
0.0
1001
AUTOCAD_POSTSCRIPT_FIGURE
1002
{
1000
PSFILL
1000
Grayscale
1000
Grayscale
1070
   100
1002
}
  0
LINE
  5
3FB6
  8
YODOROGO
 10
27937.604341291921
 20
1884.568348936298
 30
0.0
 11
27905.604341291921
 21
1884.5683489363
 31
0.0
1001
AUTOCAD_POSTSCRIPT_FIGURE
1002
{
1000
PSFILL
1000
Grayscale
1000
Grayscale
1070
   100
1002
}
  0
LINE
  5
3FB7
  8
YODOROGO
 10
27937.604341291921
 20
1900.5683489363
 30
0.0
 11
27937.604341291921
 21
1884.568348936298
 31
0.0
1001
AUTOCAD_POSTSCRIPT_FIGURE
1002
{
1000
PSFILL
1000
Grayscale
1000
Grayscale
1070
   100
1002
}
  0
LINE
  5
3FB8
  8
YODOROGO
 10
27905.604341291921
 20
1900.5683489363
 30
0.0
 11
27937.604341291921
 21
1900.5683489363
 31
0.0
1001
AUTOCAD_POSTSCRIPT_FIGURE
1002
{
1000
PSFILL
1000
Grayscale
1000
Grayscale
1070
   100
1002
}
  0
LINE
  5
3FB9
  8
YODOROGO
 10
27905.604341291921
 20
1939.749496429288
 30
0.0
 11
27905.604341291921
 21
1900.5683489363
 31
0.0
1001
AUTOCAD_POSTSCRIPT_FIGURE
1002
{
1000
PSFILL
1000
Grayscale
1000
Grayscale
1070
   100
1002
}
  0
LINE
  5
3FBA
  8
YODOROGO
 10
27937.604341291921
 20
1939.749496429288
 30
0.0
 11
27905.604341291921
 21
1939.749496429288
 31
0.0
1001
AUTOCAD_POSTSCRIPT_FIGURE
1002
{
1000
PSFILL
1000
Grayscale
1000
Grayscale
1070
   100
1002
}
  0
LINE
  5
3FBB
  8
YODOROGO
 10
27937.604341291921
 20
1955.7494964292871
 30
0.0
 11
27937.604341291921
 21
1939.749496429288
 31
0.0
1001
AUTOCAD_POSTSCRIPT_FIGURE
1002
{
1000
PSFILL
1000
Grayscale
1000
Grayscale
1070
   100
1002
}
  0
LINE
  5
3FBC
  8
YODOROGO
 10
27905.604341291921
 20
1955.7494964292871
 30
0.0
 11
27937.604341291921
 21
1955.7494964292871
 31
0.0
1001
AUTOCAD_POSTSCRIPT_FIGURE
1002
{
1000
PSFILL
1000
Grayscale
1000
Grayscale
1070
   100
1002
}
  0
LINE
  5
3FBD
  8
YODOROGO
 10
27905.604341291921
 20
1979.749496429288
 30
0.0
 11
27905.604341291921
 21
1955.7494964292871
 31
0.0
1001
AUTOCAD_POSTSCRIPT_FIGURE
1002
{
1000
PSFILL
1000
Grayscale
1000
Grayscale
1070
   100
1002
}
  0
LINE
  5
3FBE
  8
YODOROGO
 10
27889.604341291921
 20
1979.749496429288
 30
0.0
 11
27905.604341291921
 21
1979.749496429288
 31
0.0
1001
AUTOCAD_POSTSCRIPT_FIGURE
1002
{
1000
PSFILL
1000
Grayscale
1000
Grayscale
1070
   100
1002
}
  0
LINE
  5
3FBF
  8
YODOROGO
 10
27889.604341291921
 20
1955.7494964292871
 30
0.0
 11
27889.604341291921
 21
1979.749496429288
 31
0.0
1001
AUTOCAD_POSTSCRIPT_FIGURE
1002
{
1000
PSFILL
1000
Grayscale
1000
Grayscale
1070
   100
1002
}
  0
LINE
  5
3FC0
  8
YODOROGO
 10
27865.604341291921
 20
1955.7494964292871
 30
0.0
 11
27889.604341291921
 21
1955.7494964292871
 31
0.0
1001
AUTOCAD_POSTSCRIPT_FIGURE
1002
{
1000
PSFILL
1000
Grayscale
1000
Grayscale
1070
   100
1002
}
  0
LINE
  5
3FC1
  8
YODOROGO
 10
27865.604341291921
 20
1979.749496429288
 30
0.0
 11
27865.604341291921
 21
1955.7494964292871
 31
0.0
1001
AUTOCAD_POSTSCRIPT_FIGURE
1002
{
1000
PSFILL
1000
Grayscale
1000
Grayscale
1070
   100
1002
}
  0
LINE
  5
3FC2
  8
YODOROGO
 10
27849.604341291921
 20
1979.749496429288
 30
0.0
 11
27865.604341291921
 21
1979.749496429288
 31
0.0
1001
AUTOCAD_POSTSCRIPT_FIGURE
1002
{
1000
PSFILL
1000
Grayscale
1000
Grayscale
1070
   100
1002
}
  0
LINE
  5
3FC3
  8
YODOROGO
 10
27849.604341291921
 20
1955.7494964292871
 30
0.0
 11
27849.604341291921
 21
1979.749496429288
 31
0.0
1001
AUTOCAD_POSTSCRIPT_FIGURE
1002
{
1000
PSFILL
1000
Grayscale
1000
Grayscale
1070
   100
1002
}
  0
LINE
  5
3FC4
  8
YODOROGO
 10
27817.604341291921
 20
1955.7494964292871
 30
0.0
 11
27849.604341291921
 21
1955.7494964292871
 31
0.0
1001
AUTOCAD_POSTSCRIPT_FIGURE
1002
{
1000
PSFILL
1000
Grayscale
1000
Grayscale
1070
   100
1002
}
  0
LINE
  5
3FC5
  8
YODOROGO
 10
27817.604341291921
 20
1979.749496429288
 30
0.0
 11
27817.604341291921
 21
1955.7494964292871
 31
0.0
1001
AUTOCAD_POSTSCRIPT_FIGURE
1002
{
1000
PSFILL
1000
Grayscale
1000
Grayscale
1070
   100
1002
}
  0
LINE
  5
3FC6
  8
YODOROGO
 10
27801.604341291921
 20
1979.749496429288
 30
0.0
 11
27817.604341291921
 21
1979.749496429288
 31
0.0
1001
AUTOCAD_POSTSCRIPT_FIGURE
1002
{
1000
PSFILL
1000
Grayscale
1000
Grayscale
1070
   100
1002
}
  0
LINE
  5
3FC7
  8
YODOROGO
 10
27801.604341291921
 20
1955.7494964292871
 30
0.0
 11
27801.604341291921
 21
1979.749496429288
 31
0.0
1001
AUTOCAD_POSTSCRIPT_FIGURE
1002
{
1000
PSFILL
1000
Grayscale
1000
Grayscale
1070
   100
1002
}
  0
LINE
  5
3FC8
  8
YODOROGO
 10
27777.604341291921
 20
1955.7494964292871
 30
0.0
 11
27801.604341291921
 21
1955.7494964292871
 31
0.0
1001
AUTOCAD_POSTSCRIPT_FIGURE
1002
{
1000
PSFILL
1000
Grayscale
1000
Grayscale
1070
   100
1002
}
  0
LINE
  5
3FC9
  8
YODOROGO
 10
27777.604341291921
 20
1939.749496429288
 30
0.0
 11
27777.604341291921
 21
1955.7494964292871
 31
0.0
1001
AUTOCAD_POSTSCRIPT_FIGURE
1002
{
1000
PSFILL
1000
Grayscale
1000
Grayscale
1070
   100
1002
}
  0
LINE
  5
3FCA
  8
YODOROGO
 10
27801.604341291921
 20
1939.749496429288
 30
0.0
 11
27777.604341291921
 21
1939.749496429288
 31
0.0
1001
AUTOCAD_POSTSCRIPT_FIGURE
1002
{
1000
PSFILL
1000
Grayscale
1000
Grayscale
1070
   100
1002
}
  0
LINE
  5
3FCB
  8
YODOROGO
 10
27801.604341291921
 20
1914.7865807937051
 30
0.0
 11
27801.604341291921
 21
1939.749496429288
 31
0.0
1001
AUTOCAD_POSTSCRIPT_FIGURE
1002
{
1000
PSFILL
1000
Grayscale
1000
Grayscale
1070
   100
1002
}
  0
LINE
  5
3FCC
  8
YODOROGO
 10
27777.604341291921
 20
1859.776747951671
 30
0.0
 11
27801.604341291921
 21
1914.7865807937051
 31
0.0
1001
AUTOCAD_POSTSCRIPT_FIGURE
1002
{
1000
PSFILL
1000
Grayscale
1000
Grayscale
1070
   100
1002
}
  0
LINE
  5
3FCD
  8
YODOROGO
 10
27777.604341291921
 20
1843.776747951672
 30
0.0
 11
27777.604341291921
 21
1859.776747951671
 31
0.0
1001
AUTOCAD_POSTSCRIPT_FIGURE
1002
{
1000
PSFILL
1000
Grayscale
1000
Grayscale
1070
   100
1002
}
  0
LINE
  5
3FCE
  8
YODOROGO
 10
28257.604341291921
 20
1867.7494964292871
 30
0.0
 11
28401.60434129191
 21
1824.877625640306
 31
0.0
1001
AUTOCAD_POSTSCRIPT_FIGURE
1002
{
1000
PSFILL
1000
Grayscale
1000
Grayscale
1070
   100
1002
}
  0
LINE
  5
3FCF
  8
YODOROGO
 10
28401.60434129191
 20
1752.877625640306
 30
0.0
 11
28257.604341291921
 21
1795.7494964292871
 31
0.0
1001
AUTOCAD_POSTSCRIPT_FIGURE
1002
{
1000
PSFILL
1000
Grayscale
1000
Grayscale
1070
   100
1002
}
  0
LINE
  5
3FD0
  8
YODOROGO
 10
28401.60434129191
 20
1984.877625640306
 30
0.0
 11
28257.604341291921
 21
2027.749496429288
 31
0.0
1001
AUTOCAD_POSTSCRIPT_FIGURE
1002
{
1000
PSFILL
1000
Grayscale
1000
Grayscale
1070
   100
1002
}
  0
LINE
  5
3FD1
  8
YODOROGO
 10
28257.604341291921
 20
1959.749496429288
 30
0.0
 11
28401.60434129191
 21
1916.8776256403071
 31
0.0
1001
AUTOCAD_POSTSCRIPT_FIGURE
1002
{
1000
PSFILL
1000
Grayscale
1000
Grayscale
1070
   100
1002
}
  0
LINE
  5
3FD2
  8
YODOROGO
 10
28257.604341291921
 20
1795.7494964292871
 30
0.0
 11
28257.604341291921
 21
1867.7494964292871
 31
0.0
1001
AUTOCAD_POSTSCRIPT_FIGURE
1002
{
1000
PSFILL
1000
Grayscale
1000
Grayscale
1070
   100
1002
}
  0
LINE
  5
3FD3
  8
YODOROGO
 10
28257.604341291921
 20
2027.749496429288
 30
0.0
 11
28257.604341291921
 21
1959.749496429288
 31
0.0
1001
AUTOCAD_POSTSCRIPT_FIGURE
1002
{
1000
PSFILL
1000
Grayscale
1000
Grayscale
1070
   100
1002
}
  0
LINE
  5
3FD4
  8
YODOROGO
 10
28080.236320206739
 20
1939.749496429288
 30
0.0
 11
28129.60434129191
 21
1747.749496429286
 31
0.0
1001
AUTOCAD_POSTSCRIPT_FIGURE
1002
{
1000
PSFILL
1000
Grayscale
1000
Grayscale
1070
   100
1002
}
  0
LINE
  5
3FD5
  8
YODOROGO
 10
27977.604341291921
 20
1939.749496429288
 30
0.0
 11
28080.236320206739
 21
1939.749496429288
 31
0.0
1001
AUTOCAD_POSTSCRIPT_FIGURE
1002
{
1000
PSFILL
1000
Grayscale
1000
Grayscale
1070
   100
1002
}
  0
LINE
  5
3FD6
  8
YODOROGO
 10
27977.604341291921
 20
1955.7494964292871
 30
0.0
 11
27977.604341291921
 21
1939.749496429288
 31
0.0
1001
AUTOCAD_POSTSCRIPT_FIGURE
1002
{
1000
PSFILL
1000
Grayscale
1000
Grayscale
1070
   100
1002
}
  0
LINE
  5
3FD7
  8
YODOROGO
 10
28076.60687851991
 20
1955.7494964292871
 30
0.0
 11
27977.604341291921
 21
1955.7494964292871
 31
0.0
1001
AUTOCAD_POSTSCRIPT_FIGURE
1002
{
1000
PSFILL
1000
Grayscale
1000
Grayscale
1070
   100
1002
}
  0
LINE
  5
3FD8
  8
YODOROGO
 10
28071.162715989711
 20
1979.749496429288
 30
0.0
 11
28076.60687851991
 21
1955.7494964292871
 31
0.0
1001
AUTOCAD_POSTSCRIPT_FIGURE
1002
{
1000
PSFILL
1000
Grayscale
1000
Grayscale
1070
   100
1002
}
  0
LINE
  5
3FD9
  8
YODOROGO
 10
28091.162715989711
 20
1979.749496429288
 30
0.0
 11
28071.162715989711
 21
1979.749496429288
 31
0.0
1001
AUTOCAD_POSTSCRIPT_FIGURE
1002
{
1000
PSFILL
1000
Grayscale
1000
Grayscale
1070
   100
1002
}
  0
LINE
  5
3FDA
  8
YODOROGO
 10
28095.806878519939
 20
1955.7494964292871
 30
0.0
 11
28091.162715989711
 21
1979.749496429288
 31
0.0
1001
AUTOCAD_POSTSCRIPT_FIGURE
1002
{
1000
PSFILL
1000
Grayscale
1000
Grayscale
1070
   100
1002
}
  0
LINE
  5
3FDB
  8
YODOROGO
 10
28121.604341291921
 20
1955.7494964292871
 30
0.0
 11
28095.806878519939
 21
1955.7494964292871
 31
0.0
1001
AUTOCAD_POSTSCRIPT_FIGURE
1002
{
1000
PSFILL
1000
Grayscale
1000
Grayscale
1070
   100
1002
}
  0
LINE
  5
3FDC
  8
YODOROGO
 10
28121.604341291921
 20
1979.749496429288
 30
0.0
 11
28121.604341291921
 21
1955.7494964292871
 31
0.0
1001
AUTOCAD_POSTSCRIPT_FIGURE
1002
{
1000
PSFILL
1000
Grayscale
1000
Grayscale
1070
   100
1002
}
  0
LINE
  5
3FDD
  8
YODOROGO
 10
28137.604341291921
 20
1979.749496429288
 30
0.0
 11
28121.604341291921
 21
1979.749496429288
 31
0.0
1001
AUTOCAD_POSTSCRIPT_FIGURE
1002
{
1000
PSFILL
1000
Grayscale
1000
Grayscale
1070
   100
1002
}
  0
LINE
  5
3FDE
  8
YODOROGO
 10
28137.604341291921
 20
1955.7494964292871
 30
0.0
 11
28137.604341291921
 21
1979.749496429288
 31
0.0
1001
AUTOCAD_POSTSCRIPT_FIGURE
1002
{
1000
PSFILL
1000
Grayscale
1000
Grayscale
1070
   100
1002
}
  0
LINE
  5
3FDF
  8
YODOROGO
 10
28137.604341291921
 20
1939.749496429288
 30
0.0
 11
28137.604341291921
 21
1955.7494964292871
 31
0.0
1001
AUTOCAD_POSTSCRIPT_FIGURE
1002
{
1000
PSFILL
1000
Grayscale
1000
Grayscale
1070
   100
1002
}
  0
LINE
  5
3FE0
  8
YODOROGO
 10
28098.902986873411
 20
1939.749496429288
 30
0.0
 11
28137.604341291921
 21
1939.749496429288
 31
0.0
1001
AUTOCAD_POSTSCRIPT_FIGURE
1002
{
1000
PSFILL
1000
Grayscale
1000
Grayscale
1070
   100
1002
}
  0
LINE
  5
3FE1
  8
YODOROGO
 10
28137.604341291921
 20
1747.749496429286
 30
0.0
 11
28098.902986873411
 21
1939.749496429288
 31
0.0
1001
AUTOCAD_POSTSCRIPT_FIGURE
1002
{
1000
PSFILL
1000
Grayscale
1000
Grayscale
1070
   100
1002
}
  0
LINE
  5
3FE2
  8
YODOROGO
 10
28129.60434129191
 20
1747.749496429286
 30
0.0
 11
28137.604341291921
 21
1747.749496429286
 31
0.0
1001
AUTOCAD_POSTSCRIPT_FIGURE
1002
{
1000
PSFILL
1000
Grayscale
1000
Grayscale
1070
   100
1002
}
  0
LINE
  5
3FE3
  8
YODOROGO
 10
28078.06921993379
 20
1775.7407762987939
 30
0.0
 11
27977.604341291921
 21
1747.749496429286
 31
0.0
  0
LINE
  5
3FE4
  8
YODOROGO
 10
28078.06921993379
 20
1798.6689795290731
 30
0.0
 11
28078.06921993379
 21
1775.7407762987939
 31
0.0
  0
LINE
  5
3FE5
  8
YODOROGO
 10
28033.83678061287
 20
1786.816933133767
 30
0.0
 11
28078.06921993379
 21
1798.6689795290731
 31
0.0
  0
LINE
  5
3FE6
  8
YODOROGO
 10
28033.83678061287
 20
1872.5683489362989
 30
0.0
 11
28033.83678061287
 21
1786.816933133767
 31
0.0
  0
LINE
  5
3FE7
  8
YODOROGO
 10
28078.06921993379
 20
1872.5683489362989
 30
0.0
 11
28033.83678061287
 21
1872.5683489362989
 31
0.0
  0
LINE
  5
3FE8
  8
YODOROGO
 10
28078.06921993379
 20
1892.568348936298
 30
0.0
 11
28078.06921993379
 21
1872.5683489362989
 31
0.0
  0
LINE
  5
3FE9
  8
YODOROGO
 10
27977.604341291921
 20
1892.568348936298
 30
0.0
 11
28078.06921993379
 21
1892.568348936298
 31
0.0
  0
LINE
  5
3FEA
  8
YODOROGO
 10
27977.604341291921
 20
1872.5683489362989
 30
0.0
 11
27977.604341291921
 21
1892.568348936298
 31
0.0
  0
LINE
  5
3FEB
  8
YODOROGO
 10
28021.836780612852
 20
1872.5683489362989
 30
0.0
 11
27977.604341291921
 21
1872.5683489362989
 31
0.0
  0
LINE
  5
3FEC
  8
YODOROGO
 10
28021.836780612852
 20
1784.673339594317
 30
0.0
 11
28021.836780612852
 21
1872.5683489362989
 31
0.0
  0
LINE
  5
3FED
  8
YODOROGO
 10
27977.604341291921
 20
1771.749496429286
 30
0.0
 11
28021.836780612852
 21
1784.673339594317
 31
0.0
  0
LINE
  5
3FEE
  8
YODOROGO
 10
27977.604341291921
 20
1747.749496429286
 30
0.0
 11
27977.604341291921
 21
1771.749496429286
 31
0.0
  0
LINE
  5
3FEF
  8
YODOROGO
 10
28001.604341291921
 20
1707.749496429288
 30
0.0
 11
28001.604341291921
 21
1683.7494964292871
 31
0.0
  0
LINE
  5
3FF0
  8
YODOROGO
 10
28017.604341291921
 20
1707.749496429288
 30
0.0
 11
28001.604341291921
 21
1707.749496429288
 31
0.0
  0
LINE
  5
3FF1
  8
YODOROGO
 10
28017.604341291921
 20
1683.7494964292871
 30
0.0
 11
28017.604341291921
 21
1707.749496429288
 31
0.0
  0
LINE
  5
3FF2
  8
YODOROGO
 10
28040.913204016892
 20
1683.7494964292871
 30
0.0
 11
28017.604341291921
 21
1683.7494964292871
 31
0.0
  0
LINE
  5
3FF3
  8
YODOROGO
 10
28001.604341291921
 20
1683.7494964292871
 30
0.0
 11
27977.604341291921
 21
1683.7494964292871
 31
0.0
  0
LINE
  5
3FF4
  8
YODOROGO
 10
28082.135520230921
 20
1707.749496429288
 30
0.0
 11
28098.135520230931
 21
1707.749496429288
 31
0.0
1001
AUTOCAD_POSTSCRIPT_FIGURE
1002
{
1000
PSFILL
1000
Grayscale
1000
Grayscale
1070
   100
1002
}
  0
LINE
  5
3FF5
  8
YODOROGO
 10
28401.60434129191
 20
1824.877625640306
 30
0.0
 11
28401.60434129191
 21
1752.877625640306
 31
0.0
1001
AUTOCAD_POSTSCRIPT_FIGURE
1002
{
1000
PSFILL
1000
Grayscale
1000
Grayscale
1070
   100
1002
}
  0
LINE
  5
3FF6
  8
YODOROGO
 10
28401.60434129191
 20
1916.8776256403071
 30
0.0
 11
28401.60434129191
 21
1984.877625640306
 31
0.0
1001
AUTOCAD_POSTSCRIPT_FIGURE
1002
{
1000
PSFILL
1000
Grayscale
1000
Grayscale
1070
   100
1002
}
  0
LINE
  5
3FF7
  8
YODOROGO
 10
28433.60434129191
 20
1819.7494964292871
 30
0.0
 11
28433.60434129191
 21
1747.74949642929
 31
0.0
  0
LINE
  5
3FF8
  8
YODOROGO
 10
28497.60434129191
 20
1707.749496429288
 30
0.0
 11
28433.60434129191
 21
1707.749496429288
 31
0.0
  0
LINE
  5
3FF9
  8
YODOROGO
 10
28433.60434129191
 20
1747.74949642929
 30
0.0
 11
28585.604341291921
 21
1747.74949642929
 31
0.0
  0
LINE
  5
3FFA
  8
YODOROGO
 10
28497.60434129191
 20
1867.7494964292871
 30
0.0
 11
28433.60434129191
 21
1867.7494964292871
 31
0.0
  0
LINE
  5
3FFB
  8
YODOROGO
 10
28497.60434129191
 20
1923.7494964292871
 30
0.0
 11
28497.60434129191
 21
1867.7494964292871
 31
0.0
  0
LINE
  5
3FFC
  8
YODOROGO
 10
28585.604341291921
 20
1987.7494964292871
 30
0.0
 11
28585.604341291921
 21
2027.749496429288
 31
0.0
  0
LINE
  5
3FFD
  8
YODOROGO
 10
28433.60434129191
 20
1987.7494964292871
 30
0.0
 11
28585.604341291921
 21
1987.7494964292871
 31
0.0
  0
LINE
  5
3FFE
  8
YODOROGO
 10
28433.60434129191
 20
1867.7494964292871
 30
0.0
 11
28433.60434129191
 21
1987.7494964292871
 31
0.0
  0
LINE
  5
3FFF
  8
YODOROGO
 10
29001.60434129191
 20
2027.749496429288
 30
0.0
 11
29001.60434129191
 21
1619.749496429288
 31
0.0
  0
LINE
  5
4000
  8
YODOROGO
 10
29073.604341291921
 20
1579.749496429288
 30
0.0
 11
29073.604341291921
 21
2027.749496429288
 31
0.0
  0
LINE
  5
4001
  8
YODOROGO
 10
29261.604341291921
 20
1491.749496429286
 30
0.0
 11
29261.604341291921
 21
2007.749496429288
 31
0.0
  0
LINE
  5
4002
  8
YODOROGO
 10
29197.604341291921
 20
2007.749496429288
 30
0.0
 11
29197.604341291921
 21
1491.749496429286
 31
0.0
  0
LINE
  5
4003
  8
YODOROGO
 10
29385.604341291921
 20
2027.749496429288
 30
0.0
 11
29385.604341291921
 21
1427.749496429288
 31
0.0
  0
LINE
  5
4004
  8
YODOROGO
 10
29457.604341291921
 20
1427.749496429288
 30
0.0
 11
29457.604341291921
 21
2027.749496429288
 31
0.0
  0
LINE
  5
4005
  8
YODOROGO
 10
28657.604341291921
 20
1667.749496429288
 30
0.0
 11
28657.604341291921
 21
1747.74949642929
 31
0.0
  0
LINE
  5
4006
  8
YODOROGO
 10
29885.604341291921
 20
1707.749496429288
 30
0.0
 11
29885.604341291921
 21
1667.749496429288
 31
0.0
  0
LINE
  5
4007
  8
YODOROGO
 10
29885.604341291921
 20
1707.749496429288
 30
0.0
 11
29885.604341291921
 21
1667.749496429288
 31
0.0
  0
ARC
  5
4008
  8
YODOROGO
 10
28906.911576186842
 20
1618.217864442272
 30
0.0
 40
94.705151178741644
 50
274.05244162907098
 51
0.9266642149310712
  0
ARC
  5
4009
  8
YODOROGO
 10
28909.186170719819
 20
1592.61072861044
 30
0.0
 40
164.92042356085511
 50
271.5351210653775
 51
355.52727750585052
  0
LINE
  5
400A
  8
YODOROGO
 10
28913.604341291921
 20
1523.7494964292871
 30
0.0
 11
28913.604341291921
 21
1427.749496429288
 31
0.0
  0
LINE
  5
400B
  8
YODOROGO
 10
28793.60434129191
 20
1667.749496429288
 30
0.0
 11
28657.604341291921
 21
1667.749496429288
 31
0.0
  0
LINE
  5
400C
  8
YODOROGO
 10
28793.60434129191
 20
1603.7494964292871
 30
0.0
 11
28793.60434129191
 21
1667.749496429288
 31
0.0
  0
LINE
  5
400D
  8
YODOROGO
 10
28657.604341291921
 20
1603.7494964292871
 30
0.0
 11
28793.60434129191
 21
1603.7494964292871
 31
0.0
  0
LINE
  5
400E
  8
YODOROGO
 10
28657.604341291921
 20
1523.7494964292871
 30
0.0
 11
28657.604341291921
 21
1603.7494964292871
 31
0.0
  0
LINE
  5
400F
  8
YODOROGO
 10
28793.60434129191
 20
1523.7494964292871
 30
0.0
 11
28657.604341291921
 21
1523.7494964292871
 31
0.0
  0
LINE
  5
4010
  8
YODOROGO
 10
28793.60434129191
 20
1427.749496429288
 30
0.0
 11
28793.60434129191
 21
1523.7494964292871
 31
0.0
  0
LINE
  5
4011
  8
YODOROGO
 10
29197.604341291921
 20
1491.749496429286
 30
0.0
 11
29261.604341291921
 21
1491.749496429286
 31
0.0
  0
LINE
  5
4012
  8
YODOROGO
 10
29385.604341291921
 20
1427.749496429288
 30
0.0
 11
29457.604341291921
 21
1427.749496429288
 31
0.0
  0
LINE
  5
4013
  8
YODOROGO
 10
29737.604341291921
 20
1528.4414521705639
 30
0.0
 11
29737.604341291921
 21
1427.749496429288
 31
0.0
  0
LINE
  5
4014
  8
YODOROGO
 10
29617.604341291921
 20
1427.749496429288
 30
0.0
 11
29737.604341291921
 21
1528.4414521705639
 31
0.0
  0
LINE
  5
4015
  8
YODOROGO
 10
29617.604341291921
 20
1547.749496429288
 30
0.0
 11
29617.604341291921
 21
1427.749496429288
 31
0.0
  0
LINE
  5
4016
  8
YODOROGO
 10
29712.94462869945
 20
1627.749496429288
 30
0.0
 11
29617.604341291921
 21
1547.749496429288
 31
0.0
  0
LINE
  5
4017
  8
YODOROGO
 10
29617.604341291921
 20
1627.749496429288
 30
0.0
 11
29712.94462869945
 21
1627.749496429288
 31
0.0
  0
LINE
  5
4018
  8
YODOROGO
 10
29617.604341291921
 20
1667.749496429288
 30
0.0
 11
29617.604341291921
 21
1627.749496429288
 31
0.0
  0
LINE
  5
4019
  8
YODOROGO
 10
29885.604341291921
 20
1667.749496429288
 30
0.0
 11
29617.604341291921
 21
1667.749496429288
 31
0.0
  0
LINE
  5
401A
  8
YODOROGO
 10
29917.604341291921
 20
1627.749496429288
 30
0.0
 11
29777.604341291921
 21
1627.749496429288
 31
0.0
  0
LINE
  5
401B
  8
YODOROGO
 10
29777.604341291921
 20
1562.0054374176559
 30
0.0
 11
29771.409872985321
 21
1556.807661346234
 31
0.0
  0
LINE
  5
401C
  8
YODOROGO
 10
29777.604341291921
 20
1627.749496429288
 30
0.0
 11
29777.604341291921
 21
1562.0054374176559
 31
0.0
  0
LINE
  5
401D
  8
YODOROGO
 10
29737.604341291921
 20
1528.4414521705639
 30
0.0
 11
29737.604341291921
 21
1427.749496429288
 31
0.0
  0
LINE
  5
401E
  8
YODOROGO
 10
29617.604341291921
 20
1427.749496429288
 30
0.0
 11
29737.604341291921
 21
1528.4414521705639
 31
0.0
  0
LINE
  5
401F
  8
YODOROGO
 10
29617.604341291921
 20
1547.749496429288
 30
0.0
 11
29617.604341291921
 21
1427.749496429288
 31
0.0
  0
LINE
  5
4020
  8
YODOROGO
 10
29712.94462869945
 20
1627.749496429288
 30
0.0
 11
29617.604341291921
 21
1547.749496429288
 31
0.0
  0
LINE
  5
4021
  8
YODOROGO
 10
29617.604341291921
 20
1627.749496429288
 30
0.0
 11
29712.94462869945
 21
1627.749496429288
 31
0.0
  0
LINE
  5
4022
  8
YODOROGO
 10
29617.604341291921
 20
1667.749496429288
 30
0.0
 11
29617.604341291921
 21
1627.749496429288
 31
0.0
  0
LINE
  5
4023
  8
YODOROGO
 10
29885.604341291921
 20
1667.749496429288
 30
0.0
 11
29617.604341291921
 21
1667.749496429288
 31
0.0
  0
LINE
  5
4024
  8
YODOROGO
 10
28793.60434129191
 20
1747.74949642929
 30
0.0
 11
28793.60434129191
 21
1819.7494964292871
 31
0.0
  0
LINE
  5
4025
  8
YODOROGO
 10
28657.604341291921
 20
1747.74949642929
 30
0.0
 11
28793.60434129191
 21
1747.74949642929
 31
0.0
  0
LINE
  5
4026
  8
YODOROGO
 10
28729.604341291921
 20
1867.7494964292871
 30
0.0
 11
28729.604341291921
 21
1923.7494964292871
 31
0.0
  0
LINE
  5
4027
  8
YODOROGO
 10
28793.60434129191
 20
1867.7494964292871
 30
0.0
 11
28729.604341291921
 21
1867.7494964292871
 31
0.0
  0
LINE
  5
4028
  8
YODOROGO
 10
28793.60434129191
 20
1947.749496429288
 30
0.0
 11
28793.60434129191
 21
1867.7494964292871
 31
0.0
  0
ARC
  5
4029
  8
YODOROGO
 10
28753.60434129191
 20
1947.749496429288
 30
0.0
 40
40.0
 50
0.0
 51
90.0
  0
LINE
  5
402A
  8
YODOROGO
 10
28657.604341291921
 20
1987.7494964292871
 30
0.0
 11
28753.60434129191
 21
1987.7494964292871
 31
0.0
  0
LINE
  5
402B
  8
YODOROGO
 10
28657.604341291921
 20
2027.749496429288
 30
0.0
 11
28657.604341291921
 21
1987.7494964292871
 31
0.0
  0
LINE
  5
402C
  8
YODOROGO
 10
29073.604341291921
 20
2027.749496429288
 30
0.0
 11
29001.60434129191
 21
2027.749496429288
 31
0.0
  0
LINE
  5
402D
  8
YODOROGO
 10
29261.604341291921
 20
2007.749496429288
 30
0.0
 11
29197.604341291921
 21
2007.749496429288
 31
0.0
  0
LINE
  5
402E
  8
YODOROGO
 10
29457.604341291921
 20
2027.749496429288
 30
0.0
 11
29385.604341291921
 21
2027.749496429288
 31
0.0
  0
LINE
  5
402F
  8
YODOROGO
 10
29673.604341291921
 20
1707.749496429288
 30
0.0
 11
29673.604341291921
 21
1771.7494964292871
 31
0.0
1001
AUTOCAD_POSTSCRIPT_FIGURE
1002
{
1000
PSFILL
1000
Grayscale
1000
Grayscale
1070
    25
1002
}
  0
LINE
  5
4030
  8
YODOROGO
 10
29617.604341291921
 20
1707.749496429288
 30
0.0
 11
29673.604341291921
 21
1707.749496429288
 31
0.0
1001
AUTOCAD_POSTSCRIPT_FIGURE
1002
{
1000
PSFILL
1000
Grayscale
1000
Grayscale
1070
    25
1002
}
  0
LINE
  5
4031
  8
YODOROGO
 10
29617.604341291921
 20
1819.7494964292871
 30
0.0
 11
29617.604341291921
 21
1707.749496429288
 31
0.0
1001
AUTOCAD_POSTSCRIPT_FIGURE
1002
{
1000
PSFILL
1000
Grayscale
1000
Grayscale
1070
    25
1002
}
  0
LINE
  5
4032
  8
YODOROGO
 10
29765.604341291921
 20
1819.7494964292871
 30
0.0
 11
29617.604341291921
 21
1819.7494964292871
 31
0.0
1001
AUTOCAD_POSTSCRIPT_FIGURE
1002
{
1000
PSFILL
1000
Grayscale
1000
Grayscale
1070
    25
1002
}
  0
LINE
  5
4033
  8
YODOROGO
 10
29765.604341291921
 20
1859.749496429288
 30
0.0
 11
29765.604341291921
 21
1819.7494964292871
 31
0.0
1001
AUTOCAD_POSTSCRIPT_FIGURE
1002
{
1000
PSFILL
1000
Grayscale
1000
Grayscale
1070
    25
1002
}
  0
LINE
  5
4034
  8
YODOROGO
 10
29617.604341291921
 20
1859.749496429288
 30
0.0
 11
29765.604341291921
 21
1859.749496429288
 31
0.0
1001
AUTOCAD_POSTSCRIPT_FIGURE
1002
{
1000
PSFILL
1000
Grayscale
1000
Grayscale
1070
    25
1002
}
  0
LINE
  5
4035
  8
YODOROGO
 10
29617.604341291921
 20
1907.7494964292871
 30
0.0
 11
29617.604341291921
 21
1859.749496429288
 31
0.0
1001
AUTOCAD_POSTSCRIPT_FIGURE
1002
{
1000
PSFILL
1000
Grayscale
1000
Grayscale
1070
    25
1002
}
  0
LINE
  5
4036
  8
YODOROGO
 10
29765.604341291921
 20
1907.7494964292871
 30
0.0
 11
29617.604341291921
 21
1907.7494964292871
 31
0.0
1001
AUTOCAD_POSTSCRIPT_FIGURE
1002
{
1000
PSFILL
1000
Grayscale
1000
Grayscale
1070
    25
1002
}
  0
LINE
  5
4037
  8
YODOROGO
 10
29765.604341291921
 20
1947.749496429288
 30
0.0
 11
29765.604341291921
 21
1907.7494964292871
 31
0.0
1001
AUTOCAD_POSTSCRIPT_FIGURE
1002
{
1000
PSFILL
1000
Grayscale
1000
Grayscale
1070
    25
1002
}
  0
LINE
  5
4038
  8
YODOROGO
 10
29617.604341291921
 20
1947.749496429288
 30
0.0
 11
29765.604341291921
 21
1947.749496429288
 31
0.0
1001
AUTOCAD_POSTSCRIPT_FIGURE
1002
{
1000
PSFILL
1000
Grayscale
1000
Grayscale
1070
    25
1002
}
  0
LINE
  5
4039
  8
YODOROGO
 10
29617.604341291921
 20
2027.749496429288
 30
0.0
 11
29617.604341291921
 21
1947.749496429288
 31
0.0
1001
AUTOCAD_POSTSCRIPT_FIGURE
1002
{
1000
PSFILL
1000
Grayscale
1000
Grayscale
1070
    25
1002
}
  0
LINE
  5
403A
  8
YODOROGO
 10
29665.604341291921
 20
2027.749496429288
 30
0.0
 11
29617.604341291921
 21
2027.749496429288
 31
0.0
1001
AUTOCAD_POSTSCRIPT_FIGURE
1002
{
1000
PSFILL
1000
Grayscale
1000
Grayscale
1070
    25
1002
}
  0
LINE
  5
403B
  8
YODOROGO
 10
29665.604341291921
 20
1995.7494964292871
 30
0.0
 11
29665.604341291921
 21
2027.749496429288
 31
0.0
1001
AUTOCAD_POSTSCRIPT_FIGURE
1002
{
1000
PSFILL
1000
Grayscale
1000
Grayscale
1070
    25
1002
}
  0
LINE
  5
403C
  8
YODOROGO
 10
29765.604341291921
 20
1995.7494964292871
 30
0.0
 11
29665.604341291921
 21
1995.7494964292871
 31
0.0
1001
AUTOCAD_POSTSCRIPT_FIGURE
1002
{
1000
PSFILL
1000
Grayscale
1000
Grayscale
1070
    25
1002
}
  0
LINE
  5
403D
  8
YODOROGO
 10
29765.604341291921
 20
2027.749496429288
 30
0.0
 11
29765.604341291921
 21
1995.7494964292871
 31
0.0
1001
AUTOCAD_POSTSCRIPT_FIGURE
1002
{
1000
PSFILL
1000
Grayscale
1000
Grayscale
1070
    25
1002
}
  0
LINE
  5
403E
  8
YODOROGO
 10
29829.604341291921
 20
2027.749496429288
 30
0.0
 11
29765.604341291921
 21
2027.749496429288
 31
0.0
1001
AUTOCAD_POSTSCRIPT_FIGURE
1002
{
1000
PSFILL
1000
Grayscale
1000
Grayscale
1070
    25
1002
}
  0
LINE
  5
403F
  8
YODOROGO
 10
29829.604341291921
 20
1995.7494964292871
 30
0.0
 11
29829.604341291921
 21
2027.749496429288
 31
0.0
1001
AUTOCAD_POSTSCRIPT_FIGURE
1002
{
1000
PSFILL
1000
Grayscale
1000
Grayscale
1070
    25
1002
}
  0
LINE
  5
4040
  8
YODOROGO
 10
29829.604341291921
 20
1907.7494964292871
 30
0.0
 11
29829.604341291921
 21
1947.749496429288
 31
0.0
1001
AUTOCAD_POSTSCRIPT_FIGURE
1002
{
1000
PSFILL
1000
Grayscale
1000
Grayscale
1070
    25
1002
}
  0
LINE
  5
4041
  8
YODOROGO
 10
29829.604341291921
 20
1819.7494964292871
 30
0.0
 11
29829.604341291921
 21
1859.749496429288
 31
0.0
1001
AUTOCAD_POSTSCRIPT_FIGURE
1002
{
1000
PSFILL
1000
Grayscale
1000
Grayscale
1070
    25
1002
}
  0
LINE
  5
4042
  8
YODOROGO
 10
29921.60434129191
 20
1771.7494964292871
 30
0.0
 11
29921.60434129191
 21
1707.749496429288
 31
0.0
1001
AUTOCAD_POSTSCRIPT_FIGURE
1002
{
1000
PSFILL
1000
Grayscale
1000
Grayscale
1070
    25
1002
}
  0
LINE
  5
4043
  8
YODOROGO
 10
29829.604341291921
 20
1771.7494964292871
 30
0.0
 11
29921.60434129191
 21
1771.7494964292871
 31
0.0
1001
AUTOCAD_POSTSCRIPT_FIGURE
1002
{
1000
PSFILL
1000
Grayscale
1000
Grayscale
1070
    25
1002
}
  0
LINE
  5
4044
  8
YODOROGO
 10
29829.604341291921
 20
1707.749496429288
 30
0.0
 11
29829.604341291921
 21
1771.7494964292871
 31
0.0
1001
AUTOCAD_POSTSCRIPT_FIGURE
1002
{
1000
PSFILL
1000
Grayscale
1000
Grayscale
1070
    25
1002
}
  0
LINE
  5
4045
  8
YODOROGO
 10
29765.604341291921
 20
1707.749496429288
 30
0.0
 11
29829.604341291921
 21
1707.749496429288
 31
0.0
1001
AUTOCAD_POSTSCRIPT_FIGURE
1002
{
1000
PSFILL
1000
Grayscale
1000
Grayscale
1070
    25
1002
}
  0
LINE
  5
4046
  8
YODOROGO
 10
29765.604341291921
 20
1771.7494964292871
 30
0.0
 11
29765.604341291921
 21
1707.749496429288
 31
0.0
1001
AUTOCAD_POSTSCRIPT_FIGURE
1002
{
1000
PSFILL
1000
Grayscale
1000
Grayscale
1070
    25
1002
}
  0
LINE
  5
4047
  8
YODOROGO
 10
29673.604341291921
 20
1771.7494964292871
 30
0.0
 11
29765.604341291921
 21
1771.7494964292871
 31
0.0
1001
AUTOCAD_POSTSCRIPT_FIGURE
1002
{
1000
PSFILL
1000
Grayscale
1000
Grayscale
1070
    25
1002
}
  0
ARC
  5
4048
  8
YODOROGO
 10
31059.517893357912
 20
1602.6807375155761
 30
0.0
 40
178.22128111072141
 50
281.02627495425338
 51
357.77113575573799
  0
LINE
  5
4049
  8
YODOROGO
 10
31413.604341291921
 20
1907.7494964292871
 30
0.0
 11
31165.604341291921
 21
1907.7494964292871
 31
0.0
  0
LINE
  5
404A
  8
YODOROGO
 10
31413.604341291921
 20
2027.749496429288
 30
0.0
 11
31165.604341291921
 21
2027.749496429288
 31
0.0
  0
LINE
  5
404B
  8
YODOROGO
 10
31165.604341291921
 20
1963.749496429286
 30
0.0
 11
31413.604341291921
 21
1963.749496429286
 31
0.0
  0
LINE
  5
404C
  8
YODOROGO
 10
30791.604341291921
 20
1563.7494964292871
 30
0.0
 11
30791.604341291921
 21
1755.7494964292871
 31
0.0
  0
LINE
  5
404D
  8
YODOROGO
 10
30763.604341291921
 20
1691.749496429288
 30
0.0
 11
30763.604341291921
 21
1563.7494964292871
 31
0.0
  0
LINE
  5
404E
  8
YODOROGO
 10
30723.604341291921
 20
1491.749496429288
 30
0.0
 11
30723.604341291921
 21
1691.749496429288
 31
0.0
  0
LINE
  5
404F
  8
YODOROGO
 10
30899.604341291932
 20
1691.749496429288
 30
0.0
 11
30899.604341291932
 21
1491.749496429288
 31
0.0
  0
LINE
  5
4050
  8
YODOROGO
 10
30859.604341291932
 20
1563.7494964292871
 30
0.0
 11
30859.604341291932
 21
1691.749496429288
 31
0.0
  0
LINE
  5
4051
  8
YODOROGO
 10
30831.604341291921
 20
1755.7494964292871
 30
0.0
 11
30831.604341291921
 21
1563.7494964292871
 31
0.0
  0
LINE
  5
4052
  8
YODOROGO
 10
30973.604341291921
 20
2027.749496429288
 30
0.0
 11
30973.604341291921
 21
1467.749496429288
 31
0.0
  0
LINE
  5
4053
  8
YODOROGO
 10
30645.604341291921
 20
1427.749496429288
 30
0.0
 11
30645.604341291921
 21
2027.749496429288
 31
0.0
  0
LINE
  5
4054
  8
YODOROGO
 10
30697.604341291932
 20
1963.749496429286
 30
0.0
 11
30697.604341291932
 21
1427.749496429288
 31
0.0
  0
LINE
  5
4055
  8
YODOROGO
 10
30925.604341291921
 20
1547.749496429288
 30
0.0
 11
30925.604341291921
 21
1963.749496429286
 31
0.0
  0
LINE
  5
4056
  8
YODOROGO
 10
30381.604341291932
 20
1627.749496429288
 30
0.0
 11
30381.604341291932
 21
1679.749496429288
 31
0.0
  0
LINE
  5
4057
  8
YODOROGO
 10
30617.604341291921
 20
1679.749496429288
 30
0.0
 11
30617.604341291921
 21
1627.749496429288
 31
0.0
  0
LINE
  5
4058
  8
YODOROGO
 10
31165.604341291921
 20
1907.7494964292871
 30
0.0
 11
31165.604341291921
 21
1635.7494964292871
 31
0.0
  0
LINE
  5
4059
  8
YODOROGO
 10
29949.60434129191
 20
1667.749496429288
 30
0.0
 11
29949.60434129191
 21
1707.749496429288
 31
0.0
  0
LINE
  5
405A
  8
YODOROGO
 10
29949.60434129191
 20
1667.749496429288
 30
0.0
 11
29949.60434129191
 21
1707.749496429288
 31
0.0
  0
ARC
  5
405B
  8
YODOROGO
 10
30537.604341291921
 20
1507.749496429288
 30
0.0
 40
80.0
 50
270.0
 51
0.0
  0
LINE
  5
405C
  8
YODOROGO
 10
30569.604341291921
 20
1599.7494964292871
 30
0.0
 11
30617.604341291921
 21
1599.7494964292871
 31
0.0
  0
LINE
  5
405D
  8
YODOROGO
 10
30617.604341291921
 20
1627.749496429288
 30
0.0
 11
30529.604341291939
 21
1627.749496429288
 31
0.0
  0
LINE
  5
405E
  8
YODOROGO
 10
30217.604341291921
 20
1667.749496429288
 30
0.0
 11
29949.60434129191
 21
1667.749496429288
 31
0.0
  0
LINE
  5
405F
  8
YODOROGO
 10
30217.604341291921
 20
1627.749496429288
 30
0.0
 11
30217.604341291921
 21
1667.749496429288
 31
0.0
  0
LINE
  5
4060
  8
YODOROGO
 10
30017.604341291921
 20
1627.749496429288
 30
0.0
 11
30217.604341291921
 21
1627.749496429288
 31
0.0
  0
ARC
  5
4061
  8
YODOROGO
 10
30230.05882870136
 20
1868.885714952901
 30
0.0
 40
321.37763628522822
 50
228.6181454618993
 51
245.660289248906
  0
LINE
  5
4062
  8
YODOROGO
 10
30105.604341291921
 20
1603.7494964292871
 30
0.0
 11
30097.60434129195
 21
1576.0728158699001
 31
0.0
  0
LINE
  5
4063
  8
YODOROGO
 10
30189.604341291921
 20
1603.7494964292871
 30
0.0
 11
30105.604341291921
 21
1603.7494964292871
 31
0.0
  0
LINE
  5
4064
  8
YODOROGO
 10
30177.604341291921
 20
1551.817722473427
 30
0.0
 11
30189.604341291921
 21
1603.7494964292871
 31
0.0
  0
ARC
  5
4065
  8
YODOROGO
 10
30230.05882870045
 20
1868.885714953002
 30
0.0
 40
321.37763628529081
 50
260.60629297969911
 51
267.77903556555862
  0
LINE
  5
4066
  8
YODOROGO
 10
30217.604341291921
 20
1427.749496429285
 30
0.0
 11
30217.604341291921
 21
1547.749496429288
 31
0.0
  0
LINE
  5
4067
  8
YODOROGO
 10
29937.604341291932
 20
1481.3393349155101
 30
0.0
 11
29937.604341291921
 21
1594.531090531141
 31
0.0
  0
LINE
  5
4068
  8
YODOROGO
 10
30217.604341291921
 20
1667.749496429288
 30
0.0
 11
29949.60434129191
 21
1667.749496429288
 31
0.0
  0
LINE
  5
4069
  8
YODOROGO
 10
30217.604341291921
 20
1627.749496429288
 30
0.0
 11
30217.604341291921
 21
1667.749496429288
 31
0.0
  0
LINE
  5
406A
  8
YODOROGO
 10
30017.604341291921
 20
1627.749496429288
 30
0.0
 11
30217.604341291921
 21
1627.749496429288
 31
0.0
  0
ARC
  5
406B
  8
YODOROGO
 10
30230.05882870136
 20
1868.885714952901
 30
0.0
 40
321.37763628522822
 50
228.6181454618993
 51
245.660289248906
  0
LINE
  5
406C
  8
YODOROGO
 10
30105.604341291921
 20
1603.7494964292871
 30
0.0
 11
30097.60434129195
 21
1576.0728158699001
 31
0.0
  0
LINE
  5
406D
  8
YODOROGO
 10
30189.604341291921
 20
1603.7494964292871
 30
0.0
 11
30105.604341291921
 21
1603.7494964292871
 31
0.0
  0
LINE
  5
406E
  8
YODOROGO
 10
30177.604341291921
 20
1551.817722473427
 30
0.0
 11
30189.604341291921
 21
1603.7494964292871
 31
0.0
  0
ARC
  5
406F
  8
YODOROGO
 10
30230.05882870045
 20
1868.885714953002
 30
0.0
 40
321.37763628529081
 50
260.60629297969911
 51
267.77903556555862
  0
LINE
  5
4070
  8
YODOROGO
 10
30217.604341291921
 20
1427.749496429285
 30
0.0
 11
30217.604341291921
 21
1547.749496429288
 31
0.0
  0
LINE
  5
4071
  8
YODOROGO
 10
29937.604341291932
 20
1481.3393349155101
 30
0.0
 11
29937.604341291921
 21
1594.531090531141
 31
0.0
  0
LINE
  5
4072
  8
YODOROGO
 10
30433.604341291921
 20
1573.749496429288
 30
0.0
 11
30381.604341291932
 21
1573.749496429288
 31
0.0
  0
LINE
  5
4073
  8
YODOROGO
 10
30433.604341291921
 20
1601.749496429285
 30
0.0
 11
30433.604341291921
 21
1573.749496429288
 31
0.0
  0
LINE
  5
4074
  8
YODOROGO
 10
30381.604341291932
 20
1601.749496429285
 30
0.0
 11
30433.604341291921
 21
1601.749496429285
 31
0.0
  0
LINE
  5
4075
  8
YODOROGO
 10
30381.604341291932
 20
1573.749496429288
 30
0.0
 11
30381.604341291932
 21
1601.749496429285
 31
0.0
  0
LINE
  5
4076
  8
YODOROGO
 10
30429.604341291921
 20
1577.7494964292871
 30
0.0
 11
30385.604341291921
 21
1577.7494964292871
 31
0.0
  0
LINE
  5
4077
  8
YODOROGO
 10
30429.604341291921
 20
1597.749496429288
 30
0.0
 11
30429.604341291921
 21
1577.7494964292871
 31
0.0
  0
LINE
  5
4078
  8
YODOROGO
 10
30385.604341291921
 20
1597.749496429288
 30
0.0
 11
30429.604341291921
 21
1597.749496429288
 31
0.0
  0
LINE
  5
4079
  8
YODOROGO
 10
30385.604341291921
 20
1577.7494964292871
 30
0.0
 11
30385.604341291921
 21
1597.749496429288
 31
0.0
  0
LINE
  5
407A
  8
YODOROGO
 10
30425.604341291921
 20
1581.749496429286
 30
0.0
 11
30389.604341291921
 21
1581.749496429286
 31
0.0
  0
LINE
  5
407B
  8
YODOROGO
 10
30425.604341291921
 20
1593.749496429288
 30
0.0
 11
30425.604341291921
 21
1581.749496429286
 31
0.0
  0
LINE
  5
407C
  8
YODOROGO
 10
30389.604341291921
 20
1593.749496429288
 30
0.0
 11
30425.604341291921
 21
1593.749496429288
 31
0.0
  0
LINE
  5
407D
  8
YODOROGO
 10
30389.604341291921
 20
1581.749496429286
 30
0.0
 11
30389.604341291921
 21
1593.749496429288
 31
0.0
  0
LINE
  5
407E
  8
YODOROGO
 10
30421.604341291932
 20
1585.7494964292871
 30
0.0
 11
30393.604341291921
 21
1585.7494964292871
 31
0.0
  0
LINE
  5
407F
  8
YODOROGO
 10
30421.604341291932
 20
1589.749496429288
 30
0.0
 11
30421.604341291932
 21
1585.7494964292871
 31
0.0
  0
LINE
  5
4080
  8
YODOROGO
 10
30393.604341291921
 20
1589.749496429288
 30
0.0
 11
30421.604341291932
 21
1589.749496429288
 31
0.0
  0
LINE
  5
4081
  8
YODOROGO
 10
30393.604341291921
 20
1585.7494964292871
 30
0.0
 11
30393.604341291921
 21
1589.749496429288
 31
0.0
  0
LINE
  5
4082
  8
YODOROGO
 10
30465.604341291921
 20
1627.749496429288
 30
0.0
 11
30381.604341291932
 21
1627.749496429288
 31
0.0
  0
LINE
  5
4083
  8
YODOROGO
 10
30465.604341291921
 20
1547.749496429288
 30
0.0
 11
30465.604341291921
 21
1627.749496429288
 31
0.0
  0
LINE
  5
4084
  8
YODOROGO
 10
30381.604341291932
 20
1547.749496429288
 30
0.0
 11
30465.604341291921
 21
1547.749496429288
 31
0.0
  0
LINE
  5
4085
  8
YODOROGO
 10
30381.604341291932
 20
1427.749496429288
 30
0.0
 11
30381.604341291932
 21
1547.749496429288
 31
0.0
  0
LINE
  5
4086
  8
YODOROGO
 10
30537.604341291921
 20
1427.749496429288
 30
0.0
 11
30381.604341291932
 21
1427.749496429288
 31
0.0
  0
LINE
  5
4087
  8
YODOROGO
 10
30569.604341291921
 20
1571.749496429285
 30
0.0
 11
30569.604341291921
 21
1599.7494964292871
 31
0.0
  0
ARC
  5
4088
  8
YODOROGO
 10
30545.604341291921
 20
1571.749496429291
 30
0.0
 40
24.000000000003752
 50
270.0
 51
359.99999999998772
  0
LINE
  5
4089
  8
YODOROGO
 10
30529.604341291939
 20
1547.749496429288
 30
0.0
 11
30545.604341291921
 21
1547.749496429288
 31
0.0
  0
LINE
  5
408A
  8
YODOROGO
 10
30529.604341291939
 20
1627.749496429288
 30
0.0
 11
30529.604341291939
 21
1547.749496429288
 31
0.0
  0
LINE
  5
408B
  8
YODOROGO
 10
30899.604341291932
 20
1547.749496429288
 30
0.0
 11
30925.604341291921
 21
1547.749496429288
 31
0.0
  0
LINE
  5
408C
  8
YODOROGO
 10
30933.604341291921
 20
1427.749496429288
 30
0.0
 11
30899.604341291932
 21
1427.749496429288
 31
0.0
  0
LINE
  5
408D
  8
YODOROGO
 10
30763.604341291921
 20
1563.7494964292871
 30
0.0
 11
30791.604341291921
 21
1563.7494964292871
 31
0.0
  0
LINE
  5
408E
  8
YODOROGO
 10
30899.604341291932
 20
1491.749496429288
 30
0.0
 11
30723.604341291921
 21
1491.749496429288
 31
0.0
  0
LINE
  5
408F
  8
YODOROGO
 10
30831.604341291921
 20
1563.7494964292871
 30
0.0
 11
30859.604341291932
 21
1563.7494964292871
 31
0.0
  0
LINE
  5
4090
  8
YODOROGO
 10
30899.604341291932
 20
1427.749496429288
 30
0.0
 11
30899.604341291932
 21
1547.749496429288
 31
0.0
  0
LINE
  5
4091
  8
YODOROGO
 10
30697.604341291932
 20
1427.749496429288
 30
0.0
 11
30645.604341291921
 21
1427.749496429288
 31
0.0
  0
LINE
  5
4092
  8
YODOROGO
 10
30617.604341291921
 20
1599.7494964292871
 30
0.0
 11
30617.604341291921
 21
1507.749496429288
 31
0.0
  0
ARC
  5
4093
  8
YODOROGO
 10
30933.604341291921
 20
1467.749496429288
 30
0.0
 40
40.0
 50
270.0
 51
0.0
  0
LINE
  5
4094
  8
YODOROGO
 10
31093.604341291921
 20
1523.7494964292871
 30
0.0
 11
31093.604341291921
 21
1427.749496429288
 31
0.0
  0
ARC
  5
4095
  8
YODOROGO
 10
31039.721395566768
 20
1637.5313901097329
 30
0.0
 40
125.8955565916754
 50
295.34052442160112
 51
359.18902303418679
  0
LINE
  5
4096
  8
YODOROGO
 10
30617.604341291921
 20
1859.749496429288
 30
0.0
 11
30497.604341291921
 21
1939.749496429288
 31
0.0
  0
LINE
  5
4097
  8
YODOROGO
 10
30497.604341291921
 20
2027.749496429288
 30
0.0
 11
30617.604341291921
 21
1947.749496429288
 31
0.0
  0
LINE
  5
4098
  8
YODOROGO
 10
30529.604341291939
 20
1679.749496429288
 30
0.0
 11
30617.604341291921
 21
1679.749496429288
 31
0.0
  0
LINE
  5
4099
  8
YODOROGO
 10
30617.604341291921
 20
1735.7494964292871
 30
0.0
 11
30529.604341291939
 21
1735.7494964292871
 31
0.0
  0
LINE
  5
409A
  8
YODOROGO
 10
30381.604341291932
 20
1795.7494964292871
 30
0.0
 11
30617.604341291921
 21
1795.7494964292871
 31
0.0
  0
LINE
  5
409B
  8
YODOROGO
 10
30081.604341291921
 20
2027.749496429288
 30
0.0
 11
30021.604341291921
 21
2027.749496429288
 31
0.0
  0
LINE
  5
409C
  8
YODOROGO
 10
30081.604341291921
 20
1827.7494964292871
 30
0.0
 11
30081.604341291921
 21
2027.749496429288
 31
0.0
  0
LINE
  5
409D
  8
YODOROGO
 10
30021.604341291921
 20
1827.7494964292871
 30
0.0
 11
30081.604341291921
 21
1827.7494964292871
 31
0.0
  0
LINE
  5
409E
  8
YODOROGO
 10
30021.604341291921
 20
2027.749496429288
 30
0.0
 11
30021.604341291921
 21
1827.7494964292871
 31
0.0
  0
LINE
  5
409F
  8
YODOROGO
 10
30161.604341291921
 20
2027.749496429288
 30
0.0
 11
30217.604341291921
 21
2027.749496429288
 31
0.0
  0
LINE
  5
40A0
  8
YODOROGO
 10
30161.604341291921
 20
1811.749496429288
 30
0.0
 11
30161.604341291921
 21
2027.749496429288
 31
0.0
  0
ARC
  5
40A1
  8
YODOROGO
 10
30121.604341291921
 20
1811.749496429288
 30
0.0
 40
40.0
 50
270.0
 51
0.0
  0
LINE
  5
40A2
  8
YODOROGO
 10
30021.604341291921
 20
1771.7494964292871
 30
0.0
 11
30121.604341291921
 21
1771.7494964292871
 31
0.0
  0
LINE
  5
40A3
  8
YODOROGO
 10
30021.604341291921
 20
1707.749496429288
 30
0.0
 11
30021.604341291921
 21
1771.7494964292871
 31
0.0
  0
LINE
  5
40A4
  8
YODOROGO
 10
30137.604341291921
 20
1707.749496429288
 30
0.0
 11
30021.604341291921
 21
1707.749496429288
 31
0.0
  0
ARC
  5
40A5
  8
YODOROGO
 10
30137.604341291921
 20
1787.7494964292871
 30
0.0
 40
80.0
 50
270.0
 51
0.0
  0
LINE
  5
40A6
  8
YODOROGO
 10
30217.604341291921
 20
2027.749496429288
 30
0.0
 11
30217.604341291921
 21
1787.7494964292871
 31
0.0
  0
LINE
  5
40A7
  8
YODOROGO
 10
29977.604341291921
 20
1947.749496429288
 30
0.0
 11
29977.604341291921
 21
1995.7494964292871
 31
0.0
1001
AUTOCAD_POSTSCRIPT_FIGURE
1002
{
1000
PSFILL
1000
Grayscale
1000
Grayscale
1070
    25
1002
}
  0
LINE
  5
40A8
  8
YODOROGO
 10
29977.604341291921
 20
1859.749496429288
 30
0.0
 11
29977.604341291921
 21
1907.7494964292871
 31
0.0
1001
AUTOCAD_POSTSCRIPT_FIGURE
1002
{
1000
PSFILL
1000
Grayscale
1000
Grayscale
1070
    25
1002
}
  0
LINE
  5
40A9
  8
YODOROGO
 10
29977.604341291921
 20
1707.749496429288
 30
0.0
 11
29977.604341291921
 21
1819.7494964292871
 31
0.0
1001
AUTOCAD_POSTSCRIPT_FIGURE
1002
{
1000
PSFILL
1000
Grayscale
1000
Grayscale
1070
    25
1002
}
  0
LINE
  5
40AA
  8
YODOROGO
 10
30381.604341291932
 20
1907.7494964292871
 30
0.0
 11
30497.604341291921
 21
2027.749496429288
 31
0.0
  0
LINE
  5
40AB
  8
YODOROGO
 10
30381.604341291932
 20
1819.7494964292871
 30
0.0
 11
30381.604341291932
 21
1907.7494964292871
 31
0.0
  0
LINE
  5
40AC
  8
YODOROGO
 10
30497.604341291921
 20
1939.749496429288
 30
0.0
 11
30381.604341291932
 21
1819.7494964292871
 31
0.0
  0
LINE
  5
40AD
  8
YODOROGO
 10
30465.604341291921
 20
1679.749496429288
 30
0.0
 11
30465.604341291921
 21
1735.7494964292871
 31
0.0
  0
LINE
  5
40AE
  8
YODOROGO
 10
30381.604341291932
 20
1679.749496429288
 30
0.0
 11
30465.604341291921
 21
1679.749496429288
 31
0.0
  0
LINE
  5
40AF
  8
YODOROGO
 10
30529.604341291939
 20
1735.7494964292871
 30
0.0
 11
30529.604341291939
 21
1679.749496429288
 31
0.0
  0
LINE
  5
40B0
  8
YODOROGO
 10
30381.604341291932
 20
1735.7494964292871
 30
0.0
 11
30381.604341291932
 21
1795.7494964292871
 31
0.0
  0
LINE
  5
40B1
  8
YODOROGO
 10
30465.604341291921
 20
1735.7494964292871
 30
0.0
 11
30381.604341291932
 21
1735.7494964292871
 31
0.0
  0
LINE
  5
40B2
  8
YODOROGO
 10
30645.604341291921
 20
2027.749496429288
 30
0.0
 11
30973.604341291921
 21
2027.749496429288
 31
0.0
  0
LINE
  5
40B3
  8
YODOROGO
 10
30925.604341291921
 20
1963.749496429286
 30
0.0
 11
30697.604341291932
 21
1963.749496429286
 31
0.0
  0
LINE
  5
40B4
  8
YODOROGO
 10
30873.604341291921
 20
1819.7494964292871
 30
0.0
 11
30899.604341291932
 21
1819.7494964292871
 31
0.0
  0
LINE
  5
40B5
  8
YODOROGO
 10
30899.604341291932
 20
1939.749496429288
 30
0.0
 11
30873.604341291921
 21
1819.7494964292871
 31
0.0
  0
LINE
  5
40B6
  8
YODOROGO
 10
30851.604341291939
 20
1939.749496429288
 30
0.0
 11
30899.604341291932
 21
1939.749496429288
 31
0.0
  0
LINE
  5
40B7
  8
YODOROGO
 10
30825.604341291921
 20
1819.7494964292871
 30
0.0
 11
30851.604341291939
 21
1939.749496429288
 31
0.0
  0
LINE
  5
40B8
  8
YODOROGO
 10
30797.604341291921
 20
1819.7494964292871
 30
0.0
 11
30825.604341291921
 21
1819.7494964292871
 31
0.0
  0
LINE
  5
40B9
  8
YODOROGO
 10
30771.604341291939
 20
1939.749496429288
 30
0.0
 11
30797.604341291921
 21
1819.7494964292871
 31
0.0
  0
LINE
  5
40BA
  8
YODOROGO
 10
30723.604341291921
 20
1939.749496429288
 30
0.0
 11
30771.604341291939
 21
1939.749496429288
 31
0.0
  0
LINE
  5
40BB
  8
YODOROGO
 10
30749.604341291921
 20
1819.7494964292871
 30
0.0
 11
30723.604341291921
 21
1939.749496429288
 31
0.0
  0
LINE
  5
40BC
  8
YODOROGO
 10
30723.604341291921
 20
1819.7494964292871
 30
0.0
 11
30749.604341291921
 21
1819.7494964292871
 31
0.0
  0
LINE
  5
40BD
  8
YODOROGO
 10
30723.604341291921
 20
1755.7494964292871
 30
0.0
 11
30723.604341291921
 21
1819.7494964292871
 31
0.0
  0
LINE
  5
40BE
  8
YODOROGO
 10
30899.604341291932
 20
1755.7494964292871
 30
0.0
 11
30723.604341291921
 21
1755.7494964292871
 31
0.0
  0
LINE
  5
40BF
  8
YODOROGO
 10
30899.604341291932
 20
1819.7494964292871
 30
0.0
 11
30899.604341291932
 21
1755.7494964292871
 31
0.0
  0
LINE
  5
40C0
  8
YODOROGO
 10
30617.604341291921
 20
1947.749496429288
 30
0.0
 11
30617.604341291921
 21
1859.749496429288
 31
0.0
  0
LINE
  5
40C1
  8
YODOROGO
 10
30791.604341291921
 20
1755.7494964292871
 30
0.0
 11
30831.604341291921
 21
1755.7494964292871
 31
0.0
  0
LINE
  5
40C2
  8
YODOROGO
 10
30723.604341291921
 20
1691.749496429288
 30
0.0
 11
30763.604341291921
 21
1691.749496429288
 31
0.0
  0
LINE
  5
40C3
  8
YODOROGO
 10
30859.604341291932
 20
1691.749496429288
 30
0.0
 11
30899.604341291932
 21
1691.749496429288
 31
0.0
  0
LINE
  5
40C4
  8
YODOROGO
 10
30617.604341291921
 20
1795.7494964292871
 30
0.0
 11
30617.604341291921
 21
1735.7494964292871
 31
0.0
  0
LINE
  5
40C5
  8
YODOROGO
 10
31165.604341291921
 20
2027.749496429288
 30
0.0
 11
31165.604341291921
 21
1963.749496429286
 31
0.0
  0
LINE
  5
40C6
  8
YODOROGO
 10
31533.604341291921
 20
1595.7494964292871
 30
0.0
 11
31533.60434129191
 21
1811.749496429288
 31
0.0
  0
LINE
  5
40C7
  8
YODOROGO
 10
31461.60434129191
 20
1987.7494964292871
 30
0.0
 11
31461.60434129191
 21
1635.7494964292871
 31
0.0
  0
LINE
  5
40C8
  8
YODOROGO
 10
31653.604341291921
 20
1427.749496429288
 30
0.0
 11
31653.60434129191
 21
1811.749496429288
 31
0.0
  0
LINE
  5
40C9
  8
YODOROGO
 10
31589.604341291921
 20
1811.749496429288
 30
0.0
 11
31589.604341291921
 21
1427.749496429288
 31
0.0
  0
LINE
  5
40CA
  8
YODOROGO
 10
31237.604341291921
 20
1595.7494964292871
 30
0.0
 11
31237.604341291921
 21
1707.749496429288
 31
0.0
  0
ARC
  5
40CB
  8
YODOROGO
 10
31353.914865116069
 20
1607.790351288558
 30
0.0
 40
180.0924485759885
 50
268.62849102169793
 51
356.16638457330322
  0
LINE
  5
40CC
  8
YODOROGO
 10
31349.604341291939
 20
1527.749496429288
 30
0.0
 11
31349.604341291939
 21
1427.749496429288
 31
0.0
  0
ARC
  5
40CD
  8
YODOROGO
 10
31351.518075724562
 20
1637.838957017655
 30
0.0
 40
110.1060929836122
 50
269.00410209305932
 51
358.91264455492478
  0
LINE
  5
40CE
  8
YODOROGO
 10
31589.604341291921
 20
1427.749496429288
 30
0.0
 11
31653.604341291921
 21
1427.749496429288
 31
0.0
  0
LINE
  5
40CF
  8
YODOROGO
 10
31533.60434129191
 20
1811.749496429288
 30
0.0
 11
31589.604341291921
 21
1811.749496429288
 31
0.0
  0
LINE
  5
40D0
  8
YODOROGO
 10
31621.604341291939
 20
1987.7494964292871
 30
0.0
 11
31461.60434129191
 21
1987.7494964292871
 31
0.0
  0
LINE
  5
40D1
  8
YODOROGO
 10
31533.60434129191
 20
1915.7494964292871
 30
0.0
 11
31661.604341291939
 21
1915.7494964292871
 31
0.0
  0
LINE
  5
40D2
  8
YODOROGO
 10
31701.604341291939
 20
1875.7494964292871
 30
0.0
 11
31533.60434129191
 21
1875.7494964292871
 31
0.0
  0
LINE
  5
40D3
  8
YODOROGO
 10
31237.604341291921
 20
1779.749496429288
 30
0.0
 11
31349.604341291939
 21
1779.749496429288
 31
0.0
  0
LINE
  5
40D4
  8
YODOROGO
 10
31237.604341291921
 20
1835.7494964292871
 30
0.0
 11
31237.604341291921
 21
1779.749496429288
 31
0.0
  0
LINE
  5
40D5
  8
YODOROGO
 10
31349.604341291939
 20
1835.7494964292871
 30
0.0
 11
31237.604341291921
 21
1835.7494964292871
 31
0.0
  0
LINE
  5
40D6
  8
YODOROGO
 10
31349.604341291939
 20
1779.749496429288
 30
0.0
 11
31349.604341291939
 21
1835.7494964292871
 31
0.0
  0
LINE
  5
40D7
  8
YODOROGO
 10
31533.60434129191
 20
1875.7494964292871
 30
0.0
 11
31533.60434129191
 21
1915.7494964292871
 31
0.0
  0
LINE
  5
40D8
  8
YODOROGO
 10
31413.604341291921
 20
1707.749496429288
 30
0.0
 11
31413.604341291921
 21
1907.7494964292871
 31
0.0
  0
LINE
  5
40D9
  8
YODOROGO
 10
31237.604341291921
 20
1707.749496429288
 30
0.0
 11
31413.604341291921
 21
1707.749496429288
 31
0.0
  0
LINE
  5
40DA
  8
YODOROGO
 10
31413.604341291921
 20
1963.749496429286
 30
0.0
 11
31413.604341291921
 21
2027.749496429288
 31
0.0
  0
ARC
  5
40DB
  8
YODOROGO
 10
31621.604341291939
 20
2003.749496429285
 30
0.0
 40
15.999999999994539
 50
270.0
 51
0.0000000000081422
  0
LINE
  5
40DC
  8
YODOROGO
 10
31637.604341291921
 20
2027.749496429288
 30
0.0
 11
31637.604341291921
 21
2003.7494964292871
 31
0.0
  0
LINE
  5
40DD
  8
YODOROGO
 10
31701.604341291939
 20
2027.749496429288
 30
0.0
 11
31637.604341291921
 21
2027.749496429288
 31
0.0
  0
LINE
  5
40DE
  8
YODOROGO
 10
31701.604341291939
 20
1955.7494964292871
 30
0.0
 11
31701.604341291939
 21
2027.749496429288
 31
0.0
  0
ARC
  5
40DF
  8
YODOROGO
 10
31661.604341291939
 20
1955.7494964292871
 30
0.0
 40
40.0
 50
270.0
 51
0.0
  0
LINE
  5
40E0
  8
YODOROGO
 10
31701.604341291939
 20
1811.749496429288
 30
0.0
 11
31701.604341291939
 21
1875.7494964292871
 31
0.0
  0
LINE
  5
40E1
  8
YODOROGO
 10
31653.60434129191
 20
1811.749496429288
 30
0.0
 11
31701.604341291939
 21
1811.749496429288
 31
0.0
  0
LINE
  5
40E5
  8
SUNPOU
  6
CONTINUOUS
 62
     4
 10
9687.6543154999963
 20
14213.735599
 30
0.0
 11
8840.6588944999967
 21
14213.735599
 31
0.0
  0
LINE
  5
40E6
  8
SUNPOU
  6
CONTINUOUS
 62
     4
 10
8920.6588944999967
 20
14406.230913999991
 30
0.0
 11
8920.6588944999967
 21
14213.735599
 31
0.0
  0
LINE
  5
40E7
  8
SUNPOU
  6
CONTINUOUS
 62
     4
 10
9551.3624824999915
 20
15865.47142550002
 30
0.0
 11
8840.6607044999946
 21
15865.47142550002
 31
0.0
  0
LINE
  5
40E8
  8
SUNPOU
  6
CONTINUOUS
 62
     4
 10
8920.6607044999946
 20
15865.47142550002
 30
0.0
 11
8920.6607044999946
 21
14406.230913999991
 31
0.0
  0
LINE
  5
40E9
  8
SUNPOU
  6
CONTINUOUS
 62
     4
 10
9551.3624824999915
 20
15865.47142550002
 30
0.0
 11
8840.6607044999946
 21
15865.47142550002
 31
0.0
  0
LINE
  5
40EA
  8
SUNPOU
  6
CONTINUOUS
 62
     4
 10
8920.6607044999946
 20
17324.230914
 30
0.0
 11
8920.6607044999946
 21
15865.47142550002
 31
0.0
  0
LINE
  5
40EB
  8
SUNPOU
  6
CONTINUOUS
 62
     4
 10
9537.2217914999874
 20
18783.230914
 30
0.0
 11
8840.6607044999946
 21
18783.230914
 31
0.0
  0
LINE
  5
40EC
  8
SUNPOU
  6
CONTINUOUS
 62
     4
 10
8920.6607044999946
 20
18783.230914
 30
0.0
 11
8920.6607044999946
 21
17324.230914
 31
0.0
  0
LINE
  5
40ED
  8
SUNPOU
  6
CONTINUOUS
 62
     4
 10
9687.6561254999906
 20
20094.226823000001
 30
0.0
 11
9240.6607044999946
 21
20094.226823000001
 31
0.0
  0
LINE
  5
40EE
  8
SUNPOU
  6
CONTINUOUS
 62
     4
 10
9687.6604804999915
 20
20114.226823000001
 30
0.0
 11
9240.6607044999946
 21
20114.226823000001
 31
0.0
  0
LINE
  5
40F0
  8
SUNPOU
  6
CONTINUOUS
 62
     4
 10
9320.6607044999946
 20
20114.226823000001
 30
0.0
 11
9320.6607044999946
 21
20354.226823000012
 31
0.0
  0
LINE
  5
40F1
  8
SUNPOU
  6
CONTINUOUS
 62
     4
 10
9320.6607044999946
 20
20074.226823000001
 30
0.0
 11
9320.6607044999946
 21
20114.226823000001
 31
0.0
  0
LINE
  5
40F2
  8
SUNPOU
  6
CONTINUOUS
 62
     4
 10
9687.6604804999915
 20
20114.226823000001
 30
0.0
 11
8840.6607044999946
 21
20114.226823000001
 31
0.0
  0
LINE
  5
40F3
  8
SUNPOU
  6
CONTINUOUS
 62
     4
 10
8920.6607044999946
 20
19891.730914
 30
0.0
 11
8920.6607044999946
 21
20114.226823000001
 31
0.0
  0
LINE
  5
40F4
  8
SUNPOU
  6
CONTINUOUS
 62
     4
 10
9537.2217914999874
 20
18783.230914
 30
0.0
 11
8840.6607044999946
 21
18783.230914
 31
0.0
  0
LINE
  5
40F5
  8
SUNPOU
  6
CONTINUOUS
 62
     4
 10
8920.6607044999946
 20
18783.230914
 30
0.0
 11
8920.6607044999946
 21
19891.730914
 31
0.0
  0
LINE
  5
40F6
  8
SUNPOU
  6
CONTINUOUS
 62
     4
 10
9764.6660935000036
 20
20194.230783000032
 30
0.0
 11
9764.6660935000036
 21
20744.236062000022
 31
0.0
  0
LINE
  5
40F7
  8
SUNPOU
  6
CONTINUOUS
 62
     4
 10
9850.1660935000036
 20
20664.236062000022
 30
0.0
 11
10090.1660935
 21
20664.236062000022
 31
0.0
  0
LINE
  5
40F8
  8
SUNPOU
  6
CONTINUOUS
 62
     4
 10
9767.6660935000036
 20
20664.236062000022
 30
0.0
 11
9527.6660935000036
 21
20664.236062000022
 31
0.0
  0
LINE
  5
40F9
  8
SUNPOU
  6
CONTINUOUS
 62
     4
 10
9850.1660935000036
 20
20664.236062000022
 30
0.0
 11
9767.6660935000036
 21
20664.236062000022
 31
0.0
  0
LINE
  5
40FA
  8
SUNPOU
  6
CONTINUOUS
 62
     4
 10
12417.66015549998
 20
20664.236062000022
 30
0.0
 11
9850.1660935000036
 21
20664.236062000022
 31
0.0
  0
LINE
  5
40FB
  8
SUNPOU
  6
CONTINUOUS
 62
     4
 10
15067.654217499959
 20
20194.230783000032
 30
0.0
 11
15067.654217499959
 21
20744.236062000022
 31
0.0
  0
LINE
  5
40FC
  8
SUNPOU
  6
CONTINUOUS
 62
     4
 10
14985.154217499959
 20
20664.236062000022
 30
0.0
 11
14745.154217499959
 21
20664.236062000022
 31
0.0
  0
LINE
  5
40FD
  8
SUNPOU
  6
CONTINUOUS
 62
     4
 10
15067.654217499959
 20
20664.236062000022
 30
0.0
 11
15307.65421749995
 21
20664.236062000022
 31
0.0
  0
LINE
  5
40FE
  8
SUNPOU
  6
CONTINUOUS
 62
     4
 10
14985.154217499959
 20
20664.236062000022
 30
0.0
 11
15067.654217499959
 21
20664.236062000022
 31
0.0
  0
LINE
  5
40FF
  8
SUNPOU
  6
CONTINUOUS
 62
     4
 10
12417.66015549998
 20
20664.236062000022
 30
0.0
 11
14985.154217499959
 21
20664.236062000022
 31
0.0
  0
LINE
  5
4100
  8
SUNPOU
  6
CONTINUOUS
 62
     4
 10
25403.11676349998
 20
19484.230914
 30
0.0
 11
26453.11808349999
 21
19484.230914
 31
0.0
  0
LINE
  5
4101
  8
SUNPOU
  6
CONTINUOUS
 62
     4
 10
26253.11808349999
 20
19891.730914
 30
0.0
 11
26453.11808349999
 21
19891.730914
 31
0.0
  0
LINE
  5
4102
  8
SUNPOU
  6
CONTINUOUS
 62
     4
 10
26373.11808349999
 20
19484.230914
 30
0.0
 11
26373.11808349999
 21
19891.730914
 31
0.0
  0
LINE
  5
4103
  8
SUNPOU
  6
CONTINUOUS
 62
     4
 10
20023.122174499989
 20
18783.230914
 30
0.0
 11
19136.1639025
 21
18783.230914
 31
0.0
  0
LINE
  5
4104
  8
SUNPOU
  6
CONTINUOUS
 62
     4
 10
19216.163902499979
 20
18783.230914
 30
0.0
 11
19216.163902499979
 21
19891.730914
 31
0.0
  0
LINE
  5
4105
  8
SUNPOU
  6
CONTINUOUS
 62
     4
 10
20023.122174499989
 20
18783.230914
 30
0.0
 11
19136.1639025
 21
18783.230914
 31
0.0
  0
LINE
  5
4106
  8
SUNPOU
  6
CONTINUOUS
 62
     4
 10
19216.163902499979
 20
17324.230914
 30
0.0
 11
19216.163902499979
 21
18783.230914
 31
0.0
  0
LINE
  5
4107
  8
SUNPOU
  6
CONTINUOUS
 62
     4
 10
20023.122174499989
 20
15865.471425500011
 30
0.0
 11
19136.1639025
 21
15865.471425500011
 31
0.0
  0
LINE
  5
4108
  8
SUNPOU
  6
CONTINUOUS
 62
     4
 10
19216.163902499979
 20
15865.471425500011
 30
0.0
 11
19216.163902499979
 21
17324.230914
 31
0.0
  0
LINE
  5
4109
  8
SUNPOU
  6
CONTINUOUS
 62
     4
 10
20023.122174499989
 20
15865.471425500011
 30
0.0
 11
19136.1639025
 21
15865.471425500011
 31
0.0
  0
LINE
  5
410A
  8
SUNPOU
  6
CONTINUOUS
 62
     4
 10
19216.163902499979
 20
14406.230913999991
 30
0.0
 11
19216.163902499979
 21
15865.471425500011
 31
0.0
  0
LINE
  5
410B
  8
SUNPOU
  6
CONTINUOUS
 62
     4
 10
20145.618479500001
 20
13700.467479999999
 30
0.0
 11
20145.618479500001
 21
13354.78283
 31
0.0
  0
LINE
  5
410C
  8
SUNPOU
  6
CONTINUOUS
 62
     4
 10
20103.116236499991
 20
14283.733619000001
 30
0.0
 11
20103.116236499991
 21
13354.78283
 31
0.0
  0
LINE
  5
410D
  8
SUNPOU
  6
CONTINUOUS
 62
     4
 10
20145.618479500001
 20
13434.78283
 30
0.0
 11
20385.618479500001
 21
13434.78283
 31
0.0
  0
LINE
  5
410E
  8
SUNPOU
  6
CONTINUOUS
 62
     4
 10
20103.116236499991
 20
13434.78283
 30
0.0
 11
19863.116236499991
 21
13434.78283
 31
0.0
  0
LINE
  5
410F
  8
SUNPOU
  6
CONTINUOUS
 62
     4
 10
20145.618479500001
 20
13434.78283
 30
0.0
 11
20103.116236499991
 21
13434.78283
 31
0.0
  0
LINE
  5
4110
  8
SUNPOU
  6
CONTINUOUS
 62
     4
 10
25280.618479500001
 20
13700.467479999999
 30
0.0
 11
25280.618479500001
 21
13354.78283
 31
0.0
  0
LINE
  5
4111
  8
SUNPOU
  6
CONTINUOUS
 62
     4
 10
25323.1207225
 20
14283.733619000001
 30
0.0
 11
25323.1207225
 21
13354.78283
 31
0.0
  0
LINE
  5
4112
  8
SUNPOU
  6
CONTINUOUS
 62
     4
 10
25280.618479500001
 20
13434.78283
 30
0.0
 11
25040.618479500001
 21
13434.78283
 31
0.0
  0
LINE
  5
4113
  8
SUNPOU
  6
CONTINUOUS
 62
     4
 10
25323.1207225
 20
13434.78283
 30
0.0
 11
25563.120722499989
 21
13434.78283
 31
0.0
  0
LINE
  5
4114
  8
SUNPOU
  6
CONTINUOUS
 62
     4
 10
25280.618479500001
 20
13434.78283
 30
0.0
 11
25323.1207225
 21
13434.78283
 31
0.0
  0
LINE
  5
4115
  8
2-0
  6
CONTINUOUS
 62
     3
 10
22670.61847949999
 20
14363.730913999991
 30
0.0
 11
22755.61847949999
 21
14363.730913999991
 31
0.0
  0
LINE
  5
4116
  8
2-0
  6
CONTINUOUS
 62
     3
 10
22755.61847949999
 20
14363.730913999991
 30
0.0
 11
22755.61847949999
 21
14448.730913999991
 31
0.0
  0
LINE
  5
4117
  8
2-0
  6
CONTINUOUS
 62
     3
 10
22755.61847949999
 20
14448.730913999991
 30
0.0
 11
22670.61847949999
 21
14448.730913999991
 31
0.0
  0
LINE
  5
4118
  8
2-0
  6
CONTINUOUS
 62
     3
 10
22670.61847949999
 20
14448.730913999991
 30
0.0
 11
22670.61847949999
 21
14363.730913999991
 31
0.0
  0
LINE
  5
4119
  8
SUNPOU
  6
CONTINUOUS
 62
     4
 10
25280.618479500001
 20
13700.467479999999
 30
0.0
 11
25280.618479500001
 21
13354.78283
 31
0.0
  0
LINE
  5
411A
  8
SUNPOU
  6
CONTINUOUS
 62
     4
 10
25238.116236499991
 20
14283.733619000001
 30
0.0
 11
25238.116236499991
 21
13354.78283
 31
0.0
  0
LINE
  5
411B
  8
SUNPOU
  6
CONTINUOUS
 62
     4
 10
25280.618479500001
 20
13434.78283
 30
0.0
 11
25520.618479500001
 21
13434.78283
 31
0.0
  0
LINE
  5
411C
  8
SUNPOU
  6
CONTINUOUS
 62
     4
 10
25238.116236499991
 20
13434.78283
 30
0.0
 11
24998.116236499991
 21
13434.78283
 31
0.0
  0
LINE
  5
411D
  8
SUNPOU
  6
CONTINUOUS
 62
     4
 10
25280.618479500001
 20
13434.78283
 30
0.0
 11
25238.116236499991
 21
13434.78283
 31
0.0
  0
LINE
  5
411E
  8
SUNPOU
  6
CONTINUOUS
 62
     4
 10
20145.618479500001
 20
13700.467479999999
 30
0.0
 11
20145.618479500001
 21
13354.78283
 31
0.0
  0
LINE
  5
411F
  8
SUNPOU
  6
CONTINUOUS
 62
     4
 10
20188.120722499982
 20
14283.733619000001
 30
0.0
 11
20188.120722499982
 21
13354.78283
 31
0.0
  0
LINE
  5
4120
  8
SUNPOU
  6
CONTINUOUS
 62
     4
 10
20145.618479500001
 20
13434.78283
 30
0.0
 11
19905.61847949999
 21
13434.78283
 31
0.0
  0
LINE
  5
4121
  8
SUNPOU
  6
CONTINUOUS
 62
     4
 10
20188.120722499982
 20
13434.78283
 30
0.0
 11
20428.120722499982
 21
13434.78283
 31
0.0
  0
LINE
  5
4122
  8
SUNPOU
  6
CONTINUOUS
 62
     4
 10
20145.618479500001
 20
13434.78283
 30
0.0
 11
20188.120722499982
 21
13434.78283
 31
0.0
  0
LINE
  5
4123
  8
SUNPOU
  6
CONTINUOUS
 62
     4
 10
20103.116236499991
 20
14283.733619000001
 30
0.0
 11
20103.116236499991
 21
12954.78283
 31
0.0
  0
LINE
  5
4124
  8
SUNPOU
  6
CONTINUOUS
 62
     4
 10
25323.1207225
 20
14283.733619000001
 30
0.0
 11
25323.1207225
 21
12954.78283
 31
0.0
  0
LINE
  5
4125
  8
SUNPOU
  6
CONTINUOUS
 62
     4
 10
20103.116236499991
 20
13034.78283
 30
0.0
 11
25323.1207225
 21
13034.78283
 31
0.0
  0
LINE
  5
4126
  8
SUNPOU
  6
CONTINUOUS
 62
     4
 10
25403.116763499991
 20
15164.230913999991
 30
0.0
 11
26453.11808349999
 21
15164.230913999991
 31
0.0
  0
LINE
  5
4127
  8
SUNPOU
  6
CONTINUOUS
 62
     4
 10
26253.11808349999
 20
14406.230913999991
 30
0.0
 11
26453.11808349999
 21
14406.230913999991
 31
0.0
  0
LINE
  5
4128
  8
SUNPOU
  6
CONTINUOUS
 62
     4
 10
26373.11808349999
 20
15164.230913999991
 30
0.0
 11
26373.11808349999
 21
14406.230913999991
 31
0.0
  0
LINE
  5
4129
  8
SUNPOU
  6
CONTINUOUS
 62
     4
 10
25403.116763499991
 20
15865.471425500011
 30
0.0
 11
26453.11808349999
 21
15865.471425500011
 31
0.0
  0
LINE
  5
412A
  8
SUNPOU
  6
CONTINUOUS
 62
     4
 10
25403.116763499991
 20
15164.230913999991
 30
0.0
 11
26453.11808349999
 21
15164.230913999991
 31
0.0
  0
LINE
  5
412B
  8
SUNPOU
  6
CONTINUOUS
 62
     4
 10
26373.11808349999
 20
15865.471425500011
 30
0.0
 11
26373.11808349999
 21
15164.230913999991
 31
0.0
  0
LINE
  5
412C
  8
SUNPOU
  6
CONTINUOUS
 62
     4
 10
25403.116763499991
 20
16566.230914
 30
0.0
 11
26453.11808349999
 21
16566.230914
 31
0.0
  0
LINE
  5
412D
  8
SUNPOU
  6
CONTINUOUS
 62
     4
 10
25403.116763499991
 20
15865.471425500011
 30
0.0
 11
26453.11808349999
 21
15865.471425500011
 31
0.0
  0
LINE
  5
412E
  8
SUNPOU
  6
CONTINUOUS
 62
     4
 10
26373.11808349999
 20
16566.230914
 30
0.0
 11
26373.11808349999
 21
15865.471425500011
 31
0.0
  0
LINE
  5
412F
  8
SUNPOU
  6
CONTINUOUS
 62
     4
 10
26253.11808349999
 20
17324.230914
 30
0.0
 11
26453.11808349999
 21
17324.230914
 31
0.0
  0
LINE
  5
4130
  8
SUNPOU
  6
CONTINUOUS
 62
     4
 10
25403.116763499991
 20
16566.230914
 30
0.0
 11
26453.11808349999
 21
16566.230914
 31
0.0
  0
LINE
  5
4131
  8
SUNPOU
  6
CONTINUOUS
 62
     4
 10
26373.11808349999
 20
17324.230914
 30
0.0
 11
26373.11808349999
 21
16566.230914
 31
0.0
  0
LINE
  5
4132
  8
SUNPOU
  6
CONTINUOUS
 62
     4
 10
25403.116763499991
 20
18082.230914
 30
0.0
 11
26453.11808349999
 21
18082.230914
 31
0.0
  0
LINE
  5
4133
  8
SUNPOU
  6
CONTINUOUS
 62
     4
 10
26253.11808349999
 20
17324.230914
 30
0.0
 11
26453.11808349999
 21
17324.230914
 31
0.0
  0
LINE
  5
4134
  8
SUNPOU
  6
CONTINUOUS
 62
     4
 10
26373.11808349999
 20
18082.230914
 30
0.0
 11
26373.11808349999
 21
17324.230914
 31
0.0
  0
LINE
  5
4135
  8
SUNPOU
  6
CONTINUOUS
 62
     4
 10
25403.116763499991
 20
18783.230914
 30
0.0
 11
26453.11808349999
 21
18783.230914
 31
0.0
  0
LINE
  5
4136
  8
SUNPOU
  6
CONTINUOUS
 62
     4
 10
25403.116763499991
 20
18082.230914
 30
0.0
 11
26453.11808349999
 21
18082.230914
 31
0.0
  0
LINE
  5
4137
  8
SUNPOU
  6
CONTINUOUS
 62
     4
 10
26373.11808349999
 20
18783.230914
 30
0.0
 11
26373.11808349999
 21
18082.230914
 31
0.0
  0
LINE
  5
4138
  8
SUNPOU
  6
CONTINUOUS
 62
     4
 10
25403.116763499991
 20
19484.230914
 30
0.0
 11
26453.11808349999
 21
19484.230914
 31
0.0
  0
LINE
  5
4139
  8
SUNPOU
  6
CONTINUOUS
 62
     4
 10
25403.116763499991
 20
18783.230914
 30
0.0
 11
26453.11808349999
 21
18783.230914
 31
0.0
  0
LINE
  5
413A
  8
SUNPOU
  6
CONTINUOUS
 62
     4
 10
26373.11808349999
 20
19484.230914
 30
0.0
 11
26373.11808349999
 21
18783.230914
 31
0.0
  0
LINE
  5
413B
  8
SUNPOU
  6
CONTINUOUS
 62
     4
 10
26253.11808349999
 20
17324.230914
 30
0.0
 11
26853.11808349999
 21
17324.230914
 31
0.0
  0
LINE
  5
413C
  8
SUNPOU
  6
CONTINUOUS
 62
     4
 10
26253.11808349999
 20
19891.730914
 30
0.0
 11
26853.11808349999
 21
19891.730914
 31
0.0
  0
LINE
  5
413D
  8
SUNPOU
  6
CONTINUOUS
 62
     4
 10
26773.11808349999
 20
17324.230914
 30
0.0
 11
26773.11808349999
 21
19891.730914
 31
0.0
  0
LINE
  5
413E
  8
SUNPOU
  6
CONTINUOUS
 62
     4
 10
26253.11808349999
 20
14406.230913999991
 30
0.0
 11
26853.11808349999
 21
14406.230913999991
 31
0.0
  0
LINE
  5
413F
  8
SUNPOU
  6
CONTINUOUS
 62
     4
 10
26253.11808349999
 20
17324.230914
 30
0.0
 11
26853.11808349999
 21
17324.230914
 31
0.0
  0
LINE
  5
4140
  8
SUNPOU
  6
CONTINUOUS
 62
     4
 10
26773.11808349999
 20
14406.230913999991
 30
0.0
 11
26773.11808349999
 21
17324.230914
 31
0.0
  0
LINE
  5
4141
  8
SUNPOU
  6
CONTINUOUS
 62
     4
 10
25403.116763499991
 20
19934.228209000001
 30
0.0
 11
27253.11808349998
 21
19934.228209000001
 31
0.0
  0
LINE
  5
4142
  8
SUNPOU
  6
CONTINUOUS
 62
     4
 10
25403.116763499991
 20
14363.733619000001
 30
0.0
 11
27253.11808349998
 21
14363.733619000001
 31
0.0
  0
LINE
  5
4143
  8
SUNPOU
  6
CONTINUOUS
 62
     4
 10
27173.11808349998
 20
19934.228209000001
 30
0.0
 11
27173.11808349998
 21
14363.733619000001
 31
0.0
  0
LINE
  5
4144
  8
SUNPOU
  6
CONTINUOUS
 62
     4
 10
26253.11808349999
 20
19891.730914
 30
0.0
 11
26853.11808349999
 21
19891.730914
 31
0.0
  0
LINE
  5
4145
  8
SUNPOU
  6
CONTINUOUS
 62
     4
 10
25403.116763499991
 20
19934.228209000001
 30
0.0
 11
26853.11808349999
 21
19934.228209000001
 31
0.0
  0
LINE
  5
4146
  8
SUNPOU
  6
CONTINUOUS
 62
     4
 10
26773.11808349999
 20
19891.730914
 30
0.0
 11
26773.11808349999
 21
19651.730914
 31
0.0
  0
LINE
  5
4147
  8
SUNPOU
  6
CONTINUOUS
 62
     4
 10
26773.11808349999
 20
19934.228209000001
 30
0.0
 11
26773.11808349999
 21
20174.228209000001
 31
0.0
  0
LINE
  5
4148
  8
SUNPOU
  6
CONTINUOUS
 62
     4
 10
26773.11808349999
 20
19891.730914
 30
0.0
 11
26773.11808349999
 21
19934.228209000001
 31
0.0
  0
LINE
  5
4149
  8
SUNPOU
  6
CONTINUOUS
 62
     4
 10
26253.11808349999
 20
14406.230913999991
 30
0.0
 11
26853.11808349999
 21
14406.230913999991
 31
0.0
  0
LINE
  5
414A
  8
SUNPOU
  6
CONTINUOUS
 62
     4
 10
25403.116763499991
 20
14363.733619000001
 30
0.0
 11
26853.11808349999
 21
14363.733619000001
 31
0.0
  0
LINE
  5
414B
  8
SUNPOU
  6
CONTINUOUS
 62
     4
 10
26773.11808349999
 20
14406.230913999991
 30
0.0
 11
26773.11808349999
 21
14646.230913999991
 31
0.0
  0
LINE
  5
414C
  8
SUNPOU
  6
CONTINUOUS
 62
     4
 10
26773.11808349999
 20
14363.733619000001
 30
0.0
 11
26773.11808349999
 21
14123.733619000001
 31
0.0
  0
LINE
  5
414D
  8
SUNPOU
  6
CONTINUOUS
 62
     4
 10
26773.11808349999
 20
14406.230913999991
 30
0.0
 11
26773.11808349999
 21
14363.733619000001
 31
0.0
  0
LINE
  5
414E
  8
SUNPOU
  6
CONTINUOUS
 62
     4
 10
22713.118479499979
 20
20014.229199000009
 30
0.0
 11
22713.118479499979
 21
20744.232102000031
 31
0.0
  0
LINE
  5
414F
  8
SUNPOU
  6
CONTINUOUS
 62
     4
 10
23120.61847949999
 20
20014.229199000009
 30
0.0
 11
23120.61847949999
 21
20744.232102000031
 31
0.0
  0
LINE
  5
4150
  8
SUNPOU
  6
CONTINUOUS
 62
     4
 10
22713.118479499979
 20
20664.232102000031
 30
0.0
 11
23120.61847949999
 21
20664.232102000031
 31
0.0
  0
LINE
  5
4151
  8
SUNPOU
  6
CONTINUOUS
 62
     4
 10
24522.618479500001
 20
20014.229199000009
 30
0.0
 11
24522.618479500001
 21
20744.232102000031
 31
0.0
  0
LINE
  5
4152
  8
SUNPOU
  6
CONTINUOUS
 62
     4
 10
25280.619469000001
 20
20014.229199000009
 30
0.0
 11
25280.619469000001
 21
20744.232102000031
 31
0.0
  0
LINE
  5
4153
  8
SUNPOU
  6
CONTINUOUS
 62
     4
 10
24522.618479500001
 20
20664.232102000031
 30
0.0
 11
25280.619469000001
 21
20664.232102000031
 31
0.0
  0
LINE
  5
4154
  8
SUNPOU
  6
CONTINUOUS
 62
     4
 10
23821.61847949999
 20
20014.229199000009
 30
0.0
 11
23821.61847949999
 21
20744.232102000031
 31
0.0
  0
LINE
  5
4155
  8
SUNPOU
  6
CONTINUOUS
 62
     4
 10
24522.618479500001
 20
20014.229199000009
 30
0.0
 11
24522.618479500001
 21
20744.232102000031
 31
0.0
  0
LINE
  5
4156
  8
SUNPOU
  6
CONTINUOUS
 62
     4
 10
23821.61847949999
 20
20664.232102000031
 30
0.0
 11
24522.618479500001
 21
20664.232102000031
 31
0.0
  0
LINE
  5
4157
  8
SUNPOU
  6
CONTINUOUS
 62
     4
 10
23120.61847949999
 20
20014.229199000009
 30
0.0
 11
23120.61847949999
 21
20744.232102000031
 31
0.0
  0
LINE
  5
4158
  8
SUNPOU
  6
CONTINUOUS
 62
     4
 10
23821.61847949999
 20
20014.229199000009
 30
0.0
 11
23821.61847949999
 21
20744.232102000031
 31
0.0
  0
LINE
  5
4159
  8
SUNPOU
  6
CONTINUOUS
 62
     4
 10
23120.61847949999
 20
20664.232102000031
 30
0.0
 11
23821.61847949999
 21
20664.232102000031
 31
0.0
  0
LINE
  5
415A
  8
SUNPOU
  6
CONTINUOUS
 62
     4
 10
25280.618479500001
 20
20014.229199000009
 30
0.0
 11
25280.618479500001
 21
20744.232102000031
 31
0.0
  0
LINE
  5
415B
  8
SUNPOU
  6
CONTINUOUS
 62
     4
 10
25323.114784500001
 20
20014.229199000009
 30
0.0
 11
25323.114784500001
 21
20744.232102000031
 31
0.0
  0
LINE
  5
415C
  8
SUNPOU
  6
CONTINUOUS
 62
     4
 10
25280.618479500001
 20
20664.232102000031
 30
0.0
 11
25040.618479500001
 21
20664.232102000031
 31
0.0
  0
LINE
  5
415D
  8
SUNPOU
  6
CONTINUOUS
 62
     4
 10
25323.114784500001
 20
20664.232102000031
 30
0.0
 11
25563.114784500001
 21
20664.232102000031
 31
0.0
  0
LINE
  5
415E
  8
SUNPOU
  6
CONTINUOUS
 62
     4
 10
25280.618479500001
 20
20664.232102000031
 30
0.0
 11
25323.114784500001
 21
20664.232102000031
 31
0.0
  0
LINE
  5
415F
  8
SUNPOU
  6
CONTINUOUS
 62
     4
 10
20145.618479500001
 20
20014.229199000009
 30
0.0
 11
20145.618479500001
 21
20744.232102000031
 31
0.0
  0
LINE
  5
4160
  8
SUNPOU
  6
CONTINUOUS
 62
     4
 10
20553.118479500001
 20
20014.229199000009
 30
0.0
 11
20553.118479500001
 21
20744.232102000031
 31
0.0
  0
LINE
  5
4161
  8
SUNPOU
  6
CONTINUOUS
 62
     4
 10
20145.618479500001
 20
20664.232102000031
 30
0.0
 11
20553.118479500001
 21
20664.232102000031
 31
0.0
  0
LINE
  5
4162
  8
SUNPOU
  6
CONTINUOUS
 62
     4
 10
20145.618479500001
 20
20014.229199000009
 30
0.0
 11
20145.618479500001
 21
20744.232102000031
 31
0.0
  0
LINE
  5
4163
  8
SUNPOU
  6
CONTINUOUS
 62
     4
 10
20103.122174499989
 20
20014.229199000009
 30
0.0
 11
20103.122174499989
 21
20744.232102000031
 31
0.0
  0
LINE
  5
4164
  8
SUNPOU
  6
CONTINUOUS
 62
     4
 10
20145.618479500001
 20
20664.232102000031
 30
0.0
 11
20385.618479500001
 21
20664.232102000031
 31
0.0
  0
LINE
  5
4165
  8
SUNPOU
  6
CONTINUOUS
 62
     4
 10
20103.122174499989
 20
20664.232102000031
 30
0.0
 11
19863.122174499989
 21
20664.232102000031
 31
0.0
  0
LINE
  5
4166
  8
SUNPOU
  6
CONTINUOUS
 62
     4
 10
20145.618479500001
 20
20664.232102000031
 30
0.0
 11
20103.122174499989
 21
20664.232102000031
 31
0.0
  0
LINE
  5
4167
  8
SUNPOU
  6
CONTINUOUS
 62
     4
 10
21955.11847949999
 20
20014.229199000009
 30
0.0
 11
21955.11847949999
 21
20744.232102000031
 31
0.0
  0
LINE
  5
4168
  8
SUNPOU
  6
CONTINUOUS
 62
     4
 10
22713.119469000001
 20
20014.229199000009
 30
0.0
 11
22713.119469000001
 21
20744.232102000031
 31
0.0
  0
LINE
  5
4169
  8
SUNPOU
  6
CONTINUOUS
 62
     4
 10
21955.11847949999
 20
20664.232102000031
 30
0.0
 11
22713.119469000001
 21
20664.232102000031
 31
0.0
  0
LINE
  5
416A
  8
SUNPOU
  6
CONTINUOUS
 62
     4
 10
21254.11847949999
 20
20014.229199000009
 30
0.0
 11
21254.11847949999
 21
20744.232102000031
 31
0.0
  0
LINE
  5
416B
  8
SUNPOU
  6
CONTINUOUS
 62
     4
 10
21955.11847949999
 20
20014.229199000009
 30
0.0
 11
21955.11847949999
 21
20744.232102000031
 31
0.0
  0
LINE
  5
416C
  8
SUNPOU
  6
CONTINUOUS
 62
     4
 10
21254.11847949999
 20
20664.232102000031
 30
0.0
 11
21955.11847949999
 21
20664.232102000031
 31
0.0
  0
LINE
  5
416D
  8
SUNPOU
  6
CONTINUOUS
 62
     4
 10
20553.118479500001
 20
20014.229199000009
 30
0.0
 11
20553.118479500001
 21
20744.232102000031
 31
0.0
  0
LINE
  5
416E
  8
SUNPOU
  6
CONTINUOUS
 62
     4
 10
21254.11847949999
 20
20014.229199000009
 30
0.0
 11
21254.11847949999
 21
20744.232102000031
 31
0.0
  0
LINE
  5
416F
  8
SUNPOU
  6
CONTINUOUS
 62
     4
 10
20553.118479500001
 20
20664.232102000031
 30
0.0
 11
21254.11847949999
 21
20664.232102000031
 31
0.0
  0
LINE
  5
4170
  8
SUNPOU
  6
CONTINUOUS
 62
     4
 10
8769.3738785000023
 20
8722.9653796838102
 30
0.0
 11
8769.3738785000023
 21
9843.7812800000029
 31
0.0
  0
LINE
  5
4171
  8
SUNPOU
  6
CONTINUOUS
 62
     4
 10
8589.3738785000023
 20
8852.7796040000067
 30
0.0
 11
8589.3738785000023
 21
9843.7812800000029
 31
0.0
  0
LINE
  5
4172
  8
SUNPOU
  6
CONTINUOUS
 62
     4
 10
8769.3738785000023
 20
9763.7812800000029
 30
0.0
 11
8589.3738785000023
 21
9763.7812800000029
 31
0.0
  0
LINE
  5
4173
  8
SUNPOU
  6
CONTINUOUS
 62
     4
 10
20015.6178205
 20
6615.7796039999957
 30
0.0
 11
19215.619139499991
 21
6615.7796039999957
 31
0.0
  0
LINE
  5
4174
  8
SUNPOU
  6
CONTINUOUS
 62
     4
 10
20015.6178205
 20
8507.2796039999957
 30
0.0
 11
19215.619139499991
 21
8507.2796039999957
 31
0.0
  0
LINE
  5
4175
  8
SUNPOU
  6
CONTINUOUS
 62
     4
 10
19295.619139499991
 20
6615.7796039999957
 30
0.0
 11
19295.619139499991
 21
8507.2796039999957
 31
0.0
  0
LINE
  5
4176
  8
SUNPOU
  6
CONTINUOUS
 62
     4
 10
20015.6178205
 20
6615.7796039999957
 30
0.0
 11
18815.616830499981
 21
6615.7796039999957
 31
0.0
  0
LINE
  5
4177
  8
SUNPOU
  6
CONTINUOUS
 62
     4
 10
19983.118084499969
 20
8964.2791089999973
 30
0.0
 11
18815.616830499981
 21
8964.2791089999973
 31
0.0
  0
LINE
  5
4178
  8
SUNPOU
  6
CONTINUOUS
 62
     4
 10
18895.616830499981
 20
6615.7796039999957
 30
0.0
 11
18895.616830499981
 21
8964.2791089999973
 31
0.0
  0
LINE
  5
4189
  8
SUNPOU
  6
CONTINUOUS
 62
     4
 10
20239.61847949999
 20
6435.7797690000007
 30
0.0
 11
20239.61847949999
 21
5635.7797689999989
 31
0.0
  0
LINE
  5
418A
  8
SUNPOU
  6
CONTINUOUS
 62
     4
 10
22619.11847949999
 20
6435.7797690000007
 30
0.0
 11
22619.11847949999
 21
5635.7797689999989
 31
0.0
  0
LINE
  5
418B
  8
SUNPOU
  6
CONTINUOUS
 62
     4
 10
20239.61847949999
 20
5715.7797689999998
 30
0.0
 11
22619.11847949999
 21
5715.7797689999998
 31
0.0
  0
LINE
  5
418C
  8
SUNPOU
  6
CONTINUOUS
 62
     4
 10
22807.11847949999
 20
6435.7797690000007
 30
0.0
 11
22807.11847949999
 21
5635.7797689999989
 31
0.0
  0
LINE
  5
418D
  8
SUNPOU
  6
CONTINUOUS
 62
     4
 10
25186.618479499979
 20
6435.7797690000007
 30
0.0
 11
25186.618479499979
 21
5635.7797689999989
 31
0.0
  0
LINE
  5
418E
  8
SUNPOU
  6
CONTINUOUS
 62
     4
 10
22807.11847949999
 20
5715.7797689999998
 30
0.0
 11
25186.618479499979
 21
5715.7797689999998
 31
0.0
  0
LINE
  5
418F
  8
SUNPOU
  6
CONTINUOUS
 62
     4
 10
22713.118479499979
 20
6173.1273459999966
 30
0.0
 11
22713.118479499979
 21
5235.7797689999998
 31
0.0
  0
LINE
  5
4190
  8
SUNPOU
  6
CONTINUOUS
 62
     4
 10
25280.618479500001
 20
6173.1273459999966
 30
0.0
 11
25280.618479500001
 21
5235.7797689999998
 31
0.0
  0
LINE
  5
4191
  8
SUNPOU
  6
CONTINUOUS
 62
     4
 10
22713.118479499979
 20
5315.7797690000016
 30
0.0
 11
25280.618479500001
 21
5315.7797690000016
 31
0.0
  0
LINE
  5
4192
  8
SUNPOU
  6
CONTINUOUS
 62
     4
 10
20145.618479500001
 20
6173.1273459999966
 30
0.0
 11
20145.618479500001
 21
5235.7797689999998
 31
0.0
  0
LINE
  5
4193
  8
SUNPOU
  6
CONTINUOUS
 62
     4
 10
22713.118479499979
 20
6173.1273459999966
 30
0.0
 11
22713.118479499979
 21
5235.7797689999998
 31
0.0
  0
LINE
  5
4194
  8
SUNPOU
  6
CONTINUOUS
 62
     4
 10
20145.618479500001
 20
5315.7797690000016
 30
0.0
 11
22713.118479499979
 21
5315.7797690000016
 31
0.0
  0
LINE
  5
4195
  8
SUNPOU
  6
CONTINUOUS
 62
     4
 10
25280.622438499999
 20
6173.1273459999966
 30
0.0
 11
25280.622438499999
 21
5235.7797689999998
 31
0.0
  0
LINE
  5
4196
  8
SUNPOU
  6
CONTINUOUS
 62
     4
 10
25323.122438499991
 20
6435.7797690000007
 30
0.0
 11
25323.122438499991
 21
5235.7797689999998
 31
0.0
  0
LINE
  5
4197
  8
SUNPOU
  6
CONTINUOUS
 62
     4
 10
25280.622438499999
 20
5315.7797690000016
 30
0.0
 11
25040.622438499991
 21
5315.7797690000016
 31
0.0
  0
LINE
  5
4198
  8
SUNPOU
  6
CONTINUOUS
 62
     4
 10
25323.122438499991
 20
5315.7797690000016
 30
0.0
 11
25563.122438499991
 21
5315.7797690000016
 31
0.0
  0
LINE
  5
4199
  8
SUNPOU
  6
CONTINUOUS
 62
     4
 10
25280.622438499999
 20
5315.7797690000016
 30
0.0
 11
25323.122438499991
 21
5315.7797690000016
 31
0.0
  0
LINE
  5
419A
  8
SUNPOU
  6
CONTINUOUS
 62
     4
 10
20145.618479500001
 20
6173.1273459999966
 30
0.0
 11
20145.618479500001
 21
5235.7797689999998
 31
0.0
  0
LINE
  5
419B
  8
SUNPOU
  6
CONTINUOUS
 62
     4
 10
20103.11847949999
 20
6435.7797690000007
 30
0.0
 11
20103.11847949999
 21
5235.7797689999998
 31
0.0
  0
LINE
  5
419C
  8
SUNPOU
  6
CONTINUOUS
 62
     4
 10
20145.618479500001
 20
5315.7797690000016
 30
0.0
 11
20385.618479500001
 21
5315.7797690000016
 31
0.0
  0
LINE
  5
419D
  8
SUNPOU
  6
CONTINUOUS
 62
     4
 10
20103.11847949999
 20
5315.7797690000016
 30
0.0
 11
19863.118479499979
 21
5315.7797690000016
 31
0.0
  0
LINE
  5
419E
  8
SUNPOU
  6
CONTINUOUS
 62
     4
 10
20145.618479500001
 20
5315.7797690000016
 30
0.0
 11
20103.11847949999
 21
5315.7797690000016
 31
0.0
  0
LINE
  5
419F
  8
SUNPOU
  6
CONTINUOUS
 62
     4
 10
20103.11847949999
 20
6435.7797690000007
 30
0.0
 11
20103.11847949999
 21
4835.7799339999983
 31
0.0
  0
LINE
  5
41A0
  8
SUNPOU
  6
CONTINUOUS
 62
     4
 10
25323.11847949999
 20
6435.7797690000007
 30
0.0
 11
25323.11847949999
 21
4835.7799339999983
 31
0.0
  0
LINE
  5
41A1
  8
SUNPOU
  6
CONTINUOUS
 62
     4
 10
20103.11847949999
 20
4915.7799339999983
 30
0.0
 11
25323.11847949999
 21
4915.7799339999983
 31
0.0
  0
LINE
  5
41A2
  8
SUNPOU
  6
CONTINUOUS
 62
     4
 10
14432.373878500001
 20
6615.7796040000021
 30
0.0
 11
15509.87229449999
 21
6615.7796040000021
 31
0.0
  0
LINE
  5
41A3
  8
SUNPOU
  6
CONTINUOUS
 62
     4
 10
14524.679158099359
 20
8964.279604000003
 30
0.0
 11
15509.87229449999
 21
8964.279604000003
 31
0.0
  0
LINE
  5
41A4
  8
SUNPOU
  6
CONTINUOUS
 62
     4
 10
15429.87229449999
 20
6615.7796040000021
 30
0.0
 11
15429.87229449999
 21
8964.279604000003
 31
0.0
  0
LINE
  5
41A5
  8
SUNPOU
  6
CONTINUOUS
 62
     4
 10
8681.8738785000005
 20
6615.7796040000021
 30
0.0
 11
7599.3754605000086
 21
6615.7796040000021
 31
0.0
  0
LINE
  5
41A6
  8
SUNPOU
  6
CONTINUOUS
 62
     4
 10
8509.3758565000026
 20
8771.7796040000067
 30
0.0
 11
7599.3754605000086
 21
8771.7796040000067
 31
0.0
  0
LINE
  5
41A7
  8
SUNPOU
  6
CONTINUOUS
 62
     4
 10
7679.3754605000104
 20
6615.7796040000021
 30
0.0
 11
7679.3754605000104
 21
8771.7796040000067
 31
0.0
  0
LINE
  5
41A8
  8
SUNPOU
  6
CONTINUOUS
 62
     4
 10
8589.3738785000023
 20
8852.7796040000067
 30
0.0
 11
8589.3738785000023
 21
10243.779630000001
 31
0.0
  0
LINE
  5
41A9
  8
SUNPOU
  6
CONTINUOUS
 62
     4
 10
14489.873878500001
 20
8984.6694274124347
 30
0.0
 11
14489.873878500001
 21
10243.779630000001
 31
0.0
  0
LINE
  5
41AA
  8
SUNPOU
  6
CONTINUOUS
 62
     4
 10
8589.3738785000023
 20
10163.779630000001
 30
0.0
 11
14489.873878500001
 21
10163.779630000001
 31
0.0
  0
LINE
  5
41AB
  8
SUNPOU
  6
CONTINUOUS
 62
     4
 10
14339.873878500001
 20
8910.6896680000063
 30
0.0
 11
14339.873878500001
 21
9843.7812800000029
 31
0.0
  0
LINE
  5
41AC
  8
SUNPOU
  6
CONTINUOUS
 62
     4
 10
14489.873878500001
 20
8984.6694274124347
 30
0.0
 11
14489.873878500001
 21
9843.7812800000029
 31
0.0
  0
LINE
  5
41AD
  8
SUNPOU
  6
CONTINUOUS
 62
     4
 10
14339.873878500001
 20
9763.7812800000029
 30
0.0
 11
14099.873878500001
 21
9763.7812800000029
 31
0.0
  0
LINE
  5
41AE
  8
SUNPOU
  6
CONTINUOUS
 62
     4
 10
14489.873878500001
 20
9763.7812800000029
 30
0.0
 11
14729.873878500001
 21
9763.7812800000029
 31
0.0
  0
LINE
  5
41AF
  8
SUNPOU
  6
CONTINUOUS
 62
     4
 10
14339.873878500001
 20
9763.7812800000029
 30
0.0
 11
14489.873878500001
 21
9763.7812800000029
 31
0.0
  0
LINE
  5
41B0
  8
SUNPOU
  6
CONTINUOUS
 62
     4
 10
8769.3738785000023
 20
8722.9653796838102
 30
0.0
 11
8769.3738785000023
 21
9843.7812800000029
 31
0.0
  0
LINE
  5
41B1
  8
SUNPOU
  6
CONTINUOUS
 62
     4
 10
14339.873878500001
 20
8910.6896680000063
 30
0.0
 11
14339.873878500001
 21
9843.7812800000029
 31
0.0
  0
LINE
  5
41B2
  8
SUNPOU
  6
CONTINUOUS
 62
     4
 10
8769.3738785000023
 20
9763.7812800000029
 30
0.0
 11
14339.873878500001
 21
9763.7812800000029
 31
0.0
  0
LINE
  5
41B3
  8
SUNPOU
  6
CONTINUOUS
 62
     4
 10
8769.3738785000023
 20
6535.7796040000076
 30
0.0
 11
8769.3738785000023
 21
4835.7799340000038
 31
0.0
  0
LINE
  5
41B4
  8
SUNPOU
  6
CONTINUOUS
 62
     4
 10
14339.873878500001
 20
6535.7796040000076
 30
0.0
 11
14339.873878500001
 21
4835.7799340000038
 31
0.0
  0
LINE
  5
41B5
  8
SUNPOU
  6
CONTINUOUS
 62
     4
 10
8769.3738785000023
 20
4915.7799340000047
 30
0.0
 11
14339.873878500001
 21
4915.7799340000047
 31
0.0
  0
LINE
  5
41B6
  8
SUNPOU
  6
CONTINUOUS
 62
     4
 10
14297.373878500001
 20
6173.1273460000039
 30
0.0
 11
14297.373878500001
 21
5235.7797690000043
 31
0.0
  0
LINE
  5
41B7
  8
SUNPOU
  6
CONTINUOUS
 62
     4
 10
14339.873878500001
 20
6535.7796040000076
 30
0.0
 11
14339.873878500001
 21
5235.7797690000043
 31
0.0
  0
LINE
  5
41B8
  8
SUNPOU
  6
CONTINUOUS
 62
     4
 10
14297.373878500001
 20
5315.7797690000052
 30
0.0
 11
14057.373878500001
 21
5315.7797690000052
 31
0.0
  0
LINE
  5
41B9
  8
SUNPOU
  6
CONTINUOUS
 62
     4
 10
14339.873878500001
 20
5315.7797690000052
 30
0.0
 11
14579.873878500001
 21
5315.7797690000052
 31
0.0
  0
LINE
  5
41BA
  8
SUNPOU
  6
CONTINUOUS
 62
     4
 10
14297.373878500001
 20
5315.7797690000052
 30
0.0
 11
14339.873878500001
 21
5315.7797690000052
 31
0.0
  0
LINE
  5
41BB
  8
SUNPOU
  6
CONTINUOUS
 62
     4
 10
8811.8738785000005
 20
6173.1273460000039
 30
0.0
 11
8811.8738785000005
 21
5235.7797690000043
 31
0.0
  0
LINE
  5
41BC
  8
SUNPOU
  6
CONTINUOUS
 62
     4
 10
8769.3738785000023
 20
6535.7796040000076
 30
0.0
 11
8769.3738785000023
 21
5235.7797690000043
 31
0.0
  0
LINE
  5
41BD
  8
SUNPOU
  6
CONTINUOUS
 62
     4
 10
8811.8738785000005
 20
5315.7797690000052
 30
0.0
 11
9051.8738785000023
 21
5315.7797690000052
 31
0.0
  0
LINE
  5
41BE
  8
SUNPOU
  6
CONTINUOUS
 62
     4
 10
8769.3738785000023
 20
5315.7797690000052
 30
0.0
 11
8529.3738785000023
 21
5315.7797690000052
 31
0.0
  0
LINE
  5
41BF
  8
SUNPOU
  6
CONTINUOUS
 62
     4
 10
8811.8738785000005
 20
5315.7797690000052
 30
0.0
 11
8769.3738785000023
 21
5315.7797690000052
 31
0.0
  0
LINE
  5
41C0
  8
SUNPOU
  6
CONTINUOUS
 62
     4
 10
11379.373878500001
 20
6173.1273460000039
 30
0.0
 11
11379.373878500001
 21
5235.7797690000043
 31
0.0
  0
LINE
  5
41C1
  8
SUNPOU
  6
CONTINUOUS
 62
     4
 10
8811.8738785000005
 20
6173.1273460000039
 30
0.0
 11
8811.8738785000005
 21
5235.7797690000043
 31
0.0
  0
LINE
  5
41C2
  8
SUNPOU
  6
CONTINUOUS
 62
     4
 10
11379.373878500001
 20
5315.7797690000052
 30
0.0
 11
8811.8738785000005
 21
5315.7797690000052
 31
0.0
  0
LINE
  5
41C3
  8
SUNPOU
  6
CONTINUOUS
 62
     4
 10
11379.373878500001
 20
6173.1273460000039
 30
0.0
 11
11379.373878500001
 21
5235.7797690000043
 31
0.0
  0
LINE
  5
41C4
  8
SUNPOU
  6
CONTINUOUS
 62
     4
 10
14297.373878500001
 20
6173.1273460000039
 30
0.0
 11
14297.373878500001
 21
5235.7797690000043
 31
0.0
  0
LINE
  5
41C5
  8
SUNPOU
  6
CONTINUOUS
 62
     4
 10
11379.373878500001
 20
5315.7797690000052
 30
0.0
 11
14297.373878500001
 21
5315.7797690000052
 31
0.0
  0
TEXT
  5
41C6
  8
0
  6
CONTINUOUS
 62
     7
 10
12571.707211833331
 20
5395.7797690000043
 30
0.0
 40
160.0
  1
2918
  0
TEXT
  5
41C7
  8
0
  6
CONTINUOUS
 62
     7
 10
9695.6238785000023
 20
5395.7797690000043
 30
0.0
 40
160.0
  1
2567.5
  0
TEXT
  5
41C8
  8
0
  6
CONTINUOUS
 62
     7
 10
8172.2001694036962
 20
5395.7797690000043
 30
0.0
 40
160.0
  1
42.5
  0
TEXT
  5
41C9
  8
0
  6
CONTINUOUS
 62
     7
 10
14478.192515809809
 20
5395.7797690000043
 30
0.0
 40
160.0
  1
42.5
  0
TEXT
  5
41CA
  8
0
  6
CONTINUOUS
 62
     7
 10
11167.957211833331
 20
4995.7799340000047
 30
0.0
 40
160.0
  1
5570.5
  0
TEXT
  5
41CB
  8
0
  6
CONTINUOUS
 62
     7
 10
11167.957211833331
 20
9843.7812800000029
 30
0.0
 40
160.0
  1
5570.5
  0
TEXT
  5
41CC
  8
0
  6
CONTINUOUS
 62
     7
 10
14556.54054516667
 20
9843.7812800000029
 30
0.0
 40
160.0
  1
150
  0
TEXT
  5
41CD
  8
0
  6
CONTINUOUS
 62
     7
 10
11166.29054516667
 20
10243.779630000001
 30
0.0
 40
160.0
  1
5900.5
  0
TEXT
  5
41CE
  8
0
  6
CONTINUOUS
 62
     7
 10
7599.3754605000086
 20
6915.112937333337
 30
0.0
 40
160.0
  1
2156（2396）
 50
90.0
  0
TEXT
  5
41CF
  8
0
  6
CONTINUOUS
 62
     7
 10
15349.87229449999
 20
6771.362937333337
 30
0.0
 40
160.0
  1
2348.5（2588.5）
 50
90.0
  0
TEXT
  5
41D0
  8
0
  6
CONTINUOUS
 62
     7
 10
22433.118479499979
 20
4995.7799339999983
 30
0.0
 40
160.0
  1
5220
  0
TEXT
  5
41D1
  8
0
  6
CONTINUOUS
 62
     7
 10
19537.07948924115
 20
5395.7797689999998
 30
0.0
 40
160.0
  1
42.5
  0
TEXT
  5
41D2
  8
0
  6
CONTINUOUS
 62
     7
 10
25409.161428758849
 20
5395.7797689999998
 30
0.0
 40
160.0
  1
42.5
  0
TEXT
  5
41D3
  8
0
  6
CONTINUOUS
 62
     7
 10
21029.36847949999
 20
5395.7797689999998
 30
0.0
 40
160.0
  1
2567.5
  0
TEXT
  5
41D4
  8
0
  6
CONTINUOUS
 62
     7
 10
23596.86847949999
 20
5395.7797689999998
 30
0.0
 40
160.0
  1
2567.5
  0
TEXT
  5
41D5
  8
0
  6
CONTINUOUS
 62
     7
 10
23068.86847949999
 20
5795.7797690000007
 30
0.0
 40
160.0
  1
有効開口巾 2379.5
  0
TEXT
  5
41D6
  8
0
  6
CONTINUOUS
 62
     7
 10
20501.36847949999
 20
5795.7797690000007
 30
0.0
 40
160.0
  1
有効開口巾 2379.5
  0
TEXT
  5
41DB
  8
0
  6
CONTINUOUS
 62
     7
 10
18815.616830499981
 20
6771.3626898333332
 30
0.0
 40
160.0
  1
2348.5（2588.5）
 50
90.0
  0
TEXT
  5
41DC
  8
0
  6
CONTINUOUS
 62
     7
 10
19215.619139499991
 20
6679.7588422912713
 30
0.0
 40
160.0
  1
有効開口高サ 1891.5
 50
90.0
  0
TEXT
  5
41DD
  8
0
  6
CONTINUOUS
 62
     7
 10
8128.4205078486357
 20
9843.7812800000029
 30
0.0
 40
160.0
  1
180
  0
TEXT
  5
41DE
  8
0
  6
CONTINUOUS
 62
     7
 10
20730.285146166661
 20
20424.232102000031
 30
0.0
 40
160.0
  1
701
  0
TEXT
  5
41DF
  8
0
  6
CONTINUOUS
 62
     7
 10
21431.285146166661
 20
20744.232102000031
 30
0.0
 40
160.0
  1
701
  0
TEXT
  5
41E0
  8
0
  6
CONTINUOUS
 62
     7
 10
22120.785640916671
 20
20744.232102000031
 30
0.0
 40
160.0
  1
758
  0
TEXT
  5
41E1
  8
0
  6
CONTINUOUS
 62
     7
 10
19542.80649997119
 20
20744.232102000031
 30
0.0
 40
160.0
  1
42.5
  0
TEXT
  5
41E2
  8
0
  6
CONTINUOUS
 62
     7
 10
20246.451812833318
 20
20744.232102000031
 30
0.0
 40
160.0
  1
407.5
  0
TEXT
  5
41E3
  8
0
  6
CONTINUOUS
 62
     7
 10
25403.43045902879
 20
20744.232102000031
 30
0.0
 40
160.0
  1
42.5
  0
TEXT
  5
41E4
  8
0
  6
CONTINUOUS
 62
     7
 10
23297.785146166661
 20
20424.232102000031
 30
0.0
 40
160.0
  1
701
  0
TEXT
  5
41E5
  8
0
  6
CONTINUOUS
 62
     7
 10
23998.785146166661
 20
20744.232102000031
 30
0.0
 40
160.0
  1
701
  0
TEXT
  5
41E6
  8
0
  6
CONTINUOUS
 62
     7
 10
24688.285640916671
 20
20744.232102000031
 30
0.0
 40
160.0
  1
758
  0
TEXT
  5
41E7
  8
0
  6
CONTINUOUS
 62
     7
 10
22813.951812833329
 20
20744.232102000031
 30
0.0
 40
160.0
  1
407.5
  0
TEXT
  5
41E8
  8
0
  6
CONTINUOUS
 62
     7
 10
26693.11808349999
 20
13790.1773826032
 30
0.0
 40
160.0
  1
42.5
 50
90.0
  0
TEXT
  5
41E9
  8
0
  6
CONTINUOUS
 62
     7
 10
26693.11808349999
 20
20027.784445396788
 30
0.0
 40
160.0
  1
42.5
 50
90.0
  0
TEXT
  5
41EA
  8
0
  6
CONTINUOUS
 62
     7
 10
27093.11808349998
 20
16762.314247333339
 30
0.0
 40
160.0
  1
5570.5
 50
90.0
  0
TEXT
  5
41EB
  8
0
  6
CONTINUOUS
 62
     7
 10
26693.11808349999
 20
15598.56424733333
 30
0.0
 40
160.0
  1
2918
 50
90.0
  0
TEXT
  5
41EC
  8
0
  6
CONTINUOUS
 62
     7
 10
26693.11808349999
 20
18207.980914
 30
0.0
 40
160.0
  1
2567.5
 50
90.0
  0
TEXT
  5
41ED
  8
0
  6
CONTINUOUS
 62
     7
 10
26293.11808349999
 20
18960.397580666671
 30
0.0
 40
160.0
  1
701
 50
90.0
  0
TEXT
  5
41EE
  8
0
  6
CONTINUOUS
 62
     7
 10
26293.11808349999
 20
18259.397580666671
 30
0.0
 40
160.0
  1
701
 50
90.0
  0
TEXT
  5
41EF
  8
0
  6
CONTINUOUS
 62
     7
 10
26293.11808349999
 20
17489.897580666671
 30
0.0
 40
160.0
  1
758
 50
90.0
  0
TEXT
  5
41F0
  8
0
  6
CONTINUOUS
 62
     7
 10
26293.11808349999
 20
16731.897580666671
 30
0.0
 40
160.0
  1
758
 50
90.0
  0
TEXT
  5
41F1
  8
0
  6
CONTINUOUS
 62
     7
 10
26293.11808349999
 20
16042.51783641668
 30
0.0
 40
160.0
  1
701
 50
90.0
  0
TEXT
  5
41F2
  8
0
  6
CONTINUOUS
 62
     7
 10
26293.11808349999
 20
15341.51783641668
 30
0.0
 40
160.0
  1
701
 50
90.0
  0
TEXT
  5
41F3
  8
0
  6
CONTINUOUS
 62
     7
 10
26293.11808349999
 20
14571.89758066666
 30
0.0
 40
160.0
  1
758
 50
90.0
  0
TEXT
  5
41F4
  8
0
  6
CONTINUOUS
 62
     7
 10
22433.118479500001
 20
13114.78283
 30
0.0
 40
160.0
  1
5220
  0
TEXT
  5
41F5
  8
0
  6
CONTINUOUS
 62
     7
 10
20263.672151882089
 20
13514.78283
 30
0.0
 40
160.0
  1
42.5
  0
TEXT
  5
41F6
  8
0
  6
CONTINUOUS
 62
     7
 10
24682.564807117891
 20
13514.78283
 30
0.0
 40
160.0
  1
42.5
  0
TEXT
  5
41F7
  8
0
  6
CONTINUOUS
 62
     7
 10
25398.672151882089
 20
13514.78283
 30
0.0
 40
160.0
  1
42.5
  0
TEXT
  5
41F8
  8
0
  6
CONTINUOUS
 62
     7
 10
19547.56480711788
 20
13514.78283
 30
0.0
 40
160.0
  1
42.5
  0
TEXT
  5
41F9
  8
0
  6
CONTINUOUS
 62
     7
 10
19136.163902499979
 20
14869.18450308333
 30
0.0
 40
160.0
  1
1459
 50
90.0
  0
TEXT
  5
41FA
  8
0
  6
CONTINUOUS
 62
     7
 10
19136.163902499979
 20
16328.184503083339
 30
0.0
 40
160.0
  1
1459
 50
90.0
  0
TEXT
  5
41FB
  8
0
  6
CONTINUOUS
 62
     7
 10
19136.163902499979
 20
17787.06424733331
 30
0.0
 40
160.0
  1
1459
 50
90.0
  0
TEXT
  5
41FC
  8
0
  6
CONTINUOUS
 62
     7
 10
19136.163902499979
 20
19004.147580666671
 30
0.0
 40
160.0
  1
1108.5
 50
90.0
  0
TEXT
  5
41FD
  8
0
  6
CONTINUOUS
 62
     7
 10
26653.11808349999
 20
19193.608881643198
 30
0.0
 40
160.0
  1
407.5
 50
90.0
  0
TEXT
  5
41FE
  8
0
  6
CONTINUOUS
 62
     7
 10
13301.407186499981
 20
20744.236062000022
 30
0.0
 40
160.0
  1
2567.5
  0
TEXT
  5
41FF
  8
0
  6
CONTINUOUS
 62
     7
 10
15121.65092352323
 20
20744.236062000022
 30
0.0
 40
160.0
  1
85.5
  0
TEXT
  5
4200
  8
0
  6
CONTINUOUS
 62
     7
 10
10733.913124499981
 20
20744.236062000022
 30
0.0
 40
160.0
  1
2567.5
  0
TEXT
  5
4201
  8
0
  6
CONTINUOUS
 62
     7
 10
9233.6693874767352
 20
20744.236062000022
 30
0.0
 40
160.0
  1
85.5
  0
TEXT
  5
4202
  8
0
  6
CONTINUOUS
 62
     7
 10
8840.6607044999946
 20
19004.147580666671
 30
0.0
 40
160.0
  1
1108.5
 50
90.0
  0
TEXT
  5
4203
  8
0
  6
CONTINUOUS
 62
     7
 10
8840.6607044999855
 20
20203.186098807681
 30
0.0
 40
160.0
  1
222.5
 50
90.0
  0
TEXT
  5
4204
  8
0
  6
CONTINUOUS
 62
     7
 10
9240.6607044999946
 20
20234.226823000001
 30
0.0
 40
160.0
  1
20
 50
90.0
  0
TEXT
  5
4205
  8
0
  6
CONTINUOUS
 62
     7
 10
8840.6607044999946
 20
17787.06424733331
 30
0.0
 40
160.0
  1
1459
 50
90.0
  0
TEXT
  5
4206
  8
0
  6
CONTINUOUS
 62
     7
 10
8840.6607044999946
 20
16328.184503083339
 30
0.0
 40
160.0
  1
1459
 50
90.0
  0
TEXT
  5
4207
  8
0
  6
CONTINUOUS
 62
     7
 10
8840.6607044999946
 20
14869.18450308333
 30
0.0
 40
160.0
  1
1459
 50
90.0
  0
TEXT
  5
4208
  8
0
  6
CONTINUOUS
 62
     7
 10
8840.6588944999894
 20
13598.27790370263
 30
0.0
 40
160.0
  1
192.5
 50
90.0
  0
ARC
  5
420E
  8
0
  6
BYBLOCK
 62
     0
 10
8920.6588944999967
 20
14406.230913999991
 30
0.0
 40
15.0
 50
270.0
 51
90.0
  0
ARC
  5
420F
  8
0
  6
BYBLOCK
 62
     0
 10
8920.6588944999967
 20
14406.230913999991
 30
0.0
 40
15.0
 50
90.0
 51
270.0
  0
ARC
  5
4210
  8
0
  6
BYBLOCK
 62
     0
 10
8920.6588944999967
 20
14213.735599
 30
0.0
 40
15.0
 50
90.0
 51
270.0
  0
ARC
  5
4211
  8
0
  6
BYBLOCK
 62
     0
 10
8920.6588944999967
 20
14213.735599
 30
0.0
 40
15.0
 50
270.0
 51
90.0
  0
ARC
  5
4212
  8
0
  6
BYBLOCK
 62
     0
 10
8920.6607044999946
 20
15865.47142550002
 30
0.0
 40
15.0
 50
270.0
 51
90.0
  0
ARC
  5
4213
  8
0
  6
BYBLOCK
 62
     0
 10
8920.6607044999946
 20
15865.47142550002
 30
0.0
 40
15.0
 50
90.0
 51
270.0
  0
ARC
  5
4214
  8
0
  6
BYBLOCK
 62
     0
 10
8920.6607044999946
 20
14406.230913999991
 30
0.0
 40
15.0
 50
90.0
 51
270.0
  0
ARC
  5
4215
  8
0
  6
BYBLOCK
 62
     0
 10
8920.6607044999946
 20
14406.230913999991
 30
0.0
 40
15.0
 50
270.0
 51
90.0
  0
ARC
  5
4216
  8
0
  6
BYBLOCK
 62
     0
 10
8920.6607044999946
 20
17324.230914
 30
0.0
 40
15.0
 50
270.0
 51
90.0
  0
ARC
  5
4217
  8
0
  6
BYBLOCK
 62
     0
 10
8920.6607044999946
 20
17324.230914
 30
0.0
 40
15.0
 50
90.0
 51
270.0
  0
ARC
  5
4218
  8
0
  6
BYBLOCK
 62
     0
 10
8920.6607044999946
 20
15865.47142550002
 30
0.0
 40
15.0
 50
90.0
 51
270.0
  0
ARC
  5
4219
  8
0
  6
BYBLOCK
 62
     0
 10
8920.6607044999946
 20
15865.47142550002
 30
0.0
 40
15.0
 50
270.0
 51
90.0
  0
ARC
  5
421A
  8
0
  6
BYBLOCK
 62
     0
 10
8920.6607044999946
 20
18783.230914
 30
0.0
 40
15.0
 50
270.0
 51
90.0
  0
ARC
  5
421B
  8
0
  6
BYBLOCK
 62
     0
 10
8920.6607044999946
 20
18783.230914
 30
0.0
 40
15.0
 50
90.0
 51
270.0
  0
ARC
  5
421C
  8
0
  6
BYBLOCK
 62
     0
 10
8920.6607044999946
 20
17324.230914
 30
0.0
 40
15.0
 50
90.0
 51
270.0
  0
ARC
  5
421D
  8
0
  6
BYBLOCK
 62
     0
 10
8920.6607044999946
 20
17324.230914
 30
0.0
 40
15.0
 50
270.0
 51
90.0
  0
ARC
  5
421E
  8
0
  6
BYBLOCK
 62
     0
 10
9320.6607044999946
 20
20094.226823000001
 30
0.0
 40
15.0
 50
270.0
 51
90.0
  0
ARC
  5
421F
  8
0
  6
BYBLOCK
 62
     0
 10
9320.6607044999946
 20
20094.226823000001
 30
0.0
 40
15.0
 50
90.0
 51
270.0
  0
ARC
  5
4220
  8
0
  6
BYBLOCK
 62
     0
 10
9320.6607044999946
 20
20114.226823000001
 30
0.0
 40
15.0
 50
90.0
 51
270.0
  0
ARC
  5
4221
  8
0
  6
BYBLOCK
 62
     0
 10
9320.6607044999946
 20
20114.226823000001
 30
0.0
 40
15.0
 50
270.0
 51
90.0
  0
ARC
  5
4222
  8
0
  6
BYBLOCK
 62
     0
 10
8920.6607044999946
 20
19891.730914
 30
0.0
 40
15.0
 50
90.0
 51
270.0
  0
ARC
  5
4223
  8
0
  6
BYBLOCK
 62
     0
 10
8920.6607044999946
 20
19891.730914
 30
0.0
 40
15.0
 50
270.0
 51
90.0
  0
ARC
  5
4224
  8
0
  6
BYBLOCK
 62
     0
 10
8920.6607044999946
 20
20114.226823000001
 30
0.0
 40
15.0
 50
270.0
 51
90.0
  0
ARC
  5
4225
  8
0
  6
BYBLOCK
 62
     0
 10
8920.6607044999946
 20
20114.226823000001
 30
0.0
 40
15.0
 50
90.0
 51
270.0
  0
ARC
  5
4226
  8
0
  6
BYBLOCK
 62
     0
 10
8920.6607044999946
 20
18783.230914
 30
0.0
 40
15.0
 50
90.0
 51
270.0
  0
ARC
  5
4227
  8
0
  6
BYBLOCK
 62
     0
 10
8920.6607044999946
 20
18783.230914
 30
0.0
 40
15.0
 50
270.0
 51
90.0
  0
ARC
  5
4228
  8
0
  6
BYBLOCK
 62
     0
 10
8920.6607044999946
 20
19891.730914
 30
0.0
 40
15.0
 50
270.0
 51
90.0
  0
ARC
  5
4229
  8
0
  6
BYBLOCK
 62
     0
 10
8920.6607044999946
 20
19891.730914
 30
0.0
 40
15.0
 50
90.0
 51
270.0
  0
ARC
  5
422A
  8
0
  6
BYBLOCK
 62
     0
 10
9850.1660935000036
 20
20664.236062000022
 30
0.0
 40
15.0
 50
0.0
 51
180.0
  0
ARC
  5
422B
  8
0
  6
BYBLOCK
 62
     0
 10
9850.1660935000036
 20
20664.236062000022
 30
0.0
 40
15.0
 50
180.0
 51
0.0
  0
ARC
  5
422C
  8
0
  6
BYBLOCK
 62
     0
 10
9764.6660935000036
 20
20664.236062000022
 30
0.0
 40
15.0
 50
180.0
 51
0.0
  0
ARC
  5
422D
  8
0
  6
BYBLOCK
 62
     0
 10
9764.6660935000036
 20
20664.236062000022
 30
0.0
 40
15.0
 50
0.0
 51
180.0
  0
ARC
  5
422E
  8
0
  6
BYBLOCK
 62
     0
 10
12417.66015549998
 20
20664.236062000022
 30
0.0
 40
15.0
 50
180.0
 51
0.0
  0
ARC
  5
422F
  8
0
  6
BYBLOCK
 62
     0
 10
12417.66015549998
 20
20664.236062000022
 30
0.0
 40
15.0
 50
0.0
 51
180.0
  0
ARC
  5
4230
  8
0
  6
BYBLOCK
 62
     0
 10
9850.1660935000036
 20
20664.236062000022
 30
0.0
 40
15.0
 50
0.0
 51
180.0
  0
ARC
  5
4231
  8
0
  6
BYBLOCK
 62
     0
 10
9850.1660935000036
 20
20664.236062000022
 30
0.0
 40
15.0
 50
180.0
 51
0.0
  0
ARC
  5
4232
  8
0
  6
BYBLOCK
 62
     0
 10
14985.154217499959
 20
20664.236062000022
 30
0.0
 40
15.0
 50
180.0
 51
0.0
  0
ARC
  5
4233
  8
0
  6
BYBLOCK
 62
     0
 10
14985.154217499959
 20
20664.236062000022
 30
0.0
 40
15.0
 50
0.0
 51
180.0
  0
ARC
  5
4234
  8
0
  6
BYBLOCK
 62
     0
 10
15067.654217499959
 20
20664.236062000022
 30
0.0
 40
15.0
 50
0.0
 51
180.0
  0
ARC
  5
4235
  8
0
  6
BYBLOCK
 62
     0
 10
15067.654217499959
 20
20664.236062000022
 30
0.0
 40
15.0
 50
180.0
 51
0.0
  0
ARC
  5
4236
  8
0
  6
BYBLOCK
 62
     0
 10
12417.66015549998
 20
20664.236062000022
 30
0.0
 40
15.0
 50
0.0
 51
180.0
  0
ARC
  5
4237
  8
0
  6
BYBLOCK
 62
     0
 10
12417.66015549998
 20
20664.236062000022
 30
0.0
 40
15.0
 50
180.0
 51
0.0
  0
ARC
  5
4238
  8
0
  6
BYBLOCK
 62
     0
 10
14985.154217499959
 20
20664.236062000022
 30
0.0
 40
15.0
 50
180.0
 51
0.0
  0
ARC
  5
4239
  8
0
  6
BYBLOCK
 62
     0
 10
14985.154217499959
 20
20664.236062000022
 30
0.0
 40
15.0
 50
0.0
 51
180.0
  0
ARC
  5
423A
  8
0
  6
BYBLOCK
 62
     0
 10
26373.11808349999
 20
19484.230914
 30
0.0
 40
15.0
 50
90.0
 51
270.0
  0
ARC
  5
423B
  8
0
  6
BYBLOCK
 62
     0
 10
26373.11808349999
 20
19484.230914
 30
0.0
 40
15.0
 50
270.0
 51
90.0
  0
ARC
  5
423C
  8
0
  6
BYBLOCK
 62
     0
 10
26373.11808349999
 20
19891.730914
 30
0.0
 40
15.0
 50
270.0
 51
90.0
  0
ARC
  5
423D
  8
0
  6
BYBLOCK
 62
     0
 10
26373.11808349999
 20
19891.730914
 30
0.0
 40
15.0
 50
90.0
 51
270.0
  0
ARC
  5
423E
  8
0
  6
BYBLOCK
 62
     0
 10
19216.163902499979
 20
18783.230914
 30
0.0
 40
15.0
 50
90.0
 51
270.0
  0
ARC
  5
423F
  8
0
  6
BYBLOCK
 62
     0
 10
19216.163902499979
 20
18783.230914
 30
0.0
 40
15.0
 50
270.0
 51
90.0
  0
ARC
  5
4240
  8
0
  6
BYBLOCK
 62
     0
 10
19216.163902499979
 20
19891.730914
 30
0.0
 40
15.0
 50
270.0
 51
90.0
  0
ARC
  5
4241
  8
0
  6
BYBLOCK
 62
     0
 10
19216.163902499979
 20
19891.730914
 30
0.0
 40
15.0
 50
90.0
 51
270.0
  0
ARC
  5
4242
  8
0
  6
BYBLOCK
 62
     0
 10
19216.163902499979
 20
17324.230914
 30
0.0
 40
15.0
 50
90.0
 51
270.0
  0
ARC
  5
4243
  8
0
  6
BYBLOCK
 62
     0
 10
19216.163902499979
 20
17324.230914
 30
0.0
 40
15.0
 50
270.0
 51
90.0
  0
ARC
  5
4244
  8
0
  6
BYBLOCK
 62
     0
 10
19216.163902499979
 20
18783.230914
 30
0.0
 40
15.0
 50
270.0
 51
90.0
  0
ARC
  5
4245
  8
0
  6
BYBLOCK
 62
     0
 10
19216.163902499979
 20
18783.230914
 30
0.0
 40
15.0
 50
90.0
 51
270.0
  0
ARC
  5
4246
  8
0
  6
BYBLOCK
 62
     0
 10
19216.163902499979
 20
15865.471425500011
 30
0.0
 40
15.0
 50
90.0
 51
270.0
  0
ARC
  5
4247
  8
0
  6
BYBLOCK
 62
     0
 10
19216.163902499979
 20
15865.471425500011
 30
0.0
 40
15.0
 50
270.0
 51
90.0
  0
ARC
  5
4248
  8
0
  6
BYBLOCK
 62
     0
 10
19216.163902499979
 20
17324.230914
 30
0.0
 40
15.0
 50
270.0
 51
90.0
  0
ARC
  5
4249
  8
0
  6
BYBLOCK
 62
     0
 10
19216.163902499979
 20
17324.230914
 30
0.0
 40
15.0
 50
90.0
 51
270.0
  0
ARC
  5
424A
  8
0
  6
BYBLOCK
 62
     0
 10
19216.163902499979
 20
14406.230913999991
 30
0.0
 40
15.0
 50
90.0
 51
270.0
  0
ARC
  5
424B
  8
0
  6
BYBLOCK
 62
     0
 10
19216.163902499979
 20
14406.230913999991
 30
0.0
 40
15.0
 50
270.0
 51
90.0
  0
ARC
  5
424C
  8
0
  6
BYBLOCK
 62
     0
 10
19216.163902499979
 20
15865.471425500011
 30
0.0
 40
15.0
 50
270.0
 51
90.0
  0
ARC
  5
424D
  8
0
  6
BYBLOCK
 62
     0
 10
19216.163902499979
 20
15865.471425500011
 30
0.0
 40
15.0
 50
90.0
 51
270.0
  0
ARC
  5
424E
  8
0
  6
BYBLOCK
 62
     0
 10
20145.618479500001
 20
13434.78283
 30
0.0
 40
15.0
 50
0.0
 51
180.0
  0
ARC
  5
424F
  8
0
  6
BYBLOCK
 62
     0
 10
20145.618479500001
 20
13434.78283
 30
0.0
 40
15.0
 50
180.0
 51
0.0
  0
ARC
  5
4250
  8
0
  6
BYBLOCK
 62
     0
 10
20103.116236499991
 20
13434.78283
 30
0.0
 40
15.0
 50
180.0
 51
0.0
  0
ARC
  5
4251
  8
0
  6
BYBLOCK
 62
     0
 10
20103.116236499991
 20
13434.78283
 30
0.0
 40
15.0
 50
0.0
 51
180.0
  0
ARC
  5
4252
  8
0
  6
BYBLOCK
 62
     0
 10
25280.618479500001
 20
13434.78283
 30
0.0
 40
15.0
 50
180.0
 51
0.0
  0
ARC
  5
4253
  8
0
  6
BYBLOCK
 62
     0
 10
25280.618479500001
 20
13434.78283
 30
0.0
 40
15.0
 50
0.0
 51
180.0
  0
ARC
  5
4254
  8
0
  6
BYBLOCK
 62
     0
 10
25323.1207225
 20
13434.78283
 30
0.0
 40
15.0
 50
0.0
 51
180.0
  0
ARC
  5
4255
  8
0
  6
BYBLOCK
 62
     0
 10
25323.1207225
 20
13434.78283
 30
0.0
 40
15.0
 50
180.0
 51
0.0
  0
ARC
  5
4256
  8
0
  6
BYBLOCK
 62
     0
 10
25280.618479500001
 20
13434.78283
 30
0.0
 40
15.0
 50
0.0
 51
180.0
  0
ARC
  5
4257
  8
0
  6
BYBLOCK
 62
     0
 10
25280.618479500001
 20
13434.78283
 30
0.0
 40
15.0
 50
180.0
 51
0.0
  0
ARC
  5
4258
  8
0
  6
BYBLOCK
 62
     0
 10
25238.116236499991
 20
13434.78283
 30
0.0
 40
15.0
 50
180.0
 51
0.0
  0
ARC
  5
4259
  8
0
  6
BYBLOCK
 62
     0
 10
25238.116236499991
 20
13434.78283
 30
0.0
 40
15.0
 50
0.0
 51
180.0
  0
ARC
  5
425A
  8
0
  6
BYBLOCK
 62
     0
 10
20145.618479500001
 20
13434.78283
 30
0.0
 40
15.0
 50
180.0
 51
0.0
  0
ARC
  5
425B
  8
0
  6
BYBLOCK
 62
     0
 10
20145.618479500001
 20
13434.78283
 30
0.0
 40
15.0
 50
0.0
 51
180.0
  0
ARC
  5
425C
  8
0
  6
BYBLOCK
 62
     0
 10
20188.120722499982
 20
13434.78283
 30
0.0
 40
15.0
 50
0.0
 51
180.0
  0
ARC
  5
425D
  8
0
  6
BYBLOCK
 62
     0
 10
20188.120722499982
 20
13434.78283
 30
0.0
 40
15.0
 50
180.0
 51
0.0
  0
ARC
  5
425E
  8
0
  6
BYBLOCK
 62
     0
 10
20103.116236499991
 20
13034.78283
 30
0.0
 40
15.0
 50
0.0
 51
180.0
  0
ARC
  5
425F
  8
0
  6
BYBLOCK
 62
     0
 10
20103.116236499991
 20
13034.78283
 30
0.0
 40
15.0
 50
180.0
 51
0.0
  0
ARC
  5
4260
  8
0
  6
BYBLOCK
 62
     0
 10
25323.1207225
 20
13034.78283
 30
0.0
 40
15.0
 50
180.0
 51
0.0
  0
ARC
  5
4261
  8
0
  6
BYBLOCK
 62
     0
 10
25323.1207225
 20
13034.78283
 30
0.0
 40
15.0
 50
0.0
 51
180.0
  0
ARC
  5
4262
  8
0
  6
BYBLOCK
 62
     0
 10
26373.11808349999
 20
15164.230913999991
 30
0.0
 40
15.0
 50
270.0
 51
90.0
  0
ARC
  5
4263
  8
0
  6
BYBLOCK
 62
     0
 10
26373.11808349999
 20
15164.230913999991
 30
0.0
 40
15.0
 50
90.0
 51
270.0
  0
ARC
  5
4264
  8
0
  6
BYBLOCK
 62
     0
 10
26373.11808349999
 20
14406.230913999991
 30
0.0
 40
15.0
 50
90.0
 51
270.0
  0
ARC
  5
4265
  8
0
  6
BYBLOCK
 62
     0
 10
26373.11808349999
 20
14406.230913999991
 30
0.0
 40
15.0
 50
270.0
 51
90.0
  0
ARC
  5
4266
  8
0
  6
BYBLOCK
 62
     0
 10
26373.11808349999
 20
15865.471425500011
 30
0.0
 40
15.0
 50
270.0
 51
90.0
  0
ARC
  5
4267
  8
0
  6
BYBLOCK
 62
     0
 10
26373.11808349999
 20
15865.471425500011
 30
0.0
 40
15.0
 50
90.0
 51
270.0
  0
ARC
  5
4268
  8
0
  6
BYBLOCK
 62
     0
 10
26373.11808349999
 20
15164.230913999991
 30
0.0
 40
15.0
 50
90.0
 51
270.0
  0
ARC
  5
4269
  8
0
  6
BYBLOCK
 62
     0
 10
26373.11808349999
 20
15164.230913999991
 30
0.0
 40
15.0
 50
270.0
 51
90.0
  0
ARC
  5
426A
  8
0
  6
BYBLOCK
 62
     0
 10
26373.11808349999
 20
16566.230914
 30
0.0
 40
15.0
 50
270.0
 51
90.0
  0
ARC
  5
426B
  8
0
  6
BYBLOCK
 62
     0
 10
26373.11808349999
 20
16566.230914
 30
0.0
 40
15.0
 50
90.0
 51
270.0
  0
ARC
  5
426C
  8
0
  6
BYBLOCK
 62
     0
 10
26373.11808349999
 20
15865.471425500011
 30
0.0
 40
15.0
 50
90.0
 51
270.0
  0
ARC
  5
426D
  8
0
  6
BYBLOCK
 62
     0
 10
26373.11808349999
 20
15865.471425500011
 30
0.0
 40
15.0
 50
270.0
 51
90.0
  0
ARC
  5
426E
  8
0
  6
BYBLOCK
 62
     0
 10
26373.11808349999
 20
17324.230914
 30
0.0
 40
15.0
 50
270.0
 51
90.0
  0
ARC
  5
426F
  8
0
  6
BYBLOCK
 62
     0
 10
26373.11808349999
 20
17324.230914
 30
0.0
 40
15.0
 50
90.0
 51
270.0
  0
ARC
  5
4270
  8
0
  6
BYBLOCK
 62
     0
 10
26373.11808349999
 20
16566.230914
 30
0.0
 40
15.0
 50
90.0
 51
270.0
  0
ARC
  5
4271
  8
0
  6
BYBLOCK
 62
     0
 10
26373.11808349999
 20
16566.230914
 30
0.0
 40
15.0
 50
270.0
 51
90.0
  0
ARC
  5
4272
  8
0
  6
BYBLOCK
 62
     0
 10
26373.11808349999
 20
18082.230914
 30
0.0
 40
15.0
 50
270.0
 51
90.0
  0
ARC
  5
4273
  8
0
  6
BYBLOCK
 62
     0
 10
26373.11808349999
 20
18082.230914
 30
0.0
 40
15.0
 50
90.0
 51
270.0
  0
ARC
  5
4274
  8
0
  6
BYBLOCK
 62
     0
 10
26373.11808349999
 20
17324.230914
 30
0.0
 40
15.0
 50
90.0
 51
270.0
  0
ARC
  5
4275
  8
0
  6
BYBLOCK
 62
     0
 10
26373.11808349999
 20
17324.230914
 30
0.0
 40
15.0
 50
270.0
 51
90.0
  0
ARC
  5
4276
  8
0
  6
BYBLOCK
 62
     0
 10
26373.11808349999
 20
18783.230914
 30
0.0
 40
15.0
 50
270.0
 51
90.0
  0
ARC
  5
4277
  8
0
  6
BYBLOCK
 62
     0
 10
26373.11808349999
 20
18783.230914
 30
0.0
 40
15.0
 50
90.0
 51
270.0
  0
ARC
  5
4278
  8
0
  6
BYBLOCK
 62
     0
 10
26373.11808349999
 20
18082.230914
 30
0.0
 40
15.0
 50
90.0
 51
270.0
  0
ARC
  5
4279
  8
0
  6
BYBLOCK
 62
     0
 10
26373.11808349999
 20
18082.230914
 30
0.0
 40
15.0
 50
270.0
 51
90.0
  0
ARC
  5
427A
  8
0
  6
BYBLOCK
 62
     0
 10
26373.11808349999
 20
19484.230914
 30
0.0
 40
15.0
 50
270.0
 51
90.0
  0
ARC
  5
427B
  8
0
  6
BYBLOCK
 62
     0
 10
26373.11808349999
 20
19484.230914
 30
0.0
 40
15.0
 50
90.0
 51
270.0
  0
ARC
  5
427C
  8
0
  6
BYBLOCK
 62
     0
 10
26373.11808349999
 20
18783.230914
 30
0.0
 40
15.0
 50
90.0
 51
270.0
  0
ARC
  5
427D
  8
0
  6
BYBLOCK
 62
     0
 10
26373.11808349999
 20
18783.230914
 30
0.0
 40
15.0
 50
270.0
 51
90.0
  0
ARC
  5
427E
  8
0
  6
BYBLOCK
 62
     0
 10
26773.11808349999
 20
17324.230914
 30
0.0
 40
15.0
 50
90.0
 51
270.0
  0
ARC
  5
427F
  8
0
  6
BYBLOCK
 62
     0
 10
26773.11808349999
 20
17324.230914
 30
0.0
 40
15.0
 50
270.0
 51
90.0
  0
ARC
  5
4280
  8
0
  6
BYBLOCK
 62
     0
 10
26773.11808349999
 20
19891.730914
 30
0.0
 40
15.0
 50
270.0
 51
90.0
  0
ARC
  5
4281
  8
0
  6
BYBLOCK
 62
     0
 10
26773.11808349999
 20
19891.730914
 30
0.0
 40
15.0
 50
90.0
 51
270.0
  0
ARC
  5
4282
  8
0
  6
BYBLOCK
 62
     0
 10
26773.11808349999
 20
14406.230913999991
 30
0.0
 40
15.0
 50
90.0
 51
270.0
  0
ARC
  5
4283
  8
0
  6
BYBLOCK
 62
     0
 10
26773.11808349999
 20
14406.230913999991
 30
0.0
 40
15.0
 50
270.0
 51
90.0
  0
ARC
  5
4284
  8
0
  6
BYBLOCK
 62
     0
 10
26773.11808349999
 20
17324.230914
 30
0.0
 40
15.0
 50
270.0
 51
90.0
  0
ARC
  5
4285
  8
0
  6
BYBLOCK
 62
     0
 10
26773.11808349999
 20
17324.230914
 30
0.0
 40
15.0
 50
90.0
 51
270.0
  0
ARC
  5
4286
  8
0
  6
BYBLOCK
 62
     0
 10
27173.11808349998
 20
19934.228209000001
 30
0.0
 40
15.0
 50
270.0
 51
90.0
  0
ARC
  5
4287
  8
0
  6
BYBLOCK
 62
     0
 10
27173.11808349998
 20
19934.228209000001
 30
0.0
 40
15.0
 50
90.0
 51
270.0
  0
ARC
  5
4288
  8
0
  6
BYBLOCK
 62
     0
 10
27173.11808349998
 20
14363.733619000001
 30
0.0
 40
15.0
 50
90.0
 51
270.0
  0
ARC
  5
4289
  8
0
  6
BYBLOCK
 62
     0
 10
27173.11808349998
 20
14363.733619000001
 30
0.0
 40
15.0
 50
270.0
 51
90.0
  0
ARC
  5
428A
  8
0
  6
BYBLOCK
 62
     0
 10
26773.11808349999
 20
19891.730914
 30
0.0
 40
15.0
 50
270.0
 51
90.0
  0
ARC
  5
428B
  8
0
  6
BYBLOCK
 62
     0
 10
26773.11808349999
 20
19891.730914
 30
0.0
 40
15.0
 50
90.0
 51
270.0
  0
ARC
  5
428C
  8
0
  6
BYBLOCK
 62
     0
 10
26773.11808349999
 20
19934.228209000001
 30
0.0
 40
15.0
 50
90.0
 51
270.0
  0
ARC
  5
428D
  8
0
  6
BYBLOCK
 62
     0
 10
26773.11808349999
 20
19934.228209000001
 30
0.0
 40
15.0
 50
270.0
 51
90.0
  0
ARC
  5
428E
  8
0
  6
BYBLOCK
 62
     0
 10
26773.11808349999
 20
14406.230913999991
 30
0.0
 40
15.0
 50
90.0
 51
270.0
  0
ARC
  5
428F
  8
0
  6
BYBLOCK
 62
     0
 10
26773.11808349999
 20
14406.230913999991
 30
0.0
 40
15.0
 50
270.0
 51
90.0
  0
ARC
  5
4290
  8
0
  6
BYBLOCK
 62
     0
 10
26773.11808349999
 20
14363.733619000001
 30
0.0
 40
15.0
 50
270.0
 51
90.0
  0
ARC
  5
4291
  8
0
  6
BYBLOCK
 62
     0
 10
26773.11808349999
 20
14363.733619000001
 30
0.0
 40
15.0
 50
90.0
 51
270.0
  0
ARC
  5
4292
  8
0
  6
BYBLOCK
 62
     0
 10
22713.118479499979
 20
20664.232102000031
 30
0.0
 40
15.0
 50
0.0
 51
180.0
  0
ARC
  5
4293
  8
0
  6
BYBLOCK
 62
     0
 10
22713.118479499979
 20
20664.232102000031
 30
0.0
 40
15.0
 50
180.0
 51
0.0
  0
ARC
  5
4294
  8
0
  6
BYBLOCK
 62
     0
 10
23120.61847949999
 20
20664.232102000031
 30
0.0
 40
15.0
 50
180.0
 51
0.0
  0
ARC
  5
4295
  8
0
  6
BYBLOCK
 62
     0
 10
23120.61847949999
 20
20664.232102000031
 30
0.0
 40
15.0
 50
0.0
 51
180.0
  0
ARC
  5
4296
  8
0
  6
BYBLOCK
 62
     0
 10
24522.618479500001
 20
20664.232102000031
 30
0.0
 40
15.0
 50
0.0
 51
180.0
  0
ARC
  5
4297
  8
0
  6
BYBLOCK
 62
     0
 10
24522.618479500001
 20
20664.232102000031
 30
0.0
 40
15.0
 50
180.0
 51
0.0
  0
ARC
  5
4298
  8
0
  6
BYBLOCK
 62
     0
 10
25280.619469000001
 20
20664.232102000031
 30
0.0
 40
15.0
 50
180.0
 51
0.0
  0
ARC
  5
4299
  8
0
  6
BYBLOCK
 62
     0
 10
25280.619469000001
 20
20664.232102000031
 30
0.0
 40
15.0
 50
0.0
 51
180.0
  0
ARC
  5
429A
  8
0
  6
BYBLOCK
 62
     0
 10
23821.61847949999
 20
20664.232102000031
 30
0.0
 40
15.0
 50
0.0
 51
180.0
  0
ARC
  5
429B
  8
0
  6
BYBLOCK
 62
     0
 10
23821.61847949999
 20
20664.232102000031
 30
0.0
 40
15.0
 50
180.0
 51
0.0
  0
ARC
  5
429C
  8
0
  6
BYBLOCK
 62
     0
 10
24522.618479500001
 20
20664.232102000031
 30
0.0
 40
15.0
 50
180.0
 51
0.0
  0
ARC
  5
429D
  8
0
  6
BYBLOCK
 62
     0
 10
24522.618479500001
 20
20664.232102000031
 30
0.0
 40
15.0
 50
0.0
 51
180.0
  0
ARC
  5
429E
  8
0
  6
BYBLOCK
 62
     0
 10
23120.61847949999
 20
20664.232102000031
 30
0.0
 40
15.0
 50
0.0
 51
180.0
  0
ARC
  5
429F
  8
0
  6
BYBLOCK
 62
     0
 10
23120.61847949999
 20
20664.232102000031
 30
0.0
 40
15.0
 50
180.0
 51
0.0
  0
ARC
  5
42A0
  8
0
  6
BYBLOCK
 62
     0
 10
23821.61847949999
 20
20664.232102000031
 30
0.0
 40
15.0
 50
180.0
 51
0.0
  0
ARC
  5
42A1
  8
0
  6
BYBLOCK
 62
     0
 10
23821.61847949999
 20
20664.232102000031
 30
0.0
 40
15.0
 50
0.0
 51
180.0
  0
ARC
  5
42A2
  8
0
  6
BYBLOCK
 62
     0
 10
25280.618479500001
 20
20664.232102000031
 30
0.0
 40
15.0
 50
180.0
 51
0.0
  0
ARC
  5
42A3
  8
0
  6
BYBLOCK
 62
     0
 10
25280.618479500001
 20
20664.232102000031
 30
0.0
 40
15.0
 50
0.0
 51
180.0
  0
ARC
  5
42A4
  8
0
  6
BYBLOCK
 62
     0
 10
25323.114784500001
 20
20664.232102000031
 30
0.0
 40
15.0
 50
0.0
 51
180.0
  0
ARC
  5
42A5
  8
0
  6
BYBLOCK
 62
     0
 10
25323.114784500001
 20
20664.232102000031
 30
0.0
 40
15.0
 50
180.0
 51
0.0
  0
ARC
  5
42A6
  8
0
  6
BYBLOCK
 62
     0
 10
20145.618479500001
 20
20664.232102000031
 30
0.0
 40
15.0
 50
0.0
 51
180.0
  0
ARC
  5
42A7
  8
0
  6
BYBLOCK
 62
     0
 10
20145.618479500001
 20
20664.232102000031
 30
0.0
 40
15.0
 50
180.0
 51
0.0
  0
ARC
  5
42A8
  8
0
  6
BYBLOCK
 62
     0
 10
20553.118479500001
 20
20664.232102000031
 30
0.0
 40
15.0
 50
180.0
 51
0.0
  0
ARC
  5
42A9
  8
0
  6
BYBLOCK
 62
     0
 10
20553.118479500001
 20
20664.232102000031
 30
0.0
 40
15.0
 50
0.0
 51
180.0
  0
ARC
  5
42AA
  8
0
  6
BYBLOCK
 62
     0
 10
20145.618479500001
 20
20664.232102000031
 30
0.0
 40
15.0
 50
0.0
 51
180.0
  0
ARC
  5
42AB
  8
0
  6
BYBLOCK
 62
     0
 10
20145.618479500001
 20
20664.232102000031
 30
0.0
 40
15.0
 50
180.0
 51
0.0
  0
ARC
  5
42AC
  8
0
  6
BYBLOCK
 62
     0
 10
20103.122174499989
 20
20664.232102000031
 30
0.0
 40
15.0
 50
180.0
 51
0.0
  0
ARC
  5
42AD
  8
0
  6
BYBLOCK
 62
     0
 10
20103.122174499989
 20
20664.232102000031
 30
0.0
 40
15.0
 50
0.0
 51
180.0
  0
ARC
  5
42AE
  8
0
  6
BYBLOCK
 62
     0
 10
21955.11847949999
 20
20664.232102000031
 30
0.0
 40
15.0
 50
0.0
 51
180.0
  0
ARC
  5
42AF
  8
0
  6
BYBLOCK
 62
     0
 10
21955.11847949999
 20
20664.232102000031
 30
0.0
 40
15.0
 50
180.0
 51
0.0
  0
ARC
  5
42B0
  8
0
  6
BYBLOCK
 62
     0
 10
22713.119469000001
 20
20664.232102000031
 30
0.0
 40
15.0
 50
180.0
 51
0.0
  0
ARC
  5
42B1
  8
0
  6
BYBLOCK
 62
     0
 10
22713.119469000001
 20
20664.232102000031
 30
0.0
 40
15.0
 50
0.0
 51
180.0
  0
ARC
  5
42B2
  8
0
  6
BYBLOCK
 62
     0
 10
21254.11847949999
 20
20664.232102000031
 30
0.0
 40
15.0
 50
0.0
 51
180.0
  0
ARC
  5
42B3
  8
0
  6
BYBLOCK
 62
     0
 10
21254.11847949999
 20
20664.232102000031
 30
0.0
 40
15.0
 50
180.0
 51
0.0
  0
ARC
  5
42B4
  8
0
  6
BYBLOCK
 62
     0
 10
21955.11847949999
 20
20664.232102000031
 30
0.0
 40
15.0
 50
180.0
 51
0.0
  0
ARC
  5
42B5
  8
0
  6
BYBLOCK
 62
     0
 10
21955.11847949999
 20
20664.232102000031
 30
0.0
 40
15.0
 50
0.0
 51
180.0
  0
ARC
  5
42B6
  8
0
  6
BYBLOCK
 62
     0
 10
20553.118479500001
 20
20664.232102000031
 30
0.0
 40
15.0
 50
0.0
 51
180.0
  0
ARC
  5
42B7
  8
0
  6
BYBLOCK
 62
     0
 10
20553.118479500001
 20
20664.232102000031
 30
0.0
 40
15.0
 50
180.0
 51
0.0
  0
ARC
  5
42B8
  8
0
  6
BYBLOCK
 62
     0
 10
21254.11847949999
 20
20664.232102000031
 30
0.0
 40
15.0
 50
180.0
 51
0.0
  0
ARC
  5
42B9
  8
0
  6
BYBLOCK
 62
     0
 10
21254.11847949999
 20
20664.232102000031
 30
0.0
 40
15.0
 50
0.0
 51
180.0
  0
ARC
  5
42BA
  8
0
  6
BYBLOCK
 62
     0
 10
8769.3738785000023
 20
9763.7812800000029
 30
0.0
 40
15.0
 50
180.0
 51
0.0
  0
ARC
  5
42BB
  8
0
  6
BYBLOCK
 62
     0
 10
8769.3738785000023
 20
9763.7812800000029
 30
0.0
 40
15.0
 50
0.0
 51
180.0
  0
ARC
  5
42BC
  8
0
  6
BYBLOCK
 62
     0
 10
8589.3738785000023
 20
9763.7812800000029
 30
0.0
 40
15.0
 50
0.0
 51
180.0
  0
ARC
  5
42BD
  8
0
  6
BYBLOCK
 62
     0
 10
8589.3738785000023
 20
9763.7812800000029
 30
0.0
 40
15.0
 50
180.0
 51
0.0
  0
ARC
  5
42BE
  8
0
  6
BYBLOCK
 62
     0
 10
19295.619139499991
 20
6615.7796039999957
 30
0.0
 40
15.0
 50
90.0
 51
270.0
  0
ARC
  5
42BF
  8
0
  6
BYBLOCK
 62
     0
 10
19295.619139499991
 20
6615.7796039999957
 30
0.0
 40
15.0
 50
270.0
 51
90.0
  0
ARC
  5
42C0
  8
0
  6
BYBLOCK
 62
     0
 10
19295.619139499991
 20
8507.2796039999957
 30
0.0
 40
15.0
 50
270.0
 51
90.0
  0
ARC
  5
42C1
  8
0
  6
BYBLOCK
 62
     0
 10
19295.619139499991
 20
8507.2796039999957
 30
0.0
 40
15.0
 50
90.0
 51
270.0
  0
ARC
  5
42C2
  8
0
  6
BYBLOCK
 62
     0
 10
18895.616830499981
 20
6615.7796039999957
 30
0.0
 40
15.0
 50
90.0
 51
270.0
  0
ARC
  5
42C3
  8
0
  6
BYBLOCK
 62
     0
 10
18895.616830499981
 20
6615.7796039999957
 30
0.0
 40
15.0
 50
270.0
 51
90.0
  0
ARC
  5
42C4
  8
0
  6
BYBLOCK
 62
     0
 10
18895.616830499981
 20
8964.2791089999973
 30
0.0
 40
15.0
 50
270.0
 51
90.0
  0
ARC
  5
42C5
  8
0
  6
BYBLOCK
 62
     0
 10
18895.616830499981
 20
8964.2791089999973
 30
0.0
 40
15.0
 50
90.0
 51
270.0
  0
ARC
  5
42D6
  8
0
  6
BYBLOCK
 62
     0
 10
20239.61847949999
 20
5715.7797689999998
 30
0.0
 40
15.0
 50
0.0
 51
180.0
  0
ARC
  5
42D7
  8
0
  6
BYBLOCK
 62
     0
 10
20239.61847949999
 20
5715.7797689999998
 30
0.0
 40
15.0
 50
180.0
 51
0.0
  0
ARC
  5
42D8
  8
0
  6
BYBLOCK
 62
     0
 10
22619.11847949999
 20
5715.7797689999998
 30
0.0
 40
15.0
 50
180.0
 51
0.0
  0
ARC
  5
42D9
  8
0
  6
BYBLOCK
 62
     0
 10
22619.11847949999
 20
5715.7797689999998
 30
0.0
 40
15.0
 50
0.0
 51
180.0
  0
ARC
  5
42DA
  8
0
  6
BYBLOCK
 62
     0
 10
22807.11847949999
 20
5715.7797689999998
 30
0.0
 40
15.0
 50
0.0
 51
180.0
  0
ARC
  5
42DB
  8
0
  6
BYBLOCK
 62
     0
 10
22807.11847949999
 20
5715.7797689999998
 30
0.0
 40
15.0
 50
180.0
 51
0.0
  0
ARC
  5
42DC
  8
0
  6
BYBLOCK
 62
     0
 10
25186.618479499979
 20
5715.7797689999998
 30
0.0
 40
15.0
 50
180.0
 51
0.0
  0
ARC
  5
42DD
  8
0
  6
BYBLOCK
 62
     0
 10
25186.618479499979
 20
5715.7797689999998
 30
0.0
 40
15.0
 50
0.0
 51
180.0
  0
ARC
  5
42DE
  8
0
  6
BYBLOCK
 62
     0
 10
22713.118479499979
 20
5315.7797690000016
 30
0.0
 40
15.0
 50
0.0
 51
180.0
  0
ARC
  5
42DF
  8
0
  6
BYBLOCK
 62
     0
 10
22713.118479499979
 20
5315.7797690000016
 30
0.0
 40
15.0
 50
180.0
 51
0.0
  0
ARC
  5
42E0
  8
0
  6
BYBLOCK
 62
     0
 10
25280.618479500001
 20
5315.7797690000016
 30
0.0
 40
15.0
 50
180.0
 51
0.0
  0
ARC
  5
42E1
  8
0
  6
BYBLOCK
 62
     0
 10
25280.618479500001
 20
5315.7797690000016
 30
0.0
 40
15.0
 50
0.0
 51
180.0
  0
ARC
  5
42E2
  8
0
  6
BYBLOCK
 62
     0
 10
20145.618479500001
 20
5315.7797690000016
 30
0.0
 40
15.0
 50
0.0
 51
180.0
  0
ARC
  5
42E3
  8
0
  6
BYBLOCK
 62
     0
 10
20145.618479500001
 20
5315.7797690000016
 30
0.0
 40
15.0
 50
180.0
 51
0.0
  0
ARC
  5
42E4
  8
0
  6
BYBLOCK
 62
     0
 10
22713.118479499979
 20
5315.7797690000016
 30
0.0
 40
15.0
 50
180.0
 51
0.0
  0
ARC
  5
42E5
  8
0
  6
BYBLOCK
 62
     0
 10
22713.118479499979
 20
5315.7797690000016
 30
0.0
 40
15.0
 50
0.0
 51
180.0
  0
ARC
  5
42E6
  8
0
  6
BYBLOCK
 62
     0
 10
25280.622438499999
 20
5315.7797690000016
 30
0.0
 40
15.0
 50
180.0
 51
0.0
  0
ARC
  5
42E7
  8
0
  6
BYBLOCK
 62
     0
 10
25280.622438499999
 20
5315.7797690000016
 30
0.0
 40
15.0
 50
0.0
 51
180.0
  0
ARC
  5
42E8
  8
0
  6
BYBLOCK
 62
     0
 10
25323.122438499991
 20
5315.7797690000016
 30
0.0
 40
15.0
 50
0.0
 51
180.0
  0
ARC
  5
42E9
  8
0
  6
BYBLOCK
 62
     0
 10
25323.122438499991
 20
5315.7797690000016
 30
0.0
 40
15.0
 50
180.0
 51
0.0
  0
ARC
  5
42EA
  8
0
  6
BYBLOCK
 62
     0
 10
20145.618479500001
 20
5315.7797690000016
 30
0.0
 40
15.0
 50
0.0
 51
180.0
  0
ARC
  5
42EB
  8
0
  6
BYBLOCK
 62
     0
 10
20145.618479500001
 20
5315.7797690000016
 30
0.0
 40
15.0
 50
180.0
 51
0.0
  0
ARC
  5
42EC
  8
0
  6
BYBLOCK
 62
     0
 10
20103.11847949999
 20
5315.7797690000016
 30
0.0
 40
15.0
 50
180.0
 51
0.0
  0
ARC
  5
42ED
  8
0
  6
BYBLOCK
 62
     0
 10
20103.11847949999
 20
5315.7797690000016
 30
0.0
 40
15.0
 50
0.0
 51
180.0
  0
ARC
  5
42EE
  8
0
  6
BYBLOCK
 62
     0
 10
20103.11847949999
 20
4915.7799339999983
 30
0.0
 40
15.0
 50
0.0
 51
180.0
  0
ARC
  5
42EF
  8
0
  6
BYBLOCK
 62
     0
 10
20103.11847949999
 20
4915.7799339999983
 30
0.0
 40
15.0
 50
180.0
 51
0.0
  0
ARC
  5
42F0
  8
0
  6
BYBLOCK
 62
     0
 10
25323.11847949999
 20
4915.7799339999983
 30
0.0
 40
15.0
 50
180.0
 51
0.0
  0
ARC
  5
42F1
  8
0
  6
BYBLOCK
 62
     0
 10
25323.11847949999
 20
4915.7799339999983
 30
0.0
 40
15.0
 50
0.0
 51
180.0
  0
ARC
  5
42F2
  8
0
  6
BYBLOCK
 62
     0
 10
15429.87229449999
 20
6615.7796040000021
 30
0.0
 40
15.0
 50
90.0
 51
270.0
  0
ARC
  5
42F3
  8
0
  6
BYBLOCK
 62
     0
 10
15429.87229449999
 20
6615.7796040000021
 30
0.0
 40
15.0
 50
270.0
 51
90.0
  0
ARC
  5
42F4
  8
0
  6
BYBLOCK
 62
     0
 10
15429.87229449999
 20
8964.279604000003
 30
0.0
 40
15.0
 50
270.0
 51
90.0
  0
ARC
  5
42F5
  8
0
  6
BYBLOCK
 62
     0
 10
15429.87229449999
 20
8964.279604000003
 30
0.0
 40
15.0
 50
90.0
 51
270.0
  0
ARC
  5
42F6
  8
0
  6
BYBLOCK
 62
     0
 10
7679.3754605000104
 20
6615.7796040000021
 30
0.0
 40
15.0
 50
90.0
 51
270.0
  0
ARC
  5
42F7
  8
0
  6
BYBLOCK
 62
     0
 10
7679.3754605000104
 20
6615.7796040000021
 30
0.0
 40
15.0
 50
270.0
 51
90.0
  0
ARC
  5
42F8
  8
0
  6
BYBLOCK
 62
     0
 10
7679.3754605000104
 20
8771.7796040000067
 30
0.0
 40
15.0
 50
270.0
 51
90.0
  0
ARC
  5
42F9
  8
0
  6
BYBLOCK
 62
     0
 10
7679.3754605000104
 20
8771.7796040000067
 30
0.0
 40
15.0
 50
90.0
 51
270.0
  0
ARC
  5
42FA
  8
0
  6
BYBLOCK
 62
     0
 10
8589.3738785000023
 20
10163.779630000001
 30
0.0
 40
15.0
 50
0.0
 51
180.0
  0
ARC
  5
42FB
  8
0
  6
BYBLOCK
 62
     0
 10
8589.3738785000023
 20
10163.779630000001
 30
0.0
 40
15.0
 50
180.0
 51
0.0
  0
ARC
  5
42FC
  8
0
  6
BYBLOCK
 62
     0
 10
14489.873878500001
 20
10163.779630000001
 30
0.0
 40
15.0
 50
180.0
 51
0.0
  0
ARC
  5
42FD
  8
0
  6
BYBLOCK
 62
     0
 10
14489.873878500001
 20
10163.779630000001
 30
0.0
 40
15.0
 50
0.0
 51
180.0
  0
ARC
  5
42FE
  8
0
  6
BYBLOCK
 62
     0
 10
14339.873878500001
 20
9763.7812800000029
 30
0.0
 40
15.0
 50
180.0
 51
0.0
  0
ARC
  5
42FF
  8
0
  6
BYBLOCK
 62
     0
 10
14339.873878500001
 20
9763.7812800000029
 30
0.0
 40
15.0
 50
0.0
 51
180.0
  0
ARC
  5
4300
  8
0
  6
BYBLOCK
 62
     0
 10
14489.873878500001
 20
9763.7812800000029
 30
0.0
 40
15.0
 50
0.0
 51
180.0
  0
ARC
  5
4301
  8
0
  6
BYBLOCK
 62
     0
 10
14489.873878500001
 20
9763.7812800000029
 30
0.0
 40
15.0
 50
180.0
 51
0.0
  0
ARC
  5
4302
  8
0
  6
BYBLOCK
 62
     0
 10
8769.3738785000023
 20
9763.7812800000029
 30
0.0
 40
15.0
 50
0.0
 51
180.0
  0
ARC
  5
4303
  8
0
  6
BYBLOCK
 62
     0
 10
8769.3738785000023
 20
9763.7812800000029
 30
0.0
 40
15.0
 50
180.0
 51
0.0
  0
ARC
  5
4304
  8
0
  6
BYBLOCK
 62
     0
 10
14339.873878500001
 20
9763.7812800000029
 30
0.0
 40
15.0
 50
180.0
 51
0.0
  0
ARC
  5
4305
  8
0
  6
BYBLOCK
 62
     0
 10
14339.873878500001
 20
9763.7812800000029
 30
0.0
 40
15.0
 50
0.0
 51
180.0
  0
ARC
  5
4306
  8
0
  6
BYBLOCK
 62
     0
 10
8769.3738785000023
 20
4915.7799340000047
 30
0.0
 40
15.0
 50
0.0
 51
180.0
  0
ARC
  5
4307
  8
0
  6
BYBLOCK
 62
     0
 10
8769.3738785000023
 20
4915.7799340000047
 30
0.0
 40
15.0
 50
180.0
 51
0.0
  0
ARC
  5
4308
  8
0
  6
BYBLOCK
 62
     0
 10
14339.873878500001
 20
4915.7799340000047
 30
0.0
 40
15.0
 50
180.0
 51
0.0
  0
ARC
  5
4309
  8
0
  6
BYBLOCK
 62
     0
 10
14339.873878500001
 20
4915.7799340000047
 30
0.0
 40
15.0
 50
0.0
 51
180.0
  0
ARC
  5
430A
  8
0
  6
BYBLOCK
 62
     0
 10
14297.373878500001
 20
5315.7797690000052
 30
0.0
 40
15.0
 50
180.0
 51
0.0
  0
ARC
  5
430B
  8
0
  6
BYBLOCK
 62
     0
 10
14297.373878500001
 20
5315.7797690000052
 30
0.0
 40
15.0
 50
0.0
 51
180.0
  0
ARC
  5
430C
  8
0
  6
BYBLOCK
 62
     0
 10
14339.873878500001
 20
5315.7797690000052
 30
0.0
 40
15.0
 50
0.0
 51
180.0
  0
ARC
  5
430D
  8
0
  6
BYBLOCK
 62
     0
 10
14339.873878500001
 20
5315.7797690000052
 30
0.0
 40
15.0
 50
180.0
 51
0.0
  0
ARC
  5
430E
  8
0
  6
BYBLOCK
 62
     0
 10
8811.8738785000005
 20
5315.7797690000052
 30
0.0
 40
15.0
 50
0.0
 51
180.0
  0
ARC
  5
430F
  8
0
  6
BYBLOCK
 62
     0
 10
8811.8738785000005
 20
5315.7797690000052
 30
0.0
 40
15.0
 50
180.0
 51
0.0
  0
ARC
  5
4310
  8
0
  6
BYBLOCK
 62
     0
 10
8769.3738785000023
 20
5315.7797690000052
 30
0.0
 40
15.0
 50
180.0
 51
0.0
  0
ARC
  5
4311
  8
0
  6
BYBLOCK
 62
     0
 10
8769.3738785000023
 20
5315.7797690000052
 30
0.0
 40
15.0
 50
0.0
 51
180.0
  0
ARC
  5
4312
  8
0
  6
BYBLOCK
 62
     0
 10
11379.373878500001
 20
5315.7797690000052
 30
0.0
 40
15.0
 50
180.0
 51
0.0
  0
ARC
  5
4313
  8
0
  6
BYBLOCK
 62
     0
 10
11379.373878500001
 20
5315.7797690000052
 30
0.0
 40
15.0
 50
0.0
 51
180.0
  0
ARC
  5
4314
  8
0
  6
BYBLOCK
 62
     0
 10
8811.8738785000005
 20
5315.7797690000052
 30
0.0
 40
15.0
 50
0.0
 51
180.0
  0
ARC
  5
4315
  8
0
  6
BYBLOCK
 62
     0
 10
8811.8738785000005
 20
5315.7797690000052
 30
0.0
 40
15.0
 50
180.0
 51
0.0
  0
ARC
  5
4316
  8
0
  6
BYBLOCK
 62
     0
 10
11379.373878500001
 20
5315.7797690000052
 30
0.0
 40
15.0
 50
0.0
 51
180.0
  0
ARC
  5
4317
  8
0
  6
BYBLOCK
 62
     0
 10
11379.373878500001
 20
5315.7797690000052
 30
0.0
 40
15.0
 50
180.0
 51
0.0
  0
ARC
  5
4318
  8
0
  6
BYBLOCK
 62
     0
 10
14297.373878500001
 20
5315.7797690000052
 30
0.0
 40
15.0
 50
180.0
 51
0.0
  0
ARC
  5
4319
  8
0
  6
BYBLOCK
 62
     0
 10
14297.373878500001
 20
5315.7797690000052
 30
0.0
 40
15.0
 50
0.0
 51
180.0
  0
LINE
  5
4441
  8
0-1
  6
CONTINUOUS
 62
     3
 10
25217.121461499992
 20
8714.2796239999971
 30
0.0
 11
25217.121461499992
 21
8746.2795310000001
 31
0.0
  0
LINE
  5
4442
  8
0-1
  6
CONTINUOUS
 62
     3
 10
25366.120854500001
 20
8638.0929020000021
 30
0.0
 11
25323.118743499981
 21
8638.0929020000021
 31
0.0
  0
LINE
  5
4443
  8
0-1
  6
CONTINUOUS
 62
     3
 10
25366.120854500001
 20
8964.2799530000029
 30
0.0
 11
25366.120854500001
 21
8638.0929020000021
 31
0.0
  0
LINE
  5
4444
  8
0-1
  6
CONTINUOUS
 62
     3
 10
24931.154268500009
 20
8710.7442029999984
 30
0.0
 11
24899.155351500001
 21
8742.7441109999982
 31
0.0
  0
LINE
  5
4445
  8
0-1
  6
CONTINUOUS
 62
     3
 10
25212.121197499979
 20
8751.2797950000004
 30
0.0
 11
24902.690771500002
 21
8751.2797950000004
 31
0.0
  0
LINE
  5
4446
  8
0-1
  6
CONTINUOUS
 62
     3
 10
25217.121461499992
 20
8742.8806980000045
 30
0.0
 11
24899.024702499992
 21
8742.8806980000045
 31
0.0
  0
LINE
  5
4447
  8
0-1
  6
CONTINUOUS
 62
     3
 10
25212.121197499979
 20
8709.2793600000005
 30
0.0
 11
24934.691668499989
 21
8709.2793600000005
 31
0.0
  0
LINE
  5
4448
  8
0-1
  6
CONTINUOUS
 62
     3
 10
25217.121461499992
 20
8717.6794470000004
 30
0.0
 11
24924.220015499988
 21
8717.6794470000004
 31
0.0
  0
LINE
  5
4449
  8
0-1
  6
CONTINUOUS
 62
     3
 10
25217.121461499992
 20
8726.0795339999986
 30
0.0
 11
24915.820917500001
 21
8726.0795339999986
 31
0.0
  0
LINE
  5
444A
  8
0-1
  6
CONTINUOUS
 62
     3
 10
25217.121461499992
 20
8734.4806109999972
 30
0.0
 11
24907.419841499988
 21
8734.4806109999972
 31
0.0
  0
LINE
  5
444B
  8
0-1
  6
CONTINUOUS
 62
     3
 10
23062.584669500018
 20
8710.7442029999984
 30
0.0
 11
23094.581607500018
 21
8742.7441109999982
 31
0.0
  0
LINE
  5
444C
  8
0-1
  6
CONTINUOUS
 62
     3
 10
22776.619455500018
 20
8714.2796239999971
 30
0.0
 11
22776.619455500018
 21
8746.2795310000001
 31
0.0
  0
LINE
  5
444D
  8
0-1
  6
CONTINUOUS
 62
     3
 10
22776.619455500018
 20
8717.6794470000004
 30
0.0
 11
23069.516943499999
 21
8717.6794470000004
 31
0.0
  0
LINE
  5
444E
  8
0-1
  6
CONTINUOUS
 62
     3
 10
22776.619455500018
 20
8726.0795339999986
 30
0.0
 11
23077.918020500008
 21
8726.0795339999986
 31
0.0
  0
LINE
  5
444F
  8
0-1
  6
CONTINUOUS
 62
     3
 10
22781.619719499999
 20
8709.2793600000005
 30
0.0
 11
23059.04726950001
 21
8709.2793600000005
 31
0.0
  0
LINE
  5
4450
  8
0-1
  6
CONTINUOUS
 62
     3
 10
22776.619455500018
 20
8734.4806109999972
 30
0.0
 11
23086.317117500021
 21
8734.4806109999972
 31
0.0
  0
LINE
  5
4451
  8
0-1
  6
CONTINUOUS
 62
     3
 10
22776.619455500018
 20
8742.8806980000045
 30
0.0
 11
23094.714235500021
 21
8742.8806980000045
 31
0.0
  0
LINE
  5
4452
  8
0-1
  6
CONTINUOUS
 62
     3
 10
22781.619719499999
 20
8751.2797950000004
 30
0.0
 11
23091.04816650003
 21
8751.2797950000004
 31
0.0
  0
LINE
  5
4453
  8
0-1
  6
CONTINUOUS
 62
     3
 10
25366.120854500001
 20
8834.2790299999979
 30
0.0
 11
22713.118479500001
 21
8834.2790299999979
 31
0.0
  0
LINE
  5
4454
  8
0-1
  6
CONTINUOUS
 62
     3
 10
22755.616763500009
 20
8760.2796760000001
 30
0.0
 11
25238.120194499988
 21
8760.2796760000001
 31
0.0
  0
LINE
  5
4455
  8
0-1
  6
CONTINUOUS
 62
     3
 10
22755.616763500009
 20
8700.2794779999967
 30
0.0
 11
25238.120194499988
 21
8700.2794779999967
 31
0.0
  0
LINE
  5
4456
  8
0-1
  6
CONTINUOUS
 62
     3
 10
22713.118479500001
 20
8964.2799530000029
 30
0.0
 11
25366.120854500001
 21
8964.2799530000029
 31
0.0
  0
LINE
  5
4457
  8
0-1
  6
CONTINUOUS
 62
     3
 10
22649.617503500001
 20
8714.2796239999971
 30
0.0
 11
22649.617503500001
 21
8746.2795310000001
 31
0.0
  0
LINE
  5
4458
  8
0-1
  6
CONTINUOUS
 62
     3
 10
22363.656248499989
 20
8710.7442029999984
 30
0.0
 11
22331.655351500001
 21
8742.7441109999982
 31
0.0
  0
LINE
  5
4459
  8
0-1
  6
CONTINUOUS
 62
     3
 10
22649.617503500001
 20
8742.8806980000045
 30
0.0
 11
22331.524703499981
 21
8742.8806980000045
 31
0.0
  0
LINE
  5
445A
  8
0-1
  6
CONTINUOUS
 62
     3
 10
22649.617503500001
 20
8734.4806109999972
 30
0.0
 11
22339.919841499988
 21
8734.4806109999972
 31
0.0
  0
LINE
  5
445B
  8
0-1
  6
CONTINUOUS
 62
     3
 10
22649.617503500001
 20
8726.0795339999986
 30
0.0
 11
22348.318938500001
 21
8726.0795339999986
 31
0.0
  0
LINE
  5
445C
  8
0-1
  6
CONTINUOUS
 62
     3
 10
22649.617503500001
 20
8717.6794470000004
 30
0.0
 11
22356.71803649998
 21
8717.6794470000004
 31
0.0
  0
LINE
  5
445D
  8
0-1
  6
CONTINUOUS
 62
     3
 10
22644.619218499989
 20
8751.2797950000004
 30
0.0
 11
22335.188792500001
 21
8751.2797950000004
 31
0.0
  0
LINE
  5
445E
  8
0-1
  6
CONTINUOUS
 62
     3
 10
22644.619218499989
 20
8709.2793600000005
 30
0.0
 11
22367.191669499989
 21
8709.2793600000005
 31
0.0
  0
LINE
  5
445F
  8
0-1
  6
CONTINUOUS
 62
     3
 10
20214.117740500002
 20
8709.2793600000005
 30
0.0
 11
20491.54727049997
 21
8709.2793600000005
 31
0.0
  0
LINE
  5
4460
  8
0-1
  6
CONTINUOUS
 62
     3
 10
20209.119456500001
 20
8714.2796239999971
 30
0.0
 11
20209.119456500001
 21
8746.2795310000001
 31
0.0
  0
LINE
  5
4461
  8
0-1
  6
CONTINUOUS
 62
     3
 10
20060.11808449998
 20
8638.0929020000021
 30
0.0
 11
20103.116236500009
 21
8638.0929020000021
 31
0.0
  0
LINE
  5
4462
  8
0-1
  6
CONTINUOUS
 62
     3
 10
20060.11808449998
 20
8638.0929020000021
 30
0.0
 11
20060.11808449998
 21
8964.2799530000029
 31
0.0
  0
LINE
  5
4463
  8
0-1
  6
CONTINUOUS
 62
     3
 10
20214.117740500002
 20
8751.2797950000004
 30
0.0
 11
20523.548167500001
 21
8751.2797950000004
 31
0.0
  0
LINE
  5
4464
  8
0-1
  6
CONTINUOUS
 62
     3
 10
20495.080710499999
 20
8710.7442029999984
 30
0.0
 11
20527.08160849999
 21
8742.7441109999982
 31
0.0
  0
LINE
  5
4465
  8
0-1
  6
CONTINUOUS
 62
     3
 10
20209.119456500001
 20
8742.8806980000045
 30
0.0
 11
20527.2142355
 21
8742.8806980000045
 31
0.0
  0
LINE
  5
4466
  8
0-1
  6
CONTINUOUS
 62
     3
 10
20209.119456500001
 20
8734.4806109999972
 30
0.0
 11
20518.81711850001
 21
8734.4806109999972
 31
0.0
  0
LINE
  5
4467
  8
0-1
  6
CONTINUOUS
 62
     3
 10
20209.119456500001
 20
8726.0795339999986
 30
0.0
 11
20510.418020500008
 21
8726.0795339999986
 31
0.0
  0
LINE
  5
4468
  8
0-1
  6
CONTINUOUS
 62
     3
 10
20209.119456500001
 20
8717.6794470000004
 30
0.0
 11
20502.0189235
 21
8717.6794470000004
 31
0.0
  0
LINE
  5
4469
  8
0-1
  6
CONTINUOUS
 62
     3
 10
20188.11676450001
 20
8700.2794779999967
 30
0.0
 11
22670.618215499991
 21
8700.2794779999967
 31
0.0
  0
LINE
  5
446A
  8
0-1
  6
CONTINUOUS
 62
     3
 10
20188.11676450001
 20
8760.2796760000001
 30
0.0
 11
22670.618215499991
 21
8760.2796760000001
 31
0.0
  0
LINE
  5
446B
  8
0-1
  6
CONTINUOUS
 62
     3
 10
20060.11808449998
 20
8964.2799530000029
 30
0.0
 11
22713.118479500001
 21
8964.2799530000029
 31
0.0
  0
LINE
  5
446C
  8
0-1
  6
CONTINUOUS
 62
     3
 10
22713.118479500001
 20
8834.2790299999979
 30
0.0
 11
20060.11808449998
 21
8834.2790299999979
 31
0.0
  0
LINE
  5
446D
  8
0-1
  6
CONTINUOUS
 62
     3
 10
22713.118479500001
 20
8834.2790299999979
 30
0.0
 11
22713.118479500001
 21
8964.2799530000029
 31
0.0
  0
LINE
  5
446E
  8
0-1
  6
CONTINUOUS
 62
     3
 10
22713.118479500001
 20
8834.2790299999979
 30
0.0
 11
22713.118479500001
 21
8964.2799530000029
 31
0.0
  0
ARC
  5
446F
  8
0-1
  6
CONTINUOUS
 62
     3
 10
25212.121197499979
 20
8746.2795310000001
 30
0.0
 40
5.0
 50
0.0
 51
90.0
  0
ARC
  5
4470
  8
0-1
  6
CONTINUOUS
 62
     3
 10
25212.121197499979
 20
8714.2796239999971
 30
0.0
 40
5.0
 50
269.9999850001808
 51
0.0
  0
ARC
  5
4471
  8
0-1
  6
CONTINUOUS
 62
     3
 10
24902.690771500002
 20
8746.2795310000001
 30
0.0
 40
5.0
 50
90.0
 51
224.99998499997989
  0
ARC
  5
4472
  8
0-1
  6
CONTINUOUS
 62
     3
 10
24934.691668499989
 20
8714.2796239999971
 30
0.0
 40
5.0
 50
224.99998499997989
 51
269.9999850001808
  0
ARC
  5
4473
  8
0-1
  6
CONTINUOUS
 62
     3
 10
23091.04816650003
 20
8746.2795310000001
 30
0.0
 40
5.0
 50
314.99998500027471
 51
90.0
  0
ARC
  5
4474
  8
0-1
  6
CONTINUOUS
 62
     3
 10
23059.04726950001
 20
8714.2796239999971
 30
0.0
 40
5.0
 50
269.9999850001808
 51
314.99998500027471
  0
ARC
  5
4475
  8
0-1
  6
CONTINUOUS
 62
     3
 10
22781.619719499999
 20
8714.2796239999971
 30
0.0
 40
5.0
 50
180.0
 51
269.9999850001808
  0
ARC
  5
4476
  8
0-1
  6
CONTINUOUS
 62
     3
 10
22781.619719499999
 20
8746.2795310000001
 30
0.0
 40
5.0
 50
90.0
 51
180.0
  0
ARC
  5
4477
  8
0-1
  6
CONTINUOUS
 62
     3
 10
22644.619218499989
 20
8714.2796239999971
 30
0.0
 40
5.0
 50
269.9999850001808
 51
0.0
  0
ARC
  5
4478
  8
0-1
  6
CONTINUOUS
 62
     3
 10
22644.619218499989
 20
8746.2795310000001
 30
0.0
 40
5.0
 50
0.0
 51
90.0
  0
ARC
  5
4479
  8
0-1
  6
CONTINUOUS
 62
     3
 10
22335.188792500001
 20
8746.2795310000001
 30
0.0
 40
5.0
 50
90.0
 51
224.99998499997989
  0
ARC
  5
447A
  8
0-1
  6
CONTINUOUS
 62
     3
 10
22367.191669499989
 20
8714.2796239999971
 30
0.0
 40
5.0
 50
224.99998499997989
 51
269.9999850001808
  0
ARC
  5
447B
  8
0-1
  6
CONTINUOUS
 62
     3
 10
20523.548167500001
 20
8746.2795310000001
 30
0.0
 40
5.0
 50
314.99998500027471
 51
90.0
  0
ARC
  5
447C
  8
0-1
  6
CONTINUOUS
 62
     3
 10
20214.117740500002
 20
8746.2795310000001
 30
0.0
 40
5.0
 50
90.0
 51
180.0
  0
ARC
  5
447D
  8
0-1
  6
CONTINUOUS
 62
     3
 10
20214.117740500002
 20
8714.2796239999971
 30
0.0
 40
5.0
 50
180.0
 51
269.9999850001808
  0
ARC
  5
447E
  8
0-1
  6
CONTINUOUS
 62
     3
 10
20491.54727049997
 20
8714.2796239999971
 30
0.0
 40
5.0
 50
269.9999850001808
 51
314.99998500027471
  0
LINE
  5
447F
  8
SUNPOU
  6
CONTINUOUS
 62
     4
 10
20060.116104499979
 20
9044.2799530000029
 30
0.0
 11
20060.116104499979
 21
10243.737564999999
 31
0.0
  0
LINE
  5
4480
  8
SUNPOU
  6
CONTINUOUS
 62
     4
 10
25366.120854500001
 20
9044.2799530000029
 30
0.0
 11
25366.120854500001
 21
10243.737564999999
 31
0.0
  0
LINE
  5
4481
  8
SUNPOU
  6
CONTINUOUS
 62
     4
 10
20063.116104499979
 20
10163.737564999999
 30
0.0
 11
25363.120854500001
 21
10163.737564999999
 31
0.0
  0
LINE
  5
4482
  8
SUNPOU
  6
CONTINUOUS
 62
     4
 10
20103.118215499981
 20
9044.2799530000029
 30
0.0
 11
20103.118215499981
 21
9843.7797950000004
 31
0.0
  0
LINE
  5
4483
  8
SUNPOU
  6
CONTINUOUS
 62
     4
 10
25323.118743499981
 20
9044.2799530000029
 30
0.0
 11
25323.118743499981
 21
9843.7797950000004
 31
0.0
  0
LINE
  5
4484
  8
SUNPOU
  6
CONTINUOUS
 62
     4
 10
20103.118215499981
 20
9763.7797950000004
 30
0.0
 11
25323.118743499981
 21
9763.7797950000004
 31
0.0
  0
LINE
  5
4485
  8
SUNPOU
  6
CONTINUOUS
 62
     4
 10
20103.118215499981
 20
9044.2799530000029
 30
0.0
 11
20103.118215499981
 21
9843.7797950000004
 31
0.0
  0
LINE
  5
4486
  8
SUNPOU
  6
CONTINUOUS
 62
     4
 10
20060.116104499979
 20
9044.2799530000029
 30
0.0
 11
20060.116104499979
 21
9843.7797950000004
 31
0.0
  0
LINE
  5
4487
  8
SUNPOU
  6
CONTINUOUS
 62
     4
 10
20103.118215499981
 20
9763.7797950000004
 30
0.0
 11
20343.118215499981
 21
9763.7797950000004
 31
0.0
  0
LINE
  5
4488
  8
SUNPOU
  6
CONTINUOUS
 62
     4
 10
20063.116104499979
 20
9763.7797950000004
 30
0.0
 11
19823.116104500001
 21
9763.7797950000004
 31
0.0
  0
LINE
  5
4489
  8
SUNPOU
  6
CONTINUOUS
 62
     4
 10
20103.118215499981
 20
9763.7797950000004
 30
0.0
 11
20063.116104499979
 21
9763.7797950000004
 31
0.0
  0
LINE
  5
448A
  8
SUNPOU
  6
CONTINUOUS
 62
     4
 10
25323.118743499981
 20
9044.2799530000029
 30
0.0
 11
25323.118743499981
 21
9843.7797950000004
 31
0.0
  0
LINE
  5
448B
  8
SUNPOU
  6
CONTINUOUS
 62
     4
 10
25366.120854500001
 20
9044.2799530000029
 30
0.0
 11
25366.120854500001
 21
9843.7797950000004
 31
0.0
  0
LINE
  5
448C
  8
SUNPOU
  6
CONTINUOUS
 62
     4
 10
25323.118743499981
 20
9763.7797950000004
 30
0.0
 11
25083.118743499981
 21
9763.7797950000004
 31
0.0
  0
LINE
  5
448D
  8
SUNPOU
  6
CONTINUOUS
 62
     4
 10
25363.120854500001
 20
9763.7797950000004
 30
0.0
 11
25603.120854500001
 21
9763.7797950000004
 31
0.0
  0
LINE
  5
448E
  8
SUNPOU
  6
CONTINUOUS
 62
     4
 10
25323.118743499981
 20
9763.7797950000004
 30
0.0
 11
25363.120854500001
 21
9763.7797950000004
 31
0.0
  0
TEXT
  5
448F
  8
0
  6
CONTINUOUS
 62
     7
 10
25483.120854500001
 20
9843.7797950000004
 30
0.0
 40
160.0
  1
43
  0
TEXT
  5
4490
  8
0
  6
CONTINUOUS
 62
     7
 10
19703.116104500001
 20
9843.7797950000004
 30
0.0
 40
160.0
  1
43
  0
TEXT
  5
4491
  8
0
  6
CONTINUOUS
 62
     7
 10
22433.118479500001
 20
9843.7797950000004
 30
0.0
 40
160.0
  1
5220
  0
TEXT
  5
4492
  8
0
  6
CONTINUOUS
 62
     7
 10
22446.451812833329
 20
10243.737564999999
 30
0.0
 40
160.0
  1
5306
  0
ARC
  5
4493
  8
0
  6
BYBLOCK
 62
     0
 10
20060.116104499979
 20
10163.737564999999
 30
0.0
 40
15.0
 50
0.0
 51
180.0
  0
ARC
  5
4494
  8
0
  6
BYBLOCK
 62
     0
 10
20060.116104499979
 20
10163.737564999999
 30
0.0
 40
15.0
 50
180.0
 51
0.0
  0
ARC
  5
4495
  8
0
  6
BYBLOCK
 62
     0
 10
25366.120854500001
 20
10163.737564999999
 30
0.0
 40
15.0
 50
180.0
 51
0.0
  0
ARC
  5
4496
  8
0
  6
BYBLOCK
 62
     0
 10
25366.120854500001
 20
10163.737564999999
 30
0.0
 40
15.0
 50
0.0
 51
180.0
  0
ARC
  5
4497
  8
0
  6
BYBLOCK
 62
     0
 10
20103.118215499981
 20
9763.7797950000004
 30
0.0
 40
15.0
 50
0.0
 51
180.0
  0
ARC
  5
4498
  8
0
  6
BYBLOCK
 62
     0
 10
20103.118215499981
 20
9763.7797950000004
 30
0.0
 40
15.0
 50
180.0
 51
0.0
  0
ARC
  5
4499
  8
0
  6
BYBLOCK
 62
     0
 10
25323.118743499981
 20
9763.7797950000004
 30
0.0
 40
15.0
 50
180.0
 51
0.0
  0
ARC
  5
449A
  8
0
  6
BYBLOCK
 62
     0
 10
25323.118743499981
 20
9763.7797950000004
 30
0.0
 40
15.0
 50
0.0
 51
180.0
  0
ARC
  5
449B
  8
0
  6
BYBLOCK
 62
     0
 10
20103.118215499981
 20
9763.7797950000004
 30
0.0
 40
15.0
 50
0.0
 51
180.0
  0
ARC
  5
449C
  8
0
  6
BYBLOCK
 62
     0
 10
20103.118215499981
 20
9763.7797950000004
 30
0.0
 40
15.0
 50
180.0
 51
0.0
  0
ARC
  5
449D
  8
0
  6
BYBLOCK
 62
     0
 10
20060.116104499979
 20
9763.7797950000004
 30
0.0
 40
15.0
 50
180.0
 51
0.0
  0
ARC
  5
449E
  8
0
  6
BYBLOCK
 62
     0
 10
20060.116104499979
 20
9763.7797950000004
 30
0.0
 40
15.0
 50
0.0
 51
180.0
  0
ARC
  5
449F
  8
0
  6
BYBLOCK
 62
     0
 10
25323.118743499981
 20
9763.7797950000004
 30
0.0
 40
15.0
 50
180.0
 51
0.0
  0
ARC
  5
44A0
  8
0
  6
BYBLOCK
 62
     0
 10
25323.118743499981
 20
9763.7797950000004
 30
0.0
 40
15.0
 50
0.0
 51
180.0
  0
ARC
  5
44A1
  8
0
  6
BYBLOCK
 62
     0
 10
25366.120854500001
 20
9763.7797950000004
 30
0.0
 40
15.0
 50
0.0
 51
180.0
  0
ARC
  5
44A2
  8
0
  6
BYBLOCK
 62
     0
 10
25366.120854500001
 20
9763.7797950000004
 30
0.0
 40
15.0
 50
180.0
 51
0.0
  0
LINE
  5
44B9
  8
SUNPOU
  6
CONTINUOUS
 62
     4
 10
9764.6595124999894
 20
14133.73065
 30
0.0
 11
9764.6595124999894
 21
12954.78283
 31
0.0
  0
LINE
  5
44BA
  8
SUNPOU
  6
CONTINUOUS
 62
     4
 10
15070.66228349998
 20
14133.73065
 30
0.0
 11
15070.66228349998
 21
12954.78283
 31
0.0
  0
LINE
  5
44BB
  8
SUNPOU
  6
CONTINUOUS
 62
     4
 10
9767.6595124999894
 20
13034.78283
 30
0.0
 11
15067.66228349998
 21
13034.78283
 31
0.0
  0
TEXT
  5
44BC
  8
0
  6
CONTINUOUS
 62
     7
 10
11628.32756466665
 20
13114.78283
 30
0.0
 40
160.0
  1
ケラバ外寸 5306
  0
ARC
  5
44BD
  8
0
  6
BYBLOCK
 62
     0
 10
9764.6595124999894
 20
13034.78283
 30
0.0
 40
15.0
 50
0.0
 51
180.0
  0
ARC
  5
44BE
  8
0
  6
BYBLOCK
 62
     0
 10
9764.6595124999894
 20
13034.78283
 30
0.0
 40
15.0
 50
180.0
 51
0.0
  0
ARC
  5
44BF
  8
0
  6
BYBLOCK
 62
     0
 10
15070.66228349998
 20
13034.78283
 30
0.0
 40
15.0
 50
180.0
 51
0.0
  0
ARC
  5
44C0
  8
0
  6
BYBLOCK
 62
     0
 10
15070.66228349998
 20
13034.78283
 30
0.0
 40
15.0
 50
0.0
 51
180.0
  0
TEXT
  5
4580
  8
NAME
 10
24033.05354655402
 20
1076.0
 30
0.0
 40
360.0
  1
H
 41
0.6700000000000002
  7
00
  0
TEXT
  5
4581
  8
NAME
 10
23657.2215619737
 20
1076.0
 30
0.0
 40
360.0
  1
（ ）
  7
01
  0
TEXT
  5
4582
  8
NAME
 10
21933.552716389018
 20
1876.0
 30
0.0
 40
360.0
  1
ヨドガレージ ラヴィージュ
 41
0.75
  7
01
  0
TEXT
  5
4583
  8
NAME
 10
21550.022791898398
 20
1076.6369801169251
 30
0.0
 40
360.0
  1
VGCU-2655
 41
0.6700000000000002
  0
LINE
  5
4584
  8
NAME
  6
CONTINUOUS
 10
26067.886878884321
 20
2236.0
 30
0.0
 11
26067.886878884321
 21
1876.0
 31
0.0
  0
LINE
  5
4585
  8
NAME
  6
CONTINUOUS
 10
26167.886878884321
 20
2236.0
 30
0.0
 11
26167.886878884321
 21
1876.0
 31
0.0
  0
LINE
  5
4586
  8
NAME
  6
CONTINUOUS
 10
26267.886878884328
 20
2236.0
 30
0.0
 11
26267.886878884328
 21
1876.0
 31
0.0
  0
LINE
  5
4587
  8
NAME
  6
CONTINUOUS
 10
26007.886878884321
 20
2236.0
 30
0.0
 11
26327.886878884321
 21
2236.0
 31
0.0
  0
LINE
  5
4588
  8
NAME
  6
CONTINUOUS
 10
26327.886878884321
 20
1876.0
 30
0.0
 11
26007.886878884321
 21
1876.0
 31
0.0
  0
TEXT
  5
4589
  8
NAME
 10
25346.041792426691
 20
1076.0
 30
0.0
 40
360.0
  1
2
 41
0.6700000000000002
  7
00
  0
TEXT
  5
458A
  8
NAME
 10
24557.214549256729
 20
1076.0
 30
0.0
 40
360.0
  1
型（ 連棟）
  7
01
  0
TEXT
  5
4623
  8
FILENAME
  6
CONTINUOUS
 10
28546.857142857141
 20
348.0
 30
0.0
 40
200.0
  1
＜VGCU-2655-2-A_0.DXF ＞
  7
FILENAME
 72
     2
 11
32764.0
 21
348.0
 31
0.0
  0
LINE
  5
4629
  8
WAKUSEN-01
 10
868.00000000000193
 20
827.99999999999955
 30
0.0
 11
32764.000000000011
 21
827.99999999999943
 31
0.0
  0
LINE
  5
462A
  8
WAKUSEN-01
 10
868.00000000000193
 20
827.99999999999955
 30
0.0
 11
868.00000000000193
 21
22484.000000000011
 31
0.0
  0
LINE
  5
462B
  8
WAKUSEN-01
 10
32764.000000000011
 20
827.99999999999943
 30
0.0
 11
32764.000000000011
 21
22484.000000000011
 31
0.0
  0
LINE
  5
462C
  8
WAKUSEN-01
 10
20560.0
 20
827.99999999999716
 30
0.0
 11
20560.0
 21
2484.0
 31
0.0
  0
LINE
  5
462D
  8
WAKUSEN-02
 10
26868.0
 20
827.99999999999261
 30
0.0
 11
26868.0
 21
2484.0
 31
0.0
  0
ENDSEC
  0
EOF
