  0
SECTION
  2
HEADER
  9
$ACADVER
  1
AC1009
  9
$INSBASE
 10
0.0
 20
0.0
 30
0.0
  9
$EXTMIN
 10
867.99324330406671
 20
327.38164749855792
 30
-0.0000000000000053
  9
$EXTMAX
 10
32765.33210850941
 20
22484.553276491992
 30
0.0000000000000099
  9
$LIMMIN
 10
0.0
 20
0.0
  9
$LIMMAX
 10
33600.0
 20
23760.0
  9
$ORTHOMODE
 70
     1
  9
$REGENMODE
 70
     1
  9
$FILLMODE
 70
     1
  9
$QTEXTMODE
 70
     0
  9
$MIRRTEXT
 70
     1
  9
$DRAGMODE
 70
     2
  9
$LTSCALE
 40
80.0
  9
$OSMODE
 70
  3071
  9
$ATTMODE
 70
     1
  9
$TEXTSIZE
 40
0.2
  9
$TRACEWID
 40
0.05
  9
$TEXTSTYLE
  7
00
  9
$CLAYER
  8
0
  9
$CELTYPE
  6
BYLAYER
  9
$CECOLOR
 62
   256
  9
$DIMSCALE
 40
80.0
  9
$DIMASZ
 40
3.0
  9
$DIMEXO
 40
1.0
  9
$DIMDLI
 40
0.38
  9
$DIMRND
 40
0.5
  9
$DIMDLE
 40
0.0
  9
$DIMEXE
 40
1.0
  9
$DIMTP
 40
0.0
  9
$DIMTM
 40
0.0
  9
$DIMTXT
 40
2.0
  9
$DIMCEN
 40
0.09
  9
$DIMTSZ
 40
0.0
  9
$DIMTOL
 70
     0
  9
$DIMLIM
 70
     0
  9
$DIMTIH
 70
     0
  9
$DIMTOH
 70
     0
  9
$DIMSE1
 70
     0
  9
$DIMSE2
 70
     0
  9
$DIMTAD
 70
     1
  9
$DIMZIN
 70
     8
  9
$DIMBLK
  1
DOTSMALL
  9
$DIMASO
 70
     1
  9
$DIMSHO
 70
     1
  9
$DIMPOST
  1

  9
$DIMAPOST
  1

  9
$DIMALT
 70
     0
  9
$DIMALTD
 70
     2
  9
$DIMALTF
 40
25.399999999999999
  9
$DIMLFAC
 40
1.0
  9
$DIMTOFL
 70
     1
  9
$DIMTVP
 40
0.0
  9
$DIMTIX
 70
     0
  9
$DIMSOXD
 70
     0
  9
$DIMSAH
 70
     0
  9
$DIMBLK1
  1

  9
$DIMBLK2
  1

  9
$DIMSTYLE
  2
SUNPOU
  9
$DIMCLRD
 70
     4
  9
$DIMCLRE
 70
     4
  9
$DIMCLRT
 70
     7
  9
$DIMTFAC
 40
1.0
  9
$DIMGAP
 40
1.0
  9
$LUNITS
 70
     2
  9
$LUPREC
 70
     4
  9
$SKETCHINC
 40
0.1
  9
$FILLETRAD
 40
0.0
  9
$AUNITS
 70
     0
  9
$AUPREC
 70
     0
  9
$MENU
  1
acad
  9
$ELEVATION
 40
0.0
  9
$PELEVATION
 40
0.0
  9
$THICKNESS
 40
0.0
  9
$LIMCHECK
 70
     0
  9
$BLIPMODE
 70
     1
  9
$CHAMFERA
 40
0.0
  9
$CHAMFERB
 40
0.0
  9
$SKPOLY
 70
     0
  9
$TDCREATE
 40
2454570.836629224
  9
$TDUPDATE
 40
2458942.4351187851
  9
$TDINDWG
 40
0.0670253588
  9
$TDUSRTIMER
 40
0.0670240741
  9
$USRTIMER
 70
     1
  9
$ANGBASE
 50
0.0
  9
$ANGDIR
 70
     0
  9
$PDMODE
 70
     0
  9
$PDSIZE
 40
0.0
  9
$PLINEWID
 40
0.0
  9
$COORDS
 70
     1
  9
$SPLFRAME
 70
     0
  9
$SPLINETYPE
 70
     6
  9
$SPLINESEGS
 70
     8
  9
$ATTDIA
 70
     1
  9
$ATTREQ
 70
     1
  9
$HANDLING
 70
     1
  9
$HANDSEED
  5
3FFD
  9
$SURFTAB1
 70
     6
  9
$SURFTAB2
 70
     6
  9
$SURFTYPE
 70
     6
  9
$SURFU
 70
     6
  9
$SURFV
 70
     6
  9
$UCSNAME
  2

  9
$UCSORG
 10
0.0
 20
0.0
 30
0.0
  9
$UCSXDIR
 10
1.0
 20
0.0
 30
0.0
  9
$UCSYDIR
 10
0.0
 20
1.0
 30
0.0
  9
$PUCSNAME
  2

  9
$PUCSORG
 10
0.0
 20
0.0
 30
0.0
  9
$PUCSXDIR
 10
1.0
 20
0.0
 30
0.0
  9
$PUCSYDIR
 10
0.0
 20
1.0
 30
0.0
  9
$USERI1
 70
     0
  9
$USERI2
 70
     0
  9
$USERI3
 70
     0
  9
$USERI4
 70
     0
  9
$USERI5
 70
     0
  9
$USERR1
 40
0.0
  9
$USERR2
 40
0.0
  9
$USERR3
 40
0.0
  9
$USERR4
 40
0.0
  9
$USERR5
 40
0.0
  9
$WORLDVIEW
 70
     1
  9
$SHADEDGE
 70
     3
  9
$SHADEDIF
 70
    70
  9
$TILEMODE
 70
     1
  9
$MAXACTVP
 70
    16
  9
$PLIMCHECK
 70
     0
  9
$PEXTMIN
 10
1.0000000000000000E+020
 20
1.0000000000000000E+020
 30
1.0000000000000000E+020
  9
$PEXTMAX
 10
-1.0000000000000000E+020
 20
-1.0000000000000000E+020
 30
-1.0000000000000000E+020
  9
$PLIMMIN
 10
0.0
 20
0.0
  9
$PLIMMAX
 10
12.0
 20
9.0
  9
$UNITMODE
 70
     0
  9
$VISRETAIN
 70
     0
  9
$PLINEGEN
 70
     1
  9
$PSLTSCALE
 70
     0
  0
ENDSEC
  0
SECTION
  2
TABLES
  0
TABLE
  2
VPORT
 70
     1
  0
VPORT
  2
*ACTIVE
 70
     0
 10
0.0
 20
0.0
 11
1.0
 21
1.0
 12
16800.0
 22
11880.0
 13
0.0
 23
0.0
 14
1.0
 24
1.0
 15
0.0
 25
0.0
 16
0.0
 26
0.0
 36
1.0
 17
0.0
 27
0.0
 37
0.0
 40
23981.023255813951
 41
2.195652173913043
 42
50.0
 43
0.0
 44
0.0
 50
0.0
 51
0.0
 71
     0
 72
 10000
 73
     1
 74
     1
 75
     0
 76
     0
 77
     0
 78
     0
  0
ENDTAB
  0
TABLE
  2
LTYPE
 70
     3
  0
LTYPE
  2
CONTINUOUS
 70
     0
  3
Solid line
 72
    65
 73
     0
 40
0.0
  0
LTYPE
  2
DASHED3
 70
     0
  3
------  ------  ------  ------  
 72
    65
 73
     2
 40
5.0
 49
3.75
 49
-1.25
  0
LTYPE
  2
CENTER2
 70
     0
  3
----------  --  ----------  --  
 72
    65
 73
     4
 40
20.0
 49
12.5
 49
-2.5
 49
2.5
 49
-2.5
  0
ENDTAB
  0
TABLE
  2
LAYER
 70
    18
  0
LAYER
  2
0
 70
     0
 62
     7
  6
CONTINUOUS
  0
LAYER
  2
SUNPOU
 70
     0
 62
     4
  6
CONTINUOUS
  0
LAYER
  2
0-1
 70
     0
 62
     7
  6
CONTINUOUS
  0
LAYER
  2
0-2
 70
     0
 62
     7
  6
CONTINUOUS
  0
LAYER
  2
0-5
 70
     0
 62
     7
  6
CONTINUOUS
  0
LAYER
  2
0-6
 70
     0
 62
     7
  6
CONTINUOUS
  0
LAYER
  2
0-3
 70
     0
 62
     7
  6
CONTINUOUS
  0
LAYER
  2
YODOROGO
 70
     0
 62
   130
  6
CONTINUOUS
  0
LAYER
  2
WAKUSEN-01
 70
     0
 62
    50
  6
CONTINUOUS
  0
LAYER
  2
WAKUSEN-02
 70
     0
 62
   130
  6
CONTINUOUS
  0
LAYER
  2
WAKUMOJI-01
 70
     0
 62
   130
  6
CONTINUOUS
  0
LAYER
  2
FILENAME
 70
     0
 62
     7
  6
CONTINUOUS
  0
LAYER
  2
NAME
 70
     0
 62
    20
  6
CONTINUOUS
  0
LAYER
  2
0-4
 70
     0
 62
     7
  6
CONTINUOUS
  0
LAYER
  2
2-0
 70
     0
 62
     7
  6
CONTINUOUS
  0
LAYER
  2
0-0
 70
     0
 62
     7
  6
CONTINUOUS
  0
ENDTAB
  0
TABLE
  2
STYLE
 70
     5
  0
STYLE
  2
STANDARD
 70
     0
 40
0.0
 41
1.0
 50
0.0
 71
     0
 42
0.0
  3
txt
  4
BIGFONT
  0
STYLE
  2
00
 70
     0
 40
0.0
 41
0.6666666666666666
 50
0.0
 71
     0
 42
0.2
  3
ROMANS
  4
BIGFONT
  0
STYLE
  2
01
 70
     0
 40
3.0
 41
1.0
 50
0.0
 71
     0
 42
0.2
  3
ROMANS
  4
BIGFONT
  0
STYLE
  2
WAKUMOJI
 70
     0
 40
3.0
 41
1.0
 50
0.0
 71
     0
 42
3.0
  3
SIMPLEX
  4
BIGFONT
  0
STYLE
  2
FILENAME
 70
     0
 40
200.0
 41
1.0
 50
0.0
 71
     0
 42
200.0
  3
romans
  4
bigfont
  0
ENDTAB
  0
TABLE
  2
VIEW
 70
     0
  0
ENDTAB
  0
TABLE
  2
UCS
 70
     0
  0
ENDTAB
  0
TABLE
  2
APPID
 70
    13
  0
APPID
  2
ACAD
 70
     0
  0
APPID
  2
ACADANNOTATIVE
 70
     0
  0
APPID
  2
ACAD_PSEXT
 70
     0
  0
APPID
  2
DCO15
 70
     0
  0
APPID
  2
ACAD_MLEADERVER
 70
     0
  0
APPID
  2
AUTOCAD_POSTSCRIPT_FIGURE
 70
     0
  0
APPID
  2
ACAD_EXEMPT_FROM_CAD_STANDARDS
 70
     0
  0
APPID
  2
ACAD_DSTYLE_DIMJAG
 70
     0
  0
APPID
  2
ACAD_DSTYLE_DIMTALN
 70
     0
  0
APPID
  2
ACAD_DSTYLE_DIM_LINETYPE
 70
     0
  0
APPID
  2
ACAD_DSTYLE_DIM_EXT1_LINETYPE
 70
     0
  0
APPID
  2
ACAD_DSTYLE_DIM_EXT2_LINETYPE
 70
     0
  0
APPID
  2
ACAD_NAV_VCDISPLAY
 70
     0
  0
ENDTAB
  0
TABLE
  2
DIMSTYLE
 70
     2
  0
DIMSTYLE
  2
SUNPOU
 70
     0
  3

  4

  5

  6

  7

 40
80.0
 41
3.0
 42
1.0
 43
0.38
 44
1.0
 45
0.5
 46
0.0
 47
0.0
 48
0.0
140
2.0
141
0.09
142
0.0
143
25.399999999999999
144
1.0
145
0.0
146
1.0
147
1.0
 71
     0
 72
     0
 73
     0
 74
     0
 75
     0
 76
     0
 77
     1
 78
     8
170
     0
171
     2
172
     1
173
     0
174
     0
175
     0
176
     4
177
     4
178
     7
  0
ENDTAB
  0
ENDSEC
  0
SECTION
  2
BLOCKS
  0
BLOCK
  8
0
  2
$MODEL_SPACE
 70
     0
 10
0.0
 20
0.0
 30
0.0
  3
$MODEL_SPACE
  1

  0
ENDBLK
  5
3528
  8
0
  0
BLOCK
 67
     1
  8
0
  2
$PAPER_SPACE
 70
     0
 10
0.0
 20
0.0
 30
0.0
  3
$PAPER_SPACE
  1

  0
ENDBLK
  5
3524
 67
     1
  8
0
  0
BLOCK
  8
0
  2
_DOTSMALL
 70
     0
 10
0.0
 20
0.0
 30
0.0
  3
_DOTSMALL
  1

  0
POLYLINE
  5
3558
  8
0
  6
BYBLOCK
 62
     0
 66
     1
 10
0.0
 20
0.0
 30
0.0
 70
     1
 40
0.5
 41
0.5
  0
VERTEX
  5
3FC5
  8
0
  6
BYBLOCK
 62
     0
 10
-0.0625
 20
0.0
 30
0.0
 42
1.0
  0
VERTEX
  5
3FC6
  8
0
  6
BYBLOCK
 62
     0
 10
0.0625
 20
0.0
 30
0.0
 42
1.0
  0
SEQEND
  5
3FC7
  8
0
  6
BYBLOCK
 62
     0
  0
ENDBLK
  5
355C
  8
0
  0
ENDSEC
  0
SECTION
  2
ENTITIES
  0
LINE
  5
355D
  8
0-1
  6
CONTINUOUS
 62
     3
 10
11524.970452999991
 20
19295.244058
 30
0.0
 11
11524.970452999991
 21
19956.933247000001
 31
0.0
  0
LINE
  5
355E
  8
0-1
  6
CONTINUOUS
 62
     3
 10
11487.969291999991
 20
19321.108447999999
 30
0.0
 11
11487.969291999991
 21
19956.933247000001
 31
0.0
  0
LINE
  5
355F
  8
0-1
  6
CONTINUOUS
 62
     3
 10
11327.46992499999
 20
17141.934567000011
 30
0.0
 11
13894.96992499999
 21
17141.934567000011
 31
0.0
  0
LINE
  5
3560
  8
0-1
  6
CONTINUOUS
 62
     3
 10
13844.969304999981
 20
14108.43460700001
 30
0.0
 11
13844.969304999981
 21
19956.933247000001
 31
0.0
  0
LINE
  5
3561
  8
0-1
  6
CONTINUOUS
 62
     3
 10
11377.46955599998
 20
14108.43460700001
 30
0.0
 11
11377.46955599998
 21
19956.933247000001
 31
0.0
  0
LINE
  5
3562
  8
0-1
  6
CONTINUOUS
 62
     3
 10
11241.968539999991
 20
14076.43370999999
 30
0.0
 11
11241.968539999991
 21
19966.936281999999
 31
0.0
  0
LINE
  5
3563
  8
0-1
  6
CONTINUOUS
 62
     3
 10
13980.46933099998
 20
14076.43370999999
 30
0.0
 11
13980.46933099998
 21
19966.936281999999
 31
0.0
  0
LINE
  5
3564
  8
0-1
  6
CONTINUOUS
 62
     3
 10
11697.469726999991
 20
19181.297029999991
 30
0.0
 11
11697.469726999991
 21
19956.933247000001
 31
0.0
  0
LINE
  5
3565
  8
0-1
  6
CONTINUOUS
 62
     3
 10
11734.469898999991
 20
19155.430659999991
 30
0.0
 11
11734.469898999991
 21
19956.933247000001
 31
0.0
  0
LINE
  5
3566
  8
0-1
  6
CONTINUOUS
 62
     3
 10
11897.471376999991
 20
19041.487591000001
 30
0.0
 11
11897.471376999991
 21
19956.933247000001
 31
0.0
  0
LINE
  5
3567
  8
0-1
  6
CONTINUOUS
 62
     3
 10
11934.469568999981
 20
19015.621222000002
 30
0.0
 11
11934.469568999981
 21
19956.933247000001
 31
0.0
  0
LINE
  5
3568
  8
0-1
  6
CONTINUOUS
 62
     3
 10
12266.145824999991
 20
18779.261478
 30
0.0
 11
12411.18910999997
 21
18987.381409999991
 31
0.0
  0
LINE
  5
3569
  8
0-1
  6
CONTINUOUS
 62
     3
 10
12935.60119299999
 20
17995.469115999978
 30
0.0
 11
13085.77341199998
 21
18206.295762999991
 31
0.0
  0
LINE
  5
356A
  8
0-1
  6
CONTINUOUS
 62
     3
 10
12935.60119299999
 20
17995.469115999978
 30
0.0
 11
12411.18910999997
 21
18987.381409999991
 31
0.0
  0
LINE
  5
356B
  8
0-1
  6
CONTINUOUS
 62
     3
 10
11284.96867199999
 20
14232.434620000011
 30
0.0
 11
13937.470188999991
 21
14232.434620000011
 31
0.0
  0
LINE
  5
356C
  8
0-1
  6
CONTINUOUS
 62
     3
 10
11327.46992499999
 20
14311.435227000011
 30
0.0
 11
13894.96992499999
 21
14311.435227000011
 31
0.0
  0
LINE
  5
356D
  8
0-1
  6
CONTINUOUS
 62
     3
 10
11241.968539999991
 20
14076.43370999999
 30
0.0
 11
13980.46933099998
 21
14076.43370999999
 31
0.0
  0
LINE
  5
356E
  8
0-1
  6
CONTINUOUS
 62
     3
 10
11241.968539999991
 20
14108.43460700001
 30
0.0
 11
13980.46933099998
 21
14108.43460700001
 31
0.0
  0
LINE
  5
356F
  8
0-1
  6
CONTINUOUS
 62
     3
 10
13894.96992499999
 20
14232.434620000011
 30
0.0
 11
13894.96992499999
 21
17640.616655999991
 31
0.0
  0
LINE
  5
3570
  8
0-1
  6
CONTINUOUS
 62
     3
 10
13937.470188999991
 20
14232.434620000011
 30
0.0
 11
13937.470188999991
 21
17610.908040999999
 31
0.0
  0
LINE
  5
3571
  8
0-1
  6
CONTINUOUS
 62
     3
 10
14240.488954999981
 20
17394.083664000009
 30
0.0
 11
13085.77341199998
 21
18206.295762999991
 31
0.0
  0
LINE
  5
3572
  8
0-1
  6
CONTINUOUS
 62
     3
 10
11327.46992499999
 20
14232.434620000011
 30
0.0
 11
11327.46992499999
 21
19433.309539999991
 31
0.0
  0
LINE
  5
3573
  8
0-1
  6
CONTINUOUS
 62
     3
 10
11284.96867199999
 20
14232.434620000011
 30
0.0
 11
11284.96867199999
 21
19463.016176000001
 31
0.0
  0
LINE
  5
3574
  8
0-1
  6
CONTINUOUS
 62
     3
 10
12097.47005699999
 20
18901.674193999988
 30
0.0
 11
12097.47005699999
 21
19956.933247000001
 31
0.0
  0
LINE
  5
3575
  8
0-1
  6
CONTINUOUS
 62
     3
 10
12134.471217999981
 20
18875.809804
 30
0.0
 11
12134.471217999981
 21
19956.933247000001
 31
0.0
  0
LINE
  5
3576
  8
0-1
  6
CONTINUOUS
 62
     3
 10
12297.46972699998
 20
18823.236483000001
 30
0.0
 11
12297.46972699998
 21
19956.933247000001
 31
0.0
  0
LINE
  5
3577
  8
0-1
  6
CONTINUOUS
 62
     3
 10
12697.469066999991
 20
18443.843930999981
 30
0.0
 11
12697.469066999991
 21
19956.933247000001
 31
0.0
  0
LINE
  5
3578
  8
0-1
  6
CONTINUOUS
 62
     3
 10
12734.471217999981
 20
18374.17873399999
 30
0.0
 11
12734.471217999981
 21
19956.933247000001
 31
0.0
  0
LINE
  5
3579
  8
0-1
  6
CONTINUOUS
 62
     3
 10
12897.47071699998
 20
18067.266254999991
 30
0.0
 11
12897.47071699998
 21
19956.933247000001
 31
0.0
  0
LINE
  5
357A
  8
0-1
  6
CONTINUOUS
 62
     3
 10
12934.468908999979
 20
17997.597097999991
 30
0.0
 11
12934.468908999979
 21
19956.933247000001
 31
0.0
  0
LINE
  5
357B
  8
0-1
  6
CONTINUOUS
 62
     3
 10
13097.47038699999
 20
18198.11837199999
 30
0.0
 11
13097.47038699999
 21
19956.933247000001
 31
0.0
  0
LINE
  5
357C
  8
0-1
  6
CONTINUOUS
 62
     3
 10
13134.47055799999
 20
18172.250023000001
 30
0.0
 11
13134.47055799999
 21
19956.933247000001
 31
0.0
  0
LINE
  5
357D
  8
0-1
  6
CONTINUOUS
 62
     3
 10
13297.46906699998
 20
18058.304973999991
 30
0.0
 11
13297.46906699998
 21
19956.933247000001
 31
0.0
  0
LINE
  5
357E
  8
0-1
  6
CONTINUOUS
 62
     3
 10
13334.47022799998
 20
18032.440584999989
 30
0.0
 11
13334.47022799998
 21
19956.933247000001
 31
0.0
  0
LINE
  5
357F
  8
0-1
  6
CONTINUOUS
 62
     3
 10
13497.47071699998
 20
17918.495535999991
 30
0.0
 11
13497.47071699998
 21
19956.933247000001
 31
0.0
  0
LINE
  5
3580
  8
0-1
  6
CONTINUOUS
 62
     3
 10
13534.46890899997
 20
17892.627186999991
 30
0.0
 11
13534.46890899997
 21
19956.933247000001
 31
0.0
  0
LINE
  5
3581
  8
0-1
  6
CONTINUOUS
 62
     3
 10
13697.47038699999
 20
17778.684118000001
 30
0.0
 11
13697.47038699999
 21
19956.933247000001
 31
0.0
  0
LINE
  5
3582
  8
0-1
  6
CONTINUOUS
 62
     3
 10
13734.47055799999
 20
17752.815768999979
 30
0.0
 11
13734.47055799999
 21
19956.933247000001
 31
0.0
  0
LINE
  5
3583
  8
0-1
  6
CONTINUOUS
 62
     3
 10
12334.46989899998
 20
18879.677784
 30
0.0
 11
12334.46989899998
 21
19956.933247000001
 31
0.0
  0
LINE
  5
3584
  8
0-1
  6
CONTINUOUS
 62
     3
 10
12497.471376999991
 20
18820.425566999991
 30
0.0
 11
12497.471376999991
 21
19956.933247000001
 31
0.0
  0
LINE
  5
3585
  8
0-1
  6
CONTINUOUS
 62
     3
 10
12534.470557999981
 20
18750.756410000002
 30
0.0
 11
12534.470557999981
 21
19956.933247000001
 31
0.0
  0
LINE
  5
3586
  8
0-1
  6
CONTINUOUS
 62
     3
 10
11327.46992499999
 20
15773.175869500021
 30
0.0
 11
13894.96992499999
 21
15773.175869500021
 31
0.0
  0
LINE
  5
3587
  8
0-1
  6
CONTINUOUS
 62
     3
 10
11327.46992499999
 20
15683.17408850002
 30
0.0
 11
13894.96992499999
 21
15683.17408850002
 31
0.0
  0
LINE
  5
3588
  8
0-1
  6
CONTINUOUS
 62
     3
 10
11327.46992499999
 20
17231.937337999982
 30
0.0
 11
13894.96992499999
 21
17231.937337999982
 31
0.0
  0
LINE
  5
3589
  8
0-1
  6
CONTINUOUS
 62
     3
 10
11341.61160599998
 20
18690.935358999999
 30
0.0
 11
12566.24381099998
 21
18690.935358999999
 31
0.0
  0
LINE
  5
358A
  8
0-1
  6
CONTINUOUS
 62
     3
 10
11341.61160599998
 20
18600.936546000001
 30
0.0
 11
12614.04126699999
 21
18600.936546000001
 31
0.0
  0
LINE
  5
358B
  8
0-1
  6
CONTINUOUS
 62
     3
 10
12266.145824999991
 20
18779.261478
 30
0.0
 11
10997.66134499998
 21
19663.864068999999
 31
0.0
  0
LINE
  5
358C
  8
0-1
  6
CONTINUOUS
 62
     3
 10
11397.46867199999
 20
17186.934963
 30
0.0
 11
13824.96919899999
 21
15728.17547450002
 31
0.0
  0
LINE
  5
358D
  8
0-1
  6
CONTINUOUS
 62
     3
 10
13824.96919899999
 20
17186.934963
 30
0.0
 11
11397.46867199999
 21
15728.17547450002
 31
0.0
  0
LINE
  5
358E
  8
0-1
  6
CONTINUOUS
 62
     3
 10
11397.46867199999
 20
18645.934963
 30
0.0
 11
13824.96919899999
 21
17186.934963
 31
0.0
  0
LINE
  5
358F
  8
0-1
  6
CONTINUOUS
 62
     3
 10
11397.46867199999
 20
17186.934963
 30
0.0
 11
12889.038956999981
 21
18083.136054999999
 31
0.0
  0
LINE
  5
3590
  8
0-1
  6
CONTINUOUS
 62
     3
 10
11397.46867199999
 20
15728.17547450002
 30
0.0
 11
13824.96919899999
 21
14268.934962999991
 31
0.0
  0
LINE
  5
3591
  8
0-1
  6
CONTINUOUS
 62
     3
 10
11397.46867199999
 20
14268.934962999991
 30
0.0
 11
13824.96919899999
 21
15728.17547450002
 31
0.0
  0
LINE
  5
3592
  8
0-1
  6
CONTINUOUS
 62
     3
 10
11397.46867199999
 20
18645.934963
 30
0.0
 11
12042.068280999991
 21
18940.405455
 31
0.0
  0
LINE
  5
3593
  8
0-1
  6
CONTINUOUS
 62
     3
 10
11259.969291999991
 20
19478.397034999991
 30
0.0
 11
11259.969291999991
 21
19959.431927000001
 31
0.0
  0
LINE
  5
3594
  8
0-1
  6
CONTINUOUS
 62
     3
 10
13962.47055799999
 20
17595.531140999999
 30
0.0
 11
13962.47055799999
 21
19959.431927000001
 31
0.0
  0
LINE
  5
3595
  8
0-1
  6
CONTINUOUS
 62
     3
 10
11259.969291999991
 20
19936.93469899999
 30
0.0
 11
11310.470769999991
 21
19936.93469899999
 31
0.0
  0
LINE
  5
3596
  8
0-1
  6
CONTINUOUS
 62
     3
 10
11259.969291999991
 20
19959.431927000001
 30
0.0
 11
11241.968539999991
 21
19959.431927000001
 31
0.0
  0
LINE
  5
3597
  8
0-1
  6
CONTINUOUS
 62
     3
 10
11310.470769999991
 20
19976.930872000001
 30
0.0
 11
11246.96880399998
 21
19976.930872000001
 31
0.0
  0
LINE
  5
3598
  8
0-1
  6
CONTINUOUS
 62
     3
 10
11241.968539999991
 20
19971.93654599999
 30
0.0
 11
11241.968539999991
 21
19936.93469899999
 31
0.0
  0
LINE
  5
3599
  8
0-1
  6
CONTINUOUS
 62
     3
 10
11315.470043999991
 20
19941.932982999992
 30
0.0
 11
11315.470043999991
 21
19971.93654599999
 31
0.0
  0
LINE
  5
359B
  8
0-1
  6
CONTINUOUS
 62
     3
 10
13911.971059999971
 20
19976.930872000001
 30
0.0
 11
13975.469066999991
 21
19976.930872000001
 31
0.0
  0
LINE
  5
359C
  8
0-1
  6
CONTINUOUS
 62
     3
 10
13962.47055799999
 20
19936.93469899999
 30
0.0
 11
13911.971059999971
 21
19936.93469899999
 31
0.0
  0
LINE
  5
359D
  8
0-1
  6
CONTINUOUS
 62
     3
 10
13906.97079599998
 20
19941.932982999992
 30
0.0
 11
13906.97079599998
 21
19971.93654599999
 31
0.0
  0
LINE
  5
359E
  8
0-1
  6
CONTINUOUS
 62
     3
 10
13980.46933099998
 20
19971.93654599999
 30
0.0
 11
13980.46933099998
 21
19936.93469899999
 31
0.0
  0
LINE
  5
359F
  8
0-1
  6
CONTINUOUS
 62
     3
 10
13962.47055799999
 20
19959.431927000001
 30
0.0
 11
13980.46933099998
 21
19959.431927000001
 31
0.0
  0
LINE
  5
35A5
  8
0-6
  6
CONTINUOUS
 62
     6
 10
12972.857712999979
 20
19694.655481000002
 30
0.0
 11
13116.75881599998
 21
20206.931135999981
 31
0.0
  0
LINE
  5
35A6
  8
0-6
  6
CONTINUOUS
 62
     6
 10
13116.75881599998
 20
20206.931135999981
 30
0.0
 11
13634.448453999979
 21
20206.931135999981
 31
0.0
  0
LINE
  5
35A7
  8
0-6
  6
CONTINUOUS
 62
     6
 10
13690.178829999981
 20
15809.22785250002
 30
0.0
 11
14399.20675499999
 21
16194.356838
 31
0.0
  0
LINE
  5
35A8
  8
0-6
  6
CONTINUOUS
 62
     6
 10
14399.20675499999
 20
16194.356838
 30
0.0
 11
15279.20668899999
 21
16194.356838
 31
0.0
  0
LINE
  5
35A9
  8
0-6
  6
CONTINUOUS
 62
     6
 10
11491.996621999981
 20
17766.458610999991
 30
0.0
 11
12021.498112999991
 21
17766.458610999991
 31
0.0
  0
LINE
  5
35AA
  8
0-6
  6
CONTINUOUS
 62
     6
 10
12178.022606999981
 20
14463.323688
 30
0.0
 11
12224.434398999971
 21
14567.64212550002
 31
0.0
  0
LINE
  5
35AB
  8
0-6
  6
CONTINUOUS
 62
     6
 10
12224.434398999971
 20
14567.64212550002
 30
0.0
 11
13024.43406899997
 21
14567.64212550002
 31
0.0
  0
LINE
  5
35AC
  8
0-6
  6
CONTINUOUS
 62
     6
 10
12995.09562399997
 20
13276.43404
 30
0.0
 11
13857.67579499999
 21
13276.43404
 31
0.0
  0
LINE
  5
35AD
  8
0-6
  6
CONTINUOUS
 62
     6
 10
12588.983530999991
 20
13939.965699
 30
0.0
 11
12995.09562399997
 21
13276.43404
 31
0.0
  0
LINE
  5
35AE
  8
0-6
  6
CONTINUOUS
 62
     6
 10
9483.3355689999917
 20
12786.434896999999
 30
0.0
 11
10563.336162999991
 21
12786.434896999999
 31
0.0
  0
LINE
  5
35AF
  8
0-6
  6
CONTINUOUS
 62
     6
 10
11150.07734699998
 20
14661.94738050002
 30
0.0
 11
10563.336162999991
 21
12786.434896999999
 31
0.0
  0
LINE
  5
35B0
  8
0-6
  6
CONTINUOUS
 62
     6
 10
11392.956358999991
 20
17987.24817499999
 30
0.0
 11
11491.996621999981
 21
17766.458610999991
 31
0.0
  0
LINE
  5
35B1
  8
0-6
  6
CONTINUOUS
 62
     6
 10
13469.46349799999
 20
18690.935358999999
 30
0.0
 11
14399.20675499999
 21
19144.523512999989
 31
0.0
  0
LINE
  5
35B2
  8
0-6
  6
CONTINUOUS
 62
     6
 10
13469.46349799999
 20
17231.937337999982
 30
0.0
 11
14399.20675499999
 21
17686.022852999991
 31
0.0
  0
LINE
  5
35B3
  8
0-6
  6
CONTINUOUS
 62
     6
 10
13468.64397699998
 20
15683.17408850002
 30
0.0
 11
14399.20675499999
 21
15167.24523250001
 31
0.0
  0
LINE
  5
35B4
  8
0-6
  6
CONTINUOUS
 62
     6
 10
14088.37779799999
 20
20092.259603999992
 30
0.0
 11
14605.367675999991
 21
20596.931927000001
 31
0.0
  0
LINE
  5
35B5
  8
0-6
  6
CONTINUOUS
 62
     6
 10
14605.367675999991
 20
20596.931927000001
 30
0.0
 11
16280.36701599998
 21
20596.931927000001
 31
0.0
  0
LINE
  5
35B6
  8
0-6
  6
CONTINUOUS
 62
     6
 10
11175.520099999991
 20
14653.9659615
 30
0.0
 11
11197.968829999991
 21
14814.610822500021
 31
0.0
  0
LINE
  5
35B7
  8
0-6
  6
CONTINUOUS
 62
     6
 10
11197.968829999991
 20
14814.610822500021
 30
0.0
 11
11124.63162599998
 21
14669.92879950002
 31
0.0
  0
LINE
  5
35B8
  8
0-6
  6
CONTINUOUS
 62
     6
 10
11197.968829999991
 20
14814.610822500021
 30
0.0
 11
11175.520099999991
 21
14653.9659615
 31
0.0
  0
LINE
  5
35B9
  8
0-6
  6
CONTINUOUS
 62
     6
 10
11175.520099999991
 20
14653.9659615
 30
0.0
 11
11124.63162599998
 21
14669.92879950002
 31
0.0
  0
LINE
  5
35BA
  8
0-6
  6
CONTINUOUS
 62
     6
 10
11124.63162599998
 20
14669.92879950002
 30
0.0
 11
11197.968829999991
 21
14814.610822500021
 31
0.0
  0
LINE
  5
35BB
  8
0-6
  6
CONTINUOUS
 62
     6
 10
11124.63162599998
 20
14669.92879950002
 30
0.0
 11
11175.520099999991
 21
14653.9659615
 31
0.0
  0
LINE
  5
35BC
  8
0-6
  6
CONTINUOUS
 62
     6
 10
12153.87247999998
 20
14474.636637000011
 30
0.0
 11
12110.14887299998
 21
14318.43480500001
 31
0.0
  0
LINE
  5
35BD
  8
0-6
  6
CONTINUOUS
 62
     6
 10
12110.14887299998
 20
14318.43480500001
 30
0.0
 11
12202.16976399998
 21
14452.011729000011
 31
0.0
  0
LINE
  5
35BE
  8
0-6
  6
CONTINUOUS
 62
     6
 10
12110.14887299998
 20
14318.43480500001
 30
0.0
 11
12153.87247999998
 21
14474.636637000011
 31
0.0
  0
LINE
  5
35BF
  8
0-6
  6
CONTINUOUS
 62
     6
 10
12153.87247999998
 20
14474.636637000011
 30
0.0
 11
12202.16976399998
 21
14452.011729000011
 31
0.0
  0
LINE
  5
35C0
  8
0-6
  6
CONTINUOUS
 62
     6
 10
12202.16976399998
 20
14452.011729000011
 30
0.0
 11
12110.14887299998
 21
14318.43480500001
 31
0.0
  0
LINE
  5
35C1
  8
0-6
  6
CONTINUOUS
 62
     6
 10
12202.16976399998
 20
14452.011729000011
 30
0.0
 11
12153.87247999998
 21
14474.636637000011
 31
0.0
  0
LINE
  5
35C2
  8
0-6
  6
CONTINUOUS
 62
     6
 10
12611.728198999979
 20
13953.88666300001
 30
0.0
 11
12505.458733999991
 21
14076.43370999999
 31
0.0
  0
LINE
  5
35C3
  8
0-6
  6
CONTINUOUS
 62
     6
 10
12505.458733999991
 20
14076.43370999999
 30
0.0
 11
12566.23886199998
 21
13926.045724000011
 31
0.0
  0
LINE
  5
35C4
  8
0-6
  6
CONTINUOUS
 62
     6
 10
12505.458733999991
 20
14076.43370999999
 30
0.0
 11
12611.728198999979
 21
13953.88666300001
 31
0.0
  0
LINE
  5
35C5
  8
0-6
  6
CONTINUOUS
 62
     6
 10
12611.728198999979
 20
13953.88666300001
 30
0.0
 11
12566.23886199998
 21
13926.045724000011
 31
0.0
  0
LINE
  5
35C6
  8
0-6
  6
CONTINUOUS
 62
     6
 10
12566.23886199998
 20
13926.045724000011
 30
0.0
 11
12505.458733999991
 21
14076.43370999999
 31
0.0
  0
LINE
  5
35C7
  8
0-6
  6
CONTINUOUS
 62
     6
 10
12566.23886199998
 20
13926.045724000011
 30
0.0
 11
12611.728198999979
 21
13953.88666300001
 31
0.0
  0
LINE
  5
35C8
  8
0-6
  6
CONTINUOUS
 62
     6
 10
11417.28563199999
 20
17998.163240999998
 30
0.0
 11
11327.46992499999
 21
18133.23371199999
 31
0.0
  0
LINE
  5
35C9
  8
0-6
  6
CONTINUOUS
 62
     6
 10
11327.46992499999
 20
18133.23371199999
 30
0.0
 11
11368.62411699999
 21
17976.335089
 31
0.0
  0
LINE
  5
35CA
  8
0-6
  6
CONTINUOUS
 62
     6
 10
11327.46992499999
 20
18133.23371199999
 30
0.0
 11
11417.28563199999
 21
17998.163240999998
 31
0.0
  0
LINE
  5
35CB
  8
0-6
  6
CONTINUOUS
 62
     6
 10
11417.28563199999
 20
17998.163240999998
 30
0.0
 11
11368.62411699999
 21
17976.335089
 31
0.0
  0
LINE
  5
35CC
  8
0-6
  6
CONTINUOUS
 62
     6
 10
11368.62411699999
 20
17976.335089
 30
0.0
 11
11327.46992499999
 21
18133.23371199999
 31
0.0
  0
LINE
  5
35CD
  8
0-6
  6
CONTINUOUS
 62
     6
 10
11368.62411699999
 20
17976.335089
 30
0.0
 11
11417.28563199999
 21
17998.163240999998
 31
0.0
  0
LINE
  5
35CE
  8
0-6
  6
CONTINUOUS
 62
     6
 10
13621.72311899998
 20
15629.5281455
 30
0.0
 11
13468.64397699998
 21
15683.17408850002
 31
0.0
  0
LINE
  5
35CF
  8
0-6
  6
CONTINUOUS
 62
     6
 10
13468.64397699998
 20
15683.17408850002
 30
0.0
 11
13596.04777299998
 21
15582.778844500021
 31
0.0
  0
LINE
  5
35D0
  8
0-6
  6
CONTINUOUS
 62
     6
 10
13468.64397699998
 20
15683.17408850002
 30
0.0
 11
13621.72311899998
 21
15629.5281455
 31
0.0
  0
LINE
  5
35D1
  8
0-6
  6
CONTINUOUS
 62
     6
 10
13621.72311899998
 20
15629.5281455
 30
0.0
 11
13596.04777299998
 21
15582.778844500021
 31
0.0
  0
LINE
  5
35D2
  8
0-6
  6
CONTINUOUS
 62
     6
 10
13596.04777299998
 20
15582.778844500021
 30
0.0
 11
13468.64397699998
 21
15683.17408850002
 31
0.0
  0
LINE
  5
35D3
  8
0-6
  6
CONTINUOUS
 62
     6
 10
13596.04777299998
 20
15582.778844500021
 30
0.0
 11
13621.72311899998
 21
15629.5281455
 31
0.0
  0
LINE
  5
35D4
  8
0-6
  6
CONTINUOUS
 62
     6
 10
13817.67368299999
 20
15909.508283500019
 30
0.0
 11
13690.178829999981
 21
15809.22785250002
 31
0.0
  0
LINE
  5
35D5
  8
0-6
  6
CONTINUOUS
 62
     6
 10
13690.178829999981
 20
15809.22785250002
 30
0.0
 11
13843.30646899999
 21
15862.73819850001
 31
0.0
  0
LINE
  5
35D6
  8
0-6
  6
CONTINUOUS
 62
     6
 10
13690.178829999981
 20
15809.22785250002
 30
0.0
 11
13817.67368299999
 21
15909.508283500019
 31
0.0
  0
LINE
  5
35D7
  8
0-6
  6
CONTINUOUS
 62
     6
 10
13817.67368299999
 20
15909.508283500019
 30
0.0
 11
13843.30646899999
 21
15862.73819850001
 31
0.0
  0
LINE
  5
35D8
  8
0-6
  6
CONTINUOUS
 62
     6
 10
13843.30646899999
 20
15862.73819850001
 30
0.0
 11
13690.178829999981
 21
15809.22785250002
 31
0.0
  0
LINE
  5
35D9
  8
0-6
  6
CONTINUOUS
 62
     6
 10
13843.30646899999
 20
15862.73819850001
 30
0.0
 11
13817.67368299999
 21
15909.508283500019
 31
0.0
  0
LINE
  5
35DA
  8
0-6
  6
CONTINUOUS
 62
     6
 10
13602.03185699998
 20
17325.40624700001
 30
0.0
 11
13469.46349799999
 21
17231.937337999982
 31
0.0
  0
LINE
  5
35DB
  8
0-6
  6
CONTINUOUS
 62
     6
 10
13469.46349799999
 20
17231.937337999982
 30
0.0
 11
13625.180347999991
 21
17277.357392000002
 31
0.0
  0
LINE
  5
35DC
  8
0-6
  6
CONTINUOUS
 62
     6
 10
13469.46349799999
 20
17231.937337999982
 30
0.0
 11
13602.03185699998
 21
17325.40624700001
 31
0.0
  0
LINE
  5
35DD
  8
0-6
  6
CONTINUOUS
 62
     6
 10
13602.03185699998
 20
17325.40624700001
 30
0.0
 11
13625.180347999991
 21
17277.357392000002
 31
0.0
  0
LINE
  5
35DE
  8
0-6
  6
CONTINUOUS
 62
     6
 10
13625.180347999991
 20
17277.357392000002
 30
0.0
 11
13469.46349799999
 21
17231.937337999982
 31
0.0
  0
LINE
  5
35DF
  8
0-6
  6
CONTINUOUS
 62
     6
 10
13625.180347999991
 20
17277.357392000002
 30
0.0
 11
13602.03185699998
 21
17325.40624700001
 31
0.0
  0
LINE
  5
35E0
  8
0-6
  6
CONTINUOUS
 62
     6
 10
13602.03185699998
 20
18784.406246999992
 30
0.0
 11
13469.46349799999
 21
18690.935358999999
 31
0.0
  0
LINE
  5
35E1
  8
0-6
  6
CONTINUOUS
 62
     6
 10
13469.46349799999
 20
18690.935358999999
 30
0.0
 11
13625.180347999991
 21
18736.359371999992
 31
0.0
  0
LINE
  5
35E2
  8
0-6
  6
CONTINUOUS
 62
     6
 10
13469.46349799999
 20
18690.935358999999
 30
0.0
 11
13602.03185699998
 21
18784.406246999992
 31
0.0
  0
LINE
  5
35E3
  8
0-6
  6
CONTINUOUS
 62
     6
 10
13602.03185699998
 20
18784.406246999992
 30
0.0
 11
13625.180347999991
 21
18736.359371999992
 31
0.0
  0
LINE
  5
35E4
  8
0-6
  6
CONTINUOUS
 62
     6
 10
13625.180347999991
 20
18736.359371999992
 30
0.0
 11
13469.46349799999
 21
18690.935358999999
 31
0.0
  0
LINE
  5
35E5
  8
0-6
  6
CONTINUOUS
 62
     6
 10
13625.180347999991
 20
18736.359371999992
 30
0.0
 11
13602.03185699998
 21
18784.406246999992
 31
0.0
  0
LINE
  5
35E6
  8
0-6
  6
CONTINUOUS
 62
     6
 10
12946.970557999981
 20
19701.055264999999
 30
0.0
 11
12934.468908999979
 21
19539.330576
 31
0.0
  0
LINE
  5
35E7
  8
0-6
  6
CONTINUOUS
 62
     6
 10
12934.468908999979
 20
19539.330576
 30
0.0
 11
12998.74486699999
 21
19688.259655999991
 31
0.0
  0
LINE
  5
35E8
  8
0-6
  6
CONTINUOUS
 62
     6
 10
12934.468908999979
 20
19539.330576
 30
0.0
 11
12946.970557999981
 21
19701.055264999999
 31
0.0
  0
LINE
  5
35E9
  8
0-6
  6
CONTINUOUS
 62
     6
 10
12946.970557999981
 20
19701.055264999999
 30
0.0
 11
12998.74486699999
 21
19688.259655999991
 31
0.0
  0
LINE
  5
35EA
  8
0-6
  6
CONTINUOUS
 62
     6
 10
12998.74486699999
 20
19688.259655999991
 30
0.0
 11
12934.468908999979
 21
19539.330576
 31
0.0
  0
LINE
  5
35EB
  8
0-6
  6
CONTINUOUS
 62
     6
 10
12998.74486699999
 20
19688.259655999991
 30
0.0
 11
12946.970557999981
 21
19701.055264999999
 31
0.0
  0
LINE
  5
35EC
  8
0-6
  6
CONTINUOUS
 62
     6
 10
14069.157661999991
 20
20110.742368999989
 30
0.0
 11
13977.46933099998
 21
19976.930872000001
 31
0.0
  0
LINE
  5
35ED
  8
0-6
  6
CONTINUOUS
 62
     6
 10
13977.46933099998
 20
19976.930872000001
 30
0.0
 11
14107.59991299998
 21
20073.774859000001
 31
0.0
  0
LINE
  5
35EE
  8
0-6
  6
CONTINUOUS
 62
     6
 10
13977.46933099998
 20
19976.930872000001
 30
0.0
 11
14069.157661999991
 21
20110.742368999989
 31
0.0
  0
LINE
  5
35EF
  8
0-6
  6
CONTINUOUS
 62
     6
 10
14069.157661999991
 20
20110.742368999989
 30
0.0
 11
14107.59991299998
 21
20073.774859000001
 31
0.0
  0
LINE
  5
35F0
  8
0-6
  6
CONTINUOUS
 62
     6
 10
14107.59991299998
 20
20073.774859000001
 30
0.0
 11
13977.46933099998
 21
19976.930872000001
 31
0.0
  0
LINE
  5
35F1
  8
0-6
  6
CONTINUOUS
 62
     6
 10
14107.59991299998
 20
20073.774859000001
 30
0.0
 11
14069.157661999991
 21
20110.742368999989
 31
0.0
  0
LINE
  5
35F2
  8
0-3
  6
DASHED3
 62
     6
 10
11327.46992499999
 20
19715.432507999991
 30
0.0
 11
13894.96992499999
 21
19715.432507999991
 31
0.0
  0
LINE
  5
35F3
  8
0-3
  6
DASHED3
 62
     6
 10
11284.96867199999
 20
19463.016176000001
 30
0.0
 11
11284.96867199999
 21
19800.433035999999
 31
0.0
  0
LINE
  5
35F4
  8
0-3
  6
DASHED3
 62
     6
 10
11327.46992499999
 20
19433.309539999991
 30
0.0
 11
11327.46992499999
 21
19800.433035999999
 31
0.0
  0
LINE
  5
35F5
  8
0-3
  6
DASHED3
 62
     6
 10
11284.96867199999
 20
19800.433035999999
 30
0.0
 11
13937.470188999991
 21
19800.433035999999
 31
0.0
  0
LINE
  5
35F6
  8
0-3
  6
DASHED3
 62
     6
 10
13894.96992499999
 20
17640.616655999991
 30
0.0
 11
13894.96992499999
 21
19800.433035999999
 31
0.0
  0
LINE
  5
35F7
  8
0-3
  6
DASHED3
 62
     6
 10
13937.470188999991
 20
17610.908040999999
 30
0.0
 11
13937.470188999991
 21
19800.433035999999
 31
0.0
  0
LINE
  5
35F8
  8
0-3
  6
DASHED3
 62
     6
 10
11397.46867199999
 20
19754.434963
 30
0.0
 11
13824.96919899999
 21
18645.934963
 31
0.0
  0
LINE
  5
35F9
  8
0-3
  6
DASHED3
 62
     6
 10
12889.038956999981
 20
18083.136054999999
 30
0.0
 11
13824.96919899999
 21
18645.934963
 31
0.0
  0
LINE
  5
35FA
  8
0-3
  6
DASHED3
 62
     6
 10
12042.068280999991
 20
18940.405455
 30
0.0
 11
13824.96919899999
 21
19754.434963
 31
0.0
  0
LINE
  5
35FB
  8
0-3
  6
CENTER2
 62
     6
 10
13894.96992499999
 20
20996.935227000002
 30
0.0
 11
13894.96992499999
 21
20046.93654599999
 31
0.0
  0
LINE
  5
35FC
  8
0-3
  6
CENTER2
 62
     6
 10
9997.9693249999964
 20
19754.434963
 30
0.0
 11
11469.46871099999
 21
19754.434963
 31
0.0
  0
LINE
  5
35FD
  8
0-3
  6
CENTER2
 62
     6
 10
11327.46992499999
 20
20996.935227000002
 30
0.0
 11
11327.46992499999
 21
20046.93654599999
 31
0.0
  0
LINE
  5
35FE
  8
0-3
  6
CENTER2
 62
     6
 10
9997.9693249999964
 20
17186.934963
 30
0.0
 11
11469.46871099999
 21
17186.934963
 31
0.0
  0
LINE
  5
35FF
  8
0-3
  6
CENTER2
 62
     6
 10
9997.9693249999964
 20
14268.934962999991
 30
0.0
 11
11469.46871099999
 21
14268.934962999991
 31
0.0
  0
LINE
  5
3600
  8
0-3
  6
CENTER2
 62
     6
 10
11108.67274699999
 20
18645.934963
 30
0.0
 11
14066.76838399997
 21
18645.934963
 31
0.0
  0
LINE
  5
3601
  8
0-3
  6
CENTER2
 62
     6
 10
11108.67274699999
 20
15728.17547450002
 30
0.0
 11
14066.76838399997
 21
15728.17547450002
 31
0.0
  0
LINE
  5
3602
  8
0-3
  6
CONTINUOUS
 62
     6
 10
14399.20675499999
 20
17686.024832999999
 30
0.0
 11
16393.650905999992
 21
17686.024832999999
 31
0.0
  0
LINE
  5
3603
  8
0-3
  6
CONTINUOUS
 62
     6
 10
14399.20675499999
 20
19144.523512999989
 30
0.0
 11
16393.650905999992
 21
19144.523512999989
 31
0.0
  0
LINE
  5
3604
  8
0-3
  6
CONTINUOUS
 62
     6
 10
14399.20675499999
 20
15167.24523250001
 30
0.0
 11
16393.650905999992
 21
15167.24523250001
 31
0.0
  0
LINE
  5
3605
  8
0-3
  6
DASHED3
 62
     6
 10
12566.24381099998
 20
18690.935358999999
 30
0.0
 11
13894.96992499999
 21
18690.935358999999
 31
0.0
  0
LINE
  5
3606
  8
0-3
  6
DASHED3
 62
     6
 10
12614.04126699999
 20
18600.936546000001
 30
0.0
 11
13894.96992499999
 21
18600.936546000001
 31
0.0
  0
ARC
  5
3607
  8
0-1
  6
CONTINUOUS
 62
     3
 10
11246.96880399998
 20
19971.93654599999
 30
0.0
 40
5.0
 50
90.0
 51
180.0
  0
ARC
  5
3608
  8
0-1
  6
CONTINUOUS
 62
     3
 10
11310.470769999991
 20
19971.93654599999
 30
0.0
 40
5.0
 50
0.0
 51
90.0
  0
ARC
  5
3609
  8
0-1
  6
CONTINUOUS
 62
     3
 10
11310.470769999991
 20
19941.932982999992
 30
0.0
 40
5.0
 50
269.9999850001808
 51
0.0
  0
ARC
  5
360A
  8
0-1
  6
CONTINUOUS
 62
     3
 10
13911.971059999971
 20
19941.932982999992
 30
0.0
 40
5.0
 50
180.0
 51
269.9999850001808
  0
ARC
  5
360B
  8
0-1
  6
CONTINUOUS
 62
     3
 10
13911.971059999971
 20
19971.93654599999
 30
0.0
 40
5.0
 50
90.0
 51
180.0
  0
ARC
  5
360C
  8
0-1
  6
CONTINUOUS
 62
     3
 10
13975.469066999991
 20
19971.93654599999
 30
0.0
 40
5.0
 50
0.0
 51
90.0
  0
CIRCLE
  5
360D
  8
0-5
  6
CONTINUOUS
 62
     4
 10
13894.96992499999
 20
21196.931926999991
 30
0.0
 40
199.9999949999999
  0
CIRCLE
  5
360E
  8
0-5
  6
CONTINUOUS
 62
     4
 10
11327.46992499999
 20
21196.931926999991
 30
0.0
 40
199.9999949999999
  0
CIRCLE
  5
360F
  8
0-5
  6
CONTINUOUS
 62
     4
 10
9797.9686649999876
 20
19754.434963
 30
0.0
 40
199.9999949999999
  0
CIRCLE
  5
3610
  8
0-5
  6
CONTINUOUS
 62
     4
 10
9797.9686649999876
 20
17186.934963
 30
0.0
 40
199.9999949999999
  0
CIRCLE
  5
3611
  8
0-5
  6
CONTINUOUS
 62
     4
 10
9797.9686649999876
 20
14268.934962999991
 30
0.0
 40
199.9999949999999
  0
CIRCLE
  5
3612
  8
0-5
  6
CONTINUOUS
 62
     4
 10
15128.71667799999
 20
1375.999982
 30
0.0
 40
20.0
  0
ARC
  5
3613
  8
0-5
  6
CONTINUOUS
 62
     4
 10
15128.71667799999
 20
1375.999982
 30
0.0
 40
20.0
 50
180.0
 51
0.0
  0
ARC
  5
3614
  8
0-5
  6
CONTINUOUS
 62
     4
 10
15128.71667799999
 20
1375.999982
 30
0.0
 40
20.0
 50
0.0
 51
179.99998499999839
  0
CIRCLE
  5
3615
  8
0-5
  6
CONTINUOUS
 62
     4
 10
15128.71667799999
 20
1775.999941
 30
0.0
 40
20.0
  0
ARC
  5
3616
  8
0-5
  6
CONTINUOUS
 62
     4
 10
15128.71667799999
 20
1775.999941
 30
0.0
 40
20.0
 50
180.0
 51
0.0
  0
ARC
  5
3617
  8
0-5
  6
CONTINUOUS
 62
     4
 10
15128.71667799999
 20
1775.999941
 30
0.0
 40
20.0
 50
0.0
 51
179.99998499999839
  0
TEXT
  5
361C
  8
0-5
  6
CONTINUOUS
 62
     7
 10
13846.020388999979
 20
21106.887586000001
 30
0.0
 40
160.0
  1
2
 72
     4
 11
13899.353722333321
 21
21186.887586000001
 31
0.0
  0
TEXT
  5
361D
  8
0-5
  6
CONTINUOUS
 62
     7
 10
11278.518409999981
 20
21106.887586000001
 30
0.0
 40
160.0
  1
1
 72
     4
 11
11305.18507666665
 21
21186.887586000001
 31
0.0
  0
TEXT
  5
361E
  8
0-5
  6
CONTINUOUS
 62
     7
 10
9751.2342109999936
 20
19660.330629
 30
0.0
 40
160.0
  1
C
 72
     4
 11
9804.5675443333294
 21
19740.330629
 31
0.0
  0
TEXT
  5
361F
  8
0-5
  6
CONTINUOUS
 62
     7
 10
9751.2342109999936
 20
17092.830629000011
 30
0.0
 40
160.0
  1
B
 72
     4
 11
9804.5675443333294
 21
17172.830629000011
 31
0.0
  0
TEXT
  5
3622
  8
0-5
  6
CONTINUOUS
 62
     7
 10
9751.2342109999936
 20
14174.82865000001
 30
0.0
 40
160.0
  1
A
 72
     4
 11
9804.5675443333294
 21
14254.82865000001
 31
0.0
  0
TEXT
  5
3623
  8
0-5
  6
CONTINUOUS
 62
     7
 10
16671.691037000001
 20
1655.999916
 30
0.0
 40
160.0
  1
H
  0
TEXT
  5
3624
  8
0-5
  6
CONTINUOUS
 62
     7
 10
15176.146933
 20
1655.999916
 30
0.0
 40
160.0
  1
（ ）内寸法ハ、  タ イプヲ示ス。
  0
TEXT
  5
3625
  8
0-5
  6
CONTINUOUS
 62
     7
 10
15288.716216000001
 20
1256.0000809999999
 30
0.0
 40
160.0
  1
有効高サハ、基礎高サヲ含ミマセン。
  0
TEXT
  5
3626
  8
0-6
  6
CONTINUOUS
 62
     7
 10
13196.760069999989
 20
20286.93139899999
 30
0.0
 40
160.0
  1
屋根
 72
     4
 11
13367.426736666661
 21
20366.93139899999
 31
0.0
  0
TEXT
  5
3627
  8
0-6
  6
CONTINUOUS
 62
     7
 10
14479.20602899999
 20
16274.358092
 30
0.0
 40
160.0
  1
ブレース
 72
     4
 11
14841.87269566666
 21
16359.691425333331
 31
0.0
  0
TEXT
  5
3628
  8
0-6
  6
CONTINUOUS
 62
     7
 10
12304.43466299998
 20
14647.64238950001
 30
0.0
 40
160.0
  1
桁（前）
 72
     4
 11
12624.43466299998
 21
14727.64238950001
 31
0.0
  0
TEXT
  5
3629
  8
0-6
  6
CONTINUOUS
 62
     7
 10
13075.09588799998
 20
13356.434302999991
 30
0.0
 40
160.0
  1
鼻隠し前
 72
     4
 11
13437.76255466665
 21
13436.434302999991
 31
0.0
  0
TEXT
  5
362A
  8
0-6
  6
CONTINUOUS
 62
     7
 10
9563.3363279999958
 20
12866.43516100001
 30
0.0
 40
160.0
  1
ケラバ 左
 72
     4
 11
9979.3363279999958
 21
12946.43516100001
 31
0.0
  0
TEXT
  5
362B
  8
0-6
  6
CONTINUOUS
 62
     7
 10
11581.497650999991
 20
17846.456896
 30
0.0
 40
160.0
  1
上枠
 72
     4
 11
11752.16431766666
 21
17926.456896
 31
0.0
  0
TEXT
  5
362C
  8
0-6
  6
CONTINUOUS
 62
     7
 10
14685.366949999991
 20
20676.93417099999
 30
0.0
 40
160.0
  1
鼻隠しコーナー後
 72
     4
 11
15432.03361666666
 21
20756.93417099999
 31
0.0
  0
TEXT
  5
362D
  8
0-3
  6
CONTINUOUS
 62
     7
 10
11401.306158787251
 20
12039.622912000001
 30
0.0
 40
160.0
  1
小 屋 伏 図
 72
     4
 11
11902.63949212059
 21
12119.622912000001
 31
0.0
  0
TEXT
  5
362E
  8
0-3
  6
CONTINUOUS
 62
     7
 10
14479.77711999997
 20
19224.519818000001
 30
0.0
 40
160.0
  1
桁中B +  桁中補強B
 72
     4
 11
15413.110453333309
 21
19304.519818000001
 31
0.0
  0
TEXT
  5
362F
  8
0-3
  6
CONTINUOUS
 62
     7
 10
14479.777119999981
 20
17766.021137999978
 30
0.0
 40
160.0
  1
桁中A +  桁中補強A
 50
359.99992099999997
 72
     4
 11
15413.110563637239
 21
17846.019851110472
 31
0.0
  0
TEXT
  5
3630
  8
0-3
  6
CONTINUOUS
 62
     7
 10
14479.77711999997
 20
15247.24054750002
 30
0.0
 40
160.0
  1
桁中B +  桁中補強B
 72
     4
 11
15413.110453333309
 21
15327.24054750002
 31
0.0
  0
TEXT
  5
3638
  8
2-0
  6
CONTINUOUS
 62
     7
 10
13254.13167725821
 20
12066.818281000011
 30
0.0
 40
160.0
  1
1
 72
     4
 11
13280.79834392488
 21
12146.818281000011
 31
0.0
  0
TEXT
  5
3639
  8
2-0
  6
CONTINUOUS
 62
     7
 10
13497.22039450891
 20
11986.819749
 30
0.0
 40
160.0
  1
80
 72
     4
 11
13617.22039450891
 21
12066.819749
 31
0.0
  0
TEXT
  5
363A
  8
2-0
  6
CONTINUOUS
 62
     7
 10
12755.13364325821
 20
12039.622912000001
 30
0.0
 40
160.0
  1
(S=  /   )
 72
     4
 11
13315.13364325821
 21
12119.622912000001
 31
0.0
  0
TEXT
  5
363B
  8
0-6
  6
CONTINUOUS
 62
     7
 10
11453.755309144801
 20
20286.931399000001
 30
0.0
 40
160.0
  1
桁後+桁後補強
 72
     4
 11
12088.42197581147
 21
20366.931399000001
 31
0.0
  0
LINE
  5
363C
  8
0-6
  6
CONTINUOUS
 62
     6
 10
12897.47071699998
 20
19800.433035999999
 30
0.0
 11
12764.076769118739
 21
20206.933115
 31
0.0
  0
LINE
  5
363D
  8
0-6
  6
CONTINUOUS
 62
     6
 10
11404.83365054951
 20
20206.933115
 30
0.0
 11
12764.076769118739
 21
20206.933115
 31
0.0
  0
LINE
  5
363E
  8
0-6
  6
CONTINUOUS
 62
     6
 10
12873.86326163269
 20
19960.914474424921
 30
0.0
 11
12823.08961785974
 21
19944.58095824016
 31
0.0
  0
LINE
  5
363F
  8
0-6
  6
CONTINUOUS
 62
     6
 10
12873.86326163269
 20
19960.914474424921
 30
0.0
 11
12897.47071699998
 21
19800.433035999999
 31
0.0
  0
LINE
  5
3640
  8
0-6
  6
CONTINUOUS
 62
     6
 10
12823.08961785974
 20
19944.58095824016
 30
0.0
 11
12873.86326163269
 21
19960.914474424921
 31
0.0
  0
LINE
  5
3641
  8
0-6
  6
CONTINUOUS
 62
     6
 10
12897.47071699998
 20
19800.433035999999
 30
0.0
 11
12823.08961785974
 21
19944.58095824016
 31
0.0
  0
LINE
  5
3642
  8
0-6
  6
CONTINUOUS
 62
     6
 10
12897.47071699998
 20
19800.433035999999
 30
0.0
 11
12873.86326163269
 21
19960.914474424921
 31
0.0
  0
LINE
  5
3643
  8
0-6
  6
CONTINUOUS
 62
     6
 10
12823.08961785974
 20
19944.58095824016
 30
0.0
 11
12897.47071699998
 21
19800.433035999999
 31
0.0
  0
LINE
  5
3644
  8
0-1
  6
CONTINUOUS
 62
     3
 10
9626.2250580000036
 20
8588.6831290000027
 30
0.0
 11
15156.723475000001
 21
8588.6831290000027
 31
0.0
  0
LINE
  5
3645
  8
0-1
  6
CONTINUOUS
 62
     3
 10
8916.2242000000006
 20
6577.6372500000016
 30
0.0
 11
15189.22327699999
 21
6577.6372500000016
 31
0.0
  0
LINE
  5
3646
  8
0-1
  6
CONTINUOUS
 62
     3
 10
9721.2241340000037
 20
6727.6372500000016
 30
0.0
 11
12143.723409
 21
6727.6372500000016
 31
0.0
  0
LINE
  5
3647
  8
0-1
  6
CONTINUOUS
 62
     3
 10
9598.7232769999955
 20
6677.6370850000039
 30
0.0
 11
15189.22327699999
 21
6677.6370850000039
 31
0.0
  0
LINE
  5
3648
  8
0-1
  6
CONTINUOUS
 62
     3
 10
9721.2241340000037
 20
8588.6831290000027
 30
0.0
 11
9721.2241340000037
 21
6677.6370850000039
 31
0.0
  0
LINE
  5
3649
  8
0-1
  6
CONTINUOUS
 62
     3
 10
9606.2240020000045
 20
8710.6511659999978
 30
0.0
 11
9606.2240020000045
 21
6677.6370850000039
 31
0.0
  0
LINE
  5
364A
  8
0-1
  6
CONTINUOUS
 62
     3
 10
9626.2250580000036
 20
8711.3063870000024
 30
0.0
 11
9626.2250580000036
 21
6677.6370850000039
 31
0.0
  0
LINE
  5
364B
  8
0-1
  6
CONTINUOUS
 62
     3
 10
9598.7232769999955
 20
6577.6372500000016
 30
0.0
 11
9598.7232769999955
 21
6677.6370850000039
 31
0.0
  0
LINE
  5
364C
  8
0-1
  6
CONTINUOUS
 62
     3
 10
15251.857158999999
 20
8895.126462000002
 30
0.0
 11
15247.597234999999
 21
9025.0561230000021
 31
0.0
  0
LINE
  5
364D
  8
0-1
  6
CONTINUOUS
 62
     3
 10
12288.723145
 20
6727.6372500000016
 30
0.0
 11
15061.723409
 21
6727.6372500000016
 31
0.0
  0
LINE
  5
364E
  8
0-1
  6
CONTINUOUS
 62
     3
 10
11752.223130999981
 20
6727.6372500000016
 30
0.0
 11
11752.223130999981
 21
8588.6831290000027
 31
0.0
  0
LINE
  5
364F
  8
0-1
  6
CONTINUOUS
 62
     3
 10
11619.224227000001
 20
6727.6372500000016
 30
0.0
 11
11619.224227000001
 21
8588.6831290000027
 31
0.0
  0
LINE
  5
3650
  8
0-1
  6
CONTINUOUS
 62
     3
 10
11604.222444999999
 20
6727.6372500000016
 30
0.0
 11
11604.222444999999
 21
8588.6831290000027
 31
0.0
  0
LINE
  5
3651
  8
0-1
  6
CONTINUOUS
 62
     3
 10
11802.224780999981
 20
6727.6372500000016
 30
0.0
 11
11802.224780999981
 21
8588.6831290000027
 31
0.0
  0
LINE
  5
3652
  8
0-1
  6
CONTINUOUS
 62
     3
 10
11822.223857000001
 20
6727.6372500000016
 30
0.0
 11
11822.223857000001
 21
8588.6831290000027
 31
0.0
  0
LINE
  5
3653
  8
0-1
  6
CONTINUOUS
 62
     3
 10
11872.224517000001
 20
6727.6372500000016
 30
0.0
 11
11872.224517000001
 21
8588.6831290000027
 31
0.0
  0
LINE
  5
3654
  8
0-1
  6
CONTINUOUS
 62
     3
 10
12005.22342199999
 20
6727.6372500000016
 30
0.0
 11
12005.22342199999
 21
8588.6831290000027
 31
0.0
  0
LINE
  5
3655
  8
0-1
  6
CONTINUOUS
 62
     3
 10
12020.222234000001
 20
6727.6372500000016
 30
0.0
 11
12020.222234000001
 21
8588.6831290000027
 31
0.0
  0
LINE
  5
3656
  8
0-1
  6
CONTINUOUS
 62
     3
 10
12288.723145
 20
8588.6831290000027
 30
0.0
 11
12288.723145
 21
6677.6370850000039
 31
0.0
  0
LINE
  5
3657
  8
0-1
  6
CONTINUOUS
 62
     3
 10
12143.723409
 20
8588.6831290000027
 30
0.0
 11
12143.723409
 21
6677.6370850000039
 31
0.0
  0
LINE
  5
3658
  8
0-1
  6
CONTINUOUS
 62
     3
 10
12412.22233999998
 20
6727.6372500000016
 30
0.0
 11
12412.22233999998
 21
8588.6831290000027
 31
0.0
  0
LINE
  5
3659
  8
0-1
  6
CONTINUOUS
 62
     3
 10
12427.224120999999
 20
6727.6372500000016
 30
0.0
 11
12427.224120999999
 21
8588.6831290000027
 31
0.0
  0
LINE
  5
365A
  8
0-1
  6
CONTINUOUS
 62
     3
 10
12560.223025999991
 20
6727.6372500000016
 30
0.0
 11
12560.223025999991
 21
8588.6831290000027
 31
0.0
  0
LINE
  5
365B
  8
0-1
  6
CONTINUOUS
 62
     3
 10
12610.22368599999
 20
6727.6372500000016
 30
0.0
 11
12610.22368599999
 21
8588.6831290000027
 31
0.0
  0
LINE
  5
365C
  8
0-1
  6
CONTINUOUS
 62
     3
 10
12630.222761999999
 20
6727.6372500000016
 30
0.0
 11
12630.222761999999
 21
8588.6831290000027
 31
0.0
  0
LINE
  5
365D
  8
0-1
  6
CONTINUOUS
 62
     3
 10
10402.223130999981
 20
6727.6372500000016
 30
0.0
 11
10402.223130999981
 21
8588.6831290000027
 31
0.0
  0
LINE
  5
365E
  8
0-1
  6
CONTINUOUS
 62
     3
 10
10422.225177
 20
6727.6372500000016
 30
0.0
 11
10422.225177
 21
8588.6831290000027
 31
0.0
  0
LINE
  5
365F
  8
0-1
  6
CONTINUOUS
 62
     3
 10
10352.22247199999
 20
6727.6372500000016
 30
0.0
 11
10352.22247199999
 21
8588.6831290000027
 31
0.0
  0
LINE
  5
3660
  8
0-1
  6
CONTINUOUS
 62
     3
 10
10472.222868000001
 20
6727.6372500000016
 30
0.0
 11
10472.222868000001
 21
8588.6831290000027
 31
0.0
  0
LINE
  5
3661
  8
0-1
  6
CONTINUOUS
 62
     3
 10
10605.22276199999
 20
6727.6372500000016
 30
0.0
 11
10605.22276199999
 21
8588.6831290000027
 31
0.0
  0
LINE
  5
3662
  8
0-1
  6
CONTINUOUS
 62
     3
 10
10620.224543999981
 20
6727.6372500000016
 30
0.0
 11
10620.224543999981
 21
8588.6831290000027
 31
0.0
  0
LINE
  5
3663
  8
0-1
  6
CONTINUOUS
 62
     3
 10
10209.723791
 20
6727.6372500000016
 30
0.0
 11
10209.723791
 21
8588.6831290000027
 31
0.0
  0
LINE
  5
3664
  8
0-1
  6
CONTINUOUS
 62
     3
 10
10194.724979000001
 20
6727.6372500000016
 30
0.0
 11
10194.724979000001
 21
8588.6831290000027
 31
0.0
  0
LINE
  5
3665
  8
0-1
  6
CONTINUOUS
 62
     3
 10
10904.223104999979
 20
6727.6372500000016
 30
0.0
 11
10904.223104999979
 21
8588.6831290000027
 31
0.0
  0
LINE
  5
3666
  8
0-1
  6
CONTINUOUS
 62
     3
 10
10919.22191699999
 20
6727.6372500000016
 30
0.0
 11
10919.22191699999
 21
8588.6831290000027
 31
0.0
  0
LINE
  5
3667
  8
0-1
  6
CONTINUOUS
 62
     3
 10
11320.223884000001
 20
6727.6372500000016
 30
0.0
 11
11320.223884000001
 21
8588.6831290000027
 31
0.0
  0
LINE
  5
3668
  8
0-1
  6
CONTINUOUS
 62
     3
 10
11305.222102
 20
6727.6372500000016
 30
0.0
 11
11305.222102
 21
8588.6831290000027
 31
0.0
  0
LINE
  5
3669
  8
0-1
  6
CONTINUOUS
 62
     3
 10
11172.22220799999
 20
6727.6372500000016
 30
0.0
 11
11172.22220799999
 21
8588.6831290000027
 31
0.0
  0
LINE
  5
366A
  8
0-1
  6
CONTINUOUS
 62
     3
 10
11052.223790999989
 20
6727.6372500000016
 30
0.0
 11
11052.223790999989
 21
8588.6831290000027
 31
0.0
  0
LINE
  5
366B
  8
0-1
  6
CONTINUOUS
 62
     3
 10
11122.22451699999
 20
6727.6372500000016
 30
0.0
 11
11122.22451699999
 21
8588.6831290000027
 31
0.0
  0
LINE
  5
366C
  8
0-1
  6
CONTINUOUS
 62
     3
 10
11102.222471999979
 20
6727.6372500000016
 30
0.0
 11
11102.222471999979
 21
8588.6831290000027
 31
0.0
  0
LINE
  5
366D
  8
0-1
  6
CONTINUOUS
 62
     3
 10
11443.724068
 20
8588.6831290000027
 30
0.0
 11
11443.724068
 21
6727.6372500000016
 31
0.0
  0
LINE
  5
366E
  8
0-1
  6
CONTINUOUS
 62
     3
 10
11480.722261000001
 20
8588.6831290000027
 30
0.0
 11
11480.722261000001
 21
6727.6372500000016
 31
0.0
  0
LINE
  5
366F
  8
0-1
  6
CONTINUOUS
 62
     3
 10
10034.223633
 20
8588.6831290000027
 30
0.0
 11
10034.223633
 21
6727.6372500000016
 31
0.0
  0
LINE
  5
3670
  8
0-1
  6
CONTINUOUS
 62
     3
 10
10071.223803999999
 20
8588.6831290000027
 30
0.0
 11
10071.223803999999
 21
6727.6372500000016
 31
0.0
  0
LINE
  5
3671
  8
0-1
  6
CONTINUOUS
 62
     3
 10
10743.72472799999
 20
8588.6831290000027
 30
0.0
 11
10743.72472799999
 21
6727.6372500000016
 31
0.0
  0
LINE
  5
3672
  8
0-1
  6
CONTINUOUS
 62
     3
 10
10780.72291999998
 20
8588.6831290000027
 30
0.0
 11
10780.72291999998
 21
6727.6372500000016
 31
0.0
  0
LINE
  5
3673
  8
0-1
  6
CONTINUOUS
 62
     3
 10
12216.223276999999
 20
8795.9189289999995
 30
0.0
 11
12211.962363000001
 21
8925.8485900000032
 31
0.0
  0
LINE
  5
3674
  8
0-1
  6
CONTINUOUS
 62
     3
 10
12216.223276999999
 20
8795.9189289999995
 30
0.0
 11
12216.223276999999
 21
8588.6831290000027
 31
0.0
  0
LINE
  5
3675
  8
0-1
  6
CONTINUOUS
 62
     3
 10
15061.723409
 20
8588.6831290000027
 30
0.0
 11
15061.723409
 21
6677.6370850000039
 31
0.0
  0
LINE
  5
3676
  8
0-1
  6
CONTINUOUS
 62
     3
 10
15176.722551000001
 20
8892.6629510000057
 30
0.0
 11
15176.722551000001
 21
6677.6370850000039
 31
0.0
  0
LINE
  5
3677
  8
0-1
  6
CONTINUOUS
 62
     3
 10
15156.723475000001
 20
8892.0067410000029
 30
0.0
 11
15156.723475000001
 21
6677.6370850000039
 31
0.0
  0
LINE
  5
3678
  8
0-1
  6
CONTINUOUS
 62
     3
 10
13651.723632999991
 20
8588.6831290000027
 30
0.0
 11
13651.723632999991
 21
6727.6372500000016
 31
0.0
  0
LINE
  5
3679
  8
0-1
  6
CONTINUOUS
 62
     3
 10
13688.722814999979
 20
8588.6831290000027
 30
0.0
 11
13688.722814999979
 21
6727.6372500000016
 31
0.0
  0
LINE
  5
367A
  8
0-1
  6
CONTINUOUS
 62
     3
 10
14361.724068999991
 20
8588.6831290000027
 30
0.0
 11
14361.724068999991
 21
6727.6372500000016
 31
0.0
  0
LINE
  5
367B
  8
0-1
  6
CONTINUOUS
 62
     3
 10
14398.722261000001
 20
8588.6831290000027
 30
0.0
 11
14398.722261000001
 21
6727.6372500000016
 31
0.0
  0
LINE
  5
367C
  8
0-1
  6
CONTINUOUS
 62
     3
 10
12951.722313
 20
8588.6831290000027
 30
0.0
 11
12951.722313
 21
6727.6372500000016
 31
0.0
  0
LINE
  5
367D
  8
0-1
  6
CONTINUOUS
 62
     3
 10
12988.723474999981
 20
8588.6831290000027
 30
0.0
 11
12988.723474999981
 21
6727.6372500000016
 31
0.0
  0
LINE
  5
367E
  8
0-1
  6
CONTINUOUS
 62
     3
 10
13330.222102
 20
6727.6372500000016
 30
0.0
 11
13330.222102
 21
8588.6831290000027
 31
0.0
  0
LINE
  5
367F
  8
0-1
  6
CONTINUOUS
 62
     3
 10
13310.223026
 20
6727.6372500000016
 30
0.0
 11
13310.223026
 21
8588.6831290000027
 31
0.0
  0
LINE
  5
3680
  8
0-1
  6
CONTINUOUS
 62
     3
 10
13380.222761999999
 20
6727.6372500000016
 30
0.0
 11
13380.222761999999
 21
8588.6831290000027
 31
0.0
  0
LINE
  5
3681
  8
0-1
  6
CONTINUOUS
 62
     3
 10
13260.222366
 20
6727.6372500000016
 30
0.0
 11
13260.222366
 21
8588.6831290000027
 31
0.0
  0
LINE
  5
3682
  8
0-1
  6
CONTINUOUS
 62
     3
 10
13127.22247199999
 20
6727.6372500000016
 30
0.0
 11
13127.22247199999
 21
8588.6831290000027
 31
0.0
  0
LINE
  5
3683
  8
0-1
  6
CONTINUOUS
 62
     3
 10
13112.22365899999
 20
6727.6372500000016
 30
0.0
 11
13112.22365899999
 21
8588.6831290000027
 31
0.0
  0
LINE
  5
3684
  8
0-1
  6
CONTINUOUS
 62
     3
 10
13513.222655999991
 20
6727.6372500000016
 30
0.0
 11
13513.222655999991
 21
8588.6831290000027
 31
0.0
  0
LINE
  5
3685
  8
0-1
  6
CONTINUOUS
 62
     3
 10
13528.224437999999
 20
6727.6372500000016
 30
0.0
 11
13528.224437999999
 21
8588.6831290000027
 31
0.0
  0
LINE
  5
3686
  8
0-1
  6
CONTINUOUS
 62
     3
 10
14228.22377799999
 20
6727.6372500000016
 30
0.0
 11
14228.22377799999
 21
8588.6831290000027
 31
0.0
  0
LINE
  5
3687
  8
0-1
  6
CONTINUOUS
 62
     3
 10
14213.221997000001
 20
6727.6372500000016
 30
0.0
 11
14213.221997000001
 21
8588.6831290000027
 31
0.0
  0
LINE
  5
3688
  8
0-1
  6
CONTINUOUS
 62
     3
 10
13812.223
 20
6727.6372500000016
 30
0.0
 11
13812.223
 21
8588.6831290000027
 31
0.0
  0
LINE
  5
3689
  8
0-1
  6
CONTINUOUS
 62
     3
 10
13827.223791
 20
6727.6372500000016
 30
0.0
 11
13827.223791
 21
8588.6831290000027
 31
0.0
  0
LINE
  5
368A
  8
0-1
  6
CONTINUOUS
 62
     3
 10
13960.224676
 20
6727.6372500000016
 30
0.0
 11
13960.224676
 21
8588.6831290000027
 31
0.0
  0
LINE
  5
368B
  8
0-1
  6
CONTINUOUS
 62
     3
 10
14080.222102
 20
6727.6372500000016
 30
0.0
 11
14080.222102
 21
8588.6831290000027
 31
0.0
  0
LINE
  5
368C
  8
0-1
  6
CONTINUOUS
 62
     3
 10
14010.222366
 20
6727.6372500000016
 30
0.0
 11
14010.222366
 21
8588.6831290000027
 31
0.0
  0
LINE
  5
368D
  8
0-1
  6
CONTINUOUS
 62
     3
 10
14030.22441199999
 20
6727.6372500000016
 30
0.0
 11
14030.22441199999
 21
8588.6831290000027
 31
0.0
  0
LINE
  5
368E
  8
0-1
  6
CONTINUOUS
 62
     3
 10
14740.223857999999
 20
6727.6372500000016
 30
0.0
 11
14740.223857999999
 21
8588.6831290000027
 31
0.0
  0
LINE
  5
368F
  8
0-1
  6
CONTINUOUS
 62
     3
 10
14720.22478199999
 20
6727.6372500000016
 30
0.0
 11
14720.22478199999
 21
8588.6831290000027
 31
0.0
  0
LINE
  5
3690
  8
0-1
  6
CONTINUOUS
 62
     3
 10
14790.224517999981
 20
6727.6372500000016
 30
0.0
 11
14790.224517999981
 21
8588.6831290000027
 31
0.0
  0
LINE
  5
3691
  8
0-1
  6
CONTINUOUS
 62
     3
 10
14670.224121999991
 20
6727.6372500000016
 30
0.0
 11
14670.224121999991
 21
8588.6831290000027
 31
0.0
  0
LINE
  5
3692
  8
0-1
  6
CONTINUOUS
 62
     3
 10
14537.224227000001
 20
6727.6372500000016
 30
0.0
 11
14537.224227000001
 21
8588.6831290000027
 31
0.0
  0
LINE
  5
3693
  8
0-1
  6
CONTINUOUS
 62
     3
 10
14522.222445999991
 20
6727.6372500000016
 30
0.0
 11
14522.222445999991
 21
8588.6831290000027
 31
0.0
  0
LINE
  5
3694
  8
0-1
  6
CONTINUOUS
 62
     3
 10
14923.22441199999
 20
6727.6372500000016
 30
0.0
 11
14923.22441199999
 21
8588.6831290000027
 31
0.0
  0
LINE
  5
3695
  8
0-1
  6
CONTINUOUS
 62
     3
 10
14938.223223999979
 20
6727.6372500000016
 30
0.0
 11
14938.223223999979
 21
8588.6831290000027
 31
0.0
  0
LINE
  5
3696
  8
0-1
  6
CONTINUOUS
 62
     3
 10
12828.222128999991
 20
6727.6372500000016
 30
0.0
 11
12828.222128999991
 21
8588.6831290000027
 31
0.0
  0
LINE
  5
3697
  8
0-1
  6
CONTINUOUS
 62
     3
 10
12813.223315999991
 20
6727.6372500000016
 30
0.0
 11
12813.223315999991
 21
8588.6831290000027
 31
0.0
  0
LINE
  5
3698
  8
0-1
  6
CONTINUOUS
 62
     3
 10
12680.224412
 20
6727.6372500000016
 30
0.0
 11
12680.224412
 21
8588.6831290000027
 31
0.0
  0
LINE
  5
3699
  8
0-1
  6
CONTINUOUS
 62
     3
 10
15189.22327699999
 20
6677.6370850000039
 30
0.0
 11
15189.22327699999
 21
6577.6372500000016
 31
0.0
  0
LINE
  5
369A
  8
0-1
  6
CONTINUOUS
 62
     3
 10
9428.9115950000032
 20
8752.8624200000031
 30
0.0
 11
9427.7971260000068
 21
8786.8448159999953
 31
0.0
  0
LINE
  5
369B
  8
0-1
  6
CONTINUOUS
 62
     3
 10
9430.6971210000029
 20
8789.9407830000018
 30
0.0
 11
15261.064888999999
 21
8980.4734050000006
 31
0.0
  0
LINE
  5
369C
  8
0-1
  6
CONTINUOUS
 62
     3
 10
15262.37631999999
 20
8940.4950480000007
 30
0.0
 11
9432.0095410000049
 21
8749.9624260000019
 31
0.0
  0
LINE
  5
369D
  8
0-1
  6
CONTINUOUS
 62
     3
 10
9429.2728569999963
 20
8741.8681740000029
 30
0.0
 11
9429.2698880000044
 21
8741.9334979999985
 31
0.0
  0
LINE
  5
369E
  8
0-1
  6
CONTINUOUS
 62
     3
 10
9429.2698880000044
 20
8741.9334979999985
 30
0.0
 11
9430.3210120000003
 21
8709.8860820000027
 31
0.0
  0
LINE
  5
369F
  8
0-1
  6
CONTINUOUS
 62
     3
 10
9435.4816169999976
 20
8705.0530880000024
 30
0.0
 11
15284.82109199998
 21
8896.207279000002
 31
0.0
  0
LINE
  5
36A0
  8
0-1
  6
CONTINUOUS
 62
     3
 10
15280.560177999991
 20
9026.1369400000021
 30
0.0
 11
9431.2226829999981
 21
8834.9827490000007
 31
0.0
  0
LINE
  5
36A1
  8
0-1
  6
CONTINUOUS
 62
     3
 10
9426.3877090000005
 20
8829.8211540000011
 30
0.0
 11
9427.4378429999997
 21
8797.8390620000027
 31
0.0
  0
LINE
  5
36A2
  8
0-1
  6
CONTINUOUS
 62
     3
 10
9430.5338100000008
 20
8794.939067000003
 30
0.0
 11
15260.902569
 21
8985.4716900000021
 31
0.0
  0
LINE
  5
36A3
  8
0-1
  6
CONTINUOUS
 62
     3
 10
15262.538640999999
 20
8935.4987430000001
 30
0.0
 11
9432.1718620000029
 21
8744.9651310000008
 31
0.0
  0
LINE
  5
36A4
  8
0-1
  6
CONTINUOUS
 62
     3
 10
9443.7144350000017
 20
8835.392509000003
 30
0.0
 11
9447.9753479999981
 21
8705.4618580000024
 31
0.0
  0
LINE
  5
36A5
  8
0-5
  6
CONTINUOUS
 62
     4
 10
18059.59683799999
 20
6785.4837319999997
 30
0.0
 11
18179.59525499996
 21
6577.6372500000016
 31
0.0
  0
LINE
  5
36A6
  8
0-5
  6
CONTINUOUS
 62
     4
 10
15269.223541000019
 20
6577.6372500000016
 30
0.0
 11
20501.968935000001
 21
6577.6372500000016
 31
0.0
  0
LINE
  5
36A7
  8
0-5
  6
CONTINUOUS
 62
     4
 10
18179.59525499996
 20
6577.6372500000016
 30
0.0
 11
18299.597629999989
 21
6785.4837319999997
 31
0.0
  0
LINE
  5
36A8
  8
0-5
  6
CONTINUOUS
 62
     4
 10
18299.597629999989
 20
6785.4837319999997
 30
0.0
 11
18059.59683799999
 21
6785.4837319999997
 31
0.0
  0
LINE
  5
36A9
  8
0-5
  6
CONTINUOUS
 62
     4
 10
15269.223541000019
 20
6677.6370850000039
 30
0.0
 11
16986.683488999999
 21
6677.6370850000039
 31
0.0
  0
LINE
  5
36AA
  8
0-5
  6
CONTINUOUS
 62
     4
 10
17014.309649999988
 20
6885.4830720000027
 30
0.0
 11
16774.307869
 21
6885.4830720000027
 31
0.0
  0
LINE
  5
36AB
  8
0-5
  6
CONTINUOUS
 62
     4
 10
16894.307274999999
 20
6677.6370850000039
 30
0.0
 11
17014.309649999988
 21
6885.4830720000027
 31
0.0
  0
LINE
  5
36AC
  8
0-5
  6
CONTINUOUS
 62
     4
 10
16774.307869
 20
6885.4830720000027
 30
0.0
 11
16894.307274999999
 21
6677.6370850000039
 31
0.0
  0
LINE
  5
36AD
  8
2-0
  6
CENTER2
 62
     6
 10
9648.7232769999955
 20
6314.9838380000037
 30
0.0
 11
9648.7232769999955
 21
7372.1269300000004
 31
0.0
  0
LINE
  5
36AE
  8
2-0
  6
CENTER2
 62
     6
 10
12216.223276999999
 20
6314.9838380000037
 30
0.0
 11
12216.223276999999
 21
7372.1269300000004
 31
0.0
  0
LINE
  5
36AF
  8
2-0
  6
CENTER2
 62
     6
 10
15134.223276999999
 20
6314.9838380000037
 30
0.0
 11
15134.223276999999
 21
7372.1269300000004
 31
0.0
  0
ARC
  5
36B0
  8
0-1
  6
CONTINUOUS
 62
     3
 10
9432.1144560000048
 20
8792.4884229999989
 30
0.0
 40
2.5
 50
271.87799100002047
 51
91.877991000020657
  0
ARC
  5
36B1
  8
0-1
  6
CONTINUOUS
 62
     3
 10
9433.5891969999993
 20
8747.513761000002
 30
0.0
 40
2.5
 50
271.87799100002047
 51
91.877991000020657
  0
ARC
  5
36B2
  8
0-1
  6
CONTINUOUS
 62
     3
 10
9430.7951069999981
 20
8786.9428020000032
 30
0.0
 40
3.0
 50
91.877991000020657
 51
181.87799100001399
  0
ARC
  5
36B3
  8
0-1
  6
CONTINUOUS
 62
     3
 10
15261.721100000001
 20
8960.4842270000008
 30
0.0
 40
20.0
 50
271.87799100002047
 51
91.877991000020657
  0
ARC
  5
36B4
  8
0-1
  6
CONTINUOUS
 62
     3
 10
9431.909576
 20
8752.9613960000006
 30
0.0
 40
3.0
 50
181.87799100001399
 51
271.87799100002047
  0
ARC
  5
36B5
  8
0-1
  6
CONTINUOUS
 62
     3
 10
9432.2698480000035
 20
8741.9671500000022
 30
0.0
 40
3.0
 50
91.877991000020657
 51
181.87799100001399
  0
ARC
  5
36B6
  8
0-1
  6
CONTINUOUS
 62
     3
 10
9435.3183070000014
 20
8710.049393000003
 30
0.0
 40
5.0
 50
181.87799100001399
 51
271.87799100002047
  0
ARC
  5
36B7
  8
0-1
  6
CONTINUOUS
 62
     3
 10
15256.72281499999
 20
8960.3209170000027
 30
0.0
 40
69.999999000000003
 50
293.6647800001233
 51
70.091202000170611
  0
ARC
  5
36B8
  8
0-1
  6
CONTINUOUS
 62
     3
 10
9431.3850029999994
 20
8829.9854539999997
 30
0.0
 40
5.0
 50
91.877991000020657
 51
181.87799100001399
  0
ARC
  5
36B9
  8
0-1
  6
CONTINUOUS
 62
     3
 10
9430.4348340000015
 20
8797.9370480000016
 30
0.0
 40
3.0
 50
181.87799100001399
 51
271.87799100002047
  0
ARC
  5
36BA
  8
0-1
  6
CONTINUOUS
 62
     3
 10
15261.721100000001
 20
8960.4842270000008
 30
0.0
 40
24.999998999999999
 50
271.87799100002047
 51
91.877991000020657
  0
TEXT
  5
36BB
  8
0-0
  6
CONTINUOUS
 62
     7
 10
18059.59683799999
 20
6865.4835010000006
 30
0.0
 40
160.0
  1
G.L
 72
     4
 11
18219.59683799999
 21
6945.4835010000006
 31
0.0
  0
TEXT
  5
36BC
  8
0-0
  6
CONTINUOUS
 62
     7
 10
16435.216335999979
 20
6965.4833360000011
 30
0.0
 40
160.0
  1
布基礎天端
 72
     4
 11
16893.883002666651
 21
7045.4833360000011
 31
0.0
  0
TEXT
  5
36BD
  8
2-0
  6
CONTINUOUS
 62
     7
 10
10735.63245599999
 20
3489.4699880000021
 30
0.0
 40
160.0
  1
側 面 立 面 図
 72
     4
 11
11380.96578933333
 21
3569.4699880000021
 31
0.0
  0
TEXT
  5
36BE
  8
2-0
  6
CONTINUOUS
 62
     7
 10
12732.45797447095
 20
3516.6653570000021
 30
0.0
 40
160.0
  1
1
 72
     4
 11
12759.12464113762
 21
3596.6653570000012
 31
0.0
  0
TEXT
  5
36BF
  8
2-0
  6
CONTINUOUS
 62
     7
 10
12975.546691721651
 20
3436.6668250000012
 30
0.0
 40
160.0
  1
80
 72
     4
 11
13095.546691721651
 21
3516.6668250000012
 31
0.0
  0
TEXT
  5
36C0
  8
2-0
  6
CONTINUOUS
 62
     7
 10
12233.45994047095
 20
3489.4699880000021
 30
0.0
 40
160.0
  1
(S=  /   )
 72
     4
 11
12793.45994047095
 21
3569.4699880000021
 31
0.0
  0
LINE
  5
36C1
  8
0-1
  6
CONTINUOUS
 62
     3
 10
20674.466163000001
 20
8585.6371440000057
 30
0.0
 11
23156.969593999991
 21
8585.6371440000057
 31
0.0
  0
LINE
  5
36C8
  8
0-1
  6
CONTINUOUS
 62
     3
 10
23249.46853899999
 20
6677.6370850000039
 30
0.0
 11
23149.469197999992
 21
6677.6370850000039
 31
0.0
  0
LINE
  5
36C9
  8
0-1
  6
CONTINUOUS
 62
     3
 10
23149.469197999992
 20
6677.6370850000039
 30
0.0
 11
23149.469197999992
 21
6577.6372500000016
 31
0.0
  0
LINE
  5
36CA
  8
0-1
  6
CONTINUOUS
 62
     3
 10
23249.46853899999
 20
6577.6372500000016
 30
0.0
 11
23249.46853899999
 21
6677.6370850000039
 31
0.0
  0
LINE
  5
36CB
  8
0-1
  6
CONTINUOUS
 62
     3
 10
23156.969593999991
 20
8895.6371770000005
 30
0.0
 11
23156.969593999991
 21
6677.6370850000039
 31
0.0
  0
LINE
  5
36CC
  8
0-1
  6
CONTINUOUS
 62
     3
 10
23111.971177999989
 20
8585.6371440000057
 30
0.0
 11
23111.971177999989
 21
6577.6372500000016
 31
0.0
  0
LINE
  5
36CD
  8
0-1
  6
CONTINUOUS
 62
     3
 10
23221.971045999981
 20
9025.6371109999982
 30
0.0
 11
23221.971045999981
 21
6677.6370850000039
 31
0.0
  0
LINE
  5
36CE
  8
0-1
  6
CONTINUOUS
 62
     3
 10
23241.968142999991
 20
8895.6371770000005
 30
0.0
 11
23241.968142999991
 21
6677.6370850000039
 31
0.0
  0
LINE
  5
36D0
  8
0-1
  6
CONTINUOUS
 62
     3
 10
20581.967218999998
 20
6677.6370850000039
 30
0.0
 11
20681.966559
 21
6677.6370850000039
 31
0.0
  0
LINE
  5
36D1
  8
0-1
  6
CONTINUOUS
 62
     3
 10
20681.966559
 20
6677.6370850000039
 30
0.0
 11
20681.966559
 21
6577.6372500000016
 31
0.0
  0
LINE
  5
36D2
  8
0-1
  6
CONTINUOUS
 62
     3
 10
20581.967218999998
 20
6577.6372500000016
 30
0.0
 11
20581.967218999998
 21
6677.6370850000039
 31
0.0
  0
LINE
  5
36D3
  8
0-1
  6
CONTINUOUS
 62
     3
 10
20719.468539000001
 20
8585.6371440000057
 30
0.0
 11
20719.468539000001
 21
6577.6372500000016
 31
0.0
  0
LINE
  5
36D4
  8
0-1
  6
CONTINUOUS
 62
     3
 10
20674.466163000001
 20
8895.6371770000005
 30
0.0
 11
20674.466163000001
 21
6677.6370850000039
 31
0.0
  0
LINE
  5
36D5
  8
0-1
  6
CONTINUOUS
 62
     3
 10
20609.466691000009
 20
9025.6371109999982
 30
0.0
 11
20609.466691000009
 21
6677.6370850000039
 31
0.0
  0
LINE
  5
36D6
  8
0-1
  6
CONTINUOUS
 62
     3
 10
20589.467615000001
 20
8895.6371770000005
 30
0.0
 11
20589.467615000001
 21
6677.6370850000039
 31
0.0
  0
LINE
  5
36D7
  8
0-1
  6
CONTINUOUS
 62
     3
 10
20719.468539000001
 20
7097.6379760000009
 30
0.0
 11
23111.971177999989
 21
7097.6379760000009
 31
0.0
  0
LINE
  5
36D8
  8
0-1
  6
CONTINUOUS
 62
     3
 10
20719.468539000001
 20
7032.6375140000036
 30
0.0
 11
23111.971177999989
 21
7032.6375140000036
 31
0.0
  0
LINE
  5
36D9
  8
0-1
  6
CONTINUOUS
 62
     3
 10
20719.468539000001
 20
6967.6375470000039
 30
0.0
 11
23111.971177999989
 21
6967.6375470000039
 31
0.0
  0
LINE
  5
36DA
  8
0-1
  6
CONTINUOUS
 62
     3
 10
20719.468539000001
 20
6902.6370850000021
 30
0.0
 11
23111.971177999989
 21
6902.6370850000021
 31
0.0
  0
LINE
  5
36DB
  8
0-1
  6
CONTINUOUS
 62
     3
 10
20719.468539000001
 20
6837.6376130000071
 30
0.0
 11
23111.971177999989
 21
6837.6376130000071
 31
0.0
  0
LINE
  5
36DC
  8
0-1
  6
CONTINUOUS
 62
     3
 10
20719.468539000001
 20
6772.6376460000029
 30
0.0
 11
23111.971177999989
 21
6772.6376460000029
 31
0.0
  0
LINE
  5
36DD
  8
0-1
  6
CONTINUOUS
 62
     3
 10
20719.468539000001
 20
6707.6376790000022
 30
0.0
 11
23111.971177999989
 21
6707.6376790000022
 31
0.0
  0
LINE
  5
36DE
  8
0-1
  6
CONTINUOUS
 62
     3
 10
20719.468539000001
 20
6642.6372170000041
 30
0.0
 11
23111.971177999989
 21
6642.6372170000041
 31
0.0
  0
LINE
  5
36DF
  8
0-1
  6
CONTINUOUS
 62
     3
 10
20719.468539000001
 20
8462.6372830000018
 30
0.0
 11
23111.971177999989
 21
8462.6372830000018
 31
0.0
  0
LINE
  5
36E0
  8
0-1
  6
CONTINUOUS
 62
     3
 10
20719.468539000001
 20
8397.6373160000057
 30
0.0
 11
23111.971177999989
 21
8397.6373160000057
 31
0.0
  0
LINE
  5
36E1
  8
0-1
  6
CONTINUOUS
 62
     3
 10
20719.468539000001
 20
8332.6378440000026
 30
0.0
 11
23111.971177999989
 21
8332.6378440000026
 31
0.0
  0
LINE
  5
36E2
  8
0-1
  6
CONTINUOUS
 62
     3
 10
20719.468539000001
 20
8267.6378770000028
 30
0.0
 11
23111.971177999989
 21
8267.6378770000028
 31
0.0
  0
LINE
  5
36E3
  8
0-1
  6
CONTINUOUS
 62
     3
 10
20719.468539000001
 20
8202.6379100000049
 30
0.0
 11
23111.971177999989
 21
8202.6379100000049
 31
0.0
  0
LINE
  5
36E4
  8
0-1
  6
CONTINUOUS
 62
     3
 10
20719.468539000001
 20
8137.6374480000031
 30
0.0
 11
23111.971177999989
 21
8137.6374480000031
 31
0.0
  0
LINE
  5
36E5
  8
0-1
  6
CONTINUOUS
 62
     3
 10
20719.468539000001
 20
8072.6374810000016
 30
0.0
 11
23111.971177999989
 21
8072.6374810000016
 31
0.0
  0
LINE
  5
36E6
  8
0-1
  6
CONTINUOUS
 62
     3
 10
20719.468539000001
 20
8007.6380090000039
 30
0.0
 11
23111.971177999989
 21
8007.6380090000039
 31
0.0
  0
LINE
  5
36E7
  8
0-1
  6
CONTINUOUS
 62
     3
 10
20719.468539000001
 20
7942.6380419999969
 30
0.0
 11
23111.971177999989
 21
7942.6380419999969
 31
0.0
  0
LINE
  5
36E8
  8
0-1
  6
CONTINUOUS
 62
     3
 10
20719.468539000001
 20
7877.6375800000069
 30
0.0
 11
23111.971177999989
 21
7877.6375800000069
 31
0.0
  0
LINE
  5
36E9
  8
0-1
  6
CONTINUOUS
 62
     3
 10
20719.468539000001
 20
7812.6376130000026
 30
0.0
 11
23111.971177999989
 21
7812.6376130000026
 31
0.0
  0
LINE
  5
36EA
  8
0-1
  6
CONTINUOUS
 62
     3
 10
20719.468539000001
 20
7747.637646000002
 30
0.0
 11
23111.971177999989
 21
7747.637646000002
 31
0.0
  0
LINE
  5
36EB
  8
0-1
  6
CONTINUOUS
 62
     3
 10
20719.468539000001
 20
7682.6371840000038
 30
0.0
 11
23111.971177999989
 21
7682.6371840000038
 31
0.0
  0
LINE
  5
36EC
  8
0-1
  6
CONTINUOUS
 62
     3
 10
20719.468539000001
 20
7617.6372170000022
 30
0.0
 11
23111.971177999989
 21
7617.6372170000022
 31
0.0
  0
LINE
  5
36ED
  8
0-1
  6
CONTINUOUS
 62
     3
 10
20719.468539000001
 20
7552.6377450000018
 30
0.0
 11
23111.971177999989
 21
7552.6377450000018
 31
0.0
  0
LINE
  5
36EE
  8
0-1
  6
CONTINUOUS
 62
     3
 10
20719.468539000001
 20
7487.6377780000057
 30
0.0
 11
23111.971177999989
 21
7487.6377780000057
 31
0.0
  0
LINE
  5
36EF
  8
0-1
  6
CONTINUOUS
 62
     3
 10
20719.468539000001
 20
7422.6378110000032
 30
0.0
 11
23111.971177999989
 21
7422.6378110000032
 31
0.0
  0
LINE
  5
36F0
  8
0-1
  6
CONTINUOUS
 62
     3
 10
20719.468539000001
 20
7357.6373490000087
 30
0.0
 11
23111.971177999989
 21
7357.6373490000087
 31
0.0
  0
LINE
  5
36F1
  8
0-1
  6
CONTINUOUS
 62
     3
 10
20719.468539000001
 20
7292.6373820000017
 30
0.0
 11
23111.971177999989
 21
7292.6373820000017
 31
0.0
  0
LINE
  5
36F2
  8
0-1
  6
CONTINUOUS
 62
     3
 10
20719.468539000001
 20
7227.6379100000049
 30
0.0
 11
23111.971177999989
 21
7227.6379100000049
 31
0.0
  0
LINE
  5
36F3
  8
0-1
  6
CONTINUOUS
 62
     3
 10
20719.468539000001
 20
7162.6379430000034
 30
0.0
 11
23111.971177999989
 21
7162.6379430000034
 31
0.0
  0
LINE
  5
36F4
  8
0-1
  6
CONTINUOUS
 62
     3
 10
20719.468539000001
 20
8517.0973030000023
 30
0.0
 11
23111.971177999989
 21
8517.0973030000023
 31
0.0
  0
LINE
  5
36F5
  8
0-1
  6
CONTINUOUS
 62
     3
 10
20581.967218999998
 20
6577.6372500000016
 30
0.0
 11
23249.46853899999
 21
6577.6372500000016
 31
0.0
  0
LINE
  5
3707
  8
0-2
  6
CONTINUOUS
 62
     4
 10
22279.409877999991
 20
7324.8639440000024
 30
0.0
 11
22179.410537999978
 21
7324.8639440000024
 31
0.0
  0
LINE
  5
3708
  8
0-2
  6
CONTINUOUS
 62
     4
 10
21552.025877999979
 20
7324.8639440000024
 30
0.0
 11
21652.025217999992
 21
7324.8639440000024
 31
0.0
  0
LINE
  5
3709
  8
0-5
  6
CONTINUOUS
 62
     4
 10
23199.469858
 20
4897.637646000002
 30
0.0
 11
23199.469858
 21
4737.6381080000019
 31
0.0
  0
LINE
  5
370A
  8
0-5
  6
CONTINUOUS
 62
     4
 10
20631.969858
 20
4897.637646000002
 30
0.0
 11
20631.969858
 21
4737.6381080000019
 31
0.0
  0
LINE
  5
370B
  8
2-0
  6
CENTER2
 62
     6
 10
23199.469858
 20
6314.9848270000039
 30
0.0
 11
23199.469858
 21
7352.1278540000058
 31
0.0
  0
LINE
  5
370C
  8
2-0
  6
CENTER2
 62
     6
 10
20631.969858
 20
6314.9848270000039
 30
0.0
 11
20631.969858
 21
7352.1278540000058
 31
0.0
  0
CIRCLE
  5
3715
  8
0-5
  6
CONTINUOUS
 62
     4
 10
23199.469858
 20
4537.636953000002
 30
0.0
 40
199.9999949999999
  0
CIRCLE
  5
3716
  8
0-5
  6
CONTINUOUS
 62
     4
 10
20631.969858
 20
4537.636953000002
 30
0.0
 40
199.9999949999999
  0
TEXT
  5
3717
  8
0-5
  6
CONTINUOUS
 62
     7
 10
23147.556982999991
 20
4448.1619710000023
 30
0.0
 40
160.0
  1
2
 72
     4
 11
23200.89031633332
 21
4528.1619710000023
 31
0.0
  0
TEXT
  5
3718
  8
0-5
  6
CONTINUOUS
 62
     7
 10
20580.056983999992
 20
4448.1619710000023
 30
0.0
 40
160.0
  1
1
 72
     4
 11
20606.72365066666
 21
4528.1619710000023
 31
0.0
  0
TEXT
  5
3719
  8
2-0
  6
CONTINUOUS
 62
     7
 10
20572.625369000009
 20
3729.2513000000008
 30
0.0
 40
160.0
  1
正 面 立 面 図
 72
     4
 11
21217.958702333341
 21
3809.2513000000008
 31
0.0
  0
CIRCLE
  5
371A
  8
0-4
  6
CONTINUOUS
 62
     4
 10
21915.719858
 20
7063.6936859999987
 30
0.0
 40
18.487504999999981
  0
TEXT
  5
371B
  8
2-0
  6
CONTINUOUS
 62
     7
 10
22569.450887470972
 20
3756.4466690000022
 30
0.0
 40
160.0
  1
1
 72
     4
 11
22596.117554137629
 21
3836.4466690000022
 31
0.0
  0
TEXT
  5
371C
  8
2-0
  6
CONTINUOUS
 62
     7
 10
22812.53960472166
 20
3676.4481370000012
 30
0.0
 40
160.0
  1
80
 72
     4
 11
22932.53960472166
 21
3756.4481370000012
 31
0.0
  0
TEXT
  5
371D
  8
2-0
  6
CONTINUOUS
 62
     7
 10
22070.452853470961
 20
3729.2513000000008
 30
0.0
 40
160.0
  1
(S=  /   )
 72
     4
 11
22630.452853470961
 21
3809.2513000000008
 31
0.0
  0
LINE
  5
371E
  8
SUNPOU
  6
CONTINUOUS
 10
20349.469857999989
 20
5377.6372500000098
 30
0.0
 11
19991.51485127888
 21
5377.6372500000098
 31
0.0
  0
LINE
  5
371F
  8
SUNPOU
  6
CONTINUOUS
 10
23481.969858
 20
5377.6372500000098
 30
0.0
 11
23839.924864721092
 21
5377.6372500000098
 31
0.0
  0
TEXT
  5
3720
  8
0-5
  6
CONTINUOUS
 62
     7
 10
20013.79193900001
 20
7306.997496742003
 30
0.0
 40
160.0
  1
(2131.5)
 50
90.0
 72
     4
 11
19933.79193900001
 21
7760.330830075337
 31
0.0
  0
LINE
  5
3721
  8
0-1
  6
CONTINUOUS
 62
     3
 10
9901.2237380000206
 20
6727.6372500000016
 30
0.0
 11
9901.2237380000206
 21
8588.6831290000027
 31
0.0
  0
LINE
  5
3722
  8
0-1
  6
CONTINUOUS
 62
     3
 10
9886.2249260000153
 20
6727.6372500000016
 30
0.0
 11
9886.2249260000153
 21
8588.6831290000027
 31
0.0
  0
LINE
  5
3723
  8
0-5
  6
CONTINUOUS
 62
     4
 10
15134.223276999999
 20
4897.637646000002
 30
0.0
 11
15134.223276999999
 21
4737.6381080000019
 31
0.0
  0
LINE
  5
3724
  8
0-5
  6
CONTINUOUS
 62
     4
 10
12216.223276999999
 20
4897.637646000002
 30
0.0
 11
12216.223276999999
 21
4737.6381080000019
 31
0.0
  0
LINE
  5
3725
  8
0-5
  6
CONTINUOUS
 62
     4
 10
9648.7232769999955
 20
4897.637646000002
 30
0.0
 11
9648.7232769999955
 21
4737.6381080000019
 31
0.0
  0
CIRCLE
  5
3726
  8
0-5
  6
CONTINUOUS
 62
     4
 10
12216.223276999999
 20
4537.6369530000047
 30
0.0
 40
199.9999949999999
  0
CIRCLE
  5
3727
  8
0-5
  6
CONTINUOUS
 62
     4
 10
15134.223276999999
 20
4537.6369530000047
 30
0.0
 40
199.9999949999999
  0
CIRCLE
  5
3728
  8
0-5
  6
CONTINUOUS
 62
     4
 10
9648.7232769999955
 20
4537.6369530000047
 30
0.0
 40
199.9999949999999
  0
TEXT
  5
3729
  8
0-5
  6
CONTINUOUS
 62
     7
 10
15087.26711699999
 20
4454.4261570000053
 30
0.0
 40
160.0
  1
A
 72
     4
 11
15140.60045033333
 21
4534.4261570000053
 31
0.0
  0
TEXT
  5
372A
  8
0-5
  6
CONTINUOUS
 62
     7
 10
12169.267116999979
 20
4454.4261570000053
 30
0.0
 40
160.0
  1
B
 72
     4
 11
12222.600450333321
 21
4534.4261570000053
 31
0.0
  0
TEXT
  5
372B
  8
0-5
  6
CONTINUOUS
 62
     7
 10
9601.7671170000031
 20
4454.4261570000053
 30
0.0
 40
160.0
  1
C
 72
     4
 11
9655.100450333337
 21
4534.4261570000053
 31
0.0
  0
TEXT
  5
372C
  8
2-0
  6
CONTINUOUS
 62
     7
 10
20680.427972000009
 20
12038.053153000001
 30
0.0
 40
160.0
  1
平　面　図
 72
     4
 11
21133.761305333341
 21
12112.71981966667
 31
0.0
  0
TEXT
  5
372D
  8
2-0
  6
CONTINUOUS
 62
     7
 10
22485.25349047095
 20
12059.91518866667
 30
0.0
 40
160.0
  1
1
 72
     4
 11
22511.920157137622
 21
12139.91518866667
 31
0.0
  0
TEXT
  5
372E
  8
2-0
  6
CONTINUOUS
 62
     7
 10
22728.342207721649
 20
11979.91665666667
 30
0.0
 40
160.0
  1
80
 72
     4
 11
22848.342207721649
 21
12059.91665666667
 31
0.0
  0
TEXT
  5
372F
  8
2-0
  6
CONTINUOUS
 62
     7
 10
21986.255456470961
 20
12032.71981966667
 30
0.0
 40
160.0
  1
(S=  /   )
 72
     4
 11
22546.255456470961
 21
12112.71981966667
 31
0.0
  0
LINE
  5
3730
  8
2-0
  6
CONTINUOUS
 62
     6
 10
21516.310942
 20
13628.933841
 30
0.0
 11
22516.304343999949
 21
13628.933841
 31
0.0
  0
LINE
  5
3731
  8
2-0
  6
CONTINUOUS
 62
     6
 10
22984.244720999999
 20
14099.354555
 30
0.0
 11
22516.304343999949
 21
13628.933841
 31
0.0
  0
LINE
  5
3732
  8
2-0
  6
CONTINUOUS
 62
     6
 10
21533.022037999981
 20
18308.053906000001
 30
0.0
 11
22550.997385999988
 21
18308.053906000001
 31
0.0
  0
LINE
  5
3733
  8
2-0
  6
CONTINUOUS
 62
     6
 10
23007.422903999981
 20
18532.768854999991
 30
0.0
 11
22550.997385999988
 21
18308.053906000001
 31
0.0
  0
LINE
  5
3734
  8
2-0
  6
CONTINUOUS
 62
     6
 10
22945.604517999978
 20
17290.96220200001
 30
0.0
 11
22640.90909999999
 21
17394.615733000021
 31
0.0
  0
LINE
  5
3735
  8
2-0
  6
CONTINUOUS
 62
     6
 10
23100.62655699997
 20
16801.340158000021
 30
0.0
 11
22640.90909999999
 21
16557.426846999999
 31
0.0
  0
LINE
  5
3736
  8
2-0
  6
CONTINUOUS
 62
     6
 10
21720.906064999981
 20
16557.426846999999
 30
0.0
 11
22640.90909999999
 21
16557.426846999999
 31
0.0
  0
LINE
  5
3737
  8
2-0
  6
CONTINUOUS
 62
     6
 10
21440.915037999988
 20
17394.615733000021
 30
0.0
 11
22640.90909999999
 21
17394.615733000021
 31
0.0
  0
LINE
  5
3738
  8
2-0
  6
CONTINUOUS
 62
     6
 10
23016.80384199999
 20
14421.03820099999
 30
0.0
 11
22640.90909999999
 21
14601.982035999999
 31
0.0
  0
LINE
  5
3739
  8
2-0
  6
CONTINUOUS
 62
     6
 10
21533.022037999981
 20
15390.291448000011
 30
0.0
 11
22550.997385999988
 21
15390.291448000011
 31
0.0
  0
LINE
  5
373A
  8
2-0
  6
CONTINUOUS
 62
     6
 10
22120.907383999991
 20
14601.982035999999
 30
0.0
 11
22640.90909999999
 21
14601.982035999999
 31
0.0
  0
LINE
  5
373B
  8
2-0
  6
CONTINUOUS
 62
     6
 10
23007.422903999981
 20
15615.00441800002
 30
0.0
 11
22550.997385999988
 21
15390.291448000011
 31
0.0
  0
LINE
  5
373C
  8
2-0
  6
CONTINUOUS
 62
     4
 10
20631.969858
 20
19876.935491000011
 30
0.0
 11
20631.969858
 21
20606.932455999999
 31
0.0
  0
LINE
  5
373D
  8
2-0
  6
CONTINUOUS
 62
     3
 10
23211.970517999991
 20
19687.93303700001
 30
0.0
 11
23211.970517999991
 21
19681.937075000009
 31
0.0
  0
LINE
  5
373E
  8
2-0
  6
CONTINUOUS
 62
     3
 10
23211.970517999991
 20
19681.937075000009
 30
0.0
 11
23241.96814199998
 21
19681.937075000009
 31
0.0
  0
LINE
  5
373F
  8
2-0
  6
CONTINUOUS
 62
     3
 10
23241.96814199998
 20
19711.936678999991
 30
0.0
 11
23160.96624199998
 21
19711.936678999991
 31
0.0
  0
LINE
  5
3740
  8
2-0
  6
CONTINUOUS
 62
     3
 10
23211.970517999991
 20
19671.639619000001
 30
0.0
 11
23241.96814199998
 21
19671.639619000001
 31
0.0
  0
LINE
  5
3741
  8
2-0
  6
CONTINUOUS
 62
     3
 10
23211.970517999991
 20
19689.64136100002
 30
0.0
 11
23211.970517999991
 21
19671.639619000001
 31
0.0
  0
LINE
  5
3742
  8
2-0
  6
CONTINUOUS
 62
     3
 10
23236.967877999989
 20
19689.64136100002
 30
0.0
 11
23211.970517999991
 21
19689.64136100002
 31
0.0
  0
LINE
  5
3743
  8
2-0
  6
CONTINUOUS
 62
     3
 10
23236.967877999989
 20
19684.633179000011
 30
0.0
 11
23236.967877999989
 21
19689.64136100002
 31
0.0
  0
LINE
  5
3744
  8
2-0
  6
CONTINUOUS
 62
     3
 10
23229.966321
 20
19684.633179000011
 30
0.0
 11
23236.967877999989
 21
19684.633179000011
 31
0.0
  0
LINE
  5
3745
  8
2-0
  6
CONTINUOUS
 62
     3
 10
23129.670052999991
 20
19784.933406
 30
0.0
 11
23129.670052999991
 21
19791.938922000008
 31
0.0
  0
LINE
  5
3746
  8
2-0
  6
CONTINUOUS
 62
     3
 10
23129.670052999991
 20
19791.938922000008
 30
0.0
 11
23134.670316999971
 21
19791.938922000008
 31
0.0
  0
LINE
  5
3747
  8
2-0
  6
CONTINUOUS
 62
     3
 10
23134.670316999971
 20
19791.938922000008
 30
0.0
 11
23134.670316999971
 21
19766.92968500001
 31
0.0
  0
LINE
  5
3748
  8
2-0
  6
CONTINUOUS
 62
     3
 10
23134.670316999971
 20
19766.92968500001
 30
0.0
 11
23116.668574999971
 21
19766.92968500001
 31
0.0
  0
LINE
  5
3749
  8
2-0
  6
CONTINUOUS
 62
     3
 10
23116.668574999971
 20
19766.92968500001
 30
0.0
 11
23116.668574999971
 21
19796.933248000008
 31
0.0
  0
LINE
  5
374A
  8
2-0
  6
CONTINUOUS
 62
     3
 10
23126.966030999989
 20
19796.933248000008
 30
0.0
 11
23241.96814199998
 21
19796.933248000008
 31
0.0
  0
LINE
  5
374B
  8
2-0
  6
CONTINUOUS
 62
     3
 10
23126.966030999989
 20
19766.92968500001
 30
0.0
 11
23126.966030999989
 21
19796.933248000008
 31
0.0
  0
LINE
  5
374C
  8
2-0
  6
CONTINUOUS
 62
     3
 10
23132.967930999988
 20
19766.92968500001
 30
0.0
 11
23126.966030999989
 21
19766.92968500001
 31
0.0
  0
LINE
  5
374D
  8
2-0
  6
CONTINUOUS
 62
     3
 10
23229.966321
 20
19331.336356499989
 30
0.0
 11
23236.967877999989
 21
19331.336356499989
 31
0.0
  0
LINE
  5
374E
  8
2-0
  6
CONTINUOUS
 62
     3
 10
23236.967877999989
 20
19331.336356499989
 30
0.0
 11
23236.967877999989
 21
19336.336620499991
 31
0.0
  0
LINE
  5
374F
  8
2-0
  6
CONTINUOUS
 62
     3
 10
23236.967877999989
 20
19336.336620499991
 30
0.0
 11
23211.970517999991
 21
19336.336620499991
 31
0.0
  0
LINE
  5
3750
  8
2-0
  6
CONTINUOUS
 62
     3
 10
23211.970517999991
 20
19336.336620499991
 30
0.0
 11
23211.970517999991
 21
19318.3408165
 31
0.0
  0
LINE
  5
3751
  8
2-0
  6
CONTINUOUS
 62
     3
 10
23211.970517999991
 20
19318.3408165
 30
0.0
 11
23241.96814199998
 21
19318.3408165
 31
0.0
  0
LINE
  5
3752
  8
2-0
  6
CONTINUOUS
 62
     3
 10
23211.970517999991
 20
19334.432323499961
 30
0.0
 11
23211.970517999991
 21
19328.4343825
 31
0.0
  0
LINE
  5
3753
  8
2-0
  6
CONTINUOUS
 62
     3
 10
23211.970517999991
 20
19328.4343825
 30
0.0
 11
23241.96814199998
 21
19328.4343825
 31
0.0
  0
LINE
  5
3754
  8
2-0
  6
CONTINUOUS
 62
     3
 10
23241.96814199998
 20
19328.4343825
 30
0.0
 11
23241.96814199998
 21
19365.4355435
 31
0.0
  0
LINE
  5
3755
  8
2-0
  6
CONTINUOUS
 62
     3
 10
23211.970517999991
 20
19365.4355435
 30
0.0
 11
23241.96814199998
 21
19365.4355435
 31
0.0
  0
LINE
  5
3756
  8
2-0
  6
CONTINUOUS
 62
     3
 10
23211.970517999991
 20
19359.431663499981
 30
0.0
 11
23211.970517999991
 21
19365.4355435
 31
0.0
  0
LINE
  5
3757
  8
2-0
  6
CONTINUOUS
 62
     3
 10
23211.970517999991
 20
19375.531088499989
 30
0.0
 11
23241.96814199998
 21
19375.531088499989
 31
0.0
  0
LINE
  5
3758
  8
2-0
  6
CONTINUOUS
 62
     3
 10
23211.970517999991
 20
19357.529346499989
 30
0.0
 11
23211.970517999991
 21
19375.531088499989
 31
0.0
  0
LINE
  5
3759
  8
2-0
  6
CONTINUOUS
 62
     3
 10
23236.967877999989
 20
19357.529346499989
 30
0.0
 11
23211.970517999991
 21
19357.529346499989
 31
0.0
  0
LINE
  5
375A
  8
2-0
  6
CONTINUOUS
 62
     3
 10
23236.967877999989
 20
19362.529610500002
 30
0.0
 11
23236.967877999989
 21
19357.529346499989
 31
0.0
  0
LINE
  5
375B
  8
2-0
  6
CONTINUOUS
 62
     3
 10
23229.966321
 20
19362.529610500002
 30
0.0
 11
23236.967877999989
 21
19362.529610500002
 31
0.0
  0
LINE
  5
375C
  8
2-0
  6
CONTINUOUS
 62
     3
 10
23229.966321
 20
18630.335367
 30
0.0
 11
23236.967877999989
 21
18630.335367
 31
0.0
  0
LINE
  5
375D
  8
2-0
  6
CONTINUOUS
 62
     3
 10
23236.967877999989
 20
18630.335367
 30
0.0
 11
23236.967877999989
 21
18635.341569
 31
0.0
  0
LINE
  5
375E
  8
2-0
  6
CONTINUOUS
 62
     3
 10
23236.967877999989
 20
18635.341569
 30
0.0
 11
23211.970517999991
 21
18635.341569
 31
0.0
  0
LINE
  5
375F
  8
2-0
  6
CONTINUOUS
 62
     3
 10
23211.970517999991
 20
18635.341569
 30
0.0
 11
23211.970517999991
 21
18617.339827
 31
0.0
  0
LINE
  5
3760
  8
2-0
  6
CONTINUOUS
 62
     3
 10
23211.970517999991
 20
18617.339827
 30
0.0
 11
23241.96814199998
 21
18617.339827
 31
0.0
  0
LINE
  5
3761
  8
2-0
  6
CONTINUOUS
 62
     3
 10
23211.970517999991
 20
18633.43133399999
 30
0.0
 11
23211.970517999991
 21
18627.435372
 31
0.0
  0
LINE
  5
3762
  8
2-0
  6
CONTINUOUS
 62
     3
 10
23211.970517999991
 20
18627.435372
 30
0.0
 11
23241.96814199998
 21
18627.435372
 31
0.0
  0
LINE
  5
3763
  8
2-0
  6
CONTINUOUS
 62
     3
 10
23241.96814199998
 20
18627.435372
 30
0.0
 11
23241.96814199998
 21
18664.434553999989
 31
0.0
  0
LINE
  5
3764
  8
2-0
  6
CONTINUOUS
 62
     3
 10
23211.970517999991
 20
18664.434553999989
 30
0.0
 11
23241.96814199998
 21
18664.434553999989
 31
0.0
  0
LINE
  5
3765
  8
2-0
  6
CONTINUOUS
 62
     3
 10
23211.970517999991
 20
18658.43859200001
 30
0.0
 11
23211.970517999991
 21
18664.434553999989
 31
0.0
  0
LINE
  5
3766
  8
2-0
  6
CONTINUOUS
 62
     3
 10
23211.970517999991
 20
18674.530099
 30
0.0
 11
23241.96814199998
 21
18674.530099
 31
0.0
  0
LINE
  5
3767
  8
2-0
  6
CONTINUOUS
 62
     3
 10
23211.970517999991
 20
18656.528356999988
 30
0.0
 11
23211.970517999991
 21
18674.530099
 31
0.0
  0
LINE
  5
3768
  8
2-0
  6
CONTINUOUS
 62
     3
 10
23236.967877999989
 20
18656.528356999988
 30
0.0
 11
23211.970517999991
 21
18656.528356999988
 31
0.0
  0
LINE
  5
3769
  8
2-0
  6
CONTINUOUS
 62
     3
 10
23236.967877999989
 20
18661.534559
 30
0.0
 11
23236.967877999989
 21
18656.528356999988
 31
0.0
  0
LINE
  5
376A
  8
2-0
  6
CONTINUOUS
 62
     3
 10
23229.966321
 20
18661.534559
 30
0.0
 11
23236.967877999989
 21
18661.534559
 31
0.0
  0
LINE
  5
376B
  8
2-0
  6
CONTINUOUS
 62
     3
 10
23229.966321
 20
17960.528621000001
 30
0.0
 11
23236.967877999989
 21
17960.528621000001
 31
0.0
  0
LINE
  5
376C
  8
2-0
  6
CONTINUOUS
 62
     3
 10
23236.967877999989
 20
17960.528621000001
 30
0.0
 11
23236.967877999989
 21
17955.540234000011
 31
0.0
  0
LINE
  5
376D
  8
2-0
  6
CONTINUOUS
 62
     3
 10
23236.967877999989
 20
17955.540234000011
 30
0.0
 11
23211.970517999991
 21
17955.540234000011
 31
0.0
  0
LINE
  5
376E
  8
2-0
  6
CONTINUOUS
 62
     3
 10
23211.970517999991
 20
17955.540234000011
 30
0.0
 11
23211.970517999991
 21
17973.536037000002
 31
0.0
  0
LINE
  5
376F
  8
2-0
  6
CONTINUOUS
 62
     3
 10
23211.970517999991
 20
17973.536037000002
 30
0.0
 11
23241.96814199998
 21
17973.536037000002
 31
0.0
  0
LINE
  5
3770
  8
2-0
  6
CONTINUOUS
 62
     3
 10
23211.970517999991
 20
17957.438591999991
 30
0.0
 11
23211.970517999991
 21
17963.434553999989
 31
0.0
  0
LINE
  5
3771
  8
2-0
  6
CONTINUOUS
 62
     3
 10
23211.970517999991
 20
17963.434553999989
 30
0.0
 11
23241.96814199998
 21
17963.434553999989
 31
0.0
  0
LINE
  5
3772
  8
2-0
  6
CONTINUOUS
 62
     3
 10
23241.96814199998
 20
17963.434553999989
 30
0.0
 11
23241.96814199998
 21
17926.435372000011
 31
0.0
  0
LINE
  5
3773
  8
2-0
  6
CONTINUOUS
 62
     3
 10
23211.970517999991
 20
17926.435372000011
 30
0.0
 11
23241.96814199998
 21
17926.435372000011
 31
0.0
  0
LINE
  5
3774
  8
2-0
  6
CONTINUOUS
 62
     3
 10
23211.970517999991
 20
17932.437272999989
 30
0.0
 11
23211.970517999991
 21
17926.435372000011
 31
0.0
  0
LINE
  5
3775
  8
2-0
  6
CONTINUOUS
 62
     3
 10
23211.970517999991
 20
17916.345765999991
 30
0.0
 11
23241.96814199998
 21
17916.345765999991
 31
0.0
  0
LINE
  5
3776
  8
2-0
  6
CONTINUOUS
 62
     3
 10
23211.970517999991
 20
17934.341569
 30
0.0
 11
23211.970517999991
 21
17916.345765999991
 31
0.0
  0
LINE
  5
3777
  8
2-0
  6
CONTINUOUS
 62
     3
 10
23236.967877999989
 20
17934.341569
 30
0.0
 11
23211.970517999991
 21
17934.341569
 31
0.0
  0
LINE
  5
3778
  8
2-0
  6
CONTINUOUS
 62
     3
 10
23236.967877999989
 20
17929.341305999991
 30
0.0
 11
23236.967877999989
 21
17934.341569
 31
0.0
  0
LINE
  5
3779
  8
2-0
  6
CONTINUOUS
 62
     3
 10
23229.966321
 20
17929.341305999991
 30
0.0
 11
23236.967877999989
 21
17929.341305999991
 31
0.0
  0
LINE
  5
377A
  8
2-0
  6
CONTINUOUS
 62
     3
 10
23239.082004
 20
17209.432192
 30
0.0
 11
23239.082004
 21
17229.433247000001
 31
0.0
  0
LINE
  5
377B
  8
2-0
  6
CONTINUOUS
 62
     3
 10
23239.082004
 20
17229.433247000001
 30
0.0
 11
23154.085434999979
 21
17229.433247000001
 31
0.0
  0
LINE
  5
377C
  8
2-0
  6
CONTINUOUS
 62
     3
 10
23229.966321
 20
17256.039957000012
 30
0.0
 11
23236.967877999989
 21
17256.039957000012
 31
0.0
  0
LINE
  5
377D
  8
2-0
  6
CONTINUOUS
 62
     3
 10
23236.967877999989
 20
17256.039957000012
 30
0.0
 11
23236.967877999989
 21
17251.045631000012
 31
0.0
  0
LINE
  5
377E
  8
2-0
  6
CONTINUOUS
 62
     3
 10
23236.967877999989
 20
17251.045631000012
 30
0.0
 11
23211.970517999991
 21
17251.045631000012
 31
0.0
  0
LINE
  5
377F
  8
2-0
  6
CONTINUOUS
 62
     3
 10
23211.970517999991
 20
17251.045631000012
 30
0.0
 11
23211.970517999991
 21
17269.041434999999
 31
0.0
  0
LINE
  5
3780
  8
2-0
  6
CONTINUOUS
 62
     3
 10
23211.970517999991
 20
17269.041434999999
 30
0.0
 11
23241.96814199998
 21
17269.041434999999
 31
0.0
  0
LINE
  5
3781
  8
2-0
  6
CONTINUOUS
 62
     3
 10
23211.970517999991
 20
17259.432851000001
 30
0.0
 11
23211.970517999991
 21
17253.430950999991
 31
0.0
  0
LINE
  5
3782
  8
2-0
  6
CONTINUOUS
 62
     3
 10
23241.96814199998
 20
17259.432851000001
 30
0.0
 11
23211.970517999991
 21
17259.432851000001
 31
0.0
  0
LINE
  5
3783
  8
2-0
  6
CONTINUOUS
 62
     3
 10
23241.96814199998
 20
17269.041434999999
 30
0.0
 11
23241.96814199998
 21
17916.345765999991
 31
0.0
  0
LINE
  5
3784
  8
2-0
  6
CONTINUOUS
 62
     3
 10
23241.96814199998
 20
17973.536037000002
 30
0.0
 11
23241.96814199998
 21
18617.339827
 31
0.0
  0
LINE
  5
3785
  8
2-0
  6
CONTINUOUS
 62
     3
 10
23241.96814199998
 20
17114.43113600001
 30
0.0
 11
23211.970517999991
 21
17114.43113600001
 31
0.0
  0
LINE
  5
3786
  8
2-0
  6
CONTINUOUS
 62
     3
 10
23211.970517999991
 20
17114.43113600001
 30
0.0
 11
23211.970517999991
 21
17120.433035999991
 31
0.0
  0
LINE
  5
3787
  8
2-0
  6
CONTINUOUS
 62
     3
 10
23154.085434999979
 20
17144.436678999991
 30
0.0
 11
23239.082004
 21
17144.436678999991
 31
0.0
  0
LINE
  5
3788
  8
2-0
  6
CONTINUOUS
 62
     3
 10
23239.082004
 20
17144.436678999991
 30
0.0
 11
23239.082004
 21
17164.431796000012
 31
0.0
  0
LINE
  5
3789
  8
2-0
  6
CONTINUOUS
 62
     3
 10
23211.970517999991
 20
17104.822553000002
 30
0.0
 11
23241.96814199998
 21
17104.822553000002
 31
0.0
  0
LINE
  5
378A
  8
2-0
  6
CONTINUOUS
 62
     3
 10
23211.970517999991
 20
17122.818355999982
 30
0.0
 11
23211.970517999991
 21
17104.822553000002
 31
0.0
  0
LINE
  5
378B
  8
2-0
  6
CONTINUOUS
 62
     3
 10
23236.967877999989
 20
17122.818355999982
 30
0.0
 11
23211.970517999991
 21
17122.818355999982
 31
0.0
  0
LINE
  5
378C
  8
2-0
  6
CONTINUOUS
 62
     3
 10
23236.967877999989
 20
17117.818092000009
 30
0.0
 11
23236.967877999989
 21
17122.818355999982
 31
0.0
  0
LINE
  5
378D
  8
2-0
  6
CONTINUOUS
 62
     3
 10
23229.966321
 20
17117.818092000009
 30
0.0
 11
23236.967877999989
 21
17117.818092000009
 31
0.0
  0
LINE
  5
378E
  8
2-0
  6
CONTINUOUS
 62
     3
 10
23229.966321
 20
16413.335861499982
 30
0.0
 11
23236.967877999989
 21
16413.335861499982
 31
0.0
  0
LINE
  5
378F
  8
2-0
  6
CONTINUOUS
 62
     3
 10
23236.967877999989
 20
16413.335861499982
 30
0.0
 11
23236.967877999989
 21
16418.336125499991
 31
0.0
  0
LINE
  5
3790
  8
2-0
  6
CONTINUOUS
 62
     3
 10
23236.967877999989
 20
16418.336125499991
 30
0.0
 11
23211.970517999991
 21
16418.336125499991
 31
0.0
  0
LINE
  5
3791
  8
2-0
  6
CONTINUOUS
 62
     3
 10
23211.970517999991
 20
16418.336125499991
 30
0.0
 11
23211.970517999991
 21
16400.334383500001
 31
0.0
  0
LINE
  5
3792
  8
2-0
  6
CONTINUOUS
 62
     3
 10
23211.970517999991
 20
16400.334383500001
 30
0.0
 11
23241.96814199998
 21
16400.334383500001
 31
0.0
  0
LINE
  5
3793
  8
2-0
  6
CONTINUOUS
 62
     3
 10
23211.970517999991
 20
16416.431828500001
 30
0.0
 11
23211.970517999991
 21
16410.4348775
 31
0.0
  0
LINE
  5
3794
  8
2-0
  6
CONTINUOUS
 62
     3
 10
23211.970517999991
 20
16410.4348775
 30
0.0
 11
23241.96814199998
 21
16410.4348775
 31
0.0
  0
LINE
  5
3795
  8
2-0
  6
CONTINUOUS
 62
     3
 10
23241.96814199998
 20
16410.4348775
 30
0.0
 11
23241.96814199998
 21
16447.4350485
 31
0.0
  0
LINE
  5
3796
  8
2-0
  6
CONTINUOUS
 62
     3
 10
23211.970517999991
 20
16447.4350485
 30
0.0
 11
23241.96814199998
 21
16447.4350485
 31
0.0
  0
LINE
  5
3797
  8
2-0
  6
CONTINUOUS
 62
     3
 10
23211.970517999991
 20
16441.432158499989
 30
0.0
 11
23211.970517999991
 21
16447.4350485
 31
0.0
  0
LINE
  5
3798
  8
2-0
  6
CONTINUOUS
 62
     3
 10
23211.970517999991
 20
16457.5305935
 30
0.0
 11
23241.96814199998
 21
16457.5305935
 31
0.0
  0
LINE
  5
3799
  8
2-0
  6
CONTINUOUS
 62
     3
 10
23211.970517999991
 20
16439.522912500001
 30
0.0
 11
23211.970517999991
 21
16457.5305935
 31
0.0
  0
LINE
  5
379A
  8
2-0
  6
CONTINUOUS
 62
     3
 10
23236.967877999989
 20
16439.522912500001
 30
0.0
 11
23211.970517999991
 21
16439.522912500001
 31
0.0
  0
LINE
  5
379B
  8
2-0
  6
CONTINUOUS
 62
     3
 10
23236.967877999989
 20
16444.529115500001
 30
0.0
 11
23236.967877999989
 21
16439.522912500001
 31
0.0
  0
LINE
  5
379C
  8
2-0
  6
CONTINUOUS
 62
     3
 10
23229.966321
 20
16444.529115500001
 30
0.0
 11
23236.967877999989
 21
16444.529115500001
 31
0.0
  0
LINE
  5
379D
  8
2-0
  6
CONTINUOUS
 62
     3
 10
23229.966321
 20
15743.76913200001
 30
0.0
 11
23236.967877999989
 21
15743.76913200001
 31
0.0
  0
LINE
  5
379E
  8
2-0
  6
CONTINUOUS
 62
     3
 10
23236.967877999989
 20
15743.76913200001
 30
0.0
 11
23236.967877999989
 21
15738.774807000011
 31
0.0
  0
LINE
  5
379F
  8
2-0
  6
CONTINUOUS
 62
     3
 10
23236.967877999989
 20
15738.774807000011
 30
0.0
 11
23211.970517999991
 21
15738.774807000011
 31
0.0
  0
LINE
  5
37A0
  8
2-0
  6
CONTINUOUS
 62
     3
 10
23211.970517999991
 20
15738.774807000011
 30
0.0
 11
23211.970517999991
 21
15756.77061000001
 31
0.0
  0
LINE
  5
37A1
  8
2-0
  6
CONTINUOUS
 62
     3
 10
23211.970517999991
 20
15756.77061000001
 30
0.0
 11
23241.96814199998
 21
15756.77061000001
 31
0.0
  0
LINE
  5
37A2
  8
2-0
  6
CONTINUOUS
 62
     3
 10
23211.970517999991
 20
15740.673165
 30
0.0
 11
23211.970517999991
 21
15746.67506500001
 31
0.0
  0
LINE
  5
37A3
  8
2-0
  6
CONTINUOUS
 62
     3
 10
23211.970517999991
 20
15746.67506500001
 30
0.0
 11
23241.96814199998
 21
15746.67506500001
 31
0.0
  0
LINE
  5
37A4
  8
2-0
  6
CONTINUOUS
 62
     3
 10
23241.96814199998
 20
15709.67588400002
 30
0.0
 11
23241.96814199998
 21
15746.67506500001
 31
0.0
  0
LINE
  5
37A5
  8
2-0
  6
CONTINUOUS
 62
     3
 10
23211.970517999991
 20
15709.67588400002
 30
0.0
 11
23241.96814199998
 21
15709.67588400002
 31
0.0
  0
LINE
  5
37A6
  8
2-0
  6
CONTINUOUS
 62
     3
 10
23211.970517999991
 20
15715.67283500001
 30
0.0
 11
23211.970517999991
 21
15709.67588400002
 31
0.0
  0
LINE
  5
37A7
  8
2-0
  6
CONTINUOUS
 62
     3
 10
23211.970517999991
 20
15699.57440000001
 30
0.0
 11
23241.96814199998
 21
15699.57440000001
 31
0.0
  0
LINE
  5
37A8
  8
2-0
  6
CONTINUOUS
 62
     3
 10
23211.970517999991
 20
15717.582081
 30
0.0
 11
23211.970517999991
 21
15699.57440000001
 31
0.0
  0
LINE
  5
37A9
  8
2-0
  6
CONTINUOUS
 62
     3
 10
23236.967877999989
 20
15717.582081
 30
0.0
 11
23211.970517999991
 21
15717.582081
 31
0.0
  0
LINE
  5
37AA
  8
2-0
  6
CONTINUOUS
 62
     3
 10
23236.967877999989
 20
15712.58181700002
 30
0.0
 11
23236.967877999989
 21
15717.582081
 31
0.0
  0
LINE
  5
37AB
  8
2-0
  6
CONTINUOUS
 62
     3
 10
23229.966321
 20
15712.58181700002
 30
0.0
 11
23236.967877999989
 21
15712.58181700002
 31
0.0
  0
LINE
  5
37AC
  8
2-0
  6
CONTINUOUS
 62
     3
 10
23241.96814199998
 20
17104.822553000002
 30
0.0
 11
23241.96814199998
 21
16457.5305935
 31
0.0
  0
LINE
  5
37AD
  8
2-0
  6
CONTINUOUS
 62
     3
 10
23241.96814199998
 20
17259.432851000001
 30
0.0
 11
23241.96814199998
 21
17114.43113600001
 31
0.0
  0
LINE
  5
37AE
  8
2-0
  6
CONTINUOUS
 62
     3
 10
23154.085434999979
 20
17229.433247000001
 30
0.0
 11
23154.085434999979
 21
17144.436678999991
 31
0.0
  0
LINE
  5
37AF
  8
2-0
  6
CONTINUOUS
 62
     6
 10
21615.876767999991
 20
18997.880512499982
 30
0.0
 11
22640.90909999999
 21
18997.880512499982
 31
0.0
  0
LINE
  5
37B0
  8
2-0
  6
CONTINUOUS
 62
     3
 10
23229.966321
 20
15011.34081
 30
0.0
 11
23236.967877999989
 21
15011.34081
 31
0.0
  0
LINE
  5
37B1
  8
2-0
  6
CONTINUOUS
 62
     3
 10
23236.967877999989
 20
15011.34081
 30
0.0
 11
23236.967877999989
 21
15016.335136000011
 31
0.0
  0
LINE
  5
37B2
  8
2-0
  6
CONTINUOUS
 62
     3
 10
23236.967877999989
 20
15016.335136000011
 30
0.0
 11
23211.970517999991
 21
15016.335136000011
 31
0.0
  0
LINE
  5
37B3
  8
2-0
  6
CONTINUOUS
 62
     3
 10
23211.970517999991
 20
15016.335136000011
 30
0.0
 11
23211.970517999991
 21
14998.339332
 31
0.0
  0
LINE
  5
37B4
  8
2-0
  6
CONTINUOUS
 62
     3
 10
23211.970517999991
 20
14998.339332
 30
0.0
 11
23241.96814199998
 21
14998.339332
 31
0.0
  0
LINE
  5
37B5
  8
2-0
  6
CONTINUOUS
 62
     3
 10
23211.970517999991
 20
15014.43776700001
 30
0.0
 11
23211.970517999991
 21
15008.434877000011
 31
0.0
  0
LINE
  5
37B6
  8
2-0
  6
CONTINUOUS
 62
     3
 10
23211.970517999991
 20
15008.434877000011
 30
0.0
 11
23241.96814199998
 21
15008.434877000011
 31
0.0
  0
LINE
  5
37B7
  8
2-0
  6
CONTINUOUS
 62
     3
 10
23241.96814199998
 20
15008.434877000011
 30
0.0
 11
23241.96814199998
 21
15045.435048999991
 31
0.0
  0
LINE
  5
37B8
  8
2-0
  6
CONTINUOUS
 62
     3
 10
23211.970517999991
 20
15045.435048999991
 30
0.0
 11
23241.96814199998
 21
15045.435048999991
 31
0.0
  0
LINE
  5
37B9
  8
2-0
  6
CONTINUOUS
 62
     3
 10
23211.970517999991
 20
15039.438097
 30
0.0
 11
23211.970517999991
 21
15045.435048999991
 31
0.0
  0
LINE
  5
37BA
  8
2-0
  6
CONTINUOUS
 62
     3
 10
23211.970517999991
 20
15055.535542000011
 30
0.0
 11
23241.96814199998
 21
15055.535542000011
 31
0.0
  0
LINE
  5
37BB
  8
2-0
  6
CONTINUOUS
 62
     3
 10
23211.970517999991
 20
15037.52885100001
 30
0.0
 11
23211.970517999991
 21
15055.535542000011
 31
0.0
  0
LINE
  5
37BC
  8
2-0
  6
CONTINUOUS
 62
     3
 10
23236.967877999989
 20
15037.52885100001
 30
0.0
 11
23211.970517999991
 21
15037.52885100001
 31
0.0
  0
LINE
  5
37BD
  8
2-0
  6
CONTINUOUS
 62
     3
 10
23236.967877999989
 20
15042.53406400001
 30
0.0
 11
23236.967877999989
 21
15037.52885100001
 31
0.0
  0
LINE
  5
37BE
  8
2-0
  6
CONTINUOUS
 62
     3
 10
23229.966321
 20
15042.53406400001
 30
0.0
 11
23236.967877999989
 21
15042.53406400001
 31
0.0
  0
LINE
  5
37BF
  8
2-0
  6
CONTINUOUS
 62
     3
 10
23211.970517999991
 20
14335.436890000001
 30
0.0
 11
23211.970517999991
 21
14341.441758999999
 31
0.0
  0
LINE
  5
37C0
  8
2-0
  6
CONTINUOUS
 62
     3
 10
23211.970517999991
 20
14341.441758999999
 30
0.0
 11
23241.96814199998
 21
14341.441758999999
 31
0.0
  0
LINE
  5
37C1
  8
2-0
  6
CONTINUOUS
 62
     3
 10
23241.96814199998
 20
14341.441758999999
 30
0.0
 11
23241.96814199998
 21
14226.437668
 31
0.0
  0
LINE
  5
37C2
  8
2-0
  6
CONTINUOUS
 62
     3
 10
23241.96814199998
 20
14226.437668
 30
0.0
 11
23156.969593999991
 21
14226.437668
 31
0.0
  0
LINE
  5
37C3
  8
2-0
  6
CONTINUOUS
 62
     3
 10
23156.969593999991
 20
14226.437668
 30
0.0
 11
23156.969593999991
 21
14311.433247000001
 31
0.0
  0
LINE
  5
37C4
  8
2-0
  6
CONTINUOUS
 62
     3
 10
23156.969593999991
 20
14311.433247000001
 30
0.0
 11
23188.968511999981
 21
14311.433247000001
 31
0.0
  0
LINE
  5
37C5
  8
2-0
  6
CONTINUOUS
 62
     3
 10
23229.966321
 20
14338.471492000001
 30
0.0
 11
23236.967877999989
 21
14338.471492000001
 31
0.0
  0
LINE
  5
37C6
  8
2-0
  6
CONTINUOUS
 62
     3
 10
23236.967877999989
 20
14338.471492000001
 30
0.0
 11
23236.967877999989
 21
14333.47419699998
 31
0.0
  0
LINE
  5
37C7
  8
2-0
  6
CONTINUOUS
 62
     3
 10
23236.967877999989
 20
14333.47419699998
 30
0.0
 11
23211.970517999991
 21
14333.47419699998
 31
0.0
  0
LINE
  5
37C8
  8
2-0
  6
CONTINUOUS
 62
     3
 10
23211.970517999991
 20
14333.47419699998
 30
0.0
 11
23211.970517999991
 21
14351.472970000001
 31
0.0
  0
LINE
  5
37C9
  8
2-0
  6
CONTINUOUS
 62
     3
 10
23211.970517999991
 20
14351.472970000001
 30
0.0
 11
23241.96814199998
 21
14351.472970000001
 31
0.0
  0
LINE
  5
37CA
  8
2-0
  6
CENTER2
 62
     6
 10
23199.469858
 20
14028.94010999999
 30
0.0
 11
23199.469858
 21
15184.80886800002
 31
0.0
  0
LINE
  5
37CB
  8
2-0
  6
CONTINUOUS
 62
     3
 10
23241.96814199998
 20
18674.530099
 30
0.0
 11
23241.96814199998
 21
19318.3408165
 31
0.0
  0
LINE
  5
37CC
  8
2-0
  6
CONTINUOUS
 62
     6
 10
23934.473024999981
 20
20526.936151000031
 30
0.0
 11
25134.467086999961
 21
20526.936151000031
 31
0.0
  0
LINE
  5
37CD
  8
2-0
  6
CONTINUOUS
 62
     6
 10
23072.44019199998
 20
19240.0350205
 30
0.0
 11
22640.90909999999
 21
18997.880512499982
 31
0.0
  0
LINE
  5
37CE
  8
2-0
  6
CONTINUOUS
 62
     6
 10
23394.00902599996
 20
19939.612988000001
 30
0.0
 11
23934.473024999981
 21
20526.936151000031
 31
0.0
  0
LINE
  5
37CF
  8
2-0
  6
CONTINUOUS
 62
     3
 10
23150.963735000001
 20
18603.43370899999
 30
0.0
 11
23197.969382999971
 21
18603.43370899999
 31
0.0
  0
LINE
  5
37D0
  8
2-0
  6
CONTINUOUS
 62
     3
 10
23197.969382999971
 20
18688.434237000001
 30
0.0
 11
23150.963735000001
 21
18688.434237000001
 31
0.0
  0
LINE
  5
37D1
  8
2-0
  6
CONTINUOUS
 62
     3
 10
23197.969382999971
 20
18603.43370899999
 30
0.0
 11
23197.969382999971
 21
18628.437008000001
 31
0.0
  0
LINE
  5
37D2
  8
2-0
  6
CONTINUOUS
 62
     3
 10
23197.969382999971
 20
18663.432916999991
 30
0.0
 11
23197.969382999971
 21
18688.434237000001
 31
0.0
  0
LINE
  5
37D3
  8
2-0
  6
CONTINUOUS
 62
     3
 10
23150.963735000001
 20
18688.434237000001
 30
0.0
 11
23150.963735000001
 21
18603.43370899999
 31
0.0
  0
LINE
  5
37D4
  8
2-0
  6
CONTINUOUS
 62
     3
 10
23241.96814199998
 20
16400.334383500001
 30
0.0
 11
23241.96814199998
 21
15756.77061000001
 31
0.0
  0
LINE
  5
37D5
  8
2-0
  6
CONTINUOUS
 62
     3
 10
23150.963735000001
 20
15685.436679
 30
0.0
 11
23197.969382999971
 21
15685.436679
 31
0.0
  0
LINE
  5
37D6
  8
2-0
  6
CONTINUOUS
 62
     3
 10
23197.969382999971
 20
15770.43324699999
 30
0.0
 11
23150.963735000001
 21
15770.43324699999
 31
0.0
  0
LINE
  5
37D7
  8
2-0
  6
CONTINUOUS
 62
     3
 10
23197.969382999971
 20
15685.436679
 30
0.0
 11
23197.969382999971
 21
15710.43206000001
 31
0.0
  0
LINE
  5
37D8
  8
2-0
  6
CONTINUOUS
 62
     3
 10
23197.969382999971
 20
15745.431928000011
 30
0.0
 11
23197.969382999971
 21
15770.43324699999
 31
0.0
  0
LINE
  5
37D9
  8
2-0
  6
CONTINUOUS
 62
     3
 10
23150.963735000001
 20
15770.43324699999
 30
0.0
 11
23150.963735000001
 21
15685.436679
 31
0.0
  0
LINE
  5
37DA
  8
2-0
  6
CONTINUOUS
 62
     6
 10
23059.38328699999
 20
19263.294364500001
 30
0.0
 11
23211.970517999991
 21
19318.3408165
 31
0.0
  0
LINE
  5
37DB
  8
2-0
  6
CONTINUOUS
 62
     6
 10
23211.970517999991
 20
19318.3408165
 30
0.0
 11
23085.489177999989
 21
19216.781616499979
 31
0.0
  0
LINE
  5
37DC
  8
2-0
  6
CONTINUOUS
 62
     6
 10
23059.38328699999
 20
19263.294364500001
 30
0.0
 11
23085.489177999989
 21
19216.781616499979
 31
0.0
  0
LINE
  5
37DD
  8
2-0
  6
CONTINUOUS
 62
     6
 10
23085.489177999989
 20
19216.781616499979
 30
0.0
 11
23211.970517999991
 21
19318.3408165
 31
0.0
  0
LINE
  5
37DE
  8
2-0
  6
CONTINUOUS
 62
     6
 10
23211.970517999991
 20
19318.3408165
 30
0.0
 11
23059.38328699999
 21
19263.294364500001
 31
0.0
  0
LINE
  5
37DF
  8
2-0
  6
CONTINUOUS
 62
     6
 10
23059.38328699999
 20
19263.294364500001
 30
0.0
 11
23211.970517999991
 21
19318.3408165
 31
0.0
  0
LINE
  5
37E0
  8
2-0
  6
CONTINUOUS
 62
     6
 10
23085.489177999989
 20
19216.781616499979
 30
0.0
 11
23211.970517999991
 21
19318.3408165
 31
0.0
  0
LINE
  5
37E1
  8
2-0
  6
CONTINUOUS
 62
     6
 10
23085.489177999989
 20
19216.781616499979
 30
0.0
 11
23059.38328699999
 21
19263.294364500001
 31
0.0
  0
LINE
  5
37E2
  8
2-0
  6
CONTINUOUS
 62
     6
 10
23413.62605499999
 20
19921.551861000022
 30
0.0
 11
23285.664034999991
 21
19821.869243000001
 31
0.0
  0
LINE
  5
37E3
  8
2-0
  6
CONTINUOUS
 62
     6
 10
23285.664034999991
 20
19821.869243000001
 30
0.0
 11
23374.378139999979
 21
19957.666198000021
 31
0.0
  0
LINE
  5
37E4
  8
2-0
  6
CONTINUOUS
 62
     6
 10
23413.62605499999
 20
19921.551861000022
 30
0.0
 11
23374.378139999979
 21
19957.666198000021
 31
0.0
  0
LINE
  5
37E5
  8
2-0
  6
CONTINUOUS
 62
     6
 10
23374.378139999979
 20
19957.666198000021
 30
0.0
 11
23285.664034999991
 21
19821.869243000001
 31
0.0
  0
LINE
  5
37E6
  8
2-0
  6
CONTINUOUS
 62
     6
 10
23285.664034999991
 20
19821.869243000001
 30
0.0
 11
23413.62605499999
 21
19921.551861000022
 31
0.0
  0
LINE
  5
37E7
  8
2-0
  6
CONTINUOUS
 62
     6
 10
23413.62605499999
 20
19921.551861000022
 30
0.0
 11
23285.664034999991
 21
19821.869243000001
 31
0.0
  0
LINE
  5
37E8
  8
2-0
  6
CONTINUOUS
 62
     6
 10
23374.378139999979
 20
19957.666198000021
 30
0.0
 11
23285.664034999991
 21
19821.869243000001
 31
0.0
  0
LINE
  5
37E9
  8
2-0
  6
CONTINUOUS
 62
     6
 10
23374.378139999979
 20
19957.666198000021
 30
0.0
 11
23413.62605499999
 21
19921.551861000022
 31
0.0
  0
LINE
  5
37EA
  8
2-0
  6
CONTINUOUS
 62
     4
 10
20631.969858
 20
19876.935491000011
 30
0.0
 11
20631.969858
 21
20606.932455999999
 31
0.0
  0
LINE
  5
37EB
  8
2-0
  6
CONTINUOUS
 62
     6
 10
22995.64476799998
 20
15638.929869000011
 30
0.0
 11
23150.963735000001
 21
15685.67719000002
 31
0.0
  0
LINE
  5
37EC
  8
2-0
  6
CONTINUOUS
 62
     6
 10
23150.963735000001
 20
15685.67719000002
 30
0.0
 11
23019.20301899996
 21
15591.08490500002
 31
0.0
  0
LINE
  5
37ED
  8
2-0
  6
CONTINUOUS
 62
     6
 10
22995.64476799998
 20
15638.929869000011
 30
0.0
 11
23019.20301899996
 21
15591.08490500002
 31
0.0
  0
LINE
  5
37EE
  8
2-0
  6
CONTINUOUS
 62
     6
 10
23019.20301899996
 20
15591.08490500002
 30
0.0
 11
23150.963735000001
 21
15685.67719000002
 31
0.0
  0
LINE
  5
37EF
  8
2-0
  6
CONTINUOUS
 62
     6
 10
23150.963735000001
 20
15685.67719000002
 30
0.0
 11
22995.64476799998
 21
15638.929869000011
 31
0.0
  0
LINE
  5
37F0
  8
2-0
  6
CONTINUOUS
 62
     6
 10
22995.64476799998
 20
15638.929869000011
 30
0.0
 11
23150.963735000001
 21
15685.67719000002
 31
0.0
  0
LINE
  5
37F1
  8
2-0
  6
CONTINUOUS
 62
     6
 10
23019.20301899996
 20
15591.08490500002
 30
0.0
 11
23150.963735000001
 21
15685.67719000002
 31
0.0
  0
LINE
  5
37F2
  8
2-0
  6
CONTINUOUS
 62
     6
 10
23019.20301899996
 20
15591.08490500002
 30
0.0
 11
22995.64476799998
 21
15638.929869000011
 31
0.0
  0
LINE
  5
37F3
  8
2-0
  6
CONTINUOUS
 62
     6
 10
22965.330420999991
 20
14118.16492999999
 30
0.0
 11
23097.077280000001
 21
14212.791857
 31
0.0
  0
LINE
  5
37F4
  8
2-0
  6
CONTINUOUS
 62
     6
 10
23097.077280000001
 20
14212.791857
 30
0.0
 11
23003.147143999991
 21
14080.55308699998
 31
0.0
  0
LINE
  5
37F5
  8
2-0
  6
CONTINUOUS
 62
     6
 10
22965.330420999991
 20
14118.16492999999
 30
0.0
 11
23003.147143999991
 21
14080.55308699998
 31
0.0
  0
LINE
  5
37F6
  8
2-0
  6
CONTINUOUS
 62
     6
 10
23003.147143999991
 20
14080.55308699998
 30
0.0
 11
23097.077280000001
 21
14212.791857
 31
0.0
  0
LINE
  5
37F7
  8
2-0
  6
CONTINUOUS
 62
     6
 10
23097.077280000001
 20
14212.791857
 30
0.0
 11
22965.330420999991
 21
14118.16492999999
 31
0.0
  0
LINE
  5
37F8
  8
2-0
  6
CONTINUOUS
 62
     6
 10
22965.330420999991
 20
14118.16492999999
 30
0.0
 11
23097.077280000001
 21
14212.791857
 31
0.0
  0
LINE
  5
37F9
  8
2-0
  6
CONTINUOUS
 62
     6
 10
23003.147143999991
 20
14080.55308699998
 30
0.0
 11
23097.077280000001
 21
14212.791857
 31
0.0
  0
LINE
  5
37FA
  8
2-0
  6
CONTINUOUS
 62
     6
 10
23003.147143999991
 20
14080.55308699998
 30
0.0
 11
22965.330420999991
 21
14118.16492999999
 31
0.0
  0
LINE
  5
37FB
  8
2-0
  6
CONTINUOUS
 62
     6
 10
23028.366209999989
 20
14445.069556999981
 30
0.0
 11
23160.96624199998
 21
14351.641228999981
 31
0.0
  0
LINE
  5
37FC
  8
2-0
  6
CONTINUOUS
 62
     6
 10
23160.96624199998
 20
14351.641228999981
 30
0.0
 11
23005.233555999988
 21
14397.016743
 31
0.0
  0
LINE
  5
37FD
  8
2-0
  6
CONTINUOUS
 62
     6
 10
23028.366209999989
 20
14445.069556999981
 30
0.0
 11
23005.233555999988
 21
14397.016743
 31
0.0
  0
LINE
  5
37FE
  8
2-0
  6
CONTINUOUS
 62
     6
 10
23005.233555999988
 20
14397.016743
 30
0.0
 11
23160.96624199998
 21
14351.641228999981
 31
0.0
  0
LINE
  5
37FF
  8
2-0
  6
CONTINUOUS
 62
     6
 10
23160.96624199998
 20
14351.641228999981
 30
0.0
 11
23028.366209999989
 21
14445.069556999981
 31
0.0
  0
LINE
  5
3800
  8
2-0
  6
CONTINUOUS
 62
     6
 10
23028.366209999989
 20
14445.069556999981
 30
0.0
 11
23160.96624199998
 21
14351.641228999981
 31
0.0
  0
LINE
  5
3801
  8
2-0
  6
CONTINUOUS
 62
     6
 10
23005.233555999988
 20
14397.016743
 30
0.0
 11
23160.96624199998
 21
14351.641228999981
 31
0.0
  0
LINE
  5
3802
  8
2-0
  6
CONTINUOUS
 62
     6
 10
23005.233555999988
 20
14397.016743
 30
0.0
 11
23028.366209999989
 21
14445.069556999981
 31
0.0
  0
LINE
  5
3803
  8
2-0
  6
CONTINUOUS
 62
     6
 10
23088.129855999989
 20
16824.890490000009
 30
0.0
 11
23241.96814199998
 21
16876.324321000011
 31
0.0
  0
LINE
  5
3804
  8
2-0
  6
CONTINUOUS
 62
     6
 10
23241.96814199998
 20
16876.324321000011
 30
0.0
 11
23113.13315499996
 21
16777.783886000008
 31
0.0
  0
LINE
  5
3805
  8
2-0
  6
CONTINUOUS
 62
     6
 10
23088.129855999989
 20
16824.890490000009
 30
0.0
 11
23113.13315499996
 21
16777.783886000008
 31
0.0
  0
LINE
  5
3806
  8
2-0
  6
CONTINUOUS
 62
     6
 10
23113.13315499996
 20
16777.783886000008
 30
0.0
 11
23241.96814199998
 21
16876.324321000011
 31
0.0
  0
LINE
  5
3807
  8
2-0
  6
CONTINUOUS
 62
     6
 10
23241.96814199998
 20
16876.324321000011
 30
0.0
 11
23088.129855999989
 21
16824.890490000009
 31
0.0
  0
LINE
  5
3808
  8
2-0
  6
CONTINUOUS
 62
     6
 10
23088.129855999989
 20
16824.890490000009
 30
0.0
 11
23241.96814199998
 21
16876.324321000011
 31
0.0
  0
LINE
  5
3809
  8
2-0
  6
CONTINUOUS
 62
     6
 10
23113.13315499996
 20
16777.783886000008
 30
0.0
 11
23241.96814199998
 21
16876.324321000011
 31
0.0
  0
LINE
  5
380A
  8
2-0
  6
CONTINUOUS
 62
     6
 10
23113.13315499996
 20
16777.783886000008
 30
0.0
 11
23088.129855999989
 21
16824.890490000009
 31
0.0
  0
LINE
  5
380B
  8
2-0
  6
CONTINUOUS
 62
     6
 10
22954.193648999979
 20
17316.208982000011
 30
0.0
 11
23097.077280000001
 21
17239.433353000011
 31
0.0
  0
LINE
  5
380C
  8
2-0
  6
CONTINUOUS
 62
     6
 10
23097.077280000001
 20
17239.433353000011
 30
0.0
 11
22937.015386999981
 21
17265.715422000019
 31
0.0
  0
LINE
  5
380D
  8
2-0
  6
CONTINUOUS
 62
     6
 10
22954.193648999979
 20
17316.208982000011
 30
0.0
 11
22937.015386999981
 21
17265.715422000019
 31
0.0
  0
LINE
  5
380E
  8
2-0
  6
CONTINUOUS
 62
     6
 10
22937.015386999981
 20
17265.715422000019
 30
0.0
 11
23097.077280000001
 21
17239.433353000011
 31
0.0
  0
LINE
  5
380F
  8
2-0
  6
CONTINUOUS
 62
     6
 10
23097.077280000001
 20
17239.433353000011
 30
0.0
 11
22954.193648999979
 21
17316.208982000011
 31
0.0
  0
LINE
  5
3810
  8
2-0
  6
CONTINUOUS
 62
     6
 10
22954.193648999979
 20
17316.208982000011
 30
0.0
 11
23097.077280000001
 21
17239.433353000011
 31
0.0
  0
LINE
  5
3811
  8
2-0
  6
CONTINUOUS
 62
     6
 10
22937.015386999981
 20
17265.715422000019
 30
0.0
 11
23097.077280000001
 21
17239.433353000011
 31
0.0
  0
LINE
  5
3812
  8
2-0
  6
CONTINUOUS
 62
     6
 10
22937.015386999981
 20
17265.715422000019
 30
0.0
 11
22954.193648999979
 21
17316.208982000011
 31
0.0
  0
LINE
  5
3813
  8
2-0
  6
CONTINUOUS
 62
     6
 10
22995.64476799998
 20
18556.689356999988
 30
0.0
 11
23150.963735000001
 21
18603.43370899999
 31
0.0
  0
LINE
  5
3814
  8
2-0
  6
CONTINUOUS
 62
     6
 10
23150.963735000001
 20
18603.43370899999
 30
0.0
 11
23019.20301899996
 21
18508.838455000008
 31
0.0
  0
LINE
  5
3815
  8
2-0
  6
CONTINUOUS
 62
     6
 10
22995.64476799998
 20
18556.689356999988
 30
0.0
 11
23019.20301899996
 21
18508.838455000008
 31
0.0
  0
LINE
  5
3816
  8
2-0
  6
CONTINUOUS
 62
     6
 10
23019.20301899996
 20
18508.838455000008
 30
0.0
 11
23150.963735000001
 21
18603.43370899999
 31
0.0
  0
LINE
  5
3817
  8
2-0
  6
CONTINUOUS
 62
     6
 10
23150.963735000001
 20
18603.43370899999
 30
0.0
 11
22995.64476799998
 21
18556.689356999988
 31
0.0
  0
LINE
  5
3818
  8
2-0
  6
CONTINUOUS
 62
     6
 10
22995.64476799998
 20
18556.689356999988
 30
0.0
 11
23150.963735000001
 21
18603.43370899999
 31
0.0
  0
LINE
  5
3819
  8
2-0
  6
CONTINUOUS
 62
     6
 10
23019.20301899996
 20
18508.838455000008
 30
0.0
 11
23150.963735000001
 21
18603.43370899999
 31
0.0
  0
LINE
  5
381A
  8
2-0
  6
CONTINUOUS
 62
     6
 10
23019.20301899996
 20
18508.838455000008
 30
0.0
 11
22995.64476799998
 21
18556.689356999988
 31
0.0
  0
LINE
  5
381B
  8
2-0
  6
CONTINUOUS
 62
     3
 10
20619.471177999989
 20
19687.93303700001
 30
0.0
 11
20619.471177999989
 21
19681.937075000009
 31
0.0
  0
LINE
  5
381C
  8
2-0
  6
CONTINUOUS
 62
     3
 10
20619.471177999989
 20
19681.937075000009
 30
0.0
 11
20589.473552999989
 21
19681.937075000009
 31
0.0
  0
LINE
  5
381D
  8
2-0
  6
CONTINUOUS
 62
     3
 10
20589.473552999989
 20
19681.937075000009
 30
0.0
 11
20589.473552999989
 21
19796.933248000008
 31
0.0
  0
LINE
  5
381E
  8
2-0
  6
CONTINUOUS
 62
     3
 10
20589.473552999989
 20
19711.936678999991
 30
0.0
 11
20670.471494000001
 21
19711.936678999991
 31
0.0
  0
LINE
  5
381F
  8
2-0
  6
CONTINUOUS
 62
     3
 10
20619.471177999989
 20
19671.639619000001
 30
0.0
 11
20589.473552999989
 21
19671.639619000001
 31
0.0
  0
LINE
  5
3820
  8
2-0
  6
CONTINUOUS
 62
     3
 10
20619.471177999989
 20
19689.64136100002
 30
0.0
 11
20619.471177999989
 21
19671.639619000001
 31
0.0
  0
LINE
  5
3821
  8
2-0
  6
CONTINUOUS
 62
     3
 10
20594.477775999989
 20
19689.64136100002
 30
0.0
 11
20619.471177999989
 21
19689.64136100002
 31
0.0
  0
LINE
  5
3822
  8
2-0
  6
CONTINUOUS
 62
     3
 10
20594.477775999989
 20
19684.633179000011
 30
0.0
 11
20594.477775999989
 21
19689.64136100002
 31
0.0
  0
LINE
  5
3823
  8
2-0
  6
CONTINUOUS
 62
     3
 10
20601.475373999969
 20
19684.633179000011
 30
0.0
 11
20594.477775999989
 21
19684.633179000011
 31
0.0
  0
LINE
  5
3824
  8
2-0
  6
CONTINUOUS
 62
     3
 10
20701.769662999981
 20
19784.933406
 30
0.0
 11
20701.769662999981
 21
19791.938922000008
 31
0.0
  0
LINE
  5
3825
  8
2-0
  6
CONTINUOUS
 62
     3
 10
20701.769662999981
 20
19791.938922000008
 30
0.0
 11
20696.767418999989
 21
19791.938922000008
 31
0.0
  0
LINE
  5
3826
  8
2-0
  6
CONTINUOUS
 62
     3
 10
20696.767418999989
 20
19791.938922000008
 30
0.0
 11
20696.767418999989
 21
19766.92968500001
 31
0.0
  0
LINE
  5
3827
  8
2-0
  6
CONTINUOUS
 62
     3
 10
20696.767418999989
 20
19766.92968500001
 30
0.0
 11
20714.775099999981
 21
19766.92968500001
 31
0.0
  0
LINE
  5
3828
  8
2-0
  6
CONTINUOUS
 62
     3
 10
20714.775099999981
 20
19766.92968500001
 30
0.0
 11
20714.775099999981
 21
19796.933248000008
 31
0.0
  0
LINE
  5
3829
  8
2-0
  6
CONTINUOUS
 62
     3
 10
20704.475664000001
 20
19796.933248000008
 30
0.0
 11
20589.473552999989
 21
19796.933248000008
 31
0.0
  0
LINE
  5
382A
  8
2-0
  6
CONTINUOUS
 62
     3
 10
20704.475664000001
 20
19766.92968500001
 30
0.0
 11
20704.475664000001
 21
19796.933248000008
 31
0.0
  0
LINE
  5
382B
  8
2-0
  6
CONTINUOUS
 62
     3
 10
20698.471784999991
 20
19766.92968500001
 30
0.0
 11
20704.475664000001
 21
19766.92968500001
 31
0.0
  0
LINE
  5
382C
  8
2-0
  6
CONTINUOUS
 62
     3
 10
20619.471177999989
 20
19687.93303700001
 30
0.0
 11
20619.471177999989
 21
19681.937075000009
 31
0.0
  0
LINE
  5
382D
  8
2-0
  6
CONTINUOUS
 62
     3
 10
20619.471177999989
 20
19681.937075000009
 30
0.0
 11
20589.473552999989
 21
19681.937075000009
 31
0.0
  0
LINE
  5
382E
  8
2-0
  6
CONTINUOUS
 62
     3
 10
20589.473552999989
 20
19681.937075000009
 30
0.0
 11
20589.473552999989
 21
19796.933248000008
 31
0.0
  0
LINE
  5
382F
  8
2-0
  6
CONTINUOUS
 62
     3
 10
20589.473552999989
 20
19711.936678999991
 30
0.0
 11
20670.471494000001
 21
19711.936678999991
 31
0.0
  0
LINE
  5
3830
  8
2-0
  6
CONTINUOUS
 62
     3
 10
20619.471177999989
 20
19671.639619000001
 30
0.0
 11
20589.473552999989
 21
19671.639619000001
 31
0.0
  0
LINE
  5
3831
  8
2-0
  6
CONTINUOUS
 62
     3
 10
20619.471177999989
 20
19689.64136100002
 30
0.0
 11
20619.471177999989
 21
19671.639619000001
 31
0.0
  0
LINE
  5
3832
  8
2-0
  6
CONTINUOUS
 62
     3
 10
20594.477775999989
 20
19689.64136100002
 30
0.0
 11
20619.471177999989
 21
19689.64136100002
 31
0.0
  0
LINE
  5
3833
  8
2-0
  6
CONTINUOUS
 62
     3
 10
20594.477775999989
 20
19684.633179000011
 30
0.0
 11
20594.477775999989
 21
19689.64136100002
 31
0.0
  0
LINE
  5
3834
  8
2-0
  6
CONTINUOUS
 62
     3
 10
20601.475373999969
 20
19684.633179000011
 30
0.0
 11
20594.477775999989
 21
19684.633179000011
 31
0.0
  0
LINE
  5
3835
  8
2-0
  6
CONTINUOUS
 62
     3
 10
20601.475373999969
 20
19331.336356499989
 30
0.0
 11
20594.477775999989
 21
19331.336356499989
 31
0.0
  0
LINE
  5
3836
  8
2-0
  6
CONTINUOUS
 62
     3
 10
20594.477775999989
 20
19331.336356499989
 30
0.0
 11
20594.477775999989
 21
19336.336620499991
 31
0.0
  0
LINE
  5
3837
  8
2-0
  6
CONTINUOUS
 62
     3
 10
20594.477775999989
 20
19336.336620499991
 30
0.0
 11
20619.471177999989
 21
19336.336620499991
 31
0.0
  0
LINE
  5
3838
  8
2-0
  6
CONTINUOUS
 62
     3
 10
20619.471177999989
 20
19336.336620499991
 30
0.0
 11
20619.471177999989
 21
19318.340816499989
 31
0.0
  0
LINE
  5
3839
  8
2-0
  6
CONTINUOUS
 62
     3
 10
20619.471177999989
 20
19318.340816499989
 30
0.0
 11
20589.473552999989
 21
19318.340816499989
 31
0.0
  0
LINE
  5
383A
  8
2-0
  6
CONTINUOUS
 62
     3
 10
20619.471177999989
 20
19334.432323499961
 30
0.0
 11
20619.471177999989
 21
19328.434382499989
 31
0.0
  0
LINE
  5
383B
  8
2-0
  6
CONTINUOUS
 62
     3
 10
20619.471177999989
 20
19328.434382499989
 30
0.0
 11
20589.473552999989
 21
19328.434382499989
 31
0.0
  0
LINE
  5
383C
  8
2-0
  6
CONTINUOUS
 62
     3
 10
20589.473552999989
 20
19328.434382499989
 30
0.0
 11
20589.473552999989
 21
19365.4355435
 31
0.0
  0
LINE
  5
383D
  8
2-0
  6
CONTINUOUS
 62
     3
 10
20619.471177999989
 20
19365.4355435
 30
0.0
 11
20589.473552999989
 21
19365.4355435
 31
0.0
  0
LINE
  5
383E
  8
2-0
  6
CONTINUOUS
 62
     3
 10
20619.471177999989
 20
19359.431663499981
 30
0.0
 11
20619.471177999989
 21
19365.4355435
 31
0.0
  0
LINE
  5
383F
  8
2-0
  6
CONTINUOUS
 62
     3
 10
20619.471177999989
 20
19375.531088499982
 30
0.0
 11
20589.473552999989
 21
19375.531088499982
 31
0.0
  0
LINE
  5
3840
  8
2-0
  6
CONTINUOUS
 62
     3
 10
20619.471177999989
 20
19357.529346499989
 30
0.0
 11
20619.471177999989
 21
19375.531088499982
 31
0.0
  0
LINE
  5
3841
  8
2-0
  6
CONTINUOUS
 62
     3
 10
20594.477775999989
 20
19357.529346499989
 30
0.0
 11
20619.471177999989
 21
19357.529346499989
 31
0.0
  0
LINE
  5
3842
  8
2-0
  6
CONTINUOUS
 62
     3
 10
20594.477775999989
 20
19362.529610499991
 30
0.0
 11
20594.477775999989
 21
19357.529346499989
 31
0.0
  0
LINE
  5
3843
  8
2-0
  6
CONTINUOUS
 62
     3
 10
20601.475373999969
 20
19362.529610499991
 30
0.0
 11
20594.477775999989
 21
19362.529610499991
 31
0.0
  0
LINE
  5
3844
  8
2-0
  6
CONTINUOUS
 62
     3
 10
20601.475373999969
 20
18630.335367
 30
0.0
 11
20594.477775999989
 21
18630.335367
 31
0.0
  0
LINE
  5
3845
  8
2-0
  6
CONTINUOUS
 62
     3
 10
20594.477775999989
 20
18630.335367
 30
0.0
 11
20594.477775999989
 21
18635.341568999989
 31
0.0
  0
LINE
  5
3846
  8
2-0
  6
CONTINUOUS
 62
     3
 10
20594.477775999989
 20
18635.341568999989
 30
0.0
 11
20619.471177999989
 21
18635.341568999989
 31
0.0
  0
LINE
  5
3847
  8
2-0
  6
CONTINUOUS
 62
     3
 10
20619.471177999989
 20
18635.341568999989
 30
0.0
 11
20619.471177999989
 21
18617.339827
 31
0.0
  0
LINE
  5
3848
  8
2-0
  6
CONTINUOUS
 62
     3
 10
20619.471177999989
 20
18617.339827
 30
0.0
 11
20589.473552999989
 21
18617.339827
 31
0.0
  0
LINE
  5
3849
  8
2-0
  6
CONTINUOUS
 62
     3
 10
20619.471177999989
 20
18633.43133399999
 30
0.0
 11
20619.471177999989
 21
18627.435371999989
 31
0.0
  0
LINE
  5
384A
  8
2-0
  6
CONTINUOUS
 62
     3
 10
20619.471177999989
 20
18627.435371999989
 30
0.0
 11
20589.473552999989
 21
18627.435371999989
 31
0.0
  0
LINE
  5
384B
  8
2-0
  6
CONTINUOUS
 62
     3
 10
20589.473552999989
 20
18627.435371999989
 30
0.0
 11
20589.473552999989
 21
18664.434553999989
 31
0.0
  0
LINE
  5
384C
  8
2-0
  6
CONTINUOUS
 62
     3
 10
20619.471177999989
 20
18664.434553999989
 30
0.0
 11
20589.473552999989
 21
18664.434553999989
 31
0.0
  0
LINE
  5
384D
  8
2-0
  6
CONTINUOUS
 62
     3
 10
20619.471177999989
 20
18658.438591999991
 30
0.0
 11
20619.471177999989
 21
18664.434553999989
 31
0.0
  0
LINE
  5
384E
  8
2-0
  6
CONTINUOUS
 62
     3
 10
20619.471177999989
 20
18674.530099
 30
0.0
 11
20589.473552999989
 21
18674.530099
 31
0.0
  0
LINE
  5
384F
  8
2-0
  6
CONTINUOUS
 62
     3
 10
20619.471177999989
 20
18656.528356999981
 30
0.0
 11
20619.471177999989
 21
18674.530099
 31
0.0
  0
LINE
  5
3850
  8
2-0
  6
CONTINUOUS
 62
     3
 10
20594.477775999989
 20
18656.528356999981
 30
0.0
 11
20619.471177999989
 21
18656.528356999981
 31
0.0
  0
LINE
  5
3851
  8
2-0
  6
CONTINUOUS
 62
     3
 10
20594.477775999989
 20
18661.534558999989
 30
0.0
 11
20594.477775999989
 21
18656.528356999981
 31
0.0
  0
LINE
  5
3852
  8
2-0
  6
CONTINUOUS
 62
     3
 10
20601.475373999969
 20
18661.534558999989
 30
0.0
 11
20594.477775999989
 21
18661.534558999989
 31
0.0
  0
LINE
  5
3853
  8
2-0
  6
CONTINUOUS
 62
     3
 10
20601.475373999969
 20
17960.52862099999
 30
0.0
 11
20594.477775999989
 21
17960.52862099999
 31
0.0
  0
LINE
  5
3854
  8
2-0
  6
CONTINUOUS
 62
     3
 10
20594.477775999989
 20
17960.52862099999
 30
0.0
 11
20594.477775999989
 21
17955.540234
 31
0.0
  0
LINE
  5
3855
  8
2-0
  6
CONTINUOUS
 62
     3
 10
20594.477775999989
 20
17955.540234
 30
0.0
 11
20619.471177999989
 21
17955.540234
 31
0.0
  0
LINE
  5
3856
  8
2-0
  6
CONTINUOUS
 62
     3
 10
20619.471177999989
 20
17955.540234
 30
0.0
 11
20619.471177999989
 21
17973.536037000002
 31
0.0
  0
LINE
  5
3857
  8
2-0
  6
CONTINUOUS
 62
     3
 10
20619.471177999989
 20
17973.536037000002
 30
0.0
 11
20589.473552999989
 21
17973.536037000002
 31
0.0
  0
LINE
  5
3858
  8
2-0
  6
CONTINUOUS
 62
     3
 10
20619.471177999989
 20
17957.438591999991
 30
0.0
 11
20619.471177999989
 21
17963.434553999981
 31
0.0
  0
LINE
  5
3859
  8
2-0
  6
CONTINUOUS
 62
     3
 10
20619.471177999989
 20
17963.434553999981
 30
0.0
 11
20589.473552999989
 21
17963.434553999981
 31
0.0
  0
LINE
  5
385A
  8
2-0
  6
CONTINUOUS
 62
     3
 10
20589.473552999989
 20
17963.434553999981
 30
0.0
 11
20589.473552999989
 21
17926.435372
 31
0.0
  0
LINE
  5
385B
  8
2-0
  6
CONTINUOUS
 62
     3
 10
20619.471177999989
 20
17926.435372
 30
0.0
 11
20589.473552999989
 21
17926.435372
 31
0.0
  0
LINE
  5
385C
  8
2-0
  6
CONTINUOUS
 62
     3
 10
20619.471177999989
 20
17932.437272999989
 30
0.0
 11
20619.471177999989
 21
17926.435372
 31
0.0
  0
LINE
  5
385D
  8
2-0
  6
CONTINUOUS
 62
     3
 10
20619.471177999989
 20
17916.345765999991
 30
0.0
 11
20589.473552999989
 21
17916.345765999991
 31
0.0
  0
LINE
  5
385E
  8
2-0
  6
CONTINUOUS
 62
     3
 10
20619.471177999989
 20
17934.341568999989
 30
0.0
 11
20619.471177999989
 21
17916.345765999991
 31
0.0
  0
LINE
  5
385F
  8
2-0
  6
CONTINUOUS
 62
     3
 10
20594.477775999989
 20
17934.341568999989
 30
0.0
 11
20619.471177999989
 21
17934.341568999989
 31
0.0
  0
LINE
  5
3860
  8
2-0
  6
CONTINUOUS
 62
     3
 10
20594.477775999989
 20
17929.341305999991
 30
0.0
 11
20594.477775999989
 21
17934.341568999989
 31
0.0
  0
LINE
  5
3861
  8
2-0
  6
CONTINUOUS
 62
     3
 10
20601.475373999969
 20
17929.341305999991
 30
0.0
 11
20594.477775999989
 21
17929.341305999991
 31
0.0
  0
LINE
  5
3862
  8
2-0
  6
CONTINUOUS
 62
     3
 10
20592.359690999991
 20
17209.432192
 30
0.0
 11
20592.359690999991
 21
17229.433247000001
 31
0.0
  0
LINE
  5
3863
  8
2-0
  6
CONTINUOUS
 62
     3
 10
20592.359690999991
 20
17229.433247000001
 30
0.0
 11
20677.360218999998
 21
17229.433247000001
 31
0.0
  0
LINE
  5
3864
  8
2-0
  6
CONTINUOUS
 62
     3
 10
20601.475373999969
 20
17256.039957000012
 30
0.0
 11
20594.477775999989
 21
17256.039957000012
 31
0.0
  0
LINE
  5
3865
  8
2-0
  6
CONTINUOUS
 62
     3
 10
20594.477775999989
 20
17256.039957000012
 30
0.0
 11
20594.477775999989
 21
17251.045631000012
 31
0.0
  0
LINE
  5
3866
  8
2-0
  6
CONTINUOUS
 62
     3
 10
20594.477775999989
 20
17251.045631000012
 30
0.0
 11
20619.471177999989
 21
17251.045631000012
 31
0.0
  0
LINE
  5
3867
  8
2-0
  6
CONTINUOUS
 62
     3
 10
20619.471177999989
 20
17251.045631000012
 30
0.0
 11
20619.471177999989
 21
17269.041434999999
 31
0.0
  0
LINE
  5
3868
  8
2-0
  6
CONTINUOUS
 62
     3
 10
20619.471177999989
 20
17269.041434999999
 30
0.0
 11
20589.473552999989
 21
17269.041434999999
 31
0.0
  0
LINE
  5
3869
  8
2-0
  6
CONTINUOUS
 62
     3
 10
20619.471177999989
 20
17259.432851000001
 30
0.0
 11
20619.471177999989
 21
17253.430950999991
 31
0.0
  0
LINE
  5
386A
  8
2-0
  6
CONTINUOUS
 62
     3
 10
20589.473552999989
 20
17259.432851000001
 30
0.0
 11
20619.471177999989
 21
17259.432851000001
 31
0.0
  0
LINE
  5
386B
  8
2-0
  6
CONTINUOUS
 62
     3
 10
20589.473552999989
 20
17269.041434999999
 30
0.0
 11
20589.473552999989
 21
17916.345765999991
 31
0.0
  0
LINE
  5
386C
  8
2-0
  6
CONTINUOUS
 62
     3
 10
20589.473552999989
 20
17973.536037000002
 30
0.0
 11
20589.473552999989
 21
18617.339827
 31
0.0
  0
LINE
  5
386D
  8
2-0
  6
CONTINUOUS
 62
     3
 10
20589.473552999989
 20
17114.43113600001
 30
0.0
 11
20619.471177999989
 21
17114.43113600001
 31
0.0
  0
LINE
  5
386E
  8
2-0
  6
CONTINUOUS
 62
     3
 10
20619.471177999989
 20
17114.43113600001
 30
0.0
 11
20619.471177999989
 21
17120.433035999991
 31
0.0
  0
LINE
  5
386F
  8
2-0
  6
CONTINUOUS
 62
     3
 10
20677.360218999998
 20
17144.436678999991
 30
0.0
 11
20592.359690999991
 21
17144.436678999991
 31
0.0
  0
LINE
  5
3870
  8
2-0
  6
CONTINUOUS
 62
     3
 10
20592.359690999991
 20
17144.436678999991
 30
0.0
 11
20592.359690999991
 21
17164.431796000012
 31
0.0
  0
LINE
  5
3871
  8
2-0
  6
CONTINUOUS
 62
     3
 10
20619.471177999989
 20
17104.822553000002
 30
0.0
 11
20589.473552999989
 21
17104.822553000002
 31
0.0
  0
LINE
  5
3872
  8
2-0
  6
CONTINUOUS
 62
     3
 10
20619.471177999989
 20
17122.818355999982
 30
0.0
 11
20619.471177999989
 21
17104.822553000002
 31
0.0
  0
LINE
  5
3873
  8
2-0
  6
CONTINUOUS
 62
     3
 10
20594.477775999989
 20
17122.818355999982
 30
0.0
 11
20619.471177999989
 21
17122.818355999982
 31
0.0
  0
LINE
  5
3874
  8
2-0
  6
CONTINUOUS
 62
     3
 10
20594.477775999989
 20
17117.818092000009
 30
0.0
 11
20594.477775999989
 21
17122.818355999982
 31
0.0
  0
LINE
  5
3875
  8
2-0
  6
CONTINUOUS
 62
     3
 10
20601.475373999969
 20
17117.818092000009
 30
0.0
 11
20594.477775999989
 21
17117.818092000009
 31
0.0
  0
LINE
  5
3876
  8
2-0
  6
CONTINUOUS
 62
     3
 10
20601.475373999969
 20
16413.335861499982
 30
0.0
 11
20594.477775999989
 21
16413.335861499982
 31
0.0
  0
LINE
  5
3877
  8
2-0
  6
CONTINUOUS
 62
     3
 10
20594.477775999989
 20
16413.335861499982
 30
0.0
 11
20594.477775999989
 21
16418.336125499991
 31
0.0
  0
LINE
  5
3878
  8
2-0
  6
CONTINUOUS
 62
     3
 10
20594.477775999989
 20
16418.336125499991
 30
0.0
 11
20619.471177999989
 21
16418.336125499991
 31
0.0
  0
LINE
  5
3879
  8
2-0
  6
CONTINUOUS
 62
     3
 10
20619.471177999989
 20
16418.336125499991
 30
0.0
 11
20619.471177999989
 21
16400.334383500001
 31
0.0
  0
LINE
  5
387A
  8
2-0
  6
CONTINUOUS
 62
     3
 10
20619.471177999989
 20
16400.334383500001
 30
0.0
 11
20589.473552999989
 21
16400.334383500001
 31
0.0
  0
LINE
  5
387B
  8
2-0
  6
CONTINUOUS
 62
     3
 10
20619.471177999989
 20
16416.431828500001
 30
0.0
 11
20619.471177999989
 21
16410.4348775
 31
0.0
  0
LINE
  5
387C
  8
2-0
  6
CONTINUOUS
 62
     3
 10
20619.471177999989
 20
16410.4348775
 30
0.0
 11
20589.473552999989
 21
16410.4348775
 31
0.0
  0
LINE
  5
387D
  8
2-0
  6
CONTINUOUS
 62
     3
 10
20589.473552999989
 20
16410.4348775
 30
0.0
 11
20589.473552999989
 21
16447.4350485
 31
0.0
  0
LINE
  5
387E
  8
2-0
  6
CONTINUOUS
 62
     3
 10
20619.471177999989
 20
16447.4350485
 30
0.0
 11
20589.473552999989
 21
16447.4350485
 31
0.0
  0
LINE
  5
387F
  8
2-0
  6
CONTINUOUS
 62
     3
 10
20619.471177999989
 20
16441.432158499989
 30
0.0
 11
20619.471177999989
 21
16447.4350485
 31
0.0
  0
LINE
  5
3880
  8
2-0
  6
CONTINUOUS
 62
     3
 10
20619.471177999989
 20
16457.5305935
 30
0.0
 11
20589.473552999989
 21
16457.5305935
 31
0.0
  0
LINE
  5
3881
  8
2-0
  6
CONTINUOUS
 62
     3
 10
20619.471177999989
 20
16439.522912500001
 30
0.0
 11
20619.471177999989
 21
16457.5305935
 31
0.0
  0
LINE
  5
3882
  8
2-0
  6
CONTINUOUS
 62
     3
 10
20594.477775999989
 20
16439.522912500001
 30
0.0
 11
20619.471177999989
 21
16439.522912500001
 31
0.0
  0
LINE
  5
3883
  8
2-0
  6
CONTINUOUS
 62
     3
 10
20594.477775999989
 20
16444.529115500001
 30
0.0
 11
20594.477775999989
 21
16439.522912500001
 31
0.0
  0
LINE
  5
3884
  8
2-0
  6
CONTINUOUS
 62
     3
 10
20601.475373999969
 20
16444.529115500001
 30
0.0
 11
20594.477775999989
 21
16444.529115500001
 31
0.0
  0
LINE
  5
3885
  8
2-0
  6
CONTINUOUS
 62
     3
 10
20601.475373999969
 20
15743.76913200001
 30
0.0
 11
20594.477775999989
 21
15743.76913200001
 31
0.0
  0
LINE
  5
3886
  8
2-0
  6
CONTINUOUS
 62
     3
 10
20594.477775999989
 20
15743.76913200001
 30
0.0
 11
20594.477775999989
 21
15738.774807000011
 31
0.0
  0
LINE
  5
3887
  8
2-0
  6
CONTINUOUS
 62
     3
 10
20594.477775999989
 20
15738.774807000011
 30
0.0
 11
20619.471177999989
 21
15738.774807000011
 31
0.0
  0
LINE
  5
3888
  8
2-0
  6
CONTINUOUS
 62
     3
 10
20619.471177999989
 20
15738.774807000011
 30
0.0
 11
20619.471177999989
 21
15756.77061000001
 31
0.0
  0
LINE
  5
3889
  8
2-0
  6
CONTINUOUS
 62
     3
 10
20619.471177999989
 20
15756.77061000001
 30
0.0
 11
20589.473552999989
 21
15756.77061000001
 31
0.0
  0
LINE
  5
388A
  8
2-0
  6
CONTINUOUS
 62
     3
 10
20619.471177999989
 20
15740.673165
 30
0.0
 11
20619.471177999989
 21
15746.67506500001
 31
0.0
  0
LINE
  5
388B
  8
2-0
  6
CONTINUOUS
 62
     3
 10
20619.471177999989
 20
15746.67506500001
 30
0.0
 11
20589.473552999989
 21
15746.67506500001
 31
0.0
  0
LINE
  5
388C
  8
2-0
  6
CONTINUOUS
 62
     3
 10
20589.473552999989
 20
15709.67588400002
 30
0.0
 11
20589.473552999989
 21
15746.67506500001
 31
0.0
  0
LINE
  5
388D
  8
2-0
  6
CONTINUOUS
 62
     3
 10
20619.471177999989
 20
15709.67588400002
 30
0.0
 11
20589.473552999989
 21
15709.67588400002
 31
0.0
  0
LINE
  5
388E
  8
2-0
  6
CONTINUOUS
 62
     3
 10
20619.471177999989
 20
15715.672834999999
 30
0.0
 11
20619.471177999989
 21
15709.67588400002
 31
0.0
  0
LINE
  5
388F
  8
2-0
  6
CONTINUOUS
 62
     3
 10
20619.471177999989
 20
15699.5744
 30
0.0
 11
20589.473552999989
 21
15699.5744
 31
0.0
  0
LINE
  5
3890
  8
2-0
  6
CONTINUOUS
 62
     3
 10
20619.471177999989
 20
15717.582081
 30
0.0
 11
20619.471177999989
 21
15699.5744
 31
0.0
  0
LINE
  5
3891
  8
2-0
  6
CONTINUOUS
 62
     3
 10
20594.477775999989
 20
15717.582081
 30
0.0
 11
20619.471177999989
 21
15717.582081
 31
0.0
  0
LINE
  5
3892
  8
2-0
  6
CONTINUOUS
 62
     3
 10
20594.477775999989
 20
15712.58181700002
 30
0.0
 11
20594.477775999989
 21
15717.582081
 31
0.0
  0
LINE
  5
3893
  8
2-0
  6
CONTINUOUS
 62
     3
 10
20601.475373999969
 20
15712.58181700002
 30
0.0
 11
20594.477775999989
 21
15712.58181700002
 31
0.0
  0
LINE
  5
3894
  8
2-0
  6
CONTINUOUS
 62
     3
 10
20589.473552999989
 20
17104.822553000002
 30
0.0
 11
20589.473552999989
 21
16457.5305935
 31
0.0
  0
LINE
  5
3895
  8
2-0
  6
CONTINUOUS
 62
     3
 10
20589.473552999989
 20
17259.432851000001
 30
0.0
 11
20589.473552999989
 21
17114.43113600001
 31
0.0
  0
LINE
  5
3896
  8
2-0
  6
CONTINUOUS
 62
     3
 10
20677.360218999998
 20
17229.433247000001
 30
0.0
 11
20677.360218999998
 21
17144.436678999991
 31
0.0
  0
LINE
  5
3897
  8
2-0
  6
CONTINUOUS
 62
     3
 10
20601.475373999969
 20
15011.34081
 30
0.0
 11
20594.477775999989
 21
15011.34081
 31
0.0
  0
LINE
  5
3898
  8
2-0
  6
CONTINUOUS
 62
     3
 10
20594.477775999989
 20
15011.34081
 30
0.0
 11
20594.477775999989
 21
15016.335136000011
 31
0.0
  0
LINE
  5
3899
  8
2-0
  6
CONTINUOUS
 62
     3
 10
20594.477775999989
 20
15016.335136000011
 30
0.0
 11
20619.471177999989
 21
15016.335136000011
 31
0.0
  0
LINE
  5
389A
  8
2-0
  6
CONTINUOUS
 62
     3
 10
20619.471177999989
 20
15016.335136000011
 30
0.0
 11
20619.471177999989
 21
14998.33933200001
 31
0.0
  0
LINE
  5
389B
  8
2-0
  6
CONTINUOUS
 62
     3
 10
20619.471177999989
 20
14998.33933200001
 30
0.0
 11
20589.473552999989
 21
14998.33933200001
 31
0.0
  0
LINE
  5
389C
  8
2-0
  6
CONTINUOUS
 62
     3
 10
20619.471177999989
 20
15014.43776700001
 30
0.0
 11
20619.471177999989
 21
15008.434877000011
 31
0.0
  0
LINE
  5
389D
  8
2-0
  6
CONTINUOUS
 62
     3
 10
20619.471177999989
 20
15008.434877000011
 30
0.0
 11
20589.473552999989
 21
15008.434877000011
 31
0.0
  0
LINE
  5
389E
  8
2-0
  6
CONTINUOUS
 62
     3
 10
20589.473552999989
 20
15008.434877000011
 30
0.0
 11
20589.473552999989
 21
15045.435048999991
 31
0.0
  0
LINE
  5
389F
  8
2-0
  6
CONTINUOUS
 62
     3
 10
20619.471177999989
 20
15045.435048999991
 30
0.0
 11
20589.473552999989
 21
15045.435048999991
 31
0.0
  0
LINE
  5
38A0
  8
2-0
  6
CONTINUOUS
 62
     3
 10
20619.471177999989
 20
15039.438097
 30
0.0
 11
20619.471177999989
 21
15045.435048999991
 31
0.0
  0
LINE
  5
38A1
  8
2-0
  6
CONTINUOUS
 62
     3
 10
20619.471177999989
 20
15055.535542000011
 30
0.0
 11
20589.473552999989
 21
15055.535542000011
 31
0.0
  0
LINE
  5
38A2
  8
2-0
  6
CONTINUOUS
 62
     3
 10
20619.471177999989
 20
15037.52885100001
 30
0.0
 11
20619.471177999989
 21
15055.535542000011
 31
0.0
  0
LINE
  5
38A3
  8
2-0
  6
CONTINUOUS
 62
     3
 10
20594.477775999989
 20
15037.52885100001
 30
0.0
 11
20619.471177999989
 21
15037.52885100001
 31
0.0
  0
LINE
  5
38A4
  8
2-0
  6
CONTINUOUS
 62
     3
 10
20594.477775999989
 20
15042.53406400001
 30
0.0
 11
20594.477775999989
 21
15037.52885100001
 31
0.0
  0
LINE
  5
38A5
  8
2-0
  6
CONTINUOUS
 62
     3
 10
20601.475373999969
 20
15042.53406400001
 30
0.0
 11
20594.477775999989
 21
15042.53406400001
 31
0.0
  0
LINE
  5
38A6
  8
2-0
  6
CONTINUOUS
 62
     3
 10
20619.471177999989
 20
14335.436890000001
 30
0.0
 11
20619.471177999989
 21
14341.441758999999
 31
0.0
  0
LINE
  5
38A7
  8
2-0
  6
CONTINUOUS
 62
     3
 10
20619.471177999989
 20
14341.441758999999
 30
0.0
 11
20589.473552999989
 21
14341.441758999999
 31
0.0
  0
LINE
  5
38A8
  8
2-0
  6
CONTINUOUS
 62
     3
 10
20589.473552999989
 20
14341.441758999999
 30
0.0
 11
20589.473552999989
 21
14226.437668
 31
0.0
  0
LINE
  5
38A9
  8
2-0
  6
CONTINUOUS
 62
     3
 10
20589.473552999989
 20
14226.437668
 30
0.0
 11
20674.472100999981
 21
14226.437668
 31
0.0
  0
LINE
  5
38AA
  8
2-0
  6
CONTINUOUS
 62
     3
 10
20674.472100999981
 20
14226.437668
 30
0.0
 11
20674.472100999981
 21
14311.433247000001
 31
0.0
  0
LINE
  5
38AB
  8
2-0
  6
CONTINUOUS
 62
     3
 10
20674.472100999981
 20
14311.433247000001
 30
0.0
 11
20642.475162999981
 21
14311.433247000001
 31
0.0
  0
LINE
  5
38AC
  8
2-0
  6
CONTINUOUS
 62
     3
 10
20601.475373999969
 20
14338.471492000001
 30
0.0
 11
20594.477775999989
 21
14338.471492000001
 31
0.0
  0
LINE
  5
38AD
  8
2-0
  6
CONTINUOUS
 62
     3
 10
20594.477775999989
 20
14338.471492000001
 30
0.0
 11
20594.477775999989
 21
14333.47419699998
 31
0.0
  0
LINE
  5
38AE
  8
2-0
  6
CONTINUOUS
 62
     3
 10
20594.477775999989
 20
14333.47419699998
 30
0.0
 11
20619.471177999989
 21
14333.47419699998
 31
0.0
  0
LINE
  5
38AF
  8
2-0
  6
CONTINUOUS
 62
     3
 10
20619.471177999989
 20
14333.47419699998
 30
0.0
 11
20619.471177999989
 21
14351.472970000001
 31
0.0
  0
LINE
  5
38B0
  8
2-0
  6
CONTINUOUS
 62
     3
 10
20619.471177999989
 20
14351.472970000001
 30
0.0
 11
20589.473552999989
 21
14351.472970000001
 31
0.0
  0
LINE
  5
38B1
  8
2-0
  6
CONTINUOUS
 62
     3
 10
20589.473552999989
 20
15055.535542000011
 30
0.0
 11
20589.473552999989
 21
15699.5744
 31
0.0
  0
LINE
  5
38B2
  8
2-0
  6
CONTINUOUS
 62
     3
 10
20589.473552999989
 20
18674.530099
 30
0.0
 11
20589.473552999989
 21
19318.340816499989
 31
0.0
  0
LINE
  5
38B3
  8
2-0
  6
CONTINUOUS
 62
     3
 10
20680.475981
 20
18603.433708999961
 30
0.0
 11
20633.472312000002
 21
18603.433708999961
 31
0.0
  0
LINE
  5
38B4
  8
2-0
  6
CONTINUOUS
 62
     3
 10
20633.472312000002
 20
18688.434237000001
 30
0.0
 11
20680.475981
 21
18688.434237000001
 31
0.0
  0
LINE
  5
38B5
  8
2-0
  6
CONTINUOUS
 62
     3
 10
20633.472312000002
 20
18603.433708999961
 30
0.0
 11
20633.472312000002
 21
18628.437008000001
 31
0.0
  0
LINE
  5
38B6
  8
2-0
  6
CONTINUOUS
 62
     3
 10
20633.472312000002
 20
18663.432916999991
 30
0.0
 11
20633.472312000002
 21
18688.434237000001
 31
0.0
  0
LINE
  5
38B7
  8
2-0
  6
CONTINUOUS
 62
     3
 10
20680.475981
 20
18688.434237000001
 30
0.0
 11
20680.475981
 21
18603.433708999961
 31
0.0
  0
LINE
  5
38B8
  8
2-0
  6
CONTINUOUS
 62
     3
 10
20589.473552999989
 20
16400.334383500001
 30
0.0
 11
20589.473552999989
 21
15756.77061000001
 31
0.0
  0
LINE
  5
38B9
  8
2-0
  6
CONTINUOUS
 62
     3
 10
20680.475981
 20
15685.436679
 30
0.0
 11
20633.472312000002
 21
15685.436679
 31
0.0
  0
LINE
  5
38BA
  8
2-0
  6
CONTINUOUS
 62
     3
 10
20633.472312000002
 20
15770.43324699999
 30
0.0
 11
20680.475981
 21
15770.43324699999
 31
0.0
  0
LINE
  5
38BB
  8
2-0
  6
CONTINUOUS
 62
     3
 10
20633.472312000002
 20
15685.436679
 30
0.0
 11
20633.472312000002
 21
15710.43206000001
 31
0.0
  0
LINE
  5
38BC
  8
2-0
  6
CONTINUOUS
 62
     3
 10
20633.472312000002
 20
15745.431928000011
 30
0.0
 11
20633.472312000002
 21
15770.43324699999
 31
0.0
  0
LINE
  5
38BD
  8
2-0
  6
CONTINUOUS
 62
     3
 10
20680.475981
 20
15770.43324699999
 30
0.0
 11
20680.475981
 21
15685.436679
 31
0.0
  0
LINE
  5
38BE
  8
2-0
  6
CONTINUOUS
 62
     3
 10
23241.96814199998
 20
19681.937075000009
 30
0.0
 11
23241.96814199998
 21
19796.933248000008
 31
0.0
  0
LINE
  5
38BF
  8
2-0
  6
CENTER2
 62
     6
 10
19302.515280999989
 20
19754.434963
 30
0.0
 11
24091.969461999979
 21
19754.434963
 31
0.0
  0
LINE
  5
38C0
  8
2-0
  6
CENTER2
 62
     6
 10
19302.515280999989
 20
17186.934963
 30
0.0
 11
24091.969461999979
 21
17186.934963
 31
0.0
  0
LINE
  5
38C1
  8
2-0
  6
CENTER2
 62
     6
 10
19302.515280999989
 20
14268.934962999991
 30
0.0
 11
24091.969461999979
 21
14268.934962999991
 31
0.0
  0
LINE
  5
38C2
  8
2-0
  6
CONTINUOUS
 62
     3
 10
20589.473552999989
 20
19711.936678999991
 30
0.0
 11
23160.96624199998
 21
19711.936678999991
 31
0.0
  0
LINE
  5
38C3
  8
2-0
  6
CONTINUOUS
 62
     3
 10
20589.473552999989
 20
14351.472970000001
 30
0.0
 11
20589.473552999989
 21
14998.33933200001
 31
0.0
  0
LINE
  5
38C4
  8
2-0
  6
CENTER2
 62
     6
 10
20631.969858
 20
20996.933248000008
 30
0.0
 11
20631.969858
 21
13643.17152899999
 31
0.0
  0
LINE
  5
38C5
  8
2-0
  6
CENTER2
 62
     6
 10
23199.469858
 20
20996.933248000008
 30
0.0
 11
23199.469858
 21
13643.17152899999
 31
0.0
  0
LINE
  5
38C6
  8
2-0
  6
CONTINUOUS
 62
     3
 10
23241.96814199998
 20
19671.639619000001
 30
0.0
 11
23241.96814199998
 21
19375.531088499989
 31
0.0
  0
LINE
  5
38C7
  8
2-0
  6
CONTINUOUS
 62
     3
 10
20589.473552999989
 20
19671.639619000001
 30
0.0
 11
20589.473552999989
 21
19375.531088499982
 31
0.0
  0
LINE
  5
38C8
  8
2-0
  6
CONTINUOUS
 62
     3
 10
20670.471494000001
 20
14311.433247000001
 30
0.0
 11
20670.471494000001
 21
19796.933248000008
 31
0.0
  0
LINE
  5
38C9
  8
2-0
  6
CONTINUOUS
 62
     3
 10
23160.96624199998
 20
14311.433247000001
 30
0.0
 11
23160.96624199998
 21
19796.933248000008
 31
0.0
  0
CIRCLE
  5
38CA
  8
2-0
  6
CONTINUOUS
 62
     4
 10
19102.517590999989
 20
19754.434963
 30
0.0
 40
200.00001
  0
CIRCLE
  5
38CB
  8
2-0
  6
CONTINUOUS
 62
     4
 10
19102.517590999989
 20
17186.934963
 30
0.0
 40
200.00001
  0
CIRCLE
  5
38CC
  8
2-0
  6
CONTINUOUS
 62
     4
 10
19102.517590999989
 20
14268.934962999991
 30
0.0
 40
200.00001
  0
CIRCLE
  5
38CD
  8
2-0
  6
CONTINUOUS
 62
     4
 10
20631.969858
 20
21196.937867000011
 30
0.0
 40
200.00001
  0
TEXT
  5
38CE
  8
2-0
  6
CONTINUOUS
 62
     7
 10
21596.315164999982
 20
13708.936084999999
 30
0.0
 40
160.0
  1
前柱（右）
 50
0.000213
 72
     4
 11
22012.314867592999
 21
13788.93763150079
 31
0.0
  0
TEXT
  5
38CF
  8
2-0
  6
CONTINUOUS
 62
     7
 10
21613.014383999991
 20
18388.058129000001
 30
0.0
 40
160.0
  1
補強柱 後
 50
359.99984199999989
 72
     4
 11
22023.681271274709
 21
18468.05699653699
 31
0.0
  0
TEXT
  5
38D0
  8
2-0
  6
CONTINUOUS
 62
     7
 10
21800.910287999988
 20
16637.42810100002
 30
0.0
 40
160.0
  1
壁パネル
 50
359.99982299999999
 72
     4
 11
22163.57720180355
 21
16717.426980637891
 31
0.0
  0
TEXT
  5
38D1
  8
2-0
  6
CONTINUOUS
 62
     7
 10
21520.90738399998
 20
17474.615997000012
 30
0.0
 40
160.0
  1
中柱（左右）
 50
0.000354
 72
     4
 11
22038.240223046188
 21
17554.619193324659
 31
0.0
  0
TEXT
  5
38D2
  8
2-0
  6
CONTINUOUS
 62
     7
 10
22200.909627999979
 20
14681.977351
 30
0.0
 40
160.0
  1
下枠
 50
0.001063
 72
     4
 11
22371.574810409282
 21
14761.980517339291
 31
0.0
  0
TEXT
  5
38D3
  8
2-0
  6
CONTINUOUS
 62
     7
 10
21613.01438399998
 20
15470.29864000001
 30
0.0
 40
160.0
  1
補強柱 前
 50
359.99937
 72
     4
 11
22023.68193028777
 21
15550.294124479329
 31
0.0
  0
TEXT
  5
38D4
  8
2-0
  6
CONTINUOUS
 62
     7
 10
21695.875051999999
 20
19077.884735499989
 30
0.0
 40
160.0
  1
間柱（側）
 72
     4
 11
22117.208385333332
 21
19157.884735499989
 31
0.0
  0
TEXT
  5
38D5
  8
2-0
  6
CONTINUOUS
 62
     7
 10
24014.465370999991
 20
20606.93245600001
 30
0.0
 40
160.0
  1
後柱（左右）
 50
0.000354
 72
     4
 11
24526.464876712969
 21
20686.935619372842
 31
0.0
  0
TEXT
  5
38D6
  8
2-0
  6
CONTINUOUS
 62
     7
 10
19054.518223999981
 20
19659.954521000011
 30
0.0
 40
160.0
  1
C
 72
     4
 11
19107.85155733331
 21
19739.954521000011
 31
0.0
  0
TEXT
  5
38D7
  8
2-0
  6
CONTINUOUS
 62
     7
 10
19054.738939999981
 20
17116.540881000019
 30
0.0
 40
160.0
  1
B
 72
     4
 11
19108.07227333331
 21
17196.540881000019
 31
0.0
  0
TEXT
  5
38D8
  8
2-0
  6
CONTINUOUS
 62
     7
 10
19054.781499999979
 20
14180.32775199999
 30
0.0
 40
160.0
  1
A
 72
     4
 11
19108.114833333311
 21
14260.32775199999
 31
0.0
  0
TEXT
  5
38D9
  8
2-0
  6
CONTINUOUS
 62
     7
 10
20587.763248999981
 20
21108.170315000028
 30
0.0
 40
160.0
  1
1
 72
     4
 11
20614.429915666649
 21
21188.170315000028
 31
0.0
  0
LINE
  5
38DA
  8
2-0
  6
CONTINUOUS
 62
     3
 10
22459.970438999961
 20
19796.933248000008
 30
0.0
 11
22422.969276999989
 21
19796.933248000008
 31
0.0
  0
LINE
  5
38DB
  8
2-0
  6
CONTINUOUS
 62
     3
 10
22459.970438999961
 20
19766.92968500001
 30
0.0
 11
22459.970438999961
 21
19796.933248000008
 31
0.0
  0
LINE
  5
38DC
  8
2-0
  6
CONTINUOUS
 62
     3
 10
22453.970517999958
 20
19766.92968500001
 30
0.0
 11
22459.970438999961
 21
19766.92968500001
 31
0.0
  0
LINE
  5
38DD
  8
2-0
  6
CONTINUOUS
 62
     3
 10
22470.06796299999
 20
19766.92968500001
 30
0.0
 11
22470.06796299999
 21
19796.933248000008
 31
0.0
  0
LINE
  5
38DE
  8
2-0
  6
CONTINUOUS
 62
     3
 10
22452.064242
 20
19766.92968500001
 30
0.0
 11
22470.06796299999
 21
19766.92968500001
 31
0.0
  0
LINE
  5
38DF
  8
2-0
  6
CONTINUOUS
 62
     3
 10
22452.064242
 20
19791.938922000008
 30
0.0
 11
22452.064242
 21
19766.92968500001
 31
0.0
  0
LINE
  5
38E0
  8
2-0
  6
CONTINUOUS
 62
     3
 10
22457.064505999999
 20
19791.938922000008
 30
0.0
 11
22452.064242
 21
19791.938922000008
 31
0.0
  0
LINE
  5
38E1
  8
2-0
  6
CONTINUOUS
 62
     3
 10
22457.064505999999
 20
19784.933406
 30
0.0
 11
22457.064505999999
 21
19791.938922000008
 31
0.0
  0
LINE
  5
38E2
  8
2-0
  6
CONTINUOUS
 62
     3
 10
22425.87521099998
 20
19784.933406
 30
0.0
 11
22425.87521099998
 21
19791.938922000008
 31
0.0
  0
LINE
  5
38E3
  8
2-0
  6
CONTINUOUS
 62
     3
 10
22425.87521099998
 20
19791.938922000008
 30
0.0
 11
22430.875475000001
 21
19791.938922000008
 31
0.0
  0
LINE
  5
38E4
  8
2-0
  6
CONTINUOUS
 62
     3
 10
22430.875475000001
 20
19791.938922000008
 30
0.0
 11
22430.875475000001
 21
19766.92968500001
 31
0.0
  0
LINE
  5
38E5
  8
2-0
  6
CONTINUOUS
 62
     3
 10
22430.875475000001
 20
19766.92968500001
 30
0.0
 11
22412.87571199999
 21
19766.92968500001
 31
0.0
  0
LINE
  5
38E6
  8
2-0
  6
CONTINUOUS
 62
     3
 10
22412.87571199999
 20
19766.92968500001
 30
0.0
 11
22412.87571199999
 21
19796.933248000008
 31
0.0
  0
LINE
  5
38E7
  8
2-0
  6
CONTINUOUS
 62
     3
 10
22428.969197999992
 20
19766.92968500001
 30
0.0
 11
22422.969276999989
 21
19766.92968500001
 31
0.0
  0
LINE
  5
38E8
  8
2-0
  6
CONTINUOUS
 62
     3
 10
22422.969276999989
 20
19766.92968500001
 30
0.0
 11
22422.969276999989
 21
19796.933248000008
 31
0.0
  0
LINE
  5
38E9
  8
2-0
  6
CONTINUOUS
 62
     3
 10
21724.869272499989
 20
19784.933406
 30
0.0
 11
21724.869272499989
 21
19791.938922000008
 31
0.0
  0
LINE
  5
38EA
  8
2-0
  6
CONTINUOUS
 62
     3
 10
21724.869272499989
 20
19791.938922000008
 30
0.0
 11
21729.869535500002
 21
19791.938922000008
 31
0.0
  0
LINE
  5
38EB
  8
2-0
  6
CONTINUOUS
 62
     3
 10
21729.869535500002
 20
19791.938922000008
 30
0.0
 11
21729.869535500002
 21
19766.92968500001
 31
0.0
  0
LINE
  5
38EC
  8
2-0
  6
CONTINUOUS
 62
     3
 10
21729.869535500002
 20
19766.92968500001
 30
0.0
 11
21711.87571249999
 21
19766.92968500001
 31
0.0
  0
LINE
  5
38ED
  8
2-0
  6
CONTINUOUS
 62
     3
 10
21711.87571249999
 20
19766.92968500001
 30
0.0
 11
21711.87571249999
 21
19796.933248000008
 31
0.0
  0
LINE
  5
38EE
  8
2-0
  6
CONTINUOUS
 62
     3
 10
21727.967218499969
 20
19766.92968500001
 30
0.0
 11
21721.969277499989
 21
19766.92968500001
 31
0.0
  0
LINE
  5
38EF
  8
2-0
  6
CONTINUOUS
 62
     3
 10
21721.969277499989
 20
19766.92968500001
 30
0.0
 11
21721.969277499989
 21
19796.933248000008
 31
0.0
  0
LINE
  5
38F0
  8
2-0
  6
CONTINUOUS
 62
     3
 10
21758.9704385
 20
19796.933248000008
 30
0.0
 11
21721.969277499989
 21
19796.933248000008
 31
0.0
  0
LINE
  5
38F1
  8
2-0
  6
CONTINUOUS
 62
     3
 10
21758.9704385
 20
19766.92968500001
 30
0.0
 11
21758.9704385
 21
19796.933248000008
 31
0.0
  0
LINE
  5
38F2
  8
2-0
  6
CONTINUOUS
 62
     3
 10
21752.9645795
 20
19766.92968500001
 30
0.0
 11
21758.9704385
 21
19766.92968500001
 31
0.0
  0
LINE
  5
38F3
  8
2-0
  6
CONTINUOUS
 62
     3
 10
21769.0640035
 20
19766.92968500001
 30
0.0
 11
21769.0640035
 21
19796.933248000008
 31
0.0
  0
LINE
  5
38F4
  8
2-0
  6
CONTINUOUS
 62
     3
 10
21751.068200499991
 20
19766.92968500001
 30
0.0
 11
21769.0640035
 21
19766.92968500001
 31
0.0
  0
LINE
  5
38F5
  8
2-0
  6
CONTINUOUS
 62
     3
 10
21751.068200499991
 20
19791.938922000008
 30
0.0
 11
21751.068200499991
 21
19766.92968500001
 31
0.0
  0
LINE
  5
38F6
  8
2-0
  6
CONTINUOUS
 62
     3
 10
21756.0585665
 20
19791.938922000008
 30
0.0
 11
21751.068200499991
 21
19791.938922000008
 31
0.0
  0
LINE
  5
38F7
  8
2-0
  6
CONTINUOUS
 62
     3
 10
21756.0585665
 20
19784.933406
 30
0.0
 11
21756.0585665
 21
19791.938922000008
 31
0.0
  0
LINE
  5
38F8
  8
2-0
  6
CONTINUOUS
 62
     3
 10
21068.063013999999
 20
19796.933248000008
 30
0.0
 11
21711.87571249999
 21
19796.933248000008
 31
0.0
  0
LINE
  5
38F9
  8
2-0
  6
CONTINUOUS
 62
     3
 10
23117.353488000001
 20
19796.933248000008
 30
0.0
 11
22470.06796299999
 21
19796.933248000008
 31
0.0
  0
LINE
  5
38FA
  8
2-0
  6
CONTINUOUS
 62
     3
 10
22412.87571199999
 20
19796.933248000008
 30
0.0
 11
21769.0640035
 21
19796.933248000008
 31
0.0
  0
LINE
  5
38FB
  8
2-0
  6
CONTINUOUS
 62
     3
 10
21055.06153599999
 20
19784.933406
 30
0.0
 11
21055.06153599999
 21
19791.938922000008
 31
0.0
  0
LINE
  5
38FC
  8
2-0
  6
CONTINUOUS
 62
     3
 10
21055.06153599999
 20
19791.938922000008
 30
0.0
 11
21050.061271999992
 21
19791.938922000008
 31
0.0
  0
LINE
  5
38FD
  8
2-0
  6
CONTINUOUS
 62
     3
 10
21050.061271999992
 20
19791.938922000008
 30
0.0
 11
21050.061271999992
 21
19766.92968500001
 31
0.0
  0
LINE
  5
38FE
  8
2-0
  6
CONTINUOUS
 62
     3
 10
21050.061271999992
 20
19766.92968500001
 30
0.0
 11
21068.063013999999
 21
19766.92968500001
 31
0.0
  0
LINE
  5
38FF
  8
2-0
  6
CONTINUOUS
 62
     3
 10
21068.063013999999
 20
19766.92968500001
 30
0.0
 11
21068.063013999999
 21
19796.933248000008
 31
0.0
  0
LINE
  5
3900
  8
2-0
  6
CONTINUOUS
 62
     3
 10
21051.96358900001
 20
19766.92968500001
 30
0.0
 11
21057.967468999988
 21
19766.92968500001
 31
0.0
  0
LINE
  5
3901
  8
2-0
  6
CONTINUOUS
 62
     3
 10
21057.967468999988
 20
19766.92968500001
 30
0.0
 11
21057.967468999988
 21
19796.933248000008
 31
0.0
  0
LINE
  5
3902
  8
2-0
  6
CONTINUOUS
 62
     3
 10
21020.97224699998
 20
19796.933248000008
 30
0.0
 11
21057.967468999988
 21
19796.933248000008
 31
0.0
  0
LINE
  5
3903
  8
2-0
  6
CONTINUOUS
 62
     3
 10
21020.97224699998
 20
19766.92968500001
 30
0.0
 11
21020.97224699998
 21
19796.933248000008
 31
0.0
  0
LINE
  5
3904
  8
2-0
  6
CONTINUOUS
 62
     3
 10
21026.966229000001
 20
19766.92968500001
 30
0.0
 11
21020.97224699998
 21
19766.92968500001
 31
0.0
  0
LINE
  5
3905
  8
2-0
  6
CONTINUOUS
 62
     3
 10
21010.876702000001
 20
19766.92968500001
 30
0.0
 11
21010.876702000001
 21
19796.933248000008
 31
0.0
  0
LINE
  5
3906
  8
2-0
  6
CONTINUOUS
 62
     3
 10
21028.87250500001
 20
19766.92968500001
 30
0.0
 11
21010.876702000001
 21
19766.92968500001
 31
0.0
  0
LINE
  5
3907
  8
2-0
  6
CONTINUOUS
 62
     3
 10
21028.87250500001
 20
19791.938922000008
 30
0.0
 11
21028.87250500001
 21
19766.92968500001
 31
0.0
  0
LINE
  5
3908
  8
2-0
  6
CONTINUOUS
 62
     3
 10
21023.874220999998
 20
19791.938922000008
 30
0.0
 11
21028.87250500001
 21
19791.938922000008
 31
0.0
  0
LINE
  5
3909
  8
2-0
  6
CONTINUOUS
 62
     3
 10
21023.874220999998
 20
19784.933406
 30
0.0
 11
21023.874220999998
 21
19791.938922000008
 31
0.0
  0
LINE
  5
390A
  8
2-0
  6
CONTINUOUS
 62
     3
 10
20714.775099999981
 20
19796.933248000008
 30
0.0
 11
21010.876702000001
 21
19796.933248000008
 31
0.0
  0
LINE
  5
390B
  8
2-0
  6
CONTINUOUS
 62
     3
 10
23241.96814199998
 20
15699.57440000001
 30
0.0
 11
23241.96814199998
 21
15055.535542000011
 31
0.0
  0
LINE
  5
390C
  8
2-0
  6
CONTINUOUS
 62
     3
 10
23241.96814199998
 20
14998.339332
 30
0.0
 11
23241.96814199998
 21
14351.472970000001
 31
0.0
  0
CIRCLE
  5
390D
  8
2-0
  6
CONTINUOUS
 62
     4
 10
23199.469858
 20
21196.937867000011
 30
0.0
 40
200.00001
  0
TEXT
  5
390E
  8
2-0
  6
CONTINUOUS
 62
     7
 10
23147.838075
 20
21101.412238000012
 30
0.0
 40
160.0
  1
2
 72
     4
 11
23201.171408333332
 21
21181.412238000012
 31
0.0
  0
LINE
  5
390F
  8
0-6
  6
CONTINUOUS
 62
     6
 10
18864.688476795509
 20
20526.936151000031
 30
0.0
 11
19889.728726795522
 21
20526.936151000031
 31
0.0
  0
TEXT
  5
3910
  8
0-6
  6
CONTINUOUS
 62
     7
 10
18944.6887407955
 20
20606.938395000019
 30
0.0
 40
160.0
  1
間柱（後）
 72
     4
 11
19366.022074128839
 21
20686.938395000019
 31
0.0
  0
LINE
  5
3911
  8
0-6
  6
CONTINUOUS
 62
     6
 10
19889.728726795522
 20
20526.936151000031
 30
0.0
 11
20876.791431444391
 21
19884.238972953281
 31
0.0
  0
LINE
  5
3912
  8
SUNPOU
  6
CONTINUOUS
 10
10397.972128999991
 20
19976.930872000001
 30
0.0
 11
10397.972128999991
 21
20773.89813977847
 31
0.0
  0
LINE
  5
3913
  8
SUNPOU
  6
CONTINUOUS
 10
10397.971803999981
 20
14076.439648
 30
0.0
 11
10397.971803999981
 21
13401.01353218962
 31
0.0
  0
LINE
  5
3916
  8
WAKUSEN-01
 10
868.00000000000193
 20
22484.000000000011
 30
0.0
 11
32764.000000000011
 21
22484.000000000011
 31
0.0
  0
LINE
  5
3919
  8
WAKUSEN-01
 10
20560.0
 20
2484.0
 30
0.0
 11
32764.0
 21
2484.0
 31
0.0
  0
LINE
  5
391A
  8
WAKUSEN-02
 10
20560.0
 20
1655.9999999999991
 30
0.0
 11
26868.0
 21
1655.9999999999991
 31
0.0
  0
TEXT
  5
391B
  8
WAKUMOJI-01
 10
20670.260259962761
 20
2125.9030093393221
 30
0.0
 40
240.0
  1
名　称
  7
WAKUMOJI
  0
TEXT
  5
391C
  8
WAKUMOJI-01
 10
20656.505485091919
 20
1319.12897497982
 30
0.0
 40
240.0
  1
機種名
  7
WAKUMOJI
  0
LINE
  5
391F
  8
YODOROGO
 10
29977.604341291921
 20
1995.7494964292871
 30
0.0
 11
29829.604341291921
 21
1995.7494964292871
 31
0.0
1001
AUTOCAD_POSTSCRIPT_FIGURE
1002
{
1000
PSFILL
1000
Grayscale
1000
Grayscale
1070
    25
1002
}
  0
LINE
  5
3920
  8
YODOROGO
 10
29829.604341291921
 20
1947.749496429288
 30
0.0
 11
29977.604341291921
 21
1947.749496429288
 31
0.0
1001
AUTOCAD_POSTSCRIPT_FIGURE
1002
{
1000
PSFILL
1000
Grayscale
1000
Grayscale
1070
    25
1002
}
  0
LINE
  5
3921
  8
YODOROGO
 10
29977.604341291921
 20
1907.7494964292871
 30
0.0
 11
29829.604341291921
 21
1907.7494964292871
 31
0.0
1001
AUTOCAD_POSTSCRIPT_FIGURE
1002
{
1000
PSFILL
1000
Grayscale
1000
Grayscale
1070
    25
1002
}
  0
LINE
  5
3922
  8
YODOROGO
 10
29829.604341291921
 20
1859.749496429288
 30
0.0
 11
29977.604341291921
 21
1859.749496429288
 31
0.0
1001
AUTOCAD_POSTSCRIPT_FIGURE
1002
{
1000
PSFILL
1000
Grayscale
1000
Grayscale
1070
    25
1002
}
  0
LINE
  5
3923
  8
YODOROGO
 10
29977.604341291921
 20
1819.7494964292871
 30
0.0
 11
29829.604341291921
 21
1819.7494964292871
 31
0.0
1001
AUTOCAD_POSTSCRIPT_FIGURE
1002
{
1000
PSFILL
1000
Grayscale
1000
Grayscale
1070
    25
1002
}
  0
LINE
  5
3924
  8
YODOROGO
 10
29921.60434129191
 20
1707.749496429288
 30
0.0
 11
29977.604341291921
 21
1707.749496429288
 31
0.0
1001
AUTOCAD_POSTSCRIPT_FIGURE
1002
{
1000
PSFILL
1000
Grayscale
1000
Grayscale
1070
    25
1002
}
  0
LINE
  5
3925
  8
YODOROGO
 10
29737.604341291921
 20
1427.749496429288
 30
0.0
 11
29937.604341291932
 21
1481.3393349155101
 31
0.0
  0
LINE
  5
3926
  8
YODOROGO
 10
29949.60434129191
 20
1707.749496429288
 30
0.0
 11
29885.604341291921
 21
1707.749496429288
 31
0.0
  0
ARC
  5
3927
  8
YODOROGO
 10
30254.34774982791
 20
1807.864609233261
 30
0.0
 40
381.88686420564721
 50
213.96111677667841
 51
264.47872074317792
  0
ARC
  5
3928
  8
YODOROGO
 10
30254.347749827921
 20
1807.864609233302
 30
0.0
 40
381.8868642056816
 50
208.14114420486601
 51
212.9210361185994
  0
LINE
  5
3929
  8
YODOROGO
 10
29771.409872985321
 20
1556.807661346234
 30
0.0
 11
29933.78413250855
 21
1600.3157130570869
 31
0.0
  0
LINE
  5
392A
  8
YODOROGO
 10
29737.604341291921
 20
1427.749496429288
 30
0.0
 11
29937.604341291932
 21
1481.3393349155101
 31
0.0
  0
LINE
  5
392B
  8
YODOROGO
 10
29949.60434129191
 20
1707.749496429288
 30
0.0
 11
29885.604341291921
 21
1707.749496429288
 31
0.0
  0
ARC
  5
392C
  8
YODOROGO
 10
30254.34774982791
 20
1807.864609233261
 30
0.0
 40
381.88686420564721
 50
213.96111677667841
 51
264.47872074317792
  0
LINE
  5
392D
  8
YODOROGO
 10
28793.60434129191
 20
1819.7494964292871
 30
0.0
 11
28433.60434129191
 21
1819.7494964292871
 31
0.0
  0
LINE
  5
392E
  8
YODOROGO
 10
28513.60434129191
 20
1427.749496429288
 30
0.0
 11
28793.60434129191
 21
1427.749496429288
 31
0.0
  0
LINE
  5
392F
  8
YODOROGO
 10
28729.604341291921
 20
1923.7494964292871
 30
0.0
 11
28497.60434129191
 21
1923.7494964292871
 31
0.0
  0
LINE
  5
3930
  8
YODOROGO
 10
28585.604341291921
 20
2027.749496429288
 30
0.0
 11
28657.604341291921
 21
2027.749496429288
 31
0.0
  0
LINE
  5
3931
  8
YODOROGO
 10
28433.60434129191
 20
1707.749496429288
 30
0.0
 11
28433.60434129191
 21
1507.749496429288
 31
0.0
  0
LINE
  5
3932
  8
YODOROGO
 10
28497.60434129191
 20
1563.7494964292871
 30
0.0
 11
28497.60434129191
 21
1707.749496429288
 31
0.0
  0
LINE
  5
3933
  8
YODOROGO
 10
28585.604341291921
 20
1747.74949642929
 30
0.0
 11
28585.604341291921
 21
1547.749496429288
 31
0.0
  0
LINE
  5
3934
  8
YODOROGO
 10
27857.604341291921
 20
1683.749496429288
 30
0.0
 11
27777.604341291921
 21
1619.9724140445701
 31
0.0
  0
LINE
  5
3935
  8
YODOROGO
 10
27937.604341291921
 20
1619.9724140445701
 30
0.0
 11
27857.604341291921
 21
1683.749496429288
 31
0.0
  0
LINE
  5
3936
  8
YODOROGO
 10
27857.604341291921
 20
1707.749496429288
 30
0.0
 11
27937.604341291921
 21
1643.9724140445701
 31
0.0
  0
LINE
  5
3937
  8
YODOROGO
 10
27777.604341291921
 20
1643.9724140445701
 30
0.0
 11
27857.604341291921
 21
1707.749496429288
 31
0.0
  0
LINE
  5
3938
  8
YODOROGO
 10
28040.913204016892
 20
1659.749496429288
 30
0.0
 11
28040.913204016892
 21
1683.7494964292871
 31
0.0
  0
LINE
  5
3939
  8
YODOROGO
 10
27977.604341291921
 20
1683.7494964292871
 30
0.0
 11
27977.604341291921
 21
1667.749496429285
 31
0.0
  0
LINE
  5
393A
  8
YODOROGO
 10
28098.135520230931
 20
1707.749496429288
 30
0.0
 11
28098.135520230931
 21
1655.5036372746561
 31
0.0
1001
AUTOCAD_POSTSCRIPT_FIGURE
1002
{
1000
PSFILL
1000
Grayscale
1000
Grayscale
1070
   100
1002
}
  0
LINE
  5
393B
  8
YODOROGO
 10
28082.135520230921
 20
1655.5036372746561
 30
0.0
 11
28082.135520230921
 21
1707.749496429288
 31
0.0
1001
AUTOCAD_POSTSCRIPT_FIGURE
1002
{
1000
PSFILL
1000
Grayscale
1000
Grayscale
1070
   100
1002
}
  0
LINE
  5
393C
  8
YODOROGO
 10
27809.604341291921
 20
1608.771904043258
 30
0.0
 11
27809.604341291921
 21
1632.771904043258
 31
0.0
  0
LINE
  5
393D
  8
YODOROGO
 10
27905.604341291921
 20
1608.771904043258
 30
0.0
 11
27809.604341291921
 21
1608.771904043258
 31
0.0
  0
LINE
  5
393E
  8
YODOROGO
 10
27905.604341291921
 20
1632.771904043258
 30
0.0
 11
27905.604341291921
 21
1608.771904043258
 31
0.0
  0
LINE
  5
393F
  8
YODOROGO
 10
27809.604341291921
 20
1632.771904043258
 30
0.0
 11
27905.604341291921
 21
1632.771904043258
 31
0.0
  0
LINE
  5
3940
  8
YODOROGO
 10
27824.509588915738
 20
1568.5028573704751
 30
0.0
 11
27785.604341291921
 21
1475.7494964292871
 31
0.0
1001
AUTOCAD_POSTSCRIPT_FIGURE
1002
{
1000
PSFILL
1000
Grayscale
1000
Grayscale
1070
   100
1002
}
  0
LINE
  5
3941
  8
YODOROGO
 10
27777.604341291921
 20
1568.5028573704751
 30
0.0
 11
27824.509588915738
 21
1568.5028573704751
 31
0.0
1001
AUTOCAD_POSTSCRIPT_FIGURE
1002
{
1000
PSFILL
1000
Grayscale
1000
Grayscale
1070
   100
1002
}
  0
LINE
  5
3942
  8
YODOROGO
 10
27777.604341291921
 20
1588.5028573704751
 30
0.0
 11
27777.604341291921
 21
1568.5028573704751
 31
0.0
1001
AUTOCAD_POSTSCRIPT_FIGURE
1002
{
1000
PSFILL
1000
Grayscale
1000
Grayscale
1070
   100
1002
}
  0
LINE
  5
3943
  8
YODOROGO
 10
27937.604341291921
 20
1588.5028573704751
 30
0.0
 11
27777.604341291921
 21
1588.5028573704751
 31
0.0
1001
AUTOCAD_POSTSCRIPT_FIGURE
1002
{
1000
PSFILL
1000
Grayscale
1000
Grayscale
1070
   100
1002
}
  0
LINE
  5
3944
  8
YODOROGO
 10
27937.604341291921
 20
1568.5028573704751
 30
0.0
 11
27937.604341291921
 21
1588.5028573704751
 31
0.0
1001
AUTOCAD_POSTSCRIPT_FIGURE
1002
{
1000
PSFILL
1000
Grayscale
1000
Grayscale
1070
   100
1002
}
  0
LINE
  5
3945
  8
YODOROGO
 10
27844.509588915738
 20
1568.5028573704751
 30
0.0
 11
27937.604341291921
 21
1568.5028573704751
 31
0.0
1001
AUTOCAD_POSTSCRIPT_FIGURE
1002
{
1000
PSFILL
1000
Grayscale
1000
Grayscale
1070
   100
1002
}
  0
LINE
  5
3946
  8
YODOROGO
 10
27815.546718284771
 20
1495.7494964292871
 30
0.0
 11
27844.509588915738
 21
1568.5028573704751
 31
0.0
1001
AUTOCAD_POSTSCRIPT_FIGURE
1002
{
1000
PSFILL
1000
Grayscale
1000
Grayscale
1070
   100
1002
}
  0
LINE
  5
3947
  8
YODOROGO
 10
27902.054790808648
 20
1495.7494964292871
 30
0.0
 11
27815.546718284771
 21
1495.7494964292871
 31
0.0
1001
AUTOCAD_POSTSCRIPT_FIGURE
1002
{
1000
PSFILL
1000
Grayscale
1000
Grayscale
1070
   100
1002
}
  0
LINE
  5
3948
  8
YODOROGO
 10
27885.065004790951
 20
1536.2338106976929
 30
0.0
 11
27902.054790808648
 21
1495.7494964292871
 31
0.0
1001
AUTOCAD_POSTSCRIPT_FIGURE
1002
{
1000
PSFILL
1000
Grayscale
1000
Grayscale
1070
   100
1002
}
  0
LINE
  5
3949
  8
YODOROGO
 10
27901.065004790951
 20
1536.2338106976929
 30
0.0
 11
27885.065004790951
 21
1536.2338106976929
 31
0.0
1001
AUTOCAD_POSTSCRIPT_FIGURE
1002
{
1000
PSFILL
1000
Grayscale
1000
Grayscale
1070
   100
1002
}
  0
LINE
  5
394A
  8
YODOROGO
 10
27929.604341291921
 20
1475.7494964292871
 30
0.0
 11
27901.065004790951
 21
1536.2338106976929
 31
0.0
1001
AUTOCAD_POSTSCRIPT_FIGURE
1002
{
1000
PSFILL
1000
Grayscale
1000
Grayscale
1070
   100
1002
}
  0
LINE
  5
394B
  8
YODOROGO
 10
27785.604341291921
 20
1475.7494964292871
 30
0.0
 11
27929.604341291921
 21
1475.7494964292871
 31
0.0
1001
AUTOCAD_POSTSCRIPT_FIGURE
1002
{
1000
PSFILL
1000
Grayscale
1000
Grayscale
1070
   100
1002
}
  0
LINE
  5
394C
  8
YODOROGO
 10
27777.604341291921
 20
1619.9724140445701
 30
0.0
 11
27777.604341291921
 21
1643.9724140445701
 31
0.0
  0
LINE
  5
394D
  8
YODOROGO
 10
27937.604341291921
 20
1643.9724140445701
 30
0.0
 11
27937.604341291921
 21
1619.9724140445701
 31
0.0
  0
ARC
  5
394E
  8
YODOROGO
 10
28225.940442146959
 20
1600.877765325326
 30
0.0
 40
175.9999999999998
 50
280.3644312771313
 51
3.5414836592180561
  0
ARC
  5
394F
  8
YODOROGO
 10
28235.756030759301
 20
1633.5978069619041
 30
0.0
 40
111.9999999999982
 50
281.24905825041549
 51
348.75094174958321
  0
LINE
  5
3950
  8
YODOROGO
 10
28257.604341291921
 20
1523.7494964292871
 30
0.0
 11
28257.604341291921
 21
1427.749496429288
 31
0.0
  0
LINE
  5
3951
  8
YODOROGO
 10
28020.088903736909
 20
1610.650565061914
 30
0.0
 11
28040.913204016892
 21
1659.749496429288
 31
0.0
  0
LINE
  5
3952
  8
YODOROGO
 10
28041.604341291921
 20
1583.120489948401
 30
0.0
 11
28020.088903736909
 21
1610.650565061914
 31
0.0
  0
LINE
  5
3953
  8
YODOROGO
 10
28041.604341291921
 20
1563.120489948398
 30
0.0
 11
28041.604341291921
 21
1583.120489948401
 31
0.0
  0
LINE
  5
3954
  8
YODOROGO
 10
28017.604341291921
 20
1585.2370637495301
 30
0.0
 11
28041.604341291921
 21
1563.120489948398
 31
0.0
  0
LINE
  5
3955
  8
YODOROGO
 10
28017.604341291921
 20
1475.7494964292871
 30
0.0
 11
28017.604341291921
 21
1585.2370637495301
 31
0.0
  0
LINE
  5
3956
  8
YODOROGO
 10
28001.604341291921
 20
1475.7494964292871
 30
0.0
 11
28017.604341291921
 21
1475.7494964292871
 31
0.0
  0
LINE
  5
3957
  8
YODOROGO
 10
28001.604341291921
 20
1580.0053496897469
 30
0.0
 11
28001.604341291921
 21
1475.7494964292871
 31
0.0
  0
LINE
  5
3958
  8
YODOROGO
 10
27977.604341291921
 20
1532.7680790334291
 30
0.0
 11
28001.604341291921
 21
1580.0053496897469
 31
0.0
  0
LINE
  5
3959
  8
YODOROGO
 10
27977.604341291921
 20
1556.76807903343
 30
0.0
 11
27977.604341291921
 21
1532.7680790334291
 31
0.0
  0
LINE
  5
395A
  8
YODOROGO
 10
28025.828774291349
 20
1667.749496429285
 30
0.0
 11
27977.604341291921
 21
1556.76807903343
 31
0.0
  0
LINE
  5
395B
  8
YODOROGO
 10
27977.604341291921
 20
1667.749496429285
 30
0.0
 11
28025.828774291349
 21
1667.749496429285
 31
0.0
  0
LINE
  5
395C
  8
YODOROGO
 10
28050.135520230899
 20
1655.5036372746561
 30
0.0
 11
28082.135520230921
 21
1655.5036372746561
 31
0.0
1001
AUTOCAD_POSTSCRIPT_FIGURE
1002
{
1000
PSFILL
1000
Grayscale
1000
Grayscale
1070
   100
1002
}
  0
LINE
  5
395D
  8
YODOROGO
 10
28050.135520230899
 20
1631.5036372746561
 30
0.0
 11
28050.135520230899
 21
1655.5036372746561
 31
0.0
1001
AUTOCAD_POSTSCRIPT_FIGURE
1002
{
1000
PSFILL
1000
Grayscale
1000
Grayscale
1070
   100
1002
}
  0
LINE
  5
395E
  8
YODOROGO
 10
28082.135520230921
 20
1631.5036372746561
 30
0.0
 11
28050.135520230899
 21
1631.5036372746561
 31
0.0
1001
AUTOCAD_POSTSCRIPT_FIGURE
1002
{
1000
PSFILL
1000
Grayscale
1000
Grayscale
1070
   100
1002
}
  0
LINE
  5
395F
  8
YODOROGO
 10
28082.135520230921
 20
1499.749496429288
 30
0.0
 11
28082.135520230921
 21
1631.5036372746561
 31
0.0
1001
AUTOCAD_POSTSCRIPT_FIGURE
1002
{
1000
PSFILL
1000
Grayscale
1000
Grayscale
1070
   100
1002
}
  0
LINE
  5
3960
  8
YODOROGO
 10
28050.135520230921
 20
1499.749496429288
 30
0.0
 11
28082.135520230921
 21
1499.749496429288
 31
0.0
1001
AUTOCAD_POSTSCRIPT_FIGURE
1002
{
1000
PSFILL
1000
Grayscale
1000
Grayscale
1070
   100
1002
}
  0
LINE
  5
3961
  8
YODOROGO
 10
28050.135520230921
 20
1475.7494964292871
 30
0.0
 11
28050.135520230921
 21
1499.749496429288
 31
0.0
1001
AUTOCAD_POSTSCRIPT_FIGURE
1002
{
1000
PSFILL
1000
Grayscale
1000
Grayscale
1070
   100
1002
}
  0
LINE
  5
3962
  8
YODOROGO
 10
28137.604341291921
 20
1475.7494964292871
 30
0.0
 11
28050.135520230921
 21
1475.7494964292871
 31
0.0
1001
AUTOCAD_POSTSCRIPT_FIGURE
1002
{
1000
PSFILL
1000
Grayscale
1000
Grayscale
1070
   100
1002
}
  0
LINE
  5
3963
  8
YODOROGO
 10
28137.604341291921
 20
1499.749496429288
 30
0.0
 11
28137.604341291921
 21
1475.7494964292871
 31
0.0
1001
AUTOCAD_POSTSCRIPT_FIGURE
1002
{
1000
PSFILL
1000
Grayscale
1000
Grayscale
1070
   100
1002
}
  0
LINE
  5
3964
  8
YODOROGO
 10
28098.135520230931
 20
1499.749496429288
 30
0.0
 11
28137.604341291921
 21
1499.749496429288
 31
0.0
1001
AUTOCAD_POSTSCRIPT_FIGURE
1002
{
1000
PSFILL
1000
Grayscale
1000
Grayscale
1070
   100
1002
}
  0
LINE
  5
3965
  8
YODOROGO
 10
28098.135520230931
 20
1631.5036372746561
 30
0.0
 11
28098.135520230931
 21
1499.749496429288
 31
0.0
1001
AUTOCAD_POSTSCRIPT_FIGURE
1002
{
1000
PSFILL
1000
Grayscale
1000
Grayscale
1070
   100
1002
}
  0
LINE
  5
3966
  8
YODOROGO
 10
28137.604341291921
 20
1631.5036372746561
 30
0.0
 11
28098.135520230931
 21
1631.5036372746561
 31
0.0
1001
AUTOCAD_POSTSCRIPT_FIGURE
1002
{
1000
PSFILL
1000
Grayscale
1000
Grayscale
1070
   100
1002
}
  0
LINE
  5
3967
  8
YODOROGO
 10
28137.604341291921
 20
1655.5036372746561
 30
0.0
 11
28137.604341291921
 21
1631.5036372746561
 31
0.0
1001
AUTOCAD_POSTSCRIPT_FIGURE
1002
{
1000
PSFILL
1000
Grayscale
1000
Grayscale
1070
   100
1002
}
  0
LINE
  5
3968
  8
YODOROGO
 10
28098.135520230931
 20
1655.5036372746561
 30
0.0
 11
28137.604341291921
 21
1655.5036372746561
 31
0.0
1001
AUTOCAD_POSTSCRIPT_FIGURE
1002
{
1000
PSFILL
1000
Grayscale
1000
Grayscale
1070
   100
1002
}
  0
LINE
  5
3969
  8
YODOROGO
 10
28401.60434129191
 20
1667.749496429288
 30
0.0
 11
28345.604341291921
 21
1667.749496429288
 31
0.0
  0
LINE
  5
396A
  8
YODOROGO
 10
28401.60434129191
 20
1611.749496429288
 30
0.0
 11
28401.60434129191
 21
1667.749496429288
 31
0.0
  0
LINE
  5
396B
  8
YODOROGO
 10
28345.604341291921
 20
1667.749496429288
 30
0.0
 11
28345.604341291921
 21
1611.749496429288
 31
0.0
  0
ARC
  5
396C
  8
YODOROGO
 10
28513.60434129191
 20
1507.749496429288
 30
0.0
 40
80.0
 50
180.0
 51
270.0
  0
ARC
  5
396D
  8
YODOROGO
 10
28537.604341291921
 20
1563.7494964292871
 30
0.0
 40
40.0
 50
180.0
 51
270.0
  0
LINE
  5
396E
  8
YODOROGO
 10
28561.604341291932
 20
1523.7494964292871
 30
0.0
 11
28537.604341291921
 21
1523.7494964292871
 31
0.0
  0
ARC
  5
396F
  8
YODOROGO
 10
28561.604341291932
 20
1547.749496429285
 30
0.0
 40
23.999999999996358
 50
270.0
 51
0.0000000000054281
  0
LINE
  5
3970
  8
YODOROGO
 10
27801.604341291921
 20
1890.786580793706
 30
0.0
 11
27777.604341291921
 21
1843.776747951672
 31
0.0
1001
AUTOCAD_POSTSCRIPT_FIGURE
1002
{
1000
PSFILL
1000
Grayscale
1000
Grayscale
1070
   100
1002
}
  0
LINE
  5
3971
  8
YODOROGO
 10
27801.604341291921
 20
1747.749496429286
 30
0.0
 11
27801.604341291921
 21
1890.786580793706
 31
0.0
1001
AUTOCAD_POSTSCRIPT_FIGURE
1002
{
1000
PSFILL
1000
Grayscale
1000
Grayscale
1070
   100
1002
}
  0
LINE
  5
3972
  8
YODOROGO
 10
27817.604341291921
 20
1747.749496429286
 30
0.0
 11
27801.604341291921
 21
1747.749496429286
 31
0.0
1001
AUTOCAD_POSTSCRIPT_FIGURE
1002
{
1000
PSFILL
1000
Grayscale
1000
Grayscale
1070
   100
1002
}
  0
LINE
  5
3973
  8
YODOROGO
 10
27817.604341291921
 20
1893.7713320852661
 30
0.0
 11
27817.604341291921
 21
1747.749496429286
 31
0.0
1001
AUTOCAD_POSTSCRIPT_FIGURE
1002
{
1000
PSFILL
1000
Grayscale
1000
Grayscale
1070
   100
1002
}
  0
LINE
  5
3974
  8
YODOROGO
 10
27841.604341291921
 20
1867.6547582841361
 30
0.0
 11
27817.604341291921
 21
1893.7713320852661
 31
0.0
1001
AUTOCAD_POSTSCRIPT_FIGURE
1002
{
1000
PSFILL
1000
Grayscale
1000
Grayscale
1070
   100
1002
}
  0
LINE
  5
3975
  8
YODOROGO
 10
27841.604341291921
 20
1883.6547582841361
 30
0.0
 11
27841.604341291921
 21
1867.6547582841361
 31
0.0
1001
AUTOCAD_POSTSCRIPT_FIGURE
1002
{
1000
PSFILL
1000
Grayscale
1000
Grayscale
1070
   100
1002
}
  0
LINE
  5
3976
  8
YODOROGO
 10
27817.604341291921
 20
1917.7713320852649
 30
0.0
 11
27841.604341291921
 21
1883.6547582841361
 31
0.0
1001
AUTOCAD_POSTSCRIPT_FIGURE
1002
{
1000
PSFILL
1000
Grayscale
1000
Grayscale
1070
   100
1002
}
  0
LINE
  5
3977
  8
YODOROGO
 10
27817.604341291921
 20
1939.749496429288
 30
0.0
 11
27817.604341291921
 21
1917.7713320852649
 31
0.0
1001
AUTOCAD_POSTSCRIPT_FIGURE
1002
{
1000
PSFILL
1000
Grayscale
1000
Grayscale
1070
   100
1002
}
  0
LINE
  5
3978
  8
YODOROGO
 10
27889.604341291921
 20
1939.749496429288
 30
0.0
 11
27817.604341291921
 21
1939.749496429288
 31
0.0
1001
AUTOCAD_POSTSCRIPT_FIGURE
1002
{
1000
PSFILL
1000
Grayscale
1000
Grayscale
1070
   100
1002
}
  0
LINE
  5
3979
  8
YODOROGO
 10
27889.604341291921
 20
1900.5683489363
 30
0.0
 11
27889.604341291921
 21
1939.749496429288
 31
0.0
1001
AUTOCAD_POSTSCRIPT_FIGURE
1002
{
1000
PSFILL
1000
Grayscale
1000
Grayscale
1070
   100
1002
}
  0
LINE
  5
397A
  8
YODOROGO
 10
27857.604341291921
 20
1900.5683489363
 30
0.0
 11
27889.604341291921
 21
1900.5683489363
 31
0.0
1001
AUTOCAD_POSTSCRIPT_FIGURE
1002
{
1000
PSFILL
1000
Grayscale
1000
Grayscale
1070
   100
1002
}
  0
LINE
  5
397B
  8
YODOROGO
 10
27857.604341291921
 20
1884.568348936298
 30
0.0
 11
27857.604341291921
 21
1900.5683489363
 31
0.0
1001
AUTOCAD_POSTSCRIPT_FIGURE
1002
{
1000
PSFILL
1000
Grayscale
1000
Grayscale
1070
   100
1002
}
  0
LINE
  5
397C
  8
YODOROGO
 10
27889.604341291921
 20
1884.568348936298
 30
0.0
 11
27857.604341291921
 21
1884.568348936298
 31
0.0
1001
AUTOCAD_POSTSCRIPT_FIGURE
1002
{
1000
PSFILL
1000
Grayscale
1000
Grayscale
1070
   100
1002
}
  0
LINE
  5
397D
  8
YODOROGO
 10
27889.604341291921
 20
1879.6191779644371
 30
0.0
 11
27889.604341291921
 21
1884.568348936298
 31
0.0
1001
AUTOCAD_POSTSCRIPT_FIGURE
1002
{
1000
PSFILL
1000
Grayscale
1000
Grayscale
1070
   100
1002
}
  0
LINE
  5
397E
  8
YODOROGO
 10
27849.604341291921
 20
1812.974981161417
 30
0.0
 11
27889.604341291921
 21
1879.6191779644371
 31
0.0
1001
AUTOCAD_POSTSCRIPT_FIGURE
1002
{
1000
PSFILL
1000
Grayscale
1000
Grayscale
1070
   100
1002
}
  0
LINE
  5
397F
  8
YODOROGO
 10
27849.604341291921
 20
1796.9749811614161
 30
0.0
 11
27849.604341291921
 21
1812.974981161417
 31
0.0
1001
AUTOCAD_POSTSCRIPT_FIGURE
1002
{
1000
PSFILL
1000
Grayscale
1000
Grayscale
1070
   100
1002
}
  0
LINE
  5
3980
  8
YODOROGO
 10
27889.604341291921
 20
1847.6191779644359
 30
0.0
 11
27849.604341291921
 21
1796.9749811614161
 31
0.0
1001
AUTOCAD_POSTSCRIPT_FIGURE
1002
{
1000
PSFILL
1000
Grayscale
1000
Grayscale
1070
   100
1002
}
  0
LINE
  5
3981
  8
YODOROGO
 10
27889.604341291921
 20
1747.749496429286
 30
0.0
 11
27889.604341291921
 21
1847.6191779644359
 31
0.0
1001
AUTOCAD_POSTSCRIPT_FIGURE
1002
{
1000
PSFILL
1000
Grayscale
1000
Grayscale
1070
   100
1002
}
  0
LINE
  5
3982
  8
YODOROGO
 10
27905.604341291921
 20
1747.749496429286
 30
0.0
 11
27889.604341291921
 21
1747.749496429286
 31
0.0
1001
AUTOCAD_POSTSCRIPT_FIGURE
1002
{
1000
PSFILL
1000
Grayscale
1000
Grayscale
1070
   100
1002
}
  0
LINE
  5
3983
  8
YODOROGO
 10
27905.604341291921
 20
1849.409012158806
 30
0.0
 11
27905.604341291921
 21
1747.749496429286
 31
0.0
1001
AUTOCAD_POSTSCRIPT_FIGURE
1002
{
1000
PSFILL
1000
Grayscale
1000
Grayscale
1070
   100
1002
}
  0
LINE
  5
3984
  8
YODOROGO
 10
27937.604341291921
 20
1796.9749811614161
 30
0.0
 11
27905.604341291921
 21
1849.409012158806
 31
0.0
1001
AUTOCAD_POSTSCRIPT_FIGURE
1002
{
1000
PSFILL
1000
Grayscale
1000
Grayscale
1070
   100
1002
}
  0
LINE
  5
3985
  8
YODOROGO
 10
27937.604341291921
 20
1812.974981161417
 30
0.0
 11
27937.604341291921
 21
1796.9749811614161
 31
0.0
1001
AUTOCAD_POSTSCRIPT_FIGURE
1002
{
1000
PSFILL
1000
Grayscale
1000
Grayscale
1070
   100
1002
}
  0
LINE
  5
3986
  8
YODOROGO
 10
27905.604341291921
 20
1881.4090121588081
 30
0.0
 11
27937.604341291921
 21
1812.974981161417
 31
0.0
1001
AUTOCAD_POSTSCRIPT_FIGURE
1002
{
1000
PSFILL
1000
Grayscale
1000
Grayscale
1070
   100
1002
}
  0
LINE
  5
3987
  8
YODOROGO
 10
27905.604341291921
 20
1884.5683489363
 30
0.0
 11
27905.604341291921
 21
1881.4090121588081
 31
0.0
1001
AUTOCAD_POSTSCRIPT_FIGURE
1002
{
1000
PSFILL
1000
Grayscale
1000
Grayscale
1070
   100
1002
}
  0
LINE
  5
3988
  8
YODOROGO
 10
27937.604341291921
 20
1884.568348936298
 30
0.0
 11
27905.604341291921
 21
1884.5683489363
 31
0.0
1001
AUTOCAD_POSTSCRIPT_FIGURE
1002
{
1000
PSFILL
1000
Grayscale
1000
Grayscale
1070
   100
1002
}
  0
LINE
  5
3989
  8
YODOROGO
 10
27937.604341291921
 20
1900.5683489363
 30
0.0
 11
27937.604341291921
 21
1884.568348936298
 31
0.0
1001
AUTOCAD_POSTSCRIPT_FIGURE
1002
{
1000
PSFILL
1000
Grayscale
1000
Grayscale
1070
   100
1002
}
  0
LINE
  5
398A
  8
YODOROGO
 10
27905.604341291921
 20
1900.5683489363
 30
0.0
 11
27937.604341291921
 21
1900.5683489363
 31
0.0
1001
AUTOCAD_POSTSCRIPT_FIGURE
1002
{
1000
PSFILL
1000
Grayscale
1000
Grayscale
1070
   100
1002
}
  0
LINE
  5
398B
  8
YODOROGO
 10
27905.604341291921
 20
1939.749496429288
 30
0.0
 11
27905.604341291921
 21
1900.5683489363
 31
0.0
1001
AUTOCAD_POSTSCRIPT_FIGURE
1002
{
1000
PSFILL
1000
Grayscale
1000
Grayscale
1070
   100
1002
}
  0
LINE
  5
398C
  8
YODOROGO
 10
27937.604341291921
 20
1939.749496429288
 30
0.0
 11
27905.604341291921
 21
1939.749496429288
 31
0.0
1001
AUTOCAD_POSTSCRIPT_FIGURE
1002
{
1000
PSFILL
1000
Grayscale
1000
Grayscale
1070
   100
1002
}
  0
LINE
  5
398D
  8
YODOROGO
 10
27937.604341291921
 20
1955.7494964292871
 30
0.0
 11
27937.604341291921
 21
1939.749496429288
 31
0.0
1001
AUTOCAD_POSTSCRIPT_FIGURE
1002
{
1000
PSFILL
1000
Grayscale
1000
Grayscale
1070
   100
1002
}
  0
LINE
  5
398E
  8
YODOROGO
 10
27905.604341291921
 20
1955.7494964292871
 30
0.0
 11
27937.604341291921
 21
1955.7494964292871
 31
0.0
1001
AUTOCAD_POSTSCRIPT_FIGURE
1002
{
1000
PSFILL
1000
Grayscale
1000
Grayscale
1070
   100
1002
}
  0
LINE
  5
398F
  8
YODOROGO
 10
27905.604341291921
 20
1979.749496429288
 30
0.0
 11
27905.604341291921
 21
1955.7494964292871
 31
0.0
1001
AUTOCAD_POSTSCRIPT_FIGURE
1002
{
1000
PSFILL
1000
Grayscale
1000
Grayscale
1070
   100
1002
}
  0
LINE
  5
3990
  8
YODOROGO
 10
27889.604341291921
 20
1979.749496429288
 30
0.0
 11
27905.604341291921
 21
1979.749496429288
 31
0.0
1001
AUTOCAD_POSTSCRIPT_FIGURE
1002
{
1000
PSFILL
1000
Grayscale
1000
Grayscale
1070
   100
1002
}
  0
LINE
  5
3991
  8
YODOROGO
 10
27889.604341291921
 20
1955.7494964292871
 30
0.0
 11
27889.604341291921
 21
1979.749496429288
 31
0.0
1001
AUTOCAD_POSTSCRIPT_FIGURE
1002
{
1000
PSFILL
1000
Grayscale
1000
Grayscale
1070
   100
1002
}
  0
LINE
  5
3992
  8
YODOROGO
 10
27865.604341291921
 20
1955.7494964292871
 30
0.0
 11
27889.604341291921
 21
1955.7494964292871
 31
0.0
1001
AUTOCAD_POSTSCRIPT_FIGURE
1002
{
1000
PSFILL
1000
Grayscale
1000
Grayscale
1070
   100
1002
}
  0
LINE
  5
3993
  8
YODOROGO
 10
27865.604341291921
 20
1979.749496429288
 30
0.0
 11
27865.604341291921
 21
1955.7494964292871
 31
0.0
1001
AUTOCAD_POSTSCRIPT_FIGURE
1002
{
1000
PSFILL
1000
Grayscale
1000
Grayscale
1070
   100
1002
}
  0
LINE
  5
3994
  8
YODOROGO
 10
27849.604341291921
 20
1979.749496429288
 30
0.0
 11
27865.604341291921
 21
1979.749496429288
 31
0.0
1001
AUTOCAD_POSTSCRIPT_FIGURE
1002
{
1000
PSFILL
1000
Grayscale
1000
Grayscale
1070
   100
1002
}
  0
LINE
  5
3995
  8
YODOROGO
 10
27849.604341291921
 20
1955.7494964292871
 30
0.0
 11
27849.604341291921
 21
1979.749496429288
 31
0.0
1001
AUTOCAD_POSTSCRIPT_FIGURE
1002
{
1000
PSFILL
1000
Grayscale
1000
Grayscale
1070
   100
1002
}
  0
LINE
  5
3996
  8
YODOROGO
 10
27817.604341291921
 20
1955.7494964292871
 30
0.0
 11
27849.604341291921
 21
1955.7494964292871
 31
0.0
1001
AUTOCAD_POSTSCRIPT_FIGURE
1002
{
1000
PSFILL
1000
Grayscale
1000
Grayscale
1070
   100
1002
}
  0
LINE
  5
3997
  8
YODOROGO
 10
27817.604341291921
 20
1979.749496429288
 30
0.0
 11
27817.604341291921
 21
1955.7494964292871
 31
0.0
1001
AUTOCAD_POSTSCRIPT_FIGURE
1002
{
1000
PSFILL
1000
Grayscale
1000
Grayscale
1070
   100
1002
}
  0
LINE
  5
3998
  8
YODOROGO
 10
27801.604341291921
 20
1979.749496429288
 30
0.0
 11
27817.604341291921
 21
1979.749496429288
 31
0.0
1001
AUTOCAD_POSTSCRIPT_FIGURE
1002
{
1000
PSFILL
1000
Grayscale
1000
Grayscale
1070
   100
1002
}
  0
LINE
  5
3999
  8
YODOROGO
 10
27801.604341291921
 20
1955.7494964292871
 30
0.0
 11
27801.604341291921
 21
1979.749496429288
 31
0.0
1001
AUTOCAD_POSTSCRIPT_FIGURE
1002
{
1000
PSFILL
1000
Grayscale
1000
Grayscale
1070
   100
1002
}
  0
LINE
  5
399A
  8
YODOROGO
 10
27777.604341291921
 20
1955.7494964292871
 30
0.0
 11
27801.604341291921
 21
1955.7494964292871
 31
0.0
1001
AUTOCAD_POSTSCRIPT_FIGURE
1002
{
1000
PSFILL
1000
Grayscale
1000
Grayscale
1070
   100
1002
}
  0
LINE
  5
399B
  8
YODOROGO
 10
27777.604341291921
 20
1939.749496429288
 30
0.0
 11
27777.604341291921
 21
1955.7494964292871
 31
0.0
1001
AUTOCAD_POSTSCRIPT_FIGURE
1002
{
1000
PSFILL
1000
Grayscale
1000
Grayscale
1070
   100
1002
}
  0
LINE
  5
399C
  8
YODOROGO
 10
27801.604341291921
 20
1939.749496429288
 30
0.0
 11
27777.604341291921
 21
1939.749496429288
 31
0.0
1001
AUTOCAD_POSTSCRIPT_FIGURE
1002
{
1000
PSFILL
1000
Grayscale
1000
Grayscale
1070
   100
1002
}
  0
LINE
  5
399D
  8
YODOROGO
 10
27801.604341291921
 20
1914.7865807937051
 30
0.0
 11
27801.604341291921
 21
1939.749496429288
 31
0.0
1001
AUTOCAD_POSTSCRIPT_FIGURE
1002
{
1000
PSFILL
1000
Grayscale
1000
Grayscale
1070
   100
1002
}
  0
LINE
  5
399E
  8
YODOROGO
 10
27777.604341291921
 20
1859.776747951671
 30
0.0
 11
27801.604341291921
 21
1914.7865807937051
 31
0.0
1001
AUTOCAD_POSTSCRIPT_FIGURE
1002
{
1000
PSFILL
1000
Grayscale
1000
Grayscale
1070
   100
1002
}
  0
LINE
  5
399F
  8
YODOROGO
 10
27777.604341291921
 20
1843.776747951672
 30
0.0
 11
27777.604341291921
 21
1859.776747951671
 31
0.0
1001
AUTOCAD_POSTSCRIPT_FIGURE
1002
{
1000
PSFILL
1000
Grayscale
1000
Grayscale
1070
   100
1002
}
  0
LINE
  5
39A0
  8
YODOROGO
 10
28257.604341291921
 20
1867.7494964292871
 30
0.0
 11
28401.60434129191
 21
1824.877625640306
 31
0.0
1001
AUTOCAD_POSTSCRIPT_FIGURE
1002
{
1000
PSFILL
1000
Grayscale
1000
Grayscale
1070
   100
1002
}
  0
LINE
  5
39A1
  8
YODOROGO
 10
28401.60434129191
 20
1752.877625640306
 30
0.0
 11
28257.604341291921
 21
1795.7494964292871
 31
0.0
1001
AUTOCAD_POSTSCRIPT_FIGURE
1002
{
1000
PSFILL
1000
Grayscale
1000
Grayscale
1070
   100
1002
}
  0
LINE
  5
39A2
  8
YODOROGO
 10
28401.60434129191
 20
1984.877625640306
 30
0.0
 11
28257.604341291921
 21
2027.749496429288
 31
0.0
1001
AUTOCAD_POSTSCRIPT_FIGURE
1002
{
1000
PSFILL
1000
Grayscale
1000
Grayscale
1070
   100
1002
}
  0
LINE
  5
39A3
  8
YODOROGO
 10
28257.604341291921
 20
1959.749496429288
 30
0.0
 11
28401.60434129191
 21
1916.8776256403071
 31
0.0
1001
AUTOCAD_POSTSCRIPT_FIGURE
1002
{
1000
PSFILL
1000
Grayscale
1000
Grayscale
1070
   100
1002
}
  0
LINE
  5
39A4
  8
YODOROGO
 10
28257.604341291921
 20
1795.7494964292871
 30
0.0
 11
28257.604341291921
 21
1867.7494964292871
 31
0.0
1001
AUTOCAD_POSTSCRIPT_FIGURE
1002
{
1000
PSFILL
1000
Grayscale
1000
Grayscale
1070
   100
1002
}
  0
LINE
  5
39A5
  8
YODOROGO
 10
28257.604341291921
 20
2027.749496429288
 30
0.0
 11
28257.604341291921
 21
1959.749496429288
 31
0.0
1001
AUTOCAD_POSTSCRIPT_FIGURE
1002
{
1000
PSFILL
1000
Grayscale
1000
Grayscale
1070
   100
1002
}
  0
LINE
  5
39A6
  8
YODOROGO
 10
28080.236320206739
 20
1939.749496429288
 30
0.0
 11
28129.60434129191
 21
1747.749496429286
 31
0.0
1001
AUTOCAD_POSTSCRIPT_FIGURE
1002
{
1000
PSFILL
1000
Grayscale
1000
Grayscale
1070
   100
1002
}
  0
LINE
  5
39A7
  8
YODOROGO
 10
27977.604341291921
 20
1939.749496429288
 30
0.0
 11
28080.236320206739
 21
1939.749496429288
 31
0.0
1001
AUTOCAD_POSTSCRIPT_FIGURE
1002
{
1000
PSFILL
1000
Grayscale
1000
Grayscale
1070
   100
1002
}
  0
LINE
  5
39A8
  8
YODOROGO
 10
27977.604341291921
 20
1955.7494964292871
 30
0.0
 11
27977.604341291921
 21
1939.749496429288
 31
0.0
1001
AUTOCAD_POSTSCRIPT_FIGURE
1002
{
1000
PSFILL
1000
Grayscale
1000
Grayscale
1070
   100
1002
}
  0
LINE
  5
39A9
  8
YODOROGO
 10
28076.60687851991
 20
1955.7494964292871
 30
0.0
 11
27977.604341291921
 21
1955.7494964292871
 31
0.0
1001
AUTOCAD_POSTSCRIPT_FIGURE
1002
{
1000
PSFILL
1000
Grayscale
1000
Grayscale
1070
   100
1002
}
  0
LINE
  5
39AA
  8
YODOROGO
 10
28071.162715989711
 20
1979.749496429288
 30
0.0
 11
28076.60687851991
 21
1955.7494964292871
 31
0.0
1001
AUTOCAD_POSTSCRIPT_FIGURE
1002
{
1000
PSFILL
1000
Grayscale
1000
Grayscale
1070
   100
1002
}
  0
LINE
  5
39AB
  8
YODOROGO
 10
28091.162715989711
 20
1979.749496429288
 30
0.0
 11
28071.162715989711
 21
1979.749496429288
 31
0.0
1001
AUTOCAD_POSTSCRIPT_FIGURE
1002
{
1000
PSFILL
1000
Grayscale
1000
Grayscale
1070
   100
1002
}
  0
LINE
  5
39AC
  8
YODOROGO
 10
28095.806878519939
 20
1955.7494964292871
 30
0.0
 11
28091.162715989711
 21
1979.749496429288
 31
0.0
1001
AUTOCAD_POSTSCRIPT_FIGURE
1002
{
1000
PSFILL
1000
Grayscale
1000
Grayscale
1070
   100
1002
}
  0
LINE
  5
39AD
  8
YODOROGO
 10
28121.604341291921
 20
1955.7494964292871
 30
0.0
 11
28095.806878519939
 21
1955.7494964292871
 31
0.0
1001
AUTOCAD_POSTSCRIPT_FIGURE
1002
{
1000
PSFILL
1000
Grayscale
1000
Grayscale
1070
   100
1002
}
  0
LINE
  5
39AE
  8
YODOROGO
 10
28121.604341291921
 20
1979.749496429288
 30
0.0
 11
28121.604341291921
 21
1955.7494964292871
 31
0.0
1001
AUTOCAD_POSTSCRIPT_FIGURE
1002
{
1000
PSFILL
1000
Grayscale
1000
Grayscale
1070
   100
1002
}
  0
LINE
  5
39AF
  8
YODOROGO
 10
28137.604341291921
 20
1979.749496429288
 30
0.0
 11
28121.604341291921
 21
1979.749496429288
 31
0.0
1001
AUTOCAD_POSTSCRIPT_FIGURE
1002
{
1000
PSFILL
1000
Grayscale
1000
Grayscale
1070
   100
1002
}
  0
LINE
  5
39B0
  8
YODOROGO
 10
28137.604341291921
 20
1955.7494964292871
 30
0.0
 11
28137.604341291921
 21
1979.749496429288
 31
0.0
1001
AUTOCAD_POSTSCRIPT_FIGURE
1002
{
1000
PSFILL
1000
Grayscale
1000
Grayscale
1070
   100
1002
}
  0
LINE
  5
39B1
  8
YODOROGO
 10
28137.604341291921
 20
1939.749496429288
 30
0.0
 11
28137.604341291921
 21
1955.7494964292871
 31
0.0
1001
AUTOCAD_POSTSCRIPT_FIGURE
1002
{
1000
PSFILL
1000
Grayscale
1000
Grayscale
1070
   100
1002
}
  0
LINE
  5
39B2
  8
YODOROGO
 10
28098.902986873411
 20
1939.749496429288
 30
0.0
 11
28137.604341291921
 21
1939.749496429288
 31
0.0
1001
AUTOCAD_POSTSCRIPT_FIGURE
1002
{
1000
PSFILL
1000
Grayscale
1000
Grayscale
1070
   100
1002
}
  0
LINE
  5
39B3
  8
YODOROGO
 10
28137.604341291921
 20
1747.749496429286
 30
0.0
 11
28098.902986873411
 21
1939.749496429288
 31
0.0
1001
AUTOCAD_POSTSCRIPT_FIGURE
1002
{
1000
PSFILL
1000
Grayscale
1000
Grayscale
1070
   100
1002
}
  0
LINE
  5
39B4
  8
YODOROGO
 10
28129.60434129191
 20
1747.749496429286
 30
0.0
 11
28137.604341291921
 21
1747.749496429286
 31
0.0
1001
AUTOCAD_POSTSCRIPT_FIGURE
1002
{
1000
PSFILL
1000
Grayscale
1000
Grayscale
1070
   100
1002
}
  0
LINE
  5
39B5
  8
YODOROGO
 10
28078.06921993379
 20
1775.7407762987939
 30
0.0
 11
27977.604341291921
 21
1747.749496429286
 31
0.0
  0
LINE
  5
39B6
  8
YODOROGO
 10
28078.06921993379
 20
1798.6689795290731
 30
0.0
 11
28078.06921993379
 21
1775.7407762987939
 31
0.0
  0
LINE
  5
39B7
  8
YODOROGO
 10
28033.83678061287
 20
1786.816933133767
 30
0.0
 11
28078.06921993379
 21
1798.6689795290731
 31
0.0
  0
LINE
  5
39B8
  8
YODOROGO
 10
28033.83678061287
 20
1872.5683489362989
 30
0.0
 11
28033.83678061287
 21
1786.816933133767
 31
0.0
  0
LINE
  5
39B9
  8
YODOROGO
 10
28078.06921993379
 20
1872.5683489362989
 30
0.0
 11
28033.83678061287
 21
1872.5683489362989
 31
0.0
  0
LINE
  5
39BA
  8
YODOROGO
 10
28078.06921993379
 20
1892.568348936298
 30
0.0
 11
28078.06921993379
 21
1872.5683489362989
 31
0.0
  0
LINE
  5
39BB
  8
YODOROGO
 10
27977.604341291921
 20
1892.568348936298
 30
0.0
 11
28078.06921993379
 21
1892.568348936298
 31
0.0
  0
LINE
  5
39BC
  8
YODOROGO
 10
27977.604341291921
 20
1872.5683489362989
 30
0.0
 11
27977.604341291921
 21
1892.568348936298
 31
0.0
  0
LINE
  5
39BD
  8
YODOROGO
 10
28021.836780612852
 20
1872.5683489362989
 30
0.0
 11
27977.604341291921
 21
1872.5683489362989
 31
0.0
  0
LINE
  5
39BE
  8
YODOROGO
 10
28021.836780612852
 20
1784.673339594317
 30
0.0
 11
28021.836780612852
 21
1872.5683489362989
 31
0.0
  0
LINE
  5
39BF
  8
YODOROGO
 10
27977.604341291921
 20
1771.749496429286
 30
0.0
 11
28021.836780612852
 21
1784.673339594317
 31
0.0
  0
LINE
  5
39C0
  8
YODOROGO
 10
27977.604341291921
 20
1747.749496429286
 30
0.0
 11
27977.604341291921
 21
1771.749496429286
 31
0.0
  0
LINE
  5
39C1
  8
YODOROGO
 10
28001.604341291921
 20
1707.749496429288
 30
0.0
 11
28001.604341291921
 21
1683.7494964292871
 31
0.0
  0
LINE
  5
39C2
  8
YODOROGO
 10
28017.604341291921
 20
1707.749496429288
 30
0.0
 11
28001.604341291921
 21
1707.749496429288
 31
0.0
  0
LINE
  5
39C3
  8
YODOROGO
 10
28017.604341291921
 20
1683.7494964292871
 30
0.0
 11
28017.604341291921
 21
1707.749496429288
 31
0.0
  0
LINE
  5
39C4
  8
YODOROGO
 10
28040.913204016892
 20
1683.7494964292871
 30
0.0
 11
28017.604341291921
 21
1683.7494964292871
 31
0.0
  0
LINE
  5
39C5
  8
YODOROGO
 10
28001.604341291921
 20
1683.7494964292871
 30
0.0
 11
27977.604341291921
 21
1683.7494964292871
 31
0.0
  0
LINE
  5
39C6
  8
YODOROGO
 10
28082.135520230921
 20
1707.749496429288
 30
0.0
 11
28098.135520230931
 21
1707.749496429288
 31
0.0
1001
AUTOCAD_POSTSCRIPT_FIGURE
1002
{
1000
PSFILL
1000
Grayscale
1000
Grayscale
1070
   100
1002
}
  0
LINE
  5
39C7
  8
YODOROGO
 10
28401.60434129191
 20
1824.877625640306
 30
0.0
 11
28401.60434129191
 21
1752.877625640306
 31
0.0
1001
AUTOCAD_POSTSCRIPT_FIGURE
1002
{
1000
PSFILL
1000
Grayscale
1000
Grayscale
1070
   100
1002
}
  0
LINE
  5
39C8
  8
YODOROGO
 10
28401.60434129191
 20
1916.8776256403071
 30
0.0
 11
28401.60434129191
 21
1984.877625640306
 31
0.0
1001
AUTOCAD_POSTSCRIPT_FIGURE
1002
{
1000
PSFILL
1000
Grayscale
1000
Grayscale
1070
   100
1002
}
  0
LINE
  5
39C9
  8
YODOROGO
 10
28433.60434129191
 20
1819.7494964292871
 30
0.0
 11
28433.60434129191
 21
1747.74949642929
 31
0.0
  0
LINE
  5
39CA
  8
YODOROGO
 10
28497.60434129191
 20
1707.749496429288
 30
0.0
 11
28433.60434129191
 21
1707.749496429288
 31
0.0
  0
LINE
  5
39CB
  8
YODOROGO
 10
28433.60434129191
 20
1747.74949642929
 30
0.0
 11
28585.604341291921
 21
1747.74949642929
 31
0.0
  0
LINE
  5
39CC
  8
YODOROGO
 10
28497.60434129191
 20
1867.7494964292871
 30
0.0
 11
28433.60434129191
 21
1867.7494964292871
 31
0.0
  0
LINE
  5
39CD
  8
YODOROGO
 10
28497.60434129191
 20
1923.7494964292871
 30
0.0
 11
28497.60434129191
 21
1867.7494964292871
 31
0.0
  0
LINE
  5
39CE
  8
YODOROGO
 10
28585.604341291921
 20
1987.7494964292871
 30
0.0
 11
28585.604341291921
 21
2027.749496429288
 31
0.0
  0
LINE
  5
39CF
  8
YODOROGO
 10
28433.60434129191
 20
1987.7494964292871
 30
0.0
 11
28585.604341291921
 21
1987.7494964292871
 31
0.0
  0
LINE
  5
39D0
  8
YODOROGO
 10
28433.60434129191
 20
1867.7494964292871
 30
0.0
 11
28433.60434129191
 21
1987.7494964292871
 31
0.0
  0
LINE
  5
39D1
  8
YODOROGO
 10
29001.60434129191
 20
2027.749496429288
 30
0.0
 11
29001.60434129191
 21
1619.749496429288
 31
0.0
  0
LINE
  5
39D2
  8
YODOROGO
 10
29073.604341291921
 20
1579.749496429288
 30
0.0
 11
29073.604341291921
 21
2027.749496429288
 31
0.0
  0
LINE
  5
39D3
  8
YODOROGO
 10
29261.604341291921
 20
1491.749496429286
 30
0.0
 11
29261.604341291921
 21
2007.749496429288
 31
0.0
  0
LINE
  5
39D4
  8
YODOROGO
 10
29197.604341291921
 20
2007.749496429288
 30
0.0
 11
29197.604341291921
 21
1491.749496429286
 31
0.0
  0
LINE
  5
39D5
  8
YODOROGO
 10
29385.604341291921
 20
2027.749496429288
 30
0.0
 11
29385.604341291921
 21
1427.749496429288
 31
0.0
  0
LINE
  5
39D6
  8
YODOROGO
 10
29457.604341291921
 20
1427.749496429288
 30
0.0
 11
29457.604341291921
 21
2027.749496429288
 31
0.0
  0
LINE
  5
39D7
  8
YODOROGO
 10
28657.604341291921
 20
1667.749496429288
 30
0.0
 11
28657.604341291921
 21
1747.74949642929
 31
0.0
  0
LINE
  5
39D8
  8
YODOROGO
 10
29885.604341291921
 20
1707.749496429288
 30
0.0
 11
29885.604341291921
 21
1667.749496429288
 31
0.0
  0
LINE
  5
39D9
  8
YODOROGO
 10
29885.604341291921
 20
1707.749496429288
 30
0.0
 11
29885.604341291921
 21
1667.749496429288
 31
0.0
  0
ARC
  5
39DA
  8
YODOROGO
 10
28906.911576186842
 20
1618.217864442272
 30
0.0
 40
94.705151178741644
 50
274.05244162907098
 51
0.9266642149310712
  0
ARC
  5
39DB
  8
YODOROGO
 10
28909.186170719819
 20
1592.61072861044
 30
0.0
 40
164.92042356085511
 50
271.5351210653775
 51
355.52727750585052
  0
LINE
  5
39DC
  8
YODOROGO
 10
28913.604341291921
 20
1523.7494964292871
 30
0.0
 11
28913.604341291921
 21
1427.749496429288
 31
0.0
  0
LINE
  5
39DD
  8
YODOROGO
 10
28793.60434129191
 20
1667.749496429288
 30
0.0
 11
28657.604341291921
 21
1667.749496429288
 31
0.0
  0
LINE
  5
39DE
  8
YODOROGO
 10
28793.60434129191
 20
1603.7494964292871
 30
0.0
 11
28793.60434129191
 21
1667.749496429288
 31
0.0
  0
LINE
  5
39DF
  8
YODOROGO
 10
28657.604341291921
 20
1603.7494964292871
 30
0.0
 11
28793.60434129191
 21
1603.7494964292871
 31
0.0
  0
LINE
  5
39E0
  8
YODOROGO
 10
28657.604341291921
 20
1523.7494964292871
 30
0.0
 11
28657.604341291921
 21
1603.7494964292871
 31
0.0
  0
LINE
  5
39E1
  8
YODOROGO
 10
28793.60434129191
 20
1523.7494964292871
 30
0.0
 11
28657.604341291921
 21
1523.7494964292871
 31
0.0
  0
LINE
  5
39E2
  8
YODOROGO
 10
28793.60434129191
 20
1427.749496429288
 30
0.0
 11
28793.60434129191
 21
1523.7494964292871
 31
0.0
  0
LINE
  5
39E3
  8
YODOROGO
 10
29197.604341291921
 20
1491.749496429286
 30
0.0
 11
29261.604341291921
 21
1491.749496429286
 31
0.0
  0
LINE
  5
39E4
  8
YODOROGO
 10
29385.604341291921
 20
1427.749496429288
 30
0.0
 11
29457.604341291921
 21
1427.749496429288
 31
0.0
  0
LINE
  5
39E5
  8
YODOROGO
 10
29737.604341291921
 20
1528.4414521705639
 30
0.0
 11
29737.604341291921
 21
1427.749496429288
 31
0.0
  0
LINE
  5
39E6
  8
YODOROGO
 10
29617.604341291921
 20
1427.749496429288
 30
0.0
 11
29737.604341291921
 21
1528.4414521705639
 31
0.0
  0
LINE
  5
39E7
  8
YODOROGO
 10
29617.604341291921
 20
1547.749496429288
 30
0.0
 11
29617.604341291921
 21
1427.749496429288
 31
0.0
  0
LINE
  5
39E8
  8
YODOROGO
 10
29712.94462869945
 20
1627.749496429288
 30
0.0
 11
29617.604341291921
 21
1547.749496429288
 31
0.0
  0
LINE
  5
39E9
  8
YODOROGO
 10
29617.604341291921
 20
1627.749496429288
 30
0.0
 11
29712.94462869945
 21
1627.749496429288
 31
0.0
  0
LINE
  5
39EA
  8
YODOROGO
 10
29617.604341291921
 20
1667.749496429288
 30
0.0
 11
29617.604341291921
 21
1627.749496429288
 31
0.0
  0
LINE
  5
39EB
  8
YODOROGO
 10
29885.604341291921
 20
1667.749496429288
 30
0.0
 11
29617.604341291921
 21
1667.749496429288
 31
0.0
  0
LINE
  5
39EC
  8
YODOROGO
 10
29917.604341291921
 20
1627.749496429288
 30
0.0
 11
29777.604341291921
 21
1627.749496429288
 31
0.0
  0
LINE
  5
39ED
  8
YODOROGO
 10
29777.604341291921
 20
1562.0054374176559
 30
0.0
 11
29771.409872985321
 21
1556.807661346234
 31
0.0
  0
LINE
  5
39EE
  8
YODOROGO
 10
29777.604341291921
 20
1627.749496429288
 30
0.0
 11
29777.604341291921
 21
1562.0054374176559
 31
0.0
  0
LINE
  5
39EF
  8
YODOROGO
 10
29737.604341291921
 20
1528.4414521705639
 30
0.0
 11
29737.604341291921
 21
1427.749496429288
 31
0.0
  0
LINE
  5
39F0
  8
YODOROGO
 10
29617.604341291921
 20
1427.749496429288
 30
0.0
 11
29737.604341291921
 21
1528.4414521705639
 31
0.0
  0
LINE
  5
39F1
  8
YODOROGO
 10
29617.604341291921
 20
1547.749496429288
 30
0.0
 11
29617.604341291921
 21
1427.749496429288
 31
0.0
  0
LINE
  5
39F2
  8
YODOROGO
 10
29712.94462869945
 20
1627.749496429288
 30
0.0
 11
29617.604341291921
 21
1547.749496429288
 31
0.0
  0
LINE
  5
39F3
  8
YODOROGO
 10
29617.604341291921
 20
1627.749496429288
 30
0.0
 11
29712.94462869945
 21
1627.749496429288
 31
0.0
  0
LINE
  5
39F4
  8
YODOROGO
 10
29617.604341291921
 20
1667.749496429288
 30
0.0
 11
29617.604341291921
 21
1627.749496429288
 31
0.0
  0
LINE
  5
39F5
  8
YODOROGO
 10
29885.604341291921
 20
1667.749496429288
 30
0.0
 11
29617.604341291921
 21
1667.749496429288
 31
0.0
  0
LINE
  5
39F6
  8
YODOROGO
 10
28793.60434129191
 20
1747.74949642929
 30
0.0
 11
28793.60434129191
 21
1819.7494964292871
 31
0.0
  0
LINE
  5
39F7
  8
YODOROGO
 10
28657.604341291921
 20
1747.74949642929
 30
0.0
 11
28793.60434129191
 21
1747.74949642929
 31
0.0
  0
LINE
  5
39F8
  8
YODOROGO
 10
28729.604341291921
 20
1867.7494964292871
 30
0.0
 11
28729.604341291921
 21
1923.7494964292871
 31
0.0
  0
LINE
  5
39F9
  8
YODOROGO
 10
28793.60434129191
 20
1867.7494964292871
 30
0.0
 11
28729.604341291921
 21
1867.7494964292871
 31
0.0
  0
LINE
  5
39FA
  8
YODOROGO
 10
28793.60434129191
 20
1947.749496429288
 30
0.0
 11
28793.60434129191
 21
1867.7494964292871
 31
0.0
  0
ARC
  5
39FB
  8
YODOROGO
 10
28753.60434129191
 20
1947.749496429288
 30
0.0
 40
40.0
 50
0.0
 51
90.0
  0
LINE
  5
39FC
  8
YODOROGO
 10
28657.604341291921
 20
1987.7494964292871
 30
0.0
 11
28753.60434129191
 21
1987.7494964292871
 31
0.0
  0
LINE
  5
39FD
  8
YODOROGO
 10
28657.604341291921
 20
2027.749496429288
 30
0.0
 11
28657.604341291921
 21
1987.7494964292871
 31
0.0
  0
LINE
  5
39FE
  8
YODOROGO
 10
29073.604341291921
 20
2027.749496429288
 30
0.0
 11
29001.60434129191
 21
2027.749496429288
 31
0.0
  0
LINE
  5
39FF
  8
YODOROGO
 10
29261.604341291921
 20
2007.749496429288
 30
0.0
 11
29197.604341291921
 21
2007.749496429288
 31
0.0
  0
LINE
  5
3A00
  8
YODOROGO
 10
29457.604341291921
 20
2027.749496429288
 30
0.0
 11
29385.604341291921
 21
2027.749496429288
 31
0.0
  0
LINE
  5
3A01
  8
YODOROGO
 10
29673.604341291921
 20
1707.749496429288
 30
0.0
 11
29673.604341291921
 21
1771.7494964292871
 31
0.0
1001
AUTOCAD_POSTSCRIPT_FIGURE
1002
{
1000
PSFILL
1000
Grayscale
1000
Grayscale
1070
    25
1002
}
  0
LINE
  5
3A02
  8
YODOROGO
 10
29617.604341291921
 20
1707.749496429288
 30
0.0
 11
29673.604341291921
 21
1707.749496429288
 31
0.0
1001
AUTOCAD_POSTSCRIPT_FIGURE
1002
{
1000
PSFILL
1000
Grayscale
1000
Grayscale
1070
    25
1002
}
  0
LINE
  5
3A03
  8
YODOROGO
 10
29617.604341291921
 20
1819.7494964292871
 30
0.0
 11
29617.604341291921
 21
1707.749496429288
 31
0.0
1001
AUTOCAD_POSTSCRIPT_FIGURE
1002
{
1000
PSFILL
1000
Grayscale
1000
Grayscale
1070
    25
1002
}
  0
LINE
  5
3A04
  8
YODOROGO
 10
29765.604341291921
 20
1819.7494964292871
 30
0.0
 11
29617.604341291921
 21
1819.7494964292871
 31
0.0
1001
AUTOCAD_POSTSCRIPT_FIGURE
1002
{
1000
PSFILL
1000
Grayscale
1000
Grayscale
1070
    25
1002
}
  0
LINE
  5
3A05
  8
YODOROGO
 10
29765.604341291921
 20
1859.749496429288
 30
0.0
 11
29765.604341291921
 21
1819.7494964292871
 31
0.0
1001
AUTOCAD_POSTSCRIPT_FIGURE
1002
{
1000
PSFILL
1000
Grayscale
1000
Grayscale
1070
    25
1002
}
  0
LINE
  5
3A06
  8
YODOROGO
 10
29617.604341291921
 20
1859.749496429288
 30
0.0
 11
29765.604341291921
 21
1859.749496429288
 31
0.0
1001
AUTOCAD_POSTSCRIPT_FIGURE
1002
{
1000
PSFILL
1000
Grayscale
1000
Grayscale
1070
    25
1002
}
  0
LINE
  5
3A07
  8
YODOROGO
 10
29617.604341291921
 20
1907.7494964292871
 30
0.0
 11
29617.604341291921
 21
1859.749496429288
 31
0.0
1001
AUTOCAD_POSTSCRIPT_FIGURE
1002
{
1000
PSFILL
1000
Grayscale
1000
Grayscale
1070
    25
1002
}
  0
LINE
  5
3A08
  8
YODOROGO
 10
29765.604341291921
 20
1907.7494964292871
 30
0.0
 11
29617.604341291921
 21
1907.7494964292871
 31
0.0
1001
AUTOCAD_POSTSCRIPT_FIGURE
1002
{
1000
PSFILL
1000
Grayscale
1000
Grayscale
1070
    25
1002
}
  0
LINE
  5
3A09
  8
YODOROGO
 10
29765.604341291921
 20
1947.749496429288
 30
0.0
 11
29765.604341291921
 21
1907.7494964292871
 31
0.0
1001
AUTOCAD_POSTSCRIPT_FIGURE
1002
{
1000
PSFILL
1000
Grayscale
1000
Grayscale
1070
    25
1002
}
  0
LINE
  5
3A0A
  8
YODOROGO
 10
29617.604341291921
 20
1947.749496429288
 30
0.0
 11
29765.604341291921
 21
1947.749496429288
 31
0.0
1001
AUTOCAD_POSTSCRIPT_FIGURE
1002
{
1000
PSFILL
1000
Grayscale
1000
Grayscale
1070
    25
1002
}
  0
LINE
  5
3A0B
  8
YODOROGO
 10
29617.604341291921
 20
2027.749496429288
 30
0.0
 11
29617.604341291921
 21
1947.749496429288
 31
0.0
1001
AUTOCAD_POSTSCRIPT_FIGURE
1002
{
1000
PSFILL
1000
Grayscale
1000
Grayscale
1070
    25
1002
}
  0
LINE
  5
3A0C
  8
YODOROGO
 10
29665.604341291921
 20
2027.749496429288
 30
0.0
 11
29617.604341291921
 21
2027.749496429288
 31
0.0
1001
AUTOCAD_POSTSCRIPT_FIGURE
1002
{
1000
PSFILL
1000
Grayscale
1000
Grayscale
1070
    25
1002
}
  0
LINE
  5
3A0D
  8
YODOROGO
 10
29665.604341291921
 20
1995.7494964292871
 30
0.0
 11
29665.604341291921
 21
2027.749496429288
 31
0.0
1001
AUTOCAD_POSTSCRIPT_FIGURE
1002
{
1000
PSFILL
1000
Grayscale
1000
Grayscale
1070
    25
1002
}
  0
LINE
  5
3A0E
  8
YODOROGO
 10
29765.604341291921
 20
1995.7494964292871
 30
0.0
 11
29665.604341291921
 21
1995.7494964292871
 31
0.0
1001
AUTOCAD_POSTSCRIPT_FIGURE
1002
{
1000
PSFILL
1000
Grayscale
1000
Grayscale
1070
    25
1002
}
  0
LINE
  5
3A0F
  8
YODOROGO
 10
29765.604341291921
 20
2027.749496429288
 30
0.0
 11
29765.604341291921
 21
1995.7494964292871
 31
0.0
1001
AUTOCAD_POSTSCRIPT_FIGURE
1002
{
1000
PSFILL
1000
Grayscale
1000
Grayscale
1070
    25
1002
}
  0
LINE
  5
3A10
  8
YODOROGO
 10
29829.604341291921
 20
2027.749496429288
 30
0.0
 11
29765.604341291921
 21
2027.749496429288
 31
0.0
1001
AUTOCAD_POSTSCRIPT_FIGURE
1002
{
1000
PSFILL
1000
Grayscale
1000
Grayscale
1070
    25
1002
}
  0
LINE
  5
3A11
  8
YODOROGO
 10
29829.604341291921
 20
1995.7494964292871
 30
0.0
 11
29829.604341291921
 21
2027.749496429288
 31
0.0
1001
AUTOCAD_POSTSCRIPT_FIGURE
1002
{
1000
PSFILL
1000
Grayscale
1000
Grayscale
1070
    25
1002
}
  0
LINE
  5
3A12
  8
YODOROGO
 10
29829.604341291921
 20
1907.7494964292871
 30
0.0
 11
29829.604341291921
 21
1947.749496429288
 31
0.0
1001
AUTOCAD_POSTSCRIPT_FIGURE
1002
{
1000
PSFILL
1000
Grayscale
1000
Grayscale
1070
    25
1002
}
  0
LINE
  5
3A13
  8
YODOROGO
 10
29829.604341291921
 20
1819.7494964292871
 30
0.0
 11
29829.604341291921
 21
1859.749496429288
 31
0.0
1001
AUTOCAD_POSTSCRIPT_FIGURE
1002
{
1000
PSFILL
1000
Grayscale
1000
Grayscale
1070
    25
1002
}
  0
LINE
  5
3A14
  8
YODOROGO
 10
29921.60434129191
 20
1771.7494964292871
 30
0.0
 11
29921.60434129191
 21
1707.749496429288
 31
0.0
1001
AUTOCAD_POSTSCRIPT_FIGURE
1002
{
1000
PSFILL
1000
Grayscale
1000
Grayscale
1070
    25
1002
}
  0
LINE
  5
3A15
  8
YODOROGO
 10
29829.604341291921
 20
1771.7494964292871
 30
0.0
 11
29921.60434129191
 21
1771.7494964292871
 31
0.0
1001
AUTOCAD_POSTSCRIPT_FIGURE
1002
{
1000
PSFILL
1000
Grayscale
1000
Grayscale
1070
    25
1002
}
  0
LINE
  5
3A16
  8
YODOROGO
 10
29829.604341291921
 20
1707.749496429288
 30
0.0
 11
29829.604341291921
 21
1771.7494964292871
 31
0.0
1001
AUTOCAD_POSTSCRIPT_FIGURE
1002
{
1000
PSFILL
1000
Grayscale
1000
Grayscale
1070
    25
1002
}
  0
LINE
  5
3A17
  8
YODOROGO
 10
29765.604341291921
 20
1707.749496429288
 30
0.0
 11
29829.604341291921
 21
1707.749496429288
 31
0.0
1001
AUTOCAD_POSTSCRIPT_FIGURE
1002
{
1000
PSFILL
1000
Grayscale
1000
Grayscale
1070
    25
1002
}
  0
LINE
  5
3A18
  8
YODOROGO
 10
29765.604341291921
 20
1771.7494964292871
 30
0.0
 11
29765.604341291921
 21
1707.749496429288
 31
0.0
1001
AUTOCAD_POSTSCRIPT_FIGURE
1002
{
1000
PSFILL
1000
Grayscale
1000
Grayscale
1070
    25
1002
}
  0
LINE
  5
3A19
  8
YODOROGO
 10
29673.604341291921
 20
1771.7494964292871
 30
0.0
 11
29765.604341291921
 21
1771.7494964292871
 31
0.0
1001
AUTOCAD_POSTSCRIPT_FIGURE
1002
{
1000
PSFILL
1000
Grayscale
1000
Grayscale
1070
    25
1002
}
  0
ARC
  5
3A1A
  8
YODOROGO
 10
31059.517893357912
 20
1602.6807375155761
 30
0.0
 40
178.22128111072141
 50
281.02627495425338
 51
357.77113575573799
  0
LINE
  5
3A1B
  8
YODOROGO
 10
31413.604341291921
 20
1907.7494964292871
 30
0.0
 11
31165.604341291921
 21
1907.7494964292871
 31
0.0
  0
LINE
  5
3A1C
  8
YODOROGO
 10
31413.604341291921
 20
2027.749496429288
 30
0.0
 11
31165.604341291921
 21
2027.749496429288
 31
0.0
  0
LINE
  5
3A1D
  8
YODOROGO
 10
31165.604341291921
 20
1963.749496429286
 30
0.0
 11
31413.604341291921
 21
1963.749496429286
 31
0.0
  0
LINE
  5
3A1E
  8
YODOROGO
 10
30791.604341291921
 20
1563.7494964292871
 30
0.0
 11
30791.604341291921
 21
1755.7494964292871
 31
0.0
  0
LINE
  5
3A1F
  8
YODOROGO
 10
30763.604341291921
 20
1691.749496429288
 30
0.0
 11
30763.604341291921
 21
1563.7494964292871
 31
0.0
  0
LINE
  5
3A20
  8
YODOROGO
 10
30723.604341291921
 20
1491.749496429288
 30
0.0
 11
30723.604341291921
 21
1691.749496429288
 31
0.0
  0
LINE
  5
3A21
  8
YODOROGO
 10
30899.604341291932
 20
1691.749496429288
 30
0.0
 11
30899.604341291932
 21
1491.749496429288
 31
0.0
  0
LINE
  5
3A22
  8
YODOROGO
 10
30859.604341291932
 20
1563.7494964292871
 30
0.0
 11
30859.604341291932
 21
1691.749496429288
 31
0.0
  0
LINE
  5
3A23
  8
YODOROGO
 10
30831.604341291921
 20
1755.7494964292871
 30
0.0
 11
30831.604341291921
 21
1563.7494964292871
 31
0.0
  0
LINE
  5
3A24
  8
YODOROGO
 10
30973.604341291921
 20
2027.749496429288
 30
0.0
 11
30973.604341291921
 21
1467.749496429288
 31
0.0
  0
LINE
  5
3A25
  8
YODOROGO
 10
30645.604341291921
 20
1427.749496429288
 30
0.0
 11
30645.604341291921
 21
2027.749496429288
 31
0.0
  0
LINE
  5
3A26
  8
YODOROGO
 10
30697.604341291932
 20
1963.749496429286
 30
0.0
 11
30697.604341291932
 21
1427.749496429288
 31
0.0
  0
LINE
  5
3A27
  8
YODOROGO
 10
30925.604341291921
 20
1547.749496429288
 30
0.0
 11
30925.604341291921
 21
1963.749496429286
 31
0.0
  0
LINE
  5
3A28
  8
YODOROGO
 10
30381.604341291932
 20
1627.749496429288
 30
0.0
 11
30381.604341291932
 21
1679.749496429288
 31
0.0
  0
LINE
  5
3A29
  8
YODOROGO
 10
30617.604341291921
 20
1679.749496429288
 30
0.0
 11
30617.604341291921
 21
1627.749496429288
 31
0.0
  0
LINE
  5
3A2A
  8
YODOROGO
 10
31165.604341291921
 20
1907.7494964292871
 30
0.0
 11
31165.604341291921
 21
1635.7494964292871
 31
0.0
  0
LINE
  5
3A2B
  8
YODOROGO
 10
29949.60434129191
 20
1667.749496429288
 30
0.0
 11
29949.60434129191
 21
1707.749496429288
 31
0.0
  0
LINE
  5
3A2C
  8
YODOROGO
 10
29949.60434129191
 20
1667.749496429288
 30
0.0
 11
29949.60434129191
 21
1707.749496429288
 31
0.0
  0
ARC
  5
3A2D
  8
YODOROGO
 10
30537.604341291921
 20
1507.749496429288
 30
0.0
 40
80.0
 50
270.0
 51
0.0
  0
LINE
  5
3A2E
  8
YODOROGO
 10
30569.604341291921
 20
1599.7494964292871
 30
0.0
 11
30617.604341291921
 21
1599.7494964292871
 31
0.0
  0
LINE
  5
3A2F
  8
YODOROGO
 10
30617.604341291921
 20
1627.749496429288
 30
0.0
 11
30529.604341291939
 21
1627.749496429288
 31
0.0
  0
LINE
  5
3A30
  8
YODOROGO
 10
30217.604341291921
 20
1667.749496429288
 30
0.0
 11
29949.60434129191
 21
1667.749496429288
 31
0.0
  0
LINE
  5
3A31
  8
YODOROGO
 10
30217.604341291921
 20
1627.749496429288
 30
0.0
 11
30217.604341291921
 21
1667.749496429288
 31
0.0
  0
LINE
  5
3A32
  8
YODOROGO
 10
30017.604341291921
 20
1627.749496429288
 30
0.0
 11
30217.604341291921
 21
1627.749496429288
 31
0.0
  0
ARC
  5
3A33
  8
YODOROGO
 10
30230.05882870136
 20
1868.885714952901
 30
0.0
 40
321.37763628522822
 50
228.6181454618993
 51
245.660289248906
  0
LINE
  5
3A34
  8
YODOROGO
 10
30105.604341291921
 20
1603.7494964292871
 30
0.0
 11
30097.60434129195
 21
1576.0728158699001
 31
0.0
  0
LINE
  5
3A35
  8
YODOROGO
 10
30189.604341291921
 20
1603.7494964292871
 30
0.0
 11
30105.604341291921
 21
1603.7494964292871
 31
0.0
  0
LINE
  5
3A36
  8
YODOROGO
 10
30177.604341291921
 20
1551.817722473427
 30
0.0
 11
30189.604341291921
 21
1603.7494964292871
 31
0.0
  0
ARC
  5
3A37
  8
YODOROGO
 10
30230.05882870045
 20
1868.885714953002
 30
0.0
 40
321.37763628529081
 50
260.60629297969911
 51
267.77903556555862
  0
LINE
  5
3A38
  8
YODOROGO
 10
30217.604341291921
 20
1427.749496429285
 30
0.0
 11
30217.604341291921
 21
1547.749496429288
 31
0.0
  0
LINE
  5
3A39
  8
YODOROGO
 10
29937.604341291932
 20
1481.3393349155101
 30
0.0
 11
29937.604341291921
 21
1594.531090531141
 31
0.0
  0
LINE
  5
3A3A
  8
YODOROGO
 10
30217.604341291921
 20
1667.749496429288
 30
0.0
 11
29949.60434129191
 21
1667.749496429288
 31
0.0
  0
LINE
  5
3A3B
  8
YODOROGO
 10
30217.604341291921
 20
1627.749496429288
 30
0.0
 11
30217.604341291921
 21
1667.749496429288
 31
0.0
  0
LINE
  5
3A3C
  8
YODOROGO
 10
30017.604341291921
 20
1627.749496429288
 30
0.0
 11
30217.604341291921
 21
1627.749496429288
 31
0.0
  0
ARC
  5
3A3D
  8
YODOROGO
 10
30230.05882870136
 20
1868.885714952901
 30
0.0
 40
321.37763628522822
 50
228.6181454618993
 51
245.660289248906
  0
LINE
  5
3A3E
  8
YODOROGO
 10
30105.604341291921
 20
1603.7494964292871
 30
0.0
 11
30097.60434129195
 21
1576.0728158699001
 31
0.0
  0
LINE
  5
3A3F
  8
YODOROGO
 10
30189.604341291921
 20
1603.7494964292871
 30
0.0
 11
30105.604341291921
 21
1603.7494964292871
 31
0.0
  0
LINE
  5
3A40
  8
YODOROGO
 10
30177.604341291921
 20
1551.817722473427
 30
0.0
 11
30189.604341291921
 21
1603.7494964292871
 31
0.0
  0
ARC
  5
3A41
  8
YODOROGO
 10
30230.05882870045
 20
1868.885714953002
 30
0.0
 40
321.37763628529081
 50
260.60629297969911
 51
267.77903556555862
  0
LINE
  5
3A42
  8
YODOROGO
 10
30217.604341291921
 20
1427.749496429285
 30
0.0
 11
30217.604341291921
 21
1547.749496429288
 31
0.0
  0
LINE
  5
3A43
  8
YODOROGO
 10
29937.604341291932
 20
1481.3393349155101
 30
0.0
 11
29937.604341291921
 21
1594.531090531141
 31
0.0
  0
LINE
  5
3A44
  8
YODOROGO
 10
30433.604341291921
 20
1573.749496429288
 30
0.0
 11
30381.604341291932
 21
1573.749496429288
 31
0.0
  0
LINE
  5
3A45
  8
YODOROGO
 10
30433.604341291921
 20
1601.749496429285
 30
0.0
 11
30433.604341291921
 21
1573.749496429288
 31
0.0
  0
LINE
  5
3A46
  8
YODOROGO
 10
30381.604341291932
 20
1601.749496429285
 30
0.0
 11
30433.604341291921
 21
1601.749496429285
 31
0.0
  0
LINE
  5
3A47
  8
YODOROGO
 10
30381.604341291932
 20
1573.749496429288
 30
0.0
 11
30381.604341291932
 21
1601.749496429285
 31
0.0
  0
LINE
  5
3A48
  8
YODOROGO
 10
30429.604341291921
 20
1577.7494964292871
 30
0.0
 11
30385.604341291921
 21
1577.7494964292871
 31
0.0
  0
LINE
  5
3A49
  8
YODOROGO
 10
30429.604341291921
 20
1597.749496429288
 30
0.0
 11
30429.604341291921
 21
1577.7494964292871
 31
0.0
  0
LINE
  5
3A4A
  8
YODOROGO
 10
30385.604341291921
 20
1597.749496429288
 30
0.0
 11
30429.604341291921
 21
1597.749496429288
 31
0.0
  0
LINE
  5
3A4B
  8
YODOROGO
 10
30385.604341291921
 20
1577.7494964292871
 30
0.0
 11
30385.604341291921
 21
1597.749496429288
 31
0.0
  0
LINE
  5
3A4C
  8
YODOROGO
 10
30425.604341291921
 20
1581.749496429286
 30
0.0
 11
30389.604341291921
 21
1581.749496429286
 31
0.0
  0
LINE
  5
3A4D
  8
YODOROGO
 10
30425.604341291921
 20
1593.749496429288
 30
0.0
 11
30425.604341291921
 21
1581.749496429286
 31
0.0
  0
LINE
  5
3A4E
  8
YODOROGO
 10
30389.604341291921
 20
1593.749496429288
 30
0.0
 11
30425.604341291921
 21
1593.749496429288
 31
0.0
  0
LINE
  5
3A4F
  8
YODOROGO
 10
30389.604341291921
 20
1581.749496429286
 30
0.0
 11
30389.604341291921
 21
1593.749496429288
 31
0.0
  0
LINE
  5
3A50
  8
YODOROGO
 10
30421.604341291932
 20
1585.7494964292871
 30
0.0
 11
30393.604341291921
 21
1585.7494964292871
 31
0.0
  0
LINE
  5
3A51
  8
YODOROGO
 10
30421.604341291932
 20
1589.749496429288
 30
0.0
 11
30421.604341291932
 21
1585.7494964292871
 31
0.0
  0
LINE
  5
3A52
  8
YODOROGO
 10
30393.604341291921
 20
1589.749496429288
 30
0.0
 11
30421.604341291932
 21
1589.749496429288
 31
0.0
  0
LINE
  5
3A53
  8
YODOROGO
 10
30393.604341291921
 20
1585.7494964292871
 30
0.0
 11
30393.604341291921
 21
1589.749496429288
 31
0.0
  0
LINE
  5
3A54
  8
YODOROGO
 10
30465.604341291921
 20
1627.749496429288
 30
0.0
 11
30381.604341291932
 21
1627.749496429288
 31
0.0
  0
LINE
  5
3A55
  8
YODOROGO
 10
30465.604341291921
 20
1547.749496429288
 30
0.0
 11
30465.604341291921
 21
1627.749496429288
 31
0.0
  0
LINE
  5
3A56
  8
YODOROGO
 10
30381.604341291932
 20
1547.749496429288
 30
0.0
 11
30465.604341291921
 21
1547.749496429288
 31
0.0
  0
LINE
  5
3A57
  8
YODOROGO
 10
30381.604341291932
 20
1427.749496429288
 30
0.0
 11
30381.604341291932
 21
1547.749496429288
 31
0.0
  0
LINE
  5
3A58
  8
YODOROGO
 10
30537.604341291921
 20
1427.749496429288
 30
0.0
 11
30381.604341291932
 21
1427.749496429288
 31
0.0
  0
LINE
  5
3A59
  8
YODOROGO
 10
30569.604341291921
 20
1571.749496429285
 30
0.0
 11
30569.604341291921
 21
1599.7494964292871
 31
0.0
  0
ARC
  5
3A5A
  8
YODOROGO
 10
30545.604341291921
 20
1571.749496429291
 30
0.0
 40
24.000000000003752
 50
270.0
 51
359.99999999998772
  0
LINE
  5
3A5B
  8
YODOROGO
 10
30529.604341291939
 20
1547.749496429288
 30
0.0
 11
30545.604341291921
 21
1547.749496429288
 31
0.0
  0
LINE
  5
3A5C
  8
YODOROGO
 10
30529.604341291939
 20
1627.749496429288
 30
0.0
 11
30529.604341291939
 21
1547.749496429288
 31
0.0
  0
LINE
  5
3A5D
  8
YODOROGO
 10
30899.604341291932
 20
1547.749496429288
 30
0.0
 11
30925.604341291921
 21
1547.749496429288
 31
0.0
  0
LINE
  5
3A5E
  8
YODOROGO
 10
30933.604341291921
 20
1427.749496429288
 30
0.0
 11
30899.604341291932
 21
1427.749496429288
 31
0.0
  0
LINE
  5
3A5F
  8
YODOROGO
 10
30763.604341291921
 20
1563.7494964292871
 30
0.0
 11
30791.604341291921
 21
1563.7494964292871
 31
0.0
  0
LINE
  5
3A60
  8
YODOROGO
 10
30899.604341291932
 20
1491.749496429288
 30
0.0
 11
30723.604341291921
 21
1491.749496429288
 31
0.0
  0
LINE
  5
3A61
  8
YODOROGO
 10
30831.604341291921
 20
1563.7494964292871
 30
0.0
 11
30859.604341291932
 21
1563.7494964292871
 31
0.0
  0
LINE
  5
3A62
  8
YODOROGO
 10
30899.604341291932
 20
1427.749496429288
 30
0.0
 11
30899.604341291932
 21
1547.749496429288
 31
0.0
  0
LINE
  5
3A63
  8
YODOROGO
 10
30697.604341291932
 20
1427.749496429288
 30
0.0
 11
30645.604341291921
 21
1427.749496429288
 31
0.0
  0
LINE
  5
3A64
  8
YODOROGO
 10
30617.604341291921
 20
1599.7494964292871
 30
0.0
 11
30617.604341291921
 21
1507.749496429288
 31
0.0
  0
ARC
  5
3A65
  8
YODOROGO
 10
30933.604341291921
 20
1467.749496429288
 30
0.0
 40
40.0
 50
270.0
 51
0.0
  0
LINE
  5
3A66
  8
YODOROGO
 10
31093.604341291921
 20
1523.7494964292871
 30
0.0
 11
31093.604341291921
 21
1427.749496429288
 31
0.0
  0
ARC
  5
3A67
  8
YODOROGO
 10
31039.721395566768
 20
1637.5313901097329
 30
0.0
 40
125.8955565916754
 50
295.34052442160112
 51
359.18902303418679
  0
LINE
  5
3A68
  8
YODOROGO
 10
30617.604341291921
 20
1859.749496429288
 30
0.0
 11
30497.604341291921
 21
1939.749496429288
 31
0.0
  0
LINE
  5
3A69
  8
YODOROGO
 10
30497.604341291921
 20
2027.749496429288
 30
0.0
 11
30617.604341291921
 21
1947.749496429288
 31
0.0
  0
LINE
  5
3A6A
  8
YODOROGO
 10
30529.604341291939
 20
1679.749496429288
 30
0.0
 11
30617.604341291921
 21
1679.749496429288
 31
0.0
  0
LINE
  5
3A6B
  8
YODOROGO
 10
30617.604341291921
 20
1735.7494964292871
 30
0.0
 11
30529.604341291939
 21
1735.7494964292871
 31
0.0
  0
LINE
  5
3A6C
  8
YODOROGO
 10
30381.604341291932
 20
1795.7494964292871
 30
0.0
 11
30617.604341291921
 21
1795.7494964292871
 31
0.0
  0
LINE
  5
3A6D
  8
YODOROGO
 10
30081.604341291921
 20
2027.749496429288
 30
0.0
 11
30021.604341291921
 21
2027.749496429288
 31
0.0
  0
LINE
  5
3A6E
  8
YODOROGO
 10
30081.604341291921
 20
1827.7494964292871
 30
0.0
 11
30081.604341291921
 21
2027.749496429288
 31
0.0
  0
LINE
  5
3A6F
  8
YODOROGO
 10
30021.604341291921
 20
1827.7494964292871
 30
0.0
 11
30081.604341291921
 21
1827.7494964292871
 31
0.0
  0
LINE
  5
3A70
  8
YODOROGO
 10
30021.604341291921
 20
2027.749496429288
 30
0.0
 11
30021.604341291921
 21
1827.7494964292871
 31
0.0
  0
LINE
  5
3A71
  8
YODOROGO
 10
30161.604341291921
 20
2027.749496429288
 30
0.0
 11
30217.604341291921
 21
2027.749496429288
 31
0.0
  0
LINE
  5
3A72
  8
YODOROGO
 10
30161.604341291921
 20
1811.749496429288
 30
0.0
 11
30161.604341291921
 21
2027.749496429288
 31
0.0
  0
ARC
  5
3A73
  8
YODOROGO
 10
30121.604341291921
 20
1811.749496429288
 30
0.0
 40
40.0
 50
270.0
 51
0.0
  0
LINE
  5
3A74
  8
YODOROGO
 10
30021.604341291921
 20
1771.7494964292871
 30
0.0
 11
30121.604341291921
 21
1771.7494964292871
 31
0.0
  0
LINE
  5
3A75
  8
YODOROGO
 10
30021.604341291921
 20
1707.749496429288
 30
0.0
 11
30021.604341291921
 21
1771.7494964292871
 31
0.0
  0
LINE
  5
3A76
  8
YODOROGO
 10
30137.604341291921
 20
1707.749496429288
 30
0.0
 11
30021.604341291921
 21
1707.749496429288
 31
0.0
  0
ARC
  5
3A77
  8
YODOROGO
 10
30137.604341291921
 20
1787.7494964292871
 30
0.0
 40
80.0
 50
270.0
 51
0.0
  0
LINE
  5
3A78
  8
YODOROGO
 10
30217.604341291921
 20
2027.749496429288
 30
0.0
 11
30217.604341291921
 21
1787.7494964292871
 31
0.0
  0
LINE
  5
3A79
  8
YODOROGO
 10
29977.604341291921
 20
1947.749496429288
 30
0.0
 11
29977.604341291921
 21
1995.7494964292871
 31
0.0
1001
AUTOCAD_POSTSCRIPT_FIGURE
1002
{
1000
PSFILL
1000
Grayscale
1000
Grayscale
1070
    25
1002
}
  0
LINE
  5
3A7A
  8
YODOROGO
 10
29977.604341291921
 20
1859.749496429288
 30
0.0
 11
29977.604341291921
 21
1907.7494964292871
 31
0.0
1001
AUTOCAD_POSTSCRIPT_FIGURE
1002
{
1000
PSFILL
1000
Grayscale
1000
Grayscale
1070
    25
1002
}
  0
LINE
  5
3A7B
  8
YODOROGO
 10
29977.604341291921
 20
1707.749496429288
 30
0.0
 11
29977.604341291921
 21
1819.7494964292871
 31
0.0
1001
AUTOCAD_POSTSCRIPT_FIGURE
1002
{
1000
PSFILL
1000
Grayscale
1000
Grayscale
1070
    25
1002
}
  0
LINE
  5
3A7C
  8
YODOROGO
 10
30381.604341291932
 20
1907.7494964292871
 30
0.0
 11
30497.604341291921
 21
2027.749496429288
 31
0.0
  0
LINE
  5
3A7D
  8
YODOROGO
 10
30381.604341291932
 20
1819.7494964292871
 30
0.0
 11
30381.604341291932
 21
1907.7494964292871
 31
0.0
  0
LINE
  5
3A7E
  8
YODOROGO
 10
30497.604341291921
 20
1939.749496429288
 30
0.0
 11
30381.604341291932
 21
1819.7494964292871
 31
0.0
  0
LINE
  5
3A7F
  8
YODOROGO
 10
30465.604341291921
 20
1679.749496429288
 30
0.0
 11
30465.604341291921
 21
1735.7494964292871
 31
0.0
  0
LINE
  5
3A80
  8
YODOROGO
 10
30381.604341291932
 20
1679.749496429288
 30
0.0
 11
30465.604341291921
 21
1679.749496429288
 31
0.0
  0
LINE
  5
3A81
  8
YODOROGO
 10
30529.604341291939
 20
1735.7494964292871
 30
0.0
 11
30529.604341291939
 21
1679.749496429288
 31
0.0
  0
LINE
  5
3A82
  8
YODOROGO
 10
30381.604341291932
 20
1735.7494964292871
 30
0.0
 11
30381.604341291932
 21
1795.7494964292871
 31
0.0
  0
LINE
  5
3A83
  8
YODOROGO
 10
30465.604341291921
 20
1735.7494964292871
 30
0.0
 11
30381.604341291932
 21
1735.7494964292871
 31
0.0
  0
LINE
  5
3A84
  8
YODOROGO
 10
30645.604341291921
 20
2027.749496429288
 30
0.0
 11
30973.604341291921
 21
2027.749496429288
 31
0.0
  0
LINE
  5
3A85
  8
YODOROGO
 10
30925.604341291921
 20
1963.749496429286
 30
0.0
 11
30697.604341291932
 21
1963.749496429286
 31
0.0
  0
LINE
  5
3A86
  8
YODOROGO
 10
30873.604341291921
 20
1819.7494964292871
 30
0.0
 11
30899.604341291932
 21
1819.7494964292871
 31
0.0
  0
LINE
  5
3A87
  8
YODOROGO
 10
30899.604341291932
 20
1939.749496429288
 30
0.0
 11
30873.604341291921
 21
1819.7494964292871
 31
0.0
  0
LINE
  5
3A88
  8
YODOROGO
 10
30851.604341291939
 20
1939.749496429288
 30
0.0
 11
30899.604341291932
 21
1939.749496429288
 31
0.0
  0
LINE
  5
3A89
  8
YODOROGO
 10
30825.604341291921
 20
1819.7494964292871
 30
0.0
 11
30851.604341291939
 21
1939.749496429288
 31
0.0
  0
LINE
  5
3A8A
  8
YODOROGO
 10
30797.604341291921
 20
1819.7494964292871
 30
0.0
 11
30825.604341291921
 21
1819.7494964292871
 31
0.0
  0
LINE
  5
3A8B
  8
YODOROGO
 10
30771.604341291939
 20
1939.749496429288
 30
0.0
 11
30797.604341291921
 21
1819.7494964292871
 31
0.0
  0
LINE
  5
3A8C
  8
YODOROGO
 10
30723.604341291921
 20
1939.749496429288
 30
0.0
 11
30771.604341291939
 21
1939.749496429288
 31
0.0
  0
LINE
  5
3A8D
  8
YODOROGO
 10
30749.604341291921
 20
1819.7494964292871
 30
0.0
 11
30723.604341291921
 21
1939.749496429288
 31
0.0
  0
LINE
  5
3A8E
  8
YODOROGO
 10
30723.604341291921
 20
1819.7494964292871
 30
0.0
 11
30749.604341291921
 21
1819.7494964292871
 31
0.0
  0
LINE
  5
3A8F
  8
YODOROGO
 10
30723.604341291921
 20
1755.7494964292871
 30
0.0
 11
30723.604341291921
 21
1819.7494964292871
 31
0.0
  0
LINE
  5
3A90
  8
YODOROGO
 10
30899.604341291932
 20
1755.7494964292871
 30
0.0
 11
30723.604341291921
 21
1755.7494964292871
 31
0.0
  0
LINE
  5
3A91
  8
YODOROGO
 10
30899.604341291932
 20
1819.7494964292871
 30
0.0
 11
30899.604341291932
 21
1755.7494964292871
 31
0.0
  0
LINE
  5
3A92
  8
YODOROGO
 10
30617.604341291921
 20
1947.749496429288
 30
0.0
 11
30617.604341291921
 21
1859.749496429288
 31
0.0
  0
LINE
  5
3A93
  8
YODOROGO
 10
30791.604341291921
 20
1755.7494964292871
 30
0.0
 11
30831.604341291921
 21
1755.7494964292871
 31
0.0
  0
LINE
  5
3A94
  8
YODOROGO
 10
30723.604341291921
 20
1691.749496429288
 30
0.0
 11
30763.604341291921
 21
1691.749496429288
 31
0.0
  0
LINE
  5
3A95
  8
YODOROGO
 10
30859.604341291932
 20
1691.749496429288
 30
0.0
 11
30899.604341291932
 21
1691.749496429288
 31
0.0
  0
LINE
  5
3A96
  8
YODOROGO
 10
30617.604341291921
 20
1795.7494964292871
 30
0.0
 11
30617.604341291921
 21
1735.7494964292871
 31
0.0
  0
LINE
  5
3A97
  8
YODOROGO
 10
31165.604341291921
 20
2027.749496429288
 30
0.0
 11
31165.604341291921
 21
1963.749496429286
 31
0.0
  0
LINE
  5
3A98
  8
YODOROGO
 10
31533.604341291921
 20
1595.7494964292871
 30
0.0
 11
31533.60434129191
 21
1811.749496429288
 31
0.0
  0
LINE
  5
3A99
  8
YODOROGO
 10
31461.60434129191
 20
1987.7494964292871
 30
0.0
 11
31461.60434129191
 21
1635.7494964292871
 31
0.0
  0
LINE
  5
3A9A
  8
YODOROGO
 10
31653.604341291921
 20
1427.749496429288
 30
0.0
 11
31653.60434129191
 21
1811.749496429288
 31
0.0
  0
LINE
  5
3A9B
  8
YODOROGO
 10
31589.604341291921
 20
1811.749496429288
 30
0.0
 11
31589.604341291921
 21
1427.749496429288
 31
0.0
  0
LINE
  5
3A9C
  8
YODOROGO
 10
31237.604341291921
 20
1595.7494964292871
 30
0.0
 11
31237.604341291921
 21
1707.749496429288
 31
0.0
  0
ARC
  5
3A9D
  8
YODOROGO
 10
31353.914865116069
 20
1607.790351288558
 30
0.0
 40
180.0924485759885
 50
268.62849102169793
 51
356.16638457330322
  0
LINE
  5
3A9E
  8
YODOROGO
 10
31349.604341291939
 20
1527.749496429288
 30
0.0
 11
31349.604341291939
 21
1427.749496429288
 31
0.0
  0
ARC
  5
3A9F
  8
YODOROGO
 10
31351.518075724562
 20
1637.838957017655
 30
0.0
 40
110.1060929836122
 50
269.00410209305932
 51
358.91264455492478
  0
LINE
  5
3AA0
  8
YODOROGO
 10
31589.604341291921
 20
1427.749496429288
 30
0.0
 11
31653.604341291921
 21
1427.749496429288
 31
0.0
  0
LINE
  5
3AA1
  8
YODOROGO
 10
31533.60434129191
 20
1811.749496429288
 30
0.0
 11
31589.604341291921
 21
1811.749496429288
 31
0.0
  0
LINE
  5
3AA2
  8
YODOROGO
 10
31621.604341291939
 20
1987.7494964292871
 30
0.0
 11
31461.60434129191
 21
1987.7494964292871
 31
0.0
  0
LINE
  5
3AA3
  8
YODOROGO
 10
31533.60434129191
 20
1915.7494964292871
 30
0.0
 11
31661.604341291939
 21
1915.7494964292871
 31
0.0
  0
LINE
  5
3AA4
  8
YODOROGO
 10
31701.604341291939
 20
1875.7494964292871
 30
0.0
 11
31533.60434129191
 21
1875.7494964292871
 31
0.0
  0
LINE
  5
3AA5
  8
YODOROGO
 10
31237.604341291921
 20
1779.749496429288
 30
0.0
 11
31349.604341291939
 21
1779.749496429288
 31
0.0
  0
LINE
  5
3AA6
  8
YODOROGO
 10
31237.604341291921
 20
1835.7494964292871
 30
0.0
 11
31237.604341291921
 21
1779.749496429288
 31
0.0
  0
LINE
  5
3AA7
  8
YODOROGO
 10
31349.604341291939
 20
1835.7494964292871
 30
0.0
 11
31237.604341291921
 21
1835.7494964292871
 31
0.0
  0
LINE
  5
3AA8
  8
YODOROGO
 10
31349.604341291939
 20
1779.749496429288
 30
0.0
 11
31349.604341291939
 21
1835.7494964292871
 31
0.0
  0
LINE
  5
3AA9
  8
YODOROGO
 10
31533.60434129191
 20
1875.7494964292871
 30
0.0
 11
31533.60434129191
 21
1915.7494964292871
 31
0.0
  0
LINE
  5
3AAA
  8
YODOROGO
 10
31413.604341291921
 20
1707.749496429288
 30
0.0
 11
31413.604341291921
 21
1907.7494964292871
 31
0.0
  0
LINE
  5
3AAB
  8
YODOROGO
 10
31237.604341291921
 20
1707.749496429288
 30
0.0
 11
31413.604341291921
 21
1707.749496429288
 31
0.0
  0
LINE
  5
3AAC
  8
YODOROGO
 10
31413.604341291921
 20
1963.749496429286
 30
0.0
 11
31413.604341291921
 21
2027.749496429288
 31
0.0
  0
ARC
  5
3AAD
  8
YODOROGO
 10
31621.604341291939
 20
2003.749496429285
 30
0.0
 40
15.999999999994539
 50
270.0
 51
0.0000000000081422
  0
LINE
  5
3AAE
  8
YODOROGO
 10
31637.604341291921
 20
2027.749496429288
 30
0.0
 11
31637.604341291921
 21
2003.7494964292871
 31
0.0
  0
LINE
  5
3AAF
  8
YODOROGO
 10
31701.604341291939
 20
2027.749496429288
 30
0.0
 11
31637.604341291921
 21
2027.749496429288
 31
0.0
  0
LINE
  5
3AB0
  8
YODOROGO
 10
31701.604341291939
 20
1955.7494964292871
 30
0.0
 11
31701.604341291939
 21
2027.749496429288
 31
0.0
  0
ARC
  5
3AB1
  8
YODOROGO
 10
31661.604341291939
 20
1955.7494964292871
 30
0.0
 40
40.0
 50
270.0
 51
0.0
  0
LINE
  5
3AB2
  8
YODOROGO
 10
31701.604341291939
 20
1811.749496429288
 30
0.0
 11
31701.604341291939
 21
1875.7494964292871
 31
0.0
  0
LINE
  5
3AB3
  8
YODOROGO
 10
31653.60434129191
 20
1811.749496429288
 30
0.0
 11
31701.604341291939
 21
1811.749496429288
 31
0.0
  0
LINE
  5
3AB4
  8
SUNPOU
  6
CONTINUOUS
 62
     4
 10
11164.967224999969
 20
14076.439648
 30
0.0
 11
10317.971803999981
 21
14076.439648
 31
0.0
  0
LINE
  5
3AB5
  8
SUNPOU
  6
CONTINUOUS
 62
     4
 10
10397.971803999981
 20
14268.934962999991
 30
0.0
 11
10397.971803999981
 21
14508.934962999991
 31
0.0
  0
LINE
  5
3AB6
  8
SUNPOU
  6
CONTINUOUS
 62
     4
 10
10397.971803999981
 20
14076.439648
 30
0.0
 11
10397.971803999981
 21
13836.439648
 31
0.0
  0
LINE
  5
3AB7
  8
SUNPOU
  6
CONTINUOUS
 62
     4
 10
10397.971803999981
 20
14268.934962999991
 30
0.0
 11
10397.971803999981
 21
14076.439648
 31
0.0
  0
LINE
  5
3AB8
  8
SUNPOU
  6
CONTINUOUS
 62
     4
 10
11028.67274699999
 20
15728.17547450002
 30
0.0
 11
10317.972128999991
 21
15728.17547450002
 31
0.0
  0
LINE
  5
3AB9
  8
SUNPOU
  6
CONTINUOUS
 62
     4
 10
10397.972128999991
 20
15728.17547450002
 30
0.0
 11
10397.972128999991
 21
14268.934962999991
 31
0.0
  0
LINE
  5
3ABA
  8
SUNPOU
  6
CONTINUOUS
 62
     4
 10
11028.67274699999
 20
15728.17547450002
 30
0.0
 11
10317.972128999991
 21
15728.17547450002
 31
0.0
  0
LINE
  5
3ABB
  8
SUNPOU
  6
CONTINUOUS
 62
     4
 10
10397.972128999991
 20
17186.934963
 30
0.0
 11
10397.972128999991
 21
15728.17547450002
 31
0.0
  0
LINE
  5
3ABC
  8
SUNPOU
  6
CONTINUOUS
 62
     4
 10
11028.67274699999
 20
18645.934963
 30
0.0
 11
10317.972128999991
 21
18645.934963
 31
0.0
  0
LINE
  5
3ABD
  8
SUNPOU
  6
CONTINUOUS
 62
     4
 10
10397.972128999991
 20
18645.934963
 30
0.0
 11
10397.972128999991
 21
17186.934963
 31
0.0
  0
LINE
  5
3ABE
  8
SUNPOU
  6
CONTINUOUS
 62
     4
 10
11164.967549999979
 20
19956.930872000001
 30
0.0
 11
10717.972128999991
 21
19956.930872000001
 31
0.0
  0
LINE
  5
3ABF
  8
SUNPOU
  6
CONTINUOUS
 62
     4
 10
11164.97190499998
 20
19976.930872000001
 30
0.0
 11
10717.972128999991
 21
19976.930872000001
 31
0.0
  0
LINE
  5
3AC1
  8
SUNPOU
  6
CONTINUOUS
 62
     4
 10
10797.972128999991
 20
19976.930872000001
 30
0.0
 11
10797.972128999991
 21
20216.930872000012
 31
0.0
  0
LINE
  5
3AC2
  8
SUNPOU
  6
CONTINUOUS
 62
     4
 10
10797.972128999991
 20
19936.930872000001
 30
0.0
 11
10797.972128999991
 21
19976.930872000001
 31
0.0
  0
LINE
  5
3AC3
  8
SUNPOU
  6
CONTINUOUS
 62
     4
 10
11164.97190499998
 20
19976.930872000001
 30
0.0
 11
10317.972128999991
 21
19976.930872000001
 31
0.0
  0
LINE
  5
3AC4
  8
SUNPOU
  6
CONTINUOUS
 62
     4
 10
10397.972128999991
 20
19754.434963
 30
0.0
 11
10397.972128999991
 21
19514.434962999989
 31
0.0
  0
LINE
  5
3AC5
  8
SUNPOU
  6
CONTINUOUS
 62
     4
 10
10397.972128999991
 20
19976.930872000001
 30
0.0
 11
10397.972128999991
 21
20216.930872000012
 31
0.0
  0
LINE
  5
3AC6
  8
SUNPOU
  6
CONTINUOUS
 62
     4
 10
10397.972128999991
 20
19754.434963
 30
0.0
 11
10397.972128999991
 21
19976.930872000001
 31
0.0
  0
LINE
  5
3AC7
  8
SUNPOU
  6
CONTINUOUS
 62
     4
 10
11028.67274699999
 20
18645.934963
 30
0.0
 11
10317.972128999991
 21
18645.934963
 31
0.0
  0
LINE
  5
3AC8
  8
SUNPOU
  6
CONTINUOUS
 62
     4
 10
10397.972128999991
 20
18645.934963
 30
0.0
 11
10397.972128999991
 21
19754.434963
 31
0.0
  0
LINE
  5
3AC9
  8
SUNPOU
  6
CONTINUOUS
 62
     4
 10
11241.96992499999
 20
20126.93654699999
 30
0.0
 11
11241.96992499999
 21
20676.941825999991
 31
0.0
  0
LINE
  5
3ACA
  8
SUNPOU
  6
CONTINUOUS
 62
     4
 10
11327.46992499999
 20
20596.941825999991
 30
0.0
 11
11567.46992499999
 21
20596.941825999991
 31
0.0
  0
LINE
  5
3ACB
  8
SUNPOU
  6
CONTINUOUS
 62
     4
 10
11244.96992499999
 20
20596.941825999991
 30
0.0
 11
11004.969924999979
 21
20596.941825999991
 31
0.0
  0
LINE
  5
3ACC
  8
SUNPOU
  6
CONTINUOUS
 62
     4
 10
11327.46992499999
 20
20596.941825999991
 30
0.0
 11
11244.96992499999
 21
20596.941825999991
 31
0.0
  0
LINE
  5
3ACD
  8
SUNPOU
  6
CONTINUOUS
 62
     4
 10
13980.475862999991
 20
20126.93654699999
 30
0.0
 11
13980.475862999991
 21
20676.941825999991
 31
0.0
  0
LINE
  5
3ACE
  8
SUNPOU
  6
CONTINUOUS
 62
     4
 10
13894.975863
 20
20596.941825999991
 30
0.0
 11
13654.975863
 21
20596.941825999991
 31
0.0
  0
LINE
  5
3ACF
  8
SUNPOU
  6
CONTINUOUS
 62
     4
 10
13977.475862999991
 20
20596.941825999991
 30
0.0
 11
14217.475862999991
 21
20596.941825999991
 31
0.0
  0
LINE
  5
3AD0
  8
SUNPOU
  6
CONTINUOUS
 62
     4
 10
13894.975863
 20
20596.941825999991
 30
0.0
 11
13977.475862999991
 21
20596.941825999991
 31
0.0
  0
LINE
  5
3AD1
  8
SUNPOU
  6
CONTINUOUS
 62
     4
 10
13894.975863
 20
20596.941825999991
 30
0.0
 11
11327.46992499999
 21
20596.941825999991
 31
0.0
  0
LINE
  5
3AD2
  8
2-0
  6
CONTINUOUS
 62
     6
 10
21010.876702000001
 20
19796.933248000008
 30
0.0
 11
20862.241040393041
 21
19861.88892959525
 31
0.0
  0
LINE
  5
3AD3
  8
2-0
  6
CONTINUOUS
 62
     6
 10
20862.241040393041
 20
19861.88892959525
 30
0.0
 11
20891.34182249575
 21
19906.58901631134
 31
0.0
  0
LINE
  5
3AD4
  8
2-0
  6
CONTINUOUS
 62
     6
 10
20891.34182249575
 20
19906.58901631134
 30
0.0
 11
21010.876702000001
 21
19796.933248000008
 31
0.0
  0
LINE
  5
3AD5
  8
SUNPOU
  6
CONTINUOUS
 62
     4
 10
23321.96814199998
 20
19346.934962999989
 30
0.0
 11
24371.969461999979
 21
19346.934962999989
 31
0.0
  0
LINE
  5
3AD6
  8
SUNPOU
  6
CONTINUOUS
 62
     4
 10
24171.969461999979
 20
19754.434963
 30
0.0
 11
24371.969461999979
 21
19754.434963
 31
0.0
  0
LINE
  5
3AD7
  8
SUNPOU
  6
CONTINUOUS
 62
     4
 10
24291.969461999979
 20
19346.934962999989
 30
0.0
 11
24291.969461999979
 21
19754.434963
 31
0.0
  0
LINE
  5
3AD8
  8
SUNPOU
  6
CONTINUOUS
 62
     4
 10
20509.473552999989
 20
18645.934963
 30
0.0
 11
19622.515280999989
 21
18645.934963
 31
0.0
  0
LINE
  5
3AD9
  8
SUNPOU
  6
CONTINUOUS
 62
     4
 10
19702.515280999982
 20
18645.934963
 30
0.0
 11
19702.515280999982
 21
19754.434963
 31
0.0
  0
LINE
  5
3ADA
  8
SUNPOU
  6
CONTINUOUS
 62
     4
 10
20509.473552999989
 20
18645.934963
 30
0.0
 11
19622.515280999989
 21
18645.934963
 31
0.0
  0
LINE
  5
3ADB
  8
SUNPOU
  6
CONTINUOUS
 62
     4
 10
19702.515280999982
 20
17186.934963
 30
0.0
 11
19702.515280999982
 21
18645.934963
 31
0.0
  0
LINE
  5
3ADC
  8
SUNPOU
  6
CONTINUOUS
 62
     4
 10
20509.473552999989
 20
15728.17547450002
 30
0.0
 11
19622.515280999989
 21
15728.17547450002
 31
0.0
  0
LINE
  5
3ADD
  8
SUNPOU
  6
CONTINUOUS
 62
     4
 10
19702.515280999982
 20
15728.17547450002
 30
0.0
 11
19702.515280999982
 21
17186.934963
 31
0.0
  0
LINE
  5
3ADE
  8
SUNPOU
  6
CONTINUOUS
 62
     4
 10
20509.473552999989
 20
15728.17547450002
 30
0.0
 11
19622.515280999989
 21
15728.17547450002
 31
0.0
  0
LINE
  5
3ADF
  8
SUNPOU
  6
CONTINUOUS
 62
     4
 10
19702.515280999982
 20
14268.934962999991
 30
0.0
 11
19702.515280999982
 21
15728.17547450002
 31
0.0
  0
LINE
  5
3AE0
  8
SUNPOU
  6
CONTINUOUS
 62
     4
 10
20631.969858
 20
13563.17152899999
 30
0.0
 11
20631.969858
 21
13217.486878999989
 31
0.0
  0
LINE
  5
3AE1
  8
SUNPOU
  6
CONTINUOUS
 62
     4
 10
20589.467615000001
 20
14146.437668
 30
0.0
 11
20589.467615000001
 21
13217.486878999989
 31
0.0
  0
LINE
  5
3AE2
  8
SUNPOU
  6
CONTINUOUS
 62
     4
 10
20631.969858
 20
13297.486879
 30
0.0
 11
20871.969858
 21
13297.486879
 31
0.0
  0
LINE
  5
3AE3
  8
SUNPOU
  6
CONTINUOUS
 62
     4
 10
20589.467615000001
 20
13297.486879
 30
0.0
 11
20349.467615000001
 21
13297.486879
 31
0.0
  0
LINE
  5
3AE4
  8
SUNPOU
  6
CONTINUOUS
 62
     4
 10
20631.969858
 20
13297.486879
 30
0.0
 11
20589.467615000001
 21
13297.486879
 31
0.0
  0
LINE
  5
3AE5
  8
SUNPOU
  6
CONTINUOUS
 62
     4
 10
23199.469858
 20
13563.17152899999
 30
0.0
 11
23199.469858
 21
13217.486878999989
 31
0.0
  0
LINE
  5
3AE6
  8
SUNPOU
  6
CONTINUOUS
 62
     4
 10
23241.972100999988
 20
14146.437668
 30
0.0
 11
23241.972100999988
 21
13217.486878999989
 31
0.0
  0
LINE
  5
3AE7
  8
SUNPOU
  6
CONTINUOUS
 62
     4
 10
23199.469858
 20
13297.486879
 30
0.0
 11
22959.469858
 21
13297.486879
 31
0.0
  0
LINE
  5
3AE8
  8
SUNPOU
  6
CONTINUOUS
 62
     4
 10
23241.972100999988
 20
13297.486879
 30
0.0
 11
23481.972100999988
 21
13297.486879
 31
0.0
  0
LINE
  5
3AE9
  8
SUNPOU
  6
CONTINUOUS
 62
     4
 10
23199.469858
 20
13297.486879
 30
0.0
 11
23241.972100999988
 21
13297.486879
 31
0.0
  0
LINE
  5
3AEA
  8
SUNPOU
  6
CONTINUOUS
 62
     4
 10
23199.469858
 20
13563.17152899999
 30
0.0
 11
23199.469858
 21
13217.486878999989
 31
0.0
  0
LINE
  5
3AEB
  8
SUNPOU
  6
CONTINUOUS
 62
     4
 10
23156.96761499999
 20
14146.437668
 30
0.0
 11
23156.96761499999
 21
13217.486878999989
 31
0.0
  0
LINE
  5
3AEC
  8
SUNPOU
  6
CONTINUOUS
 62
     4
 10
23199.469858
 20
13297.486879
 30
0.0
 11
23439.469858
 21
13297.486879
 31
0.0
  0
LINE
  5
3AED
  8
SUNPOU
  6
CONTINUOUS
 62
     4
 10
23156.96761499999
 20
13297.486879
 30
0.0
 11
22916.96761499999
 21
13297.486879
 31
0.0
  0
LINE
  5
3AEE
  8
SUNPOU
  6
CONTINUOUS
 62
     4
 10
23199.469858
 20
13297.486879
 30
0.0
 11
23156.96761499999
 21
13297.486879
 31
0.0
  0
LINE
  5
3AEF
  8
SUNPOU
  6
CONTINUOUS
 62
     4
 10
20631.969858
 20
13563.17152899999
 30
0.0
 11
20631.969858
 21
13217.486878999989
 31
0.0
  0
LINE
  5
3AF0
  8
SUNPOU
  6
CONTINUOUS
 62
     4
 10
20674.472100999981
 20
14146.437668
 30
0.0
 11
20674.472100999981
 21
13217.486878999989
 31
0.0
  0
LINE
  5
3AF1
  8
SUNPOU
  6
CONTINUOUS
 62
     4
 10
20631.969858
 20
13297.486879
 30
0.0
 11
20391.969858
 21
13297.486879
 31
0.0
  0
LINE
  5
3AF2
  8
SUNPOU
  6
CONTINUOUS
 62
     4
 10
20674.472100999981
 20
13297.486879
 30
0.0
 11
20914.472100999981
 21
13297.486879
 31
0.0
  0
LINE
  5
3AF3
  8
SUNPOU
  6
CONTINUOUS
 62
     4
 10
20631.969858
 20
13297.486879
 30
0.0
 11
20674.472100999981
 21
13297.486879
 31
0.0
  0
LINE
  5
3AF4
  8
SUNPOU
  6
CONTINUOUS
 62
     4
 10
20589.467615000001
 20
14146.437668
 30
0.0
 11
20589.467615000001
 21
12817.486878999989
 31
0.0
  0
LINE
  5
3AF5
  8
SUNPOU
  6
CONTINUOUS
 62
     4
 10
23241.972100999988
 20
14146.437668
 30
0.0
 11
23241.972100999988
 21
12817.486878999989
 31
0.0
  0
LINE
  5
3AF6
  8
SUNPOU
  6
CONTINUOUS
 62
     4
 10
20589.467615000001
 20
12897.486878999989
 30
0.0
 11
23241.972100999988
 21
12897.486878999989
 31
0.0
  0
LINE
  5
3AF7
  8
SUNPOU
  6
CONTINUOUS
 62
     4
 10
23321.96814199998
 20
15026.934963
 30
0.0
 11
24371.969461999979
 21
15026.934963
 31
0.0
  0
LINE
  5
3AF8
  8
SUNPOU
  6
CONTINUOUS
 62
     4
 10
24171.969461999979
 20
14268.934962999991
 30
0.0
 11
24371.969461999979
 21
14268.934962999991
 31
0.0
  0
LINE
  5
3AF9
  8
SUNPOU
  6
CONTINUOUS
 62
     4
 10
24291.969461999979
 20
15026.934963
 30
0.0
 11
24291.969461999979
 21
14268.934962999991
 31
0.0
  0
LINE
  5
3AFA
  8
SUNPOU
  6
CONTINUOUS
 62
     4
 10
23321.96814199998
 20
15728.17547450002
 30
0.0
 11
24371.969461999979
 21
15728.17547450002
 31
0.0
  0
LINE
  5
3AFB
  8
SUNPOU
  6
CONTINUOUS
 62
     4
 10
23321.96814199998
 20
15026.934963
 30
0.0
 11
24371.969461999979
 21
15026.934963
 31
0.0
  0
LINE
  5
3AFC
  8
SUNPOU
  6
CONTINUOUS
 62
     4
 10
24291.969461999979
 20
15728.17547450002
 30
0.0
 11
24291.969461999979
 21
15026.934963
 31
0.0
  0
LINE
  5
3AFD
  8
SUNPOU
  6
CONTINUOUS
 62
     4
 10
23321.96814199998
 20
16428.934963
 30
0.0
 11
24371.969461999979
 21
16428.934963
 31
0.0
  0
LINE
  5
3AFE
  8
SUNPOU
  6
CONTINUOUS
 62
     4
 10
23321.96814199998
 20
15728.17547450002
 30
0.0
 11
24371.969461999979
 21
15728.17547450002
 31
0.0
  0
LINE
  5
3AFF
  8
SUNPOU
  6
CONTINUOUS
 62
     4
 10
24291.969461999979
 20
16428.934963
 30
0.0
 11
24291.969461999979
 21
15728.17547450002
 31
0.0
  0
LINE
  5
3B00
  8
SUNPOU
  6
CONTINUOUS
 62
     4
 10
24171.969461999979
 20
17186.934963
 30
0.0
 11
24371.969461999979
 21
17186.934963
 31
0.0
  0
LINE
  5
3B01
  8
SUNPOU
  6
CONTINUOUS
 62
     4
 10
23321.96814199998
 20
16428.934963
 30
0.0
 11
24371.969461999979
 21
16428.934963
 31
0.0
  0
LINE
  5
3B02
  8
SUNPOU
  6
CONTINUOUS
 62
     4
 10
24291.969461999979
 20
17186.934963
 30
0.0
 11
24291.969461999979
 21
16428.934963
 31
0.0
  0
LINE
  5
3B03
  8
SUNPOU
  6
CONTINUOUS
 62
     4
 10
23321.96814199998
 20
17944.934963
 30
0.0
 11
24371.969461999979
 21
17944.934963
 31
0.0
  0
LINE
  5
3B04
  8
SUNPOU
  6
CONTINUOUS
 62
     4
 10
24171.969461999979
 20
17186.934963
 30
0.0
 11
24371.969461999979
 21
17186.934963
 31
0.0
  0
LINE
  5
3B05
  8
SUNPOU
  6
CONTINUOUS
 62
     4
 10
24291.969461999979
 20
17944.934963
 30
0.0
 11
24291.969461999979
 21
17186.934963
 31
0.0
  0
LINE
  5
3B06
  8
SUNPOU
  6
CONTINUOUS
 62
     4
 10
23321.96814199998
 20
18645.934963
 30
0.0
 11
24371.969461999979
 21
18645.934963
 31
0.0
  0
LINE
  5
3B07
  8
SUNPOU
  6
CONTINUOUS
 62
     4
 10
23321.96814199998
 20
17944.934963
 30
0.0
 11
24371.969461999979
 21
17944.934963
 31
0.0
  0
LINE
  5
3B08
  8
SUNPOU
  6
CONTINUOUS
 62
     4
 10
24291.969461999979
 20
18645.934963
 30
0.0
 11
24291.969461999979
 21
17944.934963
 31
0.0
  0
LINE
  5
3B09
  8
SUNPOU
  6
CONTINUOUS
 62
     4
 10
23321.96814199998
 20
19346.934962999989
 30
0.0
 11
24371.969461999979
 21
19346.934962999989
 31
0.0
  0
LINE
  5
3B0A
  8
SUNPOU
  6
CONTINUOUS
 62
     4
 10
23321.96814199998
 20
18645.934963
 30
0.0
 11
24371.969461999979
 21
18645.934963
 31
0.0
  0
LINE
  5
3B0B
  8
SUNPOU
  6
CONTINUOUS
 62
     4
 10
24291.969461999979
 20
19346.934962999989
 30
0.0
 11
24291.969461999979
 21
18645.934963
 31
0.0
  0
LINE
  5
3B0C
  8
SUNPOU
  6
CONTINUOUS
 62
     4
 10
24171.969461999979
 20
17186.934963
 30
0.0
 11
24771.969461999979
 21
17186.934963
 31
0.0
  0
LINE
  5
3B0D
  8
SUNPOU
  6
CONTINUOUS
 62
     4
 10
24171.969461999979
 20
19754.434963
 30
0.0
 11
24771.969461999979
 21
19754.434962999982
 31
0.0
  0
LINE
  5
3B0E
  8
SUNPOU
  6
CONTINUOUS
 62
     4
 10
24691.969461999979
 20
17186.934963
 30
0.0
 11
24691.969461999979
 21
19754.434962999982
 31
0.0
  0
LINE
  5
3B0F
  8
SUNPOU
  6
CONTINUOUS
 62
     4
 10
24171.969461999979
 20
14268.934962999991
 30
0.0
 11
24771.969461999979
 21
14268.934962999991
 31
0.0
  0
LINE
  5
3B10
  8
SUNPOU
  6
CONTINUOUS
 62
     4
 10
24171.969461999979
 20
17186.934963
 30
0.0
 11
24771.969461999979
 21
17186.934963
 31
0.0
  0
LINE
  5
3B11
  8
SUNPOU
  6
CONTINUOUS
 62
     4
 10
24691.969461999979
 20
14268.934962999991
 30
0.0
 11
24691.969461999979
 21
17186.934963
 31
0.0
  0
LINE
  5
3B12
  8
SUNPOU
  6
CONTINUOUS
 62
     4
 10
23321.96814199998
 20
19796.932258000001
 30
0.0
 11
25171.96946199999
 21
19796.932258000001
 31
0.0
  0
LINE
  5
3B13
  8
SUNPOU
  6
CONTINUOUS
 62
     4
 10
23321.96814199998
 20
14226.437668
 30
0.0
 11
25171.96946199999
 21
14226.437668
 31
0.0
  0
LINE
  5
3B14
  8
SUNPOU
  6
CONTINUOUS
 62
     4
 10
25091.96946199999
 20
19796.932258000001
 30
0.0
 11
25091.96946199999
 21
14226.437668
 31
0.0
  0
LINE
  5
3B15
  8
SUNPOU
  6
CONTINUOUS
 62
     4
 10
24171.969461999979
 20
19754.434963
 30
0.0
 11
24771.969461999979
 21
19754.434962999982
 31
0.0
  0
LINE
  5
3B16
  8
SUNPOU
  6
CONTINUOUS
 62
     4
 10
23321.96814199998
 20
19796.932258000001
 30
0.0
 11
24771.969461999979
 21
19796.932258000001
 31
0.0
  0
LINE
  5
3B17
  8
SUNPOU
  6
CONTINUOUS
 62
     4
 10
24691.969461999979
 20
19754.434962999982
 30
0.0
 11
24691.969461999979
 21
19514.434962999982
 31
0.0
  0
LINE
  5
3B18
  8
SUNPOU
  6
CONTINUOUS
 62
     4
 10
24691.969461999979
 20
19796.932258000001
 30
0.0
 11
24691.969461999979
 21
20036.932258000001
 31
0.0
  0
LINE
  5
3B19
  8
SUNPOU
  6
CONTINUOUS
 62
     4
 10
24691.969461999979
 20
19754.434962999982
 30
0.0
 11
24691.969461999979
 21
19796.932258000001
 31
0.0
  0
LINE
  5
3B1A
  8
SUNPOU
  6
CONTINUOUS
 62
     4
 10
24171.969461999979
 20
14268.934962999991
 30
0.0
 11
24771.969461999979
 21
14268.934962999991
 31
0.0
  0
LINE
  5
3B1B
  8
SUNPOU
  6
CONTINUOUS
 62
     4
 10
23321.96814199998
 20
14226.437668
 30
0.0
 11
24771.969461999979
 21
14226.437668
 31
0.0
  0
LINE
  5
3B1C
  8
SUNPOU
  6
CONTINUOUS
 62
     4
 10
24691.969461999979
 20
14268.934962999991
 30
0.0
 11
24691.969461999979
 21
14508.934962999991
 31
0.0
  0
LINE
  5
3B1D
  8
SUNPOU
  6
CONTINUOUS
 62
     4
 10
24691.969461999979
 20
14226.437668
 30
0.0
 11
24691.969461999979
 21
13986.437668
 31
0.0
  0
LINE
  5
3B1E
  8
SUNPOU
  6
CONTINUOUS
 62
     4
 10
24691.969461999979
 20
14268.934962999991
 30
0.0
 11
24691.969461999979
 21
14226.437668
 31
0.0
  0
LINE
  5
3B1F
  8
SUNPOU
  6
CONTINUOUS
 62
     4
 10
20631.969858
 20
19876.933248000008
 30
0.0
 11
20631.969858
 21
20606.936151000031
 31
0.0
  0
LINE
  5
3B20
  8
SUNPOU
  6
CONTINUOUS
 62
     4
 10
21039.469857999989
 20
19876.933248000008
 30
0.0
 11
21039.469857999989
 21
20606.936151000031
 31
0.0
  0
LINE
  5
3B21
  8
SUNPOU
  6
CONTINUOUS
 62
     4
 10
20631.969858
 20
20526.936151000031
 30
0.0
 11
20391.969858
 21
20526.936151000031
 31
0.0
  0
LINE
  5
3B22
  8
SUNPOU
  6
CONTINUOUS
 62
     4
 10
21039.469857999989
 20
20526.936151000031
 30
0.0
 11
21279.469857999989
 21
20526.936151000031
 31
0.0
  0
LINE
  5
3B23
  8
SUNPOU
  6
CONTINUOUS
 62
     4
 10
20631.969858
 20
20526.936151000031
 30
0.0
 11
21039.469857999989
 21
20526.936151000031
 31
0.0
  0
LINE
  5
3B24
  8
SUNPOU
  6
CONTINUOUS
 62
     4
 10
22441.469858
 20
19876.933248000008
 30
0.0
 11
22441.469858
 21
20606.936151000031
 31
0.0
  0
LINE
  5
3B25
  8
SUNPOU
  6
CONTINUOUS
 62
     4
 10
23199.470847500001
 20
19876.933248000008
 30
0.0
 11
23199.470847500001
 21
20606.936151000031
 31
0.0
  0
LINE
  5
3B26
  8
SUNPOU
  6
CONTINUOUS
 62
     4
 10
22441.469858
 20
20526.936151000031
 30
0.0
 11
23199.470847500001
 21
20526.936151000031
 31
0.0
  0
LINE
  5
3B27
  8
SUNPOU
  6
CONTINUOUS
 62
     4
 10
21740.469857999989
 20
19876.933248000008
 30
0.0
 11
21740.469857999989
 21
20606.936151000031
 31
0.0
  0
LINE
  5
3B28
  8
SUNPOU
  6
CONTINUOUS
 62
     4
 10
22441.469858
 20
19876.933248000008
 30
0.0
 11
22441.469858
 21
20606.936151000031
 31
0.0
  0
LINE
  5
3B29
  8
SUNPOU
  6
CONTINUOUS
 62
     4
 10
21740.469857999989
 20
20526.936151000031
 30
0.0
 11
22441.469858
 21
20526.936151000031
 31
0.0
  0
LINE
  5
3B2A
  8
SUNPOU
  6
CONTINUOUS
 62
     4
 10
21039.469857999989
 20
19876.933248000008
 30
0.0
 11
21039.469857999989
 21
20606.936151000031
 31
0.0
  0
LINE
  5
3B2B
  8
SUNPOU
  6
CONTINUOUS
 62
     4
 10
21740.469857999989
 20
19876.933248000008
 30
0.0
 11
21740.469857999989
 21
20606.936151000031
 31
0.0
  0
LINE
  5
3B2C
  8
SUNPOU
  6
CONTINUOUS
 62
     4
 10
21039.469857999989
 20
20526.936151000031
 30
0.0
 11
21740.469857999989
 21
20526.936151000031
 31
0.0
  0
LINE
  5
3B2D
  8
SUNPOU
  6
CONTINUOUS
 62
     4
 10
23199.469858
 20
19876.933248000008
 30
0.0
 11
23199.469858
 21
20606.936151000031
 31
0.0
  0
LINE
  5
3B2E
  8
SUNPOU
  6
CONTINUOUS
 62
     4
 10
23241.96616299999
 20
19876.933248000008
 30
0.0
 11
23241.96616299999
 21
20606.936151000031
 31
0.0
  0
LINE
  5
3B2F
  8
SUNPOU
  6
CONTINUOUS
 62
     4
 10
23199.469858
 20
20526.936151000031
 30
0.0
 11
22959.469858
 21
20526.936151000031
 31
0.0
  0
LINE
  5
3B30
  8
SUNPOU
  6
CONTINUOUS
 62
     4
 10
23241.96616299999
 20
20526.936151000031
 30
0.0
 11
23481.96616299999
 21
20526.936151000031
 31
0.0
  0
LINE
  5
3B31
  8
SUNPOU
  6
CONTINUOUS
 62
     4
 10
23199.469858
 20
20526.936151000031
 30
0.0
 11
23241.96616299999
 21
20526.936151000031
 31
0.0
  0
LINE
  5
3B32
  8
SUNPOU
  6
CONTINUOUS
 62
     4
 10
20631.969858
 20
19876.933248000008
 30
0.0
 11
20631.969858
 21
20606.936151000031
 31
0.0
  0
LINE
  5
3B33
  8
SUNPOU
  6
CONTINUOUS
 62
     4
 10
20589.473552999989
 20
19876.933248000008
 30
0.0
 11
20589.473552999989
 21
20606.936151000031
 31
0.0
  0
LINE
  5
3B34
  8
SUNPOU
  6
CONTINUOUS
 62
     4
 10
20631.969858
 20
20526.936151000031
 30
0.0
 11
20871.969858
 21
20526.936151000031
 31
0.0
  0
LINE
  5
3B35
  8
SUNPOU
  6
CONTINUOUS
 62
     4
 10
20589.473552999989
 20
20526.936151000031
 30
0.0
 11
20349.473552999989
 21
20526.936151000031
 31
0.0
  0
LINE
  5
3B36
  8
SUNPOU
  6
CONTINUOUS
 62
     4
 10
20631.969858
 20
20526.936151000031
 30
0.0
 11
20589.473552999989
 21
20526.936151000031
 31
0.0
  0
LINE
  5
3B37
  8
SUNPOU
  6
CONTINUOUS
 62
     4
 10
15269.22327699999
 20
6677.6370850000039
 30
0.0
 11
16346.72169299999
 21
6677.6370850000039
 31
0.0
  0
LINE
  5
3B38
  8
SUNPOU
  6
CONTINUOUS
 62
     4
 10
15361.528556599371
 20
9026.1370850000021
 30
0.0
 11
16346.72169299999
 21
9026.1370850000021
 31
0.0
  0
LINE
  5
3B39
  8
SUNPOU
  6
CONTINUOUS
 62
     4
 10
16266.72169299999
 20
6677.6370850000039
 30
0.0
 11
16266.72169299999
 21
9026.1370850000021
 31
0.0
  0
LINE
  5
3B3A
  8
SUNPOU
  6
CONTINUOUS
 62
     4
 10
9518.7232769999955
 20
6677.6370850000039
 30
0.0
 11
8436.2248590000017
 21
6677.6370850000039
 31
0.0
  0
LINE
  5
3B3B
  8
SUNPOU
  6
CONTINUOUS
 62
     4
 10
9346.2252549999994
 20
8833.6370850000058
 30
0.0
 11
8436.2248590000017
 21
8833.6370850000058
 31
0.0
  0
LINE
  5
3B3C
  8
SUNPOU
  6
CONTINUOUS
 62
     4
 10
8516.2248590000054
 20
6677.6370850000039
 30
0.0
 11
8516.2248590000054
 21
8833.6370850000058
 31
0.0
  0
LINE
  5
3B3D
  8
SUNPOU
  6
CONTINUOUS
 62
     4
 10
9426.2232769999955
 20
8914.6370850000058
 30
0.0
 11
9426.2232769999955
 21
10305.637111
 31
0.0
  0
LINE
  5
3B3E
  8
SUNPOU
  6
CONTINUOUS
 62
     4
 10
15326.723276999999
 20
9046.5269084124357
 30
0.0
 11
15326.723276999999
 21
10305.637111
 31
0.0
  0
LINE
  5
3B3F
  8
SUNPOU
  6
CONTINUOUS
 62
     4
 10
9426.2232769999955
 20
10225.637111
 30
0.0
 11
15326.723276999999
 21
10225.637111
 31
0.0
  0
LINE
  5
3B40
  8
SUNPOU
  6
CONTINUOUS
 62
     4
 10
15176.72327699999
 20
8972.5471490000054
 30
0.0
 11
15176.72327699999
 21
9905.638761000002
 31
0.0
  0
LINE
  5
3B41
  8
SUNPOU
  6
CONTINUOUS
 62
     4
 10
15326.723276999999
 20
9046.5269084124357
 30
0.0
 11
15326.723276999999
 21
9905.638761000002
 31
0.0
  0
LINE
  5
3B42
  8
SUNPOU
  6
CONTINUOUS
 62
     4
 10
15176.72327699999
 20
9825.638761000002
 30
0.0
 11
14936.72327699999
 21
9825.638761000002
 31
0.0
  0
LINE
  5
3B43
  8
SUNPOU
  6
CONTINUOUS
 62
     4
 10
15326.723276999999
 20
9825.638761000002
 30
0.0
 11
15566.723276999999
 21
9825.638761000002
 31
0.0
  0
LINE
  5
3B44
  8
SUNPOU
  6
CONTINUOUS
 62
     4
 10
15176.72327699999
 20
9825.638761000002
 30
0.0
 11
15326.723276999999
 21
9825.638761000002
 31
0.0
  0
LINE
  5
3B45
  8
SUNPOU
  6
CONTINUOUS
 62
     4
 10
9606.2232769999955
 20
8784.8228606838074
 30
0.0
 11
9606.2232769999955
 21
9905.638761000002
 31
0.0
  0
LINE
  5
3B46
  8
SUNPOU
  6
CONTINUOUS
 62
     4
 10
15176.72327699999
 20
8972.5471490000054
 30
0.0
 11
15176.72327699999
 21
9905.638761000002
 31
0.0
  0
LINE
  5
3B47
  8
SUNPOU
  6
CONTINUOUS
 62
     4
 10
9606.2232769999955
 20
9825.638761000002
 30
0.0
 11
15176.72327699999
 21
9825.638761000002
 31
0.0
  0
LINE
  5
3B48
  8
SUNPOU
  6
CONTINUOUS
 62
     4
 10
9426.2232769999955
 20
8914.6370850000058
 30
0.0
 11
9426.2232769999955
 21
9905.638761000002
 31
0.0
  0
LINE
  5
3B49
  8
SUNPOU
  6
CONTINUOUS
 62
     4
 10
9606.2232769999955
 20
8784.8228606838074
 30
0.0
 11
9606.2232769999955
 21
9905.638761000002
 31
0.0
  0
LINE
  5
3B4A
  8
SUNPOU
  6
CONTINUOUS
 62
     4
 10
9426.2232769999955
 20
9825.638761000002
 30
0.0
 11
9186.2232769999955
 21
9825.638761000002
 31
0.0
  0
LINE
  5
3B4B
  8
SUNPOU
  6
CONTINUOUS
 62
     4
 10
9606.2232769999955
 20
9825.638761000002
 30
0.0
 11
9846.2232769999955
 21
9825.638761000002
 31
0.0
  0
LINE
  5
3B4C
  8
SUNPOU
  6
CONTINUOUS
 62
     4
 10
9426.2232769999955
 20
9825.638761000002
 30
0.0
 11
9606.2232769999955
 21
9825.638761000002
 31
0.0
  0
LINE
  5
3B4D
  8
SUNPOU
  6
CONTINUOUS
 62
     4
 10
9606.2232769999955
 20
6597.6370850000048
 30
0.0
 11
9606.2232769999955
 21
4897.6374150000047
 31
0.0
  0
LINE
  5
3B4E
  8
SUNPOU
  6
CONTINUOUS
 62
     4
 10
15176.72327699999
 20
6597.6370850000048
 30
0.0
 11
15176.72327699999
 21
4897.6374150000047
 31
0.0
  0
LINE
  5
3B4F
  8
SUNPOU
  6
CONTINUOUS
 62
     4
 10
9606.2232769999955
 20
4977.6374150000038
 30
0.0
 11
15176.72327699999
 21
4977.6374150000038
 31
0.0
  0
LINE
  5
3B50
  8
SUNPOU
  6
CONTINUOUS
 62
     4
 10
15134.223276999999
 20
6234.9848270000039
 30
0.0
 11
15134.223276999999
 21
5297.6372500000034
 31
0.0
  0
LINE
  5
3B51
  8
SUNPOU
  6
CONTINUOUS
 62
     4
 10
15176.72327699999
 20
6597.6370850000048
 30
0.0
 11
15176.72327699999
 21
5297.6372500000034
 31
0.0
  0
LINE
  5
3B52
  8
SUNPOU
  6
CONTINUOUS
 62
     4
 10
15134.223276999999
 20
5377.6372500000034
 30
0.0
 11
14894.223276999999
 21
5377.6372500000034
 31
0.0
  0
LINE
  5
3B53
  8
SUNPOU
  6
CONTINUOUS
 62
     4
 10
15176.72327699999
 20
5377.6372500000034
 30
0.0
 11
15416.72327699999
 21
5377.6372500000034
 31
0.0
  0
LINE
  5
3B54
  8
SUNPOU
  6
CONTINUOUS
 62
     4
 10
15134.223276999999
 20
5377.6372500000034
 30
0.0
 11
15176.72327699999
 21
5377.6372500000034
 31
0.0
  0
LINE
  5
3B55
  8
SUNPOU
  6
CONTINUOUS
 62
     4
 10
9648.7232769999955
 20
6234.9848270000039
 30
0.0
 11
9648.7232769999955
 21
5297.6372500000034
 31
0.0
  0
LINE
  5
3B56
  8
SUNPOU
  6
CONTINUOUS
 62
     4
 10
9606.2232769999955
 20
6597.6370850000048
 30
0.0
 11
9606.2232769999955
 21
5297.6372500000034
 31
0.0
  0
LINE
  5
3B57
  8
SUNPOU
  6
CONTINUOUS
 62
     4
 10
9648.7232769999955
 20
5377.6372500000034
 30
0.0
 11
9888.7232769999955
 21
5377.6372500000034
 31
0.0
  0
LINE
  5
3B58
  8
SUNPOU
  6
CONTINUOUS
 62
     4
 10
9606.2232769999955
 20
5377.6372500000034
 30
0.0
 11
9366.2232769999955
 21
5377.6372500000034
 31
0.0
  0
LINE
  5
3B59
  8
SUNPOU
  6
CONTINUOUS
 62
     4
 10
9648.7232769999955
 20
5377.6372500000034
 30
0.0
 11
9606.2232769999955
 21
5377.6372500000034
 31
0.0
  0
LINE
  5
3B5A
  8
SUNPOU
  6
CONTINUOUS
 62
     4
 10
12216.223276999999
 20
6234.9848270000039
 30
0.0
 11
12216.223276999999
 21
5297.6372500000034
 31
0.0
  0
LINE
  5
3B5B
  8
SUNPOU
  6
CONTINUOUS
 62
     4
 10
9648.7232769999955
 20
6234.9848270000039
 30
0.0
 11
9648.7232769999955
 21
5297.6372500000034
 31
0.0
  0
LINE
  5
3B5C
  8
SUNPOU
  6
CONTINUOUS
 62
     4
 10
12216.223276999999
 20
5377.6372500000034
 30
0.0
 11
9648.7232769999955
 21
5377.6372500000034
 31
0.0
  0
LINE
  5
3B5D
  8
SUNPOU
  6
CONTINUOUS
 62
     4
 10
12216.223276999999
 20
6234.9848270000039
 30
0.0
 11
12216.223276999999
 21
5297.6372500000034
 31
0.0
  0
LINE
  5
3B5E
  8
SUNPOU
  6
CONTINUOUS
 62
     4
 10
15134.223276999999
 20
6234.9848270000039
 30
0.0
 11
15134.223276999999
 21
5297.6372500000034
 31
0.0
  0
LINE
  5
3B5F
  8
SUNPOU
  6
CONTINUOUS
 62
     4
 10
12216.223276999999
 20
5377.6372500000034
 30
0.0
 11
15134.223276999999
 21
5377.6372500000034
 31
0.0
  0
LINE
  5
3B60
  8
SUNPOU
  6
CONTINUOUS
 62
     4
 10
20501.967218999998
 20
6677.6370850000039
 30
0.0
 11
19701.96853799999
 21
6677.6370850000039
 31
0.0
  0
LINE
  5
3B61
  8
SUNPOU
  6
CONTINUOUS
 62
     4
 10
20501.967218999998
 20
8569.1370850000021
 30
0.0
 11
19701.96853799999
 21
8569.1370850000058
 31
0.0
  0
LINE
  5
3B62
  8
SUNPOU
  6
CONTINUOUS
 62
     4
 10
19781.96853799999
 20
6677.6370850000039
 30
0.0
 11
19781.96853799999
 21
8569.1370850000058
 31
0.0
  0
LINE
  5
3B63
  8
SUNPOU
  6
CONTINUOUS
 62
     4
 10
20501.967218999998
 20
6677.6370850000039
 30
0.0
 11
19301.966228999991
 21
6677.6370850000039
 31
0.0
  0
LINE
  5
3B64
  8
SUNPOU
  6
CONTINUOUS
 62
     4
 10
20469.469463000001
 20
9026.136940000004
 30
0.0
 11
19301.966229000001
 21
9026.136940000004
 31
0.0
  0
LINE
  5
3B65
  8
SUNPOU
  6
CONTINUOUS
 62
     4
 10
19381.966228999991
 20
6677.6370850000039
 30
0.0
 11
19381.966228999991
 21
9026.136940000004
 31
0.0
  0
LINE
  5
3B76
  8
SUNPOU
  6
CONTINUOUS
 62
     4
 10
23199.469858
 20
6234.9848270000057
 30
0.0
 11
23199.469858
 21
5297.6372500000089
 31
0.0
  0
LINE
  5
3B77
  8
SUNPOU
  6
CONTINUOUS
 62
     4
 10
23241.969858
 20
6497.6372500000098
 30
0.0
 11
23241.969858
 21
5297.6372500000089
 31
0.0
  0
LINE
  5
3B78
  8
SUNPOU
  6
CONTINUOUS
 62
     4
 10
23199.469858
 20
5377.6372500000098
 30
0.0
 11
22959.469858
 21
5377.6372500000098
 31
0.0
  0
LINE
  5
3B79
  8
SUNPOU
  6
CONTINUOUS
 62
     4
 10
23241.969858
 20
5377.6372500000098
 30
0.0
 11
23481.969858
 21
5377.6372500000098
 31
0.0
  0
LINE
  5
3B7A
  8
SUNPOU
  6
CONTINUOUS
 62
     4
 10
23199.469858
 20
5377.6372500000098
 30
0.0
 11
23241.969858
 21
5377.6372500000098
 31
0.0
  0
LINE
  5
3B7B
  8
SUNPOU
  6
CONTINUOUS
 62
     4
 10
20725.969858
 20
6497.6372500000098
 30
0.0
 11
20725.969858
 21
5697.6372500000089
 31
0.0
  0
LINE
  5
3B7C
  8
SUNPOU
  6
CONTINUOUS
 62
     4
 10
23105.469858
 20
6497.6372500000098
 30
0.0
 11
23105.469858
 21
5697.6372500000089
 31
0.0
  0
LINE
  5
3B7D
  8
SUNPOU
  6
CONTINUOUS
 62
     4
 10
20725.969858
 20
5777.6372500000089
 30
0.0
 11
23105.469858
 21
5777.6372500000089
 31
0.0
  0
LINE
  5
3B7E
  8
SUNPOU
  6
CONTINUOUS
 62
     4
 10
20631.969858
 20
6234.9848270000057
 30
0.0
 11
20631.969858
 21
5297.6372500000089
 31
0.0
  0
LINE
  5
3B7F
  8
SUNPOU
  6
CONTINUOUS
 62
     4
 10
23199.469858
 20
6234.9848270000057
 30
0.0
 11
23199.469858
 21
5297.6372500000089
 31
0.0
  0
LINE
  5
3B80
  8
SUNPOU
  6
CONTINUOUS
 62
     4
 10
20631.969858
 20
5377.6372500000098
 30
0.0
 11
23199.469858
 21
5377.6372500000098
 31
0.0
  0
LINE
  5
3B81
  8
SUNPOU
  6
CONTINUOUS
 62
     4
 10
20631.969858
 20
6234.9848270000057
 30
0.0
 11
20631.969858
 21
5297.6372500000089
 31
0.0
  0
LINE
  5
3B82
  8
SUNPOU
  6
CONTINUOUS
 62
     4
 10
20589.469858
 20
6497.6372500000098
 30
0.0
 11
20589.469858
 21
5297.6372500000089
 31
0.0
  0
LINE
  5
3B83
  8
SUNPOU
  6
CONTINUOUS
 62
     4
 10
20631.969858
 20
5377.6372500000098
 30
0.0
 11
20871.969858
 21
5377.6372500000098
 31
0.0
  0
LINE
  5
3B84
  8
SUNPOU
  6
CONTINUOUS
 62
     4
 10
20589.469858
 20
5377.6372500000098
 30
0.0
 11
20349.469857999989
 21
5377.6372500000098
 31
0.0
  0
LINE
  5
3B85
  8
SUNPOU
  6
CONTINUOUS
 62
     4
 10
20631.969858
 20
5377.6372500000098
 30
0.0
 11
20589.469858
 21
5377.6372500000098
 31
0.0
  0
LINE
  5
3B86
  8
SUNPOU
  6
CONTINUOUS
 62
     4
 10
20589.469858
 20
6497.6372500000098
 30
0.0
 11
20589.469858
 21
4897.6374150000092
 31
0.0
  0
LINE
  5
3B87
  8
SUNPOU
  6
CONTINUOUS
 62
     4
 10
23241.969858
 20
6497.6372500000098
 30
0.0
 11
23241.969858
 21
4897.6374150000092
 31
0.0
  0
LINE
  5
3B88
  8
SUNPOU
  6
CONTINUOUS
 62
     4
 10
20589.469858
 20
4977.6374150000102
 30
0.0
 11
23241.969858
 21
4977.6374150000102
 31
0.0
  0
TEXT
  5
3B89
  8
0
  6
CONTINUOUS
 62
     7
 10
21515.719857999989
 20
5057.6374150000056
 30
0.0
 40
160.0
  1
2652.5
  0
TEXT
  5
3B8A
  8
0
  6
CONTINUOUS
 62
     7
 10
20023.430867741161
 20
5457.6372500000089
 30
0.0
 40
160.0
  1
42.5
  0
TEXT
  5
3B8B
  8
0
  6
CONTINUOUS
 62
     7
 10
21515.719857999989
 20
5457.6372500000089
 30
0.0
 40
160.0
  1
2567.5
  0
TEXT
  5
3B8C
  8
0
  6
CONTINUOUS
 62
     7
 10
20987.719858
 20
5857.6372500000089
 30
0.0
 40
160.0
  1
有効開口巾 2379.5
  0
TEXT
  5
3B8D
  8
0
  6
CONTINUOUS
 62
     7
 10
23328.00884825884
 20
5457.6372500000089
 30
0.0
 40
160.0
  1
42.5
  0
TEXT
  5
3B92
  8
0
  6
CONTINUOUS
 62
     7
 10
19301.966228999991
 20
6870.5536791666746
 30
0.0
 40
160.0
  1
2348.5 (2588.5)
 50
90.0
  0
TEXT
  5
3B93
  8
0
  6
CONTINUOUS
 62
     7
 10
19701.96853799999
 20
6741.6163232912786
 30
0.0
 40
160.0
  1
有効開口高サ 1891.5
 50
90.0
  0
TEXT
  5
3B94
  8
0
  6
CONTINUOUS
 62
     7
 10
13408.55661033332
 20
5457.6372500000034
 30
0.0
 40
160.0
  1
2918
  0
TEXT
  5
3B95
  8
0
  6
CONTINUOUS
 62
     7
 10
10532.473276999999
 20
5457.6372500000034
 30
0.0
 40
160.0
  1
2567.5
  0
TEXT
  5
3B96
  8
0
  6
CONTINUOUS
 62
     7
 10
9009.0495679036922
 20
5457.6372500000034
 30
0.0
 40
160.0
  1
42.5
  0
TEXT
  5
3B97
  8
0
  6
CONTINUOUS
 62
     7
 10
15315.04191430981
 20
5457.6372500000034
 30
0.0
 40
160.0
  1
42.5
  0
TEXT
  5
3B98
  8
0
  6
CONTINUOUS
 62
     7
 10
12004.80661033332
 20
5057.6374150000047
 30
0.0
 40
160.0
  1
5570.5
  0
TEXT
  5
3B99
  8
0
  6
CONTINUOUS
 62
     7
 10
9012.8899436666597
 20
9905.638761000002
 30
0.0
 40
160.0
  1
180
  0
TEXT
  5
3B9A
  8
0
  6
CONTINUOUS
 62
     7
 10
12004.80661033332
 20
9905.638761000002
 30
0.0
 40
160.0
  1
5570.5
  0
TEXT
  5
3B9B
  8
0
  6
CONTINUOUS
 62
     7
 10
15393.38994366666
 20
9905.638761000002
 30
0.0
 40
160.0
  1
150
  0
TEXT
  5
3B9C
  8
0
  6
CONTINUOUS
 62
     7
 10
12003.13994366666
 20
10305.637111
 30
0.0
 40
160.0
  1
5900.5
  0
TEXT
  5
3B9D
  8
0
  6
CONTINUOUS
 62
     7
 10
8436.2248590000017
 20
6976.970418333337
 30
0.0
 40
160.0
  1
2156（2396）
 50
90.0
  0
TEXT
  5
3B9E
  8
0
  6
CONTINUOUS
 62
     7
 10
16186.72169299999
 20
6833.220418333337
 30
0.0
 40
160.0
  1
2348.5（2588.5）
 50
90.0
  0
TEXT
  5
3B9F
  8
0
  6
CONTINUOUS
 62
     7
 10
20029.157878471178
 20
20606.936151000031
 30
0.0
 40
160.0
  1
42.5
  0
TEXT
  5
3BA0
  8
0
  6
CONTINUOUS
 62
     7
 10
23322.281837528779
 20
20606.936151000031
 30
0.0
 40
160.0
  1
42.5
  0
TEXT
  5
3BA1
  8
0
  6
CONTINUOUS
 62
     7
 10
21216.636524666661
 20
20286.936151000031
 30
0.0
 40
160.0
  1
701
  0
TEXT
  5
3BA2
  8
0
  6
CONTINUOUS
 62
     7
 10
21917.636524666661
 20
20606.936151000031
 30
0.0
 40
160.0
  1
701
  0
TEXT
  5
3BA3
  8
0
  6
CONTINUOUS
 62
     7
 10
22607.137019416659
 20
20606.936151000031
 30
0.0
 40
160.0
  1
758
  0
TEXT
  5
3BA4
  8
0
  6
CONTINUOUS
 62
     7
 10
20732.803191333329
 20
20606.936151000031
 30
0.0
 40
160.0
  1
407.5
  0
TEXT
  5
3BA5
  8
0
  6
CONTINUOUS
 62
     7
 10
24611.969461999979
 20
13652.8814316032
 30
0.0
 40
160.0
  1
42.5
 50
90.0
  0
TEXT
  5
3BA6
  8
0
  6
CONTINUOUS
 62
     7
 10
24611.969461999979
 20
19890.488494396792
 30
0.0
 40
160.0
  1
42.5
 50
90.0
  0
TEXT
  5
3BA7
  8
0
  6
CONTINUOUS
 62
     7
 10
25011.969461999979
 20
16625.018296333339
 30
0.0
 40
160.0
  1
5570.5
 50
90.0
  0
TEXT
  5
3BA8
  8
0
  6
CONTINUOUS
 62
     7
 10
24611.969461999979
 20
15461.26829633333
 30
0.0
 40
160.0
  1
2918
 50
90.0
  0
TEXT
  5
3BA9
  8
0
  6
CONTINUOUS
 62
     7
 10
24611.969461999979
 20
18070.684963
 30
0.0
 40
160.0
  1
2567.5
 50
90.0
  0
TEXT
  5
3BAA
  8
0
  6
CONTINUOUS
 62
     7
 10
24211.969461999979
 20
18823.101629666671
 30
0.0
 40
160.0
  1
701
 50
90.0
  0
TEXT
  5
3BAB
  8
0
  6
CONTINUOUS
 62
     7
 10
24211.969461999979
 20
18122.101629666671
 30
0.0
 40
160.0
  1
701
 50
90.0
  0
TEXT
  5
3BAC
  8
0
  6
CONTINUOUS
 62
     7
 10
24211.969461999979
 20
17352.601629666671
 30
0.0
 40
160.0
  1
758
 50
90.0
  0
TEXT
  5
3BAD
  8
0
  6
CONTINUOUS
 62
     7
 10
24211.969461999979
 20
16594.601629666671
 30
0.0
 40
160.0
  1
758
 50
90.0
  0
TEXT
  5
3BAE
  8
0
  6
CONTINUOUS
 62
     7
 10
24211.969461999979
 20
15905.22188541668
 30
0.0
 40
160.0
  1
701
 50
90.0
  0
TEXT
  5
3BAF
  8
0
  6
CONTINUOUS
 62
     7
 10
24211.969461999979
 20
15204.22188541668
 30
0.0
 40
160.0
  1
701
 50
90.0
  0
TEXT
  5
3BB0
  8
0
  6
CONTINUOUS
 62
     7
 10
24211.969461999979
 20
14434.60162966666
 30
0.0
 40
160.0
  1
758
 50
90.0
  0
TEXT
  5
3BB1
  8
0
  6
CONTINUOUS
 62
     7
 10
21515.719857999989
 20
12977.486878999989
 30
0.0
 40
160.0
  1
2652.5
  0
TEXT
  5
3BB2
  8
0
  6
CONTINUOUS
 62
     7
 10
20750.023530382081
 20
13377.486879
 30
0.0
 40
160.0
  1
42.5
  0
TEXT
  5
3BB3
  8
0
  6
CONTINUOUS
 62
     7
 10
22601.416185617909
 20
13377.486879
 30
0.0
 40
160.0
  1
42.5
  0
TEXT
  5
3BB4
  8
0
  6
CONTINUOUS
 62
     7
 10
23317.523530382081
 20
13377.486879
 30
0.0
 40
160.0
  1
42.5
  0
TEXT
  5
3BB5
  8
0
  6
CONTINUOUS
 62
     7
 10
20033.916185617902
 20
13377.486879
 30
0.0
 40
160.0
  1
42.5
  0
TEXT
  5
3BB6
  8
0
  6
CONTINUOUS
 62
     7
 10
19622.515280999989
 20
14731.888552083339
 30
0.0
 40
160.0
  1
1459
 50
90.0
  0
TEXT
  5
3BB7
  8
0
  6
CONTINUOUS
 62
     7
 10
19622.515280999989
 20
16190.88855208335
 30
0.0
 40
160.0
  1
1459
 50
90.0
  0
TEXT
  5
3BB8
  8
0
  6
CONTINUOUS
 62
     7
 10
19622.515280999989
 20
17649.768296333332
 30
0.0
 40
160.0
  1
1459
 50
90.0
  0
TEXT
  5
3BB9
  8
0
  6
CONTINUOUS
 62
     7
 10
19622.515280999989
 20
18866.851629666671
 30
0.0
 40
160.0
  1
1108.5
 50
90.0
  0
TEXT
  5
3BBA
  8
0
  6
CONTINUOUS
 62
     7
 10
24571.969461999979
 20
19056.312930643209
 30
0.0
 40
160.0
  1
407.5
 50
90.0
  0
TEXT
  5
3BBB
  8
0
  6
CONTINUOUS
 62
     7
 10
12211.222894
 20
20676.941825999991
 30
0.0
 40
160.0
  1
2567.5
  0
TEXT
  5
3BBC
  8
0
  6
CONTINUOUS
 62
     7
 10
14031.47256902327
 20
20676.941825999991
 30
0.0
 40
160.0
  1
85.5
  0
TEXT
  5
3BBD
  8
0
  6
CONTINUOUS
 62
     7
 10
10710.97321897672
 20
20676.941825999991
 30
0.0
 40
160.0
  1
85.5
  0
TEXT
  5
3BBE
  8
0
  6
CONTINUOUS
 62
     7
 10
10317.972128999971
 20
18866.851629666671
 30
0.0
 40
160.0
  1
1108.5
 50
90.0
  0
TEXT
  5
3BBF
  8
0
  6
CONTINUOUS
 62
     7
 10
10317.972128999971
 20
20065.89014780768
 30
0.0
 40
160.0
  1
222.5
 50
90.0
  0
TEXT
  5
3BC0
  8
0
  6
CONTINUOUS
 62
     7
 10
10717.972128999991
 20
20096.930872000012
 30
0.0
 40
160.0
  1
20
 50
90.0
  0
TEXT
  5
3BC1
  8
0
  6
CONTINUOUS
 62
     7
 10
10317.972128999991
 20
17649.768296333332
 30
0.0
 40
160.0
  1
1459
 50
90.0
  0
TEXT
  5
3BC2
  8
0
  6
CONTINUOUS
 62
     7
 10
10317.972128999991
 20
16190.88855208335
 30
0.0
 40
160.0
  1
1459
 50
90.0
  0
TEXT
  5
3BC3
  8
0
  6
CONTINUOUS
 62
     7
 10
10317.972128999991
 20
14731.888552083339
 30
0.0
 40
160.0
  1
1459
 50
90.0
  0
TEXT
  5
3BC4
  8
0
  6
CONTINUOUS
 62
     7
 10
10317.971803999981
 20
13460.98195270263
 30
0.0
 40
160.0
  1
192.5
 50
90.0
  0
ARC
  5
3BC5
  8
0
  6
BYBLOCK
 62
     0
 10
10397.971803999981
 20
14268.934962999991
 30
0.0
 40
15.0
 50
90.0
 51
270.0
  0
ARC
  5
3BC6
  8
0
  6
BYBLOCK
 62
     0
 10
10397.971803999981
 20
14268.934962999991
 30
0.0
 40
15.0
 50
270.0
 51
90.0
  0
ARC
  5
3BC7
  8
0
  6
BYBLOCK
 62
     0
 10
10397.971803999981
 20
14076.439648
 30
0.0
 40
15.0
 50
270.0
 51
90.0
  0
ARC
  5
3BC8
  8
0
  6
BYBLOCK
 62
     0
 10
10397.971803999981
 20
14076.439648
 30
0.0
 40
15.0
 50
90.0
 51
270.0
  0
ARC
  5
3BC9
  8
0
  6
BYBLOCK
 62
     0
 10
10397.972128999991
 20
15728.17547450002
 30
0.0
 40
15.0
 50
270.0
 51
90.0
  0
ARC
  5
3BCA
  8
0
  6
BYBLOCK
 62
     0
 10
10397.972128999991
 20
15728.17547450002
 30
0.0
 40
15.0
 50
90.0
 51
270.0
  0
ARC
  5
3BCB
  8
0
  6
BYBLOCK
 62
     0
 10
10397.972128999991
 20
14268.934962999991
 30
0.0
 40
15.0
 50
90.0
 51
270.0
  0
ARC
  5
3BCC
  8
0
  6
BYBLOCK
 62
     0
 10
10397.972128999991
 20
14268.934962999991
 30
0.0
 40
15.0
 50
270.0
 51
90.0
  0
ARC
  5
3BCD
  8
0
  6
BYBLOCK
 62
     0
 10
10397.972128999991
 20
17186.934963
 30
0.0
 40
15.0
 50
270.0
 51
90.0
  0
ARC
  5
3BCE
  8
0
  6
BYBLOCK
 62
     0
 10
10397.972128999991
 20
17186.934963
 30
0.0
 40
15.0
 50
90.0
 51
270.0
  0
ARC
  5
3BCF
  8
0
  6
BYBLOCK
 62
     0
 10
10397.972128999991
 20
15728.17547450002
 30
0.0
 40
15.0
 50
90.0
 51
270.0
  0
ARC
  5
3BD0
  8
0
  6
BYBLOCK
 62
     0
 10
10397.972128999991
 20
15728.17547450002
 30
0.0
 40
15.0
 50
270.0
 51
90.0
  0
ARC
  5
3BD1
  8
0
  6
BYBLOCK
 62
     0
 10
10397.972128999991
 20
18645.934963
 30
0.0
 40
15.0
 50
270.0
 51
90.0
  0
ARC
  5
3BD2
  8
0
  6
BYBLOCK
 62
     0
 10
10397.972128999991
 20
18645.934963
 30
0.0
 40
15.0
 50
90.0
 51
270.0
  0
ARC
  5
3BD3
  8
0
  6
BYBLOCK
 62
     0
 10
10397.972128999991
 20
17186.934963
 30
0.0
 40
15.0
 50
90.0
 51
270.0
  0
ARC
  5
3BD4
  8
0
  6
BYBLOCK
 62
     0
 10
10397.972128999991
 20
17186.934963
 30
0.0
 40
15.0
 50
270.0
 51
90.0
  0
ARC
  5
3BD5
  8
0
  6
BYBLOCK
 62
     0
 10
10797.972128999991
 20
19956.930872000001
 30
0.0
 40
15.0
 50
270.0
 51
90.0
  0
ARC
  5
3BD6
  8
0
  6
BYBLOCK
 62
     0
 10
10797.972128999991
 20
19956.930872000001
 30
0.0
 40
15.0
 50
90.0
 51
270.0
  0
ARC
  5
3BD7
  8
0
  6
BYBLOCK
 62
     0
 10
10797.972128999991
 20
19976.930872000001
 30
0.0
 40
15.0
 50
90.0
 51
270.0
  0
ARC
  5
3BD8
  8
0
  6
BYBLOCK
 62
     0
 10
10797.972128999991
 20
19976.930872000001
 30
0.0
 40
15.0
 50
270.0
 51
90.0
  0
ARC
  5
3BD9
  8
0
  6
BYBLOCK
 62
     0
 10
10397.972128999991
 20
19754.434963
 30
0.0
 40
15.0
 50
270.0
 51
90.0
  0
ARC
  5
3BDA
  8
0
  6
BYBLOCK
 62
     0
 10
10397.972128999991
 20
19754.434963
 30
0.0
 40
15.0
 50
90.0
 51
270.0
  0
ARC
  5
3BDB
  8
0
  6
BYBLOCK
 62
     0
 10
10397.972128999991
 20
19976.930872000001
 30
0.0
 40
15.0
 50
90.0
 51
270.0
  0
ARC
  5
3BDC
  8
0
  6
BYBLOCK
 62
     0
 10
10397.972128999991
 20
19976.930872000001
 30
0.0
 40
15.0
 50
270.0
 51
90.0
  0
ARC
  5
3BDD
  8
0
  6
BYBLOCK
 62
     0
 10
10397.972128999991
 20
18645.934963
 30
0.0
 40
15.0
 50
90.0
 51
270.0
  0
ARC
  5
3BDE
  8
0
  6
BYBLOCK
 62
     0
 10
10397.972128999991
 20
18645.934963
 30
0.0
 40
15.0
 50
270.0
 51
90.0
  0
ARC
  5
3BDF
  8
0
  6
BYBLOCK
 62
     0
 10
10397.972128999991
 20
19754.434963
 30
0.0
 40
15.0
 50
270.0
 51
90.0
  0
ARC
  5
3BE0
  8
0
  6
BYBLOCK
 62
     0
 10
10397.972128999991
 20
19754.434963
 30
0.0
 40
15.0
 50
90.0
 51
270.0
  0
ARC
  5
3BE1
  8
0
  6
BYBLOCK
 62
     0
 10
11327.46992499999
 20
20596.941825999991
 30
0.0
 40
15.0
 50
0.0
 51
180.0
  0
ARC
  5
3BE2
  8
0
  6
BYBLOCK
 62
     0
 10
11327.46992499999
 20
20596.941825999991
 30
0.0
 40
15.0
 50
180.0
 51
0.0
  0
ARC
  5
3BE3
  8
0
  6
BYBLOCK
 62
     0
 10
11241.96992499999
 20
20596.941825999991
 30
0.0
 40
15.0
 50
180.0
 51
0.0
  0
ARC
  5
3BE4
  8
0
  6
BYBLOCK
 62
     0
 10
11241.96992499999
 20
20596.941825999991
 30
0.0
 40
15.0
 50
0.0
 51
180.0
  0
ARC
  5
3BE5
  8
0
  6
BYBLOCK
 62
     0
 10
13894.975863
 20
20596.941825999991
 30
0.0
 40
15.0
 50
180.0
 51
0.0
  0
ARC
  5
3BE6
  8
0
  6
BYBLOCK
 62
     0
 10
13894.975863
 20
20596.941825999991
 30
0.0
 40
15.0
 50
0.0
 51
180.0
  0
ARC
  5
3BE7
  8
0
  6
BYBLOCK
 62
     0
 10
13980.475862999991
 20
20596.941825999991
 30
0.0
 40
15.0
 50
0.0
 51
180.0
  0
ARC
  5
3BE8
  8
0
  6
BYBLOCK
 62
     0
 10
13980.475862999991
 20
20596.941825999991
 30
0.0
 40
15.0
 50
180.0
 51
0.0
  0
ARC
  5
3BE9
  8
0
  6
BYBLOCK
 62
     0
 10
13894.975863
 20
20596.941825999991
 30
0.0
 40
15.0
 50
180.0
 51
0.0
  0
ARC
  5
3BEA
  8
0
  6
BYBLOCK
 62
     0
 10
13894.975863
 20
20596.941825999991
 30
0.0
 40
15.0
 50
0.0
 51
180.0
  0
ARC
  5
3BEB
  8
0
  6
BYBLOCK
 62
     0
 10
11327.46992499999
 20
20596.941825999991
 30
0.0
 40
15.0
 50
0.0
 51
180.0
  0
ARC
  5
3BEC
  8
0
  6
BYBLOCK
 62
     0
 10
11327.46992499999
 20
20596.941825999991
 30
0.0
 40
15.0
 50
180.0
 51
0.0
  0
ARC
  5
3BED
  8
0
  6
BYBLOCK
 62
     0
 10
24291.969461999979
 20
19346.934962999989
 30
0.0
 40
15.0
 50
90.0
 51
270.0
  0
ARC
  5
3BEE
  8
0
  6
BYBLOCK
 62
     0
 10
24291.969461999979
 20
19346.934962999989
 30
0.0
 40
15.0
 50
270.0
 51
90.0
  0
ARC
  5
3BEF
  8
0
  6
BYBLOCK
 62
     0
 10
24291.969461999979
 20
19754.434963
 30
0.0
 40
15.0
 50
270.0
 51
90.0
  0
ARC
  5
3BF0
  8
0
  6
BYBLOCK
 62
     0
 10
24291.969461999979
 20
19754.434963
 30
0.0
 40
15.0
 50
90.0
 51
270.0
  0
ARC
  5
3BF1
  8
0
  6
BYBLOCK
 62
     0
 10
19702.515280999982
 20
18645.934963
 30
0.0
 40
15.0
 50
90.0
 51
270.0
  0
ARC
  5
3BF2
  8
0
  6
BYBLOCK
 62
     0
 10
19702.515280999982
 20
18645.934963
 30
0.0
 40
15.0
 50
270.0
 51
90.0
  0
ARC
  5
3BF3
  8
0
  6
BYBLOCK
 62
     0
 10
19702.515280999982
 20
19754.434963
 30
0.0
 40
15.0
 50
270.0
 51
90.0
  0
ARC
  5
3BF4
  8
0
  6
BYBLOCK
 62
     0
 10
19702.515280999982
 20
19754.434963
 30
0.0
 40
15.0
 50
90.0
 51
270.0
  0
ARC
  5
3BF5
  8
0
  6
BYBLOCK
 62
     0
 10
19702.515280999982
 20
17186.934963
 30
0.0
 40
15.0
 50
90.0
 51
270.0
  0
ARC
  5
3BF6
  8
0
  6
BYBLOCK
 62
     0
 10
19702.515280999982
 20
17186.934963
 30
0.0
 40
15.0
 50
270.0
 51
90.0
  0
ARC
  5
3BF7
  8
0
  6
BYBLOCK
 62
     0
 10
19702.515280999982
 20
18645.934963
 30
0.0
 40
15.0
 50
270.0
 51
90.0
  0
ARC
  5
3BF8
  8
0
  6
BYBLOCK
 62
     0
 10
19702.515280999982
 20
18645.934963
 30
0.0
 40
15.0
 50
90.0
 51
270.0
  0
ARC
  5
3BF9
  8
0
  6
BYBLOCK
 62
     0
 10
19702.515280999982
 20
15728.17547450002
 30
0.0
 40
15.0
 50
90.0
 51
270.0
  0
ARC
  5
3BFA
  8
0
  6
BYBLOCK
 62
     0
 10
19702.515280999982
 20
15728.17547450002
 30
0.0
 40
15.0
 50
270.0
 51
90.0
  0
ARC
  5
3BFB
  8
0
  6
BYBLOCK
 62
     0
 10
19702.515280999982
 20
17186.934963
 30
0.0
 40
15.0
 50
270.0
 51
90.0
  0
ARC
  5
3BFC
  8
0
  6
BYBLOCK
 62
     0
 10
19702.515280999982
 20
17186.934963
 30
0.0
 40
15.0
 50
90.0
 51
270.0
  0
ARC
  5
3BFD
  8
0
  6
BYBLOCK
 62
     0
 10
19702.515280999982
 20
14268.934962999991
 30
0.0
 40
15.0
 50
90.0
 51
270.0
  0
ARC
  5
3BFE
  8
0
  6
BYBLOCK
 62
     0
 10
19702.515280999982
 20
14268.934962999991
 30
0.0
 40
15.0
 50
270.0
 51
90.0
  0
ARC
  5
3BFF
  8
0
  6
BYBLOCK
 62
     0
 10
19702.515280999982
 20
15728.17547450002
 30
0.0
 40
15.0
 50
270.0
 51
90.0
  0
ARC
  5
3C00
  8
0
  6
BYBLOCK
 62
     0
 10
19702.515280999982
 20
15728.17547450002
 30
0.0
 40
15.0
 50
90.0
 51
270.0
  0
ARC
  5
3C01
  8
0
  6
BYBLOCK
 62
     0
 10
20631.969858
 20
13297.486879
 30
0.0
 40
15.0
 50
0.0
 51
180.0
  0
ARC
  5
3C02
  8
0
  6
BYBLOCK
 62
     0
 10
20631.969858
 20
13297.486879
 30
0.0
 40
15.0
 50
180.0
 51
0.0
  0
ARC
  5
3C03
  8
0
  6
BYBLOCK
 62
     0
 10
20589.467615000001
 20
13297.486879
 30
0.0
 40
15.0
 50
180.0
 51
0.0
  0
ARC
  5
3C04
  8
0
  6
BYBLOCK
 62
     0
 10
20589.467615000001
 20
13297.486879
 30
0.0
 40
15.0
 50
0.0
 51
180.0
  0
ARC
  5
3C05
  8
0
  6
BYBLOCK
 62
     0
 10
23199.469858
 20
13297.486879
 30
0.0
 40
15.0
 50
180.0
 51
0.0
  0
ARC
  5
3C06
  8
0
  6
BYBLOCK
 62
     0
 10
23199.469858
 20
13297.486879
 30
0.0
 40
15.0
 50
0.0
 51
180.0
  0
ARC
  5
3C07
  8
0
  6
BYBLOCK
 62
     0
 10
23241.972100999988
 20
13297.486879
 30
0.0
 40
15.0
 50
0.0
 51
180.0
  0
ARC
  5
3C08
  8
0
  6
BYBLOCK
 62
     0
 10
23241.972100999988
 20
13297.486879
 30
0.0
 40
15.0
 50
180.0
 51
0.0
  0
ARC
  5
3C09
  8
0
  6
BYBLOCK
 62
     0
 10
23199.469858
 20
13297.486879
 30
0.0
 40
15.0
 50
0.0
 51
180.0
  0
ARC
  5
3C0A
  8
0
  6
BYBLOCK
 62
     0
 10
23199.469858
 20
13297.486879
 30
0.0
 40
15.0
 50
180.0
 51
0.0
  0
ARC
  5
3C0B
  8
0
  6
BYBLOCK
 62
     0
 10
23156.96761499999
 20
13297.486879
 30
0.0
 40
15.0
 50
180.0
 51
0.0
  0
ARC
  5
3C0C
  8
0
  6
BYBLOCK
 62
     0
 10
23156.96761499999
 20
13297.486879
 30
0.0
 40
15.0
 50
0.0
 51
180.0
  0
ARC
  5
3C0D
  8
0
  6
BYBLOCK
 62
     0
 10
20631.969858
 20
13297.486879
 30
0.0
 40
15.0
 50
180.0
 51
0.0
  0
ARC
  5
3C0E
  8
0
  6
BYBLOCK
 62
     0
 10
20631.969858
 20
13297.486879
 30
0.0
 40
15.0
 50
0.0
 51
180.0
  0
ARC
  5
3C0F
  8
0
  6
BYBLOCK
 62
     0
 10
20674.472100999981
 20
13297.486879
 30
0.0
 40
15.0
 50
0.0
 51
180.0
  0
ARC
  5
3C10
  8
0
  6
BYBLOCK
 62
     0
 10
20674.472100999981
 20
13297.486879
 30
0.0
 40
15.0
 50
180.0
 51
0.0
  0
ARC
  5
3C11
  8
0
  6
BYBLOCK
 62
     0
 10
20589.467615000001
 20
12897.486878999989
 30
0.0
 40
15.0
 50
0.0
 51
180.0
  0
ARC
  5
3C12
  8
0
  6
BYBLOCK
 62
     0
 10
20589.467615000001
 20
12897.486878999989
 30
0.0
 40
15.0
 50
180.0
 51
0.0
  0
ARC
  5
3C13
  8
0
  6
BYBLOCK
 62
     0
 10
23241.972100999988
 20
12897.486878999989
 30
0.0
 40
15.0
 50
180.0
 51
0.0
  0
ARC
  5
3C14
  8
0
  6
BYBLOCK
 62
     0
 10
23241.972100999988
 20
12897.486878999989
 30
0.0
 40
15.0
 50
0.0
 51
180.0
  0
ARC
  5
3C15
  8
0
  6
BYBLOCK
 62
     0
 10
24291.969461999979
 20
15026.934963
 30
0.0
 40
15.0
 50
270.0
 51
90.0
  0
ARC
  5
3C16
  8
0
  6
BYBLOCK
 62
     0
 10
24291.969461999979
 20
15026.934963
 30
0.0
 40
15.0
 50
90.0
 51
270.0
  0
ARC
  5
3C17
  8
0
  6
BYBLOCK
 62
     0
 10
24291.969461999979
 20
14268.934962999991
 30
0.0
 40
15.0
 50
90.0
 51
270.0
  0
ARC
  5
3C18
  8
0
  6
BYBLOCK
 62
     0
 10
24291.969461999979
 20
14268.934962999991
 30
0.0
 40
15.0
 50
270.0
 51
90.0
  0
ARC
  5
3C19
  8
0
  6
BYBLOCK
 62
     0
 10
24291.969461999979
 20
15728.17547450002
 30
0.0
 40
15.0
 50
270.0
 51
90.0
  0
ARC
  5
3C1A
  8
0
  6
BYBLOCK
 62
     0
 10
24291.969461999979
 20
15728.17547450002
 30
0.0
 40
15.0
 50
90.0
 51
270.0
  0
ARC
  5
3C1B
  8
0
  6
BYBLOCK
 62
     0
 10
24291.969461999979
 20
15026.934963
 30
0.0
 40
15.0
 50
90.0
 51
270.0
  0
ARC
  5
3C1C
  8
0
  6
BYBLOCK
 62
     0
 10
24291.969461999979
 20
15026.934963
 30
0.0
 40
15.0
 50
270.0
 51
90.0
  0
ARC
  5
3C1D
  8
0
  6
BYBLOCK
 62
     0
 10
24291.969461999979
 20
16428.934963
 30
0.0
 40
15.0
 50
270.0
 51
90.0
  0
ARC
  5
3C1E
  8
0
  6
BYBLOCK
 62
     0
 10
24291.969461999979
 20
16428.934963
 30
0.0
 40
15.0
 50
90.0
 51
270.0
  0
ARC
  5
3C1F
  8
0
  6
BYBLOCK
 62
     0
 10
24291.969461999979
 20
15728.17547450002
 30
0.0
 40
15.0
 50
90.0
 51
270.0
  0
ARC
  5
3C20
  8
0
  6
BYBLOCK
 62
     0
 10
24291.969461999979
 20
15728.17547450002
 30
0.0
 40
15.0
 50
270.0
 51
90.0
  0
ARC
  5
3C21
  8
0
  6
BYBLOCK
 62
     0
 10
24291.969461999979
 20
17186.934963
 30
0.0
 40
15.0
 50
270.0
 51
90.0
  0
ARC
  5
3C22
  8
0
  6
BYBLOCK
 62
     0
 10
24291.969461999979
 20
17186.934963
 30
0.0
 40
15.0
 50
90.0
 51
270.0
  0
ARC
  5
3C23
  8
0
  6
BYBLOCK
 62
     0
 10
24291.969461999979
 20
16428.934963
 30
0.0
 40
15.0
 50
90.0
 51
270.0
  0
ARC
  5
3C24
  8
0
  6
BYBLOCK
 62
     0
 10
24291.969461999979
 20
16428.934963
 30
0.0
 40
15.0
 50
270.0
 51
90.0
  0
ARC
  5
3C25
  8
0
  6
BYBLOCK
 62
     0
 10
24291.969461999979
 20
17944.934963
 30
0.0
 40
15.0
 50
270.0
 51
90.0
  0
ARC
  5
3C26
  8
0
  6
BYBLOCK
 62
     0
 10
24291.969461999979
 20
17944.934963
 30
0.0
 40
15.0
 50
90.0
 51
270.0
  0
ARC
  5
3C27
  8
0
  6
BYBLOCK
 62
     0
 10
24291.969461999979
 20
17186.934963
 30
0.0
 40
15.0
 50
90.0
 51
270.0
  0
ARC
  5
3C28
  8
0
  6
BYBLOCK
 62
     0
 10
24291.969461999979
 20
17186.934963
 30
0.0
 40
15.0
 50
270.0
 51
90.0
  0
ARC
  5
3C29
  8
0
  6
BYBLOCK
 62
     0
 10
24291.969461999979
 20
18645.934963
 30
0.0
 40
15.0
 50
270.0
 51
90.0
  0
ARC
  5
3C2A
  8
0
  6
BYBLOCK
 62
     0
 10
24291.969461999979
 20
18645.934963
 30
0.0
 40
15.0
 50
90.0
 51
270.0
  0
ARC
  5
3C2B
  8
0
  6
BYBLOCK
 62
     0
 10
24291.969461999979
 20
17944.934963
 30
0.0
 40
15.0
 50
90.0
 51
270.0
  0
ARC
  5
3C2C
  8
0
  6
BYBLOCK
 62
     0
 10
24291.969461999979
 20
17944.934963
 30
0.0
 40
15.0
 50
270.0
 51
90.0
  0
ARC
  5
3C2D
  8
0
  6
BYBLOCK
 62
     0
 10
24291.969461999979
 20
19346.934962999989
 30
0.0
 40
15.0
 50
270.0
 51
90.0
  0
ARC
  5
3C2E
  8
0
  6
BYBLOCK
 62
     0
 10
24291.969461999979
 20
19346.934962999989
 30
0.0
 40
15.0
 50
90.0
 51
270.0
  0
ARC
  5
3C2F
  8
0
  6
BYBLOCK
 62
     0
 10
24291.969461999979
 20
18645.934963
 30
0.0
 40
15.0
 50
90.0
 51
270.0
  0
ARC
  5
3C30
  8
0
  6
BYBLOCK
 62
     0
 10
24291.969461999979
 20
18645.934963
 30
0.0
 40
15.0
 50
270.0
 51
90.0
  0
ARC
  5
3C31
  8
0
  6
BYBLOCK
 62
     0
 10
24691.969461999979
 20
17186.934963
 30
0.0
 40
15.0
 50
90.0
 51
270.0
  0
ARC
  5
3C32
  8
0
  6
BYBLOCK
 62
     0
 10
24691.969461999979
 20
17186.934963
 30
0.0
 40
15.0
 50
270.0
 51
90.0
  0
ARC
  5
3C33
  8
0
  6
BYBLOCK
 62
     0
 10
24691.969461999979
 20
19754.434962999982
 30
0.0
 40
15.0
 50
270.0
 51
90.0
  0
ARC
  5
3C34
  8
0
  6
BYBLOCK
 62
     0
 10
24691.969461999979
 20
19754.434962999982
 30
0.0
 40
15.0
 50
90.0
 51
270.0
  0
ARC
  5
3C35
  8
0
  6
BYBLOCK
 62
     0
 10
24691.969461999979
 20
14268.934962999991
 30
0.0
 40
15.0
 50
90.0
 51
270.0
  0
ARC
  5
3C36
  8
0
  6
BYBLOCK
 62
     0
 10
24691.969461999979
 20
14268.934962999991
 30
0.0
 40
15.0
 50
270.0
 51
90.0
  0
ARC
  5
3C37
  8
0
  6
BYBLOCK
 62
     0
 10
24691.969461999979
 20
17186.934963
 30
0.0
 40
15.0
 50
270.0
 51
90.0
  0
ARC
  5
3C38
  8
0
  6
BYBLOCK
 62
     0
 10
24691.969461999979
 20
17186.934963
 30
0.0
 40
15.0
 50
90.0
 51
270.0
  0
ARC
  5
3C39
  8
0
  6
BYBLOCK
 62
     0
 10
25091.96946199999
 20
19796.932258000001
 30
0.0
 40
15.0
 50
270.0
 51
90.0
  0
ARC
  5
3C3A
  8
0
  6
BYBLOCK
 62
     0
 10
25091.96946199999
 20
19796.932258000001
 30
0.0
 40
15.0
 50
90.0
 51
270.0
  0
ARC
  5
3C3B
  8
0
  6
BYBLOCK
 62
     0
 10
25091.96946199999
 20
14226.437668
 30
0.0
 40
15.0
 50
90.0
 51
270.0
  0
ARC
  5
3C3C
  8
0
  6
BYBLOCK
 62
     0
 10
25091.96946199999
 20
14226.437668
 30
0.0
 40
15.0
 50
270.0
 51
90.0
  0
ARC
  5
3C3D
  8
0
  6
BYBLOCK
 62
     0
 10
24691.969461999979
 20
19754.434962999982
 30
0.0
 40
15.0
 50
270.0
 51
90.0
  0
ARC
  5
3C3E
  8
0
  6
BYBLOCK
 62
     0
 10
24691.969461999979
 20
19754.434962999982
 30
0.0
 40
15.0
 50
90.0
 51
270.0
  0
ARC
  5
3C3F
  8
0
  6
BYBLOCK
 62
     0
 10
24691.969461999979
 20
19796.932258000001
 30
0.0
 40
15.0
 50
90.0
 51
270.0
  0
ARC
  5
3C40
  8
0
  6
BYBLOCK
 62
     0
 10
24691.969461999979
 20
19796.932258000001
 30
0.0
 40
15.0
 50
270.0
 51
90.0
  0
ARC
  5
3C41
  8
0
  6
BYBLOCK
 62
     0
 10
24691.969461999979
 20
14268.934962999991
 30
0.0
 40
15.0
 50
90.0
 51
270.0
  0
ARC
  5
3C42
  8
0
  6
BYBLOCK
 62
     0
 10
24691.969461999979
 20
14268.934962999991
 30
0.0
 40
15.0
 50
270.0
 51
90.0
  0
ARC
  5
3C43
  8
0
  6
BYBLOCK
 62
     0
 10
24691.969461999979
 20
14226.437668
 30
0.0
 40
15.0
 50
270.0
 51
90.0
  0
ARC
  5
3C44
  8
0
  6
BYBLOCK
 62
     0
 10
24691.969461999979
 20
14226.437668
 30
0.0
 40
15.0
 50
90.0
 51
270.0
  0
ARC
  5
3C45
  8
0
  6
BYBLOCK
 62
     0
 10
20631.969858
 20
20526.936151000031
 30
0.0
 40
15.0
 50
180.0
 51
0.0
  0
ARC
  5
3C46
  8
0
  6
BYBLOCK
 62
     0
 10
20631.969858
 20
20526.936151000031
 30
0.0
 40
15.0
 50
0.0
 51
180.0
  0
ARC
  5
3C47
  8
0
  6
BYBLOCK
 62
     0
 10
21039.469857999989
 20
20526.936151000031
 30
0.0
 40
15.0
 50
0.0
 51
180.0
  0
ARC
  5
3C48
  8
0
  6
BYBLOCK
 62
     0
 10
21039.469857999989
 20
20526.936151000031
 30
0.0
 40
15.0
 50
180.0
 51
0.0
  0
ARC
  5
3C49
  8
0
  6
BYBLOCK
 62
     0
 10
22441.469858
 20
20526.936151000031
 30
0.0
 40
15.0
 50
0.0
 51
180.0
  0
ARC
  5
3C4A
  8
0
  6
BYBLOCK
 62
     0
 10
22441.469858
 20
20526.936151000031
 30
0.0
 40
15.0
 50
180.0
 51
0.0
  0
ARC
  5
3C4B
  8
0
  6
BYBLOCK
 62
     0
 10
23199.470847500001
 20
20526.936151000031
 30
0.0
 40
15.0
 50
180.0
 51
0.0
  0
ARC
  5
3C4C
  8
0
  6
BYBLOCK
 62
     0
 10
23199.470847500001
 20
20526.936151000031
 30
0.0
 40
15.0
 50
0.0
 51
180.0
  0
ARC
  5
3C4D
  8
0
  6
BYBLOCK
 62
     0
 10
21740.469857999989
 20
20526.936151000031
 30
0.0
 40
15.0
 50
0.0
 51
180.0
  0
ARC
  5
3C4E
  8
0
  6
BYBLOCK
 62
     0
 10
21740.469857999989
 20
20526.936151000031
 30
0.0
 40
15.0
 50
180.0
 51
0.0
  0
ARC
  5
3C4F
  8
0
  6
BYBLOCK
 62
     0
 10
22441.469858
 20
20526.936151000031
 30
0.0
 40
15.0
 50
180.0
 51
0.0
  0
ARC
  5
3C50
  8
0
  6
BYBLOCK
 62
     0
 10
22441.469858
 20
20526.936151000031
 30
0.0
 40
15.0
 50
0.0
 51
180.0
  0
ARC
  5
3C51
  8
0
  6
BYBLOCK
 62
     0
 10
21039.469857999989
 20
20526.936151000031
 30
0.0
 40
15.0
 50
0.0
 51
180.0
  0
ARC
  5
3C52
  8
0
  6
BYBLOCK
 62
     0
 10
21039.469857999989
 20
20526.936151000031
 30
0.0
 40
15.0
 50
180.0
 51
0.0
  0
ARC
  5
3C53
  8
0
  6
BYBLOCK
 62
     0
 10
21740.469857999989
 20
20526.936151000031
 30
0.0
 40
15.0
 50
180.0
 51
0.0
  0
ARC
  5
3C54
  8
0
  6
BYBLOCK
 62
     0
 10
21740.469857999989
 20
20526.936151000031
 30
0.0
 40
15.0
 50
0.0
 51
180.0
  0
ARC
  5
3C55
  8
0
  6
BYBLOCK
 62
     0
 10
23199.469858
 20
20526.936151000031
 30
0.0
 40
15.0
 50
180.0
 51
0.0
  0
ARC
  5
3C56
  8
0
  6
BYBLOCK
 62
     0
 10
23199.469858
 20
20526.936151000031
 30
0.0
 40
15.0
 50
0.0
 51
180.0
  0
ARC
  5
3C57
  8
0
  6
BYBLOCK
 62
     0
 10
23241.96616299999
 20
20526.936151000031
 30
0.0
 40
15.0
 50
0.0
 51
180.0
  0
ARC
  5
3C58
  8
0
  6
BYBLOCK
 62
     0
 10
23241.96616299999
 20
20526.936151000031
 30
0.0
 40
15.0
 50
180.0
 51
0.0
  0
ARC
  5
3C59
  8
0
  6
BYBLOCK
 62
     0
 10
20631.969858
 20
20526.936151000031
 30
0.0
 40
15.0
 50
0.0
 51
180.0
  0
ARC
  5
3C5A
  8
0
  6
BYBLOCK
 62
     0
 10
20631.969858
 20
20526.936151000031
 30
0.0
 40
15.0
 50
180.0
 51
0.0
  0
ARC
  5
3C5B
  8
0
  6
BYBLOCK
 62
     0
 10
20589.473552999989
 20
20526.936151000031
 30
0.0
 40
15.0
 50
180.0
 51
0.0
  0
ARC
  5
3C5C
  8
0
  6
BYBLOCK
 62
     0
 10
20589.473552999989
 20
20526.936151000031
 30
0.0
 40
15.0
 50
0.0
 51
180.0
  0
ARC
  5
3C5D
  8
0
  6
BYBLOCK
 62
     0
 10
16266.72169299999
 20
6677.6370850000039
 30
0.0
 40
15.0
 50
90.0
 51
270.0
  0
ARC
  5
3C5E
  8
0
  6
BYBLOCK
 62
     0
 10
16266.72169299999
 20
6677.6370850000039
 30
0.0
 40
15.0
 50
270.0
 51
90.0
  0
ARC
  5
3C5F
  8
0
  6
BYBLOCK
 62
     0
 10
16266.72169299999
 20
9026.1370850000021
 30
0.0
 40
15.0
 50
270.0
 51
90.0
  0
ARC
  5
3C60
  8
0
  6
BYBLOCK
 62
     0
 10
16266.72169299999
 20
9026.1370850000021
 30
0.0
 40
15.0
 50
90.0
 51
270.0
  0
ARC
  5
3C61
  8
0
  6
BYBLOCK
 62
     0
 10
8516.2248590000054
 20
6677.6370850000039
 30
0.0
 40
15.0
 50
90.0
 51
270.0
  0
ARC
  5
3C62
  8
0
  6
BYBLOCK
 62
     0
 10
8516.2248590000054
 20
6677.6370850000039
 30
0.0
 40
15.0
 50
270.0
 51
90.0
  0
ARC
  5
3C63
  8
0
  6
BYBLOCK
 62
     0
 10
8516.2248590000054
 20
8833.6370850000058
 30
0.0
 40
15.0
 50
270.0
 51
90.0
  0
ARC
  5
3C64
  8
0
  6
BYBLOCK
 62
     0
 10
8516.2248590000054
 20
8833.6370850000058
 30
0.0
 40
15.0
 50
90.0
 51
270.0
  0
ARC
  5
3C65
  8
0
  6
BYBLOCK
 62
     0
 10
9426.2232769999955
 20
10225.637111
 30
0.0
 40
15.0
 50
0.0
 51
180.0
  0
ARC
  5
3C66
  8
0
  6
BYBLOCK
 62
     0
 10
9426.2232769999955
 20
10225.637111
 30
0.0
 40
15.0
 50
180.0
 51
0.0
  0
ARC
  5
3C67
  8
0
  6
BYBLOCK
 62
     0
 10
15326.723276999999
 20
10225.637111
 30
0.0
 40
15.0
 50
180.0
 51
0.0
  0
ARC
  5
3C68
  8
0
  6
BYBLOCK
 62
     0
 10
15326.723276999999
 20
10225.637111
 30
0.0
 40
15.0
 50
0.0
 51
180.0
  0
ARC
  5
3C69
  8
0
  6
BYBLOCK
 62
     0
 10
15176.72327699999
 20
9825.638761000002
 30
0.0
 40
15.0
 50
180.0
 51
0.0
  0
ARC
  5
3C6A
  8
0
  6
BYBLOCK
 62
     0
 10
15176.72327699999
 20
9825.638761000002
 30
0.0
 40
15.0
 50
0.0
 51
180.0
  0
ARC
  5
3C6B
  8
0
  6
BYBLOCK
 62
     0
 10
15326.723276999999
 20
9825.638761000002
 30
0.0
 40
15.0
 50
0.0
 51
180.0
  0
ARC
  5
3C6C
  8
0
  6
BYBLOCK
 62
     0
 10
15326.723276999999
 20
9825.638761000002
 30
0.0
 40
15.0
 50
180.0
 51
0.0
  0
ARC
  5
3C6D
  8
0
  6
BYBLOCK
 62
     0
 10
9606.2232769999955
 20
9825.638761000002
 30
0.0
 40
15.0
 50
0.0
 51
180.0
  0
ARC
  5
3C6E
  8
0
  6
BYBLOCK
 62
     0
 10
9606.2232769999955
 20
9825.638761000002
 30
0.0
 40
15.0
 50
180.0
 51
0.0
  0
ARC
  5
3C6F
  8
0
  6
BYBLOCK
 62
     0
 10
15176.72327699999
 20
9825.638761000002
 30
0.0
 40
15.0
 50
180.0
 51
0.0
  0
ARC
  5
3C70
  8
0
  6
BYBLOCK
 62
     0
 10
15176.72327699999
 20
9825.638761000002
 30
0.0
 40
15.0
 50
0.0
 51
180.0
  0
ARC
  5
3C71
  8
0
  6
BYBLOCK
 62
     0
 10
9426.2232769999955
 20
9825.638761000002
 30
0.0
 40
15.0
 50
180.0
 51
0.0
  0
ARC
  5
3C72
  8
0
  6
BYBLOCK
 62
     0
 10
9426.2232769999955
 20
9825.638761000002
 30
0.0
 40
15.0
 50
0.0
 51
180.0
  0
ARC
  5
3C73
  8
0
  6
BYBLOCK
 62
     0
 10
9606.2232769999955
 20
9825.638761000002
 30
0.0
 40
15.0
 50
0.0
 51
180.0
  0
ARC
  5
3C74
  8
0
  6
BYBLOCK
 62
     0
 10
9606.2232769999955
 20
9825.638761000002
 30
0.0
 40
15.0
 50
180.0
 51
0.0
  0
ARC
  5
3C75
  8
0
  6
BYBLOCK
 62
     0
 10
9606.2232769999955
 20
4977.6374150000038
 30
0.0
 40
15.0
 50
0.0
 51
180.0
  0
ARC
  5
3C76
  8
0
  6
BYBLOCK
 62
     0
 10
9606.2232769999955
 20
4977.6374150000038
 30
0.0
 40
15.0
 50
180.0
 51
0.0
  0
ARC
  5
3C77
  8
0
  6
BYBLOCK
 62
     0
 10
15176.72327699999
 20
4977.6374150000038
 30
0.0
 40
15.0
 50
180.0
 51
0.0
  0
ARC
  5
3C78
  8
0
  6
BYBLOCK
 62
     0
 10
15176.72327699999
 20
4977.6374150000038
 30
0.0
 40
15.0
 50
0.0
 51
180.0
  0
ARC
  5
3C79
  8
0
  6
BYBLOCK
 62
     0
 10
15134.223276999999
 20
5377.6372500000034
 30
0.0
 40
15.0
 50
180.0
 51
0.0
  0
ARC
  5
3C7A
  8
0
  6
BYBLOCK
 62
     0
 10
15134.223276999999
 20
5377.6372500000034
 30
0.0
 40
15.0
 50
0.0
 51
180.0
  0
ARC
  5
3C7B
  8
0
  6
BYBLOCK
 62
     0
 10
15176.72327699999
 20
5377.6372500000034
 30
0.0
 40
15.0
 50
0.0
 51
180.0
  0
ARC
  5
3C7C
  8
0
  6
BYBLOCK
 62
     0
 10
15176.72327699999
 20
5377.6372500000034
 30
0.0
 40
15.0
 50
180.0
 51
0.0
  0
ARC
  5
3C7D
  8
0
  6
BYBLOCK
 62
     0
 10
9648.7232769999955
 20
5377.6372500000034
 30
0.0
 40
15.0
 50
0.0
 51
180.0
  0
ARC
  5
3C7E
  8
0
  6
BYBLOCK
 62
     0
 10
9648.7232769999955
 20
5377.6372500000034
 30
0.0
 40
15.0
 50
180.0
 51
0.0
  0
ARC
  5
3C7F
  8
0
  6
BYBLOCK
 62
     0
 10
9606.2232769999955
 20
5377.6372500000034
 30
0.0
 40
15.0
 50
180.0
 51
0.0
  0
ARC
  5
3C80
  8
0
  6
BYBLOCK
 62
     0
 10
9606.2232769999955
 20
5377.6372500000034
 30
0.0
 40
15.0
 50
0.0
 51
180.0
  0
ARC
  5
3C81
  8
0
  6
BYBLOCK
 62
     0
 10
12216.223276999999
 20
5377.6372500000034
 30
0.0
 40
15.0
 50
180.0
 51
0.0
  0
ARC
  5
3C82
  8
0
  6
BYBLOCK
 62
     0
 10
12216.223276999999
 20
5377.6372500000034
 30
0.0
 40
15.0
 50
0.0
 51
180.0
  0
ARC
  5
3C83
  8
0
  6
BYBLOCK
 62
     0
 10
9648.7232769999955
 20
5377.6372500000034
 30
0.0
 40
15.0
 50
0.0
 51
180.0
  0
ARC
  5
3C84
  8
0
  6
BYBLOCK
 62
     0
 10
9648.7232769999955
 20
5377.6372500000034
 30
0.0
 40
15.0
 50
180.0
 51
0.0
  0
ARC
  5
3C85
  8
0
  6
BYBLOCK
 62
     0
 10
12216.223276999999
 20
5377.6372500000034
 30
0.0
 40
15.0
 50
0.0
 51
180.0
  0
ARC
  5
3C86
  8
0
  6
BYBLOCK
 62
     0
 10
12216.223276999999
 20
5377.6372500000034
 30
0.0
 40
15.0
 50
180.0
 51
0.0
  0
ARC
  5
3C87
  8
0
  6
BYBLOCK
 62
     0
 10
15134.223276999999
 20
5377.6372500000034
 30
0.0
 40
15.0
 50
180.0
 51
0.0
  0
ARC
  5
3C88
  8
0
  6
BYBLOCK
 62
     0
 10
15134.223276999999
 20
5377.6372500000034
 30
0.0
 40
15.0
 50
0.0
 51
180.0
  0
ARC
  5
3C89
  8
0
  6
BYBLOCK
 62
     0
 10
19781.96853799999
 20
6677.6370850000039
 30
0.0
 40
15.0
 50
90.0
 51
270.0
  0
ARC
  5
3C8A
  8
0
  6
BYBLOCK
 62
     0
 10
19781.96853799999
 20
6677.6370850000039
 30
0.0
 40
15.0
 50
270.0
 51
90.0
  0
ARC
  5
3C8B
  8
0
  6
BYBLOCK
 62
     0
 10
19781.96853799999
 20
8569.1370850000058
 30
0.0
 40
15.0
 50
270.0
 51
90.0
  0
ARC
  5
3C8C
  8
0
  6
BYBLOCK
 62
     0
 10
19781.96853799999
 20
8569.1370850000058
 30
0.0
 40
15.0
 50
90.0
 51
270.0
  0
ARC
  5
3C8D
  8
0
  6
BYBLOCK
 62
     0
 10
19381.966228999991
 20
6677.6370850000039
 30
0.0
 40
15.0
 50
90.0
 51
270.0
  0
ARC
  5
3C8E
  8
0
  6
BYBLOCK
 62
     0
 10
19381.966228999991
 20
6677.6370850000039
 30
0.0
 40
15.0
 50
270.0
 51
90.0
  0
ARC
  5
3C8F
  8
0
  6
BYBLOCK
 62
     0
 10
19381.966228999991
 20
9026.136940000004
 30
0.0
 40
15.0
 50
270.0
 51
90.0
  0
ARC
  5
3C90
  8
0
  6
BYBLOCK
 62
     0
 10
19381.966228999991
 20
9026.136940000004
 30
0.0
 40
15.0
 50
90.0
 51
270.0
  0
ARC
  5
3CA1
  8
0
  6
BYBLOCK
 62
     0
 10
23199.469858
 20
5377.6372500000098
 30
0.0
 40
15.0
 50
180.0
 51
0.0
  0
ARC
  5
3CA2
  8
0
  6
BYBLOCK
 62
     0
 10
23199.469858
 20
5377.6372500000098
 30
0.0
 40
15.0
 50
0.0
 51
180.0
  0
ARC
  5
3CA3
  8
0
  6
BYBLOCK
 62
     0
 10
23241.969858
 20
5377.6372500000098
 30
0.0
 40
15.0
 50
0.0
 51
180.0
  0
ARC
  5
3CA4
  8
0
  6
BYBLOCK
 62
     0
 10
23241.969858
 20
5377.6372500000098
 30
0.0
 40
15.0
 50
180.0
 51
0.0
  0
ARC
  5
3CA5
  8
0
  6
BYBLOCK
 62
     0
 10
20725.969858
 20
5777.6372500000089
 30
0.0
 40
15.0
 50
0.0
 51
180.0
  0
ARC
  5
3CA6
  8
0
  6
BYBLOCK
 62
     0
 10
20725.969858
 20
5777.6372500000089
 30
0.0
 40
15.0
 50
180.0
 51
0.0
  0
ARC
  5
3CA7
  8
0
  6
BYBLOCK
 62
     0
 10
23105.469858
 20
5777.6372500000089
 30
0.0
 40
15.0
 50
180.0
 51
0.0
  0
ARC
  5
3CA8
  8
0
  6
BYBLOCK
 62
     0
 10
23105.469858
 20
5777.6372500000089
 30
0.0
 40
15.0
 50
0.0
 51
180.0
  0
ARC
  5
3CA9
  8
0
  6
BYBLOCK
 62
     0
 10
20631.969858
 20
5377.6372500000098
 30
0.0
 40
15.0
 50
0.0
 51
180.0
  0
ARC
  5
3CAA
  8
0
  6
BYBLOCK
 62
     0
 10
20631.969858
 20
5377.6372500000098
 30
0.0
 40
15.0
 50
180.0
 51
0.0
  0
ARC
  5
3CAB
  8
0
  6
BYBLOCK
 62
     0
 10
23199.469858
 20
5377.6372500000098
 30
0.0
 40
15.0
 50
180.0
 51
0.0
  0
ARC
  5
3CAC
  8
0
  6
BYBLOCK
 62
     0
 10
23199.469858
 20
5377.6372500000098
 30
0.0
 40
15.0
 50
0.0
 51
180.0
  0
ARC
  5
3CAD
  8
0
  6
BYBLOCK
 62
     0
 10
20631.969858
 20
5377.6372500000098
 30
0.0
 40
15.0
 50
0.0
 51
180.0
  0
ARC
  5
3CAE
  8
0
  6
BYBLOCK
 62
     0
 10
20631.969858
 20
5377.6372500000098
 30
0.0
 40
15.0
 50
180.0
 51
0.0
  0
ARC
  5
3CAF
  8
0
  6
BYBLOCK
 62
     0
 10
20589.469858
 20
5377.6372500000098
 30
0.0
 40
15.0
 50
180.0
 51
0.0
  0
ARC
  5
3CB0
  8
0
  6
BYBLOCK
 62
     0
 10
20589.469858
 20
5377.6372500000098
 30
0.0
 40
15.0
 50
0.0
 51
180.0
  0
ARC
  5
3CB1
  8
0
  6
BYBLOCK
 62
     0
 10
20589.469858
 20
4977.6374150000102
 30
0.0
 40
15.0
 50
0.0
 51
180.0
  0
ARC
  5
3CB2
  8
0
  6
BYBLOCK
 62
     0
 10
20589.469858
 20
4977.6374150000102
 30
0.0
 40
15.0
 50
180.0
 51
0.0
  0
ARC
  5
3CB3
  8
0
  6
BYBLOCK
 62
     0
 10
23241.969858
 20
4977.6374150000102
 30
0.0
 40
15.0
 50
180.0
 51
0.0
  0
ARC
  5
3CB4
  8
0
  6
BYBLOCK
 62
     0
 10
23241.969858
 20
4977.6374150000102
 30
0.0
 40
15.0
 50
0.0
 51
180.0
  0
LINE
  5
3DFD
  8
0-1
  6
CONTINUOUS
 62
     3
 10
20674.466163000001
 20
8762.1374540000015
 30
0.0
 11
23156.969593999991
 21
8762.1374540000015
 31
0.0
  0
LINE
  5
3DFE
  8
0-1
  6
CONTINUOUS
 62
     3
 10
20546.469463000009
 20
8699.9513730000017
 30
0.0
 11
20546.469463000009
 21
9025.6371109999982
 31
0.0
  0
LINE
  5
3DFF
  8
0-1
  6
CONTINUOUS
 62
     3
 10
23284.968274999988
 20
8895.6371770000005
 30
0.0
 11
20546.469463000009
 21
8895.6371770000005
 31
0.0
  0
LINE
  5
3E00
  8
0-1
  6
CONTINUOUS
 62
     3
 10
23284.968274999988
 20
9025.6371109999982
 30
0.0
 11
23284.968274999988
 21
8699.9513730000017
 31
0.0
  0
LINE
  5
3E01
  8
0-1
  6
CONTINUOUS
 62
     3
 10
20546.469463000009
 20
9025.6371109999982
 30
0.0
 11
23284.968274999988
 21
9025.6371109999982
 31
0.0
  0
LINE
  5
3E02
  8
0-1
  6
CONTINUOUS
 62
     3
 10
23284.968274999988
 20
8699.9513730000017
 30
0.0
 11
23241.968142999998
 21
8699.9513730000017
 31
0.0
  0
LINE
  5
3E03
  8
0-1
  6
CONTINUOUS
 62
     3
 10
20546.469463000009
 20
8699.9513730000017
 30
0.0
 11
20589.467615000009
 21
8699.9513730000017
 31
0.0
  0
LINE
  5
3E04
  8
0-1
  6
CONTINUOUS
 62
     3
 10
20700.469119000009
 20
8771.1378310000091
 30
0.0
 11
20977.89864900001
 21
8771.1378310000091
 31
0.0
  0
LINE
  5
3E05
  8
0-1
  6
CONTINUOUS
 62
     3
 10
20700.469119000009
 20
8813.1372760000031
 30
0.0
 11
21009.89558700001
 21
8813.1372760000031
 31
0.0
  0
LINE
  5
3E06
  8
0-1
  6
CONTINUOUS
 62
     3
 10
20695.468856
 20
8776.1376000000055
 30
0.0
 11
20695.468856
 21
8808.1380020000051
 31
0.0
  0
LINE
  5
3E07
  8
0-1
  6
CONTINUOUS
 62
     3
 10
20674.466163000001
 20
8822.137158000005
 30
0.0
 11
23156.969593999991
 21
8822.137158000005
 31
0.0
  0
LINE
  5
3E08
  8
0-1
  6
CONTINUOUS
 62
     3
 10
20981.432089000009
 20
8772.6016850000051
 30
0.0
 11
21013.432986999989
 21
8804.6020870000048
 31
0.0
  0
LINE
  5
3E09
  8
0-1
  6
CONTINUOUS
 62
     3
 10
20695.468856
 20
8804.7376840000088
 30
0.0
 11
21013.56165499999
 21
8804.7376840000088
 31
0.0
  0
LINE
  5
3E0A
  8
0-1
  6
CONTINUOUS
 62
     3
 10
20695.468856
 20
8796.337597000007
 30
0.0
 11
21005.168496999999
 21
8796.337597000007
 31
0.0
  0
LINE
  5
3E0B
  8
0-1
  6
CONTINUOUS
 62
     3
 10
20695.468856
 20
8787.9380050000054
 30
0.0
 11
20996.769399000012
 21
8787.9380050000054
 31
0.0
  0
LINE
  5
3E0C
  8
0-1
  6
CONTINUOUS
 62
     3
 10
20695.468856
 20
8779.5379180000054
 30
0.0
 11
20988.366343000009
 21
8779.5379180000054
 31
0.0
  0
LINE
  5
3E0D
  8
0-1
  6
CONTINUOUS
 62
     3
 10
23135.968881999979
 20
8804.7376840000088
 30
0.0
 11
22817.876081999999
 21
8804.7376840000088
 31
0.0
  0
LINE
  5
3E0E
  8
0-1
  6
CONTINUOUS
 62
     3
 10
23135.968881999979
 20
8796.337597000007
 30
0.0
 11
22826.271219999999
 21
8796.337597000007
 31
0.0
  0
LINE
  5
3E0F
  8
0-1
  6
CONTINUOUS
 62
     3
 10
23135.968881999979
 20
8787.9380050000054
 30
0.0
 11
22834.670316999989
 21
8787.9380050000054
 31
0.0
  0
LINE
  5
3E10
  8
0-1
  6
CONTINUOUS
 62
     3
 10
23135.968881999979
 20
8779.5379180000054
 30
0.0
 11
22843.069414999991
 21
8779.5379180000054
 31
0.0
  0
LINE
  5
3E11
  8
0-1
  6
CONTINUOUS
 62
     3
 10
23130.968617999999
 20
8813.1372760000031
 30
0.0
 11
22821.542149999979
 21
8813.1372760000031
 31
0.0
  0
LINE
  5
3E12
  8
0-1
  6
CONTINUOUS
 62
     3
 10
23130.968617999999
 20
8771.1378310000091
 30
0.0
 11
22853.539088999991
 21
8771.1378310000091
 31
0.0
  0
LINE
  5
3E13
  8
0-1
  6
CONTINUOUS
 62
     3
 10
23135.968881999979
 20
8776.1376000000055
 30
0.0
 11
23135.968881999979
 21
8808.1380020000051
 31
0.0
  0
LINE
  5
3E14
  8
0-1
  6
CONTINUOUS
 62
     3
 10
22850.003668000001
 20
8772.6016850000051
 30
0.0
 11
22818.006730000001
 21
8804.6020870000048
 31
0.0
  0
ARC
  5
3E15
  8
0-1
  6
CONTINUOUS
 62
     3
 10
20700.469119000009
 20
8808.1380020000051
 30
0.0
 40
5.0
 50
90.0
 51
180.0
  0
ARC
  5
3E16
  8
0-1
  6
CONTINUOUS
 62
     3
 10
20700.469119000009
 20
8776.1376000000055
 30
0.0
 40
5.0
 50
180.0
 51
269.9999850001808
  0
ARC
  5
3E17
  8
0-1
  6
CONTINUOUS
 62
     3
 10
20977.89864900001
 20
8776.1376000000055
 30
0.0
 40
5.0
 50
269.9999850001808
 51
314.99998500027471
  0
ARC
  5
3E18
  8
0-1
  6
CONTINUOUS
 62
     3
 10
21009.89558700001
 20
8808.1380020000051
 30
0.0
 40
5.0
 50
314.99998500027471
 51
90.0
  0
ARC
  5
3E19
  8
0-1
  6
CONTINUOUS
 62
     3
 10
23130.968617999999
 20
8776.1376000000055
 30
0.0
 40
5.0
 50
269.9999850001808
 51
0.0
  0
ARC
  5
3E1A
  8
0-1
  6
CONTINUOUS
 62
     3
 10
23130.968617999999
 20
8808.1380020000051
 30
0.0
 40
5.0
 50
0.0
 51
90.0
  0
ARC
  5
3E1B
  8
0-1
  6
CONTINUOUS
 62
     3
 10
22821.542149999979
 20
8808.1380020000051
 30
0.0
 40
5.0
 50
90.0
 51
224.99998499997989
  0
ARC
  5
3E1C
  8
0-1
  6
CONTINUOUS
 62
     3
 10
22853.539088999991
 20
8776.1376000000055
 30
0.0
 40
5.0
 50
224.99998499997989
 51
269.9999850001808
  0
LINE
  5
3E1D
  8
SUNPOU
  6
CONTINUOUS
 62
     4
 10
23241.970121999981
 20
9105.637111
 30
0.0
 11
23241.970121999981
 21
9905.1369529999993
 31
0.0
  0
LINE
  5
3E1E
  8
SUNPOU
  6
CONTINUOUS
 62
     4
 10
23284.972232999971
 20
9105.637111
 30
0.0
 11
23284.972232999971
 21
9905.1369529999993
 31
0.0
  0
LINE
  5
3E1F
  8
SUNPOU
  6
CONTINUOUS
 62
     4
 10
23241.970121999981
 20
9825.1369529999993
 30
0.0
 11
23001.970121999981
 21
9825.1369529999993
 31
0.0
  0
LINE
  5
3E20
  8
SUNPOU
  6
CONTINUOUS
 62
     4
 10
23281.972232999971
 20
9825.1369529999993
 30
0.0
 11
23521.972232999971
 21
9825.1369529999993
 31
0.0
  0
LINE
  5
3E21
  8
SUNPOU
  6
CONTINUOUS
 62
     4
 10
23241.970121999981
 20
9825.1369529999993
 30
0.0
 11
23281.972232999971
 21
9825.1369529999993
 31
0.0
  0
LINE
  5
3E22
  8
SUNPOU
  6
CONTINUOUS
 62
     4
 10
20546.467483000019
 20
9105.637111
 30
0.0
 11
20546.467483000019
 21
10305.094723
 31
0.0
  0
LINE
  5
3E23
  8
SUNPOU
  6
CONTINUOUS
 62
     4
 10
23284.972232999971
 20
9105.637111
 30
0.0
 11
23284.972232999971
 21
10305.094723
 31
0.0
  0
LINE
  5
3E24
  8
SUNPOU
  6
CONTINUOUS
 62
     4
 10
20549.467483000019
 20
10225.094723
 30
0.0
 11
23281.972232999971
 21
10225.094723
 31
0.0
  0
LINE
  5
3E25
  8
SUNPOU
  6
CONTINUOUS
 62
     4
 10
20589.469594000009
 20
9105.637111
 30
0.0
 11
20589.469594000009
 21
9905.1369529999993
 31
0.0
  0
LINE
  5
3E26
  8
SUNPOU
  6
CONTINUOUS
 62
     4
 10
23241.970121999981
 20
9105.637111
 30
0.0
 11
23241.970121999981
 21
9905.1369529999993
 31
0.0
  0
LINE
  5
3E27
  8
SUNPOU
  6
CONTINUOUS
 62
     4
 10
20589.469594000009
 20
9825.1369529999993
 30
0.0
 11
23241.970121999981
 21
9825.1369529999993
 31
0.0
  0
LINE
  5
3E28
  8
SUNPOU
  6
CONTINUOUS
 62
     4
 10
20589.469594000009
 20
9105.637111
 30
0.0
 11
20589.469594000009
 21
9905.1369529999993
 31
0.0
  0
LINE
  5
3E29
  8
SUNPOU
  6
CONTINUOUS
 62
     4
 10
20546.467483000019
 20
9105.637111
 30
0.0
 11
20546.467483000019
 21
9905.1369529999993
 31
0.0
  0
LINE
  5
3E2A
  8
SUNPOU
  6
CONTINUOUS
 62
     4
 10
20589.469594000009
 20
9825.1369529999993
 30
0.0
 11
20829.469594000009
 21
9825.1369529999993
 31
0.0
  0
LINE
  5
3E2B
  8
SUNPOU
  6
CONTINUOUS
 62
     4
 10
20549.467483000019
 20
9825.1369529999993
 30
0.0
 11
20309.467483000019
 21
9825.1369529999993
 31
0.0
  0
LINE
  5
3E2C
  8
SUNPOU
  6
CONTINUOUS
 62
     4
 10
20589.469594000009
 20
9825.1369529999993
 30
0.0
 11
20549.467483000019
 21
9825.1369529999993
 31
0.0
  0
TEXT
  5
3E2D
  8
0
  6
CONTINUOUS
 62
     7
 10
20189.467483000019
 20
9905.1369529999993
 30
0.0
 40
160.0
  1
43
  0
TEXT
  5
3E2E
  8
0
  6
CONTINUOUS
 62
     7
 10
21515.719857999989
 20
9905.1369529999993
 30
0.0
 40
160.0
  1
2652.5
  0
TEXT
  5
3E2F
  8
0
  6
CONTINUOUS
 62
     7
 10
21515.719857999989
 20
10305.094723
 30
0.0
 40
160.0
  1
2738.5
  0
TEXT
  5
3E30
  8
0
  6
CONTINUOUS
 62
     7
 10
23401.972232999971
 20
9905.1369529999993
 30
0.0
 40
160.0
  1
43
  0
ARC
  5
3E31
  8
0
  6
BYBLOCK
 62
     0
 10
23241.970121999981
 20
9825.1369529999993
 30
0.0
 40
15.0
 50
180.0
 51
0.0
  0
ARC
  5
3E32
  8
0
  6
BYBLOCK
 62
     0
 10
23241.970121999981
 20
9825.1369529999993
 30
0.0
 40
15.0
 50
0.0
 51
180.0
  0
ARC
  5
3E33
  8
0
  6
BYBLOCK
 62
     0
 10
23284.972232999971
 20
9825.1369529999993
 30
0.0
 40
15.0
 50
0.0
 51
180.0
  0
ARC
  5
3E34
  8
0
  6
BYBLOCK
 62
     0
 10
23284.972232999971
 20
9825.1369529999993
 30
0.0
 40
15.0
 50
180.0
 51
0.0
  0
ARC
  5
3E35
  8
0
  6
BYBLOCK
 62
     0
 10
20546.467483000019
 20
10225.094723
 30
0.0
 40
15.0
 50
0.0
 51
180.0
  0
ARC
  5
3E36
  8
0
  6
BYBLOCK
 62
     0
 10
20546.467483000019
 20
10225.094723
 30
0.0
 40
15.0
 50
180.0
 51
0.0
  0
ARC
  5
3E37
  8
0
  6
BYBLOCK
 62
     0
 10
23284.972232999971
 20
10225.094723
 30
0.0
 40
15.0
 50
180.0
 51
0.0
  0
ARC
  5
3E38
  8
0
  6
BYBLOCK
 62
     0
 10
23284.972232999971
 20
10225.094723
 30
0.0
 40
15.0
 50
0.0
 51
180.0
  0
ARC
  5
3E39
  8
0
  6
BYBLOCK
 62
     0
 10
20589.469594000009
 20
9825.1369529999993
 30
0.0
 40
15.0
 50
0.0
 51
180.0
  0
ARC
  5
3E3A
  8
0
  6
BYBLOCK
 62
     0
 10
20589.469594000009
 20
9825.1369529999993
 30
0.0
 40
15.0
 50
180.0
 51
0.0
  0
ARC
  5
3E3B
  8
0
  6
BYBLOCK
 62
     0
 10
23241.970121999981
 20
9825.1369529999993
 30
0.0
 40
15.0
 50
180.0
 51
0.0
  0
ARC
  5
3E3C
  8
0
  6
BYBLOCK
 62
     0
 10
23241.970121999981
 20
9825.1369529999993
 30
0.0
 40
15.0
 50
0.0
 51
180.0
  0
ARC
  5
3E3D
  8
0
  6
BYBLOCK
 62
     0
 10
20589.469594000009
 20
9825.1369529999993
 30
0.0
 40
15.0
 50
0.0
 51
180.0
  0
ARC
  5
3E3E
  8
0
  6
BYBLOCK
 62
     0
 10
20589.469594000009
 20
9825.1369529999993
 30
0.0
 40
15.0
 50
180.0
 51
0.0
  0
ARC
  5
3E3F
  8
0
  6
BYBLOCK
 62
     0
 10
20546.467483000019
 20
9825.1369529999993
 30
0.0
 40
15.0
 50
180.0
 51
0.0
  0
ARC
  5
3E40
  8
0
  6
BYBLOCK
 62
     0
 10
20546.467483000019
 20
9825.1369529999993
 30
0.0
 40
15.0
 50
0.0
 51
180.0
  0
LINE
  5
3E42
  8
0-1
  6
CONTINUOUS
 62
     3
 10
11315.470043999991
 20
19956.933247000001
 30
0.0
 11
13906.97079599998
 21
19956.933247000001
 31
0.0
  0
LINE
  5
3E6A
  8
SUNPOU
  6
CONTINUOUS
 62
     4
 10
11241.968044499979
 20
13885.383707000001
 30
0.0
 11
11241.968044499979
 21
12706.434896999999
 31
0.0
  0
LINE
  5
3E6B
  8
SUNPOU
  6
CONTINUOUS
 62
     4
 10
13980.46982649999
 20
13885.383707000001
 30
0.0
 11
13980.46982649999
 21
12706.434896999999
 31
0.0
  0
LINE
  5
3E6C
  8
SUNPOU
  6
CONTINUOUS
 62
     4
 10
11244.968044499979
 20
12786.434896999999
 30
0.0
 11
13977.46982649999
 21
12786.434896999999
 31
0.0
  0
TEXT
  5
3E6D
  8
0
  6
CONTINUOUS
 62
     7
 10
11688.55226883332
 20
12866.434896999999
 30
0.0
 40
160.0
  1
ケラバ外寸 2738.5
  0
ARC
  5
3E6E
  8
0
  6
BYBLOCK
 62
     0
 10
11241.968044499979
 20
12786.434896999999
 30
0.0
 40
15.0
 50
0.0
 51
180.0
  0
ARC
  5
3E6F
  8
0
  6
BYBLOCK
 62
     0
 10
11241.968044499979
 20
12786.434896999999
 30
0.0
 40
15.0
 50
180.0
 51
0.0
  0
ARC
  5
3E70
  8
0
  6
BYBLOCK
 62
     0
 10
13980.46982649999
 20
12786.434896999999
 30
0.0
 40
15.0
 50
180.0
 51
0.0
  0
ARC
  5
3E71
  8
0
  6
BYBLOCK
 62
     0
 10
13980.46982649999
 20
12786.434896999999
 30
0.0
 40
15.0
 50
0.0
 51
180.0
  0
TEXT
  5
3F0B
  8
NAME
 10
24189.8234220308
 20
1076.0
 30
0.0
 40
360.0
  1
H
 41
0.6700000000000002
  7
00
  0
TEXT
  5
3F0C
  8
NAME
 10
23813.99143745047
 20
1076.0
 30
0.0
 40
360.0
  1
（ ）
  7
01
  0
TEXT
  5
3F0D
  8
NAME
 10
24713.98442473351
 20
1076.0
 30
0.0
 40
360.0
  1
型（単棟）
  7
01
  0
TEXT
  5
3F0E
  8
NAME
 10
21686.3487663915
 20
1076.6369801169251
 30
0.0
 40
360.0
  1
VGCU-2655
 41
0.6700000000000002
  0
TEXT
  5
3F10
  8
NAME
 10
21933.552716389011
 20
1876.0
 30
0.0
 40
360.0
  1
ヨドガレージ ラヴィージュ
 41
0.75
  7
01
  0
LINE
  5
3F11
  8
NAME
  6
CONTINUOUS
 10
26067.886878884299
 20
2236.0
 30
0.0
 11
26067.886878884299
 21
1876.0
 31
0.0
  0
LINE
  5
3F12
  8
NAME
  6
CONTINUOUS
 10
26167.886878884299
 20
2236.0
 30
0.0
 11
26167.886878884299
 21
1876.0
 31
0.0
  0
LINE
  5
3F13
  8
NAME
  6
CONTINUOUS
 10
26267.88687888431
 20
2236.0
 30
0.0
 11
26267.88687888431
 21
1876.0
 31
0.0
  0
LINE
  5
3F14
  8
NAME
  6
CONTINUOUS
 10
26007.886878884299
 20
2236.0
 30
0.0
 11
26327.886878884299
 21
2236.0
 31
0.0
  0
LINE
  5
3F15
  8
NAME
  6
CONTINUOUS
 10
26327.886878884299
 20
1876.0
 30
0.0
 11
26007.886878884299
 21
1876.0
 31
0.0
  0
TEXT
  5
3FAF
  8
FILENAME
  6
CONTINUOUS
 10
28546.857142857141
 20
348.0
 30
0.0
 40
200.0
  1
＜VGCU-2655-1-A_0.DXF ＞
  7
FILENAME
 72
     2
 11
32764.0
 21
348.0
 31
0.0
  0
LINE
  5
3FB5
  8
WAKUSEN-01
 10
868.00000000000193
 20
827.99999999999955
 30
0.0
 11
32764.000000000011
 21
827.99999999999943
 31
0.0
  0
LINE
  5
3FB6
  8
WAKUSEN-01
 10
868.00000000000193
 20
827.99999999999955
 30
0.0
 11
868.00000000000193
 21
22484.000000000011
 31
0.0
  0
LINE
  5
3FB7
  8
WAKUSEN-01
 10
32764.000000000011
 20
827.99999999999943
 30
0.0
 11
32764.000000000011
 21
22484.000000000011
 31
0.0
  0
LINE
  5
3FB8
  8
WAKUSEN-01
 10
20560.0
 20
827.99999999999716
 30
0.0
 11
20560.0
 21
2484.0
 31
0.0
  0
LINE
  5
3FB9
  8
WAKUSEN-02
 10
26868.0
 20
827.99999999999261
 30
0.0
 11
26868.0
 21
2484.0
 31
0.0
  0
ENDSEC
  0
EOF
