  0
SECTION
  2
HEADER
  9
$ACADVER
  1
AC1009
  9
$INSBASE
 10
0.0
 20
0.0
 30
0.0
  9
$EXTMIN
 10
867.99324330406671
 20
327.38164749855792
 30
-0.0015258207003583
  9
$EXTMAX
 10
32765.33210850941
 20
22484.553276491992
 30
0.0000000349246037
  9
$LIMMIN
 10
0.0
 20
0.0
  9
$LIMMAX
 10
33600.0
 20
23760.0
  9
$ORTHOMODE
 70
     1
  9
$REGENMODE
 70
     1
  9
$FILLMODE
 70
     1
  9
$QTEXTMODE
 70
     0
  9
$MIRRTEXT
 70
     1
  9
$DRAGMODE
 70
     2
  9
$LTSCALE
 40
80.0
  9
$OSMODE
 70
  3071
  9
$ATTMODE
 70
     1
  9
$TEXTSIZE
 40
0.2
  9
$TRACEWID
 40
0.05
  9
$TEXTSTYLE
  7
00
  9
$CLAYER
  8
0
  9
$CELTYPE
  6
BYLAYER
  9
$CECOLOR
 62
   256
  9
$DIMSCALE
 40
80.0
  9
$DIMASZ
 40
3.0
  9
$DIMEXO
 40
1.0
  9
$DIMDLI
 40
0.38
  9
$DIMRND
 40
0.5
  9
$DIMDLE
 40
0.0
  9
$DIMEXE
 40
1.0
  9
$DIMTP
 40
0.0
  9
$DIMTM
 40
0.0
  9
$DIMTXT
 40
2.0
  9
$DIMCEN
 40
0.09
  9
$DIMTSZ
 40
0.0
  9
$DIMTOL
 70
     0
  9
$DIMLIM
 70
     0
  9
$DIMTIH
 70
     0
  9
$DIMTOH
 70
     0
  9
$DIMSE1
 70
     0
  9
$DIMSE2
 70
     0
  9
$DIMTAD
 70
     1
  9
$DIMZIN
 70
     8
  9
$DIMBLK
  1
DOTSMALL
  9
$DIMASO
 70
     1
  9
$DIMSHO
 70
     1
  9
$DIMPOST
  1

  9
$DIMAPOST
  1

  9
$DIMALT
 70
     0
  9
$DIMALTD
 70
     2
  9
$DIMALTF
 40
25.399999999999999
  9
$DIMLFAC
 40
1.0
  9
$DIMTOFL
 70
     1
  9
$DIMTVP
 40
0.0
  9
$DIMTIX
 70
     0
  9
$DIMSOXD
 70
     0
  9
$DIMSAH
 70
     0
  9
$DIMBLK1
  1

  9
$DIMBLK2
  1

  9
$DIMSTYLE
  2
SUNPOU
  9
$DIMCLRD
 70
     4
  9
$DIMCLRE
 70
     4
  9
$DIMCLRT
 70
     7
  9
$DIMTFAC
 40
1.0
  9
$DIMGAP
 40
1.0
  9
$LUNITS
 70
     2
  9
$LUPREC
 70
     4
  9
$SKETCHINC
 40
0.1
  9
$FILLETRAD
 40
0.0
  9
$AUNITS
 70
     0
  9
$AUPREC
 70
     0
  9
$MENU
  1
acad
  9
$ELEVATION
 40
0.0
  9
$PELEVATION
 40
0.0
  9
$THICKNESS
 40
0.0
  9
$LIMCHECK
 70
     0
  9
$BLIPMODE
 70
     1
  9
$CHAMFERA
 40
0.0
  9
$CHAMFERB
 40
0.0
  9
$SKPOLY
 70
     0
  9
$TDCREATE
 40
2440588.749988426
  9
$TDUPDATE
 40
2458942.435414861
  9
$TDINDWG
 40
0.2301991088
  9
$TDUSRTIMER
 40
0.230198206
  9
$USRTIMER
 70
     1
  9
$ANGBASE
 50
0.0
  9
$ANGDIR
 70
     0
  9
$PDMODE
 70
     0
  9
$PDSIZE
 40
0.0
  9
$PLINEWID
 40
0.0
  9
$COORDS
 70
     1
  9
$SPLFRAME
 70
     0
  9
$SPLINETYPE
 70
     6
  9
$SPLINESEGS
 70
     8
  9
$ATTDIA
 70
     1
  9
$ATTREQ
 70
     1
  9
$HANDLING
 70
     1
  9
$HANDSEED
  5
4DAE
  9
$SURFTAB1
 70
     6
  9
$SURFTAB2
 70
     6
  9
$SURFTYPE
 70
     6
  9
$SURFU
 70
     6
  9
$SURFV
 70
     6
  9
$UCSNAME
  2

  9
$UCSORG
 10
0.0
 20
0.0
 30
0.0
  9
$UCSXDIR
 10
1.0
 20
0.0
 30
0.0
  9
$UCSYDIR
 10
0.0
 20
1.0
 30
0.0
  9
$PUCSNAME
  2

  9
$PUCSORG
 10
0.0
 20
0.0
 30
0.0
  9
$PUCSXDIR
 10
1.0
 20
0.0
 30
0.0
  9
$PUCSYDIR
 10
0.0
 20
1.0
 30
0.0
  9
$USERI1
 70
     0
  9
$USERI2
 70
     0
  9
$USERI3
 70
     0
  9
$USERI4
 70
     0
  9
$USERI5
 70
     0
  9
$USERR1
 40
0.0
  9
$USERR2
 40
0.0
  9
$USERR3
 40
0.0
  9
$USERR4
 40
0.0
  9
$USERR5
 40
0.0
  9
$WORLDVIEW
 70
     1
  9
$SHADEDGE
 70
     3
  9
$SHADEDIF
 70
    70
  9
$TILEMODE
 70
     1
  9
$MAXACTVP
 70
    16
  9
$PLIMCHECK
 70
     0
  9
$PEXTMIN
 10
1.0000000000000000E+020
 20
1.0000000000000000E+020
 30
1.0000000000000000E+020
  9
$PEXTMAX
 10
-1.0000000000000000E+020
 20
-1.0000000000000000E+020
 30
-1.0000000000000000E+020
  9
$PLIMMIN
 10
0.0
 20
0.0
  9
$PLIMMAX
 10
12.0
 20
9.0
  9
$UNITMODE
 70
     0
  9
$VISRETAIN
 70
     0
  9
$PLINEGEN
 70
     1
  9
$PSLTSCALE
 70
     0
  0
ENDSEC
  0
SECTION
  2
TABLES
  0
TABLE
  2
VPORT
 70
     1
  0
VPORT
  2
*ACTIVE
 70
     0
 10
0.0
 20
0.0
 11
1.0
 21
1.0
 12
16800.0
 22
11880.0
 13
0.0
 23
0.0
 14
1.0
 24
1.0
 15
0.0
 25
0.0
 16
0.0
 26
0.0
 36
1.0
 17
0.0
 27
0.0
 37
0.0
 40
23981.023255813951
 41
2.195652173913043
 42
50.0
 43
0.0
 44
0.0
 50
0.0
 51
0.0
 71
     0
 72
 10000
 73
     1
 74
     1
 75
     0
 76
     0
 77
     0
 78
     0
  0
ENDTAB
  0
TABLE
  2
LTYPE
 70
     3
  0
LTYPE
  2
CONTINUOUS
 70
     0
  3
Solid line
 72
    65
 73
     0
 40
0.0
  0
LTYPE
  2
DASHED3
 70
     0
  3
------  ------  ------  ------  
 72
    65
 73
     2
 40
5.0
 49
3.75
 49
-1.25
  0
LTYPE
  2
CENTER2
 70
     0
  3
----------  --  ----------  --  
 72
    65
 73
     4
 40
20.0
 49
12.5
 49
-2.5
 49
2.5
 49
-2.5
  0
ENDTAB
  0
TABLE
  2
LAYER
 70
    18
  0
LAYER
  2
0
 70
     0
 62
     7
  6
CONTINUOUS
  0
LAYER
  2
SUNPOU
 70
     0
 62
     4
  6
CONTINUOUS
  0
LAYER
  2
0-1
 70
     0
 62
     7
  6
CONTINUOUS
  0
LAYER
  2
0-2
 70
     0
 62
     7
  6
CONTINUOUS
  0
LAYER
  2
0-6
 70
     0
 62
     7
  6
CONTINUOUS
  0
LAYER
  2
2-0
 70
     0
 62
     7
  6
CONTINUOUS
  0
LAYER
  2
0-7
 70
     0
 62
     7
  6
CONTINUOUS
  0
LAYER
  2
0-5
 70
     0
 62
     7
  6
CONTINUOUS
  0
LAYER
  2
YODOROGO
 70
     0
 62
   130
  6
CONTINUOUS
  0
LAYER
  2
WAKUSEN-01
 70
     0
 62
    50
  6
CONTINUOUS
  0
LAYER
  2
WAKUSEN-02
 70
     0
 62
   130
  6
CONTINUOUS
  0
LAYER
  2
WAKUMOJI-01
 70
     0
 62
   130
  6
CONTINUOUS
  0
LAYER
  2
FILENAME
 70
     0
 62
     7
  6
CONTINUOUS
  0
LAYER
  2
NAME
 70
     0
 62
    20
  6
CONTINUOUS
  0
LAYER
  2
0-4
 70
     0
 62
     7
  6
CONTINUOUS
  0
LAYER
  2
0-0
 70
     0
 62
     7
  6
CONTINUOUS
  0
ENDTAB
  0
TABLE
  2
STYLE
 70
     6
  0
STYLE
  2
STANDARD
 70
     0
 40
0.0
 41
1.0
 50
0.0
 71
     0
 42
0.0
  3
txt
  4
BIGFONT
  0
STYLE
  2
00
 70
     0
 40
0.0
 41
0.6666666666666666
 50
0.0
 71
     0
 42
0.2
  3
ROMANS
  4
BIGFONT
  0
STYLE
  2
01
 70
     0
 40
3.0
 41
1.0
 50
0.0
 71
     0
 42
0.2
  3
ROMANS
  4
BIGFONT
  0
STYLE
  2
WAKUMOJI
 70
     0
 40
3.0
 41
1.0
 50
0.0
 71
     0
 42
3.0
  3
SIMPLEX
  4
BIGFONT
  0
STYLE
  2
FILENAME
 70
     0
 40
200.0
 41
1.0
 50
0.0
 71
     0
 42
200.0
  3
romans
  4
bigfont
  0
ENDTAB
  0
TABLE
  2
VIEW
 70
     0
  0
ENDTAB
  0
TABLE
  2
UCS
 70
     0
  0
ENDTAB
  0
TABLE
  2
APPID
 70
    13
  0
APPID
  2
ACAD
 70
     0
  0
APPID
  2
ACADANNOTATIVE
 70
     0
  0
APPID
  2
ACAD_PSEXT
 70
     0
  0
APPID
  2
DCO15
 70
     0
  0
APPID
  2
ACAD_MLEADERVER
 70
     0
  0
APPID
  2
AUTOCAD_POSTSCRIPT_FIGURE
 70
     0
  0
APPID
  2
ACAD_EXEMPT_FROM_CAD_STANDARDS
 70
     0
  0
APPID
  2
ACAD_DSTYLE_DIMJAG
 70
     0
  0
APPID
  2
ACAD_DSTYLE_DIMTALN
 70
     0
  0
APPID
  2
ACAD_DSTYLE_DIM_LINETYPE
 70
     0
  0
APPID
  2
ACAD_DSTYLE_DIM_EXT1_LINETYPE
 70
     0
  0
APPID
  2
ACAD_DSTYLE_DIM_EXT2_LINETYPE
 70
     0
  0
APPID
  2
ACAD_NAV_VCDISPLAY
 70
     0
  0
ENDTAB
  0
TABLE
  2
DIMSTYLE
 70
     3
  0
DIMSTYLE
  2
SUNPOU
 70
     0
  3

  4

  5

  6

  7

 40
80.0
 41
3.0
 42
1.0
 43
0.38
 44
1.0
 45
0.5
 46
0.0
 47
0.0
 48
0.0
140
2.0
141
0.09
142
0.0
143
25.399999999999999
144
1.0
145
0.0
146
1.0
147
1.0
 71
     0
 72
     0
 73
     0
 74
     0
 75
     0
 76
     0
 77
     1
 78
     8
170
     0
171
     2
172
     1
173
     0
174
     0
175
     0
176
     4
177
     4
178
     7
  0
ENDTAB
  0
ENDSEC
  0
SECTION
  2
BLOCKS
  0
BLOCK
  8
0
  2
$MODEL_SPACE
 70
     0
 10
0.0
 20
0.0
 30
0.0
  3
$MODEL_SPACE
  1

  0
ENDBLK
  5
4D04
  8
0
  0
BLOCK
 67
     1
  8
0
  2
$PAPER_SPACE
 70
     0
 10
0.0
 20
0.0
 30
0.0
  3
$PAPER_SPACE
  1

  0
ENDBLK
  5
4D00
 67
     1
  8
0
  0
BLOCK
  8
0
  2
_DOTSMALL
 70
     0
 10
0.0
 20
0.0
 30
0.0
  3
_DOTSMALL
  1

  0
POLYLINE
  5
4085
  8
0
  6
BYBLOCK
 62
     0
 66
     1
 10
0.0
 20
0.0
 30
0.0
 70
     1
 40
0.5
 41
0.5
  0
VERTEX
  5
4D6B
  8
0
  6
BYBLOCK
 62
     0
 10
-0.0625
 20
0.0
 30
0.0
 42
1.0
  0
VERTEX
  5
4D6C
  8
0
  6
BYBLOCK
 62
     0
 10
0.0625
 20
0.0
 30
0.0
 42
1.0
  0
SEQEND
  5
4D6D
  8
0
  6
BYBLOCK
 62
     0
  0
ENDBLK
  5
4089
  8
0
  0
ENDSEC
  0
SECTION
  2
ENTITIES
  0
LINE
  5
408A
  8
0-2
  6
CONTINUOUS
 62
     3
 10
9402.0885069999822
 20
14347.538441999999
 30
0.0
 11
9402.0885069999822
 21
19845.536092999992
 31
0.0
  0
LINE
  5
408B
  8
0-2
  6
CONTINUOUS
 62
     3
 10
9266.5894709999793
 20
14315.538533999999
 30
0.0
 11
9266.5894709999793
 21
19855.537148999989
 31
0.0
  0
LINE
  5
408C
  8
0-2
  6
CONTINUOUS
 62
     3
 10
9309.5886129999799
 20
14471.538454999991
 30
0.0
 11
14529.58914099998
 21
14471.538454999991
 31
0.0
  0
LINE
  5
408D
  8
0-2
  6
CONTINUOUS
 62
     3
 10
9352.0888769999856
 20
14550.53708299999
 30
0.0
 11
14487.08887699998
 21
14550.53708299999
 31
0.0
  0
LINE
  5
408E
  8
0-2
  6
CONTINUOUS
 62
     3
 10
9266.5894709999793
 20
14315.538533999999
 30
0.0
 11
14572.589273
 21
14315.538533999999
 31
0.0
  0
LINE
  5
408F
  8
0-2
  6
CONTINUOUS
 62
     3
 10
9266.5894709999793
 20
14347.538441999999
 30
0.0
 11
14572.589273
 21
14347.538441999999
 31
0.0
  0
LINE
  5
4090
  8
0-2
  6
CONTINUOUS
 62
     3
 10
9352.0888769999856
 20
14471.538454999991
 30
0.0
 11
9352.0888769999856
 21
19396.013685000002
 31
0.0
  0
LINE
  5
4091
  8
0-2
  6
CONTINUOUS
 62
     3
 10
9309.5886129999799
 20
14471.538454999991
 30
0.0
 11
9309.5886129999799
 21
19422.297732999981
 31
0.0
  0
LINE
  5
4092
  8
0-2
  6
CONTINUOUS
 62
     3
 10
11919.58887699998
 20
14471.538454999991
 30
0.0
 11
11919.58887699998
 21
15571.7828735
 31
0.0
  0
LINE
  5
4093
  8
0-2
  6
CONTINUOUS
 62
     3
 10
14529.58914099998
 20
14471.538454999991
 30
0.0
 11
14529.58914099998
 21
16195.946645000011
 31
0.0
  0
LINE
  5
4094
  8
0-2
  6
CONTINUOUS
 62
     3
 10
14487.08887699998
 20
14471.538454999991
 30
0.0
 11
14487.08887699998
 21
16222.23465200001
 31
0.0
  0
LINE
  5
4095
  8
0-2
  6
CONTINUOUS
 62
     3
 10
14572.589273
 20
14315.538533999999
 30
0.0
 11
14572.589273
 21
19855.537148999989
 31
0.0
  0
LINE
  5
4096
  8
0-2
  6
CONTINUOUS
 62
     3
 10
14437.088255999981
 20
14347.538441999999
 30
0.0
 11
14437.088255999981
 21
19845.536092999992
 31
0.0
  0
LINE
  5
4097
  8
0-2
  6
CONTINUOUS
 62
     3
 10
14504.090011999981
 20
19865.537677
 30
0.0
 11
14567.589008999979
 21
19865.537677
 31
0.0
  0
LINE
  5
4098
  8
0-2
  6
CONTINUOUS
 62
     3
 10
14572.589273
 20
19860.537412999991
 30
0.0
 11
14572.589273
 21
19825.537544999988
 31
0.0
  0
LINE
  5
4099
  8
0-2
  6
CONTINUOUS
 62
     3
 10
14554.589509999971
 20
19825.537544999988
 30
0.0
 11
14504.090011999981
 21
19825.537544999988
 31
0.0
  0
LINE
  5
409A
  8
0-2
  6
CONTINUOUS
 62
     3
 10
14499.08974799998
 20
19830.53780899999
 30
0.0
 11
14499.08974799998
 21
19860.537412999991
 31
0.0
  0
LINE
  5
409B
  8
0-2
  6
CONTINUOUS
 62
     3
 10
14554.589509999971
 20
19848.040711999991
 30
0.0
 11
14572.589273
 21
19848.040711999991
 31
0.0
  0
LINE
  5
409C
  8
0-2
  6
CONTINUOUS
 62
     3
 10
14554.589509999971
 20
16182.339434
 30
0.0
 11
14554.589509999971
 21
19848.040711999991
 31
0.0
  0
LINE
  5
409D
  8
0-2
  6
CONTINUOUS
 62
     3
 10
11849.590130999961
 20
15616.7802995
 30
0.0
 11
9422.0896029999822
 21
14508.039787999989
 31
0.0
  0
LINE
  5
409E
  8
0-2
  6
CONTINUOUS
 62
     3
 10
9422.0896029999822
 20
15616.7802995
 30
0.0
 11
11849.590130999961
 21
14508.039787999989
 31
0.0
  0
LINE
  5
409F
  8
0-2
  6
CONTINUOUS
 62
     3
 10
9352.0888769999856
 20
17030.54137100001
 30
0.0
 11
13170.722811999971
 21
17030.54137100001
 31
0.0
  0
LINE
  5
40A0
  8
0-2
  6
CONTINUOUS
 62
     3
 10
9352.0888769999856
 20
15661.78168550002
 30
0.0
 11
14434.088255999981
 21
15661.78168550002
 31
0.0
  0
LINE
  5
40A1
  8
0-2
  6
CONTINUOUS
 62
     3
 10
9352.0888769999856
 20
15571.7828735
 30
0.0
 11
14434.088255999981
 21
15571.7828735
 31
0.0
  0
LINE
  5
40A2
  8
0-2
  6
CONTINUOUS
 62
     3
 10
9352.0888769999856
 20
17120.540184000001
 30
0.0
 11
13025.21037999998
 21
17120.540184000001
 31
0.0
  0
LINE
  5
40A3
  8
0-2
  6
CONTINUOUS
 62
     3
 10
9422.0896029999822
 20
17075.53978799998
 30
0.0
 11
11849.590130999961
 21
15616.7802995
 31
0.0
  0
LINE
  5
40A4
  8
0-2
  6
CONTINUOUS
 62
     3
 10
11849.590130999961
 20
17075.53978799998
 30
0.0
 11
9422.0896029999822
 21
15616.7802995
 31
0.0
  0
LINE
  5
40A5
  8
0-2
  6
CONTINUOUS
 62
     3
 10
9422.0896029999822
 20
18534.539787999998
 30
0.0
 11
11849.590130999961
 21
17075.53978799998
 31
0.0
  0
LINE
  5
40A6
  8
0-2
  6
CONTINUOUS
 62
     3
 10
9352.0888769999856
 20
18579.542162999991
 30
0.0
 11
10674.389539999969
 21
18579.542162999991
 31
0.0
  0
LINE
  5
40A7
  8
0-2
  6
CONTINUOUS
 62
     3
 10
9352.0888769999856
 20
18489.541371999981
 30
0.0
 11
10819.899991999981
 21
18489.541371999981
 31
0.0
  0
LINE
  5
40A8
  8
0-2
  6
CONTINUOUS
 62
     3
 10
9284.5892329999824
 20
19825.537544999988
 30
0.0
 11
9335.0887319999856
 21
19825.537544999988
 31
0.0
  0
LINE
  5
40A9
  8
0-2
  6
CONTINUOUS
 62
     3
 10
9284.5892329999824
 20
19848.040711999991
 30
0.0
 11
9266.5894709999793
 21
19848.040711999991
 31
0.0
  0
LINE
  5
40AA
  8
0-2
  6
CONTINUOUS
 62
     3
 10
9335.0887319999856
 20
19865.537677
 30
0.0
 11
9271.5877549999823
 21
19865.537677
 31
0.0
  0
LINE
  5
40AB
  8
0-2
  6
CONTINUOUS
 62
     3
 10
9266.5894709999793
 20
19860.537412999991
 30
0.0
 11
9266.5894709999793
 21
19825.537544999988
 31
0.0
  0
LINE
  5
40AC
  8
0-2
  6
CONTINUOUS
 62
     3
 10
9340.0880059999836
 20
19830.53780899999
 30
0.0
 11
9340.0880059999836
 21
19860.537412999991
 31
0.0
  0
LINE
  5
40AD
  8
0-2
  6
CONTINUOUS
 62
     3
 10
9340.0880059999836
 20
19845.536092999992
 30
0.0
 11
14499.08974799998
 21
19845.536092999992
 31
0.0
  0
LINE
  5
40AE
  8
0-2
  6
CONTINUOUS
 62
     3
 10
9284.5892329999824
 20
19435.906922999991
 30
0.0
 11
9284.5892329999824
 21
19848.040711999991
 31
0.0
  0
LINE
  5
40AF
  8
0-2
  6
CONTINUOUS
 62
     3
 10
11989.588612999971
 20
17075.53978799998
 30
0.0
 11
14417.08914099998
 21
15616.7802995
 31
0.0
  0
LINE
  5
40B0
  8
0-2
  6
CONTINUOUS
 62
     3
 10
14417.08914099998
 20
15616.7802995
 30
0.0
 11
11989.588612999971
 21
14508.039787999989
 31
0.0
  0
LINE
  5
40B1
  8
0-2
  6
CONTINUOUS
 62
     3
 10
11989.588612999971
 20
15616.7802995
 30
0.0
 11
14417.08914099998
 21
14508.039787999989
 31
0.0
  0
LINE
  5
40B2
  8
0-2
  6
CONTINUOUS
 62
     3
 10
11919.58887699998
 20
14550.53708299999
 30
0.0
 11
11919.58887699998
 21
15571.7828735
 31
0.0
  0
LINE
  5
40B3
  8
0-2
  6
CONTINUOUS
 62
     3
 10
11862.58863999998
 20
14550.53708299999
 30
0.0
 11
11862.58863999998
 21
15571.7828735
 31
0.0
  0
LINE
  5
40B4
  8
0-2
  6
CONTINUOUS
 62
     3
 10
11976.590104999979
 20
14550.53708299999
 30
0.0
 11
11976.590104999979
 21
15571.7828735
 31
0.0
  0
LINE
  5
40B5
  8
0-2
  6
CONTINUOUS
 62
     3
 10
11976.590104999979
 20
17120.540184000001
 30
0.0
 11
11976.590104999979
 21
17702.049289999999
 31
0.0
  0
LINE
  5
40B6
  8
0-2
  6
CONTINUOUS
 62
     3
 10
11862.58863999998
 20
17120.540184000001
 30
0.0
 11
11862.58863999998
 21
17916.700366000001
 31
0.0
  0
LINE
  5
40B7
  8
0-2
  6
CONTINUOUS
 62
     3
 10
11862.58863999998
 20
15661.78168550002
 30
0.0
 11
11862.58863999998
 21
17030.54137100001
 31
0.0
  0
LINE
  5
40B8
  8
0-2
  6
CONTINUOUS
 62
     3
 10
11976.590104999979
 20
15661.78168550002
 30
0.0
 11
11976.590104999979
 21
17030.54137100001
 31
0.0
  0
LINE
  5
40B9
  8
0-2
  6
CONTINUOUS
 62
     3
 10
11919.58887699998
 20
17120.540184000001
 30
0.0
 11
11919.58887699998
 21
17809.374828000011
 31
0.0
  0
LINE
  5
40BA
  8
0-2
  6
CONTINUOUS
 62
     3
 10
11919.58887699998
 20
17120.540184000001
 30
0.0
 11
11919.58887699998
 21
17809.374828000011
 31
0.0
  0
LINE
  5
40BB
  8
0-2
  6
CONTINUOUS
 62
     3
 10
11919.58887699998
 20
15661.78168550002
 30
0.0
 11
11919.58887699998
 21
17030.54137100001
 31
0.0
  0
LINE
  5
40BC
  8
0-2
  6
CONTINUOUS
 62
     3
 10
11919.58887699998
 20
15661.78168550002
 30
0.0
 11
11919.58887699998
 21
17030.54137100001
 31
0.0
  0
LINE
  5
40BD
  8
0-2
  6
CONTINUOUS
 62
     3
 10
9491.5875309999865
 20
19309.732409
 30
0.0
 11
9491.5875309999865
 21
19845.536092999992
 31
0.0
  0
LINE
  5
40BE
  8
0-2
  6
CONTINUOUS
 62
     3
 10
9738.0891279999869
 20
19163.14509899999
 30
0.0
 11
9738.0891279999869
 21
19845.536092999992
 31
0.0
  0
LINE
  5
40BF
  8
0-2
  6
CONTINUOUS
 62
     3
 10
9701.0899459999873
 20
19186.032293
 30
0.0
 11
9701.0899459999873
 21
19845.536092999992
 31
0.0
  0
LINE
  5
40C0
  8
0-2
  6
CONTINUOUS
 62
     3
 10
9528.5906719999748
 20
19286.847193999991
 30
0.0
 11
9528.5906719999748
 21
19845.536092999992
 31
0.0
  0
LINE
  5
40C1
  8
0-2
  6
CONTINUOUS
 62
     3
 10
10538.08879799997
 20
18668.338695999992
 30
0.0
 11
10538.08879799997
 21
19845.536092999992
 31
0.0
  0
LINE
  5
40C2
  8
0-2
  6
CONTINUOUS
 62
     3
 10
10501.09060599998
 20
18691.22390999999
 30
0.0
 11
10501.09060599998
 21
19845.536092999992
 31
0.0
  0
LINE
  5
40C3
  8
0-2
  6
CONTINUOUS
 62
     3
 10
10338.089127999971
 20
18792.040790999989
 30
0.0
 11
10338.089127999971
 21
19845.536092999992
 31
0.0
  0
LINE
  5
40C4
  8
0-2
  6
CONTINUOUS
 62
     3
 10
10301.08994599998
 20
18814.926006000002
 30
0.0
 11
10301.08994599998
 21
19845.536092999992
 31
0.0
  0
LINE
  5
40C5
  8
0-2
  6
CONTINUOUS
 62
     3
 10
10138.091437999979
 20
18915.742887
 30
0.0
 11
10138.091437999979
 21
19845.536092999992
 31
0.0
  0
LINE
  5
40C6
  8
0-2
  6
CONTINUOUS
 62
     3
 10
10701.08928599996
 20
18563.027040000001
 30
0.0
 11
10701.08928599996
 21
19845.536092999992
 31
0.0
  0
LINE
  5
40C7
  8
0-2
  6
CONTINUOUS
 62
     3
 10
10738.090447999981
 20
18540.141825999999
 30
0.0
 11
10738.090447999981
 21
19845.536092999992
 31
0.0
  0
LINE
  5
40C8
  8
0-2
  6
CONTINUOUS
 62
     3
 10
9901.090605999987
 20
19062.328216999991
 30
0.0
 11
9901.090605999987
 21
19845.536092999992
 31
0.0
  0
LINE
  5
40C9
  8
0-2
  6
CONTINUOUS
 62
     3
 10
9938.0897879999848
 20
19039.44498299999
 30
0.0
 11
9938.0897879999848
 21
19845.536092999992
 31
0.0
  0
LINE
  5
40CA
  8
0-2
  6
CONTINUOUS
 62
     3
 10
10101.089285999969
 20
18938.628100999991
 30
0.0
 11
10101.089285999969
 21
19845.536092999992
 31
0.0
  0
LINE
  5
40CB
  8
0-2
  6
CONTINUOUS
 62
     3
 10
10901.089945999969
 20
18439.324944
 30
0.0
 11
10901.089945999969
 21
19845.536092999992
 31
0.0
  0
LINE
  5
40CC
  8
0-2
  6
CONTINUOUS
 62
     3
 10
10938.089127999971
 20
18416.439729999998
 30
0.0
 11
10938.089127999971
 21
19845.536092999992
 31
0.0
  0
LINE
  5
40CD
  8
0-2
  6
CONTINUOUS
 62
     3
 10
11101.090605999991
 20
18315.62284900001
 30
0.0
 11
11101.090605999991
 21
19845.536092999992
 31
0.0
  0
LINE
  5
40CE
  8
0-2
  6
CONTINUOUS
 62
     3
 10
11138.08879799997
 20
18292.73763399999
 30
0.0
 11
11138.08879799997
 21
19845.536092999992
 31
0.0
  0
LINE
  5
40CF
  8
0-2
  6
CONTINUOUS
 62
     3
 10
11301.08928599998
 20
18191.922731999999
 30
0.0
 11
11301.08928599998
 21
19845.536092999992
 31
0.0
  0
LINE
  5
40D0
  8
0-2
  6
CONTINUOUS
 62
     3
 10
11338.090447999981
 20
18169.037518000001
 30
0.0
 11
11338.090447999981
 21
19845.536092999992
 31
0.0
  0
LINE
  5
40D1
  8
0-2
  6
CONTINUOUS
 62
     3
 10
11501.08994599998
 20
18090.719845
 30
0.0
 11
11501.08994599998
 21
19845.536092999992
 31
0.0
  0
LINE
  5
40D2
  8
0-2
  6
CONTINUOUS
 62
     3
 10
11538.088137999979
 20
18142.662412000001
 30
0.0
 11
11538.088137999979
 21
19845.536092999992
 31
0.0
  0
LINE
  5
40D3
  8
0-2
  6
CONTINUOUS
 62
     3
 10
11738.088797999981
 20
18151.122875000001
 30
0.0
 11
11738.088797999981
 21
19845.536092999992
 31
0.0
  0
LINE
  5
40D4
  8
0-2
  6
CONTINUOUS
 62
     3
 10
11701.090605999991
 20
18220.788071999999
 30
0.0
 11
11701.090605999991
 21
19845.536092999992
 31
0.0
  0
LINE
  5
40D5
  8
0-2
  6
CONTINUOUS
 62
     3
 10
11489.964061999979
 20
18075.099463999999
 30
0.0
 11
11655.236047999981
 21
18307.124775
 31
0.0
  0
LINE
  5
40D6
  8
0-2
  6
CONTINUOUS
 62
     3
 10
12101.08994599998
 20
17467.626780999999
 30
0.0
 11
12101.08994599998
 21
19845.536092999992
 31
0.0
  0
LINE
  5
40D7
  8
0-2
  6
CONTINUOUS
 62
     3
 10
12301.089615999979
 20
17490.197252000002
 30
0.0
 11
12301.089615999979
 21
19845.536092999992
 31
0.0
  0
LINE
  5
40D8
  8
0-2
  6
CONTINUOUS
 62
     3
 10
12338.089787999979
 20
17542.143779000002
 30
0.0
 11
12338.089787999979
 21
19845.536092999992
 31
0.0
  0
LINE
  5
40D9
  8
0-2
  6
CONTINUOUS
 62
     3
 10
12538.090447999981
 20
17426.828903000001
 30
0.0
 11
12538.090447999981
 21
19845.536092999992
 31
0.0
  0
LINE
  5
40DA
  8
0-2
  6
CONTINUOUS
 62
     3
 10
12501.08928599998
 20
17449.712137999999
 30
0.0
 11
12501.08928599998
 21
19845.536092999992
 31
0.0
  0
LINE
  5
40DB
  8
0-2
  6
CONTINUOUS
 62
     3
 10
12701.08994599998
 20
17321.01196900001
 30
0.0
 11
12701.08994599998
 21
19845.536092999992
 31
0.0
  0
LINE
  5
40DC
  8
0-2
  6
CONTINUOUS
 62
     3
 10
12738.088137999979
 20
17298.124775000011
 30
0.0
 11
12738.088137999979
 21
19845.536092999992
 31
0.0
  0
LINE
  5
40DD
  8
0-2
  6
CONTINUOUS
 62
     3
 10
12938.089787999979
 20
17174.424659000011
 30
0.0
 11
12938.089787999979
 21
19845.536092999992
 31
0.0
  0
LINE
  5
40DE
  8
0-2
  6
CONTINUOUS
 62
     3
 10
12901.089615999979
 20
17197.31185300001
 30
0.0
 11
12901.089615999979
 21
19845.536092999992
 31
0.0
  0
LINE
  5
40DF
  8
0-2
  6
CONTINUOUS
 62
     3
 10
13138.090447999981
 20
17050.724543000011
 30
0.0
 11
13138.090447999981
 21
19845.536092999992
 31
0.0
  0
LINE
  5
40E0
  8
0-2
  6
CONTINUOUS
 62
     3
 10
13101.08928599998
 20
17073.607778000001
 30
0.0
 11
13101.08928599998
 21
19845.536092999992
 31
0.0
  0
LINE
  5
40E1
  8
0-2
  6
CONTINUOUS
 62
     3
 10
13338.089127999971
 20
16927.020467999999
 30
0.0
 11
13338.089127999971
 21
19845.536092999992
 31
0.0
  0
LINE
  5
40E2
  8
0-2
  6
CONTINUOUS
 62
     3
 10
13301.090935999981
 20
16949.907661000001
 30
0.0
 11
13301.090935999981
 21
19845.536092999992
 31
0.0
  0
LINE
  5
40E3
  8
0-2
  6
CONTINUOUS
 62
     3
 10
13538.089787999979
 20
16803.324311
 30
0.0
 11
13538.089787999979
 21
19845.536092999992
 31
0.0
  0
LINE
  5
40E4
  8
0-2
  6
CONTINUOUS
 62
     3
 10
13501.089615999979
 20
16826.205566000011
 30
0.0
 11
13501.089615999979
 21
19845.536092999992
 31
0.0
  0
LINE
  5
40E5
  8
0-2
  6
CONTINUOUS
 62
     3
 10
13738.090447999981
 20
16679.620234999991
 30
0.0
 11
13738.090447999981
 21
19845.536092999992
 31
0.0
  0
LINE
  5
40E6
  8
0-2
  6
CONTINUOUS
 62
     3
 10
13701.08928599998
 20
16702.503470000011
 30
0.0
 11
13701.08928599998
 21
19845.536092999992
 31
0.0
  0
LINE
  5
40E7
  8
0-2
  6
CONTINUOUS
 62
     3
 10
13901.088956999991
 20
16578.805334000011
 30
0.0
 11
13901.088956999991
 21
19845.536092999992
 31
0.0
  0
LINE
  5
40E8
  8
0-2
  6
CONTINUOUS
 62
     3
 10
13938.089127999971
 20
16555.916160000012
 30
0.0
 11
13938.089127999971
 21
19845.536092999992
 31
0.0
  0
LINE
  5
40E9
  8
0-2
  6
CONTINUOUS
 62
     3
 10
14138.089787999979
 20
16432.218024000002
 30
0.0
 11
14138.089787999979
 21
19845.536092999992
 31
0.0
  0
LINE
  5
40EA
  8
0-2
  6
CONTINUOUS
 62
     3
 10
14101.090605999991
 20
16455.099278999998
 30
0.0
 11
14101.090605999991
 21
19845.536092999992
 31
0.0
  0
LINE
  5
40EB
  8
0-2
  6
CONTINUOUS
 62
     3
 10
14310.59005099999
 20
16331.399163
 30
0.0
 11
14310.59005099999
 21
19845.536092999992
 31
0.0
  0
LINE
  5
40EC
  8
0-2
  6
CONTINUOUS
 62
     3
 10
14347.59022299999
 20
16308.515928000001
 30
0.0
 11
14347.59022299999
 21
19845.536092999992
 31
0.0
  0
LINE
  5
40ED
  8
0-2
  6
CONTINUOUS
 62
     3
 10
12138.088137999979
 20
17397.961584000011
 30
0.0
 11
12138.088137999979
 21
19845.536092999992
 31
0.0
  0
LINE
  5
40EE
  8
0-2
  6
CONTINUOUS
 62
     3
 10
11901.08928599998
 20
17844.210395999991
 30
0.0
 11
11901.08928599998
 21
19845.536092999992
 31
0.0
  0
LINE
  5
40EF
  8
0-2
  6
CONTINUOUS
 62
     3
 10
11938.090447999981
 20
17774.539260000001
 30
0.0
 11
11938.090447999981
 21
19845.536092999992
 31
0.0
  0
LINE
  5
40F0
  8
0-2
  6
CONTINUOUS
 62
     3
 10
12179.648130999971
 20
17314.707202000001
 30
0.0
 11
11655.236047999981
 21
18307.124775
 31
0.0
  0
LINE
  5
40F1
  8
0-2
  6
CONTINUOUS
 62
     3
 10
12179.648130999971
 20
17314.707202000001
 30
0.0
 11
12342.23687899998
 21
17547.965542999991
 31
0.0
  0
LINE
  5
40F2
  8
0-2
  6
CONTINUOUS
 62
     3
 10
12612.75194999998
 20
17455.262707999991
 30
0.0
 11
11989.588612999971
 21
17075.53978799998
 31
0.0
  0
LINE
  5
40F3
  8
0-2
  6
CONTINUOUS
 62
     3
 10
13770.90591699998
 20
16692.685057999999
 30
0.0
 11
11989.588612999971
 21
15616.7802995
 31
0.0
  0
LINE
  5
40F4
  8
0-2
  6
CONTINUOUS
 62
     3
 10
11290.601796999979
 20
18198.407635
 30
0.0
 11
9422.0896029999822
 21
17075.53978799998
 31
0.0
  0
LINE
  5
40F5
  8
0-2
  6
CONTINUOUS
 62
     3
 10
11919.58887699998
 20
17120.540184000001
 30
0.0
 11
11919.58887699998
 21
17030.54137100001
 31
0.0
  0
LINE
  5
40F6
  8
0-2
  6
CONTINUOUS
 62
     3
 10
11919.58887699998
 20
15661.78168550002
 30
0.0
 11
11919.58887699998
 21
15571.7828735
 31
0.0
  0
LINE
  5
40F7
  8
0-2
  6
CONTINUOUS
 62
     3
 10
9118.3918619999768
 20
19540.556151999968
 30
0.0
 11
11489.964061999979
 21
18075.099463999999
 31
0.0
  0
LINE
  5
40F8
  8
0-2
  6
CONTINUOUS
 62
     3
 10
12342.23687899998
 20
17547.965542999991
 30
0.0
 11
14717.213849999969
 21
16079.89934700001
 31
0.0
  0
LINE
  5
40F9
  8
0-2
  6
CONTINUOUS
 62
     3
 10
9422.0896029999822
 20
18534.539787999998
 30
0.0
 11
10188.443461999979
 21
18884.597141999991
 31
0.0
  0
LINE
  5
40FA
  8
0-2
  6
CONTINUOUS
 62
     3
 10
11919.58887699998
 20
14471.538454999991
 30
0.0
 11
11919.58887699998
 21
14315.538533999999
 31
0.0
  0
LINE
  5
40FB
  8
0-6
  6
CONTINUOUS
 62
     6
 10
11020.18128488695
 20
19575.71136088025
 30
0.0
 11
11164.085357886939
 21
20087.98899488027
 31
0.0
  0
LINE
  5
40FC
  8
0-6
  6
CONTINUOUS
 62
     6
 10
11164.085357886939
 20
20087.98899488027
 30
0.0
 11
11681.77400588696
 21
20087.98899488027
 31
0.0
  0
LINE
  5
40FD
  8
0-6
  6
CONTINUOUS
 62
     6
 10
9516.6145839999808
 20
17708.229347000011
 30
0.0
 11
10046.11607599996
 21
17708.229347000011
 31
0.0
  0
LINE
  5
40FE
  8
0-6
  6
CONTINUOUS
 62
     6
 10
11007.52767099998
 20
14702.429501999981
 30
0.0
 11
11090.41506199998
 21
14884.10999550001
 31
0.0
  0
LINE
  5
40FF
  8
0-6
  6
CONTINUOUS
 62
     6
 10
11090.41506199998
 20
14884.10999550001
 30
0.0
 11
11890.41572199998
 21
14884.10999550001
 31
0.0
  0
LINE
  5
4100
  8
0-6
  6
CONTINUOUS
 62
     6
 10
10396.271137999969
 20
14179.071513000001
 30
0.0
 11
10753.87680585622
 21
13515.540843999979
 31
0.0
  0
LINE
  5
4101
  8
0-6
  6
CONTINUOUS
 62
     6
 10
7536.1898779999838
 20
13115.53853399999
 30
0.0
 11
8616.1909669999786
 21
13115.53853399999
 31
0.0
  0
LINE
  5
4102
  8
0-6
  6
CONTINUOUS
 62
     6
 10
9174.6953089999806
 20
15250.553526499991
 30
0.0
 11
8616.1909669999786
 21
13115.53853399999
 31
0.0
  0
LINE
  5
4103
  8
0-6
  6
CONTINUOUS
 62
     6
 10
9417.5743209999819
 20
17929.01891100001
 30
0.0
 11
9516.6145839999808
 21
17708.229347000011
 31
0.0
  0
LINE
  5
4104
  8
0-6
  6
CONTINUOUS
 62
     6
 10
12262.874019999979
 20
20815.538337000002
 30
0.0
 11
13937.873360999991
 21
20815.538337000002
 31
0.0
  0
LINE
  5
4105
  8
0-6
  6
CONTINUOUS
 62
     6
 10
14128.156563999981
 20
20485.954430999991
 30
0.0
 11
13937.873360999991
 21
20815.538337000002
 31
0.0
  0
LINE
  5
4106
  8
0-6
  6
CONTINUOUS
 62
     6
 10
14420.85616399999
 20
19995.441603999989
 30
0.0
 11
14202.162844999981
 21
20357.772684999989
 31
0.0
  0
LINE
  5
4107
  8
0-6
  6
CONTINUOUS
 62
     6
 10
14771.355663
 20
15970.087534
 30
0.0
 11
15651.35361699999
 21
15970.087534
 31
0.0
  0
LINE
  5
4108
  8
0-6
  6
CONTINUOUS
 62
     6
 10
13862.37749099997
 20
15513.72458350001
 30
0.0
 11
14771.355663
 21
15163.46856550001
 31
0.0
  0
LINE
  5
4109
  8
0-6
  6
CONTINUOUS
 62
     6
 10
14129.065162999979
 20
15767.848038
 30
0.0
 11
14771.355663
 21
15970.087534
 31
0.0
  0
LINE
  5
410A
  8
0-6
  6
CONTINUOUS
 62
     6
 10
13864.81526799998
 20
17171.902752000002
 30
0.0
 11
14771.355663
 21
17480.952900000011
 31
0.0
  0
LINE
  5
410B
  8
0-6
  6
CONTINUOUS
 62
     6
 10
13864.81526799998
 20
18630.902752000002
 30
0.0
 11
14771.355663
 21
18939.449600999989
 31
0.0
  0
LINE
  5
410C
  8
0-6
  6
CONTINUOUS
 62
     6
 10
11862.58863999998
 20
15825.379777
 30
0.0
 11
11701.929921999979
 21
16250.401221
 31
0.0
  0
LINE
  5
410D
  8
0-6
  6
CONTINUOUS
 62
     6
 10
10753.98598199998
 20
16250.401221
 30
0.0
 11
11701.929921999979
 21
16250.401221
 31
0.0
  0
LINE
  5
410E
  8
0-6
  6
CONTINUOUS
 62
     6
 10
13872.054367999979
 20
15538.573479500001
 30
0.0
 11
13713.28312099998
 21
15571.7828735
 31
0.0
  0
LINE
  5
410F
  8
0-6
  6
CONTINUOUS
 62
     6
 10
13713.28312099998
 20
15571.7828735
 30
0.0
 11
13852.70259399998
 21
15488.87469650001
 31
0.0
  0
LINE
  5
4110
  8
0-6
  6
CONTINUOUS
 62
     6
 10
13713.28312099998
 20
15571.7828735
 30
0.0
 11
13872.054367999979
 21
15538.573479500001
 31
0.0
  0
LINE
  5
4111
  8
0-6
  6
CONTINUOUS
 62
     6
 10
13872.054367999979
 20
15538.573479500001
 30
0.0
 11
13852.70259399998
 21
15488.87469650001
 31
0.0
  0
LINE
  5
4112
  8
0-6
  6
CONTINUOUS
 62
     6
 10
13852.70259399998
 20
15488.87469650001
 30
0.0
 11
13713.28312099998
 21
15571.7828735
 31
0.0
  0
LINE
  5
4113
  8
0-6
  6
CONTINUOUS
 62
     6
 10
13852.70259399998
 20
15488.87469650001
 30
0.0
 11
13872.054367999979
 21
15538.573479500001
 31
0.0
  0
LINE
  5
4114
  8
0-6
  6
CONTINUOUS
 62
     6
 10
9200.1410299999807
 20
15242.5711175
 30
0.0
 11
9222.5897609999847
 21
15403.21795849999
 31
0.0
  0
LINE
  5
4115
  8
0-6
  6
CONTINUOUS
 62
     6
 10
9222.5897609999847
 20
15403.21795849999
 30
0.0
 11
9149.2525569999798
 21
15258.534945500011
 31
0.0
  0
LINE
  5
4116
  8
0-6
  6
CONTINUOUS
 62
     6
 10
9222.5897609999847
 20
15403.21795849999
 30
0.0
 11
9200.1410299999807
 21
15242.5711175
 31
0.0
  0
LINE
  5
4117
  8
0-6
  6
CONTINUOUS
 62
     6
 10
9200.1410299999807
 20
15242.5711175
 30
0.0
 11
9149.2525569999798
 21
15258.534945500011
 31
0.0
  0
LINE
  5
4118
  8
0-6
  6
CONTINUOUS
 62
     6
 10
9149.2525569999798
 20
15258.534945500011
 30
0.0
 11
9222.5897609999847
 21
15403.21795849999
 31
0.0
  0
LINE
  5
4119
  8
0-6
  6
CONTINUOUS
 62
     6
 10
9149.2525569999798
 20
15258.534945500011
 30
0.0
 11
9200.1410299999807
 21
15242.5711175
 31
0.0
  0
LINE
  5
411A
  8
0-6
  6
CONTINUOUS
 62
     6
 10
10983.38051299998
 20
14713.740470999979
 30
0.0
 11
10939.65492699997
 21
14557.539629999999
 31
0.0
  0
LINE
  5
411B
  8
0-6
  6
CONTINUOUS
 62
     6
 10
10939.65492699997
 20
14557.539629999999
 30
0.0
 11
11031.675817999971
 21
14691.11655399998
 31
0.0
  0
LINE
  5
411C
  8
0-6
  6
CONTINUOUS
 62
     6
 10
10939.65492699997
 20
14557.539629999999
 30
0.0
 11
10983.38051299998
 21
14713.740470999979
 31
0.0
  0
LINE
  5
411D
  8
0-6
  6
CONTINUOUS
 62
     6
 10
10983.38051299998
 20
14713.740470999979
 30
0.0
 11
11031.675817999971
 21
14691.11655399998
 31
0.0
  0
LINE
  5
411E
  8
0-6
  6
CONTINUOUS
 62
     6
 10
11031.675817999971
 20
14691.11655399998
 30
0.0
 11
10939.65492699997
 21
14557.539629999999
 31
0.0
  0
LINE
  5
411F
  8
0-6
  6
CONTINUOUS
 62
     6
 10
11031.675817999971
 20
14691.11655399998
 30
0.0
 11
10983.38051299998
 21
14713.740470999979
 31
0.0
  0
LINE
  5
4120
  8
0-6
  6
CONTINUOUS
 62
     6
 10
10419.01580699998
 20
14192.991487999991
 30
0.0
 11
10312.74436199999
 21
14315.538533999999
 31
0.0
  0
LINE
  5
4121
  8
0-6
  6
CONTINUOUS
 62
     6
 10
10312.74436199999
 20
14315.538533999999
 30
0.0
 11
10373.526469999961
 21
14165.149558999999
 31
0.0
  0
LINE
  5
4122
  8
0-6
  6
CONTINUOUS
 62
     6
 10
10312.74436199999
 20
14315.538533999999
 30
0.0
 11
10419.01580699998
 21
14192.991487999991
 31
0.0
  0
LINE
  5
4123
  8
0-6
  6
CONTINUOUS
 62
     6
 10
10419.01580699998
 20
14192.991487999991
 30
0.0
 11
10373.526469999961
 21
14165.149558999999
 31
0.0
  0
LINE
  5
4124
  8
0-6
  6
CONTINUOUS
 62
     6
 10
10373.526469999961
 20
14165.149558999999
 30
0.0
 11
10312.74436199999
 21
14315.538533999999
 31
0.0
  0
LINE
  5
4125
  8
0-6
  6
CONTINUOUS
 62
     6
 10
10373.526469999961
 20
14165.149558999999
 30
0.0
 11
10419.01580699998
 21
14192.991487999991
 31
0.0
  0
LINE
  5
4126
  8
0-6
  6
CONTINUOUS
 62
     6
 10
9441.9035939999758
 20
17939.935956000001
 30
0.0
 11
9352.0888769999856
 21
18075.004446999999
 31
0.0
  0
LINE
  5
4127
  8
0-6
  6
CONTINUOUS
 62
     6
 10
9352.0888769999856
 20
18075.004446999999
 30
0.0
 11
9393.2430679999779
 21
17918.105824999999
 31
0.0
  0
LINE
  5
4128
  8
0-6
  6
CONTINUOUS
 62
     6
 10
9352.0888769999856
 20
18075.004446999999
 30
0.0
 11
9441.9035939999758
 21
17939.935956000001
 31
0.0
  0
LINE
  5
4129
  8
0-6
  6
CONTINUOUS
 62
     6
 10
9441.9035939999758
 20
17939.935956000001
 30
0.0
 11
9393.2430679999779
 21
17918.105824999999
 31
0.0
  0
LINE
  5
412A
  8
0-6
  6
CONTINUOUS
 62
     6
 10
9393.2430679999779
 20
17918.105824999999
 30
0.0
 11
9352.0888769999856
 21
18075.004446999999
 31
0.0
  0
LINE
  5
412B
  8
0-6
  6
CONTINUOUS
 62
     6
 10
9393.2430679999779
 20
17918.105824999999
 30
0.0
 11
9441.9035939999758
 21
17939.935956000001
 31
0.0
  0
LINE
  5
412C
  8
0-6
  6
CONTINUOUS
 62
     6
 10
11830.24825499996
 20
15984.330169999999
 30
0.0
 11
11862.58863999998
 21
15825.379777
 31
0.0
  0
LINE
  5
412D
  8
0-6
  6
CONTINUOUS
 62
     6
 10
11862.58863999998
 20
15825.379777
 30
0.0
 11
11780.445546999979
 21
15965.24761100001
 31
0.0
  0
LINE
  5
412E
  8
0-6
  6
CONTINUOUS
 62
     6
 10
11862.58863999998
 20
15825.379777
 30
0.0
 11
11830.24825499996
 21
15984.330169999999
 31
0.0
  0
LINE
  5
412F
  8
0-6
  6
CONTINUOUS
 62
     6
 10
11830.24825499996
 20
15984.330169999999
 30
0.0
 11
11780.445546999979
 21
15965.24761100001
 31
0.0
  0
LINE
  5
4130
  8
0-6
  6
CONTINUOUS
 62
     6
 10
11780.445546999979
 20
15965.24761100001
 30
0.0
 11
11862.58863999998
 21
15825.379777
 31
0.0
  0
LINE
  5
4131
  8
0-6
  6
CONTINUOUS
 62
     6
 10
11780.445546999979
 20
15965.24761100001
 30
0.0
 11
11830.24825499996
 21
15984.330169999999
 31
0.0
  0
LINE
  5
4132
  8
0-6
  6
CONTINUOUS
 62
     6
 10
13856.256819999981
 20
17197.157449999999
 30
0.0
 11
13713.28312099998
 21
17120.540184000001
 31
0.0
  0
LINE
  5
4133
  8
0-6
  6
CONTINUOUS
 62
     6
 10
13713.28312099998
 20
17120.540184000001
 30
0.0
 11
13873.374706999981
 21
17146.64805399999
 31
0.0
  0
LINE
  5
4134
  8
0-6
  6
CONTINUOUS
 62
     6
 10
13713.28312099998
 20
17120.540184000001
 30
0.0
 11
13856.256819999981
 21
17197.157449999999
 31
0.0
  0
LINE
  5
4135
  8
0-6
  6
CONTINUOUS
 62
     6
 10
13856.256819999981
 20
17197.157449999999
 30
0.0
 11
13873.374706999981
 21
17146.64805399999
 31
0.0
  0
LINE
  5
4136
  8
0-6
  6
CONTINUOUS
 62
     6
 10
13873.374706999981
 20
17146.64805399999
 30
0.0
 11
13713.28312099998
 21
17120.540184000001
 31
0.0
  0
LINE
  5
4137
  8
0-6
  6
CONTINUOUS
 62
     6
 10
13873.374706999981
 20
17146.64805399999
 30
0.0
 11
13856.256819999981
 21
17197.157449999999
 31
0.0
  0
LINE
  5
4138
  8
0-6
  6
CONTINUOUS
 62
     6
 10
13856.256819999981
 20
18660.654204999999
 30
0.0
 11
13713.28312099998
 21
18579.542162999991
 31
0.0
  0
LINE
  5
4139
  8
0-6
  6
CONTINUOUS
 62
     6
 10
13713.28312099998
 20
18579.542162999991
 30
0.0
 11
13873.374706999981
 21
18605.648054000001
 31
0.0
  0
LINE
  5
413A
  8
0-6
  6
CONTINUOUS
 62
     6
 10
13713.28312099998
 20
18579.542162999991
 30
0.0
 11
13856.256819999981
 21
18660.654204999999
 31
0.0
  0
LINE
  5
413B
  8
0-6
  6
CONTINUOUS
 62
     6
 10
13856.256819999981
 20
18660.654204999999
 30
0.0
 11
13873.374706999981
 21
18605.648054000001
 31
0.0
  0
LINE
  5
413C
  8
0-6
  6
CONTINUOUS
 62
     6
 10
13873.374706999981
 20
18605.648054000001
 30
0.0
 11
13713.28312099998
 21
18579.542162999991
 31
0.0
  0
LINE
  5
413D
  8
0-6
  6
CONTINUOUS
 62
     6
 10
13873.374706999981
 20
18605.648054000001
 30
0.0
 11
13856.256819999981
 21
18660.654204999999
 31
0.0
  0
LINE
  5
413E
  8
0-6
  6
CONTINUOUS
 62
     6
 10
14282.85204699998
 20
15841.95626500001
 30
0.0
 11
14129.065162999979
 21
15767.848038
 31
0.0
  0
LINE
  5
413F
  8
0-6
  6
CONTINUOUS
 62
     6
 10
14129.065162999979
 20
15767.848038
 30
0.0
 11
14299.09003799998
 21
15791.15390000001
 31
0.0
  0
LINE
  5
4140
  8
0-6
  6
CONTINUOUS
 62
     6
 10
14129.065162999979
 20
15767.848038
 30
0.0
 11
14282.85204699998
 21
15841.95626500001
 31
0.0
  0
LINE
  5
4141
  8
0-6
  6
CONTINUOUS
 62
     6
 10
14282.85204699998
 20
15841.95626500001
 30
0.0
 11
14299.09003799998
 21
15791.15390000001
 31
0.0
  0
LINE
  5
4142
  8
0-6
  6
CONTINUOUS
 62
     6
 10
14299.09003799998
 20
15791.15390000001
 30
0.0
 11
14129.065162999979
 21
15767.848038
 31
0.0
  0
LINE
  5
4143
  8
0-6
  6
CONTINUOUS
 62
     6
 10
14299.09003799998
 20
15791.15390000001
 30
0.0
 11
14282.85204699998
 21
15841.95626500001
 31
0.0
  0
LINE
  5
4144
  8
0-6
  6
CONTINUOUS
 62
     6
 10
10994.29611088694
 20
19582.10718588025
 30
0.0
 11
10981.79446088694
 21
19420.38249688024
 31
0.0
  0
LINE
  5
4145
  8
0-6
  6
CONTINUOUS
 62
     6
 10
10981.79446088694
 20
19420.38249688024
 30
0.0
 11
11046.07041888694
 21
19569.31355688025
 31
0.0
  0
LINE
  5
4146
  8
0-6
  6
CONTINUOUS
 62
     6
 10
10981.79446088694
 20
19420.38249688024
 30
0.0
 11
10994.29611088694
 21
19582.10718588025
 31
0.0
  0
LINE
  5
4147
  8
0-6
  6
CONTINUOUS
 62
     6
 10
10994.29611088694
 20
19582.10718588025
 30
0.0
 11
11046.07041888694
 21
19569.31355688025
 31
0.0
  0
LINE
  5
4148
  8
0-6
  6
CONTINUOUS
 62
     6
 10
11046.07041888694
 20
19569.31355688025
 30
0.0
 11
10981.79446088694
 21
19420.38249688024
 31
0.0
  0
LINE
  5
4149
  8
0-6
  6
CONTINUOUS
 62
     6
 10
11046.07041888694
 20
19569.31355688025
 30
0.0
 11
10994.29611088694
 21
19582.10718588025
 31
0.0
  0
LINE
  5
414A
  8
0-6
  6
CONTINUOUS
 62
     6
 10
14399.20418999998
 20
19982.940943999991
 30
0.0
 11
14495.856163999981
 21
19865.537677
 31
0.0
  0
LINE
  5
414B
  8
0-6
  6
CONTINUOUS
 62
     6
 10
14495.856163999981
 20
19865.537677
 30
0.0
 11
14442.50516899998
 21
20007.942264000001
 31
0.0
  0
LINE
  5
414C
  8
0-6
  6
CONTINUOUS
 62
     6
 10
14495.856163999981
 20
19865.537677
 30
0.0
 11
14399.20418999998
 21
19982.940943999991
 31
0.0
  0
LINE
  5
414D
  8
0-6
  6
CONTINUOUS
 62
     6
 10
14399.20418999998
 20
19982.940943999991
 30
0.0
 11
14442.50516899998
 21
20007.942264000001
 31
0.0
  0
LINE
  5
414E
  8
0-6
  6
CONTINUOUS
 62
     6
 10
14442.50516899998
 20
20007.942264000001
 30
0.0
 11
14495.856163999981
 21
19865.537677
 31
0.0
  0
LINE
  5
414F
  8
0-6
  6
CONTINUOUS
 62
     6
 10
14442.50516899998
 20
20007.942264000001
 30
0.0
 11
14399.20418999998
 21
19982.940943999991
 31
0.0
  0
LINE
  5
4150
  8
2-0
  6
DASHED3
 62
     6
 10
9352.0888769999856
 20
19604.03733399999
 30
0.0
 11
14487.08887699998
 21
19604.03733399999
 31
0.0
  0
LINE
  5
4151
  8
2-0
  6
DASHED3
 62
     6
 10
9309.5886129999799
 20
19422.297732999981
 30
0.0
 11
9309.5886129999799
 21
19689.035881999989
 31
0.0
  0
LINE
  5
4152
  8
2-0
  6
DASHED3
 62
     6
 10
9352.0888769999856
 20
19396.013685000002
 30
0.0
 11
9352.0888769999856
 21
19689.035881999989
 31
0.0
  0
LINE
  5
4153
  8
2-0
  6
DASHED3
 62
     6
 10
9309.5886129999799
 20
19689.035881999989
 30
0.0
 11
14529.58914099998
 21
19689.035881999989
 31
0.0
  0
LINE
  5
4154
  8
2-0
  6
DASHED3
 62
     6
 10
11919.58887699998
 20
17809.374828000011
 30
0.0
 11
11919.58887699998
 21
18489.541371999981
 31
0.0
  0
LINE
  5
4155
  8
2-0
  6
DASHED3
 62
     6
 10
14487.08887699998
 20
16222.23465200001
 30
0.0
 11
14487.08887699998
 21
19689.035881999989
 31
0.0
  0
LINE
  5
4156
  8
2-0
  6
DASHED3
 62
     6
 10
14529.58914099998
 20
16195.946645000011
 30
0.0
 11
14529.58914099998
 21
19689.035881999989
 31
0.0
  0
LINE
  5
4157
  8
2-0
  6
DASHED3
 62
     6
 10
9422.0896029999822
 20
19643.039787999991
 30
0.0
 11
11849.590130999961
 21
18534.539787999998
 31
0.0
  0
LINE
  5
4158
  8
2-0
  6
DASHED3
 62
     6
 10
10674.389539999969
 20
18579.542162999991
 30
0.0
 11
14487.08887699998
 21
18579.542162999991
 31
0.0
  0
LINE
  5
4159
  8
2-0
  6
DASHED3
 62
     6
 10
10819.899991999981
 20
18489.541371999981
 30
0.0
 11
14487.08887699998
 21
18489.541371999981
 31
0.0
  0
LINE
  5
415A
  8
2-0
  6
DASHED3
 62
     6
 10
13170.722811999971
 20
17030.54137100001
 30
0.0
 11
14487.08887699998
 21
17030.54137100001
 31
0.0
  0
LINE
  5
415B
  8
2-0
  6
DASHED3
 62
     6
 10
13025.21037999998
 20
17120.540184000001
 30
0.0
 11
14487.08887699998
 21
17120.540184000001
 31
0.0
  0
LINE
  5
415C
  8
2-0
  6
DASHED3
 62
     6
 10
11989.588612999971
 20
18534.539787999998
 30
0.0
 11
14417.08914099998
 21
17075.53978799998
 31
0.0
  0
LINE
  5
415D
  8
2-0
  6
DASHED3
 62
     6
 10
14417.08914099998
 20
17075.53978799998
 30
0.0
 11
13770.90591699998
 21
16692.685057999999
 31
0.0
  0
LINE
  5
415E
  8
2-0
  6
DASHED3
 62
     6
 10
11989.588612999971
 20
19643.039787999991
 30
0.0
 11
14417.08914099998
 21
18534.539787999998
 31
0.0
  0
LINE
  5
415F
  8
2-0
  6
DASHED3
 62
     6
 10
14417.08914099998
 20
19643.039787999991
 30
0.0
 11
11989.588612999971
 21
18534.539787999998
 31
0.0
  0
LINE
  5
4160
  8
2-0
  6
DASHED3
 62
     6
 10
11862.58863999998
 20
17916.700366000001
 30
0.0
 11
11862.58863999998
 21
18489.541371999981
 31
0.0
  0
LINE
  5
4161
  8
0-7
  6
CONTINUOUS
 62
     6
 10
11919.58887699998
 20
18165.490221
 30
0.0
 11
11919.58887699998
 21
18489.541371999981
 31
0.0
  0
LINE
  5
4162
  8
2-0
  6
DASHED3
 62
     6
 10
11976.590104999979
 20
17702.049289999999
 30
0.0
 11
11976.590104999979
 21
18489.541371999981
 31
0.0
  0
LINE
  5
4163
  8
2-0
  6
DASHED3
 62
     6
 10
14417.08914099998
 20
18534.539787999998
 30
0.0
 11
12612.75194999998
 21
17455.262707999991
 31
0.0
  0
LINE
  5
4164
  8
2-0
  6
DASHED3
 62
     6
 10
11849.590130999961
 20
18534.539787999998
 30
0.0
 11
11290.601796999979
 21
18198.407635
 31
0.0
  0
LINE
  5
4165
  8
2-0
  6
DASHED3
 62
     6
 10
11919.58887699998
 20
18579.542162999991
 30
0.0
 11
11919.58887699998
 21
18489.541371999981
 31
0.0
  0
LINE
  5
4166
  8
2-0
  6
DASHED3
 62
     6
 10
10188.443461999979
 20
18884.597141999991
 30
0.0
 11
11849.590130999961
 21
19643.039787999991
 31
0.0
  0
LINE
  5
4167
  8
2-0
  6
CENTER2
 62
     6
 10
14487.08887699998
 20
20885.538073000022
 30
0.0
 11
14487.08887699998
 21
19935.535433000001
 31
0.0
  0
LINE
  5
4168
  8
2-0
  6
CENTER2
 62
     6
 10
11919.58887699998
 20
20885.539388000001
 30
0.0
 11
11919.58887699998
 21
19935.535433000001
 31
0.0
  0
LINE
  5
4169
  8
2-0
  6
CENTER2
 62
     6
 10
8022.5876119999857
 20
19643.039787999991
 30
0.0
 11
9678.5887589999729
 21
19643.039787999991
 31
0.0
  0
LINE
  5
416A
  8
2-0
  6
CENTER2
 62
     6
 10
9352.0888769999856
 20
20885.539388000001
 30
0.0
 11
9352.0888769999856
 21
19935.535433000001
 31
0.0
  0
LINE
  5
416B
  8
2-0
  6
CENTER2
 62
     6
 10
8022.5876119999857
 20
17075.53978799998
 30
0.0
 11
9678.5887589999729
 21
17075.53978799998
 31
0.0
  0
LINE
  5
416C
  8
2-0
  6
CENTER2
 62
     6
 10
8022.5876119999857
 20
14508.039787999989
 30
0.0
 11
9678.5887589999729
 21
14508.039787999989
 31
0.0
  0
LINE
  5
416D
  8
2-0
  6
CENTER2
 62
     6
 10
14160.589985999981
 20
17075.53978799998
 30
0.0
 11
14720.02872599999
 21
17075.53978799998
 31
0.0
  0
LINE
  5
416E
  8
2-0
  6
CENTER2
 62
     6
 10
14160.589985999981
 20
14508.039787999989
 30
0.0
 11
14785.853656999991
 21
14508.039787999989
 31
0.0
  0
LINE
  5
416F
  8
2-0
  6
CENTER2
 62
     6
 10
9133.2916979999809
 20
15616.7802995
 30
0.0
 11
14720.02872599999
 21
15616.7802995
 31
0.0
  0
LINE
  5
4170
  8
2-0
  6
CENTER2
 62
     6
 10
9119.1510069999822
 20
18534.539787999998
 30
0.0
 11
14720.02872599999
 21
18534.539787999998
 31
0.0
  0
LINE
  5
4171
  8
2-0
  6
CONTINUOUS
 62
     6
 10
14771.355663
 20
15163.46856550001
 30
0.0
 11
16765.800803999991
 21
15163.46856550001
 31
0.0
  0
LINE
  5
4172
  8
2-0
  6
CONTINUOUS
 62
     6
 10
14771.355663
 20
17480.952900000011
 30
0.0
 11
16765.800803999991
 21
17480.952900000011
 31
0.0
  0
LINE
  5
4173
  8
2-0
  6
CONTINUOUS
 62
     6
 10
14771.355663
 20
18939.449600999989
 30
0.0
 11
16765.800803999991
 21
18939.449600999989
 31
0.0
  0
LINE
  5
4174
  8
2-0
  6
DASHED3
 62
     6
 10
11862.58863999998
 20
18579.542162999991
 30
0.0
 11
11862.58863999998
 21
19604.03733399999
 31
0.0
  0
LINE
  5
4175
  8
2-0
  6
DASHED3
 62
     6
 10
11919.58887699998
 20
18579.542162999991
 30
0.0
 11
11919.58887699998
 21
19604.03733399999
 31
0.0
  0
LINE
  5
4176
  8
2-0
  6
DASHED3
 62
     6
 10
11976.590104999979
 20
18579.542162999991
 30
0.0
 11
11976.590104999979
 21
19604.03733399999
 31
0.0
  0
CIRCLE
  5
4177
  8
0-1
  6
CONTINUOUS
 62
     4
 10
11919.58887699998
 20
21085.538068000009
 30
0.0
 40
199.9999949999999
  0
CIRCLE
  5
4178
  8
0-1
  6
CONTINUOUS
 62
     4
 10
9352.0888769999856
 20
21085.538068000009
 30
0.0
 40
199.9999949999999
  0
CIRCLE
  5
4179
  8
0-1
  6
CONTINUOUS
 62
     4
 10
7822.589921999981
 20
19643.039787999991
 30
0.0
 40
199.9999949999999
  0
CIRCLE
  5
417A
  8
0-1
  6
CONTINUOUS
 62
     4
 10
7822.589921999981
 20
17075.53978799998
 30
0.0
 40
199.9999949999999
  0
CIRCLE
  5
417B
  8
0-1
  6
CONTINUOUS
 62
     4
 10
7822.589921999981
 20
14508.039787999989
 30
0.0
 40
199.9999949999999
  0
CIRCLE
  5
417C
  8
0-1
  6
CONTINUOUS
 62
     4
 10
14487.08887699998
 20
21085.538733000001
 30
0.0
 40
199.9999949999999
  0
CIRCLE
  5
417D
  8
0-1
  6
CONTINUOUS
 62
     4
 10
15128.71667799999
 20
1375.999859
 30
0.0
 40
20.0
  0
ARC
  5
417E
  8
0-1
  6
CONTINUOUS
 62
     4
 10
15128.71667799999
 20
1375.999859
 30
0.0
 40
20.0
 50
180.0
 51
0.0
  0
ARC
  5
417F
  8
0-1
  6
CONTINUOUS
 62
     4
 10
15128.71667799999
 20
1375.999859
 30
0.0
 40
20.0
 50
0.0
 51
179.9999849999983
  0
CIRCLE
  5
4180
  8
0-1
  6
CONTINUOUS
 62
     4
 10
15128.71667799999
 20
1776.0000650000011
 30
0.0
 40
20.0
  0
ARC
  5
4181
  8
0-1
  6
CONTINUOUS
 62
     4
 10
15128.71667799999
 20
1776.0000650000011
 30
0.0
 40
20.0
 50
180.0
 51
0.0
  0
ARC
  5
4182
  8
0-1
  6
CONTINUOUS
 62
     4
 10
15128.71667799999
 20
1776.0000650000011
 30
0.0
 40
20.0
 50
0.0
 51
179.9999849999983
  0
ARC
  5
4183
  8
0-2
  6
CONTINUOUS
 62
     3
 10
14504.090011999981
 20
19830.53780899999
 30
0.0
 40
5.0
 50
180.0
 51
269.9999850001808
  0
ARC
  5
4184
  8
0-2
  6
CONTINUOUS
 62
     3
 10
14504.090011999981
 20
19860.537412999991
 30
0.0
 40
5.0
 50
90.0
 51
180.0
  0
ARC
  5
4185
  8
0-2
  6
CONTINUOUS
 62
     3
 10
14567.589008999979
 20
19860.537412999991
 30
0.0
 40
5.0
 50
0.0
 51
90.0
  0
ARC
  5
4186
  8
0-2
  6
CONTINUOUS
 62
     3
 10
9271.5877549999823
 20
19860.537412999991
 30
0.0
 40
5.0
 50
90.0
 51
180.0
  0
ARC
  5
4187
  8
0-2
  6
CONTINUOUS
 62
     3
 10
9335.0887319999856
 20
19860.537412999991
 30
0.0
 40
5.0
 50
0.0
 51
90.0
  0
ARC
  5
4188
  8
0-2
  6
CONTINUOUS
 62
     3
 10
9335.0887319999856
 20
19830.53780899999
 30
0.0
 40
5.0
 50
269.9999850001808
 51
0.0
  0
TEXT
  5
4189
  8
0-1
  6
CONTINUOUS
 62
     7
 10
14434.89095099999
 20
20996.529680000021
 30
0.0
 40
160.0
  1
3
 72
     4
 11
14488.22428433333
 21
21076.529680000021
 31
0.0
  0
TEXT
  5
418A
  8
0-1
  6
CONTINUOUS
 62
     7
 10
11866.058735999981
 20
20986.807599000022
 30
0.0
 40
160.0
  1
2
 72
     4
 11
11919.39206933332
 21
21066.807599000022
 31
0.0
  0
TEXT
  5
418B
  8
0-1
  6
CONTINUOUS
 62
     7
 10
9297.1384309999848
 20
20995.058233000022
 30
0.0
 40
160.0
  1
1
 72
     4
 11
9323.8050976666509
 21
21075.058233000022
 31
0.0
  0
TEXT
  5
418C
  8
0-1
  6
CONTINUOUS
 62
     7
 10
7770.5998459999864
 20
19554.288073
 30
0.0
 40
160.0
  1
C
 72
     4
 11
7823.9331793333185
 21
19634.288073
 31
0.0
  0
TEXT
  5
418D
  8
0-1
  6
CONTINUOUS
 62
     7
 10
7770.5998459999864
 20
16986.792031000012
 30
0.0
 40
160.0
  1
B
 72
     4
 11
7823.9331793333185
 21
17066.792031000012
 31
0.0
  0
TEXT
  5
418E
  8
0-1
  6
CONTINUOUS
 62
     7
 10
7770.5998459999864
 20
14419.292030999981
 30
0.0
 40
160.0
  1
A
 72
     4
 11
7823.9331793333185
 21
14499.292030999981
 31
0.0
  0
TEXT
  5
418F
  8
0-1
  6
CONTINUOUS
 62
     7
 10
16630.524288403642
 20
1655.999916
 30
0.0
 40
160.0
  1
H
  0
TEXT
  5
4190
  8
0-1
  6
CONTINUOUS
 62
     7
 10
15176.146932999991
 20
1655.999916
 30
0.0
 40
160.0
  1
（ ）内寸法ハ、  タ イプヲ示ス。
  0
TEXT
  5
4191
  8
0-1
  6
CONTINUOUS
 62
     7
 10
15288.715227000001
 20
1256.000081000001
 30
0.0
 40
160.0
  1
有効高サハ、基礎高サヲ含ミマセン。
  0
TEXT
  5
4192
  8
0-6
  6
CONTINUOUS
 62
     7
 10
11244.08562188695
 20
20167.98727988025
 30
0.0
 40
160.0
  1
屋根
 72
     4
 11
11414.75228855362
 21
20247.98727988025
 31
0.0
  0
TEXT
  5
4193
  8
0-6
  6
CONTINUOUS
 62
     7
 10
11170.41433699996
 20
14964.1082795
 30
0.0
 40
160.0
  1
桁（前）
 72
     4
 11
11490.41433699996
 21
15044.1082795
 31
0.0
  0
TEXT
  5
4194
  8
0-6
  6
CONTINUOUS
 62
     7
 10
10791.20941418954
 20
13595.53912799998
 30
0.0
 40
160.0
  1
鼻隠し前
 72
     4
 11
11153.876080856209
 21
13675.53912799998
 31
0.0
  0
TEXT
  5
4195
  8
0-6
  6
CONTINUOUS
 62
     7
 10
7616.1901419999813
 20
13195.539788
 30
0.0
 40
160.0
  1
ケラバ 左
 72
     4
 11
8032.1901419999813
 21
13275.539788
 31
0.0
  0
TEXT
  5
4196
  8
0-6
  6
CONTINUOUS
 62
     7
 10
9606.1156139999875
 20
17788.227631000002
 30
0.0
 40
160.0
  1
上枠
 72
     4
 11
9776.7822806666518
 21
17868.227631000002
 31
0.0
  0
TEXT
  5
4197
  8
0-6
  6
CONTINUOUS
 62
     7
 10
12342.87428399997
 20
20895.53662100001
 30
0.0
 40
160.0
  1
鼻隠しコーナー後
 72
     4
 11
13089.54095066664
 21
20975.53662100001
 31
0.0
  0
TEXT
  5
4198
  8
0-6
  6
CONTINUOUS
 62
     7
 10
14851.35592699999
 20
16050.08977699999
 30
0.0
 40
160.0
  1
ブレース
 72
     4
 11
15214.022593666659
 21
16135.42311033333
 31
0.0
  0
TEXT
  5
4199
  8
0-6
  6
CONTINUOUS
 62
     7
 10
10770.224962999981
 20
16330.40346500001
 30
0.0
 40
160.0
  1
梁　梁補強
 72
     4
 11
11228.89162966665
 21
16410.40346500001
 31
0.0
  0
TEXT
  5
419A
  8
0-6
  6
CONTINUOUS
 62
     7
 10
10990.07524499996
 20
16332.774928000001
 30
0.0
 40
160.0
  1
+
 72
     4
 11
11043.408578333299
 21
16412.774927999999
 31
0.0
  0
TEXT
  5
419B
  8
2-0
  6
CONTINUOUS
 62
     7
 10
14851.927017999989
 20
19019.449864999991
 30
0.0
 40
160.0
  1
桁中B +  桁中補強B
 50
359.99993699999987
 72
     4
 11
15785.260439297361
 21
19099.448838746339
 31
0.0
  0
TEXT
  5
419C
  8
2-0
  6
CONTINUOUS
 62
     7
 10
14851.927018
 20
17560.949205000001
 30
0.0
 40
160.0
  1
桁中A +  桁中補強A
 72
     4
 11
15785.260351333331
 21
17640.949205000001
 31
0.0
  0
TEXT
  5
419D
  8
2-0
  6
CONTINUOUS
 62
     7
 10
14851.927018
 20
15243.4648705
 30
0.0
 40
160.0
  1
桁中B +  桁中補強B
 72
     4
 11
15785.260351333331
 21
15323.4648705
 31
0.0
  0
TEXT
  5
419E
  8
2-0
  6
CONTINUOUS
 62
     7
 10
10677.062879999959
 20
12249.760451
 30
0.0
 40
160.0
  1
小 屋 伏 図
 72
     4
 11
11178.396213333301
 21
12329.760451
 31
0.0
  0
TEXT
  5
41A7
  8
2-0
  6
CONTINUOUS
 62
     7
 10
12529.888398470919
 20
12276.95581999999
 30
0.0
 40
160.0
  1
1
 72
     4
 11
12556.555065137591
 21
12356.95581999999
 31
0.0
  0
TEXT
  5
41A8
  8
2-0
  6
CONTINUOUS
 62
     7
 10
12772.97711572162
 20
12196.957288
 30
0.0
 40
160.0
  1
80
 72
     4
 11
12892.97711572162
 21
12276.957288
 31
0.0
  0
TEXT
  5
41A9
  8
2-0
  6
CONTINUOUS
 62
     7
 10
12030.890364470921
 20
12249.760451
 30
0.0
 40
160.0
  1
(S=  /   )
 72
     4
 11
12590.89036447093
 21
12329.760451
 31
0.0
  0
TEXT
  5
41AA
  8
0-6
  6
CONTINUOUS
 62
     7
 10
9457.3745381448043
 20
20175.534244999999
 30
0.0
 40
160.0
  1
桁後+桁後補強
 72
     4
 11
10092.04120481147
 21
20255.534244999999
 31
0.0
  0
LINE
  5
41AB
  8
0-6
  6
CONTINUOUS
 62
     6
 10
10901.089945999969
 20
19689.035881999989
 30
0.0
 11
10767.695998118739
 21
20095.535961000001
 31
0.0
  0
LINE
  5
41AC
  8
0-6
  6
CONTINUOUS
 62
     6
 10
9408.4528785495204
 20
20095.535961000001
 30
0.0
 11
10767.695998118739
 21
20095.535961000001
 31
0.0
  0
LINE
  5
41AD
  8
0-6
  6
CONTINUOUS
 62
     6
 10
10877.48249063269
 20
19849.517320424919
 30
0.0
 11
10826.70884685975
 21
19833.183804240161
 31
0.0
  0
LINE
  5
41AE
  8
0-6
  6
CONTINUOUS
 62
     6
 10
10877.48249063269
 20
19849.517320424919
 30
0.0
 11
10901.089945999969
 21
19689.035881999989
 31
0.0
  0
LINE
  5
41AF
  8
0-6
  6
CONTINUOUS
 62
     6
 10
10826.70884685975
 20
19833.183804240161
 30
0.0
 11
10877.48249063269
 21
19849.517320424919
 31
0.0
  0
LINE
  5
41B0
  8
0-6
  6
CONTINUOUS
 62
     6
 10
10901.089945999969
 20
19689.035881999989
 30
0.0
 11
10826.70884685975
 21
19833.183804240161
 31
0.0
  0
LINE
  5
41B1
  8
0-6
  6
CONTINUOUS
 62
     6
 10
10901.089945999969
 20
19689.035881999989
 30
0.0
 11
10877.48249063269
 21
19849.517320424919
 31
0.0
  0
LINE
  5
41B2
  8
0-6
  6
CONTINUOUS
 62
     6
 10
10826.70884685975
 20
19833.183804240161
 30
0.0
 11
10901.089945999969
 21
19689.035881999989
 31
0.0
  0
LINE
  5
41B3
  8
0-4
  6
CONTINUOUS
 62
     4
 10
14264.29067299999
 20
6267.088643000001
 30
0.0
 11
19517.546927999982
 21
6267.088643000001
 31
0.0
  0
LINE
  5
41B4
  8
0-1
  6
CONTINUOUS
 62
     3
 10
8971.7892219999976
 20
8278.1340270000055
 30
0.0
 11
14151.791596999999
 21
8278.1340270000055
 31
0.0
  0
LINE
  5
41B5
  8
0-1
  6
CONTINUOUS
 62
     3
 10
8261.7893540000005
 20
6267.088643000001
 30
0.0
 11
14184.29040899999
 21
6267.088643000001
 31
0.0
  0
LINE
  5
41B6
  8
0-1
  6
CONTINUOUS
 62
     3
 10
8944.2904090000011
 20
6367.0884780000006
 30
0.0
 11
14184.29040899999
 21
6367.0884780000006
 31
0.0
  0
LINE
  5
41B7
  8
0-1
  6
CONTINUOUS
 62
     3
 10
8951.7911349999977
 20
8400.1159209999969
 30
0.0
 11
8951.7911349999977
 21
6367.0884780000006
 31
0.0
  0
LINE
  5
41B8
  8
0-1
  6
CONTINUOUS
 62
     3
 10
8971.7892219999976
 20
8400.8166700000038
 30
0.0
 11
8971.7892219999976
 21
6367.0884780000006
 31
0.0
  0
LINE
  5
41B9
  8
0-1
  6
CONTINUOUS
 62
     3
 10
8944.2904090000011
 20
6267.088643000001
 30
0.0
 11
8944.2904090000011
 21
6367.0884780000006
 31
0.0
  0
LINE
  5
41BA
  8
0-1
  6
CONTINUOUS
 62
     3
 10
14247.070775
 20
8585.0128540000005
 30
0.0
 11
14242.518872000001
 21
8714.9336070000008
 31
0.0
  0
LINE
  5
41BB
  8
0-1
  6
CONTINUOUS
 62
     3
 10
11634.290277
 20
6417.088643000001
 30
0.0
 11
14056.790541
 21
6417.088643000001
 31
0.0
  0
LINE
  5
41BC
  8
0-1
  6
CONTINUOUS
 62
     3
 10
11147.789934
 20
6417.088643000001
 30
0.0
 11
11147.789934
 21
8278.1340270000055
 31
0.0
  0
LINE
  5
41BD
  8
0-1
  6
CONTINUOUS
 62
     3
 10
11167.79098999999
 20
6417.088643000001
 30
0.0
 11
11167.79098999999
 21
8278.1340270000055
 31
0.0
  0
LINE
  5
41BE
  8
0-1
  6
CONTINUOUS
 62
     3
 10
11097.791252999999
 20
6417.088643000001
 30
0.0
 11
11097.791252999999
 21
8278.1340270000055
 31
0.0
  0
LINE
  5
41BF
  8
0-1
  6
CONTINUOUS
 62
     3
 10
11217.78967
 20
6417.088643000001
 30
0.0
 11
11217.78967
 21
8278.1340270000055
 31
0.0
  0
LINE
  5
41C0
  8
0-1
  6
CONTINUOUS
 62
     3
 10
11350.788574
 20
6417.088643000001
 30
0.0
 11
11350.788574
 21
8278.1340270000055
 31
0.0
  0
LINE
  5
41C1
  8
0-1
  6
CONTINUOUS
 62
     3
 10
11365.790356
 20
6417.088643000001
 30
0.0
 11
11365.790356
 21
8278.1340270000055
 31
0.0
  0
LINE
  5
41C2
  8
0-1
  6
CONTINUOUS
 62
     3
 10
10964.789378999991
 20
6417.088643000001
 30
0.0
 11
10964.789378999991
 21
8278.1340270000055
 31
0.0
  0
LINE
  5
41C3
  8
0-1
  6
CONTINUOUS
 62
     3
 10
10949.79056699998
 20
6417.088643000001
 30
0.0
 11
10949.79056699998
 21
8278.1340270000055
 31
0.0
  0
LINE
  5
41C4
  8
0-1
  6
CONTINUOUS
 62
     3
 10
9066.7882980000031
 20
8278.1340270000055
 30
0.0
 11
9066.7882980000031
 21
6367.0884780000006
 31
0.0
  0
LINE
  5
41C5
  8
0-1
  6
CONTINUOUS
 62
     3
 10
11634.290277
 20
8278.1340270000055
 30
0.0
 11
11634.290277
 21
6367.0884780000006
 31
0.0
  0
LINE
  5
41C6
  8
0-1
  6
CONTINUOUS
 62
     3
 10
11489.290541
 20
8278.1340270000055
 30
0.0
 11
11489.290541
 21
6367.0884780000006
 31
0.0
  0
LINE
  5
41C7
  8
0-1
  6
CONTINUOUS
 62
     3
 10
9747.7902640000011
 20
6417.088643000001
 30
0.0
 11
9747.7902640000011
 21
8278.1340270000055
 31
0.0
  0
LINE
  5
41C8
  8
0-1
  6
CONTINUOUS
 62
     3
 10
9767.7903299999907
 20
6417.088643000001
 30
0.0
 11
9767.7903299999907
 21
8278.1340270000055
 31
0.0
  0
LINE
  5
41C9
  8
0-1
  6
CONTINUOUS
 62
     3
 10
9697.7905939999964
 20
6417.088643000001
 30
0.0
 11
9697.7905939999964
 21
8278.1340270000055
 31
0.0
  0
LINE
  5
41CA
  8
0-1
  6
CONTINUOUS
 62
     3
 10
9817.7900000000027
 20
6417.088643000001
 30
0.0
 11
9817.7900000000027
 21
8278.1340270000055
 31
0.0
  0
LINE
  5
41CB
  8
0-1
  6
CONTINUOUS
 62
     3
 10
9950.7908840000055
 20
6417.088643000001
 30
0.0
 11
9950.7908840000055
 21
8278.1340270000055
 31
0.0
  0
LINE
  5
41CC
  8
0-1
  6
CONTINUOUS
 62
     3
 10
9965.7896960000016
 20
6417.088643000001
 30
0.0
 11
9965.7896960000016
 21
8278.1340270000055
 31
0.0
  0
LINE
  5
41CD
  8
0-1
  6
CONTINUOUS
 62
     3
 10
9564.7897090000024
 20
6417.088643000001
 30
0.0
 11
9564.7897090000024
 21
8278.1340270000055
 31
0.0
  0
LINE
  5
41CE
  8
0-1
  6
CONTINUOUS
 62
     3
 10
9549.7889180000002
 20
6417.088643000001
 30
0.0
 11
9549.7889180000002
 21
8278.1340270000055
 31
0.0
  0
LINE
  5
41CF
  8
0-1
  6
CONTINUOUS
 62
     3
 10
10249.790236999999
 20
6417.088643000001
 30
0.0
 11
10249.790236999999
 21
8278.1340270000055
 31
0.0
  0
LINE
  5
41D0
  8
0-1
  6
CONTINUOUS
 62
     3
 10
10264.789049999999
 20
6417.088643000001
 30
0.0
 11
10264.789049999999
 21
8278.1340270000055
 31
0.0
  0
LINE
  5
41D1
  8
0-1
  6
CONTINUOUS
 62
     3
 10
10665.79101599999
 20
6417.088643000001
 30
0.0
 11
10665.79101599999
 21
8278.1340270000055
 31
0.0
  0
LINE
  5
41D2
  8
0-1
  6
CONTINUOUS
 62
     3
 10
10650.79022399998
 20
6417.088643000001
 30
0.0
 11
10650.79022399998
 21
8278.1340270000055
 31
0.0
  0
LINE
  5
41D3
  8
0-1
  6
CONTINUOUS
 62
     3
 10
10517.789339999979
 20
6417.088643000001
 30
0.0
 11
10517.789339999979
 21
8278.1340270000055
 31
0.0
  0
LINE
  5
41D4
  8
0-1
  6
CONTINUOUS
 62
     3
 10
10397.789934
 20
6417.088643000001
 30
0.0
 11
10397.789934
 21
8278.1340270000055
 31
0.0
  0
LINE
  5
41D5
  8
0-1
  6
CONTINUOUS
 62
     3
 10
10467.78967
 20
6417.088643000001
 30
0.0
 11
10467.78967
 21
8278.1340270000055
 31
0.0
  0
LINE
  5
41D6
  8
0-1
  6
CONTINUOUS
 62
     3
 10
10447.79059399998
 20
6417.088643000001
 30
0.0
 11
10447.79059399998
 21
8278.1340270000055
 31
0.0
  0
LINE
  5
41D7
  8
0-1
  6
CONTINUOUS
 62
     3
 10
10789.29021099999
 20
8278.1340270000055
 30
0.0
 11
10789.29021099999
 21
6417.088643000001
 31
0.0
  0
LINE
  5
41D8
  8
0-1
  6
CONTINUOUS
 62
     3
 10
10826.29038199999
 20
8278.1340270000055
 30
0.0
 11
10826.29038199999
 21
6417.088643000001
 31
0.0
  0
LINE
  5
41D9
  8
0-1
  6
CONTINUOUS
 62
     3
 10
9389.2895510000017
 20
8278.1340270000055
 30
0.0
 11
9389.2895510000017
 21
6417.088643000001
 31
0.0
  0
LINE
  5
41DA
  8
0-1
  6
CONTINUOUS
 62
     3
 10
9426.2907120000018
 20
8278.1340270000055
 30
0.0
 11
9426.2907120000018
 21
6417.088643000001
 31
0.0
  0
LINE
  5
41DB
  8
0-1
  6
CONTINUOUS
 62
     3
 10
10089.288891
 20
8278.1340270000055
 30
0.0
 11
10089.288891
 21
6417.088643000001
 31
0.0
  0
LINE
  5
41DC
  8
0-1
  6
CONTINUOUS
 62
     3
 10
10126.291042000001
 20
8278.1340270000055
 30
0.0
 11
10126.291042000001
 21
6417.088643000001
 31
0.0
  0
LINE
  5
41DD
  8
0-1
  6
CONTINUOUS
 62
     3
 10
9066.7882980000031
 20
6417.088643000001
 30
0.0
 11
11489.290541
 21
6417.088643000001
 31
0.0
  0
LINE
  5
41DE
  8
0-1
  6
CONTINUOUS
 62
     3
 10
11561.79040899999
 20
8491.2470170000033
 30
0.0
 11
11557.236525999981
 21
8621.1657910000013
 31
0.0
  0
LINE
  5
41DF
  8
0-1
  6
CONTINUOUS
 62
     3
 10
11561.79040899999
 20
8491.2470170000033
 30
0.0
 11
11561.79040899999
 21
8278.1340270000055
 31
0.0
  0
LINE
  5
41E0
  8
0-1
  6
CONTINUOUS
 62
     3
 10
14056.790541
 20
8278.1340270000055
 30
0.0
 11
14056.790541
 21
6367.0884780000006
 31
0.0
  0
LINE
  5
41E1
  8
0-1
  6
CONTINUOUS
 62
     3
 10
14171.790673
 20
8582.3751450000018
 30
0.0
 11
14171.790673
 21
6367.0884780000006
 31
0.0
  0
LINE
  5
41E2
  8
0-1
  6
CONTINUOUS
 62
     3
 10
14151.791596999999
 20
8581.6743959999967
 30
0.0
 11
14151.791596999999
 21
6367.0884780000006
 31
0.0
  0
LINE
  5
41E3
  8
0-1
  6
CONTINUOUS
 62
     3
 10
12997.288785999999
 20
8278.1340270000055
 30
0.0
 11
12997.288785999999
 21
6417.088643000001
 31
0.0
  0
LINE
  5
41E4
  8
0-1
  6
CONTINUOUS
 62
     3
 10
13034.28994699999
 20
8278.1340270000055
 30
0.0
 11
13034.28994699999
 21
6417.088643000001
 31
0.0
  0
LINE
  5
41E5
  8
0-1
  6
CONTINUOUS
 62
     3
 10
13697.29109499999
 20
8278.1340270000055
 30
0.0
 11
13697.29109499999
 21
6417.088643000001
 31
0.0
  0
LINE
  5
41E6
  8
0-1
  6
CONTINUOUS
 62
     3
 10
13734.289287
 20
8278.1340270000055
 30
0.0
 11
13734.289287
 21
6417.088643000001
 31
0.0
  0
LINE
  5
41E7
  8
0-1
  6
CONTINUOUS
 62
     3
 10
12297.289445
 20
8278.1340270000055
 30
0.0
 11
12297.289445
 21
6417.088643000001
 31
0.0
  0
LINE
  5
41E8
  8
0-1
  6
CONTINUOUS
 62
     3
 10
12334.289617
 20
8278.1340270000055
 30
0.0
 11
12334.289617
 21
6417.088643000001
 31
0.0
  0
LINE
  5
41E9
  8
0-1
  6
CONTINUOUS
 62
     3
 10
12675.789234
 20
6417.088643000001
 30
0.0
 11
12675.789234
 21
8278.1340270000055
 31
0.0
  0
LINE
  5
41EA
  8
0-1
  6
CONTINUOUS
 62
     3
 10
12655.790157999991
 20
6417.088643000001
 30
0.0
 11
12655.790157999991
 21
8278.1340270000055
 31
0.0
  0
LINE
  5
41EB
  8
0-1
  6
CONTINUOUS
 62
     3
 10
12725.790884
 20
6417.088643000001
 30
0.0
 11
12725.790884
 21
8278.1340270000055
 31
0.0
  0
LINE
  5
41EC
  8
0-1
  6
CONTINUOUS
 62
     3
 10
12605.78949799998
 20
6417.088643000001
 30
0.0
 11
12605.78949799998
 21
8278.1340270000055
 31
0.0
  0
LINE
  5
41ED
  8
0-1
  6
CONTINUOUS
 62
     3
 10
12472.790594
 20
6417.088643000001
 30
0.0
 11
12472.790594
 21
8278.1340270000055
 31
0.0
  0
LINE
  5
41EE
  8
0-1
  6
CONTINUOUS
 62
     3
 10
12457.789801999979
 20
6417.088643000001
 30
0.0
 11
12457.789801999979
 21
8278.1340270000055
 31
0.0
  0
LINE
  5
41EF
  8
0-1
  6
CONTINUOUS
 62
     3
 10
12858.789789
 20
6417.088643000001
 30
0.0
 11
12858.789789
 21
8278.1340270000055
 31
0.0
  0
LINE
  5
41F0
  8
0-1
  6
CONTINUOUS
 62
     3
 10
12873.788601
 20
6417.088643000001
 30
0.0
 11
12873.788601
 21
8278.1340270000055
 31
0.0
  0
LINE
  5
41F1
  8
0-1
  6
CONTINUOUS
 62
     3
 10
13573.79091
 20
6417.088643000001
 30
0.0
 11
13573.79091
 21
8278.1340270000055
 31
0.0
  0
LINE
  5
41F2
  8
0-1
  6
CONTINUOUS
 62
     3
 10
13558.789128999981
 20
6417.088643000001
 30
0.0
 11
13558.789128999981
 21
8278.1340270000055
 31
0.0
  0
LINE
  5
41F3
  8
0-1
  6
CONTINUOUS
 62
     3
 10
13157.790132
 20
6417.088643000001
 30
0.0
 11
13157.790132
 21
8278.1340270000055
 31
0.0
  0
LINE
  5
41F4
  8
0-1
  6
CONTINUOUS
 62
     3
 10
13172.788944
 20
6417.088643000001
 30
0.0
 11
13172.788944
 21
8278.1340270000055
 31
0.0
  0
LINE
  5
41F5
  8
0-1
  6
CONTINUOUS
 62
     3
 10
13305.788838
 20
6417.088643000001
 30
0.0
 11
13305.788838
 21
8278.1340270000055
 31
0.0
  0
LINE
  5
41F6
  8
0-1
  6
CONTINUOUS
 62
     3
 10
13425.789234
 20
6417.088643000001
 30
0.0
 11
13425.789234
 21
8278.1340270000055
 31
0.0
  0
LINE
  5
41F7
  8
0-1
  6
CONTINUOUS
 62
     3
 10
13355.789498
 20
6417.088643000001
 30
0.0
 11
13355.789498
 21
8278.1340270000055
 31
0.0
  0
LINE
  5
41F8
  8
0-1
  6
CONTINUOUS
 62
     3
 10
13375.788574
 20
6417.088643000001
 30
0.0
 11
13375.788574
 21
8278.1340270000055
 31
0.0
  0
LINE
  5
41F9
  8
0-1
  6
CONTINUOUS
 62
     3
 10
12173.789261
 20
6417.088643000001
 30
0.0
 11
12173.789261
 21
8278.1340270000055
 31
0.0
  0
LINE
  5
41FA
  8
0-1
  6
CONTINUOUS
 62
     3
 10
12158.789459
 20
6417.088643000001
 30
0.0
 11
12158.789459
 21
8278.1340270000055
 31
0.0
  0
LINE
  5
41FB
  8
0-1
  6
CONTINUOUS
 62
     3
 10
11757.79046199999
 20
6417.088643000001
 30
0.0
 11
11757.79046199999
 21
8278.1340270000055
 31
0.0
  0
LINE
  5
41FC
  8
0-1
  6
CONTINUOUS
 62
     3
 10
11772.79125299999
 20
6417.088643000001
 30
0.0
 11
11772.79125299999
 21
8278.1340270000055
 31
0.0
  0
LINE
  5
41FD
  8
0-1
  6
CONTINUOUS
 62
     3
 10
11905.790158
 20
6417.088643000001
 30
0.0
 11
11905.790158
 21
8278.1340270000055
 31
0.0
  0
LINE
  5
41FE
  8
0-1
  6
CONTINUOUS
 62
     3
 10
12025.789564000001
 20
6417.088643000001
 30
0.0
 11
12025.789564000001
 21
8278.1340270000055
 31
0.0
  0
LINE
  5
41FF
  8
0-1
  6
CONTINUOUS
 62
     3
 10
11955.789828000001
 20
6417.088643000001
 30
0.0
 11
11955.789828000001
 21
8278.1340270000055
 31
0.0
  0
LINE
  5
4200
  8
0-1
  6
CONTINUOUS
 62
     3
 10
11975.78989399999
 20
6417.088643000001
 30
0.0
 11
11975.78989399999
 21
8278.1340270000055
 31
0.0
  0
LINE
  5
4201
  8
0-1
  6
CONTINUOUS
 62
     3
 10
14184.29040899999
 20
6367.0884780000006
 30
0.0
 11
14184.29040899999
 21
6267.088643000001
 31
0.0
  0
LINE
  5
4202
  8
0-1
  6
CONTINUOUS
 62
     3
 10
8774.6628230000024
 20
8441.9391889999988
 30
0.0
 11
8773.4701630000018
 21
8475.9166359999981
 31
0.0
  0
LINE
  5
4203
  8
0-1
  6
CONTINUOUS
 62
     3
 10
8776.364219000001
 20
8479.0205209999967
 30
0.0
 11
14256.08847199999
 21
8670.3805820000016
 31
0.0
  0
LINE
  5
4204
  8
0-1
  6
CONTINUOUS
 62
     3
 10
14257.487991999989
 20
8630.4071740000036
 30
0.0
 11
8777.7647290000023
 21
8439.0451330000033
 31
0.0
  0
LINE
  5
4205
  8
0-1
  6
CONTINUOUS
 62
     3
 10
8775.0478390000062
 20
8430.9449430000077
 30
0.0
 11
8775.0448700000015
 21
8431.0102670000033
 31
0.0
  0
LINE
  5
4206
  8
0-1
  6
CONTINUOUS
 62
     3
 10
8775.0448700000015
 20
8431.0102670000033
 30
0.0
 11
8776.1682470000032
 21
8398.9658199999994
 31
0.0
  0
LINE
  5
4207
  8
0-1
  6
CONTINUOUS
 62
     3
 10
8781.3397390000009
 20
8394.142722999999
 30
0.0
 11
14280.03173899998
 21
8586.1679030000032
 31
0.0
  0
LINE
  5
4208
  8
0-1
  6
CONTINUOUS
 62
     3
 10
14275.47983599999
 20
8716.0876660000031
 30
0.0
 11
8776.7878360000013
 21
8524.0634770000015
 31
0.0
  0
LINE
  5
4209
  8
0-1
  6
CONTINUOUS
 62
     3
 10
8771.9647390000027
 20
8518.890994000003
 30
0.0
 11
8773.0851470000016
 21
8486.9118720000006
 31
0.0
  0
LINE
  5
420A
  8
0-1
  6
CONTINUOUS
 62
     3
 10
8776.1900220000007
 20
8484.0178160000032
 30
0.0
 11
14255.91229499998
 21
8675.3778770000008
 31
0.0
  0
LINE
  5
420B
  8
0-1
  6
CONTINUOUS
 62
     3
 10
14257.66317899999
 20
8625.4098790000025
 30
0.0
 11
8777.9399160000012
 21
8434.0478379999968
 31
0.0
  0
LINE
  5
420C
  8
0-1
  6
CONTINUOUS
 62
     3
 10
8789.2795880000049
 20
8524.500949999996
 30
0.0
 11
8793.8324809999995
 21
8394.5801969999975
 31
0.0
  0
LINE
  5
420D
  8
0-5
  6
CONTINUOUS
 62
     4
 10
8994.2904090000029
 20
4587.0885440000002
 30
0.0
 11
8994.2904090000029
 21
4427.0885109999999
 31
0.0
  0
LINE
  5
420E
  8
0-5
  6
CONTINUOUS
 62
     4
 10
11561.79040899999
 20
4587.0885440000002
 30
0.0
 11
11561.79040899999
 21
4427.0885109999999
 31
0.0
  0
LINE
  5
420F
  8
0-5
  6
CONTINUOUS
 62
     4
 10
14129.29040899999
 20
4587.0885440000002
 30
0.0
 11
14129.29040899999
 21
4427.0885109999999
 31
0.0
  0
LINE
  5
4210
  8
2-0
  6
CENTER2
 62
     6
 10
8994.2904090000029
 20
6004.4352299999982
 30
0.0
 11
8994.2904090000029
 21
7061.5783230000015
 31
0.0
  0
LINE
  5
4211
  8
2-0
  6
CENTER2
 62
     6
 10
11561.79040899999
 20
6004.4352299999982
 30
0.0
 11
11561.79040899999
 21
7061.5783230000015
 31
0.0
  0
LINE
  5
4212
  8
2-0
  6
CENTER2
 62
     6
 10
14129.29040899999
 20
6004.4352299999982
 30
0.0
 11
14129.29040899999
 21
7061.5783230000015
 31
0.0
  0
ARC
  5
4213
  8
0-1
  6
CONTINUOUS
 62
     3
 10
8779.3513129999974
 20
8436.5994379999975
 30
0.0
 40
2.5
 50
272.00698899981808
 51
92.006988999818091
  0
ARC
  5
4214
  8
0-1
  6
CONTINUOUS
 62
     3
 10
8777.7766060000085
 20
8481.5731100000048
 30
0.0
 40
2.5
 50
272.00698899981808
 51
92.006988999818091
  0
ARC
  5
4215
  8
0-1
  6
CONTINUOUS
 62
     3
 10
8776.4691340000081
 20
8476.0215500000031
 30
0.0
 40
3.0
 50
92.006988999818091
 51
182.00698899997451
  0
ARC
  5
4216
  8
0-1
  6
CONTINUOUS
 62
     3
 10
14256.787241999989
 20
8650.3933829999987
 30
0.0
 40
20.0
 50
272.00698899981808
 51
92.006988999818091
  0
ARC
  5
4217
  8
0-1
  6
CONTINUOUS
 62
     3
 10
8777.6598139999987
 20
8442.0441040000005
 30
0.0
 40
3.0
 50
182.00698899997451
 51
272.00698899981808
  0
ARC
  5
4218
  8
0-1
  6
CONTINUOUS
 62
     3
 10
8778.0448300000044
 20
8431.0508469999986
 30
0.0
 40
3.0
 50
92.006988999818091
 51
182.00698899997451
  0
ARC
  5
4219
  8
0-1
  6
CONTINUOUS
 62
     3
 10
8781.1655409999985
 20
8399.1400180000037
 30
0.0
 40
5.0
 50
182.00698899997451
 51
272.00698899981808
  0
ARC
  5
421A
  8
0-1
  6
CONTINUOUS
 62
     3
 10
14251.790936999991
 20
8650.2191850000017
 30
0.0
 40
69.999999000000003
 50
293.7937770000417
 51
70.22019999997768
  0
ARC
  5
421B
  8
0-1
  6
CONTINUOUS
 62
     3
 10
8776.9620340000056
 20
8519.0661819999968
 30
0.0
 40
5.0
 50
92.006988999818091
 51
182.00698899997451
  0
ARC
  5
421C
  8
0-1
  6
CONTINUOUS
 62
     3
 10
8776.0831280000002
 20
8487.0157970000037
 30
0.0
 40
3.0
 50
182.00698899997451
 51
272.00698899981808
  0
ARC
  5
421D
  8
0-1
  6
CONTINUOUS
 62
     3
 10
14256.787241999989
 20
8650.3933829999987
 30
0.0
 40
24.999998999999999
 50
272.00698899981808
 51
92.006988999818091
  0
CIRCLE
  5
421E
  8
0-5
  6
CONTINUOUS
 62
     4
 10
8994.2904090000029
 20
4227.0878509999993
 30
0.0
 40
199.9999949999999
  0
CIRCLE
  5
421F
  8
0-5
  6
CONTINUOUS
 62
     4
 10
14129.29040899999
 20
4227.0878509999993
 30
0.0
 40
199.9999949999999
  0
CIRCLE
  5
4220
  8
0-5
  6
CONTINUOUS
 62
     4
 10
11561.79040899999
 20
4227.0878509999993
 30
0.0
 40
199.9999949999999
  0
TEXT
  5
4221
  8
0-5
  6
CONTINUOUS
 62
     7
 10
8940.0944328542064
 20
4139.8339066382023
 30
0.0
 40
160.0
  1
C
 72
     4
 11
8993.4277661875421
 21
4219.8339066382032
 31
0.0
  0
TEXT
  5
4222
  8
0-5
  6
CONTINUOUS
 62
     7
 10
11507.59344185418
 20
4139.8339066382023
 30
0.0
 40
160.0
  1
B
 72
     4
 11
11560.92677518752
 21
4219.8339066382032
 31
0.0
  0
TEXT
  5
4223
  8
0-5
  6
CONTINUOUS
 62
     7
 10
14075.092452854189
 20
4139.8339066382023
 30
0.0
 40
160.0
  1
A
 72
     4
 11
14128.42578618753
 21
4219.8339066382032
 31
0.0
  0
TEXT
  5
4224
  8
2-0
  6
CONTINUOUS
 62
     7
 10
10092.842126999991
 20
3479.9210370000019
 30
0.0
 40
160.0
  1
側 面 立 面 図
 72
     4
 11
10738.17546033333
 21
3559.9210370000019
 31
0.0
  0
TEXT
  5
4225
  8
2-0
  6
CONTINUOUS
 62
     7
 10
12089.66764547094
 20
3507.116406000001
 30
0.0
 40
160.0
  1
1
 72
     4
 11
12116.334312137609
 21
3587.1164060000019
 31
0.0
  0
TEXT
  5
4226
  8
2-0
  6
CONTINUOUS
 62
     7
 10
12332.75636272165
 20
3427.1178740000009
 30
0.0
 40
160.0
  1
80
 72
     4
 11
12452.75636272165
 21
3507.1178740000009
 31
0.0
  0
TEXT
  5
4227
  8
2-0
  6
CONTINUOUS
 62
     7
 10
11590.66961147095
 20
3479.9210370000019
 30
0.0
 40
160.0
  1
(S=  /   )
 72
     4
 11
12150.66961147095
 21
3559.9210370000019
 31
0.0
  0
LINE
  5
4228
  8
0-1
  6
CONTINUOUS
 62
     3
 10
9256.2886660000131
 20
6417.088643000001
 30
0.0
 11
9256.2886660000131
 21
8278.1340270000055
 31
0.0
  0
LINE
  5
4229
  8
0-1
  6
CONTINUOUS
 62
     3
 10
9241.2878750000127
 20
6417.088643000001
 30
0.0
 11
9241.2878750000127
 21
8278.1340270000055
 31
0.0
  0
LINE
  5
422A
  8
0-1
  6
CONTINUOUS
 62
     3
 10
13882.29096299999
 20
6417.088643000001
 30
0.0
 11
13882.29096299999
 21
8278.1340270000055
 31
0.0
  0
LINE
  5
422B
  8
0-1
  6
CONTINUOUS
 62
     3
 10
13867.28918199999
 20
6417.088643000001
 30
0.0
 11
13867.28918199999
 21
8278.1340270000055
 31
0.0
  0
LINE
  5
422C
  8
0-5
  6
CONTINUOUS
 62
     4
 10
14264.29067300001
 20
6367.0884780000006
 30
0.0
 11
15981.75062100001
 21
6367.0884780000006
 31
0.0
  0
LINE
  5
422D
  8
0-5
  6
CONTINUOUS
 62
     4
 10
16009.37678200001
 20
6574.9344650000003
 30
0.0
 11
15769.37500099998
 21
6574.9344650000003
 31
0.0
  0
LINE
  5
422E
  8
0-5
  6
CONTINUOUS
 62
     4
 10
15889.37440700001
 20
6367.0884780000006
 30
0.0
 11
16009.37678200001
 21
6574.9344650000003
 31
0.0
  0
LINE
  5
422F
  8
0-5
  6
CONTINUOUS
 62
     4
 10
15769.37500099998
 20
6574.9344650000003
 30
0.0
 11
15889.37440700001
 21
6367.0884780000006
 31
0.0
  0
TEXT
  5
4230
  8
0-0
  6
CONTINUOUS
 62
     7
 10
15430.283467999991
 20
6654.9347289999978
 30
0.0
 40
160.0
  1
布基礎天端
 72
     4
 11
15888.95013466666
 21
6734.9347289999987
 31
0.0
  0
LINE
  5
4231
  8
0-5
  6
CONTINUOUS
 62
     4
 10
16724.674830999971
 20
6474.9351249999991
 30
0.0
 11
16844.67324799997
 21
6267.088643000001
 31
0.0
  0
LINE
  5
4232
  8
0-5
  6
CONTINUOUS
 62
     4
 10
16844.67324799997
 20
6267.088643000001
 30
0.0
 11
16964.675622999981
 21
6474.9351249999991
 31
0.0
  0
LINE
  5
4233
  8
0-5
  6
CONTINUOUS
 62
     4
 10
16964.675622999981
 20
6474.9351249999991
 30
0.0
 11
16724.674830999971
 21
6474.9351249999991
 31
0.0
  0
TEXT
  5
4234
  8
0-0
  6
CONTINUOUS
 62
     7
 10
16724.674830999971
 20
6554.9348940000036
 30
0.0
 40
160.0
  1
G.L
 72
     4
 11
16884.674830999971
 21
6634.9348940000036
 31
0.0
  0
LINE
  5
423F
  8
0-1
  6
CONTINUOUS
 62
     3
 10
24832.546530999989
 20
6367.0884779999951
 30
0.0
 11
24732.547189999968
 21
6367.0884779999951
 31
0.0
  0
LINE
  5
4240
  8
0-1
  6
CONTINUOUS
 62
     3
 10
24732.547189999968
 20
6367.0884779999951
 30
0.0
 11
24732.547189999968
 21
6267.088643000001
 31
0.0
  0
LINE
  5
4241
  8
0-1
  6
CONTINUOUS
 62
     3
 10
24832.546530999989
 20
6267.088643000001
 30
0.0
 11
24832.546530999989
 21
6367.0884779999951
 31
0.0
  0
LINE
  5
4242
  8
0-1
  6
CONTINUOUS
 62
     3
 10
24805.04705799996
 20
8715.5888270000032
 30
0.0
 11
24805.04705799996
 21
6367.0884779999951
 31
0.0
  0
LINE
  5
4243
  8
0-1
  6
CONTINUOUS
 62
     3
 10
24825.04613499996
 20
8585.5879039999982
 30
0.0
 11
24825.04613499996
 21
6367.0884779999951
 31
0.0
  0
LINE
  5
4244
  8
0-1
  6
CONTINUOUS
 62
     3
 10
24695.047189999968
 20
8275.0885369999942
 30
0.0
 11
24695.047189999968
 21
6267.088643000001
 31
0.0
  0
LINE
  5
4245
  8
0-1
  6
CONTINUOUS
 62
     3
 10
24740.047585999971
 20
8585.5879039999982
 30
0.0
 11
24740.047585999971
 21
6367.0884779999951
 31
0.0
  0
LINE
  5
424E
  8
0-1
  6
CONTINUOUS
 62
     3
 10
22257.544154999989
 20
8585.5879039999982
 30
0.0
 11
22257.544154999989
 21
6267.088643000001
 31
0.0
  0
LINE
  5
424F
  8
0-1
  6
CONTINUOUS
 62
     3
 10
22302.54455100001
 20
8275.0885369999942
 30
0.0
 11
22302.54455100001
 21
6267.088643000001
 31
0.0
  0
LINE
  5
4252
  8
0-1
  6
CONTINUOUS
 62
     3
 10
22302.54455100001
 20
8206.5482009999978
 30
0.0
 11
24695.047189999968
 21
8206.5482009999978
 31
0.0
  0
LINE
  5
4253
  8
0-1
  6
CONTINUOUS
 62
     3
 10
22302.54455100001
 20
6852.0893359999973
 30
0.0
 11
24695.047189999968
 21
6852.0893359999973
 31
0.0
  0
LINE
  5
4254
  8
0-1
  6
CONTINUOUS
 62
     3
 10
22302.54455100001
 20
6917.0883130000002
 30
0.0
 11
24695.047189999968
 21
6917.0883130000002
 31
0.0
  0
LINE
  5
4255
  8
0-1
  6
CONTINUOUS
 62
     3
 10
22302.54455100001
 20
6982.0887749999983
 30
0.0
 11
24695.047189999968
 21
6982.0887749999983
 31
0.0
  0
LINE
  5
4256
  8
0-1
  6
CONTINUOUS
 62
     3
 10
22302.54455100001
 20
7047.0887419999972
 30
0.0
 11
24695.047189999968
 21
7047.0887419999972
 31
0.0
  0
LINE
  5
4257
  8
0-1
  6
CONTINUOUS
 62
     3
 10
22302.54455100001
 20
7112.0887089999969
 30
0.0
 11
24695.047189999968
 21
7112.0887089999969
 31
0.0
  0
LINE
  5
4258
  8
0-1
  6
CONTINUOUS
 62
     3
 10
22302.54455100001
 20
7177.0886759999976
 30
0.0
 11
24695.047189999968
 21
7177.0886759999976
 31
0.0
  0
LINE
  5
4259
  8
0-1
  6
CONTINUOUS
 62
     3
 10
22302.54455100001
 20
7242.089138000003
 30
0.0
 11
24695.047189999968
 21
7242.089138000003
 31
0.0
  0
LINE
  5
425A
  8
0-1
  6
CONTINUOUS
 62
     3
 10
22302.54455100001
 20
7307.0881149999977
 30
0.0
 11
24695.047189999968
 21
7307.0881149999977
 31
0.0
  0
LINE
  5
425B
  8
0-1
  6
CONTINUOUS
 62
     3
 10
22302.54455100001
 20
7372.0885769999977
 30
0.0
 11
24695.047189999968
 21
7372.0885769999977
 31
0.0
  0
LINE
  5
425C
  8
0-1
  6
CONTINUOUS
 62
     3
 10
22302.54455100001
 20
7437.0885439999984
 30
0.0
 11
24695.047189999968
 21
7437.0885439999984
 31
0.0
  0
LINE
  5
425D
  8
0-1
  6
CONTINUOUS
 62
     3
 10
22302.54455100001
 20
7502.0890059999974
 30
0.0
 11
24695.047189999968
 21
7502.0890059999974
 31
0.0
  0
LINE
  5
425E
  8
0-1
  6
CONTINUOUS
 62
     3
 10
22302.54455100001
 20
7567.0879829999967
 30
0.0
 11
24695.047189999968
 21
7567.0879829999967
 31
0.0
  0
LINE
  5
425F
  8
0-1
  6
CONTINUOUS
 62
     3
 10
22302.54455100001
 20
7632.0884449999976
 30
0.0
 11
24695.047189999968
 21
7632.0884449999976
 31
0.0
  0
LINE
  5
4260
  8
0-1
  6
CONTINUOUS
 62
     3
 10
22302.54455100001
 20
7697.0884119999992
 30
0.0
 11
24695.047189999968
 21
7697.0884119999992
 31
0.0
  0
LINE
  5
4261
  8
0-1
  6
CONTINUOUS
 62
     3
 10
22302.54455100001
 20
7762.0883789999989
 30
0.0
 11
24695.047189999968
 21
7762.0883789999989
 31
0.0
  0
LINE
  5
4262
  8
0-1
  6
CONTINUOUS
 62
     3
 10
22302.54455100001
 20
7827.0888410000007
 30
0.0
 11
24695.047189999968
 21
7827.0888410000007
 31
0.0
  0
LINE
  5
4263
  8
0-1
  6
CONTINUOUS
 62
     3
 10
22302.54455100001
 20
7892.0888079999977
 30
0.0
 11
24695.047189999968
 21
7892.0888079999977
 31
0.0
  0
LINE
  5
4264
  8
0-1
  6
CONTINUOUS
 62
     3
 10
22302.54455100001
 20
7957.0892699999968
 30
0.0
 11
24695.047189999968
 21
7957.0892699999968
 31
0.0
  0
LINE
  5
4265
  8
0-1
  6
CONTINUOUS
 62
     3
 10
22302.54455100001
 20
8022.0882469999933
 30
0.0
 11
24695.047189999968
 21
8022.0882469999933
 31
0.0
  0
LINE
  5
4266
  8
0-1
  6
CONTINUOUS
 62
     3
 10
22302.54455100001
 20
8087.0887089999969
 30
0.0
 11
24695.047189999968
 21
8087.0887089999969
 31
0.0
  0
LINE
  5
4267
  8
0-1
  6
CONTINUOUS
 62
     3
 10
22302.54455100001
 20
8152.0886759999976
 30
0.0
 11
24695.047189999968
 21
8152.0886759999976
 31
0.0
  0
LINE
  5
4268
  8
0-1
  6
CONTINUOUS
 62
     3
 10
22302.54455100001
 20
6332.0881149999968
 30
0.0
 11
24695.047189999968
 21
6332.0881149999968
 31
0.0
  0
LINE
  5
4269
  8
0-1
  6
CONTINUOUS
 62
     3
 10
22302.54455100001
 20
6397.0890719999979
 30
0.0
 11
24695.047189999968
 21
6397.0890719999979
 31
0.0
  0
LINE
  5
426A
  8
0-1
  6
CONTINUOUS
 62
     3
 10
22302.54455100001
 20
6462.088048999999
 30
0.0
 11
24695.047189999968
 21
6462.088048999999
 31
0.0
  0
LINE
  5
426B
  8
0-1
  6
CONTINUOUS
 62
     3
 10
22302.54455100001
 20
6527.0890059999974
 30
0.0
 11
24695.047189999968
 21
6527.0890059999974
 31
0.0
  0
LINE
  5
426C
  8
0-1
  6
CONTINUOUS
 62
     3
 10
22302.54455100001
 20
6592.0884779999988
 30
0.0
 11
24695.047189999968
 21
6592.0884779999988
 31
0.0
  0
LINE
  5
426D
  8
0-1
  6
CONTINUOUS
 62
     3
 10
22302.54455100001
 20
6657.0884450000012
 30
0.0
 11
24695.047189999968
 21
6657.0884450000012
 31
0.0
  0
LINE
  5
426E
  8
0-1
  6
CONTINUOUS
 62
     3
 10
22302.54455100001
 20
6722.0884119999992
 30
0.0
 11
24695.047189999968
 21
6722.0884119999992
 31
0.0
  0
LINE
  5
426F
  8
0-1
  6
CONTINUOUS
 62
     3
 10
22302.54455100001
 20
6787.0878839999987
 30
0.0
 11
24695.047189999968
 21
6787.0878839999987
 31
0.0
  0
LINE
  5
4271
  8
0-1
  6
CONTINUOUS
 62
     3
 10
22257.544154999989
 20
8275.0885369999942
 30
0.0
 11
24740.047585999971
 21
8275.0885369999942
 31
0.0
  0
LINE
  5
4272
  8
0-1
  6
CONTINUOUS
 62
     3
 10
19597.545211999979
 20
6267.088643000001
 30
0.0
 11
24832.546530999989
 21
6267.088643000001
 31
0.0
  0
LINE
  5
427C
  8
0-1
  6
CONTINUOUS
 62
     3
 10
22172.545606999971
 20
8585.5879039999982
 30
0.0
 11
22172.545606999971
 21
6267.088643000001
 31
0.0
  0
LINE
  5
427D
  8
0-1
  6
CONTINUOUS
 62
     3
 10
22127.547190999961
 20
8275.0885369999942
 30
0.0
 11
22127.547190999961
 21
6267.088643000001
 31
0.0
  0
LINE
  5
4288
  8
0-1
  6
CONTINUOUS
 62
     3
 10
19697.546530999982
 20
6367.0884779999951
 30
0.0
 11
19697.546530999982
 21
6267.088643000001
 31
0.0
  0
LINE
  5
4289
  8
0-1
  6
CONTINUOUS
 62
     3
 10
19597.545211999979
 20
6267.088643000001
 30
0.0
 11
19597.545211999979
 21
6367.0884779999951
 31
0.0
  0
LINE
  5
428A
  8
0-1
  6
CONTINUOUS
 62
     3
 10
19597.545211999979
 20
6367.0884779999951
 30
0.0
 11
19697.546530999982
 21
6367.0884779999951
 31
0.0
  0
LINE
  5
428B
  8
0-1
  6
CONTINUOUS
 62
     3
 10
19735.046530999982
 20
8275.0885369999942
 30
0.0
 11
19735.046530999982
 21
6267.088643000001
 31
0.0
  0
LINE
  5
428C
  8
0-1
  6
CONTINUOUS
 62
     3
 10
19690.044155999982
 20
8585.5879039999982
 30
0.0
 11
19690.044155999982
 21
6367.0884779999951
 31
0.0
  0
LINE
  5
428D
  8
0-1
  6
CONTINUOUS
 62
     3
 10
19625.046662999961
 20
8715.5888270000032
 30
0.0
 11
19625.046662999961
 21
6367.0884779999951
 31
0.0
  0
LINE
  5
428E
  8
0-1
  6
CONTINUOUS
 62
     3
 10
19605.043627999981
 20
8585.5879039999982
 30
0.0
 11
19605.043627999981
 21
6367.0884779999951
 31
0.0
  0
LINE
  5
428F
  8
0-1
  6
CONTINUOUS
 62
     3
 10
19690.044155999982
 20
8275.0885369999942
 30
0.0
 11
22172.545606999971
 21
8275.0885369999942
 31
0.0
  0
LINE
  5
4291
  8
0-1
  6
CONTINUOUS
 62
     3
 10
19735.046530999982
 20
6787.0878839999987
 30
0.0
 11
22127.547190999961
 21
6787.0878839999987
 31
0.0
  0
LINE
  5
4292
  8
0-1
  6
CONTINUOUS
 62
     3
 10
19735.046530999982
 20
6722.0884119999992
 30
0.0
 11
22127.547190999961
 21
6722.0884119999992
 31
0.0
  0
LINE
  5
4293
  8
0-1
  6
CONTINUOUS
 62
     3
 10
19735.046530999982
 20
6657.0884450000012
 30
0.0
 11
22127.547190999961
 21
6657.0884450000012
 31
0.0
  0
LINE
  5
4294
  8
0-1
  6
CONTINUOUS
 62
     3
 10
19735.046530999982
 20
6592.0884779999988
 30
0.0
 11
22127.547190999961
 21
6592.0884779999988
 31
0.0
  0
LINE
  5
4295
  8
0-1
  6
CONTINUOUS
 62
     3
 10
19735.046530999982
 20
6527.0890059999974
 30
0.0
 11
22127.547190999961
 21
6527.0890059999974
 31
0.0
  0
LINE
  5
4296
  8
0-1
  6
CONTINUOUS
 62
     3
 10
19735.046530999982
 20
6462.088048999999
 30
0.0
 11
22127.547190999961
 21
6462.088048999999
 31
0.0
  0
LINE
  5
4297
  8
0-1
  6
CONTINUOUS
 62
     3
 10
19735.046530999982
 20
6397.0890719999979
 30
0.0
 11
22127.547190999961
 21
6397.0890719999979
 31
0.0
  0
LINE
  5
4298
  8
0-1
  6
CONTINUOUS
 62
     3
 10
19735.046530999982
 20
6332.0881149999968
 30
0.0
 11
22127.547190999961
 21
6332.0881149999968
 31
0.0
  0
LINE
  5
4299
  8
0-1
  6
CONTINUOUS
 62
     3
 10
19735.046530999982
 20
8152.0886759999976
 30
0.0
 11
22127.547190999961
 21
8152.0886759999976
 31
0.0
  0
LINE
  5
429A
  8
0-1
  6
CONTINUOUS
 62
     3
 10
19735.046530999982
 20
8087.0887089999969
 30
0.0
 11
22127.547190999961
 21
8087.0887089999969
 31
0.0
  0
LINE
  5
429B
  8
0-1
  6
CONTINUOUS
 62
     3
 10
19735.046530999982
 20
8022.0882469999933
 30
0.0
 11
22127.547190999961
 21
8022.0882469999933
 31
0.0
  0
LINE
  5
429C
  8
0-1
  6
CONTINUOUS
 62
     3
 10
19735.046530999982
 20
7957.0892699999968
 30
0.0
 11
22127.547190999961
 21
7957.0892699999968
 31
0.0
  0
LINE
  5
429D
  8
0-1
  6
CONTINUOUS
 62
     3
 10
19735.046530999982
 20
7892.0888079999977
 30
0.0
 11
22127.547190999961
 21
7892.0888079999977
 31
0.0
  0
LINE
  5
429E
  8
0-1
  6
CONTINUOUS
 62
     3
 10
19735.046530999982
 20
7827.0888410000007
 30
0.0
 11
22127.547190999961
 21
7827.0888410000007
 31
0.0
  0
LINE
  5
429F
  8
0-1
  6
CONTINUOUS
 62
     3
 10
19735.046530999982
 20
7762.0883789999989
 30
0.0
 11
22127.547190999961
 21
7762.0883789999989
 31
0.0
  0
LINE
  5
42A0
  8
0-1
  6
CONTINUOUS
 62
     3
 10
19735.046530999982
 20
7697.0884119999992
 30
0.0
 11
22127.547190999961
 21
7697.0884119999992
 31
0.0
  0
LINE
  5
42A1
  8
0-1
  6
CONTINUOUS
 62
     3
 10
19735.046530999982
 20
7632.0884449999976
 30
0.0
 11
22127.547190999961
 21
7632.0884449999976
 31
0.0
  0
LINE
  5
42A2
  8
0-1
  6
CONTINUOUS
 62
     3
 10
19735.046530999982
 20
7567.0879829999967
 30
0.0
 11
22127.547190999961
 21
7567.0879829999967
 31
0.0
  0
LINE
  5
42A3
  8
0-1
  6
CONTINUOUS
 62
     3
 10
19735.046530999982
 20
7502.0890059999974
 30
0.0
 11
22127.547190999961
 21
7502.0890059999974
 31
0.0
  0
LINE
  5
42A4
  8
0-1
  6
CONTINUOUS
 62
     3
 10
19735.046530999982
 20
7437.0885439999984
 30
0.0
 11
22127.547190999961
 21
7437.0885439999984
 31
0.0
  0
LINE
  5
42A5
  8
0-1
  6
CONTINUOUS
 62
     3
 10
19735.046530999982
 20
7372.0885769999977
 30
0.0
 11
22127.547190999961
 21
7372.0885769999977
 31
0.0
  0
LINE
  5
42A6
  8
0-1
  6
CONTINUOUS
 62
     3
 10
19735.046530999982
 20
7307.0881149999977
 30
0.0
 11
22127.547190999961
 21
7307.0881149999977
 31
0.0
  0
LINE
  5
42A7
  8
0-1
  6
CONTINUOUS
 62
     3
 10
19735.046530999982
 20
7242.089138000003
 30
0.0
 11
22127.547190999961
 21
7242.089138000003
 31
0.0
  0
LINE
  5
42A8
  8
0-1
  6
CONTINUOUS
 62
     3
 10
19735.046530999982
 20
7177.0886759999976
 30
0.0
 11
22127.547190999961
 21
7177.0886759999976
 31
0.0
  0
LINE
  5
42A9
  8
0-1
  6
CONTINUOUS
 62
     3
 10
19735.046530999982
 20
7112.0887089999969
 30
0.0
 11
22127.547190999961
 21
7112.0887089999969
 31
0.0
  0
LINE
  5
42AA
  8
0-1
  6
CONTINUOUS
 62
     3
 10
19735.046530999982
 20
7047.0887419999972
 30
0.0
 11
22127.547190999961
 21
7047.0887419999972
 31
0.0
  0
LINE
  5
42AB
  8
0-1
  6
CONTINUOUS
 62
     3
 10
19735.046530999982
 20
6982.0887749999983
 30
0.0
 11
22127.547190999961
 21
6982.0887749999983
 31
0.0
  0
LINE
  5
42AC
  8
0-1
  6
CONTINUOUS
 62
     3
 10
19735.046530999982
 20
6917.0883130000002
 30
0.0
 11
22127.547190999961
 21
6917.0883130000002
 31
0.0
  0
LINE
  5
42AD
  8
0-1
  6
CONTINUOUS
 62
     3
 10
19735.046530999982
 20
6852.0893359999973
 30
0.0
 11
22127.547190999961
 21
6852.0893359999973
 31
0.0
  0
LINE
  5
42AE
  8
0-1
  6
CONTINUOUS
 62
     3
 10
19735.046530999982
 20
8206.5482009999978
 30
0.0
 11
22127.547190999961
 21
8206.5482009999978
 31
0.0
  0
LINE
  5
42B4
  8
0-2
  6
CONTINUOUS
 62
     4
 10
23862.48787099999
 20
7014.3143469999986
 30
0.0
 11
23762.488530999992
 21
7014.3143469999986
 31
0.0
  0
LINE
  5
42B5
  8
0-2
  6
CONTINUOUS
 62
     4
 10
23135.101890999991
 20
7014.3143469999986
 30
0.0
 11
23235.101231999961
 21
7014.3143469999986
 31
0.0
  0
LINE
  5
42B6
  8
0-2
  6
CONTINUOUS
 62
     4
 10
21294.98688149999
 20
7014.3143469999986
 30
0.0
 11
21194.987541499981
 21
7014.3143469999986
 31
0.0
  0
LINE
  5
42B7
  8
0-2
  6
CONTINUOUS
 62
     4
 10
20567.602880499991
 20
7014.3143469999986
 30
0.0
 11
20667.600241499971
 21
7014.3143469999986
 31
0.0
  0
LINE
  5
42B8
  8
0-5
  6
CONTINUOUS
 62
     4
 10
22215.04587099998
 20
4587.0885439999929
 30
0.0
 11
22215.04587099998
 21
4427.0885109999999
 31
0.0
  0
LINE
  5
42B9
  8
0-5
  6
CONTINUOUS
 62
     4
 10
19647.54587099998
 20
4587.0885439999929
 30
0.0
 11
19647.54587099998
 21
4427.0885109999999
 31
0.0
  0
LINE
  5
42BA
  8
2-0
  6
CENTER2
 62
     6
 10
24782.54587099998
 20
6004.4362199999978
 30
0.0
 11
24782.54587099998
 21
7041.5782569999992
 31
0.0
  0
LINE
  5
42BB
  8
2-0
  6
CENTER2
 62
     6
 10
22215.04587099998
 20
6004.4362199999978
 30
0.0
 11
22215.04587099998
 21
7041.5782569999992
 31
0.0
  0
LINE
  5
42BC
  8
2-0
  6
CENTER2
 62
     6
 10
19647.54587099998
 20
6004.4362199999978
 30
0.0
 11
19647.54587099998
 21
7041.5782569999992
 31
0.0
  0
CIRCLE
  5
42CD
  8
0-5
  6
CONTINUOUS
 62
     4
 10
22215.04587099998
 20
4227.0888409999989
 30
0.0
 40
199.9999949999999
  0
CIRCLE
  5
42CE
  8
0-5
  6
CONTINUOUS
 62
     4
 10
19647.54587099998
 20
4227.0888409999989
 30
0.0
 40
199.9999949999999
  0
TEXT
  5
42CF
  8
0-5
  6
CONTINUOUS
 62
     7
 10
19029.369931999991
 20
6996.4488897419951
 30
0.0
 40
160.0
  1
(2131.5)
 50
90.0
 72
     4
 11
18949.369931999991
 21
7449.7822230753281
 31
0.0
  0
TEXT
  5
42D0
  8
0-5
  6
CONTINUOUS
 62
     7
 10
22168.11742399996
 20
4140.5588870000001
 30
0.0
 40
160.0
  1
2
 72
     4
 11
22221.450757333299
 21
4220.5588869999992
 31
0.0
  0
TEXT
  5
42D1
  8
0-5
  6
CONTINUOUS
 62
     7
 10
19600.613464999969
 20
4140.5588870000001
 30
0.0
 40
160.0
  1
1
 72
     4
 11
19627.280131666641
 21
4220.5588869999992
 31
0.0
  0
CIRCLE
  5
42D2
  8
0-4
  6
CONTINUOUS
 62
     4
 10
20931.295870999991
 20
6753.144583999996
 30
0.0
 40
18.487504999999981
  0
CIRCLE
  5
42D3
  8
0-4
  6
CONTINUOUS
 62
     4
 10
23498.79587099998
 20
6753.144583999996
 30
0.0
 40
18.487504999999981
  0
LINE
  5
42D4
  8
SUNPOU
  6
CONTINUOUS
 10
19365.04587099998
 20
5067.088643000001
 30
0.0
 11
19007.090864278871
 21
5067.088643000001
 31
0.0
  0
LINE
  5
42D5
  8
SUNPOU
  6
CONTINUOUS
 10
25065.049829999989
 20
5067.088643000001
 30
0.0
 11
25423.004836721091
 21
5067.088643000001
 31
0.0
  0
LINE
  5
42D6
  8
0-5
  6
CONTINUOUS
 62
     4
 10
24825.045870999969
 20
4587.0885439999929
 30
0.0
 11
24825.045870999969
 21
4427.0885109999999
 31
0.0
  0
CIRCLE
  5
42D7
  8
0-5
  6
CONTINUOUS
 62
     4
 10
24825.045870999969
 20
4227.0888409999989
 30
0.0
 40
199.9999949999999
  0
TEXT
  5
42D8
  8
0-5
  6
CONTINUOUS
 62
     7
 10
24778.117423999971
 20
4140.5588870000001
 30
0.0
 40
160.0
  1
3
 72
     4
 11
24831.45075733331
 21
4220.5588869999992
 31
0.0
  0
TEXT
  5
42D9
  8
2-0
  6
CONTINUOUS
 62
     7
 10
20897.01212699998
 20
3389.967011000002
 30
0.0
 40
160.0
  1
正 面 立 面 図
 50
0.000139
 72
     4
 11
21542.345266250799
 21
3469.968576583376
 31
0.0
  0
TEXT
  5
42DA
  8
2-0
  6
CONTINUOUS
 62
     7
 10
22893.83745138843
 20
3417.1639455833761
 30
0.0
 40
160.0
  1
1
 72
     4
 11
22920.504118055102
 21
3497.163945583377
 31
0.0
  0
TEXT
  5
42DB
  8
2-0
  6
CONTINUOUS
 62
     7
 10
23136.926168639118
 20
3337.165413583376
 30
0.0
 40
160.0
  1
80
 72
     4
 11
23256.926168639118
 21
3417.165413583376
 31
0.0
  0
TEXT
  5
42DC
  8
2-0
  6
CONTINUOUS
 62
     7
 10
22394.839417388412
 20
3389.968576583376
 30
0.0
 40
160.0
  1
(S=  /   )
 72
     4
 11
22954.839417388412
 21
3469.968576583376
 31
0.0
  0
LINE
  5
42DD
  8
0-5
  6
CONTINUOUS
 62
     4
 10
16724.676810999961
 20
6474.9341350000013
 30
0.0
 11
16844.67324799997
 21
6267.088643000001
 31
0.0
  0
LINE
  5
42DE
  8
0-5
  6
CONTINUOUS
 62
     4
 10
16844.67324799997
 20
6267.088643000001
 30
0.0
 11
16964.673643999969
 21
6474.9341350000013
 31
0.0
  0
LINE
  5
42DF
  8
0-5
  6
CONTINUOUS
 62
     4
 10
16964.673643999969
 20
6474.9341350000013
 30
0.0
 11
16724.676810999961
 21
6474.9341350000013
 31
0.0
  0
TEXT
  5
42E0
  8
0-5
  6
CONTINUOUS
 62
     7
 10
16724.676810999968
 20
6554.9348929999987
 30
0.0
 40
160.0
  1
G.L
 72
     4
 11
16884.676810999968
 21
6634.9348929999987
 31
0.0
  0
TEXT
  5
42E1
  8
2-0
  6
CONTINUOUS
 62
     7
 10
21134.119773999999
 20
12256.04839299999
 30
0.0
 40
160.0
  1
平　面　図
 50
359.99978700000008
 72
     4
 11
21587.45338490736
 21
12330.713374376221
 31
0.0
  0
TEXT
  5
42E2
  8
2-0
  6
CONTINUOUS
 62
     7
 10
22938.94557004498
 20
12277.908743376231
 30
0.0
 40
160.0
  1
1
 72
     4
 11
22965.612236711651
 21
12357.908743376231
 31
0.0
  0
TEXT
  5
42E3
  8
2-0
  6
CONTINUOUS
 62
     7
 10
23182.034287295672
 20
12197.91021137622
 30
0.0
 40
160.0
  1
80
 72
     4
 11
23302.034287295672
 21
12277.91021137622
 31
0.0
  0
TEXT
  5
42E4
  8
2-0
  6
CONTINUOUS
 62
     7
 10
22439.94753604498
 20
12250.713374376221
 30
0.0
 40
160.0
  1
(S=  /   )
 72
     4
 11
22999.94753604498
 21
12330.713374376221
 31
0.0
  0
LINE
  5
42E5
  8
2-0
  6
CONTINUOUS
 62
     6
 10
23099.386954999969
 20
13868.038666
 30
0.0
 11
24099.380356999951
 21
13868.038666
 31
0.0
  0
LINE
  5
42E6
  8
2-0
  6
CONTINUOUS
 62
     6
 10
24567.320733999972
 20
14338.45938
 30
0.0
 11
24099.380356999951
 21
13868.038666
 31
0.0
  0
LINE
  5
42E7
  8
2-0
  6
CONTINUOUS
 62
     6
 10
23116.098050999961
 20
18196.658730999989
 30
0.0
 11
24134.073398999972
 21
18196.658730999989
 31
0.0
  0
LINE
  5
42E8
  8
2-0
  6
CONTINUOUS
 62
     6
 10
24590.498916999961
 20
18421.373680000001
 30
0.0
 11
24134.073398999972
 21
18196.658730999989
 31
0.0
  0
LINE
  5
42E9
  8
2-0
  6
CONTINUOUS
 62
     6
 10
24528.680530999969
 20
17179.567027000001
 30
0.0
 11
24223.985112999992
 21
17283.220558000019
 31
0.0
  0
LINE
  5
42EA
  8
2-0
  6
CONTINUOUS
 62
     6
 10
24683.702569999961
 20
16689.944983000001
 30
0.0
 11
24223.985112999992
 21
16446.031672000001
 31
0.0
  0
LINE
  5
42EB
  8
2-0
  6
CONTINUOUS
 62
     6
 10
23303.982077999961
 20
16446.031672000001
 30
0.0
 11
24223.985112999992
 21
16446.031672000001
 31
0.0
  0
LINE
  5
42EC
  8
2-0
  6
CONTINUOUS
 62
     6
 10
23023.991050999961
 20
17283.220558000019
 30
0.0
 11
24223.985112999992
 21
17283.220558000019
 31
0.0
  0
LINE
  5
42ED
  8
2-0
  6
CONTINUOUS
 62
     6
 10
24599.879854999981
 20
14660.14302599998
 30
0.0
 11
24223.985112999992
 21
14841.086861
 31
0.0
  0
LINE
  5
42EE
  8
2-0
  6
CONTINUOUS
 62
     6
 10
23116.098050999961
 20
15278.89627300002
 30
0.0
 11
24134.073398999972
 21
15278.89627300002
 31
0.0
  0
LINE
  5
42EF
  8
2-0
  6
CONTINUOUS
 62
     6
 10
23703.983396999989
 20
14841.086861
 30
0.0
 11
24223.985112999992
 21
14841.086861
 31
0.0
  0
LINE
  5
42F0
  8
2-0
  6
CONTINUOUS
 62
     6
 10
24590.498916999961
 20
15503.60924300001
 30
0.0
 11
24134.073398999972
 21
15278.89627300002
 31
0.0
  0
LINE
  5
42F1
  8
2-0
  6
CONTINUOUS
 62
     4
 10
22215.04587099998
 20
19765.540316000021
 30
0.0
 11
22215.04587099998
 21
20495.537281000012
 31
0.0
  0
LINE
  5
42F2
  8
2-0
  6
CONTINUOUS
 62
     3
 10
24795.04653099996
 20
19576.537862000001
 30
0.0
 11
24795.04653099996
 21
19570.5419
 31
0.0
  0
LINE
  5
42F3
  8
2-0
  6
CONTINUOUS
 62
     3
 10
24795.04653099996
 20
19570.5419
 30
0.0
 11
24825.044154999981
 21
19570.5419
 31
0.0
  0
LINE
  5
42F4
  8
2-0
  6
CONTINUOUS
 62
     3
 10
24825.044154999981
 20
19600.541504000001
 30
0.0
 11
24744.04225499996
 21
19600.541504000001
 31
0.0
  0
LINE
  5
42F5
  8
2-0
  6
CONTINUOUS
 62
     3
 10
24795.04653099996
 20
19560.244444
 30
0.0
 11
24825.044154999981
 21
19560.244444
 31
0.0
  0
LINE
  5
42F6
  8
2-0
  6
CONTINUOUS
 62
     3
 10
24795.04653099996
 20
19578.246186000011
 30
0.0
 11
24795.04653099996
 21
19560.244444
 31
0.0
  0
LINE
  5
42F7
  8
2-0
  6
CONTINUOUS
 62
     3
 10
24820.04389099999
 20
19578.246186000011
 30
0.0
 11
24795.04653099996
 21
19578.246186000011
 31
0.0
  0
LINE
  5
42F8
  8
2-0
  6
CONTINUOUS
 62
     3
 10
24820.04389099999
 20
19573.238004000021
 30
0.0
 11
24820.04389099999
 21
19578.246186000011
 31
0.0
  0
LINE
  5
42F9
  8
2-0
  6
CONTINUOUS
 62
     3
 10
24813.042333999991
 20
19573.238004000021
 30
0.0
 11
24820.04389099999
 21
19573.238004000021
 31
0.0
  0
LINE
  5
42FA
  8
2-0
  6
CONTINUOUS
 62
     3
 10
24712.746065999982
 20
19673.538230999999
 30
0.0
 11
24712.746065999982
 21
19680.543747000011
 31
0.0
  0
LINE
  5
42FB
  8
2-0
  6
CONTINUOUS
 62
     3
 10
24712.746065999982
 20
19680.543747000011
 30
0.0
 11
24717.746329999969
 21
19680.543747000011
 31
0.0
  0
LINE
  5
42FC
  8
2-0
  6
CONTINUOUS
 62
     3
 10
24717.746329999969
 20
19680.543747000011
 30
0.0
 11
24717.746329999969
 21
19655.534510000001
 31
0.0
  0
LINE
  5
42FD
  8
2-0
  6
CONTINUOUS
 62
     3
 10
24717.746329999969
 20
19655.534510000001
 30
0.0
 11
24699.744587999961
 21
19655.534510000001
 31
0.0
  0
LINE
  5
42FE
  8
2-0
  6
CONTINUOUS
 62
     3
 10
24699.744587999961
 20
19655.534510000001
 30
0.0
 11
24699.744587999961
 21
19685.538073000022
 31
0.0
  0
LINE
  5
42FF
  8
2-0
  6
CONTINUOUS
 62
     3
 10
24710.04204399998
 20
19685.538073000022
 30
0.0
 11
24825.044154999981
 21
19685.538073000022
 31
0.0
  0
LINE
  5
4300
  8
2-0
  6
CONTINUOUS
 62
     3
 10
24710.04204399998
 20
19655.534510000001
 30
0.0
 11
24710.04204399998
 21
19685.538073000022
 31
0.0
  0
LINE
  5
4301
  8
2-0
  6
CONTINUOUS
 62
     3
 10
24716.043943999972
 20
19655.534510000001
 30
0.0
 11
24710.04204399998
 21
19655.534510000001
 31
0.0
  0
LINE
  5
4302
  8
2-0
  6
CONTINUOUS
 62
     3
 10
24813.042333999991
 20
19219.941181499991
 30
0.0
 11
24820.04389099999
 21
19219.941181499991
 31
0.0
  0
LINE
  5
4303
  8
2-0
  6
CONTINUOUS
 62
     3
 10
24820.04389099999
 20
19219.941181499991
 30
0.0
 11
24820.04389099999
 21
19224.941445500001
 31
0.0
  0
LINE
  5
4304
  8
2-0
  6
CONTINUOUS
 62
     3
 10
24820.04389099999
 20
19224.941445500001
 30
0.0
 11
24795.04653099996
 21
19224.941445500001
 31
0.0
  0
LINE
  5
4305
  8
2-0
  6
CONTINUOUS
 62
     3
 10
24795.04653099996
 20
19224.941445500001
 30
0.0
 11
24795.04653099996
 21
19206.945641499991
 31
0.0
  0
LINE
  5
4306
  8
2-0
  6
CONTINUOUS
 62
     3
 10
24795.04653099996
 20
19206.945641499991
 30
0.0
 11
24825.044154999981
 21
19206.945641499991
 31
0.0
  0
LINE
  5
4307
  8
2-0
  6
CONTINUOUS
 62
     3
 10
24795.04653099996
 20
19223.037148499981
 30
0.0
 11
24795.04653099996
 21
19217.039207500002
 31
0.0
  0
LINE
  5
4308
  8
2-0
  6
CONTINUOUS
 62
     3
 10
24795.04653099996
 20
19217.039207500002
 30
0.0
 11
24825.044154999981
 21
19217.039207500002
 31
0.0
  0
LINE
  5
4309
  8
2-0
  6
CONTINUOUS
 62
     3
 10
24825.044154999981
 20
19217.039207500002
 30
0.0
 11
24825.044154999981
 21
19254.040368499991
 31
0.0
  0
LINE
  5
430A
  8
2-0
  6
CONTINUOUS
 62
     3
 10
24795.04653099996
 20
19254.040368499991
 30
0.0
 11
24825.044154999981
 21
19254.040368499991
 31
0.0
  0
LINE
  5
430B
  8
2-0
  6
CONTINUOUS
 62
     3
 10
24795.04653099996
 20
19248.036488499991
 30
0.0
 11
24795.04653099996
 21
19254.040368499991
 31
0.0
  0
LINE
  5
430C
  8
2-0
  6
CONTINUOUS
 62
     3
 10
24795.04653099996
 20
19264.135913499991
 30
0.0
 11
24825.044154999981
 21
19264.135913499991
 31
0.0
  0
LINE
  5
430D
  8
2-0
  6
CONTINUOUS
 62
     3
 10
24795.04653099996
 20
19246.134171500002
 30
0.0
 11
24795.04653099996
 21
19264.135913499991
 31
0.0
  0
LINE
  5
430E
  8
2-0
  6
CONTINUOUS
 62
     3
 10
24820.04389099999
 20
19246.134171500002
 30
0.0
 11
24795.04653099996
 21
19246.134171500002
 31
0.0
  0
LINE
  5
430F
  8
2-0
  6
CONTINUOUS
 62
     3
 10
24820.04389099999
 20
19251.1344355
 30
0.0
 11
24820.04389099999
 21
19246.134171500002
 31
0.0
  0
LINE
  5
4310
  8
2-0
  6
CONTINUOUS
 62
     3
 10
24813.042333999991
 20
19251.1344355
 30
0.0
 11
24820.04389099999
 21
19251.1344355
 31
0.0
  0
LINE
  5
4311
  8
2-0
  6
CONTINUOUS
 62
     3
 10
24813.042333999991
 20
18518.940191999998
 30
0.0
 11
24820.04389099999
 21
18518.940191999998
 31
0.0
  0
LINE
  5
4312
  8
2-0
  6
CONTINUOUS
 62
     3
 10
24820.04389099999
 20
18518.940191999998
 30
0.0
 11
24820.04389099999
 21
18523.946393999991
 31
0.0
  0
LINE
  5
4313
  8
2-0
  6
CONTINUOUS
 62
     3
 10
24820.04389099999
 20
18523.946393999991
 30
0.0
 11
24795.04653099996
 21
18523.946393999991
 31
0.0
  0
LINE
  5
4314
  8
2-0
  6
CONTINUOUS
 62
     3
 10
24795.04653099996
 20
18523.946393999991
 30
0.0
 11
24795.04653099996
 21
18505.944651999998
 31
0.0
  0
LINE
  5
4315
  8
2-0
  6
CONTINUOUS
 62
     3
 10
24795.04653099996
 20
18505.944651999998
 30
0.0
 11
24825.044154999981
 21
18505.944651999998
 31
0.0
  0
LINE
  5
4316
  8
2-0
  6
CONTINUOUS
 62
     3
 10
24795.04653099996
 20
18522.036158999981
 30
0.0
 11
24795.04653099996
 21
18516.040196999991
 31
0.0
  0
LINE
  5
4317
  8
2-0
  6
CONTINUOUS
 62
     3
 10
24795.04653099996
 20
18516.040196999991
 30
0.0
 11
24825.044154999981
 21
18516.040196999991
 31
0.0
  0
LINE
  5
4318
  8
2-0
  6
CONTINUOUS
 62
     3
 10
24825.044154999981
 20
18516.040196999991
 30
0.0
 11
24825.044154999981
 21
18553.039379000002
 31
0.0
  0
LINE
  5
4319
  8
2-0
  6
CONTINUOUS
 62
     3
 10
24795.04653099996
 20
18553.039379000002
 30
0.0
 11
24825.044154999981
 21
18553.039379000002
 31
0.0
  0
LINE
  5
431A
  8
2-0
  6
CONTINUOUS
 62
     3
 10
24795.04653099996
 20
18547.043416999979
 30
0.0
 11
24795.04653099996
 21
18553.039379000002
 31
0.0
  0
LINE
  5
431B
  8
2-0
  6
CONTINUOUS
 62
     3
 10
24795.04653099996
 20
18563.134924000002
 30
0.0
 11
24825.044154999981
 21
18563.134924000002
 31
0.0
  0
LINE
  5
431C
  8
2-0
  6
CONTINUOUS
 62
     3
 10
24795.04653099996
 20
18545.133182000001
 30
0.0
 11
24795.04653099996
 21
18563.134924000002
 31
0.0
  0
LINE
  5
431D
  8
2-0
  6
CONTINUOUS
 62
     3
 10
24820.04389099999
 20
18545.133182000001
 30
0.0
 11
24795.04653099996
 21
18545.133182000001
 31
0.0
  0
LINE
  5
431E
  8
2-0
  6
CONTINUOUS
 62
     3
 10
24820.04389099999
 20
18550.139383999991
 30
0.0
 11
24820.04389099999
 21
18545.133182000001
 31
0.0
  0
LINE
  5
431F
  8
2-0
  6
CONTINUOUS
 62
     3
 10
24813.042333999991
 20
18550.139383999991
 30
0.0
 11
24820.04389099999
 21
18550.139383999991
 31
0.0
  0
LINE
  5
4320
  8
2-0
  6
CONTINUOUS
 62
     3
 10
24813.042333999991
 20
17849.133446
 30
0.0
 11
24820.04389099999
 21
17849.133446
 31
0.0
  0
LINE
  5
4321
  8
2-0
  6
CONTINUOUS
 62
     3
 10
24820.04389099999
 20
17849.133446
 30
0.0
 11
24820.04389099999
 21
17844.145058999991
 31
0.0
  0
LINE
  5
4322
  8
2-0
  6
CONTINUOUS
 62
     3
 10
24820.04389099999
 20
17844.145058999991
 30
0.0
 11
24795.04653099996
 21
17844.145058999991
 31
0.0
  0
LINE
  5
4323
  8
2-0
  6
CONTINUOUS
 62
     3
 10
24795.04653099996
 20
17844.145058999991
 30
0.0
 11
24795.04653099996
 21
17862.140862000011
 31
0.0
  0
LINE
  5
4324
  8
2-0
  6
CONTINUOUS
 62
     3
 10
24795.04653099996
 20
17862.140862000011
 30
0.0
 11
24825.044154999981
 21
17862.140862000011
 31
0.0
  0
LINE
  5
4325
  8
2-0
  6
CONTINUOUS
 62
     3
 10
24795.04653099996
 20
17846.043417000012
 30
0.0
 11
24795.04653099996
 21
17852.039379000002
 31
0.0
  0
LINE
  5
4326
  8
2-0
  6
CONTINUOUS
 62
     3
 10
24795.04653099996
 20
17852.039379000002
 30
0.0
 11
24825.044154999981
 21
17852.039379000002
 31
0.0
  0
LINE
  5
4327
  8
2-0
  6
CONTINUOUS
 62
     3
 10
24825.044154999981
 20
17852.039379000002
 30
0.0
 11
24825.044154999981
 21
17815.040196999991
 31
0.0
  0
LINE
  5
4328
  8
2-0
  6
CONTINUOUS
 62
     3
 10
24795.04653099996
 20
17815.040196999991
 30
0.0
 11
24825.044154999981
 21
17815.040196999991
 31
0.0
  0
LINE
  5
4329
  8
2-0
  6
CONTINUOUS
 62
     3
 10
24795.04653099996
 20
17821.042098000002
 30
0.0
 11
24795.04653099996
 21
17815.040196999991
 31
0.0
  0
LINE
  5
432A
  8
2-0
  6
CONTINUOUS
 62
     3
 10
24795.04653099996
 20
17804.950591000012
 30
0.0
 11
24825.044154999981
 21
17804.950591000012
 31
0.0
  0
LINE
  5
432B
  8
2-0
  6
CONTINUOUS
 62
     3
 10
24795.04653099996
 20
17822.946393999991
 30
0.0
 11
24795.04653099996
 21
17804.950591000012
 31
0.0
  0
LINE
  5
432C
  8
2-0
  6
CONTINUOUS
 62
     3
 10
24820.04389099999
 20
17822.946393999991
 30
0.0
 11
24795.04653099996
 21
17822.946393999991
 31
0.0
  0
LINE
  5
432D
  8
2-0
  6
CONTINUOUS
 62
     3
 10
24820.04389099999
 20
17817.946131000012
 30
0.0
 11
24820.04389099999
 21
17822.946393999991
 31
0.0
  0
LINE
  5
432E
  8
2-0
  6
CONTINUOUS
 62
     3
 10
24813.042333999991
 20
17817.946131000012
 30
0.0
 11
24820.04389099999
 21
17817.946131000012
 31
0.0
  0
LINE
  5
432F
  8
2-0
  6
CONTINUOUS
 62
     3
 10
24822.15801699998
 20
17098.037016999999
 30
0.0
 11
24822.15801699998
 21
17118.038071999988
 31
0.0
  0
LINE
  5
4330
  8
2-0
  6
CONTINUOUS
 62
     3
 10
24822.15801699998
 20
17118.038071999988
 30
0.0
 11
24737.161447999981
 21
17118.038071999988
 31
0.0
  0
LINE
  5
4331
  8
2-0
  6
CONTINUOUS
 62
     3
 10
24813.042333999991
 20
17144.64478200001
 30
0.0
 11
24820.04389099999
 21
17144.64478200001
 31
0.0
  0
LINE
  5
4332
  8
2-0
  6
CONTINUOUS
 62
     3
 10
24820.04389099999
 20
17144.64478200001
 30
0.0
 11
24820.04389099999
 21
17139.65045600001
 31
0.0
  0
LINE
  5
4333
  8
2-0
  6
CONTINUOUS
 62
     3
 10
24820.04389099999
 20
17139.65045600001
 30
0.0
 11
24795.04653099996
 21
17139.65045600001
 31
0.0
  0
LINE
  5
4334
  8
2-0
  6
CONTINUOUS
 62
     3
 10
24795.04653099996
 20
17139.65045600001
 30
0.0
 11
24795.04653099996
 21
17157.646260000001
 31
0.0
  0
LINE
  5
4335
  8
2-0
  6
CONTINUOUS
 62
     3
 10
24795.04653099996
 20
17157.646260000001
 30
0.0
 11
24825.044154999981
 21
17157.646260000001
 31
0.0
  0
LINE
  5
4336
  8
2-0
  6
CONTINUOUS
 62
     3
 10
24795.04653099996
 20
17148.037676
 30
0.0
 11
24795.04653099996
 21
17142.035776000001
 31
0.0
  0
LINE
  5
4337
  8
2-0
  6
CONTINUOUS
 62
     3
 10
24825.044154999981
 20
17148.037676
 30
0.0
 11
24795.04653099996
 21
17148.037676
 31
0.0
  0
LINE
  5
4338
  8
2-0
  6
CONTINUOUS
 62
     3
 10
24825.044154999981
 20
17157.646260000001
 30
0.0
 11
24825.044154999981
 21
17804.950591000012
 31
0.0
  0
LINE
  5
4339
  8
2-0
  6
CONTINUOUS
 62
     3
 10
24825.044154999981
 20
17862.140862000011
 30
0.0
 11
24825.044154999981
 21
18505.944651999998
 31
0.0
  0
LINE
  5
433A
  8
2-0
  6
CONTINUOUS
 62
     3
 10
24825.044154999981
 20
17003.035961000009
 30
0.0
 11
24795.04653099996
 21
17003.035961000009
 31
0.0
  0
LINE
  5
433B
  8
2-0
  6
CONTINUOUS
 62
     3
 10
24795.04653099996
 20
17003.035961000009
 30
0.0
 11
24795.04653099996
 21
17009.037861000012
 31
0.0
  0
LINE
  5
433C
  8
2-0
  6
CONTINUOUS
 62
     3
 10
24737.161447999981
 20
17033.041504000012
 30
0.0
 11
24822.15801699998
 21
17033.041504000012
 31
0.0
  0
LINE
  5
433D
  8
2-0
  6
CONTINUOUS
 62
     3
 10
24822.15801699998
 20
17033.041504000012
 30
0.0
 11
24822.15801699998
 21
17053.03662100001
 31
0.0
  0
LINE
  5
433E
  8
2-0
  6
CONTINUOUS
 62
     3
 10
24795.04653099996
 20
16993.427378000011
 30
0.0
 11
24825.044154999981
 21
16993.427378000011
 31
0.0
  0
LINE
  5
433F
  8
2-0
  6
CONTINUOUS
 62
     3
 10
24795.04653099996
 20
17011.423180999991
 30
0.0
 11
24795.04653099996
 21
16993.427378000011
 31
0.0
  0
LINE
  5
4340
  8
2-0
  6
CONTINUOUS
 62
     3
 10
24820.04389099999
 20
17011.423180999991
 30
0.0
 11
24795.04653099996
 21
17011.423180999991
 31
0.0
  0
LINE
  5
4341
  8
2-0
  6
CONTINUOUS
 62
     3
 10
24820.04389099999
 20
17006.422917000011
 30
0.0
 11
24820.04389099999
 21
17011.423180999991
 31
0.0
  0
LINE
  5
4342
  8
2-0
  6
CONTINUOUS
 62
     3
 10
24813.042333999991
 20
17006.422917000011
 30
0.0
 11
24820.04389099999
 21
17006.422917000011
 31
0.0
  0
LINE
  5
4343
  8
2-0
  6
CONTINUOUS
 62
     3
 10
24813.042333999991
 20
16301.94068649998
 30
0.0
 11
24820.04389099999
 21
16301.94068649998
 31
0.0
  0
LINE
  5
4344
  8
2-0
  6
CONTINUOUS
 62
     3
 10
24820.04389099999
 20
16301.94068649998
 30
0.0
 11
24820.04389099999
 21
16306.94095049998
 31
0.0
  0
LINE
  5
4345
  8
2-0
  6
CONTINUOUS
 62
     3
 10
24820.04389099999
 20
16306.94095049998
 30
0.0
 11
24795.04653099996
 21
16306.94095049998
 31
0.0
  0
LINE
  5
4346
  8
2-0
  6
CONTINUOUS
 62
     3
 10
24795.04653099996
 20
16306.94095049998
 30
0.0
 11
24795.04653099996
 21
16288.9392085
 31
0.0
  0
LINE
  5
4347
  8
2-0
  6
CONTINUOUS
 62
     3
 10
24795.04653099996
 20
16288.9392085
 30
0.0
 11
24825.044154999981
 21
16288.9392085
 31
0.0
  0
LINE
  5
4348
  8
2-0
  6
CONTINUOUS
 62
     3
 10
24795.04653099996
 20
16305.036653499999
 30
0.0
 11
24795.04653099996
 21
16299.0397025
 31
0.0
  0
LINE
  5
4349
  8
2-0
  6
CONTINUOUS
 62
     3
 10
24795.04653099996
 20
16299.0397025
 30
0.0
 11
24825.044154999981
 21
16299.0397025
 31
0.0
  0
LINE
  5
434A
  8
2-0
  6
CONTINUOUS
 62
     3
 10
24825.044154999981
 20
16299.0397025
 30
0.0
 11
24825.044154999981
 21
16336.0398735
 31
0.0
  0
LINE
  5
434B
  8
2-0
  6
CONTINUOUS
 62
     3
 10
24795.04653099996
 20
16336.0398735
 30
0.0
 11
24825.044154999981
 21
16336.0398735
 31
0.0
  0
LINE
  5
434C
  8
2-0
  6
CONTINUOUS
 62
     3
 10
24795.04653099996
 20
16330.0369835
 30
0.0
 11
24795.04653099996
 21
16336.0398735
 31
0.0
  0
LINE
  5
434D
  8
2-0
  6
CONTINUOUS
 62
     3
 10
24795.04653099996
 20
16346.135418499989
 30
0.0
 11
24825.044154999981
 21
16346.135418499989
 31
0.0
  0
LINE
  5
434E
  8
2-0
  6
CONTINUOUS
 62
     3
 10
24795.04653099996
 20
16328.127737500001
 30
0.0
 11
24795.04653099996
 21
16346.135418499989
 31
0.0
  0
LINE
  5
434F
  8
2-0
  6
CONTINUOUS
 62
     3
 10
24820.04389099999
 20
16328.127737500001
 30
0.0
 11
24795.04653099996
 21
16328.127737500001
 31
0.0
  0
LINE
  5
4350
  8
2-0
  6
CONTINUOUS
 62
     3
 10
24820.04389099999
 20
16333.133940499991
 30
0.0
 11
24820.04389099999
 21
16328.127737500001
 31
0.0
  0
LINE
  5
4351
  8
2-0
  6
CONTINUOUS
 62
     3
 10
24813.042333999991
 20
16333.133940499991
 30
0.0
 11
24820.04389099999
 21
16333.133940499991
 31
0.0
  0
LINE
  5
4352
  8
2-0
  6
CONTINUOUS
 62
     3
 10
24813.042333999991
 20
15632.373957
 30
0.0
 11
24820.04389099999
 21
15632.373957
 31
0.0
  0
LINE
  5
4353
  8
2-0
  6
CONTINUOUS
 62
     3
 10
24820.04389099999
 20
15632.373957
 30
0.0
 11
24820.04389099999
 21
15627.379632
 31
0.0
  0
LINE
  5
4354
  8
2-0
  6
CONTINUOUS
 62
     3
 10
24820.04389099999
 20
15627.379632
 30
0.0
 11
24795.04653099996
 21
15627.379632
 31
0.0
  0
LINE
  5
4355
  8
2-0
  6
CONTINUOUS
 62
     3
 10
24795.04653099996
 20
15627.379632
 30
0.0
 11
24795.04653099996
 21
15645.375435000011
 31
0.0
  0
LINE
  5
4356
  8
2-0
  6
CONTINUOUS
 62
     3
 10
24795.04653099996
 20
15645.375435000011
 30
0.0
 11
24825.044154999981
 21
15645.375435000011
 31
0.0
  0
LINE
  5
4357
  8
2-0
  6
CONTINUOUS
 62
     3
 10
24795.04653099996
 20
15629.277990000001
 30
0.0
 11
24795.04653099996
 21
15635.27989000002
 31
0.0
  0
LINE
  5
4358
  8
2-0
  6
CONTINUOUS
 62
     3
 10
24795.04653099996
 20
15635.27989000002
 30
0.0
 11
24825.044154999981
 21
15635.27989000002
 31
0.0
  0
LINE
  5
4359
  8
2-0
  6
CONTINUOUS
 62
     3
 10
24825.044154999981
 20
15598.280709000001
 30
0.0
 11
24825.044154999981
 21
15635.27989000002
 31
0.0
  0
LINE
  5
435A
  8
2-0
  6
CONTINUOUS
 62
     3
 10
24795.04653099996
 20
15598.280709000001
 30
0.0
 11
24825.044154999981
 21
15598.280709000001
 31
0.0
  0
LINE
  5
435B
  8
2-0
  6
CONTINUOUS
 62
     3
 10
24795.04653099996
 20
15604.27766
 30
0.0
 11
24795.04653099996
 21
15598.280709000001
 31
0.0
  0
LINE
  5
435C
  8
2-0
  6
CONTINUOUS
 62
     3
 10
24795.04653099996
 20
15588.179225
 30
0.0
 11
24825.044154999981
 21
15588.179225
 31
0.0
  0
LINE
  5
435D
  8
2-0
  6
CONTINUOUS
 62
     3
 10
24795.04653099996
 20
15606.186906000001
 30
0.0
 11
24795.04653099996
 21
15588.179225
 31
0.0
  0
LINE
  5
435E
  8
2-0
  6
CONTINUOUS
 62
     3
 10
24820.04389099999
 20
15606.186906000001
 30
0.0
 11
24795.04653099996
 21
15606.186906000001
 31
0.0
  0
LINE
  5
435F
  8
2-0
  6
CONTINUOUS
 62
     3
 10
24820.04389099999
 20
15601.186642000001
 30
0.0
 11
24820.04389099999
 21
15606.186906000001
 31
0.0
  0
LINE
  5
4360
  8
2-0
  6
CONTINUOUS
 62
     3
 10
24813.042333999991
 20
15601.186642000001
 30
0.0
 11
24820.04389099999
 21
15601.186642000001
 31
0.0
  0
LINE
  5
4361
  8
2-0
  6
CONTINUOUS
 62
     3
 10
24825.044154999981
 20
16993.427378000011
 30
0.0
 11
24825.044154999981
 21
16346.135418499989
 31
0.0
  0
LINE
  5
4362
  8
2-0
  6
CONTINUOUS
 62
     3
 10
24825.044154999981
 20
17148.037676
 30
0.0
 11
24825.044154999981
 21
17003.035961000009
 31
0.0
  0
LINE
  5
4363
  8
2-0
  6
CONTINUOUS
 62
     3
 10
24737.161447999981
 20
17118.038071999988
 30
0.0
 11
24737.161447999981
 21
17033.041504000012
 31
0.0
  0
LINE
  5
4364
  8
2-0
  6
CONTINUOUS
 62
     3
 10
24795.04653099996
 20
14574.541714999999
 30
0.0
 11
24795.04653099996
 21
14580.546584
 31
0.0
  0
LINE
  5
4365
  8
2-0
  6
CONTINUOUS
 62
     3
 10
24795.04653099996
 20
14580.546584
 30
0.0
 11
24825.044154999981
 21
14580.546584
 31
0.0
  0
LINE
  5
4366
  8
2-0
  6
CONTINUOUS
 62
     3
 10
24825.044154999981
 20
14580.546584
 30
0.0
 11
24825.044154999981
 21
14465.542493000001
 31
0.0
  0
LINE
  5
4367
  8
2-0
  6
CONTINUOUS
 62
     3
 10
24825.044154999981
 20
14465.542493000001
 30
0.0
 11
24740.04560699996
 21
14465.542493000001
 31
0.0
  0
LINE
  5
4368
  8
2-0
  6
CONTINUOUS
 62
     3
 10
24740.04560699996
 20
14465.542493000001
 30
0.0
 11
24740.04560699996
 21
14550.538071999999
 31
0.0
  0
LINE
  5
4369
  8
2-0
  6
CONTINUOUS
 62
     3
 10
24740.04560699996
 20
14550.538071999999
 30
0.0
 11
24772.044524999968
 21
14550.538071999999
 31
0.0
  0
LINE
  5
436A
  8
2-0
  6
CONTINUOUS
 62
     3
 10
24813.042333999991
 20
14577.576316999999
 30
0.0
 11
24820.04389099999
 21
14577.576316999999
 31
0.0
  0
LINE
  5
436B
  8
2-0
  6
CONTINUOUS
 62
     3
 10
24820.04389099999
 20
14577.576316999999
 30
0.0
 11
24820.04389099999
 21
14572.57902199998
 31
0.0
  0
LINE
  5
436C
  8
2-0
  6
CONTINUOUS
 62
     3
 10
24820.04389099999
 20
14572.57902199998
 30
0.0
 11
24795.04653099996
 21
14572.57902199998
 31
0.0
  0
LINE
  5
436D
  8
2-0
  6
CONTINUOUS
 62
     3
 10
24795.04653099996
 20
14572.57902199998
 30
0.0
 11
24795.04653099996
 21
14590.57779499999
 31
0.0
  0
LINE
  5
436E
  8
2-0
  6
CONTINUOUS
 62
     3
 10
24795.04653099996
 20
14590.57779499999
 30
0.0
 11
24825.044154999981
 21
14590.57779499999
 31
0.0
  0
LINE
  5
436F
  8
2-0
  6
CENTER2
 62
     6
 10
24782.54587099998
 20
14268.044934999991
 30
0.0
 11
24782.54587099998
 21
15073.41369300001
 31
0.0
  0
LINE
  5
4370
  8
2-0
  6
CONTINUOUS
 62
     3
 10
24825.044154999981
 20
18563.134924000002
 30
0.0
 11
24825.044154999981
 21
19206.945641499991
 31
0.0
  0
LINE
  5
4371
  8
2-0
  6
CONTINUOUS
 62
     6
 10
25517.549037999968
 20
20415.540976000011
 30
0.0
 11
26717.543099999959
 21
20415.540976000011
 31
0.0
  0
LINE
  5
4372
  8
2-0
  6
CONTINUOUS
 62
     3
 10
22287.547718999991
 20
19685.538073000022
 30
0.0
 11
22287.547718999991
 21
19655.534510000001
 31
0.0
  0
LINE
  5
4373
  8
2-0
  6
CONTINUOUS
 62
     3
 10
22287.547718999991
 20
19655.534510000001
 30
0.0
 11
22281.54977699996
 21
19655.534510000001
 31
0.0
  0
LINE
  5
4374
  8
2-0
  6
CONTINUOUS
 62
     3
 10
22297.164219999999
 20
19655.534510000001
 30
0.0
 11
22297.164219999999
 21
19685.538073000022
 31
0.0
  0
LINE
  5
4375
  8
2-0
  6
CONTINUOUS
 62
     3
 10
22279.16247799998
 20
19655.534510000001
 30
0.0
 11
22297.164219999999
 21
19655.534510000001
 31
0.0
  0
LINE
  5
4376
  8
2-0
  6
CONTINUOUS
 62
     3
 10
22279.16247799998
 20
19680.543747000011
 30
0.0
 11
22279.16247799998
 21
19655.534510000001
 31
0.0
  0
LINE
  5
4377
  8
2-0
  6
CONTINUOUS
 62
     3
 10
22284.162741999971
 20
19680.543747000011
 30
0.0
 11
22279.16247799998
 21
19680.543747000011
 31
0.0
  0
LINE
  5
4378
  8
2-0
  6
CONTINUOUS
 62
     3
 10
22284.162741999971
 20
19673.538230999999
 30
0.0
 11
22284.162741999971
 21
19680.543747000011
 31
0.0
  0
LINE
  5
4379
  8
2-0
  6
CONTINUOUS
 62
     3
 10
22257.54613499999
 20
19682.645996000021
 30
0.0
 11
22257.54613499999
 21
19597.647448000022
 31
0.0
  0
LINE
  5
437A
  8
2-0
  6
CONTINUOUS
 62
     3
 10
22237.549038000001
 20
19682.645996000021
 30
0.0
 11
22257.54613499999
 21
19682.645996000021
 31
0.0
  0
LINE
  5
437B
  8
2-0
  6
CONTINUOUS
 62
     3
 10
22145.934938999992
 20
19673.538230999999
 30
0.0
 11
22145.934938999992
 21
19680.543747000011
 31
0.0
  0
LINE
  5
437C
  8
2-0
  6
CONTINUOUS
 62
     3
 10
22145.934938999992
 20
19680.543747000011
 30
0.0
 11
22150.935202999961
 21
19680.543747000011
 31
0.0
  0
LINE
  5
437D
  8
2-0
  6
CONTINUOUS
 62
     3
 10
22150.935202999961
 20
19680.543747000011
 30
0.0
 11
22150.935202999961
 21
19655.534510000001
 31
0.0
  0
LINE
  5
437E
  8
2-0
  6
CONTINUOUS
 62
     3
 10
22150.935202999961
 20
19655.534510000001
 30
0.0
 11
22132.933460999961
 21
19655.534510000001
 31
0.0
  0
LINE
  5
437F
  8
2-0
  6
CONTINUOUS
 62
     3
 10
22132.933460999961
 20
19655.534510000001
 30
0.0
 11
22132.933460999961
 21
19685.538073000022
 31
0.0
  0
LINE
  5
4380
  8
2-0
  6
CONTINUOUS
 62
     3
 10
22172.553524999988
 20
19682.645996000021
 30
0.0
 11
22192.54864199998
 21
19682.645996000021
 31
0.0
  0
LINE
  5
4381
  8
2-0
  6
CONTINUOUS
 62
     3
 10
22172.553524999988
 20
19597.647448000022
 30
0.0
 11
22172.553524999988
 21
19682.645996000021
 31
0.0
  0
LINE
  5
4382
  8
2-0
  6
CONTINUOUS
 62
     3
 10
22142.555900999989
 20
19655.534510000001
 30
0.0
 11
22148.551861999971
 21
19655.534510000001
 31
0.0
  0
LINE
  5
4383
  8
2-0
  6
CONTINUOUS
 62
     3
 10
22142.555900999989
 20
19685.538073000022
 30
0.0
 11
22142.555900999989
 21
19655.534510000001
 31
0.0
  0
LINE
  5
4384
  8
2-0
  6
CONTINUOUS
 62
     3
 10
22257.54613499999
 20
19597.647448000022
 30
0.0
 11
22172.553524999988
 21
19597.647448000022
 31
0.0
  0
LINE
  5
4385
  8
2-0
  6
CONTINUOUS
 62
     3
 10
22287.547718999991
 20
19685.538073000022
 30
0.0
 11
22142.555900999989
 21
19685.538073000022
 31
0.0
  0
LINE
  5
4386
  8
2-0
  6
CONTINUOUS
 62
     6
 10
24977.08503899995
 20
19828.217813000021
 30
0.0
 11
25517.549037999968
 21
20415.540976000011
 31
0.0
  0
LINE
  5
4387
  8
2-0
  6
CONTINUOUS
 62
     6
 10
22257.54613499999
 20
14550.538071999999
 30
0.0
 11
22534.136347999982
 21
15005.882772000001
 31
0.0
  0
LINE
  5
4388
  8
2-0
  6
CONTINUOUS
 62
     6
 10
22534.136347999982
 20
15005.882772000001
 30
0.0
 11
23564.485666999961
 21
15005.882772000001
 31
0.0
  0
LINE
  5
4389
  8
2-0
  6
CONTINUOUS
 62
     3
 10
24734.039747999988
 20
18492.038533999981
 30
0.0
 11
24781.04539599995
 21
18492.038533999981
 31
0.0
  0
LINE
  5
438A
  8
2-0
  6
CONTINUOUS
 62
     3
 10
24781.04539599995
 20
18577.039062
 30
0.0
 11
24734.039747999988
 21
18577.039062
 31
0.0
  0
LINE
  5
438B
  8
2-0
  6
CONTINUOUS
 62
     3
 10
24781.04539599995
 20
18492.038533999981
 30
0.0
 11
24781.04539599995
 21
18517.04183300001
 31
0.0
  0
LINE
  5
438C
  8
2-0
  6
CONTINUOUS
 62
     3
 10
24781.04539599995
 20
18552.037742000011
 30
0.0
 11
24781.04539599995
 21
18577.039062
 31
0.0
  0
LINE
  5
438D
  8
2-0
  6
CONTINUOUS
 62
     3
 10
24734.039747999988
 20
18577.039062
 30
0.0
 11
24734.039747999988
 21
18492.038533999981
 31
0.0
  0
LINE
  5
438E
  8
2-0
  6
CONTINUOUS
 62
     3
 10
24825.044154999981
 20
16288.9392085
 30
0.0
 11
24825.044154999981
 21
15645.375435000011
 31
0.0
  0
LINE
  5
438F
  8
2-0
  6
CONTINUOUS
 62
     3
 10
24734.039747999988
 20
15574.041504000001
 30
0.0
 11
24781.04539599995
 21
15574.041504000001
 31
0.0
  0
LINE
  5
4390
  8
2-0
  6
CONTINUOUS
 62
     3
 10
24781.04539599995
 20
15659.03807199999
 30
0.0
 11
24734.039747999988
 21
15659.03807199999
 31
0.0
  0
LINE
  5
4391
  8
2-0
  6
CONTINUOUS
 62
     3
 10
24781.04539599995
 20
15574.041504000001
 30
0.0
 11
24781.04539599995
 21
15599.03688500001
 31
0.0
  0
LINE
  5
4392
  8
2-0
  6
CONTINUOUS
 62
     3
 10
24781.04539599995
 20
15634.036753
 30
0.0
 11
24781.04539599995
 21
15659.03807199999
 31
0.0
  0
LINE
  5
4393
  8
2-0
  6
CONTINUOUS
 62
     3
 10
24734.039747999988
 20
15659.03807199999
 30
0.0
 11
24734.039747999988
 21
15574.041504000001
 31
0.0
  0
LINE
  5
4394
  8
2-0
  6
CONTINUOUS
 62
     6
 10
22317.824454999991
 20
14701.13390699999
 30
0.0
 11
22257.54613499999
 21
14550.538071999999
 31
0.0
  0
LINE
  5
4395
  8
2-0
  6
CONTINUOUS
 62
     6
 10
22257.54613499999
 20
14550.538071999999
 30
0.0
 11
22363.404849999952
 21
14673.446381
 31
0.0
  0
LINE
  5
4396
  8
2-0
  6
CONTINUOUS
 62
     6
 10
22317.824454999991
 20
14701.13390699999
 30
0.0
 11
22363.404849999952
 21
14673.446381
 31
0.0
  0
LINE
  5
4397
  8
2-0
  6
CONTINUOUS
 62
     6
 10
22363.404849999952
 20
14673.446381
 30
0.0
 11
22257.54613499999
 21
14550.538071999999
 31
0.0
  0
LINE
  5
4398
  8
2-0
  6
CONTINUOUS
 62
     6
 10
22257.54613499999
 20
14550.538071999999
 30
0.0
 11
22317.824454999991
 21
14701.13390699999
 31
0.0
  0
LINE
  5
4399
  8
2-0
  6
CONTINUOUS
 62
     6
 10
22317.824454999991
 20
14701.13390699999
 30
0.0
 11
22257.54613499999
 21
14550.538071999999
 31
0.0
  0
LINE
  5
439A
  8
2-0
  6
CONTINUOUS
 62
     6
 10
22363.404849999952
 20
14673.446381
 30
0.0
 11
22257.54613499999
 21
14550.538071999999
 31
0.0
  0
LINE
  5
439B
  8
2-0
  6
CONTINUOUS
 62
     6
 10
22363.404849999952
 20
14673.446381
 30
0.0
 11
22317.824454999991
 21
14701.13390699999
 31
0.0
  0
LINE
  5
439C
  8
2-0
  6
CONTINUOUS
 62
     6
 10
24996.70206799998
 20
19810.15668600002
 30
0.0
 11
24868.740047999981
 21
19710.47406800001
 31
0.0
  0
LINE
  5
439D
  8
2-0
  6
CONTINUOUS
 62
     6
 10
24868.740047999981
 20
19710.47406800001
 30
0.0
 11
24957.454152999981
 21
19846.271023000001
 31
0.0
  0
LINE
  5
439E
  8
2-0
  6
CONTINUOUS
 62
     6
 10
24996.70206799998
 20
19810.15668600002
 30
0.0
 11
24957.454152999981
 21
19846.271023000001
 31
0.0
  0
LINE
  5
439F
  8
2-0
  6
CONTINUOUS
 62
     6
 10
24957.454152999981
 20
19846.271023000001
 30
0.0
 11
24868.740047999981
 21
19710.47406800001
 31
0.0
  0
LINE
  5
43A0
  8
2-0
  6
CONTINUOUS
 62
     6
 10
24868.740047999981
 20
19710.47406800001
 30
0.0
 11
24996.70206799998
 21
19810.15668600002
 31
0.0
  0
LINE
  5
43A1
  8
2-0
  6
CONTINUOUS
 62
     6
 10
24996.70206799998
 20
19810.15668600002
 30
0.0
 11
24868.740047999981
 21
19710.47406800001
 31
0.0
  0
LINE
  5
43A2
  8
2-0
  6
CONTINUOUS
 62
     6
 10
24957.454152999981
 20
19846.271023000001
 30
0.0
 11
24868.740047999981
 21
19710.47406800001
 31
0.0
  0
LINE
  5
43A3
  8
2-0
  6
CONTINUOUS
 62
     6
 10
24957.454152999981
 20
19846.271023000001
 30
0.0
 11
24996.70206799998
 21
19810.15668600002
 31
0.0
  0
LINE
  5
43A4
  8
2-0
  6
CONTINUOUS
 62
     6
 10
20838.981549999971
 20
19437.765691000011
 30
0.0
 11
20970.914483
 21
18968.419856
 31
0.0
  0
LINE
  5
43A5
  8
2-0
  6
CONTINUOUS
 62
     6
 10
20970.914483
 20
18968.419856
 30
0.0
 11
21995.952753999969
 21
18968.419856
 31
0.0
  0
LINE
  5
43A6
  8
2-0
  6
CONTINUOUS
 62
     6
 10
20795.687498999989
 20
19591.794011000009
 30
0.0
 11
20813.30917299998
 21
19430.548366000021
 31
0.0
  0
LINE
  5
43A7
  8
2-0
  6
CONTINUOUS
 62
     6
 10
20864.653925999999
 20
19444.986975000022
 30
0.0
 11
20813.30917299998
 21
19430.548366000021
 31
0.0
  0
LINE
  5
43A8
  8
2-0
  6
CONTINUOUS
 62
     6
 10
20813.30917299998
 20
19430.548366000021
 30
0.0
 11
20795.687498999989
 21
19591.794011000009
 31
0.0
  0
LINE
  5
43A9
  8
2-0
  6
CONTINUOUS
 62
     6
 10
20795.687498999989
 20
19591.794011000009
 30
0.0
 11
20864.653925999999
 21
19444.986975000022
 31
0.0
  0
LINE
  5
43AA
  8
2-0
  6
CONTINUOUS
 62
     6
 10
20864.653925999999
 20
19444.986975000022
 30
0.0
 11
20795.687498999989
 21
19591.794011000009
 31
0.0
  0
LINE
  5
43AB
  8
2-0
  6
CONTINUOUS
 62
     6
 10
20813.30917299998
 20
19430.548366000021
 30
0.0
 11
20795.687498999989
 21
19591.794011000009
 31
0.0
  0
LINE
  5
43AC
  8
2-0
  6
CONTINUOUS
 62
     6
 10
20813.30917299998
 20
19430.548366000021
 30
0.0
 11
20864.653925999999
 21
19444.986975000022
 31
0.0
  0
LINE
  5
43AD
  8
2-0
  6
CONTINUOUS
 62
     6
 10
22256.469276999971
 20
19566.786753000011
 30
0.0
 11
22405.338972000001
 21
19037.164577
 31
0.0
  0
LINE
  5
43AE
  8
2-0
  6
CONTINUOUS
 62
     6
 10
22405.338972000001
 20
19037.164577
 30
0.0
 11
23430.383180999968
 21
19037.164577
 31
0.0
  0
LINE
  5
43AF
  8
2-0
  6
CONTINUOUS
 62
     6
 10
22274.092930999959
 20
19405.541108000001
 30
0.0
 11
22325.443621999992
 21
19419.975758
 31
0.0
  0
LINE
  5
43B0
  8
2-0
  6
CONTINUOUS
 62
     6
 10
22325.443621999992
 20
19419.975758
 30
0.0
 11
22274.092930999959
 21
19405.541108000001
 31
0.0
  0
LINE
  5
43B1
  8
2-0
  6
CONTINUOUS
 62
     6
 10
22274.092930999959
 20
19405.541108000001
 30
0.0
 11
22256.469276999971
 21
19566.786753000011
 31
0.0
  0
LINE
  5
43B2
  8
2-0
  6
CONTINUOUS
 62
     6
 10
22256.469276999971
 20
19566.786753000011
 30
0.0
 11
22325.443621999992
 21
19419.975758
 31
0.0
  0
LINE
  5
43B3
  8
2-0
  6
CONTINUOUS
 62
     6
 10
22325.443621999992
 20
19419.975758
 30
0.0
 11
22256.469276999971
 21
19566.786753000011
 31
0.0
  0
LINE
  5
43B4
  8
2-0
  6
CONTINUOUS
 62
     6
 10
22274.092930999959
 20
19405.541108000001
 30
0.0
 11
22256.469276999971
 21
19566.786753000011
 31
0.0
  0
LINE
  5
43B5
  8
2-0
  6
CONTINUOUS
 62
     6
 10
22325.443621999992
 20
19419.975758
 30
0.0
 11
22256.469276999971
 21
19566.786753000011
 31
0.0
  0
LINE
  5
43B6
  8
2-0
  6
CONTINUOUS
 62
     6
 10
22256.469276999971
 20
19566.786753000011
 30
0.0
 11
22274.092930999959
 21
19405.541108000001
 31
0.0
  0
LINE
  5
43B7
  8
2-0
  6
CONTINUOUS
 62
     4
 10
22215.04587099998
 20
19765.540316000021
 30
0.0
 11
22215.04587099998
 21
20495.537281000012
 31
0.0
  0
LINE
  5
43B8
  8
2-0
  6
CONTINUOUS
 62
     6
 10
24578.72078099996
 20
15527.53469400002
 30
0.0
 11
24734.039747999988
 21
15574.282015000001
 31
0.0
  0
LINE
  5
43B9
  8
2-0
  6
CONTINUOUS
 62
     6
 10
24734.039747999988
 20
15574.282015000001
 30
0.0
 11
24602.279031999959
 21
15479.68973
 31
0.0
  0
LINE
  5
43BA
  8
2-0
  6
CONTINUOUS
 62
     6
 10
24578.72078099996
 20
15527.53469400002
 30
0.0
 11
24602.279031999959
 21
15479.68973
 31
0.0
  0
LINE
  5
43BB
  8
2-0
  6
CONTINUOUS
 62
     6
 10
24602.279031999959
 20
15479.68973
 30
0.0
 11
24734.039747999988
 21
15574.282015000001
 31
0.0
  0
LINE
  5
43BC
  8
2-0
  6
CONTINUOUS
 62
     6
 10
24734.039747999988
 20
15574.282015000001
 30
0.0
 11
24578.72078099996
 21
15527.53469400002
 31
0.0
  0
LINE
  5
43BD
  8
2-0
  6
CONTINUOUS
 62
     6
 10
24578.72078099996
 20
15527.53469400002
 30
0.0
 11
24734.039747999988
 21
15574.282015000001
 31
0.0
  0
LINE
  5
43BE
  8
2-0
  6
CONTINUOUS
 62
     6
 10
24602.279031999959
 20
15479.68973
 30
0.0
 11
24734.039747999988
 21
15574.282015000001
 31
0.0
  0
LINE
  5
43BF
  8
2-0
  6
CONTINUOUS
 62
     6
 10
24602.279031999959
 20
15479.68973
 30
0.0
 11
24578.72078099996
 21
15527.53469400002
 31
0.0
  0
LINE
  5
43C0
  8
2-0
  6
CONTINUOUS
 62
     6
 10
24548.406433999971
 20
14357.26975499999
 30
0.0
 11
24680.153292999988
 21
14451.896682000001
 31
0.0
  0
LINE
  5
43C1
  8
2-0
  6
CONTINUOUS
 62
     6
 10
24680.153292999988
 20
14451.896682000001
 30
0.0
 11
24586.223156999971
 21
14319.657911999981
 31
0.0
  0
LINE
  5
43C2
  8
2-0
  6
CONTINUOUS
 62
     6
 10
24548.406433999971
 20
14357.26975499999
 30
0.0
 11
24586.223156999971
 21
14319.657911999981
 31
0.0
  0
LINE
  5
43C3
  8
2-0
  6
CONTINUOUS
 62
     6
 10
24586.223156999971
 20
14319.657911999981
 30
0.0
 11
24680.153292999988
 21
14451.896682000001
 31
0.0
  0
LINE
  5
43C4
  8
2-0
  6
CONTINUOUS
 62
     6
 10
24680.153292999988
 20
14451.896682000001
 30
0.0
 11
24548.406433999971
 21
14357.26975499999
 31
0.0
  0
LINE
  5
43C5
  8
2-0
  6
CONTINUOUS
 62
     6
 10
24548.406433999971
 20
14357.26975499999
 30
0.0
 11
24680.153292999988
 21
14451.896682000001
 31
0.0
  0
LINE
  5
43C6
  8
2-0
  6
CONTINUOUS
 62
     6
 10
24586.223156999971
 20
14319.657911999981
 30
0.0
 11
24680.153292999988
 21
14451.896682000001
 31
0.0
  0
LINE
  5
43C7
  8
2-0
  6
CONTINUOUS
 62
     6
 10
24586.223156999971
 20
14319.657911999981
 30
0.0
 11
24548.406433999971
 21
14357.26975499999
 31
0.0
  0
LINE
  5
43C8
  8
2-0
  6
CONTINUOUS
 62
     6
 10
24611.442222999969
 20
14684.17438199999
 30
0.0
 11
24744.04225499996
 21
14590.746053999979
 31
0.0
  0
LINE
  5
43C9
  8
2-0
  6
CONTINUOUS
 62
     6
 10
24744.04225499996
 20
14590.746053999979
 30
0.0
 11
24588.309568999961
 21
14636.121568
 31
0.0
  0
LINE
  5
43CA
  8
2-0
  6
CONTINUOUS
 62
     6
 10
24611.442222999969
 20
14684.17438199999
 30
0.0
 11
24588.309568999961
 21
14636.121568
 31
0.0
  0
LINE
  5
43CB
  8
2-0
  6
CONTINUOUS
 62
     6
 10
24588.309568999961
 20
14636.121568
 30
0.0
 11
24744.04225499996
 21
14590.746053999979
 31
0.0
  0
LINE
  5
43CC
  8
2-0
  6
CONTINUOUS
 62
     6
 10
24744.04225499996
 20
14590.746053999979
 30
0.0
 11
24611.442222999969
 21
14684.17438199999
 31
0.0
  0
LINE
  5
43CD
  8
2-0
  6
CONTINUOUS
 62
     6
 10
24611.442222999969
 20
14684.17438199999
 30
0.0
 11
24744.04225499996
 21
14590.746053999979
 31
0.0
  0
LINE
  5
43CE
  8
2-0
  6
CONTINUOUS
 62
     6
 10
24588.309568999961
 20
14636.121568
 30
0.0
 11
24744.04225499996
 21
14590.746053999979
 31
0.0
  0
LINE
  5
43CF
  8
2-0
  6
CONTINUOUS
 62
     6
 10
24588.309568999961
 20
14636.121568
 30
0.0
 11
24611.442222999969
 21
14684.17438199999
 31
0.0
  0
LINE
  5
43D0
  8
2-0
  6
CONTINUOUS
 62
     6
 10
24671.205868999969
 20
16713.495315000011
 30
0.0
 11
24825.044154999981
 21
16764.92914600002
 31
0.0
  0
LINE
  5
43D1
  8
2-0
  6
CONTINUOUS
 62
     6
 10
24825.044154999981
 20
16764.92914600002
 30
0.0
 11
24696.209167999961
 21
16666.388711000011
 31
0.0
  0
LINE
  5
43D2
  8
2-0
  6
CONTINUOUS
 62
     6
 10
24671.205868999969
 20
16713.495315000011
 30
0.0
 11
24696.209167999961
 21
16666.388711000011
 31
0.0
  0
LINE
  5
43D3
  8
2-0
  6
CONTINUOUS
 62
     6
 10
24696.209167999961
 20
16666.388711000011
 30
0.0
 11
24825.044154999981
 21
16764.92914600002
 31
0.0
  0
LINE
  5
43D4
  8
2-0
  6
CONTINUOUS
 62
     6
 10
24825.044154999981
 20
16764.92914600002
 30
0.0
 11
24671.205868999969
 21
16713.495315000011
 31
0.0
  0
LINE
  5
43D5
  8
2-0
  6
CONTINUOUS
 62
     6
 10
24671.205868999969
 20
16713.495315000011
 30
0.0
 11
24825.044154999981
 21
16764.92914600002
 31
0.0
  0
LINE
  5
43D6
  8
2-0
  6
CONTINUOUS
 62
     6
 10
24696.209167999961
 20
16666.388711000011
 30
0.0
 11
24825.044154999981
 21
16764.92914600002
 31
0.0
  0
LINE
  5
43D7
  8
2-0
  6
CONTINUOUS
 62
     6
 10
24696.209167999961
 20
16666.388711000011
 30
0.0
 11
24671.205868999969
 21
16713.495315000011
 31
0.0
  0
LINE
  5
43D8
  8
2-0
  6
CONTINUOUS
 62
     6
 10
24537.269661999981
 20
17204.81380700002
 30
0.0
 11
24680.153292999988
 21
17128.038177999999
 31
0.0
  0
LINE
  5
43D9
  8
2-0
  6
CONTINUOUS
 62
     6
 10
24680.153292999988
 20
17128.038177999999
 30
0.0
 11
24520.091399999968
 21
17154.320247000011
 31
0.0
  0
LINE
  5
43DA
  8
2-0
  6
CONTINUOUS
 62
     6
 10
24537.269661999981
 20
17204.81380700002
 30
0.0
 11
24520.091399999968
 21
17154.320247000011
 31
0.0
  0
LINE
  5
43DB
  8
2-0
  6
CONTINUOUS
 62
     6
 10
24520.091399999968
 20
17154.320247000011
 30
0.0
 11
24680.153292999988
 21
17128.038177999999
 31
0.0
  0
LINE
  5
43DC
  8
2-0
  6
CONTINUOUS
 62
     6
 10
24680.153292999988
 20
17128.038177999999
 30
0.0
 11
24537.269661999981
 21
17204.81380700002
 31
0.0
  0
LINE
  5
43DD
  8
2-0
  6
CONTINUOUS
 62
     6
 10
24537.269661999981
 20
17204.81380700002
 30
0.0
 11
24680.153292999988
 21
17128.038177999999
 31
0.0
  0
LINE
  5
43DE
  8
2-0
  6
CONTINUOUS
 62
     6
 10
24520.091399999968
 20
17154.320247000011
 30
0.0
 11
24680.153292999988
 21
17128.038177999999
 31
0.0
  0
LINE
  5
43DF
  8
2-0
  6
CONTINUOUS
 62
     6
 10
24520.091399999968
 20
17154.320247000011
 30
0.0
 11
24537.269661999981
 21
17204.81380700002
 31
0.0
  0
LINE
  5
43E0
  8
2-0
  6
CONTINUOUS
 62
     6
 10
24578.72078099996
 20
18445.294182000001
 30
0.0
 11
24734.039747999988
 21
18492.038533999981
 31
0.0
  0
LINE
  5
43E1
  8
2-0
  6
CONTINUOUS
 62
     6
 10
24734.039747999988
 20
18492.038533999981
 30
0.0
 11
24602.279031999959
 21
18397.44328
 31
0.0
  0
LINE
  5
43E2
  8
2-0
  6
CONTINUOUS
 62
     6
 10
24578.72078099996
 20
18445.294182000001
 30
0.0
 11
24602.279031999959
 21
18397.44328
 31
0.0
  0
LINE
  5
43E3
  8
2-0
  6
CONTINUOUS
 62
     6
 10
24602.279031999959
 20
18397.44328
 30
0.0
 11
24734.039747999988
 21
18492.038533999981
 31
0.0
  0
LINE
  5
43E4
  8
2-0
  6
CONTINUOUS
 62
     6
 10
24734.039747999988
 20
18492.038533999981
 30
0.0
 11
24578.72078099996
 21
18445.294182000001
 31
0.0
  0
LINE
  5
43E5
  8
2-0
  6
CONTINUOUS
 62
     6
 10
24578.72078099996
 20
18445.294182000001
 30
0.0
 11
24734.039747999988
 21
18492.038533999981
 31
0.0
  0
LINE
  5
43E6
  8
2-0
  6
CONTINUOUS
 62
     6
 10
24602.279031999959
 20
18397.44328
 30
0.0
 11
24734.039747999988
 21
18492.038533999981
 31
0.0
  0
LINE
  5
43E7
  8
2-0
  6
CONTINUOUS
 62
     6
 10
24602.279031999959
 20
18397.44328
 30
0.0
 11
24578.72078099996
 21
18445.294182000001
 31
0.0
  0
LINE
  5
43E8
  8
2-0
  6
CONTINUOUS
 62
     3
 10
21475.546451999959
 20
19685.538073000022
 30
0.0
 11
21438.54528999998
 21
19685.538073000022
 31
0.0
  0
LINE
  5
43E9
  8
2-0
  6
CONTINUOUS
 62
     3
 10
21475.546451999959
 20
19655.534510000001
 30
0.0
 11
21475.546451999959
 21
19685.538073000022
 31
0.0
  0
LINE
  5
43EA
  8
2-0
  6
CONTINUOUS
 62
     3
 10
21469.546530999949
 20
19655.534510000001
 30
0.0
 11
21475.546451999959
 21
19655.534510000001
 31
0.0
  0
LINE
  5
43EB
  8
2-0
  6
CONTINUOUS
 62
     3
 10
21485.643975999981
 20
19655.534510000001
 30
0.0
 11
21485.643975999981
 21
19685.538073000022
 31
0.0
  0
LINE
  5
43EC
  8
2-0
  6
CONTINUOUS
 62
     3
 10
21467.640254999991
 20
19655.534510000001
 30
0.0
 11
21485.643975999981
 21
19655.534510000001
 31
0.0
  0
LINE
  5
43ED
  8
2-0
  6
CONTINUOUS
 62
     3
 10
21467.640254999991
 20
19680.543747000011
 30
0.0
 11
21467.640254999991
 21
19655.534510000001
 31
0.0
  0
LINE
  5
43EE
  8
2-0
  6
CONTINUOUS
 62
     3
 10
21472.640518999971
 20
19680.543747000011
 30
0.0
 11
21467.640254999991
 21
19680.543747000011
 31
0.0
  0
LINE
  5
43EF
  8
2-0
  6
CONTINUOUS
 62
     3
 10
21472.640518999971
 20
19673.538230999999
 30
0.0
 11
21472.640518999971
 21
19680.543747000011
 31
0.0
  0
LINE
  5
43F0
  8
2-0
  6
CONTINUOUS
 62
     3
 10
21441.45122399996
 20
19673.538230999999
 30
0.0
 11
21441.45122399996
 21
19680.543747000011
 31
0.0
  0
LINE
  5
43F1
  8
2-0
  6
CONTINUOUS
 62
     3
 10
21441.45122399996
 20
19680.543747000011
 30
0.0
 11
21446.451487999981
 21
19680.543747000011
 31
0.0
  0
LINE
  5
43F2
  8
2-0
  6
CONTINUOUS
 62
     3
 10
21446.451487999981
 20
19680.543747000011
 30
0.0
 11
21446.451487999981
 21
19655.534510000001
 31
0.0
  0
LINE
  5
43F3
  8
2-0
  6
CONTINUOUS
 62
     3
 10
21446.451487999981
 20
19655.534510000001
 30
0.0
 11
21428.451724999992
 21
19655.534510000001
 31
0.0
  0
LINE
  5
43F4
  8
2-0
  6
CONTINUOUS
 62
     3
 10
21428.451724999992
 20
19655.534510000001
 30
0.0
 11
21428.451724999992
 21
19685.538073000022
 31
0.0
  0
LINE
  5
43F5
  8
2-0
  6
CONTINUOUS
 62
     3
 10
21444.545210999971
 20
19655.534510000001
 30
0.0
 11
21438.54528999998
 21
19655.534510000001
 31
0.0
  0
LINE
  5
43F6
  8
2-0
  6
CONTINUOUS
 62
     3
 10
21438.54528999998
 20
19655.534510000001
 30
0.0
 11
21438.54528999998
 21
19685.538073000022
 31
0.0
  0
LINE
  5
43F7
  8
2-0
  6
CONTINUOUS
 62
     3
 10
19635.047190999969
 20
19576.537862000001
 30
0.0
 11
19635.047190999969
 21
19570.5419
 31
0.0
  0
LINE
  5
43F8
  8
2-0
  6
CONTINUOUS
 62
     3
 10
19635.047190999969
 20
19570.5419
 30
0.0
 11
19605.049565999969
 21
19570.5419
 31
0.0
  0
LINE
  5
43F9
  8
2-0
  6
CONTINUOUS
 62
     3
 10
19605.049565999969
 20
19570.5419
 30
0.0
 11
19605.049565999969
 21
19685.538073000022
 31
0.0
  0
LINE
  5
43FA
  8
2-0
  6
CONTINUOUS
 62
     3
 10
19605.049565999969
 20
19600.541504000001
 30
0.0
 11
19686.047506999981
 21
19600.541504000001
 31
0.0
  0
LINE
  5
43FB
  8
2-0
  6
CONTINUOUS
 62
     3
 10
19635.047190999969
 20
19560.244444
 30
0.0
 11
19605.049565999969
 21
19560.244444
 31
0.0
  0
LINE
  5
43FC
  8
2-0
  6
CONTINUOUS
 62
     3
 10
19635.047190999969
 20
19578.246186000011
 30
0.0
 11
19635.047190999969
 21
19560.244444
 31
0.0
  0
LINE
  5
43FD
  8
2-0
  6
CONTINUOUS
 62
     3
 10
19610.053788999969
 20
19578.246186000011
 30
0.0
 11
19635.047190999969
 21
19578.246186000011
 31
0.0
  0
LINE
  5
43FE
  8
2-0
  6
CONTINUOUS
 62
     3
 10
19610.053788999969
 20
19573.238004000021
 30
0.0
 11
19610.053788999969
 21
19578.246186000011
 31
0.0
  0
LINE
  5
43FF
  8
2-0
  6
CONTINUOUS
 62
     3
 10
19617.051386999949
 20
19573.238004000021
 30
0.0
 11
19610.053788999969
 21
19573.238004000021
 31
0.0
  0
LINE
  5
4400
  8
2-0
  6
CONTINUOUS
 62
     3
 10
19717.34567599995
 20
19673.538230999999
 30
0.0
 11
19717.34567599995
 21
19680.543747000011
 31
0.0
  0
LINE
  5
4401
  8
2-0
  6
CONTINUOUS
 62
     3
 10
19717.34567599995
 20
19680.543747000011
 30
0.0
 11
19712.343431999969
 21
19680.543747000011
 31
0.0
  0
LINE
  5
4402
  8
2-0
  6
CONTINUOUS
 62
     3
 10
19712.343431999969
 20
19680.543747000011
 30
0.0
 11
19712.343431999969
 21
19655.534510000001
 31
0.0
  0
LINE
  5
4403
  8
2-0
  6
CONTINUOUS
 62
     3
 10
19712.343431999969
 20
19655.534510000001
 30
0.0
 11
19730.351112999961
 21
19655.534510000001
 31
0.0
  0
LINE
  5
4404
  8
2-0
  6
CONTINUOUS
 62
     3
 10
19730.351112999961
 20
19655.534510000001
 30
0.0
 11
19730.351112999961
 21
19685.538073000022
 31
0.0
  0
LINE
  5
4405
  8
2-0
  6
CONTINUOUS
 62
     3
 10
19720.051676999981
 20
19685.538073000022
 30
0.0
 11
19605.049565999969
 21
19685.538073000022
 31
0.0
  0
LINE
  5
4406
  8
2-0
  6
CONTINUOUS
 62
     3
 10
19720.051676999981
 20
19655.534510000001
 30
0.0
 11
19720.051676999981
 21
19685.538073000022
 31
0.0
  0
LINE
  5
4407
  8
2-0
  6
CONTINUOUS
 62
     3
 10
19714.047797999981
 20
19655.534510000001
 30
0.0
 11
19720.051676999981
 21
19655.534510000001
 31
0.0
  0
LINE
  5
4408
  8
2-0
  6
CONTINUOUS
 62
     3
 10
20740.44528549998
 20
19673.538230999999
 30
0.0
 11
20740.44528549998
 21
19680.543747000011
 31
0.0
  0
LINE
  5
4409
  8
2-0
  6
CONTINUOUS
 62
     3
 10
20740.44528549998
 20
19680.543747000011
 30
0.0
 11
20745.445548499982
 21
19680.543747000011
 31
0.0
  0
LINE
  5
440A
  8
2-0
  6
CONTINUOUS
 62
     3
 10
20745.445548499982
 20
19680.543747000011
 30
0.0
 11
20745.445548499982
 21
19655.534510000001
 31
0.0
  0
LINE
  5
440B
  8
2-0
  6
CONTINUOUS
 62
     3
 10
20745.445548499982
 20
19655.534510000001
 30
0.0
 11
20727.45172549997
 21
19655.534510000001
 31
0.0
  0
LINE
  5
440C
  8
2-0
  6
CONTINUOUS
 62
     3
 10
20727.45172549997
 20
19655.534510000001
 30
0.0
 11
20727.45172549997
 21
19685.538073000022
 31
0.0
  0
LINE
  5
440D
  8
2-0
  6
CONTINUOUS
 62
     3
 10
20743.543231499971
 20
19655.534510000001
 30
0.0
 11
20737.54529049998
 21
19655.534510000001
 31
0.0
  0
LINE
  5
440E
  8
2-0
  6
CONTINUOUS
 62
     3
 10
20737.54529049998
 20
19655.534510000001
 30
0.0
 11
20737.54529049998
 21
19685.538073000022
 31
0.0
  0
LINE
  5
440F
  8
2-0
  6
CONTINUOUS
 62
     3
 10
20774.54645149998
 20
19685.538073000022
 30
0.0
 11
20737.54529049998
 21
19685.538073000022
 31
0.0
  0
LINE
  5
4410
  8
2-0
  6
CONTINUOUS
 62
     3
 10
20774.54645149998
 20
19655.534510000001
 30
0.0
 11
20774.54645149998
 21
19685.538073000022
 31
0.0
  0
LINE
  5
4411
  8
2-0
  6
CONTINUOUS
 62
     3
 10
20768.54059249998
 20
19655.534510000001
 30
0.0
 11
20774.54645149998
 21
19655.534510000001
 31
0.0
  0
LINE
  5
4412
  8
2-0
  6
CONTINUOUS
 62
     3
 10
20784.640016499969
 20
19655.534510000001
 30
0.0
 11
20784.640016499969
 21
19685.538073000022
 31
0.0
  0
LINE
  5
4413
  8
2-0
  6
CONTINUOUS
 62
     3
 10
20766.644213499982
 20
19655.534510000001
 30
0.0
 11
20784.640016499969
 21
19655.534510000001
 31
0.0
  0
LINE
  5
4414
  8
2-0
  6
CONTINUOUS
 62
     3
 10
20766.644213499982
 20
19680.543747000011
 30
0.0
 11
20766.644213499982
 21
19655.534510000001
 31
0.0
  0
LINE
  5
4415
  8
2-0
  6
CONTINUOUS
 62
     3
 10
20771.63457949998
 20
19680.543747000011
 30
0.0
 11
20766.644213499982
 21
19680.543747000011
 31
0.0
  0
LINE
  5
4416
  8
2-0
  6
CONTINUOUS
 62
     3
 10
20771.63457949998
 20
19673.538230999999
 30
0.0
 11
20771.63457949998
 21
19680.543747000011
 31
0.0
  0
LINE
  5
4417
  8
2-0
  6
CONTINUOUS
 62
     3
 10
20083.63902699999
 20
19685.538073000022
 30
0.0
 11
20727.45172549997
 21
19685.538073000022
 31
0.0
  0
LINE
  5
4418
  8
2-0
  6
CONTINUOUS
 62
     3
 10
21428.451724999992
 20
19685.538073000022
 30
0.0
 11
20784.640016499969
 21
19685.538073000022
 31
0.0
  0
LINE
  5
4419
  8
2-0
  6
CONTINUOUS
 62
     3
 10
19635.047190999969
 20
19576.537862000001
 30
0.0
 11
19635.047190999969
 21
19570.5419
 31
0.0
  0
LINE
  5
441A
  8
2-0
  6
CONTINUOUS
 62
     3
 10
19635.047190999969
 20
19570.5419
 30
0.0
 11
19605.049565999969
 21
19570.5419
 31
0.0
  0
LINE
  5
441B
  8
2-0
  6
CONTINUOUS
 62
     3
 10
19605.049565999969
 20
19570.5419
 30
0.0
 11
19605.049565999969
 21
19685.538073000022
 31
0.0
  0
LINE
  5
441C
  8
2-0
  6
CONTINUOUS
 62
     3
 10
19605.049565999969
 20
19600.541504000001
 30
0.0
 11
19686.047506999981
 21
19600.541504000001
 31
0.0
  0
LINE
  5
441D
  8
2-0
  6
CONTINUOUS
 62
     3
 10
19635.047190999969
 20
19560.244444
 30
0.0
 11
19605.049565999969
 21
19560.244444
 31
0.0
  0
LINE
  5
441E
  8
2-0
  6
CONTINUOUS
 62
     3
 10
19635.047190999969
 20
19578.246186000011
 30
0.0
 11
19635.047190999969
 21
19560.244444
 31
0.0
  0
LINE
  5
441F
  8
2-0
  6
CONTINUOUS
 62
     3
 10
19610.053788999969
 20
19578.246186000011
 30
0.0
 11
19635.047190999969
 21
19578.246186000011
 31
0.0
  0
LINE
  5
4420
  8
2-0
  6
CONTINUOUS
 62
     3
 10
19610.053788999969
 20
19573.238004000021
 30
0.0
 11
19610.053788999969
 21
19578.246186000011
 31
0.0
  0
LINE
  5
4421
  8
2-0
  6
CONTINUOUS
 62
     3
 10
19617.051386999949
 20
19573.238004000021
 30
0.0
 11
19610.053788999969
 21
19573.238004000021
 31
0.0
  0
LINE
  5
4422
  8
2-0
  6
CONTINUOUS
 62
     3
 10
19617.051386999949
 20
19219.941181499991
 30
0.0
 11
19610.053788999969
 21
19219.941181499991
 31
0.0
  0
LINE
  5
4423
  8
2-0
  6
CONTINUOUS
 62
     3
 10
19610.053788999969
 20
19219.941181499991
 30
0.0
 11
19610.053788999969
 21
19224.941445500001
 31
0.0
  0
LINE
  5
4424
  8
2-0
  6
CONTINUOUS
 62
     3
 10
19610.053788999969
 20
19224.941445500001
 30
0.0
 11
19635.047190999969
 21
19224.941445500001
 31
0.0
  0
LINE
  5
4425
  8
2-0
  6
CONTINUOUS
 62
     3
 10
19635.047190999969
 20
19224.941445500001
 30
0.0
 11
19635.047190999969
 21
19206.945641499991
 31
0.0
  0
LINE
  5
4426
  8
2-0
  6
CONTINUOUS
 62
     3
 10
19635.047190999969
 20
19206.945641499991
 30
0.0
 11
19605.049565999969
 21
19206.945641499991
 31
0.0
  0
LINE
  5
4427
  8
2-0
  6
CONTINUOUS
 62
     3
 10
19635.047190999969
 20
19223.037148499981
 30
0.0
 11
19635.047190999969
 21
19217.039207500002
 31
0.0
  0
LINE
  5
4428
  8
2-0
  6
CONTINUOUS
 62
     3
 10
19635.047190999969
 20
19217.039207500002
 30
0.0
 11
19605.049565999969
 21
19217.039207500002
 31
0.0
  0
LINE
  5
4429
  8
2-0
  6
CONTINUOUS
 62
     3
 10
19605.049565999969
 20
19217.039207500002
 30
0.0
 11
19605.049565999969
 21
19254.040368499991
 31
0.0
  0
LINE
  5
442A
  8
2-0
  6
CONTINUOUS
 62
     3
 10
19635.047190999969
 20
19254.040368499991
 30
0.0
 11
19605.049565999969
 21
19254.040368499991
 31
0.0
  0
LINE
  5
442B
  8
2-0
  6
CONTINUOUS
 62
     3
 10
19635.047190999969
 20
19248.036488499991
 30
0.0
 11
19635.047190999969
 21
19254.040368499991
 31
0.0
  0
LINE
  5
442C
  8
2-0
  6
CONTINUOUS
 62
     3
 10
19635.047190999969
 20
19264.135913499991
 30
0.0
 11
19605.049565999969
 21
19264.135913499991
 31
0.0
  0
LINE
  5
442D
  8
2-0
  6
CONTINUOUS
 62
     3
 10
19635.047190999969
 20
19246.134171500002
 30
0.0
 11
19635.047190999969
 21
19264.135913499991
 31
0.0
  0
LINE
  5
442E
  8
2-0
  6
CONTINUOUS
 62
     3
 10
19610.053788999969
 20
19246.134171500002
 30
0.0
 11
19635.047190999969
 21
19246.134171500002
 31
0.0
  0
LINE
  5
442F
  8
2-0
  6
CONTINUOUS
 62
     3
 10
19610.053788999969
 20
19251.134435499978
 30
0.0
 11
19610.053788999969
 21
19246.134171500002
 31
0.0
  0
LINE
  5
4430
  8
2-0
  6
CONTINUOUS
 62
     3
 10
19617.051386999949
 20
19251.134435499978
 30
0.0
 11
19610.053788999969
 21
19251.134435499978
 31
0.0
  0
LINE
  5
4431
  8
2-0
  6
CONTINUOUS
 62
     3
 10
19617.051386999949
 20
18518.940191999998
 30
0.0
 11
19610.053788999969
 21
18518.940191999998
 31
0.0
  0
LINE
  5
4432
  8
2-0
  6
CONTINUOUS
 62
     3
 10
19610.053788999969
 20
18518.940191999998
 30
0.0
 11
19610.053788999969
 21
18523.946393999991
 31
0.0
  0
LINE
  5
4433
  8
2-0
  6
CONTINUOUS
 62
     3
 10
19610.053788999969
 20
18523.946393999991
 30
0.0
 11
19635.047190999969
 21
18523.946393999991
 31
0.0
  0
LINE
  5
4434
  8
2-0
  6
CONTINUOUS
 62
     3
 10
19635.047190999969
 20
18523.946393999991
 30
0.0
 11
19635.047190999969
 21
18505.944651999998
 31
0.0
  0
LINE
  5
4435
  8
2-0
  6
CONTINUOUS
 62
     3
 10
19635.047190999969
 20
18505.944651999998
 30
0.0
 11
19605.049565999969
 21
18505.944651999998
 31
0.0
  0
LINE
  5
4436
  8
2-0
  6
CONTINUOUS
 62
     3
 10
19635.047190999969
 20
18522.036158999981
 30
0.0
 11
19635.047190999969
 21
18516.040196999991
 31
0.0
  0
LINE
  5
4437
  8
2-0
  6
CONTINUOUS
 62
     3
 10
19635.047190999969
 20
18516.040196999991
 30
0.0
 11
19605.049565999969
 21
18516.040196999991
 31
0.0
  0
LINE
  5
4438
  8
2-0
  6
CONTINUOUS
 62
     3
 10
19605.049565999969
 20
18516.040196999991
 30
0.0
 11
19605.049565999969
 21
18553.039379000002
 31
0.0
  0
LINE
  5
4439
  8
2-0
  6
CONTINUOUS
 62
     3
 10
19635.047190999969
 20
18553.039379000002
 30
0.0
 11
19605.049565999969
 21
18553.039379000002
 31
0.0
  0
LINE
  5
443A
  8
2-0
  6
CONTINUOUS
 62
     3
 10
19635.047190999969
 20
18547.043416999979
 30
0.0
 11
19635.047190999969
 21
18553.039379000002
 31
0.0
  0
LINE
  5
443B
  8
2-0
  6
CONTINUOUS
 62
     3
 10
19635.047190999969
 20
18563.134924000002
 30
0.0
 11
19605.049565999969
 21
18563.134924000002
 31
0.0
  0
LINE
  5
443C
  8
2-0
  6
CONTINUOUS
 62
     3
 10
19635.047190999969
 20
18545.133182000001
 30
0.0
 11
19635.047190999969
 21
18563.134924000002
 31
0.0
  0
LINE
  5
443D
  8
2-0
  6
CONTINUOUS
 62
     3
 10
19610.053788999969
 20
18545.133182000001
 30
0.0
 11
19635.047190999969
 21
18545.133182000001
 31
0.0
  0
LINE
  5
443E
  8
2-0
  6
CONTINUOUS
 62
     3
 10
19610.053788999969
 20
18550.139383999991
 30
0.0
 11
19610.053788999969
 21
18545.133182000001
 31
0.0
  0
LINE
  5
443F
  8
2-0
  6
CONTINUOUS
 62
     3
 10
19617.051386999949
 20
18550.139383999991
 30
0.0
 11
19610.053788999969
 21
18550.139383999991
 31
0.0
  0
LINE
  5
4440
  8
2-0
  6
CONTINUOUS
 62
     3
 10
19617.051386999949
 20
17849.133446
 30
0.0
 11
19610.053788999969
 21
17849.133446
 31
0.0
  0
LINE
  5
4441
  8
2-0
  6
CONTINUOUS
 62
     3
 10
19610.053788999969
 20
17849.133446
 30
0.0
 11
19610.053788999969
 21
17844.145058999991
 31
0.0
  0
LINE
  5
4442
  8
2-0
  6
CONTINUOUS
 62
     3
 10
19610.053788999969
 20
17844.145058999991
 30
0.0
 11
19635.047190999969
 21
17844.145058999991
 31
0.0
  0
LINE
  5
4443
  8
2-0
  6
CONTINUOUS
 62
     3
 10
19635.047190999969
 20
17844.145058999991
 30
0.0
 11
19635.047190999969
 21
17862.140862
 31
0.0
  0
LINE
  5
4444
  8
2-0
  6
CONTINUOUS
 62
     3
 10
19635.047190999969
 20
17862.140862
 30
0.0
 11
19605.049565999969
 21
17862.140862
 31
0.0
  0
LINE
  5
4445
  8
2-0
  6
CONTINUOUS
 62
     3
 10
19635.047190999969
 20
17846.04341699999
 30
0.0
 11
19635.047190999969
 21
17852.039378999991
 31
0.0
  0
LINE
  5
4446
  8
2-0
  6
CONTINUOUS
 62
     3
 10
19635.047190999969
 20
17852.039378999991
 30
0.0
 11
19605.049565999969
 21
17852.039378999991
 31
0.0
  0
LINE
  5
4447
  8
2-0
  6
CONTINUOUS
 62
     3
 10
19605.049565999969
 20
17852.039378999991
 30
0.0
 11
19605.049565999969
 21
17815.040196999991
 31
0.0
  0
LINE
  5
4448
  8
2-0
  6
CONTINUOUS
 62
     3
 10
19635.047190999969
 20
17815.040196999991
 30
0.0
 11
19605.049565999969
 21
17815.040196999991
 31
0.0
  0
LINE
  5
4449
  8
2-0
  6
CONTINUOUS
 62
     3
 10
19635.047190999969
 20
17821.042097999991
 30
0.0
 11
19635.047190999969
 21
17815.040196999991
 31
0.0
  0
LINE
  5
444A
  8
2-0
  6
CONTINUOUS
 62
     3
 10
19635.047190999969
 20
17804.950591000001
 30
0.0
 11
19605.049565999969
 21
17804.950591000001
 31
0.0
  0
LINE
  5
444B
  8
2-0
  6
CONTINUOUS
 62
     3
 10
19635.047190999969
 20
17822.946393999991
 30
0.0
 11
19635.047190999969
 21
17804.950591000001
 31
0.0
  0
LINE
  5
444C
  8
2-0
  6
CONTINUOUS
 62
     3
 10
19610.053788999969
 20
17822.946393999991
 30
0.0
 11
19635.047190999969
 21
17822.946393999991
 31
0.0
  0
LINE
  5
444D
  8
2-0
  6
CONTINUOUS
 62
     3
 10
19610.053788999969
 20
17817.946131000001
 30
0.0
 11
19610.053788999969
 21
17822.946393999991
 31
0.0
  0
LINE
  5
444E
  8
2-0
  6
CONTINUOUS
 62
     3
 10
19617.051386999949
 20
17817.946131000001
 30
0.0
 11
19610.053788999969
 21
17817.946131000001
 31
0.0
  0
LINE
  5
444F
  8
2-0
  6
CONTINUOUS
 62
     3
 10
19607.935703999981
 20
17098.037016999999
 30
0.0
 11
19607.935703999981
 21
17118.038071999988
 31
0.0
  0
LINE
  5
4450
  8
2-0
  6
CONTINUOUS
 62
     3
 10
19607.935703999981
 20
17118.038071999988
 30
0.0
 11
19692.93623199996
 21
17118.038071999988
 31
0.0
  0
LINE
  5
4451
  8
2-0
  6
CONTINUOUS
 62
     3
 10
19617.051386999949
 20
17144.64478200001
 30
0.0
 11
19610.053788999969
 21
17144.64478200001
 31
0.0
  0
LINE
  5
4452
  8
2-0
  6
CONTINUOUS
 62
     3
 10
19610.053788999969
 20
17144.64478200001
 30
0.0
 11
19610.053788999969
 21
17139.65045600001
 31
0.0
  0
LINE
  5
4453
  8
2-0
  6
CONTINUOUS
 62
     3
 10
19610.053788999969
 20
17139.65045600001
 30
0.0
 11
19635.047190999969
 21
17139.65045600001
 31
0.0
  0
LINE
  5
4454
  8
2-0
  6
CONTINUOUS
 62
     3
 10
19635.047190999969
 20
17139.65045600001
 30
0.0
 11
19635.047190999969
 21
17157.646260000001
 31
0.0
  0
LINE
  5
4455
  8
2-0
  6
CONTINUOUS
 62
     3
 10
19635.047190999969
 20
17157.646260000001
 30
0.0
 11
19605.049565999969
 21
17157.646260000001
 31
0.0
  0
LINE
  5
4456
  8
2-0
  6
CONTINUOUS
 62
     3
 10
19635.047190999969
 20
17148.037676
 30
0.0
 11
19635.047190999969
 21
17142.035776000001
 31
0.0
  0
LINE
  5
4457
  8
2-0
  6
CONTINUOUS
 62
     3
 10
19605.049565999969
 20
17148.037676
 30
0.0
 11
19635.047190999969
 21
17148.037676
 31
0.0
  0
LINE
  5
4458
  8
2-0
  6
CONTINUOUS
 62
     3
 10
19605.049565999969
 20
17157.646260000001
 30
0.0
 11
19605.049565999969
 21
17804.950591000001
 31
0.0
  0
LINE
  5
4459
  8
2-0
  6
CONTINUOUS
 62
     3
 10
19605.049565999969
 20
17862.140862
 30
0.0
 11
19605.049565999969
 21
18505.944651999998
 31
0.0
  0
LINE
  5
445A
  8
2-0
  6
CONTINUOUS
 62
     3
 10
19605.049565999969
 20
17003.035961000009
 30
0.0
 11
19635.047190999969
 21
17003.035961000009
 31
0.0
  0
LINE
  5
445B
  8
2-0
  6
CONTINUOUS
 62
     3
 10
19635.047190999969
 20
17003.035961000009
 30
0.0
 11
19635.047190999969
 21
17009.037861000012
 31
0.0
  0
LINE
  5
445C
  8
2-0
  6
CONTINUOUS
 62
     3
 10
19692.93623199996
 20
17033.041504000012
 30
0.0
 11
19607.935703999981
 21
17033.041504000012
 31
0.0
  0
LINE
  5
445D
  8
2-0
  6
CONTINUOUS
 62
     3
 10
19607.935703999981
 20
17033.041504000012
 30
0.0
 11
19607.935703999981
 21
17053.03662100001
 31
0.0
  0
LINE
  5
445E
  8
2-0
  6
CONTINUOUS
 62
     3
 10
19635.047190999969
 20
16993.427378000011
 30
0.0
 11
19605.049565999969
 21
16993.427378000011
 31
0.0
  0
LINE
  5
445F
  8
2-0
  6
CONTINUOUS
 62
     3
 10
19635.047190999969
 20
17011.423180999991
 30
0.0
 11
19635.047190999969
 21
16993.427378000011
 31
0.0
  0
LINE
  5
4460
  8
2-0
  6
CONTINUOUS
 62
     3
 10
19610.053788999969
 20
17011.423180999991
 30
0.0
 11
19635.047190999969
 21
17011.423180999991
 31
0.0
  0
LINE
  5
4461
  8
2-0
  6
CONTINUOUS
 62
     3
 10
19610.053788999969
 20
17006.422917000011
 30
0.0
 11
19610.053788999969
 21
17011.423180999991
 31
0.0
  0
LINE
  5
4462
  8
2-0
  6
CONTINUOUS
 62
     3
 10
19617.051386999949
 20
17006.422917000011
 30
0.0
 11
19610.053788999969
 21
17006.422917000011
 31
0.0
  0
LINE
  5
4463
  8
2-0
  6
CONTINUOUS
 62
     3
 10
19617.051386999949
 20
16301.94068649998
 30
0.0
 11
19610.053788999969
 21
16301.94068649998
 31
0.0
  0
LINE
  5
4464
  8
2-0
  6
CONTINUOUS
 62
     3
 10
19610.053788999969
 20
16301.94068649998
 30
0.0
 11
19610.053788999969
 21
16306.94095049998
 31
0.0
  0
LINE
  5
4465
  8
2-0
  6
CONTINUOUS
 62
     3
 10
19610.053788999969
 20
16306.94095049998
 30
0.0
 11
19635.047190999969
 21
16306.94095049998
 31
0.0
  0
LINE
  5
4466
  8
2-0
  6
CONTINUOUS
 62
     3
 10
19635.047190999969
 20
16306.94095049998
 30
0.0
 11
19635.047190999969
 21
16288.9392085
 31
0.0
  0
LINE
  5
4467
  8
2-0
  6
CONTINUOUS
 62
     3
 10
19635.047190999969
 20
16288.9392085
 30
0.0
 11
19605.049565999969
 21
16288.9392085
 31
0.0
  0
LINE
  5
4468
  8
2-0
  6
CONTINUOUS
 62
     3
 10
19635.047190999969
 20
16305.036653499999
 30
0.0
 11
19635.047190999969
 21
16299.0397025
 31
0.0
  0
LINE
  5
4469
  8
2-0
  6
CONTINUOUS
 62
     3
 10
19635.047190999969
 20
16299.0397025
 30
0.0
 11
19605.049565999969
 21
16299.0397025
 31
0.0
  0
LINE
  5
446A
  8
2-0
  6
CONTINUOUS
 62
     3
 10
19605.049565999969
 20
16299.0397025
 30
0.0
 11
19605.049565999969
 21
16336.0398735
 31
0.0
  0
LINE
  5
446B
  8
2-0
  6
CONTINUOUS
 62
     3
 10
19635.047190999969
 20
16336.0398735
 30
0.0
 11
19605.049565999969
 21
16336.0398735
 31
0.0
  0
LINE
  5
446C
  8
2-0
  6
CONTINUOUS
 62
     3
 10
19635.047190999969
 20
16330.0369835
 30
0.0
 11
19635.047190999969
 21
16336.0398735
 31
0.0
  0
LINE
  5
446D
  8
2-0
  6
CONTINUOUS
 62
     3
 10
19635.047190999969
 20
16346.135418499989
 30
0.0
 11
19605.049565999969
 21
16346.135418499989
 31
0.0
  0
LINE
  5
446E
  8
2-0
  6
CONTINUOUS
 62
     3
 10
19635.047190999969
 20
16328.127737500001
 30
0.0
 11
19635.047190999969
 21
16346.135418499989
 31
0.0
  0
LINE
  5
446F
  8
2-0
  6
CONTINUOUS
 62
     3
 10
19610.053788999969
 20
16328.127737500001
 30
0.0
 11
19635.047190999969
 21
16328.127737500001
 31
0.0
  0
LINE
  5
4470
  8
2-0
  6
CONTINUOUS
 62
     3
 10
19610.053788999969
 20
16333.133940499991
 30
0.0
 11
19610.053788999969
 21
16328.127737500001
 31
0.0
  0
LINE
  5
4471
  8
2-0
  6
CONTINUOUS
 62
     3
 10
19617.051386999949
 20
16333.133940499991
 30
0.0
 11
19610.053788999969
 21
16333.133940499991
 31
0.0
  0
LINE
  5
4472
  8
2-0
  6
CONTINUOUS
 62
     3
 10
19617.051386999949
 20
15632.373957
 30
0.0
 11
19610.053788999969
 21
15632.373957
 31
0.0
  0
LINE
  5
4473
  8
2-0
  6
CONTINUOUS
 62
     3
 10
19610.053788999969
 20
15632.373957
 30
0.0
 11
19610.053788999969
 21
15627.379632
 31
0.0
  0
LINE
  5
4474
  8
2-0
  6
CONTINUOUS
 62
     3
 10
19610.053788999969
 20
15627.379632
 30
0.0
 11
19635.047190999969
 21
15627.379632
 31
0.0
  0
LINE
  5
4475
  8
2-0
  6
CONTINUOUS
 62
     3
 10
19635.047190999969
 20
15627.379632
 30
0.0
 11
19635.047190999969
 21
15645.375435000011
 31
0.0
  0
LINE
  5
4476
  8
2-0
  6
CONTINUOUS
 62
     3
 10
19635.047190999969
 20
15645.375435000011
 30
0.0
 11
19605.049565999969
 21
15645.375435000011
 31
0.0
  0
LINE
  5
4477
  8
2-0
  6
CONTINUOUS
 62
     3
 10
19635.047190999969
 20
15629.277990000001
 30
0.0
 11
19635.047190999969
 21
15635.27989000002
 31
0.0
  0
LINE
  5
4478
  8
2-0
  6
CONTINUOUS
 62
     3
 10
19635.047190999969
 20
15635.27989000002
 30
0.0
 11
19605.049565999969
 21
15635.27989000002
 31
0.0
  0
LINE
  5
4479
  8
2-0
  6
CONTINUOUS
 62
     3
 10
19605.049565999969
 20
15598.280709000001
 30
0.0
 11
19605.049565999969
 21
15635.27989000002
 31
0.0
  0
LINE
  5
447A
  8
2-0
  6
CONTINUOUS
 62
     3
 10
19635.047190999969
 20
15598.280709000001
 30
0.0
 11
19605.049565999969
 21
15598.280709000001
 31
0.0
  0
LINE
  5
447B
  8
2-0
  6
CONTINUOUS
 62
     3
 10
19635.047190999969
 20
15604.27766
 30
0.0
 11
19635.047190999969
 21
15598.280709000001
 31
0.0
  0
LINE
  5
447C
  8
2-0
  6
CONTINUOUS
 62
     3
 10
19635.047190999969
 20
15588.179225
 30
0.0
 11
19605.049565999969
 21
15588.179225
 31
0.0
  0
LINE
  5
447D
  8
2-0
  6
CONTINUOUS
 62
     3
 10
19635.047190999969
 20
15606.186906000001
 30
0.0
 11
19635.047190999969
 21
15588.179225
 31
0.0
  0
LINE
  5
447E
  8
2-0
  6
CONTINUOUS
 62
     3
 10
19610.053788999969
 20
15606.186906000001
 30
0.0
 11
19635.047190999969
 21
15606.186906000001
 31
0.0
  0
LINE
  5
447F
  8
2-0
  6
CONTINUOUS
 62
     3
 10
19610.053788999969
 20
15601.186642000001
 30
0.0
 11
19610.053788999969
 21
15606.186906000001
 31
0.0
  0
LINE
  5
4480
  8
2-0
  6
CONTINUOUS
 62
     3
 10
19617.051386999949
 20
15601.186642000001
 30
0.0
 11
19610.053788999969
 21
15601.186642000001
 31
0.0
  0
LINE
  5
4481
  8
2-0
  6
CONTINUOUS
 62
     3
 10
19605.049565999969
 20
16993.427378000011
 30
0.0
 11
19605.049565999969
 21
16346.135418499989
 31
0.0
  0
LINE
  5
4482
  8
2-0
  6
CONTINUOUS
 62
     3
 10
19605.049565999969
 20
17148.037676
 30
0.0
 11
19605.049565999969
 21
17003.035961000009
 31
0.0
  0
LINE
  5
4483
  8
2-0
  6
CONTINUOUS
 62
     3
 10
19692.93623199996
 20
17118.038071999988
 30
0.0
 11
19692.93623199996
 21
17033.041504000012
 31
0.0
  0
LINE
  5
4484
  8
2-0
  6
CONTINUOUS
 62
     3
 10
19635.047190999969
 20
14574.541714999999
 30
0.0
 11
19635.047190999969
 21
14580.546584
 31
0.0
  0
LINE
  5
4485
  8
2-0
  6
CONTINUOUS
 62
     3
 10
19635.047190999969
 20
14580.546584
 30
0.0
 11
19605.049565999969
 21
14580.546584
 31
0.0
  0
LINE
  5
4486
  8
2-0
  6
CONTINUOUS
 62
     3
 10
19605.049565999969
 20
14580.546584
 30
0.0
 11
19605.049565999969
 21
14465.542493000001
 31
0.0
  0
LINE
  5
4487
  8
2-0
  6
CONTINUOUS
 62
     3
 10
19605.049565999969
 20
14465.542493000001
 30
0.0
 11
19690.048113999961
 21
14465.542493000001
 31
0.0
  0
LINE
  5
4488
  8
2-0
  6
CONTINUOUS
 62
     3
 10
19690.048113999961
 20
14465.542493000001
 30
0.0
 11
19690.048113999961
 21
14550.538071999999
 31
0.0
  0
LINE
  5
4489
  8
2-0
  6
CONTINUOUS
 62
     3
 10
19690.048113999961
 20
14550.538071999999
 30
0.0
 11
19658.051175999939
 21
14550.538071999999
 31
0.0
  0
LINE
  5
448A
  8
2-0
  6
CONTINUOUS
 62
     3
 10
19617.051386999949
 20
14577.576316999999
 30
0.0
 11
19610.053788999969
 21
14577.576316999999
 31
0.0
  0
LINE
  5
448B
  8
2-0
  6
CONTINUOUS
 62
     3
 10
19610.053788999969
 20
14577.576316999999
 30
0.0
 11
19610.053788999969
 21
14572.57902199998
 31
0.0
  0
LINE
  5
448C
  8
2-0
  6
CONTINUOUS
 62
     3
 10
19610.053788999969
 20
14572.57902199998
 30
0.0
 11
19635.047190999969
 21
14572.57902199998
 31
0.0
  0
LINE
  5
448D
  8
2-0
  6
CONTINUOUS
 62
     3
 10
19635.047190999969
 20
14572.57902199998
 30
0.0
 11
19635.047190999969
 21
14590.57779499999
 31
0.0
  0
LINE
  5
448E
  8
2-0
  6
CONTINUOUS
 62
     3
 10
19635.047190999969
 20
14590.57779499999
 30
0.0
 11
19605.049565999969
 21
14590.57779499999
 31
0.0
  0
LINE
  5
448F
  8
2-0
  6
CONTINUOUS
 62
     3
 10
19605.049565999969
 20
14590.57779499999
 30
0.0
 11
19605.049565999969
 21
14887.179225
 31
0.0
  0
LINE
  5
4490
  8
2-0
  6
CONTINUOUS
 62
     3
 10
19605.049565999969
 20
18563.134924000002
 30
0.0
 11
19605.049565999969
 21
19206.945641499991
 31
0.0
  0
LINE
  5
4491
  8
2-0
  6
CONTINUOUS
 62
     3
 10
19696.051993999961
 20
18492.038533999981
 30
0.0
 11
19649.048324999982
 21
18492.038533999981
 31
0.0
  0
LINE
  5
4492
  8
2-0
  6
CONTINUOUS
 62
     3
 10
19649.048324999982
 20
18577.039062
 30
0.0
 11
19696.051993999961
 21
18577.039062
 31
0.0
  0
LINE
  5
4493
  8
2-0
  6
CONTINUOUS
 62
     3
 10
19649.048324999982
 20
18492.038533999981
 30
0.0
 11
19649.048324999982
 21
18517.041832999999
 31
0.0
  0
LINE
  5
4494
  8
2-0
  6
CONTINUOUS
 62
     3
 10
19649.048324999982
 20
18552.037742000011
 30
0.0
 11
19649.048324999982
 21
18577.039062
 31
0.0
  0
LINE
  5
4495
  8
2-0
  6
CONTINUOUS
 62
     3
 10
19696.051993999961
 20
18577.039062
 30
0.0
 11
19696.051993999961
 21
18492.038533999981
 31
0.0
  0
LINE
  5
4496
  8
2-0
  6
CONTINUOUS
 62
     3
 10
19605.049565999969
 20
16288.9392085
 30
0.0
 11
19605.049565999969
 21
15645.375435000011
 31
0.0
  0
LINE
  5
4497
  8
2-0
  6
CONTINUOUS
 62
     3
 10
19696.051993999961
 20
15574.041504000001
 30
0.0
 11
19649.048324999982
 21
15574.041504000001
 31
0.0
  0
LINE
  5
4498
  8
2-0
  6
CONTINUOUS
 62
     3
 10
19649.048324999982
 20
15659.03807199999
 30
0.0
 11
19696.051993999961
 21
15659.03807199999
 31
0.0
  0
LINE
  5
4499
  8
2-0
  6
CONTINUOUS
 62
     3
 10
19649.048324999982
 20
15574.041504000001
 30
0.0
 11
19649.048324999982
 21
15599.03688500001
 31
0.0
  0
LINE
  5
449A
  8
2-0
  6
CONTINUOUS
 62
     3
 10
19649.048324999982
 20
15634.036753
 30
0.0
 11
19649.048324999982
 21
15659.03807199999
 31
0.0
  0
LINE
  5
449B
  8
2-0
  6
CONTINUOUS
 62
     3
 10
19696.051993999961
 20
15659.03807199999
 30
0.0
 11
19696.051993999961
 21
15574.041504000001
 31
0.0
  0
LINE
  5
449C
  8
2-0
  6
CONTINUOUS
 62
     3
 10
24825.044154999981
 20
19570.5419
 30
0.0
 11
24825.044154999981
 21
19685.538073000022
 31
0.0
  0
LINE
  5
449D
  8
2-0
  6
CENTER2
 62
     6
 10
18318.091293999969
 20
19643.039787999991
 30
0.0
 11
25675.045474999992
 21
19643.039787999991
 31
0.0
  0
LINE
  5
449E
  8
2-0
  6
CENTER2
 62
     6
 10
18318.091293999969
 20
17075.53978799998
 30
0.0
 11
25675.045474999992
 21
17075.53978799998
 31
0.0
  0
LINE
  5
449F
  8
2-0
  6
CENTER2
 62
     6
 10
18318.091293999969
 20
14508.039787999989
 30
0.0
 11
25675.045474999992
 21
14508.039787999989
 31
0.0
  0
LINE
  5
44A0
  8
2-0
  6
CONTINUOUS
 62
     3
 10
20070.637548999981
 20
19673.538230999999
 30
0.0
 11
20070.637548999981
 21
19680.543747000011
 31
0.0
  0
LINE
  5
44A1
  8
2-0
  6
CONTINUOUS
 62
     3
 10
20070.637548999981
 20
19680.543747000011
 30
0.0
 11
20065.637284999972
 21
19680.543747000011
 31
0.0
  0
LINE
  5
44A2
  8
2-0
  6
CONTINUOUS
 62
     3
 10
20065.637284999972
 20
19680.543747000011
 30
0.0
 11
20065.637284999972
 21
19655.534510000001
 31
0.0
  0
LINE
  5
44A3
  8
2-0
  6
CONTINUOUS
 62
     3
 10
20065.637284999972
 20
19655.534510000001
 30
0.0
 11
20083.63902699999
 21
19655.534510000001
 31
0.0
  0
LINE
  5
44A4
  8
2-0
  6
CONTINUOUS
 62
     3
 10
20083.63902699999
 20
19655.534510000001
 30
0.0
 11
20083.63902699999
 21
19685.538073000022
 31
0.0
  0
LINE
  5
44A5
  8
2-0
  6
CONTINUOUS
 62
     3
 10
20067.53960199999
 20
19655.534510000001
 30
0.0
 11
20073.543481999968
 21
19655.534510000001
 31
0.0
  0
LINE
  5
44A6
  8
2-0
  6
CONTINUOUS
 62
     3
 10
20073.543481999968
 20
19655.534510000001
 30
0.0
 11
20073.543481999968
 21
19685.538073000022
 31
0.0
  0
LINE
  5
44A7
  8
2-0
  6
CONTINUOUS
 62
     3
 10
20036.54825999996
 20
19685.538073000022
 30
0.0
 11
20073.543481999968
 21
19685.538073000022
 31
0.0
  0
LINE
  5
44A8
  8
2-0
  6
CONTINUOUS
 62
     3
 10
20036.54825999996
 20
19655.534510000001
 30
0.0
 11
20036.54825999996
 21
19685.538073000022
 31
0.0
  0
LINE
  5
44A9
  8
2-0
  6
CONTINUOUS
 62
     3
 10
20042.542241999981
 20
19655.534510000001
 30
0.0
 11
20036.54825999996
 21
19655.534510000001
 31
0.0
  0
LINE
  5
44AA
  8
2-0
  6
CONTINUOUS
 62
     3
 10
20026.452714999989
 20
19655.534510000001
 30
0.0
 11
20026.452714999989
 21
19685.538073000022
 31
0.0
  0
LINE
  5
44AB
  8
2-0
  6
CONTINUOUS
 62
     3
 10
20044.44851799999
 20
19655.534510000001
 30
0.0
 11
20026.452714999989
 21
19655.534510000001
 31
0.0
  0
LINE
  5
44AC
  8
2-0
  6
CONTINUOUS
 62
     3
 10
20044.44851799999
 20
19680.543747000011
 30
0.0
 11
20044.44851799999
 21
19655.534510000001
 31
0.0
  0
LINE
  5
44AD
  8
2-0
  6
CONTINUOUS
 62
     3
 10
20039.450233999989
 20
19680.543747000011
 30
0.0
 11
20044.44851799999
 21
19680.543747000011
 31
0.0
  0
LINE
  5
44AE
  8
2-0
  6
CONTINUOUS
 62
     3
 10
20039.450233999989
 20
19673.538230999999
 30
0.0
 11
20039.450233999989
 21
19680.543747000011
 31
0.0
  0
LINE
  5
44AF
  8
2-0
  6
CONTINUOUS
 62
     3
 10
19730.351112999961
 20
19685.538073000022
 30
0.0
 11
20026.452714999989
 21
19685.538073000022
 31
0.0
  0
LINE
  5
44B0
  8
2-0
  6
CONTINUOUS
 62
     3
 10
19605.049565999969
 20
19600.541504000001
 30
0.0
 11
24744.04225499996
 21
19600.541504000001
 31
0.0
  0
LINE
  5
44B1
  8
2-0
  6
CENTER2
 62
     6
 10
19647.54587099998
 20
20885.538073000022
 30
0.0
 11
19647.54587099998
 21
13882.276354
 31
0.0
  0
LINE
  5
44B2
  8
2-0
  6
CENTER2
 62
     6
 10
24782.54587099998
 20
20885.538073000022
 30
0.0
 11
24782.54587099998
 21
13882.276354
 31
0.0
  0
LINE
  5
44B3
  8
2-0
  6
CONTINUOUS
 62
     3
 10
24825.044154999981
 20
19560.244444
 30
0.0
 11
24825.044154999981
 21
19264.135913499991
 31
0.0
  0
LINE
  5
44B4
  8
2-0
  6
CONTINUOUS
 62
     3
 10
19605.049565999969
 20
19560.244444
 30
0.0
 11
19605.049565999969
 21
19264.135913499991
 31
0.0
  0
LINE
  5
44B5
  8
2-0
  6
CENTER2
 62
     6
 10
22215.04587099998
 20
20885.538073000022
 30
0.0
 11
22215.04587099998
 21
14316.635186999991
 31
0.0
  0
LINE
  5
44B6
  8
2-0
  6
CONTINUOUS
 62
     3
 10
19686.047506999981
 20
14550.538071999999
 30
0.0
 11
19686.047506999981
 21
19685.538073000022
 31
0.0
  0
LINE
  5
44B7
  8
2-0
  6
CONTINUOUS
 62
     3
 10
24744.04225499996
 20
14550.538071999999
 30
0.0
 11
24744.04225499996
 21
19685.538073000022
 31
0.0
  0
CIRCLE
  5
44B8
  8
2-0
  6
CONTINUOUS
 62
     4
 10
18118.093603999969
 20
19643.039787999991
 30
0.0
 40
200.00001
  0
CIRCLE
  5
44B9
  8
2-0
  6
CONTINUOUS
 62
     4
 10
18118.093603999969
 20
17075.53978799998
 30
0.0
 40
200.00001
  0
CIRCLE
  5
44BA
  8
2-0
  6
CONTINUOUS
 62
     4
 10
18118.093603999969
 20
14508.039787999989
 30
0.0
 40
200.00001
  0
CIRCLE
  5
44BB
  8
2-0
  6
CONTINUOUS
 62
     4
 10
22215.04587099998
 20
21085.542692000021
 30
0.0
 40
200.00001
  0
CIRCLE
  5
44BC
  8
2-0
  6
CONTINUOUS
 62
     4
 10
19647.54587099998
 20
21085.542692000021
 30
0.0
 40
200.00001
  0
TEXT
  5
44BD
  8
2-0
  6
CONTINUOUS
 62
     7
 10
23179.391177999969
 20
13948.04091
 30
0.0
 40
160.0
  1
前柱（右）
 50
0.000213
 72
     4
 11
23595.39088059299
 21
14028.042456500791
 31
0.0
  0
TEXT
  5
44BE
  8
2-0
  6
CONTINUOUS
 62
     7
 10
23196.090396999971
 20
18276.662953999999
 30
0.0
 40
160.0
  1
補強柱 後
 50
359.99984199999989
 72
     4
 11
23606.757284274689
 21
18356.661821536989
 31
0.0
  0
TEXT
  5
44BF
  8
2-0
  6
CONTINUOUS
 62
     7
 10
23383.986300999972
 20
16526.032926000022
 30
0.0
 40
160.0
  1
壁パネル
 50
359.99982299999999
 72
     4
 11
23746.653214803529
 21
16606.031805637889
 31
0.0
  0
TEXT
  5
44C0
  8
2-0
  6
CONTINUOUS
 62
     7
 10
23103.983396999982
 20
17363.220822000021
 30
0.0
 40
160.0
  1
中柱（左右）
 50
0.000354
 72
     4
 11
23621.31623604619
 21
17443.224018324669
 31
0.0
  0
TEXT
  5
44C1
  8
2-0
  6
CONTINUOUS
 62
     7
 10
23783.98564099997
 20
14921.082175999991
 30
0.0
 40
160.0
  1
下枠
 50
0.001063
 72
     4
 11
23954.650823409269
 21
15001.08534233928
 31
0.0
  0
TEXT
  5
44C2
  8
2-0
  6
CONTINUOUS
 62
     7
 10
23196.09039699996
 20
15358.903465000019
 30
0.0
 40
160.0
  1
補強柱 前
 50
359.99937
 72
     4
 11
23606.75794328775
 21
15438.89894947934
 31
0.0
  0
TEXT
  5
44C3
  8
2-0
  6
CONTINUOUS
 62
     7
 10
25597.541383999971
 20
20495.537281000012
 30
0.0
 40
160.0
  1
後柱（左右）
 50
0.000354
 72
     4
 11
26109.54088971296
 21
20575.540444372851
 31
0.0
  0
TEXT
  5
44C4
  8
2-0
  6
CONTINUOUS
 62
     7
 10
22614.134632999991
 20
15085.878087999979
 30
0.0
 40
160.0
  1
前柱（中）
 72
     4
 11
23030.134632999991
 21
15165.878087999979
 31
0.0
  0
TEXT
  5
44C5
  8
2-0
  6
CONTINUOUS
 62
     7
 10
21050.914746999981
 20
19048.420120000021
 30
0.0
 40
160.0
  1
間柱（後）
 72
     4
 11
21472.248080333309
 21
19128.420120000021
 31
0.0
  0
TEXT
  5
44C6
  8
2-0
  6
CONTINUOUS
 62
     7
 10
22485.339236
 20
19117.164841000009
 30
0.0
 40
160.0
  1
後柱（中）
 72
     4
 11
22901.339236
 21
19197.164841000009
 31
0.0
  0
TEXT
  5
44C7
  8
2-0
  6
CONTINUOUS
 62
     7
 10
18070.094236999968
 20
19548.55934600002
 30
0.0
 40
160.0
  1
C
 72
     4
 11
18123.427570333301
 21
19628.55934600002
 31
0.0
  0
TEXT
  5
44C8
  8
2-0
  6
CONTINUOUS
 62
     7
 10
18070.314952999979
 20
17005.145706000021
 30
0.0
 40
160.0
  1
B
 72
     4
 11
18123.648286333311
 21
17085.145706000021
 31
0.0
  0
TEXT
  5
44C9
  8
2-0
  6
CONTINUOUS
 62
     7
 10
18070.357512999959
 20
14419.432577
 30
0.0
 40
160.0
  1
A
 72
     4
 11
18123.690846333298
 21
14499.432577
 31
0.0
  0
TEXT
  5
44CA
  8
2-0
  6
CONTINUOUS
 62
     7
 10
22163.41408799998
 20
20990.017063000021
 30
0.0
 40
160.0
  1
2
 72
     4
 11
22216.747421333312
 21
21070.017063000021
 31
0.0
  0
TEXT
  5
44CB
  8
2-0
  6
CONTINUOUS
 62
     7
 10
19603.339261999969
 20
20996.775140000031
 30
0.0
 40
160.0
  1
1
 72
     4
 11
19630.00592866664
 21
21076.775140000031
 31
0.0
  0
LINE
  5
44CC
  8
2-0
  6
CONTINUOUS
 62
     3
 10
24043.04645199998
 20
19685.538073000022
 30
0.0
 11
24006.045289999969
 21
19685.538073000022
 31
0.0
  0
LINE
  5
44CD
  8
2-0
  6
CONTINUOUS
 62
     3
 10
24043.04645199998
 20
19655.534510000001
 30
0.0
 11
24043.04645199998
 21
19685.538073000022
 31
0.0
  0
LINE
  5
44CE
  8
2-0
  6
CONTINUOUS
 62
     3
 10
24037.046530999971
 20
19655.534510000001
 30
0.0
 11
24043.04645199998
 21
19655.534510000001
 31
0.0
  0
LINE
  5
44CF
  8
2-0
  6
CONTINUOUS
 62
     3
 10
24053.143975999981
 20
19655.534510000001
 30
0.0
 11
24053.143975999981
 21
19685.538073000022
 31
0.0
  0
LINE
  5
44D0
  8
2-0
  6
CONTINUOUS
 62
     3
 10
24035.14025499998
 20
19655.534510000001
 30
0.0
 11
24053.143975999981
 21
19655.534510000001
 31
0.0
  0
LINE
  5
44D1
  8
2-0
  6
CONTINUOUS
 62
     3
 10
24035.14025499998
 20
19680.543747000011
 30
0.0
 11
24035.14025499998
 21
19655.534510000001
 31
0.0
  0
LINE
  5
44D2
  8
2-0
  6
CONTINUOUS
 62
     3
 10
24040.14051899996
 20
19680.543747000011
 30
0.0
 11
24035.14025499998
 21
19680.543747000011
 31
0.0
  0
LINE
  5
44D3
  8
2-0
  6
CONTINUOUS
 62
     3
 10
24040.14051899996
 20
19673.538230999999
 30
0.0
 11
24040.14051899996
 21
19680.543747000011
 31
0.0
  0
LINE
  5
44D4
  8
2-0
  6
CONTINUOUS
 62
     3
 10
24008.951223999971
 20
19673.538230999999
 30
0.0
 11
24008.951223999971
 21
19680.543747000011
 31
0.0
  0
LINE
  5
44D5
  8
2-0
  6
CONTINUOUS
 62
     3
 10
24008.951223999971
 20
19680.543747000011
 30
0.0
 11
24013.951487999981
 21
19680.543747000011
 31
0.0
  0
LINE
  5
44D6
  8
2-0
  6
CONTINUOUS
 62
     3
 10
24013.951487999981
 20
19680.543747000011
 30
0.0
 11
24013.951487999981
 21
19655.534510000001
 31
0.0
  0
LINE
  5
44D7
  8
2-0
  6
CONTINUOUS
 62
     3
 10
24013.951487999981
 20
19655.534510000001
 30
0.0
 11
23995.95172499997
 21
19655.534510000001
 31
0.0
  0
LINE
  5
44D8
  8
2-0
  6
CONTINUOUS
 62
     3
 10
23995.95172499997
 20
19655.534510000001
 30
0.0
 11
23995.95172499997
 21
19685.538073000022
 31
0.0
  0
LINE
  5
44D9
  8
2-0
  6
CONTINUOUS
 62
     3
 10
24012.045210999971
 20
19655.534510000001
 30
0.0
 11
24006.045289999969
 21
19655.534510000001
 31
0.0
  0
LINE
  5
44DA
  8
2-0
  6
CONTINUOUS
 62
     3
 10
24006.045289999969
 20
19655.534510000001
 30
0.0
 11
24006.045289999969
 21
19685.538073000022
 31
0.0
  0
LINE
  5
44DB
  8
2-0
  6
CONTINUOUS
 62
     3
 10
23307.94528549998
 20
19673.538230999999
 30
0.0
 11
23307.94528549998
 21
19680.543747000011
 31
0.0
  0
LINE
  5
44DC
  8
2-0
  6
CONTINUOUS
 62
     3
 10
23307.94528549998
 20
19680.543747000011
 30
0.0
 11
23312.945548499989
 21
19680.543747000011
 31
0.0
  0
LINE
  5
44DD
  8
2-0
  6
CONTINUOUS
 62
     3
 10
23312.945548499989
 20
19680.543747000011
 30
0.0
 11
23312.945548499989
 21
19655.534510000001
 31
0.0
  0
LINE
  5
44DE
  8
2-0
  6
CONTINUOUS
 62
     3
 10
23312.945548499989
 20
19655.534510000001
 30
0.0
 11
23294.95172549997
 21
19655.534510000001
 31
0.0
  0
LINE
  5
44DF
  8
2-0
  6
CONTINUOUS
 62
     3
 10
23294.95172549997
 20
19655.534510000001
 30
0.0
 11
23294.95172549997
 21
19685.538073000022
 31
0.0
  0
LINE
  5
44E0
  8
2-0
  6
CONTINUOUS
 62
     3
 10
23311.04323149996
 20
19655.534510000001
 30
0.0
 11
23305.045290499969
 21
19655.534510000001
 31
0.0
  0
LINE
  5
44E1
  8
2-0
  6
CONTINUOUS
 62
     3
 10
23305.045290499969
 20
19655.534510000001
 30
0.0
 11
23305.045290499969
 21
19685.538073000022
 31
0.0
  0
LINE
  5
44E2
  8
2-0
  6
CONTINUOUS
 62
     3
 10
23342.04645149998
 20
19685.538073000022
 30
0.0
 11
23305.045290499969
 21
19685.538073000022
 31
0.0
  0
LINE
  5
44E3
  8
2-0
  6
CONTINUOUS
 62
     3
 10
23342.04645149998
 20
19655.534510000001
 30
0.0
 11
23342.04645149998
 21
19685.538073000022
 31
0.0
  0
LINE
  5
44E4
  8
2-0
  6
CONTINUOUS
 62
     3
 10
23336.040592499969
 20
19655.534510000001
 30
0.0
 11
23342.04645149998
 21
19655.534510000001
 31
0.0
  0
LINE
  5
44E5
  8
2-0
  6
CONTINUOUS
 62
     3
 10
23352.14001649998
 20
19655.534510000001
 30
0.0
 11
23352.14001649998
 21
19685.538073000022
 31
0.0
  0
LINE
  5
44E6
  8
2-0
  6
CONTINUOUS
 62
     3
 10
23334.14421349996
 20
19655.534510000001
 30
0.0
 11
23352.14001649998
 21
19655.534510000001
 31
0.0
  0
LINE
  5
44E7
  8
2-0
  6
CONTINUOUS
 62
     3
 10
23334.14421349996
 20
19680.543747000011
 30
0.0
 11
23334.14421349996
 21
19655.534510000001
 31
0.0
  0
LINE
  5
44E8
  8
2-0
  6
CONTINUOUS
 62
     3
 10
23339.13457949998
 20
19680.543747000011
 30
0.0
 11
23334.14421349996
 21
19680.543747000011
 31
0.0
  0
LINE
  5
44E9
  8
2-0
  6
CONTINUOUS
 62
     3
 10
23339.13457949998
 20
19673.538230999999
 30
0.0
 11
23339.13457949998
 21
19680.543747000011
 31
0.0
  0
LINE
  5
44EA
  8
2-0
  6
CONTINUOUS
 62
     3
 10
22651.139027000001
 20
19685.538073000022
 30
0.0
 11
23294.95172549997
 21
19685.538073000022
 31
0.0
  0
LINE
  5
44EB
  8
2-0
  6
CONTINUOUS
 62
     3
 10
24700.429500999981
 20
19685.538073000022
 30
0.0
 11
24053.143975999981
 21
19685.538073000022
 31
0.0
  0
LINE
  5
44EC
  8
2-0
  6
CONTINUOUS
 62
     3
 10
23995.95172499997
 20
19685.538073000022
 30
0.0
 11
23352.14001649998
 21
19685.538073000022
 31
0.0
  0
LINE
  5
44ED
  8
2-0
  6
CONTINUOUS
 62
     3
 10
22638.137548999981
 20
19673.538230999999
 30
0.0
 11
22638.137548999981
 21
19680.543747000011
 31
0.0
  0
LINE
  5
44EE
  8
2-0
  6
CONTINUOUS
 62
     3
 10
22638.137548999981
 20
19680.543747000011
 30
0.0
 11
22633.137284999972
 21
19680.543747000011
 31
0.0
  0
LINE
  5
44EF
  8
2-0
  6
CONTINUOUS
 62
     3
 10
22633.137284999972
 20
19680.543747000011
 30
0.0
 11
22633.137284999972
 21
19655.534510000001
 31
0.0
  0
LINE
  5
44F0
  8
2-0
  6
CONTINUOUS
 62
     3
 10
22633.137284999972
 20
19655.534510000001
 30
0.0
 11
22651.139027000001
 21
19655.534510000001
 31
0.0
  0
LINE
  5
44F1
  8
2-0
  6
CONTINUOUS
 62
     3
 10
22651.139027000001
 20
19655.534510000001
 30
0.0
 11
22651.139027000001
 21
19685.538073000022
 31
0.0
  0
LINE
  5
44F2
  8
2-0
  6
CONTINUOUS
 62
     3
 10
22635.03960199999
 20
19655.534510000001
 30
0.0
 11
22641.043481999968
 21
19655.534510000001
 31
0.0
  0
LINE
  5
44F3
  8
2-0
  6
CONTINUOUS
 62
     3
 10
22641.043481999968
 20
19655.534510000001
 30
0.0
 11
22641.043481999968
 21
19685.538073000022
 31
0.0
  0
LINE
  5
44F4
  8
2-0
  6
CONTINUOUS
 62
     3
 10
22604.048259999981
 20
19685.538073000022
 30
0.0
 11
22641.043481999968
 21
19685.538073000022
 31
0.0
  0
LINE
  5
44F5
  8
2-0
  6
CONTINUOUS
 62
     3
 10
22604.048259999981
 20
19655.534510000001
 30
0.0
 11
22604.048259999981
 21
19685.538073000022
 31
0.0
  0
LINE
  5
44F6
  8
2-0
  6
CONTINUOUS
 62
     3
 10
22610.042241999981
 20
19655.534510000001
 30
0.0
 11
22604.048259999981
 21
19655.534510000001
 31
0.0
  0
LINE
  5
44F7
  8
2-0
  6
CONTINUOUS
 62
     3
 10
22593.952714999981
 20
19655.534510000001
 30
0.0
 11
22593.952714999981
 21
19685.538073000022
 31
0.0
  0
LINE
  5
44F8
  8
2-0
  6
CONTINUOUS
 62
     3
 10
22611.948518000001
 20
19655.534510000001
 30
0.0
 11
22593.952714999981
 21
19655.534510000001
 31
0.0
  0
LINE
  5
44F9
  8
2-0
  6
CONTINUOUS
 62
     3
 10
22611.948518000001
 20
19680.543747000011
 30
0.0
 11
22611.948518000001
 21
19655.534510000001
 31
0.0
  0
LINE
  5
44FA
  8
2-0
  6
CONTINUOUS
 62
     3
 10
22606.950233999982
 20
19680.543747000011
 30
0.0
 11
22611.948518000001
 21
19680.543747000011
 31
0.0
  0
LINE
  5
44FB
  8
2-0
  6
CONTINUOUS
 62
     3
 10
22606.950233999982
 20
19673.538230999999
 30
0.0
 11
22606.950233999982
 21
19680.543747000011
 31
0.0
  0
LINE
  5
44FC
  8
2-0
  6
CONTINUOUS
 62
     3
 10
22297.851112999972
 20
19685.538073000022
 30
0.0
 11
22593.952714999981
 21
19685.538073000022
 31
0.0
  0
LINE
  5
44FD
  8
2-0
  6
CONTINUOUS
 62
     3
 10
22133.618373999991
 20
19685.538073000022
 30
0.0
 11
21485.643975999981
 21
19685.538073000022
 31
0.0
  0
LINE
  5
44FE
  8
2-0
  6
CONTINUOUS
 62
     3
 10
24825.044154999981
 20
15588.179225
 30
0.0
 11
24825.044154999981
 21
14944.375435000011
 31
0.0
  0
CIRCLE
  5
44FF
  8
2-0
  6
CONTINUOUS
 62
     4
 10
24782.54587099998
 20
21085.542692000021
 30
0.0
 40
200.00001
  0
TEXT
  5
4500
  8
2-0
  6
CONTINUOUS
 62
     7
 10
24730.91408799999
 20
20990.017063000021
 30
0.0
 40
160.0
  1
3
 72
     4
 11
24784.247421333319
 21
21070.017063000021
 31
0.0
  0
LINE
  5
4501
  8
SUNPOU
  6
CONTINUOUS
 10
8422.5894259999877
 20
19865.53569700001
 30
0.0
 11
8422.5894259999877
 21
20662.50296477848
 31
0.0
  0
LINE
  5
4502
  8
SUNPOU
  6
CONTINUOUS
 10
8422.5894259999877
 20
14315.544472999991
 30
0.0
 11
8422.5894259999877
 21
13640.11835718962
 31
0.0
  0
LINE
  5
4503
  8
0-6
  6
CONTINUOUS
 62
     6
 10
10753.87680585622
 20
13515.540843999979
 30
0.0
 11
11553.877465856231
 21
13515.540843999979
 31
0.0
  0
LINE
  5
4504
  8
2-0
  6
CONTINUOUS
 62
     6
 10
23119.618365591661
 20
18636.673151940398
 30
0.0
 11
24144.650697591678
 21
18636.673151940398
 31
0.0
  0
LINE
  5
4505
  8
2-0
  6
CONTINUOUS
 62
     6
 10
24674.744450395759
 20
19101.45668964646
 30
0.0
 11
24144.650697591678
 21
18636.673151940398
 31
0.0
  0
TEXT
  5
4506
  8
2-0
  6
CONTINUOUS
 62
     7
 10
23199.61664959168
 20
18716.677374940398
 30
0.0
 40
160.0
  1
間柱（側）
 72
     4
 11
23620.949982925009
 21
18796.677374940398
 31
0.0
  0
LINE
  5
4507
  8
2-0
  6
CONTINUOUS
 62
     6
 10
24692.323663673262
 20
19081.407547675779
 30
0.0
 11
24795.04653099996
 21
19206.945641499991
 31
0.0
  0
LINE
  5
4508
  8
2-0
  6
CONTINUOUS
 62
     6
 10
24795.04653099996
 20
19206.945641499991
 30
0.0
 11
24657.15626018092
 21
19121.510003997351
 31
0.0
  0
LINE
  5
4509
  8
2-0
  6
CONTINUOUS
 62
     6
 10
24657.15626018092
 20
19121.510003997351
 30
0.0
 11
24692.323663673262
 21
19081.407547675779
 31
0.0
  0
LINE
  5
450A
  8
SUNPOU
  6
CONTINUOUS
 10
8771.7904090000011
 20
9515.0901529999974
 30
0.0
 11
8296.501296359771
 21
9515.0901529999974
 31
0.0
  0
LINE
  5
450D
  8
WAKUSEN-01
 10
868.00000000000193
 20
22484.000000000011
 30
0.0
 11
32764.000000000011
 21
22484.000000000011
 31
0.0
  0
LINE
  5
4510
  8
WAKUSEN-01
 10
20560.0
 20
2484.0
 30
0.0
 11
32764.0
 21
2484.0
 31
0.0
  0
LINE
  5
4511
  8
WAKUSEN-02
 10
20560.0
 20
1655.999999999998
 30
0.0
 11
26868.0
 21
1655.999999999998
 31
0.0
  0
TEXT
  5
4512
  8
WAKUMOJI-01
 10
20670.260259962761
 20
2125.9030093393221
 30
0.0
 40
240.0
  1
名　称
  7
WAKUMOJI
  0
TEXT
  5
4513
  8
WAKUMOJI-01
 10
20656.505485091919
 20
1319.12897497982
 30
0.0
 40
240.0
  1
機種名
  7
WAKUMOJI
  0
LINE
  5
4516
  8
YODOROGO
 10
29977.604341291921
 20
1995.7494964292871
 30
0.0
 11
29829.604341291921
 21
1995.7494964292871
 31
0.0
1001
AUTOCAD_POSTSCRIPT_FIGURE
1002
{
1000
PSFILL
1000
Grayscale
1000
Grayscale
1070
    25
1002
}
  0
LINE
  5
4517
  8
YODOROGO
 10
29829.604341291921
 20
1947.749496429288
 30
0.0
 11
29977.604341291921
 21
1947.749496429288
 31
0.0
1001
AUTOCAD_POSTSCRIPT_FIGURE
1002
{
1000
PSFILL
1000
Grayscale
1000
Grayscale
1070
    25
1002
}
  0
LINE
  5
4518
  8
YODOROGO
 10
29977.604341291921
 20
1907.7494964292871
 30
0.0
 11
29829.604341291921
 21
1907.7494964292871
 31
0.0
1001
AUTOCAD_POSTSCRIPT_FIGURE
1002
{
1000
PSFILL
1000
Grayscale
1000
Grayscale
1070
    25
1002
}
  0
LINE
  5
4519
  8
YODOROGO
 10
29829.604341291921
 20
1859.7494964292871
 30
0.0
 11
29977.604341291921
 21
1859.7494964292871
 31
0.0
1001
AUTOCAD_POSTSCRIPT_FIGURE
1002
{
1000
PSFILL
1000
Grayscale
1000
Grayscale
1070
    25
1002
}
  0
LINE
  5
451A
  8
YODOROGO
 10
29977.604341291921
 20
1819.7494964292871
 30
0.0
 11
29829.604341291921
 21
1819.7494964292871
 31
0.0
1001
AUTOCAD_POSTSCRIPT_FIGURE
1002
{
1000
PSFILL
1000
Grayscale
1000
Grayscale
1070
    25
1002
}
  0
LINE
  5
451B
  8
YODOROGO
 10
29921.60434129191
 20
1707.749496429288
 30
0.0
 11
29977.604341291921
 21
1707.749496429288
 31
0.0
1001
AUTOCAD_POSTSCRIPT_FIGURE
1002
{
1000
PSFILL
1000
Grayscale
1000
Grayscale
1070
    25
1002
}
  0
LINE
  5
451C
  8
YODOROGO
 10
29737.604341291921
 20
1427.749496429288
 30
0.0
 11
29937.604341291932
 21
1481.3393349155101
 31
0.0
  0
LINE
  5
451D
  8
YODOROGO
 10
29949.60434129191
 20
1707.749496429288
 30
0.0
 11
29885.604341291921
 21
1707.749496429288
 31
0.0
  0
ARC
  5
451E
  8
YODOROGO
 10
30254.34774982791
 20
1807.864609233261
 30
0.0
 40
381.88686420564721
 50
213.96111677667841
 51
264.47872074317792
  0
ARC
  5
451F
  8
YODOROGO
 10
30254.347749827921
 20
1807.864609233302
 30
0.0
 40
381.8868642056816
 50
208.14114420486601
 51
212.9210361185994
  0
LINE
  5
4520
  8
YODOROGO
 10
29771.409872985321
 20
1556.807661346234
 30
0.0
 11
29933.78413250855
 21
1600.315713057086
 31
0.0
  0
LINE
  5
4521
  8
YODOROGO
 10
29737.604341291921
 20
1427.749496429288
 30
0.0
 11
29937.604341291932
 21
1481.3393349155101
 31
0.0
  0
LINE
  5
4522
  8
YODOROGO
 10
29949.60434129191
 20
1707.749496429288
 30
0.0
 11
29885.604341291921
 21
1707.749496429288
 31
0.0
  0
ARC
  5
4523
  8
YODOROGO
 10
30254.34774982791
 20
1807.864609233261
 30
0.0
 40
381.88686420564721
 50
213.96111677667841
 51
264.47872074317792
  0
LINE
  5
4524
  8
YODOROGO
 10
28793.60434129191
 20
1819.7494964292871
 30
0.0
 11
28433.60434129191
 21
1819.7494964292871
 31
0.0
  0
LINE
  5
4525
  8
YODOROGO
 10
28513.60434129191
 20
1427.749496429288
 30
0.0
 11
28793.60434129191
 21
1427.749496429288
 31
0.0
  0
LINE
  5
4526
  8
YODOROGO
 10
28729.604341291921
 20
1923.7494964292871
 30
0.0
 11
28497.60434129191
 21
1923.7494964292871
 31
0.0
  0
LINE
  5
4527
  8
YODOROGO
 10
28585.604341291921
 20
2027.749496429288
 30
0.0
 11
28657.604341291921
 21
2027.749496429288
 31
0.0
  0
LINE
  5
4528
  8
YODOROGO
 10
28433.60434129191
 20
1707.749496429288
 30
0.0
 11
28433.60434129191
 21
1507.749496429288
 31
0.0
  0
LINE
  5
4529
  8
YODOROGO
 10
28497.60434129191
 20
1563.7494964292871
 30
0.0
 11
28497.60434129191
 21
1707.749496429288
 31
0.0
  0
LINE
  5
452A
  8
YODOROGO
 10
28585.604341291921
 20
1747.74949642929
 30
0.0
 11
28585.604341291921
 21
1547.749496429288
 31
0.0
  0
LINE
  5
452B
  8
YODOROGO
 10
27857.604341291921
 20
1683.749496429288
 30
0.0
 11
27777.604341291921
 21
1619.9724140445701
 31
0.0
  0
LINE
  5
452C
  8
YODOROGO
 10
27937.604341291921
 20
1619.9724140445701
 30
0.0
 11
27857.604341291921
 21
1683.749496429288
 31
0.0
  0
LINE
  5
452D
  8
YODOROGO
 10
27857.604341291921
 20
1707.749496429288
 30
0.0
 11
27937.604341291921
 21
1643.9724140445701
 31
0.0
  0
LINE
  5
452E
  8
YODOROGO
 10
27777.604341291921
 20
1643.9724140445701
 30
0.0
 11
27857.604341291921
 21
1707.749496429288
 31
0.0
  0
LINE
  5
452F
  8
YODOROGO
 10
28040.913204016892
 20
1659.749496429288
 30
0.0
 11
28040.913204016892
 21
1683.7494964292871
 31
0.0
  0
LINE
  5
4530
  8
YODOROGO
 10
27977.604341291921
 20
1683.7494964292871
 30
0.0
 11
27977.604341291921
 21
1667.749496429285
 31
0.0
  0
LINE
  5
4531
  8
YODOROGO
 10
28098.135520230931
 20
1707.749496429288
 30
0.0
 11
28098.135520230931
 21
1655.5036372746561
 31
0.0
1001
AUTOCAD_POSTSCRIPT_FIGURE
1002
{
1000
PSFILL
1000
Grayscale
1000
Grayscale
1070
   100
1002
}
  0
LINE
  5
4532
  8
YODOROGO
 10
28082.135520230921
 20
1655.5036372746561
 30
0.0
 11
28082.135520230921
 21
1707.749496429288
 31
0.0
1001
AUTOCAD_POSTSCRIPT_FIGURE
1002
{
1000
PSFILL
1000
Grayscale
1000
Grayscale
1070
   100
1002
}
  0
LINE
  5
4533
  8
YODOROGO
 10
27809.604341291921
 20
1608.771904043258
 30
0.0
 11
27809.604341291921
 21
1632.771904043258
 31
0.0
  0
LINE
  5
4534
  8
YODOROGO
 10
27905.604341291921
 20
1608.771904043258
 30
0.0
 11
27809.604341291921
 21
1608.771904043258
 31
0.0
  0
LINE
  5
4535
  8
YODOROGO
 10
27905.604341291921
 20
1632.771904043258
 30
0.0
 11
27905.604341291921
 21
1608.771904043258
 31
0.0
  0
LINE
  5
4536
  8
YODOROGO
 10
27809.604341291921
 20
1632.771904043258
 30
0.0
 11
27905.604341291921
 21
1632.771904043258
 31
0.0
  0
LINE
  5
4537
  8
YODOROGO
 10
27824.509588915738
 20
1568.5028573704751
 30
0.0
 11
27785.604341291921
 21
1475.7494964292871
 31
0.0
1001
AUTOCAD_POSTSCRIPT_FIGURE
1002
{
1000
PSFILL
1000
Grayscale
1000
Grayscale
1070
   100
1002
}
  0
LINE
  5
4538
  8
YODOROGO
 10
27777.604341291921
 20
1568.5028573704751
 30
0.0
 11
27824.509588915738
 21
1568.5028573704751
 31
0.0
1001
AUTOCAD_POSTSCRIPT_FIGURE
1002
{
1000
PSFILL
1000
Grayscale
1000
Grayscale
1070
   100
1002
}
  0
LINE
  5
4539
  8
YODOROGO
 10
27777.604341291921
 20
1588.5028573704751
 30
0.0
 11
27777.604341291921
 21
1568.5028573704751
 31
0.0
1001
AUTOCAD_POSTSCRIPT_FIGURE
1002
{
1000
PSFILL
1000
Grayscale
1000
Grayscale
1070
   100
1002
}
  0
LINE
  5
453A
  8
YODOROGO
 10
27937.604341291921
 20
1588.5028573704751
 30
0.0
 11
27777.604341291921
 21
1588.5028573704751
 31
0.0
1001
AUTOCAD_POSTSCRIPT_FIGURE
1002
{
1000
PSFILL
1000
Grayscale
1000
Grayscale
1070
   100
1002
}
  0
LINE
  5
453B
  8
YODOROGO
 10
27937.604341291921
 20
1568.5028573704751
 30
0.0
 11
27937.604341291921
 21
1588.5028573704751
 31
0.0
1001
AUTOCAD_POSTSCRIPT_FIGURE
1002
{
1000
PSFILL
1000
Grayscale
1000
Grayscale
1070
   100
1002
}
  0
LINE
  5
453C
  8
YODOROGO
 10
27844.509588915738
 20
1568.5028573704751
 30
0.0
 11
27937.604341291921
 21
1568.5028573704751
 31
0.0
1001
AUTOCAD_POSTSCRIPT_FIGURE
1002
{
1000
PSFILL
1000
Grayscale
1000
Grayscale
1070
   100
1002
}
  0
LINE
  5
453D
  8
YODOROGO
 10
27815.546718284771
 20
1495.7494964292871
 30
0.0
 11
27844.509588915738
 21
1568.5028573704751
 31
0.0
1001
AUTOCAD_POSTSCRIPT_FIGURE
1002
{
1000
PSFILL
1000
Grayscale
1000
Grayscale
1070
   100
1002
}
  0
LINE
  5
453E
  8
YODOROGO
 10
27902.054790808648
 20
1495.7494964292871
 30
0.0
 11
27815.546718284771
 21
1495.7494964292871
 31
0.0
1001
AUTOCAD_POSTSCRIPT_FIGURE
1002
{
1000
PSFILL
1000
Grayscale
1000
Grayscale
1070
   100
1002
}
  0
LINE
  5
453F
  8
YODOROGO
 10
27885.065004790951
 20
1536.233810697692
 30
0.0
 11
27902.054790808648
 21
1495.7494964292871
 31
0.0
1001
AUTOCAD_POSTSCRIPT_FIGURE
1002
{
1000
PSFILL
1000
Grayscale
1000
Grayscale
1070
   100
1002
}
  0
LINE
  5
4540
  8
YODOROGO
 10
27901.065004790951
 20
1536.233810697692
 30
0.0
 11
27885.065004790951
 21
1536.233810697692
 31
0.0
1001
AUTOCAD_POSTSCRIPT_FIGURE
1002
{
1000
PSFILL
1000
Grayscale
1000
Grayscale
1070
   100
1002
}
  0
LINE
  5
4541
  8
YODOROGO
 10
27929.604341291921
 20
1475.7494964292871
 30
0.0
 11
27901.065004790951
 21
1536.233810697692
 31
0.0
1001
AUTOCAD_POSTSCRIPT_FIGURE
1002
{
1000
PSFILL
1000
Grayscale
1000
Grayscale
1070
   100
1002
}
  0
LINE
  5
4542
  8
YODOROGO
 10
27785.604341291921
 20
1475.7494964292871
 30
0.0
 11
27929.604341291921
 21
1475.7494964292871
 31
0.0
1001
AUTOCAD_POSTSCRIPT_FIGURE
1002
{
1000
PSFILL
1000
Grayscale
1000
Grayscale
1070
   100
1002
}
  0
LINE
  5
4543
  8
YODOROGO
 10
27777.604341291921
 20
1619.9724140445701
 30
0.0
 11
27777.604341291921
 21
1643.9724140445701
 31
0.0
  0
LINE
  5
4544
  8
YODOROGO
 10
27937.604341291921
 20
1643.9724140445701
 30
0.0
 11
27937.604341291921
 21
1619.9724140445701
 31
0.0
  0
ARC
  5
4545
  8
YODOROGO
 10
28225.940442146959
 20
1600.877765325326
 30
0.0
 40
175.9999999999998
 50
280.3644312771313
 51
3.5414836592180561
  0
ARC
  5
4546
  8
YODOROGO
 10
28235.756030759301
 20
1633.5978069619041
 30
0.0
 40
111.9999999999982
 50
281.24905825041549
 51
348.75094174958332
  0
LINE
  5
4547
  8
YODOROGO
 10
28257.604341291921
 20
1523.7494964292871
 30
0.0
 11
28257.604341291921
 21
1427.749496429288
 31
0.0
  0
LINE
  5
4548
  8
YODOROGO
 10
28020.088903736909
 20
1610.650565061914
 30
0.0
 11
28040.913204016892
 21
1659.749496429288
 31
0.0
  0
LINE
  5
4549
  8
YODOROGO
 10
28041.604341291921
 20
1583.120489948401
 30
0.0
 11
28020.088903736909
 21
1610.650565061914
 31
0.0
  0
LINE
  5
454A
  8
YODOROGO
 10
28041.604341291921
 20
1563.120489948398
 30
0.0
 11
28041.604341291921
 21
1583.120489948401
 31
0.0
  0
LINE
  5
454B
  8
YODOROGO
 10
28017.604341291921
 20
1585.2370637495301
 30
0.0
 11
28041.604341291921
 21
1563.120489948398
 31
0.0
  0
LINE
  5
454C
  8
YODOROGO
 10
28017.604341291921
 20
1475.7494964292871
 30
0.0
 11
28017.604341291921
 21
1585.2370637495301
 31
0.0
  0
LINE
  5
454D
  8
YODOROGO
 10
28001.604341291921
 20
1475.7494964292871
 30
0.0
 11
28017.604341291921
 21
1475.7494964292871
 31
0.0
  0
LINE
  5
454E
  8
YODOROGO
 10
28001.604341291921
 20
1580.0053496897469
 30
0.0
 11
28001.604341291921
 21
1475.7494964292871
 31
0.0
  0
LINE
  5
454F
  8
YODOROGO
 10
27977.604341291921
 20
1532.7680790334291
 30
0.0
 11
28001.604341291921
 21
1580.0053496897469
 31
0.0
  0
LINE
  5
4550
  8
YODOROGO
 10
27977.604341291921
 20
1556.76807903343
 30
0.0
 11
27977.604341291921
 21
1532.7680790334291
 31
0.0
  0
LINE
  5
4551
  8
YODOROGO
 10
28025.828774291349
 20
1667.749496429285
 30
0.0
 11
27977.604341291921
 21
1556.76807903343
 31
0.0
  0
LINE
  5
4552
  8
YODOROGO
 10
27977.604341291921
 20
1667.749496429285
 30
0.0
 11
28025.828774291349
 21
1667.749496429285
 31
0.0
  0
LINE
  5
4553
  8
YODOROGO
 10
28050.135520230899
 20
1655.5036372746561
 30
0.0
 11
28082.135520230921
 21
1655.5036372746561
 31
0.0
1001
AUTOCAD_POSTSCRIPT_FIGURE
1002
{
1000
PSFILL
1000
Grayscale
1000
Grayscale
1070
   100
1002
}
  0
LINE
  5
4554
  8
YODOROGO
 10
28050.135520230899
 20
1631.5036372746561
 30
0.0
 11
28050.135520230899
 21
1655.5036372746561
 31
0.0
1001
AUTOCAD_POSTSCRIPT_FIGURE
1002
{
1000
PSFILL
1000
Grayscale
1000
Grayscale
1070
   100
1002
}
  0
LINE
  5
4555
  8
YODOROGO
 10
28082.135520230921
 20
1631.5036372746561
 30
0.0
 11
28050.135520230899
 21
1631.5036372746561
 31
0.0
1001
AUTOCAD_POSTSCRIPT_FIGURE
1002
{
1000
PSFILL
1000
Grayscale
1000
Grayscale
1070
   100
1002
}
  0
LINE
  5
4556
  8
YODOROGO
 10
28082.135520230921
 20
1499.749496429288
 30
0.0
 11
28082.135520230921
 21
1631.5036372746561
 31
0.0
1001
AUTOCAD_POSTSCRIPT_FIGURE
1002
{
1000
PSFILL
1000
Grayscale
1000
Grayscale
1070
   100
1002
}
  0
LINE
  5
4557
  8
YODOROGO
 10
28050.135520230921
 20
1499.749496429288
 30
0.0
 11
28082.135520230921
 21
1499.749496429288
 31
0.0
1001
AUTOCAD_POSTSCRIPT_FIGURE
1002
{
1000
PSFILL
1000
Grayscale
1000
Grayscale
1070
   100
1002
}
  0
LINE
  5
4558
  8
YODOROGO
 10
28050.135520230921
 20
1475.7494964292871
 30
0.0
 11
28050.135520230921
 21
1499.749496429288
 31
0.0
1001
AUTOCAD_POSTSCRIPT_FIGURE
1002
{
1000
PSFILL
1000
Grayscale
1000
Grayscale
1070
   100
1002
}
  0
LINE
  5
4559
  8
YODOROGO
 10
28137.604341291921
 20
1475.7494964292871
 30
0.0
 11
28050.135520230921
 21
1475.7494964292871
 31
0.0
1001
AUTOCAD_POSTSCRIPT_FIGURE
1002
{
1000
PSFILL
1000
Grayscale
1000
Grayscale
1070
   100
1002
}
  0
LINE
  5
455A
  8
YODOROGO
 10
28137.604341291921
 20
1499.749496429288
 30
0.0
 11
28137.604341291921
 21
1475.7494964292871
 31
0.0
1001
AUTOCAD_POSTSCRIPT_FIGURE
1002
{
1000
PSFILL
1000
Grayscale
1000
Grayscale
1070
   100
1002
}
  0
LINE
  5
455B
  8
YODOROGO
 10
28098.135520230931
 20
1499.749496429288
 30
0.0
 11
28137.604341291921
 21
1499.749496429288
 31
0.0
1001
AUTOCAD_POSTSCRIPT_FIGURE
1002
{
1000
PSFILL
1000
Grayscale
1000
Grayscale
1070
   100
1002
}
  0
LINE
  5
455C
  8
YODOROGO
 10
28098.135520230931
 20
1631.5036372746561
 30
0.0
 11
28098.135520230931
 21
1499.749496429288
 31
0.0
1001
AUTOCAD_POSTSCRIPT_FIGURE
1002
{
1000
PSFILL
1000
Grayscale
1000
Grayscale
1070
   100
1002
}
  0
LINE
  5
455D
  8
YODOROGO
 10
28137.604341291921
 20
1631.5036372746561
 30
0.0
 11
28098.135520230931
 21
1631.5036372746561
 31
0.0
1001
AUTOCAD_POSTSCRIPT_FIGURE
1002
{
1000
PSFILL
1000
Grayscale
1000
Grayscale
1070
   100
1002
}
  0
LINE
  5
455E
  8
YODOROGO
 10
28137.604341291921
 20
1655.5036372746561
 30
0.0
 11
28137.604341291921
 21
1631.5036372746561
 31
0.0
1001
AUTOCAD_POSTSCRIPT_FIGURE
1002
{
1000
PSFILL
1000
Grayscale
1000
Grayscale
1070
   100
1002
}
  0
LINE
  5
455F
  8
YODOROGO
 10
28098.135520230931
 20
1655.5036372746561
 30
0.0
 11
28137.604341291921
 21
1655.5036372746561
 31
0.0
1001
AUTOCAD_POSTSCRIPT_FIGURE
1002
{
1000
PSFILL
1000
Grayscale
1000
Grayscale
1070
   100
1002
}
  0
LINE
  5
4560
  8
YODOROGO
 10
28401.60434129191
 20
1667.749496429288
 30
0.0
 11
28345.604341291921
 21
1667.749496429288
 31
0.0
  0
LINE
  5
4561
  8
YODOROGO
 10
28401.60434129191
 20
1611.7494964292871
 30
0.0
 11
28401.60434129191
 21
1667.749496429288
 31
0.0
  0
LINE
  5
4562
  8
YODOROGO
 10
28345.604341291921
 20
1667.749496429288
 30
0.0
 11
28345.604341291921
 21
1611.7494964292871
 31
0.0
  0
ARC
  5
4563
  8
YODOROGO
 10
28513.60434129191
 20
1507.749496429288
 30
0.0
 40
80.0
 50
180.0
 51
270.0
  0
ARC
  5
4564
  8
YODOROGO
 10
28537.604341291921
 20
1563.7494964292871
 30
0.0
 40
40.0
 50
180.0
 51
270.0
  0
LINE
  5
4565
  8
YODOROGO
 10
28561.604341291932
 20
1523.7494964292871
 30
0.0
 11
28537.604341291921
 21
1523.7494964292871
 31
0.0
  0
ARC
  5
4566
  8
YODOROGO
 10
28561.604341291932
 20
1547.749496429285
 30
0.0
 40
23.999999999996358
 50
270.0
 51
0.0000000000054281
  0
LINE
  5
4567
  8
YODOROGO
 10
27801.604341291921
 20
1890.7865807937051
 30
0.0
 11
27777.604341291921
 21
1843.776747951672
 31
0.0
1001
AUTOCAD_POSTSCRIPT_FIGURE
1002
{
1000
PSFILL
1000
Grayscale
1000
Grayscale
1070
   100
1002
}
  0
LINE
  5
4568
  8
YODOROGO
 10
27801.604341291921
 20
1747.749496429286
 30
0.0
 11
27801.604341291921
 21
1890.7865807937051
 31
0.0
1001
AUTOCAD_POSTSCRIPT_FIGURE
1002
{
1000
PSFILL
1000
Grayscale
1000
Grayscale
1070
   100
1002
}
  0
LINE
  5
4569
  8
YODOROGO
 10
27817.604341291921
 20
1747.749496429286
 30
0.0
 11
27801.604341291921
 21
1747.749496429286
 31
0.0
1001
AUTOCAD_POSTSCRIPT_FIGURE
1002
{
1000
PSFILL
1000
Grayscale
1000
Grayscale
1070
   100
1002
}
  0
LINE
  5
456A
  8
YODOROGO
 10
27817.604341291921
 20
1893.7713320852661
 30
0.0
 11
27817.604341291921
 21
1747.749496429286
 31
0.0
1001
AUTOCAD_POSTSCRIPT_FIGURE
1002
{
1000
PSFILL
1000
Grayscale
1000
Grayscale
1070
   100
1002
}
  0
LINE
  5
456B
  8
YODOROGO
 10
27841.604341291921
 20
1867.6547582841361
 30
0.0
 11
27817.604341291921
 21
1893.7713320852661
 31
0.0
1001
AUTOCAD_POSTSCRIPT_FIGURE
1002
{
1000
PSFILL
1000
Grayscale
1000
Grayscale
1070
   100
1002
}
  0
LINE
  5
456C
  8
YODOROGO
 10
27841.604341291921
 20
1883.6547582841361
 30
0.0
 11
27841.604341291921
 21
1867.6547582841361
 31
0.0
1001
AUTOCAD_POSTSCRIPT_FIGURE
1002
{
1000
PSFILL
1000
Grayscale
1000
Grayscale
1070
   100
1002
}
  0
LINE
  5
456D
  8
YODOROGO
 10
27817.604341291921
 20
1917.7713320852649
 30
0.0
 11
27841.604341291921
 21
1883.6547582841361
 31
0.0
1001
AUTOCAD_POSTSCRIPT_FIGURE
1002
{
1000
PSFILL
1000
Grayscale
1000
Grayscale
1070
   100
1002
}
  0
LINE
  5
456E
  8
YODOROGO
 10
27817.604341291921
 20
1939.749496429288
 30
0.0
 11
27817.604341291921
 21
1917.7713320852649
 31
0.0
1001
AUTOCAD_POSTSCRIPT_FIGURE
1002
{
1000
PSFILL
1000
Grayscale
1000
Grayscale
1070
   100
1002
}
  0
LINE
  5
456F
  8
YODOROGO
 10
27889.604341291921
 20
1939.749496429288
 30
0.0
 11
27817.604341291921
 21
1939.749496429288
 31
0.0
1001
AUTOCAD_POSTSCRIPT_FIGURE
1002
{
1000
PSFILL
1000
Grayscale
1000
Grayscale
1070
   100
1002
}
  0
LINE
  5
4570
  8
YODOROGO
 10
27889.604341291921
 20
1900.5683489363
 30
0.0
 11
27889.604341291921
 21
1939.749496429288
 31
0.0
1001
AUTOCAD_POSTSCRIPT_FIGURE
1002
{
1000
PSFILL
1000
Grayscale
1000
Grayscale
1070
   100
1002
}
  0
LINE
  5
4571
  8
YODOROGO
 10
27857.604341291921
 20
1900.5683489363
 30
0.0
 11
27889.604341291921
 21
1900.5683489363
 31
0.0
1001
AUTOCAD_POSTSCRIPT_FIGURE
1002
{
1000
PSFILL
1000
Grayscale
1000
Grayscale
1070
   100
1002
}
  0
LINE
  5
4572
  8
YODOROGO
 10
27857.604341291921
 20
1884.568348936298
 30
0.0
 11
27857.604341291921
 21
1900.5683489363
 31
0.0
1001
AUTOCAD_POSTSCRIPT_FIGURE
1002
{
1000
PSFILL
1000
Grayscale
1000
Grayscale
1070
   100
1002
}
  0
LINE
  5
4573
  8
YODOROGO
 10
27889.604341291921
 20
1884.568348936298
 30
0.0
 11
27857.604341291921
 21
1884.568348936298
 31
0.0
1001
AUTOCAD_POSTSCRIPT_FIGURE
1002
{
1000
PSFILL
1000
Grayscale
1000
Grayscale
1070
   100
1002
}
  0
LINE
  5
4574
  8
YODOROGO
 10
27889.604341291921
 20
1879.6191779644371
 30
0.0
 11
27889.604341291921
 21
1884.568348936298
 31
0.0
1001
AUTOCAD_POSTSCRIPT_FIGURE
1002
{
1000
PSFILL
1000
Grayscale
1000
Grayscale
1070
   100
1002
}
  0
LINE
  5
4575
  8
YODOROGO
 10
27849.604341291921
 20
1812.974981161417
 30
0.0
 11
27889.604341291921
 21
1879.6191779644371
 31
0.0
1001
AUTOCAD_POSTSCRIPT_FIGURE
1002
{
1000
PSFILL
1000
Grayscale
1000
Grayscale
1070
   100
1002
}
  0
LINE
  5
4576
  8
YODOROGO
 10
27849.604341291921
 20
1796.9749811614149
 30
0.0
 11
27849.604341291921
 21
1812.974981161417
 31
0.0
1001
AUTOCAD_POSTSCRIPT_FIGURE
1002
{
1000
PSFILL
1000
Grayscale
1000
Grayscale
1070
   100
1002
}
  0
LINE
  5
4577
  8
YODOROGO
 10
27889.604341291921
 20
1847.6191779644359
 30
0.0
 11
27849.604341291921
 21
1796.9749811614149
 31
0.0
1001
AUTOCAD_POSTSCRIPT_FIGURE
1002
{
1000
PSFILL
1000
Grayscale
1000
Grayscale
1070
   100
1002
}
  0
LINE
  5
4578
  8
YODOROGO
 10
27889.604341291921
 20
1747.749496429286
 30
0.0
 11
27889.604341291921
 21
1847.6191779644359
 31
0.0
1001
AUTOCAD_POSTSCRIPT_FIGURE
1002
{
1000
PSFILL
1000
Grayscale
1000
Grayscale
1070
   100
1002
}
  0
LINE
  5
4579
  8
YODOROGO
 10
27905.604341291921
 20
1747.749496429286
 30
0.0
 11
27889.604341291921
 21
1747.749496429286
 31
0.0
1001
AUTOCAD_POSTSCRIPT_FIGURE
1002
{
1000
PSFILL
1000
Grayscale
1000
Grayscale
1070
   100
1002
}
  0
LINE
  5
457A
  8
YODOROGO
 10
27905.604341291921
 20
1849.409012158806
 30
0.0
 11
27905.604341291921
 21
1747.749496429286
 31
0.0
1001
AUTOCAD_POSTSCRIPT_FIGURE
1002
{
1000
PSFILL
1000
Grayscale
1000
Grayscale
1070
   100
1002
}
  0
LINE
  5
457B
  8
YODOROGO
 10
27937.604341291921
 20
1796.9749811614149
 30
0.0
 11
27905.604341291921
 21
1849.409012158806
 31
0.0
1001
AUTOCAD_POSTSCRIPT_FIGURE
1002
{
1000
PSFILL
1000
Grayscale
1000
Grayscale
1070
   100
1002
}
  0
LINE
  5
457C
  8
YODOROGO
 10
27937.604341291921
 20
1812.974981161417
 30
0.0
 11
27937.604341291921
 21
1796.9749811614149
 31
0.0
1001
AUTOCAD_POSTSCRIPT_FIGURE
1002
{
1000
PSFILL
1000
Grayscale
1000
Grayscale
1070
   100
1002
}
  0
LINE
  5
457D
  8
YODOROGO
 10
27905.604341291921
 20
1881.4090121588081
 30
0.0
 11
27937.604341291921
 21
1812.974981161417
 31
0.0
1001
AUTOCAD_POSTSCRIPT_FIGURE
1002
{
1000
PSFILL
1000
Grayscale
1000
Grayscale
1070
   100
1002
}
  0
LINE
  5
457E
  8
YODOROGO
 10
27905.604341291921
 20
1884.5683489363
 30
0.0
 11
27905.604341291921
 21
1881.4090121588081
 31
0.0
1001
AUTOCAD_POSTSCRIPT_FIGURE
1002
{
1000
PSFILL
1000
Grayscale
1000
Grayscale
1070
   100
1002
}
  0
LINE
  5
457F
  8
YODOROGO
 10
27937.604341291921
 20
1884.568348936298
 30
0.0
 11
27905.604341291921
 21
1884.5683489363
 31
0.0
1001
AUTOCAD_POSTSCRIPT_FIGURE
1002
{
1000
PSFILL
1000
Grayscale
1000
Grayscale
1070
   100
1002
}
  0
LINE
  5
4580
  8
YODOROGO
 10
27937.604341291921
 20
1900.5683489363
 30
0.0
 11
27937.604341291921
 21
1884.568348936298
 31
0.0
1001
AUTOCAD_POSTSCRIPT_FIGURE
1002
{
1000
PSFILL
1000
Grayscale
1000
Grayscale
1070
   100
1002
}
  0
LINE
  5
4581
  8
YODOROGO
 10
27905.604341291921
 20
1900.5683489363
 30
0.0
 11
27937.604341291921
 21
1900.5683489363
 31
0.0
1001
AUTOCAD_POSTSCRIPT_FIGURE
1002
{
1000
PSFILL
1000
Grayscale
1000
Grayscale
1070
   100
1002
}
  0
LINE
  5
4582
  8
YODOROGO
 10
27905.604341291921
 20
1939.749496429288
 30
0.0
 11
27905.604341291921
 21
1900.5683489363
 31
0.0
1001
AUTOCAD_POSTSCRIPT_FIGURE
1002
{
1000
PSFILL
1000
Grayscale
1000
Grayscale
1070
   100
1002
}
  0
LINE
  5
4583
  8
YODOROGO
 10
27937.604341291921
 20
1939.749496429288
 30
0.0
 11
27905.604341291921
 21
1939.749496429288
 31
0.0
1001
AUTOCAD_POSTSCRIPT_FIGURE
1002
{
1000
PSFILL
1000
Grayscale
1000
Grayscale
1070
   100
1002
}
  0
LINE
  5
4584
  8
YODOROGO
 10
27937.604341291921
 20
1955.7494964292871
 30
0.0
 11
27937.604341291921
 21
1939.749496429288
 31
0.0
1001
AUTOCAD_POSTSCRIPT_FIGURE
1002
{
1000
PSFILL
1000
Grayscale
1000
Grayscale
1070
   100
1002
}
  0
LINE
  5
4585
  8
YODOROGO
 10
27905.604341291921
 20
1955.7494964292871
 30
0.0
 11
27937.604341291921
 21
1955.7494964292871
 31
0.0
1001
AUTOCAD_POSTSCRIPT_FIGURE
1002
{
1000
PSFILL
1000
Grayscale
1000
Grayscale
1070
   100
1002
}
  0
LINE
  5
4586
  8
YODOROGO
 10
27905.604341291921
 20
1979.749496429288
 30
0.0
 11
27905.604341291921
 21
1955.7494964292871
 31
0.0
1001
AUTOCAD_POSTSCRIPT_FIGURE
1002
{
1000
PSFILL
1000
Grayscale
1000
Grayscale
1070
   100
1002
}
  0
LINE
  5
4587
  8
YODOROGO
 10
27889.604341291921
 20
1979.749496429288
 30
0.0
 11
27905.604341291921
 21
1979.749496429288
 31
0.0
1001
AUTOCAD_POSTSCRIPT_FIGURE
1002
{
1000
PSFILL
1000
Grayscale
1000
Grayscale
1070
   100
1002
}
  0
LINE
  5
4588
  8
YODOROGO
 10
27889.604341291921
 20
1955.7494964292871
 30
0.0
 11
27889.604341291921
 21
1979.749496429288
 31
0.0
1001
AUTOCAD_POSTSCRIPT_FIGURE
1002
{
1000
PSFILL
1000
Grayscale
1000
Grayscale
1070
   100
1002
}
  0
LINE
  5
4589
  8
YODOROGO
 10
27865.604341291921
 20
1955.7494964292871
 30
0.0
 11
27889.604341291921
 21
1955.7494964292871
 31
0.0
1001
AUTOCAD_POSTSCRIPT_FIGURE
1002
{
1000
PSFILL
1000
Grayscale
1000
Grayscale
1070
   100
1002
}
  0
LINE
  5
458A
  8
YODOROGO
 10
27865.604341291921
 20
1979.749496429288
 30
0.0
 11
27865.604341291921
 21
1955.7494964292871
 31
0.0
1001
AUTOCAD_POSTSCRIPT_FIGURE
1002
{
1000
PSFILL
1000
Grayscale
1000
Grayscale
1070
   100
1002
}
  0
LINE
  5
458B
  8
YODOROGO
 10
27849.604341291921
 20
1979.749496429288
 30
0.0
 11
27865.604341291921
 21
1979.749496429288
 31
0.0
1001
AUTOCAD_POSTSCRIPT_FIGURE
1002
{
1000
PSFILL
1000
Grayscale
1000
Grayscale
1070
   100
1002
}
  0
LINE
  5
458C
  8
YODOROGO
 10
27849.604341291921
 20
1955.7494964292871
 30
0.0
 11
27849.604341291921
 21
1979.749496429288
 31
0.0
1001
AUTOCAD_POSTSCRIPT_FIGURE
1002
{
1000
PSFILL
1000
Grayscale
1000
Grayscale
1070
   100
1002
}
  0
LINE
  5
458D
  8
YODOROGO
 10
27817.604341291921
 20
1955.7494964292871
 30
0.0
 11
27849.604341291921
 21
1955.7494964292871
 31
0.0
1001
AUTOCAD_POSTSCRIPT_FIGURE
1002
{
1000
PSFILL
1000
Grayscale
1000
Grayscale
1070
   100
1002
}
  0
LINE
  5
458E
  8
YODOROGO
 10
27817.604341291921
 20
1979.749496429288
 30
0.0
 11
27817.604341291921
 21
1955.7494964292871
 31
0.0
1001
AUTOCAD_POSTSCRIPT_FIGURE
1002
{
1000
PSFILL
1000
Grayscale
1000
Grayscale
1070
   100
1002
}
  0
LINE
  5
458F
  8
YODOROGO
 10
27801.604341291921
 20
1979.749496429288
 30
0.0
 11
27817.604341291921
 21
1979.749496429288
 31
0.0
1001
AUTOCAD_POSTSCRIPT_FIGURE
1002
{
1000
PSFILL
1000
Grayscale
1000
Grayscale
1070
   100
1002
}
  0
LINE
  5
4590
  8
YODOROGO
 10
27801.604341291921
 20
1955.7494964292871
 30
0.0
 11
27801.604341291921
 21
1979.749496429288
 31
0.0
1001
AUTOCAD_POSTSCRIPT_FIGURE
1002
{
1000
PSFILL
1000
Grayscale
1000
Grayscale
1070
   100
1002
}
  0
LINE
  5
4591
  8
YODOROGO
 10
27777.604341291921
 20
1955.7494964292871
 30
0.0
 11
27801.604341291921
 21
1955.7494964292871
 31
0.0
1001
AUTOCAD_POSTSCRIPT_FIGURE
1002
{
1000
PSFILL
1000
Grayscale
1000
Grayscale
1070
   100
1002
}
  0
LINE
  5
4592
  8
YODOROGO
 10
27777.604341291921
 20
1939.749496429288
 30
0.0
 11
27777.604341291921
 21
1955.7494964292871
 31
0.0
1001
AUTOCAD_POSTSCRIPT_FIGURE
1002
{
1000
PSFILL
1000
Grayscale
1000
Grayscale
1070
   100
1002
}
  0
LINE
  5
4593
  8
YODOROGO
 10
27801.604341291921
 20
1939.749496429288
 30
0.0
 11
27777.604341291921
 21
1939.749496429288
 31
0.0
1001
AUTOCAD_POSTSCRIPT_FIGURE
1002
{
1000
PSFILL
1000
Grayscale
1000
Grayscale
1070
   100
1002
}
  0
LINE
  5
4594
  8
YODOROGO
 10
27801.604341291921
 20
1914.7865807937051
 30
0.0
 11
27801.604341291921
 21
1939.749496429288
 31
0.0
1001
AUTOCAD_POSTSCRIPT_FIGURE
1002
{
1000
PSFILL
1000
Grayscale
1000
Grayscale
1070
   100
1002
}
  0
LINE
  5
4595
  8
YODOROGO
 10
27777.604341291921
 20
1859.776747951671
 30
0.0
 11
27801.604341291921
 21
1914.7865807937051
 31
0.0
1001
AUTOCAD_POSTSCRIPT_FIGURE
1002
{
1000
PSFILL
1000
Grayscale
1000
Grayscale
1070
   100
1002
}
  0
LINE
  5
4596
  8
YODOROGO
 10
27777.604341291921
 20
1843.776747951672
 30
0.0
 11
27777.604341291921
 21
1859.776747951671
 31
0.0
1001
AUTOCAD_POSTSCRIPT_FIGURE
1002
{
1000
PSFILL
1000
Grayscale
1000
Grayscale
1070
   100
1002
}
  0
LINE
  5
4597
  8
YODOROGO
 10
28257.604341291921
 20
1867.7494964292871
 30
0.0
 11
28401.60434129191
 21
1824.877625640306
 31
0.0
1001
AUTOCAD_POSTSCRIPT_FIGURE
1002
{
1000
PSFILL
1000
Grayscale
1000
Grayscale
1070
   100
1002
}
  0
LINE
  5
4598
  8
YODOROGO
 10
28401.60434129191
 20
1752.877625640306
 30
0.0
 11
28257.604341291921
 21
1795.7494964292871
 31
0.0
1001
AUTOCAD_POSTSCRIPT_FIGURE
1002
{
1000
PSFILL
1000
Grayscale
1000
Grayscale
1070
   100
1002
}
  0
LINE
  5
4599
  8
YODOROGO
 10
28401.60434129191
 20
1984.877625640305
 30
0.0
 11
28257.604341291921
 21
2027.749496429288
 31
0.0
1001
AUTOCAD_POSTSCRIPT_FIGURE
1002
{
1000
PSFILL
1000
Grayscale
1000
Grayscale
1070
   100
1002
}
  0
LINE
  5
459A
  8
YODOROGO
 10
28257.604341291921
 20
1959.749496429288
 30
0.0
 11
28401.60434129191
 21
1916.8776256403071
 31
0.0
1001
AUTOCAD_POSTSCRIPT_FIGURE
1002
{
1000
PSFILL
1000
Grayscale
1000
Grayscale
1070
   100
1002
}
  0
LINE
  5
459B
  8
YODOROGO
 10
28257.604341291921
 20
1795.7494964292871
 30
0.0
 11
28257.604341291921
 21
1867.7494964292871
 31
0.0
1001
AUTOCAD_POSTSCRIPT_FIGURE
1002
{
1000
PSFILL
1000
Grayscale
1000
Grayscale
1070
   100
1002
}
  0
LINE
  5
459C
  8
YODOROGO
 10
28257.604341291921
 20
2027.749496429288
 30
0.0
 11
28257.604341291921
 21
1959.749496429288
 31
0.0
1001
AUTOCAD_POSTSCRIPT_FIGURE
1002
{
1000
PSFILL
1000
Grayscale
1000
Grayscale
1070
   100
1002
}
  0
LINE
  5
459D
  8
YODOROGO
 10
28080.236320206739
 20
1939.749496429288
 30
0.0
 11
28129.60434129191
 21
1747.749496429286
 31
0.0
1001
AUTOCAD_POSTSCRIPT_FIGURE
1002
{
1000
PSFILL
1000
Grayscale
1000
Grayscale
1070
   100
1002
}
  0
LINE
  5
459E
  8
YODOROGO
 10
27977.604341291921
 20
1939.749496429288
 30
0.0
 11
28080.236320206739
 21
1939.749496429288
 31
0.0
1001
AUTOCAD_POSTSCRIPT_FIGURE
1002
{
1000
PSFILL
1000
Grayscale
1000
Grayscale
1070
   100
1002
}
  0
LINE
  5
459F
  8
YODOROGO
 10
27977.604341291921
 20
1955.7494964292871
 30
0.0
 11
27977.604341291921
 21
1939.749496429288
 31
0.0
1001
AUTOCAD_POSTSCRIPT_FIGURE
1002
{
1000
PSFILL
1000
Grayscale
1000
Grayscale
1070
   100
1002
}
  0
LINE
  5
45A0
  8
YODOROGO
 10
28076.60687851991
 20
1955.7494964292871
 30
0.0
 11
27977.604341291921
 21
1955.7494964292871
 31
0.0
1001
AUTOCAD_POSTSCRIPT_FIGURE
1002
{
1000
PSFILL
1000
Grayscale
1000
Grayscale
1070
   100
1002
}
  0
LINE
  5
45A1
  8
YODOROGO
 10
28071.162715989711
 20
1979.749496429288
 30
0.0
 11
28076.60687851991
 21
1955.7494964292871
 31
0.0
1001
AUTOCAD_POSTSCRIPT_FIGURE
1002
{
1000
PSFILL
1000
Grayscale
1000
Grayscale
1070
   100
1002
}
  0
LINE
  5
45A2
  8
YODOROGO
 10
28091.162715989711
 20
1979.749496429288
 30
0.0
 11
28071.162715989711
 21
1979.749496429288
 31
0.0
1001
AUTOCAD_POSTSCRIPT_FIGURE
1002
{
1000
PSFILL
1000
Grayscale
1000
Grayscale
1070
   100
1002
}
  0
LINE
  5
45A3
  8
YODOROGO
 10
28095.806878519939
 20
1955.7494964292871
 30
0.0
 11
28091.162715989711
 21
1979.749496429288
 31
0.0
1001
AUTOCAD_POSTSCRIPT_FIGURE
1002
{
1000
PSFILL
1000
Grayscale
1000
Grayscale
1070
   100
1002
}
  0
LINE
  5
45A4
  8
YODOROGO
 10
28121.604341291921
 20
1955.7494964292871
 30
0.0
 11
28095.806878519939
 21
1955.7494964292871
 31
0.0
1001
AUTOCAD_POSTSCRIPT_FIGURE
1002
{
1000
PSFILL
1000
Grayscale
1000
Grayscale
1070
   100
1002
}
  0
LINE
  5
45A5
  8
YODOROGO
 10
28121.604341291921
 20
1979.749496429288
 30
0.0
 11
28121.604341291921
 21
1955.7494964292871
 31
0.0
1001
AUTOCAD_POSTSCRIPT_FIGURE
1002
{
1000
PSFILL
1000
Grayscale
1000
Grayscale
1070
   100
1002
}
  0
LINE
  5
45A6
  8
YODOROGO
 10
28137.604341291921
 20
1979.749496429288
 30
0.0
 11
28121.604341291921
 21
1979.749496429288
 31
0.0
1001
AUTOCAD_POSTSCRIPT_FIGURE
1002
{
1000
PSFILL
1000
Grayscale
1000
Grayscale
1070
   100
1002
}
  0
LINE
  5
45A7
  8
YODOROGO
 10
28137.604341291921
 20
1955.7494964292871
 30
0.0
 11
28137.604341291921
 21
1979.749496429288
 31
0.0
1001
AUTOCAD_POSTSCRIPT_FIGURE
1002
{
1000
PSFILL
1000
Grayscale
1000
Grayscale
1070
   100
1002
}
  0
LINE
  5
45A8
  8
YODOROGO
 10
28137.604341291921
 20
1939.749496429288
 30
0.0
 11
28137.604341291921
 21
1955.7494964292871
 31
0.0
1001
AUTOCAD_POSTSCRIPT_FIGURE
1002
{
1000
PSFILL
1000
Grayscale
1000
Grayscale
1070
   100
1002
}
  0
LINE
  5
45A9
  8
YODOROGO
 10
28098.902986873411
 20
1939.749496429288
 30
0.0
 11
28137.604341291921
 21
1939.749496429288
 31
0.0
1001
AUTOCAD_POSTSCRIPT_FIGURE
1002
{
1000
PSFILL
1000
Grayscale
1000
Grayscale
1070
   100
1002
}
  0
LINE
  5
45AA
  8
YODOROGO
 10
28137.604341291921
 20
1747.749496429286
 30
0.0
 11
28098.902986873411
 21
1939.749496429288
 31
0.0
1001
AUTOCAD_POSTSCRIPT_FIGURE
1002
{
1000
PSFILL
1000
Grayscale
1000
Grayscale
1070
   100
1002
}
  0
LINE
  5
45AB
  8
YODOROGO
 10
28129.60434129191
 20
1747.749496429286
 30
0.0
 11
28137.604341291921
 21
1747.749496429286
 31
0.0
1001
AUTOCAD_POSTSCRIPT_FIGURE
1002
{
1000
PSFILL
1000
Grayscale
1000
Grayscale
1070
   100
1002
}
  0
LINE
  5
45AC
  8
YODOROGO
 10
28078.069219933801
 20
1775.7407762987939
 30
0.0
 11
27977.604341291921
 21
1747.749496429286
 31
0.0
  0
LINE
  5
45AD
  8
YODOROGO
 10
28078.069219933801
 20
1798.6689795290731
 30
0.0
 11
28078.069219933801
 21
1775.7407762987939
 31
0.0
  0
LINE
  5
45AE
  8
YODOROGO
 10
28033.83678061287
 20
1786.816933133767
 30
0.0
 11
28078.069219933801
 21
1798.6689795290731
 31
0.0
  0
LINE
  5
45AF
  8
YODOROGO
 10
28033.83678061287
 20
1872.5683489362989
 30
0.0
 11
28033.83678061287
 21
1786.816933133767
 31
0.0
  0
LINE
  5
45B0
  8
YODOROGO
 10
28078.069219933801
 20
1872.5683489362989
 30
0.0
 11
28033.83678061287
 21
1872.5683489362989
 31
0.0
  0
LINE
  5
45B1
  8
YODOROGO
 10
28078.069219933801
 20
1892.568348936298
 30
0.0
 11
28078.069219933801
 21
1872.5683489362989
 31
0.0
  0
LINE
  5
45B2
  8
YODOROGO
 10
27977.604341291921
 20
1892.568348936298
 30
0.0
 11
28078.069219933801
 21
1892.568348936298
 31
0.0
  0
LINE
  5
45B3
  8
YODOROGO
 10
27977.604341291921
 20
1872.5683489362989
 30
0.0
 11
27977.604341291921
 21
1892.568348936298
 31
0.0
  0
LINE
  5
45B4
  8
YODOROGO
 10
28021.836780612852
 20
1872.5683489362989
 30
0.0
 11
27977.604341291921
 21
1872.5683489362989
 31
0.0
  0
LINE
  5
45B5
  8
YODOROGO
 10
28021.836780612852
 20
1784.673339594317
 30
0.0
 11
28021.836780612852
 21
1872.5683489362989
 31
0.0
  0
LINE
  5
45B6
  8
YODOROGO
 10
27977.604341291921
 20
1771.749496429286
 30
0.0
 11
28021.836780612852
 21
1784.673339594317
 31
0.0
  0
LINE
  5
45B7
  8
YODOROGO
 10
27977.604341291921
 20
1747.749496429286
 30
0.0
 11
27977.604341291921
 21
1771.749496429286
 31
0.0
  0
LINE
  5
45B8
  8
YODOROGO
 10
28001.604341291921
 20
1707.749496429288
 30
0.0
 11
28001.604341291921
 21
1683.7494964292871
 31
0.0
  0
LINE
  5
45B9
  8
YODOROGO
 10
28017.604341291921
 20
1707.749496429288
 30
0.0
 11
28001.604341291921
 21
1707.749496429288
 31
0.0
  0
LINE
  5
45BA
  8
YODOROGO
 10
28017.604341291921
 20
1683.7494964292871
 30
0.0
 11
28017.604341291921
 21
1707.749496429288
 31
0.0
  0
LINE
  5
45BB
  8
YODOROGO
 10
28040.913204016892
 20
1683.7494964292871
 30
0.0
 11
28017.604341291921
 21
1683.7494964292871
 31
0.0
  0
LINE
  5
45BC
  8
YODOROGO
 10
28001.604341291921
 20
1683.7494964292871
 30
0.0
 11
27977.604341291921
 21
1683.7494964292871
 31
0.0
  0
LINE
  5
45BD
  8
YODOROGO
 10
28082.135520230921
 20
1707.749496429288
 30
0.0
 11
28098.135520230931
 21
1707.749496429288
 31
0.0
1001
AUTOCAD_POSTSCRIPT_FIGURE
1002
{
1000
PSFILL
1000
Grayscale
1000
Grayscale
1070
   100
1002
}
  0
LINE
  5
45BE
  8
YODOROGO
 10
28401.60434129191
 20
1824.877625640306
 30
0.0
 11
28401.60434129191
 21
1752.877625640306
 31
0.0
1001
AUTOCAD_POSTSCRIPT_FIGURE
1002
{
1000
PSFILL
1000
Grayscale
1000
Grayscale
1070
   100
1002
}
  0
LINE
  5
45BF
  8
YODOROGO
 10
28401.60434129191
 20
1916.8776256403071
 30
0.0
 11
28401.60434129191
 21
1984.877625640305
 31
0.0
1001
AUTOCAD_POSTSCRIPT_FIGURE
1002
{
1000
PSFILL
1000
Grayscale
1000
Grayscale
1070
   100
1002
}
  0
LINE
  5
45C0
  8
YODOROGO
 10
28433.60434129191
 20
1819.7494964292871
 30
0.0
 11
28433.60434129191
 21
1747.74949642929
 31
0.0
  0
LINE
  5
45C1
  8
YODOROGO
 10
28497.60434129191
 20
1707.749496429288
 30
0.0
 11
28433.60434129191
 21
1707.749496429288
 31
0.0
  0
LINE
  5
45C2
  8
YODOROGO
 10
28433.60434129191
 20
1747.74949642929
 30
0.0
 11
28585.604341291921
 21
1747.74949642929
 31
0.0
  0
LINE
  5
45C3
  8
YODOROGO
 10
28497.60434129191
 20
1867.7494964292871
 30
0.0
 11
28433.60434129191
 21
1867.7494964292871
 31
0.0
  0
LINE
  5
45C4
  8
YODOROGO
 10
28497.60434129191
 20
1923.7494964292871
 30
0.0
 11
28497.60434129191
 21
1867.7494964292871
 31
0.0
  0
LINE
  5
45C5
  8
YODOROGO
 10
28585.604341291921
 20
1987.7494964292871
 30
0.0
 11
28585.604341291921
 21
2027.749496429288
 31
0.0
  0
LINE
  5
45C6
  8
YODOROGO
 10
28433.60434129191
 20
1987.7494964292871
 30
0.0
 11
28585.604341291921
 21
1987.7494964292871
 31
0.0
  0
LINE
  5
45C7
  8
YODOROGO
 10
28433.60434129191
 20
1867.7494964292871
 30
0.0
 11
28433.60434129191
 21
1987.7494964292871
 31
0.0
  0
LINE
  5
45C8
  8
YODOROGO
 10
29001.60434129191
 20
2027.749496429288
 30
0.0
 11
29001.60434129191
 21
1619.749496429288
 31
0.0
  0
LINE
  5
45C9
  8
YODOROGO
 10
29073.604341291921
 20
1579.749496429288
 30
0.0
 11
29073.604341291921
 21
2027.749496429288
 31
0.0
  0
LINE
  5
45CA
  8
YODOROGO
 10
29261.604341291921
 20
1491.749496429286
 30
0.0
 11
29261.604341291921
 21
2007.749496429288
 31
0.0
  0
LINE
  5
45CB
  8
YODOROGO
 10
29197.604341291921
 20
2007.749496429288
 30
0.0
 11
29197.604341291921
 21
1491.749496429286
 31
0.0
  0
LINE
  5
45CC
  8
YODOROGO
 10
29385.604341291921
 20
2027.749496429288
 30
0.0
 11
29385.604341291921
 21
1427.749496429288
 31
0.0
  0
LINE
  5
45CD
  8
YODOROGO
 10
29457.604341291921
 20
1427.749496429288
 30
0.0
 11
29457.604341291921
 21
2027.749496429288
 31
0.0
  0
LINE
  5
45CE
  8
YODOROGO
 10
28657.604341291921
 20
1667.749496429288
 30
0.0
 11
28657.604341291921
 21
1747.74949642929
 31
0.0
  0
LINE
  5
45CF
  8
YODOROGO
 10
29885.604341291921
 20
1707.749496429288
 30
0.0
 11
29885.604341291921
 21
1667.749496429288
 31
0.0
  0
LINE
  5
45D0
  8
YODOROGO
 10
29885.604341291921
 20
1707.749496429288
 30
0.0
 11
29885.604341291921
 21
1667.749496429288
 31
0.0
  0
ARC
  5
45D1
  8
YODOROGO
 10
28906.911576186842
 20
1618.217864442272
 30
0.0
 40
94.705151178741616
 50
274.05244162907093
 51
0.9266642149310712
  0
ARC
  5
45D2
  8
YODOROGO
 10
28909.186170719819
 20
1592.61072861044
 30
0.0
 40
164.92042356085511
 50
271.5351210653775
 51
355.52727750585052
  0
LINE
  5
45D3
  8
YODOROGO
 10
28913.604341291921
 20
1523.7494964292871
 30
0.0
 11
28913.604341291921
 21
1427.749496429288
 31
0.0
  0
LINE
  5
45D4
  8
YODOROGO
 10
28793.60434129191
 20
1667.749496429288
 30
0.0
 11
28657.604341291921
 21
1667.749496429288
 31
0.0
  0
LINE
  5
45D5
  8
YODOROGO
 10
28793.60434129191
 20
1603.7494964292871
 30
0.0
 11
28793.60434129191
 21
1667.749496429288
 31
0.0
  0
LINE
  5
45D6
  8
YODOROGO
 10
28657.604341291921
 20
1603.7494964292871
 30
0.0
 11
28793.60434129191
 21
1603.7494964292871
 31
0.0
  0
LINE
  5
45D7
  8
YODOROGO
 10
28657.604341291921
 20
1523.7494964292871
 30
0.0
 11
28657.604341291921
 21
1603.7494964292871
 31
0.0
  0
LINE
  5
45D8
  8
YODOROGO
 10
28793.60434129191
 20
1523.7494964292871
 30
0.0
 11
28657.604341291921
 21
1523.7494964292871
 31
0.0
  0
LINE
  5
45D9
  8
YODOROGO
 10
28793.60434129191
 20
1427.749496429288
 30
0.0
 11
28793.60434129191
 21
1523.7494964292871
 31
0.0
  0
LINE
  5
45DA
  8
YODOROGO
 10
29197.604341291921
 20
1491.749496429286
 30
0.0
 11
29261.604341291921
 21
1491.749496429286
 31
0.0
  0
LINE
  5
45DB
  8
YODOROGO
 10
29385.604341291921
 20
1427.749496429288
 30
0.0
 11
29457.604341291921
 21
1427.749496429288
 31
0.0
  0
LINE
  5
45DC
  8
YODOROGO
 10
29737.604341291921
 20
1528.4414521705639
 30
0.0
 11
29737.604341291921
 21
1427.749496429288
 31
0.0
  0
LINE
  5
45DD
  8
YODOROGO
 10
29617.604341291921
 20
1427.749496429288
 30
0.0
 11
29737.604341291921
 21
1528.4414521705639
 31
0.0
  0
LINE
  5
45DE
  8
YODOROGO
 10
29617.604341291921
 20
1547.749496429288
 30
0.0
 11
29617.604341291921
 21
1427.749496429288
 31
0.0
  0
LINE
  5
45DF
  8
YODOROGO
 10
29712.94462869945
 20
1627.749496429288
 30
0.0
 11
29617.604341291921
 21
1547.749496429288
 31
0.0
  0
LINE
  5
45E0
  8
YODOROGO
 10
29617.604341291921
 20
1627.749496429288
 30
0.0
 11
29712.94462869945
 21
1627.749496429288
 31
0.0
  0
LINE
  5
45E1
  8
YODOROGO
 10
29617.604341291921
 20
1667.749496429288
 30
0.0
 11
29617.604341291921
 21
1627.749496429288
 31
0.0
  0
LINE
  5
45E2
  8
YODOROGO
 10
29885.604341291921
 20
1667.749496429288
 30
0.0
 11
29617.604341291921
 21
1667.749496429288
 31
0.0
  0
LINE
  5
45E3
  8
YODOROGO
 10
29917.604341291921
 20
1627.749496429288
 30
0.0
 11
29777.604341291921
 21
1627.749496429288
 31
0.0
  0
LINE
  5
45E4
  8
YODOROGO
 10
29777.604341291921
 20
1562.0054374176559
 30
0.0
 11
29771.409872985321
 21
1556.807661346234
 31
0.0
  0
LINE
  5
45E5
  8
YODOROGO
 10
29777.604341291921
 20
1627.749496429288
 30
0.0
 11
29777.604341291921
 21
1562.0054374176559
 31
0.0
  0
LINE
  5
45E6
  8
YODOROGO
 10
29737.604341291921
 20
1528.4414521705639
 30
0.0
 11
29737.604341291921
 21
1427.749496429288
 31
0.0
  0
LINE
  5
45E7
  8
YODOROGO
 10
29617.604341291921
 20
1427.749496429288
 30
0.0
 11
29737.604341291921
 21
1528.4414521705639
 31
0.0
  0
LINE
  5
45E8
  8
YODOROGO
 10
29617.604341291921
 20
1547.749496429288
 30
0.0
 11
29617.604341291921
 21
1427.749496429288
 31
0.0
  0
LINE
  5
45E9
  8
YODOROGO
 10
29712.94462869945
 20
1627.749496429288
 30
0.0
 11
29617.604341291921
 21
1547.749496429288
 31
0.0
  0
LINE
  5
45EA
  8
YODOROGO
 10
29617.604341291921
 20
1627.749496429288
 30
0.0
 11
29712.94462869945
 21
1627.749496429288
 31
0.0
  0
LINE
  5
45EB
  8
YODOROGO
 10
29617.604341291921
 20
1667.749496429288
 30
0.0
 11
29617.604341291921
 21
1627.749496429288
 31
0.0
  0
LINE
  5
45EC
  8
YODOROGO
 10
29885.604341291921
 20
1667.749496429288
 30
0.0
 11
29617.604341291921
 21
1667.749496429288
 31
0.0
  0
LINE
  5
45ED
  8
YODOROGO
 10
28793.60434129191
 20
1747.74949642929
 30
0.0
 11
28793.60434129191
 21
1819.7494964292871
 31
0.0
  0
LINE
  5
45EE
  8
YODOROGO
 10
28657.604341291921
 20
1747.74949642929
 30
0.0
 11
28793.60434129191
 21
1747.74949642929
 31
0.0
  0
LINE
  5
45EF
  8
YODOROGO
 10
28729.604341291921
 20
1867.7494964292871
 30
0.0
 11
28729.604341291921
 21
1923.7494964292871
 31
0.0
  0
LINE
  5
45F0
  8
YODOROGO
 10
28793.60434129191
 20
1867.7494964292871
 30
0.0
 11
28729.604341291921
 21
1867.7494964292871
 31
0.0
  0
LINE
  5
45F1
  8
YODOROGO
 10
28793.60434129191
 20
1947.749496429288
 30
0.0
 11
28793.60434129191
 21
1867.7494964292871
 31
0.0
  0
ARC
  5
45F2
  8
YODOROGO
 10
28753.60434129191
 20
1947.749496429288
 30
0.0
 40
40.0
 50
0.0
 51
90.0
  0
LINE
  5
45F3
  8
YODOROGO
 10
28657.604341291921
 20
1987.7494964292871
 30
0.0
 11
28753.60434129191
 21
1987.7494964292871
 31
0.0
  0
LINE
  5
45F4
  8
YODOROGO
 10
28657.604341291921
 20
2027.749496429288
 30
0.0
 11
28657.604341291921
 21
1987.7494964292871
 31
0.0
  0
LINE
  5
45F5
  8
YODOROGO
 10
29073.604341291921
 20
2027.749496429288
 30
0.0
 11
29001.60434129191
 21
2027.749496429288
 31
0.0
  0
LINE
  5
45F6
  8
YODOROGO
 10
29261.604341291921
 20
2007.749496429288
 30
0.0
 11
29197.604341291921
 21
2007.749496429288
 31
0.0
  0
LINE
  5
45F7
  8
YODOROGO
 10
29457.604341291921
 20
2027.749496429288
 30
0.0
 11
29385.604341291921
 21
2027.749496429288
 31
0.0
  0
LINE
  5
45F8
  8
YODOROGO
 10
29673.604341291921
 20
1707.749496429288
 30
0.0
 11
29673.604341291921
 21
1771.7494964292871
 31
0.0
1001
AUTOCAD_POSTSCRIPT_FIGURE
1002
{
1000
PSFILL
1000
Grayscale
1000
Grayscale
1070
    25
1002
}
  0
LINE
  5
45F9
  8
YODOROGO
 10
29617.604341291921
 20
1707.749496429288
 30
0.0
 11
29673.604341291921
 21
1707.749496429288
 31
0.0
1001
AUTOCAD_POSTSCRIPT_FIGURE
1002
{
1000
PSFILL
1000
Grayscale
1000
Grayscale
1070
    25
1002
}
  0
LINE
  5
45FA
  8
YODOROGO
 10
29617.604341291921
 20
1819.7494964292871
 30
0.0
 11
29617.604341291921
 21
1707.749496429288
 31
0.0
1001
AUTOCAD_POSTSCRIPT_FIGURE
1002
{
1000
PSFILL
1000
Grayscale
1000
Grayscale
1070
    25
1002
}
  0
LINE
  5
45FB
  8
YODOROGO
 10
29765.604341291921
 20
1819.7494964292871
 30
0.0
 11
29617.604341291921
 21
1819.7494964292871
 31
0.0
1001
AUTOCAD_POSTSCRIPT_FIGURE
1002
{
1000
PSFILL
1000
Grayscale
1000
Grayscale
1070
    25
1002
}
  0
LINE
  5
45FC
  8
YODOROGO
 10
29765.604341291921
 20
1859.7494964292871
 30
0.0
 11
29765.604341291921
 21
1819.7494964292871
 31
0.0
1001
AUTOCAD_POSTSCRIPT_FIGURE
1002
{
1000
PSFILL
1000
Grayscale
1000
Grayscale
1070
    25
1002
}
  0
LINE
  5
45FD
  8
YODOROGO
 10
29617.604341291921
 20
1859.7494964292871
 30
0.0
 11
29765.604341291921
 21
1859.7494964292871
 31
0.0
1001
AUTOCAD_POSTSCRIPT_FIGURE
1002
{
1000
PSFILL
1000
Grayscale
1000
Grayscale
1070
    25
1002
}
  0
LINE
  5
45FE
  8
YODOROGO
 10
29617.604341291921
 20
1907.7494964292871
 30
0.0
 11
29617.604341291921
 21
1859.7494964292871
 31
0.0
1001
AUTOCAD_POSTSCRIPT_FIGURE
1002
{
1000
PSFILL
1000
Grayscale
1000
Grayscale
1070
    25
1002
}
  0
LINE
  5
45FF
  8
YODOROGO
 10
29765.604341291921
 20
1907.7494964292871
 30
0.0
 11
29617.604341291921
 21
1907.7494964292871
 31
0.0
1001
AUTOCAD_POSTSCRIPT_FIGURE
1002
{
1000
PSFILL
1000
Grayscale
1000
Grayscale
1070
    25
1002
}
  0
LINE
  5
4600
  8
YODOROGO
 10
29765.604341291921
 20
1947.749496429288
 30
0.0
 11
29765.604341291921
 21
1907.7494964292871
 31
0.0
1001
AUTOCAD_POSTSCRIPT_FIGURE
1002
{
1000
PSFILL
1000
Grayscale
1000
Grayscale
1070
    25
1002
}
  0
LINE
  5
4601
  8
YODOROGO
 10
29617.604341291921
 20
1947.749496429288
 30
0.0
 11
29765.604341291921
 21
1947.749496429288
 31
0.0
1001
AUTOCAD_POSTSCRIPT_FIGURE
1002
{
1000
PSFILL
1000
Grayscale
1000
Grayscale
1070
    25
1002
}
  0
LINE
  5
4602
  8
YODOROGO
 10
29617.604341291921
 20
2027.749496429288
 30
0.0
 11
29617.604341291921
 21
1947.749496429288
 31
0.0
1001
AUTOCAD_POSTSCRIPT_FIGURE
1002
{
1000
PSFILL
1000
Grayscale
1000
Grayscale
1070
    25
1002
}
  0
LINE
  5
4603
  8
YODOROGO
 10
29665.604341291921
 20
2027.749496429288
 30
0.0
 11
29617.604341291921
 21
2027.749496429288
 31
0.0
1001
AUTOCAD_POSTSCRIPT_FIGURE
1002
{
1000
PSFILL
1000
Grayscale
1000
Grayscale
1070
    25
1002
}
  0
LINE
  5
4604
  8
YODOROGO
 10
29665.604341291921
 20
1995.7494964292871
 30
0.0
 11
29665.604341291921
 21
2027.749496429288
 31
0.0
1001
AUTOCAD_POSTSCRIPT_FIGURE
1002
{
1000
PSFILL
1000
Grayscale
1000
Grayscale
1070
    25
1002
}
  0
LINE
  5
4605
  8
YODOROGO
 10
29765.604341291921
 20
1995.7494964292871
 30
0.0
 11
29665.604341291921
 21
1995.7494964292871
 31
0.0
1001
AUTOCAD_POSTSCRIPT_FIGURE
1002
{
1000
PSFILL
1000
Grayscale
1000
Grayscale
1070
    25
1002
}
  0
LINE
  5
4606
  8
YODOROGO
 10
29765.604341291921
 20
2027.749496429288
 30
0.0
 11
29765.604341291921
 21
1995.7494964292871
 31
0.0
1001
AUTOCAD_POSTSCRIPT_FIGURE
1002
{
1000
PSFILL
1000
Grayscale
1000
Grayscale
1070
    25
1002
}
  0
LINE
  5
4607
  8
YODOROGO
 10
29829.604341291921
 20
2027.749496429288
 30
0.0
 11
29765.604341291921
 21
2027.749496429288
 31
0.0
1001
AUTOCAD_POSTSCRIPT_FIGURE
1002
{
1000
PSFILL
1000
Grayscale
1000
Grayscale
1070
    25
1002
}
  0
LINE
  5
4608
  8
YODOROGO
 10
29829.604341291921
 20
1995.7494964292871
 30
0.0
 11
29829.604341291921
 21
2027.749496429288
 31
0.0
1001
AUTOCAD_POSTSCRIPT_FIGURE
1002
{
1000
PSFILL
1000
Grayscale
1000
Grayscale
1070
    25
1002
}
  0
LINE
  5
4609
  8
YODOROGO
 10
29829.604341291921
 20
1907.7494964292871
 30
0.0
 11
29829.604341291921
 21
1947.749496429288
 31
0.0
1001
AUTOCAD_POSTSCRIPT_FIGURE
1002
{
1000
PSFILL
1000
Grayscale
1000
Grayscale
1070
    25
1002
}
  0
LINE
  5
460A
  8
YODOROGO
 10
29829.604341291921
 20
1819.7494964292871
 30
0.0
 11
29829.604341291921
 21
1859.7494964292871
 31
0.0
1001
AUTOCAD_POSTSCRIPT_FIGURE
1002
{
1000
PSFILL
1000
Grayscale
1000
Grayscale
1070
    25
1002
}
  0
LINE
  5
460B
  8
YODOROGO
 10
29921.60434129191
 20
1771.7494964292871
 30
0.0
 11
29921.60434129191
 21
1707.749496429288
 31
0.0
1001
AUTOCAD_POSTSCRIPT_FIGURE
1002
{
1000
PSFILL
1000
Grayscale
1000
Grayscale
1070
    25
1002
}
  0
LINE
  5
460C
  8
YODOROGO
 10
29829.604341291921
 20
1771.7494964292871
 30
0.0
 11
29921.60434129191
 21
1771.7494964292871
 31
0.0
1001
AUTOCAD_POSTSCRIPT_FIGURE
1002
{
1000
PSFILL
1000
Grayscale
1000
Grayscale
1070
    25
1002
}
  0
LINE
  5
460D
  8
YODOROGO
 10
29829.604341291921
 20
1707.749496429288
 30
0.0
 11
29829.604341291921
 21
1771.7494964292871
 31
0.0
1001
AUTOCAD_POSTSCRIPT_FIGURE
1002
{
1000
PSFILL
1000
Grayscale
1000
Grayscale
1070
    25
1002
}
  0
LINE
  5
460E
  8
YODOROGO
 10
29765.604341291921
 20
1707.749496429288
 30
0.0
 11
29829.604341291921
 21
1707.749496429288
 31
0.0
1001
AUTOCAD_POSTSCRIPT_FIGURE
1002
{
1000
PSFILL
1000
Grayscale
1000
Grayscale
1070
    25
1002
}
  0
LINE
  5
460F
  8
YODOROGO
 10
29765.604341291921
 20
1771.7494964292871
 30
0.0
 11
29765.604341291921
 21
1707.749496429288
 31
0.0
1001
AUTOCAD_POSTSCRIPT_FIGURE
1002
{
1000
PSFILL
1000
Grayscale
1000
Grayscale
1070
    25
1002
}
  0
LINE
  5
4610
  8
YODOROGO
 10
29673.604341291921
 20
1771.7494964292871
 30
0.0
 11
29765.604341291921
 21
1771.7494964292871
 31
0.0
1001
AUTOCAD_POSTSCRIPT_FIGURE
1002
{
1000
PSFILL
1000
Grayscale
1000
Grayscale
1070
    25
1002
}
  0
ARC
  5
4611
  8
YODOROGO
 10
31059.517893357912
 20
1602.6807375155761
 30
0.0
 40
178.22128111072141
 50
281.02627495425338
 51
357.77113575573799
  0
LINE
  5
4612
  8
YODOROGO
 10
31413.604341291921
 20
1907.7494964292871
 30
0.0
 11
31165.604341291921
 21
1907.7494964292871
 31
0.0
  0
LINE
  5
4613
  8
YODOROGO
 10
31413.604341291921
 20
2027.749496429288
 30
0.0
 11
31165.604341291921
 21
2027.749496429288
 31
0.0
  0
LINE
  5
4614
  8
YODOROGO
 10
31165.604341291921
 20
1963.749496429286
 30
0.0
 11
31413.604341291921
 21
1963.749496429286
 31
0.0
  0
LINE
  5
4615
  8
YODOROGO
 10
30791.604341291921
 20
1563.7494964292871
 30
0.0
 11
30791.604341291921
 21
1755.7494964292871
 31
0.0
  0
LINE
  5
4616
  8
YODOROGO
 10
30763.604341291921
 20
1691.749496429288
 30
0.0
 11
30763.604341291921
 21
1563.7494964292871
 31
0.0
  0
LINE
  5
4617
  8
YODOROGO
 10
30723.604341291921
 20
1491.749496429288
 30
0.0
 11
30723.604341291921
 21
1691.749496429288
 31
0.0
  0
LINE
  5
4618
  8
YODOROGO
 10
30899.604341291932
 20
1691.749496429288
 30
0.0
 11
30899.604341291932
 21
1491.749496429288
 31
0.0
  0
LINE
  5
4619
  8
YODOROGO
 10
30859.604341291932
 20
1563.7494964292871
 30
0.0
 11
30859.604341291932
 21
1691.749496429288
 31
0.0
  0
LINE
  5
461A
  8
YODOROGO
 10
30831.604341291921
 20
1755.7494964292871
 30
0.0
 11
30831.604341291921
 21
1563.7494964292871
 31
0.0
  0
LINE
  5
461B
  8
YODOROGO
 10
30973.604341291921
 20
2027.749496429288
 30
0.0
 11
30973.604341291921
 21
1467.749496429288
 31
0.0
  0
LINE
  5
461C
  8
YODOROGO
 10
30645.604341291921
 20
1427.749496429288
 30
0.0
 11
30645.604341291921
 21
2027.749496429288
 31
0.0
  0
LINE
  5
461D
  8
YODOROGO
 10
30697.604341291932
 20
1963.749496429286
 30
0.0
 11
30697.604341291932
 21
1427.749496429288
 31
0.0
  0
LINE
  5
461E
  8
YODOROGO
 10
30925.604341291921
 20
1547.749496429288
 30
0.0
 11
30925.604341291921
 21
1963.749496429286
 31
0.0
  0
LINE
  5
461F
  8
YODOROGO
 10
30381.604341291932
 20
1627.749496429288
 30
0.0
 11
30381.604341291932
 21
1679.749496429288
 31
0.0
  0
LINE
  5
4620
  8
YODOROGO
 10
30617.604341291921
 20
1679.749496429288
 30
0.0
 11
30617.604341291921
 21
1627.749496429288
 31
0.0
  0
LINE
  5
4621
  8
YODOROGO
 10
31165.604341291921
 20
1907.7494964292871
 30
0.0
 11
31165.604341291921
 21
1635.7494964292871
 31
0.0
  0
LINE
  5
4622
  8
YODOROGO
 10
29949.60434129191
 20
1667.749496429288
 30
0.0
 11
29949.60434129191
 21
1707.749496429288
 31
0.0
  0
LINE
  5
4623
  8
YODOROGO
 10
29949.60434129191
 20
1667.749496429288
 30
0.0
 11
29949.60434129191
 21
1707.749496429288
 31
0.0
  0
ARC
  5
4624
  8
YODOROGO
 10
30537.604341291921
 20
1507.749496429288
 30
0.0
 40
80.0
 50
270.0
 51
0.0
  0
LINE
  5
4625
  8
YODOROGO
 10
30569.604341291921
 20
1599.7494964292871
 30
0.0
 11
30617.604341291921
 21
1599.7494964292871
 31
0.0
  0
LINE
  5
4626
  8
YODOROGO
 10
30617.604341291921
 20
1627.749496429288
 30
0.0
 11
30529.604341291939
 21
1627.749496429288
 31
0.0
  0
LINE
  5
4627
  8
YODOROGO
 10
30217.604341291921
 20
1667.749496429288
 30
0.0
 11
29949.60434129191
 21
1667.749496429288
 31
0.0
  0
LINE
  5
4628
  8
YODOROGO
 10
30217.604341291921
 20
1627.749496429288
 30
0.0
 11
30217.604341291921
 21
1667.749496429288
 31
0.0
  0
LINE
  5
4629
  8
YODOROGO
 10
30017.604341291921
 20
1627.749496429288
 30
0.0
 11
30217.604341291921
 21
1627.749496429288
 31
0.0
  0
ARC
  5
462A
  8
YODOROGO
 10
30230.05882870136
 20
1868.885714952901
 30
0.0
 40
321.37763628522822
 50
228.61814546189939
 51
245.660289248906
  0
LINE
  5
462B
  8
YODOROGO
 10
30105.604341291921
 20
1603.7494964292871
 30
0.0
 11
30097.60434129195
 21
1576.0728158699001
 31
0.0
  0
LINE
  5
462C
  8
YODOROGO
 10
30189.604341291921
 20
1603.7494964292871
 30
0.0
 11
30105.604341291921
 21
1603.7494964292871
 31
0.0
  0
LINE
  5
462D
  8
YODOROGO
 10
30177.604341291921
 20
1551.817722473427
 30
0.0
 11
30189.604341291921
 21
1603.7494964292871
 31
0.0
  0
ARC
  5
462E
  8
YODOROGO
 10
30230.05882870045
 20
1868.8857149530011
 30
0.0
 40
321.37763628529081
 50
260.60629297969911
 51
267.77903556555862
  0
LINE
  5
462F
  8
YODOROGO
 10
30217.604341291921
 20
1427.749496429285
 30
0.0
 11
30217.604341291921
 21
1547.749496429288
 31
0.0
  0
LINE
  5
4630
  8
YODOROGO
 10
29937.604341291932
 20
1481.3393349155101
 30
0.0
 11
29937.604341291921
 21
1594.5310905311401
 31
0.0
  0
LINE
  5
4631
  8
YODOROGO
 10
30217.604341291921
 20
1667.749496429288
 30
0.0
 11
29949.60434129191
 21
1667.749496429288
 31
0.0
  0
LINE
  5
4632
  8
YODOROGO
 10
30217.604341291921
 20
1627.749496429288
 30
0.0
 11
30217.604341291921
 21
1667.749496429288
 31
0.0
  0
LINE
  5
4633
  8
YODOROGO
 10
30017.604341291921
 20
1627.749496429288
 30
0.0
 11
30217.604341291921
 21
1627.749496429288
 31
0.0
  0
ARC
  5
4634
  8
YODOROGO
 10
30230.05882870136
 20
1868.885714952901
 30
0.0
 40
321.37763628522822
 50
228.61814546189939
 51
245.660289248906
  0
LINE
  5
4635
  8
YODOROGO
 10
30105.604341291921
 20
1603.7494964292871
 30
0.0
 11
30097.60434129195
 21
1576.0728158699001
 31
0.0
  0
LINE
  5
4636
  8
YODOROGO
 10
30189.604341291921
 20
1603.7494964292871
 30
0.0
 11
30105.604341291921
 21
1603.7494964292871
 31
0.0
  0
LINE
  5
4637
  8
YODOROGO
 10
30177.604341291921
 20
1551.817722473427
 30
0.0
 11
30189.604341291921
 21
1603.7494964292871
 31
0.0
  0
ARC
  5
4638
  8
YODOROGO
 10
30230.05882870045
 20
1868.8857149530011
 30
0.0
 40
321.37763628529081
 50
260.60629297969911
 51
267.77903556555862
  0
LINE
  5
4639
  8
YODOROGO
 10
30217.604341291921
 20
1427.749496429285
 30
0.0
 11
30217.604341291921
 21
1547.749496429288
 31
0.0
  0
LINE
  5
463A
  8
YODOROGO
 10
29937.604341291932
 20
1481.3393349155101
 30
0.0
 11
29937.604341291921
 21
1594.5310905311401
 31
0.0
  0
LINE
  5
463B
  8
YODOROGO
 10
30433.604341291921
 20
1573.749496429288
 30
0.0
 11
30381.604341291932
 21
1573.749496429288
 31
0.0
  0
LINE
  5
463C
  8
YODOROGO
 10
30433.604341291921
 20
1601.749496429285
 30
0.0
 11
30433.604341291921
 21
1573.749496429288
 31
0.0
  0
LINE
  5
463D
  8
YODOROGO
 10
30381.604341291932
 20
1601.749496429285
 30
0.0
 11
30433.604341291921
 21
1601.749496429285
 31
0.0
  0
LINE
  5
463E
  8
YODOROGO
 10
30381.604341291932
 20
1573.749496429288
 30
0.0
 11
30381.604341291932
 21
1601.749496429285
 31
0.0
  0
LINE
  5
463F
  8
YODOROGO
 10
30429.604341291921
 20
1577.7494964292871
 30
0.0
 11
30385.604341291921
 21
1577.7494964292871
 31
0.0
  0
LINE
  5
4640
  8
YODOROGO
 10
30429.604341291921
 20
1597.749496429288
 30
0.0
 11
30429.604341291921
 21
1577.7494964292871
 31
0.0
  0
LINE
  5
4641
  8
YODOROGO
 10
30385.604341291921
 20
1597.749496429288
 30
0.0
 11
30429.604341291921
 21
1597.749496429288
 31
0.0
  0
LINE
  5
4642
  8
YODOROGO
 10
30385.604341291921
 20
1577.7494964292871
 30
0.0
 11
30385.604341291921
 21
1597.749496429288
 31
0.0
  0
LINE
  5
4643
  8
YODOROGO
 10
30425.604341291921
 20
1581.749496429286
 30
0.0
 11
30389.604341291921
 21
1581.749496429286
 31
0.0
  0
LINE
  5
4644
  8
YODOROGO
 10
30425.604341291921
 20
1593.7494964292871
 30
0.0
 11
30425.604341291921
 21
1581.749496429286
 31
0.0
  0
LINE
  5
4645
  8
YODOROGO
 10
30389.604341291921
 20
1593.7494964292871
 30
0.0
 11
30425.604341291921
 21
1593.7494964292871
 31
0.0
  0
LINE
  5
4646
  8
YODOROGO
 10
30389.604341291921
 20
1581.749496429286
 30
0.0
 11
30389.604341291921
 21
1593.7494964292871
 31
0.0
  0
LINE
  5
4647
  8
YODOROGO
 10
30421.604341291932
 20
1585.7494964292871
 30
0.0
 11
30393.604341291921
 21
1585.7494964292871
 31
0.0
  0
LINE
  5
4648
  8
YODOROGO
 10
30421.604341291932
 20
1589.749496429288
 30
0.0
 11
30421.604341291932
 21
1585.7494964292871
 31
0.0
  0
LINE
  5
4649
  8
YODOROGO
 10
30393.604341291921
 20
1589.749496429288
 30
0.0
 11
30421.604341291932
 21
1589.749496429288
 31
0.0
  0
LINE
  5
464A
  8
YODOROGO
 10
30393.604341291921
 20
1585.7494964292871
 30
0.0
 11
30393.604341291921
 21
1589.749496429288
 31
0.0
  0
LINE
  5
464B
  8
YODOROGO
 10
30465.604341291921
 20
1627.749496429288
 30
0.0
 11
30381.604341291932
 21
1627.749496429288
 31
0.0
  0
LINE
  5
464C
  8
YODOROGO
 10
30465.604341291921
 20
1547.749496429288
 30
0.0
 11
30465.604341291921
 21
1627.749496429288
 31
0.0
  0
LINE
  5
464D
  8
YODOROGO
 10
30381.604341291932
 20
1547.749496429288
 30
0.0
 11
30465.604341291921
 21
1547.749496429288
 31
0.0
  0
LINE
  5
464E
  8
YODOROGO
 10
30381.604341291932
 20
1427.749496429288
 30
0.0
 11
30381.604341291932
 21
1547.749496429288
 31
0.0
  0
LINE
  5
464F
  8
YODOROGO
 10
30537.604341291921
 20
1427.749496429288
 30
0.0
 11
30381.604341291932
 21
1427.749496429288
 31
0.0
  0
LINE
  5
4650
  8
YODOROGO
 10
30569.604341291921
 20
1571.749496429285
 30
0.0
 11
30569.604341291921
 21
1599.7494964292871
 31
0.0
  0
ARC
  5
4651
  8
YODOROGO
 10
30545.604341291921
 20
1571.749496429291
 30
0.0
 40
24.000000000003752
 50
270.0
 51
359.99999999998772
  0
LINE
  5
4652
  8
YODOROGO
 10
30529.604341291939
 20
1547.749496429288
 30
0.0
 11
30545.604341291921
 21
1547.749496429288
 31
0.0
  0
LINE
  5
4653
  8
YODOROGO
 10
30529.604341291939
 20
1627.749496429288
 30
0.0
 11
30529.604341291939
 21
1547.749496429288
 31
0.0
  0
LINE
  5
4654
  8
YODOROGO
 10
30899.604341291932
 20
1547.749496429288
 30
0.0
 11
30925.604341291921
 21
1547.749496429288
 31
0.0
  0
LINE
  5
4655
  8
YODOROGO
 10
30933.604341291921
 20
1427.749496429288
 30
0.0
 11
30899.604341291932
 21
1427.749496429288
 31
0.0
  0
LINE
  5
4656
  8
YODOROGO
 10
30763.604341291921
 20
1563.7494964292871
 30
0.0
 11
30791.604341291921
 21
1563.7494964292871
 31
0.0
  0
LINE
  5
4657
  8
YODOROGO
 10
30899.604341291932
 20
1491.749496429288
 30
0.0
 11
30723.604341291921
 21
1491.749496429288
 31
0.0
  0
LINE
  5
4658
  8
YODOROGO
 10
30831.604341291921
 20
1563.7494964292871
 30
0.0
 11
30859.604341291932
 21
1563.7494964292871
 31
0.0
  0
LINE
  5
4659
  8
YODOROGO
 10
30899.604341291932
 20
1427.749496429288
 30
0.0
 11
30899.604341291932
 21
1547.749496429288
 31
0.0
  0
LINE
  5
465A
  8
YODOROGO
 10
30697.604341291932
 20
1427.749496429288
 30
0.0
 11
30645.604341291921
 21
1427.749496429288
 31
0.0
  0
LINE
  5
465B
  8
YODOROGO
 10
30617.604341291921
 20
1599.7494964292871
 30
0.0
 11
30617.604341291921
 21
1507.749496429288
 31
0.0
  0
ARC
  5
465C
  8
YODOROGO
 10
30933.604341291921
 20
1467.749496429288
 30
0.0
 40
40.0
 50
270.0
 51
0.0
  0
LINE
  5
465D
  8
YODOROGO
 10
31093.604341291921
 20
1523.7494964292871
 30
0.0
 11
31093.604341291921
 21
1427.749496429288
 31
0.0
  0
ARC
  5
465E
  8
YODOROGO
 10
31039.721395566768
 20
1637.5313901097329
 30
0.0
 40
125.8955565916754
 50
295.34052442160117
 51
359.18902303418679
  0
LINE
  5
465F
  8
YODOROGO
 10
30617.604341291921
 20
1859.7494964292871
 30
0.0
 11
30497.604341291921
 21
1939.749496429288
 31
0.0
  0
LINE
  5
4660
  8
YODOROGO
 10
30497.604341291921
 20
2027.749496429288
 30
0.0
 11
30617.604341291921
 21
1947.749496429288
 31
0.0
  0
LINE
  5
4661
  8
YODOROGO
 10
30529.604341291939
 20
1679.749496429288
 30
0.0
 11
30617.604341291921
 21
1679.749496429288
 31
0.0
  0
LINE
  5
4662
  8
YODOROGO
 10
30617.604341291921
 20
1735.7494964292871
 30
0.0
 11
30529.604341291939
 21
1735.7494964292871
 31
0.0
  0
LINE
  5
4663
  8
YODOROGO
 10
30381.604341291932
 20
1795.7494964292871
 30
0.0
 11
30617.604341291921
 21
1795.7494964292871
 31
0.0
  0
LINE
  5
4664
  8
YODOROGO
 10
30081.604341291921
 20
2027.749496429288
 30
0.0
 11
30021.604341291921
 21
2027.749496429288
 31
0.0
  0
LINE
  5
4665
  8
YODOROGO
 10
30081.604341291921
 20
1827.7494964292871
 30
0.0
 11
30081.604341291921
 21
2027.749496429288
 31
0.0
  0
LINE
  5
4666
  8
YODOROGO
 10
30021.604341291921
 20
1827.7494964292871
 30
0.0
 11
30081.604341291921
 21
1827.7494964292871
 31
0.0
  0
LINE
  5
4667
  8
YODOROGO
 10
30021.604341291921
 20
2027.749496429288
 30
0.0
 11
30021.604341291921
 21
1827.7494964292871
 31
0.0
  0
LINE
  5
4668
  8
YODOROGO
 10
30161.604341291921
 20
2027.749496429288
 30
0.0
 11
30217.604341291921
 21
2027.749496429288
 31
0.0
  0
LINE
  5
4669
  8
YODOROGO
 10
30161.604341291921
 20
1811.7494964292871
 30
0.0
 11
30161.604341291921
 21
2027.749496429288
 31
0.0
  0
ARC
  5
466A
  8
YODOROGO
 10
30121.604341291921
 20
1811.7494964292871
 30
0.0
 40
40.0
 50
270.0
 51
0.0
  0
LINE
  5
466B
  8
YODOROGO
 10
30021.604341291921
 20
1771.7494964292871
 30
0.0
 11
30121.604341291921
 21
1771.7494964292871
 31
0.0
  0
LINE
  5
466C
  8
YODOROGO
 10
30021.604341291921
 20
1707.749496429288
 30
0.0
 11
30021.604341291921
 21
1771.7494964292871
 31
0.0
  0
LINE
  5
466D
  8
YODOROGO
 10
30137.604341291921
 20
1707.749496429288
 30
0.0
 11
30021.604341291921
 21
1707.749496429288
 31
0.0
  0
ARC
  5
466E
  8
YODOROGO
 10
30137.604341291921
 20
1787.7494964292871
 30
0.0
 40
80.0
 50
270.0
 51
0.0
  0
LINE
  5
466F
  8
YODOROGO
 10
30217.604341291921
 20
2027.749496429288
 30
0.0
 11
30217.604341291921
 21
1787.7494964292871
 31
0.0
  0
LINE
  5
4670
  8
YODOROGO
 10
29977.604341291921
 20
1947.749496429288
 30
0.0
 11
29977.604341291921
 21
1995.7494964292871
 31
0.0
1001
AUTOCAD_POSTSCRIPT_FIGURE
1002
{
1000
PSFILL
1000
Grayscale
1000
Grayscale
1070
    25
1002
}
  0
LINE
  5
4671
  8
YODOROGO
 10
29977.604341291921
 20
1859.7494964292871
 30
0.0
 11
29977.604341291921
 21
1907.7494964292871
 31
0.0
1001
AUTOCAD_POSTSCRIPT_FIGURE
1002
{
1000
PSFILL
1000
Grayscale
1000
Grayscale
1070
    25
1002
}
  0
LINE
  5
4672
  8
YODOROGO
 10
29977.604341291921
 20
1707.749496429288
 30
0.0
 11
29977.604341291921
 21
1819.7494964292871
 31
0.0
1001
AUTOCAD_POSTSCRIPT_FIGURE
1002
{
1000
PSFILL
1000
Grayscale
1000
Grayscale
1070
    25
1002
}
  0
LINE
  5
4673
  8
YODOROGO
 10
30381.604341291932
 20
1907.7494964292871
 30
0.0
 11
30497.604341291921
 21
2027.749496429288
 31
0.0
  0
LINE
  5
4674
  8
YODOROGO
 10
30381.604341291932
 20
1819.7494964292871
 30
0.0
 11
30381.604341291932
 21
1907.7494964292871
 31
0.0
  0
LINE
  5
4675
  8
YODOROGO
 10
30497.604341291921
 20
1939.749496429288
 30
0.0
 11
30381.604341291932
 21
1819.7494964292871
 31
0.0
  0
LINE
  5
4676
  8
YODOROGO
 10
30465.604341291921
 20
1679.749496429288
 30
0.0
 11
30465.604341291921
 21
1735.7494964292871
 31
0.0
  0
LINE
  5
4677
  8
YODOROGO
 10
30381.604341291932
 20
1679.749496429288
 30
0.0
 11
30465.604341291921
 21
1679.749496429288
 31
0.0
  0
LINE
  5
4678
  8
YODOROGO
 10
30529.604341291939
 20
1735.7494964292871
 30
0.0
 11
30529.604341291939
 21
1679.749496429288
 31
0.0
  0
LINE
  5
4679
  8
YODOROGO
 10
30381.604341291932
 20
1735.7494964292871
 30
0.0
 11
30381.604341291932
 21
1795.7494964292871
 31
0.0
  0
LINE
  5
467A
  8
YODOROGO
 10
30465.604341291921
 20
1735.7494964292871
 30
0.0
 11
30381.604341291932
 21
1735.7494964292871
 31
0.0
  0
LINE
  5
467B
  8
YODOROGO
 10
30645.604341291921
 20
2027.749496429288
 30
0.0
 11
30973.604341291921
 21
2027.749496429288
 31
0.0
  0
LINE
  5
467C
  8
YODOROGO
 10
30925.604341291921
 20
1963.749496429286
 30
0.0
 11
30697.604341291932
 21
1963.749496429286
 31
0.0
  0
LINE
  5
467D
  8
YODOROGO
 10
30873.604341291921
 20
1819.7494964292871
 30
0.0
 11
30899.604341291932
 21
1819.7494964292871
 31
0.0
  0
LINE
  5
467E
  8
YODOROGO
 10
30899.604341291932
 20
1939.749496429288
 30
0.0
 11
30873.604341291921
 21
1819.7494964292871
 31
0.0
  0
LINE
  5
467F
  8
YODOROGO
 10
30851.604341291939
 20
1939.749496429288
 30
0.0
 11
30899.604341291932
 21
1939.749496429288
 31
0.0
  0
LINE
  5
4680
  8
YODOROGO
 10
30825.604341291921
 20
1819.7494964292871
 30
0.0
 11
30851.604341291939
 21
1939.749496429288
 31
0.0
  0
LINE
  5
4681
  8
YODOROGO
 10
30797.604341291921
 20
1819.7494964292871
 30
0.0
 11
30825.604341291921
 21
1819.7494964292871
 31
0.0
  0
LINE
  5
4682
  8
YODOROGO
 10
30771.604341291939
 20
1939.749496429288
 30
0.0
 11
30797.604341291921
 21
1819.7494964292871
 31
0.0
  0
LINE
  5
4683
  8
YODOROGO
 10
30723.604341291921
 20
1939.749496429288
 30
0.0
 11
30771.604341291939
 21
1939.749496429288
 31
0.0
  0
LINE
  5
4684
  8
YODOROGO
 10
30749.604341291921
 20
1819.7494964292871
 30
0.0
 11
30723.604341291921
 21
1939.749496429288
 31
0.0
  0
LINE
  5
4685
  8
YODOROGO
 10
30723.604341291921
 20
1819.7494964292871
 30
0.0
 11
30749.604341291921
 21
1819.7494964292871
 31
0.0
  0
LINE
  5
4686
  8
YODOROGO
 10
30723.604341291921
 20
1755.7494964292871
 30
0.0
 11
30723.604341291921
 21
1819.7494964292871
 31
0.0
  0
LINE
  5
4687
  8
YODOROGO
 10
30899.604341291932
 20
1755.7494964292871
 30
0.0
 11
30723.604341291921
 21
1755.7494964292871
 31
0.0
  0
LINE
  5
4688
  8
YODOROGO
 10
30899.604341291932
 20
1819.7494964292871
 30
0.0
 11
30899.604341291932
 21
1755.7494964292871
 31
0.0
  0
LINE
  5
4689
  8
YODOROGO
 10
30617.604341291921
 20
1947.749496429288
 30
0.0
 11
30617.604341291921
 21
1859.7494964292871
 31
0.0
  0
LINE
  5
468A
  8
YODOROGO
 10
30791.604341291921
 20
1755.7494964292871
 30
0.0
 11
30831.604341291921
 21
1755.7494964292871
 31
0.0
  0
LINE
  5
468B
  8
YODOROGO
 10
30723.604341291921
 20
1691.749496429288
 30
0.0
 11
30763.604341291921
 21
1691.749496429288
 31
0.0
  0
LINE
  5
468C
  8
YODOROGO
 10
30859.604341291932
 20
1691.749496429288
 30
0.0
 11
30899.604341291932
 21
1691.749496429288
 31
0.0
  0
LINE
  5
468D
  8
YODOROGO
 10
30617.604341291921
 20
1795.7494964292871
 30
0.0
 11
30617.604341291921
 21
1735.7494964292871
 31
0.0
  0
LINE
  5
468E
  8
YODOROGO
 10
31165.604341291921
 20
2027.749496429288
 30
0.0
 11
31165.604341291921
 21
1963.749496429286
 31
0.0
  0
LINE
  5
468F
  8
YODOROGO
 10
31533.604341291921
 20
1595.7494964292871
 30
0.0
 11
31533.60434129191
 21
1811.7494964292871
 31
0.0
  0
LINE
  5
4690
  8
YODOROGO
 10
31461.60434129191
 20
1987.7494964292871
 30
0.0
 11
31461.60434129191
 21
1635.7494964292871
 31
0.0
  0
LINE
  5
4691
  8
YODOROGO
 10
31653.604341291921
 20
1427.749496429288
 30
0.0
 11
31653.60434129191
 21
1811.7494964292871
 31
0.0
  0
LINE
  5
4692
  8
YODOROGO
 10
31589.604341291921
 20
1811.7494964292871
 30
0.0
 11
31589.604341291921
 21
1427.749496429288
 31
0.0
  0
LINE
  5
4693
  8
YODOROGO
 10
31237.604341291921
 20
1595.7494964292871
 30
0.0
 11
31237.604341291921
 21
1707.749496429288
 31
0.0
  0
ARC
  5
4694
  8
YODOROGO
 10
31353.914865116069
 20
1607.790351288558
 30
0.0
 40
180.09244857598841
 50
268.62849102169793
 51
356.16638457330322
  0
LINE
  5
4695
  8
YODOROGO
 10
31349.604341291939
 20
1527.749496429288
 30
0.0
 11
31349.604341291939
 21
1427.749496429288
 31
0.0
  0
ARC
  5
4696
  8
YODOROGO
 10
31351.518075724562
 20
1637.838957017655
 30
0.0
 40
110.1060929836122
 50
269.00410209305932
 51
358.91264455492478
  0
LINE
  5
4697
  8
YODOROGO
 10
31589.604341291921
 20
1427.749496429288
 30
0.0
 11
31653.604341291921
 21
1427.749496429288
 31
0.0
  0
LINE
  5
4698
  8
YODOROGO
 10
31533.60434129191
 20
1811.7494964292871
 30
0.0
 11
31589.604341291921
 21
1811.7494964292871
 31
0.0
  0
LINE
  5
4699
  8
YODOROGO
 10
31621.604341291939
 20
1987.7494964292871
 30
0.0
 11
31461.60434129191
 21
1987.7494964292871
 31
0.0
  0
LINE
  5
469A
  8
YODOROGO
 10
31533.60434129191
 20
1915.7494964292871
 30
0.0
 11
31661.604341291939
 21
1915.7494964292871
 31
0.0
  0
LINE
  5
469B
  8
YODOROGO
 10
31701.604341291939
 20
1875.7494964292871
 30
0.0
 11
31533.60434129191
 21
1875.7494964292871
 31
0.0
  0
LINE
  5
469C
  8
YODOROGO
 10
31237.604341291921
 20
1779.7494964292871
 30
0.0
 11
31349.604341291939
 21
1779.7494964292871
 31
0.0
  0
LINE
  5
469D
  8
YODOROGO
 10
31237.604341291921
 20
1835.7494964292871
 30
0.0
 11
31237.604341291921
 21
1779.7494964292871
 31
0.0
  0
LINE
  5
469E
  8
YODOROGO
 10
31349.604341291939
 20
1835.7494964292871
 30
0.0
 11
31237.604341291921
 21
1835.7494964292871
 31
0.0
  0
LINE
  5
469F
  8
YODOROGO
 10
31349.604341291939
 20
1779.7494964292871
 30
0.0
 11
31349.604341291939
 21
1835.7494964292871
 31
0.0
  0
LINE
  5
46A0
  8
YODOROGO
 10
31533.60434129191
 20
1875.7494964292871
 30
0.0
 11
31533.60434129191
 21
1915.7494964292871
 31
0.0
  0
LINE
  5
46A1
  8
YODOROGO
 10
31413.604341291921
 20
1707.749496429288
 30
0.0
 11
31413.604341291921
 21
1907.7494964292871
 31
0.0
  0
LINE
  5
46A2
  8
YODOROGO
 10
31237.604341291921
 20
1707.749496429288
 30
0.0
 11
31413.604341291921
 21
1707.749496429288
 31
0.0
  0
LINE
  5
46A3
  8
YODOROGO
 10
31413.604341291921
 20
1963.749496429286
 30
0.0
 11
31413.604341291921
 21
2027.749496429288
 31
0.0
  0
ARC
  5
46A4
  8
YODOROGO
 10
31621.604341291939
 20
2003.749496429285
 30
0.0
 40
15.999999999994539
 50
270.0
 51
0.0000000000081422
  0
LINE
  5
46A5
  8
YODOROGO
 10
31637.604341291921
 20
2027.749496429288
 30
0.0
 11
31637.604341291921
 21
2003.7494964292871
 31
0.0
  0
LINE
  5
46A6
  8
YODOROGO
 10
31701.604341291939
 20
2027.749496429288
 30
0.0
 11
31637.604341291921
 21
2027.749496429288
 31
0.0
  0
LINE
  5
46A7
  8
YODOROGO
 10
31701.604341291939
 20
1955.7494964292871
 30
0.0
 11
31701.604341291939
 21
2027.749496429288
 31
0.0
  0
ARC
  5
46A8
  8
YODOROGO
 10
31661.604341291939
 20
1955.7494964292871
 30
0.0
 40
40.0
 50
270.0
 51
0.0
  0
LINE
  5
46A9
  8
YODOROGO
 10
31701.604341291939
 20
1811.7494964292871
 30
0.0
 11
31701.604341291939
 21
1875.7494964292871
 31
0.0
  0
LINE
  5
46AA
  8
YODOROGO
 10
31653.60434129191
 20
1811.7494964292871
 30
0.0
 11
31701.604341291939
 21
1811.7494964292871
 31
0.0
  0
LINE
  5
46AE
  8
SUNPOU
  6
CONTINUOUS
 62
     4
 10
9189.5848469999873
 20
14315.544472999991
 30
0.0
 11
8342.5894259999877
 21
14315.544472999991
 31
0.0
  0
LINE
  5
46AF
  8
SUNPOU
  6
CONTINUOUS
 62
     4
 10
8422.5894259999877
 20
14508.039787999989
 30
0.0
 11
8422.5894259999877
 21
14315.544472999991
 31
0.0
  0
LINE
  5
46B0
  8
SUNPOU
  6
CONTINUOUS
 62
     4
 10
9053.2916979999809
 20
15616.7802995
 30
0.0
 11
8342.5894259999877
 21
15616.7802995
 31
0.0
  0
LINE
  5
46B1
  8
SUNPOU
  6
CONTINUOUS
 62
     4
 10
8422.5894259999877
 20
15616.7802995
 30
0.0
 11
8422.5894259999877
 21
14508.039787999989
 31
0.0
  0
LINE
  5
46B2
  8
SUNPOU
  6
CONTINUOUS
 62
     4
 10
9053.2916979999809
 20
15616.7802995
 30
0.0
 11
8342.5894259999877
 21
15616.7802995
 31
0.0
  0
LINE
  5
46B3
  8
SUNPOU
  6
CONTINUOUS
 62
     4
 10
8422.5894259999877
 20
17075.53978799998
 30
0.0
 11
8422.5894259999877
 21
15616.7802995
 31
0.0
  0
LINE
  5
46B4
  8
SUNPOU
  6
CONTINUOUS
 62
     4
 10
9189.5848469999873
 20
19845.535697000021
 30
0.0
 11
8742.5894259999877
 21
19845.535697000021
 31
0.0
  0
LINE
  5
46B5
  8
SUNPOU
  6
CONTINUOUS
 62
     4
 10
9189.5892019999847
 20
19865.53569700001
 30
0.0
 11
8742.5894259999877
 21
19865.53569700001
 31
0.0
  0
LINE
  5
46B7
  8
SUNPOU
  6
CONTINUOUS
 62
     4
 10
8822.5894259999877
 20
19865.53569700001
 30
0.0
 11
8822.5894259999877
 21
20105.535697000021
 31
0.0
  0
LINE
  5
46B8
  8
SUNPOU
  6
CONTINUOUS
 62
     4
 10
8822.5894259999877
 20
19825.535697000021
 30
0.0
 11
8822.5894259999877
 21
19865.53569700001
 31
0.0
  0
LINE
  5
46B9
  8
SUNPOU
  6
CONTINUOUS
 62
     4
 10
9189.5892019999847
 20
19865.53569700001
 30
0.0
 11
8342.5894259999877
 21
19865.53569700001
 31
0.0
  0
LINE
  5
46BA
  8
SUNPOU
  6
CONTINUOUS
 62
     4
 10
8422.5894259999877
 20
19643.039787999991
 30
0.0
 11
8422.5894259999877
 21
19865.53569700001
 31
0.0
  0
LINE
  5
46BB
  8
SUNPOU
  6
CONTINUOUS
 62
     4
 10
9039.151006999984
 20
18534.539787999998
 30
0.0
 11
8342.5894259999877
 21
18534.539787999998
 31
0.0
  0
LINE
  5
46BC
  8
SUNPOU
  6
CONTINUOUS
 62
     4
 10
8422.5894259999877
 20
18534.539787999998
 30
0.0
 11
8422.5894259999877
 21
19643.039787999991
 31
0.0
  0
LINE
  5
46BD
  8
SUNPOU
  6
CONTINUOUS
 62
     4
 10
9039.151006999984
 20
18534.539787999998
 30
0.0
 11
8342.5894259999877
 21
18534.539787999998
 31
0.0
  0
LINE
  5
46BE
  8
SUNPOU
  6
CONTINUOUS
 62
     4
 10
8422.5894259999877
 20
17075.53978799998
 30
0.0
 11
8422.5894259999877
 21
18534.539787999998
 31
0.0
  0
LINE
  5
46BF
  8
SUNPOU
  6
CONTINUOUS
 62
     4
 10
9266.5888769999856
 20
19945.535697000021
 30
0.0
 11
9266.5888769999856
 21
20495.540976000011
 31
0.0
  0
LINE
  5
46C0
  8
SUNPOU
  6
CONTINUOUS
 62
     4
 10
9352.0888769999856
 20
20415.540976000011
 30
0.0
 11
9592.0888769999856
 21
20415.540976000011
 31
0.0
  0
LINE
  5
46C1
  8
SUNPOU
  6
CONTINUOUS
 62
     4
 10
9269.5888769999856
 20
20415.540976000011
 30
0.0
 11
9029.5888769999856
 21
20415.540976000011
 31
0.0
  0
LINE
  5
46C2
  8
SUNPOU
  6
CONTINUOUS
 62
     4
 10
9352.0888769999856
 20
20415.540976000011
 30
0.0
 11
9269.5888769999856
 21
20415.540976000011
 31
0.0
  0
LINE
  5
46C3
  8
SUNPOU
  6
CONTINUOUS
 62
     4
 10
11919.58887699998
 20
20415.540976000011
 30
0.0
 11
9352.0888769999856
 21
20415.540976000011
 31
0.0
  0
LINE
  5
46C4
  8
SUNPOU
  6
CONTINUOUS
 62
     4
 10
14572.58887699998
 20
19945.535697000021
 30
0.0
 11
14572.58887699998
 21
20495.540976000011
 31
0.0
  0
LINE
  5
46C5
  8
SUNPOU
  6
CONTINUOUS
 62
     4
 10
14487.08887699998
 20
20415.540976000011
 30
0.0
 11
14247.08887699996
 21
20415.540976000011
 31
0.0
  0
LINE
  5
46C6
  8
SUNPOU
  6
CONTINUOUS
 62
     4
 10
14569.58887699998
 20
20415.540976000011
 30
0.0
 11
14809.58887699998
 21
20415.540976000011
 31
0.0
  0
LINE
  5
46C7
  8
SUNPOU
  6
CONTINUOUS
 62
     4
 10
14487.08887699998
 20
20415.540976000011
 30
0.0
 11
14569.58887699998
 21
20415.540976000011
 31
0.0
  0
LINE
  5
46C8
  8
SUNPOU
  6
CONTINUOUS
 62
     4
 10
11919.58887699998
 20
20415.540976000011
 30
0.0
 11
14487.08887699998
 21
20415.540976000011
 31
0.0
  0
LINE
  5
46C9
  8
SUNPOU
  6
CONTINUOUS
 62
     4
 10
24905.04415499997
 20
14915.66004375
 30
0.0
 11
25955.045474999992
 21
14915.66004375
 31
0.0
  0
LINE
  5
46CA
  8
SUNPOU
  6
CONTINUOUS
 62
     4
 10
25755.045474999992
 20
14508.16004375
 30
0.0
 11
25955.045474999992
 21
14508.16004375
 31
0.0
  0
LINE
  5
46CB
  8
SUNPOU
  6
CONTINUOUS
 62
     4
 10
25875.045474999992
 20
14915.66004375
 30
0.0
 11
25875.045474999992
 21
14508.16004375
 31
0.0
  0
LINE
  5
46CC
  8
SUNPOU
  6
CONTINUOUS
 62
     4
 10
24905.04415499997
 20
19235.539787999998
 30
0.0
 11
25955.045474999992
 21
19235.539787999998
 31
0.0
  0
LINE
  5
46CD
  8
SUNPOU
  6
CONTINUOUS
 62
     4
 10
25755.045474999992
 20
19643.039787999991
 30
0.0
 11
25955.045474999992
 21
19643.039787999991
 31
0.0
  0
LINE
  5
46CE
  8
SUNPOU
  6
CONTINUOUS
 62
     4
 10
25875.045474999992
 20
19235.539787999998
 30
0.0
 11
25875.045474999992
 21
19643.039787999991
 31
0.0
  0
LINE
  5
46CF
  8
SUNPOU
  6
CONTINUOUS
 62
     4
 10
19525.049565999969
 20
18534.539787999998
 30
0.0
 11
18638.091293999969
 21
18534.539787999998
 31
0.0
  0
LINE
  5
46D0
  8
SUNPOU
  6
CONTINUOUS
 62
     4
 10
18718.091293999969
 20
18534.539787999998
 30
0.0
 11
18718.091293999969
 21
19643.039787999991
 31
0.0
  0
LINE
  5
46D1
  8
SUNPOU
  6
CONTINUOUS
 62
     4
 10
19525.049565999969
 20
18534.539787999998
 30
0.0
 11
18638.091293999969
 21
18534.539787999998
 31
0.0
  0
LINE
  5
46D2
  8
SUNPOU
  6
CONTINUOUS
 62
     4
 10
18718.091293999969
 20
17075.53978799998
 30
0.0
 11
18718.091293999969
 21
18534.539787999998
 31
0.0
  0
LINE
  5
46D3
  8
SUNPOU
  6
CONTINUOUS
 62
     4
 10
19525.049565999969
 20
15616.7802995
 30
0.0
 11
18638.091293999969
 21
15616.7802995
 31
0.0
  0
LINE
  5
46D4
  8
SUNPOU
  6
CONTINUOUS
 62
     4
 10
18718.091293999969
 20
15616.7802995
 30
0.0
 11
18718.091293999969
 21
17075.53978799998
 31
0.0
  0
LINE
  5
46D5
  8
SUNPOU
  6
CONTINUOUS
 62
     4
 10
19525.049565999969
 20
15616.7802995
 30
0.0
 11
18638.091293999969
 21
15616.7802995
 31
0.0
  0
LINE
  5
46D6
  8
SUNPOU
  6
CONTINUOUS
 62
     4
 10
18718.091293999969
 20
14508.039787999989
 30
0.0
 11
18718.091293999969
 21
15616.7802995
 31
0.0
  0
LINE
  5
46D7
  8
SUNPOU
  6
CONTINUOUS
 62
     4
 10
19647.54587099998
 20
13802.276354
 30
0.0
 11
19647.54587099998
 21
13456.591703999989
 31
0.0
  0
LINE
  5
46D8
  8
SUNPOU
  6
CONTINUOUS
 62
     4
 10
19605.043627999981
 20
14385.542493000001
 30
0.0
 11
19605.043627999981
 21
13456.591703999989
 31
0.0
  0
LINE
  5
46D9
  8
SUNPOU
  6
CONTINUOUS
 62
     4
 10
19647.54587099998
 20
13536.59170399998
 30
0.0
 11
19887.54587099998
 21
13536.59170399998
 31
0.0
  0
LINE
  5
46DA
  8
SUNPOU
  6
CONTINUOUS
 62
     4
 10
19605.043627999981
 20
13536.59170399998
 30
0.0
 11
19365.043627999981
 21
13536.59170399998
 31
0.0
  0
LINE
  5
46DB
  8
SUNPOU
  6
CONTINUOUS
 62
     4
 10
19647.54587099998
 20
13536.59170399998
 30
0.0
 11
19605.043627999981
 21
13536.59170399998
 31
0.0
  0
LINE
  5
46DC
  8
SUNPOU
  6
CONTINUOUS
 62
     4
 10
24782.54587099998
 20
13802.276354
 30
0.0
 11
24782.54587099998
 21
13456.591703999989
 31
0.0
  0
LINE
  5
46DD
  8
SUNPOU
  6
CONTINUOUS
 62
     4
 10
24825.048113999968
 20
14385.542493000001
 30
0.0
 11
24825.048113999968
 21
13456.591703999989
 31
0.0
  0
LINE
  5
46DE
  8
SUNPOU
  6
CONTINUOUS
 62
     4
 10
24782.54587099998
 20
13536.59170399998
 30
0.0
 11
24542.54587099998
 21
13536.59170399998
 31
0.0
  0
LINE
  5
46DF
  8
SUNPOU
  6
CONTINUOUS
 62
     4
 10
24825.048113999968
 20
13536.59170399998
 30
0.0
 11
25065.048113999968
 21
13536.59170399998
 31
0.0
  0
LINE
  5
46E0
  8
SUNPOU
  6
CONTINUOUS
 62
     4
 10
24782.54587099998
 20
13536.59170399998
 30
0.0
 11
24825.048113999968
 21
13536.59170399998
 31
0.0
  0
LINE
  5
46E1
  8
2-0
  6
CONTINUOUS
 62
     3
 10
22172.54587099998
 20
14465.539788
 30
0.0
 11
22257.54587099998
 21
14465.539788
 31
0.0
  0
LINE
  5
46E2
  8
2-0
  6
CONTINUOUS
 62
     3
 10
22257.54587099998
 20
14465.539788
 30
0.0
 11
22257.54587099998
 21
14550.539788
 31
0.0
  0
LINE
  5
46E3
  8
2-0
  6
CONTINUOUS
 62
     3
 10
22257.54587099998
 20
14550.539788
 30
0.0
 11
22172.54587099998
 21
14550.539788
 31
0.0
  0
LINE
  5
46E4
  8
2-0
  6
CONTINUOUS
 62
     3
 10
22172.54587099998
 20
14550.539788
 30
0.0
 11
22172.54587099998
 21
14465.539788
 31
0.0
  0
LINE
  5
46E5
  8
SUNPOU
  6
CONTINUOUS
 62
     4
 10
24782.54587099998
 20
13802.276354
 30
0.0
 11
24782.54587099998
 21
13456.591703999989
 31
0.0
  0
LINE
  5
46E6
  8
SUNPOU
  6
CONTINUOUS
 62
     4
 10
24740.043627999981
 20
14385.542493000001
 30
0.0
 11
24740.043627999981
 21
13456.591703999989
 31
0.0
  0
LINE
  5
46E7
  8
SUNPOU
  6
CONTINUOUS
 62
     4
 10
24782.54587099998
 20
13536.59170399998
 30
0.0
 11
25022.54587099998
 21
13536.59170399998
 31
0.0
  0
LINE
  5
46E8
  8
SUNPOU
  6
CONTINUOUS
 62
     4
 10
24740.043627999981
 20
13536.59170399998
 30
0.0
 11
24500.043627999981
 21
13536.59170399998
 31
0.0
  0
LINE
  5
46E9
  8
SUNPOU
  6
CONTINUOUS
 62
     4
 10
24782.54587099998
 20
13536.59170399998
 30
0.0
 11
24740.043627999981
 21
13536.59170399998
 31
0.0
  0
LINE
  5
46EA
  8
SUNPOU
  6
CONTINUOUS
 62
     4
 10
19647.54587099998
 20
13802.276354
 30
0.0
 11
19647.54587099998
 21
13456.591703999989
 31
0.0
  0
LINE
  5
46EB
  8
SUNPOU
  6
CONTINUOUS
 62
     4
 10
19690.048113999961
 20
14385.542493000001
 30
0.0
 11
19690.048113999961
 21
13456.591703999989
 31
0.0
  0
LINE
  5
46EC
  8
SUNPOU
  6
CONTINUOUS
 62
     4
 10
19647.54587099998
 20
13536.59170399998
 30
0.0
 11
19407.54587099998
 21
13536.59170399998
 31
0.0
  0
LINE
  5
46ED
  8
SUNPOU
  6
CONTINUOUS
 62
     4
 10
19690.048113999961
 20
13536.59170399998
 30
0.0
 11
19930.048113999961
 21
13536.59170399998
 31
0.0
  0
LINE
  5
46EE
  8
SUNPOU
  6
CONTINUOUS
 62
     4
 10
19647.54587099998
 20
13536.59170399998
 30
0.0
 11
19690.048113999961
 21
13536.59170399998
 31
0.0
  0
LINE
  5
46EF
  8
SUNPOU
  6
CONTINUOUS
 62
     4
 10
19605.043627999981
 20
14385.542493000001
 30
0.0
 11
19605.043627999981
 21
13056.591704
 31
0.0
  0
LINE
  5
46F0
  8
SUNPOU
  6
CONTINUOUS
 62
     4
 10
24825.048113999968
 20
14385.542493000001
 30
0.0
 11
24825.048113999968
 21
13056.591704
 31
0.0
  0
LINE
  5
46F1
  8
SUNPOU
  6
CONTINUOUS
 62
     4
 10
19605.043627999981
 20
13136.591704
 30
0.0
 11
24825.048113999968
 21
13136.591704
 31
0.0
  0
LINE
  5
46F2
  8
SUNPOU
  6
CONTINUOUS
 62
     4
 10
24905.044154999981
 20
15616.7802995
 30
0.0
 11
25955.045474999992
 21
15616.7802995
 31
0.0
  0
LINE
  5
46F3
  8
SUNPOU
  6
CONTINUOUS
 62
     4
 10
24905.044154999981
 20
14915.539788
 30
0.0
 11
25955.045474999992
 21
14915.539788
 31
0.0
  0
LINE
  5
46F4
  8
SUNPOU
  6
CONTINUOUS
 62
     4
 10
25875.045474999992
 20
15616.7802995
 30
0.0
 11
25875.045474999992
 21
14915.539788
 31
0.0
  0
LINE
  5
46F5
  8
SUNPOU
  6
CONTINUOUS
 62
     4
 10
24905.044154999981
 20
16317.539788
 30
0.0
 11
25955.045474999992
 21
16317.539788
 31
0.0
  0
LINE
  5
46F6
  8
SUNPOU
  6
CONTINUOUS
 62
     4
 10
24905.044154999981
 20
15616.7802995
 30
0.0
 11
25955.045474999992
 21
15616.7802995
 31
0.0
  0
LINE
  5
46F7
  8
SUNPOU
  6
CONTINUOUS
 62
     4
 10
25875.045474999992
 20
16317.539788
 30
0.0
 11
25875.045474999992
 21
15616.7802995
 31
0.0
  0
LINE
  5
46F8
  8
SUNPOU
  6
CONTINUOUS
 62
     4
 10
25755.045474999992
 20
17075.53978799998
 30
0.0
 11
25955.045474999992
 21
17075.53978799998
 31
0.0
  0
LINE
  5
46F9
  8
SUNPOU
  6
CONTINUOUS
 62
     4
 10
24905.044154999981
 20
16317.539788
 30
0.0
 11
25955.045474999992
 21
16317.539788
 31
0.0
  0
LINE
  5
46FA
  8
SUNPOU
  6
CONTINUOUS
 62
     4
 10
25875.045474999992
 20
17075.53978799998
 30
0.0
 11
25875.045474999992
 21
16317.539788
 31
0.0
  0
LINE
  5
46FB
  8
SUNPOU
  6
CONTINUOUS
 62
     4
 10
24905.044154999981
 20
17833.539787999991
 30
0.0
 11
25955.045474999992
 21
17833.539787999991
 31
0.0
  0
LINE
  5
46FC
  8
SUNPOU
  6
CONTINUOUS
 62
     4
 10
25755.045474999992
 20
17075.53978799998
 30
0.0
 11
25955.045474999992
 21
17075.53978799998
 31
0.0
  0
LINE
  5
46FD
  8
SUNPOU
  6
CONTINUOUS
 62
     4
 10
25875.045474999992
 20
17833.539787999991
 30
0.0
 11
25875.045474999992
 21
17075.53978799998
 31
0.0
  0
LINE
  5
46FE
  8
SUNPOU
  6
CONTINUOUS
 62
     4
 10
24905.044154999981
 20
18534.539787999998
 30
0.0
 11
25955.045474999992
 21
18534.539787999998
 31
0.0
  0
LINE
  5
46FF
  8
SUNPOU
  6
CONTINUOUS
 62
     4
 10
24905.044154999981
 20
17833.539787999991
 30
0.0
 11
25955.045474999992
 21
17833.539787999991
 31
0.0
  0
LINE
  5
4700
  8
SUNPOU
  6
CONTINUOUS
 62
     4
 10
25875.045474999992
 20
18534.539787999998
 30
0.0
 11
25875.045474999992
 21
17833.539787999991
 31
0.0
  0
LINE
  5
4701
  8
SUNPOU
  6
CONTINUOUS
 62
     4
 10
24905.044154999981
 20
19235.539787999998
 30
0.0
 11
25955.045474999992
 21
19235.539787999998
 31
0.0
  0
LINE
  5
4702
  8
SUNPOU
  6
CONTINUOUS
 62
     4
 10
24905.044154999981
 20
18534.539787999998
 30
0.0
 11
25955.045474999992
 21
18534.539787999998
 31
0.0
  0
LINE
  5
4703
  8
SUNPOU
  6
CONTINUOUS
 62
     4
 10
25875.045474999992
 20
19235.539787999998
 30
0.0
 11
25875.045474999992
 21
18534.539787999998
 31
0.0
  0
LINE
  5
4704
  8
SUNPOU
  6
CONTINUOUS
 62
     4
 10
25755.045474999992
 20
17075.53978799998
 30
0.0
 11
26355.045474999992
 21
17075.53978799998
 31
0.0
  0
LINE
  5
4705
  8
SUNPOU
  6
CONTINUOUS
 62
     4
 10
25755.045474999992
 20
19643.039787999991
 30
0.0
 11
26355.045474999992
 21
19643.039787999991
 31
0.0
  0
LINE
  5
4706
  8
SUNPOU
  6
CONTINUOUS
 62
     4
 10
26275.045474999992
 20
17075.53978799998
 30
0.0
 11
26275.045474999992
 21
19643.039787999991
 31
0.0
  0
LINE
  5
4707
  8
SUNPOU
  6
CONTINUOUS
 62
     4
 10
25755.045474999992
 20
14508.039787999989
 30
0.0
 11
26355.045474999992
 21
14508.039787999989
 31
0.0
  0
LINE
  5
4708
  8
SUNPOU
  6
CONTINUOUS
 62
     4
 10
25755.045474999992
 20
17075.53978799998
 30
0.0
 11
26355.045474999992
 21
17075.53978799998
 31
0.0
  0
LINE
  5
4709
  8
SUNPOU
  6
CONTINUOUS
 62
     4
 10
26275.045474999992
 20
14508.039787999989
 30
0.0
 11
26275.045474999992
 21
17075.53978799998
 31
0.0
  0
LINE
  5
470A
  8
SUNPOU
  6
CONTINUOUS
 62
     4
 10
24905.044154999981
 20
19685.537082999988
 30
0.0
 11
26755.045474999992
 21
19685.537082999988
 31
0.0
  0
LINE
  5
470B
  8
SUNPOU
  6
CONTINUOUS
 62
     4
 10
24905.044154999981
 20
14465.542493000001
 30
0.0
 11
26755.045474999992
 21
14465.542493000001
 31
0.0
  0
LINE
  5
470C
  8
SUNPOU
  6
CONTINUOUS
 62
     4
 10
26675.045474999992
 20
19685.537082999988
 30
0.0
 11
26675.045474999992
 21
14465.542493000001
 31
0.0
  0
LINE
  5
470D
  8
SUNPOU
  6
CONTINUOUS
 62
     4
 10
25755.045474999992
 20
19643.039787999991
 30
0.0
 11
26355.045474999992
 21
19643.039787999991
 31
0.0
  0
LINE
  5
470E
  8
SUNPOU
  6
CONTINUOUS
 62
     4
 10
24905.044154999981
 20
19685.537082999988
 30
0.0
 11
26355.045474999992
 21
19685.537082999988
 31
0.0
  0
LINE
  5
470F
  8
SUNPOU
  6
CONTINUOUS
 62
     4
 10
26275.045474999992
 20
19643.039787999991
 30
0.0
 11
26275.045474999992
 21
19403.039787999991
 31
0.0
  0
LINE
  5
4710
  8
SUNPOU
  6
CONTINUOUS
 62
     4
 10
26275.045474999992
 20
19685.537082999988
 30
0.0
 11
26275.045474999992
 21
19925.537082999999
 31
0.0
  0
LINE
  5
4711
  8
SUNPOU
  6
CONTINUOUS
 62
     4
 10
26275.045474999992
 20
19643.039787999991
 30
0.0
 11
26275.045474999992
 21
19685.537082999988
 31
0.0
  0
LINE
  5
4712
  8
SUNPOU
  6
CONTINUOUS
 62
     4
 10
25755.045474999992
 20
14508.039787999989
 30
0.0
 11
26355.045474999992
 21
14508.039787999989
 31
0.0
  0
LINE
  5
4713
  8
SUNPOU
  6
CONTINUOUS
 62
     4
 10
24905.044154999981
 20
14465.542493000001
 30
0.0
 11
26355.045474999992
 21
14465.542493000001
 31
0.0
  0
LINE
  5
4714
  8
SUNPOU
  6
CONTINUOUS
 62
     4
 10
26275.045474999992
 20
14508.039787999989
 30
0.0
 11
26275.045474999992
 21
14748.03978799998
 31
0.0
  0
LINE
  5
4715
  8
SUNPOU
  6
CONTINUOUS
 62
     4
 10
26275.045474999992
 20
14465.542493000001
 30
0.0
 11
26275.045474999992
 21
14225.542493000001
 31
0.0
  0
LINE
  5
4716
  8
SUNPOU
  6
CONTINUOUS
 62
     4
 10
26275.045474999992
 20
14508.039787999989
 30
0.0
 11
26275.045474999992
 21
14465.542493000001
 31
0.0
  0
LINE
  5
4717
  8
SUNPOU
  6
CONTINUOUS
 62
     4
 10
22215.04587099998
 20
19765.538073000022
 30
0.0
 11
22215.04587099998
 21
20495.540976000011
 31
0.0
  0
LINE
  5
4718
  8
SUNPOU
  6
CONTINUOUS
 62
     4
 10
22622.545870999969
 20
19765.538073000022
 30
0.0
 11
22622.545870999969
 21
20495.540976000011
 31
0.0
  0
LINE
  5
4719
  8
SUNPOU
  6
CONTINUOUS
 62
     4
 10
22215.04587099998
 20
20415.540976000011
 30
0.0
 11
22622.545870999969
 21
20415.540976000011
 31
0.0
  0
LINE
  5
471A
  8
SUNPOU
  6
CONTINUOUS
 62
     4
 10
24024.54587099998
 20
19765.538073000022
 30
0.0
 11
24024.54587099998
 21
20495.540976000011
 31
0.0
  0
LINE
  5
471B
  8
SUNPOU
  6
CONTINUOUS
 62
     4
 10
24782.546860499991
 20
19765.538073000022
 30
0.0
 11
24782.546860499991
 21
20495.540976000011
 31
0.0
  0
LINE
  5
471C
  8
SUNPOU
  6
CONTINUOUS
 62
     4
 10
24024.54587099998
 20
20415.540976000011
 30
0.0
 11
24782.546860499991
 21
20415.540976000011
 31
0.0
  0
LINE
  5
471D
  8
SUNPOU
  6
CONTINUOUS
 62
     4
 10
23323.545870999969
 20
19765.538073000022
 30
0.0
 11
23323.545870999969
 21
20495.540976000011
 31
0.0
  0
LINE
  5
471E
  8
SUNPOU
  6
CONTINUOUS
 62
     4
 10
24024.54587099998
 20
19765.538073000022
 30
0.0
 11
24024.54587099998
 21
20495.540976000011
 31
0.0
  0
LINE
  5
471F
  8
SUNPOU
  6
CONTINUOUS
 62
     4
 10
23323.545870999969
 20
20415.540976000011
 30
0.0
 11
24024.54587099998
 21
20415.540976000011
 31
0.0
  0
LINE
  5
4720
  8
SUNPOU
  6
CONTINUOUS
 62
     4
 10
22622.545870999969
 20
19765.538073000022
 30
0.0
 11
22622.545870999969
 21
20495.540976000011
 31
0.0
  0
LINE
  5
4721
  8
SUNPOU
  6
CONTINUOUS
 62
     4
 10
23323.545870999969
 20
19765.538073000022
 30
0.0
 11
23323.545870999969
 21
20495.540976000011
 31
0.0
  0
LINE
  5
4722
  8
SUNPOU
  6
CONTINUOUS
 62
     4
 10
22622.545870999969
 20
20415.540976000011
 30
0.0
 11
23323.545870999969
 21
20415.540976000011
 31
0.0
  0
LINE
  5
4723
  8
SUNPOU
  6
CONTINUOUS
 62
     4
 10
24782.54587099998
 20
19765.538073000022
 30
0.0
 11
24782.54587099998
 21
20495.540976000011
 31
0.0
  0
LINE
  5
4724
  8
SUNPOU
  6
CONTINUOUS
 62
     4
 10
24825.042175999981
 20
19765.538073000022
 30
0.0
 11
24825.042175999981
 21
20495.540976000011
 31
0.0
  0
LINE
  5
4725
  8
SUNPOU
  6
CONTINUOUS
 62
     4
 10
24782.54587099998
 20
20415.540976000011
 30
0.0
 11
24542.54587099998
 21
20415.540976000011
 31
0.0
  0
LINE
  5
4726
  8
SUNPOU
  6
CONTINUOUS
 62
     4
 10
24825.042175999981
 20
20415.540976000011
 30
0.0
 11
25065.042175999981
 21
20415.540976000011
 31
0.0
  0
LINE
  5
4727
  8
SUNPOU
  6
CONTINUOUS
 62
     4
 10
24782.54587099998
 20
20415.540976000011
 30
0.0
 11
24825.042175999981
 21
20415.540976000011
 31
0.0
  0
LINE
  5
4728
  8
SUNPOU
  6
CONTINUOUS
 62
     4
 10
19647.54587099998
 20
19765.538073000022
 30
0.0
 11
19647.54587099998
 21
20495.540976000011
 31
0.0
  0
LINE
  5
4729
  8
SUNPOU
  6
CONTINUOUS
 62
     4
 10
20055.04587099998
 20
19765.538073000022
 30
0.0
 11
20055.04587099998
 21
20495.540976000011
 31
0.0
  0
LINE
  5
472A
  8
SUNPOU
  6
CONTINUOUS
 62
     4
 10
19647.54587099998
 20
20415.540976000011
 30
0.0
 11
20055.04587099998
 21
20415.540976000011
 31
0.0
  0
LINE
  5
472B
  8
SUNPOU
  6
CONTINUOUS
 62
     4
 10
19647.54587099998
 20
19765.538073000022
 30
0.0
 11
19647.54587099998
 21
20495.540976000011
 31
0.0
  0
LINE
  5
472C
  8
SUNPOU
  6
CONTINUOUS
 62
     4
 10
19605.049565999969
 20
19765.538073000022
 30
0.0
 11
19605.049565999969
 21
20495.540976000011
 31
0.0
  0
LINE
  5
472D
  8
SUNPOU
  6
CONTINUOUS
 62
     4
 10
19647.54587099998
 20
20415.540976000011
 30
0.0
 11
19887.54587099998
 21
20415.540976000011
 31
0.0
  0
LINE
  5
472E
  8
SUNPOU
  6
CONTINUOUS
 62
     4
 10
19605.049565999969
 20
20415.540976000011
 30
0.0
 11
19365.049565999969
 21
20415.540976000011
 31
0.0
  0
LINE
  5
472F
  8
SUNPOU
  6
CONTINUOUS
 62
     4
 10
19647.54587099998
 20
20415.540976000011
 30
0.0
 11
19605.049565999969
 21
20415.540976000011
 31
0.0
  0
LINE
  5
4730
  8
SUNPOU
  6
CONTINUOUS
 62
     4
 10
21457.04587099998
 20
19765.538073000022
 30
0.0
 11
21457.04587099998
 21
20495.540976000011
 31
0.0
  0
LINE
  5
4731
  8
SUNPOU
  6
CONTINUOUS
 62
     4
 10
22215.046860499991
 20
19765.538073000022
 30
0.0
 11
22215.046860499991
 21
20495.540976000011
 31
0.0
  0
LINE
  5
4732
  8
SUNPOU
  6
CONTINUOUS
 62
     4
 10
21457.04587099998
 20
20415.540976000011
 30
0.0
 11
22215.046860499991
 21
20415.540976000011
 31
0.0
  0
LINE
  5
4733
  8
SUNPOU
  6
CONTINUOUS
 62
     4
 10
20756.04587099998
 20
19765.538073000022
 30
0.0
 11
20756.04587099998
 21
20495.540976000011
 31
0.0
  0
LINE
  5
4734
  8
SUNPOU
  6
CONTINUOUS
 62
     4
 10
21457.04587099998
 20
19765.538073000022
 30
0.0
 11
21457.04587099998
 21
20495.540976000011
 31
0.0
  0
LINE
  5
4735
  8
SUNPOU
  6
CONTINUOUS
 62
     4
 10
20756.04587099998
 20
20415.540976000011
 30
0.0
 11
21457.04587099998
 21
20415.540976000011
 31
0.0
  0
LINE
  5
4736
  8
SUNPOU
  6
CONTINUOUS
 62
     4
 10
20055.04587099998
 20
19765.538073000022
 30
0.0
 11
20055.04587099998
 21
20495.540976000011
 31
0.0
  0
LINE
  5
4737
  8
SUNPOU
  6
CONTINUOUS
 62
     4
 10
20756.04587099998
 20
19765.538073000022
 30
0.0
 11
20756.04587099998
 21
20495.540976000011
 31
0.0
  0
LINE
  5
4738
  8
SUNPOU
  6
CONTINUOUS
 62
     4
 10
20055.04587099998
 20
20415.540976000011
 30
0.0
 11
20756.04587099998
 21
20415.540976000011
 31
0.0
  0
LINE
  5
4739
  8
SUNPOU
  6
CONTINUOUS
 62
     4
 10
19517.545211999979
 20
6367.0884779999951
 30
0.0
 11
18717.54653099996
 21
6367.0884779999951
 31
0.0
  0
LINE
  5
473A
  8
SUNPOU
  6
CONTINUOUS
 62
     4
 10
19517.545211999979
 20
8258.588477999996
 30
0.0
 11
18717.546530999982
 21
8258.588477999996
 31
0.0
  0
LINE
  5
473B
  8
SUNPOU
  6
CONTINUOUS
 62
     4
 10
18797.54653099996
 20
6367.0884779999951
 30
0.0
 11
18797.546530999982
 21
8258.588477999996
 31
0.0
  0
LINE
  5
473C
  8
SUNPOU
  6
CONTINUOUS
 62
     4
 10
19517.545211999979
 20
6367.0884779999951
 30
0.0
 11
18317.54422199995
 21
6367.0884779999969
 31
0.0
  0
LINE
  5
473D
  8
SUNPOU
  6
CONTINUOUS
 62
     4
 10
19485.045475999959
 20
8715.5879829999976
 30
0.0
 11
18317.54422199995
 21
8715.5879829999976
 31
0.0
  0
LINE
  5
473E
  8
SUNPOU
  6
CONTINUOUS
 62
     4
 10
18397.54422199995
 20
6367.0884779999969
 30
0.0
 11
18397.54422199995
 21
8715.5879829999976
 31
0.0
  0
LINE
  5
474F
  8
SUNPOU
  6
CONTINUOUS
 62
     4
 10
19741.54587099998
 20
6187.088643000001
 30
0.0
 11
19741.54587099998
 21
5387.0886430000019
 31
0.0
  0
LINE
  5
4750
  8
SUNPOU
  6
CONTINUOUS
 62
     4
 10
22121.04587099998
 20
6187.088643000001
 30
0.0
 11
22121.04587099998
 21
5387.0886430000019
 31
0.0
  0
LINE
  5
4751
  8
SUNPOU
  6
CONTINUOUS
 62
     4
 10
19741.54587099998
 20
5467.088643000001
 30
0.0
 11
22121.04587099998
 21
5467.088643000001
 31
0.0
  0
LINE
  5
4752
  8
SUNPOU
  6
CONTINUOUS
 62
     4
 10
22309.04587099998
 20
6187.088643000001
 30
0.0
 11
22309.04587099998
 21
5387.0886430000019
 31
0.0
  0
LINE
  5
4753
  8
SUNPOU
  6
CONTINUOUS
 62
     4
 10
24688.54587099998
 20
6187.088643000001
 30
0.0
 11
24688.54587099998
 21
5387.0886430000019
 31
0.0
  0
LINE
  5
4754
  8
SUNPOU
  6
CONTINUOUS
 62
     4
 10
22309.04587099998
 20
5467.088643000001
 30
0.0
 11
24688.54587099998
 21
5467.088643000001
 31
0.0
  0
LINE
  5
4755
  8
SUNPOU
  6
CONTINUOUS
 62
     4
 10
22215.04587099998
 20
5924.4362199999969
 30
0.0
 11
22215.04587099998
 21
4987.088643000001
 31
0.0
  0
LINE
  5
4756
  8
SUNPOU
  6
CONTINUOUS
 62
     4
 10
24782.54587099998
 20
5924.4362199999969
 30
0.0
 11
24782.54587099998
 21
4987.088643000001
 31
0.0
  0
LINE
  5
4757
  8
SUNPOU
  6
CONTINUOUS
 62
     4
 10
22215.04587099998
 20
5067.088643000001
 30
0.0
 11
24782.54587099998
 21
5067.088643000001
 31
0.0
  0
LINE
  5
4758
  8
SUNPOU
  6
CONTINUOUS
 62
     4
 10
19647.54587099998
 20
5924.4362199999969
 30
0.0
 11
19647.54587099998
 21
4987.088643000001
 31
0.0
  0
LINE
  5
4759
  8
SUNPOU
  6
CONTINUOUS
 62
     4
 10
22215.04587099998
 20
5924.4362199999969
 30
0.0
 11
22215.04587099998
 21
4987.088643000001
 31
0.0
  0
LINE
  5
475A
  8
SUNPOU
  6
CONTINUOUS
 62
     4
 10
19647.54587099998
 20
5067.088643000001
 30
0.0
 11
22215.04587099998
 21
5067.088643000001
 31
0.0
  0
LINE
  5
475B
  8
SUNPOU
  6
CONTINUOUS
 62
     4
 10
24782.549829999982
 20
5924.4362199999969
 30
0.0
 11
24782.549829999982
 21
4987.088643000001
 31
0.0
  0
LINE
  5
475C
  8
SUNPOU
  6
CONTINUOUS
 62
     4
 10
24825.049829999989
 20
6187.088643000001
 30
0.0
 11
24825.049829999989
 21
4987.088643000001
 31
0.0
  0
LINE
  5
475D
  8
SUNPOU
  6
CONTINUOUS
 62
     4
 10
24782.549829999982
 20
5067.088643000001
 30
0.0
 11
24542.549829999982
 21
5067.088643000001
 31
0.0
  0
LINE
  5
475E
  8
SUNPOU
  6
CONTINUOUS
 62
     4
 10
24825.049829999989
 20
5067.088643000001
 30
0.0
 11
25065.049829999989
 21
5067.088643000001
 31
0.0
  0
LINE
  5
475F
  8
SUNPOU
  6
CONTINUOUS
 62
     4
 10
24782.549829999982
 20
5067.088643000001
 30
0.0
 11
24825.049829999989
 21
5067.088643000001
 31
0.0
  0
LINE
  5
4760
  8
SUNPOU
  6
CONTINUOUS
 62
     4
 10
19647.54587099998
 20
5924.4362199999969
 30
0.0
 11
19647.54587099998
 21
4987.088643000001
 31
0.0
  0
LINE
  5
4761
  8
SUNPOU
  6
CONTINUOUS
 62
     4
 10
19605.04587099998
 20
6187.088643000001
 30
0.0
 11
19605.04587099998
 21
4987.088643000001
 31
0.0
  0
LINE
  5
4762
  8
SUNPOU
  6
CONTINUOUS
 62
     4
 10
19647.54587099998
 20
5067.088643000001
 30
0.0
 11
19887.54587099998
 21
5067.088643000001
 31
0.0
  0
LINE
  5
4763
  8
SUNPOU
  6
CONTINUOUS
 62
     4
 10
19605.04587099998
 20
5067.088643000001
 30
0.0
 11
19365.04587099998
 21
5067.088643000001
 31
0.0
  0
LINE
  5
4764
  8
SUNPOU
  6
CONTINUOUS
 62
     4
 10
19647.54587099998
 20
5067.088643000001
 30
0.0
 11
19605.04587099998
 21
5067.088643000001
 31
0.0
  0
LINE
  5
4765
  8
SUNPOU
  6
CONTINUOUS
 62
     4
 10
19605.04587099998
 20
6187.088643000001
 30
0.0
 11
19605.04587099998
 21
4587.0888079999977
 31
0.0
  0
LINE
  5
4766
  8
SUNPOU
  6
CONTINUOUS
 62
     4
 10
24825.045870999969
 20
6187.088643000001
 30
0.0
 11
24825.045870999969
 21
4587.0888079999977
 31
0.0
  0
LINE
  5
4767
  8
SUNPOU
  6
CONTINUOUS
 62
     4
 10
19605.04587099998
 20
4667.0888079999986
 30
0.0
 11
24825.045870999969
 21
4667.0888079999986
 31
0.0
  0
LINE
  5
4768
  8
SUNPOU
  6
CONTINUOUS
 62
     4
 10
14264.290408999999
 20
6367.0884780000006
 30
0.0
 11
15341.788825
 21
6367.0884780000006
 31
0.0
  0
LINE
  5
4769
  8
SUNPOU
  6
CONTINUOUS
 62
     4
 10
14356.59568859938
 20
8716.0884780000033
 30
0.0
 11
15341.788825
 21
8716.0884780000033
 31
0.0
  0
LINE
  5
476A
  8
SUNPOU
  6
CONTINUOUS
 62
     4
 10
15261.788825
 20
6367.0884780000006
 30
0.0
 11
15261.788825
 21
8716.0884780000033
 31
0.0
  0
LINE
  5
476B
  8
SUNPOU
  6
CONTINUOUS
 62
     4
 10
8864.2904090000047
 20
6367.0884780000006
 30
0.0
 11
7781.7900129999998
 21
6367.0884780000006
 31
0.0
  0
LINE
  5
476C
  8
SUNPOU
  6
CONTINUOUS
 62
     4
 10
8691.7904089999975
 20
8522.5884780000015
 30
0.0
 11
7781.7900129999998
 21
8522.5884780000015
 31
0.0
  0
LINE
  5
476D
  8
SUNPOU
  6
CONTINUOUS
 62
     4
 10
7861.7900130000007
 20
6367.0884780000006
 30
0.0
 11
7861.7900130000007
 21
8522.5884780000015
 31
0.0
  0
LINE
  5
476E
  8
SUNPOU
  6
CONTINUOUS
 62
     4
 10
14171.79040899999
 20
8661.9985410000008
 30
0.0
 11
14171.79040899999
 21
9595.0901529999992
 31
0.0
  0
LINE
  5
476F
  8
SUNPOU
  6
CONTINUOUS
 62
     4
 10
14321.79040899999
 20
8735.9783004124274
 30
0.0
 11
14321.79040899999
 21
9595.0901529999992
 31
0.0
  0
LINE
  5
4770
  8
SUNPOU
  6
CONTINUOUS
 62
     4
 10
14171.79040899999
 20
9515.0901529999974
 30
0.0
 11
13931.79040899999
 21
9515.0901529999974
 31
0.0
  0
LINE
  5
4771
  8
SUNPOU
  6
CONTINUOUS
 62
     4
 10
14321.79040899999
 20
9515.0901529999974
 30
0.0
 11
14561.79040899999
 21
9515.0901529999974
 31
0.0
  0
LINE
  5
4772
  8
SUNPOU
  6
CONTINUOUS
 62
     4
 10
14171.79040899999
 20
9515.0901529999974
 30
0.0
 11
14321.79040899999
 21
9515.0901529999974
 31
0.0
  0
LINE
  5
4773
  8
SUNPOU
  6
CONTINUOUS
 62
     4
 10
8771.7904090000011
 20
8604.088477000003
 30
0.0
 11
8771.7904090000011
 21
9995.088502999999
 31
0.0
  0
LINE
  5
4774
  8
SUNPOU
  6
CONTINUOUS
 62
     4
 10
14321.79040899999
 20
8735.9783004124274
 30
0.0
 11
14321.79040899999
 21
9995.088502999999
 31
0.0
  0
LINE
  5
4775
  8
SUNPOU
  6
CONTINUOUS
 62
     4
 10
8771.7904090000011
 20
9915.088502999999
 30
0.0
 11
14321.79040899999
 21
9915.088502999999
 31
0.0
  0
LINE
  5
4776
  8
SUNPOU
  6
CONTINUOUS
 62
     4
 10
8951.7904090000011
 20
8474.2742526838028
 30
0.0
 11
8951.7904090000011
 21
9595.0901529999992
 31
0.0
  0
LINE
  5
4777
  8
SUNPOU
  6
CONTINUOUS
 62
     4
 10
14171.79040899999
 20
8661.9985410000008
 30
0.0
 11
14171.79040899999
 21
9595.0901529999992
 31
0.0
  0
LINE
  5
4778
  8
SUNPOU
  6
CONTINUOUS
 62
     4
 10
8951.7904090000011
 20
9515.0901529999974
 30
0.0
 11
14171.79040899999
 21
9515.0901529999974
 31
0.0
  0
LINE
  5
4779
  8
SUNPOU
  6
CONTINUOUS
 62
     4
 10
8771.7904090000011
 20
8604.088477000003
 30
0.0
 11
8771.7904090000011
 21
9595.0901529999992
 31
0.0
  0
LINE
  5
477A
  8
SUNPOU
  6
CONTINUOUS
 62
     4
 10
8951.7904090000011
 20
8474.2742526838028
 30
0.0
 11
8951.7904090000011
 21
9595.0901529999992
 31
0.0
  0
LINE
  5
477B
  8
SUNPOU
  6
CONTINUOUS
 62
     4
 10
8771.7904090000011
 20
9515.0901529999974
 30
0.0
 11
8951.7904090000011
 21
9515.0901529999974
 31
0.0
  0
LINE
  5
477C
  8
SUNPOU
  6
CONTINUOUS
 62
     4
 10
14129.28842999999
 20
5924.4362189999974
 30
0.0
 11
14129.28842999999
 21
4987.0886419999961
 31
0.0
  0
LINE
  5
477D
  8
SUNPOU
  6
CONTINUOUS
 62
     4
 10
14171.788430000001
 20
6287.0884770000011
 30
0.0
 11
14171.788430000001
 21
4987.0886419999961
 31
0.0
  0
LINE
  5
477E
  8
SUNPOU
  6
CONTINUOUS
 62
     4
 10
14129.28842999999
 20
5067.0886419999961
 30
0.0
 11
13889.28842999999
 21
5067.0886419999961
 31
0.0
  0
LINE
  5
477F
  8
SUNPOU
  6
CONTINUOUS
 62
     4
 10
14171.788430000001
 20
5067.0886419999961
 30
0.0
 11
14411.788429999981
 21
5067.0886419999961
 31
0.0
  0
LINE
  5
4780
  8
SUNPOU
  6
CONTINUOUS
 62
     4
 10
14129.28842999999
 20
5067.0886419999961
 30
0.0
 11
14171.788430000001
 21
5067.0886419999961
 31
0.0
  0
LINE
  5
4781
  8
SUNPOU
  6
CONTINUOUS
 62
     4
 10
11561.79040899999
 20
5924.43523
 30
0.0
 11
11561.79040899999
 21
4987.088643000001
 31
0.0
  0
LINE
  5
4782
  8
SUNPOU
  6
CONTINUOUS
 62
     4
 10
14129.29040899999
 20
5924.43523
 30
0.0
 11
14129.29040899999
 21
4987.088643000001
 31
0.0
  0
LINE
  5
4783
  8
SUNPOU
  6
CONTINUOUS
 62
     4
 10
11561.79040899999
 20
5067.088643000001
 30
0.0
 11
14129.29040899999
 21
5067.088643000001
 31
0.0
  0
LINE
  5
4784
  8
SUNPOU
  6
CONTINUOUS
 62
     4
 10
8951.7904090000011
 20
6287.0884770000011
 30
0.0
 11
8951.7904090000011
 21
4587.0888069999992
 31
0.0
  0
LINE
  5
4785
  8
SUNPOU
  6
CONTINUOUS
 62
     4
 10
14171.788430000001
 20
6287.0884770000011
 30
0.0
 11
14171.788430000001
 21
4587.0888069999992
 31
0.0
  0
LINE
  5
4786
  8
SUNPOU
  6
CONTINUOUS
 62
     4
 10
8951.7904090000011
 20
4667.0888069999983
 30
0.0
 11
14171.788430000001
 21
4667.0888069999983
 31
0.0
  0
LINE
  5
4787
  8
SUNPOU
  6
CONTINUOUS
 62
     4
 10
8994.2904090000029
 20
5924.4362189999974
 30
0.0
 11
8994.2904090000029
 21
4987.0886419999961
 31
0.0
  0
LINE
  5
4788
  8
SUNPOU
  6
CONTINUOUS
 62
     4
 10
8951.7904090000011
 20
6287.0884770000011
 30
0.0
 11
8951.7904090000011
 21
4987.0886419999961
 31
0.0
  0
LINE
  5
4789
  8
SUNPOU
  6
CONTINUOUS
 62
     4
 10
8994.2904090000029
 20
5067.0886419999961
 30
0.0
 11
9234.2904089999993
 21
5067.0886419999961
 31
0.0
  0
LINE
  5
478A
  8
SUNPOU
  6
CONTINUOUS
 62
     4
 10
8951.7904090000011
 20
5067.0886419999961
 30
0.0
 11
8711.7904089999975
 21
5067.0886419999961
 31
0.0
  0
LINE
  5
478B
  8
SUNPOU
  6
CONTINUOUS
 62
     4
 10
8994.2904090000029
 20
5067.0886419999961
 30
0.0
 11
8951.7904090000011
 21
5067.0886419999961
 31
0.0
  0
LINE
  5
478C
  8
SUNPOU
  6
CONTINUOUS
 62
     4
 10
11561.79040899999
 20
5924.4362189999974
 30
0.0
 11
11561.79040899999
 21
4987.0886419999961
 31
0.0
  0
LINE
  5
478D
  8
SUNPOU
  6
CONTINUOUS
 62
     4
 10
8994.2904090000029
 20
5924.4362189999974
 30
0.0
 11
8994.2904090000029
 21
4987.0886419999961
 31
0.0
  0
LINE
  5
478E
  8
SUNPOU
  6
CONTINUOUS
 62
     4
 10
11561.79040899999
 20
5067.0886419999961
 30
0.0
 11
8994.2904090000029
 21
5067.0886419999961
 31
0.0
  0
TEXT
  5
478F
  8
0
  6
CONTINUOUS
 62
     7
 10
9878.0404090000047
 20
5147.0886419999961
 30
0.0
 40
160.0
  1
2567.5
  0
TEXT
  5
4790
  8
0
  6
CONTINUOUS
 62
     7
 10
8354.6166999036941
 20
5147.0886419999961
 30
0.0
 40
160.0
  1
42.5
  0
TEXT
  5
4791
  8
0
  6
CONTINUOUS
 62
     7
 10
11281.78941949999
 20
4747.0888069999992
 30
0.0
 40
160.0
  1
5220
  0
TEXT
  5
4792
  8
0
  6
CONTINUOUS
 62
     7
 10
12445.54040899999
 20
5147.088643
 30
0.0
 40
160.0
  1
2567.5
  0
TEXT
  5
4793
  8
0
  6
CONTINUOUS
 62
     7
 10
14288.962139096289
 20
5147.0886419999961
 30
0.0
 40
160.0
  1
42.5
  0
TEXT
  5
4794
  8
0
  6
CONTINUOUS
 62
     7
 10
8358.4570756666672
 20
9595.0901529999992
 30
0.0
 40
160.0
  1
180
  0
TEXT
  5
4795
  8
0
  6
CONTINUOUS
 62
     7
 10
11281.79040899999
 20
9595.0901529999992
 30
0.0
 40
160.0
  1
5220
  0
TEXT
  5
4796
  8
0
  6
CONTINUOUS
 62
     7
 10
11266.790408999999
 20
9995.088502999999
 30
0.0
 40
160.0
  1
5550
  0
TEXT
  5
4797
  8
0
  6
CONTINUOUS
 62
     7
 10
14388.457075666671
 20
9595.0901529999992
 30
0.0
 40
160.0
  1
150
  0
TEXT
  5
4798
  8
0
  6
CONTINUOUS
 62
     7
 10
7781.7900129999998
 20
6452.8384780000006
 30
0.0
 40
160.0
  1
2155.5（2395.5）
 50
90.0
  0
TEXT
  5
4799
  8
0
  6
CONTINUOUS
 62
     7
 10
15181.788824999991
 20
6736.2551446666657
 30
0.0
 40
160.0
  1
2349（2589）
 50
90.0
  0
TEXT
  5
479A
  8
0
  6
CONTINUOUS
 62
     7
 10
21935.04587099998
 20
4747.0888079999986
 30
0.0
 40
160.0
  1
5220
  0
TEXT
  5
479B
  8
0
  6
CONTINUOUS
 62
     7
 10
19039.006880741141
 20
5147.088643
 30
0.0
 40
160.0
  1
42.5
  0
TEXT
  5
479C
  8
0
  6
CONTINUOUS
 62
     7
 10
24911.088820258828
 20
5147.088643
 30
0.0
 40
160.0
  1
42.5
  0
TEXT
  5
479D
  8
0
  6
CONTINUOUS
 62
     7
 10
20531.295870999991
 20
5147.088643
 30
0.0
 40
160.0
  1
2567.5
  0
TEXT
  5
479E
  8
0
  6
CONTINUOUS
 62
     7
 10
23098.795870999969
 20
5147.088643
 30
0.0
 40
160.0
  1
2567.5
  0
TEXT
  5
479F
  8
0
  6
CONTINUOUS
 62
     7
 10
22570.79587099998
 20
5547.088643000001
 30
0.0
 40
160.0
  1
有効開口巾 2379.5
  0
TEXT
  5
47A0
  8
0
  6
CONTINUOUS
 62
     7
 10
20003.295870999991
 20
5547.088643000001
 30
0.0
 40
160.0
  1
有効開口巾 2379.5
  0
TEXT
  5
47A5
  8
0
  6
CONTINUOUS
 62
     7
 10
18317.54422199995
 20
6522.6715638333326
 30
0.0
 40
160.0
  1
2348.5（2588.5）
 50
90.0
  0
TEXT
  5
47A6
  8
0
  6
CONTINUOUS
 62
     7
 10
18717.546530999982
 20
6431.0677162912707
 30
0.0
 40
160.0
  1
有効開口高サ 1891.5
 50
90.0
  0
TEXT
  5
47A7
  8
0
  6
CONTINUOUS
 62
     7
 10
20232.212537666641
 20
20175.540976000011
 30
0.0
 40
160.0
  1
701
  0
TEXT
  5
47A8
  8
0
  6
CONTINUOUS
 62
     7
 10
20933.212537666652
 20
20495.540976000011
 30
0.0
 40
160.0
  1
701
  0
TEXT
  5
47A9
  8
0
  6
CONTINUOUS
 62
     7
 10
21622.713032416661
 20
20495.540976000011
 30
0.0
 40
160.0
  1
758
  0
TEXT
  5
47AA
  8
0
  6
CONTINUOUS
 62
     7
 10
19044.733891471169
 20
20495.540976000011
 30
0.0
 40
160.0
  1
42.5
  0
TEXT
  5
47AB
  8
0
  6
CONTINUOUS
 62
     7
 10
19748.379204333309
 20
20495.540976000011
 30
0.0
 40
160.0
  1
407.5
  0
TEXT
  5
47AC
  8
0
  6
CONTINUOUS
 62
     7
 10
24905.357850528781
 20
20495.540976000011
 30
0.0
 40
160.0
  1
42.5
  0
TEXT
  5
47AD
  8
0
  6
CONTINUOUS
 62
     7
 10
22799.712537666652
 20
20175.540976000011
 30
0.0
 40
160.0
  1
701
  0
TEXT
  5
47AE
  8
0
  6
CONTINUOUS
 62
     7
 10
23500.712537666652
 20
20495.540976000011
 30
0.0
 40
160.0
  1
701
  0
TEXT
  5
47AF
  8
0
  6
CONTINUOUS
 62
     7
 10
24190.213032416639
 20
20495.540976000011
 30
0.0
 40
160.0
  1
758
  0
TEXT
  5
47B0
  8
0
  6
CONTINUOUS
 62
     7
 10
22315.879204333291
 20
20495.540976000011
 30
0.0
 40
160.0
  1
407.5
  0
TEXT
  5
47B1
  8
0
  6
CONTINUOUS
 62
     7
 10
26195.045474999992
 20
13891.98625660321
 30
0.0
 40
160.0
  1
42.5
 50
90.0
  0
TEXT
  5
47B2
  8
0
  6
CONTINUOUS
 62
     7
 10
26195.045474999992
 20
19779.09331939679
 30
0.0
 40
160.0
  1
42.5
 50
90.0
  0
TEXT
  5
47B3
  8
0
  6
CONTINUOUS
 62
     7
 10
26595.045474999959
 20
16795.539787999998
 30
0.0
 40
160.0
  1
5220
 50
90.0
  0
TEXT
  5
47B4
  8
0
  6
CONTINUOUS
 62
     7
 10
26195.045474999959
 20
15391.789788
 30
0.0
 40
160.0
  1
2567.5
 50
90.0
  0
TEXT
  5
47B5
  8
0
  6
CONTINUOUS
 62
     7
 10
26195.045474999959
 20
17959.289787999998
 30
0.0
 40
160.0
  1
2567.5
 50
90.0
  0
TEXT
  5
47B6
  8
0
  6
CONTINUOUS
 62
     7
 10
25795.045474999959
 20
18711.706454666681
 30
0.0
 40
160.0
  1
701
 50
90.0
  0
TEXT
  5
47B7
  8
0
  6
CONTINUOUS
 62
     7
 10
25795.045474999959
 20
18010.706454666681
 30
0.0
 40
160.0
  1
701
 50
90.0
  0
TEXT
  5
47B8
  8
0
  6
CONTINUOUS
 62
     7
 10
25795.045474999959
 20
17241.20645466667
 30
0.0
 40
160.0
  1
758
 50
90.0
  0
TEXT
  5
47B9
  8
0
  6
CONTINUOUS
 62
     7
 10
25795.045474999959
 20
16483.206454666659
 30
0.0
 40
160.0
  1
758
 50
90.0
  0
TEXT
  5
47BA
  8
0
  6
CONTINUOUS
 62
     7
 10
25795.045474999959
 20
15793.826710416681
 30
0.0
 40
160.0
  1
701
 50
90.0
  0
TEXT
  5
47BB
  8
0
  6
CONTINUOUS
 62
     7
 10
25795.045474999959
 20
15092.826710416681
 30
0.0
 40
160.0
  1
701
 50
90.0
  0
TEXT
  5
47BC
  8
0
  6
CONTINUOUS
 62
     7
 10
21935.04587099998
 20
13216.591704
 30
0.0
 40
160.0
  1
5220
  0
TEXT
  5
47BD
  8
0
  6
CONTINUOUS
 62
     7
 10
19765.599543382061
 20
13616.59170399998
 30
0.0
 40
160.0
  1
42.5
  0
TEXT
  5
47BE
  8
0
  6
CONTINUOUS
 62
     7
 10
24184.492198617882
 20
13616.59170399998
 30
0.0
 40
160.0
  1
42.5
  0
TEXT
  5
47BF
  8
0
  6
CONTINUOUS
 62
     7
 10
24900.599543382079
 20
13616.59170399998
 30
0.0
 40
160.0
  1
42.5
  0
TEXT
  5
47C0
  8
0
  6
CONTINUOUS
 62
     7
 10
19049.492198617889
 20
13616.59170399998
 30
0.0
 40
160.0
  1
42.5
  0
TEXT
  5
47C1
  8
0
  6
CONTINUOUS
 62
     7
 10
18638.091293999969
 20
14729.07671041667
 30
0.0
 40
160.0
  1
1108.5
 50
90.0
  0
TEXT
  5
47C2
  8
0
  6
CONTINUOUS
 62
     7
 10
18638.091293999969
 20
16079.49337708333
 30
0.0
 40
160.0
  1
1459
 50
90.0
  0
TEXT
  5
47C3
  8
0
  6
CONTINUOUS
 62
     7
 10
18638.091293999969
 20
17538.373121333341
 30
0.0
 40
160.0
  1
1459
 50
90.0
  0
TEXT
  5
47C4
  8
0
  6
CONTINUOUS
 62
     7
 10
18638.091293999969
 20
18755.45645466667
 30
0.0
 40
160.0
  1
1108.5
 50
90.0
  0
TEXT
  5
47C5
  8
0
  6
CONTINUOUS
 62
     7
 10
26155.045474999992
 20
18944.917755643201
 30
0.0
 40
160.0
  1
407.5
 50
90.0
  0
TEXT
  5
47C6
  8
0
  6
CONTINUOUS
 62
     7
 10
26155.045474999992
 20
14580.98045795355
 30
0.0
 40
160.0
  1
407.5
 50
90.0
  0
TEXT
  5
47C7
  8
0
  6
CONTINUOUS
 62
     7
 10
12803.33887699998
 20
20495.540976000011
 30
0.0
 40
160.0
  1
2567.5
  0
TEXT
  5
47C8
  8
0
  6
CONTINUOUS
 62
     7
 10
14623.58558302325
 20
20495.540976000011
 30
0.0
 40
160.0
  1
85.5
  0
TEXT
  5
47C9
  8
0
  6
CONTINUOUS
 62
     7
 10
10235.83887699998
 20
20495.540976000011
 30
0.0
 40
160.0
  1
2567.5
  0
TEXT
  5
47CA
  8
0
  6
CONTINUOUS
 62
     7
 10
8735.5921709767172
 20
20495.540976000011
 30
0.0
 40
160.0
  1
85.5
  0
TEXT
  5
47CB
  8
0
  6
CONTINUOUS
 62
     7
 10
8342.5894259999877
 20
17538.373121333341
 30
0.0
 40
160.0
  1
1459
 50
90.0
  0
TEXT
  5
47CC
  8
0
  6
CONTINUOUS
 62
     7
 10
8342.5894259999877
 20
18755.45645466667
 30
0.0
 40
160.0
  1
1108.5
 50
90.0
  0
TEXT
  5
47CD
  8
0
  6
CONTINUOUS
 62
     7
 10
8342.5894259999823
 20
19954.494972807679
 30
0.0
 40
160.0
  1
222.5
 50
90.0
  0
TEXT
  5
47CE
  8
0
  6
CONTINUOUS
 62
     7
 10
8742.5894259999877
 20
19985.535697000021
 30
0.0
 40
160.0
  1
20
 50
90.0
  0
TEXT
  5
47CF
  8
0
  6
CONTINUOUS
 62
     7
 10
8342.5894259999877
 20
16079.49337708333
 30
0.0
 40
160.0
  1
1459
 50
90.0
  0
TEXT
  5
47D0
  8
0
  6
CONTINUOUS
 62
     7
 10
8342.5894259999877
 20
14729.07671041667
 30
0.0
 40
160.0
  1
1108.5
 50
90.0
  0
TEXT
  5
47D1
  8
0
  6
CONTINUOUS
 62
     7
 10
8342.5894259999823
 20
13700.086777702631
 30
0.0
 40
160.0
  1
192.5
 50
90.0
  0
ARC
  5
47D7
  8
0
  6
BYBLOCK
 62
     0
 10
8422.5894259999877
 20
14508.039787999989
 30
0.0
 40
15.0
 50
270.0
 51
90.0
  0
ARC
  5
47D8
  8
0
  6
BYBLOCK
 62
     0
 10
8422.5894259999877
 20
14508.039787999989
 30
0.0
 40
15.0
 50
90.0
 51
270.0
  0
ARC
  5
47D9
  8
0
  6
BYBLOCK
 62
     0
 10
8422.5894259999877
 20
14315.544472999991
 30
0.0
 40
15.0
 50
90.0
 51
270.0
  0
ARC
  5
47DA
  8
0
  6
BYBLOCK
 62
     0
 10
8422.5894259999877
 20
14315.544472999991
 30
0.0
 40
15.0
 50
270.0
 51
90.0
  0
ARC
  5
47DB
  8
0
  6
BYBLOCK
 62
     0
 10
8422.5894259999877
 20
15616.7802995
 30
0.0
 40
15.0
 50
270.0
 51
90.0
  0
ARC
  5
47DC
  8
0
  6
BYBLOCK
 62
     0
 10
8422.5894259999877
 20
15616.7802995
 30
0.0
 40
15.0
 50
90.0
 51
270.0
  0
ARC
  5
47DD
  8
0
  6
BYBLOCK
 62
     0
 10
8422.5894259999877
 20
14508.039787999989
 30
0.0
 40
15.0
 50
90.0
 51
270.0
  0
ARC
  5
47DE
  8
0
  6
BYBLOCK
 62
     0
 10
8422.5894259999877
 20
14508.039787999989
 30
0.0
 40
15.0
 50
270.0
 51
90.0
  0
ARC
  5
47DF
  8
0
  6
BYBLOCK
 62
     0
 10
8422.5894259999877
 20
17075.53978799998
 30
0.0
 40
15.0
 50
270.0
 51
90.0
  0
ARC
  5
47E0
  8
0
  6
BYBLOCK
 62
     0
 10
8422.5894259999877
 20
17075.53978799998
 30
0.0
 40
15.0
 50
90.0
 51
270.0
  0
ARC
  5
47E1
  8
0
  6
BYBLOCK
 62
     0
 10
8422.5894259999877
 20
15616.7802995
 30
0.0
 40
15.0
 50
90.0
 51
270.0
  0
ARC
  5
47E2
  8
0
  6
BYBLOCK
 62
     0
 10
8422.5894259999877
 20
15616.7802995
 30
0.0
 40
15.0
 50
270.0
 51
90.0
  0
ARC
  5
47E3
  8
0
  6
BYBLOCK
 62
     0
 10
8822.5894259999877
 20
19845.535697000021
 30
0.0
 40
15.0
 50
270.0
 51
90.0
  0
ARC
  5
47E4
  8
0
  6
BYBLOCK
 62
     0
 10
8822.5894259999877
 20
19845.535697000021
 30
0.0
 40
15.0
 50
90.0
 51
270.0
  0
ARC
  5
47E5
  8
0
  6
BYBLOCK
 62
     0
 10
8822.5894259999877
 20
19865.53569700001
 30
0.0
 40
15.0
 50
90.0
 51
270.0
  0
ARC
  5
47E6
  8
0
  6
BYBLOCK
 62
     0
 10
8822.5894259999877
 20
19865.53569700001
 30
0.0
 40
15.0
 50
270.0
 51
90.0
  0
ARC
  5
47E7
  8
0
  6
BYBLOCK
 62
     0
 10
8422.5894259999877
 20
19643.039787999991
 30
0.0
 40
15.0
 50
90.0
 51
270.0
  0
ARC
  5
47E8
  8
0
  6
BYBLOCK
 62
     0
 10
8422.5894259999877
 20
19643.039787999991
 30
0.0
 40
15.0
 50
270.0
 51
90.0
  0
ARC
  5
47E9
  8
0
  6
BYBLOCK
 62
     0
 10
8422.5894259999877
 20
19865.53569700001
 30
0.0
 40
15.0
 50
270.0
 51
90.0
  0
ARC
  5
47EA
  8
0
  6
BYBLOCK
 62
     0
 10
8422.5894259999877
 20
19865.53569700001
 30
0.0
 40
15.0
 50
90.0
 51
270.0
  0
ARC
  5
47EB
  8
0
  6
BYBLOCK
 62
     0
 10
8422.5894259999877
 20
18534.539787999998
 30
0.0
 40
15.0
 50
90.0
 51
270.0
  0
ARC
  5
47EC
  8
0
  6
BYBLOCK
 62
     0
 10
8422.5894259999877
 20
18534.539787999998
 30
0.0
 40
15.0
 50
270.0
 51
90.0
  0
ARC
  5
47ED
  8
0
  6
BYBLOCK
 62
     0
 10
8422.5894259999877
 20
19643.039787999991
 30
0.0
 40
15.0
 50
270.0
 51
90.0
  0
ARC
  5
47EE
  8
0
  6
BYBLOCK
 62
     0
 10
8422.5894259999877
 20
19643.039787999991
 30
0.0
 40
15.0
 50
90.0
 51
270.0
  0
ARC
  5
47EF
  8
0
  6
BYBLOCK
 62
     0
 10
8422.5894259999877
 20
17075.53978799998
 30
0.0
 40
15.0
 50
90.0
 51
270.0
  0
ARC
  5
47F0
  8
0
  6
BYBLOCK
 62
     0
 10
8422.5894259999877
 20
17075.53978799998
 30
0.0
 40
15.0
 50
270.0
 51
90.0
  0
ARC
  5
47F1
  8
0
  6
BYBLOCK
 62
     0
 10
8422.5894259999877
 20
18534.539787999998
 30
0.0
 40
15.0
 50
270.0
 51
90.0
  0
ARC
  5
47F2
  8
0
  6
BYBLOCK
 62
     0
 10
8422.5894259999877
 20
18534.539787999998
 30
0.0
 40
15.0
 50
90.0
 51
270.0
  0
ARC
  5
47F3
  8
0
  6
BYBLOCK
 62
     0
 10
9352.0888769999856
 20
20415.540976000011
 30
0.0
 40
15.0
 50
0.0
 51
180.0
  0
ARC
  5
47F4
  8
0
  6
BYBLOCK
 62
     0
 10
9352.0888769999856
 20
20415.540976000011
 30
0.0
 40
15.0
 50
180.0
 51
0.0
  0
ARC
  5
47F5
  8
0
  6
BYBLOCK
 62
     0
 10
9266.5888769999856
 20
20415.540976000011
 30
0.0
 40
15.0
 50
180.0
 51
0.0
  0
ARC
  5
47F6
  8
0
  6
BYBLOCK
 62
     0
 10
9266.5888769999856
 20
20415.540976000011
 30
0.0
 40
15.0
 50
0.0
 51
180.0
  0
ARC
  5
47F7
  8
0
  6
BYBLOCK
 62
     0
 10
11919.58887699998
 20
20415.540976000011
 30
0.0
 40
15.0
 50
180.0
 51
0.0
  0
ARC
  5
47F8
  8
0
  6
BYBLOCK
 62
     0
 10
11919.58887699998
 20
20415.540976000011
 30
0.0
 40
15.0
 50
0.0
 51
180.0
  0
ARC
  5
47F9
  8
0
  6
BYBLOCK
 62
     0
 10
9352.0888769999856
 20
20415.540976000011
 30
0.0
 40
15.0
 50
0.0
 51
180.0
  0
ARC
  5
47FA
  8
0
  6
BYBLOCK
 62
     0
 10
9352.0888769999856
 20
20415.540976000011
 30
0.0
 40
15.0
 50
180.0
 51
0.0
  0
ARC
  5
47FB
  8
0
  6
BYBLOCK
 62
     0
 10
14487.08887699998
 20
20415.540976000011
 30
0.0
 40
15.0
 50
180.0
 51
0.0
  0
ARC
  5
47FC
  8
0
  6
BYBLOCK
 62
     0
 10
14487.08887699998
 20
20415.540976000011
 30
0.0
 40
15.0
 50
0.0
 51
180.0
  0
ARC
  5
47FD
  8
0
  6
BYBLOCK
 62
     0
 10
14572.58887699998
 20
20415.540976000011
 30
0.0
 40
15.0
 50
0.0
 51
180.0
  0
ARC
  5
47FE
  8
0
  6
BYBLOCK
 62
     0
 10
14572.58887699998
 20
20415.540976000011
 30
0.0
 40
15.0
 50
180.0
 51
0.0
  0
ARC
  5
47FF
  8
0
  6
BYBLOCK
 62
     0
 10
11919.58887699998
 20
20415.540976000011
 30
0.0
 40
15.0
 50
0.0
 51
180.0
  0
ARC
  5
4800
  8
0
  6
BYBLOCK
 62
     0
 10
11919.58887699998
 20
20415.540976000011
 30
0.0
 40
15.0
 50
180.0
 51
0.0
  0
ARC
  5
4801
  8
0
  6
BYBLOCK
 62
     0
 10
14487.08887699998
 20
20415.540976000011
 30
0.0
 40
15.0
 50
180.0
 51
0.0
  0
ARC
  5
4802
  8
0
  6
BYBLOCK
 62
     0
 10
14487.08887699998
 20
20415.540976000011
 30
0.0
 40
15.0
 50
0.0
 51
180.0
  0
ARC
  5
4803
  8
0
  6
BYBLOCK
 62
     0
 10
25875.045474999992
 20
14915.66004375
 30
0.0
 40
15.0
 50
270.0
 51
90.0
  0
ARC
  5
4804
  8
0
  6
BYBLOCK
 62
     0
 10
25875.045474999992
 20
14915.66004375
 30
0.0
 40
15.0
 50
90.0
 51
270.0
  0
ARC
  5
4805
  8
0
  6
BYBLOCK
 62
     0
 10
25875.045474999992
 20
14508.16004375
 30
0.0
 40
15.0
 50
90.0
 51
270.0
  0
ARC
  5
4806
  8
0
  6
BYBLOCK
 62
     0
 10
25875.045474999992
 20
14508.16004375
 30
0.0
 40
15.0
 50
270.0
 51
90.0
  0
ARC
  5
4807
  8
0
  6
BYBLOCK
 62
     0
 10
25875.045474999992
 20
19235.539787999998
 30
0.0
 40
15.0
 50
90.0
 51
270.0
  0
ARC
  5
4808
  8
0
  6
BYBLOCK
 62
     0
 10
25875.045474999992
 20
19235.539787999998
 30
0.0
 40
15.0
 50
270.0
 51
90.0
  0
ARC
  5
4809
  8
0
  6
BYBLOCK
 62
     0
 10
25875.045474999992
 20
19643.039787999991
 30
0.0
 40
15.0
 50
270.0
 51
90.0
  0
ARC
  5
480A
  8
0
  6
BYBLOCK
 62
     0
 10
25875.045474999992
 20
19643.039787999991
 30
0.0
 40
15.0
 50
90.0
 51
270.0
  0
ARC
  5
480B
  8
0
  6
BYBLOCK
 62
     0
 10
18718.091293999969
 20
18534.539787999998
 30
0.0
 40
15.0
 50
90.0
 51
270.0
  0
ARC
  5
480C
  8
0
  6
BYBLOCK
 62
     0
 10
18718.091293999969
 20
18534.539787999998
 30
0.0
 40
15.0
 50
270.0
 51
90.0
  0
ARC
  5
480D
  8
0
  6
BYBLOCK
 62
     0
 10
18718.091293999969
 20
19643.039787999991
 30
0.0
 40
15.0
 50
270.0
 51
90.0
  0
ARC
  5
480E
  8
0
  6
BYBLOCK
 62
     0
 10
18718.091293999969
 20
19643.039787999991
 30
0.0
 40
15.0
 50
90.0
 51
270.0
  0
ARC
  5
480F
  8
0
  6
BYBLOCK
 62
     0
 10
18718.091293999969
 20
17075.53978799998
 30
0.0
 40
15.0
 50
90.0
 51
270.0
  0
ARC
  5
4810
  8
0
  6
BYBLOCK
 62
     0
 10
18718.091293999969
 20
17075.53978799998
 30
0.0
 40
15.0
 50
270.0
 51
90.0
  0
ARC
  5
4811
  8
0
  6
BYBLOCK
 62
     0
 10
18718.091293999969
 20
18534.539787999998
 30
0.0
 40
15.0
 50
270.0
 51
90.0
  0
ARC
  5
4812
  8
0
  6
BYBLOCK
 62
     0
 10
18718.091293999969
 20
18534.539787999998
 30
0.0
 40
15.0
 50
90.0
 51
270.0
  0
ARC
  5
4813
  8
0
  6
BYBLOCK
 62
     0
 10
18718.091293999969
 20
15616.7802995
 30
0.0
 40
15.0
 50
90.0
 51
270.0
  0
ARC
  5
4814
  8
0
  6
BYBLOCK
 62
     0
 10
18718.091293999969
 20
15616.7802995
 30
0.0
 40
15.0
 50
270.0
 51
90.0
  0
ARC
  5
4815
  8
0
  6
BYBLOCK
 62
     0
 10
18718.091293999969
 20
17075.53978799998
 30
0.0
 40
15.0
 50
270.0
 51
90.0
  0
ARC
  5
4816
  8
0
  6
BYBLOCK
 62
     0
 10
18718.091293999969
 20
17075.53978799998
 30
0.0
 40
15.0
 50
90.0
 51
270.0
  0
ARC
  5
4817
  8
0
  6
BYBLOCK
 62
     0
 10
18718.091293999969
 20
14508.039787999989
 30
0.0
 40
15.0
 50
90.0
 51
270.0
  0
ARC
  5
4818
  8
0
  6
BYBLOCK
 62
     0
 10
18718.091293999969
 20
14508.039787999989
 30
0.0
 40
15.0
 50
270.0
 51
90.0
  0
ARC
  5
4819
  8
0
  6
BYBLOCK
 62
     0
 10
18718.091293999969
 20
15616.7802995
 30
0.0
 40
15.0
 50
270.0
 51
90.0
  0
ARC
  5
481A
  8
0
  6
BYBLOCK
 62
     0
 10
18718.091293999969
 20
15616.7802995
 30
0.0
 40
15.0
 50
90.0
 51
270.0
  0
ARC
  5
481B
  8
0
  6
BYBLOCK
 62
     0
 10
19647.54587099998
 20
13536.59170399998
 30
0.0
 40
15.0
 50
0.0
 51
180.0
  0
ARC
  5
481C
  8
0
  6
BYBLOCK
 62
     0
 10
19647.54587099998
 20
13536.59170399998
 30
0.0
 40
15.0
 50
180.0
 51
0.0
  0
ARC
  5
481D
  8
0
  6
BYBLOCK
 62
     0
 10
19605.043627999981
 20
13536.59170399998
 30
0.0
 40
15.0
 50
180.0
 51
0.0
  0
ARC
  5
481E
  8
0
  6
BYBLOCK
 62
     0
 10
19605.043627999981
 20
13536.59170399998
 30
0.0
 40
15.0
 50
0.0
 51
180.0
  0
ARC
  5
481F
  8
0
  6
BYBLOCK
 62
     0
 10
24782.54587099998
 20
13536.59170399998
 30
0.0
 40
15.0
 50
180.0
 51
0.0
  0
ARC
  5
4820
  8
0
  6
BYBLOCK
 62
     0
 10
24782.54587099998
 20
13536.59170399998
 30
0.0
 40
15.0
 50
0.0
 51
180.0
  0
ARC
  5
4821
  8
0
  6
BYBLOCK
 62
     0
 10
24825.048113999968
 20
13536.59170399998
 30
0.0
 40
15.0
 50
0.0
 51
180.0
  0
ARC
  5
4822
  8
0
  6
BYBLOCK
 62
     0
 10
24825.048113999968
 20
13536.59170399998
 30
0.0
 40
15.0
 50
180.0
 51
0.0
  0
ARC
  5
4823
  8
0
  6
BYBLOCK
 62
     0
 10
24782.54587099998
 20
13536.59170399998
 30
0.0
 40
15.0
 50
0.0
 51
180.0
  0
ARC
  5
4824
  8
0
  6
BYBLOCK
 62
     0
 10
24782.54587099998
 20
13536.59170399998
 30
0.0
 40
15.0
 50
180.0
 51
0.0
  0
ARC
  5
4825
  8
0
  6
BYBLOCK
 62
     0
 10
24740.043627999981
 20
13536.59170399998
 30
0.0
 40
15.0
 50
180.0
 51
0.0
  0
ARC
  5
4826
  8
0
  6
BYBLOCK
 62
     0
 10
24740.043627999981
 20
13536.59170399998
 30
0.0
 40
15.0
 50
0.0
 51
180.0
  0
ARC
  5
4827
  8
0
  6
BYBLOCK
 62
     0
 10
19647.54587099998
 20
13536.59170399998
 30
0.0
 40
15.0
 50
180.0
 51
0.0
  0
ARC
  5
4828
  8
0
  6
BYBLOCK
 62
     0
 10
19647.54587099998
 20
13536.59170399998
 30
0.0
 40
15.0
 50
0.0
 51
180.0
  0
ARC
  5
4829
  8
0
  6
BYBLOCK
 62
     0
 10
19690.048113999961
 20
13536.59170399998
 30
0.0
 40
15.0
 50
0.0
 51
180.0
  0
ARC
  5
482A
  8
0
  6
BYBLOCK
 62
     0
 10
19690.048113999961
 20
13536.59170399998
 30
0.0
 40
15.0
 50
180.0
 51
0.0
  0
ARC
  5
482B
  8
0
  6
BYBLOCK
 62
     0
 10
19605.043627999981
 20
13136.591704
 30
0.0
 40
15.0
 50
0.0
 51
180.0
  0
ARC
  5
482C
  8
0
  6
BYBLOCK
 62
     0
 10
19605.043627999981
 20
13136.591704
 30
0.0
 40
15.0
 50
180.0
 51
0.0
  0
ARC
  5
482D
  8
0
  6
BYBLOCK
 62
     0
 10
24825.048113999968
 20
13136.591704
 30
0.0
 40
15.0
 50
180.0
 51
0.0
  0
ARC
  5
482E
  8
0
  6
BYBLOCK
 62
     0
 10
24825.048113999968
 20
13136.591704
 30
0.0
 40
15.0
 50
0.0
 51
180.0
  0
ARC
  5
482F
  8
0
  6
BYBLOCK
 62
     0
 10
25875.045474999992
 20
15616.7802995
 30
0.0
 40
15.0
 50
270.0
 51
90.0
  0
ARC
  5
4830
  8
0
  6
BYBLOCK
 62
     0
 10
25875.045474999992
 20
15616.7802995
 30
0.0
 40
15.0
 50
90.0
 51
270.0
  0
ARC
  5
4831
  8
0
  6
BYBLOCK
 62
     0
 10
25875.045474999992
 20
14915.539788
 30
0.0
 40
15.0
 50
90.0
 51
270.0
  0
ARC
  5
4832
  8
0
  6
BYBLOCK
 62
     0
 10
25875.045474999992
 20
14915.539788
 30
0.0
 40
15.0
 50
270.0
 51
90.0
  0
ARC
  5
4833
  8
0
  6
BYBLOCK
 62
     0
 10
25875.045474999992
 20
16317.539788
 30
0.0
 40
15.0
 50
270.0
 51
90.0
  0
ARC
  5
4834
  8
0
  6
BYBLOCK
 62
     0
 10
25875.045474999992
 20
16317.539788
 30
0.0
 40
15.0
 50
90.0
 51
270.0
  0
ARC
  5
4835
  8
0
  6
BYBLOCK
 62
     0
 10
25875.045474999992
 20
15616.7802995
 30
0.0
 40
15.0
 50
90.0
 51
270.0
  0
ARC
  5
4836
  8
0
  6
BYBLOCK
 62
     0
 10
25875.045474999992
 20
15616.7802995
 30
0.0
 40
15.0
 50
270.0
 51
90.0
  0
ARC
  5
4837
  8
0
  6
BYBLOCK
 62
     0
 10
25875.045474999992
 20
17075.53978799998
 30
0.0
 40
15.0
 50
270.0
 51
90.0
  0
ARC
  5
4838
  8
0
  6
BYBLOCK
 62
     0
 10
25875.045474999992
 20
17075.53978799998
 30
0.0
 40
15.0
 50
90.0
 51
270.0
  0
ARC
  5
4839
  8
0
  6
BYBLOCK
 62
     0
 10
25875.045474999992
 20
16317.539788
 30
0.0
 40
15.0
 50
90.0
 51
270.0
  0
ARC
  5
483A
  8
0
  6
BYBLOCK
 62
     0
 10
25875.045474999992
 20
16317.539788
 30
0.0
 40
15.0
 50
270.0
 51
90.0
  0
ARC
  5
483B
  8
0
  6
BYBLOCK
 62
     0
 10
25875.045474999992
 20
17833.539787999991
 30
0.0
 40
15.0
 50
270.0
 51
90.0
  0
ARC
  5
483C
  8
0
  6
BYBLOCK
 62
     0
 10
25875.045474999992
 20
17833.539787999991
 30
0.0
 40
15.0
 50
90.0
 51
270.0
  0
ARC
  5
483D
  8
0
  6
BYBLOCK
 62
     0
 10
25875.045474999992
 20
17075.53978799998
 30
0.0
 40
15.0
 50
90.0
 51
270.0
  0
ARC
  5
483E
  8
0
  6
BYBLOCK
 62
     0
 10
25875.045474999992
 20
17075.53978799998
 30
0.0
 40
15.0
 50
270.0
 51
90.0
  0
ARC
  5
483F
  8
0
  6
BYBLOCK
 62
     0
 10
25875.045474999992
 20
18534.539787999998
 30
0.0
 40
15.0
 50
270.0
 51
90.0
  0
ARC
  5
4840
  8
0
  6
BYBLOCK
 62
     0
 10
25875.045474999992
 20
18534.539787999998
 30
0.0
 40
15.0
 50
90.0
 51
270.0
  0
ARC
  5
4841
  8
0
  6
BYBLOCK
 62
     0
 10
25875.045474999992
 20
17833.539787999991
 30
0.0
 40
15.0
 50
90.0
 51
270.0
  0
ARC
  5
4842
  8
0
  6
BYBLOCK
 62
     0
 10
25875.045474999992
 20
17833.539787999991
 30
0.0
 40
15.0
 50
270.0
 51
90.0
  0
ARC
  5
4843
  8
0
  6
BYBLOCK
 62
     0
 10
25875.045474999992
 20
19235.539787999998
 30
0.0
 40
15.0
 50
270.0
 51
90.0
  0
ARC
  5
4844
  8
0
  6
BYBLOCK
 62
     0
 10
25875.045474999992
 20
19235.539787999998
 30
0.0
 40
15.0
 50
90.0
 51
270.0
  0
ARC
  5
4845
  8
0
  6
BYBLOCK
 62
     0
 10
25875.045474999992
 20
18534.539787999998
 30
0.0
 40
15.0
 50
90.0
 51
270.0
  0
ARC
  5
4846
  8
0
  6
BYBLOCK
 62
     0
 10
25875.045474999992
 20
18534.539787999998
 30
0.0
 40
15.0
 50
270.0
 51
90.0
  0
ARC
  5
4847
  8
0
  6
BYBLOCK
 62
     0
 10
26275.045474999992
 20
17075.53978799998
 30
0.0
 40
15.0
 50
90.0
 51
270.0
  0
ARC
  5
4848
  8
0
  6
BYBLOCK
 62
     0
 10
26275.045474999992
 20
17075.53978799998
 30
0.0
 40
15.0
 50
270.0
 51
90.0
  0
ARC
  5
4849
  8
0
  6
BYBLOCK
 62
     0
 10
26275.045474999992
 20
19643.039787999991
 30
0.0
 40
15.0
 50
270.0
 51
90.0
  0
ARC
  5
484A
  8
0
  6
BYBLOCK
 62
     0
 10
26275.045474999992
 20
19643.039787999991
 30
0.0
 40
15.0
 50
90.0
 51
270.0
  0
ARC
  5
484B
  8
0
  6
BYBLOCK
 62
     0
 10
26275.045474999992
 20
14508.039787999989
 30
0.0
 40
15.0
 50
90.0
 51
270.0
  0
ARC
  5
484C
  8
0
  6
BYBLOCK
 62
     0
 10
26275.045474999992
 20
14508.039787999989
 30
0.0
 40
15.0
 50
270.0
 51
90.0
  0
ARC
  5
484D
  8
0
  6
BYBLOCK
 62
     0
 10
26275.045474999992
 20
17075.53978799998
 30
0.0
 40
15.0
 50
270.0
 51
90.0
  0
ARC
  5
484E
  8
0
  6
BYBLOCK
 62
     0
 10
26275.045474999992
 20
17075.53978799998
 30
0.0
 40
15.0
 50
90.0
 51
270.0
  0
ARC
  5
484F
  8
0
  6
BYBLOCK
 62
     0
 10
26675.045474999992
 20
19685.537082999988
 30
0.0
 40
15.0
 50
270.0
 51
90.0
  0
ARC
  5
4850
  8
0
  6
BYBLOCK
 62
     0
 10
26675.045474999992
 20
19685.537082999988
 30
0.0
 40
15.0
 50
90.0
 51
270.0
  0
ARC
  5
4851
  8
0
  6
BYBLOCK
 62
     0
 10
26675.045474999992
 20
14465.542493000001
 30
0.0
 40
15.0
 50
90.0
 51
270.0
  0
ARC
  5
4852
  8
0
  6
BYBLOCK
 62
     0
 10
26675.045474999992
 20
14465.542493000001
 30
0.0
 40
15.0
 50
270.0
 51
90.0
  0
ARC
  5
4853
  8
0
  6
BYBLOCK
 62
     0
 10
26275.045474999992
 20
19643.039787999991
 30
0.0
 40
15.0
 50
270.0
 51
90.0
  0
ARC
  5
4854
  8
0
  6
BYBLOCK
 62
     0
 10
26275.045474999992
 20
19643.039787999991
 30
0.0
 40
15.0
 50
90.0
 51
270.0
  0
ARC
  5
4855
  8
0
  6
BYBLOCK
 62
     0
 10
26275.045474999992
 20
19685.537082999988
 30
0.0
 40
15.0
 50
90.0
 51
270.0
  0
ARC
  5
4856
  8
0
  6
BYBLOCK
 62
     0
 10
26275.045474999992
 20
19685.537082999988
 30
0.0
 40
15.0
 50
270.0
 51
90.0
  0
ARC
  5
4857
  8
0
  6
BYBLOCK
 62
     0
 10
26275.045474999992
 20
14508.039787999989
 30
0.0
 40
15.0
 50
90.0
 51
270.0
  0
ARC
  5
4858
  8
0
  6
BYBLOCK
 62
     0
 10
26275.045474999992
 20
14508.039787999989
 30
0.0
 40
15.0
 50
270.0
 51
90.0
  0
ARC
  5
4859
  8
0
  6
BYBLOCK
 62
     0
 10
26275.045474999992
 20
14465.542493000001
 30
0.0
 40
15.0
 50
270.0
 51
90.0
  0
ARC
  5
485A
  8
0
  6
BYBLOCK
 62
     0
 10
26275.045474999992
 20
14465.542493000001
 30
0.0
 40
15.0
 50
90.0
 51
270.0
  0
ARC
  5
485B
  8
0
  6
BYBLOCK
 62
     0
 10
22215.04587099998
 20
20415.540976000011
 30
0.0
 40
15.0
 50
0.0
 51
180.0
  0
ARC
  5
485C
  8
0
  6
BYBLOCK
 62
     0
 10
22215.04587099998
 20
20415.540976000011
 30
0.0
 40
15.0
 50
180.0
 51
0.0
  0
ARC
  5
485D
  8
0
  6
BYBLOCK
 62
     0
 10
22622.545870999969
 20
20415.540976000011
 30
0.0
 40
15.0
 50
180.0
 51
0.0
  0
ARC
  5
485E
  8
0
  6
BYBLOCK
 62
     0
 10
22622.545870999969
 20
20415.540976000011
 30
0.0
 40
15.0
 50
0.0
 51
180.0
  0
ARC
  5
485F
  8
0
  6
BYBLOCK
 62
     0
 10
24024.54587099998
 20
20415.540976000011
 30
0.0
 40
15.0
 50
0.0
 51
180.0
  0
ARC
  5
4860
  8
0
  6
BYBLOCK
 62
     0
 10
24024.54587099998
 20
20415.540976000011
 30
0.0
 40
15.0
 50
180.0
 51
0.0
  0
ARC
  5
4861
  8
0
  6
BYBLOCK
 62
     0
 10
24782.546860499991
 20
20415.540976000011
 30
0.0
 40
15.0
 50
180.0
 51
0.0
  0
ARC
  5
4862
  8
0
  6
BYBLOCK
 62
     0
 10
24782.546860499991
 20
20415.540976000011
 30
0.0
 40
15.0
 50
0.0
 51
180.0
  0
ARC
  5
4863
  8
0
  6
BYBLOCK
 62
     0
 10
23323.545870999969
 20
20415.540976000011
 30
0.0
 40
15.0
 50
0.0
 51
180.0
  0
ARC
  5
4864
  8
0
  6
BYBLOCK
 62
     0
 10
23323.545870999969
 20
20415.540976000011
 30
0.0
 40
15.0
 50
180.0
 51
0.0
  0
ARC
  5
4865
  8
0
  6
BYBLOCK
 62
     0
 10
24024.54587099998
 20
20415.540976000011
 30
0.0
 40
15.0
 50
180.0
 51
0.0
  0
ARC
  5
4866
  8
0
  6
BYBLOCK
 62
     0
 10
24024.54587099998
 20
20415.540976000011
 30
0.0
 40
15.0
 50
0.0
 51
180.0
  0
ARC
  5
4867
  8
0
  6
BYBLOCK
 62
     0
 10
22622.545870999969
 20
20415.540976000011
 30
0.0
 40
15.0
 50
0.0
 51
180.0
  0
ARC
  5
4868
  8
0
  6
BYBLOCK
 62
     0
 10
22622.545870999969
 20
20415.540976000011
 30
0.0
 40
15.0
 50
180.0
 51
0.0
  0
ARC
  5
4869
  8
0
  6
BYBLOCK
 62
     0
 10
23323.545870999969
 20
20415.540976000011
 30
0.0
 40
15.0
 50
180.0
 51
0.0
  0
ARC
  5
486A
  8
0
  6
BYBLOCK
 62
     0
 10
23323.545870999969
 20
20415.540976000011
 30
0.0
 40
15.0
 50
0.0
 51
180.0
  0
ARC
  5
486B
  8
0
  6
BYBLOCK
 62
     0
 10
24782.54587099998
 20
20415.540976000011
 30
0.0
 40
15.0
 50
180.0
 51
0.0
  0
ARC
  5
486C
  8
0
  6
BYBLOCK
 62
     0
 10
24782.54587099998
 20
20415.540976000011
 30
0.0
 40
15.0
 50
0.0
 51
180.0
  0
ARC
  5
486D
  8
0
  6
BYBLOCK
 62
     0
 10
24825.042175999981
 20
20415.540976000011
 30
0.0
 40
15.0
 50
0.0
 51
180.0
  0
ARC
  5
486E
  8
0
  6
BYBLOCK
 62
     0
 10
24825.042175999981
 20
20415.540976000011
 30
0.0
 40
15.0
 50
180.0
 51
0.0
  0
ARC
  5
486F
  8
0
  6
BYBLOCK
 62
     0
 10
19647.54587099998
 20
20415.540976000011
 30
0.0
 40
15.0
 50
0.0
 51
180.0
  0
ARC
  5
4870
  8
0
  6
BYBLOCK
 62
     0
 10
19647.54587099998
 20
20415.540976000011
 30
0.0
 40
15.0
 50
180.0
 51
0.0
  0
ARC
  5
4871
  8
0
  6
BYBLOCK
 62
     0
 10
20055.04587099998
 20
20415.540976000011
 30
0.0
 40
15.0
 50
180.0
 51
0.0
  0
ARC
  5
4872
  8
0
  6
BYBLOCK
 62
     0
 10
20055.04587099998
 20
20415.540976000011
 30
0.0
 40
15.0
 50
0.0
 51
180.0
  0
ARC
  5
4873
  8
0
  6
BYBLOCK
 62
     0
 10
19647.54587099998
 20
20415.540976000011
 30
0.0
 40
15.0
 50
0.0
 51
180.0
  0
ARC
  5
4874
  8
0
  6
BYBLOCK
 62
     0
 10
19647.54587099998
 20
20415.540976000011
 30
0.0
 40
15.0
 50
180.0
 51
0.0
  0
ARC
  5
4875
  8
0
  6
BYBLOCK
 62
     0
 10
19605.049565999969
 20
20415.540976000011
 30
0.0
 40
15.0
 50
180.0
 51
0.0
  0
ARC
  5
4876
  8
0
  6
BYBLOCK
 62
     0
 10
19605.049565999969
 20
20415.540976000011
 30
0.0
 40
15.0
 50
0.0
 51
180.0
  0
ARC
  5
4877
  8
0
  6
BYBLOCK
 62
     0
 10
21457.04587099998
 20
20415.540976000011
 30
0.0
 40
15.0
 50
0.0
 51
180.0
  0
ARC
  5
4878
  8
0
  6
BYBLOCK
 62
     0
 10
21457.04587099998
 20
20415.540976000011
 30
0.0
 40
15.0
 50
180.0
 51
0.0
  0
ARC
  5
4879
  8
0
  6
BYBLOCK
 62
     0
 10
22215.046860499991
 20
20415.540976000011
 30
0.0
 40
15.0
 50
180.0
 51
0.0
  0
ARC
  5
487A
  8
0
  6
BYBLOCK
 62
     0
 10
22215.046860499991
 20
20415.540976000011
 30
0.0
 40
15.0
 50
0.0
 51
180.0
  0
ARC
  5
487B
  8
0
  6
BYBLOCK
 62
     0
 10
20756.04587099998
 20
20415.540976000011
 30
0.0
 40
15.0
 50
0.0
 51
180.0
  0
ARC
  5
487C
  8
0
  6
BYBLOCK
 62
     0
 10
20756.04587099998
 20
20415.540976000011
 30
0.0
 40
15.0
 50
180.0
 51
0.0
  0
ARC
  5
487D
  8
0
  6
BYBLOCK
 62
     0
 10
21457.04587099998
 20
20415.540976000011
 30
0.0
 40
15.0
 50
180.0
 51
0.0
  0
ARC
  5
487E
  8
0
  6
BYBLOCK
 62
     0
 10
21457.04587099998
 20
20415.540976000011
 30
0.0
 40
15.0
 50
0.0
 51
180.0
  0
ARC
  5
487F
  8
0
  6
BYBLOCK
 62
     0
 10
20055.04587099998
 20
20415.540976000011
 30
0.0
 40
15.0
 50
0.0
 51
180.0
  0
ARC
  5
4880
  8
0
  6
BYBLOCK
 62
     0
 10
20055.04587099998
 20
20415.540976000011
 30
0.0
 40
15.0
 50
180.0
 51
0.0
  0
ARC
  5
4881
  8
0
  6
BYBLOCK
 62
     0
 10
20756.04587099998
 20
20415.540976000011
 30
0.0
 40
15.0
 50
180.0
 51
0.0
  0
ARC
  5
4882
  8
0
  6
BYBLOCK
 62
     0
 10
20756.04587099998
 20
20415.540976000011
 30
0.0
 40
15.0
 50
0.0
 51
180.0
  0
ARC
  5
4883
  8
0
  6
BYBLOCK
 62
     0
 10
18797.54653099996
 20
6367.0884779999951
 30
0.0
 40
15.0
 50
90.0
 51
270.0
  0
ARC
  5
4884
  8
0
  6
BYBLOCK
 62
     0
 10
18797.54653099996
 20
6367.0884779999951
 30
0.0
 40
15.0
 50
270.0
 51
90.0
  0
ARC
  5
4885
  8
0
  6
BYBLOCK
 62
     0
 10
18797.546530999982
 20
8258.588477999996
 30
0.0
 40
15.0
 50
270.0
 51
90.0
  0
ARC
  5
4886
  8
0
  6
BYBLOCK
 62
     0
 10
18797.546530999982
 20
8258.588477999996
 30
0.0
 40
15.0
 50
90.0
 51
270.0
  0
ARC
  5
4887
  8
0
  6
BYBLOCK
 62
     0
 10
18397.54422199995
 20
6367.0884779999969
 30
0.0
 40
15.0
 50
90.0
 51
270.0
  0
ARC
  5
4888
  8
0
  6
BYBLOCK
 62
     0
 10
18397.54422199995
 20
6367.0884779999969
 30
0.0
 40
15.0
 50
270.0
 51
90.0
  0
ARC
  5
4889
  8
0
  6
BYBLOCK
 62
     0
 10
18397.54422199995
 20
8715.5879829999976
 30
0.0
 40
15.0
 50
270.0
 51
90.0
  0
ARC
  5
488A
  8
0
  6
BYBLOCK
 62
     0
 10
18397.54422199995
 20
8715.5879829999976
 30
0.0
 40
15.0
 50
90.0
 51
270.0
  0
ARC
  5
489B
  8
0
  6
BYBLOCK
 62
     0
 10
19741.54587099998
 20
5467.088643000001
 30
0.0
 40
15.0
 50
0.0
 51
180.0
  0
ARC
  5
489C
  8
0
  6
BYBLOCK
 62
     0
 10
19741.54587099998
 20
5467.088643000001
 30
0.0
 40
15.0
 50
180.0
 51
0.0
  0
ARC
  5
489D
  8
0
  6
BYBLOCK
 62
     0
 10
22121.04587099998
 20
5467.088643000001
 30
0.0
 40
15.0
 50
180.0
 51
0.0
  0
ARC
  5
489E
  8
0
  6
BYBLOCK
 62
     0
 10
22121.04587099998
 20
5467.088643000001
 30
0.0
 40
15.0
 50
0.0
 51
180.0
  0
ARC
  5
489F
  8
0
  6
BYBLOCK
 62
     0
 10
22309.04587099998
 20
5467.088643000001
 30
0.0
 40
15.0
 50
0.0
 51
180.0
  0
ARC
  5
48A0
  8
0
  6
BYBLOCK
 62
     0
 10
22309.04587099998
 20
5467.088643000001
 30
0.0
 40
15.0
 50
180.0
 51
0.0
  0
ARC
  5
48A1
  8
0
  6
BYBLOCK
 62
     0
 10
24688.54587099998
 20
5467.088643000001
 30
0.0
 40
15.0
 50
180.0
 51
0.0
  0
ARC
  5
48A2
  8
0
  6
BYBLOCK
 62
     0
 10
24688.54587099998
 20
5467.088643000001
 30
0.0
 40
15.0
 50
0.0
 51
180.0
  0
ARC
  5
48A3
  8
0
  6
BYBLOCK
 62
     0
 10
22215.04587099998
 20
5067.088643000001
 30
0.0
 40
15.0
 50
0.0
 51
180.0
  0
ARC
  5
48A4
  8
0
  6
BYBLOCK
 62
     0
 10
22215.04587099998
 20
5067.088643000001
 30
0.0
 40
15.0
 50
180.0
 51
0.0
  0
ARC
  5
48A5
  8
0
  6
BYBLOCK
 62
     0
 10
24782.54587099998
 20
5067.088643000001
 30
0.0
 40
15.0
 50
180.0
 51
0.0
  0
ARC
  5
48A6
  8
0
  6
BYBLOCK
 62
     0
 10
24782.54587099998
 20
5067.088643000001
 30
0.0
 40
15.0
 50
0.0
 51
180.0
  0
ARC
  5
48A7
  8
0
  6
BYBLOCK
 62
     0
 10
19647.54587099998
 20
5067.088643000001
 30
0.0
 40
15.0
 50
0.0
 51
180.0
  0
ARC
  5
48A8
  8
0
  6
BYBLOCK
 62
     0
 10
19647.54587099998
 20
5067.088643000001
 30
0.0
 40
15.0
 50
180.0
 51
0.0
  0
ARC
  5
48A9
  8
0
  6
BYBLOCK
 62
     0
 10
22215.04587099998
 20
5067.088643000001
 30
0.0
 40
15.0
 50
180.0
 51
0.0
  0
ARC
  5
48AA
  8
0
  6
BYBLOCK
 62
     0
 10
22215.04587099998
 20
5067.088643000001
 30
0.0
 40
15.0
 50
0.0
 51
180.0
  0
ARC
  5
48AB
  8
0
  6
BYBLOCK
 62
     0
 10
24782.549829999982
 20
5067.088643000001
 30
0.0
 40
15.0
 50
180.0
 51
0.0
  0
ARC
  5
48AC
  8
0
  6
BYBLOCK
 62
     0
 10
24782.549829999982
 20
5067.088643000001
 30
0.0
 40
15.0
 50
0.0
 51
180.0
  0
ARC
  5
48AD
  8
0
  6
BYBLOCK
 62
     0
 10
24825.049829999989
 20
5067.088643000001
 30
0.0
 40
15.0
 50
0.0
 51
180.0
  0
ARC
  5
48AE
  8
0
  6
BYBLOCK
 62
     0
 10
24825.049829999989
 20
5067.088643000001
 30
0.0
 40
15.0
 50
180.0
 51
0.0
  0
ARC
  5
48AF
  8
0
  6
BYBLOCK
 62
     0
 10
19647.54587099998
 20
5067.088643000001
 30
0.0
 40
15.0
 50
0.0
 51
180.0
  0
ARC
  5
48B0
  8
0
  6
BYBLOCK
 62
     0
 10
19647.54587099998
 20
5067.088643000001
 30
0.0
 40
15.0
 50
180.0
 51
0.0
  0
ARC
  5
48B1
  8
0
  6
BYBLOCK
 62
     0
 10
19605.04587099998
 20
5067.088643000001
 30
0.0
 40
15.0
 50
180.0
 51
0.0
  0
ARC
  5
48B2
  8
0
  6
BYBLOCK
 62
     0
 10
19605.04587099998
 20
5067.088643000001
 30
0.0
 40
15.0
 50
0.0
 51
180.0
  0
ARC
  5
48B3
  8
0
  6
BYBLOCK
 62
     0
 10
19605.04587099998
 20
4667.0888079999986
 30
0.0
 40
15.0
 50
0.0
 51
180.0
  0
ARC
  5
48B4
  8
0
  6
BYBLOCK
 62
     0
 10
19605.04587099998
 20
4667.0888079999986
 30
0.0
 40
15.0
 50
180.0
 51
0.0
  0
ARC
  5
48B5
  8
0
  6
BYBLOCK
 62
     0
 10
24825.045870999969
 20
4667.0888079999986
 30
0.0
 40
15.0
 50
180.0
 51
0.0
  0
ARC
  5
48B6
  8
0
  6
BYBLOCK
 62
     0
 10
24825.045870999969
 20
4667.0888079999986
 30
0.0
 40
15.0
 50
0.0
 51
180.0
  0
ARC
  5
48B7
  8
0
  6
BYBLOCK
 62
     0
 10
15261.788825
 20
6367.0884780000006
 30
0.0
 40
15.0
 50
90.0
 51
270.0
  0
ARC
  5
48B8
  8
0
  6
BYBLOCK
 62
     0
 10
15261.788825
 20
6367.0884780000006
 30
0.0
 40
15.0
 50
270.0
 51
90.0
  0
ARC
  5
48B9
  8
0
  6
BYBLOCK
 62
     0
 10
15261.788825
 20
8716.0884780000033
 30
0.0
 40
15.0
 50
270.0
 51
90.0
  0
ARC
  5
48BA
  8
0
  6
BYBLOCK
 62
     0
 10
15261.788825
 20
8716.0884780000033
 30
0.0
 40
15.0
 50
90.0
 51
270.0
  0
ARC
  5
48BB
  8
0
  6
BYBLOCK
 62
     0
 10
7861.7900130000007
 20
6367.0884780000006
 30
0.0
 40
15.0
 50
90.0
 51
270.0
  0
ARC
  5
48BC
  8
0
  6
BYBLOCK
 62
     0
 10
7861.7900130000007
 20
6367.0884780000006
 30
0.0
 40
15.0
 50
270.0
 51
90.0
  0
ARC
  5
48BD
  8
0
  6
BYBLOCK
 62
     0
 10
7861.7900130000007
 20
8522.5884780000015
 30
0.0
 40
15.0
 50
270.0
 51
90.0
  0
ARC
  5
48BE
  8
0
  6
BYBLOCK
 62
     0
 10
7861.7900130000007
 20
8522.5884780000015
 30
0.0
 40
15.0
 50
90.0
 51
270.0
  0
ARC
  5
48BF
  8
0
  6
BYBLOCK
 62
     0
 10
14171.79040899999
 20
9515.0901529999974
 30
0.0
 40
15.0
 50
180.0
 51
0.0
  0
ARC
  5
48C0
  8
0
  6
BYBLOCK
 62
     0
 10
14171.79040899999
 20
9515.0901529999974
 30
0.0
 40
15.0
 50
0.0
 51
180.0
  0
ARC
  5
48C1
  8
0
  6
BYBLOCK
 62
     0
 10
14321.79040899999
 20
9515.0901529999974
 30
0.0
 40
15.0
 50
0.0
 51
180.0
  0
ARC
  5
48C2
  8
0
  6
BYBLOCK
 62
     0
 10
14321.79040899999
 20
9515.0901529999974
 30
0.0
 40
15.0
 50
180.0
 51
0.0
  0
ARC
  5
48C3
  8
0
  6
BYBLOCK
 62
     0
 10
8771.7904090000011
 20
9915.088502999999
 30
0.0
 40
15.0
 50
0.0
 51
180.0
  0
ARC
  5
48C4
  8
0
  6
BYBLOCK
 62
     0
 10
8771.7904090000011
 20
9915.088502999999
 30
0.0
 40
15.0
 50
180.0
 51
0.0
  0
ARC
  5
48C5
  8
0
  6
BYBLOCK
 62
     0
 10
14321.79040899999
 20
9915.088502999999
 30
0.0
 40
15.0
 50
180.0
 51
0.0
  0
ARC
  5
48C6
  8
0
  6
BYBLOCK
 62
     0
 10
14321.79040899999
 20
9915.088502999999
 30
0.0
 40
15.0
 50
0.0
 51
180.0
  0
ARC
  5
48C7
  8
0
  6
BYBLOCK
 62
     0
 10
8951.7904090000011
 20
9515.0901529999974
 30
0.0
 40
15.0
 50
0.0
 51
180.0
  0
ARC
  5
48C8
  8
0
  6
BYBLOCK
 62
     0
 10
8951.7904090000011
 20
9515.0901529999974
 30
0.0
 40
15.0
 50
180.0
 51
0.0
  0
ARC
  5
48C9
  8
0
  6
BYBLOCK
 62
     0
 10
14171.79040899999
 20
9515.0901529999974
 30
0.0
 40
15.0
 50
180.0
 51
0.0
  0
ARC
  5
48CA
  8
0
  6
BYBLOCK
 62
     0
 10
14171.79040899999
 20
9515.0901529999974
 30
0.0
 40
15.0
 50
0.0
 51
180.0
  0
ARC
  5
48CB
  8
0
  6
BYBLOCK
 62
     0
 10
8771.7904090000011
 20
9515.0901529999974
 30
0.0
 40
15.0
 50
0.0
 51
180.0
  0
ARC
  5
48CC
  8
0
  6
BYBLOCK
 62
     0
 10
8771.7904090000011
 20
9515.0901529999974
 30
0.0
 40
15.0
 50
180.0
 51
0.0
  0
ARC
  5
48CD
  8
0
  6
BYBLOCK
 62
     0
 10
8951.7904090000011
 20
9515.0901529999974
 30
0.0
 40
15.0
 50
180.0
 51
0.0
  0
ARC
  5
48CE
  8
0
  6
BYBLOCK
 62
     0
 10
8951.7904090000011
 20
9515.0901529999974
 30
0.0
 40
15.0
 50
0.0
 51
180.0
  0
ARC
  5
48CF
  8
0
  6
BYBLOCK
 62
     0
 10
14129.28842999999
 20
5067.0886419999961
 30
0.0
 40
15.0
 50
180.0
 51
0.0
  0
ARC
  5
48D0
  8
0
  6
BYBLOCK
 62
     0
 10
14129.28842999999
 20
5067.0886419999961
 30
0.0
 40
15.0
 50
0.0
 51
180.0
  0
ARC
  5
48D1
  8
0
  6
BYBLOCK
 62
     0
 10
14171.788430000001
 20
5067.0886419999961
 30
0.0
 40
15.0
 50
0.0
 51
180.0
  0
ARC
  5
48D2
  8
0
  6
BYBLOCK
 62
     0
 10
14171.788430000001
 20
5067.0886419999961
 30
0.0
 40
15.0
 50
180.0
 51
0.0
  0
ARC
  5
48D3
  8
0
  6
BYBLOCK
 62
     0
 10
11561.79040899999
 20
5067.088643000001
 30
0.0
 40
15.0
 50
0.0
 51
180.0
  0
ARC
  5
48D4
  8
0
  6
BYBLOCK
 62
     0
 10
11561.79040899999
 20
5067.088643000001
 30
0.0
 40
15.0
 50
180.0
 51
0.0
  0
ARC
  5
48D5
  8
0
  6
BYBLOCK
 62
     0
 10
14129.29040899999
 20
5067.088643000001
 30
0.0
 40
15.0
 50
180.0
 51
0.0
  0
ARC
  5
48D6
  8
0
  6
BYBLOCK
 62
     0
 10
14129.29040899999
 20
5067.088643000001
 30
0.0
 40
15.0
 50
0.0
 51
180.0
  0
ARC
  5
48D7
  8
0
  6
BYBLOCK
 62
     0
 10
8951.7904090000011
 20
4667.0888069999983
 30
0.0
 40
15.0
 50
0.0
 51
180.0
  0
ARC
  5
48D8
  8
0
  6
BYBLOCK
 62
     0
 10
8951.7904090000011
 20
4667.0888069999983
 30
0.0
 40
15.0
 50
180.0
 51
0.0
  0
ARC
  5
48D9
  8
0
  6
BYBLOCK
 62
     0
 10
14171.788430000001
 20
4667.0888069999983
 30
0.0
 40
15.0
 50
180.0
 51
0.0
  0
ARC
  5
48DA
  8
0
  6
BYBLOCK
 62
     0
 10
14171.788430000001
 20
4667.0888069999983
 30
0.0
 40
15.0
 50
0.0
 51
180.0
  0
ARC
  5
48DB
  8
0
  6
BYBLOCK
 62
     0
 10
8994.2904090000029
 20
5067.0886419999961
 30
0.0
 40
15.0
 50
0.0
 51
180.0
  0
ARC
  5
48DC
  8
0
  6
BYBLOCK
 62
     0
 10
8994.2904090000029
 20
5067.0886419999961
 30
0.0
 40
15.0
 50
180.0
 51
0.0
  0
ARC
  5
48DD
  8
0
  6
BYBLOCK
 62
     0
 10
8951.7904090000011
 20
5067.0886419999961
 30
0.0
 40
15.0
 50
180.0
 51
0.0
  0
ARC
  5
48DE
  8
0
  6
BYBLOCK
 62
     0
 10
8951.7904090000011
 20
5067.0886419999961
 30
0.0
 40
15.0
 50
0.0
 51
180.0
  0
ARC
  5
48DF
  8
0
  6
BYBLOCK
 62
     0
 10
11561.79040899999
 20
5067.0886419999961
 30
0.0
 40
15.0
 50
180.0
 51
0.0
  0
ARC
  5
48E0
  8
0
  6
BYBLOCK
 62
     0
 10
11561.79040899999
 20
5067.0886419999961
 30
0.0
 40
15.0
 50
0.0
 51
180.0
  0
ARC
  5
48E1
  8
0
  6
BYBLOCK
 62
     0
 10
8994.2904090000029
 20
5067.0886419999961
 30
0.0
 40
15.0
 50
0.0
 51
180.0
  0
ARC
  5
48E2
  8
0
  6
BYBLOCK
 62
     0
 10
8994.2904090000029
 20
5067.0886419999961
 30
0.0
 40
15.0
 50
180.0
 51
0.0
  0
LINE
  5
4A0C
  8
0-1
  6
CONTINUOUS
 62
     3
 10
24719.048852999971
 20
8465.5884979999973
 30
0.0
 11
24719.048852999971
 21
8497.5884050000004
 31
0.0
  0
LINE
  5
4A0D
  8
0-1
  6
CONTINUOUS
 62
     3
 10
24868.04824599998
 20
8389.4017760000006
 30
0.0
 11
24825.04613499996
 21
8389.4017760000006
 31
0.0
  0
LINE
  5
4A0E
  8
0-1
  6
CONTINUOUS
 62
     3
 10
24868.04824599998
 20
8715.5888270000032
 30
0.0
 11
24868.04824599998
 21
8389.4017760000006
 31
0.0
  0
LINE
  5
4A0F
  8
0-1
  6
CONTINUOUS
 62
     3
 10
24433.081659999989
 20
8462.0530769999987
 30
0.0
 11
24401.082742999981
 21
8494.0529849999984
 31
0.0
  0
LINE
  5
4A10
  8
0-1
  6
CONTINUOUS
 62
     3
 10
24714.048588999962
 20
8502.5886689999988
 30
0.0
 11
24404.618162999988
 21
8502.5886689999988
 31
0.0
  0
LINE
  5
4A11
  8
0-1
  6
CONTINUOUS
 62
     3
 10
24719.048852999971
 20
8494.189572000003
 30
0.0
 11
24400.952093999971
 21
8494.189572000003
 31
0.0
  0
LINE
  5
4A12
  8
0-1
  6
CONTINUOUS
 62
     3
 10
24714.048588999962
 20
8460.5882340000007
 30
0.0
 11
24436.619059999972
 21
8460.5882340000007
 31
0.0
  0
LINE
  5
4A13
  8
0-1
  6
CONTINUOUS
 62
     3
 10
24719.048852999971
 20
8468.9883209999989
 30
0.0
 11
24426.147406999971
 21
8468.9883209999989
 31
0.0
  0
LINE
  5
4A14
  8
0-1
  6
CONTINUOUS
 62
     3
 10
24719.048852999971
 20
8477.3884079999971
 30
0.0
 11
24417.748308999981
 21
8477.3884079999971
 31
0.0
  0
LINE
  5
4A15
  8
0-1
  6
CONTINUOUS
 62
     3
 10
24719.048852999971
 20
8485.7894849999975
 30
0.0
 11
24409.347232999971
 21
8485.7894849999975
 31
0.0
  0
LINE
  5
4A16
  8
0-1
  6
CONTINUOUS
 62
     3
 10
22564.512061000001
 20
8462.0530769999987
 30
0.0
 11
22596.508999000001
 21
8494.0529849999984
 31
0.0
  0
LINE
  5
4A17
  8
0-1
  6
CONTINUOUS
 62
     3
 10
22278.546847000001
 20
8465.5884979999973
 30
0.0
 11
22278.546847000001
 21
8497.5884050000004
 31
0.0
  0
LINE
  5
4A18
  8
0-1
  6
CONTINUOUS
 62
     3
 10
22278.546847000001
 20
8468.9883209999989
 30
0.0
 11
22571.444334999971
 21
8468.9883209999989
 31
0.0
  0
LINE
  5
4A19
  8
0-1
  6
CONTINUOUS
 62
     3
 10
22278.546847000001
 20
8477.3884079999971
 30
0.0
 11
22579.845411999991
 21
8477.3884079999971
 31
0.0
  0
LINE
  5
4A1A
  8
0-1
  6
CONTINUOUS
 62
     3
 10
22283.547110999989
 20
8460.5882340000007
 30
0.0
 11
22560.974660999989
 21
8460.5882340000007
 31
0.0
  0
LINE
  5
4A1B
  8
0-1
  6
CONTINUOUS
 62
     3
 10
22278.546847000001
 20
8485.7894849999975
 30
0.0
 11
22588.244509
 21
8485.7894849999975
 31
0.0
  0
LINE
  5
4A1C
  8
0-1
  6
CONTINUOUS
 62
     3
 10
22278.546847000001
 20
8494.189572000003
 30
0.0
 11
22596.641627000001
 21
8494.189572000003
 31
0.0
  0
LINE
  5
4A1D
  8
0-1
  6
CONTINUOUS
 62
     3
 10
22283.547110999989
 20
8502.5886689999988
 30
0.0
 11
22592.975558000009
 21
8502.5886689999988
 31
0.0
  0
LINE
  5
4A1E
  8
0-1
  6
CONTINUOUS
 62
     3
 10
24868.04824599998
 20
8585.5879039999982
 30
0.0
 11
22215.04587099998
 21
8585.5879039999982
 31
0.0
  0
LINE
  5
4A1F
  8
0-1
  6
CONTINUOUS
 62
     3
 10
22257.544154999989
 20
8511.5885500000004
 30
0.0
 11
24740.047585999971
 21
8511.5885500000004
 31
0.0
  0
LINE
  5
4A20
  8
0-1
  6
CONTINUOUS
 62
     3
 10
22257.544154999989
 20
8451.5883519999988
 30
0.0
 11
24740.047585999971
 21
8451.5883519999988
 31
0.0
  0
LINE
  5
4A21
  8
0-1
  6
CONTINUOUS
 62
     3
 10
22215.04587099998
 20
8715.5888270000032
 30
0.0
 11
24868.04824599998
 21
8715.5888270000032
 31
0.0
  0
LINE
  5
4A22
  8
0-1
  6
CONTINUOUS
 62
     3
 10
22151.544894999981
 20
8465.5884979999973
 30
0.0
 11
22151.544894999981
 21
8497.5884050000004
 31
0.0
  0
LINE
  5
4A23
  8
0-1
  6
CONTINUOUS
 62
     3
 10
21865.583639999972
 20
8462.0530769999987
 30
0.0
 11
21833.582742999981
 21
8494.0529849999984
 31
0.0
  0
LINE
  5
4A24
  8
0-1
  6
CONTINUOUS
 62
     3
 10
22151.544894999981
 20
8494.189572000003
 30
0.0
 11
21833.452094999961
 21
8494.189572000003
 31
0.0
  0
LINE
  5
4A25
  8
0-1
  6
CONTINUOUS
 62
     3
 10
22151.544894999981
 20
8485.7894849999975
 30
0.0
 11
21841.84723299996
 21
8485.7894849999975
 31
0.0
  0
LINE
  5
4A26
  8
0-1
  6
CONTINUOUS
 62
     3
 10
22151.544894999981
 20
8477.3884079999971
 30
0.0
 11
21850.24632999998
 21
8477.3884079999971
 31
0.0
  0
LINE
  5
4A27
  8
0-1
  6
CONTINUOUS
 62
     3
 10
22151.544894999981
 20
8468.9883209999989
 30
0.0
 11
21858.64542799996
 21
8468.9883209999989
 31
0.0
  0
LINE
  5
4A28
  8
0-1
  6
CONTINUOUS
 62
     3
 10
22146.546609999968
 20
8502.5886689999988
 30
0.0
 11
21837.11618399998
 21
8502.5886689999988
 31
0.0
  0
LINE
  5
4A29
  8
0-1
  6
CONTINUOUS
 62
     3
 10
22146.546609999968
 20
8460.5882340000007
 30
0.0
 11
21869.119060999968
 21
8460.5882340000007
 31
0.0
  0
LINE
  5
4A2A
  8
0-1
  6
CONTINUOUS
 62
     3
 10
19716.045131999981
 20
8460.5882340000007
 30
0.0
 11
19993.47466199995
 21
8460.5882340000007
 31
0.0
  0
LINE
  5
4A2B
  8
0-1
  6
CONTINUOUS
 62
     3
 10
19711.046847999969
 20
8465.5884979999973
 30
0.0
 11
19711.046847999969
 21
8497.5884050000004
 31
0.0
  0
LINE
  5
4A2C
  8
0-1
  6
CONTINUOUS
 62
     3
 10
19562.045475999959
 20
8389.4017760000006
 30
0.0
 11
19605.043627999981
 21
8389.4017760000006
 31
0.0
  0
LINE
  5
4A2D
  8
0-1
  6
CONTINUOUS
 62
     3
 10
19562.045475999959
 20
8389.4017760000006
 30
0.0
 11
19562.045475999959
 21
8715.5888270000032
 31
0.0
  0
LINE
  5
4A2E
  8
0-1
  6
CONTINUOUS
 62
     3
 10
19716.045131999981
 20
8502.5886689999988
 30
0.0
 11
20025.47555899998
 21
8502.5886689999988
 31
0.0
  0
LINE
  5
4A2F
  8
0-1
  6
CONTINUOUS
 62
     3
 10
19997.008101999982
 20
8462.0530769999987
 30
0.0
 11
20029.008999999969
 21
8494.0529849999984
 31
0.0
  0
LINE
  5
4A30
  8
0-1
  6
CONTINUOUS
 62
     3
 10
19711.046847999969
 20
8494.189572000003
 30
0.0
 11
20029.141626999979
 21
8494.189572000003
 31
0.0
  0
LINE
  5
4A31
  8
0-1
  6
CONTINUOUS
 62
     3
 10
19711.046847999969
 20
8485.7894849999975
 30
0.0
 11
20020.74450999999
 21
8485.7894849999975
 31
0.0
  0
LINE
  5
4A32
  8
0-1
  6
CONTINUOUS
 62
     3
 10
19711.046847999969
 20
8477.3884079999971
 30
0.0
 11
20012.345411999991
 21
8477.3884079999971
 31
0.0
  0
LINE
  5
4A33
  8
0-1
  6
CONTINUOUS
 62
     3
 10
19711.046847999969
 20
8468.9883209999989
 30
0.0
 11
20003.946314999979
 21
8468.9883209999989
 31
0.0
  0
LINE
  5
4A34
  8
0-1
  6
CONTINUOUS
 62
     3
 10
19690.044155999982
 20
8451.5883519999988
 30
0.0
 11
22172.545606999971
 21
8451.5883519999988
 31
0.0
  0
LINE
  5
4A35
  8
0-1
  6
CONTINUOUS
 62
     3
 10
19690.044155999982
 20
8511.5885500000004
 30
0.0
 11
22172.545606999971
 21
8511.5885500000004
 31
0.0
  0
LINE
  5
4A36
  8
0-1
  6
CONTINUOUS
 62
     3
 10
19562.045475999959
 20
8715.5888270000032
 30
0.0
 11
22215.04587099998
 21
8715.5888270000032
 31
0.0
  0
LINE
  5
4A37
  8
0-1
  6
CONTINUOUS
 62
     3
 10
22215.04587099998
 20
8585.5879039999982
 30
0.0
 11
19562.045475999959
 21
8585.5879039999982
 31
0.0
  0
LINE
  5
4A38
  8
0-1
  6
CONTINUOUS
 62
     3
 10
22215.04587099998
 20
8585.5879039999982
 30
0.0
 11
22215.04587099998
 21
8715.5888270000032
 31
0.0
  0
LINE
  5
4A39
  8
0-1
  6
CONTINUOUS
 62
     3
 10
22215.04587099998
 20
8585.5879039999982
 30
0.0
 11
22215.04587099998
 21
8715.5888270000032
 31
0.0
  0
ARC
  5
4A3A
  8
0-1
  6
CONTINUOUS
 62
     3
 10
24714.048588999962
 20
8497.5884050000004
 30
0.0
 40
5.0
 50
0.0
 51
90.0
  0
ARC
  5
4A3B
  8
0-1
  6
CONTINUOUS
 62
     3
 10
24714.048588999962
 20
8465.5884979999973
 30
0.0
 40
5.0
 50
269.9999850001808
 51
0.0
  0
ARC
  5
4A3C
  8
0-1
  6
CONTINUOUS
 62
     3
 10
24404.618162999988
 20
8497.5884050000004
 30
0.0
 40
5.0
 50
90.0
 51
224.99998499997989
  0
ARC
  5
4A3D
  8
0-1
  6
CONTINUOUS
 62
     3
 10
24436.619059999972
 20
8465.5884979999973
 30
0.0
 40
5.0
 50
224.99998499997989
 51
269.9999850001808
  0
ARC
  5
4A3E
  8
0-1
  6
CONTINUOUS
 62
     3
 10
22592.975558000009
 20
8497.5884050000004
 30
0.0
 40
5.0
 50
314.99998500027471
 51
90.0
  0
ARC
  5
4A3F
  8
0-1
  6
CONTINUOUS
 62
     3
 10
22560.974660999989
 20
8465.5884979999973
 30
0.0
 40
5.0
 50
269.9999850001808
 51
314.99998500027471
  0
ARC
  5
4A40
  8
0-1
  6
CONTINUOUS
 62
     3
 10
22283.547110999989
 20
8465.5884979999973
 30
0.0
 40
5.0
 50
180.0
 51
269.9999850001808
  0
ARC
  5
4A41
  8
0-1
  6
CONTINUOUS
 62
     3
 10
22283.547110999989
 20
8497.5884050000004
 30
0.0
 40
5.0
 50
90.0
 51
180.0
  0
ARC
  5
4A42
  8
0-1
  6
CONTINUOUS
 62
     3
 10
22146.546609999968
 20
8465.5884979999973
 30
0.0
 40
5.0
 50
269.9999850001808
 51
0.0
  0
ARC
  5
4A43
  8
0-1
  6
CONTINUOUS
 62
     3
 10
22146.546609999968
 20
8497.5884050000004
 30
0.0
 40
5.0
 50
0.0
 51
90.0
  0
ARC
  5
4A44
  8
0-1
  6
CONTINUOUS
 62
     3
 10
21837.11618399998
 20
8497.5884050000004
 30
0.0
 40
5.0
 50
90.0
 51
224.99998499997989
  0
ARC
  5
4A45
  8
0-1
  6
CONTINUOUS
 62
     3
 10
21869.119060999968
 20
8465.5884979999973
 30
0.0
 40
5.0
 50
224.99998499997989
 51
269.9999850001808
  0
ARC
  5
4A46
  8
0-1
  6
CONTINUOUS
 62
     3
 10
20025.47555899998
 20
8497.5884050000004
 30
0.0
 40
5.0
 50
314.99998500027471
 51
90.0
  0
ARC
  5
4A47
  8
0-1
  6
CONTINUOUS
 62
     3
 10
19716.045131999981
 20
8497.5884050000004
 30
0.0
 40
5.0
 50
90.0
 51
180.0
  0
ARC
  5
4A48
  8
0-1
  6
CONTINUOUS
 62
     3
 10
19716.045131999981
 20
8465.5884979999973
 30
0.0
 40
5.0
 50
180.0
 51
269.9999850001808
  0
ARC
  5
4A49
  8
0-1
  6
CONTINUOUS
 62
     3
 10
19993.47466199995
 20
8465.5884979999973
 30
0.0
 40
5.0
 50
269.9999850001808
 51
314.99998500027471
  0
LINE
  5
4A4A
  8
SUNPOU
  6
CONTINUOUS
 62
     4
 10
19562.043495999958
 20
8795.5888270000032
 30
0.0
 11
19562.043495999958
 21
9995.0464389999997
 31
0.0
  0
LINE
  5
4A4B
  8
SUNPOU
  6
CONTINUOUS
 62
     4
 10
24868.04824599998
 20
8795.5888270000032
 30
0.0
 11
24868.04824599998
 21
9995.0464389999997
 31
0.0
  0
LINE
  5
4A4C
  8
SUNPOU
  6
CONTINUOUS
 62
     4
 10
19565.043495999958
 20
9915.0464390000016
 30
0.0
 11
24865.04824599998
 21
9915.0464390000016
 31
0.0
  0
LINE
  5
4A4D
  8
SUNPOU
  6
CONTINUOUS
 62
     4
 10
19605.04560699996
 20
8795.5888270000032
 30
0.0
 11
19605.04560699996
 21
9595.0886689999988
 31
0.0
  0
LINE
  5
4A4E
  8
SUNPOU
  6
CONTINUOUS
 62
     4
 10
24825.04613499996
 20
8795.5888270000032
 30
0.0
 11
24825.04613499996
 21
9595.0886689999988
 31
0.0
  0
LINE
  5
4A4F
  8
SUNPOU
  6
CONTINUOUS
 62
     4
 10
19605.04560699996
 20
9515.0886689999988
 30
0.0
 11
24825.04613499996
 21
9515.0886689999988
 31
0.0
  0
LINE
  5
4A50
  8
SUNPOU
  6
CONTINUOUS
 62
     4
 10
19605.04560699996
 20
8795.5888270000032
 30
0.0
 11
19605.04560699996
 21
9595.0886689999988
 31
0.0
  0
LINE
  5
4A51
  8
SUNPOU
  6
CONTINUOUS
 62
     4
 10
19562.043495999958
 20
8795.5888270000032
 30
0.0
 11
19562.043495999958
 21
9595.0886689999988
 31
0.0
  0
LINE
  5
4A52
  8
SUNPOU
  6
CONTINUOUS
 62
     4
 10
19605.04560699996
 20
9515.0886689999988
 30
0.0
 11
19845.04560699996
 21
9515.0886689999988
 31
0.0
  0
LINE
  5
4A53
  8
SUNPOU
  6
CONTINUOUS
 62
     4
 10
19565.043495999958
 20
9515.0886689999988
 30
0.0
 11
19325.04349599998
 21
9515.0886689999988
 31
0.0
  0
LINE
  5
4A54
  8
SUNPOU
  6
CONTINUOUS
 62
     4
 10
19605.04560699996
 20
9515.0886689999988
 30
0.0
 11
19565.043495999958
 21
9515.0886689999988
 31
0.0
  0
LINE
  5
4A55
  8
SUNPOU
  6
CONTINUOUS
 62
     4
 10
24825.04613499996
 20
8795.5888270000032
 30
0.0
 11
24825.04613499996
 21
9595.0886689999988
 31
0.0
  0
LINE
  5
4A56
  8
SUNPOU
  6
CONTINUOUS
 62
     4
 10
24868.04824599998
 20
8795.5888270000032
 30
0.0
 11
24868.04824599998
 21
9595.0886689999988
 31
0.0
  0
LINE
  5
4A57
  8
SUNPOU
  6
CONTINUOUS
 62
     4
 10
24825.04613499996
 20
9515.0886689999988
 30
0.0
 11
24585.04613499996
 21
9515.0886689999988
 31
0.0
  0
LINE
  5
4A58
  8
SUNPOU
  6
CONTINUOUS
 62
     4
 10
24865.04824599998
 20
9515.0886689999988
 30
0.0
 11
25105.04824599998
 21
9515.0886689999988
 31
0.0
  0
LINE
  5
4A59
  8
SUNPOU
  6
CONTINUOUS
 62
     4
 10
24825.04613499996
 20
9515.0886689999988
 30
0.0
 11
24865.04824599998
 21
9515.0886689999988
 31
0.0
  0
TEXT
  5
4A5A
  8
0
  6
CONTINUOUS
 62
     7
 10
24985.04824599998
 20
9595.0886689999988
 30
0.0
 40
160.0
  1
43
  0
TEXT
  5
4A5B
  8
0
  6
CONTINUOUS
 62
     7
 10
19205.04349599998
 20
9595.0886689999988
 30
0.0
 40
160.0
  1
43
  0
TEXT
  5
4A5C
  8
0
  6
CONTINUOUS
 62
     7
 10
21935.04587099998
 20
9595.0886689999988
 30
0.0
 40
160.0
  1
5220
  0
TEXT
  5
4A5D
  8
0
  6
CONTINUOUS
 62
     7
 10
21948.379204333309
 20
9995.0464389999997
 30
0.0
 40
160.0
  1
5306
  0
ARC
  5
4A5E
  8
0
  6
BYBLOCK
 62
     0
 10
19562.043495999958
 20
9915.0464390000016
 30
0.0
 40
15.0
 50
0.0
 51
180.0
  0
ARC
  5
4A5F
  8
0
  6
BYBLOCK
 62
     0
 10
19562.043495999958
 20
9915.0464390000016
 30
0.0
 40
15.0
 50
180.0
 51
0.0
  0
ARC
  5
4A60
  8
0
  6
BYBLOCK
 62
     0
 10
24868.04824599998
 20
9915.0464390000016
 30
0.0
 40
15.0
 50
180.0
 51
0.0
  0
ARC
  5
4A61
  8
0
  6
BYBLOCK
 62
     0
 10
24868.04824599998
 20
9915.0464390000016
 30
0.0
 40
15.0
 50
0.0
 51
180.0
  0
ARC
  5
4A62
  8
0
  6
BYBLOCK
 62
     0
 10
19605.04560699996
 20
9515.0886689999988
 30
0.0
 40
15.0
 50
0.0
 51
180.0
  0
ARC
  5
4A63
  8
0
  6
BYBLOCK
 62
     0
 10
19605.04560699996
 20
9515.0886689999988
 30
0.0
 40
15.0
 50
180.0
 51
0.0
  0
ARC
  5
4A64
  8
0
  6
BYBLOCK
 62
     0
 10
24825.04613499996
 20
9515.0886689999988
 30
0.0
 40
15.0
 50
180.0
 51
0.0
  0
ARC
  5
4A65
  8
0
  6
BYBLOCK
 62
     0
 10
24825.04613499996
 20
9515.0886689999988
 30
0.0
 40
15.0
 50
0.0
 51
180.0
  0
ARC
  5
4A66
  8
0
  6
BYBLOCK
 62
     0
 10
19605.04560699996
 20
9515.0886689999988
 30
0.0
 40
15.0
 50
0.0
 51
180.0
  0
ARC
  5
4A67
  8
0
  6
BYBLOCK
 62
     0
 10
19605.04560699996
 20
9515.0886689999988
 30
0.0
 40
15.0
 50
180.0
 51
0.0
  0
ARC
  5
4A68
  8
0
  6
BYBLOCK
 62
     0
 10
19562.043495999958
 20
9515.0886689999988
 30
0.0
 40
15.0
 50
180.0
 51
0.0
  0
ARC
  5
4A69
  8
0
  6
BYBLOCK
 62
     0
 10
19562.043495999958
 20
9515.0886689999988
 30
0.0
 40
15.0
 50
0.0
 51
180.0
  0
ARC
  5
4A6A
  8
0
  6
BYBLOCK
 62
     0
 10
24825.04613499996
 20
9515.0886689999988
 30
0.0
 40
15.0
 50
180.0
 51
0.0
  0
ARC
  5
4A6B
  8
0
  6
BYBLOCK
 62
     0
 10
24825.04613499996
 20
9515.0886689999988
 30
0.0
 40
15.0
 50
0.0
 51
180.0
  0
ARC
  5
4A6C
  8
0
  6
BYBLOCK
 62
     0
 10
24868.04824599998
 20
9515.0886689999988
 30
0.0
 40
15.0
 50
0.0
 51
180.0
  0
ARC
  5
4A6D
  8
0
  6
BYBLOCK
 62
     0
 10
24868.04824599998
 20
9515.0886689999988
 30
0.0
 40
15.0
 50
180.0
 51
0.0
  0
LINE
  5
4A7B
  8
SUNPOU
  6
CONTINUOUS
 62
     4
 10
9266.5874919999824
 20
14235.538533999999
 30
0.0
 11
9266.5874919999824
 21
13056.590714
 31
0.0
  0
LINE
  5
4A7C
  8
SUNPOU
  6
CONTINUOUS
 62
     4
 10
14572.59026299996
 20
14235.538533999999
 30
0.0
 11
14572.59026299996
 21
13056.590714
 31
0.0
  0
LINE
  5
4A7D
  8
SUNPOU
  6
CONTINUOUS
 62
     4
 10
9269.5874919999824
 20
13136.590714
 30
0.0
 11
14569.59026299996
 21
13136.590714
 31
0.0
  0
TEXT
  5
4A7E
  8
0
  6
CONTINUOUS
 62
     7
 10
11130.255544166641
 20
13216.590714
 30
0.0
 40
160.0
  1
ケラバ外寸 5306
  0
ARC
  5
4A7F
  8
0
  6
BYBLOCK
 62
     0
 10
9266.5874919999824
 20
13136.590714
 30
0.0
 40
15.0
 50
0.0
 51
180.0
  0
ARC
  5
4A80
  8
0
  6
BYBLOCK
 62
     0
 10
9266.5874919999824
 20
13136.590714
 30
0.0
 40
15.0
 50
180.0
 51
0.0
  0
ARC
  5
4A81
  8
0
  6
BYBLOCK
 62
     0
 10
14572.59026299996
 20
13136.590714
 30
0.0
 40
15.0
 50
180.0
 51
0.0
  0
ARC
  5
4A82
  8
0
  6
BYBLOCK
 62
     0
 10
14572.59026299996
 20
13136.590714
 30
0.0
 40
15.0
 50
0.0
 51
180.0
  0
TEXT
  5
4B81
  8
NAME
 10
24033.053546554009
 20
1076.0
 30
0.0
 40
360.0
  1
H
 41
0.6700000000000002
  7
00
  0
TEXT
  5
4B82
  8
NAME
 10
23657.221561973682
 20
1076.0
 30
0.0
 40
360.0
  1
（ ）
  7
01
  0
TEXT
  5
4B83
  8
NAME
 10
21933.552716389011
 20
1876.0
 30
0.0
 40
360.0
  1
ヨドガレージ ラヴィージュ
 41
0.75
  7
01
  0
TEXT
  5
4B84
  8
NAME
 10
21550.022791898398
 20
1076.6369801169251
 30
0.0
 40
360.0
  1
VGCU-2652
 41
0.6700000000000002
  0
LINE
  5
4B85
  8
NAME
  6
CONTINUOUS
 10
26067.886878884299
 20
2236.0
 30
0.0
 11
26067.886878884299
 21
1876.0
 31
0.0
  0
LINE
  5
4B86
  8
NAME
  6
CONTINUOUS
 10
26167.886878884299
 20
2236.0
 30
0.0
 11
26167.886878884299
 21
1876.0
 31
0.0
  0
LINE
  5
4B87
  8
NAME
  6
CONTINUOUS
 10
26267.88687888431
 20
2236.0
 30
0.0
 11
26267.88687888431
 21
1876.0
 31
0.0
  0
LINE
  5
4B88
  8
NAME
  6
CONTINUOUS
 10
26007.886878884299
 20
2236.0
 30
0.0
 11
26327.886878884299
 21
2236.0
 31
0.0
  0
LINE
  5
4B89
  8
NAME
  6
CONTINUOUS
 10
26327.886878884299
 20
1876.0
 30
0.0
 11
26007.886878884299
 21
1876.0
 31
0.0
  0
TEXT
  5
4B8A
  8
NAME
 10
25346.041792426669
 20
1076.0
 30
0.0
 40
360.0
  1
2
 41
0.6700000000000002
  7
00
  0
TEXT
  5
4B8B
  8
NAME
 10
24557.214549256722
 20
1076.0
 30
0.0
 40
360.0
  1
型（ 連棟）
  7
01
  0
LINE
  5
4BE8
  8
2-0
  6
CONTINUOUS
 62
     3
 10
24813.042333999991
 20
14931.373957
 30
0.0
 11
24820.04389099999
 21
14931.373957
 31
0.0
  0
LINE
  5
4BE9
  8
2-0
  6
CONTINUOUS
 62
     3
 10
24820.04389099999
 20
14931.373957
 30
0.0
 11
24820.04389099999
 21
14926.379632
 31
0.0
  0
LINE
  5
4BEA
  8
2-0
  6
CONTINUOUS
 62
     3
 10
24820.04389099999
 20
14926.379632
 30
0.0
 11
24795.04653099996
 21
14926.379632
 31
0.0
  0
LINE
  5
4BEB
  8
2-0
  6
CONTINUOUS
 62
     3
 10
24795.04653099996
 20
14926.379632
 30
0.0
 11
24795.04653099996
 21
14944.375435000011
 31
0.0
  0
LINE
  5
4BEC
  8
2-0
  6
CONTINUOUS
 62
     3
 10
24795.04653099996
 20
14944.375435000011
 30
0.0
 11
24825.044154999981
 21
14944.375435000011
 31
0.0
  0
LINE
  5
4BED
  8
2-0
  6
CONTINUOUS
 62
     3
 10
24795.04653099996
 20
14928.277990000001
 30
0.0
 11
24795.04653099996
 21
14934.27989000002
 31
0.0
  0
LINE
  5
4BEE
  8
2-0
  6
CONTINUOUS
 62
     3
 10
24795.04653099996
 20
14934.27989000002
 30
0.0
 11
24825.044154999981
 21
14934.27989000002
 31
0.0
  0
LINE
  5
4BEF
  8
2-0
  6
CONTINUOUS
 62
     3
 10
24825.044154999981
 20
14897.28070900001
 30
0.0
 11
24825.044154999981
 21
14934.27989000002
 31
0.0
  0
LINE
  5
4BF0
  8
2-0
  6
CONTINUOUS
 62
     3
 10
24795.04653099996
 20
14897.28070900001
 30
0.0
 11
24825.044154999981
 21
14897.28070900001
 31
0.0
  0
LINE
  5
4BF1
  8
2-0
  6
CONTINUOUS
 62
     3
 10
24795.04653099996
 20
14903.27766
 30
0.0
 11
24795.04653099996
 21
14897.28070900001
 31
0.0
  0
LINE
  5
4BF2
  8
2-0
  6
CONTINUOUS
 62
     3
 10
24795.04653099996
 20
14887.179225
 30
0.0
 11
24825.044154999981
 21
14887.179225
 31
0.0
  0
LINE
  5
4BF3
  8
2-0
  6
CONTINUOUS
 62
     3
 10
24795.04653099996
 20
14905.186906000001
 30
0.0
 11
24795.04653099996
 21
14887.179225
 31
0.0
  0
LINE
  5
4BF4
  8
2-0
  6
CONTINUOUS
 62
     3
 10
24820.04389099999
 20
14905.186906000001
 30
0.0
 11
24795.04653099996
 21
14905.186906000001
 31
0.0
  0
LINE
  5
4BF5
  8
2-0
  6
CONTINUOUS
 62
     3
 10
24820.04389099999
 20
14900.186642000001
 30
0.0
 11
24820.04389099999
 21
14905.186906000001
 31
0.0
  0
LINE
  5
4BF6
  8
2-0
  6
CONTINUOUS
 62
     3
 10
24813.042333999991
 20
14900.186642000001
 30
0.0
 11
24820.04389099999
 21
14900.186642000001
 31
0.0
  0
LINE
  5
4BF7
  8
2-0
  6
CONTINUOUS
 62
     3
 10
19617.051386999949
 20
14931.373957
 30
0.0
 11
19610.053788999969
 21
14931.373957
 31
0.0
  0
LINE
  5
4BF8
  8
2-0
  6
CONTINUOUS
 62
     3
 10
19610.053788999969
 20
14931.373957
 30
0.0
 11
19610.053788999969
 21
14926.379632
 31
0.0
  0
LINE
  5
4BF9
  8
2-0
  6
CONTINUOUS
 62
     3
 10
19610.053788999969
 20
14926.379632
 30
0.0
 11
19635.047190999969
 21
14926.379632
 31
0.0
  0
LINE
  5
4BFA
  8
2-0
  6
CONTINUOUS
 62
     3
 10
19635.047190999969
 20
14926.379632
 30
0.0
 11
19635.047190999969
 21
14944.375435000011
 31
0.0
  0
LINE
  5
4BFB
  8
2-0
  6
CONTINUOUS
 62
     3
 10
19635.047190999969
 20
14944.375435000011
 30
0.0
 11
19605.049565999969
 21
14944.375435000011
 31
0.0
  0
LINE
  5
4BFC
  8
2-0
  6
CONTINUOUS
 62
     3
 10
19635.047190999969
 20
14928.277990000001
 30
0.0
 11
19635.047190999969
 21
14934.27989000002
 31
0.0
  0
LINE
  5
4BFD
  8
2-0
  6
CONTINUOUS
 62
     3
 10
19635.047190999969
 20
14934.27989000002
 30
0.0
 11
19605.049565999969
 21
14934.27989000002
 31
0.0
  0
LINE
  5
4BFE
  8
2-0
  6
CONTINUOUS
 62
     3
 10
19605.049565999969
 20
14897.28070900001
 30
0.0
 11
19605.049565999969
 21
14934.27989000002
 31
0.0
  0
LINE
  5
4BFF
  8
2-0
  6
CONTINUOUS
 62
     3
 10
19635.047190999969
 20
14897.28070900001
 30
0.0
 11
19605.049565999969
 21
14897.28070900001
 31
0.0
  0
LINE
  5
4C00
  8
2-0
  6
CONTINUOUS
 62
     3
 10
19635.047190999969
 20
14903.27766
 30
0.0
 11
19635.047190999969
 21
14897.28070900001
 31
0.0
  0
LINE
  5
4C01
  8
2-0
  6
CONTINUOUS
 62
     3
 10
19635.047190999969
 20
14887.179225
 30
0.0
 11
19605.049565999969
 21
14887.179225
 31
0.0
  0
LINE
  5
4C02
  8
2-0
  6
CONTINUOUS
 62
     3
 10
19635.047190999969
 20
14905.186906000001
 30
0.0
 11
19635.047190999969
 21
14887.179225
 31
0.0
  0
LINE
  5
4C03
  8
2-0
  6
CONTINUOUS
 62
     3
 10
19610.053788999969
 20
14905.186906000001
 30
0.0
 11
19635.047190999969
 21
14905.186906000001
 31
0.0
  0
LINE
  5
4C04
  8
2-0
  6
CONTINUOUS
 62
     3
 10
19610.053788999969
 20
14900.186642000001
 30
0.0
 11
19610.053788999969
 21
14905.186906000001
 31
0.0
  0
LINE
  5
4C05
  8
2-0
  6
CONTINUOUS
 62
     3
 10
19617.051386999949
 20
14900.186642000001
 30
0.0
 11
19610.053788999969
 21
14900.186642000001
 31
0.0
  0
LINE
  5
4C06
  8
2-0
  6
CONTINUOUS
 62
     3
 10
19605.049565999969
 20
14944.375435000011
 30
0.0
 11
19605.049565999969
 21
15588.179225
 31
0.0
  0
LINE
  5
4C09
  8
2-0
  6
CONTINUOUS
 62
     3
 10
19605.049565999969
 20
14897.28070900001
 30
0.0
 11
19605.049565999969
 21
14934.27989000002
 31
0.0
  0
LINE
  5
4C0A
  8
2-0
  6
CONTINUOUS
 62
     3
 10
24825.044154999981
 20
14934.27989000002
 30
0.0
 11
24825.044154999981
 21
14897.28070900001
 31
0.0
  0
LINE
  5
4C0B
  8
2-0
  6
CONTINUOUS
 62
     3
 10
24825.044154999981
 20
14887.179225
 30
0.0
 11
24825.044154999981
 21
14590.57779499999
 31
0.0
  0
TEXT
  5
4D33
  8
FILENAME
  6
CONTINUOUS
 10
28546.857142857141
 20
348.0
 30
0.0
 40
200.0
  1
＜VGCU-2652-2-A_0.DXF ＞
  7
FILENAME
 72
     2
 11
32764.0
 21
348.0
 31
0.0
  0
LINE
  5
4D38
  8
WAKUSEN-01
 10
868.00000000000193
 20
827.99999999999955
 30
0.0
 11
32764.000000000011
 21
827.99999999999943
 31
0.0
  0
LINE
  5
4D39
  8
WAKUSEN-01
 10
868.00000000000193
 20
827.99999999999955
 30
0.0
 11
868.00000000000193
 21
22484.000000000011
 31
0.0
  0
LINE
  5
4D3A
  8
WAKUSEN-01
 10
32764.000000000011
 20
827.99999999999943
 30
0.0
 11
32764.000000000011
 21
22484.000000000011
 31
0.0
  0
LINE
  5
4D3B
  8
WAKUSEN-01
 10
20560.0
 20
827.99999999999716
 30
0.0
 11
20560.0
 21
2484.0
 31
0.0
  0
LINE
  5
4D3C
  8
WAKUSEN-02
 10
26868.0
 20
827.99999999999261
 30
0.0
 11
26868.0
 21
2484.0
 31
0.0
  0
ENDSEC
  0
EOF
