  0
SECTION
  2
HEADER
  9
$ACADVER
  1
AC1009
  9
$INSBASE
 10
0.0
 20
0.0
 30
0.0
  9
$EXTMIN
 10
867.99324330406671
 20
327.38164749855792
 30
-0.0000000000000053
  9
$EXTMAX
 10
32765.33210850941
 20
22484.553276491992
 30
0.0000000000000099
  9
$LIMMIN
 10
0.0
 20
0.0
  9
$LIMMAX
 10
33600.0
 20
23760.0
  9
$ORTHOMODE
 70
     1
  9
$REGENMODE
 70
     1
  9
$FILLMODE
 70
     1
  9
$QTEXTMODE
 70
     0
  9
$MIRRTEXT
 70
     1
  9
$DRAGMODE
 70
     2
  9
$LTSCALE
 40
80.0
  9
$OSMODE
 70
  3071
  9
$ATTMODE
 70
     1
  9
$TEXTSIZE
 40
0.2
  9
$TRACEWID
 40
0.05
  9
$TEXTSTYLE
  7
00
  9
$CLAYER
  8
0
  9
$CELTYPE
  6
BYLAYER
  9
$CECOLOR
 62
   256
  9
$DIMSCALE
 40
80.0
  9
$DIMASZ
 40
3.0
  9
$DIMEXO
 40
1.0
  9
$DIMDLI
 40
0.38
  9
$DIMRND
 40
0.5
  9
$DIMDLE
 40
0.0
  9
$DIMEXE
 40
1.0
  9
$DIMTP
 40
0.0
  9
$DIMTM
 40
0.0
  9
$DIMTXT
 40
2.0
  9
$DIMCEN
 40
0.09
  9
$DIMTSZ
 40
0.0
  9
$DIMTOL
 70
     0
  9
$DIMLIM
 70
     0
  9
$DIMTIH
 70
     0
  9
$DIMTOH
 70
     0
  9
$DIMSE1
 70
     0
  9
$DIMSE2
 70
     0
  9
$DIMTAD
 70
     1
  9
$DIMZIN
 70
     8
  9
$DIMBLK
  1
DOTSMALL
  9
$DIMASO
 70
     1
  9
$DIMSHO
 70
     1
  9
$DIMPOST
  1

  9
$DIMAPOST
  1

  9
$DIMALT
 70
     0
  9
$DIMALTD
 70
     2
  9
$DIMALTF
 40
25.399999999999999
  9
$DIMLFAC
 40
1.0
  9
$DIMTOFL
 70
     1
  9
$DIMTVP
 40
0.0
  9
$DIMTIX
 70
     0
  9
$DIMSOXD
 70
     0
  9
$DIMSAH
 70
     0
  9
$DIMBLK1
  1

  9
$DIMBLK2
  1

  9
$DIMSTYLE
  2
SUNPOU
  9
$DIMCLRD
 70
     4
  9
$DIMCLRE
 70
     4
  9
$DIMCLRT
 70
     7
  9
$DIMTFAC
 40
1.0
  9
$DIMGAP
 40
1.0
  9
$LUNITS
 70
     2
  9
$LUPREC
 70
     4
  9
$SKETCHINC
 40
0.1
  9
$FILLETRAD
 40
0.0
  9
$AUNITS
 70
     0
  9
$AUPREC
 70
     0
  9
$MENU
  1
acad
  9
$ELEVATION
 40
0.0
  9
$PELEVATION
 40
0.0
  9
$THICKNESS
 40
0.0
  9
$LIMCHECK
 70
     0
  9
$BLIPMODE
 70
     1
  9
$CHAMFERA
 40
0.0
  9
$CHAMFERB
 40
0.0
  9
$SKPOLY
 70
     0
  9
$TDCREATE
 40
2311940.07498434
  9
$TDUPDATE
 40
2458942.4316516551
  9
$TDINDWG
 40
0.0656408681
  9
$TDUSRTIMER
 40
0.0656388657
  9
$USRTIMER
 70
     1
  9
$ANGBASE
 50
0.0
  9
$ANGDIR
 70
     0
  9
$PDMODE
 70
     0
  9
$PDSIZE
 40
0.0
  9
$PLINEWID
 40
0.0
  9
$COORDS
 70
     1
  9
$SPLFRAME
 70
     0
  9
$SPLINETYPE
 70
     6
  9
$SPLINESEGS
 70
     8
  9
$ATTDIA
 70
     1
  9
$ATTREQ
 70
     1
  9
$HANDLING
 70
     1
  9
$HANDSEED
  5
5637
  9
$SURFTAB1
 70
     6
  9
$SURFTAB2
 70
     6
  9
$SURFTYPE
 70
     6
  9
$SURFU
 70
     6
  9
$SURFV
 70
     6
  9
$UCSNAME
  2

  9
$UCSORG
 10
0.0
 20
0.0
 30
0.0
  9
$UCSXDIR
 10
1.0
 20
0.0
 30
0.0
  9
$UCSYDIR
 10
0.0
 20
1.0
 30
0.0
  9
$PUCSNAME
  2

  9
$PUCSORG
 10
0.0
 20
0.0
 30
0.0
  9
$PUCSXDIR
 10
1.0
 20
0.0
 30
0.0
  9
$PUCSYDIR
 10
0.0
 20
1.0
 30
0.0
  9
$USERI1
 70
     0
  9
$USERI2
 70
     0
  9
$USERI3
 70
     0
  9
$USERI4
 70
     0
  9
$USERI5
 70
     0
  9
$USERR1
 40
0.0
  9
$USERR2
 40
0.0
  9
$USERR3
 40
0.0
  9
$USERR4
 40
0.0
  9
$USERR5
 40
0.0
  9
$WORLDVIEW
 70
     1
  9
$SHADEDGE
 70
     3
  9
$SHADEDIF
 70
    70
  9
$TILEMODE
 70
     1
  9
$MAXACTVP
 70
    16
  9
$PLIMCHECK
 70
     0
  9
$PEXTMIN
 10
1.0000000000000000E+020
 20
1.0000000000000000E+020
 30
1.0000000000000000E+020
  9
$PEXTMAX
 10
-1.0000000000000000E+020
 20
-1.0000000000000000E+020
 30
-1.0000000000000000E+020
  9
$PLIMMIN
 10
0.0
 20
0.0
  9
$PLIMMAX
 10
12.0
 20
9.0
  9
$UNITMODE
 70
     0
  9
$VISRETAIN
 70
     0
  9
$PLINEGEN
 70
     1
  9
$PSLTSCALE
 70
     0
  0
ENDSEC
  0
SECTION
  2
TABLES
  0
TABLE
  2
VPORT
 70
     1
  0
VPORT
  2
*ACTIVE
 70
     0
 10
0.0
 20
0.0
 11
1.0
 21
1.0
 12
16800.0
 22
11880.0
 13
0.0
 23
0.0
 14
1.0
 24
1.0
 15
0.0
 25
0.0
 16
0.0
 26
0.0
 36
1.0
 17
0.0
 27
0.0
 37
0.0
 40
23981.023255813951
 41
2.195652173913043
 42
50.0
 43
0.0
 44
0.0
 50
0.0
 51
0.0
 71
     0
 72
 10000
 73
     1
 74
     1
 75
     0
 76
     0
 77
     0
 78
     0
  0
ENDTAB
  0
TABLE
  2
LTYPE
 70
     3
  0
LTYPE
  2
CONTINUOUS
 70
     0
  3
Solid line
 72
    65
 73
     0
 40
0.0
  0
LTYPE
  2
DASHED3
 70
     0
  3
------  ------  ------  ------  
 72
    65
 73
     2
 40
5.0
 49
3.75
 49
-1.25
  0
LTYPE
  2
CENTER2
 70
     0
  3
----------  --  ----------  --  
 72
    65
 73
     4
 40
20.0
 49
12.5
 49
-2.5
 49
2.5
 49
-2.5
  0
ENDTAB
  0
TABLE
  2
LAYER
 70
    22
  0
LAYER
  2
0
 70
     0
 62
     7
  6
CONTINUOUS
  0
LAYER
  2
SUNPOU
 70
     0
 62
     4
  6
CONTINUOUS
  0
LAYER
  2
0-1
 70
     0
 62
     7
  6
CONTINUOUS
  0
LAYER
  2
0-5
 70
     0
 62
     7
  6
CONTINUOUS
  0
LAYER
  2
3-0
 70
     0
 62
     7
  6
CONTINUOUS
  0
LAYER
  2
0-6
 70
     0
 62
     7
  6
CONTINUOUS
  0
LAYER
  2
0-7
 70
     0
 62
     7
  6
CONTINUOUS
  0
LAYER
  2
1-4
 70
     0
 62
     7
  6
CONTINUOUS
  0
LAYER
  2
2-0
 70
     0
 62
     7
  6
CONTINUOUS
  0
LAYER
  2
1-0
 70
     0
 62
     7
  6
CONTINUOUS
  0
LAYER
  2
1-1
 70
     0
 62
     7
  6
CONTINUOUS
  0
LAYER
  2
YODOROGO
 70
     0
 62
   130
  6
CONTINUOUS
  0
LAYER
  2
WAKUSEN-01
 70
     0
 62
    50
  6
CONTINUOUS
  0
LAYER
  2
WAKUSEN-02
 70
     0
 62
   130
  6
CONTINUOUS
  0
LAYER
  2
WAKUMOJI-01
 70
     0
 62
   130
  6
CONTINUOUS
  0
LAYER
  2
FILENAME
 70
     0
 62
     7
  6
CONTINUOUS
  0
LAYER
  2
NAME
 70
     0
 62
    20
  6
CONTINUOUS
  0
LAYER
  2
0-2
 70
     0
 62
     7
  6
CONTINUOUS
  0
LAYER
  2
0-3
 70
     0
 62
     7
  6
CONTINUOUS
  0
LAYER
  2
0-F
 70
     0
 62
     7
  6
CONTINUOUS
  0
ENDTAB
  0
TABLE
  2
STYLE
 70
     5
  0
STYLE
  2
STANDARD
 70
     0
 40
0.0
 41
1.0
 50
0.0
 71
     0
 42
0.0
  3
txt
  4
BIGFONT
  0
STYLE
  2
00
 70
     0
 40
0.0
 41
0.6666666666666666
 50
0.0
 71
     0
 42
0.2
  3
ROMANS
  4
BIGFONT
  0
STYLE
  2
01
 70
     0
 40
3.0
 41
1.0
 50
0.0
 71
     0
 42
0.2
  3
ROMANS
  4
BIGFONT
  0
STYLE
  2
WAKUMOJI
 70
     0
 40
3.0
 41
1.0
 50
0.0
 71
     0
 42
3.0
  3
SIMPLEX
  4
BIGFONT
  0
STYLE
  2
FILENAME
 70
     0
 40
200.0
 41
1.0
 50
0.0
 71
     0
 42
200.0
  3
romans
  4
bigfont
  0
ENDTAB
  0
TABLE
  2
VIEW
 70
     0
  0
ENDTAB
  0
TABLE
  2
UCS
 70
     0
  0
ENDTAB
  0
TABLE
  2
APPID
 70
    13
  0
APPID
  2
ACAD
 70
     0
  0
APPID
  2
ACADANNOTATIVE
 70
     0
  0
APPID
  2
ACAD_PSEXT
 70
     0
  0
APPID
  2
DCO15
 70
     0
  0
APPID
  2
AUTOCAD_POSTSCRIPT_FIGURE
 70
     0
  0
APPID
  2
ACAD_EXEMPT_FROM_CAD_STANDARDS
 70
     0
  0
APPID
  2
ACAD_MLEADERVER
 70
     0
  0
APPID
  2
ACAD_DSTYLE_DIMJAG
 70
     0
  0
APPID
  2
ACAD_DSTYLE_DIMTALN
 70
     0
  0
APPID
  2
ACAD_DSTYLE_DIM_LINETYPE
 70
     0
  0
APPID
  2
ACAD_DSTYLE_DIM_EXT1_LINETYPE
 70
     0
  0
APPID
  2
ACAD_DSTYLE_DIM_EXT2_LINETYPE
 70
     0
  0
APPID
  2
ACAD_NAV_VCDISPLAY
 70
     0
  0
ENDTAB
  0
TABLE
  2
DIMSTYLE
 70
     2
  0
DIMSTYLE
  2
SUNPOU
 70
     0
  3

  4

  5

  6

  7

 40
80.0
 41
3.0
 42
1.0
 43
0.38
 44
1.0
 45
0.5
 46
0.0
 47
0.0
 48
0.0
140
2.0
141
0.09
142
0.0
143
25.399999999999999
144
1.0
145
0.0
146
1.0
147
1.0
 71
     0
 72
     0
 73
     0
 74
     0
 75
     0
 76
     0
 77
     1
 78
     8
170
     0
171
     2
172
     1
173
     0
174
     0
175
     0
176
     4
177
     4
178
     7
  0
ENDTAB
  0
ENDSEC
  0
SECTION
  2
BLOCKS
  0
BLOCK
  8
0
  2
$MODEL_SPACE
 70
     0
 10
0.0
 20
0.0
 30
0.0
  3
$MODEL_SPACE
  1

  0
ENDBLK
  5
4AC5
  8
0
  0
BLOCK
 67
     1
  8
0
  2
$PAPER_SPACE
 70
     0
 10
0.0
 20
0.0
 30
0.0
  3
$PAPER_SPACE
  1

  0
ENDBLK
  5
4AC1
 67
     1
  8
0
  0
BLOCK
  8
0
  2
_DOTSMALL
 70
     0
 10
0.0
 20
0.0
 30
0.0
  3
_DOTSMALL
  1

  0
POLYLINE
  5
4AF9
  8
0
  6
BYBLOCK
 62
     0
 66
     1
 10
0.0
 20
0.0
 30
0.0
 70
     1
 40
0.5
 41
0.5
  0
VERTEX
  5
55FF
  8
0
  6
BYBLOCK
 62
     0
 10
-0.0625
 20
0.0
 30
0.0
 42
1.0
  0
VERTEX
  5
5600
  8
0
  6
BYBLOCK
 62
     0
 10
0.0625
 20
0.0
 30
0.0
 42
1.0
  0
SEQEND
  5
5601
  8
0
  6
BYBLOCK
 62
     0
  0
ENDBLK
  5
4AFD
  8
0
  0
ENDSEC
  0
SECTION
  2
ENTITIES
  0
LINE
  5
4AFE
  8
0-1
  6
CONTINUOUS
 62
     3
 10
8086.3464550000017
 20
19627.883288000012
 30
0.0
 11
8086.3464550000017
 21
20100.596283999999
 31
0.0
  0
LINE
  5
4AFF
  8
0-1
  6
CONTINUOUS
 62
     3
 10
8049.3467780000028
 20
19649.018607999991
 30
0.0
 11
8049.3467780000028
 21
20100.596283999999
 31
0.0
  0
LINE
  5
4B00
  8
0-1
  6
CONTINUOUS
 62
     3
 10
8009.8454450000081
 20
13589.096218000001
 30
0.0
 11
8009.8454450000081
 21
20100.596283999999
 31
0.0
  0
LINE
  5
4B01
  8
0-1
  6
CONTINUOUS
 62
     3
 10
7874.3463100000081
 20
13557.096310000001
 30
0.0
 11
7874.3463100000081
 21
20148.595649999999
 31
0.0
  0
LINE
  5
4B02
  8
0-1
  6
CONTINUOUS
 62
     3
 10
8249.3479330000027
 20
19534.786529000012
 30
0.0
 11
8249.3479330000027
 21
20100.596283999999
 31
0.0
  0
LINE
  5
4B03
  8
0-1
  6
CONTINUOUS
 62
     3
 10
8286.3446400000084
 20
19513.655168000008
 30
0.0
 11
8286.3446400000084
 21
20100.596283999999
 31
0.0
  0
LINE
  5
4B04
  8
0-1
  6
CONTINUOUS
 62
     3
 10
8449.3456240000087
 20
19420.55445
 30
0.0
 11
8449.3456240000087
 21
20100.596283999999
 31
0.0
  0
LINE
  5
4B05
  8
0-1
  6
CONTINUOUS
 62
     3
 10
8486.3457950000065
 20
19399.423089
 30
0.0
 11
8486.3457950000065
 21
20100.596283999999
 31
0.0
  0
LINE
  5
4B06
  8
0-1
  6
CONTINUOUS
 62
     3
 10
7947.844350000003
 20
20148.596310000012
 30
0.0
 11
13457.34579500001
 21
20148.596310000012
 31
0.0
  0
LINE
  5
4B07
  8
0-1
  6
CONTINUOUS
 62
     3
 10
10495.644821999969
 20
18247.509977000002
 30
0.0
 11
10657.881216
 21
18437.717958000001
 31
0.0
  0
LINE
  5
4B08
  8
0-1
  6
CONTINUOUS
 62
     3
 10
11094.239363000001
 20
17408.352459999991
 30
0.0
 11
11256.476747000001
 21
17598.560441000001
 31
0.0
  0
LINE
  5
4B09
  8
0-1
  6
CONTINUOUS
 62
     3
 10
11094.239363000001
 20
17408.352459999991
 30
0.0
 11
10657.881216
 21
18437.717958000001
 31
0.0
  0
LINE
  5
4B0A
  8
0-1
  6
CONTINUOUS
 62
     3
 10
7917.3485200000059
 20
13715.597089000001
 30
0.0
 11
13487.84756299999
 21
13715.597089000001
 31
0.0
  0
LINE
  5
4B0B
  8
0-1
  6
CONTINUOUS
 62
     3
 10
7959.846310000009
 20
13794.59769600001
 30
0.0
 11
13445.346310000001
 21
13794.59769600001
 31
0.0
  0
LINE
  5
4B0C
  8
0-1
  6
CONTINUOUS
 62
     3
 10
7874.3463100000099
 20
13557.096310000001
 30
0.0
 11
13530.84631000001
 21
13557.096310000001
 31
0.0
  0
LINE
  5
4B0D
  8
0-1
  6
CONTINUOUS
 62
     3
 10
7874.3463100000081
 20
13589.096218000001
 30
0.0
 11
13530.84631000001
 21
13589.096218000001
 31
0.0
  0
LINE
  5
4B0E
  8
0-1
  6
CONTINUOUS
 62
     3
 10
7959.846310000009
 20
13715.597089000001
 30
0.0
 11
7959.846310000009
 21
19700.135716000001
 31
0.0
  0
LINE
  5
4B0F
  8
0-1
  6
CONTINUOUS
 62
     3
 10
7917.3485200000059
 20
13715.597089000001
 30
0.0
 11
7917.3485200000059
 21
19724.410552000001
 31
0.0
  0
LINE
  5
4B10
  8
0-1
  6
CONTINUOUS
 62
     3
 10
8649.3443040000002
 20
19306.322370999998
 30
0.0
 11
8649.3443040000002
 21
20100.596283999999
 31
0.0
  0
LINE
  5
4B11
  8
0-1
  6
CONTINUOUS
 62
     3
 10
8686.3464550000062
 20
19285.191010999999
 30
0.0
 11
8686.3464550000062
 21
20100.596283999999
 31
0.0
  0
LINE
  5
4B12
  8
0-1
  6
CONTINUOUS
 62
     3
 10
8849.3479330000027
 20
19192.092272000009
 30
0.0
 11
8849.3479330000027
 21
20100.596283999999
 31
0.0
  0
LINE
  5
4B13
  8
0-1
  6
CONTINUOUS
 62
     3
 10
9249.3443040000038
 20
18963.62811500001
 30
0.0
 11
9249.3443040000038
 21
20100.596283999999
 31
0.0
  0
LINE
  5
4B14
  8
0-1
  6
CONTINUOUS
 62
     3
 10
9286.3464550000044
 20
18942.496754
 30
0.0
 11
9286.3464550000044
 21
20100.596283999999
 31
0.0
  0
LINE
  5
4B15
  8
0-1
  6
CONTINUOUS
 62
     3
 10
9459.3480390000077
 20
18849.396035999991
 30
0.0
 11
9459.3480390000077
 21
20100.596283999999
 31
0.0
  0
LINE
  5
4B16
  8
0-1
  6
CONTINUOUS
 62
     3
 10
9496.3452410000045
 20
18828.264674999991
 30
0.0
 11
9496.3452410000045
 21
20100.596283999999
 31
0.0
  0
LINE
  5
4B17
  8
0-1
  6
CONTINUOUS
 62
     3
 10
8886.3451350000068
 20
19170.960910999991
 30
0.0
 11
8886.3451350000068
 21
20100.596283999999
 31
0.0
  0
LINE
  5
4B18
  8
0-1
  6
CONTINUOUS
 62
     3
 10
9049.3466130000088
 20
19077.86217299999
 30
0.0
 11
9049.3466130000088
 21
20100.596283999999
 31
0.0
  0
LINE
  5
4B19
  8
0-1
  6
CONTINUOUS
 62
     3
 10
9086.3457950000084
 20
19056.728833000001
 30
0.0
 11
9086.3457950000084
 21
20100.596283999999
 31
0.0
  0
LINE
  5
4B1A
  8
0-1
  6
CONTINUOUS
 62
     3
 10
8029.8475310000058
 20
13749.596310000001
 30
0.0
 11
10089.911806
 21
16173.07051
 31
0.0
  0
LINE
  5
4B1B
  8
0-1
  6
CONTINUOUS
 62
     3
 10
10807.84657399999
 20
13749.596310000001
 30
0.0
 11
8747.7788350000064
 21
16173.07051
 31
0.0
  0
LINE
  5
4B1C
  8
0-1
  6
CONTINUOUS
 62
     3
 10
13375.34657399999
 20
13749.596310000001
 30
0.0
 11
10947.84505699999
 21
17018.096310000012
 31
0.0
  0
LINE
  5
4B1D
  8
0-1
  6
CONTINUOUS
 62
     3
 10
13487.84756299999
 20
13715.597089000001
 30
0.0
 11
13487.84756299999
 21
16117.555901000011
 31
0.0
  0
LINE
  5
4B1E
  8
0-1
  6
CONTINUOUS
 62
     3
 10
13445.346310000001
 20
13715.597089000001
 30
0.0
 11
13445.346310000001
 21
16139.096033000011
 31
0.0
  0
LINE
  5
4B1F
  8
0-1
  6
CONTINUOUS
 62
     3
 10
13530.84631000001
 20
13557.096310000001
 30
0.0
 11
13530.84631000001
 21
20148.595649999999
 31
0.0
  0
LINE
  5
4B20
  8
0-1
  6
CONTINUOUS
 62
     3
 10
13395.34766899999
 20
13589.096218000001
 30
0.0
 11
13395.34766899999
 21
20100.596283999999
 31
0.0
  0
LINE
  5
4B21
  8
0-1
  6
CONTINUOUS
 62
     3
 10
10495.644821999969
 20
18247.509977000002
 30
0.0
 11
7726.1492950000029
 21
19833.612674
 31
0.0
  0
LINE
  5
4B22
  8
0-1
  6
CONTINUOUS
 62
     3
 10
10496.347551000001
 20
18248.333456
 30
0.0
 11
10496.347551000001
 21
20100.596283999999
 31
0.0
  0
LINE
  5
4B23
  8
0-1
  6
CONTINUOUS
 62
     3
 10
10459.344409999991
 20
18268.24147500001
 30
0.0
 11
10459.344409999991
 21
20100.596283999999
 31
0.0
  0
LINE
  5
4B24
  8
0-1
  6
CONTINUOUS
 62
     3
 10
10296.345901000001
 20
18361.338232999991
 30
0.0
 11
10296.345901000001
 21
20100.596283999999
 31
0.0
  0
LINE
  5
4B25
  8
0-1
  6
CONTINUOUS
 62
     3
 10
10259.34671899999
 20
18382.473553
 30
0.0
 11
10259.34671899999
 21
20100.596283999999
 31
0.0
  0
LINE
  5
4B26
  8
0-1
  6
CONTINUOUS
 62
     3
 10
10096.345241000001
 20
18475.570312
 30
0.0
 11
10096.345241000001
 21
20100.596283999999
 31
0.0
  0
LINE
  5
4B27
  8
0-1
  6
CONTINUOUS
 62
     3
 10
10059.348039
 20
18496.70167300001
 30
0.0
 11
10059.348039
 21
20100.596283999999
 31
0.0
  0
LINE
  5
4B28
  8
0-1
  6
CONTINUOUS
 62
     3
 10
9896.3465610000039
 20
18599.802497000001
 30
0.0
 11
9896.3465610000039
 21
20100.596283999999
 31
0.0
  0
LINE
  5
4B29
  8
0-1
  6
CONTINUOUS
 62
     3
 10
9859.3444100000052
 20
18620.935837000001
 30
0.0
 11
9859.3444100000052
 21
20100.596283999999
 31
0.0
  0
LINE
  5
4B2A
  8
0-1
  6
CONTINUOUS
 62
     3
 10
9696.3459010000079
 20
18714.034576000009
 30
0.0
 11
9696.3459010000079
 21
20100.596283999999
 31
0.0
  0
LINE
  5
4B2B
  8
0-1
  6
CONTINUOUS
 62
     3
 10
9659.3467190000083
 20
18735.167915999991
 30
0.0
 11
9659.3467190000083
 21
20100.596283999999
 31
0.0
  0
LINE
  5
4B2C
  8
0-1
  6
CONTINUOUS
 62
     3
 10
10659.346059999991
 20
18434.261718000002
 30
0.0
 11
10659.346059999991
 21
20100.596283999999
 31
0.0
  0
LINE
  5
4B2D
  8
0-1
  6
CONTINUOUS
 62
     3
 10
10696.345241000001
 20
18346.97880600001
 30
0.0
 11
10696.345241000001
 21
20100.596283999999
 31
0.0
  0
LINE
  5
4B2E
  8
0-1
  6
CONTINUOUS
 62
     3
 10
10859.34671899999
 20
17962.46326
 30
0.0
 11
10859.34671899999
 21
20100.596283999999
 31
0.0
  0
LINE
  5
4B2F
  8
0-1
  6
CONTINUOUS
 62
     3
 10
10896.345901000001
 20
17875.178368000001
 30
0.0
 11
10896.345901000001
 21
20100.596283999999
 31
0.0
  0
LINE
  5
4B30
  8
0-1
  6
CONTINUOUS
 62
     3
 10
11059.346388999989
 20
17490.66480100001
 30
0.0
 11
11059.346388999989
 21
20100.596283999999
 31
0.0
  0
LINE
  5
4B31
  8
0-1
  6
CONTINUOUS
 62
     3
 10
11096.347551000001
 20
17410.82289900001
 30
0.0
 11
11096.347551000001
 21
20100.596283999999
 31
0.0
  0
LINE
  5
4B32
  8
0-1
  6
CONTINUOUS
 62
     3
 10
11259.346059999991
 20
17596.92140000001
 30
0.0
 11
11259.346059999991
 21
20100.596283999999
 31
0.0
  0
LINE
  5
4B33
  8
0-1
  6
CONTINUOUS
 62
     3
 10
11296.345241000001
 20
17575.786080000002
 30
0.0
 11
11296.345241000001
 21
20100.596283999999
 31
0.0
  0
LINE
  5
4B34
  8
0-1
  6
CONTINUOUS
 62
     3
 10
11459.346718999979
 20
17465.859454000009
 30
0.0
 11
11459.346718999979
 21
20100.596283999999
 31
0.0
  0
LINE
  5
4B35
  8
0-1
  6
CONTINUOUS
 62
     3
 10
11496.34689099999
 20
17441.653901000001
 30
0.0
 11
11496.34689099999
 21
20100.596283999999
 31
0.0
  0
LINE
  5
4B36
  8
0-1
  6
CONTINUOUS
 62
     3
 10
11659.346389
 20
17335.035049999999
 30
0.0
 11
11659.346389
 21
20100.596283999999
 31
0.0
  0
LINE
  5
4B37
  8
0-1
  6
CONTINUOUS
 62
     3
 10
11696.347551000001
 20
17310.82949700001
 30
0.0
 11
11696.347551000001
 21
20100.596283999999
 31
0.0
  0
LINE
  5
4B38
  8
0-1
  6
CONTINUOUS
 62
     3
 10
11859.34606
 20
17204.206687999991
 30
0.0
 11
11859.34606
 21
20100.596283999999
 31
0.0
  0
LINE
  5
4B39
  8
0-1
  6
CONTINUOUS
 62
     3
 10
11896.345241000001
 20
17180.007073000001
 30
0.0
 11
11896.345241000001
 21
20100.596283999999
 31
0.0
  0
LINE
  5
4B3A
  8
0-1
  6
CONTINUOUS
 62
     3
 10
13675.470293
 20
16022.454879999999
 30
0.0
 11
11256.476747000001
 21
17598.560441000001
 31
0.0
  0
LINE
  5
4B3B
  8
0-1
  6
CONTINUOUS
 62
     3
 10
8605.4158170000064
 20
19331.41474900001
 30
0.0
 11
10807.84657399999
 21
17018.096310000012
 31
0.0
  0
LINE
  5
4B3C
  8
0-1
  6
CONTINUOUS
 62
     3
 10
9662.8376000000062
 20
18733.174541
 30
0.0
 11
8029.8475310000058
 21
17018.096310000012
 31
0.0
  0
LINE
  5
4B3D
  8
0-1
  6
CONTINUOUS
 62
     3
 10
7892.3450820000098
 20
20100.596283999999
 30
0.0
 11
13512.84555700001
 21
20100.596283999999
 31
0.0
  0
LINE
  5
4B3E
  8
0-1
  6
CONTINUOUS
 62
     3
 10
7892.3450820000098
 20
20118.594067000002
 30
0.0
 11
7942.8470550000011
 21
20118.594067000002
 31
0.0
  0
LINE
  5
4B3F
  8
0-1
  6
CONTINUOUS
 62
     3
 10
7892.3450820000098
 20
20141.09327500001
 30
0.0
 11
7874.3463100000081
 21
20141.09327500001
 31
0.0
  0
LINE
  5
4B40
  8
0-1
  6
CONTINUOUS
 62
     3
 10
7942.8470550000011
 20
20158.596178
 30
0.0
 11
7879.3465740000029
 21
20158.596178
 31
0.0
  0
LINE
  5
4B41
  8
0-1
  6
CONTINUOUS
 62
     3
 10
7874.3463100000081
 20
20153.595914000001
 30
0.0
 11
7874.3463100000081
 21
20118.594067000002
 31
0.0
  0
LINE
  5
4B42
  8
0-1
  6
CONTINUOUS
 62
     3
 10
7947.844350000003
 20
20123.594331
 30
0.0
 11
7947.844350000003
 21
20153.595914000001
 31
0.0
  0
LINE
  5
4B43
  8
0-1
  6
CONTINUOUS
 62
     3
 10
7892.3450820000098
 20
19736.97455699999
 30
0.0
 11
7892.3450820000098
 21
20141.09327500001
 31
0.0
  0
LINE
  5
4B44
  8
0-1
  6
CONTINUOUS
 62
     3
 10
13462.34605900001
 20
20158.596178
 30
0.0
 11
13525.846046000001
 21
20158.596178
 31
0.0
  0
LINE
  5
4B45
  8
0-1
  6
CONTINUOUS
 62
     3
 10
13530.84631000001
 20
20153.595914000001
 30
0.0
 11
13530.84631000001
 21
20118.594067000002
 31
0.0
  0
LINE
  5
4B46
  8
0-1
  6
CONTINUOUS
 62
     3
 10
13512.84555700001
 20
20118.594067000002
 30
0.0
 11
13462.34605900001
 21
20118.594067000002
 31
0.0
  0
LINE
  5
4B47
  8
0-1
  6
CONTINUOUS
 62
     3
 10
13457.34579500001
 20
20123.594331
 30
0.0
 11
13457.34579500001
 21
20153.595914000001
 31
0.0
  0
LINE
  5
4B48
  8
0-1
  6
CONTINUOUS
 62
     3
 10
13512.84555700001
 20
20141.09327500001
 30
0.0
 11
13530.84631000001
 21
20141.09327500001
 31
0.0
  0
LINE
  5
4B49
  8
0-1
  6
CONTINUOUS
 62
     3
 10
13512.84555700001
 20
16117.052113999989
 30
0.0
 11
13512.84555700001
 21
20141.09327500001
 31
0.0
  0
LINE
  5
4B4A
  8
0-1
  6
CONTINUOUS
 62
     3
 10
10820.846073000001
 20
17052.09454200001
 30
0.0
 11
10820.846073000001
 21
18053.283572
 31
0.0
  0
LINE
  5
4B4B
  8
0-1
  6
CONTINUOUS
 62
     3
 10
10934.84654799999
 20
17052.09454200001
 30
0.0
 11
10934.84654799999
 21
17784.356076000011
 31
0.0
  0
LINE
  5
4B4C
  8
0-1
  6
CONTINUOUS
 62
     3
 10
10877.846310000001
 20
17052.09454200001
 30
0.0
 11
10877.846310000001
 21
17918.818834000002
 31
0.0
  0
LINE
  5
4B4D
  8
0-1
  6
CONTINUOUS
 62
     3
 10
10877.846310000001
 20
16973.093934000011
 30
0.0
 11
10877.846310000001
 21
17052.09454200001
 31
0.0
  0
LINE
  5
4B4E
  8
0-1
  6
CONTINUOUS
 62
     3
 10
10877.846310000001
 20
20100.596283999999
 30
0.0
 11
10877.846310000001
 21
20148.595649999999
 31
0.0
  0
LINE
  5
4B4F
  8
0-1
  6
CONTINUOUS
 62
     3
 10
12505.846006
 20
16787.531882999989
 30
0.0
 11
12505.846006
 21
20100.596283999999
 31
0.0
  0
LINE
  5
4B50
  8
0-1
  6
CONTINUOUS
 62
     3
 10
12468.845834999989
 20
16811.735456999999
 30
0.0
 11
12468.845834999989
 21
20100.596283999999
 31
0.0
  0
LINE
  5
4B51
  8
0-1
  6
CONTINUOUS
 62
     3
 10
12268.845175
 20
16942.559860000001
 30
0.0
 11
12268.845175
 21
20100.596283999999
 31
0.0
  0
LINE
  5
4B52
  8
0-1
  6
CONTINUOUS
 62
     3
 10
12305.84732600001
 20
16918.35826600001
 30
0.0
 11
12305.84732600001
 21
20100.596283999999
 31
0.0
  0
LINE
  5
4B53
  8
0-1
  6
CONTINUOUS
 62
     3
 10
12068.846493999999
 20
17073.384263999989
 30
0.0
 11
12068.846493999999
 21
20100.596283999999
 31
0.0
  0
LINE
  5
4B54
  8
0-1
  6
CONTINUOUS
 62
     3
 10
12105.84666599999
 20
17049.182669999991
 30
0.0
 11
12105.84666599999
 21
20100.596283999999
 31
0.0
  0
LINE
  5
4B55
  8
0-1
  6
CONTINUOUS
 62
     3
 10
12705.846665999999
 20
16656.707480000001
 30
0.0
 11
12705.846665999999
 21
20100.596283999999
 31
0.0
  0
LINE
  5
4B56
  8
0-1
  6
CONTINUOUS
 62
     3
 10
12905.84732599999
 20
16525.883075999991
 30
0.0
 11
12905.84732599999
 21
20100.596283999999
 31
0.0
  0
LINE
  5
4B57
  8
0-1
  6
CONTINUOUS
 62
     3
 10
12868.846164
 20
16550.08467
 30
0.0
 11
12868.846164
 21
20100.596283999999
 31
0.0
  0
LINE
  5
4B58
  8
0-1
  6
CONTINUOUS
 62
     3
 10
13068.845835
 20
16419.260267000001
 30
0.0
 11
13068.845835
 21
20100.596283999999
 31
0.0
  0
LINE
  5
4B59
  8
0-1
  6
CONTINUOUS
 62
     3
 10
13105.846006
 20
16395.05867300001
 30
0.0
 11
13105.846006
 21
20100.596283999999
 31
0.0
  0
LINE
  5
4B5A
  8
0-1
  6
CONTINUOUS
 62
     3
 10
12668.84649400001
 20
16680.909073999999
 30
0.0
 11
12668.84649400001
 21
20100.596283999999
 31
0.0
  0
LINE
  5
4B5B
  8
0-1
  6
CONTINUOUS
 62
     3
 10
13305.846665999999
 20
16264.23426900001
 30
0.0
 11
13305.846665999999
 21
20100.596283999999
 31
0.0
  0
LINE
  5
4B5C
  8
0-1
  6
CONTINUOUS
 62
     3
 10
13268.847484
 20
16288.437843
 30
0.0
 11
13268.847484
 21
20100.596283999999
 31
0.0
  0
LINE
  5
4B5D
  8
0-1
  6
CONTINUOUS
 62
     3
 10
10947.84505699999
 20
13749.596310000001
 30
0.0
 11
12975.988597
 21
16480.001794000011
 31
0.0
  0
LINE
  5
4B5E
  8
0-1
  6
CONTINUOUS
 62
     3
 10
8134.8466400000107
 20
16968.09367100001
 30
0.0
 11
8174.8447920000071
 21
16968.09367100001
 31
0.0
  0
LINE
  5
4B5F
  8
0-1
  6
CONTINUOUS
 62
     3
 10
8174.8447920000071
 20
16968.09367100001
 30
0.0
 11
8174.8447920000071
 21
16768.094990000001
 31
0.0
  0
LINE
  5
4B60
  8
0-1
  6
CONTINUOUS
 62
     3
 10
8169.8445280000051
 20
16963.093407000011
 30
0.0
 11
8169.8445280000051
 21
16813.093407000011
 31
0.0
  0
LINE
  5
4B61
  8
0-1
  6
CONTINUOUS
 62
     3
 10
8169.8445280000051
 20
16813.093407000011
 30
0.0
 11
8144.847168000003
 21
16813.093407000011
 31
0.0
  0
LINE
  5
4B62
  8
0-1
  6
CONTINUOUS
 62
     3
 10
8049.8480910000062
 20
16868.094330000011
 30
0.0
 11
8049.8480910000062
 21
16908.096441999991
 31
0.0
  0
LINE
  5
4B63
  8
0-1
  6
CONTINUOUS
 62
     3
 10
8144.847168000003
 20
16963.093407000011
 30
0.0
 11
8169.8445280000051
 21
16963.093407000011
 31
0.0
  0
LINE
  5
4B64
  8
0-1
  6
CONTINUOUS
 62
     3
 10
8144.847168000003
 20
16963.093407000011
 30
0.0
 11
8144.847168000003
 21
16813.093407000011
 31
0.0
  0
LINE
  5
4B65
  8
0-1
  6
CONTINUOUS
 62
     3
 10
8084.8459800000019
 20
16950.59472600001
 30
0.0
 11
8144.847168000003
 21
16950.59472600001
 31
0.0
  0
LINE
  5
4B66
  8
0-1
  6
CONTINUOUS
 62
     3
 10
8084.8459800000019
 20
16825.594066000001
 30
0.0
 11
8144.847168000003
 21
16825.594066000001
 31
0.0
  0
LINE
  5
4B67
  8
0-1
  6
CONTINUOUS
 62
     3
 10
8084.8459800000019
 20
16950.59472600001
 30
0.0
 11
8084.8459800000019
 21
16825.594066000001
 31
0.0
  0
LINE
  5
4B68
  8
0-1
  6
CONTINUOUS
 62
     3
 10
8049.8480910000062
 20
16908.096441999991
 30
0.0
 11
8084.8459800000019
 21
16908.096441999991
 31
0.0
  0
LINE
  5
4B69
  8
0-1
  6
CONTINUOUS
 62
     3
 10
8049.8480910000062
 20
16868.094330000011
 30
0.0
 11
8084.8459800000019
 21
16868.094330000011
 31
0.0
  0
LINE
  5
4B6A
  8
0-1
  6
CONTINUOUS
 62
     3
 10
8134.8466400000107
 20
16729.613149000001
 30
0.0
 11
8194.8453530000061
 21
16729.613149000001
 31
0.0
  0
LINE
  5
4B6B
  8
0-1
  6
CONTINUOUS
 62
     3
 10
8194.8453530000061
 20
13794.59769600001
 30
0.0
 11
8194.8453530000061
 21
16729.613149000001
 31
0.0
  0
LINE
  5
4B6C
  8
0-1
  6
CONTINUOUS
 62
     3
 10
8174.8447920000071
 20
13794.59769600001
 30
0.0
 11
8174.8447920000071
 21
16888.093407000011
 31
0.0
  0
LINE
  5
4B6D
  8
0-1
  6
CONTINUOUS
 62
     3
 10
8134.8466400000107
 20
14204.59657400001
 30
0.0
 11
8134.8466400000107
 21
16729.613149000001
 31
0.0
  0
LINE
  5
4B6E
  8
0-1
  6
CONTINUOUS
 62
     3
 10
8134.8466400000107
 20
14204.59657400001
 30
0.0
 11
8174.8447920000071
 21
14204.59657400001
 31
0.0
  0
LINE
  5
4B6F
  8
0-1
  6
CONTINUOUS
 62
     3
 10
8134.8466400000107
 20
14094.59769600001
 30
0.0
 11
8134.8466400000107
 21
14194.59703600001
 31
0.0
  0
LINE
  5
4B70
  8
0-1
  6
CONTINUOUS
 62
     3
 10
8134.8466400000107
 20
14194.59703600001
 30
0.0
 11
8164.8472340000062
 21
14194.59703600001
 31
0.0
  0
LINE
  5
4B71
  8
0-1
  6
CONTINUOUS
 62
     3
 10
8164.8472340000062
 20
14194.59703600001
 30
0.0
 11
8164.8472340000062
 21
14094.59769600001
 31
0.0
  0
LINE
  5
4B72
  8
0-1
  6
CONTINUOUS
 62
     3
 10
8164.8472340000062
 20
14094.59769600001
 30
0.0
 11
8134.8466400000107
 21
14094.59769600001
 31
0.0
  0
LINE
  5
4B73
  8
0-1
  6
CONTINUOUS
 62
     3
 10
13270.34598
 20
14204.59657400001
 30
0.0
 11
13270.34598
 21
16288.437843
 31
0.0
  0
LINE
  5
4B74
  8
0-1
  6
CONTINUOUS
 62
     3
 10
13230.345848000001
 20
13794.59769600001
 30
0.0
 11
13230.345848000001
 21
16888.093407000011
 31
0.0
  0
LINE
  5
4B75
  8
0-1
  6
CONTINUOUS
 62
     3
 10
13210.34677199999
 20
13794.59769600001
 30
0.0
 11
13210.34677199999
 21
16326.70391700001
 31
0.0
  0
LINE
  5
4B76
  8
0-1
  6
CONTINUOUS
 62
     3
 10
13240.345386000001
 20
14094.59769600001
 30
0.0
 11
13270.34598
 21
14094.59769600001
 31
0.0
  0
LINE
  5
4B77
  8
0-1
  6
CONTINUOUS
 62
     3
 10
13240.345386000001
 20
14194.59703600001
 30
0.0
 11
13240.345386000001
 21
14094.59769600001
 31
0.0
  0
LINE
  5
4B78
  8
0-1
  6
CONTINUOUS
 62
     3
 10
13270.34598
 20
14194.59703600001
 30
0.0
 11
13240.345386000001
 21
14194.59703600001
 31
0.0
  0
LINE
  5
4B79
  8
0-1
  6
CONTINUOUS
 62
     3
 10
13270.34598
 20
14094.59769600001
 30
0.0
 11
13270.34598
 21
14194.59703600001
 31
0.0
  0
LINE
  5
4B7A
  8
0-1
  6
CONTINUOUS
 62
     3
 10
13270.34598
 20
14204.59657400001
 30
0.0
 11
13230.345848000001
 21
14204.59657400001
 31
0.0
  0
LINE
  5
4B7B
  8
0-1
  6
CONTINUOUS
 62
     3
 10
11407.845584000001
 20
16938.09604600001
 30
0.0
 11
11007.846244
 21
16938.09604600001
 31
0.0
  0
LINE
  5
4B7C
  8
0-1
  6
CONTINUOUS
 62
     3
 10
11007.846244
 20
16838.09274700001
 30
0.0
 11
11407.845584000001
 21
16838.09274700001
 31
0.0
  0
LINE
  5
4B7D
  8
0-1
  6
CONTINUOUS
 62
     3
 10
10382.84789399998
 20
16968.09367100001
 30
0.0
 11
10422.846046000001
 21
16968.09367100001
 31
0.0
  0
LINE
  5
4B7E
  8
0-1
  6
CONTINUOUS
 62
     3
 10
9997.846376000005
 20
16838.09274700001
 30
0.0
 11
10397.845716
 21
16838.09274700001
 31
0.0
  0
LINE
  5
4B7F
  8
0-1
  6
CONTINUOUS
 62
     3
 10
10397.845716
 20
16938.09604600001
 30
0.0
 11
9997.846376000005
 21
16938.09604600001
 31
0.0
  0
LINE
  5
4B80
  8
0-1
  6
CONTINUOUS
 62
     3
 10
9997.846376000005
 20
16938.09604600001
 30
0.0
 11
9997.846376000005
 21
16838.09274700001
 31
0.0
  0
LINE
  5
4B81
  8
0-1
  6
CONTINUOUS
 62
     3
 10
10422.846046000001
 20
16968.09367100001
 30
0.0
 11
10422.846046000001
 21
16768.094990000001
 31
0.0
  0
LINE
  5
4B82
  8
0-1
  6
CONTINUOUS
 62
     3
 10
10397.845716
 20
16838.09274700001
 30
0.0
 11
10397.845716
 21
16938.09604600001
 31
0.0
  0
LINE
  5
4B83
  8
0-1
  6
CONTINUOUS
 62
     3
 10
10982.848884000001
 20
16968.09367100001
 30
0.0
 11
11022.846046000001
 21
16968.09367100001
 31
0.0
  0
LINE
  5
4B84
  8
0-1
  6
CONTINUOUS
 62
     3
 10
10982.848884000001
 20
16968.09367100001
 30
0.0
 11
10982.848884000001
 21
16768.094990000001
 31
0.0
  0
LINE
  5
4B85
  8
0-1
  6
CONTINUOUS
 62
     3
 10
11007.846244
 20
16938.09604600001
 30
0.0
 11
11007.846244
 21
16838.09274700001
 31
0.0
  0
LINE
  5
4B86
  8
0-1
  6
CONTINUOUS
 62
     3
 10
11407.845584000001
 20
16838.09274700001
 30
0.0
 11
11407.845584000001
 21
16938.09604600001
 31
0.0
  0
LINE
  5
4B87
  8
0-1
  6
CONTINUOUS
 62
     3
 10
11369.19350499999
 20
17524.827333000001
 30
0.0
 11
10947.84505699999
 21
17018.096310000012
 31
0.0
  0
LINE
  5
4B88
  8
0-1
  6
CONTINUOUS
 62
     3
 10
10395.771180999989
 20
16533.06872900001
 30
0.0
 11
10807.84657399999
 21
17018.096310000012
 31
0.0
  0
LINE
  5
4B89
  8
0-1
  6
CONTINUOUS
 62
     3
 10
8441.9244080000099
 20
16533.06872900001
 30
0.0
 11
8029.8475310000058
 21
17018.096310000012
 31
0.0
  0
LINE
  5
4B8A
  8
0-1
  6
CONTINUOUS
 62
     3
 10
10877.846310000001
 20
13715.597089000001
 30
0.0
 11
10877.846310000001
 21
13557.096310000001
 31
0.0
  0
LINE
  5
4B8B
  8
0-5
  6
CONTINUOUS
 62
     4
 10
14383.562327999991
 20
6076.8597120000077
 30
0.0
 11
18670.849134
 21
6076.8597120000077
 31
0.0
  0
LINE
  5
4B8C
  8
0-5
  6
CONTINUOUS
 62
     4
 10
14383.562327999991
 20
6176.8595470000073
 30
0.0
 11
16101.022276
 21
6176.8595470000064
 31
0.0
  0
LINE
  5
4B8D
  8
0-5
  6
CONTINUOUS
 62
     4
 10
16128.645468000001
 20
6384.7065230000062
 30
0.0
 11
15888.645666
 21
6384.7065230000062
 31
0.0
  0
LINE
  5
4B8E
  8
0-5
  6
CONTINUOUS
 62
     4
 10
16008.646062
 20
6176.8595470000064
 30
0.0
 11
16128.645468000001
 21
6384.7065230000062
 31
0.0
  0
LINE
  5
4B8F
  8
0-5
  6
CONTINUOUS
 62
     4
 10
15888.645666
 20
6384.7065230000062
 30
0.0
 11
16008.646062
 21
6176.8595470000064
 31
0.0
  0
LINE
  5
4B90
  8
0-5
  6
CONTINUOUS
 62
     4
 10
16958.931772000011
 20
6076.8597120000077
 30
0.0
 11
17078.932167999999
 21
6284.7056990000083
 31
0.0
  0
LINE
  5
4B91
  8
0-5
  6
CONTINUOUS
 62
     4
 10
16838.931376
 20
6284.7056990000083
 30
0.0
 11
16958.931772000011
 21
6076.8597120000077
 31
0.0
  0
LINE
  5
4B92
  8
0-5
  6
CONTINUOUS
 62
     4
 10
17078.932167999999
 20
6284.7056990000083
 30
0.0
 11
16838.931376
 21
6284.7056990000083
 31
0.0
  0
LINE
  5
4B93
  8
0-6
  6
CONTINUOUS
 62
     6
 10
9630.6678760000086
 20
19876.318808
 30
0.0
 11
9774.5699690000056
 21
20388.596441999998
 31
0.0
  0
LINE
  5
4B94
  8
0-6
  6
CONTINUOUS
 62
     6
 10
9163.1560650000065
 20
19982.096363000001
 30
0.0
 11
8869.2252690000059
 21
20388.596441999998
 31
0.0
  0
LINE
  5
4B95
  8
0-6
  6
CONTINUOUS
 62
     6
 10
9774.5699690000056
 20
20388.596441999998
 30
0.0
 11
10292.258617
 21
20388.596441999998
 31
0.0
  0
LINE
  5
4B96
  8
0-6
  6
CONTINUOUS
 62
     6
 10
9164.2556870000062
 20
20278.497598000002
 30
0.0
 11
8955.0641230000037
 21
20640.83065900001
 31
0.0
  0
LINE
  5
4B97
  8
0-6
  6
CONTINUOUS
 62
     6
 10
8881.0588310000057
 20
20769.012405000009
 30
0.0
 11
8685.0003820000038
 21
21108.594859000001
 31
0.0
  0
LINE
  5
4B98
  8
0-6
  6
CONTINUOUS
 62
     6
 10
8685.0003820000038
 20
21108.594859000001
 30
0.0
 11
9527.4379620000036
 21
21108.594859000001
 31
0.0
  0
LINE
  5
4B99
  8
0-6
  6
CONTINUOUS
 62
     6
 10
8124.3735020000058
 20
18389.700354000001
 30
0.0
 11
8639.4813530000065
 21
18389.700354000001
 31
0.0
  0
LINE
  5
4B9A
  8
0-6
  6
CONTINUOUS
 62
     6
 10
8562.7136430000064
 20
13964.484586
 30
0.0
 11
8645.6010340000066
 21
14141.42286500001
 31
0.0
  0
LINE
  5
4B9B
  8
0-6
  6
CONTINUOUS
 62
     6
 10
9750.6385790000095
 20
12777.594938
 30
0.0
 11
10613.21676999999
 21
12777.594938
 31
0.0
  0
LINE
  5
4B9C
  8
0-6
  6
CONTINUOUS
 62
     6
 10
9344.5254960000038
 20
13441.126597
 30
0.0
 11
9750.6385790000095
 21
12777.594938
 31
0.0
  0
LINE
  5
4B9D
  8
0-6
  6
CONTINUOUS
 62
     6
 10
6416.4969018830852
 20
12518.815778186559
 30
0.0
 11
7496.497495883089
 21
12518.815778186559
 31
0.0
  0
LINE
  5
4B9E
  8
0-6
  6
CONTINUOUS
 62
     6
 10
7809.6894330000059
 20
14151.869774000001
 30
0.0
 11
7496.497495883089
 21
12518.815778186559
 31
0.0
  0
LINE
  5
4B9F
  8
0-6
  6
CONTINUOUS
 62
     6
 10
8025.3317540000062
 20
18610.491897
 30
0.0
 11
8124.3735020000058
 21
18389.700354000001
 31
0.0
  0
LINE
  5
4BA0
  8
0-6
  6
CONTINUOUS
 62
     6
 10
10105.23964
 20
15282.72420000001
 30
0.0
 11
10985.23660499998
 21
15282.72420000001
 31
0.0
  0
LINE
  5
4BA1
  8
0-6
  6
CONTINUOUS
 62
     6
 10
9893.9725500000077
 20
15080.663852
 30
0.0
 11
10105.23964
 21
15282.72420000001
 31
0.0
  0
LINE
  5
4BA2
  8
0-6
  6
CONTINUOUS
 62
     6
 10
11211.129368
 20
21108.594859000001
 30
0.0
 11
12886.129698000001
 21
21108.594859000001
 31
0.0
  0
LINE
  5
4BA3
  8
0-6
  6
CONTINUOUS
 62
     6
 10
13076.412901
 20
20779.014912999999
 30
0.0
 11
12886.129698000001
 21
21108.594859000001
 31
0.0
  0
LINE
  5
4BA4
  8
0-6
  6
CONTINUOUS
 62
     6
 10
13359.612727
 20
20288.50010600001
 30
0.0
 11
13150.420172
 21
20650.831187
 31
0.0
  0
LINE
  5
4BA5
  8
0-6
  6
CONTINUOUS
 62
     6
 10
10810.845966999999
 20
17380.573453000012
 30
0.0
 11
10545.65679099999
 21
17749.53592200001
 31
0.0
  0
LINE
  5
4BA6
  8
0-6
  6
CONTINUOUS
 62
     6
 10
10299.420514999991
 20
17749.53592200001
 30
0.0
 11
10545.65679099999
 21
17749.53592200001
 31
0.0
  0
LINE
  5
4BA7
  8
0-6
  6
CONTINUOUS
 62
     6
 10
8384.2778580000067
 20
16263.06989000001
 30
0.0
 11
10603.468631000011
 21
16263.06989000001
 31
0.0
  0
LINE
  5
4BA8
  8
0-6
  6
CONTINUOUS
 62
     6
 10
8285.7176280000094
 20
16741.38690400001
 30
0.0
 11
8384.2778580000067
 21
16263.06989000001
 31
0.0
  0
LINE
  5
4BA9
  8
0-6
  6
CONTINUOUS
 62
     6
 10
8223.8324330000087
 20
15146.824311
 30
0.0
 11
8262.5285580000036
 21
15356.87993600001
 31
0.0
  0
LINE
  5
4BAA
  8
0-6
  6
CONTINUOUS
 62
     6
 10
8262.5285580000036
 20
15356.87993600001
 30
0.0
 11
9551.2154512454399
 21
15356.87993600001
 31
0.0
  0
LINE
  5
4BAB
  8
0-6
  6
CONTINUOUS
 62
     6
 10
8645.6010340000066
 20
14141.42286500001
 30
0.0
 11
10443.08618489469
 21
14141.42286500001
 31
0.0
  0
LINE
  5
4BAC
  8
0-6
  6
CONTINUOUS
 62
     6
 10
8645.6010340000066
 20
17394.922984000012
 30
0.0
 11
10376.52867979099
 21
17394.922984000012
 31
0.0
  0
LINE
  5
4BAD
  8
0-6
  6
CONTINUOUS
 62
     6
 10
8562.7136430000064
 20
17217.983714999998
 30
0.0
 11
8645.6010340000066
 21
17394.922984000012
 31
0.0
  0
LINE
  5
4BAE
  8
0-6
  6
CONTINUOUS
 62
     6
 10
8351.5366210000066
 20
20388.596441999998
 30
0.0
 11
8869.2252690000059
 21
20388.596441999998
 31
0.0
  0
LINE
  5
4BAF
  8
0-6
  6
CONTINUOUS
 62
     6
 10
9367.2721440000041
 20
13455.04756099999
 30
0.0
 11
9261.0016890000024
 21
13577.59460800001
 31
0.0
  0
LINE
  5
4BB0
  8
0-6
  6
CONTINUOUS
 62
     6
 10
9261.0016890000024
 20
13577.59460800001
 30
0.0
 11
9321.7818170000064
 21
13427.205633
 31
0.0
  0
LINE
  5
4BB1
  8
0-6
  6
CONTINUOUS
 62
     6
 10
9261.0016890000024
 20
13577.59460800001
 30
0.0
 11
9367.2721440000041
 21
13455.04756099999
 31
0.0
  0
LINE
  5
4BB2
  8
0-6
  6
CONTINUOUS
 62
     6
 10
9367.2721440000041
 20
13455.04756099999
 30
0.0
 11
9321.7818170000064
 21
13427.205633
 31
0.0
  0
LINE
  5
4BB3
  8
0-6
  6
CONTINUOUS
 62
     6
 10
9321.7818170000064
 20
13427.205633
 30
0.0
 11
9261.0016890000024
 21
13577.59460800001
 31
0.0
  0
LINE
  5
4BB4
  8
0-6
  6
CONTINUOUS
 62
     6
 10
9321.7818170000064
 20
13427.205633
 30
0.0
 11
9367.2721440000041
 21
13455.04756099999
 31
0.0
  0
LINE
  5
4BB5
  8
0-6
  6
CONTINUOUS
 62
     6
 10
7836.1348110000017
 20
14148.42739100001
 30
0.0
 11
7830.3476890000084
 21
14310.531157999991
 31
0.0
  0
LINE
  5
4BB6
  8
0-6
  6
CONTINUOUS
 62
     6
 10
7830.3476890000084
 20
14310.531157999991
 30
0.0
 11
7783.2470240000093
 21
14155.311166999991
 31
0.0
  0
LINE
  5
4BB7
  8
0-6
  6
CONTINUOUS
 62
     6
 10
7830.3476890000084
 20
14310.531157999991
 30
0.0
 11
7836.1348110000017
 21
14148.42739100001
 31
0.0
  0
LINE
  5
4BB8
  8
0-6
  6
CONTINUOUS
 62
     6
 10
7836.1348110000017
 20
14148.42739100001
 30
0.0
 11
7783.2470240000093
 21
14155.311166999991
 31
0.0
  0
LINE
  5
4BB9
  8
0-6
  6
CONTINUOUS
 62
     6
 10
7783.2470240000093
 20
14155.311166999991
 30
0.0
 11
7830.3476890000084
 21
14310.531157999991
 31
0.0
  0
LINE
  5
4BBA
  8
0-6
  6
CONTINUOUS
 62
     6
 10
7783.2470240000093
 20
14155.311166999991
 30
0.0
 11
7836.1348110000017
 21
14148.42739100001
 31
0.0
  0
LINE
  5
4BBB
  8
0-6
  6
CONTINUOUS
 62
     6
 10
8538.5664850000067
 20
13975.798525
 30
0.0
 11
8494.8399090000039
 21
13819.593724
 31
0.0
  0
LINE
  5
4BBC
  8
0-6
  6
CONTINUOUS
 62
     6
 10
8494.8399090000039
 20
13819.593724
 30
0.0
 11
8586.8627790000082
 21
13953.173616999989
 31
0.0
  0
LINE
  5
4BBD
  8
0-6
  6
CONTINUOUS
 62
     6
 10
8494.8399090000039
 20
13819.593724
 30
0.0
 11
8538.5664850000067
 21
13975.798525
 31
0.0
  0
LINE
  5
4BBE
  8
0-6
  6
CONTINUOUS
 62
     6
 10
8538.5664850000067
 20
13975.798525
 30
0.0
 11
8586.8627790000082
 21
13953.173616999989
 31
0.0
  0
LINE
  5
4BBF
  8
0-6
  6
CONTINUOUS
 62
     6
 10
8586.8627790000082
 20
13953.173616999989
 30
0.0
 11
8494.8399090000039
 21
13819.593724
 31
0.0
  0
LINE
  5
4BC0
  8
0-6
  6
CONTINUOUS
 62
     6
 10
8586.8627790000082
 20
13953.173616999989
 30
0.0
 11
8538.5664850000067
 21
13975.798525
 31
0.0
  0
LINE
  5
4BC1
  8
0-6
  6
CONTINUOUS
 62
     6
 10
8197.6082660000084
 20
15151.654337000011
 30
0.0
 11
8194.8453530000061
 21
14989.4704
 31
0.0
  0
LINE
  5
4BC2
  8
0-6
  6
CONTINUOUS
 62
     6
 10
8194.8453530000061
 20
14989.4704
 30
0.0
 11
8250.0590750000028
 21
15141.991316999991
 31
0.0
  0
LINE
  5
4BC3
  8
0-6
  6
CONTINUOUS
 62
     6
 10
8194.8453530000061
 20
14989.4704
 30
0.0
 11
8197.6082660000084
 21
15151.654337000011
 31
0.0
  0
LINE
  5
4BC4
  8
0-6
  6
CONTINUOUS
 62
     6
 10
8197.6082660000084
 20
15151.654337000011
 30
0.0
 11
8250.0590750000028
 21
15141.991316999991
 31
0.0
  0
LINE
  5
4BC5
  8
0-6
  6
CONTINUOUS
 62
     6
 10
8250.0590750000028
 20
15141.991316999991
 30
0.0
 11
8194.8453530000061
 21
14989.4704
 31
0.0
  0
LINE
  5
4BC6
  8
0-6
  6
CONTINUOUS
 62
     6
 10
8250.0590750000028
 20
15141.991316999991
 30
0.0
 11
8197.6082660000084
 21
15151.654337000011
 31
0.0
  0
LINE
  5
4BC7
  8
0-6
  6
CONTINUOUS
 62
     6
 10
9875.5402630000062
 20
15099.934465
 30
0.0
 11
9778.3409520000077
 21
14970.07408700001
 31
0.0
  0
LINE
  5
4BC8
  8
0-6
  6
CONTINUOUS
 62
     6
 10
9778.3409520000077
 20
14970.07408700001
 30
0.0
 11
9912.4028580000031
 21
15061.392247999989
 31
0.0
  0
LINE
  5
4BC9
  8
0-6
  6
CONTINUOUS
 62
     6
 10
9778.3409520000077
 20
14970.07408700001
 30
0.0
 11
9875.5402630000062
 21
15099.934465
 31
0.0
  0
LINE
  5
4BCA
  8
0-6
  6
CONTINUOUS
 62
     6
 10
9875.5402630000062
 20
15099.934465
 30
0.0
 11
9912.4028580000031
 21
15061.392247999989
 31
0.0
  0
LINE
  5
4BCB
  8
0-6
  6
CONTINUOUS
 62
     6
 10
9912.4028580000031
 20
15061.392247999989
 30
0.0
 11
9778.3409520000077
 21
14970.07408700001
 31
0.0
  0
LINE
  5
4BCC
  8
0-6
  6
CONTINUOUS
 62
     6
 10
9912.4028580000031
 20
15061.392247999989
 30
0.0
 11
9875.5402630000062
 21
15099.934465
 31
0.0
  0
LINE
  5
4BCD
  8
0-6
  6
CONTINUOUS
 62
     6
 10
8311.834901000002
 20
16746.769215000011
 30
0.0
 11
8253.4297000000061
 21
16898.093513
 31
0.0
  0
LINE
  5
4BCE
  8
0-6
  6
CONTINUOUS
 62
     6
 10
8253.4297000000061
 20
16898.093513
 30
0.0
 11
8259.5998600000094
 21
16736.006571999991
 31
0.0
  0
LINE
  5
4BCF
  8
0-6
  6
CONTINUOUS
 62
     6
 10
8253.4297000000061
 20
16898.093513
 30
0.0
 11
8311.834901000002
 21
16746.769215000011
 31
0.0
  0
LINE
  5
4BD0
  8
0-6
  6
CONTINUOUS
 62
     6
 10
8311.834901000002
 20
16746.769215000011
 30
0.0
 11
8259.5998600000094
 21
16736.006571999991
 31
0.0
  0
LINE
  5
4BD1
  8
0-6
  6
CONTINUOUS
 62
     6
 10
8259.5998600000094
 20
16736.006571999991
 30
0.0
 11
8253.4297000000061
 21
16898.093513
 31
0.0
  0
LINE
  5
4BD2
  8
0-6
  6
CONTINUOUS
 62
     6
 10
8259.5998600000094
 20
16736.006571999991
 30
0.0
 11
8311.834901000002
 21
16746.769215000011
 31
0.0
  0
LINE
  5
4BD3
  8
0-6
  6
CONTINUOUS
 62
     6
 10
8538.5664850000067
 20
17229.29666399999
 30
0.0
 11
8494.8399090000039
 21
17073.092852999991
 31
0.0
  0
LINE
  5
4BD4
  8
0-6
  6
CONTINUOUS
 62
     6
 10
8494.8399090000039
 20
17073.092852999991
 30
0.0
 11
8586.8627790000082
 21
17206.67472599999
 31
0.0
  0
LINE
  5
4BD5
  8
0-6
  6
CONTINUOUS
 62
     6
 10
8494.8399090000039
 20
17073.092852999991
 30
0.0
 11
8538.5664850000067
 21
17229.29666399999
 31
0.0
  0
LINE
  5
4BD6
  8
0-6
  6
CONTINUOUS
 62
     6
 10
8538.5664850000067
 20
17229.29666399999
 30
0.0
 11
8586.8627790000082
 21
17206.67472599999
 31
0.0
  0
LINE
  5
4BD7
  8
0-6
  6
CONTINUOUS
 62
     6
 10
8586.8627790000082
 20
17206.67472599999
 30
0.0
 11
8494.8399090000039
 21
17073.092852999991
 31
0.0
  0
LINE
  5
4BD8
  8
0-6
  6
CONTINUOUS
 62
     6
 10
8586.8627790000082
 20
17206.67472599999
 30
0.0
 11
8538.5664850000067
 21
17229.29666399999
 31
0.0
  0
LINE
  5
4BD9
  8
0-6
  6
CONTINUOUS
 62
     6
 10
8049.6635010000064
 20
18621.406963000001
 30
0.0
 11
7959.846310000009
 21
18756.47545400001
 31
0.0
  0
LINE
  5
4BDA
  8
0-6
  6
CONTINUOUS
 62
     6
 10
7959.846310000009
 20
18756.47545400001
 30
0.0
 11
8001.000501000005
 21
18599.574852000002
 31
0.0
  0
LINE
  5
4BDB
  8
0-6
  6
CONTINUOUS
 62
     6
 10
7959.846310000009
 20
18756.47545400001
 30
0.0
 11
8049.6635010000064
 21
18621.406963000001
 31
0.0
  0
LINE
  5
4BDC
  8
0-6
  6
CONTINUOUS
 62
     6
 10
8049.6635010000064
 20
18621.406963000001
 30
0.0
 11
8001.000501000005
 21
18599.574852000002
 31
0.0
  0
LINE
  5
4BDD
  8
0-6
  6
CONTINUOUS
 62
     6
 10
8001.000501000005
 20
18599.574852000002
 30
0.0
 11
7959.846310000009
 21
18756.47545400001
 31
0.0
  0
LINE
  5
4BDE
  8
0-6
  6
CONTINUOUS
 62
     6
 10
8001.000501000005
 20
18599.574852000002
 30
0.0
 11
8049.6635010000064
 21
18621.406963000001
 31
0.0
  0
LINE
  5
4BDF
  8
0-6
  6
CONTINUOUS
 62
     6
 10
10738.467839000001
 20
17525.739469
 30
0.0
 11
10810.845966999999
 21
17380.573453000012
 31
0.0
  0
LINE
  5
4BE0
  8
0-6
  6
CONTINUOUS
 62
     6
 10
10810.845966999999
 20
17380.573453000012
 30
0.0
 11
10695.301466999999
 21
17494.419525999991
 31
0.0
  0
LINE
  5
4BE1
  8
0-6
  6
CONTINUOUS
 62
     6
 10
10810.845966999999
 20
17380.573453000012
 30
0.0
 11
10738.467839000001
 21
17525.739469
 31
0.0
  0
LINE
  5
4BE2
  8
0-6
  6
CONTINUOUS
 62
     6
 10
10738.467839000001
 20
17525.739469
 30
0.0
 11
10695.301466999999
 21
17494.419525999991
 31
0.0
  0
LINE
  5
4BE3
  8
0-6
  6
CONTINUOUS
 62
     6
 10
10695.301466999999
 20
17494.419525999991
 30
0.0
 11
10810.845966999999
 21
17380.573453000012
 31
0.0
  0
LINE
  5
4BE4
  8
0-6
  6
CONTINUOUS
 62
     6
 10
10695.301466999999
 20
17494.419525999991
 30
0.0
 11
10738.467839000001
 21
17525.739469
 31
0.0
  0
LINE
  5
4BE5
  8
0-6
  6
CONTINUOUS
 62
     6
 10
9056.4600130000035
 20
20104.272250000002
 30
0.0
 11
9163.1560650000065
 21
19982.096363000001
 31
0.0
  0
LINE
  5
4BE6
  8
0-6
  6
CONTINUOUS
 62
     6
 10
9163.1560650000065
 20
19982.096363000001
 30
0.0
 11
9101.8523540000078
 21
20132.272540000009
 31
0.0
  0
LINE
  5
4BE7
  8
0-6
  6
CONTINUOUS
 62
     6
 10
9163.1560650000065
 20
19982.096363000001
 30
0.0
 11
9056.4600130000035
 21
20104.272250000002
 31
0.0
  0
LINE
  5
4BE8
  8
0-6
  6
CONTINUOUS
 62
     6
 10
9056.4600130000035
 20
20104.272250000002
 30
0.0
 11
9101.8523540000078
 21
20132.272540000009
 31
0.0
  0
LINE
  5
4BE9
  8
0-6
  6
CONTINUOUS
 62
     6
 10
9101.8523540000078
 20
20132.272540000009
 30
0.0
 11
9163.1560650000065
 21
19982.096363000001
 31
0.0
  0
LINE
  5
4BEA
  8
0-6
  6
CONTINUOUS
 62
     6
 10
9101.8523540000078
 20
20132.272540000009
 30
0.0
 11
9056.4600130000035
 21
20104.272250000002
 31
0.0
  0
LINE
  5
4BEB
  8
0-6
  6
CONTINUOUS
 62
     6
 10
9604.7797320000045
 20
19882.718592000001
 30
0.0
 11
9592.2790720000085
 21
19720.99390300001
 31
0.0
  0
LINE
  5
4BEC
  8
0-6
  6
CONTINUOUS
 62
     6
 10
9592.2790720000085
 20
19720.99390300001
 30
0.0
 11
9656.5550300000086
 21
19869.922984000001
 31
0.0
  0
LINE
  5
4BED
  8
0-6
  6
CONTINUOUS
 62
     6
 10
9592.2790720000085
 20
19720.99390300001
 30
0.0
 11
9604.7797320000045
 21
19882.718592000001
 31
0.0
  0
LINE
  5
4BEE
  8
0-6
  6
CONTINUOUS
 62
     6
 10
9604.7797320000045
 20
19882.718592000001
 30
0.0
 11
9656.5550300000086
 21
19869.922984000001
 31
0.0
  0
LINE
  5
4BEF
  8
0-6
  6
CONTINUOUS
 62
     6
 10
9656.5550300000086
 20
19869.922984000001
 30
0.0
 11
9592.2790720000085
 21
19720.99390300001
 31
0.0
  0
LINE
  5
4BF0
  8
0-6
  6
CONTINUOUS
 62
     6
 10
9656.5550300000086
 20
19869.922984000001
 30
0.0
 11
9604.7797320000045
 21
19882.718592000001
 31
0.0
  0
LINE
  5
4BF1
  8
0-6
  6
CONTINUOUS
 62
     6
 10
9142.6066830000036
 20
20265.998918000001
 30
0.0
 11
9239.2546980000061
 21
20148.595649999999
 31
0.0
  0
LINE
  5
4BF2
  8
0-6
  6
CONTINUOUS
 62
     6
 10
9239.2546980000061
 20
20148.595649999999
 30
0.0
 11
9185.905682000006
 21
20291.000238000001
 31
0.0
  0
LINE
  5
4BF3
  8
0-6
  6
CONTINUOUS
 62
     6
 10
9239.2546980000061
 20
20148.595649999999
 30
0.0
 11
9142.6066830000036
 21
20265.998918000001
 31
0.0
  0
LINE
  5
4BF4
  8
0-6
  6
CONTINUOUS
 62
     6
 10
9142.6066830000036
 20
20265.998918000001
 30
0.0
 11
9185.905682000006
 21
20291.000238000001
 31
0.0
  0
LINE
  5
4BF5
  8
0-6
  6
CONTINUOUS
 62
     6
 10
9185.905682000006
 20
20291.000238000001
 30
0.0
 11
9239.2546980000061
 21
20148.595649999999
 31
0.0
  0
LINE
  5
4BF6
  8
0-6
  6
CONTINUOUS
 62
     6
 10
9185.905682000006
 20
20291.000238000001
 30
0.0
 11
9142.6066830000036
 21
20265.998918000001
 31
0.0
  0
LINE
  5
4BF7
  8
0-6
  6
CONTINUOUS
 62
     6
 10
13337.962732
 20
20275.997466000001
 30
0.0
 11
13434.612726999991
 21
20158.596178
 31
0.0
  0
LINE
  5
4BF8
  8
0-6
  6
CONTINUOUS
 62
     6
 10
13434.612726999991
 20
20158.596178
 30
0.0
 11
13381.262720999999
 21
20300.99680700001
 31
0.0
  0
LINE
  5
4BF9
  8
0-6
  6
CONTINUOUS
 62
     6
 10
13434.612726999991
 20
20158.596178
 30
0.0
 11
13337.962732
 21
20275.997466000001
 31
0.0
  0
LINE
  5
4BFA
  8
0-6
  6
CONTINUOUS
 62
     6
 10
13337.962732
 20
20275.997466000001
 30
0.0
 11
13381.262720999999
 21
20300.99680700001
 31
0.0
  0
LINE
  5
4BFB
  8
0-6
  6
CONTINUOUS
 62
     6
 10
13381.262720999999
 20
20300.99680700001
 30
0.0
 11
13434.612726999991
 21
20158.596178
 31
0.0
  0
LINE
  5
4BFC
  8
0-6
  6
CONTINUOUS
 62
     6
 10
13381.262720999999
 20
20300.99680700001
 30
0.0
 11
13337.962732
 21
20275.997466000001
 31
0.0
  0
LINE
  5
4BFD
  8
3-0
  6
DASHED3
 62
     6
 10
7959.846310000009
 20
19897.095835
 30
0.0
 11
13445.346310000001
 21
19897.095835
 31
0.0
  0
LINE
  5
4BFE
  8
3-0
  6
DASHED3
 62
     6
 10
7917.3485200000059
 20
19724.410552000001
 30
0.0
 11
7917.3485200000059
 21
19982.096363000001
 31
0.0
  0
LINE
  5
4BFF
  8
3-0
  6
DASHED3
 62
     6
 10
7959.846310000009
 20
19700.135716000001
 30
0.0
 11
7959.846310000009
 21
19982.096363000001
 31
0.0
  0
LINE
  5
4C00
  8
3-0
  6
DASHED3
 62
     6
 10
7917.3485200000059
 20
19982.096363000001
 30
0.0
 11
13487.84756299999
 21
19982.096363000001
 31
0.0
  0
LINE
  5
4C01
  8
3-0
  6
DASHED3
 62
     6
 10
13445.346310000001
 20
16139.096033000011
 30
0.0
 11
13445.346310000001
 21
19982.096363000001
 31
0.0
  0
LINE
  5
4C02
  8
3-0
  6
DASHED3
 62
     6
 10
13487.84756299999
 20
16117.555901000011
 30
0.0
 11
13487.84756299999
 21
19982.096363000001
 31
0.0
  0
LINE
  5
4C03
  8
3-0
  6
DASHED3
 62
     6
 10
10807.84657399999
 20
19936.096310000001
 30
0.0
 11
9662.8376000000062
 21
18733.174541
 31
0.0
  0
LINE
  5
4C04
  8
3-0
  6
DASHED3
 62
     6
 10
8029.8475310000058
 20
19936.096310000001
 30
0.0
 11
8605.4158170000064
 21
19331.41474900001
 31
0.0
  0
LINE
  5
4C05
  8
3-0
  6
DASHED3
 62
     6
 10
12975.988597
 20
16480.001794000011
 30
0.0
 11
13375.34657399999
 21
17018.096310000012
 31
0.0
  0
LINE
  5
4C06
  8
0-7
  6
DASHED3
 62
     6
 10
13270.34598
 20
16729.613149000001
 30
0.0
 11
13210.34677199999
 21
16729.613149000001
 31
0.0
  0
LINE
  5
4C07
  8
0-7
  6
DASHED3
 62
     6
 10
13320.345649999999
 20
16950.59472600001
 30
0.0
 11
13320.345649999999
 21
16825.594066000001
 31
0.0
  0
LINE
  5
4C08
  8
0-7
  6
DASHED3
 62
     6
 10
13260.347431
 20
16963.093407000011
 30
0.0
 11
13260.347431
 21
16813.093407000011
 31
0.0
  0
LINE
  5
4C09
  8
0-7
  6
DASHED3
 62
     6
 10
13235.345122000001
 20
16963.093407000011
 30
0.0
 11
13235.345122000001
 21
16813.093407000011
 31
0.0
  0
LINE
  5
4C0A
  8
0-7
  6
DASHED3
 62
     6
 10
13230.345848000001
 20
16968.09367100001
 30
0.0
 11
13230.345848000001
 21
16768.094990000001
 31
0.0
  0
LINE
  5
4C0B
  8
0-7
  6
DASHED3
 62
     6
 10
13320.345649999999
 20
16825.594066000001
 30
0.0
 11
13260.347431
 21
16825.594066000001
 31
0.0
  0
LINE
  5
4C0C
  8
0-7
  6
DASHED3
 62
     6
 10
13235.345122000001
 20
16813.093407000011
 30
0.0
 11
13260.347431
 21
16813.093407000011
 31
0.0
  0
LINE
  5
4C0D
  8
0-7
  6
DASHED3
 62
     6
 10
13355.346508000001
 20
16868.094330000011
 30
0.0
 11
13320.345649999999
 21
16868.094330000011
 31
0.0
  0
LINE
  5
4C0E
  8
0-7
  6
DASHED3
 62
     6
 10
13355.346508000001
 20
16908.096441999991
 30
0.0
 11
13320.345649999999
 21
16908.096441999991
 31
0.0
  0
LINE
  5
4C0F
  8
0-7
  6
DASHED3
 62
     6
 10
13320.345649999999
 20
16950.59472600001
 30
0.0
 11
13260.347431
 21
16950.59472600001
 31
0.0
  0
LINE
  5
4C10
  8
0-7
  6
DASHED3
 62
     6
 10
13260.347431
 20
16963.093407000011
 30
0.0
 11
13235.345122000001
 21
16963.093407000011
 31
0.0
  0
LINE
  5
4C11
  8
0-7
  6
DASHED3
 62
     6
 10
13355.346508000001
 20
16868.094330000011
 30
0.0
 11
13355.346508000001
 21
16908.096441999991
 31
0.0
  0
LINE
  5
4C12
  8
0-7
  6
DASHED3
 62
     6
 10
13270.34598
 20
16968.09367100001
 30
0.0
 11
13230.345848000001
 21
16968.09367100001
 31
0.0
  0
LINE
  5
4C13
  8
0-7
  6
DASHED3
 62
     6
 10
13270.34598
 20
16288.437843
 30
0.0
 11
13270.34598
 21
16729.613149000001
 31
0.0
  0
LINE
  5
4C14
  8
0-7
  6
DASHED3
 62
     6
 10
13210.34677199999
 20
16326.70391700001
 30
0.0
 11
13210.34677199999
 21
16729.613149000001
 31
0.0
  0
LINE
  5
4C15
  8
3-0
  6
DASHED3
 62
     6
 10
10947.84505699999
 20
19936.096310000001
 30
0.0
 11
13375.34657399999
 21
17018.096310000012
 31
0.0
  0
LINE
  5
4C16
  8
3-0
  6
DASHED3
 62
     6
 10
13375.34657399999
 20
19936.096310000001
 30
0.0
 11
11369.19350499999
 21
17524.827333000001
 31
0.0
  0
LINE
  5
4C17
  8
3-0
  6
CENTER2
 62
     6
 10
13445.346310000001
 20
21178.594594999999
 30
0.0
 11
13445.346310000001
 21
20228.595914000001
 31
0.0
  0
LINE
  5
4C18
  8
3-0
  6
CENTER2
 62
     6
 10
7056.2906000000048
 20
19936.096310000001
 30
0.0
 11
8276.8454260000053
 21
19936.096310000001
 31
0.0
  0
LINE
  5
4C19
  8
3-0
  6
CENTER2
 62
     6
 10
7959.846310000009
 20
21108.594859000001
 30
0.0
 11
7959.846310000009
 21
20228.595914000001
 31
0.0
  0
LINE
  5
4C1A
  8
3-0
  6
CENTER2
 62
     6
 10
7056.2906000000048
 20
17018.096310000012
 30
0.0
 11
8276.8454260000053
 21
17018.096310000012
 31
0.0
  0
LINE
  5
4C1B
  8
3-0
  6
CENTER2
 62
     6
 10
7056.2906000000048
 20
13749.596310000001
 30
0.0
 11
8276.8454260000053
 21
13749.596310000001
 31
0.0
  0
LINE
  5
4C1C
  8
3-0
  6
CENTER2
 62
     6
 10
13128.347194
 20
17018.096310000012
 30
0.0
 11
13744.112080000001
 21
17018.096310000012
 31
0.0
  0
LINE
  5
4C1D
  8
3-0
  6
CENTER2
 62
     6
 10
13128.347194
 20
13749.596310000001
 30
0.0
 11
13744.112080000001
 21
13749.596310000001
 31
0.0
  0
LINE
  5
4C1E
  8
3-0
  6
CENTER2
 62
     6
 10
8090.5712430000058
 20
14144.597366
 30
0.0
 11
8260.2857630000017
 21
14144.597366
 31
0.0
  0
LINE
  5
4C1F
  8
3-0
  6
CENTER2
 62
     6
 10
13314.618903000001
 20
14144.597366
 30
0.0
 11
13144.906855999991
 21
14144.597366
 31
0.0
  0
LINE
  5
4C20
  8
3-0
  6
CENTER2
 62
     6
 10
7849.8444620000073
 20
16888.093407000011
 30
0.0
 11
13555.347166999991
 21
16888.093407000011
 31
0.0
  0
LINE
  5
4C21
  8
1-4
  6
CONTINUOUS
 62
     3
 10
7959.846310000009
 20
16973.093934000011
 30
0.0
 11
12222.164167999999
 21
16973.093934000011
 31
0.0
  0
LINE
  5
4C22
  8
3-0
  6
DASHED3
 62
     6
 10
12222.164167999999
 20
16973.093934000011
 30
0.0
 11
13445.346310000001
 21
16973.093934000011
 31
0.0
  0
LINE
  5
4C23
  8
3-0
  6
DASHED3
 62
     6
 10
12084.576739
 20
17063.09274700001
 30
0.0
 11
13445.346310000001
 21
17063.09274700001
 31
0.0
  0
LINE
  5
4C24
  8
1-4
  6
CONTINUOUS
 62
     3
 10
7959.846310000009
 20
17063.09274700001
 30
0.0
 11
12084.576739
 21
17063.09274700001
 31
0.0
  0
LINE
  5
4C25
  8
1-4
  6
CONTINUOUS
 62
     3
 10
7959.846310000009
 20
17033.09512200001
 30
0.0
 11
12130.44119499999
 21
17033.09512200001
 31
0.0
  0
LINE
  5
4C26
  8
3-0
  6
DASHED3
 62
     6
 10
12130.44119499999
 20
17033.09512200001
 30
0.0
 11
13445.346310000001
 21
17033.09512200001
 31
0.0
  0
LINE
  5
4C27
  8
3-0
  6
DASHED3
 62
     6
 10
10820.846073000001
 20
18053.283572
 30
0.0
 11
10820.846073000001
 21
19897.095835
 31
0.0
  0
LINE
  5
4C28
  8
3-0
  6
DASHED3
 62
     6
 10
10877.846310000001
 20
17918.818834000002
 30
0.0
 11
10877.846310000001
 21
19897.095835
 31
0.0
  0
LINE
  5
4C29
  8
3-0
  6
DASHED3
 62
     6
 10
10934.84654799999
 20
17784.356076000011
 30
0.0
 11
10934.84654799999
 21
19897.095835
 31
0.0
  0
ARC
  5
4C2A
  8
0-1
  6
CONTINUOUS
 62
     3
 10
7879.3472248210246
 20
20153.59565921485
 30
0.0
 40
5.0006508275089194
 50
90.007456888954536
 51
179.99708075725931
  0
ARC
  5
4C2B
  8
0-1
  6
CONTINUOUS
 62
     3
 10
7942.8470550000011
 20
20153.595914000001
 30
0.0
 40
5.0
 50
0.0
 51
90.0
  0
ARC
  5
4C2C
  8
0-1
  6
CONTINUOUS
 62
     3
 10
7942.8470550000011
 20
20123.594331
 30
0.0
 40
5.0
 50
269.9999849999997
 51
0.0
  0
ARC
  5
4C2D
  8
0-1
  6
CONTINUOUS
 62
     3
 10
13462.34605900001
 20
20123.594331
 30
0.0
 40
5.0
 50
180.0
 51
269.9999849999997
  0
ARC
  5
4C2E
  8
0-1
  6
CONTINUOUS
 62
     3
 10
13462.34605900001
 20
20153.595914000001
 30
0.0
 40
5.0
 50
90.0
 51
180.0
  0
ARC
  5
4C2F
  8
0-1
  6
CONTINUOUS
 62
     3
 10
13525.846046000001
 20
20153.595914000001
 30
0.0
 40
5.0
 50
0.0
 51
90.0
  0
CIRCLE
  5
4C30
  8
0-5
  6
CONTINUOUS
 62
     4
 10
7959.846310000009
 20
21308.595518999999
 30
0.0
 40
199.9999949999999
  0
CIRCLE
  5
4C31
  8
0-5
  6
CONTINUOUS
 62
     4
 10
6856.2894450000058
 20
19936.096310000001
 30
0.0
 40
199.9999949999999
  0
CIRCLE
  5
4C32
  8
0-5
  6
CONTINUOUS
 62
     4
 10
6856.2894450000058
 20
17018.096310000012
 30
0.0
 40
199.9999949999999
  0
CIRCLE
  5
4C33
  8
0-5
  6
CONTINUOUS
 62
     4
 10
6856.2894450000058
 20
13749.596310000001
 30
0.0
 40
199.9999949999999
  0
CIRCLE
  5
4C34
  8
0-5
  6
CONTINUOUS
 62
     4
 10
13445.346310000001
 20
21378.595255
 30
0.0
 40
199.9999949999999
  0
TEXT
  5
4C35
  8
0-5
  6
CONTINUOUS
 62
     7
 10
13395.26844899999
 20
21297.993216999999
 30
0.0
 40
160.0
  1
2
  0
TEXT
  5
4C36
  8
0-5
  6
CONTINUOUS
 62
     7
 10
7912.5412590000051
 20
21227.486723999991
 30
0.0
 40
160.0
  1
1
  0
TEXT
  5
4C37
  8
0-5
  6
CONTINUOUS
 62
     7
 10
6804.5275080000083
 20
19850.264384999999
 30
0.0
 40
160.0
  1
C
  0
TEXT
  5
4C38
  8
0-5
  6
CONTINUOUS
 62
     7
 10
6807.5091580000053
 20
16931.957558999991
 30
0.0
 40
160.0
  1
B
  0
TEXT
  5
4C39
  8
0-5
  6
CONTINUOUS
 62
     7
 10
6814.7433090000086
 20
13669.86130199999
 30
0.0
 40
160.0
  1
A
  0
TEXT
  5
4C3A
  8
0-5
  6
CONTINUOUS
 62
     7
 10
15549.554133
 20
6464.70579800001
 30
0.0
 40
160.0
  1
布基礎天端
  0
TEXT
  5
4C3B
  8
0-5
  6
CONTINUOUS
 62
     7
 10
16838.931376
 20
6364.7059620000091
 30
0.0
 40
160.0
  1
G.L
  0
TEXT
  5
4C3C
  8
0-6
  6
CONTINUOUS
 62
     7
 10
9854.5682530000104
 20
20468.596706
 30
0.0
 40
160.0
  1
屋根
  0
TEXT
  5
4C3D
  8
0-6
  6
CONTINUOUS
 62
     7
 10
8765.0016360000136
 20
21188.593142999998
 30
0.0
 40
160.0
  1
鼻隠し後
  0
TEXT
  5
4C3E
  8
0-6
  6
CONTINUOUS
 62
     7
 10
9830.6408230000106
 20
12857.595202
 30
0.0
 40
160.0
  1
鼻隠し前
  0
TEXT
  5
4C3F
  8
0-6
  6
CONTINUOUS
 62
     7
 10
6496.4986498830849
 20
12598.81604218656
 30
0.0
 40
160.0
  1
ケラバ 左
  0
TEXT
  5
4C40
  8
0-6
  6
CONTINUOUS
 62
     7
 10
8204.3752500000064
 20
18469.70061800001
 30
0.0
 40
160.0
  1
上枠
  0
TEXT
  5
4C41
  8
0-6
  6
CONTINUOUS
 62
     7
 10
10185.23792500001
 20
15362.72347500001
 30
0.0
 40
160.0
  1
ブレース
  0
TEXT
  5
4C42
  8
0-6
  6
CONTINUOUS
 62
     7
 10
11312.734098000001
 20
21188.593142999998
 30
0.0
 40
160.0
  1
鼻隠しコーナー後
  0
TEXT
  5
4C43
  8
0-6
  6
CONTINUOUS
 62
     7
 10
10315.66048599999
 20
17829.536186000008
 30
0.0
 40
160.0
  1
梁
  0
TEXT
  5
4C44
  8
0-6
  6
CONTINUOUS
 62
     7
 10
8464.2761430000064
 20
16343.07015400001
 30
0.0
 40
160.0
  1
シャッター巻取シャフト
  0
TEXT
  5
4C45
  8
0-6
  6
CONTINUOUS
 62
     7
 10
8342.5298110000022
 20
15436.880200000011
 30
0.0
 40
160.0
  1
水平上レール
  0
TEXT
  5
4C46
  8
0-6
  6
CONTINUOUS
 62
     7
 10
8431.5378740000087
 20
20468.596706
 30
0.0
 40
160.0
  1
桁後
  0
TEXT
  5
4C47
  8
3-0
  6
CONTINUOUS
 62
     7
 10
11309.98256699999
 20
11710.785856
 30
0.0
 40
160.0
  1
1
  0
TEXT
  5
4C48
  8
3-0
  6
CONTINUOUS
 62
     7
 10
11509.272579
 20
11630.784602000011
 30
0.0
 40
160.0
  1
80
  0
TEXT
  5
4C49
  8
3-0
  6
CONTINUOUS
 62
     7
 10
10762.56229202229
 20
11686.21706099999
 30
0.0
 40
160.0
  1
(S=  /   )
  0
TEXT
  5
4C4A
  8
3-0
  6
CONTINUOUS
 62
     7
 10
9252.4798610000016
 20
11664.788772000011
 30
0.0
 40
160.0
  1
小 屋 伏 図
  0
TEXT
  5
4C4B
  8
3-0
  6
CONTINUOUS
 62
     7
 10
21830.29957925505
 20
11648.847709000011
 30
0.0
 40
160.0
  1
(S=  /   )
  0
TEXT
  5
4C4C
  8
3-0
  6
CONTINUOUS
 62
     7
 10
20260.145217000001
 20
11621.753049000001
 30
0.0
 40
160.0
  1
平　面　図
  0
TEXT
  5
4C4D
  8
3-0
  6
CONTINUOUS
 62
     7
 10
22353.557379000002
 20
11686.87723
 30
0.0
 40
160.0
  1
1
  0
TEXT
  5
4C4E
  8
3-0
  6
CONTINUOUS
 62
     7
 10
22552.845411999991
 20
11606.875976999991
 30
0.0
 40
160.0
  1
80
  0
TEXT
  5
4C4F
  8
3-0
  6
CONTINUOUS
 62
     7
 10
20044.072845999999
 20
3339.6088840000111
 30
0.0
 40
160.0
  1
正 面 立 面 図
  0
TEXT
  5
4C50
  8
3-0
  6
CONTINUOUS
 62
     7
 10
9572.9480830000084
 20
3106.84892300001
 30
0.0
 40
160.0
  1
側 面 立 面 図
  0
TEXT
  5
4C51
  8
3-0
  6
CONTINUOUS
 62
     7
 10
22753.924910000002
 20
3319.1913870000089
 30
0.0
 40
160.0
  1
80
  0
TEXT
  5
4C52
  8
3-0
  6
CONTINUOUS
 62
     7
 10
22554.636877000001
 20
3399.190166000009
 30
0.0
 40
160.0
  1
1
  0
TEXT
  5
4C53
  8
3-0
  6
CONTINUOUS
 62
     7
 10
22020.142118977201
 20
3373.081058000007
 30
0.0
 40
160.0
  1
(S=  /   )
  0
TEXT
  5
4C54
  8
3-0
  6
CONTINUOUS
 62
     7
 10
11555.598076346139
 20
3114.5843870000099
 30
0.0
 40
160.0
  1
(S=  /   )
  0
TEXT
  5
4C55
  8
3-0
  6
CONTINUOUS
 62
     7
 10
12268.253655
 20
3057.2595080000092
 30
0.0
 40
160.0
  1
80
  0
TEXT
  5
4C56
  8
3-0
  6
CONTINUOUS
 62
     7
 10
12068.96364300001
 20
3137.2612570000092
 30
0.0
 40
160.0
  1
1
  0
TEXT
  5
4C57
  8
0-6
  6
CONTINUOUS
 62
     7
 10
8762.1768630000079
 20
14388.84388200001
 30
0.0
 40
160.0
  1
桁前（OSD）
 50
0.000193
  0
TEXT
  5
4C58
  8
0-6
  6
CONTINUOUS
 62
     7
 10
8762.1768630000079
 20
14168.842167000001
 30
0.0
 40
160.0
  1
+桁前補強（OSD）
  0
TEXT
  5
4C59
  8
0-6
  6
CONTINUOUS
 62
     7
 10
8737.4111060000087
 20
17644.599662000011
 30
0.0
 40
160.0
  1
桁中（OSD）
  0
TEXT
  5
4C5A
  8
0-6
  6
CONTINUOUS
 62
     7
 10
8737.4111060000087
 20
17424.59992600001
 30
0.0
 40
160.0
  1
+桁中補強（OSD）
  0
LINE
  5
4C60
  8
0-3
  6
CONTINUOUS
 62
     6
 10
20316.153452667029
 20
19207.767286497059
 30
0.0
 11
21276.09921366701
 21
19207.767286497059
 31
0.0
  0
LINE
  5
4C61
  8
0-3
  6
CONTINUOUS
 62
     6
 10
21686.582084667021
 20
19883.531380497068
 30
0.0
 11
21276.09921366701
 21
19207.767286497059
 31
0.0
  0
LINE
  5
4C62
  8
0-3
  6
CONTINUOUS
 62
     6
 10
21626.305743666999
 20
19732.939504497081
 30
0.0
 11
21686.582084667021
 21
19883.531380497068
 31
0.0
  0
LINE
  5
4C63
  8
0-3
  6
CONTINUOUS
 62
     6
 10
21686.582084667021
 20
19883.531380497068
 30
0.0
 11
21580.723369667008
 21
19760.627030497071
 31
0.0
  0
LINE
  5
4C64
  8
0-3
  6
CONTINUOUS
 62
     6
 10
21686.582084667021
 20
19883.531380497068
 30
0.0
 11
21626.305743666999
 21
19732.939504497081
 31
0.0
  0
LINE
  5
4C65
  8
0-3
  6
CONTINUOUS
 62
     6
 10
21626.305743666999
 20
19732.939504497081
 30
0.0
 11
21580.723369667008
 21
19760.627030497071
 31
0.0
  0
LINE
  5
4C66
  8
0-3
  6
CONTINUOUS
 62
     6
 10
21580.723369667008
 20
19760.627030497071
 30
0.0
 11
21686.582084667021
 21
19883.531380497068
 31
0.0
  0
LINE
  5
4C67
  8
0-3
  6
CONTINUOUS
 62
     6
 10
21580.723369667008
 20
19760.627030497071
 30
0.0
 11
21626.305743666999
 21
19732.939504497081
 31
0.0
  0
TEXT
  5
4C68
  8
0-3
  6
CONTINUOUS
 62
     7
 10
20397.44487300035
 20
19287.76755049709
 30
0.0
 40
160.0
  1
後柱（中）
 72
     4
 11
20813.44487300035
 21
19367.76755049709
 31
0.0
  0
LINE
  5
4C69
  8
2-0
  6
CONTINUOUS
 62
     3
 10
24243.85177300002
 20
19893.600004999989
 30
0.0
 11
24247.850401
 21
19893.600004999989
 31
0.0
  0
LINE
  5
4C6A
  8
2-0
  6
CONTINUOUS
 62
     3
 10
24203.552733999979
 20
19978.59657400001
 30
0.0
 11
23557.054067250021
 21
19978.596574000021
 31
0.0
  0
TEXT
  5
4C6B
  8
0-3
  6
CONTINUOUS
 62
     7
 10
22359.405075511739
 20
19386.868981
 30
0.0
 40
160.0
  1
間柱（後）
 72
     4
 11
22780.738408845071
 21
19466.868981
 31
0.0
  0
LINE
  5
4C6C
  8
0-3
  6
CONTINUOUS
 62
     6
 10
22121.799501511741
 20
19768.997227
 30
0.0
 11
22173.14425451175
 21
19783.435836000001
 31
0.0
  0
LINE
  5
4C6D
  8
0-3
  6
CONTINUOUS
 62
     6
 10
22121.799501511741
 20
19768.997227
 30
0.0
 11
22104.177827511739
 21
19930.242871999992
 31
0.0
  0
LINE
  5
4C6E
  8
0-3
  6
CONTINUOUS
 62
     6
 10
22173.14425451175
 20
19783.435836000001
 30
0.0
 11
22104.177827511739
 21
19930.242871999992
 31
0.0
  0
LINE
  5
4C6F
  8
0-3
  6
CONTINUOUS
 62
     6
 10
22104.177827511739
 20
19930.242871999992
 30
0.0
 11
22173.14425451175
 21
19783.435836000001
 31
0.0
  0
LINE
  5
4C70
  8
0-3
  6
CONTINUOUS
 62
     6
 10
22121.799501511741
 20
19768.997227
 30
0.0
 11
22104.177827511739
 21
19930.242871999992
 31
0.0
  0
LINE
  5
4C71
  8
0-3
  6
CONTINUOUS
 62
     6
 10
22173.14425451175
 20
19783.435836000001
 30
0.0
 11
22121.799501511741
 21
19768.997227
 31
0.0
  0
LINE
  5
4C72
  8
0-3
  6
CONTINUOUS
 62
     6
 10
22104.177827511739
 20
19930.242871999992
 30
0.0
 11
22121.799501511741
 21
19768.997227
 31
0.0
  0
LINE
  5
4C73
  8
0-3
  6
CONTINUOUS
 62
     6
 10
22279.404811511751
 20
19306.86871699999
 30
0.0
 11
23304.44308251172
 21
19306.86871699999
 31
0.0
  0
LINE
  5
4C74
  8
0-3
  6
CONTINUOUS
 62
     6
 10
22147.471878511751
 20
19776.21455199999
 30
0.0
 11
22279.404811511751
 21
19306.86871699999
 31
0.0
  0
TEXT
  5
4C75
  8
0-3
  6
CONTINUOUS
 62
     7
 10
23076.20304600001
 20
13191.199850999979
 30
0.0
 40
160.0
  1
袖柱（右）
 72
     4
 11
23492.20304600001
 21
13271.199850999979
 31
0.0
  0
LINE
  5
4C76
  8
0-3
  6
CONTINUOUS
 62
     6
 10
24105.20233299999
 20
13540.71057999999
 30
0.0
 11
23988.202888
 21
13111.19958699999
 31
0.0
  0
LINE
  5
4C77
  8
0-3
  6
CONTINUOUS
 62
     6
 10
24130.932115999989
 20
13533.70209499999
 30
0.0
 11
24079.474529999981
 21
13547.719066
 31
0.0
  0
LINE
  5
4C78
  8
0-3
  6
CONTINUOUS
 62
     6
 10
24130.932115999989
 20
13533.70209499999
 30
0.0
 11
24147.253246999971
 21
13695.085316000001
 31
0.0
  0
LINE
  5
4C79
  8
0-3
  6
CONTINUOUS
 62
     6
 10
24079.474529999981
 20
13547.719066
 30
0.0
 11
24130.932115999989
 21
13533.70209499999
 31
0.0
  0
LINE
  5
4C7A
  8
0-3
  6
CONTINUOUS
 62
     6
 10
24147.253246999971
 20
13695.085316000001
 30
0.0
 11
24079.474529999981
 21
13547.719066
 31
0.0
  0
LINE
  5
4C7B
  8
0-3
  6
CONTINUOUS
 62
     6
 10
24147.253246999971
 20
13695.085316000001
 30
0.0
 11
24130.932115999989
 21
13533.70209499999
 31
0.0
  0
LINE
  5
4C7C
  8
0-3
  6
CONTINUOUS
 62
     6
 10
24079.474529999981
 20
13547.719066
 30
0.0
 11
24147.253246999971
 21
13695.085316000001
 31
0.0
  0
LINE
  5
4C7D
  8
0-3
  6
CONTINUOUS
 62
     6
 10
23988.202888
 20
13111.19958699999
 30
0.0
 11
22988.205526999998
 21
13111.19958699999
 31
0.0
  0
TEXT
  5
4C7E
  8
0-3
  6
CONTINUOUS
 62
     7
 10
23148.20209599999
 20
14469.59967399999
 30
0.0
 40
160.0
  1
前柱（右）
 72
     4
 11
23564.20209599999
 21
14549.59967399999
 31
0.0
  0
LINE
  5
4C7F
  8
0-3
  6
CONTINUOUS
 62
     6
 10
24185.20457699999
 20
13960.088417000001
 30
0.0
 11
24068.203151999998
 21
14389.599410000001
 31
0.0
  0
LINE
  5
4C80
  8
0-3
  6
CONTINUOUS
 62
     6
 10
24210.93237999998
 20
13967.096903
 30
0.0
 11
24159.476773999981
 21
13953.07894199998
 31
0.0
  0
LINE
  5
4C81
  8
0-3
  6
CONTINUOUS
 62
     6
 10
24210.93237999998
 20
13967.096903
 30
0.0
 11
24227.25549000001
 21
13805.712691999999
 31
0.0
  0
LINE
  5
4C82
  8
0-3
  6
CONTINUOUS
 62
     6
 10
24159.476773999981
 20
13953.07894199998
 30
0.0
 11
24210.93237999998
 21
13967.096903
 31
0.0
  0
LINE
  5
4C83
  8
0-3
  6
CONTINUOUS
 62
     6
 10
24227.25549000001
 20
13805.712691999999
 30
0.0
 11
24159.476773999981
 21
13953.07894199998
 31
0.0
  0
LINE
  5
4C84
  8
0-3
  6
CONTINUOUS
 62
     6
 10
24227.25549000001
 20
13805.712691999999
 30
0.0
 11
24210.93237999998
 21
13967.096903
 31
0.0
  0
LINE
  5
4C85
  8
0-3
  6
CONTINUOUS
 62
     6
 10
24159.476773999981
 20
13953.07894199998
 30
0.0
 11
24227.25549000001
 21
13805.712691999999
 31
0.0
  0
LINE
  5
4C86
  8
0-3
  6
CONTINUOUS
 62
     6
 10
23068.201831999992
 20
14389.599410000001
 30
0.0
 11
24068.203151999998
 21
14389.599410000001
 31
0.0
  0
ARC
  5
4C87
  8
1-1
  6
CONTINUOUS
 62
     3
 10
24328.258445999989
 20
13745.10775099999
 30
0.0
 40
3.6000000000000001
 50
359.9999849999723
 51
44.99998499997988
  0
ARC
  5
4C88
  8
1-1
  6
CONTINUOUS
 62
     3
 10
24330.857553999991
 20
13750.42671699998
 30
0.0
 40
2.0
 50
180.0
 51
224.9999849999798
  0
ARC
  5
4C89
  8
1-1
  6
CONTINUOUS
 62
     3
 10
24322.054634999971
 20
13815.298510000001
 30
0.0
 40
6.8000009999999991
 50
0.0
 51
89.999985000180857
  0
ARC
  5
4C8A
  8
1-1
  6
CONTINUOUS
 62
     3
 10
24299.254539999991
 20
13819.69897999999
 30
0.0
 40
2.399999999999999
 50
90.0
 51
180.0
  0
ARC
  5
4C8B
  8
1-1
  6
CONTINUOUS
 62
     3
 10
24299.254539999991
 20
13819.69897999999
 30
0.0
 40
0.8
 50
90.0
 51
179.99998499997241
  0
ARC
  5
4C8C
  8
1-1
  6
CONTINUOUS
 62
     3
 10
24322.054634999971
 20
13815.298510000001
 30
0.0
 40
5.2000010000000003
 50
0.0
 51
90.0
  0
ARC
  5
4C8D
  8
1-1
  6
CONTINUOUS
 62
     3
 10
24330.857553999991
 20
13750.42671699998
 30
0.0
 40
3.6000000000000001
 50
179.99998499997241
 51
225.0000000001105
  0
ARC
  5
4C8E
  8
1-1
  6
CONTINUOUS
 62
     3
 10
24328.258445999989
 20
13745.10775099999
 30
0.0
 40
2.0
 50
0.0
 51
45.000000000110553
  0
ARC
  5
4C8F
  8
1-1
  6
CONTINUOUS
 62
     3
 10
24300.256175999992
 20
13735.700088999991
 30
0.0
 40
30.0
 50
269.9999850001808
 51
359.9999849999723
  0
ARC
  5
4C90
  8
1-1
  6
CONTINUOUS
 62
     3
 10
24290.845544999978
 20
13707.699797999991
 30
0.0
 40
2.0
 50
224.9999849999798
 51
269.9999850001808
  0
ARC
  5
4C91
  8
1-1
  6
CONTINUOUS
 62
     3
 10
24285.524598999989
 20
13705.098710999981
 30
0.0
 40
3.6000000000000001
 50
44.99998499997988
 51
89.999985000180857
  0
ARC
  5
4C92
  8
1-1
  6
CONTINUOUS
 62
     3
 10
24250.65340000001
 20
13713.899651
 30
0.0
 40
5.2000010000000003
 50
180.0
 51
269.9999850001808
  0
ARC
  5
4C93
  8
1-1
  6
CONTINUOUS
 62
     3
 10
24250.65340000001
 20
13785.298905999991
 30
0.0
 40
5.2000010000000003
 50
90.0
 51
180.0
  0
ARC
  5
4C94
  8
1-1
  6
CONTINUOUS
 62
     3
 10
24250.65340000001
 20
13785.298905999991
 30
0.0
 40
6.8000009999999991
 50
90.0
 51
180.0
  0
ARC
  5
4C95
  8
1-1
  6
CONTINUOUS
 62
     3
 10
24250.65340000001
 20
13713.899651
 30
0.0
 40
6.8000009999999991
 50
180.0
 51
270.0
  0
ARC
  5
4C96
  8
1-1
  6
CONTINUOUS
 62
     3
 10
24285.524598999989
 20
13705.098710999981
 30
0.0
 40
2.0
 50
45.000000000110553
 51
90.0
  0
ARC
  5
4C97
  8
1-1
  6
CONTINUOUS
 62
     3
 10
24290.845544999978
 20
13707.699797999991
 30
0.0
 40
3.6000000000000001
 50
225.0000000001105
 51
270.0
  0
ARC
  5
4C98
  8
1-1
  6
CONTINUOUS
 62
     3
 10
24300.256175999992
 20
13735.700088999991
 30
0.0
 40
31.600002000000011
 50
269.9999850001808
 51
359.9999849999723
  0
ARC
  5
4C99
  8
1-0
  6
CONTINUOUS
 62
     2
 10
24059.356682999991
 20
13765.769966
 30
0.0
 40
5.0
 50
314.99998500023781
 51
359.9999849999723
  0
ARC
  5
4C9A
  8
1-0
  6
CONTINUOUS
 62
     2
 10
24059.956477
 20
13749.96548899998
 30
0.0
 40
6.600000999999998
 50
134.99999999988941
 51
180.0
  0
ARC
  5
4C9B
  8
1-0
  6
CONTINUOUS
 62
     2
 10
24059.956477
 20
13722.299738
 30
0.0
 40
6.600000999999998
 50
180.0
 51
270.0
  0
ARC
  5
4C9C
  8
1-0
  6
CONTINUOUS
 62
     2
 10
24237.254038999981
 20
13722.299738
 30
0.0
 40
6.600000999999998
 50
269.9999850001808
 51
359.9999849999723
  0
ARC
  5
4C9D
  8
1-0
  6
CONTINUOUS
 62
     2
 10
24248.855996999999
 20
13787.099278
 30
0.0
 40
5.0
 50
90.0
 51
179.99998499997241
  0
ARC
  5
4C9E
  8
1-0
  6
CONTINUOUS
 62
     2
 10
24248.855996999999
 20
13787.099278
 30
0.0
 40
6.600000999999998
 50
90.0
 51
180.0
  0
ARC
  5
4C9F
  8
1-0
  6
CONTINUOUS
 62
     2
 10
24237.254038999981
 20
13722.299738
 30
0.0
 40
5.0
 50
269.9999850001808
 51
0.0
  0
ARC
  5
4CA0
  8
1-0
  6
CONTINUOUS
 62
     2
 10
24059.956477
 20
13722.299738
 30
0.0
 40
5.0
 50
180.0
 51
269.9999850001808
  0
ARC
  5
4CA1
  8
1-0
  6
CONTINUOUS
 62
     2
 10
24059.956477
 20
13749.96548899998
 30
0.0
 40
5.0
 50
134.99999999988941
 51
180.0
  0
ARC
  5
4CA2
  8
1-0
  6
CONTINUOUS
 62
     2
 10
24059.356682999991
 20
13765.769966
 30
0.0
 40
6.600000999999998
 50
314.99998500023781
 51
359.9999849999723
  0
ARC
  5
4CA3
  8
1-0
  6
CONTINUOUS
 62
     2
 10
24070.952702999981
 20
13787.099278
 30
0.0
 40
5.0
 50
90.0
 51
180.0
  0
ARC
  5
4CA4
  8
1-0
  6
CONTINUOUS
 62
     2
 10
24146.754408000001
 20
13787.099278
 30
0.0
 40
5.0
 50
0.0
 51
90.0
  0
ARC
  5
4CA5
  8
1-0
  6
CONTINUOUS
 62
     2
 10
24146.754408000001
 20
13787.099278
 30
0.0
 40
6.600000999999998
 50
0.0
 51
89.999985000180857
  0
ARC
  5
4CA6
  8
1-0
  6
CONTINUOUS
 62
     2
 10
24070.952702999981
 20
13787.099278
 30
0.0
 40
6.600000999999998
 50
90.0
 51
180.0
  0
LINE
  5
4CA7
  8
1-1
  6
CONTINUOUS
 62
     3
 10
24263.856788999969
 20
13797.098816999969
 30
0.0
 11
24263.856788999969
 21
13783.899386999999
 31
0.0
  0
LINE
  5
4CA8
  8
1-1
  6
CONTINUOUS
 62
     3
 10
24331.853251999961
 20
13745.10775099999
 30
0.0
 11
24331.853251999961
 21
13735.700088999991
 31
0.0
  0
LINE
  5
4CA9
  8
1-1
  6
CONTINUOUS
 62
     3
 10
24329.440219000011
 20
13749.013341
 30
0.0
 11
24330.80014799998
 21
13747.654400999991
 31
0.0
  0
LINE
  5
4CAA
  8
1-1
  6
CONTINUOUS
 62
     3
 10
24328.858240000001
 20
13815.298510000001
 30
0.0
 11
24328.858240000001
 21
13750.42671699998
 31
0.0
  0
LINE
  5
4CAB
  8
1-1
  6
CONTINUOUS
 62
     3
 10
24299.254539999991
 20
13822.100135999979
 30
0.0
 11
24322.054634999971
 21
13822.100135999979
 31
0.0
  0
LINE
  5
4CAC
  8
1-1
  6
CONTINUOUS
 62
     3
 10
24296.853383999969
 20
13816.09922599998
 30
0.0
 11
24296.853383999969
 21
13819.69897999999
 31
0.0
  0
LINE
  5
4CAD
  8
1-1
  6
CONTINUOUS
 62
     3
 10
24298.45481399999
 20
13816.09922599998
 30
0.0
 11
24296.853383999969
 21
13816.09922599998
 31
0.0
  0
LINE
  5
4CAE
  8
1-1
  6
CONTINUOUS
 62
     3
 10
24298.45481399999
 20
13819.69897999999
 30
0.0
 11
24298.45481399999
 21
13816.09922599998
 31
0.0
  0
LINE
  5
4CAF
  8
1-1
  6
CONTINUOUS
 62
     3
 10
24322.054634999971
 20
13820.498706
 30
0.0
 11
24299.254539999991
 21
13820.498706
 31
0.0
  0
LINE
  5
4CB0
  8
1-1
  6
CONTINUOUS
 62
     3
 10
24327.256809999992
 20
13750.42671699998
 30
0.0
 11
24327.256809999992
 21
13815.298510000001
 31
0.0
  0
LINE
  5
4CB1
  8
1-1
  6
CONTINUOUS
 62
     3
 10
24329.669842999981
 20
13746.523106999981
 30
0.0
 11
24328.309913999969
 21
13747.882046000001
 31
0.0
  0
LINE
  5
4CB2
  8
1-1
  6
CONTINUOUS
 62
     3
 10
24330.25776
 20
13735.700088999991
 30
0.0
 11
24330.25776
 21
13745.10775099999
 31
0.0
  0
LINE
  5
4CB3
  8
1-1
  6
CONTINUOUS
 62
     3
 10
24290.845544999978
 20
13705.699494999981
 30
0.0
 11
24300.256175999992
 21
13705.699494999981
 31
0.0
  0
LINE
  5
4CB4
  8
1-1
  6
CONTINUOUS
 62
     3
 10
24288.07223999998
 20
13707.64536199999
 30
0.0
 11
24289.434147999989
 21
13706.28444299998
 31
0.0
  0
LINE
  5
4CB5
  8
1-1
  6
CONTINUOUS
 62
     3
 10
24250.65340000001
 20
13708.698465999991
 30
0.0
 11
24285.524598999989
 21
13708.698465999991
 31
0.0
  0
LINE
  5
4CB6
  8
1-1
  6
CONTINUOUS
 62
     3
 10
24245.451225000001
 20
13785.298905999991
 30
0.0
 11
24245.451225000001
 21
13713.899651
 31
0.0
  0
LINE
  5
4CB7
  8
1-1
  6
CONTINUOUS
 62
     3
 10
24283.857843999998
 20
13790.499102
 30
0.0
 11
24250.65340000001
 21
13790.499102
 31
0.0
  0
LINE
  5
4CB8
  8
1-1
  6
CONTINUOUS
 62
     3
 10
24283.857843999998
 20
13792.099541999991
 30
0.0
 11
24283.857843999998
 21
13790.499102
 31
0.0
  0
LINE
  5
4CB9
  8
1-1
  6
CONTINUOUS
 62
     3
 10
24243.855732999989
 20
13713.899651
 30
0.0
 11
24243.855732999989
 21
13785.298905999991
 31
0.0
  0
LINE
  5
4CBA
  8
1-1
  6
CONTINUOUS
 62
     3
 10
24285.524598999989
 20
13707.099014999991
 30
0.0
 11
24250.65340000001
 21
13707.099014999991
 31
0.0
  0
LINE
  5
4CBB
  8
1-1
  6
CONTINUOUS
 62
     3
 10
24288.301863999968
 20
13705.15314799999
 30
0.0
 11
24286.941933999999
 21
13706.51406699998
 31
0.0
  0
LINE
  5
4CBC
  8
1-1
  6
CONTINUOUS
 62
     3
 10
24300.256175999992
 20
13704.099053999949
 30
0.0
 11
24290.845544999978
 21
13704.099053999949
 31
0.0
  0
LINE
  5
4CBD
  8
1-0
  6
CONTINUOUS
 62
     2
 10
24263.856788999969
 20
13784.599146
 30
0.0
 11
24263.856788999969
 21
13801.199388999999
 31
0.0
  0
LINE
  5
4CBE
  8
1-0
  6
CONTINUOUS
 62
     2
 10
24055.28679299997
 20
13754.632204
 30
0.0
 11
24062.89012399999
 21
13762.234546
 31
0.0
  0
LINE
  5
4CBF
  8
1-0
  6
CONTINUOUS
 62
     2
 10
24053.354782999992
 20
13722.299738
 30
0.0
 11
24053.354782999992
 21
13749.96548899998
 31
0.0
  0
LINE
  5
4CC0
  8
1-0
  6
CONTINUOUS
 62
     2
 10
24237.254038999981
 20
13715.69903299999
 30
0.0
 11
24059.956477
 21
13715.69903299999
 31
0.0
  0
LINE
  5
4CC1
  8
1-0
  6
CONTINUOUS
 62
     2
 10
24243.855732999989
 20
13787.099278
 30
0.0
 11
24243.855732999989
 21
13722.299738
 31
0.0
  0
LINE
  5
4CC2
  8
1-0
  6
CONTINUOUS
 62
     2
 10
24283.857843999998
 20
13792.099541999991
 30
0.0
 11
24248.855996999999
 21
13792.099541999991
 31
0.0
  0
LINE
  5
4CC3
  8
1-0
  6
CONTINUOUS
 62
     2
 10
24283.857843999998
 20
13793.698993
 30
0.0
 11
24283.857843999998
 21
13792.099541999991
 31
0.0
  0
LINE
  5
4CC4
  8
1-0
  6
CONTINUOUS
 62
     2
 10
24248.855996999999
 20
13793.698993
 30
0.0
 11
24283.857843999998
 21
13793.698993
 31
0.0
  0
LINE
  5
4CC5
  8
1-0
  6
CONTINUOUS
 62
     2
 10
24242.25430199999
 20
13722.299738
 30
0.0
 11
24242.25430199999
 21
13787.099278
 31
0.0
  0
LINE
  5
4CC6
  8
1-0
  6
CONTINUOUS
 62
     2
 10
24059.956477
 20
13717.29947399999
 30
0.0
 11
24237.254038999981
 21
13717.29947399999
 31
0.0
  0
LINE
  5
4CC7
  8
1-0
  6
CONTINUOUS
 62
     2
 10
24054.956213000001
 20
13749.96548899998
 30
0.0
 11
24054.956213000001
 21
13722.299738
 31
0.0
  0
LINE
  5
4CC8
  8
1-0
  6
CONTINUOUS
 62
     2
 10
24064.020428999989
 20
13761.10325099998
 30
0.0
 11
24056.417098000002
 21
13753.500910000001
 31
0.0
  0
LINE
  5
4CC9
  8
1-0
  6
CONTINUOUS
 62
     2
 10
24065.95837800001
 20
13787.099278
 30
0.0
 11
24065.95837800001
 21
13765.769966
 31
0.0
  0
LINE
  5
4CCA
  8
1-0
  6
CONTINUOUS
 62
     2
 10
24146.754408000001
 20
13792.099541999991
 30
0.0
 11
24070.952702999981
 21
13792.099541999991
 31
0.0
  0
LINE
  5
4CCB
  8
1-0
  6
CONTINUOUS
 62
     2
 10
24151.754671999999
 20
13773.69892699999
 30
0.0
 11
24151.754671999999
 21
13787.099278
 31
0.0
  0
LINE
  5
4CCC
  8
1-0
  6
CONTINUOUS
 62
     2
 10
24153.356102999998
 20
13773.69892699999
 30
0.0
 11
24151.754671999999
 21
13773.69892699999
 31
0.0
  0
LINE
  5
4CCD
  8
1-0
  6
CONTINUOUS
 62
     2
 10
24153.356102999998
 20
13787.099278
 30
0.0
 11
24153.356102999998
 21
13773.69892699999
 31
0.0
  0
LINE
  5
4CCE
  8
1-0
  6
CONTINUOUS
 62
     2
 10
24070.952702999981
 20
13793.698993
 30
0.0
 11
24146.754408000001
 21
13793.698993
 31
0.0
  0
LINE
  5
4CCF
  8
1-0
  6
CONTINUOUS
 62
     2
 10
24064.356946999978
 20
13765.769966
 30
0.0
 11
24064.356946999978
 21
13787.099278
 31
0.0
  0
LINE
  5
4CD0
  8
0-1
  6
CONTINUOUS
 62
     3
 10
24298.850717999961
 20
13816.09922599998
 30
0.0
 11
24298.850717999961
 21
13822.100135999979
 31
0.0
  0
ARC
  5
4CD1
  8
1-1
  6
CONTINUOUS
 62
     3
 10
18758.947607999991
 20
13745.10775099999
 30
0.0
 40
3.6000000000000001
 50
134.99999999988941
 51
180.0
  0
ARC
  5
4CD2
  8
1-1
  6
CONTINUOUS
 62
     3
 10
18756.346519999981
 20
13750.42671699998
 30
0.0
 40
2.0
 50
314.99998500023781
 51
359.9999849999723
  0
ARC
  5
4CD3
  8
1-1
  6
CONTINUOUS
 62
     3
 10
18765.14745999996
 20
13815.298510000001
 30
0.0
 40
6.8000009999999991
 50
90.0
 51
180.0
  0
ARC
  5
4CD4
  8
1-1
  6
CONTINUOUS
 62
     3
 10
18787.947554999992
 20
13819.69897999999
 30
0.0
 40
2.399999999999999
 50
0.0
 51
90.0
  0
ARC
  5
4CD5
  8
1-1
  6
CONTINUOUS
 62
     3
 10
18787.947554999992
 20
13819.69897999999
 30
0.0
 40
0.8
 50
0.0
 51
89.999985000180857
  0
ARC
  5
4CD6
  8
1-1
  6
CONTINUOUS
 62
     3
 10
18765.14745999996
 20
13815.298510000001
 30
0.0
 40
5.2000010000000003
 50
90.0
 51
180.0
  0
ARC
  5
4CD7
  8
1-1
  6
CONTINUOUS
 62
     3
 10
18756.346519999981
 20
13750.42671699998
 30
0.0
 40
3.6000000000000001
 50
314.99998500023781
 51
359.9999849999723
  0
ARC
  5
4CD8
  8
1-1
  6
CONTINUOUS
 62
     3
 10
18758.947607999991
 20
13745.10775099999
 30
0.0
 40
2.0
 50
134.99999999988941
 51
180.0
  0
ARC
  5
4CD9
  8
1-1
  6
CONTINUOUS
 62
     3
 10
18786.947897999991
 20
13735.70008899998
 30
0.0
 40
30.0
 50
179.99998499997241
 51
270.0
  0
ARC
  5
4CDA
  8
1-1
  6
CONTINUOUS
 62
     3
 10
18796.35457
 20
13707.699797999991
 30
0.0
 40
2.0
 50
269.9999850001808
 51
314.99998500023781
  0
ARC
  5
4CDB
  8
1-1
  6
CONTINUOUS
 62
     3
 10
18801.673536999991
 20
13705.098710999981
 30
0.0
 40
3.6000000000000001
 50
90.0
 51
134.99999999988941
  0
ARC
  5
4CDC
  8
1-1
  6
CONTINUOUS
 62
     3
 10
18836.54671599995
 20
13713.899650999991
 30
0.0
 40
5.2000010000000003
 50
269.9999850001808
 51
359.9999849999723
  0
ARC
  5
4CDD
  8
1-1
  6
CONTINUOUS
 62
     3
 10
18836.54671599995
 20
13785.298905999991
 30
0.0
 40
5.2000010000000003
 50
0.0
 51
89.999985000180857
  0
ARC
  5
4CDE
  8
1-1
  6
CONTINUOUS
 62
     3
 10
18836.54671599995
 20
13785.298905999991
 30
0.0
 40
6.8000009999999991
 50
0.0
 51
90.0
  0
ARC
  5
4CDF
  8
1-1
  6
CONTINUOUS
 62
     3
 10
18836.54671599995
 20
13713.899650999991
 30
0.0
 40
6.8000009999999991
 50
269.9999850001808
 51
359.9999849999723
  0
ARC
  5
4CE0
  8
1-1
  6
CONTINUOUS
 62
     3
 10
18801.673536999991
 20
13705.098710999981
 30
0.0
 40
2.0
 50
90.0
 51
134.99999999988941
  0
ARC
  5
4CE1
  8
1-1
  6
CONTINUOUS
 62
     3
 10
18796.35457
 20
13707.699797999991
 30
0.0
 40
3.6000000000000001
 50
269.9999850001808
 51
314.99998500023781
  0
ARC
  5
4CE2
  8
1-1
  6
CONTINUOUS
 62
     3
 10
18786.947897999991
 20
13735.70008899998
 30
0.0
 40
31.600002000000011
 50
180.0
 51
269.9999850001808
  0
ARC
  5
4CE3
  8
1-0
  6
CONTINUOUS
 62
     2
 10
19027.845411999991
 20
13765.769965999991
 30
0.0
 40
5.0
 50
179.99998499997241
 51
225.0000000001105
  0
ARC
  5
4CE4
  8
1-0
  6
CONTINUOUS
 62
     2
 10
19027.247597000001
 20
13749.96548899998
 30
0.0
 40
6.600000999999998
 50
0.0
 51
45.000000000110553
  0
ARC
  5
4CE5
  8
1-0
  6
CONTINUOUS
 62
     2
 10
19027.247597000001
 20
13722.299738
 30
0.0
 40
6.600000999999998
 50
269.9999850001808
 51
359.9999849999723
  0
ARC
  5
4CE6
  8
1-0
  6
CONTINUOUS
 62
     2
 10
18849.946077000001
 20
13722.299738
 30
0.0
 40
6.600000999999998
 50
180.0
 51
269.9999850001808
  0
ARC
  5
4CE7
  8
1-0
  6
CONTINUOUS
 62
     2
 10
18838.348077999981
 20
13787.099278
 30
0.0
 40
5.0
 50
0.0
 51
89.999985000180857
  0
ARC
  5
4CE8
  8
1-0
  6
CONTINUOUS
 62
     2
 10
18838.348077999981
 20
13787.099278
 30
0.0
 40
6.600000999999998
 50
0.0
 51
90.0
  0
ARC
  5
4CE9
  8
1-0
  6
CONTINUOUS
 62
     2
 10
18849.946077000001
 20
13722.299738
 30
0.0
 40
5.0
 50
180.0
 51
270.0
  0
ARC
  5
4CEA
  8
1-0
  6
CONTINUOUS
 62
     2
 10
19027.247597000001
 20
13722.299738
 30
0.0
 40
5.0
 50
269.9999850001808
 51
359.9999849999723
  0
ARC
  5
4CEB
  8
1-0
  6
CONTINUOUS
 62
     2
 10
19027.247597000001
 20
13749.96548899998
 30
0.0
 40
5.0
 50
359.9999849999723
 51
44.99998499997988
  0
ARC
  5
4CEC
  8
1-0
  6
CONTINUOUS
 62
     2
 10
19027.845411999991
 20
13765.769965999991
 30
0.0
 40
6.600000999999998
 50
180.0
 51
224.9999849999798
  0
ARC
  5
4CED
  8
1-0
  6
CONTINUOUS
 62
     2
 10
19016.245433
 20
13787.099278
 30
0.0
 40
5.0
 50
0.0
 51
89.999985000180857
  0
ARC
  5
4CEE
  8
1-0
  6
CONTINUOUS
 62
     2
 10
18940.445707999981
 20
13787.099278
 30
0.0
 40
5.0
 50
90.0
 51
180.0
  0
ARC
  5
4CEF
  8
1-0
  6
CONTINUOUS
 62
     2
 10
18940.445707999981
 20
13787.099278
 30
0.0
 40
6.600000999999998
 50
90.0
 51
180.0
  0
ARC
  5
4CF0
  8
1-0
  6
CONTINUOUS
 62
     2
 10
19016.245433
 20
13787.099278
 30
0.0
 40
6.600000999999998
 50
0.0
 51
90.0
  0
LINE
  5
4CF1
  8
1-1
  6
CONTINUOUS
 62
     3
 10
18755.346863999981
 20
13745.10775099999
 30
0.0
 11
18755.346863999981
 21
13735.70008899998
 31
0.0
  0
LINE
  5
4CF2
  8
1-1
  6
CONTINUOUS
 62
     3
 10
18757.761876
 20
13749.013340999991
 30
0.0
 11
18756.399967000008
 21
13747.654400999991
 31
0.0
  0
LINE
  5
4CF3
  8
1-1
  6
CONTINUOUS
 62
     3
 10
18758.345834
 20
13815.298510000001
 30
0.0
 11
18758.345834
 21
13750.42671699998
 31
0.0
  0
LINE
  5
4CF4
  8
1-1
  6
CONTINUOUS
 62
     3
 10
18787.947554999992
 20
13822.100135999979
 30
0.0
 11
18765.14745999996
 21
13822.100135999979
 31
0.0
  0
LINE
  5
4CF5
  8
1-1
  6
CONTINUOUS
 62
     3
 10
18790.346732000009
 20
13816.09922599998
 30
0.0
 11
18790.346732000009
 21
13819.69897999999
 31
0.0
  0
LINE
  5
4CF6
  8
1-1
  6
CONTINUOUS
 62
     3
 10
18788.745300999992
 20
13816.09922599998
 30
0.0
 11
18790.346732000009
 21
13816.09922599998
 31
0.0
  0
LINE
  5
4CF7
  8
1-1
  6
CONTINUOUS
 62
     3
 10
18788.745300999992
 20
13819.69897999999
 30
0.0
 11
18788.745300999992
 21
13816.09922599998
 31
0.0
  0
LINE
  5
4CF8
  8
1-1
  6
CONTINUOUS
 62
     3
 10
18765.14745999996
 20
13820.49870599998
 30
0.0
 11
18787.947554999992
 21
13820.49870599998
 31
0.0
  0
LINE
  5
4CF9
  8
1-1
  6
CONTINUOUS
 62
     3
 10
18759.947264999992
 20
13750.42671699998
 30
0.0
 11
18759.947264999992
 21
13815.298510000001
 31
0.0
  0
LINE
  5
4CFA
  8
1-1
  6
CONTINUOUS
 62
     3
 10
18757.532252000001
 20
13746.523106999981
 30
0.0
 11
18758.89020199998
 21
13747.88204599999
 31
0.0
  0
LINE
  5
4CFB
  8
1-1
  6
CONTINUOUS
 62
     3
 10
18756.944335
 20
13735.70008899998
 30
0.0
 11
18756.944335
 21
13745.10775099999
 31
0.0
  0
LINE
  5
4CFC
  8
1-1
  6
CONTINUOUS
 62
     3
 10
18796.35457
 20
13705.699494999981
 30
0.0
 11
18786.947897999991
 21
13705.699494999981
 31
0.0
  0
LINE
  5
4CFD
  8
1-1
  6
CONTINUOUS
 62
     3
 10
18799.129855999981
 20
13707.64536199999
 30
0.0
 11
18797.769926000001
 21
13706.28444299998
 31
0.0
  0
LINE
  5
4CFE
  8
1-1
  6
CONTINUOUS
 62
     3
 10
18836.54671599995
 20
13708.698465999991
 30
0.0
 11
18801.673536999991
 21
13708.698465999991
 31
0.0
  0
LINE
  5
4CFF
  8
1-1
  6
CONTINUOUS
 62
     3
 10
18841.746910999991
 20
13785.298905999991
 30
0.0
 11
18841.746910999991
 21
13713.899650999991
 31
0.0
  0
LINE
  5
4D00
  8
1-1
  6
CONTINUOUS
 62
     3
 10
18803.34821
 20
13790.499102
 30
0.0
 11
18836.54671599995
 21
13790.499102
 31
0.0
  0
LINE
  5
4D01
  8
1-1
  6
CONTINUOUS
 62
     3
 10
18803.34821
 20
13792.099541999991
 30
0.0
 11
18803.34821
 21
13790.499102
 31
0.0
  0
LINE
  5
4D02
  8
1-1
  6
CONTINUOUS
 62
     3
 10
18843.344382999981
 20
13713.899650999991
 30
0.0
 11
18843.344382999981
 21
13785.298905999991
 31
0.0
  0
LINE
  5
4D03
  8
1-1
  6
CONTINUOUS
 62
     3
 10
18801.673536999991
 20
13707.099014999991
 30
0.0
 11
18836.54671599995
 21
13707.099014999991
 31
0.0
  0
LINE
  5
4D04
  8
1-1
  6
CONTINUOUS
 62
     3
 10
18798.902211000001
 20
13705.15314799999
 30
0.0
 11
18800.262139999999
 21
13706.51406699998
 31
0.0
  0
LINE
  5
4D05
  8
1-1
  6
CONTINUOUS
 62
     3
 10
18786.947897999991
 20
13704.099053999949
 30
0.0
 11
18796.35457
 21
13704.099053999949
 31
0.0
  0
LINE
  5
4D06
  8
1-1
  6
CONTINUOUS
 62
     3
 10
18823.34530600001
 20
13797.098816999969
 30
0.0
 11
18823.34530600001
 21
13783.899386999999
 31
0.0
  0
LINE
  5
4D07
  8
1-0
  6
CONTINUOUS
 62
     2
 10
18823.34530600001
 20
13784.599146
 30
0.0
 11
18823.34530600001
 21
13801.199388999999
 31
0.0
  0
LINE
  5
4D08
  8
1-0
  6
CONTINUOUS
 62
     2
 10
19031.91332299999
 20
13754.632204
 30
0.0
 11
19024.311970999981
 21
13762.234545999991
 31
0.0
  0
LINE
  5
4D09
  8
1-0
  6
CONTINUOUS
 62
     2
 10
19033.847312000002
 20
13722.299738
 30
0.0
 11
19033.847312000002
 21
13749.96548899998
 31
0.0
  0
LINE
  5
4D0A
  8
1-0
  6
CONTINUOUS
 62
     2
 10
18849.946077000001
 20
13715.69903299999
 30
0.0
 11
19027.247597000001
 21
13715.69903299999
 31
0.0
  0
LINE
  5
4D0B
  8
1-0
  6
CONTINUOUS
 62
     2
 10
18843.344382999981
 20
13787.099278
 30
0.0
 11
18843.344382999981
 21
13722.299738
 31
0.0
  0
LINE
  5
4D0C
  8
1-0
  6
CONTINUOUS
 62
     2
 10
18803.34821
 20
13792.099541999991
 30
0.0
 11
18838.348077999981
 21
13792.099541999991
 31
0.0
  0
LINE
  5
4D0D
  8
1-0
  6
CONTINUOUS
 62
     2
 10
18803.34821
 20
13793.698992999991
 30
0.0
 11
18803.34821
 21
13792.099541999991
 31
0.0
  0
LINE
  5
4D0E
  8
1-0
  6
CONTINUOUS
 62
     2
 10
18838.348077999981
 20
13793.698992999991
 30
0.0
 11
18803.34821
 21
13793.698992999991
 31
0.0
  0
LINE
  5
4D0F
  8
1-0
  6
CONTINUOUS
 62
     2
 10
18844.945812999998
 20
13722.299738
 30
0.0
 11
18844.945812999998
 21
13787.099278
 31
0.0
  0
LINE
  5
4D10
  8
1-0
  6
CONTINUOUS
 62
     2
 10
19027.247597000001
 20
13717.29947399999
 30
0.0
 11
18849.946077000001
 21
13717.29947399999
 31
0.0
  0
LINE
  5
4D11
  8
1-0
  6
CONTINUOUS
 62
     2
 10
19032.247860999982
 20
13749.96548899998
 30
0.0
 11
19032.247860999982
 21
13722.299738
 31
0.0
  0
LINE
  5
4D12
  8
1-0
  6
CONTINUOUS
 62
     2
 10
19023.179687
 20
13761.10325099998
 30
0.0
 11
19030.783017000002
 21
13753.500910000001
 31
0.0
  0
LINE
  5
4D13
  8
1-0
  6
CONTINUOUS
 62
     2
 10
19021.247675999992
 20
13787.099278
 30
0.0
 11
19021.247675999992
 21
13765.769965999991
 31
0.0
  0
LINE
  5
4D14
  8
1-0
  6
CONTINUOUS
 62
     2
 10
18940.445707999981
 20
13792.099541999991
 30
0.0
 11
19016.245433
 21
13792.099541999991
 31
0.0
  0
LINE
  5
4D15
  8
1-0
  6
CONTINUOUS
 62
     2
 10
18935.447423000009
 20
13773.69892699999
 30
0.0
 11
18935.447423000009
 21
13787.099278
 31
0.0
  0
LINE
  5
4D16
  8
1-0
  6
CONTINUOUS
 62
     2
 10
18933.845992999999
 20
13773.69892699999
 30
0.0
 11
18935.447423000009
 21
13773.69892699999
 31
0.0
  0
LINE
  5
4D17
  8
1-0
  6
CONTINUOUS
 62
     2
 10
18933.845992999999
 20
13787.099278
 30
0.0
 11
18933.845992999999
 21
13773.69892699999
 31
0.0
  0
LINE
  5
4D18
  8
1-0
  6
CONTINUOUS
 62
     2
 10
19016.245433
 20
13793.698992999991
 30
0.0
 11
18940.445707999981
 21
13793.698992999991
 31
0.0
  0
LINE
  5
4D19
  8
1-0
  6
CONTINUOUS
 62
     2
 10
19022.845148
 20
13765.769965999991
 30
0.0
 11
19022.845148
 21
13787.099278
 31
0.0
  0
LINE
  5
4D1A
  8
0-1
  6
CONTINUOUS
 62
     3
 10
18788.34741799999
 20
13816.09922599998
 30
0.0
 11
18788.34741799999
 21
13822.100135999979
 31
0.0
  0
TEXT
  5
4D1B
  8
0-3
  6
CONTINUOUS
 62
     7
 10
19628.64493883308
 20
14954.09838199998
 30
0.0
 40
160.0
  1
引戸扉
 72
     4
 11
19900.64493883308
 21
15034.09838199998
 31
0.0
  0
LINE
  5
4D1C
  8
0-3
  6
CONTINUOUS
 62
     6
 10
19561.460077833101
 20
14874.098117999991
 30
0.0
 11
20216.02154883308
 21
14874.098117999991
 31
0.0
  0
LINE
  5
4D1D
  8
0-3
  6
CONTINUOUS
 62
     6
 10
18903.21542868152
 20
14697.3432118982
 30
0.0
 11
18919.05250733612
 21
14646.415112177039
 31
0.0
  0
LINE
  5
4D1E
  8
0-3
  6
CONTINUOUS
 62
     6
 10
18903.21542868152
 20
14697.3432118982
 30
0.0
 11
18758.351772999991
 21
14624.372405154711
 31
0.0
  0
LINE
  5
4D1F
  8
0-3
  6
CONTINUOUS
 62
     6
 10
18919.05250733612
 20
14646.415112177039
 30
0.0
 11
18903.21542868152
 21
14697.3432118982
 31
0.0
  0
LINE
  5
4D20
  8
0-3
  6
CONTINUOUS
 62
     6
 10
18758.351772999991
 20
14624.372405154711
 30
0.0
 11
18919.05250733612
 21
14646.415112177039
 31
0.0
  0
LINE
  5
4D21
  8
0-3
  6
CONTINUOUS
 62
     6
 10
18758.351772999991
 20
14624.372405154711
 30
0.0
 11
18903.21542868152
 21
14697.3432118982
 31
0.0
  0
LINE
  5
4D22
  8
0-3
  6
CONTINUOUS
 62
     6
 10
18919.05250733612
 20
14646.415112177039
 30
0.0
 11
18758.351772999991
 21
14624.372405154711
 31
0.0
  0
LINE
  5
4D23
  8
0-3
  6
CONTINUOUS
 62
     6
 10
18758.351772999991
 20
14624.372405154711
 30
0.0
 11
19561.460077833071
 21
14874.098117999991
 31
0.0
  0
LINE
  5
4D24
  8
0-1
  6
CONTINUOUS
 62
     3
 10
18747.151656999991
 20
14855.097325500001
 30
0.0
 11
18747.151656999991
 21
14862.0978935
 31
0.0
  0
LINE
  5
4D25
  8
0-1
  6
CONTINUOUS
 62
     3
 10
18748.351245000002
 20
14855.097325500001
 30
0.0
 11
18747.151656999991
 21
14855.097325500001
 31
0.0
  0
LINE
  5
4D26
  8
0-1
  6
CONTINUOUS
 62
     3
 10
18748.351245000002
 20
14885.0979195
 30
0.0
 11
18748.351245000002
 21
14855.097325500001
 31
0.0
  0
LINE
  5
4D27
  8
0-1
  6
CONTINUOUS
 62
     3
 10
18722.35026900002
 20
14885.0979195
 30
0.0
 11
18748.351245000002
 21
14885.0979195
 31
0.0
  0
LINE
  5
4D28
  8
0-1
  6
CONTINUOUS
 62
     3
 10
18722.35026900002
 20
14179.59749749999
 30
0.0
 11
18722.35026900002
 21
14885.0979195
 31
0.0
  0
LINE
  5
4D29
  8
0-1
  6
CONTINUOUS
 62
     3
 10
18748.351245000002
 20
14179.59749749999
 30
0.0
 11
18722.35026900002
 21
14179.59749749999
 31
0.0
  0
LINE
  5
4D2A
  8
0-1
  6
CONTINUOUS
 62
     3
 10
18748.351245000002
 20
14209.5980915
 30
0.0
 11
18748.351245000002
 21
14179.59749749999
 31
0.0
  0
LINE
  5
4D2B
  8
0-1
  6
CONTINUOUS
 62
     3
 10
18742.353304000011
 20
14209.5980915
 30
0.0
 11
18748.351245000002
 21
14209.5980915
 31
0.0
  0
LINE
  5
4D2C
  8
0-1
  6
CONTINUOUS
 62
     3
 10
18724.351562
 20
14167.59864549998
 30
0.0
 11
18721.350611999991
 21
14174.599212499999
 31
0.0
  0
LINE
  5
4D2D
  8
0-1
  6
CONTINUOUS
 62
     3
 10
18721.350611999991
 20
14167.59864549998
 30
0.0
 11
18724.351562
 21
14167.59864549998
 31
0.0
  0
LINE
  5
4D2E
  8
0-1
  6
CONTINUOUS
 62
     3
 10
18724.85238
 20
14217.598315499999
 30
0.0
 11
18731.851958000021
 21
14210.59774849998
 31
0.0
  0
LINE
  5
4D2F
  8
0-1
  6
CONTINUOUS
 62
     3
 10
18749.350901999991
 20
14217.598315499999
 30
0.0
 11
18724.85238
 21
14217.598315499999
 31
0.0
  0
LINE
  5
4D30
  8
0-1
  6
CONTINUOUS
 62
     3
 10
18749.350901999991
 20
14179.59749749999
 30
0.0
 11
18749.350901999991
 21
14217.598315499999
 31
0.0
  0
LINE
  5
4D31
  8
0-1
  6
CONTINUOUS
 62
     3
 10
18721.350611999991
 20
14179.59749749999
 30
0.0
 11
18749.350901999991
 21
14179.59749749999
 31
0.0
  0
LINE
  5
4D32
  8
0-1
  6
CONTINUOUS
 62
     3
 10
18721.350611999991
 20
14167.59864549998
 30
0.0
 11
18721.350611999991
 21
14179.59749749999
 31
0.0
  0
LINE
  5
4D33
  8
0-1
  6
CONTINUOUS
 62
     3
 10
18748.854042999999
 20
14838.598038499989
 30
0.0
 11
18754.851984000001
 21
14838.598038499989
 31
0.0
  0
LINE
  5
4D34
  8
0-1
  6
CONTINUOUS
 62
     3
 10
18748.854042999999
 20
14837.398450500001
 30
0.0
 11
18748.854042999999
 21
14838.598038499989
 31
0.0
  0
LINE
  5
4D35
  8
0-1
  6
CONTINUOUS
 62
     3
 10
18740.85282900001
 20
14878.599160499991
 30
0.0
 11
18740.85282900001
 21
14870.5979465
 31
0.0
  0
LINE
  5
4D36
  8
0-1
  6
CONTINUOUS
 62
     3
 10
18738.853514999999
 20
14878.599160499991
 30
0.0
 11
18740.85282900001
 21
14878.599160499991
 31
0.0
  0
LINE
  5
4D37
  8
0-1
  6
CONTINUOUS
 62
     3
 10
18738.853514999999
 20
14838.598038499989
 30
0.0
 11
18738.853514999999
 21
14878.599160499991
 31
0.0
  0
LINE
  5
4D38
  8
0-1
  6
CONTINUOUS
 62
     3
 10
18786.85288200001
 20
14838.598038499989
 30
0.0
 11
18738.853514999999
 21
14838.598038499989
 31
0.0
  0
LINE
  5
4D39
  8
0-1
  6
CONTINUOUS
 62
     3
 10
18788.854175000019
 20
14837.398450500001
 30
0.0
 11
18748.854042999999
 21
14837.398450500001
 31
0.0
  0
LINE
  5
4D3A
  8
0-1
  6
CONTINUOUS
 62
     3
 10
18788.854175000019
 20
14856.897697500001
 30
0.0
 11
18788.854175000019
 21
14837.398450500001
 31
0.0
  0
LINE
  5
4D3B
  8
0-1
  6
CONTINUOUS
 62
     3
 10
18778.851668000021
 20
14856.897697500001
 30
0.0
 11
18788.854175000019
 21
14856.897697500001
 31
0.0
  0
LINE
  5
4D3C
  8
0-1
  6
CONTINUOUS
 62
     3
 10
18750.851376999992
 20
14176.097708499979
 30
0.0
 11
18786.354042999988
 21
14176.097708499979
 31
0.0
  0
LINE
  5
4D3D
  8
0-1
  6
CONTINUOUS
 62
     3
 10
18748.351245000002
 20
14178.597840500001
 30
0.0
 11
18750.851376999992
 21
14176.097708499979
 31
0.0
  0
LINE
  5
4D3E
  8
0-1
  6
CONTINUOUS
 62
     3
 10
18724.351562
 20
14167.59864549998
 30
0.0
 11
18724.351562
 21
14178.597840500001
 31
0.0
  0
LINE
  5
4D3F
  8
0-1
  6
CONTINUOUS
 62
     3
 10
18714.353014000011
 20
14162.5973915
 30
0.0
 11
18724.351562
 21
14167.59864549998
 31
0.0
  0
LINE
  5
4D40
  8
0-1
  6
CONTINUOUS
 62
     3
 10
18714.353014000011
 20
14138.59770849999
 30
0.0
 11
18714.353014000011
 21
14162.5973915
 31
0.0
  0
LINE
  5
4D41
  8
0-1
  6
CONTINUOUS
 62
     3
 10
18724.351562
 20
14178.597840500001
 30
0.0
 11
18748.351245000002
 21
14178.597840500001
 31
0.0
  0
LINE
  5
4D42
  8
0-1
  6
CONTINUOUS
 62
     3
 10
18758.351772999991
 20
14138.59770849999
 30
0.0
 11
18714.353014000011
 21
14138.59770849999
 31
0.0
  0
LINE
  5
4D43
  8
2-0
  6
CONTINUOUS
 62
     3
 10
23546.950604250029
 20
19978.596574000021
 30
0.0
 11
23509.949442250021
 21
19978.596574000021
 31
0.0
  0
LINE
  5
4D44
  8
2-0
  6
CONTINUOUS
 62
     3
 10
23499.855877250029
 20
19978.596574000021
 30
0.0
 11
22856.04812825003
 21
19978.596574000021
 31
0.0
  0
LINE
  5
4D45
  8
2-0
  6
CONTINUOUS
 62
     3
 10
22845.950604250029
 20
19978.596574000021
 30
0.0
 11
22808.949442250021
 21
19978.596574000021
 31
0.0
  0
LINE
  5
4D46
  8
2-0
  6
CONTINUOUS
 62
     3
 10
22798.855877250029
 20
19978.596574000021
 30
0.0
 11
22155.04812825003
 21
19978.596574000021
 31
0.0
  0
LINE
  5
4D47
  8
2-0
  6
CONTINUOUS
 62
     3
 10
22144.950604250029
 20
19978.596574000021
 30
0.0
 11
22107.949442250021
 21
19978.596574000021
 31
0.0
  0
LINE
  5
4D48
  8
2-0
  6
CONTINUOUS
 62
     3
 10
22097.855877250018
 20
19978.596574000021
 30
0.0
 11
21801.063422750049
 21
19978.596574000021
 31
0.0
  0
LINE
  5
4D49
  8
2-0
  6
CONTINUOUS
 62
     3
 10
23546.950604250029
 20
19978.59657400001
 30
0.0
 11
23509.949442250021
 21
19978.59657400001
 31
0.0
  0
LINE
  5
4D4A
  8
2-0
  6
CONTINUOUS
 62
     3
 10
23546.950604250029
 20
19948.593011000001
 30
0.0
 11
23546.950604250029
 21
19978.59657400001
 31
0.0
  0
LINE
  5
4D4B
  8
2-0
  6
CONTINUOUS
 62
     3
 10
23540.950683250001
 20
19948.593011000001
 30
0.0
 11
23546.950604250029
 21
19948.593011000001
 31
0.0
  0
LINE
  5
4D4C
  8
2-0
  6
CONTINUOUS
 62
     3
 10
23557.04812825003
 20
19948.593011000001
 30
0.0
 11
23557.04812825003
 21
19978.59657400001
 31
0.0
  0
LINE
  5
4D4D
  8
2-0
  6
CONTINUOUS
 62
     3
 10
23539.044407249999
 20
19948.593011000001
 30
0.0
 11
23557.04812825003
 21
19948.593011000001
 31
0.0
  0
LINE
  5
4D4E
  8
2-0
  6
CONTINUOUS
 62
     3
 10
23539.044407249999
 20
19973.60224800001
 30
0.0
 11
23539.044407249999
 21
19948.593011000001
 31
0.0
  0
LINE
  5
4D4F
  8
2-0
  6
CONTINUOUS
 62
     3
 10
23544.044671250009
 20
19973.60224800001
 30
0.0
 11
23539.044407249999
 21
19973.60224800001
 31
0.0
  0
LINE
  5
4D50
  8
2-0
  6
CONTINUOUS
 62
     3
 10
23544.044671250009
 20
19966.596732000002
 30
0.0
 11
23544.044671250009
 21
19973.60224800001
 31
0.0
  0
LINE
  5
4D51
  8
2-0
  6
CONTINUOUS
 62
     3
 10
23512.855376250031
 20
19966.596732000002
 30
0.0
 11
23512.855376250031
 21
19973.60224800001
 31
0.0
  0
LINE
  5
4D52
  8
2-0
  6
CONTINUOUS
 62
     3
 10
23512.855376250031
 20
19973.60224800001
 30
0.0
 11
23517.855640250029
 21
19973.60224800001
 31
0.0
  0
LINE
  5
4D53
  8
2-0
  6
CONTINUOUS
 62
     3
 10
23517.855640250029
 20
19973.60224800001
 30
0.0
 11
23517.855640250029
 21
19948.593011000001
 31
0.0
  0
LINE
  5
4D54
  8
2-0
  6
CONTINUOUS
 62
     3
 10
23517.855640250029
 20
19948.593011000001
 30
0.0
 11
23499.855877250029
 21
19948.593011000001
 31
0.0
  0
LINE
  5
4D55
  8
2-0
  6
CONTINUOUS
 62
     3
 10
23499.855877250029
 20
19948.593011000001
 30
0.0
 11
23499.855877250029
 21
19978.59657400001
 31
0.0
  0
LINE
  5
4D56
  8
2-0
  6
CONTINUOUS
 62
     3
 10
23515.949363250031
 20
19948.593011000001
 30
0.0
 11
23509.949442250021
 21
19948.593011000001
 31
0.0
  0
LINE
  5
4D57
  8
2-0
  6
CONTINUOUS
 62
     3
 10
23509.949442250021
 20
19948.593011000001
 30
0.0
 11
23509.949442250021
 21
19978.59657400001
 31
0.0
  0
LINE
  5
4D58
  8
2-0
  6
CONTINUOUS
 62
     3
 10
22845.950604250029
 20
19978.59657400001
 30
0.0
 11
22808.949442250021
 21
19978.59657400001
 31
0.0
  0
LINE
  5
4D59
  8
2-0
  6
CONTINUOUS
 62
     3
 10
22845.950604250029
 20
19948.593011000001
 30
0.0
 11
22845.950604250029
 21
19978.59657400001
 31
0.0
  0
LINE
  5
4D5A
  8
2-0
  6
CONTINUOUS
 62
     3
 10
22839.950683250001
 20
19948.593011000001
 30
0.0
 11
22845.950604250029
 21
19948.593011000001
 31
0.0
  0
LINE
  5
4D5B
  8
2-0
  6
CONTINUOUS
 62
     3
 10
22856.04812825003
 20
19948.593011000001
 30
0.0
 11
22856.04812825003
 21
19978.59657400001
 31
0.0
  0
LINE
  5
4D5C
  8
2-0
  6
CONTINUOUS
 62
     3
 10
22838.04440725001
 20
19948.593011000001
 30
0.0
 11
22856.04812825003
 21
19948.593011000001
 31
0.0
  0
LINE
  5
4D5D
  8
2-0
  6
CONTINUOUS
 62
     3
 10
22838.04440725001
 20
19973.60224800001
 30
0.0
 11
22838.04440725001
 21
19948.593011000001
 31
0.0
  0
LINE
  5
4D5E
  8
2-0
  6
CONTINUOUS
 62
     3
 10
22843.044671250009
 20
19973.60224800001
 30
0.0
 11
22838.04440725001
 21
19973.60224800001
 31
0.0
  0
LINE
  5
4D5F
  8
2-0
  6
CONTINUOUS
 62
     3
 10
22843.044671250009
 20
19966.596732000002
 30
0.0
 11
22843.044671250009
 21
19973.60224800001
 31
0.0
  0
LINE
  5
4D60
  8
2-0
  6
CONTINUOUS
 62
     3
 10
22811.855376250031
 20
19966.596732000002
 30
0.0
 11
22811.855376250031
 21
19973.60224800001
 31
0.0
  0
LINE
  5
4D61
  8
2-0
  6
CONTINUOUS
 62
     3
 10
22811.855376250031
 20
19973.60224800001
 30
0.0
 11
22816.855640250029
 21
19973.60224800001
 31
0.0
  0
LINE
  5
4D62
  8
2-0
  6
CONTINUOUS
 62
     3
 10
22816.855640250029
 20
19973.60224800001
 30
0.0
 11
22816.855640250029
 21
19948.593011000001
 31
0.0
  0
LINE
  5
4D63
  8
2-0
  6
CONTINUOUS
 62
     3
 10
22816.855640250029
 20
19948.593011000001
 30
0.0
 11
22798.855877250029
 21
19948.593011000001
 31
0.0
  0
LINE
  5
4D64
  8
2-0
  6
CONTINUOUS
 62
     3
 10
22798.855877250029
 20
19948.593011000001
 30
0.0
 11
22798.855877250029
 21
19978.59657400001
 31
0.0
  0
LINE
  5
4D65
  8
2-0
  6
CONTINUOUS
 62
     3
 10
22814.949363250042
 20
19948.593011000001
 30
0.0
 11
22808.949442250021
 21
19948.593011000001
 31
0.0
  0
LINE
  5
4D66
  8
2-0
  6
CONTINUOUS
 62
     3
 10
22808.949442250021
 20
19948.593011000001
 30
0.0
 11
22808.949442250021
 21
19978.59657400001
 31
0.0
  0
LINE
  5
4D67
  8
2-0
  6
CONTINUOUS
 62
     3
 10
22144.950604250029
 20
19978.596574000021
 30
0.0
 11
22107.949442250021
 21
19978.596574000021
 31
0.0
  0
LINE
  5
4D68
  8
2-0
  6
CONTINUOUS
 62
     3
 10
22144.950604250029
 20
19948.593011000001
 30
0.0
 11
22144.950604250029
 21
19978.596574000021
 31
0.0
  0
LINE
  5
4D69
  8
2-0
  6
CONTINUOUS
 62
     3
 10
22138.950683250001
 20
19948.593011000001
 30
0.0
 11
22144.950604250029
 21
19948.593011000001
 31
0.0
  0
LINE
  5
4D6A
  8
2-0
  6
CONTINUOUS
 62
     3
 10
22155.04812825003
 20
19948.593011000001
 30
0.0
 11
22155.04812825003
 21
19978.596574000021
 31
0.0
  0
LINE
  5
4D6B
  8
2-0
  6
CONTINUOUS
 62
     3
 10
22137.044407250021
 20
19948.593011000001
 30
0.0
 11
22155.04812825003
 21
19948.593011000001
 31
0.0
  0
LINE
  5
4D6C
  8
2-0
  6
CONTINUOUS
 62
     3
 10
22137.044407250021
 20
19973.602248000021
 30
0.0
 11
22137.044407250021
 21
19948.593011000001
 31
0.0
  0
LINE
  5
4D6D
  8
2-0
  6
CONTINUOUS
 62
     3
 10
22142.04467125002
 20
19973.602248000021
 30
0.0
 11
22137.044407250021
 21
19973.602248000021
 31
0.0
  0
LINE
  5
4D6E
  8
2-0
  6
CONTINUOUS
 62
     3
 10
22142.04467125002
 20
19966.596732000002
 30
0.0
 11
22142.04467125002
 21
19973.602248000021
 31
0.0
  0
LINE
  5
4D6F
  8
2-0
  6
CONTINUOUS
 62
     3
 10
22110.855376250031
 20
19966.596732000002
 30
0.0
 11
22110.855376250031
 21
19973.602248000021
 31
0.0
  0
LINE
  5
4D70
  8
2-0
  6
CONTINUOUS
 62
     3
 10
22110.855376250031
 20
19973.602248000021
 30
0.0
 11
22115.855640250029
 21
19973.602248000021
 31
0.0
  0
LINE
  5
4D71
  8
2-0
  6
CONTINUOUS
 62
     3
 10
22115.855640250029
 20
19973.602248000021
 30
0.0
 11
22115.855640250029
 21
19948.593011000001
 31
0.0
  0
LINE
  5
4D72
  8
2-0
  6
CONTINUOUS
 62
     3
 10
22115.855640250029
 20
19948.593011000001
 30
0.0
 11
22097.855877250018
 21
19948.593011000001
 31
0.0
  0
LINE
  5
4D73
  8
2-0
  6
CONTINUOUS
 62
     3
 10
22097.855877250018
 20
19948.593011000001
 30
0.0
 11
22097.855877250018
 21
19978.596574000021
 31
0.0
  0
LINE
  5
4D74
  8
2-0
  6
CONTINUOUS
 62
     3
 10
22113.949363250042
 20
19948.593011000001
 30
0.0
 11
22107.949442250021
 21
19948.593011000001
 31
0.0
  0
LINE
  5
4D75
  8
2-0
  6
CONTINUOUS
 62
     3
 10
22107.949442250021
 20
19948.593011000001
 30
0.0
 11
22107.949442250021
 21
19978.596574000021
 31
0.0
  0
LINE
  5
4D76
  8
2-0
  6
CONTINUOUS
 62
     3
 10
21791.448901749998
 20
19978.596574000021
 30
0.0
 11
21747.54812825003
 21
19978.596574000021
 31
0.0
  0
LINE
  5
4D77
  8
2-0
  6
CONTINUOUS
 62
     3
 10
21636.834643750011
 20
19978.59657400001
 30
0.0
 11
20989.54812825003
 21
19978.59657400001
 31
0.0
  0
LINE
  5
4D78
  8
0-1
  6
CONTINUOUS
 62
     3
 10
21646.451144750019
 20
19948.596970000021
 30
0.0
 11
21652.45106575001
 21
19948.596970000021
 31
0.0
  0
LINE
  5
4D79
  8
0-1
  6
CONTINUOUS
 62
     3
 10
21791.448901749998
 20
19948.596970000021
 30
0.0
 11
21785.448980750021
 21
19948.596970000021
 31
0.0
  0
LINE
  5
4D7A
  8
0-1
  6
CONTINUOUS
 62
     3
 10
21791.448901749998
 20
19978.596574000021
 30
0.0
 11
21791.448901749998
 21
19948.596970000021
 31
0.0
  0
LINE
  5
4D7B
  8
0-1
  6
CONTINUOUS
 62
     3
 10
21791.448901749998
 20
19948.596970000021
 30
0.0
 11
21785.448980750021
 21
19948.596970000021
 31
0.0
  0
LINE
  5
4D7C
  8
0-1
  6
CONTINUOUS
 62
     3
 10
21801.063422750009
 20
19948.596970000021
 30
0.0
 11
21801.063422750009
 21
19978.596574000021
 31
0.0
  0
LINE
  5
4D7D
  8
0-1
  6
CONTINUOUS
 62
     3
 10
21783.063660750009
 20
19948.596970000021
 30
0.0
 11
21801.063422750009
 21
19948.596970000021
 31
0.0
  0
LINE
  5
4D7E
  8
0-1
  6
CONTINUOUS
 62
     3
 10
21783.063660750009
 20
19973.596310000001
 30
0.0
 11
21783.063660750009
 21
19948.596970000021
 31
0.0
  0
LINE
  5
4D7F
  8
0-1
  6
CONTINUOUS
 62
     3
 10
21788.063924750018
 20
19973.596310000001
 30
0.0
 11
21783.063660750009
 21
19973.596310000001
 31
0.0
  0
LINE
  5
4D80
  8
0-1
  6
CONTINUOUS
 62
     3
 10
21788.063924750018
 20
19966.59673300002
 30
0.0
 11
21788.063924750018
 21
19973.596310000001
 31
0.0
  0
LINE
  5
4D81
  8
0-1
  6
CONTINUOUS
 62
     3
 10
21761.45127675002
 20
19975.706477000022
 30
0.0
 11
21761.45127675002
 21
19890.707929
 31
0.0
  0
LINE
  5
4D82
  8
0-1
  6
CONTINUOUS
 62
     3
 10
21741.45022075003
 20
19975.706477000022
 30
0.0
 11
21761.45127675002
 21
19975.706477000022
 31
0.0
  0
LINE
  5
4D83
  8
0-1
  6
CONTINUOUS
 62
     3
 10
21649.836121750031
 20
19966.59673300002
 30
0.0
 11
21649.836121750031
 21
19973.596310000001
 31
0.0
  0
LINE
  5
4D84
  8
0-1
  6
CONTINUOUS
 62
     3
 10
21649.836121750031
 20
19973.596310000001
 30
0.0
 11
21654.836385750041
 21
19973.596310000001
 31
0.0
  0
LINE
  5
4D85
  8
0-1
  6
CONTINUOUS
 62
     3
 10
21654.836385750041
 20
19973.596310000001
 30
0.0
 11
21654.836385750041
 21
19948.596970000021
 31
0.0
  0
LINE
  5
4D86
  8
0-1
  6
CONTINUOUS
 62
     3
 10
21654.836385750041
 20
19948.596970000021
 30
0.0
 11
21636.834643750011
 21
19948.596970000021
 31
0.0
  0
LINE
  5
4D87
  8
0-1
  6
CONTINUOUS
 62
     3
 10
21636.834643750011
 20
19948.596970000021
 30
0.0
 11
21636.834643750011
 21
19978.596574000021
 31
0.0
  0
LINE
  5
4D88
  8
0-1
  6
CONTINUOUS
 62
     3
 10
21676.448769750012
 20
19975.706477000022
 30
0.0
 11
21696.44982475002
 21
19975.706477000022
 31
0.0
  0
LINE
  5
4D89
  8
0-1
  6
CONTINUOUS
 62
     3
 10
21676.448769750012
 20
19890.707929
 30
0.0
 11
21676.448769750012
 21
19975.706477000022
 31
0.0
  0
LINE
  5
4D8A
  8
0-1
  6
CONTINUOUS
 62
     3
 10
21646.451144750019
 20
19948.596970000021
 30
0.0
 11
21652.45106575001
 21
19948.596970000021
 31
0.0
  0
LINE
  5
4D8B
  8
0-1
  6
CONTINUOUS
 62
     3
 10
21646.451144750019
 20
19978.596574000021
 30
0.0
 11
21646.451144750019
 21
19948.596970000021
 31
0.0
  0
LINE
  5
4D8C
  8
0-1
  6
CONTINUOUS
 62
     3
 10
21761.45127675002
 20
19890.707929
 30
0.0
 11
21676.448769750012
 21
19890.707929
 31
0.0
  0
LINE
  5
4D8D
  8
0-1
  6
CONTINUOUS
 62
     3
 10
21791.448901749998
 20
19978.596574000021
 30
0.0
 11
21646.451144750019
 21
19978.596574000021
 31
0.0
  0
LINE
  5
4D8E
  8
2-0
  6
CONTINUOUS
 62
     3
 10
21690.355877250018
 20
19978.59657400001
 30
0.0
 11
21646.451144750019
 21
19978.59657400001
 31
0.0
  0
LINE
  5
4D8F
  8
0-3
  6
CONTINUOUS
 62
     6
 10
24032.488677000001
 20
17122.125528
 30
0.0
 11
23727.793258999991
 21
17225.779059000011
 31
0.0
  0
LINE
  5
4D90
  8
0-3
  6
CONTINUOUS
 62
     6
 10
24187.51071599999
 20
16632.503484000012
 30
0.0
 11
23727.793258999991
 21
16388.590173000001
 31
0.0
  0
LINE
  5
4D91
  8
0-3
  6
CONTINUOUS
 62
     6
 10
22807.790223999989
 20
16388.590173000001
 30
0.0
 11
23727.793258999991
 21
16388.590173000001
 31
0.0
  0
LINE
  5
4D92
  8
0-3
  6
CONTINUOUS
 62
     6
 10
22527.799197000011
 20
17225.779059000011
 30
0.0
 11
23727.793258999991
 21
17225.779059000011
 31
0.0
  0
LINE
  5
4D93
  8
0-3
  6
CONTINUOUS
 62
     6
 10
24103.688000999999
 20
15169.19254531248
 30
0.0
 11
23727.793258999991
 21
15350.13638031249
 31
0.0
  0
LINE
  5
4D94
  8
0-3
  6
CONTINUOUS
 62
     6
 10
23207.791542999999
 20
15350.13638031249
 30
0.0
 11
23727.793258999991
 21
15350.13638031249
 31
0.0
  0
LINE
  5
4D95
  8
2-0
  6
CONTINUOUS
 62
     4
 10
24286.34807800001
 20
20058.598816999998
 30
0.0
 11
24286.34807800001
 21
20788.595782
 31
0.0
  0
LINE
  5
4D96
  8
2-0
  6
CONTINUOUS
 62
     3
 10
24298.854676999981
 20
19869.596363000001
 30
0.0
 11
24298.854676999981
 21
19863.600401
 31
0.0
  0
LINE
  5
4D97
  8
2-0
  6
CONTINUOUS
 62
     3
 10
24298.854676999981
 20
19863.600401
 30
0.0
 11
24328.85230100001
 21
19863.600401
 31
0.0
  0
LINE
  5
4D98
  8
2-0
  6
CONTINUOUS
 62
     3
 10
24328.85230100001
 20
19893.600005000011
 30
0.0
 11
24247.850401
 21
19893.600005000011
 31
0.0
  0
LINE
  5
4D99
  8
2-0
  6
CONTINUOUS
 62
     3
 10
24298.854676999981
 20
19853.302944999989
 30
0.0
 11
24328.85230100001
 21
19853.302944999989
 31
0.0
  0
LINE
  5
4D9A
  8
2-0
  6
CONTINUOUS
 62
     3
 10
24298.854676999981
 20
19871.304687000022
 30
0.0
 11
24298.854676999981
 21
19853.302944999989
 31
0.0
  0
LINE
  5
4D9B
  8
2-0
  6
CONTINUOUS
 62
     3
 10
24323.85203699999
 20
19871.304687000022
 30
0.0
 11
24298.854676999981
 21
19871.304687000022
 31
0.0
  0
LINE
  5
4D9C
  8
2-0
  6
CONTINUOUS
 62
     3
 10
24323.85203699999
 20
19866.296504999991
 30
0.0
 11
24323.85203699999
 21
19871.304687000022
 31
0.0
  0
LINE
  5
4D9D
  8
2-0
  6
CONTINUOUS
 62
     3
 10
24316.850480000008
 20
19866.296504999991
 30
0.0
 11
24323.85203699999
 21
19866.296504999991
 31
0.0
  0
LINE
  5
4D9E
  8
2-0
  6
CONTINUOUS
 62
     3
 10
24216.554211999999
 20
19966.596732000002
 30
0.0
 11
24216.554211999999
 21
19973.602248000021
 31
0.0
  0
LINE
  5
4D9F
  8
2-0
  6
CONTINUOUS
 62
     3
 10
24216.554211999999
 20
19973.602248000021
 30
0.0
 11
24221.55447599999
 21
19973.602248000021
 31
0.0
  0
LINE
  5
4DA0
  8
2-0
  6
CONTINUOUS
 62
     3
 10
24221.55447599999
 20
19973.602248000021
 30
0.0
 11
24221.55447599999
 21
19948.593011000001
 31
0.0
  0
LINE
  5
4DA1
  8
2-0
  6
CONTINUOUS
 62
     3
 10
24221.55447599999
 20
19948.593011000001
 30
0.0
 11
24203.552733999979
 21
19948.593011000001
 31
0.0
  0
LINE
  5
4DA2
  8
2-0
  6
CONTINUOUS
 62
     3
 10
24203.552733999979
 20
19948.593011000001
 30
0.0
 11
24203.552733999979
 21
19978.596574000021
 31
0.0
  0
LINE
  5
4DA3
  8
2-0
  6
CONTINUOUS
 62
     3
 10
24213.850190000001
 20
19978.596574000021
 30
0.0
 11
24328.85230100001
 21
19978.596574000021
 31
0.0
  0
LINE
  5
4DA4
  8
2-0
  6
CONTINUOUS
 62
     3
 10
24213.850190000001
 20
19948.593011000001
 30
0.0
 11
24213.850190000001
 21
19978.596574000021
 31
0.0
  0
LINE
  5
4DA5
  8
2-0
  6
CONTINUOUS
 62
     3
 10
24219.85209
 20
19948.593011000001
 30
0.0
 11
24213.850190000001
 21
19948.593011000001
 31
0.0
  0
LINE
  5
4DA6
  8
2-0
  6
CONTINUOUS
 62
     3
 10
24316.850480000008
 20
19162.49968249998
 30
0.0
 11
24323.85203699999
 21
19162.49968249998
 31
0.0
  0
LINE
  5
4DA7
  8
2-0
  6
CONTINUOUS
 62
     3
 10
24323.85203699999
 20
19162.49968249998
 30
0.0
 11
24323.85203699999
 21
19167.499946499989
 31
0.0
  0
LINE
  5
4DA8
  8
2-0
  6
CONTINUOUS
 62
     3
 10
24323.85203699999
 20
19167.499946499989
 30
0.0
 11
24298.854676999981
 21
19167.499946499989
 31
0.0
  0
LINE
  5
4DA9
  8
2-0
  6
CONTINUOUS
 62
     3
 10
24298.854676999981
 20
19167.499946499989
 30
0.0
 11
24298.854676999981
 21
19149.504142499991
 31
0.0
  0
LINE
  5
4DAA
  8
2-0
  6
CONTINUOUS
 62
     3
 10
24298.854676999981
 20
19149.504142499991
 30
0.0
 11
24328.85230100001
 21
19149.504142499991
 31
0.0
  0
LINE
  5
4DAB
  8
2-0
  6
CONTINUOUS
 62
     3
 10
24298.854676999981
 20
19165.59564949997
 30
0.0
 11
24298.854676999981
 21
19159.59770849999
 31
0.0
  0
LINE
  5
4DAC
  8
2-0
  6
CONTINUOUS
 62
     3
 10
24298.854676999981
 20
19159.59770849999
 30
0.0
 11
24328.85230100001
 21
19159.59770849999
 31
0.0
  0
LINE
  5
4DAD
  8
2-0
  6
CONTINUOUS
 62
     3
 10
24328.85230100001
 20
19159.59770849999
 30
0.0
 11
24328.85230100001
 21
19196.598869499991
 31
0.0
  0
LINE
  5
4DAE
  8
2-0
  6
CONTINUOUS
 62
     3
 10
24298.854676999981
 20
19196.598869499991
 30
0.0
 11
24328.85230100001
 21
19196.598869499991
 31
0.0
  0
LINE
  5
4DAF
  8
2-0
  6
CONTINUOUS
 62
     3
 10
24298.854676999981
 20
19190.594989499961
 30
0.0
 11
24298.854676999981
 21
19196.598869499991
 31
0.0
  0
LINE
  5
4DB0
  8
2-0
  6
CONTINUOUS
 62
     3
 10
24298.854676999981
 20
19206.69441449998
 30
0.0
 11
24328.85230100001
 21
19206.69441449998
 31
0.0
  0
LINE
  5
4DB1
  8
2-0
  6
CONTINUOUS
 62
     3
 10
24298.854676999981
 20
19188.69267249999
 30
0.0
 11
24298.854676999981
 21
19206.69441449998
 31
0.0
  0
LINE
  5
4DB2
  8
2-0
  6
CONTINUOUS
 62
     3
 10
24323.85203699999
 20
19188.69267249999
 30
0.0
 11
24298.854676999981
 21
19188.69267249999
 31
0.0
  0
LINE
  5
4DB3
  8
2-0
  6
CONTINUOUS
 62
     3
 10
24323.85203699999
 20
19193.692936499981
 30
0.0
 11
24323.85203699999
 21
19188.69267249999
 31
0.0
  0
LINE
  5
4DB4
  8
2-0
  6
CONTINUOUS
 62
     3
 10
24316.850480000008
 20
19193.692936499981
 30
0.0
 11
24323.85203699999
 21
19193.692936499981
 31
0.0
  0
LINE
  5
4DB5
  8
2-0
  6
CONTINUOUS
 62
     3
 10
24316.850480000008
 20
18461.498693000001
 30
0.0
 11
24323.85203699999
 21
18461.498693000001
 31
0.0
  0
LINE
  5
4DB6
  8
2-0
  6
CONTINUOUS
 62
     3
 10
24323.85203699999
 20
18461.498693000001
 30
0.0
 11
24323.85203699999
 21
18466.504894999991
 31
0.0
  0
LINE
  5
4DB7
  8
2-0
  6
CONTINUOUS
 62
     3
 10
24323.85203699999
 20
18466.504894999991
 30
0.0
 11
24298.854676999981
 21
18466.504894999991
 31
0.0
  0
LINE
  5
4DB8
  8
2-0
  6
CONTINUOUS
 62
     3
 10
24298.854676999981
 20
18466.504894999991
 30
0.0
 11
24298.854676999981
 21
18448.503153000001
 31
0.0
  0
LINE
  5
4DB9
  8
2-0
  6
CONTINUOUS
 62
     3
 10
24298.854676999981
 20
18448.503153000001
 30
0.0
 11
24328.85230100001
 21
18448.503153000001
 31
0.0
  0
LINE
  5
4DBA
  8
2-0
  6
CONTINUOUS
 62
     3
 10
24298.854676999981
 20
18464.594659999981
 30
0.0
 11
24298.854676999981
 21
18458.598697999991
 31
0.0
  0
LINE
  5
4DBB
  8
2-0
  6
CONTINUOUS
 62
     3
 10
24298.854676999981
 20
18458.598697999991
 30
0.0
 11
24328.85230100001
 21
18458.598697999991
 31
0.0
  0
LINE
  5
4DBC
  8
2-0
  6
CONTINUOUS
 62
     3
 10
24328.85230100001
 20
18458.598697999991
 30
0.0
 11
24328.85230100001
 21
18495.597880000001
 31
0.0
  0
LINE
  5
4DBD
  8
2-0
  6
CONTINUOUS
 62
     3
 10
24298.854676999981
 20
18495.597880000001
 30
0.0
 11
24328.85230100001
 21
18495.597880000001
 31
0.0
  0
LINE
  5
4DBE
  8
2-0
  6
CONTINUOUS
 62
     3
 10
24298.854676999981
 20
18489.601917999989
 30
0.0
 11
24298.854676999981
 21
18495.597880000001
 31
0.0
  0
LINE
  5
4DBF
  8
2-0
  6
CONTINUOUS
 62
     3
 10
24298.854676999981
 20
18505.693425000001
 30
0.0
 11
24328.85230100001
 21
18505.693425000001
 31
0.0
  0
LINE
  5
4DC0
  8
2-0
  6
CONTINUOUS
 62
     3
 10
24298.854676999981
 20
18487.691683000001
 30
0.0
 11
24298.854676999981
 21
18505.693425000001
 31
0.0
  0
LINE
  5
4DC1
  8
2-0
  6
CONTINUOUS
 62
     3
 10
24323.85203699999
 20
18487.691683000001
 30
0.0
 11
24298.854676999981
 21
18487.691683000001
 31
0.0
  0
LINE
  5
4DC2
  8
2-0
  6
CONTINUOUS
 62
     3
 10
24323.85203699999
 20
18492.69788499999
 30
0.0
 11
24323.85203699999
 21
18487.691683000001
 31
0.0
  0
LINE
  5
4DC3
  8
2-0
  6
CONTINUOUS
 62
     3
 10
24316.850480000008
 20
18492.69788499999
 30
0.0
 11
24323.85203699999
 21
18492.69788499999
 31
0.0
  0
LINE
  5
4DC4
  8
2-0
  6
CONTINUOUS
 62
     3
 10
24316.850480000008
 20
17791.691946999999
 30
0.0
 11
24323.85203699999
 21
17791.691946999999
 31
0.0
  0
LINE
  5
4DC5
  8
2-0
  6
CONTINUOUS
 62
     3
 10
24323.85203699999
 20
17791.691946999999
 30
0.0
 11
24323.85203699999
 21
17786.703560000002
 31
0.0
  0
LINE
  5
4DC6
  8
2-0
  6
CONTINUOUS
 62
     3
 10
24323.85203699999
 20
17786.703560000002
 30
0.0
 11
24298.854676999981
 21
17786.703560000002
 31
0.0
  0
LINE
  5
4DC7
  8
2-0
  6
CONTINUOUS
 62
     3
 10
24298.854676999981
 20
17786.703560000002
 30
0.0
 11
24298.854676999981
 21
17804.699363
 31
0.0
  0
LINE
  5
4DC8
  8
2-0
  6
CONTINUOUS
 62
     3
 10
24298.854676999981
 20
17804.699363
 30
0.0
 11
24328.85230100001
 21
17804.699363
 31
0.0
  0
LINE
  5
4DC9
  8
2-0
  6
CONTINUOUS
 62
     3
 10
24298.854676999981
 20
17788.601918
 30
0.0
 11
24298.854676999981
 21
17794.59787999999
 31
0.0
  0
LINE
  5
4DCA
  8
2-0
  6
CONTINUOUS
 62
     3
 10
24298.854676999981
 20
17794.59787999999
 30
0.0
 11
24328.85230100001
 21
17794.59787999999
 31
0.0
  0
LINE
  5
4DCB
  8
2-0
  6
CONTINUOUS
 62
     3
 10
24328.85230100001
 20
17794.59787999999
 30
0.0
 11
24328.85230100001
 21
17757.598698000002
 31
0.0
  0
LINE
  5
4DCC
  8
2-0
  6
CONTINUOUS
 62
     3
 10
24298.854676999981
 20
17757.598698000002
 30
0.0
 11
24328.85230100001
 21
17757.598698000002
 31
0.0
  0
LINE
  5
4DCD
  8
2-0
  6
CONTINUOUS
 62
     3
 10
24298.854676999981
 20
17763.60059899999
 30
0.0
 11
24298.854676999981
 21
17757.598698000002
 31
0.0
  0
LINE
  5
4DCE
  8
2-0
  6
CONTINUOUS
 62
     3
 10
24298.854676999981
 20
17747.509091999989
 30
0.0
 11
24328.85230100001
 21
17747.509091999989
 31
0.0
  0
LINE
  5
4DCF
  8
2-0
  6
CONTINUOUS
 62
     3
 10
24298.854676999981
 20
17765.504894999991
 30
0.0
 11
24298.854676999981
 21
17747.509091999989
 31
0.0
  0
LINE
  5
4DD0
  8
2-0
  6
CONTINUOUS
 62
     3
 10
24323.85203699999
 20
17765.504894999991
 30
0.0
 11
24298.854676999981
 21
17765.504894999991
 31
0.0
  0
LINE
  5
4DD1
  8
2-0
  6
CONTINUOUS
 62
     3
 10
24323.85203699999
 20
17760.504631999989
 30
0.0
 11
24323.85203699999
 21
17765.504894999991
 31
0.0
  0
LINE
  5
4DD2
  8
2-0
  6
CONTINUOUS
 62
     3
 10
24316.850480000008
 20
17760.504631999989
 30
0.0
 11
24323.85203699999
 21
17760.504631999989
 31
0.0
  0
LINE
  5
4DD3
  8
2-0
  6
CONTINUOUS
 62
     3
 10
24325.966163000001
 20
17040.595517999991
 30
0.0
 11
24325.966163000001
 21
17060.596572999992
 31
0.0
  0
LINE
  5
4DD4
  8
2-0
  6
CONTINUOUS
 62
     3
 10
24325.966163000001
 20
17060.596572999992
 30
0.0
 11
24240.969593999991
 21
17060.596572999992
 31
0.0
  0
LINE
  5
4DD5
  8
2-0
  6
CONTINUOUS
 62
     3
 10
24316.850480000008
 20
17087.203282999992
 30
0.0
 11
24323.85203699999
 21
17087.203282999992
 31
0.0
  0
LINE
  5
4DD6
  8
2-0
  6
CONTINUOUS
 62
     3
 10
24323.85203699999
 20
17087.203282999992
 30
0.0
 11
24323.85203699999
 21
17082.208956999999
 31
0.0
  0
LINE
  5
4DD7
  8
2-0
  6
CONTINUOUS
 62
     3
 10
24323.85203699999
 20
17082.208956999999
 30
0.0
 11
24298.854676999981
 21
17082.208956999999
 31
0.0
  0
LINE
  5
4DD8
  8
2-0
  6
CONTINUOUS
 62
     3
 10
24298.854676999981
 20
17082.208956999999
 30
0.0
 11
24298.854676999981
 21
17100.204761000001
 31
0.0
  0
LINE
  5
4DD9
  8
2-0
  6
CONTINUOUS
 62
     3
 10
24298.854676999981
 20
17100.204761000001
 30
0.0
 11
24328.85230100001
 21
17100.204761000001
 31
0.0
  0
LINE
  5
4DDA
  8
2-0
  6
CONTINUOUS
 62
     3
 10
24298.854676999981
 20
17090.596176999989
 30
0.0
 11
24298.854676999981
 21
17084.594277
 31
0.0
  0
LINE
  5
4DDB
  8
2-0
  6
CONTINUOUS
 62
     3
 10
24328.85230100001
 20
17090.596176999989
 30
0.0
 11
24298.854676999981
 21
17090.596176999989
 31
0.0
  0
LINE
  5
4DDC
  8
2-0
  6
CONTINUOUS
 62
     3
 10
24328.85230100001
 20
17100.204761000001
 30
0.0
 11
24328.85230100001
 21
17747.509091999989
 31
0.0
  0
LINE
  5
4DDD
  8
2-0
  6
CONTINUOUS
 62
     3
 10
24328.85230100001
 20
17804.699363
 30
0.0
 11
24328.85230100001
 21
18448.503153000001
 31
0.0
  0
LINE
  5
4DDE
  8
2-0
  6
CONTINUOUS
 62
     3
 10
24328.85230100001
 20
16945.594462000001
 30
0.0
 11
24298.854676999981
 21
16945.594462000001
 31
0.0
  0
LINE
  5
4DDF
  8
2-0
  6
CONTINUOUS
 62
     3
 10
24298.854676999981
 20
16945.594462000001
 30
0.0
 11
24298.854676999981
 21
16951.596362
 31
0.0
  0
LINE
  5
4DE0
  8
2-0
  6
CONTINUOUS
 62
     3
 10
24240.969593999991
 20
16975.600005
 30
0.0
 11
24325.966163000001
 21
16975.600005
 31
0.0
  0
LINE
  5
4DE1
  8
2-0
  6
CONTINUOUS
 62
     3
 10
24325.966163000001
 20
16975.600005
 30
0.0
 11
24325.966163000001
 21
16995.595121999999
 31
0.0
  0
LINE
  5
4DE2
  8
2-0
  6
CONTINUOUS
 62
     3
 10
24298.854676999981
 20
16935.985879
 30
0.0
 11
24328.85230100001
 21
16935.985879
 31
0.0
  0
LINE
  5
4DE3
  8
2-0
  6
CONTINUOUS
 62
     3
 10
24298.854676999981
 20
16953.981681999991
 30
0.0
 11
24298.854676999981
 21
16935.985879
 31
0.0
  0
LINE
  5
4DE4
  8
2-0
  6
CONTINUOUS
 62
     3
 10
24323.85203699999
 20
16953.981681999991
 30
0.0
 11
24298.854676999981
 21
16953.981681999991
 31
0.0
  0
LINE
  5
4DE5
  8
2-0
  6
CONTINUOUS
 62
     3
 10
24323.85203699999
 20
16948.981417999988
 30
0.0
 11
24323.85203699999
 21
16953.981681999991
 31
0.0
  0
LINE
  5
4DE6
  8
2-0
  6
CONTINUOUS
 62
     3
 10
24316.850480000008
 20
16948.981417999988
 30
0.0
 11
24323.85203699999
 21
16948.981417999988
 31
0.0
  0
LINE
  5
4DE7
  8
2-0
  6
CONTINUOUS
 62
     3
 10
24316.850480000008
 20
16244.49918749998
 30
0.0
 11
24323.85203699999
 21
16244.49918749998
 31
0.0
  0
LINE
  5
4DE8
  8
2-0
  6
CONTINUOUS
 62
     3
 10
24323.85203699999
 20
16244.49918749998
 30
0.0
 11
24323.85203699999
 21
16249.49945149998
 31
0.0
  0
LINE
  5
4DE9
  8
2-0
  6
CONTINUOUS
 62
     3
 10
24323.85203699999
 20
16249.49945149998
 30
0.0
 11
24298.854676999981
 21
16249.49945149998
 31
0.0
  0
LINE
  5
4DEA
  8
2-0
  6
CONTINUOUS
 62
     3
 10
24298.854676999981
 20
16249.49945149998
 30
0.0
 11
24298.854676999981
 21
16231.49770949999
 31
0.0
  0
LINE
  5
4DEB
  8
2-0
  6
CONTINUOUS
 62
     3
 10
24298.854676999981
 20
16231.49770949999
 30
0.0
 11
24328.85230100001
 21
16231.49770949999
 31
0.0
  0
LINE
  5
4DEC
  8
2-0
  6
CONTINUOUS
 62
     3
 10
24298.854676999981
 20
16247.59515449999
 30
0.0
 11
24298.854676999981
 21
16241.598203499991
 31
0.0
  0
LINE
  5
4DED
  8
2-0
  6
CONTINUOUS
 62
     3
 10
24298.854676999981
 20
16241.598203499991
 30
0.0
 11
24328.85230100001
 21
16241.598203499991
 31
0.0
  0
LINE
  5
4DEE
  8
2-0
  6
CONTINUOUS
 62
     3
 10
24328.85230100001
 20
16241.598203499991
 30
0.0
 11
24328.85230100001
 21
16278.59837449999
 31
0.0
  0
LINE
  5
4DEF
  8
2-0
  6
CONTINUOUS
 62
     3
 10
24298.854676999981
 20
16278.59837449999
 30
0.0
 11
24328.85230100001
 21
16278.59837449999
 31
0.0
  0
LINE
  5
4DF0
  8
2-0
  6
CONTINUOUS
 62
     3
 10
24298.854676999981
 20
16272.595484499991
 30
0.0
 11
24298.854676999981
 21
16278.59837449999
 31
0.0
  0
LINE
  5
4DF1
  8
2-0
  6
CONTINUOUS
 62
     3
 10
24298.854676999981
 20
16288.69391949999
 30
0.0
 11
24328.85230100001
 21
16288.69391949999
 31
0.0
  0
LINE
  5
4DF2
  8
2-0
  6
CONTINUOUS
 62
     3
 10
24298.854676999981
 20
16270.68623849998
 30
0.0
 11
24298.854676999981
 21
16288.69391949999
 31
0.0
  0
LINE
  5
4DF3
  8
2-0
  6
CONTINUOUS
 62
     3
 10
24323.85203699999
 20
16270.68623849998
 30
0.0
 11
24298.854676999981
 21
16270.68623849998
 31
0.0
  0
LINE
  5
4DF4
  8
2-0
  6
CONTINUOUS
 62
     3
 10
24323.85203699999
 20
16275.69244149999
 30
0.0
 11
24323.85203699999
 21
16270.68623849998
 31
0.0
  0
LINE
  5
4DF5
  8
2-0
  6
CONTINUOUS
 62
     3
 10
24316.850480000008
 20
16275.69244149999
 30
0.0
 11
24323.85203699999
 21
16275.69244149999
 31
0.0
  0
LINE
  5
4DF6
  8
2-0
  6
CONTINUOUS
 62
     3
 10
24316.850480000008
 20
15574.93245799999
 30
0.0
 11
24323.85203699999
 21
15574.93245799999
 31
0.0
  0
LINE
  5
4DF7
  8
2-0
  6
CONTINUOUS
 62
     3
 10
24323.85203699999
 20
15574.93245799999
 30
0.0
 11
24323.85203699999
 21
15569.938133
 31
0.0
  0
LINE
  5
4DF8
  8
2-0
  6
CONTINUOUS
 62
     3
 10
24323.85203699999
 20
15569.938133
 30
0.0
 11
24298.854676999981
 21
15569.938133
 31
0.0
  0
LINE
  5
4DF9
  8
2-0
  6
CONTINUOUS
 62
     3
 10
24298.854676999981
 20
15569.938133
 30
0.0
 11
24298.854676999981
 21
15587.93393600001
 31
0.0
  0
LINE
  5
4DFA
  8
2-0
  6
CONTINUOUS
 62
     3
 10
24298.854676999981
 20
15587.93393600001
 30
0.0
 11
24328.85230100001
 21
15587.93393600001
 31
0.0
  0
LINE
  5
4DFB
  8
2-0
  6
CONTINUOUS
 62
     3
 10
24298.854676999981
 20
15571.836491
 30
0.0
 11
24298.854676999981
 21
15577.83839100001
 31
0.0
  0
LINE
  5
4DFC
  8
2-0
  6
CONTINUOUS
 62
     3
 10
24298.854676999981
 20
15577.83839100001
 30
0.0
 11
24328.85230100001
 21
15577.83839100001
 31
0.0
  0
LINE
  5
4DFD
  8
2-0
  6
CONTINUOUS
 62
     3
 10
24328.85230100001
 20
15540.83921
 30
0.0
 11
24328.85230100001
 21
15577.83839100001
 31
0.0
  0
LINE
  5
4DFE
  8
2-0
  6
CONTINUOUS
 62
     3
 10
24298.854676999981
 20
15540.83921
 30
0.0
 11
24328.85230100001
 21
15540.83921
 31
0.0
  0
LINE
  5
4DFF
  8
2-0
  6
CONTINUOUS
 62
     3
 10
24298.854676999981
 20
15546.83616099999
 30
0.0
 11
24298.854676999981
 21
15540.83921
 31
0.0
  0
LINE
  5
4E00
  8
2-0
  6
CONTINUOUS
 62
     3
 10
24298.854676999981
 20
15530.73772599999
 30
0.0
 11
24328.85230100001
 21
15530.73772599999
 31
0.0
  0
LINE
  5
4E01
  8
2-0
  6
CONTINUOUS
 62
     3
 10
24298.854676999981
 20
15548.74540699998
 30
0.0
 11
24298.854676999981
 21
15530.73772599999
 31
0.0
  0
LINE
  5
4E02
  8
2-0
  6
CONTINUOUS
 62
     3
 10
24323.85203699999
 20
15548.74540699998
 30
0.0
 11
24298.854676999981
 21
15548.74540699998
 31
0.0
  0
LINE
  5
4E03
  8
2-0
  6
CONTINUOUS
 62
     3
 10
24323.85203699999
 20
15543.745143
 30
0.0
 11
24323.85203699999
 21
15548.74540699998
 31
0.0
  0
LINE
  5
4E04
  8
2-0
  6
CONTINUOUS
 62
     3
 10
24316.850480000008
 20
15543.745143
 30
0.0
 11
24323.85203699999
 21
15543.745143
 31
0.0
  0
LINE
  5
4E05
  8
2-0
  6
CONTINUOUS
 62
     3
 10
24328.85230100001
 20
16935.985879
 30
0.0
 11
24328.85230100001
 21
16288.69391949999
 31
0.0
  0
LINE
  5
4E06
  8
2-0
  6
CONTINUOUS
 62
     3
 10
24328.85230100001
 20
17090.596176999989
 30
0.0
 11
24328.85230100001
 21
16945.594462000001
 31
0.0
  0
LINE
  5
4E07
  8
2-0
  6
CONTINUOUS
 62
     3
 10
24240.969593999991
 20
17060.596572999992
 30
0.0
 11
24240.969593999991
 21
16975.600005
 31
0.0
  0
LINE
  5
4E08
  8
0-3
  6
CONTINUOUS
 62
     6
 10
22702.760926999981
 20
18829.04383849998
 30
0.0
 11
23727.793258999991
 21
18829.04383849998
 31
0.0
  0
LINE
  5
4E09
  8
2-0
  6
CONTINUOUS
 62
     3
 10
24316.850480000008
 20
14842.50413599999
 30
0.0
 11
24323.85203699999
 21
14842.50413599999
 31
0.0
  0
LINE
  5
4E0A
  8
2-0
  6
CONTINUOUS
 62
     3
 10
24323.85203699999
 20
14842.50413599999
 30
0.0
 11
24323.85203699999
 21
14847.498462
 31
0.0
  0
LINE
  5
4E0B
  8
2-0
  6
CONTINUOUS
 62
     3
 10
24323.85203699999
 20
14847.498462
 30
0.0
 11
24298.854676999981
 21
14847.498462
 31
0.0
  0
LINE
  5
4E0C
  8
2-0
  6
CONTINUOUS
 62
     3
 10
24298.854676999981
 20
14847.498462
 30
0.0
 11
24298.854676999981
 21
14829.50265799999
 31
0.0
  0
LINE
  5
4E0D
  8
2-0
  6
CONTINUOUS
 62
     3
 10
24298.854676999981
 20
14829.50265799999
 30
0.0
 11
24328.85230100001
 21
14829.50265799999
 31
0.0
  0
LINE
  5
4E0E
  8
2-0
  6
CONTINUOUS
 62
     3
 10
24298.854676999981
 20
14845.601092999999
 30
0.0
 11
24298.854676999981
 21
14839.59820299999
 31
0.0
  0
LINE
  5
4E0F
  8
2-0
  6
CONTINUOUS
 62
     3
 10
24298.854676999981
 20
14839.59820299999
 30
0.0
 11
24328.85230100001
 21
14839.59820299999
 31
0.0
  0
LINE
  5
4E10
  8
2-0
  6
CONTINUOUS
 62
     3
 10
24328.85230100001
 20
14839.59820299999
 30
0.0
 11
24328.85230100001
 21
14876.59837499998
 31
0.0
  0
LINE
  5
4E11
  8
2-0
  6
CONTINUOUS
 62
     3
 10
24298.854676999981
 20
14876.59837499998
 30
0.0
 11
24328.85230100001
 21
14876.59837499998
 31
0.0
  0
LINE
  5
4E12
  8
2-0
  6
CONTINUOUS
 62
     3
 10
24298.854676999981
 20
14870.60142299998
 30
0.0
 11
24298.854676999981
 21
14876.59837499998
 31
0.0
  0
LINE
  5
4E13
  8
2-0
  6
CONTINUOUS
 62
     3
 10
24298.854676999981
 20
14886.698867999999
 30
0.0
 11
24328.85230100001
 21
14886.698867999999
 31
0.0
  0
LINE
  5
4E14
  8
2-0
  6
CONTINUOUS
 62
     3
 10
24298.854676999981
 20
14868.692177000001
 30
0.0
 11
24298.854676999981
 21
14886.698867999999
 31
0.0
  0
LINE
  5
4E15
  8
2-0
  6
CONTINUOUS
 62
     3
 10
24323.85203699999
 20
14868.692177000001
 30
0.0
 11
24298.854676999981
 21
14868.692177000001
 31
0.0
  0
LINE
  5
4E16
  8
2-0
  6
CONTINUOUS
 62
     3
 10
24323.85203699999
 20
14873.697389999999
 30
0.0
 11
24323.85203699999
 21
14868.692177000001
 31
0.0
  0
LINE
  5
4E17
  8
2-0
  6
CONTINUOUS
 62
     3
 10
24316.850480000008
 20
14873.697389999999
 30
0.0
 11
24323.85203699999
 21
14873.697389999999
 31
0.0
  0
LINE
  5
4E18
  8
2-0
  6
CONTINUOUS
 62
     3
 10
24298.854676999981
 20
13816.10021599999
 30
0.0
 11
24298.854676999981
 21
13822.10508499999
 31
0.0
  0
LINE
  5
4E19
  8
2-0
  6
CONTINUOUS
 62
     3
 10
24316.850480000008
 20
13819.13481799998
 30
0.0
 11
24323.85203699999
 21
13819.13481799998
 31
0.0
  0
LINE
  5
4E1A
  8
2-0
  6
CONTINUOUS
 62
     3
 10
24323.85203699999
 20
13819.13481799998
 30
0.0
 11
24323.85203699999
 21
13814.13752299997
 31
0.0
  0
LINE
  5
4E1B
  8
2-0
  6
CONTINUOUS
 62
     3
 10
24323.85203699999
 20
13814.13752299997
 30
0.0
 11
24298.854676999981
 21
13814.13752299997
 31
0.0
  0
LINE
  5
4E1C
  8
2-0
  6
CONTINUOUS
 62
     3
 10
24298.854676999981
 20
13814.13752299997
 30
0.0
 11
24298.854676999981
 21
13832.13629599999
 31
0.0
  0
LINE
  5
4E1D
  8
2-0
  6
CONTINUOUS
 62
     3
 10
24298.854676999981
 20
13832.13629599999
 30
0.0
 11
24328.85230100001
 21
13832.13629599999
 31
0.0
  0
LINE
  5
4E1E
  8
2-0
  6
CONTINUOUS
 62
     3
 10
24328.85230100001
 20
18505.693425000001
 30
0.0
 11
24328.85230100001
 21
19149.504142499991
 31
0.0
  0
LINE
  5
4E1F
  8
0-3
  6
CONTINUOUS
 62
     6
 10
25021.35718399999
 20
20708.599477000022
 30
0.0
 11
26221.351245999958
 21
20708.599477000022
 31
0.0
  0
LINE
  5
4E20
  8
0-3
  6
CONTINUOUS
 62
     6
 10
24159.324350999981
 20
19071.19834649999
 30
0.0
 11
23727.793258999991
 21
18829.04383849998
 31
0.0
  0
LINE
  5
4E21
  8
0-3
  6
CONTINUOUS
 62
     6
 10
24480.89318499999
 20
20121.27631400001
 30
0.0
 11
25021.35718399999
 21
20708.599477000022
 31
0.0
  0
LINE
  5
4E22
  8
2-0
  6
CONTINUOUS
 62
     3
 10
24328.85230100001
 20
16231.49770949999
 30
0.0
 11
24328.85230100001
 21
15587.93393600001
 31
0.0
  0
LINE
  5
4E23
  8
0-3
  6
CONTINUOUS
 62
     6
 10
24146.267446000002
 20
19094.457690499981
 30
0.0
 11
24298.854676999981
 21
19149.504142499991
 31
0.0
  0
LINE
  5
4E24
  8
0-3
  6
CONTINUOUS
 62
     6
 10
24298.854676999981
 20
19149.504142499991
 30
0.0
 11
24172.37333699999
 21
19047.94494249998
 31
0.0
  0
LINE
  5
4E25
  8
0-3
  6
CONTINUOUS
 62
     6
 10
24146.267446000002
 20
19094.457690499981
 30
0.0
 11
24172.37333699999
 21
19047.94494249998
 31
0.0
  0
LINE
  5
4E26
  8
0-3
  6
CONTINUOUS
 62
     6
 10
24172.37333699999
 20
19047.94494249998
 30
0.0
 11
24298.854676999981
 21
19149.504142499991
 31
0.0
  0
LINE
  5
4E27
  8
0-3
  6
CONTINUOUS
 62
     6
 10
24298.854676999981
 20
19149.504142499991
 30
0.0
 11
24146.267446000002
 21
19094.457690499981
 31
0.0
  0
LINE
  5
4E28
  8
0-3
  6
CONTINUOUS
 62
     6
 10
24146.267446000002
 20
19094.457690499981
 30
0.0
 11
24298.854676999981
 21
19149.504142499991
 31
0.0
  0
LINE
  5
4E29
  8
0-3
  6
CONTINUOUS
 62
     6
 10
24172.37333699999
 20
19047.94494249998
 30
0.0
 11
24298.854676999981
 21
19149.504142499991
 31
0.0
  0
LINE
  5
4E2A
  8
0-3
  6
CONTINUOUS
 62
     6
 10
24172.37333699999
 20
19047.94494249998
 30
0.0
 11
24146.267446000002
 21
19094.457690499981
 31
0.0
  0
LINE
  5
4E2B
  8
0-3
  6
CONTINUOUS
 62
     6
 10
24500.510214000009
 20
20103.215187000009
 30
0.0
 11
24372.548193999999
 21
20003.532568999999
 31
0.0
  0
LINE
  5
4E2C
  8
0-3
  6
CONTINUOUS
 62
     6
 10
24372.548193999999
 20
20003.532568999999
 30
0.0
 11
24461.262298999991
 21
20139.329524000001
 31
0.0
  0
LINE
  5
4E2D
  8
0-3
  6
CONTINUOUS
 62
     6
 10
24500.510214000009
 20
20103.215187000009
 30
0.0
 11
24461.262298999991
 21
20139.329524000001
 31
0.0
  0
LINE
  5
4E2E
  8
0-3
  6
CONTINUOUS
 62
     6
 10
24461.262298999991
 20
20139.329524000001
 30
0.0
 11
24372.548193999999
 21
20003.532568999999
 31
0.0
  0
LINE
  5
4E2F
  8
0-3
  6
CONTINUOUS
 62
     6
 10
24372.548193999999
 20
20003.532568999999
 30
0.0
 11
24500.510214000009
 21
20103.215187000009
 31
0.0
  0
LINE
  5
4E30
  8
0-3
  6
CONTINUOUS
 62
     6
 10
24500.510214000009
 20
20103.215187000009
 30
0.0
 11
24372.548193999999
 21
20003.532568999999
 31
0.0
  0
LINE
  5
4E31
  8
0-3
  6
CONTINUOUS
 62
     6
 10
24461.262298999991
 20
20139.329524000001
 30
0.0
 11
24372.548193999999
 21
20003.532568999999
 31
0.0
  0
LINE
  5
4E32
  8
0-3
  6
CONTINUOUS
 62
     6
 10
24461.262298999991
 20
20139.329524000001
 30
0.0
 11
24500.510214000009
 21
20103.215187000009
 31
0.0
  0
LINE
  5
4E33
  8
2-0
  6
CONTINUOUS
 62
     4
 10
24286.34807800001
 20
20058.598816999998
 30
0.0
 11
24286.34807800001
 21
20788.595782
 31
0.0
  0
LINE
  5
4E34
  8
0-3
  6
CONTINUOUS
 62
     6
 10
24115.250369000001
 20
15193.223901312491
 30
0.0
 11
24247.850401
 21
15099.795573312491
 31
0.0
  0
LINE
  5
4E35
  8
0-3
  6
CONTINUOUS
 62
     6
 10
24247.850401
 20
15099.795573312491
 30
0.0
 11
24092.117715
 21
15145.17108731249
 31
0.0
  0
LINE
  5
4E36
  8
0-3
  6
CONTINUOUS
 62
     6
 10
24115.250369000001
 20
15193.223901312491
 30
0.0
 11
24092.117715
 21
15145.17108731249
 31
0.0
  0
LINE
  5
4E37
  8
0-3
  6
CONTINUOUS
 62
     6
 10
24092.117715
 20
15145.17108731249
 30
0.0
 11
24247.850401
 21
15099.795573312491
 31
0.0
  0
LINE
  5
4E38
  8
0-3
  6
CONTINUOUS
 62
     6
 10
24247.850401
 20
15099.795573312491
 30
0.0
 11
24115.250369000001
 21
15193.223901312491
 31
0.0
  0
LINE
  5
4E39
  8
0-3
  6
CONTINUOUS
 62
     6
 10
24115.250369000001
 20
15193.223901312491
 30
0.0
 11
24247.850401
 21
15099.795573312491
 31
0.0
  0
LINE
  5
4E3A
  8
0-3
  6
CONTINUOUS
 62
     6
 10
24092.117715
 20
15145.17108731249
 30
0.0
 11
24247.850401
 21
15099.795573312491
 31
0.0
  0
LINE
  5
4E3B
  8
0-3
  6
CONTINUOUS
 62
     6
 10
24092.117715
 20
15145.17108731249
 30
0.0
 11
24115.250369000001
 21
15193.223901312491
 31
0.0
  0
LINE
  5
4E3C
  8
0-3
  6
CONTINUOUS
 62
     6
 10
24175.01401499999
 20
16656.053816000011
 30
0.0
 11
24328.85230100001
 21
16707.487647000002
 31
0.0
  0
LINE
  5
4E3D
  8
0-3
  6
CONTINUOUS
 62
     6
 10
24328.85230100001
 20
16707.487647000002
 30
0.0
 11
24200.01731399999
 21
16608.94721200001
 31
0.0
  0
LINE
  5
4E3E
  8
0-3
  6
CONTINUOUS
 62
     6
 10
24175.01401499999
 20
16656.053816000011
 30
0.0
 11
24200.01731399999
 21
16608.94721200001
 31
0.0
  0
LINE
  5
4E3F
  8
0-3
  6
CONTINUOUS
 62
     6
 10
24200.01731399999
 20
16608.94721200001
 30
0.0
 11
24328.85230100001
 21
16707.487647000002
 31
0.0
  0
LINE
  5
4E40
  8
0-3
  6
CONTINUOUS
 62
     6
 10
24328.85230100001
 20
16707.487647000002
 30
0.0
 11
24175.01401499999
 21
16656.053816000011
 31
0.0
  0
LINE
  5
4E41
  8
0-3
  6
CONTINUOUS
 62
     6
 10
24175.01401499999
 20
16656.053816000011
 30
0.0
 11
24328.85230100001
 21
16707.487647000002
 31
0.0
  0
LINE
  5
4E42
  8
0-3
  6
CONTINUOUS
 62
     6
 10
24200.01731399999
 20
16608.94721200001
 30
0.0
 11
24328.85230100001
 21
16707.487647000002
 31
0.0
  0
LINE
  5
4E43
  8
0-3
  6
CONTINUOUS
 62
     6
 10
24200.01731399999
 20
16608.94721200001
 30
0.0
 11
24175.01401499999
 21
16656.053816000011
 31
0.0
  0
LINE
  5
4E44
  8
0-3
  6
CONTINUOUS
 62
     6
 10
24041.077807999991
 20
17147.372308000009
 30
0.0
 11
24183.961438999992
 21
17070.596678999991
 31
0.0
  0
LINE
  5
4E45
  8
0-3
  6
CONTINUOUS
 62
     6
 10
24183.961438999992
 20
17070.596678999991
 30
0.0
 11
24023.899546000001
 21
17096.87874800001
 31
0.0
  0
LINE
  5
4E46
  8
0-3
  6
CONTINUOUS
 62
     6
 10
24041.077807999991
 20
17147.372308000009
 30
0.0
 11
24023.899546000001
 21
17096.87874800001
 31
0.0
  0
LINE
  5
4E47
  8
0-3
  6
CONTINUOUS
 62
     6
 10
24023.899546000001
 20
17096.87874800001
 30
0.0
 11
24183.961438999992
 21
17070.596678999991
 31
0.0
  0
LINE
  5
4E48
  8
0-3
  6
CONTINUOUS
 62
     6
 10
24183.961438999992
 20
17070.596678999991
 30
0.0
 11
24041.077807999991
 21
17147.372308000009
 31
0.0
  0
LINE
  5
4E49
  8
0-3
  6
CONTINUOUS
 62
     6
 10
24041.077807999991
 20
17147.372308000009
 30
0.0
 11
24183.961438999992
 21
17070.596678999991
 31
0.0
  0
LINE
  5
4E4A
  8
0-3
  6
CONTINUOUS
 62
     6
 10
24023.899546000001
 20
17096.87874800001
 30
0.0
 11
24183.961438999992
 21
17070.596678999991
 31
0.0
  0
LINE
  5
4E4B
  8
0-3
  6
CONTINUOUS
 62
     6
 10
24023.899546000001
 20
17096.87874800001
 30
0.0
 11
24041.077807999991
 21
17147.372308000009
 31
0.0
  0
LINE
  5
4E4C
  8
2-0
  6
CONTINUOUS
 62
     3
 10
20979.450604250022
 20
19978.59657400001
 30
0.0
 11
20942.449442250021
 21
19978.59657400001
 31
0.0
  0
LINE
  5
4E4D
  8
2-0
  6
CONTINUOUS
 62
     3
 10
20979.450604250022
 20
19948.593011000001
 30
0.0
 11
20979.450604250022
 21
19978.59657400001
 31
0.0
  0
LINE
  5
4E4E
  8
2-0
  6
CONTINUOUS
 62
     3
 10
20973.450683250008
 20
19948.593011000001
 30
0.0
 11
20979.450604250022
 21
19948.593011000001
 31
0.0
  0
LINE
  5
4E4F
  8
2-0
  6
CONTINUOUS
 62
     3
 10
20989.54812825003
 20
19948.593011000001
 30
0.0
 11
20989.54812825003
 21
19978.59657400001
 31
0.0
  0
LINE
  5
4E50
  8
2-0
  6
CONTINUOUS
 62
     3
 10
20971.544407250021
 20
19948.593011000001
 30
0.0
 11
20989.54812825003
 21
19948.593011000001
 31
0.0
  0
LINE
  5
4E51
  8
2-0
  6
CONTINUOUS
 62
     3
 10
20971.544407250021
 20
19973.60224800001
 30
0.0
 11
20971.544407250021
 21
19948.593011000001
 31
0.0
  0
LINE
  5
4E52
  8
2-0
  6
CONTINUOUS
 62
     3
 10
20976.54467125002
 20
19973.60224800001
 30
0.0
 11
20971.544407250021
 21
19973.60224800001
 31
0.0
  0
LINE
  5
4E53
  8
2-0
  6
CONTINUOUS
 62
     3
 10
20976.54467125002
 20
19966.596732000002
 30
0.0
 11
20976.54467125002
 21
19973.60224800001
 31
0.0
  0
LINE
  5
4E54
  8
2-0
  6
CONTINUOUS
 62
     3
 10
20945.355376250031
 20
19966.596732000002
 30
0.0
 11
20945.355376250031
 21
19973.60224800001
 31
0.0
  0
LINE
  5
4E55
  8
2-0
  6
CONTINUOUS
 62
     3
 10
20945.355376250031
 20
19973.60224800001
 30
0.0
 11
20950.355640250022
 21
19973.60224800001
 31
0.0
  0
LINE
  5
4E56
  8
2-0
  6
CONTINUOUS
 62
     3
 10
20950.355640250022
 20
19973.60224800001
 30
0.0
 11
20950.355640250022
 21
19948.593011000001
 31
0.0
  0
LINE
  5
4E57
  8
2-0
  6
CONTINUOUS
 62
     3
 10
20950.355640250022
 20
19948.593011000001
 30
0.0
 11
20932.355877250018
 21
19948.593011000001
 31
0.0
  0
LINE
  5
4E58
  8
2-0
  6
CONTINUOUS
 62
     3
 10
20932.355877250018
 20
19948.593011000001
 30
0.0
 11
20932.355877250018
 21
19978.59657400001
 31
0.0
  0
LINE
  5
4E59
  8
2-0
  6
CONTINUOUS
 62
     3
 10
20948.449363250031
 20
19948.593011000001
 30
0.0
 11
20942.449442250021
 21
19948.593011000001
 31
0.0
  0
LINE
  5
4E5A
  8
2-0
  6
CONTINUOUS
 62
     3
 10
20942.449442250021
 20
19948.593011000001
 30
0.0
 11
20942.449442250021
 21
19978.59657400001
 31
0.0
  0
LINE
  5
4E5B
  8
2-0
  6
CONTINUOUS
 62
     3
 10
18788.34939800002
 20
19869.596363000001
 30
0.0
 11
18788.34939800002
 21
19863.600401
 31
0.0
  0
LINE
  5
4E5C
  8
2-0
  6
CONTINUOUS
 62
     3
 10
18788.34939800002
 20
19863.600401
 30
0.0
 11
18758.351772999991
 21
19863.600401
 31
0.0
  0
LINE
  5
4E5D
  8
2-0
  6
CONTINUOUS
 62
     3
 10
18758.351772999991
 20
19863.600401
 30
0.0
 11
18758.351772999991
 21
19978.59657400001
 31
0.0
  0
LINE
  5
4E5E
  8
2-0
  6
CONTINUOUS
 62
     3
 10
18758.351772999991
 20
19893.600004999989
 30
0.0
 11
18839.349714
 21
19893.600004999989
 31
0.0
  0
LINE
  5
4E5F
  8
2-0
  6
CONTINUOUS
 62
     3
 10
18788.34939800002
 20
19853.302944999989
 30
0.0
 11
18758.351772999991
 21
19853.302944999989
 31
0.0
  0
LINE
  5
4E60
  8
2-0
  6
CONTINUOUS
 62
     3
 10
18788.34939800002
 20
19871.304687
 30
0.0
 11
18788.34939800002
 21
19853.302944999989
 31
0.0
  0
LINE
  5
4E61
  8
2-0
  6
CONTINUOUS
 62
     3
 10
18763.355995999991
 20
19871.304687
 30
0.0
 11
18788.34939800002
 21
19871.304687
 31
0.0
  0
LINE
  5
4E62
  8
2-0
  6
CONTINUOUS
 62
     3
 10
18763.355995999991
 20
19866.296504999991
 30
0.0
 11
18763.355995999991
 21
19871.304687
 31
0.0
  0
LINE
  5
4E63
  8
2-0
  6
CONTINUOUS
 62
     3
 10
18770.353593999989
 20
19866.296504999991
 30
0.0
 11
18763.355995999991
 21
19866.296504999991
 31
0.0
  0
LINE
  5
4E64
  8
2-0
  6
CONTINUOUS
 62
     3
 10
18870.647883000001
 20
19966.596732000002
 30
0.0
 11
18870.647883000001
 21
19973.60224800001
 31
0.0
  0
LINE
  5
4E65
  8
2-0
  6
CONTINUOUS
 62
     3
 10
18870.647883000001
 20
19973.60224800001
 30
0.0
 11
18865.645639000031
 21
19973.60224800001
 31
0.0
  0
LINE
  5
4E66
  8
2-0
  6
CONTINUOUS
 62
     3
 10
18865.645639000031
 20
19973.60224800001
 30
0.0
 11
18865.645639000031
 21
19948.593011000001
 31
0.0
  0
LINE
  5
4E67
  8
2-0
  6
CONTINUOUS
 62
     3
 10
18865.645639000031
 20
19948.593011000001
 30
0.0
 11
18883.653320000001
 21
19948.593011000001
 31
0.0
  0
LINE
  5
4E68
  8
2-0
  6
CONTINUOUS
 62
     3
 10
18883.653320000001
 20
19948.593011000001
 30
0.0
 11
18883.653320000001
 21
19978.59657400001
 31
0.0
  0
LINE
  5
4E69
  8
2-0
  6
CONTINUOUS
 62
     3
 10
18873.353884
 20
19978.59657400001
 30
0.0
 11
18758.351772999991
 21
19978.59657400001
 31
0.0
  0
LINE
  5
4E6A
  8
2-0
  6
CONTINUOUS
 62
     3
 10
18873.353884
 20
19948.593011000001
 30
0.0
 11
18873.353884
 21
19978.59657400001
 31
0.0
  0
LINE
  5
4E6B
  8
2-0
  6
CONTINUOUS
 62
     3
 10
18867.350005000011
 20
19948.593011000001
 30
0.0
 11
18873.353884
 21
19948.593011000001
 31
0.0
  0
LINE
  5
4E6C
  8
2-0
  6
CONTINUOUS
 62
     3
 10
20244.349437750039
 20
19966.596732000002
 30
0.0
 11
20244.349437750039
 21
19973.60224800001
 31
0.0
  0
LINE
  5
4E6D
  8
2-0
  6
CONTINUOUS
 62
     3
 10
20244.349437750039
 20
19973.60224800001
 30
0.0
 11
20249.34970075003
 21
19973.60224800001
 31
0.0
  0
LINE
  5
4E6E
  8
2-0
  6
CONTINUOUS
 62
     3
 10
20249.34970075003
 20
19973.60224800001
 30
0.0
 11
20249.34970075003
 21
19948.593011000001
 31
0.0
  0
LINE
  5
4E6F
  8
2-0
  6
CONTINUOUS
 62
     3
 10
20249.34970075003
 20
19948.593011000001
 30
0.0
 11
20231.355877750011
 21
19948.593011000001
 31
0.0
  0
LINE
  5
4E70
  8
2-0
  6
CONTINUOUS
 62
     3
 10
20231.355877750011
 20
19948.593011000001
 30
0.0
 11
20231.355877750011
 21
19978.59657400001
 31
0.0
  0
LINE
  5
4E71
  8
2-0
  6
CONTINUOUS
 62
     3
 10
20247.44738375003
 20
19948.593011000001
 30
0.0
 11
20241.449442750021
 21
19948.593011000001
 31
0.0
  0
LINE
  5
4E72
  8
2-0
  6
CONTINUOUS
 62
     3
 10
20241.449442750021
 20
19948.593011000001
 30
0.0
 11
20241.449442750021
 21
19978.59657400001
 31
0.0
  0
LINE
  5
4E73
  8
2-0
  6
CONTINUOUS
 62
     3
 10
20278.450603750021
 20
19978.59657400001
 30
0.0
 11
20241.449442750021
 21
19978.59657400001
 31
0.0
  0
LINE
  5
4E74
  8
2-0
  6
CONTINUOUS
 62
     3
 10
20278.450603750021
 20
19948.593011000001
 30
0.0
 11
20278.450603750021
 21
19978.59657400001
 31
0.0
  0
LINE
  5
4E75
  8
2-0
  6
CONTINUOUS
 62
     3
 10
20272.444744750021
 20
19948.593011000001
 30
0.0
 11
20278.450603750021
 21
19948.593011000001
 31
0.0
  0
LINE
  5
4E76
  8
2-0
  6
CONTINUOUS
 62
     3
 10
20288.544168750032
 20
19948.593011000001
 30
0.0
 11
20288.544168750032
 21
19978.59657400001
 31
0.0
  0
LINE
  5
4E77
  8
2-0
  6
CONTINUOUS
 62
     3
 10
20270.548365750041
 20
19948.593011000001
 30
0.0
 11
20288.544168750032
 21
19948.593011000001
 31
0.0
  0
LINE
  5
4E78
  8
2-0
  6
CONTINUOUS
 62
     3
 10
20270.548365750041
 20
19973.60224800001
 30
0.0
 11
20270.548365750041
 21
19948.593011000001
 31
0.0
  0
LINE
  5
4E79
  8
2-0
  6
CONTINUOUS
 62
     3
 10
20275.538731750021
 20
19973.60224800001
 30
0.0
 11
20270.548365750041
 21
19973.60224800001
 31
0.0
  0
LINE
  5
4E7A
  8
2-0
  6
CONTINUOUS
 62
     3
 10
20275.538731750021
 20
19966.596732000002
 30
0.0
 11
20275.538731750021
 21
19973.60224800001
 31
0.0
  0
LINE
  5
4E7B
  8
2-0
  6
CONTINUOUS
 62
     3
 10
19587.543179250031
 20
19978.59657400001
 30
0.0
 11
20231.355877750011
 21
19978.59657400001
 31
0.0
  0
LINE
  5
4E7C
  8
2-0
  6
CONTINUOUS
 62
     3
 10
20932.355877250018
 20
19978.59657400001
 30
0.0
 11
20288.544168750032
 21
19978.59657400001
 31
0.0
  0
LINE
  5
4E7D
  8
2-0
  6
CONTINUOUS
 62
     3
 10
18788.34939800002
 20
19869.596363000001
 30
0.0
 11
18788.34939800002
 21
19863.600401
 31
0.0
  0
LINE
  5
4E7E
  8
2-0
  6
CONTINUOUS
 62
     3
 10
18788.34939800002
 20
19863.600401
 30
0.0
 11
18758.351772999991
 21
19863.600401
 31
0.0
  0
LINE
  5
4E7F
  8
2-0
  6
CONTINUOUS
 62
     3
 10
18758.351772999991
 20
19863.600401
 30
0.0
 11
18758.351772999991
 21
19978.59657400001
 31
0.0
  0
LINE
  5
4E80
  8
2-0
  6
CONTINUOUS
 62
     3
 10
18758.351772999991
 20
19893.600004999989
 30
0.0
 11
18839.349714
 21
19893.600004999989
 31
0.0
  0
LINE
  5
4E81
  8
2-0
  6
CONTINUOUS
 62
     3
 10
18788.34939800002
 20
19853.302944999989
 30
0.0
 11
18758.351772999991
 21
19853.302944999989
 31
0.0
  0
LINE
  5
4E82
  8
2-0
  6
CONTINUOUS
 62
     3
 10
18788.34939800002
 20
19871.304687
 30
0.0
 11
18788.34939800002
 21
19853.302944999989
 31
0.0
  0
LINE
  5
4E83
  8
2-0
  6
CONTINUOUS
 62
     3
 10
18763.355995999991
 20
19871.304687
 30
0.0
 11
18788.34939800002
 21
19871.304687
 31
0.0
  0
LINE
  5
4E84
  8
2-0
  6
CONTINUOUS
 62
     3
 10
18763.355995999991
 20
19866.296504999991
 30
0.0
 11
18763.355995999991
 21
19871.304687
 31
0.0
  0
LINE
  5
4E85
  8
2-0
  6
CONTINUOUS
 62
     3
 10
18770.353593999989
 20
19866.296504999991
 30
0.0
 11
18763.355995999991
 21
19866.296504999991
 31
0.0
  0
LINE
  5
4E86
  8
2-0
  6
CONTINUOUS
 62
     3
 10
18770.353593999989
 20
19162.49968249998
 30
0.0
 11
18763.355995999991
 21
19162.49968249998
 31
0.0
  0
LINE
  5
4E87
  8
2-0
  6
CONTINUOUS
 62
     3
 10
18763.355995999991
 20
19162.49968249998
 30
0.0
 11
18763.355995999991
 21
19167.499946499989
 31
0.0
  0
LINE
  5
4E88
  8
2-0
  6
CONTINUOUS
 62
     3
 10
18763.355995999991
 20
19167.499946499989
 30
0.0
 11
18788.34939800002
 21
19167.499946499989
 31
0.0
  0
LINE
  5
4E89
  8
2-0
  6
CONTINUOUS
 62
     3
 10
18788.34939800002
 20
19167.499946499989
 30
0.0
 11
18788.34939800002
 21
19149.504142499991
 31
0.0
  0
LINE
  5
4E8A
  8
2-0
  6
CONTINUOUS
 62
     3
 10
18788.34939800002
 20
19149.504142499991
 30
0.0
 11
18758.351772999991
 21
19149.504142499991
 31
0.0
  0
LINE
  5
4E8B
  8
2-0
  6
CONTINUOUS
 62
     3
 10
18788.34939800002
 20
19165.59564949997
 30
0.0
 11
18788.34939800002
 21
19159.59770849999
 31
0.0
  0
LINE
  5
4E8C
  8
2-0
  6
CONTINUOUS
 62
     3
 10
18788.34939800002
 20
19159.59770849999
 30
0.0
 11
18758.351772999991
 21
19159.59770849999
 31
0.0
  0
LINE
  5
4E8D
  8
2-0
  6
CONTINUOUS
 62
     3
 10
18758.351772999991
 20
19159.59770849999
 30
0.0
 11
18758.351772999991
 21
19196.598869499991
 31
0.0
  0
LINE
  5
4E8E
  8
2-0
  6
CONTINUOUS
 62
     3
 10
18788.34939800002
 20
19196.598869499991
 30
0.0
 11
18758.351772999991
 21
19196.598869499991
 31
0.0
  0
LINE
  5
4E8F
  8
2-0
  6
CONTINUOUS
 62
     3
 10
18788.34939800002
 20
19190.594989499961
 30
0.0
 11
18788.34939800002
 21
19196.598869499991
 31
0.0
  0
LINE
  5
4E90
  8
2-0
  6
CONTINUOUS
 62
     3
 10
18788.34939800002
 20
19206.69441449998
 30
0.0
 11
18758.351772999991
 21
19206.69441449998
 31
0.0
  0
LINE
  5
4E91
  8
2-0
  6
CONTINUOUS
 62
     3
 10
18788.34939800002
 20
19188.69267249999
 30
0.0
 11
18788.34939800002
 21
19206.69441449998
 31
0.0
  0
LINE
  5
4E92
  8
2-0
  6
CONTINUOUS
 62
     3
 10
18763.355995999991
 20
19188.69267249999
 30
0.0
 11
18788.34939800002
 21
19188.69267249999
 31
0.0
  0
LINE
  5
4E93
  8
2-0
  6
CONTINUOUS
 62
     3
 10
18763.355995999991
 20
19193.692936499981
 30
0.0
 11
18763.355995999991
 21
19188.69267249999
 31
0.0
  0
LINE
  5
4E94
  8
2-0
  6
CONTINUOUS
 62
     3
 10
18770.353593999989
 20
19193.692936499981
 30
0.0
 11
18763.355995999991
 21
19193.692936499981
 31
0.0
  0
LINE
  5
4E95
  8
2-0
  6
CONTINUOUS
 62
     3
 10
18770.353593999989
 20
18461.499682999991
 30
0.0
 11
18763.355995999991
 21
18461.499682999991
 31
0.0
  0
LINE
  5
4E96
  8
2-0
  6
CONTINUOUS
 62
     3
 10
18763.355995999991
 20
18461.499682999991
 30
0.0
 11
18763.355995999991
 21
18466.505884999991
 31
0.0
  0
LINE
  5
4E97
  8
2-0
  6
CONTINUOUS
 62
     3
 10
18763.355995999991
 20
18466.505884999991
 30
0.0
 11
18788.34939800002
 21
18466.505884999991
 31
0.0
  0
LINE
  5
4E98
  8
2-0
  6
CONTINUOUS
 62
     3
 10
18788.34939800002
 20
18466.505884999991
 30
0.0
 11
18788.34939800002
 21
18448.504142999991
 31
0.0
  0
LINE
  5
4E99
  8
2-0
  6
CONTINUOUS
 62
     3
 10
18788.34939800002
 20
18448.504142999991
 30
0.0
 11
18758.351772999991
 21
18448.504142999991
 31
0.0
  0
LINE
  5
4E9A
  8
2-0
  6
CONTINUOUS
 62
     3
 10
18788.34939800002
 20
18464.595649999981
 30
0.0
 11
18788.34939800002
 21
18458.599687999991
 31
0.0
  0
LINE
  5
4E9B
  8
2-0
  6
CONTINUOUS
 62
     3
 10
18788.34939800002
 20
18458.599687999991
 30
0.0
 11
18758.351772999991
 21
18458.599687999991
 31
0.0
  0
LINE
  5
4E9C
  8
2-0
  6
CONTINUOUS
 62
     3
 10
18758.351772999991
 20
18458.599687999991
 30
0.0
 11
18758.351772999991
 21
18495.598869999991
 31
0.0
  0
LINE
  5
4E9D
  8
2-0
  6
CONTINUOUS
 62
     3
 10
18788.34939800002
 20
18495.598869999991
 30
0.0
 11
18758.351772999991
 21
18495.598869999991
 31
0.0
  0
LINE
  5
4E9E
  8
2-0
  6
CONTINUOUS
 62
     3
 10
18788.34939800002
 20
18489.602908000001
 30
0.0
 11
18788.34939800002
 21
18495.598869999991
 31
0.0
  0
LINE
  5
4E9F
  8
2-0
  6
CONTINUOUS
 62
     3
 10
18788.34939800002
 20
18505.694415000002
 30
0.0
 11
18758.351772999991
 21
18505.694415000002
 31
0.0
  0
LINE
  5
4EA0
  8
2-0
  6
CONTINUOUS
 62
     3
 10
18788.34939800002
 20
18487.69267299999
 30
0.0
 11
18788.34939800002
 21
18505.694415000002
 31
0.0
  0
LINE
  5
4EA1
  8
2-0
  6
CONTINUOUS
 62
     3
 10
18763.355995999991
 20
18487.69267299999
 30
0.0
 11
18788.34939800002
 21
18487.69267299999
 31
0.0
  0
LINE
  5
4EA2
  8
2-0
  6
CONTINUOUS
 62
     3
 10
18763.355995999991
 20
18492.698874999991
 30
0.0
 11
18763.355995999991
 21
18487.69267299999
 31
0.0
  0
LINE
  5
4EA3
  8
2-0
  6
CONTINUOUS
 62
     3
 10
18770.353593999989
 20
18492.698874999991
 30
0.0
 11
18763.355995999991
 21
18492.698874999991
 31
0.0
  0
LINE
  5
4EA4
  8
2-0
  6
CONTINUOUS
 62
     3
 10
18770.353593999989
 20
17791.691946999981
 30
0.0
 11
18763.355995999991
 21
17791.691946999981
 31
0.0
  0
LINE
  5
4EA5
  8
2-0
  6
CONTINUOUS
 62
     3
 10
18763.355995999991
 20
17791.691946999981
 30
0.0
 11
18763.355995999991
 21
17786.703559999991
 31
0.0
  0
LINE
  5
4EA6
  8
2-0
  6
CONTINUOUS
 62
     3
 10
18763.355995999991
 20
17786.703559999991
 30
0.0
 11
18788.34939800002
 21
17786.703559999991
 31
0.0
  0
LINE
  5
4EA7
  8
2-0
  6
CONTINUOUS
 62
     3
 10
18788.34939800002
 20
17786.703559999991
 30
0.0
 11
18788.34939800002
 21
17804.699362999982
 31
0.0
  0
LINE
  5
4EA8
  8
2-0
  6
CONTINUOUS
 62
     3
 10
18788.34939800002
 20
17804.699362999982
 30
0.0
 11
18758.351772999991
 21
17804.699362999982
 31
0.0
  0
LINE
  5
4EA9
  8
2-0
  6
CONTINUOUS
 62
     3
 10
18788.34939800002
 20
17788.601917999989
 30
0.0
 11
18788.34939800002
 21
17794.597879999968
 31
0.0
  0
LINE
  5
4EAA
  8
2-0
  6
CONTINUOUS
 62
     3
 10
18788.34939800002
 20
17794.597879999968
 30
0.0
 11
18758.351772999991
 21
17794.597879999968
 31
0.0
  0
LINE
  5
4EAB
  8
2-0
  6
CONTINUOUS
 62
     3
 10
18758.351772999991
 20
17794.597879999968
 30
0.0
 11
18758.351772999991
 21
17757.598697999991
 31
0.0
  0
LINE
  5
4EAC
  8
2-0
  6
CONTINUOUS
 62
     3
 10
18788.34939800002
 20
17757.598697999991
 30
0.0
 11
18758.351772999991
 21
17757.598697999991
 31
0.0
  0
LINE
  5
4EAD
  8
2-0
  6
CONTINUOUS
 62
     3
 10
18788.34939800002
 20
17763.600598999979
 30
0.0
 11
18788.34939800002
 21
17757.598697999991
 31
0.0
  0
LINE
  5
4EAE
  8
2-0
  6
CONTINUOUS
 62
     3
 10
18788.34939800002
 20
17747.509091999989
 30
0.0
 11
18758.351772999991
 21
17747.509091999989
 31
0.0
  0
LINE
  5
4EAF
  8
2-0
  6
CONTINUOUS
 62
     3
 10
18788.34939800002
 20
17765.504894999991
 30
0.0
 11
18788.34939800002
 21
17747.509091999989
 31
0.0
  0
LINE
  5
4EB0
  8
2-0
  6
CONTINUOUS
 62
     3
 10
18763.355995999991
 20
17765.504894999991
 30
0.0
 11
18788.34939800002
 21
17765.504894999991
 31
0.0
  0
LINE
  5
4EB1
  8
2-0
  6
CONTINUOUS
 62
     3
 10
18763.355995999991
 20
17760.504631999978
 30
0.0
 11
18763.355995999991
 21
17765.504894999991
 31
0.0
  0
LINE
  5
4EB2
  8
2-0
  6
CONTINUOUS
 62
     3
 10
18770.353593999989
 20
17760.504631999978
 30
0.0
 11
18763.355995999991
 21
17760.504631999978
 31
0.0
  0
LINE
  5
4EB3
  8
2-0
  6
CONTINUOUS
 62
     3
 10
18761.237911
 20
17040.595517999991
 30
0.0
 11
18761.237911
 21
17060.596572999992
 31
0.0
  0
LINE
  5
4EB4
  8
2-0
  6
CONTINUOUS
 62
     3
 10
18761.237911
 20
17060.596572999992
 30
0.0
 11
18846.238439000001
 21
17060.596572999992
 31
0.0
  0
LINE
  5
4EB5
  8
2-0
  6
CONTINUOUS
 62
     3
 10
18770.353593999989
 20
17087.203282999992
 30
0.0
 11
18763.355995999991
 21
17087.203282999992
 31
0.0
  0
LINE
  5
4EB6
  8
2-0
  6
CONTINUOUS
 62
     3
 10
18763.355995999991
 20
17087.203282999992
 30
0.0
 11
18763.355995999991
 21
17082.208956999999
 31
0.0
  0
LINE
  5
4EB7
  8
2-0
  6
CONTINUOUS
 62
     3
 10
18763.355995999991
 20
17082.208956999999
 30
0.0
 11
18788.34939800002
 21
17082.208956999999
 31
0.0
  0
LINE
  5
4EB8
  8
2-0
  6
CONTINUOUS
 62
     3
 10
18788.34939800002
 20
17082.208956999999
 30
0.0
 11
18788.34939800002
 21
17100.20476099999
 31
0.0
  0
LINE
  5
4EB9
  8
2-0
  6
CONTINUOUS
 62
     3
 10
18788.34939800002
 20
17100.20476099999
 30
0.0
 11
18758.351772999991
 21
17100.20476099999
 31
0.0
  0
LINE
  5
4EBA
  8
2-0
  6
CONTINUOUS
 62
     3
 10
18788.34939800002
 20
17090.596176999989
 30
0.0
 11
18788.34939800002
 21
17084.594276999978
 31
0.0
  0
LINE
  5
4EBB
  8
2-0
  6
CONTINUOUS
 62
     3
 10
18758.351772999991
 20
17090.596176999989
 30
0.0
 11
18788.34939800002
 21
17090.596176999989
 31
0.0
  0
LINE
  5
4EBC
  8
2-0
  6
CONTINUOUS
 62
     3
 10
18758.351772999991
 20
17100.20476099999
 30
0.0
 11
18758.351772999991
 21
17747.509091999989
 31
0.0
  0
LINE
  5
4EBD
  8
2-0
  6
CONTINUOUS
 62
     3
 10
18758.351772999991
 20
17804.699362999982
 30
0.0
 11
18758.351772999991
 21
18448.504142999991
 31
0.0
  0
LINE
  5
4EBE
  8
2-0
  6
CONTINUOUS
 62
     3
 10
18758.351772999991
 20
16945.59446199999
 30
0.0
 11
18788.34939800002
 21
16945.59446199999
 31
0.0
  0
LINE
  5
4EBF
  8
2-0
  6
CONTINUOUS
 62
     3
 10
18788.34939800002
 20
16945.59446199999
 30
0.0
 11
18788.34939800002
 21
16951.596362
 31
0.0
  0
LINE
  5
4EC0
  8
2-0
  6
CONTINUOUS
 62
     3
 10
18846.238439000001
 20
16975.600004999989
 30
0.0
 11
18761.237911
 21
16975.600004999989
 31
0.0
  0
LINE
  5
4EC1
  8
2-0
  6
CONTINUOUS
 62
     3
 10
18761.237911
 20
16975.600004999989
 30
0.0
 11
18761.237911
 21
16995.595121999999
 31
0.0
  0
LINE
  5
4EC2
  8
2-0
  6
CONTINUOUS
 62
     3
 10
18788.34939800002
 20
16935.985879
 30
0.0
 11
18758.351772999991
 21
16935.985879
 31
0.0
  0
LINE
  5
4EC3
  8
2-0
  6
CONTINUOUS
 62
     3
 10
18788.34939800002
 20
16953.98168199998
 30
0.0
 11
18788.34939800002
 21
16935.985879
 31
0.0
  0
LINE
  5
4EC4
  8
2-0
  6
CONTINUOUS
 62
     3
 10
18763.355995999991
 20
16953.98168199998
 30
0.0
 11
18788.34939800002
 21
16953.98168199998
 31
0.0
  0
LINE
  5
4EC5
  8
2-0
  6
CONTINUOUS
 62
     3
 10
18763.355995999991
 20
16948.981417999988
 30
0.0
 11
18763.355995999991
 21
16953.98168199998
 31
0.0
  0
LINE
  5
4EC6
  8
2-0
  6
CONTINUOUS
 62
     3
 10
18770.353593999989
 20
16948.981417999988
 30
0.0
 11
18763.355995999991
 21
16948.981417999988
 31
0.0
  0
LINE
  5
4EC7
  8
2-0
  6
CONTINUOUS
 62
     3
 10
18770.353593999989
 20
16244.49918749998
 30
0.0
 11
18763.355995999991
 21
16244.49918749998
 31
0.0
  0
LINE
  5
4EC8
  8
2-0
  6
CONTINUOUS
 62
     3
 10
18763.355995999991
 20
16244.49918749998
 30
0.0
 11
18763.355995999991
 21
16249.49945149998
 31
0.0
  0
LINE
  5
4EC9
  8
2-0
  6
CONTINUOUS
 62
     3
 10
18763.355995999991
 20
16249.49945149998
 30
0.0
 11
18788.34939800002
 21
16249.49945149998
 31
0.0
  0
LINE
  5
4ECA
  8
2-0
  6
CONTINUOUS
 62
     3
 10
18788.34939800002
 20
16249.49945149998
 30
0.0
 11
18788.34939800002
 21
16231.49770949999
 31
0.0
  0
LINE
  5
4ECB
  8
2-0
  6
CONTINUOUS
 62
     3
 10
18788.34939800002
 20
16231.49770949999
 30
0.0
 11
18758.351772999991
 21
16231.49770949999
 31
0.0
  0
LINE
  5
4ECC
  8
2-0
  6
CONTINUOUS
 62
     3
 10
18788.34939800002
 20
16247.59515449999
 30
0.0
 11
18788.34939800002
 21
16241.598203499991
 31
0.0
  0
LINE
  5
4ECD
  8
2-0
  6
CONTINUOUS
 62
     3
 10
18788.34939800002
 20
16241.598203499991
 30
0.0
 11
18758.351772999991
 21
16241.598203499991
 31
0.0
  0
LINE
  5
4ECE
  8
2-0
  6
CONTINUOUS
 62
     3
 10
18758.351772999991
 20
16241.598203499991
 30
0.0
 11
18758.351772999991
 21
16278.59837449999
 31
0.0
  0
LINE
  5
4ECF
  8
2-0
  6
CONTINUOUS
 62
     3
 10
18788.34939800002
 20
16278.59837449999
 30
0.0
 11
18758.351772999991
 21
16278.59837449999
 31
0.0
  0
LINE
  5
4ED0
  8
2-0
  6
CONTINUOUS
 62
     3
 10
18788.34939800002
 20
16272.595484499991
 30
0.0
 11
18788.34939800002
 21
16278.59837449999
 31
0.0
  0
LINE
  5
4ED1
  8
2-0
  6
CONTINUOUS
 62
     3
 10
18788.34939800002
 20
16288.69391949999
 30
0.0
 11
18758.351772999991
 21
16288.69391949999
 31
0.0
  0
LINE
  5
4ED2
  8
2-0
  6
CONTINUOUS
 62
     3
 10
18788.34939800002
 20
16270.68623849998
 30
0.0
 11
18788.34939800002
 21
16288.69391949999
 31
0.0
  0
LINE
  5
4ED3
  8
2-0
  6
CONTINUOUS
 62
     3
 10
18763.355995999991
 20
16270.68623849998
 30
0.0
 11
18788.34939800002
 21
16270.68623849998
 31
0.0
  0
LINE
  5
4ED4
  8
2-0
  6
CONTINUOUS
 62
     3
 10
18763.355995999991
 20
16275.69244149999
 30
0.0
 11
18763.355995999991
 21
16270.68623849998
 31
0.0
  0
LINE
  5
4ED5
  8
2-0
  6
CONTINUOUS
 62
     3
 10
18770.353593999989
 20
16275.69244149999
 30
0.0
 11
18763.355995999991
 21
16275.69244149999
 31
0.0
  0
LINE
  5
4ED6
  8
2-0
  6
CONTINUOUS
 62
     3
 10
18770.353593999989
 20
15574.93245799999
 30
0.0
 11
18763.355995999991
 21
15574.93245799999
 31
0.0
  0
LINE
  5
4ED7
  8
2-0
  6
CONTINUOUS
 62
     3
 10
18763.355995999991
 20
15574.93245799999
 30
0.0
 11
18763.355995999991
 21
15569.938133
 31
0.0
  0
LINE
  5
4ED8
  8
2-0
  6
CONTINUOUS
 62
     3
 10
18763.355995999991
 20
15569.938133
 30
0.0
 11
18788.34939800002
 21
15569.938133
 31
0.0
  0
LINE
  5
4ED9
  8
2-0
  6
CONTINUOUS
 62
     3
 10
18788.34939800002
 20
15569.938133
 30
0.0
 11
18788.34939800002
 21
15587.933935999999
 31
0.0
  0
LINE
  5
4EDA
  8
2-0
  6
CONTINUOUS
 62
     3
 10
18788.34939800002
 20
15587.933935999999
 30
0.0
 11
18758.351772999991
 21
15587.933935999999
 31
0.0
  0
LINE
  5
4EDB
  8
2-0
  6
CONTINUOUS
 62
     3
 10
18788.34939800002
 20
15571.836491
 30
0.0
 11
18788.34939800002
 21
15577.83839100001
 31
0.0
  0
LINE
  5
4EDC
  8
2-0
  6
CONTINUOUS
 62
     3
 10
18788.34939800002
 20
15577.83839100001
 30
0.0
 11
18758.351772999991
 21
15577.83839100001
 31
0.0
  0
LINE
  5
4EDD
  8
2-0
  6
CONTINUOUS
 62
     3
 10
18758.351772999991
 20
15540.83921
 30
0.0
 11
18758.351772999991
 21
15577.83839100001
 31
0.0
  0
LINE
  5
4EDE
  8
2-0
  6
CONTINUOUS
 62
     3
 10
18788.34939800002
 20
15540.83921
 30
0.0
 11
18758.351772999991
 21
15540.83921
 31
0.0
  0
LINE
  5
4EDF
  8
2-0
  6
CONTINUOUS
 62
     3
 10
18788.34939800002
 20
15546.83616099999
 30
0.0
 11
18788.34939800002
 21
15540.83921
 31
0.0
  0
LINE
  5
4EE0
  8
2-0
  6
CONTINUOUS
 62
     3
 10
18788.34939800002
 20
15530.73772599999
 30
0.0
 11
18758.351772999991
 21
15530.73772599999
 31
0.0
  0
LINE
  5
4EE1
  8
2-0
  6
CONTINUOUS
 62
     3
 10
18788.34939800002
 20
15548.74540699998
 30
0.0
 11
18788.34939800002
 21
15530.73772599999
 31
0.0
  0
LINE
  5
4EE2
  8
2-0
  6
CONTINUOUS
 62
     3
 10
18763.355995999991
 20
15548.74540699998
 30
0.0
 11
18788.34939800002
 21
15548.74540699998
 31
0.0
  0
LINE
  5
4EE3
  8
2-0
  6
CONTINUOUS
 62
     3
 10
18763.355995999991
 20
15543.745143
 30
0.0
 11
18763.355995999991
 21
15548.74540699998
 31
0.0
  0
LINE
  5
4EE4
  8
2-0
  6
CONTINUOUS
 62
     3
 10
18770.353593999989
 20
15543.745143
 30
0.0
 11
18763.355995999991
 21
15543.745143
 31
0.0
  0
LINE
  5
4EE5
  8
2-0
  6
CONTINUOUS
 62
     3
 10
18758.351772999991
 20
16935.985879
 30
0.0
 11
18758.351772999991
 21
16288.69391949999
 31
0.0
  0
LINE
  5
4EE6
  8
2-0
  6
CONTINUOUS
 62
     3
 10
18758.351772999991
 20
17090.596176999989
 30
0.0
 11
18758.351772999991
 21
16945.59446199999
 31
0.0
  0
LINE
  5
4EE7
  8
2-0
  6
CONTINUOUS
 62
     3
 10
18846.238439000001
 20
17060.596572999992
 30
0.0
 11
18846.238439000001
 21
16975.600004999989
 31
0.0
  0
LINE
  5
4EE8
  8
2-0
  6
CONTINUOUS
 62
     3
 10
18770.353593999989
 20
14842.50413599999
 30
0.0
 11
18763.355995999991
 21
14842.50413599999
 31
0.0
  0
LINE
  5
4EE9
  8
2-0
  6
CONTINUOUS
 62
     3
 10
18763.355995999991
 20
14842.50413599999
 30
0.0
 11
18763.355995999991
 21
14847.49846199999
 31
0.0
  0
LINE
  5
4EEA
  8
2-0
  6
CONTINUOUS
 62
     3
 10
18763.355995999991
 20
14847.49846199999
 30
0.0
 11
18788.34939800002
 21
14847.49846199999
 31
0.0
  0
LINE
  5
4EEB
  8
2-0
  6
CONTINUOUS
 62
     3
 10
18788.34939800002
 20
14847.49846199999
 30
0.0
 11
18788.34939800002
 21
14829.50265799999
 31
0.0
  0
LINE
  5
4EEC
  8
2-0
  6
CONTINUOUS
 62
     3
 10
18788.34939800002
 20
14829.50265799999
 30
0.0
 11
18758.351772999991
 21
14829.50265799999
 31
0.0
  0
LINE
  5
4EED
  8
2-0
  6
CONTINUOUS
 62
     3
 10
18788.34939800002
 20
14845.601092999999
 30
0.0
 11
18788.34939800002
 21
14839.59820299999
 31
0.0
  0
LINE
  5
4EEE
  8
2-0
  6
CONTINUOUS
 62
     3
 10
18788.34939800002
 20
14839.59820299999
 30
0.0
 11
18758.351772999991
 21
14839.59820299999
 31
0.0
  0
LINE
  5
4EEF
  8
2-0
  6
CONTINUOUS
 62
     3
 10
18758.351772999991
 20
14839.59820299999
 30
0.0
 11
18758.351772999991
 21
14876.59837499998
 31
0.0
  0
LINE
  5
4EF0
  8
2-0
  6
CONTINUOUS
 62
     3
 10
18788.34939800002
 20
14876.59837499998
 30
0.0
 11
18758.351772999991
 21
14876.59837499998
 31
0.0
  0
LINE
  5
4EF1
  8
2-0
  6
CONTINUOUS
 62
     3
 10
18788.34939800002
 20
14870.60142299998
 30
0.0
 11
18788.34939800002
 21
14876.59837499998
 31
0.0
  0
LINE
  5
4EF2
  8
2-0
  6
CONTINUOUS
 62
     3
 10
18788.34939800002
 20
14886.698867999999
 30
0.0
 11
18758.351772999991
 21
14886.698867999999
 31
0.0
  0
LINE
  5
4EF3
  8
2-0
  6
CONTINUOUS
 62
     3
 10
18788.34939800002
 20
14868.69217699999
 30
0.0
 11
18788.34939800002
 21
14886.698867999999
 31
0.0
  0
LINE
  5
4EF4
  8
2-0
  6
CONTINUOUS
 62
     3
 10
18763.355995999991
 20
14868.69217699999
 30
0.0
 11
18788.34939800002
 21
14868.69217699999
 31
0.0
  0
LINE
  5
4EF5
  8
2-0
  6
CONTINUOUS
 62
     3
 10
18763.355995999991
 20
14873.697389999999
 30
0.0
 11
18763.355995999991
 21
14868.69217699999
 31
0.0
  0
LINE
  5
4EF6
  8
2-0
  6
CONTINUOUS
 62
     3
 10
18770.353593999989
 20
14873.697389999999
 30
0.0
 11
18763.355995999991
 21
14873.697389999999
 31
0.0
  0
LINE
  5
4EF7
  8
2-0
  6
CONTINUOUS
 62
     3
 10
18788.34939800002
 20
13816.10021599999
 30
0.0
 11
18788.34939800002
 21
13822.10508499999
 31
0.0
  0
LINE
  5
4EF8
  8
2-0
  6
CONTINUOUS
 62
     3
 10
18770.353593999989
 20
13819.13481799998
 30
0.0
 11
18763.355995999991
 21
13819.13481799998
 31
0.0
  0
LINE
  5
4EF9
  8
2-0
  6
CONTINUOUS
 62
     3
 10
18763.355995999991
 20
13819.13481799998
 30
0.0
 11
18763.355995999991
 21
13814.13752299997
 31
0.0
  0
LINE
  5
4EFA
  8
2-0
  6
CONTINUOUS
 62
     3
 10
18763.355995999991
 20
13814.13752299997
 30
0.0
 11
18788.34939800002
 21
13814.13752299997
 31
0.0
  0
LINE
  5
4EFB
  8
2-0
  6
CONTINUOUS
 62
     3
 10
18788.34939800002
 20
13814.13752299997
 30
0.0
 11
18788.34939800002
 21
13832.13629599999
 31
0.0
  0
LINE
  5
4EFC
  8
2-0
  6
CONTINUOUS
 62
     3
 10
18788.34939800002
 20
13832.13629599999
 30
0.0
 11
18758.351772999991
 21
13832.13629599999
 31
0.0
  0
LINE
  5
4EFD
  8
2-0
  6
CONTINUOUS
 62
     3
 10
18758.351772999991
 20
14886.698867999999
 30
0.0
 11
18758.351772999991
 21
15530.73772599999
 31
0.0
  0
LINE
  5
4EFE
  8
2-0
  6
CONTINUOUS
 62
     3
 10
18758.351772999991
 20
18505.694415000002
 30
0.0
 11
18758.351772999991
 21
19149.504142499991
 31
0.0
  0
LINE
  5
4EFF
  8
2-0
  6
CONTINUOUS
 62
     3
 10
18758.351772999991
 20
16231.49770949999
 30
0.0
 11
18758.351772999991
 21
15587.933935999999
 31
0.0
  0
LINE
  5
4F00
  8
2-0
  6
CONTINUOUS
 62
     3
 10
24328.85230100001
 20
19863.600401
 30
0.0
 11
24328.85230100001
 21
19978.596574000021
 31
0.0
  0
LINE
  5
4F01
  8
2-0
  6
CENTER2
 62
     6
 10
18344.068390726639
 20
19936.09828899998
 30
0.0
 11
25178.853621000009
 21
19936.09828899998
 31
0.0
  0
LINE
  5
4F02
  8
2-0
  6
CENTER2
 62
     6
 10
18344.068390726639
 20
17018.09828899999
 30
0.0
 11
25178.853621000009
 21
17018.09828899999
 31
0.0
  0
LINE
  5
4F03
  8
2-0
  6
CENTER2
 62
     6
 10
18344.068390726639
 20
13749.59828899999
 30
0.0
 11
25178.853621000009
 21
13749.59828899999
 31
0.0
  0
LINE
  5
4F04
  8
2-0
  6
CONTINUOUS
 62
     3
 10
19574.54170125004
 20
19966.596732000002
 30
0.0
 11
19574.54170125004
 21
19973.60224800001
 31
0.0
  0
LINE
  5
4F05
  8
2-0
  6
CONTINUOUS
 62
     3
 10
19574.54170125004
 20
19973.60224800001
 30
0.0
 11
19569.541437250009
 21
19973.60224800001
 31
0.0
  0
LINE
  5
4F06
  8
2-0
  6
CONTINUOUS
 62
     3
 10
19569.541437250009
 20
19973.60224800001
 30
0.0
 11
19569.541437250009
 21
19948.593011000001
 31
0.0
  0
LINE
  5
4F07
  8
2-0
  6
CONTINUOUS
 62
     3
 10
19569.541437250009
 20
19948.593011000001
 30
0.0
 11
19587.543179250031
 21
19948.593011000001
 31
0.0
  0
LINE
  5
4F08
  8
2-0
  6
CONTINUOUS
 62
     3
 10
19587.543179250031
 20
19948.593011000001
 30
0.0
 11
19587.543179250031
 21
19978.59657400001
 31
0.0
  0
LINE
  5
4F09
  8
2-0
  6
CONTINUOUS
 62
     3
 10
19571.443754250038
 20
19948.593011000001
 30
0.0
 11
19577.44763425002
 21
19948.593011000001
 31
0.0
  0
LINE
  5
4F0A
  8
2-0
  6
CONTINUOUS
 62
     3
 10
19577.44763425002
 20
19948.593011000001
 30
0.0
 11
19577.44763425002
 21
19978.59657400001
 31
0.0
  0
LINE
  5
4F0B
  8
2-0
  6
CONTINUOUS
 62
     3
 10
19540.452412250012
 20
19978.59657400001
 30
0.0
 11
19577.44763425002
 21
19978.59657400001
 31
0.0
  0
LINE
  5
4F0C
  8
2-0
  6
CONTINUOUS
 62
     3
 10
19540.452412250012
 20
19948.593011000001
 30
0.0
 11
19540.452412250012
 21
19978.59657400001
 31
0.0
  0
LINE
  5
4F0D
  8
2-0
  6
CONTINUOUS
 62
     3
 10
19546.44639425003
 20
19948.593011000001
 30
0.0
 11
19540.452412250012
 21
19948.593011000001
 31
0.0
  0
LINE
  5
4F0E
  8
2-0
  6
CONTINUOUS
 62
     3
 10
19530.35686725003
 20
19948.593011000001
 30
0.0
 11
19530.35686725003
 21
19978.59657400001
 31
0.0
  0
LINE
  5
4F0F
  8
2-0
  6
CONTINUOUS
 62
     3
 10
19548.352670250031
 20
19948.593011000001
 30
0.0
 11
19530.35686725003
 21
19948.593011000001
 31
0.0
  0
LINE
  5
4F10
  8
2-0
  6
CONTINUOUS
 62
     3
 10
19548.352670250031
 20
19973.60224800001
 30
0.0
 11
19548.352670250031
 21
19948.593011000001
 31
0.0
  0
LINE
  5
4F11
  8
2-0
  6
CONTINUOUS
 62
     3
 10
19543.35438625003
 20
19973.60224800001
 30
0.0
 11
19548.352670250031
 21
19973.60224800001
 31
0.0
  0
LINE
  5
4F12
  8
2-0
  6
CONTINUOUS
 62
     3
 10
19543.35438625003
 20
19966.596732000002
 30
0.0
 11
19543.35438625003
 21
19973.60224800001
 31
0.0
  0
LINE
  5
4F13
  8
2-0
  6
CONTINUOUS
 62
     3
 10
18883.653320000001
 20
19978.59657400001
 30
0.0
 11
19530.35686725003
 21
19978.59657400001
 31
0.0
  0
LINE
  5
4F14
  8
2-0
  6
CONTINUOUS
 62
     3
 10
18758.351772999991
 20
19893.600004999989
 30
0.0
 11
24243.85177300002
 21
19893.600004999989
 31
0.0
  0
LINE
  5
4F15
  8
2-0
  6
CONTINUOUS
 62
     3
 10
18758.351772999991
 20
14185.63601900001
 30
0.0
 11
18758.351772999991
 21
14829.50265799999
 31
0.0
  0
LINE
  5
4F16
  8
2-0
  6
CENTER2
 62
     6
 10
18800.84807800001
 20
21182.156016274839
 30
0.0
 11
18800.84807800001
 21
13123.83485499999
 31
0.0
  0
LINE
  5
4F17
  8
2-0
  6
CONTINUOUS
 62
     3
 10
24328.85230100001
 20
19853.302944999989
 30
0.0
 11
24328.85230100001
 21
19206.69441449998
 31
0.0
  0
LINE
  5
4F18
  8
2-0
  6
CONTINUOUS
 62
     3
 10
18758.351772999991
 20
19853.302944999989
 30
0.0
 11
18758.351772999991
 21
19206.69441449998
 31
0.0
  0
LINE
  5
4F19
  8
2-0
  6
CENTER2
 62
     6
 10
24286.34807800001
 20
21180.814895385909
 30
0.0
 11
24286.34807800001
 21
13123.80780827024
 31
0.0
  0
LINE
  5
4F1A
  8
2-0
  6
CONTINUOUS
 62
     3
 10
18770.353593999989
 20
14141.504631000011
 30
0.0
 11
18763.355995999991
 21
14141.504631000011
 31
0.0
  0
LINE
  5
4F1B
  8
2-0
  6
CONTINUOUS
 62
     3
 10
18763.355995999991
 20
14141.504631000011
 30
0.0
 11
18763.355995999991
 21
14146.498956999991
 31
0.0
  0
LINE
  5
4F1C
  8
2-0
  6
CONTINUOUS
 62
     3
 10
18763.355995999991
 20
14146.498956999991
 30
0.0
 11
18788.34939800002
 21
14146.498956999991
 31
0.0
  0
LINE
  5
4F1D
  8
2-0
  6
CONTINUOUS
 62
     3
 10
18788.34939800002
 20
14146.498956999991
 30
0.0
 11
18788.34939800002
 21
14128.503153
 31
0.0
  0
LINE
  5
4F1E
  8
2-0
  6
CONTINUOUS
 62
     3
 10
18788.34939800002
 20
14128.503153
 30
0.0
 11
18758.351772999991
 21
14128.503153
 31
0.0
  0
LINE
  5
4F1F
  8
2-0
  6
CONTINUOUS
 62
     3
 10
18788.34939800002
 20
14144.60059900001
 30
0.0
 11
18788.34939800002
 21
14138.598698
 31
0.0
  0
LINE
  5
4F20
  8
2-0
  6
CONTINUOUS
 62
     3
 10
18788.34939800002
 20
14138.598698
 30
0.0
 11
18758.351772999991
 21
14138.598698
 31
0.0
  0
LINE
  5
4F21
  8
2-0
  6
CONTINUOUS
 62
     3
 10
18758.351772999991
 20
14138.598698
 30
0.0
 11
18758.351772999991
 21
14175.597879999979
 31
0.0
  0
LINE
  5
4F22
  8
2-0
  6
CONTINUOUS
 62
     3
 10
18788.34939800002
 20
14175.597879999979
 30
0.0
 11
18758.351772999991
 21
14175.597879999979
 31
0.0
  0
LINE
  5
4F23
  8
2-0
  6
CONTINUOUS
 62
     3
 10
18788.34939800002
 20
14169.601918
 30
0.0
 11
18788.34939800002
 21
14175.597879999979
 31
0.0
  0
LINE
  5
4F24
  8
2-0
  6
CONTINUOUS
 62
     3
 10
18788.34939800002
 20
14185.699362999991
 30
0.0
 11
18758.351772999991
 21
14185.699362999991
 31
0.0
  0
LINE
  5
4F25
  8
2-0
  6
CONTINUOUS
 62
     3
 10
18788.34939800002
 20
14167.69168299999
 30
0.0
 11
18788.34939800002
 21
14185.699362999991
 31
0.0
  0
LINE
  5
4F26
  8
2-0
  6
CONTINUOUS
 62
     3
 10
18763.355995999991
 20
14167.69168299999
 30
0.0
 11
18788.34939800002
 21
14167.69168299999
 31
0.0
  0
LINE
  5
4F27
  8
2-0
  6
CONTINUOUS
 62
     3
 10
18763.355995999991
 20
14172.697885
 30
0.0
 11
18763.355995999991
 21
14167.69168299999
 31
0.0
  0
LINE
  5
4F28
  8
2-0
  6
CONTINUOUS
 62
     3
 10
18770.353593999989
 20
14172.697885
 30
0.0
 11
18763.355995999991
 21
14172.697885
 31
0.0
  0
LINE
  5
4F29
  8
2-0
  6
CONTINUOUS
 62
     3
 10
18758.351772999991
 20
13832.13629599999
 30
0.0
 11
18758.351772999991
 21
14128.503153
 31
0.0
  0
LINE
  5
4F2A
  8
2-0
  6
CONTINUOUS
 62
     3
 10
18839.349714
 20
13792.09657299999
 30
0.0
 11
18839.349714
 21
19978.59657400001
 31
0.0
  0
LINE
  5
4F2B
  8
2-0
  6
CONTINUOUS
 62
     3
 10
24316.850480000008
 20
14141.504631000011
 30
0.0
 11
24323.85203699999
 21
14141.504631000011
 31
0.0
  0
LINE
  5
4F2C
  8
2-0
  6
CONTINUOUS
 62
     3
 10
24323.85203699999
 20
14141.504631000011
 30
0.0
 11
24323.85203699999
 21
14146.498957
 31
0.0
  0
LINE
  5
4F2D
  8
2-0
  6
CONTINUOUS
 62
     3
 10
24323.85203699999
 20
14146.498957
 30
0.0
 11
24298.854676999981
 21
14146.498957
 31
0.0
  0
LINE
  5
4F2E
  8
2-0
  6
CONTINUOUS
 62
     3
 10
24298.854676999981
 20
14146.498957
 30
0.0
 11
24298.854676999981
 21
14128.503153
 31
0.0
  0
LINE
  5
4F2F
  8
2-0
  6
CONTINUOUS
 62
     3
 10
24298.854676999981
 20
14128.503153
 30
0.0
 11
24328.85230100001
 21
14128.503153
 31
0.0
  0
LINE
  5
4F30
  8
2-0
  6
CONTINUOUS
 62
     3
 10
24298.854676999981
 20
14144.60059900001
 30
0.0
 11
24298.854676999981
 21
14138.598698
 31
0.0
  0
LINE
  5
4F31
  8
2-0
  6
CONTINUOUS
 62
     3
 10
24298.854676999981
 20
14138.598698
 30
0.0
 11
24328.85230100001
 21
14138.598698
 31
0.0
  0
LINE
  5
4F32
  8
2-0
  6
CONTINUOUS
 62
     3
 10
24328.85230100001
 20
14138.598698
 30
0.0
 11
24328.85230100001
 21
14175.59787999999
 31
0.0
  0
LINE
  5
4F33
  8
2-0
  6
CONTINUOUS
 62
     3
 10
24298.854676999981
 20
14175.59787999999
 30
0.0
 11
24328.85230100001
 21
14175.59787999999
 31
0.0
  0
LINE
  5
4F34
  8
2-0
  6
CONTINUOUS
 62
     3
 10
24298.854676999981
 20
14169.601918
 30
0.0
 11
24298.854676999981
 21
14175.59787999999
 31
0.0
  0
LINE
  5
4F35
  8
2-0
  6
CONTINUOUS
 62
     3
 10
24298.854676999981
 20
14185.699362999991
 30
0.0
 11
24328.85230100001
 21
14185.699362999991
 31
0.0
  0
LINE
  5
4F36
  8
2-0
  6
CONTINUOUS
 62
     3
 10
24298.854676999981
 20
14167.69168299999
 30
0.0
 11
24298.854676999981
 21
14185.699362999991
 31
0.0
  0
LINE
  5
4F37
  8
2-0
  6
CONTINUOUS
 62
     3
 10
24323.85203699999
 20
14167.69168299999
 30
0.0
 11
24298.854676999981
 21
14167.69168299999
 31
0.0
  0
LINE
  5
4F38
  8
2-0
  6
CONTINUOUS
 62
     3
 10
24323.85203699999
 20
14172.697885
 30
0.0
 11
24323.85203699999
 21
14167.69168299999
 31
0.0
  0
LINE
  5
4F39
  8
2-0
  6
CONTINUOUS
 62
     3
 10
24316.850480000008
 20
14172.697885
 30
0.0
 11
24323.85203699999
 21
14172.697885
 31
0.0
  0
LINE
  5
4F3A
  8
2-0
  6
CONTINUOUS
 62
     3
 10
24328.85230100001
 20
13832.13629599999
 30
0.0
 11
24328.85230100001
 21
14128.503153
 31
0.0
  0
LINE
  5
4F3B
  8
2-0
  6
CONTINUOUS
 62
     3
 10
24247.850401
 20
13792.09657299999
 30
0.0
 11
24247.850401
 21
19978.596574000021
 31
0.0
  0
CIRCLE
  5
4F3C
  8
2-0
  6
CONTINUOUS
 62
     4
 10
18144.07070072665
 20
19936.09828899998
 30
0.0
 40
200.00001
  0
CIRCLE
  5
4F3D
  8
2-0
  6
CONTINUOUS
 62
     4
 10
18144.07070072665
 20
17018.09828899999
 30
0.0
 40
200.00001
  0
CIRCLE
  5
4F3E
  8
2-0
  6
CONTINUOUS
 62
     4
 10
18144.07070072665
 20
13749.59828899999
 30
0.0
 40
200.00001
  0
CIRCLE
  5
4F3F
  8
2-0
  6
CONTINUOUS
 62
     4
 10
24286.34807800001
 20
21380.814905385909
 30
0.0
 40
200.00001
  0
CIRCLE
  5
4F40
  8
2-0
  6
CONTINUOUS
 62
     4
 10
18800.84807800001
 20
21382.15602627485
 30
0.0
 40
200.00001
  0
TEXT
  5
4F41
  8
0-3
  6
CONTINUOUS
 62
     7
 10
22887.79444700004
 20
16468.591426999901
 30
0.0
 40
160.0
  1
壁パネル
 50
359.99982300001841
 72
     4
 11
23250.461360803569
 21
16548.590306637881
 31
0.0
  0
TEXT
  5
4F42
  8
0-3
  6
CONTINUOUS
 62
     7
 10
22607.791543000021
 20
17305.779322999879
 30
0.0
 40
160.0
  1
中柱（左右）
 50
0.0003540000147867
 72
     4
 11
23125.124382046211
 21
17385.782519324672
 31
0.0
  0
TEXT
  5
4F43
  8
0-3
  6
CONTINUOUS
 62
     7
 10
23287.79378699997
 20
15430.13169531251
 30
0.0
 40
160.0
  1
下枠
 50
0.0010629999871935
 72
     4
 11
23458.458969409279
 21
15510.13486165177
 31
0.0
  0
TEXT
  5
4F44
  8
0-3
  6
CONTINUOUS
 62
     7
 10
22782.759211000011
 20
18909.04806149998
 30
0.0
 40
160.0
  1
間柱（側）
 72
     4
 11
23204.09254433334
 21
18989.04806149998
 31
0.0
  0
TEXT
  5
4F45
  8
0-3
  6
CONTINUOUS
 62
     7
 10
25101.34953000001
 20
20788.59578199988
 30
0.0
 40
160.0
  1
後柱（左右）
 50
0.0003540000147867
 72
     4
 11
25613.34903571297
 21
20868.59894537284
 31
0.0
  0
TEXT
  5
4F46
  8
2-0
  6
CONTINUOUS
 62
     7
 10
18096.07133372661
 20
19841.617847000001
 30
0.0
 40
160.0
  1
C
 72
     4
 11
18149.404667059938
 21
19921.617847000001
 31
0.0
  0
TEXT
  5
4F47
  8
2-0
  6
CONTINUOUS
 62
     7
 10
18096.29204972662
 20
16947.704206999999
 30
0.0
 40
160.0
  1
B
 72
     4
 11
18149.625383059949
 21
17027.704206999999
 31
0.0
  0
TEXT
  5
4F48
  8
2-0
  6
CONTINUOUS
 62
     7
 10
18096.334609726619
 20
13660.99107799999
 30
0.0
 40
160.0
  1
A
 72
     4
 11
18149.667943059962
 21
13740.99107799999
 31
0.0
  0
TEXT
  5
4F49
  8
2-0
  6
CONTINUOUS
 62
     7
 10
24234.716295000038
 20
21285.289276385909
 30
0.0
 40
160.0
  1
2
 72
     4
 11
24288.04962833337
 21
21365.289276385909
 31
0.0
  0
TEXT
  5
4F4A
  8
2-0
  6
CONTINUOUS
 62
     7
 10
18756.641469000009
 20
21293.388474274831
 30
0.0
 40
160.0
  1
1
 72
     4
 11
18783.308135666681
 21
21373.388474274831
 31
0.0
  0
LINE
  5
4F4B
  8
2-0
  6
CONTINUOUS
 62
     3
 10
24203.552733999979
 20
19978.59657400001
 30
0.0
 11
23557.04812825003
 21
19978.596574000021
 31
0.0
  0
LINE
  5
4F4C
  8
2-0
  6
CONTINUOUS
 62
     3
 10
24328.85230100001
 20
15530.73772599999
 30
0.0
 11
24328.85230100001
 21
14886.698867999999
 31
0.0
  0
LINE
  5
4F4D
  8
2-0
  6
CONTINUOUS
 62
     3
 10
24328.85230100001
 20
14829.502657999999
 30
0.0
 11
24328.85230100001
 21
14185.699362999991
 31
0.0
  0
LINE
  5
4F4E
  8
0-2
  6
CONTINUOUS
 62
     4
 10
24286.348078999989
 20
4796.860207000007
 30
0.0
 11
24286.348078999989
 21
4534.8588089890227
 31
0.0
  0
LINE
  5
4F4F
  8
0-2
  6
CONTINUOUS
 62
     4
 10
18800.848078999999
 20
4796.860207000007
 30
0.0
 11
18800.848078999999
 21
4534.8588089890227
 31
0.0
  0
LINE
  5
4F50
  8
0-1
  6
CONTINUOUS
 62
     3
 10
24243.84781499999
 20
8634.8606030000064
 30
0.0
 11
24243.847815000008
 21
6176.85954700001
 31
0.0
  0
LINE
  5
4F51
  8
0-1
  6
CONTINUOUS
 62
     3
 10
24308.84728799999
 20
8764.8595470000091
 30
0.0
 11
24308.84728799999
 21
6176.85954700001
 31
0.0
  0
LINE
  5
4F52
  8
0-1
  6
CONTINUOUS
 62
     3
 10
24328.848078999981
 20
8634.8606030000064
 30
0.0
 11
24328.84807900001
 21
6176.85954700001
 31
0.0
  0
LINE
  5
4F53
  8
0-1
  6
CONTINUOUS
 62
     3
 10
24336.34676
 20
6176.85954700001
 30
0.0
 11
24236.347419999998
 21
6176.85954700001
 31
0.0
  0
LINE
  5
4F54
  8
0-1
  6
CONTINUOUS
 62
     3
 10
24336.34676
 20
6076.8597120000077
 30
0.0
 11
24336.34676
 21
6176.85954700001
 31
0.0
  0
LINE
  5
4F55
  8
0-1
  6
CONTINUOUS
 62
     3
 10
24236.347419999998
 20
6176.85954700001
 30
0.0
 11
24236.347419999998
 21
6076.8597120000077
 31
0.0
  0
LINE
  5
4F56
  8
0-1
  6
CONTINUOUS
 62
     3
 10
24218.099226499999
 20
8510.3607610000108
 30
0.0
 11
23940.669697500001
 21
8510.3607610000108
 31
0.0
  0
LINE
  5
4F57
  8
0-1
  6
CONTINUOUS
 62
     3
 10
24218.099226499999
 20
8552.3602070000034
 30
0.0
 11
23908.668800499989
 21
8552.3602070000034
 31
0.0
  0
LINE
  5
4F58
  8
0-1
  6
CONTINUOUS
 62
     3
 10
24223.099490500001
 20
8543.9601200000052
 30
0.0
 11
23905.002731500012
 21
8543.9601200000052
 31
0.0
  0
LINE
  5
4F59
  8
0-1
  6
CONTINUOUS
 62
     3
 10
24223.099490500001
 20
8535.5600330000107
 30
0.0
 11
23913.399849500001
 21
8535.5600330000107
 31
0.0
  0
LINE
  5
4F5A
  8
0-1
  6
CONTINUOUS
 62
     3
 10
24223.099490500001
 20
8527.1599460000016
 30
0.0
 11
23921.79894750001
 21
8527.1599460000016
 31
0.0
  0
LINE
  5
4F5B
  8
0-1
  6
CONTINUOUS
 62
     3
 10
24223.099490500001
 20
8518.7598590000089
 30
0.0
 11
23930.198044500012
 21
8518.7598590000089
 31
0.0
  0
LINE
  5
4F5C
  8
0-1
  6
CONTINUOUS
 62
     3
 10
24371.848078999981
 20
8439.1733140000051
 30
0.0
 11
24371.848078999981
 21
8764.8595470000091
 31
0.0
  0
LINE
  5
4F5D
  8
0-1
  6
CONTINUOUS
 62
     3
 10
24371.848078999981
 20
8439.1733140000051
 30
0.0
 11
24328.846364000001
 21
8439.1733140000051
 31
0.0
  0
LINE
  5
4F5E
  8
0-1
  6
CONTINUOUS
 62
     3
 10
24223.099490500001
 20
8515.360036000011
 30
0.0
 11
24223.099490500001
 21
8547.359943000014
 31
0.0
  0
LINE
  5
4F5F
  8
0-1
  6
CONTINUOUS
 62
     3
 10
23937.132298500001
 20
8511.8236260000067
 30
0.0
 11
23905.135359500011
 21
8543.824523000003
 31
0.0
  0
LINE
  5
4F60
  8
0-1
  6
CONTINUOUS
 62
     3
 10
24336.34676
 20
6076.8597120000077
 30
0.0
 11
24235.848580999991
 21
6076.8597120000077
 31
0.0
  0
LINE
  5
4F61
  8
2-0
  6
CENTER2
 62
     6
 10
24286.34807900001
 20
5814.2067940000097
 30
0.0
 11
24286.34807900001
 21
6851.3498210000116
 31
0.0
  0
LINE
  5
4F62
  8
0-F
  6
CONTINUOUS
 62
     3
 10
24242.84815899999
 20
8324.8600750000096
 30
0.0
 11
24242.84815899999
 21
8501.3598900000052
 31
0.0
  0
LINE
  5
4F63
  8
1-0
  6
CONTINUOUS
 62
     2
 10
24053.59727350001
 20
6076.8597120000077
 30
0.0
 11
24053.5972735
 21
8324.8600750000096
 31
0.0
  0
LINE
  5
4F64
  8
1-0
  6
CONTINUOUS
 62
     2
 10
24243.847815000008
 20
6182.8594680000097
 30
0.0
 11
24235.848580999991
 21
6182.8594680000097
 31
0.0
  0
LINE
  5
4F65
  8
1-0
  6
CONTINUOUS
 62
     2
 10
24235.848580999991
 20
6076.8597120000077
 30
0.0
 11
24235.848580999991
 21
6182.8594680000097
 31
0.0
  0
ARC
  5
4F66
  8
0-1
  6
CONTINUOUS
 62
     3
 10
24218.099226499999
 20
8547.359943000014
 30
0.0
 40
5.0
 50
0.0
 51
90.0
  0
ARC
  5
4F67
  8
0-1
  6
CONTINUOUS
 62
     3
 10
24218.099226499999
 20
8515.360036000011
 30
0.0
 40
5.0
 50
270.00001499981897
 51
0.0
  0
ARC
  5
4F68
  8
0-1
  6
CONTINUOUS
 62
     3
 10
23940.669697500001
 20
8515.360036000011
 30
0.0
 40
5.0
 50
225.00001499976199
 51
270.00001499981897
  0
ARC
  5
4F69
  8
0-1
  6
CONTINUOUS
 62
     3
 10
23908.668800499989
 20
8547.359943000014
 30
0.0
 40
5.0
 50
90.0
 51
225.00001499976199
  0
TEXT
  5
4F6A
  8
0-2
  6
CONTINUOUS
 62
     7
 10
24234.310494000008
 20
3945.2195820000088
 30
0.0
 40
160.0
  1
2
 72
     4
 11
24287.643827333341
 21
4025.2195820000088
 31
0.0
  0
TEXT
  5
4F6B
  8
0-2
  6
CONTINUOUS
 62
     7
 10
18748.806535
 20
3945.2195820000088
 30
0.0
 40
160.0
  1
1
 72
     4
 11
18775.473201666671
 21
4025.2195820000088
 31
0.0
  0
CIRCLE
  5
4F6C
  8
0-2
  6
CONTINUOUS
 62
     4
 10
24286.348078999989
 20
4036.859910000011
 30
0.0
 40
199.9999949999999
  0
CIRCLE
  5
4F6D
  8
0-2
  6
CONTINUOUS
 62
     4
 10
18800.848078999999
 20
4036.859910000011
 30
0.0
 40
199.9999949999999
  0
ARC
  5
4F6E
  8
0-1
  6
CONTINUOUS
 62
     3
 10
21539.297574500019
 20
6704.5125970000154
 30
0.0
 40
15.0
 50
90.0
 51
182.6025540000204
  0
ARC
  5
4F6F
  8
0-1
  6
CONTINUOUS
 62
     3
 10
21547.902541499989
 20
6704.5125970000154
 30
0.0
 40
15.0
 50
357.39742999998703
 51
90.0
  0
CIRCLE
  5
4F70
  8
0-1
  6
CONTINUOUS
 62
     3
 10
21543.599068499989
 20
6776.860042000013
 30
0.0
 40
23.500001999999991
  0
ARC
  5
4F71
  8
0-1
  6
CONTINUOUS
 62
     3
 10
19178.777765999988
 20
8547.359943000014
 30
0.0
 40
5.0
 50
314.99998500023781
 51
90.0
  0
ARC
  5
4F72
  8
0-1
  6
CONTINUOUS
 62
     3
 10
19146.77686899999
 20
8515.360036000011
 30
0.0
 40
5.0
 50
269.9999850001808
 51
314.99998500023781
  0
ARC
  5
4F73
  8
0-1
  6
CONTINUOUS
 62
     3
 10
18869.347339999989
 20
8515.360036000011
 30
0.0
 40
5.0
 50
180.0
 51
269.9999850001808
  0
ARC
  5
4F74
  8
0-1
  6
CONTINUOUS
 62
     3
 10
18869.347339999989
 20
8547.359943000014
 30
0.0
 40
5.0
 50
90.0
 51
180.0
  0
LINE
  5
4F75
  8
1-0
  6
CONTINUOUS
 62
     2
 10
18851.34757699999
 20
6076.8597120000077
 30
0.0
 11
18851.34757699999
 21
6182.8594680000097
 31
0.0
  0
LINE
  5
4F76
  8
1-0
  6
CONTINUOUS
 62
     2
 10
18843.348343000001
 20
6182.8594680000097
 30
0.0
 11
18851.34757699999
 21
6182.8594680000097
 31
0.0
  0
LINE
  5
4F77
  8
1-0
  6
CONTINUOUS
 62
     2
 10
19033.849292999981
 20
6076.8597120000077
 30
0.0
 11
19033.849292999981
 21
8324.8600750000096
 31
0.0
  0
LINE
  5
4F78
  8
0-F
  6
CONTINUOUS
 62
     3
 10
18844.347999000001
 20
8324.8600750000096
 30
0.0
 11
24242.848158000001
 21
8324.8600750000096
 31
0.0
  0
LINE
  5
4F79
  8
0-F
  6
CONTINUOUS
 62
     3
 10
18844.347999000001
 20
8324.8600750000096
 30
0.0
 11
18844.347999000001
 21
8501.3598900000052
 31
0.0
  0
LINE
  5
4F7A
  8
2-0
  6
CENTER2
 62
     6
 10
18800.848078999999
 20
5814.2067940000097
 30
0.0
 11
18800.848078999999
 21
6851.3498210000116
 31
0.0
  0
LINE
  5
4F7B
  8
0-2
  6
CONTINUOUS
 62
     4
 10
24286.348078999989
 20
4396.8596130000133
 30
0.0
 11
24286.348078999989
 21
4236.8595800000121
 31
0.0
  0
LINE
  5
4F7C
  8
0-2
  6
CONTINUOUS
 62
     4
 10
18800.848078999999
 20
4396.8596130000133
 30
0.0
 11
18800.848078999999
 21
4236.8595800000121
 31
0.0
  0
LINE
  5
4F7D
  8
0-1
  6
CONTINUOUS
 62
     3
 10
21493.59840849998
 20
6576.8603720000119
 30
0.0
 11
21493.59840849998
 21
6526.8602070000125
 31
0.0
  0
LINE
  5
4F7E
  8
0-1
  6
CONTINUOUS
 62
     3
 10
21593.59972849999
 20
6576.8603720000119
 30
0.0
 11
21593.59972849999
 21
6526.8602070000125
 31
0.0
  0
LINE
  5
4F7F
  8
0-1
  6
CONTINUOUS
 62
     3
 10
21493.59840849998
 20
6526.8602070000125
 30
0.0
 11
21593.59972849999
 21
6526.8602070000125
 31
0.0
  0
LINE
  5
4F80
  8
0-1
  6
CONTINUOUS
 62
     3
 10
21493.59840849998
 20
7766.8603390000153
 30
0.0
 11
21593.59972849999
 21
7766.8603390000153
 31
0.0
  0
LINE
  5
4F81
  8
0-1
  6
CONTINUOUS
 62
     3
 10
21593.59972849999
 20
7816.8600090000082
 30
0.0
 11
21593.59972849999
 21
7766.8603390000153
 31
0.0
  0
LINE
  5
4F82
  8
0-1
  6
CONTINUOUS
 62
     3
 10
21493.59840849998
 20
7816.8600090000082
 30
0.0
 11
21493.59840849998
 21
7766.8603390000153
 31
0.0
  0
LINE
  5
4F83
  8
0-1
  6
CONTINUOUS
 62
     3
 10
21493.59840849998
 20
7496.859448000012
 30
0.0
 11
21493.59840849998
 21
7446.85977800001
 31
0.0
  0
LINE
  5
4F84
  8
0-1
  6
CONTINUOUS
 62
     3
 10
21593.59972849999
 20
7496.859448000012
 30
0.0
 11
21593.59972849999
 21
7446.85977800001
 31
0.0
  0
LINE
  5
4F85
  8
0-1
  6
CONTINUOUS
 62
     3
 10
21493.59840849998
 20
7446.85977800001
 30
0.0
 11
21593.59972849999
 21
7446.85977800001
 31
0.0
  0
LINE
  5
4F86
  8
0-1
  6
CONTINUOUS
 62
     3
 10
21493.59840849998
 20
6936.8600750000141
 30
0.0
 11
21593.59972849999
 21
6936.8600750000141
 31
0.0
  0
LINE
  5
4F87
  8
0-1
  6
CONTINUOUS
 62
     3
 10
21593.59972849999
 20
6986.86024000001
 30
0.0
 11
21593.59972849999
 21
6936.8600750000141
 31
0.0
  0
LINE
  5
4F88
  8
0-1
  6
CONTINUOUS
 62
     3
 10
21493.59840849998
 20
6986.86024000001
 30
0.0
 11
21493.59840849998
 21
6936.8600750000141
 31
0.0
  0
LINE
  5
4F89
  8
0-1
  6
CONTINUOUS
 62
     3
 10
21572.317250999989
 20
6696.85977800001
 30
0.0
 11
24053.348843999978
 21
6696.85977800001
 31
0.0
  0
LINE
  5
4F8A
  8
0-1
  6
CONTINUOUS
 62
     3
 10
21570.046742999992
 20
6646.8601080000144
 30
0.0
 11
24053.348843999978
 21
6646.8601080000144
 31
0.0
  0
LINE
  5
4F8B
  8
0-1
  6
CONTINUOUS
 62
     3
 10
21547.902541499989
 20
6719.5119040000118
 30
0.0
 11
21539.297574500019
 21
6719.5119040000118
 31
0.0
  0
LINE
  5
4F8C
  8
0-1
  6
CONTINUOUS
 62
     3
 10
21528.600256499991
 20
6609.5120360000119
 30
0.0
 11
21558.597880500001
 21
6609.5120360000119
 31
0.0
  0
LINE
  5
4F8D
  8
0-1
  6
CONTINUOUS
 62
     3
 10
21524.312618500018
 20
6703.8316420000101
 30
0.0
 11
21528.600256499991
 21
6609.5120360000119
 31
0.0
  0
LINE
  5
4F8E
  8
0-1
  6
CONTINUOUS
 62
     3
 10
21558.597880500001
 20
6609.5120360000119
 30
0.0
 11
21562.885517499992
 21
6703.8316420000101
 31
0.0
  0
LINE
  5
4F8F
  8
0-1
  6
CONTINUOUS
 62
     3
 10
18750.849397999991
 20
6076.8597120000077
 30
0.0
 11
18851.34757699999
 21
6076.8597120000077
 31
0.0
  0
LINE
  5
4F90
  8
0-1
  6
CONTINUOUS
 62
     3
 10
18851.34757699999
 20
6076.8597120000077
 30
0.0
 11
24286.348078999989
 21
6076.8597120000077
 31
0.0
  0
LINE
  5
4F91
  8
0-1
  6
CONTINUOUS
 62
     3
 10
19033.849292999981
 20
8311.8594150000063
 30
0.0
 11
24053.348843999978
 21
8311.8594150000063
 31
0.0
  0
LINE
  5
4F92
  8
0-1
  6
CONTINUOUS
 62
     3
 10
19033.849292999981
 20
8036.8597450000088
 30
0.0
 11
24053.348843999978
 21
8036.8597450000088
 31
0.0
  0
LINE
  5
4F93
  8
0-1
  6
CONTINUOUS
 62
     3
 10
19033.849292999981
 20
8261.8597450000107
 30
0.0
 11
24053.348843999978
 21
8261.8597450000107
 31
0.0
  0
LINE
  5
4F94
  8
0-1
  6
CONTINUOUS
 62
     3
 10
19033.849292999981
 20
8201.8600420000112
 30
0.0
 11
24053.348843999978
 21
8201.8600420000112
 31
0.0
  0
LINE
  5
4F95
  8
0-1
  6
CONTINUOUS
 62
     3
 10
19033.849292999981
 20
8116.86000900001
 30
0.0
 11
24053.348843999978
 21
8116.86000900001
 31
0.0
  0
LINE
  5
4F96
  8
0-1
  6
CONTINUOUS
 62
     3
 10
19033.849292999981
 20
7951.8602070000143
 30
0.0
 11
24053.348843999978
 21
7951.8602070000143
 31
0.0
  0
LINE
  5
4F97
  8
0-1
  6
CONTINUOUS
 62
     3
 10
19033.849292999981
 20
7891.8600090000091
 30
0.0
 11
24053.348843999978
 21
7891.8600090000091
 31
0.0
  0
LINE
  5
4F98
  8
0-1
  6
CONTINUOUS
 62
     3
 10
19033.849292999981
 20
6891.8596790000129
 30
0.0
 11
24053.348843999978
 21
6891.8596790000129
 31
0.0
  0
LINE
  5
4F99
  8
0-1
  6
CONTINUOUS
 62
     3
 10
19033.849292999981
 20
6126.8603720000092
 30
0.0
 11
24053.348843999978
 21
6126.8603720000092
 31
0.0
  0
LINE
  5
4F9A
  8
0-1
  6
CONTINUOUS
 62
     3
 10
19033.849292999981
 20
6176.85954700001
 30
0.0
 11
24053.348843999978
 21
6176.85954700001
 31
0.0
  0
LINE
  5
4F9B
  8
0-1
  6
CONTINUOUS
 62
     3
 10
19033.849292999981
 20
6236.86024000001
 30
0.0
 11
24053.348843999978
 21
6236.86024000001
 31
0.0
  0
LINE
  5
4F9C
  8
0-1
  6
CONTINUOUS
 62
     3
 10
19033.849292999981
 20
6321.85977800001
 30
0.0
 11
24053.348843999978
 21
6321.85977800001
 31
0.0
  0
LINE
  5
4F9D
  8
0-1
  6
CONTINUOUS
 62
     3
 10
19033.849292999981
 20
6401.8595470000118
 30
0.0
 11
24053.348843999978
 21
6401.8595470000118
 31
0.0
  0
LINE
  5
4F9E
  8
0-1
  6
CONTINUOUS
 62
     3
 10
19033.849292999981
 20
6486.8600750000132
 30
0.0
 11
24053.348843999978
 21
6486.8600750000132
 31
0.0
  0
LINE
  5
4F9F
  8
0-1
  6
CONTINUOUS
 62
     3
 10
19033.849292999981
 20
6546.8602730000111
 30
0.0
 11
24053.348843999978
 21
6546.8602730000111
 31
0.0
  0
LINE
  5
4FA0
  8
0-1
  6
CONTINUOUS
 62
     3
 10
19033.849292999981
 20
6596.8599430000122
 30
0.0
 11
24053.348843999978
 21
6596.8599430000122
 31
0.0
  0
LINE
  5
4FA1
  8
0-1
  6
CONTINUOUS
 62
     3
 10
19033.849292999981
 20
6646.8601080000144
 30
0.0
 11
21536.650284999989
 21
6646.8601080000144
 31
0.0
  0
LINE
  5
4FA2
  8
0-1
  6
CONTINUOUS
 62
     3
 10
19033.849292999981
 20
6696.85977800001
 30
0.0
 11
21534.37977699998
 21
6696.85977800001
 31
0.0
  0
LINE
  5
4FA3
  8
0-1
  6
CONTINUOUS
 62
     3
 10
19033.849292999981
 20
6746.8599430000122
 30
0.0
 11
24053.348843999978
 21
6746.8599430000122
 31
0.0
  0
LINE
  5
4FA4
  8
0-1
  6
CONTINUOUS
 62
     3
 10
19033.849292999981
 20
6806.8596460000126
 30
0.0
 11
24053.348843999978
 21
6806.8596460000126
 31
0.0
  0
LINE
  5
4FA5
  8
0-1
  6
CONTINUOUS
 62
     3
 10
19033.849292999981
 20
6971.8599430000122
 30
0.0
 11
24053.348843999978
 21
6971.8599430000122
 31
0.0
  0
LINE
  5
4FA6
  8
0-1
  6
CONTINUOUS
 62
     3
 10
19033.849292999981
 20
7056.8594810000122
 30
0.0
 11
24053.348843999978
 21
7056.8594810000122
 31
0.0
  0
LINE
  5
4FA7
  8
0-1
  6
CONTINUOUS
 62
     3
 10
19033.849292999981
 20
7116.8601740000131
 30
0.0
 11
24053.348843999978
 21
7116.8601740000131
 31
0.0
  0
LINE
  5
4FA8
  8
0-1
  6
CONTINUOUS
 62
     3
 10
19033.849292999981
 20
7166.8603390000098
 30
0.0
 11
24053.348843999978
 21
7166.8603390000098
 31
0.0
  0
LINE
  5
4FA9
  8
0-1
  6
CONTINUOUS
 62
     3
 10
19033.849292999981
 20
7216.8595140000098
 30
0.0
 11
24053.348843999978
 21
7216.8595140000098
 31
0.0
  0
LINE
  5
4FAA
  8
0-1
  6
CONTINUOUS
 62
     3
 10
19033.849292999981
 20
7786.859910000012
 30
0.0
 11
24053.348843999978
 21
7786.859910000012
 31
0.0
  0
LINE
  5
4FAB
  8
0-1
  6
CONTINUOUS
 62
     3
 10
19033.849292999981
 20
7736.8597450000098
 30
0.0
 11
24053.348843999978
 21
7736.8597450000098
 31
0.0
  0
LINE
  5
4FAC
  8
0-1
  6
CONTINUOUS
 62
     3
 10
19033.849292999981
 20
7686.8600750000141
 30
0.0
 11
24053.348843999978
 21
7686.8600750000141
 31
0.0
  0
LINE
  5
4FAD
  8
0-1
  6
CONTINUOUS
 62
     3
 10
19033.849292999981
 20
7626.8603720000137
 30
0.0
 11
24053.348843999978
 21
7626.8603720000137
 31
0.0
  0
LINE
  5
4FAE
  8
0-1
  6
CONTINUOUS
 62
     3
 10
19033.849292999981
 20
7541.8603390000162
 30
0.0
 11
24053.348843999978
 21
7541.8603390000162
 31
0.0
  0
LINE
  5
4FAF
  8
0-1
  6
CONTINUOUS
 62
     3
 10
19033.849292999981
 20
7461.8600750000141
 30
0.0
 11
24053.348843999978
 21
7461.8600750000141
 31
0.0
  0
LINE
  5
4FB0
  8
0-1
  6
CONTINUOUS
 62
     3
 10
19033.849292999981
 20
7376.8600420000121
 30
0.0
 11
24053.348843999978
 21
7376.8600420000121
 31
0.0
  0
LINE
  5
4FB1
  8
0-1
  6
CONTINUOUS
 62
     3
 10
19033.849292999981
 20
7316.8603390000144
 30
0.0
 11
24053.348843999978
 21
7316.8603390000144
 31
0.0
  0
LINE
  5
4FB2
  8
0-1
  6
CONTINUOUS
 62
     3
 10
19033.849292999981
 20
7266.8601740000122
 30
0.0
 11
24053.348843999978
 21
7266.8601740000122
 31
0.0
  0
LINE
  5
4FB3
  8
0-1
  6
CONTINUOUS
 62
     3
 10
19033.849292999981
 20
7841.8603390000162
 30
0.0
 11
24053.348843999978
 21
7841.8603390000162
 31
0.0
  0
LINE
  5
4FB4
  8
0-1
  6
CONTINUOUS
 62
     3
 10
19150.314267999991
 20
8511.8236260000067
 30
0.0
 11
19182.311206999992
 21
8543.824523000003
 31
0.0
  0
LINE
  5
4FB5
  8
0-1
  6
CONTINUOUS
 62
     3
 10
18864.347075999991
 20
8515.360036000011
 30
0.0
 11
18864.347075999991
 21
8547.359943000014
 31
0.0
  0
LINE
  5
4FB6
  8
0-1
  6
CONTINUOUS
 62
     3
 10
18715.348078999999
 20
8439.1733140000051
 30
0.0
 11
18758.349793999991
 21
8439.1733140000051
 31
0.0
  0
LINE
  5
4FB7
  8
0-1
  6
CONTINUOUS
 62
     3
 10
18715.348078999999
 20
8439.1733140000051
 30
0.0
 11
18715.348078999999
 21
8764.8595470000091
 31
0.0
  0
LINE
  5
4FB8
  8
0-1
  6
CONTINUOUS
 62
     3
 10
18864.347075999991
 20
8518.7598590000089
 30
0.0
 11
19157.248521999991
 21
8518.7598590000089
 31
0.0
  0
LINE
  5
4FB9
  8
0-1
  6
CONTINUOUS
 62
     3
 10
18864.347075999991
 20
8527.1599460000016
 30
0.0
 11
19165.647618999988
 21
8527.1599460000016
 31
0.0
  0
LINE
  5
4FBA
  8
0-1
  6
CONTINUOUS
 62
     3
 10
18864.347075999991
 20
8535.5600330000107
 30
0.0
 11
19174.04671699999
 21
8535.5600330000107
 31
0.0
  0
LINE
  5
4FBB
  8
0-1
  6
CONTINUOUS
 62
     3
 10
18864.347075999991
 20
8543.9601200000052
 30
0.0
 11
19182.443834999991
 21
8543.9601200000052
 31
0.0
  0
LINE
  5
4FBC
  8
0-1
  6
CONTINUOUS
 62
     3
 10
18869.347339999989
 20
8552.3602070000034
 30
0.0
 11
19178.777765999988
 21
8552.3602070000034
 31
0.0
  0
LINE
  5
4FBD
  8
0-1
  6
CONTINUOUS
 62
     3
 10
18869.347339999989
 20
8510.3607610000108
 30
0.0
 11
19146.77686899999
 21
8510.3607610000108
 31
0.0
  0
LINE
  5
4FBE
  8
0-1
  6
CONTINUOUS
 62
     3
 10
18850.84873799995
 20
6176.85954700001
 30
0.0
 11
18850.84873799995
 21
6076.8597120000077
 31
0.0
  0
LINE
  5
4FBF
  8
0-1
  6
CONTINUOUS
 62
     3
 10
18750.849397999991
 20
6076.8597120000077
 30
0.0
 11
18750.849397999991
 21
6176.85954700001
 31
0.0
  0
LINE
  5
4FC0
  8
0-1
  6
CONTINUOUS
 62
     3
 10
18750.849397999991
 20
6176.85954700001
 30
0.0
 11
18850.84873799995
 21
6176.85954700001
 31
0.0
  0
LINE
  5
4FC1
  8
0-1
  6
CONTINUOUS
 62
     3
 10
18758.348078999999
 20
8634.8606030000064
 30
0.0
 11
18758.348078999999
 21
6176.85954700001
 31
0.0
  0
LINE
  5
4FC2
  8
0-1
  6
CONTINUOUS
 62
     3
 10
18778.348870000002
 20
8764.8595470000091
 30
0.0
 11
18778.348870000002
 21
6176.85954700001
 31
0.0
  0
LINE
  5
4FC3
  8
0-1
  6
CONTINUOUS
 62
     3
 10
18843.348343000001
 20
8634.8606030000064
 30
0.0
 11
18843.348343000001
 21
6176.85954700001
 31
0.0
  0
LINE
  5
4FC4
  8
0-1
  6
CONTINUOUS
 62
     3
 10
21728.348843999978
 20
8634.8606030000064
 30
0.0
 11
21728.348843999978
 21
8764.8595470000091
 31
0.0
  0
LINE
  5
4FC5
  8
0-1
  6
CONTINUOUS
 62
     3
 10
24372.098487499989
 20
8634.8606030000028
 30
0.0
 11
18715.348078999999
 21
8634.8606030000064
 31
0.0
  0
LINE
  5
4FC6
  8
0-1
  6
CONTINUOUS
 62
     3
 10
18843.348343000001
 20
8561.3590990000102
 30
0.0
 11
24243.847815000001
 21
8561.3590990000102
 31
0.0
  0
LINE
  5
4FC7
  8
0-1
  6
CONTINUOUS
 62
     3
 10
18715.348078999999
 20
8764.8595470000091
 30
0.0
 11
24371.848078999981
 21
8764.8595470000091
 31
0.0
  0
LINE
  5
4FC8
  8
0-1
  6
CONTINUOUS
 62
     3
 10
18843.348343000001
 20
8501.3598900000052
 30
0.0
 11
24243.847815000001
 21
8501.3598900000052
 31
0.0
  0
LINE
  5
4FC9
  8
SUNPOU
  6
CONTINUOUS
 10
7839.5631859999776
 20
9564.7681590000029
 30
0.0
 11
7350.0401179999808
 21
9564.7681590000029
 31
0.0
  0
TEXT
  5
4FCA
  8
0-2
  6
CONTINUOUS
 62
     7
 10
14203.122341450509
 20
3963.0604840254268
 30
0.0
 40
160.0
  1
A
 72
     4
 11
14256.455674783851
 21
4043.0604840254268
 31
0.0
  0
TEXT
  5
4FCB
  8
0-2
  6
CONTINUOUS
 62
     7
 10
10934.3203614505
 20
3963.0604840254268
 30
0.0
 40
160.0
  1
B
 72
     4
 11
10987.653694783839
 21
4043.0604840254268
 31
0.0
  0
TEXT
  5
4FCC
  8
0-2
  6
CONTINUOUS
 62
     7
 10
8016.3223414505073
 20
3963.0604840254268
 30
0.0
 40
160.0
  1
C
 72
     4
 11
8069.6556747838404
 21
4043.0604840254268
 31
0.0
  0
CIRCLE
  5
4FCD
  8
0-2
  6
CONTINUOUS
 62
     4
 10
10980.063053999969
 20
4036.859910000011
 30
0.0
 40
199.9999949999999
  0
CIRCLE
  5
4FCE
  8
0-2
  6
CONTINUOUS
 62
     4
 10
14248.863053999979
 20
4036.859910000011
 30
0.0
 40
199.9999949999999
  0
CIRCLE
  5
4FCF
  8
0-2
  6
CONTINUOUS
 62
     4
 10
8062.0630539999829
 20
4036.859910000011
 30
0.0
 40
199.9999949999999
  0
ARC
  5
4FD0
  8
0-1
  6
CONTINUOUS
 62
     3
 10
13795.562023999961
 20
7183.8150015000083
 30
0.0
 40
12.000000999999999
 50
179.99998499997241
 51
0.0
  0
ARC
  5
4FD1
  8
0-1
  6
CONTINUOUS
 62
     3
 10
13795.562023999961
 20
7285.815140500009
 30
0.0
 40
12.000000999999999
 50
0.0
 51
179.99998499997241
  0
ARC
  5
4FD2
  8
0-1
  6
CONTINUOUS
 62
     3
 10
13795.562023999961
 20
7183.8150015000083
 30
0.0
 40
14.0
 50
179.99998499997241
 51
0.0
  0
ARC
  5
4FD3
  8
0-1
  6
CONTINUOUS
 62
     3
 10
13795.562023999961
 20
7285.815140500009
 30
0.0
 40
14.0
 50
0.0
 51
180.0
  0
CIRCLE
  5
4FD4
  8
0-1
  6
CONTINUOUS
 62
     3
 10
13795.562023999961
 20
7197.8151465000083
 30
0.0
 40
11.00000099999999
  0
ARC
  5
4FD5
  8
0-1
  6
CONTINUOUS
 62
     3
 10
13766.061258999969
 20
7289.2154585000089
 30
0.0
 40
2.0
 50
289.99256900016252
 51
0.0
  0
ARC
  5
4FD6
  8
0-1
  6
CONTINUOUS
 62
     3
 10
13766.061258999969
 20
7180.4141885000081
 30
0.0
 40
2.0
 50
0.0
 51
70.007415999868869
  0
ARC
  5
4FD7
  8
0-1
  6
CONTINUOUS
 62
     3
 10
13762.062630999981
 20
7187.1900805000059
 30
0.0
 40
1.0
 50
180.0
 51
250.0074159998689
  0
ARC
  5
4FD8
  8
0-1
  6
CONTINUOUS
 62
     3
 10
13767.062894999979
 20
7185.3709035000074
 30
0.0
 40
1.0
 50
250.0074159998689
 51
0.0
  0
ARC
  5
4FD9
  8
0-1
  6
CONTINUOUS
 62
     3
 10
13767.062894999979
 20
7284.258743500005
 30
0.0
 40
1.0
 50
0.0
 51
109.9925690001624
  0
ARC
  5
4FDA
  8
0-1
  6
CONTINUOUS
 62
     3
 10
13759.06366099998
 20
7282.412347500006
 30
0.0
 40
2.0
 50
0.0
 51
109.9925690001624
  0
ARC
  5
4FDB
  8
0-1
  6
CONTINUOUS
 62
     3
 10
13759.06366099998
 20
7187.21779350001
 30
0.0
 40
2.0
 50
250.0074159998689
 51
0.0
  0
ARC
  5
4FDC
  8
0-1
  6
CONTINUOUS
 62
     3
 10
13744.062868999979
 20
7201.1872565000067
 30
0.0
 40
10.0
 50
180.0
 51
250.0074159998689
  0
ARC
  5
4FDD
  8
0-1
  6
CONTINUOUS
 62
     3
 10
13744.062868999979
 20
7268.441400500009
 30
0.0
 40
10.0
 50
109.9925690001624
 51
180.0
  0
ARC
  5
4FDE
  8
0-1
  6
CONTINUOUS
 62
     3
 10
13762.062630999981
 20
7289.8142625000064
 30
0.0
 40
6.0000010000000001
 50
0.0
 51
90.0
  0
ARC
  5
4FDF
  8
0-1
  6
CONTINUOUS
 62
     3
 10
13762.062630999981
 20
7179.8143945000102
 30
0.0
 40
6.0000010000000001
 50
269.9999850001808
 51
0.0
  0
ARC
  5
4FE0
  8
0-1
  6
CONTINUOUS
 62
     3
 10
13726.06112699999
 20
7179.8143945000102
 30
0.0
 40
6.0000010000000001
 50
180.0
 51
269.9999850001808
  0
ARC
  5
4FE1
  8
0-1
  6
CONTINUOUS
 62
     3
 10
13726.06112699999
 20
7289.8142625000064
 30
0.0
 40
6.0000010000000001
 50
90.0
 51
180.0
  0
ARC
  5
4FE2
  8
0-1
  6
CONTINUOUS
 62
     3
 10
7845.0246769999803
 20
8486.7500530000016
 30
0.0
 40
3.0
 50
181.7199860000201
 51
271.71998600002632
  0
ARC
  5
4FE3
  8
0-1
  6
CONTINUOUS
 62
     3
 10
14376.00050099995
 20
8699.2592910000058
 30
0.0
 40
20.0
 50
271.71998600002632
 51
91.719986000026395
  0
ARC
  5
4FE4
  8
0-1
  6
CONTINUOUS
 62
     3
 10
7844.0032459999838
 20
8520.7354180000057
 30
0.0
 40
3.0
 50
91.719986000026395
 51
181.7199860000201
  0
ARC
  5
4FE5
  8
0-1
  6
CONTINUOUS
 62
     3
 10
7846.6874729999763
 20
8481.2974690000028
 30
0.0
 40
2.5
 50
271.71998600002632
 51
91.719986000026395
  0
ARC
  5
4FE6
  8
0-1
  6
CONTINUOUS
 62
     3
 10
7845.3374409999806
 20
8526.2780700000003
 30
0.0
 40
2.5
 50
271.71998600002632
 51
91.719986000026395
  0
ARC
  5
4FE7
  8
0-1
  6
CONTINUOUS
 62
     3
 10
7845.3532769999792
 20
8475.7548170000027
 30
0.0
 40
3.0
 50
91.719986000026395
 51
181.7199860000201
  0
ARC
  5
4FE8
  8
0-1
  6
CONTINUOUS
 62
     3
 10
7848.3126579999789
 20
8443.8301320000064
 30
0.0
 40
5.0
 50
181.7199860000201
 51
271.71998600002632
  0
ARC
  5
4FE9
  8
0-1
  6
CONTINUOUS
 62
     3
 10
14371.002216999959
 20
8699.1098380000058
 30
0.0
 40
69.999999000000003
 50
293.50677499977661
 51
69.933196999909853
  0
ARC
  5
4FEA
  8
0-1
  6
CONTINUOUS
 62
     3
 10
7844.7119129999792
 20
8563.7760910000106
 30
0.0
 40
5.0
 50
91.719986000026395
 51
181.7199860000201
  0
ARC
  5
4FEB
  8
0-1
  6
CONTINUOUS
 62
     3
 10
7843.672665999974
 20
8531.7296640000004
 30
0.0
 40
3.0
 50
181.7199860000201
 51
271.71998600002632
  0
ARC
  5
4FEC
  8
0-1
  6
CONTINUOUS
 62
     3
 10
14376.00050099995
 20
8699.2592910000058
 30
0.0
 40
24.999998999999999
 50
271.71998600002632
 51
91.719986000026395
  0
LINE
  5
4FED
  8
2-0
  6
CENTER2
 62
     6
 10
14248.56305399998
 20
5814.2067940000097
 30
0.0
 11
14248.56305399998
 21
6871.349887000014
 31
0.0
  0
LINE
  5
4FEE
  8
2-0
  6
CENTER2
 62
     6
 10
10980.063053999969
 20
5814.2067940000097
 30
0.0
 11
10980.063053999969
 21
6871.349887000014
 31
0.0
  0
LINE
  5
4FEF
  8
2-0
  6
CENTER2
 62
     6
 10
8062.0630539999829
 20
5814.2067940000097
 30
0.0
 11
8062.0630539999829
 21
6871.349887000014
 31
0.0
  0
LINE
  5
4FF0
  8
0-2
  6
CONTINUOUS
 62
     4
 10
14248.863053999979
 20
4396.8596130000133
 30
0.0
 11
14248.863053999979
 21
4236.8595800000121
 31
0.0
  0
LINE
  5
4FF1
  8
0-2
  6
CONTINUOUS
 62
     4
 10
10980.063053999969
 20
4396.8596130000133
 30
0.0
 11
10980.063053999969
 21
4236.8595800000121
 31
0.0
  0
LINE
  5
4FF2
  8
0-2
  6
CONTINUOUS
 62
     4
 10
8062.0630539999829
 20
4396.8596130000133
 30
0.0
 11
8062.0630539999829
 21
4236.8595800000121
 31
0.0
  0
LINE
  5
4FF3
  8
0-1
  6
CONTINUOUS
 62
     3
 10
13852.56226199999
 20
8242.7689450000016
 30
0.0
 11
13852.56226199999
 21
6226.8597120000104
 31
0.0
  0
LINE
  5
4FF4
  8
0-1
  6
CONTINUOUS
 62
     3
 10
12415.560440999971
 20
8242.7689450000016
 30
0.0
 11
12415.560440999971
 21
6226.8597120000104
 31
0.0
  0
LINE
  5
4FF5
  8
0-1
  6
CONTINUOUS
 62
     3
 10
13811.562472999971
 20
8242.7689450000016
 30
0.0
 11
13811.562472999971
 21
6226.8597120000104
 31
0.0
  0
LINE
  5
4FF6
  8
0-1
  6
CONTINUOUS
 62
     3
 10
13106.06402999998
 20
6226.8597120000104
 30
0.0
 11
13106.06402999998
 21
8242.7689450000016
 31
0.0
  0
LINE
  5
4FF7
  8
0-1
  6
CONTINUOUS
 62
     3
 10
13811.562472999971
 20
6226.8597120000104
 30
0.0
 11
13106.06402999998
 21
6226.8597120000104
 31
0.0
  0
LINE
  5
4FF8
  8
0-1
  6
CONTINUOUS
 62
     3
 10
13796.56168099999
 20
7205.3145525000091
 30
0.0
 11
13796.56168099999
 21
7190.3142555000104
 31
0.0
  0
LINE
  5
4FF9
  8
0-1
  6
CONTINUOUS
 62
     3
 10
13794.56038799998
 20
7205.3145525000091
 30
0.0
 11
13796.56168099999
 21
7205.3145525000091
 31
0.0
  0
LINE
  5
4FFA
  8
0-1
  6
CONTINUOUS
 62
     3
 10
13794.56038799998
 20
7190.3142555000104
 30
0.0
 11
13794.56038799998
 21
7205.3145525000091
 31
0.0
  0
LINE
  5
4FFB
  8
0-1
  6
CONTINUOUS
 62
     3
 10
13796.56168099999
 20
7190.3142555000104
 30
0.0
 11
13794.56038799998
 21
7190.3142555000104
 31
0.0
  0
LINE
  5
4FFC
  8
0-1
  6
CONTINUOUS
 62
     3
 10
13803.06044099998
 20
7270.8148435000094
 30
0.0
 11
13803.06044099998
 21
7224.8147905000087
 31
0.0
  0
LINE
  5
4FFD
  8
0-1
  6
CONTINUOUS
 62
     3
 10
13788.063607999949
 20
7270.8148435000094
 30
0.0
 11
13803.06044099998
 21
7270.8148435000094
 31
0.0
  0
LINE
  5
4FFE
  8
0-1
  6
CONTINUOUS
 62
     3
 10
13788.063607999949
 20
7224.8147905000087
 30
0.0
 11
13788.063607999949
 21
7270.8148435000094
 31
0.0
  0
LINE
  5
4FFF
  8
0-1
  6
CONTINUOUS
 62
     3
 10
13803.06044099998
 20
7224.8147905000087
 30
0.0
 11
13788.063607999949
 21
7224.8147905000087
 31
0.0
  0
LINE
  5
5000
  8
0-1
  6
CONTINUOUS
 62
     3
 10
13783.562182999971
 20
7183.8150015000083
 30
0.0
 11
13783.562182999971
 21
7285.815140500009
 31
0.0
  0
LINE
  5
5001
  8
0-1
  6
CONTINUOUS
 62
     3
 10
13807.561865999971
 20
7285.815140500009
 30
0.0
 11
13807.561865999971
 21
7183.8150015000083
 31
0.0
  0
LINE
  5
5002
  8
0-1
  6
CONTINUOUS
 62
     3
 10
13781.56286899999
 20
7183.8150015000083
 30
0.0
 11
13781.56286899999
 21
7285.815140500009
 31
0.0
  0
LINE
  5
5003
  8
0-1
  6
CONTINUOUS
 62
     3
 10
13809.563158999979
 20
7285.815140500009
 30
0.0
 11
13809.563158999979
 21
7183.8150015000083
 31
0.0
  0
LINE
  5
5004
  8
0-1
  6
CONTINUOUS
 62
     3
 10
13767.062894999979
 20
7287.4828845000084
 30
0.0
 11
13767.062894999979
 21
7285.3222395000093
 31
0.0
  0
LINE
  5
5005
  8
0-1
  6
CONTINUOUS
 62
     3
 10
13766.746171999979
 20
7287.335905500011
 30
0.0
 11
13740.64226099997
 21
7277.8391645000102
 31
0.0
  0
LINE
  5
5006
  8
0-1
  6
CONTINUOUS
 62
     3
 10
13768.06255199999
 20
7289.2154585000089
 30
0.0
 11
13768.06255199999
 21
7289.8142625000064
 31
0.0
  0
LINE
  5
5007
  8
0-1
  6
CONTINUOUS
 62
     3
 10
13768.06255199999
 20
7179.8143945000102
 30
0.0
 11
13768.06255199999
 21
7180.4141885000081
 31
0.0
  0
LINE
  5
5008
  8
0-1
  6
CONTINUOUS
 62
     3
 10
13766.746171999979
 20
7182.2932465000113
 30
0.0
 11
13740.64226099997
 21
7191.7904815000102
 31
0.0
  0
LINE
  5
5009
  8
0-1
  6
CONTINUOUS
 62
     3
 10
13761.06297399996
 20
7187.1900805000059
 30
0.0
 11
13761.06297399996
 21
7282.412347500006
 31
0.0
  0
LINE
  5
500A
  8
0-1
  6
CONTINUOUS
 62
     3
 10
13766.72043799998
 20
7184.431621500009
 30
0.0
 11
13761.720174999949
 21
7186.249809500011
 31
0.0
  0
LINE
  5
500B
  8
0-1
  6
CONTINUOUS
 62
     3
 10
13768.06255199999
 20
7185.3709035000074
 30
0.0
 11
13768.06255199999
 21
7284.258743500005
 31
0.0
  0
LINE
  5
500C
  8
0-1
  6
CONTINUOUS
 62
     3
 10
13766.72043799998
 20
7285.1985205000065
 30
0.0
 11
13760.940243999979
 21
7283.0962715000032
 31
0.0
  0
LINE
  5
500D
  8
0-1
  6
CONTINUOUS
 62
     3
 10
13767.062894999979
 20
7182.1784345000069
 30
0.0
 11
13767.062894999979
 21
7184.3069115000089
 31
0.0
  0
LINE
  5
500E
  8
0-1
  6
CONTINUOUS
 62
     3
 10
13734.062340999981
 20
7201.1872565000067
 30
0.0
 11
13734.062340999981
 21
7268.441400500009
 31
0.0
  0
LINE
  5
500F
  8
0-1
  6
CONTINUOUS
 62
     3
 10
13720.06318599997
 20
7289.8142625000064
 30
0.0
 11
13720.06318599997
 21
7179.8143945000102
 31
0.0
  0
LINE
  5
5010
  8
0-1
  6
CONTINUOUS
 62
     3
 10
13726.06112699999
 20
7173.8149685000099
 30
0.0
 11
13762.062630999981
 21
7173.8149685000099
 31
0.0
  0
LINE
  5
5011
  8
0-1
  6
CONTINUOUS
 62
     3
 10
13762.062630999981
 20
7295.8151735000101
 30
0.0
 11
13726.06112699999
 21
7295.8151735000101
 31
0.0
  0
LINE
  5
5012
  8
0-1
  6
CONTINUOUS
 62
     3
 10
13812.56212999996
 20
8242.7689450000016
 30
0.0
 11
13812.56212999996
 21
6226.8597120000104
 31
0.0
  0
LINE
  5
5013
  8
0-1
  6
CONTINUOUS
 62
     3
 10
12452.56160199998
 20
8242.7689450000016
 30
0.0
 11
12452.56160199998
 21
6226.8597120000104
 31
0.0
  0
LINE
  5
5014
  8
0-1
  6
CONTINUOUS
 62
     3
 10
13853.063079999991
 20
8242.7689450000016
 30
0.0
 11
13853.063079999991
 21
8323.7683710000056
 31
0.0
  0
LINE
  5
5015
  8
0-1
  6
CONTINUOUS
 62
     3
 10
12415.061601999971
 20
8242.7689450000016
 30
0.0
 11
13853.063079999991
 21
8242.7689450000016
 31
0.0
  0
LINE
  5
5016
  8
0-1
  6
CONTINUOUS
 62
     3
 10
12415.061601999971
 20
8323.7683710000056
 30
0.0
 11
12415.061601999971
 21
8242.7689450000016
 31
0.0
  0
LINE
  5
5017
  8
0-1
  6
CONTINUOUS
 62
     3
 10
13853.063079999991
 20
8323.7683710000056
 30
0.0
 11
12415.061601999971
 21
8323.7683710000056
 31
0.0
  0
LINE
  5
5018
  8
0-1
  6
CONTINUOUS
 62
     3
 10
14303.56305399998
 20
6176.85954700001
 30
0.0
 11
14303.56305399998
 21
6076.8597120000077
 31
0.0
  0
LINE
  5
5019
  8
0-1
  6
CONTINUOUS
 62
     3
 10
14176.06120599998
 20
8327.8145070000082
 30
0.0
 11
14176.06120599998
 21
6176.85954700001
 31
0.0
  0
LINE
  5
501A
  8
0-1
  6
CONTINUOUS
 62
     3
 10
14271.06226199999
 20
8631.0965480000032
 30
0.0
 11
14271.06226199999
 21
6176.85954700001
 31
0.0
  0
LINE
  5
501B
  8
0-1
  6
CONTINUOUS
 62
     3
 10
14291.06305399998
 20
8631.6892587655766
 30
0.0
 11
14291.06305399998
 21
6176.85954700001
 31
0.0
  0
LINE
  5
501C
  8
0-1
  6
CONTINUOUS
 62
     3
 10
11444.062208999971
 20
6226.8597120000104
 30
0.0
 11
11444.062208999971
 21
8327.8145070000082
 31
0.0
  0
LINE
  5
501D
  8
0-1
  6
CONTINUOUS
 62
     3
 10
11577.062102999969
 20
6226.8597120000104
 30
0.0
 11
11577.062102999969
 21
8327.8145070000082
 31
0.0
  0
LINE
  5
501E
  8
0-1
  6
CONTINUOUS
 62
     3
 10
11592.060915999969
 20
6226.8597120000104
 30
0.0
 11
11592.060915999969
 21
8327.8145070000082
 31
0.0
  0
LINE
  5
501F
  8
0-1
  6
CONTINUOUS
 62
     3
 10
12794.06220899998
 20
6226.8597120000104
 30
0.0
 11
12794.06220899998
 21
8242.7689450000016
 31
0.0
  0
LINE
  5
5020
  8
0-1
  6
CONTINUOUS
 62
     3
 10
12774.063132999971
 20
6226.8597120000104
 30
0.0
 11
12774.063132999971
 21
8242.7689450000016
 31
0.0
  0
LINE
  5
5021
  8
0-1
  6
CONTINUOUS
 62
     3
 10
12844.06286899999
 20
6226.8597120000104
 30
0.0
 11
12844.062868999979
 21
8242.7689450000016
 31
0.0
  0
LINE
  5
5022
  8
0-1
  6
CONTINUOUS
 62
     3
 10
12724.062472999971
 20
6226.8597120000104
 30
0.0
 11
12724.062472999971
 21
8242.7689450000016
 31
0.0
  0
LINE
  5
5023
  8
0-1
  6
CONTINUOUS
 62
     3
 10
12591.06059899998
 20
6226.8597120000104
 30
0.0
 11
12591.06059899998
 21
8242.7689450000016
 31
0.0
  0
LINE
  5
5024
  8
0-1
  6
CONTINUOUS
 62
     3
 10
12576.063765999979
 20
6226.8597120000104
 30
0.0
 11
12576.063765999979
 21
8242.7689450000016
 31
0.0
  0
LINE
  5
5025
  8
0-1
  6
CONTINUOUS
 62
     3
 10
12977.06276299998
 20
6226.8597120000104
 30
0.0
 11
12977.06276299998
 21
8242.7689450000016
 31
0.0
  0
LINE
  5
5026
  8
0-1
  6
CONTINUOUS
 62
     3
 10
12992.06157499998
 20
6226.8597120000104
 30
0.0
 11
12992.061574999971
 21
8242.7689450000016
 31
0.0
  0
LINE
  5
5027
  8
0-1
  6
CONTINUOUS
 62
     3
 10
12292.062234999979
 20
6226.8597120000104
 30
0.0
 11
12292.062234999979
 21
8327.8145070000082
 31
0.0
  0
LINE
  5
5028
  8
0-1
  6
CONTINUOUS
 62
     3
 10
12277.061443999981
 20
6226.8597120000104
 30
0.0
 11
12277.061443999981
 21
8327.8145070000082
 31
0.0
  0
LINE
  5
5029
  8
0-1
  6
CONTINUOUS
 62
     3
 10
11876.062445999971
 20
6226.8597120000104
 30
0.0
 11
11876.062445999971
 21
8327.8145070000082
 31
0.0
  0
LINE
  5
502A
  8
0-1
  6
CONTINUOUS
 62
     3
 10
11891.063237999981
 20
6226.8597120000104
 30
0.0
 11
11891.063237999981
 21
8327.8145070000082
 31
0.0
  0
LINE
  5
502B
  8
0-1
  6
CONTINUOUS
 62
     3
 10
12024.06313299998
 20
6226.8597120000104
 30
0.0
 11
12024.06313299998
 21
8327.8145070000082
 31
0.0
  0
LINE
  5
502C
  8
0-1
  6
CONTINUOUS
 62
     3
 10
12144.06154899996
 20
6226.8597120000104
 30
0.0
 11
12144.06154899996
 21
8327.8145070000082
 31
0.0
  0
LINE
  5
502D
  8
0-1
  6
CONTINUOUS
 62
     3
 10
12074.06181299998
 20
6226.8597120000104
 30
0.0
 11
12074.061812999949
 21
8327.8145070000082
 31
0.0
  0
LINE
  5
502E
  8
0-1
  6
CONTINUOUS
 62
     3
 10
12094.062868999979
 20
6226.8597120000104
 30
0.0
 11
12094.062868999979
 21
8327.8145070000082
 31
0.0
  0
LINE
  5
502F
  8
0-1
  6
CONTINUOUS
 62
     3
 10
11752.562261999979
 20
8327.8145070000082
 30
0.0
 11
11752.562261999979
 21
6226.8597120000104
 31
0.0
  0
LINE
  5
5030
  8
0-1
  6
CONTINUOUS
 62
     3
 10
11715.563079999971
 20
8327.8145070000082
 30
0.0
 11
11715.563079999971
 21
6226.8597120000104
 31
0.0
  0
LINE
  5
5031
  8
0-1
  6
CONTINUOUS
 62
     3
 10
12415.560440999971
 20
8327.8145070000082
 30
0.0
 11
12415.560440999971
 21
8323.7683710000056
 31
0.0
  0
LINE
  5
5032
  8
0-1
  6
CONTINUOUS
 62
     3
 10
13852.56226199999
 20
8327.8145070000082
 30
0.0
 11
13852.56226199999
 21
8323.7683710000056
 31
0.0
  0
LINE
  5
5033
  8
0-1
  6
CONTINUOUS
 62
     3
 10
9544.5617069999898
 20
8327.8145070000082
 30
0.0
 11
9544.5617069999898
 21
6226.8597120000104
 31
0.0
  0
LINE
  5
5034
  8
0-1
  6
CONTINUOUS
 62
     3
 10
9507.5605459999861
 20
8327.8145070000082
 30
0.0
 11
9507.5605459999861
 21
6226.8597120000104
 31
0.0
  0
LINE
  5
5035
  8
0-1
  6
CONTINUOUS
 62
     3
 10
8844.5623669999859
 20
8327.8145070000082
 30
0.0
 11
8844.5623669999859
 21
6226.8597120000104
 31
0.0
  0
LINE
  5
5036
  8
0-1
  6
CONTINUOUS
 62
     3
 10
8807.5631859999776
 20
8327.8145070000082
 30
0.0
 11
8807.5631859999776
 21
6226.8597120000104
 31
0.0
  0
LINE
  5
5037
  8
0-1
  6
CONTINUOUS
 62
     3
 10
10244.563026999969
 20
8327.8145070000082
 30
0.0
 11
10244.563026999969
 21
6226.8597120000104
 31
0.0
  0
LINE
  5
5038
  8
0-1
  6
CONTINUOUS
 62
     3
 10
10207.56186599998
 20
8327.8145070000082
 30
0.0
 11
10207.56186599998
 21
6226.8597120000104
 31
0.0
  0
LINE
  5
5039
  8
0-1
  6
CONTINUOUS
 62
     3
 10
9866.0612589999873
 20
6226.8597120000104
 30
0.0
 11
9866.0612589999801
 21
8327.8145070000082
 31
0.0
  0
LINE
  5
503A
  8
0-1
  6
CONTINUOUS
 62
     3
 10
9886.0623149999883
 20
6226.8597120000104
 30
0.0
 11
9886.0623149999883
 21
8327.8145070000082
 31
0.0
  0
LINE
  5
503B
  8
0-1
  6
CONTINUOUS
 62
     3
 10
9816.0605989999822
 20
6226.8597120000104
 30
0.0
 11
9816.0605989999822
 21
8327.8145070000082
 31
0.0
  0
LINE
  5
503C
  8
0-1
  6
CONTINUOUS
 62
     3
 10
9936.0629739999877
 20
6226.8597120000104
 30
0.0
 11
9936.0629739999804
 21
8327.8145070000082
 31
0.0
  0
LINE
  5
503D
  8
0-1
  6
CONTINUOUS
 62
     3
 10
10069.062868999979
 20
6226.8597120000104
 30
0.0
 11
10069.062868999979
 21
8327.8145070000082
 31
0.0
  0
LINE
  5
503E
  8
0-1
  6
CONTINUOUS
 62
     3
 10
10084.061680999979
 20
6226.8597120000104
 30
0.0
 11
10084.061680999979
 21
8327.8145070000082
 31
0.0
  0
LINE
  5
503F
  8
0-1
  6
CONTINUOUS
 62
     3
 10
9683.0607049999908
 20
6226.8597120000104
 30
0.0
 11
9683.0607049999908
 21
8327.8145070000082
 31
0.0
  0
LINE
  5
5040
  8
0-1
  6
CONTINUOUS
 62
     3
 10
9668.0618919999833
 20
6226.8597120000104
 30
0.0
 11
9668.0618919999743
 21
8327.8145070000082
 31
0.0
  0
LINE
  5
5041
  8
0-1
  6
CONTINUOUS
 62
     3
 10
8968.0625519999812
 20
6226.8597120000104
 30
0.0
 11
8968.0625519999812
 21
8327.8145070000082
 31
0.0
  0
LINE
  5
5042
  8
0-1
  6
CONTINUOUS
 62
     3
 10
8983.0613639999865
 20
6226.8597120000104
 30
0.0
 11
8983.0613639999792
 21
8327.8145070000082
 31
0.0
  0
LINE
  5
5043
  8
0-1
  6
CONTINUOUS
 62
     3
 10
9384.0623409999826
 20
6226.8597120000104
 30
0.0
 11
9384.0623409999826
 21
8327.8145070000082
 31
0.0
  0
LINE
  5
5044
  8
0-1
  6
CONTINUOUS
 62
     3
 10
9369.0615489999855
 20
6226.8597120000104
 30
0.0
 11
9369.0615489999855
 21
8327.8145070000082
 31
0.0
  0
LINE
  5
5045
  8
0-1
  6
CONTINUOUS
 62
     3
 10
9236.0616549999904
 20
6226.8597120000104
 30
0.0
 11
9236.0616549999831
 21
8327.8145070000082
 31
0.0
  0
LINE
  5
5046
  8
0-1
  6
CONTINUOUS
 62
     3
 10
9116.0632379999879
 20
6226.8597120000104
 30
0.0
 11
9116.0632379999806
 21
8327.8145070000082
 31
0.0
  0
LINE
  5
5047
  8
0-1
  6
CONTINUOUS
 62
     3
 10
9186.062973999984
 20
6226.8597120000104
 30
0.0
 11
9186.0629739999804
 21
8327.8145070000082
 31
0.0
  0
LINE
  5
5048
  8
0-1
  6
CONTINUOUS
 62
     3
 10
9166.0619189999834
 20
6226.8597120000104
 30
0.0
 11
9166.0619189999834
 21
8327.8145070000082
 31
0.0
  0
LINE
  5
5049
  8
0-1
  6
CONTINUOUS
 62
     3
 10
10368.063211999979
 20
6226.8597120000104
 30
0.0
 11
10368.063211999979
 21
8327.8145070000082
 31
0.0
  0
LINE
  5
504A
  8
0-1
  6
CONTINUOUS
 62
     3
 10
10383.062023999981
 20
6226.8597120000104
 30
0.0
 11
10383.062023999981
 21
8327.8145070000082
 31
0.0
  0
LINE
  5
504B
  8
0-1
  6
CONTINUOUS
 62
     3
 10
10516.061918999971
 20
6226.8597120000104
 30
0.0
 11
10516.061918999971
 21
8327.8145070000082
 31
0.0
  0
LINE
  5
504C
  8
0-1
  6
CONTINUOUS
 62
     3
 10
10784.06102099997
 20
6226.8597120000104
 30
0.0
 11
10784.06102099997
 21
8327.8145070000082
 31
0.0
  0
LINE
  5
504D
  8
0-1
  6
CONTINUOUS
 62
     3
 10
10769.064187999969
 20
6226.8597120000104
 30
0.0
 11
10769.064187999969
 21
8327.8145070000082
 31
0.0
  0
LINE
  5
504E
  8
0-1
  6
CONTINUOUS
 62
     3
 10
10636.062314999979
 20
6226.8597120000104
 30
0.0
 11
10636.062314999979
 21
8327.8145070000082
 31
0.0
  0
LINE
  5
504F
  8
0-1
  6
CONTINUOUS
 62
     3
 10
10586.06165499999
 20
6226.8597120000104
 30
0.0
 11
10586.06165499999
 21
8327.8145070000082
 31
0.0
  0
LINE
  5
5050
  8
0-1
  6
CONTINUOUS
 62
     3
 10
10566.062577999979
 20
6226.8597120000104
 30
0.0
 11
10566.062577999979
 21
8327.8145070000082
 31
0.0
  0
LINE
  5
5051
  8
0-1
  6
CONTINUOUS
 62
     3
 10
11394.06154899996
 20
6226.8597120000104
 30
0.0
 11
11394.06154899996
 21
8327.8145070000082
 31
0.0
  0
LINE
  5
5052
  8
0-1
  6
CONTINUOUS
 62
     3
 10
11374.060492999981
 20
6226.8597120000104
 30
0.0
 11
11374.060492999981
 21
8327.8145070000082
 31
0.0
  0
LINE
  5
5053
  8
0-1
  6
CONTINUOUS
 62
     3
 10
11324.06181299998
 20
6226.8597120000104
 30
0.0
 11
11324.06181299998
 21
8327.8145070000082
 31
0.0
  0
LINE
  5
5054
  8
0-1
  6
CONTINUOUS
 62
     3
 10
11191.06191899998
 20
6226.8597120000104
 30
0.0
 11
11191.06191899998
 21
8327.8145070000082
 31
0.0
  0
LINE
  5
5055
  8
0-1
  6
CONTINUOUS
 62
     3
 10
11176.061126999961
 20
6226.8597120000104
 30
0.0
 11
11176.061126999961
 21
8327.8145070000082
 31
0.0
  0
LINE
  5
5056
  8
0-1
  6
CONTINUOUS
 62
     3
 10
10907.56318599997
 20
8327.8145070000082
 30
0.0
 11
10907.56318599997
 21
6176.85954700001
 31
0.0
  0
LINE
  5
5057
  8
0-1
  6
CONTINUOUS
 62
     3
 10
11052.562921999979
 20
8327.8145070000082
 30
0.0
 11
11052.562921999979
 21
6176.85954700001
 31
0.0
  0
LINE
  5
5058
  8
0-1
  6
CONTINUOUS
 62
     3
 10
10980.063053999969
 20
8532.5699700000059
 30
0.0
 11
10980.063053999969
 21
8327.8145070000082
 31
0.0
  0
LINE
  5
5059
  8
0-1
  6
CONTINUOUS
 62
     3
 10
11052.562921999979
 20
6226.8597120000104
 30
0.0
 11
14176.06120599998
 21
6226.8597120000104
 31
0.0
  0
LINE
  5
505A
  8
0-1
  6
CONTINUOUS
 62
     3
 10
7857.0561909999806
 20
8569.1485040000061
 30
0.0
 11
7860.9578219999794
 21
8439.206966000007
 31
0.0
  0
LINE
  5
505B
  8
0-1
  6
CONTINUOUS
 62
     3
 10
8012.0630539999838
 20
6076.8597120000077
 30
0.0
 11
8012.0630539999838
 21
6176.85954700001
 31
0.0
  0
LINE
  5
505C
  8
0-1
  6
CONTINUOUS
 62
     3
 10
8466.0605989999822
 20
6226.8597120000104
 30
0.0
 11
8466.0605989999822
 21
8327.8145070000082
 31
0.0
  0
LINE
  5
505D
  8
0-1
  6
CONTINUOUS
 62
     3
 10
8486.0616549999813
 20
6226.8597120000104
 30
0.0
 11
8486.0616549999813
 21
8327.8145070000082
 31
0.0
  0
LINE
  5
505E
  8
0-1
  6
CONTINUOUS
 62
     3
 10
8416.0619189999798
 20
6226.8597120000104
 30
0.0
 11
8416.0619189999798
 21
8327.8145070000082
 31
0.0
  0
LINE
  5
505F
  8
0-1
  6
CONTINUOUS
 62
     3
 10
8536.062314999981
 20
6226.8597120000104
 30
0.0
 11
8536.062314999981
 21
8327.8145070000082
 31
0.0
  0
LINE
  5
5060
  8
0-1
  6
CONTINUOUS
 62
     3
 10
8669.062208999987
 20
6226.8597120000104
 30
0.0
 11
8669.0622089999797
 21
8327.8145070000082
 31
0.0
  0
LINE
  5
5061
  8
0-1
  6
CONTINUOUS
 62
     3
 10
8684.0610209999868
 20
6226.8597120000104
 30
0.0
 11
8684.0610209999868
 21
8327.8145070000082
 31
0.0
  0
LINE
  5
5062
  8
0-1
  6
CONTINUOUS
 62
     3
 10
8283.0620239999862
 20
6226.8597120000104
 30
0.0
 11
8283.0620239999862
 21
8327.8145070000082
 31
0.0
  0
LINE
  5
5063
  8
0-1
  6
CONTINUOUS
 62
     3
 10
8268.0612319999836
 20
6226.8597120000104
 30
0.0
 11
8268.0612319999836
 21
8327.8145070000082
 31
0.0
  0
LINE
  5
5064
  8
0-1
  6
CONTINUOUS
 62
     3
 10
8134.5649009999743
 20
8327.8145070000082
 30
0.0
 11
8134.5649009999806
 21
6176.85954700001
 31
0.0
  0
LINE
  5
5065
  8
0-1
  6
CONTINUOUS
 62
     3
 10
8039.5638449999824
 20
8444.5704719999976
 30
0.0
 11
8039.5638449999824
 21
6176.85954700001
 31
0.0
  0
LINE
  5
5066
  8
0-1
  6
CONTINUOUS
 62
     3
 10
8019.5630539999838
 20
8443.9696880000083
 30
0.0
 11
8019.5630539999838
 21
6176.85954700001
 31
0.0
  0
LINE
  5
5067
  8
0-1
  6
CONTINUOUS
 62
     3
 10
8012.0630539999838
 20
6176.85954700001
 30
0.0
 11
14303.56305399998
 21
6176.85954700001
 31
0.0
  0
LINE
  5
5068
  8
0-1
  6
CONTINUOUS
 62
     3
 10
8134.5649009999806
 20
6226.8597120000104
 30
0.0
 11
10907.56318599997
 21
6226.8597120000104
 31
0.0
  0
LINE
  5
5069
  8
0-1
  6
CONTINUOUS
 62
     3
 10
7329.563976999978
 20
6076.8597120000077
 30
0.0
 11
14303.56305399998
 21
6076.8597120000077
 31
0.0
  0
LINE
  5
506A
  8
0-1
  6
CONTINUOUS
 62
     3
 10
8039.5638449999824
 20
8327.8145070000082
 30
0.0
 11
14271.06226199999
 21
8327.8145070000082
 31
0.0
  0
LINE
  5
506B
  8
0-1
  6
CONTINUOUS
 62
     3
 10
14365.956423999971
 20
8633.9282500000027
 30
0.0
 11
14362.05479299999
 21
8763.8697880000054
 31
0.0
  0
LINE
  5
506C
  8
0-1
  6
CONTINUOUS
 62
     3
 10
10980.063053999969
 20
8532.5699700000059
 30
0.0
 11
10976.161421999979
 21
8662.5115080000032
 31
0.0
  0
LINE
  5
506D
  8
0-1
  6
CONTINUOUS
 62
     3
 10
14376.60029499998
 20
8679.2691230000019
 30
0.0
 11
7845.1137559999888
 21
8483.7520730000033
 31
0.0
  0
LINE
  5
506E
  8
0-1
  6
CONTINUOUS
 62
     3
 10
7843.9141669999808
 20
8523.7343890000029
 30
0.0
 11
14375.400706999961
 21
8719.2504490000047
 31
0.0
  0
LINE
  5
506F
  8
0-1
  6
CONTINUOUS
 62
     3
 10
7842.0237269999789
 20
8486.6599850000057
 30
0.0
 11
7841.0042749999793
 21
8520.6443600000057
 31
0.0
  0
LINE
  5
5070
  8
0-1
  6
CONTINUOUS
 62
     3
 10
7843.3143729999802
 20
8443.6796880000056
 30
0.0
 11
7842.3562859999793
 21
8475.6657390000055
 31
0.0
  0
LINE
  5
5071
  8
0-1
  6
CONTINUOUS
 62
     3
 10
14398.923325999969
 20
8634.9180090000064
 30
0.0
 11
7848.4631009999803
 21
8438.8328370000036
 31
0.0
  0
LINE
  5
5072
  8
0-1
  6
CONTINUOUS
 62
     3
 10
7844.5614699999778
 20
8568.7743750000027
 30
0.0
 11
14395.02169499997
 21
8764.8595470000055
 31
0.0
  0
LINE
  5
5073
  8
0-1
  6
CONTINUOUS
 62
     3
 10
7840.673694999984
 20
8531.6395960000063
 30
0.0
 11
7839.7136289999862
 21
8563.6256470000062
 31
0.0
  0
LINE
  5
5074
  8
0-1
  6
CONTINUOUS
 62
     3
 10
14375.248283999959
 20
8724.2477440000057
 30
0.0
 11
7843.7637239999804
 21
8528.7316830000018
 31
0.0
  0
LINE
  5
5075
  8
0-1
  6
CONTINUOUS
 62
     3
 10
7845.2641989999738
 20
8478.7537880000054
 30
0.0
 11
14376.752717999971
 21
8674.2708380000022
 31
0.0
  0
LINE
  5
5076
  8
0-2
  6
CONTINUOUS
 62
     4
 10
14248.56305399998
 20
4796.860207000007
 30
0.0
 11
14248.56305399998
 21
4534.8588089890227
 31
0.0
  0
LINE
  5
5077
  8
0-2
  6
CONTINUOUS
 62
     4
 10
8062.0630539999829
 20
4796.860207000007
 30
0.0
 11
8062.0630539999829
 21
4534.8588089890227
 31
0.0
  0
LINE
  5
5078
  8
SUNPOU
  6
CONTINUOUS
 10
7296.2166650000017
 20
20158.596178
 30
0.0
 11
7296.2166650000017
 21
20871.609213360061
 31
0.0
  0
LINE
  5
5079
  8
SUNPOU
  6
CONTINUOUS
 10
7296.2166650000017
 20
13557.097035999999
 30
0.0
 11
7296.2166650000017
 21
12884.42788434564
 31
0.0
  0
CIRCLE
  5
507A
  8
0-5
  6
CONTINUOUS
 62
     4
 10
15128.714698
 20
1375.9996110000011
 30
0.0
 40
20.0
  0
ARC
  5
507B
  8
0-5
  6
CONTINUOUS
 62
     4
 10
15128.714698
 20
1375.9996110000011
 30
0.0
 40
20.0
 50
180.0
 51
0.0
  0
ARC
  5
507C
  8
0-5
  6
CONTINUOUS
 62
     4
 10
15128.714698
 20
1375.9996110000011
 30
0.0
 40
20.0
 50
0.0
 51
179.99998499999839
  0
TEXT
  5
507D
  8
0-5
  6
CONTINUOUS
 62
     7
 10
15288.713245999999
 20
1255.9998340000011
 30
0.0
 40
160.0
  1
有効高サハ、基礎高サヲ含ミマセン。
  0
LINE
  5
5080
  8
WAKUSEN-01
 10
868.00000000000193
 20
22484.000000000011
 30
0.0
 11
32764.000000000011
 21
22484.000000000011
 31
0.0
  0
LINE
  5
5083
  8
WAKUSEN-01
 10
20560.0
 20
2484.0
 30
0.0
 11
32764.0
 21
2484.0
 31
0.0
  0
LINE
  5
5084
  8
WAKUSEN-02
 10
20560.0
 20
1655.9999999999991
 30
0.0
 11
26868.0
 21
1655.9999999999991
 31
0.0
  0
TEXT
  5
5085
  8
WAKUMOJI-01
 10
20670.260259962761
 20
2125.9030093393221
 30
0.0
 40
240.0
  1
名　称
  7
WAKUMOJI
  0
TEXT
  5
5086
  8
WAKUMOJI-01
 10
20656.505485091919
 20
1319.12897497982
 30
0.0
 40
240.0
  1
機種名
  7
WAKUMOJI
  0
LINE
  5
5089
  8
YODOROGO
 10
29977.604341291921
 20
1995.7494964292871
 30
0.0
 11
29829.604341291921
 21
1995.7494964292871
 31
0.0
1001
AUTOCAD_POSTSCRIPT_FIGURE
1002
{
1000
PSFILL
1000
Grayscale
1000
Grayscale
1070
    25
1002
}
  0
LINE
  5
508A
  8
YODOROGO
 10
29829.604341291921
 20
1947.749496429288
 30
0.0
 11
29977.604341291921
 21
1947.749496429288
 31
0.0
1001
AUTOCAD_POSTSCRIPT_FIGURE
1002
{
1000
PSFILL
1000
Grayscale
1000
Grayscale
1070
    25
1002
}
  0
LINE
  5
508B
  8
YODOROGO
 10
29977.604341291921
 20
1907.7494964292871
 30
0.0
 11
29829.604341291921
 21
1907.7494964292871
 31
0.0
1001
AUTOCAD_POSTSCRIPT_FIGURE
1002
{
1000
PSFILL
1000
Grayscale
1000
Grayscale
1070
    25
1002
}
  0
LINE
  5
508C
  8
YODOROGO
 10
29829.604341291921
 20
1859.749496429288
 30
0.0
 11
29977.604341291921
 21
1859.749496429288
 31
0.0
1001
AUTOCAD_POSTSCRIPT_FIGURE
1002
{
1000
PSFILL
1000
Grayscale
1000
Grayscale
1070
    25
1002
}
  0
LINE
  5
508D
  8
YODOROGO
 10
29977.604341291921
 20
1819.7494964292871
 30
0.0
 11
29829.604341291921
 21
1819.7494964292871
 31
0.0
1001
AUTOCAD_POSTSCRIPT_FIGURE
1002
{
1000
PSFILL
1000
Grayscale
1000
Grayscale
1070
    25
1002
}
  0
LINE
  5
508E
  8
YODOROGO
 10
29921.60434129191
 20
1707.749496429288
 30
0.0
 11
29977.604341291921
 21
1707.749496429288
 31
0.0
1001
AUTOCAD_POSTSCRIPT_FIGURE
1002
{
1000
PSFILL
1000
Grayscale
1000
Grayscale
1070
    25
1002
}
  0
LINE
  5
508F
  8
YODOROGO
 10
29737.604341291921
 20
1427.749496429288
 30
0.0
 11
29937.604341291932
 21
1481.3393349155101
 31
0.0
  0
LINE
  5
5090
  8
YODOROGO
 10
29949.60434129191
 20
1707.749496429288
 30
0.0
 11
29885.604341291921
 21
1707.749496429288
 31
0.0
  0
ARC
  5
5091
  8
YODOROGO
 10
30254.34774982791
 20
1807.864609233261
 30
0.0
 40
381.88686420564721
 50
213.96111677667841
 51
264.47872074317792
  0
ARC
  5
5092
  8
YODOROGO
 10
30254.347749827921
 20
1807.864609233302
 30
0.0
 40
381.8868642056816
 50
208.14114420486601
 51
212.9210361185994
  0
LINE
  5
5093
  8
YODOROGO
 10
29771.409872985321
 20
1556.807661346234
 30
0.0
 11
29933.78413250855
 21
1600.3157130570869
 31
0.0
  0
LINE
  5
5094
  8
YODOROGO
 10
29737.604341291921
 20
1427.749496429288
 30
0.0
 11
29937.604341291932
 21
1481.3393349155101
 31
0.0
  0
LINE
  5
5095
  8
YODOROGO
 10
29949.60434129191
 20
1707.749496429288
 30
0.0
 11
29885.604341291921
 21
1707.749496429288
 31
0.0
  0
ARC
  5
5096
  8
YODOROGO
 10
30254.34774982791
 20
1807.864609233261
 30
0.0
 40
381.88686420564721
 50
213.96111677667841
 51
264.47872074317792
  0
LINE
  5
5097
  8
YODOROGO
 10
28793.60434129191
 20
1819.7494964292871
 30
0.0
 11
28433.60434129191
 21
1819.7494964292871
 31
0.0
  0
LINE
  5
5098
  8
YODOROGO
 10
28513.60434129191
 20
1427.749496429288
 30
0.0
 11
28793.60434129191
 21
1427.749496429288
 31
0.0
  0
LINE
  5
5099
  8
YODOROGO
 10
28729.604341291921
 20
1923.7494964292871
 30
0.0
 11
28497.60434129191
 21
1923.7494964292871
 31
0.0
  0
LINE
  5
509A
  8
YODOROGO
 10
28585.604341291921
 20
2027.749496429288
 30
0.0
 11
28657.604341291921
 21
2027.749496429288
 31
0.0
  0
LINE
  5
509B
  8
YODOROGO
 10
28433.60434129191
 20
1707.749496429288
 30
0.0
 11
28433.60434129191
 21
1507.749496429288
 31
0.0
  0
LINE
  5
509C
  8
YODOROGO
 10
28497.60434129191
 20
1563.7494964292871
 30
0.0
 11
28497.60434129191
 21
1707.749496429288
 31
0.0
  0
LINE
  5
509D
  8
YODOROGO
 10
28585.604341291921
 20
1747.74949642929
 30
0.0
 11
28585.604341291921
 21
1547.749496429288
 31
0.0
  0
LINE
  5
509E
  8
YODOROGO
 10
27857.604341291921
 20
1683.749496429288
 30
0.0
 11
27777.604341291921
 21
1619.9724140445701
 31
0.0
  0
LINE
  5
509F
  8
YODOROGO
 10
27937.604341291921
 20
1619.9724140445701
 30
0.0
 11
27857.604341291921
 21
1683.749496429288
 31
0.0
  0
LINE
  5
50A0
  8
YODOROGO
 10
27857.604341291921
 20
1707.749496429288
 30
0.0
 11
27937.604341291921
 21
1643.9724140445701
 31
0.0
  0
LINE
  5
50A1
  8
YODOROGO
 10
27777.604341291921
 20
1643.9724140445701
 30
0.0
 11
27857.604341291921
 21
1707.749496429288
 31
0.0
  0
LINE
  5
50A2
  8
YODOROGO
 10
28040.913204016892
 20
1659.749496429288
 30
0.0
 11
28040.913204016892
 21
1683.7494964292871
 31
0.0
  0
LINE
  5
50A3
  8
YODOROGO
 10
27977.604341291921
 20
1683.7494964292871
 30
0.0
 11
27977.604341291921
 21
1667.749496429285
 31
0.0
  0
LINE
  5
50A4
  8
YODOROGO
 10
28098.135520230931
 20
1707.749496429288
 30
0.0
 11
28098.135520230931
 21
1655.5036372746561
 31
0.0
1001
AUTOCAD_POSTSCRIPT_FIGURE
1002
{
1000
PSFILL
1000
Grayscale
1000
Grayscale
1070
   100
1002
}
  0
LINE
  5
50A5
  8
YODOROGO
 10
28082.135520230921
 20
1655.5036372746561
 30
0.0
 11
28082.135520230921
 21
1707.749496429288
 31
0.0
1001
AUTOCAD_POSTSCRIPT_FIGURE
1002
{
1000
PSFILL
1000
Grayscale
1000
Grayscale
1070
   100
1002
}
  0
LINE
  5
50A6
  8
YODOROGO
 10
27809.604341291921
 20
1608.771904043258
 30
0.0
 11
27809.604341291921
 21
1632.771904043258
 31
0.0
  0
LINE
  5
50A7
  8
YODOROGO
 10
27905.604341291921
 20
1608.771904043258
 30
0.0
 11
27809.604341291921
 21
1608.771904043258
 31
0.0
  0
LINE
  5
50A8
  8
YODOROGO
 10
27905.604341291921
 20
1632.771904043258
 30
0.0
 11
27905.604341291921
 21
1608.771904043258
 31
0.0
  0
LINE
  5
50A9
  8
YODOROGO
 10
27809.604341291921
 20
1632.771904043258
 30
0.0
 11
27905.604341291921
 21
1632.771904043258
 31
0.0
  0
LINE
  5
50AA
  8
YODOROGO
 10
27824.509588915738
 20
1568.5028573704751
 30
0.0
 11
27785.604341291921
 21
1475.7494964292871
 31
0.0
1001
AUTOCAD_POSTSCRIPT_FIGURE
1002
{
1000
PSFILL
1000
Grayscale
1000
Grayscale
1070
   100
1002
}
  0
LINE
  5
50AB
  8
YODOROGO
 10
27777.604341291921
 20
1568.5028573704751
 30
0.0
 11
27824.509588915738
 21
1568.5028573704751
 31
0.0
1001
AUTOCAD_POSTSCRIPT_FIGURE
1002
{
1000
PSFILL
1000
Grayscale
1000
Grayscale
1070
   100
1002
}
  0
LINE
  5
50AC
  8
YODOROGO
 10
27777.604341291921
 20
1588.5028573704751
 30
0.0
 11
27777.604341291921
 21
1568.5028573704751
 31
0.0
1001
AUTOCAD_POSTSCRIPT_FIGURE
1002
{
1000
PSFILL
1000
Grayscale
1000
Grayscale
1070
   100
1002
}
  0
LINE
  5
50AD
  8
YODOROGO
 10
27937.604341291921
 20
1588.5028573704751
 30
0.0
 11
27777.604341291921
 21
1588.5028573704751
 31
0.0
1001
AUTOCAD_POSTSCRIPT_FIGURE
1002
{
1000
PSFILL
1000
Grayscale
1000
Grayscale
1070
   100
1002
}
  0
LINE
  5
50AE
  8
YODOROGO
 10
27937.604341291921
 20
1568.5028573704751
 30
0.0
 11
27937.604341291921
 21
1588.5028573704751
 31
0.0
1001
AUTOCAD_POSTSCRIPT_FIGURE
1002
{
1000
PSFILL
1000
Grayscale
1000
Grayscale
1070
   100
1002
}
  0
LINE
  5
50AF
  8
YODOROGO
 10
27844.509588915738
 20
1568.5028573704751
 30
0.0
 11
27937.604341291921
 21
1568.5028573704751
 31
0.0
1001
AUTOCAD_POSTSCRIPT_FIGURE
1002
{
1000
PSFILL
1000
Grayscale
1000
Grayscale
1070
   100
1002
}
  0
LINE
  5
50B0
  8
YODOROGO
 10
27815.546718284771
 20
1495.7494964292871
 30
0.0
 11
27844.509588915738
 21
1568.5028573704751
 31
0.0
1001
AUTOCAD_POSTSCRIPT_FIGURE
1002
{
1000
PSFILL
1000
Grayscale
1000
Grayscale
1070
   100
1002
}
  0
LINE
  5
50B1
  8
YODOROGO
 10
27902.054790808648
 20
1495.7494964292871
 30
0.0
 11
27815.546718284771
 21
1495.7494964292871
 31
0.0
1001
AUTOCAD_POSTSCRIPT_FIGURE
1002
{
1000
PSFILL
1000
Grayscale
1000
Grayscale
1070
   100
1002
}
  0
LINE
  5
50B2
  8
YODOROGO
 10
27885.065004790951
 20
1536.2338106976929
 30
0.0
 11
27902.054790808648
 21
1495.7494964292871
 31
0.0
1001
AUTOCAD_POSTSCRIPT_FIGURE
1002
{
1000
PSFILL
1000
Grayscale
1000
Grayscale
1070
   100
1002
}
  0
LINE
  5
50B3
  8
YODOROGO
 10
27901.065004790951
 20
1536.2338106976929
 30
0.0
 11
27885.065004790951
 21
1536.2338106976929
 31
0.0
1001
AUTOCAD_POSTSCRIPT_FIGURE
1002
{
1000
PSFILL
1000
Grayscale
1000
Grayscale
1070
   100
1002
}
  0
LINE
  5
50B4
  8
YODOROGO
 10
27929.604341291921
 20
1475.7494964292871
 30
0.0
 11
27901.065004790951
 21
1536.2338106976929
 31
0.0
1001
AUTOCAD_POSTSCRIPT_FIGURE
1002
{
1000
PSFILL
1000
Grayscale
1000
Grayscale
1070
   100
1002
}
  0
LINE
  5
50B5
  8
YODOROGO
 10
27785.604341291921
 20
1475.7494964292871
 30
0.0
 11
27929.604341291921
 21
1475.7494964292871
 31
0.0
1001
AUTOCAD_POSTSCRIPT_FIGURE
1002
{
1000
PSFILL
1000
Grayscale
1000
Grayscale
1070
   100
1002
}
  0
LINE
  5
50B6
  8
YODOROGO
 10
27777.604341291921
 20
1619.9724140445701
 30
0.0
 11
27777.604341291921
 21
1643.9724140445701
 31
0.0
  0
LINE
  5
50B7
  8
YODOROGO
 10
27937.604341291921
 20
1643.9724140445701
 30
0.0
 11
27937.604341291921
 21
1619.9724140445701
 31
0.0
  0
ARC
  5
50B8
  8
YODOROGO
 10
28225.940442146959
 20
1600.877765325326
 30
0.0
 40
175.9999999999998
 50
280.3644312771313
 51
3.5414836592180561
  0
ARC
  5
50B9
  8
YODOROGO
 10
28235.756030759301
 20
1633.5978069619041
 30
0.0
 40
111.9999999999982
 50
281.24905825041549
 51
348.75094174958321
  0
LINE
  5
50BA
  8
YODOROGO
 10
28257.604341291921
 20
1523.7494964292871
 30
0.0
 11
28257.604341291921
 21
1427.749496429288
 31
0.0
  0
LINE
  5
50BB
  8
YODOROGO
 10
28020.088903736909
 20
1610.650565061914
 30
0.0
 11
28040.913204016892
 21
1659.749496429288
 31
0.0
  0
LINE
  5
50BC
  8
YODOROGO
 10
28041.604341291921
 20
1583.120489948401
 30
0.0
 11
28020.088903736909
 21
1610.650565061914
 31
0.0
  0
LINE
  5
50BD
  8
YODOROGO
 10
28041.604341291921
 20
1563.120489948398
 30
0.0
 11
28041.604341291921
 21
1583.120489948401
 31
0.0
  0
LINE
  5
50BE
  8
YODOROGO
 10
28017.604341291921
 20
1585.2370637495301
 30
0.0
 11
28041.604341291921
 21
1563.120489948398
 31
0.0
  0
LINE
  5
50BF
  8
YODOROGO
 10
28017.604341291921
 20
1475.7494964292871
 30
0.0
 11
28017.604341291921
 21
1585.2370637495301
 31
0.0
  0
LINE
  5
50C0
  8
YODOROGO
 10
28001.604341291921
 20
1475.7494964292871
 30
0.0
 11
28017.604341291921
 21
1475.7494964292871
 31
0.0
  0
LINE
  5
50C1
  8
YODOROGO
 10
28001.604341291921
 20
1580.0053496897469
 30
0.0
 11
28001.604341291921
 21
1475.7494964292871
 31
0.0
  0
LINE
  5
50C2
  8
YODOROGO
 10
27977.604341291921
 20
1532.7680790334291
 30
0.0
 11
28001.604341291921
 21
1580.0053496897469
 31
0.0
  0
LINE
  5
50C3
  8
YODOROGO
 10
27977.604341291921
 20
1556.76807903343
 30
0.0
 11
27977.604341291921
 21
1532.7680790334291
 31
0.0
  0
LINE
  5
50C4
  8
YODOROGO
 10
28025.828774291349
 20
1667.749496429285
 30
0.0
 11
27977.604341291921
 21
1556.76807903343
 31
0.0
  0
LINE
  5
50C5
  8
YODOROGO
 10
27977.604341291921
 20
1667.749496429285
 30
0.0
 11
28025.828774291349
 21
1667.749496429285
 31
0.0
  0
LINE
  5
50C6
  8
YODOROGO
 10
28050.135520230899
 20
1655.5036372746561
 30
0.0
 11
28082.135520230921
 21
1655.5036372746561
 31
0.0
1001
AUTOCAD_POSTSCRIPT_FIGURE
1002
{
1000
PSFILL
1000
Grayscale
1000
Grayscale
1070
   100
1002
}
  0
LINE
  5
50C7
  8
YODOROGO
 10
28050.135520230899
 20
1631.5036372746561
 30
0.0
 11
28050.135520230899
 21
1655.5036372746561
 31
0.0
1001
AUTOCAD_POSTSCRIPT_FIGURE
1002
{
1000
PSFILL
1000
Grayscale
1000
Grayscale
1070
   100
1002
}
  0
LINE
  5
50C8
  8
YODOROGO
 10
28082.135520230921
 20
1631.5036372746561
 30
0.0
 11
28050.135520230899
 21
1631.5036372746561
 31
0.0
1001
AUTOCAD_POSTSCRIPT_FIGURE
1002
{
1000
PSFILL
1000
Grayscale
1000
Grayscale
1070
   100
1002
}
  0
LINE
  5
50C9
  8
YODOROGO
 10
28082.135520230921
 20
1499.749496429288
 30
0.0
 11
28082.135520230921
 21
1631.5036372746561
 31
0.0
1001
AUTOCAD_POSTSCRIPT_FIGURE
1002
{
1000
PSFILL
1000
Grayscale
1000
Grayscale
1070
   100
1002
}
  0
LINE
  5
50CA
  8
YODOROGO
 10
28050.135520230921
 20
1499.749496429288
 30
0.0
 11
28082.135520230921
 21
1499.749496429288
 31
0.0
1001
AUTOCAD_POSTSCRIPT_FIGURE
1002
{
1000
PSFILL
1000
Grayscale
1000
Grayscale
1070
   100
1002
}
  0
LINE
  5
50CB
  8
YODOROGO
 10
28050.135520230921
 20
1475.7494964292871
 30
0.0
 11
28050.135520230921
 21
1499.749496429288
 31
0.0
1001
AUTOCAD_POSTSCRIPT_FIGURE
1002
{
1000
PSFILL
1000
Grayscale
1000
Grayscale
1070
   100
1002
}
  0
LINE
  5
50CC
  8
YODOROGO
 10
28137.604341291921
 20
1475.7494964292871
 30
0.0
 11
28050.135520230921
 21
1475.7494964292871
 31
0.0
1001
AUTOCAD_POSTSCRIPT_FIGURE
1002
{
1000
PSFILL
1000
Grayscale
1000
Grayscale
1070
   100
1002
}
  0
LINE
  5
50CD
  8
YODOROGO
 10
28137.604341291921
 20
1499.749496429288
 30
0.0
 11
28137.604341291921
 21
1475.7494964292871
 31
0.0
1001
AUTOCAD_POSTSCRIPT_FIGURE
1002
{
1000
PSFILL
1000
Grayscale
1000
Grayscale
1070
   100
1002
}
  0
LINE
  5
50CE
  8
YODOROGO
 10
28098.135520230931
 20
1499.749496429288
 30
0.0
 11
28137.604341291921
 21
1499.749496429288
 31
0.0
1001
AUTOCAD_POSTSCRIPT_FIGURE
1002
{
1000
PSFILL
1000
Grayscale
1000
Grayscale
1070
   100
1002
}
  0
LINE
  5
50CF
  8
YODOROGO
 10
28098.135520230931
 20
1631.5036372746561
 30
0.0
 11
28098.135520230931
 21
1499.749496429288
 31
0.0
1001
AUTOCAD_POSTSCRIPT_FIGURE
1002
{
1000
PSFILL
1000
Grayscale
1000
Grayscale
1070
   100
1002
}
  0
LINE
  5
50D0
  8
YODOROGO
 10
28137.604341291921
 20
1631.5036372746561
 30
0.0
 11
28098.135520230931
 21
1631.5036372746561
 31
0.0
1001
AUTOCAD_POSTSCRIPT_FIGURE
1002
{
1000
PSFILL
1000
Grayscale
1000
Grayscale
1070
   100
1002
}
  0
LINE
  5
50D1
  8
YODOROGO
 10
28137.604341291921
 20
1655.5036372746561
 30
0.0
 11
28137.604341291921
 21
1631.5036372746561
 31
0.0
1001
AUTOCAD_POSTSCRIPT_FIGURE
1002
{
1000
PSFILL
1000
Grayscale
1000
Grayscale
1070
   100
1002
}
  0
LINE
  5
50D2
  8
YODOROGO
 10
28098.135520230931
 20
1655.5036372746561
 30
0.0
 11
28137.604341291921
 21
1655.5036372746561
 31
0.0
1001
AUTOCAD_POSTSCRIPT_FIGURE
1002
{
1000
PSFILL
1000
Grayscale
1000
Grayscale
1070
   100
1002
}
  0
LINE
  5
50D3
  8
YODOROGO
 10
28401.60434129191
 20
1667.749496429288
 30
0.0
 11
28345.604341291921
 21
1667.749496429288
 31
0.0
  0
LINE
  5
50D4
  8
YODOROGO
 10
28401.60434129191
 20
1611.749496429288
 30
0.0
 11
28401.60434129191
 21
1667.749496429288
 31
0.0
  0
LINE
  5
50D5
  8
YODOROGO
 10
28345.604341291921
 20
1667.749496429288
 30
0.0
 11
28345.604341291921
 21
1611.749496429288
 31
0.0
  0
ARC
  5
50D6
  8
YODOROGO
 10
28513.60434129191
 20
1507.749496429288
 30
0.0
 40
80.0
 50
180.0
 51
270.0
  0
ARC
  5
50D7
  8
YODOROGO
 10
28537.604341291921
 20
1563.7494964292871
 30
0.0
 40
40.0
 50
180.0
 51
270.0
  0
LINE
  5
50D8
  8
YODOROGO
 10
28561.604341291932
 20
1523.7494964292871
 30
0.0
 11
28537.604341291921
 21
1523.7494964292871
 31
0.0
  0
ARC
  5
50D9
  8
YODOROGO
 10
28561.604341291932
 20
1547.749496429285
 30
0.0
 40
23.999999999996358
 50
270.0
 51
0.0000000000054281
  0
LINE
  5
50DA
  8
YODOROGO
 10
27801.604341291921
 20
1890.786580793706
 30
0.0
 11
27777.604341291921
 21
1843.776747951672
 31
0.0
1001
AUTOCAD_POSTSCRIPT_FIGURE
1002
{
1000
PSFILL
1000
Grayscale
1000
Grayscale
1070
   100
1002
}
  0
LINE
  5
50DB
  8
YODOROGO
 10
27801.604341291921
 20
1747.749496429286
 30
0.0
 11
27801.604341291921
 21
1890.786580793706
 31
0.0
1001
AUTOCAD_POSTSCRIPT_FIGURE
1002
{
1000
PSFILL
1000
Grayscale
1000
Grayscale
1070
   100
1002
}
  0
LINE
  5
50DC
  8
YODOROGO
 10
27817.604341291921
 20
1747.749496429286
 30
0.0
 11
27801.604341291921
 21
1747.749496429286
 31
0.0
1001
AUTOCAD_POSTSCRIPT_FIGURE
1002
{
1000
PSFILL
1000
Grayscale
1000
Grayscale
1070
   100
1002
}
  0
LINE
  5
50DD
  8
YODOROGO
 10
27817.604341291921
 20
1893.7713320852661
 30
0.0
 11
27817.604341291921
 21
1747.749496429286
 31
0.0
1001
AUTOCAD_POSTSCRIPT_FIGURE
1002
{
1000
PSFILL
1000
Grayscale
1000
Grayscale
1070
   100
1002
}
  0
LINE
  5
50DE
  8
YODOROGO
 10
27841.604341291921
 20
1867.6547582841361
 30
0.0
 11
27817.604341291921
 21
1893.7713320852661
 31
0.0
1001
AUTOCAD_POSTSCRIPT_FIGURE
1002
{
1000
PSFILL
1000
Grayscale
1000
Grayscale
1070
   100
1002
}
  0
LINE
  5
50DF
  8
YODOROGO
 10
27841.604341291921
 20
1883.6547582841361
 30
0.0
 11
27841.604341291921
 21
1867.6547582841361
 31
0.0
1001
AUTOCAD_POSTSCRIPT_FIGURE
1002
{
1000
PSFILL
1000
Grayscale
1000
Grayscale
1070
   100
1002
}
  0
LINE
  5
50E0
  8
YODOROGO
 10
27817.604341291921
 20
1917.7713320852649
 30
0.0
 11
27841.604341291921
 21
1883.6547582841361
 31
0.0
1001
AUTOCAD_POSTSCRIPT_FIGURE
1002
{
1000
PSFILL
1000
Grayscale
1000
Grayscale
1070
   100
1002
}
  0
LINE
  5
50E1
  8
YODOROGO
 10
27817.604341291921
 20
1939.749496429288
 30
0.0
 11
27817.604341291921
 21
1917.7713320852649
 31
0.0
1001
AUTOCAD_POSTSCRIPT_FIGURE
1002
{
1000
PSFILL
1000
Grayscale
1000
Grayscale
1070
   100
1002
}
  0
LINE
  5
50E2
  8
YODOROGO
 10
27889.604341291921
 20
1939.749496429288
 30
0.0
 11
27817.604341291921
 21
1939.749496429288
 31
0.0
1001
AUTOCAD_POSTSCRIPT_FIGURE
1002
{
1000
PSFILL
1000
Grayscale
1000
Grayscale
1070
   100
1002
}
  0
LINE
  5
50E3
  8
YODOROGO
 10
27889.604341291921
 20
1900.5683489363
 30
0.0
 11
27889.604341291921
 21
1939.749496429288
 31
0.0
1001
AUTOCAD_POSTSCRIPT_FIGURE
1002
{
1000
PSFILL
1000
Grayscale
1000
Grayscale
1070
   100
1002
}
  0
LINE
  5
50E4
  8
YODOROGO
 10
27857.604341291921
 20
1900.5683489363
 30
0.0
 11
27889.604341291921
 21
1900.5683489363
 31
0.0
1001
AUTOCAD_POSTSCRIPT_FIGURE
1002
{
1000
PSFILL
1000
Grayscale
1000
Grayscale
1070
   100
1002
}
  0
LINE
  5
50E5
  8
YODOROGO
 10
27857.604341291921
 20
1884.568348936298
 30
0.0
 11
27857.604341291921
 21
1900.5683489363
 31
0.0
1001
AUTOCAD_POSTSCRIPT_FIGURE
1002
{
1000
PSFILL
1000
Grayscale
1000
Grayscale
1070
   100
1002
}
  0
LINE
  5
50E6
  8
YODOROGO
 10
27889.604341291921
 20
1884.568348936298
 30
0.0
 11
27857.604341291921
 21
1884.568348936298
 31
0.0
1001
AUTOCAD_POSTSCRIPT_FIGURE
1002
{
1000
PSFILL
1000
Grayscale
1000
Grayscale
1070
   100
1002
}
  0
LINE
  5
50E7
  8
YODOROGO
 10
27889.604341291921
 20
1879.6191779644371
 30
0.0
 11
27889.604341291921
 21
1884.568348936298
 31
0.0
1001
AUTOCAD_POSTSCRIPT_FIGURE
1002
{
1000
PSFILL
1000
Grayscale
1000
Grayscale
1070
   100
1002
}
  0
LINE
  5
50E8
  8
YODOROGO
 10
27849.604341291921
 20
1812.974981161417
 30
0.0
 11
27889.604341291921
 21
1879.6191779644371
 31
0.0
1001
AUTOCAD_POSTSCRIPT_FIGURE
1002
{
1000
PSFILL
1000
Grayscale
1000
Grayscale
1070
   100
1002
}
  0
LINE
  5
50E9
  8
YODOROGO
 10
27849.604341291921
 20
1796.9749811614161
 30
0.0
 11
27849.604341291921
 21
1812.974981161417
 31
0.0
1001
AUTOCAD_POSTSCRIPT_FIGURE
1002
{
1000
PSFILL
1000
Grayscale
1000
Grayscale
1070
   100
1002
}
  0
LINE
  5
50EA
  8
YODOROGO
 10
27889.604341291921
 20
1847.6191779644359
 30
0.0
 11
27849.604341291921
 21
1796.9749811614161
 31
0.0
1001
AUTOCAD_POSTSCRIPT_FIGURE
1002
{
1000
PSFILL
1000
Grayscale
1000
Grayscale
1070
   100
1002
}
  0
LINE
  5
50EB
  8
YODOROGO
 10
27889.604341291921
 20
1747.749496429286
 30
0.0
 11
27889.604341291921
 21
1847.6191779644359
 31
0.0
1001
AUTOCAD_POSTSCRIPT_FIGURE
1002
{
1000
PSFILL
1000
Grayscale
1000
Grayscale
1070
   100
1002
}
  0
LINE
  5
50EC
  8
YODOROGO
 10
27905.604341291921
 20
1747.749496429286
 30
0.0
 11
27889.604341291921
 21
1747.749496429286
 31
0.0
1001
AUTOCAD_POSTSCRIPT_FIGURE
1002
{
1000
PSFILL
1000
Grayscale
1000
Grayscale
1070
   100
1002
}
  0
LINE
  5
50ED
  8
YODOROGO
 10
27905.604341291921
 20
1849.409012158806
 30
0.0
 11
27905.604341291921
 21
1747.749496429286
 31
0.0
1001
AUTOCAD_POSTSCRIPT_FIGURE
1002
{
1000
PSFILL
1000
Grayscale
1000
Grayscale
1070
   100
1002
}
  0
LINE
  5
50EE
  8
YODOROGO
 10
27937.604341291921
 20
1796.9749811614161
 30
0.0
 11
27905.604341291921
 21
1849.409012158806
 31
0.0
1001
AUTOCAD_POSTSCRIPT_FIGURE
1002
{
1000
PSFILL
1000
Grayscale
1000
Grayscale
1070
   100
1002
}
  0
LINE
  5
50EF
  8
YODOROGO
 10
27937.604341291921
 20
1812.974981161417
 30
0.0
 11
27937.604341291921
 21
1796.9749811614161
 31
0.0
1001
AUTOCAD_POSTSCRIPT_FIGURE
1002
{
1000
PSFILL
1000
Grayscale
1000
Grayscale
1070
   100
1002
}
  0
LINE
  5
50F0
  8
YODOROGO
 10
27905.604341291921
 20
1881.4090121588081
 30
0.0
 11
27937.604341291921
 21
1812.974981161417
 31
0.0
1001
AUTOCAD_POSTSCRIPT_FIGURE
1002
{
1000
PSFILL
1000
Grayscale
1000
Grayscale
1070
   100
1002
}
  0
LINE
  5
50F1
  8
YODOROGO
 10
27905.604341291921
 20
1884.5683489363
 30
0.0
 11
27905.604341291921
 21
1881.4090121588081
 31
0.0
1001
AUTOCAD_POSTSCRIPT_FIGURE
1002
{
1000
PSFILL
1000
Grayscale
1000
Grayscale
1070
   100
1002
}
  0
LINE
  5
50F2
  8
YODOROGO
 10
27937.604341291921
 20
1884.568348936298
 30
0.0
 11
27905.604341291921
 21
1884.5683489363
 31
0.0
1001
AUTOCAD_POSTSCRIPT_FIGURE
1002
{
1000
PSFILL
1000
Grayscale
1000
Grayscale
1070
   100
1002
}
  0
LINE
  5
50F3
  8
YODOROGO
 10
27937.604341291921
 20
1900.5683489363
 30
0.0
 11
27937.604341291921
 21
1884.568348936298
 31
0.0
1001
AUTOCAD_POSTSCRIPT_FIGURE
1002
{
1000
PSFILL
1000
Grayscale
1000
Grayscale
1070
   100
1002
}
  0
LINE
  5
50F4
  8
YODOROGO
 10
27905.604341291921
 20
1900.5683489363
 30
0.0
 11
27937.604341291921
 21
1900.5683489363
 31
0.0
1001
AUTOCAD_POSTSCRIPT_FIGURE
1002
{
1000
PSFILL
1000
Grayscale
1000
Grayscale
1070
   100
1002
}
  0
LINE
  5
50F5
  8
YODOROGO
 10
27905.604341291921
 20
1939.749496429288
 30
0.0
 11
27905.604341291921
 21
1900.5683489363
 31
0.0
1001
AUTOCAD_POSTSCRIPT_FIGURE
1002
{
1000
PSFILL
1000
Grayscale
1000
Grayscale
1070
   100
1002
}
  0
LINE
  5
50F6
  8
YODOROGO
 10
27937.604341291921
 20
1939.749496429288
 30
0.0
 11
27905.604341291921
 21
1939.749496429288
 31
0.0
1001
AUTOCAD_POSTSCRIPT_FIGURE
1002
{
1000
PSFILL
1000
Grayscale
1000
Grayscale
1070
   100
1002
}
  0
LINE
  5
50F7
  8
YODOROGO
 10
27937.604341291921
 20
1955.7494964292871
 30
0.0
 11
27937.604341291921
 21
1939.749496429288
 31
0.0
1001
AUTOCAD_POSTSCRIPT_FIGURE
1002
{
1000
PSFILL
1000
Grayscale
1000
Grayscale
1070
   100
1002
}
  0
LINE
  5
50F8
  8
YODOROGO
 10
27905.604341291921
 20
1955.7494964292871
 30
0.0
 11
27937.604341291921
 21
1955.7494964292871
 31
0.0
1001
AUTOCAD_POSTSCRIPT_FIGURE
1002
{
1000
PSFILL
1000
Grayscale
1000
Grayscale
1070
   100
1002
}
  0
LINE
  5
50F9
  8
YODOROGO
 10
27905.604341291921
 20
1979.749496429288
 30
0.0
 11
27905.604341291921
 21
1955.7494964292871
 31
0.0
1001
AUTOCAD_POSTSCRIPT_FIGURE
1002
{
1000
PSFILL
1000
Grayscale
1000
Grayscale
1070
   100
1002
}
  0
LINE
  5
50FA
  8
YODOROGO
 10
27889.604341291921
 20
1979.749496429288
 30
0.0
 11
27905.604341291921
 21
1979.749496429288
 31
0.0
1001
AUTOCAD_POSTSCRIPT_FIGURE
1002
{
1000
PSFILL
1000
Grayscale
1000
Grayscale
1070
   100
1002
}
  0
LINE
  5
50FB
  8
YODOROGO
 10
27889.604341291921
 20
1955.7494964292871
 30
0.0
 11
27889.604341291921
 21
1979.749496429288
 31
0.0
1001
AUTOCAD_POSTSCRIPT_FIGURE
1002
{
1000
PSFILL
1000
Grayscale
1000
Grayscale
1070
   100
1002
}
  0
LINE
  5
50FC
  8
YODOROGO
 10
27865.604341291921
 20
1955.7494964292871
 30
0.0
 11
27889.604341291921
 21
1955.7494964292871
 31
0.0
1001
AUTOCAD_POSTSCRIPT_FIGURE
1002
{
1000
PSFILL
1000
Grayscale
1000
Grayscale
1070
   100
1002
}
  0
LINE
  5
50FD
  8
YODOROGO
 10
27865.604341291921
 20
1979.749496429288
 30
0.0
 11
27865.604341291921
 21
1955.7494964292871
 31
0.0
1001
AUTOCAD_POSTSCRIPT_FIGURE
1002
{
1000
PSFILL
1000
Grayscale
1000
Grayscale
1070
   100
1002
}
  0
LINE
  5
50FE
  8
YODOROGO
 10
27849.604341291921
 20
1979.749496429288
 30
0.0
 11
27865.604341291921
 21
1979.749496429288
 31
0.0
1001
AUTOCAD_POSTSCRIPT_FIGURE
1002
{
1000
PSFILL
1000
Grayscale
1000
Grayscale
1070
   100
1002
}
  0
LINE
  5
50FF
  8
YODOROGO
 10
27849.604341291921
 20
1955.7494964292871
 30
0.0
 11
27849.604341291921
 21
1979.749496429288
 31
0.0
1001
AUTOCAD_POSTSCRIPT_FIGURE
1002
{
1000
PSFILL
1000
Grayscale
1000
Grayscale
1070
   100
1002
}
  0
LINE
  5
5100
  8
YODOROGO
 10
27817.604341291921
 20
1955.7494964292871
 30
0.0
 11
27849.604341291921
 21
1955.7494964292871
 31
0.0
1001
AUTOCAD_POSTSCRIPT_FIGURE
1002
{
1000
PSFILL
1000
Grayscale
1000
Grayscale
1070
   100
1002
}
  0
LINE
  5
5101
  8
YODOROGO
 10
27817.604341291921
 20
1979.749496429288
 30
0.0
 11
27817.604341291921
 21
1955.7494964292871
 31
0.0
1001
AUTOCAD_POSTSCRIPT_FIGURE
1002
{
1000
PSFILL
1000
Grayscale
1000
Grayscale
1070
   100
1002
}
  0
LINE
  5
5102
  8
YODOROGO
 10
27801.604341291921
 20
1979.749496429288
 30
0.0
 11
27817.604341291921
 21
1979.749496429288
 31
0.0
1001
AUTOCAD_POSTSCRIPT_FIGURE
1002
{
1000
PSFILL
1000
Grayscale
1000
Grayscale
1070
   100
1002
}
  0
LINE
  5
5103
  8
YODOROGO
 10
27801.604341291921
 20
1955.7494964292871
 30
0.0
 11
27801.604341291921
 21
1979.749496429288
 31
0.0
1001
AUTOCAD_POSTSCRIPT_FIGURE
1002
{
1000
PSFILL
1000
Grayscale
1000
Grayscale
1070
   100
1002
}
  0
LINE
  5
5104
  8
YODOROGO
 10
27777.604341291921
 20
1955.7494964292871
 30
0.0
 11
27801.604341291921
 21
1955.7494964292871
 31
0.0
1001
AUTOCAD_POSTSCRIPT_FIGURE
1002
{
1000
PSFILL
1000
Grayscale
1000
Grayscale
1070
   100
1002
}
  0
LINE
  5
5105
  8
YODOROGO
 10
27777.604341291921
 20
1939.749496429288
 30
0.0
 11
27777.604341291921
 21
1955.7494964292871
 31
0.0
1001
AUTOCAD_POSTSCRIPT_FIGURE
1002
{
1000
PSFILL
1000
Grayscale
1000
Grayscale
1070
   100
1002
}
  0
LINE
  5
5106
  8
YODOROGO
 10
27801.604341291921
 20
1939.749496429288
 30
0.0
 11
27777.604341291921
 21
1939.749496429288
 31
0.0
1001
AUTOCAD_POSTSCRIPT_FIGURE
1002
{
1000
PSFILL
1000
Grayscale
1000
Grayscale
1070
   100
1002
}
  0
LINE
  5
5107
  8
YODOROGO
 10
27801.604341291921
 20
1914.7865807937051
 30
0.0
 11
27801.604341291921
 21
1939.749496429288
 31
0.0
1001
AUTOCAD_POSTSCRIPT_FIGURE
1002
{
1000
PSFILL
1000
Grayscale
1000
Grayscale
1070
   100
1002
}
  0
LINE
  5
5108
  8
YODOROGO
 10
27777.604341291921
 20
1859.776747951671
 30
0.0
 11
27801.604341291921
 21
1914.7865807937051
 31
0.0
1001
AUTOCAD_POSTSCRIPT_FIGURE
1002
{
1000
PSFILL
1000
Grayscale
1000
Grayscale
1070
   100
1002
}
  0
LINE
  5
5109
  8
YODOROGO
 10
27777.604341291921
 20
1843.776747951672
 30
0.0
 11
27777.604341291921
 21
1859.776747951671
 31
0.0
1001
AUTOCAD_POSTSCRIPT_FIGURE
1002
{
1000
PSFILL
1000
Grayscale
1000
Grayscale
1070
   100
1002
}
  0
LINE
  5
510A
  8
YODOROGO
 10
28257.604341291921
 20
1867.7494964292871
 30
0.0
 11
28401.60434129191
 21
1824.877625640306
 31
0.0
1001
AUTOCAD_POSTSCRIPT_FIGURE
1002
{
1000
PSFILL
1000
Grayscale
1000
Grayscale
1070
   100
1002
}
  0
LINE
  5
510B
  8
YODOROGO
 10
28401.60434129191
 20
1752.877625640306
 30
0.0
 11
28257.604341291921
 21
1795.7494964292871
 31
0.0
1001
AUTOCAD_POSTSCRIPT_FIGURE
1002
{
1000
PSFILL
1000
Grayscale
1000
Grayscale
1070
   100
1002
}
  0
LINE
  5
510C
  8
YODOROGO
 10
28401.60434129191
 20
1984.877625640306
 30
0.0
 11
28257.604341291921
 21
2027.749496429288
 31
0.0
1001
AUTOCAD_POSTSCRIPT_FIGURE
1002
{
1000
PSFILL
1000
Grayscale
1000
Grayscale
1070
   100
1002
}
  0
LINE
  5
510D
  8
YODOROGO
 10
28257.604341291921
 20
1959.749496429288
 30
0.0
 11
28401.60434129191
 21
1916.8776256403071
 31
0.0
1001
AUTOCAD_POSTSCRIPT_FIGURE
1002
{
1000
PSFILL
1000
Grayscale
1000
Grayscale
1070
   100
1002
}
  0
LINE
  5
510E
  8
YODOROGO
 10
28257.604341291921
 20
1795.7494964292871
 30
0.0
 11
28257.604341291921
 21
1867.7494964292871
 31
0.0
1001
AUTOCAD_POSTSCRIPT_FIGURE
1002
{
1000
PSFILL
1000
Grayscale
1000
Grayscale
1070
   100
1002
}
  0
LINE
  5
510F
  8
YODOROGO
 10
28257.604341291921
 20
2027.749496429288
 30
0.0
 11
28257.604341291921
 21
1959.749496429288
 31
0.0
1001
AUTOCAD_POSTSCRIPT_FIGURE
1002
{
1000
PSFILL
1000
Grayscale
1000
Grayscale
1070
   100
1002
}
  0
LINE
  5
5110
  8
YODOROGO
 10
28080.236320206739
 20
1939.749496429288
 30
0.0
 11
28129.60434129191
 21
1747.749496429286
 31
0.0
1001
AUTOCAD_POSTSCRIPT_FIGURE
1002
{
1000
PSFILL
1000
Grayscale
1000
Grayscale
1070
   100
1002
}
  0
LINE
  5
5111
  8
YODOROGO
 10
27977.604341291921
 20
1939.749496429288
 30
0.0
 11
28080.236320206739
 21
1939.749496429288
 31
0.0
1001
AUTOCAD_POSTSCRIPT_FIGURE
1002
{
1000
PSFILL
1000
Grayscale
1000
Grayscale
1070
   100
1002
}
  0
LINE
  5
5112
  8
YODOROGO
 10
27977.604341291921
 20
1955.7494964292871
 30
0.0
 11
27977.604341291921
 21
1939.749496429288
 31
0.0
1001
AUTOCAD_POSTSCRIPT_FIGURE
1002
{
1000
PSFILL
1000
Grayscale
1000
Grayscale
1070
   100
1002
}
  0
LINE
  5
5113
  8
YODOROGO
 10
28076.60687851991
 20
1955.7494964292871
 30
0.0
 11
27977.604341291921
 21
1955.7494964292871
 31
0.0
1001
AUTOCAD_POSTSCRIPT_FIGURE
1002
{
1000
PSFILL
1000
Grayscale
1000
Grayscale
1070
   100
1002
}
  0
LINE
  5
5114
  8
YODOROGO
 10
28071.162715989711
 20
1979.749496429288
 30
0.0
 11
28076.60687851991
 21
1955.7494964292871
 31
0.0
1001
AUTOCAD_POSTSCRIPT_FIGURE
1002
{
1000
PSFILL
1000
Grayscale
1000
Grayscale
1070
   100
1002
}
  0
LINE
  5
5115
  8
YODOROGO
 10
28091.162715989711
 20
1979.749496429288
 30
0.0
 11
28071.162715989711
 21
1979.749496429288
 31
0.0
1001
AUTOCAD_POSTSCRIPT_FIGURE
1002
{
1000
PSFILL
1000
Grayscale
1000
Grayscale
1070
   100
1002
}
  0
LINE
  5
5116
  8
YODOROGO
 10
28095.806878519939
 20
1955.7494964292871
 30
0.0
 11
28091.162715989711
 21
1979.749496429288
 31
0.0
1001
AUTOCAD_POSTSCRIPT_FIGURE
1002
{
1000
PSFILL
1000
Grayscale
1000
Grayscale
1070
   100
1002
}
  0
LINE
  5
5117
  8
YODOROGO
 10
28121.604341291921
 20
1955.7494964292871
 30
0.0
 11
28095.806878519939
 21
1955.7494964292871
 31
0.0
1001
AUTOCAD_POSTSCRIPT_FIGURE
1002
{
1000
PSFILL
1000
Grayscale
1000
Grayscale
1070
   100
1002
}
  0
LINE
  5
5118
  8
YODOROGO
 10
28121.604341291921
 20
1979.749496429288
 30
0.0
 11
28121.604341291921
 21
1955.7494964292871
 31
0.0
1001
AUTOCAD_POSTSCRIPT_FIGURE
1002
{
1000
PSFILL
1000
Grayscale
1000
Grayscale
1070
   100
1002
}
  0
LINE
  5
5119
  8
YODOROGO
 10
28137.604341291921
 20
1979.749496429288
 30
0.0
 11
28121.604341291921
 21
1979.749496429288
 31
0.0
1001
AUTOCAD_POSTSCRIPT_FIGURE
1002
{
1000
PSFILL
1000
Grayscale
1000
Grayscale
1070
   100
1002
}
  0
LINE
  5
511A
  8
YODOROGO
 10
28137.604341291921
 20
1955.7494964292871
 30
0.0
 11
28137.604341291921
 21
1979.749496429288
 31
0.0
1001
AUTOCAD_POSTSCRIPT_FIGURE
1002
{
1000
PSFILL
1000
Grayscale
1000
Grayscale
1070
   100
1002
}
  0
LINE
  5
511B
  8
YODOROGO
 10
28137.604341291921
 20
1939.749496429288
 30
0.0
 11
28137.604341291921
 21
1955.7494964292871
 31
0.0
1001
AUTOCAD_POSTSCRIPT_FIGURE
1002
{
1000
PSFILL
1000
Grayscale
1000
Grayscale
1070
   100
1002
}
  0
LINE
  5
511C
  8
YODOROGO
 10
28098.902986873411
 20
1939.749496429288
 30
0.0
 11
28137.604341291921
 21
1939.749496429288
 31
0.0
1001
AUTOCAD_POSTSCRIPT_FIGURE
1002
{
1000
PSFILL
1000
Grayscale
1000
Grayscale
1070
   100
1002
}
  0
LINE
  5
511D
  8
YODOROGO
 10
28137.604341291921
 20
1747.749496429286
 30
0.0
 11
28098.902986873411
 21
1939.749496429288
 31
0.0
1001
AUTOCAD_POSTSCRIPT_FIGURE
1002
{
1000
PSFILL
1000
Grayscale
1000
Grayscale
1070
   100
1002
}
  0
LINE
  5
511E
  8
YODOROGO
 10
28129.60434129191
 20
1747.749496429286
 30
0.0
 11
28137.604341291921
 21
1747.749496429286
 31
0.0
1001
AUTOCAD_POSTSCRIPT_FIGURE
1002
{
1000
PSFILL
1000
Grayscale
1000
Grayscale
1070
   100
1002
}
  0
LINE
  5
511F
  8
YODOROGO
 10
28078.06921993379
 20
1775.7407762987939
 30
0.0
 11
27977.604341291921
 21
1747.749496429286
 31
0.0
  0
LINE
  5
5120
  8
YODOROGO
 10
28078.06921993379
 20
1798.6689795290731
 30
0.0
 11
28078.06921993379
 21
1775.7407762987939
 31
0.0
  0
LINE
  5
5121
  8
YODOROGO
 10
28033.83678061287
 20
1786.816933133767
 30
0.0
 11
28078.06921993379
 21
1798.6689795290731
 31
0.0
  0
LINE
  5
5122
  8
YODOROGO
 10
28033.83678061287
 20
1872.5683489362989
 30
0.0
 11
28033.83678061287
 21
1786.816933133767
 31
0.0
  0
LINE
  5
5123
  8
YODOROGO
 10
28078.06921993379
 20
1872.5683489362989
 30
0.0
 11
28033.83678061287
 21
1872.5683489362989
 31
0.0
  0
LINE
  5
5124
  8
YODOROGO
 10
28078.06921993379
 20
1892.568348936298
 30
0.0
 11
28078.06921993379
 21
1872.5683489362989
 31
0.0
  0
LINE
  5
5125
  8
YODOROGO
 10
27977.604341291921
 20
1892.568348936298
 30
0.0
 11
28078.06921993379
 21
1892.568348936298
 31
0.0
  0
LINE
  5
5126
  8
YODOROGO
 10
27977.604341291921
 20
1872.5683489362989
 30
0.0
 11
27977.604341291921
 21
1892.568348936298
 31
0.0
  0
LINE
  5
5127
  8
YODOROGO
 10
28021.836780612852
 20
1872.5683489362989
 30
0.0
 11
27977.604341291921
 21
1872.5683489362989
 31
0.0
  0
LINE
  5
5128
  8
YODOROGO
 10
28021.836780612852
 20
1784.673339594317
 30
0.0
 11
28021.836780612852
 21
1872.5683489362989
 31
0.0
  0
LINE
  5
5129
  8
YODOROGO
 10
27977.604341291921
 20
1771.749496429286
 30
0.0
 11
28021.836780612852
 21
1784.673339594317
 31
0.0
  0
LINE
  5
512A
  8
YODOROGO
 10
27977.604341291921
 20
1747.749496429286
 30
0.0
 11
27977.604341291921
 21
1771.749496429286
 31
0.0
  0
LINE
  5
512B
  8
YODOROGO
 10
28001.604341291921
 20
1707.749496429288
 30
0.0
 11
28001.604341291921
 21
1683.7494964292871
 31
0.0
  0
LINE
  5
512C
  8
YODOROGO
 10
28017.604341291921
 20
1707.749496429288
 30
0.0
 11
28001.604341291921
 21
1707.749496429288
 31
0.0
  0
LINE
  5
512D
  8
YODOROGO
 10
28017.604341291921
 20
1683.7494964292871
 30
0.0
 11
28017.604341291921
 21
1707.749496429288
 31
0.0
  0
LINE
  5
512E
  8
YODOROGO
 10
28040.913204016892
 20
1683.7494964292871
 30
0.0
 11
28017.604341291921
 21
1683.7494964292871
 31
0.0
  0
LINE
  5
512F
  8
YODOROGO
 10
28001.604341291921
 20
1683.7494964292871
 30
0.0
 11
27977.604341291921
 21
1683.7494964292871
 31
0.0
  0
LINE
  5
5130
  8
YODOROGO
 10
28082.135520230921
 20
1707.749496429288
 30
0.0
 11
28098.135520230931
 21
1707.749496429288
 31
0.0
1001
AUTOCAD_POSTSCRIPT_FIGURE
1002
{
1000
PSFILL
1000
Grayscale
1000
Grayscale
1070
   100
1002
}
  0
LINE
  5
5131
  8
YODOROGO
 10
28401.60434129191
 20
1824.877625640306
 30
0.0
 11
28401.60434129191
 21
1752.877625640306
 31
0.0
1001
AUTOCAD_POSTSCRIPT_FIGURE
1002
{
1000
PSFILL
1000
Grayscale
1000
Grayscale
1070
   100
1002
}
  0
LINE
  5
5132
  8
YODOROGO
 10
28401.60434129191
 20
1916.8776256403071
 30
0.0
 11
28401.60434129191
 21
1984.877625640306
 31
0.0
1001
AUTOCAD_POSTSCRIPT_FIGURE
1002
{
1000
PSFILL
1000
Grayscale
1000
Grayscale
1070
   100
1002
}
  0
LINE
  5
5133
  8
YODOROGO
 10
28433.60434129191
 20
1819.7494964292871
 30
0.0
 11
28433.60434129191
 21
1747.74949642929
 31
0.0
  0
LINE
  5
5134
  8
YODOROGO
 10
28497.60434129191
 20
1707.749496429288
 30
0.0
 11
28433.60434129191
 21
1707.749496429288
 31
0.0
  0
LINE
  5
5135
  8
YODOROGO
 10
28433.60434129191
 20
1747.74949642929
 30
0.0
 11
28585.604341291921
 21
1747.74949642929
 31
0.0
  0
LINE
  5
5136
  8
YODOROGO
 10
28497.60434129191
 20
1867.7494964292871
 30
0.0
 11
28433.60434129191
 21
1867.7494964292871
 31
0.0
  0
LINE
  5
5137
  8
YODOROGO
 10
28497.60434129191
 20
1923.7494964292871
 30
0.0
 11
28497.60434129191
 21
1867.7494964292871
 31
0.0
  0
LINE
  5
5138
  8
YODOROGO
 10
28585.604341291921
 20
1987.7494964292871
 30
0.0
 11
28585.604341291921
 21
2027.749496429288
 31
0.0
  0
LINE
  5
5139
  8
YODOROGO
 10
28433.60434129191
 20
1987.7494964292871
 30
0.0
 11
28585.604341291921
 21
1987.7494964292871
 31
0.0
  0
LINE
  5
513A
  8
YODOROGO
 10
28433.60434129191
 20
1867.7494964292871
 30
0.0
 11
28433.60434129191
 21
1987.7494964292871
 31
0.0
  0
LINE
  5
513B
  8
YODOROGO
 10
29001.60434129191
 20
2027.749496429288
 30
0.0
 11
29001.60434129191
 21
1619.749496429288
 31
0.0
  0
LINE
  5
513C
  8
YODOROGO
 10
29073.604341291921
 20
1579.749496429288
 30
0.0
 11
29073.604341291921
 21
2027.749496429288
 31
0.0
  0
LINE
  5
513D
  8
YODOROGO
 10
29261.604341291921
 20
1491.749496429286
 30
0.0
 11
29261.604341291921
 21
2007.749496429288
 31
0.0
  0
LINE
  5
513E
  8
YODOROGO
 10
29197.604341291921
 20
2007.749496429288
 30
0.0
 11
29197.604341291921
 21
1491.749496429286
 31
0.0
  0
LINE
  5
513F
  8
YODOROGO
 10
29385.604341291921
 20
2027.749496429288
 30
0.0
 11
29385.604341291921
 21
1427.749496429288
 31
0.0
  0
LINE
  5
5140
  8
YODOROGO
 10
29457.604341291921
 20
1427.749496429288
 30
0.0
 11
29457.604341291921
 21
2027.749496429288
 31
0.0
  0
LINE
  5
5141
  8
YODOROGO
 10
28657.604341291921
 20
1667.749496429288
 30
0.0
 11
28657.604341291921
 21
1747.74949642929
 31
0.0
  0
LINE
  5
5142
  8
YODOROGO
 10
29885.604341291921
 20
1707.749496429288
 30
0.0
 11
29885.604341291921
 21
1667.749496429288
 31
0.0
  0
LINE
  5
5143
  8
YODOROGO
 10
29885.604341291921
 20
1707.749496429288
 30
0.0
 11
29885.604341291921
 21
1667.749496429288
 31
0.0
  0
ARC
  5
5144
  8
YODOROGO
 10
28906.911576186842
 20
1618.217864442272
 30
0.0
 40
94.705151178741644
 50
274.05244162907098
 51
0.9266642149310712
  0
ARC
  5
5145
  8
YODOROGO
 10
28909.186170719819
 20
1592.61072861044
 30
0.0
 40
164.92042356085511
 50
271.5351210653775
 51
355.52727750585052
  0
LINE
  5
5146
  8
YODOROGO
 10
28913.604341291921
 20
1523.7494964292871
 30
0.0
 11
28913.604341291921
 21
1427.749496429288
 31
0.0
  0
LINE
  5
5147
  8
YODOROGO
 10
28793.60434129191
 20
1667.749496429288
 30
0.0
 11
28657.604341291921
 21
1667.749496429288
 31
0.0
  0
LINE
  5
5148
  8
YODOROGO
 10
28793.60434129191
 20
1603.7494964292871
 30
0.0
 11
28793.60434129191
 21
1667.749496429288
 31
0.0
  0
LINE
  5
5149
  8
YODOROGO
 10
28657.604341291921
 20
1603.7494964292871
 30
0.0
 11
28793.60434129191
 21
1603.7494964292871
 31
0.0
  0
LINE
  5
514A
  8
YODOROGO
 10
28657.604341291921
 20
1523.7494964292871
 30
0.0
 11
28657.604341291921
 21
1603.7494964292871
 31
0.0
  0
LINE
  5
514B
  8
YODOROGO
 10
28793.60434129191
 20
1523.7494964292871
 30
0.0
 11
28657.604341291921
 21
1523.7494964292871
 31
0.0
  0
LINE
  5
514C
  8
YODOROGO
 10
28793.60434129191
 20
1427.749496429288
 30
0.0
 11
28793.60434129191
 21
1523.7494964292871
 31
0.0
  0
LINE
  5
514D
  8
YODOROGO
 10
29197.604341291921
 20
1491.749496429286
 30
0.0
 11
29261.604341291921
 21
1491.749496429286
 31
0.0
  0
LINE
  5
514E
  8
YODOROGO
 10
29385.604341291921
 20
1427.749496429288
 30
0.0
 11
29457.604341291921
 21
1427.749496429288
 31
0.0
  0
LINE
  5
514F
  8
YODOROGO
 10
29737.604341291921
 20
1528.4414521705639
 30
0.0
 11
29737.604341291921
 21
1427.749496429288
 31
0.0
  0
LINE
  5
5150
  8
YODOROGO
 10
29617.604341291921
 20
1427.749496429288
 30
0.0
 11
29737.604341291921
 21
1528.4414521705639
 31
0.0
  0
LINE
  5
5151
  8
YODOROGO
 10
29617.604341291921
 20
1547.749496429288
 30
0.0
 11
29617.604341291921
 21
1427.749496429288
 31
0.0
  0
LINE
  5
5152
  8
YODOROGO
 10
29712.94462869945
 20
1627.749496429288
 30
0.0
 11
29617.604341291921
 21
1547.749496429288
 31
0.0
  0
LINE
  5
5153
  8
YODOROGO
 10
29617.604341291921
 20
1627.749496429288
 30
0.0
 11
29712.94462869945
 21
1627.749496429288
 31
0.0
  0
LINE
  5
5154
  8
YODOROGO
 10
29617.604341291921
 20
1667.749496429288
 30
0.0
 11
29617.604341291921
 21
1627.749496429288
 31
0.0
  0
LINE
  5
5155
  8
YODOROGO
 10
29885.604341291921
 20
1667.749496429288
 30
0.0
 11
29617.604341291921
 21
1667.749496429288
 31
0.0
  0
LINE
  5
5156
  8
YODOROGO
 10
29917.604341291921
 20
1627.749496429288
 30
0.0
 11
29777.604341291921
 21
1627.749496429288
 31
0.0
  0
LINE
  5
5157
  8
YODOROGO
 10
29777.604341291921
 20
1562.0054374176559
 30
0.0
 11
29771.409872985321
 21
1556.807661346234
 31
0.0
  0
LINE
  5
5158
  8
YODOROGO
 10
29777.604341291921
 20
1627.749496429288
 30
0.0
 11
29777.604341291921
 21
1562.0054374176559
 31
0.0
  0
LINE
  5
5159
  8
YODOROGO
 10
29737.604341291921
 20
1528.4414521705639
 30
0.0
 11
29737.604341291921
 21
1427.749496429288
 31
0.0
  0
LINE
  5
515A
  8
YODOROGO
 10
29617.604341291921
 20
1427.749496429288
 30
0.0
 11
29737.604341291921
 21
1528.4414521705639
 31
0.0
  0
LINE
  5
515B
  8
YODOROGO
 10
29617.604341291921
 20
1547.749496429288
 30
0.0
 11
29617.604341291921
 21
1427.749496429288
 31
0.0
  0
LINE
  5
515C
  8
YODOROGO
 10
29712.94462869945
 20
1627.749496429288
 30
0.0
 11
29617.604341291921
 21
1547.749496429288
 31
0.0
  0
LINE
  5
515D
  8
YODOROGO
 10
29617.604341291921
 20
1627.749496429288
 30
0.0
 11
29712.94462869945
 21
1627.749496429288
 31
0.0
  0
LINE
  5
515E
  8
YODOROGO
 10
29617.604341291921
 20
1667.749496429288
 30
0.0
 11
29617.604341291921
 21
1627.749496429288
 31
0.0
  0
LINE
  5
515F
  8
YODOROGO
 10
29885.604341291921
 20
1667.749496429288
 30
0.0
 11
29617.604341291921
 21
1667.749496429288
 31
0.0
  0
LINE
  5
5160
  8
YODOROGO
 10
28793.60434129191
 20
1747.74949642929
 30
0.0
 11
28793.60434129191
 21
1819.7494964292871
 31
0.0
  0
LINE
  5
5161
  8
YODOROGO
 10
28657.604341291921
 20
1747.74949642929
 30
0.0
 11
28793.60434129191
 21
1747.74949642929
 31
0.0
  0
LINE
  5
5162
  8
YODOROGO
 10
28729.604341291921
 20
1867.7494964292871
 30
0.0
 11
28729.604341291921
 21
1923.7494964292871
 31
0.0
  0
LINE
  5
5163
  8
YODOROGO
 10
28793.60434129191
 20
1867.7494964292871
 30
0.0
 11
28729.604341291921
 21
1867.7494964292871
 31
0.0
  0
LINE
  5
5164
  8
YODOROGO
 10
28793.60434129191
 20
1947.749496429288
 30
0.0
 11
28793.60434129191
 21
1867.7494964292871
 31
0.0
  0
ARC
  5
5165
  8
YODOROGO
 10
28753.60434129191
 20
1947.749496429288
 30
0.0
 40
40.0
 50
0.0
 51
90.0
  0
LINE
  5
5166
  8
YODOROGO
 10
28657.604341291921
 20
1987.7494964292871
 30
0.0
 11
28753.60434129191
 21
1987.7494964292871
 31
0.0
  0
LINE
  5
5167
  8
YODOROGO
 10
28657.604341291921
 20
2027.749496429288
 30
0.0
 11
28657.604341291921
 21
1987.7494964292871
 31
0.0
  0
LINE
  5
5168
  8
YODOROGO
 10
29073.604341291921
 20
2027.749496429288
 30
0.0
 11
29001.60434129191
 21
2027.749496429288
 31
0.0
  0
LINE
  5
5169
  8
YODOROGO
 10
29261.604341291921
 20
2007.749496429288
 30
0.0
 11
29197.604341291921
 21
2007.749496429288
 31
0.0
  0
LINE
  5
516A
  8
YODOROGO
 10
29457.604341291921
 20
2027.749496429288
 30
0.0
 11
29385.604341291921
 21
2027.749496429288
 31
0.0
  0
LINE
  5
516B
  8
YODOROGO
 10
29673.604341291921
 20
1707.749496429288
 30
0.0
 11
29673.604341291921
 21
1771.7494964292871
 31
0.0
1001
AUTOCAD_POSTSCRIPT_FIGURE
1002
{
1000
PSFILL
1000
Grayscale
1000
Grayscale
1070
    25
1002
}
  0
LINE
  5
516C
  8
YODOROGO
 10
29617.604341291921
 20
1707.749496429288
 30
0.0
 11
29673.604341291921
 21
1707.749496429288
 31
0.0
1001
AUTOCAD_POSTSCRIPT_FIGURE
1002
{
1000
PSFILL
1000
Grayscale
1000
Grayscale
1070
    25
1002
}
  0
LINE
  5
516D
  8
YODOROGO
 10
29617.604341291921
 20
1819.7494964292871
 30
0.0
 11
29617.604341291921
 21
1707.749496429288
 31
0.0
1001
AUTOCAD_POSTSCRIPT_FIGURE
1002
{
1000
PSFILL
1000
Grayscale
1000
Grayscale
1070
    25
1002
}
  0
LINE
  5
516E
  8
YODOROGO
 10
29765.604341291921
 20
1819.7494964292871
 30
0.0
 11
29617.604341291921
 21
1819.7494964292871
 31
0.0
1001
AUTOCAD_POSTSCRIPT_FIGURE
1002
{
1000
PSFILL
1000
Grayscale
1000
Grayscale
1070
    25
1002
}
  0
LINE
  5
516F
  8
YODOROGO
 10
29765.604341291921
 20
1859.749496429288
 30
0.0
 11
29765.604341291921
 21
1819.7494964292871
 31
0.0
1001
AUTOCAD_POSTSCRIPT_FIGURE
1002
{
1000
PSFILL
1000
Grayscale
1000
Grayscale
1070
    25
1002
}
  0
LINE
  5
5170
  8
YODOROGO
 10
29617.604341291921
 20
1859.749496429288
 30
0.0
 11
29765.604341291921
 21
1859.749496429288
 31
0.0
1001
AUTOCAD_POSTSCRIPT_FIGURE
1002
{
1000
PSFILL
1000
Grayscale
1000
Grayscale
1070
    25
1002
}
  0
LINE
  5
5171
  8
YODOROGO
 10
29617.604341291921
 20
1907.7494964292871
 30
0.0
 11
29617.604341291921
 21
1859.749496429288
 31
0.0
1001
AUTOCAD_POSTSCRIPT_FIGURE
1002
{
1000
PSFILL
1000
Grayscale
1000
Grayscale
1070
    25
1002
}
  0
LINE
  5
5172
  8
YODOROGO
 10
29765.604341291921
 20
1907.7494964292871
 30
0.0
 11
29617.604341291921
 21
1907.7494964292871
 31
0.0
1001
AUTOCAD_POSTSCRIPT_FIGURE
1002
{
1000
PSFILL
1000
Grayscale
1000
Grayscale
1070
    25
1002
}
  0
LINE
  5
5173
  8
YODOROGO
 10
29765.604341291921
 20
1947.749496429288
 30
0.0
 11
29765.604341291921
 21
1907.7494964292871
 31
0.0
1001
AUTOCAD_POSTSCRIPT_FIGURE
1002
{
1000
PSFILL
1000
Grayscale
1000
Grayscale
1070
    25
1002
}
  0
LINE
  5
5174
  8
YODOROGO
 10
29617.604341291921
 20
1947.749496429288
 30
0.0
 11
29765.604341291921
 21
1947.749496429288
 31
0.0
1001
AUTOCAD_POSTSCRIPT_FIGURE
1002
{
1000
PSFILL
1000
Grayscale
1000
Grayscale
1070
    25
1002
}
  0
LINE
  5
5175
  8
YODOROGO
 10
29617.604341291921
 20
2027.749496429288
 30
0.0
 11
29617.604341291921
 21
1947.749496429288
 31
0.0
1001
AUTOCAD_POSTSCRIPT_FIGURE
1002
{
1000
PSFILL
1000
Grayscale
1000
Grayscale
1070
    25
1002
}
  0
LINE
  5
5176
  8
YODOROGO
 10
29665.604341291921
 20
2027.749496429288
 30
0.0
 11
29617.604341291921
 21
2027.749496429288
 31
0.0
1001
AUTOCAD_POSTSCRIPT_FIGURE
1002
{
1000
PSFILL
1000
Grayscale
1000
Grayscale
1070
    25
1002
}
  0
LINE
  5
5177
  8
YODOROGO
 10
29665.604341291921
 20
1995.7494964292871
 30
0.0
 11
29665.604341291921
 21
2027.749496429288
 31
0.0
1001
AUTOCAD_POSTSCRIPT_FIGURE
1002
{
1000
PSFILL
1000
Grayscale
1000
Grayscale
1070
    25
1002
}
  0
LINE
  5
5178
  8
YODOROGO
 10
29765.604341291921
 20
1995.7494964292871
 30
0.0
 11
29665.604341291921
 21
1995.7494964292871
 31
0.0
1001
AUTOCAD_POSTSCRIPT_FIGURE
1002
{
1000
PSFILL
1000
Grayscale
1000
Grayscale
1070
    25
1002
}
  0
LINE
  5
5179
  8
YODOROGO
 10
29765.604341291921
 20
2027.749496429288
 30
0.0
 11
29765.604341291921
 21
1995.7494964292871
 31
0.0
1001
AUTOCAD_POSTSCRIPT_FIGURE
1002
{
1000
PSFILL
1000
Grayscale
1000
Grayscale
1070
    25
1002
}
  0
LINE
  5
517A
  8
YODOROGO
 10
29829.604341291921
 20
2027.749496429288
 30
0.0
 11
29765.604341291921
 21
2027.749496429288
 31
0.0
1001
AUTOCAD_POSTSCRIPT_FIGURE
1002
{
1000
PSFILL
1000
Grayscale
1000
Grayscale
1070
    25
1002
}
  0
LINE
  5
517B
  8
YODOROGO
 10
29829.604341291921
 20
1995.7494964292871
 30
0.0
 11
29829.604341291921
 21
2027.749496429288
 31
0.0
1001
AUTOCAD_POSTSCRIPT_FIGURE
1002
{
1000
PSFILL
1000
Grayscale
1000
Grayscale
1070
    25
1002
}
  0
LINE
  5
517C
  8
YODOROGO
 10
29829.604341291921
 20
1907.7494964292871
 30
0.0
 11
29829.604341291921
 21
1947.749496429288
 31
0.0
1001
AUTOCAD_POSTSCRIPT_FIGURE
1002
{
1000
PSFILL
1000
Grayscale
1000
Grayscale
1070
    25
1002
}
  0
LINE
  5
517D
  8
YODOROGO
 10
29829.604341291921
 20
1819.7494964292871
 30
0.0
 11
29829.604341291921
 21
1859.749496429288
 31
0.0
1001
AUTOCAD_POSTSCRIPT_FIGURE
1002
{
1000
PSFILL
1000
Grayscale
1000
Grayscale
1070
    25
1002
}
  0
LINE
  5
517E
  8
YODOROGO
 10
29921.60434129191
 20
1771.7494964292871
 30
0.0
 11
29921.60434129191
 21
1707.749496429288
 31
0.0
1001
AUTOCAD_POSTSCRIPT_FIGURE
1002
{
1000
PSFILL
1000
Grayscale
1000
Grayscale
1070
    25
1002
}
  0
LINE
  5
517F
  8
YODOROGO
 10
29829.604341291921
 20
1771.7494964292871
 30
0.0
 11
29921.60434129191
 21
1771.7494964292871
 31
0.0
1001
AUTOCAD_POSTSCRIPT_FIGURE
1002
{
1000
PSFILL
1000
Grayscale
1000
Grayscale
1070
    25
1002
}
  0
LINE
  5
5180
  8
YODOROGO
 10
29829.604341291921
 20
1707.749496429288
 30
0.0
 11
29829.604341291921
 21
1771.7494964292871
 31
0.0
1001
AUTOCAD_POSTSCRIPT_FIGURE
1002
{
1000
PSFILL
1000
Grayscale
1000
Grayscale
1070
    25
1002
}
  0
LINE
  5
5181
  8
YODOROGO
 10
29765.604341291921
 20
1707.749496429288
 30
0.0
 11
29829.604341291921
 21
1707.749496429288
 31
0.0
1001
AUTOCAD_POSTSCRIPT_FIGURE
1002
{
1000
PSFILL
1000
Grayscale
1000
Grayscale
1070
    25
1002
}
  0
LINE
  5
5182
  8
YODOROGO
 10
29765.604341291921
 20
1771.7494964292871
 30
0.0
 11
29765.604341291921
 21
1707.749496429288
 31
0.0
1001
AUTOCAD_POSTSCRIPT_FIGURE
1002
{
1000
PSFILL
1000
Grayscale
1000
Grayscale
1070
    25
1002
}
  0
LINE
  5
5183
  8
YODOROGO
 10
29673.604341291921
 20
1771.7494964292871
 30
0.0
 11
29765.604341291921
 21
1771.7494964292871
 31
0.0
1001
AUTOCAD_POSTSCRIPT_FIGURE
1002
{
1000
PSFILL
1000
Grayscale
1000
Grayscale
1070
    25
1002
}
  0
ARC
  5
5184
  8
YODOROGO
 10
31059.517893357912
 20
1602.6807375155761
 30
0.0
 40
178.22128111072141
 50
281.02627495425338
 51
357.77113575573799
  0
LINE
  5
5185
  8
YODOROGO
 10
31413.604341291921
 20
1907.7494964292871
 30
0.0
 11
31165.604341291921
 21
1907.7494964292871
 31
0.0
  0
LINE
  5
5186
  8
YODOROGO
 10
31413.604341291921
 20
2027.749496429288
 30
0.0
 11
31165.604341291921
 21
2027.749496429288
 31
0.0
  0
LINE
  5
5187
  8
YODOROGO
 10
31165.604341291921
 20
1963.749496429286
 30
0.0
 11
31413.604341291921
 21
1963.749496429286
 31
0.0
  0
LINE
  5
5188
  8
YODOROGO
 10
30791.604341291921
 20
1563.7494964292871
 30
0.0
 11
30791.604341291921
 21
1755.7494964292871
 31
0.0
  0
LINE
  5
5189
  8
YODOROGO
 10
30763.604341291921
 20
1691.749496429288
 30
0.0
 11
30763.604341291921
 21
1563.7494964292871
 31
0.0
  0
LINE
  5
518A
  8
YODOROGO
 10
30723.604341291921
 20
1491.749496429288
 30
0.0
 11
30723.604341291921
 21
1691.749496429288
 31
0.0
  0
LINE
  5
518B
  8
YODOROGO
 10
30899.604341291932
 20
1691.749496429288
 30
0.0
 11
30899.604341291932
 21
1491.749496429288
 31
0.0
  0
LINE
  5
518C
  8
YODOROGO
 10
30859.604341291932
 20
1563.7494964292871
 30
0.0
 11
30859.604341291932
 21
1691.749496429288
 31
0.0
  0
LINE
  5
518D
  8
YODOROGO
 10
30831.604341291921
 20
1755.7494964292871
 30
0.0
 11
30831.604341291921
 21
1563.7494964292871
 31
0.0
  0
LINE
  5
518E
  8
YODOROGO
 10
30973.604341291921
 20
2027.749496429288
 30
0.0
 11
30973.604341291921
 21
1467.749496429288
 31
0.0
  0
LINE
  5
518F
  8
YODOROGO
 10
30645.604341291921
 20
1427.749496429288
 30
0.0
 11
30645.604341291921
 21
2027.749496429288
 31
0.0
  0
LINE
  5
5190
  8
YODOROGO
 10
30697.604341291932
 20
1963.749496429286
 30
0.0
 11
30697.604341291932
 21
1427.749496429288
 31
0.0
  0
LINE
  5
5191
  8
YODOROGO
 10
30925.604341291921
 20
1547.749496429288
 30
0.0
 11
30925.604341291921
 21
1963.749496429286
 31
0.0
  0
LINE
  5
5192
  8
YODOROGO
 10
30381.604341291932
 20
1627.749496429288
 30
0.0
 11
30381.604341291932
 21
1679.749496429288
 31
0.0
  0
LINE
  5
5193
  8
YODOROGO
 10
30617.604341291921
 20
1679.749496429288
 30
0.0
 11
30617.604341291921
 21
1627.749496429288
 31
0.0
  0
LINE
  5
5194
  8
YODOROGO
 10
31165.604341291921
 20
1907.7494964292871
 30
0.0
 11
31165.604341291921
 21
1635.7494964292871
 31
0.0
  0
LINE
  5
5195
  8
YODOROGO
 10
29949.60434129191
 20
1667.749496429288
 30
0.0
 11
29949.60434129191
 21
1707.749496429288
 31
0.0
  0
LINE
  5
5196
  8
YODOROGO
 10
29949.60434129191
 20
1667.749496429288
 30
0.0
 11
29949.60434129191
 21
1707.749496429288
 31
0.0
  0
ARC
  5
5197
  8
YODOROGO
 10
30537.604341291921
 20
1507.749496429288
 30
0.0
 40
80.0
 50
270.0
 51
0.0
  0
LINE
  5
5198
  8
YODOROGO
 10
30569.604341291921
 20
1599.7494964292871
 30
0.0
 11
30617.604341291921
 21
1599.7494964292871
 31
0.0
  0
LINE
  5
5199
  8
YODOROGO
 10
30617.604341291921
 20
1627.749496429288
 30
0.0
 11
30529.604341291939
 21
1627.749496429288
 31
0.0
  0
LINE
  5
519A
  8
YODOROGO
 10
30217.604341291921
 20
1667.749496429288
 30
0.0
 11
29949.60434129191
 21
1667.749496429288
 31
0.0
  0
LINE
  5
519B
  8
YODOROGO
 10
30217.604341291921
 20
1627.749496429288
 30
0.0
 11
30217.604341291921
 21
1667.749496429288
 31
0.0
  0
LINE
  5
519C
  8
YODOROGO
 10
30017.604341291921
 20
1627.749496429288
 30
0.0
 11
30217.604341291921
 21
1627.749496429288
 31
0.0
  0
ARC
  5
519D
  8
YODOROGO
 10
30230.05882870136
 20
1868.885714952901
 30
0.0
 40
321.37763628522822
 50
228.6181454618993
 51
245.660289248906
  0
LINE
  5
519E
  8
YODOROGO
 10
30105.604341291921
 20
1603.7494964292871
 30
0.0
 11
30097.60434129195
 21
1576.0728158699001
 31
0.0
  0
LINE
  5
519F
  8
YODOROGO
 10
30189.604341291921
 20
1603.7494964292871
 30
0.0
 11
30105.604341291921
 21
1603.7494964292871
 31
0.0
  0
LINE
  5
51A0
  8
YODOROGO
 10
30177.604341291921
 20
1551.817722473427
 30
0.0
 11
30189.604341291921
 21
1603.7494964292871
 31
0.0
  0
ARC
  5
51A1
  8
YODOROGO
 10
30230.05882870045
 20
1868.885714953002
 30
0.0
 40
321.37763628529081
 50
260.60629297969911
 51
267.77903556555862
  0
LINE
  5
51A2
  8
YODOROGO
 10
30217.604341291921
 20
1427.749496429285
 30
0.0
 11
30217.604341291921
 21
1547.749496429288
 31
0.0
  0
LINE
  5
51A3
  8
YODOROGO
 10
29937.604341291932
 20
1481.3393349155101
 30
0.0
 11
29937.604341291921
 21
1594.531090531141
 31
0.0
  0
LINE
  5
51A4
  8
YODOROGO
 10
30217.604341291921
 20
1667.749496429288
 30
0.0
 11
29949.60434129191
 21
1667.749496429288
 31
0.0
  0
LINE
  5
51A5
  8
YODOROGO
 10
30217.604341291921
 20
1627.749496429288
 30
0.0
 11
30217.604341291921
 21
1667.749496429288
 31
0.0
  0
LINE
  5
51A6
  8
YODOROGO
 10
30017.604341291921
 20
1627.749496429288
 30
0.0
 11
30217.604341291921
 21
1627.749496429288
 31
0.0
  0
ARC
  5
51A7
  8
YODOROGO
 10
30230.05882870136
 20
1868.885714952901
 30
0.0
 40
321.37763628522822
 50
228.6181454618993
 51
245.660289248906
  0
LINE
  5
51A8
  8
YODOROGO
 10
30105.604341291921
 20
1603.7494964292871
 30
0.0
 11
30097.60434129195
 21
1576.0728158699001
 31
0.0
  0
LINE
  5
51A9
  8
YODOROGO
 10
30189.604341291921
 20
1603.7494964292871
 30
0.0
 11
30105.604341291921
 21
1603.7494964292871
 31
0.0
  0
LINE
  5
51AA
  8
YODOROGO
 10
30177.604341291921
 20
1551.817722473427
 30
0.0
 11
30189.604341291921
 21
1603.7494964292871
 31
0.0
  0
ARC
  5
51AB
  8
YODOROGO
 10
30230.05882870045
 20
1868.885714953002
 30
0.0
 40
321.37763628529081
 50
260.60629297969911
 51
267.77903556555862
  0
LINE
  5
51AC
  8
YODOROGO
 10
30217.604341291921
 20
1427.749496429285
 30
0.0
 11
30217.604341291921
 21
1547.749496429288
 31
0.0
  0
LINE
  5
51AD
  8
YODOROGO
 10
29937.604341291932
 20
1481.3393349155101
 30
0.0
 11
29937.604341291921
 21
1594.531090531141
 31
0.0
  0
LINE
  5
51AE
  8
YODOROGO
 10
30433.604341291921
 20
1573.749496429288
 30
0.0
 11
30381.604341291932
 21
1573.749496429288
 31
0.0
  0
LINE
  5
51AF
  8
YODOROGO
 10
30433.604341291921
 20
1601.749496429285
 30
0.0
 11
30433.604341291921
 21
1573.749496429288
 31
0.0
  0
LINE
  5
51B0
  8
YODOROGO
 10
30381.604341291932
 20
1601.749496429285
 30
0.0
 11
30433.604341291921
 21
1601.749496429285
 31
0.0
  0
LINE
  5
51B1
  8
YODOROGO
 10
30381.604341291932
 20
1573.749496429288
 30
0.0
 11
30381.604341291932
 21
1601.749496429285
 31
0.0
  0
LINE
  5
51B2
  8
YODOROGO
 10
30429.604341291921
 20
1577.7494964292871
 30
0.0
 11
30385.604341291921
 21
1577.7494964292871
 31
0.0
  0
LINE
  5
51B3
  8
YODOROGO
 10
30429.604341291921
 20
1597.749496429288
 30
0.0
 11
30429.604341291921
 21
1577.7494964292871
 31
0.0
  0
LINE
  5
51B4
  8
YODOROGO
 10
30385.604341291921
 20
1597.749496429288
 30
0.0
 11
30429.604341291921
 21
1597.749496429288
 31
0.0
  0
LINE
  5
51B5
  8
YODOROGO
 10
30385.604341291921
 20
1577.7494964292871
 30
0.0
 11
30385.604341291921
 21
1597.749496429288
 31
0.0
  0
LINE
  5
51B6
  8
YODOROGO
 10
30425.604341291921
 20
1581.749496429286
 30
0.0
 11
30389.604341291921
 21
1581.749496429286
 31
0.0
  0
LINE
  5
51B7
  8
YODOROGO
 10
30425.604341291921
 20
1593.749496429288
 30
0.0
 11
30425.604341291921
 21
1581.749496429286
 31
0.0
  0
LINE
  5
51B8
  8
YODOROGO
 10
30389.604341291921
 20
1593.749496429288
 30
0.0
 11
30425.604341291921
 21
1593.749496429288
 31
0.0
  0
LINE
  5
51B9
  8
YODOROGO
 10
30389.604341291921
 20
1581.749496429286
 30
0.0
 11
30389.604341291921
 21
1593.749496429288
 31
0.0
  0
LINE
  5
51BA
  8
YODOROGO
 10
30421.604341291932
 20
1585.7494964292871
 30
0.0
 11
30393.604341291921
 21
1585.7494964292871
 31
0.0
  0
LINE
  5
51BB
  8
YODOROGO
 10
30421.604341291932
 20
1589.749496429288
 30
0.0
 11
30421.604341291932
 21
1585.7494964292871
 31
0.0
  0
LINE
  5
51BC
  8
YODOROGO
 10
30393.604341291921
 20
1589.749496429288
 30
0.0
 11
30421.604341291932
 21
1589.749496429288
 31
0.0
  0
LINE
  5
51BD
  8
YODOROGO
 10
30393.604341291921
 20
1585.7494964292871
 30
0.0
 11
30393.604341291921
 21
1589.749496429288
 31
0.0
  0
LINE
  5
51BE
  8
YODOROGO
 10
30465.604341291921
 20
1627.749496429288
 30
0.0
 11
30381.604341291932
 21
1627.749496429288
 31
0.0
  0
LINE
  5
51BF
  8
YODOROGO
 10
30465.604341291921
 20
1547.749496429288
 30
0.0
 11
30465.604341291921
 21
1627.749496429288
 31
0.0
  0
LINE
  5
51C0
  8
YODOROGO
 10
30381.604341291932
 20
1547.749496429288
 30
0.0
 11
30465.604341291921
 21
1547.749496429288
 31
0.0
  0
LINE
  5
51C1
  8
YODOROGO
 10
30381.604341291932
 20
1427.749496429288
 30
0.0
 11
30381.604341291932
 21
1547.749496429288
 31
0.0
  0
LINE
  5
51C2
  8
YODOROGO
 10
30537.604341291921
 20
1427.749496429288
 30
0.0
 11
30381.604341291932
 21
1427.749496429288
 31
0.0
  0
LINE
  5
51C3
  8
YODOROGO
 10
30569.604341291921
 20
1571.749496429285
 30
0.0
 11
30569.604341291921
 21
1599.7494964292871
 31
0.0
  0
ARC
  5
51C4
  8
YODOROGO
 10
30545.604341291921
 20
1571.749496429291
 30
0.0
 40
24.000000000003752
 50
270.0
 51
359.99999999998772
  0
LINE
  5
51C5
  8
YODOROGO
 10
30529.604341291939
 20
1547.749496429288
 30
0.0
 11
30545.604341291921
 21
1547.749496429288
 31
0.0
  0
LINE
  5
51C6
  8
YODOROGO
 10
30529.604341291939
 20
1627.749496429288
 30
0.0
 11
30529.604341291939
 21
1547.749496429288
 31
0.0
  0
LINE
  5
51C7
  8
YODOROGO
 10
30899.604341291932
 20
1547.749496429288
 30
0.0
 11
30925.604341291921
 21
1547.749496429288
 31
0.0
  0
LINE
  5
51C8
  8
YODOROGO
 10
30933.604341291921
 20
1427.749496429288
 30
0.0
 11
30899.604341291932
 21
1427.749496429288
 31
0.0
  0
LINE
  5
51C9
  8
YODOROGO
 10
30763.604341291921
 20
1563.7494964292871
 30
0.0
 11
30791.604341291921
 21
1563.7494964292871
 31
0.0
  0
LINE
  5
51CA
  8
YODOROGO
 10
30899.604341291932
 20
1491.749496429288
 30
0.0
 11
30723.604341291921
 21
1491.749496429288
 31
0.0
  0
LINE
  5
51CB
  8
YODOROGO
 10
30831.604341291921
 20
1563.7494964292871
 30
0.0
 11
30859.604341291932
 21
1563.7494964292871
 31
0.0
  0
LINE
  5
51CC
  8
YODOROGO
 10
30899.604341291932
 20
1427.749496429288
 30
0.0
 11
30899.604341291932
 21
1547.749496429288
 31
0.0
  0
LINE
  5
51CD
  8
YODOROGO
 10
30697.604341291932
 20
1427.749496429288
 30
0.0
 11
30645.604341291921
 21
1427.749496429288
 31
0.0
  0
LINE
  5
51CE
  8
YODOROGO
 10
30617.604341291921
 20
1599.7494964292871
 30
0.0
 11
30617.604341291921
 21
1507.749496429288
 31
0.0
  0
ARC
  5
51CF
  8
YODOROGO
 10
30933.604341291921
 20
1467.749496429288
 30
0.0
 40
40.0
 50
270.0
 51
0.0
  0
LINE
  5
51D0
  8
YODOROGO
 10
31093.604341291921
 20
1523.7494964292871
 30
0.0
 11
31093.604341291921
 21
1427.749496429288
 31
0.0
  0
ARC
  5
51D1
  8
YODOROGO
 10
31039.721395566768
 20
1637.5313901097329
 30
0.0
 40
125.8955565916754
 50
295.34052442160112
 51
359.18902303418679
  0
LINE
  5
51D2
  8
YODOROGO
 10
30617.604341291921
 20
1859.749496429288
 30
0.0
 11
30497.604341291921
 21
1939.749496429288
 31
0.0
  0
LINE
  5
51D3
  8
YODOROGO
 10
30497.604341291921
 20
2027.749496429288
 30
0.0
 11
30617.604341291921
 21
1947.749496429288
 31
0.0
  0
LINE
  5
51D4
  8
YODOROGO
 10
30529.604341291939
 20
1679.749496429288
 30
0.0
 11
30617.604341291921
 21
1679.749496429288
 31
0.0
  0
LINE
  5
51D5
  8
YODOROGO
 10
30617.604341291921
 20
1735.7494964292871
 30
0.0
 11
30529.604341291939
 21
1735.7494964292871
 31
0.0
  0
LINE
  5
51D6
  8
YODOROGO
 10
30381.604341291932
 20
1795.7494964292871
 30
0.0
 11
30617.604341291921
 21
1795.7494964292871
 31
0.0
  0
LINE
  5
51D7
  8
YODOROGO
 10
30081.604341291921
 20
2027.749496429288
 30
0.0
 11
30021.604341291921
 21
2027.749496429288
 31
0.0
  0
LINE
  5
51D8
  8
YODOROGO
 10
30081.604341291921
 20
1827.7494964292871
 30
0.0
 11
30081.604341291921
 21
2027.749496429288
 31
0.0
  0
LINE
  5
51D9
  8
YODOROGO
 10
30021.604341291921
 20
1827.7494964292871
 30
0.0
 11
30081.604341291921
 21
1827.7494964292871
 31
0.0
  0
LINE
  5
51DA
  8
YODOROGO
 10
30021.604341291921
 20
2027.749496429288
 30
0.0
 11
30021.604341291921
 21
1827.7494964292871
 31
0.0
  0
LINE
  5
51DB
  8
YODOROGO
 10
30161.604341291921
 20
2027.749496429288
 30
0.0
 11
30217.604341291921
 21
2027.749496429288
 31
0.0
  0
LINE
  5
51DC
  8
YODOROGO
 10
30161.604341291921
 20
1811.749496429288
 30
0.0
 11
30161.604341291921
 21
2027.749496429288
 31
0.0
  0
ARC
  5
51DD
  8
YODOROGO
 10
30121.604341291921
 20
1811.749496429288
 30
0.0
 40
40.0
 50
270.0
 51
0.0
  0
LINE
  5
51DE
  8
YODOROGO
 10
30021.604341291921
 20
1771.7494964292871
 30
0.0
 11
30121.604341291921
 21
1771.7494964292871
 31
0.0
  0
LINE
  5
51DF
  8
YODOROGO
 10
30021.604341291921
 20
1707.749496429288
 30
0.0
 11
30021.604341291921
 21
1771.7494964292871
 31
0.0
  0
LINE
  5
51E0
  8
YODOROGO
 10
30137.604341291921
 20
1707.749496429288
 30
0.0
 11
30021.604341291921
 21
1707.749496429288
 31
0.0
  0
ARC
  5
51E1
  8
YODOROGO
 10
30137.604341291921
 20
1787.7494964292871
 30
0.0
 40
80.0
 50
270.0
 51
0.0
  0
LINE
  5
51E2
  8
YODOROGO
 10
30217.604341291921
 20
2027.749496429288
 30
0.0
 11
30217.604341291921
 21
1787.7494964292871
 31
0.0
  0
LINE
  5
51E3
  8
YODOROGO
 10
29977.604341291921
 20
1947.749496429288
 30
0.0
 11
29977.604341291921
 21
1995.7494964292871
 31
0.0
1001
AUTOCAD_POSTSCRIPT_FIGURE
1002
{
1000
PSFILL
1000
Grayscale
1000
Grayscale
1070
    25
1002
}
  0
LINE
  5
51E4
  8
YODOROGO
 10
29977.604341291921
 20
1859.749496429288
 30
0.0
 11
29977.604341291921
 21
1907.7494964292871
 31
0.0
1001
AUTOCAD_POSTSCRIPT_FIGURE
1002
{
1000
PSFILL
1000
Grayscale
1000
Grayscale
1070
    25
1002
}
  0
LINE
  5
51E5
  8
YODOROGO
 10
29977.604341291921
 20
1707.749496429288
 30
0.0
 11
29977.604341291921
 21
1819.7494964292871
 31
0.0
1001
AUTOCAD_POSTSCRIPT_FIGURE
1002
{
1000
PSFILL
1000
Grayscale
1000
Grayscale
1070
    25
1002
}
  0
LINE
  5
51E6
  8
YODOROGO
 10
30381.604341291932
 20
1907.7494964292871
 30
0.0
 11
30497.604341291921
 21
2027.749496429288
 31
0.0
  0
LINE
  5
51E7
  8
YODOROGO
 10
30381.604341291932
 20
1819.7494964292871
 30
0.0
 11
30381.604341291932
 21
1907.7494964292871
 31
0.0
  0
LINE
  5
51E8
  8
YODOROGO
 10
30497.604341291921
 20
1939.749496429288
 30
0.0
 11
30381.604341291932
 21
1819.7494964292871
 31
0.0
  0
LINE
  5
51E9
  8
YODOROGO
 10
30465.604341291921
 20
1679.749496429288
 30
0.0
 11
30465.604341291921
 21
1735.7494964292871
 31
0.0
  0
LINE
  5
51EA
  8
YODOROGO
 10
30381.604341291932
 20
1679.749496429288
 30
0.0
 11
30465.604341291921
 21
1679.749496429288
 31
0.0
  0
LINE
  5
51EB
  8
YODOROGO
 10
30529.604341291939
 20
1735.7494964292871
 30
0.0
 11
30529.604341291939
 21
1679.749496429288
 31
0.0
  0
LINE
  5
51EC
  8
YODOROGO
 10
30381.604341291932
 20
1735.7494964292871
 30
0.0
 11
30381.604341291932
 21
1795.7494964292871
 31
0.0
  0
LINE
  5
51ED
  8
YODOROGO
 10
30465.604341291921
 20
1735.7494964292871
 30
0.0
 11
30381.604341291932
 21
1735.7494964292871
 31
0.0
  0
LINE
  5
51EE
  8
YODOROGO
 10
30645.604341291921
 20
2027.749496429288
 30
0.0
 11
30973.604341291921
 21
2027.749496429288
 31
0.0
  0
LINE
  5
51EF
  8
YODOROGO
 10
30925.604341291921
 20
1963.749496429286
 30
0.0
 11
30697.604341291932
 21
1963.749496429286
 31
0.0
  0
LINE
  5
51F0
  8
YODOROGO
 10
30873.604341291921
 20
1819.7494964292871
 30
0.0
 11
30899.604341291932
 21
1819.7494964292871
 31
0.0
  0
LINE
  5
51F1
  8
YODOROGO
 10
30899.604341291932
 20
1939.749496429288
 30
0.0
 11
30873.604341291921
 21
1819.7494964292871
 31
0.0
  0
LINE
  5
51F2
  8
YODOROGO
 10
30851.604341291939
 20
1939.749496429288
 30
0.0
 11
30899.604341291932
 21
1939.749496429288
 31
0.0
  0
LINE
  5
51F3
  8
YODOROGO
 10
30825.604341291921
 20
1819.7494964292871
 30
0.0
 11
30851.604341291939
 21
1939.749496429288
 31
0.0
  0
LINE
  5
51F4
  8
YODOROGO
 10
30797.604341291921
 20
1819.7494964292871
 30
0.0
 11
30825.604341291921
 21
1819.7494964292871
 31
0.0
  0
LINE
  5
51F5
  8
YODOROGO
 10
30771.604341291939
 20
1939.749496429288
 30
0.0
 11
30797.604341291921
 21
1819.7494964292871
 31
0.0
  0
LINE
  5
51F6
  8
YODOROGO
 10
30723.604341291921
 20
1939.749496429288
 30
0.0
 11
30771.604341291939
 21
1939.749496429288
 31
0.0
  0
LINE
  5
51F7
  8
YODOROGO
 10
30749.604341291921
 20
1819.7494964292871
 30
0.0
 11
30723.604341291921
 21
1939.749496429288
 31
0.0
  0
LINE
  5
51F8
  8
YODOROGO
 10
30723.604341291921
 20
1819.7494964292871
 30
0.0
 11
30749.604341291921
 21
1819.7494964292871
 31
0.0
  0
LINE
  5
51F9
  8
YODOROGO
 10
30723.604341291921
 20
1755.7494964292871
 30
0.0
 11
30723.604341291921
 21
1819.7494964292871
 31
0.0
  0
LINE
  5
51FA
  8
YODOROGO
 10
30899.604341291932
 20
1755.7494964292871
 30
0.0
 11
30723.604341291921
 21
1755.7494964292871
 31
0.0
  0
LINE
  5
51FB
  8
YODOROGO
 10
30899.604341291932
 20
1819.7494964292871
 30
0.0
 11
30899.604341291932
 21
1755.7494964292871
 31
0.0
  0
LINE
  5
51FC
  8
YODOROGO
 10
30617.604341291921
 20
1947.749496429288
 30
0.0
 11
30617.604341291921
 21
1859.749496429288
 31
0.0
  0
LINE
  5
51FD
  8
YODOROGO
 10
30791.604341291921
 20
1755.7494964292871
 30
0.0
 11
30831.604341291921
 21
1755.7494964292871
 31
0.0
  0
LINE
  5
51FE
  8
YODOROGO
 10
30723.604341291921
 20
1691.749496429288
 30
0.0
 11
30763.604341291921
 21
1691.749496429288
 31
0.0
  0
LINE
  5
51FF
  8
YODOROGO
 10
30859.604341291932
 20
1691.749496429288
 30
0.0
 11
30899.604341291932
 21
1691.749496429288
 31
0.0
  0
LINE
  5
5200
  8
YODOROGO
 10
30617.604341291921
 20
1795.7494964292871
 30
0.0
 11
30617.604341291921
 21
1735.7494964292871
 31
0.0
  0
LINE
  5
5201
  8
YODOROGO
 10
31165.604341291921
 20
2027.749496429288
 30
0.0
 11
31165.604341291921
 21
1963.749496429286
 31
0.0
  0
LINE
  5
5202
  8
YODOROGO
 10
31533.604341291921
 20
1595.7494964292871
 30
0.0
 11
31533.60434129191
 21
1811.749496429288
 31
0.0
  0
LINE
  5
5203
  8
YODOROGO
 10
31461.60434129191
 20
1987.7494964292871
 30
0.0
 11
31461.60434129191
 21
1635.7494964292871
 31
0.0
  0
LINE
  5
5204
  8
YODOROGO
 10
31653.604341291921
 20
1427.749496429288
 30
0.0
 11
31653.60434129191
 21
1811.749496429288
 31
0.0
  0
LINE
  5
5205
  8
YODOROGO
 10
31589.604341291921
 20
1811.749496429288
 30
0.0
 11
31589.604341291921
 21
1427.749496429288
 31
0.0
  0
LINE
  5
5206
  8
YODOROGO
 10
31237.604341291921
 20
1595.7494964292871
 30
0.0
 11
31237.604341291921
 21
1707.749496429288
 31
0.0
  0
ARC
  5
5207
  8
YODOROGO
 10
31353.914865116069
 20
1607.790351288558
 30
0.0
 40
180.0924485759885
 50
268.62849102169793
 51
356.16638457330322
  0
LINE
  5
5208
  8
YODOROGO
 10
31349.604341291939
 20
1527.749496429288
 30
0.0
 11
31349.604341291939
 21
1427.749496429288
 31
0.0
  0
ARC
  5
5209
  8
YODOROGO
 10
31351.518075724562
 20
1637.838957017655
 30
0.0
 40
110.1060929836122
 50
269.00410209305932
 51
358.91264455492478
  0
LINE
  5
520A
  8
YODOROGO
 10
31589.604341291921
 20
1427.749496429288
 30
0.0
 11
31653.604341291921
 21
1427.749496429288
 31
0.0
  0
LINE
  5
520B
  8
YODOROGO
 10
31533.60434129191
 20
1811.749496429288
 30
0.0
 11
31589.604341291921
 21
1811.749496429288
 31
0.0
  0
LINE
  5
520C
  8
YODOROGO
 10
31621.604341291939
 20
1987.7494964292871
 30
0.0
 11
31461.60434129191
 21
1987.7494964292871
 31
0.0
  0
LINE
  5
520D
  8
YODOROGO
 10
31533.60434129191
 20
1915.7494964292871
 30
0.0
 11
31661.604341291939
 21
1915.7494964292871
 31
0.0
  0
LINE
  5
520E
  8
YODOROGO
 10
31701.604341291939
 20
1875.7494964292871
 30
0.0
 11
31533.60434129191
 21
1875.7494964292871
 31
0.0
  0
LINE
  5
520F
  8
YODOROGO
 10
31237.604341291921
 20
1779.749496429288
 30
0.0
 11
31349.604341291939
 21
1779.749496429288
 31
0.0
  0
LINE
  5
5210
  8
YODOROGO
 10
31237.604341291921
 20
1835.7494964292871
 30
0.0
 11
31237.604341291921
 21
1779.749496429288
 31
0.0
  0
LINE
  5
5211
  8
YODOROGO
 10
31349.604341291939
 20
1835.7494964292871
 30
0.0
 11
31237.604341291921
 21
1835.7494964292871
 31
0.0
  0
LINE
  5
5212
  8
YODOROGO
 10
31349.604341291939
 20
1779.749496429288
 30
0.0
 11
31349.604341291939
 21
1835.7494964292871
 31
0.0
  0
LINE
  5
5213
  8
YODOROGO
 10
31533.60434129191
 20
1875.7494964292871
 30
0.0
 11
31533.60434129191
 21
1915.7494964292871
 31
0.0
  0
LINE
  5
5214
  8
YODOROGO
 10
31413.604341291921
 20
1707.749496429288
 30
0.0
 11
31413.604341291921
 21
1907.7494964292871
 31
0.0
  0
LINE
  5
5215
  8
YODOROGO
 10
31237.604341291921
 20
1707.749496429288
 30
0.0
 11
31413.604341291921
 21
1707.749496429288
 31
0.0
  0
LINE
  5
5216
  8
YODOROGO
 10
31413.604341291921
 20
1963.749496429286
 30
0.0
 11
31413.604341291921
 21
2027.749496429288
 31
0.0
  0
ARC
  5
5217
  8
YODOROGO
 10
31621.604341291939
 20
2003.749496429285
 30
0.0
 40
15.999999999994539
 50
270.0
 51
0.0000000000081422
  0
LINE
  5
5218
  8
YODOROGO
 10
31637.604341291921
 20
2027.749496429288
 30
0.0
 11
31637.604341291921
 21
2003.7494964292871
 31
0.0
  0
LINE
  5
5219
  8
YODOROGO
 10
31701.604341291939
 20
2027.749496429288
 30
0.0
 11
31637.604341291921
 21
2027.749496429288
 31
0.0
  0
LINE
  5
521A
  8
YODOROGO
 10
31701.604341291939
 20
1955.7494964292871
 30
0.0
 11
31701.604341291939
 21
2027.749496429288
 31
0.0
  0
ARC
  5
521B
  8
YODOROGO
 10
31661.604341291939
 20
1955.7494964292871
 30
0.0
 40
40.0
 50
270.0
 51
0.0
  0
LINE
  5
521C
  8
YODOROGO
 10
31701.604341291939
 20
1811.749496429288
 30
0.0
 11
31701.604341291939
 21
1875.7494964292871
 31
0.0
  0
LINE
  5
521D
  8
YODOROGO
 10
31653.60434129191
 20
1811.749496429288
 30
0.0
 11
31701.604341291939
 21
1811.749496429288
 31
0.0
  0
LINE
  5
521E
  8
SUNPOU
  6
CONTINUOUS
 62
     4
 10
7874.3463100000081
 20
13477.096310000001
 30
0.0
 11
7874.3463100000081
 21
12277.09703599999
 31
0.0
  0
LINE
  5
521F
  8
SUNPOU
  6
CONTINUOUS
 62
     4
 10
13530.846310000001
 20
13477.096310000001
 30
0.0
 11
13530.846310000001
 21
12277.09703599999
 31
0.0
  0
LINE
  5
5220
  8
SUNPOU
  6
CONTINUOUS
 62
     4
 10
7874.3463100000081
 20
12357.09703599999
 30
0.0
 11
13530.846310000001
 21
12357.09703599999
 31
0.0
  0
LINE
  5
5221
  8
SUNPOU
  6
CONTINUOUS
 62
     4
 10
7866.2921208223861
 20
20158.57606624805
 30
0.0
 11
7561.8811890000034
 21
20158.57606624805
 31
0.0
  0
LINE
  5
5222
  8
SUNPOU
  6
CONTINUOUS
 62
     4
 10
7870.844350000003
 20
20148.596310000012
 30
0.0
 11
7561.8811890000034
 21
20148.596310000012
 31
0.0
  0
LINE
  5
5223
  8
SUNPOU
  6
CONTINUOUS
 62
     4
 10
7641.8811890000025
 20
20158.57606624805
 30
0.0
 11
7641.8811890000025
 21
20398.57606624805
 31
0.0
  0
LINE
  5
5224
  8
SUNPOU
  6
CONTINUOUS
 62
     4
 10
7641.8811890000025
 20
20148.596310000012
 30
0.0
 11
7641.8811890000025
 21
19908.596310000001
 31
0.0
  0
LINE
  5
5225
  8
SUNPOU
  6
CONTINUOUS
 62
     4
 10
7641.8811890000025
 20
20158.57606624805
 30
0.0
 11
7641.8811890000025
 21
20148.596310000012
 31
0.0
  0
LINE
  5
5226
  8
SUNPOU
  6
CONTINUOUS
 62
     4
 10
7278.8737085223393
 20
13749.596310000001
 30
0.0
 11
7216.2166650000026
 21
13749.596310000001
 31
0.0
  0
LINE
  5
5227
  8
SUNPOU
  6
CONTINUOUS
 62
     4
 10
7797.3463100000081
 20
13557.096310000001
 30
0.0
 11
7216.2166650000026
 21
13557.096310000001
 31
0.0
  0
LINE
  5
5228
  8
SUNPOU
  6
CONTINUOUS
 62
     4
 10
7296.2166650000017
 20
13749.596310000001
 30
0.0
 11
7296.2166650000017
 21
13557.096310000001
 31
0.0
  0
LINE
  5
5229
  8
SUNPOU
  6
CONTINUOUS
 62
     4
 10
7278.8737085223393
 20
17018.096310000012
 30
0.0
 11
7216.2166650000026
 21
17018.096310000012
 31
0.0
  0
LINE
  5
522A
  8
SUNPOU
  6
CONTINUOUS
 62
     4
 10
7278.8737085223393
 20
13749.596310000001
 30
0.0
 11
7216.2166650000026
 21
13749.596310000001
 31
0.0
  0
LINE
  5
522B
  8
SUNPOU
  6
CONTINUOUS
 62
     4
 10
7296.2166650000017
 20
17018.096310000012
 30
0.0
 11
7296.2166650000017
 21
13749.596310000001
 31
0.0
  0
LINE
  5
522C
  8
SUNPOU
  6
CONTINUOUS
 62
     4
 10
7278.8737085223393
 20
19936.096310000001
 30
0.0
 11
7216.2166650000026
 21
19936.096310000001
 31
0.0
  0
LINE
  5
522D
  8
SUNPOU
  6
CONTINUOUS
 62
     4
 10
7805.8035106700418
 20
20158.596178
 30
0.0
 11
7216.2166650000026
 21
20158.596178
 31
0.0
  0
LINE
  5
522E
  8
SUNPOU
  6
CONTINUOUS
 62
     4
 10
7296.2166650000017
 20
19936.096310000001
 30
0.0
 11
7296.2166650000017
 21
20158.596178
 31
0.0
  0
LINE
  5
522F
  8
SUNPOU
  6
CONTINUOUS
 62
     4
 10
7278.8737085223393
 20
17018.096310000012
 30
0.0
 11
7216.2166650000026
 21
17018.096310000012
 31
0.0
  0
LINE
  5
5230
  8
SUNPOU
  6
CONTINUOUS
 62
     4
 10
7278.8737085223393
 20
19936.096310000001
 30
0.0
 11
7216.2166650000026
 21
19936.096310000001
 31
0.0
  0
LINE
  5
5231
  8
SUNPOU
  6
CONTINUOUS
 62
     4
 10
7296.2166650000017
 20
17018.096310000012
 30
0.0
 11
7296.2166650000017
 21
19936.096310000001
 31
0.0
  0
LINE
  5
5232
  8
SUNPOU
  6
CONTINUOUS
 62
     4
 10
13445.346310000001
 20
20721.874797825069
 30
0.0
 11
13445.346310000001
 21
20788.59551900001
 31
0.0
  0
LINE
  5
5233
  8
SUNPOU
  6
CONTINUOUS
 62
     4
 10
13530.84631000001
 20
20228.595649999999
 30
0.0
 11
13530.84631000001
 21
20788.59551900001
 31
0.0
  0
LINE
  5
5234
  8
SUNPOU
  6
CONTINUOUS
 62
     4
 10
13445.346310000001
 20
20708.59551900001
 30
0.0
 11
13205.346310000001
 21
20708.59551900001
 31
0.0
  0
LINE
  5
5235
  8
SUNPOU
  6
CONTINUOUS
 62
     4
 10
13527.84631000001
 20
20708.59551900001
 30
0.0
 11
13767.84631000001
 21
20708.59551900001
 31
0.0
  0
LINE
  5
5236
  8
SUNPOU
  6
CONTINUOUS
 62
     4
 10
13445.346310000001
 20
20708.59551900001
 30
0.0
 11
13527.84631000001
 21
20708.59551900001
 31
0.0
  0
LINE
  5
5237
  8
SUNPOU
  6
CONTINUOUS
 62
     4
 10
10877.846310000001
 20
19977.095835
 30
0.0
 11
10877.846310000001
 21
20788.59551900001
 31
0.0
  0
LINE
  5
5238
  8
SUNPOU
  6
CONTINUOUS
 62
     4
 10
13445.346310000001
 20
20721.874797825069
 30
0.0
 11
13445.346310000001
 21
20788.59551900001
 31
0.0
  0
LINE
  5
5239
  8
SUNPOU
  6
CONTINUOUS
 62
     4
 10
10877.846310000001
 20
20708.59551900001
 30
0.0
 11
13445.346310000001
 21
20708.59551900001
 31
0.0
  0
LINE
  5
523A
  8
SUNPOU
  6
CONTINUOUS
 62
     4
 10
7959.846310000009
 20
20675.099643277259
 30
0.0
 11
7959.846310000009
 21
20788.59551900001
 31
0.0
  0
LINE
  5
523B
  8
SUNPOU
  6
CONTINUOUS
 62
     4
 10
10877.846310000001
 20
19977.095835
 30
0.0
 11
10877.846310000001
 21
20788.59551900001
 31
0.0
  0
LINE
  5
523C
  8
SUNPOU
  6
CONTINUOUS
 62
     4
 10
7959.846310000009
 20
20708.59551900001
 30
0.0
 11
10877.846310000001
 21
20708.59551900001
 31
0.0
  0
LINE
  5
523D
  8
SUNPOU
  6
CONTINUOUS
 62
     4
 10
7874.3463100000081
 20
20233.595914000001
 30
0.0
 11
7874.3463100000081
 21
20788.59551900001
 31
0.0
  0
LINE
  5
523E
  8
SUNPOU
  6
CONTINUOUS
 62
     4
 10
7959.846310000009
 20
20675.099643277259
 30
0.0
 11
7959.846310000009
 21
20788.59551900001
 31
0.0
  0
LINE
  5
523F
  8
SUNPOU
  6
CONTINUOUS
 62
     4
 10
7877.3463100000081
 20
20708.59551900001
 30
0.0
 11
7637.346310000009
 21
20708.59551900001
 31
0.0
  0
LINE
  5
5240
  8
SUNPOU
  6
CONTINUOUS
 62
     4
 10
7959.846310000009
 20
20708.59551900001
 30
0.0
 11
8199.8463100000081
 21
20708.59551900001
 31
0.0
  0
LINE
  5
5241
  8
SUNPOU
  6
CONTINUOUS
 62
     4
 10
7877.3463100000081
 20
20708.59551900001
 30
0.0
 11
7959.846310000009
 21
20708.59551900001
 31
0.0
  0
LINE
  5
5242
  8
SUNPOU
  6
CONTINUOUS
 62
     4
 10
8062.0630539999829
 20
5734.2067940000097
 30
0.0
 11
8062.0630539999829
 21
4796.860207000007
 31
0.0
  0
LINE
  5
5243
  8
SUNPOU
  6
CONTINUOUS
 62
     4
 10
10980.063053999969
 20
5734.2067940000097
 30
0.0
 11
10980.063053999969
 21
4796.860207000007
 31
0.0
  0
LINE
  5
5244
  8
SUNPOU
  6
CONTINUOUS
 62
     4
 10
8062.0630539999829
 20
4876.8602070000097
 30
0.0
 11
10980.063053999969
 21
4876.8602070000097
 31
0.0
  0
LINE
  5
5245
  8
SUNPOU
  6
CONTINUOUS
 62
     4
 10
10980.063053999969
 20
5734.2067940000097
 30
0.0
 11
10980.063053999969
 21
4796.860207000007
 31
0.0
  0
LINE
  5
5246
  8
SUNPOU
  6
CONTINUOUS
 62
     4
 10
14248.56305399998
 20
5734.2067940000097
 30
0.0
 11
14248.56305399998
 21
4796.860207000007
 31
0.0
  0
LINE
  5
5247
  8
SUNPOU
  6
CONTINUOUS
 62
     4
 10
10980.063053999969
 20
4876.8602070000097
 30
0.0
 11
14248.56305399998
 21
4876.8602070000097
 31
0.0
  0
LINE
  5
5248
  8
SUNPOU
  6
CONTINUOUS
 62
     4
 10
8062.0630539999829
 20
5734.2067940000097
 30
0.0
 11
8062.0630539999829
 21
4796.860207000007
 31
0.0
  0
LINE
  5
5249
  8
SUNPOU
  6
CONTINUOUS
 62
     4
 10
8019.5630539999838
 20
6096.8595470000082
 30
0.0
 11
8019.5630539999838
 21
4796.860207000007
 31
0.0
  0
LINE
  5
524A
  8
SUNPOU
  6
CONTINUOUS
 62
     4
 10
8062.0630539999829
 20
4876.8602070000097
 30
0.0
 11
8302.0630539999875
 21
4876.8602070000097
 31
0.0
  0
LINE
  5
524B
  8
SUNPOU
  6
CONTINUOUS
 62
     4
 10
8019.5630539999838
 20
4876.8602070000097
 30
0.0
 11
7779.5630539999829
 21
4876.8602070000097
 31
0.0
  0
LINE
  5
524C
  8
SUNPOU
  6
CONTINUOUS
 62
     4
 10
8062.0630539999829
 20
4876.8602070000097
 30
0.0
 11
8019.5630539999838
 21
4876.8602070000097
 31
0.0
  0
LINE
  5
524D
  8
SUNPOU
  6
CONTINUOUS
 62
     4
 10
14248.56305399998
 20
5734.2067940000097
 30
0.0
 11
14248.56305399998
 21
4796.860207000007
 31
0.0
  0
LINE
  5
524E
  8
SUNPOU
  6
CONTINUOUS
 62
     4
 10
14291.06305399998
 20
6096.8595470000082
 30
0.0
 11
14291.06305399998
 21
4796.860207000007
 31
0.0
  0
LINE
  5
524F
  8
SUNPOU
  6
CONTINUOUS
 62
     4
 10
14248.56305399998
 20
4876.8602070000097
 30
0.0
 11
14008.56305399998
 21
4876.8602070000097
 31
0.0
  0
LINE
  5
5250
  8
SUNPOU
  6
CONTINUOUS
 62
     4
 10
14291.06305399998
 20
4876.8602070000097
 30
0.0
 11
14531.06305399998
 21
4876.8602070000097
 31
0.0
  0
LINE
  5
5251
  8
SUNPOU
  6
CONTINUOUS
 62
     4
 10
14248.56305399998
 20
4876.8602070000097
 30
0.0
 11
14291.06305399998
 21
4876.8602070000097
 31
0.0
  0
LINE
  5
5252
  8
SUNPOU
  6
CONTINUOUS
 62
     4
 10
8019.5630539999838
 20
6096.8595470000082
 30
0.0
 11
8019.5630539999838
 21
4396.8598770000126
 31
0.0
  0
LINE
  5
5253
  8
SUNPOU
  6
CONTINUOUS
 62
     4
 10
14291.06305399998
 20
6096.8595470000082
 30
0.0
 11
14291.06305399998
 21
4396.8598770000126
 31
0.0
  0
LINE
  5
5254
  8
SUNPOU
  6
CONTINUOUS
 62
     4
 10
8019.5630539999838
 20
4476.8598770000117
 30
0.0
 11
14291.06305399998
 21
4476.8598770000117
 31
0.0
  0
LINE
  5
5255
  8
SUNPOU
  6
CONTINUOUS
 62
     4
 10
14383.56305399998
 20
6176.85954700001
 30
0.0
 11
15461.061469999961
 21
6176.85954700001
 31
0.0
  0
LINE
  5
5256
  8
SUNPOU
  6
CONTINUOUS
 62
     4
 10
14475.02169499997
 20
8764.8595470000055
 30
0.0
 11
15461.061469999961
 21
8764.8595470000055
 31
0.0
  0
LINE
  5
5257
  8
SUNPOU
  6
CONTINUOUS
 62
     4
 10
15381.061469999961
 20
6176.85954700001
 30
0.0
 11
15381.061469999961
 21
8764.8595470000055
 31
0.0
  0
LINE
  5
5258
  8
SUNPOU
  6
CONTINUOUS
 62
     4
 10
7932.0630539999793
 20
6176.85954700001
 30
0.0
 11
6849.5646369999822
 21
6176.85954700001
 31
0.0
  0
LINE
  5
5259
  8
SUNPOU
  6
CONTINUOUS
 62
     4
 10
7754.4563046666208
 20
8573.8595470000037
 30
0.0
 11
6849.5646369999822
 21
8573.8595470000037
 31
0.0
  0
LINE
  5
525A
  8
SUNPOU
  6
CONTINUOUS
 62
     4
 10
6929.5646369999804
 20
6176.85954700001
 30
0.0
 11
6929.5646369999804
 21
8573.8595470000037
 31
0.0
  0
LINE
  5
525B
  8
SUNPOU
  6
CONTINUOUS
 62
     4
 10
8019.5630539999838
 20
8523.9546395239176
 30
0.0
 11
8019.5630539999838
 21
9644.7681590000029
 31
0.0
  0
LINE
  5
525C
  8
SUNPOU
  6
CONTINUOUS
 62
     4
 10
14291.06305399998
 20
8711.6892587655766
 30
0.0
 11
14291.06305399998
 21
9644.7681590000029
 31
0.0
  0
LINE
  5
525D
  8
SUNPOU
  6
CONTINUOUS
 62
     4
 10
8019.5630539999838
 20
9564.7681590000029
 30
0.0
 11
14291.06305399998
 21
9564.7681590000029
 31
0.0
  0
LINE
  5
525E
  8
SUNPOU
  6
CONTINUOUS
 62
     4
 10
14291.06305399998
 20
8711.6892587655766
 30
0.0
 11
14291.06305399998
 21
9644.7681590000029
 31
0.0
  0
LINE
  5
525F
  8
SUNPOU
  6
CONTINUOUS
 62
     4
 10
14441.06305399998
 20
8781.7719706801854
 30
0.0
 11
14441.06305399998
 21
9644.7681590000029
 31
0.0
  0
LINE
  5
5260
  8
SUNPOU
  6
CONTINUOUS
 62
     4
 10
14291.06305399998
 20
9564.7681590000029
 30
0.0
 11
14051.06305399998
 21
9564.7681590000029
 31
0.0
  0
LINE
  5
5261
  8
SUNPOU
  6
CONTINUOUS
 62
     4
 10
14441.06305399998
 20
9564.7681590000029
 30
0.0
 11
14681.06305399998
 21
9564.7681590000029
 31
0.0
  0
LINE
  5
5262
  8
SUNPOU
  6
CONTINUOUS
 62
     4
 10
14291.06305399998
 20
9564.7681590000029
 30
0.0
 11
14441.06305399998
 21
9564.7681590000029
 31
0.0
  0
LINE
  5
5263
  8
SUNPOU
  6
CONTINUOUS
 62
     4
 10
8019.5630539999838
 20
8523.9546395239176
 30
0.0
 11
8019.5630539999838
 21
9644.7681590000029
 31
0.0
  0
LINE
  5
5264
  8
SUNPOU
  6
CONTINUOUS
 62
     4
 10
7839.5630539999838
 20
8644.9839442098946
 30
0.0
 11
7839.5630539999838
 21
9644.7681590000029
 31
0.0
  0
LINE
  5
5265
  8
SUNPOU
  6
CONTINUOUS
 62
     4
 10
8019.5630539999838
 20
9564.7681590000029
 30
0.0
 11
7839.5630539999838
 21
9564.7681590000029
 31
0.0
  0
LINE
  5
5266
  8
SUNPOU
  6
CONTINUOUS
 62
     4
 10
7839.5630539999838
 20
8651.7465654001571
 30
0.0
 11
7839.5630539999838
 21
10044.768488999989
 31
0.0
  0
LINE
  5
5267
  8
SUNPOU
  6
CONTINUOUS
 62
     4
 10
14441.06305399998
 20
8809.2263147579415
 30
0.0
 11
14441.06305399998
 21
10044.768488999989
 31
0.0
  0
LINE
  5
5268
  8
SUNPOU
  6
CONTINUOUS
 62
     4
 10
7839.5630539999838
 20
9964.7684890000037
 30
0.0
 11
14441.06305399998
 21
9964.7684890000037
 31
0.0
  0
LINE
  5
5269
  8
SUNPOU
  6
CONTINUOUS
 62
     4
 10
18670.849397999991
 20
6176.85954700001
 30
0.0
 11
17470.849397999991
 21
6176.85954700001
 31
0.0
  0
LINE
  5
526A
  8
SUNPOU
  6
CONTINUOUS
 62
     4
 10
18638.348078999999
 20
8764.8595470000091
 30
0.0
 11
17470.849397999991
 21
8764.8595470000091
 31
0.0
  0
LINE
  5
526B
  8
SUNPOU
  6
CONTINUOUS
 62
     4
 10
17550.849397999991
 20
6176.85954700001
 30
0.0
 11
17550.849397999991
 21
8764.8595470000091
 31
0.0
  0
LINE
  5
526C
  8
SUNPOU
  6
CONTINUOUS
 62
     4
 10
18758.348078999999
 20
8714.8606030000064
 30
0.0
 11
18758.348078999999
 21
9644.8592170000084
 31
0.0
  0
LINE
  5
526D
  8
SUNPOU
  6
CONTINUOUS
 62
     4
 10
18715.348078999999
 20
8844.8595470000091
 30
0.0
 11
18715.348078999999
 21
9644.8592170000084
 31
0.0
  0
LINE
  5
526E
  8
SUNPOU
  6
CONTINUOUS
 62
     4
 10
18758.348078999999
 20
9564.8592170000084
 30
0.0
 11
18998.348078999989
 21
9564.8592170000084
 31
0.0
  0
LINE
  5
526F
  8
SUNPOU
  6
CONTINUOUS
 62
     4
 10
18718.348078999999
 20
9564.8592170000084
 30
0.0
 11
18478.348078999989
 21
9564.8592170000084
 31
0.0
  0
LINE
  5
5270
  8
SUNPOU
  6
CONTINUOUS
 62
     4
 10
18758.348078999999
 20
9564.8592170000084
 30
0.0
 11
18718.348078999999
 21
9564.8592170000084
 31
0.0
  0
LINE
  5
5271
  8
SUNPOU
  6
CONTINUOUS
 62
     4
 10
18758.348078999999
 20
8714.8606030000064
 30
0.0
 11
18758.348078999999
 21
9644.8592170000047
 31
0.0
  0
LINE
  5
5272
  8
SUNPOU
  6
CONTINUOUS
 62
     4
 10
24328.848078999981
 20
8714.8606030000064
 30
0.0
 11
24328.848078999981
 21
9644.8592170000047
 31
0.0
  0
LINE
  5
5273
  8
SUNPOU
  6
CONTINUOUS
 62
     4
 10
18758.348078999999
 20
9564.8592170000029
 30
0.0
 11
24328.848078999981
 21
9564.8592170000029
 31
0.0
  0
LINE
  5
5274
  8
SUNPOU
  6
CONTINUOUS
 62
     4
 10
24328.848078999981
 20
8714.8606030000064
 30
0.0
 11
24328.848078999981
 21
9644.8592170000047
 31
0.0
  0
LINE
  5
5275
  8
SUNPOU
  6
CONTINUOUS
 62
     4
 10
24371.84807900001
 20
8844.8595470000091
 30
0.0
 11
24371.84807900001
 21
9644.8592170000047
 31
0.0
  0
LINE
  5
5276
  8
SUNPOU
  6
CONTINUOUS
 62
     4
 10
24328.848078999981
 20
9564.8592170000029
 30
0.0
 11
24088.848078999981
 21
9564.8592170000029
 31
0.0
  0
LINE
  5
5277
  8
SUNPOU
  6
CONTINUOUS
 62
     4
 10
24368.84807900001
 20
9564.8592170000029
 30
0.0
 11
24608.84807900001
 21
9564.8592170000029
 31
0.0
  0
LINE
  5
5278
  8
SUNPOU
  6
CONTINUOUS
 62
     4
 10
24328.848078999981
 20
9564.8592170000029
 30
0.0
 11
24368.84807900001
 21
9564.8592170000029
 31
0.0
  0
LINE
  5
5279
  8
SUNPOU
  6
CONTINUOUS
 62
     4
 10
24371.84807900001
 20
8844.8595470000091
 30
0.0
 11
24371.84807900001
 21
10044.859547
 31
0.0
  0
LINE
  5
527A
  8
SUNPOU
  6
CONTINUOUS
 62
     4
 10
18715.348078999999
 20
8844.8595470000091
 30
0.0
 11
18715.348078999999
 21
10044.859547
 31
0.0
  0
LINE
  5
527B
  8
SUNPOU
  6
CONTINUOUS
 62
     4
 10
24368.84807900001
 20
9964.8595470000091
 30
0.0
 11
18718.348078999999
 21
9964.8595470000091
 31
0.0
  0
LINE
  5
527C
  8
SUNPOU
  6
CONTINUOUS
 62
     4
 10
24286.348078999989
 20
5734.2067940000097
 30
0.0
 11
24286.348078999989
 21
4796.860207000007
 31
0.0
  0
LINE
  5
527D
  8
SUNPOU
  6
CONTINUOUS
 62
     4
 10
18800.848078999999
 20
5734.2067940000097
 30
0.0
 11
18800.848078999999
 21
4796.860207000007
 31
0.0
  0
LINE
  5
527E
  8
SUNPOU
  6
CONTINUOUS
 62
     4
 10
24286.348078999989
 20
4876.8602070000097
 30
0.0
 11
18800.848078999999
 21
4876.8602070000097
 31
0.0
  0
LINE
  5
527F
  8
SUNPOU
  6
CONTINUOUS
 62
     4
 10
18758.348078999999
 20
6096.8595470000082
 30
0.0
 11
18758.348078999999
 21
4396.8598770000126
 31
0.0
  0
LINE
  5
5280
  8
SUNPOU
  6
CONTINUOUS
 62
     4
 10
24328.84807900001
 20
6096.8595470000082
 30
0.0
 11
24328.84807900001
 21
4396.8598770000126
 31
0.0
  0
LINE
  5
5281
  8
SUNPOU
  6
CONTINUOUS
 62
     4
 10
18758.348078999999
 20
4476.8598770000117
 30
0.0
 11
24328.84807900001
 21
4476.8598770000117
 31
0.0
  0
LINE
  5
5282
  8
SUNPOU
  6
CONTINUOUS
 62
     4
 10
18800.848078999999
 20
5734.2067940000097
 30
0.0
 11
18800.848078999999
 21
4796.860207000007
 31
0.0
  0
LINE
  5
5283
  8
SUNPOU
  6
CONTINUOUS
 62
     4
 10
18758.348078999999
 20
6096.8595470000082
 30
0.0
 11
18758.348078999999
 21
4796.860207000007
 31
0.0
  0
LINE
  5
5284
  8
SUNPOU
  6
CONTINUOUS
 62
     4
 10
18800.848078999999
 20
4876.8602070000097
 30
0.0
 11
19040.848078999999
 21
4876.8602070000097
 31
0.0
  0
LINE
  5
5285
  8
SUNPOU
  6
CONTINUOUS
 62
     4
 10
18758.348078999999
 20
4876.8602070000097
 30
0.0
 11
18518.348078999989
 21
4876.8602070000097
 31
0.0
  0
LINE
  5
5286
  8
SUNPOU
  6
CONTINUOUS
 62
     4
 10
18800.848078999999
 20
4876.8602070000097
 30
0.0
 11
18758.348078999999
 21
4876.8602070000097
 31
0.0
  0
LINE
  5
5287
  8
SUNPOU
  6
CONTINUOUS
 62
     4
 10
19033.849292999981
 20
5996.8597120000077
 30
0.0
 11
19033.849292999981
 21
5196.8600420000093
 31
0.0
  0
LINE
  5
5288
  8
SUNPOU
  6
CONTINUOUS
 62
     4
 10
24053.348843999978
 20
5996.8597120000077
 30
0.0
 11
24053.348843999978
 21
5196.8600420000093
 31
0.0
  0
LINE
  5
5289
  8
SUNPOU
  6
CONTINUOUS
 62
     4
 10
19033.849292999981
 20
5276.8600420000093
 30
0.0
 11
24053.348843999978
 21
5276.8600420000093
 31
0.0
  0
LINE
  5
528A
  8
SUNPOU
  6
CONTINUOUS
 62
     4
 10
18670.849397999991
 20
6176.85954700001
 30
0.0
 11
17870.848738000001
 21
6176.85954700001
 31
0.0
  0
LINE
  5
528B
  8
SUNPOU
  6
CONTINUOUS
 62
     4
 10
18670.849397999991
 20
8115.3595470000091
 30
0.0
 11
17870.848738000001
 21
8115.3595470000091
 31
0.0
  0
LINE
  5
528C
  8
SUNPOU
  6
CONTINUOUS
 62
     4
 10
17950.848738000001
 20
6176.85954700001
 30
0.0
 11
17950.848738000001
 21
8115.3595470000091
 31
0.0
  0
LINE
  5
528D
  8
SUNPOU
  6
CONTINUOUS
 62
     4
 10
24286.348078999989
 20
5734.2067940000097
 30
0.0
 11
24286.348078999989
 21
4796.860207000007
 31
0.0
  0
LINE
  5
528E
  8
SUNPOU
  6
CONTINUOUS
 62
     4
 10
24328.84807900001
 20
6096.8595470000082
 30
0.0
 11
24328.84807900001
 21
4796.860207000007
 31
0.0
  0
LINE
  5
528F
  8
SUNPOU
  6
CONTINUOUS
 62
     4
 10
24286.348078999989
 20
4876.8602070000097
 30
0.0
 11
24046.348078999989
 21
4876.8602070000097
 31
0.0
  0
LINE
  5
5290
  8
SUNPOU
  6
CONTINUOUS
 62
     4
 10
24328.84807900001
 20
4876.8602070000097
 30
0.0
 11
24568.84807900001
 21
4876.8602070000097
 31
0.0
  0
LINE
  5
5291
  8
SUNPOU
  6
CONTINUOUS
 62
     4
 10
24286.348078999989
 20
4876.8602070000097
 30
0.0
 11
24328.84807900001
 21
4876.8602070000097
 31
0.0
  0
LINE
  5
5292
  8
SUNPOU
  6
CONTINUOUS
 62
     4
 10
24286.354017000001
 20
13008.17194649999
 30
0.0
 11
24286.354017000001
 21
12698.150204999991
 31
0.0
  0
LINE
  5
5293
  8
SUNPOU
  6
CONTINUOUS
 62
     4
 10
24328.85626
 20
13627.10099399998
 30
0.0
 11
24328.85626
 21
12698.150204999991
 31
0.0
  0
LINE
  5
5294
  8
SUNPOU
  6
CONTINUOUS
 62
     4
 10
24286.354017000001
 20
12778.150204999991
 30
0.0
 11
24046.354017000001
 21
12778.150204999991
 31
0.0
  0
LINE
  5
5295
  8
SUNPOU
  6
CONTINUOUS
 62
     4
 10
24328.85626
 20
12778.150204999991
 30
0.0
 11
24568.85626
 21
12778.150204999991
 31
0.0
  0
LINE
  5
5296
  8
SUNPOU
  6
CONTINUOUS
 62
     4
 10
24286.354017000001
 20
12778.150204999991
 30
0.0
 11
24328.85626
 21
12778.150204999991
 31
0.0
  0
LINE
  5
5297
  8
SUNPOU
  6
CONTINUOUS
 62
     4
 10
24286.354017000001
 20
13008.17194649999
 30
0.0
 11
24286.354017000001
 21
12698.150204999991
 31
0.0
  0
LINE
  5
5298
  8
SUNPOU
  6
CONTINUOUS
 62
     4
 10
24243.851773999999
 20
13627.10099399998
 30
0.0
 11
24243.851773999999
 21
12698.150204999991
 31
0.0
  0
LINE
  5
5299
  8
SUNPOU
  6
CONTINUOUS
 62
     4
 10
24286.354017000001
 20
12778.150204999991
 30
0.0
 11
24526.354017000001
 21
12778.150204999991
 31
0.0
  0
LINE
  5
529A
  8
SUNPOU
  6
CONTINUOUS
 62
     4
 10
24243.851773999999
 20
12778.150204999991
 30
0.0
 11
24003.851773999999
 21
12778.150204999991
 31
0.0
  0
LINE
  5
529B
  8
SUNPOU
  6
CONTINUOUS
 62
     4
 10
24286.354017000001
 20
12778.150204999991
 30
0.0
 11
24243.851773999999
 21
12778.150204999991
 31
0.0
  0
LINE
  5
529C
  8
SUNPOU
  6
CONTINUOUS
 62
     4
 10
18800.84807800001
 20
13043.83485499999
 30
0.0
 11
18800.84807800001
 21
12698.15020499998
 31
0.0
  0
LINE
  5
529D
  8
SUNPOU
  6
CONTINUOUS
 62
     4
 10
18843.350321000002
 20
13627.10099399998
 30
0.0
 11
18843.350321000002
 21
12698.15020499998
 31
0.0
  0
LINE
  5
529E
  8
SUNPOU
  6
CONTINUOUS
 62
     4
 10
18800.84807800001
 20
12778.15020499998
 30
0.0
 11
18560.84807800001
 21
12778.15020499998
 31
0.0
  0
LINE
  5
529F
  8
SUNPOU
  6
CONTINUOUS
 62
     4
 10
18843.350321000002
 20
12778.15020499998
 30
0.0
 11
19083.350321000002
 21
12778.15020499998
 31
0.0
  0
LINE
  5
52A0
  8
SUNPOU
  6
CONTINUOUS
 62
     4
 10
18800.84807800001
 20
12778.15020499998
 30
0.0
 11
18843.350321000002
 21
12778.15020499998
 31
0.0
  0
LINE
  5
52A1
  8
SUNPOU
  6
CONTINUOUS
 62
     4
 10
24408.85230100001
 20
14157.09828899999
 30
0.0
 11
25458.853621000009
 21
14157.09828899999
 31
0.0
  0
LINE
  5
52A2
  8
SUNPOU
  6
CONTINUOUS
 62
     4
 10
25258.853621000009
 20
13749.59828899999
 30
0.0
 11
25458.853621000009
 21
13749.59828899999
 31
0.0
  0
LINE
  5
52A3
  8
SUNPOU
  6
CONTINUOUS
 62
     4
 10
25378.853621000009
 20
14157.09828899999
 30
0.0
 11
25378.853621000009
 21
13749.59828899999
 31
0.0
  0
LINE
  5
52A4
  8
SUNPOU
  6
CONTINUOUS
 62
     4
 10
24408.85230100001
 20
14858.09828899999
 30
0.0
 11
25458.853621000009
 21
14858.09828899999
 31
0.0
  0
LINE
  5
52A5
  8
SUNPOU
  6
CONTINUOUS
 62
     4
 10
24408.85230100001
 20
14157.09828899999
 30
0.0
 11
25458.853621000009
 21
14157.09828899999
 31
0.0
  0
LINE
  5
52A6
  8
SUNPOU
  6
CONTINUOUS
 62
     4
 10
25378.853621000009
 20
14858.09828899999
 30
0.0
 11
25378.853621000009
 21
14157.09828899999
 31
0.0
  0
LINE
  5
52A7
  8
SUNPOU
  6
CONTINUOUS
 62
     4
 10
24408.85230100001
 20
15559.338800500011
 30
0.0
 11
25458.853621000009
 21
15559.338800500011
 31
0.0
  0
LINE
  5
52A8
  8
SUNPOU
  6
CONTINUOUS
 62
     4
 10
24408.85230100001
 20
14858.09828899999
 30
0.0
 11
25458.853621000009
 21
14858.09828899999
 31
0.0
  0
LINE
  5
52A9
  8
SUNPOU
  6
CONTINUOUS
 62
     4
 10
25378.853621000009
 20
15559.338800500011
 30
0.0
 11
25378.853621000009
 21
14858.09828899999
 31
0.0
  0
LINE
  5
52AA
  8
SUNPOU
  6
CONTINUOUS
 62
     4
 10
24408.85230100001
 20
16260.09828899999
 30
0.0
 11
25458.853621000009
 21
16260.09828899999
 31
0.0
  0
LINE
  5
52AB
  8
SUNPOU
  6
CONTINUOUS
 62
     4
 10
24408.85230100001
 20
15559.338800500011
 30
0.0
 11
25458.853621000009
 21
15559.338800500011
 31
0.0
  0
LINE
  5
52AC
  8
SUNPOU
  6
CONTINUOUS
 62
     4
 10
25378.853621000009
 20
16260.09828899999
 30
0.0
 11
25378.853621000009
 21
15559.338800500011
 31
0.0
  0
LINE
  5
52AD
  8
SUNPOU
  6
CONTINUOUS
 62
     4
 10
25258.853621000009
 20
17018.09828899999
 30
0.0
 11
25458.853621000009
 21
17018.09828899999
 31
0.0
  0
LINE
  5
52AE
  8
SUNPOU
  6
CONTINUOUS
 62
     4
 10
24408.85230100001
 20
16260.09828899999
 30
0.0
 11
25458.853621000009
 21
16260.09828899999
 31
0.0
  0
LINE
  5
52AF
  8
SUNPOU
  6
CONTINUOUS
 62
     4
 10
25378.853621000009
 20
17018.09828899999
 30
0.0
 11
25378.853621000009
 21
16260.09828899999
 31
0.0
  0
LINE
  5
52B0
  8
SUNPOU
  6
CONTINUOUS
 62
     4
 10
24408.85230100001
 20
17776.09828899999
 30
0.0
 11
25458.853621000009
 21
17776.09828899999
 31
0.0
  0
LINE
  5
52B1
  8
SUNPOU
  6
CONTINUOUS
 62
     4
 10
25258.853621000009
 20
17018.09828899999
 30
0.0
 11
25458.853621000009
 21
17018.09828899999
 31
0.0
  0
LINE
  5
52B2
  8
SUNPOU
  6
CONTINUOUS
 62
     4
 10
25378.853621000009
 20
17776.09828899999
 30
0.0
 11
25378.853621000009
 21
17018.09828899999
 31
0.0
  0
LINE
  5
52B3
  8
SUNPOU
  6
CONTINUOUS
 62
     4
 10
24408.85230100001
 20
18477.09828899999
 30
0.0
 11
25458.853621000009
 21
18477.09828899999
 31
0.0
  0
LINE
  5
52B4
  8
SUNPOU
  6
CONTINUOUS
 62
     4
 10
24408.85230100001
 20
17776.09828899999
 30
0.0
 11
25458.853621000009
 21
17776.09828899999
 31
0.0
  0
LINE
  5
52B5
  8
SUNPOU
  6
CONTINUOUS
 62
     4
 10
25378.853621000009
 20
18477.09828899999
 30
0.0
 11
25378.853621000009
 21
17776.09828899999
 31
0.0
  0
LINE
  5
52B6
  8
SUNPOU
  6
CONTINUOUS
 62
     4
 10
24408.85230100001
 20
19178.09828899999
 30
0.0
 11
25458.853621000009
 21
19178.09828899999
 31
0.0
  0
LINE
  5
52B7
  8
SUNPOU
  6
CONTINUOUS
 62
     4
 10
24408.85230100001
 20
18477.09828899999
 30
0.0
 11
25458.853621000009
 21
18477.09828899999
 31
0.0
  0
LINE
  5
52B8
  8
SUNPOU
  6
CONTINUOUS
 62
     4
 10
25378.853621000009
 20
19178.09828899999
 30
0.0
 11
25378.853621000009
 21
18477.09828899999
 31
0.0
  0
LINE
  5
52B9
  8
SUNPOU
  6
CONTINUOUS
 62
     4
 10
25258.853621000009
 20
19936.09828899998
 30
0.0
 11
25458.853621000009
 21
19936.09828899998
 31
0.0
  0
LINE
  5
52BA
  8
SUNPOU
  6
CONTINUOUS
 62
     4
 10
24408.85230100001
 20
19178.09828899999
 30
0.0
 11
25458.853621000009
 21
19178.09828899999
 31
0.0
  0
LINE
  5
52BB
  8
SUNPOU
  6
CONTINUOUS
 62
     4
 10
25378.853621000009
 20
19936.09828899998
 30
0.0
 11
25378.853621000009
 21
19178.09828899999
 31
0.0
  0
LINE
  5
52BC
  8
SUNPOU
  6
CONTINUOUS
 62
     4
 10
25258.853621000009
 20
17018.09828899999
 30
0.0
 11
25858.853620999998
 21
17018.09828899999
 31
0.0
  0
LINE
  5
52BD
  8
SUNPOU
  6
CONTINUOUS
 62
     4
 10
25258.853621000009
 20
19936.09828899998
 30
0.0
 11
25858.853620999998
 21
19936.09828899998
 31
0.0
  0
LINE
  5
52BE
  8
SUNPOU
  6
CONTINUOUS
 62
     4
 10
25778.853620999998
 20
17018.09828899999
 30
0.0
 11
25778.853620999998
 21
19936.09828899998
 31
0.0
  0
LINE
  5
52BF
  8
SUNPOU
  6
CONTINUOUS
 62
     4
 10
25258.853621000009
 20
13749.59828899999
 30
0.0
 11
25858.853620999998
 21
13749.59828899999
 31
0.0
  0
LINE
  5
52C0
  8
SUNPOU
  6
CONTINUOUS
 62
     4
 10
25258.853621000009
 20
17018.09828899999
 30
0.0
 11
25858.853620999998
 21
17018.09828899999
 31
0.0
  0
LINE
  5
52C1
  8
SUNPOU
  6
CONTINUOUS
 62
     4
 10
25778.853620999998
 20
13749.59828899999
 30
0.0
 11
25778.853620999998
 21
17018.09828899999
 31
0.0
  0
LINE
  5
52C2
  8
SUNPOU
  6
CONTINUOUS
 62
     4
 10
24408.85230100001
 20
19978.595583999992
 30
0.0
 11
26258.853620999998
 21
19978.595583999992
 31
0.0
  0
LINE
  5
52C3
  8
SUNPOU
  6
CONTINUOUS
 62
     4
 10
24408.85230100001
 20
13707.10099399998
 30
0.0
 11
26258.853620999998
 21
13707.10099399998
 31
0.0
  0
LINE
  5
52C4
  8
SUNPOU
  6
CONTINUOUS
 62
     4
 10
26178.853620999998
 20
19978.595583999992
 30
0.0
 11
26178.853620999998
 21
13707.10099399998
 31
0.0
  0
LINE
  5
52C5
  8
SUNPOU
  6
CONTINUOUS
 62
     4
 10
25258.853621000009
 20
19936.09828899998
 30
0.0
 11
25858.853620999998
 21
19936.09828899998
 31
0.0
  0
LINE
  5
52C6
  8
SUNPOU
  6
CONTINUOUS
 62
     4
 10
24408.85230100001
 20
19978.595583999992
 30
0.0
 11
25858.853620999998
 21
19978.595583999992
 31
0.0
  0
LINE
  5
52C7
  8
SUNPOU
  6
CONTINUOUS
 62
     4
 10
25778.853620999998
 20
19936.09828899998
 30
0.0
 11
25778.853620999998
 21
19696.09828899999
 31
0.0
  0
LINE
  5
52C8
  8
SUNPOU
  6
CONTINUOUS
 62
     4
 10
25778.853620999998
 20
19978.595583999992
 30
0.0
 11
25778.853620999998
 21
20218.595583999992
 31
0.0
  0
LINE
  5
52C9
  8
SUNPOU
  6
CONTINUOUS
 62
     4
 10
25778.853620999998
 20
19936.09828899998
 30
0.0
 11
25778.853620999998
 21
19978.595583999992
 31
0.0
  0
LINE
  5
52CA
  8
SUNPOU
  6
CONTINUOUS
 62
     4
 10
25258.853621000009
 20
13749.59828899999
 30
0.0
 11
25858.853620999998
 21
13749.59828899999
 31
0.0
  0
LINE
  5
52CB
  8
SUNPOU
  6
CONTINUOUS
 62
     4
 10
24408.85230100001
 20
13707.10099399998
 30
0.0
 11
25858.853620999998
 21
13707.10099399998
 31
0.0
  0
LINE
  5
52CC
  8
SUNPOU
  6
CONTINUOUS
 62
     4
 10
25778.853620999998
 20
13749.59828899999
 30
0.0
 11
25778.853620999998
 21
13989.59828899999
 31
0.0
  0
LINE
  5
52CD
  8
SUNPOU
  6
CONTINUOUS
 62
     4
 10
25778.853620999998
 20
13707.10099399998
 30
0.0
 11
25778.853620999998
 21
13467.10099399998
 31
0.0
  0
LINE
  5
52CE
  8
SUNPOU
  6
CONTINUOUS
 62
     4
 10
25778.853620999998
 20
13749.59828899999
 30
0.0
 11
25778.853620999998
 21
13707.10099399998
 31
0.0
  0
LINE
  5
52CF
  8
SUNPOU
  6
CONTINUOUS
 62
     4
 10
24286.354017000001
 20
20058.596574000021
 30
0.0
 11
24286.354017000001
 21
20788.599477000022
 31
0.0
  0
LINE
  5
52D0
  8
SUNPOU
  6
CONTINUOUS
 62
     4
 10
24328.850322000009
 20
20058.596574000021
 30
0.0
 11
24328.850322000009
 21
20788.599477000022
 31
0.0
  0
LINE
  5
52D1
  8
SUNPOU
  6
CONTINUOUS
 62
     4
 10
24286.354017000001
 20
20708.599477000022
 30
0.0
 11
24046.354017000001
 21
20708.599477000022
 31
0.0
  0
LINE
  5
52D2
  8
SUNPOU
  6
CONTINUOUS
 62
     4
 10
24328.850322000009
 20
20708.599477000022
 30
0.0
 11
24568.850322000009
 21
20708.599477000022
 31
0.0
  0
LINE
  5
52D3
  8
SUNPOU
  6
CONTINUOUS
 62
     4
 10
24286.354017000001
 20
20708.599477000022
 30
0.0
 11
24328.850322000009
 21
20708.599477000022
 31
0.0
  0
LINE
  5
52D4
  8
SUNPOU
  6
CONTINUOUS
 62
     4
 10
18800.84807800001
 20
20058.59657400001
 30
0.0
 11
18800.84807800001
 21
20788.599477
 31
0.0
  0
LINE
  5
52D5
  8
SUNPOU
  6
CONTINUOUS
 62
     4
 10
19558.950023250021
 20
20058.59657400001
 30
0.0
 11
19558.950023250021
 21
20788.599477
 31
0.0
  0
LINE
  5
52D6
  8
SUNPOU
  6
CONTINUOUS
 62
     4
 10
18800.84807800001
 20
20708.599477
 30
0.0
 11
19558.950023250021
 21
20708.599477
 31
0.0
  0
LINE
  5
52D7
  8
SUNPOU
  6
CONTINUOUS
 62
     4
 10
18800.84807800001
 20
20058.59657400001
 30
0.0
 11
18800.84807800001
 21
20788.599477
 31
0.0
  0
LINE
  5
52D8
  8
SUNPOU
  6
CONTINUOUS
 62
     4
 10
18758.351772999991
 20
20058.59657400001
 30
0.0
 11
18758.351772999991
 21
20788.599477
 31
0.0
  0
LINE
  5
52D9
  8
SUNPOU
  6
CONTINUOUS
 62
     4
 10
18800.84807800001
 20
20708.599477
 30
0.0
 11
19040.84807800001
 21
20708.599477
 31
0.0
  0
LINE
  5
52DA
  8
SUNPOU
  6
CONTINUOUS
 62
     4
 10
18758.351772999991
 20
20708.599477
 30
0.0
 11
18518.351772999991
 21
20708.599477
 31
0.0
  0
LINE
  5
52DB
  8
SUNPOU
  6
CONTINUOUS
 62
     4
 10
18800.84807800001
 20
20708.599477
 30
0.0
 11
18758.351772999991
 21
20708.599477
 31
0.0
  0
LINE
  5
52DC
  8
SUNPOU
  6
CONTINUOUS
 62
     4
 10
20960.950023250021
 20
20058.59657400001
 30
0.0
 11
20960.950023250021
 21
20788.599477
 31
0.0
  0
LINE
  5
52DD
  8
SUNPOU
  6
CONTINUOUS
 62
     4
 10
21718.950023250021
 20
20058.596574000021
 30
0.0
 11
21718.950023250021
 21
20788.599477
 31
0.0
  0
LINE
  5
52DE
  8
SUNPOU
  6
CONTINUOUS
 62
     4
 10
20960.950023250021
 20
20708.599477
 30
0.0
 11
21718.950023250021
 21
20708.599477
 31
0.0
  0
LINE
  5
52DF
  8
SUNPOU
  6
CONTINUOUS
 62
     4
 10
20259.950023250021
 20
20058.59657400001
 30
0.0
 11
20259.950023250021
 21
20788.599477
 31
0.0
  0
LINE
  5
52E0
  8
SUNPOU
  6
CONTINUOUS
 62
     4
 10
20960.950023250021
 20
20058.59657400001
 30
0.0
 11
20960.950023250021
 21
20788.599477
 31
0.0
  0
LINE
  5
52E1
  8
SUNPOU
  6
CONTINUOUS
 62
     4
 10
20259.950023250021
 20
20708.599477
 30
0.0
 11
20960.950023250021
 21
20708.599477
 31
0.0
  0
LINE
  5
52E2
  8
SUNPOU
  6
CONTINUOUS
 62
     4
 10
19558.950023250021
 20
20058.59657400001
 30
0.0
 11
19558.950023250021
 21
20788.599477
 31
0.0
  0
LINE
  5
52E3
  8
SUNPOU
  6
CONTINUOUS
 62
     4
 10
20259.950023250021
 20
20058.59657400001
 30
0.0
 11
20259.950023250021
 21
20788.599477
 31
0.0
  0
LINE
  5
52E4
  8
SUNPOU
  6
CONTINUOUS
 62
     4
 10
19558.950023250021
 20
20708.599477
 30
0.0
 11
20259.950023250021
 21
20708.599477
 31
0.0
  0
LINE
  5
52E5
  8
SUNPOU
  6
CONTINUOUS
 62
     4
 10
21718.950023250021
 20
20058.596574000021
 30
0.0
 11
21718.950023250021
 21
20788.599477
 31
0.0
  0
LINE
  5
52E6
  8
SUNPOU
  6
CONTINUOUS
 62
     4
 10
22126.450023250021
 20
20058.596574000021
 30
0.0
 11
22126.450023250021
 21
20788.599477
 31
0.0
  0
LINE
  5
52E7
  8
SUNPOU
  6
CONTINUOUS
 62
     4
 10
21718.950023250021
 20
20708.599477
 30
0.0
 11
22126.450023250021
 21
20708.599477
 31
0.0
  0
LINE
  5
52E8
  8
SUNPOU
  6
CONTINUOUS
 62
     4
 10
22126.450023250021
 20
20058.596574000021
 30
0.0
 11
22126.450023250021
 21
20788.599477
 31
0.0
  0
LINE
  5
52E9
  8
SUNPOU
  6
CONTINUOUS
 62
     4
 10
22827.450023250021
 20
20058.596574000021
 30
0.0
 11
22827.450023250021
 21
20788.599477
 31
0.0
  0
LINE
  5
52EA
  8
SUNPOU
  6
CONTINUOUS
 62
     4
 10
22126.450023250021
 20
20708.599477
 30
0.0
 11
22827.450023250021
 21
20708.599477
 31
0.0
  0
LINE
  5
52EB
  8
SUNPOU
  6
CONTINUOUS
 62
     4
 10
22827.450023250021
 20
20058.596574000021
 30
0.0
 11
22827.450023250021
 21
20788.599477
 31
0.0
  0
LINE
  5
52EC
  8
SUNPOU
  6
CONTINUOUS
 62
     4
 10
23528.450023250021
 20
20058.596574000021
 30
0.0
 11
23528.450023250021
 21
20788.599477
 31
0.0
  0
LINE
  5
52ED
  8
SUNPOU
  6
CONTINUOUS
 62
     4
 10
22827.450023250021
 20
20708.599477
 30
0.0
 11
23528.450023250021
 21
20708.599477
 31
0.0
  0
LINE
  5
52EE
  8
SUNPOU
  6
CONTINUOUS
 62
     4
 10
23528.450023250021
 20
20058.596574000021
 30
0.0
 11
23528.450023250021
 21
20788.599477
 31
0.0
  0
LINE
  5
52EF
  8
SUNPOU
  6
CONTINUOUS
 62
     4
 10
24286.354017000009
 20
20058.596574000021
 30
0.0
 11
24286.354017000009
 21
20788.599477
 31
0.0
  0
LINE
  5
52F0
  8
SUNPOU
  6
CONTINUOUS
 62
     4
 10
23528.450023250021
 20
20708.599477
 30
0.0
 11
24286.354017000009
 21
20708.599477
 31
0.0
  0
LINE
  5
52F1
  8
SUNPOU
  6
CONTINUOUS
 62
     4
 10
18758.351772999991
 20
13567.592363999989
 30
0.0
 11
18758.351772999991
 21
12217.59434400001
 31
0.0
  0
LINE
  5
52F2
  8
SUNPOU
  6
CONTINUOUS
 62
     4
 10
24328.85626
 20
13627.10099399998
 30
0.0
 11
24328.85626
 21
12217.59434400001
 31
0.0
  0
LINE
  5
52F3
  8
SUNPOU
  6
CONTINUOUS
 62
     4
 10
18758.351772999991
 20
12297.59434400001
 30
0.0
 11
24328.85626
 21
12297.59434400001
 31
0.0
  0
LINE
  5
52F4
  8
SUNPOU
  6
CONTINUOUS
 62
     4
 10
18800.845488276042
 20
13043.8348550419
 30
0.0
 11
18800.834297928312
 21
12698.150205223001
 31
0.0
  0
LINE
  5
52F5
  8
SUNPOU
  6
CONTINUOUS
 62
     4
 10
18758.362126526979
 20
13627.10236959975
 30
0.0
 11
18758.33205495061
 21
12698.15158108646
 31
0.0
  0
LINE
  5
52F6
  8
SUNPOU
  6
CONTINUOUS
 62
     4
 10
18800.836887652269
 20
12778.15020518108
 30
0.0
 11
19040.83688752653
 21
12778.142436009221
 31
0.0
  0
LINE
  5
52F7
  8
SUNPOU
  6
CONTINUOUS
 62
     4
 10
18758.33464467456
 20
12778.151581044551
 30
0.0
 11
18518.334644800321
 21
12778.159350216411
 31
0.0
  0
LINE
  5
52F8
  8
SUNPOU
  6
CONTINUOUS
 62
     4
 10
18800.836887652269
 20
12778.15020518108
 30
0.0
 11
18758.33464467456
 21
12778.151581044551
 31
0.0
  0
TEXT
  5
52F9
  8
0
  6
CONTINUOUS
 62
     7
 10
18202.785805307409
 20
12858.16956506321
 30
0.0
 40
160.0
  1
42.5
 50
359.99814524684132
  0
TEXT
  5
52FA
  8
0
  6
CONTINUOUS
 62
     7
 10
21156.937349833341
 20
12377.59434400001
 30
0.0
 40
160.0
  1
5570.5
  0
TEXT
  5
52FB
  8
0
  6
CONTINUOUS
 62
     7
 10
23694.068686791681
 20
20788.599477
 30
0.0
 40
160.0
  1
758
  0
TEXT
  5
52FC
  8
0
  6
CONTINUOUS
 62
     7
 10
23004.616689916689
 20
20788.599477
 30
0.0
 40
160.0
  1
701
  0
TEXT
  5
52FD
  8
0
  6
CONTINUOUS
 62
     7
 10
22298.505816682398
 20
20462.412871014851
 30
0.0
 40
160.0
  1
701
  0
TEXT
  5
52FE
  8
0
  6
CONTINUOUS
 62
     7
 10
21725.711977220119
 20
20772.049281894178
 30
0.0
 40
160.0
  1
407.5
  0
TEXT
  5
52FF
  8
0
  6
CONTINUOUS
 62
     7
 10
19736.116689916671
 20
20788.599477
 30
0.0
 40
160.0
  1
701
  0
TEXT
  5
5300
  8
0
  6
CONTINUOUS
 62
     7
 10
20437.116689916678
 20
20788.599477
 30
0.0
 40
160.0
  1
701
  0
TEXT
  5
5301
  8
0
  6
CONTINUOUS
 62
     7
 10
21126.616689916678
 20
20788.599477
 30
0.0
 40
160.0
  1
758
  0
TEXT
  5
5302
  8
0
  6
CONTINUOUS
 62
     7
 10
18198.036098471199
 20
20788.599477
 30
0.0
 40
160.0
  1
42.5
  0
TEXT
  5
5303
  8
0
  6
CONTINUOUS
 62
     7
 10
18995.014744666671
 20
20788.599477
 30
0.0
 40
160.0
  1
758
  0
TEXT
  5
5304
  8
0
  6
CONTINUOUS
 62
     7
 10
24409.165996528809
 20
20788.599477000022
 30
0.0
 40
160.0
  1
42.5
  0
TEXT
  5
5305
  8
0
  6
CONTINUOUS
 62
     7
 10
25698.853620999998
 20
13133.5447576032
 30
0.0
 40
160.0
  1
42.5
 50
90.0
  0
TEXT
  5
5306
  8
0
  6
CONTINUOUS
 62
     7
 10
25698.853620999998
 20
20072.15182039679
 30
0.0
 40
160.0
  1
42.5
 50
90.0
  0
TEXT
  5
5307
  8
0
  6
CONTINUOUS
 62
     7
 10
26098.853620999998
 20
16469.514955666651
 30
0.0
 40
160.0
  1
6271.5
 50
90.0
  0
TEXT
  5
5308
  8
0
  6
CONTINUOUS
 62
     7
 10
25698.853620999998
 20
14983.84828899999
 30
0.0
 40
160.0
  1
3268.5
 50
90.0
  0
TEXT
  5
5309
  8
0
  6
CONTINUOUS
 62
     7
 10
25698.853620999998
 20
18210.43162233333
 30
0.0
 40
160.0
  1
2918
 50
90.0
  0
TEXT
  5
530A
  8
0
  6
CONTINUOUS
 62
     7
 10
25298.853621000009
 20
19343.764955666658
 30
0.0
 40
160.0
  1
758
 50
90.0
  0
TEXT
  5
530B
  8
0
  6
CONTINUOUS
 62
     7
 10
25298.853621000009
 20
18654.26495566664
 30
0.0
 40
160.0
  1
701
 50
90.0
  0
TEXT
  5
530C
  8
0
  6
CONTINUOUS
 62
     7
 10
25298.853621000009
 20
17953.264955666651
 30
0.0
 40
160.0
  1
701
 50
90.0
  0
TEXT
  5
530D
  8
0
  6
CONTINUOUS
 62
     7
 10
25298.853621000009
 20
17183.764955666658
 30
0.0
 40
160.0
  1
758
 50
90.0
  0
TEXT
  5
530E
  8
0
  6
CONTINUOUS
 62
     7
 10
25298.853621000009
 20
16425.764955666669
 30
0.0
 40
160.0
  1
758
 50
90.0
  0
TEXT
  5
530F
  8
0
  6
CONTINUOUS
 62
     7
 10
25298.853621000009
 20
15736.38521141666
 30
0.0
 40
160.0
  1
701
 50
90.0
  0
TEXT
  5
5310
  8
0
  6
CONTINUOUS
 62
     7
 10
25298.853621000009
 20
15035.38521141666
 30
0.0
 40
160.0
  1
701
 50
90.0
  0
TEXT
  5
5311
  8
0
  6
CONTINUOUS
 62
     7
 10
25298.853621000009
 20
14334.264955666649
 30
0.0
 40
160.0
  1
701
 50
90.0
  0
TEXT
  5
5312
  8
0
  6
CONTINUOUS
 62
     7
 10
25658.853620999998
 20
13822.418703203541
 30
0.0
 40
160.0
  1
407.5
 50
90.0
  0
TEXT
  5
5313
  8
0
  6
CONTINUOUS
 62
     7
 10
18918.90175038208
 20
12858.15020499998
 30
0.0
 40
160.0
  1
42.5
  0
TEXT
  5
5314
  8
0
  6
CONTINUOUS
 62
     7
 10
23688.300344617921
 20
12858.150204999991
 30
0.0
 40
160.0
  1
42.5
  0
TEXT
  5
5315
  8
0
  6
CONTINUOUS
 62
     7
 10
24404.407689382078
 20
12858.150204999991
 30
0.0
 40
160.0
  1
42.5
  0
TEXT
  5
5316
  8
0
  6
CONTINUOUS
 62
     7
 10
24422.367576136621
 20
4983.5879786705518
 30
0.0
 40
160.0
  1
42.5
  0
TEXT
  5
5317
  8
0
  6
CONTINUOUS
 62
     7
 10
17870.848738000001
 20
6277.5264611666789
 30
0.0
 40
160.0
  1
有効開口高サ1938.5
 50
90.0
  0
TEXT
  5
5318
  8
0
  6
CONTINUOUS
 62
     7
 10
21079.599068499982
 20
5623.5267086666772
 30
0.0
 40
160.0
  1
有効開口巾
  0
TEXT
  5
5319
  8
0
  6
CONTINUOUS
 62
     7
 10
21183.599068499982
 20
5356.8600420000093
 30
0.0
 40
160.0
  1
5019.5
  0
TEXT
  5
531A
  8
0
  6
CONTINUOUS
 62
     7
 10
18088.507925911381
 20
4983.5879786705518
 30
0.0
 40
160.0
  1
42.5
  0
TEXT
  5
531B
  8
0
  6
CONTINUOUS
 62
     7
 10
21156.931412333332
 20
4556.8598770000099
 30
0.0
 40
160.0
  1
5570.5
  0
TEXT
  5
531C
  8
0
  6
CONTINUOUS
 62
     7
 10
21143.598078999999
 20
4956.8602070000125
 30
0.0
 40
160.0
  1
5485.5
  0
TEXT
  5
531D
  8
0
  6
CONTINUOUS
 62
     7
 10
21156.931412333332
 20
10044.859547
 30
0.0
 40
160.0
  1
5656.5
  0
TEXT
  5
531E
  8
0
  6
CONTINUOUS
 62
     7
 10
24482.90515449566
 20
9631.7704936030605
 30
0.0
 40
160.0
  1
43
  0
TEXT
  5
531F
  8
0
  6
CONTINUOUS
 62
     7
 10
21156.931412333321
 20
9644.8592170000047
 30
0.0
 40
160.0
  1
5570.5
  0
TEXT
  5
5320
  8
0
  6
CONTINUOUS
 62
     7
 10
18293.607622004711
 20
9649.1811873047263
 30
0.0
 40
160.0
  1
43
  0
TEXT
  5
5321
  8
0
  6
CONTINUOUS
 62
     7
 10
17470.849397999991
 20
7127.1983055096789
 30
0.0
 40
160.0
  1
2588
 50
90.0
  0
TEXT
  5
5322
  8
0
  6
CONTINUOUS
 62
     7
 10
10780.313053999969
 20
10044.768488999989
 30
0.0
 40
160.0
  1
6601.5
  0
TEXT
  5
5323
  8
0
  6
CONTINUOUS
 62
     7
 10
7407.1828799999812
 20
9644.7694130000054
 30
0.0
 40
160.0
  1
180
  0
TEXT
  5
5324
  8
0
  6
CONTINUOUS
 62
     7
 10
14553.74454699998
 20
9644.7694130000054
 30
0.0
 40
160.0
  1
150
  0
TEXT
  5
5325
  8
0
  6
CONTINUOUS
 62
     7
 10
10781.97972066665
 20
9644.7681590000029
 30
0.0
 40
160.0
  1
6271.5
  0
TEXT
  5
5326
  8
0
  6
CONTINUOUS
 62
     7
 10
6849.5646369999777
 20
7082.0262136666761
 30
0.0
 40
160.0
  1
2397
 50
90.0
  0
TEXT
  5
5327
  8
0
  6
CONTINUOUS
 62
     7
 10
15301.061469999961
 20
7177.526213666677
 30
0.0
 40
160.0
  1
2588
 50
90.0
  0
TEXT
  5
5328
  8
0
  6
CONTINUOUS
 62
     7
 10
10781.97972066665
 20
4556.8598770000099
 30
0.0
 40
160.0
  1
6271.5
  0
TEXT
  5
5329
  8
0
  6
CONTINUOUS
 62
     7
 10
14411.36173399996
 20
4956.8599760000116
 30
0.0
 40
160.0
  1
42.5
  0
TEXT
  5
532A
  8
0
  6
CONTINUOUS
 62
     7
 10
7435.7371301611793
 20
4956.8599760000116
 30
0.0
 40
160.0
  1
42.5
  0
TEXT
  5
532B
  8
0
  6
CONTINUOUS
 62
     7
 10
12214.31305399998
 20
4956.8602070000125
 30
0.0
 40
160.0
  1
3268.5
  0
TEXT
  5
532C
  8
0
  6
CONTINUOUS
 62
     7
 10
9254.3963873333196
 20
4956.8602070000125
 30
0.0
 40
160.0
  1
2918
  0
TEXT
  5
532D
  8
0
  6
CONTINUOUS
 62
     7
 10
7397.346310000009
 20
20788.59551900001
 30
0.0
 40
160.0
  1
85.5
  0
TEXT
  5
532E
  8
0
  6
CONTINUOUS
 62
     7
 10
9152.179643333342
 20
20788.59551900001
 30
0.0
 40
160.0
  1
2918
  0
TEXT
  5
532F
  8
0
  6
CONTINUOUS
 62
     7
 10
11761.596310000001
 20
20788.59551900001
 30
0.0
 40
160.0
  1
2567.5
  0
TEXT
  5
5330
  8
0
  6
CONTINUOUS
 62
     7
 10
13527.84631000001
 20
20788.59551900001
 30
0.0
 40
160.0
  1
85.5
  0
TEXT
  5
5331
  8
0
  6
CONTINUOUS
 62
     7
 10
7216.2166650000008
 20
18210.42964333334
 30
0.0
 40
160.0
  1
2918
 50
90.0
  0
TEXT
  5
5332
  8
0
  6
CONTINUOUS
 62
     7
 10
7216.2166650000026
 20
20225.451837800101
 30
0.0
 40
160.0
  1
222.5
 50
90.0
  0
TEXT
  5
5333
  8
0
  6
CONTINUOUS
 62
     7
 10
7216.2166650000008
 20
14983.84631000001
 30
0.0
 40
160.0
  1
3268.5
 50
90.0
  0
TEXT
  5
5334
  8
0
  6
CONTINUOUS
 62
     7
 10
7216.2166650000026
 20
12903.7818040985
 30
0.0
 40
160.0
  1
192.5
 50
90.0
  0
TEXT
  5
5335
  8
0
  6
CONTINUOUS
 62
     7
 10
7558.9412272501058
 20
20290.306765595931
 30
0.0
 40
160.0
  1
10
 50
90.0
  0
TEXT
  5
5336
  8
0
  6
CONTINUOUS
 62
     7
 10
9841.262976666676
 20
12437.09703599999
 30
0.0
 40
160.0
  1
ケラバ外寸5656.5
  0
ARC
  5
5337
  8
0
  6
BYBLOCK
 62
     0
 10
7874.3463100000081
 20
12357.09703599999
 30
0.0
 40
15.0
 50
0.0
 51
180.0
  0
ARC
  5
5338
  8
0
  6
BYBLOCK
 62
     0
 10
7874.3463100000081
 20
12357.09703599999
 30
0.0
 40
15.0
 50
180.0
 51
0.0
  0
ARC
  5
5339
  8
0
  6
BYBLOCK
 62
     0
 10
13530.846310000001
 20
12357.09703599999
 30
0.0
 40
15.0
 50
180.0
 51
0.0
  0
ARC
  5
533A
  8
0
  6
BYBLOCK
 62
     0
 10
13530.846310000001
 20
12357.09703599999
 30
0.0
 40
15.0
 50
0.0
 51
180.0
  0
ARC
  5
533B
  8
0
  6
BYBLOCK
 62
     0
 10
7641.8811890000025
 20
20158.57606624805
 30
0.0
 40
15.0
 50
90.0
 51
270.0
  0
ARC
  5
533C
  8
0
  6
BYBLOCK
 62
     0
 10
7641.8811890000025
 20
20158.57606624805
 30
0.0
 40
15.0
 50
270.0
 51
90.0
  0
ARC
  5
533D
  8
0
  6
BYBLOCK
 62
     0
 10
7641.8811890000025
 20
20148.596310000012
 30
0.0
 40
15.0
 50
270.0
 51
90.0
  0
ARC
  5
533E
  8
0
  6
BYBLOCK
 62
     0
 10
7641.8811890000025
 20
20148.596310000012
 30
0.0
 40
15.0
 50
90.0
 51
270.0
  0
ARC
  5
533F
  8
0
  6
BYBLOCK
 62
     0
 10
7296.2166650000017
 20
13749.596310000001
 30
0.0
 40
15.0
 50
270.0
 51
90.0
  0
ARC
  5
5340
  8
0
  6
BYBLOCK
 62
     0
 10
7296.2166650000017
 20
13749.596310000001
 30
0.0
 40
15.0
 50
90.0
 51
270.0
  0
ARC
  5
5341
  8
0
  6
BYBLOCK
 62
     0
 10
7296.2166650000017
 20
13557.096310000001
 30
0.0
 40
15.0
 50
90.0
 51
270.0
  0
ARC
  5
5342
  8
0
  6
BYBLOCK
 62
     0
 10
7296.2166650000017
 20
13557.096310000001
 30
0.0
 40
15.0
 50
270.0
 51
90.0
  0
ARC
  5
5343
  8
0
  6
BYBLOCK
 62
     0
 10
7296.2166650000017
 20
17018.096310000012
 30
0.0
 40
15.0
 50
270.0
 51
90.0
  0
ARC
  5
5344
  8
0
  6
BYBLOCK
 62
     0
 10
7296.2166650000017
 20
17018.096310000012
 30
0.0
 40
15.0
 50
90.0
 51
270.0
  0
ARC
  5
5345
  8
0
  6
BYBLOCK
 62
     0
 10
7296.2166650000017
 20
13749.596310000001
 30
0.0
 40
15.0
 50
90.0
 51
270.0
  0
ARC
  5
5346
  8
0
  6
BYBLOCK
 62
     0
 10
7296.2166650000017
 20
13749.596310000001
 30
0.0
 40
15.0
 50
270.0
 51
90.0
  0
ARC
  5
5347
  8
0
  6
BYBLOCK
 62
     0
 10
7296.2166650000017
 20
19936.096310000001
 30
0.0
 40
15.0
 50
90.0
 51
270.0
  0
ARC
  5
5348
  8
0
  6
BYBLOCK
 62
     0
 10
7296.2166650000017
 20
19936.096310000001
 30
0.0
 40
15.0
 50
270.0
 51
90.0
  0
ARC
  5
5349
  8
0
  6
BYBLOCK
 62
     0
 10
7296.2166650000017
 20
20158.596178
 30
0.0
 40
15.0
 50
270.0
 51
90.0
  0
ARC
  5
534A
  8
0
  6
BYBLOCK
 62
     0
 10
7296.2166650000017
 20
20158.596178
 30
0.0
 40
15.0
 50
90.0
 51
270.0
  0
ARC
  5
534B
  8
0
  6
BYBLOCK
 62
     0
 10
7296.2166650000017
 20
17018.096310000012
 30
0.0
 40
15.0
 50
90.0
 51
270.0
  0
ARC
  5
534C
  8
0
  6
BYBLOCK
 62
     0
 10
7296.2166650000017
 20
17018.096310000012
 30
0.0
 40
15.0
 50
270.0
 51
90.0
  0
ARC
  5
534D
  8
0
  6
BYBLOCK
 62
     0
 10
7296.2166650000017
 20
19936.096310000001
 30
0.0
 40
15.0
 50
270.0
 51
90.0
  0
ARC
  5
534E
  8
0
  6
BYBLOCK
 62
     0
 10
7296.2166650000017
 20
19936.096310000001
 30
0.0
 40
15.0
 50
90.0
 51
270.0
  0
ARC
  5
534F
  8
0
  6
BYBLOCK
 62
     0
 10
13445.346310000001
 20
20708.59551900001
 30
0.0
 40
15.0
 50
180.0
 51
0.0
  0
ARC
  5
5350
  8
0
  6
BYBLOCK
 62
     0
 10
13445.346310000001
 20
20708.59551900001
 30
0.0
 40
15.0
 50
0.0
 51
180.0
  0
ARC
  5
5351
  8
0
  6
BYBLOCK
 62
     0
 10
13530.84631000001
 20
20708.59551900001
 30
0.0
 40
15.0
 50
0.0
 51
180.0
  0
ARC
  5
5352
  8
0
  6
BYBLOCK
 62
     0
 10
13530.84631000001
 20
20708.59551900001
 30
0.0
 40
15.0
 50
180.0
 51
0.0
  0
ARC
  5
5353
  8
0
  6
BYBLOCK
 62
     0
 10
10877.846310000001
 20
20708.59551900001
 30
0.0
 40
15.0
 50
0.0
 51
180.0
  0
ARC
  5
5354
  8
0
  6
BYBLOCK
 62
     0
 10
10877.846310000001
 20
20708.59551900001
 30
0.0
 40
15.0
 50
180.0
 51
0.0
  0
ARC
  5
5355
  8
0
  6
BYBLOCK
 62
     0
 10
13445.346310000001
 20
20708.59551900001
 30
0.0
 40
15.0
 50
180.0
 51
0.0
  0
ARC
  5
5356
  8
0
  6
BYBLOCK
 62
     0
 10
13445.346310000001
 20
20708.59551900001
 30
0.0
 40
15.0
 50
0.0
 51
180.0
  0
ARC
  5
5357
  8
0
  6
BYBLOCK
 62
     0
 10
7959.846310000009
 20
20708.59551900001
 30
0.0
 40
15.0
 50
0.0
 51
180.0
  0
ARC
  5
5358
  8
0
  6
BYBLOCK
 62
     0
 10
7959.846310000009
 20
20708.59551900001
 30
0.0
 40
15.0
 50
180.0
 51
0.0
  0
ARC
  5
5359
  8
0
  6
BYBLOCK
 62
     0
 10
10877.846310000001
 20
20708.59551900001
 30
0.0
 40
15.0
 50
180.0
 51
0.0
  0
ARC
  5
535A
  8
0
  6
BYBLOCK
 62
     0
 10
10877.846310000001
 20
20708.59551900001
 30
0.0
 40
15.0
 50
0.0
 51
180.0
  0
ARC
  5
535B
  8
0
  6
BYBLOCK
 62
     0
 10
7874.3463100000081
 20
20708.59551900001
 30
0.0
 40
15.0
 50
180.0
 51
0.0
  0
ARC
  5
535C
  8
0
  6
BYBLOCK
 62
     0
 10
7874.3463100000081
 20
20708.59551900001
 30
0.0
 40
15.0
 50
0.0
 51
180.0
  0
ARC
  5
535D
  8
0
  6
BYBLOCK
 62
     0
 10
7959.846310000009
 20
20708.59551900001
 30
0.0
 40
15.0
 50
0.0
 51
180.0
  0
ARC
  5
535E
  8
0
  6
BYBLOCK
 62
     0
 10
7959.846310000009
 20
20708.59551900001
 30
0.0
 40
15.0
 50
180.0
 51
0.0
  0
ARC
  5
535F
  8
0
  6
BYBLOCK
 62
     0
 10
8062.0630539999829
 20
4876.8602070000097
 30
0.0
 40
15.0
 50
0.0
 51
180.0
  0
ARC
  5
5360
  8
0
  6
BYBLOCK
 62
     0
 10
8062.0630539999829
 20
4876.8602070000097
 30
0.0
 40
15.0
 50
180.0
 51
0.0
  0
ARC
  5
5361
  8
0
  6
BYBLOCK
 62
     0
 10
10980.063053999969
 20
4876.8602070000097
 30
0.0
 40
15.0
 50
180.0
 51
0.0
  0
ARC
  5
5362
  8
0
  6
BYBLOCK
 62
     0
 10
10980.063053999969
 20
4876.8602070000097
 30
0.0
 40
15.0
 50
0.0
 51
180.0
  0
ARC
  5
5363
  8
0
  6
BYBLOCK
 62
     0
 10
10980.063053999969
 20
4876.8602070000097
 30
0.0
 40
15.0
 50
0.0
 51
180.0
  0
ARC
  5
5364
  8
0
  6
BYBLOCK
 62
     0
 10
10980.063053999969
 20
4876.8602070000097
 30
0.0
 40
15.0
 50
180.0
 51
0.0
  0
ARC
  5
5365
  8
0
  6
BYBLOCK
 62
     0
 10
14248.56305399998
 20
4876.8602070000097
 30
0.0
 40
15.0
 50
180.0
 51
0.0
  0
ARC
  5
5366
  8
0
  6
BYBLOCK
 62
     0
 10
14248.56305399998
 20
4876.8602070000097
 30
0.0
 40
15.0
 50
0.0
 51
180.0
  0
ARC
  5
5367
  8
0
  6
BYBLOCK
 62
     0
 10
8062.0630539999829
 20
4876.8602070000097
 30
0.0
 40
15.0
 50
0.0
 51
180.0
  0
ARC
  5
5368
  8
0
  6
BYBLOCK
 62
     0
 10
8062.0630539999829
 20
4876.8602070000097
 30
0.0
 40
15.0
 50
180.0
 51
0.0
  0
ARC
  5
5369
  8
0
  6
BYBLOCK
 62
     0
 10
8019.5630539999838
 20
4876.8602070000097
 30
0.0
 40
15.0
 50
180.0
 51
0.0
  0
ARC
  5
536A
  8
0
  6
BYBLOCK
 62
     0
 10
8019.5630539999838
 20
4876.8602070000097
 30
0.0
 40
15.0
 50
0.0
 51
180.0
  0
ARC
  5
536B
  8
0
  6
BYBLOCK
 62
     0
 10
14248.56305399998
 20
4876.8602070000097
 30
0.0
 40
15.0
 50
180.0
 51
0.0
  0
ARC
  5
536C
  8
0
  6
BYBLOCK
 62
     0
 10
14248.56305399998
 20
4876.8602070000097
 30
0.0
 40
15.0
 50
0.0
 51
180.0
  0
ARC
  5
536D
  8
0
  6
BYBLOCK
 62
     0
 10
14291.06305399998
 20
4876.8602070000097
 30
0.0
 40
15.0
 50
0.0
 51
180.0
  0
ARC
  5
536E
  8
0
  6
BYBLOCK
 62
     0
 10
14291.06305399998
 20
4876.8602070000097
 30
0.0
 40
15.0
 50
180.0
 51
0.0
  0
ARC
  5
536F
  8
0
  6
BYBLOCK
 62
     0
 10
8019.5630539999838
 20
4476.8598770000117
 30
0.0
 40
15.0
 50
0.0
 51
180.0
  0
ARC
  5
5370
  8
0
  6
BYBLOCK
 62
     0
 10
8019.5630539999838
 20
4476.8598770000117
 30
0.0
 40
15.0
 50
180.0
 51
0.0
  0
ARC
  5
5371
  8
0
  6
BYBLOCK
 62
     0
 10
14291.06305399998
 20
4476.8598770000117
 30
0.0
 40
15.0
 50
180.0
 51
0.0
  0
ARC
  5
5372
  8
0
  6
BYBLOCK
 62
     0
 10
14291.06305399998
 20
4476.8598770000117
 30
0.0
 40
15.0
 50
0.0
 51
180.0
  0
ARC
  5
5373
  8
0
  6
BYBLOCK
 62
     0
 10
15381.061469999961
 20
6176.85954700001
 30
0.0
 40
15.0
 50
90.0
 51
270.0
  0
ARC
  5
5374
  8
0
  6
BYBLOCK
 62
     0
 10
15381.061469999961
 20
6176.85954700001
 30
0.0
 40
15.0
 50
270.0
 51
90.0
  0
ARC
  5
5375
  8
0
  6
BYBLOCK
 62
     0
 10
15381.061469999961
 20
8764.8595470000055
 30
0.0
 40
15.0
 50
270.0
 51
90.0
  0
ARC
  5
5376
  8
0
  6
BYBLOCK
 62
     0
 10
15381.061469999961
 20
8764.8595470000055
 30
0.0
 40
15.0
 50
90.0
 51
270.0
  0
ARC
  5
5377
  8
0
  6
BYBLOCK
 62
     0
 10
6929.5646369999804
 20
6176.85954700001
 30
0.0
 40
15.0
 50
90.0
 51
270.0
  0
ARC
  5
5378
  8
0
  6
BYBLOCK
 62
     0
 10
6929.5646369999804
 20
6176.85954700001
 30
0.0
 40
15.0
 50
270.0
 51
90.0
  0
ARC
  5
5379
  8
0
  6
BYBLOCK
 62
     0
 10
6929.5646369999804
 20
8573.8595470000037
 30
0.0
 40
15.0
 50
270.0
 51
90.0
  0
ARC
  5
537A
  8
0
  6
BYBLOCK
 62
     0
 10
6929.5646369999804
 20
8573.8595470000037
 30
0.0
 40
15.0
 50
90.0
 51
270.0
  0
ARC
  5
537B
  8
0
  6
BYBLOCK
 62
     0
 10
8019.5630539999838
 20
9564.7681590000029
 30
0.0
 40
15.0
 50
0.0
 51
180.0
  0
ARC
  5
537C
  8
0
  6
BYBLOCK
 62
     0
 10
8019.5630539999838
 20
9564.7681590000029
 30
0.0
 40
15.0
 50
180.0
 51
0.0
  0
ARC
  5
537D
  8
0
  6
BYBLOCK
 62
     0
 10
14291.06305399998
 20
9564.7681590000029
 30
0.0
 40
15.0
 50
180.0
 51
0.0
  0
ARC
  5
537E
  8
0
  6
BYBLOCK
 62
     0
 10
14291.06305399998
 20
9564.7681590000029
 30
0.0
 40
15.0
 50
0.0
 51
180.0
  0
ARC
  5
537F
  8
0
  6
BYBLOCK
 62
     0
 10
14291.06305399998
 20
9564.7681590000029
 30
0.0
 40
15.0
 50
180.0
 51
0.0
  0
ARC
  5
5380
  8
0
  6
BYBLOCK
 62
     0
 10
14291.06305399998
 20
9564.7681590000029
 30
0.0
 40
15.0
 50
0.0
 51
180.0
  0
ARC
  5
5381
  8
0
  6
BYBLOCK
 62
     0
 10
14441.06305399998
 20
9564.7681590000029
 30
0.0
 40
15.0
 50
0.0
 51
180.0
  0
ARC
  5
5382
  8
0
  6
BYBLOCK
 62
     0
 10
14441.06305399998
 20
9564.7681590000029
 30
0.0
 40
15.0
 50
180.0
 51
0.0
  0
ARC
  5
5383
  8
0
  6
BYBLOCK
 62
     0
 10
8019.5630539999838
 20
9564.7681590000029
 30
0.0
 40
15.0
 50
180.0
 51
0.0
  0
ARC
  5
5384
  8
0
  6
BYBLOCK
 62
     0
 10
8019.5630539999838
 20
9564.7681590000029
 30
0.0
 40
15.0
 50
0.0
 51
180.0
  0
ARC
  5
5385
  8
0
  6
BYBLOCK
 62
     0
 10
7839.5630539999838
 20
9564.7681590000029
 30
0.0
 40
15.0
 50
0.0
 51
180.0
  0
ARC
  5
5386
  8
0
  6
BYBLOCK
 62
     0
 10
7839.5630539999838
 20
9564.7681590000029
 30
0.0
 40
15.0
 50
180.0
 51
0.0
  0
ARC
  5
5387
  8
0
  6
BYBLOCK
 62
     0
 10
7839.5630539999838
 20
9964.7684890000037
 30
0.0
 40
15.0
 50
0.0
 51
180.0
  0
ARC
  5
5388
  8
0
  6
BYBLOCK
 62
     0
 10
7839.5630539999838
 20
9964.7684890000037
 30
0.0
 40
15.0
 50
180.0
 51
0.0
  0
ARC
  5
5389
  8
0
  6
BYBLOCK
 62
     0
 10
14441.06305399998
 20
9964.7684890000037
 30
0.0
 40
15.0
 50
180.0
 51
0.0
  0
ARC
  5
538A
  8
0
  6
BYBLOCK
 62
     0
 10
14441.06305399998
 20
9964.7684890000037
 30
0.0
 40
15.0
 50
0.0
 51
180.0
  0
ARC
  5
538B
  8
0
  6
BYBLOCK
 62
     0
 10
17550.849397999991
 20
6176.85954700001
 30
0.0
 40
15.0
 50
90.0
 51
270.0
  0
ARC
  5
538C
  8
0
  6
BYBLOCK
 62
     0
 10
17550.849397999991
 20
6176.85954700001
 30
0.0
 40
15.0
 50
270.0
 51
90.0
  0
ARC
  5
538D
  8
0
  6
BYBLOCK
 62
     0
 10
17550.849397999991
 20
8764.8595470000091
 30
0.0
 40
15.0
 50
270.0
 51
90.0
  0
ARC
  5
538E
  8
0
  6
BYBLOCK
 62
     0
 10
17550.849397999991
 20
8764.8595470000091
 30
0.0
 40
15.0
 50
90.0
 51
270.0
  0
ARC
  5
538F
  8
0
  6
BYBLOCK
 62
     0
 10
18758.348078999999
 20
9564.8592170000084
 30
0.0
 40
15.0
 50
0.0
 51
180.0
  0
ARC
  5
5390
  8
0
  6
BYBLOCK
 62
     0
 10
18758.348078999999
 20
9564.8592170000084
 30
0.0
 40
15.0
 50
180.0
 51
0.0
  0
ARC
  5
5391
  8
0
  6
BYBLOCK
 62
     0
 10
18715.348078999999
 20
9564.8592170000084
 30
0.0
 40
15.0
 50
180.0
 51
0.0
  0
ARC
  5
5392
  8
0
  6
BYBLOCK
 62
     0
 10
18715.348078999999
 20
9564.8592170000084
 30
0.0
 40
15.0
 50
0.0
 51
180.0
  0
ARC
  5
5393
  8
0
  6
BYBLOCK
 62
     0
 10
18758.348078999999
 20
9564.8592170000029
 30
0.0
 40
15.0
 50
0.0
 51
180.0
  0
ARC
  5
5394
  8
0
  6
BYBLOCK
 62
     0
 10
18758.348078999999
 20
9564.8592170000029
 30
0.0
 40
15.0
 50
180.0
 51
0.0
  0
ARC
  5
5395
  8
0
  6
BYBLOCK
 62
     0
 10
24328.848078999981
 20
9564.8592170000029
 30
0.0
 40
15.0
 50
180.0
 51
0.0
  0
ARC
  5
5396
  8
0
  6
BYBLOCK
 62
     0
 10
24328.848078999981
 20
9564.8592170000029
 30
0.0
 40
15.0
 50
0.0
 51
180.0
  0
ARC
  5
5397
  8
0
  6
BYBLOCK
 62
     0
 10
24328.848078999981
 20
9564.8592170000029
 30
0.0
 40
15.0
 50
180.0
 51
0.0
  0
ARC
  5
5398
  8
0
  6
BYBLOCK
 62
     0
 10
24328.848078999981
 20
9564.8592170000029
 30
0.0
 40
15.0
 50
0.0
 51
180.0
  0
ARC
  5
5399
  8
0
  6
BYBLOCK
 62
     0
 10
24371.84807900001
 20
9564.8592170000029
 30
0.0
 40
15.0
 50
0.0
 51
180.0
  0
ARC
  5
539A
  8
0
  6
BYBLOCK
 62
     0
 10
24371.84807900001
 20
9564.8592170000029
 30
0.0
 40
15.0
 50
180.0
 51
0.0
  0
ARC
  5
539B
  8
0
  6
BYBLOCK
 62
     0
 10
24371.84807900001
 20
9964.8595470000091
 30
0.0
 40
15.0
 50
180.0
 51
0.0
  0
ARC
  5
539C
  8
0
  6
BYBLOCK
 62
     0
 10
24371.84807900001
 20
9964.8595470000091
 30
0.0
 40
15.0
 50
0.0
 51
180.0
  0
ARC
  5
539D
  8
0
  6
BYBLOCK
 62
     0
 10
18715.348078999999
 20
9964.8595470000091
 30
0.0
 40
15.0
 50
0.0
 51
180.0
  0
ARC
  5
539E
  8
0
  6
BYBLOCK
 62
     0
 10
18715.348078999999
 20
9964.8595470000091
 30
0.0
 40
15.0
 50
180.0
 51
0.0
  0
ARC
  5
539F
  8
0
  6
BYBLOCK
 62
     0
 10
24286.348078999989
 20
4876.8602070000097
 30
0.0
 40
15.0
 50
180.0
 51
0.0
  0
ARC
  5
53A0
  8
0
  6
BYBLOCK
 62
     0
 10
24286.348078999989
 20
4876.8602070000097
 30
0.0
 40
15.0
 50
0.0
 51
180.0
  0
ARC
  5
53A1
  8
0
  6
BYBLOCK
 62
     0
 10
18800.848078999999
 20
4876.8602070000097
 30
0.0
 40
15.0
 50
0.0
 51
180.0
  0
ARC
  5
53A2
  8
0
  6
BYBLOCK
 62
     0
 10
18800.848078999999
 20
4876.8602070000097
 30
0.0
 40
15.0
 50
180.0
 51
0.0
  0
ARC
  5
53A3
  8
0
  6
BYBLOCK
 62
     0
 10
18758.348078999999
 20
4476.8598770000117
 30
0.0
 40
15.0
 50
0.0
 51
180.0
  0
ARC
  5
53A4
  8
0
  6
BYBLOCK
 62
     0
 10
18758.348078999999
 20
4476.8598770000117
 30
0.0
 40
15.0
 50
180.0
 51
0.0
  0
ARC
  5
53A5
  8
0
  6
BYBLOCK
 62
     0
 10
24328.84807900001
 20
4476.8598770000117
 30
0.0
 40
15.0
 50
180.0
 51
0.0
  0
ARC
  5
53A6
  8
0
  6
BYBLOCK
 62
     0
 10
24328.84807900001
 20
4476.8598770000117
 30
0.0
 40
15.0
 50
0.0
 51
180.0
  0
ARC
  5
53A7
  8
0
  6
BYBLOCK
 62
     0
 10
18800.848078999999
 20
4876.8602070000097
 30
0.0
 40
15.0
 50
0.0
 51
180.0
  0
ARC
  5
53A8
  8
0
  6
BYBLOCK
 62
     0
 10
18800.848078999999
 20
4876.8602070000097
 30
0.0
 40
15.0
 50
180.0
 51
0.0
  0
ARC
  5
53A9
  8
0
  6
BYBLOCK
 62
     0
 10
18758.348078999999
 20
4876.8602070000097
 30
0.0
 40
15.0
 50
180.0
 51
0.0
  0
ARC
  5
53AA
  8
0
  6
BYBLOCK
 62
     0
 10
18758.348078999999
 20
4876.8602070000097
 30
0.0
 40
15.0
 50
0.0
 51
180.0
  0
ARC
  5
53AB
  8
0
  6
BYBLOCK
 62
     0
 10
19033.849292999981
 20
5276.8600420000093
 30
0.0
 40
15.0
 50
0.0
 51
180.0
  0
ARC
  5
53AC
  8
0
  6
BYBLOCK
 62
     0
 10
19033.849292999981
 20
5276.8600420000093
 30
0.0
 40
15.0
 50
180.0
 51
0.0
  0
ARC
  5
53AD
  8
0
  6
BYBLOCK
 62
     0
 10
24053.348843999978
 20
5276.8600420000093
 30
0.0
 40
15.0
 50
180.0
 51
0.0
  0
ARC
  5
53AE
  8
0
  6
BYBLOCK
 62
     0
 10
24053.348843999978
 20
5276.8600420000093
 30
0.0
 40
15.0
 50
0.0
 51
180.0
  0
ARC
  5
53AF
  8
0
  6
BYBLOCK
 62
     0
 10
17950.848738000001
 20
6176.85954700001
 30
0.0
 40
15.0
 50
90.0
 51
270.0
  0
ARC
  5
53B0
  8
0
  6
BYBLOCK
 62
     0
 10
17950.848738000001
 20
6176.85954700001
 30
0.0
 40
15.0
 50
270.0
 51
90.0
  0
ARC
  5
53B1
  8
0
  6
BYBLOCK
 62
     0
 10
17950.848738000001
 20
8115.3595470000091
 30
0.0
 40
15.0
 50
270.0
 51
90.0
  0
ARC
  5
53B2
  8
0
  6
BYBLOCK
 62
     0
 10
17950.848738000001
 20
8115.3595470000091
 30
0.0
 40
15.0
 50
90.0
 51
270.0
  0
ARC
  5
53B3
  8
0
  6
BYBLOCK
 62
     0
 10
24286.348078999989
 20
4876.8602070000097
 30
0.0
 40
15.0
 50
180.0
 51
0.0
  0
ARC
  5
53B4
  8
0
  6
BYBLOCK
 62
     0
 10
24286.348078999989
 20
4876.8602070000097
 30
0.0
 40
15.0
 50
0.0
 51
180.0
  0
ARC
  5
53B5
  8
0
  6
BYBLOCK
 62
     0
 10
24328.84807900001
 20
4876.8602070000097
 30
0.0
 40
15.0
 50
0.0
 51
180.0
  0
ARC
  5
53B6
  8
0
  6
BYBLOCK
 62
     0
 10
24328.84807900001
 20
4876.8602070000097
 30
0.0
 40
15.0
 50
180.0
 51
0.0
  0
ARC
  5
53B7
  8
0
  6
BYBLOCK
 62
     0
 10
24286.354017000001
 20
12778.150204999991
 30
0.0
 40
15.0
 50
180.0
 51
0.0
  0
ARC
  5
53B8
  8
0
  6
BYBLOCK
 62
     0
 10
24286.354017000001
 20
12778.150204999991
 30
0.0
 40
15.0
 50
0.0
 51
180.0
  0
ARC
  5
53B9
  8
0
  6
BYBLOCK
 62
     0
 10
24328.85626
 20
12778.150204999991
 30
0.0
 40
15.0
 50
0.0
 51
180.0
  0
ARC
  5
53BA
  8
0
  6
BYBLOCK
 62
     0
 10
24328.85626
 20
12778.150204999991
 30
0.0
 40
15.0
 50
180.0
 51
0.0
  0
ARC
  5
53BB
  8
0
  6
BYBLOCK
 62
     0
 10
24286.354017000001
 20
12778.150204999991
 30
0.0
 40
15.0
 50
0.0
 51
180.0
  0
ARC
  5
53BC
  8
0
  6
BYBLOCK
 62
     0
 10
24286.354017000001
 20
12778.150204999991
 30
0.0
 40
15.0
 50
180.0
 51
0.0
  0
ARC
  5
53BD
  8
0
  6
BYBLOCK
 62
     0
 10
24243.851773999999
 20
12778.150204999991
 30
0.0
 40
15.0
 50
180.0
 51
0.0
  0
ARC
  5
53BE
  8
0
  6
BYBLOCK
 62
     0
 10
24243.851773999999
 20
12778.150204999991
 30
0.0
 40
15.0
 50
0.0
 51
180.0
  0
ARC
  5
53BF
  8
0
  6
BYBLOCK
 62
     0
 10
18800.84807800001
 20
12778.15020499998
 30
0.0
 40
15.0
 50
180.0
 51
0.0
  0
ARC
  5
53C0
  8
0
  6
BYBLOCK
 62
     0
 10
18800.84807800001
 20
12778.15020499998
 30
0.0
 40
15.0
 50
0.0
 51
180.0
  0
ARC
  5
53C1
  8
0
  6
BYBLOCK
 62
     0
 10
18843.350321000002
 20
12778.15020499998
 30
0.0
 40
15.0
 50
0.0
 51
180.0
  0
ARC
  5
53C2
  8
0
  6
BYBLOCK
 62
     0
 10
18843.350321000002
 20
12778.15020499998
 30
0.0
 40
15.0
 50
180.0
 51
0.0
  0
ARC
  5
53C3
  8
0
  6
BYBLOCK
 62
     0
 10
25378.853621000009
 20
14157.09828899999
 30
0.0
 40
15.0
 50
270.0
 51
90.0
  0
ARC
  5
53C4
  8
0
  6
BYBLOCK
 62
     0
 10
25378.853621000009
 20
14157.09828899999
 30
0.0
 40
15.0
 50
90.0
 51
270.0
  0
ARC
  5
53C5
  8
0
  6
BYBLOCK
 62
     0
 10
25378.853621000009
 20
13749.59828899999
 30
0.0
 40
15.0
 50
90.0
 51
270.0
  0
ARC
  5
53C6
  8
0
  6
BYBLOCK
 62
     0
 10
25378.853621000009
 20
13749.59828899999
 30
0.0
 40
15.0
 50
270.0
 51
90.0
  0
ARC
  5
53C7
  8
0
  6
BYBLOCK
 62
     0
 10
25378.853621000009
 20
14858.09828899999
 30
0.0
 40
15.0
 50
270.0
 51
90.0
  0
ARC
  5
53C8
  8
0
  6
BYBLOCK
 62
     0
 10
25378.853621000009
 20
14858.09828899999
 30
0.0
 40
15.0
 50
90.0
 51
270.0
  0
ARC
  5
53C9
  8
0
  6
BYBLOCK
 62
     0
 10
25378.853621000009
 20
14157.09828899999
 30
0.0
 40
15.0
 50
90.0
 51
270.0
  0
ARC
  5
53CA
  8
0
  6
BYBLOCK
 62
     0
 10
25378.853621000009
 20
14157.09828899999
 30
0.0
 40
15.0
 50
270.0
 51
90.0
  0
ARC
  5
53CB
  8
0
  6
BYBLOCK
 62
     0
 10
25378.853621000009
 20
15559.338800500011
 30
0.0
 40
15.0
 50
270.0
 51
90.0
  0
ARC
  5
53CC
  8
0
  6
BYBLOCK
 62
     0
 10
25378.853621000009
 20
15559.338800500011
 30
0.0
 40
15.0
 50
90.0
 51
270.0
  0
ARC
  5
53CD
  8
0
  6
BYBLOCK
 62
     0
 10
25378.853621000009
 20
14858.09828899999
 30
0.0
 40
15.0
 50
90.0
 51
270.0
  0
ARC
  5
53CE
  8
0
  6
BYBLOCK
 62
     0
 10
25378.853621000009
 20
14858.09828899999
 30
0.0
 40
15.0
 50
270.0
 51
90.0
  0
ARC
  5
53CF
  8
0
  6
BYBLOCK
 62
     0
 10
25378.853621000009
 20
16260.09828899999
 30
0.0
 40
15.0
 50
270.0
 51
90.0
  0
ARC
  5
53D0
  8
0
  6
BYBLOCK
 62
     0
 10
25378.853621000009
 20
16260.09828899999
 30
0.0
 40
15.0
 50
90.0
 51
270.0
  0
ARC
  5
53D1
  8
0
  6
BYBLOCK
 62
     0
 10
25378.853621000009
 20
15559.338800500011
 30
0.0
 40
15.0
 50
90.0
 51
270.0
  0
ARC
  5
53D2
  8
0
  6
BYBLOCK
 62
     0
 10
25378.853621000009
 20
15559.338800500011
 30
0.0
 40
15.0
 50
270.0
 51
90.0
  0
ARC
  5
53D3
  8
0
  6
BYBLOCK
 62
     0
 10
25378.853621000009
 20
17018.09828899999
 30
0.0
 40
15.0
 50
270.0
 51
90.0
  0
ARC
  5
53D4
  8
0
  6
BYBLOCK
 62
     0
 10
25378.853621000009
 20
17018.09828899999
 30
0.0
 40
15.0
 50
90.0
 51
270.0
  0
ARC
  5
53D5
  8
0
  6
BYBLOCK
 62
     0
 10
25378.853621000009
 20
16260.09828899999
 30
0.0
 40
15.0
 50
90.0
 51
270.0
  0
ARC
  5
53D6
  8
0
  6
BYBLOCK
 62
     0
 10
25378.853621000009
 20
16260.09828899999
 30
0.0
 40
15.0
 50
270.0
 51
90.0
  0
ARC
  5
53D7
  8
0
  6
BYBLOCK
 62
     0
 10
25378.853621000009
 20
17776.09828899999
 30
0.0
 40
15.0
 50
270.0
 51
90.0
  0
ARC
  5
53D8
  8
0
  6
BYBLOCK
 62
     0
 10
25378.853621000009
 20
17776.09828899999
 30
0.0
 40
15.0
 50
90.0
 51
270.0
  0
ARC
  5
53D9
  8
0
  6
BYBLOCK
 62
     0
 10
25378.853621000009
 20
17018.09828899999
 30
0.0
 40
15.0
 50
90.0
 51
270.0
  0
ARC
  5
53DA
  8
0
  6
BYBLOCK
 62
     0
 10
25378.853621000009
 20
17018.09828899999
 30
0.0
 40
15.0
 50
270.0
 51
90.0
  0
ARC
  5
53DB
  8
0
  6
BYBLOCK
 62
     0
 10
25378.853621000009
 20
18477.09828899999
 30
0.0
 40
15.0
 50
270.0
 51
90.0
  0
ARC
  5
53DC
  8
0
  6
BYBLOCK
 62
     0
 10
25378.853621000009
 20
18477.09828899999
 30
0.0
 40
15.0
 50
90.0
 51
270.0
  0
ARC
  5
53DD
  8
0
  6
BYBLOCK
 62
     0
 10
25378.853621000009
 20
17776.09828899999
 30
0.0
 40
15.0
 50
90.0
 51
270.0
  0
ARC
  5
53DE
  8
0
  6
BYBLOCK
 62
     0
 10
25378.853621000009
 20
17776.09828899999
 30
0.0
 40
15.0
 50
270.0
 51
90.0
  0
ARC
  5
53DF
  8
0
  6
BYBLOCK
 62
     0
 10
25378.853621000009
 20
19178.09828899999
 30
0.0
 40
15.0
 50
270.0
 51
90.0
  0
ARC
  5
53E0
  8
0
  6
BYBLOCK
 62
     0
 10
25378.853621000009
 20
19178.09828899999
 30
0.0
 40
15.0
 50
90.0
 51
270.0
  0
ARC
  5
53E1
  8
0
  6
BYBLOCK
 62
     0
 10
25378.853621000009
 20
18477.09828899999
 30
0.0
 40
15.0
 50
90.0
 51
270.0
  0
ARC
  5
53E2
  8
0
  6
BYBLOCK
 62
     0
 10
25378.853621000009
 20
18477.09828899999
 30
0.0
 40
15.0
 50
270.0
 51
90.0
  0
ARC
  5
53E3
  8
0
  6
BYBLOCK
 62
     0
 10
25378.853621000009
 20
19936.09828899998
 30
0.0
 40
15.0
 50
270.0
 51
90.0
  0
ARC
  5
53E4
  8
0
  6
BYBLOCK
 62
     0
 10
25378.853621000009
 20
19936.09828899998
 30
0.0
 40
15.0
 50
90.0
 51
270.0
  0
ARC
  5
53E5
  8
0
  6
BYBLOCK
 62
     0
 10
25378.853621000009
 20
19178.09828899999
 30
0.0
 40
15.0
 50
90.0
 51
270.0
  0
ARC
  5
53E6
  8
0
  6
BYBLOCK
 62
     0
 10
25378.853621000009
 20
19178.09828899999
 30
0.0
 40
15.0
 50
270.0
 51
90.0
  0
ARC
  5
53E7
  8
0
  6
BYBLOCK
 62
     0
 10
25778.853620999998
 20
17018.09828899999
 30
0.0
 40
15.0
 50
90.0
 51
270.0
  0
ARC
  5
53E8
  8
0
  6
BYBLOCK
 62
     0
 10
25778.853620999998
 20
17018.09828899999
 30
0.0
 40
15.0
 50
270.0
 51
90.0
  0
ARC
  5
53E9
  8
0
  6
BYBLOCK
 62
     0
 10
25778.853620999998
 20
19936.09828899998
 30
0.0
 40
15.0
 50
270.0
 51
90.0
  0
ARC
  5
53EA
  8
0
  6
BYBLOCK
 62
     0
 10
25778.853620999998
 20
19936.09828899998
 30
0.0
 40
15.0
 50
90.0
 51
270.0
  0
ARC
  5
53EB
  8
0
  6
BYBLOCK
 62
     0
 10
25778.853620999998
 20
13749.59828899999
 30
0.0
 40
15.0
 50
90.0
 51
270.0
  0
ARC
  5
53EC
  8
0
  6
BYBLOCK
 62
     0
 10
25778.853620999998
 20
13749.59828899999
 30
0.0
 40
15.0
 50
270.0
 51
90.0
  0
ARC
  5
53ED
  8
0
  6
BYBLOCK
 62
     0
 10
25778.853620999998
 20
17018.09828899999
 30
0.0
 40
15.0
 50
270.0
 51
90.0
  0
ARC
  5
53EE
  8
0
  6
BYBLOCK
 62
     0
 10
25778.853620999998
 20
17018.09828899999
 30
0.0
 40
15.0
 50
90.0
 51
270.0
  0
ARC
  5
53EF
  8
0
  6
BYBLOCK
 62
     0
 10
26178.853620999998
 20
19978.595583999992
 30
0.0
 40
15.0
 50
270.0
 51
90.0
  0
ARC
  5
53F0
  8
0
  6
BYBLOCK
 62
     0
 10
26178.853620999998
 20
19978.595583999992
 30
0.0
 40
15.0
 50
90.0
 51
270.0
  0
ARC
  5
53F1
  8
0
  6
BYBLOCK
 62
     0
 10
26178.853620999998
 20
13707.10099399998
 30
0.0
 40
15.0
 50
90.0
 51
270.0
  0
ARC
  5
53F2
  8
0
  6
BYBLOCK
 62
     0
 10
26178.853620999998
 20
13707.10099399998
 30
0.0
 40
15.0
 50
270.0
 51
90.0
  0
ARC
  5
53F3
  8
0
  6
BYBLOCK
 62
     0
 10
25778.853620999998
 20
19936.09828899998
 30
0.0
 40
15.0
 50
270.0
 51
90.0
  0
ARC
  5
53F4
  8
0
  6
BYBLOCK
 62
     0
 10
25778.853620999998
 20
19936.09828899998
 30
0.0
 40
15.0
 50
90.0
 51
270.0
  0
ARC
  5
53F5
  8
0
  6
BYBLOCK
 62
     0
 10
25778.853620999998
 20
19978.595583999992
 30
0.0
 40
15.0
 50
90.0
 51
270.0
  0
ARC
  5
53F6
  8
0
  6
BYBLOCK
 62
     0
 10
25778.853620999998
 20
19978.595583999992
 30
0.0
 40
15.0
 50
270.0
 51
90.0
  0
ARC
  5
53F7
  8
0
  6
BYBLOCK
 62
     0
 10
25778.853620999998
 20
13749.59828899999
 30
0.0
 40
15.0
 50
90.0
 51
270.0
  0
ARC
  5
53F8
  8
0
  6
BYBLOCK
 62
     0
 10
25778.853620999998
 20
13749.59828899999
 30
0.0
 40
15.0
 50
270.0
 51
90.0
  0
ARC
  5
53F9
  8
0
  6
BYBLOCK
 62
     0
 10
25778.853620999998
 20
13707.10099399998
 30
0.0
 40
15.0
 50
270.0
 51
90.0
  0
ARC
  5
53FA
  8
0
  6
BYBLOCK
 62
     0
 10
25778.853620999998
 20
13707.10099399998
 30
0.0
 40
15.0
 50
90.0
 51
270.0
  0
ARC
  5
53FB
  8
0
  6
BYBLOCK
 62
     0
 10
24286.354017000001
 20
20708.599477000022
 30
0.0
 40
15.0
 50
180.0
 51
0.0
  0
ARC
  5
53FC
  8
0
  6
BYBLOCK
 62
     0
 10
24286.354017000001
 20
20708.599477000022
 30
0.0
 40
15.0
 50
0.0
 51
180.0
  0
ARC
  5
53FD
  8
0
  6
BYBLOCK
 62
     0
 10
24328.850322000009
 20
20708.599477000022
 30
0.0
 40
15.0
 50
0.0
 51
180.0
  0
ARC
  5
53FE
  8
0
  6
BYBLOCK
 62
     0
 10
24328.850322000009
 20
20708.599477000022
 30
0.0
 40
15.0
 50
180.0
 51
0.0
  0
ARC
  5
53FF
  8
0
  6
BYBLOCK
 62
     0
 10
18800.84807800001
 20
20708.599477
 30
0.0
 40
15.0
 50
0.0
 51
180.0
  0
ARC
  5
5400
  8
0
  6
BYBLOCK
 62
     0
 10
18800.84807800001
 20
20708.599477
 30
0.0
 40
15.0
 50
180.0
 51
0.0
  0
ARC
  5
5401
  8
0
  6
BYBLOCK
 62
     0
 10
19558.950023250021
 20
20708.599477
 30
0.0
 40
15.0
 50
180.0
 51
0.0
  0
ARC
  5
5402
  8
0
  6
BYBLOCK
 62
     0
 10
19558.950023250021
 20
20708.599477
 30
0.0
 40
15.0
 50
0.0
 51
180.0
  0
ARC
  5
5403
  8
0
  6
BYBLOCK
 62
     0
 10
18800.84807800001
 20
20708.599477
 30
0.0
 40
15.0
 50
0.0
 51
180.0
  0
ARC
  5
5404
  8
0
  6
BYBLOCK
 62
     0
 10
18800.84807800001
 20
20708.599477
 30
0.0
 40
15.0
 50
180.0
 51
0.0
  0
ARC
  5
5405
  8
0
  6
BYBLOCK
 62
     0
 10
18758.351772999991
 20
20708.599477
 30
0.0
 40
15.0
 50
180.0
 51
0.0
  0
ARC
  5
5406
  8
0
  6
BYBLOCK
 62
     0
 10
18758.351772999991
 20
20708.599477
 30
0.0
 40
15.0
 50
0.0
 51
180.0
  0
ARC
  5
5407
  8
0
  6
BYBLOCK
 62
     0
 10
20960.950023250021
 20
20708.599477
 30
0.0
 40
15.0
 50
0.0
 51
180.0
  0
ARC
  5
5408
  8
0
  6
BYBLOCK
 62
     0
 10
20960.950023250021
 20
20708.599477
 30
0.0
 40
15.0
 50
180.0
 51
0.0
  0
ARC
  5
5409
  8
0
  6
BYBLOCK
 62
     0
 10
21718.950023250021
 20
20708.599477
 30
0.0
 40
15.0
 50
180.0
 51
0.0
  0
ARC
  5
540A
  8
0
  6
BYBLOCK
 62
     0
 10
21718.950023250021
 20
20708.599477
 30
0.0
 40
15.0
 50
0.0
 51
180.0
  0
ARC
  5
540B
  8
0
  6
BYBLOCK
 62
     0
 10
20259.950023250021
 20
20708.599477
 30
0.0
 40
15.0
 50
0.0
 51
180.0
  0
ARC
  5
540C
  8
0
  6
BYBLOCK
 62
     0
 10
20259.950023250021
 20
20708.599477
 30
0.0
 40
15.0
 50
180.0
 51
0.0
  0
ARC
  5
540D
  8
0
  6
BYBLOCK
 62
     0
 10
20960.950023250021
 20
20708.599477
 30
0.0
 40
15.0
 50
180.0
 51
0.0
  0
ARC
  5
540E
  8
0
  6
BYBLOCK
 62
     0
 10
20960.950023250021
 20
20708.599477
 30
0.0
 40
15.0
 50
0.0
 51
180.0
  0
ARC
  5
540F
  8
0
  6
BYBLOCK
 62
     0
 10
19558.950023250021
 20
20708.599477
 30
0.0
 40
15.0
 50
0.0
 51
180.0
  0
ARC
  5
5410
  8
0
  6
BYBLOCK
 62
     0
 10
19558.950023250021
 20
20708.599477
 30
0.0
 40
15.0
 50
180.0
 51
0.0
  0
ARC
  5
5411
  8
0
  6
BYBLOCK
 62
     0
 10
20259.950023250021
 20
20708.599477
 30
0.0
 40
15.0
 50
180.0
 51
0.0
  0
ARC
  5
5412
  8
0
  6
BYBLOCK
 62
     0
 10
20259.950023250021
 20
20708.599477
 30
0.0
 40
15.0
 50
0.0
 51
180.0
  0
ARC
  5
5413
  8
0
  6
BYBLOCK
 62
     0
 10
21718.950023250021
 20
20708.599477
 30
0.0
 40
15.0
 50
0.0
 51
180.0
  0
ARC
  5
5414
  8
0
  6
BYBLOCK
 62
     0
 10
21718.950023250021
 20
20708.599477
 30
0.0
 40
15.0
 50
180.0
 51
0.0
  0
ARC
  5
5415
  8
0
  6
BYBLOCK
 62
     0
 10
22126.450023250021
 20
20708.599477
 30
0.0
 40
15.0
 50
180.0
 51
0.0
  0
ARC
  5
5416
  8
0
  6
BYBLOCK
 62
     0
 10
22126.450023250021
 20
20708.599477
 30
0.0
 40
15.0
 50
0.0
 51
180.0
  0
ARC
  5
5417
  8
0
  6
BYBLOCK
 62
     0
 10
22126.450023250021
 20
20708.599477
 30
0.0
 40
15.0
 50
0.0
 51
180.0
  0
ARC
  5
5418
  8
0
  6
BYBLOCK
 62
     0
 10
22126.450023250021
 20
20708.599477
 30
0.0
 40
15.0
 50
180.0
 51
0.0
  0
ARC
  5
5419
  8
0
  6
BYBLOCK
 62
     0
 10
22827.450023250021
 20
20708.599477
 30
0.0
 40
15.0
 50
180.0
 51
0.0
  0
ARC
  5
541A
  8
0
  6
BYBLOCK
 62
     0
 10
22827.450023250021
 20
20708.599477
 30
0.0
 40
15.0
 50
0.0
 51
180.0
  0
ARC
  5
541B
  8
0
  6
BYBLOCK
 62
     0
 10
22827.450023250021
 20
20708.599477
 30
0.0
 40
15.0
 50
0.0
 51
180.0
  0
ARC
  5
541C
  8
0
  6
BYBLOCK
 62
     0
 10
22827.450023250021
 20
20708.599477
 30
0.0
 40
15.0
 50
180.0
 51
0.0
  0
ARC
  5
541D
  8
0
  6
BYBLOCK
 62
     0
 10
23528.450023250021
 20
20708.599477
 30
0.0
 40
15.0
 50
180.0
 51
0.0
  0
ARC
  5
541E
  8
0
  6
BYBLOCK
 62
     0
 10
23528.450023250021
 20
20708.599477
 30
0.0
 40
15.0
 50
0.0
 51
180.0
  0
ARC
  5
541F
  8
0
  6
BYBLOCK
 62
     0
 10
23528.450023250021
 20
20708.599477
 30
0.0
 40
15.0
 50
0.0
 51
180.0
  0
ARC
  5
5420
  8
0
  6
BYBLOCK
 62
     0
 10
23528.450023250021
 20
20708.599477
 30
0.0
 40
15.0
 50
180.0
 51
0.0
  0
ARC
  5
5421
  8
0
  6
BYBLOCK
 62
     0
 10
24286.354017000009
 20
20708.599477
 30
0.0
 40
15.0
 50
180.0
 51
0.0
  0
ARC
  5
5422
  8
0
  6
BYBLOCK
 62
     0
 10
24286.354017000009
 20
20708.599477
 30
0.0
 40
15.0
 50
0.0
 51
180.0
  0
ARC
  5
5423
  8
0
  6
BYBLOCK
 62
     0
 10
18758.351772999991
 20
12297.59434400001
 30
0.0
 40
15.0
 50
0.0
 51
180.0
  0
ARC
  5
5424
  8
0
  6
BYBLOCK
 62
     0
 10
18758.351772999991
 20
12297.59434400001
 30
0.0
 40
15.0
 50
180.0
 51
0.0
  0
ARC
  5
5425
  8
0
  6
BYBLOCK
 62
     0
 10
24328.85626
 20
12297.59434400001
 30
0.0
 40
15.0
 50
180.0
 51
0.0
  0
ARC
  5
5426
  8
0
  6
BYBLOCK
 62
     0
 10
24328.85626
 20
12297.59434400001
 30
0.0
 40
15.0
 50
0.0
 51
180.0
  0
ARC
  5
5427
  8
0
  6
BYBLOCK
 62
     0
 10
18800.836887652269
 20
12778.15020518108
 30
0.0
 40
15.000000000001339
 50
359.99814524684479
 51
179.9981452468449
  0
ARC
  5
5428
  8
0
  6
BYBLOCK
 62
     0
 10
18800.836887652269
 20
12778.15020518108
 30
0.0
 40
15.000000000001339
 50
179.9981452468449
 51
359.99814524684479
  0
ARC
  5
5429
  8
0
  6
BYBLOCK
 62
     0
 10
18758.33464467456
 20
12778.151581044551
 30
0.0
 40
15.000000000001339
 50
179.9981452468449
 51
359.99814524684479
  0
ARC
  5
542A
  8
0
  6
BYBLOCK
 62
     0
 10
18758.33464467456
 20
12778.151581044551
 30
0.0
 40
15.000000000001339
 50
359.99814524684479
 51
179.9981452468449
  0
TEXT
  5
5546
  8
NAME
 10
24493.375430231641
 20
1076.0
 30
0.0
 40
360.0
  1
型（単棟）
  7
01
  0
TEXT
  5
5547
  8
NAME
 10
21853.69234708693
 20
1076.6369801169251
 30
0.0
 40
360.0
  1
VGCO-5562H
 41
0.6700000000000002
  0
TEXT
  5
5549
  8
NAME
 10
21933.552716389011
 20
1876.0
 30
0.0
 40
360.0
  1
ヨドガレージ ラヴィージュ
 41
0.75
  7
01
  0
LINE
  5
554A
  8
NAME
  6
CONTINUOUS
 10
26067.886878884299
 20
2236.0
 30
0.0
 11
26067.886878884299
 21
1876.0
 31
0.0
  0
LINE
  5
554B
  8
NAME
  6
CONTINUOUS
 10
26167.886878884299
 20
2236.0
 30
0.0
 11
26167.886878884299
 21
1876.0
 31
0.0
  0
LINE
  5
554C
  8
NAME
  6
CONTINUOUS
 10
26267.88687888431
 20
2236.0
 30
0.0
 11
26267.88687888431
 21
1876.0
 31
0.0
  0
LINE
  5
554D
  8
NAME
  6
CONTINUOUS
 10
26007.886878884299
 20
2236.0
 30
0.0
 11
26327.886878884299
 21
2236.0
 31
0.0
  0
LINE
  5
554E
  8
NAME
  6
CONTINUOUS
 10
26327.886878884299
 20
1876.0
 30
0.0
 11
26007.886878884299
 21
1876.0
 31
0.0
  0
TEXT
  5
55E8
  8
FILENAME
  6
CONTINUOUS
 10
28337.333333333328
 20
348.0
 30
0.0
 40
200.0
  1
＜VGCO-5562H-1-A_0.DXF ＞
  7
FILENAME
 72
     2
 11
32764.0
 21
348.0
 31
0.0
  0
LINE
  5
55EE
  8
WAKUSEN-01
 10
868.00000000000193
 20
827.99999999999955
 30
0.0
 11
32764.000000000011
 21
827.99999999999943
 31
0.0
  0
LINE
  5
55EF
  8
WAKUSEN-01
 10
868.00000000000193
 20
827.99999999999955
 30
0.0
 11
868.00000000000193
 21
22484.000000000011
 31
0.0
  0
LINE
  5
55F0
  8
WAKUSEN-01
 10
32764.000000000011
 20
827.99999999999943
 30
0.0
 11
32764.000000000011
 21
22484.000000000011
 31
0.0
  0
LINE
  5
55F1
  8
WAKUSEN-01
 10
20560.0
 20
827.99999999999716
 30
0.0
 11
20560.0
 21
2484.0
 31
0.0
  0
LINE
  5
55F2
  8
WAKUSEN-02
 10
26868.0
 20
827.99999999999261
 30
0.0
 11
26868.0
 21
2484.0
 31
0.0
  0
ENDSEC
  0
EOF
