  0
SECTION
  2
HEADER
  9
$ACADVER
  1
AC1009
  9
$INSBASE
 10
0.0
 20
0.0
 30
0.0
  9
$EXTMIN
 10
867.99324330406671
 20
327.38164749855792
 30
-0.0000000000000053
  9
$EXTMAX
 10
32765.33210850941
 20
22484.553276491992
 30
0.0000000000000099
  9
$LIMMIN
 10
0.0
 20
0.0
  9
$LIMMAX
 10
33600.0
 20
23760.0
  9
$ORTHOMODE
 70
     1
  9
$REGENMODE
 70
     1
  9
$FILLMODE
 70
     1
  9
$QTEXTMODE
 70
     0
  9
$MIRRTEXT
 70
     1
  9
$DRAGMODE
 70
     2
  9
$LTSCALE
 40
80.0
  9
$OSMODE
 70
  3071
  9
$ATTMODE
 70
     1
  9
$TEXTSIZE
 40
0.2
  9
$TRACEWID
 40
0.05
  9
$TEXTSTYLE
  7
00
  9
$CLAYER
  8
0
  9
$CELTYPE
  6
BYLAYER
  9
$CECOLOR
 62
   256
  9
$DIMSCALE
 40
80.0
  9
$DIMASZ
 40
3.0
  9
$DIMEXO
 40
1.0
  9
$DIMDLI
 40
0.38
  9
$DIMRND
 40
0.5
  9
$DIMDLE
 40
0.0
  9
$DIMEXE
 40
1.0
  9
$DIMTP
 40
0.0
  9
$DIMTM
 40
0.0
  9
$DIMTXT
 40
2.0
  9
$DIMCEN
 40
0.09
  9
$DIMTSZ
 40
0.0
  9
$DIMTOL
 70
     0
  9
$DIMLIM
 70
     0
  9
$DIMTIH
 70
     0
  9
$DIMTOH
 70
     0
  9
$DIMSE1
 70
     0
  9
$DIMSE2
 70
     0
  9
$DIMTAD
 70
     1
  9
$DIMZIN
 70
     8
  9
$DIMBLK
  1
DOTSMALL
  9
$DIMASO
 70
     1
  9
$DIMSHO
 70
     1
  9
$DIMPOST
  1

  9
$DIMAPOST
  1

  9
$DIMALT
 70
     0
  9
$DIMALTD
 70
     2
  9
$DIMALTF
 40
25.399999999999999
  9
$DIMLFAC
 40
1.0
  9
$DIMTOFL
 70
     1
  9
$DIMTVP
 40
0.0
  9
$DIMTIX
 70
     0
  9
$DIMSOXD
 70
     0
  9
$DIMSAH
 70
     0
  9
$DIMBLK1
  1

  9
$DIMBLK2
  1

  9
$DIMSTYLE
  2
SUNPOU
  9
$DIMCLRD
 70
     4
  9
$DIMCLRE
 70
     4
  9
$DIMCLRT
 70
     7
  9
$DIMTFAC
 40
1.0
  9
$DIMGAP
 40
1.0
  9
$LUNITS
 70
     2
  9
$LUPREC
 70
     4
  9
$SKETCHINC
 40
0.1
  9
$FILLETRAD
 40
0.0
  9
$AUNITS
 70
     0
  9
$AUPREC
 70
     0
  9
$MENU
  1
acad
  9
$ELEVATION
 40
0.0
  9
$PELEVATION
 40
0.0
  9
$THICKNESS
 40
0.0
  9
$LIMCHECK
 70
     0
  9
$BLIPMODE
 70
     1
  9
$CHAMFERA
 40
0.0
  9
$CHAMFERB
 40
0.0
  9
$SKPOLY
 70
     0
  9
$TDCREATE
 40
2311940.0749266441
  9
$TDUPDATE
 40
2458942.4286744208
  9
$TDINDWG
 40
0.0485798032
  9
$TDUSRTIMER
 40
0.0485786111
  9
$USRTIMER
 70
     1
  9
$ANGBASE
 50
0.0
  9
$ANGDIR
 70
     0
  9
$PDMODE
 70
     0
  9
$PDSIZE
 40
0.0
  9
$PLINEWID
 40
0.0
  9
$COORDS
 70
     1
  9
$SPLFRAME
 70
     0
  9
$SPLINETYPE
 70
     6
  9
$SPLINESEGS
 70
     8
  9
$ATTDIA
 70
     1
  9
$ATTREQ
 70
     1
  9
$HANDLING
 70
     1
  9
$HANDSEED
  5
519F
  9
$SURFTAB1
 70
     6
  9
$SURFTAB2
 70
     6
  9
$SURFTYPE
 70
     6
  9
$SURFU
 70
     6
  9
$SURFV
 70
     6
  9
$UCSNAME
  2

  9
$UCSORG
 10
0.0
 20
0.0
 30
0.0
  9
$UCSXDIR
 10
1.0
 20
0.0
 30
0.0
  9
$UCSYDIR
 10
0.0
 20
1.0
 30
0.0
  9
$PUCSNAME
  2

  9
$PUCSORG
 10
0.0
 20
0.0
 30
0.0
  9
$PUCSXDIR
 10
1.0
 20
0.0
 30
0.0
  9
$PUCSYDIR
 10
0.0
 20
1.0
 30
0.0
  9
$USERI1
 70
     0
  9
$USERI2
 70
     0
  9
$USERI3
 70
     0
  9
$USERI4
 70
     0
  9
$USERI5
 70
     0
  9
$USERR1
 40
0.0
  9
$USERR2
 40
0.0
  9
$USERR3
 40
0.0
  9
$USERR4
 40
0.0
  9
$USERR5
 40
0.0
  9
$WORLDVIEW
 70
     1
  9
$SHADEDGE
 70
     3
  9
$SHADEDIF
 70
    70
  9
$TILEMODE
 70
     1
  9
$MAXACTVP
 70
    16
  9
$PLIMCHECK
 70
     0
  9
$PEXTMIN
 10
1.0000000000000000E+020
 20
1.0000000000000000E+020
 30
1.0000000000000000E+020
  9
$PEXTMAX
 10
-1.0000000000000000E+020
 20
-1.0000000000000000E+020
 30
-1.0000000000000000E+020
  9
$PLIMMIN
 10
0.0
 20
0.0
  9
$PLIMMAX
 10
12.0
 20
9.0
  9
$UNITMODE
 70
     0
  9
$VISRETAIN
 70
     0
  9
$PLINEGEN
 70
     1
  9
$PSLTSCALE
 70
     0
  0
ENDSEC
  0
SECTION
  2
TABLES
  0
TABLE
  2
VPORT
 70
     1
  0
VPORT
  2
*ACTIVE
 70
     0
 10
0.0
 20
0.0
 11
1.0
 21
1.0
 12
16800.0
 22
11880.0
 13
0.0
 23
0.0
 14
1.0
 24
1.0
 15
0.0
 25
0.0
 16
0.0
 26
0.0
 36
1.0
 17
0.0
 27
0.0
 37
0.0
 40
23981.023255813951
 41
2.195652173913043
 42
50.0
 43
0.0
 44
0.0
 50
0.0
 51
0.0
 71
     0
 72
 10000
 73
     1
 74
     1
 75
     0
 76
     0
 77
     0
 78
     0
  0
ENDTAB
  0
TABLE
  2
LTYPE
 70
     4
  0
LTYPE
  2
CONTINUOUS
 70
     0
  3
Solid line
 72
    65
 73
     0
 40
0.0
  0
LTYPE
  2
DASHED3
 70
     0
  3
------  ------  ------  ------  
 72
    65
 73
     2
 40
5.0
 49
3.75
 49
-1.25
  0
LTYPE
  2
CENTER2
 70
     0
  3
----------  --  ----------  --  
 72
    65
 73
     4
 40
20.0
 49
12.5
 49
-2.5
 49
2.5
 49
-2.5
  0
LTYPE
  2
PHANTOM2
 70
     0
  3
___ _ _ ___ _ _ ___ _ _ ___ _ _
 72
    65
 73
     6
 40
1.25
 49
0.625
 49
-0.125
 49
0.125
 49
-0.125
 49
0.125
 49
-0.125
  0
ENDTAB
  0
TABLE
  2
LAYER
 70
    16
  0
LAYER
  2
0
 70
     0
 62
     7
  6
CONTINUOUS
  0
LAYER
  2
SUNPOU
 70
     0
 62
     4
  6
CONTINUOUS
  0
LAYER
  2
0-1
 70
     0
 62
     7
  6
CONTINUOUS
  0
LAYER
  2
0-2
 70
     0
 62
     7
  6
CONTINUOUS
  0
LAYER
  2
0-5
 70
     0
 62
     7
  6
CONTINUOUS
  0
LAYER
  2
2-0
 70
     0
 62
     7
  6
CONTINUOUS
  0
LAYER
  2
0-3
 70
     0
 62
     7
  6
CONTINUOUS
  0
LAYER
  2
YODOROGO
 70
     0
 62
   130
  6
CONTINUOUS
  0
LAYER
  2
WAKUSEN-01
 70
     0
 62
    50
  6
CONTINUOUS
  0
LAYER
  2
WAKUSEN-02
 70
     0
 62
   130
  6
CONTINUOUS
  0
LAYER
  2
WAKUMOJI-01
 70
     0
 62
   130
  6
CONTINUOUS
  0
LAYER
  2
FILENAME
 70
     0
 62
     7
  6
CONTINUOUS
  0
LAYER
  2
NAME
 70
     0
 62
    20
  6
CONTINUOUS
  0
LAYER
  2
0-4
 70
     0
 62
     7
  6
CONTINUOUS
  0
ENDTAB
  0
TABLE
  2
STYLE
 70
     5
  0
STYLE
  2
STANDARD
 70
     0
 40
0.0
 41
1.0
 50
0.0
 71
     0
 42
0.0
  3
txt
  4
BIGFONT
  0
STYLE
  2
00
 70
     0
 40
0.0
 41
0.6666666666666666
 50
0.0
 71
     0
 42
0.2
  3
ROMANS
  4
BIGFONT
  0
STYLE
  2
01
 70
     0
 40
3.0
 41
1.0
 50
0.0
 71
     0
 42
0.2
  3
ROMANS
  4
BIGFONT
  0
STYLE
  2
WAKUMOJI
 70
     0
 40
3.0
 41
1.0
 50
0.0
 71
     0
 42
3.0
  3
SIMPLEX
  4
BIGFONT
  0
STYLE
  2
FILENAME
 70
     0
 40
200.0
 41
1.0
 50
0.0
 71
     0
 42
200.0
  3
romans
  4
bigfont
  0
ENDTAB
  0
TABLE
  2
VIEW
 70
     0
  0
ENDTAB
  0
TABLE
  2
UCS
 70
     0
  0
ENDTAB
  0
TABLE
  2
APPID
 70
    13
  0
APPID
  2
ACAD
 70
     0
  0
APPID
  2
ACADANNOTATIVE
 70
     0
  0
APPID
  2
ACAD_PSEXT
 70
     0
  0
APPID
  2
DCO15
 70
     0
  0
APPID
  2
ACAD_MLEADERVER
 70
     0
  0
APPID
  2
AUTOCAD_POSTSCRIPT_FIGURE
 70
     0
  0
APPID
  2
ACAD_EXEMPT_FROM_CAD_STANDARDS
 70
     0
  0
APPID
  2
ACAD_DSTYLE_DIMJAG
 70
     0
  0
APPID
  2
ACAD_DSTYLE_DIMTALN
 70
     0
  0
APPID
  2
ACAD_DSTYLE_DIM_LINETYPE
 70
     0
  0
APPID
  2
ACAD_DSTYLE_DIM_EXT1_LINETYPE
 70
     0
  0
APPID
  2
ACAD_DSTYLE_DIM_EXT2_LINETYPE
 70
     0
  0
APPID
  2
ACAD_NAV_VCDISPLAY
 70
     0
  0
ENDTAB
  0
TABLE
  2
DIMSTYLE
 70
     2
  0
DIMSTYLE
  2
SUNPOU
 70
     0
  3

  4

  5

  6

  7

 40
80.0
 41
3.0
 42
1.0
 43
0.38
 44
1.0
 45
0.5
 46
0.0
 47
0.0
 48
0.0
140
2.0
141
0.09
142
0.0
143
25.399999999999999
144
1.0
145
0.0
146
1.0
147
1.0
 71
     0
 72
     0
 73
     0
 74
     0
 75
     0
 76
     0
 77
     1
 78
     8
170
     0
171
     2
172
     1
173
     0
174
     0
175
     0
176
     4
177
     4
178
     7
  0
ENDTAB
  0
ENDSEC
  0
SECTION
  2
BLOCKS
  0
BLOCK
  8
0
  2
$MODEL_SPACE
 70
     0
 10
0.0
 20
0.0
 30
0.0
  3
$MODEL_SPACE
  1

  0
ENDBLK
  5
43D5
  8
0
  0
BLOCK
 67
     1
  8
0
  2
$PAPER_SPACE
 70
     0
 10
0.0
 20
0.0
 30
0.0
  3
$PAPER_SPACE
  1

  0
ENDBLK
  5
43D1
 67
     1
  8
0
  0
BLOCK
  8
0
  2
_DOTSMALL
 70
     0
 10
0.0
 20
0.0
 30
0.0
  3
_DOTSMALL
  1

  0
POLYLINE
  5
4403
  8
0
  6
BYBLOCK
 62
     0
 66
     1
 10
0.0
 20
0.0
 30
0.0
 70
     1
 40
0.5
 41
0.5
  0
VERTEX
  5
5167
  8
0
  6
BYBLOCK
 62
     0
 10
-0.0625
 20
0.0
 30
0.0
 42
1.0
  0
VERTEX
  5
5168
  8
0
  6
BYBLOCK
 62
     0
 10
0.0625
 20
0.0
 30
0.0
 42
1.0
  0
SEQEND
  5
5169
  8
0
  6
BYBLOCK
 62
     0
  0
ENDBLK
  5
4407
  8
0
  0
ENDSEC
  0
SECTION
  2
ENTITIES
  0
LINE
  5
4408
  8
2-0
  6
CONTINUOUS
 62
     3
 10
7157.5339289999974
 20
18230.37055199996
 30
0.0
 11
7284.2775549999988
 21
18445.858964999959
 31
0.0
  0
LINE
  5
4409
  8
2-0
  6
CONTINUOUS
 62
     3
 10
7892.7578120000016
 20
17497.90356999998
 30
0.0
 11
8019.4984689999956
 21
17713.391983999969
 31
0.0
  0
LINE
  5
440A
  8
2-0
  6
CONTINUOUS
 62
     3
 10
7892.7578120000016
 20
17497.90356999998
 30
0.0
 11
7284.2775549999988
 21
18445.858964999959
 31
0.0
  0
LINE
  5
440B
  8
2-0
  6
CONTINUOUS
 62
     3
 10
4255.0048099999976
 20
20162.81420199998
 30
0.0
 11
4305.5151960000003
 21
20162.81420199998
 31
0.0
  0
LINE
  5
440C
  8
2-0
  6
CONTINUOUS
 62
     3
 10
4255.0048099999976
 20
20185.31736899996
 30
0.0
 11
4237.0090069999997
 21
20185.31736899996
 31
0.0
  0
LINE
  5
440D
  8
2-0
  6
CONTINUOUS
 62
     3
 10
4305.5151960000003
 20
20202.810374999968
 30
0.0
 11
4242.0092709999963
 21
20202.810374999968
 31
0.0
  0
LINE
  5
440E
  8
2-0
  6
CONTINUOUS
 62
     3
 10
4237.0090069999997
 20
20197.810110999981
 30
0.0
 11
4237.0090069999997
 21
20162.81420199998
 31
0.0
  0
LINE
  5
440F
  8
2-0
  6
CONTINUOUS
 62
     3
 10
4310.504077999999
 20
20167.812485999981
 30
0.0
 11
4310.504077999999
 21
20197.810110999981
 31
0.0
  0
LINE
  5
4410
  8
2-0
  6
CONTINUOUS
 62
     3
 10
13784.50597799999
 20
20202.810374999968
 30
0.0
 11
13848.01190299999
 21
20202.810374999968
 31
0.0
  0
LINE
  5
4411
  8
2-0
  6
CONTINUOUS
 62
     3
 10
13853.009197999991
 20
20197.810110999981
 30
0.0
 11
13853.009197999991
 21
20162.81420199998
 31
0.0
  0
LINE
  5
4412
  8
2-0
  6
CONTINUOUS
 62
     3
 10
13835.01042499998
 20
20162.81420199998
 30
0.0
 11
13784.50597799999
 21
20162.81420199998
 31
0.0
  0
LINE
  5
4413
  8
2-0
  6
CONTINUOUS
 62
     3
 10
13779.51264199998
 20
20167.812485999981
 30
0.0
 11
13779.51264199998
 21
20197.810110999981
 31
0.0
  0
LINE
  5
4414
  8
2-0
  6
CONTINUOUS
 62
     3
 10
13835.01042499998
 20
20185.31736899996
 30
0.0
 11
13853.009197999991
 21
20185.31736899996
 31
0.0
  0
LINE
  5
4415
  8
2-0
  6
CONTINUOUS
 62
     3
 10
7591.0079180000021
 20
13836.308790999979
 30
0.0
 11
7591.0079180000021
 21
13757.31511199998
 31
0.0
  0
LINE
  5
4416
  8
2-0
  6
CONTINUOUS
 62
     3
 10
7648.0131039999969
 20
17096.322594999969
 30
0.0
 11
7648.0131039999969
 21
17885.17616299996
 31
0.0
  0
LINE
  5
4417
  8
2-0
  6
CONTINUOUS
 62
     3
 10
7534.0047110000032
 20
17096.322594999969
 30
0.0
 11
7534.0047110000032
 21
18060.901986999961
 31
0.0
  0
LINE
  5
4418
  8
2-0
  6
CONTINUOUS
 62
     3
 10
7591.0079180000021
 20
17096.322594999969
 30
0.0
 11
7591.0079180000021
 21
17973.039074999971
 31
0.0
  0
LINE
  5
4419
  8
2-0
  6
CONTINUOUS
 62
     3
 10
7591.0079180000021
 20
17017.31802899998
 30
0.0
 11
7591.0079180000021
 21
17096.322594999969
 31
0.0
  0
LINE
  5
441A
  8
2-0
  6
CONTINUOUS
 62
     3
 10
7506.0063999999984
 20
20144.81047999996
 30
0.0
 11
7506.0063999999984
 21
20192.817764999982
 31
0.0
  0
LINE
  5
441B
  8
2-0
  6
CONTINUOUS
 62
     3
 10
7591.0079180000021
 20
13757.31511199998
 30
0.0
 11
7591.0079180000021
 21
13601.31914999997
 31
0.0
  0
LINE
  5
441C
  8
2-0
  6
CONTINUOUS
 62
     6
 10
6465.398721000005
 20
17250.14900399997
 30
0.0
 11
6404.2469380000039
 21
17411.917241999981
 31
0.0
  0
LINE
  5
441D
  8
2-0
  6
CONTINUOUS
 62
     6
 10
6301.2520920000034
 20
19920.536963999981
 30
0.0
 11
6445.1517100000056
 21
20432.80865899998
 31
0.0
  0
LINE
  5
441E
  8
2-0
  6
CONTINUOUS
 62
     6
 10
5888.1033040000038
 20
20026.314517999981
 30
0.0
 11
5594.1784470000057
 21
20432.80865899998
 31
0.0
  0
LINE
  5
441F
  8
2-0
  6
CONTINUOUS
 62
     6
 10
6445.1517100000056
 20
20432.80865899998
 30
0.0
 11
6962.8408530000024
 21
20432.80865899998
 31
0.0
  0
LINE
  5
4420
  8
2-0
  6
CONTINUOUS
 62
     6
 10
5834.8438620000034
 20
20322.717732999969
 30
0.0
 11
5625.6518030000016
 21
20685.052772999959
 31
0.0
  0
LINE
  5
4421
  8
2-0
  6
CONTINUOUS
 62
     6
 10
5551.6410670000041
 20
20813.232539999972
 30
0.0
 11
5355.5821240000014
 21
21152.81895299998
 31
0.0
  0
LINE
  5
4422
  8
2-0
  6
CONTINUOUS
 62
     6
 10
5355.5821240000014
 20
21152.81895299998
 30
0.0
 11
6198.019702999999
 21
21152.81895299998
 31
0.0
  0
LINE
  5
4423
  8
2-0
  6
CONTINUOUS
 62
     6
 10
4794.1802610000013
 20
20432.80865899998
 30
0.0
 11
5594.1784470000057
 21
20432.80865899998
 31
0.0
  0
LINE
  5
4424
  8
2-0
  6
CONTINUOUS
 62
     6
 10
5603.6776620000019
 20
17411.917241999981
 30
0.0
 11
6404.2469380000039
 21
17411.917241999981
 31
0.0
  0
LINE
  5
4425
  8
2-0
  6
CONTINUOUS
 62
     6
 10
4487.0351099999971
 20
18208.934344999961
 30
0.0
 11
5017.5382509999981
 21
18208.934344999961
 31
0.0
  0
LINE
  5
4426
  8
2-0
  6
CONTINUOUS
 62
     6
 10
5483.386771000005
 20
13988.20714899998
 30
0.0
 11
5566.2805970000027
 21
14165.14542799998
 31
0.0
  0
LINE
  5
4427
  8
2-0
  6
CONTINUOUS
 62
     6
 10
5566.2805970000027
 20
14165.14542799998
 30
0.0
 11
6366.2812570000033
 21
14165.14542799998
 31
0.0
  0
LINE
  5
4428
  8
2-0
  6
CONTINUOUS
 62
     6
 10
6473.8002930000002
 20
12801.31156199997
 30
0.0
 11
7336.3834330000027
 21
12801.31156199997
 31
0.0
  0
LINE
  5
4429
  8
2-0
  6
CONTINUOUS
 62
     6
 10
6067.686714999998
 20
13464.84915999998
 30
0.0
 11
6473.8002930000002
 21
12801.31156199997
 31
0.0
  0
LINE
  5
442A
  8
2-0
  6
CONTINUOUS
 62
     6
 10
2506.608424999999
 20
12401.314200999979
 30
0.0
 11
3586.6090179999951
 21
12401.314200999979
 31
0.0
  0
LINE
  5
442B
  8
2-0
  6
CONTINUOUS
 62
     6
 10
4145.119298999999
 20
14181.58730899998
 30
0.0
 11
3586.6090179999951
 21
12401.314200999979
 31
0.0
  0
LINE
  5
442C
  8
2-0
  6
CONTINUOUS
 62
     6
 10
4387.998805000002
 20
18429.72786799998
 30
0.0
 11
4487.0351099999971
 21
18208.934344999961
 31
0.0
  0
LINE
  5
442D
  8
2-0
  6
CONTINUOUS
 62
     6
 10
5662.3377259999979
 20
16495.754472999972
 30
0.0
 11
6542.3317210000023
 21
16495.754472999972
 31
0.0
  0
LINE
  5
442E
  8
2-0
  6
CONTINUOUS
 62
     6
 10
5451.068161000002
 20
16293.69016499998
 30
0.0
 11
5662.3377259999979
 21
16495.754472999972
 31
0.0
  0
LINE
  5
442F
  8
2-0
  6
CONTINUOUS
 62
     6
 10
11542.292295999991
 20
21152.81895299998
 30
0.0
 11
13217.289656000001
 21
21152.81895299998
 31
0.0
  0
LINE
  5
4430
  8
2-0
  6
CONTINUOUS
 62
     6
 10
13407.57384899998
 20
20823.22712899997
 30
0.0
 11
13217.289656000001
 21
21152.81895299998
 31
0.0
  0
LINE
  5
4431
  8
2-0
  6
CONTINUOUS
 62
     6
 10
13701.275099999981
 20
20332.726178999968
 30
0.0
 11
13492.085515000001
 21
20695.04736299998
 31
0.0
  0
LINE
  5
4432
  8
2-0
  6
CONTINUOUS
 62
     6
 10
7534.0047110000032
 20
15338.68825199998
 30
0.0
 11
7268.8185040000017
 21
15707.64577099998
 31
0.0
  0
LINE
  5
4433
  8
2-0
  6
CONTINUOUS
 62
     6
 10
7022.5871780000007
 20
15707.64577099998
 30
0.0
 11
7268.8185040000017
 21
15707.64577099998
 31
0.0
  0
LINE
  5
4434
  8
2-0
  6
CONTINUOUS
 62
     6
 10
4170.5590819999989
 20
14173.605889999981
 30
0.0
 11
4193.0092969999969
 21
14334.249761999979
 31
0.0
  0
LINE
  5
4435
  8
2-0
  6
CONTINUOUS
 62
     6
 10
4193.0092969999969
 20
14334.249761999979
 30
0.0
 11
4119.6706079999976
 21
14189.571696999979
 31
0.0
  0
LINE
  5
4436
  8
2-0
  6
CONTINUOUS
 62
     6
 10
4193.0092969999969
 20
14334.249761999979
 30
0.0
 11
4170.5590819999989
 21
14173.605889999981
 31
0.0
  0
LINE
  5
4437
  8
2-0
  6
CONTINUOUS
 62
     6
 10
4170.5590819999989
 20
14173.605889999981
 30
0.0
 11
4119.6706079999976
 21
14189.571696999979
 31
0.0
  0
LINE
  5
4438
  8
2-0
  6
CONTINUOUS
 62
     6
 10
4119.6706079999976
 20
14189.571696999979
 30
0.0
 11
4193.0092969999969
 21
14334.249761999979
 31
0.0
  0
LINE
  5
4439
  8
2-0
  6
CONTINUOUS
 62
     6
 10
4119.6706079999976
 20
14189.571696999979
 30
0.0
 11
4170.5590819999989
 21
14173.605889999981
 31
0.0
  0
LINE
  5
443A
  8
2-0
  6
CONTINUOUS
 62
     6
 10
5459.2430780000004
 20
13999.515148999981
 30
0.0
 11
5415.5189770000006
 21
13843.313316999949
 31
0.0
  0
LINE
  5
443B
  8
2-0
  6
CONTINUOUS
 62
     6
 10
5415.5189770000006
 20
13843.313316999949
 30
0.0
 11
5507.5418469999977
 21
13976.897169999969
 31
0.0
  0
LINE
  5
443C
  8
2-0
  6
CONTINUOUS
 62
     6
 10
5415.5189770000006
 20
13843.313316999949
 30
0.0
 11
5459.2430780000004
 21
13999.515148999981
 31
0.0
  0
LINE
  5
443D
  8
2-0
  6
CONTINUOUS
 62
     6
 10
5459.2430780000004
 20
13999.515148999981
 30
0.0
 11
5507.5418469999977
 21
13976.897169999969
 31
0.0
  0
LINE
  5
443E
  8
2-0
  6
CONTINUOUS
 62
     6
 10
5507.5418469999977
 20
13976.897169999969
 30
0.0
 11
5415.5189770000006
 21
13843.313316999949
 31
0.0
  0
LINE
  5
443F
  8
2-0
  6
CONTINUOUS
 62
     6
 10
5507.5418469999977
 20
13976.897169999969
 30
0.0
 11
5459.2430780000004
 21
13999.515148999981
 31
0.0
  0
LINE
  5
4440
  8
2-0
  6
CONTINUOUS
 62
     6
 10
6090.4308880000026
 20
13478.76913399998
 30
0.0
 11
5984.1634030000059
 21
13601.31914999997
 31
0.0
  0
LINE
  5
4441
  8
2-0
  6
CONTINUOUS
 62
     6
 10
5984.1634030000059
 20
13601.31914999997
 30
0.0
 11
6044.9430360000024
 21
13450.92720599998
 31
0.0
  0
LINE
  5
4442
  8
2-0
  6
CONTINUOUS
 62
     6
 10
5984.1634030000059
 20
13601.31914999997
 30
0.0
 11
6090.4308880000026
 21
13478.76913399998
 31
0.0
  0
LINE
  5
4443
  8
2-0
  6
CONTINUOUS
 62
     6
 10
6090.4308880000026
 20
13478.76913399998
 30
0.0
 11
6044.9430360000024
 21
13450.92720599998
 31
0.0
  0
LINE
  5
4444
  8
2-0
  6
CONTINUOUS
 62
     6
 10
6044.9430360000024
 20
13450.92720599998
 30
0.0
 11
5984.1634030000059
 21
13601.31914999997
 31
0.0
  0
LINE
  5
4445
  8
2-0
  6
CONTINUOUS
 62
     6
 10
6044.9430360000024
 20
13450.92720599998
 30
0.0
 11
6090.4308880000026
 21
13478.76913399998
 31
0.0
  0
LINE
  5
4446
  8
2-0
  6
CONTINUOUS
 62
     6
 10
7461.6295529999979
 20
15483.854266999981
 30
0.0
 11
7534.0047110000032
 21
15338.68825199998
 31
0.0
  0
LINE
  5
4447
  8
2-0
  6
CONTINUOUS
 62
     6
 10
7534.0047110000032
 20
15338.68825199998
 30
0.0
 11
7418.4572419999977
 21
15452.53432399998
 31
0.0
  0
LINE
  5
4448
  8
2-0
  6
CONTINUOUS
 62
     6
 10
7534.0047110000032
 20
15338.68825199998
 30
0.0
 11
7461.6295529999979
 21
15483.854266999981
 31
0.0
  0
LINE
  5
4449
  8
2-0
  6
CONTINUOUS
 62
     6
 10
7461.6295529999979
 20
15483.854266999981
 30
0.0
 11
7418.4572419999977
 21
15452.53432399998
 31
0.0
  0
LINE
  5
444A
  8
2-0
  6
CONTINUOUS
 62
     6
 10
7418.4572419999977
 20
15452.53432399998
 30
0.0
 11
7534.0047110000032
 21
15338.68825199998
 31
0.0
  0
LINE
  5
444B
  8
2-0
  6
CONTINUOUS
 62
     6
 10
7418.4572419999977
 20
15452.53432399998
 30
0.0
 11
7461.6295529999979
 21
15483.854266999981
 31
0.0
  0
LINE
  5
444C
  8
2-0
  6
CONTINUOUS
 62
     6
 10
5432.6299359999957
 20
16312.965726999981
 30
0.0
 11
5335.4390370000019
 21
16183.108318999981
 31
0.0
  0
LINE
  5
444D
  8
2-0
  6
CONTINUOUS
 62
     6
 10
5335.4390370000019
 20
16183.108318999981
 30
0.0
 11
5469.5009429999991
 21
16274.425489999971
 31
0.0
  0
LINE
  5
444E
  8
2-0
  6
CONTINUOUS
 62
     6
 10
5335.4390370000019
 20
16183.108318999981
 30
0.0
 11
5432.6299359999957
 21
16312.965726999981
 31
0.0
  0
LINE
  5
444F
  8
2-0
  6
CONTINUOUS
 62
     6
 10
5432.6299359999957
 20
16312.965726999981
 30
0.0
 11
5469.5009429999991
 21
16274.425489999971
 31
0.0
  0
LINE
  5
4450
  8
2-0
  6
CONTINUOUS
 62
     6
 10
5469.5009429999991
 20
16274.425489999971
 30
0.0
 11
5335.4390370000019
 21
16183.108318999981
 31
0.0
  0
LINE
  5
4451
  8
2-0
  6
CONTINUOUS
 62
     6
 10
5469.5009429999991
 20
16274.425489999971
 30
0.0
 11
5432.6299359999957
 21
16312.965726999981
 31
0.0
  0
LINE
  5
4452
  8
2-0
  6
CONTINUOUS
 62
     6
 10
6491.0320019999999
 20
17257.479161999981
 30
0.0
 11
6509.3945110000068
 21
17096.322594999969
 31
0.0
  0
LINE
  5
4453
  8
2-0
  6
CONTINUOUS
 62
     6
 10
6509.3945110000068
 20
17096.322594999969
 30
0.0
 11
6439.7545529999989
 21
17242.80894899998
 31
0.0
  0
LINE
  5
4454
  8
2-0
  6
CONTINUOUS
 62
     6
 10
6509.3945110000068
 20
17096.322594999969
 30
0.0
 11
6491.0320019999999
 21
17257.479161999981
 31
0.0
  0
LINE
  5
4455
  8
2-0
  6
CONTINUOUS
 62
     6
 10
6491.0320019999999
 20
17257.479161999981
 30
0.0
 11
6439.7545529999989
 21
17242.80894899998
 31
0.0
  0
LINE
  5
4456
  8
2-0
  6
CONTINUOUS
 62
     6
 10
6439.7545529999989
 20
17242.80894899998
 30
0.0
 11
6509.3945110000068
 21
17096.322594999969
 31
0.0
  0
LINE
  5
4457
  8
2-0
  6
CONTINUOUS
 62
     6
 10
6439.7545529999989
 20
17242.80894899998
 30
0.0
 11
6491.0320019999999
 21
17257.479161999981
 31
0.0
  0
LINE
  5
4458
  8
2-0
  6
CONTINUOUS
 62
     6
 10
4412.3246139999992
 20
18440.64095399998
 30
0.0
 11
4322.507918000003
 21
18575.707465999949
 31
0.0
  0
LINE
  5
4459
  8
2-0
  6
CONTINUOUS
 62
     6
 10
4322.507918000003
 20
18575.707465999949
 30
0.0
 11
4363.6591400000034
 21
18418.81280299995
 31
0.0
  0
LINE
  5
445A
  8
2-0
  6
CONTINUOUS
 62
     6
 10
4322.507918000003
 20
18575.707465999949
 30
0.0
 11
4412.3246139999992
 21
18440.64095399998
 31
0.0
  0
LINE
  5
445B
  8
2-0
  6
CONTINUOUS
 62
     6
 10
4412.3246139999992
 20
18440.64095399998
 30
0.0
 11
4363.6591400000034
 21
18418.81280299995
 31
0.0
  0
LINE
  5
445C
  8
2-0
  6
CONTINUOUS
 62
     6
 10
4363.6591400000034
 20
18418.81280299995
 30
0.0
 11
4322.507918000003
 21
18575.707465999949
 31
0.0
  0
LINE
  5
445D
  8
2-0
  6
CONTINUOUS
 62
     6
 10
4363.6591400000034
 20
18418.81280299995
 30
0.0
 11
4412.3246139999992
 21
18440.64095399998
 31
0.0
  0
LINE
  5
445E
  8
2-0
  6
CONTINUOUS
 62
     6
 10
5813.191393000001
 20
20310.223011999969
 30
0.0
 11
5909.8394080000062
 21
20192.817764999982
 31
0.0
  0
LINE
  5
445F
  8
2-0
  6
CONTINUOUS
 62
     6
 10
5909.8394080000062
 20
20192.817764999982
 30
0.0
 11
5856.4874229999987
 21
20335.214433999969
 31
0.0
  0
LINE
  5
4460
  8
2-0
  6
CONTINUOUS
 62
     6
 10
5909.8394080000062
 20
20192.817764999982
 30
0.0
 11
5813.191393000001
 21
20310.223011999969
 31
0.0
  0
LINE
  5
4461
  8
2-0
  6
CONTINUOUS
 62
     6
 10
5813.191393000001
 20
20310.223011999969
 30
0.0
 11
5856.4874229999987
 21
20335.214433999969
 31
0.0
  0
LINE
  5
4462
  8
2-0
  6
CONTINUOUS
 62
     6
 10
5856.4874229999987
 20
20335.214433999969
 30
0.0
 11
5909.8394080000062
 21
20192.817764999982
 31
0.0
  0
LINE
  5
4463
  8
2-0
  6
CONTINUOUS
 62
     6
 10
5856.4874229999987
 20
20335.214433999969
 30
0.0
 11
5813.191393000001
 21
20310.223011999969
 31
0.0
  0
LINE
  5
4464
  8
2-0
  6
CONTINUOUS
 62
     6
 10
5781.4047780000037
 20
20148.486445999981
 30
0.0
 11
5888.1033040000038
 21
20026.314517999981
 31
0.0
  0
LINE
  5
4465
  8
2-0
  6
CONTINUOUS
 62
     6
 10
5888.1033040000038
 20
20026.314517999981
 30
0.0
 11
5826.8005830000038
 21
20176.490695999972
 31
0.0
  0
LINE
  5
4466
  8
2-0
  6
CONTINUOUS
 62
     6
 10
5888.1033040000038
 20
20026.314517999981
 30
0.0
 11
5781.4047780000037
 21
20148.486445999981
 31
0.0
  0
LINE
  5
4467
  8
2-0
  6
CONTINUOUS
 62
     6
 10
5781.4047780000037
 20
20148.486445999981
 30
0.0
 11
5826.8005830000038
 21
20176.490695999972
 31
0.0
  0
LINE
  5
4468
  8
2-0
  6
CONTINUOUS
 62
     6
 10
5826.8005830000038
 20
20176.490695999972
 30
0.0
 11
5888.1033040000038
 21
20026.314517999981
 31
0.0
  0
LINE
  5
4469
  8
2-0
  6
CONTINUOUS
 62
     6
 10
5826.8005830000038
 20
20176.490695999972
 30
0.0
 11
5781.4047780000037
 21
20148.486445999981
 31
0.0
  0
LINE
  5
446A
  8
2-0
  6
CONTINUOUS
 62
     6
 10
6275.3614730000027
 20
19926.93674699996
 30
0.0
 11
6262.8642780000027
 21
19765.212058999969
 31
0.0
  0
LINE
  5
446B
  8
2-0
  6
CONTINUOUS
 62
     6
 10
6262.8642780000027
 20
19765.212058999969
 30
0.0
 11
6327.1432049999976
 21
19914.14509799995
 31
0.0
  0
LINE
  5
446C
  8
2-0
  6
CONTINUOUS
 62
     6
 10
6262.8642780000027
 20
19765.212058999969
 30
0.0
 11
6275.3614730000027
 21
19926.93674699996
 31
0.0
  0
LINE
  5
446D
  8
2-0
  6
CONTINUOUS
 62
     6
 10
6275.3614730000027
 20
19926.93674699996
 30
0.0
 11
6327.1432049999976
 21
19914.14509799995
 31
0.0
  0
LINE
  5
446E
  8
2-0
  6
CONTINUOUS
 62
     6
 10
6327.1432049999976
 20
19914.14509799995
 30
0.0
 11
6262.8642780000027
 21
19765.212058999969
 31
0.0
  0
LINE
  5
446F
  8
2-0
  6
CONTINUOUS
 62
     6
 10
6327.1432049999976
 20
19914.14509799995
 30
0.0
 11
6275.3614730000027
 21
19926.93674699996
 31
0.0
  0
LINE
  5
4470
  8
2-0
  6
CONTINUOUS
 62
     6
 10
13679.62708499998
 20
20320.219580999968
 30
0.0
 11
13776.27509999999
 21
20202.810374999968
 31
0.0
  0
LINE
  5
4471
  8
2-0
  6
CONTINUOUS
 62
     6
 10
13776.27509999999
 20
20202.810374999968
 30
0.0
 11
13722.922124999979
 21
20345.222879999961
 31
0.0
  0
LINE
  5
4472
  8
2-0
  6
CONTINUOUS
 62
     6
 10
13776.27509999999
 20
20202.810374999968
 30
0.0
 11
13679.62708499998
 21
20320.219580999968
 31
0.0
  0
LINE
  5
4473
  8
2-0
  6
CONTINUOUS
 62
     6
 10
13679.62708499998
 20
20320.219580999968
 30
0.0
 11
13722.922124999979
 21
20345.222879999961
 31
0.0
  0
LINE
  5
4474
  8
2-0
  6
CONTINUOUS
 62
     6
 10
13722.922124999979
 20
20345.222879999961
 30
0.0
 11
13776.27509999999
 21
20202.810374999968
 31
0.0
  0
LINE
  5
4475
  8
2-0
  6
CONTINUOUS
 62
     6
 10
13722.922124999979
 20
20345.222879999961
 30
0.0
 11
13679.62708499998
 21
20320.219580999968
 31
0.0
  0
LINE
  5
4476
  8
2-0
  6
DASHED3
 62
     6
 10
4322.507918000003
 20
19720.261150999981
 30
0.0
 11
4322.507918000003
 21
20026.314517999981
 31
0.0
  0
LINE
  5
4477
  8
2-0
  6
DASHED3
 62
     6
 10
13767.507811999991
 20
16571.205802999972
 30
0.0
 11
13767.507811999991
 21
19676.31385899998
 31
0.0
  0
LINE
  5
4478
  8
2-0
  6
DASHED3
 62
     6
 10
10125.375659999991
 20
16743.326922999971
 30
0.0
 11
10429.007086999991
 21
17062.316444999979
 31
0.0
  0
LINE
  5
4479
  8
2-0
  6
DASHED3
 62
     6
 10
7591.0079180000021
 20
17973.039074999971
 30
0.0
 11
7591.0079180000021
 21
19794.809819999959
 31
0.0
  0
LINE
  5
447A
  8
2-0
  6
CONTINUOUS
 62
     3
 10
10499.007811999991
 20
13836.308790999979
 30
0.0
 11
10499.007811999991
 21
13757.31511199998
 31
0.0
  0
LINE
  5
447B
  8
2-0
  6
CONTINUOUS
 62
     3
 10
10499.007811999991
 20
13757.31511199998
 30
0.0
 11
10499.007811999991
 21
13601.31914999997
 31
0.0
  0
LINE
  5
447C
  8
2-0
  6
DASHED3
 62
     6
 10
10499.007811999991
 20
16571.205802999972
 30
0.0
 11
10499.007811999991
 21
19794.809819999959
 31
0.0
  0
LINE
  5
447D
  8
2-0
  6
DASHED3
 62
     6
 10
10442.002626
 20
17017.31802899998
 30
0.0
 11
10442.002626
 21
16597.466096999971
 31
0.0
  0
LINE
  5
447E
  8
2-0
  6
DASHED3
 62
     6
 10
10556.01398899999
 20
17017.31802899998
 30
0.0
 11
10556.01398899999
 21
16544.955406999969
 31
0.0
  0
LINE
  5
447F
  8
2-0
  6
CONTINUOUS
 62
     3
 10
13767.507811999991
 20
14107.314781999959
 30
0.0
 11
13767.507811999991
 21
15231.63984599998
 31
0.0
  0
LINE
  5
4480
  8
2-0
  6
DASHED3
 62
     6
 10
13767.507811999991
 20
15231.63984599998
 30
0.0
 11
13767.507811999991
 21
16571.205802999972
 31
0.0
  0
LINE
  5
4481
  8
2-0
  6
CONTINUOUS
 62
     3
 10
9449.0048430000024
 20
17339.88256099998
 30
0.0
 11
9203.1634819999908
 21
17525.31792299997
 31
0.0
  0
LINE
  5
4482
  8
2-0
  6
CONTINUOUS
 62
     3
 10
9203.1634819999908
 20
16455.437617999971
 30
0.0
 11
8843.0553999999975
 21
16727.065177999961
 31
0.0
  0
LINE
  5
4483
  8
2-0
  6
CONTINUOUS
 62
     3
 10
9061.0409760000039
 20
17256.748718999981
 30
0.0
 11
8903.163481999989
 21
17375.838536999981
 31
0.0
  0
LINE
  5
4484
  8
2-0
  6
CONTINUOUS
 62
     3
 10
8903.163481999989
 20
16305.955261999979
 30
0.0
 11
8455.089552999998
 21
16643.935294999981
 31
0.0
  0
LINE
  5
4485
  8
2-0
  6
CONTINUOUS
 62
     3
 10
8843.0553999999975
 20
16727.065177999961
 30
0.0
 11
9449.0048430000024
 21
17339.88256099998
 31
0.0
  0
LINE
  5
4486
  8
2-0
  6
CONTINUOUS
 62
     3
 10
9061.0409760000039
 20
17256.748718999981
 30
0.0
 11
8455.089552999998
 21
16643.935294999981
 31
0.0
  0
LINE
  5
4487
  8
2-0
  6
CONTINUOUS
 62
     3
 10
9045.3186500000047
 20
17240.849225999958
 30
0.0
 11
8019.4984689999956
 21
17713.391983999969
 31
0.0
  0
LINE
  5
4488
  8
2-0
  6
CONTINUOUS
 62
     3
 10
9208.1716639999995
 20
17096.322594999969
 30
0.0
 11
9359.0792730000048
 21
17096.322594999969
 31
0.0
  0
LINE
  5
4489
  8
2-0
  6
CONTINUOUS
 62
     3
 10
9130.0539219999991
 20
17017.31802899998
 30
0.0
 11
9530.5798140000043
 21
17017.31802899998
 31
0.0
  0
LINE
  5
448A
  8
2-0
  6
CONTINUOUS
 62
     3
 10
9203.1634819999908
 20
15774.475307999979
 30
0.0
 11
10125.375659999991
 21
16743.326922999971
 31
0.0
  0
LINE
  5
448B
  8
2-0
  6
CONTINUOUS
 62
     3
 10
10429.007086999991
 20
13793.81644499998
 30
0.0
 11
9203.1634819999908
 21
15092.159996999981
 31
0.0
  0
LINE
  5
448C
  8
2-0
  6
CONTINUOUS
 62
     3
 10
7661.0066639999977
 20
13793.81644499998
 30
0.0
 11
8903.163481999989
 21
15109.298668999971
 31
0.0
  0
LINE
  5
448D
  8
2-0
  6
CONTINUOUS
 62
     3
 10
8903.163481999989
 20
15757.333666999981
 30
0.0
 11
7661.0066639999977
 21
17062.316444999979
 31
0.0
  0
LINE
  5
448E
  8
2-0
  6
CONTINUOUS
 62
     3
 10
7157.5339289999974
 20
18230.37055199996
 30
0.0
 11
4202.3768740000014
 21
19586.81784399995
 31
0.0
  0
LINE
  5
448F
  8
2-0
  6
DASHED3
 62
     6
 10
4322.507918000003
 20
19941.31596999996
 30
0.0
 11
8903.163481999989
 21
19941.31596999996
 31
0.0
  0
LINE
  5
4490
  8
2-0
  6
DASHED3
 62
     6
 10
4280.0096330000006
 20
20026.314517999981
 30
0.0
 11
8903.163481999989
 21
20026.314517999981
 31
0.0
  0
LINE
  5
4491
  8
2-0
  6
CONTINUOUS
 62
     3
 10
4310.504077999999
 20
20192.817764999982
 30
0.0
 11
8903.163481999989
 21
20192.817764999982
 31
0.0
  0
LINE
  5
4492
  8
2-0
  6
CONTINUOUS
 62
     3
 10
4375.5070530000012
 20
17096.322594999969
 30
0.0
 11
8902.4073059999737
 21
17096.322594999969
 31
0.0
  0
LINE
  5
4493
  8
2-0
  6
CONTINUOUS
 62
     3
 10
4375.5070530000012
 20
17017.31802899998
 30
0.0
 11
8824.2925330000035
 21
17017.31802899998
 31
0.0
  0
LINE
  5
4494
  8
2-0
  6
CONTINUOUS
 62
     3
 10
4375.5070530000012
 20
13836.308790999979
 30
0.0
 11
8903.163481999989
 21
13836.308790999979
 31
0.0
  0
LINE
  5
4495
  8
2-0
  6
CONTINUOUS
 62
     3
 10
4280.0096330000006
 20
13757.31511199998
 30
0.0
 11
8903.163481999989
 21
13757.31511199998
 31
0.0
  0
LINE
  5
4496
  8
2-0
  6
CONTINUOUS
 62
     3
 10
4237.0090069999997
 20
13601.31914999997
 30
0.0
 11
8903.163481999989
 21
13601.31914999997
 31
0.0
  0
LINE
  5
4497
  8
2-0
  6
CONTINUOUS
 62
     3
 10
4237.0090069999997
 20
13633.31806799998
 30
0.0
 11
8903.163481999989
 21
13633.31806799998
 31
0.0
  0
LINE
  5
4498
  8
2-0
  6
CONTINUOUS
 62
     3
 10
4255.0048099999976
 20
20144.81047999996
 30
0.0
 11
8903.163481999989
 21
20144.81047999996
 31
0.0
  0
LINE
  5
4499
  8
2-0
  6
CENTER2
 62
     6
 10
2993.0063280000031
 20
19980.316444999949
 30
0.0
 11
5000.0071390000012
 21
19980.316444999949
 31
0.0
  0
LINE
  5
449A
  8
2-0
  6
CENTER2
 62
     6
 10
2993.0063280000031
 20
17062.316444999979
 30
0.0
 11
5000.0071390000012
 21
17062.316444999979
 31
0.0
  0
LINE
  5
449B
  8
2-0
  6
CENTER2
 62
     6
 10
2993.0063280000031
 20
13793.81644499998
 30
0.0
 11
5000.0071390000012
 21
13793.81644499998
 31
0.0
  0
LINE
  5
449C
  8
2-0
  6
CONTINUOUS
 62
     3
 10
4255.0048099999976
 20
19561.196934999982
 30
0.0
 11
4255.0048099999976
 21
20185.31736899996
 31
0.0
  0
LINE
  5
449D
  8
2-0
  6
DASHED3
 62
     6
 10
4280.0096330000006
 20
19551.061799999981
 30
0.0
 11
4280.0096330000006
 21
20026.314517999981
 31
0.0
  0
LINE
  5
449E
  8
2-0
  6
CONTINUOUS
 62
     3
 10
4399.0212600000013
 20
19496.24101199998
 30
0.0
 11
4399.0212600000013
 21
20144.81047999996
 31
0.0
  0
LINE
  5
449F
  8
2-0
  6
CONTINUOUS
 62
     3
 10
4562.0167990000036
 20
19421.151933999969
 30
0.0
 11
4562.0167990000036
 21
20144.81047999996
 31
0.0
  0
LINE
  5
44A0
  8
2-0
  6
CONTINUOUS
 62
     3
 10
4599.0135070000033
 20
19404.110257999961
 30
0.0
 11
4599.0135070000033
 21
20144.81047999996
 31
0.0
  0
LINE
  5
44A1
  8
2-0
  6
CONTINUOUS
 62
     3
 10
4772.5109660000007
 20
19329.02513899995
 30
0.0
 11
4772.5109660000007
 21
20144.81047999996
 31
0.0
  0
LINE
  5
44A2
  8
2-0
  6
CONTINUOUS
 62
     3
 10
4809.5106430000023
 20
19311.981483999982
 30
0.0
 11
4809.5106430000023
 21
20144.81047999996
 31
0.0
  0
LINE
  5
44A3
  8
2-0
  6
CONTINUOUS
 62
     3
 10
7372.5096469999999
 20
18309.854161999981
 30
0.0
 11
7372.5096469999999
 21
20144.81047999996
 31
0.0
  0
LINE
  5
44A4
  8
2-0
  6
CONTINUOUS
 62
     3
 10
7409.5098180000086
 20
18252.820271999961
 30
0.0
 11
7409.5098180000086
 21
20144.81047999996
 31
0.0
  0
LINE
  5
44A5
  8
2-0
  6
CONTINUOUS
 62
     3
 10
7209.5061890000061
 20
18318.732301999949
 30
0.0
 11
7209.5061890000061
 21
20144.81047999996
 31
0.0
  0
LINE
  5
44A6
  8
2-0
  6
CONTINUOUS
 62
     3
 10
7172.5089870000038
 20
18255.827160999961
 30
0.0
 11
7172.5089870000038
 21
20144.81047999996
 31
0.0
  0
LINE
  5
44A7
  8
2-0
  6
CONTINUOUS
 62
     3
 10
7009.5045399999999
 20
18298.55506999998
 30
0.0
 11
7009.5045399999999
 21
20144.81047999996
 31
0.0
  0
LINE
  5
44A8
  8
2-0
  6
CONTINUOUS
 62
     3
 10
6972.5053580000103
 20
18315.604662999969
 30
0.0
 11
6972.5053580000103
 21
20144.81047999996
 31
0.0
  0
LINE
  5
44A9
  8
2-0
  6
CONTINUOUS
 62
     3
 10
6809.5009100000034
 20
18390.681863999958
 30
0.0
 11
6809.5009100000034
 21
20144.81047999996
 31
0.0
  0
LINE
  5
44AA
  8
2-0
  6
CONTINUOUS
 62
     3
 10
6772.5096469999989
 20
18407.733436999981
 30
0.0
 11
6772.5096469999989
 21
20144.81047999996
 31
0.0
  0
LINE
  5
44AB
  8
2-0
  6
CONTINUOUS
 62
     3
 10
6609.5056940000059
 20
18482.816576999961
 30
0.0
 11
6609.5056940000059
 21
20144.81047999996
 31
0.0
  0
LINE
  5
44AC
  8
2-0
  6
CONTINUOUS
 62
     3
 10
6572.5114610000028
 20
18499.860231999981
 30
0.0
 11
6572.5114610000028
 21
20144.81047999996
 31
0.0
  0
LINE
  5
44AD
  8
2-0
  6
CONTINUOUS
 62
     3
 10
6409.5075090000018
 20
18574.941391999961
 30
0.0
 11
6409.5075090000018
 21
20144.81047999996
 31
0.0
  0
LINE
  5
44AE
  8
2-0
  6
CONTINUOUS
 62
     3
 10
6372.5078320000021
 20
18591.992964999969
 30
0.0
 11
6372.5078320000021
 21
20144.81047999996
 31
0.0
  0
LINE
  5
44AF
  8
2-0
  6
CONTINUOUS
 62
     3
 10
5809.5070140000016
 20
18851.337612999982
 30
0.0
 11
5809.5070140000016
 21
20144.81047999996
 31
0.0
  0
LINE
  5
44B0
  8
2-0
  6
CONTINUOUS
 62
     3
 10
5772.5078320000021
 20
18868.381267999968
 30
0.0
 11
5772.5078320000021
 21
20144.81047999996
 31
0.0
  0
LINE
  5
44B1
  8
2-0
  6
CONTINUOUS
 62
     3
 10
5972.5060180000073
 20
18776.24853399998
 30
0.0
 11
5972.5060180000073
 21
20144.81047999996
 31
0.0
  0
LINE
  5
44B2
  8
2-0
  6
CONTINUOUS
 62
     3
 10
6009.5051989999993
 20
18759.20487899995
 30
0.0
 11
6009.5051989999993
 21
20144.81047999996
 31
0.0
  0
LINE
  5
44B3
  8
2-0
  6
CONTINUOUS
 62
     3
 10
6172.5096470000062
 20
18684.11975999998
 30
0.0
 11
6172.5096470000062
 21
20144.81047999996
 31
0.0
  0
LINE
  5
44B4
  8
2-0
  6
CONTINUOUS
 62
     3
 10
6209.5063540000046
 20
18667.07808499995
 30
0.0
 11
6209.5063540000046
 21
20144.81047999996
 31
0.0
  0
LINE
  5
44B5
  8
2-0
  6
CONTINUOUS
 62
     3
 10
5609.5088290000012
 20
18943.460448999958
 30
0.0
 11
5609.5088290000012
 21
20144.81047999996
 31
0.0
  0
LINE
  5
44B6
  8
2-0
  6
CONTINUOUS
 62
     3
 10
5009.5088289999976
 20
19219.854688999982
 30
0.0
 11
5009.5088289999976
 21
20144.81047999996
 31
0.0
  0
LINE
  5
44B7
  8
2-0
  6
CONTINUOUS
 62
     3
 10
4972.5066770000049
 20
19236.89834399995
 30
0.0
 11
4972.5066770000049
 21
20144.81047999996
 31
0.0
  0
LINE
  5
44B8
  8
2-0
  6
CONTINUOUS
 62
     3
 10
5209.5070140000034
 20
19127.727894999982
 30
0.0
 11
5209.5070140000034
 21
20144.81047999996
 31
0.0
  0
LINE
  5
44B9
  8
2-0
  6
CONTINUOUS
 62
     3
 10
5172.5073370000018
 20
19144.777487999982
 30
0.0
 11
5172.5073370000018
 21
20144.81047999996
 31
0.0
  0
LINE
  5
44BA
  8
2-0
  6
CONTINUOUS
 62
     3
 10
5372.5055229999998
 20
19052.64277499996
 30
0.0
 11
5372.5055229999998
 21
20144.81047999996
 31
0.0
  0
LINE
  5
44BB
  8
2-0
  6
CONTINUOUS
 62
     3
 10
5409.5051989999984
 20
19035.59120199996
 30
0.0
 11
5409.5051989999984
 21
20144.81047999996
 31
0.0
  0
LINE
  5
44BC
  8
2-0
  6
CONTINUOUS
 62
     3
 10
5572.5096470000062
 20
18960.50212399997
 30
0.0
 11
5572.5096470000062
 21
20144.81047999996
 31
0.0
  0
LINE
  5
44BD
  8
2-0
  6
CONTINUOUS
 62
     3
 10
7572.5053580000022
 20
18001.554039999981
 30
0.0
 11
7572.5053580000022
 21
20144.81047999996
 31
0.0
  0
LINE
  5
44BE
  8
2-0
  6
CONTINUOUS
 62
     3
 10
7609.5104780000029
 20
17944.528068999982
 30
0.0
 11
7609.5104780000029
 21
20144.81047999996
 31
0.0
  0
LINE
  5
44BF
  8
2-0
  6
DASHED3
 62
     6
 10
7534.0047110000032
 20
18060.901986999961
 30
0.0
 11
7534.0047110000032
 21
19941.31596999996
 31
0.0
  0
LINE
  5
44C0
  8
2-0
  6
DASHED3
 62
     6
 10
7648.0131039999969
 20
17885.17616299996
 30
0.0
 11
7648.0131039999969
 21
19941.31596999996
 31
0.0
  0
LINE
  5
44C1
  8
2-0
  6
DASHED3
 62
     6
 10
10442.002626
 20
17096.322594999969
 30
0.0
 11
10442.002626
 21
19941.31596999996
 31
0.0
  0
LINE
  5
44C2
  8
2-0
  6
DASHED3
 62
     6
 10
10556.01398899999
 20
17096.322594999969
 30
0.0
 11
10556.01398899999
 21
19941.31596999996
 31
0.0
  0
LINE
  5
44C3
  8
2-0
  6
CONTINUOUS
 62
     3
 10
7809.5061889999979
 20
17626.23180099998
 30
0.0
 11
7809.5061889999979
 21
20144.81047999996
 31
0.0
  0
LINE
  5
44C4
  8
2-0
  6
CONTINUOUS
 62
     3
 10
10209.509158000001
 20
16704.565969999981
 30
0.0
 11
10209.509158000001
 21
20144.81047999996
 31
0.0
  0
LINE
  5
44C5
  8
2-0
  6
CONTINUOUS
 62
     3
 10
10172.509976999991
 20
16721.609624999961
 30
0.0
 11
10172.509976999991
 21
20144.81047999996
 31
0.0
  0
LINE
  5
44C6
  8
2-0
  6
CONTINUOUS
 62
     3
 10
10009.511468000001
 20
16796.692764999982
 30
0.0
 11
10009.511468000001
 21
20144.81047999996
 31
0.0
  0
LINE
  5
44C7
  8
2-0
  6
CONTINUOUS
 62
     3
 10
9972.5083269999923
 20
16813.736419999961
 30
0.0
 11
9972.5083269999923
 21
20144.81047999996
 31
0.0
  0
LINE
  5
44C8
  8
2-0
  6
CONTINUOUS
 62
     3
 10
9772.5106369999921
 20
16905.869152999971
 30
0.0
 11
9772.5106369999921
 21
20144.81047999996
 31
0.0
  0
LINE
  5
44C9
  8
2-0
  6
CONTINUOUS
 62
     3
 10
9809.5068489999921
 20
16888.827477999981
 30
0.0
 11
9809.5068489999921
 21
20144.81047999996
 31
0.0
  0
LINE
  5
44CA
  8
2-0
  6
CONTINUOUS
 62
     3
 10
9609.5091580000008
 20
16980.954271999981
 30
0.0
 11
9609.5091580000008
 21
20144.81047999996
 31
0.0
  0
LINE
  5
44CB
  8
2-0
  6
CONTINUOUS
 62
     3
 10
9572.5070070000002
 20
16998.003865999952
 30
0.0
 11
9572.5070070000002
 21
20144.81047999996
 31
0.0
  0
LINE
  5
44CC
  8
2-0
  6
CONTINUOUS
 62
     3
 10
9372.5083270000032
 20
17090.130660999981
 30
0.0
 11
9372.5083270000032
 21
20144.81047999996
 31
0.0
  0
LINE
  5
44CD
  8
2-0
  6
CONTINUOUS
 62
     3
 10
9409.5084990000014
 20
17073.08898499998
 30
0.0
 11
9409.5084990000014
 21
20144.81047999996
 31
0.0
  0
LINE
  5
44CE
  8
2-0
  6
CONTINUOUS
 62
     3
 10
8772.5053580000003
 20
17366.51896299998
 30
0.0
 11
8772.5053580000003
 21
20144.81047999996
 31
0.0
  0
LINE
  5
44CF
  8
2-0
  6
CONTINUOUS
 62
     3
 10
8809.5075089999864
 20
17349.47728799998
 30
0.0
 11
8809.5075089999864
 21
20144.81047999996
 31
0.0
  0
LINE
  5
44D0
  8
2-0
  6
CONTINUOUS
 62
     3
 10
8609.5098179999968
 20
17441.610020999979
 30
0.0
 11
8609.5098179999968
 21
20144.81047999996
 31
0.0
  0
LINE
  5
44D1
  8
2-0
  6
CONTINUOUS
 62
     3
 10
8409.5091580000044
 20
17533.738794999979
 30
0.0
 11
8409.5091580000044
 21
20144.81047999996
 31
0.0
  0
LINE
  5
44D2
  8
2-0
  6
CONTINUOUS
 62
     3
 10
8372.5040380000064
 20
17550.780470999969
 30
0.0
 11
8372.5040380000064
 21
20144.81047999996
 31
0.0
  0
LINE
  5
44D3
  8
2-0
  6
CONTINUOUS
 62
     3
 10
8209.5075090000028
 20
17625.871528999971
 30
0.0
 11
8209.5075090000028
 21
20144.81047999996
 31
0.0
  0
LINE
  5
44D4
  8
2-0
  6
CONTINUOUS
 62
     3
 10
8009.503880000002
 20
17696.415631999971
 30
0.0
 11
8009.503880000002
 21
20144.81047999996
 31
0.0
  0
LINE
  5
44D5
  8
2-0
  6
CONTINUOUS
 62
     3
 10
7972.5096469999989
 20
17641.13955499998
 30
0.0
 11
7972.5096469999989
 21
20144.81047999996
 31
0.0
  0
LINE
  5
44D6
  8
2-0
  6
CONTINUOUS
 62
     3
 10
7772.5060180000028
 20
17683.26568999996
 30
0.0
 11
7772.5060180000028
 21
20144.81047999996
 31
0.0
  0
LINE
  5
44D7
  8
2-0
  6
CONTINUOUS
 62
     3
 10
10372.50469799999
 20
16629.482829999972
 30
0.0
 11
10372.50469799999
 21
20144.81047999996
 31
0.0
  0
LINE
  5
44D8
  8
2-0
  6
CONTINUOUS
 62
     3
 10
10409.504869999981
 20
16612.439174999949
 30
0.0
 11
10409.504869999981
 21
20144.81047999996
 31
0.0
  0
LINE
  5
44D9
  8
2-0
  6
CONTINUOUS
 62
     3
 10
9209.5068489999703
 20
17520.535405999981
 30
0.0
 11
9209.5068489999703
 21
20144.81047999996
 31
0.0
  0
LINE
  5
44DA
  8
2-0
  6
CONTINUOUS
 62
     3
 10
8572.5106369999976
 20
17458.647736999981
 30
0.0
 11
8572.5106369999976
 21
20144.81047999996
 31
0.0
  0
LINE
  5
44DB
  8
2-0
  6
CONTINUOUS
 62
     3
 10
8903.163481999989
 20
17375.838536999981
 30
0.0
 11
8903.163481999989
 21
20365.74652899996
 31
0.0
  0
LINE
  5
44DC
  8
2-0
  6
CONTINUOUS
 62
     3
 10
9203.1634819999908
 20
17525.31792299997
 30
0.0
 11
9203.1634819999908
 21
20365.74652899996
 31
0.0
  0
LINE
  5
44DD
  8
2-0
  6
CONTINUOUS
 62
     3
 10
10809.506189
 20
16428.17766799996
 30
0.0
 11
10809.506189
 21
20144.81047999996
 31
0.0
  0
LINE
  5
44DE
  8
2-0
  6
CONTINUOUS
 62
     3
 10
10772.50700699998
 20
16445.227260999982
 30
0.0
 11
10772.50700699998
 21
20144.81047999996
 31
0.0
  0
LINE
  5
44DF
  8
2-0
  6
CONTINUOUS
 62
     3
 10
11009.501899999999
 20
16336.05087299998
 30
0.0
 11
11009.501899999999
 21
20144.81047999996
 31
0.0
  0
LINE
  5
44E0
  8
2-0
  6
CONTINUOUS
 62
     3
 10
10972.502718
 20
16353.09452799998
 30
0.0
 11
10972.502718
 21
20144.81047999996
 31
0.0
  0
LINE
  5
44E1
  8
2-0
  6
CONTINUOUS
 62
     3
 10
11209.502560000001
 20
16243.91813999998
 30
0.0
 11
11209.502560000001
 21
20144.81047999996
 31
0.0
  0
LINE
  5
44E2
  8
2-0
  6
CONTINUOUS
 62
     3
 10
11409.50124
 20
16151.792334999969
 30
0.0
 11
11409.50124
 21
20144.81047999996
 31
0.0
  0
LINE
  5
44E3
  8
2-0
  6
CONTINUOUS
 62
     3
 10
11372.50403799999
 20
16168.83598999998
 30
0.0
 11
11372.50403799999
 21
20144.81047999996
 31
0.0
  0
LINE
  5
44E4
  8
2-0
  6
CONTINUOUS
 62
     3
 10
11609.49695099999
 20
16059.66553999998
 30
0.0
 11
11609.49695099999
 21
20144.81047999996
 31
0.0
  0
LINE
  5
44E5
  8
2-0
  6
CONTINUOUS
 62
     3
 10
11772.49743999999
 20
15984.574481999971
 30
0.0
 11
11772.49743999999
 21
20144.81047999996
 31
0.0
  0
LINE
  5
44E6
  8
2-0
  6
CONTINUOUS
 62
     3
 10
12009.492333
 20
15875.401062999979
 30
0.0
 11
12009.492333
 21
20144.81047999996
 31
0.0
  0
LINE
  5
44E7
  8
2-0
  6
CONTINUOUS
 62
     3
 10
11972.49612
 20
15892.447686999971
 30
0.0
 11
11972.49612
 21
20144.81047999996
 31
0.0
  0
LINE
  5
44E8
  8
2-0
  6
CONTINUOUS
 62
     3
 10
12209.491013000001
 20
15783.27129899998
 30
0.0
 11
12209.491013000001
 21
20144.81047999996
 31
0.0
  0
LINE
  5
44E9
  8
2-0
  6
CONTINUOUS
 62
     3
 10
12172.49381099998
 20
15800.31594399998
 30
0.0
 11
12172.49381099998
 21
20144.81047999996
 31
0.0
  0
LINE
  5
44EA
  8
2-0
  6
CONTINUOUS
 62
     3
 10
12409.494641999991
 20
15691.142524999979
 30
0.0
 11
12409.494641999991
 21
20144.81047999996
 31
0.0
  0
LINE
  5
44EB
  8
2-0
  6
CONTINUOUS
 62
     3
 10
12372.49546
 20
15708.18914899998
 30
0.0
 11
12372.49546
 21
20144.81047999996
 31
0.0
  0
LINE
  5
44EC
  8
2-0
  6
CONTINUOUS
 62
     3
 10
12609.493322
 20
15599.015729999979
 30
0.0
 11
12609.493322
 21
20144.81047999996
 31
0.0
  0
LINE
  5
44ED
  8
2-0
  6
CONTINUOUS
 62
     3
 10
12572.490180999999
 20
15616.05938499998
 30
0.0
 11
12572.490180999999
 21
20144.81047999996
 31
0.0
  0
LINE
  5
44EE
  8
2-0
  6
CONTINUOUS
 62
     3
 10
12809.491013000001
 20
15506.885965999951
 30
0.0
 11
12809.491013000001
 21
20144.81047999996
 31
0.0
  0
LINE
  5
44EF
  8
2-0
  6
CONTINUOUS
 62
     3
 10
12772.4948
 20
15523.93061099998
 30
0.0
 11
12772.4948
 21
20144.81047999996
 31
0.0
  0
LINE
  5
44F0
  8
2-0
  6
CONTINUOUS
 62
     3
 10
13009.491673
 20
15414.75422199997
 30
0.0
 11
13009.491673
 21
20144.81047999996
 31
0.0
  0
LINE
  5
44F1
  8
2-0
  6
CONTINUOUS
 62
     3
 10
12972.492491000001
 20
15431.80084699998
 30
0.0
 11
12972.492491000001
 21
20144.81047999996
 31
0.0
  0
LINE
  5
44F2
  8
2-0
  6
CONTINUOUS
 62
     3
 10
13209.49035299999
 20
15322.630396999981
 30
0.0
 11
13209.49035299999
 21
20144.81047999996
 31
0.0
  0
LINE
  5
44F3
  8
2-0
  6
CONTINUOUS
 62
     3
 10
13172.488202
 20
15339.668112999971
 30
0.0
 11
13172.488202
 21
20144.81047999996
 31
0.0
  0
LINE
  5
44F4
  8
2-0
  6
CONTINUOUS
 62
     3
 10
10572.506348000001
 20
16537.354055999971
 30
0.0
 11
10572.506348000001
 21
20144.81047999996
 31
0.0
  0
LINE
  5
44F5
  8
2-0
  6
CONTINUOUS
 62
     3
 10
10609.50552899998
 20
16520.31040099997
 30
0.0
 11
10609.50552899998
 21
20144.81047999996
 31
0.0
  0
LINE
  5
44F6
  8
2-0
  6
CONTINUOUS
 62
     3
 10
11172.503377999999
 20
16260.967732999979
 30
0.0
 11
11172.503377999999
 21
20144.81047999996
 31
0.0
  0
LINE
  5
44F7
  8
2-0
  6
CONTINUOUS
 62
     3
 10
11809.497611000001
 20
15967.527857999979
 30
0.0
 11
11809.497611000001
 21
20144.81047999996
 31
0.0
  0
LINE
  5
44F8
  8
2-0
  6
DASHED3
 62
     6
 10
13810.01104499999
 20
16551.63232399998
 30
0.0
 11
13810.01104499999
 21
20026.314517999981
 31
0.0
  0
LINE
  5
44F9
  8
2-0
  6
CONTINUOUS
 62
     3
 10
4392.5061689999984
 20
17062.312485999981
 30
0.0
 11
6144.8636899999974
 21
18696.85400299996
 31
0.0
  0
LINE
  5
44FA
  8
2-0
  6
CONTINUOUS
 62
     3
 10
5422.2349889999969
 20
19029.729847999981
 30
0.0
 11
7521.0091719999982
 21
17062.312485999981
 31
0.0
  0
LINE
  5
44FB
  8
2-0
  6
DASHED3
 62
     6
 10
6144.8636899999974
 20
18696.85400299996
 30
0.0
 11
7521.0091719999982
 21
19980.316444999949
 31
0.0
  0
LINE
  5
44FC
  8
2-0
  6
DASHED3
 62
     6
 10
4392.5061689999984
 20
19980.316444999949
 30
0.0
 11
5422.232514000003
 21
19029.733806999961
 31
0.0
  0
LINE
  5
44FD
  8
2-0
  6
DASHED3
 62
     6
 10
10429.007086999991
 20
17062.316444999979
 30
0.0
 11
9203.1634819999908
 21
18360.157687999981
 31
0.0
  0
LINE
  5
44FE
  8
2-0
  6
DASHED3
 62
     6
 10
8903.163481999989
 20
18675.334656999981
 30
0.0
 11
7661.0066639999977
 21
19980.316444999949
 31
0.0
  0
LINE
  5
44FF
  8
2-0
  6
CONTINUOUS
 62
     3
 10
8172.5083270000023
 20
17642.909244999981
 30
0.0
 11
8172.5083270000023
 21
20144.81047999996
 31
0.0
  0
LINE
  5
4500
  8
2-0
  6
CONTINUOUS
 62
     3
 10
7661.0066639999977
 20
17062.316444999979
 30
0.0
 11
8201.1034629999995
 21
17629.73752799998
 31
0.0
  0
LINE
  5
4501
  8
2-0
  6
DASHED3
 62
     6
 10
8201.1034629999995
 20
17629.73752799998
 30
0.0
 11
8903.163481999989
 21
18377.29635999996
 31
0.0
  0
LINE
  5
4502
  8
2-0
  6
DASHED3
 62
     6
 10
9203.1634819999908
 20
18692.473328999949
 30
0.0
 11
10434.603185999989
 21
19986.195614999961
 31
0.0
  0
LINE
  5
4503
  8
2-0
  6
CENTER2
 62
     6
 10
4322.507918000003
 20
21222.814729999998
 30
0.0
 11
4322.507918000003
 21
13951.31881999998
 31
0.0
  0
LINE
  5
4504
  8
2-0
  6
CENTER2
 62
     6
 10
10499.007811999991
 20
21222.814729999998
 30
0.0
 11
10499.007811999991
 21
13951.31881999998
 31
0.0
  0
LINE
  5
4505
  8
2-0
  6
CENTER2
 62
     6
 10
13767.507811999991
 20
21222.814729999998
 30
0.0
 11
13767.507811999991
 21
13951.31881999998
 31
0.0
  0
LINE
  5
4506
  8
2-0
  6
CONTINUOUS
 62
     3
 10
9203.1634819999908
 20
20192.817764999982
 30
0.0
 11
13779.51264199998
 21
20192.817764999982
 31
0.0
  0
LINE
  5
4507
  8
2-0
  6
CONTINUOUS
 62
     3
 10
9203.1634819999908
 20
20144.81047999996
 30
0.0
 11
13835.01042499998
 21
20144.81047999996
 31
0.0
  0
LINE
  5
4508
  8
2-0
  6
DASHED3
 62
     6
 10
9203.1634819999908
 20
20026.314517999981
 30
0.0
 11
13810.01104499999
 21
20026.314517999981
 31
0.0
  0
LINE
  5
4509
  8
2-0
  6
DASHED3
 62
     6
 10
9203.1634819999908
 20
19941.31596999996
 30
0.0
 11
13767.507811999991
 21
19941.31596999996
 31
0.0
  0
LINE
  5
450A
  8
2-0
  6
DASHED3
 62
     6
 10
9359.0792730000048
 20
17096.322594999969
 30
0.0
 11
13767.507811999991
 21
17096.322594999969
 31
0.0
  0
LINE
  5
450B
  8
2-0
  6
DASHED3
 62
     6
 10
9530.5798140000043
 20
17017.31802899998
 30
0.0
 11
13767.507811999991
 21
17017.31802899998
 31
0.0
  0
LINE
  5
450C
  8
2-0
  6
CENTER2
 62
     6
 10
13090.008590999991
 20
17062.316444999979
 30
0.0
 11
14003.87024899998
 21
17062.316444999979
 31
0.0
  0
LINE
  5
450D
  8
2-0
  6
CENTER2
 62
     6
 10
13090.008590999991
 20
13793.81644499998
 30
0.0
 11
13999.87360099999
 21
13793.81644499998
 31
0.0
  0
LINE
  5
450E
  8
2-0
  6
CONTINUOUS
 62
     3
 10
9203.1634819999908
 20
13757.31511199998
 30
0.0
 11
13810.01104499999
 21
13757.31511199998
 31
0.0
  0
LINE
  5
450F
  8
2-0
  6
CONTINUOUS
 62
     3
 10
9203.1634819999908
 20
13836.308790999979
 30
0.0
 11
13767.507811999991
 21
13836.308790999979
 31
0.0
  0
LINE
  5
4510
  8
2-0
  6
CONTINUOUS
 62
     3
 10
9203.1634819999908
 20
13633.31806799998
 30
0.0
 11
13853.009197999991
 21
13633.31806799998
 31
0.0
  0
LINE
  5
4511
  8
2-0
  6
CONTINUOUS
 62
     3
 10
9203.1634819999908
 20
13601.31914999997
 30
0.0
 11
13853.009197999991
 21
13601.31914999997
 31
0.0
  0
LINE
  5
4512
  8
2-0
  6
CONTINUOUS
 62
     3
 10
11572.502718
 20
16076.704245999979
 30
0.0
 11
11572.502718
 21
16192.028028999979
 31
0.0
  0
LINE
  5
4513
  8
2-0
  6
CONTINUOUS
 62
     3
 10
11572.502718
 20
16192.028028999979
 30
0.0
 11
11572.502718
 21
20144.81047999996
 31
0.0
  0
LINE
  5
4514
  8
2-0
  6
DASHED3
 62
     6
 10
10569.003589
 20
17062.316444999979
 30
0.0
 11
13697.50906599999
 21
19980.316444999949
 31
0.0
  0
LINE
  5
4515
  8
2-0
  6
DASHED3
 62
     6
 10
13697.50906599999
 20
17062.316444999979
 30
0.0
 11
10569.003589
 21
19980.316444999949
 31
0.0
  0
LINE
  5
4516
  8
2-0
  6
CONTINUOUS
 62
     3
 10
13372.49183099999
 20
15247.539338999981
 30
0.0
 11
13372.49183099999
 21
20144.81047999996
 31
0.0
  0
LINE
  5
4517
  8
2-0
  6
CONTINUOUS
 62
     3
 10
13409.491013000001
 20
15230.49271499998
 30
0.0
 11
13409.491013000001
 21
20144.81047999996
 31
0.0
  0
LINE
  5
4518
  8
2-0
  6
CONTINUOUS
 62
     3
 10
13582.99391599999
 20
15155.40660599998
 30
0.0
 11
13582.99391599999
 21
20144.81047999996
 31
0.0
  0
LINE
  5
4519
  8
2-0
  6
CONTINUOUS
 62
     3
 10
13619.99408699999
 20
15138.362950999959
 30
0.0
 11
13619.99408699999
 21
20144.81047999996
 31
0.0
  0
LINE
  5
451A
  8
2-0
  6
CONTINUOUS
 62
     3
 10
13732.99094699998
 20
15086.31249899998
 30
0.0
 11
13732.99094699998
 21
20144.81047999996
 31
0.0
  0
LINE
  5
451B
  8
2-0
  6
DASHED3
 62
     6
 10
13810.01104499999
 20
15050.83061899996
 30
0.0
 11
13810.01104499999
 21
16551.63232399998
 31
0.0
  0
LINE
  5
451C
  8
2-0
  6
CONTINUOUS
 62
     3
 10
4237.0090069999997
 20
13601.31914999997
 30
0.0
 11
4237.0090069999997
 21
20185.31736899996
 31
0.0
  0
LINE
  5
451D
  8
2-0
  6
CONTINUOUS
 62
     3
 10
4280.0096330000006
 20
13633.31806799998
 30
0.0
 11
4280.0096330000006
 21
19551.061799999981
 31
0.0
  0
LINE
  5
451E
  8
2-0
  6
CONTINUOUS
 62
     3
 10
4322.507918000003
 20
13757.31511199998
 30
0.0
 11
4322.507918000003
 21
19370.260490999961
 31
0.0
  0
LINE
  5
451F
  8
2-0
  6
CONTINUOUS
 62
     3
 10
4372.5070530000012
 20
13633.31806799998
 30
0.0
 11
4372.5070530000012
 21
20144.81047999996
 31
0.0
  0
LINE
  5
4520
  8
2-0
  6
CONTINUOUS
 62
     3
 10
7534.0047110000032
 20
13836.308790999979
 30
0.0
 11
7534.0047110000032
 21
17017.31802899998
 31
0.0
  0
LINE
  5
4521
  8
2-0
  6
CONTINUOUS
 62
     3
 10
7591.0079180000021
 20
13836.308790999979
 30
0.0
 11
7591.0079180000021
 21
17017.31802899998
 31
0.0
  0
LINE
  5
4522
  8
2-0
  6
CENTER2
 62
     6
 10
7591.0079180000021
 20
21222.814729999998
 30
0.0
 11
7591.0079180000021
 21
13836.308790999979
 31
0.0
  0
LINE
  5
4523
  8
2-0
  6
CONTINUOUS
 62
     3
 10
7648.0131039999969
 20
13836.308790999979
 30
0.0
 11
7648.0131039999969
 21
17017.31802899998
 31
0.0
  0
LINE
  5
4524
  8
2-0
  6
CONTINUOUS
 62
     3
 10
10442.002626
 20
13836.308790999979
 30
0.0
 11
10442.002626
 21
16597.466096999971
 31
0.0
  0
LINE
  5
4525
  8
2-0
  6
CONTINUOUS
 62
     3
 10
10499.007811999991
 20
13836.308790999979
 30
0.0
 11
10499.007811999991
 21
16571.205802999972
 31
0.0
  0
LINE
  5
4526
  8
2-0
  6
CONTINUOUS
 62
     3
 10
10556.01398899999
 20
13836.308790999979
 30
0.0
 11
10556.01398899999
 21
16544.955406999969
 31
0.0
  0
LINE
  5
4527
  8
2-0
  6
CONTINUOUS
 62
     3
 10
13853.009197999991
 20
13601.31914999997
 30
0.0
 11
13853.009197999991
 21
20185.31736899996
 31
0.0
  0
LINE
  5
4528
  8
2-0
  6
CONTINUOUS
 62
     3
 10
13835.01042499998
 20
13633.31806799998
 30
0.0
 11
13835.01042499998
 21
20185.31736899996
 31
0.0
  0
LINE
  5
4529
  8
2-0
  6
CONTINUOUS
 62
     3
 10
13769.988148999981
 20
13757.31511199998
 30
0.0
 11
13769.988148999981
 21
20144.81047999996
 31
0.0
  0
LINE
  5
452A
  8
2-0
  6
CONTINUOUS
 62
     3
 10
14060.37461699997
 20
14935.501885999971
 30
0.0
 11
9255.3930799999944
 21
17144.078480999971
 31
0.0
  0
LINE
  5
452B
  8
2-0
  6
CONTINUOUS
 62
     3
 10
13810.01104499999
 20
13757.31511199998
 30
0.0
 11
13810.01104499999
 21
15050.83160799998
 31
0.0
  0
LINE
  5
452C
  8
0-1
  6
CONTINUOUS
 62
     3
 10
4392.5091389999934
 20
13793.81644499998
 30
0.0
 11
7521.0091719999982
 21
17062.316444999979
 31
0.0
  0
LINE
  5
452D
  8
0-1
  6
CONTINUOUS
 62
     3
 10
7521.0091719999982
 20
13793.81644499998
 30
0.0
 11
4392.5091389999934
 21
17062.316444999979
 31
0.0
  0
LINE
  5
452E
  8
0-1
  6
CONTINUOUS
 62
     3
 10
13697.50807599998
 20
13793.81644499998
 30
0.0
 11
11464.776328
 21
16126.32681799998
 31
0.0
  0
LINE
  5
452F
  8
0-1
  6
CONTINUOUS
 62
     3
 10
10569.003589
 20
13793.81644499998
 30
0.0
 11
12385.382126
 21
15702.24960299996
 31
0.0
  0
LINE
  5
4530
  8
2-0
  6
DASHED3
 62
     6
 10
12385.382126
 20
15702.24960299996
 30
0.0
 11
13697.50807599998
 21
17062.316444999979
 31
0.0
  0
LINE
  5
4531
  8
2-0
  6
DASHED3
 62
     6
 10
11464.776328
 20
16126.32681799998
 30
0.0
 11
10569.003589
 21
17062.316444999979
 31
0.0
  0
LINE
  5
4532
  8
2-0
  6
CONTINUOUS
 62
     3
 10
8903.163481999989
 20
16305.955261999979
 30
0.0
 11
8903.163481999989
 21
13465.541001999971
 31
0.0
  0
LINE
  5
4533
  8
2-0
  6
CONTINUOUS
 62
     3
 10
9203.1634819999908
 20
16455.437617999971
 30
0.0
 11
9203.1634819999908
 21
13465.541001999971
 31
0.0
  0
CIRCLE
  5
4534
  8
2-0
  6
CONTINUOUS
 62
     4
 10
15388.818491
 20
1516.226602999998
 30
0.0
 40
20.000004000000001
  0
ARC
  5
4535
  8
2-0
  6
CONTINUOUS
 62
     4
 10
15388.818491
 20
1516.226602999998
 30
0.0
 40
20.000004000000001
 50
180.0
 51
0.0
  0
ARC
  5
4536
  8
2-0
  6
CONTINUOUS
 62
     4
 10
15388.818491
 20
1516.226602999998
 30
0.0
 40
20.000004000000001
 50
0.0
 51
179.99998499999839
  0
CIRCLE
  5
4537
  8
2-0
  6
CONTINUOUS
 62
     4
 10
15388.818491
 20
1916.2258200000001
 30
0.0
 40
20.000004000000001
  0
ARC
  5
4538
  8
2-0
  6
CONTINUOUS
 62
     4
 10
15388.818491
 20
1916.2258200000001
 30
0.0
 40
20.000004000000001
 50
180.0
 51
0.0
  0
ARC
  5
4539
  8
2-0
  6
CONTINUOUS
 62
     4
 10
15388.818491
 20
1916.2258200000001
 30
0.0
 40
20.000004000000001
 50
0.0
 51
179.99998499999839
  0
CIRCLE
  5
453A
  8
2-0
  6
CONTINUOUS
 62
     4
 10
4322.513361999997
 20
21422.819349000009
 30
0.0
 40
200.00001
  0
CIRCLE
  5
453B
  8
2-0
  6
CONTINUOUS
 62
     4
 10
2792.9997290000028
 20
19980.316444999949
 30
0.0
 40
200.00001
  0
CIRCLE
  5
453C
  8
2-0
  6
CONTINUOUS
 62
     4
 10
2792.9997290000028
 20
17062.316444999979
 30
0.0
 40
200.00001
  0
CIRCLE
  5
453D
  8
2-0
  6
CONTINUOUS
 62
     4
 10
2792.9997290000028
 20
13793.81644499998
 30
0.0
 40
200.00001
  0
ARC
  5
453E
  8
2-0
  6
CONTINUOUS
 62
     3
 10
4242.0092709999963
 20
20197.810110999981
 30
0.0
 40
5.0000010000000001
 50
90.0
 51
180.0
  0
ARC
  5
453F
  8
2-0
  6
CONTINUOUS
 62
     3
 10
4305.5151960000003
 20
20197.810110999981
 30
0.0
 40
5.0000010000000001
 50
0.0
 51
90.0
  0
ARC
  5
4540
  8
2-0
  6
CONTINUOUS
 62
     3
 10
4305.5151960000003
 20
20167.812485999981
 30
0.0
 40
5.0000010000000001
 50
269.9999850001808
 51
0.0
  0
ARC
  5
4541
  8
2-0
  6
CONTINUOUS
 62
     3
 10
13784.50597799999
 20
20167.812485999981
 30
0.0
 40
5.0000010000000001
 50
180.0
 51
269.9999850001808
  0
ARC
  5
4542
  8
2-0
  6
CONTINUOUS
 62
     3
 10
13784.50597799999
 20
20197.810110999981
 30
0.0
 40
5.0000010000000001
 50
90.0
 51
180.0
  0
ARC
  5
4543
  8
2-0
  6
CONTINUOUS
 62
     3
 10
13848.01190299999
 20
20197.810110999981
 30
0.0
 40
5.0000010000000001
 50
0.0
 51
90.0
  0
CIRCLE
  5
4544
  8
2-0
  6
CONTINUOUS
 62
     4
 10
7591.0079180000021
 20
21422.813409999992
 30
0.0
 40
200.00001
  0
CIRCLE
  5
4545
  8
2-0
  6
CONTINUOUS
 62
     4
 10
10499.007811999991
 20
21422.813409999992
 30
0.0
 40
200.00001
  0
CIRCLE
  5
4546
  8
2-0
  6
CONTINUOUS
 62
     4
 10
13767.507811999991
 20
21422.813409999992
 30
0.0
 40
200.00001
  0
TEXT
  5
4547
  8
2-0
  6
CONTINUOUS
 62
     7
 10
16941.517234999988
 20
1796.2264139999979
 30
0.0
 40
160.0
  1
H
  0
TEXT
  5
4548
  8
2-0
  6
CONTINUOUS
 62
     7
 10
15436.25270499999
 20
1796.2264139999979
 30
0.0
 40
160.0
  1
（ ）内寸法ハ、  タイプヲ示ス。
  0
TEXT
  5
4549
  8
2-0
  6
CONTINUOUS
 62
     7
 10
15548.81901899999
 20
1396.224351999999
 30
0.0
 40
160.0
  1
有効高サハ、基礎高サヲ含ミマセン。
  0
TEXT
  5
454A
  8
2-0
  6
CONTINUOUS
 62
     7
 10
4276.118394999995
 20
21342.634989999991
 30
0.0
 40
160.0
  1
1
 72
     4
 11
4302.7850616666619
 21
21422.634989999991
 31
0.0
  0
TEXT
  5
454B
  8
2-0
  6
CONTINUOUS
 62
     7
 10
2744.9221720000091
 20
19904.427640999969
 30
0.0
 40
160.0
  1
C
 72
     4
 11
2798.2555053333422
 21
19984.427640999969
 31
0.0
  0
TEXT
  5
454C
  8
2-0
  6
CONTINUOUS
 62
     7
 10
2745.1037920000072
 20
16981.50259899997
 30
0.0
 40
160.0
  1
B
 50
359.998582
 72
     4
 11
2798.4391052185101
 21
17061.501279041138
 31
0.0
  0
TEXT
  5
454D
  8
2-0
  6
CONTINUOUS
 62
     7
 10
2747.2035670000082
 20
13711.979187999979
 30
0.0
 40
160.0
  1
A
 50
359.99787299999991
 72
     4
 11
2800.5398701488448
 21
13791.97720804335
 31
0.0
  0
TEXT
  5
454E
  8
2-0
  6
CONTINUOUS
 62
     7
 10
6525.1589020000001
 20
20512.818820999979
 30
0.0
 40
160.0
  1
屋根
 50
359.99964599999993
 72
     4
 11
6695.8260629406532
 21
20592.817766540331
 31
0.0
  0
TEXT
  5
454F
  8
2-0
  6
CONTINUOUS
 62
     7
 10
5435.583376999999
 20
21232.815256999958
 30
0.0
 40
160.0
  1
鼻隠し後
 72
     4
 11
5798.250043666666
 21
21312.815256999958
 31
0.0
  0
TEXT
  5
4550
  8
2-0
  6
CONTINUOUS
 62
     7
 10
4874.1760710000026
 20
20512.818820999979
 30
0.0
 40
160.0
  1
桁（後）
 50
359.99982299999999
 72
     4
 11
5194.176318137098
 21
20592.817832445111
 31
0.0
  0
TEXT
  5
4551
  8
2-0
  6
CONTINUOUS
 62
     7
 10
5684.2415940000028
 20
17491.90958799997
 30
0.0
 40
160.0
  1
桁（中）
 50
359.99982299999999
 72
     4
 11
6004.2418411370982
 21
17571.908599445102
 31
0.0
  0
TEXT
  5
4552
  8
2-0
  6
CONTINUOUS
 62
     7
 10
5646.278881000002
 20
14245.143711999979
 30
0.0
 40
160.0
  1
桁（前）
 50
359.99973399999988
 72
     4
 11
5966.2792524026181
 21
14325.142226374859
 31
0.0
  0
TEXT
  5
4553
  8
2-0
  6
CONTINUOUS
 62
     7
 10
6553.7990720000034
 20
12881.31380599998
 30
0.0
 40
160.0
  1
鼻隠し前
 50
0.000532
 72
     4
 11
6916.4649958389064
 21
12961.31717341152
 31
0.0
  0
TEXT
  5
4554
  8
2-0
  6
CONTINUOUS
 62
     7
 10
2586.6126480000012
 20
12481.315454999971
 30
0.0
 40
160.0
  1
ケラバ 左
 50
359.99976400000008
 72
     4
 11
3002.6129775146351
 21
12561.31374150485
 31
0.0
  0
TEXT
  5
4555
  8
2-0
  6
CONTINUOUS
 62
     7
 10
4577.5328399999999
 20
18288.932629999981
 30
0.0
 40
160.0
  1
上枠
 50
359.99964599999993
 72
     4
 11
4748.2000009406547
 21
18368.93157554033
 31
0.0
  0
TEXT
  5
4556
  8
2-0
  6
CONTINUOUS
 62
     7
 10
5742.3335360000028
 20
16575.756716999971
 30
0.0
 40
160.0
  1
ブレース
 50
0.000177
 72
     4
 11
6104.999939050409
 21
16661.09117069465
 31
0.0
  0
TEXT
  5
4557
  8
2-0
  6
CONTINUOUS
 62
     7
 10
11622.290580000001
 20
21232.815256999958
 30
0.0
 40
160.0
  1
鼻隠しコーナー後
 72
     4
 11
12368.95724666667
 21
21312.815256999958
 31
0.0
  0
TEXT
  5
4558
  8
2-0
  6
CONTINUOUS
 62
     7
 10
7038.8222000000042
 20
15787.647024999969
 30
0.0
 40
160.0
  1
梁
 50
359.99893700000001
 72
     4
 11
7113.490350881817
 21
15867.64563970674
 31
0.0
  0
TEXT
  5
4559
  8
2-0
  6
CONTINUOUS
 62
     7
 10
7545.5987510000032
 20
21333.772685
 30
0.0
 40
160.0
  1
2
 50
359.998582
 72
     4
 11
7598.934064218507
 21
21413.771365041161
 31
0.0
  0
TEXT
  5
455A
  8
2-0
  6
CONTINUOUS
 62
     7
 10
10338.729366258371
 20
21358.547906331089
 30
0.0
 40
140.0
  1
n-1
 72
     4
 11
10502.062699591699
 21
21428.547906331089
 31
0.0
  0
TEXT
  5
455B
  8
2-0
  6
CONTINUOUS
 62
     7
 10
13720.731787999979
 20
21344.834234000009
 30
0.0
 40
160.0
  1
n
 72
     4
 11
13774.06512133332
 21
21398.167567333341
 31
0.0
  0
TEXT
  5
455C
  8
2-0
  6
CONTINUOUS
 62
     7
 10
7891.3998630000069
 20
11681.612238347439
 30
0.0
 40
160.0
  1
小 屋 伏 図
 50
359.99980699999981
 72
     4
 11
8392.7334658093314
 21
11761.610549612949
 31
0.0
  0
TEXT
  5
4565
  8
0-3
  6
CONTINUOUS
 62
     7
 10
27544.4346805186
 20
3658.1200421350532
 30
0.0
 40
160.0
  1
連結する場合は強度上、下記間口寸法に一ヶ所
  0
TEXT
  5
4566
  8
0-3
  6
CONTINUOUS
 62
     7
 10
27544.4346805186
 20
3451.291530856121
 30
0.0
 40
160.0
  1
中間ブレース、もしくは間仕切りが必要になります。
  0
TEXT
  5
4567
  8
0-3
  6
CONTINUOUS
 62
     7
 10
27544.4346805186
 20
3124.142197938243
 30
0.0
 40
160.0
  1
標準タイプ：間口寸法 10.57ｍ以内に一箇所
  0
TEXT
  5
4568
  8
0-3
  6
CONTINUOUS
 62
     7
 10
27571.745290429761
 20
2873.074148021421
 30
0.0
 40
160.0
  1
Hタイプ　：間口寸法 9.21ｍ以内に一箇所
  0
TEXT
  5
4569
  8
2-0
  6
CONTINUOUS
 62
     7
 10
9744.2256509469571
 20
11708.80591861295
 30
0.0
 40
160.0
  1
1
 72
     4
 11
9770.892317613625
 21
11788.80591861295
 31
0.0
  0
TEXT
  5
456A
  8
2-0
  6
CONTINUOUS
 62
     7
 10
9987.3143681976508
 20
11628.807386612951
 30
0.0
 40
160.0
  1
80
 72
     4
 11
10107.314368197651
 21
11708.807386612951
 31
0.0
  0
TEXT
  5
456B
  8
2-0
  6
CONTINUOUS
 62
     7
 10
9245.2276169469551
 20
11681.610549612949
 30
0.0
 40
160.0
  1
(S=  /   )
 72
     4
 11
9805.2276169469551
 21
11761.610549612949
 31
0.0
  0
LINE
  5
4576
  8
0-1
  6
CONTINUOUS
 62
     3
 10
26313.67678399997
 20
6212.7285879999972
 30
0.0
 11
26213.67744299996
 21
6212.7285879999972
 31
0.0
  0
LINE
  5
4577
  8
0-1
  6
CONTINUOUS
 62
     3
 10
26213.67744299996
 20
6212.7285879999972
 30
0.0
 11
26213.67744299996
 21
6112.7287530000012
 31
0.0
  0
LINE
  5
4578
  8
0-1
  6
CONTINUOUS
 62
     3
 10
26313.67678399997
 20
6112.7287530000012
 30
0.0
 11
26313.67678399997
 21
6212.7285879999972
 31
0.0
  0
LINE
  5
4579
  8
0-1
  6
CONTINUOUS
 62
     3
 10
26286.17731099997
 20
8561.2289369999999
 30
0.0
 11
26286.17731099997
 21
6212.7285879999972
 31
0.0
  0
LINE
  5
457A
  8
0-1
  6
CONTINUOUS
 62
     3
 10
26306.17638799996
 20
8431.2280139999984
 30
0.0
 11
26306.17638799996
 21
6212.7285879999972
 31
0.0
  0
LINE
  5
457B
  8
0-1
  6
CONTINUOUS
 62
     3
 10
26176.17744299995
 20
8120.7286469999981
 30
0.0
 11
26176.17744299995
 21
6112.7287530000012
 31
0.0
  0
LINE
  5
457C
  8
0-1
  6
CONTINUOUS
 62
     3
 10
26221.17783899996
 20
8431.2280139999984
 30
0.0
 11
26221.17783899996
 21
6212.7285879999972
 31
0.0
  0
LINE
  5
4587
  8
0-1
  6
CONTINUOUS
 62
     3
 10
22150.12755999999
 20
7546.4450679999973
 30
0.0
 11
21904.28322899999
 21
7731.8858739999978
 31
0.0
  0
LINE
  5
4588
  8
0-1
  6
CONTINUOUS
 62
     3
 10
21762.15973399999
 20
7463.3127109999969
 30
0.0
 11
21604.283229000001
 21
7582.4020330000021
 31
0.0
  0
LINE
  5
4589
  8
0-1
  6
CONTINUOUS
 62
     3
 10
21544.177126999981
 20
6933.6326340000023
 30
0.0
 11
22150.12755999999
 21
7546.4450679999973
 31
0.0
  0
LINE
  5
4590
  8
0-1
  6
CONTINUOUS
 62
     3
 10
21598.404058999979
 20
6892.728852000002
 30
0.0
 11
22907.677444000001
 21
6892.728852000002
 31
0.0
  0
LINE
  5
4591
  8
0-1
  6
CONTINUOUS
 62
     3
 10
21568.00261299999
 20
6957.7288189999999
 30
0.0
 11
22907.677444000001
 21
6957.7288189999999
 31
0.0
  0
LINE
  5
4592
  8
0-1
  6
CONTINUOUS
 62
     3
 10
21632.27560099999
 20
7022.7287859999997
 30
0.0
 11
22907.677444000001
 21
7022.7287859999997
 31
0.0
  0
LINE
  5
4593
  8
0-1
  6
CONTINUOUS
 62
     3
 10
21696.548589999991
 20
7087.7292480000024
 30
0.0
 11
22907.677444000001
 21
7087.7292480000024
 31
0.0
  0
LINE
  5
4594
  8
0-1
  6
CONTINUOUS
 62
     3
 10
21760.81959899998
 20
7152.7282249999971
 30
0.0
 11
22907.677444000001
 21
7152.7282249999971
 31
0.0
  0
LINE
  5
4595
  8
0-1
  6
CONTINUOUS
 62
     3
 10
21825.092587999981
 20
7217.7286870000007
 30
0.0
 11
22907.677444000001
 21
7217.7286870000007
 31
0.0
  0
LINE
  5
4596
  8
0-1
  6
CONTINUOUS
 62
     3
 10
21889.363597999982
 20
7282.7286539999968
 30
0.0
 11
22907.677444000001
 21
7282.7286539999968
 31
0.0
  0
LINE
  5
4597
  8
0-1
  6
CONTINUOUS
 62
     3
 10
21953.636585999979
 20
7347.7291160000004
 30
0.0
 11
22907.677444000001
 21
7347.7291160000004
 31
0.0
  0
LINE
  5
4598
  8
0-1
  6
CONTINUOUS
 62
     3
 10
22017.90759599999
 20
7412.7280929999979
 30
0.0
 11
22907.677444000001
 21
7412.7280929999979
 31
0.0
  0
LINE
  5
4599
  8
0-1
  6
CONTINUOUS
 62
     3
 10
22082.180583999991
 20
7477.7285550000033
 30
0.0
 11
22907.677444000001
 21
7477.7285550000033
 31
0.0
  0
LINE
  5
459A
  8
0-1
  6
CONTINUOUS
 62
     3
 10
22146.451593999991
 20
7542.7285220000031
 30
0.0
 11
22907.677444000001
 21
7542.7285220000031
 31
0.0
  0
LINE
  5
459B
  8
0-1
  6
CONTINUOUS
 62
     3
 10
22068.882178999971
 20
7607.7284890000019
 30
0.0
 11
22907.677444000001
 21
7607.7284890000019
 31
0.0
  0
LINE
  5
459C
  8
0-1
  6
CONTINUOUS
 62
     3
 10
21982.707795999992
 20
7672.7289510000028
 30
0.0
 11
22907.677444000001
 21
7672.7289510000028
 31
0.0
  0
LINE
  5
459D
  8
0-1
  6
CONTINUOUS
 62
     3
 10
21904.28322899999
 20
7737.7289180000007
 30
0.0
 11
22907.677444000001
 21
7737.7289180000007
 31
0.0
  0
LINE
  5
459E
  8
0-1
  6
CONTINUOUS
 62
     3
 10
21904.28322899999
 20
7802.7293799999989
 30
0.0
 11
22907.677444000001
 21
7802.7293799999989
 31
0.0
  0
LINE
  5
459F
  8
0-1
  6
CONTINUOUS
 62
     3
 10
21904.28322899999
 20
7867.7283569999972
 30
0.0
 11
22907.677444000001
 21
7867.7283569999972
 31
0.0
  0
LINE
  5
45A0
  8
0-1
  6
CONTINUOUS
 62
     3
 10
21904.28322899999
 20
7932.7288190000027
 30
0.0
 11
22907.677444000001
 21
7932.7288190000027
 31
0.0
  0
LINE
  5
45A1
  8
0-1
  6
CONTINUOUS
 62
     3
 10
21904.28322899999
 20
7997.7287859999969
 30
0.0
 11
22907.677444000001
 21
7997.7287859999969
 31
0.0
  0
LINE
  5
45A2
  8
0-1
  6
CONTINUOUS
 62
     3
 10
21904.28322899999
 20
8052.1883109999999
 30
0.0
 11
22907.677444000001
 21
8052.1883109999999
 31
0.0
  0
LINE
  5
45A3
  8
0-1
  6
CONTINUOUS
 62
     3
 10
21904.28322899999
 20
8120.7286469999981
 30
0.0
 11
23710.67113599999
 21
8120.7286469999981
 31
0.0
  0
LINE
  5
45A6
  8
0-1
  6
CONTINUOUS
 62
     3
 10
21904.28322899999
 20
6662.0030939999988
 30
0.0
 11
21904.28322899999
 21
5695.3695289999996
 31
0.0
  0
LINE
  5
45A7
  8
0-1
  6
CONTINUOUS
 62
     3
 10
21604.283229000001
 20
6512.5172739999998
 30
0.0
 11
21604.283229000001
 21
5695.3695289999996
 31
0.0
  0
LINE
  5
45A8
  8
0-1
  6
CONTINUOUS
 62
     3
 10
21904.28322899999
 20
6177.7282249999989
 30
0.0
 11
22907.677444000001
 21
6177.7282249999989
 31
0.0
  0
LINE
  5
45A9
  8
0-1
  6
CONTINUOUS
 62
     3
 10
21904.28322899999
 20
6242.7291819999991
 30
0.0
 11
22907.677444000001
 21
6242.7291819999991
 31
0.0
  0
LINE
  5
45AA
  8
0-1
  6
CONTINUOUS
 62
     3
 10
21904.28322899999
 20
6307.7281590000002
 30
0.0
 11
22907.677444000001
 21
6307.7281590000002
 31
0.0
  0
LINE
  5
45AB
  8
0-1
  6
CONTINUOUS
 62
     3
 10
21904.28322899999
 20
6437.7285880000027
 30
0.0
 11
22907.677444000001
 21
6437.7285880000027
 31
0.0
  0
LINE
  5
45AC
  8
0-1
  6
CONTINUOUS
 62
     3
 10
21904.28322899999
 20
6372.7291159999977
 30
0.0
 11
22907.677444000001
 21
6372.7291159999977
 31
0.0
  0
LINE
  5
45AD
  8
0-1
  6
CONTINUOUS
 62
     3
 10
21904.28322899999
 20
6502.7285549999997
 30
0.0
 11
22907.677444000001
 21
6502.7285549999997
 31
0.0
  0
LINE
  5
45AE
  8
0-1
  6
CONTINUOUS
 62
     3
 10
21904.28322899999
 20
6567.7285220000022
 30
0.0
 11
22907.677444000001
 21
6567.7285220000022
 31
0.0
  0
LINE
  5
45AF
  8
0-1
  6
CONTINUOUS
 62
     3
 10
21904.28322899999
 20
6632.7279940000008
 30
0.0
 11
22907.677444000001
 21
6632.7279940000008
 31
0.0
  0
LINE
  5
45B0
  8
0-1
  6
CONTINUOUS
 62
     3
 10
21856.92126799998
 20
6697.7294460000012
 30
0.0
 11
22907.677444000001
 21
6697.7294460000012
 31
0.0
  0
LINE
  5
45B1
  8
0-1
  6
CONTINUOUS
 62
     3
 10
21770.746884999979
 20
6762.7284230000032
 30
0.0
 11
22907.677444000001
 21
6762.7284230000032
 31
0.0
  0
LINE
  5
45B2
  8
0-1
  6
CONTINUOUS
 62
     3
 10
21684.574481999982
 20
6827.7288849999986
 30
0.0
 11
22907.677444000001
 21
6827.7288849999986
 31
0.0
  0
LINE
  5
45B3
  8
0-1
  6
CONTINUOUS
 62
     3
 10
22952.677839999971
 20
8431.2280139999984
 30
0.0
 11
22952.677839999971
 21
6112.7287530000012
 31
0.0
  0
LINE
  5
45B4
  8
0-1
  6
CONTINUOUS
 62
     3
 10
23037.674407999992
 20
8431.2280139999984
 30
0.0
 11
23037.674407999992
 21
6112.7287530000012
 31
0.0
  0
LINE
  5
45B5
  8
0-1
  6
CONTINUOUS
 62
     3
 10
23082.674803999998
 20
8120.7286469999981
 30
0.0
 11
23082.674803999998
 21
6112.7287530000012
 31
0.0
  0
LINE
  5
45B6
  8
0-1
  6
CONTINUOUS
 62
     3
 10
22907.677444000001
 20
8120.7286469999981
 30
0.0
 11
22907.677444000001
 21
6112.7287530000012
 31
0.0
  0
LINE
  5
45B7
  8
0-1
  6
CONTINUOUS
 62
     3
 10
21904.28322899999
 20
6662.0030939999988
 30
0.0
 11
21544.177126999981
 21
6933.6326340000023
 31
0.0
  0
LINE
  5
45BA
  8
0-1
  6
CONTINUOUS
 62
     3
 10
23082.674803999998
 20
8052.1883109999999
 30
0.0
 11
26176.17744299995
 21
8052.1883109999999
 31
0.0
  0
LINE
  5
45BB
  8
0-1
  6
CONTINUOUS
 62
     3
 10
23082.674803999998
 20
6697.7294460000012
 30
0.0
 11
26176.17744299995
 21
6697.7294460000012
 31
0.0
  0
LINE
  5
45BC
  8
0-1
  6
CONTINUOUS
 62
     3
 10
23082.674803999998
 20
6762.7284230000032
 30
0.0
 11
26176.17744299995
 21
6762.7284230000032
 31
0.0
  0
LINE
  5
45BD
  8
0-1
  6
CONTINUOUS
 62
     3
 10
23082.674803999998
 20
6827.7288849999986
 30
0.0
 11
26176.17744299995
 21
6827.7288849999986
 31
0.0
  0
LINE
  5
45BE
  8
0-1
  6
CONTINUOUS
 62
     3
 10
23082.674803999998
 20
6892.728852000002
 30
0.0
 11
26176.17744299995
 21
6892.728852000002
 31
0.0
  0
LINE
  5
45BF
  8
0-1
  6
CONTINUOUS
 62
     3
 10
23082.674803999998
 20
6957.7288189999999
 30
0.0
 11
26176.17744299995
 21
6957.7288189999999
 31
0.0
  0
LINE
  5
45C0
  8
0-1
  6
CONTINUOUS
 62
     3
 10
23082.674803999998
 20
7022.7287859999997
 30
0.0
 11
26176.17744299995
 21
7022.7287859999997
 31
0.0
  0
LINE
  5
45C1
  8
0-1
  6
CONTINUOUS
 62
     3
 10
23082.674803999998
 20
7087.7292480000024
 30
0.0
 11
26176.17744299995
 21
7087.7292480000024
 31
0.0
  0
LINE
  5
45C2
  8
0-1
  6
CONTINUOUS
 62
     3
 10
23082.674803999998
 20
7152.7282249999971
 30
0.0
 11
26176.17744299995
 21
7152.7282249999971
 31
0.0
  0
LINE
  5
45C3
  8
0-1
  6
CONTINUOUS
 62
     3
 10
23082.674803999998
 20
7217.7286870000007
 30
0.0
 11
26176.17744299995
 21
7217.7286870000007
 31
0.0
  0
LINE
  5
45C4
  8
0-1
  6
CONTINUOUS
 62
     3
 10
23082.674803999998
 20
7282.7286539999968
 30
0.0
 11
26176.17744299995
 21
7282.7286539999968
 31
0.0
  0
LINE
  5
45C5
  8
0-1
  6
CONTINUOUS
 62
     3
 10
23082.674803999998
 20
7347.7291160000004
 30
0.0
 11
26176.17744299995
 21
7347.7291160000004
 31
0.0
  0
LINE
  5
45C6
  8
0-1
  6
CONTINUOUS
 62
     3
 10
23082.674803999998
 20
7412.7280929999979
 30
0.0
 11
26176.17744299995
 21
7412.7280929999979
 31
0.0
  0
LINE
  5
45C7
  8
0-1
  6
CONTINUOUS
 62
     3
 10
23082.674803999998
 20
7477.7285550000033
 30
0.0
 11
26176.17744299995
 21
7477.7285550000033
 31
0.0
  0
LINE
  5
45C8
  8
0-1
  6
CONTINUOUS
 62
     3
 10
23082.674803999998
 20
7542.7285220000031
 30
0.0
 11
26176.17744299995
 21
7542.7285220000031
 31
0.0
  0
LINE
  5
45C9
  8
0-1
  6
CONTINUOUS
 62
     3
 10
23082.674803999998
 20
7607.7284890000019
 30
0.0
 11
26176.17744299995
 21
7607.7284890000019
 31
0.0
  0
LINE
  5
45CA
  8
0-1
  6
CONTINUOUS
 62
     3
 10
23082.674803999998
 20
7672.7289510000028
 30
0.0
 11
26176.17744299995
 21
7672.7289510000028
 31
0.0
  0
LINE
  5
45CB
  8
0-1
  6
CONTINUOUS
 62
     3
 10
23082.674803999998
 20
7737.7289180000007
 30
0.0
 11
26176.17744299995
 21
7737.7289180000007
 31
0.0
  0
LINE
  5
45CC
  8
0-1
  6
CONTINUOUS
 62
     3
 10
23082.674803999998
 20
7802.7293799999989
 30
0.0
 11
26176.17744299995
 21
7802.7293799999989
 31
0.0
  0
LINE
  5
45CD
  8
0-1
  6
CONTINUOUS
 62
     3
 10
23082.674803999998
 20
7867.7283569999972
 30
0.0
 11
26176.17744299995
 21
7867.7283569999972
 31
0.0
  0
LINE
  5
45CE
  8
0-1
  6
CONTINUOUS
 62
     3
 10
23082.674803999998
 20
7932.7288190000027
 30
0.0
 11
26176.17744299995
 21
7932.7288190000027
 31
0.0
  0
LINE
  5
45CF
  8
0-1
  6
CONTINUOUS
 62
     3
 10
23082.674803999998
 20
7997.7287859999969
 30
0.0
 11
26176.17744299995
 21
7997.7287859999969
 31
0.0
  0
LINE
  5
45D0
  8
0-1
  6
CONTINUOUS
 62
     3
 10
23082.674803999998
 20
6177.7282249999989
 30
0.0
 11
26176.17744299995
 21
6177.7282249999989
 31
0.0
  0
LINE
  5
45D1
  8
0-1
  6
CONTINUOUS
 62
     3
 10
23082.674803999998
 20
6242.7291819999991
 30
0.0
 11
26176.17744299995
 21
6242.7291819999991
 31
0.0
  0
LINE
  5
45D2
  8
0-1
  6
CONTINUOUS
 62
     3
 10
23082.674803999998
 20
6307.7281590000002
 30
0.0
 11
26176.17744299995
 21
6307.7281590000002
 31
0.0
  0
LINE
  5
45D3
  8
0-1
  6
CONTINUOUS
 62
     3
 10
23082.674803999998
 20
6372.7291159999977
 30
0.0
 11
26176.17744299995
 21
6372.7291159999977
 31
0.0
  0
LINE
  5
45D4
  8
0-1
  6
CONTINUOUS
 62
     3
 10
23082.674803999998
 20
6437.7285880000027
 30
0.0
 11
26176.17744299995
 21
6437.7285880000027
 31
0.0
  0
LINE
  5
45D5
  8
0-1
  6
CONTINUOUS
 62
     3
 10
23082.674803999998
 20
6502.7285549999997
 30
0.0
 11
26176.17744299995
 21
6502.7285549999997
 31
0.0
  0
LINE
  5
45D6
  8
0-1
  6
CONTINUOUS
 62
     3
 10
23082.674803999998
 20
6567.7285220000022
 30
0.0
 11
26176.17744299995
 21
6567.7285220000022
 31
0.0
  0
LINE
  5
45D7
  8
0-1
  6
CONTINUOUS
 62
     3
 10
23082.674803999998
 20
6632.7279940000008
 30
0.0
 11
26176.17744299995
 21
6632.7279940000008
 31
0.0
  0
LINE
  5
45D9
  8
0-1
  6
CONTINUOUS
 62
     3
 10
23037.674407999992
 20
8120.7286469999981
 30
0.0
 11
26221.17783899996
 21
8120.7286469999981
 31
0.0
  0
LINE
  5
45DA
  8
0-1
  6
CONTINUOUS
 62
     3
 10
21904.28322899999
 20
6112.7287530000012
 30
0.0
 11
26313.67678399997
 21
6112.7287530000012
 31
0.0
  0
LINE
  5
45DC
  8
0-1
  6
CONTINUOUS
 62
     3
 10
21904.28322899999
 20
7731.8858739999978
 30
0.0
 11
21904.28322899999
 21
8935.9082550000021
 31
0.0
  0
LINE
  5
45DD
  8
0-1
  6
CONTINUOUS
 62
     3
 10
21604.283229000001
 20
7582.4020330000021
 30
0.0
 11
21604.283229000001
 21
8935.9082550000021
 31
0.0
  0
LINE
  5
45E7
  8
0-1
  6
CONTINUOUS
 62
     3
 10
20582.669525999991
 20
6892.728852000002
 30
0.0
 11
21197.967244999982
 21
6892.728852000002
 31
0.0
  0
LINE
  5
45E8
  8
0-1
  6
CONTINUOUS
 62
     3
 10
20582.669525999991
 20
6957.7288189999999
 30
0.0
 11
21262.238253999982
 21
6957.7288189999999
 31
0.0
  0
LINE
  5
45E9
  8
0-1
  6
CONTINUOUS
 62
     3
 10
20582.669525999991
 20
7022.7287859999997
 30
0.0
 11
21326.51124299999
 21
7022.7287859999997
 31
0.0
  0
LINE
  5
45EA
  8
0-1
  6
CONTINUOUS
 62
     3
 10
20582.669525999991
 20
7087.7292480000024
 30
0.0
 11
21390.782252999968
 21
7087.7292480000024
 31
0.0
  0
LINE
  5
45EB
  8
0-1
  6
CONTINUOUS
 62
     3
 10
20582.669525999991
 20
7152.7282249999971
 30
0.0
 11
21455.055240999991
 21
7152.7282249999971
 31
0.0
  0
LINE
  5
45EC
  8
0-1
  6
CONTINUOUS
 62
     3
 10
20582.669525999991
 20
7217.7286870000007
 30
0.0
 11
21519.326250999991
 21
7217.7286870000007
 31
0.0
  0
LINE
  5
45F4
  8
0-1
  6
CONTINUOUS
 62
     3
 10
20582.669525999991
 20
6697.7294460000012
 30
0.0
 11
21358.745723999989
 21
6697.7294460000012
 31
0.0
  0
LINE
  5
45F5
  8
0-1
  6
CONTINUOUS
 62
     3
 10
20582.669525999991
 20
6762.7284230000032
 30
0.0
 11
21272.573320999982
 21
6762.7284230000032
 31
0.0
  0
LINE
  5
45F6
  8
0-1
  6
CONTINUOUS
 62
     3
 10
20582.669525999991
 20
6827.7288849999986
 30
0.0
 11
21186.398938999992
 21
6827.7288849999986
 31
0.0
  0
LINE
  5
45F7
  8
0-1
  6
CONTINUOUS
 62
     3
 10
20582.669525999991
 20
6632.7279940000008
 30
0.0
 11
21444.914167999981
 21
6632.7279940000008
 31
0.0
  0
LINE
  5
45F8
  8
0-1
  6
CONTINUOUS
 62
     3
 10
20452.670580999991
 20
8431.2280139999984
 30
0.0
 11
20452.670580999991
 21
6112.7287530000012
 31
0.0
  0
LINE
  5
45F9
  8
0-1
  6
CONTINUOUS
 62
     3
 10
20407.672164999982
 20
8120.7286469999981
 30
0.0
 11
20407.672164999982
 21
6112.7287530000012
 31
0.0
  0
LINE
  5
45FA
  8
0-1
  6
CONTINUOUS
 62
     3
 10
20537.673088999982
 20
8431.2280139999984
 30
0.0
 11
20537.673088999982
 21
6112.7287530000012
 31
0.0
  0
LINE
  5
45FB
  8
0-1
  6
CONTINUOUS
 62
     3
 10
20582.669525999991
 20
8120.7286469999981
 30
0.0
 11
20582.669525999991
 21
6112.7287530000012
 31
0.0
  0
LINE
  5
45FC
  8
0-1
  6
CONTINUOUS
 62
     3
 10
20582.669525999991
 20
8120.7286469999981
 30
0.0
 11
20582.669525999991
 21
6112.7287530000012
 31
0.0
  0
LINE
  5
4607
  8
0-1
  6
CONTINUOUS
 62
     3
 10
17276.671504999991
 20
6212.7285879999972
 30
0.0
 11
17276.671504999991
 21
6112.7287530000012
 31
0.0
  0
LINE
  5
4608
  8
0-1
  6
CONTINUOUS
 62
     3
 10
17176.670185999999
 20
6112.7287530000012
 30
0.0
 11
17176.670185999999
 21
6212.7285879999972
 31
0.0
  0
LINE
  5
4609
  8
0-1
  6
CONTINUOUS
 62
     3
 10
17176.670185999999
 20
6212.7285879999972
 30
0.0
 11
17276.671504999991
 21
6212.7285879999972
 31
0.0
  0
LINE
  5
460A
  8
0-1
  6
CONTINUOUS
 62
     3
 10
17314.171504999998
 20
8120.7286469999981
 30
0.0
 11
17314.171504999998
 21
6112.7287530000012
 31
0.0
  0
LINE
  5
460B
  8
0-1
  6
CONTINUOUS
 62
     3
 10
17269.169129999991
 20
8431.2280139999984
 30
0.0
 11
17269.169129999991
 21
6212.7285879999972
 31
0.0
  0
LINE
  5
460C
  8
0-1
  6
CONTINUOUS
 62
     3
 10
17204.171636999981
 20
8561.2289369999999
 30
0.0
 11
17204.171636999981
 21
6212.7285879999972
 31
0.0
  0
LINE
  5
460D
  8
0-1
  6
CONTINUOUS
 62
     3
 10
17184.168602000002
 20
8431.2280139999984
 30
0.0
 11
17184.168602000002
 21
6212.7285879999972
 31
0.0
  0
LINE
  5
460E
  8
0-1
  6
CONTINUOUS
 62
     3
 10
17269.169129999991
 20
8120.7286469999981
 30
0.0
 11
20452.670580999991
 21
8120.7286469999981
 31
0.0
  0
LINE
  5
4610
  8
0-1
  6
CONTINUOUS
 62
     3
 10
17314.171504999998
 20
6632.7279940000008
 30
0.0
 11
20407.672164999982
 21
6632.7279940000008
 31
0.0
  0
LINE
  5
4611
  8
0-1
  6
CONTINUOUS
 62
     3
 10
17314.171504999998
 20
6567.7285220000022
 30
0.0
 11
20407.672164999982
 21
6567.7285220000022
 31
0.0
  0
LINE
  5
4612
  8
0-1
  6
CONTINUOUS
 62
     3
 10
17314.171504999998
 20
6502.7285549999997
 30
0.0
 11
20407.672164999982
 21
6502.7285549999997
 31
0.0
  0
LINE
  5
4613
  8
0-1
  6
CONTINUOUS
 62
     3
 10
17314.171504999998
 20
6437.7285880000027
 30
0.0
 11
20407.672164999982
 21
6437.7285880000027
 31
0.0
  0
LINE
  5
4614
  8
0-1
  6
CONTINUOUS
 62
     3
 10
17314.171504999998
 20
6372.7291159999977
 30
0.0
 11
20407.672164999982
 21
6372.7291159999977
 31
0.0
  0
LINE
  5
4615
  8
0-1
  6
CONTINUOUS
 62
     3
 10
17314.171504999998
 20
6307.7281590000002
 30
0.0
 11
20407.672164999982
 21
6307.7281590000002
 31
0.0
  0
LINE
  5
4616
  8
0-1
  6
CONTINUOUS
 62
     3
 10
17314.171504999998
 20
6242.7291819999991
 30
0.0
 11
20407.672164999982
 21
6242.7291819999991
 31
0.0
  0
LINE
  5
4617
  8
0-1
  6
CONTINUOUS
 62
     3
 10
17314.171504999998
 20
6177.7282249999989
 30
0.0
 11
20407.672164999982
 21
6177.7282249999989
 31
0.0
  0
LINE
  5
4618
  8
0-1
  6
CONTINUOUS
 62
     3
 10
17314.171504999998
 20
7997.7287859999969
 30
0.0
 11
20407.672164999982
 21
7997.7287859999969
 31
0.0
  0
LINE
  5
4619
  8
0-1
  6
CONTINUOUS
 62
     3
 10
17314.171504999998
 20
7932.7288190000027
 30
0.0
 11
20407.672164999982
 21
7932.7288190000027
 31
0.0
  0
LINE
  5
461A
  8
0-1
  6
CONTINUOUS
 62
     3
 10
17314.171504999998
 20
7867.7283569999972
 30
0.0
 11
20407.672164999982
 21
7867.7283569999972
 31
0.0
  0
LINE
  5
461B
  8
0-1
  6
CONTINUOUS
 62
     3
 10
17314.171504999998
 20
7802.7293799999989
 30
0.0
 11
20407.672164999982
 21
7802.7293799999989
 31
0.0
  0
LINE
  5
461C
  8
0-1
  6
CONTINUOUS
 62
     3
 10
17314.171504999998
 20
7737.7289180000007
 30
0.0
 11
20407.672164999982
 21
7737.7289180000007
 31
0.0
  0
LINE
  5
461D
  8
0-1
  6
CONTINUOUS
 62
     3
 10
17314.171504999998
 20
7672.7289510000028
 30
0.0
 11
20407.672164999982
 21
7672.7289510000028
 31
0.0
  0
LINE
  5
461E
  8
0-1
  6
CONTINUOUS
 62
     3
 10
17314.171504999998
 20
7607.7284890000019
 30
0.0
 11
20407.672164999982
 21
7607.7284890000019
 31
0.0
  0
LINE
  5
461F
  8
0-1
  6
CONTINUOUS
 62
     3
 10
17314.171504999998
 20
7542.7285220000031
 30
0.0
 11
20407.672164999982
 21
7542.7285220000031
 31
0.0
  0
LINE
  5
4620
  8
0-1
  6
CONTINUOUS
 62
     3
 10
17314.171504999998
 20
7477.7285550000033
 30
0.0
 11
20407.672164999982
 21
7477.7285550000033
 31
0.0
  0
LINE
  5
4621
  8
0-1
  6
CONTINUOUS
 62
     3
 10
17314.171504999998
 20
7412.7280929999979
 30
0.0
 11
20407.672164999982
 21
7412.7280929999979
 31
0.0
  0
LINE
  5
4622
  8
0-1
  6
CONTINUOUS
 62
     3
 10
17314.171504999998
 20
7347.7291160000004
 30
0.0
 11
20407.672164999982
 21
7347.7291160000004
 31
0.0
  0
LINE
  5
4623
  8
0-1
  6
CONTINUOUS
 62
     3
 10
17314.171504999998
 20
7282.7286539999968
 30
0.0
 11
20407.672164999982
 21
7282.7286539999968
 31
0.0
  0
LINE
  5
4624
  8
0-1
  6
CONTINUOUS
 62
     3
 10
17314.171504999998
 20
7217.7286870000007
 30
0.0
 11
20407.672164999982
 21
7217.7286870000007
 31
0.0
  0
LINE
  5
4625
  8
0-1
  6
CONTINUOUS
 62
     3
 10
17314.171504999998
 20
7152.7282249999971
 30
0.0
 11
20407.672164999982
 21
7152.7282249999971
 31
0.0
  0
LINE
  5
4626
  8
0-1
  6
CONTINUOUS
 62
     3
 10
17314.171504999998
 20
7087.7292480000024
 30
0.0
 11
20407.672164999982
 21
7087.7292480000024
 31
0.0
  0
LINE
  5
4627
  8
0-1
  6
CONTINUOUS
 62
     3
 10
17314.171504999998
 20
7022.7287859999997
 30
0.0
 11
20407.672164999982
 21
7022.7287859999997
 31
0.0
  0
LINE
  5
4628
  8
0-1
  6
CONTINUOUS
 62
     3
 10
17314.171504999998
 20
6957.7288189999999
 30
0.0
 11
20407.672164999982
 21
6957.7288189999999
 31
0.0
  0
LINE
  5
4629
  8
0-1
  6
CONTINUOUS
 62
     3
 10
17314.171504999998
 20
6892.728852000002
 30
0.0
 11
20407.672164999982
 21
6892.728852000002
 31
0.0
  0
LINE
  5
462A
  8
0-1
  6
CONTINUOUS
 62
     3
 10
17314.171504999998
 20
6827.7288849999986
 30
0.0
 11
20407.672164999982
 21
6827.7288849999986
 31
0.0
  0
LINE
  5
462B
  8
0-1
  6
CONTINUOUS
 62
     3
 10
17314.171504999998
 20
6762.7284230000032
 30
0.0
 11
20407.672164999982
 21
6762.7284230000032
 31
0.0
  0
LINE
  5
462C
  8
0-1
  6
CONTINUOUS
 62
     3
 10
17314.171504999998
 20
6697.7294460000012
 30
0.0
 11
20407.672164999982
 21
6697.7294460000012
 31
0.0
  0
LINE
  5
462D
  8
0-1
  6
CONTINUOUS
 62
     3
 10
17314.171504999998
 20
8052.1883109999999
 30
0.0
 11
20407.672164999982
 21
8052.1883109999999
 31
0.0
  0
LINE
  5
4630
  8
0-1
  6
CONTINUOUS
 62
     3
 10
17176.670185999999
 20
6112.7287530000012
 30
0.0
 11
21604.283229000001
 21
6112.7287530000012
 31
0.0
  0
LINE
  5
4633
  8
0-1
  6
CONTINUOUS
 62
     3
 10
20582.669525999991
 20
8052.1883109999999
 30
0.0
 11
21604.283229000001
 21
8052.1883109999999
 31
0.0
  0
LINE
  5
4634
  8
0-1
  6
CONTINUOUS
 62
     3
 10
20582.669525999991
 20
7282.7286539999968
 30
0.0
 11
21583.599238999981
 21
7282.7286539999968
 31
0.0
  0
LINE
  5
4635
  8
0-1
  6
CONTINUOUS
 62
     3
 10
20582.669525999991
 20
7347.7291160000004
 30
0.0
 11
21647.870248999981
 21
7347.7291160000004
 31
0.0
  0
LINE
  5
4636
  8
0-1
  6
CONTINUOUS
 62
     3
 10
20582.669525999991
 20
7412.7280929999979
 30
0.0
 11
21712.14323799999
 21
7412.7280929999979
 31
0.0
  0
LINE
  5
4637
  8
0-1
  6
CONTINUOUS
 62
     3
 10
20582.669525999991
 20
7477.7285550000033
 30
0.0
 11
21743.047481999991
 21
7477.7285550000033
 31
0.0
  0
LINE
  5
4638
  8
0-1
  6
CONTINUOUS
 62
     3
 10
20582.669525999991
 20
7542.7285220000031
 30
0.0
 11
21656.879037999981
 21
7542.7285220000031
 31
0.0
  0
LINE
  5
4639
  8
0-1
  6
CONTINUOUS
 62
     3
 10
20582.669525999991
 20
7607.7284890000019
 30
0.0
 11
21604.283229000001
 21
7607.7284890000019
 31
0.0
  0
LINE
  5
463A
  8
0-1
  6
CONTINUOUS
 62
     3
 10
20582.669525999991
 20
7672.7289510000028
 30
0.0
 11
21604.283229000001
 21
7672.7289510000028
 31
0.0
  0
LINE
  5
463B
  8
0-1
  6
CONTINUOUS
 62
     3
 10
20582.669525999991
 20
7737.7289180000007
 30
0.0
 11
21604.283229000001
 21
7737.7289180000007
 31
0.0
  0
LINE
  5
463C
  8
0-1
  6
CONTINUOUS
 62
     3
 10
20582.669525999991
 20
7802.7293799999989
 30
0.0
 11
21604.283229000001
 21
7802.7293799999989
 31
0.0
  0
LINE
  5
463D
  8
0-1
  6
CONTINUOUS
 62
     3
 10
20582.669525999991
 20
7867.7283569999972
 30
0.0
 11
21604.283229000001
 21
7867.7283569999972
 31
0.0
  0
LINE
  5
463E
  8
0-1
  6
CONTINUOUS
 62
     3
 10
20582.669525999991
 20
7932.7288190000027
 30
0.0
 11
21604.283229000001
 21
7932.7288190000027
 31
0.0
  0
LINE
  5
463F
  8
0-1
  6
CONTINUOUS
 62
     3
 10
20582.669525999991
 20
7997.7287859999969
 30
0.0
 11
21604.283229000001
 21
7997.7287859999969
 31
0.0
  0
LINE
  5
4640
  8
0-1
  6
CONTINUOUS
 62
     3
 10
20582.669525999991
 20
6177.7282249999989
 30
0.0
 11
21604.283229000001
 21
6177.7282249999989
 31
0.0
  0
LINE
  5
4641
  8
0-1
  6
CONTINUOUS
 62
     3
 10
20582.669525999991
 20
6242.7291819999991
 30
0.0
 11
21604.283229000001
 21
6242.7291819999991
 31
0.0
  0
LINE
  5
4642
  8
0-1
  6
CONTINUOUS
 62
     3
 10
20582.669525999991
 20
6307.7281590000002
 30
0.0
 11
21604.283229000001
 21
6307.7281590000002
 31
0.0
  0
LINE
  5
4643
  8
0-1
  6
CONTINUOUS
 62
     3
 10
20582.669525999991
 20
6372.7291159999977
 30
0.0
 11
21604.283229000001
 21
6372.7291159999977
 31
0.0
  0
LINE
  5
4644
  8
0-1
  6
CONTINUOUS
 62
     3
 10
20582.669525999991
 20
6437.7285880000027
 30
0.0
 11
21604.283229000001
 21
6437.7285880000027
 31
0.0
  0
LINE
  5
4645
  8
0-1
  6
CONTINUOUS
 62
     3
 10
20582.669525999991
 20
6502.7285549999997
 30
0.0
 11
21604.283229000001
 21
6502.7285549999997
 31
0.0
  0
LINE
  5
4646
  8
0-1
  6
CONTINUOUS
 62
     3
 10
20582.669525999991
 20
6567.7285220000022
 30
0.0
 11
21531.086570999982
 21
6567.7285220000022
 31
0.0
  0
LINE
  5
4647
  8
0-1
  6
CONTINUOUS
 62
     3
 10
20537.673088999982
 20
8120.7286469999981
 30
0.0
 11
21604.283229000001
 21
8120.7286469999981
 31
0.0
  0
LINE
  5
4648
  8
0-1
  6
CONTINUOUS
 62
     3
 10
21604.283229000001
 20
6512.5172739999998
 30
0.0
 11
21156.211279999981
 21
6850.5002769999983
 31
0.0
  0
LINE
  5
4649
  8
0-1
  6
CONTINUOUS
 62
     3
 10
21762.15973399999
 20
7463.3127109999969
 30
0.0
 11
21156.211279999981
 21
6850.5002769999983
 31
0.0
  0
LINE
  5
464D
  8
0-2
  6
CONTINUOUS
 62
     4
 10
24993.118123999971
 20
6859.9544569999989
 30
0.0
 11
24893.11878399998
 21
6859.9544569999989
 31
0.0
  0
LINE
  5
464E
  8
0-2
  6
CONTINUOUS
 62
     4
 10
24265.73214399998
 20
6859.9544569999989
 30
0.0
 11
24365.73148499996
 21
6859.9544569999989
 31
0.0
  0
LINE
  5
464F
  8
0-2
  6
CONTINUOUS
 62
     4
 10
19224.611855499999
 20
6859.9544569999989
 30
0.0
 11
19124.612515500001
 21
6859.9544569999989
 31
0.0
  0
LINE
  5
4650
  8
0-2
  6
CONTINUOUS
 62
     4
 10
18497.227854500001
 20
6859.9544569999989
 30
0.0
 11
18597.225215499991
 21
6859.9544569999989
 31
0.0
  0
LINE
  5
4651
  8
0-5
  6
CONTINUOUS
 62
     4
 10
13159.38080600001
 20
6112.7287530000003
 30
0.0
 11
17096.669922000001
 21
6112.7287530000012
 31
0.0
  0
LINE
  5
4652
  8
0-5
  6
CONTINUOUS
 62
     4
 10
26263.676123999961
 20
4432.7286539999986
 30
0.0
 11
26263.676123999961
 21
4272.728621000002
 31
0.0
  0
LINE
  5
4653
  8
0-5
  6
CONTINUOUS
 62
     4
 10
22995.176123999961
 20
4432.7286539999986
 30
0.0
 11
22995.176123999961
 21
4272.728621000002
 31
0.0
  0
LINE
  5
4654
  8
0-5
  6
CONTINUOUS
 62
     4
 10
20495.17084499999
 20
4432.7286539999986
 30
0.0
 11
20495.17084499999
 21
4272.728621000002
 31
0.0
  0
LINE
  5
4655
  8
0-5
  6
CONTINUOUS
 62
     4
 10
17226.670844999979
 20
4432.7286539999986
 30
0.0
 11
17226.670844999979
 21
4272.728621000002
 31
0.0
  0
LINE
  5
4656
  8
0-5
  6
CONTINUOUS
 62
     4
 10
15344.79003899999
 20
6320.5742450000034
 30
0.0
 11
15464.787466
 21
6112.7287530000012
 31
0.0
  0
LINE
  5
4657
  8
0-5
  6
CONTINUOUS
 62
     4
 10
15464.787466
 20
6112.7287530000012
 30
0.0
 11
15584.786872000001
 21
6320.5742450000034
 31
0.0
  0
LINE
  5
4658
  8
0-5
  6
CONTINUOUS
 62
     4
 10
15584.786872000001
 20
6320.5742450000034
 30
0.0
 11
15344.79003899999
 21
6320.5742450000034
 31
0.0
  0
LINE
  5
4659
  8
0-5
  6
CONTINUOUS
 62
     4
 10
13159.38080600001
 20
6112.7287530000003
 30
0.0
 11
17096.669922000001
 21
6112.7287530000012
 31
0.0
  0
LINE
  5
465A
  8
2-0
  6
CENTER2
 62
     6
 10
26263.676123999961
 20
5850.0763299999999
 30
0.0
 11
26263.676123999961
 21
6887.2183670000013
 31
0.0
  0
LINE
  5
465B
  8
2-0
  6
CENTER2
 62
     6
 10
22995.176123999961
 20
5850.0763299999999
 30
0.0
 11
22995.176123999961
 21
6887.2183670000013
 31
0.0
  0
LINE
  5
465C
  8
2-0
  6
CENTER2
 62
     6
 10
20495.17084499999
 20
5850.0763299999999
 30
0.0
 11
20495.17084499999
 21
6887.2183670000013
 31
0.0
  0
LINE
  5
465D
  8
2-0
  6
CENTER2
 62
     6
 10
17226.670844999979
 20
5850.0763299999999
 30
0.0
 11
17226.670844999979
 21
6887.2183670000013
 31
0.0
  0
LINE
  5
465E
  8
2-0
  6
CONTINUOUS
 62
     6
 10
24580.517207999961
 20
13153.815322999981
 30
0.0
 11
25580.510609999928
 21
13153.815322999981
 31
0.0
  0
LINE
  5
465F
  8
2-0
  6
CONTINUOUS
 62
     6
 10
26048.45098699996
 20
13624.236036999981
 30
0.0
 11
25580.510609999928
 21
13153.815322999981
 31
0.0
  0
LINE
  5
4660
  8
2-0
  6
CONTINUOUS
 62
     6
 10
26009.810783999961
 20
17166.343683999981
 30
0.0
 11
25705.115365999962
 21
17269.997214999989
 31
0.0
  0
LINE
  5
4661
  8
2-0
  6
CONTINUOUS
 62
     6
 10
26164.832822999932
 20
16676.72164
 30
0.0
 11
25705.115365999962
 21
16432.808328999989
 31
0.0
  0
LINE
  5
4662
  8
2-0
  6
CONTINUOUS
 62
     6
 10
24785.11233099996
 20
16432.808328999989
 30
0.0
 11
25705.115365999962
 21
16432.808328999989
 31
0.0
  0
LINE
  5
4663
  8
2-0
  6
CONTINUOUS
 62
     6
 10
24505.121303999949
 20
17269.997214999989
 30
0.0
 11
25705.115365999962
 21
17269.997214999989
 31
0.0
  0
LINE
  5
4664
  8
2-0
  6
CONTINUOUS
 62
     6
 10
26081.010107999959
 20
15213.410701312459
 30
0.0
 11
25705.115365999962
 21
15394.354536312479
 31
0.0
  0
LINE
  5
4665
  8
2-0
  6
CONTINUOUS
 62
     6
 10
25185.11364999997
 20
15394.354536312479
 30
0.0
 11
25705.115365999962
 21
15394.354536312479
 31
0.0
  0
LINE
  5
4666
  8
2-0
  6
CONTINUOUS
 62
     4
 10
22995.176123999961
 20
20102.816973000001
 30
0.0
 11
22995.176123999961
 21
20832.813937999981
 31
0.0
  0
LINE
  5
4667
  8
2-0
  6
CONTINUOUS
 62
     3
 10
26276.176783999959
 20
19913.814518999981
 30
0.0
 11
26276.176783999959
 21
19907.818556999991
 31
0.0
  0
LINE
  5
4668
  8
2-0
  6
CONTINUOUS
 62
     3
 10
26276.176783999959
 20
19907.818556999991
 30
0.0
 11
26306.174407999959
 21
19907.818556999991
 31
0.0
  0
LINE
  5
4669
  8
2-0
  6
CONTINUOUS
 62
     3
 10
26306.174407999959
 20
19937.818160999981
 30
0.0
 11
26225.17250799996
 21
19937.818160999981
 31
0.0
  0
LINE
  5
466A
  8
2-0
  6
CONTINUOUS
 62
     3
 10
26276.176783999959
 20
19897.521100999991
 30
0.0
 11
26306.174407999959
 21
19897.521100999991
 31
0.0
  0
LINE
  5
466B
  8
2-0
  6
CONTINUOUS
 62
     3
 10
26276.176783999959
 20
19915.522842999992
 30
0.0
 11
26276.176783999959
 21
19897.521100999991
 31
0.0
  0
LINE
  5
466C
  8
2-0
  6
CONTINUOUS
 62
     3
 10
26301.174143999971
 20
19915.522842999992
 30
0.0
 11
26276.176783999959
 21
19915.522842999992
 31
0.0
  0
LINE
  5
466D
  8
2-0
  6
CONTINUOUS
 62
     3
 10
26301.174143999971
 20
19910.514661000001
 30
0.0
 11
26301.174143999971
 21
19915.522842999992
 31
0.0
  0
LINE
  5
466E
  8
2-0
  6
CONTINUOUS
 62
     3
 10
26294.172586999961
 20
19910.514661000001
 30
0.0
 11
26301.174143999971
 21
19910.514661000001
 31
0.0
  0
LINE
  5
466F
  8
2-0
  6
CONTINUOUS
 62
     3
 10
26193.876318999959
 20
20010.814888000001
 30
0.0
 11
26193.876318999959
 21
20017.820403999991
 31
0.0
  0
LINE
  5
4670
  8
2-0
  6
CONTINUOUS
 62
     3
 10
26193.876318999959
 20
20017.820403999991
 30
0.0
 11
26198.876582999961
 21
20017.820403999991
 31
0.0
  0
LINE
  5
4671
  8
2-0
  6
CONTINUOUS
 62
     3
 10
26198.876582999961
 20
20017.820403999991
 30
0.0
 11
26198.876582999961
 21
19992.811166999989
 31
0.0
  0
LINE
  5
4672
  8
2-0
  6
CONTINUOUS
 62
     3
 10
26198.876582999961
 20
19992.811166999989
 30
0.0
 11
26180.87484099995
 21
19992.811166999989
 31
0.0
  0
LINE
  5
4673
  8
2-0
  6
CONTINUOUS
 62
     3
 10
26180.87484099995
 20
19992.811166999989
 30
0.0
 11
26180.87484099995
 21
20022.814729999998
 31
0.0
  0
LINE
  5
4674
  8
2-0
  6
CONTINUOUS
 62
     3
 10
26191.172296999961
 20
20022.814729999998
 30
0.0
 11
26306.174407999959
 21
20022.814729999998
 31
0.0
  0
LINE
  5
4675
  8
2-0
  6
CONTINUOUS
 62
     3
 10
26191.172296999961
 20
19992.811166999989
 30
0.0
 11
26191.172296999961
 21
20022.814729999998
 31
0.0
  0
LINE
  5
4676
  8
2-0
  6
CONTINUOUS
 62
     3
 10
26197.174196999971
 20
19992.811166999989
 30
0.0
 11
26191.172296999961
 21
19992.811166999989
 31
0.0
  0
LINE
  5
4677
  8
2-0
  6
CONTINUOUS
 62
     3
 10
26294.172586999961
 20
19206.717838499961
 30
0.0
 11
26301.174143999971
 21
19206.717838499961
 31
0.0
  0
LINE
  5
4678
  8
2-0
  6
CONTINUOUS
 62
     3
 10
26301.174143999971
 20
19206.717838499961
 30
0.0
 11
26301.174143999971
 21
19211.718102499981
 31
0.0
  0
LINE
  5
4679
  8
2-0
  6
CONTINUOUS
 62
     3
 10
26301.174143999971
 20
19211.718102499981
 30
0.0
 11
26276.176783999959
 21
19211.718102499981
 31
0.0
  0
LINE
  5
467A
  8
2-0
  6
CONTINUOUS
 62
     3
 10
26276.176783999959
 20
19211.718102499981
 30
0.0
 11
26276.176783999959
 21
19193.722298499961
 31
0.0
  0
LINE
  5
467B
  8
2-0
  6
CONTINUOUS
 62
     3
 10
26276.176783999959
 20
19193.722298499961
 30
0.0
 11
26306.174407999959
 21
19193.722298499961
 31
0.0
  0
LINE
  5
467C
  8
2-0
  6
CONTINUOUS
 62
     3
 10
26276.176783999959
 20
19209.813805499962
 30
0.0
 11
26276.176783999959
 21
19203.81586449996
 31
0.0
  0
LINE
  5
467D
  8
2-0
  6
CONTINUOUS
 62
     3
 10
26276.176783999959
 20
19203.81586449996
 30
0.0
 11
26306.174407999959
 21
19203.81586449996
 31
0.0
  0
LINE
  5
467E
  8
2-0
  6
CONTINUOUS
 62
     3
 10
26306.174407999959
 20
19203.81586449996
 30
0.0
 11
26306.174407999959
 21
19240.81702549995
 31
0.0
  0
LINE
  5
467F
  8
2-0
  6
CONTINUOUS
 62
     3
 10
26276.176783999959
 20
19240.81702549995
 30
0.0
 11
26306.174407999959
 21
19240.81702549995
 31
0.0
  0
LINE
  5
4680
  8
2-0
  6
CONTINUOUS
 62
     3
 10
26276.176783999959
 20
19234.813145499971
 30
0.0
 11
26276.176783999959
 21
19240.81702549995
 31
0.0
  0
LINE
  5
4681
  8
2-0
  6
CONTINUOUS
 62
     3
 10
26276.176783999959
 20
19250.912570499971
 30
0.0
 11
26306.174407999959
 21
19250.912570499971
 31
0.0
  0
LINE
  5
4682
  8
2-0
  6
CONTINUOUS
 62
     3
 10
26276.176783999959
 20
19232.91082849996
 30
0.0
 11
26276.176783999959
 21
19250.912570499971
 31
0.0
  0
LINE
  5
4683
  8
2-0
  6
CONTINUOUS
 62
     3
 10
26301.174143999971
 20
19232.91082849996
 30
0.0
 11
26276.176783999959
 21
19232.91082849996
 31
0.0
  0
LINE
  5
4684
  8
2-0
  6
CONTINUOUS
 62
     3
 10
26301.174143999971
 20
19237.91109249998
 30
0.0
 11
26301.174143999971
 21
19232.91082849996
 31
0.0
  0
LINE
  5
4685
  8
2-0
  6
CONTINUOUS
 62
     3
 10
26294.172586999961
 20
19237.91109249998
 30
0.0
 11
26301.174143999971
 21
19237.91109249998
 31
0.0
  0
LINE
  5
4686
  8
2-0
  6
CONTINUOUS
 62
     3
 10
26294.172586999961
 20
18505.716848999989
 30
0.0
 11
26301.174143999971
 21
18505.716848999989
 31
0.0
  0
LINE
  5
4687
  8
2-0
  6
CONTINUOUS
 62
     3
 10
26301.174143999971
 20
18505.716848999989
 30
0.0
 11
26301.174143999971
 21
18510.723050999961
 31
0.0
  0
LINE
  5
4688
  8
2-0
  6
CONTINUOUS
 62
     3
 10
26301.174143999971
 20
18510.723050999961
 30
0.0
 11
26276.176783999959
 21
18510.723050999961
 31
0.0
  0
LINE
  5
4689
  8
2-0
  6
CONTINUOUS
 62
     3
 10
26276.176783999959
 20
18510.723050999961
 30
0.0
 11
26276.176783999959
 21
18492.72130899999
 31
0.0
  0
LINE
  5
468A
  8
2-0
  6
CONTINUOUS
 62
     3
 10
26276.176783999959
 20
18492.72130899999
 30
0.0
 11
26306.174407999959
 21
18492.72130899999
 31
0.0
  0
LINE
  5
468B
  8
2-0
  6
CONTINUOUS
 62
     3
 10
26276.176783999959
 20
18508.812815999951
 30
0.0
 11
26276.176783999959
 21
18502.81685399995
 31
0.0
  0
LINE
  5
468C
  8
2-0
  6
CONTINUOUS
 62
     3
 10
26276.176783999959
 20
18502.81685399995
 30
0.0
 11
26306.174407999959
 21
18502.81685399995
 31
0.0
  0
LINE
  5
468D
  8
2-0
  6
CONTINUOUS
 62
     3
 10
26306.174407999959
 20
18502.81685399995
 30
0.0
 11
26306.174407999959
 21
18539.816035999989
 31
0.0
  0
LINE
  5
468E
  8
2-0
  6
CONTINUOUS
 62
     3
 10
26276.176783999959
 20
18539.816035999989
 30
0.0
 11
26306.174407999959
 21
18539.816035999989
 31
0.0
  0
LINE
  5
468F
  8
2-0
  6
CONTINUOUS
 62
     3
 10
26276.176783999959
 20
18533.820073999981
 30
0.0
 11
26276.176783999959
 21
18539.816035999989
 31
0.0
  0
LINE
  5
4690
  8
2-0
  6
CONTINUOUS
 62
     3
 10
26276.176783999959
 20
18549.911580999978
 30
0.0
 11
26306.174407999959
 21
18549.911580999978
 31
0.0
  0
LINE
  5
4691
  8
2-0
  6
CONTINUOUS
 62
     3
 10
26276.176783999959
 20
18531.909838999989
 30
0.0
 11
26276.176783999959
 21
18549.911580999978
 31
0.0
  0
LINE
  5
4692
  8
2-0
  6
CONTINUOUS
 62
     3
 10
26301.174143999971
 20
18531.909838999989
 30
0.0
 11
26276.176783999959
 21
18531.909838999989
 31
0.0
  0
LINE
  5
4693
  8
2-0
  6
CONTINUOUS
 62
     3
 10
26301.174143999971
 20
18536.91604099996
 30
0.0
 11
26301.174143999971
 21
18531.909838999989
 31
0.0
  0
LINE
  5
4694
  8
2-0
  6
CONTINUOUS
 62
     3
 10
26294.172586999961
 20
18536.91604099996
 30
0.0
 11
26301.174143999971
 21
18536.91604099996
 31
0.0
  0
LINE
  5
4695
  8
2-0
  6
CONTINUOUS
 62
     3
 10
26294.172586999961
 20
17835.910102999991
 30
0.0
 11
26301.174143999971
 21
17835.910102999991
 31
0.0
  0
LINE
  5
4696
  8
2-0
  6
CONTINUOUS
 62
     3
 10
26301.174143999971
 20
17835.910102999991
 30
0.0
 11
26301.174143999971
 21
17830.921715999972
 31
0.0
  0
LINE
  5
4697
  8
2-0
  6
CONTINUOUS
 62
     3
 10
26301.174143999971
 20
17830.921715999972
 30
0.0
 11
26276.176783999959
 21
17830.921715999972
 31
0.0
  0
LINE
  5
4698
  8
2-0
  6
CONTINUOUS
 62
     3
 10
26276.176783999959
 20
17830.921715999972
 30
0.0
 11
26276.176783999959
 21
17848.917518999991
 31
0.0
  0
LINE
  5
4699
  8
2-0
  6
CONTINUOUS
 62
     3
 10
26276.176783999959
 20
17848.917518999991
 30
0.0
 11
26306.174407999959
 21
17848.917518999991
 31
0.0
  0
LINE
  5
469A
  8
2-0
  6
CONTINUOUS
 62
     3
 10
26276.176783999959
 20
17832.820073999981
 30
0.0
 11
26276.176783999959
 21
17838.816035999971
 31
0.0
  0
LINE
  5
469B
  8
2-0
  6
CONTINUOUS
 62
     3
 10
26276.176783999959
 20
17838.816035999971
 30
0.0
 11
26306.174407999959
 21
17838.816035999971
 31
0.0
  0
LINE
  5
469C
  8
2-0
  6
CONTINUOUS
 62
     3
 10
26306.174407999959
 20
17838.816035999971
 30
0.0
 11
26306.174407999959
 21
17801.816853999961
 31
0.0
  0
LINE
  5
469D
  8
2-0
  6
CONTINUOUS
 62
     3
 10
26276.176783999959
 20
17801.816853999961
 30
0.0
 11
26306.174407999959
 21
17801.816853999961
 31
0.0
  0
LINE
  5
469E
  8
2-0
  6
CONTINUOUS
 62
     3
 10
26276.176783999959
 20
17807.818754999978
 30
0.0
 11
26276.176783999959
 21
17801.816853999961
 31
0.0
  0
LINE
  5
469F
  8
2-0
  6
CONTINUOUS
 62
     3
 10
26276.176783999959
 20
17791.727247999981
 30
0.0
 11
26306.174407999959
 21
17791.727247999981
 31
0.0
  0
LINE
  5
46A0
  8
2-0
  6
CONTINUOUS
 62
     3
 10
26276.176783999959
 20
17809.723050999972
 30
0.0
 11
26276.176783999959
 21
17791.727247999981
 31
0.0
  0
LINE
  5
46A1
  8
2-0
  6
CONTINUOUS
 62
     3
 10
26301.174143999971
 20
17809.723050999972
 30
0.0
 11
26276.176783999959
 21
17809.723050999972
 31
0.0
  0
LINE
  5
46A2
  8
2-0
  6
CONTINUOUS
 62
     3
 10
26301.174143999971
 20
17804.722787999981
 30
0.0
 11
26301.174143999971
 21
17809.723050999972
 31
0.0
  0
LINE
  5
46A3
  8
2-0
  6
CONTINUOUS
 62
     3
 10
26294.172586999961
 20
17804.722787999981
 30
0.0
 11
26301.174143999971
 21
17804.722787999981
 31
0.0
  0
LINE
  5
46A4
  8
2-0
  6
CONTINUOUS
 62
     3
 10
26303.288269999961
 20
17084.813673999972
 30
0.0
 11
26303.288269999961
 21
17104.814728999969
 31
0.0
  0
LINE
  5
46A5
  8
2-0
  6
CONTINUOUS
 62
     3
 10
26303.288269999961
 20
17104.814728999969
 30
0.0
 11
26218.291700999958
 21
17104.814728999969
 31
0.0
  0
LINE
  5
46A6
  8
2-0
  6
CONTINUOUS
 62
     3
 10
26294.172586999961
 20
17131.421438999991
 30
0.0
 11
26301.174143999971
 21
17131.421438999991
 31
0.0
  0
LINE
  5
46A7
  8
2-0
  6
CONTINUOUS
 62
     3
 10
26301.174143999971
 20
17131.421438999991
 30
0.0
 11
26301.174143999971
 21
17126.427112999991
 31
0.0
  0
LINE
  5
46A8
  8
2-0
  6
CONTINUOUS
 62
     3
 10
26301.174143999971
 20
17126.427112999991
 30
0.0
 11
26276.176783999959
 21
17126.427112999991
 31
0.0
  0
LINE
  5
46A9
  8
2-0
  6
CONTINUOUS
 62
     3
 10
26276.176783999959
 20
17126.427112999991
 30
0.0
 11
26276.176783999959
 21
17144.422916999989
 31
0.0
  0
LINE
  5
46AA
  8
2-0
  6
CONTINUOUS
 62
     3
 10
26276.176783999959
 20
17144.422916999989
 30
0.0
 11
26306.174407999959
 21
17144.422916999989
 31
0.0
  0
LINE
  5
46AB
  8
2-0
  6
CONTINUOUS
 62
     3
 10
26276.176783999959
 20
17134.81433299998
 30
0.0
 11
26276.176783999959
 21
17128.812432999981
 31
0.0
  0
LINE
  5
46AC
  8
2-0
  6
CONTINUOUS
 62
     3
 10
26306.174407999959
 20
17134.81433299998
 30
0.0
 11
26276.176783999959
 21
17134.81433299998
 31
0.0
  0
LINE
  5
46AD
  8
2-0
  6
CONTINUOUS
 62
     3
 10
26306.174407999959
 20
17144.422916999989
 30
0.0
 11
26306.174407999959
 21
17791.727247999981
 31
0.0
  0
LINE
  5
46AE
  8
2-0
  6
CONTINUOUS
 62
     3
 10
26306.174407999959
 20
17848.917518999991
 30
0.0
 11
26306.174407999959
 21
18492.72130899999
 31
0.0
  0
LINE
  5
46AF
  8
2-0
  6
CONTINUOUS
 62
     3
 10
26306.174407999959
 20
16989.812617999989
 30
0.0
 11
26276.176783999959
 21
16989.812617999989
 31
0.0
  0
LINE
  5
46B0
  8
2-0
  6
CONTINUOUS
 62
     3
 10
26276.176783999959
 20
16989.812617999989
 30
0.0
 11
26276.176783999959
 21
16995.814517999981
 31
0.0
  0
LINE
  5
46B1
  8
2-0
  6
CONTINUOUS
 62
     3
 10
26218.291700999958
 20
17019.818160999981
 30
0.0
 11
26303.288269999961
 21
17019.818160999981
 31
0.0
  0
LINE
  5
46B2
  8
2-0
  6
CONTINUOUS
 62
     3
 10
26303.288269999961
 20
17019.818160999981
 30
0.0
 11
26303.288269999961
 21
17039.813277999991
 31
0.0
  0
LINE
  5
46B3
  8
2-0
  6
CONTINUOUS
 62
     3
 10
26276.176783999959
 20
16980.204034999992
 30
0.0
 11
26306.174407999959
 21
16980.204034999992
 31
0.0
  0
LINE
  5
46B4
  8
2-0
  6
CONTINUOUS
 62
     3
 10
26276.176783999959
 20
16998.199837999979
 30
0.0
 11
26276.176783999959
 21
16980.204034999992
 31
0.0
  0
LINE
  5
46B5
  8
2-0
  6
CONTINUOUS
 62
     3
 10
26301.174143999971
 20
16998.199837999979
 30
0.0
 11
26276.176783999959
 21
16998.199837999979
 31
0.0
  0
LINE
  5
46B6
  8
2-0
  6
CONTINUOUS
 62
     3
 10
26301.174143999971
 20
16993.199573999991
 30
0.0
 11
26301.174143999971
 21
16998.199837999979
 31
0.0
  0
LINE
  5
46B7
  8
2-0
  6
CONTINUOUS
 62
     3
 10
26294.172586999961
 20
16993.199573999991
 30
0.0
 11
26301.174143999971
 21
16993.199573999991
 31
0.0
  0
LINE
  5
46B8
  8
2-0
  6
CONTINUOUS
 62
     3
 10
26294.172586999961
 20
16288.717343499949
 30
0.0
 11
26301.174143999971
 21
16288.717343499949
 31
0.0
  0
LINE
  5
46B9
  8
2-0
  6
CONTINUOUS
 62
     3
 10
26301.174143999971
 20
16288.717343499949
 30
0.0
 11
26301.174143999971
 21
16293.717607499961
 31
0.0
  0
LINE
  5
46BA
  8
2-0
  6
CONTINUOUS
 62
     3
 10
26301.174143999971
 20
16293.717607499961
 30
0.0
 11
26276.176783999959
 21
16293.717607499961
 31
0.0
  0
LINE
  5
46BB
  8
2-0
  6
CONTINUOUS
 62
     3
 10
26276.176783999959
 20
16293.717607499961
 30
0.0
 11
26276.176783999959
 21
16275.71586549998
 31
0.0
  0
LINE
  5
46BC
  8
2-0
  6
CONTINUOUS
 62
     3
 10
26276.176783999959
 20
16275.71586549998
 30
0.0
 11
26306.174407999959
 21
16275.71586549998
 31
0.0
  0
LINE
  5
46BD
  8
2-0
  6
CONTINUOUS
 62
     3
 10
26276.176783999959
 20
16291.81331049998
 30
0.0
 11
26276.176783999959
 21
16285.816359499981
 31
0.0
  0
LINE
  5
46BE
  8
2-0
  6
CONTINUOUS
 62
     3
 10
26276.176783999959
 20
16285.816359499981
 30
0.0
 11
26306.174407999959
 21
16285.816359499981
 31
0.0
  0
LINE
  5
46BF
  8
2-0
  6
CONTINUOUS
 62
     3
 10
26306.174407999959
 20
16285.816359499981
 30
0.0
 11
26306.174407999959
 21
16322.81653049998
 31
0.0
  0
LINE
  5
46C0
  8
2-0
  6
CONTINUOUS
 62
     3
 10
26276.176783999959
 20
16322.81653049998
 30
0.0
 11
26306.174407999959
 21
16322.81653049998
 31
0.0
  0
LINE
  5
46C1
  8
2-0
  6
CONTINUOUS
 62
     3
 10
26276.176783999959
 20
16316.81364049998
 30
0.0
 11
26276.176783999959
 21
16322.81653049998
 31
0.0
  0
LINE
  5
46C2
  8
2-0
  6
CONTINUOUS
 62
     3
 10
26276.176783999959
 20
16332.91207549998
 30
0.0
 11
26306.174407999959
 21
16332.91207549998
 31
0.0
  0
LINE
  5
46C3
  8
2-0
  6
CONTINUOUS
 62
     3
 10
26276.176783999959
 20
16314.904394499979
 30
0.0
 11
26276.176783999959
 21
16332.91207549998
 31
0.0
  0
LINE
  5
46C4
  8
2-0
  6
CONTINUOUS
 62
     3
 10
26301.174143999971
 20
16314.904394499979
 30
0.0
 11
26276.176783999959
 21
16314.904394499979
 31
0.0
  0
LINE
  5
46C5
  8
2-0
  6
CONTINUOUS
 62
     3
 10
26301.174143999971
 20
16319.91059749998
 30
0.0
 11
26301.174143999971
 21
16314.904394499979
 31
0.0
  0
LINE
  5
46C6
  8
2-0
  6
CONTINUOUS
 62
     3
 10
26294.172586999961
 20
16319.91059749998
 30
0.0
 11
26301.174143999971
 21
16319.91059749998
 31
0.0
  0
LINE
  5
46C7
  8
2-0
  6
CONTINUOUS
 62
     3
 10
26294.172586999961
 20
15619.15061399998
 30
0.0
 11
26301.174143999971
 21
15619.15061399998
 31
0.0
  0
LINE
  5
46C8
  8
2-0
  6
CONTINUOUS
 62
     3
 10
26301.174143999971
 20
15619.15061399998
 30
0.0
 11
26301.174143999971
 21
15614.15628899998
 31
0.0
  0
LINE
  5
46C9
  8
2-0
  6
CONTINUOUS
 62
     3
 10
26301.174143999971
 20
15614.15628899998
 30
0.0
 11
26276.176783999959
 21
15614.15628899998
 31
0.0
  0
LINE
  5
46CA
  8
2-0
  6
CONTINUOUS
 62
     3
 10
26276.176783999959
 20
15614.15628899998
 30
0.0
 11
26276.176783999959
 21
15632.152092
 31
0.0
  0
LINE
  5
46CB
  8
2-0
  6
CONTINUOUS
 62
     3
 10
26276.176783999959
 20
15632.152092
 30
0.0
 11
26306.174407999959
 21
15632.152092
 31
0.0
  0
LINE
  5
46CC
  8
2-0
  6
CONTINUOUS
 62
     3
 10
26276.176783999959
 20
15616.05464699999
 30
0.0
 11
26276.176783999959
 21
15622.056547
 31
0.0
  0
LINE
  5
46CD
  8
2-0
  6
CONTINUOUS
 62
     3
 10
26276.176783999959
 20
15622.056547
 30
0.0
 11
26306.174407999959
 21
15622.056547
 31
0.0
  0
LINE
  5
46CE
  8
2-0
  6
CONTINUOUS
 62
     3
 10
26306.174407999959
 20
15585.05736599999
 30
0.0
 11
26306.174407999959
 21
15622.056547
 31
0.0
  0
LINE
  5
46CF
  8
2-0
  6
CONTINUOUS
 62
     3
 10
26276.176783999959
 20
15585.05736599999
 30
0.0
 11
26306.174407999959
 21
15585.05736599999
 31
0.0
  0
LINE
  5
46D0
  8
2-0
  6
CONTINUOUS
 62
     3
 10
26276.176783999959
 20
15591.05431699998
 30
0.0
 11
26276.176783999959
 21
15585.05736599999
 31
0.0
  0
LINE
  5
46D1
  8
2-0
  6
CONTINUOUS
 62
     3
 10
26276.176783999959
 20
15574.95588199998
 30
0.0
 11
26306.174407999959
 21
15574.95588199998
 31
0.0
  0
LINE
  5
46D2
  8
2-0
  6
CONTINUOUS
 62
     3
 10
26276.176783999959
 20
15592.963562999979
 30
0.0
 11
26276.176783999959
 21
15574.95588199998
 31
0.0
  0
LINE
  5
46D3
  8
2-0
  6
CONTINUOUS
 62
     3
 10
26301.174143999971
 20
15592.963562999979
 30
0.0
 11
26276.176783999959
 21
15592.963562999979
 31
0.0
  0
LINE
  5
46D4
  8
2-0
  6
CONTINUOUS
 62
     3
 10
26301.174143999971
 20
15587.963298999999
 30
0.0
 11
26301.174143999971
 21
15592.963562999979
 31
0.0
  0
LINE
  5
46D5
  8
2-0
  6
CONTINUOUS
 62
     3
 10
26294.172586999961
 20
15587.963298999999
 30
0.0
 11
26301.174143999971
 21
15587.963298999999
 31
0.0
  0
LINE
  5
46D6
  8
2-0
  6
CONTINUOUS
 62
     3
 10
26306.174407999959
 20
16980.204034999992
 30
0.0
 11
26306.174407999959
 21
16332.91207549998
 31
0.0
  0
LINE
  5
46D7
  8
2-0
  6
CONTINUOUS
 62
     3
 10
26306.174407999959
 20
17134.81433299998
 30
0.0
 11
26306.174407999959
 21
16989.812617999989
 31
0.0
  0
LINE
  5
46D8
  8
2-0
  6
CONTINUOUS
 62
     3
 10
26218.291700999958
 20
17104.814728999969
 30
0.0
 11
26218.291700999958
 21
17019.818160999981
 31
0.0
  0
LINE
  5
46D9
  8
2-0
  6
CONTINUOUS
 62
     6
 10
24680.083033999948
 20
18873.26199449995
 30
0.0
 11
25705.115365999962
 21
18873.26199449995
 31
0.0
  0
LINE
  5
46DA
  8
2-0
  6
CONTINUOUS
 62
     3
 10
26294.172586999961
 20
14886.72229199998
 30
0.0
 11
26301.174143999971
 21
14886.72229199998
 31
0.0
  0
LINE
  5
46DB
  8
2-0
  6
CONTINUOUS
 62
     3
 10
26301.174143999971
 20
14886.72229199998
 30
0.0
 11
26301.174143999971
 21
14891.71661799998
 31
0.0
  0
LINE
  5
46DC
  8
2-0
  6
CONTINUOUS
 62
     3
 10
26301.174143999971
 20
14891.71661799998
 30
0.0
 11
26276.176783999959
 21
14891.71661799998
 31
0.0
  0
LINE
  5
46DD
  8
2-0
  6
CONTINUOUS
 62
     3
 10
26276.176783999959
 20
14891.71661799998
 30
0.0
 11
26276.176783999959
 21
14873.720813999969
 31
0.0
  0
LINE
  5
46DE
  8
2-0
  6
CONTINUOUS
 62
     3
 10
26276.176783999959
 20
14873.720813999969
 30
0.0
 11
26306.174407999959
 21
14873.720813999969
 31
0.0
  0
LINE
  5
46DF
  8
2-0
  6
CONTINUOUS
 62
     3
 10
26276.176783999959
 20
14889.81924899998
 30
0.0
 11
26276.176783999959
 21
14883.81635899998
 31
0.0
  0
LINE
  5
46E0
  8
2-0
  6
CONTINUOUS
 62
     3
 10
26276.176783999959
 20
14883.81635899998
 30
0.0
 11
26306.174407999959
 21
14883.81635899998
 31
0.0
  0
LINE
  5
46E1
  8
2-0
  6
CONTINUOUS
 62
     3
 10
26306.174407999959
 20
14883.81635899998
 30
0.0
 11
26306.174407999959
 21
14920.816530999949
 31
0.0
  0
LINE
  5
46E2
  8
2-0
  6
CONTINUOUS
 62
     3
 10
26276.176783999959
 20
14920.816530999949
 30
0.0
 11
26306.174407999959
 21
14920.816530999949
 31
0.0
  0
LINE
  5
46E3
  8
2-0
  6
CONTINUOUS
 62
     3
 10
26276.176783999959
 20
14914.819578999981
 30
0.0
 11
26276.176783999959
 21
14920.816530999949
 31
0.0
  0
LINE
  5
46E4
  8
2-0
  6
CONTINUOUS
 62
     3
 10
26276.176783999959
 20
14930.91702399998
 30
0.0
 11
26306.174407999959
 21
14930.91702399998
 31
0.0
  0
LINE
  5
46E5
  8
2-0
  6
CONTINUOUS
 62
     3
 10
26276.176783999959
 20
14912.910332999991
 30
0.0
 11
26276.176783999959
 21
14930.91702399998
 31
0.0
  0
LINE
  5
46E6
  8
2-0
  6
CONTINUOUS
 62
     3
 10
26301.174143999971
 20
14912.910332999991
 30
0.0
 11
26276.176783999959
 21
14912.910332999991
 31
0.0
  0
LINE
  5
46E7
  8
2-0
  6
CONTINUOUS
 62
     3
 10
26301.174143999971
 20
14917.91554599998
 30
0.0
 11
26301.174143999971
 21
14912.910332999991
 31
0.0
  0
LINE
  5
46E8
  8
2-0
  6
CONTINUOUS
 62
     3
 10
26294.172586999961
 20
14917.91554599998
 30
0.0
 11
26301.174143999971
 21
14917.91554599998
 31
0.0
  0
LINE
  5
46E9
  8
2-0
  6
CONTINUOUS
 62
     3
 10
26276.176783999959
 20
13860.31837199998
 30
0.0
 11
26276.176783999959
 21
13866.32324099998
 31
0.0
  0
LINE
  5
46EA
  8
2-0
  6
CONTINUOUS
 62
     3
 10
26276.176783999959
 20
13866.32324099998
 30
0.0
 11
26306.174407999959
 21
13866.32324099998
 31
0.0
  0
LINE
  5
46EB
  8
2-0
  6
CONTINUOUS
 62
     3
 10
26306.174407999959
 20
13866.32324099998
 30
0.0
 11
26306.174407999959
 21
13751.319149999979
 31
0.0
  0
LINE
  5
46EC
  8
2-0
  6
CONTINUOUS
 62
     3
 10
26306.174407999959
 20
13751.319149999979
 30
0.0
 11
26221.17585999997
 21
13751.319149999979
 31
0.0
  0
LINE
  5
46ED
  8
2-0
  6
CONTINUOUS
 62
     3
 10
26221.17585999997
 20
13751.319149999979
 30
0.0
 11
26221.17585999997
 21
13836.31472899998
 31
0.0
  0
LINE
  5
46EE
  8
2-0
  6
CONTINUOUS
 62
     3
 10
26221.17585999997
 20
13836.31472899998
 30
0.0
 11
26253.17477799996
 21
13836.31472899998
 31
0.0
  0
LINE
  5
46EF
  8
2-0
  6
CONTINUOUS
 62
     3
 10
26294.172586999961
 20
13863.352973999979
 30
0.0
 11
26301.174143999971
 21
13863.352973999979
 31
0.0
  0
LINE
  5
46F0
  8
2-0
  6
CONTINUOUS
 62
     3
 10
26301.174143999971
 20
13863.352973999979
 30
0.0
 11
26301.174143999971
 21
13858.355678999949
 31
0.0
  0
LINE
  5
46F1
  8
2-0
  6
CONTINUOUS
 62
     3
 10
26301.174143999971
 20
13858.355678999949
 30
0.0
 11
26276.176783999959
 21
13858.355678999949
 31
0.0
  0
LINE
  5
46F2
  8
2-0
  6
CONTINUOUS
 62
     3
 10
26276.176783999959
 20
13858.355678999949
 30
0.0
 11
26276.176783999959
 21
13876.35445199997
 31
0.0
  0
LINE
  5
46F3
  8
2-0
  6
CONTINUOUS
 62
     3
 10
26276.176783999959
 20
13876.35445199997
 30
0.0
 11
26306.174407999959
 21
13876.35445199997
 31
0.0
  0
LINE
  5
46F4
  8
2-0
  6
CENTER2
 62
     6
 10
26263.676123999961
 20
13553.82159199996
 30
0.0
 11
26263.676123999961
 21
21222.819339000001
 31
0.0
  0
LINE
  5
46F5
  8
2-0
  6
CONTINUOUS
 62
     3
 10
26306.174407999959
 20
18549.911580999978
 30
0.0
 11
26306.174407999959
 21
19193.722298499961
 31
0.0
  0
LINE
  5
46F6
  8
2-0
  6
CONTINUOUS
 62
     6
 10
26998.67929099996
 20
20752.817632999999
 30
0.0
 11
28198.673352999951
 21
20752.817632999999
 31
0.0
  0
LINE
  5
46F7
  8
2-0
  6
CONTINUOUS
 62
     3
 10
23067.677971999969
 20
20022.814729999998
 30
0.0
 11
23067.677971999969
 21
19992.811166999989
 31
0.0
  0
LINE
  5
46F8
  8
2-0
  6
CONTINUOUS
 62
     3
 10
23067.677971999969
 20
19992.811166999989
 30
0.0
 11
23061.68002999996
 21
19992.811166999989
 31
0.0
  0
LINE
  5
46F9
  8
2-0
  6
CONTINUOUS
 62
     3
 10
23077.29447299998
 20
19992.811166999989
 30
0.0
 11
23077.29447299998
 21
20022.814729999998
 31
0.0
  0
LINE
  5
46FA
  8
2-0
  6
CONTINUOUS
 62
     3
 10
23059.292730999961
 20
19992.811166999989
 30
0.0
 11
23077.29447299998
 21
19992.811166999989
 31
0.0
  0
LINE
  5
46FB
  8
2-0
  6
CONTINUOUS
 62
     3
 10
23059.292730999961
 20
20017.820403999991
 30
0.0
 11
23059.292730999961
 21
19992.811166999989
 31
0.0
  0
LINE
  5
46FC
  8
2-0
  6
CONTINUOUS
 62
     3
 10
23064.292994999989
 20
20017.820403999991
 30
0.0
 11
23059.292730999961
 21
20017.820403999991
 31
0.0
  0
LINE
  5
46FD
  8
2-0
  6
CONTINUOUS
 62
     3
 10
23064.292994999989
 20
20010.814888000001
 30
0.0
 11
23064.292994999989
 21
20017.820403999991
 31
0.0
  0
LINE
  5
46FE
  8
2-0
  6
CONTINUOUS
 62
     3
 10
23037.676387999982
 20
20019.922653000001
 30
0.0
 11
23037.676387999982
 21
19934.924104999991
 31
0.0
  0
LINE
  5
46FF
  8
2-0
  6
CONTINUOUS
 62
     3
 10
23017.679290999971
 20
20019.922653000001
 30
0.0
 11
23037.676387999982
 21
20019.922653000001
 31
0.0
  0
LINE
  5
4700
  8
2-0
  6
CONTINUOUS
 62
     3
 10
22926.06519199998
 20
20010.814888000001
 30
0.0
 11
22926.06519199998
 21
20017.820403999991
 31
0.0
  0
LINE
  5
4701
  8
2-0
  6
CONTINUOUS
 62
     3
 10
22926.06519199998
 20
20017.820403999991
 30
0.0
 11
22931.065455999971
 21
20017.820403999991
 31
0.0
  0
LINE
  5
4702
  8
2-0
  6
CONTINUOUS
 62
     3
 10
22931.065455999971
 20
20017.820403999991
 30
0.0
 11
22931.065455999971
 21
19992.811166999989
 31
0.0
  0
LINE
  5
4703
  8
2-0
  6
CONTINUOUS
 62
     3
 10
22931.065455999971
 20
19992.811166999989
 30
0.0
 11
22913.063713999971
 21
19992.811166999989
 31
0.0
  0
LINE
  5
4704
  8
2-0
  6
CONTINUOUS
 62
     3
 10
22913.063713999971
 20
19992.811166999989
 30
0.0
 11
22913.063713999971
 21
20022.814729999998
 31
0.0
  0
LINE
  5
4705
  8
2-0
  6
CONTINUOUS
 62
     3
 10
22952.68377799997
 20
20019.922653000001
 30
0.0
 11
22972.678894999972
 21
20019.922653000001
 31
0.0
  0
LINE
  5
4706
  8
2-0
  6
CONTINUOUS
 62
     3
 10
22952.68377799997
 20
19934.924104999991
 30
0.0
 11
22952.68377799997
 21
20019.922653000001
 31
0.0
  0
LINE
  5
4707
  8
2-0
  6
CONTINUOUS
 62
     3
 10
22922.686153999981
 20
19992.811166999989
 30
0.0
 11
22928.68211499996
 21
19992.811166999989
 31
0.0
  0
LINE
  5
4708
  8
2-0
  6
CONTINUOUS
 62
     3
 10
22922.686153999981
 20
20022.814729999998
 30
0.0
 11
22922.686153999981
 21
19992.811166999989
 31
0.0
  0
LINE
  5
4709
  8
2-0
  6
CONTINUOUS
 62
     3
 10
23037.676387999982
 20
19934.924104999991
 30
0.0
 11
22952.68377799997
 21
19934.924104999991
 31
0.0
  0
LINE
  5
470A
  8
2-0
  6
CONTINUOUS
 62
     3
 10
23067.677971999969
 20
20022.814729999998
 30
0.0
 11
22922.686153999981
 21
20022.814729999998
 31
0.0
  0
LINE
  5
470B
  8
2-0
  6
CONTINUOUS
 62
     6
 10
26136.646457999959
 20
19115.41650249996
 30
0.0
 11
25705.115365999962
 21
18873.26199449995
 31
0.0
  0
LINE
  5
470C
  8
2-0
  6
CONTINUOUS
 62
     6
 10
26458.215291999932
 20
20165.494470000001
 30
0.0
 11
26998.67929099996
 21
20752.817632999999
 31
0.0
  0
LINE
  5
470D
  8
2-0
  6
CONTINUOUS
 62
     6
 10
23037.676387999982
 20
13836.31472899998
 30
0.0
 11
23314.266600999981
 21
14291.659428999979
 31
0.0
  0
LINE
  5
470E
  8
2-0
  6
CONTINUOUS
 62
     6
 10
23314.266600999981
 20
14291.659428999979
 30
0.0
 11
24344.61591999996
 21
14291.659428999979
 31
0.0
  0
LINE
  5
470F
  8
2-0
  6
CONTINUOUS
 62
     3
 10
26306.174407999959
 20
16275.71586549998
 30
0.0
 11
26306.174407999959
 21
15632.152092
 31
0.0
  0
LINE
  5
4710
  8
2-0
  6
CONTINUOUS
 62
     6
 10
23097.954707999961
 20
13986.910563999971
 30
0.0
 11
23037.676387999982
 21
13836.31472899998
 31
0.0
  0
LINE
  5
4711
  8
2-0
  6
CONTINUOUS
 62
     6
 10
23037.676387999982
 20
13836.31472899998
 30
0.0
 11
23143.535102999929
 21
13959.22303799998
 31
0.0
  0
LINE
  5
4712
  8
2-0
  6
CONTINUOUS
 62
     6
 10
23097.954707999961
 20
13986.910563999971
 30
0.0
 11
23143.535102999929
 21
13959.22303799998
 31
0.0
  0
LINE
  5
4713
  8
2-0
  6
CONTINUOUS
 62
     6
 10
23143.535102999929
 20
13959.22303799998
 30
0.0
 11
23037.676387999982
 21
13836.31472899998
 31
0.0
  0
LINE
  5
4714
  8
2-0
  6
CONTINUOUS
 62
     6
 10
23037.676387999982
 20
13836.31472899998
 30
0.0
 11
23097.954707999961
 21
13986.910563999971
 31
0.0
  0
LINE
  5
4715
  8
2-0
  6
CONTINUOUS
 62
     6
 10
23097.954707999961
 20
13986.910563999971
 30
0.0
 11
23037.676387999982
 21
13836.31472899998
 31
0.0
  0
LINE
  5
4716
  8
2-0
  6
CONTINUOUS
 62
     6
 10
23143.535102999929
 20
13959.22303799998
 30
0.0
 11
23037.676387999982
 21
13836.31472899998
 31
0.0
  0
LINE
  5
4717
  8
2-0
  6
CONTINUOUS
 62
     6
 10
23143.535102999929
 20
13959.22303799998
 30
0.0
 11
23097.954707999961
 21
13986.910563999971
 31
0.0
  0
LINE
  5
4718
  8
2-0
  6
CONTINUOUS
 62
     6
 10
26123.589552999962
 20
19138.67584649998
 30
0.0
 11
26276.176783999959
 21
19193.722298499961
 31
0.0
  0
LINE
  5
4719
  8
2-0
  6
CONTINUOUS
 62
     6
 10
26276.176783999959
 20
19193.722298499961
 30
0.0
 11
26149.695443999961
 21
19092.163098499968
 31
0.0
  0
LINE
  5
471A
  8
2-0
  6
CONTINUOUS
 62
     6
 10
26123.589552999962
 20
19138.67584649998
 30
0.0
 11
26149.695443999961
 21
19092.163098499968
 31
0.0
  0
LINE
  5
471B
  8
2-0
  6
CONTINUOUS
 62
     6
 10
26149.695443999961
 20
19092.163098499968
 30
0.0
 11
26276.176783999959
 21
19193.722298499961
 31
0.0
  0
LINE
  5
471C
  8
2-0
  6
CONTINUOUS
 62
     6
 10
26276.176783999959
 20
19193.722298499961
 30
0.0
 11
26123.589552999962
 21
19138.67584649998
 31
0.0
  0
LINE
  5
471D
  8
2-0
  6
CONTINUOUS
 62
     6
 10
26123.589552999962
 20
19138.67584649998
 30
0.0
 11
26276.176783999959
 21
19193.722298499961
 31
0.0
  0
LINE
  5
471E
  8
2-0
  6
CONTINUOUS
 62
     6
 10
26149.695443999961
 20
19092.163098499968
 30
0.0
 11
26276.176783999959
 21
19193.722298499961
 31
0.0
  0
LINE
  5
471F
  8
2-0
  6
CONTINUOUS
 62
     6
 10
26149.695443999961
 20
19092.163098499968
 30
0.0
 11
26123.589552999962
 21
19138.67584649998
 31
0.0
  0
LINE
  5
4720
  8
2-0
  6
CONTINUOUS
 62
     6
 10
26477.832320999962
 20
20147.433343000001
 30
0.0
 11
26349.870300999959
 21
20047.750725000002
 31
0.0
  0
LINE
  5
4721
  8
2-0
  6
CONTINUOUS
 62
     6
 10
26349.870300999959
 20
20047.750725000002
 30
0.0
 11
26438.584405999962
 21
20183.54768
 31
0.0
  0
LINE
  5
4722
  8
2-0
  6
CONTINUOUS
 62
     6
 10
26477.832320999962
 20
20147.433343000001
 30
0.0
 11
26438.584405999962
 21
20183.54768
 31
0.0
  0
LINE
  5
4723
  8
2-0
  6
CONTINUOUS
 62
     6
 10
26438.584405999962
 20
20183.54768
 30
0.0
 11
26349.870300999959
 21
20047.750725000002
 31
0.0
  0
LINE
  5
4724
  8
2-0
  6
CONTINUOUS
 62
     6
 10
26349.870300999959
 20
20047.750725000002
 30
0.0
 11
26477.832320999962
 21
20147.433343000001
 31
0.0
  0
LINE
  5
4725
  8
2-0
  6
CONTINUOUS
 62
     6
 10
26477.832320999962
 20
20147.433343000001
 30
0.0
 11
26349.870300999959
 21
20047.750725000002
 31
0.0
  0
LINE
  5
4726
  8
2-0
  6
CONTINUOUS
 62
     6
 10
26438.584405999962
 20
20183.54768
 30
0.0
 11
26349.870300999959
 21
20047.750725000002
 31
0.0
  0
LINE
  5
4727
  8
2-0
  6
CONTINUOUS
 62
     6
 10
26438.584405999962
 20
20183.54768
 30
0.0
 11
26477.832320999962
 21
20147.433343000001
 31
0.0
  0
LINE
  5
4728
  8
2-0
  6
CONTINUOUS
 62
     6
 10
19119.106523999992
 20
19775.042347999992
 30
0.0
 11
19251.039456999999
 21
19305.696512999992
 31
0.0
  0
LINE
  5
4729
  8
2-0
  6
CONTINUOUS
 62
     6
 10
19251.039456999999
 20
19305.696512999992
 30
0.0
 11
20276.077727999978
 21
19305.696512999992
 31
0.0
  0
LINE
  5
472A
  8
2-0
  6
CONTINUOUS
 62
     6
 10
19075.812473000002
 20
19929.070668
 30
0.0
 11
19093.434146999982
 21
19767.825023000001
 31
0.0
  0
LINE
  5
472B
  8
2-0
  6
CONTINUOUS
 62
     6
 10
19144.778900000001
 20
19782.263631999991
 30
0.0
 11
19093.434146999982
 21
19767.825023000001
 31
0.0
  0
LINE
  5
472C
  8
2-0
  6
CONTINUOUS
 62
     6
 10
19093.434146999982
 20
19767.825023000001
 30
0.0
 11
19075.812473000002
 21
19929.070668
 31
0.0
  0
LINE
  5
472D
  8
2-0
  6
CONTINUOUS
 62
     6
 10
19075.812473000002
 20
19929.070668
 30
0.0
 11
19144.778900000001
 21
19782.263631999991
 31
0.0
  0
LINE
  5
472E
  8
2-0
  6
CONTINUOUS
 62
     6
 10
19144.778900000001
 20
19782.263631999991
 30
0.0
 11
19075.812473000002
 21
19929.070668
 31
0.0
  0
LINE
  5
472F
  8
2-0
  6
CONTINUOUS
 62
     6
 10
19093.434146999982
 20
19767.825023000001
 30
0.0
 11
19075.812473000002
 21
19929.070668
 31
0.0
  0
LINE
  5
4730
  8
2-0
  6
CONTINUOUS
 62
     6
 10
19093.434146999982
 20
19767.825023000001
 30
0.0
 11
19144.778900000001
 21
19782.263631999991
 31
0.0
  0
LINE
  5
4731
  8
2-0
  6
CONTINUOUS
 62
     6
 10
23036.599529999981
 20
19904.063409999992
 30
0.0
 11
23185.469224999972
 21
19374.441234000002
 31
0.0
  0
LINE
  5
4732
  8
2-0
  6
CONTINUOUS
 62
     6
 10
23185.469224999972
 20
19374.441234000002
 30
0.0
 11
24210.51343399996
 21
19374.441234000002
 31
0.0
  0
LINE
  5
4733
  8
2-0
  6
CONTINUOUS
 62
     6
 10
23054.223183999951
 20
19742.817764999989
 30
0.0
 11
23105.57387499998
 21
19757.252414999992
 31
0.0
  0
LINE
  5
4734
  8
2-0
  6
CONTINUOUS
 62
     6
 10
23105.57387499998
 20
19757.252414999992
 30
0.0
 11
23054.223183999951
 21
19742.817764999989
 31
0.0
  0
LINE
  5
4735
  8
2-0
  6
CONTINUOUS
 62
     6
 10
23054.223183999951
 20
19742.817764999989
 30
0.0
 11
23036.599529999981
 21
19904.063409999992
 31
0.0
  0
LINE
  5
4736
  8
2-0
  6
CONTINUOUS
 62
     6
 10
23036.599529999981
 20
19904.063409999992
 30
0.0
 11
23105.57387499998
 21
19757.252414999992
 31
0.0
  0
LINE
  5
4737
  8
2-0
  6
CONTINUOUS
 62
     6
 10
23105.57387499998
 20
19757.252414999992
 30
0.0
 11
23036.599529999981
 21
19904.063409999992
 31
0.0
  0
LINE
  5
4738
  8
2-0
  6
CONTINUOUS
 62
     6
 10
23054.223183999951
 20
19742.817764999989
 30
0.0
 11
23036.599529999981
 21
19904.063409999992
 31
0.0
  0
LINE
  5
4739
  8
2-0
  6
CONTINUOUS
 62
     6
 10
23105.57387499998
 20
19757.252414999992
 30
0.0
 11
23036.599529999981
 21
19904.063409999992
 31
0.0
  0
LINE
  5
473A
  8
2-0
  6
CONTINUOUS
 62
     6
 10
23036.599529999981
 20
19904.063409999992
 30
0.0
 11
23054.223183999951
 21
19742.817764999989
 31
0.0
  0
LINE
  5
473B
  8
2-0
  6
CONTINUOUS
 62
     4
 10
22995.176123999961
 20
20102.816973000001
 30
0.0
 11
22995.176123999961
 21
20832.813937999981
 31
0.0
  0
LINE
  5
473C
  8
2-0
  6
CONTINUOUS
 62
     6
 10
26029.536686999971
 20
13643.046411999971
 30
0.0
 11
26161.28354599997
 21
13737.673338999981
 31
0.0
  0
LINE
  5
473D
  8
2-0
  6
CONTINUOUS
 62
     6
 10
26161.28354599997
 20
13737.673338999981
 30
0.0
 11
26067.35340999996
 21
13605.43456899997
 31
0.0
  0
LINE
  5
473E
  8
2-0
  6
CONTINUOUS
 62
     6
 10
26029.536686999971
 20
13643.046411999971
 30
0.0
 11
26067.35340999996
 21
13605.43456899997
 31
0.0
  0
LINE
  5
473F
  8
2-0
  6
CONTINUOUS
 62
     6
 10
26067.35340999996
 20
13605.43456899997
 30
0.0
 11
26161.28354599997
 21
13737.673338999981
 31
0.0
  0
LINE
  5
4740
  8
2-0
  6
CONTINUOUS
 62
     6
 10
26161.28354599997
 20
13737.673338999981
 30
0.0
 11
26029.536686999971
 21
13643.046411999971
 31
0.0
  0
LINE
  5
4741
  8
2-0
  6
CONTINUOUS
 62
     6
 10
26029.536686999971
 20
13643.046411999971
 30
0.0
 11
26161.28354599997
 21
13737.673338999981
 31
0.0
  0
LINE
  5
4742
  8
2-0
  6
CONTINUOUS
 62
     6
 10
26067.35340999996
 20
13605.43456899997
 30
0.0
 11
26161.28354599997
 21
13737.673338999981
 31
0.0
  0
LINE
  5
4743
  8
2-0
  6
CONTINUOUS
 62
     6
 10
26067.35340999996
 20
13605.43456899997
 30
0.0
 11
26029.536686999971
 21
13643.046411999971
 31
0.0
  0
LINE
  5
4744
  8
2-0
  6
CONTINUOUS
 62
     6
 10
26092.572475999961
 20
15237.442057312461
 30
0.0
 11
26225.17250799996
 21
15144.013729312461
 31
0.0
  0
LINE
  5
4745
  8
2-0
  6
CONTINUOUS
 62
     6
 10
26225.17250799996
 20
15144.013729312461
 30
0.0
 11
26069.43982199996
 21
15189.38924331248
 31
0.0
  0
LINE
  5
4746
  8
2-0
  6
CONTINUOUS
 62
     6
 10
26092.572475999961
 20
15237.442057312461
 30
0.0
 11
26069.43982199996
 21
15189.38924331248
 31
0.0
  0
LINE
  5
4747
  8
2-0
  6
CONTINUOUS
 62
     6
 10
26069.43982199996
 20
15189.38924331248
 30
0.0
 11
26225.17250799996
 21
15144.013729312461
 31
0.0
  0
LINE
  5
4748
  8
2-0
  6
CONTINUOUS
 62
     6
 10
26225.17250799996
 20
15144.013729312461
 30
0.0
 11
26092.572475999961
 21
15237.442057312461
 31
0.0
  0
LINE
  5
4749
  8
2-0
  6
CONTINUOUS
 62
     6
 10
26092.572475999961
 20
15237.442057312461
 30
0.0
 11
26225.17250799996
 21
15144.013729312461
 31
0.0
  0
LINE
  5
474A
  8
2-0
  6
CONTINUOUS
 62
     6
 10
26069.43982199996
 20
15189.38924331248
 30
0.0
 11
26225.17250799996
 21
15144.013729312461
 31
0.0
  0
LINE
  5
474B
  8
2-0
  6
CONTINUOUS
 62
     6
 10
26069.43982199996
 20
15189.38924331248
 30
0.0
 11
26092.572475999961
 21
15237.442057312461
 31
0.0
  0
LINE
  5
474C
  8
2-0
  6
CONTINUOUS
 62
     6
 10
26152.336121999961
 20
16700.271971999999
 30
0.0
 11
26306.174407999959
 21
16751.705803000001
 31
0.0
  0
LINE
  5
474D
  8
2-0
  6
CONTINUOUS
 62
     6
 10
26306.174407999959
 20
16751.705803000001
 30
0.0
 11
26177.339420999961
 21
16653.165368000002
 31
0.0
  0
LINE
  5
474E
  8
2-0
  6
CONTINUOUS
 62
     6
 10
26152.336121999961
 20
16700.271971999999
 30
0.0
 11
26177.339420999961
 21
16653.165368000002
 31
0.0
  0
LINE
  5
474F
  8
2-0
  6
CONTINUOUS
 62
     6
 10
26177.339420999961
 20
16653.165368000002
 30
0.0
 11
26306.174407999959
 21
16751.705803000001
 31
0.0
  0
LINE
  5
4750
  8
2-0
  6
CONTINUOUS
 62
     6
 10
26306.174407999959
 20
16751.705803000001
 30
0.0
 11
26152.336121999961
 21
16700.271971999999
 31
0.0
  0
LINE
  5
4751
  8
2-0
  6
CONTINUOUS
 62
     6
 10
26152.336121999961
 20
16700.271971999999
 30
0.0
 11
26306.174407999959
 21
16751.705803000001
 31
0.0
  0
LINE
  5
4752
  8
2-0
  6
CONTINUOUS
 62
     6
 10
26177.339420999961
 20
16653.165368000002
 30
0.0
 11
26306.174407999959
 21
16751.705803000001
 31
0.0
  0
LINE
  5
4753
  8
2-0
  6
CONTINUOUS
 62
     6
 10
26177.339420999961
 20
16653.165368000002
 30
0.0
 11
26152.336121999961
 21
16700.271971999999
 31
0.0
  0
LINE
  5
4754
  8
2-0
  6
CONTINUOUS
 62
     6
 10
26018.399914999962
 20
17191.59046399999
 30
0.0
 11
26161.28354599997
 21
17114.81483499999
 31
0.0
  0
LINE
  5
4755
  8
2-0
  6
CONTINUOUS
 62
     6
 10
26161.28354599997
 20
17114.81483499999
 30
0.0
 11
26001.22165299996
 21
17141.096904000002
 31
0.0
  0
LINE
  5
4756
  8
2-0
  6
CONTINUOUS
 62
     6
 10
26018.399914999962
 20
17191.59046399999
 30
0.0
 11
26001.22165299996
 21
17141.096904000002
 31
0.0
  0
LINE
  5
4757
  8
2-0
  6
CONTINUOUS
 62
     6
 10
26001.22165299996
 20
17141.096904000002
 30
0.0
 11
26161.28354599997
 21
17114.81483499999
 31
0.0
  0
LINE
  5
4758
  8
2-0
  6
CONTINUOUS
 62
     6
 10
26161.28354599997
 20
17114.81483499999
 30
0.0
 11
26018.399914999962
 21
17191.59046399999
 31
0.0
  0
LINE
  5
4759
  8
2-0
  6
CONTINUOUS
 62
     6
 10
26018.399914999962
 20
17191.59046399999
 30
0.0
 11
26161.28354599997
 21
17114.81483499999
 31
0.0
  0
LINE
  5
475A
  8
2-0
  6
CONTINUOUS
 62
     6
 10
26001.22165299996
 20
17141.096904000002
 30
0.0
 11
26161.28354599997
 21
17114.81483499999
 31
0.0
  0
LINE
  5
475B
  8
2-0
  6
CONTINUOUS
 62
     6
 10
26001.22165299996
 20
17141.096904000002
 30
0.0
 11
26018.399914999962
 21
17191.59046399999
 31
0.0
  0
LINE
  5
475C
  8
2-0
  6
CONTINUOUS
 62
     3
 10
19755.67142599999
 20
20022.814729999998
 30
0.0
 11
19718.670263999989
 21
20022.814729999998
 31
0.0
  0
LINE
  5
475D
  8
2-0
  6
CONTINUOUS
 62
     3
 10
19755.67142599999
 20
19992.811166999989
 30
0.0
 11
19755.67142599999
 21
20022.814729999998
 31
0.0
  0
LINE
  5
475E
  8
2-0
  6
CONTINUOUS
 62
     3
 10
19749.671504999969
 20
19992.811166999989
 30
0.0
 11
19755.67142599999
 21
19992.811166999989
 31
0.0
  0
LINE
  5
475F
  8
2-0
  6
CONTINUOUS
 62
     3
 10
19765.768949999991
 20
19992.811166999989
 30
0.0
 11
19765.768949999991
 21
20022.814729999998
 31
0.0
  0
LINE
  5
4760
  8
2-0
  6
CONTINUOUS
 62
     3
 10
19747.76522899999
 20
19992.811166999989
 30
0.0
 11
19765.768949999991
 21
19992.811166999989
 31
0.0
  0
LINE
  5
4761
  8
2-0
  6
CONTINUOUS
 62
     3
 10
19747.76522899999
 20
20017.820403999991
 30
0.0
 11
19747.76522899999
 21
19992.811166999989
 31
0.0
  0
LINE
  5
4762
  8
2-0
  6
CONTINUOUS
 62
     3
 10
19752.765492999992
 20
20017.820403999991
 30
0.0
 11
19747.76522899999
 21
20017.820403999991
 31
0.0
  0
LINE
  5
4763
  8
2-0
  6
CONTINUOUS
 62
     3
 10
19752.765492999992
 20
20010.814888000001
 30
0.0
 11
19752.765492999992
 21
20017.820403999991
 31
0.0
  0
LINE
  5
4764
  8
2-0
  6
CONTINUOUS
 62
     3
 10
19721.576197999981
 20
20010.814888000001
 30
0.0
 11
19721.576197999981
 21
20017.820403999991
 31
0.0
  0
LINE
  5
4765
  8
2-0
  6
CONTINUOUS
 62
     3
 10
19721.576197999981
 20
20017.820403999991
 30
0.0
 11
19726.57646199999
 21
20017.820403999991
 31
0.0
  0
LINE
  5
4766
  8
2-0
  6
CONTINUOUS
 62
     3
 10
19726.57646199999
 20
20017.820403999991
 30
0.0
 11
19726.57646199999
 21
19992.811166999989
 31
0.0
  0
LINE
  5
4767
  8
2-0
  6
CONTINUOUS
 62
     3
 10
19726.57646199999
 20
19992.811166999989
 30
0.0
 11
19708.57669899999
 21
19992.811166999989
 31
0.0
  0
LINE
  5
4768
  8
2-0
  6
CONTINUOUS
 62
     3
 10
19708.57669899999
 20
19992.811166999989
 30
0.0
 11
19708.57669899999
 21
20022.814729999998
 31
0.0
  0
LINE
  5
4769
  8
2-0
  6
CONTINUOUS
 62
     3
 10
19724.670184999992
 20
19992.811166999989
 30
0.0
 11
19718.670263999989
 21
19992.811166999989
 31
0.0
  0
LINE
  5
476A
  8
2-0
  6
CONTINUOUS
 62
     3
 10
19718.670263999989
 20
19992.811166999989
 30
0.0
 11
19718.670263999989
 21
20022.814729999998
 31
0.0
  0
LINE
  5
476B
  8
2-0
  6
CONTINUOUS
 62
     3
 10
17214.172164999989
 20
19913.814518999981
 30
0.0
 11
17214.172164999989
 21
19907.818556999991
 31
0.0
  0
LINE
  5
476C
  8
2-0
  6
CONTINUOUS
 62
     3
 10
17214.172164999989
 20
19907.818556999991
 30
0.0
 11
17184.174539999989
 21
19907.818556999991
 31
0.0
  0
LINE
  5
476D
  8
2-0
  6
CONTINUOUS
 62
     3
 10
17184.174539999989
 20
19907.818556999991
 30
0.0
 11
17184.174539999989
 21
20022.814729999998
 31
0.0
  0
LINE
  5
476E
  8
2-0
  6
CONTINUOUS
 62
     3
 10
17184.174539999989
 20
19937.818160999981
 30
0.0
 11
17265.172480999991
 21
19937.818160999981
 31
0.0
  0
LINE
  5
476F
  8
2-0
  6
CONTINUOUS
 62
     3
 10
17214.172164999989
 20
19897.521100999991
 30
0.0
 11
17184.174539999989
 21
19897.521100999991
 31
0.0
  0
LINE
  5
4770
  8
2-0
  6
CONTINUOUS
 62
     3
 10
17214.172164999989
 20
19915.522842999992
 30
0.0
 11
17214.172164999989
 21
19897.521100999991
 31
0.0
  0
LINE
  5
4771
  8
2-0
  6
CONTINUOUS
 62
     3
 10
17189.178762999989
 20
19915.522842999992
 30
0.0
 11
17214.172164999989
 21
19915.522842999992
 31
0.0
  0
LINE
  5
4772
  8
2-0
  6
CONTINUOUS
 62
     3
 10
17189.178762999989
 20
19910.514661000001
 30
0.0
 11
17189.178762999989
 21
19915.522842999992
 31
0.0
  0
LINE
  5
4773
  8
2-0
  6
CONTINUOUS
 62
     3
 10
17196.176360999969
 20
19910.514661000001
 30
0.0
 11
17189.178762999989
 21
19910.514661000001
 31
0.0
  0
LINE
  5
4774
  8
2-0
  6
CONTINUOUS
 62
     3
 10
17296.470649999981
 20
20010.814888000001
 30
0.0
 11
17296.470649999981
 21
20017.820403999991
 31
0.0
  0
LINE
  5
4775
  8
2-0
  6
CONTINUOUS
 62
     3
 10
17296.470649999981
 20
20017.820403999991
 30
0.0
 11
17291.468405999989
 21
20017.820403999991
 31
0.0
  0
LINE
  5
4776
  8
2-0
  6
CONTINUOUS
 62
     3
 10
17291.468405999989
 20
20017.820403999991
 30
0.0
 11
17291.468405999989
 21
19992.811166999989
 31
0.0
  0
LINE
  5
4777
  8
2-0
  6
CONTINUOUS
 62
     3
 10
17291.468405999989
 20
19992.811166999989
 30
0.0
 11
17309.476086999981
 21
19992.811166999989
 31
0.0
  0
LINE
  5
4778
  8
2-0
  6
CONTINUOUS
 62
     3
 10
17309.476086999981
 20
19992.811166999989
 30
0.0
 11
17309.476086999981
 21
20022.814729999998
 31
0.0
  0
LINE
  5
4779
  8
2-0
  6
CONTINUOUS
 62
     3
 10
17299.176650999991
 20
20022.814729999998
 30
0.0
 11
17184.174539999989
 21
20022.814729999998
 31
0.0
  0
LINE
  5
477A
  8
2-0
  6
CONTINUOUS
 62
     3
 10
17299.176650999991
 20
19992.811166999989
 30
0.0
 11
17299.176650999991
 21
20022.814729999998
 31
0.0
  0
LINE
  5
477B
  8
2-0
  6
CONTINUOUS
 62
     3
 10
17293.172771999991
 20
19992.811166999989
 30
0.0
 11
17299.176650999991
 21
19992.811166999989
 31
0.0
  0
LINE
  5
477C
  8
2-0
  6
CONTINUOUS
 62
     3
 10
18350.76054349999
 20
20010.814888000001
 30
0.0
 11
18350.76054349999
 21
20017.820403999991
 31
0.0
  0
LINE
  5
477D
  8
2-0
  6
CONTINUOUS
 62
     3
 10
18350.76054349999
 20
20017.820403999991
 30
0.0
 11
18345.760279499991
 21
20017.820403999991
 31
0.0
  0
LINE
  5
477E
  8
2-0
  6
CONTINUOUS
 62
     3
 10
18345.760279499991
 20
20017.820403999991
 30
0.0
 11
18345.760279499991
 21
19992.811166999989
 31
0.0
  0
LINE
  5
477F
  8
2-0
  6
CONTINUOUS
 62
     3
 10
18345.760279499991
 20
19992.811166999989
 30
0.0
 11
18363.765980499989
 21
19992.811166999989
 31
0.0
  0
LINE
  5
4780
  8
2-0
  6
CONTINUOUS
 62
     3
 10
18363.765980499989
 20
19992.811166999989
 30
0.0
 11
18363.765980499989
 21
20022.814729999998
 31
0.0
  0
LINE
  5
4781
  8
2-0
  6
CONTINUOUS
 62
     3
 10
18347.668535499961
 20
19992.811166999989
 30
0.0
 11
18353.670435499978
 21
19992.811166999989
 31
0.0
  0
LINE
  5
4782
  8
2-0
  6
CONTINUOUS
 62
     3
 10
18353.670435499978
 20
19992.811166999989
 30
0.0
 11
18353.670435499978
 21
20022.814729999998
 31
0.0
  0
LINE
  5
4783
  8
2-0
  6
CONTINUOUS
 62
     3
 10
18316.671254499961
 20
20022.814729999998
 30
0.0
 11
18353.670435499978
 21
20022.814729999998
 31
0.0
  0
LINE
  5
4784
  8
2-0
  6
CONTINUOUS
 62
     3
 10
18316.671254499961
 20
19992.811166999989
 30
0.0
 11
18316.671254499961
 21
20022.814729999998
 31
0.0
  0
LINE
  5
4785
  8
2-0
  6
CONTINUOUS
 62
     3
 10
18322.66523649999
 20
19992.811166999989
 30
0.0
 11
18316.671254499961
 21
19992.811166999989
 31
0.0
  0
LINE
  5
4786
  8
2-0
  6
CONTINUOUS
 62
     3
 10
18306.575709499979
 20
19992.811166999989
 30
0.0
 11
18306.575709499979
 21
20022.814729999998
 31
0.0
  0
LINE
  5
4787
  8
2-0
  6
CONTINUOUS
 62
     3
 10
18324.571512499992
 20
19992.811166999989
 30
0.0
 11
18306.575709499979
 21
19992.811166999989
 31
0.0
  0
LINE
  5
4788
  8
2-0
  6
CONTINUOUS
 62
     3
 10
18324.571512499992
 20
20017.820403999991
 30
0.0
 11
18324.571512499992
 21
19992.811166999989
 31
0.0
  0
LINE
  5
4789
  8
2-0
  6
CONTINUOUS
 62
     3
 10
18319.571248499989
 20
20017.820403999991
 30
0.0
 11
18324.571512499992
 21
20017.820403999991
 31
0.0
  0
LINE
  5
478A
  8
2-0
  6
CONTINUOUS
 62
     3
 10
18319.571248499989
 20
20010.814888000001
 30
0.0
 11
18319.571248499989
 21
20017.820403999991
 31
0.0
  0
LINE
  5
478B
  8
2-0
  6
CONTINUOUS
 62
     3
 10
19020.570259499978
 20
20010.814888000001
 30
0.0
 11
19020.570259499978
 21
20017.820403999991
 31
0.0
  0
LINE
  5
478C
  8
2-0
  6
CONTINUOUS
 62
     3
 10
19020.570259499978
 20
20017.820403999991
 30
0.0
 11
19025.570522499991
 21
20017.820403999991
 31
0.0
  0
LINE
  5
478D
  8
2-0
  6
CONTINUOUS
 62
     3
 10
19025.570522499991
 20
20017.820403999991
 30
0.0
 11
19025.570522499991
 21
19992.811166999989
 31
0.0
  0
LINE
  5
478E
  8
2-0
  6
CONTINUOUS
 62
     3
 10
19025.570522499991
 20
19992.811166999989
 30
0.0
 11
19007.576699499961
 21
19992.811166999989
 31
0.0
  0
LINE
  5
478F
  8
2-0
  6
CONTINUOUS
 62
     3
 10
19007.576699499961
 20
19992.811166999989
 30
0.0
 11
19007.576699499961
 21
20022.814729999998
 31
0.0
  0
LINE
  5
4790
  8
2-0
  6
CONTINUOUS
 62
     3
 10
19023.66820549998
 20
19992.811166999989
 30
0.0
 11
19017.67026449999
 21
19992.811166999989
 31
0.0
  0
LINE
  5
4791
  8
2-0
  6
CONTINUOUS
 62
     3
 10
19017.67026449999
 20
19992.811166999989
 30
0.0
 11
19017.67026449999
 21
20022.814729999998
 31
0.0
  0
LINE
  5
4792
  8
2-0
  6
CONTINUOUS
 62
     3
 10
19054.67142549999
 20
20022.814729999998
 30
0.0
 11
19017.67026449999
 21
20022.814729999998
 31
0.0
  0
LINE
  5
4793
  8
2-0
  6
CONTINUOUS
 62
     3
 10
19054.67142549999
 20
19992.811166999989
 30
0.0
 11
19054.67142549999
 21
20022.814729999998
 31
0.0
  0
LINE
  5
4794
  8
2-0
  6
CONTINUOUS
 62
     3
 10
19048.665566499982
 20
19992.811166999989
 30
0.0
 11
19054.67142549999
 21
19992.811166999989
 31
0.0
  0
LINE
  5
4795
  8
2-0
  6
CONTINUOUS
 62
     3
 10
19064.764990499982
 20
19992.811166999989
 30
0.0
 11
19064.764990499982
 21
20022.814729999998
 31
0.0
  0
LINE
  5
4796
  8
2-0
  6
CONTINUOUS
 62
     3
 10
19046.769187499991
 20
19992.811166999989
 30
0.0
 11
19064.764990499982
 21
19992.811166999989
 31
0.0
  0
LINE
  5
4797
  8
2-0
  6
CONTINUOUS
 62
     3
 10
19046.769187499991
 20
20017.820403999991
 30
0.0
 11
19046.769187499991
 21
19992.811166999989
 31
0.0
  0
LINE
  5
4798
  8
2-0
  6
CONTINUOUS
 62
     3
 10
19051.759553499978
 20
20017.820403999991
 30
0.0
 11
19046.769187499991
 21
20017.820403999991
 31
0.0
  0
LINE
  5
4799
  8
2-0
  6
CONTINUOUS
 62
     3
 10
19051.759553499978
 20
20010.814888000001
 30
0.0
 11
19051.759553499978
 21
20017.820403999991
 31
0.0
  0
LINE
  5
479A
  8
2-0
  6
CONTINUOUS
 62
     3
 10
18363.765980499989
 20
20022.814729999998
 30
0.0
 11
19007.576699499961
 21
20022.814729999998
 31
0.0
  0
LINE
  5
479B
  8
2-0
  6
CONTINUOUS
 62
     3
 10
17662.969871000001
 20
20022.814729999998
 30
0.0
 11
18306.575709499979
 21
20022.814729999998
 31
0.0
  0
LINE
  5
479C
  8
2-0
  6
CONTINUOUS
 62
     3
 10
20422.670977000002
 20
20022.814729999998
 30
0.0
 11
20422.670977000002
 21
19992.811166999989
 31
0.0
  0
LINE
  5
479D
  8
2-0
  6
CONTINUOUS
 62
     3
 10
20422.670977000002
 20
19992.811166999989
 30
0.0
 11
20428.674856000001
 21
19992.811166999989
 31
0.0
  0
LINE
  5
479E
  8
2-0
  6
CONTINUOUS
 62
     3
 10
20413.05447499999
 20
19992.811166999989
 30
0.0
 11
20413.05447499999
 21
20022.814729999998
 31
0.0
  0
LINE
  5
479F
  8
2-0
  6
CONTINUOUS
 62
     3
 10
20431.062155999989
 20
19992.811166999989
 30
0.0
 11
20413.05447499999
 21
19992.811166999989
 31
0.0
  0
LINE
  5
47A0
  8
2-0
  6
CONTINUOUS
 62
     3
 10
20431.062155999989
 20
20017.820403999991
 30
0.0
 11
20431.062155999989
 21
19992.811166999989
 31
0.0
  0
LINE
  5
47A1
  8
2-0
  6
CONTINUOUS
 62
     3
 10
20426.055952999988
 20
20017.820403999991
 30
0.0
 11
20431.062155999989
 21
20017.820403999991
 31
0.0
  0
LINE
  5
47A2
  8
2-0
  6
CONTINUOUS
 62
     3
 10
20426.055952999988
 20
20010.814888000001
 30
0.0
 11
20426.055952999988
 21
20017.820403999991
 31
0.0
  0
LINE
  5
47A3
  8
2-0
  6
CONTINUOUS
 62
     3
 10
20452.67454
 20
20019.922653000001
 30
0.0
 11
20452.67454
 21
19934.924104999991
 31
0.0
  0
LINE
  5
47A4
  8
2-0
  6
CONTINUOUS
 62
     3
 10
20472.673615999989
 20
20019.922653000001
 30
0.0
 11
20452.67454
 21
20019.922653000001
 31
0.0
  0
LINE
  5
47A5
  8
2-0
  6
CONTINUOUS
 62
     3
 10
20564.287714999999
 20
20010.814888000001
 30
0.0
 11
20564.287714999999
 21
20017.820403999991
 31
0.0
  0
LINE
  5
47A6
  8
2-0
  6
CONTINUOUS
 62
     3
 10
20564.287714999999
 20
20017.820403999991
 30
0.0
 11
20559.28547200001
 21
20017.820403999991
 31
0.0
  0
LINE
  5
47A7
  8
2-0
  6
CONTINUOUS
 62
     3
 10
20559.28547200001
 20
20017.820403999991
 30
0.0
 11
20559.28547200001
 21
19992.811166999989
 31
0.0
  0
LINE
  5
47A8
  8
2-0
  6
CONTINUOUS
 62
     3
 10
20559.28547200001
 20
19992.811166999989
 30
0.0
 11
20577.28919299999
 21
19992.811166999989
 31
0.0
  0
LINE
  5
47A9
  8
2-0
  6
CONTINUOUS
 62
     3
 10
20577.28919299999
 20
19992.811166999989
 30
0.0
 11
20577.28919299999
 21
20022.814729999998
 31
0.0
  0
LINE
  5
47AA
  8
2-0
  6
CONTINUOUS
 62
     3
 10
20537.673087999989
 20
20019.922653000001
 30
0.0
 11
20517.670053000002
 21
20019.922653000001
 31
0.0
  0
LINE
  5
47AB
  8
2-0
  6
CONTINUOUS
 62
     3
 10
20537.673087999989
 20
19934.924104999991
 30
0.0
 11
20537.673087999989
 21
20019.922653000001
 31
0.0
  0
LINE
  5
47AC
  8
2-0
  6
CONTINUOUS
 62
     3
 10
20567.672692
 20
19992.811166999989
 30
0.0
 11
20561.67277099999
 21
19992.811166999989
 31
0.0
  0
LINE
  5
47AD
  8
2-0
  6
CONTINUOUS
 62
     3
 10
20567.672692
 20
20022.814729999998
 30
0.0
 11
20567.672692
 21
19992.811166999989
 31
0.0
  0
LINE
  5
47AE
  8
2-0
  6
CONTINUOUS
 62
     3
 10
20452.67454
 20
19934.924104999991
 30
0.0
 11
20537.673087999989
 21
19934.924104999991
 31
0.0
  0
LINE
  5
47AF
  8
2-0
  6
CONTINUOUS
 62
     3
 10
20422.670977000002
 20
20022.814729999998
 30
0.0
 11
20567.672692
 21
20022.814729999998
 31
0.0
  0
LINE
  5
47B0
  8
2-0
  6
CONTINUOUS
 62
     3
 10
20413.05447499999
 20
20022.814729999998
 30
0.0
 11
19765.768949999991
 21
20022.814729999998
 31
0.0
  0
LINE
  5
47B1
  8
2-0
  6
CONTINUOUS
 62
     3
 10
19708.57669899999
 20
20022.814729999998
 30
0.0
 11
19064.764990499982
 21
20022.814729999998
 31
0.0
  0
LINE
  5
47B2
  8
2-0
  6
CONTINUOUS
 62
     3
 10
17214.172164999989
 20
19913.814518999981
 30
0.0
 11
17214.172164999989
 21
19907.818556999991
 31
0.0
  0
LINE
  5
47B3
  8
2-0
  6
CONTINUOUS
 62
     3
 10
17214.172164999989
 20
19907.818556999991
 30
0.0
 11
17184.174539999989
 21
19907.818556999991
 31
0.0
  0
LINE
  5
47B4
  8
2-0
  6
CONTINUOUS
 62
     3
 10
17184.174539999989
 20
19907.818556999991
 30
0.0
 11
17184.174539999989
 21
20022.814729999998
 31
0.0
  0
LINE
  5
47B5
  8
2-0
  6
CONTINUOUS
 62
     3
 10
17184.174539999989
 20
19937.818160999981
 30
0.0
 11
17265.172480999991
 21
19937.818160999981
 31
0.0
  0
LINE
  5
47B6
  8
2-0
  6
CONTINUOUS
 62
     3
 10
17214.172164999989
 20
19897.521100999991
 30
0.0
 11
17184.174539999989
 21
19897.521100999991
 31
0.0
  0
LINE
  5
47B7
  8
2-0
  6
CONTINUOUS
 62
     3
 10
17214.172164999989
 20
19915.522842999992
 30
0.0
 11
17214.172164999989
 21
19897.521100999991
 31
0.0
  0
LINE
  5
47B8
  8
2-0
  6
CONTINUOUS
 62
     3
 10
17189.178762999989
 20
19915.522842999992
 30
0.0
 11
17214.172164999989
 21
19915.522842999992
 31
0.0
  0
LINE
  5
47B9
  8
2-0
  6
CONTINUOUS
 62
     3
 10
17189.178762999989
 20
19910.514661000001
 30
0.0
 11
17189.178762999989
 21
19915.522842999992
 31
0.0
  0
LINE
  5
47BA
  8
2-0
  6
CONTINUOUS
 62
     3
 10
17196.176360999969
 20
19910.514661000001
 30
0.0
 11
17189.178762999989
 21
19910.514661000001
 31
0.0
  0
LINE
  5
47BB
  8
2-0
  6
CONTINUOUS
 62
     3
 10
17196.176360999969
 20
19206.717838499961
 30
0.0
 11
17189.178762999989
 21
19206.717838499961
 31
0.0
  0
LINE
  5
47BC
  8
2-0
  6
CONTINUOUS
 62
     3
 10
17189.178762999989
 20
19206.717838499961
 30
0.0
 11
17189.178762999989
 21
19211.718102499981
 31
0.0
  0
LINE
  5
47BD
  8
2-0
  6
CONTINUOUS
 62
     3
 10
17189.178762999989
 20
19211.718102499981
 30
0.0
 11
17214.172164999989
 21
19211.718102499981
 31
0.0
  0
LINE
  5
47BE
  8
2-0
  6
CONTINUOUS
 62
     3
 10
17214.172164999989
 20
19211.718102499981
 30
0.0
 11
17214.172164999989
 21
19193.722298499961
 31
0.0
  0
LINE
  5
47BF
  8
2-0
  6
CONTINUOUS
 62
     3
 10
17214.172164999989
 20
19193.722298499961
 30
0.0
 11
17184.174539999989
 21
19193.722298499961
 31
0.0
  0
LINE
  5
47C0
  8
2-0
  6
CONTINUOUS
 62
     3
 10
17214.172164999989
 20
19209.813805499962
 30
0.0
 11
17214.172164999989
 21
19203.81586449996
 31
0.0
  0
LINE
  5
47C1
  8
2-0
  6
CONTINUOUS
 62
     3
 10
17214.172164999989
 20
19203.81586449996
 30
0.0
 11
17184.174539999989
 21
19203.81586449996
 31
0.0
  0
LINE
  5
47C2
  8
2-0
  6
CONTINUOUS
 62
     3
 10
17184.174539999989
 20
19203.81586449996
 30
0.0
 11
17184.174539999989
 21
19240.81702549995
 31
0.0
  0
LINE
  5
47C3
  8
2-0
  6
CONTINUOUS
 62
     3
 10
17214.172164999989
 20
19240.81702549995
 30
0.0
 11
17184.174539999989
 21
19240.81702549995
 31
0.0
  0
LINE
  5
47C4
  8
2-0
  6
CONTINUOUS
 62
     3
 10
17214.172164999989
 20
19234.813145499971
 30
0.0
 11
17214.172164999989
 21
19240.81702549995
 31
0.0
  0
LINE
  5
47C5
  8
2-0
  6
CONTINUOUS
 62
     3
 10
17214.172164999989
 20
19250.912570499971
 30
0.0
 11
17184.174539999989
 21
19250.912570499971
 31
0.0
  0
LINE
  5
47C6
  8
2-0
  6
CONTINUOUS
 62
     3
 10
17214.172164999989
 20
19232.91082849996
 30
0.0
 11
17214.172164999989
 21
19250.912570499971
 31
0.0
  0
LINE
  5
47C7
  8
2-0
  6
CONTINUOUS
 62
     3
 10
17189.178762999989
 20
19232.91082849996
 30
0.0
 11
17214.172164999989
 21
19232.91082849996
 31
0.0
  0
LINE
  5
47C8
  8
2-0
  6
CONTINUOUS
 62
     3
 10
17189.178762999989
 20
19237.91109249998
 30
0.0
 11
17189.178762999989
 21
19232.91082849996
 31
0.0
  0
LINE
  5
47C9
  8
2-0
  6
CONTINUOUS
 62
     3
 10
17196.176360999969
 20
19237.91109249998
 30
0.0
 11
17189.178762999989
 21
19237.91109249998
 31
0.0
  0
LINE
  5
47CA
  8
2-0
  6
CONTINUOUS
 62
     3
 10
17196.176360999969
 20
18505.71783899999
 30
0.0
 11
17189.178762999989
 21
18505.71783899999
 31
0.0
  0
LINE
  5
47CB
  8
2-0
  6
CONTINUOUS
 62
     3
 10
17189.178762999989
 20
18505.71783899999
 30
0.0
 11
17189.178762999989
 21
18510.724040999969
 31
0.0
  0
LINE
  5
47CC
  8
2-0
  6
CONTINUOUS
 62
     3
 10
17189.178762999989
 20
18510.724040999969
 30
0.0
 11
17214.172164999989
 21
18510.724040999969
 31
0.0
  0
LINE
  5
47CD
  8
2-0
  6
CONTINUOUS
 62
     3
 10
17214.172164999989
 20
18510.724040999969
 30
0.0
 11
17214.172164999989
 21
18492.722298999979
 31
0.0
  0
LINE
  5
47CE
  8
2-0
  6
CONTINUOUS
 62
     3
 10
17214.172164999989
 20
18492.722298999979
 30
0.0
 11
17184.174539999989
 21
18492.722298999979
 31
0.0
  0
LINE
  5
47CF
  8
2-0
  6
CONTINUOUS
 62
     3
 10
17214.172164999989
 20
18508.813805999969
 30
0.0
 11
17214.172164999989
 21
18502.817843999968
 31
0.0
  0
LINE
  5
47D0
  8
2-0
  6
CONTINUOUS
 62
     3
 10
17214.172164999989
 20
18502.817843999968
 30
0.0
 11
17184.174539999989
 21
18502.817843999968
 31
0.0
  0
LINE
  5
47D1
  8
2-0
  6
CONTINUOUS
 62
     3
 10
17184.174539999989
 20
18502.817843999968
 30
0.0
 11
17184.174539999989
 21
18539.817025999961
 31
0.0
  0
LINE
  5
47D2
  8
2-0
  6
CONTINUOUS
 62
     3
 10
17214.172164999989
 20
18539.817025999961
 30
0.0
 11
17184.174539999989
 21
18539.817025999961
 31
0.0
  0
LINE
  5
47D3
  8
2-0
  6
CONTINUOUS
 62
     3
 10
17214.172164999989
 20
18533.821063999982
 30
0.0
 11
17214.172164999989
 21
18539.817025999961
 31
0.0
  0
LINE
  5
47D4
  8
2-0
  6
CONTINUOUS
 62
     3
 10
17214.172164999989
 20
18549.91257099999
 30
0.0
 11
17184.174539999989
 21
18549.91257099999
 31
0.0
  0
LINE
  5
47D5
  8
2-0
  6
CONTINUOUS
 62
     3
 10
17214.172164999989
 20
18531.91082899996
 30
0.0
 11
17214.172164999989
 21
18549.91257099999
 31
0.0
  0
LINE
  5
47D6
  8
2-0
  6
CONTINUOUS
 62
     3
 10
17189.178762999989
 20
18531.91082899996
 30
0.0
 11
17214.172164999989
 21
18531.91082899996
 31
0.0
  0
LINE
  5
47D7
  8
2-0
  6
CONTINUOUS
 62
     3
 10
17189.178762999989
 20
18536.91703099995
 30
0.0
 11
17189.178762999989
 21
18531.91082899996
 31
0.0
  0
LINE
  5
47D8
  8
2-0
  6
CONTINUOUS
 62
     3
 10
17196.176360999969
 20
18536.91703099995
 30
0.0
 11
17189.178762999989
 21
18536.91703099995
 31
0.0
  0
LINE
  5
47D9
  8
2-0
  6
CONTINUOUS
 62
     3
 10
17196.176360999969
 20
17835.910102999991
 30
0.0
 11
17189.178762999989
 21
17835.910102999991
 31
0.0
  0
LINE
  5
47DA
  8
2-0
  6
CONTINUOUS
 62
     3
 10
17189.178762999989
 20
17835.910102999991
 30
0.0
 11
17189.178762999989
 21
17830.921715999972
 31
0.0
  0
LINE
  5
47DB
  8
2-0
  6
CONTINUOUS
 62
     3
 10
17189.178762999989
 20
17830.921715999972
 30
0.0
 11
17214.172164999989
 21
17830.921715999972
 31
0.0
  0
LINE
  5
47DC
  8
2-0
  6
CONTINUOUS
 62
     3
 10
17214.172164999989
 20
17830.921715999972
 30
0.0
 11
17214.172164999989
 21
17848.917518999991
 31
0.0
  0
LINE
  5
47DD
  8
2-0
  6
CONTINUOUS
 62
     3
 10
17214.172164999989
 20
17848.917518999991
 30
0.0
 11
17184.174539999989
 21
17848.917518999991
 31
0.0
  0
LINE
  5
47DE
  8
2-0
  6
CONTINUOUS
 62
     3
 10
17214.172164999989
 20
17832.820073999981
 30
0.0
 11
17214.172164999989
 21
17838.816035999971
 31
0.0
  0
LINE
  5
47DF
  8
2-0
  6
CONTINUOUS
 62
     3
 10
17214.172164999989
 20
17838.816035999971
 30
0.0
 11
17184.174539999989
 21
17838.816035999971
 31
0.0
  0
LINE
  5
47E0
  8
2-0
  6
CONTINUOUS
 62
     3
 10
17184.174539999989
 20
17838.816035999971
 30
0.0
 11
17184.174539999989
 21
17801.816853999961
 31
0.0
  0
LINE
  5
47E1
  8
2-0
  6
CONTINUOUS
 62
     3
 10
17214.172164999989
 20
17801.816853999961
 30
0.0
 11
17184.174539999989
 21
17801.816853999961
 31
0.0
  0
LINE
  5
47E2
  8
2-0
  6
CONTINUOUS
 62
     3
 10
17214.172164999989
 20
17807.818754999978
 30
0.0
 11
17214.172164999989
 21
17801.816853999961
 31
0.0
  0
LINE
  5
47E3
  8
2-0
  6
CONTINUOUS
 62
     3
 10
17214.172164999989
 20
17791.727247999981
 30
0.0
 11
17184.174539999989
 21
17791.727247999981
 31
0.0
  0
LINE
  5
47E4
  8
2-0
  6
CONTINUOUS
 62
     3
 10
17214.172164999989
 20
17809.723050999972
 30
0.0
 11
17214.172164999989
 21
17791.727247999981
 31
0.0
  0
LINE
  5
47E5
  8
2-0
  6
CONTINUOUS
 62
     3
 10
17189.178762999989
 20
17809.723050999972
 30
0.0
 11
17214.172164999989
 21
17809.723050999972
 31
0.0
  0
LINE
  5
47E6
  8
2-0
  6
CONTINUOUS
 62
     3
 10
17189.178762999989
 20
17804.722787999981
 30
0.0
 11
17189.178762999989
 21
17809.723050999972
 31
0.0
  0
LINE
  5
47E7
  8
2-0
  6
CONTINUOUS
 62
     3
 10
17196.176360999969
 20
17804.722787999981
 30
0.0
 11
17189.178762999989
 21
17804.722787999981
 31
0.0
  0
LINE
  5
47E8
  8
2-0
  6
CONTINUOUS
 62
     3
 10
17187.060677999991
 20
17084.813673999972
 30
0.0
 11
17187.060677999991
 21
17104.814728999969
 31
0.0
  0
LINE
  5
47E9
  8
2-0
  6
CONTINUOUS
 62
     3
 10
17187.060677999991
 20
17104.814728999969
 30
0.0
 11
17272.061205999991
 21
17104.814728999969
 31
0.0
  0
LINE
  5
47EA
  8
2-0
  6
CONTINUOUS
 62
     3
 10
17196.176360999969
 20
17131.421438999991
 30
0.0
 11
17189.178762999989
 21
17131.421438999991
 31
0.0
  0
LINE
  5
47EB
  8
2-0
  6
CONTINUOUS
 62
     3
 10
17189.178762999989
 20
17131.421438999991
 30
0.0
 11
17189.178762999989
 21
17126.427112999991
 31
0.0
  0
LINE
  5
47EC
  8
2-0
  6
CONTINUOUS
 62
     3
 10
17189.178762999989
 20
17126.427112999991
 30
0.0
 11
17214.172164999989
 21
17126.427112999991
 31
0.0
  0
LINE
  5
47ED
  8
2-0
  6
CONTINUOUS
 62
     3
 10
17214.172164999989
 20
17126.427112999991
 30
0.0
 11
17214.172164999989
 21
17144.422916999989
 31
0.0
  0
LINE
  5
47EE
  8
2-0
  6
CONTINUOUS
 62
     3
 10
17214.172164999989
 20
17144.422916999989
 30
0.0
 11
17184.174539999989
 21
17144.422916999989
 31
0.0
  0
LINE
  5
47EF
  8
2-0
  6
CONTINUOUS
 62
     3
 10
17214.172164999989
 20
17134.81433299998
 30
0.0
 11
17214.172164999989
 21
17128.812432999981
 31
0.0
  0
LINE
  5
47F0
  8
2-0
  6
CONTINUOUS
 62
     3
 10
17184.174539999989
 20
17134.81433299998
 30
0.0
 11
17214.172164999989
 21
17134.81433299998
 31
0.0
  0
LINE
  5
47F1
  8
2-0
  6
CONTINUOUS
 62
     3
 10
17184.174539999989
 20
17144.422916999989
 30
0.0
 11
17184.174539999989
 21
17791.727247999981
 31
0.0
  0
LINE
  5
47F2
  8
2-0
  6
CONTINUOUS
 62
     3
 10
17184.174539999989
 20
17848.917518999991
 30
0.0
 11
17184.174539999989
 21
18492.722298999979
 31
0.0
  0
LINE
  5
47F3
  8
2-0
  6
CONTINUOUS
 62
     3
 10
17184.174539999989
 20
16989.812617999989
 30
0.0
 11
17214.172164999989
 21
16989.812617999989
 31
0.0
  0
LINE
  5
47F4
  8
2-0
  6
CONTINUOUS
 62
     3
 10
17214.172164999989
 20
16989.812617999989
 30
0.0
 11
17214.172164999989
 21
16995.814517999981
 31
0.0
  0
LINE
  5
47F5
  8
2-0
  6
CONTINUOUS
 62
     3
 10
17272.061205999991
 20
17019.818160999981
 30
0.0
 11
17187.060677999991
 21
17019.818160999981
 31
0.0
  0
LINE
  5
47F6
  8
2-0
  6
CONTINUOUS
 62
     3
 10
17187.060677999991
 20
17019.818160999981
 30
0.0
 11
17187.060677999991
 21
17039.813277999991
 31
0.0
  0
LINE
  5
47F7
  8
2-0
  6
CONTINUOUS
 62
     3
 10
17214.172164999989
 20
16980.204034999992
 30
0.0
 11
17184.174539999989
 21
16980.204034999992
 31
0.0
  0
LINE
  5
47F8
  8
2-0
  6
CONTINUOUS
 62
     3
 10
17214.172164999989
 20
16998.199837999979
 30
0.0
 11
17214.172164999989
 21
16980.204034999992
 31
0.0
  0
LINE
  5
47F9
  8
2-0
  6
CONTINUOUS
 62
     3
 10
17189.178762999989
 20
16998.199837999979
 30
0.0
 11
17214.172164999989
 21
16998.199837999979
 31
0.0
  0
LINE
  5
47FA
  8
2-0
  6
CONTINUOUS
 62
     3
 10
17189.178762999989
 20
16993.199573999991
 30
0.0
 11
17189.178762999989
 21
16998.199837999979
 31
0.0
  0
LINE
  5
47FB
  8
2-0
  6
CONTINUOUS
 62
     3
 10
17196.176360999969
 20
16993.199573999991
 30
0.0
 11
17189.178762999989
 21
16993.199573999991
 31
0.0
  0
LINE
  5
47FC
  8
2-0
  6
CONTINUOUS
 62
     3
 10
17196.176360999969
 20
16288.717343499949
 30
0.0
 11
17189.178762999989
 21
16288.717343499949
 31
0.0
  0
LINE
  5
47FD
  8
2-0
  6
CONTINUOUS
 62
     3
 10
17189.178762999989
 20
16288.717343499949
 30
0.0
 11
17189.178762999989
 21
16293.717607499961
 31
0.0
  0
LINE
  5
47FE
  8
2-0
  6
CONTINUOUS
 62
     3
 10
17189.178762999989
 20
16293.717607499961
 30
0.0
 11
17214.172164999989
 21
16293.717607499961
 31
0.0
  0
LINE
  5
47FF
  8
2-0
  6
CONTINUOUS
 62
     3
 10
17214.172164999989
 20
16293.717607499961
 30
0.0
 11
17214.172164999989
 21
16275.71586549998
 31
0.0
  0
LINE
  5
4800
  8
2-0
  6
CONTINUOUS
 62
     3
 10
17214.172164999989
 20
16275.71586549998
 30
0.0
 11
17184.174539999989
 21
16275.71586549998
 31
0.0
  0
LINE
  5
4801
  8
2-0
  6
CONTINUOUS
 62
     3
 10
17214.172164999989
 20
16291.81331049998
 30
0.0
 11
17214.172164999989
 21
16285.816359499981
 31
0.0
  0
LINE
  5
4802
  8
2-0
  6
CONTINUOUS
 62
     3
 10
17214.172164999989
 20
16285.816359499981
 30
0.0
 11
17184.174539999989
 21
16285.816359499981
 31
0.0
  0
LINE
  5
4803
  8
2-0
  6
CONTINUOUS
 62
     3
 10
17184.174539999989
 20
16285.816359499981
 30
0.0
 11
17184.174539999989
 21
16322.81653049998
 31
0.0
  0
LINE
  5
4804
  8
2-0
  6
CONTINUOUS
 62
     3
 10
17214.172164999989
 20
16322.81653049998
 30
0.0
 11
17184.174539999989
 21
16322.81653049998
 31
0.0
  0
LINE
  5
4805
  8
2-0
  6
CONTINUOUS
 62
     3
 10
17214.172164999989
 20
16316.81364049998
 30
0.0
 11
17214.172164999989
 21
16322.81653049998
 31
0.0
  0
LINE
  5
4806
  8
2-0
  6
CONTINUOUS
 62
     3
 10
17214.172164999989
 20
16332.91207549998
 30
0.0
 11
17184.174539999989
 21
16332.91207549998
 31
0.0
  0
LINE
  5
4807
  8
2-0
  6
CONTINUOUS
 62
     3
 10
17214.172164999989
 20
16314.904394499979
 30
0.0
 11
17214.172164999989
 21
16332.91207549998
 31
0.0
  0
LINE
  5
4808
  8
2-0
  6
CONTINUOUS
 62
     3
 10
17189.178762999989
 20
16314.904394499979
 30
0.0
 11
17214.172164999989
 21
16314.904394499979
 31
0.0
  0
LINE
  5
4809
  8
2-0
  6
CONTINUOUS
 62
     3
 10
17189.178762999989
 20
16319.91059749998
 30
0.0
 11
17189.178762999989
 21
16314.904394499979
 31
0.0
  0
LINE
  5
480A
  8
2-0
  6
CONTINUOUS
 62
     3
 10
17196.176360999969
 20
16319.91059749998
 30
0.0
 11
17189.178762999989
 21
16319.91059749998
 31
0.0
  0
LINE
  5
480B
  8
2-0
  6
CONTINUOUS
 62
     3
 10
17196.176360999969
 20
15619.15061399998
 30
0.0
 11
17189.178762999989
 21
15619.15061399998
 31
0.0
  0
LINE
  5
480C
  8
2-0
  6
CONTINUOUS
 62
     3
 10
17189.178762999989
 20
15619.15061399998
 30
0.0
 11
17189.178762999989
 21
15614.15628899999
 31
0.0
  0
LINE
  5
480D
  8
2-0
  6
CONTINUOUS
 62
     3
 10
17189.178762999989
 20
15614.15628899999
 30
0.0
 11
17214.172164999989
 21
15614.15628899999
 31
0.0
  0
LINE
  5
480E
  8
2-0
  6
CONTINUOUS
 62
     3
 10
17214.172164999989
 20
15614.15628899999
 30
0.0
 11
17214.172164999989
 21
15632.152092
 31
0.0
  0
LINE
  5
480F
  8
2-0
  6
CONTINUOUS
 62
     3
 10
17214.172164999989
 20
15632.152092
 30
0.0
 11
17184.174539999989
 21
15632.152092
 31
0.0
  0
LINE
  5
4810
  8
2-0
  6
CONTINUOUS
 62
     3
 10
17214.172164999989
 20
15616.05464699999
 30
0.0
 11
17214.172164999989
 21
15622.056547
 31
0.0
  0
LINE
  5
4811
  8
2-0
  6
CONTINUOUS
 62
     3
 10
17214.172164999989
 20
15622.056547
 30
0.0
 11
17184.174539999989
 21
15622.056547
 31
0.0
  0
LINE
  5
4812
  8
2-0
  6
CONTINUOUS
 62
     3
 10
17184.174539999989
 20
15585.05736599999
 30
0.0
 11
17184.174539999989
 21
15622.056547
 31
0.0
  0
LINE
  5
4813
  8
2-0
  6
CONTINUOUS
 62
     3
 10
17214.172164999989
 20
15585.05736599999
 30
0.0
 11
17184.174539999989
 21
15585.05736599999
 31
0.0
  0
LINE
  5
4814
  8
2-0
  6
CONTINUOUS
 62
     3
 10
17214.172164999989
 20
15591.05431699998
 30
0.0
 11
17214.172164999989
 21
15585.05736599999
 31
0.0
  0
LINE
  5
4815
  8
2-0
  6
CONTINUOUS
 62
     3
 10
17214.172164999989
 20
15574.95588199998
 30
0.0
 11
17184.174539999989
 21
15574.95588199998
 31
0.0
  0
LINE
  5
4816
  8
2-0
  6
CONTINUOUS
 62
     3
 10
17214.172164999989
 20
15592.963562999979
 30
0.0
 11
17214.172164999989
 21
15574.95588199998
 31
0.0
  0
LINE
  5
4817
  8
2-0
  6
CONTINUOUS
 62
     3
 10
17189.178762999989
 20
15592.963562999979
 30
0.0
 11
17214.172164999989
 21
15592.963562999979
 31
0.0
  0
LINE
  5
4818
  8
2-0
  6
CONTINUOUS
 62
     3
 10
17189.178762999989
 20
15587.963298999999
 30
0.0
 11
17189.178762999989
 21
15592.963562999979
 31
0.0
  0
LINE
  5
4819
  8
2-0
  6
CONTINUOUS
 62
     3
 10
17196.176360999969
 20
15587.963298999999
 30
0.0
 11
17189.178762999989
 21
15587.963298999999
 31
0.0
  0
LINE
  5
481A
  8
2-0
  6
CONTINUOUS
 62
     3
 10
17184.174539999989
 20
16980.204034999992
 30
0.0
 11
17184.174539999989
 21
16332.91207549998
 31
0.0
  0
LINE
  5
481B
  8
2-0
  6
CONTINUOUS
 62
     3
 10
17184.174539999989
 20
17134.81433299998
 30
0.0
 11
17184.174539999989
 21
16989.812617999989
 31
0.0
  0
LINE
  5
481C
  8
2-0
  6
CONTINUOUS
 62
     3
 10
17272.061205999991
 20
17104.814728999969
 30
0.0
 11
17272.061205999991
 21
17019.818160999981
 31
0.0
  0
LINE
  5
481D
  8
2-0
  6
CONTINUOUS
 62
     3
 10
17196.176360999969
 20
14886.72229199998
 30
0.0
 11
17189.178762999989
 21
14886.72229199998
 31
0.0
  0
LINE
  5
481E
  8
2-0
  6
CONTINUOUS
 62
     3
 10
17189.178762999989
 20
14886.72229199998
 30
0.0
 11
17189.178762999989
 21
14891.71661799998
 31
0.0
  0
LINE
  5
481F
  8
2-0
  6
CONTINUOUS
 62
     3
 10
17189.178762999989
 20
14891.71661799998
 30
0.0
 11
17214.172164999989
 21
14891.71661799998
 31
0.0
  0
LINE
  5
4820
  8
2-0
  6
CONTINUOUS
 62
     3
 10
17214.172164999989
 20
14891.71661799998
 30
0.0
 11
17214.172164999989
 21
14873.720813999969
 31
0.0
  0
LINE
  5
4821
  8
2-0
  6
CONTINUOUS
 62
     3
 10
17214.172164999989
 20
14873.720813999969
 30
0.0
 11
17184.174539999989
 21
14873.720813999969
 31
0.0
  0
LINE
  5
4822
  8
2-0
  6
CONTINUOUS
 62
     3
 10
17214.172164999989
 20
14889.81924899998
 30
0.0
 11
17214.172164999989
 21
14883.81635899998
 31
0.0
  0
LINE
  5
4823
  8
2-0
  6
CONTINUOUS
 62
     3
 10
17214.172164999989
 20
14883.81635899998
 30
0.0
 11
17184.174539999989
 21
14883.81635899998
 31
0.0
  0
LINE
  5
4824
  8
2-0
  6
CONTINUOUS
 62
     3
 10
17184.174539999989
 20
14883.81635899998
 30
0.0
 11
17184.174539999989
 21
14920.816530999949
 31
0.0
  0
LINE
  5
4825
  8
2-0
  6
CONTINUOUS
 62
     3
 10
17214.172164999989
 20
14920.816530999949
 30
0.0
 11
17184.174539999989
 21
14920.816530999949
 31
0.0
  0
LINE
  5
4826
  8
2-0
  6
CONTINUOUS
 62
     3
 10
17214.172164999989
 20
14914.819578999981
 30
0.0
 11
17214.172164999989
 21
14920.816530999949
 31
0.0
  0
LINE
  5
4827
  8
2-0
  6
CONTINUOUS
 62
     3
 10
17214.172164999989
 20
14930.91702399998
 30
0.0
 11
17184.174539999989
 21
14930.91702399998
 31
0.0
  0
LINE
  5
4828
  8
2-0
  6
CONTINUOUS
 62
     3
 10
17214.172164999989
 20
14912.910332999991
 30
0.0
 11
17214.172164999989
 21
14930.91702399998
 31
0.0
  0
LINE
  5
4829
  8
2-0
  6
CONTINUOUS
 62
     3
 10
17189.178762999989
 20
14912.910332999991
 30
0.0
 11
17214.172164999989
 21
14912.910332999991
 31
0.0
  0
LINE
  5
482A
  8
2-0
  6
CONTINUOUS
 62
     3
 10
17189.178762999989
 20
14917.91554599998
 30
0.0
 11
17189.178762999989
 21
14912.910332999991
 31
0.0
  0
LINE
  5
482B
  8
2-0
  6
CONTINUOUS
 62
     3
 10
17196.176360999969
 20
14917.91554599998
 30
0.0
 11
17189.178762999989
 21
14917.91554599998
 31
0.0
  0
LINE
  5
482C
  8
2-0
  6
CONTINUOUS
 62
     3
 10
17214.172164999989
 20
13860.31837199998
 30
0.0
 11
17214.172164999989
 21
13866.32324099998
 31
0.0
  0
LINE
  5
482D
  8
2-0
  6
CONTINUOUS
 62
     3
 10
17214.172164999989
 20
13866.32324099998
 30
0.0
 11
17184.174539999989
 21
13866.32324099998
 31
0.0
  0
LINE
  5
482E
  8
2-0
  6
CONTINUOUS
 62
     3
 10
17184.174539999989
 20
13866.32324099998
 30
0.0
 11
17184.174539999989
 21
13751.319149999979
 31
0.0
  0
LINE
  5
482F
  8
2-0
  6
CONTINUOUS
 62
     3
 10
17184.174539999989
 20
13751.319149999979
 30
0.0
 11
17269.173087999981
 21
13751.319149999979
 31
0.0
  0
LINE
  5
4830
  8
2-0
  6
CONTINUOUS
 62
     3
 10
17269.173087999981
 20
13751.319149999979
 30
0.0
 11
17269.173087999981
 21
13836.31472899998
 31
0.0
  0
LINE
  5
4831
  8
2-0
  6
CONTINUOUS
 62
     3
 10
17269.173087999981
 20
13836.31472899998
 30
0.0
 11
17237.176149999981
 21
13836.31472899998
 31
0.0
  0
LINE
  5
4832
  8
2-0
  6
CONTINUOUS
 62
     3
 10
17196.176360999969
 20
13863.352973999979
 30
0.0
 11
17189.178762999989
 21
13863.352973999979
 31
0.0
  0
LINE
  5
4833
  8
2-0
  6
CONTINUOUS
 62
     3
 10
17189.178762999989
 20
13863.352973999979
 30
0.0
 11
17189.178762999989
 21
13858.355678999949
 31
0.0
  0
LINE
  5
4834
  8
2-0
  6
CONTINUOUS
 62
     3
 10
17189.178762999989
 20
13858.355678999949
 30
0.0
 11
17214.172164999989
 21
13858.355678999949
 31
0.0
  0
LINE
  5
4835
  8
2-0
  6
CONTINUOUS
 62
     3
 10
17214.172164999989
 20
13858.355678999949
 30
0.0
 11
17214.172164999989
 21
13876.35445199997
 31
0.0
  0
LINE
  5
4836
  8
2-0
  6
CONTINUOUS
 62
     3
 10
17214.172164999989
 20
13876.35445199997
 30
0.0
 11
17184.174539999989
 21
13876.35445199997
 31
0.0
  0
LINE
  5
4837
  8
2-0
  6
CONTINUOUS
 62
     3
 10
17184.174539999989
 20
14930.91702399998
 30
0.0
 11
17184.174539999989
 21
15574.95588199998
 31
0.0
  0
LINE
  5
4838
  8
2-0
  6
CONTINUOUS
 62
     3
 10
17184.174539999989
 20
18549.91257099999
 30
0.0
 11
17184.174539999989
 21
19193.722298499961
 31
0.0
  0
LINE
  5
4839
  8
2-0
  6
CONTINUOUS
 62
     3
 10
17184.174539999989
 20
16275.71586549998
 30
0.0
 11
17184.174539999989
 21
15632.152092
 31
0.0
  0
LINE
  5
483A
  8
2-0
  6
CONTINUOUS
 62
     3
 10
26306.174407999959
 20
19907.818556999991
 30
0.0
 11
26306.174407999959
 21
20022.814729999998
 31
0.0
  0
LINE
  5
483B
  8
2-0
  6
CONTINUOUS
 62
     3
 10
21975.136137000001
 20
17326.027487999982
 30
0.0
 11
21817.255674
 21
17445.111367000001
 31
0.0
  0
LINE
  5
483C
  8
2-0
  6
CONTINUOUS
 62
     3
 10
22363.098024999999
 20
17409.159350999991
 30
0.0
 11
22117.255674
 21
17594.594712999999
 31
0.0
  0
LINE
  5
483D
  8
2-0
  6
CONTINUOUS
 62
     3
 10
22117.255674
 20
16524.714408
 30
0.0
 11
21757.147592000001
 21
16796.341968000001
 31
0.0
  0
LINE
  5
483E
  8
2-0
  6
CONTINUOUS
 62
     3
 10
21757.147592000001
 20
16796.341968000001
 30
0.0
 11
22363.098024999999
 21
17409.159350999991
 31
0.0
  0
LINE
  5
483F
  8
2-0
  6
CONTINUOUS
 62
     3
 10
21817.255674
 20
16375.23205199999
 30
0.0
 11
21369.183724999992
 21
16713.212084999981
 31
0.0
  0
LINE
  5
4840
  8
2-0
  6
CONTINUOUS
 62
     3
 10
21975.136137000001
 20
17326.027487999982
 30
0.0
 11
21369.183724999992
 21
16713.212084999981
 31
0.0
  0
LINE
  5
4841
  8
2-0
  6
CONTINUOUS
 62
     3
 10
22117.255674
 20
20129.536514999982
 30
0.0
 11
22117.255674
 21
20324.022236000001
 31
0.0
  0
LINE
  5
4842
  8
2-0
  6
CENTER2
 62
     6
 10
15897.21626799998
 20
19980.316444999949
 30
0.0
 11
27156.175727999958
 21
19980.316444999949
 31
0.0
  0
LINE
  5
4843
  8
2-0
  6
CENTER2
 62
     6
 10
15897.21626799998
 20
17062.316444999979
 30
0.0
 11
27156.175727999958
 21
17062.316444999979
 31
0.0
  0
LINE
  5
4844
  8
2-0
  6
CENTER2
 62
     6
 10
15897.21626799998
 20
13793.81644499998
 30
0.0
 11
27156.175727999958
 21
13793.81644499998
 31
0.0
  0
LINE
  5
4845
  8
2-0
  6
CONTINUOUS
 62
     3
 10
17649.762523000001
 20
20010.814888000001
 30
0.0
 11
17649.762523000001
 21
20017.820403999991
 31
0.0
  0
LINE
  5
4846
  8
2-0
  6
CONTINUOUS
 62
     3
 10
17649.762523000001
 20
20017.820403999991
 30
0.0
 11
17644.762258999981
 21
20017.820403999991
 31
0.0
  0
LINE
  5
4847
  8
2-0
  6
CONTINUOUS
 62
     3
 10
17644.762258999981
 20
20017.820403999991
 30
0.0
 11
17644.762258999981
 21
19992.811166999989
 31
0.0
  0
LINE
  5
4848
  8
2-0
  6
CONTINUOUS
 62
     3
 10
17644.762258999981
 20
19992.811166999989
 30
0.0
 11
17662.764000999989
 21
19992.811166999989
 31
0.0
  0
LINE
  5
4849
  8
2-0
  6
CONTINUOUS
 62
     3
 10
17662.764000999989
 20
19992.811166999989
 30
0.0
 11
17662.764000999989
 21
20022.814729999998
 31
0.0
  0
LINE
  5
484A
  8
2-0
  6
CONTINUOUS
 62
     3
 10
17646.664575999988
 20
19992.811166999989
 30
0.0
 11
17652.668455999981
 21
19992.811166999989
 31
0.0
  0
LINE
  5
484B
  8
2-0
  6
CONTINUOUS
 62
     3
 10
17652.668455999981
 20
19992.811166999989
 30
0.0
 11
17652.668455999981
 21
20022.814729999998
 31
0.0
  0
LINE
  5
484C
  8
2-0
  6
CONTINUOUS
 62
     3
 10
17615.673233999991
 20
20022.814729999998
 30
0.0
 11
17652.668455999981
 21
20022.814729999998
 31
0.0
  0
LINE
  5
484D
  8
2-0
  6
CONTINUOUS
 62
     3
 10
17615.673233999991
 20
19992.811166999989
 30
0.0
 11
17615.673233999991
 21
20022.814729999998
 31
0.0
  0
LINE
  5
484E
  8
2-0
  6
CONTINUOUS
 62
     3
 10
17621.667216000002
 20
19992.811166999989
 30
0.0
 11
17615.673233999991
 21
19992.811166999989
 31
0.0
  0
LINE
  5
484F
  8
2-0
  6
CONTINUOUS
 62
     3
 10
17605.577689000002
 20
19992.811166999989
 30
0.0
 11
17605.577689000002
 21
20022.814729999998
 31
0.0
  0
LINE
  5
4850
  8
2-0
  6
CONTINUOUS
 62
     3
 10
17623.573492
 20
19992.811166999989
 30
0.0
 11
17605.577689000002
 21
19992.811166999989
 31
0.0
  0
LINE
  5
4851
  8
2-0
  6
CONTINUOUS
 62
     3
 10
17623.573492
 20
20017.820403999991
 30
0.0
 11
17623.573492
 21
19992.811166999989
 31
0.0
  0
LINE
  5
4852
  8
2-0
  6
CONTINUOUS
 62
     3
 10
17618.575207999998
 20
20017.820403999991
 30
0.0
 11
17623.573492
 21
20017.820403999991
 31
0.0
  0
LINE
  5
4853
  8
2-0
  6
CONTINUOUS
 62
     3
 10
17618.575207999998
 20
20010.814888000001
 30
0.0
 11
17618.575207999998
 21
20017.820403999991
 31
0.0
  0
LINE
  5
4854
  8
2-0
  6
CONTINUOUS
 62
     3
 10
17309.476086999981
 20
20022.814729999998
 30
0.0
 11
17605.577689000002
 21
20022.814729999998
 31
0.0
  0
LINE
  5
4855
  8
2-0
  6
CONTINUOUS
 62
     3
 10
21817.255674
 20
19937.818160999981
 30
0.0
 11
17184.174539999989
 21
19937.818160999981
 31
0.0
  0
LINE
  5
4856
  8
2-0
  6
CONTINUOUS
 62
     3
 10
22117.255674
 20
19937.818160999981
 30
0.0
 11
26225.17250799996
 21
19937.818160999981
 31
0.0
  0
LINE
  5
4857
  8
2-0
  6
CONTINUOUS
 62
     3
 10
17184.174539999989
 20
14229.854175
 30
0.0
 11
17184.174539999989
 21
14873.720813999969
 31
0.0
  0
LINE
  5
4858
  8
2-0
  6
CENTER2
 62
     6
 10
17226.670844999979
 20
21222.814729999998
 30
0.0
 11
17226.670844999979
 21
13168.05301099998
 31
0.0
  0
LINE
  5
4859
  8
2-0
  6
CONTINUOUS
 62
     3
 10
26306.174407999959
 20
19897.521100999991
 30
0.0
 11
26306.174407999959
 21
19250.912570499971
 31
0.0
  0
LINE
  5
485A
  8
2-0
  6
CONTINUOUS
 62
     3
 10
21817.255674
 20
17445.111367000001
 30
0.0
 11
21817.255674
 21
20324.022236000001
 31
0.0
  0
LINE
  5
485B
  8
2-0
  6
CONTINUOUS
 62
     3
 10
22117.255674
 20
17594.594712999999
 30
0.0
 11
22117.255674
 21
20129.536514999982
 31
0.0
  0
LINE
  5
485C
  8
2-0
  6
CONTINUOUS
 62
     3
 10
17184.174539999989
 20
19897.521100999991
 30
0.0
 11
17184.174539999989
 21
19250.912570499971
 31
0.0
  0
LINE
  5
485D
  8
2-0
  6
CONTINUOUS
 62
     3
 10
21817.255674
 20
16375.23205199999
 30
0.0
 11
21817.255674
 21
13602.41184399998
 31
0.0
  0
LINE
  5
485E
  8
2-0
  6
CONTINUOUS
 62
     3
 10
22117.255674
 20
16524.714408
 30
0.0
 11
22117.255674
 21
13602.41184399998
 31
0.0
  0
LINE
  5
485F
  8
2-0
  6
CENTER2
 62
     6
 10
22995.176123999961
 20
21222.814729999998
 30
0.0
 11
22995.176123999961
 21
13602.41184399998
 31
0.0
  0
LINE
  5
4860
  8
2-0
  6
CENTER2
 62
     6
 10
20495.17084499999
 20
21222.814729999998
 30
0.0
 11
20495.17084499999
 21
13602.41184399998
 31
0.0
  0
LINE
  5
4861
  8
2-0
  6
CONTINUOUS
 62
     3
 10
17196.176360999969
 20
14185.72278699999
 30
0.0
 11
17189.178762999989
 21
14185.72278699999
 31
0.0
  0
LINE
  5
4862
  8
2-0
  6
CONTINUOUS
 62
     3
 10
17189.178762999989
 20
14185.72278699999
 30
0.0
 11
17189.178762999989
 21
14190.717112999981
 31
0.0
  0
LINE
  5
4863
  8
2-0
  6
CONTINUOUS
 62
     3
 10
17189.178762999989
 20
14190.717112999981
 30
0.0
 11
17214.172164999989
 21
14190.717112999981
 31
0.0
  0
LINE
  5
4864
  8
2-0
  6
CONTINUOUS
 62
     3
 10
17214.172164999989
 20
14190.717112999981
 30
0.0
 11
17214.172164999989
 21
14172.72130899998
 31
0.0
  0
LINE
  5
4865
  8
2-0
  6
CONTINUOUS
 62
     3
 10
17214.172164999989
 20
14172.72130899998
 30
0.0
 11
17184.174539999989
 21
14172.72130899998
 31
0.0
  0
LINE
  5
4866
  8
2-0
  6
CONTINUOUS
 62
     3
 10
17214.172164999989
 20
14188.818755
 30
0.0
 11
17214.172164999989
 21
14182.81685399999
 31
0.0
  0
LINE
  5
4867
  8
2-0
  6
CONTINUOUS
 62
     3
 10
17214.172164999989
 20
14182.81685399999
 30
0.0
 11
17184.174539999989
 21
14182.81685399999
 31
0.0
  0
LINE
  5
4868
  8
2-0
  6
CONTINUOUS
 62
     3
 10
17184.174539999989
 20
14182.81685399999
 30
0.0
 11
17184.174539999989
 21
14219.81603599996
 31
0.0
  0
LINE
  5
4869
  8
2-0
  6
CONTINUOUS
 62
     3
 10
17214.172164999989
 20
14219.81603599996
 30
0.0
 11
17184.174539999989
 21
14219.81603599996
 31
0.0
  0
LINE
  5
486A
  8
2-0
  6
CONTINUOUS
 62
     3
 10
17214.172164999989
 20
14213.820073999999
 30
0.0
 11
17214.172164999989
 21
14219.81603599996
 31
0.0
  0
LINE
  5
486B
  8
2-0
  6
CONTINUOUS
 62
     3
 10
17214.172164999989
 20
14229.917518999981
 30
0.0
 11
17184.174539999989
 21
14229.917518999981
 31
0.0
  0
LINE
  5
486C
  8
2-0
  6
CONTINUOUS
 62
     3
 10
17214.172164999989
 20
14211.909838999971
 30
0.0
 11
17214.172164999989
 21
14229.917518999981
 31
0.0
  0
LINE
  5
486D
  8
2-0
  6
CONTINUOUS
 62
     3
 10
17189.178762999989
 20
14211.909838999971
 30
0.0
 11
17214.172164999989
 21
14211.909838999971
 31
0.0
  0
LINE
  5
486E
  8
2-0
  6
CONTINUOUS
 62
     3
 10
17189.178762999989
 20
14216.91604099998
 30
0.0
 11
17189.178762999989
 21
14211.909838999971
 31
0.0
  0
LINE
  5
486F
  8
2-0
  6
CONTINUOUS
 62
     3
 10
17196.176360999969
 20
14216.91604099998
 30
0.0
 11
17189.178762999989
 21
14216.91604099998
 31
0.0
  0
LINE
  5
4870
  8
2-0
  6
CONTINUOUS
 62
     3
 10
17184.174539999989
 20
13876.35445199997
 30
0.0
 11
17184.174539999989
 21
14172.72130899998
 31
0.0
  0
LINE
  5
4871
  8
2-0
  6
CONTINUOUS
 62
     3
 10
17265.172480999991
 20
13836.31472899998
 30
0.0
 11
17265.172480999991
 21
20022.814729999998
 31
0.0
  0
LINE
  5
4872
  8
2-0
  6
CONTINUOUS
 62
     3
 10
26294.172586999961
 20
14185.72278699999
 30
0.0
 11
26301.174143999971
 21
14185.72278699999
 31
0.0
  0
LINE
  5
4873
  8
2-0
  6
CONTINUOUS
 62
     3
 10
26301.174143999971
 20
14185.72278699999
 30
0.0
 11
26301.174143999971
 21
14190.717112999981
 31
0.0
  0
LINE
  5
4874
  8
2-0
  6
CONTINUOUS
 62
     3
 10
26301.174143999971
 20
14190.717112999981
 30
0.0
 11
26276.176783999959
 21
14190.717112999981
 31
0.0
  0
LINE
  5
4875
  8
2-0
  6
CONTINUOUS
 62
     3
 10
26276.176783999959
 20
14190.717112999981
 30
0.0
 11
26276.176783999959
 21
14172.72130899998
 31
0.0
  0
LINE
  5
4876
  8
2-0
  6
CONTINUOUS
 62
     3
 10
26276.176783999959
 20
14172.72130899998
 30
0.0
 11
26306.174407999959
 21
14172.72130899998
 31
0.0
  0
LINE
  5
4877
  8
2-0
  6
CONTINUOUS
 62
     3
 10
26276.176783999959
 20
14188.818755
 30
0.0
 11
26276.176783999959
 21
14182.81685399999
 31
0.0
  0
LINE
  5
4878
  8
2-0
  6
CONTINUOUS
 62
     3
 10
26276.176783999959
 20
14182.81685399999
 30
0.0
 11
26306.174407999959
 21
14182.81685399999
 31
0.0
  0
LINE
  5
4879
  8
2-0
  6
CONTINUOUS
 62
     3
 10
26306.174407999959
 20
14182.81685399999
 30
0.0
 11
26306.174407999959
 21
14219.81603599996
 31
0.0
  0
LINE
  5
487A
  8
2-0
  6
CONTINUOUS
 62
     3
 10
26276.176783999959
 20
14219.81603599996
 30
0.0
 11
26306.174407999959
 21
14219.81603599996
 31
0.0
  0
LINE
  5
487B
  8
2-0
  6
CONTINUOUS
 62
     3
 10
26276.176783999959
 20
14213.820073999999
 30
0.0
 11
26276.176783999959
 21
14219.81603599996
 31
0.0
  0
LINE
  5
487C
  8
2-0
  6
CONTINUOUS
 62
     3
 10
26276.176783999959
 20
14229.917518999981
 30
0.0
 11
26306.174407999959
 21
14229.917518999981
 31
0.0
  0
LINE
  5
487D
  8
2-0
  6
CONTINUOUS
 62
     3
 10
26276.176783999959
 20
14211.909838999971
 30
0.0
 11
26276.176783999959
 21
14229.917518999981
 31
0.0
  0
LINE
  5
487E
  8
2-0
  6
CONTINUOUS
 62
     3
 10
26301.174143999971
 20
14211.909838999971
 30
0.0
 11
26276.176783999959
 21
14211.909838999971
 31
0.0
  0
LINE
  5
487F
  8
2-0
  6
CONTINUOUS
 62
     3
 10
26301.174143999971
 20
14216.91604099998
 30
0.0
 11
26301.174143999971
 21
14211.909838999971
 31
0.0
  0
LINE
  5
4880
  8
2-0
  6
CONTINUOUS
 62
     3
 10
26294.172586999961
 20
14216.91604099998
 30
0.0
 11
26301.174143999971
 21
14216.91604099998
 31
0.0
  0
LINE
  5
4881
  8
2-0
  6
CONTINUOUS
 62
     3
 10
26306.174407999959
 20
13876.35445199997
 30
0.0
 11
26306.174407999959
 21
14172.72130899998
 31
0.0
  0
LINE
  5
4882
  8
2-0
  6
CONTINUOUS
 62
     3
 10
26225.17250799996
 20
13836.31472899998
 30
0.0
 11
26225.17250799996
 21
20022.814729999998
 31
0.0
  0
LINE
  5
4883
  8
2-0
  6
CONTINUOUS
 62
     6
 10
19149.29616199997
 20
18715.333811999979
 30
0.0
 11
20179.64548099996
 21
18715.333811999979
 31
0.0
  0
LINE
  5
4884
  8
2-0
  6
CONTINUOUS
 62
     3
 10
20452.668601000001
 20
19179.819150499981
 30
0.0
 11
20537.669129000002
 21
19179.819150499981
 31
0.0
  0
LINE
  5
4885
  8
2-0
  6
CONTINUOUS
 62
     3
 10
20537.669129000002
 20
19264.813739499969
 30
0.0
 11
20452.668601000001
 21
19264.813739499969
 31
0.0
  0
LINE
  5
4886
  8
2-0
  6
CONTINUOUS
 62
     3
 10
20452.668601000001
 20
19264.813739499969
 30
0.0
 11
20452.668601000001
 21
19179.819150499981
 31
0.0
  0
LINE
  5
4887
  8
2-0
  6
CONTINUOUS
 62
     3
 10
20537.669129000002
 20
19179.819150499981
 30
0.0
 11
20537.669129000002
 21
19264.813739499969
 31
0.0
  0
CIRCLE
  5
48A0
  8
0-5
  6
CONTINUOUS
 62
     4
 10
26263.676123999961
 20
4072.728951000001
 30
0.0
 40
199.9999949999999
  0
CIRCLE
  5
48A1
  8
0-5
  6
CONTINUOUS
 62
     4
 10
22995.176123999961
 20
4072.728951000001
 30
0.0
 40
199.9999949999999
  0
CIRCLE
  5
48A2
  8
0-5
  6
CONTINUOUS
 62
     4
 10
20495.17084499999
 20
4072.728951000001
 30
0.0
 40
199.9999949999999
  0
CIRCLE
  5
48A3
  8
0-5
  6
CONTINUOUS
 62
     4
 10
17226.670844999979
 20
4072.728951000001
 30
0.0
 40
199.9999949999999
  0
CIRCLE
  5
48A4
  8
2-0
  6
CONTINUOUS
 62
     4
 10
15697.218577999991
 20
19980.316444999949
 30
0.0
 40
200.00001
  0
CIRCLE
  5
48A5
  8
2-0
  6
CONTINUOUS
 62
     4
 10
15697.218577999991
 20
17062.316444999979
 30
0.0
 40
200.00001
  0
CIRCLE
  5
48A6
  8
2-0
  6
CONTINUOUS
 62
     4
 10
15697.218577999991
 20
13793.81644499998
 30
0.0
 40
200.00001
  0
CIRCLE
  5
48A7
  8
2-0
  6
CONTINUOUS
 62
     4
 10
20495.17084499999
 20
21422.819349000001
 30
0.0
 40
200.00001
  0
CIRCLE
  5
48A8
  8
2-0
  6
CONTINUOUS
 62
     4
 10
17226.670844999979
 20
21422.819349000001
 30
0.0
 40
200.00001
  0
CIRCLE
  5
48A9
  8
2-0
  6
CONTINUOUS
 62
     4
 10
22995.176123999961
 20
21422.819349000001
 30
0.0
 40
200.00001
  0
CIRCLE
  5
48AA
  8
2-0
  6
CONTINUOUS
 62
     4
 10
26263.676123999961
 20
21422.819349000001
 30
0.0
 40
200.00001
  0
TEXT
  5
48AB
  8
0-5
  6
CONTINUOUS
 62
     7
 10
26211.741473999969
 20
3988.2280040000001
 30
0.0
 40
160.0
  1
n
 72
     4
 11
26265.074807333302
 21
4041.5613373333331
 31
0.0
  0
TEXT
  5
48AC
  8
0-5
  6
CONTINUOUS
 62
     7
 10
22829.05101017523
 20
4002.745112439397
 30
0.0
 40
140.0
  1
n-1
 72
     4
 11
22992.384343508558
 21
4072.745112439397
 31
0.0
  0
TEXT
  5
48AD
  8
0-5
  6
CONTINUOUS
 62
     7
 10
16608.494905999989
 20
6842.0889997419981
 30
0.0
 40
160.0
  1
(2131.5)
 50
90.0
 72
     4
 11
16528.494905999989
 21
7295.4223330753312
 31
0.0
  0
TEXT
  5
48AE
  8
0-5
  6
CONTINUOUS
 62
     7
 10
20448.24239799998
 20
3986.1989969999981
 30
0.0
 40
160.0
  1
2
 72
     4
 11
20501.575731333309
 21
4066.1989969999981
 31
0.0
  0
TEXT
  5
48AF
  8
0-5
  6
CONTINUOUS
 62
     7
 10
17179.73843899999
 20
3986.1989969999981
 30
0.0
 40
160.0
  1
1
 72
     4
 11
17206.405105666661
 21
4066.1989969999981
 31
0.0
  0
TEXT
  5
48B0
  8
0-5
  6
CONTINUOUS
 62
     7
 10
15344.79003899999
 20
6400.5750029999999
 30
0.0
 40
160.0
  1
G.L
 72
     4
 11
15504.79003899999
 21
6480.5750029999999
 31
0.0
  0
TEXT
  5
48B1
  8
2-0
  6
CONTINUOUS
 62
     7
 10
24660.521430999968
 20
13233.817566999969
 30
0.0
 40
160.0
  1
前柱（右）
 50
0.000213
 72
     4
 11
25076.521133592989
 21
13313.81911350076
 31
0.0
  0
TEXT
  5
48B2
  8
2-0
  6
CONTINUOUS
 62
     7
 10
24865.116553999971
 20
16512.809582999991
 30
0.0
 40
160.0
  1
壁パネル
 50
359.99982299999999
 72
     4
 11
25227.783467803521
 21
16592.808462637859
 31
0.0
  0
TEXT
  5
48B3
  8
2-0
  6
CONTINUOUS
 62
     7
 10
24585.113649999948
 20
17349.997479000001
 30
0.0
 40
160.0
  1
中柱（左右）
 50
0.000354
 72
     4
 11
25102.446489046171
 21
17430.000675324649
 31
0.0
  0
TEXT
  5
48B4
  8
2-0
  6
CONTINUOUS
 62
     7
 10
25265.115893999959
 20
15474.34985131247
 30
0.0
 40
160.0
  1
下枠
 50
0.001063
 72
     4
 11
25435.781076409261
 21
15554.35301765176
 31
0.0
  0
TEXT
  5
48B5
  8
2-0
  6
CONTINUOUS
 62
     7
 10
24760.081317999971
 20
18953.26621749996
 30
0.0
 40
160.0
  1
間柱（側）
 72
     4
 11
25181.4146513333
 21
19033.26621749996
 31
0.0
  0
TEXT
  5
48B6
  8
2-0
  6
CONTINUOUS
 62
     7
 10
27078.671636999959
 20
20832.813937999999
 30
0.0
 40
160.0
  1
後柱（左右）
 50
0.000354
 72
     4
 11
27590.671142712948
 21
20912.817101372832
 31
0.0
  0
TEXT
  5
48B7
  8
2-0
  6
CONTINUOUS
 62
     7
 10
23394.264885999972
 20
14371.654744999971
 30
0.0
 40
160.0
  1
前柱（中）
 72
     4
 11
23810.264885999972
 21
14451.654744999971
 31
0.0
  0
TEXT
  5
48B8
  8
2-0
  6
CONTINUOUS
 62
     7
 10
19331.039721000008
 20
19385.696777000001
 30
0.0
 40
160.0
  1
間柱（後）
 72
     4
 11
19752.37305433334
 21
19465.696777000001
 31
0.0
  0
TEXT
  5
48B9
  8
2-0
  6
CONTINUOUS
 62
     7
 10
23265.46948899997
 20
19454.441498
 30
0.0
 40
160.0
  1
後柱（中）
 72
     4
 11
23681.46948899997
 21
19534.441498
 31
0.0
  0
TEXT
  5
48BA
  8
2-0
  6
CONTINUOUS
 62
     7
 10
15649.21921099996
 20
19885.836003
 30
0.0
 40
160.0
  1
C
 72
     4
 11
15702.552544333301
 21
19965.836003
 31
0.0
  0
TEXT
  5
48BB
  8
2-0
  6
CONTINUOUS
 62
     7
 10
15649.43992699997
 20
16991.922363000001
 30
0.0
 40
160.0
  1
B
 72
     4
 11
15702.77326033331
 21
17071.922363000001
 31
0.0
  0
TEXT
  5
48BC
  8
2-0
  6
CONTINUOUS
 62
     7
 10
15649.482486999979
 20
13705.209233999971
 30
0.0
 40
160.0
  1
A
 72
     4
 11
15702.815820333321
 21
13785.209233999971
 31
0.0
  0
TEXT
  5
48BD
  8
2-0
  6
CONTINUOUS
 62
     7
 10
20443.539061999989
 20
21327.293720000001
 30
0.0
 40
160.0
  1
2
 72
     4
 11
20496.872395333321
 21
21407.293720000001
 31
0.0
  0
TEXT
  5
48BE
  8
2-0
  6
CONTINUOUS
 62
     7
 10
17182.464235999989
 20
21334.051796999989
 30
0.0
 40
160.0
  1
1
 72
     4
 11
17209.13090266666
 21
21414.051796999989
 31
0.0
  0
TEXT
  5
48BF
  8
2-0
  6
CONTINUOUS
 62
     7
 10
26212.270005999952
 20
21342.431099000001
 30
0.0
 40
160.0
  1
n
 72
     4
 11
26265.60333933328
 21
21395.76443233333
 31
0.0
  0
TEXT
  5
48C0
  8
2-0
  6
CONTINUOUS
 62
     7
 10
22835.221124999978
 20
21354.927800000001
 30
0.0
 40
140.0
  1
n-1
 72
     4
 11
22998.55445833331
 21
21424.927800000001
 31
0.0
  0
TEXT
  5
48C1
  8
2-0
  6
CONTINUOUS
 62
     7
 10
20923.42971299999
 20
11686.942224
 30
0.0
 40
160.0
  1
平 面 図
 50
0.000266
 72
     4
 11
21280.762699683812
 21
11761.610549612949
 31
0.0
  0
TEXT
  5
48C2
  8
2-0
  6
CONTINUOUS
 62
     7
 10
20119.867900000001
 20
3254.2895699999972
 30
0.0
 40
160.0
  1
正 面 立 面 図
 72
     4
 11
20765.20123333333
 21
3334.2895699999972
 31
0.0
  0
TEXT
  5
48C3
  8
2-0
  6
CONTINUOUS
 62
     7
 10
19271.27805599997
 20
18788.33449899996
 30
0.0
 40
160.0
  1
梁補助柱
 72
     4
 11
19633.944722666642
 21
18868.334498999971
 31
0.0
  0
CIRCLE
  5
48C4
  8
0-4
  6
CONTINUOUS
 62
     4
 10
18860.92084499999
 20
6598.784693999999
 30
0.0
 40
18.487504999999981
  0
CIRCLE
  5
48C5
  8
0-4
  6
CONTINUOUS
 62
     4
 10
24629.426123999961
 20
6598.784693999999
 30
0.0
 40
18.487504999999981
  0
TEXT
  5
48C6
  8
2-0
  6
CONTINUOUS
 62
     7
 10
22116.69341847095
 20
3281.4849389999981
 30
0.0
 40
160.0
  1
1
 72
     4
 11
22143.360085137621
 21
3361.484938999999
 31
0.0
  0
TEXT
  5
48C7
  8
2-0
  6
CONTINUOUS
 62
     7
 10
22359.782135721649
 20
3201.4864069999971
 30
0.0
 40
160.0
  1
80
 72
     4
 11
22479.782135721649
 21
3281.4864069999971
 31
0.0
  0
TEXT
  5
48C8
  8
2-0
  6
CONTINUOUS
 62
     7
 10
21617.695384470961
 20
3254.2895699999972
 30
0.0
 40
160.0
  1
(S=  /   )
 72
     4
 11
22177.695384470961
 21
3334.2895699999972
 31
0.0
  0
TEXT
  5
48C9
  8
2-0
  6
CONTINUOUS
 62
     7
 10
22632.254884821439
 20
11708.80591861295
 30
0.0
 40
160.0
  1
1
 72
     4
 11
22658.921551488111
 21
11788.80591861295
 31
0.0
  0
TEXT
  5
48CA
  8
2-0
  6
CONTINUOUS
 62
     7
 10
22875.34360207212
 20
11628.807386612951
 30
0.0
 40
160.0
  1
80
 72
     4
 11
22995.34360207212
 21
11708.807386612951
 31
0.0
  0
TEXT
  5
48CB
  8
2-0
  6
CONTINUOUS
 62
     7
 10
22133.256850821439
 20
11681.610549612949
 30
0.0
 40
160.0
  1
(S=  /   )
 72
     4
 11
22693.256850821439
 21
11761.610549612949
 31
0.0
  0
LINE
  5
48CC
  8
SUNPOU
  6
CONTINUOUS
 10
16944.17084499999
 20
4912.7287530000031
 30
0.0
 11
16586.215838278891
 21
4912.7287530000031
 31
0.0
  0
LINE
  5
48CD
  8
SUNPOU
  6
CONTINUOUS
 10
26546.180082999981
 20
4912.7287530000031
 30
0.0
 11
26904.135089721069
 21
4912.7287530000031
 31
0.0
  0
LINE
  5
48CE
  8
2-0
  6
CONTINUOUS
 62
     3
 10
25524.176704999962
 20
20022.814729999998
 30
0.0
 11
25487.175542999961
 21
20022.814729999998
 31
0.0
  0
LINE
  5
48CF
  8
2-0
  6
CONTINUOUS
 62
     3
 10
25524.176704999962
 20
19992.811166999989
 30
0.0
 11
25524.176704999962
 21
20022.814729999998
 31
0.0
  0
LINE
  5
48D0
  8
2-0
  6
CONTINUOUS
 62
     3
 10
25518.176783999941
 20
19992.811166999989
 30
0.0
 11
25524.176704999962
 21
19992.811166999989
 31
0.0
  0
LINE
  5
48D1
  8
2-0
  6
CONTINUOUS
 62
     3
 10
25534.274228999959
 20
19992.811166999989
 30
0.0
 11
25534.274228999959
 21
20022.814729999998
 31
0.0
  0
LINE
  5
48D2
  8
2-0
  6
CONTINUOUS
 62
     3
 10
25516.270507999961
 20
19992.811166999989
 30
0.0
 11
25534.274228999959
 21
19992.811166999989
 31
0.0
  0
LINE
  5
48D3
  8
2-0
  6
CONTINUOUS
 62
     3
 10
25516.270507999961
 20
20017.820403999991
 30
0.0
 11
25516.270507999961
 21
19992.811166999989
 31
0.0
  0
LINE
  5
48D4
  8
2-0
  6
CONTINUOUS
 62
     3
 10
25521.27077199996
 20
20017.820403999991
 30
0.0
 11
25516.270507999961
 21
20017.820403999991
 31
0.0
  0
LINE
  5
48D5
  8
2-0
  6
CONTINUOUS
 62
     3
 10
25521.27077199996
 20
20010.814888000001
 30
0.0
 11
25521.27077199996
 21
20017.820403999991
 31
0.0
  0
LINE
  5
48D6
  8
2-0
  6
CONTINUOUS
 62
     3
 10
25490.081476999942
 20
20010.814888000001
 30
0.0
 11
25490.081476999942
 21
20017.820403999991
 31
0.0
  0
LINE
  5
48D7
  8
2-0
  6
CONTINUOUS
 62
     3
 10
25490.081476999942
 20
20017.820403999991
 30
0.0
 11
25495.081740999962
 21
20017.820403999991
 31
0.0
  0
LINE
  5
48D8
  8
2-0
  6
CONTINUOUS
 62
     3
 10
25495.081740999962
 20
20017.820403999991
 30
0.0
 11
25495.081740999962
 21
19992.811166999989
 31
0.0
  0
LINE
  5
48D9
  8
2-0
  6
CONTINUOUS
 62
     3
 10
25495.081740999962
 20
19992.811166999989
 30
0.0
 11
25477.081977999958
 21
19992.811166999989
 31
0.0
  0
LINE
  5
48DA
  8
2-0
  6
CONTINUOUS
 62
     3
 10
25477.081977999958
 20
19992.811166999989
 30
0.0
 11
25477.081977999958
 21
20022.814729999998
 31
0.0
  0
LINE
  5
48DB
  8
2-0
  6
CONTINUOUS
 62
     3
 10
25493.17546399996
 20
19992.811166999989
 30
0.0
 11
25487.175542999961
 21
19992.811166999989
 31
0.0
  0
LINE
  5
48DC
  8
2-0
  6
CONTINUOUS
 62
     3
 10
25487.175542999961
 20
19992.811166999989
 30
0.0
 11
25487.175542999961
 21
20022.814729999998
 31
0.0
  0
LINE
  5
48DD
  8
2-0
  6
CONTINUOUS
 62
     3
 10
24119.265822499961
 20
20010.814888000001
 30
0.0
 11
24119.265822499961
 21
20017.820403999991
 31
0.0
  0
LINE
  5
48DE
  8
2-0
  6
CONTINUOUS
 62
     3
 10
24119.265822499961
 20
20017.820403999991
 30
0.0
 11
24114.26555849997
 21
20017.820403999991
 31
0.0
  0
LINE
  5
48DF
  8
2-0
  6
CONTINUOUS
 62
     3
 10
24114.26555849997
 20
20017.820403999991
 30
0.0
 11
24114.26555849997
 21
19992.811166999989
 31
0.0
  0
LINE
  5
48E0
  8
2-0
  6
CONTINUOUS
 62
     3
 10
24114.26555849997
 20
19992.811166999989
 30
0.0
 11
24132.271259499961
 21
19992.811166999989
 31
0.0
  0
LINE
  5
48E1
  8
2-0
  6
CONTINUOUS
 62
     3
 10
24132.271259499961
 20
19992.811166999989
 30
0.0
 11
24132.271259499961
 21
20022.814729999998
 31
0.0
  0
LINE
  5
48E2
  8
2-0
  6
CONTINUOUS
 62
     3
 10
24116.173814499962
 20
19992.811166999989
 30
0.0
 11
24122.175714499961
 21
19992.811166999989
 31
0.0
  0
LINE
  5
48E3
  8
2-0
  6
CONTINUOUS
 62
     3
 10
24122.175714499961
 20
19992.811166999989
 30
0.0
 11
24122.175714499961
 21
20022.814729999998
 31
0.0
  0
LINE
  5
48E4
  8
2-0
  6
CONTINUOUS
 62
     3
 10
24085.176533499962
 20
20022.814729999998
 30
0.0
 11
24122.175714499961
 21
20022.814729999998
 31
0.0
  0
LINE
  5
48E5
  8
2-0
  6
CONTINUOUS
 62
     3
 10
24085.176533499962
 20
19992.811166999989
 30
0.0
 11
24085.176533499962
 21
20022.814729999998
 31
0.0
  0
LINE
  5
48E6
  8
2-0
  6
CONTINUOUS
 62
     3
 10
24091.170515499962
 20
19992.811166999989
 30
0.0
 11
24085.176533499962
 21
19992.811166999989
 31
0.0
  0
LINE
  5
48E7
  8
2-0
  6
CONTINUOUS
 62
     3
 10
24075.080988499962
 20
19992.811166999989
 30
0.0
 11
24075.080988499962
 21
20022.814729999998
 31
0.0
  0
LINE
  5
48E8
  8
2-0
  6
CONTINUOUS
 62
     3
 10
24093.07679149996
 20
19992.811166999989
 30
0.0
 11
24075.080988499962
 21
19992.811166999989
 31
0.0
  0
LINE
  5
48E9
  8
2-0
  6
CONTINUOUS
 62
     3
 10
24093.07679149996
 20
20017.820403999991
 30
0.0
 11
24093.07679149996
 21
19992.811166999989
 31
0.0
  0
LINE
  5
48EA
  8
2-0
  6
CONTINUOUS
 62
     3
 10
24088.076527499961
 20
20017.820403999991
 30
0.0
 11
24093.07679149996
 21
20017.820403999991
 31
0.0
  0
LINE
  5
48EB
  8
2-0
  6
CONTINUOUS
 62
     3
 10
24088.076527499961
 20
20010.814888000001
 30
0.0
 11
24088.076527499961
 21
20017.820403999991
 31
0.0
  0
LINE
  5
48EC
  8
2-0
  6
CONTINUOUS
 62
     3
 10
24789.075538499961
 20
20010.814888000001
 30
0.0
 11
24789.075538499961
 21
20017.820403999991
 31
0.0
  0
LINE
  5
48ED
  8
2-0
  6
CONTINUOUS
 62
     3
 10
24789.075538499961
 20
20017.820403999991
 30
0.0
 11
24794.07580149997
 21
20017.820403999991
 31
0.0
  0
LINE
  5
48EE
  8
2-0
  6
CONTINUOUS
 62
     3
 10
24794.07580149997
 20
20017.820403999991
 30
0.0
 11
24794.07580149997
 21
19992.811166999989
 31
0.0
  0
LINE
  5
48EF
  8
2-0
  6
CONTINUOUS
 62
     3
 10
24794.07580149997
 20
19992.811166999989
 30
0.0
 11
24776.081978499951
 21
19992.811166999989
 31
0.0
  0
LINE
  5
48F0
  8
2-0
  6
CONTINUOUS
 62
     3
 10
24776.081978499951
 20
19992.811166999989
 30
0.0
 11
24776.081978499951
 21
20022.814729999998
 31
0.0
  0
LINE
  5
48F1
  8
2-0
  6
CONTINUOUS
 62
     3
 10
24792.173484499959
 20
19992.811166999989
 30
0.0
 11
24786.175543499961
 21
19992.811166999989
 31
0.0
  0
LINE
  5
48F2
  8
2-0
  6
CONTINUOUS
 62
     3
 10
24786.175543499961
 20
19992.811166999989
 30
0.0
 11
24786.175543499961
 21
20022.814729999998
 31
0.0
  0
LINE
  5
48F3
  8
2-0
  6
CONTINUOUS
 62
     3
 10
24823.176704499961
 20
20022.814729999998
 30
0.0
 11
24786.175543499961
 21
20022.814729999998
 31
0.0
  0
LINE
  5
48F4
  8
2-0
  6
CONTINUOUS
 62
     3
 10
24823.176704499961
 20
19992.811166999989
 30
0.0
 11
24823.176704499961
 21
20022.814729999998
 31
0.0
  0
LINE
  5
48F5
  8
2-0
  6
CONTINUOUS
 62
     3
 10
24817.170845499961
 20
19992.811166999989
 30
0.0
 11
24823.176704499961
 21
19992.811166999989
 31
0.0
  0
LINE
  5
48F6
  8
2-0
  6
CONTINUOUS
 62
     3
 10
24833.270269499961
 20
19992.811166999989
 30
0.0
 11
24833.270269499961
 21
20022.814729999998
 31
0.0
  0
LINE
  5
48F7
  8
2-0
  6
CONTINUOUS
 62
     3
 10
24815.274466499959
 20
19992.811166999989
 30
0.0
 11
24833.270269499961
 21
19992.811166999989
 31
0.0
  0
LINE
  5
48F8
  8
2-0
  6
CONTINUOUS
 62
     3
 10
24815.274466499959
 20
20017.820403999991
 30
0.0
 11
24815.274466499959
 21
19992.811166999989
 31
0.0
  0
LINE
  5
48F9
  8
2-0
  6
CONTINUOUS
 62
     3
 10
24820.264832499961
 20
20017.820403999991
 30
0.0
 11
24815.274466499959
 21
20017.820403999991
 31
0.0
  0
LINE
  5
48FA
  8
2-0
  6
CONTINUOUS
 62
     3
 10
24820.264832499961
 20
20010.814888000001
 30
0.0
 11
24820.264832499961
 21
20017.820403999991
 31
0.0
  0
LINE
  5
48FB
  8
2-0
  6
CONTINUOUS
 62
     3
 10
24132.271259499961
 20
20022.814729999998
 30
0.0
 11
24776.081978499951
 21
20022.814729999998
 31
0.0
  0
LINE
  5
48FC
  8
2-0
  6
CONTINUOUS
 62
     3
 10
23431.47514999998
 20
20022.814729999998
 30
0.0
 11
24075.080988499962
 21
20022.814729999998
 31
0.0
  0
LINE
  5
48FD
  8
2-0
  6
CONTINUOUS
 62
     3
 10
26181.559753999962
 20
20022.814729999998
 30
0.0
 11
25534.274228999959
 21
20022.814729999998
 31
0.0
  0
LINE
  5
48FE
  8
2-0
  6
CONTINUOUS
 62
     3
 10
25477.081977999958
 20
20022.814729999998
 30
0.0
 11
24833.270269499961
 21
20022.814729999998
 31
0.0
  0
LINE
  5
48FF
  8
2-0
  6
CONTINUOUS
 62
     3
 10
23418.267801999958
 20
20010.814888000001
 30
0.0
 11
23418.267801999958
 21
20017.820403999991
 31
0.0
  0
LINE
  5
4900
  8
2-0
  6
CONTINUOUS
 62
     3
 10
23418.267801999958
 20
20017.820403999991
 30
0.0
 11
23413.26753799996
 21
20017.820403999991
 31
0.0
  0
LINE
  5
4901
  8
2-0
  6
CONTINUOUS
 62
     3
 10
23413.26753799996
 20
20017.820403999991
 30
0.0
 11
23413.26753799996
 21
19992.811166999989
 31
0.0
  0
LINE
  5
4902
  8
2-0
  6
CONTINUOUS
 62
     3
 10
23413.26753799996
 20
19992.811166999989
 30
0.0
 11
23431.26927999996
 21
19992.811166999989
 31
0.0
  0
LINE
  5
4903
  8
2-0
  6
CONTINUOUS
 62
     3
 10
23431.26927999996
 20
19992.811166999989
 30
0.0
 11
23431.26927999996
 21
20022.814729999998
 31
0.0
  0
LINE
  5
4904
  8
2-0
  6
CONTINUOUS
 62
     3
 10
23415.16985499996
 20
19992.811166999989
 30
0.0
 11
23421.17373499996
 21
19992.811166999989
 31
0.0
  0
LINE
  5
4905
  8
2-0
  6
CONTINUOUS
 62
     3
 10
23421.17373499996
 20
19992.811166999989
 30
0.0
 11
23421.17373499996
 21
20022.814729999998
 31
0.0
  0
LINE
  5
4906
  8
2-0
  6
CONTINUOUS
 62
     3
 10
23384.178512999959
 20
20022.814729999998
 30
0.0
 11
23421.17373499996
 21
20022.814729999998
 31
0.0
  0
LINE
  5
4907
  8
2-0
  6
CONTINUOUS
 62
     3
 10
23384.178512999959
 20
19992.811166999989
 30
0.0
 11
23384.178512999959
 21
20022.814729999998
 31
0.0
  0
LINE
  5
4908
  8
2-0
  6
CONTINUOUS
 62
     3
 10
23390.172494999981
 20
19992.811166999989
 30
0.0
 11
23384.178512999959
 21
19992.811166999989
 31
0.0
  0
LINE
  5
4909
  8
2-0
  6
CONTINUOUS
 62
     3
 10
23374.082967999959
 20
19992.811166999989
 30
0.0
 11
23374.082967999959
 21
20022.814729999998
 31
0.0
  0
LINE
  5
490A
  8
2-0
  6
CONTINUOUS
 62
     3
 10
23392.078770999971
 20
19992.811166999989
 30
0.0
 11
23374.082967999959
 21
19992.811166999989
 31
0.0
  0
LINE
  5
490B
  8
2-0
  6
CONTINUOUS
 62
     3
 10
23392.078770999971
 20
20017.820403999991
 30
0.0
 11
23392.078770999971
 21
19992.811166999989
 31
0.0
  0
LINE
  5
490C
  8
2-0
  6
CONTINUOUS
 62
     3
 10
23387.080486999981
 20
20017.820403999991
 30
0.0
 11
23392.078770999971
 21
20017.820403999991
 31
0.0
  0
LINE
  5
490D
  8
2-0
  6
CONTINUOUS
 62
     3
 10
23387.080486999981
 20
20010.814888000001
 30
0.0
 11
23387.080486999981
 21
20017.820403999991
 31
0.0
  0
LINE
  5
490E
  8
2-0
  6
CONTINUOUS
 62
     3
 10
23077.98136599996
 20
20022.814729999998
 30
0.0
 11
23374.082967999959
 21
20022.814729999998
 31
0.0
  0
LINE
  5
490F
  8
2-0
  6
CONTINUOUS
 62
     3
 10
22256.365577999961
 20
20022.814729999998
 30
0.0
 11
22219.364415999971
 21
20022.814729999998
 31
0.0
  0
LINE
  5
4910
  8
2-0
  6
CONTINUOUS
 62
     3
 10
22256.365577999961
 20
19992.811166999989
 30
0.0
 11
22256.365577999961
 21
20022.814729999998
 31
0.0
  0
LINE
  5
4911
  8
2-0
  6
CONTINUOUS
 62
     3
 10
22250.365656999958
 20
19992.811166999989
 30
0.0
 11
22256.365577999961
 21
19992.811166999989
 31
0.0
  0
LINE
  5
4912
  8
2-0
  6
CONTINUOUS
 62
     3
 10
22266.46310199998
 20
19992.811166999989
 30
0.0
 11
22266.46310199998
 21
20022.814729999998
 31
0.0
  0
LINE
  5
4913
  8
2-0
  6
CONTINUOUS
 62
     3
 10
22248.459380999961
 20
19992.811166999989
 30
0.0
 11
22266.46310199998
 21
19992.811166999989
 31
0.0
  0
LINE
  5
4914
  8
2-0
  6
CONTINUOUS
 62
     3
 10
22248.459380999961
 20
20017.820403999991
 30
0.0
 11
22248.459380999961
 21
19992.811166999989
 31
0.0
  0
LINE
  5
4915
  8
2-0
  6
CONTINUOUS
 62
     3
 10
22253.45964499997
 20
20017.820403999991
 30
0.0
 11
22248.459380999961
 21
20017.820403999991
 31
0.0
  0
LINE
  5
4916
  8
2-0
  6
CONTINUOUS
 62
     3
 10
22253.45964499997
 20
20010.814888000001
 30
0.0
 11
22253.45964499997
 21
20017.820403999991
 31
0.0
  0
LINE
  5
4917
  8
2-0
  6
CONTINUOUS
 62
     3
 10
22222.27034999997
 20
20010.814888000001
 30
0.0
 11
22222.27034999997
 21
20017.820403999991
 31
0.0
  0
LINE
  5
4918
  8
2-0
  6
CONTINUOUS
 62
     3
 10
22222.27034999997
 20
20017.820403999991
 30
0.0
 11
22227.270613999968
 21
20017.820403999991
 31
0.0
  0
LINE
  5
4919
  8
2-0
  6
CONTINUOUS
 62
     3
 10
22227.270613999968
 20
20017.820403999991
 30
0.0
 11
22227.270613999968
 21
19992.811166999989
 31
0.0
  0
LINE
  5
491A
  8
2-0
  6
CONTINUOUS
 62
     3
 10
22227.270613999968
 20
19992.811166999989
 30
0.0
 11
22209.270850999968
 21
19992.811166999989
 31
0.0
  0
LINE
  5
491B
  8
2-0
  6
CONTINUOUS
 62
     3
 10
22209.270850999968
 20
19992.811166999989
 30
0.0
 11
22209.270850999968
 21
20022.814729999998
 31
0.0
  0
LINE
  5
491C
  8
2-0
  6
CONTINUOUS
 62
     3
 10
22225.36433699997
 20
19992.811166999989
 30
0.0
 11
22219.364415999971
 21
19992.811166999989
 31
0.0
  0
LINE
  5
491D
  8
2-0
  6
CONTINUOUS
 62
     3
 10
22219.364415999971
 20
19992.811166999989
 30
0.0
 11
22219.364415999971
 21
20022.814729999998
 31
0.0
  0
LINE
  5
491E
  8
2-0
  6
CONTINUOUS
 62
     3
 10
22913.748626999961
 20
20022.814729999998
 30
0.0
 11
22266.46310199998
 21
20022.814729999998
 31
0.0
  0
LINE
  5
491F
  8
2-0
  6
CONTINUOUS
 62
     3
 10
22209.270850999968
 20
20022.814729999998
 30
0.0
 11
22117.255674
 21
20022.814729999998
 31
0.0
  0
LINE
  5
4920
  8
2-0
  6
CONTINUOUS
 62
     3
 10
21618.573649499991
 20
20010.814888000001
 30
0.0
 11
21618.573649499991
 21
20017.820403999991
 31
0.0
  0
LINE
  5
4921
  8
2-0
  6
CONTINUOUS
 62
     3
 10
21618.573649499991
 20
20017.820403999991
 30
0.0
 11
21613.573385499982
 21
20017.820403999991
 31
0.0
  0
LINE
  5
4922
  8
2-0
  6
CONTINUOUS
 62
     3
 10
21613.573385499982
 20
20017.820403999991
 30
0.0
 11
21613.573385499982
 21
19992.811166999989
 31
0.0
  0
LINE
  5
4923
  8
2-0
  6
CONTINUOUS
 62
     3
 10
21613.573385499982
 20
19992.811166999989
 30
0.0
 11
21631.579086500002
 21
19992.811166999989
 31
0.0
  0
LINE
  5
4924
  8
2-0
  6
CONTINUOUS
 62
     3
 10
21631.579086500002
 20
19992.811166999989
 30
0.0
 11
21631.579086500002
 21
20022.814729999998
 31
0.0
  0
LINE
  5
4925
  8
2-0
  6
CONTINUOUS
 62
     3
 10
21615.481641499991
 20
19992.811166999989
 30
0.0
 11
21621.483541500002
 21
19992.811166999989
 31
0.0
  0
LINE
  5
4926
  8
2-0
  6
CONTINUOUS
 62
     3
 10
21621.483541500002
 20
19992.811166999989
 30
0.0
 11
21621.483541500002
 21
20022.814729999998
 31
0.0
  0
LINE
  5
4927
  8
2-0
  6
CONTINUOUS
 62
     3
 10
21584.484360499991
 20
20022.814729999998
 30
0.0
 11
21621.483541500002
 21
20022.814729999998
 31
0.0
  0
LINE
  5
4928
  8
2-0
  6
CONTINUOUS
 62
     3
 10
21584.484360499991
 20
19992.811166999989
 30
0.0
 11
21584.484360499991
 21
20022.814729999998
 31
0.0
  0
LINE
  5
4929
  8
2-0
  6
CONTINUOUS
 62
     3
 10
21590.478342499991
 20
19992.811166999989
 30
0.0
 11
21584.484360499991
 21
19992.811166999989
 31
0.0
  0
LINE
  5
492A
  8
2-0
  6
CONTINUOUS
 62
     3
 10
21574.388815499999
 20
19992.811166999989
 30
0.0
 11
21574.388815499999
 21
20022.814729999998
 31
0.0
  0
LINE
  5
492B
  8
2-0
  6
CONTINUOUS
 62
     3
 10
21592.384618499978
 20
19992.811166999989
 30
0.0
 11
21574.388815499999
 21
19992.811166999989
 31
0.0
  0
LINE
  5
492C
  8
2-0
  6
CONTINUOUS
 62
     3
 10
21592.384618499978
 20
20017.820403999991
 30
0.0
 11
21592.384618499978
 21
19992.811166999989
 31
0.0
  0
LINE
  5
492D
  8
2-0
  6
CONTINUOUS
 62
     3
 10
21587.384354499991
 20
20017.820403999991
 30
0.0
 11
21592.384618499978
 21
20017.820403999991
 31
0.0
  0
LINE
  5
492E
  8
2-0
  6
CONTINUOUS
 62
     3
 10
21587.384354499991
 20
20010.814888000001
 30
0.0
 11
21587.384354499991
 21
20017.820403999991
 31
0.0
  0
LINE
  5
492F
  8
2-0
  6
CONTINUOUS
 62
     3
 10
20930.782976999992
 20
20022.814729999998
 30
0.0
 11
21574.388815499999
 21
20022.814729999998
 31
0.0
  0
LINE
  5
4930
  8
2-0
  6
CONTINUOUS
 62
     3
 10
20917.575628999992
 20
20010.814888000001
 30
0.0
 11
20917.575628999992
 21
20017.820403999991
 31
0.0
  0
LINE
  5
4931
  8
2-0
  6
CONTINUOUS
 62
     3
 10
20917.575628999992
 20
20017.820403999991
 30
0.0
 11
20912.57536499999
 21
20017.820403999991
 31
0.0
  0
LINE
  5
4932
  8
2-0
  6
CONTINUOUS
 62
     3
 10
20912.57536499999
 20
20017.820403999991
 30
0.0
 11
20912.57536499999
 21
19992.811166999989
 31
0.0
  0
LINE
  5
4933
  8
2-0
  6
CONTINUOUS
 62
     3
 10
20912.57536499999
 20
19992.811166999989
 30
0.0
 11
20930.577107000008
 21
19992.811166999989
 31
0.0
  0
LINE
  5
4934
  8
2-0
  6
CONTINUOUS
 62
     3
 10
20930.577107000008
 20
19992.811166999989
 30
0.0
 11
20930.577107000008
 21
20022.814729999998
 31
0.0
  0
LINE
  5
4935
  8
2-0
  6
CONTINUOUS
 62
     3
 10
20914.477682000012
 20
19992.811166999989
 30
0.0
 11
20920.48156199999
 21
19992.811166999989
 31
0.0
  0
LINE
  5
4936
  8
2-0
  6
CONTINUOUS
 62
     3
 10
20920.48156199999
 20
19992.811166999989
 30
0.0
 11
20920.48156199999
 21
20022.814729999998
 31
0.0
  0
LINE
  5
4937
  8
2-0
  6
CONTINUOUS
 62
     3
 10
20883.486339999989
 20
20022.814729999998
 30
0.0
 11
20920.48156199999
 21
20022.814729999998
 31
0.0
  0
LINE
  5
4938
  8
2-0
  6
CONTINUOUS
 62
     3
 10
20883.486339999989
 20
19992.811166999989
 30
0.0
 11
20883.486339999989
 21
20022.814729999998
 31
0.0
  0
LINE
  5
4939
  8
2-0
  6
CONTINUOUS
 62
     3
 10
20889.480321999999
 20
19992.811166999989
 30
0.0
 11
20883.486339999989
 21
19992.811166999989
 31
0.0
  0
LINE
  5
493A
  8
2-0
  6
CONTINUOUS
 62
     3
 10
20873.390794999988
 20
19992.811166999989
 30
0.0
 11
20873.390794999988
 21
20022.814729999998
 31
0.0
  0
LINE
  5
493B
  8
2-0
  6
CONTINUOUS
 62
     3
 10
20891.386598000008
 20
19992.811166999989
 30
0.0
 11
20873.390794999988
 21
19992.811166999989
 31
0.0
  0
LINE
  5
493C
  8
2-0
  6
CONTINUOUS
 62
     3
 10
20891.386598000008
 20
20017.820403999991
 30
0.0
 11
20891.386598000008
 21
19992.811166999989
 31
0.0
  0
LINE
  5
493D
  8
2-0
  6
CONTINUOUS
 62
     3
 10
20886.388313999989
 20
20017.820403999991
 30
0.0
 11
20891.386598000008
 21
20017.820403999991
 31
0.0
  0
LINE
  5
493E
  8
2-0
  6
CONTINUOUS
 62
     3
 10
20886.388313999989
 20
20010.814888000001
 30
0.0
 11
20886.388313999989
 21
20017.820403999991
 31
0.0
  0
LINE
  5
493F
  8
2-0
  6
CONTINUOUS
 62
     3
 10
20577.28919299999
 20
20022.814729999998
 30
0.0
 11
20873.390794999988
 21
20022.814729999998
 31
0.0
  0
LINE
  5
4940
  8
2-0
  6
CONTINUOUS
 62
     3
 10
21817.255674
 20
20022.814729999998
 30
0.0
 11
21631.579086500002
 21
20022.814729999998
 31
0.0
  0
LINE
  5
4941
  8
2-0
  6
CONTINUOUS
 62
     3
 10
26306.174407999959
 20
15574.95588199998
 30
0.0
 11
26306.174407999959
 21
14930.91702399998
 31
0.0
  0
LINE
  5
4942
  8
2-0
  6
CONTINUOUS
 62
     3
 10
26306.174407999959
 20
14873.720813999969
 30
0.0
 11
26306.174407999959
 21
14229.917518999981
 31
0.0
  0
LINE
  5
4943
  8
0-1
  6
CONTINUOUS
 62
     3
 10
7241.8830360000075
 20
6262.7287530000021
 30
0.0
 11
7241.8830360000075
 21
8123.7746320000033
 31
0.0
  0
LINE
  5
4944
  8
0-1
  6
CONTINUOUS
 62
     3
 10
7261.8840920000021
 20
6262.7287530000021
 30
0.0
 11
7261.8840920000021
 21
8123.7746320000033
 31
0.0
  0
LINE
  5
4945
  8
0-1
  6
CONTINUOUS
 62
     3
 10
7191.8833660000128
 20
6262.7287530000021
 30
0.0
 11
7191.8833660000128
 21
8123.7746320000033
 31
0.0
  0
LINE
  5
4946
  8
0-1
  6
CONTINUOUS
 62
     3
 10
7311.8827720000081
 20
6262.7287530000021
 30
0.0
 11
7311.8827720000081
 21
8123.7746320000033
 31
0.0
  0
LINE
  5
4947
  8
0-1
  6
CONTINUOUS
 62
     3
 10
7444.8836559999982
 20
6262.7287530000021
 30
0.0
 11
7444.8836559999982
 21
8123.7746320000033
 31
0.0
  0
LINE
  5
4948
  8
0-1
  6
CONTINUOUS
 62
     3
 10
7459.8834580000039
 20
6262.7287530000021
 30
0.0
 11
7459.8834580000039
 21
8123.7746320000033
 31
0.0
  0
LINE
  5
4949
  8
0-1
  6
CONTINUOUS
 62
     3
 10
7058.8834710000083
 20
6262.7287530000021
 30
0.0
 11
7058.8834710000083
 21
8123.7746320000033
 31
0.0
  0
LINE
  5
494A
  8
0-1
  6
CONTINUOUS
 62
     3
 10
7043.8836690000098
 20
6262.7287530000021
 30
0.0
 11
7043.8836690000098
 21
8123.7746320000033
 31
0.0
  0
LINE
  5
494B
  8
0-1
  6
CONTINUOUS
 62
     3
 10
8320.3831550000104
 20
8123.7746320000033
 30
0.0
 11
8320.3831550000104
 21
6262.7287530000021
 31
0.0
  0
LINE
  5
494C
  8
0-1
  6
CONTINUOUS
 62
     3
 10
8283.3849630000059
 20
8123.7746320000033
 30
0.0
 11
8283.3849630000059
 21
6262.7287530000021
 31
0.0
  0
LINE
  5
494D
  8
0-1
  6
CONTINUOUS
 62
     3
 10
7620.3838140000098
 20
8123.7746320000033
 30
0.0
 11
7620.3838140000098
 21
6262.7287530000021
 31
0.0
  0
LINE
  5
494E
  8
0-1
  6
CONTINUOUS
 62
     3
 10
7583.3836429999938
 20
8123.7746320000033
 30
0.0
 11
7583.3836429999938
 21
6262.7287530000021
 31
0.0
  0
LINE
  5
494F
  8
0-1
  6
CONTINUOUS
 62
     3
 10
9020.382494999998
 20
8123.7746320000033
 30
0.0
 11
9020.382494999998
 21
6262.7287530000021
 31
0.0
  0
LINE
  5
4950
  8
0-1
  6
CONTINUOUS
 62
     3
 10
8983.3843030000007
 20
8123.7746320000033
 30
0.0
 11
8983.3843030000007
 21
6262.7287530000021
 31
0.0
  0
LINE
  5
4951
  8
0-1
  6
CONTINUOUS
 62
     3
 10
8641.8827059999967
 20
6262.7287530000021
 30
0.0
 11
8641.8827059999967
 21
8123.7746320000033
 31
0.0
  0
LINE
  5
4952
  8
0-1
  6
CONTINUOUS
 62
     3
 10
8661.8837620000086
 20
6262.7287530000021
 30
0.0
 11
8661.8837620000086
 21
8123.7746320000033
 31
0.0
  0
LINE
  5
4953
  8
0-1
  6
CONTINUOUS
 62
     3
 10
8591.884026000007
 20
6262.7287530000021
 30
0.0
 11
8591.884026000007
 21
8123.7746320000033
 31
0.0
  0
LINE
  5
4954
  8
0-1
  6
CONTINUOUS
 62
     3
 10
8711.8834320000115
 20
6262.7287530000021
 30
0.0
 11
8711.8834320000115
 21
8123.7746320000033
 31
0.0
  0
LINE
  5
4955
  8
0-1
  6
CONTINUOUS
 62
     3
 10
8844.8833259999956
 20
6262.7287530000021
 30
0.0
 11
8844.8833259999956
 21
8123.7746320000033
 31
0.0
  0
LINE
  5
4956
  8
0-1
  6
CONTINUOUS
 62
     3
 10
8859.8831280000086
 20
6262.7287530000021
 30
0.0
 11
8859.8831280000086
 21
8123.7746320000033
 31
0.0
  0
LINE
  5
4957
  8
0-1
  6
CONTINUOUS
 62
     3
 10
8458.8831410000057
 20
6262.7287530000021
 30
0.0
 11
8458.8831410000057
 21
8123.7746320000033
 31
0.0
  0
LINE
  5
4958
  8
0-1
  6
CONTINUOUS
 62
     3
 10
8443.8843290000059
 20
6262.7287530000021
 30
0.0
 11
8443.8843290000059
 21
8123.7746320000033
 31
0.0
  0
LINE
  5
4959
  8
0-1
  6
CONTINUOUS
 62
     3
 10
7743.8830090000083
 20
6262.7287530000021
 30
0.0
 11
7743.8830090000083
 21
8123.7746320000033
 31
0.0
  0
LINE
  5
495A
  8
0-1
  6
CONTINUOUS
 62
     3
 10
7758.8838009999972
 20
6262.7287530000021
 30
0.0
 11
7758.8838009999972
 21
8123.7746320000033
 31
0.0
  0
LINE
  5
495B
  8
0-1
  6
CONTINUOUS
 62
     3
 10
8159.8837880000074
 20
6262.7287530000021
 30
0.0
 11
8159.8837880000074
 21
8123.7746320000033
 31
0.0
  0
LINE
  5
495C
  8
0-1
  6
CONTINUOUS
 62
     3
 10
8144.882996000003
 20
6262.7287530000021
 30
0.0
 11
8144.882996000003
 21
8123.7746320000033
 31
0.0
  0
LINE
  5
495D
  8
0-1
  6
CONTINUOUS
 62
     3
 10
8011.8840920000002
 20
6262.7287530000021
 30
0.0
 11
8011.8840920000002
 21
8123.7746320000033
 31
0.0
  0
LINE
  5
495E
  8
0-1
  6
CONTINUOUS
 62
     3
 10
7891.8827060000049
 20
6262.7287530000021
 30
0.0
 11
7891.8827060000049
 21
8123.7746320000033
 31
0.0
  0
LINE
  5
495F
  8
0-1
  6
CONTINUOUS
 62
     3
 10
7961.8854110000102
 20
6262.7287530000021
 30
0.0
 11
7961.8854110000102
 21
8123.7746320000033
 31
0.0
  0
LINE
  5
4960
  8
0-1
  6
CONTINUOUS
 62
     3
 10
7941.8843560000059
 20
6262.7287530000021
 30
0.0
 11
7941.8843560000059
 21
8123.7746320000033
 31
0.0
  0
LINE
  5
4961
  8
0-1
  6
CONTINUOUS
 62
     3
 10
9143.8826800000024
 20
6262.7287530000021
 30
0.0
 11
9143.8826800000024
 21
8123.7746320000033
 31
0.0
  0
LINE
  5
4962
  8
0-1
  6
CONTINUOUS
 62
     3
 10
9158.8834710000083
 20
6262.7287530000021
 30
0.0
 11
9158.8834710000083
 21
8123.7746320000033
 31
0.0
  0
LINE
  5
4963
  8
0-1
  6
CONTINUOUS
 62
     3
 10
9291.8843560000096
 20
6262.7287530000021
 30
0.0
 11
9291.8843560000096
 21
8123.7746320000033
 31
0.0
  0
LINE
  5
4964
  8
0-1
  6
CONTINUOUS
 62
     3
 10
9559.8834580000057
 20
6262.7287530000021
 30
0.0
 11
9559.8834580000057
 21
8123.7746320000033
 31
0.0
  0
LINE
  5
4965
  8
0-1
  6
CONTINUOUS
 62
     3
 10
9544.8846460000059
 20
6262.7287530000021
 30
0.0
 11
9544.8846460000059
 21
8123.7746320000033
 31
0.0
  0
LINE
  5
4966
  8
0-1
  6
CONTINUOUS
 62
     3
 10
9411.8837619999958
 20
6262.7287530000021
 30
0.0
 11
9411.8837619999958
 21
8123.7746320000033
 31
0.0
  0
LINE
  5
4967
  8
0-1
  6
CONTINUOUS
 62
     3
 10
9361.8840920000021
 20
6262.7287530000021
 30
0.0
 11
9361.8840920000021
 21
8123.7746320000033
 31
0.0
  0
LINE
  5
4968
  8
0-1
  6
CONTINUOUS
 62
     3
 10
9341.8850150000089
 20
6262.7287530000021
 30
0.0
 11
9341.8850150000089
 21
8123.7746320000033
 31
0.0
  0
LINE
  5
4969
  8
0-1
  6
CONTINUOUS
 62
     3
 10
10169.883986000001
 20
6262.7287530000021
 30
0.0
 11
10169.883986000001
 21
8123.7746320000033
 31
0.0
  0
LINE
  5
496A
  8
0-1
  6
CONTINUOUS
 62
     3
 10
10149.88491000001
 20
6262.7287530000021
 30
0.0
 11
10149.88491000001
 21
8123.7746320000033
 31
0.0
  0
LINE
  5
496B
  8
0-1
  6
CONTINUOUS
 62
     3
 10
10219.88464599999
 20
6262.7287530000021
 30
0.0
 11
10219.88464599999
 21
8123.7746320000033
 31
0.0
  0
LINE
  5
496C
  8
0-1
  6
CONTINUOUS
 62
     3
 10
10099.88425000001
 20
6262.7287530000021
 30
0.0
 11
10099.88425000001
 21
8123.7746320000033
 31
0.0
  0
LINE
  5
496D
  8
0-1
  6
CONTINUOUS
 62
     3
 10
9966.8843559999968
 20
6262.7287530000021
 30
0.0
 11
9966.8843559999968
 21
8123.7746320000033
 31
0.0
  0
LINE
  5
496E
  8
0-1
  6
CONTINUOUS
 62
     3
 10
9951.8825739999957
 20
6262.7287530000021
 30
0.0
 11
9951.8825739999957
 21
8123.7746320000033
 31
0.0
  0
LINE
  5
496F
  8
0-1
  6
CONTINUOUS
 62
     3
 10
10352.884539999999
 20
6262.7287530000021
 30
0.0
 11
10352.884539999999
 21
8123.7746320000033
 31
0.0
  0
LINE
  5
4970
  8
0-1
  6
CONTINUOUS
 62
     3
 10
10367.88335300001
 20
6262.7287530000021
 30
0.0
 11
10367.88335300001
 21
8123.7746320000033
 31
0.0
  0
LINE
  5
4971
  8
0-1
  6
CONTINUOUS
 62
     3
 10
12467.88335300001
 20
6262.7287530000021
 30
0.0
 11
12467.88335300001
 21
8123.7746320000033
 31
0.0
  0
LINE
  5
4972
  8
0-1
  6
CONTINUOUS
 62
     3
 10
12452.88454000001
 20
6262.7287530000021
 30
0.0
 11
12452.88454000001
 21
8123.7746320000033
 31
0.0
  0
LINE
  5
4973
  8
0-1
  6
CONTINUOUS
 62
     3
 10
12051.883563999991
 20
6262.7287530000021
 30
0.0
 11
12051.883563999991
 21
8123.7746320000033
 31
0.0
  0
LINE
  5
4974
  8
0-1
  6
CONTINUOUS
 62
     3
 10
12066.883366
 20
6262.7287530000021
 30
0.0
 11
12066.883366
 21
8123.7746320000033
 31
0.0
  0
LINE
  5
4975
  8
0-1
  6
CONTINUOUS
 62
     3
 10
12199.88425000001
 20
6262.7287530000021
 30
0.0
 11
12199.88425000001
 21
8123.7746320000033
 31
0.0
  0
LINE
  5
4976
  8
0-1
  6
CONTINUOUS
 62
     3
 10
12319.883656000011
 20
6262.7287530000021
 30
0.0
 11
12319.883656000011
 21
8123.7746320000033
 31
0.0
  0
LINE
  5
4977
  8
0-1
  6
CONTINUOUS
 62
     3
 10
12249.88491000001
 20
6262.7287530000021
 30
0.0
 11
12249.88491000001
 21
8123.7746320000033
 31
0.0
  0
LINE
  5
4978
  8
0-1
  6
CONTINUOUS
 62
     3
 10
12269.883986000001
 20
6262.7287530000021
 30
0.0
 11
12269.883986000001
 21
8123.7746320000033
 31
0.0
  0
LINE
  5
4979
  8
0-1
  6
CONTINUOUS
 62
     3
 10
11569.88464599999
 20
6262.7287530000021
 30
0.0
 11
11569.88464599999
 21
8123.7746320000033
 31
0.0
  0
LINE
  5
497A
  8
0-1
  6
CONTINUOUS
 62
     3
 10
11549.88359000001
 20
6262.7287530000021
 30
0.0
 11
11549.88359000001
 21
8123.7746320000033
 31
0.0
  0
LINE
  5
497B
  8
0-1
  6
CONTINUOUS
 62
     3
 10
11619.88332600001
 20
6262.7287530000021
 30
0.0
 11
11619.88332600001
 21
8123.7746320000033
 31
0.0
  0
LINE
  5
497C
  8
0-1
  6
CONTINUOUS
 62
     3
 10
11499.88491000001
 20
6262.7287530000021
 30
0.0
 11
11499.88491000001
 21
8123.7746320000033
 31
0.0
  0
LINE
  5
497D
  8
0-1
  6
CONTINUOUS
 62
     3
 10
11366.884026000011
 20
6262.7287530000021
 30
0.0
 11
11366.884026000011
 21
8123.7746320000033
 31
0.0
  0
LINE
  5
497E
  8
0-1
  6
CONTINUOUS
 62
     3
 10
11351.88422399999
 20
6262.7287530000021
 30
0.0
 11
11351.88422399999
 21
8123.7746320000033
 31
0.0
  0
LINE
  5
497F
  8
0-1
  6
CONTINUOUS
 62
     3
 10
11752.882231000011
 20
6262.7287530000021
 30
0.0
 11
11752.882231000011
 21
8123.7746320000033
 31
0.0
  0
LINE
  5
4980
  8
0-1
  6
CONTINUOUS
 62
     3
 10
11767.884012
 20
6262.7287530000021
 30
0.0
 11
11767.884012
 21
8123.7746320000033
 31
0.0
  0
LINE
  5
4981
  8
0-1
  6
CONTINUOUS
 62
     3
 10
11067.884672
 20
6262.7287530000021
 30
0.0
 11
11067.884672
 21
8123.7746320000033
 31
0.0
  0
LINE
  5
4982
  8
0-1
  6
CONTINUOUS
 62
     3
 10
11052.88289100001
 20
6262.7287530000021
 30
0.0
 11
11052.88289100001
 21
8123.7746320000033
 31
0.0
  0
LINE
  5
4983
  8
0-1
  6
CONTINUOUS
 62
     3
 10
10651.884883000001
 20
6262.7287530000021
 30
0.0
 11
10651.884883000001
 21
8123.7746320000033
 31
0.0
  0
LINE
  5
4984
  8
0-1
  6
CONTINUOUS
 62
     3
 10
10666.883696000001
 20
6262.7287530000021
 30
0.0
 11
10666.883696000001
 21
8123.7746320000033
 31
0.0
  0
LINE
  5
4985
  8
0-1
  6
CONTINUOUS
 62
     3
 10
10799.88260000001
 20
6262.7287530000021
 30
0.0
 11
10799.88260000001
 21
8123.7746320000033
 31
0.0
  0
LINE
  5
4986
  8
0-1
  6
CONTINUOUS
 62
     3
 10
10919.883986000001
 20
6262.7287530000021
 30
0.0
 11
10919.883986000001
 21
8123.7746320000033
 31
0.0
  0
LINE
  5
4987
  8
0-1
  6
CONTINUOUS
 62
     3
 10
10849.88424999999
 20
6262.7287530000021
 30
0.0
 11
10849.88424999999
 21
8123.7746320000033
 31
0.0
  0
LINE
  5
4988
  8
0-1
  6
CONTINUOUS
 62
     3
 10
10869.88332600001
 20
6262.7287530000021
 30
0.0
 11
10869.88332600001
 21
8123.7746320000033
 31
0.0
  0
LINE
  5
4989
  8
0-1
  6
CONTINUOUS
 62
     3
 10
10528.384699000009
 20
8123.7746320000033
 30
0.0
 11
10528.384699000009
 21
6262.7287530000021
 31
0.0
  0
LINE
  5
498A
  8
0-1
  6
CONTINUOUS
 62
     3
 10
10491.383537000011
 20
8123.7746320000033
 30
0.0
 11
10491.383537000011
 21
6262.7287530000021
 31
0.0
  0
LINE
  5
498B
  8
0-1
  6
CONTINUOUS
 62
     3
 10
11928.382389
 20
8123.7746320000033
 30
0.0
 11
11928.382389
 21
6262.7287530000021
 31
0.0
  0
LINE
  5
498C
  8
0-1
  6
CONTINUOUS
 62
     3
 10
11891.383207000001
 20
8123.7746320000033
 30
0.0
 11
11891.383207000001
 21
6262.7287530000021
 31
0.0
  0
LINE
  5
498D
  8
0-1
  6
CONTINUOUS
 62
     3
 10
11228.38403899999
 20
8123.7746320000033
 30
0.0
 11
11228.38403899999
 21
6262.7287530000021
 31
0.0
  0
LINE
  5
498E
  8
0-1
  6
CONTINUOUS
 62
     3
 10
11191.38386700001
 20
8123.7746320000033
 30
0.0
 11
11191.38386700001
 21
6262.7287530000021
 31
0.0
  0
LINE
  5
498F
  8
0-1
  6
CONTINUOUS
 62
     3
 10
12628.384699
 20
8123.7746320000033
 30
0.0
 11
12628.384699
 21
6262.7287530000021
 31
0.0
  0
LINE
  5
4990
  8
0-1
  6
CONTINUOUS
 62
     3
 10
12591.383537000011
 20
8123.7746320000033
 30
0.0
 11
12591.383537000011
 21
6262.7287530000021
 31
0.0
  0
LINE
  5
4991
  8
0-1
  6
CONTINUOUS
 62
     3
 10
13079.383511
 20
6212.7285879999999
 30
0.0
 11
13079.383511
 21
6112.7287530000003
 31
0.0
  0
LINE
  5
4992
  8
0-1
  6
CONTINUOUS
 62
     3
 10
13046.882719999991
 20
8427.0576630000032
 30
0.0
 11
13046.882719999991
 21
6212.7285879999999
 31
0.0
  0
LINE
  5
4993
  8
0-1
  6
CONTINUOUS
 62
     3
 10
13066.883511
 20
8427.6386520000051
 30
0.0
 11
13066.883511
 21
6212.7285879999999
 31
0.0
  0
LINE
  5
4994
  8
0-1
  6
CONTINUOUS
 62
     3
 10
12951.88364299999
 20
8123.7746320000033
 30
0.0
 11
12951.88364299999
 21
6212.7285879999999
 31
0.0
  0
LINE
  5
4995
  8
0-1
  6
CONTINUOUS
 62
     3
 10
9755.883511
 20
8328.5300950000037
 30
0.0
 11
9755.883511
 21
8123.7746320000033
 31
0.0
  0
LINE
  5
4996
  8
0-1
  6
CONTINUOUS
 62
     3
 10
9683.3836430000083
 20
8123.7746320000033
 30
0.0
 11
9683.3836430000083
 21
6212.7285879999999
 31
0.0
  0
LINE
  5
4997
  8
0-1
  6
CONTINUOUS
 62
     3
 10
9828.3823889999967
 20
8123.7746320000033
 30
0.0
 11
9828.3823889999967
 21
6212.7285879999999
 31
0.0
  0
LINE
  5
4998
  8
0-1
  6
CONTINUOUS
 62
     3
 10
9828.3823889999967
 20
6262.7287530000021
 30
0.0
 11
12951.88364299999
 21
6262.7287530000021
 31
0.0
  0
LINE
  5
4999
  8
0-1
  6
CONTINUOUS
 62
     3
 10
6787.883511
 20
6112.7287530000003
 30
0.0
 11
6787.883511
 21
6212.7285879999999
 31
0.0
  0
LINE
  5
499A
  8
0-1
  6
CONTINUOUS
 62
     3
 10
6815.3833130000021
 20
8240.5310910000026
 30
0.0
 11
6815.3833130000021
 21
6212.7285879999999
 31
0.0
  0
LINE
  5
499B
  8
0-1
  6
CONTINUOUS
 62
     3
 10
6795.383511
 20
8239.9143636838089
 30
0.0
 11
6795.383511
 21
6212.7285879999999
 31
0.0
  0
LINE
  5
499C
  8
0-1
  6
CONTINUOUS
 62
     3
 10
6910.3823900000061
 20
8123.7746320000033
 30
0.0
 11
6910.3823900000061
 21
6212.7285879999999
 31
0.0
  0
LINE
  5
499D
  8
0-1
  6
CONTINUOUS
 62
     3
 10
6787.883511
 20
6212.7285879999999
 30
0.0
 11
13079.383511
 21
6212.7285879999999
 31
0.0
  0
LINE
  5
499E
  8
0-1
  6
CONTINUOUS
 62
     3
 10
6910.3823900000061
 20
6262.7287530000021
 30
0.0
 11
9683.3836430000083
 21
6262.7287530000021
 31
0.0
  0
LINE
  5
499F
  8
0-1
  6
CONTINUOUS
 62
     3
 10
6105.3824560000003
 20
6112.7287530000012
 30
0.0
 11
13079.383511
 21
6112.7287530000003
 31
0.0
  0
LINE
  5
49A0
  8
0-1
  6
CONTINUOUS
 62
     3
 10
6815.3833130000021
 20
8123.7746320000033
 30
0.0
 11
13046.882719999991
 21
8123.7746320000033
 31
0.0
  0
LINE
  5
49A1
  8
0-1
  6
CONTINUOUS
 62
     3
 10
6621.0816869999999
 20
8274.7139130000032
 30
0.0
 11
13152.573175999991
 21
8470.2299740000053
 31
0.0
  0
LINE
  5
49A2
  8
0-1
  6
CONTINUOUS
 62
     3
 10
13151.07270099999
 20
8520.2088590000058
 30
0.0
 11
6619.5822019999978
 21
8324.6918089999981
 31
0.0
  0
LINE
  5
49A3
  8
0-1
  6
CONTINUOUS
 62
     3
 10
6616.4921740000073
 20
8327.6007110000028
 30
0.0
 11
6615.5321069999991
 21
8359.5862670000024
 31
0.0
  0
LINE
  5
49A4
  8
0-1
  6
CONTINUOUS
 62
     3
 10
6620.3809380000021
 20
8364.7335100000018
 30
0.0
 11
13170.842152999991
 21
8560.8206620000019
 31
0.0
  0
LINE
  5
49A5
  8
0-1
  6
CONTINUOUS
 62
     3
 10
13174.74675299999
 20
8430.8791240000046
 30
0.0
 11
6624.2815790000022
 21
8234.7924669999975
 31
0.0
  0
LINE
  5
49A6
  8
0-1
  6
CONTINUOUS
 62
     3
 10
6619.1338410000026
 20
8239.6398130000016
 30
0.0
 11
6618.1747640000021
 21
8271.6258640000033
 31
0.0
  0
LINE
  5
49A7
  8
0-1
  6
CONTINUOUS
 62
     3
 10
6617.8431950000022
 20
8282.6206049999982
 30
0.0
 11
6616.8227530000013
 21
8316.6049800000055
 31
0.0
  0
LINE
  5
49A8
  8
0-1
  6
CONTINUOUS
 62
     3
 10
6619.7316560000027
 20
8319.6940190000005
 30
0.0
 11
13151.224134
 21
8515.2115640000029
 31
0.0
  0
LINE
  5
49A9
  8
0-1
  6
CONTINUOUS
 62
     3
 10
13152.42372199999
 20
8475.2282580000028
 30
0.0
 11
6620.9332240000012
 21
8279.7121980000029
 31
0.0
  0
LINE
  5
49AA
  8
0-1
  6
CONTINUOUS
 62
     3
 10
9755.883511
 20
8328.5300950000037
 30
0.0
 11
9751.9808900000044
 21
8458.4716330000028
 31
0.0
  0
LINE
  5
49AB
  8
0-1
  6
CONTINUOUS
 62
     3
 10
13141.77985099999
 20
8429.8883750000023
 30
0.0
 11
13137.878220000001
 21
8559.8299130000087
 31
0.0
  0
LINE
  5
49AC
  8
0-1
  6
CONTINUOUS
 62
     3
 10
6632.8736799999997
 20
8365.1086290000021
 30
0.0
 11
6636.7763010000026
 21
8235.1675860000014
 31
0.0
  0
LINE
  5
49AD
  8
0-5
  6
CONTINUOUS
 62
     4
 10
14784.468499000001
 20
6212.7285879999999
 30
0.0
 11
14904.468894999991
 21
6420.575565000001
 31
0.0
  0
LINE
  5
49AE
  8
0-5
  6
CONTINUOUS
 62
     4
 10
14664.470082
 20
6420.575565000001
 30
0.0
 11
14784.468499000001
 21
6212.7285879999999
 31
0.0
  0
LINE
  5
49AF
  8
0-5
  6
CONTINUOUS
 62
     4
 10
14904.468894999991
 20
6420.575565000001
 30
0.0
 11
14664.470082
 21
6420.575565000001
 31
0.0
  0
LINE
  5
49B0
  8
0-5
  6
CONTINUOUS
 62
     4
 10
13159.38080600001
 20
6212.7285879999999
 30
0.0
 11
14876.846691999999
 21
6212.7285879999999
 31
0.0
  0
LINE
  5
49B1
  8
0-5
  6
CONTINUOUS
 62
     4
 10
13024.383511
 20
4432.7291490000007
 30
0.0
 11
13024.383511
 21
4272.7296110000007
 31
0.0
  0
LINE
  5
49B2
  8
0-5
  6
CONTINUOUS
 62
     4
 10
9755.883511
 20
4432.7291490000007
 30
0.0
 11
9755.883511
 21
4272.7296110000007
 31
0.0
  0
LINE
  5
49B3
  8
0-5
  6
CONTINUOUS
 62
     4
 10
6837.883511
 20
4432.7291490000007
 30
0.0
 11
6837.883511
 21
4272.7296110000007
 31
0.0
  0
LINE
  5
49B4
  8
2-0
  6
CENTER2
 62
     6
 10
13024.383511
 20
5850.0763300000017
 30
0.0
 11
13024.383511
 21
6907.2189280000021
 31
0.0
  0
LINE
  5
49B5
  8
2-0
  6
CENTER2
 62
     6
 10
9755.883511
 20
5850.0763300000017
 30
0.0
 11
9755.883511
 21
6907.2189280000021
 31
0.0
  0
LINE
  5
49B6
  8
2-0
  6
CENTER2
 62
     6
 10
6837.883511
 20
5850.0763300000017
 30
0.0
 11
6837.883511
 21
6907.2189280000021
 31
0.0
  0
ARC
  5
49B7
  8
0-1
  6
CONTINUOUS
 62
     3
 10
13151.82293799999
 20
8495.220406000004
 30
0.0
 40
24.999998999999999
 50
271.71998600002632
 51
91.719986000026395
  0
ARC
  5
49B8
  8
0-1
  6
CONTINUOUS
 62
     3
 10
6619.492134000001
 20
8327.6907790000023
 30
0.0
 40
3.0
 50
181.71998600002601
 51
271.71998600002632
  0
ARC
  5
49B9
  8
0-1
  6
CONTINUOUS
 62
     3
 10
6620.5294019999992
 20
8359.7357210000027
 30
0.0
 40
5.0
 50
91.719986000026395
 51
181.71998600002601
  0
ARC
  5
49BA
  8
0-1
  6
CONTINUOUS
 62
     3
 10
13146.82564399999
 20
8495.0699630000054
 30
0.0
 40
69.999999000000003
 50
293.50677499976479
 51
69.93319699988605
  0
ARC
  5
49BB
  8
0-1
  6
CONTINUOUS
 62
     3
 10
6624.1331150000024
 20
8239.7902570000024
 30
0.0
 40
5.0
 50
181.71998600002601
 51
271.71998600002632
  0
ARC
  5
49BC
  8
0-1
  6
CONTINUOUS
 62
     3
 10
6621.1717560000043
 20
8271.7154370000026
 30
0.0
 40
3.0
 50
91.719986000026395
 51
181.71998600002601
  0
ARC
  5
49BD
  8
0-1
  6
CONTINUOUS
 62
     3
 10
6621.1559189999998
 20
8322.2381949999999
 30
0.0
 40
2.5
 50
271.71998600002632
 51
91.719986000026395
  0
ARC
  5
49BE
  8
0-1
  6
CONTINUOUS
 62
     3
 10
6622.5059509999992
 20
8277.2580890000008
 30
0.0
 40
2.5
 50
271.71998600002632
 51
91.719986000026395
  0
ARC
  5
49BF
  8
0-1
  6
CONTINUOUS
 62
     3
 10
6619.8217240000022
 20
8316.6955429999998
 30
0.0
 40
3.0
 50
91.719986000026395
 51
181.71998600002601
  0
ARC
  5
49C0
  8
0-1
  6
CONTINUOUS
 62
     3
 10
13151.82293799999
 20
8495.220406000004
 30
0.0
 40
20.0
 50
271.71998600002632
 51
91.719986000026395
  0
ARC
  5
49C1
  8
0-1
  6
CONTINUOUS
 62
     3
 10
6620.8421660000004
 20
8282.710178000003
 30
0.0
 40
3.0
 50
181.71998600002601
 51
271.71998600002632
  0
CIRCLE
  5
49C2
  8
0-5
  6
CONTINUOUS
 62
     4
 10
9755.883511
 20
4072.7284560000039
 30
0.0
 40
199.9999949999999
  0
CIRCLE
  5
49C3
  8
0-5
  6
CONTINUOUS
 62
     4
 10
13024.383511
 20
4072.7284560000039
 30
0.0
 40
199.9999949999999
  0
CIRCLE
  5
49C4
  8
0-5
  6
CONTINUOUS
 62
     4
 10
6837.883511
 20
4072.7284560000039
 30
0.0
 40
199.9999949999999
  0
TEXT
  5
49C5
  8
0-5
  6
CONTINUOUS
 62
     7
 10
14325.37657
 20
6500.5748390000026
 30
0.0
 40
160.0
  1
布基礎天端
 72
     4
 11
14784.04323666667
 21
6580.5748390000044
 31
0.0
  0
TEXT
  5
49C6
  8
0-5
  6
CONTINUOUS
 62
     7
 10
12977.427350999989
 20
3989.517660000005
 30
0.0
 40
160.0
  1
A
 72
     4
 11
13030.760684333331
 21
4069.517660000005
 31
0.0
  0
TEXT
  5
49C7
  8
0-5
  6
CONTINUOUS
 62
     7
 10
9708.9273509999985
 20
3989.517660000005
 30
0.0
 40
160.0
  1
B
 72
     4
 11
9762.2606843333306
 21
4069.517660000005
 31
0.0
  0
TEXT
  5
49C8
  8
0-5
  6
CONTINUOUS
 62
     7
 10
6790.9273510000039
 20
3989.517660000005
 30
0.0
 40
160.0
  1
C
 72
     4
 11
6844.2606843333378
 21
4069.517660000005
 31
0.0
  0
TEXT
  5
49C9
  8
2-0
  6
CONTINUOUS
 62
     7
 10
8437.8497670000015
 20
3235.607121000005
 30
0.0
 40
160.0
  1
側 面 立 面 図
 50
0.000139
 72
     4
 11
9083.1829062508223
 21
3315.6086865833799
 31
0.0
  0
TEXT
  5
49CA
  8
2-0
  6
CONTINUOUS
 62
     7
 10
10434.675091388441
 20
3262.8040555833759
 30
0.0
 40
160.0
  1
1
 72
     4
 11
10461.34175805511
 21
3342.8040555833759
 31
0.0
  0
TEXT
  5
49CB
  8
2-0
  6
CONTINUOUS
 62
     7
 10
10677.76380863914
 20
3182.805523583379
 30
0.0
 40
160.0
  1
80
 72
     4
 11
10797.76380863914
 21
3262.805523583379
 31
0.0
  0
TEXT
  5
49CC
  8
2-0
  6
CONTINUOUS
 62
     7
 10
9935.6770573884405
 20
3235.6086865833799
 30
0.0
 40
160.0
  1
(S=  /   )
 72
     4
 11
10495.677057388441
 21
3315.6086865833799
 31
0.0
  0
LINE
  5
49CD
  8
0-1
  6
CONTINUOUS
 62
     3
 10
12751.885873999991
 20
6262.7287530000021
 30
0.0
 11
12751.885873999991
 21
8123.7746320000033
 31
0.0
  0
LINE
  5
49CE
  8
0-1
  6
CONTINUOUS
 62
     3
 10
12766.885676
 20
6262.7287530000021
 30
0.0
 11
12766.885676
 21
8123.7746320000033
 31
0.0
  0
LINE
  5
49CF
  8
SUNPOU
  6
CONTINUOUS
 10
3393.008142000002
 20
13601.32112999998
 30
0.0
 11
3393.008142000002
 21
12925.8950141896
 31
0.0
  0
LINE
  5
49D0
  8
SUNPOU
  6
CONTINUOUS
 10
3393.0081420000051
 20
20202.812354000002
 30
0.0
 11
3393.0081420000051
 21
20970.536725545211
 31
0.0
  0
LINE
  5
49D1
  8
SUNPOU
  6
CONTINUOUS
 10
6615.383511
 20
9360.7302639999998
 30
0.0
 11
6140.0943983597681
 21
9360.7302639999998
 31
0.0
  0
LINE
  5
49D4
  8
WAKUSEN-01
 10
868.00000000000193
 20
22484.000000000011
 30
0.0
 11
32764.000000000011
 21
22484.000000000011
 31
0.0
  0
LINE
  5
49D7
  8
WAKUSEN-01
 10
20560.0
 20
2484.0
 30
0.0
 11
32764.0
 21
2484.0
 31
0.0
  0
LINE
  5
49D8
  8
WAKUSEN-02
 10
20560.0
 20
1655.9999999999991
 30
0.0
 11
26868.0
 21
1655.9999999999991
 31
0.0
  0
TEXT
  5
49D9
  8
WAKUMOJI-01
 10
20670.260259962761
 20
2125.9030093393221
 30
0.0
 40
240.0
  1
名　称
  7
WAKUMOJI
  0
TEXT
  5
49DA
  8
WAKUMOJI-01
 10
20656.505485091919
 20
1319.12897497982
 30
0.0
 40
240.0
  1
機種名
  7
WAKUMOJI
  0
LINE
  5
49DD
  8
YODOROGO
 10
29977.604341291921
 20
1995.7494964292871
 30
0.0
 11
29829.604341291921
 21
1995.7494964292871
 31
0.0
1001
AUTOCAD_POSTSCRIPT_FIGURE
1002
{
1000
PSFILL
1000
Grayscale
1000
Grayscale
1070
    25
1002
}
  0
LINE
  5
49DE
  8
YODOROGO
 10
29829.604341291921
 20
1947.749496429288
 30
0.0
 11
29977.604341291921
 21
1947.749496429288
 31
0.0
1001
AUTOCAD_POSTSCRIPT_FIGURE
1002
{
1000
PSFILL
1000
Grayscale
1000
Grayscale
1070
    25
1002
}
  0
LINE
  5
49DF
  8
YODOROGO
 10
29977.604341291921
 20
1907.7494964292871
 30
0.0
 11
29829.604341291921
 21
1907.7494964292871
 31
0.0
1001
AUTOCAD_POSTSCRIPT_FIGURE
1002
{
1000
PSFILL
1000
Grayscale
1000
Grayscale
1070
    25
1002
}
  0
LINE
  5
49E0
  8
YODOROGO
 10
29829.604341291921
 20
1859.749496429288
 30
0.0
 11
29977.604341291921
 21
1859.749496429288
 31
0.0
1001
AUTOCAD_POSTSCRIPT_FIGURE
1002
{
1000
PSFILL
1000
Grayscale
1000
Grayscale
1070
    25
1002
}
  0
LINE
  5
49E1
  8
YODOROGO
 10
29977.604341291921
 20
1819.7494964292871
 30
0.0
 11
29829.604341291921
 21
1819.7494964292871
 31
0.0
1001
AUTOCAD_POSTSCRIPT_FIGURE
1002
{
1000
PSFILL
1000
Grayscale
1000
Grayscale
1070
    25
1002
}
  0
LINE
  5
49E2
  8
YODOROGO
 10
29921.60434129191
 20
1707.749496429288
 30
0.0
 11
29977.604341291921
 21
1707.749496429288
 31
0.0
1001
AUTOCAD_POSTSCRIPT_FIGURE
1002
{
1000
PSFILL
1000
Grayscale
1000
Grayscale
1070
    25
1002
}
  0
LINE
  5
49E3
  8
YODOROGO
 10
29737.604341291921
 20
1427.749496429288
 30
0.0
 11
29937.604341291932
 21
1481.3393349155101
 31
0.0
  0
LINE
  5
49E4
  8
YODOROGO
 10
29949.60434129191
 20
1707.749496429288
 30
0.0
 11
29885.604341291921
 21
1707.749496429288
 31
0.0
  0
ARC
  5
49E5
  8
YODOROGO
 10
30254.34774982791
 20
1807.864609233261
 30
0.0
 40
381.88686420564721
 50
213.96111677667841
 51
264.47872074317792
  0
ARC
  5
49E6
  8
YODOROGO
 10
30254.347749827921
 20
1807.864609233302
 30
0.0
 40
381.8868642056816
 50
208.14114420486601
 51
212.9210361185994
  0
LINE
  5
49E7
  8
YODOROGO
 10
29771.409872985321
 20
1556.807661346234
 30
0.0
 11
29933.78413250855
 21
1600.3157130570869
 31
0.0
  0
LINE
  5
49E8
  8
YODOROGO
 10
29737.604341291921
 20
1427.749496429288
 30
0.0
 11
29937.604341291932
 21
1481.3393349155101
 31
0.0
  0
LINE
  5
49E9
  8
YODOROGO
 10
29949.60434129191
 20
1707.749496429288
 30
0.0
 11
29885.604341291921
 21
1707.749496429288
 31
0.0
  0
ARC
  5
49EA
  8
YODOROGO
 10
30254.34774982791
 20
1807.864609233261
 30
0.0
 40
381.88686420564721
 50
213.96111677667841
 51
264.47872074317792
  0
LINE
  5
49EB
  8
YODOROGO
 10
28793.60434129191
 20
1819.7494964292871
 30
0.0
 11
28433.60434129191
 21
1819.7494964292871
 31
0.0
  0
LINE
  5
49EC
  8
YODOROGO
 10
28513.60434129191
 20
1427.749496429288
 30
0.0
 11
28793.60434129191
 21
1427.749496429288
 31
0.0
  0
LINE
  5
49ED
  8
YODOROGO
 10
28729.604341291921
 20
1923.7494964292871
 30
0.0
 11
28497.60434129191
 21
1923.7494964292871
 31
0.0
  0
LINE
  5
49EE
  8
YODOROGO
 10
28585.604341291921
 20
2027.749496429288
 30
0.0
 11
28657.604341291921
 21
2027.749496429288
 31
0.0
  0
LINE
  5
49EF
  8
YODOROGO
 10
28433.60434129191
 20
1707.749496429288
 30
0.0
 11
28433.60434129191
 21
1507.749496429288
 31
0.0
  0
LINE
  5
49F0
  8
YODOROGO
 10
28497.60434129191
 20
1563.7494964292871
 30
0.0
 11
28497.60434129191
 21
1707.749496429288
 31
0.0
  0
LINE
  5
49F1
  8
YODOROGO
 10
28585.604341291921
 20
1747.74949642929
 30
0.0
 11
28585.604341291921
 21
1547.749496429288
 31
0.0
  0
LINE
  5
49F2
  8
YODOROGO
 10
27857.604341291921
 20
1683.749496429288
 30
0.0
 11
27777.604341291921
 21
1619.9724140445701
 31
0.0
  0
LINE
  5
49F3
  8
YODOROGO
 10
27937.604341291921
 20
1619.9724140445701
 30
0.0
 11
27857.604341291921
 21
1683.749496429288
 31
0.0
  0
LINE
  5
49F4
  8
YODOROGO
 10
27857.604341291921
 20
1707.749496429288
 30
0.0
 11
27937.604341291921
 21
1643.9724140445701
 31
0.0
  0
LINE
  5
49F5
  8
YODOROGO
 10
27777.604341291921
 20
1643.9724140445701
 30
0.0
 11
27857.604341291921
 21
1707.749496429288
 31
0.0
  0
LINE
  5
49F6
  8
YODOROGO
 10
28040.913204016892
 20
1659.749496429288
 30
0.0
 11
28040.913204016892
 21
1683.7494964292871
 31
0.0
  0
LINE
  5
49F7
  8
YODOROGO
 10
27977.604341291921
 20
1683.7494964292871
 30
0.0
 11
27977.604341291921
 21
1667.749496429285
 31
0.0
  0
LINE
  5
49F8
  8
YODOROGO
 10
28098.135520230931
 20
1707.749496429288
 30
0.0
 11
28098.135520230931
 21
1655.5036372746561
 31
0.0
1001
AUTOCAD_POSTSCRIPT_FIGURE
1002
{
1000
PSFILL
1000
Grayscale
1000
Grayscale
1070
   100
1002
}
  0
LINE
  5
49F9
  8
YODOROGO
 10
28082.135520230921
 20
1655.5036372746561
 30
0.0
 11
28082.135520230921
 21
1707.749496429288
 31
0.0
1001
AUTOCAD_POSTSCRIPT_FIGURE
1002
{
1000
PSFILL
1000
Grayscale
1000
Grayscale
1070
   100
1002
}
  0
LINE
  5
49FA
  8
YODOROGO
 10
27809.604341291921
 20
1608.771904043258
 30
0.0
 11
27809.604341291921
 21
1632.771904043258
 31
0.0
  0
LINE
  5
49FB
  8
YODOROGO
 10
27905.604341291921
 20
1608.771904043258
 30
0.0
 11
27809.604341291921
 21
1608.771904043258
 31
0.0
  0
LINE
  5
49FC
  8
YODOROGO
 10
27905.604341291921
 20
1632.771904043258
 30
0.0
 11
27905.604341291921
 21
1608.771904043258
 31
0.0
  0
LINE
  5
49FD
  8
YODOROGO
 10
27809.604341291921
 20
1632.771904043258
 30
0.0
 11
27905.604341291921
 21
1632.771904043258
 31
0.0
  0
LINE
  5
49FE
  8
YODOROGO
 10
27824.509588915738
 20
1568.5028573704751
 30
0.0
 11
27785.604341291921
 21
1475.7494964292871
 31
0.0
1001
AUTOCAD_POSTSCRIPT_FIGURE
1002
{
1000
PSFILL
1000
Grayscale
1000
Grayscale
1070
   100
1002
}
  0
LINE
  5
49FF
  8
YODOROGO
 10
27777.604341291921
 20
1568.5028573704751
 30
0.0
 11
27824.509588915738
 21
1568.5028573704751
 31
0.0
1001
AUTOCAD_POSTSCRIPT_FIGURE
1002
{
1000
PSFILL
1000
Grayscale
1000
Grayscale
1070
   100
1002
}
  0
LINE
  5
4A00
  8
YODOROGO
 10
27777.604341291921
 20
1588.5028573704751
 30
0.0
 11
27777.604341291921
 21
1568.5028573704751
 31
0.0
1001
AUTOCAD_POSTSCRIPT_FIGURE
1002
{
1000
PSFILL
1000
Grayscale
1000
Grayscale
1070
   100
1002
}
  0
LINE
  5
4A01
  8
YODOROGO
 10
27937.604341291921
 20
1588.5028573704751
 30
0.0
 11
27777.604341291921
 21
1588.5028573704751
 31
0.0
1001
AUTOCAD_POSTSCRIPT_FIGURE
1002
{
1000
PSFILL
1000
Grayscale
1000
Grayscale
1070
   100
1002
}
  0
LINE
  5
4A02
  8
YODOROGO
 10
27937.604341291921
 20
1568.5028573704751
 30
0.0
 11
27937.604341291921
 21
1588.5028573704751
 31
0.0
1001
AUTOCAD_POSTSCRIPT_FIGURE
1002
{
1000
PSFILL
1000
Grayscale
1000
Grayscale
1070
   100
1002
}
  0
LINE
  5
4A03
  8
YODOROGO
 10
27844.509588915738
 20
1568.5028573704751
 30
0.0
 11
27937.604341291921
 21
1568.5028573704751
 31
0.0
1001
AUTOCAD_POSTSCRIPT_FIGURE
1002
{
1000
PSFILL
1000
Grayscale
1000
Grayscale
1070
   100
1002
}
  0
LINE
  5
4A04
  8
YODOROGO
 10
27815.546718284771
 20
1495.7494964292871
 30
0.0
 11
27844.509588915738
 21
1568.5028573704751
 31
0.0
1001
AUTOCAD_POSTSCRIPT_FIGURE
1002
{
1000
PSFILL
1000
Grayscale
1000
Grayscale
1070
   100
1002
}
  0
LINE
  5
4A05
  8
YODOROGO
 10
27902.054790808648
 20
1495.7494964292871
 30
0.0
 11
27815.546718284771
 21
1495.7494964292871
 31
0.0
1001
AUTOCAD_POSTSCRIPT_FIGURE
1002
{
1000
PSFILL
1000
Grayscale
1000
Grayscale
1070
   100
1002
}
  0
LINE
  5
4A06
  8
YODOROGO
 10
27885.065004790951
 20
1536.2338106976929
 30
0.0
 11
27902.054790808648
 21
1495.7494964292871
 31
0.0
1001
AUTOCAD_POSTSCRIPT_FIGURE
1002
{
1000
PSFILL
1000
Grayscale
1000
Grayscale
1070
   100
1002
}
  0
LINE
  5
4A07
  8
YODOROGO
 10
27901.065004790951
 20
1536.2338106976929
 30
0.0
 11
27885.065004790951
 21
1536.2338106976929
 31
0.0
1001
AUTOCAD_POSTSCRIPT_FIGURE
1002
{
1000
PSFILL
1000
Grayscale
1000
Grayscale
1070
   100
1002
}
  0
LINE
  5
4A08
  8
YODOROGO
 10
27929.604341291921
 20
1475.7494964292871
 30
0.0
 11
27901.065004790951
 21
1536.2338106976929
 31
0.0
1001
AUTOCAD_POSTSCRIPT_FIGURE
1002
{
1000
PSFILL
1000
Grayscale
1000
Grayscale
1070
   100
1002
}
  0
LINE
  5
4A09
  8
YODOROGO
 10
27785.604341291921
 20
1475.7494964292871
 30
0.0
 11
27929.604341291921
 21
1475.7494964292871
 31
0.0
1001
AUTOCAD_POSTSCRIPT_FIGURE
1002
{
1000
PSFILL
1000
Grayscale
1000
Grayscale
1070
   100
1002
}
  0
LINE
  5
4A0A
  8
YODOROGO
 10
27777.604341291921
 20
1619.9724140445701
 30
0.0
 11
27777.604341291921
 21
1643.9724140445701
 31
0.0
  0
LINE
  5
4A0B
  8
YODOROGO
 10
27937.604341291921
 20
1643.9724140445701
 30
0.0
 11
27937.604341291921
 21
1619.9724140445701
 31
0.0
  0
ARC
  5
4A0C
  8
YODOROGO
 10
28225.940442146959
 20
1600.877765325326
 30
0.0
 40
175.9999999999998
 50
280.3644312771313
 51
3.5414836592180561
  0
ARC
  5
4A0D
  8
YODOROGO
 10
28235.756030759301
 20
1633.5978069619041
 30
0.0
 40
111.9999999999982
 50
281.24905825041549
 51
348.75094174958321
  0
LINE
  5
4A0E
  8
YODOROGO
 10
28257.604341291921
 20
1523.7494964292871
 30
0.0
 11
28257.604341291921
 21
1427.749496429288
 31
0.0
  0
LINE
  5
4A0F
  8
YODOROGO
 10
28020.088903736909
 20
1610.650565061914
 30
0.0
 11
28040.913204016892
 21
1659.749496429288
 31
0.0
  0
LINE
  5
4A10
  8
YODOROGO
 10
28041.604341291921
 20
1583.120489948401
 30
0.0
 11
28020.088903736909
 21
1610.650565061914
 31
0.0
  0
LINE
  5
4A11
  8
YODOROGO
 10
28041.604341291921
 20
1563.120489948398
 30
0.0
 11
28041.604341291921
 21
1583.120489948401
 31
0.0
  0
LINE
  5
4A12
  8
YODOROGO
 10
28017.604341291921
 20
1585.2370637495301
 30
0.0
 11
28041.604341291921
 21
1563.120489948398
 31
0.0
  0
LINE
  5
4A13
  8
YODOROGO
 10
28017.604341291921
 20
1475.7494964292871
 30
0.0
 11
28017.604341291921
 21
1585.2370637495301
 31
0.0
  0
LINE
  5
4A14
  8
YODOROGO
 10
28001.604341291921
 20
1475.7494964292871
 30
0.0
 11
28017.604341291921
 21
1475.7494964292871
 31
0.0
  0
LINE
  5
4A15
  8
YODOROGO
 10
28001.604341291921
 20
1580.0053496897469
 30
0.0
 11
28001.604341291921
 21
1475.7494964292871
 31
0.0
  0
LINE
  5
4A16
  8
YODOROGO
 10
27977.604341291921
 20
1532.7680790334291
 30
0.0
 11
28001.604341291921
 21
1580.0053496897469
 31
0.0
  0
LINE
  5
4A17
  8
YODOROGO
 10
27977.604341291921
 20
1556.76807903343
 30
0.0
 11
27977.604341291921
 21
1532.7680790334291
 31
0.0
  0
LINE
  5
4A18
  8
YODOROGO
 10
28025.828774291349
 20
1667.749496429285
 30
0.0
 11
27977.604341291921
 21
1556.76807903343
 31
0.0
  0
LINE
  5
4A19
  8
YODOROGO
 10
27977.604341291921
 20
1667.749496429285
 30
0.0
 11
28025.828774291349
 21
1667.749496429285
 31
0.0
  0
LINE
  5
4A1A
  8
YODOROGO
 10
28050.135520230899
 20
1655.5036372746561
 30
0.0
 11
28082.135520230921
 21
1655.5036372746561
 31
0.0
1001
AUTOCAD_POSTSCRIPT_FIGURE
1002
{
1000
PSFILL
1000
Grayscale
1000
Grayscale
1070
   100
1002
}
  0
LINE
  5
4A1B
  8
YODOROGO
 10
28050.135520230899
 20
1631.5036372746561
 30
0.0
 11
28050.135520230899
 21
1655.5036372746561
 31
0.0
1001
AUTOCAD_POSTSCRIPT_FIGURE
1002
{
1000
PSFILL
1000
Grayscale
1000
Grayscale
1070
   100
1002
}
  0
LINE
  5
4A1C
  8
YODOROGO
 10
28082.135520230921
 20
1631.5036372746561
 30
0.0
 11
28050.135520230899
 21
1631.5036372746561
 31
0.0
1001
AUTOCAD_POSTSCRIPT_FIGURE
1002
{
1000
PSFILL
1000
Grayscale
1000
Grayscale
1070
   100
1002
}
  0
LINE
  5
4A1D
  8
YODOROGO
 10
28082.135520230921
 20
1499.749496429288
 30
0.0
 11
28082.135520230921
 21
1631.5036372746561
 31
0.0
1001
AUTOCAD_POSTSCRIPT_FIGURE
1002
{
1000
PSFILL
1000
Grayscale
1000
Grayscale
1070
   100
1002
}
  0
LINE
  5
4A1E
  8
YODOROGO
 10
28050.135520230921
 20
1499.749496429288
 30
0.0
 11
28082.135520230921
 21
1499.749496429288
 31
0.0
1001
AUTOCAD_POSTSCRIPT_FIGURE
1002
{
1000
PSFILL
1000
Grayscale
1000
Grayscale
1070
   100
1002
}
  0
LINE
  5
4A1F
  8
YODOROGO
 10
28050.135520230921
 20
1475.7494964292871
 30
0.0
 11
28050.135520230921
 21
1499.749496429288
 31
0.0
1001
AUTOCAD_POSTSCRIPT_FIGURE
1002
{
1000
PSFILL
1000
Grayscale
1000
Grayscale
1070
   100
1002
}
  0
LINE
  5
4A20
  8
YODOROGO
 10
28137.604341291921
 20
1475.7494964292871
 30
0.0
 11
28050.135520230921
 21
1475.7494964292871
 31
0.0
1001
AUTOCAD_POSTSCRIPT_FIGURE
1002
{
1000
PSFILL
1000
Grayscale
1000
Grayscale
1070
   100
1002
}
  0
LINE
  5
4A21
  8
YODOROGO
 10
28137.604341291921
 20
1499.749496429288
 30
0.0
 11
28137.604341291921
 21
1475.7494964292871
 31
0.0
1001
AUTOCAD_POSTSCRIPT_FIGURE
1002
{
1000
PSFILL
1000
Grayscale
1000
Grayscale
1070
   100
1002
}
  0
LINE
  5
4A22
  8
YODOROGO
 10
28098.135520230931
 20
1499.749496429288
 30
0.0
 11
28137.604341291921
 21
1499.749496429288
 31
0.0
1001
AUTOCAD_POSTSCRIPT_FIGURE
1002
{
1000
PSFILL
1000
Grayscale
1000
Grayscale
1070
   100
1002
}
  0
LINE
  5
4A23
  8
YODOROGO
 10
28098.135520230931
 20
1631.5036372746561
 30
0.0
 11
28098.135520230931
 21
1499.749496429288
 31
0.0
1001
AUTOCAD_POSTSCRIPT_FIGURE
1002
{
1000
PSFILL
1000
Grayscale
1000
Grayscale
1070
   100
1002
}
  0
LINE
  5
4A24
  8
YODOROGO
 10
28137.604341291921
 20
1631.5036372746561
 30
0.0
 11
28098.135520230931
 21
1631.5036372746561
 31
0.0
1001
AUTOCAD_POSTSCRIPT_FIGURE
1002
{
1000
PSFILL
1000
Grayscale
1000
Grayscale
1070
   100
1002
}
  0
LINE
  5
4A25
  8
YODOROGO
 10
28137.604341291921
 20
1655.5036372746561
 30
0.0
 11
28137.604341291921
 21
1631.5036372746561
 31
0.0
1001
AUTOCAD_POSTSCRIPT_FIGURE
1002
{
1000
PSFILL
1000
Grayscale
1000
Grayscale
1070
   100
1002
}
  0
LINE
  5
4A26
  8
YODOROGO
 10
28098.135520230931
 20
1655.5036372746561
 30
0.0
 11
28137.604341291921
 21
1655.5036372746561
 31
0.0
1001
AUTOCAD_POSTSCRIPT_FIGURE
1002
{
1000
PSFILL
1000
Grayscale
1000
Grayscale
1070
   100
1002
}
  0
LINE
  5
4A27
  8
YODOROGO
 10
28401.60434129191
 20
1667.749496429288
 30
0.0
 11
28345.604341291921
 21
1667.749496429288
 31
0.0
  0
LINE
  5
4A28
  8
YODOROGO
 10
28401.60434129191
 20
1611.749496429288
 30
0.0
 11
28401.60434129191
 21
1667.749496429288
 31
0.0
  0
LINE
  5
4A29
  8
YODOROGO
 10
28345.604341291921
 20
1667.749496429288
 30
0.0
 11
28345.604341291921
 21
1611.749496429288
 31
0.0
  0
ARC
  5
4A2A
  8
YODOROGO
 10
28513.60434129191
 20
1507.749496429288
 30
0.0
 40
80.0
 50
180.0
 51
270.0
  0
ARC
  5
4A2B
  8
YODOROGO
 10
28537.604341291921
 20
1563.7494964292871
 30
0.0
 40
40.0
 50
180.0
 51
270.0
  0
LINE
  5
4A2C
  8
YODOROGO
 10
28561.604341291932
 20
1523.7494964292871
 30
0.0
 11
28537.604341291921
 21
1523.7494964292871
 31
0.0
  0
ARC
  5
4A2D
  8
YODOROGO
 10
28561.604341291932
 20
1547.749496429285
 30
0.0
 40
23.999999999996358
 50
270.0
 51
0.0000000000054281
  0
LINE
  5
4A2E
  8
YODOROGO
 10
27801.604341291921
 20
1890.786580793706
 30
0.0
 11
27777.604341291921
 21
1843.776747951672
 31
0.0
1001
AUTOCAD_POSTSCRIPT_FIGURE
1002
{
1000
PSFILL
1000
Grayscale
1000
Grayscale
1070
   100
1002
}
  0
LINE
  5
4A2F
  8
YODOROGO
 10
27801.604341291921
 20
1747.749496429286
 30
0.0
 11
27801.604341291921
 21
1890.786580793706
 31
0.0
1001
AUTOCAD_POSTSCRIPT_FIGURE
1002
{
1000
PSFILL
1000
Grayscale
1000
Grayscale
1070
   100
1002
}
  0
LINE
  5
4A30
  8
YODOROGO
 10
27817.604341291921
 20
1747.749496429286
 30
0.0
 11
27801.604341291921
 21
1747.749496429286
 31
0.0
1001
AUTOCAD_POSTSCRIPT_FIGURE
1002
{
1000
PSFILL
1000
Grayscale
1000
Grayscale
1070
   100
1002
}
  0
LINE
  5
4A31
  8
YODOROGO
 10
27817.604341291921
 20
1893.7713320852661
 30
0.0
 11
27817.604341291921
 21
1747.749496429286
 31
0.0
1001
AUTOCAD_POSTSCRIPT_FIGURE
1002
{
1000
PSFILL
1000
Grayscale
1000
Grayscale
1070
   100
1002
}
  0
LINE
  5
4A32
  8
YODOROGO
 10
27841.604341291921
 20
1867.6547582841361
 30
0.0
 11
27817.604341291921
 21
1893.7713320852661
 31
0.0
1001
AUTOCAD_POSTSCRIPT_FIGURE
1002
{
1000
PSFILL
1000
Grayscale
1000
Grayscale
1070
   100
1002
}
  0
LINE
  5
4A33
  8
YODOROGO
 10
27841.604341291921
 20
1883.6547582841361
 30
0.0
 11
27841.604341291921
 21
1867.6547582841361
 31
0.0
1001
AUTOCAD_POSTSCRIPT_FIGURE
1002
{
1000
PSFILL
1000
Grayscale
1000
Grayscale
1070
   100
1002
}
  0
LINE
  5
4A34
  8
YODOROGO
 10
27817.604341291921
 20
1917.7713320852649
 30
0.0
 11
27841.604341291921
 21
1883.6547582841361
 31
0.0
1001
AUTOCAD_POSTSCRIPT_FIGURE
1002
{
1000
PSFILL
1000
Grayscale
1000
Grayscale
1070
   100
1002
}
  0
LINE
  5
4A35
  8
YODOROGO
 10
27817.604341291921
 20
1939.749496429288
 30
0.0
 11
27817.604341291921
 21
1917.7713320852649
 31
0.0
1001
AUTOCAD_POSTSCRIPT_FIGURE
1002
{
1000
PSFILL
1000
Grayscale
1000
Grayscale
1070
   100
1002
}
  0
LINE
  5
4A36
  8
YODOROGO
 10
27889.604341291921
 20
1939.749496429288
 30
0.0
 11
27817.604341291921
 21
1939.749496429288
 31
0.0
1001
AUTOCAD_POSTSCRIPT_FIGURE
1002
{
1000
PSFILL
1000
Grayscale
1000
Grayscale
1070
   100
1002
}
  0
LINE
  5
4A37
  8
YODOROGO
 10
27889.604341291921
 20
1900.5683489363
 30
0.0
 11
27889.604341291921
 21
1939.749496429288
 31
0.0
1001
AUTOCAD_POSTSCRIPT_FIGURE
1002
{
1000
PSFILL
1000
Grayscale
1000
Grayscale
1070
   100
1002
}
  0
LINE
  5
4A38
  8
YODOROGO
 10
27857.604341291921
 20
1900.5683489363
 30
0.0
 11
27889.604341291921
 21
1900.5683489363
 31
0.0
1001
AUTOCAD_POSTSCRIPT_FIGURE
1002
{
1000
PSFILL
1000
Grayscale
1000
Grayscale
1070
   100
1002
}
  0
LINE
  5
4A39
  8
YODOROGO
 10
27857.604341291921
 20
1884.568348936298
 30
0.0
 11
27857.604341291921
 21
1900.5683489363
 31
0.0
1001
AUTOCAD_POSTSCRIPT_FIGURE
1002
{
1000
PSFILL
1000
Grayscale
1000
Grayscale
1070
   100
1002
}
  0
LINE
  5
4A3A
  8
YODOROGO
 10
27889.604341291921
 20
1884.568348936298
 30
0.0
 11
27857.604341291921
 21
1884.568348936298
 31
0.0
1001
AUTOCAD_POSTSCRIPT_FIGURE
1002
{
1000
PSFILL
1000
Grayscale
1000
Grayscale
1070
   100
1002
}
  0
LINE
  5
4A3B
  8
YODOROGO
 10
27889.604341291921
 20
1879.6191779644371
 30
0.0
 11
27889.604341291921
 21
1884.568348936298
 31
0.0
1001
AUTOCAD_POSTSCRIPT_FIGURE
1002
{
1000
PSFILL
1000
Grayscale
1000
Grayscale
1070
   100
1002
}
  0
LINE
  5
4A3C
  8
YODOROGO
 10
27849.604341291921
 20
1812.974981161417
 30
0.0
 11
27889.604341291921
 21
1879.6191779644371
 31
0.0
1001
AUTOCAD_POSTSCRIPT_FIGURE
1002
{
1000
PSFILL
1000
Grayscale
1000
Grayscale
1070
   100
1002
}
  0
LINE
  5
4A3D
  8
YODOROGO
 10
27849.604341291921
 20
1796.9749811614161
 30
0.0
 11
27849.604341291921
 21
1812.974981161417
 31
0.0
1001
AUTOCAD_POSTSCRIPT_FIGURE
1002
{
1000
PSFILL
1000
Grayscale
1000
Grayscale
1070
   100
1002
}
  0
LINE
  5
4A3E
  8
YODOROGO
 10
27889.604341291921
 20
1847.6191779644359
 30
0.0
 11
27849.604341291921
 21
1796.9749811614161
 31
0.0
1001
AUTOCAD_POSTSCRIPT_FIGURE
1002
{
1000
PSFILL
1000
Grayscale
1000
Grayscale
1070
   100
1002
}
  0
LINE
  5
4A3F
  8
YODOROGO
 10
27889.604341291921
 20
1747.749496429286
 30
0.0
 11
27889.604341291921
 21
1847.6191779644359
 31
0.0
1001
AUTOCAD_POSTSCRIPT_FIGURE
1002
{
1000
PSFILL
1000
Grayscale
1000
Grayscale
1070
   100
1002
}
  0
LINE
  5
4A40
  8
YODOROGO
 10
27905.604341291921
 20
1747.749496429286
 30
0.0
 11
27889.604341291921
 21
1747.749496429286
 31
0.0
1001
AUTOCAD_POSTSCRIPT_FIGURE
1002
{
1000
PSFILL
1000
Grayscale
1000
Grayscale
1070
   100
1002
}
  0
LINE
  5
4A41
  8
YODOROGO
 10
27905.604341291921
 20
1849.409012158806
 30
0.0
 11
27905.604341291921
 21
1747.749496429286
 31
0.0
1001
AUTOCAD_POSTSCRIPT_FIGURE
1002
{
1000
PSFILL
1000
Grayscale
1000
Grayscale
1070
   100
1002
}
  0
LINE
  5
4A42
  8
YODOROGO
 10
27937.604341291921
 20
1796.9749811614161
 30
0.0
 11
27905.604341291921
 21
1849.409012158806
 31
0.0
1001
AUTOCAD_POSTSCRIPT_FIGURE
1002
{
1000
PSFILL
1000
Grayscale
1000
Grayscale
1070
   100
1002
}
  0
LINE
  5
4A43
  8
YODOROGO
 10
27937.604341291921
 20
1812.974981161417
 30
0.0
 11
27937.604341291921
 21
1796.9749811614161
 31
0.0
1001
AUTOCAD_POSTSCRIPT_FIGURE
1002
{
1000
PSFILL
1000
Grayscale
1000
Grayscale
1070
   100
1002
}
  0
LINE
  5
4A44
  8
YODOROGO
 10
27905.604341291921
 20
1881.4090121588081
 30
0.0
 11
27937.604341291921
 21
1812.974981161417
 31
0.0
1001
AUTOCAD_POSTSCRIPT_FIGURE
1002
{
1000
PSFILL
1000
Grayscale
1000
Grayscale
1070
   100
1002
}
  0
LINE
  5
4A45
  8
YODOROGO
 10
27905.604341291921
 20
1884.5683489363
 30
0.0
 11
27905.604341291921
 21
1881.4090121588081
 31
0.0
1001
AUTOCAD_POSTSCRIPT_FIGURE
1002
{
1000
PSFILL
1000
Grayscale
1000
Grayscale
1070
   100
1002
}
  0
LINE
  5
4A46
  8
YODOROGO
 10
27937.604341291921
 20
1884.568348936298
 30
0.0
 11
27905.604341291921
 21
1884.5683489363
 31
0.0
1001
AUTOCAD_POSTSCRIPT_FIGURE
1002
{
1000
PSFILL
1000
Grayscale
1000
Grayscale
1070
   100
1002
}
  0
LINE
  5
4A47
  8
YODOROGO
 10
27937.604341291921
 20
1900.5683489363
 30
0.0
 11
27937.604341291921
 21
1884.568348936298
 31
0.0
1001
AUTOCAD_POSTSCRIPT_FIGURE
1002
{
1000
PSFILL
1000
Grayscale
1000
Grayscale
1070
   100
1002
}
  0
LINE
  5
4A48
  8
YODOROGO
 10
27905.604341291921
 20
1900.5683489363
 30
0.0
 11
27937.604341291921
 21
1900.5683489363
 31
0.0
1001
AUTOCAD_POSTSCRIPT_FIGURE
1002
{
1000
PSFILL
1000
Grayscale
1000
Grayscale
1070
   100
1002
}
  0
LINE
  5
4A49
  8
YODOROGO
 10
27905.604341291921
 20
1939.749496429288
 30
0.0
 11
27905.604341291921
 21
1900.5683489363
 31
0.0
1001
AUTOCAD_POSTSCRIPT_FIGURE
1002
{
1000
PSFILL
1000
Grayscale
1000
Grayscale
1070
   100
1002
}
  0
LINE
  5
4A4A
  8
YODOROGO
 10
27937.604341291921
 20
1939.749496429288
 30
0.0
 11
27905.604341291921
 21
1939.749496429288
 31
0.0
1001
AUTOCAD_POSTSCRIPT_FIGURE
1002
{
1000
PSFILL
1000
Grayscale
1000
Grayscale
1070
   100
1002
}
  0
LINE
  5
4A4B
  8
YODOROGO
 10
27937.604341291921
 20
1955.7494964292871
 30
0.0
 11
27937.604341291921
 21
1939.749496429288
 31
0.0
1001
AUTOCAD_POSTSCRIPT_FIGURE
1002
{
1000
PSFILL
1000
Grayscale
1000
Grayscale
1070
   100
1002
}
  0
LINE
  5
4A4C
  8
YODOROGO
 10
27905.604341291921
 20
1955.7494964292871
 30
0.0
 11
27937.604341291921
 21
1955.7494964292871
 31
0.0
1001
AUTOCAD_POSTSCRIPT_FIGURE
1002
{
1000
PSFILL
1000
Grayscale
1000
Grayscale
1070
   100
1002
}
  0
LINE
  5
4A4D
  8
YODOROGO
 10
27905.604341291921
 20
1979.749496429288
 30
0.0
 11
27905.604341291921
 21
1955.7494964292871
 31
0.0
1001
AUTOCAD_POSTSCRIPT_FIGURE
1002
{
1000
PSFILL
1000
Grayscale
1000
Grayscale
1070
   100
1002
}
  0
LINE
  5
4A4E
  8
YODOROGO
 10
27889.604341291921
 20
1979.749496429288
 30
0.0
 11
27905.604341291921
 21
1979.749496429288
 31
0.0
1001
AUTOCAD_POSTSCRIPT_FIGURE
1002
{
1000
PSFILL
1000
Grayscale
1000
Grayscale
1070
   100
1002
}
  0
LINE
  5
4A4F
  8
YODOROGO
 10
27889.604341291921
 20
1955.7494964292871
 30
0.0
 11
27889.604341291921
 21
1979.749496429288
 31
0.0
1001
AUTOCAD_POSTSCRIPT_FIGURE
1002
{
1000
PSFILL
1000
Grayscale
1000
Grayscale
1070
   100
1002
}
  0
LINE
  5
4A50
  8
YODOROGO
 10
27865.604341291921
 20
1955.7494964292871
 30
0.0
 11
27889.604341291921
 21
1955.7494964292871
 31
0.0
1001
AUTOCAD_POSTSCRIPT_FIGURE
1002
{
1000
PSFILL
1000
Grayscale
1000
Grayscale
1070
   100
1002
}
  0
LINE
  5
4A51
  8
YODOROGO
 10
27865.604341291921
 20
1979.749496429288
 30
0.0
 11
27865.604341291921
 21
1955.7494964292871
 31
0.0
1001
AUTOCAD_POSTSCRIPT_FIGURE
1002
{
1000
PSFILL
1000
Grayscale
1000
Grayscale
1070
   100
1002
}
  0
LINE
  5
4A52
  8
YODOROGO
 10
27849.604341291921
 20
1979.749496429288
 30
0.0
 11
27865.604341291921
 21
1979.749496429288
 31
0.0
1001
AUTOCAD_POSTSCRIPT_FIGURE
1002
{
1000
PSFILL
1000
Grayscale
1000
Grayscale
1070
   100
1002
}
  0
LINE
  5
4A53
  8
YODOROGO
 10
27849.604341291921
 20
1955.7494964292871
 30
0.0
 11
27849.604341291921
 21
1979.749496429288
 31
0.0
1001
AUTOCAD_POSTSCRIPT_FIGURE
1002
{
1000
PSFILL
1000
Grayscale
1000
Grayscale
1070
   100
1002
}
  0
LINE
  5
4A54
  8
YODOROGO
 10
27817.604341291921
 20
1955.7494964292871
 30
0.0
 11
27849.604341291921
 21
1955.7494964292871
 31
0.0
1001
AUTOCAD_POSTSCRIPT_FIGURE
1002
{
1000
PSFILL
1000
Grayscale
1000
Grayscale
1070
   100
1002
}
  0
LINE
  5
4A55
  8
YODOROGO
 10
27817.604341291921
 20
1979.749496429288
 30
0.0
 11
27817.604341291921
 21
1955.7494964292871
 31
0.0
1001
AUTOCAD_POSTSCRIPT_FIGURE
1002
{
1000
PSFILL
1000
Grayscale
1000
Grayscale
1070
   100
1002
}
  0
LINE
  5
4A56
  8
YODOROGO
 10
27801.604341291921
 20
1979.749496429288
 30
0.0
 11
27817.604341291921
 21
1979.749496429288
 31
0.0
1001
AUTOCAD_POSTSCRIPT_FIGURE
1002
{
1000
PSFILL
1000
Grayscale
1000
Grayscale
1070
   100
1002
}
  0
LINE
  5
4A57
  8
YODOROGO
 10
27801.604341291921
 20
1955.7494964292871
 30
0.0
 11
27801.604341291921
 21
1979.749496429288
 31
0.0
1001
AUTOCAD_POSTSCRIPT_FIGURE
1002
{
1000
PSFILL
1000
Grayscale
1000
Grayscale
1070
   100
1002
}
  0
LINE
  5
4A58
  8
YODOROGO
 10
27777.604341291921
 20
1955.7494964292871
 30
0.0
 11
27801.604341291921
 21
1955.7494964292871
 31
0.0
1001
AUTOCAD_POSTSCRIPT_FIGURE
1002
{
1000
PSFILL
1000
Grayscale
1000
Grayscale
1070
   100
1002
}
  0
LINE
  5
4A59
  8
YODOROGO
 10
27777.604341291921
 20
1939.749496429288
 30
0.0
 11
27777.604341291921
 21
1955.7494964292871
 31
0.0
1001
AUTOCAD_POSTSCRIPT_FIGURE
1002
{
1000
PSFILL
1000
Grayscale
1000
Grayscale
1070
   100
1002
}
  0
LINE
  5
4A5A
  8
YODOROGO
 10
27801.604341291921
 20
1939.749496429288
 30
0.0
 11
27777.604341291921
 21
1939.749496429288
 31
0.0
1001
AUTOCAD_POSTSCRIPT_FIGURE
1002
{
1000
PSFILL
1000
Grayscale
1000
Grayscale
1070
   100
1002
}
  0
LINE
  5
4A5B
  8
YODOROGO
 10
27801.604341291921
 20
1914.7865807937051
 30
0.0
 11
27801.604341291921
 21
1939.749496429288
 31
0.0
1001
AUTOCAD_POSTSCRIPT_FIGURE
1002
{
1000
PSFILL
1000
Grayscale
1000
Grayscale
1070
   100
1002
}
  0
LINE
  5
4A5C
  8
YODOROGO
 10
27777.604341291921
 20
1859.776747951671
 30
0.0
 11
27801.604341291921
 21
1914.7865807937051
 31
0.0
1001
AUTOCAD_POSTSCRIPT_FIGURE
1002
{
1000
PSFILL
1000
Grayscale
1000
Grayscale
1070
   100
1002
}
  0
LINE
  5
4A5D
  8
YODOROGO
 10
27777.604341291921
 20
1843.776747951672
 30
0.0
 11
27777.604341291921
 21
1859.776747951671
 31
0.0
1001
AUTOCAD_POSTSCRIPT_FIGURE
1002
{
1000
PSFILL
1000
Grayscale
1000
Grayscale
1070
   100
1002
}
  0
LINE
  5
4A5E
  8
YODOROGO
 10
28257.604341291921
 20
1867.7494964292871
 30
0.0
 11
28401.60434129191
 21
1824.877625640306
 31
0.0
1001
AUTOCAD_POSTSCRIPT_FIGURE
1002
{
1000
PSFILL
1000
Grayscale
1000
Grayscale
1070
   100
1002
}
  0
LINE
  5
4A5F
  8
YODOROGO
 10
28401.60434129191
 20
1752.877625640306
 30
0.0
 11
28257.604341291921
 21
1795.7494964292871
 31
0.0
1001
AUTOCAD_POSTSCRIPT_FIGURE
1002
{
1000
PSFILL
1000
Grayscale
1000
Grayscale
1070
   100
1002
}
  0
LINE
  5
4A60
  8
YODOROGO
 10
28401.60434129191
 20
1984.877625640306
 30
0.0
 11
28257.604341291921
 21
2027.749496429288
 31
0.0
1001
AUTOCAD_POSTSCRIPT_FIGURE
1002
{
1000
PSFILL
1000
Grayscale
1000
Grayscale
1070
   100
1002
}
  0
LINE
  5
4A61
  8
YODOROGO
 10
28257.604341291921
 20
1959.749496429288
 30
0.0
 11
28401.60434129191
 21
1916.8776256403071
 31
0.0
1001
AUTOCAD_POSTSCRIPT_FIGURE
1002
{
1000
PSFILL
1000
Grayscale
1000
Grayscale
1070
   100
1002
}
  0
LINE
  5
4A62
  8
YODOROGO
 10
28257.604341291921
 20
1795.7494964292871
 30
0.0
 11
28257.604341291921
 21
1867.7494964292871
 31
0.0
1001
AUTOCAD_POSTSCRIPT_FIGURE
1002
{
1000
PSFILL
1000
Grayscale
1000
Grayscale
1070
   100
1002
}
  0
LINE
  5
4A63
  8
YODOROGO
 10
28257.604341291921
 20
2027.749496429288
 30
0.0
 11
28257.604341291921
 21
1959.749496429288
 31
0.0
1001
AUTOCAD_POSTSCRIPT_FIGURE
1002
{
1000
PSFILL
1000
Grayscale
1000
Grayscale
1070
   100
1002
}
  0
LINE
  5
4A64
  8
YODOROGO
 10
28080.236320206739
 20
1939.749496429288
 30
0.0
 11
28129.60434129191
 21
1747.749496429286
 31
0.0
1001
AUTOCAD_POSTSCRIPT_FIGURE
1002
{
1000
PSFILL
1000
Grayscale
1000
Grayscale
1070
   100
1002
}
  0
LINE
  5
4A65
  8
YODOROGO
 10
27977.604341291921
 20
1939.749496429288
 30
0.0
 11
28080.236320206739
 21
1939.749496429288
 31
0.0
1001
AUTOCAD_POSTSCRIPT_FIGURE
1002
{
1000
PSFILL
1000
Grayscale
1000
Grayscale
1070
   100
1002
}
  0
LINE
  5
4A66
  8
YODOROGO
 10
27977.604341291921
 20
1955.7494964292871
 30
0.0
 11
27977.604341291921
 21
1939.749496429288
 31
0.0
1001
AUTOCAD_POSTSCRIPT_FIGURE
1002
{
1000
PSFILL
1000
Grayscale
1000
Grayscale
1070
   100
1002
}
  0
LINE
  5
4A67
  8
YODOROGO
 10
28076.60687851991
 20
1955.7494964292871
 30
0.0
 11
27977.604341291921
 21
1955.7494964292871
 31
0.0
1001
AUTOCAD_POSTSCRIPT_FIGURE
1002
{
1000
PSFILL
1000
Grayscale
1000
Grayscale
1070
   100
1002
}
  0
LINE
  5
4A68
  8
YODOROGO
 10
28071.162715989711
 20
1979.749496429288
 30
0.0
 11
28076.60687851991
 21
1955.7494964292871
 31
0.0
1001
AUTOCAD_POSTSCRIPT_FIGURE
1002
{
1000
PSFILL
1000
Grayscale
1000
Grayscale
1070
   100
1002
}
  0
LINE
  5
4A69
  8
YODOROGO
 10
28091.162715989711
 20
1979.749496429288
 30
0.0
 11
28071.162715989711
 21
1979.749496429288
 31
0.0
1001
AUTOCAD_POSTSCRIPT_FIGURE
1002
{
1000
PSFILL
1000
Grayscale
1000
Grayscale
1070
   100
1002
}
  0
LINE
  5
4A6A
  8
YODOROGO
 10
28095.806878519939
 20
1955.7494964292871
 30
0.0
 11
28091.162715989711
 21
1979.749496429288
 31
0.0
1001
AUTOCAD_POSTSCRIPT_FIGURE
1002
{
1000
PSFILL
1000
Grayscale
1000
Grayscale
1070
   100
1002
}
  0
LINE
  5
4A6B
  8
YODOROGO
 10
28121.604341291921
 20
1955.7494964292871
 30
0.0
 11
28095.806878519939
 21
1955.7494964292871
 31
0.0
1001
AUTOCAD_POSTSCRIPT_FIGURE
1002
{
1000
PSFILL
1000
Grayscale
1000
Grayscale
1070
   100
1002
}
  0
LINE
  5
4A6C
  8
YODOROGO
 10
28121.604341291921
 20
1979.749496429288
 30
0.0
 11
28121.604341291921
 21
1955.7494964292871
 31
0.0
1001
AUTOCAD_POSTSCRIPT_FIGURE
1002
{
1000
PSFILL
1000
Grayscale
1000
Grayscale
1070
   100
1002
}
  0
LINE
  5
4A6D
  8
YODOROGO
 10
28137.604341291921
 20
1979.749496429288
 30
0.0
 11
28121.604341291921
 21
1979.749496429288
 31
0.0
1001
AUTOCAD_POSTSCRIPT_FIGURE
1002
{
1000
PSFILL
1000
Grayscale
1000
Grayscale
1070
   100
1002
}
  0
LINE
  5
4A6E
  8
YODOROGO
 10
28137.604341291921
 20
1955.7494964292871
 30
0.0
 11
28137.604341291921
 21
1979.749496429288
 31
0.0
1001
AUTOCAD_POSTSCRIPT_FIGURE
1002
{
1000
PSFILL
1000
Grayscale
1000
Grayscale
1070
   100
1002
}
  0
LINE
  5
4A6F
  8
YODOROGO
 10
28137.604341291921
 20
1939.749496429288
 30
0.0
 11
28137.604341291921
 21
1955.7494964292871
 31
0.0
1001
AUTOCAD_POSTSCRIPT_FIGURE
1002
{
1000
PSFILL
1000
Grayscale
1000
Grayscale
1070
   100
1002
}
  0
LINE
  5
4A70
  8
YODOROGO
 10
28098.902986873411
 20
1939.749496429288
 30
0.0
 11
28137.604341291921
 21
1939.749496429288
 31
0.0
1001
AUTOCAD_POSTSCRIPT_FIGURE
1002
{
1000
PSFILL
1000
Grayscale
1000
Grayscale
1070
   100
1002
}
  0
LINE
  5
4A71
  8
YODOROGO
 10
28137.604341291921
 20
1747.749496429286
 30
0.0
 11
28098.902986873411
 21
1939.749496429288
 31
0.0
1001
AUTOCAD_POSTSCRIPT_FIGURE
1002
{
1000
PSFILL
1000
Grayscale
1000
Grayscale
1070
   100
1002
}
  0
LINE
  5
4A72
  8
YODOROGO
 10
28129.60434129191
 20
1747.749496429286
 30
0.0
 11
28137.604341291921
 21
1747.749496429286
 31
0.0
1001
AUTOCAD_POSTSCRIPT_FIGURE
1002
{
1000
PSFILL
1000
Grayscale
1000
Grayscale
1070
   100
1002
}
  0
LINE
  5
4A73
  8
YODOROGO
 10
28078.06921993379
 20
1775.7407762987939
 30
0.0
 11
27977.604341291921
 21
1747.749496429286
 31
0.0
  0
LINE
  5
4A74
  8
YODOROGO
 10
28078.06921993379
 20
1798.6689795290731
 30
0.0
 11
28078.06921993379
 21
1775.7407762987939
 31
0.0
  0
LINE
  5
4A75
  8
YODOROGO
 10
28033.83678061287
 20
1786.816933133767
 30
0.0
 11
28078.06921993379
 21
1798.6689795290731
 31
0.0
  0
LINE
  5
4A76
  8
YODOROGO
 10
28033.83678061287
 20
1872.5683489362989
 30
0.0
 11
28033.83678061287
 21
1786.816933133767
 31
0.0
  0
LINE
  5
4A77
  8
YODOROGO
 10
28078.06921993379
 20
1872.5683489362989
 30
0.0
 11
28033.83678061287
 21
1872.5683489362989
 31
0.0
  0
LINE
  5
4A78
  8
YODOROGO
 10
28078.06921993379
 20
1892.568348936298
 30
0.0
 11
28078.06921993379
 21
1872.5683489362989
 31
0.0
  0
LINE
  5
4A79
  8
YODOROGO
 10
27977.604341291921
 20
1892.568348936298
 30
0.0
 11
28078.06921993379
 21
1892.568348936298
 31
0.0
  0
LINE
  5
4A7A
  8
YODOROGO
 10
27977.604341291921
 20
1872.5683489362989
 30
0.0
 11
27977.604341291921
 21
1892.568348936298
 31
0.0
  0
LINE
  5
4A7B
  8
YODOROGO
 10
28021.836780612852
 20
1872.5683489362989
 30
0.0
 11
27977.604341291921
 21
1872.5683489362989
 31
0.0
  0
LINE
  5
4A7C
  8
YODOROGO
 10
28021.836780612852
 20
1784.673339594317
 30
0.0
 11
28021.836780612852
 21
1872.5683489362989
 31
0.0
  0
LINE
  5
4A7D
  8
YODOROGO
 10
27977.604341291921
 20
1771.749496429286
 30
0.0
 11
28021.836780612852
 21
1784.673339594317
 31
0.0
  0
LINE
  5
4A7E
  8
YODOROGO
 10
27977.604341291921
 20
1747.749496429286
 30
0.0
 11
27977.604341291921
 21
1771.749496429286
 31
0.0
  0
LINE
  5
4A7F
  8
YODOROGO
 10
28001.604341291921
 20
1707.749496429288
 30
0.0
 11
28001.604341291921
 21
1683.7494964292871
 31
0.0
  0
LINE
  5
4A80
  8
YODOROGO
 10
28017.604341291921
 20
1707.749496429288
 30
0.0
 11
28001.604341291921
 21
1707.749496429288
 31
0.0
  0
LINE
  5
4A81
  8
YODOROGO
 10
28017.604341291921
 20
1683.7494964292871
 30
0.0
 11
28017.604341291921
 21
1707.749496429288
 31
0.0
  0
LINE
  5
4A82
  8
YODOROGO
 10
28040.913204016892
 20
1683.7494964292871
 30
0.0
 11
28017.604341291921
 21
1683.7494964292871
 31
0.0
  0
LINE
  5
4A83
  8
YODOROGO
 10
28001.604341291921
 20
1683.7494964292871
 30
0.0
 11
27977.604341291921
 21
1683.7494964292871
 31
0.0
  0
LINE
  5
4A84
  8
YODOROGO
 10
28082.135520230921
 20
1707.749496429288
 30
0.0
 11
28098.135520230931
 21
1707.749496429288
 31
0.0
1001
AUTOCAD_POSTSCRIPT_FIGURE
1002
{
1000
PSFILL
1000
Grayscale
1000
Grayscale
1070
   100
1002
}
  0
LINE
  5
4A85
  8
YODOROGO
 10
28401.60434129191
 20
1824.877625640306
 30
0.0
 11
28401.60434129191
 21
1752.877625640306
 31
0.0
1001
AUTOCAD_POSTSCRIPT_FIGURE
1002
{
1000
PSFILL
1000
Grayscale
1000
Grayscale
1070
   100
1002
}
  0
LINE
  5
4A86
  8
YODOROGO
 10
28401.60434129191
 20
1916.8776256403071
 30
0.0
 11
28401.60434129191
 21
1984.877625640306
 31
0.0
1001
AUTOCAD_POSTSCRIPT_FIGURE
1002
{
1000
PSFILL
1000
Grayscale
1000
Grayscale
1070
   100
1002
}
  0
LINE
  5
4A87
  8
YODOROGO
 10
28433.60434129191
 20
1819.7494964292871
 30
0.0
 11
28433.60434129191
 21
1747.74949642929
 31
0.0
  0
LINE
  5
4A88
  8
YODOROGO
 10
28497.60434129191
 20
1707.749496429288
 30
0.0
 11
28433.60434129191
 21
1707.749496429288
 31
0.0
  0
LINE
  5
4A89
  8
YODOROGO
 10
28433.60434129191
 20
1747.74949642929
 30
0.0
 11
28585.604341291921
 21
1747.74949642929
 31
0.0
  0
LINE
  5
4A8A
  8
YODOROGO
 10
28497.60434129191
 20
1867.7494964292871
 30
0.0
 11
28433.60434129191
 21
1867.7494964292871
 31
0.0
  0
LINE
  5
4A8B
  8
YODOROGO
 10
28497.60434129191
 20
1923.7494964292871
 30
0.0
 11
28497.60434129191
 21
1867.7494964292871
 31
0.0
  0
LINE
  5
4A8C
  8
YODOROGO
 10
28585.604341291921
 20
1987.7494964292871
 30
0.0
 11
28585.604341291921
 21
2027.749496429288
 31
0.0
  0
LINE
  5
4A8D
  8
YODOROGO
 10
28433.60434129191
 20
1987.7494964292871
 30
0.0
 11
28585.604341291921
 21
1987.7494964292871
 31
0.0
  0
LINE
  5
4A8E
  8
YODOROGO
 10
28433.60434129191
 20
1867.7494964292871
 30
0.0
 11
28433.60434129191
 21
1987.7494964292871
 31
0.0
  0
LINE
  5
4A8F
  8
YODOROGO
 10
29001.60434129191
 20
2027.749496429288
 30
0.0
 11
29001.60434129191
 21
1619.749496429288
 31
0.0
  0
LINE
  5
4A90
  8
YODOROGO
 10
29073.604341291921
 20
1579.749496429288
 30
0.0
 11
29073.604341291921
 21
2027.749496429288
 31
0.0
  0
LINE
  5
4A91
  8
YODOROGO
 10
29261.604341291921
 20
1491.749496429286
 30
0.0
 11
29261.604341291921
 21
2007.749496429288
 31
0.0
  0
LINE
  5
4A92
  8
YODOROGO
 10
29197.604341291921
 20
2007.749496429288
 30
0.0
 11
29197.604341291921
 21
1491.749496429286
 31
0.0
  0
LINE
  5
4A93
  8
YODOROGO
 10
29385.604341291921
 20
2027.749496429288
 30
0.0
 11
29385.604341291921
 21
1427.749496429288
 31
0.0
  0
LINE
  5
4A94
  8
YODOROGO
 10
29457.604341291921
 20
1427.749496429288
 30
0.0
 11
29457.604341291921
 21
2027.749496429288
 31
0.0
  0
LINE
  5
4A95
  8
YODOROGO
 10
28657.604341291921
 20
1667.749496429288
 30
0.0
 11
28657.604341291921
 21
1747.74949642929
 31
0.0
  0
LINE
  5
4A96
  8
YODOROGO
 10
29885.604341291921
 20
1707.749496429288
 30
0.0
 11
29885.604341291921
 21
1667.749496429288
 31
0.0
  0
LINE
  5
4A97
  8
YODOROGO
 10
29885.604341291921
 20
1707.749496429288
 30
0.0
 11
29885.604341291921
 21
1667.749496429288
 31
0.0
  0
ARC
  5
4A98
  8
YODOROGO
 10
28906.911576186842
 20
1618.217864442272
 30
0.0
 40
94.705151178741644
 50
274.05244162907098
 51
0.9266642149310712
  0
ARC
  5
4A99
  8
YODOROGO
 10
28909.186170719819
 20
1592.61072861044
 30
0.0
 40
164.92042356085511
 50
271.5351210653775
 51
355.52727750585052
  0
LINE
  5
4A9A
  8
YODOROGO
 10
28913.604341291921
 20
1523.7494964292871
 30
0.0
 11
28913.604341291921
 21
1427.749496429288
 31
0.0
  0
LINE
  5
4A9B
  8
YODOROGO
 10
28793.60434129191
 20
1667.749496429288
 30
0.0
 11
28657.604341291921
 21
1667.749496429288
 31
0.0
  0
LINE
  5
4A9C
  8
YODOROGO
 10
28793.60434129191
 20
1603.7494964292871
 30
0.0
 11
28793.60434129191
 21
1667.749496429288
 31
0.0
  0
LINE
  5
4A9D
  8
YODOROGO
 10
28657.604341291921
 20
1603.7494964292871
 30
0.0
 11
28793.60434129191
 21
1603.7494964292871
 31
0.0
  0
LINE
  5
4A9E
  8
YODOROGO
 10
28657.604341291921
 20
1523.7494964292871
 30
0.0
 11
28657.604341291921
 21
1603.7494964292871
 31
0.0
  0
LINE
  5
4A9F
  8
YODOROGO
 10
28793.60434129191
 20
1523.7494964292871
 30
0.0
 11
28657.604341291921
 21
1523.7494964292871
 31
0.0
  0
LINE
  5
4AA0
  8
YODOROGO
 10
28793.60434129191
 20
1427.749496429288
 30
0.0
 11
28793.60434129191
 21
1523.7494964292871
 31
0.0
  0
LINE
  5
4AA1
  8
YODOROGO
 10
29197.604341291921
 20
1491.749496429286
 30
0.0
 11
29261.604341291921
 21
1491.749496429286
 31
0.0
  0
LINE
  5
4AA2
  8
YODOROGO
 10
29385.604341291921
 20
1427.749496429288
 30
0.0
 11
29457.604341291921
 21
1427.749496429288
 31
0.0
  0
LINE
  5
4AA3
  8
YODOROGO
 10
29737.604341291921
 20
1528.4414521705639
 30
0.0
 11
29737.604341291921
 21
1427.749496429288
 31
0.0
  0
LINE
  5
4AA4
  8
YODOROGO
 10
29617.604341291921
 20
1427.749496429288
 30
0.0
 11
29737.604341291921
 21
1528.4414521705639
 31
0.0
  0
LINE
  5
4AA5
  8
YODOROGO
 10
29617.604341291921
 20
1547.749496429288
 30
0.0
 11
29617.604341291921
 21
1427.749496429288
 31
0.0
  0
LINE
  5
4AA6
  8
YODOROGO
 10
29712.94462869945
 20
1627.749496429288
 30
0.0
 11
29617.604341291921
 21
1547.749496429288
 31
0.0
  0
LINE
  5
4AA7
  8
YODOROGO
 10
29617.604341291921
 20
1627.749496429288
 30
0.0
 11
29712.94462869945
 21
1627.749496429288
 31
0.0
  0
LINE
  5
4AA8
  8
YODOROGO
 10
29617.604341291921
 20
1667.749496429288
 30
0.0
 11
29617.604341291921
 21
1627.749496429288
 31
0.0
  0
LINE
  5
4AA9
  8
YODOROGO
 10
29885.604341291921
 20
1667.749496429288
 30
0.0
 11
29617.604341291921
 21
1667.749496429288
 31
0.0
  0
LINE
  5
4AAA
  8
YODOROGO
 10
29917.604341291921
 20
1627.749496429288
 30
0.0
 11
29777.604341291921
 21
1627.749496429288
 31
0.0
  0
LINE
  5
4AAB
  8
YODOROGO
 10
29777.604341291921
 20
1562.0054374176559
 30
0.0
 11
29771.409872985321
 21
1556.807661346234
 31
0.0
  0
LINE
  5
4AAC
  8
YODOROGO
 10
29777.604341291921
 20
1627.749496429288
 30
0.0
 11
29777.604341291921
 21
1562.0054374176559
 31
0.0
  0
LINE
  5
4AAD
  8
YODOROGO
 10
29737.604341291921
 20
1528.4414521705639
 30
0.0
 11
29737.604341291921
 21
1427.749496429288
 31
0.0
  0
LINE
  5
4AAE
  8
YODOROGO
 10
29617.604341291921
 20
1427.749496429288
 30
0.0
 11
29737.604341291921
 21
1528.4414521705639
 31
0.0
  0
LINE
  5
4AAF
  8
YODOROGO
 10
29617.604341291921
 20
1547.749496429288
 30
0.0
 11
29617.604341291921
 21
1427.749496429288
 31
0.0
  0
LINE
  5
4AB0
  8
YODOROGO
 10
29712.94462869945
 20
1627.749496429288
 30
0.0
 11
29617.604341291921
 21
1547.749496429288
 31
0.0
  0
LINE
  5
4AB1
  8
YODOROGO
 10
29617.604341291921
 20
1627.749496429288
 30
0.0
 11
29712.94462869945
 21
1627.749496429288
 31
0.0
  0
LINE
  5
4AB2
  8
YODOROGO
 10
29617.604341291921
 20
1667.749496429288
 30
0.0
 11
29617.604341291921
 21
1627.749496429288
 31
0.0
  0
LINE
  5
4AB3
  8
YODOROGO
 10
29885.604341291921
 20
1667.749496429288
 30
0.0
 11
29617.604341291921
 21
1667.749496429288
 31
0.0
  0
LINE
  5
4AB4
  8
YODOROGO
 10
28793.60434129191
 20
1747.74949642929
 30
0.0
 11
28793.60434129191
 21
1819.7494964292871
 31
0.0
  0
LINE
  5
4AB5
  8
YODOROGO
 10
28657.604341291921
 20
1747.74949642929
 30
0.0
 11
28793.60434129191
 21
1747.74949642929
 31
0.0
  0
LINE
  5
4AB6
  8
YODOROGO
 10
28729.604341291921
 20
1867.7494964292871
 30
0.0
 11
28729.604341291921
 21
1923.7494964292871
 31
0.0
  0
LINE
  5
4AB7
  8
YODOROGO
 10
28793.60434129191
 20
1867.7494964292871
 30
0.0
 11
28729.604341291921
 21
1867.7494964292871
 31
0.0
  0
LINE
  5
4AB8
  8
YODOROGO
 10
28793.60434129191
 20
1947.749496429288
 30
0.0
 11
28793.60434129191
 21
1867.7494964292871
 31
0.0
  0
ARC
  5
4AB9
  8
YODOROGO
 10
28753.60434129191
 20
1947.749496429288
 30
0.0
 40
40.0
 50
0.0
 51
90.0
  0
LINE
  5
4ABA
  8
YODOROGO
 10
28657.604341291921
 20
1987.7494964292871
 30
0.0
 11
28753.60434129191
 21
1987.7494964292871
 31
0.0
  0
LINE
  5
4ABB
  8
YODOROGO
 10
28657.604341291921
 20
2027.749496429288
 30
0.0
 11
28657.604341291921
 21
1987.7494964292871
 31
0.0
  0
LINE
  5
4ABC
  8
YODOROGO
 10
29073.604341291921
 20
2027.749496429288
 30
0.0
 11
29001.60434129191
 21
2027.749496429288
 31
0.0
  0
LINE
  5
4ABD
  8
YODOROGO
 10
29261.604341291921
 20
2007.749496429288
 30
0.0
 11
29197.604341291921
 21
2007.749496429288
 31
0.0
  0
LINE
  5
4ABE
  8
YODOROGO
 10
29457.604341291921
 20
2027.749496429288
 30
0.0
 11
29385.604341291921
 21
2027.749496429288
 31
0.0
  0
LINE
  5
4ABF
  8
YODOROGO
 10
29673.604341291921
 20
1707.749496429288
 30
0.0
 11
29673.604341291921
 21
1771.7494964292871
 31
0.0
1001
AUTOCAD_POSTSCRIPT_FIGURE
1002
{
1000
PSFILL
1000
Grayscale
1000
Grayscale
1070
    25
1002
}
  0
LINE
  5
4AC0
  8
YODOROGO
 10
29617.604341291921
 20
1707.749496429288
 30
0.0
 11
29673.604341291921
 21
1707.749496429288
 31
0.0
1001
AUTOCAD_POSTSCRIPT_FIGURE
1002
{
1000
PSFILL
1000
Grayscale
1000
Grayscale
1070
    25
1002
}
  0
LINE
  5
4AC1
  8
YODOROGO
 10
29617.604341291921
 20
1819.7494964292871
 30
0.0
 11
29617.604341291921
 21
1707.749496429288
 31
0.0
1001
AUTOCAD_POSTSCRIPT_FIGURE
1002
{
1000
PSFILL
1000
Grayscale
1000
Grayscale
1070
    25
1002
}
  0
LINE
  5
4AC2
  8
YODOROGO
 10
29765.604341291921
 20
1819.7494964292871
 30
0.0
 11
29617.604341291921
 21
1819.7494964292871
 31
0.0
1001
AUTOCAD_POSTSCRIPT_FIGURE
1002
{
1000
PSFILL
1000
Grayscale
1000
Grayscale
1070
    25
1002
}
  0
LINE
  5
4AC3
  8
YODOROGO
 10
29765.604341291921
 20
1859.749496429288
 30
0.0
 11
29765.604341291921
 21
1819.7494964292871
 31
0.0
1001
AUTOCAD_POSTSCRIPT_FIGURE
1002
{
1000
PSFILL
1000
Grayscale
1000
Grayscale
1070
    25
1002
}
  0
LINE
  5
4AC4
  8
YODOROGO
 10
29617.604341291921
 20
1859.749496429288
 30
0.0
 11
29765.604341291921
 21
1859.749496429288
 31
0.0
1001
AUTOCAD_POSTSCRIPT_FIGURE
1002
{
1000
PSFILL
1000
Grayscale
1000
Grayscale
1070
    25
1002
}
  0
LINE
  5
4AC5
  8
YODOROGO
 10
29617.604341291921
 20
1907.7494964292871
 30
0.0
 11
29617.604341291921
 21
1859.749496429288
 31
0.0
1001
AUTOCAD_POSTSCRIPT_FIGURE
1002
{
1000
PSFILL
1000
Grayscale
1000
Grayscale
1070
    25
1002
}
  0
LINE
  5
4AC6
  8
YODOROGO
 10
29765.604341291921
 20
1907.7494964292871
 30
0.0
 11
29617.604341291921
 21
1907.7494964292871
 31
0.0
1001
AUTOCAD_POSTSCRIPT_FIGURE
1002
{
1000
PSFILL
1000
Grayscale
1000
Grayscale
1070
    25
1002
}
  0
LINE
  5
4AC7
  8
YODOROGO
 10
29765.604341291921
 20
1947.749496429288
 30
0.0
 11
29765.604341291921
 21
1907.7494964292871
 31
0.0
1001
AUTOCAD_POSTSCRIPT_FIGURE
1002
{
1000
PSFILL
1000
Grayscale
1000
Grayscale
1070
    25
1002
}
  0
LINE
  5
4AC8
  8
YODOROGO
 10
29617.604341291921
 20
1947.749496429288
 30
0.0
 11
29765.604341291921
 21
1947.749496429288
 31
0.0
1001
AUTOCAD_POSTSCRIPT_FIGURE
1002
{
1000
PSFILL
1000
Grayscale
1000
Grayscale
1070
    25
1002
}
  0
LINE
  5
4AC9
  8
YODOROGO
 10
29617.604341291921
 20
2027.749496429288
 30
0.0
 11
29617.604341291921
 21
1947.749496429288
 31
0.0
1001
AUTOCAD_POSTSCRIPT_FIGURE
1002
{
1000
PSFILL
1000
Grayscale
1000
Grayscale
1070
    25
1002
}
  0
LINE
  5
4ACA
  8
YODOROGO
 10
29665.604341291921
 20
2027.749496429288
 30
0.0
 11
29617.604341291921
 21
2027.749496429288
 31
0.0
1001
AUTOCAD_POSTSCRIPT_FIGURE
1002
{
1000
PSFILL
1000
Grayscale
1000
Grayscale
1070
    25
1002
}
  0
LINE
  5
4ACB
  8
YODOROGO
 10
29665.604341291921
 20
1995.7494964292871
 30
0.0
 11
29665.604341291921
 21
2027.749496429288
 31
0.0
1001
AUTOCAD_POSTSCRIPT_FIGURE
1002
{
1000
PSFILL
1000
Grayscale
1000
Grayscale
1070
    25
1002
}
  0
LINE
  5
4ACC
  8
YODOROGO
 10
29765.604341291921
 20
1995.7494964292871
 30
0.0
 11
29665.604341291921
 21
1995.7494964292871
 31
0.0
1001
AUTOCAD_POSTSCRIPT_FIGURE
1002
{
1000
PSFILL
1000
Grayscale
1000
Grayscale
1070
    25
1002
}
  0
LINE
  5
4ACD
  8
YODOROGO
 10
29765.604341291921
 20
2027.749496429288
 30
0.0
 11
29765.604341291921
 21
1995.7494964292871
 31
0.0
1001
AUTOCAD_POSTSCRIPT_FIGURE
1002
{
1000
PSFILL
1000
Grayscale
1000
Grayscale
1070
    25
1002
}
  0
LINE
  5
4ACE
  8
YODOROGO
 10
29829.604341291921
 20
2027.749496429288
 30
0.0
 11
29765.604341291921
 21
2027.749496429288
 31
0.0
1001
AUTOCAD_POSTSCRIPT_FIGURE
1002
{
1000
PSFILL
1000
Grayscale
1000
Grayscale
1070
    25
1002
}
  0
LINE
  5
4ACF
  8
YODOROGO
 10
29829.604341291921
 20
1995.7494964292871
 30
0.0
 11
29829.604341291921
 21
2027.749496429288
 31
0.0
1001
AUTOCAD_POSTSCRIPT_FIGURE
1002
{
1000
PSFILL
1000
Grayscale
1000
Grayscale
1070
    25
1002
}
  0
LINE
  5
4AD0
  8
YODOROGO
 10
29829.604341291921
 20
1907.7494964292871
 30
0.0
 11
29829.604341291921
 21
1947.749496429288
 31
0.0
1001
AUTOCAD_POSTSCRIPT_FIGURE
1002
{
1000
PSFILL
1000
Grayscale
1000
Grayscale
1070
    25
1002
}
  0
LINE
  5
4AD1
  8
YODOROGO
 10
29829.604341291921
 20
1819.7494964292871
 30
0.0
 11
29829.604341291921
 21
1859.749496429288
 31
0.0
1001
AUTOCAD_POSTSCRIPT_FIGURE
1002
{
1000
PSFILL
1000
Grayscale
1000
Grayscale
1070
    25
1002
}
  0
LINE
  5
4AD2
  8
YODOROGO
 10
29921.60434129191
 20
1771.7494964292871
 30
0.0
 11
29921.60434129191
 21
1707.749496429288
 31
0.0
1001
AUTOCAD_POSTSCRIPT_FIGURE
1002
{
1000
PSFILL
1000
Grayscale
1000
Grayscale
1070
    25
1002
}
  0
LINE
  5
4AD3
  8
YODOROGO
 10
29829.604341291921
 20
1771.7494964292871
 30
0.0
 11
29921.60434129191
 21
1771.7494964292871
 31
0.0
1001
AUTOCAD_POSTSCRIPT_FIGURE
1002
{
1000
PSFILL
1000
Grayscale
1000
Grayscale
1070
    25
1002
}
  0
LINE
  5
4AD4
  8
YODOROGO
 10
29829.604341291921
 20
1707.749496429288
 30
0.0
 11
29829.604341291921
 21
1771.7494964292871
 31
0.0
1001
AUTOCAD_POSTSCRIPT_FIGURE
1002
{
1000
PSFILL
1000
Grayscale
1000
Grayscale
1070
    25
1002
}
  0
LINE
  5
4AD5
  8
YODOROGO
 10
29765.604341291921
 20
1707.749496429288
 30
0.0
 11
29829.604341291921
 21
1707.749496429288
 31
0.0
1001
AUTOCAD_POSTSCRIPT_FIGURE
1002
{
1000
PSFILL
1000
Grayscale
1000
Grayscale
1070
    25
1002
}
  0
LINE
  5
4AD6
  8
YODOROGO
 10
29765.604341291921
 20
1771.7494964292871
 30
0.0
 11
29765.604341291921
 21
1707.749496429288
 31
0.0
1001
AUTOCAD_POSTSCRIPT_FIGURE
1002
{
1000
PSFILL
1000
Grayscale
1000
Grayscale
1070
    25
1002
}
  0
LINE
  5
4AD7
  8
YODOROGO
 10
29673.604341291921
 20
1771.7494964292871
 30
0.0
 11
29765.604341291921
 21
1771.7494964292871
 31
0.0
1001
AUTOCAD_POSTSCRIPT_FIGURE
1002
{
1000
PSFILL
1000
Grayscale
1000
Grayscale
1070
    25
1002
}
  0
ARC
  5
4AD8
  8
YODOROGO
 10
31059.517893357912
 20
1602.6807375155761
 30
0.0
 40
178.22128111072141
 50
281.02627495425338
 51
357.77113575573799
  0
LINE
  5
4AD9
  8
YODOROGO
 10
31413.604341291921
 20
1907.7494964292871
 30
0.0
 11
31165.604341291921
 21
1907.7494964292871
 31
0.0
  0
LINE
  5
4ADA
  8
YODOROGO
 10
31413.604341291921
 20
2027.749496429288
 30
0.0
 11
31165.604341291921
 21
2027.749496429288
 31
0.0
  0
LINE
  5
4ADB
  8
YODOROGO
 10
31165.604341291921
 20
1963.749496429286
 30
0.0
 11
31413.604341291921
 21
1963.749496429286
 31
0.0
  0
LINE
  5
4ADC
  8
YODOROGO
 10
30791.604341291921
 20
1563.7494964292871
 30
0.0
 11
30791.604341291921
 21
1755.7494964292871
 31
0.0
  0
LINE
  5
4ADD
  8
YODOROGO
 10
30763.604341291921
 20
1691.749496429288
 30
0.0
 11
30763.604341291921
 21
1563.7494964292871
 31
0.0
  0
LINE
  5
4ADE
  8
YODOROGO
 10
30723.604341291921
 20
1491.749496429288
 30
0.0
 11
30723.604341291921
 21
1691.749496429288
 31
0.0
  0
LINE
  5
4ADF
  8
YODOROGO
 10
30899.604341291932
 20
1691.749496429288
 30
0.0
 11
30899.604341291932
 21
1491.749496429288
 31
0.0
  0
LINE
  5
4AE0
  8
YODOROGO
 10
30859.604341291932
 20
1563.7494964292871
 30
0.0
 11
30859.604341291932
 21
1691.749496429288
 31
0.0
  0
LINE
  5
4AE1
  8
YODOROGO
 10
30831.604341291921
 20
1755.7494964292871
 30
0.0
 11
30831.604341291921
 21
1563.7494964292871
 31
0.0
  0
LINE
  5
4AE2
  8
YODOROGO
 10
30973.604341291921
 20
2027.749496429288
 30
0.0
 11
30973.604341291921
 21
1467.749496429288
 31
0.0
  0
LINE
  5
4AE3
  8
YODOROGO
 10
30645.604341291921
 20
1427.749496429288
 30
0.0
 11
30645.604341291921
 21
2027.749496429288
 31
0.0
  0
LINE
  5
4AE4
  8
YODOROGO
 10
30697.604341291932
 20
1963.749496429286
 30
0.0
 11
30697.604341291932
 21
1427.749496429288
 31
0.0
  0
LINE
  5
4AE5
  8
YODOROGO
 10
30925.604341291921
 20
1547.749496429288
 30
0.0
 11
30925.604341291921
 21
1963.749496429286
 31
0.0
  0
LINE
  5
4AE6
  8
YODOROGO
 10
30381.604341291932
 20
1627.749496429288
 30
0.0
 11
30381.604341291932
 21
1679.749496429288
 31
0.0
  0
LINE
  5
4AE7
  8
YODOROGO
 10
30617.604341291921
 20
1679.749496429288
 30
0.0
 11
30617.604341291921
 21
1627.749496429288
 31
0.0
  0
LINE
  5
4AE8
  8
YODOROGO
 10
31165.604341291921
 20
1907.7494964292871
 30
0.0
 11
31165.604341291921
 21
1635.7494964292871
 31
0.0
  0
LINE
  5
4AE9
  8
YODOROGO
 10
29949.60434129191
 20
1667.749496429288
 30
0.0
 11
29949.60434129191
 21
1707.749496429288
 31
0.0
  0
LINE
  5
4AEA
  8
YODOROGO
 10
29949.60434129191
 20
1667.749496429288
 30
0.0
 11
29949.60434129191
 21
1707.749496429288
 31
0.0
  0
ARC
  5
4AEB
  8
YODOROGO
 10
30537.604341291921
 20
1507.749496429288
 30
0.0
 40
80.0
 50
270.0
 51
0.0
  0
LINE
  5
4AEC
  8
YODOROGO
 10
30569.604341291921
 20
1599.7494964292871
 30
0.0
 11
30617.604341291921
 21
1599.7494964292871
 31
0.0
  0
LINE
  5
4AED
  8
YODOROGO
 10
30617.604341291921
 20
1627.749496429288
 30
0.0
 11
30529.604341291939
 21
1627.749496429288
 31
0.0
  0
LINE
  5
4AEE
  8
YODOROGO
 10
30217.604341291921
 20
1667.749496429288
 30
0.0
 11
29949.60434129191
 21
1667.749496429288
 31
0.0
  0
LINE
  5
4AEF
  8
YODOROGO
 10
30217.604341291921
 20
1627.749496429288
 30
0.0
 11
30217.604341291921
 21
1667.749496429288
 31
0.0
  0
LINE
  5
4AF0
  8
YODOROGO
 10
30017.604341291921
 20
1627.749496429288
 30
0.0
 11
30217.604341291921
 21
1627.749496429288
 31
0.0
  0
ARC
  5
4AF1
  8
YODOROGO
 10
30230.05882870136
 20
1868.885714952901
 30
0.0
 40
321.37763628522822
 50
228.6181454618993
 51
245.660289248906
  0
LINE
  5
4AF2
  8
YODOROGO
 10
30105.604341291921
 20
1603.7494964292871
 30
0.0
 11
30097.60434129195
 21
1576.0728158699001
 31
0.0
  0
LINE
  5
4AF3
  8
YODOROGO
 10
30189.604341291921
 20
1603.7494964292871
 30
0.0
 11
30105.604341291921
 21
1603.7494964292871
 31
0.0
  0
LINE
  5
4AF4
  8
YODOROGO
 10
30177.604341291921
 20
1551.817722473427
 30
0.0
 11
30189.604341291921
 21
1603.7494964292871
 31
0.0
  0
ARC
  5
4AF5
  8
YODOROGO
 10
30230.05882870045
 20
1868.885714953002
 30
0.0
 40
321.37763628529081
 50
260.60629297969911
 51
267.77903556555862
  0
LINE
  5
4AF6
  8
YODOROGO
 10
30217.604341291921
 20
1427.749496429285
 30
0.0
 11
30217.604341291921
 21
1547.749496429288
 31
0.0
  0
LINE
  5
4AF7
  8
YODOROGO
 10
29937.604341291932
 20
1481.3393349155101
 30
0.0
 11
29937.604341291921
 21
1594.531090531141
 31
0.0
  0
LINE
  5
4AF8
  8
YODOROGO
 10
30217.604341291921
 20
1667.749496429288
 30
0.0
 11
29949.60434129191
 21
1667.749496429288
 31
0.0
  0
LINE
  5
4AF9
  8
YODOROGO
 10
30217.604341291921
 20
1627.749496429288
 30
0.0
 11
30217.604341291921
 21
1667.749496429288
 31
0.0
  0
LINE
  5
4AFA
  8
YODOROGO
 10
30017.604341291921
 20
1627.749496429288
 30
0.0
 11
30217.604341291921
 21
1627.749496429288
 31
0.0
  0
ARC
  5
4AFB
  8
YODOROGO
 10
30230.05882870136
 20
1868.885714952901
 30
0.0
 40
321.37763628522822
 50
228.6181454618993
 51
245.660289248906
  0
LINE
  5
4AFC
  8
YODOROGO
 10
30105.604341291921
 20
1603.7494964292871
 30
0.0
 11
30097.60434129195
 21
1576.0728158699001
 31
0.0
  0
LINE
  5
4AFD
  8
YODOROGO
 10
30189.604341291921
 20
1603.7494964292871
 30
0.0
 11
30105.604341291921
 21
1603.7494964292871
 31
0.0
  0
LINE
  5
4AFE
  8
YODOROGO
 10
30177.604341291921
 20
1551.817722473427
 30
0.0
 11
30189.604341291921
 21
1603.7494964292871
 31
0.0
  0
ARC
  5
4AFF
  8
YODOROGO
 10
30230.05882870045
 20
1868.885714953002
 30
0.0
 40
321.37763628529081
 50
260.60629297969911
 51
267.77903556555862
  0
LINE
  5
4B00
  8
YODOROGO
 10
30217.604341291921
 20
1427.749496429285
 30
0.0
 11
30217.604341291921
 21
1547.749496429288
 31
0.0
  0
LINE
  5
4B01
  8
YODOROGO
 10
29937.604341291932
 20
1481.3393349155101
 30
0.0
 11
29937.604341291921
 21
1594.531090531141
 31
0.0
  0
LINE
  5
4B02
  8
YODOROGO
 10
30433.604341291921
 20
1573.749496429288
 30
0.0
 11
30381.604341291932
 21
1573.749496429288
 31
0.0
  0
LINE
  5
4B03
  8
YODOROGO
 10
30433.604341291921
 20
1601.749496429285
 30
0.0
 11
30433.604341291921
 21
1573.749496429288
 31
0.0
  0
LINE
  5
4B04
  8
YODOROGO
 10
30381.604341291932
 20
1601.749496429285
 30
0.0
 11
30433.604341291921
 21
1601.749496429285
 31
0.0
  0
LINE
  5
4B05
  8
YODOROGO
 10
30381.604341291932
 20
1573.749496429288
 30
0.0
 11
30381.604341291932
 21
1601.749496429285
 31
0.0
  0
LINE
  5
4B06
  8
YODOROGO
 10
30429.604341291921
 20
1577.7494964292871
 30
0.0
 11
30385.604341291921
 21
1577.7494964292871
 31
0.0
  0
LINE
  5
4B07
  8
YODOROGO
 10
30429.604341291921
 20
1597.749496429288
 30
0.0
 11
30429.604341291921
 21
1577.7494964292871
 31
0.0
  0
LINE
  5
4B08
  8
YODOROGO
 10
30385.604341291921
 20
1597.749496429288
 30
0.0
 11
30429.604341291921
 21
1597.749496429288
 31
0.0
  0
LINE
  5
4B09
  8
YODOROGO
 10
30385.604341291921
 20
1577.7494964292871
 30
0.0
 11
30385.604341291921
 21
1597.749496429288
 31
0.0
  0
LINE
  5
4B0A
  8
YODOROGO
 10
30425.604341291921
 20
1581.749496429286
 30
0.0
 11
30389.604341291921
 21
1581.749496429286
 31
0.0
  0
LINE
  5
4B0B
  8
YODOROGO
 10
30425.604341291921
 20
1593.749496429288
 30
0.0
 11
30425.604341291921
 21
1581.749496429286
 31
0.0
  0
LINE
  5
4B0C
  8
YODOROGO
 10
30389.604341291921
 20
1593.749496429288
 30
0.0
 11
30425.604341291921
 21
1593.749496429288
 31
0.0
  0
LINE
  5
4B0D
  8
YODOROGO
 10
30389.604341291921
 20
1581.749496429286
 30
0.0
 11
30389.604341291921
 21
1593.749496429288
 31
0.0
  0
LINE
  5
4B0E
  8
YODOROGO
 10
30421.604341291932
 20
1585.7494964292871
 30
0.0
 11
30393.604341291921
 21
1585.7494964292871
 31
0.0
  0
LINE
  5
4B0F
  8
YODOROGO
 10
30421.604341291932
 20
1589.749496429288
 30
0.0
 11
30421.604341291932
 21
1585.7494964292871
 31
0.0
  0
LINE
  5
4B10
  8
YODOROGO
 10
30393.604341291921
 20
1589.749496429288
 30
0.0
 11
30421.604341291932
 21
1589.749496429288
 31
0.0
  0
LINE
  5
4B11
  8
YODOROGO
 10
30393.604341291921
 20
1585.7494964292871
 30
0.0
 11
30393.604341291921
 21
1589.749496429288
 31
0.0
  0
LINE
  5
4B12
  8
YODOROGO
 10
30465.604341291921
 20
1627.749496429288
 30
0.0
 11
30381.604341291932
 21
1627.749496429288
 31
0.0
  0
LINE
  5
4B13
  8
YODOROGO
 10
30465.604341291921
 20
1547.749496429288
 30
0.0
 11
30465.604341291921
 21
1627.749496429288
 31
0.0
  0
LINE
  5
4B14
  8
YODOROGO
 10
30381.604341291932
 20
1547.749496429288
 30
0.0
 11
30465.604341291921
 21
1547.749496429288
 31
0.0
  0
LINE
  5
4B15
  8
YODOROGO
 10
30381.604341291932
 20
1427.749496429288
 30
0.0
 11
30381.604341291932
 21
1547.749496429288
 31
0.0
  0
LINE
  5
4B16
  8
YODOROGO
 10
30537.604341291921
 20
1427.749496429288
 30
0.0
 11
30381.604341291932
 21
1427.749496429288
 31
0.0
  0
LINE
  5
4B17
  8
YODOROGO
 10
30569.604341291921
 20
1571.749496429285
 30
0.0
 11
30569.604341291921
 21
1599.7494964292871
 31
0.0
  0
ARC
  5
4B18
  8
YODOROGO
 10
30545.604341291921
 20
1571.749496429291
 30
0.0
 40
24.000000000003752
 50
270.0
 51
359.99999999998772
  0
LINE
  5
4B19
  8
YODOROGO
 10
30529.604341291939
 20
1547.749496429288
 30
0.0
 11
30545.604341291921
 21
1547.749496429288
 31
0.0
  0
LINE
  5
4B1A
  8
YODOROGO
 10
30529.604341291939
 20
1627.749496429288
 30
0.0
 11
30529.604341291939
 21
1547.749496429288
 31
0.0
  0
LINE
  5
4B1B
  8
YODOROGO
 10
30899.604341291932
 20
1547.749496429288
 30
0.0
 11
30925.604341291921
 21
1547.749496429288
 31
0.0
  0
LINE
  5
4B1C
  8
YODOROGO
 10
30933.604341291921
 20
1427.749496429288
 30
0.0
 11
30899.604341291932
 21
1427.749496429288
 31
0.0
  0
LINE
  5
4B1D
  8
YODOROGO
 10
30763.604341291921
 20
1563.7494964292871
 30
0.0
 11
30791.604341291921
 21
1563.7494964292871
 31
0.0
  0
LINE
  5
4B1E
  8
YODOROGO
 10
30899.604341291932
 20
1491.749496429288
 30
0.0
 11
30723.604341291921
 21
1491.749496429288
 31
0.0
  0
LINE
  5
4B1F
  8
YODOROGO
 10
30831.604341291921
 20
1563.7494964292871
 30
0.0
 11
30859.604341291932
 21
1563.7494964292871
 31
0.0
  0
LINE
  5
4B20
  8
YODOROGO
 10
30899.604341291932
 20
1427.749496429288
 30
0.0
 11
30899.604341291932
 21
1547.749496429288
 31
0.0
  0
LINE
  5
4B21
  8
YODOROGO
 10
30697.604341291932
 20
1427.749496429288
 30
0.0
 11
30645.604341291921
 21
1427.749496429288
 31
0.0
  0
LINE
  5
4B22
  8
YODOROGO
 10
30617.604341291921
 20
1599.7494964292871
 30
0.0
 11
30617.604341291921
 21
1507.749496429288
 31
0.0
  0
ARC
  5
4B23
  8
YODOROGO
 10
30933.604341291921
 20
1467.749496429288
 30
0.0
 40
40.0
 50
270.0
 51
0.0
  0
LINE
  5
4B24
  8
YODOROGO
 10
31093.604341291921
 20
1523.7494964292871
 30
0.0
 11
31093.604341291921
 21
1427.749496429288
 31
0.0
  0
ARC
  5
4B25
  8
YODOROGO
 10
31039.721395566768
 20
1637.5313901097329
 30
0.0
 40
125.8955565916754
 50
295.34052442160112
 51
359.18902303418679
  0
LINE
  5
4B26
  8
YODOROGO
 10
30617.604341291921
 20
1859.749496429288
 30
0.0
 11
30497.604341291921
 21
1939.749496429288
 31
0.0
  0
LINE
  5
4B27
  8
YODOROGO
 10
30497.604341291921
 20
2027.749496429288
 30
0.0
 11
30617.604341291921
 21
1947.749496429288
 31
0.0
  0
LINE
  5
4B28
  8
YODOROGO
 10
30529.604341291939
 20
1679.749496429288
 30
0.0
 11
30617.604341291921
 21
1679.749496429288
 31
0.0
  0
LINE
  5
4B29
  8
YODOROGO
 10
30617.604341291921
 20
1735.7494964292871
 30
0.0
 11
30529.604341291939
 21
1735.7494964292871
 31
0.0
  0
LINE
  5
4B2A
  8
YODOROGO
 10
30381.604341291932
 20
1795.7494964292871
 30
0.0
 11
30617.604341291921
 21
1795.7494964292871
 31
0.0
  0
LINE
  5
4B2B
  8
YODOROGO
 10
30081.604341291921
 20
2027.749496429288
 30
0.0
 11
30021.604341291921
 21
2027.749496429288
 31
0.0
  0
LINE
  5
4B2C
  8
YODOROGO
 10
30081.604341291921
 20
1827.7494964292871
 30
0.0
 11
30081.604341291921
 21
2027.749496429288
 31
0.0
  0
LINE
  5
4B2D
  8
YODOROGO
 10
30021.604341291921
 20
1827.7494964292871
 30
0.0
 11
30081.604341291921
 21
1827.7494964292871
 31
0.0
  0
LINE
  5
4B2E
  8
YODOROGO
 10
30021.604341291921
 20
2027.749496429288
 30
0.0
 11
30021.604341291921
 21
1827.7494964292871
 31
0.0
  0
LINE
  5
4B2F
  8
YODOROGO
 10
30161.604341291921
 20
2027.749496429288
 30
0.0
 11
30217.604341291921
 21
2027.749496429288
 31
0.0
  0
LINE
  5
4B30
  8
YODOROGO
 10
30161.604341291921
 20
1811.749496429288
 30
0.0
 11
30161.604341291921
 21
2027.749496429288
 31
0.0
  0
ARC
  5
4B31
  8
YODOROGO
 10
30121.604341291921
 20
1811.749496429288
 30
0.0
 40
40.0
 50
270.0
 51
0.0
  0
LINE
  5
4B32
  8
YODOROGO
 10
30021.604341291921
 20
1771.7494964292871
 30
0.0
 11
30121.604341291921
 21
1771.7494964292871
 31
0.0
  0
LINE
  5
4B33
  8
YODOROGO
 10
30021.604341291921
 20
1707.749496429288
 30
0.0
 11
30021.604341291921
 21
1771.7494964292871
 31
0.0
  0
LINE
  5
4B34
  8
YODOROGO
 10
30137.604341291921
 20
1707.749496429288
 30
0.0
 11
30021.604341291921
 21
1707.749496429288
 31
0.0
  0
ARC
  5
4B35
  8
YODOROGO
 10
30137.604341291921
 20
1787.7494964292871
 30
0.0
 40
80.0
 50
270.0
 51
0.0
  0
LINE
  5
4B36
  8
YODOROGO
 10
30217.604341291921
 20
2027.749496429288
 30
0.0
 11
30217.604341291921
 21
1787.7494964292871
 31
0.0
  0
LINE
  5
4B37
  8
YODOROGO
 10
29977.604341291921
 20
1947.749496429288
 30
0.0
 11
29977.604341291921
 21
1995.7494964292871
 31
0.0
1001
AUTOCAD_POSTSCRIPT_FIGURE
1002
{
1000
PSFILL
1000
Grayscale
1000
Grayscale
1070
    25
1002
}
  0
LINE
  5
4B38
  8
YODOROGO
 10
29977.604341291921
 20
1859.749496429288
 30
0.0
 11
29977.604341291921
 21
1907.7494964292871
 31
0.0
1001
AUTOCAD_POSTSCRIPT_FIGURE
1002
{
1000
PSFILL
1000
Grayscale
1000
Grayscale
1070
    25
1002
}
  0
LINE
  5
4B39
  8
YODOROGO
 10
29977.604341291921
 20
1707.749496429288
 30
0.0
 11
29977.604341291921
 21
1819.7494964292871
 31
0.0
1001
AUTOCAD_POSTSCRIPT_FIGURE
1002
{
1000
PSFILL
1000
Grayscale
1000
Grayscale
1070
    25
1002
}
  0
LINE
  5
4B3A
  8
YODOROGO
 10
30381.604341291932
 20
1907.7494964292871
 30
0.0
 11
30497.604341291921
 21
2027.749496429288
 31
0.0
  0
LINE
  5
4B3B
  8
YODOROGO
 10
30381.604341291932
 20
1819.7494964292871
 30
0.0
 11
30381.604341291932
 21
1907.7494964292871
 31
0.0
  0
LINE
  5
4B3C
  8
YODOROGO
 10
30497.604341291921
 20
1939.749496429288
 30
0.0
 11
30381.604341291932
 21
1819.7494964292871
 31
0.0
  0
LINE
  5
4B3D
  8
YODOROGO
 10
30465.604341291921
 20
1679.749496429288
 30
0.0
 11
30465.604341291921
 21
1735.7494964292871
 31
0.0
  0
LINE
  5
4B3E
  8
YODOROGO
 10
30381.604341291932
 20
1679.749496429288
 30
0.0
 11
30465.604341291921
 21
1679.749496429288
 31
0.0
  0
LINE
  5
4B3F
  8
YODOROGO
 10
30529.604341291939
 20
1735.7494964292871
 30
0.0
 11
30529.604341291939
 21
1679.749496429288
 31
0.0
  0
LINE
  5
4B40
  8
YODOROGO
 10
30381.604341291932
 20
1735.7494964292871
 30
0.0
 11
30381.604341291932
 21
1795.7494964292871
 31
0.0
  0
LINE
  5
4B41
  8
YODOROGO
 10
30465.604341291921
 20
1735.7494964292871
 30
0.0
 11
30381.604341291932
 21
1735.7494964292871
 31
0.0
  0
LINE
  5
4B42
  8
YODOROGO
 10
30645.604341291921
 20
2027.749496429288
 30
0.0
 11
30973.604341291921
 21
2027.749496429288
 31
0.0
  0
LINE
  5
4B43
  8
YODOROGO
 10
30925.604341291921
 20
1963.749496429286
 30
0.0
 11
30697.604341291932
 21
1963.749496429286
 31
0.0
  0
LINE
  5
4B44
  8
YODOROGO
 10
30873.604341291921
 20
1819.7494964292871
 30
0.0
 11
30899.604341291932
 21
1819.7494964292871
 31
0.0
  0
LINE
  5
4B45
  8
YODOROGO
 10
30899.604341291932
 20
1939.749496429288
 30
0.0
 11
30873.604341291921
 21
1819.7494964292871
 31
0.0
  0
LINE
  5
4B46
  8
YODOROGO
 10
30851.604341291939
 20
1939.749496429288
 30
0.0
 11
30899.604341291932
 21
1939.749496429288
 31
0.0
  0
LINE
  5
4B47
  8
YODOROGO
 10
30825.604341291921
 20
1819.7494964292871
 30
0.0
 11
30851.604341291939
 21
1939.749496429288
 31
0.0
  0
LINE
  5
4B48
  8
YODOROGO
 10
30797.604341291921
 20
1819.7494964292871
 30
0.0
 11
30825.604341291921
 21
1819.7494964292871
 31
0.0
  0
LINE
  5
4B49
  8
YODOROGO
 10
30771.604341291939
 20
1939.749496429288
 30
0.0
 11
30797.604341291921
 21
1819.7494964292871
 31
0.0
  0
LINE
  5
4B4A
  8
YODOROGO
 10
30723.604341291921
 20
1939.749496429288
 30
0.0
 11
30771.604341291939
 21
1939.749496429288
 31
0.0
  0
LINE
  5
4B4B
  8
YODOROGO
 10
30749.604341291921
 20
1819.7494964292871
 30
0.0
 11
30723.604341291921
 21
1939.749496429288
 31
0.0
  0
LINE
  5
4B4C
  8
YODOROGO
 10
30723.604341291921
 20
1819.7494964292871
 30
0.0
 11
30749.604341291921
 21
1819.7494964292871
 31
0.0
  0
LINE
  5
4B4D
  8
YODOROGO
 10
30723.604341291921
 20
1755.7494964292871
 30
0.0
 11
30723.604341291921
 21
1819.7494964292871
 31
0.0
  0
LINE
  5
4B4E
  8
YODOROGO
 10
30899.604341291932
 20
1755.7494964292871
 30
0.0
 11
30723.604341291921
 21
1755.7494964292871
 31
0.0
  0
LINE
  5
4B4F
  8
YODOROGO
 10
30899.604341291932
 20
1819.7494964292871
 30
0.0
 11
30899.604341291932
 21
1755.7494964292871
 31
0.0
  0
LINE
  5
4B50
  8
YODOROGO
 10
30617.604341291921
 20
1947.749496429288
 30
0.0
 11
30617.604341291921
 21
1859.749496429288
 31
0.0
  0
LINE
  5
4B51
  8
YODOROGO
 10
30791.604341291921
 20
1755.7494964292871
 30
0.0
 11
30831.604341291921
 21
1755.7494964292871
 31
0.0
  0
LINE
  5
4B52
  8
YODOROGO
 10
30723.604341291921
 20
1691.749496429288
 30
0.0
 11
30763.604341291921
 21
1691.749496429288
 31
0.0
  0
LINE
  5
4B53
  8
YODOROGO
 10
30859.604341291932
 20
1691.749496429288
 30
0.0
 11
30899.604341291932
 21
1691.749496429288
 31
0.0
  0
LINE
  5
4B54
  8
YODOROGO
 10
30617.604341291921
 20
1795.7494964292871
 30
0.0
 11
30617.604341291921
 21
1735.7494964292871
 31
0.0
  0
LINE
  5
4B55
  8
YODOROGO
 10
31165.604341291921
 20
2027.749496429288
 30
0.0
 11
31165.604341291921
 21
1963.749496429286
 31
0.0
  0
LINE
  5
4B56
  8
YODOROGO
 10
31533.604341291921
 20
1595.7494964292871
 30
0.0
 11
31533.60434129191
 21
1811.749496429288
 31
0.0
  0
LINE
  5
4B57
  8
YODOROGO
 10
31461.60434129191
 20
1987.7494964292871
 30
0.0
 11
31461.60434129191
 21
1635.7494964292871
 31
0.0
  0
LINE
  5
4B58
  8
YODOROGO
 10
31653.604341291921
 20
1427.749496429288
 30
0.0
 11
31653.60434129191
 21
1811.749496429288
 31
0.0
  0
LINE
  5
4B59
  8
YODOROGO
 10
31589.604341291921
 20
1811.749496429288
 30
0.0
 11
31589.604341291921
 21
1427.749496429288
 31
0.0
  0
LINE
  5
4B5A
  8
YODOROGO
 10
31237.604341291921
 20
1595.7494964292871
 30
0.0
 11
31237.604341291921
 21
1707.749496429288
 31
0.0
  0
ARC
  5
4B5B
  8
YODOROGO
 10
31353.914865116069
 20
1607.790351288558
 30
0.0
 40
180.0924485759885
 50
268.62849102169793
 51
356.16638457330322
  0
LINE
  5
4B5C
  8
YODOROGO
 10
31349.604341291939
 20
1527.749496429288
 30
0.0
 11
31349.604341291939
 21
1427.749496429288
 31
0.0
  0
ARC
  5
4B5D
  8
YODOROGO
 10
31351.518075724562
 20
1637.838957017655
 30
0.0
 40
110.1060929836122
 50
269.00410209305932
 51
358.91264455492478
  0
LINE
  5
4B5E
  8
YODOROGO
 10
31589.604341291921
 20
1427.749496429288
 30
0.0
 11
31653.604341291921
 21
1427.749496429288
 31
0.0
  0
LINE
  5
4B5F
  8
YODOROGO
 10
31533.60434129191
 20
1811.749496429288
 30
0.0
 11
31589.604341291921
 21
1811.749496429288
 31
0.0
  0
LINE
  5
4B60
  8
YODOROGO
 10
31621.604341291939
 20
1987.7494964292871
 30
0.0
 11
31461.60434129191
 21
1987.7494964292871
 31
0.0
  0
LINE
  5
4B61
  8
YODOROGO
 10
31533.60434129191
 20
1915.7494964292871
 30
0.0
 11
31661.604341291939
 21
1915.7494964292871
 31
0.0
  0
LINE
  5
4B62
  8
YODOROGO
 10
31701.604341291939
 20
1875.7494964292871
 30
0.0
 11
31533.60434129191
 21
1875.7494964292871
 31
0.0
  0
LINE
  5
4B63
  8
YODOROGO
 10
31237.604341291921
 20
1779.749496429288
 30
0.0
 11
31349.604341291939
 21
1779.749496429288
 31
0.0
  0
LINE
  5
4B64
  8
YODOROGO
 10
31237.604341291921
 20
1835.7494964292871
 30
0.0
 11
31237.604341291921
 21
1779.749496429288
 31
0.0
  0
LINE
  5
4B65
  8
YODOROGO
 10
31349.604341291939
 20
1835.7494964292871
 30
0.0
 11
31237.604341291921
 21
1835.7494964292871
 31
0.0
  0
LINE
  5
4B66
  8
YODOROGO
 10
31349.604341291939
 20
1779.749496429288
 30
0.0
 11
31349.604341291939
 21
1835.7494964292871
 31
0.0
  0
LINE
  5
4B67
  8
YODOROGO
 10
31533.60434129191
 20
1875.7494964292871
 30
0.0
 11
31533.60434129191
 21
1915.7494964292871
 31
0.0
  0
LINE
  5
4B68
  8
YODOROGO
 10
31413.604341291921
 20
1707.749496429288
 30
0.0
 11
31413.604341291921
 21
1907.7494964292871
 31
0.0
  0
LINE
  5
4B69
  8
YODOROGO
 10
31237.604341291921
 20
1707.749496429288
 30
0.0
 11
31413.604341291921
 21
1707.749496429288
 31
0.0
  0
LINE
  5
4B6A
  8
YODOROGO
 10
31413.604341291921
 20
1963.749496429286
 30
0.0
 11
31413.604341291921
 21
2027.749496429288
 31
0.0
  0
ARC
  5
4B6B
  8
YODOROGO
 10
31621.604341291939
 20
2003.749496429285
 30
0.0
 40
15.999999999994539
 50
270.0
 51
0.0000000000081422
  0
LINE
  5
4B6C
  8
YODOROGO
 10
31637.604341291921
 20
2027.749496429288
 30
0.0
 11
31637.604341291921
 21
2003.7494964292871
 31
0.0
  0
LINE
  5
4B6D
  8
YODOROGO
 10
31701.604341291939
 20
2027.749496429288
 30
0.0
 11
31637.604341291921
 21
2027.749496429288
 31
0.0
  0
LINE
  5
4B6E
  8
YODOROGO
 10
31701.604341291939
 20
1955.7494964292871
 30
0.0
 11
31701.604341291939
 21
2027.749496429288
 31
0.0
  0
ARC
  5
4B6F
  8
YODOROGO
 10
31661.604341291939
 20
1955.7494964292871
 30
0.0
 40
40.0
 50
270.0
 51
0.0
  0
LINE
  5
4B70
  8
YODOROGO
 10
31701.604341291939
 20
1811.749496429288
 30
0.0
 11
31701.604341291939
 21
1875.7494964292871
 31
0.0
  0
LINE
  5
4B71
  8
YODOROGO
 10
31653.60434129191
 20
1811.749496429288
 30
0.0
 11
31701.604341291939
 21
1811.749496429288
 31
0.0
  0
LINE
  5
4B72
  8
SUNPOU
  6
CONTINUOUS
 62
     4
 10
13853.007811999991
 20
20282.812354000002
 30
0.0
 11
13853.007811999991
 21
20832.817632999999
 31
0.0
  0
LINE
  5
4B73
  8
SUNPOU
  6
CONTINUOUS
 62
     4
 10
13767.507811999991
 20
20752.817632999999
 30
0.0
 11
13527.507811999991
 21
20752.817632999999
 31
0.0
  0
LINE
  5
4B74
  8
SUNPOU
  6
CONTINUOUS
 62
     4
 10
13850.007811999991
 20
20752.817632999999
 30
0.0
 11
14090.007811999991
 21
20752.817632999999
 31
0.0
  0
LINE
  5
4B75
  8
SUNPOU
  6
CONTINUOUS
 62
     4
 10
13767.507811999991
 20
20752.817632999999
 30
0.0
 11
13850.007811999991
 21
20752.817632999999
 31
0.0
  0
LINE
  5
4B76
  8
SUNPOU
  6
CONTINUOUS
 62
     4
 10
4237.0079180000012
 20
20282.812354000002
 30
0.0
 11
4237.0079180000012
 21
20832.817632999999
 31
0.0
  0
LINE
  5
4B77
  8
SUNPOU
  6
CONTINUOUS
 62
     4
 10
4322.507918000003
 20
20752.817632999999
 30
0.0
 11
4562.507918000003
 21
20752.817632999999
 31
0.0
  0
LINE
  5
4B78
  8
SUNPOU
  6
CONTINUOUS
 62
     4
 10
4240.0079180000012
 20
20752.817632999999
 30
0.0
 11
4000.007918000003
 21
20752.817632999999
 31
0.0
  0
LINE
  5
4B79
  8
SUNPOU
  6
CONTINUOUS
 62
     4
 10
4322.507918000003
 20
20752.817632999999
 30
0.0
 11
4240.0079180000012
 21
20752.817632999999
 31
0.0
  0
LINE
  5
4B7A
  8
SUNPOU
  6
CONTINUOUS
 62
     4
 10
4322.507918000003
 20
13521.31914999997
 30
0.0
 11
4322.507918000003
 21
12342.368360999981
 31
0.0
  0
LINE
  5
4B7B
  8
SUNPOU
  6
CONTINUOUS
 62
     4
 10
13767.507811999991
 20
13521.31914999997
 30
0.0
 11
13767.507811999991
 21
12342.368360999981
 31
0.0
  0
LINE
  5
4B7C
  8
SUNPOU
  6
CONTINUOUS
 62
     4
 10
4322.507918000003
 20
12422.368360999981
 30
0.0
 11
13767.507811999991
 21
12422.368360999981
 31
0.0
  0
LINE
  5
4B7D
  8
SUNPOU
  6
CONTINUOUS
 62
     4
 10
4160.003563000002
 20
13601.32112999998
 30
0.0
 11
3313.0081420000029
 21
13601.32112999998
 31
0.0
  0
LINE
  5
4B7E
  8
SUNPOU
  6
CONTINUOUS
 62
     4
 10
3393.008142000002
 20
13793.81644499998
 30
0.0
 11
3393.008142000002
 21
13601.32112999998
 31
0.0
  0
LINE
  5
4B7F
  8
SUNPOU
  6
CONTINUOUS
 62
     4
 10
3393.0081420000051
 20
17062.316444999979
 30
0.0
 11
3393.0081420000051
 21
13793.81644499998
 31
0.0
  0
LINE
  5
4B80
  8
SUNPOU
  6
CONTINUOUS
 62
     4
 10
4160.003563000002
 20
20192.812354000002
 30
0.0
 11
3713.008142000002
 21
20192.812354000002
 31
0.0
  0
LINE
  5
4B81
  8
SUNPOU
  6
CONTINUOUS
 62
     4
 10
4160.007918000003
 20
20202.812354000002
 30
0.0
 11
3713.008142000002
 21
20202.812354000002
 31
0.0
  0
LINE
  5
4B82
  8
SUNPOU
  6
CONTINUOUS
 62
     4
 10
3793.008142000002
 20
20192.812354000002
 30
0.0
 11
3793.008142000002
 21
19952.812354000002
 31
0.0
  0
LINE
  5
4B83
  8
SUNPOU
  6
CONTINUOUS
 62
     4
 10
3793.008142000002
 20
20202.812354000002
 30
0.0
 11
3793.008142000002
 21
20442.812354000002
 31
0.0
  0
LINE
  5
4B84
  8
SUNPOU
  6
CONTINUOUS
 62
     4
 10
3793.008142000002
 20
20192.812354000002
 30
0.0
 11
3793.008142000002
 21
20202.812354000002
 31
0.0
  0
LINE
  5
4B85
  8
SUNPOU
  6
CONTINUOUS
 62
     4
 10
4160.007918000003
 20
20202.812354000002
 30
0.0
 11
3313.0081420000051
 21
20202.812354000002
 31
0.0
  0
LINE
  5
4B86
  8
SUNPOU
  6
CONTINUOUS
 62
     4
 10
3393.0081420000051
 20
19980.316444999949
 30
0.0
 11
3393.0081420000051
 21
20202.812354000002
 31
0.0
  0
LINE
  5
4B87
  8
SUNPOU
  6
CONTINUOUS
 62
     4
 10
3393.0081420000051
 20
17062.316444999979
 30
0.0
 11
3393.0081420000051
 21
19980.316444999949
 31
0.0
  0
LINE
  5
4B88
  8
SUNPOU
  6
CONTINUOUS
 62
     4
 10
10499.007811999991
 20
20752.817632999999
 30
0.0
 11
13767.507811999991
 21
20752.817632999999
 31
0.0
  0
LINE
  5
4B89
  8
SUNPOU
  6
CONTINUOUS
 62
     4
 10
7591.0079180000021
 20
20752.817632999999
 30
0.0
 11
10499.007811999991
 21
20752.817632999999
 31
0.0
  0
LINE
  5
4B8A
  8
SUNPOU
  6
CONTINUOUS
 62
     4
 10
4322.507918000003
 20
20752.817632999999
 30
0.0
 11
7591.0079180000021
 21
20752.817632999999
 31
0.0
  0
LINE
  5
4B8B
  8
SUNPOU
  6
CONTINUOUS
 62
     4
 10
6615.383511
 20
8449.7285880000018
 30
0.0
 11
6615.383511
 21
9840.7286139999997
 31
0.0
  0
LINE
  5
4B8C
  8
SUNPOU
  6
CONTINUOUS
 62
     4
 10
13216.883511
 20
8581.6184114124335
 30
0.0
 11
13216.883511
 21
9840.7286139999997
 31
0.0
  0
LINE
  5
4B8D
  8
SUNPOU
  6
CONTINUOUS
 62
     4
 10
6615.383511
 20
9760.7286140000015
 30
0.0
 11
13216.883511
 21
9760.7286140000015
 31
0.0
  0
LINE
  5
4B8E
  8
SUNPOU
  6
CONTINUOUS
 62
     4
 10
13066.883511
 20
8507.6386520000069
 30
0.0
 11
13066.883511
 21
9440.7302639999998
 31
0.0
  0
LINE
  5
4B8F
  8
SUNPOU
  6
CONTINUOUS
 62
     4
 10
13216.883511
 20
8581.6184114124335
 30
0.0
 11
13216.883511
 21
9440.7302639999998
 31
0.0
  0
LINE
  5
4B90
  8
SUNPOU
  6
CONTINUOUS
 62
     4
 10
13066.883511
 20
9360.7302639999998
 30
0.0
 11
12826.883511
 21
9360.7302639999998
 31
0.0
  0
LINE
  5
4B91
  8
SUNPOU
  6
CONTINUOUS
 62
     4
 10
13216.883511
 20
9360.7302639999998
 30
0.0
 11
13456.883511
 21
9360.7302639999998
 31
0.0
  0
LINE
  5
4B92
  8
SUNPOU
  6
CONTINUOUS
 62
     4
 10
13066.883511
 20
9360.7302639999998
 30
0.0
 11
13216.883511
 21
9360.7302639999998
 31
0.0
  0
LINE
  5
4B93
  8
SUNPOU
  6
CONTINUOUS
 62
     4
 10
6795.383511
 20
8319.9143636838089
 30
0.0
 11
6795.383511
 21
9440.7302639999998
 31
0.0
  0
LINE
  5
4B94
  8
SUNPOU
  6
CONTINUOUS
 62
     4
 10
13066.883511
 20
8507.6386520000069
 30
0.0
 11
13066.883511
 21
9440.7302639999998
 31
0.0
  0
LINE
  5
4B95
  8
SUNPOU
  6
CONTINUOUS
 62
     4
 10
6795.383511
 20
9360.7302639999998
 30
0.0
 11
13066.883511
 21
9360.7302639999998
 31
0.0
  0
LINE
  5
4B96
  8
SUNPOU
  6
CONTINUOUS
 62
     4
 10
6615.383511
 20
8449.7285880000018
 30
0.0
 11
6615.383511
 21
9440.7302639999998
 31
0.0
  0
LINE
  5
4B97
  8
SUNPOU
  6
CONTINUOUS
 62
     4
 10
6795.383511
 20
8319.9143636838089
 30
0.0
 11
6795.383511
 21
9440.7302639999998
 31
0.0
  0
LINE
  5
4B98
  8
SUNPOU
  6
CONTINUOUS
 62
     4
 10
6615.383511
 20
9360.7302639999998
 30
0.0
 11
6795.383511
 21
9360.7302639999998
 31
0.0
  0
LINE
  5
4B99
  8
SUNPOU
  6
CONTINUOUS
 62
     4
 10
13159.383511
 20
6212.7285879999999
 30
0.0
 11
14236.88390699999
 21
6212.7285879999999
 31
0.0
  0
LINE
  5
4B9A
  8
SUNPOU
  6
CONTINUOUS
 62
     4
 10
13251.69077059938
 20
8560.7285880000018
 30
0.0
 11
14236.88390699999
 21
8560.7285880000018
 31
0.0
  0
LINE
  5
4B9B
  8
SUNPOU
  6
CONTINUOUS
 62
     4
 10
14156.88390699999
 20
6212.7285879999999
 30
0.0
 11
14156.88390699999
 21
8560.7285880000018
 31
0.0
  0
LINE
  5
4B9C
  8
SUNPOU
  6
CONTINUOUS
 62
     4
 10
6707.883511
 20
6212.7285879999999
 30
0.0
 11
5625.3831150000051
 21
6212.7285880000027
 31
0.0
  0
LINE
  5
4B9D
  8
SUNPOU
  6
CONTINUOUS
 62
     4
 10
6535.383511
 20
8369.7285880000054
 30
0.0
 11
5625.3831150000051
 21
8369.7285880000054
 31
0.0
  0
LINE
  5
4B9E
  8
SUNPOU
  6
CONTINUOUS
 62
     4
 10
5705.3831150000024
 20
6212.7285880000027
 30
0.0
 11
5705.3831150000024
 21
8369.7285880000054
 31
0.0
  0
LINE
  5
4B9F
  8
SUNPOU
  6
CONTINUOUS
 62
     4
 10
6795.383511
 20
6132.7285880000018
 30
0.0
 11
6795.383511
 21
4432.7289180000007
 31
0.0
  0
LINE
  5
4BA0
  8
SUNPOU
  6
CONTINUOUS
 62
     4
 10
13066.883511
 20
6132.7285880000018
 30
0.0
 11
13066.883511
 21
4432.7289180000007
 31
0.0
  0
LINE
  5
4BA1
  8
SUNPOU
  6
CONTINUOUS
 62
     4
 10
6795.383511
 20
4512.7289179999989
 30
0.0
 11
13066.883511
 21
4512.7289179999989
 31
0.0
  0
LINE
  5
4BA2
  8
SUNPOU
  6
CONTINUOUS
 62
     4
 10
13024.383511
 20
5770.0763300000017
 30
0.0
 11
13024.383511
 21
4832.728753000004
 31
0.0
  0
LINE
  5
4BA3
  8
SUNPOU
  6
CONTINUOUS
 62
     4
 10
13066.883511
 20
6132.7285880000018
 30
0.0
 11
13066.883511
 21
4832.728753000004
 31
0.0
  0
LINE
  5
4BA4
  8
SUNPOU
  6
CONTINUOUS
 62
     4
 10
13024.383511
 20
4912.7287530000031
 30
0.0
 11
12784.383511
 21
4912.7287530000031
 31
0.0
  0
LINE
  5
4BA5
  8
SUNPOU
  6
CONTINUOUS
 62
     4
 10
13066.883511
 20
4912.7287530000031
 30
0.0
 11
13306.883511
 21
4912.7287530000031
 31
0.0
  0
LINE
  5
4BA6
  8
SUNPOU
  6
CONTINUOUS
 62
     4
 10
13024.383511
 20
4912.7287530000031
 30
0.0
 11
13066.883511
 21
4912.7287530000031
 31
0.0
  0
LINE
  5
4BA7
  8
SUNPOU
  6
CONTINUOUS
 62
     4
 10
6837.883511
 20
5770.0763300000017
 30
0.0
 11
6837.883511
 21
4832.728753000004
 31
0.0
  0
LINE
  5
4BA8
  8
SUNPOU
  6
CONTINUOUS
 62
     4
 10
6795.383511
 20
6132.7285880000018
 30
0.0
 11
6795.383511
 21
4832.728753000004
 31
0.0
  0
LINE
  5
4BA9
  8
SUNPOU
  6
CONTINUOUS
 62
     4
 10
6837.883511
 20
4912.7287530000031
 30
0.0
 11
7077.883511
 21
4912.7287530000031
 31
0.0
  0
LINE
  5
4BAA
  8
SUNPOU
  6
CONTINUOUS
 62
     4
 10
6795.383511
 20
4912.7287530000031
 30
0.0
 11
6555.3835109999991
 21
4912.7287530000031
 31
0.0
  0
LINE
  5
4BAB
  8
SUNPOU
  6
CONTINUOUS
 62
     4
 10
6837.883511
 20
4912.7287530000031
 30
0.0
 11
6795.383511
 21
4912.7287530000031
 31
0.0
  0
LINE
  5
4BAC
  8
SUNPOU
  6
CONTINUOUS
 62
     4
 10
9755.883511
 20
5770.0763300000017
 30
0.0
 11
9755.883511
 21
4832.728753000004
 31
0.0
  0
LINE
  5
4BAD
  8
SUNPOU
  6
CONTINUOUS
 62
     4
 10
6837.883511
 20
5770.0763300000017
 30
0.0
 11
6837.883511
 21
4832.728753000004
 31
0.0
  0
LINE
  5
4BAE
  8
SUNPOU
  6
CONTINUOUS
 62
     4
 10
9755.883511
 20
4912.7287530000031
 30
0.0
 11
6837.883511
 21
4912.7287530000031
 31
0.0
  0
LINE
  5
4BAF
  8
SUNPOU
  6
CONTINUOUS
 62
     4
 10
9755.883511
 20
5770.0763300000017
 30
0.0
 11
9755.883511
 21
4832.728753000004
 31
0.0
  0
LINE
  5
4BB0
  8
SUNPOU
  6
CONTINUOUS
 62
     4
 10
13024.383511
 20
5770.0763300000017
 30
0.0
 11
13024.383511
 21
4832.728753000004
 31
0.0
  0
LINE
  5
4BB1
  8
SUNPOU
  6
CONTINUOUS
 62
     4
 10
9755.883511
 20
4912.7287530000031
 30
0.0
 11
13024.383511
 21
4912.7287530000031
 31
0.0
  0
LINE
  5
4BB2
  8
2-0
  6
CONTINUOUS
 62
     3
 10
22952.676123999961
 20
13751.31644499998
 30
0.0
 11
23037.676123999961
 21
13751.31644499998
 31
0.0
  0
LINE
  5
4BB3
  8
2-0
  6
CONTINUOUS
 62
     3
 10
23037.676123999961
 20
13751.31644499998
 30
0.0
 11
23037.676123999961
 21
13836.31644499998
 31
0.0
  0
LINE
  5
4BB4
  8
2-0
  6
CONTINUOUS
 62
     3
 10
23037.676123999961
 20
13836.31644499998
 30
0.0
 11
22952.676123999961
 21
13836.31644499998
 31
0.0
  0
LINE
  5
4BB5
  8
2-0
  6
CONTINUOUS
 62
     3
 10
22952.676123999961
 20
13836.31644499998
 30
0.0
 11
22952.676123999961
 21
13751.31644499998
 31
0.0
  0
LINE
  5
4BB6
  8
2-0
  6
CONTINUOUS
 62
     3
 10
20452.670844999979
 20
13751.31644499998
 30
0.0
 11
20537.670845000001
 21
13751.31644499998
 31
0.0
  0
LINE
  5
4BB7
  8
2-0
  6
CONTINUOUS
 62
     3
 10
20537.670845000001
 20
13751.31644499998
 30
0.0
 11
20537.670845000001
 21
13836.31644499998
 31
0.0
  0
LINE
  5
4BB8
  8
2-0
  6
CONTINUOUS
 62
     3
 10
20537.670845000001
 20
13836.31644499998
 30
0.0
 11
20452.670844999979
 21
13836.31644499998
 31
0.0
  0
LINE
  5
4BB9
  8
2-0
  6
CONTINUOUS
 62
     3
 10
20452.670844999979
 20
13836.31644499998
 30
0.0
 11
20452.670844999979
 21
13751.31644499998
 31
0.0
  0
LINE
  5
4BBA
  8
SUNPOU
  6
CONTINUOUS
 62
     4
 10
26263.676123999961
 20
13088.05301099998
 30
0.0
 11
26263.676123999961
 21
12742.368360999981
 31
0.0
  0
LINE
  5
4BBB
  8
SUNPOU
  6
CONTINUOUS
 62
     4
 10
26221.17388099997
 20
13671.319149999979
 30
0.0
 11
26221.17388099997
 21
12742.368360999981
 31
0.0
  0
LINE
  5
4BBC
  8
SUNPOU
  6
CONTINUOUS
 62
     4
 10
26263.676123999961
 20
12822.368360999981
 30
0.0
 11
26503.676123999961
 21
12822.368360999981
 31
0.0
  0
LINE
  5
4BBD
  8
SUNPOU
  6
CONTINUOUS
 62
     4
 10
26221.17388099997
 20
12822.368360999981
 30
0.0
 11
25981.17388099997
 21
12822.368360999981
 31
0.0
  0
LINE
  5
4BBE
  8
SUNPOU
  6
CONTINUOUS
 62
     4
 10
26263.676123999961
 20
12822.368360999981
 30
0.0
 11
26221.17388099997
 21
12822.368360999981
 31
0.0
  0
LINE
  5
4BBF
  8
SUNPOU
  6
CONTINUOUS
 62
     4
 10
17226.670844999979
 20
13088.05301099998
 30
0.0
 11
17226.670844999979
 21
12742.368360999981
 31
0.0
  0
LINE
  5
4BC0
  8
SUNPOU
  6
CONTINUOUS
 62
     4
 10
17269.173087999981
 20
13671.319149999979
 30
0.0
 11
17269.173087999981
 21
12742.368360999981
 31
0.0
  0
LINE
  5
4BC1
  8
SUNPOU
  6
CONTINUOUS
 62
     4
 10
17226.670844999979
 20
12822.368360999981
 30
0.0
 11
16986.67084499999
 21
12822.368360999981
 31
0.0
  0
LINE
  5
4BC2
  8
SUNPOU
  6
CONTINUOUS
 62
     4
 10
17269.173087999981
 20
12822.368360999981
 30
0.0
 11
17509.173087999989
 21
12822.368360999981
 31
0.0
  0
LINE
  5
4BC3
  8
SUNPOU
  6
CONTINUOUS
 62
     4
 10
17226.670844999979
 20
12822.368360999981
 30
0.0
 11
17269.173087999981
 21
12822.368360999981
 31
0.0
  0
LINE
  5
4BC4
  8
SUNPOU
  6
CONTINUOUS
 62
     4
 10
17226.670844999979
 20
13088.05301099998
 30
0.0
 11
17226.670844999979
 21
12342.368360999981
 31
0.0
  0
LINE
  5
4BC5
  8
SUNPOU
  6
CONTINUOUS
 62
     4
 10
26263.676123999961
 20
13088.05301099998
 30
0.0
 11
26263.676123999961
 21
12342.368360999981
 31
0.0
  0
LINE
  5
4BC6
  8
SUNPOU
  6
CONTINUOUS
 62
     4
 10
17226.670844999979
 20
12422.368360999981
 30
0.0
 11
26263.676123999961
 21
12422.368360999981
 31
0.0
  0
LINE
  5
4BC7
  8
SUNPOU
  6
CONTINUOUS
 62
     4
 10
26386.174407999959
 20
14201.31644499998
 30
0.0
 11
27436.175727999958
 21
14201.31644499998
 31
0.0
  0
LINE
  5
4BC8
  8
SUNPOU
  6
CONTINUOUS
 62
     4
 10
27236.175727999958
 20
13793.81644499998
 30
0.0
 11
27436.175727999958
 21
13793.81644499998
 31
0.0
  0
LINE
  5
4BC9
  8
SUNPOU
  6
CONTINUOUS
 62
     4
 10
27356.175727999958
 20
14201.31644499998
 30
0.0
 11
27356.175727999958
 21
13793.81644499998
 31
0.0
  0
LINE
  5
4BCA
  8
SUNPOU
  6
CONTINUOUS
 62
     4
 10
26386.174407999959
 20
14902.31644499998
 30
0.0
 11
27436.175727999958
 21
14902.31644499998
 31
0.0
  0
LINE
  5
4BCB
  8
SUNPOU
  6
CONTINUOUS
 62
     4
 10
26386.174407999959
 20
14201.31644499998
 30
0.0
 11
27436.175727999958
 21
14201.31644499998
 31
0.0
  0
LINE
  5
4BCC
  8
SUNPOU
  6
CONTINUOUS
 62
     4
 10
27356.175727999958
 20
14902.31644499998
 30
0.0
 11
27356.175727999958
 21
14201.31644499998
 31
0.0
  0
LINE
  5
4BCD
  8
SUNPOU
  6
CONTINUOUS
 62
     4
 10
26386.174407999959
 20
15603.556956500001
 30
0.0
 11
27436.175727999958
 21
15603.556956500001
 31
0.0
  0
LINE
  5
4BCE
  8
SUNPOU
  6
CONTINUOUS
 62
     4
 10
26386.174407999959
 20
14902.31644499998
 30
0.0
 11
27436.175727999958
 21
14902.31644499998
 31
0.0
  0
LINE
  5
4BCF
  8
SUNPOU
  6
CONTINUOUS
 62
     4
 10
27356.175727999958
 20
15603.556956500001
 30
0.0
 11
27356.175727999958
 21
14902.31644499998
 31
0.0
  0
LINE
  5
4BD0
  8
SUNPOU
  6
CONTINUOUS
 62
     4
 10
26386.174407999959
 20
16304.31644499998
 30
0.0
 11
27436.175727999958
 21
16304.31644499998
 31
0.0
  0
LINE
  5
4BD1
  8
SUNPOU
  6
CONTINUOUS
 62
     4
 10
26386.174407999959
 20
15603.556956500001
 30
0.0
 11
27436.175727999958
 21
15603.556956500001
 31
0.0
  0
LINE
  5
4BD2
  8
SUNPOU
  6
CONTINUOUS
 62
     4
 10
27356.175727999958
 20
16304.31644499998
 30
0.0
 11
27356.175727999958
 21
15603.556956500001
 31
0.0
  0
LINE
  5
4BD3
  8
SUNPOU
  6
CONTINUOUS
 62
     4
 10
27236.175727999958
 20
17062.316444999979
 30
0.0
 11
27436.175727999958
 21
17062.316444999979
 31
0.0
  0
LINE
  5
4BD4
  8
SUNPOU
  6
CONTINUOUS
 62
     4
 10
26386.174407999959
 20
16304.31644499998
 30
0.0
 11
27436.175727999958
 21
16304.31644499998
 31
0.0
  0
LINE
  5
4BD5
  8
SUNPOU
  6
CONTINUOUS
 62
     4
 10
27356.175727999958
 20
17062.316444999979
 30
0.0
 11
27356.175727999958
 21
16304.31644499998
 31
0.0
  0
LINE
  5
4BD6
  8
SUNPOU
  6
CONTINUOUS
 62
     4
 10
26386.174407999959
 20
17820.316444999979
 30
0.0
 11
27436.175727999958
 21
17820.316444999979
 31
0.0
  0
LINE
  5
4BD7
  8
SUNPOU
  6
CONTINUOUS
 62
     4
 10
27236.175727999958
 20
17062.316444999979
 30
0.0
 11
27436.175727999958
 21
17062.316444999979
 31
0.0
  0
LINE
  5
4BD8
  8
SUNPOU
  6
CONTINUOUS
 62
     4
 10
27356.175727999958
 20
17820.316444999979
 30
0.0
 11
27356.175727999958
 21
17062.316444999979
 31
0.0
  0
LINE
  5
4BD9
  8
SUNPOU
  6
CONTINUOUS
 62
     4
 10
26386.174407999959
 20
18521.31644499996
 30
0.0
 11
27436.175727999958
 21
18521.31644499996
 31
0.0
  0
LINE
  5
4BDA
  8
SUNPOU
  6
CONTINUOUS
 62
     4
 10
26386.174407999959
 20
17820.316444999979
 30
0.0
 11
27436.175727999958
 21
17820.316444999979
 31
0.0
  0
LINE
  5
4BDB
  8
SUNPOU
  6
CONTINUOUS
 62
     4
 10
27356.175727999958
 20
18521.31644499996
 30
0.0
 11
27356.175727999958
 21
17820.316444999979
 31
0.0
  0
LINE
  5
4BDC
  8
SUNPOU
  6
CONTINUOUS
 62
     4
 10
26386.174407999959
 20
19222.31644499996
 30
0.0
 11
27436.175727999958
 21
19222.31644499996
 31
0.0
  0
LINE
  5
4BDD
  8
SUNPOU
  6
CONTINUOUS
 62
     4
 10
26386.174407999959
 20
18521.31644499996
 30
0.0
 11
27436.175727999958
 21
18521.31644499996
 31
0.0
  0
LINE
  5
4BDE
  8
SUNPOU
  6
CONTINUOUS
 62
     4
 10
27356.175727999958
 20
19222.31644499996
 30
0.0
 11
27356.175727999958
 21
18521.31644499996
 31
0.0
  0
LINE
  5
4BDF
  8
SUNPOU
  6
CONTINUOUS
 62
     4
 10
27236.175727999958
 20
19980.316444999949
 30
0.0
 11
27436.175727999958
 21
19980.316444999949
 31
0.0
  0
LINE
  5
4BE0
  8
SUNPOU
  6
CONTINUOUS
 62
     4
 10
26386.174407999959
 20
19222.31644499996
 30
0.0
 11
27436.175727999958
 21
19222.31644499996
 31
0.0
  0
LINE
  5
4BE1
  8
SUNPOU
  6
CONTINUOUS
 62
     4
 10
27356.175727999958
 20
19980.316444999949
 30
0.0
 11
27356.175727999958
 21
19222.31644499996
 31
0.0
  0
LINE
  5
4BE2
  8
SUNPOU
  6
CONTINUOUS
 62
     4
 10
27236.175727999958
 20
17062.316444999979
 30
0.0
 11
27836.175727999958
 21
17062.316444999979
 31
0.0
  0
LINE
  5
4BE3
  8
SUNPOU
  6
CONTINUOUS
 62
     4
 10
27236.175727999958
 20
19980.316444999949
 30
0.0
 11
27836.175727999958
 21
19980.316444999949
 31
0.0
  0
LINE
  5
4BE4
  8
SUNPOU
  6
CONTINUOUS
 62
     4
 10
27756.175727999958
 20
17062.316444999979
 30
0.0
 11
27756.175727999958
 21
19980.316444999949
 31
0.0
  0
LINE
  5
4BE5
  8
SUNPOU
  6
CONTINUOUS
 62
     4
 10
27236.175727999958
 20
13793.81644499998
 30
0.0
 11
27836.175727999958
 21
13793.81644499998
 31
0.0
  0
LINE
  5
4BE6
  8
SUNPOU
  6
CONTINUOUS
 62
     4
 10
27236.175727999958
 20
17062.316444999979
 30
0.0
 11
27836.175727999958
 21
17062.316444999979
 31
0.0
  0
LINE
  5
4BE7
  8
SUNPOU
  6
CONTINUOUS
 62
     4
 10
27756.175727999958
 20
13793.81644499998
 30
0.0
 11
27756.175727999958
 21
17062.316444999979
 31
0.0
  0
LINE
  5
4BE8
  8
SUNPOU
  6
CONTINUOUS
 62
     4
 10
26386.174407999959
 20
20022.81373999998
 30
0.0
 11
28236.175727999958
 21
20022.81373999998
 31
0.0
  0
LINE
  5
4BE9
  8
SUNPOU
  6
CONTINUOUS
 62
     4
 10
26386.174407999959
 20
13751.319149999979
 30
0.0
 11
28236.175727999958
 21
13751.319149999979
 31
0.0
  0
LINE
  5
4BEA
  8
SUNPOU
  6
CONTINUOUS
 62
     4
 10
28156.175727999958
 20
20022.81373999998
 30
0.0
 11
28156.175727999958
 21
13751.319149999979
 31
0.0
  0
LINE
  5
4BEB
  8
SUNPOU
  6
CONTINUOUS
 62
     4
 10
27236.175727999958
 20
19980.316444999949
 30
0.0
 11
27836.175727999958
 21
19980.316444999949
 31
0.0
  0
LINE
  5
4BEC
  8
SUNPOU
  6
CONTINUOUS
 62
     4
 10
26386.174407999959
 20
20022.81373999998
 30
0.0
 11
27836.175727999958
 21
20022.81373999998
 31
0.0
  0
LINE
  5
4BED
  8
SUNPOU
  6
CONTINUOUS
 62
     4
 10
27756.175727999958
 20
19980.316444999949
 30
0.0
 11
27756.175727999958
 21
19740.316444999949
 31
0.0
  0
LINE
  5
4BEE
  8
SUNPOU
  6
CONTINUOUS
 62
     4
 10
27756.175727999958
 20
20022.81373999998
 30
0.0
 11
27756.175727999958
 21
20262.81373999998
 31
0.0
  0
LINE
  5
4BEF
  8
SUNPOU
  6
CONTINUOUS
 62
     4
 10
27756.175727999958
 20
19980.316444999949
 30
0.0
 11
27756.175727999958
 21
20022.81373999998
 31
0.0
  0
LINE
  5
4BF0
  8
SUNPOU
  6
CONTINUOUS
 62
     4
 10
27236.175727999958
 20
13793.81644499998
 30
0.0
 11
27836.175727999958
 21
13793.81644499998
 31
0.0
  0
LINE
  5
4BF1
  8
SUNPOU
  6
CONTINUOUS
 62
     4
 10
26386.174407999959
 20
13751.319149999979
 30
0.0
 11
27836.175727999958
 21
13751.319149999979
 31
0.0
  0
LINE
  5
4BF2
  8
SUNPOU
  6
CONTINUOUS
 62
     4
 10
27756.175727999958
 20
13793.81644499998
 30
0.0
 11
27756.175727999958
 21
14033.816444999969
 31
0.0
  0
LINE
  5
4BF3
  8
SUNPOU
  6
CONTINUOUS
 62
     4
 10
27756.175727999958
 20
13751.319149999979
 30
0.0
 11
27756.175727999958
 21
13511.319149999979
 31
0.0
  0
LINE
  5
4BF4
  8
SUNPOU
  6
CONTINUOUS
 62
     4
 10
27756.175727999958
 20
13793.81644499998
 30
0.0
 11
27756.175727999958
 21
13751.319149999979
 31
0.0
  0
LINE
  5
4BF5
  8
SUNPOU
  6
CONTINUOUS
 62
     4
 10
20495.171834500001
 20
20102.814729999998
 30
0.0
 11
20495.171834500001
 21
20832.817632999999
 31
0.0
  0
LINE
  5
4BF6
  8
SUNPOU
  6
CONTINUOUS
 62
     4
 10
22995.176123999961
 20
20102.814729999998
 30
0.0
 11
22995.176123999961
 21
20832.817632999999
 31
0.0
  0
LINE
  5
4BF7
  8
SUNPOU
  6
CONTINUOUS
 62
     4
 10
20495.171834500001
 20
20752.817632999999
 30
0.0
 11
22995.176123999961
 21
20752.817632999999
 31
0.0
  0
LINE
  5
4BF8
  8
SUNPOU
  6
CONTINUOUS
 62
     4
 10
22995.176123999961
 20
20102.814729999998
 30
0.0
 11
22995.176123999961
 21
20832.817632999999
 31
0.0
  0
LINE
  5
4BF9
  8
SUNPOU
  6
CONTINUOUS
 62
     4
 10
23402.676123999961
 20
20102.814729999998
 30
0.0
 11
23402.676123999961
 21
20832.817632999999
 31
0.0
  0
LINE
  5
4BFA
  8
SUNPOU
  6
CONTINUOUS
 62
     4
 10
22995.176123999961
 20
20752.817632999999
 30
0.0
 11
23402.676123999961
 21
20752.817632999999
 31
0.0
  0
LINE
  5
4BFB
  8
SUNPOU
  6
CONTINUOUS
 62
     4
 10
25505.676123999961
 20
20102.814729999998
 30
0.0
 11
25505.676123999961
 21
20832.817632999999
 31
0.0
  0
LINE
  5
4BFC
  8
SUNPOU
  6
CONTINUOUS
 62
     4
 10
26263.67711349998
 20
20102.814729999998
 30
0.0
 11
26263.67711349998
 21
20832.817632999999
 31
0.0
  0
LINE
  5
4BFD
  8
SUNPOU
  6
CONTINUOUS
 62
     4
 10
25505.676123999961
 20
20752.817632999999
 30
0.0
 11
26263.67711349998
 21
20752.817632999999
 31
0.0
  0
LINE
  5
4BFE
  8
SUNPOU
  6
CONTINUOUS
 62
     4
 10
24804.676123999961
 20
20102.814729999998
 30
0.0
 11
24804.676123999961
 21
20832.817632999999
 31
0.0
  0
LINE
  5
4BFF
  8
SUNPOU
  6
CONTINUOUS
 62
     4
 10
25505.676123999961
 20
20102.814729999998
 30
0.0
 11
25505.676123999961
 21
20832.817632999999
 31
0.0
  0
LINE
  5
4C00
  8
SUNPOU
  6
CONTINUOUS
 62
     4
 10
24804.676123999961
 20
20752.817632999999
 30
0.0
 11
25505.676123999961
 21
20752.817632999999
 31
0.0
  0
LINE
  5
4C01
  8
SUNPOU
  6
CONTINUOUS
 62
     4
 10
24103.676123999961
 20
20102.814729999998
 30
0.0
 11
24103.676123999961
 21
20832.817632999999
 31
0.0
  0
LINE
  5
4C02
  8
SUNPOU
  6
CONTINUOUS
 62
     4
 10
24804.676123999961
 20
20102.814729999998
 30
0.0
 11
24804.676123999961
 21
20832.817632999999
 31
0.0
  0
LINE
  5
4C03
  8
SUNPOU
  6
CONTINUOUS
 62
     4
 10
24103.676123999961
 20
20752.817632999999
 30
0.0
 11
24804.676123999961
 21
20752.817632999999
 31
0.0
  0
LINE
  5
4C04
  8
SUNPOU
  6
CONTINUOUS
 62
     4
 10
23402.676123999961
 20
20102.814729999998
 30
0.0
 11
23402.676123999961
 21
20832.817632999999
 31
0.0
  0
LINE
  5
4C05
  8
SUNPOU
  6
CONTINUOUS
 62
     4
 10
24103.676123999961
 20
20102.814729999998
 30
0.0
 11
24103.676123999961
 21
20832.817632999999
 31
0.0
  0
LINE
  5
4C06
  8
SUNPOU
  6
CONTINUOUS
 62
     4
 10
23402.676123999961
 20
20752.817632999999
 30
0.0
 11
24103.676123999961
 21
20752.817632999999
 31
0.0
  0
LINE
  5
4C07
  8
SUNPOU
  6
CONTINUOUS
 62
     4
 10
26263.676123999961
 20
20102.814729999998
 30
0.0
 11
26263.676123999961
 21
20832.817632999999
 31
0.0
  0
LINE
  5
4C08
  8
SUNPOU
  6
CONTINUOUS
 62
     4
 10
26306.172428999958
 20
20102.814729999998
 30
0.0
 11
26306.172428999958
 21
20832.817632999999
 31
0.0
  0
LINE
  5
4C09
  8
SUNPOU
  6
CONTINUOUS
 62
     4
 10
26263.676123999961
 20
20752.817632999999
 30
0.0
 11
26023.676123999961
 21
20752.817632999999
 31
0.0
  0
LINE
  5
4C0A
  8
SUNPOU
  6
CONTINUOUS
 62
     4
 10
26306.172428999958
 20
20752.817632999999
 30
0.0
 11
26546.172428999958
 21
20752.817632999999
 31
0.0
  0
LINE
  5
4C0B
  8
SUNPOU
  6
CONTINUOUS
 62
     4
 10
26263.676123999961
 20
20752.817632999999
 30
0.0
 11
26306.172428999958
 21
20752.817632999999
 31
0.0
  0
LINE
  5
4C0C
  8
SUNPOU
  6
CONTINUOUS
 62
     4
 10
17226.670844999979
 20
20102.814729999998
 30
0.0
 11
17226.670844999979
 21
20832.817632999999
 31
0.0
  0
LINE
  5
4C0D
  8
SUNPOU
  6
CONTINUOUS
 62
     4
 10
17634.17084499999
 20
20102.814729999998
 30
0.0
 11
17634.17084499999
 21
20832.817632999999
 31
0.0
  0
LINE
  5
4C0E
  8
SUNPOU
  6
CONTINUOUS
 62
     4
 10
17226.670844999979
 20
20752.817632999999
 30
0.0
 11
17634.17084499999
 21
20752.817632999999
 31
0.0
  0
LINE
  5
4C0F
  8
SUNPOU
  6
CONTINUOUS
 62
     4
 10
17226.670844999979
 20
20102.814729999998
 30
0.0
 11
17226.670844999979
 21
20832.817632999999
 31
0.0
  0
LINE
  5
4C10
  8
SUNPOU
  6
CONTINUOUS
 62
     4
 10
17184.174539999989
 20
20102.814729999998
 30
0.0
 11
17184.174539999989
 21
20832.817632999999
 31
0.0
  0
LINE
  5
4C11
  8
SUNPOU
  6
CONTINUOUS
 62
     4
 10
17226.670844999979
 20
20752.817632999999
 30
0.0
 11
17466.670844999979
 21
20752.817632999999
 31
0.0
  0
LINE
  5
4C12
  8
SUNPOU
  6
CONTINUOUS
 62
     4
 10
17184.174539999989
 20
20752.817632999999
 30
0.0
 11
16944.174539999982
 21
20752.817632999999
 31
0.0
  0
LINE
  5
4C13
  8
SUNPOU
  6
CONTINUOUS
 62
     4
 10
17226.670844999979
 20
20752.817632999999
 30
0.0
 11
17184.174539999989
 21
20752.817632999999
 31
0.0
  0
LINE
  5
4C14
  8
SUNPOU
  6
CONTINUOUS
 62
     4
 10
19737.17084499999
 20
20102.814729999998
 30
0.0
 11
19737.17084499999
 21
20832.817632999999
 31
0.0
  0
LINE
  5
4C15
  8
SUNPOU
  6
CONTINUOUS
 62
     4
 10
20495.171834500001
 20
20102.814729999998
 30
0.0
 11
20495.171834500001
 21
20832.817632999999
 31
0.0
  0
LINE
  5
4C16
  8
SUNPOU
  6
CONTINUOUS
 62
     4
 10
19737.17084499999
 20
20752.817632999999
 30
0.0
 11
20495.171834500001
 21
20752.817632999999
 31
0.0
  0
LINE
  5
4C17
  8
SUNPOU
  6
CONTINUOUS
 62
     4
 10
19036.17084499999
 20
20102.814729999998
 30
0.0
 11
19036.17084499999
 21
20832.817632999999
 31
0.0
  0
LINE
  5
4C18
  8
SUNPOU
  6
CONTINUOUS
 62
     4
 10
19737.17084499999
 20
20102.814729999998
 30
0.0
 11
19737.17084499999
 21
20832.817632999999
 31
0.0
  0
LINE
  5
4C19
  8
SUNPOU
  6
CONTINUOUS
 62
     4
 10
19036.17084499999
 20
20752.817632999999
 30
0.0
 11
19737.17084499999
 21
20752.817632999999
 31
0.0
  0
LINE
  5
4C1A
  8
SUNPOU
  6
CONTINUOUS
 62
     4
 10
18335.170844999979
 20
20102.814729999998
 30
0.0
 11
18335.170844999979
 21
20832.817632999999
 31
0.0
  0
LINE
  5
4C1B
  8
SUNPOU
  6
CONTINUOUS
 62
     4
 10
19036.17084499999
 20
20102.814729999998
 30
0.0
 11
19036.17084499999
 21
20832.817632999999
 31
0.0
  0
LINE
  5
4C1C
  8
SUNPOU
  6
CONTINUOUS
 62
     4
 10
18335.170844999979
 20
20752.817632999999
 30
0.0
 11
19036.17084499999
 21
20752.817632999999
 31
0.0
  0
LINE
  5
4C1D
  8
SUNPOU
  6
CONTINUOUS
 62
     4
 10
17634.17084499999
 20
20102.814729999998
 30
0.0
 11
17634.17084499999
 21
20832.817632999999
 31
0.0
  0
LINE
  5
4C1E
  8
SUNPOU
  6
CONTINUOUS
 62
     4
 10
18335.170844999979
 20
20102.814729999998
 30
0.0
 11
18335.170844999979
 21
20832.817632999999
 31
0.0
  0
LINE
  5
4C1F
  8
SUNPOU
  6
CONTINUOUS
 62
     4
 10
17634.17084499999
 20
20752.817632999999
 30
0.0
 11
18335.170844999979
 21
20752.817632999999
 31
0.0
  0
LINE
  5
4C20
  8
SUNPOU
  6
CONTINUOUS
 62
     4
 10
17096.670185999999
 20
6212.7285879999972
 30
0.0
 11
16296.67150499998
 21
6212.7285879999972
 31
0.0
  0
LINE
  5
4C21
  8
SUNPOU
  6
CONTINUOUS
 62
     4
 10
17096.670185999999
 20
8104.2285879999981
 30
0.0
 11
16296.67150499998
 21
8104.2285879999981
 31
0.0
  0
LINE
  5
4C22
  8
SUNPOU
  6
CONTINUOUS
 62
     4
 10
16376.67150499998
 20
6212.7285879999972
 30
0.0
 11
16376.67150499998
 21
8104.2285879999981
 31
0.0
  0
LINE
  5
4C23
  8
SUNPOU
  6
CONTINUOUS
 62
     4
 10
17096.670185999999
 20
6212.7285879999972
 30
0.0
 11
15896.66919599999
 21
6212.7285879999972
 31
0.0
  0
LINE
  5
4C24
  8
SUNPOU
  6
CONTINUOUS
 62
     4
 10
17064.17044999998
 20
8560.7285880000018
 30
0.0
 11
15896.66919599999
 21
8560.7285880000018
 31
0.0
  0
LINE
  5
4C25
  8
SUNPOU
  6
CONTINUOUS
 62
     4
 10
15976.66919599999
 20
6212.7285879999972
 30
0.0
 11
15976.66919599999
 21
8560.7285880000018
 31
0.0
  0
LINE
  5
4C36
  8
SUNPOU
  6
CONTINUOUS
 62
     4
 10
17320.670844999979
 20
6032.728753000004
 30
0.0
 11
17320.670844999979
 21
5232.7287530000031
 31
0.0
  0
LINE
  5
4C37
  8
SUNPOU
  6
CONTINUOUS
 62
     4
 10
20401.170844999979
 20
6032.728753000004
 30
0.0
 11
20401.170844999979
 21
5232.7287530000031
 31
0.0
  0
LINE
  5
4C38
  8
SUNPOU
  6
CONTINUOUS
 62
     4
 10
17320.670844999979
 20
5312.7287530000031
 30
0.0
 11
20401.170844999979
 21
5312.7287530000031
 31
0.0
  0
LINE
  5
4C39
  8
SUNPOU
  6
CONTINUOUS
 62
     4
 10
23089.176123999961
 20
6032.728753000004
 30
0.0
 11
23089.176123999961
 21
5232.7287530000031
 31
0.0
  0
LINE
  5
4C3A
  8
SUNPOU
  6
CONTINUOUS
 62
     4
 10
26169.676123999961
 20
6032.728753000004
 30
0.0
 11
26169.676123999961
 21
5232.7287530000031
 31
0.0
  0
LINE
  5
4C3B
  8
SUNPOU
  6
CONTINUOUS
 62
     4
 10
23089.176123999961
 20
5312.7287530000031
 30
0.0
 11
26169.676123999961
 21
5312.7287530000031
 31
0.0
  0
LINE
  5
4C3C
  8
SUNPOU
  6
CONTINUOUS
 62
     4
 10
22995.176123999961
 20
5770.0763299999999
 30
0.0
 11
22995.176123999961
 21
4832.728753000004
 31
0.0
  0
LINE
  5
4C3D
  8
SUNPOU
  6
CONTINUOUS
 62
     4
 10
26263.676123999961
 20
5770.0763299999999
 30
0.0
 11
26263.676123999961
 21
4832.728753000004
 31
0.0
  0
LINE
  5
4C3E
  8
SUNPOU
  6
CONTINUOUS
 62
     4
 10
22995.176123999961
 20
4912.7287530000031
 30
0.0
 11
26263.676123999961
 21
4912.7287530000031
 31
0.0
  0
LINE
  5
4C3F
  8
SUNPOU
  6
CONTINUOUS
 62
     4
 10
20495.17084499999
 20
5770.0763299999999
 30
0.0
 11
20495.17084499999
 21
4832.728753000004
 31
0.0
  0
LINE
  5
4C40
  8
SUNPOU
  6
CONTINUOUS
 62
     4
 10
22995.176123999961
 20
5770.0763299999999
 30
0.0
 11
22995.176123999961
 21
4832.728753000004
 31
0.0
  0
LINE
  5
4C41
  8
SUNPOU
  6
CONTINUOUS
 62
     4
 10
20495.17084499999
 20
4912.7287530000031
 30
0.0
 11
22995.176123999961
 21
4912.7287530000031
 31
0.0
  0
LINE
  5
4C42
  8
SUNPOU
  6
CONTINUOUS
 62
     4
 10
17226.670844999979
 20
5770.0763299999999
 30
0.0
 11
17226.670844999979
 21
4832.728753000004
 31
0.0
  0
LINE
  5
4C43
  8
SUNPOU
  6
CONTINUOUS
 62
     4
 10
20495.17084499999
 20
5770.0763299999999
 30
0.0
 11
20495.17084499999
 21
4832.728753000004
 31
0.0
  0
LINE
  5
4C44
  8
SUNPOU
  6
CONTINUOUS
 62
     4
 10
17226.670844999979
 20
4912.7287530000031
 30
0.0
 11
20495.17084499999
 21
4912.7287530000031
 31
0.0
  0
LINE
  5
4C45
  8
SUNPOU
  6
CONTINUOUS
 62
     4
 10
26263.680082999981
 20
5770.0763299999999
 30
0.0
 11
26263.680082999981
 21
4832.728753000004
 31
0.0
  0
LINE
  5
4C46
  8
SUNPOU
  6
CONTINUOUS
 62
     4
 10
26306.180082999981
 20
6032.728753000004
 30
0.0
 11
26306.180082999981
 21
4832.728753000004
 31
0.0
  0
LINE
  5
4C47
  8
SUNPOU
  6
CONTINUOUS
 62
     4
 10
26263.680082999981
 20
4912.7287530000031
 30
0.0
 11
26023.680082999981
 21
4912.7287530000031
 31
0.0
  0
LINE
  5
4C48
  8
SUNPOU
  6
CONTINUOUS
 62
     4
 10
26306.180082999981
 20
4912.7287530000031
 30
0.0
 11
26546.180082999981
 21
4912.7287530000031
 31
0.0
  0
LINE
  5
4C49
  8
SUNPOU
  6
CONTINUOUS
 62
     4
 10
26263.680082999981
 20
4912.7287530000031
 30
0.0
 11
26306.180082999981
 21
4912.7287530000031
 31
0.0
  0
LINE
  5
4C4A
  8
SUNPOU
  6
CONTINUOUS
 62
     4
 10
17226.670844999979
 20
5770.0763299999999
 30
0.0
 11
17226.670844999979
 21
4832.728753000004
 31
0.0
  0
LINE
  5
4C4B
  8
SUNPOU
  6
CONTINUOUS
 62
     4
 10
17184.17084499999
 20
6032.728753000004
 30
0.0
 11
17184.17084499999
 21
4832.728753000004
 31
0.0
  0
LINE
  5
4C4C
  8
SUNPOU
  6
CONTINUOUS
 62
     4
 10
17226.670844999979
 20
4912.7287530000031
 30
0.0
 11
17466.670844999979
 21
4912.7287530000031
 31
0.0
  0
LINE
  5
4C4D
  8
SUNPOU
  6
CONTINUOUS
 62
     4
 10
17184.17084499999
 20
4912.7287530000031
 30
0.0
 11
16944.17084499999
 21
4912.7287530000031
 31
0.0
  0
LINE
  5
4C4E
  8
SUNPOU
  6
CONTINUOUS
 62
     4
 10
17226.670844999979
 20
4912.7287530000031
 30
0.0
 11
17184.17084499999
 21
4912.7287530000031
 31
0.0
  0
LINE
  5
4C4F
  8
SUNPOU
  6
CONTINUOUS
 62
     4
 10
17184.17084499999
 20
6032.728753000004
 30
0.0
 11
17184.17084499999
 21
4432.7289180000007
 31
0.0
  0
LINE
  5
4C50
  8
SUNPOU
  6
CONTINUOUS
 62
     4
 10
26306.176123999961
 20
6032.728753000004
 30
0.0
 11
26306.176123999961
 21
4432.7289180000007
 31
0.0
  0
LINE
  5
4C51
  8
SUNPOU
  6
CONTINUOUS
 62
     4
 10
17184.17084499999
 20
4512.7289179999989
 30
0.0
 11
26306.176123999961
 21
4512.7289179999989
 31
0.0
  0
LINE
  5
4C52
  8
0
  6
CONTINUOUS
 10
27320.61169951249
 20
4013.2342825977748
 30
0.0
 11
32662.906701964599
 21
4013.2342825977748
 31
0.0
  0
LINE
  5
4C53
  8
0
  6
CONTINUOUS
 10
32662.906701964599
 20
4013.2342825977748
 30
0.0
 11
32662.906701964599
 21
2658.9883116968108
 31
0.0
  0
LINE
  5
4C54
  8
0
  6
CONTINUOUS
 10
32662.906701964599
 20
2658.9883116968108
 30
0.0
 11
27320.61169951249
 21
2658.9883116968108
 31
0.0
  0
LINE
  5
4C55
  8
0
  6
CONTINUOUS
 10
27320.61169951249
 20
2658.9883116968108
 30
0.0
 11
27320.61169951249
 21
4013.2342825977748
 31
0.0
  0
TEXT
  5
4C56
  8
0
  6
CONTINUOUS
 62
     7
 10
20705.173484499981
 20
4592.7289180000007
 30
0.0
 40
160.0
  1
3268.5 \U+00D7 ｎ ＋ 85
  0
TEXT
  5
4C57
  8
0
  6
CONTINUOUS
 62
     7
 10
16618.13185474115
 20
4992.7287530000031
 30
0.0
 40
160.0
  1
42.5
  0
TEXT
  5
4C58
  8
0
  6
CONTINUOUS
 62
     7
 10
26392.219073258821
 20
4992.7287530000031
 30
0.0
 40
160.0
  1
42.5
  0
TEXT
  5
4C59
  8
0
  6
CONTINUOUS
 62
     7
 10
18460.920844999979
 20
4992.7287530000031
 30
0.0
 40
160.0
  1
3268.5
  0
TEXT
  5
4C5A
  8
0
  6
CONTINUOUS
 62
     7
 10
20641.173484499981
 20
4992.7287530000031
 30
0.0
 40
160.0
  1
3268.5 \U+00D7（ｎ － 2）
  0
TEXT
  5
4C5B
  8
0
  6
CONTINUOUS
 62
     7
 10
24229.426123999961
 20
4992.7287530000031
 30
0.0
 40
160.0
  1
3268.5
  0
TEXT
  5
4C5C
  8
0
  6
CONTINUOUS
 62
     7
 10
23728.09279066664
 20
5392.7287530000031
 30
0.0
 40
160.0
  1
有効開口巾 3080.5
  0
TEXT
  5
4C5D
  8
0
  6
CONTINUOUS
 62
     7
 10
17959.587511666661
 20
5392.7287530000031
 30
0.0
 40
160.0
  1
有効開口巾 3080.5
  0
TEXT
  5
4C62
  8
0
  6
CONTINUOUS
 62
     7
 10
15896.66919599999
 20
6581.3952546666678
 30
0.0
 40
160.0
  1
2348（2588）
 50
90.0
  0
TEXT
  5
4C63
  8
0
  6
CONTINUOUS
 62
     7
 10
16296.67150499998
 20
6276.7078262912746
 30
0.0
 40
160.0
  1
有効開口高サ 1891.5
 50
90.0
  0
TEXT
  5
4C64
  8
0
  6
CONTINUOUS
 62
     7
 10
17811.337511666661
 20
20512.817632999999
 30
0.0
 40
160.0
  1
701
  0
TEXT
  5
4C65
  8
0
  6
CONTINUOUS
 62
     7
 10
18512.337511666661
 20
20832.817632999999
 30
0.0
 40
160.0
  1
701
  0
TEXT
  5
4C66
  8
0
  6
CONTINUOUS
 62
     7
 10
19213.337511666661
 20
20832.817632999999
 30
0.0
 40
160.0
  1
701
  0
TEXT
  5
4C67
  8
0
  6
CONTINUOUS
 62
     7
 10
19902.838006416641
 20
20832.817632999999
 30
0.0
 40
160.0
  1
758
  0
TEXT
  5
4C68
  8
0
  6
CONTINUOUS
 62
     7
 10
16623.858865471189
 20
20832.817632999999
 30
0.0
 40
160.0
  1
42.5
  0
TEXT
  5
4C69
  8
0
  6
CONTINUOUS
 62
     7
 10
17327.504178333322
 20
20832.817632999999
 30
0.0
 40
160.0
  1
407.5
  0
TEXT
  5
4C6A
  8
0
  6
CONTINUOUS
 62
     7
 10
26386.488103528769
 20
20832.817632999999
 30
0.0
 40
160.0
  1
42.5
  0
TEXT
  5
4C6B
  8
0
  6
CONTINUOUS
 62
     7
 10
23579.84279066664
 20
20512.817632999999
 30
0.0
 40
160.0
  1
701
  0
TEXT
  5
4C6C
  8
0
  6
CONTINUOUS
 62
     7
 10
24280.84279066664
 20
20832.817632999999
 30
0.0
 40
160.0
  1
701
  0
TEXT
  5
4C6D
  8
0
  6
CONTINUOUS
 62
     7
 10
24981.84279066664
 20
20832.817632999999
 30
0.0
 40
160.0
  1
701
  0
TEXT
  5
4C6E
  8
0
  6
CONTINUOUS
 62
     7
 10
25671.343285416639
 20
20832.817632999999
 30
0.0
 40
160.0
  1
758
  0
TEXT
  5
4C6F
  8
0
  6
CONTINUOUS
 62
     7
 10
23096.009457333301
 20
20832.817632999999
 30
0.0
 40
160.0
  1
407.5
  0
TEXT
  5
4C70
  8
0
  6
CONTINUOUS
 62
     7
 10
20641.17397924999
 20
20832.817632999999
 30
0.0
 40
160.0
  1
3268.5 \U+00D7（ｎ － 2）
  0
TEXT
  5
4C71
  8
0
  6
CONTINUOUS
 62
     7
 10
27676.175727999958
 20
13177.76291360319
 30
0.0
 40
160.0
  1
42.5
 50
90.0
  0
TEXT
  5
4C72
  8
0
  6
CONTINUOUS
 62
     7
 10
27676.175727999958
 20
20116.369976396789
 30
0.0
 40
160.0
  1
42.5
 50
90.0
  0
TEXT
  5
4C73
  8
0
  6
CONTINUOUS
 62
     7
 10
28076.175727999958
 20
16513.733111666661
 30
0.0
 40
160.0
  1
6271.5
 50
90.0
  0
TEXT
  5
4C74
  8
0
  6
CONTINUOUS
 62
     7
 10
27676.175727999958
 20
15028.06644499998
 30
0.0
 40
160.0
  1
3268.5
 50
90.0
  0
TEXT
  5
4C75
  8
0
  6
CONTINUOUS
 62
     7
 10
27676.175727999958
 20
18254.649778333322
 30
0.0
 40
160.0
  1
2918
 50
90.0
  0
TEXT
  5
4C76
  8
0
  6
CONTINUOUS
 62
     7
 10
27276.175727999958
 20
19387.983111666661
 30
0.0
 40
160.0
  1
758
 50
90.0
  0
TEXT
  5
4C77
  8
0
  6
CONTINUOUS
 62
     7
 10
27276.175727999958
 20
18698.48311166665
 30
0.0
 40
160.0
  1
701
 50
90.0
  0
TEXT
  5
4C78
  8
0
  6
CONTINUOUS
 62
     7
 10
27276.175727999958
 20
17997.483111666661
 30
0.0
 40
160.0
  1
701
 50
90.0
  0
TEXT
  5
4C79
  8
0
  6
CONTINUOUS
 62
     7
 10
27276.175727999958
 20
17227.98311166665
 30
0.0
 40
160.0
  1
758
 50
90.0
  0
TEXT
  5
4C7A
  8
0
  6
CONTINUOUS
 62
     7
 10
27276.175727999958
 20
16469.98311166665
 30
0.0
 40
160.0
  1
758
 50
90.0
  0
TEXT
  5
4C7B
  8
0
  6
CONTINUOUS
 62
     7
 10
27276.175727999958
 20
15780.603367416659
 30
0.0
 40
160.0
  1
701
 50
90.0
  0
TEXT
  5
4C7C
  8
0
  6
CONTINUOUS
 62
     7
 10
27276.175727999958
 20
15079.603367416659
 30
0.0
 40
160.0
  1
701
 50
90.0
  0
TEXT
  5
4C7D
  8
0
  6
CONTINUOUS
 62
     7
 10
27276.175727999958
 20
14378.48311166665
 30
0.0
 40
160.0
  1
701
 50
90.0
  0
TEXT
  5
4C7E
  8
0
  6
CONTINUOUS
 62
     7
 10
27636.175727999958
 20
13866.63685920352
 30
0.0
 40
160.0
  1
407.5
 50
90.0
  0
TEXT
  5
4C7F
  8
0
  6
CONTINUOUS
 62
     7
 10
21089.173484499981
 20
12502.368360999981
 30
0.0
 40
160.0
  1
3268.5 x n
  0
TEXT
  5
4C80
  8
0
  6
CONTINUOUS
 62
     7
 10
17344.724517382081
 20
12902.368360999981
 30
0.0
 40
160.0
  1
42.5
  0
TEXT
  5
4C81
  8
0
  6
CONTINUOUS
 62
     7
 10
25665.62245161787
 20
12902.368360999981
 30
0.0
 40
160.0
  1
42.5
  0
TEXT
  5
4C82
  8
0
  6
CONTINUOUS
 62
     7
 10
10990.133510999991
 20
4992.7287530000031
 30
0.0
 40
160.0
  1
3268.5
  0
TEXT
  5
4C83
  8
0
  6
CONTINUOUS
 62
     7
 10
8030.216844333333
 20
4992.7287530000031
 30
0.0
 40
160.0
  1
2918
  0
TEXT
  5
4C84
  8
0
  6
CONTINUOUS
 62
     7
 10
6198.209801903693
 20
4992.7287530000031
 30
0.0
 40
160.0
  1
42.5
  0
TEXT
  5
4C85
  8
0
  6
CONTINUOUS
 62
     7
 10
13205.20214830982
 20
4992.7287530000031
 30
0.0
 40
160.0
  1
42.5
  0
TEXT
  5
4C86
  8
0
  6
CONTINUOUS
 62
     7
 10
9557.8001776666697
 20
4592.7289180000007
 30
0.0
 40
160.0
  1
6271.5
  0
TEXT
  5
4C87
  8
0
  6
CONTINUOUS
 62
     7
 10
5625.3831150000024
 20
6512.5619213333384
 30
0.0
 40
160.0
  1
2157（2397）
 50
90.0
  0
TEXT
  5
4C88
  8
0
  6
CONTINUOUS
 62
     7
 10
14076.88390699999
 20
6581.3952546666706
 30
0.0
 40
160.0
  1
2348（2588）
 50
90.0
  0
TEXT
  5
4C89
  8
0
  6
CONTINUOUS
 62
     7
 10
6202.0501776666661
 20
9440.7302639999998
 30
0.0
 40
160.0
  1
180
  0
TEXT
  5
4C8A
  8
0
  6
CONTINUOUS
 62
     7
 10
9557.8001776666697
 20
9440.7302639999998
 30
0.0
 40
160.0
  1
6271.5
  0
TEXT
  5
4C8B
  8
0
  6
CONTINUOUS
 62
     7
 10
13283.550177666661
 20
9440.7302639999998
 30
0.0
 40
160.0
  1
150
  0
TEXT
  5
4C8C
  8
0
  6
CONTINUOUS
 62
     7
 10
9556.133511
 20
9840.7286139999997
 30
0.0
 40
160.0
  1
6601.5
  0
TEXT
  5
4C8D
  8
0
  6
CONTINUOUS
 62
     7
 10
5556.7579180000021
 20
20832.817632999999
 30
0.0
 40
160.0
  1
3268.5
  0
TEXT
  5
4C8E
  8
0
  6
CONTINUOUS
 62
     7
 10
7941.0078649999969
 20
20832.817632999999
 30
0.0
 40
160.0
  1
3268.5 \U+00D7（ｎ － 2）
  0
TEXT
  5
4C8F
  8
0
  6
CONTINUOUS
 62
     7
 10
11733.257811999991
 20
20832.817632999999
 30
0.0
 40
160.0
  1
3268.5
  0
TEXT
  5
4C90
  8
0
  6
CONTINUOUS
 62
     7
 10
3313.008142000001
 20
18254.649778333311
 30
0.0
 40
160.0
  1
2918
 50
90.0
  0
TEXT
  5
4C91
  8
0
  6
CONTINUOUS
 62
     7
 10
3313.008142000001
 20
20291.771629807648
 30
0.0
 40
160.0
  1
222.5
 50
90.0
  0
TEXT
  5
4C92
  8
0
  6
CONTINUOUS
 62
     7
 10
3713.008142000002
 20
20349.479020666651
 30
0.0
 40
160.0
  1
10
 50
90.0
  0
TEXT
  5
4C93
  8
0
  6
CONTINUOUS
 62
     7
 10
3313.008142000001
 20
15028.06644499998
 30
0.0
 40
160.0
  1
3268.5
 50
90.0
  0
TEXT
  5
4C94
  8
0
  6
CONTINUOUS
 62
     7
 10
3313.0081419999992
 20
12985.863434702611
 30
0.0
 40
160.0
  1
192.5
 50
90.0
  0
TEXT
  5
4C95
  8
0
  6
CONTINUOUS
 62
     7
 10
8277.0078649999978
 20
12502.368360999981
 30
0.0
 40
160.0
  1
3268.5  \U+00D7　n
  0
TEXT
  5
4C96
  8
0
  6
CONTINUOUS
 62
     7
 10
3706.01121197674
 20
20832.817632999999
 30
0.0
 40
160.0
  1
85.5
  0
TEXT
  5
4C97
  8
0
  6
CONTINUOUS
 62
     7
 10
13904.004518023259
 20
20832.817632999999
 30
0.0
 40
160.0
  1
85.5
  0
ARC
  5
4C98
  8
0
  6
BYBLOCK
 62
     0
 10
13767.507811999991
 20
20752.817632999999
 30
0.0
 40
15.0
 50
180.0
 51
0.0
  0
ARC
  5
4C99
  8
0
  6
BYBLOCK
 62
     0
 10
13767.507811999991
 20
20752.817632999999
 30
0.0
 40
15.0
 50
0.0
 51
180.0
  0
ARC
  5
4C9A
  8
0
  6
BYBLOCK
 62
     0
 10
13853.007811999991
 20
20752.817632999999
 30
0.0
 40
15.0
 50
0.0
 51
180.0
  0
ARC
  5
4C9B
  8
0
  6
BYBLOCK
 62
     0
 10
13853.007811999991
 20
20752.817632999999
 30
0.0
 40
15.0
 50
180.0
 51
0.0
  0
ARC
  5
4C9C
  8
0
  6
BYBLOCK
 62
     0
 10
4322.507918000003
 20
20752.817632999999
 30
0.0
 40
15.0
 50
0.0
 51
180.0
  0
ARC
  5
4C9D
  8
0
  6
BYBLOCK
 62
     0
 10
4322.507918000003
 20
20752.817632999999
 30
0.0
 40
15.0
 50
180.0
 51
0.0
  0
ARC
  5
4C9E
  8
0
  6
BYBLOCK
 62
     0
 10
4237.0079180000012
 20
20752.817632999999
 30
0.0
 40
15.0
 50
180.0
 51
0.0
  0
ARC
  5
4C9F
  8
0
  6
BYBLOCK
 62
     0
 10
4237.0079180000012
 20
20752.817632999999
 30
0.0
 40
15.0
 50
0.0
 51
180.0
  0
ARC
  5
4CA0
  8
0
  6
BYBLOCK
 62
     0
 10
4322.507918000003
 20
12422.368360999981
 30
0.0
 40
15.0
 50
0.0
 51
180.0
  0
ARC
  5
4CA1
  8
0
  6
BYBLOCK
 62
     0
 10
4322.507918000003
 20
12422.368360999981
 30
0.0
 40
15.0
 50
180.0
 51
0.0
  0
ARC
  5
4CA2
  8
0
  6
BYBLOCK
 62
     0
 10
13767.507811999991
 20
12422.368360999981
 30
0.0
 40
15.0
 50
180.0
 51
0.0
  0
ARC
  5
4CA3
  8
0
  6
BYBLOCK
 62
     0
 10
13767.507811999991
 20
12422.368360999981
 30
0.0
 40
15.0
 50
0.0
 51
180.0
  0
ARC
  5
4CA4
  8
0
  6
BYBLOCK
 62
     0
 10
3393.008142000002
 20
13793.81644499998
 30
0.0
 40
15.0
 50
270.0
 51
90.0
  0
ARC
  5
4CA5
  8
0
  6
BYBLOCK
 62
     0
 10
3393.008142000002
 20
13793.81644499998
 30
0.0
 40
15.0
 50
90.0
 51
270.0
  0
ARC
  5
4CA6
  8
0
  6
BYBLOCK
 62
     0
 10
3393.008142000002
 20
13601.32112999998
 30
0.0
 40
15.0
 50
90.0
 51
270.0
  0
ARC
  5
4CA7
  8
0
  6
BYBLOCK
 62
     0
 10
3393.008142000002
 20
13601.32112999998
 30
0.0
 40
15.0
 50
270.0
 51
90.0
  0
ARC
  5
4CA8
  8
0
  6
BYBLOCK
 62
     0
 10
3393.0081420000051
 20
17062.316444999979
 30
0.0
 40
15.0
 50
270.0
 51
90.0
  0
ARC
  5
4CA9
  8
0
  6
BYBLOCK
 62
     0
 10
3393.0081420000051
 20
17062.316444999979
 30
0.0
 40
15.0
 50
90.0
 51
270.0
  0
ARC
  5
4CAA
  8
0
  6
BYBLOCK
 62
     0
 10
3393.0081420000051
 20
13793.81644499998
 30
0.0
 40
15.0
 50
90.0
 51
270.0
  0
ARC
  5
4CAB
  8
0
  6
BYBLOCK
 62
     0
 10
3393.0081420000051
 20
13793.81644499998
 30
0.0
 40
15.0
 50
270.0
 51
90.0
  0
ARC
  5
4CAC
  8
0
  6
BYBLOCK
 62
     0
 10
3793.008142000002
 20
20192.812354000002
 30
0.0
 40
15.0
 50
270.0
 51
90.0
  0
ARC
  5
4CAD
  8
0
  6
BYBLOCK
 62
     0
 10
3793.008142000002
 20
20192.812354000002
 30
0.0
 40
15.0
 50
90.0
 51
270.0
  0
ARC
  5
4CAE
  8
0
  6
BYBLOCK
 62
     0
 10
3793.008142000002
 20
20202.812354000002
 30
0.0
 40
15.0
 50
90.0
 51
270.0
  0
ARC
  5
4CAF
  8
0
  6
BYBLOCK
 62
     0
 10
3793.008142000002
 20
20202.812354000002
 30
0.0
 40
15.0
 50
270.0
 51
90.0
  0
ARC
  5
4CB0
  8
0
  6
BYBLOCK
 62
     0
 10
3393.0081420000051
 20
19980.316444999949
 30
0.0
 40
15.0
 50
90.0
 51
270.0
  0
ARC
  5
4CB1
  8
0
  6
BYBLOCK
 62
     0
 10
3393.0081420000051
 20
19980.316444999949
 30
0.0
 40
15.0
 50
270.0
 51
90.0
  0
ARC
  5
4CB2
  8
0
  6
BYBLOCK
 62
     0
 10
3393.0081420000051
 20
20202.812354000002
 30
0.0
 40
15.0
 50
270.0
 51
90.0
  0
ARC
  5
4CB3
  8
0
  6
BYBLOCK
 62
     0
 10
3393.0081420000051
 20
20202.812354000002
 30
0.0
 40
15.0
 50
90.0
 51
270.0
  0
ARC
  5
4CB4
  8
0
  6
BYBLOCK
 62
     0
 10
3393.0081420000051
 20
17062.316444999979
 30
0.0
 40
15.0
 50
90.0
 51
270.0
  0
ARC
  5
4CB5
  8
0
  6
BYBLOCK
 62
     0
 10
3393.0081420000051
 20
17062.316444999979
 30
0.0
 40
15.0
 50
270.0
 51
90.0
  0
ARC
  5
4CB6
  8
0
  6
BYBLOCK
 62
     0
 10
3393.0081420000051
 20
19980.316444999949
 30
0.0
 40
15.0
 50
270.0
 51
90.0
  0
ARC
  5
4CB7
  8
0
  6
BYBLOCK
 62
     0
 10
3393.0081420000051
 20
19980.316444999949
 30
0.0
 40
15.0
 50
90.0
 51
270.0
  0
ARC
  5
4CB8
  8
0
  6
BYBLOCK
 62
     0
 10
10499.007811999991
 20
20752.817632999999
 30
0.0
 40
15.0
 50
0.0
 51
180.0
  0
ARC
  5
4CB9
  8
0
  6
BYBLOCK
 62
     0
 10
10499.007811999991
 20
20752.817632999999
 30
0.0
 40
15.0
 50
180.0
 51
0.0
  0
ARC
  5
4CBA
  8
0
  6
BYBLOCK
 62
     0
 10
13767.507811999991
 20
20752.817632999999
 30
0.0
 40
15.0
 50
180.0
 51
0.0
  0
ARC
  5
4CBB
  8
0
  6
BYBLOCK
 62
     0
 10
13767.507811999991
 20
20752.817632999999
 30
0.0
 40
15.0
 50
0.0
 51
180.0
  0
ARC
  5
4CBC
  8
0
  6
BYBLOCK
 62
     0
 10
7591.0079180000021
 20
20752.817632999999
 30
0.0
 40
15.0
 50
0.0
 51
180.0
  0
ARC
  5
4CBD
  8
0
  6
BYBLOCK
 62
     0
 10
7591.0079180000021
 20
20752.817632999999
 30
0.0
 40
15.0
 50
180.0
 51
0.0
  0
ARC
  5
4CBE
  8
0
  6
BYBLOCK
 62
     0
 10
10499.007811999991
 20
20752.817632999999
 30
0.0
 40
15.0
 50
180.0
 51
0.0
  0
ARC
  5
4CBF
  8
0
  6
BYBLOCK
 62
     0
 10
10499.007811999991
 20
20752.817632999999
 30
0.0
 40
15.0
 50
0.0
 51
180.0
  0
ARC
  5
4CC0
  8
0
  6
BYBLOCK
 62
     0
 10
4322.507918000003
 20
20752.817632999999
 30
0.0
 40
15.0
 50
0.0
 51
180.0
  0
ARC
  5
4CC1
  8
0
  6
BYBLOCK
 62
     0
 10
4322.507918000003
 20
20752.817632999999
 30
0.0
 40
15.0
 50
180.0
 51
0.0
  0
ARC
  5
4CC2
  8
0
  6
BYBLOCK
 62
     0
 10
7591.0079180000021
 20
20752.817632999999
 30
0.0
 40
15.0
 50
180.0
 51
0.0
  0
ARC
  5
4CC3
  8
0
  6
BYBLOCK
 62
     0
 10
7591.0079180000021
 20
20752.817632999999
 30
0.0
 40
15.0
 50
0.0
 51
180.0
  0
ARC
  5
4CC4
  8
0
  6
BYBLOCK
 62
     0
 10
6615.383511
 20
9760.7286140000015
 30
0.0
 40
15.0
 50
0.0
 51
180.0
  0
ARC
  5
4CC5
  8
0
  6
BYBLOCK
 62
     0
 10
6615.383511
 20
9760.7286140000015
 30
0.0
 40
15.0
 50
180.0
 51
0.0
  0
ARC
  5
4CC6
  8
0
  6
BYBLOCK
 62
     0
 10
13216.883511
 20
9760.7286140000015
 30
0.0
 40
15.0
 50
180.0
 51
0.0
  0
ARC
  5
4CC7
  8
0
  6
BYBLOCK
 62
     0
 10
13216.883511
 20
9760.7286140000015
 30
0.0
 40
15.0
 50
0.0
 51
180.0
  0
ARC
  5
4CC8
  8
0
  6
BYBLOCK
 62
     0
 10
13066.883511
 20
9360.7302639999998
 30
0.0
 40
15.0
 50
180.0
 51
0.0
  0
ARC
  5
4CC9
  8
0
  6
BYBLOCK
 62
     0
 10
13066.883511
 20
9360.7302639999998
 30
0.0
 40
15.0
 50
0.0
 51
180.0
  0
ARC
  5
4CCA
  8
0
  6
BYBLOCK
 62
     0
 10
13216.883511
 20
9360.7302639999998
 30
0.0
 40
15.0
 50
0.0
 51
180.0
  0
ARC
  5
4CCB
  8
0
  6
BYBLOCK
 62
     0
 10
13216.883511
 20
9360.7302639999998
 30
0.0
 40
15.0
 50
180.0
 51
0.0
  0
ARC
  5
4CCC
  8
0
  6
BYBLOCK
 62
     0
 10
6795.383511
 20
9360.7302639999998
 30
0.0
 40
15.0
 50
0.0
 51
180.0
  0
ARC
  5
4CCD
  8
0
  6
BYBLOCK
 62
     0
 10
6795.383511
 20
9360.7302639999998
 30
0.0
 40
15.0
 50
180.0
 51
0.0
  0
ARC
  5
4CCE
  8
0
  6
BYBLOCK
 62
     0
 10
13066.883511
 20
9360.7302639999998
 30
0.0
 40
15.0
 50
180.0
 51
0.0
  0
ARC
  5
4CCF
  8
0
  6
BYBLOCK
 62
     0
 10
13066.883511
 20
9360.7302639999998
 30
0.0
 40
15.0
 50
0.0
 51
180.0
  0
ARC
  5
4CD0
  8
0
  6
BYBLOCK
 62
     0
 10
6615.383511
 20
9360.7302639999998
 30
0.0
 40
15.0
 50
0.0
 51
180.0
  0
ARC
  5
4CD1
  8
0
  6
BYBLOCK
 62
     0
 10
6615.383511
 20
9360.7302639999998
 30
0.0
 40
15.0
 50
180.0
 51
0.0
  0
ARC
  5
4CD2
  8
0
  6
BYBLOCK
 62
     0
 10
6795.383511
 20
9360.7302639999998
 30
0.0
 40
15.0
 50
180.0
 51
0.0
  0
ARC
  5
4CD3
  8
0
  6
BYBLOCK
 62
     0
 10
6795.383511
 20
9360.7302639999998
 30
0.0
 40
15.0
 50
0.0
 51
180.0
  0
ARC
  5
4CD4
  8
0
  6
BYBLOCK
 62
     0
 10
14156.88390699999
 20
6212.7285879999999
 30
0.0
 40
15.0
 50
90.0
 51
270.0
  0
ARC
  5
4CD5
  8
0
  6
BYBLOCK
 62
     0
 10
14156.88390699999
 20
6212.7285879999999
 30
0.0
 40
15.0
 50
270.0
 51
90.0
  0
ARC
  5
4CD6
  8
0
  6
BYBLOCK
 62
     0
 10
14156.88390699999
 20
8560.7285880000018
 30
0.0
 40
15.0
 50
270.0
 51
90.0
  0
ARC
  5
4CD7
  8
0
  6
BYBLOCK
 62
     0
 10
14156.88390699999
 20
8560.7285880000018
 30
0.0
 40
15.0
 50
90.0
 51
270.0
  0
ARC
  5
4CD8
  8
0
  6
BYBLOCK
 62
     0
 10
5705.3831150000024
 20
6212.7285880000027
 30
0.0
 40
15.0
 50
90.0
 51
270.0
  0
ARC
  5
4CD9
  8
0
  6
BYBLOCK
 62
     0
 10
5705.3831150000024
 20
6212.7285880000027
 30
0.0
 40
15.0
 50
270.0
 51
90.0
  0
ARC
  5
4CDA
  8
0
  6
BYBLOCK
 62
     0
 10
5705.3831150000024
 20
8369.7285880000054
 30
0.0
 40
15.0
 50
270.0
 51
90.0
  0
ARC
  5
4CDB
  8
0
  6
BYBLOCK
 62
     0
 10
5705.3831150000024
 20
8369.7285880000054
 30
0.0
 40
15.0
 50
90.0
 51
270.0
  0
ARC
  5
4CDC
  8
0
  6
BYBLOCK
 62
     0
 10
6795.383511
 20
4512.7289179999989
 30
0.0
 40
15.0
 50
0.0
 51
180.0
  0
ARC
  5
4CDD
  8
0
  6
BYBLOCK
 62
     0
 10
6795.383511
 20
4512.7289179999989
 30
0.0
 40
15.0
 50
180.0
 51
0.0
  0
ARC
  5
4CDE
  8
0
  6
BYBLOCK
 62
     0
 10
13066.883511
 20
4512.7289179999989
 30
0.0
 40
15.0
 50
180.0
 51
0.0
  0
ARC
  5
4CDF
  8
0
  6
BYBLOCK
 62
     0
 10
13066.883511
 20
4512.7289179999989
 30
0.0
 40
15.0
 50
0.0
 51
180.0
  0
ARC
  5
4CE0
  8
0
  6
BYBLOCK
 62
     0
 10
13024.383511
 20
4912.7287530000031
 30
0.0
 40
15.0
 50
180.0
 51
0.0
  0
ARC
  5
4CE1
  8
0
  6
BYBLOCK
 62
     0
 10
13024.383511
 20
4912.7287530000031
 30
0.0
 40
15.0
 50
0.0
 51
180.0
  0
ARC
  5
4CE2
  8
0
  6
BYBLOCK
 62
     0
 10
13066.883511
 20
4912.7287530000031
 30
0.0
 40
15.0
 50
0.0
 51
180.0
  0
ARC
  5
4CE3
  8
0
  6
BYBLOCK
 62
     0
 10
13066.883511
 20
4912.7287530000031
 30
0.0
 40
15.0
 50
180.0
 51
0.0
  0
ARC
  5
4CE4
  8
0
  6
BYBLOCK
 62
     0
 10
6837.883511
 20
4912.7287530000031
 30
0.0
 40
15.0
 50
0.0
 51
180.0
  0
ARC
  5
4CE5
  8
0
  6
BYBLOCK
 62
     0
 10
6837.883511
 20
4912.7287530000031
 30
0.0
 40
15.0
 50
180.0
 51
0.0
  0
ARC
  5
4CE6
  8
0
  6
BYBLOCK
 62
     0
 10
6795.383511
 20
4912.7287530000031
 30
0.0
 40
15.0
 50
180.0
 51
0.0
  0
ARC
  5
4CE7
  8
0
  6
BYBLOCK
 62
     0
 10
6795.383511
 20
4912.7287530000031
 30
0.0
 40
15.0
 50
0.0
 51
180.0
  0
ARC
  5
4CE8
  8
0
  6
BYBLOCK
 62
     0
 10
9755.883511
 20
4912.7287530000031
 30
0.0
 40
15.0
 50
180.0
 51
0.0
  0
ARC
  5
4CE9
  8
0
  6
BYBLOCK
 62
     0
 10
9755.883511
 20
4912.7287530000031
 30
0.0
 40
15.0
 50
0.0
 51
180.0
  0
ARC
  5
4CEA
  8
0
  6
BYBLOCK
 62
     0
 10
6837.883511
 20
4912.7287530000031
 30
0.0
 40
15.0
 50
0.0
 51
180.0
  0
ARC
  5
4CEB
  8
0
  6
BYBLOCK
 62
     0
 10
6837.883511
 20
4912.7287530000031
 30
0.0
 40
15.0
 50
180.0
 51
0.0
  0
ARC
  5
4CEC
  8
0
  6
BYBLOCK
 62
     0
 10
9755.883511
 20
4912.7287530000031
 30
0.0
 40
15.0
 50
0.0
 51
180.0
  0
ARC
  5
4CED
  8
0
  6
BYBLOCK
 62
     0
 10
9755.883511
 20
4912.7287530000031
 30
0.0
 40
15.0
 50
180.0
 51
0.0
  0
ARC
  5
4CEE
  8
0
  6
BYBLOCK
 62
     0
 10
13024.383511
 20
4912.7287530000031
 30
0.0
 40
15.0
 50
180.0
 51
0.0
  0
ARC
  5
4CEF
  8
0
  6
BYBLOCK
 62
     0
 10
13024.383511
 20
4912.7287530000031
 30
0.0
 40
15.0
 50
0.0
 51
180.0
  0
ARC
  5
4CF0
  8
0
  6
BYBLOCK
 62
     0
 10
26263.676123999961
 20
12822.368360999981
 30
0.0
 40
15.0
 50
0.0
 51
180.0
  0
ARC
  5
4CF1
  8
0
  6
BYBLOCK
 62
     0
 10
26263.676123999961
 20
12822.368360999981
 30
0.0
 40
15.0
 50
180.0
 51
0.0
  0
ARC
  5
4CF2
  8
0
  6
BYBLOCK
 62
     0
 10
26221.17388099997
 20
12822.368360999981
 30
0.0
 40
15.0
 50
180.0
 51
0.0
  0
ARC
  5
4CF3
  8
0
  6
BYBLOCK
 62
     0
 10
26221.17388099997
 20
12822.368360999981
 30
0.0
 40
15.0
 50
0.0
 51
180.0
  0
ARC
  5
4CF4
  8
0
  6
BYBLOCK
 62
     0
 10
17226.670844999979
 20
12822.368360999981
 30
0.0
 40
15.0
 50
180.0
 51
0.0
  0
ARC
  5
4CF5
  8
0
  6
BYBLOCK
 62
     0
 10
17226.670844999979
 20
12822.368360999981
 30
0.0
 40
15.0
 50
0.0
 51
180.0
  0
ARC
  5
4CF6
  8
0
  6
BYBLOCK
 62
     0
 10
17269.173087999981
 20
12822.368360999981
 30
0.0
 40
15.0
 50
0.0
 51
180.0
  0
ARC
  5
4CF7
  8
0
  6
BYBLOCK
 62
     0
 10
17269.173087999981
 20
12822.368360999981
 30
0.0
 40
15.0
 50
180.0
 51
0.0
  0
ARC
  5
4CF8
  8
0
  6
BYBLOCK
 62
     0
 10
17226.670844999979
 20
12422.368360999981
 30
0.0
 40
15.0
 50
0.0
 51
180.0
  0
ARC
  5
4CF9
  8
0
  6
BYBLOCK
 62
     0
 10
17226.670844999979
 20
12422.368360999981
 30
0.0
 40
15.0
 50
180.0
 51
0.0
  0
ARC
  5
4CFA
  8
0
  6
BYBLOCK
 62
     0
 10
26263.676123999961
 20
12422.368360999981
 30
0.0
 40
15.0
 50
180.0
 51
0.0
  0
ARC
  5
4CFB
  8
0
  6
BYBLOCK
 62
     0
 10
26263.676123999961
 20
12422.368360999981
 30
0.0
 40
15.0
 50
0.0
 51
180.0
  0
ARC
  5
4CFC
  8
0
  6
BYBLOCK
 62
     0
 10
27356.175727999958
 20
14201.31644499998
 30
0.0
 40
15.0
 50
270.0
 51
90.0
  0
ARC
  5
4CFD
  8
0
  6
BYBLOCK
 62
     0
 10
27356.175727999958
 20
14201.31644499998
 30
0.0
 40
15.0
 50
90.0
 51
270.0
  0
ARC
  5
4CFE
  8
0
  6
BYBLOCK
 62
     0
 10
27356.175727999958
 20
13793.81644499998
 30
0.0
 40
15.0
 50
90.0
 51
270.0
  0
ARC
  5
4CFF
  8
0
  6
BYBLOCK
 62
     0
 10
27356.175727999958
 20
13793.81644499998
 30
0.0
 40
15.0
 50
270.0
 51
90.0
  0
ARC
  5
4D00
  8
0
  6
BYBLOCK
 62
     0
 10
27356.175727999958
 20
14902.31644499998
 30
0.0
 40
15.0
 50
270.0
 51
90.0
  0
ARC
  5
4D01
  8
0
  6
BYBLOCK
 62
     0
 10
27356.175727999958
 20
14902.31644499998
 30
0.0
 40
15.0
 50
90.0
 51
270.0
  0
ARC
  5
4D02
  8
0
  6
BYBLOCK
 62
     0
 10
27356.175727999958
 20
14201.31644499998
 30
0.0
 40
15.0
 50
90.0
 51
270.0
  0
ARC
  5
4D03
  8
0
  6
BYBLOCK
 62
     0
 10
27356.175727999958
 20
14201.31644499998
 30
0.0
 40
15.0
 50
270.0
 51
90.0
  0
ARC
  5
4D04
  8
0
  6
BYBLOCK
 62
     0
 10
27356.175727999958
 20
15603.556956500001
 30
0.0
 40
15.0
 50
270.0
 51
90.0
  0
ARC
  5
4D05
  8
0
  6
BYBLOCK
 62
     0
 10
27356.175727999958
 20
15603.556956500001
 30
0.0
 40
15.0
 50
90.0
 51
270.0
  0
ARC
  5
4D06
  8
0
  6
BYBLOCK
 62
     0
 10
27356.175727999958
 20
14902.31644499998
 30
0.0
 40
15.0
 50
90.0
 51
270.0
  0
ARC
  5
4D07
  8
0
  6
BYBLOCK
 62
     0
 10
27356.175727999958
 20
14902.31644499998
 30
0.0
 40
15.0
 50
270.0
 51
90.0
  0
ARC
  5
4D08
  8
0
  6
BYBLOCK
 62
     0
 10
27356.175727999958
 20
16304.31644499998
 30
0.0
 40
15.0
 50
270.0
 51
90.0
  0
ARC
  5
4D09
  8
0
  6
BYBLOCK
 62
     0
 10
27356.175727999958
 20
16304.31644499998
 30
0.0
 40
15.0
 50
90.0
 51
270.0
  0
ARC
  5
4D0A
  8
0
  6
BYBLOCK
 62
     0
 10
27356.175727999958
 20
15603.556956500001
 30
0.0
 40
15.0
 50
90.0
 51
270.0
  0
ARC
  5
4D0B
  8
0
  6
BYBLOCK
 62
     0
 10
27356.175727999958
 20
15603.556956500001
 30
0.0
 40
15.0
 50
270.0
 51
90.0
  0
ARC
  5
4D0C
  8
0
  6
BYBLOCK
 62
     0
 10
27356.175727999958
 20
17062.316444999979
 30
0.0
 40
15.0
 50
270.0
 51
90.0
  0
ARC
  5
4D0D
  8
0
  6
BYBLOCK
 62
     0
 10
27356.175727999958
 20
17062.316444999979
 30
0.0
 40
15.0
 50
90.0
 51
270.0
  0
ARC
  5
4D0E
  8
0
  6
BYBLOCK
 62
     0
 10
27356.175727999958
 20
16304.31644499998
 30
0.0
 40
15.0
 50
90.0
 51
270.0
  0
ARC
  5
4D0F
  8
0
  6
BYBLOCK
 62
     0
 10
27356.175727999958
 20
16304.31644499998
 30
0.0
 40
15.0
 50
270.0
 51
90.0
  0
ARC
  5
4D10
  8
0
  6
BYBLOCK
 62
     0
 10
27356.175727999958
 20
17820.316444999979
 30
0.0
 40
15.0
 50
270.0
 51
90.0
  0
ARC
  5
4D11
  8
0
  6
BYBLOCK
 62
     0
 10
27356.175727999958
 20
17820.316444999979
 30
0.0
 40
15.0
 50
90.0
 51
270.0
  0
ARC
  5
4D12
  8
0
  6
BYBLOCK
 62
     0
 10
27356.175727999958
 20
17062.316444999979
 30
0.0
 40
15.0
 50
90.0
 51
270.0
  0
ARC
  5
4D13
  8
0
  6
BYBLOCK
 62
     0
 10
27356.175727999958
 20
17062.316444999979
 30
0.0
 40
15.0
 50
270.0
 51
90.0
  0
ARC
  5
4D14
  8
0
  6
BYBLOCK
 62
     0
 10
27356.175727999958
 20
18521.31644499996
 30
0.0
 40
15.0
 50
270.0
 51
90.0
  0
ARC
  5
4D15
  8
0
  6
BYBLOCK
 62
     0
 10
27356.175727999958
 20
18521.31644499996
 30
0.0
 40
15.0
 50
90.0
 51
270.0
  0
ARC
  5
4D16
  8
0
  6
BYBLOCK
 62
     0
 10
27356.175727999958
 20
17820.316444999979
 30
0.0
 40
15.0
 50
90.0
 51
270.0
  0
ARC
  5
4D17
  8
0
  6
BYBLOCK
 62
     0
 10
27356.175727999958
 20
17820.316444999979
 30
0.0
 40
15.0
 50
270.0
 51
90.0
  0
ARC
  5
4D18
  8
0
  6
BYBLOCK
 62
     0
 10
27356.175727999958
 20
19222.31644499996
 30
0.0
 40
15.0
 50
270.0
 51
90.0
  0
ARC
  5
4D19
  8
0
  6
BYBLOCK
 62
     0
 10
27356.175727999958
 20
19222.31644499996
 30
0.0
 40
15.0
 50
90.0
 51
270.0
  0
ARC
  5
4D1A
  8
0
  6
BYBLOCK
 62
     0
 10
27356.175727999958
 20
18521.31644499996
 30
0.0
 40
15.0
 50
90.0
 51
270.0
  0
ARC
  5
4D1B
  8
0
  6
BYBLOCK
 62
     0
 10
27356.175727999958
 20
18521.31644499996
 30
0.0
 40
15.0
 50
270.0
 51
90.0
  0
ARC
  5
4D1C
  8
0
  6
BYBLOCK
 62
     0
 10
27356.175727999958
 20
19980.316444999949
 30
0.0
 40
15.0
 50
270.0
 51
90.0
  0
ARC
  5
4D1D
  8
0
  6
BYBLOCK
 62
     0
 10
27356.175727999958
 20
19980.316444999949
 30
0.0
 40
15.0
 50
90.0
 51
270.0
  0
ARC
  5
4D1E
  8
0
  6
BYBLOCK
 62
     0
 10
27356.175727999958
 20
19222.31644499996
 30
0.0
 40
15.0
 50
90.0
 51
270.0
  0
ARC
  5
4D1F
  8
0
  6
BYBLOCK
 62
     0
 10
27356.175727999958
 20
19222.31644499996
 30
0.0
 40
15.0
 50
270.0
 51
90.0
  0
ARC
  5
4D20
  8
0
  6
BYBLOCK
 62
     0
 10
27756.175727999958
 20
17062.316444999979
 30
0.0
 40
15.0
 50
90.0
 51
270.0
  0
ARC
  5
4D21
  8
0
  6
BYBLOCK
 62
     0
 10
27756.175727999958
 20
17062.316444999979
 30
0.0
 40
15.0
 50
270.0
 51
90.0
  0
ARC
  5
4D22
  8
0
  6
BYBLOCK
 62
     0
 10
27756.175727999958
 20
19980.316444999949
 30
0.0
 40
15.0
 50
270.0
 51
90.0
  0
ARC
  5
4D23
  8
0
  6
BYBLOCK
 62
     0
 10
27756.175727999958
 20
19980.316444999949
 30
0.0
 40
15.0
 50
90.0
 51
270.0
  0
ARC
  5
4D24
  8
0
  6
BYBLOCK
 62
     0
 10
27756.175727999958
 20
13793.81644499998
 30
0.0
 40
15.0
 50
90.0
 51
270.0
  0
ARC
  5
4D25
  8
0
  6
BYBLOCK
 62
     0
 10
27756.175727999958
 20
13793.81644499998
 30
0.0
 40
15.0
 50
270.0
 51
90.0
  0
ARC
  5
4D26
  8
0
  6
BYBLOCK
 62
     0
 10
27756.175727999958
 20
17062.316444999979
 30
0.0
 40
15.0
 50
270.0
 51
90.0
  0
ARC
  5
4D27
  8
0
  6
BYBLOCK
 62
     0
 10
27756.175727999958
 20
17062.316444999979
 30
0.0
 40
15.0
 50
90.0
 51
270.0
  0
ARC
  5
4D28
  8
0
  6
BYBLOCK
 62
     0
 10
28156.175727999958
 20
20022.81373999998
 30
0.0
 40
15.0
 50
270.0
 51
90.0
  0
ARC
  5
4D29
  8
0
  6
BYBLOCK
 62
     0
 10
28156.175727999958
 20
20022.81373999998
 30
0.0
 40
15.0
 50
90.0
 51
270.0
  0
ARC
  5
4D2A
  8
0
  6
BYBLOCK
 62
     0
 10
28156.175727999958
 20
13751.319149999979
 30
0.0
 40
15.0
 50
90.0
 51
270.0
  0
ARC
  5
4D2B
  8
0
  6
BYBLOCK
 62
     0
 10
28156.175727999958
 20
13751.319149999979
 30
0.0
 40
15.0
 50
270.0
 51
90.0
  0
ARC
  5
4D2C
  8
0
  6
BYBLOCK
 62
     0
 10
27756.175727999958
 20
19980.316444999949
 30
0.0
 40
15.0
 50
270.0
 51
90.0
  0
ARC
  5
4D2D
  8
0
  6
BYBLOCK
 62
     0
 10
27756.175727999958
 20
19980.316444999949
 30
0.0
 40
15.0
 50
90.0
 51
270.0
  0
ARC
  5
4D2E
  8
0
  6
BYBLOCK
 62
     0
 10
27756.175727999958
 20
20022.81373999998
 30
0.0
 40
15.0
 50
90.0
 51
270.0
  0
ARC
  5
4D2F
  8
0
  6
BYBLOCK
 62
     0
 10
27756.175727999958
 20
20022.81373999998
 30
0.0
 40
15.0
 50
270.0
 51
90.0
  0
ARC
  5
4D30
  8
0
  6
BYBLOCK
 62
     0
 10
27756.175727999958
 20
13793.81644499998
 30
0.0
 40
15.0
 50
90.0
 51
270.0
  0
ARC
  5
4D31
  8
0
  6
BYBLOCK
 62
     0
 10
27756.175727999958
 20
13793.81644499998
 30
0.0
 40
15.0
 50
270.0
 51
90.0
  0
ARC
  5
4D32
  8
0
  6
BYBLOCK
 62
     0
 10
27756.175727999958
 20
13751.319149999979
 30
0.0
 40
15.0
 50
270.0
 51
90.0
  0
ARC
  5
4D33
  8
0
  6
BYBLOCK
 62
     0
 10
27756.175727999958
 20
13751.319149999979
 30
0.0
 40
15.0
 50
90.0
 51
270.0
  0
ARC
  5
4D34
  8
0
  6
BYBLOCK
 62
     0
 10
20495.171834500001
 20
20752.817632999999
 30
0.0
 40
15.0
 50
0.0
 51
180.0
  0
ARC
  5
4D35
  8
0
  6
BYBLOCK
 62
     0
 10
20495.171834500001
 20
20752.817632999999
 30
0.0
 40
15.0
 50
180.0
 51
0.0
  0
ARC
  5
4D36
  8
0
  6
BYBLOCK
 62
     0
 10
22995.176123999961
 20
20752.817632999999
 30
0.0
 40
15.0
 50
180.0
 51
0.0
  0
ARC
  5
4D37
  8
0
  6
BYBLOCK
 62
     0
 10
22995.176123999961
 20
20752.817632999999
 30
0.0
 40
15.0
 50
0.0
 51
180.0
  0
ARC
  5
4D38
  8
0
  6
BYBLOCK
 62
     0
 10
22995.176123999961
 20
20752.817632999999
 30
0.0
 40
15.0
 50
0.0
 51
180.0
  0
ARC
  5
4D39
  8
0
  6
BYBLOCK
 62
     0
 10
22995.176123999961
 20
20752.817632999999
 30
0.0
 40
15.0
 50
180.0
 51
0.0
  0
ARC
  5
4D3A
  8
0
  6
BYBLOCK
 62
     0
 10
23402.676123999961
 20
20752.817632999999
 30
0.0
 40
15.0
 50
180.0
 51
0.0
  0
ARC
  5
4D3B
  8
0
  6
BYBLOCK
 62
     0
 10
23402.676123999961
 20
20752.817632999999
 30
0.0
 40
15.0
 50
0.0
 51
180.0
  0
ARC
  5
4D3C
  8
0
  6
BYBLOCK
 62
     0
 10
25505.676123999961
 20
20752.817632999999
 30
0.0
 40
15.0
 50
0.0
 51
180.0
  0
ARC
  5
4D3D
  8
0
  6
BYBLOCK
 62
     0
 10
25505.676123999961
 20
20752.817632999999
 30
0.0
 40
15.0
 50
180.0
 51
0.0
  0
ARC
  5
4D3E
  8
0
  6
BYBLOCK
 62
     0
 10
26263.67711349998
 20
20752.817632999999
 30
0.0
 40
15.0
 50
180.0
 51
0.0
  0
ARC
  5
4D3F
  8
0
  6
BYBLOCK
 62
     0
 10
26263.67711349998
 20
20752.817632999999
 30
0.0
 40
15.0
 50
0.0
 51
180.0
  0
ARC
  5
4D40
  8
0
  6
BYBLOCK
 62
     0
 10
24804.676123999961
 20
20752.817632999999
 30
0.0
 40
15.0
 50
0.0
 51
180.0
  0
ARC
  5
4D41
  8
0
  6
BYBLOCK
 62
     0
 10
24804.676123999961
 20
20752.817632999999
 30
0.0
 40
15.0
 50
180.0
 51
0.0
  0
ARC
  5
4D42
  8
0
  6
BYBLOCK
 62
     0
 10
25505.676123999961
 20
20752.817632999999
 30
0.0
 40
15.0
 50
180.0
 51
0.0
  0
ARC
  5
4D43
  8
0
  6
BYBLOCK
 62
     0
 10
25505.676123999961
 20
20752.817632999999
 30
0.0
 40
15.0
 50
0.0
 51
180.0
  0
ARC
  5
4D44
  8
0
  6
BYBLOCK
 62
     0
 10
24103.676123999961
 20
20752.817632999999
 30
0.0
 40
15.0
 50
0.0
 51
180.0
  0
ARC
  5
4D45
  8
0
  6
BYBLOCK
 62
     0
 10
24103.676123999961
 20
20752.817632999999
 30
0.0
 40
15.0
 50
180.0
 51
0.0
  0
ARC
  5
4D46
  8
0
  6
BYBLOCK
 62
     0
 10
24804.676123999961
 20
20752.817632999999
 30
0.0
 40
15.0
 50
180.0
 51
0.0
  0
ARC
  5
4D47
  8
0
  6
BYBLOCK
 62
     0
 10
24804.676123999961
 20
20752.817632999999
 30
0.0
 40
15.0
 50
0.0
 51
180.0
  0
ARC
  5
4D48
  8
0
  6
BYBLOCK
 62
     0
 10
23402.676123999961
 20
20752.817632999999
 30
0.0
 40
15.0
 50
0.0
 51
180.0
  0
ARC
  5
4D49
  8
0
  6
BYBLOCK
 62
     0
 10
23402.676123999961
 20
20752.817632999999
 30
0.0
 40
15.0
 50
180.0
 51
0.0
  0
ARC
  5
4D4A
  8
0
  6
BYBLOCK
 62
     0
 10
24103.676123999961
 20
20752.817632999999
 30
0.0
 40
15.0
 50
180.0
 51
0.0
  0
ARC
  5
4D4B
  8
0
  6
BYBLOCK
 62
     0
 10
24103.676123999961
 20
20752.817632999999
 30
0.0
 40
15.0
 50
0.0
 51
180.0
  0
ARC
  5
4D4C
  8
0
  6
BYBLOCK
 62
     0
 10
26263.676123999961
 20
20752.817632999999
 30
0.0
 40
15.0
 50
180.0
 51
0.0
  0
ARC
  5
4D4D
  8
0
  6
BYBLOCK
 62
     0
 10
26263.676123999961
 20
20752.817632999999
 30
0.0
 40
15.0
 50
0.0
 51
180.0
  0
ARC
  5
4D4E
  8
0
  6
BYBLOCK
 62
     0
 10
26306.172428999958
 20
20752.817632999999
 30
0.0
 40
15.0
 50
0.0
 51
180.0
  0
ARC
  5
4D4F
  8
0
  6
BYBLOCK
 62
     0
 10
26306.172428999958
 20
20752.817632999999
 30
0.0
 40
15.0
 50
180.0
 51
0.0
  0
ARC
  5
4D50
  8
0
  6
BYBLOCK
 62
     0
 10
17226.670844999979
 20
20752.817632999999
 30
0.0
 40
15.0
 50
0.0
 51
180.0
  0
ARC
  5
4D51
  8
0
  6
BYBLOCK
 62
     0
 10
17226.670844999979
 20
20752.817632999999
 30
0.0
 40
15.0
 50
180.0
 51
0.0
  0
ARC
  5
4D52
  8
0
  6
BYBLOCK
 62
     0
 10
17634.17084499999
 20
20752.817632999999
 30
0.0
 40
15.0
 50
180.0
 51
0.0
  0
ARC
  5
4D53
  8
0
  6
BYBLOCK
 62
     0
 10
17634.17084499999
 20
20752.817632999999
 30
0.0
 40
15.0
 50
0.0
 51
180.0
  0
ARC
  5
4D54
  8
0
  6
BYBLOCK
 62
     0
 10
17226.670844999979
 20
20752.817632999999
 30
0.0
 40
15.0
 50
0.0
 51
180.0
  0
ARC
  5
4D55
  8
0
  6
BYBLOCK
 62
     0
 10
17226.670844999979
 20
20752.817632999999
 30
0.0
 40
15.0
 50
180.0
 51
0.0
  0
ARC
  5
4D56
  8
0
  6
BYBLOCK
 62
     0
 10
17184.174539999989
 20
20752.817632999999
 30
0.0
 40
15.0
 50
180.0
 51
0.0
  0
ARC
  5
4D57
  8
0
  6
BYBLOCK
 62
     0
 10
17184.174539999989
 20
20752.817632999999
 30
0.0
 40
15.0
 50
0.0
 51
180.0
  0
ARC
  5
4D58
  8
0
  6
BYBLOCK
 62
     0
 10
19737.17084499999
 20
20752.817632999999
 30
0.0
 40
15.0
 50
0.0
 51
180.0
  0
ARC
  5
4D59
  8
0
  6
BYBLOCK
 62
     0
 10
19737.17084499999
 20
20752.817632999999
 30
0.0
 40
15.0
 50
180.0
 51
0.0
  0
ARC
  5
4D5A
  8
0
  6
BYBLOCK
 62
     0
 10
20495.171834500001
 20
20752.817632999999
 30
0.0
 40
15.0
 50
180.0
 51
0.0
  0
ARC
  5
4D5B
  8
0
  6
BYBLOCK
 62
     0
 10
20495.171834500001
 20
20752.817632999999
 30
0.0
 40
15.0
 50
0.0
 51
180.0
  0
ARC
  5
4D5C
  8
0
  6
BYBLOCK
 62
     0
 10
19036.17084499999
 20
20752.817632999999
 30
0.0
 40
15.0
 50
0.0
 51
180.0
  0
ARC
  5
4D5D
  8
0
  6
BYBLOCK
 62
     0
 10
19036.17084499999
 20
20752.817632999999
 30
0.0
 40
15.0
 50
180.0
 51
0.0
  0
ARC
  5
4D5E
  8
0
  6
BYBLOCK
 62
     0
 10
19737.17084499999
 20
20752.817632999999
 30
0.0
 40
15.0
 50
180.0
 51
0.0
  0
ARC
  5
4D5F
  8
0
  6
BYBLOCK
 62
     0
 10
19737.17084499999
 20
20752.817632999999
 30
0.0
 40
15.0
 50
0.0
 51
180.0
  0
ARC
  5
4D60
  8
0
  6
BYBLOCK
 62
     0
 10
18335.170844999979
 20
20752.817632999999
 30
0.0
 40
15.0
 50
0.0
 51
180.0
  0
ARC
  5
4D61
  8
0
  6
BYBLOCK
 62
     0
 10
18335.170844999979
 20
20752.817632999999
 30
0.0
 40
15.0
 50
180.0
 51
0.0
  0
ARC
  5
4D62
  8
0
  6
BYBLOCK
 62
     0
 10
19036.17084499999
 20
20752.817632999999
 30
0.0
 40
15.0
 50
180.0
 51
0.0
  0
ARC
  5
4D63
  8
0
  6
BYBLOCK
 62
     0
 10
19036.17084499999
 20
20752.817632999999
 30
0.0
 40
15.0
 50
0.0
 51
180.0
  0
ARC
  5
4D64
  8
0
  6
BYBLOCK
 62
     0
 10
17634.17084499999
 20
20752.817632999999
 30
0.0
 40
15.0
 50
0.0
 51
180.0
  0
ARC
  5
4D65
  8
0
  6
BYBLOCK
 62
     0
 10
17634.17084499999
 20
20752.817632999999
 30
0.0
 40
15.0
 50
180.0
 51
0.0
  0
ARC
  5
4D66
  8
0
  6
BYBLOCK
 62
     0
 10
18335.170844999979
 20
20752.817632999999
 30
0.0
 40
15.0
 50
180.0
 51
0.0
  0
ARC
  5
4D67
  8
0
  6
BYBLOCK
 62
     0
 10
18335.170844999979
 20
20752.817632999999
 30
0.0
 40
15.0
 50
0.0
 51
180.0
  0
ARC
  5
4D68
  8
0
  6
BYBLOCK
 62
     0
 10
16376.67150499998
 20
6212.7285879999972
 30
0.0
 40
15.0
 50
90.0
 51
270.0
  0
ARC
  5
4D69
  8
0
  6
BYBLOCK
 62
     0
 10
16376.67150499998
 20
6212.7285879999972
 30
0.0
 40
15.0
 50
270.0
 51
90.0
  0
ARC
  5
4D6A
  8
0
  6
BYBLOCK
 62
     0
 10
16376.67150499998
 20
8104.2285879999981
 30
0.0
 40
15.0
 50
270.0
 51
90.0
  0
ARC
  5
4D6B
  8
0
  6
BYBLOCK
 62
     0
 10
16376.67150499998
 20
8104.2285879999981
 30
0.0
 40
15.0
 50
90.0
 51
270.0
  0
ARC
  5
4D6C
  8
0
  6
BYBLOCK
 62
     0
 10
15976.66919599999
 20
6212.7285879999972
 30
0.0
 40
15.0
 50
90.0
 51
270.0
  0
ARC
  5
4D6D
  8
0
  6
BYBLOCK
 62
     0
 10
15976.66919599999
 20
6212.7285879999972
 30
0.0
 40
15.0
 50
270.0
 51
90.0
  0
ARC
  5
4D6E
  8
0
  6
BYBLOCK
 62
     0
 10
15976.66919599999
 20
8560.7285880000018
 30
0.0
 40
15.0
 50
270.0
 51
90.0
  0
ARC
  5
4D6F
  8
0
  6
BYBLOCK
 62
     0
 10
15976.66919599999
 20
8560.7285880000018
 30
0.0
 40
15.0
 50
90.0
 51
270.0
  0
ARC
  5
4D80
  8
0
  6
BYBLOCK
 62
     0
 10
17320.670844999979
 20
5312.7287530000031
 30
0.0
 40
15.0
 50
0.0
 51
180.0
  0
ARC
  5
4D81
  8
0
  6
BYBLOCK
 62
     0
 10
17320.670844999979
 20
5312.7287530000031
 30
0.0
 40
15.0
 50
180.0
 51
0.0
  0
ARC
  5
4D82
  8
0
  6
BYBLOCK
 62
     0
 10
20401.170844999979
 20
5312.7287530000031
 30
0.0
 40
15.0
 50
180.0
 51
0.0
  0
ARC
  5
4D83
  8
0
  6
BYBLOCK
 62
     0
 10
20401.170844999979
 20
5312.7287530000031
 30
0.0
 40
15.0
 50
0.0
 51
180.0
  0
ARC
  5
4D84
  8
0
  6
BYBLOCK
 62
     0
 10
23089.176123999961
 20
5312.7287530000031
 30
0.0
 40
15.0
 50
0.0
 51
180.0
  0
ARC
  5
4D85
  8
0
  6
BYBLOCK
 62
     0
 10
23089.176123999961
 20
5312.7287530000031
 30
0.0
 40
15.0
 50
180.0
 51
0.0
  0
ARC
  5
4D86
  8
0
  6
BYBLOCK
 62
     0
 10
26169.676123999961
 20
5312.7287530000031
 30
0.0
 40
15.0
 50
180.0
 51
0.0
  0
ARC
  5
4D87
  8
0
  6
BYBLOCK
 62
     0
 10
26169.676123999961
 20
5312.7287530000031
 30
0.0
 40
15.0
 50
0.0
 51
180.0
  0
ARC
  5
4D88
  8
0
  6
BYBLOCK
 62
     0
 10
22995.176123999961
 20
4912.7287530000031
 30
0.0
 40
15.0
 50
0.0
 51
180.0
  0
ARC
  5
4D89
  8
0
  6
BYBLOCK
 62
     0
 10
22995.176123999961
 20
4912.7287530000031
 30
0.0
 40
15.0
 50
180.0
 51
0.0
  0
ARC
  5
4D8A
  8
0
  6
BYBLOCK
 62
     0
 10
26263.676123999961
 20
4912.7287530000031
 30
0.0
 40
15.0
 50
180.0
 51
0.0
  0
ARC
  5
4D8B
  8
0
  6
BYBLOCK
 62
     0
 10
26263.676123999961
 20
4912.7287530000031
 30
0.0
 40
15.0
 50
0.0
 51
180.0
  0
ARC
  5
4D8C
  8
0
  6
BYBLOCK
 62
     0
 10
20495.17084499999
 20
4912.7287530000031
 30
0.0
 40
15.0
 50
0.0
 51
180.0
  0
ARC
  5
4D8D
  8
0
  6
BYBLOCK
 62
     0
 10
20495.17084499999
 20
4912.7287530000031
 30
0.0
 40
15.0
 50
180.0
 51
0.0
  0
ARC
  5
4D8E
  8
0
  6
BYBLOCK
 62
     0
 10
22995.176123999961
 20
4912.7287530000031
 30
0.0
 40
15.0
 50
180.0
 51
0.0
  0
ARC
  5
4D8F
  8
0
  6
BYBLOCK
 62
     0
 10
22995.176123999961
 20
4912.7287530000031
 30
0.0
 40
15.0
 50
0.0
 51
180.0
  0
ARC
  5
4D90
  8
0
  6
BYBLOCK
 62
     0
 10
17226.670844999979
 20
4912.7287530000031
 30
0.0
 40
15.0
 50
0.0
 51
180.0
  0
ARC
  5
4D91
  8
0
  6
BYBLOCK
 62
     0
 10
17226.670844999979
 20
4912.7287530000031
 30
0.0
 40
15.0
 50
180.0
 51
0.0
  0
ARC
  5
4D92
  8
0
  6
BYBLOCK
 62
     0
 10
20495.17084499999
 20
4912.7287530000031
 30
0.0
 40
15.0
 50
180.0
 51
0.0
  0
ARC
  5
4D93
  8
0
  6
BYBLOCK
 62
     0
 10
20495.17084499999
 20
4912.7287530000031
 30
0.0
 40
15.0
 50
0.0
 51
180.0
  0
ARC
  5
4D94
  8
0
  6
BYBLOCK
 62
     0
 10
26263.680082999981
 20
4912.7287530000031
 30
0.0
 40
15.0
 50
180.0
 51
0.0
  0
ARC
  5
4D95
  8
0
  6
BYBLOCK
 62
     0
 10
26263.680082999981
 20
4912.7287530000031
 30
0.0
 40
15.0
 50
0.0
 51
180.0
  0
ARC
  5
4D96
  8
0
  6
BYBLOCK
 62
     0
 10
26306.180082999981
 20
4912.7287530000031
 30
0.0
 40
15.0
 50
0.0
 51
180.0
  0
ARC
  5
4D97
  8
0
  6
BYBLOCK
 62
     0
 10
26306.180082999981
 20
4912.7287530000031
 30
0.0
 40
15.0
 50
180.0
 51
0.0
  0
ARC
  5
4D98
  8
0
  6
BYBLOCK
 62
     0
 10
17226.670844999979
 20
4912.7287530000031
 30
0.0
 40
15.0
 50
0.0
 51
180.0
  0
ARC
  5
4D99
  8
0
  6
BYBLOCK
 62
     0
 10
17226.670844999979
 20
4912.7287530000031
 30
0.0
 40
15.0
 50
180.0
 51
0.0
  0
ARC
  5
4D9A
  8
0
  6
BYBLOCK
 62
     0
 10
17184.17084499999
 20
4912.7287530000031
 30
0.0
 40
15.0
 50
180.0
 51
0.0
  0
ARC
  5
4D9B
  8
0
  6
BYBLOCK
 62
     0
 10
17184.17084499999
 20
4912.7287530000031
 30
0.0
 40
15.0
 50
0.0
 51
180.0
  0
ARC
  5
4D9C
  8
0
  6
BYBLOCK
 62
     0
 10
17184.17084499999
 20
4512.7289179999989
 30
0.0
 40
15.0
 50
0.0
 51
180.0
  0
ARC
  5
4D9D
  8
0
  6
BYBLOCK
 62
     0
 10
17184.17084499999
 20
4512.7289179999989
 30
0.0
 40
15.0
 50
180.0
 51
0.0
  0
ARC
  5
4D9E
  8
0
  6
BYBLOCK
 62
     0
 10
26306.176123999961
 20
4512.7289179999989
 30
0.0
 40
15.0
 50
180.0
 51
0.0
  0
ARC
  5
4D9F
  8
0
  6
BYBLOCK
 62
     0
 10
26306.176123999961
 20
4512.7289179999989
 30
0.0
 40
15.0
 50
0.0
 51
180.0
  0
LINE
  5
4DA0
  8
2-0
  6
CONTINUOUS
 62
     6
 10
20456.235693999959
 20
19170.678511999991
 30
0.0
 11
20179.64548099996
 21
18715.333811999979
 31
0.0
  0
LINE
  5
4DA1
  8
2-0
  6
CONTINUOUS
 62
     6
 10
20395.95737399998
 20
19020.082676999999
 30
0.0
 11
20456.235693999959
 21
19170.678511999991
 31
0.0
  0
LINE
  5
4DA2
  8
2-0
  6
CONTINUOUS
 62
     6
 10
20456.235693999959
 20
19170.678511999991
 30
0.0
 11
20350.376978999971
 21
19047.770203999971
 31
0.0
  0
LINE
  5
4DA3
  8
2-0
  6
CONTINUOUS
 62
     6
 10
20395.95737399998
 20
19020.082676999999
 30
0.0
 11
20350.376978999971
 21
19047.770203999971
 31
0.0
  0
LINE
  5
4DA4
  8
2-0
  6
CONTINUOUS
 62
     6
 10
20350.376978999971
 20
19047.770203999971
 30
0.0
 11
20456.235693999959
 21
19170.678511999991
 31
0.0
  0
LINE
  5
4DA5
  8
2-0
  6
CONTINUOUS
 62
     6
 10
20456.235693999959
 20
19170.678511999991
 30
0.0
 11
20395.95737399998
 21
19020.082676999999
 31
0.0
  0
LINE
  5
4DA6
  8
2-0
  6
CONTINUOUS
 62
     6
 10
20395.95737399998
 20
19020.082676999999
 30
0.0
 11
20456.235693999959
 21
19170.678511999991
 31
0.0
  0
LINE
  5
4DA7
  8
2-0
  6
CONTINUOUS
 62
     6
 10
20350.376978999971
 20
19047.770203999971
 30
0.0
 11
20456.235693999959
 21
19170.678511999991
 31
0.0
  0
LINE
  5
4DA8
  8
2-0
  6
CONTINUOUS
 62
     6
 10
20350.376978999971
 20
19047.770203999971
 30
0.0
 11
20395.95737399998
 21
19020.082676999999
 31
0.0
  0
LINE
  5
4E1F
  8
2-0
  6
CONTINUOUS
 62
     3
 10
22952.674869999981
 20
17019.819150499981
 30
0.0
 11
23037.675397999981
 21
17019.819150499981
 31
0.0
  0
LINE
  5
4E20
  8
2-0
  6
CONTINUOUS
 62
     3
 10
23037.675397999981
 20
17104.813739499969
 30
0.0
 11
22952.674869999981
 21
17104.813739499969
 31
0.0
  0
LINE
  5
4E21
  8
2-0
  6
CONTINUOUS
 62
     3
 10
22952.674869999981
 20
17104.813739499969
 30
0.0
 11
22952.674869999981
 21
17019.819150499981
 31
0.0
  0
LINE
  5
4E22
  8
2-0
  6
CONTINUOUS
 62
     3
 10
23037.675397999981
 20
17019.819150499981
 30
0.0
 11
23037.675397999981
 21
17104.813739499969
 31
0.0
  0
LINE
  5
4E23
  8
2-0
  6
CONTINUOUS
 62
     6
 10
24515.755456286472
 20
16267.716301499981
 30
0.0
 11
23485.4061372865
 21
16267.716301499981
 31
0.0
  0
LINE
  5
4E24
  8
2-0
  6
CONTINUOUS
 62
     6
 10
23034.10830500002
 20
17010.678511999991
 30
0.0
 11
23485.4061372865
 21
16267.716301499981
 31
0.0
  0
LINE
  5
4E25
  8
2-0
  6
CONTINUOUS
 62
     6
 10
23094.386624999999
 20
16860.082676999999
 30
0.0
 11
23034.10830500002
 21
17010.678511999991
 31
0.0
  0
LINE
  5
4E26
  8
2-0
  6
CONTINUOUS
 62
     6
 10
23034.10830500002
 20
17010.678511999991
 30
0.0
 11
23139.967020000018
 21
16887.770203999971
 31
0.0
  0
LINE
  5
4E27
  8
2-0
  6
CONTINUOUS
 62
     6
 10
23094.386624999999
 20
16860.082676999999
 30
0.0
 11
23139.967020000018
 21
16887.770203999971
 31
0.0
  0
LINE
  5
4E28
  8
2-0
  6
CONTINUOUS
 62
     6
 10
23139.967020000018
 20
16887.770203999971
 30
0.0
 11
23034.10830500002
 21
17010.678511999991
 31
0.0
  0
LINE
  5
4E29
  8
2-0
  6
CONTINUOUS
 62
     6
 10
23034.10830500002
 20
17010.678511999991
 30
0.0
 11
23094.386624999999
 21
16860.082676999999
 31
0.0
  0
LINE
  5
4E2A
  8
2-0
  6
CONTINUOUS
 62
     6
 10
23094.386624999999
 20
16860.082676999999
 30
0.0
 11
23034.10830500002
 21
17010.678511999991
 31
0.0
  0
LINE
  5
4E2B
  8
2-0
  6
CONTINUOUS
 62
     6
 10
23139.967020000018
 20
16887.770203999971
 30
0.0
 11
23034.10830500002
 21
17010.678511999991
 31
0.0
  0
LINE
  5
4E2C
  8
2-0
  6
CONTINUOUS
 62
     6
 10
23139.967020000018
 20
16887.770203999971
 30
0.0
 11
23094.386624999999
 21
16860.082676999999
 31
0.0
  0
TEXT
  5
4E2D
  8
2-0
  6
CONTINUOUS
 62
     7
 10
23548.721364619829
 20
16340.716988499969
 30
0.0
 40
160.0
  1
中柱（中）
 72
     4
 11
23970.054697953161
 21
16420.716988499971
 31
0.0
  0
LINE
  5
4F95
  8
0-1
  6
CONTINUOUS
 62
     3
 10
26200.17910599997
 20
8311.2286080000031
 30
0.0
 11
26200.17910599997
 21
8343.2285150000007
 31
0.0
  0
LINE
  5
4F96
  8
0-1
  6
CONTINUOUS
 62
     3
 10
26349.178498999961
 20
8235.0418860000027
 30
0.0
 11
26306.17638799996
 21
8235.0418860000027
 31
0.0
  0
LINE
  5
4F97
  8
0-1
  6
CONTINUOUS
 62
     3
 10
26349.178498999961
 20
8561.2289369999999
 30
0.0
 11
26349.178498999961
 21
8235.0418860000027
 31
0.0
  0
LINE
  5
4F98
  8
0-1
  6
CONTINUOUS
 62
     3
 10
25914.21191299997
 20
8307.6931870000008
 30
0.0
 11
25882.212995999958
 21
8339.6930949999969
 31
0.0
  0
LINE
  5
4F99
  8
0-1
  6
CONTINUOUS
 62
     3
 10
26195.178841999961
 20
8348.2287790000028
 30
0.0
 11
25885.748415999959
 21
8348.2287790000028
 31
0.0
  0
LINE
  5
4F9A
  8
0-1
  6
CONTINUOUS
 62
     3
 10
26200.17910599997
 20
8339.8296820000032
 30
0.0
 11
25882.08234699997
 21
8339.8296820000032
 31
0.0
  0
LINE
  5
4F9B
  8
0-1
  6
CONTINUOUS
 62
     3
 10
26195.178841999961
 20
8306.2283440000028
 30
0.0
 11
25917.74931299996
 21
8306.2283440000028
 31
0.0
  0
LINE
  5
4F9C
  8
0-1
  6
CONTINUOUS
 62
     3
 10
26200.17910599997
 20
8314.6284309999974
 30
0.0
 11
25907.27765999996
 21
8314.6284309999974
 31
0.0
  0
LINE
  5
4F9D
  8
0-1
  6
CONTINUOUS
 62
     3
 10
26200.17910599997
 20
8323.0285179999992
 30
0.0
 11
25898.878561999962
 21
8323.0285179999992
 31
0.0
  0
LINE
  5
4F9E
  8
0-1
  6
CONTINUOUS
 62
     3
 10
26200.17910599997
 20
8331.4295950000032
 30
0.0
 11
25890.47748599996
 21
8331.4295950000032
 31
0.0
  0
LINE
  5
4F9F
  8
0-1
  6
CONTINUOUS
 62
     3
 10
23344.64231399999
 20
8307.6931870000008
 30
0.0
 11
23376.63925199999
 21
8339.6930949999969
 31
0.0
  0
LINE
  5
4FA0
  8
0-1
  6
CONTINUOUS
 62
     3
 10
23058.677099999979
 20
8311.2286080000031
 30
0.0
 11
23058.677099999979
 21
8343.2285150000007
 31
0.0
  0
LINE
  5
4FA1
  8
0-1
  6
CONTINUOUS
 62
     3
 10
22931.675146999991
 20
8311.2286080000031
 30
0.0
 11
22931.675146999991
 21
8343.2285150000007
 31
0.0
  0
LINE
  5
4FA2
  8
0-1
  6
CONTINUOUS
 62
     3
 10
23058.677099999979
 20
8314.6284309999974
 30
0.0
 11
23351.574587999981
 21
8314.6284309999974
 31
0.0
  0
LINE
  5
4FA3
  8
0-1
  6
CONTINUOUS
 62
     3
 10
23058.677099999979
 20
8323.0285179999992
 30
0.0
 11
23359.975664999991
 21
8323.0285179999992
 31
0.0
  0
LINE
  5
4FA4
  8
0-1
  6
CONTINUOUS
 62
     3
 10
23063.677363999981
 20
8306.2283440000028
 30
0.0
 11
23341.104913999981
 21
8306.2283440000028
 31
0.0
  0
LINE
  5
4FA5
  8
0-1
  6
CONTINUOUS
 62
     3
 10
23058.677099999979
 20
8331.4295950000032
 30
0.0
 11
23368.374761999989
 21
8331.4295950000032
 31
0.0
  0
LINE
  5
4FA6
  8
0-1
  6
CONTINUOUS
 62
     3
 10
23058.677099999979
 20
8339.8296820000032
 30
0.0
 11
23376.771879999978
 21
8339.8296820000032
 31
0.0
  0
LINE
  5
4FA7
  8
0-1
  6
CONTINUOUS
 62
     3
 10
23063.677363999981
 20
8348.2287790000028
 30
0.0
 11
23373.105811000001
 21
8348.2287790000028
 31
0.0
  0
LINE
  5
4FA8
  8
0-1
  6
CONTINUOUS
 62
     3
 10
22645.709933999991
 20
8307.6931870000008
 30
0.0
 11
22613.71299599998
 21
8339.6930949999969
 31
0.0
  0
LINE
  5
4FA9
  8
0-1
  6
CONTINUOUS
 62
     3
 10
22926.67686299999
 20
8306.2283440000028
 30
0.0
 11
22649.245353999991
 21
8306.2283440000028
 31
0.0
  0
LINE
  5
4FAA
  8
0-1
  6
CONTINUOUS
 62
     3
 10
22926.67686299999
 20
8348.2287790000028
 30
0.0
 11
22617.246435999969
 21
8348.2287790000028
 31
0.0
  0
LINE
  5
4FAB
  8
0-1
  6
CONTINUOUS
 62
     3
 10
22931.675146999991
 20
8314.6284309999974
 30
0.0
 11
22638.777659999982
 21
8314.6284309999974
 31
0.0
  0
LINE
  5
4FAC
  8
0-1
  6
CONTINUOUS
 62
     3
 10
22931.675146999991
 20
8323.0285179999992
 30
0.0
 11
22630.376582999968
 21
8323.0285179999992
 31
0.0
  0
LINE
  5
4FAD
  8
0-1
  6
CONTINUOUS
 62
     3
 10
22931.675146999991
 20
8331.4295950000032
 30
0.0
 11
22621.977485999982
 21
8331.4295950000032
 31
0.0
  0
LINE
  5
4FAE
  8
0-1
  6
CONTINUOUS
 62
     3
 10
22931.675146999991
 20
8339.8296820000032
 30
0.0
 11
22613.582347999982
 21
8339.8296820000032
 31
0.0
  0
LINE
  5
4FAF
  8
0-1
  6
CONTINUOUS
 62
     3
 10
21904.28322899999
 20
8297.2284620000028
 30
0.0
 11
22952.677839999971
 21
8297.2284620000028
 31
0.0
  0
LINE
  5
4FB0
  8
0-1
  6
CONTINUOUS
 62
     3
 10
21904.28322899999
 20
8357.2286600000025
 30
0.0
 11
22952.677839999971
 21
8357.2286600000025
 31
0.0
  0
LINE
  5
4FB1
  8
0-1
  6
CONTINUOUS
 62
     3
 10
26349.178498999961
 20
8431.2280139999984
 30
0.0
 11
21904.28322899999
 21
8431.2280139999984
 31
0.0
  0
LINE
  5
4FB2
  8
0-1
  6
CONTINUOUS
 62
     3
 10
23037.674407999992
 20
8357.2286600000025
 30
0.0
 11
26221.17783899996
 21
8357.2286600000025
 31
0.0
  0
LINE
  5
4FB3
  8
0-1
  6
CONTINUOUS
 62
     3
 10
23037.674407999992
 20
8297.2284620000028
 30
0.0
 11
26221.17783899996
 21
8297.2284620000028
 31
0.0
  0
LINE
  5
4FB4
  8
0-1
  6
CONTINUOUS
 62
     3
 10
21904.28322899999
 20
8561.2289369999999
 30
0.0
 11
26349.178498999961
 21
8561.2289369999999
 31
0.0
  0
LINE
  5
4FB5
  8
0-1
  6
CONTINUOUS
 62
     3
 10
20558.671821999989
 20
8314.6284309999974
 30
0.0
 11
20851.573267999989
 21
8314.6284309999974
 31
0.0
  0
LINE
  5
4FB6
  8
0-1
  6
CONTINUOUS
 62
     3
 10
20558.671821999989
 20
8323.0285179999992
 30
0.0
 11
20859.97038599999
 21
8323.0285179999992
 31
0.0
  0
LINE
  5
4FB7
  8
0-1
  6
CONTINUOUS
 62
     3
 10
20563.67208599997
 20
8306.2283440000028
 30
0.0
 11
20841.101614999981
 21
8306.2283440000028
 31
0.0
  0
LINE
  5
4FB8
  8
0-1
  6
CONTINUOUS
 62
     3
 10
20558.671821999989
 20
8331.4295950000032
 30
0.0
 11
20868.373441999989
 21
8331.4295950000032
 31
0.0
  0
LINE
  5
4FB9
  8
0-1
  6
CONTINUOUS
 62
     3
 10
20563.67208599997
 20
8348.2287790000028
 30
0.0
 11
20873.100532999972
 21
8348.2287790000028
 31
0.0
  0
LINE
  5
4FBA
  8
0-1
  6
CONTINUOUS
 62
     3
 10
20558.671821999989
 20
8311.2286080000031
 30
0.0
 11
20558.671821999989
 21
8343.2285150000007
 31
0.0
  0
LINE
  5
4FBB
  8
0-1
  6
CONTINUOUS
 62
     3
 10
20431.66986899999
 20
8311.2286080000031
 30
0.0
 11
20431.66986899999
 21
8343.2285150000007
 31
0.0
  0
LINE
  5
4FBC
  8
0-1
  6
CONTINUOUS
 62
     3
 10
20558.671821999989
 20
8339.8296820000032
 30
0.0
 11
20876.766600999981
 21
8339.8296820000032
 31
0.0
  0
LINE
  5
4FBD
  8
0-1
  6
CONTINUOUS
 62
     3
 10
20844.637034999982
 20
8307.6931870000008
 30
0.0
 11
20876.633972999989
 21
8339.6930949999969
 31
0.0
  0
LINE
  5
4FBE
  8
0-1
  6
CONTINUOUS
 62
     3
 10
20145.708613999981
 20
8307.6931870000008
 30
0.0
 11
20113.70771699999
 21
8339.6930949999969
 31
0.0
  0
LINE
  5
4FBF
  8
0-1
  6
CONTINUOUS
 62
     3
 10
20431.66986899999
 20
8339.8296820000032
 30
0.0
 11
20113.577068999992
 21
8339.8296820000032
 31
0.0
  0
LINE
  5
4FC0
  8
0-1
  6
CONTINUOUS
 62
     3
 10
20431.66986899999
 20
8331.4295950000032
 30
0.0
 11
20121.972206999992
 21
8331.4295950000032
 31
0.0
  0
LINE
  5
4FC1
  8
0-1
  6
CONTINUOUS
 62
     3
 10
20431.66986899999
 20
8323.0285179999992
 30
0.0
 11
20130.371303999978
 21
8323.0285179999992
 31
0.0
  0
LINE
  5
4FC2
  8
0-1
  6
CONTINUOUS
 62
     3
 10
20431.66986899999
 20
8314.6284309999974
 30
0.0
 11
20138.770401999991
 21
8314.6284309999974
 31
0.0
  0
LINE
  5
4FC3
  8
0-1
  6
CONTINUOUS
 62
     3
 10
20426.671583999989
 20
8348.2287790000028
 30
0.0
 11
20117.241157999979
 21
8348.2287790000028
 31
0.0
  0
LINE
  5
4FC4
  8
0-1
  6
CONTINUOUS
 62
     3
 10
20426.671583999989
 20
8306.2283440000028
 30
0.0
 11
20149.244034999982
 21
8306.2283440000028
 31
0.0
  0
LINE
  5
4FC5
  8
0-1
  6
CONTINUOUS
 62
     3
 10
17295.17010599999
 20
8306.2283440000028
 30
0.0
 11
17572.599635999992
 21
8306.2283440000028
 31
0.0
  0
LINE
  5
4FC6
  8
0-1
  6
CONTINUOUS
 62
     3
 10
17290.171821999989
 20
8311.2286080000031
 30
0.0
 11
17290.171821999989
 21
8343.2285150000007
 31
0.0
  0
LINE
  5
4FC7
  8
0-1
  6
CONTINUOUS
 62
     3
 10
17141.17044999998
 20
8235.0418860000027
 30
0.0
 11
17184.168602000002
 21
8235.0418860000027
 31
0.0
  0
LINE
  5
4FC8
  8
0-1
  6
CONTINUOUS
 62
     3
 10
17141.17044999998
 20
8235.0418860000027
 30
0.0
 11
17141.17044999998
 21
8561.2289369999999
 31
0.0
  0
LINE
  5
4FC9
  8
0-1
  6
CONTINUOUS
 62
     3
 10
17295.17010599999
 20
8348.2287790000028
 30
0.0
 11
17604.600533000001
 21
8348.2287790000028
 31
0.0
  0
LINE
  5
4FCA
  8
0-1
  6
CONTINUOUS
 62
     3
 10
17576.133075999991
 20
8307.6931870000008
 30
0.0
 11
17608.133973999989
 21
8339.6930949999969
 31
0.0
  0
LINE
  5
4FCB
  8
0-1
  6
CONTINUOUS
 62
     3
 10
17290.171821999989
 20
8339.8296820000032
 30
0.0
 11
17608.266600999999
 21
8339.8296820000032
 31
0.0
  0
LINE
  5
4FCC
  8
0-1
  6
CONTINUOUS
 62
     3
 10
17290.171821999989
 20
8331.4295950000032
 30
0.0
 11
17599.869483999992
 21
8331.4295950000032
 31
0.0
  0
LINE
  5
4FCD
  8
0-1
  6
CONTINUOUS
 62
     3
 10
17290.171821999989
 20
8323.0285179999992
 30
0.0
 11
17591.470386000001
 21
8323.0285179999992
 31
0.0
  0
LINE
  5
4FCE
  8
0-1
  6
CONTINUOUS
 62
     3
 10
17290.171821999989
 20
8314.6284309999974
 30
0.0
 11
17583.071289
 21
8314.6284309999974
 31
0.0
  0
LINE
  5
4FCF
  8
0-1
  6
CONTINUOUS
 62
     3
 10
17269.169129999991
 20
8297.2284620000028
 30
0.0
 11
20452.670580999991
 21
8297.2284620000028
 31
0.0
  0
LINE
  5
4FD0
  8
0-1
  6
CONTINUOUS
 62
     3
 10
17269.169129999991
 20
8357.2286600000025
 30
0.0
 11
20452.670580999991
 21
8357.2286600000025
 31
0.0
  0
LINE
  5
4FD1
  8
0-1
  6
CONTINUOUS
 62
     3
 10
17141.17044999998
 20
8561.2289369999999
 30
0.0
 11
21604.283229000001
 21
8561.2289369999999
 31
0.0
  0
LINE
  5
4FD2
  8
0-1
  6
CONTINUOUS
 62
     3
 10
20537.673088999982
 20
8357.2286600000025
 30
0.0
 11
21604.283229000001
 21
8357.2286600000025
 31
0.0
  0
LINE
  5
4FD3
  8
0-1
  6
CONTINUOUS
 62
     3
 10
20537.673088999982
 20
8297.2284620000028
 30
0.0
 11
21604.283229000001
 21
8297.2284620000028
 31
0.0
  0
LINE
  5
4FD4
  8
0-1
  6
CONTINUOUS
 62
     3
 10
21604.283229000001
 20
8431.2280139999984
 30
0.0
 11
17141.17044999998
 21
8431.2280139999984
 31
0.0
  0
LINE
  5
4FD5
  8
0-1
  6
CONTINUOUS
 62
     3
 10
20495.17084499999
 20
8431.2280139999984
 30
0.0
 11
20495.17084499999
 21
8561.2289369999999
 31
0.0
  0
LINE
  5
4FD6
  8
0-1
  6
CONTINUOUS
 62
     3
 10
22995.176123999961
 20
8431.2280139999984
 30
0.0
 11
22995.176123999961
 21
8561.2289369999999
 31
0.0
  0
ARC
  5
4FD7
  8
0-1
  6
CONTINUOUS
 62
     3
 10
26195.178841999961
 20
8343.2285150000007
 30
0.0
 40
5.0
 50
0.0
 51
90.0
  0
ARC
  5
4FD8
  8
0-1
  6
CONTINUOUS
 62
     3
 10
26195.178841999961
 20
8311.2286080000031
 30
0.0
 40
5.0
 50
269.9999850001808
 51
0.0
  0
ARC
  5
4FD9
  8
0-1
  6
CONTINUOUS
 62
     3
 10
25885.748415999959
 20
8343.2285150000007
 30
0.0
 40
5.0
 50
90.0
 51
224.99998499997989
  0
ARC
  5
4FDA
  8
0-1
  6
CONTINUOUS
 62
     3
 10
25917.74931299996
 20
8311.2286080000031
 30
0.0
 40
5.0
 50
224.99998499997989
 51
269.9999850001808
  0
ARC
  5
4FDB
  8
0-1
  6
CONTINUOUS
 62
     3
 10
23373.105811000001
 20
8343.2285150000007
 30
0.0
 40
5.0
 50
314.99998500027471
 51
90.0
  0
ARC
  5
4FDC
  8
0-1
  6
CONTINUOUS
 62
     3
 10
23341.104913999981
 20
8311.2286080000031
 30
0.0
 40
5.0
 50
269.9999850001808
 51
314.99998500027471
  0
ARC
  5
4FDD
  8
0-1
  6
CONTINUOUS
 62
     3
 10
23063.677363999981
 20
8311.2286080000031
 30
0.0
 40
5.0
 50
180.0
 51
269.9999850001808
  0
ARC
  5
4FDE
  8
0-1
  6
CONTINUOUS
 62
     3
 10
23063.677363999981
 20
8343.2285150000007
 30
0.0
 40
5.0
 50
90.0
 51
180.0
  0
ARC
  5
4FDF
  8
0-1
  6
CONTINUOUS
 62
     3
 10
22926.67686299999
 20
8343.2285150000007
 30
0.0
 40
5.0
 50
0.0
 51
90.0
  0
ARC
  5
4FE0
  8
0-1
  6
CONTINUOUS
 62
     3
 10
22926.67686299999
 20
8311.2286080000031
 30
0.0
 40
5.0
 50
269.9999850001808
 51
0.0
  0
ARC
  5
4FE1
  8
0-1
  6
CONTINUOUS
 62
     3
 10
22649.245353999991
 20
8311.2286080000031
 30
0.0
 40
5.0
 50
224.99998499997989
 51
269.9999850001808
  0
ARC
  5
4FE2
  8
0-1
  6
CONTINUOUS
 62
     3
 10
22617.246435999969
 20
8343.2285150000007
 30
0.0
 40
5.0
 50
90.0
 51
224.99998499997989
  0
ARC
  5
4FE3
  8
0-1
  6
CONTINUOUS
 62
     3
 10
20563.67208599997
 20
8311.2286080000031
 30
0.0
 40
5.0
 50
180.0
 51
269.9999850001808
  0
ARC
  5
4FE4
  8
0-1
  6
CONTINUOUS
 62
     3
 10
20563.67208599997
 20
8343.2285150000007
 30
0.0
 40
5.0
 50
90.0
 51
180.0
  0
ARC
  5
4FE5
  8
0-1
  6
CONTINUOUS
 62
     3
 10
20841.101614999981
 20
8311.2286080000031
 30
0.0
 40
5.0
 50
269.9999850001808
 51
314.99998500027471
  0
ARC
  5
4FE6
  8
0-1
  6
CONTINUOUS
 62
     3
 10
20426.671583999989
 20
8311.2286080000031
 30
0.0
 40
5.0
 50
269.9999850001808
 51
0.0
  0
ARC
  5
4FE7
  8
0-1
  6
CONTINUOUS
 62
     3
 10
20426.671583999989
 20
8343.2285150000007
 30
0.0
 40
5.0
 50
0.0
 51
90.0
  0
ARC
  5
4FE8
  8
0-1
  6
CONTINUOUS
 62
     3
 10
20873.100532999972
 20
8343.2285150000007
 30
0.0
 40
5.0
 50
314.99998500027471
 51
90.0
  0
ARC
  5
4FE9
  8
0-1
  6
CONTINUOUS
 62
     3
 10
20117.241157999979
 20
8343.2285150000007
 30
0.0
 40
5.0
 50
90.0
 51
224.99998499997989
  0
ARC
  5
4FEA
  8
0-1
  6
CONTINUOUS
 62
     3
 10
20149.244034999982
 20
8311.2286080000031
 30
0.0
 40
5.0
 50
224.99998499997989
 51
269.9999850001808
  0
ARC
  5
4FEB
  8
0-1
  6
CONTINUOUS
 62
     3
 10
17604.600533000001
 20
8343.2285150000007
 30
0.0
 40
5.0
 50
314.99998500027471
 51
90.0
  0
ARC
  5
4FEC
  8
0-1
  6
CONTINUOUS
 62
     3
 10
17295.17010599999
 20
8343.2285150000007
 30
0.0
 40
5.0
 50
90.0
 51
180.0
  0
ARC
  5
4FED
  8
0-1
  6
CONTINUOUS
 62
     3
 10
17295.17010599999
 20
8311.2286080000031
 30
0.0
 40
5.0
 50
180.0
 51
269.9999850001808
  0
ARC
  5
4FEE
  8
0-1
  6
CONTINUOUS
 62
     3
 10
17572.599635999992
 20
8311.2286080000031
 30
0.0
 40
5.0
 50
269.9999850001808
 51
314.99998500027471
  0
LINE
  5
4FEF
  8
SUNPOU
  6
CONTINUOUS
 62
     4
 10
17141.168469999979
 20
8641.2289370000017
 30
0.0
 11
17141.168469999979
 21
9840.686549
 31
0.0
  0
LINE
  5
4FF0
  8
SUNPOU
  6
CONTINUOUS
 62
     4
 10
26349.178498999961
 20
8641.2289370000017
 30
0.0
 11
26349.178498999961
 21
9840.686549
 31
0.0
  0
LINE
  5
4FF1
  8
SUNPOU
  6
CONTINUOUS
 62
     4
 10
17144.168469999979
 20
9760.686549
 30
0.0
 11
26346.178498999961
 21
9760.686549
 31
0.0
  0
LINE
  5
4FF2
  8
SUNPOU
  6
CONTINUOUS
 62
     4
 10
17184.170580999991
 20
8641.2289370000017
 30
0.0
 11
17184.170580999991
 21
9440.7287790000028
 31
0.0
  0
LINE
  5
4FF3
  8
SUNPOU
  6
CONTINUOUS
 62
     4
 10
26306.17638799996
 20
8641.2289370000017
 30
0.0
 11
26306.17638799996
 21
9440.7287790000028
 31
0.0
  0
LINE
  5
4FF4
  8
SUNPOU
  6
CONTINUOUS
 62
     4
 10
17184.170580999991
 20
9360.7287789999955
 30
0.0
 11
26306.17638799996
 21
9360.7287789999955
 31
0.0
  0
LINE
  5
4FF5
  8
SUNPOU
  6
CONTINUOUS
 62
     4
 10
17184.170580999991
 20
8641.2289370000017
 30
0.0
 11
17184.170580999991
 21
9440.7287790000028
 31
0.0
  0
LINE
  5
4FF6
  8
SUNPOU
  6
CONTINUOUS
 62
     4
 10
17141.168469999979
 20
8641.2289370000017
 30
0.0
 11
17141.168469999979
 21
9440.7287790000028
 31
0.0
  0
LINE
  5
4FF7
  8
SUNPOU
  6
CONTINUOUS
 62
     4
 10
17184.170580999991
 20
9360.7287789999955
 30
0.0
 11
17424.170580999991
 21
9360.7287789999955
 31
0.0
  0
LINE
  5
4FF8
  8
SUNPOU
  6
CONTINUOUS
 62
     4
 10
17144.168469999979
 20
9360.7287789999955
 30
0.0
 11
16904.168469999979
 21
9360.7287789999955
 31
0.0
  0
LINE
  5
4FF9
  8
SUNPOU
  6
CONTINUOUS
 62
     4
 10
17184.170580999991
 20
9360.7287789999955
 30
0.0
 11
17144.168469999979
 21
9360.7287789999955
 31
0.0
  0
LINE
  5
4FFA
  8
SUNPOU
  6
CONTINUOUS
 62
     4
 10
26306.17638799996
 20
8641.2289370000017
 30
0.0
 11
26306.17638799996
 21
9440.7287790000028
 31
0.0
  0
LINE
  5
4FFB
  8
SUNPOU
  6
CONTINUOUS
 62
     4
 10
26349.178498999961
 20
8641.2289370000017
 30
0.0
 11
26349.178498999961
 21
9440.7287790000028
 31
0.0
  0
LINE
  5
4FFC
  8
SUNPOU
  6
CONTINUOUS
 62
     4
 10
26306.17638799996
 20
9360.7287789999955
 30
0.0
 11
26066.17638799996
 21
9360.7287789999955
 31
0.0
  0
LINE
  5
4FFD
  8
SUNPOU
  6
CONTINUOUS
 62
     4
 10
26346.178498999961
 20
9360.7287789999955
 30
0.0
 11
26586.178498999961
 21
9360.7287789999955
 31
0.0
  0
LINE
  5
4FFE
  8
SUNPOU
  6
CONTINUOUS
 62
     4
 10
26306.17638799996
 20
9360.7287789999955
 30
0.0
 11
26346.178498999961
 21
9360.7287789999955
 31
0.0
  0
TEXT
  5
4FFF
  8
0
  6
CONTINUOUS
 62
     7
 10
26466.178498999961
 20
9440.7287790000028
 30
0.0
 40
160.0
  1
43
  0
TEXT
  5
5000
  8
0
  6
CONTINUOUS
 62
     7
 10
16784.168469999979
 20
9440.7287790000028
 30
0.0
 40
160.0
  1
43
  0
TEXT
  5
5001
  8
0
  6
CONTINUOUS
 62
     7
 10
20705.173484499981
 20
9440.7287790000028
 30
0.0
 40
160.0
  1
3268.5 \U+00D7 ｎ ＋ 85
  0
TEXT
  5
5002
  8
0
  6
CONTINUOUS
 62
     7
 10
20651.840151166649
 20
9840.686549
 30
0.0
 40
160.0
  1
3268.5 \U+00D7 ｎ ＋ 171
  0
ARC
  5
5003
  8
0
  6
BYBLOCK
 62
     0
 10
17141.168469999979
 20
9760.686549
 30
0.0
 40
15.0
 50
0.0
 51
180.0
  0
ARC
  5
5004
  8
0
  6
BYBLOCK
 62
     0
 10
17141.168469999979
 20
9760.686549
 30
0.0
 40
15.0
 50
180.0
 51
0.0
  0
ARC
  5
5005
  8
0
  6
BYBLOCK
 62
     0
 10
26349.178498999961
 20
9760.686549
 30
0.0
 40
15.0
 50
180.0
 51
0.0
  0
ARC
  5
5006
  8
0
  6
BYBLOCK
 62
     0
 10
26349.178498999961
 20
9760.686549
 30
0.0
 40
15.0
 50
0.0
 51
180.0
  0
ARC
  5
5007
  8
0
  6
BYBLOCK
 62
     0
 10
17184.170580999991
 20
9360.7287789999955
 30
0.0
 40
15.0
 50
0.0
 51
180.0
  0
ARC
  5
5008
  8
0
  6
BYBLOCK
 62
     0
 10
17184.170580999991
 20
9360.7287789999955
 30
0.0
 40
15.0
 50
180.0
 51
0.0
  0
ARC
  5
5009
  8
0
  6
BYBLOCK
 62
     0
 10
26306.17638799996
 20
9360.7287789999955
 30
0.0
 40
15.0
 50
180.0
 51
0.0
  0
ARC
  5
500A
  8
0
  6
BYBLOCK
 62
     0
 10
26306.17638799996
 20
9360.7287789999955
 30
0.0
 40
15.0
 50
0.0
 51
180.0
  0
ARC
  5
500B
  8
0
  6
BYBLOCK
 62
     0
 10
17184.170580999991
 20
9360.7287789999955
 30
0.0
 40
15.0
 50
0.0
 51
180.0
  0
ARC
  5
500C
  8
0
  6
BYBLOCK
 62
     0
 10
17184.170580999991
 20
9360.7287789999955
 30
0.0
 40
15.0
 50
180.0
 51
0.0
  0
ARC
  5
500D
  8
0
  6
BYBLOCK
 62
     0
 10
17141.168469999979
 20
9360.7287789999955
 30
0.0
 40
15.0
 50
180.0
 51
0.0
  0
ARC
  5
500E
  8
0
  6
BYBLOCK
 62
     0
 10
17141.168469999979
 20
9360.7287789999955
 30
0.0
 40
15.0
 50
0.0
 51
180.0
  0
ARC
  5
500F
  8
0
  6
BYBLOCK
 62
     0
 10
26306.17638799996
 20
9360.7287789999955
 30
0.0
 40
15.0
 50
180.0
 51
0.0
  0
ARC
  5
5010
  8
0
  6
BYBLOCK
 62
     0
 10
26306.17638799996
 20
9360.7287789999955
 30
0.0
 40
15.0
 50
0.0
 51
180.0
  0
ARC
  5
5011
  8
0
  6
BYBLOCK
 62
     0
 10
26349.178498999961
 20
9360.7287789999955
 30
0.0
 40
15.0
 50
0.0
 51
180.0
  0
ARC
  5
5012
  8
0
  6
BYBLOCK
 62
     0
 10
26349.178498999961
 20
9360.7287789999955
 30
0.0
 40
15.0
 50
180.0
 51
0.0
  0
TEXT
  5
5067
  8
NAME
 10
24033.05354655402
 20
1076.0
 30
0.0
 40
360.0
  1
H
 41
0.6700000000000002
  7
00
  0
TEXT
  5
5068
  8
NAME
 10
23657.2215619737
 20
1076.0
 30
0.0
 40
360.0
  1
（ ）
  7
01
  0
TEXT
  5
5069
  8
NAME
 10
24557.214549256751
 20
1076.0
 30
0.0
 40
360.0
  1
型（ 連棟）
  7
01
  0
TEXT
  5
506A
  8
NAME
 10
21816.089515848402
 20
1076.6369801169251
 30
0.0
 40
360.0
  1
VGC-3362
 41
0.6700000000000002
  0
TEXT
  5
506B
  8
NAME
 10
25322.399158861332
 20
1076.0
 30
0.0
 40
360.0
  1
n
 41
0.6700000000000002
  7
00
  0
TEXT
  5
506D
  8
NAME
 10
21933.552716389018
 20
1876.0
 30
0.0
 40
360.0
  1
ヨドガレージ ラヴィージュ
 41
0.75
  7
01
  0
LINE
  5
506E
  8
NAME
  6
CONTINUOUS
 10
26067.886878884321
 20
2236.0
 30
0.0
 11
26067.886878884321
 21
1876.0
 31
0.0
  0
LINE
  5
506F
  8
NAME
  6
CONTINUOUS
 10
26167.886878884321
 20
2236.0
 30
0.0
 11
26167.886878884321
 21
1876.0
 31
0.0
  0
LINE
  5
5070
  8
NAME
  6
CONTINUOUS
 10
26267.886878884321
 20
2236.0
 30
0.0
 11
26267.886878884321
 21
1876.0
 31
0.0
  0
LINE
  5
5071
  8
NAME
  6
CONTINUOUS
 10
26007.886878884321
 20
2236.0
 30
0.0
 11
26327.886878884321
 21
2236.0
 31
0.0
  0
LINE
  5
5072
  8
NAME
  6
CONTINUOUS
 10
26327.886878884321
 20
1876.0
 30
0.0
 11
26007.886878884321
 21
1876.0
 31
0.0
  0
TEXT
  5
5150
  8
FILENAME
  6
CONTINUOUS
 10
28737.333333333328
 20
348.0
 30
0.0
 40
200.0
  1
＜VGC-3362-N-A_0.DXF ＞
  7
FILENAME
 72
     2
 11
32764.0
 21
348.0
 31
0.0
  0
LINE
  5
5156
  8
WAKUSEN-01
 10
868.00000000000193
 20
827.99999999999955
 30
0.0
 11
32764.000000000011
 21
827.99999999999943
 31
0.0
  0
LINE
  5
5157
  8
WAKUSEN-01
 10
868.00000000000193
 20
827.99999999999955
 30
0.0
 11
868.00000000000193
 21
22484.000000000011
 31
0.0
  0
LINE
  5
5158
  8
WAKUSEN-01
 10
32764.000000000011
 20
827.99999999999943
 30
0.0
 11
32764.000000000011
 21
22484.000000000011
 31
0.0
  0
LINE
  5
5159
  8
WAKUSEN-01
 10
20560.0
 20
827.99999999999716
 30
0.0
 11
20560.0
 21
2484.0
 31
0.0
  0
LINE
  5
515A
  8
WAKUSEN-02
 10
26868.0
 20
827.99999999999261
 30
0.0
 11
26868.0
 21
2484.0
 31
0.0
  0
ENDSEC
  0
EOF
