  0
SECTION
  2
HEADER
  9
$ACADVER
  1
AC1009
  9
$INSBASE
 10
0.0
 20
0.0
 30
0.0
  9
$EXTMIN
 10
867.99324330406671
 20
327.38164749855792
 30
-0.000000000000013
  9
$EXTMAX
 10
32765.33210850941
 20
22484.553276491992
 30
0.0000000000000023
  9
$LIMMIN
 10
0.0
 20
0.0
  9
$LIMMAX
 10
33600.0
 20
23760.0
  9
$ORTHOMODE
 70
     1
  9
$REGENMODE
 70
     1
  9
$FILLMODE
 70
     1
  9
$QTEXTMODE
 70
     0
  9
$MIRRTEXT
 70
     1
  9
$DRAGMODE
 70
     2
  9
$LTSCALE
 40
80.0
  9
$OSMODE
 70
  3071
  9
$ATTMODE
 70
     1
  9
$TEXTSIZE
 40
0.2
  9
$TRACEWID
 40
0.05
  9
$TEXTSTYLE
  7
00
  9
$CLAYER
  8
0
  9
$CELTYPE
  6
BYLAYER
  9
$CECOLOR
 62
   256
  9
$DIMSCALE
 40
1.0
  9
$DIMASZ
 40
0.18
  9
$DIMEXO
 40
0.0625
  9
$DIMDLI
 40
0.38
  9
$DIMRND
 40
0.0
  9
$DIMDLE
 40
0.0
  9
$DIMEXE
 40
0.18
  9
$DIMTP
 40
0.0
  9
$DIMTM
 40
0.0
  9
$DIMTXT
 40
0.18
  9
$DIMCEN
 40
0.09
  9
$DIMTSZ
 40
0.0
  9
$DIMTOL
 70
     0
  9
$DIMLIM
 70
     0
  9
$DIMTIH
 70
     1
  9
$DIMTOH
 70
     1
  9
$DIMSE1
 70
     0
  9
$DIMSE2
 70
     0
  9
$DIMTAD
 70
     0
  9
$DIMZIN
 70
     0
  9
$DIMBLK
  1

  9
$DIMASO
 70
     1
  9
$DIMSHO
 70
     1
  9
$DIMPOST
  1

  9
$DIMAPOST
  1

  9
$DIMALT
 70
     0
  9
$DIMALTD
 70
     2
  9
$DIMALTF
 40
25.399999999999999
  9
$DIMLFAC
 40
1.0
  9
$DIMTOFL
 70
     0
  9
$DIMTVP
 40
0.0
  9
$DIMTIX
 70
     0
  9
$DIMSOXD
 70
     0
  9
$DIMSAH
 70
     0
  9
$DIMBLK1
  1

  9
$DIMBLK2
  1

  9
$DIMSTYLE
  2
STANDARD
  9
$DIMCLRD
 70
     0
  9
$DIMCLRE
 70
     0
  9
$DIMCLRT
 70
     0
  9
$DIMTFAC
 40
1.0
  9
$DIMGAP
 40
0.09
  9
$LUNITS
 70
     2
  9
$LUPREC
 70
     4
  9
$SKETCHINC
 40
0.1
  9
$FILLETRAD
 40
0.0
  9
$AUNITS
 70
     0
  9
$AUPREC
 70
     0
  9
$MENU
  1
acad
  9
$ELEVATION
 40
0.0
  9
$PELEVATION
 40
0.0
  9
$THICKNESS
 40
0.0
  9
$LIMCHECK
 70
     0
  9
$BLIPMODE
 70
     1
  9
$CHAMFERA
 40
0.0
  9
$CHAMFERB
 40
0.0
  9
$SKPOLY
 70
     0
  9
$TDCREATE
 40
2454568.9198272922
  9
$TDUPDATE
 40
2458942.428987361
  9
$TDINDWG
 40
0.0568534954
  9
$TDUSRTIMER
 40
0.056852037
  9
$USRTIMER
 70
     1
  9
$ANGBASE
 50
0.0
  9
$ANGDIR
 70
     0
  9
$PDMODE
 70
     0
  9
$PDSIZE
 40
0.0
  9
$PLINEWID
 40
0.0
  9
$COORDS
 70
     1
  9
$SPLFRAME
 70
     0
  9
$SPLINETYPE
 70
     6
  9
$SPLINESEGS
 70
     8
  9
$ATTDIA
 70
     1
  9
$ATTREQ
 70
     1
  9
$HANDLING
 70
     1
  9
$HANDSEED
  5
36DA
  9
$SURFTAB1
 70
     6
  9
$SURFTAB2
 70
     6
  9
$SURFTYPE
 70
     6
  9
$SURFU
 70
     6
  9
$SURFV
 70
     6
  9
$UCSNAME
  2

  9
$UCSORG
 10
0.0
 20
0.0
 30
0.0
  9
$UCSXDIR
 10
1.0
 20
0.0
 30
0.0
  9
$UCSYDIR
 10
0.0
 20
1.0
 30
0.0
  9
$PUCSNAME
  2

  9
$PUCSORG
 10
0.0
 20
0.0
 30
0.0
  9
$PUCSXDIR
 10
1.0
 20
0.0
 30
0.0
  9
$PUCSYDIR
 10
0.0
 20
1.0
 30
0.0
  9
$USERI1
 70
     0
  9
$USERI2
 70
     0
  9
$USERI3
 70
     0
  9
$USERI4
 70
     0
  9
$USERI5
 70
     0
  9
$USERR1
 40
0.0
  9
$USERR2
 40
0.0
  9
$USERR3
 40
0.0
  9
$USERR4
 40
0.0
  9
$USERR5
 40
0.0
  9
$WORLDVIEW
 70
     1
  9
$SHADEDGE
 70
     3
  9
$SHADEDIF
 70
    70
  9
$TILEMODE
 70
     1
  9
$MAXACTVP
 70
    16
  9
$PLIMCHECK
 70
     0
  9
$PEXTMIN
 10
1.0000000000000000E+020
 20
1.0000000000000000E+020
 30
1.0000000000000000E+020
  9
$PEXTMAX
 10
-1.0000000000000000E+020
 20
-1.0000000000000000E+020
 30
-1.0000000000000000E+020
  9
$PLIMMIN
 10
0.0
 20
0.0
  9
$PLIMMAX
 10
12.0
 20
9.0
  9
$UNITMODE
 70
     0
  9
$VISRETAIN
 70
     0
  9
$PLINEGEN
 70
     1
  9
$PSLTSCALE
 70
     0
  0
ENDSEC
  0
SECTION
  2
TABLES
  0
TABLE
  2
VPORT
 70
     1
  0
VPORT
  2
*ACTIVE
 70
     0
 10
0.0
 20
0.0
 11
1.0
 21
1.0
 12
16800.0
 22
11880.0
 13
0.0
 23
0.0
 14
1.0
 24
1.0
 15
0.0
 25
0.0
 16
0.0
 26
0.0
 36
1.0
 17
0.0
 27
0.0
 37
0.0
 40
23981.023255813951
 41
2.195652173913043
 42
50.0
 43
0.0
 44
0.0
 50
0.0
 51
0.0
 71
     0
 72
 10000
 73
     1
 74
     1
 75
     0
 76
     0
 77
     0
 78
     0
  0
ENDTAB
  0
TABLE
  2
LTYPE
 70
     3
  0
LTYPE
  2
CONTINUOUS
 70
     0
  3
Solid line
 72
    65
 73
     0
 40
0.0
  0
LTYPE
  2
DASHED3
 70
     0
  3
------  ------  ------  ------  
 72
    65
 73
     2
 40
5.0
 49
3.75
 49
-1.25
  0
LTYPE
  2
CENTER2
 70
     0
  3
----------  --  ----------  --  
 72
    65
 73
     4
 40
20.0
 49
12.5
 49
-2.5
 49
2.5
 49
-2.5
  0
ENDTAB
  0
TABLE
  2
LAYER
 70
    17
  0
LAYER
  2
0
 70
     0
 62
     7
  6
CONTINUOUS
  0
LAYER
  2
SUNPOU
 70
     0
 62
     4
  6
CONTINUOUS
  0
LAYER
  2
0-1
 70
     0
 62
     7
  6
CONTINUOUS
  0
LAYER
  2
0-2
 70
     0
 62
     7
  6
CONTINUOUS
  0
LAYER
  2
0-5
 70
     0
 62
     7
  6
CONTINUOUS
  0
LAYER
  2
0-6
 70
     0
 62
     7
  6
CONTINUOUS
  0
LAYER
  2
2-0
 70
     0
 62
     7
  6
CONTINUOUS
  0
LAYER
  2
YODOROGO
 70
     0
 62
   130
  6
CONTINUOUS
  0
LAYER
  2
WAKUSEN-01
 70
     0
 62
    50
  6
CONTINUOUS
  0
LAYER
  2
WAKUSEN-02
 70
     0
 62
   130
  6
CONTINUOUS
  0
LAYER
  2
WAKUMOJI-01
 70
     0
 62
   130
  6
CONTINUOUS
  0
LAYER
  2
FILENAME
 70
     0
 62
     7
  6
CONTINUOUS
  0
LAYER
  2
NAME
 70
     0
 62
    20
  6
CONTINUOUS
  0
LAYER
  2
0-4
 70
     0
 62
     7
  6
CONTINUOUS
  0
LAYER
  2
0-8
 70
     0
 62
     7
  6
CONTINUOUS
  0
ENDTAB
  0
TABLE
  2
STYLE
 70
     5
  0
STYLE
  2
STANDARD
 70
     0
 40
0.0
 41
1.0
 50
0.0
 71
     0
 42
0.0
  3
txt
  4
BIGFONT
  0
STYLE
  2
00
 70
     0
 40
0.0
 41
0.6666666666666666
 50
0.0
 71
     0
 42
0.2
  3
ROMANS
  4
BIGFONT
  0
STYLE
  2
01
 70
     0
 40
3.0
 41
1.0
 50
0.0
 71
     0
 42
0.2
  3
ROMANS
  4
BIGFONT
  0
STYLE
  2
WAKUMOJI
 70
     0
 40
3.0
 41
1.0
 50
0.0
 71
     0
 42
3.0
  3
SIMPLEX
  4
BIGFONT
  0
STYLE
  2
FILENAME
 70
     0
 40
200.0
 41
1.0
 50
0.0
 71
     0
 42
200.0
  3
romans
  4
bigfont
  0
ENDTAB
  0
TABLE
  2
VIEW
 70
     0
  0
ENDTAB
  0
TABLE
  2
UCS
 70
     0
  0
ENDTAB
  0
TABLE
  2
APPID
 70
    13
  0
APPID
  2
ACAD
 70
     0
  0
APPID
  2
ACADANNOTATIVE
 70
     0
  0
APPID
  2
ACAD_PSEXT
 70
     0
  0
APPID
  2
DCO15
 70
     0
  0
APPID
  2
ACAD_MLEADERVER
 70
     0
  0
APPID
  2
AUTOCAD_POSTSCRIPT_FIGURE
 70
     0
  0
APPID
  2
ACAD_EXEMPT_FROM_CAD_STANDARDS
 70
     0
  0
APPID
  2
ACAD_DSTYLE_DIMJAG
 70
     0
  0
APPID
  2
ACAD_DSTYLE_DIMTALN
 70
     0
  0
APPID
  2
ACAD_DSTYLE_DIM_LINETYPE
 70
     0
  0
APPID
  2
ACAD_DSTYLE_DIM_EXT1_LINETYPE
 70
     0
  0
APPID
  2
ACAD_DSTYLE_DIM_EXT2_LINETYPE
 70
     0
  0
APPID
  2
ACAD_NAV_VCDISPLAY
 70
     0
  0
ENDTAB
  0
TABLE
  2
DIMSTYLE
 70
     2
  0
DIMSTYLE
  2
STANDARD
 70
     0
  3

  4

  5

  6

  7

 40
1.0
 41
0.18
 42
0.0625
 43
0.38
 44
0.18
 45
0.0
 46
0.0
 47
0.0
 48
0.0
140
0.18
141
0.09
142
0.0
143
25.399999999999999
144
1.0
145
0.0
146
1.0
147
0.09
 71
     0
 72
     0
 73
     1
 74
     1
 75
     0
 76
     0
 77
     0
 78
     0
170
     0
171
     2
172
     0
173
     0
174
     0
175
     0
176
     0
177
     0
178
     0
  0
ENDTAB
  0
ENDSEC
  0
SECTION
  2
BLOCKS
  0
BLOCK
  8
0
  2
$MODEL_SPACE
 70
     0
 10
0.0
 20
0.0
 30
0.0
  3
$MODEL_SPACE
  1

  0
ENDBLK
  5
2CB7
  8
0
  0
BLOCK
 67
     1
  8
0
  2
$PAPER_SPACE
 70
     0
 10
0.0
 20
0.0
 30
0.0
  3
$PAPER_SPACE
  1

  0
ENDBLK
  5
2CB3
 67
     1
  8
0
  0
ENDSEC
  0
SECTION
  2
ENTITIES
  0
CIRCLE
  5
2CE4
  8
0-5
  6
CONTINUOUS
 62
     4
 10
15128.715689000001
 20
1375.999858000002
 30
0.0
 40
20.0
  0
ARC
  5
2CE5
  8
0-5
  6
CONTINUOUS
 62
     4
 10
15128.715689000001
 20
1375.999858000002
 30
0.0
 40
20.0
 50
180.0
 51
0.0
  0
ARC
  5
2CE6
  8
0-5
  6
CONTINUOUS
 62
     4
 10
15128.715689000001
 20
1375.999858000002
 30
0.0
 40
20.0
 50
0.0
 51
179.99998499999839
  0
CIRCLE
  5
2CE7
  8
0-5
  6
CONTINUOUS
 62
     4
 10
15128.715689000001
 20
1776.000188000002
 30
0.0
 40
20.0
  0
ARC
  5
2CE8
  8
0-5
  6
CONTINUOUS
 62
     4
 10
15128.715689000001
 20
1776.000188000002
 30
0.0
 40
20.0
 50
180.0
 51
0.0
  0
ARC
  5
2CE9
  8
0-5
  6
CONTINUOUS
 62
     4
 10
15128.715689000001
 20
1776.000188000002
 30
0.0
 40
20.0
 50
0.0
 51
179.99998499999839
  0
TEXT
  5
2CEA
  8
0-5
  6
CONTINUOUS
 62
     7
 10
16682.210199000001
 20
1655.999916
 30
0.0
 40
160.0
  1
H
  0
TEXT
  5
2CEB
  8
0-5
  6
CONTINUOUS
 62
     7
 10
15176.14792299999
 20
1655.999916
 30
0.0
 40
160.0
  1
（ ）内寸法ハ、  タ イプヲ示ス。
  0
TEXT
  5
2CEC
  8
0-5
  6
CONTINUOUS
 62
     7
 10
15288.716216000001
 20
1256.000081000001
 30
0.0
 40
160.0
  1
有効高サハ、基礎高サヲ含ミマセン。
  0
LINE
  5
2CF4
  8
0-1
  6
CONTINUOUS
 62
     3
 10
21124.513169999998
 20
8149.1884330000021
 30
0.0
 11
24308.01660099997
 21
8149.1884330000021
 31
0.0
  0
LINE
  5
2CFA
  8
0-1
  6
CONTINUOUS
 62
     3
 10
11652.12877399999
 20
18925.970164999992
 30
0.0
 11
11652.12877399999
 21
19832.988205000001
 31
0.0
  0
LINE
  5
2CFB
  8
0-1
  6
CONTINUOUS
 62
     3
 10
11615.130581999991
 20
18959.142937000001
 30
0.0
 11
11615.130581999991
 21
19832.988205000001
 31
0.0
  0
LINE
  5
2CFC
  8
0-1
  6
CONTINUOUS
 62
     3
 10
11104.629565999991
 20
16705.485856999989
 30
0.0
 11
13966.59080699999
 21
16705.485856999989
 31
0.0
  0
LINE
  5
2CFD
  8
0-1
  6
CONTINUOUS
 62
     3
 10
14320.129935000001
 20
13321.486885
 30
0.0
 11
14320.129935000001
 21
19832.988205000001
 31
0.0
  0
LINE
  5
2CFE
  8
0-1
  6
CONTINUOUS
 62
     3
 10
11154.630186
 20
13321.486885
 30
0.0
 11
11154.630186
 21
19832.988205000001
 31
0.0
  0
LINE
  5
2CFF
  8
0-1
  6
CONTINUOUS
 62
     3
 10
11019.130160000001
 20
13289.48697799999
 30
0.0
 11
11019.130160000001
 21
19880.987571999991
 31
0.0
  0
LINE
  5
2D00
  8
0-1
  6
CONTINUOUS
 62
     3
 10
14458.630950999979
 20
13289.48697799999
 30
0.0
 11
14458.630950999979
 21
19880.987571999991
 31
0.0
  0
LINE
  5
2D01
  8
0-1
  6
CONTINUOUS
 62
     3
 10
11213.128959
 20
19340.070262999991
 30
0.0
 11
11213.128959
 21
19832.988205000001
 31
0.0
  0
LINE
  5
2D02
  8
0-1
  6
CONTINUOUS
 62
     3
 10
11250.129130999991
 20
19306.897489999999
 30
0.0
 11
11250.129130999991
 21
19832.988205000001
 31
0.0
  0
LINE
  5
2D03
  8
0-1
  6
CONTINUOUS
 62
     3
 10
11413.130608999991
 20
19140.255031000001
 30
0.0
 11
11413.130608999991
 21
19832.988205000001
 31
0.0
  0
LINE
  5
2D04
  8
0-1
  6
CONTINUOUS
 62
     3
 10
11450.128801000001
 20
19107.078300000001
 30
0.0
 11
11450.128801000001
 21
19832.988205000001
 31
0.0
  0
LINE
  5
2D05
  8
0-1
  6
CONTINUOUS
 62
     3
 10
11815.129263000001
 20
18779.824288
 30
0.0
 11
11815.129263000001
 21
19832.988205000001
 31
0.0
  0
LINE
  5
2D06
  8
0-1
  6
CONTINUOUS
 62
     3
 10
11852.130424000001
 20
18746.651515000001
 30
0.0
 11
11852.130424000001
 21
19832.988205000001
 31
0.0
  0
LINE
  5
2D07
  8
0-1
  6
CONTINUOUS
 62
     3
 10
12015.128933
 20
18600.505637999991
 30
0.0
 11
12015.128933
 21
19832.988205000001
 31
0.0
  0
LINE
  5
2D08
  8
0-1
  6
CONTINUOUS
 62
     3
 10
12052.129103999991
 20
18567.332866000001
 30
0.0
 11
12052.129103999991
 21
19832.988205000001
 31
0.0
  0
LINE
  5
2D09
  8
0-1
  6
CONTINUOUS
 62
     3
 10
12440.366145
 20
18234.746888000001
 30
0.0
 11
12618.564387
 21
18410.090664999982
 31
0.0
  0
LINE
  5
2D0A
  8
0-1
  6
CONTINUOUS
 62
     3
 10
12963.546967
 20
17341.610090999991
 30
0.0
 11
13141.74323
 21
17516.957826999991
 31
0.0
  0
LINE
  5
2D0B
  8
0-1
  6
CONTINUOUS
 62
     3
 10
12963.546967
 20
17341.610090999991
 30
0.0
 11
12618.564387
 21
18410.090664999982
 31
0.0
  0
LINE
  5
2D0C
  8
0-1
  6
CONTINUOUS
 62
     3
 10
11019.13015999999
 20
13445.48689899999
 30
0.0
 11
14415.630819999989
 21
13445.48689899999
 31
0.0
  0
LINE
  5
2D0D
  8
0-1
  6
CONTINUOUS
 62
     3
 10
11104.629565999991
 20
13524.48651599999
 30
0.0
 11
14373.129565999971
 21
13524.48651599999
 31
0.0
  0
LINE
  5
2D0E
  8
0-1
  6
CONTINUOUS
 62
     3
 10
11019.130160000001
 20
13289.48697799999
 30
0.0
 11
14458.630950999979
 21
13289.48697799999
 31
0.0
  0
LINE
  5
2D0F
  8
0-1
  6
CONTINUOUS
 62
     3
 10
11019.130160000001
 20
13321.486885
 30
0.0
 11
14458.630950999979
 21
13321.486885
 31
0.0
  0
LINE
  5
2D10
  8
0-1
  6
CONTINUOUS
 62
     3
 10
14373.129565999971
 20
13445.48689899999
 30
0.0
 11
14373.129565999971
 21
16315.87206099998
 31
0.0
  0
LINE
  5
2D11
  8
0-1
  6
CONTINUOUS
 62
     3
 10
14415.630819999989
 20
13445.48689899999
 30
0.0
 11
14415.630819999989
 21
16274.059678999991
 31
0.0
  0
LINE
  5
2D12
  8
0-1
  6
CONTINUOUS
 62
     3
 10
14752.63198099999
 20
15932.027491999999
 30
0.0
 11
13141.74323
 21
17516.957826999991
 31
0.0
  0
LINE
  5
2D13
  8
0-1
  6
CONTINUOUS
 62
     3
 10
12440.366145
 20
18234.746888000001
 30
0.0
 11
10725.129130999991
 21
19777.605233999991
 31
0.0
  0
LINE
  5
2D14
  8
0-1
  6
CONTINUOUS
 62
     3
 10
11104.629565999991
 20
13445.48689899999
 30
0.0
 11
11104.629565999991
 21
19437.349743999981
 31
0.0
  0
LINE
  5
2D15
  8
0-1
  6
CONTINUOUS
 62
     3
 10
11062.130292
 20
13445.48689899999
 30
0.0
 11
11062.130292
 21
19475.457456
 31
0.0
  0
LINE
  5
2D16
  8
0-1
  6
CONTINUOUS
 62
     3
 10
12215.130581999991
 20
18436.689455999989
 30
0.0
 11
12215.130581999991
 21
19832.988205000001
 31
0.0
  0
LINE
  5
2D17
  8
0-1
  6
CONTINUOUS
 62
     3
 10
12252.12877399999
 20
18403.514704000001
 30
0.0
 11
12252.12877399999
 21
19832.988205000001
 31
0.0
  0
LINE
  5
2D18
  8
0-1
  6
CONTINUOUS
 62
     3
 10
12415.129263000001
 20
18257.374764999979
 30
0.0
 11
12415.129263000001
 21
19832.988205000001
 31
0.0
  0
LINE
  5
2D19
  8
0-1
  6
CONTINUOUS
 62
     3
 10
12815.129591999999
 20
17799.134241
 30
0.0
 11
12815.129591999999
 21
19832.988205000001
 31
0.0
  0
LINE
  5
2D1A
  8
0-1
  6
CONTINUOUS
 62
     3
 10
12852.12976399999
 20
17685.074380999991
 30
0.0
 11
12852.12976399999
 21
19832.988205000001
 31
0.0
  0
LINE
  5
2D1B
  8
0-1
  6
CONTINUOUS
 62
     3
 10
13015.129263000001
 20
17392.368906999989
 30
0.0
 11
13015.129263000001
 21
19832.988205000001
 31
0.0
  0
LINE
  5
2D1C
  8
0-1
  6
CONTINUOUS
 62
     3
 10
13052.13042399999
 20
17428.776212000001
 30
0.0
 11
13052.13042399999
 21
19832.988205000001
 31
0.0
  0
LINE
  5
2D1D
  8
0-1
  6
CONTINUOUS
 62
     3
 10
13215.128932999991
 20
17444.758844999989
 30
0.0
 11
13215.128932999991
 21
19832.988205000001
 31
0.0
  0
LINE
  5
2D1E
  8
0-1
  6
CONTINUOUS
 62
     3
 10
13252.12811399999
 20
17408.359457999992
 30
0.0
 11
13252.12811399999
 21
19832.988205000001
 31
0.0
  0
LINE
  5
2D1F
  8
0-1
  6
CONTINUOUS
 62
     3
 10
13415.12959199999
 20
17248.002615999991
 30
0.0
 11
13415.12959199999
 21
19832.988205000001
 31
0.0
  0
LINE
  5
2D20
  8
0-1
  6
CONTINUOUS
 62
     3
 10
13452.129763999999
 20
17211.603229
 30
0.0
 11
13452.129763999999
 21
19832.988205000001
 31
0.0
  0
LINE
  5
2D21
  8
0-1
  6
CONTINUOUS
 62
     3
 10
13615.129263000001
 20
17051.246388
 30
0.0
 11
13615.129263000001
 21
19832.988205000001
 31
0.0
  0
LINE
  5
2D22
  8
0-1
  6
CONTINUOUS
 62
     3
 10
13652.13042399999
 20
17014.847000000002
 30
0.0
 11
13652.13042399999
 21
19832.988205000001
 31
0.0
  0
LINE
  5
2D23
  8
0-1
  6
CONTINUOUS
 62
     3
 10
13815.128933
 20
16854.49015899999
 30
0.0
 11
13815.128933
 21
19832.988205000001
 31
0.0
  0
LINE
  5
2D24
  8
0-1
  6
CONTINUOUS
 62
     3
 10
13852.129103999991
 20
16818.090770999981
 30
0.0
 11
13852.129103999991
 21
19832.988205000001
 31
0.0
  0
LINE
  5
2D25
  8
0-1
  6
CONTINUOUS
 62
     3
 10
14015.12959199999
 20
16657.734919999999
 30
0.0
 11
14015.12959199999
 21
19832.988205000001
 31
0.0
  0
LINE
  5
2D26
  8
0-1
  6
CONTINUOUS
 62
     3
 10
14052.129763999999
 20
16621.33553199999
 30
0.0
 11
14052.129763999999
 21
19832.988205000001
 31
0.0
  0
LINE
  5
2D27
  8
0-1
  6
CONTINUOUS
 62
     3
 10
14225.62969799999
 20
16460.980670000001
 30
0.0
 11
14225.62969799999
 21
19832.988205000001
 31
0.0
  0
LINE
  5
2D28
  8
0-1
  6
CONTINUOUS
 62
     3
 10
14262.63184899999
 20
16424.579302999991
 30
0.0
 11
14262.63184899999
 21
19832.988205000001
 31
0.0
  0
LINE
  5
2D29
  8
0-1
  6
CONTINUOUS
 62
     3
 10
12452.130423999981
 20
18246.321132999969
 30
0.0
 11
12452.130423999981
 21
19832.988205000001
 31
0.0
  0
LINE
  5
2D2A
  8
0-1
  6
CONTINUOUS
 62
     3
 10
12615.128933
 20
18406.711625999978
 30
0.0
 11
12615.128933
 21
19832.988205000001
 31
0.0
  0
LINE
  5
2D2B
  8
0-1
  6
CONTINUOUS
 62
     3
 10
12652.128113999999
 20
18306.617268999991
 30
0.0
 11
12652.128113999999
 21
19832.988205000001
 31
0.0
  0
LINE
  5
2D2D
  8
0-1
  6
CONTINUOUS
 62
     3
 10
24400.515545999991
 20
6241.1883740000012
 30
0.0
 11
24300.516204999989
 21
6241.1883740000012
 31
0.0
  0
LINE
  5
2D2E
  8
0-1
  6
CONTINUOUS
 62
     3
 10
24300.516204999989
 20
6241.1883740000012
 30
0.0
 11
24300.516204999989
 21
6141.1885390000007
 31
0.0
  0
LINE
  5
2D2F
  8
0-1
  6
CONTINUOUS
 62
     3
 10
24400.515545999991
 20
6141.1885390000007
 30
0.0
 11
24400.515545999991
 21
6241.1883740000012
 31
0.0
  0
LINE
  5
2D30
  8
0-1
  6
CONTINUOUS
 62
     3
 10
24308.01660099997
 20
8459.1884659999978
 30
0.0
 11
24308.01660099997
 21
6241.1883740000012
 31
0.0
  0
LINE
  5
2D31
  8
0-1
  6
CONTINUOUS
 62
     3
 10
24263.018184999979
 20
8149.1884330000021
 30
0.0
 11
24263.018184999979
 21
6141.1885390000007
 31
0.0
  0
LINE
  5
2D32
  8
0-1
  6
CONTINUOUS
 62
     3
 10
24373.018052999982
 20
8589.1883999999973
 30
0.0
 11
24373.018052999982
 21
6241.1883740000012
 31
0.0
  0
LINE
  5
2D33
  8
0-1
  6
CONTINUOUS
 62
     3
 10
24393.015149999988
 20
8459.1884659999978
 30
0.0
 11
24393.015149999988
 21
6241.1883740000012
 31
0.0
  0
LINE
  5
2D35
  8
0-1
  6
CONTINUOUS
 62
     3
 10
21032.014225999999
 20
6241.1883740000012
 30
0.0
 11
21132.013565999991
 21
6241.1883740000012
 31
0.0
  0
LINE
  5
2D36
  8
0-1
  6
CONTINUOUS
 62
     3
 10
21132.013565999991
 20
6241.1883740000012
 30
0.0
 11
21132.013565999991
 21
6141.1885390000007
 31
0.0
  0
LINE
  5
2D37
  8
0-1
  6
CONTINUOUS
 62
     3
 10
21032.014225999999
 20
6141.1885390000007
 30
0.0
 11
21032.014225999999
 21
6241.1883740000012
 31
0.0
  0
LINE
  5
2D38
  8
0-1
  6
CONTINUOUS
 62
     3
 10
21169.515545999991
 20
8149.1884330000021
 30
0.0
 11
21169.515545999991
 21
6141.1885390000007
 31
0.0
  0
LINE
  5
2D39
  8
0-1
  6
CONTINUOUS
 62
     3
 10
21124.513169999998
 20
8459.1884659999978
 30
0.0
 11
21124.513169999998
 21
6241.1883740000012
 31
0.0
  0
LINE
  5
2D3A
  8
0-1
  6
CONTINUOUS
 62
     3
 10
21059.513697999999
 20
8589.1883999999973
 30
0.0
 11
21059.513697999999
 21
6241.1883740000012
 31
0.0
  0
LINE
  5
2D3B
  8
0-1
  6
CONTINUOUS
 62
     3
 10
21039.514621999992
 20
8459.1884659999978
 30
0.0
 11
21039.514621999992
 21
6241.1883740000012
 31
0.0
  0
LINE
  5
2D3C
  8
0-1
  6
CONTINUOUS
 62
     3
 10
21169.515545999991
 20
6661.1892650000009
 30
0.0
 11
24263.018184999979
 21
6661.1892650000009
 31
0.0
  0
LINE
  5
2D3D
  8
0-1
  6
CONTINUOUS
 62
     3
 10
21169.515545999991
 20
6596.1888030000027
 30
0.0
 11
24263.018184999979
 21
6596.1888030000027
 31
0.0
  0
LINE
  5
2D3E
  8
0-1
  6
CONTINUOUS
 62
     3
 10
21169.515545999991
 20
6531.1888360000012
 30
0.0
 11
24263.018184999979
 21
6531.1888360000012
 31
0.0
  0
LINE
  5
2D3F
  8
0-1
  6
CONTINUOUS
 62
     3
 10
21169.515545999991
 20
6466.1883740000012
 30
0.0
 11
24263.018184999979
 21
6466.1883740000012
 31
0.0
  0
LINE
  5
2D40
  8
0-1
  6
CONTINUOUS
 62
     3
 10
21169.515545999991
 20
6401.1889020000053
 30
0.0
 11
24263.018184999979
 21
6401.1889020000053
 31
0.0
  0
LINE
  5
2D41
  8
0-1
  6
CONTINUOUS
 62
     3
 10
21169.515545999991
 20
6336.1889350000019
 30
0.0
 11
24263.018184999979
 21
6336.1889350000019
 31
0.0
  0
LINE
  5
2D42
  8
0-1
  6
CONTINUOUS
 62
     3
 10
21169.515545999991
 20
6271.1889680000022
 30
0.0
 11
24263.018184999979
 21
6271.1889680000022
 31
0.0
  0
LINE
  5
2D43
  8
0-1
  6
CONTINUOUS
 62
     3
 10
21169.515545999991
 20
6206.1885060000022
 30
0.0
 11
24263.018184999979
 21
6206.1885060000022
 31
0.0
  0
LINE
  5
2D44
  8
0-1
  6
CONTINUOUS
 62
     3
 10
21169.515545999991
 20
8026.1885720000018
 30
0.0
 11
24263.018184999979
 21
8026.1885720000018
 31
0.0
  0
LINE
  5
2D45
  8
0-1
  6
CONTINUOUS
 62
     3
 10
21169.515545999991
 20
7961.1886050000021
 30
0.0
 11
24263.018184999979
 21
7961.1886050000021
 31
0.0
  0
LINE
  5
2D46
  8
0-1
  6
CONTINUOUS
 62
     3
 10
21169.515545999991
 20
7896.1891330000026
 30
0.0
 11
24263.018184999979
 21
7896.1891330000026
 31
0.0
  0
LINE
  5
2D47
  8
0-1
  6
CONTINUOUS
 62
     3
 10
21169.515545999991
 20
7831.1891659999974
 30
0.0
 11
24263.018184999979
 21
7831.1891659999974
 31
0.0
  0
LINE
  5
2D48
  8
0-1
  6
CONTINUOUS
 62
     3
 10
21169.515545999991
 20
7766.189199000004
 30
0.0
 11
24263.018184999979
 21
7766.189199000004
 31
0.0
  0
LINE
  5
2D49
  8
0-1
  6
CONTINUOUS
 62
     3
 10
21169.515545999991
 20
7701.1887369999977
 30
0.0
 11
24263.018184999979
 21
7701.1887369999977
 31
0.0
  0
LINE
  5
2D4A
  8
0-1
  6
CONTINUOUS
 62
     3
 10
21169.515545999991
 20
7636.1887699999979
 30
0.0
 11
24263.018184999979
 21
7636.1887699999979
 31
0.0
  0
LINE
  5
2D4B
  8
0-1
  6
CONTINUOUS
 62
     3
 10
21169.515545999991
 20
7571.1892980000011
 30
0.0
 11
24263.018184999979
 21
7571.1892980000011
 31
0.0
  0
LINE
  5
2D4C
  8
0-1
  6
CONTINUOUS
 62
     3
 10
21169.515545999991
 20
7506.1893309999978
 30
0.0
 11
24263.018184999979
 21
7506.1893309999978
 31
0.0
  0
LINE
  5
2D4D
  8
0-1
  6
CONTINUOUS
 62
     3
 10
21169.515545999991
 20
7441.1888690000023
 30
0.0
 11
24263.018184999979
 21
7441.1888690000023
 31
0.0
  0
LINE
  5
2D4E
  8
0-1
  6
CONTINUOUS
 62
     3
 10
21169.515545999991
 20
7376.188901999999
 30
0.0
 11
24263.018184999979
 21
7376.188901999999
 31
0.0
  0
LINE
  5
2D4F
  8
0-1
  6
CONTINUOUS
 62
     3
 10
21169.515545999991
 20
7311.1889350000029
 30
0.0
 11
24263.018184999979
 21
7311.1889350000029
 31
0.0
  0
LINE
  5
2D50
  8
0-1
  6
CONTINUOUS
 62
     3
 10
21169.515545999991
 20
7246.1884730000029
 30
0.0
 11
24263.018184999979
 21
7246.1884730000029
 31
0.0
  0
LINE
  5
2D51
  8
0-1
  6
CONTINUOUS
 62
     3
 10
21169.515545999991
 20
7181.1885060000013
 30
0.0
 11
24263.018184999979
 21
7181.1885060000013
 31
0.0
  0
LINE
  5
2D52
  8
0-1
  6
CONTINUOUS
 62
     3
 10
21169.515545999991
 20
7116.1890340000009
 30
0.0
 11
24263.018184999979
 21
7116.1890340000009
 31
0.0
  0
LINE
  5
2D53
  8
0-1
  6
CONTINUOUS
 62
     3
 10
21169.515545999991
 20
7051.1890670000012
 30
0.0
 11
24263.018184999979
 21
7051.1890670000012
 31
0.0
  0
LINE
  5
2D54
  8
0-1
  6
CONTINUOUS
 62
     3
 10
21169.515545999991
 20
6986.1890999999996
 30
0.0
 11
24263.018184999979
 21
6986.1890999999996
 31
0.0
  0
LINE
  5
2D55
  8
0-1
  6
CONTINUOUS
 62
     3
 10
21169.515545999991
 20
6921.1886380000024
 30
0.0
 11
24263.018184999979
 21
6921.1886380000024
 31
0.0
  0
LINE
  5
2D56
  8
0-1
  6
CONTINUOUS
 62
     3
 10
21169.515545999991
 20
6856.1886710000017
 30
0.0
 11
24263.018184999979
 21
6856.1886710000017
 31
0.0
  0
LINE
  5
2D57
  8
0-1
  6
CONTINUOUS
 62
     3
 10
21169.515545999991
 20
6791.1891990000031
 30
0.0
 11
24263.018184999979
 21
6791.1891990000031
 31
0.0
  0
LINE
  5
2D58
  8
0-1
  6
CONTINUOUS
 62
     3
 10
21169.515545999991
 20
6726.1892319999997
 30
0.0
 11
24263.018184999979
 21
6726.1892319999997
 31
0.0
  0
LINE
  5
2D59
  8
0-1
  6
CONTINUOUS
 62
     3
 10
21169.515545999991
 20
8080.6485920000023
 30
0.0
 11
24263.018184999979
 21
8080.6485920000023
 31
0.0
  0
LINE
  5
2D5A
  8
0-1
  6
CONTINUOUS
 62
     3
 10
21032.014225999999
 20
6141.1885390000007
 30
0.0
 11
24400.515545999991
 21
6141.1885390000007
 31
0.0
  0
LINE
  5
2D6C
  8
0-1
  6
CONTINUOUS
 62
     3
 10
11104.629565999991
 20
16795.488627999988
 30
0.0
 11
13875.106366
 21
16795.488627999988
 31
0.0
  0
LINE
  5
2D6D
  8
2-0
  6
DASHED3
 62
     6
 10
14303.130819999989
 20
16750.486251999992
 30
0.0
 11
14117.68545954002
 21
16556.742266586341
 31
0.0
  0
LINE
  5
2D6E
  8
0-1
  6
CONTINUOUS
 62
     3
 10
11174.630292
 20
16750.486251999992
 30
0.0
 11
14303.130819999989
 21
13481.986252000001
 31
0.0
  0
LINE
  5
2D6F
  8
2-0
  6
DASHED3
 62
     6
 10
11174.630292
 20
19668.486251999992
 30
0.0
 11
12572.451878838499
 21
18364.716809134548
 31
0.0
  0
LINE
  5
2D70
  8
2-0
  6
DASHED3
 62
     6
 10
14303.130819999989
 20
19668.486251999992
 30
0.0
 11
12696.190093381771
 21
18169.668208561889
 31
0.0
  0
LINE
  5
2D71
  8
0-1
  6
CONTINUOUS
 62
     3
 10
11037.128932999991
 20
19495.17939999999
 30
0.0
 11
11037.128932999991
 21
19873.487175999991
 31
0.0
  0
LINE
  5
2D72
  8
0-1
  6
CONTINUOUS
 62
     3
 10
11092.629685
 20
19855.988230999988
 30
0.0
 11
11092.629685
 21
19885.987834999982
 31
0.0
  0
LINE
  5
2D73
  8
0-1
  6
CONTINUOUS
 62
     3
 10
11019.130160000001
 20
19885.987834999982
 30
0.0
 11
11019.130160000001
 21
19850.985987999979
 31
0.0
  0
LINE
  5
2D74
  8
0-1
  6
CONTINUOUS
 62
     3
 10
11087.629420999991
 20
19890.986120000001
 30
0.0
 11
11024.129434
 21
19890.986120000001
 31
0.0
  0
LINE
  5
2D75
  8
0-1
  6
CONTINUOUS
 62
     3
 10
11037.128932999991
 20
19873.487175999991
 30
0.0
 11
11019.130160000001
 21
19873.487175999991
 31
0.0
  0
LINE
  5
2D76
  8
0-1
  6
CONTINUOUS
 62
     3
 10
11037.128932999991
 20
19850.985987999979
 30
0.0
 11
11087.629420999991
 21
19850.985987999979
 31
0.0
  0
LINE
  5
2D77
  8
0-1
  6
CONTINUOUS
 62
     3
 10
14440.631188999991
 20
16252.418591999991
 30
0.0
 11
14440.631188999991
 21
19873.487175999991
 31
0.0
  0
LINE
  5
2D78
  8
0-1
  6
CONTINUOUS
 62
     3
 10
14440.631188999991
 20
19873.487175999991
 30
0.0
 11
14458.630950999979
 21
19873.487175999991
 31
0.0
  0
LINE
  5
2D79
  8
0-1
  6
CONTINUOUS
 62
     3
 10
14385.130437
 20
19855.988230999988
 30
0.0
 11
14385.130437
 21
19885.987834999982
 31
0.0
  0
LINE
  5
2D7A
  8
0-1
  6
CONTINUOUS
 62
     3
 10
14440.631188999991
 20
19850.985987999979
 30
0.0
 11
14390.131691000001
 21
19850.985987999979
 31
0.0
  0
LINE
  5
2D7B
  8
0-1
  6
CONTINUOUS
 62
     3
 10
14458.630950999979
 20
19885.987834999982
 30
0.0
 11
14458.630950999979
 21
19850.985987999979
 31
0.0
  0
LINE
  5
2D7C
  8
0-1
  6
CONTINUOUS
 62
     3
 10
14390.131691000001
 20
19890.986120000001
 30
0.0
 11
14453.629697999981
 21
19890.986120000001
 31
0.0
  0
LINE
  5
2D7D
  8
0-2
  6
CONTINUOUS
 62
     4
 10
23079.956884999981
 20
6888.4152330000024
 30
0.0
 11
22979.957544999968
 21
6888.4152330000024
 31
0.0
  0
LINE
  5
2D7E
  8
0-2
  6
CONTINUOUS
 62
     4
 10
22352.572884999969
 20
6888.4152330000024
 30
0.0
 11
22452.572224999982
 21
6888.4152330000024
 31
0.0
  0
LINE
  5
2D7F
  8
0-5
  6
CONTINUOUS
 62
     4
 10
24350.51686499998
 20
4461.1889350000001
 30
0.0
 11
24350.51686499998
 21
4301.1893970000001
 31
0.0
  0
LINE
  5
2D80
  8
0-5
  6
CONTINUOUS
 62
     4
 10
18860.143844999991
 20
6349.0350210000024
 30
0.0
 11
18980.14226099999
 21
6141.1885390000007
 31
0.0
  0
LINE
  5
2D81
  8
0-5
  6
CONTINUOUS
 62
     4
 10
16409.765163000011
 20
6141.1885390000007
 30
0.0
 11
20952.015941999969
 21
6141.1885390000007
 31
0.0
  0
LINE
  5
2D82
  8
0-5
  6
CONTINUOUS
 62
     4
 10
18980.14226099999
 20
6141.1885390000007
 30
0.0
 11
19100.142656999989
 21
6349.0350210000024
 31
0.0
  0
LINE
  5
2D83
  8
0-5
  6
CONTINUOUS
 62
     4
 10
19100.142656999989
 20
6349.0350210000024
 30
0.0
 11
18860.143844999991
 21
6349.0350210000024
 31
0.0
  0
LINE
  5
2D84
  8
0-5
  6
CONTINUOUS
 62
     4
 10
21082.016864999969
 20
4461.1889350000001
 30
0.0
 11
21082.016864999969
 21
4301.1893970000001
 31
0.0
  0
LINE
  5
2D85
  8
0-6
  6
CONTINUOUS
 62
     6
 10
11194.44527299999
 20
18759.389716999991
 30
0.0
 11
11104.629565999991
 21
18894.462167999991
 31
0.0
  0
LINE
  5
2D86
  8
0-6
  6
CONTINUOUS
 62
     6
 10
11104.629565999991
 20
18894.462167999991
 30
0.0
 11
11145.783756999999
 21
18737.561566
 31
0.0
  0
LINE
  5
2D87
  8
0-6
  6
CONTINUOUS
 62
     6
 10
11104.629565999991
 20
18894.462167999991
 30
0.0
 11
11194.44527299999
 21
18759.389716999991
 31
0.0
  0
LINE
  5
2D88
  8
0-6
  6
CONTINUOUS
 62
     6
 10
11194.44527299999
 20
18759.389716999991
 30
0.0
 11
11145.783756999999
 21
18737.561566
 31
0.0
  0
LINE
  5
2D89
  8
0-6
  6
CONTINUOUS
 62
     6
 10
11145.783756999999
 20
18737.561566
 30
0.0
 11
11104.629565999991
 21
18894.462167999991
 31
0.0
  0
LINE
  5
2D8A
  8
0-6
  6
CONTINUOUS
 62
     6
 10
11145.783756999999
 20
18737.561566
 30
0.0
 11
11194.44527299999
 21
18759.389716999991
 31
0.0
  0
LINE
  5
2D8B
  8
0-6
  6
CONTINUOUS
 62
     6
 10
11269.155272999969
 20
18527.683108000001
 30
0.0
 11
11789.155999000001
 21
18527.683108000001
 31
0.0
  0
LINE
  5
2D8C
  8
0-6
  6
CONTINUOUS
 62
     6
 10
12255.010953000001
 20
13676.376956
 30
0.0
 11
12337.898345
 21
13853.31523499998
 31
0.0
  0
LINE
  5
2D8D
  8
0-6
  6
CONTINUOUS
 62
     6
 10
12337.898345
 20
13853.31523499998
 30
0.0
 11
13137.89900499999
 21
13853.31523499998
 31
0.0
  0
LINE
  5
2D8E
  8
0-6
  6
CONTINUOUS
 62
     6
 10
12862.05408
 20
13166.93993099999
 30
0.0
 11
12755.78362499998
 21
13289.48697799999
 31
0.0
  0
LINE
  5
2D8F
  8
0-6
  6
CONTINUOUS
 62
     6
 10
12755.78362499998
 20
13289.48697799999
 30
0.0
 11
12816.56573299999
 21
13139.098002000001
 31
0.0
  0
LINE
  5
2D90
  8
0-6
  6
CONTINUOUS
 62
     6
 10
12755.78362499998
 20
13289.48697799999
 30
0.0
 11
12862.05408
 21
13166.93993099999
 31
0.0
  0
LINE
  5
2D91
  8
0-6
  6
CONTINUOUS
 62
     6
 10
12862.05408
 20
13166.93993099999
 30
0.0
 11
12816.56573299999
 21
13139.098002000001
 31
0.0
  0
LINE
  5
2D92
  8
0-6
  6
CONTINUOUS
 62
     6
 10
12816.56573299999
 20
13139.098002000001
 30
0.0
 11
12755.78362499998
 21
13289.48697799999
 31
0.0
  0
LINE
  5
2D93
  8
0-6
  6
CONTINUOUS
 62
     6
 10
12816.56573299999
 20
13139.098002000001
 30
0.0
 11
12862.05408
 21
13166.93993099999
 31
0.0
  0
LINE
  5
2D94
  8
0-6
  6
CONTINUOUS
 62
     6
 10
12230.863795999991
 20
13687.688915000001
 30
0.0
 11
12187.13820999999
 21
13531.486094
 31
0.0
  0
LINE
  5
2D95
  8
0-6
  6
CONTINUOUS
 62
     6
 10
12187.13820999999
 20
13531.486094
 30
0.0
 11
12279.15910099999
 21
13665.064006999981
 31
0.0
  0
LINE
  5
2D96
  8
0-6
  6
CONTINUOUS
 62
     6
 10
12187.13820999999
 20
13531.486094
 30
0.0
 11
12230.863795999991
 21
13687.688915000001
 31
0.0
  0
LINE
  5
2D97
  8
0-6
  6
CONTINUOUS
 62
     6
 10
12230.863795999991
 20
13687.688915000001
 30
0.0
 11
12279.15910099999
 21
13665.064006999981
 31
0.0
  0
LINE
  5
2D98
  8
0-6
  6
CONTINUOUS
 62
     6
 10
12279.15910099999
 20
13665.064006999981
 30
0.0
 11
12187.13820999999
 21
13531.486094
 31
0.0
  0
LINE
  5
2D99
  8
0-6
  6
CONTINUOUS
 62
     6
 10
12279.15910099999
 20
13665.064006999981
 30
0.0
 11
12230.863795999991
 21
13687.688915000001
 31
0.0
  0
LINE
  5
2D9A
  8
0-6
  6
CONTINUOUS
 62
     6
 10
13245.422495000001
 20
12489.487308
 30
0.0
 11
14108.002666
 21
12489.487308
 31
0.0
  0
LINE
  5
2D9B
  8
0-6
  6
CONTINUOUS
 62
     6
 10
12839.31040199999
 20
13153.018967
 30
0.0
 11
13245.422495000001
 21
12489.487308
 31
0.0
  0
LINE
  5
2D9C
  8
0-6
  6
CONTINUOUS
 62
     6
 10
10952.67974
 20
13861.776687
 30
0.0
 11
10975.13044999999
 21
14022.42253799999
 31
0.0
  0
LINE
  5
2D9D
  8
0-6
  6
CONTINUOUS
 62
     6
 10
10975.13044999999
 20
14022.42253799999
 30
0.0
 11
10901.793245999979
 21
13877.741504
 31
0.0
  0
LINE
  5
2D9E
  8
0-6
  6
CONTINUOUS
 62
     6
 10
10975.13044999999
 20
14022.42253799999
 30
0.0
 11
10952.67974
 21
13861.776687
 31
0.0
  0
LINE
  5
2D9F
  8
0-6
  6
CONTINUOUS
 62
     6
 10
10952.67974
 20
13861.776687
 30
0.0
 11
10901.793245999979
 21
13877.741504
 31
0.0
  0
LINE
  5
2DA0
  8
0-6
  6
CONTINUOUS
 62
     6
 10
10901.793245999979
 20
13877.741504
 30
0.0
 11
10975.13044999999
 21
14022.42253799999
 31
0.0
  0
LINE
  5
2DA1
  8
0-6
  6
CONTINUOUS
 62
     6
 10
10901.793245999979
 20
13877.741504
 30
0.0
 11
10952.67974
 21
13861.776687
 31
0.0
  0
LINE
  5
2DA2
  8
0-6
  6
CONTINUOUS
 62
     6
 10
9260.4961989999956
 20
11999.48618599998
 30
0.0
 11
10340.495803
 21
11999.48618599998
 31
0.0
  0
LINE
  5
2DA3
  8
0-6
  6
CONTINUOUS
 62
     6
 10
10927.23599799998
 20
13869.75810599999
 30
0.0
 11
10340.495803
 21
11999.48618599998
 31
0.0
  0
LINE
  5
2DA4
  8
0-6
  6
CONTINUOUS
 62
     6
 10
11170.11500999999
 20
18748.476631000001
 30
0.0
 11
11269.155272999969
 21
18527.683108000001
 31
0.0
  0
LINE
  5
2DA5
  8
0-6
  6
CONTINUOUS
 62
     6
 10
14547.318293
 20
20024.793657999991
 30
0.0
 11
14455.630950999979
 21
19890.986120000001
 31
0.0
  0
LINE
  5
2DA6
  8
0-6
  6
CONTINUOUS
 62
     6
 10
14455.630950999979
 20
19890.986120000001
 30
0.0
 11
14585.75955399998
 21
19987.826147999978
 31
0.0
  0
LINE
  5
2DA7
  8
0-6
  6
CONTINUOUS
 62
     6
 10
14455.630950999979
 20
19890.986120000001
 30
0.0
 11
14547.318293
 21
20024.793657999991
 31
0.0
  0
LINE
  5
2DA8
  8
0-6
  6
CONTINUOUS
 62
     6
 10
14547.318293
 20
20024.793657999991
 30
0.0
 11
14585.75955399998
 21
19987.826147999978
 31
0.0
  0
LINE
  5
2DA9
  8
0-6
  6
CONTINUOUS
 62
     6
 10
14585.75955399998
 20
19987.826147999978
 30
0.0
 11
14455.630950999979
 21
19890.986120000001
 31
0.0
  0
LINE
  5
2DAA
  8
0-6
  6
CONTINUOUS
 62
     6
 10
14585.75955399998
 20
19987.826147999978
 30
0.0
 11
14547.318293
 21
20024.793657999991
 31
0.0
  0
LINE
  5
2DAB
  8
0-6
  6
CONTINUOUS
 62
     6
 10
14566.539419000001
 20
20006.308913000001
 30
0.0
 11
15083.52830699998
 21
20510.987175999991
 31
0.0
  0
LINE
  5
2DAC
  8
0-6
  6
CONTINUOUS
 62
     6
 10
15083.52830699998
 20
20510.987175999991
 30
0.0
 11
16758.527646999992
 21
20510.987175999991
 31
0.0
  0
LINE
  5
2DAD
  8
2-0
  6
DASHED3
 62
     6
 10
11104.629565999991
 20
19629.487755999991
 30
0.0
 11
14373.129565999971
 21
19629.487755999991
 31
0.0
  0
LINE
  5
2DAE
  8
2-0
  6
DASHED3
 62
     6
 10
11062.130292
 20
19475.457456
 30
0.0
 11
11062.130292
 21
19714.488283999988
 31
0.0
  0
LINE
  5
2DAF
  8
2-0
  6
DASHED3
 62
     6
 10
11104.629565999991
 20
19437.349743999981
 30
0.0
 11
11104.629565999991
 21
19714.488283999988
 31
0.0
  0
LINE
  5
2DB0
  8
2-0
  6
DASHED3
 62
     6
 10
11062.130292
 20
19714.488283999988
 30
0.0
 11
14415.630819999989
 21
19714.488283999988
 31
0.0
  0
LINE
  5
2DB1
  8
2-0
  6
DASHED3
 62
     6
 10
14373.129565999971
 20
16315.87206099998
 30
0.0
 11
14373.129565999971
 21
19714.488283999988
 31
0.0
  0
LINE
  5
2DB2
  8
2-0
  6
DASHED3
 62
     6
 10
14415.630819999989
 20
16274.059678999991
 30
0.0
 11
14415.630819999989
 21
19714.488283999988
 31
0.0
  0
LINE
  5
2DB3
  8
2-0
  6
DASHED3
 62
     6
 10
13966.59080699999
 20
16705.485856999989
 30
0.0
 11
14373.129565999971
 21
16705.485856999989
 31
0.0
  0
LINE
  5
2DB4
  8
2-0
  6
DASHED3
 62
     6
 10
13875.106366
 20
16795.488627999988
 30
0.0
 11
14373.129565999971
 21
16795.488627999988
 31
0.0
  0
LINE
  5
2DB5
  8
2-0
  6
CENTER2
 62
     6
 10
14373.129565999971
 20
20910.988495000001
 30
0.0
 11
14373.129565999971
 21
19960.987834999989
 31
0.0
  0
LINE
  5
2DB6
  8
2-0
  6
CENTER2
 62
     6
 10
9775.1294609999986
 20
19668.486251999992
 30
0.0
 11
11421.62868199998
 21
19668.486251999992
 31
0.0
  0
LINE
  5
2DB7
  8
0-8
  6
CONTINUOUS
 62
     6
 10
11104.629565999991
 20
20910.988495000001
 30
0.0
 11
11104.629565999991
 21
19960.987834999989
 31
0.0
  0
LINE
  5
2DB8
  8
2-0
  6
CENTER2
 62
     6
 10
9775.1294609999986
 20
16750.486251999992
 30
0.0
 11
11421.62868199998
 21
16750.486251999992
 31
0.0
  0
LINE
  5
2DB9
  8
2-0
  6
CENTER2
 62
     6
 10
9775.1294609999986
 20
13481.986252000001
 30
0.0
 11
11421.62868199998
 21
13481.986252000001
 31
0.0
  0
LINE
  5
2DBA
  8
2-0
  6
CENTER2
 62
     6
 10
24350.51686499998
 20
5878.536116000002
 30
0.0
 11
24350.51686499998
 21
6915.6791430000021
 31
0.0
  0
LINE
  5
2DBB
  8
2-0
  6
CENTER2
 62
     6
 10
21082.016864999969
 20
5878.536116000002
 30
0.0
 11
21082.016864999969
 21
6915.6791430000021
 31
0.0
  0
ARC
  5
2DC4
  8
0-1
  6
CONTINUOUS
 62
     3
 10
11087.629420999991
 20
19855.988230999988
 30
0.0
 40
5.0
 50
269.9999850001808
 51
0.0
  0
ARC
  5
2DC5
  8
0-1
  6
CONTINUOUS
 62
     3
 10
11087.629420999991
 20
19885.987834999982
 30
0.0
 40
5.0
 50
0.0
 51
90.0
  0
ARC
  5
2DC6
  8
0-1
  6
CONTINUOUS
 62
     3
 10
11024.129434
 20
19885.987834999982
 30
0.0
 40
5.0
 50
90.0
 51
180.0
  0
ARC
  5
2DC7
  8
0-1
  6
CONTINUOUS
 62
     3
 10
14453.629697999981
 20
19885.987834999982
 30
0.0
 40
5.0
 50
0.0
 51
90.0
  0
ARC
  5
2DC8
  8
0-1
  6
CONTINUOUS
 62
     3
 10
14390.131691000001
 20
19885.987834999982
 30
0.0
 40
5.0
 50
90.0
 51
180.0
  0
ARC
  5
2DC9
  8
0-1
  6
CONTINUOUS
 62
     3
 10
14390.131691000001
 20
19855.988230999988
 30
0.0
 40
5.0
 50
180.0
 51
269.9999850001808
  0
CIRCLE
  5
2DCA
  8
0-5
  6
CONTINUOUS
 62
     4
 10
14373.129565999971
 20
21110.987175999991
 30
0.0
 40
199.9999949999999
  0
CIRCLE
  5
2DCB
  8
0-5
  6
CONTINUOUS
 62
     4
 10
11104.629565999991
 20
21110.987175999991
 30
0.0
 40
199.9999949999999
  0
CIRCLE
  5
2DCC
  8
0-5
  6
CONTINUOUS
 62
     4
 10
9575.1297900000045
 20
19668.486251999992
 30
0.0
 40
199.9999949999999
  0
CIRCLE
  5
2DCD
  8
0-5
  6
CONTINUOUS
 62
     4
 10
9575.1297900000045
 20
16750.486251999992
 30
0.0
 40
199.9999949999999
  0
CIRCLE
  5
2DCE
  8
0-5
  6
CONTINUOUS
 62
     4
 10
9575.1297900000045
 20
13481.986252000001
 30
0.0
 40
199.9999949999999
  0
CIRCLE
  5
2DCF
  8
0-5
  6
CONTINUOUS
 62
     4
 10
24350.51686499998
 20
4101.1882420000011
 30
0.0
 40
199.9999949999999
  0
CIRCLE
  5
2DD0
  8
0-5
  6
CONTINUOUS
 62
     4
 10
21082.016864999969
 20
4101.1882420000011
 30
0.0
 40
199.9999949999999
  0
TEXT
  5
2DD1
  8
0-5
  6
CONTINUOUS
 62
     7
 10
14319.412359999989
 20
21021.772252999999
 30
0.0
 40
160.0
  1
2
 72
     4
 11
14372.745693333331
 21
21101.772252999999
 31
0.0
  0
TEXT
  5
2DD2
  8
0-5
  6
CONTINUOUS
 62
     7
 10
11050.910380999991
 20
21021.772252999999
 30
0.0
 40
160.0
  1
1
 72
     4
 11
11077.57704766666
 21
21101.772252999999
 31
0.0
  0
TEXT
  5
2DD3
  8
0-5
  6
CONTINUOUS
 62
     7
 10
9521.6699219999991
 20
19588.897727999989
 30
0.0
 40
160.0
  1
C
 72
     4
 11
9575.0032553333331
 21
19668.897727999989
 31
0.0
  0
TEXT
  5
2DD4
  8
0-5
  6
CONTINUOUS
 62
     7
 10
9521.6699219999991
 20
16670.898717999989
 30
0.0
 40
160.0
  1
B
 72
     4
 11
9575.0032553333331
 21
16750.898717999989
 31
0.0
  0
TEXT
  5
2DD5
  8
0-5
  6
CONTINUOUS
 62
     7
 10
9521.6699219999991
 20
13402.397727999991
 30
0.0
 40
160.0
  1
A
 72
     4
 11
9575.0032553333331
 21
13482.397727999991
 31
0.0
  0
TEXT
  5
2DD6
  8
0-5
  6
CONTINUOUS
 62
     7
 10
24298.603989999989
 20
4011.7132600000009
 30
0.0
 40
160.0
  1
2
 72
     4
 11
24351.937323333321
 21
4091.7132600000009
 31
0.0
  0
TEXT
  5
2DD7
  8
0-5
  6
CONTINUOUS
 62
     7
 10
18860.143844999991
 20
6429.0347900000006
 30
0.0
 40
160.0
  1
G.L
 72
     4
 11
19020.143844999991
 21
6509.0347900000006
 31
0.0
  0
TEXT
  5
2DD8
  8
0-5
  6
CONTINUOUS
 62
     7
 10
21030.103991
 20
4011.7132600000009
 30
0.0
 40
160.0
  1
1
 72
     4
 11
21056.770657666671
 21
4091.7132600000009
 31
0.0
  0
TEXT
  5
2DD9
  8
0-6
  6
CONTINUOUS
 62
     7
 10
12417.89761899999
 20
13933.315499
 30
0.0
 40
160.0
  1
桁（前）
 72
     4
 11
12737.89761899999
 21
14013.315499
 31
0.0
  0
TEXT
  5
2DDA
  8
0-6
  6
CONTINUOUS
 62
     7
 10
13325.42176899999
 20
12569.486582
 30
0.0
 40
160.0
  1
鼻隠し前
 72
     4
 11
13688.088435666659
 21
12649.486582
 31
0.0
  0
TEXT
  5
2DDB
  8
0-6
  6
CONTINUOUS
 62
     7
 10
9340.4964629999977
 20
12079.485459999991
 30
0.0
 40
160.0
  1
ケラバ 左
 72
     4
 11
9756.4964629999977
 21
12159.485459999991
 31
0.0
  0
TEXT
  5
2DDC
  8
0-6
  6
CONTINUOUS
 62
     7
 10
11349.15553699999
 20
18607.683372
 30
0.0
 40
160.0
  1
上枠
 72
     4
 11
11519.822203666659
 21
18687.683372
 31
0.0
  0
TEXT
  5
2DDD
  8
0-6
  6
CONTINUOUS
 62
     7
 10
15163.528571000001
 20
20590.985459999989
 30
0.0
 40
160.0
  1
鼻隠しコーナー後
 72
     4
 11
15910.19523766667
 21
20670.985459999989
 31
0.0
  0
TEXT
  5
2DDE
  8
2-0
  6
CONTINUOUS
 62
     7
 10
21480.974978999999
 20
11251.104441999991
 30
0.0
 40
160.0
  1
平　面　図
 72
     4
 11
21934.308312333331
 21
11325.77110866666
 31
0.0
  0
TEXT
  5
2DDF
  8
2-0
  6
CONTINUOUS
 62
     7
 10
11554.012945999981
 20
11245.77110866666
 30
0.0
 40
160.0
  1
小 屋 伏 図
 72
     4
 11
12055.34627933332
 21
11325.77110866666
 31
0.0
  0
TEXT
  5
2DE0
  8
2-0
  6
CONTINUOUS
 62
     7
 10
21373.172375999999
 20
3292.802588999999
 30
0.0
 40
160.0
  1
正 面 立 面 図
 72
     4
 11
22018.505709333331
 21
3372.802588999999
 31
0.0
  0
CIRCLE
  5
2DE1
  8
0-4
  6
CONTINUOUS
 62
     4
 10
22716.26686499998
 20
6627.2449749999987
 30
0.0
 40
18.487504999999981
  0
TEXT
  5
2DE2
  8
2-0
  6
CONTINUOUS
 62
     7
 10
23369.997894470969
 20
3319.9979579999999
 30
0.0
 40
160.0
  1
1
 72
     4
 11
23396.66456113763
 21
3399.9979579999999
 31
0.0
  0
TEXT
  5
2DE3
  8
2-0
  6
CONTINUOUS
 62
     7
 10
23613.08661172165
 20
3239.9994259999989
 30
0.0
 40
160.0
  1
80
 72
     4
 11
23733.08661172165
 21
3319.9994259999989
 31
0.0
  0
TEXT
  5
2DE4
  8
2-0
  6
CONTINUOUS
 62
     7
 10
22870.999860470962
 20
3292.802588999999
 30
0.0
 40
160.0
  1
(S=  /   )
 72
     4
 11
23430.999860470962
 21
3372.802588999999
 31
0.0
  0
TEXT
  5
2DE5
  8
2-0
  6
CONTINUOUS
 62
     7
 10
23285.800497470969
 20
11272.96647766667
 30
0.0
 40
160.0
  1
1
 72
     4
 11
23312.467164137641
 21
11352.96647766667
 31
0.0
  0
TEXT
  5
2DE6
  8
2-0
  6
CONTINUOUS
 62
     7
 10
23528.88921472165
 20
11192.967945666671
 30
0.0
 40
160.0
  1
80
 72
     4
 11
23648.88921472165
 21
11272.967945666671
 31
0.0
  0
TEXT
  5
2DE7
  8
2-0
  6
CONTINUOUS
 62
     7
 10
22786.802463470962
 20
11245.77110866666
 30
0.0
 40
160.0
  1
(S=  /   )
 72
     4
 11
23346.802463470962
 21
11325.77110866666
 31
0.0
  0
TEXT
  5
2DE8
  8
2-0
  6
CONTINUOUS
 62
     7
 10
13406.83846447094
 20
11272.96647766667
 30
0.0
 40
160.0
  1
1
 72
     4
 11
13433.50513113761
 21
11352.96647766667
 31
0.0
  0
TEXT
  5
2DE9
  8
2-0
  6
CONTINUOUS
 62
     7
 10
13649.927181721639
 20
11192.967945666671
 30
0.0
 40
160.0
  1
80
 72
     4
 11
13769.927181721639
 21
11272.967945666671
 31
0.0
  0
TEXT
  5
2DEA
  8
2-0
  6
CONTINUOUS
 62
     7
 10
12907.84043047094
 20
11245.77110866666
 30
0.0
 40
160.0
  1
(S=  /   )
 72
     4
 11
13467.84043047094
 21
11325.77110866666
 31
0.0
  0
LINE
  5
2DEB
  8
2-0
  6
CONTINUOUS
 62
     6
 10
22667.357948999961
 20
12841.98512999999
 30
0.0
 11
23667.35135099995
 21
12841.98512999999
 31
0.0
  0
LINE
  5
2DEC
  8
2-0
  6
CONTINUOUS
 62
     6
 10
24135.291727999971
 20
13312.405844000001
 30
0.0
 11
23667.35135099995
 21
12841.98512999999
 31
0.0
  0
LINE
  5
2DED
  8
2-0
  6
CONTINUOUS
 62
     6
 10
24096.651524999961
 20
16854.513491000002
 30
0.0
 11
23791.95610699998
 21
16958.16702200002
 31
0.0
  0
LINE
  5
2DEE
  8
2-0
  6
CONTINUOUS
 62
     6
 10
24251.673563999939
 20
16364.89144700002
 30
0.0
 11
23791.95610699998
 21
16120.978136000011
 31
0.0
  0
LINE
  5
2DEF
  8
2-0
  6
CONTINUOUS
 62
     6
 10
22871.95307199996
 20
16120.978136000011
 30
0.0
 11
23791.95610699998
 21
16120.978136000011
 31
0.0
  0
LINE
  5
2DF0
  8
2-0
  6
CONTINUOUS
 62
     6
 10
22591.962044999971
 20
16958.16702200002
 30
0.0
 11
23791.95610699998
 21
16958.16702200002
 31
0.0
  0
LINE
  5
2DF1
  8
2-0
  6
CONTINUOUS
 62
     6
 10
24167.85084899998
 20
13634.08948999998
 30
0.0
 11
23791.95610699998
 21
13815.033325
 31
0.0
  0
LINE
  5
2DF2
  8
2-0
  6
CONTINUOUS
 62
     6
 10
23271.954390999981
 20
13815.033325
 30
0.0
 11
23791.95610699998
 21
13815.033325
 31
0.0
  0
LINE
  5
2DF3
  8
2-0
  6
CONTINUOUS
 62
     4
 10
21082.016864999969
 20
19790.986780000021
 30
0.0
 11
21082.016864999969
 21
20520.983745000001
 31
0.0
  0
LINE
  5
2DF4
  8
2-0
  6
CONTINUOUS
 62
     3
 10
24363.017524999981
 20
19601.984326000009
 30
0.0
 11
24363.017524999981
 21
19595.988364000012
 31
0.0
  0
LINE
  5
2DF5
  8
2-0
  6
CONTINUOUS
 62
     3
 10
24363.017524999981
 20
19595.988364000012
 30
0.0
 11
24393.01514899997
 21
19595.988364000012
 31
0.0
  0
LINE
  5
2DF6
  8
2-0
  6
CONTINUOUS
 62
     3
 10
24393.01514899997
 20
19625.987968000001
 30
0.0
 11
24312.01324899996
 21
19625.987968000001
 31
0.0
  0
LINE
  5
2DF7
  8
2-0
  6
CONTINUOUS
 62
     3
 10
24363.017524999981
 20
19585.690908
 30
0.0
 11
24393.01514899997
 21
19585.690908
 31
0.0
  0
LINE
  5
2DF8
  8
2-0
  6
CONTINUOUS
 62
     3
 10
24363.017524999981
 20
19603.692650000001
 30
0.0
 11
24363.017524999981
 21
19585.690908
 31
0.0
  0
LINE
  5
2DF9
  8
2-0
  6
CONTINUOUS
 62
     3
 10
24388.014884999971
 20
19603.692650000001
 30
0.0
 11
24363.017524999981
 21
19603.692650000001
 31
0.0
  0
LINE
  5
2DFA
  8
2-0
  6
CONTINUOUS
 62
     3
 10
24388.014884999971
 20
19598.68446800001
 30
0.0
 11
24388.014884999971
 21
19603.692650000001
 31
0.0
  0
LINE
  5
2DFB
  8
2-0
  6
CONTINUOUS
 62
     3
 10
24381.01332799999
 20
19598.68446800001
 30
0.0
 11
24388.014884999971
 21
19598.68446800001
 31
0.0
  0
LINE
  5
2DFC
  8
2-0
  6
CONTINUOUS
 62
     3
 10
24280.717059999981
 20
19698.984695000021
 30
0.0
 11
24280.717059999981
 21
19705.990211000011
 31
0.0
  0
LINE
  5
2DFD
  8
2-0
  6
CONTINUOUS
 62
     3
 10
24280.717059999981
 20
19705.990211000011
 30
0.0
 11
24285.717323999961
 21
19705.990211000011
 31
0.0
  0
LINE
  5
2DFE
  8
2-0
  6
CONTINUOUS
 62
     3
 10
24285.717323999961
 20
19705.990211000011
 30
0.0
 11
24285.717323999961
 21
19680.980973999998
 31
0.0
  0
LINE
  5
2DFF
  8
2-0
  6
CONTINUOUS
 62
     3
 10
24285.717323999961
 20
19680.980973999998
 30
0.0
 11
24267.715581999961
 21
19680.980973999998
 31
0.0
  0
LINE
  5
2E00
  8
2-0
  6
CONTINUOUS
 62
     3
 10
24267.715581999961
 20
19680.980973999998
 30
0.0
 11
24267.715581999961
 21
19710.984537000011
 31
0.0
  0
LINE
  5
2E01
  8
2-0
  6
CONTINUOUS
 62
     3
 10
24278.013037999968
 20
19710.984537000011
 30
0.0
 11
24393.01514899997
 21
19710.984537000011
 31
0.0
  0
LINE
  5
2E02
  8
2-0
  6
CONTINUOUS
 62
     3
 10
24278.013037999968
 20
19680.980973999998
 30
0.0
 11
24278.013037999968
 21
19710.984537000011
 31
0.0
  0
LINE
  5
2E03
  8
2-0
  6
CONTINUOUS
 62
     3
 10
24284.014937999971
 20
19680.980973999998
 30
0.0
 11
24278.013037999968
 21
19680.980973999998
 31
0.0
  0
LINE
  5
2E04
  8
2-0
  6
CONTINUOUS
 62
     3
 10
24381.01332799999
 20
18894.887645499992
 30
0.0
 11
24388.014884999971
 21
18894.887645499992
 31
0.0
  0
LINE
  5
2E05
  8
2-0
  6
CONTINUOUS
 62
     3
 10
24388.014884999971
 20
18894.887645499992
 30
0.0
 11
24388.014884999971
 21
18899.887909500001
 31
0.0
  0
LINE
  5
2E06
  8
2-0
  6
CONTINUOUS
 62
     3
 10
24388.014884999971
 20
18899.887909500001
 30
0.0
 11
24363.017524999981
 21
18899.887909500001
 31
0.0
  0
LINE
  5
2E07
  8
2-0
  6
CONTINUOUS
 62
     3
 10
24363.017524999981
 20
18899.887909500001
 30
0.0
 11
24363.017524999981
 21
18881.892105499999
 31
0.0
  0
LINE
  5
2E08
  8
2-0
  6
CONTINUOUS
 62
     3
 10
24363.017524999981
 20
18881.892105499999
 30
0.0
 11
24393.01514899997
 21
18881.892105499999
 31
0.0
  0
LINE
  5
2E09
  8
2-0
  6
CONTINUOUS
 62
     3
 10
24363.017524999981
 20
18897.98361249996
 30
0.0
 11
24363.017524999981
 21
18891.985671499999
 31
0.0
  0
LINE
  5
2E0A
  8
2-0
  6
CONTINUOUS
 62
     3
 10
24363.017524999981
 20
18891.985671499999
 30
0.0
 11
24393.01514899997
 21
18891.985671499999
 31
0.0
  0
LINE
  5
2E0B
  8
2-0
  6
CONTINUOUS
 62
     3
 10
24393.01514899997
 20
18891.985671499999
 30
0.0
 11
24393.01514899997
 21
18928.986832499992
 31
0.0
  0
LINE
  5
2E0C
  8
2-0
  6
CONTINUOUS
 62
     3
 10
24363.017524999981
 20
18928.986832499992
 30
0.0
 11
24393.01514899997
 21
18928.986832499992
 31
0.0
  0
LINE
  5
2E0D
  8
2-0
  6
CONTINUOUS
 62
     3
 10
24363.017524999981
 20
18922.982952499991
 30
0.0
 11
24363.017524999981
 21
18928.986832499992
 31
0.0
  0
LINE
  5
2E0E
  8
2-0
  6
CONTINUOUS
 62
     3
 10
24363.017524999981
 20
18939.082377499992
 30
0.0
 11
24393.01514899997
 21
18939.082377499992
 31
0.0
  0
LINE
  5
2E0F
  8
2-0
  6
CONTINUOUS
 62
     3
 10
24363.017524999981
 20
18921.080635499999
 30
0.0
 11
24363.017524999981
 21
18939.082377499992
 31
0.0
  0
LINE
  5
2E10
  8
2-0
  6
CONTINUOUS
 62
     3
 10
24388.014884999971
 20
18921.080635499999
 30
0.0
 11
24363.017524999981
 21
18921.080635499999
 31
0.0
  0
LINE
  5
2E11
  8
2-0
  6
CONTINUOUS
 62
     3
 10
24388.014884999971
 20
18926.080899500001
 30
0.0
 11
24388.014884999971
 21
18921.080635499999
 31
0.0
  0
LINE
  5
2E12
  8
2-0
  6
CONTINUOUS
 62
     3
 10
24381.01332799999
 20
18926.080899500001
 30
0.0
 11
24388.014884999971
 21
18926.080899500001
 31
0.0
  0
LINE
  5
2E13
  8
2-0
  6
CONTINUOUS
 62
     3
 10
24381.01332799999
 20
18193.886655999999
 30
0.0
 11
24388.014884999971
 21
18193.886655999999
 31
0.0
  0
LINE
  5
2E14
  8
2-0
  6
CONTINUOUS
 62
     3
 10
24388.014884999971
 20
18193.886655999999
 30
0.0
 11
24388.014884999971
 21
18198.892857999999
 31
0.0
  0
LINE
  5
2E15
  8
2-0
  6
CONTINUOUS
 62
     3
 10
24388.014884999971
 20
18198.892857999999
 30
0.0
 11
24363.017524999981
 21
18198.892857999999
 31
0.0
  0
LINE
  5
2E16
  8
2-0
  6
CONTINUOUS
 62
     3
 10
24363.017524999981
 20
18198.892857999999
 30
0.0
 11
24363.017524999981
 21
18180.89111600001
 31
0.0
  0
LINE
  5
2E17
  8
2-0
  6
CONTINUOUS
 62
     3
 10
24363.017524999981
 20
18180.89111600001
 30
0.0
 11
24393.01514899997
 21
18180.89111600001
 31
0.0
  0
LINE
  5
2E18
  8
2-0
  6
CONTINUOUS
 62
     3
 10
24363.017524999981
 20
18196.982622999989
 30
0.0
 11
24363.017524999981
 21
18190.986660999999
 31
0.0
  0
LINE
  5
2E19
  8
2-0
  6
CONTINUOUS
 62
     3
 10
24363.017524999981
 20
18190.986660999999
 30
0.0
 11
24393.01514899997
 21
18190.986660999999
 31
0.0
  0
LINE
  5
2E1A
  8
2-0
  6
CONTINUOUS
 62
     3
 10
24393.01514899997
 20
18190.986660999999
 30
0.0
 11
24393.01514899997
 21
18227.985842999991
 31
0.0
  0
LINE
  5
2E1B
  8
2-0
  6
CONTINUOUS
 62
     3
 10
24363.017524999981
 20
18227.985842999991
 30
0.0
 11
24393.01514899997
 21
18227.985842999991
 31
0.0
  0
LINE
  5
2E1C
  8
2-0
  6
CONTINUOUS
 62
     3
 10
24363.017524999981
 20
18221.989881000001
 30
0.0
 11
24363.017524999981
 21
18227.985842999991
 31
0.0
  0
LINE
  5
2E1D
  8
2-0
  6
CONTINUOUS
 62
     3
 10
24363.017524999981
 20
18238.08138800001
 30
0.0
 11
24393.01514899997
 21
18238.08138800001
 31
0.0
  0
LINE
  5
2E1E
  8
2-0
  6
CONTINUOUS
 62
     3
 10
24363.017524999981
 20
18220.079645999998
 30
0.0
 11
24363.017524999981
 21
18238.08138800001
 31
0.0
  0
LINE
  5
2E1F
  8
2-0
  6
CONTINUOUS
 62
     3
 10
24388.014884999971
 20
18220.079645999998
 30
0.0
 11
24363.017524999981
 21
18220.079645999998
 31
0.0
  0
LINE
  5
2E20
  8
2-0
  6
CONTINUOUS
 62
     3
 10
24388.014884999971
 20
18225.085847999992
 30
0.0
 11
24388.014884999971
 21
18220.079645999998
 31
0.0
  0
LINE
  5
2E21
  8
2-0
  6
CONTINUOUS
 62
     3
 10
24381.01332799999
 20
18225.085847999992
 30
0.0
 11
24388.014884999971
 21
18225.085847999992
 31
0.0
  0
LINE
  5
2E22
  8
2-0
  6
CONTINUOUS
 62
     3
 10
24381.01332799999
 20
17524.07991
 30
0.0
 11
24388.014884999971
 21
17524.07991
 31
0.0
  0
LINE
  5
2E23
  8
2-0
  6
CONTINUOUS
 62
     3
 10
24388.014884999971
 20
17524.07991
 30
0.0
 11
24388.014884999971
 21
17519.091522999999
 31
0.0
  0
LINE
  5
2E24
  8
2-0
  6
CONTINUOUS
 62
     3
 10
24388.014884999971
 20
17519.091522999999
 30
0.0
 11
24363.017524999981
 21
17519.091522999999
 31
0.0
  0
LINE
  5
2E25
  8
2-0
  6
CONTINUOUS
 62
     3
 10
24363.017524999981
 20
17519.091522999999
 30
0.0
 11
24363.017524999981
 21
17537.087326000001
 31
0.0
  0
LINE
  5
2E26
  8
2-0
  6
CONTINUOUS
 62
     3
 10
24363.017524999981
 20
17537.087326000001
 30
0.0
 11
24393.01514899997
 21
17537.087326000001
 31
0.0
  0
LINE
  5
2E27
  8
2-0
  6
CONTINUOUS
 62
     3
 10
24363.017524999981
 20
17520.989881000001
 30
0.0
 11
24363.017524999981
 21
17526.985842999999
 31
0.0
  0
LINE
  5
2E28
  8
2-0
  6
CONTINUOUS
 62
     3
 10
24363.017524999981
 20
17526.985842999999
 30
0.0
 11
24393.01514899997
 21
17526.985842999999
 31
0.0
  0
LINE
  5
2E29
  8
2-0
  6
CONTINUOUS
 62
     3
 10
24393.01514899997
 20
17526.985842999999
 30
0.0
 11
24393.01514899997
 21
17489.98666100001
 31
0.0
  0
LINE
  5
2E2A
  8
2-0
  6
CONTINUOUS
 62
     3
 10
24363.017524999981
 20
17489.98666100001
 30
0.0
 11
24393.01514899997
 21
17489.98666100001
 31
0.0
  0
LINE
  5
2E2B
  8
2-0
  6
CONTINUOUS
 62
     3
 10
24363.017524999981
 20
17495.988561999991
 30
0.0
 11
24363.017524999981
 21
17489.98666100001
 31
0.0
  0
LINE
  5
2E2C
  8
2-0
  6
CONTINUOUS
 62
     3
 10
24363.017524999981
 20
17479.897055000001
 30
0.0
 11
24393.01514899997
 21
17479.897055000001
 31
0.0
  0
LINE
  5
2E2D
  8
2-0
  6
CONTINUOUS
 62
     3
 10
24363.017524999981
 20
17497.892857999988
 30
0.0
 11
24363.017524999981
 21
17479.897055000001
 31
0.0
  0
LINE
  5
2E2E
  8
2-0
  6
CONTINUOUS
 62
     3
 10
24388.014884999971
 20
17497.892857999988
 30
0.0
 11
24363.017524999981
 21
17497.892857999988
 31
0.0
  0
LINE
  5
2E2F
  8
2-0
  6
CONTINUOUS
 62
     3
 10
24388.014884999971
 20
17492.892595000001
 30
0.0
 11
24388.014884999971
 21
17497.892857999988
 31
0.0
  0
LINE
  5
2E30
  8
2-0
  6
CONTINUOUS
 62
     3
 10
24381.01332799999
 20
17492.892595000001
 30
0.0
 11
24388.014884999971
 21
17492.892595000001
 31
0.0
  0
LINE
  5
2E31
  8
2-0
  6
CONTINUOUS
 62
     3
 10
24390.12901099999
 20
16772.983480999999
 30
0.0
 11
24390.12901099999
 21
16792.984536
 31
0.0
  0
LINE
  5
2E32
  8
2-0
  6
CONTINUOUS
 62
     3
 10
24390.12901099999
 20
16792.984536
 30
0.0
 11
24305.132441999958
 21
16792.984536
 31
0.0
  0
LINE
  5
2E33
  8
2-0
  6
CONTINUOUS
 62
     3
 10
24381.01332799999
 20
16819.591246
 30
0.0
 11
24388.014884999971
 21
16819.591246
 31
0.0
  0
LINE
  5
2E34
  8
2-0
  6
CONTINUOUS
 62
     3
 10
24388.014884999971
 20
16819.591246
 30
0.0
 11
24388.014884999971
 21
16814.596920000011
 31
0.0
  0
LINE
  5
2E35
  8
2-0
  6
CONTINUOUS
 62
     3
 10
24388.014884999971
 20
16814.596920000011
 30
0.0
 11
24363.017524999981
 21
16814.596920000011
 31
0.0
  0
LINE
  5
2E36
  8
2-0
  6
CONTINUOUS
 62
     3
 10
24363.017524999981
 20
16814.596920000011
 30
0.0
 11
24363.017524999981
 21
16832.592723999991
 31
0.0
  0
LINE
  5
2E37
  8
2-0
  6
CONTINUOUS
 62
     3
 10
24363.017524999981
 20
16832.592723999991
 30
0.0
 11
24393.01514899997
 21
16832.592723999991
 31
0.0
  0
LINE
  5
2E38
  8
2-0
  6
CONTINUOUS
 62
     3
 10
24363.017524999981
 20
16822.98413999999
 30
0.0
 11
24363.017524999981
 21
16816.982240000001
 31
0.0
  0
LINE
  5
2E39
  8
2-0
  6
CONTINUOUS
 62
     3
 10
24393.01514899997
 20
16822.98413999999
 30
0.0
 11
24363.017524999981
 21
16822.98413999999
 31
0.0
  0
LINE
  5
2E3A
  8
2-0
  6
CONTINUOUS
 62
     3
 10
24393.01514899997
 20
16832.592723999991
 30
0.0
 11
24393.01514899997
 21
17479.897055000001
 31
0.0
  0
LINE
  5
2E3B
  8
2-0
  6
CONTINUOUS
 62
     3
 10
24393.01514899997
 20
17537.087326000001
 30
0.0
 11
24393.01514899997
 21
18180.89111600001
 31
0.0
  0
LINE
  5
2E3C
  8
2-0
  6
CONTINUOUS
 62
     3
 10
24393.01514899997
 20
16677.982424999991
 30
0.0
 11
24363.017524999981
 21
16677.982424999991
 31
0.0
  0
LINE
  5
2E3D
  8
2-0
  6
CONTINUOUS
 62
     3
 10
24363.017524999981
 20
16677.982424999991
 30
0.0
 11
24363.017524999981
 21
16683.984325000001
 31
0.0
  0
LINE
  5
2E3E
  8
2-0
  6
CONTINUOUS
 62
     3
 10
24305.132441999958
 20
16707.987968000001
 30
0.0
 11
24390.12901099999
 21
16707.987968000001
 31
0.0
  0
LINE
  5
2E3F
  8
2-0
  6
CONTINUOUS
 62
     3
 10
24390.12901099999
 20
16707.987968000001
 30
0.0
 11
24390.12901099999
 21
16727.983085000011
 31
0.0
  0
LINE
  5
2E40
  8
2-0
  6
CONTINUOUS
 62
     3
 10
24363.017524999981
 20
16668.373842000012
 30
0.0
 11
24393.01514899997
 21
16668.373842000012
 31
0.0
  0
LINE
  5
2E41
  8
2-0
  6
CONTINUOUS
 62
     3
 10
24363.017524999981
 20
16686.369644999992
 30
0.0
 11
24363.017524999981
 21
16668.373842000012
 31
0.0
  0
LINE
  5
2E42
  8
2-0
  6
CONTINUOUS
 62
     3
 10
24388.014884999971
 20
16686.369644999992
 30
0.0
 11
24363.017524999981
 21
16686.369644999992
 31
0.0
  0
LINE
  5
2E43
  8
2-0
  6
CONTINUOUS
 62
     3
 10
24388.014884999971
 20
16681.369381000011
 30
0.0
 11
24388.014884999971
 21
16686.369644999992
 31
0.0
  0
LINE
  5
2E44
  8
2-0
  6
CONTINUOUS
 62
     3
 10
24381.01332799999
 20
16681.369381000011
 30
0.0
 11
24388.014884999971
 21
16681.369381000011
 31
0.0
  0
LINE
  5
2E45
  8
2-0
  6
CONTINUOUS
 62
     3
 10
24381.01332799999
 20
15976.887150499981
 30
0.0
 11
24388.014884999971
 21
15976.887150499981
 31
0.0
  0
LINE
  5
2E46
  8
2-0
  6
CONTINUOUS
 62
     3
 10
24388.014884999971
 20
15976.887150499981
 30
0.0
 11
24388.014884999971
 21
15981.88741449999
 31
0.0
  0
LINE
  5
2E47
  8
2-0
  6
CONTINUOUS
 62
     3
 10
24388.014884999971
 20
15981.88741449999
 30
0.0
 11
24363.017524999981
 21
15981.88741449999
 31
0.0
  0
LINE
  5
2E48
  8
2-0
  6
CONTINUOUS
 62
     3
 10
24363.017524999981
 20
15981.88741449999
 30
0.0
 11
24363.017524999981
 21
15963.885672500001
 31
0.0
  0
LINE
  5
2E49
  8
2-0
  6
CONTINUOUS
 62
     3
 10
24363.017524999981
 20
15963.885672500001
 30
0.0
 11
24393.01514899997
 21
15963.885672500001
 31
0.0
  0
LINE
  5
2E4A
  8
2-0
  6
CONTINUOUS
 62
     3
 10
24363.017524999981
 20
15979.9831175
 30
0.0
 11
24363.017524999981
 21
15973.986166500001
 31
0.0
  0
LINE
  5
2E4B
  8
2-0
  6
CONTINUOUS
 62
     3
 10
24363.017524999981
 20
15973.986166500001
 30
0.0
 11
24393.01514899997
 21
15973.986166500001
 31
0.0
  0
LINE
  5
2E4C
  8
2-0
  6
CONTINUOUS
 62
     3
 10
24393.01514899997
 20
15973.986166500001
 30
0.0
 11
24393.01514899997
 21
16010.9863375
 31
0.0
  0
LINE
  5
2E4D
  8
2-0
  6
CONTINUOUS
 62
     3
 10
24363.017524999981
 20
16010.9863375
 30
0.0
 11
24393.01514899997
 21
16010.9863375
 31
0.0
  0
LINE
  5
2E4E
  8
2-0
  6
CONTINUOUS
 62
     3
 10
24363.017524999981
 20
16004.983447500001
 30
0.0
 11
24363.017524999981
 21
16010.9863375
 31
0.0
  0
LINE
  5
2E4F
  8
2-0
  6
CONTINUOUS
 62
     3
 10
24363.017524999981
 20
16021.081882500001
 30
0.0
 11
24393.01514899997
 21
16021.081882500001
 31
0.0
  0
LINE
  5
2E50
  8
2-0
  6
CONTINUOUS
 62
     3
 10
24363.017524999981
 20
16003.074201499991
 30
0.0
 11
24363.017524999981
 21
16021.081882500001
 31
0.0
  0
LINE
  5
2E51
  8
2-0
  6
CONTINUOUS
 62
     3
 10
24388.014884999971
 20
16003.074201499991
 30
0.0
 11
24363.017524999981
 21
16003.074201499991
 31
0.0
  0
LINE
  5
2E52
  8
2-0
  6
CONTINUOUS
 62
     3
 10
24388.014884999971
 20
16008.0804045
 30
0.0
 11
24388.014884999971
 21
16003.074201499991
 31
0.0
  0
LINE
  5
2E53
  8
2-0
  6
CONTINUOUS
 62
     3
 10
24381.01332799999
 20
16008.0804045
 30
0.0
 11
24388.014884999971
 21
16008.0804045
 31
0.0
  0
LINE
  5
2E54
  8
2-0
  6
CONTINUOUS
 62
     3
 10
24381.01332799999
 20
15307.320421
 30
0.0
 11
24388.014884999971
 21
15307.320421
 31
0.0
  0
LINE
  5
2E55
  8
2-0
  6
CONTINUOUS
 62
     3
 10
24388.014884999971
 20
15307.320421
 30
0.0
 11
24388.014884999971
 21
15302.326096000001
 31
0.0
  0
LINE
  5
2E56
  8
2-0
  6
CONTINUOUS
 62
     3
 10
24388.014884999971
 20
15302.326096000001
 30
0.0
 11
24363.017524999981
 21
15302.326096000001
 31
0.0
  0
LINE
  5
2E57
  8
2-0
  6
CONTINUOUS
 62
     3
 10
24363.017524999981
 20
15302.326096000001
 30
0.0
 11
24363.017524999981
 21
15320.32189900001
 31
0.0
  0
LINE
  5
2E58
  8
2-0
  6
CONTINUOUS
 62
     3
 10
24363.017524999981
 20
15320.32189900001
 30
0.0
 11
24393.01514899997
 21
15320.32189900001
 31
0.0
  0
LINE
  5
2E59
  8
2-0
  6
CONTINUOUS
 62
     3
 10
24363.017524999981
 20
15304.22445400001
 30
0.0
 11
24363.017524999981
 21
15310.226354
 31
0.0
  0
LINE
  5
2E5A
  8
2-0
  6
CONTINUOUS
 62
     3
 10
24363.017524999981
 20
15310.226354
 30
0.0
 11
24393.01514899997
 21
15310.226354
 31
0.0
  0
LINE
  5
2E5B
  8
2-0
  6
CONTINUOUS
 62
     3
 10
24393.01514899997
 20
15273.22717300001
 30
0.0
 11
24393.01514899997
 21
15310.226354
 31
0.0
  0
LINE
  5
2E5C
  8
2-0
  6
CONTINUOUS
 62
     3
 10
24363.017524999981
 20
15273.22717300001
 30
0.0
 11
24393.01514899997
 21
15273.22717300001
 31
0.0
  0
LINE
  5
2E5D
  8
2-0
  6
CONTINUOUS
 62
     3
 10
24363.017524999981
 20
15279.224124
 30
0.0
 11
24363.017524999981
 21
15273.22717300001
 31
0.0
  0
LINE
  5
2E5E
  8
2-0
  6
CONTINUOUS
 62
     3
 10
24363.017524999981
 20
15263.12568899999
 30
0.0
 11
24393.01514899997
 21
15263.12568899999
 31
0.0
  0
LINE
  5
2E5F
  8
2-0
  6
CONTINUOUS
 62
     3
 10
24363.017524999981
 20
15281.13336999999
 30
0.0
 11
24363.017524999981
 21
15263.12568899999
 31
0.0
  0
LINE
  5
2E60
  8
2-0
  6
CONTINUOUS
 62
     3
 10
24388.014884999971
 20
15281.13336999999
 30
0.0
 11
24363.017524999981
 21
15281.13336999999
 31
0.0
  0
LINE
  5
2E61
  8
2-0
  6
CONTINUOUS
 62
     3
 10
24388.014884999971
 20
15276.133106000019
 30
0.0
 11
24388.014884999971
 21
15281.13336999999
 31
0.0
  0
LINE
  5
2E62
  8
2-0
  6
CONTINUOUS
 62
     3
 10
24381.01332799999
 20
15276.133106000019
 30
0.0
 11
24388.014884999971
 21
15276.133106000019
 31
0.0
  0
LINE
  5
2E63
  8
2-0
  6
CONTINUOUS
 62
     3
 10
24393.01514899997
 20
16668.373842000012
 30
0.0
 11
24393.01514899997
 21
16021.081882500001
 31
0.0
  0
LINE
  5
2E64
  8
2-0
  6
CONTINUOUS
 62
     3
 10
24393.01514899997
 20
16822.98413999999
 30
0.0
 11
24393.01514899997
 21
16677.982424999991
 31
0.0
  0
LINE
  5
2E65
  8
2-0
  6
CONTINUOUS
 62
     3
 10
24305.132441999958
 20
16792.984536
 30
0.0
 11
24305.132441999958
 21
16707.987968000001
 31
0.0
  0
LINE
  5
2E66
  8
2-0
  6
CONTINUOUS
 62
     6
 10
22766.923774999981
 20
18561.431801499992
 30
0.0
 11
23791.95610699998
 21
18561.431801499992
 31
0.0
  0
LINE
  5
2E67
  8
2-0
  6
CONTINUOUS
 62
     3
 10
24381.01332799999
 20
14574.892099000001
 30
0.0
 11
24388.014884999971
 21
14574.892099000001
 31
0.0
  0
LINE
  5
2E68
  8
2-0
  6
CONTINUOUS
 62
     3
 10
24388.014884999971
 20
14574.892099000001
 30
0.0
 11
24388.014884999971
 21
14579.886425000001
 31
0.0
  0
LINE
  5
2E69
  8
2-0
  6
CONTINUOUS
 62
     3
 10
24388.014884999971
 20
14579.886425000001
 30
0.0
 11
24363.017524999981
 21
14579.886425000001
 31
0.0
  0
LINE
  5
2E6A
  8
2-0
  6
CONTINUOUS
 62
     3
 10
24363.017524999981
 20
14579.886425000001
 30
0.0
 11
24363.017524999981
 21
14561.890621
 31
0.0
  0
LINE
  5
2E6B
  8
2-0
  6
CONTINUOUS
 62
     3
 10
24363.017524999981
 20
14561.890621
 30
0.0
 11
24393.01514899997
 21
14561.890621
 31
0.0
  0
LINE
  5
2E6C
  8
2-0
  6
CONTINUOUS
 62
     3
 10
24363.017524999981
 20
14577.989056
 30
0.0
 11
24363.017524999981
 21
14571.98616600001
 31
0.0
  0
LINE
  5
2E6D
  8
2-0
  6
CONTINUOUS
 62
     3
 10
24363.017524999981
 20
14571.98616600001
 30
0.0
 11
24393.01514899997
 21
14571.98616600001
 31
0.0
  0
LINE
  5
2E6E
  8
2-0
  6
CONTINUOUS
 62
     3
 10
24393.01514899997
 20
14571.98616600001
 30
0.0
 11
24393.01514899997
 21
14608.986337999981
 31
0.0
  0
LINE
  5
2E6F
  8
2-0
  6
CONTINUOUS
 62
     3
 10
24363.017524999981
 20
14608.986337999981
 30
0.0
 11
24393.01514899997
 21
14608.986337999981
 31
0.0
  0
LINE
  5
2E70
  8
2-0
  6
CONTINUOUS
 62
     3
 10
24363.017524999981
 20
14602.98938599999
 30
0.0
 11
24363.017524999981
 21
14608.986337999981
 31
0.0
  0
LINE
  5
2E71
  8
2-0
  6
CONTINUOUS
 62
     3
 10
24363.017524999981
 20
14619.086831000001
 30
0.0
 11
24393.01514899997
 21
14619.086831000001
 31
0.0
  0
LINE
  5
2E72
  8
2-0
  6
CONTINUOUS
 62
     3
 10
24363.017524999981
 20
14601.08014
 30
0.0
 11
24363.017524999981
 21
14619.086831000001
 31
0.0
  0
LINE
  5
2E73
  8
2-0
  6
CONTINUOUS
 62
     3
 10
24388.014884999971
 20
14601.08014
 30
0.0
 11
24363.017524999981
 21
14601.08014
 31
0.0
  0
LINE
  5
2E74
  8
2-0
  6
CONTINUOUS
 62
     3
 10
24388.014884999971
 20
14606.085353
 30
0.0
 11
24388.014884999971
 21
14601.08014
 31
0.0
  0
LINE
  5
2E75
  8
2-0
  6
CONTINUOUS
 62
     3
 10
24381.01332799999
 20
14606.085353
 30
0.0
 11
24388.014884999971
 21
14606.085353
 31
0.0
  0
LINE
  5
2E76
  8
2-0
  6
CONTINUOUS
 62
     3
 10
24363.017524999981
 20
13548.488179
 30
0.0
 11
24363.017524999981
 21
13554.493047999989
 31
0.0
  0
LINE
  5
2E77
  8
2-0
  6
CONTINUOUS
 62
     3
 10
24363.017524999981
 20
13554.493047999989
 30
0.0
 11
24393.01514899997
 21
13554.493047999989
 31
0.0
  0
LINE
  5
2E78
  8
2-0
  6
CONTINUOUS
 62
     3
 10
24393.01514899997
 20
13554.493047999989
 30
0.0
 11
24393.01514899997
 21
13439.488957
 31
0.0
  0
LINE
  5
2E79
  8
2-0
  6
CONTINUOUS
 62
     3
 10
24393.01514899997
 20
13439.488957
 30
0.0
 11
24308.016600999981
 21
13439.488957
 31
0.0
  0
LINE
  5
2E7A
  8
2-0
  6
CONTINUOUS
 62
     3
 10
24308.016600999981
 20
13439.488957
 30
0.0
 11
24308.016600999981
 21
13524.484536
 31
0.0
  0
LINE
  5
2E7B
  8
2-0
  6
CONTINUOUS
 62
     3
 10
24308.016600999981
 20
13524.484536
 30
0.0
 11
24340.015518999971
 21
13524.484536
 31
0.0
  0
LINE
  5
2E7C
  8
2-0
  6
CONTINUOUS
 62
     3
 10
24381.01332799999
 20
13551.522781
 30
0.0
 11
24388.014884999971
 21
13551.522781
 31
0.0
  0
LINE
  5
2E7D
  8
2-0
  6
CONTINUOUS
 62
     3
 10
24388.014884999971
 20
13551.522781
 30
0.0
 11
24388.014884999971
 21
13546.52548599998
 31
0.0
  0
LINE
  5
2E7E
  8
2-0
  6
CONTINUOUS
 62
     3
 10
24388.014884999971
 20
13546.52548599998
 30
0.0
 11
24363.017524999981
 21
13546.52548599998
 31
0.0
  0
LINE
  5
2E7F
  8
2-0
  6
CONTINUOUS
 62
     3
 10
24363.017524999981
 20
13546.52548599998
 30
0.0
 11
24363.017524999981
 21
13564.524259
 31
0.0
  0
LINE
  5
2E80
  8
2-0
  6
CONTINUOUS
 62
     3
 10
24363.017524999981
 20
13564.524259
 30
0.0
 11
24393.01514899997
 21
13564.524259
 31
0.0
  0
LINE
  5
2E81
  8
2-0
  6
CENTER2
 62
     6
 10
24350.51686499998
 20
13241.99139899999
 30
0.0
 11
24350.51686499998
 21
14748.360157000019
 31
0.0
  0
LINE
  5
2E82
  8
2-0
  6
CONTINUOUS
 62
     3
 10
24393.01514899997
 20
18238.08138800001
 30
0.0
 11
24393.01514899997
 21
18881.892105499999
 31
0.0
  0
LINE
  5
2E83
  8
2-0
  6
CONTINUOUS
 62
     6
 10
25085.520031999971
 20
20440.987440000012
 30
0.0
 11
26285.514093999951
 21
20440.987440000012
 31
0.0
  0
LINE
  5
2E84
  8
2-0
  6
CONTINUOUS
 62
     6
 10
24223.48719899997
 20
18803.586309499991
 30
0.0
 11
23791.95610699998
 21
18561.431801499992
 31
0.0
  0
LINE
  5
2E85
  8
2-0
  6
CONTINUOUS
 62
     6
 10
24545.056032999961
 20
19853.664277000022
 30
0.0
 11
25085.520031999971
 21
20440.987440000012
 31
0.0
  0
LINE
  5
2E86
  8
2-0
  6
CONTINUOUS
 62
     3
 10
24393.01514899997
 20
15963.885672500001
 30
0.0
 11
24393.01514899997
 21
15320.32189900001
 31
0.0
  0
LINE
  5
2E87
  8
2-0
  6
CONTINUOUS
 62
     6
 10
24210.43029399998
 20
18826.84565349999
 30
0.0
 11
24363.017524999981
 21
18881.892105499999
 31
0.0
  0
LINE
  5
2E88
  8
2-0
  6
CONTINUOUS
 62
     6
 10
24363.017524999981
 20
18881.892105499999
 30
0.0
 11
24236.536184999972
 21
18780.332905499981
 31
0.0
  0
LINE
  5
2E89
  8
2-0
  6
CONTINUOUS
 62
     6
 10
24210.43029399998
 20
18826.84565349999
 30
0.0
 11
24236.536184999972
 21
18780.332905499981
 31
0.0
  0
LINE
  5
2E8A
  8
2-0
  6
CONTINUOUS
 62
     6
 10
24236.536184999972
 20
18780.332905499981
 30
0.0
 11
24363.017524999981
 21
18881.892105499999
 31
0.0
  0
LINE
  5
2E8B
  8
2-0
  6
CONTINUOUS
 62
     6
 10
24363.017524999981
 20
18881.892105499999
 30
0.0
 11
24210.43029399998
 21
18826.84565349999
 31
0.0
  0
LINE
  5
2E8C
  8
2-0
  6
CONTINUOUS
 62
     6
 10
24210.43029399998
 20
18826.84565349999
 30
0.0
 11
24363.017524999981
 21
18881.892105499999
 31
0.0
  0
LINE
  5
2E8D
  8
2-0
  6
CONTINUOUS
 62
     6
 10
24236.536184999972
 20
18780.332905499981
 30
0.0
 11
24363.017524999981
 21
18881.892105499999
 31
0.0
  0
LINE
  5
2E8E
  8
2-0
  6
CONTINUOUS
 62
     6
 10
24236.536184999972
 20
18780.332905499981
 30
0.0
 11
24210.43029399998
 21
18826.84565349999
 31
0.0
  0
LINE
  5
2E8F
  8
2-0
  6
CONTINUOUS
 62
     6
 10
24564.673061999962
 20
19835.603150000021
 30
0.0
 11
24436.711041999981
 21
19735.920532000011
 31
0.0
  0
LINE
  5
2E90
  8
2-0
  6
CONTINUOUS
 62
     6
 10
24436.711041999981
 20
19735.920532000011
 30
0.0
 11
24525.425146999962
 21
19871.717487000009
 31
0.0
  0
LINE
  5
2E91
  8
2-0
  6
CONTINUOUS
 62
     6
 10
24564.673061999962
 20
19835.603150000021
 30
0.0
 11
24525.425146999962
 21
19871.717487000009
 31
0.0
  0
LINE
  5
2E92
  8
2-0
  6
CONTINUOUS
 62
     6
 10
24525.425146999962
 20
19871.717487000009
 30
0.0
 11
24436.711041999981
 21
19735.920532000011
 31
0.0
  0
LINE
  5
2E93
  8
2-0
  6
CONTINUOUS
 62
     6
 10
24436.711041999981
 20
19735.920532000011
 30
0.0
 11
24564.673061999962
 21
19835.603150000021
 31
0.0
  0
LINE
  5
2E94
  8
2-0
  6
CONTINUOUS
 62
     6
 10
24564.673061999962
 20
19835.603150000021
 30
0.0
 11
24436.711041999981
 21
19735.920532000011
 31
0.0
  0
LINE
  5
2E95
  8
2-0
  6
CONTINUOUS
 62
     6
 10
24525.425146999962
 20
19871.717487000009
 30
0.0
 11
24436.711041999981
 21
19735.920532000011
 31
0.0
  0
LINE
  5
2E96
  8
2-0
  6
CONTINUOUS
 62
     6
 10
24525.425146999962
 20
19871.717487000009
 30
0.0
 11
24564.673061999962
 21
19835.603150000021
 31
0.0
  0
LINE
  5
2E97
  8
2-0
  6
CONTINUOUS
 62
     4
 10
21082.016864999969
 20
19790.986780000021
 30
0.0
 11
21082.016864999969
 21
20520.983745000001
 31
0.0
  0
LINE
  5
2E98
  8
2-0
  6
CONTINUOUS
 62
     6
 10
24116.377427999989
 20
13331.216218999991
 30
0.0
 11
24248.124286999981
 21
13425.843145999999
 31
0.0
  0
LINE
  5
2E99
  8
2-0
  6
CONTINUOUS
 62
     6
 10
24248.124286999981
 20
13425.843145999999
 30
0.0
 11
24154.194150999971
 21
13293.60437599999
 31
0.0
  0
LINE
  5
2E9A
  8
2-0
  6
CONTINUOUS
 62
     6
 10
24116.377427999989
 20
13331.216218999991
 30
0.0
 11
24154.194150999971
 21
13293.60437599999
 31
0.0
  0
LINE
  5
2E9B
  8
2-0
  6
CONTINUOUS
 62
     6
 10
24154.194150999971
 20
13293.60437599999
 30
0.0
 11
24248.124286999981
 21
13425.843145999999
 31
0.0
  0
LINE
  5
2E9C
  8
2-0
  6
CONTINUOUS
 62
     6
 10
24248.124286999981
 20
13425.843145999999
 30
0.0
 11
24116.377427999989
 21
13331.216218999991
 31
0.0
  0
LINE
  5
2E9D
  8
2-0
  6
CONTINUOUS
 62
     6
 10
24116.377427999989
 20
13331.216218999991
 30
0.0
 11
24248.124286999981
 21
13425.843145999999
 31
0.0
  0
LINE
  5
2E9E
  8
2-0
  6
CONTINUOUS
 62
     6
 10
24154.194150999971
 20
13293.60437599999
 30
0.0
 11
24248.124286999981
 21
13425.843145999999
 31
0.0
  0
LINE
  5
2E9F
  8
2-0
  6
CONTINUOUS
 62
     6
 10
24154.194150999971
 20
13293.60437599999
 30
0.0
 11
24116.377427999989
 21
13331.216218999991
 31
0.0
  0
LINE
  5
2EA0
  8
2-0
  6
CONTINUOUS
 62
     6
 10
24179.413216999968
 20
13658.120845999991
 30
0.0
 11
24312.01324899996
 21
13564.692517999991
 31
0.0
  0
LINE
  5
2EA1
  8
2-0
  6
CONTINUOUS
 62
     6
 10
24312.01324899996
 20
13564.692517999991
 30
0.0
 11
24156.28056299996
 21
13610.068031999999
 31
0.0
  0
LINE
  5
2EA2
  8
2-0
  6
CONTINUOUS
 62
     6
 10
24179.413216999968
 20
13658.120845999991
 30
0.0
 11
24156.28056299996
 21
13610.068031999999
 31
0.0
  0
LINE
  5
2EA3
  8
2-0
  6
CONTINUOUS
 62
     6
 10
24156.28056299996
 20
13610.068031999999
 30
0.0
 11
24312.01324899996
 21
13564.692517999991
 31
0.0
  0
LINE
  5
2EA4
  8
2-0
  6
CONTINUOUS
 62
     6
 10
24312.01324899996
 20
13564.692517999991
 30
0.0
 11
24179.413216999968
 21
13658.120845999991
 31
0.0
  0
LINE
  5
2EA5
  8
2-0
  6
CONTINUOUS
 62
     6
 10
24179.413216999968
 20
13658.120845999991
 30
0.0
 11
24312.01324899996
 21
13564.692517999991
 31
0.0
  0
LINE
  5
2EA6
  8
2-0
  6
CONTINUOUS
 62
     6
 10
24156.28056299996
 20
13610.068031999999
 30
0.0
 11
24312.01324899996
 21
13564.692517999991
 31
0.0
  0
LINE
  5
2EA7
  8
2-0
  6
CONTINUOUS
 62
     6
 10
24156.28056299996
 20
13610.068031999999
 30
0.0
 11
24179.413216999968
 21
13658.120845999991
 31
0.0
  0
LINE
  5
2EA8
  8
2-0
  6
CONTINUOUS
 62
     6
 10
24239.176862999961
 20
16388.441779000019
 30
0.0
 11
24393.01514899997
 21
16439.875610000021
 31
0.0
  0
LINE
  5
2EA9
  8
2-0
  6
CONTINUOUS
 62
     6
 10
24393.01514899997
 20
16439.875610000021
 30
0.0
 11
24264.18016199995
 21
16341.33517500002
 31
0.0
  0
LINE
  5
2EAA
  8
2-0
  6
CONTINUOUS
 62
     6
 10
24239.176862999961
 20
16388.441779000019
 30
0.0
 11
24264.18016199995
 21
16341.33517500002
 31
0.0
  0
LINE
  5
2EAB
  8
2-0
  6
CONTINUOUS
 62
     6
 10
24264.18016199995
 20
16341.33517500002
 30
0.0
 11
24393.01514899997
 21
16439.875610000021
 31
0.0
  0
LINE
  5
2EAC
  8
2-0
  6
CONTINUOUS
 62
     6
 10
24393.01514899997
 20
16439.875610000021
 30
0.0
 11
24239.176862999961
 21
16388.441779000019
 31
0.0
  0
LINE
  5
2EAD
  8
2-0
  6
CONTINUOUS
 62
     6
 10
24239.176862999961
 20
16388.441779000019
 30
0.0
 11
24393.01514899997
 21
16439.875610000021
 31
0.0
  0
LINE
  5
2EAE
  8
2-0
  6
CONTINUOUS
 62
     6
 10
24264.18016199995
 20
16341.33517500002
 30
0.0
 11
24393.01514899997
 21
16439.875610000021
 31
0.0
  0
LINE
  5
2EAF
  8
2-0
  6
CONTINUOUS
 62
     6
 10
24264.18016199995
 20
16341.33517500002
 30
0.0
 11
24239.176862999961
 21
16388.441779000019
 31
0.0
  0
LINE
  5
2EB0
  8
2-0
  6
CONTINUOUS
 62
     6
 10
24105.240655999969
 20
16879.76027100001
 30
0.0
 11
24248.124286999981
 21
16802.984641999999
 31
0.0
  0
LINE
  5
2EB1
  8
2-0
  6
CONTINUOUS
 62
     6
 10
24248.124286999981
 20
16802.984641999999
 30
0.0
 11
24088.062393999971
 21
16829.266711000011
 31
0.0
  0
LINE
  5
2EB2
  8
2-0
  6
CONTINUOUS
 62
     6
 10
24105.240655999969
 20
16879.76027100001
 30
0.0
 11
24088.062393999971
 21
16829.266711000011
 31
0.0
  0
LINE
  5
2EB3
  8
2-0
  6
CONTINUOUS
 62
     6
 10
24088.062393999971
 20
16829.266711000011
 30
0.0
 11
24248.124286999981
 21
16802.984641999999
 31
0.0
  0
LINE
  5
2EB4
  8
2-0
  6
CONTINUOUS
 62
     6
 10
24248.124286999981
 20
16802.984641999999
 30
0.0
 11
24105.240655999969
 21
16879.76027100001
 31
0.0
  0
LINE
  5
2EB5
  8
2-0
  6
CONTINUOUS
 62
     6
 10
24105.240655999969
 20
16879.76027100001
 30
0.0
 11
24248.124286999981
 21
16802.984641999999
 31
0.0
  0
LINE
  5
2EB6
  8
2-0
  6
CONTINUOUS
 62
     6
 10
24088.062393999971
 20
16829.266711000011
 30
0.0
 11
24248.124286999981
 21
16802.984641999999
 31
0.0
  0
LINE
  5
2EB7
  8
2-0
  6
CONTINUOUS
 62
     6
 10
24088.062393999971
 20
16829.266711000011
 30
0.0
 11
24105.240655999969
 21
16879.76027100001
 31
0.0
  0
LINE
  5
2EB8
  8
2-0
  6
CONTINUOUS
 62
     3
 10
21069.518184999972
 20
19601.984326000009
 30
0.0
 11
21069.518184999972
 21
19595.988364000012
 31
0.0
  0
LINE
  5
2EB9
  8
2-0
  6
CONTINUOUS
 62
     3
 10
21069.518184999972
 20
19595.988364000012
 30
0.0
 11
21039.520559999972
 21
19595.988364000012
 31
0.0
  0
LINE
  5
2EBA
  8
2-0
  6
CONTINUOUS
 62
     3
 10
21039.520559999972
 20
19595.988364000012
 30
0.0
 11
21039.520559999972
 21
19710.984537000011
 31
0.0
  0
LINE
  5
2EBB
  8
2-0
  6
CONTINUOUS
 62
     3
 10
21039.520559999972
 20
19625.987968000001
 30
0.0
 11
21120.51850099998
 21
19625.987968000001
 31
0.0
  0
LINE
  5
2EBC
  8
2-0
  6
CONTINUOUS
 62
     3
 10
21069.518184999972
 20
19585.690908
 30
0.0
 11
21039.520559999972
 21
19585.690908
 31
0.0
  0
LINE
  5
2EBD
  8
2-0
  6
CONTINUOUS
 62
     3
 10
21069.518184999972
 20
19603.692650000001
 30
0.0
 11
21069.518184999972
 21
19585.690908
 31
0.0
  0
LINE
  5
2EBE
  8
2-0
  6
CONTINUOUS
 62
     3
 10
21044.524782999972
 20
19603.692650000001
 30
0.0
 11
21069.518184999972
 21
19603.692650000001
 31
0.0
  0
LINE
  5
2EBF
  8
2-0
  6
CONTINUOUS
 62
     3
 10
21044.524782999972
 20
19598.68446800001
 30
0.0
 11
21044.524782999972
 21
19603.692650000001
 31
0.0
  0
LINE
  5
2EC0
  8
2-0
  6
CONTINUOUS
 62
     3
 10
21051.522380999959
 20
19598.68446800001
 30
0.0
 11
21044.524782999972
 21
19598.68446800001
 31
0.0
  0
LINE
  5
2EC1
  8
2-0
  6
CONTINUOUS
 62
     3
 10
21151.81666999996
 20
19698.984695000021
 30
0.0
 11
21151.81666999996
 21
19705.990211000011
 31
0.0
  0
LINE
  5
2EC2
  8
2-0
  6
CONTINUOUS
 62
     3
 10
21151.81666999996
 20
19705.990211000011
 30
0.0
 11
21146.814425999972
 21
19705.990211000011
 31
0.0
  0
LINE
  5
2EC3
  8
2-0
  6
CONTINUOUS
 62
     3
 10
21146.814425999972
 20
19705.990211000011
 30
0.0
 11
21146.814425999972
 21
19680.980973999998
 31
0.0
  0
LINE
  5
2EC4
  8
2-0
  6
CONTINUOUS
 62
     3
 10
21146.814425999972
 20
19680.980973999998
 30
0.0
 11
21164.82210699996
 21
19680.980973999998
 31
0.0
  0
LINE
  5
2EC5
  8
2-0
  6
CONTINUOUS
 62
     3
 10
21164.82210699996
 20
19680.980973999998
 30
0.0
 11
21164.82210699996
 21
19710.984537000011
 31
0.0
  0
LINE
  5
2EC6
  8
2-0
  6
CONTINUOUS
 62
     3
 10
21154.522670999981
 20
19710.984537000011
 30
0.0
 11
21039.520559999972
 21
19710.984537000011
 31
0.0
  0
LINE
  5
2EC7
  8
2-0
  6
CONTINUOUS
 62
     3
 10
21154.522670999981
 20
19680.980973999998
 30
0.0
 11
21154.522670999981
 21
19710.984537000011
 31
0.0
  0
LINE
  5
2EC8
  8
2-0
  6
CONTINUOUS
 62
     3
 10
21148.51879199997
 20
19680.980973999998
 30
0.0
 11
21154.522670999981
 21
19680.980973999998
 31
0.0
  0
LINE
  5
2EC9
  8
2-0
  6
CONTINUOUS
 62
     3
 10
21069.518184999972
 20
19601.984326000009
 30
0.0
 11
21069.518184999972
 21
19595.988364000012
 31
0.0
  0
LINE
  5
2ECA
  8
2-0
  6
CONTINUOUS
 62
     3
 10
21069.518184999972
 20
19595.988364000012
 30
0.0
 11
21039.520559999972
 21
19595.988364000012
 31
0.0
  0
LINE
  5
2ECB
  8
2-0
  6
CONTINUOUS
 62
     3
 10
21039.520559999972
 20
19595.988364000012
 30
0.0
 11
21039.520559999972
 21
19710.984537000011
 31
0.0
  0
LINE
  5
2ECC
  8
2-0
  6
CONTINUOUS
 62
     3
 10
21039.520559999972
 20
19625.987968000001
 30
0.0
 11
21120.51850099998
 21
19625.987968000001
 31
0.0
  0
LINE
  5
2ECD
  8
2-0
  6
CONTINUOUS
 62
     3
 10
21069.518184999972
 20
19585.690908
 30
0.0
 11
21039.520559999972
 21
19585.690908
 31
0.0
  0
LINE
  5
2ECE
  8
2-0
  6
CONTINUOUS
 62
     3
 10
21069.518184999972
 20
19603.692650000001
 30
0.0
 11
21069.518184999972
 21
19585.690908
 31
0.0
  0
LINE
  5
2ECF
  8
2-0
  6
CONTINUOUS
 62
     3
 10
21044.524782999972
 20
19603.692650000001
 30
0.0
 11
21069.518184999972
 21
19603.692650000001
 31
0.0
  0
LINE
  5
2ED0
  8
2-0
  6
CONTINUOUS
 62
     3
 10
21044.524782999972
 20
19598.68446800001
 30
0.0
 11
21044.524782999972
 21
19603.692650000001
 31
0.0
  0
LINE
  5
2ED1
  8
2-0
  6
CONTINUOUS
 62
     3
 10
21051.522380999959
 20
19598.68446800001
 30
0.0
 11
21044.524782999972
 21
19598.68446800001
 31
0.0
  0
LINE
  5
2ED2
  8
2-0
  6
CONTINUOUS
 62
     3
 10
21051.522380999959
 20
18894.887645499992
 30
0.0
 11
21044.524782999972
 21
18894.887645499992
 31
0.0
  0
LINE
  5
2ED3
  8
2-0
  6
CONTINUOUS
 62
     3
 10
21044.524782999972
 20
18894.887645499992
 30
0.0
 11
21044.524782999972
 21
18899.887909500001
 31
0.0
  0
LINE
  5
2ED4
  8
2-0
  6
CONTINUOUS
 62
     3
 10
21044.524782999972
 20
18899.887909500001
 30
0.0
 11
21069.518184999972
 21
18899.887909500001
 31
0.0
  0
LINE
  5
2ED5
  8
2-0
  6
CONTINUOUS
 62
     3
 10
21069.518184999972
 20
18899.887909500001
 30
0.0
 11
21069.518184999972
 21
18881.892105499981
 31
0.0
  0
LINE
  5
2ED6
  8
2-0
  6
CONTINUOUS
 62
     3
 10
21069.518184999972
 20
18881.892105499981
 30
0.0
 11
21039.520559999972
 21
18881.892105499981
 31
0.0
  0
LINE
  5
2ED7
  8
2-0
  6
CONTINUOUS
 62
     3
 10
21069.518184999972
 20
18897.98361249996
 30
0.0
 11
21069.518184999972
 21
18891.985671499991
 31
0.0
  0
LINE
  5
2ED8
  8
2-0
  6
CONTINUOUS
 62
     3
 10
21069.518184999972
 20
18891.985671499991
 30
0.0
 11
21039.520559999972
 21
18891.985671499991
 31
0.0
  0
LINE
  5
2ED9
  8
2-0
  6
CONTINUOUS
 62
     3
 10
21039.520559999972
 20
18891.985671499991
 30
0.0
 11
21039.520559999972
 21
18928.986832499992
 31
0.0
  0
LINE
  5
2EDA
  8
2-0
  6
CONTINUOUS
 62
     3
 10
21069.518184999972
 20
18928.986832499992
 30
0.0
 11
21039.520559999972
 21
18928.986832499992
 31
0.0
  0
LINE
  5
2EDB
  8
2-0
  6
CONTINUOUS
 62
     3
 10
21069.518184999972
 20
18922.982952499991
 30
0.0
 11
21069.518184999972
 21
18928.986832499992
 31
0.0
  0
LINE
  5
2EDC
  8
2-0
  6
CONTINUOUS
 62
     3
 10
21069.518184999972
 20
18939.082377499981
 30
0.0
 11
21039.520559999972
 21
18939.082377499981
 31
0.0
  0
LINE
  5
2EDD
  8
2-0
  6
CONTINUOUS
 62
     3
 10
21069.518184999972
 20
18921.080635499999
 30
0.0
 11
21069.518184999972
 21
18939.082377499981
 31
0.0
  0
LINE
  5
2EDE
  8
2-0
  6
CONTINUOUS
 62
     3
 10
21044.524782999972
 20
18921.080635499999
 30
0.0
 11
21069.518184999972
 21
18921.080635499999
 31
0.0
  0
LINE
  5
2EDF
  8
2-0
  6
CONTINUOUS
 62
     3
 10
21044.524782999972
 20
18926.080899499979
 30
0.0
 11
21044.524782999972
 21
18921.080635499999
 31
0.0
  0
LINE
  5
2EE0
  8
2-0
  6
CONTINUOUS
 62
     3
 10
21051.522380999959
 20
18926.080899499979
 30
0.0
 11
21044.524782999972
 21
18926.080899499979
 31
0.0
  0
LINE
  5
2EE1
  8
2-0
  6
CONTINUOUS
 62
     3
 10
21051.522380999959
 20
18193.886655999999
 30
0.0
 11
21044.524782999972
 21
18193.886655999999
 31
0.0
  0
LINE
  5
2EE2
  8
2-0
  6
CONTINUOUS
 62
     3
 10
21044.524782999972
 20
18193.886655999999
 30
0.0
 11
21044.524782999972
 21
18198.892857999999
 31
0.0
  0
LINE
  5
2EE3
  8
2-0
  6
CONTINUOUS
 62
     3
 10
21044.524782999972
 20
18198.892857999999
 30
0.0
 11
21069.518184999972
 21
18198.892857999999
 31
0.0
  0
LINE
  5
2EE4
  8
2-0
  6
CONTINUOUS
 62
     3
 10
21069.518184999972
 20
18198.892857999999
 30
0.0
 11
21069.518184999972
 21
18180.891115999992
 31
0.0
  0
LINE
  5
2EE5
  8
2-0
  6
CONTINUOUS
 62
     3
 10
21069.518184999972
 20
18180.891115999992
 30
0.0
 11
21039.520559999972
 21
18180.891115999992
 31
0.0
  0
LINE
  5
2EE6
  8
2-0
  6
CONTINUOUS
 62
     3
 10
21069.518184999972
 20
18196.982622999982
 30
0.0
 11
21069.518184999972
 21
18190.986660999992
 31
0.0
  0
LINE
  5
2EE7
  8
2-0
  6
CONTINUOUS
 62
     3
 10
21069.518184999972
 20
18190.986660999992
 30
0.0
 11
21039.520559999972
 21
18190.986660999992
 31
0.0
  0
LINE
  5
2EE8
  8
2-0
  6
CONTINUOUS
 62
     3
 10
21039.520559999972
 20
18190.986660999992
 30
0.0
 11
21039.520559999972
 21
18227.985842999991
 31
0.0
  0
LINE
  5
2EE9
  8
2-0
  6
CONTINUOUS
 62
     3
 10
21069.518184999972
 20
18227.985842999991
 30
0.0
 11
21039.520559999972
 21
18227.985842999991
 31
0.0
  0
LINE
  5
2EEA
  8
2-0
  6
CONTINUOUS
 62
     3
 10
21069.518184999972
 20
18221.989881000001
 30
0.0
 11
21069.518184999972
 21
18227.985842999991
 31
0.0
  0
LINE
  5
2EEB
  8
2-0
  6
CONTINUOUS
 62
     3
 10
21069.518184999972
 20
18238.081387999999
 30
0.0
 11
21039.520559999972
 21
18238.081387999999
 31
0.0
  0
LINE
  5
2EEC
  8
2-0
  6
CONTINUOUS
 62
     3
 10
21069.518184999972
 20
18220.079645999991
 30
0.0
 11
21069.518184999972
 21
18238.081387999999
 31
0.0
  0
LINE
  5
2EED
  8
2-0
  6
CONTINUOUS
 62
     3
 10
21044.524782999972
 20
18220.079645999991
 30
0.0
 11
21069.518184999972
 21
18220.079645999991
 31
0.0
  0
LINE
  5
2EEE
  8
2-0
  6
CONTINUOUS
 62
     3
 10
21044.524782999972
 20
18225.085847999992
 30
0.0
 11
21044.524782999972
 21
18220.079645999991
 31
0.0
  0
LINE
  5
2EEF
  8
2-0
  6
CONTINUOUS
 62
     3
 10
21051.522380999959
 20
18225.085847999992
 30
0.0
 11
21044.524782999972
 21
18225.085847999992
 31
0.0
  0
LINE
  5
2EF0
  8
2-0
  6
CONTINUOUS
 62
     3
 10
21051.522380999959
 20
17524.079909999989
 30
0.0
 11
21044.524782999972
 21
17524.079909999989
 31
0.0
  0
LINE
  5
2EF1
  8
2-0
  6
CONTINUOUS
 62
     3
 10
21044.524782999972
 20
17524.079909999989
 30
0.0
 11
21044.524782999972
 21
17519.091522999999
 31
0.0
  0
LINE
  5
2EF2
  8
2-0
  6
CONTINUOUS
 62
     3
 10
21044.524782999972
 20
17519.091522999999
 30
0.0
 11
21069.518184999972
 21
17519.091522999999
 31
0.0
  0
LINE
  5
2EF3
  8
2-0
  6
CONTINUOUS
 62
     3
 10
21069.518184999972
 20
17519.091522999999
 30
0.0
 11
21069.518184999972
 21
17537.08732599999
 31
0.0
  0
LINE
  5
2EF4
  8
2-0
  6
CONTINUOUS
 62
     3
 10
21069.518184999972
 20
17537.08732599999
 30
0.0
 11
21039.520559999972
 21
17537.08732599999
 31
0.0
  0
LINE
  5
2EF5
  8
2-0
  6
CONTINUOUS
 62
     3
 10
21069.518184999972
 20
17520.989881000001
 30
0.0
 11
21069.518184999972
 21
17526.985842999991
 31
0.0
  0
LINE
  5
2EF6
  8
2-0
  6
CONTINUOUS
 62
     3
 10
21069.518184999972
 20
17526.985842999991
 30
0.0
 11
21039.520559999972
 21
17526.985842999991
 31
0.0
  0
LINE
  5
2EF7
  8
2-0
  6
CONTINUOUS
 62
     3
 10
21039.520559999972
 20
17526.985842999991
 30
0.0
 11
21039.520559999972
 21
17489.986660999992
 31
0.0
  0
LINE
  5
2EF8
  8
2-0
  6
CONTINUOUS
 62
     3
 10
21069.518184999972
 20
17489.986660999992
 30
0.0
 11
21039.520559999972
 21
17489.986660999992
 31
0.0
  0
LINE
  5
2EF9
  8
2-0
  6
CONTINUOUS
 62
     3
 10
21069.518184999972
 20
17495.988561999991
 30
0.0
 11
21069.518184999972
 21
17489.986660999992
 31
0.0
  0
LINE
  5
2EFA
  8
2-0
  6
CONTINUOUS
 62
     3
 10
21069.518184999972
 20
17479.897055000001
 30
0.0
 11
21039.520559999972
 21
17479.897055000001
 31
0.0
  0
LINE
  5
2EFB
  8
2-0
  6
CONTINUOUS
 62
     3
 10
21069.518184999972
 20
17497.892857999981
 30
0.0
 11
21069.518184999972
 21
17479.897055000001
 31
0.0
  0
LINE
  5
2EFC
  8
2-0
  6
CONTINUOUS
 62
     3
 10
21044.524782999972
 20
17497.892857999981
 30
0.0
 11
21069.518184999972
 21
17497.892857999981
 31
0.0
  0
LINE
  5
2EFD
  8
2-0
  6
CONTINUOUS
 62
     3
 10
21044.524782999972
 20
17492.892595000001
 30
0.0
 11
21044.524782999972
 21
17497.892857999981
 31
0.0
  0
LINE
  5
2EFE
  8
2-0
  6
CONTINUOUS
 62
     3
 10
21051.522380999959
 20
17492.892595000001
 30
0.0
 11
21044.524782999972
 21
17492.892595000001
 31
0.0
  0
LINE
  5
2EFF
  8
2-0
  6
CONTINUOUS
 62
     3
 10
21042.406697999981
 20
16772.983480999999
 30
0.0
 11
21042.406697999981
 21
16792.984536
 31
0.0
  0
LINE
  5
2F00
  8
2-0
  6
CONTINUOUS
 62
     3
 10
21042.406697999981
 20
16792.984536
 30
0.0
 11
21127.407225999981
 21
16792.984536
 31
0.0
  0
LINE
  5
2F01
  8
2-0
  6
CONTINUOUS
 62
     3
 10
21051.522380999959
 20
16819.591246
 30
0.0
 11
21044.524782999972
 21
16819.591246
 31
0.0
  0
LINE
  5
2F02
  8
2-0
  6
CONTINUOUS
 62
     3
 10
21044.524782999972
 20
16819.591246
 30
0.0
 11
21044.524782999972
 21
16814.596920000011
 31
0.0
  0
LINE
  5
2F03
  8
2-0
  6
CONTINUOUS
 62
     3
 10
21044.524782999972
 20
16814.596920000011
 30
0.0
 11
21069.518184999972
 21
16814.596920000011
 31
0.0
  0
LINE
  5
2F04
  8
2-0
  6
CONTINUOUS
 62
     3
 10
21069.518184999972
 20
16814.596920000011
 30
0.0
 11
21069.518184999972
 21
16832.592723999991
 31
0.0
  0
LINE
  5
2F05
  8
2-0
  6
CONTINUOUS
 62
     3
 10
21069.518184999972
 20
16832.592723999991
 30
0.0
 11
21039.520559999972
 21
16832.592723999991
 31
0.0
  0
LINE
  5
2F06
  8
2-0
  6
CONTINUOUS
 62
     3
 10
21069.518184999972
 20
16822.98413999999
 30
0.0
 11
21069.518184999972
 21
16816.982240000001
 31
0.0
  0
LINE
  5
2F07
  8
2-0
  6
CONTINUOUS
 62
     3
 10
21039.520559999972
 20
16822.98413999999
 30
0.0
 11
21069.518184999972
 21
16822.98413999999
 31
0.0
  0
LINE
  5
2F08
  8
2-0
  6
CONTINUOUS
 62
     3
 10
21039.520559999972
 20
16832.592723999991
 30
0.0
 11
21039.520559999972
 21
17479.897055000001
 31
0.0
  0
LINE
  5
2F09
  8
2-0
  6
CONTINUOUS
 62
     3
 10
21039.520559999972
 20
17537.08732599999
 30
0.0
 11
21039.520559999972
 21
18180.891115999992
 31
0.0
  0
LINE
  5
2F0A
  8
2-0
  6
CONTINUOUS
 62
     3
 10
21039.520559999972
 20
16677.982424999991
 30
0.0
 11
21069.518184999972
 21
16677.982424999991
 31
0.0
  0
LINE
  5
2F0B
  8
2-0
  6
CONTINUOUS
 62
     3
 10
21069.518184999972
 20
16677.982424999991
 30
0.0
 11
21069.518184999972
 21
16683.984325000001
 31
0.0
  0
LINE
  5
2F0C
  8
2-0
  6
CONTINUOUS
 62
     3
 10
21127.407225999981
 20
16707.987968000001
 30
0.0
 11
21042.406697999981
 21
16707.987968000001
 31
0.0
  0
LINE
  5
2F0D
  8
2-0
  6
CONTINUOUS
 62
     3
 10
21042.406697999981
 20
16707.987968000001
 30
0.0
 11
21042.406697999981
 21
16727.983085000011
 31
0.0
  0
LINE
  5
2F0E
  8
2-0
  6
CONTINUOUS
 62
     3
 10
21069.518184999972
 20
16668.373842000012
 30
0.0
 11
21039.520559999972
 21
16668.373842000012
 31
0.0
  0
LINE
  5
2F0F
  8
2-0
  6
CONTINUOUS
 62
     3
 10
21069.518184999972
 20
16686.369644999992
 30
0.0
 11
21069.518184999972
 21
16668.373842000012
 31
0.0
  0
LINE
  5
2F10
  8
2-0
  6
CONTINUOUS
 62
     3
 10
21044.524782999972
 20
16686.369644999992
 30
0.0
 11
21069.518184999972
 21
16686.369644999992
 31
0.0
  0
LINE
  5
2F11
  8
2-0
  6
CONTINUOUS
 62
     3
 10
21044.524782999972
 20
16681.369381000011
 30
0.0
 11
21044.524782999972
 21
16686.369644999992
 31
0.0
  0
LINE
  5
2F12
  8
2-0
  6
CONTINUOUS
 62
     3
 10
21051.522380999959
 20
16681.369381000011
 30
0.0
 11
21044.524782999972
 21
16681.369381000011
 31
0.0
  0
LINE
  5
2F13
  8
2-0
  6
CONTINUOUS
 62
     3
 10
21051.522380999959
 20
15976.887150499981
 30
0.0
 11
21044.524782999972
 21
15976.887150499981
 31
0.0
  0
LINE
  5
2F14
  8
2-0
  6
CONTINUOUS
 62
     3
 10
21044.524782999972
 20
15976.887150499981
 30
0.0
 11
21044.524782999972
 21
15981.88741449999
 31
0.0
  0
LINE
  5
2F15
  8
2-0
  6
CONTINUOUS
 62
     3
 10
21044.524782999972
 20
15981.88741449999
 30
0.0
 11
21069.518184999972
 21
15981.88741449999
 31
0.0
  0
LINE
  5
2F16
  8
2-0
  6
CONTINUOUS
 62
     3
 10
21069.518184999972
 20
15981.88741449999
 30
0.0
 11
21069.518184999972
 21
15963.88567249999
 31
0.0
  0
LINE
  5
2F17
  8
2-0
  6
CONTINUOUS
 62
     3
 10
21069.518184999972
 20
15963.88567249999
 30
0.0
 11
21039.520559999972
 21
15963.88567249999
 31
0.0
  0
LINE
  5
2F18
  8
2-0
  6
CONTINUOUS
 62
     3
 10
21069.518184999972
 20
15979.9831175
 30
0.0
 11
21069.518184999972
 21
15973.986166500001
 31
0.0
  0
LINE
  5
2F19
  8
2-0
  6
CONTINUOUS
 62
     3
 10
21069.518184999972
 20
15973.986166500001
 30
0.0
 11
21039.520559999972
 21
15973.986166500001
 31
0.0
  0
LINE
  5
2F1A
  8
2-0
  6
CONTINUOUS
 62
     3
 10
21039.520559999972
 20
15973.986166500001
 30
0.0
 11
21039.520559999972
 21
16010.9863375
 31
0.0
  0
LINE
  5
2F1B
  8
2-0
  6
CONTINUOUS
 62
     3
 10
21069.518184999972
 20
16010.9863375
 30
0.0
 11
21039.520559999972
 21
16010.9863375
 31
0.0
  0
LINE
  5
2F1C
  8
2-0
  6
CONTINUOUS
 62
     3
 10
21069.518184999972
 20
16004.983447500001
 30
0.0
 11
21069.518184999972
 21
16010.9863375
 31
0.0
  0
LINE
  5
2F1D
  8
2-0
  6
CONTINUOUS
 62
     3
 10
21069.518184999972
 20
16021.08188249999
 30
0.0
 11
21039.520559999972
 21
16021.08188249999
 31
0.0
  0
LINE
  5
2F1E
  8
2-0
  6
CONTINUOUS
 62
     3
 10
21069.518184999972
 20
16003.074201499991
 30
0.0
 11
21069.518184999972
 21
16021.08188249999
 31
0.0
  0
LINE
  5
2F1F
  8
2-0
  6
CONTINUOUS
 62
     3
 10
21044.524782999972
 20
16003.074201499991
 30
0.0
 11
21069.518184999972
 21
16003.074201499991
 31
0.0
  0
LINE
  5
2F20
  8
2-0
  6
CONTINUOUS
 62
     3
 10
21044.524782999972
 20
16008.0804045
 30
0.0
 11
21044.524782999972
 21
16003.074201499991
 31
0.0
  0
LINE
  5
2F21
  8
2-0
  6
CONTINUOUS
 62
     3
 10
21051.522380999959
 20
16008.0804045
 30
0.0
 11
21044.524782999972
 21
16008.0804045
 31
0.0
  0
LINE
  5
2F22
  8
2-0
  6
CONTINUOUS
 62
     3
 10
21051.522380999959
 20
15307.320421
 30
0.0
 11
21044.524782999972
 21
15307.320421
 31
0.0
  0
LINE
  5
2F23
  8
2-0
  6
CONTINUOUS
 62
     3
 10
21044.524782999972
 20
15307.320421
 30
0.0
 11
21044.524782999972
 21
15302.326096000001
 31
0.0
  0
LINE
  5
2F24
  8
2-0
  6
CONTINUOUS
 62
     3
 10
21044.524782999972
 20
15302.326096000001
 30
0.0
 11
21069.518184999972
 21
15302.326096000001
 31
0.0
  0
LINE
  5
2F25
  8
2-0
  6
CONTINUOUS
 62
     3
 10
21069.518184999972
 20
15302.326096000001
 30
0.0
 11
21069.518184999972
 21
15320.32189900001
 31
0.0
  0
LINE
  5
2F26
  8
2-0
  6
CONTINUOUS
 62
     3
 10
21069.518184999972
 20
15320.32189900001
 30
0.0
 11
21039.520559999972
 21
15320.32189900001
 31
0.0
  0
LINE
  5
2F27
  8
2-0
  6
CONTINUOUS
 62
     3
 10
21069.518184999972
 20
15304.22445399999
 30
0.0
 11
21069.518184999972
 21
15310.226354
 31
0.0
  0
LINE
  5
2F28
  8
2-0
  6
CONTINUOUS
 62
     3
 10
21069.518184999972
 20
15310.226354
 30
0.0
 11
21039.520559999972
 21
15310.226354
 31
0.0
  0
LINE
  5
2F29
  8
2-0
  6
CONTINUOUS
 62
     3
 10
21039.520559999972
 20
15273.22717300001
 30
0.0
 11
21039.520559999972
 21
15310.226354
 31
0.0
  0
LINE
  5
2F2A
  8
2-0
  6
CONTINUOUS
 62
     3
 10
21069.518184999972
 20
15273.22717300001
 30
0.0
 11
21039.520559999972
 21
15273.22717300001
 31
0.0
  0
LINE
  5
2F2B
  8
2-0
  6
CONTINUOUS
 62
     3
 10
21069.518184999972
 20
15279.224124
 30
0.0
 11
21069.518184999972
 21
15273.22717300001
 31
0.0
  0
LINE
  5
2F2C
  8
2-0
  6
CONTINUOUS
 62
     3
 10
21069.518184999972
 20
15263.12568899999
 30
0.0
 11
21039.520559999972
 21
15263.12568899999
 31
0.0
  0
LINE
  5
2F2D
  8
2-0
  6
CONTINUOUS
 62
     3
 10
21069.518184999972
 20
15281.13336999999
 30
0.0
 11
21069.518184999972
 21
15263.12568899999
 31
0.0
  0
LINE
  5
2F2E
  8
2-0
  6
CONTINUOUS
 62
     3
 10
21044.524782999972
 20
15281.13336999999
 30
0.0
 11
21069.518184999972
 21
15281.13336999999
 31
0.0
  0
LINE
  5
2F2F
  8
2-0
  6
CONTINUOUS
 62
     3
 10
21044.524782999972
 20
15276.133106000019
 30
0.0
 11
21044.524782999972
 21
15281.13336999999
 31
0.0
  0
LINE
  5
2F30
  8
2-0
  6
CONTINUOUS
 62
     3
 10
21051.522380999959
 20
15276.133106000019
 30
0.0
 11
21044.524782999972
 21
15276.133106000019
 31
0.0
  0
LINE
  5
2F31
  8
2-0
  6
CONTINUOUS
 62
     3
 10
21039.520559999972
 20
16668.373842000012
 30
0.0
 11
21039.520559999972
 21
16021.08188249999
 31
0.0
  0
LINE
  5
2F32
  8
2-0
  6
CONTINUOUS
 62
     3
 10
21039.520559999972
 20
16822.98413999999
 30
0.0
 11
21039.520559999972
 21
16677.982424999991
 31
0.0
  0
LINE
  5
2F33
  8
2-0
  6
CONTINUOUS
 62
     3
 10
21127.407225999981
 20
16792.984536
 30
0.0
 11
21127.407225999981
 21
16707.987968000001
 31
0.0
  0
LINE
  5
2F34
  8
2-0
  6
CONTINUOUS
 62
     3
 10
21051.522380999959
 20
14574.892099000001
 30
0.0
 11
21044.524782999972
 21
14574.892099000001
 31
0.0
  0
LINE
  5
2F35
  8
2-0
  6
CONTINUOUS
 62
     3
 10
21044.524782999972
 20
14574.892099000001
 30
0.0
 11
21044.524782999972
 21
14579.88642500001
 31
0.0
  0
LINE
  5
2F36
  8
2-0
  6
CONTINUOUS
 62
     3
 10
21044.524782999972
 20
14579.88642500001
 30
0.0
 11
21069.518184999972
 21
14579.88642500001
 31
0.0
  0
LINE
  5
2F37
  8
2-0
  6
CONTINUOUS
 62
     3
 10
21069.518184999972
 20
14579.88642500001
 30
0.0
 11
21069.518184999972
 21
14561.890621
 31
0.0
  0
LINE
  5
2F38
  8
2-0
  6
CONTINUOUS
 62
     3
 10
21069.518184999972
 20
14561.890621
 30
0.0
 11
21039.520559999972
 21
14561.890621
 31
0.0
  0
LINE
  5
2F39
  8
2-0
  6
CONTINUOUS
 62
     3
 10
21069.518184999972
 20
14577.989056
 30
0.0
 11
21069.518184999972
 21
14571.98616600001
 31
0.0
  0
LINE
  5
2F3A
  8
2-0
  6
CONTINUOUS
 62
     3
 10
21069.518184999972
 20
14571.98616600001
 30
0.0
 11
21039.520559999972
 21
14571.98616600001
 31
0.0
  0
LINE
  5
2F3B
  8
2-0
  6
CONTINUOUS
 62
     3
 10
21039.520559999972
 20
14571.98616600001
 30
0.0
 11
21039.520559999972
 21
14608.986337999981
 31
0.0
  0
LINE
  5
2F3C
  8
2-0
  6
CONTINUOUS
 62
     3
 10
21069.518184999972
 20
14608.986337999981
 30
0.0
 11
21039.520559999972
 21
14608.986337999981
 31
0.0
  0
LINE
  5
2F3D
  8
2-0
  6
CONTINUOUS
 62
     3
 10
21069.518184999972
 20
14602.989385999999
 30
0.0
 11
21069.518184999972
 21
14608.986337999981
 31
0.0
  0
LINE
  5
2F3E
  8
2-0
  6
CONTINUOUS
 62
     3
 10
21069.518184999972
 20
14619.086831000001
 30
0.0
 11
21039.520559999972
 21
14619.086831000001
 31
0.0
  0
LINE
  5
2F3F
  8
2-0
  6
CONTINUOUS
 62
     3
 10
21069.518184999972
 20
14601.08014
 30
0.0
 11
21069.518184999972
 21
14619.086831000001
 31
0.0
  0
LINE
  5
2F40
  8
2-0
  6
CONTINUOUS
 62
     3
 10
21044.524782999972
 20
14601.08014
 30
0.0
 11
21069.518184999972
 21
14601.08014
 31
0.0
  0
LINE
  5
2F41
  8
2-0
  6
CONTINUOUS
 62
     3
 10
21044.524782999972
 20
14606.085353
 30
0.0
 11
21044.524782999972
 21
14601.08014
 31
0.0
  0
LINE
  5
2F42
  8
2-0
  6
CONTINUOUS
 62
     3
 10
21051.522380999959
 20
14606.085353
 30
0.0
 11
21044.524782999972
 21
14606.085353
 31
0.0
  0
LINE
  5
2F43
  8
2-0
  6
CONTINUOUS
 62
     3
 10
21069.518184999972
 20
13548.488179
 30
0.0
 11
21069.518184999972
 21
13554.493047999989
 31
0.0
  0
LINE
  5
2F44
  8
2-0
  6
CONTINUOUS
 62
     3
 10
21069.518184999972
 20
13554.493047999989
 30
0.0
 11
21039.520559999972
 21
13554.493047999989
 31
0.0
  0
LINE
  5
2F45
  8
2-0
  6
CONTINUOUS
 62
     3
 10
21039.520559999972
 20
13554.493047999989
 30
0.0
 11
21039.520559999972
 21
13439.488957
 31
0.0
  0
LINE
  5
2F46
  8
2-0
  6
CONTINUOUS
 62
     3
 10
21039.520559999972
 20
13439.488957
 30
0.0
 11
21124.519107999971
 21
13439.488957
 31
0.0
  0
LINE
  5
2F47
  8
2-0
  6
CONTINUOUS
 62
     3
 10
21124.519107999971
 20
13439.488957
 30
0.0
 11
21124.519107999971
 21
13524.484536
 31
0.0
  0
LINE
  5
2F48
  8
2-0
  6
CONTINUOUS
 62
     3
 10
21124.519107999971
 20
13524.484536
 30
0.0
 11
21092.52216999996
 21
13524.484536
 31
0.0
  0
LINE
  5
2F49
  8
2-0
  6
CONTINUOUS
 62
     3
 10
21051.522380999959
 20
13551.522781
 30
0.0
 11
21044.524782999972
 21
13551.522781
 31
0.0
  0
LINE
  5
2F4A
  8
2-0
  6
CONTINUOUS
 62
     3
 10
21044.524782999972
 20
13551.522781
 30
0.0
 11
21044.524782999972
 21
13546.52548599998
 31
0.0
  0
LINE
  5
2F4B
  8
2-0
  6
CONTINUOUS
 62
     3
 10
21044.524782999972
 20
13546.52548599998
 30
0.0
 11
21069.518184999972
 21
13546.52548599998
 31
0.0
  0
LINE
  5
2F4C
  8
2-0
  6
CONTINUOUS
 62
     3
 10
21069.518184999972
 20
13546.52548599998
 30
0.0
 11
21069.518184999972
 21
13564.524259
 31
0.0
  0
LINE
  5
2F4D
  8
2-0
  6
CONTINUOUS
 62
     3
 10
21069.518184999972
 20
13564.524259
 30
0.0
 11
21039.520559999972
 21
13564.524259
 31
0.0
  0
LINE
  5
2F4E
  8
2-0
  6
CONTINUOUS
 62
     3
 10
21039.520559999972
 20
14619.086831000001
 30
0.0
 11
21039.520559999972
 21
15263.12568899999
 31
0.0
  0
LINE
  5
2F4F
  8
2-0
  6
CONTINUOUS
 62
     3
 10
21039.520559999972
 20
18238.081387999999
 30
0.0
 11
21039.520559999972
 21
18881.892105499981
 31
0.0
  0
LINE
  5
2F50
  8
2-0
  6
CONTINUOUS
 62
     3
 10
21039.520559999972
 20
15963.88567249999
 30
0.0
 11
21039.520559999972
 21
15320.32189900001
 31
0.0
  0
LINE
  5
2F51
  8
2-0
  6
CONTINUOUS
 62
     3
 10
24393.01514899997
 20
19595.988364000012
 30
0.0
 11
24393.01514899997
 21
19710.984537000011
 31
0.0
  0
LINE
  5
2F52
  8
2-0
  6
CENTER2
 62
     6
 10
19752.56228799995
 20
19668.486251999992
 30
0.0
 11
25243.016468999969
 21
19668.486251999992
 31
0.0
  0
LINE
  5
2F53
  8
2-0
  6
CENTER2
 62
     6
 10
19752.56228799995
 20
16750.486251999992
 30
0.0
 11
25243.016468999969
 21
16750.486251999992
 31
0.0
  0
LINE
  5
2F54
  8
2-0
  6
CENTER2
 62
     6
 10
19752.56228799995
 20
13481.986252000001
 30
0.0
 11
25243.016468999969
 21
13481.986252000001
 31
0.0
  0
LINE
  5
2F55
  8
2-0
  6
CONTINUOUS
 62
     3
 10
21039.520559999972
 20
19625.987968000001
 30
0.0
 11
24312.01324899996
 21
19625.987968000001
 31
0.0
  0
LINE
  5
2F56
  8
2-0
  6
CONTINUOUS
 62
     3
 10
21039.520559999972
 20
13918.02398200001
 30
0.0
 11
21039.520559999972
 21
14561.890621
 31
0.0
  0
LINE
  5
2F57
  8
2-0
  6
CENTER2
 62
     6
 10
21082.016864999969
 20
20910.984537000018
 30
0.0
 11
21082.016864999969
 21
12856.222818
 31
0.0
  0
LINE
  5
2F58
  8
2-0
  6
CENTER2
 62
     6
 10
24350.51686499998
 20
20910.984537000018
 30
0.0
 11
24350.51686499998
 21
12856.222818
 31
0.0
  0
LINE
  5
2F59
  8
2-0
  6
CONTINUOUS
 62
     3
 10
24393.01514899997
 20
19585.690908
 30
0.0
 11
24393.01514899997
 21
18939.082377499992
 31
0.0
  0
LINE
  5
2F5A
  8
2-0
  6
CONTINUOUS
 62
     3
 10
21039.520559999972
 20
19585.690908
 30
0.0
 11
21039.520559999972
 21
18939.082377499981
 31
0.0
  0
LINE
  5
2F5B
  8
2-0
  6
CONTINUOUS
 62
     3
 10
21051.522380999959
 20
13873.89259400001
 30
0.0
 11
21044.524782999972
 21
13873.89259400001
 31
0.0
  0
LINE
  5
2F5C
  8
2-0
  6
CONTINUOUS
 62
     3
 10
21044.524782999972
 20
13873.89259400001
 30
0.0
 11
21044.524782999972
 21
13878.886920000001
 31
0.0
  0
LINE
  5
2F5D
  8
2-0
  6
CONTINUOUS
 62
     3
 10
21044.524782999972
 20
13878.886920000001
 30
0.0
 11
21069.518184999972
 21
13878.886920000001
 31
0.0
  0
LINE
  5
2F5E
  8
2-0
  6
CONTINUOUS
 62
     3
 10
21069.518184999972
 20
13878.886920000001
 30
0.0
 11
21069.518184999972
 21
13860.89111600001
 31
0.0
  0
LINE
  5
2F5F
  8
2-0
  6
CONTINUOUS
 62
     3
 10
21069.518184999972
 20
13860.89111600001
 30
0.0
 11
21039.520559999972
 21
13860.89111600001
 31
0.0
  0
LINE
  5
2F60
  8
2-0
  6
CONTINUOUS
 62
     3
 10
21069.518184999972
 20
13876.988562
 30
0.0
 11
21069.518184999972
 21
13870.986661000001
 31
0.0
  0
LINE
  5
2F61
  8
2-0
  6
CONTINUOUS
 62
     3
 10
21069.518184999972
 20
13870.986661000001
 30
0.0
 11
21039.520559999972
 21
13870.986661000001
 31
0.0
  0
LINE
  5
2F62
  8
2-0
  6
CONTINUOUS
 62
     3
 10
21039.520559999972
 20
13870.986661000001
 30
0.0
 11
21039.520559999972
 21
13907.98584299998
 31
0.0
  0
LINE
  5
2F63
  8
2-0
  6
CONTINUOUS
 62
     3
 10
21069.518184999972
 20
13907.98584299998
 30
0.0
 11
21039.520559999972
 21
13907.98584299998
 31
0.0
  0
LINE
  5
2F64
  8
2-0
  6
CONTINUOUS
 62
     3
 10
21069.518184999972
 20
13901.98988100001
 30
0.0
 11
21069.518184999972
 21
13907.98584299998
 31
0.0
  0
LINE
  5
2F65
  8
2-0
  6
CONTINUOUS
 62
     3
 10
21069.518184999972
 20
13918.087326000001
 30
0.0
 11
21039.520559999972
 21
13918.087326000001
 31
0.0
  0
LINE
  5
2F66
  8
2-0
  6
CONTINUOUS
 62
     3
 10
21069.518184999972
 20
13900.07964599998
 30
0.0
 11
21069.518184999972
 21
13918.087326000001
 31
0.0
  0
LINE
  5
2F67
  8
2-0
  6
CONTINUOUS
 62
     3
 10
21044.524782999972
 20
13900.07964599998
 30
0.0
 11
21069.518184999972
 21
13900.07964599998
 31
0.0
  0
LINE
  5
2F68
  8
2-0
  6
CONTINUOUS
 62
     3
 10
21044.524782999972
 20
13905.085848000001
 30
0.0
 11
21044.524782999972
 21
13900.07964599998
 31
0.0
  0
LINE
  5
2F69
  8
2-0
  6
CONTINUOUS
 62
     3
 10
21051.522380999959
 20
13905.085848000001
 30
0.0
 11
21044.524782999972
 21
13905.085848000001
 31
0.0
  0
LINE
  5
2F6A
  8
2-0
  6
CONTINUOUS
 62
     3
 10
21039.520559999972
 20
13564.524259
 30
0.0
 11
21039.520559999972
 21
13860.89111600001
 31
0.0
  0
LINE
  5
2F6B
  8
2-0
  6
CONTINUOUS
 62
     3
 10
21120.51850099998
 20
13524.484536
 30
0.0
 11
21120.51850099998
 21
19710.984537000011
 31
0.0
  0
LINE
  5
2F6C
  8
2-0
  6
CONTINUOUS
 62
     3
 10
24381.01332799999
 20
13873.89259400001
 30
0.0
 11
24388.014884999971
 21
13873.89259400001
 31
0.0
  0
LINE
  5
2F6D
  8
2-0
  6
CONTINUOUS
 62
     3
 10
24388.014884999971
 20
13873.89259400001
 30
0.0
 11
24388.014884999971
 21
13878.886920000001
 31
0.0
  0
LINE
  5
2F6E
  8
2-0
  6
CONTINUOUS
 62
     3
 10
24388.014884999971
 20
13878.886920000001
 30
0.0
 11
24363.017524999981
 21
13878.886920000001
 31
0.0
  0
LINE
  5
2F6F
  8
2-0
  6
CONTINUOUS
 62
     3
 10
24363.017524999981
 20
13878.886920000001
 30
0.0
 11
24363.017524999981
 21
13860.89111600001
 31
0.0
  0
LINE
  5
2F70
  8
2-0
  6
CONTINUOUS
 62
     3
 10
24363.017524999981
 20
13860.89111600001
 30
0.0
 11
24393.01514899997
 21
13860.89111600001
 31
0.0
  0
LINE
  5
2F71
  8
2-0
  6
CONTINUOUS
 62
     3
 10
24363.017524999981
 20
13876.988562
 30
0.0
 11
24363.017524999981
 21
13870.986661000001
 31
0.0
  0
LINE
  5
2F72
  8
2-0
  6
CONTINUOUS
 62
     3
 10
24363.017524999981
 20
13870.986661000001
 30
0.0
 11
24393.01514899997
 21
13870.986661000001
 31
0.0
  0
LINE
  5
2F73
  8
2-0
  6
CONTINUOUS
 62
     3
 10
24393.01514899997
 20
13870.986661000001
 30
0.0
 11
24393.01514899997
 21
13907.98584299998
 31
0.0
  0
LINE
  5
2F74
  8
2-0
  6
CONTINUOUS
 62
     3
 10
24363.017524999981
 20
13907.98584299998
 30
0.0
 11
24393.01514899997
 21
13907.98584299998
 31
0.0
  0
LINE
  5
2F75
  8
2-0
  6
CONTINUOUS
 62
     3
 10
24363.017524999981
 20
13901.98988100002
 30
0.0
 11
24363.017524999981
 21
13907.98584299998
 31
0.0
  0
LINE
  5
2F76
  8
2-0
  6
CONTINUOUS
 62
     3
 10
24363.017524999981
 20
13918.087326000001
 30
0.0
 11
24393.01514899997
 21
13918.087326000001
 31
0.0
  0
LINE
  5
2F77
  8
2-0
  6
CONTINUOUS
 62
     3
 10
24363.017524999981
 20
13900.07964599998
 30
0.0
 11
24363.017524999981
 21
13918.087326000001
 31
0.0
  0
LINE
  5
2F78
  8
2-0
  6
CONTINUOUS
 62
     3
 10
24388.014884999971
 20
13900.07964599998
 30
0.0
 11
24363.017524999981
 21
13900.07964599998
 31
0.0
  0
LINE
  5
2F79
  8
2-0
  6
CONTINUOUS
 62
     3
 10
24388.014884999971
 20
13905.085848000001
 30
0.0
 11
24388.014884999971
 21
13900.07964599998
 31
0.0
  0
LINE
  5
2F7A
  8
2-0
  6
CONTINUOUS
 62
     3
 10
24381.01332799999
 20
13905.085848000001
 30
0.0
 11
24388.014884999971
 21
13905.085848000001
 31
0.0
  0
LINE
  5
2F7B
  8
2-0
  6
CONTINUOUS
 62
     3
 10
24393.01514899997
 20
13564.524259
 30
0.0
 11
24393.01514899997
 21
13860.89111600001
 31
0.0
  0
LINE
  5
2F7C
  8
2-0
  6
CONTINUOUS
 62
     3
 10
24312.01324899996
 20
13524.484536
 30
0.0
 11
24312.01324899996
 21
19710.984537000011
 31
0.0
  0
CIRCLE
  5
2F7D
  8
2-0
  6
CONTINUOUS
 62
     4
 10
19552.56459799995
 20
19668.486251999992
 30
0.0
 40
200.00001
  0
CIRCLE
  5
2F7E
  8
2-0
  6
CONTINUOUS
 62
     4
 10
19552.56459799995
 20
16750.486251999992
 30
0.0
 40
200.00001
  0
CIRCLE
  5
2F7F
  8
2-0
  6
CONTINUOUS
 62
     4
 10
19552.56459799995
 20
13481.986252000001
 30
0.0
 40
200.00001
  0
CIRCLE
  5
2F80
  8
2-0
  6
CONTINUOUS
 62
     4
 10
21082.016864999969
 20
21110.989156000011
 30
0.0
 40
200.00001
  0
TEXT
  5
2F81
  8
2-0
  6
CONTINUOUS
 62
     7
 10
22747.362171999979
 20
12921.987374
 30
0.0
 40
160.0
  1
前柱（右）
 50
0.000213
 72
     4
 11
23163.361874593
 21
13001.988920500789
 31
0.0
  0
TEXT
  5
2F82
  8
2-0
  6
CONTINUOUS
 62
     7
 10
22951.957294999978
 20
16200.97939000001
 30
0.0
 40
160.0
  1
壁パネル
 50
359.99982299999999
 72
     4
 11
23314.62420880354
 21
16280.978269637881
 31
0.0
  0
TEXT
  5
2F83
  8
2-0
  6
CONTINUOUS
 62
     7
 10
22671.954390999981
 20
17038.167286000022
 30
0.0
 40
160.0
  1
中柱（左右）
 50
0.000354
 72
     4
 11
23189.28723004619
 21
17118.170482324669
 31
0.0
  0
TEXT
  5
2F84
  8
2-0
  6
CONTINUOUS
 62
     7
 10
23351.956634999951
 20
13895.02863999999
 30
0.0
 40
160.0
  1
下枠
 50
0.001063
 72
     4
 11
23522.62181740925
 21
13975.031806339281
 31
0.0
  0
TEXT
  5
2F85
  8
2-0
  6
CONTINUOUS
 62
     7
 10
22846.92205899999
 20
18641.436024499992
 30
0.0
 40
160.0
  1
間柱（側）
 72
     4
 11
23268.255392333322
 21
18721.436024499992
 31
0.0
  0
TEXT
  5
2F86
  8
2-0
  6
CONTINUOUS
 62
     7
 10
25165.512377999981
 20
20520.983745000009
 30
0.0
 40
160.0
  1
後柱（左右）
 50
0.000354
 72
     4
 11
25677.511883712959
 21
20600.986908372841
 31
0.0
  0
TEXT
  5
2F87
  8
2-0
  6
CONTINUOUS
 62
     7
 10
19504.56523099996
 20
19574.005810000021
 30
0.0
 40
160.0
  1
C
 72
     4
 11
19557.898564333289
 21
19654.005810000021
 31
0.0
  0
TEXT
  5
2F88
  8
2-0
  6
CONTINUOUS
 62
     7
 10
19504.785946999971
 20
16680.092170000022
 30
0.0
 40
160.0
  1
B
 72
     4
 11
19558.1192803333
 21
16760.092170000022
 31
0.0
  0
TEXT
  5
2F89
  8
2-0
  6
CONTINUOUS
 62
     7
 10
19504.82850699998
 20
13393.379040999989
 30
0.0
 40
160.0
  1
A
 72
     4
 11
19558.161840333309
 21
13473.379040999989
 31
0.0
  0
TEXT
  5
2F8A
  8
2-0
  6
CONTINUOUS
 62
     7
 10
21037.810255999972
 20
21022.221604000009
 30
0.0
 40
160.0
  1
1
 72
     4
 11
21064.476922666639
 21
21102.221604000009
 31
0.0
  0
LINE
  5
2F8B
  8
2-0
  6
CONTINUOUS
 62
     3
 10
23611.017445999962
 20
19710.984537000011
 30
0.0
 11
23574.01628399999
 21
19710.984537000011
 31
0.0
  0
LINE
  5
2F8C
  8
2-0
  6
CONTINUOUS
 62
     3
 10
23611.017445999962
 20
19680.980973999998
 30
0.0
 11
23611.017445999962
 21
19710.984537000011
 31
0.0
  0
LINE
  5
2F8D
  8
2-0
  6
CONTINUOUS
 62
     3
 10
23605.017524999948
 20
19680.980973999998
 30
0.0
 11
23611.017445999962
 21
19680.980973999998
 31
0.0
  0
LINE
  5
2F8E
  8
2-0
  6
CONTINUOUS
 62
     3
 10
23621.114969999981
 20
19680.980973999998
 30
0.0
 11
23621.114969999981
 21
19710.984537000011
 31
0.0
  0
LINE
  5
2F8F
  8
2-0
  6
CONTINUOUS
 62
     3
 10
23603.11124899998
 20
19680.980973999998
 30
0.0
 11
23621.114969999981
 21
19680.980973999998
 31
0.0
  0
LINE
  5
2F90
  8
2-0
  6
CONTINUOUS
 62
     3
 10
23603.11124899998
 20
19705.990211000011
 30
0.0
 11
23603.11124899998
 21
19680.980973999998
 31
0.0
  0
LINE
  5
2F91
  8
2-0
  6
CONTINUOUS
 62
     3
 10
23608.111512999989
 20
19705.990211000011
 30
0.0
 11
23603.11124899998
 21
19705.990211000011
 31
0.0
  0
LINE
  5
2F92
  8
2-0
  6
CONTINUOUS
 62
     3
 10
23608.111512999989
 20
19698.984695000021
 30
0.0
 11
23608.111512999989
 21
19705.990211000011
 31
0.0
  0
LINE
  5
2F93
  8
2-0
  6
CONTINUOUS
 62
     3
 10
23576.92221799996
 20
19698.984695000021
 30
0.0
 11
23576.92221799996
 21
19705.990211000011
 31
0.0
  0
LINE
  5
2F94
  8
2-0
  6
CONTINUOUS
 62
     3
 10
23576.92221799996
 20
19705.990211000011
 30
0.0
 11
23581.92248199998
 21
19705.990211000011
 31
0.0
  0
LINE
  5
2F95
  8
2-0
  6
CONTINUOUS
 62
     3
 10
23581.92248199998
 20
19705.990211000011
 30
0.0
 11
23581.92248199998
 21
19680.980973999998
 31
0.0
  0
LINE
  5
2F96
  8
2-0
  6
CONTINUOUS
 62
     3
 10
23581.92248199998
 20
19680.980973999998
 30
0.0
 11
23563.92271899998
 21
19680.980973999998
 31
0.0
  0
LINE
  5
2F97
  8
2-0
  6
CONTINUOUS
 62
     3
 10
23563.92271899998
 20
19680.980973999998
 30
0.0
 11
23563.92271899998
 21
19710.984537000011
 31
0.0
  0
LINE
  5
2F98
  8
2-0
  6
CONTINUOUS
 62
     3
 10
23580.016204999989
 20
19680.980973999998
 30
0.0
 11
23574.01628399999
 21
19680.980973999998
 31
0.0
  0
LINE
  5
2F99
  8
2-0
  6
CONTINUOUS
 62
     3
 10
23574.01628399999
 20
19680.980973999998
 30
0.0
 11
23574.01628399999
 21
19710.984537000011
 31
0.0
  0
LINE
  5
2F9A
  8
2-0
  6
CONTINUOUS
 62
     3
 10
22206.10656349998
 20
19698.984695000021
 30
0.0
 11
22206.10656349998
 21
19705.990211000011
 31
0.0
  0
LINE
  5
2F9B
  8
2-0
  6
CONTINUOUS
 62
     3
 10
22206.10656349998
 20
19705.990211000011
 30
0.0
 11
22201.106299499981
 21
19705.990211000011
 31
0.0
  0
LINE
  5
2F9C
  8
2-0
  6
CONTINUOUS
 62
     3
 10
22201.106299499981
 20
19705.990211000011
 30
0.0
 11
22201.106299499981
 21
19680.980973999998
 31
0.0
  0
LINE
  5
2F9D
  8
2-0
  6
CONTINUOUS
 62
     3
 10
22201.106299499981
 20
19680.980973999998
 30
0.0
 11
22219.112000499968
 21
19680.980973999998
 31
0.0
  0
LINE
  5
2F9E
  8
2-0
  6
CONTINUOUS
 62
     3
 10
22219.112000499968
 20
19680.980973999998
 30
0.0
 11
22219.112000499968
 21
19710.984537000011
 31
0.0
  0
LINE
  5
2F9F
  8
2-0
  6
CONTINUOUS
 62
     3
 10
22203.01455549998
 20
19680.980973999998
 30
0.0
 11
22209.016455499961
 21
19680.980973999998
 31
0.0
  0
LINE
  5
2FA0
  8
2-0
  6
CONTINUOUS
 62
     3
 10
22209.016455499961
 20
19680.980973999998
 30
0.0
 11
22209.016455499961
 21
19710.984537000011
 31
0.0
  0
LINE
  5
2FA1
  8
2-0
  6
CONTINUOUS
 62
     3
 10
22172.017274499962
 20
19710.984537000011
 30
0.0
 11
22209.016455499961
 21
19710.984537000011
 31
0.0
  0
LINE
  5
2FA2
  8
2-0
  6
CONTINUOUS
 62
     3
 10
22172.017274499962
 20
19680.980973999998
 30
0.0
 11
22172.017274499962
 21
19710.984537000011
 31
0.0
  0
LINE
  5
2FA3
  8
2-0
  6
CONTINUOUS
 62
     3
 10
22178.011256499962
 20
19680.980973999998
 30
0.0
 11
22172.017274499962
 21
19680.980973999998
 31
0.0
  0
LINE
  5
2FA4
  8
2-0
  6
CONTINUOUS
 62
     3
 10
22161.92172949998
 20
19680.980973999998
 30
0.0
 11
22161.92172949998
 21
19710.984537000011
 31
0.0
  0
LINE
  5
2FA5
  8
2-0
  6
CONTINUOUS
 62
     3
 10
22179.917532499981
 20
19680.980973999998
 30
0.0
 11
22161.92172949998
 21
19680.980973999998
 31
0.0
  0
LINE
  5
2FA6
  8
2-0
  6
CONTINUOUS
 62
     3
 10
22179.917532499981
 20
19705.990211000011
 30
0.0
 11
22179.917532499981
 21
19680.980973999998
 31
0.0
  0
LINE
  5
2FA7
  8
2-0
  6
CONTINUOUS
 62
     3
 10
22174.917268499968
 20
19705.990211000011
 30
0.0
 11
22179.917532499981
 21
19705.990211000011
 31
0.0
  0
LINE
  5
2FA8
  8
2-0
  6
CONTINUOUS
 62
     3
 10
22174.917268499968
 20
19698.984695000021
 30
0.0
 11
22174.917268499968
 21
19705.990211000011
 31
0.0
  0
LINE
  5
2FA9
  8
2-0
  6
CONTINUOUS
 62
     3
 10
22875.916279499961
 20
19698.984695000021
 30
0.0
 11
22875.916279499961
 21
19705.990211000011
 31
0.0
  0
LINE
  5
2FAA
  8
2-0
  6
CONTINUOUS
 62
     3
 10
22875.916279499961
 20
19705.990211000011
 30
0.0
 11
22880.916542499981
 21
19705.990211000011
 31
0.0
  0
LINE
  5
2FAB
  8
2-0
  6
CONTINUOUS
 62
     3
 10
22880.916542499981
 20
19705.990211000011
 30
0.0
 11
22880.916542499981
 21
19680.980973999998
 31
0.0
  0
LINE
  5
2FAC
  8
2-0
  6
CONTINUOUS
 62
     3
 10
22880.916542499981
 20
19680.980973999998
 30
0.0
 11
22862.922719499958
 21
19680.980973999998
 31
0.0
  0
LINE
  5
2FAD
  8
2-0
  6
CONTINUOUS
 62
     3
 10
22862.922719499958
 20
19680.980973999998
 30
0.0
 11
22862.922719499958
 21
19710.984537000011
 31
0.0
  0
LINE
  5
2FAE
  8
2-0
  6
CONTINUOUS
 62
     3
 10
22879.014225499959
 20
19680.980973999998
 30
0.0
 11
22873.016284499961
 21
19680.980973999998
 31
0.0
  0
LINE
  5
2FAF
  8
2-0
  6
CONTINUOUS
 62
     3
 10
22873.016284499961
 20
19680.980973999998
 30
0.0
 11
22873.016284499961
 21
19710.984537000011
 31
0.0
  0
LINE
  5
2FB0
  8
2-0
  6
CONTINUOUS
 62
     3
 10
22910.01744549998
 20
19710.984537000011
 30
0.0
 11
22873.016284499961
 21
19710.984537000011
 31
0.0
  0
LINE
  5
2FB1
  8
2-0
  6
CONTINUOUS
 62
     3
 10
22910.01744549998
 20
19680.980973999998
 30
0.0
 11
22910.01744549998
 21
19710.984537000011
 31
0.0
  0
LINE
  5
2FB2
  8
2-0
  6
CONTINUOUS
 62
     3
 10
22904.011586499972
 20
19680.980973999998
 30
0.0
 11
22910.01744549998
 21
19680.980973999998
 31
0.0
  0
LINE
  5
2FB3
  8
2-0
  6
CONTINUOUS
 62
     3
 10
22920.111010499972
 20
19680.980973999998
 30
0.0
 11
22920.111010499972
 21
19710.984537000011
 31
0.0
  0
LINE
  5
2FB4
  8
2-0
  6
CONTINUOUS
 62
     3
 10
22902.11520749997
 20
19680.980973999998
 30
0.0
 11
22920.111010499972
 21
19680.980973999998
 31
0.0
  0
LINE
  5
2FB5
  8
2-0
  6
CONTINUOUS
 62
     3
 10
22902.11520749997
 20
19705.990211000011
 30
0.0
 11
22902.11520749997
 21
19680.980973999998
 31
0.0
  0
LINE
  5
2FB6
  8
2-0
  6
CONTINUOUS
 62
     3
 10
22907.105573499961
 20
19705.990211000011
 30
0.0
 11
22902.11520749997
 21
19705.990211000011
 31
0.0
  0
LINE
  5
2FB7
  8
2-0
  6
CONTINUOUS
 62
     3
 10
22907.105573499961
 20
19698.984695000021
 30
0.0
 11
22907.105573499961
 21
19705.990211000011
 31
0.0
  0
LINE
  5
2FB8
  8
2-0
  6
CONTINUOUS
 62
     3
 10
22219.112000499968
 20
19710.984537000011
 30
0.0
 11
22862.922719499958
 21
19710.984537000011
 31
0.0
  0
LINE
  5
2FB9
  8
2-0
  6
CONTINUOUS
 62
     3
 10
21518.315890999991
 20
19710.984537000011
 30
0.0
 11
22161.92172949998
 21
19710.984537000011
 31
0.0
  0
LINE
  5
2FBA
  8
2-0
  6
CONTINUOUS
 62
     3
 10
24268.40049499998
 20
19710.984537000011
 30
0.0
 11
23621.114969999981
 21
19710.984537000011
 31
0.0
  0
LINE
  5
2FBB
  8
2-0
  6
CONTINUOUS
 62
     3
 10
23563.92271899998
 20
19710.984537000011
 30
0.0
 11
22920.111010499972
 21
19710.984537000011
 31
0.0
  0
LINE
  5
2FBC
  8
2-0
  6
CONTINUOUS
 62
     3
 10
21505.108542999969
 20
19698.984695000021
 30
0.0
 11
21505.108542999969
 21
19705.990211000011
 31
0.0
  0
LINE
  5
2FBD
  8
2-0
  6
CONTINUOUS
 62
     3
 10
21505.108542999969
 20
19705.990211000011
 30
0.0
 11
21500.10827899996
 21
19705.990211000011
 31
0.0
  0
LINE
  5
2FBE
  8
2-0
  6
CONTINUOUS
 62
     3
 10
21500.10827899996
 20
19705.990211000011
 30
0.0
 11
21500.10827899996
 21
19680.980973999998
 31
0.0
  0
LINE
  5
2FBF
  8
2-0
  6
CONTINUOUS
 62
     3
 10
21500.10827899996
 20
19680.980973999998
 30
0.0
 11
21518.11002099999
 21
19680.980973999998
 31
0.0
  0
LINE
  5
2FC0
  8
2-0
  6
CONTINUOUS
 62
     3
 10
21518.11002099999
 20
19680.980973999998
 30
0.0
 11
21518.11002099999
 21
19710.984537000011
 31
0.0
  0
LINE
  5
2FC1
  8
2-0
  6
CONTINUOUS
 62
     3
 10
21502.010595999989
 20
19680.980973999998
 30
0.0
 11
21508.014475999971
 21
19680.980973999998
 31
0.0
  0
LINE
  5
2FC2
  8
2-0
  6
CONTINUOUS
 62
     3
 10
21508.014475999971
 20
19680.980973999998
 30
0.0
 11
21508.014475999971
 21
19710.984537000011
 31
0.0
  0
LINE
  5
2FC3
  8
2-0
  6
CONTINUOUS
 62
     3
 10
21471.01925399997
 20
19710.984537000011
 30
0.0
 11
21508.014475999971
 21
19710.984537000011
 31
0.0
  0
LINE
  5
2FC4
  8
2-0
  6
CONTINUOUS
 62
     3
 10
21471.01925399997
 20
19680.980973999998
 30
0.0
 11
21471.01925399997
 21
19710.984537000011
 31
0.0
  0
LINE
  5
2FC5
  8
2-0
  6
CONTINUOUS
 62
     3
 10
21477.01323599997
 20
19680.980973999998
 30
0.0
 11
21471.01925399997
 21
19680.980973999998
 31
0.0
  0
LINE
  5
2FC6
  8
2-0
  6
CONTINUOUS
 62
     3
 10
21460.923708999981
 20
19680.980973999998
 30
0.0
 11
21460.923708999981
 21
19710.984537000011
 31
0.0
  0
LINE
  5
2FC7
  8
2-0
  6
CONTINUOUS
 62
     3
 10
21478.919511999989
 20
19680.980973999998
 30
0.0
 11
21460.923708999981
 21
19680.980973999998
 31
0.0
  0
LINE
  5
2FC8
  8
2-0
  6
CONTINUOUS
 62
     3
 10
21478.919511999989
 20
19705.990211000011
 30
0.0
 11
21478.919511999989
 21
19680.980973999998
 31
0.0
  0
LINE
  5
2FC9
  8
2-0
  6
CONTINUOUS
 62
     3
 10
21473.921227999988
 20
19705.990211000011
 30
0.0
 11
21478.919511999989
 21
19705.990211000011
 31
0.0
  0
LINE
  5
2FCA
  8
2-0
  6
CONTINUOUS
 62
     3
 10
21473.921227999988
 20
19698.984695000021
 30
0.0
 11
21473.921227999988
 21
19705.990211000011
 31
0.0
  0
LINE
  5
2FCB
  8
2-0
  6
CONTINUOUS
 62
     3
 10
21164.82210699996
 20
19710.984537000011
 30
0.0
 11
21460.923708999981
 21
19710.984537000011
 31
0.0
  0
LINE
  5
2FCC
  8
2-0
  6
CONTINUOUS
 62
     3
 10
24393.01514899997
 20
15263.12568899999
 30
0.0
 11
24393.01514899997
 21
14619.086831000001
 31
0.0
  0
LINE
  5
2FCD
  8
2-0
  6
CONTINUOUS
 62
     3
 10
24393.01514899997
 20
14561.890621
 30
0.0
 11
24393.01514899997
 21
13918.087326000001
 31
0.0
  0
CIRCLE
  5
2FCE
  8
2-0
  6
CONTINUOUS
 62
     4
 10
24350.51686499998
 20
21110.989156000011
 30
0.0
 40
200.00001
  0
TEXT
  5
2FCF
  8
2-0
  6
CONTINUOUS
 62
     7
 10
24298.88508199999
 20
21015.463527000022
 30
0.0
 40
160.0
  1
2
 72
     4
 11
24352.218415333318
 21
21095.463527000022
 31
0.0
  0
LINE
  5
2FD0
  8
0-1
  6
CONTINUOUS
 62
     3
 10
10492.267393
 20
6291.1885389999989
 30
0.0
 11
10492.267393
 21
8152.234418
 31
0.0
  0
LINE
  5
2FD1
  8
0-1
  6
CONTINUOUS
 62
     3
 10
10512.26844899999
 20
6291.1885389999989
 30
0.0
 11
10512.26844899999
 21
8152.234418
 31
0.0
  0
LINE
  5
2FD2
  8
0-1
  6
CONTINUOUS
 62
     3
 10
10442.267723000001
 20
6291.1885389999989
 30
0.0
 11
10442.267723000001
 21
8152.234418
 31
0.0
  0
LINE
  5
2FD3
  8
0-1
  6
CONTINUOUS
 62
     3
 10
10562.267129
 20
6291.1885389999989
 30
0.0
 11
10562.267129
 21
8152.234418
 31
0.0
  0
LINE
  5
2FD4
  8
0-1
  6
CONTINUOUS
 62
     3
 10
10695.268012999981
 20
6291.1885389999989
 30
0.0
 11
10695.268012999981
 21
8152.234418
 31
0.0
  0
LINE
  5
2FD5
  8
0-1
  6
CONTINUOUS
 62
     3
 10
10710.267814999999
 20
6291.1885389999989
 30
0.0
 11
10710.267814999999
 21
8152.234418
 31
0.0
  0
LINE
  5
2FD6
  8
0-1
  6
CONTINUOUS
 62
     3
 10
10309.267828000009
 20
6291.1885389999989
 30
0.0
 11
10309.267828000009
 21
8152.234418
 31
0.0
  0
LINE
  5
2FD7
  8
0-1
  6
CONTINUOUS
 62
     3
 10
10294.268026000011
 20
6291.1885389999989
 30
0.0
 11
10294.268026000011
 21
8152.234418
 31
0.0
  0
LINE
  5
2FD8
  8
0-1
  6
CONTINUOUS
 62
     3
 10
11570.767512
 20
8152.234418
 30
0.0
 11
11570.767512
 21
6291.1885389999989
 31
0.0
  0
LINE
  5
2FD9
  8
0-1
  6
CONTINUOUS
 62
     3
 10
11533.769319999999
 20
8152.234418
 30
0.0
 11
11533.769319999999
 21
6291.1885389999989
 31
0.0
  0
LINE
  5
2FDA
  8
0-1
  6
CONTINUOUS
 62
     3
 10
10870.768171
 20
8152.234418
 30
0.0
 11
10870.768171
 21
6291.1885389999989
 31
0.0
  0
LINE
  5
2FDB
  8
0-1
  6
CONTINUOUS
 62
     3
 10
10833.76799999998
 20
8152.234418
 30
0.0
 11
10833.76799999998
 21
6291.1885389999989
 31
0.0
  0
LINE
  5
2FDC
  8
0-1
  6
CONTINUOUS
 62
     3
 10
12270.76685199999
 20
8152.234418
 30
0.0
 11
12270.76685199999
 21
6291.1885389999989
 31
0.0
  0
LINE
  5
2FDD
  8
0-1
  6
CONTINUOUS
 62
     3
 10
12233.768659999991
 20
8152.234418
 30
0.0
 11
12233.768659999991
 21
6291.1885389999989
 31
0.0
  0
LINE
  5
2FDE
  8
0-1
  6
CONTINUOUS
 62
     3
 10
11892.26706299999
 20
6291.1885389999989
 30
0.0
 11
11892.26706299999
 21
8152.234418
 31
0.0
  0
LINE
  5
2FDF
  8
0-1
  6
CONTINUOUS
 62
     3
 10
11912.268119
 20
6291.1885389999989
 30
0.0
 11
11912.268119
 21
8152.234418
 31
0.0
  0
LINE
  5
2FE0
  8
0-1
  6
CONTINUOUS
 62
     3
 10
11842.268383000001
 20
6291.1885389999989
 30
0.0
 11
11842.268383000001
 21
8152.234418
 31
0.0
  0
LINE
  5
2FE1
  8
0-1
  6
CONTINUOUS
 62
     3
 10
11962.26778900001
 20
6291.1885389999989
 30
0.0
 11
11962.26778900001
 21
8152.234418
 31
0.0
  0
LINE
  5
2FE2
  8
0-1
  6
CONTINUOUS
 62
     3
 10
12095.26768299998
 20
6291.1885389999989
 30
0.0
 11
12095.26768299998
 21
8152.234418
 31
0.0
  0
LINE
  5
2FE3
  8
0-1
  6
CONTINUOUS
 62
     3
 10
12110.267485
 20
6291.1885389999989
 30
0.0
 11
12110.267485
 21
8152.234418
 31
0.0
  0
LINE
  5
2FE4
  8
0-1
  6
CONTINUOUS
 62
     3
 10
11709.26749799999
 20
6291.1885389999989
 30
0.0
 11
11709.26749799999
 21
8152.234418
 31
0.0
  0
LINE
  5
2FE5
  8
0-1
  6
CONTINUOUS
 62
     3
 10
11694.268685999999
 20
6291.1885389999989
 30
0.0
 11
11694.268685999999
 21
8152.234418
 31
0.0
  0
LINE
  5
2FE6
  8
0-1
  6
CONTINUOUS
 62
     3
 10
10994.267366
 20
6291.1885389999989
 30
0.0
 11
10994.267366
 21
8152.234418
 31
0.0
  0
LINE
  5
2FE7
  8
0-1
  6
CONTINUOUS
 62
     3
 10
11009.268157999981
 20
6291.1885389999989
 30
0.0
 11
11009.268157999981
 21
8152.234418
 31
0.0
  0
LINE
  5
2FE8
  8
0-1
  6
CONTINUOUS
 62
     3
 10
11410.268144999991
 20
6291.1885389999989
 30
0.0
 11
11410.268144999991
 21
8152.234418
 31
0.0
  0
LINE
  5
2FE9
  8
0-1
  6
CONTINUOUS
 62
     3
 10
11395.267352999999
 20
6291.1885389999989
 30
0.0
 11
11395.267352999999
 21
8152.234418
 31
0.0
  0
LINE
  5
2FEA
  8
0-1
  6
CONTINUOUS
 62
     3
 10
11262.26844899999
 20
6291.1885389999989
 30
0.0
 11
11262.26844899999
 21
8152.234418
 31
0.0
  0
LINE
  5
2FEB
  8
0-1
  6
CONTINUOUS
 62
     3
 10
11142.26706299999
 20
6291.1885389999989
 30
0.0
 11
11142.26706299999
 21
8152.234418
 31
0.0
  0
LINE
  5
2FEC
  8
0-1
  6
CONTINUOUS
 62
     3
 10
11212.269768
 20
6291.1885389999989
 30
0.0
 11
11212.269768
 21
8152.234418
 31
0.0
  0
LINE
  5
2FED
  8
0-1
  6
CONTINUOUS
 62
     3
 10
11192.26871300001
 20
6291.1885389999989
 30
0.0
 11
11192.26871300001
 21
8152.234418
 31
0.0
  0
LINE
  5
2FEE
  8
0-1
  6
CONTINUOUS
 62
     3
 10
12394.267036999991
 20
6291.1885389999989
 30
0.0
 11
12394.267036999991
 21
8152.234418
 31
0.0
  0
LINE
  5
2FEF
  8
0-1
  6
CONTINUOUS
 62
     3
 10
12409.267828
 20
6291.1885389999989
 30
0.0
 11
12409.267828
 21
8152.234418
 31
0.0
  0
LINE
  5
2FF0
  8
0-1
  6
CONTINUOUS
 62
     3
 10
12542.26871300001
 20
6291.1885389999989
 30
0.0
 11
12542.26871300001
 21
8152.234418
 31
0.0
  0
LINE
  5
2FF1
  8
0-1
  6
CONTINUOUS
 62
     3
 10
12810.267814999999
 20
6291.1885389999989
 30
0.0
 11
12810.267814999999
 21
8152.234418
 31
0.0
  0
LINE
  5
2FF2
  8
0-1
  6
CONTINUOUS
 62
     3
 10
12795.269002999999
 20
6291.1885389999989
 30
0.0
 11
12795.269002999999
 21
8152.234418
 31
0.0
  0
LINE
  5
2FF3
  8
0-1
  6
CONTINUOUS
 62
     3
 10
12662.26811899998
 20
6291.1885389999989
 30
0.0
 11
12662.26811899998
 21
8152.234418
 31
0.0
  0
LINE
  5
2FF4
  8
0-1
  6
CONTINUOUS
 62
     3
 10
12612.26844899999
 20
6291.1885389999989
 30
0.0
 11
12612.26844899999
 21
8152.234418
 31
0.0
  0
LINE
  5
2FF5
  8
0-1
  6
CONTINUOUS
 62
     3
 10
12592.269372000001
 20
6291.1885389999989
 30
0.0
 11
12592.269372000001
 21
8152.234418
 31
0.0
  0
LINE
  5
2FF6
  8
0-1
  6
CONTINUOUS
 62
     3
 10
13420.268343
 20
6291.1885389999989
 30
0.0
 11
13420.268343
 21
8152.234418
 31
0.0
  0
LINE
  5
2FF7
  8
0-1
  6
CONTINUOUS
 62
     3
 10
13400.269267
 20
6291.1885389999989
 30
0.0
 11
13400.269267
 21
8152.234418
 31
0.0
  0
LINE
  5
2FF8
  8
0-1
  6
CONTINUOUS
 62
     3
 10
13470.26900299999
 20
6291.1885389999989
 30
0.0
 11
13470.26900299999
 21
8152.234418
 31
0.0
  0
LINE
  5
2FF9
  8
0-1
  6
CONTINUOUS
 62
     3
 10
13350.268607000011
 20
6291.1885389999989
 30
0.0
 11
13350.268607000011
 21
8152.234418
 31
0.0
  0
LINE
  5
2FFA
  8
0-1
  6
CONTINUOUS
 62
     3
 10
13217.268712999999
 20
6291.1885389999989
 30
0.0
 11
13217.268712999999
 21
8152.234418
 31
0.0
  0
LINE
  5
2FFB
  8
0-1
  6
CONTINUOUS
 62
     3
 10
13202.26693099998
 20
6291.1885389999989
 30
0.0
 11
13202.26693099998
 21
8152.234418
 31
0.0
  0
LINE
  5
2FFC
  8
0-1
  6
CONTINUOUS
 62
     3
 10
13603.268897
 20
6291.1885389999989
 30
0.0
 11
13603.268897
 21
8152.234418
 31
0.0
  0
LINE
  5
2FFD
  8
0-1
  6
CONTINUOUS
 62
     3
 10
13618.26771
 20
6291.1885389999989
 30
0.0
 11
13618.26771
 21
8152.234418
 31
0.0
  0
LINE
  5
2FFE
  8
0-1
  6
CONTINUOUS
 62
     3
 10
15718.26771
 20
6291.1885389999989
 30
0.0
 11
15718.26771
 21
8152.234418
 31
0.0
  0
LINE
  5
2FFF
  8
0-1
  6
CONTINUOUS
 62
     3
 10
15703.268897000011
 20
6291.1885389999989
 30
0.0
 11
15703.268897000011
 21
8152.234418
 31
0.0
  0
LINE
  5
3000
  8
0-1
  6
CONTINUOUS
 62
     3
 10
15302.267920999981
 20
6291.1885389999989
 30
0.0
 11
15302.267920999981
 21
8152.234418
 31
0.0
  0
LINE
  5
3001
  8
0-1
  6
CONTINUOUS
 62
     3
 10
15317.267723000001
 20
6291.1885389999989
 30
0.0
 11
15317.267723000001
 21
8152.234418
 31
0.0
  0
LINE
  5
3002
  8
0-1
  6
CONTINUOUS
 62
     3
 10
15450.268607000011
 20
6291.1885389999989
 30
0.0
 11
15450.268607000011
 21
8152.234418
 31
0.0
  0
LINE
  5
3003
  8
0-1
  6
CONTINUOUS
 62
     3
 10
15570.26801300001
 20
6291.1885389999989
 30
0.0
 11
15570.26801300001
 21
8152.234418
 31
0.0
  0
LINE
  5
3004
  8
0-1
  6
CONTINUOUS
 62
     3
 10
15500.269267000011
 20
6291.1885389999989
 30
0.0
 11
15500.269267000011
 21
8152.234418
 31
0.0
  0
LINE
  5
3005
  8
0-1
  6
CONTINUOUS
 62
     3
 10
15520.268343000011
 20
6291.1885389999989
 30
0.0
 11
15520.268343000011
 21
8152.234418
 31
0.0
  0
LINE
  5
3006
  8
0-1
  6
CONTINUOUS
 62
     3
 10
14820.26900299999
 20
6291.1885389999989
 30
0.0
 11
14820.26900299999
 21
8152.234418
 31
0.0
  0
LINE
  5
3007
  8
0-1
  6
CONTINUOUS
 62
     3
 10
14800.267947
 20
6291.1885389999989
 30
0.0
 11
14800.267947
 21
8152.234418
 31
0.0
  0
LINE
  5
3008
  8
0-1
  6
CONTINUOUS
 62
     3
 10
14870.267683
 20
6291.1885389999989
 30
0.0
 11
14870.267683
 21
8152.234418
 31
0.0
  0
LINE
  5
3009
  8
0-1
  6
CONTINUOUS
 62
     3
 10
14750.269266999991
 20
6291.1885389999989
 30
0.0
 11
14750.269266999991
 21
8152.234418
 31
0.0
  0
LINE
  5
300A
  8
0-1
  6
CONTINUOUS
 62
     3
 10
14617.268383000001
 20
6291.1885389999989
 30
0.0
 11
14617.268383000001
 21
8152.234418
 31
0.0
  0
LINE
  5
300B
  8
0-1
  6
CONTINUOUS
 62
     3
 10
14602.26858099998
 20
6291.1885389999989
 30
0.0
 11
14602.26858099998
 21
8152.234418
 31
0.0
  0
LINE
  5
300C
  8
0-1
  6
CONTINUOUS
 62
     3
 10
15003.26658800001
 20
6291.1885389999989
 30
0.0
 11
15003.26658800001
 21
8152.234418
 31
0.0
  0
LINE
  5
300D
  8
0-1
  6
CONTINUOUS
 62
     3
 10
15018.26836900001
 20
6291.1885389999989
 30
0.0
 11
15018.26836900001
 21
8152.234418
 31
0.0
  0
LINE
  5
300E
  8
0-1
  6
CONTINUOUS
 62
     3
 10
14318.26902900001
 20
6291.1885389999989
 30
0.0
 11
14318.26902900001
 21
8152.234418
 31
0.0
  0
LINE
  5
300F
  8
0-1
  6
CONTINUOUS
 62
     3
 10
14303.267248
 20
6291.1885389999989
 30
0.0
 11
14303.267248
 21
8152.234418
 31
0.0
  0
LINE
  5
3010
  8
0-1
  6
CONTINUOUS
 62
     3
 10
13902.26924
 20
6291.1885389999989
 30
0.0
 11
13902.26924
 21
8152.234418
 31
0.0
  0
LINE
  5
3011
  8
0-1
  6
CONTINUOUS
 62
     3
 10
13917.268053
 20
6291.1885389999989
 30
0.0
 11
13917.268053
 21
8152.234418
 31
0.0
  0
LINE
  5
3012
  8
0-1
  6
CONTINUOUS
 62
     3
 10
14050.266957000011
 20
6291.1885389999989
 30
0.0
 11
14050.266957000011
 21
8152.234418
 31
0.0
  0
LINE
  5
3013
  8
0-1
  6
CONTINUOUS
 62
     3
 10
14170.268343
 20
6291.1885389999989
 30
0.0
 11
14170.268343
 21
8152.234418
 31
0.0
  0
LINE
  5
3014
  8
0-1
  6
CONTINUOUS
 62
     3
 10
14100.268606999991
 20
6291.1885389999989
 30
0.0
 11
14100.268606999991
 21
8152.234418
 31
0.0
  0
LINE
  5
3015
  8
0-1
  6
CONTINUOUS
 62
     3
 10
14120.267683
 20
6291.1885389999989
 30
0.0
 11
14120.267683
 21
8152.234418
 31
0.0
  0
LINE
  5
3016
  8
0-1
  6
CONTINUOUS
 62
     3
 10
13778.76905600001
 20
8152.234418
 30
0.0
 11
13778.76905600001
 21
6291.1885389999989
 31
0.0
  0
LINE
  5
3017
  8
0-1
  6
CONTINUOUS
 62
     3
 10
13741.767894000001
 20
8152.234418
 30
0.0
 11
13741.767894000001
 21
6291.1885389999989
 31
0.0
  0
LINE
  5
3018
  8
0-1
  6
CONTINUOUS
 62
     3
 10
15178.766745999999
 20
8152.234418
 30
0.0
 11
15178.766745999999
 21
6291.1885389999989
 31
0.0
  0
LINE
  5
3019
  8
0-1
  6
CONTINUOUS
 62
     3
 10
15141.767563999991
 20
8152.234418
 30
0.0
 11
15141.767563999991
 21
6291.1885389999989
 31
0.0
  0
LINE
  5
301A
  8
0-1
  6
CONTINUOUS
 62
     3
 10
14478.76839599999
 20
8152.234418
 30
0.0
 11
14478.76839599999
 21
6291.1885389999989
 31
0.0
  0
LINE
  5
301B
  8
0-1
  6
CONTINUOUS
 62
     3
 10
14441.768223999999
 20
8152.234418
 30
0.0
 11
14441.768223999999
 21
6291.1885389999989
 31
0.0
  0
LINE
  5
301C
  8
0-1
  6
CONTINUOUS
 62
     3
 10
15878.76905599999
 20
8152.234418
 30
0.0
 11
15878.76905599999
 21
6291.1885389999989
 31
0.0
  0
LINE
  5
301D
  8
0-1
  6
CONTINUOUS
 62
     3
 10
15841.767894000001
 20
8152.234418
 30
0.0
 11
15841.767894000001
 21
6291.1885389999989
 31
0.0
  0
LINE
  5
301E
  8
0-1
  6
CONTINUOUS
 62
     3
 10
16329.767868000001
 20
6241.1883740000003
 30
0.0
 11
16329.767868000001
 21
6141.1885389999979
 31
0.0
  0
LINE
  5
301F
  8
0-1
  6
CONTINUOUS
 62
     3
 10
16297.267077
 20
8455.5174490000027
 30
0.0
 11
16297.267077
 21
6241.1883740000012
 31
0.0
  0
LINE
  5
3020
  8
0-1
  6
CONTINUOUS
 62
     3
 10
16317.267868000001
 20
8456.0984380000027
 30
0.0
 11
16317.267868000001
 21
6241.1883740000012
 31
0.0
  0
LINE
  5
3021
  8
0-1
  6
CONTINUOUS
 62
     3
 10
16202.26799999998
 20
8152.234418
 30
0.0
 11
16202.26799999998
 21
6241.1883740000012
 31
0.0
  0
LINE
  5
3022
  8
0-1
  6
CONTINUOUS
 62
     3
 10
13006.267868000001
 20
8356.9898809999977
 30
0.0
 11
13006.267868000001
 21
8152.234418
 31
0.0
  0
LINE
  5
3023
  8
0-1
  6
CONTINUOUS
 62
     3
 10
12933.768
 20
8152.234418
 30
0.0
 11
12933.768
 21
6241.1883740000012
 31
0.0
  0
LINE
  5
3024
  8
0-1
  6
CONTINUOUS
 62
     3
 10
13078.76674599999
 20
8152.234418
 30
0.0
 11
13078.76674599999
 21
6241.1883740000012
 31
0.0
  0
LINE
  5
3025
  8
0-1
  6
CONTINUOUS
 62
     3
 10
13078.76674599999
 20
6291.1885389999989
 30
0.0
 11
16202.26799999998
 21
6291.1885389999989
 31
0.0
  0
LINE
  5
3026
  8
0-1
  6
CONTINUOUS
 62
     3
 10
10038.267868000001
 20
6141.1885389999979
 30
0.0
 11
10038.267868000001
 21
6241.1883740000003
 31
0.0
  0
LINE
  5
3027
  8
0-1
  6
CONTINUOUS
 62
     3
 10
10065.76766999999
 20
8268.9908770000002
 30
0.0
 11
10065.76766999999
 21
6241.1883740000012
 31
0.0
  0
LINE
  5
3028
  8
0-1
  6
CONTINUOUS
 62
     3
 10
10045.767868000001
 20
8268.3741496838065
 30
0.0
 11
10045.767868000001
 21
6241.1883740000012
 31
0.0
  0
LINE
  5
3029
  8
0-1
  6
CONTINUOUS
 62
     3
 10
10160.766747
 20
8152.234418
 30
0.0
 11
10160.766747
 21
6241.1883740000012
 31
0.0
  0
LINE
  5
302A
  8
0-1
  6
CONTINUOUS
 62
     3
 10
10038.267868000001
 20
6241.1883740000003
 30
0.0
 11
16329.767868000001
 21
6241.1883740000003
 31
0.0
  0
LINE
  5
302B
  8
0-1
  6
CONTINUOUS
 62
     3
 10
10160.766747
 20
6291.1885389999989
 30
0.0
 11
12933.768
 21
6291.1885389999989
 31
0.0
  0
LINE
  5
302C
  8
0-1
  6
CONTINUOUS
 62
     3
 10
9355.7668129999984
 20
6141.1885389999979
 30
0.0
 11
16329.767868000001
 21
6141.1885389999979
 31
0.0
  0
LINE
  5
302D
  8
0-1
  6
CONTINUOUS
 62
     3
 10
10065.76766999999
 20
8152.234418
 30
0.0
 11
16297.267077
 21
8152.234418
 31
0.0
  0
LINE
  5
302E
  8
0-1
  6
CONTINUOUS
 62
     3
 10
9871.4660440000007
 20
8303.1736990000027
 30
0.0
 11
16402.957533000001
 21
8498.6897600000029
 31
0.0
  0
LINE
  5
302F
  8
0-1
  6
CONTINUOUS
 62
     3
 10
16401.457058
 20
8548.6686450000016
 30
0.0
 11
9869.9665589999986
 21
8353.1515949999957
 31
0.0
  0
LINE
  5
3030
  8
0-1
  6
CONTINUOUS
 62
     3
 10
9866.8765310000035
 20
8356.0604969999968
 30
0.0
 11
9865.9164640000017
 21
8388.0460529999982
 31
0.0
  0
LINE
  5
3031
  8
0-1
  6
CONTINUOUS
 62
     3
 10
9870.7652949999992
 20
8393.1932959999976
 30
0.0
 11
16421.22651
 21
8589.2804479999977
 31
0.0
  0
LINE
  5
3032
  8
0-1
  6
CONTINUOUS
 62
     3
 10
16425.131109999991
 20
8459.3389099999968
 30
0.0
 11
9874.6659359999994
 21
8263.2522529999969
 31
0.0
  0
LINE
  5
3033
  8
0-1
  6
CONTINUOUS
 62
     3
 10
9869.5181980000016
 20
8268.099599000001
 30
0.0
 11
9868.5591210000039
 21
8300.0856499999973
 31
0.0
  0
LINE
  5
3034
  8
0-1
  6
CONTINUOUS
 62
     3
 10
9868.2275520000003
 20
8311.0803909999977
 30
0.0
 11
9867.2071099999994
 21
8345.0647660000031
 31
0.0
  0
LINE
  5
3035
  8
0-1
  6
CONTINUOUS
 62
     3
 10
9870.1160130000044
 20
8348.1538049999981
 30
0.0
 11
16401.608490999992
 21
8543.6713500000023
 31
0.0
  0
LINE
  5
3036
  8
0-1
  6
CONTINUOUS
 62
     3
 10
16402.808078999991
 20
8503.6880439999986
 30
0.0
 11
9871.3175809999993
 21
8308.1719840000005
 31
0.0
  0
LINE
  5
3037
  8
0-1
  6
CONTINUOUS
 62
     3
 10
13006.267868000001
 20
8356.9898809999977
 30
0.0
 11
13002.365247
 21
8486.9314190000005
 31
0.0
  0
LINE
  5
3038
  8
0-1
  6
CONTINUOUS
 62
     3
 10
16392.164207999991
 20
8458.3481609999981
 30
0.0
 11
16388.262577000001
 21
8588.2896989999972
 31
0.0
  0
LINE
  5
3039
  8
0-1
  6
CONTINUOUS
 62
     3
 10
9883.2580369999996
 20
8393.5684149999979
 30
0.0
 11
9887.1606580000007
 21
8263.6273720000008
 31
0.0
  0
LINE
  5
303A
  8
0-5
  6
CONTINUOUS
 62
     4
 10
18034.852856000001
 20
6241.1883740000012
 30
0.0
 11
18154.85325199999
 21
6449.0353509999986
 31
0.0
  0
LINE
  5
303B
  8
0-5
  6
CONTINUOUS
 62
     4
 10
17914.854438999992
 20
6449.0353509999986
 30
0.0
 11
18034.852856000001
 21
6241.1883740000012
 31
0.0
  0
LINE
  5
303C
  8
0-5
  6
CONTINUOUS
 62
     4
 10
18154.85325199999
 20
6449.0353509999986
 30
0.0
 11
17914.854438999992
 21
6449.0353509999986
 31
0.0
  0
LINE
  5
303D
  8
0-5
  6
CONTINUOUS
 62
     4
 10
16409.765163000011
 20
6241.1883740000003
 30
0.0
 11
18127.231048999991
 21
6241.1883740000012
 31
0.0
  0
LINE
  5
303E
  8
0-5
  6
CONTINUOUS
 62
     4
 10
16274.767868000001
 20
4461.1889349999992
 30
0.0
 11
16274.767868000001
 21
4301.1893969999992
 31
0.0
  0
LINE
  5
303F
  8
0-5
  6
CONTINUOUS
 62
     4
 10
13006.267868000001
 20
4461.1889349999992
 30
0.0
 11
13006.267868000001
 21
4301.1893969999992
 31
0.0
  0
LINE
  5
3040
  8
0-5
  6
CONTINUOUS
 62
     4
 10
10088.267868000001
 20
4461.1889349999992
 30
0.0
 11
10088.267868000001
 21
4301.1893969999992
 31
0.0
  0
LINE
  5
3041
  8
2-0
  6
CENTER2
 62
     6
 10
16274.767868000001
 20
5878.5361159999993
 30
0.0
 11
16274.767868000001
 21
6935.6787139999979
 31
0.0
  0
LINE
  5
3042
  8
2-0
  6
CENTER2
 62
     6
 10
13006.267868000001
 20
5878.5361159999993
 30
0.0
 11
13006.267868000001
 21
6935.6787139999979
 31
0.0
  0
LINE
  5
3043
  8
2-0
  6
CENTER2
 62
     6
 10
10088.267868000001
 20
5878.5361159999993
 30
0.0
 11
10088.267868000001
 21
6935.6787139999979
 31
0.0
  0
ARC
  5
3044
  8
0-1
  6
CONTINUOUS
 62
     3
 10
16402.207294999989
 20
8523.6801919999998
 30
0.0
 40
24.999998999999999
 50
271.71998600002598
 51
91.719986000025997
  0
ARC
  5
3045
  8
0-1
  6
CONTINUOUS
 62
     3
 10
9869.8764910000027
 20
8356.1505649999999
 30
0.0
 40
3.0
 50
181.71998600002601
 51
271.71998600002598
  0
ARC
  5
3046
  8
0-1
  6
CONTINUOUS
 62
     3
 10
9870.9137590000046
 20
8388.1955069999967
 30
0.0
 40
5.0
 50
91.719986000025997
 51
181.71998600002601
  0
ARC
  5
3047
  8
0-1
  6
CONTINUOUS
 62
     3
 10
16397.210000999981
 20
8523.529749000003
 30
0.0
 40
69.999999000000003
 50
293.50677499975183
 51
69.933196999864222
  0
ARC
  5
3048
  8
0-1
  6
CONTINUOUS
 62
     3
 10
9874.5174720000032
 20
8268.250043
 30
0.0
 40
5.0
 50
181.71998600002601
 51
271.71998600002598
  0
ARC
  5
3049
  8
0-1
  6
CONTINUOUS
 62
     3
 10
9871.5561130000042
 20
8300.1752229999984
 30
0.0
 40
3.0
 50
91.719986000025997
 51
181.71998600002601
  0
ARC
  5
304A
  8
0-1
  6
CONTINUOUS
 62
     3
 10
9871.5402760000015
 20
8350.6979809999975
 30
0.0
 40
2.5
 50
271.71998600002598
 51
91.719986000025997
  0
ARC
  5
304B
  8
0-1
  6
CONTINUOUS
 62
     3
 10
9872.8903079999982
 20
8305.7178749999985
 30
0.0
 40
2.5
 50
271.71998600002598
 51
91.719986000025997
  0
ARC
  5
304C
  8
0-1
  6
CONTINUOUS
 62
     3
 10
9870.2060810000003
 20
8345.1553289999974
 30
0.0
 40
3.0
 50
91.719986000025997
 51
181.71998600002601
  0
ARC
  5
304D
  8
0-1
  6
CONTINUOUS
 62
     3
 10
16402.207294999989
 20
8523.6801919999998
 30
0.0
 40
20.0
 50
271.71998600002598
 51
91.719986000025997
  0
ARC
  5
304E
  8
0-1
  6
CONTINUOUS
 62
     3
 10
9871.2265229999975
 20
8311.1699640000006
 30
0.0
 40
3.0
 50
181.71998600002601
 51
271.71998600002598
  0
CIRCLE
  5
304F
  8
0-5
  6
CONTINUOUS
 62
     4
 10
13006.267868000001
 20
4101.1882420000002
 30
0.0
 40
199.9999949999999
  0
CIRCLE
  5
3050
  8
0-5
  6
CONTINUOUS
 62
     4
 10
16274.767868000001
 20
4101.1882420000002
 30
0.0
 40
199.9999949999999
  0
CIRCLE
  5
3051
  8
0-5
  6
CONTINUOUS
 62
     4
 10
10088.267868000001
 20
4101.1882420000002
 30
0.0
 40
199.9999949999999
  0
TEXT
  5
3052
  8
0-5
  6
CONTINUOUS
 62
     7
 10
17575.760926999999
 20
6529.0346250000011
 30
0.0
 40
160.0
  1
布基礎天端
 72
     4
 11
18034.427593666671
 21
6609.0346250000011
 31
0.0
  0
TEXT
  5
3053
  8
0-5
  6
CONTINUOUS
 62
     7
 10
16227.81170799999
 20
4017.977445999999
 30
0.0
 40
160.0
  1
A
 72
     4
 11
16281.14504133333
 21
4097.9774459999999
 31
0.0
  0
TEXT
  5
3054
  8
0-5
  6
CONTINUOUS
 62
     7
 10
12959.31170799999
 20
4017.977445999999
 30
0.0
 40
160.0
  1
B
 72
     4
 11
13012.64504133333
 21
4097.9774459999999
 31
0.0
  0
TEXT
  5
3055
  8
0-5
  6
CONTINUOUS
 62
     7
 10
10041.311707999979
 20
4017.977445999999
 30
0.0
 40
160.0
  1
C
 72
     4
 11
10094.64504133332
 21
4097.9774459999999
 31
0.0
  0
TEXT
  5
3056
  8
2-0
  6
CONTINUOUS
 62
     7
 10
11688.234123999981
 20
3264.0669070000022
 30
0.0
 40
160.0
  1
側 面 立 面 図
 50
0.000139
 72
     4
 11
12333.56726325081
 21
3344.0684725833762
 31
0.0
  0
TEXT
  5
3057
  8
2-0
  6
CONTINUOUS
 62
     7
 10
13685.059448388431
 20
3291.2638415833758
 30
0.0
 40
160.0
  1
1
 72
     4
 11
13711.7261150551
 21
3371.2638415833749
 31
0.0
  0
TEXT
  5
3058
  8
2-0
  6
CONTINUOUS
 62
     7
 10
13928.148165639141
 20
3211.265309583373
 30
0.0
 40
160.0
  1
80
 72
     4
 11
14048.148165639141
 21
3291.265309583373
 31
0.0
  0
TEXT
  5
3059
  8
2-0
  6
CONTINUOUS
 62
     7
 10
13186.06141438843
 20
3264.0684725833762
 30
0.0
 40
160.0
  1
(S=  /   )
 72
     4
 11
13746.06141438843
 21
3344.0684725833762
 31
0.0
  0
LINE
  5
305A
  8
0-1
  6
CONTINUOUS
 62
     3
 10
16002.27023099999
 20
6291.1885389999989
 30
0.0
 11
16002.27023099999
 21
8152.234418
 31
0.0
  0
LINE
  5
305B
  8
0-1
  6
CONTINUOUS
 62
     3
 10
16017.270033000001
 20
6291.1885389999989
 30
0.0
 11
16017.270033000001
 21
8152.234418
 31
0.0
  0
LINE
  5
305C
  8
SUNPOU
  6
CONTINUOUS
 10
20799.51686499998
 20
4941.1885390000061
 30
0.0
 11
20441.561858278881
 21
4941.1885390000061
 31
0.0
  0
LINE
  5
305D
  8
SUNPOU
  6
CONTINUOUS
 10
24633.016864999991
 20
4941.1885390000061
 30
0.0
 11
24990.971871721082
 21
4941.1885390000061
 31
0.0
  0
TEXT
  5
305E
  8
0-5
  6
CONTINUOUS
 62
     7
 10
20463.838945999989
 20
6870.5487857420012
 30
0.0
 40
160.0
  1
(2131.5)
 50
90.0
 72
     4
 11
20383.838945999989
 21
7323.8821190753342
 31
0.0
  0
LINE
  5
305F
  8
0-6
  6
CONTINUOUS
 62
     6
 10
22623.65235649997
 20
18999.666309
 30
0.0
 11
23648.69260649999
 21
18999.666309
 31
0.0
  0
LINE
  5
3060
  8
0-6
  6
CONTINUOUS
 62
     6
 10
22323.727578499958
 20
19557.019561000008
 30
0.0
 11
22219.112000499968
 21
19680.980973999998
 31
0.0
  0
LINE
  5
3061
  8
0-6
  6
CONTINUOUS
 62
     6
 10
22219.112000499968
 20
19680.980973999998
 30
0.0
 11
22277.870050499991
 21
19529.78930400002
 31
0.0
  0
LINE
  5
3062
  8
0-6
  6
CONTINUOUS
 62
     6
 10
22219.112000499968
 20
19680.980973999998
 30
0.0
 11
22323.727578499958
 21
19557.019561000008
 31
0.0
  0
LINE
  5
3063
  8
0-6
  6
CONTINUOUS
 62
     6
 10
22323.727578499958
 20
19557.019561000008
 30
0.0
 11
22277.870050499991
 21
19529.78930400002
 31
0.0
  0
LINE
  5
3064
  8
0-6
  6
CONTINUOUS
 62
     6
 10
22277.870050499991
 20
19529.78930400002
 30
0.0
 11
22219.112000499968
 21
19680.980973999998
 31
0.0
  0
LINE
  5
3065
  8
0-6
  6
CONTINUOUS
 62
     6
 10
22277.870050499991
 20
19529.78930400002
 30
0.0
 11
22323.727578499958
 21
19557.019561000008
 31
0.0
  0
LINE
  5
3066
  8
0-6
  6
CONTINUOUS
 62
     6
 10
22300.79881449998
 20
19543.406412000011
 30
0.0
 11
22623.65235649997
 21
18999.666309
 31
0.0
  0
TEXT
  5
3067
  8
0-6
  6
CONTINUOUS
 62
     7
 10
22703.652620499979
 20
19079.668553000021
 30
0.0
 40
160.0
  1
間柱（後）
 72
     4
 11
23124.985953833311
 21
19159.668553000021
 31
0.0
  0
LINE
  5
3068
  8
SUNPOU
  6
CONTINUOUS
 10
10175.131274999991
 20
19890.982161000022
 30
0.0
 11
10175.131274999991
 21
20687.949428778458
 31
0.0
  0
LINE
  5
3069
  8
SUNPOU
  6
CONTINUOUS
 10
10175.131274999991
 20
13289.490937
 30
0.0
 11
10175.131274999991
 21
12614.06482118961
 31
0.0
  0
LINE
  5
306A
  8
0-1
  6
CONTINUOUS
 62
     3
 10
11092.629685
 20
19880.987571000001
 30
0.0
 11
14385.130436999991
 21
19880.987571000001
 31
0.0
  0
LINE
  5
306B
  8
0-1
  6
CONTINUOUS
 62
     3
 10
11037.128932999991
 20
19832.988205000001
 30
0.0
 11
14440.631188999991
 21
19832.988205000001
 31
0.0
  0
LINE
  5
306C
  8
0-6
  6
CONTINUOUS
 62
     6
 10
12695.7710945
 20
19608.718647999991
 30
0.0
 11
12839.674176500001
 21
20120.994302999981
 31
0.0
  0
LINE
  5
306D
  8
0-6
  6
CONTINUOUS
 62
     6
 10
12282.62577149999
 20
19714.494222999991
 30
0.0
 11
11988.697944499991
 21
20120.994302999981
 31
0.0
  0
LINE
  5
306E
  8
0-6
  6
CONTINUOUS
 62
     6
 10
12839.674176500001
 20
20120.994302999981
 30
0.0
 11
13357.36282549998
 21
20120.994302999981
 31
0.0
  0
LINE
  5
306F
  8
0-6
  6
CONTINUOUS
 62
     6
 10
12229.36286449999
 20
20010.899418000001
 30
0.0
 11
12020.168330500001
 21
20443.230234999992
 31
0.0
  0
LINE
  5
3070
  8
0-6
  6
CONTINUOUS
 62
     6
 10
11946.1600695
 20
20571.413960999991
 30
0.0
 11
11750.10360049999
 21
20910.99443499999
 31
0.0
  0
LINE
  5
3071
  8
0-6
  6
CONTINUOUS
 62
     6
 10
11750.10360049999
 20
20910.99443499999
 30
0.0
 11
12592.5411795
 21
20910.99443499999
 31
0.0
  0
LINE
  5
3072
  8
0-6
  6
CONTINUOUS
 62
     6
 10
11188.69926449999
 20
20120.994302999981
 30
0.0
 11
11988.697944499991
 21
20120.994302999981
 31
0.0
  0
LINE
  5
3073
  8
0-6
  6
CONTINUOUS
 62
     6
 10
12669.88295049999
 20
19615.118431999981
 30
0.0
 11
12657.3832805
 21
19453.393742999961
 31
0.0
  0
LINE
  5
3074
  8
0-6
  6
CONTINUOUS
 62
     6
 10
12657.3832805
 20
19453.393742999961
 30
0.0
 11
12721.6592385
 21
19602.322823999992
 31
0.0
  0
LINE
  5
3075
  8
0-6
  6
CONTINUOUS
 62
     6
 10
12657.3832805
 20
19453.393742999961
 30
0.0
 11
12669.88295049999
 21
19615.118431999981
 31
0.0
  0
LINE
  5
3076
  8
0-6
  6
CONTINUOUS
 62
     6
 10
12669.88295049999
 20
19615.118431999981
 30
0.0
 11
12721.6592385
 21
19602.322823999992
 31
0.0
  0
LINE
  5
3077
  8
0-6
  6
CONTINUOUS
 62
     6
 10
12721.6592385
 20
19602.322823999992
 30
0.0
 11
12657.3832805
 21
19453.393742999961
 31
0.0
  0
LINE
  5
3078
  8
0-6
  6
CONTINUOUS
 62
     6
 10
12721.6592385
 20
19602.322823999992
 30
0.0
 11
12669.88295049999
 21
19615.118431999981
 31
0.0
  0
LINE
  5
3079
  8
0-6
  6
CONTINUOUS
 62
     6
 10
12207.71089049998
 20
19998.398757999981
 30
0.0
 11
12304.3618745
 21
19880.99548999999
 31
0.0
  0
LINE
  5
307A
  8
0-6
  6
CONTINUOUS
 62
     6
 10
12304.3618745
 20
19880.99548999999
 30
0.0
 11
12251.0118695
 21
20023.39809799998
 31
0.0
  0
LINE
  5
307B
  8
0-6
  6
CONTINUOUS
 62
     6
 10
12304.3618745
 20
19880.99548999999
 30
0.0
 11
12207.71089049998
 21
19998.398757999981
 31
0.0
  0
LINE
  5
307C
  8
0-6
  6
CONTINUOUS
 62
     6
 10
12207.71089049998
 20
19998.398757999981
 30
0.0
 11
12251.0118695
 21
20023.39809799998
 31
0.0
  0
LINE
  5
307D
  8
0-6
  6
CONTINUOUS
 62
     6
 10
12251.0118695
 20
20023.39809799998
 30
0.0
 11
12304.3618745
 21
19880.99548999999
 31
0.0
  0
LINE
  5
307E
  8
0-6
  6
CONTINUOUS
 62
     6
 10
12251.0118695
 20
20023.39809799998
 30
0.0
 11
12207.71089049998
 21
19998.398757999981
 31
0.0
  0
LINE
  5
307F
  8
0-6
  6
CONTINUOUS
 62
     6
 10
12175.9297195
 20
19836.67208999996
 30
0.0
 11
12282.62577149999
 21
19714.494222999991
 31
0.0
  0
LINE
  5
3080
  8
0-6
  6
CONTINUOUS
 62
     6
 10
12282.62577149999
 20
19714.494222999991
 30
0.0
 11
12221.32206049999
 21
19864.672379999989
 31
0.0
  0
LINE
  5
3081
  8
0-6
  6
CONTINUOUS
 62
     6
 10
12282.62577149999
 20
19714.494222999991
 30
0.0
 11
12175.9297195
 21
19836.67208999996
 31
0.0
  0
LINE
  5
3082
  8
0-6
  6
CONTINUOUS
 62
     6
 10
12175.9297195
 20
19836.67208999996
 30
0.0
 11
12221.32206049999
 21
19864.672379999989
 31
0.0
  0
LINE
  5
3083
  8
0-6
  6
CONTINUOUS
 62
     6
 10
12221.32206049999
 20
19864.672379999989
 30
0.0
 11
12282.62577149999
 21
19714.494222999991
 31
0.0
  0
LINE
  5
3084
  8
0-6
  6
CONTINUOUS
 62
     6
 10
12221.32206049999
 20
19864.672379999989
 30
0.0
 11
12175.9297195
 21
19836.67208999996
 31
0.0
  0
TEXT
  5
3085
  8
0-6
  6
CONTINUOUS
 62
     7
 10
12919.67543049997
 20
20200.994567000002
 30
0.0
 40
160.0
  1
屋根
 72
     4
 11
13090.34209716664
 21
20280.994567000002
 31
0.0
  0
TEXT
  5
3086
  8
0-6
  6
CONTINUOUS
 62
     7
 10
11830.10584349999
 20
20990.994698999992
 30
0.0
 40
160.0
  1
鼻隠し後
 72
     4
 11
12192.77251016666
 21
21070.994698999992
 31
0.0
  0
TEXT
  5
3087
  8
0-6
  6
CONTINUOUS
 62
     7
 10
11268.697548499989
 20
20200.994567000002
 30
0.0
 40
160.0
  1
桁（後）
 72
     4
 11
11588.697548499989
 21
20280.994567000002
 31
0.0
  0
LINE
  5
3088
  8
0-6
  6
CONTINUOUS
 62
     6
 10
12924.50789099999
 20
16949.320975999992
 30
0.0
 11
12863.360562
 21
17111.087234999992
 31
0.0
  0
LINE
  5
3089
  8
0-6
  6
CONTINUOUS
 62
     6
 10
12062.788811999981
 20
17111.087234999992
 30
0.0
 11
12863.360562
 21
17111.087234999992
 31
0.0
  0
LINE
  5
308A
  8
0-6
  6
CONTINUOUS
 62
     6
 10
12091.968894999991
 20
16020.916864000001
 30
0.0
 11
12303.232025999991
 21
16222.976222999991
 31
0.0
  0
LINE
  5
308B
  8
0-6
  6
CONTINUOUS
 62
     6
 10
12303.232025999991
 20
16222.976222999991
 30
0.0
 11
13183.23492899998
 21
16222.976222999991
 31
0.0
  0
LINE
  5
308C
  8
0-6
  6
CONTINUOUS
 62
     6
 10
12073.535617999991
 20
16040.187478
 30
0.0
 11
11976.339276000001
 21
15910.3271
 31
0.0
  0
LINE
  5
308D
  8
0-6
  6
CONTINUOUS
 62
     6
 10
11976.339276000001
 20
15910.3271
 30
0.0
 11
12110.401182
 21
16001.64427099999
 31
0.0
  0
LINE
  5
308E
  8
0-6
  6
CONTINUOUS
 62
     6
 10
11976.339276000001
 20
15910.3271
 30
0.0
 11
12073.535617999991
 21
16040.187478
 31
0.0
  0
LINE
  5
308F
  8
0-6
  6
CONTINUOUS
 62
     6
 10
12073.535617999991
 20
16040.187478
 30
0.0
 11
12110.401182
 21
16001.64427099999
 31
0.0
  0
LINE
  5
3090
  8
0-6
  6
CONTINUOUS
 62
     6
 10
12110.401182
 20
16001.64427099999
 30
0.0
 11
11976.339276000001
 21
15910.3271
 31
0.0
  0
LINE
  5
3091
  8
0-6
  6
CONTINUOUS
 62
     6
 10
12110.401182
 20
16001.64427099999
 30
0.0
 11
12073.535617999991
 21
16040.187478
 31
0.0
  0
LINE
  5
3092
  8
0-6
  6
CONTINUOUS
 62
     6
 10
12950.146615999991
 20
16956.653113
 30
0.0
 11
12968.51060999999
 21
16795.488627999988
 31
0.0
  0
LINE
  5
3093
  8
0-6
  6
CONTINUOUS
 62
     6
 10
12968.51060999999
 20
16795.488627999988
 30
0.0
 11
12898.86916699999
 21
16941.984879999982
 31
0.0
  0
LINE
  5
3094
  8
0-6
  6
CONTINUOUS
 62
     6
 10
12968.51060999999
 20
16795.488627999988
 30
0.0
 11
12950.146615999991
 21
16956.653113
 31
0.0
  0
LINE
  5
3095
  8
0-6
  6
CONTINUOUS
 62
     6
 10
12950.146615999991
 20
16956.653113
 30
0.0
 11
12898.86916699999
 21
16941.984879999982
 31
0.0
  0
LINE
  5
3096
  8
0-6
  6
CONTINUOUS
 62
     6
 10
12898.86916699999
 20
16941.984879999982
 30
0.0
 11
12968.51060999999
 21
16795.488627999988
 31
0.0
  0
LINE
  5
3097
  8
0-6
  6
CONTINUOUS
 62
     6
 10
12898.86916699999
 20
16941.984879999982
 30
0.0
 11
12950.146615999991
 21
16956.653113
 31
0.0
  0
TEXT
  5
3098
  8
0-6
  6
CONTINUOUS
 62
     7
 10
12143.361156000001
 20
17191.087499000001
 30
0.0
 40
160.0
  1
桁（中）
 72
     4
 11
12463.361156000001
 21
17271.087499000001
 31
0.0
  0
TEXT
  5
3099
  8
0-6
  6
CONTINUOUS
 62
     7
 10
12383.23426899999
 20
16302.976486999971
 30
0.0
 40
160.0
  1
ブレース
 72
     4
 11
12745.900935666659
 21
16388.30982033331
 31
0.0
  0
LINE
  5
309A
  8
0-1
  6
CONTINUOUS
 62
     3
 10
12696.190093381771
 20
18169.668208561889
 30
0.0
 11
11174.630292
 21
16750.486251999992
 31
0.0
  0
LINE
  5
309B
  8
2-0
  6
DASHED3
 62
     6
 10
12659.397952037551
 20
18283.62088496127
 30
0.0
 11
14303.130819999989
 21
16750.486251999992
 31
0.0
  0
LINE
  5
309C
  8
0-1
  6
CONTINUOUS
 62
     3
 10
12659.397952037551
 20
18283.62088496127
 30
0.0
 11
12572.451878838499
 21
18364.716809134548
 31
0.0
  0
LINE
  5
309D
  8
0-1
  6
CONTINUOUS
 62
     3
 10
14117.68545954002
 20
16556.742266586341
 30
0.0
 11
11174.630292
 21
13481.986252000001
 31
0.0
  0
LINE
  5
309E
  8
SUNPOU
  6
CONTINUOUS
 10
9865.7678679999972
 20
9389.1900499999956
 30
0.0
 11
9390.4787553597725
 21
9389.1900499999956
 31
0.0
  0
LINE
  5
30A1
  8
WAKUSEN-01
 10
868.00000000000193
 20
22484.000000000011
 30
0.0
 11
32764.000000000011
 21
22484.000000000011
 31
0.0
  0
LINE
  5
30A4
  8
WAKUSEN-01
 10
20560.0
 20
2484.0
 30
0.0
 11
32764.0
 21
2484.0
 31
0.0
  0
LINE
  5
30A5
  8
WAKUSEN-02
 10
20560.0
 20
1655.9999999999991
 30
0.0
 11
26868.0
 21
1655.9999999999991
 31
0.0
  0
TEXT
  5
30A6
  8
WAKUMOJI-01
 10
20670.260259962761
 20
2125.9030093393221
 30
0.0
 40
240.0
  1
名　称
  7
WAKUMOJI
  0
TEXT
  5
30A7
  8
WAKUMOJI-01
 10
20656.505485091919
 20
1319.12897497982
 30
0.0
 40
240.0
  1
機種名
  7
WAKUMOJI
  0
LINE
  5
30AA
  8
YODOROGO
 10
29977.604341291921
 20
1995.7494964292871
 30
0.0
 11
29829.604341291921
 21
1995.7494964292871
 31
0.0
1001
AUTOCAD_POSTSCRIPT_FIGURE
1002
{
1000
PSFILL
1000
Grayscale
1000
Grayscale
1070
    25
1002
}
  0
LINE
  5
30AB
  8
YODOROGO
 10
29829.604341291921
 20
1947.749496429288
 30
0.0
 11
29977.604341291921
 21
1947.749496429288
 31
0.0
1001
AUTOCAD_POSTSCRIPT_FIGURE
1002
{
1000
PSFILL
1000
Grayscale
1000
Grayscale
1070
    25
1002
}
  0
LINE
  5
30AC
  8
YODOROGO
 10
29977.604341291921
 20
1907.7494964292871
 30
0.0
 11
29829.604341291921
 21
1907.7494964292871
 31
0.0
1001
AUTOCAD_POSTSCRIPT_FIGURE
1002
{
1000
PSFILL
1000
Grayscale
1000
Grayscale
1070
    25
1002
}
  0
LINE
  5
30AD
  8
YODOROGO
 10
29829.604341291921
 20
1859.749496429288
 30
0.0
 11
29977.604341291921
 21
1859.749496429288
 31
0.0
1001
AUTOCAD_POSTSCRIPT_FIGURE
1002
{
1000
PSFILL
1000
Grayscale
1000
Grayscale
1070
    25
1002
}
  0
LINE
  5
30AE
  8
YODOROGO
 10
29977.604341291921
 20
1819.7494964292871
 30
0.0
 11
29829.604341291921
 21
1819.7494964292871
 31
0.0
1001
AUTOCAD_POSTSCRIPT_FIGURE
1002
{
1000
PSFILL
1000
Grayscale
1000
Grayscale
1070
    25
1002
}
  0
LINE
  5
30AF
  8
YODOROGO
 10
29921.60434129191
 20
1707.749496429288
 30
0.0
 11
29977.604341291921
 21
1707.749496429288
 31
0.0
1001
AUTOCAD_POSTSCRIPT_FIGURE
1002
{
1000
PSFILL
1000
Grayscale
1000
Grayscale
1070
    25
1002
}
  0
LINE
  5
30B0
  8
YODOROGO
 10
29737.604341291921
 20
1427.749496429288
 30
0.0
 11
29937.604341291932
 21
1481.3393349155101
 31
0.0
  0
LINE
  5
30B1
  8
YODOROGO
 10
29949.60434129191
 20
1707.749496429288
 30
0.0
 11
29885.604341291921
 21
1707.749496429288
 31
0.0
  0
ARC
  5
30B2
  8
YODOROGO
 10
30254.34774982791
 20
1807.864609233261
 30
0.0
 40
381.88686420564721
 50
213.96111677667841
 51
264.47872074317792
  0
ARC
  5
30B3
  8
YODOROGO
 10
30254.347749827921
 20
1807.864609233302
 30
0.0
 40
381.8868642056816
 50
208.14114420486601
 51
212.9210361185994
  0
LINE
  5
30B4
  8
YODOROGO
 10
29771.409872985321
 20
1556.807661346234
 30
0.0
 11
29933.78413250855
 21
1600.3157130570869
 31
0.0
  0
LINE
  5
30B5
  8
YODOROGO
 10
29737.604341291921
 20
1427.749496429288
 30
0.0
 11
29937.604341291932
 21
1481.3393349155101
 31
0.0
  0
LINE
  5
30B6
  8
YODOROGO
 10
29949.60434129191
 20
1707.749496429288
 30
0.0
 11
29885.604341291921
 21
1707.749496429288
 31
0.0
  0
ARC
  5
30B7
  8
YODOROGO
 10
30254.34774982791
 20
1807.864609233261
 30
0.0
 40
381.88686420564721
 50
213.96111677667841
 51
264.47872074317792
  0
LINE
  5
30B8
  8
YODOROGO
 10
28793.60434129191
 20
1819.7494964292871
 30
0.0
 11
28433.60434129191
 21
1819.7494964292871
 31
0.0
  0
LINE
  5
30B9
  8
YODOROGO
 10
28513.60434129191
 20
1427.749496429288
 30
0.0
 11
28793.60434129191
 21
1427.749496429288
 31
0.0
  0
LINE
  5
30BA
  8
YODOROGO
 10
28729.604341291921
 20
1923.7494964292871
 30
0.0
 11
28497.60434129191
 21
1923.7494964292871
 31
0.0
  0
LINE
  5
30BB
  8
YODOROGO
 10
28585.604341291921
 20
2027.749496429288
 30
0.0
 11
28657.604341291921
 21
2027.749496429288
 31
0.0
  0
LINE
  5
30BC
  8
YODOROGO
 10
28433.60434129191
 20
1707.749496429288
 30
0.0
 11
28433.60434129191
 21
1507.749496429288
 31
0.0
  0
LINE
  5
30BD
  8
YODOROGO
 10
28497.60434129191
 20
1563.7494964292871
 30
0.0
 11
28497.60434129191
 21
1707.749496429288
 31
0.0
  0
LINE
  5
30BE
  8
YODOROGO
 10
28585.604341291921
 20
1747.74949642929
 30
0.0
 11
28585.604341291921
 21
1547.749496429288
 31
0.0
  0
LINE
  5
30BF
  8
YODOROGO
 10
27857.604341291921
 20
1683.749496429288
 30
0.0
 11
27777.604341291921
 21
1619.9724140445701
 31
0.0
  0
LINE
  5
30C0
  8
YODOROGO
 10
27937.604341291921
 20
1619.9724140445701
 30
0.0
 11
27857.604341291921
 21
1683.749496429288
 31
0.0
  0
LINE
  5
30C1
  8
YODOROGO
 10
27857.604341291921
 20
1707.749496429288
 30
0.0
 11
27937.604341291921
 21
1643.9724140445701
 31
0.0
  0
LINE
  5
30C2
  8
YODOROGO
 10
27777.604341291921
 20
1643.9724140445701
 30
0.0
 11
27857.604341291921
 21
1707.749496429288
 31
0.0
  0
LINE
  5
30C3
  8
YODOROGO
 10
28040.913204016892
 20
1659.749496429288
 30
0.0
 11
28040.913204016892
 21
1683.7494964292871
 31
0.0
  0
LINE
  5
30C4
  8
YODOROGO
 10
27977.604341291921
 20
1683.7494964292871
 30
0.0
 11
27977.604341291921
 21
1667.749496429285
 31
0.0
  0
LINE
  5
30C5
  8
YODOROGO
 10
28098.135520230931
 20
1707.749496429288
 30
0.0
 11
28098.135520230931
 21
1655.5036372746561
 31
0.0
1001
AUTOCAD_POSTSCRIPT_FIGURE
1002
{
1000
PSFILL
1000
Grayscale
1000
Grayscale
1070
   100
1002
}
  0
LINE
  5
30C6
  8
YODOROGO
 10
28082.135520230921
 20
1655.5036372746561
 30
0.0
 11
28082.135520230921
 21
1707.749496429288
 31
0.0
1001
AUTOCAD_POSTSCRIPT_FIGURE
1002
{
1000
PSFILL
1000
Grayscale
1000
Grayscale
1070
   100
1002
}
  0
LINE
  5
30C7
  8
YODOROGO
 10
27809.604341291921
 20
1608.771904043258
 30
0.0
 11
27809.604341291921
 21
1632.771904043258
 31
0.0
  0
LINE
  5
30C8
  8
YODOROGO
 10
27905.604341291921
 20
1608.771904043258
 30
0.0
 11
27809.604341291921
 21
1608.771904043258
 31
0.0
  0
LINE
  5
30C9
  8
YODOROGO
 10
27905.604341291921
 20
1632.771904043258
 30
0.0
 11
27905.604341291921
 21
1608.771904043258
 31
0.0
  0
LINE
  5
30CA
  8
YODOROGO
 10
27809.604341291921
 20
1632.771904043258
 30
0.0
 11
27905.604341291921
 21
1632.771904043258
 31
0.0
  0
LINE
  5
30CB
  8
YODOROGO
 10
27824.509588915738
 20
1568.5028573704751
 30
0.0
 11
27785.604341291921
 21
1475.7494964292871
 31
0.0
1001
AUTOCAD_POSTSCRIPT_FIGURE
1002
{
1000
PSFILL
1000
Grayscale
1000
Grayscale
1070
   100
1002
}
  0
LINE
  5
30CC
  8
YODOROGO
 10
27777.604341291921
 20
1568.5028573704751
 30
0.0
 11
27824.509588915738
 21
1568.5028573704751
 31
0.0
1001
AUTOCAD_POSTSCRIPT_FIGURE
1002
{
1000
PSFILL
1000
Grayscale
1000
Grayscale
1070
   100
1002
}
  0
LINE
  5
30CD
  8
YODOROGO
 10
27777.604341291921
 20
1588.5028573704751
 30
0.0
 11
27777.604341291921
 21
1568.5028573704751
 31
0.0
1001
AUTOCAD_POSTSCRIPT_FIGURE
1002
{
1000
PSFILL
1000
Grayscale
1000
Grayscale
1070
   100
1002
}
  0
LINE
  5
30CE
  8
YODOROGO
 10
27937.604341291921
 20
1588.5028573704751
 30
0.0
 11
27777.604341291921
 21
1588.5028573704751
 31
0.0
1001
AUTOCAD_POSTSCRIPT_FIGURE
1002
{
1000
PSFILL
1000
Grayscale
1000
Grayscale
1070
   100
1002
}
  0
LINE
  5
30CF
  8
YODOROGO
 10
27937.604341291921
 20
1568.5028573704751
 30
0.0
 11
27937.604341291921
 21
1588.5028573704751
 31
0.0
1001
AUTOCAD_POSTSCRIPT_FIGURE
1002
{
1000
PSFILL
1000
Grayscale
1000
Grayscale
1070
   100
1002
}
  0
LINE
  5
30D0
  8
YODOROGO
 10
27844.509588915738
 20
1568.5028573704751
 30
0.0
 11
27937.604341291921
 21
1568.5028573704751
 31
0.0
1001
AUTOCAD_POSTSCRIPT_FIGURE
1002
{
1000
PSFILL
1000
Grayscale
1000
Grayscale
1070
   100
1002
}
  0
LINE
  5
30D1
  8
YODOROGO
 10
27815.546718284771
 20
1495.7494964292871
 30
0.0
 11
27844.509588915738
 21
1568.5028573704751
 31
0.0
1001
AUTOCAD_POSTSCRIPT_FIGURE
1002
{
1000
PSFILL
1000
Grayscale
1000
Grayscale
1070
   100
1002
}
  0
LINE
  5
30D2
  8
YODOROGO
 10
27902.054790808648
 20
1495.7494964292871
 30
0.0
 11
27815.546718284771
 21
1495.7494964292871
 31
0.0
1001
AUTOCAD_POSTSCRIPT_FIGURE
1002
{
1000
PSFILL
1000
Grayscale
1000
Grayscale
1070
   100
1002
}
  0
LINE
  5
30D3
  8
YODOROGO
 10
27885.065004790951
 20
1536.2338106976929
 30
0.0
 11
27902.054790808648
 21
1495.7494964292871
 31
0.0
1001
AUTOCAD_POSTSCRIPT_FIGURE
1002
{
1000
PSFILL
1000
Grayscale
1000
Grayscale
1070
   100
1002
}
  0
LINE
  5
30D4
  8
YODOROGO
 10
27901.065004790951
 20
1536.2338106976929
 30
0.0
 11
27885.065004790951
 21
1536.2338106976929
 31
0.0
1001
AUTOCAD_POSTSCRIPT_FIGURE
1002
{
1000
PSFILL
1000
Grayscale
1000
Grayscale
1070
   100
1002
}
  0
LINE
  5
30D5
  8
YODOROGO
 10
27929.604341291921
 20
1475.7494964292871
 30
0.0
 11
27901.065004790951
 21
1536.2338106976929
 31
0.0
1001
AUTOCAD_POSTSCRIPT_FIGURE
1002
{
1000
PSFILL
1000
Grayscale
1000
Grayscale
1070
   100
1002
}
  0
LINE
  5
30D6
  8
YODOROGO
 10
27785.604341291921
 20
1475.7494964292871
 30
0.0
 11
27929.604341291921
 21
1475.7494964292871
 31
0.0
1001
AUTOCAD_POSTSCRIPT_FIGURE
1002
{
1000
PSFILL
1000
Grayscale
1000
Grayscale
1070
   100
1002
}
  0
LINE
  5
30D7
  8
YODOROGO
 10
27777.604341291921
 20
1619.9724140445701
 30
0.0
 11
27777.604341291921
 21
1643.9724140445701
 31
0.0
  0
LINE
  5
30D8
  8
YODOROGO
 10
27937.604341291921
 20
1643.9724140445701
 30
0.0
 11
27937.604341291921
 21
1619.9724140445701
 31
0.0
  0
ARC
  5
30D9
  8
YODOROGO
 10
28225.940442146959
 20
1600.877765325326
 30
0.0
 40
175.9999999999998
 50
280.3644312771313
 51
3.5414836592180561
  0
ARC
  5
30DA
  8
YODOROGO
 10
28235.756030759301
 20
1633.5978069619041
 30
0.0
 40
111.9999999999982
 50
281.24905825041549
 51
348.75094174958321
  0
LINE
  5
30DB
  8
YODOROGO
 10
28257.604341291921
 20
1523.7494964292871
 30
0.0
 11
28257.604341291921
 21
1427.749496429288
 31
0.0
  0
LINE
  5
30DC
  8
YODOROGO
 10
28020.088903736909
 20
1610.650565061914
 30
0.0
 11
28040.913204016892
 21
1659.749496429288
 31
0.0
  0
LINE
  5
30DD
  8
YODOROGO
 10
28041.604341291921
 20
1583.120489948401
 30
0.0
 11
28020.088903736909
 21
1610.650565061914
 31
0.0
  0
LINE
  5
30DE
  8
YODOROGO
 10
28041.604341291921
 20
1563.120489948398
 30
0.0
 11
28041.604341291921
 21
1583.120489948401
 31
0.0
  0
LINE
  5
30DF
  8
YODOROGO
 10
28017.604341291921
 20
1585.2370637495301
 30
0.0
 11
28041.604341291921
 21
1563.120489948398
 31
0.0
  0
LINE
  5
30E0
  8
YODOROGO
 10
28017.604341291921
 20
1475.7494964292871
 30
0.0
 11
28017.604341291921
 21
1585.2370637495301
 31
0.0
  0
LINE
  5
30E1
  8
YODOROGO
 10
28001.604341291921
 20
1475.7494964292871
 30
0.0
 11
28017.604341291921
 21
1475.7494964292871
 31
0.0
  0
LINE
  5
30E2
  8
YODOROGO
 10
28001.604341291921
 20
1580.0053496897469
 30
0.0
 11
28001.604341291921
 21
1475.7494964292871
 31
0.0
  0
LINE
  5
30E3
  8
YODOROGO
 10
27977.604341291921
 20
1532.7680790334291
 30
0.0
 11
28001.604341291921
 21
1580.0053496897469
 31
0.0
  0
LINE
  5
30E4
  8
YODOROGO
 10
27977.604341291921
 20
1556.76807903343
 30
0.0
 11
27977.604341291921
 21
1532.7680790334291
 31
0.0
  0
LINE
  5
30E5
  8
YODOROGO
 10
28025.828774291349
 20
1667.749496429285
 30
0.0
 11
27977.604341291921
 21
1556.76807903343
 31
0.0
  0
LINE
  5
30E6
  8
YODOROGO
 10
27977.604341291921
 20
1667.749496429285
 30
0.0
 11
28025.828774291349
 21
1667.749496429285
 31
0.0
  0
LINE
  5
30E7
  8
YODOROGO
 10
28050.135520230899
 20
1655.5036372746561
 30
0.0
 11
28082.135520230921
 21
1655.5036372746561
 31
0.0
1001
AUTOCAD_POSTSCRIPT_FIGURE
1002
{
1000
PSFILL
1000
Grayscale
1000
Grayscale
1070
   100
1002
}
  0
LINE
  5
30E8
  8
YODOROGO
 10
28050.135520230899
 20
1631.5036372746561
 30
0.0
 11
28050.135520230899
 21
1655.5036372746561
 31
0.0
1001
AUTOCAD_POSTSCRIPT_FIGURE
1002
{
1000
PSFILL
1000
Grayscale
1000
Grayscale
1070
   100
1002
}
  0
LINE
  5
30E9
  8
YODOROGO
 10
28082.135520230921
 20
1631.5036372746561
 30
0.0
 11
28050.135520230899
 21
1631.5036372746561
 31
0.0
1001
AUTOCAD_POSTSCRIPT_FIGURE
1002
{
1000
PSFILL
1000
Grayscale
1000
Grayscale
1070
   100
1002
}
  0
LINE
  5
30EA
  8
YODOROGO
 10
28082.135520230921
 20
1499.749496429288
 30
0.0
 11
28082.135520230921
 21
1631.5036372746561
 31
0.0
1001
AUTOCAD_POSTSCRIPT_FIGURE
1002
{
1000
PSFILL
1000
Grayscale
1000
Grayscale
1070
   100
1002
}
  0
LINE
  5
30EB
  8
YODOROGO
 10
28050.135520230921
 20
1499.749496429288
 30
0.0
 11
28082.135520230921
 21
1499.749496429288
 31
0.0
1001
AUTOCAD_POSTSCRIPT_FIGURE
1002
{
1000
PSFILL
1000
Grayscale
1000
Grayscale
1070
   100
1002
}
  0
LINE
  5
30EC
  8
YODOROGO
 10
28050.135520230921
 20
1475.7494964292871
 30
0.0
 11
28050.135520230921
 21
1499.749496429288
 31
0.0
1001
AUTOCAD_POSTSCRIPT_FIGURE
1002
{
1000
PSFILL
1000
Grayscale
1000
Grayscale
1070
   100
1002
}
  0
LINE
  5
30ED
  8
YODOROGO
 10
28137.604341291921
 20
1475.7494964292871
 30
0.0
 11
28050.135520230921
 21
1475.7494964292871
 31
0.0
1001
AUTOCAD_POSTSCRIPT_FIGURE
1002
{
1000
PSFILL
1000
Grayscale
1000
Grayscale
1070
   100
1002
}
  0
LINE
  5
30EE
  8
YODOROGO
 10
28137.604341291921
 20
1499.749496429288
 30
0.0
 11
28137.604341291921
 21
1475.7494964292871
 31
0.0
1001
AUTOCAD_POSTSCRIPT_FIGURE
1002
{
1000
PSFILL
1000
Grayscale
1000
Grayscale
1070
   100
1002
}
  0
LINE
  5
30EF
  8
YODOROGO
 10
28098.135520230931
 20
1499.749496429288
 30
0.0
 11
28137.604341291921
 21
1499.749496429288
 31
0.0
1001
AUTOCAD_POSTSCRIPT_FIGURE
1002
{
1000
PSFILL
1000
Grayscale
1000
Grayscale
1070
   100
1002
}
  0
LINE
  5
30F0
  8
YODOROGO
 10
28098.135520230931
 20
1631.5036372746561
 30
0.0
 11
28098.135520230931
 21
1499.749496429288
 31
0.0
1001
AUTOCAD_POSTSCRIPT_FIGURE
1002
{
1000
PSFILL
1000
Grayscale
1000
Grayscale
1070
   100
1002
}
  0
LINE
  5
30F1
  8
YODOROGO
 10
28137.604341291921
 20
1631.5036372746561
 30
0.0
 11
28098.135520230931
 21
1631.5036372746561
 31
0.0
1001
AUTOCAD_POSTSCRIPT_FIGURE
1002
{
1000
PSFILL
1000
Grayscale
1000
Grayscale
1070
   100
1002
}
  0
LINE
  5
30F2
  8
YODOROGO
 10
28137.604341291921
 20
1655.5036372746561
 30
0.0
 11
28137.604341291921
 21
1631.5036372746561
 31
0.0
1001
AUTOCAD_POSTSCRIPT_FIGURE
1002
{
1000
PSFILL
1000
Grayscale
1000
Grayscale
1070
   100
1002
}
  0
LINE
  5
30F3
  8
YODOROGO
 10
28098.135520230931
 20
1655.5036372746561
 30
0.0
 11
28137.604341291921
 21
1655.5036372746561
 31
0.0
1001
AUTOCAD_POSTSCRIPT_FIGURE
1002
{
1000
PSFILL
1000
Grayscale
1000
Grayscale
1070
   100
1002
}
  0
LINE
  5
30F4
  8
YODOROGO
 10
28401.60434129191
 20
1667.749496429288
 30
0.0
 11
28345.604341291921
 21
1667.749496429288
 31
0.0
  0
LINE
  5
30F5
  8
YODOROGO
 10
28401.60434129191
 20
1611.749496429288
 30
0.0
 11
28401.60434129191
 21
1667.749496429288
 31
0.0
  0
LINE
  5
30F6
  8
YODOROGO
 10
28345.604341291921
 20
1667.749496429288
 30
0.0
 11
28345.604341291921
 21
1611.749496429288
 31
0.0
  0
ARC
  5
30F7
  8
YODOROGO
 10
28513.60434129191
 20
1507.749496429288
 30
0.0
 40
80.0
 50
180.0
 51
270.0
  0
ARC
  5
30F8
  8
YODOROGO
 10
28537.604341291921
 20
1563.7494964292871
 30
0.0
 40
40.0
 50
180.0
 51
270.0
  0
LINE
  5
30F9
  8
YODOROGO
 10
28561.604341291932
 20
1523.7494964292871
 30
0.0
 11
28537.604341291921
 21
1523.7494964292871
 31
0.0
  0
ARC
  5
30FA
  8
YODOROGO
 10
28561.604341291932
 20
1547.749496429285
 30
0.0
 40
23.999999999996358
 50
270.0
 51
0.0000000000054281
  0
LINE
  5
30FB
  8
YODOROGO
 10
27801.604341291921
 20
1890.786580793706
 30
0.0
 11
27777.604341291921
 21
1843.776747951672
 31
0.0
1001
AUTOCAD_POSTSCRIPT_FIGURE
1002
{
1000
PSFILL
1000
Grayscale
1000
Grayscale
1070
   100
1002
}
  0
LINE
  5
30FC
  8
YODOROGO
 10
27801.604341291921
 20
1747.749496429286
 30
0.0
 11
27801.604341291921
 21
1890.786580793706
 31
0.0
1001
AUTOCAD_POSTSCRIPT_FIGURE
1002
{
1000
PSFILL
1000
Grayscale
1000
Grayscale
1070
   100
1002
}
  0
LINE
  5
30FD
  8
YODOROGO
 10
27817.604341291921
 20
1747.749496429286
 30
0.0
 11
27801.604341291921
 21
1747.749496429286
 31
0.0
1001
AUTOCAD_POSTSCRIPT_FIGURE
1002
{
1000
PSFILL
1000
Grayscale
1000
Grayscale
1070
   100
1002
}
  0
LINE
  5
30FE
  8
YODOROGO
 10
27817.604341291921
 20
1893.7713320852661
 30
0.0
 11
27817.604341291921
 21
1747.749496429286
 31
0.0
1001
AUTOCAD_POSTSCRIPT_FIGURE
1002
{
1000
PSFILL
1000
Grayscale
1000
Grayscale
1070
   100
1002
}
  0
LINE
  5
30FF
  8
YODOROGO
 10
27841.604341291921
 20
1867.6547582841361
 30
0.0
 11
27817.604341291921
 21
1893.7713320852661
 31
0.0
1001
AUTOCAD_POSTSCRIPT_FIGURE
1002
{
1000
PSFILL
1000
Grayscale
1000
Grayscale
1070
   100
1002
}
  0
LINE
  5
3100
  8
YODOROGO
 10
27841.604341291921
 20
1883.6547582841361
 30
0.0
 11
27841.604341291921
 21
1867.6547582841361
 31
0.0
1001
AUTOCAD_POSTSCRIPT_FIGURE
1002
{
1000
PSFILL
1000
Grayscale
1000
Grayscale
1070
   100
1002
}
  0
LINE
  5
3101
  8
YODOROGO
 10
27817.604341291921
 20
1917.7713320852649
 30
0.0
 11
27841.604341291921
 21
1883.6547582841361
 31
0.0
1001
AUTOCAD_POSTSCRIPT_FIGURE
1002
{
1000
PSFILL
1000
Grayscale
1000
Grayscale
1070
   100
1002
}
  0
LINE
  5
3102
  8
YODOROGO
 10
27817.604341291921
 20
1939.749496429288
 30
0.0
 11
27817.604341291921
 21
1917.7713320852649
 31
0.0
1001
AUTOCAD_POSTSCRIPT_FIGURE
1002
{
1000
PSFILL
1000
Grayscale
1000
Grayscale
1070
   100
1002
}
  0
LINE
  5
3103
  8
YODOROGO
 10
27889.604341291921
 20
1939.749496429288
 30
0.0
 11
27817.604341291921
 21
1939.749496429288
 31
0.0
1001
AUTOCAD_POSTSCRIPT_FIGURE
1002
{
1000
PSFILL
1000
Grayscale
1000
Grayscale
1070
   100
1002
}
  0
LINE
  5
3104
  8
YODOROGO
 10
27889.604341291921
 20
1900.5683489363
 30
0.0
 11
27889.604341291921
 21
1939.749496429288
 31
0.0
1001
AUTOCAD_POSTSCRIPT_FIGURE
1002
{
1000
PSFILL
1000
Grayscale
1000
Grayscale
1070
   100
1002
}
  0
LINE
  5
3105
  8
YODOROGO
 10
27857.604341291921
 20
1900.5683489363
 30
0.0
 11
27889.604341291921
 21
1900.5683489363
 31
0.0
1001
AUTOCAD_POSTSCRIPT_FIGURE
1002
{
1000
PSFILL
1000
Grayscale
1000
Grayscale
1070
   100
1002
}
  0
LINE
  5
3106
  8
YODOROGO
 10
27857.604341291921
 20
1884.568348936298
 30
0.0
 11
27857.604341291921
 21
1900.5683489363
 31
0.0
1001
AUTOCAD_POSTSCRIPT_FIGURE
1002
{
1000
PSFILL
1000
Grayscale
1000
Grayscale
1070
   100
1002
}
  0
LINE
  5
3107
  8
YODOROGO
 10
27889.604341291921
 20
1884.568348936298
 30
0.0
 11
27857.604341291921
 21
1884.568348936298
 31
0.0
1001
AUTOCAD_POSTSCRIPT_FIGURE
1002
{
1000
PSFILL
1000
Grayscale
1000
Grayscale
1070
   100
1002
}
  0
LINE
  5
3108
  8
YODOROGO
 10
27889.604341291921
 20
1879.6191779644371
 30
0.0
 11
27889.604341291921
 21
1884.568348936298
 31
0.0
1001
AUTOCAD_POSTSCRIPT_FIGURE
1002
{
1000
PSFILL
1000
Grayscale
1000
Grayscale
1070
   100
1002
}
  0
LINE
  5
3109
  8
YODOROGO
 10
27849.604341291921
 20
1812.974981161417
 30
0.0
 11
27889.604341291921
 21
1879.6191779644371
 31
0.0
1001
AUTOCAD_POSTSCRIPT_FIGURE
1002
{
1000
PSFILL
1000
Grayscale
1000
Grayscale
1070
   100
1002
}
  0
LINE
  5
310A
  8
YODOROGO
 10
27849.604341291921
 20
1796.9749811614161
 30
0.0
 11
27849.604341291921
 21
1812.974981161417
 31
0.0
1001
AUTOCAD_POSTSCRIPT_FIGURE
1002
{
1000
PSFILL
1000
Grayscale
1000
Grayscale
1070
   100
1002
}
  0
LINE
  5
310B
  8
YODOROGO
 10
27889.604341291921
 20
1847.6191779644359
 30
0.0
 11
27849.604341291921
 21
1796.9749811614161
 31
0.0
1001
AUTOCAD_POSTSCRIPT_FIGURE
1002
{
1000
PSFILL
1000
Grayscale
1000
Grayscale
1070
   100
1002
}
  0
LINE
  5
310C
  8
YODOROGO
 10
27889.604341291921
 20
1747.749496429286
 30
0.0
 11
27889.604341291921
 21
1847.6191779644359
 31
0.0
1001
AUTOCAD_POSTSCRIPT_FIGURE
1002
{
1000
PSFILL
1000
Grayscale
1000
Grayscale
1070
   100
1002
}
  0
LINE
  5
310D
  8
YODOROGO
 10
27905.604341291921
 20
1747.749496429286
 30
0.0
 11
27889.604341291921
 21
1747.749496429286
 31
0.0
1001
AUTOCAD_POSTSCRIPT_FIGURE
1002
{
1000
PSFILL
1000
Grayscale
1000
Grayscale
1070
   100
1002
}
  0
LINE
  5
310E
  8
YODOROGO
 10
27905.604341291921
 20
1849.409012158806
 30
0.0
 11
27905.604341291921
 21
1747.749496429286
 31
0.0
1001
AUTOCAD_POSTSCRIPT_FIGURE
1002
{
1000
PSFILL
1000
Grayscale
1000
Grayscale
1070
   100
1002
}
  0
LINE
  5
310F
  8
YODOROGO
 10
27937.604341291921
 20
1796.9749811614161
 30
0.0
 11
27905.604341291921
 21
1849.409012158806
 31
0.0
1001
AUTOCAD_POSTSCRIPT_FIGURE
1002
{
1000
PSFILL
1000
Grayscale
1000
Grayscale
1070
   100
1002
}
  0
LINE
  5
3110
  8
YODOROGO
 10
27937.604341291921
 20
1812.974981161417
 30
0.0
 11
27937.604341291921
 21
1796.9749811614161
 31
0.0
1001
AUTOCAD_POSTSCRIPT_FIGURE
1002
{
1000
PSFILL
1000
Grayscale
1000
Grayscale
1070
   100
1002
}
  0
LINE
  5
3111
  8
YODOROGO
 10
27905.604341291921
 20
1881.4090121588081
 30
0.0
 11
27937.604341291921
 21
1812.974981161417
 31
0.0
1001
AUTOCAD_POSTSCRIPT_FIGURE
1002
{
1000
PSFILL
1000
Grayscale
1000
Grayscale
1070
   100
1002
}
  0
LINE
  5
3112
  8
YODOROGO
 10
27905.604341291921
 20
1884.5683489363
 30
0.0
 11
27905.604341291921
 21
1881.4090121588081
 31
0.0
1001
AUTOCAD_POSTSCRIPT_FIGURE
1002
{
1000
PSFILL
1000
Grayscale
1000
Grayscale
1070
   100
1002
}
  0
LINE
  5
3113
  8
YODOROGO
 10
27937.604341291921
 20
1884.568348936298
 30
0.0
 11
27905.604341291921
 21
1884.5683489363
 31
0.0
1001
AUTOCAD_POSTSCRIPT_FIGURE
1002
{
1000
PSFILL
1000
Grayscale
1000
Grayscale
1070
   100
1002
}
  0
LINE
  5
3114
  8
YODOROGO
 10
27937.604341291921
 20
1900.5683489363
 30
0.0
 11
27937.604341291921
 21
1884.568348936298
 31
0.0
1001
AUTOCAD_POSTSCRIPT_FIGURE
1002
{
1000
PSFILL
1000
Grayscale
1000
Grayscale
1070
   100
1002
}
  0
LINE
  5
3115
  8
YODOROGO
 10
27905.604341291921
 20
1900.5683489363
 30
0.0
 11
27937.604341291921
 21
1900.5683489363
 31
0.0
1001
AUTOCAD_POSTSCRIPT_FIGURE
1002
{
1000
PSFILL
1000
Grayscale
1000
Grayscale
1070
   100
1002
}
  0
LINE
  5
3116
  8
YODOROGO
 10
27905.604341291921
 20
1939.749496429288
 30
0.0
 11
27905.604341291921
 21
1900.5683489363
 31
0.0
1001
AUTOCAD_POSTSCRIPT_FIGURE
1002
{
1000
PSFILL
1000
Grayscale
1000
Grayscale
1070
   100
1002
}
  0
LINE
  5
3117
  8
YODOROGO
 10
27937.604341291921
 20
1939.749496429288
 30
0.0
 11
27905.604341291921
 21
1939.749496429288
 31
0.0
1001
AUTOCAD_POSTSCRIPT_FIGURE
1002
{
1000
PSFILL
1000
Grayscale
1000
Grayscale
1070
   100
1002
}
  0
LINE
  5
3118
  8
YODOROGO
 10
27937.604341291921
 20
1955.7494964292871
 30
0.0
 11
27937.604341291921
 21
1939.749496429288
 31
0.0
1001
AUTOCAD_POSTSCRIPT_FIGURE
1002
{
1000
PSFILL
1000
Grayscale
1000
Grayscale
1070
   100
1002
}
  0
LINE
  5
3119
  8
YODOROGO
 10
27905.604341291921
 20
1955.7494964292871
 30
0.0
 11
27937.604341291921
 21
1955.7494964292871
 31
0.0
1001
AUTOCAD_POSTSCRIPT_FIGURE
1002
{
1000
PSFILL
1000
Grayscale
1000
Grayscale
1070
   100
1002
}
  0
LINE
  5
311A
  8
YODOROGO
 10
27905.604341291921
 20
1979.749496429288
 30
0.0
 11
27905.604341291921
 21
1955.7494964292871
 31
0.0
1001
AUTOCAD_POSTSCRIPT_FIGURE
1002
{
1000
PSFILL
1000
Grayscale
1000
Grayscale
1070
   100
1002
}
  0
LINE
  5
311B
  8
YODOROGO
 10
27889.604341291921
 20
1979.749496429288
 30
0.0
 11
27905.604341291921
 21
1979.749496429288
 31
0.0
1001
AUTOCAD_POSTSCRIPT_FIGURE
1002
{
1000
PSFILL
1000
Grayscale
1000
Grayscale
1070
   100
1002
}
  0
LINE
  5
311C
  8
YODOROGO
 10
27889.604341291921
 20
1955.7494964292871
 30
0.0
 11
27889.604341291921
 21
1979.749496429288
 31
0.0
1001
AUTOCAD_POSTSCRIPT_FIGURE
1002
{
1000
PSFILL
1000
Grayscale
1000
Grayscale
1070
   100
1002
}
  0
LINE
  5
311D
  8
YODOROGO
 10
27865.604341291921
 20
1955.7494964292871
 30
0.0
 11
27889.604341291921
 21
1955.7494964292871
 31
0.0
1001
AUTOCAD_POSTSCRIPT_FIGURE
1002
{
1000
PSFILL
1000
Grayscale
1000
Grayscale
1070
   100
1002
}
  0
LINE
  5
311E
  8
YODOROGO
 10
27865.604341291921
 20
1979.749496429288
 30
0.0
 11
27865.604341291921
 21
1955.7494964292871
 31
0.0
1001
AUTOCAD_POSTSCRIPT_FIGURE
1002
{
1000
PSFILL
1000
Grayscale
1000
Grayscale
1070
   100
1002
}
  0
LINE
  5
311F
  8
YODOROGO
 10
27849.604341291921
 20
1979.749496429288
 30
0.0
 11
27865.604341291921
 21
1979.749496429288
 31
0.0
1001
AUTOCAD_POSTSCRIPT_FIGURE
1002
{
1000
PSFILL
1000
Grayscale
1000
Grayscale
1070
   100
1002
}
  0
LINE
  5
3120
  8
YODOROGO
 10
27849.604341291921
 20
1955.7494964292871
 30
0.0
 11
27849.604341291921
 21
1979.749496429288
 31
0.0
1001
AUTOCAD_POSTSCRIPT_FIGURE
1002
{
1000
PSFILL
1000
Grayscale
1000
Grayscale
1070
   100
1002
}
  0
LINE
  5
3121
  8
YODOROGO
 10
27817.604341291921
 20
1955.7494964292871
 30
0.0
 11
27849.604341291921
 21
1955.7494964292871
 31
0.0
1001
AUTOCAD_POSTSCRIPT_FIGURE
1002
{
1000
PSFILL
1000
Grayscale
1000
Grayscale
1070
   100
1002
}
  0
LINE
  5
3122
  8
YODOROGO
 10
27817.604341291921
 20
1979.749496429288
 30
0.0
 11
27817.604341291921
 21
1955.7494964292871
 31
0.0
1001
AUTOCAD_POSTSCRIPT_FIGURE
1002
{
1000
PSFILL
1000
Grayscale
1000
Grayscale
1070
   100
1002
}
  0
LINE
  5
3123
  8
YODOROGO
 10
27801.604341291921
 20
1979.749496429288
 30
0.0
 11
27817.604341291921
 21
1979.749496429288
 31
0.0
1001
AUTOCAD_POSTSCRIPT_FIGURE
1002
{
1000
PSFILL
1000
Grayscale
1000
Grayscale
1070
   100
1002
}
  0
LINE
  5
3124
  8
YODOROGO
 10
27801.604341291921
 20
1955.7494964292871
 30
0.0
 11
27801.604341291921
 21
1979.749496429288
 31
0.0
1001
AUTOCAD_POSTSCRIPT_FIGURE
1002
{
1000
PSFILL
1000
Grayscale
1000
Grayscale
1070
   100
1002
}
  0
LINE
  5
3125
  8
YODOROGO
 10
27777.604341291921
 20
1955.7494964292871
 30
0.0
 11
27801.604341291921
 21
1955.7494964292871
 31
0.0
1001
AUTOCAD_POSTSCRIPT_FIGURE
1002
{
1000
PSFILL
1000
Grayscale
1000
Grayscale
1070
   100
1002
}
  0
LINE
  5
3126
  8
YODOROGO
 10
27777.604341291921
 20
1939.749496429288
 30
0.0
 11
27777.604341291921
 21
1955.7494964292871
 31
0.0
1001
AUTOCAD_POSTSCRIPT_FIGURE
1002
{
1000
PSFILL
1000
Grayscale
1000
Grayscale
1070
   100
1002
}
  0
LINE
  5
3127
  8
YODOROGO
 10
27801.604341291921
 20
1939.749496429288
 30
0.0
 11
27777.604341291921
 21
1939.749496429288
 31
0.0
1001
AUTOCAD_POSTSCRIPT_FIGURE
1002
{
1000
PSFILL
1000
Grayscale
1000
Grayscale
1070
   100
1002
}
  0
LINE
  5
3128
  8
YODOROGO
 10
27801.604341291921
 20
1914.7865807937051
 30
0.0
 11
27801.604341291921
 21
1939.749496429288
 31
0.0
1001
AUTOCAD_POSTSCRIPT_FIGURE
1002
{
1000
PSFILL
1000
Grayscale
1000
Grayscale
1070
   100
1002
}
  0
LINE
  5
3129
  8
YODOROGO
 10
27777.604341291921
 20
1859.776747951671
 30
0.0
 11
27801.604341291921
 21
1914.7865807937051
 31
0.0
1001
AUTOCAD_POSTSCRIPT_FIGURE
1002
{
1000
PSFILL
1000
Grayscale
1000
Grayscale
1070
   100
1002
}
  0
LINE
  5
312A
  8
YODOROGO
 10
27777.604341291921
 20
1843.776747951672
 30
0.0
 11
27777.604341291921
 21
1859.776747951671
 31
0.0
1001
AUTOCAD_POSTSCRIPT_FIGURE
1002
{
1000
PSFILL
1000
Grayscale
1000
Grayscale
1070
   100
1002
}
  0
LINE
  5
312B
  8
YODOROGO
 10
28257.604341291921
 20
1867.7494964292871
 30
0.0
 11
28401.60434129191
 21
1824.877625640306
 31
0.0
1001
AUTOCAD_POSTSCRIPT_FIGURE
1002
{
1000
PSFILL
1000
Grayscale
1000
Grayscale
1070
   100
1002
}
  0
LINE
  5
312C
  8
YODOROGO
 10
28401.60434129191
 20
1752.877625640306
 30
0.0
 11
28257.604341291921
 21
1795.7494964292871
 31
0.0
1001
AUTOCAD_POSTSCRIPT_FIGURE
1002
{
1000
PSFILL
1000
Grayscale
1000
Grayscale
1070
   100
1002
}
  0
LINE
  5
312D
  8
YODOROGO
 10
28401.60434129191
 20
1984.877625640306
 30
0.0
 11
28257.604341291921
 21
2027.749496429288
 31
0.0
1001
AUTOCAD_POSTSCRIPT_FIGURE
1002
{
1000
PSFILL
1000
Grayscale
1000
Grayscale
1070
   100
1002
}
  0
LINE
  5
312E
  8
YODOROGO
 10
28257.604341291921
 20
1959.749496429288
 30
0.0
 11
28401.60434129191
 21
1916.8776256403071
 31
0.0
1001
AUTOCAD_POSTSCRIPT_FIGURE
1002
{
1000
PSFILL
1000
Grayscale
1000
Grayscale
1070
   100
1002
}
  0
LINE
  5
312F
  8
YODOROGO
 10
28257.604341291921
 20
1795.7494964292871
 30
0.0
 11
28257.604341291921
 21
1867.7494964292871
 31
0.0
1001
AUTOCAD_POSTSCRIPT_FIGURE
1002
{
1000
PSFILL
1000
Grayscale
1000
Grayscale
1070
   100
1002
}
  0
LINE
  5
3130
  8
YODOROGO
 10
28257.604341291921
 20
2027.749496429288
 30
0.0
 11
28257.604341291921
 21
1959.749496429288
 31
0.0
1001
AUTOCAD_POSTSCRIPT_FIGURE
1002
{
1000
PSFILL
1000
Grayscale
1000
Grayscale
1070
   100
1002
}
  0
LINE
  5
3131
  8
YODOROGO
 10
28080.236320206739
 20
1939.749496429288
 30
0.0
 11
28129.60434129191
 21
1747.749496429286
 31
0.0
1001
AUTOCAD_POSTSCRIPT_FIGURE
1002
{
1000
PSFILL
1000
Grayscale
1000
Grayscale
1070
   100
1002
}
  0
LINE
  5
3132
  8
YODOROGO
 10
27977.604341291921
 20
1939.749496429288
 30
0.0
 11
28080.236320206739
 21
1939.749496429288
 31
0.0
1001
AUTOCAD_POSTSCRIPT_FIGURE
1002
{
1000
PSFILL
1000
Grayscale
1000
Grayscale
1070
   100
1002
}
  0
LINE
  5
3133
  8
YODOROGO
 10
27977.604341291921
 20
1955.7494964292871
 30
0.0
 11
27977.604341291921
 21
1939.749496429288
 31
0.0
1001
AUTOCAD_POSTSCRIPT_FIGURE
1002
{
1000
PSFILL
1000
Grayscale
1000
Grayscale
1070
   100
1002
}
  0
LINE
  5
3134
  8
YODOROGO
 10
28076.60687851991
 20
1955.7494964292871
 30
0.0
 11
27977.604341291921
 21
1955.7494964292871
 31
0.0
1001
AUTOCAD_POSTSCRIPT_FIGURE
1002
{
1000
PSFILL
1000
Grayscale
1000
Grayscale
1070
   100
1002
}
  0
LINE
  5
3135
  8
YODOROGO
 10
28071.162715989711
 20
1979.749496429288
 30
0.0
 11
28076.60687851991
 21
1955.7494964292871
 31
0.0
1001
AUTOCAD_POSTSCRIPT_FIGURE
1002
{
1000
PSFILL
1000
Grayscale
1000
Grayscale
1070
   100
1002
}
  0
LINE
  5
3136
  8
YODOROGO
 10
28091.162715989711
 20
1979.749496429288
 30
0.0
 11
28071.162715989711
 21
1979.749496429288
 31
0.0
1001
AUTOCAD_POSTSCRIPT_FIGURE
1002
{
1000
PSFILL
1000
Grayscale
1000
Grayscale
1070
   100
1002
}
  0
LINE
  5
3137
  8
YODOROGO
 10
28095.806878519939
 20
1955.7494964292871
 30
0.0
 11
28091.162715989711
 21
1979.749496429288
 31
0.0
1001
AUTOCAD_POSTSCRIPT_FIGURE
1002
{
1000
PSFILL
1000
Grayscale
1000
Grayscale
1070
   100
1002
}
  0
LINE
  5
3138
  8
YODOROGO
 10
28121.604341291921
 20
1955.7494964292871
 30
0.0
 11
28095.806878519939
 21
1955.7494964292871
 31
0.0
1001
AUTOCAD_POSTSCRIPT_FIGURE
1002
{
1000
PSFILL
1000
Grayscale
1000
Grayscale
1070
   100
1002
}
  0
LINE
  5
3139
  8
YODOROGO
 10
28121.604341291921
 20
1979.749496429288
 30
0.0
 11
28121.604341291921
 21
1955.7494964292871
 31
0.0
1001
AUTOCAD_POSTSCRIPT_FIGURE
1002
{
1000
PSFILL
1000
Grayscale
1000
Grayscale
1070
   100
1002
}
  0
LINE
  5
313A
  8
YODOROGO
 10
28137.604341291921
 20
1979.749496429288
 30
0.0
 11
28121.604341291921
 21
1979.749496429288
 31
0.0
1001
AUTOCAD_POSTSCRIPT_FIGURE
1002
{
1000
PSFILL
1000
Grayscale
1000
Grayscale
1070
   100
1002
}
  0
LINE
  5
313B
  8
YODOROGO
 10
28137.604341291921
 20
1955.7494964292871
 30
0.0
 11
28137.604341291921
 21
1979.749496429288
 31
0.0
1001
AUTOCAD_POSTSCRIPT_FIGURE
1002
{
1000
PSFILL
1000
Grayscale
1000
Grayscale
1070
   100
1002
}
  0
LINE
  5
313C
  8
YODOROGO
 10
28137.604341291921
 20
1939.749496429288
 30
0.0
 11
28137.604341291921
 21
1955.7494964292871
 31
0.0
1001
AUTOCAD_POSTSCRIPT_FIGURE
1002
{
1000
PSFILL
1000
Grayscale
1000
Grayscale
1070
   100
1002
}
  0
LINE
  5
313D
  8
YODOROGO
 10
28098.902986873411
 20
1939.749496429288
 30
0.0
 11
28137.604341291921
 21
1939.749496429288
 31
0.0
1001
AUTOCAD_POSTSCRIPT_FIGURE
1002
{
1000
PSFILL
1000
Grayscale
1000
Grayscale
1070
   100
1002
}
  0
LINE
  5
313E
  8
YODOROGO
 10
28137.604341291921
 20
1747.749496429286
 30
0.0
 11
28098.902986873411
 21
1939.749496429288
 31
0.0
1001
AUTOCAD_POSTSCRIPT_FIGURE
1002
{
1000
PSFILL
1000
Grayscale
1000
Grayscale
1070
   100
1002
}
  0
LINE
  5
313F
  8
YODOROGO
 10
28129.60434129191
 20
1747.749496429286
 30
0.0
 11
28137.604341291921
 21
1747.749496429286
 31
0.0
1001
AUTOCAD_POSTSCRIPT_FIGURE
1002
{
1000
PSFILL
1000
Grayscale
1000
Grayscale
1070
   100
1002
}
  0
LINE
  5
3140
  8
YODOROGO
 10
28078.06921993379
 20
1775.7407762987939
 30
0.0
 11
27977.604341291921
 21
1747.749496429286
 31
0.0
  0
LINE
  5
3141
  8
YODOROGO
 10
28078.06921993379
 20
1798.6689795290731
 30
0.0
 11
28078.06921993379
 21
1775.7407762987939
 31
0.0
  0
LINE
  5
3142
  8
YODOROGO
 10
28033.83678061287
 20
1786.816933133767
 30
0.0
 11
28078.06921993379
 21
1798.6689795290731
 31
0.0
  0
LINE
  5
3143
  8
YODOROGO
 10
28033.83678061287
 20
1872.5683489362989
 30
0.0
 11
28033.83678061287
 21
1786.816933133767
 31
0.0
  0
LINE
  5
3144
  8
YODOROGO
 10
28078.06921993379
 20
1872.5683489362989
 30
0.0
 11
28033.83678061287
 21
1872.5683489362989
 31
0.0
  0
LINE
  5
3145
  8
YODOROGO
 10
28078.06921993379
 20
1892.568348936298
 30
0.0
 11
28078.06921993379
 21
1872.5683489362989
 31
0.0
  0
LINE
  5
3146
  8
YODOROGO
 10
27977.604341291921
 20
1892.568348936298
 30
0.0
 11
28078.06921993379
 21
1892.568348936298
 31
0.0
  0
LINE
  5
3147
  8
YODOROGO
 10
27977.604341291921
 20
1872.5683489362989
 30
0.0
 11
27977.604341291921
 21
1892.568348936298
 31
0.0
  0
LINE
  5
3148
  8
YODOROGO
 10
28021.836780612852
 20
1872.5683489362989
 30
0.0
 11
27977.604341291921
 21
1872.5683489362989
 31
0.0
  0
LINE
  5
3149
  8
YODOROGO
 10
28021.836780612852
 20
1784.673339594317
 30
0.0
 11
28021.836780612852
 21
1872.5683489362989
 31
0.0
  0
LINE
  5
314A
  8
YODOROGO
 10
27977.604341291921
 20
1771.749496429286
 30
0.0
 11
28021.836780612852
 21
1784.673339594317
 31
0.0
  0
LINE
  5
314B
  8
YODOROGO
 10
27977.604341291921
 20
1747.749496429286
 30
0.0
 11
27977.604341291921
 21
1771.749496429286
 31
0.0
  0
LINE
  5
314C
  8
YODOROGO
 10
28001.604341291921
 20
1707.749496429288
 30
0.0
 11
28001.604341291921
 21
1683.7494964292871
 31
0.0
  0
LINE
  5
314D
  8
YODOROGO
 10
28017.604341291921
 20
1707.749496429288
 30
0.0
 11
28001.604341291921
 21
1707.749496429288
 31
0.0
  0
LINE
  5
314E
  8
YODOROGO
 10
28017.604341291921
 20
1683.7494964292871
 30
0.0
 11
28017.604341291921
 21
1707.749496429288
 31
0.0
  0
LINE
  5
314F
  8
YODOROGO
 10
28040.913204016892
 20
1683.7494964292871
 30
0.0
 11
28017.604341291921
 21
1683.7494964292871
 31
0.0
  0
LINE
  5
3150
  8
YODOROGO
 10
28001.604341291921
 20
1683.7494964292871
 30
0.0
 11
27977.604341291921
 21
1683.7494964292871
 31
0.0
  0
LINE
  5
3151
  8
YODOROGO
 10
28082.135520230921
 20
1707.749496429288
 30
0.0
 11
28098.135520230931
 21
1707.749496429288
 31
0.0
1001
AUTOCAD_POSTSCRIPT_FIGURE
1002
{
1000
PSFILL
1000
Grayscale
1000
Grayscale
1070
   100
1002
}
  0
LINE
  5
3152
  8
YODOROGO
 10
28401.60434129191
 20
1824.877625640306
 30
0.0
 11
28401.60434129191
 21
1752.877625640306
 31
0.0
1001
AUTOCAD_POSTSCRIPT_FIGURE
1002
{
1000
PSFILL
1000
Grayscale
1000
Grayscale
1070
   100
1002
}
  0
LINE
  5
3153
  8
YODOROGO
 10
28401.60434129191
 20
1916.8776256403071
 30
0.0
 11
28401.60434129191
 21
1984.877625640306
 31
0.0
1001
AUTOCAD_POSTSCRIPT_FIGURE
1002
{
1000
PSFILL
1000
Grayscale
1000
Grayscale
1070
   100
1002
}
  0
LINE
  5
3154
  8
YODOROGO
 10
28433.60434129191
 20
1819.7494964292871
 30
0.0
 11
28433.60434129191
 21
1747.74949642929
 31
0.0
  0
LINE
  5
3155
  8
YODOROGO
 10
28497.60434129191
 20
1707.749496429288
 30
0.0
 11
28433.60434129191
 21
1707.749496429288
 31
0.0
  0
LINE
  5
3156
  8
YODOROGO
 10
28433.60434129191
 20
1747.74949642929
 30
0.0
 11
28585.604341291921
 21
1747.74949642929
 31
0.0
  0
LINE
  5
3157
  8
YODOROGO
 10
28497.60434129191
 20
1867.7494964292871
 30
0.0
 11
28433.60434129191
 21
1867.7494964292871
 31
0.0
  0
LINE
  5
3158
  8
YODOROGO
 10
28497.60434129191
 20
1923.7494964292871
 30
0.0
 11
28497.60434129191
 21
1867.7494964292871
 31
0.0
  0
LINE
  5
3159
  8
YODOROGO
 10
28585.604341291921
 20
1987.7494964292871
 30
0.0
 11
28585.604341291921
 21
2027.749496429288
 31
0.0
  0
LINE
  5
315A
  8
YODOROGO
 10
28433.60434129191
 20
1987.7494964292871
 30
0.0
 11
28585.604341291921
 21
1987.7494964292871
 31
0.0
  0
LINE
  5
315B
  8
YODOROGO
 10
28433.60434129191
 20
1867.7494964292871
 30
0.0
 11
28433.60434129191
 21
1987.7494964292871
 31
0.0
  0
LINE
  5
315C
  8
YODOROGO
 10
29001.60434129191
 20
2027.749496429288
 30
0.0
 11
29001.60434129191
 21
1619.749496429288
 31
0.0
  0
LINE
  5
315D
  8
YODOROGO
 10
29073.604341291921
 20
1579.749496429288
 30
0.0
 11
29073.604341291921
 21
2027.749496429288
 31
0.0
  0
LINE
  5
315E
  8
YODOROGO
 10
29261.604341291921
 20
1491.749496429286
 30
0.0
 11
29261.604341291921
 21
2007.749496429288
 31
0.0
  0
LINE
  5
315F
  8
YODOROGO
 10
29197.604341291921
 20
2007.749496429288
 30
0.0
 11
29197.604341291921
 21
1491.749496429286
 31
0.0
  0
LINE
  5
3160
  8
YODOROGO
 10
29385.604341291921
 20
2027.749496429288
 30
0.0
 11
29385.604341291921
 21
1427.749496429288
 31
0.0
  0
LINE
  5
3161
  8
YODOROGO
 10
29457.604341291921
 20
1427.749496429288
 30
0.0
 11
29457.604341291921
 21
2027.749496429288
 31
0.0
  0
LINE
  5
3162
  8
YODOROGO
 10
28657.604341291921
 20
1667.749496429288
 30
0.0
 11
28657.604341291921
 21
1747.74949642929
 31
0.0
  0
LINE
  5
3163
  8
YODOROGO
 10
29885.604341291921
 20
1707.749496429288
 30
0.0
 11
29885.604341291921
 21
1667.749496429288
 31
0.0
  0
LINE
  5
3164
  8
YODOROGO
 10
29885.604341291921
 20
1707.749496429288
 30
0.0
 11
29885.604341291921
 21
1667.749496429288
 31
0.0
  0
ARC
  5
3165
  8
YODOROGO
 10
28906.911576186842
 20
1618.217864442272
 30
0.0
 40
94.705151178741644
 50
274.05244162907098
 51
0.9266642149310712
  0
ARC
  5
3166
  8
YODOROGO
 10
28909.186170719819
 20
1592.61072861044
 30
0.0
 40
164.92042356085511
 50
271.5351210653775
 51
355.52727750585052
  0
LINE
  5
3167
  8
YODOROGO
 10
28913.604341291921
 20
1523.7494964292871
 30
0.0
 11
28913.604341291921
 21
1427.749496429288
 31
0.0
  0
LINE
  5
3168
  8
YODOROGO
 10
28793.60434129191
 20
1667.749496429288
 30
0.0
 11
28657.604341291921
 21
1667.749496429288
 31
0.0
  0
LINE
  5
3169
  8
YODOROGO
 10
28793.60434129191
 20
1603.7494964292871
 30
0.0
 11
28793.60434129191
 21
1667.749496429288
 31
0.0
  0
LINE
  5
316A
  8
YODOROGO
 10
28657.604341291921
 20
1603.7494964292871
 30
0.0
 11
28793.60434129191
 21
1603.7494964292871
 31
0.0
  0
LINE
  5
316B
  8
YODOROGO
 10
28657.604341291921
 20
1523.7494964292871
 30
0.0
 11
28657.604341291921
 21
1603.7494964292871
 31
0.0
  0
LINE
  5
316C
  8
YODOROGO
 10
28793.60434129191
 20
1523.7494964292871
 30
0.0
 11
28657.604341291921
 21
1523.7494964292871
 31
0.0
  0
LINE
  5
316D
  8
YODOROGO
 10
28793.60434129191
 20
1427.749496429288
 30
0.0
 11
28793.60434129191
 21
1523.7494964292871
 31
0.0
  0
LINE
  5
316E
  8
YODOROGO
 10
29197.604341291921
 20
1491.749496429286
 30
0.0
 11
29261.604341291921
 21
1491.749496429286
 31
0.0
  0
LINE
  5
316F
  8
YODOROGO
 10
29385.604341291921
 20
1427.749496429288
 30
0.0
 11
29457.604341291921
 21
1427.749496429288
 31
0.0
  0
LINE
  5
3170
  8
YODOROGO
 10
29737.604341291921
 20
1528.4414521705639
 30
0.0
 11
29737.604341291921
 21
1427.749496429288
 31
0.0
  0
LINE
  5
3171
  8
YODOROGO
 10
29617.604341291921
 20
1427.749496429288
 30
0.0
 11
29737.604341291921
 21
1528.4414521705639
 31
0.0
  0
LINE
  5
3172
  8
YODOROGO
 10
29617.604341291921
 20
1547.749496429288
 30
0.0
 11
29617.604341291921
 21
1427.749496429288
 31
0.0
  0
LINE
  5
3173
  8
YODOROGO
 10
29712.94462869945
 20
1627.749496429288
 30
0.0
 11
29617.604341291921
 21
1547.749496429288
 31
0.0
  0
LINE
  5
3174
  8
YODOROGO
 10
29617.604341291921
 20
1627.749496429288
 30
0.0
 11
29712.94462869945
 21
1627.749496429288
 31
0.0
  0
LINE
  5
3175
  8
YODOROGO
 10
29617.604341291921
 20
1667.749496429288
 30
0.0
 11
29617.604341291921
 21
1627.749496429288
 31
0.0
  0
LINE
  5
3176
  8
YODOROGO
 10
29885.604341291921
 20
1667.749496429288
 30
0.0
 11
29617.604341291921
 21
1667.749496429288
 31
0.0
  0
LINE
  5
3177
  8
YODOROGO
 10
29917.604341291921
 20
1627.749496429288
 30
0.0
 11
29777.604341291921
 21
1627.749496429288
 31
0.0
  0
LINE
  5
3178
  8
YODOROGO
 10
29777.604341291921
 20
1562.0054374176559
 30
0.0
 11
29771.409872985321
 21
1556.807661346234
 31
0.0
  0
LINE
  5
3179
  8
YODOROGO
 10
29777.604341291921
 20
1627.749496429288
 30
0.0
 11
29777.604341291921
 21
1562.0054374176559
 31
0.0
  0
LINE
  5
317A
  8
YODOROGO
 10
29737.604341291921
 20
1528.4414521705639
 30
0.0
 11
29737.604341291921
 21
1427.749496429288
 31
0.0
  0
LINE
  5
317B
  8
YODOROGO
 10
29617.604341291921
 20
1427.749496429288
 30
0.0
 11
29737.604341291921
 21
1528.4414521705639
 31
0.0
  0
LINE
  5
317C
  8
YODOROGO
 10
29617.604341291921
 20
1547.749496429288
 30
0.0
 11
29617.604341291921
 21
1427.749496429288
 31
0.0
  0
LINE
  5
317D
  8
YODOROGO
 10
29712.94462869945
 20
1627.749496429288
 30
0.0
 11
29617.604341291921
 21
1547.749496429288
 31
0.0
  0
LINE
  5
317E
  8
YODOROGO
 10
29617.604341291921
 20
1627.749496429288
 30
0.0
 11
29712.94462869945
 21
1627.749496429288
 31
0.0
  0
LINE
  5
317F
  8
YODOROGO
 10
29617.604341291921
 20
1667.749496429288
 30
0.0
 11
29617.604341291921
 21
1627.749496429288
 31
0.0
  0
LINE
  5
3180
  8
YODOROGO
 10
29885.604341291921
 20
1667.749496429288
 30
0.0
 11
29617.604341291921
 21
1667.749496429288
 31
0.0
  0
LINE
  5
3181
  8
YODOROGO
 10
28793.60434129191
 20
1747.74949642929
 30
0.0
 11
28793.60434129191
 21
1819.7494964292871
 31
0.0
  0
LINE
  5
3182
  8
YODOROGO
 10
28657.604341291921
 20
1747.74949642929
 30
0.0
 11
28793.60434129191
 21
1747.74949642929
 31
0.0
  0
LINE
  5
3183
  8
YODOROGO
 10
28729.604341291921
 20
1867.7494964292871
 30
0.0
 11
28729.604341291921
 21
1923.7494964292871
 31
0.0
  0
LINE
  5
3184
  8
YODOROGO
 10
28793.60434129191
 20
1867.7494964292871
 30
0.0
 11
28729.604341291921
 21
1867.7494964292871
 31
0.0
  0
LINE
  5
3185
  8
YODOROGO
 10
28793.60434129191
 20
1947.749496429288
 30
0.0
 11
28793.60434129191
 21
1867.7494964292871
 31
0.0
  0
ARC
  5
3186
  8
YODOROGO
 10
28753.60434129191
 20
1947.749496429288
 30
0.0
 40
40.0
 50
0.0
 51
90.0
  0
LINE
  5
3187
  8
YODOROGO
 10
28657.604341291921
 20
1987.7494964292871
 30
0.0
 11
28753.60434129191
 21
1987.7494964292871
 31
0.0
  0
LINE
  5
3188
  8
YODOROGO
 10
28657.604341291921
 20
2027.749496429288
 30
0.0
 11
28657.604341291921
 21
1987.7494964292871
 31
0.0
  0
LINE
  5
3189
  8
YODOROGO
 10
29073.604341291921
 20
2027.749496429288
 30
0.0
 11
29001.60434129191
 21
2027.749496429288
 31
0.0
  0
LINE
  5
318A
  8
YODOROGO
 10
29261.604341291921
 20
2007.749496429288
 30
0.0
 11
29197.604341291921
 21
2007.749496429288
 31
0.0
  0
LINE
  5
318B
  8
YODOROGO
 10
29457.604341291921
 20
2027.749496429288
 30
0.0
 11
29385.604341291921
 21
2027.749496429288
 31
0.0
  0
LINE
  5
318C
  8
YODOROGO
 10
29673.604341291921
 20
1707.749496429288
 30
0.0
 11
29673.604341291921
 21
1771.7494964292871
 31
0.0
1001
AUTOCAD_POSTSCRIPT_FIGURE
1002
{
1000
PSFILL
1000
Grayscale
1000
Grayscale
1070
    25
1002
}
  0
LINE
  5
318D
  8
YODOROGO
 10
29617.604341291921
 20
1707.749496429288
 30
0.0
 11
29673.604341291921
 21
1707.749496429288
 31
0.0
1001
AUTOCAD_POSTSCRIPT_FIGURE
1002
{
1000
PSFILL
1000
Grayscale
1000
Grayscale
1070
    25
1002
}
  0
LINE
  5
318E
  8
YODOROGO
 10
29617.604341291921
 20
1819.7494964292871
 30
0.0
 11
29617.604341291921
 21
1707.749496429288
 31
0.0
1001
AUTOCAD_POSTSCRIPT_FIGURE
1002
{
1000
PSFILL
1000
Grayscale
1000
Grayscale
1070
    25
1002
}
  0
LINE
  5
318F
  8
YODOROGO
 10
29765.604341291921
 20
1819.7494964292871
 30
0.0
 11
29617.604341291921
 21
1819.7494964292871
 31
0.0
1001
AUTOCAD_POSTSCRIPT_FIGURE
1002
{
1000
PSFILL
1000
Grayscale
1000
Grayscale
1070
    25
1002
}
  0
LINE
  5
3190
  8
YODOROGO
 10
29765.604341291921
 20
1859.749496429288
 30
0.0
 11
29765.604341291921
 21
1819.7494964292871
 31
0.0
1001
AUTOCAD_POSTSCRIPT_FIGURE
1002
{
1000
PSFILL
1000
Grayscale
1000
Grayscale
1070
    25
1002
}
  0
LINE
  5
3191
  8
YODOROGO
 10
29617.604341291921
 20
1859.749496429288
 30
0.0
 11
29765.604341291921
 21
1859.749496429288
 31
0.0
1001
AUTOCAD_POSTSCRIPT_FIGURE
1002
{
1000
PSFILL
1000
Grayscale
1000
Grayscale
1070
    25
1002
}
  0
LINE
  5
3192
  8
YODOROGO
 10
29617.604341291921
 20
1907.7494964292871
 30
0.0
 11
29617.604341291921
 21
1859.749496429288
 31
0.0
1001
AUTOCAD_POSTSCRIPT_FIGURE
1002
{
1000
PSFILL
1000
Grayscale
1000
Grayscale
1070
    25
1002
}
  0
LINE
  5
3193
  8
YODOROGO
 10
29765.604341291921
 20
1907.7494964292871
 30
0.0
 11
29617.604341291921
 21
1907.7494964292871
 31
0.0
1001
AUTOCAD_POSTSCRIPT_FIGURE
1002
{
1000
PSFILL
1000
Grayscale
1000
Grayscale
1070
    25
1002
}
  0
LINE
  5
3194
  8
YODOROGO
 10
29765.604341291921
 20
1947.749496429288
 30
0.0
 11
29765.604341291921
 21
1907.7494964292871
 31
0.0
1001
AUTOCAD_POSTSCRIPT_FIGURE
1002
{
1000
PSFILL
1000
Grayscale
1000
Grayscale
1070
    25
1002
}
  0
LINE
  5
3195
  8
YODOROGO
 10
29617.604341291921
 20
1947.749496429288
 30
0.0
 11
29765.604341291921
 21
1947.749496429288
 31
0.0
1001
AUTOCAD_POSTSCRIPT_FIGURE
1002
{
1000
PSFILL
1000
Grayscale
1000
Grayscale
1070
    25
1002
}
  0
LINE
  5
3196
  8
YODOROGO
 10
29617.604341291921
 20
2027.749496429288
 30
0.0
 11
29617.604341291921
 21
1947.749496429288
 31
0.0
1001
AUTOCAD_POSTSCRIPT_FIGURE
1002
{
1000
PSFILL
1000
Grayscale
1000
Grayscale
1070
    25
1002
}
  0
LINE
  5
3197
  8
YODOROGO
 10
29665.604341291921
 20
2027.749496429288
 30
0.0
 11
29617.604341291921
 21
2027.749496429288
 31
0.0
1001
AUTOCAD_POSTSCRIPT_FIGURE
1002
{
1000
PSFILL
1000
Grayscale
1000
Grayscale
1070
    25
1002
}
  0
LINE
  5
3198
  8
YODOROGO
 10
29665.604341291921
 20
1995.7494964292871
 30
0.0
 11
29665.604341291921
 21
2027.749496429288
 31
0.0
1001
AUTOCAD_POSTSCRIPT_FIGURE
1002
{
1000
PSFILL
1000
Grayscale
1000
Grayscale
1070
    25
1002
}
  0
LINE
  5
3199
  8
YODOROGO
 10
29765.604341291921
 20
1995.7494964292871
 30
0.0
 11
29665.604341291921
 21
1995.7494964292871
 31
0.0
1001
AUTOCAD_POSTSCRIPT_FIGURE
1002
{
1000
PSFILL
1000
Grayscale
1000
Grayscale
1070
    25
1002
}
  0
LINE
  5
319A
  8
YODOROGO
 10
29765.604341291921
 20
2027.749496429288
 30
0.0
 11
29765.604341291921
 21
1995.7494964292871
 31
0.0
1001
AUTOCAD_POSTSCRIPT_FIGURE
1002
{
1000
PSFILL
1000
Grayscale
1000
Grayscale
1070
    25
1002
}
  0
LINE
  5
319B
  8
YODOROGO
 10
29829.604341291921
 20
2027.749496429288
 30
0.0
 11
29765.604341291921
 21
2027.749496429288
 31
0.0
1001
AUTOCAD_POSTSCRIPT_FIGURE
1002
{
1000
PSFILL
1000
Grayscale
1000
Grayscale
1070
    25
1002
}
  0
LINE
  5
319C
  8
YODOROGO
 10
29829.604341291921
 20
1995.7494964292871
 30
0.0
 11
29829.604341291921
 21
2027.749496429288
 31
0.0
1001
AUTOCAD_POSTSCRIPT_FIGURE
1002
{
1000
PSFILL
1000
Grayscale
1000
Grayscale
1070
    25
1002
}
  0
LINE
  5
319D
  8
YODOROGO
 10
29829.604341291921
 20
1907.7494964292871
 30
0.0
 11
29829.604341291921
 21
1947.749496429288
 31
0.0
1001
AUTOCAD_POSTSCRIPT_FIGURE
1002
{
1000
PSFILL
1000
Grayscale
1000
Grayscale
1070
    25
1002
}
  0
LINE
  5
319E
  8
YODOROGO
 10
29829.604341291921
 20
1819.7494964292871
 30
0.0
 11
29829.604341291921
 21
1859.749496429288
 31
0.0
1001
AUTOCAD_POSTSCRIPT_FIGURE
1002
{
1000
PSFILL
1000
Grayscale
1000
Grayscale
1070
    25
1002
}
  0
LINE
  5
319F
  8
YODOROGO
 10
29921.60434129191
 20
1771.7494964292871
 30
0.0
 11
29921.60434129191
 21
1707.749496429288
 31
0.0
1001
AUTOCAD_POSTSCRIPT_FIGURE
1002
{
1000
PSFILL
1000
Grayscale
1000
Grayscale
1070
    25
1002
}
  0
LINE
  5
31A0
  8
YODOROGO
 10
29829.604341291921
 20
1771.7494964292871
 30
0.0
 11
29921.60434129191
 21
1771.7494964292871
 31
0.0
1001
AUTOCAD_POSTSCRIPT_FIGURE
1002
{
1000
PSFILL
1000
Grayscale
1000
Grayscale
1070
    25
1002
}
  0
LINE
  5
31A1
  8
YODOROGO
 10
29829.604341291921
 20
1707.749496429288
 30
0.0
 11
29829.604341291921
 21
1771.7494964292871
 31
0.0
1001
AUTOCAD_POSTSCRIPT_FIGURE
1002
{
1000
PSFILL
1000
Grayscale
1000
Grayscale
1070
    25
1002
}
  0
LINE
  5
31A2
  8
YODOROGO
 10
29765.604341291921
 20
1707.749496429288
 30
0.0
 11
29829.604341291921
 21
1707.749496429288
 31
0.0
1001
AUTOCAD_POSTSCRIPT_FIGURE
1002
{
1000
PSFILL
1000
Grayscale
1000
Grayscale
1070
    25
1002
}
  0
LINE
  5
31A3
  8
YODOROGO
 10
29765.604341291921
 20
1771.7494964292871
 30
0.0
 11
29765.604341291921
 21
1707.749496429288
 31
0.0
1001
AUTOCAD_POSTSCRIPT_FIGURE
1002
{
1000
PSFILL
1000
Grayscale
1000
Grayscale
1070
    25
1002
}
  0
LINE
  5
31A4
  8
YODOROGO
 10
29673.604341291921
 20
1771.7494964292871
 30
0.0
 11
29765.604341291921
 21
1771.7494964292871
 31
0.0
1001
AUTOCAD_POSTSCRIPT_FIGURE
1002
{
1000
PSFILL
1000
Grayscale
1000
Grayscale
1070
    25
1002
}
  0
ARC
  5
31A5
  8
YODOROGO
 10
31059.517893357912
 20
1602.6807375155761
 30
0.0
 40
178.22128111072141
 50
281.02627495425338
 51
357.77113575573799
  0
LINE
  5
31A6
  8
YODOROGO
 10
31413.604341291921
 20
1907.7494964292871
 30
0.0
 11
31165.604341291921
 21
1907.7494964292871
 31
0.0
  0
LINE
  5
31A7
  8
YODOROGO
 10
31413.604341291921
 20
2027.749496429288
 30
0.0
 11
31165.604341291921
 21
2027.749496429288
 31
0.0
  0
LINE
  5
31A8
  8
YODOROGO
 10
31165.604341291921
 20
1963.749496429286
 30
0.0
 11
31413.604341291921
 21
1963.749496429286
 31
0.0
  0
LINE
  5
31A9
  8
YODOROGO
 10
30791.604341291921
 20
1563.7494964292871
 30
0.0
 11
30791.604341291921
 21
1755.7494964292871
 31
0.0
  0
LINE
  5
31AA
  8
YODOROGO
 10
30763.604341291921
 20
1691.749496429288
 30
0.0
 11
30763.604341291921
 21
1563.7494964292871
 31
0.0
  0
LINE
  5
31AB
  8
YODOROGO
 10
30723.604341291921
 20
1491.749496429288
 30
0.0
 11
30723.604341291921
 21
1691.749496429288
 31
0.0
  0
LINE
  5
31AC
  8
YODOROGO
 10
30899.604341291932
 20
1691.749496429288
 30
0.0
 11
30899.604341291932
 21
1491.749496429288
 31
0.0
  0
LINE
  5
31AD
  8
YODOROGO
 10
30859.604341291932
 20
1563.7494964292871
 30
0.0
 11
30859.604341291932
 21
1691.749496429288
 31
0.0
  0
LINE
  5
31AE
  8
YODOROGO
 10
30831.604341291921
 20
1755.7494964292871
 30
0.0
 11
30831.604341291921
 21
1563.7494964292871
 31
0.0
  0
LINE
  5
31AF
  8
YODOROGO
 10
30973.604341291921
 20
2027.749496429288
 30
0.0
 11
30973.604341291921
 21
1467.749496429288
 31
0.0
  0
LINE
  5
31B0
  8
YODOROGO
 10
30645.604341291921
 20
1427.749496429288
 30
0.0
 11
30645.604341291921
 21
2027.749496429288
 31
0.0
  0
LINE
  5
31B1
  8
YODOROGO
 10
30697.604341291932
 20
1963.749496429286
 30
0.0
 11
30697.604341291932
 21
1427.749496429288
 31
0.0
  0
LINE
  5
31B2
  8
YODOROGO
 10
30925.604341291921
 20
1547.749496429288
 30
0.0
 11
30925.604341291921
 21
1963.749496429286
 31
0.0
  0
LINE
  5
31B3
  8
YODOROGO
 10
30381.604341291932
 20
1627.749496429288
 30
0.0
 11
30381.604341291932
 21
1679.749496429288
 31
0.0
  0
LINE
  5
31B4
  8
YODOROGO
 10
30617.604341291921
 20
1679.749496429288
 30
0.0
 11
30617.604341291921
 21
1627.749496429288
 31
0.0
  0
LINE
  5
31B5
  8
YODOROGO
 10
31165.604341291921
 20
1907.7494964292871
 30
0.0
 11
31165.604341291921
 21
1635.7494964292871
 31
0.0
  0
LINE
  5
31B6
  8
YODOROGO
 10
29949.60434129191
 20
1667.749496429288
 30
0.0
 11
29949.60434129191
 21
1707.749496429288
 31
0.0
  0
LINE
  5
31B7
  8
YODOROGO
 10
29949.60434129191
 20
1667.749496429288
 30
0.0
 11
29949.60434129191
 21
1707.749496429288
 31
0.0
  0
ARC
  5
31B8
  8
YODOROGO
 10
30537.604341291921
 20
1507.749496429288
 30
0.0
 40
80.0
 50
270.0
 51
0.0
  0
LINE
  5
31B9
  8
YODOROGO
 10
30569.604341291921
 20
1599.7494964292871
 30
0.0
 11
30617.604341291921
 21
1599.7494964292871
 31
0.0
  0
LINE
  5
31BA
  8
YODOROGO
 10
30617.604341291921
 20
1627.749496429288
 30
0.0
 11
30529.604341291939
 21
1627.749496429288
 31
0.0
  0
LINE
  5
31BB
  8
YODOROGO
 10
30217.604341291921
 20
1667.749496429288
 30
0.0
 11
29949.60434129191
 21
1667.749496429288
 31
0.0
  0
LINE
  5
31BC
  8
YODOROGO
 10
30217.604341291921
 20
1627.749496429288
 30
0.0
 11
30217.604341291921
 21
1667.749496429288
 31
0.0
  0
LINE
  5
31BD
  8
YODOROGO
 10
30017.604341291921
 20
1627.749496429288
 30
0.0
 11
30217.604341291921
 21
1627.749496429288
 31
0.0
  0
ARC
  5
31BE
  8
YODOROGO
 10
30230.05882870136
 20
1868.885714952901
 30
0.0
 40
321.37763628522822
 50
228.6181454618993
 51
245.660289248906
  0
LINE
  5
31BF
  8
YODOROGO
 10
30105.604341291921
 20
1603.7494964292871
 30
0.0
 11
30097.60434129195
 21
1576.0728158699001
 31
0.0
  0
LINE
  5
31C0
  8
YODOROGO
 10
30189.604341291921
 20
1603.7494964292871
 30
0.0
 11
30105.604341291921
 21
1603.7494964292871
 31
0.0
  0
LINE
  5
31C1
  8
YODOROGO
 10
30177.604341291921
 20
1551.817722473427
 30
0.0
 11
30189.604341291921
 21
1603.7494964292871
 31
0.0
  0
ARC
  5
31C2
  8
YODOROGO
 10
30230.05882870045
 20
1868.885714953002
 30
0.0
 40
321.37763628529081
 50
260.60629297969911
 51
267.77903556555862
  0
LINE
  5
31C3
  8
YODOROGO
 10
30217.604341291921
 20
1427.749496429285
 30
0.0
 11
30217.604341291921
 21
1547.749496429288
 31
0.0
  0
LINE
  5
31C4
  8
YODOROGO
 10
29937.604341291932
 20
1481.3393349155101
 30
0.0
 11
29937.604341291921
 21
1594.531090531141
 31
0.0
  0
LINE
  5
31C5
  8
YODOROGO
 10
30217.604341291921
 20
1667.749496429288
 30
0.0
 11
29949.60434129191
 21
1667.749496429288
 31
0.0
  0
LINE
  5
31C6
  8
YODOROGO
 10
30217.604341291921
 20
1627.749496429288
 30
0.0
 11
30217.604341291921
 21
1667.749496429288
 31
0.0
  0
LINE
  5
31C7
  8
YODOROGO
 10
30017.604341291921
 20
1627.749496429288
 30
0.0
 11
30217.604341291921
 21
1627.749496429288
 31
0.0
  0
ARC
  5
31C8
  8
YODOROGO
 10
30230.05882870136
 20
1868.885714952901
 30
0.0
 40
321.37763628522822
 50
228.6181454618993
 51
245.660289248906
  0
LINE
  5
31C9
  8
YODOROGO
 10
30105.604341291921
 20
1603.7494964292871
 30
0.0
 11
30097.60434129195
 21
1576.0728158699001
 31
0.0
  0
LINE
  5
31CA
  8
YODOROGO
 10
30189.604341291921
 20
1603.7494964292871
 30
0.0
 11
30105.604341291921
 21
1603.7494964292871
 31
0.0
  0
LINE
  5
31CB
  8
YODOROGO
 10
30177.604341291921
 20
1551.817722473427
 30
0.0
 11
30189.604341291921
 21
1603.7494964292871
 31
0.0
  0
ARC
  5
31CC
  8
YODOROGO
 10
30230.05882870045
 20
1868.885714953002
 30
0.0
 40
321.37763628529081
 50
260.60629297969911
 51
267.77903556555862
  0
LINE
  5
31CD
  8
YODOROGO
 10
30217.604341291921
 20
1427.749496429285
 30
0.0
 11
30217.604341291921
 21
1547.749496429288
 31
0.0
  0
LINE
  5
31CE
  8
YODOROGO
 10
29937.604341291932
 20
1481.3393349155101
 30
0.0
 11
29937.604341291921
 21
1594.531090531141
 31
0.0
  0
LINE
  5
31CF
  8
YODOROGO
 10
30433.604341291921
 20
1573.749496429288
 30
0.0
 11
30381.604341291932
 21
1573.749496429288
 31
0.0
  0
LINE
  5
31D0
  8
YODOROGO
 10
30433.604341291921
 20
1601.749496429285
 30
0.0
 11
30433.604341291921
 21
1573.749496429288
 31
0.0
  0
LINE
  5
31D1
  8
YODOROGO
 10
30381.604341291932
 20
1601.749496429285
 30
0.0
 11
30433.604341291921
 21
1601.749496429285
 31
0.0
  0
LINE
  5
31D2
  8
YODOROGO
 10
30381.604341291932
 20
1573.749496429288
 30
0.0
 11
30381.604341291932
 21
1601.749496429285
 31
0.0
  0
LINE
  5
31D3
  8
YODOROGO
 10
30429.604341291921
 20
1577.7494964292871
 30
0.0
 11
30385.604341291921
 21
1577.7494964292871
 31
0.0
  0
LINE
  5
31D4
  8
YODOROGO
 10
30429.604341291921
 20
1597.749496429288
 30
0.0
 11
30429.604341291921
 21
1577.7494964292871
 31
0.0
  0
LINE
  5
31D5
  8
YODOROGO
 10
30385.604341291921
 20
1597.749496429288
 30
0.0
 11
30429.604341291921
 21
1597.749496429288
 31
0.0
  0
LINE
  5
31D6
  8
YODOROGO
 10
30385.604341291921
 20
1577.7494964292871
 30
0.0
 11
30385.604341291921
 21
1597.749496429288
 31
0.0
  0
LINE
  5
31D7
  8
YODOROGO
 10
30425.604341291921
 20
1581.749496429286
 30
0.0
 11
30389.604341291921
 21
1581.749496429286
 31
0.0
  0
LINE
  5
31D8
  8
YODOROGO
 10
30425.604341291921
 20
1593.749496429288
 30
0.0
 11
30425.604341291921
 21
1581.749496429286
 31
0.0
  0
LINE
  5
31D9
  8
YODOROGO
 10
30389.604341291921
 20
1593.749496429288
 30
0.0
 11
30425.604341291921
 21
1593.749496429288
 31
0.0
  0
LINE
  5
31DA
  8
YODOROGO
 10
30389.604341291921
 20
1581.749496429286
 30
0.0
 11
30389.604341291921
 21
1593.749496429288
 31
0.0
  0
LINE
  5
31DB
  8
YODOROGO
 10
30421.604341291932
 20
1585.7494964292871
 30
0.0
 11
30393.604341291921
 21
1585.7494964292871
 31
0.0
  0
LINE
  5
31DC
  8
YODOROGO
 10
30421.604341291932
 20
1589.749496429288
 30
0.0
 11
30421.604341291932
 21
1585.7494964292871
 31
0.0
  0
LINE
  5
31DD
  8
YODOROGO
 10
30393.604341291921
 20
1589.749496429288
 30
0.0
 11
30421.604341291932
 21
1589.749496429288
 31
0.0
  0
LINE
  5
31DE
  8
YODOROGO
 10
30393.604341291921
 20
1585.7494964292871
 30
0.0
 11
30393.604341291921
 21
1589.749496429288
 31
0.0
  0
LINE
  5
31DF
  8
YODOROGO
 10
30465.604341291921
 20
1627.749496429288
 30
0.0
 11
30381.604341291932
 21
1627.749496429288
 31
0.0
  0
LINE
  5
31E0
  8
YODOROGO
 10
30465.604341291921
 20
1547.749496429288
 30
0.0
 11
30465.604341291921
 21
1627.749496429288
 31
0.0
  0
LINE
  5
31E1
  8
YODOROGO
 10
30381.604341291932
 20
1547.749496429288
 30
0.0
 11
30465.604341291921
 21
1547.749496429288
 31
0.0
  0
LINE
  5
31E2
  8
YODOROGO
 10
30381.604341291932
 20
1427.749496429288
 30
0.0
 11
30381.604341291932
 21
1547.749496429288
 31
0.0
  0
LINE
  5
31E3
  8
YODOROGO
 10
30537.604341291921
 20
1427.749496429288
 30
0.0
 11
30381.604341291932
 21
1427.749496429288
 31
0.0
  0
LINE
  5
31E4
  8
YODOROGO
 10
30569.604341291921
 20
1571.749496429285
 30
0.0
 11
30569.604341291921
 21
1599.7494964292871
 31
0.0
  0
ARC
  5
31E5
  8
YODOROGO
 10
30545.604341291921
 20
1571.749496429291
 30
0.0
 40
24.000000000003752
 50
270.0
 51
359.99999999998772
  0
LINE
  5
31E6
  8
YODOROGO
 10
30529.604341291939
 20
1547.749496429288
 30
0.0
 11
30545.604341291921
 21
1547.749496429288
 31
0.0
  0
LINE
  5
31E7
  8
YODOROGO
 10
30529.604341291939
 20
1627.749496429288
 30
0.0
 11
30529.604341291939
 21
1547.749496429288
 31
0.0
  0
LINE
  5
31E8
  8
YODOROGO
 10
30899.604341291932
 20
1547.749496429288
 30
0.0
 11
30925.604341291921
 21
1547.749496429288
 31
0.0
  0
LINE
  5
31E9
  8
YODOROGO
 10
30933.604341291921
 20
1427.749496429288
 30
0.0
 11
30899.604341291932
 21
1427.749496429288
 31
0.0
  0
LINE
  5
31EA
  8
YODOROGO
 10
30763.604341291921
 20
1563.7494964292871
 30
0.0
 11
30791.604341291921
 21
1563.7494964292871
 31
0.0
  0
LINE
  5
31EB
  8
YODOROGO
 10
30899.604341291932
 20
1491.749496429288
 30
0.0
 11
30723.604341291921
 21
1491.749496429288
 31
0.0
  0
LINE
  5
31EC
  8
YODOROGO
 10
30831.604341291921
 20
1563.7494964292871
 30
0.0
 11
30859.604341291932
 21
1563.7494964292871
 31
0.0
  0
LINE
  5
31ED
  8
YODOROGO
 10
30899.604341291932
 20
1427.749496429288
 30
0.0
 11
30899.604341291932
 21
1547.749496429288
 31
0.0
  0
LINE
  5
31EE
  8
YODOROGO
 10
30697.604341291932
 20
1427.749496429288
 30
0.0
 11
30645.604341291921
 21
1427.749496429288
 31
0.0
  0
LINE
  5
31EF
  8
YODOROGO
 10
30617.604341291921
 20
1599.7494964292871
 30
0.0
 11
30617.604341291921
 21
1507.749496429288
 31
0.0
  0
ARC
  5
31F0
  8
YODOROGO
 10
30933.604341291921
 20
1467.749496429288
 30
0.0
 40
40.0
 50
270.0
 51
0.0
  0
LINE
  5
31F1
  8
YODOROGO
 10
31093.604341291921
 20
1523.7494964292871
 30
0.0
 11
31093.604341291921
 21
1427.749496429288
 31
0.0
  0
ARC
  5
31F2
  8
YODOROGO
 10
31039.721395566768
 20
1637.5313901097329
 30
0.0
 40
125.8955565916754
 50
295.34052442160112
 51
359.18902303418679
  0
LINE
  5
31F3
  8
YODOROGO
 10
30617.604341291921
 20
1859.749496429288
 30
0.0
 11
30497.604341291921
 21
1939.749496429288
 31
0.0
  0
LINE
  5
31F4
  8
YODOROGO
 10
30497.604341291921
 20
2027.749496429288
 30
0.0
 11
30617.604341291921
 21
1947.749496429288
 31
0.0
  0
LINE
  5
31F5
  8
YODOROGO
 10
30529.604341291939
 20
1679.749496429288
 30
0.0
 11
30617.604341291921
 21
1679.749496429288
 31
0.0
  0
LINE
  5
31F6
  8
YODOROGO
 10
30617.604341291921
 20
1735.7494964292871
 30
0.0
 11
30529.604341291939
 21
1735.7494964292871
 31
0.0
  0
LINE
  5
31F7
  8
YODOROGO
 10
30381.604341291932
 20
1795.7494964292871
 30
0.0
 11
30617.604341291921
 21
1795.7494964292871
 31
0.0
  0
LINE
  5
31F8
  8
YODOROGO
 10
30081.604341291921
 20
2027.749496429288
 30
0.0
 11
30021.604341291921
 21
2027.749496429288
 31
0.0
  0
LINE
  5
31F9
  8
YODOROGO
 10
30081.604341291921
 20
1827.7494964292871
 30
0.0
 11
30081.604341291921
 21
2027.749496429288
 31
0.0
  0
LINE
  5
31FA
  8
YODOROGO
 10
30021.604341291921
 20
1827.7494964292871
 30
0.0
 11
30081.604341291921
 21
1827.7494964292871
 31
0.0
  0
LINE
  5
31FB
  8
YODOROGO
 10
30021.604341291921
 20
2027.749496429288
 30
0.0
 11
30021.604341291921
 21
1827.7494964292871
 31
0.0
  0
LINE
  5
31FC
  8
YODOROGO
 10
30161.604341291921
 20
2027.749496429288
 30
0.0
 11
30217.604341291921
 21
2027.749496429288
 31
0.0
  0
LINE
  5
31FD
  8
YODOROGO
 10
30161.604341291921
 20
1811.749496429288
 30
0.0
 11
30161.604341291921
 21
2027.749496429288
 31
0.0
  0
ARC
  5
31FE
  8
YODOROGO
 10
30121.604341291921
 20
1811.749496429288
 30
0.0
 40
40.0
 50
270.0
 51
0.0
  0
LINE
  5
31FF
  8
YODOROGO
 10
30021.604341291921
 20
1771.7494964292871
 30
0.0
 11
30121.604341291921
 21
1771.7494964292871
 31
0.0
  0
LINE
  5
3200
  8
YODOROGO
 10
30021.604341291921
 20
1707.749496429288
 30
0.0
 11
30021.604341291921
 21
1771.7494964292871
 31
0.0
  0
LINE
  5
3201
  8
YODOROGO
 10
30137.604341291921
 20
1707.749496429288
 30
0.0
 11
30021.604341291921
 21
1707.749496429288
 31
0.0
  0
ARC
  5
3202
  8
YODOROGO
 10
30137.604341291921
 20
1787.7494964292871
 30
0.0
 40
80.0
 50
270.0
 51
0.0
  0
LINE
  5
3203
  8
YODOROGO
 10
30217.604341291921
 20
2027.749496429288
 30
0.0
 11
30217.604341291921
 21
1787.7494964292871
 31
0.0
  0
LINE
  5
3204
  8
YODOROGO
 10
29977.604341291921
 20
1947.749496429288
 30
0.0
 11
29977.604341291921
 21
1995.7494964292871
 31
0.0
1001
AUTOCAD_POSTSCRIPT_FIGURE
1002
{
1000
PSFILL
1000
Grayscale
1000
Grayscale
1070
    25
1002
}
  0
LINE
  5
3205
  8
YODOROGO
 10
29977.604341291921
 20
1859.749496429288
 30
0.0
 11
29977.604341291921
 21
1907.7494964292871
 31
0.0
1001
AUTOCAD_POSTSCRIPT_FIGURE
1002
{
1000
PSFILL
1000
Grayscale
1000
Grayscale
1070
    25
1002
}
  0
LINE
  5
3206
  8
YODOROGO
 10
29977.604341291921
 20
1707.749496429288
 30
0.0
 11
29977.604341291921
 21
1819.7494964292871
 31
0.0
1001
AUTOCAD_POSTSCRIPT_FIGURE
1002
{
1000
PSFILL
1000
Grayscale
1000
Grayscale
1070
    25
1002
}
  0
LINE
  5
3207
  8
YODOROGO
 10
30381.604341291932
 20
1907.7494964292871
 30
0.0
 11
30497.604341291921
 21
2027.749496429288
 31
0.0
  0
LINE
  5
3208
  8
YODOROGO
 10
30381.604341291932
 20
1819.7494964292871
 30
0.0
 11
30381.604341291932
 21
1907.7494964292871
 31
0.0
  0
LINE
  5
3209
  8
YODOROGO
 10
30497.604341291921
 20
1939.749496429288
 30
0.0
 11
30381.604341291932
 21
1819.7494964292871
 31
0.0
  0
LINE
  5
320A
  8
YODOROGO
 10
30465.604341291921
 20
1679.749496429288
 30
0.0
 11
30465.604341291921
 21
1735.7494964292871
 31
0.0
  0
LINE
  5
320B
  8
YODOROGO
 10
30381.604341291932
 20
1679.749496429288
 30
0.0
 11
30465.604341291921
 21
1679.749496429288
 31
0.0
  0
LINE
  5
320C
  8
YODOROGO
 10
30529.604341291939
 20
1735.7494964292871
 30
0.0
 11
30529.604341291939
 21
1679.749496429288
 31
0.0
  0
LINE
  5
320D
  8
YODOROGO
 10
30381.604341291932
 20
1735.7494964292871
 30
0.0
 11
30381.604341291932
 21
1795.7494964292871
 31
0.0
  0
LINE
  5
320E
  8
YODOROGO
 10
30465.604341291921
 20
1735.7494964292871
 30
0.0
 11
30381.604341291932
 21
1735.7494964292871
 31
0.0
  0
LINE
  5
320F
  8
YODOROGO
 10
30645.604341291921
 20
2027.749496429288
 30
0.0
 11
30973.604341291921
 21
2027.749496429288
 31
0.0
  0
LINE
  5
3210
  8
YODOROGO
 10
30925.604341291921
 20
1963.749496429286
 30
0.0
 11
30697.604341291932
 21
1963.749496429286
 31
0.0
  0
LINE
  5
3211
  8
YODOROGO
 10
30873.604341291921
 20
1819.7494964292871
 30
0.0
 11
30899.604341291932
 21
1819.7494964292871
 31
0.0
  0
LINE
  5
3212
  8
YODOROGO
 10
30899.604341291932
 20
1939.749496429288
 30
0.0
 11
30873.604341291921
 21
1819.7494964292871
 31
0.0
  0
LINE
  5
3213
  8
YODOROGO
 10
30851.604341291939
 20
1939.749496429288
 30
0.0
 11
30899.604341291932
 21
1939.749496429288
 31
0.0
  0
LINE
  5
3214
  8
YODOROGO
 10
30825.604341291921
 20
1819.7494964292871
 30
0.0
 11
30851.604341291939
 21
1939.749496429288
 31
0.0
  0
LINE
  5
3215
  8
YODOROGO
 10
30797.604341291921
 20
1819.7494964292871
 30
0.0
 11
30825.604341291921
 21
1819.7494964292871
 31
0.0
  0
LINE
  5
3216
  8
YODOROGO
 10
30771.604341291939
 20
1939.749496429288
 30
0.0
 11
30797.604341291921
 21
1819.7494964292871
 31
0.0
  0
LINE
  5
3217
  8
YODOROGO
 10
30723.604341291921
 20
1939.749496429288
 30
0.0
 11
30771.604341291939
 21
1939.749496429288
 31
0.0
  0
LINE
  5
3218
  8
YODOROGO
 10
30749.604341291921
 20
1819.7494964292871
 30
0.0
 11
30723.604341291921
 21
1939.749496429288
 31
0.0
  0
LINE
  5
3219
  8
YODOROGO
 10
30723.604341291921
 20
1819.7494964292871
 30
0.0
 11
30749.604341291921
 21
1819.7494964292871
 31
0.0
  0
LINE
  5
321A
  8
YODOROGO
 10
30723.604341291921
 20
1755.7494964292871
 30
0.0
 11
30723.604341291921
 21
1819.7494964292871
 31
0.0
  0
LINE
  5
321B
  8
YODOROGO
 10
30899.604341291932
 20
1755.7494964292871
 30
0.0
 11
30723.604341291921
 21
1755.7494964292871
 31
0.0
  0
LINE
  5
321C
  8
YODOROGO
 10
30899.604341291932
 20
1819.7494964292871
 30
0.0
 11
30899.604341291932
 21
1755.7494964292871
 31
0.0
  0
LINE
  5
321D
  8
YODOROGO
 10
30617.604341291921
 20
1947.749496429288
 30
0.0
 11
30617.604341291921
 21
1859.749496429288
 31
0.0
  0
LINE
  5
321E
  8
YODOROGO
 10
30791.604341291921
 20
1755.7494964292871
 30
0.0
 11
30831.604341291921
 21
1755.7494964292871
 31
0.0
  0
LINE
  5
321F
  8
YODOROGO
 10
30723.604341291921
 20
1691.749496429288
 30
0.0
 11
30763.604341291921
 21
1691.749496429288
 31
0.0
  0
LINE
  5
3220
  8
YODOROGO
 10
30859.604341291932
 20
1691.749496429288
 30
0.0
 11
30899.604341291932
 21
1691.749496429288
 31
0.0
  0
LINE
  5
3221
  8
YODOROGO
 10
30617.604341291921
 20
1795.7494964292871
 30
0.0
 11
30617.604341291921
 21
1735.7494964292871
 31
0.0
  0
LINE
  5
3222
  8
YODOROGO
 10
31165.604341291921
 20
2027.749496429288
 30
0.0
 11
31165.604341291921
 21
1963.749496429286
 31
0.0
  0
LINE
  5
3223
  8
YODOROGO
 10
31533.604341291921
 20
1595.7494964292871
 30
0.0
 11
31533.60434129191
 21
1811.749496429288
 31
0.0
  0
LINE
  5
3224
  8
YODOROGO
 10
31461.60434129191
 20
1987.7494964292871
 30
0.0
 11
31461.60434129191
 21
1635.7494964292871
 31
0.0
  0
LINE
  5
3225
  8
YODOROGO
 10
31653.604341291921
 20
1427.749496429288
 30
0.0
 11
31653.60434129191
 21
1811.749496429288
 31
0.0
  0
LINE
  5
3226
  8
YODOROGO
 10
31589.604341291921
 20
1811.749496429288
 30
0.0
 11
31589.604341291921
 21
1427.749496429288
 31
0.0
  0
LINE
  5
3227
  8
YODOROGO
 10
31237.604341291921
 20
1595.7494964292871
 30
0.0
 11
31237.604341291921
 21
1707.749496429288
 31
0.0
  0
ARC
  5
3228
  8
YODOROGO
 10
31353.914865116069
 20
1607.790351288558
 30
0.0
 40
180.0924485759885
 50
268.62849102169793
 51
356.16638457330322
  0
LINE
  5
3229
  8
YODOROGO
 10
31349.604341291939
 20
1527.749496429288
 30
0.0
 11
31349.604341291939
 21
1427.749496429288
 31
0.0
  0
ARC
  5
322A
  8
YODOROGO
 10
31351.518075724562
 20
1637.838957017655
 30
0.0
 40
110.1060929836122
 50
269.00410209305932
 51
358.91264455492478
  0
LINE
  5
322B
  8
YODOROGO
 10
31589.604341291921
 20
1427.749496429288
 30
0.0
 11
31653.604341291921
 21
1427.749496429288
 31
0.0
  0
LINE
  5
322C
  8
YODOROGO
 10
31533.60434129191
 20
1811.749496429288
 30
0.0
 11
31589.604341291921
 21
1811.749496429288
 31
0.0
  0
LINE
  5
322D
  8
YODOROGO
 10
31621.604341291939
 20
1987.7494964292871
 30
0.0
 11
31461.60434129191
 21
1987.7494964292871
 31
0.0
  0
LINE
  5
322E
  8
YODOROGO
 10
31533.60434129191
 20
1915.7494964292871
 30
0.0
 11
31661.604341291939
 21
1915.7494964292871
 31
0.0
  0
LINE
  5
322F
  8
YODOROGO
 10
31701.604341291939
 20
1875.7494964292871
 30
0.0
 11
31533.60434129191
 21
1875.7494964292871
 31
0.0
  0
LINE
  5
3230
  8
YODOROGO
 10
31237.604341291921
 20
1779.749496429288
 30
0.0
 11
31349.604341291939
 21
1779.749496429288
 31
0.0
  0
LINE
  5
3231
  8
YODOROGO
 10
31237.604341291921
 20
1835.7494964292871
 30
0.0
 11
31237.604341291921
 21
1779.749496429288
 31
0.0
  0
LINE
  5
3232
  8
YODOROGO
 10
31349.604341291939
 20
1835.7494964292871
 30
0.0
 11
31237.604341291921
 21
1835.7494964292871
 31
0.0
  0
LINE
  5
3233
  8
YODOROGO
 10
31349.604341291939
 20
1779.749496429288
 30
0.0
 11
31349.604341291939
 21
1835.7494964292871
 31
0.0
  0
LINE
  5
3234
  8
YODOROGO
 10
31533.60434129191
 20
1875.7494964292871
 30
0.0
 11
31533.60434129191
 21
1915.7494964292871
 31
0.0
  0
LINE
  5
3235
  8
YODOROGO
 10
31413.604341291921
 20
1707.749496429288
 30
0.0
 11
31413.604341291921
 21
1907.7494964292871
 31
0.0
  0
LINE
  5
3236
  8
YODOROGO
 10
31237.604341291921
 20
1707.749496429288
 30
0.0
 11
31413.604341291921
 21
1707.749496429288
 31
0.0
  0
LINE
  5
3237
  8
YODOROGO
 10
31413.604341291921
 20
1963.749496429286
 30
0.0
 11
31413.604341291921
 21
2027.749496429288
 31
0.0
  0
ARC
  5
3238
  8
YODOROGO
 10
31621.604341291939
 20
2003.749496429285
 30
0.0
 40
15.999999999994539
 50
270.0
 51
0.0000000000081422
  0
LINE
  5
3239
  8
YODOROGO
 10
31637.604341291921
 20
2027.749496429288
 30
0.0
 11
31637.604341291921
 21
2003.7494964292871
 31
0.0
  0
LINE
  5
323A
  8
YODOROGO
 10
31701.604341291939
 20
2027.749496429288
 30
0.0
 11
31637.604341291921
 21
2027.749496429288
 31
0.0
  0
LINE
  5
323B
  8
YODOROGO
 10
31701.604341291939
 20
1955.7494964292871
 30
0.0
 11
31701.604341291939
 21
2027.749496429288
 31
0.0
  0
ARC
  5
323C
  8
YODOROGO
 10
31661.604341291939
 20
1955.7494964292871
 30
0.0
 40
40.0
 50
270.0
 51
0.0
  0
LINE
  5
323D
  8
YODOROGO
 10
31701.604341291939
 20
1811.749496429288
 30
0.0
 11
31701.604341291939
 21
1875.7494964292871
 31
0.0
  0
LINE
  5
323E
  8
YODOROGO
 10
31653.60434129191
 20
1811.749496429288
 30
0.0
 11
31701.604341291939
 21
1811.749496429288
 31
0.0
  0
LINE
  5
3242
  8
SUNPOU
  6
CONTINUOUS
 62
     4
 10
14458.635503999991
 20
20040.989814999979
 30
0.0
 11
14458.635503999991
 21
20590.995094000002
 31
0.0
  0
LINE
  5
3243
  8
SUNPOU
  6
CONTINUOUS
 62
     4
 10
14373.135504
 20
20510.995094000002
 30
0.0
 11
14133.135504
 21
20510.995094000002
 31
0.0
  0
LINE
  5
3244
  8
SUNPOU
  6
CONTINUOUS
 62
     4
 10
14455.635503999991
 20
20510.995094000002
 30
0.0
 11
14695.635504
 21
20510.995094000002
 31
0.0
  0
LINE
  5
3245
  8
SUNPOU
  6
CONTINUOUS
 62
     4
 10
14373.135504
 20
20510.995094000002
 30
0.0
 11
14455.635503999991
 21
20510.995094000002
 31
0.0
  0
LINE
  5
3246
  8
SUNPOU
  6
CONTINUOUS
 62
     4
 10
11019.135504
 20
20040.989814999979
 30
0.0
 11
11019.135504
 21
20590.995094000002
 31
0.0
  0
LINE
  5
3247
  8
SUNPOU
  6
CONTINUOUS
 62
     4
 10
11104.635503999991
 20
20510.995094000002
 30
0.0
 11
11344.635504
 21
20510.995094000002
 31
0.0
  0
LINE
  5
3248
  8
SUNPOU
  6
CONTINUOUS
 62
     4
 10
11022.135504
 20
20510.995094000002
 30
0.0
 11
10782.135504
 21
20510.995094000002
 31
0.0
  0
LINE
  5
3249
  8
SUNPOU
  6
CONTINUOUS
 62
     4
 10
11104.635503999991
 20
20510.995094000002
 30
0.0
 11
11022.135504
 21
20510.995094000002
 31
0.0
  0
LINE
  5
324A
  8
SUNPOU
  6
CONTINUOUS
 62
     4
 10
14373.135504
 20
20510.995094000002
 30
0.0
 11
11104.635503999991
 21
20510.995094000002
 31
0.0
  0
LINE
  5
324B
  8
SUNPOU
  6
CONTINUOUS
 62
     4
 10
10942.12669599999
 20
19880.982161
 30
0.0
 11
10495.131274999991
 21
19880.982161
 31
0.0
  0
LINE
  5
324C
  8
SUNPOU
  6
CONTINUOUS
 62
     4
 10
10942.13105099998
 20
19890.982161000022
 30
0.0
 11
10495.131274999991
 21
19890.982161000022
 31
0.0
  0
LINE
  5
324D
  8
SUNPOU
  6
CONTINUOUS
 62
     4
 10
10575.131274999991
 20
19880.982161
 30
0.0
 11
10575.131274999991
 21
19640.982161000022
 31
0.0
  0
LINE
  5
324E
  8
SUNPOU
  6
CONTINUOUS
 62
     4
 10
10575.131274999991
 20
19890.982161000022
 30
0.0
 11
10575.131274999991
 21
20130.982161000022
 31
0.0
  0
LINE
  5
324F
  8
SUNPOU
  6
CONTINUOUS
 62
     4
 10
10575.131274999991
 20
19880.982161
 30
0.0
 11
10575.131274999991
 21
19890.982161000022
 31
0.0
  0
LINE
  5
3250
  8
SUNPOU
  6
CONTINUOUS
 62
     4
 10
10942.13105099998
 20
19890.982161000022
 30
0.0
 11
10095.131274999991
 21
19890.982161000022
 31
0.0
  0
LINE
  5
3251
  8
SUNPOU
  6
CONTINUOUS
 62
     4
 10
10175.131274999991
 20
19668.486251999992
 30
0.0
 11
10175.131274999991
 21
19428.486251999992
 31
0.0
  0
LINE
  5
3252
  8
SUNPOU
  6
CONTINUOUS
 62
     4
 10
10175.131274999991
 20
19890.982161000022
 30
0.0
 11
10175.131274999991
 21
20130.982161000022
 31
0.0
  0
LINE
  5
3253
  8
SUNPOU
  6
CONTINUOUS
 62
     4
 10
10175.131274999991
 20
19668.486251999992
 30
0.0
 11
10175.131274999991
 21
19890.982161000022
 31
0.0
  0
LINE
  5
3254
  8
SUNPOU
  6
CONTINUOUS
 62
     4
 10
10175.131274999991
 20
16750.486251999992
 30
0.0
 11
10175.131274999991
 21
19668.486251999992
 31
0.0
  0
LINE
  5
3255
  8
SUNPOU
  6
CONTINUOUS
 62
     4
 10
10175.131274999991
 20
13481.986252000001
 30
0.0
 11
10175.131274999991
 21
16750.486251999992
 31
0.0
  0
LINE
  5
3256
  8
SUNPOU
  6
CONTINUOUS
 62
     4
 10
10942.12669599999
 20
13289.490937
 30
0.0
 11
10095.131274999991
 21
13289.490937
 31
0.0
  0
LINE
  5
3257
  8
SUNPOU
  6
CONTINUOUS
 62
     4
 10
10175.131274999991
 20
13481.986252000001
 30
0.0
 11
10175.131274999991
 21
13721.986252000001
 31
0.0
  0
LINE
  5
3258
  8
SUNPOU
  6
CONTINUOUS
 62
     4
 10
10175.131274999991
 20
13289.490937
 30
0.0
 11
10175.131274999991
 21
13049.490937
 31
0.0
  0
LINE
  5
3259
  8
SUNPOU
  6
CONTINUOUS
 62
     4
 10
10175.131274999991
 20
13481.986252000001
 30
0.0
 11
10175.131274999991
 21
13289.490937
 31
0.0
  0
LINE
  5
325A
  8
SUNPOU
  6
CONTINUOUS
 62
     4
 10
20952.014225999999
 20
6241.1883740000012
 30
0.0
 11
20152.015544999991
 21
6241.1883740000012
 31
0.0
  0
LINE
  5
325B
  8
SUNPOU
  6
CONTINUOUS
 62
     4
 10
20952.014225999999
 20
8132.6883740000021
 30
0.0
 11
20152.015544999991
 21
8132.6883740000021
 31
0.0
  0
LINE
  5
325C
  8
SUNPOU
  6
CONTINUOUS
 62
     4
 10
20232.015544999991
 20
6241.1883740000012
 30
0.0
 11
20232.015544999991
 21
8132.6883740000021
 31
0.0
  0
LINE
  5
325D
  8
SUNPOU
  6
CONTINUOUS
 62
     4
 10
20952.014225999999
 20
6241.1883740000012
 30
0.0
 11
19752.013235999981
 21
6241.1883740000012
 31
0.0
  0
LINE
  5
325E
  8
SUNPOU
  6
CONTINUOUS
 62
     4
 10
20919.516469999999
 20
8589.1883999999973
 30
0.0
 11
19752.013235999981
 21
8589.1883999999973
 31
0.0
  0
LINE
  5
325F
  8
SUNPOU
  6
CONTINUOUS
 62
     4
 10
19832.013235999981
 20
6241.1883740000012
 30
0.0
 11
19832.013235999981
 21
8589.1883999999973
 31
0.0
  0
LINE
  5
3270
  8
SUNPOU
  6
CONTINUOUS
 62
     4
 10
24350.51686499998
 20
5798.536116000002
 30
0.0
 11
24350.51686499998
 21
4861.1885390000061
 31
0.0
  0
LINE
  5
3271
  8
SUNPOU
  6
CONTINUOUS
 62
     4
 10
24393.016864999991
 20
6061.1885390000061
 30
0.0
 11
24393.016864999991
 21
4861.1885390000061
 31
0.0
  0
LINE
  5
3272
  8
SUNPOU
  6
CONTINUOUS
 62
     4
 10
24350.51686499998
 20
4941.1885390000061
 30
0.0
 11
24110.51686499998
 21
4941.1885390000061
 31
0.0
  0
LINE
  5
3273
  8
SUNPOU
  6
CONTINUOUS
 62
     4
 10
24393.016864999991
 20
4941.1885390000061
 30
0.0
 11
24633.016864999991
 21
4941.1885390000061
 31
0.0
  0
LINE
  5
3274
  8
SUNPOU
  6
CONTINUOUS
 62
     4
 10
24350.51686499998
 20
4941.1885390000061
 30
0.0
 11
24393.016864999991
 21
4941.1885390000061
 31
0.0
  0
LINE
  5
3275
  8
SUNPOU
  6
CONTINUOUS
 62
     4
 10
21176.01686499998
 20
6061.1885390000061
 30
0.0
 11
21176.01686499998
 21
5261.1885390000061
 31
0.0
  0
LINE
  5
3276
  8
SUNPOU
  6
CONTINUOUS
 62
     4
 10
24256.516864999969
 20
6061.1885390000061
 30
0.0
 11
24256.516864999969
 21
5261.1885390000061
 31
0.0
  0
LINE
  5
3277
  8
SUNPOU
  6
CONTINUOUS
 62
     4
 10
21176.01686499998
 20
5341.1885390000079
 30
0.0
 11
24256.516864999969
 21
5341.1885390000079
 31
0.0
  0
LINE
  5
3278
  8
SUNPOU
  6
CONTINUOUS
 62
     4
 10
21082.016864999969
 20
5798.536116000002
 30
0.0
 11
21082.016864999969
 21
4861.1885390000061
 31
0.0
  0
LINE
  5
3279
  8
SUNPOU
  6
CONTINUOUS
 62
     4
 10
24350.51686499998
 20
5798.536116000002
 30
0.0
 11
24350.51686499998
 21
4861.1885390000061
 31
0.0
  0
LINE
  5
327A
  8
SUNPOU
  6
CONTINUOUS
 62
     4
 10
21082.016864999969
 20
4941.1885390000061
 30
0.0
 11
24350.51686499998
 21
4941.1885390000061
 31
0.0
  0
LINE
  5
327B
  8
SUNPOU
  6
CONTINUOUS
 62
     4
 10
21082.016864999969
 20
5798.536116000002
 30
0.0
 11
21082.016864999969
 21
4861.1885390000061
 31
0.0
  0
LINE
  5
327C
  8
SUNPOU
  6
CONTINUOUS
 62
     4
 10
21039.51686499998
 20
6061.1885390000061
 30
0.0
 11
21039.51686499998
 21
4861.1885390000061
 31
0.0
  0
LINE
  5
327D
  8
SUNPOU
  6
CONTINUOUS
 62
     4
 10
21082.016864999969
 20
4941.1885390000061
 30
0.0
 11
21322.016864999969
 21
4941.1885390000061
 31
0.0
  0
LINE
  5
327E
  8
SUNPOU
  6
CONTINUOUS
 62
     4
 10
21039.51686499998
 20
4941.1885390000061
 30
0.0
 11
20799.51686499998
 21
4941.1885390000061
 31
0.0
  0
LINE
  5
327F
  8
SUNPOU
  6
CONTINUOUS
 62
     4
 10
21082.016864999969
 20
4941.1885390000061
 30
0.0
 11
21039.51686499998
 21
4941.1885390000061
 31
0.0
  0
LINE
  5
3280
  8
SUNPOU
  6
CONTINUOUS
 62
     4
 10
21039.51686499998
 20
6061.1885390000061
 30
0.0
 11
21039.51686499998
 21
4461.1887040000038
 31
0.0
  0
LINE
  5
3281
  8
SUNPOU
  6
CONTINUOUS
 62
     4
 10
24393.016864999991
 20
6061.1885390000061
 30
0.0
 11
24393.016864999991
 21
4461.1887040000038
 31
0.0
  0
LINE
  5
3282
  8
SUNPOU
  6
CONTINUOUS
 62
     4
 10
21039.51686499998
 20
4541.1887040000038
 30
0.0
 11
24393.016864999991
 21
4541.1887040000038
 31
0.0
  0
LINE
  5
3283
  8
SUNPOU
  6
CONTINUOUS
 62
     4
 10
9865.7678679999972
 20
8478.188374000003
 30
0.0
 11
9865.7678679999972
 21
9869.1883999999955
 31
0.0
  0
LINE
  5
3284
  8
SUNPOU
  6
CONTINUOUS
 62
     4
 10
16467.267867999992
 20
8610.0781974124311
 30
0.0
 11
16467.267867999992
 21
9869.1883999999955
 31
0.0
  0
LINE
  5
3285
  8
SUNPOU
  6
CONTINUOUS
 62
     4
 10
9865.7678679999972
 20
9789.1883999999955
 30
0.0
 11
16467.267867999992
 21
9789.1883999999955
 31
0.0
  0
LINE
  5
3286
  8
SUNPOU
  6
CONTINUOUS
 62
     4
 10
16317.267868000001
 20
8536.0984380000027
 30
0.0
 11
16317.267868000001
 21
9469.1900499999992
 31
0.0
  0
LINE
  5
3287
  8
SUNPOU
  6
CONTINUOUS
 62
     4
 10
16467.267867999992
 20
8610.0781974124311
 30
0.0
 11
16467.267867999992
 21
9469.1900499999992
 31
0.0
  0
LINE
  5
3288
  8
SUNPOU
  6
CONTINUOUS
 62
     4
 10
16317.267868000001
 20
9389.1900499999992
 30
0.0
 11
16077.267868000001
 21
9389.1900499999992
 31
0.0
  0
LINE
  5
3289
  8
SUNPOU
  6
CONTINUOUS
 62
     4
 10
16467.267867999992
 20
9389.1900499999992
 30
0.0
 11
16707.267867999992
 21
9389.1900499999992
 31
0.0
  0
LINE
  5
328A
  8
SUNPOU
  6
CONTINUOUS
 62
     4
 10
16317.267868000001
 20
9389.1900499999992
 30
0.0
 11
16467.267867999992
 21
9389.1900499999992
 31
0.0
  0
LINE
  5
328B
  8
SUNPOU
  6
CONTINUOUS
 62
     4
 10
10045.767868000001
 20
8348.3741496838065
 30
0.0
 11
10045.767868000001
 21
9469.1900499999992
 31
0.0
  0
LINE
  5
328C
  8
SUNPOU
  6
CONTINUOUS
 62
     4
 10
16317.267868000001
 20
8536.0984380000027
 30
0.0
 11
16317.267868000001
 21
9469.1900499999992
 31
0.0
  0
LINE
  5
328D
  8
SUNPOU
  6
CONTINUOUS
 62
     4
 10
10045.767868000001
 20
9389.1900499999992
 30
0.0
 11
16317.267868000001
 21
9389.1900499999992
 31
0.0
  0
LINE
  5
328E
  8
SUNPOU
  6
CONTINUOUS
 62
     4
 10
9865.7678679999972
 20
8478.188374000003
 30
0.0
 11
9865.7678679999972
 21
9469.1900499999956
 31
0.0
  0
LINE
  5
328F
  8
SUNPOU
  6
CONTINUOUS
 62
     4
 10
10045.767868000001
 20
8348.3741496838065
 30
0.0
 11
10045.767868000001
 21
9469.1900499999956
 31
0.0
  0
LINE
  5
3290
  8
SUNPOU
  6
CONTINUOUS
 62
     4
 10
9865.7678679999972
 20
9389.1900499999956
 30
0.0
 11
9625.7678680000045
 21
9389.1900499999956
 31
0.0
  0
LINE
  5
3291
  8
SUNPOU
  6
CONTINUOUS
 62
     4
 10
10045.767868000001
 20
9389.1900499999956
 30
0.0
 11
10285.767868000001
 21
9389.1900499999956
 31
0.0
  0
LINE
  5
3292
  8
SUNPOU
  6
CONTINUOUS
 62
     4
 10
9865.7678679999972
 20
9389.1900499999956
 30
0.0
 11
10045.767868000001
 21
9389.1900499999956
 31
0.0
  0
LINE
  5
3293
  8
SUNPOU
  6
CONTINUOUS
 62
     4
 10
16409.767867999992
 20
6241.1883740000003
 30
0.0
 11
17487.268263999991
 21
6241.1883740000012
 31
0.0
  0
LINE
  5
3294
  8
SUNPOU
  6
CONTINUOUS
 62
     4
 10
16502.075127599379
 20
8589.1883739999994
 30
0.0
 11
17487.268263999991
 21
8589.1883739999994
 31
0.0
  0
LINE
  5
3295
  8
SUNPOU
  6
CONTINUOUS
 62
     4
 10
17407.268263999991
 20
6241.1883740000012
 30
0.0
 11
17407.268263999991
 21
8589.1883739999994
 31
0.0
  0
LINE
  5
3296
  8
SUNPOU
  6
CONTINUOUS
 62
     4
 10
9958.2678680000008
 20
6241.1883740000003
 30
0.0
 11
8875.767472000005
 21
6241.1883740000012
 31
0.0
  0
LINE
  5
3297
  8
SUNPOU
  6
CONTINUOUS
 62
     4
 10
9785.7678680000008
 20
8398.188374000003
 30
0.0
 11
8875.767472000005
 21
8398.188374000003
 31
0.0
  0
LINE
  5
3298
  8
SUNPOU
  6
CONTINUOUS
 62
     4
 10
8955.7674720000032
 20
6241.1883740000012
 30
0.0
 11
8955.7674720000032
 21
8398.188374000003
 31
0.0
  0
LINE
  5
3299
  8
SUNPOU
  6
CONTINUOUS
 62
     4
 10
10045.767868000001
 20
6161.1883740000012
 30
0.0
 11
10045.767868000001
 21
4461.1887040000001
 31
0.0
  0
LINE
  5
329A
  8
SUNPOU
  6
CONTINUOUS
 62
     4
 10
16317.267868000001
 20
6161.1883740000012
 30
0.0
 11
16317.267868000001
 21
4461.1887040000001
 31
0.0
  0
LINE
  5
329B
  8
SUNPOU
  6
CONTINUOUS
 62
     4
 10
10045.767868000001
 20
4541.1887040000001
 30
0.0
 11
16317.267868000001
 21
4541.1887040000001
 31
0.0
  0
LINE
  5
329C
  8
SUNPOU
  6
CONTINUOUS
 62
     4
 10
16274.767868000001
 20
5798.5361160000011
 30
0.0
 11
16274.767868000001
 21
4861.1885389999989
 31
0.0
  0
LINE
  5
329D
  8
SUNPOU
  6
CONTINUOUS
 62
     4
 10
16317.267868000001
 20
6161.1883740000012
 30
0.0
 11
16317.267868000001
 21
4861.1885389999989
 31
0.0
  0
LINE
  5
329E
  8
SUNPOU
  6
CONTINUOUS
 62
     4
 10
16274.767868000001
 20
4941.1885389999979
 30
0.0
 11
16034.767868000001
 21
4941.1885389999979
 31
0.0
  0
LINE
  5
329F
  8
SUNPOU
  6
CONTINUOUS
 62
     4
 10
16317.267868000001
 20
4941.1885389999979
 30
0.0
 11
16557.267867999999
 21
4941.1885389999979
 31
0.0
  0
LINE
  5
32A0
  8
SUNPOU
  6
CONTINUOUS
 62
     4
 10
16274.767868000001
 20
4941.1885389999979
 30
0.0
 11
16317.267868000001
 21
4941.1885389999979
 31
0.0
  0
LINE
  5
32A1
  8
SUNPOU
  6
CONTINUOUS
 62
     4
 10
10088.267868000001
 20
5798.5361160000011
 30
0.0
 11
10088.267868000001
 21
4861.1885389999989
 31
0.0
  0
LINE
  5
32A2
  8
SUNPOU
  6
CONTINUOUS
 62
     4
 10
10045.767868000001
 20
6161.1883740000012
 30
0.0
 11
10045.767868000001
 21
4861.1885389999989
 31
0.0
  0
LINE
  5
32A3
  8
SUNPOU
  6
CONTINUOUS
 62
     4
 10
10088.267868000001
 20
4941.1885389999979
 30
0.0
 11
10328.267868000001
 21
4941.1885389999979
 31
0.0
  0
LINE
  5
32A4
  8
SUNPOU
  6
CONTINUOUS
 62
     4
 10
10045.767868000001
 20
4941.1885389999979
 30
0.0
 11
9805.7678680000008
 21
4941.1885389999979
 31
0.0
  0
LINE
  5
32A5
  8
SUNPOU
  6
CONTINUOUS
 62
     4
 10
10088.267868000001
 20
4941.1885389999979
 30
0.0
 11
10045.767868000001
 21
4941.1885389999979
 31
0.0
  0
LINE
  5
32A6
  8
SUNPOU
  6
CONTINUOUS
 62
     4
 10
13006.267868000001
 20
5798.5361160000011
 30
0.0
 11
13006.267868000001
 21
4861.1885389999989
 31
0.0
  0
LINE
  5
32A7
  8
SUNPOU
  6
CONTINUOUS
 62
     4
 10
10088.267868000001
 20
5798.5361160000011
 30
0.0
 11
10088.267868000001
 21
4861.1885389999989
 31
0.0
  0
LINE
  5
32A8
  8
SUNPOU
  6
CONTINUOUS
 62
     4
 10
13006.267868000001
 20
4941.1885389999979
 30
0.0
 11
10088.267868000001
 21
4941.1885389999979
 31
0.0
  0
LINE
  5
32A9
  8
SUNPOU
  6
CONTINUOUS
 62
     4
 10
13006.267868000001
 20
5798.5361160000011
 30
0.0
 11
13006.267868000001
 21
4861.1885389999989
 31
0.0
  0
LINE
  5
32AA
  8
SUNPOU
  6
CONTINUOUS
 62
     4
 10
16274.767868000001
 20
5798.5361160000011
 30
0.0
 11
16274.767868000001
 21
4861.1885389999989
 31
0.0
  0
LINE
  5
32AB
  8
SUNPOU
  6
CONTINUOUS
 62
     4
 10
13006.267868000001
 20
4941.1885389999979
 30
0.0
 11
16274.767868000001
 21
4941.1885389999979
 31
0.0
  0
LINE
  5
32AC
  8
SUNPOU
  6
CONTINUOUS
 62
     4
 10
21082.016864999969
 20
12776.222818
 30
0.0
 11
21082.016864999969
 21
12430.538167999999
 31
0.0
  0
LINE
  5
32AD
  8
SUNPOU
  6
CONTINUOUS
 62
     4
 10
21039.514621999992
 20
13359.488957
 30
0.0
 11
21039.514621999992
 21
12430.538167999999
 31
0.0
  0
LINE
  5
32AE
  8
SUNPOU
  6
CONTINUOUS
 62
     4
 10
21082.016864999969
 20
12510.538167999999
 30
0.0
 11
21322.016864999969
 21
12510.538167999999
 31
0.0
  0
LINE
  5
32AF
  8
SUNPOU
  6
CONTINUOUS
 62
     4
 10
21039.514621999992
 20
12510.538167999999
 30
0.0
 11
20799.514621999992
 21
12510.538167999999
 31
0.0
  0
LINE
  5
32B0
  8
SUNPOU
  6
CONTINUOUS
 62
     4
 10
21082.016864999969
 20
12510.538167999999
 30
0.0
 11
21039.514621999992
 21
12510.538167999999
 31
0.0
  0
LINE
  5
32B1
  8
SUNPOU
  6
CONTINUOUS
 62
     4
 10
24350.51686499998
 20
12776.222818
 30
0.0
 11
24350.51686499998
 21
12430.538167999999
 31
0.0
  0
LINE
  5
32B2
  8
SUNPOU
  6
CONTINUOUS
 62
     4
 10
24393.019107999971
 20
13359.488957
 30
0.0
 11
24393.019107999971
 21
12430.538167999999
 31
0.0
  0
LINE
  5
32B3
  8
SUNPOU
  6
CONTINUOUS
 62
     4
 10
24350.51686499998
 20
12510.538167999999
 30
0.0
 11
24110.51686499998
 21
12510.538167999999
 31
0.0
  0
LINE
  5
32B4
  8
SUNPOU
  6
CONTINUOUS
 62
     4
 10
24393.019107999971
 20
12510.538167999999
 30
0.0
 11
24633.019107999971
 21
12510.538167999999
 31
0.0
  0
LINE
  5
32B5
  8
SUNPOU
  6
CONTINUOUS
 62
     4
 10
24350.51686499998
 20
12510.538167999999
 30
0.0
 11
24393.019107999971
 21
12510.538167999999
 31
0.0
  0
LINE
  5
32B6
  8
SUNPOU
  6
CONTINUOUS
 62
     4
 10
24350.51686499998
 20
12776.222818
 30
0.0
 11
24350.51686499998
 21
12430.538167999999
 31
0.0
  0
LINE
  5
32B7
  8
SUNPOU
  6
CONTINUOUS
 62
     4
 10
24308.014621999981
 20
13359.488957
 30
0.0
 11
24308.014621999981
 21
12430.538167999999
 31
0.0
  0
LINE
  5
32B8
  8
SUNPOU
  6
CONTINUOUS
 62
     4
 10
24350.51686499998
 20
12510.538167999999
 30
0.0
 11
24590.51686499998
 21
12510.538167999999
 31
0.0
  0
LINE
  5
32B9
  8
SUNPOU
  6
CONTINUOUS
 62
     4
 10
24308.014621999981
 20
12510.538167999999
 30
0.0
 11
24068.014621999981
 21
12510.538167999999
 31
0.0
  0
LINE
  5
32BA
  8
SUNPOU
  6
CONTINUOUS
 62
     4
 10
24350.51686499998
 20
12510.538167999999
 30
0.0
 11
24308.014621999981
 21
12510.538167999999
 31
0.0
  0
LINE
  5
32BB
  8
SUNPOU
  6
CONTINUOUS
 62
     4
 10
21082.016864999969
 20
12776.222818
 30
0.0
 11
21082.016864999969
 21
12430.538167999999
 31
0.0
  0
LINE
  5
32BC
  8
SUNPOU
  6
CONTINUOUS
 62
     4
 10
21124.519107999971
 20
13359.488957
 30
0.0
 11
21124.519107999971
 21
12430.538167999999
 31
0.0
  0
LINE
  5
32BD
  8
SUNPOU
  6
CONTINUOUS
 62
     4
 10
21082.016864999969
 20
12510.538167999999
 30
0.0
 11
20842.016864999969
 21
12510.538167999999
 31
0.0
  0
LINE
  5
32BE
  8
SUNPOU
  6
CONTINUOUS
 62
     4
 10
21124.519107999971
 20
12510.538167999999
 30
0.0
 11
21364.519107999971
 21
12510.538167999999
 31
0.0
  0
LINE
  5
32BF
  8
SUNPOU
  6
CONTINUOUS
 62
     4
 10
21082.016864999969
 20
12510.538167999999
 30
0.0
 11
21124.519107999971
 21
12510.538167999999
 31
0.0
  0
LINE
  5
32C0
  8
SUNPOU
  6
CONTINUOUS
 62
     4
 10
21039.514621999992
 20
13359.488957
 30
0.0
 11
21039.514621999992
 21
12030.538167999999
 31
0.0
  0
LINE
  5
32C1
  8
SUNPOU
  6
CONTINUOUS
 62
     4
 10
24393.019107999971
 20
13359.488957
 30
0.0
 11
24393.019107999971
 21
12030.538167999999
 31
0.0
  0
LINE
  5
32C2
  8
SUNPOU
  6
CONTINUOUS
 62
     4
 10
21039.514621999992
 20
12110.538167999999
 30
0.0
 11
24393.019107999971
 21
12110.538167999999
 31
0.0
  0
LINE
  5
32C3
  8
SUNPOU
  6
CONTINUOUS
 62
     4
 10
24473.01514899997
 20
13889.486252000001
 30
0.0
 11
25523.016468999969
 21
13889.486252000001
 31
0.0
  0
LINE
  5
32C4
  8
SUNPOU
  6
CONTINUOUS
 62
     4
 10
25323.016468999969
 20
13481.986252000001
 30
0.0
 11
25523.016468999969
 21
13481.986252000001
 31
0.0
  0
LINE
  5
32C5
  8
SUNPOU
  6
CONTINUOUS
 62
     4
 10
25443.016468999969
 20
13889.486252000001
 30
0.0
 11
25443.016468999969
 21
13481.986252000001
 31
0.0
  0
LINE
  5
32C6
  8
SUNPOU
  6
CONTINUOUS
 62
     4
 10
24473.01514899997
 20
14590.486252000001
 30
0.0
 11
25523.016468999969
 21
14590.486252000001
 31
0.0
  0
LINE
  5
32C7
  8
SUNPOU
  6
CONTINUOUS
 62
     4
 10
24473.01514899997
 20
13889.486252000001
 30
0.0
 11
25523.016468999969
 21
13889.486252000001
 31
0.0
  0
LINE
  5
32C8
  8
SUNPOU
  6
CONTINUOUS
 62
     4
 10
25443.016468999969
 20
14590.486252000001
 30
0.0
 11
25443.016468999969
 21
13889.486252000001
 31
0.0
  0
LINE
  5
32C9
  8
SUNPOU
  6
CONTINUOUS
 62
     4
 10
24473.01514899997
 20
15291.72676350001
 30
0.0
 11
25523.016468999969
 21
15291.72676350001
 31
0.0
  0
LINE
  5
32CA
  8
SUNPOU
  6
CONTINUOUS
 62
     4
 10
24473.01514899997
 20
14590.486252000001
 30
0.0
 11
25523.016468999969
 21
14590.486252000001
 31
0.0
  0
LINE
  5
32CB
  8
SUNPOU
  6
CONTINUOUS
 62
     4
 10
25443.016468999969
 20
15291.72676350001
 30
0.0
 11
25443.016468999969
 21
14590.486252000001
 31
0.0
  0
LINE
  5
32CC
  8
SUNPOU
  6
CONTINUOUS
 62
     4
 10
24473.01514899997
 20
15992.486252000001
 30
0.0
 11
25523.016468999969
 21
15992.486252000001
 31
0.0
  0
LINE
  5
32CD
  8
SUNPOU
  6
CONTINUOUS
 62
     4
 10
24473.01514899997
 20
15291.72676350001
 30
0.0
 11
25523.016468999969
 21
15291.72676350001
 31
0.0
  0
LINE
  5
32CE
  8
SUNPOU
  6
CONTINUOUS
 62
     4
 10
25443.016468999969
 20
15992.486252000001
 30
0.0
 11
25443.016468999969
 21
15291.72676350001
 31
0.0
  0
LINE
  5
32CF
  8
SUNPOU
  6
CONTINUOUS
 62
     4
 10
25323.016468999969
 20
16750.486251999992
 30
0.0
 11
25523.016468999969
 21
16750.486251999992
 31
0.0
  0
LINE
  5
32D0
  8
SUNPOU
  6
CONTINUOUS
 62
     4
 10
24473.01514899997
 20
15992.486252000001
 30
0.0
 11
25523.016468999969
 21
15992.486252000001
 31
0.0
  0
LINE
  5
32D1
  8
SUNPOU
  6
CONTINUOUS
 62
     4
 10
25443.016468999969
 20
16750.486251999992
 30
0.0
 11
25443.016468999969
 21
15992.486252000001
 31
0.0
  0
LINE
  5
32D2
  8
SUNPOU
  6
CONTINUOUS
 62
     4
 10
24473.01514899997
 20
17508.486251999992
 30
0.0
 11
25523.016468999969
 21
17508.486251999992
 31
0.0
  0
LINE
  5
32D3
  8
SUNPOU
  6
CONTINUOUS
 62
     4
 10
25323.016468999969
 20
16750.486251999992
 30
0.0
 11
25523.016468999969
 21
16750.486251999992
 31
0.0
  0
LINE
  5
32D4
  8
SUNPOU
  6
CONTINUOUS
 62
     4
 10
25443.016468999969
 20
17508.486251999992
 30
0.0
 11
25443.016468999969
 21
16750.486251999992
 31
0.0
  0
LINE
  5
32D5
  8
SUNPOU
  6
CONTINUOUS
 62
     4
 10
24473.01514899997
 20
18209.486251999992
 30
0.0
 11
25523.016468999969
 21
18209.486251999992
 31
0.0
  0
LINE
  5
32D6
  8
SUNPOU
  6
CONTINUOUS
 62
     4
 10
24473.01514899997
 20
17508.486251999992
 30
0.0
 11
25523.016468999969
 21
17508.486251999992
 31
0.0
  0
LINE
  5
32D7
  8
SUNPOU
  6
CONTINUOUS
 62
     4
 10
25443.016468999969
 20
18209.486251999992
 30
0.0
 11
25443.016468999969
 21
17508.486251999992
 31
0.0
  0
LINE
  5
32D8
  8
SUNPOU
  6
CONTINUOUS
 62
     4
 10
24473.01514899997
 20
18910.486251999999
 30
0.0
 11
25523.016468999969
 21
18910.486251999992
 31
0.0
  0
LINE
  5
32D9
  8
SUNPOU
  6
CONTINUOUS
 62
     4
 10
24473.01514899997
 20
18209.486251999992
 30
0.0
 11
25523.016468999969
 21
18209.486251999992
 31
0.0
  0
LINE
  5
32DA
  8
SUNPOU
  6
CONTINUOUS
 62
     4
 10
25443.016468999969
 20
18910.486251999992
 30
0.0
 11
25443.016468999969
 21
18209.486251999992
 31
0.0
  0
LINE
  5
32DB
  8
SUNPOU
  6
CONTINUOUS
 62
     4
 10
25323.016468999969
 20
19668.486251999992
 30
0.0
 11
25523.016468999969
 21
19668.486251999992
 31
0.0
  0
LINE
  5
32DC
  8
SUNPOU
  6
CONTINUOUS
 62
     4
 10
24473.01514899997
 20
18910.486251999999
 30
0.0
 11
25523.016468999969
 21
18910.486251999992
 31
0.0
  0
LINE
  5
32DD
  8
SUNPOU
  6
CONTINUOUS
 62
     4
 10
25443.016468999969
 20
19668.486251999992
 30
0.0
 11
25443.016468999969
 21
18910.486251999992
 31
0.0
  0
LINE
  5
32DE
  8
SUNPOU
  6
CONTINUOUS
 62
     4
 10
25323.016468999969
 20
16750.486251999992
 30
0.0
 11
25923.016468999969
 21
16750.486251999992
 31
0.0
  0
LINE
  5
32DF
  8
SUNPOU
  6
CONTINUOUS
 62
     4
 10
25323.016468999969
 20
19668.486251999992
 30
0.0
 11
25923.016468999969
 21
19668.486251999992
 31
0.0
  0
LINE
  5
32E0
  8
SUNPOU
  6
CONTINUOUS
 62
     4
 10
25843.016468999969
 20
16750.486251999992
 30
0.0
 11
25843.016468999969
 21
19668.486251999992
 31
0.0
  0
LINE
  5
32E1
  8
SUNPOU
  6
CONTINUOUS
 62
     4
 10
25323.016468999969
 20
13481.986252000001
 30
0.0
 11
25923.016468999969
 21
13481.986252000001
 31
0.0
  0
LINE
  5
32E2
  8
SUNPOU
  6
CONTINUOUS
 62
     4
 10
25323.016468999969
 20
16750.486251999992
 30
0.0
 11
25923.016468999969
 21
16750.486251999992
 31
0.0
  0
LINE
  5
32E3
  8
SUNPOU
  6
CONTINUOUS
 62
     4
 10
25843.016468999969
 20
13481.986252000001
 30
0.0
 11
25843.016468999969
 21
16750.486251999992
 31
0.0
  0
LINE
  5
32E4
  8
SUNPOU
  6
CONTINUOUS
 62
     4
 10
24473.01514899997
 20
19710.983547
 30
0.0
 11
26323.01646899998
 21
19710.983546999982
 31
0.0
  0
LINE
  5
32E5
  8
SUNPOU
  6
CONTINUOUS
 62
     4
 10
24473.01514899997
 20
13439.488957
 30
0.0
 11
26323.01646899998
 21
13439.488957
 31
0.0
  0
LINE
  5
32E6
  8
SUNPOU
  6
CONTINUOUS
 62
     4
 10
26243.01646899998
 20
19710.983546999982
 30
0.0
 11
26243.01646899998
 21
13439.488957
 31
0.0
  0
LINE
  5
32E7
  8
SUNPOU
  6
CONTINUOUS
 62
     4
 10
25323.016468999969
 20
19668.486251999992
 30
0.0
 11
25923.016468999969
 21
19668.486251999992
 31
0.0
  0
LINE
  5
32E8
  8
SUNPOU
  6
CONTINUOUS
 62
     4
 10
24473.01514899997
 20
19710.983547
 30
0.0
 11
25923.016468999969
 21
19710.983546999982
 31
0.0
  0
LINE
  5
32E9
  8
SUNPOU
  6
CONTINUOUS
 62
     4
 10
25843.016468999969
 20
19668.486251999992
 30
0.0
 11
25843.016468999969
 21
19428.486251999992
 31
0.0
  0
LINE
  5
32EA
  8
SUNPOU
  6
CONTINUOUS
 62
     4
 10
25843.016468999969
 20
19710.983546999982
 30
0.0
 11
25843.016468999969
 21
19950.983546999982
 31
0.0
  0
LINE
  5
32EB
  8
SUNPOU
  6
CONTINUOUS
 62
     4
 10
25843.016468999969
 20
19668.486251999992
 30
0.0
 11
25843.016468999969
 21
19710.983546999982
 31
0.0
  0
LINE
  5
32EC
  8
SUNPOU
  6
CONTINUOUS
 62
     4
 10
25323.016468999969
 20
13481.986252000001
 30
0.0
 11
25923.016468999969
 21
13481.986252000001
 31
0.0
  0
LINE
  5
32ED
  8
SUNPOU
  6
CONTINUOUS
 62
     4
 10
24473.01514899997
 20
13439.488957
 30
0.0
 11
25923.016468999969
 21
13439.488957
 31
0.0
  0
LINE
  5
32EE
  8
SUNPOU
  6
CONTINUOUS
 62
     4
 10
25843.016468999969
 20
13481.986252000001
 30
0.0
 11
25843.016468999969
 21
13721.986252000001
 31
0.0
  0
LINE
  5
32EF
  8
SUNPOU
  6
CONTINUOUS
 62
     4
 10
25843.016468999969
 20
13439.488957
 30
0.0
 11
25843.016468999969
 21
13199.488957
 31
0.0
  0
LINE
  5
32F0
  8
SUNPOU
  6
CONTINUOUS
 62
     4
 10
25843.016468999969
 20
13481.986252000001
 30
0.0
 11
25843.016468999969
 21
13439.488957
 31
0.0
  0
LINE
  5
32F1
  8
SUNPOU
  6
CONTINUOUS
 62
     4
 10
21082.016864999969
 20
19790.984537000018
 30
0.0
 11
21082.016864999969
 21
20520.987440000012
 31
0.0
  0
LINE
  5
32F2
  8
SUNPOU
  6
CONTINUOUS
 62
     4
 10
21489.51686499998
 20
19790.984537000018
 30
0.0
 11
21489.51686499998
 21
20520.987440000012
 31
0.0
  0
LINE
  5
32F3
  8
SUNPOU
  6
CONTINUOUS
 62
     4
 10
21082.016864999969
 20
20440.987440000012
 30
0.0
 11
20842.016864999969
 21
20440.987440000012
 31
0.0
  0
LINE
  5
32F4
  8
SUNPOU
  6
CONTINUOUS
 62
     4
 10
21489.51686499998
 20
20440.987440000012
 30
0.0
 11
21729.51686499998
 21
20440.987440000012
 31
0.0
  0
LINE
  5
32F5
  8
SUNPOU
  6
CONTINUOUS
 62
     4
 10
21082.016864999969
 20
20440.987440000012
 30
0.0
 11
21489.51686499998
 21
20440.987440000012
 31
0.0
  0
LINE
  5
32F6
  8
SUNPOU
  6
CONTINUOUS
 62
     4
 10
23592.516864999991
 20
19790.984537000018
 30
0.0
 11
23592.516864999991
 21
20520.987440000012
 31
0.0
  0
LINE
  5
32F7
  8
SUNPOU
  6
CONTINUOUS
 62
     4
 10
24350.517854499991
 20
19790.984537000018
 30
0.0
 11
24350.517854499991
 21
20520.987440000012
 31
0.0
  0
LINE
  5
32F8
  8
SUNPOU
  6
CONTINUOUS
 62
     4
 10
23592.516864999991
 20
20440.987440000012
 30
0.0
 11
24350.517854499991
 21
20440.987440000012
 31
0.0
  0
LINE
  5
32F9
  8
SUNPOU
  6
CONTINUOUS
 62
     4
 10
22891.516864999991
 20
19790.984537000018
 30
0.0
 11
22891.516864999991
 21
20520.987440000012
 31
0.0
  0
LINE
  5
32FA
  8
SUNPOU
  6
CONTINUOUS
 62
     4
 10
23592.516864999991
 20
19790.984537000018
 30
0.0
 11
23592.516864999991
 21
20520.987440000012
 31
0.0
  0
LINE
  5
32FB
  8
SUNPOU
  6
CONTINUOUS
 62
     4
 10
22891.516864999991
 20
20440.987440000012
 30
0.0
 11
23592.516864999991
 21
20440.987440000012
 31
0.0
  0
LINE
  5
32FC
  8
SUNPOU
  6
CONTINUOUS
 62
     4
 10
22190.51686499998
 20
19790.984537000018
 30
0.0
 11
22190.51686499998
 21
20520.987440000012
 31
0.0
  0
LINE
  5
32FD
  8
SUNPOU
  6
CONTINUOUS
 62
     4
 10
22891.516864999991
 20
19790.984537000018
 30
0.0
 11
22891.516864999991
 21
20520.987440000012
 31
0.0
  0
LINE
  5
32FE
  8
SUNPOU
  6
CONTINUOUS
 62
     4
 10
22190.51686499998
 20
20440.987440000012
 30
0.0
 11
22891.516864999991
 21
20440.987440000012
 31
0.0
  0
LINE
  5
32FF
  8
SUNPOU
  6
CONTINUOUS
 62
     4
 10
21489.51686499998
 20
19790.984537000018
 30
0.0
 11
21489.51686499998
 21
20520.987440000012
 31
0.0
  0
LINE
  5
3300
  8
SUNPOU
  6
CONTINUOUS
 62
     4
 10
22190.51686499998
 20
19790.984537000018
 30
0.0
 11
22190.51686499998
 21
20520.987440000012
 31
0.0
  0
LINE
  5
3301
  8
SUNPOU
  6
CONTINUOUS
 62
     4
 10
21489.51686499998
 20
20440.987440000012
 30
0.0
 11
22190.51686499998
 21
20440.987440000012
 31
0.0
  0
LINE
  5
3302
  8
SUNPOU
  6
CONTINUOUS
 62
     4
 10
24350.51686499998
 20
19790.984537000018
 30
0.0
 11
24350.51686499998
 21
20520.987440000012
 31
0.0
  0
LINE
  5
3303
  8
SUNPOU
  6
CONTINUOUS
 62
     4
 10
24393.01316999998
 20
19790.984537000018
 30
0.0
 11
24393.01316999998
 21
20520.987440000012
 31
0.0
  0
LINE
  5
3304
  8
SUNPOU
  6
CONTINUOUS
 62
     4
 10
24350.51686499998
 20
20440.987440000012
 30
0.0
 11
24110.51686499998
 21
20440.987440000012
 31
0.0
  0
LINE
  5
3305
  8
SUNPOU
  6
CONTINUOUS
 62
     4
 10
24393.01316999998
 20
20440.987440000012
 30
0.0
 11
24633.01316999998
 21
20440.987440000012
 31
0.0
  0
LINE
  5
3306
  8
SUNPOU
  6
CONTINUOUS
 62
     4
 10
24350.51686499998
 20
20440.987440000012
 30
0.0
 11
24393.01316999998
 21
20440.987440000012
 31
0.0
  0
LINE
  5
3307
  8
SUNPOU
  6
CONTINUOUS
 62
     4
 10
21082.016864999969
 20
19790.984537000018
 30
0.0
 11
21082.016864999969
 21
20520.987440000012
 31
0.0
  0
LINE
  5
3308
  8
SUNPOU
  6
CONTINUOUS
 62
     4
 10
21039.520559999972
 20
19790.984537000018
 30
0.0
 11
21039.520559999972
 21
20520.987440000012
 31
0.0
  0
LINE
  5
3309
  8
SUNPOU
  6
CONTINUOUS
 62
     4
 10
21082.016864999969
 20
20440.987440000012
 30
0.0
 11
21322.016864999969
 21
20440.987440000012
 31
0.0
  0
LINE
  5
330A
  8
SUNPOU
  6
CONTINUOUS
 62
     4
 10
21039.520559999972
 20
20440.987440000012
 30
0.0
 11
20799.520559999972
 21
20440.987440000012
 31
0.0
  0
LINE
  5
330B
  8
SUNPOU
  6
CONTINUOUS
 62
     4
 10
21082.016864999969
 20
20440.987440000012
 30
0.0
 11
21039.520559999972
 21
20440.987440000012
 31
0.0
  0
TEXT
  5
330C
  8
0
  6
CONTINUOUS
 62
     7
 10
20479.204885471168
 20
20520.987440000012
 30
0.0
 40
160.0
  1
42.5
  0
TEXT
  5
330D
  8
0
  6
CONTINUOUS
 62
     7
 10
24473.328844528769
 20
20520.987440000012
 30
0.0
 40
160.0
  1
42.5
  0
TEXT
  5
330E
  8
0
  6
CONTINUOUS
 62
     7
 10
21666.68353166664
 20
20200.987440000012
 30
0.0
 40
160.0
  1
701
  0
TEXT
  5
330F
  8
0
  6
CONTINUOUS
 62
     7
 10
22367.683531666651
 20
20520.987440000012
 30
0.0
 40
160.0
  1
701
  0
TEXT
  5
3310
  8
0
  6
CONTINUOUS
 62
     7
 10
23068.683531666651
 20
20520.987440000012
 30
0.0
 40
160.0
  1
701
  0
TEXT
  5
3311
  8
0
  6
CONTINUOUS
 62
     7
 10
23758.184026416649
 20
20520.987440000012
 30
0.0
 40
160.0
  1
758
  0
TEXT
  5
3312
  8
0
  6
CONTINUOUS
 62
     7
 10
21182.850198333319
 20
20520.987440000012
 30
0.0
 40
160.0
  1
407.5
  0
TEXT
  5
3313
  8
0
  6
CONTINUOUS
 62
     7
 10
25763.016468999969
 20
12865.93272060321
 30
0.0
 40
160.0
  1
42.5
 50
90.0
  0
TEXT
  5
3314
  8
0
  6
CONTINUOUS
 62
     7
 10
25763.016468999969
 20
19804.539783396791
 30
0.0
 40
160.0
  1
42.5
 50
90.0
  0
TEXT
  5
3315
  8
0
  6
CONTINUOUS
 62
     7
 10
26163.01646899998
 20
16201.90291866667
 30
0.0
 40
160.0
  1
6271.5
 50
90.0
  0
TEXT
  5
3316
  8
0
  6
CONTINUOUS
 62
     7
 10
25763.016468999969
 20
14716.236252000001
 30
0.0
 40
160.0
  1
3268.5
 50
90.0
  0
TEXT
  5
3317
  8
0
  6
CONTINUOUS
 62
     7
 10
25763.016468999969
 20
17942.819585333331
 30
0.0
 40
160.0
  1
2918
 50
90.0
  0
TEXT
  5
3318
  8
0
  6
CONTINUOUS
 62
     7
 10
25363.016468999969
 20
19076.15291866667
 30
0.0
 40
160.0
  1
758
 50
90.0
  0
TEXT
  5
3319
  8
0
  6
CONTINUOUS
 62
     7
 10
25363.016468999969
 20
18386.652918666659
 30
0.0
 40
160.0
  1
701
 50
90.0
  0
TEXT
  5
331A
  8
0
  6
CONTINUOUS
 62
     7
 10
25363.016468999969
 20
17685.65291866667
 30
0.0
 40
160.0
  1
701
 50
90.0
  0
TEXT
  5
331B
  8
0
  6
CONTINUOUS
 62
     7
 10
25363.016468999969
 20
16916.15291866667
 30
0.0
 40
160.0
  1
758
 50
90.0
  0
TEXT
  5
331C
  8
0
  6
CONTINUOUS
 62
     7
 10
25363.016468999969
 20
16158.15291866667
 30
0.0
 40
160.0
  1
758
 50
90.0
  0
TEXT
  5
331D
  8
0
  6
CONTINUOUS
 62
     7
 10
25363.016468999969
 20
15468.773174416679
 30
0.0
 40
160.0
  1
701
 50
90.0
  0
TEXT
  5
331E
  8
0
  6
CONTINUOUS
 62
     7
 10
25363.016468999969
 20
14767.773174416679
 30
0.0
 40
160.0
  1
701
 50
90.0
  0
TEXT
  5
331F
  8
0
  6
CONTINUOUS
 62
     7
 10
25363.016468999969
 20
14066.65291866667
 30
0.0
 40
160.0
  1
701
 50
90.0
  0
TEXT
  5
3320
  8
0
  6
CONTINUOUS
 62
     7
 10
25723.016468999969
 20
13554.80666620354
 30
0.0
 40
160.0
  1
407.5
 50
90.0
  0
TEXT
  5
3321
  8
0
  6
CONTINUOUS
 62
     7
 10
22316.26686499998
 20
12190.538167999999
 30
0.0
 40
160.0
  1
3353.5
  0
TEXT
  5
3322
  8
0
  6
CONTINUOUS
 62
     7
 10
21200.070537382071
 20
12590.538167999999
 30
0.0
 40
160.0
  1
42.5
  0
TEXT
  5
3323
  8
0
  6
CONTINUOUS
 62
     7
 10
23752.463192617881
 20
12590.538167999999
 30
0.0
 40
160.0
  1
42.5
  0
TEXT
  5
3324
  8
0
  6
CONTINUOUS
 62
     7
 10
24468.570537382071
 20
12590.538167999999
 30
0.0
 40
160.0
  1
42.5
  0
TEXT
  5
3325
  8
0
  6
CONTINUOUS
 62
     7
 10
20483.963192617881
 20
12590.538167999999
 30
0.0
 40
160.0
  1
42.5
  0
TEXT
  5
3326
  8
0
  6
CONTINUOUS
 62
     7
 10
14240.517868000001
 20
5021.1885389999989
 30
0.0
 40
160.0
  1
3268.5
  0
TEXT
  5
3327
  8
0
  6
CONTINUOUS
 62
     7
 10
11280.60120133332
 20
5021.1885389999989
 30
0.0
 40
160.0
  1
2918
  0
TEXT
  5
3328
  8
0
  6
CONTINUOUS
 62
     7
 10
9448.5941589036938
 20
5021.1885389999989
 30
0.0
 40
160.0
  1
42.5
  0
TEXT
  5
3329
  8
0
  6
CONTINUOUS
 62
     7
 10
16455.58650530982
 20
5021.1885389999989
 30
0.0
 40
160.0
  1
42.5
  0
TEXT
  5
332A
  8
0
  6
CONTINUOUS
 62
     7
 10
12808.18453466666
 20
4621.1887040000001
 30
0.0
 40
160.0
  1
6271.5
  0
TEXT
  5
332B
  8
0
  6
CONTINUOUS
 62
     7
 10
8875.767472000005
 20
6541.0217073333351
 30
0.0
 40
160.0
  1
2157（2397）
 50
90.0
  0
TEXT
  5
332C
  8
0
  6
CONTINUOUS
 62
     7
 10
17327.268263999991
 20
6609.8550406666691
 30
0.0
 40
160.0
  1
2348（2588）
 50
90.0
  0
TEXT
  5
332D
  8
0
  6
CONTINUOUS
 62
     7
 10
9452.4345346666632
 20
9469.1900499999956
 30
0.0
 40
160.0
  1
180
  0
TEXT
  5
332E
  8
0
  6
CONTINUOUS
 62
     7
 10
12808.18453466666
 20
9469.1900499999992
 30
0.0
 40
160.0
  1
6271.5
  0
TEXT
  5
332F
  8
0
  6
CONTINUOUS
 62
     7
 10
16533.934534666671
 20
9469.1900499999992
 30
0.0
 40
160.0
  1
150
  0
TEXT
  5
3330
  8
0
  6
CONTINUOUS
 62
     7
 10
12806.517868000001
 20
9869.1883999999955
 30
0.0
 40
160.0
  1
6601.5
  0
TEXT
  5
3331
  8
0
  6
CONTINUOUS
 62
     7
 10
22316.26686499998
 20
4621.1887040000047
 30
0.0
 40
160.0
  1
3353.5
  0
TEXT
  5
3332
  8
0
  6
CONTINUOUS
 62
     7
 10
20473.47787474114
 20
5021.1885390000061
 30
0.0
 40
160.0
  1
42.5
  0
TEXT
  5
3333
  8
0
  6
CONTINUOUS
 62
     7
 10
22316.26686499998
 20
5021.1885390000061
 30
0.0
 40
160.0
  1
3268.5
  0
TEXT
  5
3334
  8
0
  6
CONTINUOUS
 62
     7
 10
21814.93353166664
 20
5421.1885390000061
 30
0.0
 40
160.0
  1
有効開口巾 3080.5
  0
TEXT
  5
3335
  8
0
  6
CONTINUOUS
 62
     7
 10
24479.05585525883
 20
5021.1885390000061
 30
0.0
 40
160.0
  1
42.5
  0
TEXT
  5
333A
  8
0
  6
CONTINUOUS
 62
     7
 10
19752.013235999981
 20
6647.1883870000029
 30
0.0
 40
160.0
  1
2348 (2588)
 50
90.0
  0
TEXT
  5
333B
  8
0
  6
CONTINUOUS
 62
     7
 10
20152.01554499998
 20
6305.1676122912768
 30
0.0
 40
160.0
  1
有効開口高サ 1891.5
 50
90.0
  0
TEXT
  5
333C
  8
0
  6
CONTINUOUS
 62
     7
 10
10095.131274999991
 20
12674.03324170262
 30
0.0
 40
160.0
  1
192.5
 50
90.0
  0
TEXT
  5
333D
  8
0
  6
CONTINUOUS
 62
     7
 10
10095.131274999991
 20
14716.236252000001
 30
0.0
 40
160.0
  1
3268.5
 50
90.0
  0
TEXT
  5
333E
  8
0
  6
CONTINUOUS
 62
     7
 10
10095.131274999991
 20
17942.819585333331
 30
0.0
 40
160.0
  1
2918
 50
90.0
  0
TEXT
  5
333F
  8
0
  6
CONTINUOUS
 62
     7
 10
10095.131274999991
 20
19979.941436807669
 30
0.0
 40
160.0
  1
222.5
 50
90.0
  0
TEXT
  5
3340
  8
0
  6
CONTINUOUS
 62
     7
 10
10495.131274999991
 20
20037.648827666679
 30
0.0
 40
160.0
  1
10
 50
90.0
  0
TEXT
  5
3341
  8
0
  6
CONTINUOUS
 62
     7
 10
12338.885504
 20
20590.995094000002
 30
0.0
 40
160.0
  1
3268.5
  0
TEXT
  5
3342
  8
0
  6
CONTINUOUS
 62
     7
 10
10488.13879797673
 20
20590.995094000002
 30
0.0
 40
160.0
  1
85.5
  0
TEXT
  5
3343
  8
0
  6
CONTINUOUS
 62
     7
 10
14509.63221002325
 20
20590.995094000002
 30
0.0
 40
160.0
  1
85.5
  0
ARC
  5
3349
  8
0
  6
BYBLOCK
 62
     0
 10
14373.135504
 20
20510.995094000002
 30
0.0
 40
15.0
 50
180.0
 51
0.0
  0
ARC
  5
334A
  8
0
  6
BYBLOCK
 62
     0
 10
14373.135504
 20
20510.995094000002
 30
0.0
 40
15.0
 50
0.0
 51
180.0
  0
ARC
  5
334B
  8
0
  6
BYBLOCK
 62
     0
 10
14458.635503999991
 20
20510.995094000002
 30
0.0
 40
15.0
 50
0.0
 51
180.0
  0
ARC
  5
334C
  8
0
  6
BYBLOCK
 62
     0
 10
14458.635503999991
 20
20510.995094000002
 30
0.0
 40
15.0
 50
180.0
 51
0.0
  0
ARC
  5
334D
  8
0
  6
BYBLOCK
 62
     0
 10
11104.635503999991
 20
20510.995094000002
 30
0.0
 40
15.0
 50
0.0
 51
180.0
  0
ARC
  5
334E
  8
0
  6
BYBLOCK
 62
     0
 10
11104.635503999991
 20
20510.995094000002
 30
0.0
 40
15.0
 50
180.0
 51
0.0
  0
ARC
  5
334F
  8
0
  6
BYBLOCK
 62
     0
 10
11019.135504
 20
20510.995094000002
 30
0.0
 40
15.0
 50
180.0
 51
0.0
  0
ARC
  5
3350
  8
0
  6
BYBLOCK
 62
     0
 10
11019.135504
 20
20510.995094000002
 30
0.0
 40
15.0
 50
0.0
 51
180.0
  0
ARC
  5
3351
  8
0
  6
BYBLOCK
 62
     0
 10
14373.135504
 20
20510.995094000002
 30
0.0
 40
15.0
 50
180.0
 51
0.0
  0
ARC
  5
3352
  8
0
  6
BYBLOCK
 62
     0
 10
14373.135504
 20
20510.995094000002
 30
0.0
 40
15.0
 50
0.0
 51
180.0
  0
ARC
  5
3353
  8
0
  6
BYBLOCK
 62
     0
 10
11104.635503999991
 20
20510.995094000002
 30
0.0
 40
15.0
 50
0.0
 51
180.0
  0
ARC
  5
3354
  8
0
  6
BYBLOCK
 62
     0
 10
11104.635503999991
 20
20510.995094000002
 30
0.0
 40
15.0
 50
180.0
 51
0.0
  0
ARC
  5
3355
  8
0
  6
BYBLOCK
 62
     0
 10
10575.131274999991
 20
19880.982161
 30
0.0
 40
15.0
 50
270.0
 51
90.0
  0
ARC
  5
3356
  8
0
  6
BYBLOCK
 62
     0
 10
10575.131274999991
 20
19880.982161
 30
0.0
 40
15.0
 50
90.0
 51
270.0
  0
ARC
  5
3357
  8
0
  6
BYBLOCK
 62
     0
 10
10575.131274999991
 20
19890.982161000022
 30
0.0
 40
15.0
 50
90.0
 51
270.0
  0
ARC
  5
3358
  8
0
  6
BYBLOCK
 62
     0
 10
10575.131274999991
 20
19890.982161000022
 30
0.0
 40
15.0
 50
270.0
 51
90.0
  0
ARC
  5
3359
  8
0
  6
BYBLOCK
 62
     0
 10
10175.131274999991
 20
19668.486251999992
 30
0.0
 40
15.0
 50
270.0
 51
90.0
  0
ARC
  5
335A
  8
0
  6
BYBLOCK
 62
     0
 10
10175.131274999991
 20
19668.486251999992
 30
0.0
 40
15.0
 50
90.0
 51
270.0
  0
ARC
  5
335B
  8
0
  6
BYBLOCK
 62
     0
 10
10175.131274999991
 20
19890.982161000022
 30
0.0
 40
15.0
 50
90.0
 51
270.0
  0
ARC
  5
335C
  8
0
  6
BYBLOCK
 62
     0
 10
10175.131274999991
 20
19890.982161000022
 30
0.0
 40
15.0
 50
270.0
 51
90.0
  0
ARC
  5
335D
  8
0
  6
BYBLOCK
 62
     0
 10
10175.131274999991
 20
16750.486251999992
 30
0.0
 40
15.0
 50
90.0
 51
270.0
  0
ARC
  5
335E
  8
0
  6
BYBLOCK
 62
     0
 10
10175.131274999991
 20
16750.486251999992
 30
0.0
 40
15.0
 50
270.0
 51
90.0
  0
ARC
  5
335F
  8
0
  6
BYBLOCK
 62
     0
 10
10175.131274999991
 20
19668.486251999992
 30
0.0
 40
15.0
 50
270.0
 51
90.0
  0
ARC
  5
3360
  8
0
  6
BYBLOCK
 62
     0
 10
10175.131274999991
 20
19668.486251999992
 30
0.0
 40
15.0
 50
90.0
 51
270.0
  0
ARC
  5
3361
  8
0
  6
BYBLOCK
 62
     0
 10
10175.131274999991
 20
13481.986252000001
 30
0.0
 40
15.0
 50
90.0
 51
270.0
  0
ARC
  5
3362
  8
0
  6
BYBLOCK
 62
     0
 10
10175.131274999991
 20
13481.986252000001
 30
0.0
 40
15.0
 50
270.0
 51
90.0
  0
ARC
  5
3363
  8
0
  6
BYBLOCK
 62
     0
 10
10175.131274999991
 20
16750.486251999992
 30
0.0
 40
15.0
 50
270.0
 51
90.0
  0
ARC
  5
3364
  8
0
  6
BYBLOCK
 62
     0
 10
10175.131274999991
 20
16750.486251999992
 30
0.0
 40
15.0
 50
90.0
 51
270.0
  0
ARC
  5
3365
  8
0
  6
BYBLOCK
 62
     0
 10
10175.131274999991
 20
13481.986252000001
 30
0.0
 40
15.0
 50
90.0
 51
270.0
  0
ARC
  5
3366
  8
0
  6
BYBLOCK
 62
     0
 10
10175.131274999991
 20
13481.986252000001
 30
0.0
 40
15.0
 50
270.0
 51
90.0
  0
ARC
  5
3367
  8
0
  6
BYBLOCK
 62
     0
 10
10175.131274999991
 20
13289.490937
 30
0.0
 40
15.0
 50
270.0
 51
90.0
  0
ARC
  5
3368
  8
0
  6
BYBLOCK
 62
     0
 10
10175.131274999991
 20
13289.490937
 30
0.0
 40
15.0
 50
90.0
 51
270.0
  0
ARC
  5
3369
  8
0
  6
BYBLOCK
 62
     0
 10
20232.015544999991
 20
6241.1883740000012
 30
0.0
 40
15.0
 50
90.0
 51
270.0
  0
ARC
  5
336A
  8
0
  6
BYBLOCK
 62
     0
 10
20232.015544999991
 20
6241.1883740000012
 30
0.0
 40
15.0
 50
270.0
 51
90.0
  0
ARC
  5
336B
  8
0
  6
BYBLOCK
 62
     0
 10
20232.015544999991
 20
8132.6883740000021
 30
0.0
 40
15.0
 50
270.0
 51
90.0
  0
ARC
  5
336C
  8
0
  6
BYBLOCK
 62
     0
 10
20232.015544999991
 20
8132.6883740000021
 30
0.0
 40
15.0
 50
90.0
 51
270.0
  0
ARC
  5
336D
  8
0
  6
BYBLOCK
 62
     0
 10
19832.013235999981
 20
6241.1883740000012
 30
0.0
 40
15.0
 50
90.0
 51
270.0
  0
ARC
  5
336E
  8
0
  6
BYBLOCK
 62
     0
 10
19832.013235999981
 20
6241.1883740000012
 30
0.0
 40
15.0
 50
270.0
 51
90.0
  0
ARC
  5
336F
  8
0
  6
BYBLOCK
 62
     0
 10
19832.013235999981
 20
8589.1883999999973
 30
0.0
 40
15.0
 50
270.0
 51
90.0
  0
ARC
  5
3370
  8
0
  6
BYBLOCK
 62
     0
 10
19832.013235999981
 20
8589.1883999999973
 30
0.0
 40
15.0
 50
90.0
 51
270.0
  0
ARC
  5
3381
  8
0
  6
BYBLOCK
 62
     0
 10
24350.51686499998
 20
4941.1885390000061
 30
0.0
 40
15.0
 50
180.0
 51
0.0
  0
ARC
  5
3382
  8
0
  6
BYBLOCK
 62
     0
 10
24350.51686499998
 20
4941.1885390000061
 30
0.0
 40
15.0
 50
0.0
 51
180.0
  0
ARC
  5
3383
  8
0
  6
BYBLOCK
 62
     0
 10
24393.016864999991
 20
4941.1885390000061
 30
0.0
 40
15.0
 50
0.0
 51
180.0
  0
ARC
  5
3384
  8
0
  6
BYBLOCK
 62
     0
 10
24393.016864999991
 20
4941.1885390000061
 30
0.0
 40
15.0
 50
180.0
 51
0.0
  0
ARC
  5
3385
  8
0
  6
BYBLOCK
 62
     0
 10
21176.01686499998
 20
5341.1885390000079
 30
0.0
 40
15.0
 50
0.0
 51
180.0
  0
ARC
  5
3386
  8
0
  6
BYBLOCK
 62
     0
 10
21176.01686499998
 20
5341.1885390000079
 30
0.0
 40
15.0
 50
180.0
 51
0.0
  0
ARC
  5
3387
  8
0
  6
BYBLOCK
 62
     0
 10
24256.516864999969
 20
5341.1885390000079
 30
0.0
 40
15.0
 50
180.0
 51
0.0
  0
ARC
  5
3388
  8
0
  6
BYBLOCK
 62
     0
 10
24256.516864999969
 20
5341.1885390000079
 30
0.0
 40
15.0
 50
0.0
 51
180.0
  0
ARC
  5
3389
  8
0
  6
BYBLOCK
 62
     0
 10
21082.016864999969
 20
4941.1885390000061
 30
0.0
 40
15.0
 50
0.0
 51
180.0
  0
ARC
  5
338A
  8
0
  6
BYBLOCK
 62
     0
 10
21082.016864999969
 20
4941.1885390000061
 30
0.0
 40
15.0
 50
180.0
 51
0.0
  0
ARC
  5
338B
  8
0
  6
BYBLOCK
 62
     0
 10
24350.51686499998
 20
4941.1885390000061
 30
0.0
 40
15.0
 50
180.0
 51
0.0
  0
ARC
  5
338C
  8
0
  6
BYBLOCK
 62
     0
 10
24350.51686499998
 20
4941.1885390000061
 30
0.0
 40
15.0
 50
0.0
 51
180.0
  0
ARC
  5
338D
  8
0
  6
BYBLOCK
 62
     0
 10
21082.016864999969
 20
4941.1885390000061
 30
0.0
 40
15.0
 50
0.0
 51
180.0
  0
ARC
  5
338E
  8
0
  6
BYBLOCK
 62
     0
 10
21082.016864999969
 20
4941.1885390000061
 30
0.0
 40
15.0
 50
180.0
 51
0.0
  0
ARC
  5
338F
  8
0
  6
BYBLOCK
 62
     0
 10
21039.51686499998
 20
4941.1885390000061
 30
0.0
 40
15.0
 50
180.0
 51
0.0
  0
ARC
  5
3390
  8
0
  6
BYBLOCK
 62
     0
 10
21039.51686499998
 20
4941.1885390000061
 30
0.0
 40
15.0
 50
0.0
 51
180.0
  0
ARC
  5
3391
  8
0
  6
BYBLOCK
 62
     0
 10
21039.51686499998
 20
4541.1887040000038
 30
0.0
 40
15.0
 50
0.0
 51
180.0
  0
ARC
  5
3392
  8
0
  6
BYBLOCK
 62
     0
 10
21039.51686499998
 20
4541.1887040000038
 30
0.0
 40
15.0
 50
180.0
 51
0.0
  0
ARC
  5
3393
  8
0
  6
BYBLOCK
 62
     0
 10
24393.016864999991
 20
4541.1887040000038
 30
0.0
 40
15.0
 50
180.0
 51
0.0
  0
ARC
  5
3394
  8
0
  6
BYBLOCK
 62
     0
 10
24393.016864999991
 20
4541.1887040000038
 30
0.0
 40
15.0
 50
0.0
 51
180.0
  0
ARC
  5
3395
  8
0
  6
BYBLOCK
 62
     0
 10
9865.7678679999972
 20
9789.1883999999955
 30
0.0
 40
15.0
 50
0.0
 51
180.0
  0
ARC
  5
3396
  8
0
  6
BYBLOCK
 62
     0
 10
9865.7678679999972
 20
9789.1883999999955
 30
0.0
 40
15.0
 50
180.0
 51
0.0
  0
ARC
  5
3397
  8
0
  6
BYBLOCK
 62
     0
 10
16467.267867999992
 20
9789.1883999999955
 30
0.0
 40
15.0
 50
180.0
 51
0.0
  0
ARC
  5
3398
  8
0
  6
BYBLOCK
 62
     0
 10
16467.267867999992
 20
9789.1883999999955
 30
0.0
 40
15.0
 50
0.0
 51
180.0
  0
ARC
  5
3399
  8
0
  6
BYBLOCK
 62
     0
 10
16317.267868000001
 20
9389.1900499999992
 30
0.0
 40
15.0
 50
180.0
 51
0.0
  0
ARC
  5
339A
  8
0
  6
BYBLOCK
 62
     0
 10
16317.267868000001
 20
9389.1900499999992
 30
0.0
 40
15.0
 50
0.0
 51
180.0
  0
ARC
  5
339B
  8
0
  6
BYBLOCK
 62
     0
 10
16467.267867999992
 20
9389.1900499999992
 30
0.0
 40
15.0
 50
0.0
 51
180.0
  0
ARC
  5
339C
  8
0
  6
BYBLOCK
 62
     0
 10
16467.267867999992
 20
9389.1900499999992
 30
0.0
 40
15.0
 50
180.0
 51
0.0
  0
ARC
  5
339D
  8
0
  6
BYBLOCK
 62
     0
 10
10045.767868000001
 20
9389.1900499999992
 30
0.0
 40
15.0
 50
0.0
 51
180.0
  0
ARC
  5
339E
  8
0
  6
BYBLOCK
 62
     0
 10
10045.767868000001
 20
9389.1900499999992
 30
0.0
 40
15.0
 50
180.0
 51
0.0
  0
ARC
  5
339F
  8
0
  6
BYBLOCK
 62
     0
 10
16317.267868000001
 20
9389.1900499999992
 30
0.0
 40
15.0
 50
180.0
 51
0.0
  0
ARC
  5
33A0
  8
0
  6
BYBLOCK
 62
     0
 10
16317.267868000001
 20
9389.1900499999992
 30
0.0
 40
15.0
 50
0.0
 51
180.0
  0
ARC
  5
33A1
  8
0
  6
BYBLOCK
 62
     0
 10
9865.7678679999972
 20
9389.1900499999956
 30
0.0
 40
15.0
 50
180.0
 51
0.0
  0
ARC
  5
33A2
  8
0
  6
BYBLOCK
 62
     0
 10
9865.7678679999972
 20
9389.1900499999956
 30
0.0
 40
15.0
 50
0.0
 51
180.0
  0
ARC
  5
33A3
  8
0
  6
BYBLOCK
 62
     0
 10
10045.767868000001
 20
9389.1900499999956
 30
0.0
 40
15.0
 50
0.0
 51
180.0
  0
ARC
  5
33A4
  8
0
  6
BYBLOCK
 62
     0
 10
10045.767868000001
 20
9389.1900499999956
 30
0.0
 40
15.0
 50
180.0
 51
0.0
  0
ARC
  5
33A5
  8
0
  6
BYBLOCK
 62
     0
 10
17407.268263999991
 20
6241.1883740000012
 30
0.0
 40
15.0
 50
90.0
 51
270.0
  0
ARC
  5
33A6
  8
0
  6
BYBLOCK
 62
     0
 10
17407.268263999991
 20
6241.1883740000012
 30
0.0
 40
15.0
 50
270.0
 51
90.0
  0
ARC
  5
33A7
  8
0
  6
BYBLOCK
 62
     0
 10
17407.268263999991
 20
8589.1883739999994
 30
0.0
 40
15.0
 50
270.0
 51
90.0
  0
ARC
  5
33A8
  8
0
  6
BYBLOCK
 62
     0
 10
17407.268263999991
 20
8589.1883739999994
 30
0.0
 40
15.0
 50
90.0
 51
270.0
  0
ARC
  5
33A9
  8
0
  6
BYBLOCK
 62
     0
 10
8955.7674720000032
 20
6241.1883740000012
 30
0.0
 40
15.0
 50
90.0
 51
270.0
  0
ARC
  5
33AA
  8
0
  6
BYBLOCK
 62
     0
 10
8955.7674720000032
 20
6241.1883740000012
 30
0.0
 40
15.0
 50
270.0
 51
90.0
  0
ARC
  5
33AB
  8
0
  6
BYBLOCK
 62
     0
 10
8955.7674720000032
 20
8398.188374000003
 30
0.0
 40
15.0
 50
270.0
 51
90.0
  0
ARC
  5
33AC
  8
0
  6
BYBLOCK
 62
     0
 10
8955.7674720000032
 20
8398.188374000003
 30
0.0
 40
15.0
 50
90.0
 51
270.0
  0
ARC
  5
33AD
  8
0
  6
BYBLOCK
 62
     0
 10
10045.767868000001
 20
4541.1887040000001
 30
0.0
 40
15.0
 50
0.0
 51
180.0
  0
ARC
  5
33AE
  8
0
  6
BYBLOCK
 62
     0
 10
10045.767868000001
 20
4541.1887040000001
 30
0.0
 40
15.0
 50
180.0
 51
0.0
  0
ARC
  5
33AF
  8
0
  6
BYBLOCK
 62
     0
 10
16317.267868000001
 20
4541.1887040000001
 30
0.0
 40
15.0
 50
180.0
 51
0.0
  0
ARC
  5
33B0
  8
0
  6
BYBLOCK
 62
     0
 10
16317.267868000001
 20
4541.1887040000001
 30
0.0
 40
15.0
 50
0.0
 51
180.0
  0
ARC
  5
33B1
  8
0
  6
BYBLOCK
 62
     0
 10
16274.767868000001
 20
4941.1885389999979
 30
0.0
 40
15.0
 50
180.0
 51
0.0
  0
ARC
  5
33B2
  8
0
  6
BYBLOCK
 62
     0
 10
16274.767868000001
 20
4941.1885389999979
 30
0.0
 40
15.0
 50
0.0
 51
180.0
  0
ARC
  5
33B3
  8
0
  6
BYBLOCK
 62
     0
 10
16317.267868000001
 20
4941.1885389999979
 30
0.0
 40
15.0
 50
0.0
 51
180.0
  0
ARC
  5
33B4
  8
0
  6
BYBLOCK
 62
     0
 10
16317.267868000001
 20
4941.1885389999979
 30
0.0
 40
15.0
 50
180.0
 51
0.0
  0
ARC
  5
33B5
  8
0
  6
BYBLOCK
 62
     0
 10
10088.267868000001
 20
4941.1885389999979
 30
0.0
 40
15.0
 50
0.0
 51
180.0
  0
ARC
  5
33B6
  8
0
  6
BYBLOCK
 62
     0
 10
10088.267868000001
 20
4941.1885389999979
 30
0.0
 40
15.0
 50
180.0
 51
0.0
  0
ARC
  5
33B7
  8
0
  6
BYBLOCK
 62
     0
 10
10045.767868000001
 20
4941.1885389999979
 30
0.0
 40
15.0
 50
180.0
 51
0.0
  0
ARC
  5
33B8
  8
0
  6
BYBLOCK
 62
     0
 10
10045.767868000001
 20
4941.1885389999979
 30
0.0
 40
15.0
 50
0.0
 51
180.0
  0
ARC
  5
33B9
  8
0
  6
BYBLOCK
 62
     0
 10
13006.267868000001
 20
4941.1885389999979
 30
0.0
 40
15.0
 50
180.0
 51
0.0
  0
ARC
  5
33BA
  8
0
  6
BYBLOCK
 62
     0
 10
13006.267868000001
 20
4941.1885389999979
 30
0.0
 40
15.0
 50
0.0
 51
180.0
  0
ARC
  5
33BB
  8
0
  6
BYBLOCK
 62
     0
 10
10088.267868000001
 20
4941.1885389999979
 30
0.0
 40
15.0
 50
0.0
 51
180.0
  0
ARC
  5
33BC
  8
0
  6
BYBLOCK
 62
     0
 10
10088.267868000001
 20
4941.1885389999979
 30
0.0
 40
15.0
 50
180.0
 51
0.0
  0
ARC
  5
33BD
  8
0
  6
BYBLOCK
 62
     0
 10
13006.267868000001
 20
4941.1885389999979
 30
0.0
 40
15.0
 50
0.0
 51
180.0
  0
ARC
  5
33BE
  8
0
  6
BYBLOCK
 62
     0
 10
13006.267868000001
 20
4941.1885389999979
 30
0.0
 40
15.0
 50
180.0
 51
0.0
  0
ARC
  5
33BF
  8
0
  6
BYBLOCK
 62
     0
 10
16274.767868000001
 20
4941.1885389999979
 30
0.0
 40
15.0
 50
180.0
 51
0.0
  0
ARC
  5
33C0
  8
0
  6
BYBLOCK
 62
     0
 10
16274.767868000001
 20
4941.1885389999979
 30
0.0
 40
15.0
 50
0.0
 51
180.0
  0
ARC
  5
33C1
  8
0
  6
BYBLOCK
 62
     0
 10
21082.016864999969
 20
12510.538167999999
 30
0.0
 40
15.0
 50
0.0
 51
180.0
  0
ARC
  5
33C2
  8
0
  6
BYBLOCK
 62
     0
 10
21082.016864999969
 20
12510.538167999999
 30
0.0
 40
15.0
 50
180.0
 51
0.0
  0
ARC
  5
33C3
  8
0
  6
BYBLOCK
 62
     0
 10
21039.514621999992
 20
12510.538167999999
 30
0.0
 40
15.0
 50
180.0
 51
0.0
  0
ARC
  5
33C4
  8
0
  6
BYBLOCK
 62
     0
 10
21039.514621999992
 20
12510.538167999999
 30
0.0
 40
15.0
 50
0.0
 51
180.0
  0
ARC
  5
33C5
  8
0
  6
BYBLOCK
 62
     0
 10
24350.51686499998
 20
12510.538167999999
 30
0.0
 40
15.0
 50
180.0
 51
0.0
  0
ARC
  5
33C6
  8
0
  6
BYBLOCK
 62
     0
 10
24350.51686499998
 20
12510.538167999999
 30
0.0
 40
15.0
 50
0.0
 51
180.0
  0
ARC
  5
33C7
  8
0
  6
BYBLOCK
 62
     0
 10
24393.019107999971
 20
12510.538167999999
 30
0.0
 40
15.0
 50
0.0
 51
180.0
  0
ARC
  5
33C8
  8
0
  6
BYBLOCK
 62
     0
 10
24393.019107999971
 20
12510.538167999999
 30
0.0
 40
15.0
 50
180.0
 51
0.0
  0
ARC
  5
33C9
  8
0
  6
BYBLOCK
 62
     0
 10
24350.51686499998
 20
12510.538167999999
 30
0.0
 40
15.0
 50
0.0
 51
180.0
  0
ARC
  5
33CA
  8
0
  6
BYBLOCK
 62
     0
 10
24350.51686499998
 20
12510.538167999999
 30
0.0
 40
15.0
 50
180.0
 51
0.0
  0
ARC
  5
33CB
  8
0
  6
BYBLOCK
 62
     0
 10
24308.014621999981
 20
12510.538167999999
 30
0.0
 40
15.0
 50
180.0
 51
0.0
  0
ARC
  5
33CC
  8
0
  6
BYBLOCK
 62
     0
 10
24308.014621999981
 20
12510.538167999999
 30
0.0
 40
15.0
 50
0.0
 51
180.0
  0
ARC
  5
33CD
  8
0
  6
BYBLOCK
 62
     0
 10
21082.016864999969
 20
12510.538167999999
 30
0.0
 40
15.0
 50
180.0
 51
0.0
  0
ARC
  5
33CE
  8
0
  6
BYBLOCK
 62
     0
 10
21082.016864999969
 20
12510.538167999999
 30
0.0
 40
15.0
 50
0.0
 51
180.0
  0
ARC
  5
33CF
  8
0
  6
BYBLOCK
 62
     0
 10
21124.519107999971
 20
12510.538167999999
 30
0.0
 40
15.0
 50
0.0
 51
180.0
  0
ARC
  5
33D0
  8
0
  6
BYBLOCK
 62
     0
 10
21124.519107999971
 20
12510.538167999999
 30
0.0
 40
15.0
 50
180.0
 51
0.0
  0
ARC
  5
33D1
  8
0
  6
BYBLOCK
 62
     0
 10
21039.514621999992
 20
12110.538167999999
 30
0.0
 40
15.0
 50
0.0
 51
180.0
  0
ARC
  5
33D2
  8
0
  6
BYBLOCK
 62
     0
 10
21039.514621999992
 20
12110.538167999999
 30
0.0
 40
15.0
 50
180.0
 51
0.0
  0
ARC
  5
33D3
  8
0
  6
BYBLOCK
 62
     0
 10
24393.019107999971
 20
12110.538167999999
 30
0.0
 40
15.0
 50
180.0
 51
0.0
  0
ARC
  5
33D4
  8
0
  6
BYBLOCK
 62
     0
 10
24393.019107999971
 20
12110.538167999999
 30
0.0
 40
15.0
 50
0.0
 51
180.0
  0
ARC
  5
33D5
  8
0
  6
BYBLOCK
 62
     0
 10
25443.016468999969
 20
13889.486252000001
 30
0.0
 40
15.0
 50
270.0
 51
90.0
  0
ARC
  5
33D6
  8
0
  6
BYBLOCK
 62
     0
 10
25443.016468999969
 20
13889.486252000001
 30
0.0
 40
15.0
 50
90.0
 51
270.0
  0
ARC
  5
33D7
  8
0
  6
BYBLOCK
 62
     0
 10
25443.016468999969
 20
13481.986252000001
 30
0.0
 40
15.0
 50
90.0
 51
270.0
  0
ARC
  5
33D8
  8
0
  6
BYBLOCK
 62
     0
 10
25443.016468999969
 20
13481.986252000001
 30
0.0
 40
15.0
 50
270.0
 51
90.0
  0
ARC
  5
33D9
  8
0
  6
BYBLOCK
 62
     0
 10
25443.016468999969
 20
14590.486252000001
 30
0.0
 40
15.0
 50
270.0
 51
90.0
  0
ARC
  5
33DA
  8
0
  6
BYBLOCK
 62
     0
 10
25443.016468999969
 20
14590.486252000001
 30
0.0
 40
15.0
 50
90.0
 51
270.0
  0
ARC
  5
33DB
  8
0
  6
BYBLOCK
 62
     0
 10
25443.016468999969
 20
13889.486252000001
 30
0.0
 40
15.0
 50
90.0
 51
270.0
  0
ARC
  5
33DC
  8
0
  6
BYBLOCK
 62
     0
 10
25443.016468999969
 20
13889.486252000001
 30
0.0
 40
15.0
 50
270.0
 51
90.0
  0
ARC
  5
33DD
  8
0
  6
BYBLOCK
 62
     0
 10
25443.016468999969
 20
15291.72676350001
 30
0.0
 40
15.0
 50
270.0
 51
90.0
  0
ARC
  5
33DE
  8
0
  6
BYBLOCK
 62
     0
 10
25443.016468999969
 20
15291.72676350001
 30
0.0
 40
15.0
 50
90.0
 51
270.0
  0
ARC
  5
33DF
  8
0
  6
BYBLOCK
 62
     0
 10
25443.016468999969
 20
14590.486252000001
 30
0.0
 40
15.0
 50
90.0
 51
270.0
  0
ARC
  5
33E0
  8
0
  6
BYBLOCK
 62
     0
 10
25443.016468999969
 20
14590.486252000001
 30
0.0
 40
15.0
 50
270.0
 51
90.0
  0
ARC
  5
33E1
  8
0
  6
BYBLOCK
 62
     0
 10
25443.016468999969
 20
15992.486252000001
 30
0.0
 40
15.0
 50
270.0
 51
90.0
  0
ARC
  5
33E2
  8
0
  6
BYBLOCK
 62
     0
 10
25443.016468999969
 20
15992.486252000001
 30
0.0
 40
15.0
 50
90.0
 51
270.0
  0
ARC
  5
33E3
  8
0
  6
BYBLOCK
 62
     0
 10
25443.016468999969
 20
15291.72676350001
 30
0.0
 40
15.0
 50
90.0
 51
270.0
  0
ARC
  5
33E4
  8
0
  6
BYBLOCK
 62
     0
 10
25443.016468999969
 20
15291.72676350001
 30
0.0
 40
15.0
 50
270.0
 51
90.0
  0
ARC
  5
33E5
  8
0
  6
BYBLOCK
 62
     0
 10
25443.016468999969
 20
16750.486251999992
 30
0.0
 40
15.0
 50
270.0
 51
90.0
  0
ARC
  5
33E6
  8
0
  6
BYBLOCK
 62
     0
 10
25443.016468999969
 20
16750.486251999992
 30
0.0
 40
15.0
 50
90.0
 51
270.0
  0
ARC
  5
33E7
  8
0
  6
BYBLOCK
 62
     0
 10
25443.016468999969
 20
15992.486252000001
 30
0.0
 40
15.0
 50
90.0
 51
270.0
  0
ARC
  5
33E8
  8
0
  6
BYBLOCK
 62
     0
 10
25443.016468999969
 20
15992.486252000001
 30
0.0
 40
15.0
 50
270.0
 51
90.0
  0
ARC
  5
33E9
  8
0
  6
BYBLOCK
 62
     0
 10
25443.016468999969
 20
17508.486251999992
 30
0.0
 40
15.0
 50
270.0
 51
90.0
  0
ARC
  5
33EA
  8
0
  6
BYBLOCK
 62
     0
 10
25443.016468999969
 20
17508.486251999992
 30
0.0
 40
15.0
 50
90.0
 51
270.0
  0
ARC
  5
33EB
  8
0
  6
BYBLOCK
 62
     0
 10
25443.016468999969
 20
16750.486251999992
 30
0.0
 40
15.0
 50
90.0
 51
270.0
  0
ARC
  5
33EC
  8
0
  6
BYBLOCK
 62
     0
 10
25443.016468999969
 20
16750.486251999992
 30
0.0
 40
15.0
 50
270.0
 51
90.0
  0
ARC
  5
33ED
  8
0
  6
BYBLOCK
 62
     0
 10
25443.016468999969
 20
18209.486251999992
 30
0.0
 40
15.0
 50
270.0
 51
90.0
  0
ARC
  5
33EE
  8
0
  6
BYBLOCK
 62
     0
 10
25443.016468999969
 20
18209.486251999992
 30
0.0
 40
15.0
 50
90.0
 51
270.0
  0
ARC
  5
33EF
  8
0
  6
BYBLOCK
 62
     0
 10
25443.016468999969
 20
17508.486251999992
 30
0.0
 40
15.0
 50
90.0
 51
270.0
  0
ARC
  5
33F0
  8
0
  6
BYBLOCK
 62
     0
 10
25443.016468999969
 20
17508.486251999992
 30
0.0
 40
15.0
 50
270.0
 51
90.0
  0
ARC
  5
33F1
  8
0
  6
BYBLOCK
 62
     0
 10
25443.016468999969
 20
18910.486251999992
 30
0.0
 40
15.0
 50
270.0
 51
90.0
  0
ARC
  5
33F2
  8
0
  6
BYBLOCK
 62
     0
 10
25443.016468999969
 20
18910.486251999992
 30
0.0
 40
15.0
 50
90.0
 51
270.0
  0
ARC
  5
33F3
  8
0
  6
BYBLOCK
 62
     0
 10
25443.016468999969
 20
18209.486251999992
 30
0.0
 40
15.0
 50
90.0
 51
270.0
  0
ARC
  5
33F4
  8
0
  6
BYBLOCK
 62
     0
 10
25443.016468999969
 20
18209.486251999992
 30
0.0
 40
15.0
 50
270.0
 51
90.0
  0
ARC
  5
33F5
  8
0
  6
BYBLOCK
 62
     0
 10
25443.016468999969
 20
19668.486251999992
 30
0.0
 40
15.0
 50
270.0
 51
90.0
  0
ARC
  5
33F6
  8
0
  6
BYBLOCK
 62
     0
 10
25443.016468999969
 20
19668.486251999992
 30
0.0
 40
15.0
 50
90.0
 51
270.0
  0
ARC
  5
33F7
  8
0
  6
BYBLOCK
 62
     0
 10
25443.016468999969
 20
18910.486251999992
 30
0.0
 40
15.0
 50
90.0
 51
270.0
  0
ARC
  5
33F8
  8
0
  6
BYBLOCK
 62
     0
 10
25443.016468999969
 20
18910.486251999992
 30
0.0
 40
15.0
 50
270.0
 51
90.0
  0
ARC
  5
33F9
  8
0
  6
BYBLOCK
 62
     0
 10
25843.016468999969
 20
16750.486251999992
 30
0.0
 40
15.0
 50
90.0
 51
270.0
  0
ARC
  5
33FA
  8
0
  6
BYBLOCK
 62
     0
 10
25843.016468999969
 20
16750.486251999992
 30
0.0
 40
15.0
 50
270.0
 51
90.0
  0
ARC
  5
33FB
  8
0
  6
BYBLOCK
 62
     0
 10
25843.016468999969
 20
19668.486251999992
 30
0.0
 40
15.0
 50
270.0
 51
90.0
  0
ARC
  5
33FC
  8
0
  6
BYBLOCK
 62
     0
 10
25843.016468999969
 20
19668.486251999992
 30
0.0
 40
15.0
 50
90.0
 51
270.0
  0
ARC
  5
33FD
  8
0
  6
BYBLOCK
 62
     0
 10
25843.016468999969
 20
13481.986252000001
 30
0.0
 40
15.0
 50
90.0
 51
270.0
  0
ARC
  5
33FE
  8
0
  6
BYBLOCK
 62
     0
 10
25843.016468999969
 20
13481.986252000001
 30
0.0
 40
15.0
 50
270.0
 51
90.0
  0
ARC
  5
33FF
  8
0
  6
BYBLOCK
 62
     0
 10
25843.016468999969
 20
16750.486251999992
 30
0.0
 40
15.0
 50
270.0
 51
90.0
  0
ARC
  5
3400
  8
0
  6
BYBLOCK
 62
     0
 10
25843.016468999969
 20
16750.486251999992
 30
0.0
 40
15.0
 50
90.0
 51
270.0
  0
ARC
  5
3401
  8
0
  6
BYBLOCK
 62
     0
 10
26243.01646899998
 20
19710.983546999982
 30
0.0
 40
15.0
 50
270.0
 51
90.0
  0
ARC
  5
3402
  8
0
  6
BYBLOCK
 62
     0
 10
26243.01646899998
 20
19710.983546999982
 30
0.0
 40
15.0
 50
90.0
 51
270.0
  0
ARC
  5
3403
  8
0
  6
BYBLOCK
 62
     0
 10
26243.01646899998
 20
13439.488957
 30
0.0
 40
15.0
 50
90.0
 51
270.0
  0
ARC
  5
3404
  8
0
  6
BYBLOCK
 62
     0
 10
26243.01646899998
 20
13439.488957
 30
0.0
 40
15.0
 50
270.0
 51
90.0
  0
ARC
  5
3405
  8
0
  6
BYBLOCK
 62
     0
 10
25843.016468999969
 20
19668.486251999992
 30
0.0
 40
15.0
 50
270.0
 51
90.0
  0
ARC
  5
3406
  8
0
  6
BYBLOCK
 62
     0
 10
25843.016468999969
 20
19668.486251999992
 30
0.0
 40
15.0
 50
90.0
 51
270.0
  0
ARC
  5
3407
  8
0
  6
BYBLOCK
 62
     0
 10
25843.016468999969
 20
19710.983546999982
 30
0.0
 40
15.0
 50
90.0
 51
270.0
  0
ARC
  5
3408
  8
0
  6
BYBLOCK
 62
     0
 10
25843.016468999969
 20
19710.983546999982
 30
0.0
 40
15.0
 50
270.0
 51
90.0
  0
ARC
  5
3409
  8
0
  6
BYBLOCK
 62
     0
 10
25843.016468999969
 20
13481.986252000001
 30
0.0
 40
15.0
 50
90.0
 51
270.0
  0
ARC
  5
340A
  8
0
  6
BYBLOCK
 62
     0
 10
25843.016468999969
 20
13481.986252000001
 30
0.0
 40
15.0
 50
270.0
 51
90.0
  0
ARC
  5
340B
  8
0
  6
BYBLOCK
 62
     0
 10
25843.016468999969
 20
13439.488957
 30
0.0
 40
15.0
 50
270.0
 51
90.0
  0
ARC
  5
340C
  8
0
  6
BYBLOCK
 62
     0
 10
25843.016468999969
 20
13439.488957
 30
0.0
 40
15.0
 50
90.0
 51
270.0
  0
ARC
  5
340D
  8
0
  6
BYBLOCK
 62
     0
 10
21082.016864999969
 20
20440.987440000012
 30
0.0
 40
15.0
 50
180.0
 51
0.0
  0
ARC
  5
340E
  8
0
  6
BYBLOCK
 62
     0
 10
21082.016864999969
 20
20440.987440000012
 30
0.0
 40
15.0
 50
0.0
 51
180.0
  0
ARC
  5
340F
  8
0
  6
BYBLOCK
 62
     0
 10
21489.51686499998
 20
20440.987440000012
 30
0.0
 40
15.0
 50
0.0
 51
180.0
  0
ARC
  5
3410
  8
0
  6
BYBLOCK
 62
     0
 10
21489.51686499998
 20
20440.987440000012
 30
0.0
 40
15.0
 50
180.0
 51
0.0
  0
ARC
  5
3411
  8
0
  6
BYBLOCK
 62
     0
 10
23592.516864999991
 20
20440.987440000012
 30
0.0
 40
15.0
 50
0.0
 51
180.0
  0
ARC
  5
3412
  8
0
  6
BYBLOCK
 62
     0
 10
23592.516864999991
 20
20440.987440000012
 30
0.0
 40
15.0
 50
180.0
 51
0.0
  0
ARC
  5
3413
  8
0
  6
BYBLOCK
 62
     0
 10
24350.517854499991
 20
20440.987440000012
 30
0.0
 40
15.0
 50
180.0
 51
0.0
  0
ARC
  5
3414
  8
0
  6
BYBLOCK
 62
     0
 10
24350.517854499991
 20
20440.987440000012
 30
0.0
 40
15.0
 50
0.0
 51
180.0
  0
ARC
  5
3415
  8
0
  6
BYBLOCK
 62
     0
 10
22891.516864999991
 20
20440.987440000012
 30
0.0
 40
15.0
 50
0.0
 51
180.0
  0
ARC
  5
3416
  8
0
  6
BYBLOCK
 62
     0
 10
22891.516864999991
 20
20440.987440000012
 30
0.0
 40
15.0
 50
180.0
 51
0.0
  0
ARC
  5
3417
  8
0
  6
BYBLOCK
 62
     0
 10
23592.516864999991
 20
20440.987440000012
 30
0.0
 40
15.0
 50
180.0
 51
0.0
  0
ARC
  5
3418
  8
0
  6
BYBLOCK
 62
     0
 10
23592.516864999991
 20
20440.987440000012
 30
0.0
 40
15.0
 50
0.0
 51
180.0
  0
ARC
  5
3419
  8
0
  6
BYBLOCK
 62
     0
 10
22190.51686499998
 20
20440.987440000012
 30
0.0
 40
15.0
 50
0.0
 51
180.0
  0
ARC
  5
341A
  8
0
  6
BYBLOCK
 62
     0
 10
22190.51686499998
 20
20440.987440000012
 30
0.0
 40
15.0
 50
180.0
 51
0.0
  0
ARC
  5
341B
  8
0
  6
BYBLOCK
 62
     0
 10
22891.516864999991
 20
20440.987440000012
 30
0.0
 40
15.0
 50
180.0
 51
0.0
  0
ARC
  5
341C
  8
0
  6
BYBLOCK
 62
     0
 10
22891.516864999991
 20
20440.987440000012
 30
0.0
 40
15.0
 50
0.0
 51
180.0
  0
ARC
  5
341D
  8
0
  6
BYBLOCK
 62
     0
 10
21489.51686499998
 20
20440.987440000012
 30
0.0
 40
15.0
 50
0.0
 51
180.0
  0
ARC
  5
341E
  8
0
  6
BYBLOCK
 62
     0
 10
21489.51686499998
 20
20440.987440000012
 30
0.0
 40
15.0
 50
180.0
 51
0.0
  0
ARC
  5
341F
  8
0
  6
BYBLOCK
 62
     0
 10
22190.51686499998
 20
20440.987440000012
 30
0.0
 40
15.0
 50
180.0
 51
0.0
  0
ARC
  5
3420
  8
0
  6
BYBLOCK
 62
     0
 10
22190.51686499998
 20
20440.987440000012
 30
0.0
 40
15.0
 50
0.0
 51
180.0
  0
ARC
  5
3421
  8
0
  6
BYBLOCK
 62
     0
 10
24350.51686499998
 20
20440.987440000012
 30
0.0
 40
15.0
 50
180.0
 51
0.0
  0
ARC
  5
3422
  8
0
  6
BYBLOCK
 62
     0
 10
24350.51686499998
 20
20440.987440000012
 30
0.0
 40
15.0
 50
0.0
 51
180.0
  0
ARC
  5
3423
  8
0
  6
BYBLOCK
 62
     0
 10
24393.01316999998
 20
20440.987440000012
 30
0.0
 40
15.0
 50
0.0
 51
180.0
  0
ARC
  5
3424
  8
0
  6
BYBLOCK
 62
     0
 10
24393.01316999998
 20
20440.987440000012
 30
0.0
 40
15.0
 50
180.0
 51
0.0
  0
ARC
  5
3425
  8
0
  6
BYBLOCK
 62
     0
 10
21082.016864999969
 20
20440.987440000012
 30
0.0
 40
15.0
 50
0.0
 51
180.0
  0
ARC
  5
3426
  8
0
  6
BYBLOCK
 62
     0
 10
21082.016864999969
 20
20440.987440000012
 30
0.0
 40
15.0
 50
180.0
 51
0.0
  0
ARC
  5
3427
  8
0
  6
BYBLOCK
 62
     0
 10
21039.520559999972
 20
20440.987440000012
 30
0.0
 40
15.0
 50
180.0
 51
0.0
  0
ARC
  5
3428
  8
0
  6
BYBLOCK
 62
     0
 10
21039.520559999972
 20
20440.987440000012
 30
0.0
 40
15.0
 50
0.0
 51
180.0
  0
LINE
  5
3535
  8
0-1
  6
CONTINUOUS
 62
     3
 10
21124.51316999998
 20
8325.6887430000024
 30
0.0
 11
24308.01660099997
 21
8325.6887430000024
 31
0.0
  0
LINE
  5
3536
  8
0-1
  6
CONTINUOUS
 62
     3
 10
20996.516469999991
 20
8263.5026620000044
 30
0.0
 11
20996.516469999991
 21
8589.1883999999973
 31
0.0
  0
LINE
  5
3537
  8
0-1
  6
CONTINUOUS
 62
     3
 10
24436.015281999978
 20
8459.1884659999978
 30
0.0
 11
20996.516469999991
 21
8459.1884659999978
 31
0.0
  0
LINE
  5
3538
  8
0-1
  6
CONTINUOUS
 62
     3
 10
24436.015281999978
 20
8589.1883999999973
 30
0.0
 11
24436.015281999978
 21
8263.5026620000044
 31
0.0
  0
LINE
  5
3539
  8
0-1
  6
CONTINUOUS
 62
     3
 10
20996.516469999991
 20
8589.1883999999973
 30
0.0
 11
24436.015281999978
 21
8589.1883999999973
 31
0.0
  0
LINE
  5
353A
  8
0-1
  6
CONTINUOUS
 62
     3
 10
24436.015281999978
 20
8263.5026620000044
 30
0.0
 11
24393.015149999988
 21
8263.5026620000044
 31
0.0
  0
LINE
  5
353B
  8
0-1
  6
CONTINUOUS
 62
     3
 10
20996.516469999991
 20
8263.5026620000044
 30
0.0
 11
21039.514621999992
 21
8263.5026620000044
 31
0.0
  0
LINE
  5
353C
  8
0-1
  6
CONTINUOUS
 62
     3
 10
21150.516125999991
 20
8334.6891200000046
 30
0.0
 11
21427.945655999989
 21
8334.6891200000046
 31
0.0
  0
LINE
  5
353D
  8
0-1
  6
CONTINUOUS
 62
     3
 10
21150.516125999991
 20
8376.6885650000022
 30
0.0
 11
21459.942593999989
 21
8376.6885650000022
 31
0.0
  0
LINE
  5
353E
  8
0-1
  6
CONTINUOUS
 62
     3
 10
21145.515862999971
 20
8339.6888890000027
 30
0.0
 11
21145.515862999971
 21
8371.6892910000024
 31
0.0
  0
LINE
  5
353F
  8
0-1
  6
CONTINUOUS
 62
     3
 10
21124.51316999998
 20
8385.6884470000023
 30
0.0
 11
24308.01660099997
 21
8385.6884470000023
 31
0.0
  0
LINE
  5
3540
  8
0-1
  6
CONTINUOUS
 62
     3
 10
21431.479095999988
 20
8336.1529740000024
 30
0.0
 11
21463.479993999979
 21
8368.153376000002
 31
0.0
  0
LINE
  5
3541
  8
0-1
  6
CONTINUOUS
 62
     3
 10
21145.515862999971
 20
8368.2889730000024
 30
0.0
 11
21463.608661999981
 21
8368.2889730000024
 31
0.0
  0
LINE
  5
3542
  8
0-1
  6
CONTINUOUS
 62
     3
 10
21145.515862999971
 20
8359.8888860000025
 30
0.0
 11
21455.215503999982
 21
8359.8888860000025
 31
0.0
  0
LINE
  5
3543
  8
0-1
  6
CONTINUOUS
 62
     3
 10
21145.515862999971
 20
8351.4892940000027
 30
0.0
 11
21446.816405999991
 21
8351.4892940000027
 31
0.0
  0
LINE
  5
3544
  8
0-1
  6
CONTINUOUS
 62
     3
 10
21145.515862999971
 20
8343.0892070000027
 30
0.0
 11
21438.413349999999
 21
8343.0892070000027
 31
0.0
  0
LINE
  5
3545
  8
0-1
  6
CONTINUOUS
 62
     3
 10
24287.015888999958
 20
8368.2889730000024
 30
0.0
 11
23968.923088999989
 21
8368.2889730000024
 31
0.0
  0
LINE
  5
3546
  8
0-1
  6
CONTINUOUS
 62
     3
 10
24287.015888999958
 20
8359.8888860000025
 30
0.0
 11
23977.318226999989
 21
8359.8888860000025
 31
0.0
  0
LINE
  5
3547
  8
0-1
  6
CONTINUOUS
 62
     3
 10
24287.015888999958
 20
8351.4892940000027
 30
0.0
 11
23985.717323999968
 21
8351.4892940000027
 31
0.0
  0
LINE
  5
3548
  8
0-1
  6
CONTINUOUS
 62
     3
 10
24287.015888999958
 20
8343.0892070000027
 30
0.0
 11
23994.11642199997
 21
8343.0892070000027
 31
0.0
  0
LINE
  5
3549
  8
0-1
  6
CONTINUOUS
 62
     3
 10
24282.015624999989
 20
8376.6885650000022
 30
0.0
 11
23972.589156999969
 21
8376.6885650000022
 31
0.0
  0
LINE
  5
354A
  8
0-1
  6
CONTINUOUS
 62
     3
 10
24282.015624999989
 20
8334.6891200000046
 30
0.0
 11
24004.586095999981
 21
8334.6891200000046
 31
0.0
  0
LINE
  5
354B
  8
0-1
  6
CONTINUOUS
 62
     3
 10
24287.015888999958
 20
8339.6888890000027
 30
0.0
 11
24287.015888999958
 21
8371.6892910000024
 31
0.0
  0
LINE
  5
354C
  8
0-1
  6
CONTINUOUS
 62
     3
 10
24001.050674999969
 20
8336.1529740000024
 30
0.0
 11
23969.05373699998
 21
8368.153376000002
 31
0.0
  0
ARC
  5
354D
  8
0-1
  6
CONTINUOUS
 62
     3
 10
21150.516125999991
 20
8371.6892910000024
 30
0.0
 40
5.0
 50
90.0
 51
180.0
  0
ARC
  5
354E
  8
0-1
  6
CONTINUOUS
 62
     3
 10
21150.516125999991
 20
8339.6888890000027
 30
0.0
 40
5.0
 50
180.0
 51
269.9999850001808
  0
ARC
  5
354F
  8
0-1
  6
CONTINUOUS
 62
     3
 10
21427.945655999989
 20
8339.6888890000027
 30
0.0
 40
5.0
 50
269.9999850001808
 51
314.99998500027471
  0
ARC
  5
3550
  8
0-1
  6
CONTINUOUS
 62
     3
 10
21459.942593999989
 20
8371.6892910000024
 30
0.0
 40
5.0
 50
314.99998500027471
 51
90.0
  0
ARC
  5
3551
  8
0-1
  6
CONTINUOUS
 62
     3
 10
24282.015624999989
 20
8339.6888890000027
 30
0.0
 40
5.0
 50
269.9999850001808
 51
0.0
  0
ARC
  5
3552
  8
0-1
  6
CONTINUOUS
 62
     3
 10
24282.015624999989
 20
8371.6892910000024
 30
0.0
 40
5.0
 50
0.0
 51
90.0
  0
ARC
  5
3553
  8
0-1
  6
CONTINUOUS
 62
     3
 10
23972.589156999969
 20
8371.6892910000024
 30
0.0
 40
5.0
 50
90.0
 51
224.99998499997989
  0
ARC
  5
3554
  8
0-1
  6
CONTINUOUS
 62
     3
 10
24004.586095999981
 20
8339.6888890000027
 30
0.0
 40
5.0
 50
224.99998499997989
 51
269.9999850001808
  0
LINE
  5
3555
  8
SUNPOU
  6
CONTINUOUS
 62
     4
 10
24393.01712899996
 20
8669.1883999999973
 30
0.0
 11
24393.01712899996
 21
9468.6882419999965
 31
0.0
  0
LINE
  5
3556
  8
SUNPOU
  6
CONTINUOUS
 62
     4
 10
24436.019239999951
 20
8669.1883999999973
 30
0.0
 11
24436.019239999951
 21
9468.6882419999965
 31
0.0
  0
LINE
  5
3557
  8
SUNPOU
  6
CONTINUOUS
 62
     4
 10
24393.01712899996
 20
9388.6882419999965
 30
0.0
 11
24153.01712899996
 21
9388.6882419999965
 31
0.0
  0
LINE
  5
3558
  8
SUNPOU
  6
CONTINUOUS
 62
     4
 10
24433.019239999961
 20
9388.6882419999965
 30
0.0
 11
24673.019239999961
 21
9388.6882419999965
 31
0.0
  0
LINE
  5
3559
  8
SUNPOU
  6
CONTINUOUS
 62
     4
 10
24393.01712899996
 20
9388.6882419999965
 30
0.0
 11
24433.019239999961
 21
9388.6882419999965
 31
0.0
  0
LINE
  5
355A
  8
SUNPOU
  6
CONTINUOUS
 62
     4
 10
20996.514490000001
 20
8669.1883999999973
 30
0.0
 11
20996.514490000001
 21
9868.6460119999992
 31
0.0
  0
LINE
  5
355B
  8
SUNPOU
  6
CONTINUOUS
 62
     4
 10
24436.019239999951
 20
8669.1883999999973
 30
0.0
 11
24436.019239999951
 21
9868.6460119999992
 31
0.0
  0
LINE
  5
355C
  8
SUNPOU
  6
CONTINUOUS
 62
     4
 10
20999.514490000009
 20
9788.6460119999992
 30
0.0
 11
24433.019239999961
 21
9788.6460119999992
 31
0.0
  0
LINE
  5
355D
  8
SUNPOU
  6
CONTINUOUS
 62
     4
 10
21039.516600999988
 20
8669.1883999999973
 30
0.0
 11
21039.516600999988
 21
9468.6882419999965
 31
0.0
  0
LINE
  5
355E
  8
SUNPOU
  6
CONTINUOUS
 62
     4
 10
24393.01712899996
 20
8669.1883999999973
 30
0.0
 11
24393.01712899996
 21
9468.6882419999965
 31
0.0
  0
LINE
  5
355F
  8
SUNPOU
  6
CONTINUOUS
 62
     4
 10
21039.516600999988
 20
9388.6882419999965
 30
0.0
 11
24393.01712899996
 21
9388.6882419999965
 31
0.0
  0
LINE
  5
3560
  8
SUNPOU
  6
CONTINUOUS
 62
     4
 10
21039.516600999988
 20
8669.1883999999973
 30
0.0
 11
21039.516600999988
 21
9468.6882419999965
 31
0.0
  0
LINE
  5
3561
  8
SUNPOU
  6
CONTINUOUS
 62
     4
 10
20996.514490000001
 20
8669.1883999999973
 30
0.0
 11
20996.514490000001
 21
9468.6882419999965
 31
0.0
  0
LINE
  5
3562
  8
SUNPOU
  6
CONTINUOUS
 62
     4
 10
21039.516600999988
 20
9388.6882419999965
 30
0.0
 11
21279.516600999988
 21
9388.6882419999965
 31
0.0
  0
LINE
  5
3563
  8
SUNPOU
  6
CONTINUOUS
 62
     4
 10
20999.514490000009
 20
9388.6882419999965
 30
0.0
 11
20759.514490000009
 21
9388.6882419999965
 31
0.0
  0
LINE
  5
3564
  8
SUNPOU
  6
CONTINUOUS
 62
     4
 10
21039.516600999988
 20
9388.6882419999965
 30
0.0
 11
20999.514490000009
 21
9388.6882419999965
 31
0.0
  0
TEXT
  5
3565
  8
0
  6
CONTINUOUS
 62
     7
 10
20639.514490000009
 20
9468.6882419999965
 30
0.0
 40
160.0
  1
43
  0
TEXT
  5
3566
  8
0
  6
CONTINUOUS
 62
     7
 10
22316.26686499998
 20
9468.6882419999965
 30
0.0
 40
160.0
  1
3353.5
  0
TEXT
  5
3567
  8
0
  6
CONTINUOUS
 62
     7
 10
22316.26686499998
 20
9868.6460119999992
 30
0.0
 40
160.0
  1
3439.5
  0
TEXT
  5
3568
  8
0
  6
CONTINUOUS
 62
     7
 10
24553.019239999961
 20
9468.6882419999965
 30
0.0
 40
160.0
  1
43
  0
ARC
  5
3569
  8
0
  6
BYBLOCK
 62
     0
 10
24393.01712899996
 20
9388.6882419999965
 30
0.0
 40
15.0
 50
180.0
 51
0.0
  0
ARC
  5
356A
  8
0
  6
BYBLOCK
 62
     0
 10
24393.01712899996
 20
9388.6882419999965
 30
0.0
 40
15.0
 50
0.0
 51
180.0
  0
ARC
  5
356B
  8
0
  6
BYBLOCK
 62
     0
 10
24436.019239999951
 20
9388.6882419999965
 30
0.0
 40
15.0
 50
0.0
 51
180.0
  0
ARC
  5
356C
  8
0
  6
BYBLOCK
 62
     0
 10
24436.019239999951
 20
9388.6882419999965
 30
0.0
 40
15.0
 50
180.0
 51
0.0
  0
ARC
  5
356D
  8
0
  6
BYBLOCK
 62
     0
 10
20996.514490000001
 20
9788.6460119999992
 30
0.0
 40
15.0
 50
0.0
 51
180.0
  0
ARC
  5
356E
  8
0
  6
BYBLOCK
 62
     0
 10
20996.514490000001
 20
9788.6460119999992
 30
0.0
 40
15.0
 50
180.0
 51
0.0
  0
ARC
  5
356F
  8
0
  6
BYBLOCK
 62
     0
 10
24436.019239999951
 20
9788.6460119999992
 30
0.0
 40
15.0
 50
180.0
 51
0.0
  0
ARC
  5
3570
  8
0
  6
BYBLOCK
 62
     0
 10
24436.019239999951
 20
9788.6460119999992
 30
0.0
 40
15.0
 50
0.0
 51
180.0
  0
ARC
  5
3571
  8
0
  6
BYBLOCK
 62
     0
 10
21039.516600999988
 20
9388.6882419999965
 30
0.0
 40
15.0
 50
0.0
 51
180.0
  0
ARC
  5
3572
  8
0
  6
BYBLOCK
 62
     0
 10
21039.516600999988
 20
9388.6882419999965
 30
0.0
 40
15.0
 50
180.0
 51
0.0
  0
ARC
  5
3573
  8
0
  6
BYBLOCK
 62
     0
 10
24393.01712899996
 20
9388.6882419999965
 30
0.0
 40
15.0
 50
180.0
 51
0.0
  0
ARC
  5
3574
  8
0
  6
BYBLOCK
 62
     0
 10
24393.01712899996
 20
9388.6882419999965
 30
0.0
 40
15.0
 50
0.0
 51
180.0
  0
ARC
  5
3575
  8
0
  6
BYBLOCK
 62
     0
 10
21039.516600999988
 20
9388.6882419999965
 30
0.0
 40
15.0
 50
0.0
 51
180.0
  0
ARC
  5
3576
  8
0
  6
BYBLOCK
 62
     0
 10
21039.516600999988
 20
9388.6882419999965
 30
0.0
 40
15.0
 50
180.0
 51
0.0
  0
ARC
  5
3577
  8
0
  6
BYBLOCK
 62
     0
 10
20996.514490000001
 20
9388.6882419999965
 30
0.0
 40
15.0
 50
180.0
 51
0.0
  0
ARC
  5
3578
  8
0
  6
BYBLOCK
 62
     0
 10
20996.514490000001
 20
9388.6882419999965
 30
0.0
 40
15.0
 50
0.0
 51
180.0
  0
LINE
  5
358F
  8
SUNPOU
  6
CONTINUOUS
 62
     4
 10
11019.13015949998
 20
13209.48697799999
 30
0.0
 11
11019.13015949998
 21
12030.53717799999
 31
0.0
  0
LINE
  5
3590
  8
SUNPOU
  6
CONTINUOUS
 62
     4
 10
14458.63095149999
 20
13209.48697799999
 30
0.0
 11
14458.63095149999
 21
12030.53717799999
 31
0.0
  0
LINE
  5
3591
  8
SUNPOU
  6
CONTINUOUS
 62
     4
 10
11019.13015949998
 20
12110.53717799999
 30
0.0
 11
14458.63095149999
 21
12110.53717799999
 31
0.0
  0
TEXT
  5
3592
  8
0
  6
CONTINUOUS
 62
     7
 10
11816.21388883331
 20
12190.53717799999
 30
0.0
 40
160.0
  1
ケラバ外寸 3439.5
  0
ARC
  5
3593
  8
0
  6
BYBLOCK
 62
     0
 10
11019.13015949998
 20
12110.53717799999
 30
0.0
 40
15.0
 50
0.0
 51
180.0
  0
ARC
  5
3594
  8
0
  6
BYBLOCK
 62
     0
 10
11019.13015949998
 20
12110.53717799999
 30
0.0
 40
15.0
 50
180.0
 51
0.0
  0
ARC
  5
3595
  8
0
  6
BYBLOCK
 62
     0
 10
14458.63095149999
 20
12110.53717799999
 30
0.0
 40
15.0
 50
180.0
 51
0.0
  0
ARC
  5
3596
  8
0
  6
BYBLOCK
 62
     0
 10
14458.63095149999
 20
12110.53717799999
 30
0.0
 40
15.0
 50
0.0
 51
180.0
  0
TEXT
  5
35EC
  8
NAME
 10
24033.053546554009
 20
1076.0
 30
0.0
 40
360.0
  1
H
 41
0.6700000000000002
  7
00
  0
TEXT
  5
35ED
  8
NAME
 10
23657.221561973682
 20
1076.0
 30
0.0
 40
360.0
  1
（ ）
  7
01
  0
TEXT
  5
35EE
  8
NAME
 10
24557.214549256729
 20
1076.0
 30
0.0
 40
360.0
  1
型（単棟）
  7
01
  0
TEXT
  5
35EF
  8
NAME
 10
21933.552716389011
 20
1876.0
 30
0.0
 40
360.0
  1
ヨドガレージ ラヴィージュ
 41
0.75
  7
01
  0
TEXT
  5
35F0
  8
NAME
 10
21816.089515848391
 20
1076.6369801169251
 30
0.0
 40
360.0
  1
VGC-3362
 41
0.6700000000000002
  0
LINE
  5
35F1
  8
NAME
  6
CONTINUOUS
 10
26067.886878884299
 20
2236.0
 30
0.0
 11
26067.886878884299
 21
1876.0
 31
0.0
  0
LINE
  5
35F2
  8
NAME
  6
CONTINUOUS
 10
26167.886878884299
 20
2236.0
 30
0.0
 11
26167.886878884299
 21
1876.0
 31
0.0
  0
LINE
  5
35F3
  8
NAME
  6
CONTINUOUS
 10
26267.88687888431
 20
2236.0
 30
0.0
 11
26267.88687888431
 21
1876.0
 31
0.0
  0
LINE
  5
35F4
  8
NAME
  6
CONTINUOUS
 10
26007.886878884299
 20
2236.0
 30
0.0
 11
26327.886878884299
 21
2236.0
 31
0.0
  0
LINE
  5
35F5
  8
NAME
  6
CONTINUOUS
 10
26327.886878884299
 20
1876.0
 30
0.0
 11
26007.886878884299
 21
1876.0
 31
0.0
  0
TEXT
  5
368F
  8
FILENAME
  6
CONTINUOUS
 10
28756.38095238095
 20
348.0
 30
0.0
 40
200.0
  1
＜VGC-3362-1-A_0.DXF ＞
  7
FILENAME
 72
     2
 11
32764.0
 21
348.0
 31
0.0
  0
LINE
  5
3694
  8
WAKUSEN-01
 10
868.00000000000193
 20
827.99999999999955
 30
0.0
 11
32764.000000000011
 21
827.99999999999943
 31
0.0
  0
LINE
  5
3695
  8
WAKUSEN-01
 10
868.00000000000193
 20
827.99999999999955
 30
0.0
 11
868.00000000000193
 21
22484.000000000011
 31
0.0
  0
LINE
  5
3696
  8
WAKUSEN-01
 10
32764.000000000011
 20
827.99999999999943
 30
0.0
 11
32764.000000000011
 21
22484.000000000011
 31
0.0
  0
LINE
  5
3697
  8
WAKUSEN-01
 10
20560.0
 20
827.99999999999716
 30
0.0
 11
20560.0
 21
2484.0
 31
0.0
  0
LINE
  5
3698
  8
WAKUSEN-02
 10
26868.0
 20
827.99999999999261
 30
0.0
 11
26868.0
 21
2484.0
 31
0.0
  0
ENDSEC
  0
EOF
