  0
SECTION
  2
HEADER
  9
$ACADVER
  1
AC1009
  9
$INSBASE
 10
0.0
 20
0.0
 30
0.0
  9
$EXTMIN
 10
867.99324330406671
 20
327.38164749855792
 30
-0.000000000000013
  9
$EXTMAX
 10
32765.33210850941
 20
22484.553276491992
 30
0.0000000000000023
  9
$LIMMIN
 10
0.0
 20
0.0
  9
$LIMMAX
 10
33600.0
 20
23760.0
  9
$ORTHOMODE
 70
     1
  9
$REGENMODE
 70
     1
  9
$FILLMODE
 70
     1
  9
$QTEXTMODE
 70
     0
  9
$MIRRTEXT
 70
     1
  9
$DRAGMODE
 70
     2
  9
$LTSCALE
 40
80.0
  9
$OSMODE
 70
  3071
  9
$ATTMODE
 70
     1
  9
$TEXTSIZE
 40
0.2
  9
$TRACEWID
 40
0.05
  9
$TEXTSTYLE
  7
00
  9
$CLAYER
  8
0
  9
$CELTYPE
  6
BYLAYER
  9
$CECOLOR
 62
   256
  9
$DIMSCALE
 40
80.0
  9
$DIMASZ
 40
0.18
  9
$DIMEXO
 40
0.0625
  9
$DIMDLI
 40
0.38
  9
$DIMRND
 40
0.0
  9
$DIMDLE
 40
0.0
  9
$DIMEXE
 40
0.18
  9
$DIMTP
 40
0.0
  9
$DIMTM
 40
0.0
  9
$DIMTXT
 40
0.18
  9
$DIMCEN
 40
0.09
  9
$DIMTSZ
 40
0.0
  9
$DIMTOL
 70
     0
  9
$DIMLIM
 70
     0
  9
$DIMTIH
 70
     1
  9
$DIMTOH
 70
     1
  9
$DIMSE1
 70
     0
  9
$DIMSE2
 70
     0
  9
$DIMTAD
 70
     0
  9
$DIMZIN
 70
     0
  9
$DIMBLK
  1

  9
$DIMASO
 70
     1
  9
$DIMSHO
 70
     1
  9
$DIMPOST
  1

  9
$DIMAPOST
  1

  9
$DIMALT
 70
     0
  9
$DIMALTD
 70
     2
  9
$DIMALTF
 40
25.399999999999999
  9
$DIMLFAC
 40
1.0
  9
$DIMTOFL
 70
     0
  9
$DIMTVP
 40
0.0
  9
$DIMTIX
 70
     0
  9
$DIMSOXD
 70
     0
  9
$DIMSAH
 70
     0
  9
$DIMBLK1
  1

  9
$DIMBLK2
  1

  9
$DIMSTYLE
  2
STANDARD
  9
$DIMCLRD
 70
     0
  9
$DIMCLRE
 70
     0
  9
$DIMCLRT
 70
     0
  9
$DIMTFAC
 40
1.0
  9
$DIMGAP
 40
0.09
  9
$LUNITS
 70
     2
  9
$LUPREC
 70
     4
  9
$SKETCHINC
 40
0.1
  9
$FILLETRAD
 40
0.0
  9
$AUNITS
 70
     0
  9
$AUPREC
 70
     0
  9
$MENU
  1
acad
  9
$ELEVATION
 40
0.0
  9
$PELEVATION
 40
0.0
  9
$THICKNESS
 40
0.0
  9
$LIMCHECK
 70
     0
  9
$BLIPMODE
 70
     1
  9
$CHAMFERA
 40
0.0
  9
$CHAMFERB
 40
0.0
  9
$SKPOLY
 70
     0
  9
$TDCREATE
 40
2311940.0749271871
  9
$TDUPDATE
 40
2458942.4457964348
  9
$TDINDWG
 40
0.1287538542
  9
$TDUSRTIMER
 40
0.1287525579
  9
$USRTIMER
 70
     1
  9
$ANGBASE
 50
0.0
  9
$ANGDIR
 70
     0
  9
$PDMODE
 70
     0
  9
$PDSIZE
 40
0.0
  9
$PLINEWID
 40
0.0
  9
$COORDS
 70
     1
  9
$SPLFRAME
 70
     0
  9
$SPLINETYPE
 70
     6
  9
$SPLINESEGS
 70
     8
  9
$ATTDIA
 70
     1
  9
$ATTREQ
 70
     1
  9
$HANDLING
 70
     1
  9
$HANDSEED
  5
9A82
  9
$SURFTAB1
 70
     6
  9
$SURFTAB2
 70
     6
  9
$SURFTYPE
 70
     6
  9
$SURFU
 70
     6
  9
$SURFV
 70
     6
  9
$UCSNAME
  2

  9
$UCSORG
 10
0.0
 20
0.0
 30
0.0
  9
$UCSXDIR
 10
1.0
 20
0.0
 30
0.0
  9
$UCSYDIR
 10
0.0
 20
1.0
 30
0.0
  9
$PUCSNAME
  2

  9
$PUCSORG
 10
0.0
 20
0.0
 30
0.0
  9
$PUCSXDIR
 10
1.0
 20
0.0
 30
0.0
  9
$PUCSYDIR
 10
0.0
 20
1.0
 30
0.0
  9
$USERI1
 70
     0
  9
$USERI2
 70
     0
  9
$USERI3
 70
     0
  9
$USERI4
 70
     0
  9
$USERI5
 70
     0
  9
$USERR1
 40
0.0
  9
$USERR2
 40
0.0
  9
$USERR3
 40
0.0
  9
$USERR4
 40
0.0
  9
$USERR5
 40
0.0
  9
$WORLDVIEW
 70
     1
  9
$SHADEDGE
 70
     3
  9
$SHADEDIF
 70
    70
  9
$TILEMODE
 70
     1
  9
$MAXACTVP
 70
    16
  9
$PLIMCHECK
 70
     0
  9
$PEXTMIN
 10
1.0000000000000000E+020
 20
1.0000000000000000E+020
 30
1.0000000000000000E+020
  9
$PEXTMAX
 10
-1.0000000000000000E+020
 20
-1.0000000000000000E+020
 30
-1.0000000000000000E+020
  9
$PLIMMIN
 10
0.0
 20
0.0
  9
$PLIMMAX
 10
12.0
 20
9.0
  9
$UNITMODE
 70
     0
  9
$VISRETAIN
 70
     0
  9
$PLINEGEN
 70
     1
  9
$PSLTSCALE
 70
     0
  0
ENDSEC
  0
SECTION
  2
TABLES
  0
TABLE
  2
VPORT
 70
     1
  0
VPORT
  2
*ACTIVE
 70
     0
 10
0.0
 20
0.0
 11
1.0
 21
1.0
 12
16800.0
 22
11880.0
 13
0.0
 23
0.0
 14
1.0
 24
1.0
 15
0.0
 25
0.0
 16
0.0
 26
0.0
 36
1.0
 17
0.0
 27
0.0
 37
0.0
 40
23981.023255813951
 41
2.195652173913043
 42
50.0
 43
0.0
 44
0.0
 50
0.0
 51
0.0
 71
     0
 72
 10000
 73
     1
 74
     1
 75
     0
 76
     0
 77
     0
 78
     0
  0
ENDTAB
  0
TABLE
  2
LTYPE
 70
     3
  0
LTYPE
  2
CONTINUOUS
 70
     0
  3
Solid line
 72
    65
 73
     0
 40
0.0
  0
LTYPE
  2
DASHED3
 70
     0
  3
------  ------  ------  ------  
 72
    65
 73
     2
 40
5.0
 49
3.75
 49
-1.25
  0
LTYPE
  2
CENTER2
 70
     0
  3
----------  --  ----------  --  
 72
    65
 73
     4
 40
20.0
 49
12.5
 49
-2.5
 49
2.5
 49
-2.5
  0
ENDTAB
  0
TABLE
  2
LAYER
 70
    17
  0
LAYER
  2
0
 70
     0
 62
     7
  6
CONTINUOUS
  0
LAYER
  2
SUNPOU
 70
     0
 62
     4
  6
CONTINUOUS
  0
LAYER
  2
0-1
 70
     0
 62
     7
  6
CONTINUOUS
  0
LAYER
  2
0-2
 70
     0
 62
     7
  6
CONTINUOUS
  0
LAYER
  2
0-6
 70
     0
 62
     7
  6
CONTINUOUS
  0
LAYER
  2
2-0
 70
     0
 62
     7
  6
CONTINUOUS
  0
LAYER
  2
0-5
 70
     0
 62
     7
  6
CONTINUOUS
  0
LAYER
  2
0-7
 70
     0
 62
     7
  6
CONTINUOUS
  0
LAYER
  2
YODOROGO
 70
     0
 62
   130
  6
CONTINUOUS
  0
LAYER
  2
WAKUSEN-01
 70
     0
 62
    50
  6
CONTINUOUS
  0
LAYER
  2
WAKUSEN-02
 70
     0
 62
   130
  6
CONTINUOUS
  0
LAYER
  2
WAKUMOJI-01
 70
     0
 62
   130
  6
CONTINUOUS
  0
LAYER
  2
FILENAME
 70
     0
 62
     7
  6
CONTINUOUS
  0
LAYER
  2
NAME
 70
     0
 62
    20
  6
CONTINUOUS
  0
LAYER
  2
0-4
 70
     0
 62
     7
  6
CONTINUOUS
  0
ENDTAB
  0
TABLE
  2
STYLE
 70
     5
  0
STYLE
  2
STANDARD
 70
     0
 40
0.0
 41
1.0
 50
0.0
 71
     0
 42
0.0
  3
txt
  4
BIGFONT
  0
STYLE
  2
00
 70
     0
 40
0.0
 41
0.6666666666666666
 50
0.0
 71
     0
 42
0.2
  3
ROMANS
  4
BIGFONT
  0
STYLE
  2
01
 70
     0
 40
3.0
 41
1.0
 50
0.0
 71
     0
 42
0.2
  3
ROMANS
  4
BIGFONT
  0
STYLE
  2
WAKUMOJI
 70
     0
 40
3.0
 41
1.0
 50
0.0
 71
     0
 42
3.0
  3
SIMPLEX
  4
BIGFONT
  0
STYLE
  2
FILENAME
 70
     0
 40
200.0
 41
1.0
 50
0.0
 71
     0
 42
200.0
  3
romans
  4
bigfont
  0
ENDTAB
  0
TABLE
  2
VIEW
 70
     0
  0
ENDTAB
  0
TABLE
  2
UCS
 70
     0
  0
ENDTAB
  0
TABLE
  2
APPID
 70
    13
  0
APPID
  2
ACAD
 70
     0
  0
APPID
  2
ACADANNOTATIVE
 70
     0
  0
APPID
  2
ACAD_PSEXT
 70
     0
  0
APPID
  2
DCO15
 70
     0
  0
APPID
  2
ACAD_EXEMPT_FROM_CAD_STANDARDS
 70
     0
  0
APPID
  2
AUTOCAD_POSTSCRIPT_FIGURE
 70
     0
  0
APPID
  2
ACAD_MLEADERVER
 70
     0
  0
APPID
  2
ACAD_DSTYLE_DIMJAG
 70
     0
  0
APPID
  2
ACAD_DSTYLE_DIMTALN
 70
     0
  0
APPID
  2
ACAD_DSTYLE_DIM_LINETYPE
 70
     0
  0
APPID
  2
ACAD_DSTYLE_DIM_EXT1_LINETYPE
 70
     0
  0
APPID
  2
ACAD_DSTYLE_DIM_EXT2_LINETYPE
 70
     0
  0
APPID
  2
ACAD_NAV_VCDISPLAY
 70
     0
  0
ENDTAB
  0
TABLE
  2
DIMSTYLE
 70
     1
  0
DIMSTYLE
  2
STANDARD
 70
     0
  3

  4

  5

  6

  7

 40
1.0
 41
0.18
 42
0.0625
 43
0.38
 44
0.18
 45
0.0
 46
0.0
 47
0.0
 48
0.0
140
0.18
141
0.09
142
0.0
143
25.399999999999999
144
1.0
145
0.0
146
1.0
147
0.09
 71
     0
 72
     0
 73
     1
 74
     1
 75
     0
 76
     0
 77
     0
 78
     0
170
     0
171
     2
172
     0
173
     0
174
     0
175
     0
176
     0
177
     0
178
     0
  0
ENDTAB
  0
ENDSEC
  0
SECTION
  2
BLOCKS
  0
BLOCK
  8
0
  2
$MODEL_SPACE
 70
     0
 10
0.0
 20
0.0
 30
0.0
  3
$MODEL_SPACE
  1

  0
ENDBLK
  5
8E83
  8
0
  0
BLOCK
 67
     1
  8
0
  2
$PAPER_SPACE
 70
     0
 10
0.0
 20
0.0
 30
0.0
  3
$PAPER_SPACE
  1

  0
ENDBLK
  5
8E7F
 67
     1
  8
0
  0
ENDSEC
  0
SECTION
  2
ENTITIES
  0
CIRCLE
  5
8EB0
  8
0-1
  6
CONTINUOUS
 62
     4
 10
15128.71370900002
 20
1375.999734
 30
0.0
 40
20.0
  0
ARC
  5
8EB1
  8
0-1
  6
CONTINUOUS
 62
     4
 10
15128.71370900002
 20
1375.999734
 30
0.0
 40
20.0
 50
180.0
 51
0.0
  0
ARC
  5
8EB2
  8
0-1
  6
CONTINUOUS
 62
     4
 10
15128.71370900002
 20
1375.999734
 30
0.0
 40
20.0
 50
0.0
 51
179.99998499999839
  0
CIRCLE
  5
8EB3
  8
0-1
  6
CONTINUOUS
 62
     4
 10
15128.71370900002
 20
1775.999816999999
 30
0.0
 40
20.0
  0
ARC
  5
8EB4
  8
0-1
  6
CONTINUOUS
 62
     4
 10
15128.71370900002
 20
1775.999816999999
 30
0.0
 40
20.0
 50
180.0
 51
0.0
  0
ARC
  5
8EB5
  8
0-1
  6
CONTINUOUS
 62
     4
 10
15128.71370900002
 20
1775.999816999999
 30
0.0
 40
20.0
 50
0.0
 51
179.99998499999839
  0
TEXT
  5
8EB6
  8
0-1
  6
CONTINUOUS
 62
     7
 10
16686.216744000001
 20
1655.9997920000001
 30
0.0
 40
160.0
  1
H
  0
TEXT
  5
8EB7
  8
0-1
  6
CONTINUOUS
 62
     7
 10
15176.145943
 20
1655.9997920000001
 30
0.0
 40
160.0
  1
（ ）内寸法ハ、  タ イプヲ示ス。
  0
TEXT
  5
8EB8
  8
0-1
  6
CONTINUOUS
 62
     7
 10
15288.714237
 20
1255.9997100000001
 30
0.0
 40
160.0
  1
有効高サハ、基礎高サヲ含ミマセン。
  0
TEXT
  5
8EB9
  8
2-0
  6
CONTINUOUS
 62
     7
 10
21794.443992500012
 20
3073.3068879999951
 30
0.0
 40
160.0
  1
正 面 立 面 図
 72
     4
 11
22439.77732583334
 21
3153.3068879999951
 31
0.0
  0
TEXT
  5
8EBA
  8
2-0
  6
CONTINUOUS
 62
     7
 10
10207.03580290912
 20
3073.3068879999951
 30
0.0
 40
160.0
  1
側 面 立 面 図
 72
     4
 11
10852.36913624246
 21
3153.3068879999951
 31
0.0
  0
TEXT
  5
8EBB
  8
2-0
  6
CONTINUOUS
 62
     7
 10
21748.70164599999
 20
11608.336530999981
 30
0.0
 40
160.0
  1
平　面　図
 72
     4
 11
22202.034979333319
 21
11683.003197666651
 31
0.0
  0
TEXT
  5
8EBC
  8
2-0
  6
CONTINUOUS
 62
     7
 10
9948.5833411351759
 20
11614.28399499998
 30
0.0
 40
160.0
  1
小 屋 伏 図
 50
359.99980699999981
 72
     4
 11
10449.9169439445
 21
11694.28230626549
 31
0.0
  0
TEXT
  5
8EC4
  8
2-0
  6
CONTINUOUS
 62
     7
 10
12203.86132138008
 20
3100.5022569999951
 30
0.0
 40
160.0
  1
1
 72
     4
 11
12230.52798804675
 21
3180.5022569999951
 31
0.0
  0
TEXT
  5
8EC5
  8
2-0
  6
CONTINUOUS
 62
     7
 10
12446.95003863077
 20
3020.5037249999941
 30
0.0
 40
160.0
  1
80
 72
     4
 11
12566.95003863077
 21
3100.5037249999941
 31
0.0
  0
TEXT
  5
8EC6
  8
2-0
  6
CONTINUOUS
 62
     7
 10
11704.86328738008
 20
3073.3068879999951
 30
0.0
 40
160.0
  1
(S=  /   )
 72
     4
 11
12264.86328738008
 21
3153.3068879999951
 31
0.0
  0
TEXT
  5
8EC7
  8
2-0
  6
CONTINUOUS
 62
     7
 10
23791.26951097096
 20
3100.5022569999951
 30
0.0
 40
160.0
  1
1
 72
     4
 11
23817.936177637632
 21
3180.5022569999951
 31
0.0
  0
TEXT
  5
8EC8
  8
2-0
  6
CONTINUOUS
 62
     7
 10
24034.358228221648
 20
3020.5037249999941
 30
0.0
 40
160.0
  1
80
 72
     4
 11
24154.358228221648
 21
3100.5037249999941
 31
0.0
  0
TEXT
  5
8EC9
  8
2-0
  6
CONTINUOUS
 62
     7
 10
23292.271476970949
 20
3073.3068879999951
 30
0.0
 40
160.0
  1
(S=  /   )
 72
     4
 11
23852.271476970949
 21
3153.3068879999951
 31
0.0
  0
TEXT
  5
8ECA
  8
2-0
  6
CONTINUOUS
 62
     7
 10
23553.52716447095
 20
11630.198566666641
 30
0.0
 40
160.0
  1
1
 72
     4
 11
23580.193831137622
 21
11710.198566666641
 31
0.0
  0
TEXT
  5
8ECB
  8
2-0
  6
CONTINUOUS
 62
     7
 10
23796.615881721649
 20
11550.20003466665
 30
0.0
 40
160.0
  1
80
 72
     4
 11
23916.615881721649
 21
11630.20003466665
 31
0.0
  0
TEXT
  5
8ECC
  8
2-0
  6
CONTINUOUS
 62
     7
 10
23054.529130470961
 20
11603.003197666651
 30
0.0
 40
160.0
  1
(S=  /   )
 72
     4
 11
23614.529130470961
 21
11683.003197666651
 31
0.0
  0
TEXT
  5
8ECD
  8
2-0
  6
CONTINUOUS
 62
     7
 10
11801.40912908212
 20
11641.477675265491
 30
0.0
 40
160.0
  1
1
 72
     4
 11
11828.075795748789
 21
11721.477675265491
 31
0.0
  0
TEXT
  5
8ECE
  8
2-0
  6
CONTINUOUS
 62
     7
 10
12044.497846332821
 20
11561.479143265469
 30
0.0
 40
160.0
  1
80
 72
     4
 11
12164.497846332821
 21
11641.479143265469
 31
0.0
  0
TEXT
  5
8ECF
  8
2-0
  6
CONTINUOUS
 62
     7
 10
11302.41109508212
 20
11614.28230626549
 30
0.0
 40
160.0
  1
(S=  /   )
 72
     4
 11
11862.41109508212
 21
11694.28230626549
 31
0.0
  0
LINE
  5
8ED0
  8
0-4
  6
CONTINUOUS
 62
     4
 10
17768.5746875968
 20
6045.4053269999904
 30
0.0
 11
17888.577062596782
 21
5837.5593399999898
 31
0.0
  0
LINE
  5
8ED1
  8
0-4
  6
CONTINUOUS
 62
     4
 10
14530.849792909141
 20
5837.5593399999898
 30
0.0
 11
20462.352974000001
 21
5837.5593399999898
 31
0.0
  0
LINE
  5
8ED2
  8
0-4
  6
CONTINUOUS
 62
     4
 10
17888.577062596782
 20
5837.5593399999898
 30
0.0
 11
18008.575479596791
 21
6045.4053269999904
 31
0.0
  0
LINE
  5
8ED3
  8
0-4
  6
CONTINUOUS
 62
     4
 10
18008.575479596791
 20
6045.4053269999904
 30
0.0
 11
17768.5746875968
 21
6045.4053269999904
 31
0.0
  0
TEXT
  5
8ED4
  8
0-4
  6
CONTINUOUS
 62
     7
 10
17768.5746875968
 20
6125.4055909999888
 30
0.0
 40
160.0
  1
G.L
 72
     4
 11
17928.5746875968
 21
6205.4055909999888
 31
0.0
  0
LINE
  5
8ED5
  8
0-1
  6
CONTINUOUS
 62
     3
 10
8613.3520229091373
 20
5987.5593399999898
 30
0.0
 11
8613.3520229091373
 21
7848.6052189999891
 31
0.0
  0
LINE
  5
8ED6
  8
0-1
  6
CONTINUOUS
 62
     3
 10
8633.353078909131
 20
5987.5593399999898
 30
0.0
 11
8633.353078909131
 21
7848.6052189999891
 31
0.0
  0
LINE
  5
8ED7
  8
0-1
  6
CONTINUOUS
 62
     3
 10
8563.3523529091472
 20
5987.5593399999898
 30
0.0
 11
8563.3523529091472
 21
7848.6052189999891
 31
0.0
  0
LINE
  5
8ED8
  8
0-1
  6
CONTINUOUS
 62
     3
 10
8683.3517589091352
 20
5987.5593399999898
 30
0.0
 11
8683.3517589091352
 21
7848.6052189999891
 31
0.0
  0
LINE
  5
8ED9
  8
0-1
  6
CONTINUOUS
 62
     3
 10
8816.3526429091253
 20
5987.5593399999898
 30
0.0
 11
8816.3526429091253
 21
7848.6052189999891
 31
0.0
  0
LINE
  5
8EDA
  8
0-1
  6
CONTINUOUS
 62
     3
 10
8831.3524449091346
 20
5987.5593399999898
 30
0.0
 11
8831.3524449091346
 21
7848.6052189999891
 31
0.0
  0
LINE
  5
8EDB
  8
0-1
  6
CONTINUOUS
 62
     3
 10
8430.352457909139
 20
5987.5593399999898
 30
0.0
 11
8430.352457909139
 21
7848.6052189999891
 31
0.0
  0
LINE
  5
8EDC
  8
0-1
  6
CONTINUOUS
 62
     3
 10
8415.3526559091388
 20
5987.5593399999898
 30
0.0
 11
8415.3526559091388
 21
7848.6052189999891
 31
0.0
  0
LINE
  5
8EDD
  8
0-1
  6
CONTINUOUS
 62
     3
 10
9691.8521419091448
 20
7848.6052189999891
 30
0.0
 11
9691.8521419091448
 21
5987.5593399999898
 31
0.0
  0
LINE
  5
8EDE
  8
0-1
  6
CONTINUOUS
 62
     3
 10
9654.8539499091421
 20
7848.6052189999891
 30
0.0
 11
9654.8539499091421
 21
5987.5593399999898
 31
0.0
  0
LINE
  5
8EDF
  8
0-1
  6
CONTINUOUS
 62
     3
 10
8991.8528009091388
 20
7848.6052189999891
 30
0.0
 11
8991.8528009091388
 21
5987.5593399999898
 31
0.0
  0
LINE
  5
8EE0
  8
0-1
  6
CONTINUOUS
 62
     3
 10
8954.8526299091227
 20
7848.6052189999891
 30
0.0
 11
8954.8526299091227
 21
5987.5593399999898
 31
0.0
  0
LINE
  5
8EE1
  8
0-1
  6
CONTINUOUS
 62
     3
 10
10391.851481909131
 20
7848.6052189999891
 30
0.0
 11
10391.851481909131
 21
5987.5593399999898
 31
0.0
  0
LINE
  5
8EE2
  8
0-1
  6
CONTINUOUS
 62
     3
 10
10354.853289909121
 20
7848.6052189999891
 30
0.0
 11
10354.853289909121
 21
5987.5593399999898
 31
0.0
  0
LINE
  5
8EE3
  8
0-1
  6
CONTINUOUS
 62
     3
 10
10013.35169290912
 20
5987.5593399999898
 30
0.0
 11
10013.35169290912
 21
7848.6052189999891
 31
0.0
  0
LINE
  5
8EE4
  8
0-1
  6
CONTINUOUS
 62
     3
 10
10033.35274890913
 20
5987.5593399999898
 30
0.0
 11
10033.35274890913
 21
7848.6052189999891
 31
0.0
  0
LINE
  5
8EE5
  8
0-1
  6
CONTINUOUS
 62
     3
 10
9963.3530129091378
 20
5987.5593399999898
 30
0.0
 11
9963.3530129091378
 21
7848.6052189999891
 31
0.0
  0
LINE
  5
8EE6
  8
0-1
  6
CONTINUOUS
 62
     3
 10
10083.35241890914
 20
5987.5593399999898
 30
0.0
 11
10083.35241890914
 21
7848.6052189999891
 31
0.0
  0
LINE
  5
8EE7
  8
0-1
  6
CONTINUOUS
 62
     3
 10
10216.352312909121
 20
5987.5593399999898
 30
0.0
 11
10216.352312909121
 21
7848.6052189999891
 31
0.0
  0
LINE
  5
8EE8
  8
0-1
  6
CONTINUOUS
 62
     3
 10
10231.352114909139
 20
5987.5593399999898
 30
0.0
 11
10231.352114909139
 21
7848.6052189999891
 31
0.0
  0
LINE
  5
8EE9
  8
0-1
  6
CONTINUOUS
 62
     3
 10
9830.3521279091365
 20
5987.5593399999898
 30
0.0
 11
9830.3521279091365
 21
7848.6052189999891
 31
0.0
  0
LINE
  5
8EEA
  8
0-1
  6
CONTINUOUS
 62
     3
 10
9815.3533159091385
 20
5987.5593399999898
 30
0.0
 11
9815.3533159091385
 21
7848.6052189999891
 31
0.0
  0
LINE
  5
8EEB
  8
0-1
  6
CONTINUOUS
 62
     3
 10
9115.3519959091354
 20
5987.5593399999898
 30
0.0
 11
9115.3519959091354
 21
7848.6052189999891
 31
0.0
  0
LINE
  5
8EEC
  8
0-1
  6
CONTINUOUS
 62
     3
 10
9130.3527879091307
 20
5987.5593399999898
 30
0.0
 11
9130.3527879091307
 21
7848.6052189999891
 31
0.0
  0
LINE
  5
8EED
  8
0-1
  6
CONTINUOUS
 62
     3
 10
9531.3527749091354
 20
5987.5593399999898
 30
0.0
 11
9531.3527749091354
 21
7848.6052189999891
 31
0.0
  0
LINE
  5
8EEE
  8
0-1
  6
CONTINUOUS
 62
     3
 10
9516.3519829091401
 20
5987.5593399999898
 30
0.0
 11
9516.3519829091401
 21
7848.6052189999891
 31
0.0
  0
LINE
  5
8EEF
  8
0-1
  6
CONTINUOUS
 62
     3
 10
9383.3530789091328
 20
5987.5593399999898
 30
0.0
 11
9383.3530789091328
 21
7848.6052189999891
 31
0.0
  0
LINE
  5
8EF0
  8
0-1
  6
CONTINUOUS
 62
     3
 10
9263.3516929091456
 20
5987.5593399999898
 30
0.0
 11
9263.3516929091456
 21
7848.6052189999891
 31
0.0
  0
LINE
  5
8EF1
  8
0-1
  6
CONTINUOUS
 62
     3
 10
9333.3543979091428
 20
5987.5593399999898
 30
0.0
 11
9333.3543979091428
 21
7848.6052189999891
 31
0.0
  0
LINE
  5
8EF2
  8
0-1
  6
CONTINUOUS
 62
     3
 10
9313.3533429091385
 20
5987.5593399999898
 30
0.0
 11
9313.3533429091385
 21
7848.6052189999891
 31
0.0
  0
LINE
  5
8EF3
  8
0-1
  6
CONTINUOUS
 62
     3
 10
10515.35166690912
 20
5987.5593399999898
 30
0.0
 11
10515.35166690912
 21
7848.6052189999891
 31
0.0
  0
LINE
  5
8EF4
  8
0-1
  6
CONTINUOUS
 62
     3
 10
10530.352457909141
 20
5987.5593399999898
 30
0.0
 11
10530.352457909141
 21
7848.6052189999891
 31
0.0
  0
LINE
  5
8EF5
  8
0-1
  6
CONTINUOUS
 62
     3
 10
10663.35334290914
 20
5987.5593399999898
 30
0.0
 11
10663.35334290914
 21
7848.6052189999891
 31
0.0
  0
LINE
  5
8EF6
  8
0-1
  6
CONTINUOUS
 62
     3
 10
10931.352444909129
 20
5987.5593399999898
 30
0.0
 11
10931.352444909129
 21
7848.6052189999891
 31
0.0
  0
LINE
  5
8EF7
  8
0-1
  6
CONTINUOUS
 62
     3
 10
10916.35363290912
 20
5987.5593399999898
 30
0.0
 11
10916.35363290912
 21
7848.6052189999891
 31
0.0
  0
LINE
  5
8EF8
  8
0-1
  6
CONTINUOUS
 62
     3
 10
10783.352748909119
 20
5987.5593399999898
 30
0.0
 11
10783.352748909119
 21
7848.6052189999891
 31
0.0
  0
LINE
  5
8EF9
  8
0-1
  6
CONTINUOUS
 62
     3
 10
10733.35307890912
 20
5987.5593399999898
 30
0.0
 11
10733.35307890912
 21
7848.6052189999891
 31
0.0
  0
LINE
  5
8EFA
  8
0-1
  6
CONTINUOUS
 62
     3
 10
10713.35400190914
 20
5987.5593399999898
 30
0.0
 11
10713.35400190914
 21
7848.6052189999891
 31
0.0
  0
LINE
  5
8EFB
  8
0-1
  6
CONTINUOUS
 62
     3
 10
11541.35297290913
 20
5987.5593399999898
 30
0.0
 11
11541.35297290913
 21
7848.6052189999891
 31
0.0
  0
LINE
  5
8EFC
  8
0-1
  6
CONTINUOUS
 62
     3
 10
11521.353896909141
 20
5987.5593399999898
 30
0.0
 11
11521.353896909141
 21
7848.6052189999891
 31
0.0
  0
LINE
  5
8EFD
  8
0-1
  6
CONTINUOUS
 62
     3
 10
11591.35363290912
 20
5987.5593399999898
 30
0.0
 11
11591.35363290912
 21
7848.6052189999891
 31
0.0
  0
LINE
  5
8EFE
  8
0-1
  6
CONTINUOUS
 62
     3
 10
11471.353236909141
 20
5987.5593399999898
 30
0.0
 11
11471.353236909141
 21
7848.6052189999891
 31
0.0
  0
LINE
  5
8EFF
  8
0-1
  6
CONTINUOUS
 62
     3
 10
11338.35334290912
 20
5987.5593399999898
 30
0.0
 11
11338.35334290912
 21
7848.6052189999891
 31
0.0
  0
LINE
  5
8F00
  8
0-1
  6
CONTINUOUS
 62
     3
 10
11323.351560909119
 20
5987.5593399999898
 30
0.0
 11
11323.351560909119
 21
7848.6052189999891
 31
0.0
  0
LINE
  5
8F01
  8
0-1
  6
CONTINUOUS
 62
     3
 10
11724.35352690913
 20
5987.5593399999898
 30
0.0
 11
11724.35352690913
 21
7848.6052189999891
 31
0.0
  0
LINE
  5
8F02
  8
0-1
  6
CONTINUOUS
 62
     3
 10
11739.35233990913
 20
5987.5593399999898
 30
0.0
 11
11739.35233990913
 21
7848.6052189999891
 31
0.0
  0
LINE
  5
8F03
  8
0-1
  6
CONTINUOUS
 62
     3
 10
13839.35233990913
 20
5987.5593399999898
 30
0.0
 11
13839.35233990913
 21
7848.6052189999891
 31
0.0
  0
LINE
  5
8F04
  8
0-1
  6
CONTINUOUS
 62
     3
 10
13824.353526909141
 20
5987.5593399999898
 30
0.0
 11
13824.353526909141
 21
7848.6052189999891
 31
0.0
  0
LINE
  5
8F05
  8
0-1
  6
CONTINUOUS
 62
     3
 10
13423.35255090912
 20
5987.5593399999898
 30
0.0
 11
13423.35255090912
 21
7848.6052189999891
 31
0.0
  0
LINE
  5
8F06
  8
0-1
  6
CONTINUOUS
 62
     3
 10
13438.352352909131
 20
5987.5593399999898
 30
0.0
 11
13438.352352909131
 21
7848.6052189999891
 31
0.0
  0
LINE
  5
8F07
  8
0-1
  6
CONTINUOUS
 62
     3
 10
13571.353236909141
 20
5987.5593399999898
 30
0.0
 11
13571.353236909141
 21
7848.6052189999891
 31
0.0
  0
LINE
  5
8F08
  8
0-1
  6
CONTINUOUS
 62
     3
 10
13691.35264290914
 20
5987.5593399999898
 30
0.0
 11
13691.35264290914
 21
7848.6052189999891
 31
0.0
  0
LINE
  5
8F09
  8
0-1
  6
CONTINUOUS
 62
     3
 10
13621.353896909141
 20
5987.5593399999898
 30
0.0
 11
13621.353896909141
 21
7848.6052189999891
 31
0.0
  0
LINE
  5
8F0A
  8
0-1
  6
CONTINUOUS
 62
     3
 10
13641.352972909141
 20
5987.5593399999898
 30
0.0
 11
13641.352972909141
 21
7848.6052189999891
 31
0.0
  0
LINE
  5
8F0B
  8
0-1
  6
CONTINUOUS
 62
     3
 10
12941.35363290914
 20
5987.5593399999898
 30
0.0
 11
12941.35363290914
 21
7848.6052189999891
 31
0.0
  0
LINE
  5
8F0C
  8
0-1
  6
CONTINUOUS
 62
     3
 10
12921.352576909139
 20
5987.5593399999898
 30
0.0
 11
12921.352576909139
 21
7848.6052189999891
 31
0.0
  0
LINE
  5
8F0D
  8
0-1
  6
CONTINUOUS
 62
     3
 10
12991.352312909141
 20
5987.5593399999898
 30
0.0
 11
12991.352312909141
 21
7848.6052189999891
 31
0.0
  0
LINE
  5
8F0E
  8
0-1
  6
CONTINUOUS
 62
     3
 10
12871.353896909141
 20
5987.5593399999898
 30
0.0
 11
12871.353896909141
 21
7848.6052189999891
 31
0.0
  0
LINE
  5
8F0F
  8
0-1
  6
CONTINUOUS
 62
     3
 10
12738.35301290914
 20
5987.5593399999898
 30
0.0
 11
12738.35301290914
 21
7848.6052189999891
 31
0.0
  0
LINE
  5
8F10
  8
0-1
  6
CONTINUOUS
 62
     3
 10
12723.353210909119
 20
5987.5593399999898
 30
0.0
 11
12723.353210909119
 21
7848.6052189999891
 31
0.0
  0
LINE
  5
8F11
  8
0-1
  6
CONTINUOUS
 62
     3
 10
13124.351217909139
 20
5987.5593399999898
 30
0.0
 11
13124.351217909139
 21
7848.6052189999891
 31
0.0
  0
LINE
  5
8F12
  8
0-1
  6
CONTINUOUS
 62
     3
 10
13139.35299890914
 20
5987.5593399999898
 30
0.0
 11
13139.35299890914
 21
7848.6052189999891
 31
0.0
  0
LINE
  5
8F13
  8
0-1
  6
CONTINUOUS
 62
     3
 10
12439.35365890914
 20
5987.5593399999898
 30
0.0
 11
12439.35365890914
 21
7848.6052189999891
 31
0.0
  0
LINE
  5
8F14
  8
0-1
  6
CONTINUOUS
 62
     3
 10
12424.351877909139
 20
5987.5593399999898
 30
0.0
 11
12424.351877909139
 21
7848.6052189999891
 31
0.0
  0
LINE
  5
8F15
  8
0-1
  6
CONTINUOUS
 62
     3
 10
12023.35386990913
 20
5987.5593399999898
 30
0.0
 11
12023.35386990913
 21
7848.6052189999891
 31
0.0
  0
LINE
  5
8F16
  8
0-1
  6
CONTINUOUS
 62
     3
 10
12038.35268290913
 20
5987.5593399999898
 30
0.0
 11
12038.35268290913
 21
7848.6052189999891
 31
0.0
  0
LINE
  5
8F17
  8
0-1
  6
CONTINUOUS
 62
     3
 10
12171.351586909141
 20
5987.5593399999898
 30
0.0
 11
12171.351586909141
 21
7848.6052189999891
 31
0.0
  0
LINE
  5
8F18
  8
0-1
  6
CONTINUOUS
 62
     3
 10
12291.352972909141
 20
5987.5593399999898
 30
0.0
 11
12291.352972909141
 21
7848.6052189999891
 31
0.0
  0
LINE
  5
8F19
  8
0-1
  6
CONTINUOUS
 62
     3
 10
12221.353236909121
 20
5987.5593399999898
 30
0.0
 11
12221.353236909121
 21
7848.6052189999891
 31
0.0
  0
LINE
  5
8F1A
  8
0-1
  6
CONTINUOUS
 62
     3
 10
12241.352312909141
 20
5987.5593399999898
 30
0.0
 11
12241.352312909141
 21
7848.6052189999891
 31
0.0
  0
LINE
  5
8F1B
  8
0-1
  6
CONTINUOUS
 62
     3
 10
11899.85368590914
 20
7848.6052189999891
 30
0.0
 11
11899.85368590914
 21
5987.5593399999898
 31
0.0
  0
LINE
  5
8F1C
  8
0-1
  6
CONTINUOUS
 62
     3
 10
11862.85252390914
 20
7848.6052189999891
 30
0.0
 11
11862.85252390914
 21
5987.5593399999898
 31
0.0
  0
LINE
  5
8F1D
  8
0-1
  6
CONTINUOUS
 62
     3
 10
13299.851375909129
 20
7848.6052189999891
 30
0.0
 11
13299.851375909129
 21
5987.5593399999898
 31
0.0
  0
LINE
  5
8F1E
  8
0-1
  6
CONTINUOUS
 62
     3
 10
13262.85219390913
 20
7848.6052189999891
 30
0.0
 11
13262.85219390913
 21
5987.5593399999898
 31
0.0
  0
LINE
  5
8F1F
  8
0-1
  6
CONTINUOUS
 62
     3
 10
12599.85302590912
 20
7848.6052189999891
 30
0.0
 11
12599.85302590912
 21
5987.5593399999898
 31
0.0
  0
LINE
  5
8F20
  8
0-1
  6
CONTINUOUS
 62
     3
 10
12562.85285390912
 20
7848.6052189999891
 30
0.0
 11
12562.85285390912
 21
5987.5593399999898
 31
0.0
  0
LINE
  5
8F21
  8
0-1
  6
CONTINUOUS
 62
     3
 10
13999.85368590912
 20
7848.6052189999891
 30
0.0
 11
13999.85368590912
 21
5987.5593399999898
 31
0.0
  0
LINE
  5
8F22
  8
0-1
  6
CONTINUOUS
 62
     3
 10
13962.85252390914
 20
7848.6052189999891
 30
0.0
 11
13962.85252390914
 21
5987.5593399999898
 31
0.0
  0
LINE
  5
8F23
  8
0-1
  6
CONTINUOUS
 62
     3
 10
14450.852497909131
 20
5937.5591749999903
 30
0.0
 11
14450.852497909131
 21
5837.5593399999898
 31
0.0
  0
LINE
  5
8F24
  8
0-1
  6
CONTINUOUS
 62
     3
 10
14418.35170690913
 20
8151.88824999999
 30
0.0
 11
14418.35170690913
 21
5937.5591749999903
 31
0.0
  0
LINE
  5
8F25
  8
0-1
  6
CONTINUOUS
 62
     3
 10
14438.352497909131
 20
8152.4692389999909
 30
0.0
 11
14438.352497909131
 21
5937.5591749999903
 31
0.0
  0
LINE
  5
8F26
  8
0-1
  6
CONTINUOUS
 62
     3
 10
14323.352629909121
 20
7848.6052189999891
 30
0.0
 11
14323.352629909121
 21
5937.5591749999903
 31
0.0
  0
LINE
  5
8F27
  8
0-1
  6
CONTINUOUS
 62
     3
 10
11127.352497909131
 20
8053.3606819999877
 30
0.0
 11
11127.352497909131
 21
7848.6052189999891
 31
0.0
  0
LINE
  5
8F28
  8
0-1
  6
CONTINUOUS
 62
     3
 10
11054.852629909141
 20
7848.6052189999891
 30
0.0
 11
11054.852629909141
 21
5937.5591749999903
 31
0.0
  0
LINE
  5
8F29
  8
0-1
  6
CONTINUOUS
 62
     3
 10
11199.85137590912
 20
7848.6052189999891
 30
0.0
 11
11199.85137590912
 21
5937.5591749999903
 31
0.0
  0
LINE
  5
8F2A
  8
0-1
  6
CONTINUOUS
 62
     3
 10
11199.85137590912
 20
5987.5593399999898
 30
0.0
 11
14323.352629909121
 21
5987.5593399999898
 31
0.0
  0
LINE
  5
8F2B
  8
0-1
  6
CONTINUOUS
 62
     3
 10
8159.3524979091299
 20
5837.5593399999898
 30
0.0
 11
8159.3524979091299
 21
5937.5591749999903
 31
0.0
  0
LINE
  5
8F2C
  8
0-1
  6
CONTINUOUS
 62
     3
 10
8186.8522999091392
 20
7965.3616779999902
 30
0.0
 11
8186.8522999091392
 21
5937.5591749999903
 31
0.0
  0
LINE
  5
8F2D
  8
0-1
  6
CONTINUOUS
 62
     3
 10
8166.8524979091308
 20
7964.7449506837938
 30
0.0
 11
8166.8524979091308
 21
5937.5591749999903
 31
0.0
  0
LINE
  5
8F2E
  8
0-1
  6
CONTINUOUS
 62
     3
 10
8281.8513769091387
 20
7848.6052189999891
 30
0.0
 11
8281.8513769091387
 21
5937.5591749999903
 31
0.0
  0
LINE
  5
8F2F
  8
0-1
  6
CONTINUOUS
 62
     3
 10
8159.3524979091299
 20
5937.5591749999903
 30
0.0
 11
14450.852497909131
 21
5937.5591749999903
 31
0.0
  0
LINE
  5
8F30
  8
0-1
  6
CONTINUOUS
 62
     3
 10
8281.8513769091387
 20
5987.5593399999898
 30
0.0
 11
11054.852629909141
 21
5987.5593399999898
 31
0.0
  0
LINE
  5
8F31
  8
0-1
  6
CONTINUOUS
 62
     3
 10
7476.8514429091283
 20
5837.5593399999898
 30
0.0
 11
14450.852497909131
 21
5837.5593399999898
 31
0.0
  0
LINE
  5
8F32
  8
0-1
  6
CONTINUOUS
 62
     3
 10
8186.8522999091392
 20
7848.6052189999891
 30
0.0
 11
14418.35170690913
 21
7848.6052189999891
 31
0.0
  0
LINE
  5
8F33
  8
0-1
  6
CONTINUOUS
 62
     3
 10
7992.5506739091361
 20
7999.54449999999
 30
0.0
 11
14524.042162909131
 21
8195.0605609999911
 31
0.0
  0
LINE
  5
8F34
  8
0-1
  6
CONTINUOUS
 62
     3
 10
14522.54168790913
 20
8245.0394459999898
 30
0.0
 11
7991.0511889091249
 21
8049.5223959999857
 31
0.0
  0
LINE
  5
8F35
  8
0-1
  6
CONTINUOUS
 62
     3
 10
7987.9611609091362
 20
8052.431297999985
 30
0.0
 11
7987.0010939091298
 21
8084.4168539999891
 31
0.0
  0
LINE
  5
8F36
  8
0-1
  6
CONTINUOUS
 62
     3
 10
7991.8499249091356
 20
8089.5640969999868
 30
0.0
 11
14542.31113990913
 21
8285.6512489999859
 31
0.0
  0
LINE
  5
8F37
  8
0-1
  6
CONTINUOUS
 62
     3
 10
14546.21573990913
 20
8155.7097109999913
 30
0.0
 11
7995.750565909133
 21
7959.623053999987
 31
0.0
  0
LINE
  5
8F38
  8
0-1
  6
CONTINUOUS
 62
     3
 10
7990.6028279091333
 20
7964.4703999999901
 30
0.0
 11
7989.6437509091338
 21
7996.4564509999891
 31
0.0
  0
LINE
  5
8F39
  8
0-1
  6
CONTINUOUS
 62
     3
 10
7989.312181909133
 20
8007.4511919999868
 30
0.0
 11
7988.2917399091311
 21
8041.435566999995
 31
0.0
  0
LINE
  5
8F3A
  8
0-1
  6
CONTINUOUS
 62
     3
 10
7991.2006429091343
 20
8044.5246059999872
 30
0.0
 11
14522.693120909111
 21
8240.0421509999906
 31
0.0
  0
LINE
  5
8F3B
  8
0-1
  6
CONTINUOUS
 62
     3
 10
14523.89270890913
 20
8200.0588449999868
 30
0.0
 11
7992.4022109091311
 21
8004.5427849999915
 31
0.0
  0
LINE
  5
8F3C
  8
0-1
  6
CONTINUOUS
 62
     3
 10
11127.352497909131
 20
8053.3606819999877
 30
0.0
 11
11123.44987690913
 21
8183.3022199999923
 31
0.0
  0
LINE
  5
8F3D
  8
0-1
  6
CONTINUOUS
 62
     3
 10
14513.248837909139
 20
8154.718961999989
 30
0.0
 11
14509.34720690912
 21
8284.6604999999927
 31
0.0
  0
LINE
  5
8F3E
  8
0-1
  6
CONTINUOUS
 62
     3
 10
8004.3426669091259
 20
8089.9392159999879
 30
0.0
 11
8008.2452879091288
 21
7959.9981729999899
 31
0.0
  0
LINE
  5
8F3F
  8
0-5
  6
CONTINUOUS
 62
     4
 10
16155.93748590912
 20
5937.5591749999903
 30
0.0
 11
16275.937881909131
 21
6145.4061519999877
 31
0.0
  0
LINE
  5
8F40
  8
0-5
  6
CONTINUOUS
 62
     4
 10
16035.939068909131
 20
6145.4061519999877
 30
0.0
 11
16155.93748590912
 21
5937.5591749999903
 31
0.0
  0
LINE
  5
8F41
  8
0-5
  6
CONTINUOUS
 62
     4
 10
16275.937881909131
 20
6145.4061519999877
 30
0.0
 11
16035.939068909131
 21
6145.4061519999877
 31
0.0
  0
LINE
  5
8F42
  8
0-5
  6
CONTINUOUS
 62
     4
 10
14530.849792909141
 20
5937.5591749999903
 30
0.0
 11
16248.31567890913
 21
5937.5591749999903
 31
0.0
  0
LINE
  5
8F43
  8
0-5
  6
CONTINUOUS
 62
     4
 10
14395.852497909131
 20
4157.5597359999892
 30
0.0
 11
14395.852497909131
 21
3997.5601979999901
 31
0.0
  0
LINE
  5
8F44
  8
0-5
  6
CONTINUOUS
 62
     4
 10
11127.352497909131
 20
4157.5597359999892
 30
0.0
 11
11127.352497909131
 21
3997.5601979999901
 31
0.0
  0
LINE
  5
8F45
  8
0-5
  6
CONTINUOUS
 62
     4
 10
8209.3524979091253
 20
4157.5597359999892
 30
0.0
 11
8209.3524979091253
 21
3997.5601979999901
 31
0.0
  0
LINE
  5
8F46
  8
2-0
  6
CENTER2
 62
     6
 10
14395.852497909131
 20
5574.9069169999902
 30
0.0
 11
14395.852497909131
 21
6632.0495149999879
 31
0.0
  0
LINE
  5
8F47
  8
2-0
  6
CENTER2
 62
     6
 10
11127.352497909131
 20
5574.9069169999902
 30
0.0
 11
11127.352497909131
 21
6632.0495149999879
 31
0.0
  0
LINE
  5
8F48
  8
2-0
  6
CENTER2
 62
     6
 10
8209.3524979091253
 20
5574.9069169999902
 30
0.0
 11
8209.3524979091253
 21
6632.0495149999879
 31
0.0
  0
ARC
  5
8F49
  8
0-1
  6
CONTINUOUS
 62
     3
 10
14523.291924909119
 20
8220.0509929999898
 30
0.0
 40
24.999998999999999
 50
271.71998600002598
 51
91.719986000025997
  0
ARC
  5
8F4A
  8
0-1
  6
CONTINUOUS
 62
     3
 10
7990.9611209091308
 20
8052.5213659999908
 30
0.0
 40
3.0
 50
181.719985999968
 51
271.71998600002598
  0
ARC
  5
8F4B
  8
0-1
  6
CONTINUOUS
 62
     3
 10
7991.9983889091309
 20
8084.5663079999904
 30
0.0
 40
5.0
 50
91.719986000025997
 51
181.719985999968
  0
ARC
  5
8F4C
  8
0-1
  6
CONTINUOUS
 62
     3
 10
14518.294630909109
 20
8219.9005499999894
 30
0.0
 40
69.999999000000003
 50
293.50677499978701
 51
69.933196999905391
  0
ARC
  5
8F4D
  8
0-1
  6
CONTINUOUS
 62
     3
 10
7995.6021019091368
 20
7964.6208439999891
 30
0.0
 40
5.0
 50
181.719985999968
 51
271.71998600002598
  0
ARC
  5
8F4E
  8
0-1
  6
CONTINUOUS
 62
     3
 10
7992.6407429091341
 20
7996.5460239999893
 30
0.0
 40
3.0
 50
91.719986000025997
 51
181.719985999968
  0
ARC
  5
8F4F
  8
0-1
  6
CONTINUOUS
 62
     3
 10
7992.6249059091351
 20
8047.0687819999866
 30
0.0
 40
2.5
 50
271.71998600002598
 51
91.719986000025997
  0
ARC
  5
8F50
  8
0-1
  6
CONTINUOUS
 62
     3
 10
7993.9749379091281
 20
8002.0886759999903
 30
0.0
 40
2.5
 50
271.71998600002598
 51
91.719986000025997
  0
ARC
  5
8F51
  8
0-1
  6
CONTINUOUS
 62
     3
 10
7991.290710909132
 20
8041.5261299999856
 30
0.0
 40
3.0
 50
91.719986000025997
 51
181.719985999968
  0
ARC
  5
8F52
  8
0-1
  6
CONTINUOUS
 62
     3
 10
14523.291924909119
 20
8220.0509929999898
 30
0.0
 40
20.0
 50
271.71998600002598
 51
91.719986000025997
  0
ARC
  5
8F53
  8
0-1
  6
CONTINUOUS
 62
     3
 10
7992.3111529091238
 20
8007.5407649999916
 30
0.0
 40
3.0
 50
181.719985999968
 51
271.71998600002598
  0
CIRCLE
  5
8F54
  8
0-5
  6
CONTINUOUS
 62
     4
 10
11127.352497909131
 20
3797.5590429999902
 30
0.0
 40
199.9999949999999
  0
CIRCLE
  5
8F55
  8
0-5
  6
CONTINUOUS
 62
     4
 10
14395.852497909131
 20
3797.5590429999902
 30
0.0
 40
199.9999949999999
  0
CIRCLE
  5
8F56
  8
0-5
  6
CONTINUOUS
 62
     4
 10
8209.3524979091253
 20
3797.5590429999902
 30
0.0
 40
199.9999949999999
  0
TEXT
  5
8F57
  8
0-5
  6
CONTINUOUS
 62
     7
 10
15696.845556909129
 20
6225.4054259999912
 30
0.0
 40
160.0
  1
布基礎天端
 72
     4
 11
16155.512223575801
 21
6305.4054259999921
 31
0.0
  0
TEXT
  5
8F58
  8
0-5
  6
CONTINUOUS
 62
     7
 10
14348.896337909109
 20
3714.3482469999931
 30
0.0
 40
160.0
  1
A
 72
     4
 11
14402.22967124245
 21
3794.3482469999922
 31
0.0
  0
TEXT
  5
8F59
  8
0-5
  6
CONTINUOUS
 62
     7
 10
11080.396337909109
 20
3714.3482469999931
 30
0.0
 40
160.0
  1
B
 72
     4
 11
11133.72967124245
 21
3794.3482469999922
 31
0.0
  0
TEXT
  5
8F5A
  8
0-5
  6
CONTINUOUS
 62
     7
 10
8162.3963379091392
 20
3714.3482469999931
 30
0.0
 40
160.0
  1
C
 72
     4
 11
8215.7296712424723
 21
3794.3482469999922
 31
0.0
  0
LINE
  5
8F5B
  8
0-1
  6
CONTINUOUS
 62
     3
 10
14123.354860909119
 20
5987.5593399999898
 30
0.0
 11
14123.354860909119
 21
7848.6052189999891
 31
0.0
  0
LINE
  5
8F5C
  8
0-1
  6
CONTINUOUS
 62
     3
 10
14138.354662909131
 20
5987.5593399999898
 30
0.0
 11
14138.354662909131
 21
7848.6052189999891
 31
0.0
  0
LINE
  5
8F67
  8
0-1
  6
CONTINUOUS
 62
     3
 10
25777.354556999991
 20
5937.5591749999867
 30
0.0
 11
25677.355215999989
 21
5937.5591749999867
 31
0.0
  0
LINE
  5
8F68
  8
0-1
  6
CONTINUOUS
 62
     3
 10
25677.355215999989
 20
5937.5591749999867
 30
0.0
 11
25677.355215999989
 21
5837.5593399999898
 31
0.0
  0
LINE
  5
8F69
  8
0-1
  6
CONTINUOUS
 62
     3
 10
25777.354556999991
 20
5837.5593399999898
 30
0.0
 11
25777.354556999991
 21
5937.5591749999867
 31
0.0
  0
LINE
  5
8F6A
  8
0-1
  6
CONTINUOUS
 62
     3
 10
25749.855083999999
 20
8286.0595239999893
 30
0.0
 11
25749.855083999999
 21
5937.5591749999867
 31
0.0
  0
LINE
  5
8F6B
  8
0-1
  6
CONTINUOUS
 62
     3
 10
25769.854160999988
 20
8156.058600999987
 30
0.0
 11
25769.854160999988
 21
5937.5591749999867
 31
0.0
  0
LINE
  5
8F6C
  8
0-1
  6
CONTINUOUS
 62
     3
 10
25639.85521599996
 20
7845.5592339999839
 30
0.0
 11
25639.85521599996
 21
5837.5593399999898
 31
0.0
  0
LINE
  5
8F6D
  8
0-1
  6
CONTINUOUS
 62
     3
 10
25684.855611999981
 20
8156.058600999987
 30
0.0
 11
25684.855611999981
 21
5937.5591749999867
 31
0.0
  0
LINE
  5
8F76
  8
0-1
  6
CONTINUOUS
 62
     3
 10
23903.352181000009
 20
8156.058600999987
 30
0.0
 11
23903.352181000009
 21
5837.5593399999898
 31
0.0
  0
LINE
  5
8F77
  8
0-1
  6
CONTINUOUS
 62
     3
 10
23948.352577000001
 20
7845.5592339999839
 30
0.0
 11
23948.352577000001
 21
5837.5593399999898
 31
0.0
  0
LINE
  5
8F7A
  8
0-1
  6
CONTINUOUS
 62
     3
 10
23948.352577000001
 20
7777.0188979999903
 30
0.0
 11
25639.85521599996
 21
7777.0188979999903
 31
0.0
  0
LINE
  5
8F7B
  8
0-1
  6
CONTINUOUS
 62
     3
 10
23948.352577000001
 20
6422.5600329999879
 30
0.0
 11
25639.85521599996
 21
6422.5600329999879
 31
0.0
  0
LINE
  5
8F7C
  8
0-1
  6
CONTINUOUS
 62
     3
 10
23948.352577000001
 20
6487.5590099999918
 30
0.0
 11
25639.85521599996
 21
6487.5590099999918
 31
0.0
  0
LINE
  5
8F7D
  8
0-1
  6
CONTINUOUS
 62
     3
 10
23948.352577000001
 20
6552.5594719999881
 30
0.0
 11
25639.85521599996
 21
6552.5594719999881
 31
0.0
  0
LINE
  5
8F7E
  8
0-1
  6
CONTINUOUS
 62
     3
 10
23948.352577000001
 20
6617.5594389999887
 30
0.0
 11
25639.85521599996
 21
6617.5594389999887
 31
0.0
  0
LINE
  5
8F7F
  8
0-1
  6
CONTINUOUS
 62
     3
 10
23948.352577000001
 20
6682.5594059999867
 30
0.0
 11
25639.85521599996
 21
6682.5594059999867
 31
0.0
  0
LINE
  5
8F80
  8
0-1
  6
CONTINUOUS
 62
     3
 10
23948.352577000001
 20
6747.5593729999873
 30
0.0
 11
25639.85521599996
 21
6747.5593729999873
 31
0.0
  0
LINE
  5
8F81
  8
0-1
  6
CONTINUOUS
 62
     3
 10
23948.352577000001
 20
6812.5598349999918
 30
0.0
 11
25639.85521599996
 21
6812.5598349999918
 31
0.0
  0
LINE
  5
8F82
  8
0-1
  6
CONTINUOUS
 62
     3
 10
23948.352577000001
 20
6877.5588119999893
 30
0.0
 11
25639.85521599996
 21
6877.5588119999893
 31
0.0
  0
LINE
  5
8F83
  8
0-1
  6
CONTINUOUS
 62
     3
 10
23948.352577000001
 20
6942.5592739999875
 30
0.0
 11
25639.85521599996
 21
6942.5592739999875
 31
0.0
  0
LINE
  5
8F84
  8
0-1
  6
CONTINUOUS
 62
     3
 10
23948.352577000001
 20
7007.5592409999872
 30
0.0
 11
25639.85521599996
 21
7007.5592409999872
 31
0.0
  0
LINE
  5
8F85
  8
0-1
  6
CONTINUOUS
 62
     3
 10
23948.352577000001
 20
7072.5597029999863
 30
0.0
 11
25639.85521599996
 21
7072.5597029999863
 31
0.0
  0
LINE
  5
8F86
  8
0-1
  6
CONTINUOUS
 62
     3
 10
23948.352577000001
 20
7137.5586799999883
 30
0.0
 11
25639.85521599996
 21
7137.5586799999883
 31
0.0
  0
LINE
  5
8F87
  8
0-1
  6
CONTINUOUS
 62
     3
 10
23948.352577000001
 20
7202.5591419999901
 30
0.0
 11
25639.85521599996
 21
7202.5591419999901
 31
0.0
  0
LINE
  5
8F88
  8
0-1
  6
CONTINUOUS
 62
     3
 10
23948.352577000001
 20
7267.559108999988
 30
0.0
 11
25639.85521599996
 21
7267.559108999988
 31
0.0
  0
LINE
  5
8F89
  8
0-1
  6
CONTINUOUS
 62
     3
 10
23948.352577000001
 20
7332.5590759999868
 30
0.0
 11
25639.85521599996
 21
7332.5590759999868
 31
0.0
  0
LINE
  5
8F8A
  8
0-1
  6
CONTINUOUS
 62
     3
 10
23948.352577000001
 20
7397.5595379999922
 30
0.0
 11
25639.85521599996
 21
7397.5595379999922
 31
0.0
  0
LINE
  5
8F8B
  8
0-1
  6
CONTINUOUS
 62
     3
 10
23948.352577000001
 20
7462.5595049999874
 30
0.0
 11
25639.85521599996
 21
7462.5595049999874
 31
0.0
  0
LINE
  5
8F8C
  8
0-1
  6
CONTINUOUS
 62
     3
 10
23948.352577000001
 20
7527.5599669999856
 30
0.0
 11
25639.85521599996
 21
7527.5599669999856
 31
0.0
  0
LINE
  5
8F8D
  8
0-1
  6
CONTINUOUS
 62
     3
 10
23948.352577000001
 20
7592.5589439999858
 30
0.0
 11
25639.85521599996
 21
7592.5589439999858
 31
0.0
  0
LINE
  5
8F8E
  8
0-1
  6
CONTINUOUS
 62
     3
 10
23948.352577000001
 20
7657.5594059999903
 30
0.0
 11
25639.85521599996
 21
7657.5594059999903
 31
0.0
  0
LINE
  5
8F8F
  8
0-1
  6
CONTINUOUS
 62
     3
 10
23948.352577000001
 20
7722.5593729999873
 30
0.0
 11
25639.85521599996
 21
7722.5593729999873
 31
0.0
  0
LINE
  5
8F90
  8
0-1
  6
CONTINUOUS
 62
     3
 10
23948.352577000001
 20
5902.5588119999893
 30
0.0
 11
25639.85521599996
 21
5902.5588119999893
 31
0.0
  0
LINE
  5
8F91
  8
0-1
  6
CONTINUOUS
 62
     3
 10
23948.352577000001
 20
5967.5597689999859
 30
0.0
 11
25639.85521599996
 21
5967.5597689999859
 31
0.0
  0
LINE
  5
8F92
  8
0-1
  6
CONTINUOUS
 62
     3
 10
23948.352577000001
 20
6032.5587459999879
 30
0.0
 11
25639.85521599996
 21
6032.5587459999879
 31
0.0
  0
LINE
  5
8F93
  8
0-1
  6
CONTINUOUS
 62
     3
 10
23948.352577000001
 20
6097.5597029999863
 30
0.0
 11
25639.85521599996
 21
6097.5597029999863
 31
0.0
  0
LINE
  5
8F94
  8
0-1
  6
CONTINUOUS
 62
     3
 10
23948.352577000001
 20
6162.5591749999867
 30
0.0
 11
25639.85521599996
 21
6162.5591749999867
 31
0.0
  0
LINE
  5
8F95
  8
0-1
  6
CONTINUOUS
 62
     3
 10
23948.352577000001
 20
6227.5591419999882
 30
0.0
 11
25639.85521599996
 21
6227.5591419999882
 31
0.0
  0
LINE
  5
8F96
  8
0-1
  6
CONTINUOUS
 62
     3
 10
23948.352577000001
 20
6292.5591089999898
 30
0.0
 11
25639.85521599996
 21
6292.5591089999898
 31
0.0
  0
LINE
  5
8F97
  8
0-1
  6
CONTINUOUS
 62
     3
 10
23948.352577000001
 20
6357.5585809999893
 30
0.0
 11
25639.85521599996
 21
6357.5585809999893
 31
0.0
  0
LINE
  5
8F99
  8
0-1
  6
CONTINUOUS
 62
     3
 10
23903.352181000009
 20
7845.5592339999839
 30
0.0
 11
25684.855611999981
 21
7845.5592339999839
 31
0.0
  0
LINE
  5
8F9A
  8
0-1
  6
CONTINUOUS
 62
     3
 10
20542.353237999989
 20
5837.5593399999898
 30
0.0
 11
25777.354556999991
 21
5837.5593399999898
 31
0.0
  0
LINE
  5
8FA4
  8
0-1
  6
CONTINUOUS
 62
     3
 10
23818.353632999992
 20
8156.058600999987
 30
0.0
 11
23818.353632999992
 21
5837.5593399999898
 31
0.0
  0
LINE
  5
8FA5
  8
0-1
  6
CONTINUOUS
 62
     3
 10
23773.35521699996
 20
7845.5592339999839
 30
0.0
 11
23773.35521699996
 21
5837.5593399999898
 31
0.0
  0
LINE
  5
8FB0
  8
0-1
  6
CONTINUOUS
 62
     3
 10
20642.354556999991
 20
5937.5591749999867
 30
0.0
 11
20642.354556999991
 21
5837.5593399999898
 31
0.0
  0
LINE
  5
8FB1
  8
0-1
  6
CONTINUOUS
 62
     3
 10
20542.353237999989
 20
5837.5593399999898
 30
0.0
 11
20542.353237999989
 21
5937.5591749999867
 31
0.0
  0
LINE
  5
8FB2
  8
0-1
  6
CONTINUOUS
 62
     3
 10
20542.353237999989
 20
5937.5591749999867
 30
0.0
 11
20642.354556999991
 21
5937.5591749999867
 31
0.0
  0
LINE
  5
8FB3
  8
0-1
  6
CONTINUOUS
 62
     3
 10
20679.854556999999
 20
7845.5592339999839
 30
0.0
 11
20679.854556999999
 21
5837.5593399999898
 31
0.0
  0
LINE
  5
8FB4
  8
0-1
  6
CONTINUOUS
 62
     3
 10
20634.852181999991
 20
8156.058600999987
 30
0.0
 11
20634.852181999991
 21
5937.5591749999867
 31
0.0
  0
LINE
  5
8FB5
  8
0-1
  6
CONTINUOUS
 62
     3
 10
20569.854688999982
 20
8286.0595239999893
 30
0.0
 11
20569.854688999982
 21
5937.5591749999867
 31
0.0
  0
LINE
  5
8FB6
  8
0-1
  6
CONTINUOUS
 62
     3
 10
20549.851653999991
 20
8156.058600999987
 30
0.0
 11
20549.851653999991
 21
5937.5591749999867
 31
0.0
  0
LINE
  5
8FB7
  8
0-1
  6
CONTINUOUS
 62
     3
 10
20634.852181999991
 20
7845.5592339999839
 30
0.0
 11
23818.353632999992
 21
7845.5592339999839
 31
0.0
  0
LINE
  5
8FB9
  8
0-1
  6
CONTINUOUS
 62
     3
 10
20679.854556999999
 20
6357.5585809999893
 30
0.0
 11
23773.35521699996
 21
6357.5585809999893
 31
0.0
  0
LINE
  5
8FBA
  8
0-1
  6
CONTINUOUS
 62
     3
 10
20679.854556999999
 20
6292.5591089999898
 30
0.0
 11
23773.35521699996
 21
6292.5591089999898
 31
0.0
  0
LINE
  5
8FBB
  8
0-1
  6
CONTINUOUS
 62
     3
 10
20679.854556999999
 20
6227.5591419999882
 30
0.0
 11
23773.35521699996
 21
6227.5591419999882
 31
0.0
  0
LINE
  5
8FBC
  8
0-1
  6
CONTINUOUS
 62
     3
 10
20679.854556999999
 20
6162.5591749999867
 30
0.0
 11
23773.35521699996
 21
6162.5591749999867
 31
0.0
  0
LINE
  5
8FBD
  8
0-1
  6
CONTINUOUS
 62
     3
 10
20679.854556999999
 20
6097.5597029999863
 30
0.0
 11
23773.35521699996
 21
6097.5597029999863
 31
0.0
  0
LINE
  5
8FBE
  8
0-1
  6
CONTINUOUS
 62
     3
 10
20679.854556999999
 20
6032.5587459999879
 30
0.0
 11
23773.35521699996
 21
6032.5587459999879
 31
0.0
  0
LINE
  5
8FBF
  8
0-1
  6
CONTINUOUS
 62
     3
 10
20679.854556999999
 20
5967.5597689999859
 30
0.0
 11
23773.35521699996
 21
5967.5597689999859
 31
0.0
  0
LINE
  5
8FC0
  8
0-1
  6
CONTINUOUS
 62
     3
 10
20679.854556999999
 20
5902.5588119999893
 30
0.0
 11
23773.35521699996
 21
5902.5588119999893
 31
0.0
  0
LINE
  5
8FC1
  8
0-1
  6
CONTINUOUS
 62
     3
 10
20679.854556999999
 20
7722.5593729999873
 30
0.0
 11
23773.35521699996
 21
7722.5593729999873
 31
0.0
  0
LINE
  5
8FC2
  8
0-1
  6
CONTINUOUS
 62
     3
 10
20679.854556999999
 20
7657.5594059999903
 30
0.0
 11
23773.35521699996
 21
7657.5594059999903
 31
0.0
  0
LINE
  5
8FC3
  8
0-1
  6
CONTINUOUS
 62
     3
 10
20679.854556999999
 20
7592.5589439999858
 30
0.0
 11
23773.35521699996
 21
7592.5589439999858
 31
0.0
  0
LINE
  5
8FC4
  8
0-1
  6
CONTINUOUS
 62
     3
 10
20679.854556999999
 20
7527.5599669999856
 30
0.0
 11
23773.35521699996
 21
7527.5599669999856
 31
0.0
  0
LINE
  5
8FC5
  8
0-1
  6
CONTINUOUS
 62
     3
 10
20679.854556999999
 20
7462.5595049999874
 30
0.0
 11
23773.35521699996
 21
7462.5595049999874
 31
0.0
  0
LINE
  5
8FC6
  8
0-1
  6
CONTINUOUS
 62
     3
 10
20679.854556999999
 20
7397.5595379999922
 30
0.0
 11
23773.35521699996
 21
7397.5595379999922
 31
0.0
  0
LINE
  5
8FC7
  8
0-1
  6
CONTINUOUS
 62
     3
 10
20679.854556999999
 20
7332.5590759999868
 30
0.0
 11
23773.35521699996
 21
7332.5590759999868
 31
0.0
  0
LINE
  5
8FC8
  8
0-1
  6
CONTINUOUS
 62
     3
 10
20679.854556999999
 20
7267.559108999988
 30
0.0
 11
23773.35521699996
 21
7267.559108999988
 31
0.0
  0
LINE
  5
8FC9
  8
0-1
  6
CONTINUOUS
 62
     3
 10
20679.854556999999
 20
7202.5591419999901
 30
0.0
 11
23773.35521699996
 21
7202.5591419999901
 31
0.0
  0
LINE
  5
8FCA
  8
0-1
  6
CONTINUOUS
 62
     3
 10
20679.854556999999
 20
7137.5586799999883
 30
0.0
 11
23773.35521699996
 21
7137.5586799999883
 31
0.0
  0
LINE
  5
8FCB
  8
0-1
  6
CONTINUOUS
 62
     3
 10
20679.854556999999
 20
7072.5597029999863
 30
0.0
 11
23773.35521699996
 21
7072.5597029999863
 31
0.0
  0
LINE
  5
8FCC
  8
0-1
  6
CONTINUOUS
 62
     3
 10
20679.854556999999
 20
7007.5592409999872
 30
0.0
 11
23773.35521699996
 21
7007.5592409999872
 31
0.0
  0
LINE
  5
8FCD
  8
0-1
  6
CONTINUOUS
 62
     3
 10
20679.854556999999
 20
6942.5592739999875
 30
0.0
 11
23773.35521699996
 21
6942.5592739999875
 31
0.0
  0
LINE
  5
8FCE
  8
0-1
  6
CONTINUOUS
 62
     3
 10
20679.854556999999
 20
6877.5588119999893
 30
0.0
 11
23773.35521699996
 21
6877.5588119999893
 31
0.0
  0
LINE
  5
8FCF
  8
0-1
  6
CONTINUOUS
 62
     3
 10
20679.854556999999
 20
6812.5598349999918
 30
0.0
 11
23773.35521699996
 21
6812.5598349999918
 31
0.0
  0
LINE
  5
8FD0
  8
0-1
  6
CONTINUOUS
 62
     3
 10
20679.854556999999
 20
6747.5593729999873
 30
0.0
 11
23773.35521699996
 21
6747.5593729999873
 31
0.0
  0
LINE
  5
8FD1
  8
0-1
  6
CONTINUOUS
 62
     3
 10
20679.854556999999
 20
6682.5594059999867
 30
0.0
 11
23773.35521699996
 21
6682.5594059999867
 31
0.0
  0
LINE
  5
8FD2
  8
0-1
  6
CONTINUOUS
 62
     3
 10
20679.854556999999
 20
6617.5594389999887
 30
0.0
 11
23773.35521699996
 21
6617.5594389999887
 31
0.0
  0
LINE
  5
8FD3
  8
0-1
  6
CONTINUOUS
 62
     3
 10
20679.854556999999
 20
6552.5594719999881
 30
0.0
 11
23773.35521699996
 21
6552.5594719999881
 31
0.0
  0
LINE
  5
8FD4
  8
0-1
  6
CONTINUOUS
 62
     3
 10
20679.854556999999
 20
6487.5590099999918
 30
0.0
 11
23773.35521699996
 21
6487.5590099999918
 31
0.0
  0
LINE
  5
8FD5
  8
0-1
  6
CONTINUOUS
 62
     3
 10
20679.854556999999
 20
6422.5600329999879
 30
0.0
 11
23773.35521699996
 21
6422.5600329999879
 31
0.0
  0
LINE
  5
8FD6
  8
0-1
  6
CONTINUOUS
 62
     3
 10
20679.854556999999
 20
7777.0188979999903
 30
0.0
 11
23773.35521699996
 21
7777.0188979999903
 31
0.0
  0
LINE
  5
8FDC
  8
0-2
  6
CONTINUOUS
 62
     4
 10
25157.795896500011
 20
6584.7850439999847
 30
0.0
 11
25057.796556500001
 21
6584.7850439999847
 31
0.0
  0
LINE
  5
8FDD
  8
0-2
  6
CONTINUOUS
 62
     4
 10
24430.409916500012
 20
6584.7850439999847
 30
0.0
 11
24530.409257499989
 21
6584.7850439999847
 31
0.0
  0
LINE
  5
8FDE
  8
0-2
  6
CONTINUOUS
 62
     4
 10
22590.294907500011
 20
6584.7850439999847
 30
0.0
 11
22490.295567500001
 21
6584.7850439999847
 31
0.0
  0
LINE
  5
8FDF
  8
0-2
  6
CONTINUOUS
 62
     4
 10
21862.910906500001
 20
6584.7850439999847
 30
0.0
 11
21962.908267499992
 21
6584.7850439999847
 31
0.0
  0
LINE
  5
8FE0
  8
0-5
  6
CONTINUOUS
 62
     4
 10
23860.853896999979
 20
4157.5592409999863
 30
0.0
 11
23860.853896999979
 21
3997.5592079999892
 31
0.0
  0
LINE
  5
8FE1
  8
0-5
  6
CONTINUOUS
 62
     4
 10
20592.35389699999
 20
4157.5592409999863
 30
0.0
 11
20592.35389699999
 21
3997.5592079999892
 31
0.0
  0
LINE
  5
8FE2
  8
2-0
  6
CENTER2
 62
     6
 10
25727.353897000001
 20
5574.9069169999893
 30
0.0
 11
25727.353897000001
 21
6612.048953999988
 31
0.0
  0
LINE
  5
8FE3
  8
2-0
  6
CENTER2
 62
     6
 10
23860.853896999979
 20
5574.9069169999893
 30
0.0
 11
23860.853896999979
 21
6612.048953999988
 31
0.0
  0
LINE
  5
8FE4
  8
2-0
  6
CENTER2
 62
     6
 10
20592.35389699999
 20
5574.9069169999893
 30
0.0
 11
20592.35389699999
 21
6612.048953999988
 31
0.0
  0
CIRCLE
  5
8FF5
  8
0-5
  6
CONTINUOUS
 62
     4
 10
23860.853896999979
 20
3797.5595379999882
 30
0.0
 40
199.9999949999999
  0
CIRCLE
  5
8FF6
  8
0-5
  6
CONTINUOUS
 62
     4
 10
20592.35389699999
 20
3797.5595379999882
 30
0.0
 40
199.9999949999999
  0
TEXT
  5
8FF7
  8
0-5
  6
CONTINUOUS
 62
     7
 10
19974.177958
 20
6566.9195867419858
 30
0.0
 40
160.0
  1
(2131.5)
 50
90.0
 72
     4
 11
19894.177958
 21
7020.2529200753188
 31
0.0
  0
TEXT
  5
8FF8
  8
0-5
  6
CONTINUOUS
 62
     7
 10
23813.925449999992
 20
3711.0295839999881
 30
0.0
 40
160.0
  1
2
 72
     4
 11
23867.25878333332
 21
3791.0295839999881
 31
0.0
  0
TEXT
  5
8FF9
  8
0-5
  6
CONTINUOUS
 62
     7
 10
20545.42149099999
 20
3711.0295839999881
 30
0.0
 40
160.0
  1
1
 72
     4
 11
20572.088157666662
 21
3791.0295839999881
 31
0.0
  0
CIRCLE
  5
8FFA
  8
0-4
  6
CONTINUOUS
 62
     4
 10
22226.603897000001
 20
6323.6152809999867
 30
0.0
 40
18.487504999999981
  0
CIRCLE
  5
8FFB
  8
0-4
  6
CONTINUOUS
 62
     4
 10
24794.103896500001
 20
6323.6152809999867
 30
0.0
 40
18.487504999999981
  0
LINE
  5
8FFC
  8
SUNPOU
  6
CONTINUOUS
 10
20309.853897000001
 20
4637.5593399999898
 30
0.0
 11
19951.89889027887
 21
4637.5593399999898
 31
0.0
  0
LINE
  5
8FFD
  8
SUNPOU
  6
CONTINUOUS
 10
26009.857855999991
 20
4637.5593399999898
 30
0.0
 11
26367.812862721101
 21
4637.5593399999898
 31
0.0
  0
LINE
  5
8FFE
  8
0-5
  6
CONTINUOUS
 62
     4
 10
25769.85389699999
 20
4157.5592409999863
 30
0.0
 11
25769.85389699999
 21
3997.5592079999892
 31
0.0
  0
CIRCLE
  5
8FFF
  8
0-5
  6
CONTINUOUS
 62
     4
 10
25769.85389699999
 20
3797.5595379999882
 30
0.0
 40
199.9999949999999
  0
TEXT
  5
9000
  8
0-5
  6
CONTINUOUS
 62
     7
 10
25722.925449999999
 20
3711.0295839999881
 30
0.0
 40
160.0
  1
3
 72
     4
 11
25776.258783333331
 21
3791.0295839999881
 31
0.0
  0
LINE
  5
9001
  8
SUNPOU
  6
CONTINUOUS
 10
7986.8524979091299
 20
9085.5608509999875
 30
0.0
 11
7511.5633852688989
 21
9085.5608509999875
 31
0.0
  0
LINE
  5
9002
  8
2-0
  6
CONTINUOUS
 62
     6
 10
24023.68726100001
 20
13109.59584699997
 30
0.0
 11
25023.680662999981
 21
13109.59584699997
 31
0.0
  0
LINE
  5
9003
  8
2-0
  6
CONTINUOUS
 62
     6
 10
25491.621040000002
 20
13580.01656099996
 30
0.0
 11
25023.680662999981
 21
13109.59584699997
 31
0.0
  0
LINE
  5
9004
  8
2-0
  6
CONTINUOUS
 62
     6
 10
25452.980836999999
 20
17122.124207999979
 30
0.0
 11
25148.285419000011
 21
17225.777738999979
 31
0.0
  0
LINE
  5
9005
  8
2-0
  6
CONTINUOUS
 62
     6
 10
25608.00287599998
 20
16632.50216399999
 30
0.0
 11
25148.285419000011
 21
16388.588852999968
 31
0.0
  0
LINE
  5
9006
  8
2-0
  6
CONTINUOUS
 62
     6
 10
24228.282384000009
 20
16388.588852999968
 30
0.0
 11
25148.285419000011
 21
16388.588852999968
 31
0.0
  0
LINE
  5
9007
  8
2-0
  6
CONTINUOUS
 62
     6
 10
23948.291357000009
 20
17225.777738999979
 30
0.0
 11
25148.285419000011
 21
17225.777738999979
 31
0.0
  0
LINE
  5
9008
  8
2-0
  6
CONTINUOUS
 62
     6
 10
25524.180161000011
 20
13901.700206999951
 30
0.0
 11
25148.285419000011
 21
14082.644041999951
 31
0.0
  0
LINE
  5
9009
  8
2-0
  6
CONTINUOUS
 62
     6
 10
24628.283703000001
 20
14082.644041999951
 30
0.0
 11
25148.285419000011
 21
14082.644041999951
 31
0.0
  0
LINE
  5
900A
  8
2-0
  6
CONTINUOUS
 62
     4
 10
23840.346177000021
 20
20058.597496999992
 30
0.0
 11
23840.346177000021
 21
20788.594461999968
 31
0.0
  0
LINE
  5
900B
  8
2-0
  6
CONTINUOUS
 62
     3
 10
25719.346837000001
 20
19869.595042999968
 30
0.0
 11
25719.346837000001
 21
19863.599080999978
 31
0.0
  0
LINE
  5
900C
  8
2-0
  6
CONTINUOUS
 62
     3
 10
25719.346837000001
 20
19863.599080999978
 30
0.0
 11
25749.344461000001
 21
19863.599080999978
 31
0.0
  0
LINE
  5
900D
  8
2-0
  6
CONTINUOUS
 62
     3
 10
25749.344461000001
 20
19893.59868499995
 30
0.0
 11
25668.342561000001
 21
19893.59868499995
 31
0.0
  0
LINE
  5
900E
  8
2-0
  6
CONTINUOUS
 62
     3
 10
25719.346837000001
 20
19853.30162499996
 30
0.0
 11
25749.344461000001
 21
19853.30162499996
 31
0.0
  0
LINE
  5
900F
  8
2-0
  6
CONTINUOUS
 62
     3
 10
25719.346837000001
 20
19871.30336699999
 30
0.0
 11
25719.346837000001
 21
19853.30162499996
 31
0.0
  0
LINE
  5
9010
  8
2-0
  6
CONTINUOUS
 62
     3
 10
25744.344197000009
 20
19871.30336699999
 30
0.0
 11
25719.346837000001
 21
19871.30336699999
 31
0.0
  0
LINE
  5
9011
  8
2-0
  6
CONTINUOUS
 62
     3
 10
25744.344197000009
 20
19866.295184999992
 30
0.0
 11
25744.344197000009
 21
19871.30336699999
 31
0.0
  0
LINE
  5
9012
  8
2-0
  6
CONTINUOUS
 62
     3
 10
25737.342640000021
 20
19866.295184999992
 30
0.0
 11
25744.344197000009
 21
19866.295184999992
 31
0.0
  0
LINE
  5
9013
  8
2-0
  6
CONTINUOUS
 62
     3
 10
25637.046372000001
 20
19966.595411999981
 30
0.0
 11
25637.046372000001
 21
19973.600927999989
 31
0.0
  0
LINE
  5
9014
  8
2-0
  6
CONTINUOUS
 62
     3
 10
25637.046372000001
 20
19973.600927999989
 30
0.0
 11
25642.046635999988
 21
19973.600927999989
 31
0.0
  0
LINE
  5
9015
  8
2-0
  6
CONTINUOUS
 62
     3
 10
25642.046635999988
 20
19973.600927999989
 30
0.0
 11
25642.046635999988
 21
19948.59169099998
 31
0.0
  0
LINE
  5
9016
  8
2-0
  6
CONTINUOUS
 62
     3
 10
25642.046635999988
 20
19948.59169099998
 30
0.0
 11
25624.044893999991
 21
19948.59169099998
 31
0.0
  0
LINE
  5
9017
  8
2-0
  6
CONTINUOUS
 62
     3
 10
25624.044893999991
 20
19948.59169099998
 30
0.0
 11
25624.044893999991
 21
19978.595253999982
 31
0.0
  0
LINE
  5
9018
  8
2-0
  6
CONTINUOUS
 62
     3
 10
25634.34235000001
 20
19978.595253999982
 30
0.0
 11
25749.344461000001
 21
19978.595253999982
 31
0.0
  0
LINE
  5
9019
  8
2-0
  6
CONTINUOUS
 62
     3
 10
25634.34235000001
 20
19948.59169099998
 30
0.0
 11
25634.34235000001
 21
19978.595253999982
 31
0.0
  0
LINE
  5
901A
  8
2-0
  6
CONTINUOUS
 62
     3
 10
25640.344249999998
 20
19948.59169099998
 30
0.0
 11
25634.34235000001
 21
19948.59169099998
 31
0.0
  0
LINE
  5
901B
  8
2-0
  6
CONTINUOUS
 62
     3
 10
25737.342640000021
 20
19162.498362499959
 30
0.0
 11
25744.344197000009
 21
19162.498362499959
 31
0.0
  0
LINE
  5
901C
  8
2-0
  6
CONTINUOUS
 62
     3
 10
25744.344197000009
 20
19162.498362499959
 30
0.0
 11
25744.344197000009
 21
19167.49862649995
 31
0.0
  0
LINE
  5
901D
  8
2-0
  6
CONTINUOUS
 62
     3
 10
25744.344197000009
 20
19167.49862649995
 30
0.0
 11
25719.346837000001
 21
19167.49862649995
 31
0.0
  0
LINE
  5
901E
  8
2-0
  6
CONTINUOUS
 62
     3
 10
25719.346837000001
 20
19167.49862649995
 30
0.0
 11
25719.346837000001
 21
19149.50282249997
 31
0.0
  0
LINE
  5
901F
  8
2-0
  6
CONTINUOUS
 62
     3
 10
25719.346837000001
 20
19149.50282249997
 30
0.0
 11
25749.344461000001
 21
19149.50282249997
 31
0.0
  0
LINE
  5
9020
  8
2-0
  6
CONTINUOUS
 62
     3
 10
25719.346837000001
 20
19165.594329499942
 30
0.0
 11
25719.346837000001
 21
19159.596388499969
 31
0.0
  0
LINE
  5
9021
  8
2-0
  6
CONTINUOUS
 62
     3
 10
25719.346837000001
 20
19159.596388499969
 30
0.0
 11
25749.344461000001
 21
19159.596388499969
 31
0.0
  0
LINE
  5
9022
  8
2-0
  6
CONTINUOUS
 62
     3
 10
25749.344461000001
 20
19159.596388499969
 30
0.0
 11
25749.344461000001
 21
19196.597549499958
 31
0.0
  0
LINE
  5
9023
  8
2-0
  6
CONTINUOUS
 62
     3
 10
25719.346837000001
 20
19196.597549499958
 30
0.0
 11
25749.344461000001
 21
19196.597549499958
 31
0.0
  0
LINE
  5
9024
  8
2-0
  6
CONTINUOUS
 62
     3
 10
25719.346837000001
 20
19190.593669499958
 30
0.0
 11
25719.346837000001
 21
19196.597549499958
 31
0.0
  0
LINE
  5
9025
  8
2-0
  6
CONTINUOUS
 62
     3
 10
25719.346837000001
 20
19206.693094499959
 30
0.0
 11
25749.344461000001
 21
19206.693094499959
 31
0.0
  0
LINE
  5
9026
  8
2-0
  6
CONTINUOUS
 62
     3
 10
25719.346837000001
 20
19188.691352499962
 30
0.0
 11
25719.346837000001
 21
19206.693094499959
 31
0.0
  0
LINE
  5
9027
  8
2-0
  6
CONTINUOUS
 62
     3
 10
25744.344197000009
 20
19188.691352499962
 30
0.0
 11
25719.346837000001
 21
19188.691352499962
 31
0.0
  0
LINE
  5
9028
  8
2-0
  6
CONTINUOUS
 62
     3
 10
25744.344197000009
 20
19193.69161649996
 30
0.0
 11
25744.344197000009
 21
19188.691352499962
 31
0.0
  0
LINE
  5
9029
  8
2-0
  6
CONTINUOUS
 62
     3
 10
25737.342640000021
 20
19193.69161649996
 30
0.0
 11
25744.344197000009
 21
19193.69161649996
 31
0.0
  0
LINE
  5
902A
  8
2-0
  6
CONTINUOUS
 62
     3
 10
25737.342640000021
 20
18461.497372999969
 30
0.0
 11
25744.344197000009
 21
18461.497372999969
 31
0.0
  0
LINE
  5
902B
  8
2-0
  6
CONTINUOUS
 62
     3
 10
25744.344197000009
 20
18461.497372999969
 30
0.0
 11
25744.344197000009
 21
18466.50357499997
 31
0.0
  0
LINE
  5
902C
  8
2-0
  6
CONTINUOUS
 62
     3
 10
25744.344197000009
 20
18466.50357499997
 30
0.0
 11
25719.346837000001
 21
18466.50357499997
 31
0.0
  0
LINE
  5
902D
  8
2-0
  6
CONTINUOUS
 62
     3
 10
25719.346837000001
 20
18466.50357499997
 30
0.0
 11
25719.346837000001
 21
18448.50183299998
 31
0.0
  0
LINE
  5
902E
  8
2-0
  6
CONTINUOUS
 62
     3
 10
25719.346837000001
 20
18448.50183299998
 30
0.0
 11
25749.344461000001
 21
18448.50183299998
 31
0.0
  0
LINE
  5
902F
  8
2-0
  6
CONTINUOUS
 62
     3
 10
25719.346837000001
 20
18464.593339999949
 30
0.0
 11
25719.346837000001
 21
18458.597377999969
 31
0.0
  0
LINE
  5
9030
  8
2-0
  6
CONTINUOUS
 62
     3
 10
25719.346837000001
 20
18458.597377999969
 30
0.0
 11
25749.344461000001
 21
18458.597377999969
 31
0.0
  0
LINE
  5
9031
  8
2-0
  6
CONTINUOUS
 62
     3
 10
25749.344461000001
 20
18458.597377999969
 30
0.0
 11
25749.344461000001
 21
18495.596559999962
 31
0.0
  0
LINE
  5
9032
  8
2-0
  6
CONTINUOUS
 62
     3
 10
25719.346837000001
 20
18495.596559999962
 30
0.0
 11
25749.344461000001
 21
18495.596559999962
 31
0.0
  0
LINE
  5
9033
  8
2-0
  6
CONTINUOUS
 62
     3
 10
25719.346837000001
 20
18489.600597999961
 30
0.0
 11
25719.346837000001
 21
18495.596559999962
 31
0.0
  0
LINE
  5
9034
  8
2-0
  6
CONTINUOUS
 62
     3
 10
25719.346837000001
 20
18505.69210499998
 30
0.0
 11
25749.344461000001
 21
18505.69210499998
 31
0.0
  0
LINE
  5
9035
  8
2-0
  6
CONTINUOUS
 62
     3
 10
25719.346837000001
 20
18487.690362999951
 30
0.0
 11
25719.346837000001
 21
18505.69210499998
 31
0.0
  0
LINE
  5
9036
  8
2-0
  6
CONTINUOUS
 62
     3
 10
25744.344197000009
 20
18487.690362999951
 30
0.0
 11
25719.346837000001
 21
18487.690362999951
 31
0.0
  0
LINE
  5
9037
  8
2-0
  6
CONTINUOUS
 62
     3
 10
25744.344197000009
 20
18492.696564999969
 30
0.0
 11
25744.344197000009
 21
18487.690362999951
 31
0.0
  0
LINE
  5
9038
  8
2-0
  6
CONTINUOUS
 62
     3
 10
25737.342640000021
 20
18492.696564999969
 30
0.0
 11
25744.344197000009
 21
18492.696564999969
 31
0.0
  0
LINE
  5
9039
  8
2-0
  6
CONTINUOUS
 62
     3
 10
25737.342640000021
 20
17791.69062699996
 30
0.0
 11
25744.344197000009
 21
17791.69062699996
 31
0.0
  0
LINE
  5
903A
  8
2-0
  6
CONTINUOUS
 62
     3
 10
25744.344197000009
 20
17791.69062699996
 30
0.0
 11
25744.344197000009
 21
17786.702239999981
 31
0.0
  0
LINE
  5
903B
  8
2-0
  6
CONTINUOUS
 62
     3
 10
25744.344197000009
 20
17786.702239999981
 30
0.0
 11
25719.346837000001
 21
17786.702239999981
 31
0.0
  0
LINE
  5
903C
  8
2-0
  6
CONTINUOUS
 62
     3
 10
25719.346837000001
 20
17786.702239999981
 30
0.0
 11
25719.346837000001
 21
17804.698042999971
 31
0.0
  0
LINE
  5
903D
  8
2-0
  6
CONTINUOUS
 62
     3
 10
25719.346837000001
 20
17804.698042999971
 30
0.0
 11
25749.344461000001
 21
17804.698042999971
 31
0.0
  0
LINE
  5
903E
  8
2-0
  6
CONTINUOUS
 62
     3
 10
25719.346837000001
 20
17788.600597999972
 30
0.0
 11
25719.346837000001
 21
17794.596559999962
 31
0.0
  0
LINE
  5
903F
  8
2-0
  6
CONTINUOUS
 62
     3
 10
25719.346837000001
 20
17794.596559999962
 30
0.0
 11
25749.344461000001
 21
17794.596559999962
 31
0.0
  0
LINE
  5
9040
  8
2-0
  6
CONTINUOUS
 62
     3
 10
25749.344461000001
 20
17794.596559999962
 30
0.0
 11
25749.344461000001
 21
17757.59737799998
 31
0.0
  0
LINE
  5
9041
  8
2-0
  6
CONTINUOUS
 62
     3
 10
25719.346837000001
 20
17757.59737799998
 30
0.0
 11
25749.344461000001
 21
17757.59737799998
 31
0.0
  0
LINE
  5
9042
  8
2-0
  6
CONTINUOUS
 62
     3
 10
25719.346837000001
 20
17763.599278999958
 30
0.0
 11
25719.346837000001
 21
17757.59737799998
 31
0.0
  0
LINE
  5
9043
  8
2-0
  6
CONTINUOUS
 62
     3
 10
25719.346837000001
 20
17747.507771999972
 30
0.0
 11
25749.344461000001
 21
17747.507771999972
 31
0.0
  0
LINE
  5
9044
  8
2-0
  6
CONTINUOUS
 62
     3
 10
25719.346837000001
 20
17765.50357499997
 30
0.0
 11
25719.346837000001
 21
17747.507771999972
 31
0.0
  0
LINE
  5
9045
  8
2-0
  6
CONTINUOUS
 62
     3
 10
25744.344197000009
 20
17765.50357499997
 30
0.0
 11
25719.346837000001
 21
17765.50357499997
 31
0.0
  0
LINE
  5
9046
  8
2-0
  6
CONTINUOUS
 62
     3
 10
25744.344197000009
 20
17760.503311999972
 30
0.0
 11
25744.344197000009
 21
17765.50357499997
 31
0.0
  0
LINE
  5
9047
  8
2-0
  6
CONTINUOUS
 62
     3
 10
25737.342640000021
 20
17760.503311999972
 30
0.0
 11
25744.344197000009
 21
17760.503311999972
 31
0.0
  0
LINE
  5
9048
  8
2-0
  6
CONTINUOUS
 62
     3
 10
25746.458323000021
 20
17040.594197999959
 30
0.0
 11
25746.458323000021
 21
17060.595252999959
 31
0.0
  0
LINE
  5
9049
  8
2-0
  6
CONTINUOUS
 62
     3
 10
25746.458323000021
 20
17060.595252999959
 30
0.0
 11
25661.461754000011
 21
17060.595252999959
 31
0.0
  0
LINE
  5
904A
  8
2-0
  6
CONTINUOUS
 62
     3
 10
25737.342640000021
 20
17087.201962999981
 30
0.0
 11
25744.344197000009
 21
17087.201962999981
 31
0.0
  0
LINE
  5
904B
  8
2-0
  6
CONTINUOUS
 62
     3
 10
25744.344197000009
 20
17087.201962999981
 30
0.0
 11
25744.344197000009
 21
17082.207636999981
 31
0.0
  0
LINE
  5
904C
  8
2-0
  6
CONTINUOUS
 62
     3
 10
25744.344197000009
 20
17082.207636999981
 30
0.0
 11
25719.346837000001
 21
17082.207636999981
 31
0.0
  0
LINE
  5
904D
  8
2-0
  6
CONTINUOUS
 62
     3
 10
25719.346837000001
 20
17082.207636999981
 30
0.0
 11
25719.346837000001
 21
17100.203440999969
 31
0.0
  0
LINE
  5
904E
  8
2-0
  6
CONTINUOUS
 62
     3
 10
25719.346837000001
 20
17100.203440999969
 30
0.0
 11
25749.344461000001
 21
17100.203440999969
 31
0.0
  0
LINE
  5
904F
  8
2-0
  6
CONTINUOUS
 62
     3
 10
25719.346837000001
 20
17090.59485699996
 30
0.0
 11
25719.346837000001
 21
17084.592956999972
 31
0.0
  0
LINE
  5
9050
  8
2-0
  6
CONTINUOUS
 62
     3
 10
25749.344461000001
 20
17090.59485699996
 30
0.0
 11
25719.346837000001
 21
17090.59485699996
 31
0.0
  0
LINE
  5
9051
  8
2-0
  6
CONTINUOUS
 62
     3
 10
25749.344461000001
 20
17100.203440999969
 30
0.0
 11
25749.344461000001
 21
17747.507771999972
 31
0.0
  0
LINE
  5
9052
  8
2-0
  6
CONTINUOUS
 62
     3
 10
25749.344461000001
 20
17804.698042999971
 30
0.0
 11
25749.344461000001
 21
18448.50183299998
 31
0.0
  0
LINE
  5
9053
  8
2-0
  6
CONTINUOUS
 62
     3
 10
25749.344461000001
 20
16945.593141999969
 30
0.0
 11
25719.346837000001
 21
16945.593141999969
 31
0.0
  0
LINE
  5
9054
  8
2-0
  6
CONTINUOUS
 62
     3
 10
25719.346837000001
 20
16945.593141999969
 30
0.0
 11
25719.346837000001
 21
16951.595041999979
 31
0.0
  0
LINE
  5
9055
  8
2-0
  6
CONTINUOUS
 62
     3
 10
25661.461754000011
 20
16975.598684999972
 30
0.0
 11
25746.458323000021
 21
16975.598684999972
 31
0.0
  0
LINE
  5
9056
  8
2-0
  6
CONTINUOUS
 62
     3
 10
25746.458323000021
 20
16975.598684999972
 30
0.0
 11
25746.458323000021
 21
16995.593801999981
 31
0.0
  0
LINE
  5
9057
  8
2-0
  6
CONTINUOUS
 62
     3
 10
25719.346837000001
 20
16935.984558999979
 30
0.0
 11
25749.344461000001
 21
16935.984558999979
 31
0.0
  0
LINE
  5
9058
  8
2-0
  6
CONTINUOUS
 62
     3
 10
25719.346837000001
 20
16953.980361999951
 30
0.0
 11
25719.346837000001
 21
16935.984558999979
 31
0.0
  0
LINE
  5
9059
  8
2-0
  6
CONTINUOUS
 62
     3
 10
25744.344197000009
 20
16953.980361999951
 30
0.0
 11
25719.346837000001
 21
16953.980361999951
 31
0.0
  0
LINE
  5
905A
  8
2-0
  6
CONTINUOUS
 62
     3
 10
25744.344197000009
 20
16948.980097999982
 30
0.0
 11
25744.344197000009
 21
16953.980361999951
 31
0.0
  0
LINE
  5
905B
  8
2-0
  6
CONTINUOUS
 62
     3
 10
25737.342640000021
 20
16948.980097999982
 30
0.0
 11
25744.344197000009
 21
16948.980097999982
 31
0.0
  0
LINE
  5
905C
  8
2-0
  6
CONTINUOUS
 62
     3
 10
25737.342640000021
 20
16244.497867499949
 30
0.0
 11
25744.344197000009
 21
16244.497867499949
 31
0.0
  0
LINE
  5
905D
  8
2-0
  6
CONTINUOUS
 62
     3
 10
25744.344197000009
 20
16244.497867499949
 30
0.0
 11
25744.344197000009
 21
16249.49813149996
 31
0.0
  0
LINE
  5
905E
  8
2-0
  6
CONTINUOUS
 62
     3
 10
25744.344197000009
 20
16249.49813149996
 30
0.0
 11
25719.346837000001
 21
16249.49813149996
 31
0.0
  0
LINE
  5
905F
  8
2-0
  6
CONTINUOUS
 62
     3
 10
25719.346837000001
 20
16249.49813149996
 30
0.0
 11
25719.346837000001
 21
16231.496389499969
 31
0.0
  0
LINE
  5
9060
  8
2-0
  6
CONTINUOUS
 62
     3
 10
25719.346837000001
 20
16231.496389499969
 30
0.0
 11
25749.344461000001
 21
16231.496389499969
 31
0.0
  0
LINE
  5
9061
  8
2-0
  6
CONTINUOUS
 62
     3
 10
25719.346837000001
 20
16247.593834499959
 30
0.0
 11
25719.346837000001
 21
16241.59688349996
 31
0.0
  0
LINE
  5
9062
  8
2-0
  6
CONTINUOUS
 62
     3
 10
25719.346837000001
 20
16241.59688349996
 30
0.0
 11
25749.344461000001
 21
16241.59688349996
 31
0.0
  0
LINE
  5
9063
  8
2-0
  6
CONTINUOUS
 62
     3
 10
25749.344461000001
 20
16241.59688349996
 30
0.0
 11
25749.344461000001
 21
16278.597054499971
 31
0.0
  0
LINE
  5
9064
  8
2-0
  6
CONTINUOUS
 62
     3
 10
25719.346837000001
 20
16278.597054499971
 30
0.0
 11
25749.344461000001
 21
16278.597054499971
 31
0.0
  0
LINE
  5
9065
  8
2-0
  6
CONTINUOUS
 62
     3
 10
25719.346837000001
 20
16272.594164499949
 30
0.0
 11
25719.346837000001
 21
16278.597054499971
 31
0.0
  0
LINE
  5
9066
  8
2-0
  6
CONTINUOUS
 62
     3
 10
25719.346837000001
 20
16288.692599499949
 30
0.0
 11
25749.344461000001
 21
16288.692599499949
 31
0.0
  0
LINE
  5
9067
  8
2-0
  6
CONTINUOUS
 62
     3
 10
25719.346837000001
 20
16270.684918499959
 30
0.0
 11
25719.346837000001
 21
16288.692599499949
 31
0.0
  0
LINE
  5
9068
  8
2-0
  6
CONTINUOUS
 62
     3
 10
25744.344197000009
 20
16270.684918499959
 30
0.0
 11
25719.346837000001
 21
16270.684918499959
 31
0.0
  0
LINE
  5
9069
  8
2-0
  6
CONTINUOUS
 62
     3
 10
25744.344197000009
 20
16275.691121499971
 30
0.0
 11
25744.344197000009
 21
16270.684918499959
 31
0.0
  0
LINE
  5
906A
  8
2-0
  6
CONTINUOUS
 62
     3
 10
25737.342640000021
 20
16275.691121499971
 30
0.0
 11
25744.344197000009
 21
16275.691121499971
 31
0.0
  0
LINE
  5
906B
  8
2-0
  6
CONTINUOUS
 62
     3
 10
25737.342640000021
 20
15574.93113799998
 30
0.0
 11
25744.344197000009
 21
15574.93113799998
 31
0.0
  0
LINE
  5
906C
  8
2-0
  6
CONTINUOUS
 62
     3
 10
25744.344197000009
 20
15574.93113799998
 30
0.0
 11
25744.344197000009
 21
15569.93681299998
 31
0.0
  0
LINE
  5
906D
  8
2-0
  6
CONTINUOUS
 62
     3
 10
25744.344197000009
 20
15569.93681299998
 30
0.0
 11
25719.346837000001
 21
15569.93681299998
 31
0.0
  0
LINE
  5
906E
  8
2-0
  6
CONTINUOUS
 62
     3
 10
25719.346837000001
 20
15569.93681299998
 30
0.0
 11
25719.346837000001
 21
15587.93261599998
 31
0.0
  0
LINE
  5
906F
  8
2-0
  6
CONTINUOUS
 62
     3
 10
25719.346837000001
 20
15587.93261599998
 30
0.0
 11
25749.344461000001
 21
15587.93261599998
 31
0.0
  0
LINE
  5
9070
  8
2-0
  6
CONTINUOUS
 62
     3
 10
25719.346837000001
 20
15571.835170999961
 30
0.0
 11
25719.346837000001
 21
15577.837070999971
 31
0.0
  0
LINE
  5
9071
  8
2-0
  6
CONTINUOUS
 62
     3
 10
25719.346837000001
 20
15577.837070999971
 30
0.0
 11
25749.344461000001
 21
15577.837070999971
 31
0.0
  0
LINE
  5
9072
  8
2-0
  6
CONTINUOUS
 62
     3
 10
25749.344461000001
 20
15540.837889999981
 30
0.0
 11
25749.344461000001
 21
15577.837070999971
 31
0.0
  0
LINE
  5
9073
  8
2-0
  6
CONTINUOUS
 62
     3
 10
25719.346837000001
 20
15540.837889999981
 30
0.0
 11
25749.344461000001
 21
15540.837889999981
 31
0.0
  0
LINE
  5
9074
  8
2-0
  6
CONTINUOUS
 62
     3
 10
25719.346837000001
 20
15546.834840999971
 30
0.0
 11
25719.346837000001
 21
15540.837889999981
 31
0.0
  0
LINE
  5
9075
  8
2-0
  6
CONTINUOUS
 62
     3
 10
25719.346837000001
 20
15530.736405999971
 30
0.0
 11
25749.344461000001
 21
15530.736405999971
 31
0.0
  0
LINE
  5
9076
  8
2-0
  6
CONTINUOUS
 62
     3
 10
25719.346837000001
 20
15548.744086999959
 30
0.0
 11
25719.346837000001
 21
15530.736405999971
 31
0.0
  0
LINE
  5
9077
  8
2-0
  6
CONTINUOUS
 62
     3
 10
25744.344197000009
 20
15548.744086999959
 30
0.0
 11
25719.346837000001
 21
15548.744086999959
 31
0.0
  0
LINE
  5
9078
  8
2-0
  6
CONTINUOUS
 62
     3
 10
25744.344197000009
 20
15543.74382299999
 30
0.0
 11
25744.344197000009
 21
15548.744086999959
 31
0.0
  0
LINE
  5
9079
  8
2-0
  6
CONTINUOUS
 62
     3
 10
25737.342640000021
 20
15543.74382299999
 30
0.0
 11
25744.344197000009
 21
15543.74382299999
 31
0.0
  0
LINE
  5
907A
  8
2-0
  6
CONTINUOUS
 62
     3
 10
25749.344461000001
 20
16935.984558999979
 30
0.0
 11
25749.344461000001
 21
16288.692599499949
 31
0.0
  0
LINE
  5
907B
  8
2-0
  6
CONTINUOUS
 62
     3
 10
25749.344461000001
 20
17090.59485699996
 30
0.0
 11
25749.344461000001
 21
16945.593141999969
 31
0.0
  0
LINE
  5
907C
  8
2-0
  6
CONTINUOUS
 62
     3
 10
25661.461754000011
 20
17060.595252999959
 30
0.0
 11
25661.461754000011
 21
16975.598684999972
 31
0.0
  0
LINE
  5
907D
  8
2-0
  6
CONTINUOUS
 62
     6
 10
24123.253087000001
 20
18829.042518499959
 30
0.0
 11
25148.285419000011
 21
18829.042518499959
 31
0.0
  0
LINE
  5
907E
  8
2-0
  6
CONTINUOUS
 62
     3
 10
25737.342640000021
 20
14842.502815999949
 30
0.0
 11
25744.344197000009
 21
14842.502815999949
 31
0.0
  0
LINE
  5
907F
  8
2-0
  6
CONTINUOUS
 62
     3
 10
25744.344197000009
 20
14842.502815999949
 30
0.0
 11
25744.344197000009
 21
14847.497141999949
 31
0.0
  0
LINE
  5
9080
  8
2-0
  6
CONTINUOUS
 62
     3
 10
25744.344197000009
 20
14847.497141999949
 30
0.0
 11
25719.346837000001
 21
14847.497141999949
 31
0.0
  0
LINE
  5
9081
  8
2-0
  6
CONTINUOUS
 62
     3
 10
25719.346837000001
 20
14847.497141999949
 30
0.0
 11
25719.346837000001
 21
14829.501337999969
 31
0.0
  0
LINE
  5
9082
  8
2-0
  6
CONTINUOUS
 62
     3
 10
25719.346837000001
 20
14829.501337999969
 30
0.0
 11
25749.344461000001
 21
14829.501337999969
 31
0.0
  0
LINE
  5
9083
  8
2-0
  6
CONTINUOUS
 62
     3
 10
25719.346837000001
 20
14845.59977299998
 30
0.0
 11
25719.346837000001
 21
14839.59688299996
 31
0.0
  0
LINE
  5
9084
  8
2-0
  6
CONTINUOUS
 62
     3
 10
25719.346837000001
 20
14839.59688299996
 30
0.0
 11
25749.344461000001
 21
14839.59688299996
 31
0.0
  0
LINE
  5
9085
  8
2-0
  6
CONTINUOUS
 62
     3
 10
25749.344461000001
 20
14839.59688299996
 30
0.0
 11
25749.344461000001
 21
14876.597054999949
 31
0.0
  0
LINE
  5
9086
  8
2-0
  6
CONTINUOUS
 62
     3
 10
25719.346837000001
 20
14876.597054999949
 30
0.0
 11
25749.344461000001
 21
14876.597054999949
 31
0.0
  0
LINE
  5
9087
  8
2-0
  6
CONTINUOUS
 62
     3
 10
25719.346837000001
 20
14870.600102999961
 30
0.0
 11
25719.346837000001
 21
14876.597054999949
 31
0.0
  0
LINE
  5
9088
  8
2-0
  6
CONTINUOUS
 62
     3
 10
25719.346837000001
 20
14886.69754799998
 30
0.0
 11
25749.344461000001
 21
14886.69754799998
 31
0.0
  0
LINE
  5
9089
  8
2-0
  6
CONTINUOUS
 62
     3
 10
25719.346837000001
 20
14868.69085699995
 30
0.0
 11
25719.346837000001
 21
14886.69754799998
 31
0.0
  0
LINE
  5
908A
  8
2-0
  6
CONTINUOUS
 62
     3
 10
25744.344197000009
 20
14868.69085699995
 30
0.0
 11
25719.346837000001
 21
14868.69085699995
 31
0.0
  0
LINE
  5
908B
  8
2-0
  6
CONTINUOUS
 62
     3
 10
25744.344197000009
 20
14873.696069999971
 30
0.0
 11
25744.344197000009
 21
14868.69085699995
 31
0.0
  0
LINE
  5
908C
  8
2-0
  6
CONTINUOUS
 62
     3
 10
25737.342640000021
 20
14873.696069999971
 30
0.0
 11
25744.344197000009
 21
14873.696069999971
 31
0.0
  0
LINE
  5
908D
  8
2-0
  6
CONTINUOUS
 62
     3
 10
25719.346837000001
 20
13816.09889599995
 30
0.0
 11
25719.346837000001
 21
13822.103764999951
 31
0.0
  0
LINE
  5
908E
  8
2-0
  6
CONTINUOUS
 62
     3
 10
25719.346837000001
 20
13822.103764999951
 30
0.0
 11
25749.344461000001
 21
13822.103764999951
 31
0.0
  0
LINE
  5
908F
  8
2-0
  6
CONTINUOUS
 62
     3
 10
25749.344461000001
 20
13822.103764999951
 30
0.0
 11
25749.344461000001
 21
13707.09967399997
 31
0.0
  0
LINE
  5
9090
  8
2-0
  6
CONTINUOUS
 62
     3
 10
25749.344461000001
 20
13707.09967399997
 30
0.0
 11
25664.345913000008
 21
13707.09967399997
 31
0.0
  0
LINE
  5
9091
  8
2-0
  6
CONTINUOUS
 62
     3
 10
25664.345913000008
 20
13707.09967399997
 30
0.0
 11
25664.345913000008
 21
13792.095252999959
 31
0.0
  0
LINE
  5
9092
  8
2-0
  6
CONTINUOUS
 62
     3
 10
25664.345913000008
 20
13792.095252999959
 30
0.0
 11
25696.344831000009
 21
13792.095252999959
 31
0.0
  0
LINE
  5
9093
  8
2-0
  6
CONTINUOUS
 62
     3
 10
25737.342640000021
 20
13819.13349799997
 30
0.0
 11
25744.344197000009
 21
13819.13349799997
 31
0.0
  0
LINE
  5
9094
  8
2-0
  6
CONTINUOUS
 62
     3
 10
25744.344197000009
 20
13819.13349799997
 30
0.0
 11
25744.344197000009
 21
13814.13620299994
 31
0.0
  0
LINE
  5
9095
  8
2-0
  6
CONTINUOUS
 62
     3
 10
25744.344197000009
 20
13814.13620299994
 30
0.0
 11
25719.346837000001
 21
13814.13620299994
 31
0.0
  0
LINE
  5
9096
  8
2-0
  6
CONTINUOUS
 62
     3
 10
25719.346837000001
 20
13814.13620299994
 30
0.0
 11
25719.346837000001
 21
13832.13497599997
 31
0.0
  0
LINE
  5
9097
  8
2-0
  6
CONTINUOUS
 62
     3
 10
25719.346837000001
 20
13832.13497599997
 30
0.0
 11
25749.344461000001
 21
13832.13497599997
 31
0.0
  0
LINE
  5
9098
  8
2-0
  6
CENTER2
 62
     6
 10
25706.84617700001
 20
13509.602115999949
 30
0.0
 11
25706.84617700001
 21
15015.97087399999
 31
0.0
  0
LINE
  5
9099
  8
2-0
  6
CONTINUOUS
 62
     3
 10
25749.344461000001
 20
18505.69210499998
 30
0.0
 11
25749.344461000001
 21
19149.50282249997
 31
0.0
  0
LINE
  5
909A
  8
2-0
  6
CONTINUOUS
 62
     6
 10
26441.849343999998
 20
20708.598156999989
 30
0.0
 11
27641.843405999989
 21
20708.598156999989
 31
0.0
  0
LINE
  5
909B
  8
2-0
  6
CONTINUOUS
 62
     3
 10
23912.84802500001
 20
19978.595253999982
 30
0.0
 11
23912.84802500001
 21
19948.59169099998
 31
0.0
  0
LINE
  5
909C
  8
2-0
  6
CONTINUOUS
 62
     3
 10
23912.84802500001
 20
19948.59169099998
 30
0.0
 11
23906.850083000001
 21
19948.59169099998
 31
0.0
  0
LINE
  5
909D
  8
2-0
  6
CONTINUOUS
 62
     3
 10
23922.464526000022
 20
19948.59169099998
 30
0.0
 11
23922.464526000022
 21
19978.595253999982
 31
0.0
  0
LINE
  5
909E
  8
2-0
  6
CONTINUOUS
 62
     3
 10
23904.462783999999
 20
19948.59169099998
 30
0.0
 11
23922.464526000022
 21
19948.59169099998
 31
0.0
  0
LINE
  5
909F
  8
2-0
  6
CONTINUOUS
 62
     3
 10
23904.462783999999
 20
19973.600927999989
 30
0.0
 11
23904.462783999999
 21
19948.59169099998
 31
0.0
  0
LINE
  5
90A0
  8
2-0
  6
CONTINUOUS
 62
     3
 10
23909.46304800002
 20
19973.600927999989
 30
0.0
 11
23904.462783999999
 21
19973.600927999989
 31
0.0
  0
LINE
  5
90A1
  8
2-0
  6
CONTINUOUS
 62
     3
 10
23909.46304800002
 20
19966.595411999981
 30
0.0
 11
23909.46304800002
 21
19973.600927999989
 31
0.0
  0
LINE
  5
90A2
  8
2-0
  6
CONTINUOUS
 62
     3
 10
23882.84644100002
 20
19975.703176999989
 30
0.0
 11
23882.84644100002
 21
19890.704628999982
 31
0.0
  0
LINE
  5
90A3
  8
2-0
  6
CONTINUOUS
 62
     3
 10
23862.84934400002
 20
19975.703176999989
 30
0.0
 11
23882.84644100002
 21
19975.703176999989
 31
0.0
  0
LINE
  5
90A4
  8
2-0
  6
CONTINUOUS
 62
     3
 10
23771.235245000029
 20
19966.595411999981
 30
0.0
 11
23771.235245000029
 21
19973.600927999989
 31
0.0
  0
LINE
  5
90A5
  8
2-0
  6
CONTINUOUS
 62
     3
 10
23771.235245000029
 20
19973.600927999989
 30
0.0
 11
23776.235508999998
 21
19973.600927999989
 31
0.0
  0
LINE
  5
90A6
  8
2-0
  6
CONTINUOUS
 62
     3
 10
23776.235508999998
 20
19973.600927999989
 30
0.0
 11
23776.235508999998
 21
19948.59169099998
 31
0.0
  0
LINE
  5
90A7
  8
2-0
  6
CONTINUOUS
 62
     3
 10
23776.235508999998
 20
19948.59169099998
 30
0.0
 11
23758.233767000002
 21
19948.59169099998
 31
0.0
  0
LINE
  5
90A8
  8
2-0
  6
CONTINUOUS
 62
     3
 10
23758.233767000002
 20
19948.59169099998
 30
0.0
 11
23758.233767000002
 21
19978.595253999982
 31
0.0
  0
LINE
  5
90A9
  8
2-0
  6
CONTINUOUS
 62
     3
 10
23797.853831000011
 20
19975.703176999989
 30
0.0
 11
23817.848947999999
 21
19975.703176999989
 31
0.0
  0
LINE
  5
90AA
  8
2-0
  6
CONTINUOUS
 62
     3
 10
23797.853831000011
 20
19890.704628999982
 30
0.0
 11
23797.853831000011
 21
19975.703176999989
 31
0.0
  0
LINE
  5
90AB
  8
2-0
  6
CONTINUOUS
 62
     3
 10
23767.856207000012
 20
19948.59169099998
 30
0.0
 11
23773.852168000001
 21
19948.59169099998
 31
0.0
  0
LINE
  5
90AC
  8
2-0
  6
CONTINUOUS
 62
     3
 10
23767.856207000012
 20
19978.595253999982
 30
0.0
 11
23767.856207000012
 21
19948.59169099998
 31
0.0
  0
LINE
  5
90AD
  8
2-0
  6
CONTINUOUS
 62
     3
 10
23882.84644100002
 20
19890.704628999982
 30
0.0
 11
23797.853831000011
 21
19890.704628999982
 31
0.0
  0
LINE
  5
90AE
  8
2-0
  6
CONTINUOUS
 62
     3
 10
23912.84802500001
 20
19978.595253999982
 30
0.0
 11
23767.856207000012
 21
19978.595253999982
 31
0.0
  0
LINE
  5
90AF
  8
2-0
  6
CONTINUOUS
 62
     6
 10
25579.816511000001
 20
19071.197026499962
 30
0.0
 11
25148.285419000011
 21
18829.042518499959
 31
0.0
  0
LINE
  5
90B0
  8
2-0
  6
CONTINUOUS
 62
     6
 10
25901.385344999992
 20
20121.274993999989
 30
0.0
 11
26441.849343999998
 21
20708.598156999989
 31
0.0
  0
LINE
  5
90B1
  8
2-0
  6
CONTINUOUS
 62
     6
 10
23797.84591300003
 20
13792.095252999959
 30
0.0
 11
23521.255700000009
 21
14247.439952999959
 31
0.0
  0
LINE
  5
90B2
  8
2-0
  6
CONTINUOUS
 62
     6
 10
23521.255700000009
 20
14247.439952999959
 30
0.0
 11
22490.906381000041
 21
14247.439952999959
 31
0.0
  0
LINE
  5
90B3
  8
2-0
  6
CONTINUOUS
 62
     3
 10
25749.344461000001
 20
16231.496389499969
 30
0.0
 11
25749.344461000001
 21
15587.93261599998
 31
0.0
  0
LINE
  5
90B4
  8
2-0
  6
CONTINUOUS
 62
     6
 10
23737.567593000029
 20
13942.69108799995
 30
0.0
 11
23797.84591300003
 21
13792.095252999959
 31
0.0
  0
LINE
  5
90B5
  8
2-0
  6
CONTINUOUS
 62
     6
 10
23797.84591300003
 20
13792.095252999959
 30
0.0
 11
23691.98719800005
 21
13915.003561999971
 31
0.0
  0
LINE
  5
90B6
  8
2-0
  6
CONTINUOUS
 62
     6
 10
23737.567593000029
 20
13942.69108799995
 30
0.0
 11
23691.98719800005
 21
13915.003561999971
 31
0.0
  0
LINE
  5
90B7
  8
2-0
  6
CONTINUOUS
 62
     6
 10
23691.98719800005
 20
13915.003561999971
 30
0.0
 11
23797.84591300003
 21
13792.095252999959
 31
0.0
  0
LINE
  5
90B8
  8
2-0
  6
CONTINUOUS
 62
     6
 10
23797.84591300003
 20
13792.095252999959
 30
0.0
 11
23737.567593000029
 21
13942.69108799995
 31
0.0
  0
LINE
  5
90B9
  8
2-0
  6
CONTINUOUS
 62
     6
 10
23737.567593000029
 20
13942.69108799995
 30
0.0
 11
23797.84591300003
 21
13792.095252999959
 31
0.0
  0
LINE
  5
90BA
  8
2-0
  6
CONTINUOUS
 62
     6
 10
23691.98719800005
 20
13915.003561999971
 30
0.0
 11
23797.84591300003
 21
13792.095252999959
 31
0.0
  0
LINE
  5
90BB
  8
2-0
  6
CONTINUOUS
 62
     6
 10
23691.98719800005
 20
13915.003561999971
 30
0.0
 11
23737.567593000029
 21
13942.69108799995
 31
0.0
  0
LINE
  5
90BC
  8
2-0
  6
CONTINUOUS
 62
     6
 10
25566.759606000011
 20
19094.45637049996
 30
0.0
 11
25719.346837000001
 21
19149.50282249997
 31
0.0
  0
LINE
  5
90BD
  8
2-0
  6
CONTINUOUS
 62
     6
 10
25719.346837000001
 20
19149.50282249997
 30
0.0
 11
25592.86549700001
 21
19047.943622499959
 31
0.0
  0
LINE
  5
90BE
  8
2-0
  6
CONTINUOUS
 62
     6
 10
25566.759606000011
 20
19094.45637049996
 30
0.0
 11
25592.86549700001
 21
19047.943622499959
 31
0.0
  0
LINE
  5
90BF
  8
2-0
  6
CONTINUOUS
 62
     6
 10
25592.86549700001
 20
19047.943622499959
 30
0.0
 11
25719.346837000001
 21
19149.50282249997
 31
0.0
  0
LINE
  5
90C0
  8
2-0
  6
CONTINUOUS
 62
     6
 10
25719.346837000001
 20
19149.50282249997
 30
0.0
 11
25566.759606000011
 21
19094.45637049996
 31
0.0
  0
LINE
  5
90C1
  8
2-0
  6
CONTINUOUS
 62
     6
 10
25566.759606000011
 20
19094.45637049996
 30
0.0
 11
25719.346837000001
 21
19149.50282249997
 31
0.0
  0
LINE
  5
90C2
  8
2-0
  6
CONTINUOUS
 62
     6
 10
25592.86549700001
 20
19047.943622499959
 30
0.0
 11
25719.346837000001
 21
19149.50282249997
 31
0.0
  0
LINE
  5
90C3
  8
2-0
  6
CONTINUOUS
 62
     6
 10
25592.86549700001
 20
19047.943622499959
 30
0.0
 11
25566.759606000011
 21
19094.45637049996
 31
0.0
  0
LINE
  5
90C4
  8
2-0
  6
CONTINUOUS
 62
     6
 10
25921.002373999989
 20
20103.213866999991
 30
0.0
 11
25793.040354000012
 21
20003.531248999981
 31
0.0
  0
LINE
  5
90C5
  8
2-0
  6
CONTINUOUS
 62
     6
 10
25793.040354000012
 20
20003.531248999981
 30
0.0
 11
25881.754459000011
 21
20139.32820399999
 31
0.0
  0
LINE
  5
90C6
  8
2-0
  6
CONTINUOUS
 62
     6
 10
25921.002373999989
 20
20103.213866999991
 30
0.0
 11
25881.754459000011
 21
20139.32820399999
 31
0.0
  0
LINE
  5
90C7
  8
2-0
  6
CONTINUOUS
 62
     6
 10
25881.754459000011
 20
20139.32820399999
 30
0.0
 11
25793.040354000012
 21
20003.531248999981
 31
0.0
  0
LINE
  5
90C8
  8
2-0
  6
CONTINUOUS
 62
     6
 10
25793.040354000012
 20
20003.531248999981
 30
0.0
 11
25921.002373999989
 21
20103.213866999991
 31
0.0
  0
LINE
  5
90C9
  8
2-0
  6
CONTINUOUS
 62
     6
 10
25921.002373999989
 20
20103.213866999991
 30
0.0
 11
25793.040354000012
 21
20003.531248999981
 31
0.0
  0
LINE
  5
90CA
  8
2-0
  6
CONTINUOUS
 62
     6
 10
25881.754459000011
 20
20139.32820399999
 30
0.0
 11
25793.040354000012
 21
20003.531248999981
 31
0.0
  0
LINE
  5
90CB
  8
2-0
  6
CONTINUOUS
 62
     6
 10
25881.754459000011
 20
20139.32820399999
 30
0.0
 11
25921.002373999989
 21
20103.213866999991
 31
0.0
  0
LINE
  5
90CC
  8
2-0
  6
CONTINUOUS
 62
     6
 10
22464.281856000009
 20
19730.82287199999
 30
0.0
 11
22596.214789000009
 21
19261.477036999961
 31
0.0
  0
LINE
  5
90CD
  8
2-0
  6
CONTINUOUS
 62
     6
 10
22596.214789000009
 20
19261.477036999961
 30
0.0
 11
23621.253059999988
 21
19261.477036999961
 31
0.0
  0
LINE
  5
90CE
  8
2-0
  6
CONTINUOUS
 62
     6
 10
22420.98780500003
 20
19884.851191999991
 30
0.0
 11
22438.609478999999
 21
19723.605546999981
 31
0.0
  0
LINE
  5
90CF
  8
2-0
  6
CONTINUOUS
 62
     6
 10
22489.954232000011
 20
19738.044155999989
 30
0.0
 11
22438.609478999999
 21
19723.605546999981
 31
0.0
  0
LINE
  5
90D0
  8
2-0
  6
CONTINUOUS
 62
     6
 10
22438.609478999999
 20
19723.605546999981
 30
0.0
 11
22420.98780500003
 21
19884.851191999991
 31
0.0
  0
LINE
  5
90D1
  8
2-0
  6
CONTINUOUS
 62
     6
 10
22420.98780500003
 20
19884.851191999991
 30
0.0
 11
22489.954232000011
 21
19738.044155999989
 31
0.0
  0
LINE
  5
90D2
  8
2-0
  6
CONTINUOUS
 62
     6
 10
22489.954232000011
 20
19738.044155999989
 30
0.0
 11
22420.98780500003
 21
19884.851191999991
 31
0.0
  0
LINE
  5
90D3
  8
2-0
  6
CONTINUOUS
 62
     6
 10
22438.609478999999
 20
19723.605546999981
 30
0.0
 11
22420.98780500003
 21
19884.851191999991
 31
0.0
  0
LINE
  5
90D4
  8
2-0
  6
CONTINUOUS
 62
     6
 10
22438.609478999999
 20
19723.605546999981
 30
0.0
 11
22489.954232000011
 21
19738.044155999989
 31
0.0
  0
LINE
  5
90D5
  8
2-0
  6
CONTINUOUS
 62
     6
 10
23881.769583000008
 20
19859.843933999979
 30
0.0
 11
24030.639278000021
 21
19330.221757999981
 31
0.0
  0
LINE
  5
90D6
  8
2-0
  6
CONTINUOUS
 62
     6
 10
24030.639278000021
 20
19330.221757999981
 30
0.0
 11
25055.68348700002
 21
19330.221757999981
 31
0.0
  0
LINE
  5
90D7
  8
2-0
  6
CONTINUOUS
 62
     6
 10
23899.393237
 20
19698.59828899999
 30
0.0
 11
23950.743928000022
 21
19713.03293899999
 31
0.0
  0
LINE
  5
90D8
  8
2-0
  6
CONTINUOUS
 62
     6
 10
23950.743928000022
 20
19713.03293899999
 30
0.0
 11
23899.393237
 21
19698.59828899999
 31
0.0
  0
LINE
  5
90D9
  8
2-0
  6
CONTINUOUS
 62
     6
 10
23899.393237
 20
19698.59828899999
 30
0.0
 11
23881.769583000008
 21
19859.843933999979
 31
0.0
  0
LINE
  5
90DA
  8
2-0
  6
CONTINUOUS
 62
     6
 10
23881.769583000008
 20
19859.843933999979
 30
0.0
 11
23950.743928000022
 21
19713.03293899999
 31
0.0
  0
LINE
  5
90DB
  8
2-0
  6
CONTINUOUS
 62
     6
 10
23950.743928000022
 20
19713.03293899999
 30
0.0
 11
23881.769583000008
 21
19859.843933999979
 31
0.0
  0
LINE
  5
90DC
  8
2-0
  6
CONTINUOUS
 62
     6
 10
23899.393237
 20
19698.59828899999
 30
0.0
 11
23881.769583000008
 21
19859.843933999979
 31
0.0
  0
LINE
  5
90DD
  8
2-0
  6
CONTINUOUS
 62
     6
 10
23950.743928000022
 20
19713.03293899999
 30
0.0
 11
23881.769583000008
 21
19859.843933999979
 31
0.0
  0
LINE
  5
90DE
  8
2-0
  6
CONTINUOUS
 62
     6
 10
23881.769583000008
 20
19859.843933999979
 30
0.0
 11
23899.393237
 21
19698.59828899999
 31
0.0
  0
LINE
  5
90DF
  8
2-0
  6
CONTINUOUS
 62
     4
 10
23840.346177000021
 20
20058.597496999992
 30
0.0
 11
23840.346177000021
 21
20788.594461999968
 31
0.0
  0
LINE
  5
90E0
  8
2-0
  6
CONTINUOUS
 62
     6
 10
25472.706740000001
 20
13598.826935999959
 30
0.0
 11
25604.453599000011
 21
13693.453862999961
 31
0.0
  0
LINE
  5
90E1
  8
2-0
  6
CONTINUOUS
 62
     6
 10
25604.453599000011
 20
13693.453862999961
 30
0.0
 11
25510.523463000001
 21
13561.215092999961
 31
0.0
  0
LINE
  5
90E2
  8
2-0
  6
CONTINUOUS
 62
     6
 10
25472.706740000001
 20
13598.826935999959
 30
0.0
 11
25510.523463000001
 21
13561.215092999961
 31
0.0
  0
LINE
  5
90E3
  8
2-0
  6
CONTINUOUS
 62
     6
 10
25510.523463000001
 20
13561.215092999961
 30
0.0
 11
25604.453599000011
 21
13693.453862999961
 31
0.0
  0
LINE
  5
90E4
  8
2-0
  6
CONTINUOUS
 62
     6
 10
25604.453599000011
 20
13693.453862999961
 30
0.0
 11
25472.706740000001
 21
13598.826935999959
 31
0.0
  0
LINE
  5
90E5
  8
2-0
  6
CONTINUOUS
 62
     6
 10
25472.706740000001
 20
13598.826935999959
 30
0.0
 11
25604.453599000011
 21
13693.453862999961
 31
0.0
  0
LINE
  5
90E6
  8
2-0
  6
CONTINUOUS
 62
     6
 10
25510.523463000001
 20
13561.215092999961
 30
0.0
 11
25604.453599000011
 21
13693.453862999961
 31
0.0
  0
LINE
  5
90E7
  8
2-0
  6
CONTINUOUS
 62
     6
 10
25510.523463000001
 20
13561.215092999961
 30
0.0
 11
25472.706740000001
 21
13598.826935999959
 31
0.0
  0
LINE
  5
90E8
  8
2-0
  6
CONTINUOUS
 62
     6
 10
25535.74252900001
 20
13925.731562999959
 30
0.0
 11
25668.342561000001
 21
13832.303234999959
 31
0.0
  0
LINE
  5
90E9
  8
2-0
  6
CONTINUOUS
 62
     6
 10
25668.342561000001
 20
13832.303234999959
 30
0.0
 11
25512.609874999998
 21
13877.678748999961
 31
0.0
  0
LINE
  5
90EA
  8
2-0
  6
CONTINUOUS
 62
     6
 10
25535.74252900001
 20
13925.731562999959
 30
0.0
 11
25512.609874999998
 21
13877.678748999961
 31
0.0
  0
LINE
  5
90EB
  8
2-0
  6
CONTINUOUS
 62
     6
 10
25512.609874999998
 20
13877.678748999961
 30
0.0
 11
25668.342561000001
 21
13832.303234999959
 31
0.0
  0
LINE
  5
90EC
  8
2-0
  6
CONTINUOUS
 62
     6
 10
25668.342561000001
 20
13832.303234999959
 30
0.0
 11
25535.74252900001
 21
13925.731562999959
 31
0.0
  0
LINE
  5
90ED
  8
2-0
  6
CONTINUOUS
 62
     6
 10
25535.74252900001
 20
13925.731562999959
 30
0.0
 11
25668.342561000001
 21
13832.303234999959
 31
0.0
  0
LINE
  5
90EE
  8
2-0
  6
CONTINUOUS
 62
     6
 10
25512.609874999998
 20
13877.678748999961
 30
0.0
 11
25668.342561000001
 21
13832.303234999959
 31
0.0
  0
LINE
  5
90EF
  8
2-0
  6
CONTINUOUS
 62
     6
 10
25512.609874999998
 20
13877.678748999961
 30
0.0
 11
25535.74252900001
 21
13925.731562999959
 31
0.0
  0
LINE
  5
90F0
  8
2-0
  6
CONTINUOUS
 62
     6
 10
25595.506174999991
 20
16656.052495999989
 30
0.0
 11
25749.344461000001
 21
16707.486326999991
 31
0.0
  0
LINE
  5
90F1
  8
2-0
  6
CONTINUOUS
 62
     6
 10
25749.344461000001
 20
16707.486326999991
 30
0.0
 11
25620.509473999991
 21
16608.945891999982
 31
0.0
  0
LINE
  5
90F2
  8
2-0
  6
CONTINUOUS
 62
     6
 10
25595.506174999991
 20
16656.052495999989
 30
0.0
 11
25620.509473999991
 21
16608.945891999982
 31
0.0
  0
LINE
  5
90F3
  8
2-0
  6
CONTINUOUS
 62
     6
 10
25620.509473999991
 20
16608.945891999982
 30
0.0
 11
25749.344461000001
 21
16707.486326999991
 31
0.0
  0
LINE
  5
90F4
  8
2-0
  6
CONTINUOUS
 62
     6
 10
25749.344461000001
 20
16707.486326999991
 30
0.0
 11
25595.506174999991
 21
16656.052495999989
 31
0.0
  0
LINE
  5
90F5
  8
2-0
  6
CONTINUOUS
 62
     6
 10
25595.506174999991
 20
16656.052495999989
 30
0.0
 11
25749.344461000001
 21
16707.486326999991
 31
0.0
  0
LINE
  5
90F6
  8
2-0
  6
CONTINUOUS
 62
     6
 10
25620.509473999991
 20
16608.945891999982
 30
0.0
 11
25749.344461000001
 21
16707.486326999991
 31
0.0
  0
LINE
  5
90F7
  8
2-0
  6
CONTINUOUS
 62
     6
 10
25620.509473999991
 20
16608.945891999982
 30
0.0
 11
25595.506174999991
 21
16656.052495999989
 31
0.0
  0
LINE
  5
90F8
  8
2-0
  6
CONTINUOUS
 62
     6
 10
25461.569968000011
 20
17147.370987999981
 30
0.0
 11
25604.453599000011
 21
17070.595358999981
 31
0.0
  0
LINE
  5
90F9
  8
2-0
  6
CONTINUOUS
 62
     6
 10
25604.453599000011
 20
17070.595358999981
 30
0.0
 11
25444.391705999999
 21
17096.877427999989
 31
0.0
  0
LINE
  5
90FA
  8
2-0
  6
CONTINUOUS
 62
     6
 10
25461.569968000011
 20
17147.370987999981
 30
0.0
 11
25444.391705999999
 21
17096.877427999989
 31
0.0
  0
LINE
  5
90FB
  8
2-0
  6
CONTINUOUS
 62
     6
 10
25444.391705999999
 20
17096.877427999989
 30
0.0
 11
25604.453599000011
 21
17070.595358999981
 31
0.0
  0
LINE
  5
90FC
  8
2-0
  6
CONTINUOUS
 62
     6
 10
25604.453599000011
 20
17070.595358999981
 30
0.0
 11
25461.569968000011
 21
17147.370987999981
 31
0.0
  0
LINE
  5
90FD
  8
2-0
  6
CONTINUOUS
 62
     6
 10
25461.569968000011
 20
17147.370987999981
 30
0.0
 11
25604.453599000011
 21
17070.595358999981
 31
0.0
  0
LINE
  5
90FE
  8
2-0
  6
CONTINUOUS
 62
     6
 10
25444.391705999999
 20
17096.877427999989
 30
0.0
 11
25604.453599000011
 21
17070.595358999981
 31
0.0
  0
LINE
  5
90FF
  8
2-0
  6
CONTINUOUS
 62
     6
 10
25444.391705999999
 20
17096.877427999989
 30
0.0
 11
25461.569968000011
 21
17147.370987999981
 31
0.0
  0
LINE
  5
9100
  8
2-0
  6
CONTINUOUS
 62
     3
 10
23100.846758
 20
19978.595253999982
 30
0.0
 11
23063.845595999999
 21
19978.595253999982
 31
0.0
  0
LINE
  5
9101
  8
2-0
  6
CONTINUOUS
 62
     3
 10
23100.846758
 20
19948.59169099998
 30
0.0
 11
23100.846758
 21
19978.595253999982
 31
0.0
  0
LINE
  5
9102
  8
2-0
  6
CONTINUOUS
 62
     3
 10
23094.84683699999
 20
19948.59169099998
 30
0.0
 11
23100.846758
 21
19948.59169099998
 31
0.0
  0
LINE
  5
9103
  8
2-0
  6
CONTINUOUS
 62
     3
 10
23110.944282000011
 20
19948.59169099998
 30
0.0
 11
23110.944282000011
 21
19978.595253999982
 31
0.0
  0
LINE
  5
9104
  8
2-0
  6
CONTINUOUS
 62
     3
 10
23092.94056100001
 20
19948.59169099998
 30
0.0
 11
23110.944282000011
 21
19948.59169099998
 31
0.0
  0
LINE
  5
9105
  8
2-0
  6
CONTINUOUS
 62
     3
 10
23092.94056100001
 20
19973.600927999989
 30
0.0
 11
23092.94056100001
 21
19948.59169099998
 31
0.0
  0
LINE
  5
9106
  8
2-0
  6
CONTINUOUS
 62
     3
 10
23097.940825000009
 20
19973.600927999989
 30
0.0
 11
23092.94056100001
 21
19973.600927999989
 31
0.0
  0
LINE
  5
9107
  8
2-0
  6
CONTINUOUS
 62
     3
 10
23097.940825000009
 20
19966.595411999981
 30
0.0
 11
23097.940825000009
 21
19973.600927999989
 31
0.0
  0
LINE
  5
9108
  8
2-0
  6
CONTINUOUS
 62
     3
 10
23066.751530000001
 20
19966.595411999981
 30
0.0
 11
23066.751530000001
 21
19973.600927999989
 31
0.0
  0
LINE
  5
9109
  8
2-0
  6
CONTINUOUS
 62
     3
 10
23066.751530000001
 20
19973.600927999989
 30
0.0
 11
23071.751794000011
 21
19973.600927999989
 31
0.0
  0
LINE
  5
910A
  8
2-0
  6
CONTINUOUS
 62
     3
 10
23071.751794000011
 20
19973.600927999989
 30
0.0
 11
23071.751794000011
 21
19948.59169099998
 31
0.0
  0
LINE
  5
910B
  8
2-0
  6
CONTINUOUS
 62
     3
 10
23071.751794000011
 20
19948.59169099998
 30
0.0
 11
23053.752031
 21
19948.59169099998
 31
0.0
  0
LINE
  5
910C
  8
2-0
  6
CONTINUOUS
 62
     3
 10
23053.752031
 20
19948.59169099998
 30
0.0
 11
23053.752031
 21
19978.595253999982
 31
0.0
  0
LINE
  5
910D
  8
2-0
  6
CONTINUOUS
 62
     3
 10
23069.845517000009
 20
19948.59169099998
 30
0.0
 11
23063.845595999999
 21
19948.59169099998
 31
0.0
  0
LINE
  5
910E
  8
2-0
  6
CONTINUOUS
 62
     3
 10
23063.845595999999
 20
19948.59169099998
 30
0.0
 11
23063.845595999999
 21
19978.595253999982
 31
0.0
  0
LINE
  5
910F
  8
2-0
  6
CONTINUOUS
 62
     3
 10
20559.347496999999
 20
19869.595042999968
 30
0.0
 11
20559.347496999999
 21
19863.599080999978
 31
0.0
  0
LINE
  5
9110
  8
2-0
  6
CONTINUOUS
 62
     3
 10
20559.347496999999
 20
19863.599080999978
 30
0.0
 11
20529.349871999999
 21
19863.599080999978
 31
0.0
  0
LINE
  5
9111
  8
2-0
  6
CONTINUOUS
 62
     3
 10
20529.349871999999
 20
19863.599080999978
 30
0.0
 11
20529.349871999999
 21
19978.595253999982
 31
0.0
  0
LINE
  5
9112
  8
2-0
  6
CONTINUOUS
 62
     3
 10
20529.349871999999
 20
19893.59868499995
 30
0.0
 11
20610.347813
 21
19893.59868499995
 31
0.0
  0
LINE
  5
9113
  8
2-0
  6
CONTINUOUS
 62
     3
 10
20559.347496999999
 20
19853.30162499996
 30
0.0
 11
20529.349871999999
 21
19853.30162499996
 31
0.0
  0
LINE
  5
9114
  8
2-0
  6
CONTINUOUS
 62
     3
 10
20559.347496999999
 20
19871.30336699999
 30
0.0
 11
20559.347496999999
 21
19853.30162499996
 31
0.0
  0
LINE
  5
9115
  8
2-0
  6
CONTINUOUS
 62
     3
 10
20534.354094999999
 20
19871.30336699999
 30
0.0
 11
20559.347496999999
 21
19871.30336699999
 31
0.0
  0
LINE
  5
9116
  8
2-0
  6
CONTINUOUS
 62
     3
 10
20534.354094999999
 20
19866.295184999992
 30
0.0
 11
20534.354094999999
 21
19871.30336699999
 31
0.0
  0
LINE
  5
9117
  8
2-0
  6
CONTINUOUS
 62
     3
 10
20541.351692999979
 20
19866.295184999992
 30
0.0
 11
20534.354094999999
 21
19866.295184999992
 31
0.0
  0
LINE
  5
9118
  8
2-0
  6
CONTINUOUS
 62
     3
 10
20641.645981999998
 20
19966.595411999981
 30
0.0
 11
20641.645981999998
 21
19973.600927999989
 31
0.0
  0
LINE
  5
9119
  8
2-0
  6
CONTINUOUS
 62
     3
 10
20641.645981999998
 20
19973.600927999989
 30
0.0
 11
20636.643737999999
 21
19973.600927999989
 31
0.0
  0
LINE
  5
911A
  8
2-0
  6
CONTINUOUS
 62
     3
 10
20636.643737999999
 20
19973.600927999989
 30
0.0
 11
20636.643737999999
 21
19948.59169099998
 31
0.0
  0
LINE
  5
911B
  8
2-0
  6
CONTINUOUS
 62
     3
 10
20636.643737999999
 20
19948.59169099998
 30
0.0
 11
20654.651419000002
 21
19948.59169099998
 31
0.0
  0
LINE
  5
911C
  8
2-0
  6
CONTINUOUS
 62
     3
 10
20654.651419000002
 20
19948.59169099998
 30
0.0
 11
20654.651419000002
 21
19978.595253999982
 31
0.0
  0
LINE
  5
911D
  8
2-0
  6
CONTINUOUS
 62
     3
 10
20644.351983000011
 20
19978.595253999982
 30
0.0
 11
20529.349871999999
 21
19978.595253999982
 31
0.0
  0
LINE
  5
911E
  8
2-0
  6
CONTINUOUS
 62
     3
 10
20644.351983000011
 20
19948.59169099998
 30
0.0
 11
20644.351983000011
 21
19978.595253999982
 31
0.0
  0
LINE
  5
911F
  8
2-0
  6
CONTINUOUS
 62
     3
 10
20638.34810399999
 20
19948.59169099998
 30
0.0
 11
20644.351983000011
 21
19948.59169099998
 31
0.0
  0
LINE
  5
9120
  8
2-0
  6
CONTINUOUS
 62
     3
 10
21695.935875499999
 20
19966.595411999981
 30
0.0
 11
21695.935875499999
 21
19973.600927999989
 31
0.0
  0
LINE
  5
9121
  8
2-0
  6
CONTINUOUS
 62
     3
 10
21695.935875499999
 20
19973.600927999989
 30
0.0
 11
21690.935611500001
 21
19973.600927999989
 31
0.0
  0
LINE
  5
9122
  8
2-0
  6
CONTINUOUS
 62
     3
 10
21690.935611500001
 20
19973.600927999989
 30
0.0
 11
21690.935611500001
 21
19948.59169099998
 31
0.0
  0
LINE
  5
9123
  8
2-0
  6
CONTINUOUS
 62
     3
 10
21690.935611500001
 20
19948.59169099998
 30
0.0
 11
21708.941312500021
 21
19948.59169099998
 31
0.0
  0
LINE
  5
9124
  8
2-0
  6
CONTINUOUS
 62
     3
 10
21708.941312500021
 20
19948.59169099998
 30
0.0
 11
21708.941312500021
 21
19978.595253999982
 31
0.0
  0
LINE
  5
9125
  8
2-0
  6
CONTINUOUS
 62
     3
 10
21692.8438675
 20
19948.59169099998
 30
0.0
 11
21698.84576750001
 21
19948.59169099998
 31
0.0
  0
LINE
  5
9126
  8
2-0
  6
CONTINUOUS
 62
     3
 10
21698.84576750001
 20
19948.59169099998
 30
0.0
 11
21698.84576750001
 21
19978.595253999982
 31
0.0
  0
LINE
  5
9127
  8
2-0
  6
CONTINUOUS
 62
     3
 10
21661.8465865
 20
19978.595253999982
 30
0.0
 11
21698.84576750001
 21
19978.595253999982
 31
0.0
  0
LINE
  5
9128
  8
2-0
  6
CONTINUOUS
 62
     3
 10
21661.8465865
 20
19948.59169099998
 30
0.0
 11
21661.8465865
 21
19978.595253999982
 31
0.0
  0
LINE
  5
9129
  8
2-0
  6
CONTINUOUS
 62
     3
 10
21667.8405685
 20
19948.59169099998
 30
0.0
 11
21661.8465865
 21
19948.59169099998
 31
0.0
  0
LINE
  5
912A
  8
2-0
  6
CONTINUOUS
 62
     3
 10
21651.751041500022
 20
19948.59169099998
 30
0.0
 11
21651.751041500022
 21
19978.595253999982
 31
0.0
  0
LINE
  5
912B
  8
2-0
  6
CONTINUOUS
 62
     3
 10
21669.746844500001
 20
19948.59169099998
 30
0.0
 11
21651.751041500022
 21
19948.59169099998
 31
0.0
  0
LINE
  5
912C
  8
2-0
  6
CONTINUOUS
 62
     3
 10
21669.746844500001
 20
19973.600927999989
 30
0.0
 11
21669.746844500001
 21
19948.59169099998
 31
0.0
  0
LINE
  5
912D
  8
2-0
  6
CONTINUOUS
 62
     3
 10
21664.74658050001
 20
19973.600927999989
 30
0.0
 11
21669.746844500001
 21
19973.600927999989
 31
0.0
  0
LINE
  5
912E
  8
2-0
  6
CONTINUOUS
 62
     3
 10
21664.74658050001
 20
19966.595411999981
 30
0.0
 11
21664.74658050001
 21
19973.600927999989
 31
0.0
  0
LINE
  5
912F
  8
2-0
  6
CONTINUOUS
 62
     3
 10
22365.74559150001
 20
19966.595411999981
 30
0.0
 11
22365.74559150001
 21
19973.600927999989
 31
0.0
  0
LINE
  5
9130
  8
2-0
  6
CONTINUOUS
 62
     3
 10
22365.74559150001
 20
19973.600927999989
 30
0.0
 11
22370.745854500001
 21
19973.600927999989
 31
0.0
  0
LINE
  5
9131
  8
2-0
  6
CONTINUOUS
 62
     3
 10
22370.745854500001
 20
19973.600927999989
 30
0.0
 11
22370.745854500001
 21
19948.59169099998
 31
0.0
  0
LINE
  5
9132
  8
2-0
  6
CONTINUOUS
 62
     3
 10
22370.745854500001
 20
19948.59169099998
 30
0.0
 11
22352.7520315
 21
19948.59169099998
 31
0.0
  0
LINE
  5
9133
  8
2-0
  6
CONTINUOUS
 62
     3
 10
22352.7520315
 20
19948.59169099998
 30
0.0
 11
22352.7520315
 21
19978.595253999982
 31
0.0
  0
LINE
  5
9134
  8
2-0
  6
CONTINUOUS
 62
     3
 10
22368.843537500001
 20
19948.59169099998
 30
0.0
 11
22362.845596499999
 21
19948.59169099998
 31
0.0
  0
LINE
  5
9135
  8
2-0
  6
CONTINUOUS
 62
     3
 10
22362.845596499999
 20
19948.59169099998
 30
0.0
 11
22362.845596499999
 21
19978.595253999982
 31
0.0
  0
LINE
  5
9136
  8
2-0
  6
CONTINUOUS
 62
     3
 10
22399.84675750001
 20
19978.595253999982
 30
0.0
 11
22362.845596499999
 21
19978.595253999982
 31
0.0
  0
LINE
  5
9137
  8
2-0
  6
CONTINUOUS
 62
     3
 10
22399.84675750001
 20
19948.59169099998
 30
0.0
 11
22399.84675750001
 21
19978.595253999982
 31
0.0
  0
LINE
  5
9138
  8
2-0
  6
CONTINUOUS
 62
     3
 10
22393.84089850001
 20
19948.59169099998
 30
0.0
 11
22399.84675750001
 21
19948.59169099998
 31
0.0
  0
LINE
  5
9139
  8
2-0
  6
CONTINUOUS
 62
     3
 10
22409.94032250001
 20
19948.59169099998
 30
0.0
 11
22409.94032250001
 21
19978.595253999982
 31
0.0
  0
LINE
  5
913A
  8
2-0
  6
CONTINUOUS
 62
     3
 10
22391.94451949999
 20
19948.59169099998
 30
0.0
 11
22409.94032250001
 21
19948.59169099998
 31
0.0
  0
LINE
  5
913B
  8
2-0
  6
CONTINUOUS
 62
     3
 10
22391.94451949999
 20
19973.600927999989
 30
0.0
 11
22391.94451949999
 21
19948.59169099998
 31
0.0
  0
LINE
  5
913C
  8
2-0
  6
CONTINUOUS
 62
     3
 10
22396.93488550001
 20
19973.600927999989
 30
0.0
 11
22391.94451949999
 21
19973.600927999989
 31
0.0
  0
LINE
  5
913D
  8
2-0
  6
CONTINUOUS
 62
     3
 10
22396.93488550001
 20
19966.595411999981
 30
0.0
 11
22396.93488550001
 21
19973.600927999989
 31
0.0
  0
LINE
  5
913E
  8
2-0
  6
CONTINUOUS
 62
     3
 10
21708.941312500021
 20
19978.595253999982
 30
0.0
 11
22352.7520315
 21
19978.595253999982
 31
0.0
  0
LINE
  5
913F
  8
2-0
  6
CONTINUOUS
 62
     3
 10
21008.145203000011
 20
19978.595253999982
 30
0.0
 11
21651.751041500022
 21
19978.595253999982
 31
0.0
  0
LINE
  5
9140
  8
2-0
  6
CONTINUOUS
 62
     3
 10
23053.752031
 20
19978.595253999982
 30
0.0
 11
22409.94032250001
 21
19978.595253999982
 31
0.0
  0
LINE
  5
9141
  8
2-0
  6
CONTINUOUS
 62
     3
 10
20559.347496999999
 20
19869.595042999968
 30
0.0
 11
20559.347496999999
 21
19863.599080999978
 31
0.0
  0
LINE
  5
9142
  8
2-0
  6
CONTINUOUS
 62
     3
 10
20559.347496999999
 20
19863.599080999978
 30
0.0
 11
20529.349871999999
 21
19863.599080999978
 31
0.0
  0
LINE
  5
9143
  8
2-0
  6
CONTINUOUS
 62
     3
 10
20529.349871999999
 20
19863.599080999978
 30
0.0
 11
20529.349871999999
 21
19978.595253999982
 31
0.0
  0
LINE
  5
9144
  8
2-0
  6
CONTINUOUS
 62
     3
 10
20529.349871999999
 20
19893.59868499995
 30
0.0
 11
20610.347813
 21
19893.59868499995
 31
0.0
  0
LINE
  5
9145
  8
2-0
  6
CONTINUOUS
 62
     3
 10
20559.347496999999
 20
19853.30162499996
 30
0.0
 11
20529.349871999999
 21
19853.30162499996
 31
0.0
  0
LINE
  5
9146
  8
2-0
  6
CONTINUOUS
 62
     3
 10
20559.347496999999
 20
19871.30336699999
 30
0.0
 11
20559.347496999999
 21
19853.30162499996
 31
0.0
  0
LINE
  5
9147
  8
2-0
  6
CONTINUOUS
 62
     3
 10
20534.354094999999
 20
19871.30336699999
 30
0.0
 11
20559.347496999999
 21
19871.30336699999
 31
0.0
  0
LINE
  5
9148
  8
2-0
  6
CONTINUOUS
 62
     3
 10
20534.354094999999
 20
19866.295184999992
 30
0.0
 11
20534.354094999999
 21
19871.30336699999
 31
0.0
  0
LINE
  5
9149
  8
2-0
  6
CONTINUOUS
 62
     3
 10
20541.351692999979
 20
19866.295184999992
 30
0.0
 11
20534.354094999999
 21
19866.295184999992
 31
0.0
  0
LINE
  5
914A
  8
2-0
  6
CONTINUOUS
 62
     3
 10
20541.351692999979
 20
19162.498362499959
 30
0.0
 11
20534.354094999999
 21
19162.498362499959
 31
0.0
  0
LINE
  5
914B
  8
2-0
  6
CONTINUOUS
 62
     3
 10
20534.354094999999
 20
19162.498362499959
 30
0.0
 11
20534.354094999999
 21
19167.49862649995
 31
0.0
  0
LINE
  5
914C
  8
2-0
  6
CONTINUOUS
 62
     3
 10
20534.354094999999
 20
19167.49862649995
 30
0.0
 11
20559.347496999999
 21
19167.49862649995
 31
0.0
  0
LINE
  5
914D
  8
2-0
  6
CONTINUOUS
 62
     3
 10
20559.347496999999
 20
19167.49862649995
 30
0.0
 11
20559.347496999999
 21
19149.502822499959
 31
0.0
  0
LINE
  5
914E
  8
2-0
  6
CONTINUOUS
 62
     3
 10
20559.347496999999
 20
19149.502822499959
 30
0.0
 11
20529.349871999999
 21
19149.502822499959
 31
0.0
  0
LINE
  5
914F
  8
2-0
  6
CONTINUOUS
 62
     3
 10
20559.347496999999
 20
19165.594329499942
 30
0.0
 11
20559.347496999999
 21
19159.596388499958
 31
0.0
  0
LINE
  5
9150
  8
2-0
  6
CONTINUOUS
 62
     3
 10
20559.347496999999
 20
19159.596388499958
 30
0.0
 11
20529.349871999999
 21
19159.596388499958
 31
0.0
  0
LINE
  5
9151
  8
2-0
  6
CONTINUOUS
 62
     3
 10
20529.349871999999
 20
19159.596388499958
 30
0.0
 11
20529.349871999999
 21
19196.597549499958
 31
0.0
  0
LINE
  5
9152
  8
2-0
  6
CONTINUOUS
 62
     3
 10
20559.347496999999
 20
19196.597549499958
 30
0.0
 11
20529.349871999999
 21
19196.597549499958
 31
0.0
  0
LINE
  5
9153
  8
2-0
  6
CONTINUOUS
 62
     3
 10
20559.347496999999
 20
19190.593669499958
 30
0.0
 11
20559.347496999999
 21
19196.597549499958
 31
0.0
  0
LINE
  5
9154
  8
2-0
  6
CONTINUOUS
 62
     3
 10
20559.347496999999
 20
19206.693094499951
 30
0.0
 11
20529.349871999999
 21
19206.693094499951
 31
0.0
  0
LINE
  5
9155
  8
2-0
  6
CONTINUOUS
 62
     3
 10
20559.347496999999
 20
19188.691352499962
 30
0.0
 11
20559.347496999999
 21
19206.693094499951
 31
0.0
  0
LINE
  5
9156
  8
2-0
  6
CONTINUOUS
 62
     3
 10
20534.354094999999
 20
19188.691352499962
 30
0.0
 11
20559.347496999999
 21
19188.691352499962
 31
0.0
  0
LINE
  5
9157
  8
2-0
  6
CONTINUOUS
 62
     3
 10
20534.354094999999
 20
19193.69161649996
 30
0.0
 11
20534.354094999999
 21
19188.691352499962
 31
0.0
  0
LINE
  5
9158
  8
2-0
  6
CONTINUOUS
 62
     3
 10
20541.351692999979
 20
19193.69161649996
 30
0.0
 11
20534.354094999999
 21
19193.69161649996
 31
0.0
  0
LINE
  5
9159
  8
2-0
  6
CONTINUOUS
 62
     3
 10
20541.351692999979
 20
18461.497372999969
 30
0.0
 11
20534.354094999999
 21
18461.497372999969
 31
0.0
  0
LINE
  5
915A
  8
2-0
  6
CONTINUOUS
 62
     3
 10
20534.354094999999
 20
18461.497372999969
 30
0.0
 11
20534.354094999999
 21
18466.503574999959
 31
0.0
  0
LINE
  5
915B
  8
2-0
  6
CONTINUOUS
 62
     3
 10
20534.354094999999
 20
18466.503574999959
 30
0.0
 11
20559.347496999999
 21
18466.503574999959
 31
0.0
  0
LINE
  5
915C
  8
2-0
  6
CONTINUOUS
 62
     3
 10
20559.347496999999
 20
18466.503574999959
 30
0.0
 11
20559.347496999999
 21
18448.501832999958
 31
0.0
  0
LINE
  5
915D
  8
2-0
  6
CONTINUOUS
 62
     3
 10
20559.347496999999
 20
18448.501832999958
 30
0.0
 11
20529.349871999999
 21
18448.501832999958
 31
0.0
  0
LINE
  5
915E
  8
2-0
  6
CONTINUOUS
 62
     3
 10
20559.347496999999
 20
18464.593339999941
 30
0.0
 11
20559.347496999999
 21
18458.597377999959
 31
0.0
  0
LINE
  5
915F
  8
2-0
  6
CONTINUOUS
 62
     3
 10
20559.347496999999
 20
18458.597377999959
 30
0.0
 11
20529.349871999999
 21
18458.597377999959
 31
0.0
  0
LINE
  5
9160
  8
2-0
  6
CONTINUOUS
 62
     3
 10
20529.349871999999
 20
18458.597377999959
 30
0.0
 11
20529.349871999999
 21
18495.596559999962
 31
0.0
  0
LINE
  5
9161
  8
2-0
  6
CONTINUOUS
 62
     3
 10
20559.347496999999
 20
18495.596559999962
 30
0.0
 11
20529.349871999999
 21
18495.596559999962
 31
0.0
  0
LINE
  5
9162
  8
2-0
  6
CONTINUOUS
 62
     3
 10
20559.347496999999
 20
18489.600597999961
 30
0.0
 11
20559.347496999999
 21
18495.596559999962
 31
0.0
  0
LINE
  5
9163
  8
2-0
  6
CONTINUOUS
 62
     3
 10
20559.347496999999
 20
18505.692104999958
 30
0.0
 11
20529.349871999999
 21
18505.692104999958
 31
0.0
  0
LINE
  5
9164
  8
2-0
  6
CONTINUOUS
 62
     3
 10
20559.347496999999
 20
18487.690362999951
 30
0.0
 11
20559.347496999999
 21
18505.692104999958
 31
0.0
  0
LINE
  5
9165
  8
2-0
  6
CONTINUOUS
 62
     3
 10
20534.354094999999
 20
18487.690362999951
 30
0.0
 11
20559.347496999999
 21
18487.690362999951
 31
0.0
  0
LINE
  5
9166
  8
2-0
  6
CONTINUOUS
 62
     3
 10
20534.354094999999
 20
18492.696564999958
 30
0.0
 11
20534.354094999999
 21
18487.690362999951
 31
0.0
  0
LINE
  5
9167
  8
2-0
  6
CONTINUOUS
 62
     3
 10
20541.351692999979
 20
18492.696564999958
 30
0.0
 11
20534.354094999999
 21
18492.696564999958
 31
0.0
  0
LINE
  5
9168
  8
2-0
  6
CONTINUOUS
 62
     3
 10
20541.351692999979
 20
17791.69062699996
 30
0.0
 11
20534.354094999999
 21
17791.69062699996
 31
0.0
  0
LINE
  5
9169
  8
2-0
  6
CONTINUOUS
 62
     3
 10
20534.354094999999
 20
17791.69062699996
 30
0.0
 11
20534.354094999999
 21
17786.70223999997
 31
0.0
  0
LINE
  5
916A
  8
2-0
  6
CONTINUOUS
 62
     3
 10
20534.354094999999
 20
17786.70223999997
 30
0.0
 11
20559.347496999999
 21
17786.70223999997
 31
0.0
  0
LINE
  5
916B
  8
2-0
  6
CONTINUOUS
 62
     3
 10
20559.347496999999
 20
17786.70223999997
 30
0.0
 11
20559.347496999999
 21
17804.698042999971
 31
0.0
  0
LINE
  5
916C
  8
2-0
  6
CONTINUOUS
 62
     3
 10
20559.347496999999
 20
17804.698042999971
 30
0.0
 11
20529.349871999999
 21
17804.698042999971
 31
0.0
  0
LINE
  5
916D
  8
2-0
  6
CONTINUOUS
 62
     3
 10
20559.347496999999
 20
17788.600597999972
 30
0.0
 11
20559.347496999999
 21
17794.596559999962
 31
0.0
  0
LINE
  5
916E
  8
2-0
  6
CONTINUOUS
 62
     3
 10
20559.347496999999
 20
17794.596559999962
 30
0.0
 11
20529.349871999999
 21
17794.596559999962
 31
0.0
  0
LINE
  5
916F
  8
2-0
  6
CONTINUOUS
 62
     3
 10
20529.349871999999
 20
17794.596559999962
 30
0.0
 11
20529.349871999999
 21
17757.597377999959
 31
0.0
  0
LINE
  5
9170
  8
2-0
  6
CONTINUOUS
 62
     3
 10
20559.347496999999
 20
17757.597377999959
 30
0.0
 11
20529.349871999999
 21
17757.597377999959
 31
0.0
  0
LINE
  5
9171
  8
2-0
  6
CONTINUOUS
 62
     3
 10
20559.347496999999
 20
17763.599278999958
 30
0.0
 11
20559.347496999999
 21
17757.597377999959
 31
0.0
  0
LINE
  5
9172
  8
2-0
  6
CONTINUOUS
 62
     3
 10
20559.347496999999
 20
17747.507771999972
 30
0.0
 11
20529.349871999999
 21
17747.507771999972
 31
0.0
  0
LINE
  5
9173
  8
2-0
  6
CONTINUOUS
 62
     3
 10
20559.347496999999
 20
17765.50357499997
 30
0.0
 11
20559.347496999999
 21
17747.507771999972
 31
0.0
  0
LINE
  5
9174
  8
2-0
  6
CONTINUOUS
 62
     3
 10
20534.354094999999
 20
17765.50357499997
 30
0.0
 11
20559.347496999999
 21
17765.50357499997
 31
0.0
  0
LINE
  5
9175
  8
2-0
  6
CONTINUOUS
 62
     3
 10
20534.354094999999
 20
17760.503311999972
 30
0.0
 11
20534.354094999999
 21
17765.50357499997
 31
0.0
  0
LINE
  5
9176
  8
2-0
  6
CONTINUOUS
 62
     3
 10
20541.351692999979
 20
17760.503311999972
 30
0.0
 11
20534.354094999999
 21
17760.503311999972
 31
0.0
  0
LINE
  5
9177
  8
2-0
  6
CONTINUOUS
 62
     3
 10
20532.236010000001
 20
17040.594197999959
 30
0.0
 11
20532.236010000001
 21
17060.595252999959
 31
0.0
  0
LINE
  5
9178
  8
2-0
  6
CONTINUOUS
 62
     3
 10
20532.236010000001
 20
17060.595252999959
 30
0.0
 11
20617.236538000001
 21
17060.595252999959
 31
0.0
  0
LINE
  5
9179
  8
2-0
  6
CONTINUOUS
 62
     3
 10
20541.351692999979
 20
17087.201962999981
 30
0.0
 11
20534.354094999999
 21
17087.201962999981
 31
0.0
  0
LINE
  5
917A
  8
2-0
  6
CONTINUOUS
 62
     3
 10
20534.354094999999
 20
17087.201962999981
 30
0.0
 11
20534.354094999999
 21
17082.207636999981
 31
0.0
  0
LINE
  5
917B
  8
2-0
  6
CONTINUOUS
 62
     3
 10
20534.354094999999
 20
17082.207636999981
 30
0.0
 11
20559.347496999999
 21
17082.207636999981
 31
0.0
  0
LINE
  5
917C
  8
2-0
  6
CONTINUOUS
 62
     3
 10
20559.347496999999
 20
17082.207636999981
 30
0.0
 11
20559.347496999999
 21
17100.203440999969
 31
0.0
  0
LINE
  5
917D
  8
2-0
  6
CONTINUOUS
 62
     3
 10
20559.347496999999
 20
17100.203440999969
 30
0.0
 11
20529.349871999999
 21
17100.203440999969
 31
0.0
  0
LINE
  5
917E
  8
2-0
  6
CONTINUOUS
 62
     3
 10
20559.347496999999
 20
17090.59485699996
 30
0.0
 11
20559.347496999999
 21
17084.592956999972
 31
0.0
  0
LINE
  5
917F
  8
2-0
  6
CONTINUOUS
 62
     3
 10
20529.349871999999
 20
17090.59485699996
 30
0.0
 11
20559.347496999999
 21
17090.59485699996
 31
0.0
  0
LINE
  5
9180
  8
2-0
  6
CONTINUOUS
 62
     3
 10
20529.349871999999
 20
17100.203440999969
 30
0.0
 11
20529.349871999999
 21
17747.507771999972
 31
0.0
  0
LINE
  5
9181
  8
2-0
  6
CONTINUOUS
 62
     3
 10
20529.349871999999
 20
17804.698042999971
 30
0.0
 11
20529.349871999999
 21
18448.501832999958
 31
0.0
  0
LINE
  5
9182
  8
2-0
  6
CONTINUOUS
 62
     3
 10
20529.349871999999
 20
16945.593141999969
 30
0.0
 11
20559.347496999999
 21
16945.593141999969
 31
0.0
  0
LINE
  5
9183
  8
2-0
  6
CONTINUOUS
 62
     3
 10
20559.347496999999
 20
16945.593141999969
 30
0.0
 11
20559.347496999999
 21
16951.595041999979
 31
0.0
  0
LINE
  5
9184
  8
2-0
  6
CONTINUOUS
 62
     3
 10
20617.236538000001
 20
16975.598684999972
 30
0.0
 11
20532.236010000001
 21
16975.598684999972
 31
0.0
  0
LINE
  5
9185
  8
2-0
  6
CONTINUOUS
 62
     3
 10
20532.236010000001
 20
16975.598684999972
 30
0.0
 11
20532.236010000001
 21
16995.593801999981
 31
0.0
  0
LINE
  5
9186
  8
2-0
  6
CONTINUOUS
 62
     3
 10
20559.347496999999
 20
16935.984558999979
 30
0.0
 11
20529.349871999999
 21
16935.984558999979
 31
0.0
  0
LINE
  5
9187
  8
2-0
  6
CONTINUOUS
 62
     3
 10
20559.347496999999
 20
16953.980361999951
 30
0.0
 11
20559.347496999999
 21
16935.984558999979
 31
0.0
  0
LINE
  5
9188
  8
2-0
  6
CONTINUOUS
 62
     3
 10
20534.354094999999
 20
16953.980361999951
 30
0.0
 11
20559.347496999999
 21
16953.980361999951
 31
0.0
  0
LINE
  5
9189
  8
2-0
  6
CONTINUOUS
 62
     3
 10
20534.354094999999
 20
16948.980097999982
 30
0.0
 11
20534.354094999999
 21
16953.980361999951
 31
0.0
  0
LINE
  5
918A
  8
2-0
  6
CONTINUOUS
 62
     3
 10
20541.351692999979
 20
16948.980097999982
 30
0.0
 11
20534.354094999999
 21
16948.980097999982
 31
0.0
  0
LINE
  5
918B
  8
2-0
  6
CONTINUOUS
 62
     3
 10
20541.351692999979
 20
16244.497867499949
 30
0.0
 11
20534.354094999999
 21
16244.497867499949
 31
0.0
  0
LINE
  5
918C
  8
2-0
  6
CONTINUOUS
 62
     3
 10
20534.354094999999
 20
16244.497867499949
 30
0.0
 11
20534.354094999999
 21
16249.49813149996
 31
0.0
  0
LINE
  5
918D
  8
2-0
  6
CONTINUOUS
 62
     3
 10
20534.354094999999
 20
16249.49813149996
 30
0.0
 11
20559.347496999999
 21
16249.49813149996
 31
0.0
  0
LINE
  5
918E
  8
2-0
  6
CONTINUOUS
 62
     3
 10
20559.347496999999
 20
16249.49813149996
 30
0.0
 11
20559.347496999999
 21
16231.496389499969
 31
0.0
  0
LINE
  5
918F
  8
2-0
  6
CONTINUOUS
 62
     3
 10
20559.347496999999
 20
16231.496389499969
 30
0.0
 11
20529.349871999999
 21
16231.496389499969
 31
0.0
  0
LINE
  5
9190
  8
2-0
  6
CONTINUOUS
 62
     3
 10
20559.347496999999
 20
16247.593834499959
 30
0.0
 11
20559.347496999999
 21
16241.59688349996
 31
0.0
  0
LINE
  5
9191
  8
2-0
  6
CONTINUOUS
 62
     3
 10
20559.347496999999
 20
16241.59688349996
 30
0.0
 11
20529.349871999999
 21
16241.59688349996
 31
0.0
  0
LINE
  5
9192
  8
2-0
  6
CONTINUOUS
 62
     3
 10
20529.349871999999
 20
16241.59688349996
 30
0.0
 11
20529.349871999999
 21
16278.597054499971
 31
0.0
  0
LINE
  5
9193
  8
2-0
  6
CONTINUOUS
 62
     3
 10
20559.347496999999
 20
16278.597054499971
 30
0.0
 11
20529.349871999999
 21
16278.597054499971
 31
0.0
  0
LINE
  5
9194
  8
2-0
  6
CONTINUOUS
 62
     3
 10
20559.347496999999
 20
16272.594164499949
 30
0.0
 11
20559.347496999999
 21
16278.597054499971
 31
0.0
  0
LINE
  5
9195
  8
2-0
  6
CONTINUOUS
 62
     3
 10
20559.347496999999
 20
16288.692599499949
 30
0.0
 11
20529.349871999999
 21
16288.692599499949
 31
0.0
  0
LINE
  5
9196
  8
2-0
  6
CONTINUOUS
 62
     3
 10
20559.347496999999
 20
16270.684918499959
 30
0.0
 11
20559.347496999999
 21
16288.692599499949
 31
0.0
  0
LINE
  5
9197
  8
2-0
  6
CONTINUOUS
 62
     3
 10
20534.354094999999
 20
16270.684918499959
 30
0.0
 11
20559.347496999999
 21
16270.684918499959
 31
0.0
  0
LINE
  5
9198
  8
2-0
  6
CONTINUOUS
 62
     3
 10
20534.354094999999
 20
16275.691121499971
 30
0.0
 11
20534.354094999999
 21
16270.684918499959
 31
0.0
  0
LINE
  5
9199
  8
2-0
  6
CONTINUOUS
 62
     3
 10
20541.351692999979
 20
16275.691121499971
 30
0.0
 11
20534.354094999999
 21
16275.691121499971
 31
0.0
  0
LINE
  5
919A
  8
2-0
  6
CONTINUOUS
 62
     3
 10
20541.351692999979
 20
15574.93113799998
 30
0.0
 11
20534.354094999999
 21
15574.93113799998
 31
0.0
  0
LINE
  5
919B
  8
2-0
  6
CONTINUOUS
 62
     3
 10
20534.354094999999
 20
15574.93113799998
 30
0.0
 11
20534.354094999999
 21
15569.93681299998
 31
0.0
  0
LINE
  5
919C
  8
2-0
  6
CONTINUOUS
 62
     3
 10
20534.354094999999
 20
15569.93681299998
 30
0.0
 11
20559.347496999999
 21
15569.93681299998
 31
0.0
  0
LINE
  5
919D
  8
2-0
  6
CONTINUOUS
 62
     3
 10
20559.347496999999
 20
15569.93681299998
 30
0.0
 11
20559.347496999999
 21
15587.93261599998
 31
0.0
  0
LINE
  5
919E
  8
2-0
  6
CONTINUOUS
 62
     3
 10
20559.347496999999
 20
15587.93261599998
 30
0.0
 11
20529.349871999999
 21
15587.93261599998
 31
0.0
  0
LINE
  5
919F
  8
2-0
  6
CONTINUOUS
 62
     3
 10
20559.347496999999
 20
15571.835170999961
 30
0.0
 11
20559.347496999999
 21
15577.837070999971
 31
0.0
  0
LINE
  5
91A0
  8
2-0
  6
CONTINUOUS
 62
     3
 10
20559.347496999999
 20
15577.837070999971
 30
0.0
 11
20529.349871999999
 21
15577.837070999971
 31
0.0
  0
LINE
  5
91A1
  8
2-0
  6
CONTINUOUS
 62
     3
 10
20529.349871999999
 20
15540.837889999981
 30
0.0
 11
20529.349871999999
 21
15577.837070999971
 31
0.0
  0
LINE
  5
91A2
  8
2-0
  6
CONTINUOUS
 62
     3
 10
20559.347496999999
 20
15540.837889999981
 30
0.0
 11
20529.349871999999
 21
15540.837889999981
 31
0.0
  0
LINE
  5
91A3
  8
2-0
  6
CONTINUOUS
 62
     3
 10
20559.347496999999
 20
15546.834840999971
 30
0.0
 11
20559.347496999999
 21
15540.837889999981
 31
0.0
  0
LINE
  5
91A4
  8
2-0
  6
CONTINUOUS
 62
     3
 10
20559.347496999999
 20
15530.736405999971
 30
0.0
 11
20529.349871999999
 21
15530.736405999971
 31
0.0
  0
LINE
  5
91A5
  8
2-0
  6
CONTINUOUS
 62
     3
 10
20559.347496999999
 20
15548.744086999959
 30
0.0
 11
20559.347496999999
 21
15530.736405999971
 31
0.0
  0
LINE
  5
91A6
  8
2-0
  6
CONTINUOUS
 62
     3
 10
20534.354094999999
 20
15548.744086999959
 30
0.0
 11
20559.347496999999
 21
15548.744086999959
 31
0.0
  0
LINE
  5
91A7
  8
2-0
  6
CONTINUOUS
 62
     3
 10
20534.354094999999
 20
15543.74382299999
 30
0.0
 11
20534.354094999999
 21
15548.744086999959
 31
0.0
  0
LINE
  5
91A8
  8
2-0
  6
CONTINUOUS
 62
     3
 10
20541.351692999979
 20
15543.74382299999
 30
0.0
 11
20534.354094999999
 21
15543.74382299999
 31
0.0
  0
LINE
  5
91A9
  8
2-0
  6
CONTINUOUS
 62
     3
 10
20529.349871999999
 20
16935.984558999979
 30
0.0
 11
20529.349871999999
 21
16288.692599499949
 31
0.0
  0
LINE
  5
91AA
  8
2-0
  6
CONTINUOUS
 62
     3
 10
20529.349871999999
 20
17090.59485699996
 30
0.0
 11
20529.349871999999
 21
16945.593141999969
 31
0.0
  0
LINE
  5
91AB
  8
2-0
  6
CONTINUOUS
 62
     3
 10
20617.236538000001
 20
17060.595252999959
 30
0.0
 11
20617.236538000001
 21
16975.598684999972
 31
0.0
  0
LINE
  5
91AC
  8
2-0
  6
CONTINUOUS
 62
     3
 10
20541.351692999979
 20
14842.502815999949
 30
0.0
 11
20534.354094999999
 21
14842.502815999949
 31
0.0
  0
LINE
  5
91AD
  8
2-0
  6
CONTINUOUS
 62
     3
 10
20534.354094999999
 20
14842.502815999949
 30
0.0
 11
20534.354094999999
 21
14847.49714199998
 31
0.0
  0
LINE
  5
91AE
  8
2-0
  6
CONTINUOUS
 62
     3
 10
20534.354094999999
 20
14847.49714199998
 30
0.0
 11
20559.347496999999
 21
14847.49714199998
 31
0.0
  0
LINE
  5
91AF
  8
2-0
  6
CONTINUOUS
 62
     3
 10
20559.347496999999
 20
14847.49714199998
 30
0.0
 11
20559.347496999999
 21
14829.501337999969
 31
0.0
  0
LINE
  5
91B0
  8
2-0
  6
CONTINUOUS
 62
     3
 10
20559.347496999999
 20
14829.501337999969
 30
0.0
 11
20529.349871999999
 21
14829.501337999969
 31
0.0
  0
LINE
  5
91B1
  8
2-0
  6
CONTINUOUS
 62
     3
 10
20559.347496999999
 20
14845.59977299998
 30
0.0
 11
20559.347496999999
 21
14839.59688299996
 31
0.0
  0
LINE
  5
91B2
  8
2-0
  6
CONTINUOUS
 62
     3
 10
20559.347496999999
 20
14839.59688299996
 30
0.0
 11
20529.349871999999
 21
14839.59688299996
 31
0.0
  0
LINE
  5
91B3
  8
2-0
  6
CONTINUOUS
 62
     3
 10
20529.349871999999
 20
14839.59688299996
 30
0.0
 11
20529.349871999999
 21
14876.597054999949
 31
0.0
  0
LINE
  5
91B4
  8
2-0
  6
CONTINUOUS
 62
     3
 10
20559.347496999999
 20
14876.597054999949
 30
0.0
 11
20529.349871999999
 21
14876.597054999949
 31
0.0
  0
LINE
  5
91B5
  8
2-0
  6
CONTINUOUS
 62
     3
 10
20559.347496999999
 20
14870.600102999961
 30
0.0
 11
20559.347496999999
 21
14876.597054999949
 31
0.0
  0
LINE
  5
91B6
  8
2-0
  6
CONTINUOUS
 62
     3
 10
20559.347496999999
 20
14886.69754799998
 30
0.0
 11
20529.349871999999
 21
14886.69754799998
 31
0.0
  0
LINE
  5
91B7
  8
2-0
  6
CONTINUOUS
 62
     3
 10
20559.347496999999
 20
14868.69085699997
 30
0.0
 11
20559.347496999999
 21
14886.69754799998
 31
0.0
  0
LINE
  5
91B8
  8
2-0
  6
CONTINUOUS
 62
     3
 10
20534.354094999999
 20
14868.69085699997
 30
0.0
 11
20559.347496999999
 21
14868.69085699997
 31
0.0
  0
LINE
  5
91B9
  8
2-0
  6
CONTINUOUS
 62
     3
 10
20534.354094999999
 20
14873.696069999971
 30
0.0
 11
20534.354094999999
 21
14868.69085699997
 31
0.0
  0
LINE
  5
91BA
  8
2-0
  6
CONTINUOUS
 62
     3
 10
20541.351692999979
 20
14873.696069999971
 30
0.0
 11
20534.354094999999
 21
14873.696069999971
 31
0.0
  0
LINE
  5
91BB
  8
2-0
  6
CONTINUOUS
 62
     3
 10
20559.347496999999
 20
13816.09889599995
 30
0.0
 11
20559.347496999999
 21
13822.103764999951
 31
0.0
  0
LINE
  5
91BC
  8
2-0
  6
CONTINUOUS
 62
     3
 10
20559.347496999999
 20
13822.103764999951
 30
0.0
 11
20529.349871999999
 21
13822.103764999951
 31
0.0
  0
LINE
  5
91BD
  8
2-0
  6
CONTINUOUS
 62
     3
 10
20529.349871999999
 20
13822.103764999951
 30
0.0
 11
20529.349871999999
 21
13707.09967399997
 31
0.0
  0
LINE
  5
91BE
  8
2-0
  6
CONTINUOUS
 62
     3
 10
20529.349871999999
 20
13707.09967399997
 30
0.0
 11
20614.348419999998
 21
13707.09967399997
 31
0.0
  0
LINE
  5
91BF
  8
2-0
  6
CONTINUOUS
 62
     3
 10
20614.348419999998
 20
13707.09967399997
 30
0.0
 11
20614.348419999998
 21
13792.095252999959
 31
0.0
  0
LINE
  5
91C0
  8
2-0
  6
CONTINUOUS
 62
     3
 10
20614.348419999998
 20
13792.095252999959
 30
0.0
 11
20582.351481999998
 21
13792.095252999959
 31
0.0
  0
LINE
  5
91C1
  8
2-0
  6
CONTINUOUS
 62
     3
 10
20541.351692999979
 20
13819.13349799997
 30
0.0
 11
20534.354094999999
 21
13819.13349799997
 31
0.0
  0
LINE
  5
91C2
  8
2-0
  6
CONTINUOUS
 62
     3
 10
20534.354094999999
 20
13819.13349799997
 30
0.0
 11
20534.354094999999
 21
13814.13620299994
 31
0.0
  0
LINE
  5
91C3
  8
2-0
  6
CONTINUOUS
 62
     3
 10
20534.354094999999
 20
13814.13620299994
 30
0.0
 11
20559.347496999999
 21
13814.13620299994
 31
0.0
  0
LINE
  5
91C4
  8
2-0
  6
CONTINUOUS
 62
     3
 10
20559.347496999999
 20
13814.13620299994
 30
0.0
 11
20559.347496999999
 21
13832.13497599997
 31
0.0
  0
LINE
  5
91C5
  8
2-0
  6
CONTINUOUS
 62
     3
 10
20559.347496999999
 20
13832.13497599997
 30
0.0
 11
20529.349871999999
 21
13832.13497599997
 31
0.0
  0
LINE
  5
91C6
  8
2-0
  6
CONTINUOUS
 62
     3
 10
20529.349871999999
 20
14886.69754799998
 30
0.0
 11
20529.349871999999
 21
15530.736405999971
 31
0.0
  0
LINE
  5
91C7
  8
2-0
  6
CONTINUOUS
 62
     3
 10
20529.349871999999
 20
18505.692104999958
 30
0.0
 11
20529.349871999999
 21
19149.502822499959
 31
0.0
  0
LINE
  5
91C8
  8
2-0
  6
CONTINUOUS
 62
     3
 10
20529.349871999999
 20
16231.496389499969
 30
0.0
 11
20529.349871999999
 21
15587.93261599998
 31
0.0
  0
LINE
  5
91C9
  8
2-0
  6
CONTINUOUS
 62
     3
 10
25749.344461000001
 20
19863.599080999978
 30
0.0
 11
25749.344461000001
 21
19978.595253999982
 31
0.0
  0
LINE
  5
91CA
  8
2-0
  6
CENTER2
 62
     6
 10
19242.39160000001
 20
19936.096968999958
 30
0.0
 11
26599.345781000011
 21
19936.096968999958
 31
0.0
  0
LINE
  5
91CB
  8
2-0
  6
CENTER2
 62
     6
 10
19242.39160000001
 20
17018.096968999958
 30
0.0
 11
26599.345781000011
 21
17018.096968999958
 31
0.0
  0
LINE
  5
91CC
  8
2-0
  6
CENTER2
 62
     6
 10
19242.39160000001
 20
13749.59696899996
 30
0.0
 11
26599.345781000011
 21
13749.59696899996
 31
0.0
  0
LINE
  5
91CD
  8
2-0
  6
CONTINUOUS
 62
     3
 10
20994.937855
 20
19966.595411999981
 30
0.0
 11
20994.937855
 21
19973.600927999989
 31
0.0
  0
LINE
  5
91CE
  8
2-0
  6
CONTINUOUS
 62
     3
 10
20994.937855
 20
19973.600927999989
 30
0.0
 11
20989.937591000009
 21
19973.600927999989
 31
0.0
  0
LINE
  5
91CF
  8
2-0
  6
CONTINUOUS
 62
     3
 10
20989.937591000009
 20
19973.600927999989
 30
0.0
 11
20989.937591000009
 21
19948.59169099998
 31
0.0
  0
LINE
  5
91D0
  8
2-0
  6
CONTINUOUS
 62
     3
 10
20989.937591000009
 20
19948.59169099998
 30
0.0
 11
21007.93933300002
 21
19948.59169099998
 31
0.0
  0
LINE
  5
91D1
  8
2-0
  6
CONTINUOUS
 62
     3
 10
21007.93933300002
 20
19948.59169099998
 30
0.0
 11
21007.93933300002
 21
19978.595253999982
 31
0.0
  0
LINE
  5
91D2
  8
2-0
  6
CONTINUOUS
 62
     3
 10
20991.83990800002
 20
19948.59169099998
 30
0.0
 11
20997.843787999998
 21
19948.59169099998
 31
0.0
  0
LINE
  5
91D3
  8
2-0
  6
CONTINUOUS
 62
     3
 10
20997.843787999998
 20
19948.59169099998
 30
0.0
 11
20997.843787999998
 21
19978.595253999982
 31
0.0
  0
LINE
  5
91D4
  8
2-0
  6
CONTINUOUS
 62
     3
 10
20960.848566000001
 20
19978.595253999982
 30
0.0
 11
20997.843787999998
 21
19978.595253999982
 31
0.0
  0
LINE
  5
91D5
  8
2-0
  6
CONTINUOUS
 62
     3
 10
20960.848566000001
 20
19948.59169099998
 30
0.0
 11
20960.848566000001
 21
19978.595253999982
 31
0.0
  0
LINE
  5
91D6
  8
2-0
  6
CONTINUOUS
 62
     3
 10
20966.842548000011
 20
19948.59169099998
 30
0.0
 11
20960.848566000001
 21
19948.59169099998
 31
0.0
  0
LINE
  5
91D7
  8
2-0
  6
CONTINUOUS
 62
     3
 10
20950.753021000011
 20
19948.59169099998
 30
0.0
 11
20950.753021000011
 21
19978.595253999982
 31
0.0
  0
LINE
  5
91D8
  8
2-0
  6
CONTINUOUS
 62
     3
 10
20968.74882400002
 20
19948.59169099998
 30
0.0
 11
20950.753021000011
 21
19948.59169099998
 31
0.0
  0
LINE
  5
91D9
  8
2-0
  6
CONTINUOUS
 62
     3
 10
20968.74882400002
 20
19973.600927999989
 30
0.0
 11
20968.74882400002
 21
19948.59169099998
 31
0.0
  0
LINE
  5
91DA
  8
2-0
  6
CONTINUOUS
 62
     3
 10
20963.750540000008
 20
19973.600927999989
 30
0.0
 11
20968.74882400002
 21
19973.600927999989
 31
0.0
  0
LINE
  5
91DB
  8
2-0
  6
CONTINUOUS
 62
     3
 10
20963.750540000008
 20
19966.595411999981
 30
0.0
 11
20963.750540000008
 21
19973.600927999989
 31
0.0
  0
LINE
  5
91DC
  8
2-0
  6
CONTINUOUS
 62
     3
 10
20654.651419000002
 20
19978.595253999982
 30
0.0
 11
20950.753021000011
 21
19978.595253999982
 31
0.0
  0
LINE
  5
91DD
  8
2-0
  6
CONTINUOUS
 62
     3
 10
20529.349871999999
 20
19893.59868499995
 30
0.0
 11
25668.342561000001
 21
19893.59868499995
 31
0.0
  0
LINE
  5
91DE
  8
2-0
  6
CONTINUOUS
 62
     3
 10
20529.349871999999
 20
14185.63469899996
 30
0.0
 11
20529.349871999999
 21
14829.501337999969
 31
0.0
  0
LINE
  5
91DF
  8
2-0
  6
CENTER2
 62
     6
 10
20571.846177000021
 20
21178.595253999982
 30
0.0
 11
20571.846177000021
 21
13123.833534999971
 31
0.0
  0
LINE
  5
91E0
  8
2-0
  6
CENTER2
 62
     6
 10
25706.84617700001
 20
21178.595253999982
 30
0.0
 11
25706.84617700001
 21
13123.833534999971
 31
0.0
  0
LINE
  5
91E1
  8
2-0
  6
CONTINUOUS
 62
     3
 10
25749.344461000001
 20
19853.30162499996
 30
0.0
 11
25749.344461000001
 21
19206.693094499959
 31
0.0
  0
LINE
  5
91E2
  8
2-0
  6
CONTINUOUS
 62
     3
 10
20529.349871999999
 20
19853.30162499996
 30
0.0
 11
20529.349871999999
 21
19206.693094499951
 31
0.0
  0
LINE
  5
91E3
  8
2-0
  6
CENTER2
 62
     6
 10
23840.346177000021
 20
21178.595253999982
 30
0.0
 11
23840.346177000021
 21
13558.192367999971
 31
0.0
  0
LINE
  5
91E4
  8
2-0
  6
CONTINUOUS
 62
     3
 10
20541.351692999979
 20
14141.50331099998
 30
0.0
 11
20534.354094999999
 21
14141.50331099998
 31
0.0
  0
LINE
  5
91E5
  8
2-0
  6
CONTINUOUS
 62
     3
 10
20534.354094999999
 20
14141.50331099998
 30
0.0
 11
20534.354094999999
 21
14146.49763699996
 31
0.0
  0
LINE
  5
91E6
  8
2-0
  6
CONTINUOUS
 62
     3
 10
20534.354094999999
 20
14146.49763699996
 30
0.0
 11
20559.347496999999
 21
14146.49763699996
 31
0.0
  0
LINE
  5
91E7
  8
2-0
  6
CONTINUOUS
 62
     3
 10
20559.347496999999
 20
14146.49763699996
 30
0.0
 11
20559.347496999999
 21
14128.50183299998
 31
0.0
  0
LINE
  5
91E8
  8
2-0
  6
CONTINUOUS
 62
     3
 10
20559.347496999999
 20
14128.50183299998
 30
0.0
 11
20529.349871999999
 21
14128.50183299998
 31
0.0
  0
LINE
  5
91E9
  8
2-0
  6
CONTINUOUS
 62
     3
 10
20559.347496999999
 20
14144.59927899998
 30
0.0
 11
20559.347496999999
 21
14138.59737799996
 31
0.0
  0
LINE
  5
91EA
  8
2-0
  6
CONTINUOUS
 62
     3
 10
20559.347496999999
 20
14138.59737799996
 30
0.0
 11
20529.349871999999
 21
14138.59737799996
 31
0.0
  0
LINE
  5
91EB
  8
2-0
  6
CONTINUOUS
 62
     3
 10
20529.349871999999
 20
14138.59737799996
 30
0.0
 11
20529.349871999999
 21
14175.596559999951
 31
0.0
  0
LINE
  5
91EC
  8
2-0
  6
CONTINUOUS
 62
     3
 10
20559.347496999999
 20
14175.596559999951
 30
0.0
 11
20529.349871999999
 21
14175.596559999951
 31
0.0
  0
LINE
  5
91ED
  8
2-0
  6
CONTINUOUS
 62
     3
 10
20559.347496999999
 20
14169.600597999981
 30
0.0
 11
20559.347496999999
 21
14175.596559999951
 31
0.0
  0
LINE
  5
91EE
  8
2-0
  6
CONTINUOUS
 62
     3
 10
20559.347496999999
 20
14185.69804299996
 30
0.0
 11
20529.349871999999
 21
14185.69804299996
 31
0.0
  0
LINE
  5
91EF
  8
2-0
  6
CONTINUOUS
 62
     3
 10
20559.347496999999
 20
14167.690362999951
 30
0.0
 11
20559.347496999999
 21
14185.69804299996
 31
0.0
  0
LINE
  5
91F0
  8
2-0
  6
CONTINUOUS
 62
     3
 10
20534.354094999999
 20
14167.690362999951
 30
0.0
 11
20559.347496999999
 21
14167.690362999951
 31
0.0
  0
LINE
  5
91F1
  8
2-0
  6
CONTINUOUS
 62
     3
 10
20534.354094999999
 20
14172.69656499998
 30
0.0
 11
20534.354094999999
 21
14167.690362999951
 31
0.0
  0
LINE
  5
91F2
  8
2-0
  6
CONTINUOUS
 62
     3
 10
20541.351692999979
 20
14172.69656499998
 30
0.0
 11
20534.354094999999
 21
14172.69656499998
 31
0.0
  0
LINE
  5
91F3
  8
2-0
  6
CONTINUOUS
 62
     3
 10
20529.349871999999
 20
13832.13497599997
 30
0.0
 11
20529.349871999999
 21
14128.50183299998
 31
0.0
  0
LINE
  5
91F4
  8
2-0
  6
CONTINUOUS
 62
     3
 10
20610.347813
 20
13792.095252999959
 30
0.0
 11
20610.347813
 21
19978.595253999982
 31
0.0
  0
LINE
  5
91F5
  8
2-0
  6
CONTINUOUS
 62
     3
 10
25737.342640000021
 20
14141.50331099998
 30
0.0
 11
25744.344197000009
 21
14141.50331099998
 31
0.0
  0
LINE
  5
91F6
  8
2-0
  6
CONTINUOUS
 62
     3
 10
25744.344197000009
 20
14141.50331099998
 30
0.0
 11
25744.344197000009
 21
14146.49763699996
 31
0.0
  0
LINE
  5
91F7
  8
2-0
  6
CONTINUOUS
 62
     3
 10
25744.344197000009
 20
14146.49763699996
 30
0.0
 11
25719.346837000001
 21
14146.49763699996
 31
0.0
  0
LINE
  5
91F8
  8
2-0
  6
CONTINUOUS
 62
     3
 10
25719.346837000001
 20
14146.49763699996
 30
0.0
 11
25719.346837000001
 21
14128.50183299998
 31
0.0
  0
LINE
  5
91F9
  8
2-0
  6
CONTINUOUS
 62
     3
 10
25719.346837000001
 20
14128.50183299998
 30
0.0
 11
25749.344461000001
 21
14128.50183299998
 31
0.0
  0
LINE
  5
91FA
  8
2-0
  6
CONTINUOUS
 62
     3
 10
25719.346837000001
 20
14144.59927899998
 30
0.0
 11
25719.346837000001
 21
14138.59737799996
 31
0.0
  0
LINE
  5
91FB
  8
2-0
  6
CONTINUOUS
 62
     3
 10
25719.346837000001
 20
14138.59737799996
 30
0.0
 11
25749.344461000001
 21
14138.59737799996
 31
0.0
  0
LINE
  5
91FC
  8
2-0
  6
CONTINUOUS
 62
     3
 10
25749.344461000001
 20
14138.59737799996
 30
0.0
 11
25749.344461000001
 21
14175.596559999951
 31
0.0
  0
LINE
  5
91FD
  8
2-0
  6
CONTINUOUS
 62
     3
 10
25719.346837000001
 20
14175.596559999951
 30
0.0
 11
25749.344461000001
 21
14175.596559999951
 31
0.0
  0
LINE
  5
91FE
  8
2-0
  6
CONTINUOUS
 62
     3
 10
25719.346837000001
 20
14169.600597999981
 30
0.0
 11
25719.346837000001
 21
14175.596559999951
 31
0.0
  0
LINE
  5
91FF
  8
2-0
  6
CONTINUOUS
 62
     3
 10
25719.346837000001
 20
14185.69804299996
 30
0.0
 11
25749.344461000001
 21
14185.69804299996
 31
0.0
  0
LINE
  5
9200
  8
2-0
  6
CONTINUOUS
 62
     3
 10
25719.346837000001
 20
14167.690362999951
 30
0.0
 11
25719.346837000001
 21
14185.69804299996
 31
0.0
  0
LINE
  5
9201
  8
2-0
  6
CONTINUOUS
 62
     3
 10
25744.344197000009
 20
14167.690362999951
 30
0.0
 11
25719.346837000001
 21
14167.690362999951
 31
0.0
  0
LINE
  5
9202
  8
2-0
  6
CONTINUOUS
 62
     3
 10
25744.344197000009
 20
14172.696564999949
 30
0.0
 11
25744.344197000009
 21
14167.690362999951
 31
0.0
  0
LINE
  5
9203
  8
2-0
  6
CONTINUOUS
 62
     3
 10
25737.342640000021
 20
14172.696564999949
 30
0.0
 11
25744.344197000009
 21
14172.696564999949
 31
0.0
  0
LINE
  5
9204
  8
2-0
  6
CONTINUOUS
 62
     3
 10
25749.344461000001
 20
13832.13497599997
 30
0.0
 11
25749.344461000001
 21
14128.50183299998
 31
0.0
  0
LINE
  5
9205
  8
2-0
  6
CONTINUOUS
 62
     3
 10
25668.342561000001
 20
13792.095252999959
 30
0.0
 11
25668.342561000001
 21
19978.595253999982
 31
0.0
  0
LINE
  5
9206
  8
2-0
  6
CONTINUOUS
 62
     3
 10
23797.853831000011
 20
19135.599674499961
 30
0.0
 11
23882.84644100002
 21
19135.599674499961
 31
0.0
  0
LINE
  5
9207
  8
2-0
  6
CONTINUOUS
 62
     3
 10
23882.84644100002
 20
19220.594263499959
 30
0.0
 11
23797.853831000011
 21
19220.594263499959
 31
0.0
  0
LINE
  5
9208
  8
2-0
  6
CONTINUOUS
 62
     3
 10
23797.853831000011
 20
19220.594263499959
 30
0.0
 11
23797.853831000011
 21
19135.599674499961
 31
0.0
  0
LINE
  5
9209
  8
2-0
  6
CONTINUOUS
 62
     3
 10
23882.84644100002
 20
19135.599674499961
 30
0.0
 11
23882.84644100002
 21
19220.594263499959
 31
0.0
  0
LINE
  5
920A
  8
2-0
  6
CONTINUOUS
 62
     6
 10
23801.411026000002
 20
19126.459035999978
 30
0.0
 11
23524.82081300002
 21
18671.11433599997
 31
0.0
  0
LINE
  5
920B
  8
2-0
  6
CONTINUOUS
 62
     6
 10
23524.82081300002
 20
18671.11433599997
 30
0.0
 11
22494.471494000001
 21
18671.11433599997
 31
0.0
  0
LINE
  5
920C
  8
2-0
  6
CONTINUOUS
 62
     6
 10
23741.132706
 20
18975.863200999989
 30
0.0
 11
23801.411026000002
 21
19126.459035999978
 31
0.0
  0
LINE
  5
920D
  8
2-0
  6
CONTINUOUS
 62
     6
 10
23801.411026000002
 20
19126.459035999978
 30
0.0
 11
23695.552310999999
 21
19003.550727999969
 31
0.0
  0
LINE
  5
920E
  8
2-0
  6
CONTINUOUS
 62
     6
 10
23741.132706
 20
18975.863200999989
 30
0.0
 11
23695.552310999999
 21
19003.550727999969
 31
0.0
  0
LINE
  5
920F
  8
2-0
  6
CONTINUOUS
 62
     6
 10
23695.552310999999
 20
19003.550727999969
 30
0.0
 11
23801.411026000002
 21
19126.459035999978
 31
0.0
  0
LINE
  5
9210
  8
2-0
  6
CONTINUOUS
 62
     6
 10
23801.411026000002
 20
19126.459035999978
 30
0.0
 11
23741.132706
 21
18975.863200999989
 31
0.0
  0
LINE
  5
9211
  8
2-0
  6
CONTINUOUS
 62
     6
 10
23741.132706
 20
18975.863200999989
 30
0.0
 11
23801.411026000002
 21
19126.459035999978
 31
0.0
  0
LINE
  5
9212
  8
2-0
  6
CONTINUOUS
 62
     6
 10
23695.552310999999
 20
19003.550727999969
 30
0.0
 11
23801.411026000002
 21
19126.459035999978
 31
0.0
  0
LINE
  5
9213
  8
2-0
  6
CONTINUOUS
 62
     6
 10
23695.552310999999
 20
19003.550727999969
 30
0.0
 11
23741.132706
 21
18975.863200999989
 31
0.0
  0
CIRCLE
  5
9214
  8
2-0
  6
CONTINUOUS
 62
     4
 10
19042.39391000001
 20
19936.096968999958
 30
0.0
 40
200.00001
  0
CIRCLE
  5
9215
  8
2-0
  6
CONTINUOUS
 62
     4
 10
19042.39391000001
 20
17018.096968999958
 30
0.0
 40
200.00001
  0
CIRCLE
  5
9216
  8
2-0
  6
CONTINUOUS
 62
     4
 10
19042.39391000001
 20
13749.59696899996
 30
0.0
 40
200.00001
  0
CIRCLE
  5
9217
  8
2-0
  6
CONTINUOUS
 62
     4
 10
23840.346177000021
 20
21378.599872999981
 30
0.0
 40
200.00001
  0
CIRCLE
  5
9218
  8
2-0
  6
CONTINUOUS
 62
     4
 10
20571.846177000021
 20
21378.599872999981
 30
0.0
 40
200.00001
  0
TEXT
  5
9219
  8
2-0
  6
CONTINUOUS
 62
     7
 10
24103.691484000021
 20
13189.598090999911
 30
0.0
 40
160.0
  1
前柱（右）
 50
0.0002130000058044
 72
     4
 11
24519.691186593031
 21
13269.599637500751
 31
0.0
  0
TEXT
  5
921A
  8
2-0
  6
CONTINUOUS
 62
     7
 10
24308.286606999998
 20
16468.590107000029
 30
0.0
 40
160.0
  1
壁パネル
 50
359.9998229999926
 72
     4
 11
24670.95352080357
 21
16548.588986637849
 31
0.0
  0
TEXT
  5
921B
  8
2-0
  6
CONTINUOUS
 62
     7
 10
24028.28370300003
 20
17305.77800299985
 30
0.0
 40
160.0
  1
中柱（左右）
 50
0.0003540000147867
 72
     4
 11
24545.61654204622
 21
17385.78119932464
 31
0.0
  0
TEXT
  5
921C
  8
2-0
  6
CONTINUOUS
 62
     7
 10
24708.285947000011
 20
14162.639356999911
 30
0.0
 40
160.0
  1
下枠
 50
0.0010630000132487
 72
     4
 11
24878.951129409292
 21
14242.64252333924
 31
0.0
  0
TEXT
  5
921D
  8
2-0
  6
CONTINUOUS
 62
     7
 10
24203.25137100002
 20
18909.046741499958
 30
0.0
 40
160.0
  1
間柱（側）
 72
     4
 11
24624.584704333349
 21
18989.046741499958
 31
0.0
  0
TEXT
  5
921E
  8
2-0
  6
CONTINUOUS
 62
     7
 10
26521.841690000019
 20
20788.594461999841
 30
0.0
 40
160.0
  1
後柱（左右）
 50
0.0003540000147867
 72
     4
 11
27033.841195712979
 21
20868.597625372811
 31
0.0
  0
TEXT
  5
921F
  8
2-0
  6
CONTINUOUS
 62
     7
 10
22609.257415000018
 20
14327.43526899995
 30
0.0
 40
160.0
  1
前柱（中）
 72
     4
 11
23025.257415000018
 21
14407.43526899995
 31
0.0
  0
TEXT
  5
9220
  8
2-0
  6
CONTINUOUS
 62
     7
 10
22676.215053000022
 20
19341.477300999992
 30
0.0
 40
160.0
  1
間柱（後）
 72
     4
 11
23097.54838633335
 21
19421.477300999992
 31
0.0
  0
TEXT
  5
9221
  8
2-0
  6
CONTINUOUS
 62
     7
 10
24110.639542000012
 20
19410.222021999991
 30
0.0
 40
160.0
  1
後柱（中）
 72
     4
 11
24526.639542000012
 21
19490.222021999991
 31
0.0
  0
TEXT
  5
9222
  8
2-0
  6
CONTINUOUS
 62
     7
 10
18994.394542999969
 20
19841.616526999991
 30
0.0
 40
160.0
  1
C
 72
     4
 11
19047.727876333309
 21
19921.616526999991
 31
0.0
  0
TEXT
  5
9223
  8
2-0
  6
CONTINUOUS
 62
     7
 10
18994.615258999991
 20
16947.702886999981
 30
0.0
 40
160.0
  1
B
 72
     4
 11
19047.94859233333
 21
17027.702886999981
 31
0.0
  0
TEXT
  5
9224
  8
2-0
  6
CONTINUOUS
 62
     7
 10
18994.657818999978
 20
13660.989757999971
 30
0.0
 40
160.0
  1
A
 72
     4
 11
19047.991152333321
 21
13740.989757999971
 31
0.0
  0
TEXT
  5
9225
  8
2-0
  6
CONTINUOUS
 62
     7
 10
23788.714394000021
 20
21283.074243999989
 30
0.0
 40
160.0
  1
2
 72
     4
 11
23842.047727333349
 21
21363.074243999989
 31
0.0
  0
TEXT
  5
9226
  8
2-0
  6
CONTINUOUS
 62
     7
 10
20527.639567999999
 20
21289.832320999991
 30
0.0
 40
160.0
  1
1
 72
     4
 11
20554.30623466667
 21
21369.832320999991
 31
0.0
  0
TEXT
  5
9227
  8
2-0
  6
CONTINUOUS
 62
     7
 10
22677.50558566668
 20
18744.115022999958
 30
0.0
 40
160.0
  1
梁補助柱
 72
     4
 11
23040.172252333348
 21
18824.115022999958
 31
0.0
  0
LINE
  5
9228
  8
2-0
  6
CONTINUOUS
 62
     3
 10
24967.346757999989
 20
19978.595253999982
 30
0.0
 11
24930.345596000021
 21
19978.595253999982
 31
0.0
  0
LINE
  5
9229
  8
2-0
  6
CONTINUOUS
 62
     3
 10
24967.346757999989
 20
19948.59169099998
 30
0.0
 11
24967.346757999989
 21
19978.595253999982
 31
0.0
  0
LINE
  5
922A
  8
2-0
  6
CONTINUOUS
 62
     3
 10
24961.346836999979
 20
19948.59169099998
 30
0.0
 11
24967.346757999989
 21
19948.59169099998
 31
0.0
  0
LINE
  5
922B
  8
2-0
  6
CONTINUOUS
 62
     3
 10
24977.444282000011
 20
19948.59169099998
 30
0.0
 11
24977.444282000011
 21
19978.595253999982
 31
0.0
  0
LINE
  5
922C
  8
2-0
  6
CONTINUOUS
 62
     3
 10
24959.44056100001
 20
19948.59169099998
 30
0.0
 11
24977.444282000011
 21
19948.59169099998
 31
0.0
  0
LINE
  5
922D
  8
2-0
  6
CONTINUOUS
 62
     3
 10
24959.44056100001
 20
19973.600927999989
 30
0.0
 11
24959.44056100001
 21
19948.59169099998
 31
0.0
  0
LINE
  5
922E
  8
2-0
  6
CONTINUOUS
 62
     3
 10
24964.440825000001
 20
19973.600927999989
 30
0.0
 11
24959.44056100001
 21
19973.600927999989
 31
0.0
  0
LINE
  5
922F
  8
2-0
  6
CONTINUOUS
 62
     3
 10
24964.440825000001
 20
19966.595411999981
 30
0.0
 11
24964.440825000001
 21
19973.600927999989
 31
0.0
  0
LINE
  5
9230
  8
2-0
  6
CONTINUOUS
 62
     3
 10
24933.25152999999
 20
19966.595411999981
 30
0.0
 11
24933.25152999999
 21
19973.600927999989
 31
0.0
  0
LINE
  5
9231
  8
2-0
  6
CONTINUOUS
 62
     3
 10
24933.25152999999
 20
19973.600927999989
 30
0.0
 11
24938.251794000011
 21
19973.600927999989
 31
0.0
  0
LINE
  5
9232
  8
2-0
  6
CONTINUOUS
 62
     3
 10
24938.251794000011
 20
19973.600927999989
 30
0.0
 11
24938.251794000011
 21
19948.59169099998
 31
0.0
  0
LINE
  5
9233
  8
2-0
  6
CONTINUOUS
 62
     3
 10
24938.251794000011
 20
19948.59169099998
 30
0.0
 11
24920.252031000011
 21
19948.59169099998
 31
0.0
  0
LINE
  5
9234
  8
2-0
  6
CONTINUOUS
 62
     3
 10
24920.252031000011
 20
19948.59169099998
 30
0.0
 11
24920.252031000011
 21
19978.595253999982
 31
0.0
  0
LINE
  5
9235
  8
2-0
  6
CONTINUOUS
 62
     3
 10
24936.345517000002
 20
19948.59169099998
 30
0.0
 11
24930.345596000021
 21
19948.59169099998
 31
0.0
  0
LINE
  5
9236
  8
2-0
  6
CONTINUOUS
 62
     3
 10
24930.345596000021
 20
19948.59169099998
 30
0.0
 11
24930.345596000021
 21
19978.595253999982
 31
0.0
  0
LINE
  5
9237
  8
2-0
  6
CONTINUOUS
 62
     3
 10
24964.435875500021
 20
19966.595411999981
 30
0.0
 11
24964.435875500021
 21
19973.600927999989
 31
0.0
  0
LINE
  5
9238
  8
2-0
  6
CONTINUOUS
 62
     3
 10
24964.435875500021
 20
19973.600927999989
 30
0.0
 11
24959.435611500008
 21
19973.600927999989
 31
0.0
  0
LINE
  5
9239
  8
2-0
  6
CONTINUOUS
 62
     3
 10
24959.435611500008
 20
19973.600927999989
 30
0.0
 11
24959.435611500008
 21
19948.59169099998
 31
0.0
  0
LINE
  5
923A
  8
2-0
  6
CONTINUOUS
 62
     3
 10
24959.435611500008
 20
19948.59169099998
 30
0.0
 11
24977.44131250001
 21
19948.59169099998
 31
0.0
  0
LINE
  5
923B
  8
2-0
  6
CONTINUOUS
 62
     3
 10
24977.44131250001
 20
19948.59169099998
 30
0.0
 11
24977.44131250001
 21
19978.595253999982
 31
0.0
  0
LINE
  5
923C
  8
2-0
  6
CONTINUOUS
 62
     3
 10
24961.3438675
 20
19948.59169099998
 30
0.0
 11
24967.34576750001
 21
19948.59169099998
 31
0.0
  0
LINE
  5
923D
  8
2-0
  6
CONTINUOUS
 62
     3
 10
24967.34576750001
 20
19948.59169099998
 30
0.0
 11
24967.34576750001
 21
19978.595253999982
 31
0.0
  0
LINE
  5
923E
  8
2-0
  6
CONTINUOUS
 62
     3
 10
24930.3465865
 20
19978.595253999982
 30
0.0
 11
24967.34576750001
 21
19978.595253999982
 31
0.0
  0
LINE
  5
923F
  8
2-0
  6
CONTINUOUS
 62
     3
 10
24930.3465865
 20
19948.59169099998
 30
0.0
 11
24930.3465865
 21
19978.595253999982
 31
0.0
  0
LINE
  5
9240
  8
2-0
  6
CONTINUOUS
 62
     3
 10
24936.340568499989
 20
19948.59169099998
 30
0.0
 11
24930.3465865
 21
19948.59169099998
 31
0.0
  0
LINE
  5
9241
  8
2-0
  6
CONTINUOUS
 62
     3
 10
24920.251041500011
 20
19948.59169099998
 30
0.0
 11
24920.251041500011
 21
19978.595253999982
 31
0.0
  0
LINE
  5
9242
  8
2-0
  6
CONTINUOUS
 62
     3
 10
24938.246844500009
 20
19948.59169099998
 30
0.0
 11
24920.251041500011
 21
19948.59169099998
 31
0.0
  0
LINE
  5
9243
  8
2-0
  6
CONTINUOUS
 62
     3
 10
24938.246844500009
 20
19973.600927999989
 30
0.0
 11
24938.246844500009
 21
19948.59169099998
 31
0.0
  0
LINE
  5
9244
  8
2-0
  6
CONTINUOUS
 62
     3
 10
24933.24658050001
 20
19973.600927999989
 30
0.0
 11
24938.246844500009
 21
19973.600927999989
 31
0.0
  0
LINE
  5
9245
  8
2-0
  6
CONTINUOUS
 62
     3
 10
24933.24658050001
 20
19966.595411999981
 30
0.0
 11
24933.24658050001
 21
19973.600927999989
 31
0.0
  0
LINE
  5
9246
  8
2-0
  6
CONTINUOUS
 62
     3
 10
24276.645203000011
 20
19978.595253999982
 30
0.0
 11
24920.251041500011
 21
19978.595253999982
 31
0.0
  0
LINE
  5
9247
  8
2-0
  6
CONTINUOUS
 62
     3
 10
25624.729807000011
 20
19978.595253999982
 30
0.0
 11
24977.444282000011
 21
19978.595253999982
 31
0.0
  0
LINE
  5
9248
  8
2-0
  6
CONTINUOUS
 62
     3
 10
24263.437855000011
 20
19966.595411999981
 30
0.0
 11
24263.437855000011
 21
19973.600927999989
 31
0.0
  0
LINE
  5
9249
  8
2-0
  6
CONTINUOUS
 62
     3
 10
24263.437855000011
 20
19973.600927999989
 30
0.0
 11
24258.437591000009
 21
19973.600927999989
 31
0.0
  0
LINE
  5
924A
  8
2-0
  6
CONTINUOUS
 62
     3
 10
24258.437591000009
 20
19973.600927999989
 30
0.0
 11
24258.437591000009
 21
19948.59169099998
 31
0.0
  0
LINE
  5
924B
  8
2-0
  6
CONTINUOUS
 62
     3
 10
24258.437591000009
 20
19948.59169099998
 30
0.0
 11
24276.439333000009
 21
19948.59169099998
 31
0.0
  0
LINE
  5
924C
  8
2-0
  6
CONTINUOUS
 62
     3
 10
24276.439333000009
 20
19948.59169099998
 30
0.0
 11
24276.439333000009
 21
19978.595253999982
 31
0.0
  0
LINE
  5
924D
  8
2-0
  6
CONTINUOUS
 62
     3
 10
24260.339908000009
 20
19948.59169099998
 30
0.0
 11
24266.343788000009
 21
19948.59169099998
 31
0.0
  0
LINE
  5
924E
  8
2-0
  6
CONTINUOUS
 62
     3
 10
24266.343788000009
 20
19948.59169099998
 30
0.0
 11
24266.343788000009
 21
19978.595253999982
 31
0.0
  0
LINE
  5
924F
  8
2-0
  6
CONTINUOUS
 62
     3
 10
24229.34856599999
 20
19978.595253999982
 30
0.0
 11
24266.343788000009
 21
19978.595253999982
 31
0.0
  0
LINE
  5
9250
  8
2-0
  6
CONTINUOUS
 62
     3
 10
24229.34856599999
 20
19948.59169099998
 30
0.0
 11
24229.34856599999
 21
19978.595253999982
 31
0.0
  0
LINE
  5
9251
  8
2-0
  6
CONTINUOUS
 62
     3
 10
24235.342548000011
 20
19948.59169099998
 30
0.0
 11
24229.34856599999
 21
19948.59169099998
 31
0.0
  0
LINE
  5
9252
  8
2-0
  6
CONTINUOUS
 62
     3
 10
24219.253021000011
 20
19948.59169099998
 30
0.0
 11
24219.253021000011
 21
19978.595253999982
 31
0.0
  0
LINE
  5
9253
  8
2-0
  6
CONTINUOUS
 62
     3
 10
24237.248824000009
 20
19948.59169099998
 30
0.0
 11
24219.253021000011
 21
19948.59169099998
 31
0.0
  0
LINE
  5
9254
  8
2-0
  6
CONTINUOUS
 62
     3
 10
24237.248824000009
 20
19973.600927999989
 30
0.0
 11
24237.248824000009
 21
19948.59169099998
 31
0.0
  0
LINE
  5
9255
  8
2-0
  6
CONTINUOUS
 62
     3
 10
24232.250540000008
 20
19973.600927999989
 30
0.0
 11
24237.248824000009
 21
19973.600927999989
 31
0.0
  0
LINE
  5
9256
  8
2-0
  6
CONTINUOUS
 62
     3
 10
24232.250540000008
 20
19966.595411999981
 30
0.0
 11
24232.250540000008
 21
19973.600927999989
 31
0.0
  0
LINE
  5
9257
  8
2-0
  6
CONTINUOUS
 62
     3
 10
23923.151419000002
 20
19978.595253999982
 30
0.0
 11
24219.253021000011
 21
19978.595253999982
 31
0.0
  0
LINE
  5
9258
  8
2-0
  6
CONTINUOUS
 62
     3
 10
23758.918680000021
 20
19978.595253999982
 30
0.0
 11
23110.944282000011
 21
19978.595253999982
 31
0.0
  0
LINE
  5
9259
  8
2-0
  6
CONTINUOUS
 62
     3
 10
25749.344461000001
 20
15530.736405999971
 30
0.0
 11
25749.344461000001
 21
14886.69754799998
 31
0.0
  0
LINE
  5
925A
  8
2-0
  6
CONTINUOUS
 62
     3
 10
25749.344461000001
 20
14829.501337999969
 30
0.0
 11
25749.344461000001
 21
14185.69804299996
 31
0.0
  0
CIRCLE
  5
925B
  8
2-0
  6
CONTINUOUS
 62
     4
 10
25706.84617700001
 20
21378.599872999981
 30
0.0
 40
200.00001
  0
TEXT
  5
925C
  8
2-0
  6
CONTINUOUS
 62
     7
 10
25655.21439400001
 20
21283.074243999989
 30
0.0
 40
160.0
  1
3
 72
     4
 11
25708.547727333342
 21
21363.074243999989
 31
0.0
  0
LINE
  5
925D
  8
0-1
  6
CONTINUOUS
 62
     3
 10
13489.340257135171
 20
16919.470406627792
 30
0.0
 11
13489.34025713518
 21
20121.091544999981
 31
0.0
  0
LINE
  5
925E
  8
0-1
  6
CONTINUOUS
 62
     3
 10
13452.342064135149
 20
16938.160567179581
 30
0.0
 11
13452.34206413518
 21
20121.091544999981
 31
0.0
  0
LINE
  5
925F
  8
0-1
  6
CONTINUOUS
 62
     3
 10
13215.341233135179
 20
17057.884889453911
 30
0.0
 11
13215.341233135179
 21
20121.091544999981
 31
0.0
  0
LINE
  5
9260
  8
0-1
  6
CONTINUOUS
 62
     3
 10
13252.341405135179
 20
17039.193729182261
 30
0.0
 11
13252.341405135179
 21
20121.091544999981
 31
0.0
  0
LINE
  5
9261
  8
SUNPOU
  6
CONTINUOUS
 10
7527.8408231351777
 20
13577.600215999981
 30
0.0
 11
7527.8408231351777
 21
12902.174100189621
 31
0.0
  0
LINE
  5
9262
  8
SUNPOU
  6
CONTINUOUS
 10
7527.8408231351777
 20
20179.09144
 30
0.0
 11
7527.8408231351777
 21
20976.058707778458
 31
0.0
  0
TEXT
  5
9263
  8
0-5
  6
CONTINUOUS
 62
     7
 10
8701.8685501351956
 20
18916.29319199999
 30
0.0
 40
160.0
  1
上枠
 72
     4
 11
8872.5352168018617
 21
18996.29319199999
 31
0.0
  0
TEXT
  5
9264
  8
0-5
  6
CONTINUOUS
 62
     7
 10
6721.4418641351785
 20
12457.595530999981
 30
0.0
 40
160.0
  1
ケラバ 左
 72
     4
 11
7137.4418641351813
 21
12537.595530999981
 31
0.0
  0
TEXT
  5
9265
  8
0-5
  6
CONTINUOUS
 62
     7
 10
10688.634228135181
 20
12857.595860999991
 30
0.0
 40
160.0
  1
鼻隠し前
 72
     4
 11
11051.300894801851
 21
12937.595860999991
 31
0.0
  0
TEXT
  5
9266
  8
0-5
  6
CONTINUOUS
 62
     7
 10
9781.1080981351788
 20
14221.42378799998
 30
0.0
 40
160.0
  1
桁（前）
 72
     4
 11
10101.108098135181
 21
14301.42378799998
 31
0.0
  0
TEXT
  5
9267
  8
0-5
  6
CONTINUOUS
 62
     7
 10
10767.709067135171
 20
20489.095926999991
 30
0.0
 40
160.0
  1
屋根
 72
     4
 11
10938.37573380184
 21
20569.095926999991
 31
0.0
  0
TEXT
  5
9268
  8
0-4
  6
CONTINUOUS
 62
     7
 10
6874.967882135179
 20
13682.411765999979
 30
0.0
 40
160.0
  1
A
 72
     4
 11
6928.3012154685121
 21
13762.411765999979
 31
0.0
  0
TEXT
  5
9269
  8
0-4
  6
CONTINUOUS
 62
     7
 10
6874.967882135179
 20
16950.91077599999
 30
0.0
 40
160.0
  1
B
 72
     4
 11
6928.3012154685121
 21
17030.91077599999
 31
0.0
  0
TEXT
  5
926A
  8
0-4
  6
CONTINUOUS
 62
     7
 10
6874.967882135179
 20
19868.910776000001
 30
0.0
 40
160.0
  1
C
 72
     4
 11
6928.3012154685121
 21
19948.910776000001
 31
0.0
  0
TEXT
  5
926B
  8
0-4
  6
CONTINUOUS
 62
     7
 10
8410.9218781351865
 20
21238.57333399999
 30
0.0
 40
160.0
  1
1
 72
     4
 11
8437.5885448018525
 21
21318.57333399999
 31
0.0
  0
TEXT
  5
926C
  8
0-4
  6
CONTINUOUS
 62
     7
 10
11677.57795713517
 20
21236.607671999998
 30
0.0
 40
160.0
  1
2
 72
     4
 11
11730.911290468501
 21
21316.607671999998
 31
0.0
  0
TEXT
  5
926D
  8
0-4
  6
CONTINUOUS
 62
     7
 10
13537.44458913517
 20
21314.355243999998
 30
0.0
 40
160.0
  1
3
 72
     4
 11
13590.7779224685
 21
21394.355243999998
 31
0.0
  0
CIRCLE
  5
926E
  8
0-4
  6
CONTINUOUS
 62
     4
 10
13592.34059913517
 20
21399.092496000001
 30
0.0
 40
199.9999949999999
  0
CIRCLE
  5
926F
  8
0-4
  6
CONTINUOUS
 62
     4
 10
6927.8393391351801
 20
13770.09553099999
 30
0.0
 40
199.9999949999999
  0
CIRCLE
  5
9270
  8
0-4
  6
CONTINUOUS
 62
     4
 10
6927.8393391351801
 20
17038.595530999992
 30
0.0
 40
199.9999949999999
  0
CIRCLE
  5
9271
  8
0-4
  6
CONTINUOUS
 62
     4
 10
6927.8393391351801
 20
19956.595530999992
 30
0.0
 40
199.9999949999999
  0
CIRCLE
  5
9272
  8
0-4
  6
CONTINUOUS
 62
     4
 10
8457.3405991351774
 20
21329.094739
 30
0.0
 40
199.9999949999999
  0
CIRCLE
  5
9273
  8
0-4
  6
CONTINUOUS
 62
     4
 10
11725.84059913517
 20
21329.094739
 30
0.0
 40
199.9999949999999
  0
ARC
  5
9274
  8
0-1
  6
CONTINUOUS
 62
     3
 10
13672.84073113516
 20
20174.093154999999
 30
0.0
 40
5.0
 50
0.0
 51
90.0
  0
ARC
  5
9275
  8
0-1
  6
CONTINUOUS
 62
     3
 10
13609.341734135171
 20
20174.093154999999
 30
0.0
 40
5.0
 50
90.0
 51
180.0
  0
ARC
  5
9276
  8
0-1
  6
CONTINUOUS
 62
     3
 10
13609.341734135171
 20
20144.093551000002
 30
0.0
 40
5.0
 50
180.0
 51
269.9999850001808
  0
ARC
  5
9277
  8
0-1
  6
CONTINUOUS
 62
     3
 10
8440.3404541351774
 20
20144.093551000002
 30
0.0
 40
5.0
 50
269.9999850001808
 51
0.0
  0
ARC
  5
9278
  8
0-1
  6
CONTINUOUS
 62
     3
 10
8440.3404541351774
 20
20174.093154999999
 30
0.0
 40
5.0
 50
0.0
 51
90.0
  0
ARC
  5
9279
  8
0-1
  6
CONTINUOUS
 62
     3
 10
8376.8404671351873
 20
20174.093154999999
 30
0.0
 40
5.0
 50
90.0
 51
180.0
  0
LINE
  5
927A
  8
2-0
  6
DASHED3
 62
     6
 10
11782.840837135171
 20
18107.592548000001
 30
0.0
 11
11782.840837135171
 21
18452.59315499998
 31
0.0
  0
LINE
  5
927B
  8
2-0
  6
DASHED3
 62
     6
 10
11668.84036213519
 20
18107.592548000001
 30
0.0
 11
11668.84036213519
 21
18452.59315499998
 31
0.0
  0
LINE
  5
927C
  8
2-0
  6
DASHED3
 62
     6
 10
11782.840837135171
 20
18542.593946999968
 30
0.0
 11
11782.840837135171
 21
19917.59307599999
 31
0.0
  0
LINE
  5
927D
  8
2-0
  6
DASHED3
 62
     6
 10
11725.84059913517
 20
18542.593946999968
 30
0.0
 11
11725.84059913517
 21
19917.59307599999
 31
0.0
  0
LINE
  5
927E
  8
2-0
  6
DASHED3
 62
     6
 10
11668.84036213519
 20
18542.593946999968
 30
0.0
 11
11668.84036213519
 21
19917.59307599999
 31
0.0
  0
LINE
  5
927F
  8
2-0
  6
CENTER2
 62
     6
 10
13264.84104813516
 20
13770.09553099999
 30
0.0
 11
13891.105379135181
 21
13770.09553099999
 31
0.0
  0
LINE
  5
9280
  8
2-0
  6
CENTER2
 62
     6
 10
13264.84104813516
 20
17038.595530999992
 30
0.0
 11
13891.105379135181
 21
17038.595530999992
 31
0.0
  0
LINE
  5
9281
  8
2-0
  6
CENTER2
 62
     6
 10
7127.8390091351748
 20
13770.09553099999
 30
0.0
 11
8774.3397151351819
 21
13770.09553099999
 31
0.0
  0
LINE
  5
9282
  8
2-0
  6
CENTER2
 62
     6
 10
7127.8390091351748
 20
17038.595530999992
 30
0.0
 11
8774.3397151351819
 21
17038.595530999992
 31
0.0
  0
LINE
  5
9283
  8
0-7
  6
CONTINUOUS
 62
     6
 10
8457.3405991351774
 20
21129.094078999999
 30
0.0
 11
8457.3405991351774
 21
20249.093154999991
 31
0.0
  0
LINE
  5
9284
  8
2-0
  6
CENTER2
 62
     6
 10
7127.8390091351748
 20
19956.595530999992
 30
0.0
 11
8774.3397151351819
 21
19956.595530999992
 31
0.0
  0
LINE
  5
9285
  8
0-7
  6
CONTINUOUS
 62
     6
 10
11725.84059913517
 20
21129.094078999999
 30
0.0
 11
11725.84059913517
 21
20249.093154999991
 31
0.0
  0
LINE
  5
9286
  8
0-7
  6
CONTINUOUS
 62
     6
 10
13592.34059913517
 20
21199.093814999978
 30
0.0
 11
13592.34059913517
 21
20249.093154999991
 31
0.0
  0
LINE
  5
9287
  8
2-0
  6
DASHED3
 62
     6
 10
12131.272526092
 20
17605.517531508031
 30
0.0
 11
13522.340863135179
 21
19956.595530999992
 31
0.0
  0
LINE
  5
9288
  8
2-0
  6
DASHED3
 62
     6
 10
13465.300582651471
 20
16930.610532595751
 30
0.0
 11
13522.340863135179
 21
17038.595530999992
 31
0.0
  0
LINE
  5
9289
  8
2-0
  6
DASHED3
 62
     6
 10
11795.840335135181
 20
19956.595530999992
 30
0.0
 11
13522.34086313517
 21
17038.595530999992
 31
0.0
  0
LINE
  5
928A
  8
2-0
  6
DASHED3
 62
     6
 10
9129.2574726241564
 20
19395.17901262144
 30
0.0
 11
8527.3413251351867
 21
19956.595530999992
 31
0.0
  0
LINE
  5
928B
  8
2-0
  6
DASHED3
 62
     6
 10
11655.84086313519
 20
19956.595530999992
 30
0.0
 11
10376.35066345674
 21
18763.19519409327
 31
0.0
  0
LINE
  5
928C
  8
2-0
  6
DASHED3
 62
     6
 10
11725.84059913517
 20
18542.593946999968
 30
0.0
 11
11725.84059913517
 21
18452.59315499998
 31
0.0
  0
LINE
  5
928D
  8
2-0
  6
DASHED3
 62
     6
 10
11725.84059913517
 20
17949.318160999999
 30
0.0
 11
11725.84059913517
 21
18452.59315499998
 31
0.0
  0
LINE
  5
928E
  8
2-0
  6
DASHED3
 62
     6
 10
11668.84036213519
 20
18083.782898999991
 30
0.0
 11
11668.84036213519
 21
18107.592548000001
 31
0.0
  0
LINE
  5
928F
  8
2-0
  6
DASHED3
 62
     6
 10
11782.840837135171
 20
17804.857276999981
 30
0.0
 11
11782.840837135171
 21
18107.592548000001
 31
0.0
  0
LINE
  5
9290
  8
2-0
  6
DASHED3
 62
     6
 10
13634.839873135181
 20
16845.969217440921
 30
0.0
 11
13634.839873135181
 21
20002.593603999991
 31
0.0
  0
LINE
  5
9291
  8
2-0
  6
DASHED3
 62
     6
 10
13592.34059913517
 20
16867.438326875392
 30
0.0
 11
13592.34059913517
 21
20002.593603999991
 31
0.0
  0
LINE
  5
9292
  8
2-0
  6
DASHED3
 62
     6
 10
13182.59108713519
 20
17072.593762999972
 30
0.0
 11
13592.34059913517
 21
17072.593762999972
 31
0.0
  0
LINE
  5
9293
  8
2-0
  6
DASHED3
 62
     6
 10
13338.44848313518
 20
16993.593155999981
 30
0.0
 11
13592.34059913517
 21
16993.593155999981
 31
0.0
  0
LINE
  5
9294
  8
2-0
  6
DASHED3
 62
     6
 10
8414.8403351351863
 20
20002.593603999991
 30
0.0
 11
13634.839873135181
 21
20002.593603999991
 31
0.0
  0
LINE
  5
9295
  8
0-6
  6
CONTINUOUS
 62
     6
 10
8457.3405991351774
 20
19735.659482999999
 30
0.0
 11
8457.3405991351774
 21
20002.593603999991
 31
0.0
  0
LINE
  5
9296
  8
0-6
  6
CONTINUOUS
 62
     6
 10
8414.8403351351863
 20
19757.200604000001
 30
0.0
 11
8414.8403351351863
 21
20002.593603999991
 31
0.0
  0
LINE
  5
9297
  8
2-0
  6
DASHED3
 62
     6
 10
8457.3405991351774
 20
19917.59307599999
 30
0.0
 11
13592.34059913517
 21
19917.59307599999
 31
0.0
  0
LINE
  5
9298
  8
0-5
  6
CONTINUOUS
 62
     6
 10
10569.695844135191
 20
19890.420225000002
 30
0.0
 11
10517.91856613518
 21
19903.215832999991
 31
0.0
  0
LINE
  5
9299
  8
0-5
  6
CONTINUOUS
 62
     6
 10
10569.695844135191
 20
19890.420225000002
 30
0.0
 11
10505.419885135179
 21
19741.491143999989
 31
0.0
  0
LINE
  5
929A
  8
0-5
  6
CONTINUOUS
 62
     6
 10
10517.91856613518
 20
19903.215832999991
 30
0.0
 11
10569.695844135191
 21
19890.420225000002
 31
0.0
  0
LINE
  5
929B
  8
0-5
  6
CONTINUOUS
 62
     6
 10
10505.419885135179
 20
19741.491143999989
 30
0.0
 11
10517.91856613518
 21
19903.215832999991
 31
0.0
  0
LINE
  5
929C
  8
0-5
  6
CONTINUOUS
 62
     6
 10
10505.419885135179
 20
19741.491143999989
 30
0.0
 11
10569.695844135191
 21
19890.420225000002
 31
0.0
  0
LINE
  5
929D
  8
0-5
  6
CONTINUOUS
 62
     6
 10
10517.91856613518
 20
19903.215832999991
 30
0.0
 11
10505.419885135179
 21
19741.491143999989
 31
0.0
  0
LINE
  5
929E
  8
0-5
  6
CONTINUOUS
 62
     6
 10
9642.3695791351984
 20
13953.172296999979
 30
0.0
 11
9594.0742751351863
 21
13975.79720499999
 31
0.0
  0
LINE
  5
929F
  8
0-5
  6
CONTINUOUS
 62
     6
 10
9642.3695791351984
 20
13953.172296999979
 30
0.0
 11
9550.3486891351913
 21
13819.595372999969
 31
0.0
  0
LINE
  5
92A0
  8
0-5
  6
CONTINUOUS
 62
     6
 10
9594.0742751351863
 20
13975.79720499999
 30
0.0
 11
9642.3695791351984
 21
13953.172296999979
 31
0.0
  0
LINE
  5
92A1
  8
0-5
  6
CONTINUOUS
 62
     6
 10
9550.3486891351913
 20
13819.595372999969
 30
0.0
 11
9594.0742751351863
 21
13975.79720499999
 31
0.0
  0
LINE
  5
92A2
  8
0-5
  6
CONTINUOUS
 62
     6
 10
9550.3486891351913
 20
13819.595372999969
 30
0.0
 11
9642.3695791351984
 21
13953.172296999979
 31
0.0
  0
LINE
  5
92A3
  8
0-5
  6
CONTINUOUS
 62
     6
 10
9594.0742751351863
 20
13975.79720499999
 30
0.0
 11
9550.3486891351913
 21
13819.595372999969
 31
0.0
  0
LINE
  5
92A4
  8
0-5
  6
CONTINUOUS
 62
     6
 10
8254.504279135188
 20
14165.848803999979
 30
0.0
 11
8305.3907731351792
 21
14149.884976999991
 31
0.0
  0
LINE
  5
92A5
  8
0-5
  6
CONTINUOUS
 62
     6
 10
8254.504279135188
 20
14165.848803999979
 30
0.0
 11
8327.8404931351815
 21
14310.53082799999
 31
0.0
  0
LINE
  5
92A6
  8
0-5
  6
CONTINUOUS
 62
     6
 10
8305.3907731351792
 20
14149.884976999991
 30
0.0
 11
8254.504279135188
 21
14165.848803999979
 31
0.0
  0
LINE
  5
92A7
  8
0-5
  6
CONTINUOUS
 62
     6
 10
8327.8404931351815
 20
14310.53082799999
 30
0.0
 11
8305.3907731351792
 21
14149.884976999991
 31
0.0
  0
LINE
  5
92A8
  8
0-5
  6
CONTINUOUS
 62
     6
 10
8327.8404931351815
 20
14310.53082799999
 30
0.0
 11
8254.504279135188
 21
14165.848803999979
 31
0.0
  0
LINE
  5
92A9
  8
0-5
  6
CONTINUOUS
 62
     6
 10
8305.3907731351792
 20
14149.884976999991
 30
0.0
 11
8327.8404931351815
 21
14310.53082799999
 31
0.0
  0
LINE
  5
92AA
  8
0-5
  6
CONTINUOUS
 62
     6
 10
10179.77522213518
 20
13427.20629199999
 30
0.0
 11
10225.265549135191
 21
13455.04723099998
 31
0.0
  0
LINE
  5
92AB
  8
0-5
  6
CONTINUOUS
 62
     6
 10
10179.77522213518
 20
13427.20629199999
 30
0.0
 11
10118.996084135169
 21
13577.59427799998
 31
0.0
  0
LINE
  5
92AC
  8
0-5
  6
CONTINUOUS
 62
     6
 10
10225.265549135191
 20
13455.04723099998
 30
0.0
 11
10179.77522213518
 21
13427.20629199999
 31
0.0
  0
LINE
  5
92AD
  8
0-5
  6
CONTINUOUS
 62
     6
 10
10118.996084135169
 20
13577.59427799998
 30
0.0
 11
10225.265549135191
 21
13455.04723099998
 31
0.0
  0
LINE
  5
92AE
  8
0-5
  6
CONTINUOUS
 62
     6
 10
10118.996084135169
 20
13577.59427799998
 30
0.0
 11
10179.77522213518
 21
13427.20629199999
 31
0.0
  0
LINE
  5
92AF
  8
0-5
  6
CONTINUOUS
 62
     6
 10
10225.265549135191
 20
13455.04723099998
 30
0.0
 11
10118.996084135169
 21
13577.59427799998
 31
0.0
  0
LINE
  5
92B0
  8
0-5
  6
CONTINUOUS
 62
     6
 10
8498.4947901351843
 20
19046.167426999978
 30
0.0
 11
8547.1582851351868
 21
19067.999536999982
 31
0.0
  0
LINE
  5
92B1
  8
0-5
  6
CONTINUOUS
 62
     6
 10
8498.4947901351843
 20
19046.167426999978
 30
0.0
 11
8457.3405991351774
 21
19203.06802899998
 31
0.0
  0
LINE
  5
92B2
  8
0-5
  6
CONTINUOUS
 62
     6
 10
8547.1582851351868
 20
19067.999536999982
 30
0.0
 11
8498.4947901351843
 21
19046.167426999978
 31
0.0
  0
LINE
  5
92B3
  8
0-5
  6
CONTINUOUS
 62
     6
 10
8457.3405991351774
 20
19203.06802899998
 30
0.0
 11
8547.1582851351868
 21
19067.999536999982
 31
0.0
  0
LINE
  5
92B4
  8
0-5
  6
CONTINUOUS
 62
     6
 10
8457.3405991351774
 20
19203.06802899998
 30
0.0
 11
8498.4947901351843
 21
19046.167426999978
 31
0.0
  0
LINE
  5
92B5
  8
0-5
  6
CONTINUOUS
 62
     6
 10
8547.1582851351868
 20
19067.999536999982
 30
0.0
 11
8457.3405991351774
 21
19203.06802899998
 31
0.0
  0
LINE
  5
92B6
  8
0-5
  6
CONTINUOUS
 62
     6
 10
8522.8260431351791
 20
19057.082492000001
 30
0.0
 11
8621.8692751351864
 21
18836.292927999999
 31
0.0
  0
LINE
  5
92B7
  8
0-5
  6
CONTINUOUS
 62
     6
 10
8279.9470311351852
 20
14157.86738499998
 30
0.0
 11
7721.4421941351839
 21
12377.59526799999
 31
0.0
  0
LINE
  5
92B8
  8
0-5
  6
CONTINUOUS
 62
     6
 10
6641.4435801351801
 20
12377.59526799999
 30
0.0
 11
7721.4421941351839
 21
12377.59526799999
 31
0.0
  0
LINE
  5
92B9
  8
0-5
  6
CONTINUOUS
 62
     6
 10
10202.52088013518
 20
13441.126266999991
 30
0.0
 11
10608.634954135179
 21
12777.594607999979
 31
0.0
  0
LINE
  5
92BA
  8
0-5
  6
CONTINUOUS
 62
     6
 10
10608.634954135179
 20
12777.594607999979
 30
0.0
 11
11471.214134135191
 21
12777.594607999979
 31
0.0
  0
LINE
  5
92BB
  8
0-5
  6
CONTINUOUS
 62
     6
 10
9701.1088241351881
 20
14141.423523999991
 30
0.0
 11
10501.10849413518
 21
14141.423523999991
 31
0.0
  0
LINE
  5
92BC
  8
0-5
  6
CONTINUOUS
 62
     6
 10
9618.221432135193
 20
13964.48425599998
 30
0.0
 11
9701.1088241351881
 21
14141.423523999991
 31
0.0
  0
LINE
  5
92BD
  8
0-5
  6
CONTINUOUS
 62
     6
 10
8621.8692751351864
 20
18836.292927999999
 30
0.0
 11
9152.3674681351913
 21
18836.292927999999
 31
0.0
  0
LINE
  5
92BE
  8
0-5
  6
CONTINUOUS
 62
     6
 10
10687.70781313517
 20
20409.095663
 30
0.0
 11
11205.397451135181
 21
20409.095663
 31
0.0
  0
LINE
  5
92BF
  8
0-5
  6
CONTINUOUS
 62
     6
 10
10543.80671013517
 20
19896.820007999992
 30
0.0
 11
10687.70781313517
 21
20409.095663
 31
0.0
  0
LINE
  5
92C0
  8
0-1
  6
CONTINUOUS
 62
     3
 10
11725.84059913517
 20
13733.595187999979
 30
0.0
 11
11725.84059913517
 21
13577.59427799998
 31
0.0
  0
LINE
  5
92C1
  8
0-1
  6
CONTINUOUS
 62
     3
 10
12815.34090313518
 20
17259.95071435711
 30
0.0
 11
12815.34090313518
 21
20121.091544999981
 31
0.0
  0
LINE
  5
92C2
  8
0-1
  6
CONTINUOUS
 62
     3
 10
12778.34073113518
 20
17278.64187462876
 30
0.0
 11
12778.34073113518
 21
20121.091544999981
 31
0.0
  0
LINE
  5
92C3
  8
0-1
  6
CONTINUOUS
 62
     3
 10
12615.33925313518
 20
17360.984376977471
 30
0.0
 11
12615.33925313518
 21
20121.091544999981
 31
0.0
  0
LINE
  5
92C4
  8
0-1
  6
CONTINUOUS
 62
     3
 10
12578.34007113519
 20
17379.675037136611
 30
0.0
 11
12578.340071135181
 21
20121.091544999981
 31
0.0
  0
LINE
  5
92C5
  8
0-1
  6
CONTINUOUS
 62
     3
 10
12415.34156213518
 20
17462.016039652972
 30
0.0
 11
12415.341562135191
 21
20121.091544999981
 31
0.0
  0
LINE
  5
92C6
  8
0-1
  6
CONTINUOUS
 62
     3
 10
12378.340401135179
 20
17480.707699531951
 30
0.0
 11
12378.340401135179
 21
20121.091544999981
 31
0.0
  0
LINE
  5
92C7
  8
0-1
  6
CONTINUOUS
 62
     3
 10
12215.34090313518
 20
17563.04920165566
 30
0.0
 11
12215.34090313518
 21
20121.091544999981
 31
0.0
  0
LINE
  5
92C8
  8
0-1
  6
CONTINUOUS
 62
     3
 10
12178.34073113518
 20
17581.740361927299
 30
0.0
 11
12178.34073113518
 21
20121.091544999981
 31
0.0
  0
LINE
  5
92C9
  8
0-1
  6
CONTINUOUS
 62
     3
 10
13015.34156213518
 20
17158.917552354422
 30
0.0
 11
13015.341562135191
 21
20121.091544999981
 31
0.0
  0
LINE
  5
92CA
  8
0-1
  6
CONTINUOUS
 62
     3
 10
13052.339755135181
 20
17140.227391802611
 30
0.0
 11
13052.33975513519
 21
20121.091544999981
 31
0.0
  0
LINE
  5
92CB
  8
0-1
  6
CONTINUOUS
 62
     3
 10
11795.840335135181
 20
17038.595530999992
 30
0.0
 11
12131.272526092
 21
17605.517531508031
 31
0.0
  0
LINE
  5
92CC
  8
0-1
  6
CONTINUOUS
 62
     3
 10
13522.340863135179
 20
13770.09553099999
 30
0.0
 11
11795.840335135181
 21
17038.595530999992
 31
0.0
  0
LINE
  5
92CD
  8
0-1
  6
CONTINUOUS
 62
     3
 10
11795.840335135181
 20
13770.09553099999
 30
0.0
 11
13467.68846096211
 21
16930.40811774004
 31
0.0
  0
LINE
  5
92CE
  8
0-1
  6
CONTINUOUS
 62
     3
 10
10376.35066345674
 20
18763.19519409327
 30
0.0
 11
8527.3413251351867
 21
17038.595530999992
 31
0.0
  0
LINE
  5
92CF
  8
0-1
  6
CONTINUOUS
 62
     3
 10
11655.84086313519
 20
17038.595530999992
 30
0.0
 11
9129.2574726241564
 21
19395.17901262144
 31
0.0
  0
LINE
  5
92D0
  8
0-1
  6
CONTINUOUS
 62
     3
 10
11655.84086313519
 20
13770.09553099999
 30
0.0
 11
8527.3413251351867
 21
17038.595530999992
 31
0.0
  0
LINE
  5
92D1
  8
0-1
  6
CONTINUOUS
 62
     3
 10
8527.3413251351867
 20
13770.09553099999
 30
0.0
 11
11655.84086313519
 21
17038.595530999992
 31
0.0
  0
LINE
  5
92D2
  8
0-1
  6
CONTINUOUS
 62
     3
 10
11725.84059913517
 20
17072.593762999972
 30
0.0
 11
11725.84059913517
 21
16993.593155999981
 31
0.0
  0
LINE
  5
92D3
  8
0-1
  6
CONTINUOUS
 62
     3
 10
11725.84059913517
 20
13812.59579499999
 30
0.0
 11
11725.84059913517
 21
13722.595992999981
 31
0.0
  0
LINE
  5
92D4
  8
0-1
  6
CONTINUOUS
 62
     3
 10
11782.840837135171
 20
13812.59579499999
 30
0.0
 11
11782.840837135171
 21
16993.593155999981
 31
0.0
  0
LINE
  5
92D5
  8
0-1
  6
CONTINUOUS
 62
     3
 10
11668.84036213519
 20
13812.59579499999
 30
0.0
 11
11668.84036213519
 21
16993.593155999981
 31
0.0
  0
LINE
  5
92D6
  8
0-1
  6
CONTINUOUS
 62
     3
 10
11782.840837135171
 20
17072.593762999972
 30
0.0
 11
11782.840837135171
 21
17804.857276999981
 31
0.0
  0
LINE
  5
92D7
  8
0-1
  6
CONTINUOUS
 62
     3
 10
11668.84036213519
 20
17072.593762999972
 30
0.0
 11
11668.84036213519
 21
18083.782898999991
 31
0.0
  0
LINE
  5
92D8
  8
0-1
  6
CONTINUOUS
 62
     3
 10
11725.84059913517
 20
17072.593762999972
 30
0.0
 11
11725.84059913517
 21
17949.318160999999
 31
0.0
  0
LINE
  5
92D9
  8
0-1
  6
CONTINUOUS
 62
     3
 10
11725.84059913517
 20
17072.593762999972
 30
0.0
 11
11725.84059913517
 21
17589.32135499996
 31
0.0
  0
LINE
  5
92DA
  8
0-1
  6
CONTINUOUS
 62
     3
 10
11725.84059913517
 20
13812.59579499999
 30
0.0
 11
11725.84059913517
 21
16993.593155999981
 31
0.0
  0
LINE
  5
92DB
  8
0-1
  6
CONTINUOUS
 62
     3
 10
11725.84059913517
 20
13733.595187999979
 30
0.0
 11
11725.84059913517
 21
13722.595992999981
 31
0.0
  0
LINE
  5
92DC
  8
0-1
  6
CONTINUOUS
 62
     3
 10
11725.84059913517
 20
13812.59579499999
 30
0.0
 11
11725.84059913517
 21
15184.594474999991
 31
0.0
  0
LINE
  5
92DD
  8
0-1
  6
CONTINUOUS
 62
     3
 10
13659.841232135161
 20
16834.8549197219
 30
0.0
 11
13659.841232135161
 21
20161.592495999979
 31
0.0
  0
LINE
  5
92DE
  8
0-1
  6
CONTINUOUS
 62
     3
 10
13659.841232135161
 20
20161.592495999979
 30
0.0
 11
13677.84099513518
 21
20161.592495999979
 31
0.0
  0
LINE
  5
92DF
  8
0-1
  6
CONTINUOUS
 62
     3
 10
13677.84099513518
 20
20174.093154999999
 30
0.0
 11
13677.84099513518
 21
20139.093286999989
 31
0.0
  0
LINE
  5
92E0
  8
0-1
  6
CONTINUOUS
 62
     3
 10
13604.341470135179
 20
20144.093551000002
 30
0.0
 11
13604.341470135179
 21
20174.093154999999
 31
0.0
  0
LINE
  5
92E1
  8
0-1
  6
CONTINUOUS
 62
     3
 10
13659.841232135161
 20
20139.093286999989
 30
0.0
 11
13609.341734135171
 21
20139.093286999989
 31
0.0
  0
LINE
  5
92E2
  8
0-1
  6
CONTINUOUS
 62
     3
 10
13609.341734135171
 20
20179.095398999991
 30
0.0
 11
13672.84073113516
 21
20179.095398999991
 31
0.0
  0
LINE
  5
92E3
  8
0-1
  6
CONTINUOUS
 62
     3
 10
8389.8419451351783
 20
19768.353210999991
 30
0.0
 11
8389.8419451351783
 21
20161.592495999979
 31
0.0
  0
LINE
  5
92E4
  8
0-1
  6
CONTINUOUS
 62
     3
 10
8445.339728135179
 20
20144.093551000002
 30
0.0
 11
8445.339728135179
 21
20174.093154999999
 31
0.0
  0
LINE
  5
92E5
  8
0-1
  6
CONTINUOUS
 62
     3
 10
8371.8411931351875
 20
20174.093154999999
 30
0.0
 11
8371.8411931351875
 21
20139.093286999989
 31
0.0
  0
LINE
  5
92E6
  8
0-1
  6
CONTINUOUS
 62
     3
 10
8440.3404541351774
 20
20179.095398999991
 30
0.0
 11
8376.8404671351873
 21
20179.095398999991
 31
0.0
  0
LINE
  5
92E7
  8
0-1
  6
CONTINUOUS
 62
     3
 10
8389.8419451351783
 20
20161.592495999979
 30
0.0
 11
8371.8411931351875
 21
20161.592495999979
 31
0.0
  0
LINE
  5
92E8
  8
0-1
  6
CONTINUOUS
 62
     3
 10
8389.8419451351783
 20
20139.093286999989
 30
0.0
 11
8440.3404541351774
 21
20139.093286999989
 31
0.0
  0
LINE
  5
92E9
  8
0-1
  6
CONTINUOUS
 62
     3
 10
11343.638121135171
 20
18273.00727099998
 30
0.0
 11
8223.6455631351855
 21
19854.111894999991
 31
0.0
  0
LINE
  5
92EA
  8
0-1
  6
CONTINUOUS
 62
     3
 10
13542.339978135171
 20
13609.59517499998
 30
0.0
 11
13542.339978135171
 21
20121.091544999981
 31
0.0
  0
LINE
  5
92EB
  8
0-1
  6
CONTINUOUS
 62
     3
 10
13677.84099513518
 20
13577.59427799998
 30
0.0
 11
13677.84099513518
 21
20169.092892000001
 31
0.0
  0
LINE
  5
92EC
  8
0-1
  6
CONTINUOUS
 62
     3
 10
13592.34059913517
 20
13733.595187999979
 30
0.0
 11
13592.34059913517
 21
16867.438326875392
 31
0.0
  0
LINE
  5
92ED
  8
0-1
  6
CONTINUOUS
 62
     3
 10
13634.839873135181
 20
13733.595187999979
 30
0.0
 11
13634.839873135181
 21
16845.969217440921
 31
0.0
  0
LINE
  5
92EE
  8
0-1
  6
CONTINUOUS
 62
     3
 10
11778.340401135179
 20
17815.473434999982
 30
0.0
 11
11778.340401135179
 21
20121.091544999981
 31
0.0
  0
LINE
  5
92EF
  8
0-1
  6
CONTINUOUS
 62
     3
 10
11815.34156213518
 20
17728.188541999982
 30
0.0
 11
11815.34156213518
 21
20121.091544999981
 31
0.0
  0
LINE
  5
92F0
  8
0-1
  6
CONTINUOUS
 62
     3
 10
11978.341061135179
 20
17471.183685999978
 30
0.0
 11
11978.341061135179
 21
20121.091544999981
 31
0.0
  0
LINE
  5
92F1
  8
0-1
  6
CONTINUOUS
 62
     3
 10
12015.339253135169
 20
17514.560876999982
 30
0.0
 11
12015.339253135169
 21
20121.091544999981
 31
0.0
  0
LINE
  5
92F2
  8
0-1
  6
CONTINUOUS
 62
     3
 10
10015.34057313519
 20
18951.281182999981
 30
0.0
 11
10015.34057313519
 21
20121.091544999981
 31
0.0
  0
LINE
  5
92F3
  8
0-1
  6
CONTINUOUS
 62
     3
 10
9978.3404011351831
 20
18970.033163
 30
0.0
 11
9978.3404011351831
 21
20121.091544999981
 31
0.0
  0
LINE
  5
92F4
  8
0-1
  6
CONTINUOUS
 62
     3
 10
9815.3409031351912
 20
19052.65232999999
 30
0.0
 11
9815.3409031351912
 21
20121.091544999981
 31
0.0
  0
LINE
  5
92F5
  8
0-1
  6
CONTINUOUS
 62
     3
 10
11615.339913135191
 20
18204.98903299998
 30
0.0
 11
11615.339913135191
 21
20121.091544999981
 31
0.0
  0
LINE
  5
92F6
  8
0-1
  6
CONTINUOUS
 62
     3
 10
11578.34172113519
 20
18292.269965999989
 30
0.0
 11
11578.34172113519
 21
20121.091544999981
 31
0.0
  0
LINE
  5
92F7
  8
0-1
  6
CONTINUOUS
 62
     3
 10
11415.340243135181
 20
18357.073465999991
 30
0.0
 11
11415.340243135181
 21
20121.091544999981
 31
0.0
  0
LINE
  5
92F8
  8
0-1
  6
CONTINUOUS
 62
     3
 10
11378.340071135181
 20
18313.69231599999
 30
0.0
 11
11378.340071135181
 21
20121.091544999981
 31
0.0
  0
LINE
  5
92F9
  8
0-1
  6
CONTINUOUS
 62
     3
 10
11215.341562135191
 20
18338.036434999991
 30
0.0
 11
11215.341562135191
 21
20121.091544999981
 31
0.0
  0
LINE
  5
92FA
  8
0-1
  6
CONTINUOUS
 62
     3
 10
11178.34040113519
 20
18356.79237399995
 30
0.0
 11
11178.34040113519
 21
20121.091544999981
 31
0.0
  0
LINE
  5
92FB
  8
0-1
  6
CONTINUOUS
 62
     3
 10
11015.339913135191
 20
18439.41154099999
 30
0.0
 11
11015.339913135191
 21
20121.091544999981
 31
0.0
  0
LINE
  5
92FC
  8
0-1
  6
CONTINUOUS
 62
     3
 10
10978.341721135181
 20
18458.167479999978
 30
0.0
 11
10978.341721135181
 21
20121.091544999981
 31
0.0
  0
LINE
  5
92FD
  8
0-1
  6
CONTINUOUS
 62
     3
 10
10815.34024313517
 20
18540.78664699999
 30
0.0
 11
10815.34024313517
 21
20121.091544999981
 31
0.0
  0
LINE
  5
92FE
  8
0-1
  6
CONTINUOUS
 62
     3
 10
10778.34007113517
 20
18559.53862599998
 30
0.0
 11
10778.34007113517
 21
20121.091544999981
 31
0.0
  0
LINE
  5
92FF
  8
0-1
  6
CONTINUOUS
 62
     3
 10
10615.34057313519
 20
18642.157792999991
 30
0.0
 11
10615.34057313519
 21
20121.091544999981
 31
0.0
  0
LINE
  5
9300
  8
0-1
  6
CONTINUOUS
 62
     3
 10
10578.340401135179
 20
18665.911805
 30
0.0
 11
10578.340401135179
 21
20121.091544999981
 31
0.0
  0
LINE
  5
9301
  8
0-1
  6
CONTINUOUS
 62
     3
 10
10415.339913135171
 20
18748.530972
 30
0.0
 11
10415.339913135171
 21
20121.091544999981
 31
0.0
  0
LINE
  5
9302
  8
0-1
  6
CONTINUOUS
 62
     3
 10
10378.34073113518
 20
18767.286910999999
 30
0.0
 11
10378.34073113518
 21
20121.091544999981
 31
0.0
  0
LINE
  5
9303
  8
0-1
  6
CONTINUOUS
 62
     3
 10
10215.340243135181
 20
18849.906078
 30
0.0
 11
10215.340243135181
 21
20121.091544999981
 31
0.0
  0
LINE
  5
9304
  8
0-1
  6
CONTINUOUS
 62
     3
 10
10178.34007113517
 20
18868.662015999998
 30
0.0
 11
10178.34007113517
 21
20121.091544999981
 31
0.0
  0
LINE
  5
9305
  8
0-1
  6
CONTINUOUS
 62
     3
 10
9778.3407311351912
 20
19071.408267999999
 30
0.0
 11
9778.3407311351912
 21
20121.091544999981
 31
0.0
  0
LINE
  5
9306
  8
0-1
  6
CONTINUOUS
 62
     3
 10
9615.3392531351838
 20
19154.027434999989
 30
0.0
 11
9615.3392531351838
 21
20121.091544999981
 31
0.0
  0
LINE
  5
9307
  8
0-1
  6
CONTINUOUS
 62
     3
 10
9578.3410611351846
 20
19172.783373999991
 30
0.0
 11
9578.3410611351846
 21
20121.091544999981
 31
0.0
  0
LINE
  5
9308
  8
0-1
  6
CONTINUOUS
 62
     3
 10
8414.8403351351863
 20
13733.595187999979
 30
0.0
 11
8414.8403351351863
 21
19757.200604000001
 31
0.0
  0
LINE
  5
9309
  8
0-1
  6
CONTINUOUS
 62
     3
 10
8457.3405991351774
 20
13733.595187999979
 30
0.0
 11
8457.3405991351774
 21
19735.659482999999
 31
0.0
  0
LINE
  5
930A
  8
0-1
  6
CONTINUOUS
 62
     3
 10
14034.12460088385
 20
16644.264889137521
 30
0.0
 11
12104.46905713518
 21
17619.057682999992
 31
0.0
  0
LINE
  5
930B
  8
0-1
  6
CONTINUOUS
 62
     3
 10
8371.8411931351875
 20
13609.59517499998
 30
0.0
 11
13677.84099513518
 21
13609.59517499998
 31
0.0
  0
LINE
  5
930C
  8
0-1
  6
CONTINUOUS
 62
     3
 10
8371.8411931351875
 20
13577.59427799998
 30
0.0
 11
13677.84099513518
 21
13577.59427799998
 31
0.0
  0
LINE
  5
930D
  8
0-1
  6
CONTINUOUS
 62
     3
 10
8457.3405991351774
 20
13812.59579499999
 30
0.0
 11
13592.34059913517
 21
13812.59579499999
 31
0.0
  0
LINE
  5
930E
  8
0-1
  6
CONTINUOUS
 62
     3
 10
8414.8403351351863
 20
13733.595187999979
 30
0.0
 11
13634.839873135181
 21
13733.595187999979
 31
0.0
  0
LINE
  5
930F
  8
0-1
  6
CONTINUOUS
 62
     3
 10
8457.3405991351774
 20
16993.593155999981
 30
0.0
 11
13338.44848313518
 21
16993.593155999981
 31
0.0
  0
LINE
  5
9310
  8
0-1
  6
CONTINUOUS
 62
     3
 10
11942.23167313518
 20
17428.849701999949
 30
0.0
 11
11505.875505135191
 21
18463.215251999969
 31
0.0
  0
LINE
  5
9311
  8
0-1
  6
CONTINUOUS
 62
     3
 10
11942.23167313518
 20
17428.849701999949
 30
0.0
 11
12104.46905713518
 21
17619.057682999992
 31
0.0
  0
LINE
  5
9312
  8
0-1
  6
CONTINUOUS
 62
     3
 10
11343.638121135171
 20
18273.00727099998
 30
0.0
 11
11505.875505135191
 21
18463.215251999969
 31
0.0
  0
LINE
  5
9313
  8
0-1
  6
CONTINUOUS
 62
     3
 10
9415.3405731351868
 20
19255.402540999989
 30
0.0
 11
9415.3405731351868
 21
20121.091544999981
 31
0.0
  0
LINE
  5
9314
  8
0-1
  6
CONTINUOUS
 62
     3
 10
9378.3394111351881
 20
19274.154520999989
 30
0.0
 11
9378.3394111351881
 21
20121.091544999981
 31
0.0
  0
LINE
  5
9315
  8
0-1
  6
CONTINUOUS
 62
     3
 10
9215.3409031351875
 20
19356.773687999979
 30
0.0
 11
9215.3409031351875
 21
20121.091544999981
 31
0.0
  0
LINE
  5
9316
  8
0-1
  6
CONTINUOUS
 62
     3
 10
9178.3407311351912
 20
19375.527646999992
 30
0.0
 11
9178.3407311351912
 21
20121.091544999981
 31
0.0
  0
LINE
  5
9317
  8
0-1
  6
CONTINUOUS
 62
     3
 10
8802.8398331351782
 20
19560.535433000001
 30
0.0
 11
8802.8398331351782
 21
20121.091544999981
 31
0.0
  0
LINE
  5
9318
  8
0-1
  6
CONTINUOUS
 62
     3
 10
8765.8416411351827
 20
19579.291370999999
 30
0.0
 11
8765.8416411351827
 21
20121.091544999981
 31
0.0
  0
LINE
  5
9319
  8
0-1
  6
CONTINUOUS
 62
     3
 10
8602.8411531351776
 20
19661.910538
 30
0.0
 11
8602.8411531351776
 21
20121.091544999981
 31
0.0
  0
LINE
  5
931A
  8
0-1
  6
CONTINUOUS
 62
     3
 10
8565.8399921351811
 20
19680.66251799999
 30
0.0
 11
8565.8399921351811
 21
20121.091544999981
 31
0.0
  0
LINE
  5
931B
  8
0-1
  6
CONTINUOUS
 62
     3
 10
8371.8411931351875
 20
13577.59427799998
 30
0.0
 11
8371.8411931351875
 21
20169.092892000001
 31
0.0
  0
LINE
  5
931C
  8
0-1
  6
CONTINUOUS
 62
     3
 10
8507.3412191351836
 20
13609.59517499998
 30
0.0
 11
8507.3412191351836
 21
20121.091544999981
 31
0.0
  0
LINE
  5
931D
  8
0-1
  6
CONTINUOUS
 62
     3
 10
8457.3405991351774
 20
17072.593762999972
 30
0.0
 11
13182.59108713519
 21
17072.593762999972
 31
0.0
  0
LINE
  5
931E
  8
0-1
  6
CONTINUOUS
 62
     3
 10
8978.3410611351865
 20
19476.902752000002
 30
0.0
 11
8978.3410611351865
 21
20121.091544999981
 31
0.0
  0
LINE
  5
931F
  8
0-1
  6
CONTINUOUS
 62
     3
 10
9015.3392531351838
 20
19458.146814
 30
0.0
 11
9015.3392531351838
 21
20121.091544999981
 31
0.0
  0
LINE
  5
9320
  8
0-6
  6
CONTINUOUS
 62
     6
 10
14564.642514635179
 20
21054.75919700001
 30
0.0
 11
16239.64086563518
 21
21054.75919700001
 31
0.0
  0
LINE
  5
9321
  8
0-6
  6
CONTINUOUS
 62
     6
 10
13785.748471635179
 20
20294.414233
 30
0.0
 11
14564.642514635179
 21
21054.75919700001
 31
0.0
  0
LINE
  5
9322
  8
0-6
  6
CONTINUOUS
 62
     6
 10
13766.52833663517
 20
20312.898977000001
 30
0.0
 11
13674.84099463518
 21
20179.093419000001
 31
0.0
  0
LINE
  5
9323
  8
0-6
  6
CONTINUOUS
 62
     6
 10
13674.84099463518
 20
20179.093419000001
 30
0.0
 11
13804.96761763518
 21
20275.931467999999
 31
0.0
  0
LINE
  5
9324
  8
0-6
  6
CONTINUOUS
 62
     6
 10
13674.84099463518
 20
20179.093419000001
 30
0.0
 11
13766.52833663517
 21
20312.898977000001
 31
0.0
  0
LINE
  5
9325
  8
0-6
  6
CONTINUOUS
 62
     6
 10
13766.52833663517
 20
20312.898977000001
 30
0.0
 11
13804.96761763518
 21
20275.931467999999
 31
0.0
  0
LINE
  5
9326
  8
0-6
  6
CONTINUOUS
 62
     6
 10
13804.96761763518
 20
20275.931467999999
 30
0.0
 11
13674.84099463518
 21
20179.093419000001
 31
0.0
  0
LINE
  5
9327
  8
0-6
  6
CONTINUOUS
 62
     6
 10
13804.96761763518
 20
20275.931467999999
 30
0.0
 11
13766.52833663517
 21
20312.898977000001
 31
0.0
  0
TEXT
  5
9328
  8
0-6
  6
CONTINUOUS
 62
     7
 10
14644.64178963517
 20
21134.757481000001
 30
0.0
 40
160.0
  1
鼻隠しコーナー後
 72
     4
 11
15391.30845630184
 21
21214.757481000001
 31
0.0
  0
LINE
  5
9329
  8
0-6
  6
CONTINUOUS
 62
     6
 10
9049.9648024521157
 20
20409.091703999999
 30
0.0
 11
9849.9654624521118
 21
20409.091703999999
 31
0.0
  0
LINE
  5
932A
  8
0-6
  6
CONTINUOUS
 62
     6
 10
10143.892299452111
 20
20002.593603999991
 30
0.0
 11
9849.9654624521118
 21
20409.091703999999
 31
0.0
  0
LINE
  5
932B
  8
0-6
  6
CONTINUOUS
 62
     6
 10
10037.196247452101
 20
20124.769490999988
 30
0.0
 11
10143.892299452111
 21
20002.593603999991
 31
0.0
  0
LINE
  5
932C
  8
0-6
  6
CONTINUOUS
 62
     6
 10
10143.892299452111
 20
20002.593603999991
 30
0.0
 11
10082.588588452099
 21
20152.771761000011
 31
0.0
  0
LINE
  5
932D
  8
0-6
  6
CONTINUOUS
 62
     6
 10
10143.892299452111
 20
20002.593603999991
 30
0.0
 11
10037.196247452101
 21
20124.769490999988
 31
0.0
  0
LINE
  5
932E
  8
0-6
  6
CONTINUOUS
 62
     6
 10
10037.196247452101
 20
20124.769490999988
 30
0.0
 11
10082.588588452099
 21
20152.771761000011
 31
0.0
  0
LINE
  5
932F
  8
0-6
  6
CONTINUOUS
 62
     6
 10
10082.588588452099
 20
20152.771761000011
 30
0.0
 11
10143.892299452111
 21
20002.593603999991
 31
0.0
  0
LINE
  5
9330
  8
0-6
  6
CONTINUOUS
 62
     6
 10
10082.588588452099
 20
20152.771761000011
 30
0.0
 11
10037.196247452101
 21
20124.769490999988
 31
0.0
  0
TEXT
  5
9331
  8
0-6
  6
CONTINUOUS
 62
     7
 10
9129.9650664521123
 20
20489.09196799999
 30
0.0
 40
160.0
  1
桁（後）
 72
     4
 11
9449.9650664521123
 21
20569.09196799999
 31
0.0
  0
LINE
  5
9332
  8
0-6
  6
CONTINUOUS
 62
     6
 10
10581.37076047554
 20
17226.422151999981
 30
0.0
 11
10520.22046247553
 21
17388.190389999982
 31
0.0
  0
LINE
  5
9333
  8
0-6
  6
CONTINUOUS
 62
     6
 10
9719.6497014755441
 20
17388.190389999982
 30
0.0
 11
10520.22046247553
 21
17388.190389999982
 31
0.0
  0
LINE
  5
9334
  8
0-6
  6
CONTINUOUS
 62
     6
 10
10607.00750547554
 20
17233.756267999979
 30
0.0
 11
10625.37347947554
 21
17072.593762999972
 31
0.0
  0
LINE
  5
9335
  8
0-6
  6
CONTINUOUS
 62
     6
 10
10625.37347947554
 20
17072.593762999972
 30
0.0
 11
10555.73203547553
 21
17219.090014999951
 31
0.0
  0
LINE
  5
9336
  8
0-6
  6
CONTINUOUS
 62
     6
 10
10625.37347947554
 20
17072.593762999972
 30
0.0
 11
10607.00750547554
 21
17233.756267999979
 31
0.0
  0
LINE
  5
9337
  8
0-6
  6
CONTINUOUS
 62
     6
 10
10607.00750547554
 20
17233.756267999979
 30
0.0
 11
10555.73203547553
 21
17219.090014999951
 31
0.0
  0
LINE
  5
9338
  8
0-6
  6
CONTINUOUS
 62
     6
 10
10555.73203547553
 20
17219.090014999951
 30
0.0
 11
10625.37347947554
 21
17072.593762999972
 31
0.0
  0
LINE
  5
9339
  8
0-6
  6
CONTINUOUS
 62
     6
 10
10555.73203547553
 20
17219.090014999951
 30
0.0
 11
10607.00750547554
 21
17233.756267999979
 31
0.0
  0
TEXT
  5
933A
  8
0-6
  6
CONTINUOUS
 62
     7
 10
9800.2200664755219
 20
17468.190653999969
 30
0.0
 40
160.0
  1
桁（中）
 72
     4
 11
10120.22006647552
 21
17548.190653999969
 31
0.0
  0
TEXT
  5
933B
  8
0-5
  6
CONTINUOUS
 62
     7
 10
9665.1092735496459
 20
16456.270524492618
 30
0.0
 40
160.0
  1
ブレース
 72
     4
 11
10027.77594021631
 21
16541.60385782595
 31
0.0
  0
LINE
  5
933C
  8
0-5
  6
CONTINUOUS
 62
     6
 10
9497.9092365496599
 20
16255.97095749262
 30
0.0
 11
9461.0446615496621
 21
16294.512184492631
 31
0.0
  0
LINE
  5
933D
  8
0-5
  6
CONTINUOUS
 62
     6
 10
9497.9092365496599
 20
16255.97095749262
 30
0.0
 11
9363.8493095496597
 21
16164.65378549263
 31
0.0
  0
LINE
  5
933E
  8
0-5
  6
CONTINUOUS
 62
     6
 10
9461.0446615496621
 20
16294.512184492631
 30
0.0
 11
9497.9092365496599
 21
16255.97095749262
 31
0.0
  0
LINE
  5
933F
  8
0-5
  6
CONTINUOUS
 62
     6
 10
9363.8493095496597
 20
16164.65378549263
 30
0.0
 11
9461.0446615496621
 21
16294.512184492631
 31
0.0
  0
LINE
  5
9340
  8
0-5
  6
CONTINUOUS
 62
     6
 10
9363.8493095496597
 20
16164.65378549263
 30
0.0
 11
9497.9092365496599
 21
16255.97095749262
 31
0.0
  0
LINE
  5
9341
  8
0-5
  6
CONTINUOUS
 62
     6
 10
9461.0446615496621
 20
16294.512184492631
 30
0.0
 11
9363.8493095496597
 21
16164.65378549263
 31
0.0
  0
LINE
  5
9342
  8
0-5
  6
CONTINUOUS
 62
     6
 10
9585.1090095496493
 20
16376.270260492631
 30
0.0
 11
10465.11092254966
 21
16376.270260492631
 31
0.0
  0
LINE
  5
9343
  8
0-5
  6
CONTINUOUS
 62
     6
 10
9479.475959549658
 20
16275.23959149262
 30
0.0
 11
9585.1090095496493
 21
16376.270260492631
 31
0.0
  0
LINE
  5
9344
  8
0-6
  6
CONTINUOUS
 62
     6
 10
11668.84036213519
 20
15230.031024144981
 30
0.0
 11
11403.65316613518
 21
15598.990523144979
 31
0.0
  0
LINE
  5
9345
  8
0-6
  6
CONTINUOUS
 62
     6
 10
11157.413921135179
 20
15598.990523144979
 30
0.0
 11
11403.65316613518
 21
15598.990523144979
 31
0.0
  0
LINE
  5
9346
  8
0-6
  6
CONTINUOUS
 62
     6
 10
11596.462235135181
 20
15375.19407014498
 30
0.0
 11
11668.84036213519
 21
15230.031024144981
 31
0.0
  0
LINE
  5
9347
  8
0-6
  6
CONTINUOUS
 62
     6
 10
11668.84036213519
 20
15230.031024144981
 30
0.0
 11
11553.294873135181
 21
15343.87214814499
 31
0.0
  0
LINE
  5
9348
  8
0-6
  6
CONTINUOUS
 62
     6
 10
11668.84036213519
 20
15230.031024144981
 30
0.0
 11
11596.462235135181
 21
15375.19407014498
 31
0.0
  0
LINE
  5
9349
  8
0-6
  6
CONTINUOUS
 62
     6
 10
11596.462235135181
 20
15375.19407014498
 30
0.0
 11
11553.294873135181
 21
15343.87214814499
 31
0.0
  0
LINE
  5
934A
  8
0-6
  6
CONTINUOUS
 62
     6
 10
11553.294873135181
 20
15343.87214814499
 30
0.0
 11
11668.84036213519
 21
15230.031024144981
 31
0.0
  0
LINE
  5
934B
  8
0-6
  6
CONTINUOUS
 62
     6
 10
11553.294873135181
 20
15343.87214814499
 30
0.0
 11
11596.462235135181
 21
15375.19407014498
 31
0.0
  0
TEXT
  5
934C
  8
0-6
  6
CONTINUOUS
 62
     7
 10
11173.65488213519
 20
15678.98880714499
 30
0.0
 40
160.0
  1
梁
 72
     4
 11
11248.32154880186
 21
15758.98880714499
 31
0.0
  0
LINE
  5
934D
  8
0-2
  6
CONTINUOUS
 62
     3
 10
8445.339728135179
 20
20169.090911999989
 30
0.0
 11
13604.341470135179
 21
20169.090911999989
 31
0.0
  0
LINE
  5
934E
  8
0-2
  6
CONTINUOUS
 62
     3
 10
8389.8419451351783
 20
20121.091544999981
 30
0.0
 11
13659.841232135161
 21
20121.091544999981
 31
0.0
  0
TEXT
  5
934F
  8
0-5
  6
CONTINUOUS
 62
     7
 10
12244.033510737159
 20
21232.124268090101
 30
0.0
 40
160.0
  1
鼻隠し後
 72
     4
 11
12606.700177403831
 21
21312.124268090101
 31
0.0
  0
LINE
  5
9350
  8
0-5
  6
CONTINUOUS
 62
     6
 10
11879.917634765279
 20
20312.64318169732
 30
0.0
 11
11829.27950879012
 21
20329.37902148423
 31
0.0
  0
LINE
  5
9351
  8
0-5
  6
CONTINUOUS
 62
     6
 10
11879.917634765279
 20
20312.64318169732
 30
0.0
 11
11804.392616919429
 21
20169.090911999989
 31
0.0
  0
LINE
  5
9352
  8
0-5
  6
CONTINUOUS
 62
     6
 10
11829.27950879012
 20
20329.37902148423
 30
0.0
 11
11879.917634765279
 21
20312.64318169732
 31
0.0
  0
LINE
  5
9353
  8
0-5
  6
CONTINUOUS
 62
     6
 10
11804.392616919429
 20
20169.090911999989
 30
0.0
 11
11829.27950879012
 21
20329.37902148423
 31
0.0
  0
LINE
  5
9354
  8
0-5
  6
CONTINUOUS
 62
     6
 10
11804.392616919429
 20
20169.090911999989
 30
0.0
 11
11879.917634765279
 21
20312.64318169732
 31
0.0
  0
LINE
  5
9355
  8
0-5
  6
CONTINUOUS
 62
     6
 10
11829.27950879012
 20
20329.37902148423
 30
0.0
 11
11804.392616919429
 21
20169.090911999989
 31
0.0
  0
LINE
  5
9356
  8
0-5
  6
CONTINUOUS
 62
     6
 10
12168.39889219567
 20
21152.127963090101
 30
0.0
 11
13070.002228011919
 21
21152.127963090101
 31
0.0
  0
LINE
  5
9357
  8
0-5
  6
CONTINUOUS
 62
     6
 10
12031.490561268191
 20
20804.504025401518
 30
0.0
 11
12168.39889219567
 21
21152.127963090101
 31
0.0
  0
LINE
  5
9358
  8
0-5
  6
CONTINUOUS
 62
     6
 10
11854.597394018971
 20
20321.01297520088
 30
0.0
 11
11982.61845025507
 21
20670.917744873001
 31
0.0
  0
LINE
  5
935B
  8
WAKUSEN-01
 10
868.00000000000193
 20
22484.000000000011
 30
0.0
 11
32764.000000000011
 21
22484.000000000011
 31
0.0
  0
LINE
  5
935E
  8
WAKUSEN-01
 10
20560.0
 20
2484.0
 30
0.0
 11
32764.0
 21
2484.0
 31
0.0
  0
LINE
  5
935F
  8
WAKUSEN-02
 10
20560.0
 20
1655.9999999999991
 30
0.0
 11
26868.0
 21
1655.9999999999991
 31
0.0
  0
TEXT
  5
9360
  8
WAKUMOJI-01
 10
20670.260259962761
 20
2125.9030093393221
 30
0.0
 40
240.0
  1
名　称
  7
WAKUMOJI
  0
TEXT
  5
9361
  8
WAKUMOJI-01
 10
20656.505485091919
 20
1319.12897497982
 30
0.0
 40
240.0
  1
機種名
  7
WAKUMOJI
  0
LINE
  5
9364
  8
YODOROGO
 10
29977.604341291921
 20
1995.7494964292871
 30
0.0
 11
29829.604341291921
 21
1995.7494964292871
 31
0.0
1001
AUTOCAD_POSTSCRIPT_FIGURE
1002
{
1000
PSFILL
1000
Grayscale
1000
Grayscale
1070
    25
1002
}
  0
LINE
  5
9365
  8
YODOROGO
 10
29829.604341291921
 20
1947.749496429288
 30
0.0
 11
29977.604341291921
 21
1947.749496429288
 31
0.0
1001
AUTOCAD_POSTSCRIPT_FIGURE
1002
{
1000
PSFILL
1000
Grayscale
1000
Grayscale
1070
    25
1002
}
  0
LINE
  5
9366
  8
YODOROGO
 10
29977.604341291921
 20
1907.7494964292871
 30
0.0
 11
29829.604341291921
 21
1907.7494964292871
 31
0.0
1001
AUTOCAD_POSTSCRIPT_FIGURE
1002
{
1000
PSFILL
1000
Grayscale
1000
Grayscale
1070
    25
1002
}
  0
LINE
  5
9367
  8
YODOROGO
 10
29829.604341291921
 20
1859.749496429288
 30
0.0
 11
29977.604341291921
 21
1859.749496429288
 31
0.0
1001
AUTOCAD_POSTSCRIPT_FIGURE
1002
{
1000
PSFILL
1000
Grayscale
1000
Grayscale
1070
    25
1002
}
  0
LINE
  5
9368
  8
YODOROGO
 10
29977.604341291921
 20
1819.7494964292871
 30
0.0
 11
29829.604341291921
 21
1819.7494964292871
 31
0.0
1001
AUTOCAD_POSTSCRIPT_FIGURE
1002
{
1000
PSFILL
1000
Grayscale
1000
Grayscale
1070
    25
1002
}
  0
LINE
  5
9369
  8
YODOROGO
 10
29921.60434129191
 20
1707.749496429288
 30
0.0
 11
29977.604341291921
 21
1707.749496429288
 31
0.0
1001
AUTOCAD_POSTSCRIPT_FIGURE
1002
{
1000
PSFILL
1000
Grayscale
1000
Grayscale
1070
    25
1002
}
  0
LINE
  5
936A
  8
YODOROGO
 10
29737.604341291921
 20
1427.749496429288
 30
0.0
 11
29937.604341291932
 21
1481.3393349155101
 31
0.0
  0
LINE
  5
936B
  8
YODOROGO
 10
29949.60434129191
 20
1707.749496429288
 30
0.0
 11
29885.604341291921
 21
1707.749496429288
 31
0.0
  0
ARC
  5
936C
  8
YODOROGO
 10
30254.34774982791
 20
1807.864609233261
 30
0.0
 40
381.88686420564721
 50
213.96111677667841
 51
264.47872074317792
  0
ARC
  5
936D
  8
YODOROGO
 10
30254.347749827921
 20
1807.864609233302
 30
0.0
 40
381.8868642056816
 50
208.14114420486601
 51
212.9210361185994
  0
LINE
  5
936E
  8
YODOROGO
 10
29771.409872985321
 20
1556.807661346234
 30
0.0
 11
29933.78413250855
 21
1600.3157130570869
 31
0.0
  0
LINE
  5
936F
  8
YODOROGO
 10
29737.604341291921
 20
1427.749496429288
 30
0.0
 11
29937.604341291932
 21
1481.3393349155101
 31
0.0
  0
LINE
  5
9370
  8
YODOROGO
 10
29949.60434129191
 20
1707.749496429288
 30
0.0
 11
29885.604341291921
 21
1707.749496429288
 31
0.0
  0
ARC
  5
9371
  8
YODOROGO
 10
30254.34774982791
 20
1807.864609233261
 30
0.0
 40
381.88686420564721
 50
213.96111677667841
 51
264.47872074317792
  0
LINE
  5
9372
  8
YODOROGO
 10
28793.60434129191
 20
1819.7494964292871
 30
0.0
 11
28433.60434129191
 21
1819.7494964292871
 31
0.0
  0
LINE
  5
9373
  8
YODOROGO
 10
28513.60434129191
 20
1427.749496429288
 30
0.0
 11
28793.60434129191
 21
1427.749496429288
 31
0.0
  0
LINE
  5
9374
  8
YODOROGO
 10
28729.604341291921
 20
1923.7494964292871
 30
0.0
 11
28497.60434129191
 21
1923.7494964292871
 31
0.0
  0
LINE
  5
9375
  8
YODOROGO
 10
28585.604341291921
 20
2027.749496429288
 30
0.0
 11
28657.604341291921
 21
2027.749496429288
 31
0.0
  0
LINE
  5
9376
  8
YODOROGO
 10
28433.60434129191
 20
1707.749496429288
 30
0.0
 11
28433.60434129191
 21
1507.749496429288
 31
0.0
  0
LINE
  5
9377
  8
YODOROGO
 10
28497.60434129191
 20
1563.7494964292871
 30
0.0
 11
28497.60434129191
 21
1707.749496429288
 31
0.0
  0
LINE
  5
9378
  8
YODOROGO
 10
28585.604341291921
 20
1747.74949642929
 30
0.0
 11
28585.604341291921
 21
1547.749496429288
 31
0.0
  0
LINE
  5
9379
  8
YODOROGO
 10
27857.604341291921
 20
1683.749496429288
 30
0.0
 11
27777.604341291921
 21
1619.9724140445701
 31
0.0
  0
LINE
  5
937A
  8
YODOROGO
 10
27937.604341291921
 20
1619.9724140445701
 30
0.0
 11
27857.604341291921
 21
1683.749496429288
 31
0.0
  0
LINE
  5
937B
  8
YODOROGO
 10
27857.604341291921
 20
1707.749496429288
 30
0.0
 11
27937.604341291921
 21
1643.9724140445701
 31
0.0
  0
LINE
  5
937C
  8
YODOROGO
 10
27777.604341291921
 20
1643.9724140445701
 30
0.0
 11
27857.604341291921
 21
1707.749496429288
 31
0.0
  0
LINE
  5
937D
  8
YODOROGO
 10
28040.913204016892
 20
1659.749496429288
 30
0.0
 11
28040.913204016892
 21
1683.7494964292871
 31
0.0
  0
LINE
  5
937E
  8
YODOROGO
 10
27977.604341291921
 20
1683.7494964292871
 30
0.0
 11
27977.604341291921
 21
1667.749496429285
 31
0.0
  0
LINE
  5
937F
  8
YODOROGO
 10
28098.135520230931
 20
1707.749496429288
 30
0.0
 11
28098.135520230931
 21
1655.5036372746561
 31
0.0
1001
AUTOCAD_POSTSCRIPT_FIGURE
1002
{
1000
PSFILL
1000
Grayscale
1000
Grayscale
1070
   100
1002
}
  0
LINE
  5
9380
  8
YODOROGO
 10
28082.135520230921
 20
1655.5036372746561
 30
0.0
 11
28082.135520230921
 21
1707.749496429288
 31
0.0
1001
AUTOCAD_POSTSCRIPT_FIGURE
1002
{
1000
PSFILL
1000
Grayscale
1000
Grayscale
1070
   100
1002
}
  0
LINE
  5
9381
  8
YODOROGO
 10
27809.604341291921
 20
1608.771904043258
 30
0.0
 11
27809.604341291921
 21
1632.771904043258
 31
0.0
  0
LINE
  5
9382
  8
YODOROGO
 10
27905.604341291921
 20
1608.771904043258
 30
0.0
 11
27809.604341291921
 21
1608.771904043258
 31
0.0
  0
LINE
  5
9383
  8
YODOROGO
 10
27905.604341291921
 20
1632.771904043258
 30
0.0
 11
27905.604341291921
 21
1608.771904043258
 31
0.0
  0
LINE
  5
9384
  8
YODOROGO
 10
27809.604341291921
 20
1632.771904043258
 30
0.0
 11
27905.604341291921
 21
1632.771904043258
 31
0.0
  0
LINE
  5
9385
  8
YODOROGO
 10
27824.509588915738
 20
1568.5028573704751
 30
0.0
 11
27785.604341291921
 21
1475.7494964292871
 31
0.0
1001
AUTOCAD_POSTSCRIPT_FIGURE
1002
{
1000
PSFILL
1000
Grayscale
1000
Grayscale
1070
   100
1002
}
  0
LINE
  5
9386
  8
YODOROGO
 10
27777.604341291921
 20
1568.5028573704751
 30
0.0
 11
27824.509588915738
 21
1568.5028573704751
 31
0.0
1001
AUTOCAD_POSTSCRIPT_FIGURE
1002
{
1000
PSFILL
1000
Grayscale
1000
Grayscale
1070
   100
1002
}
  0
LINE
  5
9387
  8
YODOROGO
 10
27777.604341291921
 20
1588.5028573704751
 30
0.0
 11
27777.604341291921
 21
1568.5028573704751
 31
0.0
1001
AUTOCAD_POSTSCRIPT_FIGURE
1002
{
1000
PSFILL
1000
Grayscale
1000
Grayscale
1070
   100
1002
}
  0
LINE
  5
9388
  8
YODOROGO
 10
27937.604341291921
 20
1588.5028573704751
 30
0.0
 11
27777.604341291921
 21
1588.5028573704751
 31
0.0
1001
AUTOCAD_POSTSCRIPT_FIGURE
1002
{
1000
PSFILL
1000
Grayscale
1000
Grayscale
1070
   100
1002
}
  0
LINE
  5
9389
  8
YODOROGO
 10
27937.604341291921
 20
1568.5028573704751
 30
0.0
 11
27937.604341291921
 21
1588.5028573704751
 31
0.0
1001
AUTOCAD_POSTSCRIPT_FIGURE
1002
{
1000
PSFILL
1000
Grayscale
1000
Grayscale
1070
   100
1002
}
  0
LINE
  5
938A
  8
YODOROGO
 10
27844.509588915738
 20
1568.5028573704751
 30
0.0
 11
27937.604341291921
 21
1568.5028573704751
 31
0.0
1001
AUTOCAD_POSTSCRIPT_FIGURE
1002
{
1000
PSFILL
1000
Grayscale
1000
Grayscale
1070
   100
1002
}
  0
LINE
  5
938B
  8
YODOROGO
 10
27815.546718284771
 20
1495.7494964292871
 30
0.0
 11
27844.509588915738
 21
1568.5028573704751
 31
0.0
1001
AUTOCAD_POSTSCRIPT_FIGURE
1002
{
1000
PSFILL
1000
Grayscale
1000
Grayscale
1070
   100
1002
}
  0
LINE
  5
938C
  8
YODOROGO
 10
27902.054790808648
 20
1495.7494964292871
 30
0.0
 11
27815.546718284771
 21
1495.7494964292871
 31
0.0
1001
AUTOCAD_POSTSCRIPT_FIGURE
1002
{
1000
PSFILL
1000
Grayscale
1000
Grayscale
1070
   100
1002
}
  0
LINE
  5
938D
  8
YODOROGO
 10
27885.065004790951
 20
1536.2338106976929
 30
0.0
 11
27902.054790808648
 21
1495.7494964292871
 31
0.0
1001
AUTOCAD_POSTSCRIPT_FIGURE
1002
{
1000
PSFILL
1000
Grayscale
1000
Grayscale
1070
   100
1002
}
  0
LINE
  5
938E
  8
YODOROGO
 10
27901.065004790951
 20
1536.2338106976929
 30
0.0
 11
27885.065004790951
 21
1536.2338106976929
 31
0.0
1001
AUTOCAD_POSTSCRIPT_FIGURE
1002
{
1000
PSFILL
1000
Grayscale
1000
Grayscale
1070
   100
1002
}
  0
LINE
  5
938F
  8
YODOROGO
 10
27929.604341291921
 20
1475.7494964292871
 30
0.0
 11
27901.065004790951
 21
1536.2338106976929
 31
0.0
1001
AUTOCAD_POSTSCRIPT_FIGURE
1002
{
1000
PSFILL
1000
Grayscale
1000
Grayscale
1070
   100
1002
}
  0
LINE
  5
9390
  8
YODOROGO
 10
27785.604341291921
 20
1475.7494964292871
 30
0.0
 11
27929.604341291921
 21
1475.7494964292871
 31
0.0
1001
AUTOCAD_POSTSCRIPT_FIGURE
1002
{
1000
PSFILL
1000
Grayscale
1000
Grayscale
1070
   100
1002
}
  0
LINE
  5
9391
  8
YODOROGO
 10
27777.604341291921
 20
1619.9724140445701
 30
0.0
 11
27777.604341291921
 21
1643.9724140445701
 31
0.0
  0
LINE
  5
9392
  8
YODOROGO
 10
27937.604341291921
 20
1643.9724140445701
 30
0.0
 11
27937.604341291921
 21
1619.9724140445701
 31
0.0
  0
ARC
  5
9393
  8
YODOROGO
 10
28225.940442146959
 20
1600.877765325326
 30
0.0
 40
175.9999999999998
 50
280.3644312771313
 51
3.5414836592180561
  0
ARC
  5
9394
  8
YODOROGO
 10
28235.756030759301
 20
1633.5978069619041
 30
0.0
 40
111.9999999999982
 50
281.24905825041549
 51
348.75094174958321
  0
LINE
  5
9395
  8
YODOROGO
 10
28257.604341291921
 20
1523.7494964292871
 30
0.0
 11
28257.604341291921
 21
1427.749496429288
 31
0.0
  0
LINE
  5
9396
  8
YODOROGO
 10
28020.088903736909
 20
1610.650565061914
 30
0.0
 11
28040.913204016892
 21
1659.749496429288
 31
0.0
  0
LINE
  5
9397
  8
YODOROGO
 10
28041.604341291921
 20
1583.120489948401
 30
0.0
 11
28020.088903736909
 21
1610.650565061914
 31
0.0
  0
LINE
  5
9398
  8
YODOROGO
 10
28041.604341291921
 20
1563.120489948398
 30
0.0
 11
28041.604341291921
 21
1583.120489948401
 31
0.0
  0
LINE
  5
9399
  8
YODOROGO
 10
28017.604341291921
 20
1585.2370637495301
 30
0.0
 11
28041.604341291921
 21
1563.120489948398
 31
0.0
  0
LINE
  5
939A
  8
YODOROGO
 10
28017.604341291921
 20
1475.7494964292871
 30
0.0
 11
28017.604341291921
 21
1585.2370637495301
 31
0.0
  0
LINE
  5
939B
  8
YODOROGO
 10
28001.604341291921
 20
1475.7494964292871
 30
0.0
 11
28017.604341291921
 21
1475.7494964292871
 31
0.0
  0
LINE
  5
939C
  8
YODOROGO
 10
28001.604341291921
 20
1580.0053496897469
 30
0.0
 11
28001.604341291921
 21
1475.7494964292871
 31
0.0
  0
LINE
  5
939D
  8
YODOROGO
 10
27977.604341291921
 20
1532.7680790334291
 30
0.0
 11
28001.604341291921
 21
1580.0053496897469
 31
0.0
  0
LINE
  5
939E
  8
YODOROGO
 10
27977.604341291921
 20
1556.76807903343
 30
0.0
 11
27977.604341291921
 21
1532.7680790334291
 31
0.0
  0
LINE
  5
939F
  8
YODOROGO
 10
28025.828774291349
 20
1667.749496429285
 30
0.0
 11
27977.604341291921
 21
1556.76807903343
 31
0.0
  0
LINE
  5
93A0
  8
YODOROGO
 10
27977.604341291921
 20
1667.749496429285
 30
0.0
 11
28025.828774291349
 21
1667.749496429285
 31
0.0
  0
LINE
  5
93A1
  8
YODOROGO
 10
28050.135520230899
 20
1655.5036372746561
 30
0.0
 11
28082.135520230921
 21
1655.5036372746561
 31
0.0
1001
AUTOCAD_POSTSCRIPT_FIGURE
1002
{
1000
PSFILL
1000
Grayscale
1000
Grayscale
1070
   100
1002
}
  0
LINE
  5
93A2
  8
YODOROGO
 10
28050.135520230899
 20
1631.5036372746561
 30
0.0
 11
28050.135520230899
 21
1655.5036372746561
 31
0.0
1001
AUTOCAD_POSTSCRIPT_FIGURE
1002
{
1000
PSFILL
1000
Grayscale
1000
Grayscale
1070
   100
1002
}
  0
LINE
  5
93A3
  8
YODOROGO
 10
28082.135520230921
 20
1631.5036372746561
 30
0.0
 11
28050.135520230899
 21
1631.5036372746561
 31
0.0
1001
AUTOCAD_POSTSCRIPT_FIGURE
1002
{
1000
PSFILL
1000
Grayscale
1000
Grayscale
1070
   100
1002
}
  0
LINE
  5
93A4
  8
YODOROGO
 10
28082.135520230921
 20
1499.749496429288
 30
0.0
 11
28082.135520230921
 21
1631.5036372746561
 31
0.0
1001
AUTOCAD_POSTSCRIPT_FIGURE
1002
{
1000
PSFILL
1000
Grayscale
1000
Grayscale
1070
   100
1002
}
  0
LINE
  5
93A5
  8
YODOROGO
 10
28050.135520230921
 20
1499.749496429288
 30
0.0
 11
28082.135520230921
 21
1499.749496429288
 31
0.0
1001
AUTOCAD_POSTSCRIPT_FIGURE
1002
{
1000
PSFILL
1000
Grayscale
1000
Grayscale
1070
   100
1002
}
  0
LINE
  5
93A6
  8
YODOROGO
 10
28050.135520230921
 20
1475.7494964292871
 30
0.0
 11
28050.135520230921
 21
1499.749496429288
 31
0.0
1001
AUTOCAD_POSTSCRIPT_FIGURE
1002
{
1000
PSFILL
1000
Grayscale
1000
Grayscale
1070
   100
1002
}
  0
LINE
  5
93A7
  8
YODOROGO
 10
28137.604341291921
 20
1475.7494964292871
 30
0.0
 11
28050.135520230921
 21
1475.7494964292871
 31
0.0
1001
AUTOCAD_POSTSCRIPT_FIGURE
1002
{
1000
PSFILL
1000
Grayscale
1000
Grayscale
1070
   100
1002
}
  0
LINE
  5
93A8
  8
YODOROGO
 10
28137.604341291921
 20
1499.749496429288
 30
0.0
 11
28137.604341291921
 21
1475.7494964292871
 31
0.0
1001
AUTOCAD_POSTSCRIPT_FIGURE
1002
{
1000
PSFILL
1000
Grayscale
1000
Grayscale
1070
   100
1002
}
  0
LINE
  5
93A9
  8
YODOROGO
 10
28098.135520230931
 20
1499.749496429288
 30
0.0
 11
28137.604341291921
 21
1499.749496429288
 31
0.0
1001
AUTOCAD_POSTSCRIPT_FIGURE
1002
{
1000
PSFILL
1000
Grayscale
1000
Grayscale
1070
   100
1002
}
  0
LINE
  5
93AA
  8
YODOROGO
 10
28098.135520230931
 20
1631.5036372746561
 30
0.0
 11
28098.135520230931
 21
1499.749496429288
 31
0.0
1001
AUTOCAD_POSTSCRIPT_FIGURE
1002
{
1000
PSFILL
1000
Grayscale
1000
Grayscale
1070
   100
1002
}
  0
LINE
  5
93AB
  8
YODOROGO
 10
28137.604341291921
 20
1631.5036372746561
 30
0.0
 11
28098.135520230931
 21
1631.5036372746561
 31
0.0
1001
AUTOCAD_POSTSCRIPT_FIGURE
1002
{
1000
PSFILL
1000
Grayscale
1000
Grayscale
1070
   100
1002
}
  0
LINE
  5
93AC
  8
YODOROGO
 10
28137.604341291921
 20
1655.5036372746561
 30
0.0
 11
28137.604341291921
 21
1631.5036372746561
 31
0.0
1001
AUTOCAD_POSTSCRIPT_FIGURE
1002
{
1000
PSFILL
1000
Grayscale
1000
Grayscale
1070
   100
1002
}
  0
LINE
  5
93AD
  8
YODOROGO
 10
28098.135520230931
 20
1655.5036372746561
 30
0.0
 11
28137.604341291921
 21
1655.5036372746561
 31
0.0
1001
AUTOCAD_POSTSCRIPT_FIGURE
1002
{
1000
PSFILL
1000
Grayscale
1000
Grayscale
1070
   100
1002
}
  0
LINE
  5
93AE
  8
YODOROGO
 10
28401.60434129191
 20
1667.749496429288
 30
0.0
 11
28345.604341291921
 21
1667.749496429288
 31
0.0
  0
LINE
  5
93AF
  8
YODOROGO
 10
28401.60434129191
 20
1611.749496429288
 30
0.0
 11
28401.60434129191
 21
1667.749496429288
 31
0.0
  0
LINE
  5
93B0
  8
YODOROGO
 10
28345.604341291921
 20
1667.749496429288
 30
0.0
 11
28345.604341291921
 21
1611.749496429288
 31
0.0
  0
ARC
  5
93B1
  8
YODOROGO
 10
28513.60434129191
 20
1507.749496429288
 30
0.0
 40
80.0
 50
180.0
 51
270.0
  0
ARC
  5
93B2
  8
YODOROGO
 10
28537.604341291921
 20
1563.7494964292871
 30
0.0
 40
40.0
 50
180.0
 51
270.0
  0
LINE
  5
93B3
  8
YODOROGO
 10
28561.604341291932
 20
1523.7494964292871
 30
0.0
 11
28537.604341291921
 21
1523.7494964292871
 31
0.0
  0
ARC
  5
93B4
  8
YODOROGO
 10
28561.604341291932
 20
1547.749496429285
 30
0.0
 40
23.999999999996358
 50
270.0
 51
0.0000000000054281
  0
LINE
  5
93B5
  8
YODOROGO
 10
27801.604341291921
 20
1890.786580793706
 30
0.0
 11
27777.604341291921
 21
1843.776747951672
 31
0.0
1001
AUTOCAD_POSTSCRIPT_FIGURE
1002
{
1000
PSFILL
1000
Grayscale
1000
Grayscale
1070
   100
1002
}
  0
LINE
  5
93B6
  8
YODOROGO
 10
27801.604341291921
 20
1747.749496429286
 30
0.0
 11
27801.604341291921
 21
1890.786580793706
 31
0.0
1001
AUTOCAD_POSTSCRIPT_FIGURE
1002
{
1000
PSFILL
1000
Grayscale
1000
Grayscale
1070
   100
1002
}
  0
LINE
  5
93B7
  8
YODOROGO
 10
27817.604341291921
 20
1747.749496429286
 30
0.0
 11
27801.604341291921
 21
1747.749496429286
 31
0.0
1001
AUTOCAD_POSTSCRIPT_FIGURE
1002
{
1000
PSFILL
1000
Grayscale
1000
Grayscale
1070
   100
1002
}
  0
LINE
  5
93B8
  8
YODOROGO
 10
27817.604341291921
 20
1893.7713320852661
 30
0.0
 11
27817.604341291921
 21
1747.749496429286
 31
0.0
1001
AUTOCAD_POSTSCRIPT_FIGURE
1002
{
1000
PSFILL
1000
Grayscale
1000
Grayscale
1070
   100
1002
}
  0
LINE
  5
93B9
  8
YODOROGO
 10
27841.604341291921
 20
1867.6547582841361
 30
0.0
 11
27817.604341291921
 21
1893.7713320852661
 31
0.0
1001
AUTOCAD_POSTSCRIPT_FIGURE
1002
{
1000
PSFILL
1000
Grayscale
1000
Grayscale
1070
   100
1002
}
  0
LINE
  5
93BA
  8
YODOROGO
 10
27841.604341291921
 20
1883.6547582841361
 30
0.0
 11
27841.604341291921
 21
1867.6547582841361
 31
0.0
1001
AUTOCAD_POSTSCRIPT_FIGURE
1002
{
1000
PSFILL
1000
Grayscale
1000
Grayscale
1070
   100
1002
}
  0
LINE
  5
93BB
  8
YODOROGO
 10
27817.604341291921
 20
1917.7713320852649
 30
0.0
 11
27841.604341291921
 21
1883.6547582841361
 31
0.0
1001
AUTOCAD_POSTSCRIPT_FIGURE
1002
{
1000
PSFILL
1000
Grayscale
1000
Grayscale
1070
   100
1002
}
  0
LINE
  5
93BC
  8
YODOROGO
 10
27817.604341291921
 20
1939.749496429288
 30
0.0
 11
27817.604341291921
 21
1917.7713320852649
 31
0.0
1001
AUTOCAD_POSTSCRIPT_FIGURE
1002
{
1000
PSFILL
1000
Grayscale
1000
Grayscale
1070
   100
1002
}
  0
LINE
  5
93BD
  8
YODOROGO
 10
27889.604341291921
 20
1939.749496429288
 30
0.0
 11
27817.604341291921
 21
1939.749496429288
 31
0.0
1001
AUTOCAD_POSTSCRIPT_FIGURE
1002
{
1000
PSFILL
1000
Grayscale
1000
Grayscale
1070
   100
1002
}
  0
LINE
  5
93BE
  8
YODOROGO
 10
27889.604341291921
 20
1900.5683489363
 30
0.0
 11
27889.604341291921
 21
1939.749496429288
 31
0.0
1001
AUTOCAD_POSTSCRIPT_FIGURE
1002
{
1000
PSFILL
1000
Grayscale
1000
Grayscale
1070
   100
1002
}
  0
LINE
  5
93BF
  8
YODOROGO
 10
27857.604341291921
 20
1900.5683489363
 30
0.0
 11
27889.604341291921
 21
1900.5683489363
 31
0.0
1001
AUTOCAD_POSTSCRIPT_FIGURE
1002
{
1000
PSFILL
1000
Grayscale
1000
Grayscale
1070
   100
1002
}
  0
LINE
  5
93C0
  8
YODOROGO
 10
27857.604341291921
 20
1884.568348936298
 30
0.0
 11
27857.604341291921
 21
1900.5683489363
 31
0.0
1001
AUTOCAD_POSTSCRIPT_FIGURE
1002
{
1000
PSFILL
1000
Grayscale
1000
Grayscale
1070
   100
1002
}
  0
LINE
  5
93C1
  8
YODOROGO
 10
27889.604341291921
 20
1884.568348936298
 30
0.0
 11
27857.604341291921
 21
1884.568348936298
 31
0.0
1001
AUTOCAD_POSTSCRIPT_FIGURE
1002
{
1000
PSFILL
1000
Grayscale
1000
Grayscale
1070
   100
1002
}
  0
LINE
  5
93C2
  8
YODOROGO
 10
27889.604341291921
 20
1879.6191779644371
 30
0.0
 11
27889.604341291921
 21
1884.568348936298
 31
0.0
1001
AUTOCAD_POSTSCRIPT_FIGURE
1002
{
1000
PSFILL
1000
Grayscale
1000
Grayscale
1070
   100
1002
}
  0
LINE
  5
93C3
  8
YODOROGO
 10
27849.604341291921
 20
1812.974981161417
 30
0.0
 11
27889.604341291921
 21
1879.6191779644371
 31
0.0
1001
AUTOCAD_POSTSCRIPT_FIGURE
1002
{
1000
PSFILL
1000
Grayscale
1000
Grayscale
1070
   100
1002
}
  0
LINE
  5
93C4
  8
YODOROGO
 10
27849.604341291921
 20
1796.9749811614161
 30
0.0
 11
27849.604341291921
 21
1812.974981161417
 31
0.0
1001
AUTOCAD_POSTSCRIPT_FIGURE
1002
{
1000
PSFILL
1000
Grayscale
1000
Grayscale
1070
   100
1002
}
  0
LINE
  5
93C5
  8
YODOROGO
 10
27889.604341291921
 20
1847.6191779644359
 30
0.0
 11
27849.604341291921
 21
1796.9749811614161
 31
0.0
1001
AUTOCAD_POSTSCRIPT_FIGURE
1002
{
1000
PSFILL
1000
Grayscale
1000
Grayscale
1070
   100
1002
}
  0
LINE
  5
93C6
  8
YODOROGO
 10
27889.604341291921
 20
1747.749496429286
 30
0.0
 11
27889.604341291921
 21
1847.6191779644359
 31
0.0
1001
AUTOCAD_POSTSCRIPT_FIGURE
1002
{
1000
PSFILL
1000
Grayscale
1000
Grayscale
1070
   100
1002
}
  0
LINE
  5
93C7
  8
YODOROGO
 10
27905.604341291921
 20
1747.749496429286
 30
0.0
 11
27889.604341291921
 21
1747.749496429286
 31
0.0
1001
AUTOCAD_POSTSCRIPT_FIGURE
1002
{
1000
PSFILL
1000
Grayscale
1000
Grayscale
1070
   100
1002
}
  0
LINE
  5
93C8
  8
YODOROGO
 10
27905.604341291921
 20
1849.409012158806
 30
0.0
 11
27905.604341291921
 21
1747.749496429286
 31
0.0
1001
AUTOCAD_POSTSCRIPT_FIGURE
1002
{
1000
PSFILL
1000
Grayscale
1000
Grayscale
1070
   100
1002
}
  0
LINE
  5
93C9
  8
YODOROGO
 10
27937.604341291921
 20
1796.9749811614161
 30
0.0
 11
27905.604341291921
 21
1849.409012158806
 31
0.0
1001
AUTOCAD_POSTSCRIPT_FIGURE
1002
{
1000
PSFILL
1000
Grayscale
1000
Grayscale
1070
   100
1002
}
  0
LINE
  5
93CA
  8
YODOROGO
 10
27937.604341291921
 20
1812.974981161417
 30
0.0
 11
27937.604341291921
 21
1796.9749811614161
 31
0.0
1001
AUTOCAD_POSTSCRIPT_FIGURE
1002
{
1000
PSFILL
1000
Grayscale
1000
Grayscale
1070
   100
1002
}
  0
LINE
  5
93CB
  8
YODOROGO
 10
27905.604341291921
 20
1881.4090121588081
 30
0.0
 11
27937.604341291921
 21
1812.974981161417
 31
0.0
1001
AUTOCAD_POSTSCRIPT_FIGURE
1002
{
1000
PSFILL
1000
Grayscale
1000
Grayscale
1070
   100
1002
}
  0
LINE
  5
93CC
  8
YODOROGO
 10
27905.604341291921
 20
1884.5683489363
 30
0.0
 11
27905.604341291921
 21
1881.4090121588081
 31
0.0
1001
AUTOCAD_POSTSCRIPT_FIGURE
1002
{
1000
PSFILL
1000
Grayscale
1000
Grayscale
1070
   100
1002
}
  0
LINE
  5
93CD
  8
YODOROGO
 10
27937.604341291921
 20
1884.568348936298
 30
0.0
 11
27905.604341291921
 21
1884.5683489363
 31
0.0
1001
AUTOCAD_POSTSCRIPT_FIGURE
1002
{
1000
PSFILL
1000
Grayscale
1000
Grayscale
1070
   100
1002
}
  0
LINE
  5
93CE
  8
YODOROGO
 10
27937.604341291921
 20
1900.5683489363
 30
0.0
 11
27937.604341291921
 21
1884.568348936298
 31
0.0
1001
AUTOCAD_POSTSCRIPT_FIGURE
1002
{
1000
PSFILL
1000
Grayscale
1000
Grayscale
1070
   100
1002
}
  0
LINE
  5
93CF
  8
YODOROGO
 10
27905.604341291921
 20
1900.5683489363
 30
0.0
 11
27937.604341291921
 21
1900.5683489363
 31
0.0
1001
AUTOCAD_POSTSCRIPT_FIGURE
1002
{
1000
PSFILL
1000
Grayscale
1000
Grayscale
1070
   100
1002
}
  0
LINE
  5
93D0
  8
YODOROGO
 10
27905.604341291921
 20
1939.749496429288
 30
0.0
 11
27905.604341291921
 21
1900.5683489363
 31
0.0
1001
AUTOCAD_POSTSCRIPT_FIGURE
1002
{
1000
PSFILL
1000
Grayscale
1000
Grayscale
1070
   100
1002
}
  0
LINE
  5
93D1
  8
YODOROGO
 10
27937.604341291921
 20
1939.749496429288
 30
0.0
 11
27905.604341291921
 21
1939.749496429288
 31
0.0
1001
AUTOCAD_POSTSCRIPT_FIGURE
1002
{
1000
PSFILL
1000
Grayscale
1000
Grayscale
1070
   100
1002
}
  0
LINE
  5
93D2
  8
YODOROGO
 10
27937.604341291921
 20
1955.7494964292871
 30
0.0
 11
27937.604341291921
 21
1939.749496429288
 31
0.0
1001
AUTOCAD_POSTSCRIPT_FIGURE
1002
{
1000
PSFILL
1000
Grayscale
1000
Grayscale
1070
   100
1002
}
  0
LINE
  5
93D3
  8
YODOROGO
 10
27905.604341291921
 20
1955.7494964292871
 30
0.0
 11
27937.604341291921
 21
1955.7494964292871
 31
0.0
1001
AUTOCAD_POSTSCRIPT_FIGURE
1002
{
1000
PSFILL
1000
Grayscale
1000
Grayscale
1070
   100
1002
}
  0
LINE
  5
93D4
  8
YODOROGO
 10
27905.604341291921
 20
1979.749496429288
 30
0.0
 11
27905.604341291921
 21
1955.7494964292871
 31
0.0
1001
AUTOCAD_POSTSCRIPT_FIGURE
1002
{
1000
PSFILL
1000
Grayscale
1000
Grayscale
1070
   100
1002
}
  0
LINE
  5
93D5
  8
YODOROGO
 10
27889.604341291921
 20
1979.749496429288
 30
0.0
 11
27905.604341291921
 21
1979.749496429288
 31
0.0
1001
AUTOCAD_POSTSCRIPT_FIGURE
1002
{
1000
PSFILL
1000
Grayscale
1000
Grayscale
1070
   100
1002
}
  0
LINE
  5
93D6
  8
YODOROGO
 10
27889.604341291921
 20
1955.7494964292871
 30
0.0
 11
27889.604341291921
 21
1979.749496429288
 31
0.0
1001
AUTOCAD_POSTSCRIPT_FIGURE
1002
{
1000
PSFILL
1000
Grayscale
1000
Grayscale
1070
   100
1002
}
  0
LINE
  5
93D7
  8
YODOROGO
 10
27865.604341291921
 20
1955.7494964292871
 30
0.0
 11
27889.604341291921
 21
1955.7494964292871
 31
0.0
1001
AUTOCAD_POSTSCRIPT_FIGURE
1002
{
1000
PSFILL
1000
Grayscale
1000
Grayscale
1070
   100
1002
}
  0
LINE
  5
93D8
  8
YODOROGO
 10
27865.604341291921
 20
1979.749496429288
 30
0.0
 11
27865.604341291921
 21
1955.7494964292871
 31
0.0
1001
AUTOCAD_POSTSCRIPT_FIGURE
1002
{
1000
PSFILL
1000
Grayscale
1000
Grayscale
1070
   100
1002
}
  0
LINE
  5
93D9
  8
YODOROGO
 10
27849.604341291921
 20
1979.749496429288
 30
0.0
 11
27865.604341291921
 21
1979.749496429288
 31
0.0
1001
AUTOCAD_POSTSCRIPT_FIGURE
1002
{
1000
PSFILL
1000
Grayscale
1000
Grayscale
1070
   100
1002
}
  0
LINE
  5
93DA
  8
YODOROGO
 10
27849.604341291921
 20
1955.7494964292871
 30
0.0
 11
27849.604341291921
 21
1979.749496429288
 31
0.0
1001
AUTOCAD_POSTSCRIPT_FIGURE
1002
{
1000
PSFILL
1000
Grayscale
1000
Grayscale
1070
   100
1002
}
  0
LINE
  5
93DB
  8
YODOROGO
 10
27817.604341291921
 20
1955.7494964292871
 30
0.0
 11
27849.604341291921
 21
1955.7494964292871
 31
0.0
1001
AUTOCAD_POSTSCRIPT_FIGURE
1002
{
1000
PSFILL
1000
Grayscale
1000
Grayscale
1070
   100
1002
}
  0
LINE
  5
93DC
  8
YODOROGO
 10
27817.604341291921
 20
1979.749496429288
 30
0.0
 11
27817.604341291921
 21
1955.7494964292871
 31
0.0
1001
AUTOCAD_POSTSCRIPT_FIGURE
1002
{
1000
PSFILL
1000
Grayscale
1000
Grayscale
1070
   100
1002
}
  0
LINE
  5
93DD
  8
YODOROGO
 10
27801.604341291921
 20
1979.749496429288
 30
0.0
 11
27817.604341291921
 21
1979.749496429288
 31
0.0
1001
AUTOCAD_POSTSCRIPT_FIGURE
1002
{
1000
PSFILL
1000
Grayscale
1000
Grayscale
1070
   100
1002
}
  0
LINE
  5
93DE
  8
YODOROGO
 10
27801.604341291921
 20
1955.7494964292871
 30
0.0
 11
27801.604341291921
 21
1979.749496429288
 31
0.0
1001
AUTOCAD_POSTSCRIPT_FIGURE
1002
{
1000
PSFILL
1000
Grayscale
1000
Grayscale
1070
   100
1002
}
  0
LINE
  5
93DF
  8
YODOROGO
 10
27777.604341291921
 20
1955.7494964292871
 30
0.0
 11
27801.604341291921
 21
1955.7494964292871
 31
0.0
1001
AUTOCAD_POSTSCRIPT_FIGURE
1002
{
1000
PSFILL
1000
Grayscale
1000
Grayscale
1070
   100
1002
}
  0
LINE
  5
93E0
  8
YODOROGO
 10
27777.604341291921
 20
1939.749496429288
 30
0.0
 11
27777.604341291921
 21
1955.7494964292871
 31
0.0
1001
AUTOCAD_POSTSCRIPT_FIGURE
1002
{
1000
PSFILL
1000
Grayscale
1000
Grayscale
1070
   100
1002
}
  0
LINE
  5
93E1
  8
YODOROGO
 10
27801.604341291921
 20
1939.749496429288
 30
0.0
 11
27777.604341291921
 21
1939.749496429288
 31
0.0
1001
AUTOCAD_POSTSCRIPT_FIGURE
1002
{
1000
PSFILL
1000
Grayscale
1000
Grayscale
1070
   100
1002
}
  0
LINE
  5
93E2
  8
YODOROGO
 10
27801.604341291921
 20
1914.7865807937051
 30
0.0
 11
27801.604341291921
 21
1939.749496429288
 31
0.0
1001
AUTOCAD_POSTSCRIPT_FIGURE
1002
{
1000
PSFILL
1000
Grayscale
1000
Grayscale
1070
   100
1002
}
  0
LINE
  5
93E3
  8
YODOROGO
 10
27777.604341291921
 20
1859.776747951671
 30
0.0
 11
27801.604341291921
 21
1914.7865807937051
 31
0.0
1001
AUTOCAD_POSTSCRIPT_FIGURE
1002
{
1000
PSFILL
1000
Grayscale
1000
Grayscale
1070
   100
1002
}
  0
LINE
  5
93E4
  8
YODOROGO
 10
27777.604341291921
 20
1843.776747951672
 30
0.0
 11
27777.604341291921
 21
1859.776747951671
 31
0.0
1001
AUTOCAD_POSTSCRIPT_FIGURE
1002
{
1000
PSFILL
1000
Grayscale
1000
Grayscale
1070
   100
1002
}
  0
LINE
  5
93E5
  8
YODOROGO
 10
28257.604341291921
 20
1867.7494964292871
 30
0.0
 11
28401.60434129191
 21
1824.877625640306
 31
0.0
1001
AUTOCAD_POSTSCRIPT_FIGURE
1002
{
1000
PSFILL
1000
Grayscale
1000
Grayscale
1070
   100
1002
}
  0
LINE
  5
93E6
  8
YODOROGO
 10
28401.60434129191
 20
1752.877625640306
 30
0.0
 11
28257.604341291921
 21
1795.7494964292871
 31
0.0
1001
AUTOCAD_POSTSCRIPT_FIGURE
1002
{
1000
PSFILL
1000
Grayscale
1000
Grayscale
1070
   100
1002
}
  0
LINE
  5
93E7
  8
YODOROGO
 10
28401.60434129191
 20
1984.877625640306
 30
0.0
 11
28257.604341291921
 21
2027.749496429288
 31
0.0
1001
AUTOCAD_POSTSCRIPT_FIGURE
1002
{
1000
PSFILL
1000
Grayscale
1000
Grayscale
1070
   100
1002
}
  0
LINE
  5
93E8
  8
YODOROGO
 10
28257.604341291921
 20
1959.749496429288
 30
0.0
 11
28401.60434129191
 21
1916.8776256403071
 31
0.0
1001
AUTOCAD_POSTSCRIPT_FIGURE
1002
{
1000
PSFILL
1000
Grayscale
1000
Grayscale
1070
   100
1002
}
  0
LINE
  5
93E9
  8
YODOROGO
 10
28257.604341291921
 20
1795.7494964292871
 30
0.0
 11
28257.604341291921
 21
1867.7494964292871
 31
0.0
1001
AUTOCAD_POSTSCRIPT_FIGURE
1002
{
1000
PSFILL
1000
Grayscale
1000
Grayscale
1070
   100
1002
}
  0
LINE
  5
93EA
  8
YODOROGO
 10
28257.604341291921
 20
2027.749496429288
 30
0.0
 11
28257.604341291921
 21
1959.749496429288
 31
0.0
1001
AUTOCAD_POSTSCRIPT_FIGURE
1002
{
1000
PSFILL
1000
Grayscale
1000
Grayscale
1070
   100
1002
}
  0
LINE
  5
93EB
  8
YODOROGO
 10
28080.236320206739
 20
1939.749496429288
 30
0.0
 11
28129.60434129191
 21
1747.749496429286
 31
0.0
1001
AUTOCAD_POSTSCRIPT_FIGURE
1002
{
1000
PSFILL
1000
Grayscale
1000
Grayscale
1070
   100
1002
}
  0
LINE
  5
93EC
  8
YODOROGO
 10
27977.604341291921
 20
1939.749496429288
 30
0.0
 11
28080.236320206739
 21
1939.749496429288
 31
0.0
1001
AUTOCAD_POSTSCRIPT_FIGURE
1002
{
1000
PSFILL
1000
Grayscale
1000
Grayscale
1070
   100
1002
}
  0
LINE
  5
93ED
  8
YODOROGO
 10
27977.604341291921
 20
1955.7494964292871
 30
0.0
 11
27977.604341291921
 21
1939.749496429288
 31
0.0
1001
AUTOCAD_POSTSCRIPT_FIGURE
1002
{
1000
PSFILL
1000
Grayscale
1000
Grayscale
1070
   100
1002
}
  0
LINE
  5
93EE
  8
YODOROGO
 10
28076.60687851991
 20
1955.7494964292871
 30
0.0
 11
27977.604341291921
 21
1955.7494964292871
 31
0.0
1001
AUTOCAD_POSTSCRIPT_FIGURE
1002
{
1000
PSFILL
1000
Grayscale
1000
Grayscale
1070
   100
1002
}
  0
LINE
  5
93EF
  8
YODOROGO
 10
28071.162715989711
 20
1979.749496429288
 30
0.0
 11
28076.60687851991
 21
1955.7494964292871
 31
0.0
1001
AUTOCAD_POSTSCRIPT_FIGURE
1002
{
1000
PSFILL
1000
Grayscale
1000
Grayscale
1070
   100
1002
}
  0
LINE
  5
93F0
  8
YODOROGO
 10
28091.162715989711
 20
1979.749496429288
 30
0.0
 11
28071.162715989711
 21
1979.749496429288
 31
0.0
1001
AUTOCAD_POSTSCRIPT_FIGURE
1002
{
1000
PSFILL
1000
Grayscale
1000
Grayscale
1070
   100
1002
}
  0
LINE
  5
93F1
  8
YODOROGO
 10
28095.806878519939
 20
1955.7494964292871
 30
0.0
 11
28091.162715989711
 21
1979.749496429288
 31
0.0
1001
AUTOCAD_POSTSCRIPT_FIGURE
1002
{
1000
PSFILL
1000
Grayscale
1000
Grayscale
1070
   100
1002
}
  0
LINE
  5
93F2
  8
YODOROGO
 10
28121.604341291921
 20
1955.7494964292871
 30
0.0
 11
28095.806878519939
 21
1955.7494964292871
 31
0.0
1001
AUTOCAD_POSTSCRIPT_FIGURE
1002
{
1000
PSFILL
1000
Grayscale
1000
Grayscale
1070
   100
1002
}
  0
LINE
  5
93F3
  8
YODOROGO
 10
28121.604341291921
 20
1979.749496429288
 30
0.0
 11
28121.604341291921
 21
1955.7494964292871
 31
0.0
1001
AUTOCAD_POSTSCRIPT_FIGURE
1002
{
1000
PSFILL
1000
Grayscale
1000
Grayscale
1070
   100
1002
}
  0
LINE
  5
93F4
  8
YODOROGO
 10
28137.604341291921
 20
1979.749496429288
 30
0.0
 11
28121.604341291921
 21
1979.749496429288
 31
0.0
1001
AUTOCAD_POSTSCRIPT_FIGURE
1002
{
1000
PSFILL
1000
Grayscale
1000
Grayscale
1070
   100
1002
}
  0
LINE
  5
93F5
  8
YODOROGO
 10
28137.604341291921
 20
1955.7494964292871
 30
0.0
 11
28137.604341291921
 21
1979.749496429288
 31
0.0
1001
AUTOCAD_POSTSCRIPT_FIGURE
1002
{
1000
PSFILL
1000
Grayscale
1000
Grayscale
1070
   100
1002
}
  0
LINE
  5
93F6
  8
YODOROGO
 10
28137.604341291921
 20
1939.749496429288
 30
0.0
 11
28137.604341291921
 21
1955.7494964292871
 31
0.0
1001
AUTOCAD_POSTSCRIPT_FIGURE
1002
{
1000
PSFILL
1000
Grayscale
1000
Grayscale
1070
   100
1002
}
  0
LINE
  5
93F7
  8
YODOROGO
 10
28098.902986873411
 20
1939.749496429288
 30
0.0
 11
28137.604341291921
 21
1939.749496429288
 31
0.0
1001
AUTOCAD_POSTSCRIPT_FIGURE
1002
{
1000
PSFILL
1000
Grayscale
1000
Grayscale
1070
   100
1002
}
  0
LINE
  5
93F8
  8
YODOROGO
 10
28137.604341291921
 20
1747.749496429286
 30
0.0
 11
28098.902986873411
 21
1939.749496429288
 31
0.0
1001
AUTOCAD_POSTSCRIPT_FIGURE
1002
{
1000
PSFILL
1000
Grayscale
1000
Grayscale
1070
   100
1002
}
  0
LINE
  5
93F9
  8
YODOROGO
 10
28129.60434129191
 20
1747.749496429286
 30
0.0
 11
28137.604341291921
 21
1747.749496429286
 31
0.0
1001
AUTOCAD_POSTSCRIPT_FIGURE
1002
{
1000
PSFILL
1000
Grayscale
1000
Grayscale
1070
   100
1002
}
  0
LINE
  5
93FA
  8
YODOROGO
 10
28078.06921993379
 20
1775.7407762987939
 30
0.0
 11
27977.604341291921
 21
1747.749496429286
 31
0.0
  0
LINE
  5
93FB
  8
YODOROGO
 10
28078.06921993379
 20
1798.6689795290731
 30
0.0
 11
28078.06921993379
 21
1775.7407762987939
 31
0.0
  0
LINE
  5
93FC
  8
YODOROGO
 10
28033.83678061287
 20
1786.816933133767
 30
0.0
 11
28078.06921993379
 21
1798.6689795290731
 31
0.0
  0
LINE
  5
93FD
  8
YODOROGO
 10
28033.83678061287
 20
1872.5683489362989
 30
0.0
 11
28033.83678061287
 21
1786.816933133767
 31
0.0
  0
LINE
  5
93FE
  8
YODOROGO
 10
28078.06921993379
 20
1872.5683489362989
 30
0.0
 11
28033.83678061287
 21
1872.5683489362989
 31
0.0
  0
LINE
  5
93FF
  8
YODOROGO
 10
28078.06921993379
 20
1892.568348936298
 30
0.0
 11
28078.06921993379
 21
1872.5683489362989
 31
0.0
  0
LINE
  5
9400
  8
YODOROGO
 10
27977.604341291921
 20
1892.568348936298
 30
0.0
 11
28078.06921993379
 21
1892.568348936298
 31
0.0
  0
LINE
  5
9401
  8
YODOROGO
 10
27977.604341291921
 20
1872.5683489362989
 30
0.0
 11
27977.604341291921
 21
1892.568348936298
 31
0.0
  0
LINE
  5
9402
  8
YODOROGO
 10
28021.836780612852
 20
1872.5683489362989
 30
0.0
 11
27977.604341291921
 21
1872.5683489362989
 31
0.0
  0
LINE
  5
9403
  8
YODOROGO
 10
28021.836780612852
 20
1784.673339594317
 30
0.0
 11
28021.836780612852
 21
1872.5683489362989
 31
0.0
  0
LINE
  5
9404
  8
YODOROGO
 10
27977.604341291921
 20
1771.749496429286
 30
0.0
 11
28021.836780612852
 21
1784.673339594317
 31
0.0
  0
LINE
  5
9405
  8
YODOROGO
 10
27977.604341291921
 20
1747.749496429286
 30
0.0
 11
27977.604341291921
 21
1771.749496429286
 31
0.0
  0
LINE
  5
9406
  8
YODOROGO
 10
28001.604341291921
 20
1707.749496429288
 30
0.0
 11
28001.604341291921
 21
1683.7494964292871
 31
0.0
  0
LINE
  5
9407
  8
YODOROGO
 10
28017.604341291921
 20
1707.749496429288
 30
0.0
 11
28001.604341291921
 21
1707.749496429288
 31
0.0
  0
LINE
  5
9408
  8
YODOROGO
 10
28017.604341291921
 20
1683.7494964292871
 30
0.0
 11
28017.604341291921
 21
1707.749496429288
 31
0.0
  0
LINE
  5
9409
  8
YODOROGO
 10
28040.913204016892
 20
1683.7494964292871
 30
0.0
 11
28017.604341291921
 21
1683.7494964292871
 31
0.0
  0
LINE
  5
940A
  8
YODOROGO
 10
28001.604341291921
 20
1683.7494964292871
 30
0.0
 11
27977.604341291921
 21
1683.7494964292871
 31
0.0
  0
LINE
  5
940B
  8
YODOROGO
 10
28082.135520230921
 20
1707.749496429288
 30
0.0
 11
28098.135520230931
 21
1707.749496429288
 31
0.0
1001
AUTOCAD_POSTSCRIPT_FIGURE
1002
{
1000
PSFILL
1000
Grayscale
1000
Grayscale
1070
   100
1002
}
  0
LINE
  5
940C
  8
YODOROGO
 10
28401.60434129191
 20
1824.877625640306
 30
0.0
 11
28401.60434129191
 21
1752.877625640306
 31
0.0
1001
AUTOCAD_POSTSCRIPT_FIGURE
1002
{
1000
PSFILL
1000
Grayscale
1000
Grayscale
1070
   100
1002
}
  0
LINE
  5
940D
  8
YODOROGO
 10
28401.60434129191
 20
1916.8776256403071
 30
0.0
 11
28401.60434129191
 21
1984.877625640306
 31
0.0
1001
AUTOCAD_POSTSCRIPT_FIGURE
1002
{
1000
PSFILL
1000
Grayscale
1000
Grayscale
1070
   100
1002
}
  0
LINE
  5
940E
  8
YODOROGO
 10
28433.60434129191
 20
1819.7494964292871
 30
0.0
 11
28433.60434129191
 21
1747.74949642929
 31
0.0
  0
LINE
  5
940F
  8
YODOROGO
 10
28497.60434129191
 20
1707.749496429288
 30
0.0
 11
28433.60434129191
 21
1707.749496429288
 31
0.0
  0
LINE
  5
9410
  8
YODOROGO
 10
28433.60434129191
 20
1747.74949642929
 30
0.0
 11
28585.604341291921
 21
1747.74949642929
 31
0.0
  0
LINE
  5
9411
  8
YODOROGO
 10
28497.60434129191
 20
1867.7494964292871
 30
0.0
 11
28433.60434129191
 21
1867.7494964292871
 31
0.0
  0
LINE
  5
9412
  8
YODOROGO
 10
28497.60434129191
 20
1923.7494964292871
 30
0.0
 11
28497.60434129191
 21
1867.7494964292871
 31
0.0
  0
LINE
  5
9413
  8
YODOROGO
 10
28585.604341291921
 20
1987.7494964292871
 30
0.0
 11
28585.604341291921
 21
2027.749496429288
 31
0.0
  0
LINE
  5
9414
  8
YODOROGO
 10
28433.60434129191
 20
1987.7494964292871
 30
0.0
 11
28585.604341291921
 21
1987.7494964292871
 31
0.0
  0
LINE
  5
9415
  8
YODOROGO
 10
28433.60434129191
 20
1867.7494964292871
 30
0.0
 11
28433.60434129191
 21
1987.7494964292871
 31
0.0
  0
LINE
  5
9416
  8
YODOROGO
 10
29001.60434129191
 20
2027.749496429288
 30
0.0
 11
29001.60434129191
 21
1619.749496429288
 31
0.0
  0
LINE
  5
9417
  8
YODOROGO
 10
29073.604341291921
 20
1579.749496429288
 30
0.0
 11
29073.604341291921
 21
2027.749496429288
 31
0.0
  0
LINE
  5
9418
  8
YODOROGO
 10
29261.604341291921
 20
1491.749496429286
 30
0.0
 11
29261.604341291921
 21
2007.749496429288
 31
0.0
  0
LINE
  5
9419
  8
YODOROGO
 10
29197.604341291921
 20
2007.749496429288
 30
0.0
 11
29197.604341291921
 21
1491.749496429286
 31
0.0
  0
LINE
  5
941A
  8
YODOROGO
 10
29385.604341291921
 20
2027.749496429288
 30
0.0
 11
29385.604341291921
 21
1427.749496429288
 31
0.0
  0
LINE
  5
941B
  8
YODOROGO
 10
29457.604341291921
 20
1427.749496429288
 30
0.0
 11
29457.604341291921
 21
2027.749496429288
 31
0.0
  0
LINE
  5
941C
  8
YODOROGO
 10
28657.604341291921
 20
1667.749496429288
 30
0.0
 11
28657.604341291921
 21
1747.74949642929
 31
0.0
  0
LINE
  5
941D
  8
YODOROGO
 10
29885.604341291921
 20
1707.749496429288
 30
0.0
 11
29885.604341291921
 21
1667.749496429288
 31
0.0
  0
LINE
  5
941E
  8
YODOROGO
 10
29885.604341291921
 20
1707.749496429288
 30
0.0
 11
29885.604341291921
 21
1667.749496429288
 31
0.0
  0
ARC
  5
941F
  8
YODOROGO
 10
28906.911576186842
 20
1618.217864442272
 30
0.0
 40
94.705151178741644
 50
274.05244162907098
 51
0.9266642149310712
  0
ARC
  5
9420
  8
YODOROGO
 10
28909.186170719819
 20
1592.61072861044
 30
0.0
 40
164.92042356085511
 50
271.5351210653775
 51
355.52727750585052
  0
LINE
  5
9421
  8
YODOROGO
 10
28913.604341291921
 20
1523.7494964292871
 30
0.0
 11
28913.604341291921
 21
1427.749496429288
 31
0.0
  0
LINE
  5
9422
  8
YODOROGO
 10
28793.60434129191
 20
1667.749496429288
 30
0.0
 11
28657.604341291921
 21
1667.749496429288
 31
0.0
  0
LINE
  5
9423
  8
YODOROGO
 10
28793.60434129191
 20
1603.7494964292871
 30
0.0
 11
28793.60434129191
 21
1667.749496429288
 31
0.0
  0
LINE
  5
9424
  8
YODOROGO
 10
28657.604341291921
 20
1603.7494964292871
 30
0.0
 11
28793.60434129191
 21
1603.7494964292871
 31
0.0
  0
LINE
  5
9425
  8
YODOROGO
 10
28657.604341291921
 20
1523.7494964292871
 30
0.0
 11
28657.604341291921
 21
1603.7494964292871
 31
0.0
  0
LINE
  5
9426
  8
YODOROGO
 10
28793.60434129191
 20
1523.7494964292871
 30
0.0
 11
28657.604341291921
 21
1523.7494964292871
 31
0.0
  0
LINE
  5
9427
  8
YODOROGO
 10
28793.60434129191
 20
1427.749496429288
 30
0.0
 11
28793.60434129191
 21
1523.7494964292871
 31
0.0
  0
LINE
  5
9428
  8
YODOROGO
 10
29197.604341291921
 20
1491.749496429286
 30
0.0
 11
29261.604341291921
 21
1491.749496429286
 31
0.0
  0
LINE
  5
9429
  8
YODOROGO
 10
29385.604341291921
 20
1427.749496429288
 30
0.0
 11
29457.604341291921
 21
1427.749496429288
 31
0.0
  0
LINE
  5
942A
  8
YODOROGO
 10
29737.604341291921
 20
1528.4414521705639
 30
0.0
 11
29737.604341291921
 21
1427.749496429288
 31
0.0
  0
LINE
  5
942B
  8
YODOROGO
 10
29617.604341291921
 20
1427.749496429288
 30
0.0
 11
29737.604341291921
 21
1528.4414521705639
 31
0.0
  0
LINE
  5
942C
  8
YODOROGO
 10
29617.604341291921
 20
1547.749496429288
 30
0.0
 11
29617.604341291921
 21
1427.749496429288
 31
0.0
  0
LINE
  5
942D
  8
YODOROGO
 10
29712.94462869945
 20
1627.749496429288
 30
0.0
 11
29617.604341291921
 21
1547.749496429288
 31
0.0
  0
LINE
  5
942E
  8
YODOROGO
 10
29617.604341291921
 20
1627.749496429288
 30
0.0
 11
29712.94462869945
 21
1627.749496429288
 31
0.0
  0
LINE
  5
942F
  8
YODOROGO
 10
29617.604341291921
 20
1667.749496429288
 30
0.0
 11
29617.604341291921
 21
1627.749496429288
 31
0.0
  0
LINE
  5
9430
  8
YODOROGO
 10
29885.604341291921
 20
1667.749496429288
 30
0.0
 11
29617.604341291921
 21
1667.749496429288
 31
0.0
  0
LINE
  5
9431
  8
YODOROGO
 10
29917.604341291921
 20
1627.749496429288
 30
0.0
 11
29777.604341291921
 21
1627.749496429288
 31
0.0
  0
LINE
  5
9432
  8
YODOROGO
 10
29777.604341291921
 20
1562.0054374176559
 30
0.0
 11
29771.409872985321
 21
1556.807661346234
 31
0.0
  0
LINE
  5
9433
  8
YODOROGO
 10
29777.604341291921
 20
1627.749496429288
 30
0.0
 11
29777.604341291921
 21
1562.0054374176559
 31
0.0
  0
LINE
  5
9434
  8
YODOROGO
 10
29737.604341291921
 20
1528.4414521705639
 30
0.0
 11
29737.604341291921
 21
1427.749496429288
 31
0.0
  0
LINE
  5
9435
  8
YODOROGO
 10
29617.604341291921
 20
1427.749496429288
 30
0.0
 11
29737.604341291921
 21
1528.4414521705639
 31
0.0
  0
LINE
  5
9436
  8
YODOROGO
 10
29617.604341291921
 20
1547.749496429288
 30
0.0
 11
29617.604341291921
 21
1427.749496429288
 31
0.0
  0
LINE
  5
9437
  8
YODOROGO
 10
29712.94462869945
 20
1627.749496429288
 30
0.0
 11
29617.604341291921
 21
1547.749496429288
 31
0.0
  0
LINE
  5
9438
  8
YODOROGO
 10
29617.604341291921
 20
1627.749496429288
 30
0.0
 11
29712.94462869945
 21
1627.749496429288
 31
0.0
  0
LINE
  5
9439
  8
YODOROGO
 10
29617.604341291921
 20
1667.749496429288
 30
0.0
 11
29617.604341291921
 21
1627.749496429288
 31
0.0
  0
LINE
  5
943A
  8
YODOROGO
 10
29885.604341291921
 20
1667.749496429288
 30
0.0
 11
29617.604341291921
 21
1667.749496429288
 31
0.0
  0
LINE
  5
943B
  8
YODOROGO
 10
28793.60434129191
 20
1747.74949642929
 30
0.0
 11
28793.60434129191
 21
1819.7494964292871
 31
0.0
  0
LINE
  5
943C
  8
YODOROGO
 10
28657.604341291921
 20
1747.74949642929
 30
0.0
 11
28793.60434129191
 21
1747.74949642929
 31
0.0
  0
LINE
  5
943D
  8
YODOROGO
 10
28729.604341291921
 20
1867.7494964292871
 30
0.0
 11
28729.604341291921
 21
1923.7494964292871
 31
0.0
  0
LINE
  5
943E
  8
YODOROGO
 10
28793.60434129191
 20
1867.7494964292871
 30
0.0
 11
28729.604341291921
 21
1867.7494964292871
 31
0.0
  0
LINE
  5
943F
  8
YODOROGO
 10
28793.60434129191
 20
1947.749496429288
 30
0.0
 11
28793.60434129191
 21
1867.7494964292871
 31
0.0
  0
ARC
  5
9440
  8
YODOROGO
 10
28753.60434129191
 20
1947.749496429288
 30
0.0
 40
40.0
 50
0.0
 51
90.0
  0
LINE
  5
9441
  8
YODOROGO
 10
28657.604341291921
 20
1987.7494964292871
 30
0.0
 11
28753.60434129191
 21
1987.7494964292871
 31
0.0
  0
LINE
  5
9442
  8
YODOROGO
 10
28657.604341291921
 20
2027.749496429288
 30
0.0
 11
28657.604341291921
 21
1987.7494964292871
 31
0.0
  0
LINE
  5
9443
  8
YODOROGO
 10
29073.604341291921
 20
2027.749496429288
 30
0.0
 11
29001.60434129191
 21
2027.749496429288
 31
0.0
  0
LINE
  5
9444
  8
YODOROGO
 10
29261.604341291921
 20
2007.749496429288
 30
0.0
 11
29197.604341291921
 21
2007.749496429288
 31
0.0
  0
LINE
  5
9445
  8
YODOROGO
 10
29457.604341291921
 20
2027.749496429288
 30
0.0
 11
29385.604341291921
 21
2027.749496429288
 31
0.0
  0
LINE
  5
9446
  8
YODOROGO
 10
29673.604341291921
 20
1707.749496429288
 30
0.0
 11
29673.604341291921
 21
1771.7494964292871
 31
0.0
1001
AUTOCAD_POSTSCRIPT_FIGURE
1002
{
1000
PSFILL
1000
Grayscale
1000
Grayscale
1070
    25
1002
}
  0
LINE
  5
9447
  8
YODOROGO
 10
29617.604341291921
 20
1707.749496429288
 30
0.0
 11
29673.604341291921
 21
1707.749496429288
 31
0.0
1001
AUTOCAD_POSTSCRIPT_FIGURE
1002
{
1000
PSFILL
1000
Grayscale
1000
Grayscale
1070
    25
1002
}
  0
LINE
  5
9448
  8
YODOROGO
 10
29617.604341291921
 20
1819.7494964292871
 30
0.0
 11
29617.604341291921
 21
1707.749496429288
 31
0.0
1001
AUTOCAD_POSTSCRIPT_FIGURE
1002
{
1000
PSFILL
1000
Grayscale
1000
Grayscale
1070
    25
1002
}
  0
LINE
  5
9449
  8
YODOROGO
 10
29765.604341291921
 20
1819.7494964292871
 30
0.0
 11
29617.604341291921
 21
1819.7494964292871
 31
0.0
1001
AUTOCAD_POSTSCRIPT_FIGURE
1002
{
1000
PSFILL
1000
Grayscale
1000
Grayscale
1070
    25
1002
}
  0
LINE
  5
944A
  8
YODOROGO
 10
29765.604341291921
 20
1859.749496429288
 30
0.0
 11
29765.604341291921
 21
1819.7494964292871
 31
0.0
1001
AUTOCAD_POSTSCRIPT_FIGURE
1002
{
1000
PSFILL
1000
Grayscale
1000
Grayscale
1070
    25
1002
}
  0
LINE
  5
944B
  8
YODOROGO
 10
29617.604341291921
 20
1859.749496429288
 30
0.0
 11
29765.604341291921
 21
1859.749496429288
 31
0.0
1001
AUTOCAD_POSTSCRIPT_FIGURE
1002
{
1000
PSFILL
1000
Grayscale
1000
Grayscale
1070
    25
1002
}
  0
LINE
  5
944C
  8
YODOROGO
 10
29617.604341291921
 20
1907.7494964292871
 30
0.0
 11
29617.604341291921
 21
1859.749496429288
 31
0.0
1001
AUTOCAD_POSTSCRIPT_FIGURE
1002
{
1000
PSFILL
1000
Grayscale
1000
Grayscale
1070
    25
1002
}
  0
LINE
  5
944D
  8
YODOROGO
 10
29765.604341291921
 20
1907.7494964292871
 30
0.0
 11
29617.604341291921
 21
1907.7494964292871
 31
0.0
1001
AUTOCAD_POSTSCRIPT_FIGURE
1002
{
1000
PSFILL
1000
Grayscale
1000
Grayscale
1070
    25
1002
}
  0
LINE
  5
944E
  8
YODOROGO
 10
29765.604341291921
 20
1947.749496429288
 30
0.0
 11
29765.604341291921
 21
1907.7494964292871
 31
0.0
1001
AUTOCAD_POSTSCRIPT_FIGURE
1002
{
1000
PSFILL
1000
Grayscale
1000
Grayscale
1070
    25
1002
}
  0
LINE
  5
944F
  8
YODOROGO
 10
29617.604341291921
 20
1947.749496429288
 30
0.0
 11
29765.604341291921
 21
1947.749496429288
 31
0.0
1001
AUTOCAD_POSTSCRIPT_FIGURE
1002
{
1000
PSFILL
1000
Grayscale
1000
Grayscale
1070
    25
1002
}
  0
LINE
  5
9450
  8
YODOROGO
 10
29617.604341291921
 20
2027.749496429288
 30
0.0
 11
29617.604341291921
 21
1947.749496429288
 31
0.0
1001
AUTOCAD_POSTSCRIPT_FIGURE
1002
{
1000
PSFILL
1000
Grayscale
1000
Grayscale
1070
    25
1002
}
  0
LINE
  5
9451
  8
YODOROGO
 10
29665.604341291921
 20
2027.749496429288
 30
0.0
 11
29617.604341291921
 21
2027.749496429288
 31
0.0
1001
AUTOCAD_POSTSCRIPT_FIGURE
1002
{
1000
PSFILL
1000
Grayscale
1000
Grayscale
1070
    25
1002
}
  0
LINE
  5
9452
  8
YODOROGO
 10
29665.604341291921
 20
1995.7494964292871
 30
0.0
 11
29665.604341291921
 21
2027.749496429288
 31
0.0
1001
AUTOCAD_POSTSCRIPT_FIGURE
1002
{
1000
PSFILL
1000
Grayscale
1000
Grayscale
1070
    25
1002
}
  0
LINE
  5
9453
  8
YODOROGO
 10
29765.604341291921
 20
1995.7494964292871
 30
0.0
 11
29665.604341291921
 21
1995.7494964292871
 31
0.0
1001
AUTOCAD_POSTSCRIPT_FIGURE
1002
{
1000
PSFILL
1000
Grayscale
1000
Grayscale
1070
    25
1002
}
  0
LINE
  5
9454
  8
YODOROGO
 10
29765.604341291921
 20
2027.749496429288
 30
0.0
 11
29765.604341291921
 21
1995.7494964292871
 31
0.0
1001
AUTOCAD_POSTSCRIPT_FIGURE
1002
{
1000
PSFILL
1000
Grayscale
1000
Grayscale
1070
    25
1002
}
  0
LINE
  5
9455
  8
YODOROGO
 10
29829.604341291921
 20
2027.749496429288
 30
0.0
 11
29765.604341291921
 21
2027.749496429288
 31
0.0
1001
AUTOCAD_POSTSCRIPT_FIGURE
1002
{
1000
PSFILL
1000
Grayscale
1000
Grayscale
1070
    25
1002
}
  0
LINE
  5
9456
  8
YODOROGO
 10
29829.604341291921
 20
1995.7494964292871
 30
0.0
 11
29829.604341291921
 21
2027.749496429288
 31
0.0
1001
AUTOCAD_POSTSCRIPT_FIGURE
1002
{
1000
PSFILL
1000
Grayscale
1000
Grayscale
1070
    25
1002
}
  0
LINE
  5
9457
  8
YODOROGO
 10
29829.604341291921
 20
1907.7494964292871
 30
0.0
 11
29829.604341291921
 21
1947.749496429288
 31
0.0
1001
AUTOCAD_POSTSCRIPT_FIGURE
1002
{
1000
PSFILL
1000
Grayscale
1000
Grayscale
1070
    25
1002
}
  0
LINE
  5
9458
  8
YODOROGO
 10
29829.604341291921
 20
1819.7494964292871
 30
0.0
 11
29829.604341291921
 21
1859.749496429288
 31
0.0
1001
AUTOCAD_POSTSCRIPT_FIGURE
1002
{
1000
PSFILL
1000
Grayscale
1000
Grayscale
1070
    25
1002
}
  0
LINE
  5
9459
  8
YODOROGO
 10
29921.60434129191
 20
1771.7494964292871
 30
0.0
 11
29921.60434129191
 21
1707.749496429288
 31
0.0
1001
AUTOCAD_POSTSCRIPT_FIGURE
1002
{
1000
PSFILL
1000
Grayscale
1000
Grayscale
1070
    25
1002
}
  0
LINE
  5
945A
  8
YODOROGO
 10
29829.604341291921
 20
1771.7494964292871
 30
0.0
 11
29921.60434129191
 21
1771.7494964292871
 31
0.0
1001
AUTOCAD_POSTSCRIPT_FIGURE
1002
{
1000
PSFILL
1000
Grayscale
1000
Grayscale
1070
    25
1002
}
  0
LINE
  5
945B
  8
YODOROGO
 10
29829.604341291921
 20
1707.749496429288
 30
0.0
 11
29829.604341291921
 21
1771.7494964292871
 31
0.0
1001
AUTOCAD_POSTSCRIPT_FIGURE
1002
{
1000
PSFILL
1000
Grayscale
1000
Grayscale
1070
    25
1002
}
  0
LINE
  5
945C
  8
YODOROGO
 10
29765.604341291921
 20
1707.749496429288
 30
0.0
 11
29829.604341291921
 21
1707.749496429288
 31
0.0
1001
AUTOCAD_POSTSCRIPT_FIGURE
1002
{
1000
PSFILL
1000
Grayscale
1000
Grayscale
1070
    25
1002
}
  0
LINE
  5
945D
  8
YODOROGO
 10
29765.604341291921
 20
1771.7494964292871
 30
0.0
 11
29765.604341291921
 21
1707.749496429288
 31
0.0
1001
AUTOCAD_POSTSCRIPT_FIGURE
1002
{
1000
PSFILL
1000
Grayscale
1000
Grayscale
1070
    25
1002
}
  0
LINE
  5
945E
  8
YODOROGO
 10
29673.604341291921
 20
1771.7494964292871
 30
0.0
 11
29765.604341291921
 21
1771.7494964292871
 31
0.0
1001
AUTOCAD_POSTSCRIPT_FIGURE
1002
{
1000
PSFILL
1000
Grayscale
1000
Grayscale
1070
    25
1002
}
  0
ARC
  5
945F
  8
YODOROGO
 10
31059.517893357912
 20
1602.6807375155761
 30
0.0
 40
178.22128111072141
 50
281.02627495425338
 51
357.77113575573799
  0
LINE
  5
9460
  8
YODOROGO
 10
31413.604341291921
 20
1907.7494964292871
 30
0.0
 11
31165.604341291921
 21
1907.7494964292871
 31
0.0
  0
LINE
  5
9461
  8
YODOROGO
 10
31413.604341291921
 20
2027.749496429288
 30
0.0
 11
31165.604341291921
 21
2027.749496429288
 31
0.0
  0
LINE
  5
9462
  8
YODOROGO
 10
31165.604341291921
 20
1963.749496429286
 30
0.0
 11
31413.604341291921
 21
1963.749496429286
 31
0.0
  0
LINE
  5
9463
  8
YODOROGO
 10
30791.604341291921
 20
1563.7494964292871
 30
0.0
 11
30791.604341291921
 21
1755.7494964292871
 31
0.0
  0
LINE
  5
9464
  8
YODOROGO
 10
30763.604341291921
 20
1691.749496429288
 30
0.0
 11
30763.604341291921
 21
1563.7494964292871
 31
0.0
  0
LINE
  5
9465
  8
YODOROGO
 10
30723.604341291921
 20
1491.749496429288
 30
0.0
 11
30723.604341291921
 21
1691.749496429288
 31
0.0
  0
LINE
  5
9466
  8
YODOROGO
 10
30899.604341291932
 20
1691.749496429288
 30
0.0
 11
30899.604341291932
 21
1491.749496429288
 31
0.0
  0
LINE
  5
9467
  8
YODOROGO
 10
30859.604341291932
 20
1563.7494964292871
 30
0.0
 11
30859.604341291932
 21
1691.749496429288
 31
0.0
  0
LINE
  5
9468
  8
YODOROGO
 10
30831.604341291921
 20
1755.7494964292871
 30
0.0
 11
30831.604341291921
 21
1563.7494964292871
 31
0.0
  0
LINE
  5
9469
  8
YODOROGO
 10
30973.604341291921
 20
2027.749496429288
 30
0.0
 11
30973.604341291921
 21
1467.749496429288
 31
0.0
  0
LINE
  5
946A
  8
YODOROGO
 10
30645.604341291921
 20
1427.749496429288
 30
0.0
 11
30645.604341291921
 21
2027.749496429288
 31
0.0
  0
LINE
  5
946B
  8
YODOROGO
 10
30697.604341291932
 20
1963.749496429286
 30
0.0
 11
30697.604341291932
 21
1427.749496429288
 31
0.0
  0
LINE
  5
946C
  8
YODOROGO
 10
30925.604341291921
 20
1547.749496429288
 30
0.0
 11
30925.604341291921
 21
1963.749496429286
 31
0.0
  0
LINE
  5
946D
  8
YODOROGO
 10
30381.604341291932
 20
1627.749496429288
 30
0.0
 11
30381.604341291932
 21
1679.749496429288
 31
0.0
  0
LINE
  5
946E
  8
YODOROGO
 10
30617.604341291921
 20
1679.749496429288
 30
0.0
 11
30617.604341291921
 21
1627.749496429288
 31
0.0
  0
LINE
  5
946F
  8
YODOROGO
 10
31165.604341291921
 20
1907.7494964292871
 30
0.0
 11
31165.604341291921
 21
1635.7494964292871
 31
0.0
  0
LINE
  5
9470
  8
YODOROGO
 10
29949.60434129191
 20
1667.749496429288
 30
0.0
 11
29949.60434129191
 21
1707.749496429288
 31
0.0
  0
LINE
  5
9471
  8
YODOROGO
 10
29949.60434129191
 20
1667.749496429288
 30
0.0
 11
29949.60434129191
 21
1707.749496429288
 31
0.0
  0
ARC
  5
9472
  8
YODOROGO
 10
30537.604341291921
 20
1507.749496429288
 30
0.0
 40
80.0
 50
270.0
 51
0.0
  0
LINE
  5
9473
  8
YODOROGO
 10
30569.604341291921
 20
1599.7494964292871
 30
0.0
 11
30617.604341291921
 21
1599.7494964292871
 31
0.0
  0
LINE
  5
9474
  8
YODOROGO
 10
30617.604341291921
 20
1627.749496429288
 30
0.0
 11
30529.604341291939
 21
1627.749496429288
 31
0.0
  0
LINE
  5
9475
  8
YODOROGO
 10
30217.604341291921
 20
1667.749496429288
 30
0.0
 11
29949.60434129191
 21
1667.749496429288
 31
0.0
  0
LINE
  5
9476
  8
YODOROGO
 10
30217.604341291921
 20
1627.749496429288
 30
0.0
 11
30217.604341291921
 21
1667.749496429288
 31
0.0
  0
LINE
  5
9477
  8
YODOROGO
 10
30017.604341291921
 20
1627.749496429288
 30
0.0
 11
30217.604341291921
 21
1627.749496429288
 31
0.0
  0
ARC
  5
9478
  8
YODOROGO
 10
30230.05882870136
 20
1868.885714952901
 30
0.0
 40
321.37763628522822
 50
228.6181454618993
 51
245.660289248906
  0
LINE
  5
9479
  8
YODOROGO
 10
30105.604341291921
 20
1603.7494964292871
 30
0.0
 11
30097.60434129195
 21
1576.0728158699001
 31
0.0
  0
LINE
  5
947A
  8
YODOROGO
 10
30189.604341291921
 20
1603.7494964292871
 30
0.0
 11
30105.604341291921
 21
1603.7494964292871
 31
0.0
  0
LINE
  5
947B
  8
YODOROGO
 10
30177.604341291921
 20
1551.817722473427
 30
0.0
 11
30189.604341291921
 21
1603.7494964292871
 31
0.0
  0
ARC
  5
947C
  8
YODOROGO
 10
30230.05882870045
 20
1868.885714953002
 30
0.0
 40
321.37763628529081
 50
260.60629297969911
 51
267.77903556555862
  0
LINE
  5
947D
  8
YODOROGO
 10
30217.604341291921
 20
1427.749496429285
 30
0.0
 11
30217.604341291921
 21
1547.749496429288
 31
0.0
  0
LINE
  5
947E
  8
YODOROGO
 10
29937.604341291932
 20
1481.3393349155101
 30
0.0
 11
29937.604341291921
 21
1594.531090531141
 31
0.0
  0
LINE
  5
947F
  8
YODOROGO
 10
30217.604341291921
 20
1667.749496429288
 30
0.0
 11
29949.60434129191
 21
1667.749496429288
 31
0.0
  0
LINE
  5
9480
  8
YODOROGO
 10
30217.604341291921
 20
1627.749496429288
 30
0.0
 11
30217.604341291921
 21
1667.749496429288
 31
0.0
  0
LINE
  5
9481
  8
YODOROGO
 10
30017.604341291921
 20
1627.749496429288
 30
0.0
 11
30217.604341291921
 21
1627.749496429288
 31
0.0
  0
ARC
  5
9482
  8
YODOROGO
 10
30230.05882870136
 20
1868.885714952901
 30
0.0
 40
321.37763628522822
 50
228.6181454618993
 51
245.660289248906
  0
LINE
  5
9483
  8
YODOROGO
 10
30105.604341291921
 20
1603.7494964292871
 30
0.0
 11
30097.60434129195
 21
1576.0728158699001
 31
0.0
  0
LINE
  5
9484
  8
YODOROGO
 10
30189.604341291921
 20
1603.7494964292871
 30
0.0
 11
30105.604341291921
 21
1603.7494964292871
 31
0.0
  0
LINE
  5
9485
  8
YODOROGO
 10
30177.604341291921
 20
1551.817722473427
 30
0.0
 11
30189.604341291921
 21
1603.7494964292871
 31
0.0
  0
ARC
  5
9486
  8
YODOROGO
 10
30230.05882870045
 20
1868.885714953002
 30
0.0
 40
321.37763628529081
 50
260.60629297969911
 51
267.77903556555862
  0
LINE
  5
9487
  8
YODOROGO
 10
30217.604341291921
 20
1427.749496429285
 30
0.0
 11
30217.604341291921
 21
1547.749496429288
 31
0.0
  0
LINE
  5
9488
  8
YODOROGO
 10
29937.604341291932
 20
1481.3393349155101
 30
0.0
 11
29937.604341291921
 21
1594.531090531141
 31
0.0
  0
LINE
  5
9489
  8
YODOROGO
 10
30433.604341291921
 20
1573.749496429288
 30
0.0
 11
30381.604341291932
 21
1573.749496429288
 31
0.0
  0
LINE
  5
948A
  8
YODOROGO
 10
30433.604341291921
 20
1601.749496429285
 30
0.0
 11
30433.604341291921
 21
1573.749496429288
 31
0.0
  0
LINE
  5
948B
  8
YODOROGO
 10
30381.604341291932
 20
1601.749496429285
 30
0.0
 11
30433.604341291921
 21
1601.749496429285
 31
0.0
  0
LINE
  5
948C
  8
YODOROGO
 10
30381.604341291932
 20
1573.749496429288
 30
0.0
 11
30381.604341291932
 21
1601.749496429285
 31
0.0
  0
LINE
  5
948D
  8
YODOROGO
 10
30429.604341291921
 20
1577.7494964292871
 30
0.0
 11
30385.604341291921
 21
1577.7494964292871
 31
0.0
  0
LINE
  5
948E
  8
YODOROGO
 10
30429.604341291921
 20
1597.749496429288
 30
0.0
 11
30429.604341291921
 21
1577.7494964292871
 31
0.0
  0
LINE
  5
948F
  8
YODOROGO
 10
30385.604341291921
 20
1597.749496429288
 30
0.0
 11
30429.604341291921
 21
1597.749496429288
 31
0.0
  0
LINE
  5
9490
  8
YODOROGO
 10
30385.604341291921
 20
1577.7494964292871
 30
0.0
 11
30385.604341291921
 21
1597.749496429288
 31
0.0
  0
LINE
  5
9491
  8
YODOROGO
 10
30425.604341291921
 20
1581.749496429286
 30
0.0
 11
30389.604341291921
 21
1581.749496429286
 31
0.0
  0
LINE
  5
9492
  8
YODOROGO
 10
30425.604341291921
 20
1593.749496429288
 30
0.0
 11
30425.604341291921
 21
1581.749496429286
 31
0.0
  0
LINE
  5
9493
  8
YODOROGO
 10
30389.604341291921
 20
1593.749496429288
 30
0.0
 11
30425.604341291921
 21
1593.749496429288
 31
0.0
  0
LINE
  5
9494
  8
YODOROGO
 10
30389.604341291921
 20
1581.749496429286
 30
0.0
 11
30389.604341291921
 21
1593.749496429288
 31
0.0
  0
LINE
  5
9495
  8
YODOROGO
 10
30421.604341291932
 20
1585.7494964292871
 30
0.0
 11
30393.604341291921
 21
1585.7494964292871
 31
0.0
  0
LINE
  5
9496
  8
YODOROGO
 10
30421.604341291932
 20
1589.749496429288
 30
0.0
 11
30421.604341291932
 21
1585.7494964292871
 31
0.0
  0
LINE
  5
9497
  8
YODOROGO
 10
30393.604341291921
 20
1589.749496429288
 30
0.0
 11
30421.604341291932
 21
1589.749496429288
 31
0.0
  0
LINE
  5
9498
  8
YODOROGO
 10
30393.604341291921
 20
1585.7494964292871
 30
0.0
 11
30393.604341291921
 21
1589.749496429288
 31
0.0
  0
LINE
  5
9499
  8
YODOROGO
 10
30465.604341291921
 20
1627.749496429288
 30
0.0
 11
30381.604341291932
 21
1627.749496429288
 31
0.0
  0
LINE
  5
949A
  8
YODOROGO
 10
30465.604341291921
 20
1547.749496429288
 30
0.0
 11
30465.604341291921
 21
1627.749496429288
 31
0.0
  0
LINE
  5
949B
  8
YODOROGO
 10
30381.604341291932
 20
1547.749496429288
 30
0.0
 11
30465.604341291921
 21
1547.749496429288
 31
0.0
  0
LINE
  5
949C
  8
YODOROGO
 10
30381.604341291932
 20
1427.749496429288
 30
0.0
 11
30381.604341291932
 21
1547.749496429288
 31
0.0
  0
LINE
  5
949D
  8
YODOROGO
 10
30537.604341291921
 20
1427.749496429288
 30
0.0
 11
30381.604341291932
 21
1427.749496429288
 31
0.0
  0
LINE
  5
949E
  8
YODOROGO
 10
30569.604341291921
 20
1571.749496429285
 30
0.0
 11
30569.604341291921
 21
1599.7494964292871
 31
0.0
  0
ARC
  5
949F
  8
YODOROGO
 10
30545.604341291921
 20
1571.749496429291
 30
0.0
 40
24.000000000003752
 50
270.0
 51
359.99999999998772
  0
LINE
  5
94A0
  8
YODOROGO
 10
30529.604341291939
 20
1547.749496429288
 30
0.0
 11
30545.604341291921
 21
1547.749496429288
 31
0.0
  0
LINE
  5
94A1
  8
YODOROGO
 10
30529.604341291939
 20
1627.749496429288
 30
0.0
 11
30529.604341291939
 21
1547.749496429288
 31
0.0
  0
LINE
  5
94A2
  8
YODOROGO
 10
30899.604341291932
 20
1547.749496429288
 30
0.0
 11
30925.604341291921
 21
1547.749496429288
 31
0.0
  0
LINE
  5
94A3
  8
YODOROGO
 10
30933.604341291921
 20
1427.749496429288
 30
0.0
 11
30899.604341291932
 21
1427.749496429288
 31
0.0
  0
LINE
  5
94A4
  8
YODOROGO
 10
30763.604341291921
 20
1563.7494964292871
 30
0.0
 11
30791.604341291921
 21
1563.7494964292871
 31
0.0
  0
LINE
  5
94A5
  8
YODOROGO
 10
30899.604341291932
 20
1491.749496429288
 30
0.0
 11
30723.604341291921
 21
1491.749496429288
 31
0.0
  0
LINE
  5
94A6
  8
YODOROGO
 10
30831.604341291921
 20
1563.7494964292871
 30
0.0
 11
30859.604341291932
 21
1563.7494964292871
 31
0.0
  0
LINE
  5
94A7
  8
YODOROGO
 10
30899.604341291932
 20
1427.749496429288
 30
0.0
 11
30899.604341291932
 21
1547.749496429288
 31
0.0
  0
LINE
  5
94A8
  8
YODOROGO
 10
30697.604341291932
 20
1427.749496429288
 30
0.0
 11
30645.604341291921
 21
1427.749496429288
 31
0.0
  0
LINE
  5
94A9
  8
YODOROGO
 10
30617.604341291921
 20
1599.7494964292871
 30
0.0
 11
30617.604341291921
 21
1507.749496429288
 31
0.0
  0
ARC
  5
94AA
  8
YODOROGO
 10
30933.604341291921
 20
1467.749496429288
 30
0.0
 40
40.0
 50
270.0
 51
0.0
  0
LINE
  5
94AB
  8
YODOROGO
 10
31093.604341291921
 20
1523.7494964292871
 30
0.0
 11
31093.604341291921
 21
1427.749496429288
 31
0.0
  0
ARC
  5
94AC
  8
YODOROGO
 10
31039.721395566768
 20
1637.5313901097329
 30
0.0
 40
125.8955565916754
 50
295.34052442160112
 51
359.18902303418679
  0
LINE
  5
94AD
  8
YODOROGO
 10
30617.604341291921
 20
1859.749496429288
 30
0.0
 11
30497.604341291921
 21
1939.749496429288
 31
0.0
  0
LINE
  5
94AE
  8
YODOROGO
 10
30497.604341291921
 20
2027.749496429288
 30
0.0
 11
30617.604341291921
 21
1947.749496429288
 31
0.0
  0
LINE
  5
94AF
  8
YODOROGO
 10
30529.604341291939
 20
1679.749496429288
 30
0.0
 11
30617.604341291921
 21
1679.749496429288
 31
0.0
  0
LINE
  5
94B0
  8
YODOROGO
 10
30617.604341291921
 20
1735.7494964292871
 30
0.0
 11
30529.604341291939
 21
1735.7494964292871
 31
0.0
  0
LINE
  5
94B1
  8
YODOROGO
 10
30381.604341291932
 20
1795.7494964292871
 30
0.0
 11
30617.604341291921
 21
1795.7494964292871
 31
0.0
  0
LINE
  5
94B2
  8
YODOROGO
 10
30081.604341291921
 20
2027.749496429288
 30
0.0
 11
30021.604341291921
 21
2027.749496429288
 31
0.0
  0
LINE
  5
94B3
  8
YODOROGO
 10
30081.604341291921
 20
1827.7494964292871
 30
0.0
 11
30081.604341291921
 21
2027.749496429288
 31
0.0
  0
LINE
  5
94B4
  8
YODOROGO
 10
30021.604341291921
 20
1827.7494964292871
 30
0.0
 11
30081.604341291921
 21
1827.7494964292871
 31
0.0
  0
LINE
  5
94B5
  8
YODOROGO
 10
30021.604341291921
 20
2027.749496429288
 30
0.0
 11
30021.604341291921
 21
1827.7494964292871
 31
0.0
  0
LINE
  5
94B6
  8
YODOROGO
 10
30161.604341291921
 20
2027.749496429288
 30
0.0
 11
30217.604341291921
 21
2027.749496429288
 31
0.0
  0
LINE
  5
94B7
  8
YODOROGO
 10
30161.604341291921
 20
1811.749496429288
 30
0.0
 11
30161.604341291921
 21
2027.749496429288
 31
0.0
  0
ARC
  5
94B8
  8
YODOROGO
 10
30121.604341291921
 20
1811.749496429288
 30
0.0
 40
40.0
 50
270.0
 51
0.0
  0
LINE
  5
94B9
  8
YODOROGO
 10
30021.604341291921
 20
1771.7494964292871
 30
0.0
 11
30121.604341291921
 21
1771.7494964292871
 31
0.0
  0
LINE
  5
94BA
  8
YODOROGO
 10
30021.604341291921
 20
1707.749496429288
 30
0.0
 11
30021.604341291921
 21
1771.7494964292871
 31
0.0
  0
LINE
  5
94BB
  8
YODOROGO
 10
30137.604341291921
 20
1707.749496429288
 30
0.0
 11
30021.604341291921
 21
1707.749496429288
 31
0.0
  0
ARC
  5
94BC
  8
YODOROGO
 10
30137.604341291921
 20
1787.7494964292871
 30
0.0
 40
80.0
 50
270.0
 51
0.0
  0
LINE
  5
94BD
  8
YODOROGO
 10
30217.604341291921
 20
2027.749496429288
 30
0.0
 11
30217.604341291921
 21
1787.7494964292871
 31
0.0
  0
LINE
  5
94BE
  8
YODOROGO
 10
29977.604341291921
 20
1947.749496429288
 30
0.0
 11
29977.604341291921
 21
1995.7494964292871
 31
0.0
1001
AUTOCAD_POSTSCRIPT_FIGURE
1002
{
1000
PSFILL
1000
Grayscale
1000
Grayscale
1070
    25
1002
}
  0
LINE
  5
94BF
  8
YODOROGO
 10
29977.604341291921
 20
1859.749496429288
 30
0.0
 11
29977.604341291921
 21
1907.7494964292871
 31
0.0
1001
AUTOCAD_POSTSCRIPT_FIGURE
1002
{
1000
PSFILL
1000
Grayscale
1000
Grayscale
1070
    25
1002
}
  0
LINE
  5
94C0
  8
YODOROGO
 10
29977.604341291921
 20
1707.749496429288
 30
0.0
 11
29977.604341291921
 21
1819.7494964292871
 31
0.0
1001
AUTOCAD_POSTSCRIPT_FIGURE
1002
{
1000
PSFILL
1000
Grayscale
1000
Grayscale
1070
    25
1002
}
  0
LINE
  5
94C1
  8
YODOROGO
 10
30381.604341291932
 20
1907.7494964292871
 30
0.0
 11
30497.604341291921
 21
2027.749496429288
 31
0.0
  0
LINE
  5
94C2
  8
YODOROGO
 10
30381.604341291932
 20
1819.7494964292871
 30
0.0
 11
30381.604341291932
 21
1907.7494964292871
 31
0.0
  0
LINE
  5
94C3
  8
YODOROGO
 10
30497.604341291921
 20
1939.749496429288
 30
0.0
 11
30381.604341291932
 21
1819.7494964292871
 31
0.0
  0
LINE
  5
94C4
  8
YODOROGO
 10
30465.604341291921
 20
1679.749496429288
 30
0.0
 11
30465.604341291921
 21
1735.7494964292871
 31
0.0
  0
LINE
  5
94C5
  8
YODOROGO
 10
30381.604341291932
 20
1679.749496429288
 30
0.0
 11
30465.604341291921
 21
1679.749496429288
 31
0.0
  0
LINE
  5
94C6
  8
YODOROGO
 10
30529.604341291939
 20
1735.7494964292871
 30
0.0
 11
30529.604341291939
 21
1679.749496429288
 31
0.0
  0
LINE
  5
94C7
  8
YODOROGO
 10
30381.604341291932
 20
1735.7494964292871
 30
0.0
 11
30381.604341291932
 21
1795.7494964292871
 31
0.0
  0
LINE
  5
94C8
  8
YODOROGO
 10
30465.604341291921
 20
1735.7494964292871
 30
0.0
 11
30381.604341291932
 21
1735.7494964292871
 31
0.0
  0
LINE
  5
94C9
  8
YODOROGO
 10
30645.604341291921
 20
2027.749496429288
 30
0.0
 11
30973.604341291921
 21
2027.749496429288
 31
0.0
  0
LINE
  5
94CA
  8
YODOROGO
 10
30925.604341291921
 20
1963.749496429286
 30
0.0
 11
30697.604341291932
 21
1963.749496429286
 31
0.0
  0
LINE
  5
94CB
  8
YODOROGO
 10
30873.604341291921
 20
1819.7494964292871
 30
0.0
 11
30899.604341291932
 21
1819.7494964292871
 31
0.0
  0
LINE
  5
94CC
  8
YODOROGO
 10
30899.604341291932
 20
1939.749496429288
 30
0.0
 11
30873.604341291921
 21
1819.7494964292871
 31
0.0
  0
LINE
  5
94CD
  8
YODOROGO
 10
30851.604341291939
 20
1939.749496429288
 30
0.0
 11
30899.604341291932
 21
1939.749496429288
 31
0.0
  0
LINE
  5
94CE
  8
YODOROGO
 10
30825.604341291921
 20
1819.7494964292871
 30
0.0
 11
30851.604341291939
 21
1939.749496429288
 31
0.0
  0
LINE
  5
94CF
  8
YODOROGO
 10
30797.604341291921
 20
1819.7494964292871
 30
0.0
 11
30825.604341291921
 21
1819.7494964292871
 31
0.0
  0
LINE
  5
94D0
  8
YODOROGO
 10
30771.604341291939
 20
1939.749496429288
 30
0.0
 11
30797.604341291921
 21
1819.7494964292871
 31
0.0
  0
LINE
  5
94D1
  8
YODOROGO
 10
30723.604341291921
 20
1939.749496429288
 30
0.0
 11
30771.604341291939
 21
1939.749496429288
 31
0.0
  0
LINE
  5
94D2
  8
YODOROGO
 10
30749.604341291921
 20
1819.7494964292871
 30
0.0
 11
30723.604341291921
 21
1939.749496429288
 31
0.0
  0
LINE
  5
94D3
  8
YODOROGO
 10
30723.604341291921
 20
1819.7494964292871
 30
0.0
 11
30749.604341291921
 21
1819.7494964292871
 31
0.0
  0
LINE
  5
94D4
  8
YODOROGO
 10
30723.604341291921
 20
1755.7494964292871
 30
0.0
 11
30723.604341291921
 21
1819.7494964292871
 31
0.0
  0
LINE
  5
94D5
  8
YODOROGO
 10
30899.604341291932
 20
1755.7494964292871
 30
0.0
 11
30723.604341291921
 21
1755.7494964292871
 31
0.0
  0
LINE
  5
94D6
  8
YODOROGO
 10
30899.604341291932
 20
1819.7494964292871
 30
0.0
 11
30899.604341291932
 21
1755.7494964292871
 31
0.0
  0
LINE
  5
94D7
  8
YODOROGO
 10
30617.604341291921
 20
1947.749496429288
 30
0.0
 11
30617.604341291921
 21
1859.749496429288
 31
0.0
  0
LINE
  5
94D8
  8
YODOROGO
 10
30791.604341291921
 20
1755.7494964292871
 30
0.0
 11
30831.604341291921
 21
1755.7494964292871
 31
0.0
  0
LINE
  5
94D9
  8
YODOROGO
 10
30723.604341291921
 20
1691.749496429288
 30
0.0
 11
30763.604341291921
 21
1691.749496429288
 31
0.0
  0
LINE
  5
94DA
  8
YODOROGO
 10
30859.604341291932
 20
1691.749496429288
 30
0.0
 11
30899.604341291932
 21
1691.749496429288
 31
0.0
  0
LINE
  5
94DB
  8
YODOROGO
 10
30617.604341291921
 20
1795.7494964292871
 30
0.0
 11
30617.604341291921
 21
1735.7494964292871
 31
0.0
  0
LINE
  5
94DC
  8
YODOROGO
 10
31165.604341291921
 20
2027.749496429288
 30
0.0
 11
31165.604341291921
 21
1963.749496429286
 31
0.0
  0
LINE
  5
94DD
  8
YODOROGO
 10
31533.604341291921
 20
1595.7494964292871
 30
0.0
 11
31533.60434129191
 21
1811.749496429288
 31
0.0
  0
LINE
  5
94DE
  8
YODOROGO
 10
31461.60434129191
 20
1987.7494964292871
 30
0.0
 11
31461.60434129191
 21
1635.7494964292871
 31
0.0
  0
LINE
  5
94DF
  8
YODOROGO
 10
31653.604341291921
 20
1427.749496429288
 30
0.0
 11
31653.60434129191
 21
1811.749496429288
 31
0.0
  0
LINE
  5
94E0
  8
YODOROGO
 10
31589.604341291921
 20
1811.749496429288
 30
0.0
 11
31589.604341291921
 21
1427.749496429288
 31
0.0
  0
LINE
  5
94E1
  8
YODOROGO
 10
31237.604341291921
 20
1595.7494964292871
 30
0.0
 11
31237.604341291921
 21
1707.749496429288
 31
0.0
  0
ARC
  5
94E2
  8
YODOROGO
 10
31353.914865116069
 20
1607.790351288558
 30
0.0
 40
180.0924485759885
 50
268.62849102169793
 51
356.16638457330322
  0
LINE
  5
94E3
  8
YODOROGO
 10
31349.604341291939
 20
1527.749496429288
 30
0.0
 11
31349.604341291939
 21
1427.749496429288
 31
0.0
  0
ARC
  5
94E4
  8
YODOROGO
 10
31351.518075724562
 20
1637.838957017655
 30
0.0
 40
110.1060929836122
 50
269.00410209305932
 51
358.91264455492478
  0
LINE
  5
94E5
  8
YODOROGO
 10
31589.604341291921
 20
1427.749496429288
 30
0.0
 11
31653.604341291921
 21
1427.749496429288
 31
0.0
  0
LINE
  5
94E6
  8
YODOROGO
 10
31533.60434129191
 20
1811.749496429288
 30
0.0
 11
31589.604341291921
 21
1811.749496429288
 31
0.0
  0
LINE
  5
94E7
  8
YODOROGO
 10
31621.604341291939
 20
1987.7494964292871
 30
0.0
 11
31461.60434129191
 21
1987.7494964292871
 31
0.0
  0
LINE
  5
94E8
  8
YODOROGO
 10
31533.60434129191
 20
1915.7494964292871
 30
0.0
 11
31661.604341291939
 21
1915.7494964292871
 31
0.0
  0
LINE
  5
94E9
  8
YODOROGO
 10
31701.604341291939
 20
1875.7494964292871
 30
0.0
 11
31533.60434129191
 21
1875.7494964292871
 31
0.0
  0
LINE
  5
94EA
  8
YODOROGO
 10
31237.604341291921
 20
1779.749496429288
 30
0.0
 11
31349.604341291939
 21
1779.749496429288
 31
0.0
  0
LINE
  5
94EB
  8
YODOROGO
 10
31237.604341291921
 20
1835.7494964292871
 30
0.0
 11
31237.604341291921
 21
1779.749496429288
 31
0.0
  0
LINE
  5
94EC
  8
YODOROGO
 10
31349.604341291939
 20
1835.7494964292871
 30
0.0
 11
31237.604341291921
 21
1835.7494964292871
 31
0.0
  0
LINE
  5
94ED
  8
YODOROGO
 10
31349.604341291939
 20
1779.749496429288
 30
0.0
 11
31349.604341291939
 21
1835.7494964292871
 31
0.0
  0
LINE
  5
94EE
  8
YODOROGO
 10
31533.60434129191
 20
1875.7494964292871
 30
0.0
 11
31533.60434129191
 21
1915.7494964292871
 31
0.0
  0
LINE
  5
94EF
  8
YODOROGO
 10
31413.604341291921
 20
1707.749496429288
 30
0.0
 11
31413.604341291921
 21
1907.7494964292871
 31
0.0
  0
LINE
  5
94F0
  8
YODOROGO
 10
31237.604341291921
 20
1707.749496429288
 30
0.0
 11
31413.604341291921
 21
1707.749496429288
 31
0.0
  0
LINE
  5
94F1
  8
YODOROGO
 10
31413.604341291921
 20
1963.749496429286
 30
0.0
 11
31413.604341291921
 21
2027.749496429288
 31
0.0
  0
ARC
  5
94F2
  8
YODOROGO
 10
31621.604341291939
 20
2003.749496429285
 30
0.0
 40
15.999999999994539
 50
270.0
 51
0.0000000000081422
  0
LINE
  5
94F3
  8
YODOROGO
 10
31637.604341291921
 20
2027.749496429288
 30
0.0
 11
31637.604341291921
 21
2003.7494964292871
 31
0.0
  0
LINE
  5
94F4
  8
YODOROGO
 10
31701.604341291939
 20
2027.749496429288
 30
0.0
 11
31637.604341291921
 21
2027.749496429288
 31
0.0
  0
LINE
  5
94F5
  8
YODOROGO
 10
31701.604341291939
 20
1955.7494964292871
 30
0.0
 11
31701.604341291939
 21
2027.749496429288
 31
0.0
  0
ARC
  5
94F6
  8
YODOROGO
 10
31661.604341291939
 20
1955.7494964292871
 30
0.0
 40
40.0
 50
270.0
 51
0.0
  0
LINE
  5
94F7
  8
YODOROGO
 10
31701.604341291939
 20
1811.749496429288
 30
0.0
 11
31701.604341291939
 21
1875.7494964292871
 31
0.0
  0
LINE
  5
94F8
  8
YODOROGO
 10
31653.60434129191
 20
1811.749496429288
 30
0.0
 11
31701.604341291939
 21
1811.749496429288
 31
0.0
  0
LINE
  5
94F9
  8
SUNPOU
  6
CONTINUOUS
 62
     4
 10
8294.8362441351801
 20
13577.600215999981
 30
0.0
 11
7447.8408231351787
 21
13577.600215999981
 31
0.0
  0
LINE
  5
94FA
  8
SUNPOU
  6
CONTINUOUS
 62
     4
 10
7527.8408231351777
 20
13770.09553099999
 30
0.0
 11
7527.8408231351777
 21
14010.09553099999
 31
0.0
  0
LINE
  5
94FB
  8
SUNPOU
  6
CONTINUOUS
 62
     4
 10
7527.8408231351777
 20
13577.600215999981
 30
0.0
 11
7527.8408231351777
 21
13337.600215999981
 31
0.0
  0
LINE
  5
94FC
  8
SUNPOU
  6
CONTINUOUS
 62
     4
 10
7527.8408231351777
 20
13770.09553099999
 30
0.0
 11
7527.8408231351777
 21
13577.600215999981
 31
0.0
  0
LINE
  5
94FD
  8
SUNPOU
  6
CONTINUOUS
 62
     4
 10
7527.8408231351777
 20
13770.09553099999
 30
0.0
 11
7527.8408231351777
 21
17038.595530999992
 31
0.0
  0
LINE
  5
94FE
  8
SUNPOU
  6
CONTINUOUS
 62
     4
 10
7527.8408231351777
 20
17038.595530999992
 30
0.0
 11
7527.8408231351777
 21
19956.595530999992
 31
0.0
  0
LINE
  5
94FF
  8
SUNPOU
  6
CONTINUOUS
 62
     4
 10
8294.8405991351738
 20
20179.09144
 30
0.0
 11
7447.8408231351787
 21
20179.091440000018
 31
0.0
  0
LINE
  5
9500
  8
SUNPOU
  6
CONTINUOUS
 62
     4
 10
7527.8408231351777
 20
19956.595530999992
 30
0.0
 11
7527.8408231351777
 21
19716.595530999992
 31
0.0
  0
LINE
  5
9501
  8
SUNPOU
  6
CONTINUOUS
 62
     4
 10
7527.8408231351777
 20
20179.091440000018
 30
0.0
 11
7527.8408231351777
 21
20419.091440000018
 31
0.0
  0
LINE
  5
9502
  8
SUNPOU
  6
CONTINUOUS
 62
     4
 10
7527.8408231351777
 20
19956.595530999992
 30
0.0
 11
7527.8408231351777
 21
20179.091440000018
 31
0.0
  0
LINE
  5
9503
  8
SUNPOU
  6
CONTINUOUS
 62
     4
 10
8368.3407181351813
 20
20169.090911999989
 30
0.0
 11
7847.8408231351787
 21
20169.090911999989
 31
0.0
  0
LINE
  5
9504
  8
SUNPOU
  6
CONTINUOUS
 62
     4
 10
8294.8405991351738
 20
20179.09144
 30
0.0
 11
7847.8408231351787
 21
20179.091440000018
 31
0.0
  0
LINE
  5
9505
  8
SUNPOU
  6
CONTINUOUS
 62
     4
 10
7927.8408231351814
 20
20169.090911999989
 30
0.0
 11
7927.8408231351814
 21
19929.090911999981
 31
0.0
  0
LINE
  5
9506
  8
SUNPOU
  6
CONTINUOUS
 62
     4
 10
7927.8408231351814
 20
20179.091440000018
 30
0.0
 11
7927.8408231351814
 21
20419.091440000018
 31
0.0
  0
LINE
  5
9507
  8
SUNPOU
  6
CONTINUOUS
 62
     4
 10
7927.8408231351814
 20
20169.090911999989
 30
0.0
 11
7927.8408231351814
 21
20179.091440000018
 31
0.0
  0
LINE
  5
9508
  8
SUNPOU
  6
CONTINUOUS
 62
     4
 10
11725.834661135161
 20
20729.100677999999
 30
0.0
 11
13592.334661135161
 21
20729.100677999999
 31
0.0
  0
LINE
  5
9509
  8
SUNPOU
  6
CONTINUOUS
 62
     4
 10
13677.834661135161
 20
20259.095398999991
 30
0.0
 11
13677.834661135161
 21
20809.100677999999
 31
0.0
  0
LINE
  5
950A
  8
SUNPOU
  6
CONTINUOUS
 62
     4
 10
13592.334661135161
 20
20729.100677999999
 30
0.0
 11
13352.334661135161
 21
20729.100677999999
 31
0.0
  0
LINE
  5
950B
  8
SUNPOU
  6
CONTINUOUS
 62
     4
 10
13674.834661135161
 20
20729.100677999999
 30
0.0
 11
13914.834661135161
 21
20729.100677999999
 31
0.0
  0
LINE
  5
950C
  8
SUNPOU
  6
CONTINUOUS
 62
     4
 10
13592.334661135161
 20
20729.100677999999
 30
0.0
 11
13674.834661135161
 21
20729.100677999999
 31
0.0
  0
LINE
  5
950D
  8
SUNPOU
  6
CONTINUOUS
 62
     4
 10
11725.84653713519
 20
20729.100677999999
 30
0.0
 11
8457.3465371351922
 21
20729.100677999999
 31
0.0
  0
LINE
  5
950E
  8
SUNPOU
  6
CONTINUOUS
 62
     4
 10
8371.8465371351922
 20
20259.095398999991
 30
0.0
 11
8371.8465371351922
 21
20809.100677999999
 31
0.0
  0
LINE
  5
950F
  8
SUNPOU
  6
CONTINUOUS
 62
     4
 10
8457.3465371351922
 20
20729.100677999999
 30
0.0
 11
8697.3465371351922
 21
20729.100677999999
 31
0.0
  0
LINE
  5
9510
  8
SUNPOU
  6
CONTINUOUS
 62
     4
 10
8374.8465371351922
 20
20729.100677999999
 30
0.0
 11
8134.8465371351922
 21
20729.100677999999
 31
0.0
  0
LINE
  5
9511
  8
SUNPOU
  6
CONTINUOUS
 62
     4
 10
8457.3465371351922
 20
20729.100677999999
 30
0.0
 11
8374.8465371351922
 21
20729.100677999999
 31
0.0
  0
LINE
  5
9515
  8
SUNPOU
  6
CONTINUOUS
 62
     4
 10
20571.846177000021
 20
13043.833534999971
 30
0.0
 11
20571.846177000021
 21
12698.148884999961
 31
0.0
  0
LINE
  5
9516
  8
SUNPOU
  6
CONTINUOUS
 62
     4
 10
20529.343934000011
 20
13627.09967399997
 30
0.0
 11
20529.343934000011
 21
12698.148884999961
 31
0.0
  0
LINE
  5
9517
  8
SUNPOU
  6
CONTINUOUS
 62
     4
 10
20571.846177000021
 20
12778.148884999961
 30
0.0
 11
20811.84617700001
 21
12778.148884999961
 31
0.0
  0
LINE
  5
9518
  8
SUNPOU
  6
CONTINUOUS
 62
     4
 10
20529.343934000011
 20
12778.148884999961
 30
0.0
 11
20289.343934000011
 21
12778.148884999961
 31
0.0
  0
LINE
  5
9519
  8
SUNPOU
  6
CONTINUOUS
 62
     4
 10
20571.846177000021
 20
12778.148884999961
 30
0.0
 11
20529.343934000011
 21
12778.148884999961
 31
0.0
  0
LINE
  5
951A
  8
SUNPOU
  6
CONTINUOUS
 62
     4
 10
25706.84617700001
 20
13043.833534999971
 30
0.0
 11
25706.84617700001
 21
12698.148884999961
 31
0.0
  0
LINE
  5
951B
  8
SUNPOU
  6
CONTINUOUS
 62
     4
 10
25749.348420000009
 20
13627.09967399997
 30
0.0
 11
25749.348420000009
 21
12698.148884999961
 31
0.0
  0
LINE
  5
951C
  8
SUNPOU
  6
CONTINUOUS
 62
     4
 10
25706.84617700001
 20
12778.148884999961
 30
0.0
 11
25466.84617700001
 21
12778.148884999961
 31
0.0
  0
LINE
  5
951D
  8
SUNPOU
  6
CONTINUOUS
 62
     4
 10
25749.348420000009
 20
12778.148884999961
 30
0.0
 11
25989.348420000009
 21
12778.148884999961
 31
0.0
  0
LINE
  5
951E
  8
SUNPOU
  6
CONTINUOUS
 62
     4
 10
25706.84617700001
 20
12778.148884999961
 30
0.0
 11
25749.348420000009
 21
12778.148884999961
 31
0.0
  0
LINE
  5
951F
  8
2-0
  6
CONTINUOUS
 62
     3
 10
23797.846177000021
 20
13707.096968999949
 30
0.0
 11
23882.84617700001
 21
13707.096968999949
 31
0.0
  0
LINE
  5
9520
  8
2-0
  6
CONTINUOUS
 62
     3
 10
23882.84617700001
 20
13707.096968999949
 30
0.0
 11
23882.84617700001
 21
13792.096968999949
 31
0.0
  0
LINE
  5
9521
  8
2-0
  6
CONTINUOUS
 62
     3
 10
23882.84617700001
 20
13792.096968999949
 30
0.0
 11
23797.846177000021
 21
13792.096968999949
 31
0.0
  0
LINE
  5
9522
  8
2-0
  6
CONTINUOUS
 62
     3
 10
23797.846177000021
 20
13792.096968999949
 30
0.0
 11
23797.846177000021
 21
13707.096968999949
 31
0.0
  0
LINE
  5
9523
  8
SUNPOU
  6
CONTINUOUS
 62
     4
 10
25706.84617700001
 20
13043.833534999971
 30
0.0
 11
25706.84617700001
 21
12698.148884999961
 31
0.0
  0
LINE
  5
9524
  8
SUNPOU
  6
CONTINUOUS
 62
     4
 10
25664.343934000011
 20
13627.09967399997
 30
0.0
 11
25664.343934000011
 21
12698.148884999961
 31
0.0
  0
LINE
  5
9525
  8
SUNPOU
  6
CONTINUOUS
 62
     4
 10
25706.84617700001
 20
12778.148884999961
 30
0.0
 11
25946.84617700001
 21
12778.148884999961
 31
0.0
  0
LINE
  5
9526
  8
SUNPOU
  6
CONTINUOUS
 62
     4
 10
25664.343934000011
 20
12778.148884999961
 30
0.0
 11
25424.343934000011
 21
12778.148884999961
 31
0.0
  0
LINE
  5
9527
  8
SUNPOU
  6
CONTINUOUS
 62
     4
 10
25706.84617700001
 20
12778.148884999961
 30
0.0
 11
25664.343934000011
 21
12778.148884999961
 31
0.0
  0
LINE
  5
9528
  8
SUNPOU
  6
CONTINUOUS
 62
     4
 10
20571.846177000021
 20
13043.833534999971
 30
0.0
 11
20571.846177000021
 21
12698.148884999961
 31
0.0
  0
LINE
  5
9529
  8
SUNPOU
  6
CONTINUOUS
 62
     4
 10
20614.348419999998
 20
13627.09967399997
 30
0.0
 11
20614.348419999998
 21
12698.148884999961
 31
0.0
  0
LINE
  5
952A
  8
SUNPOU
  6
CONTINUOUS
 62
     4
 10
20571.846177000021
 20
12778.148884999961
 30
0.0
 11
20331.846177000021
 21
12778.148884999961
 31
0.0
  0
LINE
  5
952B
  8
SUNPOU
  6
CONTINUOUS
 62
     4
 10
20614.348419999998
 20
12778.148884999961
 30
0.0
 11
20854.348419999998
 21
12778.148884999961
 31
0.0
  0
LINE
  5
952C
  8
SUNPOU
  6
CONTINUOUS
 62
     4
 10
20571.846177000021
 20
12778.148884999961
 30
0.0
 11
20614.348419999998
 21
12778.148884999961
 31
0.0
  0
LINE
  5
952D
  8
SUNPOU
  6
CONTINUOUS
 62
     4
 10
20529.343934000011
 20
13627.09967399997
 30
0.0
 11
20529.343934000011
 21
12298.148884999961
 31
0.0
  0
LINE
  5
952E
  8
SUNPOU
  6
CONTINUOUS
 62
     4
 10
25749.348420000009
 20
13627.09967399997
 30
0.0
 11
25749.348420000009
 21
12298.148884999961
 31
0.0
  0
LINE
  5
952F
  8
SUNPOU
  6
CONTINUOUS
 62
     4
 10
20529.343934000011
 20
12378.148884999961
 30
0.0
 11
25749.348420000009
 21
12378.148884999961
 31
0.0
  0
LINE
  5
9530
  8
SUNPOU
  6
CONTINUOUS
 62
     4
 10
25829.344461000001
 20
14157.096968999949
 30
0.0
 11
26879.345781000011
 21
14157.096968999949
 31
0.0
  0
LINE
  5
9531
  8
SUNPOU
  6
CONTINUOUS
 62
     4
 10
26679.345781000011
 20
13749.59696899996
 30
0.0
 11
26879.345781000011
 21
13749.59696899996
 31
0.0
  0
LINE
  5
9532
  8
SUNPOU
  6
CONTINUOUS
 62
     4
 10
26799.345781000011
 20
14157.096968999949
 30
0.0
 11
26799.345781000011
 21
13749.59696899996
 31
0.0
  0
LINE
  5
9533
  8
SUNPOU
  6
CONTINUOUS
 62
     4
 10
25829.344461000001
 20
14858.096968999949
 30
0.0
 11
26879.345781000011
 21
14858.096968999949
 31
0.0
  0
LINE
  5
9534
  8
SUNPOU
  6
CONTINUOUS
 62
     4
 10
25829.344461000001
 20
14157.096968999949
 30
0.0
 11
26879.345781000011
 21
14157.096968999949
 31
0.0
  0
LINE
  5
9535
  8
SUNPOU
  6
CONTINUOUS
 62
     4
 10
26799.345781000011
 20
14858.096968999949
 30
0.0
 11
26799.345781000011
 21
14157.096968999949
 31
0.0
  0
LINE
  5
9536
  8
SUNPOU
  6
CONTINUOUS
 62
     4
 10
25829.344461000001
 20
15559.33748049998
 30
0.0
 11
26879.345781000011
 21
15559.33748049998
 31
0.0
  0
LINE
  5
9537
  8
SUNPOU
  6
CONTINUOUS
 62
     4
 10
25829.344461000001
 20
14858.096968999949
 30
0.0
 11
26879.345781000011
 21
14858.096968999949
 31
0.0
  0
LINE
  5
9538
  8
SUNPOU
  6
CONTINUOUS
 62
     4
 10
26799.345781000011
 20
15559.33748049998
 30
0.0
 11
26799.345781000011
 21
14858.096968999949
 31
0.0
  0
LINE
  5
9539
  8
SUNPOU
  6
CONTINUOUS
 62
     4
 10
25829.344461000001
 20
16260.09696899996
 30
0.0
 11
26879.345781000011
 21
16260.09696899996
 31
0.0
  0
LINE
  5
953A
  8
SUNPOU
  6
CONTINUOUS
 62
     4
 10
25829.344461000001
 20
15559.33748049998
 30
0.0
 11
26879.345781000011
 21
15559.33748049998
 31
0.0
  0
LINE
  5
953B
  8
SUNPOU
  6
CONTINUOUS
 62
     4
 10
26799.345781000011
 20
16260.09696899996
 30
0.0
 11
26799.345781000011
 21
15559.33748049998
 31
0.0
  0
LINE
  5
953C
  8
SUNPOU
  6
CONTINUOUS
 62
     4
 10
26679.345781000011
 20
17018.096968999958
 30
0.0
 11
26879.345781000011
 21
17018.096968999958
 31
0.0
  0
LINE
  5
953D
  8
SUNPOU
  6
CONTINUOUS
 62
     4
 10
25829.344461000001
 20
16260.09696899996
 30
0.0
 11
26879.345781000011
 21
16260.09696899996
 31
0.0
  0
LINE
  5
953E
  8
SUNPOU
  6
CONTINUOUS
 62
     4
 10
26799.345781000011
 20
17018.096968999958
 30
0.0
 11
26799.345781000011
 21
16260.09696899996
 31
0.0
  0
LINE
  5
953F
  8
SUNPOU
  6
CONTINUOUS
 62
     4
 10
25829.344461000001
 20
17776.096968999969
 30
0.0
 11
26879.345781000011
 21
17776.096968999969
 31
0.0
  0
LINE
  5
9540
  8
SUNPOU
  6
CONTINUOUS
 62
     4
 10
26679.345781000011
 20
17018.096968999958
 30
0.0
 11
26879.345781000011
 21
17018.096968999958
 31
0.0
  0
LINE
  5
9541
  8
SUNPOU
  6
CONTINUOUS
 62
     4
 10
26799.345781000011
 20
17776.096968999969
 30
0.0
 11
26799.345781000011
 21
17018.096968999958
 31
0.0
  0
LINE
  5
9542
  8
SUNPOU
  6
CONTINUOUS
 62
     4
 10
25829.344461000001
 20
18477.096968999969
 30
0.0
 11
26879.345781000011
 21
18477.096968999969
 31
0.0
  0
LINE
  5
9543
  8
SUNPOU
  6
CONTINUOUS
 62
     4
 10
25829.344461000001
 20
17776.096968999969
 30
0.0
 11
26879.345781000011
 21
17776.096968999969
 31
0.0
  0
LINE
  5
9544
  8
SUNPOU
  6
CONTINUOUS
 62
     4
 10
26799.345781000011
 20
18477.096968999969
 30
0.0
 11
26799.345781000011
 21
17776.096968999969
 31
0.0
  0
LINE
  5
9545
  8
SUNPOU
  6
CONTINUOUS
 62
     4
 10
25829.344461000001
 20
19178.096968999969
 30
0.0
 11
26879.345781000011
 21
19178.096968999969
 31
0.0
  0
LINE
  5
9546
  8
SUNPOU
  6
CONTINUOUS
 62
     4
 10
25829.344461000001
 20
18477.096968999969
 30
0.0
 11
26879.345781000011
 21
18477.096968999969
 31
0.0
  0
LINE
  5
9547
  8
SUNPOU
  6
CONTINUOUS
 62
     4
 10
26799.345781000011
 20
19178.096968999969
 30
0.0
 11
26799.345781000011
 21
18477.096968999969
 31
0.0
  0
LINE
  5
9548
  8
SUNPOU
  6
CONTINUOUS
 62
     4
 10
26679.345781000011
 20
19936.096968999958
 30
0.0
 11
26879.345781000011
 21
19936.096968999958
 31
0.0
  0
LINE
  5
9549
  8
SUNPOU
  6
CONTINUOUS
 62
     4
 10
25829.344461000001
 20
19178.096968999969
 30
0.0
 11
26879.345781000011
 21
19178.096968999969
 31
0.0
  0
LINE
  5
954A
  8
SUNPOU
  6
CONTINUOUS
 62
     4
 10
26799.345781000011
 20
19936.096968999958
 30
0.0
 11
26799.345781000011
 21
19178.096968999969
 31
0.0
  0
LINE
  5
954B
  8
SUNPOU
  6
CONTINUOUS
 62
     4
 10
26679.345781000011
 20
17018.096968999958
 30
0.0
 11
27279.345781000011
 21
17018.096968999958
 31
0.0
  0
LINE
  5
954C
  8
SUNPOU
  6
CONTINUOUS
 62
     4
 10
26679.345781000011
 20
19936.096968999958
 30
0.0
 11
27279.345781000011
 21
19936.096968999958
 31
0.0
  0
LINE
  5
954D
  8
SUNPOU
  6
CONTINUOUS
 62
     4
 10
27199.345781000011
 20
17018.096968999958
 30
0.0
 11
27199.345781000011
 21
19936.096968999958
 31
0.0
  0
LINE
  5
954E
  8
SUNPOU
  6
CONTINUOUS
 62
     4
 10
26679.345781000011
 20
13749.59696899996
 30
0.0
 11
27279.345781000011
 21
13749.59696899996
 31
0.0
  0
LINE
  5
954F
  8
SUNPOU
  6
CONTINUOUS
 62
     4
 10
26679.345781000011
 20
17018.096968999958
 30
0.0
 11
27279.345781000011
 21
17018.096968999958
 31
0.0
  0
LINE
  5
9550
  8
SUNPOU
  6
CONTINUOUS
 62
     4
 10
27199.345781000011
 20
13749.59696899996
 30
0.0
 11
27199.345781000011
 21
17018.096968999958
 31
0.0
  0
LINE
  5
9551
  8
SUNPOU
  6
CONTINUOUS
 62
     4
 10
25829.344461000001
 20
19978.594263999959
 30
0.0
 11
27679.345781000011
 21
19978.594263999959
 31
0.0
  0
LINE
  5
9552
  8
SUNPOU
  6
CONTINUOUS
 62
     4
 10
25829.344461000001
 20
13707.09967399997
 30
0.0
 11
27679.345781000011
 21
13707.09967399997
 31
0.0
  0
LINE
  5
9553
  8
SUNPOU
  6
CONTINUOUS
 62
     4
 10
27599.345781000011
 20
19978.594263999959
 30
0.0
 11
27599.345781000011
 21
13707.09967399997
 31
0.0
  0
LINE
  5
9554
  8
SUNPOU
  6
CONTINUOUS
 62
     4
 10
26679.345781000011
 20
19936.096968999958
 30
0.0
 11
27279.345781000011
 21
19936.096968999958
 31
0.0
  0
LINE
  5
9555
  8
SUNPOU
  6
CONTINUOUS
 62
     4
 10
25829.344461000001
 20
19978.594263999959
 30
0.0
 11
27279.345781000011
 21
19978.594263999959
 31
0.0
  0
LINE
  5
9556
  8
SUNPOU
  6
CONTINUOUS
 62
     4
 10
27199.345781000011
 20
19936.096968999958
 30
0.0
 11
27199.345781000011
 21
19696.096968999969
 31
0.0
  0
LINE
  5
9557
  8
SUNPOU
  6
CONTINUOUS
 62
     4
 10
27199.345781000011
 20
19978.594263999959
 30
0.0
 11
27199.345781000011
 21
20218.594263999959
 31
0.0
  0
LINE
  5
9558
  8
SUNPOU
  6
CONTINUOUS
 62
     4
 10
27199.345781000011
 20
19936.096968999958
 30
0.0
 11
27199.345781000011
 21
19978.594263999959
 31
0.0
  0
LINE
  5
9559
  8
SUNPOU
  6
CONTINUOUS
 62
     4
 10
26679.345781000011
 20
13749.59696899996
 30
0.0
 11
27279.345781000011
 21
13749.59696899996
 31
0.0
  0
LINE
  5
955A
  8
SUNPOU
  6
CONTINUOUS
 62
     4
 10
25829.344461000001
 20
13707.09967399997
 30
0.0
 11
27279.345781000011
 21
13707.09967399997
 31
0.0
  0
LINE
  5
955B
  8
SUNPOU
  6
CONTINUOUS
 62
     4
 10
27199.345781000011
 20
13749.59696899996
 30
0.0
 11
27199.345781000011
 21
13989.59696899996
 31
0.0
  0
LINE
  5
955C
  8
SUNPOU
  6
CONTINUOUS
 62
     4
 10
27199.345781000011
 20
13707.09967399997
 30
0.0
 11
27199.345781000011
 21
13467.09967399997
 31
0.0
  0
LINE
  5
955D
  8
SUNPOU
  6
CONTINUOUS
 62
     4
 10
27199.345781000011
 20
13749.59696899996
 30
0.0
 11
27199.345781000011
 21
13707.09967399997
 31
0.0
  0
LINE
  5
955E
  8
SUNPOU
  6
CONTINUOUS
 62
     4
 10
23840.346177000021
 20
20058.595254
 30
0.0
 11
23840.346177000021
 21
20788.598157
 31
0.0
  0
LINE
  5
955F
  8
SUNPOU
  6
CONTINUOUS
 62
     4
 10
24247.846177000021
 20
20058.595254
 30
0.0
 11
24247.846177000021
 21
20788.598157
 31
0.0
  0
LINE
  5
9560
  8
SUNPOU
  6
CONTINUOUS
 62
     4
 10
23840.346177000021
 20
20708.598156999989
 30
0.0
 11
23600.346177000021
 21
20708.598156999989
 31
0.0
  0
LINE
  5
9561
  8
SUNPOU
  6
CONTINUOUS
 62
     4
 10
24247.846177000021
 20
20708.598156999989
 30
0.0
 11
24487.846177000021
 21
20708.598156999989
 31
0.0
  0
LINE
  5
9562
  8
SUNPOU
  6
CONTINUOUS
 62
     4
 10
23840.346177000021
 20
20708.598156999989
 30
0.0
 11
24247.846177000021
 21
20708.598156999989
 31
0.0
  0
LINE
  5
9563
  8
SUNPOU
  6
CONTINUOUS
 62
     4
 10
24948.846177000021
 20
20058.595254
 30
0.0
 11
24948.846177000021
 21
20788.598157
 31
0.0
  0
LINE
  5
9564
  8
SUNPOU
  6
CONTINUOUS
 62
     4
 10
25706.847166500022
 20
20058.595254
 30
0.0
 11
25706.847166500022
 21
20788.598157
 31
0.0
  0
LINE
  5
9565
  8
SUNPOU
  6
CONTINUOUS
 62
     4
 10
24948.846177000021
 20
20708.598156999989
 30
0.0
 11
25706.847166500022
 21
20708.598156999989
 31
0.0
  0
LINE
  5
9566
  8
SUNPOU
  6
CONTINUOUS
 62
     4
 10
24247.846177000021
 20
20058.595254
 30
0.0
 11
24247.846177000021
 21
20788.598157
 31
0.0
  0
LINE
  5
9567
  8
SUNPOU
  6
CONTINUOUS
 62
     4
 10
24948.846177000021
 20
20058.595254
 30
0.0
 11
24948.846177000021
 21
20788.598157
 31
0.0
  0
LINE
  5
9568
  8
SUNPOU
  6
CONTINUOUS
 62
     4
 10
24247.846177000021
 20
20708.598156999989
 30
0.0
 11
24948.846177000021
 21
20708.598156999989
 31
0.0
  0
LINE
  5
9569
  8
SUNPOU
  6
CONTINUOUS
 62
     4
 10
25706.84617700001
 20
20058.595254
 30
0.0
 11
25706.84617700001
 21
20788.598157
 31
0.0
  0
LINE
  5
956A
  8
SUNPOU
  6
CONTINUOUS
 62
     4
 10
25749.342482000011
 20
20058.595254
 30
0.0
 11
25749.342482000011
 21
20788.598157
 31
0.0
  0
LINE
  5
956B
  8
SUNPOU
  6
CONTINUOUS
 62
     4
 10
25706.84617700001
 20
20708.598156999989
 30
0.0
 11
25466.84617700001
 21
20708.598156999989
 31
0.0
  0
LINE
  5
956C
  8
SUNPOU
  6
CONTINUOUS
 62
     4
 10
25749.342482000011
 20
20708.598156999989
 30
0.0
 11
25989.342482000011
 21
20708.598156999989
 31
0.0
  0
LINE
  5
956D
  8
SUNPOU
  6
CONTINUOUS
 62
     4
 10
25706.84617700001
 20
20708.598156999989
 30
0.0
 11
25749.342482000011
 21
20708.598156999989
 31
0.0
  0
LINE
  5
956E
  8
SUNPOU
  6
CONTINUOUS
 62
     4
 10
20571.846177000021
 20
20058.595254
 30
0.0
 11
20571.846177000021
 21
20788.598157
 31
0.0
  0
LINE
  5
956F
  8
SUNPOU
  6
CONTINUOUS
 62
     4
 10
20979.34617700001
 20
20058.595254
 30
0.0
 11
20979.34617700001
 21
20788.598157
 31
0.0
  0
LINE
  5
9570
  8
SUNPOU
  6
CONTINUOUS
 62
     4
 10
20571.846177000021
 20
20708.598156999989
 30
0.0
 11
20331.846177000021
 21
20708.598156999989
 31
0.0
  0
LINE
  5
9571
  8
SUNPOU
  6
CONTINUOUS
 62
     4
 10
20979.34617700001
 20
20708.598156999989
 30
0.0
 11
21219.34617700001
 21
20708.598156999989
 31
0.0
  0
LINE
  5
9572
  8
SUNPOU
  6
CONTINUOUS
 62
     4
 10
20571.846177000021
 20
20708.598156999989
 30
0.0
 11
20979.34617700001
 21
20708.598156999989
 31
0.0
  0
LINE
  5
9573
  8
SUNPOU
  6
CONTINUOUS
 62
     4
 10
20571.846177000021
 20
20058.595254
 30
0.0
 11
20571.846177000021
 21
20788.598157
 31
0.0
  0
LINE
  5
9574
  8
SUNPOU
  6
CONTINUOUS
 62
     4
 10
20529.349871999999
 20
20058.595254
 30
0.0
 11
20529.349871999999
 21
20788.598157
 31
0.0
  0
LINE
  5
9575
  8
SUNPOU
  6
CONTINUOUS
 62
     4
 10
20571.846177000021
 20
20708.598156999989
 30
0.0
 11
20811.84617700001
 21
20708.598156999989
 31
0.0
  0
LINE
  5
9576
  8
SUNPOU
  6
CONTINUOUS
 62
     4
 10
20529.349871999999
 20
20708.598156999989
 30
0.0
 11
20289.349871999999
 21
20708.598156999989
 31
0.0
  0
LINE
  5
9577
  8
SUNPOU
  6
CONTINUOUS
 62
     4
 10
20571.846177000021
 20
20708.598156999989
 30
0.0
 11
20529.349871999999
 21
20708.598156999989
 31
0.0
  0
LINE
  5
9578
  8
SUNPOU
  6
CONTINUOUS
 62
     4
 10
23082.34617700001
 20
20058.595254
 30
0.0
 11
23082.34617700001
 21
20788.598157
 31
0.0
  0
LINE
  5
9579
  8
SUNPOU
  6
CONTINUOUS
 62
     4
 10
23840.347166500029
 20
20058.595254
 30
0.0
 11
23840.347166500029
 21
20788.598157
 31
0.0
  0
LINE
  5
957A
  8
SUNPOU
  6
CONTINUOUS
 62
     4
 10
23082.34617700001
 20
20708.598156999989
 30
0.0
 11
23840.347166500029
 21
20708.598156999989
 31
0.0
  0
LINE
  5
957B
  8
SUNPOU
  6
CONTINUOUS
 62
     4
 10
22381.346176999999
 20
20058.595254
 30
0.0
 11
22381.346176999999
 21
20788.598157
 31
0.0
  0
LINE
  5
957C
  8
SUNPOU
  6
CONTINUOUS
 62
     4
 10
23082.34617700001
 20
20058.595254
 30
0.0
 11
23082.34617700001
 21
20788.598157
 31
0.0
  0
LINE
  5
957D
  8
SUNPOU
  6
CONTINUOUS
 62
     4
 10
22381.346176999999
 20
20708.598156999989
 30
0.0
 11
23082.34617700001
 21
20708.598156999989
 31
0.0
  0
LINE
  5
957E
  8
SUNPOU
  6
CONTINUOUS
 62
     4
 10
21680.346176999999
 20
20058.595254
 30
0.0
 11
21680.346176999999
 21
20788.598157
 31
0.0
  0
LINE
  5
957F
  8
SUNPOU
  6
CONTINUOUS
 62
     4
 10
22381.346176999999
 20
20058.595254
 30
0.0
 11
22381.346176999999
 21
20788.598157
 31
0.0
  0
LINE
  5
9580
  8
SUNPOU
  6
CONTINUOUS
 62
     4
 10
21680.346176999999
 20
20708.598156999989
 30
0.0
 11
22381.346176999999
 21
20708.598156999989
 31
0.0
  0
LINE
  5
9581
  8
SUNPOU
  6
CONTINUOUS
 62
     4
 10
20979.34617700001
 20
20058.595254
 30
0.0
 11
20979.34617700001
 21
20788.598157
 31
0.0
  0
LINE
  5
9582
  8
SUNPOU
  6
CONTINUOUS
 62
     4
 10
21680.346176999999
 20
20058.595254
 30
0.0
 11
21680.346176999999
 21
20788.598157
 31
0.0
  0
LINE
  5
9583
  8
SUNPOU
  6
CONTINUOUS
 62
     4
 10
20979.34617700001
 20
20708.598156999989
 30
0.0
 11
21680.346176999999
 21
20708.598156999989
 31
0.0
  0
LINE
  5
9584
  8
SUNPOU
  6
CONTINUOUS
 62
     4
 10
20462.353237999989
 20
5937.5591749999867
 30
0.0
 11
19662.354556999981
 21
5937.5591749999867
 31
0.0
  0
LINE
  5
9585
  8
SUNPOU
  6
CONTINUOUS
 62
     4
 10
20462.353237999989
 20
7829.0591749999858
 30
0.0
 11
19662.354556999981
 21
7829.0591749999858
 31
0.0
  0
LINE
  5
9586
  8
SUNPOU
  6
CONTINUOUS
 62
     4
 10
19742.354556999981
 20
5937.5591749999867
 30
0.0
 11
19742.354556999981
 21
7829.0591749999858
 31
0.0
  0
LINE
  5
9587
  8
SUNPOU
  6
CONTINUOUS
 62
     4
 10
20462.353237999989
 20
5937.5591749999867
 30
0.0
 11
19262.352247999988
 21
5937.5591749999867
 31
0.0
  0
LINE
  5
9588
  8
SUNPOU
  6
CONTINUOUS
 62
     4
 10
20429.853501999991
 20
8285.5591749999949
 30
0.0
 11
19262.352247999988
 21
8285.5591749999949
 31
0.0
  0
LINE
  5
9589
  8
SUNPOU
  6
CONTINUOUS
 62
     4
 10
19342.352247999988
 20
5937.5591749999867
 30
0.0
 11
19342.352247999988
 21
8285.5591749999949
 31
0.0
  0
LINE
  5
959A
  8
SUNPOU
  6
CONTINUOUS
 62
     4
 10
20686.353896999979
 20
5757.5593399999889
 30
0.0
 11
20686.353896999979
 21
4957.559339999988
 31
0.0
  0
LINE
  5
959B
  8
SUNPOU
  6
CONTINUOUS
 62
     4
 10
23766.85389699999
 20
5757.5593399999889
 30
0.0
 11
23766.85389699999
 21
4957.559339999988
 31
0.0
  0
LINE
  5
959C
  8
SUNPOU
  6
CONTINUOUS
 62
     4
 10
20686.353896999979
 20
5037.5593399999898
 30
0.0
 11
23766.85389699999
 21
5037.5593399999898
 31
0.0
  0
LINE
  5
959D
  8
SUNPOU
  6
CONTINUOUS
 62
     4
 10
23954.853897000001
 20
5757.5593399999889
 30
0.0
 11
23954.853897000001
 21
4957.559339999988
 31
0.0
  0
LINE
  5
959E
  8
SUNPOU
  6
CONTINUOUS
 62
     4
 10
25633.35389699999
 20
5757.5593399999889
 30
0.0
 11
25633.35389699999
 21
4957.559339999988
 31
0.0
  0
LINE
  5
959F
  8
SUNPOU
  6
CONTINUOUS
 62
     4
 10
23954.853897000001
 20
5037.5593399999898
 30
0.0
 11
25633.35389699999
 21
5037.5593399999898
 31
0.0
  0
LINE
  5
95A0
  8
SUNPOU
  6
CONTINUOUS
 62
     4
 10
23860.853896999979
 20
5494.9069169999902
 30
0.0
 11
23860.853896999979
 21
4557.5593399999889
 31
0.0
  0
LINE
  5
95A1
  8
SUNPOU
  6
CONTINUOUS
 62
     4
 10
25727.353897000001
 20
5494.9069169999902
 30
0.0
 11
25727.353897000001
 21
4557.5593399999889
 31
0.0
  0
LINE
  5
95A2
  8
SUNPOU
  6
CONTINUOUS
 62
     4
 10
23860.853896999979
 20
4637.5593399999898
 30
0.0
 11
25727.353897000001
 21
4637.5593399999898
 31
0.0
  0
LINE
  5
95A3
  8
SUNPOU
  6
CONTINUOUS
 62
     4
 10
20592.35389699999
 20
5494.9069169999902
 30
0.0
 11
20592.35389699999
 21
4557.5593399999889
 31
0.0
  0
LINE
  5
95A4
  8
SUNPOU
  6
CONTINUOUS
 62
     4
 10
23860.853896999979
 20
5494.9069169999902
 30
0.0
 11
23860.853896999979
 21
4557.5593399999889
 31
0.0
  0
LINE
  5
95A5
  8
SUNPOU
  6
CONTINUOUS
 62
     4
 10
20592.35389699999
 20
4637.5593399999898
 30
0.0
 11
23860.853896999979
 21
4637.5593399999898
 31
0.0
  0
LINE
  5
95A6
  8
SUNPOU
  6
CONTINUOUS
 62
     4
 10
25727.357855999991
 20
5494.9069169999902
 30
0.0
 11
25727.357855999991
 21
4557.5593399999889
 31
0.0
  0
LINE
  5
95A7
  8
SUNPOU
  6
CONTINUOUS
 62
     4
 10
25769.857855999991
 20
5757.5593399999889
 30
0.0
 11
25769.857855999991
 21
4557.5593399999889
 31
0.0
  0
LINE
  5
95A8
  8
SUNPOU
  6
CONTINUOUS
 62
     4
 10
25727.357855999991
 20
4637.5593399999898
 30
0.0
 11
25487.357855999991
 21
4637.5593399999898
 31
0.0
  0
LINE
  5
95A9
  8
SUNPOU
  6
CONTINUOUS
 62
     4
 10
25769.857855999991
 20
4637.5593399999898
 30
0.0
 11
26009.857855999991
 21
4637.5593399999898
 31
0.0
  0
LINE
  5
95AA
  8
SUNPOU
  6
CONTINUOUS
 62
     4
 10
25727.357855999991
 20
4637.5593399999898
 30
0.0
 11
25769.857855999991
 21
4637.5593399999898
 31
0.0
  0
LINE
  5
95AB
  8
SUNPOU
  6
CONTINUOUS
 62
     4
 10
20592.35389699999
 20
5494.9069169999902
 30
0.0
 11
20592.35389699999
 21
4557.5593399999889
 31
0.0
  0
LINE
  5
95AC
  8
SUNPOU
  6
CONTINUOUS
 62
     4
 10
20549.853897000001
 20
5757.5593399999889
 30
0.0
 11
20549.853897000001
 21
4557.5593399999889
 31
0.0
  0
LINE
  5
95AD
  8
SUNPOU
  6
CONTINUOUS
 62
     4
 10
20592.35389699999
 20
4637.5593399999898
 30
0.0
 11
20832.35389699999
 21
4637.5593399999898
 31
0.0
  0
LINE
  5
95AE
  8
SUNPOU
  6
CONTINUOUS
 62
     4
 10
20549.853897000001
 20
4637.5593399999898
 30
0.0
 11
20309.853897000001
 21
4637.5593399999898
 31
0.0
  0
LINE
  5
95AF
  8
SUNPOU
  6
CONTINUOUS
 62
     4
 10
20592.35389699999
 20
4637.5593399999898
 30
0.0
 11
20549.853897000001
 21
4637.5593399999898
 31
0.0
  0
LINE
  5
95B0
  8
SUNPOU
  6
CONTINUOUS
 62
     4
 10
20549.853897000001
 20
5757.5593399999889
 30
0.0
 11
20549.853897000001
 21
4157.5595049999874
 31
0.0
  0
LINE
  5
95B1
  8
SUNPOU
  6
CONTINUOUS
 62
     4
 10
25769.85389699999
 20
5757.5593399999889
 30
0.0
 11
25769.85389699999
 21
4157.5595049999874
 31
0.0
  0
LINE
  5
95B2
  8
SUNPOU
  6
CONTINUOUS
 62
     4
 10
20549.853897000001
 20
4237.5595049999874
 30
0.0
 11
25769.85389699999
 21
4237.5595049999874
 31
0.0
  0
LINE
  5
95B3
  8
SUNPOU
  6
CONTINUOUS
 62
     4
 10
7986.8524979091299
 20
8174.5591749999894
 30
0.0
 11
7986.8524979091299
 21
9565.5592009999837
 31
0.0
  0
LINE
  5
95B4
  8
SUNPOU
  6
CONTINUOUS
 62
     4
 10
14588.352497909131
 20
8306.4489984124266
 30
0.0
 11
14588.352497909131
 21
9565.5592009999837
 31
0.0
  0
LINE
  5
95B5
  8
SUNPOU
  6
CONTINUOUS
 62
     4
 10
7986.8524979091299
 20
9485.5592009999837
 30
0.0
 11
14588.352497909131
 21
9485.5592009999837
 31
0.0
  0
LINE
  5
95B6
  8
SUNPOU
  6
CONTINUOUS
 62
     4
 10
14438.352497909131
 20
8232.4692389999909
 30
0.0
 11
14438.352497909131
 21
9165.5608509999911
 31
0.0
  0
LINE
  5
95B7
  8
SUNPOU
  6
CONTINUOUS
 62
     4
 10
14588.352497909131
 20
8306.4489984124266
 30
0.0
 11
14588.352497909131
 21
9165.5608509999911
 31
0.0
  0
LINE
  5
95B8
  8
SUNPOU
  6
CONTINUOUS
 62
     4
 10
14438.352497909131
 20
9085.5608509999911
 30
0.0
 11
14198.352497909131
 21
9085.5608509999911
 31
0.0
  0
LINE
  5
95B9
  8
SUNPOU
  6
CONTINUOUS
 62
     4
 10
14588.352497909131
 20
9085.5608509999911
 30
0.0
 11
14828.352497909131
 21
9085.5608509999911
 31
0.0
  0
LINE
  5
95BA
  8
SUNPOU
  6
CONTINUOUS
 62
     4
 10
14438.352497909131
 20
9085.5608509999911
 30
0.0
 11
14588.352497909131
 21
9085.5608509999911
 31
0.0
  0
LINE
  5
95BB
  8
SUNPOU
  6
CONTINUOUS
 62
     4
 10
8166.8524979091308
 20
8044.7449506837984
 30
0.0
 11
8166.8524979091308
 21
9165.5608509999911
 31
0.0
  0
LINE
  5
95BC
  8
SUNPOU
  6
CONTINUOUS
 62
     4
 10
14438.352497909131
 20
8232.4692389999909
 30
0.0
 11
14438.352497909131
 21
9165.5608509999911
 31
0.0
  0
LINE
  5
95BD
  8
SUNPOU
  6
CONTINUOUS
 62
     4
 10
8166.8524979091308
 20
9085.5608509999911
 30
0.0
 11
14438.352497909131
 21
9085.5608509999911
 31
0.0
  0
LINE
  5
95BE
  8
SUNPOU
  6
CONTINUOUS
 62
     4
 10
7986.8524979091299
 20
8174.5591749999894
 30
0.0
 11
7986.8524979091299
 21
9165.5608509999875
 31
0.0
  0
LINE
  5
95BF
  8
SUNPOU
  6
CONTINUOUS
 62
     4
 10
8166.8524979091308
 20
8044.7449506837984
 30
0.0
 11
8166.8524979091308
 21
9165.5608509999875
 31
0.0
  0
LINE
  5
95C0
  8
SUNPOU
  6
CONTINUOUS
 62
     4
 10
7986.8524979091299
 20
9085.5608509999875
 30
0.0
 11
7746.8524979091308
 21
9085.5608509999875
 31
0.0
  0
LINE
  5
95C1
  8
SUNPOU
  6
CONTINUOUS
 62
     4
 10
8166.8524979091308
 20
9085.5608509999875
 30
0.0
 11
8406.8524979091289
 21
9085.5608509999875
 31
0.0
  0
LINE
  5
95C2
  8
SUNPOU
  6
CONTINUOUS
 62
     4
 10
7986.8524979091299
 20
9085.5608509999875
 30
0.0
 11
8166.8524979091308
 21
9085.5608509999875
 31
0.0
  0
LINE
  5
95C3
  8
SUNPOU
  6
CONTINUOUS
 62
     4
 10
14530.852497909131
 20
5937.5591749999903
 30
0.0
 11
15608.35289390913
 21
5937.5591749999903
 31
0.0
  0
LINE
  5
95C4
  8
SUNPOU
  6
CONTINUOUS
 62
     4
 10
14623.159757508511
 20
8285.5591749999894
 30
0.0
 11
15608.35289390913
 21
8285.5591749999894
 31
0.0
  0
LINE
  5
95C5
  8
SUNPOU
  6
CONTINUOUS
 62
     4
 10
15528.35289390913
 20
5937.5591749999903
 30
0.0
 11
15528.35289390913
 21
8285.5591749999894
 31
0.0
  0
LINE
  5
95C6
  8
SUNPOU
  6
CONTINUOUS
 62
     4
 10
8079.3524979091299
 20
5937.5591749999903
 30
0.0
 11
6996.8521019091349
 21
5937.5591749999903
 31
0.0
  0
LINE
  5
95C7
  8
SUNPOU
  6
CONTINUOUS
 62
     4
 10
7906.8524979091271
 20
8094.5591749999912
 30
0.0
 11
6996.8521019091349
 21
8094.5591749999912
 31
0.0
  0
LINE
  5
95C8
  8
SUNPOU
  6
CONTINUOUS
 62
     4
 10
7076.8521019091349
 20
5937.5591749999903
 30
0.0
 11
7076.8521019091349
 21
8094.5591749999912
 31
0.0
  0
LINE
  5
95C9
  8
SUNPOU
  6
CONTINUOUS
 62
     4
 10
8166.8524979091308
 20
5857.5591749999903
 30
0.0
 11
8166.8524979091308
 21
4157.5595049999911
 31
0.0
  0
LINE
  5
95CA
  8
SUNPOU
  6
CONTINUOUS
 62
     4
 10
14438.352497909131
 20
5857.5591749999903
 30
0.0
 11
14438.352497909131
 21
4157.5595049999911
 31
0.0
  0
LINE
  5
95CB
  8
SUNPOU
  6
CONTINUOUS
 62
     4
 10
8166.8524979091308
 20
4237.5595049999911
 30
0.0
 11
14438.352497909131
 21
4237.5595049999911
 31
0.0
  0
LINE
  5
95CC
  8
SUNPOU
  6
CONTINUOUS
 62
     4
 10
14395.852497909131
 20
5494.9069169999902
 30
0.0
 11
14395.852497909131
 21
4557.5593399999889
 31
0.0
  0
LINE
  5
95CD
  8
SUNPOU
  6
CONTINUOUS
 62
     4
 10
14438.352497909131
 20
5857.5591749999903
 30
0.0
 11
14438.352497909131
 21
4557.5593399999889
 31
0.0
  0
LINE
  5
95CE
  8
SUNPOU
  6
CONTINUOUS
 62
     4
 10
14395.852497909131
 20
4637.5593399999898
 30
0.0
 11
14155.852497909131
 21
4637.5593399999898
 31
0.0
  0
LINE
  5
95CF
  8
SUNPOU
  6
CONTINUOUS
 62
     4
 10
14438.352497909131
 20
4637.5593399999898
 30
0.0
 11
14678.352497909131
 21
4637.5593399999898
 31
0.0
  0
LINE
  5
95D0
  8
SUNPOU
  6
CONTINUOUS
 62
     4
 10
14395.852497909131
 20
4637.5593399999898
 30
0.0
 11
14438.352497909131
 21
4637.5593399999898
 31
0.0
  0
LINE
  5
95D1
  8
SUNPOU
  6
CONTINUOUS
 62
     4
 10
8209.3524979091253
 20
5494.9069169999902
 30
0.0
 11
8209.3524979091253
 21
4557.5593399999889
 31
0.0
  0
LINE
  5
95D2
  8
SUNPOU
  6
CONTINUOUS
 62
     4
 10
8166.8524979091308
 20
5857.5591749999903
 30
0.0
 11
8166.8524979091308
 21
4557.5593399999889
 31
0.0
  0
LINE
  5
95D3
  8
SUNPOU
  6
CONTINUOUS
 62
     4
 10
8209.3524979091253
 20
4637.5593399999898
 30
0.0
 11
8449.3524979091308
 21
4637.5593399999898
 31
0.0
  0
LINE
  5
95D4
  8
SUNPOU
  6
CONTINUOUS
 62
     4
 10
8166.8524979091308
 20
4637.5593399999898
 30
0.0
 11
7926.8524979091308
 21
4637.5593399999898
 31
0.0
  0
LINE
  5
95D5
  8
SUNPOU
  6
CONTINUOUS
 62
     4
 10
8209.3524979091253
 20
4637.5593399999898
 30
0.0
 11
8166.8524979091308
 21
4637.5593399999898
 31
0.0
  0
LINE
  5
95D6
  8
SUNPOU
  6
CONTINUOUS
 62
     4
 10
11127.352497909131
 20
5494.9069169999902
 30
0.0
 11
11127.352497909131
 21
4557.5593399999889
 31
0.0
  0
LINE
  5
95D7
  8
SUNPOU
  6
CONTINUOUS
 62
     4
 10
8209.3524979091253
 20
5494.9069169999902
 30
0.0
 11
8209.3524979091253
 21
4557.5593399999889
 31
0.0
  0
LINE
  5
95D8
  8
SUNPOU
  6
CONTINUOUS
 62
     4
 10
11127.352497909131
 20
4637.5593399999898
 30
0.0
 11
8209.3524979091253
 21
4637.5593399999898
 31
0.0
  0
LINE
  5
95D9
  8
SUNPOU
  6
CONTINUOUS
 62
     4
 10
11127.352497909131
 20
5494.9069169999902
 30
0.0
 11
11127.352497909131
 21
4557.5593399999889
 31
0.0
  0
LINE
  5
95DA
  8
SUNPOU
  6
CONTINUOUS
 62
     4
 10
14395.852497909131
 20
5494.9069169999902
 30
0.0
 11
14395.852497909131
 21
4557.5593399999889
 31
0.0
  0
LINE
  5
95DB
  8
SUNPOU
  6
CONTINUOUS
 62
     4
 10
11127.352497909131
 20
4637.5593399999898
 30
0.0
 11
14395.852497909131
 21
4637.5593399999898
 31
0.0
  0
TEXT
  5
95DC
  8
0
  6
CONTINUOUS
 62
     7
 10
12361.602497909131
 20
4717.5593399999889
 30
0.0
 40
160.0
  1
3268.5
  0
TEXT
  5
95DD
  8
0
  6
CONTINUOUS
 62
     7
 10
9401.6858312424647
 20
4717.5593399999889
 30
0.0
 40
160.0
  1
2918
  0
TEXT
  5
95DE
  8
0
  6
CONTINUOUS
 62
     7
 10
7569.6787888128219
 20
4717.5593399999889
 30
0.0
 40
160.0
  1
42.5
  0
TEXT
  5
95DF
  8
0
  6
CONTINUOUS
 62
     7
 10
14576.67113521894
 20
4717.5593399999889
 30
0.0
 40
160.0
  1
42.5
  0
TEXT
  5
95E0
  8
0
  6
CONTINUOUS
 62
     7
 10
10929.26916457579
 20
4317.5595049999911
 30
0.0
 40
160.0
  1
6271.5
  0
TEXT
  5
95E1
  8
0
  6
CONTINUOUS
 62
     7
 10
6996.8521019091331
 20
6237.3925083333261
 30
0.0
 40
160.0
  1
2157（2397）
 50
90.0
  0
TEXT
  5
95E2
  8
0
  6
CONTINUOUS
 62
     7
 10
15448.35289390913
 20
6306.22584166666
 30
0.0
 40
160.0
  1
2348（2588）
 50
90.0
  0
TEXT
  5
95E3
  8
0
  6
CONTINUOUS
 62
     7
 10
7573.5191645757959
 20
9165.5608509999875
 30
0.0
 40
160.0
  1
180
  0
TEXT
  5
95E4
  8
0
  6
CONTINUOUS
 62
     7
 10
10929.26916457579
 20
9165.5608509999911
 30
0.0
 40
160.0
  1
6271.5
  0
TEXT
  5
95E5
  8
0
  6
CONTINUOUS
 62
     7
 10
14655.01916457579
 20
9165.5608509999911
 30
0.0
 40
160.0
  1
150
  0
TEXT
  5
95E6
  8
0
  6
CONTINUOUS
 62
     7
 10
10927.602497909131
 20
9565.5592009999837
 30
0.0
 40
160.0
  1
6601.5
  0
TEXT
  5
95E7
  8
0
  6
CONTINUOUS
 62
     7
 10
22879.85389699999
 20
4317.5595049999874
 30
0.0
 40
160.0
  1
5220
  0
TEXT
  5
95E8
  8
0
  6
CONTINUOUS
 62
     7
 10
19983.814906741129
 20
4717.5593399999889
 30
0.0
 40
160.0
  1
42.5
  0
TEXT
  5
95E9
  8
0
  6
CONTINUOUS
 62
     7
 10
25855.896846258838
 20
4717.5593399999889
 30
0.0
 40
160.0
  1
42.5
  0
TEXT
  5
95EA
  8
0
  6
CONTINUOUS
 62
     7
 10
21826.603897000001
 20
4717.5593399999889
 30
0.0
 40
160.0
  1
3268.5
  0
TEXT
  5
95EB
  8
0
  6
CONTINUOUS
 62
     7
 10
24420.770563666661
 20
4717.5593399999889
 30
0.0
 40
160.0
  1
1866.5
  0
TEXT
  5
95EC
  8
0
  6
CONTINUOUS
 62
     7
 10
24330.10389699999
 20
5384.2260066666558
 30
0.0
 40
160.0
  1
有効開口巾
  0
TEXT
  5
95ED
  8
0
  6
CONTINUOUS
 62
     7
 10
24372.770563666661
 20
5117.5593399999889
 30
0.0
 40
160.0
  1
 1678.5
  0
TEXT
  5
95EE
  8
0
  6
CONTINUOUS
 62
     7
 10
21325.270563666661
 20
5117.5593399999889
 30
0.0
 40
160.0
  1
有効開口巾 3080.5
  0
TEXT
  5
95F3
  8
0
  6
CONTINUOUS
 62
     7
 10
19262.352247999988
 20
6306.2258416666591
 30
0.0
 40
160.0
  1
2348（2588）
 50
90.0
  0
TEXT
  5
95F4
  8
0
  6
CONTINUOUS
 62
     7
 10
19662.354556999981
 20
6001.5384132912623
 30
0.0
 40
160.0
  1
有効開口高サ 1891.5
 50
90.0
  0
TEXT
  5
95F5
  8
0
  6
CONTINUOUS
 62
     7
 10
21156.512843666671
 20
20468.598156999989
 30
0.0
 40
160.0
  1
701
  0
TEXT
  5
95F6
  8
0
  6
CONTINUOUS
 62
     7
 10
21857.512843666671
 20
20788.598157
 30
0.0
 40
160.0
  1
701
  0
TEXT
  5
95F7
  8
0
  6
CONTINUOUS
 62
     7
 10
22558.512843666671
 20
20788.598157
 30
0.0
 40
160.0
  1
701
  0
TEXT
  5
95F8
  8
0
  6
CONTINUOUS
 62
     7
 10
23248.013338416691
 20
20788.598157
 30
0.0
 40
160.0
  1
758
  0
TEXT
  5
95F9
  8
0
  6
CONTINUOUS
 62
     7
 10
19969.034197471199
 20
20788.598157
 30
0.0
 40
160.0
  1
42.5
  0
TEXT
  5
95FA
  8
0
  6
CONTINUOUS
 62
     7
 10
20672.679510333332
 20
20788.598157
 30
0.0
 40
160.0
  1
407.5
  0
TEXT
  5
95FB
  8
0
  6
CONTINUOUS
 62
     7
 10
25829.6581565288
 20
20788.598157
 30
0.0
 40
160.0
  1
42.5
  0
TEXT
  5
95FC
  8
0
  6
CONTINUOUS
 62
     7
 10
24425.012843666678
 20
20468.598156999989
 30
0.0
 40
160.0
  1
701
  0
TEXT
  5
95FD
  8
0
  6
CONTINUOUS
 62
     7
 10
25114.513338416691
 20
20788.598157
 30
0.0
 40
160.0
  1
758
  0
TEXT
  5
95FE
  8
0
  6
CONTINUOUS
 62
     7
 10
23941.17951033335
 20
20788.598157
 30
0.0
 40
160.0
  1
407.5
  0
TEXT
  5
95FF
  8
0
  6
CONTINUOUS
 62
     7
 10
27119.345781000011
 20
13133.54343760317
 30
0.0
 40
160.0
  1
42.5
 50
90.0
  0
TEXT
  5
9600
  8
0
  6
CONTINUOUS
 62
     7
 10
27119.345781000011
 20
20072.150500396761
 30
0.0
 40
160.0
  1
42.5
 50
90.0
  0
TEXT
  5
9601
  8
0
  6
CONTINUOUS
 62
     7
 10
27519.345781000011
 20
16469.513635666641
 30
0.0
 40
160.0
  1
6271.5
 50
90.0
  0
TEXT
  5
9602
  8
0
  6
CONTINUOUS
 62
     7
 10
27119.345781000011
 20
14983.846968999949
 30
0.0
 40
160.0
  1
3268.5
 50
90.0
  0
TEXT
  5
9603
  8
0
  6
CONTINUOUS
 62
     7
 10
27119.345781000011
 20
18210.430302333301
 30
0.0
 40
160.0
  1
2918
 50
90.0
  0
TEXT
  5
9604
  8
0
  6
CONTINUOUS
 62
     7
 10
26719.345781000011
 20
19343.763635666641
 30
0.0
 40
160.0
  1
758
 50
90.0
  0
TEXT
  5
9605
  8
0
  6
CONTINUOUS
 62
     7
 10
26719.345781000011
 20
18654.263635666641
 30
0.0
 40
160.0
  1
701
 50
90.0
  0
TEXT
  5
9606
  8
0
  6
CONTINUOUS
 62
     7
 10
26719.345781000011
 20
17953.263635666641
 30
0.0
 40
160.0
  1
701
 50
90.0
  0
TEXT
  5
9607
  8
0
  6
CONTINUOUS
 62
     7
 10
26719.345781000011
 20
17183.763635666641
 30
0.0
 40
160.0
  1
758
 50
90.0
  0
TEXT
  5
9608
  8
0
  6
CONTINUOUS
 62
     7
 10
26719.345781000011
 20
16425.763635666641
 30
0.0
 40
160.0
  1
758
 50
90.0
  0
TEXT
  5
9609
  8
0
  6
CONTINUOUS
 62
     7
 10
26719.345781000011
 20
15736.383891416641
 30
0.0
 40
160.0
  1
701
 50
90.0
  0
TEXT
  5
960A
  8
0
  6
CONTINUOUS
 62
     7
 10
26719.345781000011
 20
15035.383891416641
 30
0.0
 40
160.0
  1
701
 50
90.0
  0
TEXT
  5
960B
  8
0
  6
CONTINUOUS
 62
     7
 10
26719.345781000011
 20
14334.263635666641
 30
0.0
 40
160.0
  1
701
 50
90.0
  0
TEXT
  5
960C
  8
0
  6
CONTINUOUS
 62
     7
 10
27079.345781000011
 20
13822.417383203499
 30
0.0
 40
160.0
  1
407.5
 50
90.0
  0
TEXT
  5
960D
  8
0
  6
CONTINUOUS
 62
     7
 10
22859.34617700001
 20
12458.148884999961
 30
0.0
 40
160.0
  1
5220
  0
TEXT
  5
960E
  8
0
  6
CONTINUOUS
 62
     7
 10
20689.899849382091
 20
12858.148884999961
 30
0.0
 40
160.0
  1
42.5
  0
TEXT
  5
960F
  8
0
  6
CONTINUOUS
 62
     7
 10
25108.792504617912
 20
12858.148884999961
 30
0.0
 40
160.0
  1
42.5
  0
TEXT
  5
9610
  8
0
  6
CONTINUOUS
 62
     7
 10
25824.899849382091
 20
12858.148884999961
 30
0.0
 40
160.0
  1
42.5
  0
TEXT
  5
9611
  8
0
  6
CONTINUOUS
 62
     7
 10
19973.792504617912
 20
12858.148884999961
 30
0.0
 40
160.0
  1
42.5
  0
TEXT
  5
9613
  8
0
  6
CONTINUOUS
 62
     7
 10
7840.8498311119347
 20
20809.100677999999
 30
0.0
 40
160.0
  1
85.5
  0
TEXT
  5
9614
  8
0
  6
CONTINUOUS
 62
     7
 10
9691.5965371351922
 20
20809.100677999999
 30
0.0
 40
160.0
  1
3268.5
  0
TEXT
  5
9615
  8
0
  6
CONTINUOUS
 62
     7
 10
13728.83136715842
 20
20809.100677999999
 30
0.0
 40
160.0
  1
85.5
  0
TEXT
  5
9616
  8
0
  6
CONTINUOUS
 62
     7
 10
12285.75132780182
 20
20809.100677999999
 30
0.0
 40
160.0
  1
1866.5
  0
TEXT
  5
9617
  8
0
  6
CONTINUOUS
 62
     7
 10
7847.8408231351787
 20
20325.758106666679
 30
0.0
 40
160.0
  1
10
 50
90.0
  0
TEXT
  5
9618
  8
0
  6
CONTINUOUS
 62
     7
 10
7447.8408231351787
 20
20268.050715807669
 30
0.0
 40
160.0
  1
222.5
 50
90.0
  0
TEXT
  5
9619
  8
0
  6
CONTINUOUS
 62
     7
 10
7447.840823135175
 20
18230.928864333309
 30
0.0
 40
160.0
  1
2918
 50
90.0
  0
TEXT
  5
961A
  8
0
  6
CONTINUOUS
 62
     7
 10
7447.8408231351787
 20
15004.345530999981
 30
0.0
 40
160.0
  1
3268.5
 50
90.0
  0
TEXT
  5
961B
  8
0
  6
CONTINUOUS
 62
     7
 10
7447.8408231351787
 20
12962.14252070262
 30
0.0
 40
160.0
  1
192.5
 50
90.0
  0
ARC
  5
961C
  8
0
  6
BYBLOCK
 62
     0
 10
7527.8408231351777
 20
13770.09553099999
 30
0.0
 40
15.0
 50
90.0
 51
270.0
  0
ARC
  5
961D
  8
0
  6
BYBLOCK
 62
     0
 10
7527.8408231351777
 20
13770.09553099999
 30
0.0
 40
15.0
 50
270.0
 51
90.0
  0
ARC
  5
961E
  8
0
  6
BYBLOCK
 62
     0
 10
7527.8408231351777
 20
13577.600215999981
 30
0.0
 40
15.0
 50
270.0
 51
90.0
  0
ARC
  5
961F
  8
0
  6
BYBLOCK
 62
     0
 10
7527.8408231351777
 20
13577.600215999981
 30
0.0
 40
15.0
 50
90.0
 51
270.0
  0
ARC
  5
9620
  8
0
  6
BYBLOCK
 62
     0
 10
7527.8408231351777
 20
13770.09553099999
 30
0.0
 40
15.0
 50
90.0
 51
270.0
  0
ARC
  5
9621
  8
0
  6
BYBLOCK
 62
     0
 10
7527.8408231351777
 20
13770.09553099999
 30
0.0
 40
15.0
 50
270.0
 51
90.0
  0
ARC
  5
9622
  8
0
  6
BYBLOCK
 62
     0
 10
7527.8408231351777
 20
17038.595530999992
 30
0.0
 40
15.0
 50
270.0
 51
90.0
  0
ARC
  5
9623
  8
0
  6
BYBLOCK
 62
     0
 10
7527.8408231351777
 20
17038.595530999992
 30
0.0
 40
15.0
 50
90.0
 51
270.0
  0
ARC
  5
9624
  8
0
  6
BYBLOCK
 62
     0
 10
7527.8408231351777
 20
17038.595530999992
 30
0.0
 40
15.0
 50
90.0
 51
270.0
  0
ARC
  5
9625
  8
0
  6
BYBLOCK
 62
     0
 10
7527.8408231351777
 20
17038.595530999992
 30
0.0
 40
15.0
 50
270.0
 51
90.0
  0
ARC
  5
9626
  8
0
  6
BYBLOCK
 62
     0
 10
7527.8408231351777
 20
19956.595530999992
 30
0.0
 40
15.0
 50
270.0
 51
90.0
  0
ARC
  5
9627
  8
0
  6
BYBLOCK
 62
     0
 10
7527.8408231351777
 20
19956.595530999992
 30
0.0
 40
15.0
 50
90.0
 51
270.0
  0
ARC
  5
9628
  8
0
  6
BYBLOCK
 62
     0
 10
7527.8408231351777
 20
19956.595530999992
 30
0.0
 40
15.0
 50
270.0
 51
90.0
  0
ARC
  5
9629
  8
0
  6
BYBLOCK
 62
     0
 10
7527.8408231351777
 20
19956.595530999992
 30
0.0
 40
15.0
 50
90.0
 51
270.0
  0
ARC
  5
962A
  8
0
  6
BYBLOCK
 62
     0
 10
7527.8408231351777
 20
20179.091440000018
 30
0.0
 40
15.0
 50
90.0
 51
270.0
  0
ARC
  5
962B
  8
0
  6
BYBLOCK
 62
     0
 10
7527.8408231351777
 20
20179.091440000018
 30
0.0
 40
15.0
 50
270.0
 51
90.0
  0
ARC
  5
962C
  8
0
  6
BYBLOCK
 62
     0
 10
7927.8408231351814
 20
20169.090911999989
 30
0.0
 40
15.0
 50
270.0
 51
90.0
  0
ARC
  5
962D
  8
0
  6
BYBLOCK
 62
     0
 10
7927.8408231351814
 20
20169.090911999989
 30
0.0
 40
15.0
 50
90.0
 51
270.0
  0
ARC
  5
962E
  8
0
  6
BYBLOCK
 62
     0
 10
7927.8408231351814
 20
20179.091440000018
 30
0.0
 40
15.0
 50
90.0
 51
270.0
  0
ARC
  5
962F
  8
0
  6
BYBLOCK
 62
     0
 10
7927.8408231351814
 20
20179.091440000018
 30
0.0
 40
15.0
 50
270.0
 51
90.0
  0
ARC
  5
9630
  8
0
  6
BYBLOCK
 62
     0
 10
11725.834661135161
 20
20729.100677999999
 30
0.0
 40
15.0
 50
0.0
 51
180.0
  0
ARC
  5
9631
  8
0
  6
BYBLOCK
 62
     0
 10
11725.834661135161
 20
20729.100677999999
 30
0.0
 40
15.0
 50
180.0
 51
0.0
  0
ARC
  5
9632
  8
0
  6
BYBLOCK
 62
     0
 10
13592.334661135161
 20
20729.100677999999
 30
0.0
 40
15.0
 50
180.0
 51
0.0
  0
ARC
  5
9633
  8
0
  6
BYBLOCK
 62
     0
 10
13592.334661135161
 20
20729.100677999999
 30
0.0
 40
15.0
 50
0.0
 51
180.0
  0
ARC
  5
9634
  8
0
  6
BYBLOCK
 62
     0
 10
13592.334661135161
 20
20729.100677999999
 30
0.0
 40
15.0
 50
180.0
 51
0.0
  0
ARC
  5
9635
  8
0
  6
BYBLOCK
 62
     0
 10
13592.334661135161
 20
20729.100677999999
 30
0.0
 40
15.0
 50
0.0
 51
180.0
  0
ARC
  5
9636
  8
0
  6
BYBLOCK
 62
     0
 10
13677.834661135161
 20
20729.100677999999
 30
0.0
 40
15.0
 50
0.0
 51
180.0
  0
ARC
  5
9637
  8
0
  6
BYBLOCK
 62
     0
 10
13677.834661135161
 20
20729.100677999999
 30
0.0
 40
15.0
 50
180.0
 51
0.0
  0
ARC
  5
9638
  8
0
  6
BYBLOCK
 62
     0
 10
11725.84653713519
 20
20729.100677999999
 30
0.0
 40
15.0
 50
180.0
 51
0.0
  0
ARC
  5
9639
  8
0
  6
BYBLOCK
 62
     0
 10
11725.84653713519
 20
20729.100677999999
 30
0.0
 40
15.0
 50
0.0
 51
180.0
  0
ARC
  5
963A
  8
0
  6
BYBLOCK
 62
     0
 10
8457.3465371351922
 20
20729.100677999999
 30
0.0
 40
15.0
 50
0.0
 51
180.0
  0
ARC
  5
963B
  8
0
  6
BYBLOCK
 62
     0
 10
8457.3465371351922
 20
20729.100677999999
 30
0.0
 40
15.0
 50
180.0
 51
0.0
  0
ARC
  5
963C
  8
0
  6
BYBLOCK
 62
     0
 10
8457.3465371351922
 20
20729.100677999999
 30
0.0
 40
15.0
 50
0.0
 51
180.0
  0
ARC
  5
963D
  8
0
  6
BYBLOCK
 62
     0
 10
8457.3465371351922
 20
20729.100677999999
 30
0.0
 40
15.0
 50
180.0
 51
0.0
  0
ARC
  5
963E
  8
0
  6
BYBLOCK
 62
     0
 10
8371.8465371351922
 20
20729.100677999999
 30
0.0
 40
15.0
 50
180.0
 51
0.0
  0
ARC
  5
963F
  8
0
  6
BYBLOCK
 62
     0
 10
8371.8465371351922
 20
20729.100677999999
 30
0.0
 40
15.0
 50
0.0
 51
180.0
  0
ARC
  5
9644
  8
0
  6
BYBLOCK
 62
     0
 10
20571.846177000021
 20
12778.148884999961
 30
0.0
 40
15.0
 50
0.0
 51
180.0
  0
ARC
  5
9645
  8
0
  6
BYBLOCK
 62
     0
 10
20571.846177000021
 20
12778.148884999961
 30
0.0
 40
15.0
 50
180.0
 51
0.0
  0
ARC
  5
9646
  8
0
  6
BYBLOCK
 62
     0
 10
20529.343934000011
 20
12778.148884999961
 30
0.0
 40
15.0
 50
180.0
 51
0.0
  0
ARC
  5
9647
  8
0
  6
BYBLOCK
 62
     0
 10
20529.343934000011
 20
12778.148884999961
 30
0.0
 40
15.0
 50
0.0
 51
180.0
  0
ARC
  5
9648
  8
0
  6
BYBLOCK
 62
     0
 10
25706.84617700001
 20
12778.148884999961
 30
0.0
 40
15.0
 50
180.0
 51
0.0
  0
ARC
  5
9649
  8
0
  6
BYBLOCK
 62
     0
 10
25706.84617700001
 20
12778.148884999961
 30
0.0
 40
15.0
 50
0.0
 51
180.0
  0
ARC
  5
964A
  8
0
  6
BYBLOCK
 62
     0
 10
25749.348420000009
 20
12778.148884999961
 30
0.0
 40
15.0
 50
0.0
 51
180.0
  0
ARC
  5
964B
  8
0
  6
BYBLOCK
 62
     0
 10
25749.348420000009
 20
12778.148884999961
 30
0.0
 40
15.0
 50
180.0
 51
0.0
  0
ARC
  5
964C
  8
0
  6
BYBLOCK
 62
     0
 10
25706.84617700001
 20
12778.148884999961
 30
0.0
 40
15.0
 50
0.0
 51
180.0
  0
ARC
  5
964D
  8
0
  6
BYBLOCK
 62
     0
 10
25706.84617700001
 20
12778.148884999961
 30
0.0
 40
15.0
 50
180.0
 51
0.0
  0
ARC
  5
964E
  8
0
  6
BYBLOCK
 62
     0
 10
25664.343934000011
 20
12778.148884999961
 30
0.0
 40
15.0
 50
180.0
 51
0.0
  0
ARC
  5
964F
  8
0
  6
BYBLOCK
 62
     0
 10
25664.343934000011
 20
12778.148884999961
 30
0.0
 40
15.0
 50
0.0
 51
180.0
  0
ARC
  5
9650
  8
0
  6
BYBLOCK
 62
     0
 10
20571.846177000021
 20
12778.148884999961
 30
0.0
 40
15.0
 50
180.0
 51
0.0
  0
ARC
  5
9651
  8
0
  6
BYBLOCK
 62
     0
 10
20571.846177000021
 20
12778.148884999961
 30
0.0
 40
15.0
 50
0.0
 51
180.0
  0
ARC
  5
9652
  8
0
  6
BYBLOCK
 62
     0
 10
20614.348419999998
 20
12778.148884999961
 30
0.0
 40
15.0
 50
0.0
 51
180.0
  0
ARC
  5
9653
  8
0
  6
BYBLOCK
 62
     0
 10
20614.348419999998
 20
12778.148884999961
 30
0.0
 40
15.0
 50
180.0
 51
0.0
  0
ARC
  5
9654
  8
0
  6
BYBLOCK
 62
     0
 10
20529.343934000011
 20
12378.148884999961
 30
0.0
 40
15.0
 50
0.0
 51
180.0
  0
ARC
  5
9655
  8
0
  6
BYBLOCK
 62
     0
 10
20529.343934000011
 20
12378.148884999961
 30
0.0
 40
15.0
 50
180.0
 51
0.0
  0
ARC
  5
9656
  8
0
  6
BYBLOCK
 62
     0
 10
25749.348420000009
 20
12378.148884999961
 30
0.0
 40
15.0
 50
180.0
 51
0.0
  0
ARC
  5
9657
  8
0
  6
BYBLOCK
 62
     0
 10
25749.348420000009
 20
12378.148884999961
 30
0.0
 40
15.0
 50
0.0
 51
180.0
  0
ARC
  5
9658
  8
0
  6
BYBLOCK
 62
     0
 10
26799.345781000011
 20
14157.096968999949
 30
0.0
 40
15.0
 50
270.0
 51
90.0
  0
ARC
  5
9659
  8
0
  6
BYBLOCK
 62
     0
 10
26799.345781000011
 20
14157.096968999949
 30
0.0
 40
15.0
 50
90.0
 51
270.0
  0
ARC
  5
965A
  8
0
  6
BYBLOCK
 62
     0
 10
26799.345781000011
 20
13749.59696899996
 30
0.0
 40
15.0
 50
90.0
 51
270.0
  0
ARC
  5
965B
  8
0
  6
BYBLOCK
 62
     0
 10
26799.345781000011
 20
13749.59696899996
 30
0.0
 40
15.0
 50
270.0
 51
90.0
  0
ARC
  5
965C
  8
0
  6
BYBLOCK
 62
     0
 10
26799.345781000011
 20
14858.096968999949
 30
0.0
 40
15.0
 50
270.0
 51
90.0
  0
ARC
  5
965D
  8
0
  6
BYBLOCK
 62
     0
 10
26799.345781000011
 20
14858.096968999949
 30
0.0
 40
15.0
 50
90.0
 51
270.0
  0
ARC
  5
965E
  8
0
  6
BYBLOCK
 62
     0
 10
26799.345781000011
 20
14157.096968999949
 30
0.0
 40
15.0
 50
90.0
 51
270.0
  0
ARC
  5
965F
  8
0
  6
BYBLOCK
 62
     0
 10
26799.345781000011
 20
14157.096968999949
 30
0.0
 40
15.0
 50
270.0
 51
90.0
  0
ARC
  5
9660
  8
0
  6
BYBLOCK
 62
     0
 10
26799.345781000011
 20
15559.33748049998
 30
0.0
 40
15.0
 50
270.0
 51
90.0
  0
ARC
  5
9661
  8
0
  6
BYBLOCK
 62
     0
 10
26799.345781000011
 20
15559.33748049998
 30
0.0
 40
15.0
 50
90.0
 51
270.0
  0
ARC
  5
9662
  8
0
  6
BYBLOCK
 62
     0
 10
26799.345781000011
 20
14858.096968999949
 30
0.0
 40
15.0
 50
90.0
 51
270.0
  0
ARC
  5
9663
  8
0
  6
BYBLOCK
 62
     0
 10
26799.345781000011
 20
14858.096968999949
 30
0.0
 40
15.0
 50
270.0
 51
90.0
  0
ARC
  5
9664
  8
0
  6
BYBLOCK
 62
     0
 10
26799.345781000011
 20
16260.09696899996
 30
0.0
 40
15.0
 50
270.0
 51
90.0
  0
ARC
  5
9665
  8
0
  6
BYBLOCK
 62
     0
 10
26799.345781000011
 20
16260.09696899996
 30
0.0
 40
15.0
 50
90.0
 51
270.0
  0
ARC
  5
9666
  8
0
  6
BYBLOCK
 62
     0
 10
26799.345781000011
 20
15559.33748049998
 30
0.0
 40
15.0
 50
90.0
 51
270.0
  0
ARC
  5
9667
  8
0
  6
BYBLOCK
 62
     0
 10
26799.345781000011
 20
15559.33748049998
 30
0.0
 40
15.0
 50
270.0
 51
90.0
  0
ARC
  5
9668
  8
0
  6
BYBLOCK
 62
     0
 10
26799.345781000011
 20
17018.096968999958
 30
0.0
 40
15.0
 50
270.0
 51
90.0
  0
ARC
  5
9669
  8
0
  6
BYBLOCK
 62
     0
 10
26799.345781000011
 20
17018.096968999958
 30
0.0
 40
15.0
 50
90.0
 51
270.0
  0
ARC
  5
966A
  8
0
  6
BYBLOCK
 62
     0
 10
26799.345781000011
 20
16260.09696899996
 30
0.0
 40
15.0
 50
90.0
 51
270.0
  0
ARC
  5
966B
  8
0
  6
BYBLOCK
 62
     0
 10
26799.345781000011
 20
16260.09696899996
 30
0.0
 40
15.0
 50
270.0
 51
90.0
  0
ARC
  5
966C
  8
0
  6
BYBLOCK
 62
     0
 10
26799.345781000011
 20
17776.096968999969
 30
0.0
 40
15.0
 50
270.0
 51
90.0
  0
ARC
  5
966D
  8
0
  6
BYBLOCK
 62
     0
 10
26799.345781000011
 20
17776.096968999969
 30
0.0
 40
15.0
 50
90.0
 51
270.0
  0
ARC
  5
966E
  8
0
  6
BYBLOCK
 62
     0
 10
26799.345781000011
 20
17018.096968999958
 30
0.0
 40
15.0
 50
90.0
 51
270.0
  0
ARC
  5
966F
  8
0
  6
BYBLOCK
 62
     0
 10
26799.345781000011
 20
17018.096968999958
 30
0.0
 40
15.0
 50
270.0
 51
90.0
  0
ARC
  5
9670
  8
0
  6
BYBLOCK
 62
     0
 10
26799.345781000011
 20
18477.096968999969
 30
0.0
 40
15.0
 50
270.0
 51
90.0
  0
ARC
  5
9671
  8
0
  6
BYBLOCK
 62
     0
 10
26799.345781000011
 20
18477.096968999969
 30
0.0
 40
15.0
 50
90.0
 51
270.0
  0
ARC
  5
9672
  8
0
  6
BYBLOCK
 62
     0
 10
26799.345781000011
 20
17776.096968999969
 30
0.0
 40
15.0
 50
90.0
 51
270.0
  0
ARC
  5
9673
  8
0
  6
BYBLOCK
 62
     0
 10
26799.345781000011
 20
17776.096968999969
 30
0.0
 40
15.0
 50
270.0
 51
90.0
  0
ARC
  5
9674
  8
0
  6
BYBLOCK
 62
     0
 10
26799.345781000011
 20
19178.096968999969
 30
0.0
 40
15.0
 50
270.0
 51
90.0
  0
ARC
  5
9675
  8
0
  6
BYBLOCK
 62
     0
 10
26799.345781000011
 20
19178.096968999969
 30
0.0
 40
15.0
 50
90.0
 51
270.0
  0
ARC
  5
9676
  8
0
  6
BYBLOCK
 62
     0
 10
26799.345781000011
 20
18477.096968999969
 30
0.0
 40
15.0
 50
90.0
 51
270.0
  0
ARC
  5
9677
  8
0
  6
BYBLOCK
 62
     0
 10
26799.345781000011
 20
18477.096968999969
 30
0.0
 40
15.0
 50
270.0
 51
90.0
  0
ARC
  5
9678
  8
0
  6
BYBLOCK
 62
     0
 10
26799.345781000011
 20
19936.096968999958
 30
0.0
 40
15.0
 50
270.0
 51
90.0
  0
ARC
  5
9679
  8
0
  6
BYBLOCK
 62
     0
 10
26799.345781000011
 20
19936.096968999958
 30
0.0
 40
15.0
 50
90.0
 51
270.0
  0
ARC
  5
967A
  8
0
  6
BYBLOCK
 62
     0
 10
26799.345781000011
 20
19178.096968999969
 30
0.0
 40
15.0
 50
90.0
 51
270.0
  0
ARC
  5
967B
  8
0
  6
BYBLOCK
 62
     0
 10
26799.345781000011
 20
19178.096968999969
 30
0.0
 40
15.0
 50
270.0
 51
90.0
  0
ARC
  5
967C
  8
0
  6
BYBLOCK
 62
     0
 10
27199.345781000011
 20
17018.096968999958
 30
0.0
 40
15.0
 50
90.0
 51
270.0
  0
ARC
  5
967D
  8
0
  6
BYBLOCK
 62
     0
 10
27199.345781000011
 20
17018.096968999958
 30
0.0
 40
15.0
 50
270.0
 51
90.0
  0
ARC
  5
967E
  8
0
  6
BYBLOCK
 62
     0
 10
27199.345781000011
 20
19936.096968999958
 30
0.0
 40
15.0
 50
270.0
 51
90.0
  0
ARC
  5
967F
  8
0
  6
BYBLOCK
 62
     0
 10
27199.345781000011
 20
19936.096968999958
 30
0.0
 40
15.0
 50
90.0
 51
270.0
  0
ARC
  5
9680
  8
0
  6
BYBLOCK
 62
     0
 10
27199.345781000011
 20
13749.59696899996
 30
0.0
 40
15.0
 50
90.0
 51
270.0
  0
ARC
  5
9681
  8
0
  6
BYBLOCK
 62
     0
 10
27199.345781000011
 20
13749.59696899996
 30
0.0
 40
15.0
 50
270.0
 51
90.0
  0
ARC
  5
9682
  8
0
  6
BYBLOCK
 62
     0
 10
27199.345781000011
 20
17018.096968999958
 30
0.0
 40
15.0
 50
270.0
 51
90.0
  0
ARC
  5
9683
  8
0
  6
BYBLOCK
 62
     0
 10
27199.345781000011
 20
17018.096968999958
 30
0.0
 40
15.0
 50
90.0
 51
270.0
  0
ARC
  5
9684
  8
0
  6
BYBLOCK
 62
     0
 10
27599.345781000011
 20
19978.594263999959
 30
0.0
 40
15.0
 50
270.0
 51
90.0
  0
ARC
  5
9685
  8
0
  6
BYBLOCK
 62
     0
 10
27599.345781000011
 20
19978.594263999959
 30
0.0
 40
15.0
 50
90.0
 51
270.0
  0
ARC
  5
9686
  8
0
  6
BYBLOCK
 62
     0
 10
27599.345781000011
 20
13707.09967399997
 30
0.0
 40
15.0
 50
90.0
 51
270.0
  0
ARC
  5
9687
  8
0
  6
BYBLOCK
 62
     0
 10
27599.345781000011
 20
13707.09967399997
 30
0.0
 40
15.0
 50
270.0
 51
90.0
  0
ARC
  5
9688
  8
0
  6
BYBLOCK
 62
     0
 10
27199.345781000011
 20
19936.096968999958
 30
0.0
 40
15.0
 50
270.0
 51
90.0
  0
ARC
  5
9689
  8
0
  6
BYBLOCK
 62
     0
 10
27199.345781000011
 20
19936.096968999958
 30
0.0
 40
15.0
 50
90.0
 51
270.0
  0
ARC
  5
968A
  8
0
  6
BYBLOCK
 62
     0
 10
27199.345781000011
 20
19978.594263999959
 30
0.0
 40
15.0
 50
90.0
 51
270.0
  0
ARC
  5
968B
  8
0
  6
BYBLOCK
 62
     0
 10
27199.345781000011
 20
19978.594263999959
 30
0.0
 40
15.0
 50
270.0
 51
90.0
  0
ARC
  5
968C
  8
0
  6
BYBLOCK
 62
     0
 10
27199.345781000011
 20
13749.59696899996
 30
0.0
 40
15.0
 50
90.0
 51
270.0
  0
ARC
  5
968D
  8
0
  6
BYBLOCK
 62
     0
 10
27199.345781000011
 20
13749.59696899996
 30
0.0
 40
15.0
 50
270.0
 51
90.0
  0
ARC
  5
968E
  8
0
  6
BYBLOCK
 62
     0
 10
27199.345781000011
 20
13707.09967399997
 30
0.0
 40
15.0
 50
270.0
 51
90.0
  0
ARC
  5
968F
  8
0
  6
BYBLOCK
 62
     0
 10
27199.345781000011
 20
13707.09967399997
 30
0.0
 40
15.0
 50
90.0
 51
270.0
  0
ARC
  5
9690
  8
0
  6
BYBLOCK
 62
     0
 10
23840.346177000021
 20
20708.598156999989
 30
0.0
 40
15.0
 50
180.0
 51
0.0
  0
ARC
  5
9691
  8
0
  6
BYBLOCK
 62
     0
 10
23840.346177000021
 20
20708.598156999989
 30
0.0
 40
15.0
 50
0.0
 51
180.0
  0
ARC
  5
9692
  8
0
  6
BYBLOCK
 62
     0
 10
24247.846177000021
 20
20708.598156999989
 30
0.0
 40
15.0
 50
0.0
 51
180.0
  0
ARC
  5
9693
  8
0
  6
BYBLOCK
 62
     0
 10
24247.846177000021
 20
20708.598156999989
 30
0.0
 40
15.0
 50
180.0
 51
0.0
  0
ARC
  5
9694
  8
0
  6
BYBLOCK
 62
     0
 10
24948.846177000021
 20
20708.598156999989
 30
0.0
 40
15.0
 50
0.0
 51
180.0
  0
ARC
  5
9695
  8
0
  6
BYBLOCK
 62
     0
 10
24948.846177000021
 20
20708.598156999989
 30
0.0
 40
15.0
 50
180.0
 51
0.0
  0
ARC
  5
9696
  8
0
  6
BYBLOCK
 62
     0
 10
25706.847166500022
 20
20708.598156999989
 30
0.0
 40
15.0
 50
180.0
 51
0.0
  0
ARC
  5
9697
  8
0
  6
BYBLOCK
 62
     0
 10
25706.847166500022
 20
20708.598156999989
 30
0.0
 40
15.0
 50
0.0
 51
180.0
  0
ARC
  5
9698
  8
0
  6
BYBLOCK
 62
     0
 10
24247.846177000021
 20
20708.598156999989
 30
0.0
 40
15.0
 50
0.0
 51
180.0
  0
ARC
  5
9699
  8
0
  6
BYBLOCK
 62
     0
 10
24247.846177000021
 20
20708.598156999989
 30
0.0
 40
15.0
 50
180.0
 51
0.0
  0
ARC
  5
969A
  8
0
  6
BYBLOCK
 62
     0
 10
24948.846177000021
 20
20708.598156999989
 30
0.0
 40
15.0
 50
180.0
 51
0.0
  0
ARC
  5
969B
  8
0
  6
BYBLOCK
 62
     0
 10
24948.846177000021
 20
20708.598156999989
 30
0.0
 40
15.0
 50
0.0
 51
180.0
  0
ARC
  5
969C
  8
0
  6
BYBLOCK
 62
     0
 10
25706.84617700001
 20
20708.598156999989
 30
0.0
 40
15.0
 50
180.0
 51
0.0
  0
ARC
  5
969D
  8
0
  6
BYBLOCK
 62
     0
 10
25706.84617700001
 20
20708.598156999989
 30
0.0
 40
15.0
 50
0.0
 51
180.0
  0
ARC
  5
969E
  8
0
  6
BYBLOCK
 62
     0
 10
25749.342482000011
 20
20708.598156999989
 30
0.0
 40
15.0
 50
0.0
 51
180.0
  0
ARC
  5
969F
  8
0
  6
BYBLOCK
 62
     0
 10
25749.342482000011
 20
20708.598156999989
 30
0.0
 40
15.0
 50
180.0
 51
0.0
  0
ARC
  5
96A0
  8
0
  6
BYBLOCK
 62
     0
 10
20571.846177000021
 20
20708.598156999989
 30
0.0
 40
15.0
 50
180.0
 51
0.0
  0
ARC
  5
96A1
  8
0
  6
BYBLOCK
 62
     0
 10
20571.846177000021
 20
20708.598156999989
 30
0.0
 40
15.0
 50
0.0
 51
180.0
  0
ARC
  5
96A2
  8
0
  6
BYBLOCK
 62
     0
 10
20979.34617700001
 20
20708.598156999989
 30
0.0
 40
15.0
 50
0.0
 51
180.0
  0
ARC
  5
96A3
  8
0
  6
BYBLOCK
 62
     0
 10
20979.34617700001
 20
20708.598156999989
 30
0.0
 40
15.0
 50
180.0
 51
0.0
  0
ARC
  5
96A4
  8
0
  6
BYBLOCK
 62
     0
 10
20571.846177000021
 20
20708.598156999989
 30
0.0
 40
15.0
 50
0.0
 51
180.0
  0
ARC
  5
96A5
  8
0
  6
BYBLOCK
 62
     0
 10
20571.846177000021
 20
20708.598156999989
 30
0.0
 40
15.0
 50
180.0
 51
0.0
  0
ARC
  5
96A6
  8
0
  6
BYBLOCK
 62
     0
 10
20529.349871999999
 20
20708.598156999989
 30
0.0
 40
15.0
 50
180.0
 51
0.0
  0
ARC
  5
96A7
  8
0
  6
BYBLOCK
 62
     0
 10
20529.349871999999
 20
20708.598156999989
 30
0.0
 40
15.0
 50
0.0
 51
180.0
  0
ARC
  5
96A8
  8
0
  6
BYBLOCK
 62
     0
 10
23082.34617700001
 20
20708.598156999989
 30
0.0
 40
15.0
 50
0.0
 51
180.0
  0
ARC
  5
96A9
  8
0
  6
BYBLOCK
 62
     0
 10
23082.34617700001
 20
20708.598156999989
 30
0.0
 40
15.0
 50
180.0
 51
0.0
  0
ARC
  5
96AA
  8
0
  6
BYBLOCK
 62
     0
 10
23840.347166500029
 20
20708.598156999989
 30
0.0
 40
15.0
 50
180.0
 51
0.0
  0
ARC
  5
96AB
  8
0
  6
BYBLOCK
 62
     0
 10
23840.347166500029
 20
20708.598156999989
 30
0.0
 40
15.0
 50
0.0
 51
180.0
  0
ARC
  5
96AC
  8
0
  6
BYBLOCK
 62
     0
 10
22381.346176999999
 20
20708.598156999989
 30
0.0
 40
15.0
 50
0.0
 51
180.0
  0
ARC
  5
96AD
  8
0
  6
BYBLOCK
 62
     0
 10
22381.346176999999
 20
20708.598156999989
 30
0.0
 40
15.0
 50
180.0
 51
0.0
  0
ARC
  5
96AE
  8
0
  6
BYBLOCK
 62
     0
 10
23082.34617700001
 20
20708.598156999989
 30
0.0
 40
15.0
 50
180.0
 51
0.0
  0
ARC
  5
96AF
  8
0
  6
BYBLOCK
 62
     0
 10
23082.34617700001
 20
20708.598156999989
 30
0.0
 40
15.0
 50
0.0
 51
180.0
  0
ARC
  5
96B0
  8
0
  6
BYBLOCK
 62
     0
 10
21680.346176999999
 20
20708.598156999989
 30
0.0
 40
15.0
 50
0.0
 51
180.0
  0
ARC
  5
96B1
  8
0
  6
BYBLOCK
 62
     0
 10
21680.346176999999
 20
20708.598156999989
 30
0.0
 40
15.0
 50
180.0
 51
0.0
  0
ARC
  5
96B2
  8
0
  6
BYBLOCK
 62
     0
 10
22381.346176999999
 20
20708.598156999989
 30
0.0
 40
15.0
 50
180.0
 51
0.0
  0
ARC
  5
96B3
  8
0
  6
BYBLOCK
 62
     0
 10
22381.346176999999
 20
20708.598156999989
 30
0.0
 40
15.0
 50
0.0
 51
180.0
  0
ARC
  5
96B4
  8
0
  6
BYBLOCK
 62
     0
 10
20979.34617700001
 20
20708.598156999989
 30
0.0
 40
15.0
 50
0.0
 51
180.0
  0
ARC
  5
96B5
  8
0
  6
BYBLOCK
 62
     0
 10
20979.34617700001
 20
20708.598156999989
 30
0.0
 40
15.0
 50
180.0
 51
0.0
  0
ARC
  5
96B6
  8
0
  6
BYBLOCK
 62
     0
 10
21680.346176999999
 20
20708.598156999989
 30
0.0
 40
15.0
 50
180.0
 51
0.0
  0
ARC
  5
96B7
  8
0
  6
BYBLOCK
 62
     0
 10
21680.346176999999
 20
20708.598156999989
 30
0.0
 40
15.0
 50
0.0
 51
180.0
  0
ARC
  5
96B8
  8
0
  6
BYBLOCK
 62
     0
 10
19742.354556999981
 20
5937.5591749999867
 30
0.0
 40
15.0
 50
90.0
 51
270.0
  0
ARC
  5
96B9
  8
0
  6
BYBLOCK
 62
     0
 10
19742.354556999981
 20
5937.5591749999867
 30
0.0
 40
15.0
 50
270.0
 51
90.0
  0
ARC
  5
96BA
  8
0
  6
BYBLOCK
 62
     0
 10
19742.354556999981
 20
7829.0591749999858
 30
0.0
 40
15.0
 50
270.0
 51
90.0
  0
ARC
  5
96BB
  8
0
  6
BYBLOCK
 62
     0
 10
19742.354556999981
 20
7829.0591749999858
 30
0.0
 40
15.0
 50
90.0
 51
270.0
  0
ARC
  5
96BC
  8
0
  6
BYBLOCK
 62
     0
 10
19342.352247999988
 20
5937.5591749999867
 30
0.0
 40
15.0
 50
90.0
 51
270.0
  0
ARC
  5
96BD
  8
0
  6
BYBLOCK
 62
     0
 10
19342.352247999988
 20
5937.5591749999867
 30
0.0
 40
15.0
 50
270.0
 51
90.0
  0
ARC
  5
96BE
  8
0
  6
BYBLOCK
 62
     0
 10
19342.352247999988
 20
8285.5591749999949
 30
0.0
 40
15.0
 50
270.0
 51
90.0
  0
ARC
  5
96BF
  8
0
  6
BYBLOCK
 62
     0
 10
19342.352247999988
 20
8285.5591749999949
 30
0.0
 40
15.0
 50
90.0
 51
270.0
  0
ARC
  5
96D0
  8
0
  6
BYBLOCK
 62
     0
 10
20686.353896999979
 20
5037.5593399999898
 30
0.0
 40
15.0
 50
0.0
 51
180.0
  0
ARC
  5
96D1
  8
0
  6
BYBLOCK
 62
     0
 10
20686.353896999979
 20
5037.5593399999898
 30
0.0
 40
15.0
 50
180.0
 51
0.0
  0
ARC
  5
96D2
  8
0
  6
BYBLOCK
 62
     0
 10
23766.85389699999
 20
5037.5593399999898
 30
0.0
 40
15.0
 50
180.0
 51
0.0
  0
ARC
  5
96D3
  8
0
  6
BYBLOCK
 62
     0
 10
23766.85389699999
 20
5037.5593399999898
 30
0.0
 40
15.0
 50
0.0
 51
180.0
  0
ARC
  5
96D4
  8
0
  6
BYBLOCK
 62
     0
 10
23954.853897000001
 20
5037.5593399999898
 30
0.0
 40
15.0
 50
0.0
 51
180.0
  0
ARC
  5
96D5
  8
0
  6
BYBLOCK
 62
     0
 10
23954.853897000001
 20
5037.5593399999898
 30
0.0
 40
15.0
 50
180.0
 51
0.0
  0
ARC
  5
96D6
  8
0
  6
BYBLOCK
 62
     0
 10
25633.35389699999
 20
5037.5593399999898
 30
0.0
 40
15.0
 50
180.0
 51
0.0
  0
ARC
  5
96D7
  8
0
  6
BYBLOCK
 62
     0
 10
25633.35389699999
 20
5037.5593399999898
 30
0.0
 40
15.0
 50
0.0
 51
180.0
  0
ARC
  5
96D8
  8
0
  6
BYBLOCK
 62
     0
 10
23860.853896999979
 20
4637.5593399999898
 30
0.0
 40
15.0
 50
0.0
 51
180.0
  0
ARC
  5
96D9
  8
0
  6
BYBLOCK
 62
     0
 10
23860.853896999979
 20
4637.5593399999898
 30
0.0
 40
15.0
 50
180.0
 51
0.0
  0
ARC
  5
96DA
  8
0
  6
BYBLOCK
 62
     0
 10
25727.353897000001
 20
4637.5593399999898
 30
0.0
 40
15.0
 50
180.0
 51
0.0
  0
ARC
  5
96DB
  8
0
  6
BYBLOCK
 62
     0
 10
25727.353897000001
 20
4637.5593399999898
 30
0.0
 40
15.0
 50
0.0
 51
180.0
  0
ARC
  5
96DC
  8
0
  6
BYBLOCK
 62
     0
 10
20592.35389699999
 20
4637.5593399999898
 30
0.0
 40
15.0
 50
0.0
 51
180.0
  0
ARC
  5
96DD
  8
0
  6
BYBLOCK
 62
     0
 10
20592.35389699999
 20
4637.5593399999898
 30
0.0
 40
15.0
 50
180.0
 51
0.0
  0
ARC
  5
96DE
  8
0
  6
BYBLOCK
 62
     0
 10
23860.853896999979
 20
4637.5593399999898
 30
0.0
 40
15.0
 50
180.0
 51
0.0
  0
ARC
  5
96DF
  8
0
  6
BYBLOCK
 62
     0
 10
23860.853896999979
 20
4637.5593399999898
 30
0.0
 40
15.0
 50
0.0
 51
180.0
  0
ARC
  5
96E0
  8
0
  6
BYBLOCK
 62
     0
 10
25727.357855999991
 20
4637.5593399999898
 30
0.0
 40
15.0
 50
180.0
 51
0.0
  0
ARC
  5
96E1
  8
0
  6
BYBLOCK
 62
     0
 10
25727.357855999991
 20
4637.5593399999898
 30
0.0
 40
15.0
 50
0.0
 51
180.0
  0
ARC
  5
96E2
  8
0
  6
BYBLOCK
 62
     0
 10
25769.857855999991
 20
4637.5593399999898
 30
0.0
 40
15.0
 50
0.0
 51
180.0
  0
ARC
  5
96E3
  8
0
  6
BYBLOCK
 62
     0
 10
25769.857855999991
 20
4637.5593399999898
 30
0.0
 40
15.0
 50
180.0
 51
0.0
  0
ARC
  5
96E4
  8
0
  6
BYBLOCK
 62
     0
 10
20592.35389699999
 20
4637.5593399999898
 30
0.0
 40
15.0
 50
0.0
 51
180.0
  0
ARC
  5
96E5
  8
0
  6
BYBLOCK
 62
     0
 10
20592.35389699999
 20
4637.5593399999898
 30
0.0
 40
15.0
 50
180.0
 51
0.0
  0
ARC
  5
96E6
  8
0
  6
BYBLOCK
 62
     0
 10
20549.853897000001
 20
4637.5593399999898
 30
0.0
 40
15.0
 50
180.0
 51
0.0
  0
ARC
  5
96E7
  8
0
  6
BYBLOCK
 62
     0
 10
20549.853897000001
 20
4637.5593399999898
 30
0.0
 40
15.0
 50
0.0
 51
180.0
  0
ARC
  5
96E8
  8
0
  6
BYBLOCK
 62
     0
 10
20549.853897000001
 20
4237.5595049999874
 30
0.0
 40
15.0
 50
0.0
 51
180.0
  0
ARC
  5
96E9
  8
0
  6
BYBLOCK
 62
     0
 10
20549.853897000001
 20
4237.5595049999874
 30
0.0
 40
15.0
 50
180.0
 51
0.0
  0
ARC
  5
96EA
  8
0
  6
BYBLOCK
 62
     0
 10
25769.85389699999
 20
4237.5595049999874
 30
0.0
 40
15.0
 50
180.0
 51
0.0
  0
ARC
  5
96EB
  8
0
  6
BYBLOCK
 62
     0
 10
25769.85389699999
 20
4237.5595049999874
 30
0.0
 40
15.0
 50
0.0
 51
180.0
  0
ARC
  5
96EC
  8
0
  6
BYBLOCK
 62
     0
 10
7986.8524979091299
 20
9485.5592009999837
 30
0.0
 40
15.0
 50
0.0
 51
180.0
  0
ARC
  5
96ED
  8
0
  6
BYBLOCK
 62
     0
 10
7986.8524979091299
 20
9485.5592009999837
 30
0.0
 40
15.0
 50
180.0
 51
0.0
  0
ARC
  5
96EE
  8
0
  6
BYBLOCK
 62
     0
 10
14588.352497909131
 20
9485.5592009999837
 30
0.0
 40
15.0
 50
180.0
 51
0.0
  0
ARC
  5
96EF
  8
0
  6
BYBLOCK
 62
     0
 10
14588.352497909131
 20
9485.5592009999837
 30
0.0
 40
15.0
 50
0.0
 51
180.0
  0
ARC
  5
96F0
  8
0
  6
BYBLOCK
 62
     0
 10
14438.352497909131
 20
9085.5608509999911
 30
0.0
 40
15.0
 50
180.0
 51
0.0
  0
ARC
  5
96F1
  8
0
  6
BYBLOCK
 62
     0
 10
14438.352497909131
 20
9085.5608509999911
 30
0.0
 40
15.0
 50
0.0
 51
180.0
  0
ARC
  5
96F2
  8
0
  6
BYBLOCK
 62
     0
 10
14588.352497909131
 20
9085.5608509999911
 30
0.0
 40
15.0
 50
0.0
 51
180.0
  0
ARC
  5
96F3
  8
0
  6
BYBLOCK
 62
     0
 10
14588.352497909131
 20
9085.5608509999911
 30
0.0
 40
15.0
 50
180.0
 51
0.0
  0
ARC
  5
96F4
  8
0
  6
BYBLOCK
 62
     0
 10
8166.8524979091308
 20
9085.5608509999911
 30
0.0
 40
15.0
 50
0.0
 51
180.0
  0
ARC
  5
96F5
  8
0
  6
BYBLOCK
 62
     0
 10
8166.8524979091308
 20
9085.5608509999911
 30
0.0
 40
15.0
 50
180.0
 51
0.0
  0
ARC
  5
96F6
  8
0
  6
BYBLOCK
 62
     0
 10
14438.352497909131
 20
9085.5608509999911
 30
0.0
 40
15.0
 50
180.0
 51
0.0
  0
ARC
  5
96F7
  8
0
  6
BYBLOCK
 62
     0
 10
14438.352497909131
 20
9085.5608509999911
 30
0.0
 40
15.0
 50
0.0
 51
180.0
  0
ARC
  5
96F8
  8
0
  6
BYBLOCK
 62
     0
 10
7986.8524979091299
 20
9085.5608509999875
 30
0.0
 40
15.0
 50
180.0
 51
0.0
  0
ARC
  5
96F9
  8
0
  6
BYBLOCK
 62
     0
 10
7986.8524979091299
 20
9085.5608509999875
 30
0.0
 40
15.0
 50
0.0
 51
180.0
  0
ARC
  5
96FA
  8
0
  6
BYBLOCK
 62
     0
 10
8166.8524979091308
 20
9085.5608509999875
 30
0.0
 40
15.0
 50
0.0
 51
180.0
  0
ARC
  5
96FB
  8
0
  6
BYBLOCK
 62
     0
 10
8166.8524979091308
 20
9085.5608509999875
 30
0.0
 40
15.0
 50
180.0
 51
0.0
  0
ARC
  5
96FC
  8
0
  6
BYBLOCK
 62
     0
 10
15528.35289390913
 20
5937.5591749999903
 30
0.0
 40
15.0
 50
90.0
 51
270.0
  0
ARC
  5
96FD
  8
0
  6
BYBLOCK
 62
     0
 10
15528.35289390913
 20
5937.5591749999903
 30
0.0
 40
15.0
 50
270.0
 51
90.0
  0
ARC
  5
96FE
  8
0
  6
BYBLOCK
 62
     0
 10
15528.35289390913
 20
8285.5591749999894
 30
0.0
 40
15.0
 50
270.0
 51
90.0
  0
ARC
  5
96FF
  8
0
  6
BYBLOCK
 62
     0
 10
15528.35289390913
 20
8285.5591749999894
 30
0.0
 40
15.0
 50
90.0
 51
270.0
  0
ARC
  5
9700
  8
0
  6
BYBLOCK
 62
     0
 10
7076.8521019091349
 20
5937.5591749999903
 30
0.0
 40
15.0
 50
90.0
 51
270.0
  0
ARC
  5
9701
  8
0
  6
BYBLOCK
 62
     0
 10
7076.8521019091349
 20
5937.5591749999903
 30
0.0
 40
15.0
 50
270.0
 51
90.0
  0
ARC
  5
9702
  8
0
  6
BYBLOCK
 62
     0
 10
7076.8521019091349
 20
8094.5591749999912
 30
0.0
 40
15.0
 50
270.0
 51
90.0
  0
ARC
  5
9703
  8
0
  6
BYBLOCK
 62
     0
 10
7076.8521019091349
 20
8094.5591749999912
 30
0.0
 40
15.0
 50
90.0
 51
270.0
  0
ARC
  5
9704
  8
0
  6
BYBLOCK
 62
     0
 10
8166.8524979091308
 20
4237.5595049999911
 30
0.0
 40
15.0
 50
0.0
 51
180.0
  0
ARC
  5
9705
  8
0
  6
BYBLOCK
 62
     0
 10
8166.8524979091308
 20
4237.5595049999911
 30
0.0
 40
15.0
 50
180.0
 51
0.0
  0
ARC
  5
9706
  8
0
  6
BYBLOCK
 62
     0
 10
14438.352497909131
 20
4237.5595049999911
 30
0.0
 40
15.0
 50
180.0
 51
0.0
  0
ARC
  5
9707
  8
0
  6
BYBLOCK
 62
     0
 10
14438.352497909131
 20
4237.5595049999911
 30
0.0
 40
15.0
 50
0.0
 51
180.0
  0
ARC
  5
9708
  8
0
  6
BYBLOCK
 62
     0
 10
14395.852497909131
 20
4637.5593399999898
 30
0.0
 40
15.0
 50
180.0
 51
0.0
  0
ARC
  5
9709
  8
0
  6
BYBLOCK
 62
     0
 10
14395.852497909131
 20
4637.5593399999898
 30
0.0
 40
15.0
 50
0.0
 51
180.0
  0
ARC
  5
970A
  8
0
  6
BYBLOCK
 62
     0
 10
14438.352497909131
 20
4637.5593399999898
 30
0.0
 40
15.0
 50
0.0
 51
180.0
  0
ARC
  5
970B
  8
0
  6
BYBLOCK
 62
     0
 10
14438.352497909131
 20
4637.5593399999898
 30
0.0
 40
15.0
 50
180.0
 51
0.0
  0
ARC
  5
970C
  8
0
  6
BYBLOCK
 62
     0
 10
8209.3524979091253
 20
4637.5593399999898
 30
0.0
 40
15.0
 50
0.0
 51
180.0
  0
ARC
  5
970D
  8
0
  6
BYBLOCK
 62
     0
 10
8209.3524979091253
 20
4637.5593399999898
 30
0.0
 40
15.0
 50
180.0
 51
0.0
  0
ARC
  5
970E
  8
0
  6
BYBLOCK
 62
     0
 10
8166.8524979091308
 20
4637.5593399999898
 30
0.0
 40
15.0
 50
180.0
 51
0.0
  0
ARC
  5
970F
  8
0
  6
BYBLOCK
 62
     0
 10
8166.8524979091308
 20
4637.5593399999898
 30
0.0
 40
15.0
 50
0.0
 51
180.0
  0
ARC
  5
9710
  8
0
  6
BYBLOCK
 62
     0
 10
11127.352497909131
 20
4637.5593399999898
 30
0.0
 40
15.0
 50
180.0
 51
0.0
  0
ARC
  5
9711
  8
0
  6
BYBLOCK
 62
     0
 10
11127.352497909131
 20
4637.5593399999898
 30
0.0
 40
15.0
 50
0.0
 51
180.0
  0
ARC
  5
9712
  8
0
  6
BYBLOCK
 62
     0
 10
8209.3524979091253
 20
4637.5593399999898
 30
0.0
 40
15.0
 50
0.0
 51
180.0
  0
ARC
  5
9713
  8
0
  6
BYBLOCK
 62
     0
 10
8209.3524979091253
 20
4637.5593399999898
 30
0.0
 40
15.0
 50
180.0
 51
0.0
  0
ARC
  5
9714
  8
0
  6
BYBLOCK
 62
     0
 10
11127.352497909131
 20
4637.5593399999898
 30
0.0
 40
15.0
 50
0.0
 51
180.0
  0
ARC
  5
9715
  8
0
  6
BYBLOCK
 62
     0
 10
11127.352497909131
 20
4637.5593399999898
 30
0.0
 40
15.0
 50
180.0
 51
0.0
  0
ARC
  5
9716
  8
0
  6
BYBLOCK
 62
     0
 10
14395.852497909131
 20
4637.5593399999898
 30
0.0
 40
15.0
 50
180.0
 51
0.0
  0
ARC
  5
9717
  8
0
  6
BYBLOCK
 62
     0
 10
14395.852497909131
 20
4637.5593399999898
 30
0.0
 40
15.0
 50
0.0
 51
180.0
  0
LINE
  5
983D
  8
0-1
  6
CONTINUOUS
 62
     3
 10
25663.85687899997
 20
8036.0591949999844
 30
0.0
 11
25663.85687899997
 21
8068.0591019999847
 31
0.0
  0
LINE
  5
983E
  8
0-1
  6
CONTINUOUS
 62
     3
 10
25812.856271999972
 20
7959.8724729999867
 30
0.0
 11
25769.854160999999
 21
7959.8724729999867
 31
0.0
  0
LINE
  5
983F
  8
0-1
  6
CONTINUOUS
 62
     3
 10
25812.856271999972
 20
8286.0595239999857
 30
0.0
 11
25812.856271999972
 21
7959.8724729999867
 31
0.0
  0
LINE
  5
9840
  8
0-1
  6
CONTINUOUS
 62
     3
 10
25377.88968599998
 20
8032.5237739999866
 30
0.0
 11
25345.89076900002
 21
8064.5236819999827
 31
0.0
  0
LINE
  5
9841
  8
0-1
  6
CONTINUOUS
 62
     3
 10
25658.856614999979
 20
8073.059365999984
 30
0.0
 11
25349.426189000009
 21
8073.059365999984
 31
0.0
  0
LINE
  5
9842
  8
0-1
  6
CONTINUOUS
 62
     3
 10
25663.85687899997
 20
8064.6602689999881
 30
0.0
 11
25345.76012000001
 21
8064.6602689999881
 31
0.0
  0
LINE
  5
9843
  8
0-1
  6
CONTINUOUS
 62
     3
 10
25658.856614999979
 20
8031.0589309999841
 30
0.0
 11
25381.427086
 21
8031.0589309999841
 31
0.0
  0
LINE
  5
9844
  8
0-1
  6
CONTINUOUS
 62
     3
 10
25663.85687899997
 20
8039.4590179999841
 30
0.0
 11
25370.95543300001
 21
8039.4590179999841
 31
0.0
  0
LINE
  5
9845
  8
0-1
  6
CONTINUOUS
 62
     3
 10
25663.85687899997
 20
8047.8591049999814
 30
0.0
 11
25362.556334999968
 21
8047.8591049999814
 31
0.0
  0
LINE
  5
9846
  8
0-1
  6
CONTINUOUS
 62
     3
 10
25663.85687899997
 20
8056.2601819999836
 30
0.0
 11
25354.155258999999
 21
8056.2601819999836
 31
0.0
  0
LINE
  5
9847
  8
0-1
  6
CONTINUOUS
 62
     3
 10
24210.320087000018
 20
8032.5237739999866
 30
0.0
 11
24242.317025000011
 21
8064.5236819999827
 31
0.0
  0
LINE
  5
9848
  8
0-1
  6
CONTINUOUS
 62
     3
 10
23924.354873000029
 20
8036.0591949999844
 30
0.0
 11
23924.354873000029
 21
8068.0591019999847
 31
0.0
  0
LINE
  5
9849
  8
0-1
  6
CONTINUOUS
 62
     3
 10
23924.354873000029
 20
8039.4590179999841
 30
0.0
 11
24217.252360999999
 21
8039.4590179999841
 31
0.0
  0
LINE
  5
984A
  8
0-1
  6
CONTINUOUS
 62
     3
 10
23924.354873000029
 20
8047.8591049999814
 30
0.0
 11
24225.653438000019
 21
8047.8591049999814
 31
0.0
  0
LINE
  5
984B
  8
0-1
  6
CONTINUOUS
 62
     3
 10
23929.35513700002
 20
8031.0589309999841
 30
0.0
 11
24206.782687000021
 21
8031.0589309999841
 31
0.0
  0
LINE
  5
984C
  8
0-1
  6
CONTINUOUS
 62
     3
 10
23924.354873000029
 20
8056.2601819999836
 30
0.0
 11
24234.052534999999
 21
8056.2601819999836
 31
0.0
  0
LINE
  5
984D
  8
0-1
  6
CONTINUOUS
 62
     3
 10
23924.354873000029
 20
8064.6602689999881
 30
0.0
 11
24242.449653000021
 21
8064.6602689999881
 31
0.0
  0
LINE
  5
984E
  8
0-1
  6
CONTINUOUS
 62
     3
 10
23929.35513700002
 20
8073.059365999984
 30
0.0
 11
24238.783584000019
 21
8073.059365999984
 31
0.0
  0
LINE
  5
984F
  8
0-1
  6
CONTINUOUS
 62
     3
 10
25812.856271999972
 20
8156.058600999987
 30
0.0
 11
23860.853897000012
 21
8156.058600999987
 31
0.0
  0
LINE
  5
9850
  8
0-1
  6
CONTINUOUS
 62
     3
 10
23903.352181000009
 20
8082.0592469999892
 30
0.0
 11
25684.855611999981
 21
8082.0592469999892
 31
0.0
  0
LINE
  5
9851
  8
0-1
  6
CONTINUOUS
 62
     3
 10
23903.352181000009
 20
8022.0590489999877
 30
0.0
 11
25684.855611999981
 21
8022.0590489999877
 31
0.0
  0
LINE
  5
9852
  8
0-1
  6
CONTINUOUS
 62
     3
 10
23860.853897000012
 20
8286.0595239999857
 30
0.0
 11
25812.856271999972
 21
8286.0595239999857
 31
0.0
  0
LINE
  5
9853
  8
0-1
  6
CONTINUOUS
 62
     3
 10
23797.352921000002
 20
8036.0591949999844
 30
0.0
 11
23797.352921000002
 21
8068.0591019999847
 31
0.0
  0
LINE
  5
9854
  8
0-1
  6
CONTINUOUS
 62
     3
 10
23511.391666
 20
8032.5237739999866
 30
0.0
 11
23479.390769000009
 21
8064.5236819999827
 31
0.0
  0
LINE
  5
9855
  8
0-1
  6
CONTINUOUS
 62
     3
 10
23797.352921000002
 20
8064.6602689999881
 30
0.0
 11
23479.260120999981
 21
8064.6602689999881
 31
0.0
  0
LINE
  5
9856
  8
0-1
  6
CONTINUOUS
 62
     3
 10
23797.352921000002
 20
8056.2601819999836
 30
0.0
 11
23487.655258999999
 21
8056.2601819999836
 31
0.0
  0
LINE
  5
9857
  8
0-1
  6
CONTINUOUS
 62
     3
 10
23797.352921000002
 20
8047.8591049999814
 30
0.0
 11
23496.054356000001
 21
8047.8591049999814
 31
0.0
  0
LINE
  5
9858
  8
0-1
  6
CONTINUOUS
 62
     3
 10
23797.352921000002
 20
8039.4590179999841
 30
0.0
 11
23504.453453999991
 21
8039.4590179999841
 31
0.0
  0
LINE
  5
9859
  8
0-1
  6
CONTINUOUS
 62
     3
 10
23792.354635999978
 20
8073.059365999984
 30
0.0
 11
23482.924209999968
 21
8073.059365999984
 31
0.0
  0
LINE
  5
985A
  8
0-1
  6
CONTINUOUS
 62
     3
 10
23792.354635999978
 20
8031.0589309999841
 30
0.0
 11
23514.927087
 21
8031.0589309999841
 31
0.0
  0
LINE
  5
985B
  8
0-1
  6
CONTINUOUS
 62
     3
 10
20660.853158000002
 20
8031.0589309999841
 30
0.0
 11
20938.282687999981
 21
8031.0589309999841
 31
0.0
  0
LINE
  5
985C
  8
0-1
  6
CONTINUOUS
 62
     3
 10
20655.854873999979
 20
8036.0591949999844
 30
0.0
 11
20655.854873999979
 21
8068.0591019999847
 31
0.0
  0
LINE
  5
985D
  8
0-1
  6
CONTINUOUS
 62
     3
 10
20506.853502000002
 20
7959.8724729999867
 30
0.0
 11
20549.851654000009
 21
7959.8724729999867
 31
0.0
  0
LINE
  5
985E
  8
0-1
  6
CONTINUOUS
 62
     3
 10
20506.853502000002
 20
7959.8724729999867
 30
0.0
 11
20506.853502000002
 21
8286.0595239999857
 31
0.0
  0
LINE
  5
985F
  8
0-1
  6
CONTINUOUS
 62
     3
 10
20660.853158000002
 20
8073.059365999984
 30
0.0
 11
20970.283585000008
 21
8073.059365999984
 31
0.0
  0
LINE
  5
9860
  8
0-1
  6
CONTINUOUS
 62
     3
 10
20941.816127999999
 20
8032.5237739999866
 30
0.0
 11
20973.817025999972
 21
8064.5236819999827
 31
0.0
  0
LINE
  5
9861
  8
0-1
  6
CONTINUOUS
 62
     3
 10
20655.854873999979
 20
8064.6602689999881
 30
0.0
 11
20973.949653
 21
8064.6602689999881
 31
0.0
  0
LINE
  5
9862
  8
0-1
  6
CONTINUOUS
 62
     3
 10
20655.854873999979
 20
8056.2601819999836
 30
0.0
 11
20965.55253600001
 21
8056.2601819999836
 31
0.0
  0
LINE
  5
9863
  8
0-1
  6
CONTINUOUS
 62
     3
 10
20655.854873999979
 20
8047.8591049999814
 30
0.0
 11
20957.15343799999
 21
8047.8591049999814
 31
0.0
  0
LINE
  5
9864
  8
0-1
  6
CONTINUOUS
 62
     3
 10
20655.854873999979
 20
8039.4590179999841
 30
0.0
 11
20948.754341000011
 21
8039.4590179999841
 31
0.0
  0
LINE
  5
9865
  8
0-1
  6
CONTINUOUS
 62
     3
 10
20634.85218200001
 20
8022.0590489999877
 30
0.0
 11
23818.35363300001
 21
8022.0590489999877
 31
0.0
  0
LINE
  5
9866
  8
0-1
  6
CONTINUOUS
 62
     3
 10
20634.85218200001
 20
8082.0592469999892
 30
0.0
 11
23818.35363300001
 21
8082.0592469999892
 31
0.0
  0
LINE
  5
9867
  8
0-1
  6
CONTINUOUS
 62
     3
 10
20506.853502000002
 20
8286.0595239999857
 30
0.0
 11
23860.853897000012
 21
8286.0595239999857
 31
0.0
  0
LINE
  5
9868
  8
0-1
  6
CONTINUOUS
 62
     3
 10
23860.853897000012
 20
8156.058600999987
 30
0.0
 11
20506.853502000002
 21
8156.058600999987
 31
0.0
  0
LINE
  5
9869
  8
0-1
  6
CONTINUOUS
 62
     3
 10
23860.853897000012
 20
8156.058600999987
 30
0.0
 11
23860.853897000012
 21
8286.0595239999857
 31
0.0
  0
LINE
  5
986A
  8
0-1
  6
CONTINUOUS
 62
     3
 10
23860.853897000012
 20
8156.058600999987
 30
0.0
 11
23860.853897000012
 21
8286.0595239999857
 31
0.0
  0
ARC
  5
986B
  8
0-1
  6
CONTINUOUS
 62
     3
 10
25658.856614999979
 20
8068.0591019999847
 30
0.0
 40
5.0
 50
0.0
 51
90.0
  0
ARC
  5
986C
  8
0-1
  6
CONTINUOUS
 62
     3
 10
25658.856614999979
 20
8036.0591949999844
 30
0.0
 40
5.0
 50
269.9999850001808
 51
0.0
  0
ARC
  5
986D
  8
0-1
  6
CONTINUOUS
 62
     3
 10
25349.426189000009
 20
8068.0591019999847
 30
0.0
 40
5.0
 50
90.0
 51
224.99998499997989
  0
ARC
  5
986E
  8
0-1
  6
CONTINUOUS
 62
     3
 10
25381.427086
 20
8036.0591949999844
 30
0.0
 40
5.0
 50
224.99998499997989
 51
269.9999850001808
  0
ARC
  5
986F
  8
0-1
  6
CONTINUOUS
 62
     3
 10
24238.783584000019
 20
8068.0591019999847
 30
0.0
 40
5.0
 50
314.99998500027471
 51
90.0
  0
ARC
  5
9870
  8
0-1
  6
CONTINUOUS
 62
     3
 10
24206.782687000021
 20
8036.0591949999844
 30
0.0
 40
5.0
 50
269.9999850001808
 51
314.99998500027471
  0
ARC
  5
9871
  8
0-1
  6
CONTINUOUS
 62
     3
 10
23929.35513700002
 20
8036.0591949999844
 30
0.0
 40
5.0
 50
180.0
 51
269.9999850001808
  0
ARC
  5
9872
  8
0-1
  6
CONTINUOUS
 62
     3
 10
23929.35513700002
 20
8068.0591019999847
 30
0.0
 40
5.0
 50
90.0
 51
180.0
  0
ARC
  5
9873
  8
0-1
  6
CONTINUOUS
 62
     3
 10
23792.354635999978
 20
8036.0591949999844
 30
0.0
 40
5.0
 50
269.9999850001808
 51
0.0
  0
ARC
  5
9874
  8
0-1
  6
CONTINUOUS
 62
     3
 10
23792.354635999978
 20
8068.0591019999847
 30
0.0
 40
5.0
 50
0.0
 51
90.0
  0
ARC
  5
9875
  8
0-1
  6
CONTINUOUS
 62
     3
 10
23482.924209999968
 20
8068.0591019999847
 30
0.0
 40
5.0
 50
90.0
 51
224.99998499997989
  0
ARC
  5
9876
  8
0-1
  6
CONTINUOUS
 62
     3
 10
23514.927087
 20
8036.0591949999844
 30
0.0
 40
5.0
 50
224.99998499997989
 51
269.9999850001808
  0
ARC
  5
9877
  8
0-1
  6
CONTINUOUS
 62
     3
 10
20970.283585000008
 20
8068.0591019999847
 30
0.0
 40
5.0
 50
314.99998500027471
 51
90.0
  0
ARC
  5
9878
  8
0-1
  6
CONTINUOUS
 62
     3
 10
20660.853158000002
 20
8068.0591019999847
 30
0.0
 40
5.0
 50
90.0
 51
180.0
  0
ARC
  5
9879
  8
0-1
  6
CONTINUOUS
 62
     3
 10
20660.853158000002
 20
8036.0591949999844
 30
0.0
 40
5.0
 50
180.0
 51
269.9999850001808
  0
ARC
  5
987A
  8
0-1
  6
CONTINUOUS
 62
     3
 10
20938.282687999981
 20
8036.0591949999844
 30
0.0
 40
5.0
 50
269.9999850001808
 51
314.99998500027471
  0
LINE
  5
987B
  8
SUNPOU
  6
CONTINUOUS
 62
     4
 10
20506.851521999972
 20
8366.0595239999857
 30
0.0
 11
20506.851521999972
 21
9565.5171359999658
 31
0.0
  0
LINE
  5
987C
  8
SUNPOU
  6
CONTINUOUS
 62
     4
 10
25812.856271999972
 20
8366.0595239999857
 30
0.0
 11
25812.856271999972
 21
9565.5171359999658
 31
0.0
  0
LINE
  5
987D
  8
SUNPOU
  6
CONTINUOUS
 62
     4
 10
20509.851521999972
 20
9485.517135999984
 30
0.0
 11
25809.856271999972
 21
9485.517135999984
 31
0.0
  0
LINE
  5
987E
  8
SUNPOU
  6
CONTINUOUS
 62
     4
 10
20549.85363300001
 20
8366.0595239999857
 30
0.0
 11
20549.85363300001
 21
9165.5593659999849
 31
0.0
  0
LINE
  5
987F
  8
SUNPOU
  6
CONTINUOUS
 62
     4
 10
25769.854160999999
 20
8366.0595239999857
 30
0.0
 11
25769.854160999999
 21
9165.5593659999849
 31
0.0
  0
LINE
  5
9880
  8
SUNPOU
  6
CONTINUOUS
 62
     4
 10
20549.85363300001
 20
9085.5593659999813
 30
0.0
 11
25769.854160999999
 21
9085.5593659999813
 31
0.0
  0
LINE
  5
9881
  8
SUNPOU
  6
CONTINUOUS
 62
     4
 10
20549.85363300001
 20
8366.0595239999857
 30
0.0
 11
20549.85363300001
 21
9165.5593659999849
 31
0.0
  0
LINE
  5
9882
  8
SUNPOU
  6
CONTINUOUS
 62
     4
 10
20506.851521999972
 20
8366.0595239999857
 30
0.0
 11
20506.851521999972
 21
9165.5593659999849
 31
0.0
  0
LINE
  5
9883
  8
SUNPOU
  6
CONTINUOUS
 62
     4
 10
20549.85363300001
 20
9085.5593659999813
 30
0.0
 11
20789.85363300001
 21
9085.5593659999813
 31
0.0
  0
LINE
  5
9884
  8
SUNPOU
  6
CONTINUOUS
 62
     4
 10
20509.851521999972
 20
9085.5593659999813
 30
0.0
 11
20269.851521999972
 21
9085.5593659999813
 31
0.0
  0
LINE
  5
9885
  8
SUNPOU
  6
CONTINUOUS
 62
     4
 10
20549.85363300001
 20
9085.5593659999813
 30
0.0
 11
20509.851521999972
 21
9085.5593659999813
 31
0.0
  0
LINE
  5
9886
  8
SUNPOU
  6
CONTINUOUS
 62
     4
 10
25769.854160999999
 20
8366.0595239999857
 30
0.0
 11
25769.854160999999
 21
9165.5593659999849
 31
0.0
  0
LINE
  5
9887
  8
SUNPOU
  6
CONTINUOUS
 62
     4
 10
25812.856271999972
 20
8366.0595239999857
 30
0.0
 11
25812.856271999972
 21
9165.5593659999849
 31
0.0
  0
LINE
  5
9888
  8
SUNPOU
  6
CONTINUOUS
 62
     4
 10
25769.854160999999
 20
9085.5593659999813
 30
0.0
 11
25529.854160999999
 21
9085.5593659999813
 31
0.0
  0
LINE
  5
9889
  8
SUNPOU
  6
CONTINUOUS
 62
     4
 10
25809.856271999972
 20
9085.5593659999813
 30
0.0
 11
26049.856271999972
 21
9085.5593659999813
 31
0.0
  0
LINE
  5
988A
  8
SUNPOU
  6
CONTINUOUS
 62
     4
 10
25769.854160999999
 20
9085.5593659999813
 30
0.0
 11
25809.856271999972
 21
9085.5593659999813
 31
0.0
  0
TEXT
  5
988B
  8
0
  6
CONTINUOUS
 62
     7
 10
25929.856271999972
 20
9165.5593659999849
 30
0.0
 40
160.0
  1
43
  0
TEXT
  5
988C
  8
0
  6
CONTINUOUS
 62
     7
 10
20149.85152199999
 20
9165.5593659999849
 30
0.0
 40
160.0
  1
43
  0
TEXT
  5
988D
  8
0
  6
CONTINUOUS
 62
     7
 10
22879.853897000019
 20
9165.5593659999849
 30
0.0
 40
160.0
  1
5220
  0
TEXT
  5
988E
  8
0
  6
CONTINUOUS
 62
     7
 10
22893.187230333318
 20
9565.5171359999658
 30
0.0
 40
160.0
  1
5306
  0
ARC
  5
988F
  8
0
  6
BYBLOCK
 62
     0
 10
20506.851521999972
 20
9485.517135999984
 30
0.0
 40
15.0
 50
0.0
 51
180.0
  0
ARC
  5
9890
  8
0
  6
BYBLOCK
 62
     0
 10
20506.851521999972
 20
9485.517135999984
 30
0.0
 40
15.0
 50
180.0
 51
0.0
  0
ARC
  5
9891
  8
0
  6
BYBLOCK
 62
     0
 10
25812.856271999972
 20
9485.517135999984
 30
0.0
 40
15.0
 50
180.0
 51
0.0
  0
ARC
  5
9892
  8
0
  6
BYBLOCK
 62
     0
 10
25812.856271999972
 20
9485.517135999984
 30
0.0
 40
15.0
 50
0.0
 51
180.0
  0
ARC
  5
9893
  8
0
  6
BYBLOCK
 62
     0
 10
20549.85363300001
 20
9085.5593659999813
 30
0.0
 40
15.0
 50
0.0
 51
180.0
  0
ARC
  5
9894
  8
0
  6
BYBLOCK
 62
     0
 10
20549.85363300001
 20
9085.5593659999813
 30
0.0
 40
15.0
 50
180.0
 51
0.0
  0
ARC
  5
9895
  8
0
  6
BYBLOCK
 62
     0
 10
25769.854160999999
 20
9085.5593659999813
 30
0.0
 40
15.0
 50
180.0
 51
0.0
  0
ARC
  5
9896
  8
0
  6
BYBLOCK
 62
     0
 10
25769.854160999999
 20
9085.5593659999813
 30
0.0
 40
15.0
 50
0.0
 51
180.0
  0
ARC
  5
9897
  8
0
  6
BYBLOCK
 62
     0
 10
20549.85363300001
 20
9085.5593659999813
 30
0.0
 40
15.0
 50
0.0
 51
180.0
  0
ARC
  5
9898
  8
0
  6
BYBLOCK
 62
     0
 10
20549.85363300001
 20
9085.5593659999813
 30
0.0
 40
15.0
 50
180.0
 51
0.0
  0
ARC
  5
9899
  8
0
  6
BYBLOCK
 62
     0
 10
20506.851521999972
 20
9085.5593659999813
 30
0.0
 40
15.0
 50
180.0
 51
0.0
  0
ARC
  5
989A
  8
0
  6
BYBLOCK
 62
     0
 10
20506.851521999972
 20
9085.5593659999813
 30
0.0
 40
15.0
 50
0.0
 51
180.0
  0
ARC
  5
989B
  8
0
  6
BYBLOCK
 62
     0
 10
25769.854160999999
 20
9085.5593659999813
 30
0.0
 40
15.0
 50
180.0
 51
0.0
  0
ARC
  5
989C
  8
0
  6
BYBLOCK
 62
     0
 10
25769.854160999999
 20
9085.5593659999813
 30
0.0
 40
15.0
 50
0.0
 51
180.0
  0
ARC
  5
989D
  8
0
  6
BYBLOCK
 62
     0
 10
25812.856271999972
 20
9085.5593659999813
 30
0.0
 40
15.0
 50
0.0
 51
180.0
  0
ARC
  5
989E
  8
0
  6
BYBLOCK
 62
     0
 10
25812.856271999972
 20
9085.5593659999813
 30
0.0
 40
15.0
 50
180.0
 51
0.0
  0
LINE
  5
98AC
  8
SUNPOU
  6
CONTINUOUS
 62
     4
 10
8371.8411931351893
 20
13497.59427799998
 30
0.0
 11
8371.8411931351893
 21
12318.64744699997
 31
0.0
  0
LINE
  5
98AD
  8
SUNPOU
  6
CONTINUOUS
 62
     4
 10
13677.84099513519
 20
13497.59427799998
 30
0.0
 11
13677.84099513519
 21
12318.64744699997
 31
0.0
  0
LINE
  5
98AE
  8
SUNPOU
  6
CONTINUOUS
 62
     4
 10
8371.8411931351893
 20
12398.64744699997
 30
0.0
 11
13677.84099513519
 21
12398.64744699997
 31
0.0
  0
TEXT
  5
98AF
  8
0
  6
CONTINUOUS
 62
     7
 10
10235.50776080184
 20
12478.64744699997
 30
0.0
 40
160.0
  1
ケラバ外寸 5306
  0
ARC
  5
98B0
  8
0
  6
BYBLOCK
 62
     0
 10
8371.8411931351893
 20
12398.64744699997
 30
0.0
 40
15.0
 50
0.0
 51
180.0
  0
ARC
  5
98B1
  8
0
  6
BYBLOCK
 62
     0
 10
8371.8411931351893
 20
12398.64744699997
 30
0.0
 40
15.0
 50
180.0
 51
0.0
  0
ARC
  5
98B2
  8
0
  6
BYBLOCK
 62
     0
 10
13677.84099513519
 20
12398.64744699997
 30
0.0
 40
15.0
 50
180.0
 51
0.0
  0
ARC
  5
98B3
  8
0
  6
BYBLOCK
 62
     0
 10
13677.84099513519
 20
12398.64744699997
 30
0.0
 40
15.0
 50
0.0
 51
180.0
  0
TEXT
  5
9909
  8
NAME
 10
21933.552716388989
 20
1876.0
 30
0.0
 40
360.0
  1
ヨドガレージ ラヴィージュ
 41
0.75
  7
01
  0
LINE
  5
990A
  8
NAME
  6
CONTINUOUS
 10
26067.886878884288
 20
2236.0
 30
0.0
 11
26067.886878884288
 21
1876.0
 31
0.0
  0
LINE
  5
990B
  8
NAME
  6
CONTINUOUS
 10
26167.886878884288
 20
2236.0
 30
0.0
 11
26167.886878884288
 21
1876.0
 31
0.0
  0
LINE
  5
990C
  8
NAME
  6
CONTINUOUS
 10
26267.88687888431
 20
2236.0
 30
0.0
 11
26267.88687888431
 21
1876.0
 31
0.0
  0
LINE
  5
990D
  8
NAME
  6
CONTINUOUS
 10
26007.886878884288
 20
2236.0
 30
0.0
 11
26327.886878884288
 21
2236.0
 31
0.0
  0
LINE
  5
990E
  8
NAME
  6
CONTINUOUS
 10
26327.886878884288
 20
1876.0
 30
0.0
 11
26007.886878884288
 21
1876.0
 31
0.0
  0
TEXT
  5
999C
  8
NAME
 10
25530.092913773529
 20
1076.0
 30
0.0
 40
360.0
  1
型（単棟）
 41
0.6
  7
01
  0
TEXT
  5
999D
  8
NAME
 10
21583.54782960095
 20
1076.6369801169251
 30
0.0
 40
360.0
  1
VGC-3362（H）+1962（H）
 41
0.55
  0
TEXT
  5
9A37
  8
FILENAME
  6
CONTINUOUS
 10
27746.857142857141
 20
348.0
 30
0.0
 40
200.0
  1
＜VGC-3362+1962-1-A_0.DXF ＞
  7
FILENAME
 72
     2
 11
32764.0
 21
348.0
 31
0.0
  0
LINE
  5
9A3C
  8
WAKUSEN-01
 10
868.00000000000193
 20
827.99999999999955
 30
0.0
 11
32764.000000000011
 21
827.99999999999943
 31
0.0
  0
LINE
  5
9A3D
  8
WAKUSEN-01
 10
868.00000000000193
 20
827.99999999999955
 30
0.0
 11
868.00000000000193
 21
22484.000000000011
 31
0.0
  0
LINE
  5
9A3E
  8
WAKUSEN-01
 10
32764.000000000011
 20
827.99999999999943
 30
0.0
 11
32764.000000000011
 21
22484.000000000011
 31
0.0
  0
LINE
  5
9A3F
  8
WAKUSEN-01
 10
20560.0
 20
827.99999999999716
 30
0.0
 11
20560.0
 21
2484.0
 31
0.0
  0
LINE
  5
9A40
  8
WAKUSEN-02
 10
26868.0
 20
827.99999999999261
 30
0.0
 11
26868.0
 21
2484.0
 31
0.0
  0
ENDSEC
  0
EOF
